  0
SECTION
  2
HEADER
  9
$ACADVER
  1
AC1024
  9
$DWGCODEPAGE
  3
ANSI_1252
  9
$EXTMAX
 10
558.8
 20
431.8
 30
0.0
  9
$EXTMIN
 10
0.0
 20
0.0
 30
0.0
  9
$LIMMIN
 10
0.0
 20
0.0
  9
$LIMMAX
 10
558.8
 20
431.8
  9
$VIEWCTR
 10
279.4
 20
215.9
  9
$VIEWSIZE
 40
431.8
  9
$CLAYER
  8
0
  9
$LTSCALE
 40
30.734
  9
$CELTYPE
  6
BYLAYER
  9
$DIMSCALE
 40
1.0
  9
$DIMASZ
 40
3.0
  9
$DIMEXO
 40
0.5
  9
$DIMDLI
 40
21.2344
  9
$DIMEXE
 40
1.5
  9
$DIMCEN
 40
5.0292
  9
$DIMLFAC
 40
1.0
  9
$DIMBLK
  1
_FILLED
  9
$DIMALT
 70
0
  9
$DIMALTF
 40
0.0393700787
  9
$DIMTXT
 40
3.0
  9
$DIMTOL
 70
1
  9
$DIMLIM
 70
0
  9
$DIMTFAC
 40
1.0
  9
$DIMTP
 40
0.01
  9
$DIMTM
 40
0.01
  9
$DIMGAP
 40
0.625
  9
$DIMDSEP
 70
44
  9
$AUNITS
 70
0
  9
$PDMODE
 70
3
  9
$PDSIZE
 40
3.0
  9
$HANDSEED
  5
7BB
  9
$TILEMODE
 70
1
  9
$MEASUREMENT
 70
1
  9
$INSUNITS
 70
4
  0
ENDSEC
  0
SECTION
  2
CLASSES
  0
CLASS
  1
ACDBDICTIONARYWDFLT
  2
AcDbDictionaryWithDefault
  3
AutoCAD 2000
 90
0
 91
1
280
0
281
0
  0
CLASS
  1
ACDBPLACEHOLDER
  2
AcDbPlaceHolder
  3
AutoCAD 2000
 90
0
 91
1
280
0
281
0
  0
CLASS
  1
LAYOUT
  2
AcDbLayout
  3
AutoCAD 2000
 90
0
 91
0
280
0
281
0
  0
ENDSEC
  0
SECTION
  2
TABLES
  0
TABLE
  2
VPORT
  5
8
100
AcDbSymbolTable
 70
2
  0
VPORT
  5
1F4
100
AcDbSymbolTableRecord
100
AcDbViewportTableRecord
  2
*ACTIVE
 70
0
 10
0.0
 20
0.0
 11
1.0
 21
1.0
 12
279.4
 22
215.9
 13
0.0
 23
0.0
 14
1.0
 24
1.0
 15
0.0
 25
0.0
 16
0.0
 26
0.0
 36
1.0
 17
0.0
 27
0.0
 37
0.0
 40
431.8
 41
1.2941176471
 42
50.0
 43
0.0
 44
0.0
 50
0.0
 51
0.0
 71
0
 72
100
 73
1
 74
1
 75
0
 76
0
 77
0
 78
0
  0
ENDTAB
  0
TABLE
  2
LTYPE
  5
5
100
AcDbSymbolTable
 70
6
  0
LTYPE
  5
14
100
AcDbSymbolTableRecord
100
AcDbLinetypeTableRecord
  2
BYBLOCK
 70
0
  3

 72
65
 73
0
 40
0.0
  0
LTYPE
  5
15
100
AcDbSymbolTableRecord
100
AcDbLinetypeTableRecord
  2
BYLAYER
 70
0
  3

 72
65
 73
0
 40
0.0
  0
LTYPE
  5
16
100
AcDbSymbolTableRecord
100
AcDbLinetypeTableRecord
  2
CONTINUOUS
 70
64
  3
Solid line
 72
65
 73
0
 40
0.0
  0
LTYPE
  5
1F5
100
AcDbSymbolTableRecord
100
AcDbLinetypeTableRecord
  2
CENTER
 70
64
  3
____ _ ____ _ ____ _ ____ _ ____ _ ____ _ ____
 72
65
 73
4
 40
0.6
 49
0.375
 74
0
 49
-0.075
 74
0
 49
0.075
 74
0
 49
-0.075
 74
0
  0
LTYPE
  5
1F6
100
AcDbSymbolTableRecord
100
AcDbLinetypeTableRecord
  2
HIDDEN
 70
64
  3
- - - - - - - - - - - - - - - - - - - -
 72
65
 73
2
 40
0.2
 49
0.1
 74
0
 49
-0.1
 74
0
  0
LTYPE
  5
1F7
100
AcDbSymbolTableRecord
100
AcDbLinetypeTableRecord
  2
PHANTOM
 70
64
  3
_____ _ _ _____ _ _ _____ _ _ _____
 72
65
 73
6
 40
0.8
 49
0.45
 74
0
 49
-0.05
 74
0
 49
0.1
 74
0
 49
-0.05
 74
0
 49
0.1
 74
0
 49
-0.05
 74
0
  0
LTYPE
  5
1F8
100
AcDbSymbolTableRecord
100
AcDbLinetypeTableRecord
  2
DOT
 70
64
  3
. . . . . . . . . . . . . . . . . . . .
 72
65
 73
2
 40
0.2
 49
0.1
 74
0
 49
-0.1
 74
0
  0
LTYPE
  5
1F9
100
AcDbSymbolTableRecord
100
AcDbLinetypeTableRecord
  2
DASHED
 70
64
  3
- - - - - - - - - - - - - - - - - - - -
 72
65
 73
2
 40
0.2
 49
0.1
 74
0
 49
-0.1
 74
0
  0
ENDTAB
  0
TABLE
  2
LAYER
  5
2
100
AcDbSymbolTable
 70
36
  0
LAYER
  5
10
100
AcDbSymbolTableRecord
100
AcDbLayerTableRecord
  2
0
 70
0
 62
7
  6
CONTINUOUS
370
-3
390
F
  0
LAYER
  5
1FA
100
AcDbSymbolTableRecord
100
AcDbLayerTableRecord
  2
DEFAULT_1
 70
0
 62
7
  6
CENTER
370
-3
390
F
  0
LAYER
  5
1FB
100
AcDbSymbolTableRecord
100
AcDbLayerTableRecord
  2
DEFAULT_2
 70
0
 62
7
  6
HIDDEN
370
-3
390
F
  0
LAYER
  5
1FC
100
AcDbSymbolTableRecord
100
AcDbLayerTableRecord
  2
DEFAULT_3
 70
0
 62
7
  6
PHANTOM
370
-3
390
F
  0
LAYER
  5
1FD
100
AcDbSymbolTableRecord
100
AcDbLayerTableRecord
  2
ASSI
 70
0
 62
7
  6
CONTINUOUS
370
-3
390
F
  0
LAYER
  5
1FE
100
AcDbSymbolTableRecord
100
AcDbLayerTableRecord
  2
COLOR5
 70
0
 62
7
  6
CONTINUOUS
370
-3
390
F
  0
LAYER
  5
1FF
100
AcDbSymbolTableRecord
100
AcDbLayerTableRecord
  2
COORDINATE
 70
0
 62
7
  6
CONTINUOUS
370
-3
390
F
  0
LAYER
  5
200
100
AcDbSymbolTableRecord
100
AcDbLayerTableRecord
  2
COORD_ORIGINE
 70
0
 62
7
  6
CONTINUOUS
370
-3
390
F
  0
LAYER
  5
201
100
AcDbSymbolTableRecord
100
AcDbLayerTableRecord
  2
COPY_PUBLISH
 70
0
 62
7
  6
CONTINUOUS
370
-3
390
F
  0
LAYER
  5
202
100
AcDbSymbolTableRecord
100
AcDbLayerTableRecord
  2
COSMETICI
 70
0
 62
7
  6
CONTINUOUS
370
-3
390
F
  0
LAYER
  5
203
100
AcDbSymbolTableRecord
100
AcDbLayerTableRecord
  2
CURVE
 70
0
 62
7
  6
CONTINUOUS
370
-3
390
F
  0
LAYER
  5
204
100
AcDbSymbolTableRecord
100
AcDbLayerTableRecord
  2
DRAFT
 70
0
 62
7
  6
CONTINUOUS
370
-3
390
F
  0
LAYER
  5
205
100
AcDbSymbolTableRecord
100
AcDbLayerTableRecord
  2
ETICHETTA
 70
0
 62
7
  6
CONTINUOUS
370
-3
390
F
  0
LAYER
  5
206
100
AcDbSymbolTableRecord
100
AcDbLayerTableRecord
  2
IMPORT_IGES
 70
0
 62
7
  6
CONTINUOUS
370
-3
390
F
  0
LAYER
  5
207
100
AcDbSymbolTableRecord
100
AcDbLayerTableRecord
  2
INTFCLR_3
 70
0
 62
7
  6
CONTINUOUS
370
-3
390
F
  0
LAYER
  5
208
100
AcDbSymbolTableRecord
100
AcDbLayerTableRecord
  2
INTFCLR_4
 70
0
 62
7
  6
CONTINUOUS
370
-3
390
F
  0
LAYER
  5
209
100
AcDbSymbolTableRecord
100
AcDbLayerTableRecord
  2
INTF_1
 70
0
 62
7
  6
CONTINUOUS
370
-3
390
F
  0
LAYER
  5
20A
100
AcDbSymbolTableRecord
100
AcDbLayerTableRecord
  2
INTF_11
 70
0
 62
7
  6
CONTINUOUS
370
-3
390
F
  0
LAYER
  5
20B
100
AcDbSymbolTableRecord
100
AcDbLayerTableRecord
  2
INTF_12
 70
0
 62
7
  6
CONTINUOUS
370
-3
390
F
  0
LAYER
  5
20C
100
AcDbSymbolTableRecord
100
AcDbLayerTableRecord
  2
INTF_2
 70
0
 62
7
  6
CONTINUOUS
370
-3
390
F
  0
LAYER
  5
20D
100
AcDbSymbolTableRecord
100
AcDbLayerTableRecord
  2
INTF_3
 70
0
 62
7
  6
CONTINUOUS
370
-3
390
F
  0
LAYER
  5
20E
100
AcDbSymbolTableRecord
100
AcDbLayerTableRecord
  2
INTF_4
 70
0
 62
7
  6
CONTINUOUS
370
-3
390
F
  0
LAYER
  5
20F
100
AcDbSymbolTableRecord
100
AcDbLayerTableRecord
  2
NOTE
 70
0
 62
7
  6
CONTINUOUS
370
-3
390
F
  0
LAYER
  5
210
100
AcDbSymbolTableRecord
100
AcDbLayerTableRecord
  2
PIANI
 70
0
 62
7
  6
CONTINUOUS
370
-3
390
F
  0
LAYER
  5
211
100
AcDbSymbolTableRecord
100
AcDbLayerTableRecord
  2
PIANI_ORIGINE
 70
0
 62
7
  6
CONTINUOUS
370
-3
390
F
  0
LAYER
  5
212
100
AcDbSymbolTableRecord
100
AcDbLayerTableRecord
  2
PUNTI
 70
0
 62
7
  6
CONTINUOUS
370
-3
390
F
  0
LAYER
  5
213
100
AcDbSymbolTableRecord
100
AcDbLayerTableRecord
  2
RACCORDO
 70
0
 62
7
  6
CONTINUOUS
370
-3
390
F
  0
LAYER
  5
214
100
AcDbSymbolTableRecord
100
AcDbLayerTableRecord
  2
RGB__255__255__255__
 70
0
 62
7
  6
CONTINUOUS
370
-3
390
F
  0
LAYER
  5
215
100
AcDbSymbolTableRecord
100
AcDbLayerTableRecord
  2
RGB____0____0____0__
 70
0
 62
7
  6
CONTINUOUS
370
-3
390
F
  0
LAYER
  5
216
100
AcDbSymbolTableRecord
100
AcDbLayerTableRecord
  2
SIMBOLI
 70
0
 62
7
  6
CONTINUOUS
370
-3
390
F
  0
LAYER
  5
217
100
AcDbSymbolTableRecord
100
AcDbLayerTableRecord
  2
SMUSSO
 70
0
 62
7
  6
CONTINUOUS
370
-3
390
F
  0
LAYER
  5
218
100
AcDbSymbolTableRecord
100
AcDbLayerTableRecord
  2
SNAPLINE
 70
0
 62
7
  6
CONTINUOUS
370
-3
390
F
  0
LAYER
  5
219
100
AcDbSymbolTableRecord
100
AcDbLayerTableRecord
  2
SUPERFICI
 70
0
 62
7
  6
CONTINUOUS
370
-3
390
F
  0
LAYER
  5
21A
100
AcDbSymbolTableRecord
100
AcDbLayerTableRecord
  2
TRASH
 70
0
 62
7
  6
CONTINUOUS
370
-3
390
F
  0
LAYER
  5
21B
100
AcDbSymbolTableRecord
100
AcDbLayerTableRecord
  2
WHITE
 70
0
 62
7
  6
CONTINUOUS
370
-3
390
F
  0
ENDTAB
  0
TABLE
  2
STYLE
  5
3
100
AcDbSymbolTable
 70
1
  0
STYLE
  5
11
100
AcDbSymbolTableRecord
100
AcDbTextStyleTableRecord
  2
STANDARD
 70
0
 40
0.0
 41
0.8
 50
0.0
 71
0
 42
0.2
  3
txt
  4

  0
STYLE
  5
21C
100
AcDbSymbolTableRecord
100
AcDbTextStyleTableRecord
  2
TEXTSTYLE_1
 70
0
 40
0.0
 41
0.8
 50
0.0
 71
0
 42
0.2
  3
gdt
  4

  0
ENDTAB
  0
TABLE
  2
VIEW
  5
6
100
AcDbSymbolTable
 70
0
  0
ENDTAB
  0
TABLE
  2
UCS
  5
7
100
AcDbSymbolTable
 70
0
  0
ENDTAB
  0
TABLE
  2
APPID
  5
9
100
AcDbSymbolTable
 70
1
  0
APPID
  5
21D
100
AcDbSymbolTableRecord
100
AcDbRegAppTableRecord
  2
ACAD
 70
0
  0
ENDTAB
  0
TABLE
  2
BLOCK_RECORD
  5
1
100
AcDbSymbolTable
 70
0
  0
BLOCK_RECORD
  5
21E
100
AcDbSymbolTableRecord
100
AcDbBlockTableRecord
  2
*Model_Space
  0
BLOCK_RECORD
  5
21F
100
AcDbSymbolTableRecord
100
AcDbBlockTableRecord
  2
*Paper_Space
  0
BLOCK_RECORD
  5
220
100
AcDbSymbolTableRecord
100
AcDbBlockTableRecord
  2
_FILLED
  0
ENDTAB
  0
TABLE
  2
DIMSTYLE
  5
A
100
AcDbSymbolTable
 70
1
100
AcDbDimStyleTable
 71
0
  0
DIMSTYLE
105
221
100
AcDbSymbolTableRecord
100
AcDbDimStyleTableRecord
  2
STANDARD
 70
0
  3

  4

 40
1.0
 41
3.0
 42
0.5
 43
0.38
 44
1.5
 45
0.0
 46
0.0
 47
0.01
 48
0.01
140
3.0
141
0.09
142
0.0
143
25.4
144
1.0
145
0.0
146
1.0
147
0.625
 71
1
 72
0
 73
0
 74
0
 75
0
 76
0
 77
1
 78
8
 79
2
170
0
171
1
172
0
173
0
174
0
175
0
176
0
177
0
178
0
270
2
179
2
271
2
272
2
273
2
274
2
275
0
280
0
281
0
282
0
283
1
284
8
285
0
286
0
287
3
288
0
340
11
278
44
341
220
342
220
343
220
344
220
  0
ENDTAB
  0
ENDSEC
  0
SECTION
  2
BLOCKS
  0
BLOCK
  5
20
100
AcDbEntity
  8
0
100
AcDbBlockBegin
  2
*Model_Space
 70
0
 10
0.0
 20
0.0
 30
0.0
  3
*Model_Space
  1

  0
ENDBLK
  5
21
100
AcDbEntity
  8
0
100
AcDbBlockEnd
  0
BLOCK
  5
1C
100
AcDbEntity
  8
0
100
AcDbBlockBegin
  2
*Paper_Space
 70
0
 10
0.0
 20
0.0
 30
0.0
  3
*Paper_Space
  1

  0
ENDBLK
  5
1D
100
AcDbEntity
  8
0
100
AcDbBlockEnd
  0
BLOCK
  5
222
100
AcDbEntity
  8
0
100
AcDbBlockBegin
  2
_FILLED
 70
64
 10
0.0
 20
0.0
  3
_FILLED
  1

  0
SOLID
  5
223
100
AcDbEntity
  8
0
  6
BYBLOCK
 62
0
100
AcDbTrace
 10
0.0
 20
0.0
 11
-1.0
 21
0.1333333333
 12
-1.0
 22
-0.1333333333
 13
-1.0
 23
-0.1333333333
  0
ENDBLK
  5
224
100
AcDbEntity
  8
0
  6
BYBLOCK
 62
0
100
AcDbBlockEnd
  0
ENDSEC
  0
SECTION
  2
ENTITIES
  0
LINE
  5
225
100
AcDbEntity
  8
DRAFT
100
AcDbLine
 62
7
  6
CONTINUOUS
 10
-52.5192064232
 20
3.6125
 11
-52.5192064232
 21
-2.8875
  0
LINE
  5
226
100
AcDbEntity
  8
RACCORDO
100
AcDbLine
 62
7
  6
CONTINUOUS
 10
-52.4807935768
 20
-25.0125285577
 11
-52.4807935768
 21
25.7375285577
  0
LINE
  5
227
100
AcDbEntity
  8
RACCORDO
100
AcDbLine
 62
250
  6
CONTINUOUS
 10
-52.3398917815
 20
-9.6288112106
 11
-52.3398917815
 21
10.3538112106
  0
LINE
  5
228
100
AcDbEntity
  8
RACCORDO
100
AcDbLine
 62
250
  6
CONTINUOUS
 10
-52.2351294731
 20
-9.654991814
 11
-52.2351294731
 21
-24.5174450693
  0
LINE
  5
229
100
AcDbEntity
  8
RACCORDO
100
AcDbLine
 62
250
  6
CONTINUOUS
 10
-52.2351294731
 20
10.379991814
 11
-52.2351294731
 21
25.2424450693
  0
LINE
  5
22A
100
AcDbEntity
  8
RACCORDO
100
AcDbLine
 62
7
  6
CONTINUOUS
 10
-51.8807935768
 20
18.1375
 11
-51.8807935768
 21
13.6375
  0
LINE
  5
22B
100
AcDbEntity
  8
RACCORDO
100
AcDbLine
 62
250
  6
CONTINUOUS
 10
-51.6307935768
 20
18.3875
 11
-51.6307935768
 21
13.3875
  0
LINE
  5
22C
100
AcDbEntity
  8
RACCORDO
100
AcDbLine
 62
7
  6
CONTINUOUS
 10
-51.4807935768
 20
3.7375
 11
-51.4807935768
 21
-3.0125
  0
LINE
  5
22D
100
AcDbEntity
  8
RACCORDO
100
AcDbLine
 62
250
  6
CONTINUOUS
 10
-51.4307935768
 20
13.3875
 11
-51.4307935768
 21
18.3875
  0
LINE
  5
22E
100
AcDbEntity
  8
RACCORDO
100
AcDbLine
 62
250
  6
CONTINUOUS
 10
-51.3405009545
 20
-8.6380986134
 11
-51.3405009545
 21
-3.0125
  0
LINE
  5
22F
100
AcDbEntity
  8
RACCORDO
100
AcDbLine
 62
250
  6
CONTINUOUS
 10
-51.3405009545
 20
3.7375
 11
-51.3405009545
 21
9.3630986134
  0
LINE
  5
230
100
AcDbEntity
  8
DRAFT
100
AcDbLine
 62
7
  6
CONTINUOUS
 10
-51.2395204446
 20
9.3625
 11
-51.2395204446
 21
7.8125
  0
LINE
  5
231
100
AcDbEntity
  8
RACCORDO
100
AcDbLine
 62
250
  6
CONTINUOUS
 10
-51.235738646
 20
13.4811236143
 11
-51.235738646
 21
9.3800298909
  0
LINE
  5
232
100
AcDbEntity
  8
RACCORDO
100
AcDbLine
 62
250
  6
CONTINUOUS
 10
-51.235738646
 20
-25.5168358963
 11
-51.235738646
 21
-8.6550298909
  0
LINE
  5
233
100
AcDbEntity
  8
RACCORDO
100
AcDbLine
 62
250
  6
CONTINUOUS
 10
-51.235738646
 20
18.2938763857
 11
-51.235738646
 21
26.2418358963
  0
LINE
  5
234
100
AcDbEntity
  8
DRAFT
100
AcDbLine
 62
7
  6
CONTINUOUS
 10
-51.2028923621
 20
-3.0125
 11
-51.2028923621
 21
-2.8875
  0
LINE
  5
235
100
AcDbEntity
  8
DRAFT
100
AcDbLine
 62
7
  6
CONTINUOUS
 10
-51.2028923621
 20
3.6125
 11
-51.2028923621
 21
3.7375
  0
LINE
  5
236
100
AcDbEntity
  8
DRAFT
100
AcDbLine
 62
7
  6
CONTINUOUS
 10
-51.2028923621
 20
7.8125
 11
-51.2028923621
 21
9.346791638
  0
LINE
  5
237
100
AcDbEntity
  8
RACCORDO
100
AcDbLine
 62
7
  6
CONTINUOUS
 10
-51.1807935768
 20
13.6375
 11
-51.1807935768
 21
18.1375
  0
LINE
  5
238
100
AcDbEntity
  8
RACCORDO
100
AcDbLine
 62
7
  6
CONTINUOUS
 10
-51.0307935768
 20
8.0125
 11
-51.0307935768
 21
10.379991814
  0
LINE
  5
239
100
AcDbEntity
  8
DRAFT
100
AcDbLine
 62
7
  6
CONTINUOUS
 10
-50.9807935768
 20
8.0125
 11
-50.9807935768
 21
7.8125
  0
LINE
  5
23A
100
AcDbEntity
  8
DRAFT
100
AcDbLine
 62
7
  6
CONTINUOUS
 10
-50.9807935768
 20
3.7375
 11
-50.9807935768
 21
3.6125
  0
LINE
  5
23B
100
AcDbEntity
  8
DRAFT
100
AcDbLine
 62
7
  6
CONTINUOUS
 10
-50.9807935768
 20
-2.8875
 11
-50.9807935768
 21
-3.0125
  0
LINE
  5
23C
100
AcDbEntity
  8
RACCORDO
100
AcDbLine
 62
7
  6
CONTINUOUS
 10
-50.4807935768
 20
27.8875
 11
-50.4807935768
 21
28.3375
  0
LINE
  5
23D
100
AcDbEntity
  8
0
100
AcDbLine
 62
7
  6
CONTINUOUS
 10
-50.0807935768
 20
3.6125
 11
-50.0807935768
 21
-2.8875
  0
LINE
  5
23E
100
AcDbEntity
  8
0
100
AcDbLine
 62
7
  6
CONTINUOUS
 10
-49.9807935768
 20
-3.0125
 11
-49.9807935768
 21
3.7375
  0
LINE
  5
23F
100
AcDbEntity
  8
DRAFT
100
AcDbLine
 62
7
  6
CONTINUOUS
 10
-49.7571536699
 20
14.6875
 11
-49.7571536699
 21
17.0875
  0
LINE
  5
240
100
AcDbEntity
  8
RACCORDO
100
AcDbLine
 62
7
  6
CONTINUOUS
 10
-49.6807935768
 20
-18.3875
 11
-49.6807935768
 21
-22.3875
  0
LINE
  5
241
100
AcDbEntity
  8
DRAFT
100
AcDbLine
 62
7
  6
CONTINUOUS
 10
-49.6807935768
 20
14.6875
 11
-49.6807935768
 21
17.0875
  0
LINE
  5
242
100
AcDbEntity
  8
RACCORDO
100
AcDbLine
 62
250
  6
CONTINUOUS
 10
-49.4307935768
 20
-18.1375
 11
-49.4307935768
 21
-22.6375
  0
LINE
  5
243
100
AcDbEntity
  8
RACCORDO
100
AcDbLine
 62
250
  6
CONTINUOUS
 10
-49.2307935768
 20
-22.6375
 11
-49.2307935768
 21
-18.1375
  0
LINE
  5
244
100
AcDbEntity
  8
RACCORDO
100
AcDbLine
 62
7
  6
CONTINUOUS
 10
-49.2307935768
 20
26.4875
 11
-49.2307935768
 21
27.5875
  0
LINE
  5
245
100
AcDbEntity
  8
RACCORDO
100
AcDbLine
 62
7
  6
CONTINUOUS
 10
-48.9807935768
 20
-22.3875
 11
-48.9807935768
 21
-18.3875
  0
LINE
  5
246
100
AcDbEntity
  8
RACCORDO
100
AcDbLine
 62
7
  6
CONTINUOUS
 10
-48.4807935768
 20
28.3375
 11
-48.4807935768
 21
26.4875
  0
LINE
  5
247
100
AcDbEntity
  8
DRAFT
100
AcDbLine
 62
7
  6
CONTINUOUS
 10
-47.2875225378
 20
17.7901296841
 11
-47.2875225378
 21
17.4875
  0
LINE
  5
248
100
AcDbEntity
  8
DRAFT
100
AcDbLine
 62
7
  6
CONTINUOUS
 10
-47.0807935768
 20
17.0875
 11
-47.0807935768
 21
14.6875
  0
LINE
  5
249
100
AcDbEntity
  8
RACCORDO
100
AcDbLine
 62
7
  6
CONTINUOUS
 10
-47.0307935768
 20
8.0125
 11
-47.0307935768
 21
10.379991814
  0
LINE
  5
24A
100
AcDbEntity
  8
DRAFT
100
AcDbLine
 62
7
  6
CONTINUOUS
 10
-47.0044334836
 20
17.0875
 11
-47.0044334836
 21
14.6875
  0
LINE
  5
24B
100
AcDbEntity
  8
DRAFT
100
AcDbLine
 62
7
  6
CONTINUOUS
 10
-46.8307935768
 20
9.3625
 11
-46.8307935768
 21
7.8125
  0
LINE
  5
24C
100
AcDbEntity
  8
RACCORDO
100
AcDbLine
 62
7
  6
CONTINUOUS
 10
-45.5807935768
 20
18.1375
 11
-45.5807935768
 21
13.6375
  0
LINE
  5
24D
100
AcDbEntity
  8
RACCORDO
100
AcDbLine
 62
250
  6
CONTINUOUS
 10
-45.3307935768
 20
18.3875
 11
-45.3307935768
 21
13.3875
  0
LINE
  5
24E
100
AcDbEntity
  8
RACCORDO
100
AcDbLine
 62
250
  6
CONTINUOUS
 10
-45.1307935768
 20
13.3875
 11
-45.1307935768
 21
18.3875
  0
LINE
  5
24F
100
AcDbEntity
  8
RACCORDO
100
AcDbLine
 62
7
  6
CONTINUOUS
 10
-44.8807935768
 20
13.6375
 11
-44.8807935768
 21
18.1375
  0
LINE
  5
250
100
AcDbEntity
  8
DRAFT
100
AcDbLine
 62
7
  6
CONTINUOUS
 10
-41.2286063602
 20
11.7875
 11
-41.2307935768
 21
11.8125
  0
LINE
  5
251
100
AcDbEntity
  8
0
100
AcDbLine
 62
7
  6
CONTINUOUS
 10
-41.9807935768
 20
-17.1625
 11
-41.9807935768
 21
-11.0625
  0
LINE
  5
252
100
AcDbEntity
  8
0
100
AcDbLine
 62
7
  6
CONTINUOUS
 10
-41.9807935768
 20
11.7875
 11
-41.9807935768
 21
17.8875
  0
LINE
  5
253
100
AcDbEntity
  8
DRAFT
100
AcDbLine
 62
7
  6
CONTINUOUS
 10
-41.1740646158
 20
17.8875
 11
-41.1740646158
 21
14.4875
  0
LINE
  5
254
100
AcDbEntity
  8
0
100
AcDbLine
 62
7
  6
CONTINUOUS
 10
-40.9807935768
 20
17.8875
 11
-40.9807935768
 21
11.7875
  0
LINE
  5
255
100
AcDbEntity
  8
0
100
AcDbLine
 62
7
  6
CONTINUOUS
 10
-40.9807935768
 20
-11.0625
 11
-40.9807935768
 21
-17.1625
  0
LINE
  5
256
100
AcDbEntity
  8
0
100
AcDbLine
 62
7
  6
CONTINUOUS
 10
-39.4807935768
 20
-17.1625
 11
-39.4807935768
 21
-11.0625
  0
LINE
  5
257
100
AcDbEntity
  8
0
100
AcDbLine
 62
7
  6
CONTINUOUS
 10
-39.4807935768
 20
11.7875
 11
-39.4807935768
 21
17.8875
  0
LINE
  5
258
100
AcDbEntity
  8
DRAFT
100
AcDbLine
 62
7
  6
CONTINUOUS
 10
-41.2307935768
 20
-11.0875
 11
-41.2286063602
 21
-11.0625
  0
LINE
  5
259
100
AcDbEntity
  8
DRAFT
100
AcDbLine
 62
7
  6
CONTINUOUS
 10
-38.7286063602
 20
11.7875
 11
-38.7307935768
 21
11.8125
  0
LINE
  5
25A
100
AcDbEntity
  8
ASSI
100
AcDbLine
 62
7
  6
CONTINUOUS
 10
-38.9923401422
 20
0.8140971224
 11
-38.9923401422
 21
-0.1375
  0
LINE
  5
25B
100
AcDbEntity
  8
ASSI
100
AcDbLine
 62
7
  6
CONTINUOUS
 10
-38.8654605259
 20
-0.1375
 11
-38.8654605259
 21
0.8140971224
  0
LINE
  5
25C
100
AcDbEntity
  8
DRAFT
100
AcDbLine
 62
7
  6
CONTINUOUS
 10
-38.6740646158
 20
17.8875
 11
-38.6740646158
 21
14.4875
  0
LINE
  5
25D
100
AcDbEntity
  8
ASSI
100
AcDbLine
 62
7
  6
CONTINUOUS
 10
-38.6520720803
 20
0.8140971224
 11
-38.6520720803
 21
-0.1375
  0
LINE
  5
25E
100
AcDbEntity
  8
ASSI
100
AcDbLine
 62
7
  6
CONTINUOUS
 10
-38.525192464
 20
-0.1375
 11
-38.525192464
 21
0.6699157402
  0
LINE
  5
25F
100
AcDbEntity
  8
0
100
AcDbLine
 62
7
  6
CONTINUOUS
 10
-38.4807935768
 20
17.8875
 11
-38.4807935768
 21
11.7875
  0
LINE
  5
260
100
AcDbEntity
  8
0
100
AcDbLine
 62
7
  6
CONTINUOUS
 10
-38.4807935768
 20
-11.0625
 11
-38.4807935768
 21
-17.1625
  0
LINE
  5
261
100
AcDbEntity
  8
ASSI
100
AcDbLine
 62
7
  6
CONTINUOUS
 10
-37.8619581059
 20
0.6583812296
 11
-37.8619581059
 21
-0.1375
  0
LINE
  5
262
100
AcDbEntity
  8
ASSI
100
AcDbLine
 62
7
  6
CONTINUOUS
 10
-37.7350784896
 20
-0.1375
 11
-37.7350784896
 21
0.8140971224
  0
LINE
  5
263
100
AcDbEntity
  8
0
100
AcDbLine
 62
7
  6
CONTINUOUS
 10
-36.9807935768
 20
-17.1625
 11
-36.9807935768
 21
-11.0625
  0
LINE
  5
264
100
AcDbEntity
  8
0
100
AcDbLine
 62
7
  6
CONTINUOUS
 10
-36.9807935768
 20
11.7875
 11
-36.9807935768
 21
17.8875
  0
LINE
  5
265
100
AcDbEntity
  8
ASSI
100
AcDbLine
 62
7
  6
CONTINUOUS
 10
-36.6450672404
 20
0.8140971224
 11
-36.6450672404
 21
-0.1375
  0
LINE
  5
266
100
AcDbEntity
  8
ASSI
100
AcDbLine
 62
7
  6
CONTINUOUS
 10
-36.5181876241
 20
-0.1375
 11
-36.5181876241
 21
0.283509636
  0
LINE
  5
267
100
AcDbEntity
  8
ASSI
100
AcDbLine
 62
7
  6
CONTINUOUS
 10
-36.5181876241
 20
0.3930874864
 11
-36.5181876241
 21
0.7045192719
  0
LINE
  5
268
100
AcDbEntity
  8
DRAFT
100
AcDbLine
 62
7
  6
CONTINUOUS
 10
-36.1740646158
 20
17.8875
 11
-36.1740646158
 21
14.4875
  0
LINE
  5
269
100
AcDbEntity
  8
0
100
AcDbLine
 62
7
  6
CONTINUOUS
 10
-35.9807935768
 20
17.8875
 11
-35.9807935768
 21
11.7875
  0
LINE
  5
26A
100
AcDbEntity
  8
0
100
AcDbLine
 62
7
  6
CONTINUOUS
 10
-35.9807935768
 20
-11.0625
 11
-35.9807935768
 21
-17.1625
  0
LINE
  5
26B
100
AcDbEntity
  8
DRAFT
100
AcDbLine
 62
7
  6
CONTINUOUS
 10
-38.7307935768
 20
-11.0875
 11
-38.7286063602
 21
-11.0625
  0
LINE
  5
26C
100
AcDbEntity
  8
ASSI
100
AcDbLine
 62
7
  6
CONTINUOUS
 10
-37.5043882781
 20
-0.1375
 11
-37.4040920698
 21
0.1508627644
  0
LINE
  5
26D
100
AcDbEntity
  8
ASSI
100
AcDbLine
 62
7
  6
CONTINUOUS
 10
-38.142841435
 20
-0.1375
 11
-37.8619581059
 21
0.6583812296
  0
LINE
  5
26E
100
AcDbEntity
  8
ASSI
100
AcDbLine
 62
7
  6
CONTINUOUS
 10
-37.9001661392
 20
0.8140971224
 11
-38.1355422291
 21
0.1534760918
  0
LINE
  5
26F
100
AcDbEntity
  8
ASSI
100
AcDbLine
 62
7
  6
CONTINUOUS
 10
-39.2345648643
 20
0.8140971224
 11
-39.4966144769
 21
0.1245497006
  0
LINE
  5
270
100
AcDbEntity
  8
ASSI
100
AcDbLine
 62
7
  6
CONTINUOUS
 10
-39.4784115636
 20
-0.1375
 11
-39.0988540915
 21
0.8140971224
  0
LINE
  5
271
100
AcDbEntity
  8
ASSI
100
AcDbLine
 62
7
  6
CONTINUOUS
 10
-39.9807935768
 20
0.8140971224
 11
-39.614933369
 21
-0.1375
  0
LINE
  5
272
100
AcDbEntity
  8
ASSI
100
AcDbLine
 62
7
  6
CONTINUOUS
 10
-39.5988030067
 20
0.1245497006
 11
-39.8458939247
 21
0.8140971224
  0
LINE
  5
273
100
AcDbEntity
  8
ASSI
100
AcDbLine
 62
7
  6
CONTINUOUS
 10
-38.525192464
 20
0.6699157402
 11
-38.2507972201
 21
-0.1375
  0
LINE
  5
274
100
AcDbEntity
  8
ASSI
100
AcDbLine
 62
7
  6
CONTINUOUS
 10
-38.2333152248
 20
0.1417613517
 11
-38.4586887547
 21
0.8140971224
  0
LINE
  5
275
100
AcDbEntity
  8
DRAFT
100
AcDbLine
 62
7
  6
CONTINUOUS
 10
-36.2286063602
 20
11.7875
 11
-36.2307935768
 21
11.8125
  0
LINE
  5
276
100
AcDbEntity
  8
DRAFT
100
AcDbLine
 62
7
  6
CONTINUOUS
 10
-33.7286063602
 20
11.7875
 11
-33.7307935768
 21
11.8125
  0
LINE
  5
277
100
AcDbEntity
  8
0
100
AcDbLine
 62
7
  6
CONTINUOUS
 10
-34.4807935768
 20
-17.1625
 11
-34.4807935768
 21
-11.0625
  0
LINE
  5
278
100
AcDbEntity
  8
0
100
AcDbLine
 62
7
  6
CONTINUOUS
 10
-34.4807935768
 20
11.7875
 11
-34.4807935768
 21
17.8875
  0
LINE
  5
279
100
AcDbEntity
  8
ASSI
100
AcDbLine
 62
7
  6
CONTINUOUS
 10
-34.4362084654
 20
0.8140971224
 11
-34.4362084654
 21
-0.1375
  0
LINE
  5
27A
100
AcDbEntity
  8
ASSI
100
AcDbLine
 62
7
  6
CONTINUOUS
 10
-34.3093288491
 20
-0.1375
 11
-34.3093288491
 21
0.2546733595
  0
LINE
  5
27B
100
AcDbEntity
  8
ASSI
100
AcDbLine
 62
7
  6
CONTINUOUS
 10
-34.3093288491
 20
0.36425121
 11
-34.3093288491
 21
0.7045192719
  0
LINE
  5
27C
100
AcDbEntity
  8
DRAFT
100
AcDbLine
 62
7
  6
CONTINUOUS
 10
-33.6740646158
 20
17.8875
 11
-33.6740646158
 21
14.4875
  0
LINE
  5
27D
100
AcDbEntity
  8
0
100
AcDbLine
 62
7
  6
CONTINUOUS
 10
-33.4807935768
 20
17.8875
 11
-33.4807935768
 21
11.7875
  0
LINE
  5
27E
100
AcDbEntity
  8
0
100
AcDbLine
 62
7
  6
CONTINUOUS
 10
-33.4807935768
 20
-11.0625
 11
-33.4807935768
 21
-17.1625
  0
LINE
  5
27F
100
AcDbEntity
  8
0
100
AcDbLine
 62
7
  6
CONTINUOUS
 10
-31.9807935768
 20
-17.1625
 11
-31.9807935768
 21
-11.0625
  0
LINE
  5
280
100
AcDbEntity
  8
0
100
AcDbLine
 62
7
  6
CONTINUOUS
 10
-31.9807935768
 20
11.7875
 11
-31.9807935768
 21
17.8875
  0
LINE
  5
281
100
AcDbEntity
  8
ASSI
100
AcDbLine
 62
7
  6
CONTINUOUS
 10
-31.4083994397
 20
0.8140971224
 11
-31.4083994397
 21
-0.1375
  0
LINE
  5
282
100
AcDbEntity
  8
DRAFT
100
AcDbLine
 62
7
  6
CONTINUOUS
 10
-36.2307935768
 20
-11.0875
 11
-36.2286063602
 21
-11.0625
  0
LINE
  5
283
100
AcDbEntity
  8
DRAFT
100
AcDbLine
 62
7
  6
CONTINUOUS
 10
-33.7307935768
 20
-11.0875
 11
-33.7286063602
 21
-11.0625
  0
LINE
  5
284
100
AcDbEntity
  8
ASSI
100
AcDbLine
 62
7
  6
CONTINUOUS
 10
-33.5307493853
 20
-0.1375
 11
-33.430453177
 21
0.1508627644
  0
LINE
  5
285
100
AcDbEntity
  8
ASSI
100
AcDbLine
 62
7
  6
CONTINUOUS
 10
-37.3679565875
 20
0.2546733595
 11
-37.2651372545
 21
0.5324928754
  0
LINE
  5
286
100
AcDbEntity
  8
ASSI
100
AcDbLine
 62
7
  6
CONTINUOUS
 10
-33.3943176947
 20
0.2546733595
 11
-33.2914983617
 21
0.5324928754
  0
LINE
  5
287
100
AcDbEntity
  8
ASSI
100
AcDbLine
 62
7
  6
CONTINUOUS
 10
-37.2765816503
 20
0.8140971224
 11
-37.6382966681
 21
-0.1375
  0
LINE
  5
288
100
AcDbEntity
  8
ASSI
100
AcDbLine
 62
7
  6
CONTINUOUS
 10
-33.3029427575
 20
0.8140971224
 11
-33.6646577753
 21
-0.1375
  0
LINE
  5
289
100
AcDbEntity
  8
ASSI
100
AcDbLine
 62
7
  6
CONTINUOUS
 10
-36.7581594776
 20
-0.1375
 11
-37.139339015
 21
0.8140971224
  0
LINE
  5
28A
100
AcDbEntity
  8
ASSI
100
AcDbLine
 62
7
  6
CONTINUOUS
 10
-37.1399698182
 20
0.5161823717
 11
-37.0375108561
 21
0.2546733595
  0
LINE
  5
28B
100
AcDbEntity
  8
ASSI
100
AcDbLine
 62
7
  6
CONTINUOUS
 10
-36.9992127081
 20
0.1508627644
 11
-36.8930592177
 21
-0.1375
  0
LINE
  5
28C
100
AcDbEntity
  8
DRAFT
100
AcDbLine
 62
7
  6
CONTINUOUS
 10
-31.2286063602
 20
11.7875
 11
-31.2307935768
 21
11.8125
  0
LINE
  5
28D
100
AcDbEntity
  8
DRAFT
100
AcDbLine
 62
7
  6
CONTINUOUS
 10
-28.7286063602
 20
11.7875
 11
-28.7307935768
 21
11.8125
  0
LINE
  5
28E
100
AcDbEntity
  8
ASSI
100
AcDbLine
 62
7
  6
CONTINUOUS
 10
-31.2815198234
 20
-0.1375
 11
-31.2815198234
 21
0.8140971224
  0
LINE
  5
28F
100
AcDbEntity
  8
DRAFT
100
AcDbLine
 62
7
  6
CONTINUOUS
 10
-31.1740646158
 20
17.8875
 11
-31.1740646158
 21
14.4875
  0
LINE
  5
290
100
AcDbEntity
  8
0
100
AcDbLine
 62
7
  6
CONTINUOUS
 10
-30.9807935768
 20
17.8875
 11
-30.9807935768
 21
11.7875
  0
LINE
  5
291
100
AcDbEntity
  8
0
100
AcDbLine
 62
7
  6
CONTINUOUS
 10
-30.9807935768
 20
-11.0625
 11
-30.9807935768
 21
-17.1625
  0
LINE
  5
292
100
AcDbEntity
  8
ASSI
100
AcDbLine
 62
7
  6
CONTINUOUS
 10
-30.1799740635
 20
0.8140971224
 11
-30.1799740635
 21
-0.1375
  0
LINE
  5
293
100
AcDbEntity
  8
ASSI
100
AcDbLine
 62
7
  6
CONTINUOUS
 10
-30.0530944472
 20
-0.0279221495
 11
-30.0530944472
 21
0.8140971224
  0
LINE
  5
294
100
AcDbEntity
  8
ASSI
100
AcDbLine
 62
7
  6
CONTINUOUS
 10
-29.5801795137
 20
-0.1375
 11
-29.5801795137
 21
-0.0279221495
  0
LINE
  5
295
100
AcDbEntity
  8
0
100
AcDbLine
 62
7
  6
CONTINUOUS
 10
-29.4807935768
 20
-17.1625
 11
-29.4807935768
 21
-11.0625
  0
LINE
  5
296
100
AcDbEntity
  8
0
100
AcDbLine
 62
7
  6
CONTINUOUS
 10
-29.4807935768
 20
11.7875
 11
-29.4807935768
 21
17.8875
  0
LINE
  5
297
100
AcDbEntity
  8
ASSI
100
AcDbLine
 62
7
  6
CONTINUOUS
 10
-29.4302308762
 20
0.8140971224
 11
-29.4302308762
 21
-0.1375
  0
LINE
  5
298
100
AcDbEntity
  8
ASSI
100
AcDbLine
 62
7
  6
CONTINUOUS
 10
-29.3033512599
 20
0.4103892523
 11
-29.3033512599
 21
0.7045192719
  0
LINE
  5
299
100
AcDbEntity
  8
ASSI
100
AcDbLine
 62
7
  6
CONTINUOUS
 10
-29.3033512599
 20
-0.0279221495
 11
-29.3033512599
 21
0.3008114018
  0
LINE
  5
29A
100
AcDbEntity
  8
ASSI
100
AcDbLine
 62
7
  6
CONTINUOUS
 10
-28.7842982841
 20
0.3008114018
 11
-28.7842982841
 21
0.4103892523
  0
LINE
  5
29B
100
AcDbEntity
  8
ASSI
100
AcDbLine
 62
7
  6
CONTINUOUS
 10
-28.7496947523
 20
0.7045192719
 11
-28.7496947523
 21
0.8140971224
  0
LINE
  5
29C
100
AcDbEntity
  8
ASSI
100
AcDbLine
 62
7
  6
CONTINUOUS
 10
-28.7266257312
 20
-0.1375
 11
-28.7266257312
 21
-0.0279221495
  0
LINE
  5
29D
100
AcDbEntity
  8
DRAFT
100
AcDbLine
 62
7
  6
CONTINUOUS
 10
-28.6740646158
 20
17.8875
 11
-28.6740646158
 21
14.4875
  0
LINE
  5
29E
100
AcDbEntity
  8
0
100
AcDbLine
 62
7
  6
CONTINUOUS
 10
-28.4807935768
 20
17.8875
 11
-28.4807935768
 21
11.7875
  0
LINE
  5
29F
100
AcDbEntity
  8
0
100
AcDbLine
 62
7
  6
CONTINUOUS
 10
-28.4807935768
 20
-11.0625
 11
-28.4807935768
 21
-17.1625
  0
LINE
  5
2A0
100
AcDbEntity
  8
DRAFT
100
AcDbLine
 62
7
  6
CONTINUOUS
 10
-31.2307935768
 20
-11.0875
 11
-31.2286063602
 21
-11.0625
  0
LINE
  5
2A1
100
AcDbEntity
  8
DRAFT
100
AcDbLine
 62
7
  6
CONTINUOUS
 10
-28.7307935768
 20
-11.0875
 11
-28.7286063602
 21
-11.0625
  0
LINE
  5
2A2
100
AcDbEntity
  8
ASSI
100
AcDbLine
 62
7
  6
CONTINUOUS
 10
-31.0277605907
 20
-0.1375
 11
-30.9274643824
 21
0.1508627644
  0
LINE
  5
2A3
100
AcDbEntity
  8
ASSI
100
AcDbLine
 62
7
  6
CONTINUOUS
 10
-30.8913289001
 20
0.2546733595
 11
-30.7885095671
 21
0.5324928754
  0
LINE
  5
2A4
100
AcDbEntity
  8
ASSI
100
AcDbLine
 62
7
  6
CONTINUOUS
 10
-31.6506241617
 20
0.8140971224
 11
-31.9126737743
 21
0.1245497006
  0
LINE
  5
2A5
100
AcDbEntity
  8
ASSI
100
AcDbLine
 62
7
  6
CONTINUOUS
 10
-30.7999539629
 20
0.8140971224
 11
-31.1616689807
 21
-0.1375
  0
LINE
  5
2A6
100
AcDbEntity
  8
ASSI
100
AcDbLine
 62
7
  6
CONTINUOUS
 10
-31.8944708611
 20
-0.1375
 11
-31.514913389
 21
0.8140971224
  0
LINE
  5
2A7
100
AcDbEntity
  8
RACCORDO
100
AcDbLine
 62
7
  6
CONTINUOUS
 10
2.3692292689
 20
-28.4875
 11
-2.3308164225
 21
-28.4875
  0
LINE
  5
2A8
100
AcDbEntity
  8
ASSI
100
AcDbLine
 62
7
  6
CONTINUOUS
 10
-36.0939338575
 20
0.0602988598
 11
-35.9692169949
 21
-0.1375
  0
LINE
  5
2A9
100
AcDbEntity
  8
ASSI
100
AcDbLine
 62
7
  6
CONTINUOUS
 10
-35.8201695048
 20
-0.1375
 11
-35.9818328824
 21
0.1212155433
  0
LINE
  5
2AA
100
AcDbEntity
  8
ASSI
100
AcDbLine
 62
7
  6
CONTINUOUS
 10
-32.7845205848
 20
-0.1375
 11
-33.1657001222
 21
0.8140971224
  0
LINE
  5
2AB
100
AcDbEntity
  8
ASSI
100
AcDbLine
 62
7
  6
CONTINUOUS
 10
-30.2815317902
 20
-0.1375
 11
-30.6627113276
 21
0.8140971224
  0
LINE
  5
2AC
100
AcDbEntity
  8
ASSI
100
AcDbLine
 62
7
  6
CONTINUOUS
 10
-33.1663309254
 20
0.5161823717
 11
-33.0638719633
 21
0.2546733595
  0
LINE
  5
2AD
100
AcDbEntity
  8
ASSI
100
AcDbLine
 62
7
  6
CONTINUOUS
 10
-30.6633421308
 20
0.5161823717
 11
-30.5608831687
 21
0.2546733595
  0
LINE
  5
2AE
100
AcDbEntity
  8
ASSI
100
AcDbLine
 62
7
  6
CONTINUOUS
 10
-32.3968528742
 20
0.8140971224
 11
-32.0309926665
 21
-0.1375
  0
LINE
  5
2AF
100
AcDbEntity
  8
ASSI
100
AcDbLine
 62
7
  6
CONTINUOUS
 10
-33.0255738153
 20
0.1508627644
 11
-32.9194203249
 21
-0.1375
  0
LINE
  5
2B0
100
AcDbEntity
  8
ASSI
100
AcDbLine
 62
7
  6
CONTINUOUS
 10
-30.5225850207
 20
0.1508627644
 11
-30.4164315303
 21
-0.1375
  0
LINE
  5
2B1
100
AcDbEntity
  8
ASSI
100
AcDbLine
 62
7
  6
CONTINUOUS
 10
-32.0148623042
 20
0.1245497006
 11
-32.2619532222
 21
0.8140971224
  0
LINE
  5
2B2
100
AcDbEntity
  8
DRAFT
100
AcDbLine
 62
7
  6
CONTINUOUS
 10
-26.2286063602
 20
11.7875
 11
-26.2307935768
 21
11.8125
  0
LINE
  5
2B3
100
AcDbEntity
  8
ASSI
100
AcDbLine
 62
7
  6
CONTINUOUS
 10
-27.2848119094
 20
0.8140971224
 11
-27.2848119094
 21
-0.1375
  0
LINE
  5
2B4
100
AcDbEntity
  8
ASSI
100
AcDbLine
 62
7
  6
CONTINUOUS
 10
-27.1579322931
 20
-0.1375
 11
-27.1579322931
 21
0.8140971224
  0
LINE
  5
2B5
100
AcDbEntity
  8
0
100
AcDbLine
 62
7
  6
CONTINUOUS
 10
-26.9807935768
 20
-17.1625
 11
-26.9807935768
 21
-11.0625
  0
LINE
  5
2B6
100
AcDbEntity
  8
0
100
AcDbLine
 62
7
  6
CONTINUOUS
 10
-26.9807935768
 20
11.7875
 11
-26.9807935768
 21
17.8875
  0
LINE
  5
2B7
100
AcDbEntity
  8
DRAFT
100
AcDbLine
 62
7
  6
CONTINUOUS
 10
-26.1740646158
 20
17.8875
 11
-26.1740646158
 21
14.4875
  0
LINE
  5
2B8
100
AcDbEntity
  8
0
100
AcDbLine
 62
7
  6
CONTINUOUS
 10
-25.9807935768
 20
17.8875
 11
-25.9807935768
 21
11.7875
  0
LINE
  5
2B9
100
AcDbEntity
  8
0
100
AcDbLine
 62
7
  6
CONTINUOUS
 10
-25.9807935768
 20
-11.0625
 11
-25.9807935768
 21
-17.1625
  0
LINE
  5
2BA
100
AcDbEntity
  8
ASSI
100
AcDbLine
 62
7
  6
CONTINUOUS
 10
-25.9698777039
 20
0.8140971224
 11
-25.9698777039
 21
-0.1375
  0
LINE
  5
2BB
100
AcDbEntity
  8
ASSI
100
AcDbLine
 62
7
  6
CONTINUOUS
 10
-25.8429980876
 20
0.4103892523
 11
-25.8429980876
 21
0.7045192719
  0
LINE
  5
2BC
100
AcDbEntity
  8
ASSI
100
AcDbLine
 62
7
  6
CONTINUOUS
 10
-25.8429980876
 20
-0.0279221495
 11
-25.8429980876
 21
0.3008114018
  0
LINE
  5
2BD
100
AcDbEntity
  8
ASSI
100
AcDbLine
 62
7
  6
CONTINUOUS
 10
-25.3239451118
 20
0.3008114018
 11
-25.3239451118
 21
0.4103892523
  0
LINE
  5
2BE
100
AcDbEntity
  8
ASSI
100
AcDbLine
 62
7
  6
CONTINUOUS
 10
-25.2893415801
 20
0.7045192719
 11
-25.2893415801
 21
0.8140971224
  0
LINE
  5
2BF
100
AcDbEntity
  8
ASSI
100
AcDbLine
 62
7
  6
CONTINUOUS
 10
-25.2662725589
 20
-0.1375
 11
-25.2662725589
 21
-0.0279221495
  0
LINE
  5
2C0
100
AcDbEntity
  8
ASSI
100
AcDbLine
 62
7
  6
CONTINUOUS
 10
-25.087487645
 20
0.8140971224
 11
-25.087487645
 21
-0.1375
  0
LINE
  5
2C1
100
AcDbEntity
  8
ASSI
100
AcDbLine
 62
7
  6
CONTINUOUS
 10
-24.9606080287
 20
-0.1375
 11
-24.9606080287
 21
0.592328182
  0
LINE
  5
2C2
100
AcDbEntity
  8
0
100
AcDbLine
 62
7
  6
CONTINUOUS
 10
-24.4807935768
 20
-17.1625
 11
-24.4807935768
 21
-11.0625
  0
LINE
  5
2C3
100
AcDbEntity
  8
0
100
AcDbLine
 62
7
  6
CONTINUOUS
 10
-24.4807935768
 20
11.7875
 11
-24.4807935768
 21
17.8875
  0
LINE
  5
2C4
100
AcDbEntity
  8
ASSI
100
AcDbLine
 62
7
  6
CONTINUOUS
 10
-24.4761585846
 20
0.8140971224
 11
-24.4761585846
 21
0.0842690283
  0
LINE
  5
2C5
100
AcDbEntity
  8
ASSI
100
AcDbLine
 62
7
  6
CONTINUOUS
 10
-24.3492789683
 20
-0.1375
 11
-24.3492789683
 21
0.8140971224
  0
LINE
  5
2C6
100
AcDbEntity
  8
ASSI
100
AcDbLine
 62
7
  6
CONTINUOUS
 10
-24.2166320967
 20
-0.0233262979
 11
-24.2166320967
 21
-0.1375
  0
LINE
  5
2C7
100
AcDbEntity
  8
ASSI
100
AcDbLine
 62
7
  6
CONTINUOUS
 10
-24.1589595438
 20
0.8140971224
 11
-24.1589595438
 21
0.7045192719
  0
LINE
  5
2C8
100
AcDbEntity
  8
DRAFT
100
AcDbLine
 62
7
  6
CONTINUOUS
 10
-23.6740646158
 20
17.8875
 11
-23.6740646158
 21
14.4875
  0
LINE
  5
2C9
100
AcDbEntity
  8
ASSI
100
AcDbLine
 62
7
  6
CONTINUOUS
 10
-23.4841906752
 20
0.7045192719
 11
-23.4841906752
 21
0.8140971224
  0
LINE
  5
2CA
100
AcDbEntity
  8
0
100
AcDbLine
 62
7
  6
CONTINUOUS
 10
-23.4807935768
 20
17.8875
 11
-23.4807935768
 21
11.7875
  0
LINE
  5
2CB
100
AcDbEntity
  8
0
100
AcDbLine
 62
7
  6
CONTINUOUS
 10
-23.4807935768
 20
-11.0625
 11
-23.4807935768
 21
-17.1625
  0
LINE
  5
2CC
100
AcDbEntity
  8
ASSI
100
AcDbLine
 62
7
  6
CONTINUOUS
 10
-23.4611216541
 20
-0.1375
 11
-23.4611216541
 21
-0.0279221495
  0
LINE
  5
2CD
100
AcDbEntity
  8
DRAFT
100
AcDbLine
 62
7
  6
CONTINUOUS
 10
-26.2307935768
 20
-11.0875
 11
-26.2286063602
 21
-11.0625
  0
LINE
  5
2CE
100
AcDbEntity
  8
ASSI
100
AcDbLine
 62
7
  6
CONTINUOUS
 10
-27.5270366315
 20
0.8140971224
 11
-27.7890862441
 21
0.1245497006
  0
LINE
  5
2CF
100
AcDbEntity
  8
ASSI
100
AcDbLine
 62
7
  6
CONTINUOUS
 10
-27.7708833308
 20
-0.1375
 11
-27.3913258587
 21
0.8140971224
  0
LINE
  5
2D0
100
AcDbEntity
  8
DRAFT
100
AcDbLine
 62
7
  6
CONTINUOUS
 10
-1.3057935768
 20
-27.2375
 11
1.3442064232
 21
-27.2375
  0
LINE
  5
2D1
100
AcDbEntity
  8
DRAFT
100
AcDbLine
 62
7
  6
CONTINUOUS
 10
1.3442064232
 20
-26.6375
 11
-1.3057935768
 21
-26.6375
  0
LINE
  5
2D2
100
AcDbEntity
  8
RACCORDO
100
AcDbLine
 62
7
  6
CONTINUOUS
 10
51.7692349809
 20
-25.7625
 11
2.5192064232
 21
-25.7625
  0
LINE
  5
2D3
100
AcDbEntity
  8
RACCORDO
100
AcDbLine
 62
7
  6
CONTINUOUS
 10
-2.4807935768
 20
-25.7625
 11
-51.7308221345
 21
-25.7625
  0
LINE
  5
2D4
100
AcDbEntity
  8
RACCORDO
100
AcDbLine
 62
7
  6
CONTINUOUS
 10
3.6442064232
 20
-25.7009865965
 11
2.5192064232
 21
-25.7009865965
  0
LINE
  5
2D5
100
AcDbEntity
  8
RACCORDO
100
AcDbLine
 62
7
  6
CONTINUOUS
 10
-2.4807935768
 20
-25.7009865965
 11
-3.6057935768
 21
-25.7009865965
  0
LINE
  5
2D6
100
AcDbEntity
  8
RACCORDO
100
AcDbLine
 62
250
  6
CONTINUOUS
 10
25.2692064232
 20
-25.5866774353
 11
32.2692064232
 21
-25.5866774353
  0
LINE
  5
2D7
100
AcDbEntity
  8
RACCORDO
100
AcDbLine
 62
250
  6
CONTINUOUS
 10
-51.235738646
 20
-25.5168358963
 11
-3.6057935768
 21
-25.5168358963
  0
LINE
  5
2D8
100
AcDbEntity
  8
RACCORDO
100
AcDbLine
 62
250
  6
CONTINUOUS
 10
51.2741514925
 20
-25.5168358963
 11
32.2692064232
 21
-25.5168358963
  0
LINE
  5
2D9
100
AcDbEntity
  8
RACCORDO
100
AcDbLine
 62
250
  6
CONTINUOUS
 10
3.6442064232
 20
-25.5168358963
 11
25.2692064232
 21
-25.5168358963
  0
LINE
  5
2DA
100
AcDbEntity
  8
RACCORDO
100
AcDbLine
 62
7
  6
CONTINUOUS
 10
37.0192064232
 20
-24.5875
 11
41.5192064232
 21
-24.5875
  0
LINE
  5
2DB
100
AcDbEntity
  8
RACCORDO
100
AcDbLine
 62
250
  6
CONTINUOUS
 10
26.2685972502
 20
-24.5872866082
 11
31.2698155962
 21
-24.5872866082
  0
LINE
  5
2DC
100
AcDbEntity
  8
DRAFT
100
AcDbLine
 62
7
  6
CONTINUOUS
 10
2.6442064232
 20
-24.5393512743
 11
2.5192064232
 21
-24.5393512743
  0
LINE
  5
2DD
100
AcDbEntity
  8
DRAFT
100
AcDbLine
 62
7
  6
CONTINUOUS
 10
-2.4807935768
 20
-24.5393512743
 11
-2.6057935768
 21
-24.5393512743
  0
LINE
  5
2DE
100
AcDbEntity
  8
RACCORDO
100
AcDbLine
 62
250
  6
CONTINUOUS
 10
2.6442064232
 20
-24.5174450693
 11
26.2692064232
 21
-24.5174450693
  0
LINE
  5
2DF
100
AcDbEntity
  8
RACCORDO
100
AcDbLine
 62
250
  6
CONTINUOUS
 10
31.2692064232
 20
-24.5174450693
 11
36.8456559347
 21
-24.5174450693
  0
LINE
  5
2E0
100
AcDbEntity
  8
RACCORDO
100
AcDbLine
 62
250
  6
CONTINUOUS
 10
41.6927569117
 20
-24.5174450693
 11
52.2735423195
 21
-24.5174450693
  0
LINE
  5
2E1
100
AcDbEntity
  8
RACCORDO
100
AcDbLine
 62
250
  6
CONTINUOUS
 10
-2.6057935768
 20
-24.5174450693
 11
-52.2351294731
 21
-24.5174450692
  0
LINE
  5
2E2
100
AcDbEntity
  8
DRAFT
100
AcDbLine
 62
7
  6
CONTINUOUS
 10
2.6442064232
 20
-24.5125
 11
2.5192064232
 21
-24.5125
  0
LINE
  5
2E3
100
AcDbEntity
  8
DRAFT
100
AcDbLine
 62
7
  6
CONTINUOUS
 10
-2.4807935768
 20
-24.5125
 11
-2.6057935768
 21
-24.5125
  0
LINE
  5
2E4
100
AcDbEntity
  8
RACCORDO
100
AcDbLine
 62
7
  6
CONTINUOUS
 10
2.7781810194
 20
-24.4625
 11
-2.739768173
 21
-24.4625
  0
LINE
  5
2E5
100
AcDbEntity
  8
RACCORDO
100
AcDbLine
 62
250
  6
CONTINUOUS
 10
36.7692064232
 20
-24.3375
 11
41.7692064232
 21
-24.3375
  0
LINE
  5
2E6
100
AcDbEntity
  8
RACCORDO
100
AcDbLine
 62
250
  6
CONTINUOUS
 10
41.7692064232
 20
-24.1375
 11
36.7692064232
 21
-24.1375
  0
LINE
  5
2E7
100
AcDbEntity
  8
RACCORDO
100
AcDbLine
 62
250
  6
CONTINUOUS
 10
3.6442064232
 20
-23.9625
 11
-3.6057935768
 21
-23.9625
  0
LINE
  5
2E8
100
AcDbEntity
  8
RACCORDO
100
AcDbLine
 62
7
  6
CONTINUOUS
 10
41.5192064232
 20
-23.8875
 11
37.0192064232
 21
-23.8875
  0
LINE
  5
2E9
100
AcDbEntity
  8
ASSI
100
AcDbLine
 62
7
  6
CONTINUOUS
 10
-28.273265344
 20
0.8140971224
 11
-27.9074051362
 21
-0.1375
  0
LINE
  5
2EA
100
AcDbEntity
  8
ASSI
100
AcDbLine
 62
7
  6
CONTINUOUS
 10
-27.8912747739
 20
0.1245497006
 11
-28.1383656919
 21
0.8140971224
  0
LINE
  5
2EB
100
AcDbEntity
  8
DRAFT
100
AcDbLine
 62
7
  6
CONTINUOUS
 10
-23.7286063602
 20
11.7875
 11
-23.7307935768
 21
11.8125
  0
LINE
  5
2EC
100
AcDbEntity
  8
DRAFT
100
AcDbLine
 62
7
  6
CONTINUOUS
 10
-21.2286063602
 20
11.7875
 11
-21.2307935768
 21
11.8125
  0
LINE
  5
2ED
100
AcDbEntity
  8
ASSI
100
AcDbLine
 62
7
  6
CONTINUOUS
 10
-22.0366095981
 20
0.5805233272
 11
-22.0366095981
 21
0.4673409752
  0
LINE
  5
2EE
100
AcDbEntity
  8
0
100
AcDbLine
 62
7
  6
CONTINUOUS
 10
-21.9807935768
 20
-17.1625
 11
-21.9807935768
 21
-11.0625
  0
LINE
  5
2EF
100
AcDbEntity
  8
0
100
AcDbLine
 62
7
  6
CONTINUOUS
 10
-21.9807935768
 20
11.7875
 11
-21.9807935768
 21
17.8875
  0
LINE
  5
2F0
100
AcDbEntity
  8
ASSI
100
AcDbLine
 62
7
  6
CONTINUOUS
 10
-21.8001521314
 20
0.6084584563
 11
-21.8001521314
 21
-0.1375
  0
LINE
  5
2F1
100
AcDbEntity
  8
ASSI
100
AcDbLine
 62
7
  6
CONTINUOUS
 10
-21.6848070256
 20
-0.1375
 11
-21.6848070256
 21
0.8198643777
  0
LINE
  5
2F2
100
AcDbEntity
  8
ASSI
100
AcDbLine
 62
7
  6
CONTINUOUS
 10
-21.4252805377
 20
0.1970008067
 11
-21.4252805377
 21
0.0874229562
  0
LINE
  5
2F3
100
AcDbEntity
  8
DRAFT
100
AcDbLine
 62
7
  6
CONTINUOUS
 10
-21.1740646158
 20
17.8875
 11
-21.1740646158
 21
14.4875
  0
LINE
  5
2F4
100
AcDbEntity
  8
ASSI
100
AcDbLine
 62
7
  6
CONTINUOUS
 10
-21.0042709018
 20
0.6216150322
 11
-21.0042709018
 21
0.1970008067
  0
LINE
  5
2F5
100
AcDbEntity
  8
ASSI
100
AcDbLine
 62
7
  6
CONTINUOUS
 10
-21.0042709018
 20
0.0874229562
 11
-21.0042709018
 21
-0.1375
  0
LINE
  5
2F6
100
AcDbEntity
  8
0
100
AcDbLine
 62
7
  6
CONTINUOUS
 10
-20.9807935768
 20
17.8875
 11
-20.9807935768
 21
11.7875
  0
LINE
  5
2F7
100
AcDbEntity
  8
0
100
AcDbLine
 62
7
  6
CONTINUOUS
 10
-20.9807935768
 20
-11.0625
 11
-20.9807935768
 21
-17.1625
  0
LINE
  5
2F8
100
AcDbEntity
  8
ASSI
100
AcDbLine
 62
7
  6
CONTINUOUS
 10
-20.888925796
 20
-0.1375
 11
-20.888925796
 21
0.0874229562
  0
LINE
  5
2F9
100
AcDbEntity
  8
ASSI
100
AcDbLine
 62
7
  6
CONTINUOUS
 10
-20.888925796
 20
0.1970008067
 11
-20.888925796
 21
0.8140971224
  0
LINE
  5
2FA
100
AcDbEntity
  8
ASSI
100
AcDbLine
 62
7
  6
CONTINUOUS
 10
-20.7620461797
 20
0.0874229562
 11
-20.7620461797
 21
0.1970008067
  0
LINE
  5
2FB
100
AcDbEntity
  8
0
100
AcDbLine
 62
7
  6
CONTINUOUS
 10
-19.4807935768
 20
-17.1625
 11
-19.4807935768
 21
-11.0625
  0
LINE
  5
2FC
100
AcDbEntity
  8
0
100
AcDbLine
 62
7
  6
CONTINUOUS
 10
-19.4807935768
 20
11.7875
 11
-19.4807935768
 21
17.8875
  0
LINE
  5
2FD
100
AcDbEntity
  8
DRAFT
100
AcDbLine
 62
7
  6
CONTINUOUS
 10
-23.7307935768
 20
-11.0875
 11
-23.7286063602
 21
-11.0625
  0
LINE
  5
2FE
100
AcDbEntity
  8
DRAFT
100
AcDbLine
 62
7
  6
CONTINUOUS
 10
-21.2307935768
 20
-11.0875
 11
-21.2286063602
 21
-11.0625
  0
LINE
  5
2FF
100
AcDbEntity
  8
ASSI
100
AcDbLine
 62
7
  6
CONTINUOUS
 10
-20.0323982271
 20
0.4161565076
 11
-20.0457350325
 21
0.3123459124
  0
LINE
  5
300
100
AcDbEntity
  8
ASSI
100
AcDbLine
 62
7
  6
CONTINUOUS
 10
-23.299638506
 20
-0.1375
 11
-23.1993422977
 21
0.1508627644
  0
LINE
  5
301
100
AcDbEntity
  8
ASSI
100
AcDbLine
 62
7
  6
CONTINUOUS
 10
-23.1632068154
 20
0.2546733595
 11
-23.0603874823
 21
0.5324928754
  0
LINE
  5
302
100
AcDbEntity
  8
ASSI
100
AcDbLine
 62
7
  6
CONTINUOUS
 10
-23.0718318782
 20
0.8140971224
 11
-23.433546896
 21
-0.1375
  0
LINE
  5
303
100
AcDbEntity
  8
RACCORDO
100
AcDbLine
 62
250
  6
CONTINUOUS
 10
-52.4807935768
 20
-24.763109173
 11
-52.2351294731
 21
-24.5174450693
  0
LINE
  5
304
100
AcDbEntity
  8
RACCORDO
100
AcDbLine
 62
250
  6
CONTINUOUS
 10
52.2735423195
 20
-9.654991814
 11
52.378304628
 21
-9.6288112106
  0
LINE
  5
305
100
AcDbEntity
  8
RACCORDO
100
AcDbLine
 62
250
  6
CONTINUOUS
 10
51.2741514925
 20
-8.6550298909
 11
51.3442977688
 21
-8.6375
  0
LINE
  5
306
100
AcDbEntity
  8
RACCORDO
100
AcDbLine
 62
7
  6
CONTINUOUS
 10
-49.4307935768
 20
-22.6375
 11
-49.2307935768
 21
-22.6375
  0
LINE
  5
307
100
AcDbEntity
  8
DRAFT
100
AcDbLine
 62
7
  6
CONTINUOUS
 10
40.4692064232
 20
-22.5138600932
 11
38.0692064232
 21
-22.5138600932
  0
LINE
  5
308
100
AcDbEntity
  8
DRAFT
100
AcDbLine
 62
7
  6
CONTINUOUS
 10
40.4692064232
 20
-22.4375
 11
38.0692064232
 21
-22.4375
  0
LINE
  5
309
100
AcDbEntity
  8
0
100
AcDbLine
 62
7
  6
CONTINUOUS
 10
2.5692064232
 20
-19.8625
 11
-2.5307935768
 21
-19.8625
  0
LINE
  5
30A
100
AcDbEntity
  8
DRAFT
100
AcDbLine
 62
7
  6
CONTINUOUS
 10
38.0692064232
 20
-19.8375
 11
40.4692064232
 21
-19.8375
  0
LINE
  5
30B
100
AcDbEntity
  8
DRAFT
100
AcDbLine
 62
7
  6
CONTINUOUS
 10
38.0692064232
 20
-19.7611399068
 11
40.4692064232
 21
-19.7611399068
  0
LINE
  5
30C
100
AcDbEntity
  8
RACCORDO
100
AcDbLine
 62
7
  6
CONTINUOUS
 10
-1.4808697292
 20
-19.7375
 11
-1.2307935768
 21
-19.7375
  0
LINE
  5
30D
100
AcDbEntity
  8
RACCORDO
100
AcDbLine
 62
7
  6
CONTINUOUS
 10
1.2692064232
 20
-19.7375
 11
1.5192825756
 21
-19.7375
  0
LINE
  5
30E
100
AcDbEntity
  8
RACCORDO
100
AcDbLine
 62
250
  6
CONTINUOUS
 10
-52.2351294731
 20
-9.654991814
 11
-52.3398917815
 21
-9.6288112106
  0
LINE
  5
30F
100
AcDbEntity
  8
RACCORDO
100
AcDbLine
 62
250
  6
CONTINUOUS
 10
-51.235738646
 20
-8.6550298909
 11
-51.3058849224
 21
-8.6375
  0
LINE
  5
310
100
AcDbEntity
  8
ASSI
100
AcDbLine
 62
7
  6
CONTINUOUS
 10
-24.9606080287
 20
0.592328182
 11
-24.4841786203
 21
-0.1375
  0
LINE
  5
311
100
AcDbEntity
  8
ASSI
100
AcDbLine
 62
7
  6
CONTINUOUS
 10
-24.4761585846
 20
0.0842690283
 11
-24.9525879049
 21
0.8140971224
  0
LINE
  5
312
100
AcDbEntity
  8
ASSI
100
AcDbLine
 62
7
  6
CONTINUOUS
 10
-22.5534097055
 20
-0.1375
 11
-22.9345892429
 21
0.8140971224
  0
LINE
  5
313
100
AcDbEntity
  8
ASSI
100
AcDbLine
 62
7
  6
CONTINUOUS
 10
-22.9352200461
 20
0.5161823717
 11
-22.832761084
 21
0.2546733595
  0
LINE
  5
314
100
AcDbEntity
  8
ASSI
100
AcDbLine
 62
7
  6
CONTINUOUS
 10
-22.794462936
 20
0.1508627644
 11
-22.6883094456
 21
-0.1375
  0
LINE
  5
315
100
AcDbEntity
  8
0
100
AcDbLine
 62
7
  6
CONTINUOUS
 10
-18.4807935768
 20
17.8875
 11
-18.4807935768
 21
11.7875
  0
LINE
  5
316
100
AcDbEntity
  8
0
100
AcDbLine
 62
7
  6
CONTINUOUS
 10
-18.4807935768
 20
-11.0625
 11
-18.4807935768
 21
-17.1625
  0
LINE
  5
317
100
AcDbEntity
  8
0
100
AcDbLine
 62
7
  6
CONTINUOUS
 10
-16.9807935768
 20
-17.1625
 11
-16.9807935768
 21
-11.0625
  0
LINE
  5
318
100
AcDbEntity
  8
0
100
AcDbLine
 62
7
  6
CONTINUOUS
 10
-16.9807935768
 20
11.7875
 11
-16.9807935768
 21
17.8875
  0
LINE
  5
319
100
AcDbEntity
  8
ASSI
100
AcDbLine
 62
7
  6
CONTINUOUS
 10
-16.1828454817
 20
0.8140971224
 11
-16.1828454817
 21
-0.1375
  0
LINE
  5
31A
100
AcDbEntity
  8
ASSI
100
AcDbLine
 62
7
  6
CONTINUOUS
 10
-16.0559658654
 20
-0.1375
 11
-16.0559658654
 21
0.6699157402
  0
LINE
  5
31B
100
AcDbEntity
  8
0
100
AcDbLine
 62
7
  6
CONTINUOUS
 10
-15.9807935768
 20
17.8875
 11
-15.9807935768
 21
11.7875
  0
LINE
  5
31C
100
AcDbEntity
  8
0
100
AcDbLine
 62
7
  6
CONTINUOUS
 10
-15.9807935768
 20
-11.0625
 11
-15.9807935768
 21
-17.1625
  0
LINE
  5
31D
100
AcDbEntity
  8
ASSI
100
AcDbLine
 62
7
  6
CONTINUOUS
 10
-17.0795635201
 20
0.4161565076
 11
-17.0929003255
 21
0.3123459124
  0
LINE
  5
31E
100
AcDbEntity
  8
ASSI
100
AcDbLine
 62
7
  6
CONTINUOUS
 10
-20.9812018806
 20
0.8140971224
 11
-21.4252805377
 21
0.1970008067
  0
LINE
  5
31F
100
AcDbEntity
  8
ASSI
100
AcDbLine
 62
7
  6
CONTINUOUS
 10
-21.3097552025
 20
0.1970008067
 11
-21.0042709018
 21
0.6216150322
  0
LINE
  5
320
100
AcDbEntity
  8
ASSI
100
AcDbLine
 62
7
  6
CONTINUOUS
 10
-23.730650702
 20
0.5905258873
 11
-24.2166320967
 21
-0.0233262979
  0
LINE
  5
321
100
AcDbEntity
  8
RACCORDO
100
AcDbLine
 62
250
  6
CONTINUOUS
 10
-51.4814027498
 20
-25.7625
 11
-51.235738646
 21
-25.5168358963
  0
LWPOLYLINE
  5
322
100
AcDbEntity
  8
0
100
AcDbPolyline
 62
7
  6
CONTINUOUS
 90
29
 70
0
 10
-0.5001294234
 20
-17.8537356426
 10
-0.5849052552
 20
-17.875298834
 10
-0.6680363427
 20
-17.8968634952
 10
-0.749297642
 20
-17.9184326753
 10
-0.8284795606
 20
-17.9400120396
 10
-0.9050020294
 20
-17.9614999338
 10
-0.9786860322
 20
-17.9828959645
 10
-1.0494202256
 20
-18.0042157273
 10
-1.116834565
 20
-18.0253892863
 10
-1.1808218272
 20
-18.0464160614
 10
-1.2413764422
 20
-18.0673242734
 10
-1.2983897907
 20
-18.0881022473
 10
-1.3518644564
 20
-18.1087713889
 10
-1.4018371213
 20
-18.1293640133
 10
-1.448351777
 20
-18.1499147778
 10
-1.4914553333
 20
-18.170458912
 10
-1.5312662057
 20
-18.1910684822
 10
-1.5680108488
 20
-18.2118909046
 10
-1.6017516781
 20
-18.2330087122
 10
-1.6325923582
 20
-18.2545485177
 10
-1.6608213313
 20
-18.276828981
 10
-1.6864789543
 20
-18.3000867102
 10
-1.7094324351
 20
-18.3244724356
 10
-1.7296703554
 20
-18.3502860344
 10
-1.7473438331
 20
-18.3782748118
 10
-1.7617424607
 20
-18.4080631362
 10
-1.7720006593
 20
-18.4379515782
 10
-1.7781927672
 20
-18.4670905111
 10
-1.7807132864
 20
-18.4957776078
  0
LWPOLYLINE
  5
323
100
AcDbEntity
  8
0
100
AcDbPolyline
 62
7
  6
CONTINUOUS
 90
30
 70
0
 10
0.4995977557
 20
-17.9096197122
 10
0.583934943
 20
-17.8883384855
 10
0.6667821977
 20
-17.8670551626
 10
0.7476431529
 20
-17.845840341
 10
0.8263282021
 20
-17.8246902158
 10
0.9026608851
 20
-17.8036000547
 10
0.9762347097
 20
-17.7826346044
 10
1.0469177394
 20
-17.761789406
 10
1.1146116625
 20
-17.7410538318
 10
1.1790498722
 20
-17.7204757024
 10
1.2401530352
 20
-17.7000537456
 10
1.2979285032
 20
-17.6797619804
 10
1.3523291733
 20
-17.659596583
 10
1.4033649291
 20
-17.6395375278
 10
1.4510816763
 20
-17.6195525287
 10
1.4955659676
 20
-17.5995906912
 10
1.5368645843
 20
-17.5796159246
 10
1.5750821038
 20
-17.5595609788
 10
1.610447126
 20
-17.5392738074
 10
1.6430072025
 20
-17.5186770412
 10
1.672852108
 20
-17.4976493214
 10
1.7002624134
 20
-17.4758728314
 10
1.7252519643
 20
-17.4531320906
 10
1.7476925964
 20
-17.4292760031
 10
1.7675971532
 20
-17.4039698749
 10
1.7850912338
 20
-17.3764841809
 10
1.799463279
 20
-17.3471737115
 10
1.809853923
 20
-17.3176146857
 10
1.8162795417
 20
-17.2885973265
 10
1.8190633567
 20
-17.2598491956
  0
LINE
  5
324
100
AcDbEntity
  8
0
100
AcDbLine
 62
7
  6
CONTINUOUS
 10
-0.4470926826
 20
-18.1411495278
 11
-0.2805780078
 21
-18.0996233036
  0
LINE
  5
325
100
AcDbEntity
  8
0
100
AcDbLine
 62
7
  6
CONTINUOUS
 10
-0.3280441483
 20
-17.8109634238
 11
-0.5001294234
 21
-17.8537356426
  0
LINE
  5
326
100
AcDbEntity
  8
0
100
AcDbLine
 62
7
  6
CONTINUOUS
 10
0.4384563752
 20
-17.6242755421
 11
0.2730218859
 21
-17.6652346329
  0
LINE
  5
327
100
AcDbEntity
  8
0
100
AcDbLine
 62
7
  6
CONTINUOUS
 10
0.3274397385
 20
-17.9521665986
 11
0.4995977557
 21
-17.9096197122
  0
LINE
  5
328
100
AcDbEntity
  8
0
100
AcDbLine
 62
7
  6
CONTINUOUS
 10
-0.2805780078
 20
-18.0996233036
 11
-0.1092058954
 21
-18.0578082065
  0
LWPOLYLINE
  5
329
100
AcDbEntity
  8
0
100
AcDbPolyline
 62
7
  6
CONTINUOUS
 90
3
 70
0
 10
0.2730218859
 20
-17.6652346329
 10
0.0178832276
 20
-17.7271048158
 10
-0.3280441483
 20
-17.8109634238
  0
LINE
  5
32A
100
AcDbEntity
  8
0
100
AcDbLine
 62
7
  6
CONTINUOUS
 10
-0.1092058954
 20
-18.0578082065
 11
0.3274397385
 21
-17.9521665986
  0
LINE
  5
32B
100
AcDbEntity
  8
RACCORDO
100
AcDbLine
 62
7
  6
CONTINUOUS
 10
-0.980831653
 20
-18.9875
 11
1.0192444994
 21
-18.9875
  0
LINE
  5
32C
100
AcDbEntity
  8
RACCORDO
100
AcDbLine
 62
7
  6
CONTINUOUS
 10
37.0192064232
 20
-18.3875
 11
41.5192064232
 21
-18.3875
  0
LINE
  5
32D
100
AcDbEntity
  8
RACCORDO
100
AcDbLine
 62
250
  6
CONTINUOUS
 10
36.7692064232
 20
-18.1375
 11
41.7692064232
 21
-18.1375
  0
LINE
  5
32E
100
AcDbEntity
  8
RACCORDO
100
AcDbLine
 62
7
  6
CONTINUOUS
 10
-49.2307935768
 20
-18.1375
 11
-49.4307935768
 21
-18.1375
  0
LINE
  5
32F
100
AcDbEntity
  8
RACCORDO
100
AcDbLine
 62
250
  6
CONTINUOUS
 10
41.7692064232
 20
-17.9375
 11
36.7692064232
 21
-17.9375
  0
LINE
  5
330
100
AcDbEntity
  8
DRAFT
100
AcDbLine
 62
7
  6
CONTINUOUS
 10
-4.1081587716
 20
-17.7625
 11
-2.5307935768
 21
-17.7625
  0
LINE
  5
331
100
AcDbEntity
  8
0
100
AcDbLine
 62
7
  6
CONTINUOUS
 10
2.0192064232
 20
-17.7625
 11
1.0445082186
 21
-17.7625
  0
LINE
  5
332
100
AcDbEntity
  8
0
100
AcDbLine
 62
7
  6
CONTINUOUS
 10
-0.1288072246
 20
-17.7625
 11
-1.9807935768
 21
-17.7625
  0
LINE
  5
333
100
AcDbEntity
  8
DRAFT
100
AcDbLine
 62
7
  6
CONTINUOUS
 10
2.5692064232
 20
-17.7625
 11
4.146571618
 21
-17.7625
  0
LINE
  5
334
100
AcDbEntity
  8
RACCORDO
100
AcDbLine
 62
7
  6
CONTINUOUS
 10
41.5192064232
 20
-17.6875
 11
37.0192064232
 21
-17.6875
  0
LINE
  5
335
100
AcDbEntity
  8
DRAFT
100
AcDbLine
 62
7
  6
CONTINUOUS
 10
-4.0557935768
 20
-17.2625
 11
-3.9807935768
 21
-17.2625
  0
LINE
  5
336
100
AcDbEntity
  8
ASSI
100
AcDbLine
 62
7
  6
CONTINUOUS
 10
-1.7835692145
 20
-17.2625
 11
1.4957057517
 21
-17.2625
  0
LINE
  5
337
100
AcDbEntity
  8
DRAFT
100
AcDbLine
 62
7
  6
CONTINUOUS
 10
-1.9807935768
 20
-17.2625
 11
-1.7835692145
 21
-17.2625
  0
LINE
  5
338
100
AcDbEntity
  8
DRAFT
100
AcDbLine
 62
7
  6
CONTINUOUS
 10
1.821982061
 20
-17.2625
 11
2.0192064232
 21
-17.2625
  0
LINE
  5
339
100
AcDbEntity
  8
ASSI
100
AcDbLine
 62
7
  6
CONTINUOUS
 10
1.818806667
 20
-17.2625
 11
1.821982061
 21
-17.2625
  0
LINE
  5
33A
100
AcDbEntity
  8
DRAFT
100
AcDbLine
 62
7
  6
CONTINUOUS
 10
4.0192064232
 20
-17.2625
 11
4.0942064232
 21
-17.2625
  0
LINE
  5
33B
100
AcDbEntity
  8
0
100
AcDbLine
 62
7
  6
CONTINUOUS
 10
44.0192064232
 20
-17.1625
 11
43.0192064232
 21
-17.1625
  0
LINE
  5
33C
100
AcDbEntity
  8
0
100
AcDbLine
 62
7
  6
CONTINUOUS
 10
41.5192064232
 20
-17.1625
 11
40.5192064232
 21
-17.1625
  0
LINE
  5
33D
100
AcDbEntity
  8
0
100
AcDbLine
 62
7
  6
CONTINUOUS
 10
39.0192064232
 20
-17.1625
 11
38.0192064232
 21
-17.1625
  0
LINE
  5
33E
100
AcDbEntity
  8
0
100
AcDbLine
 62
7
  6
CONTINUOUS
 10
36.5192064232
 20
-17.1625
 11
35.5192064232
 21
-17.1625
  0
LINE
  5
33F
100
AcDbEntity
  8
0
100
AcDbLine
 62
7
  6
CONTINUOUS
 10
34.0192064232
 20
-17.1625
 11
33.0192064232
 21
-17.1625
  0
LINE
  5
340
100
AcDbEntity
  8
0
100
AcDbLine
 62
7
  6
CONTINUOUS
 10
24.0192064232
 20
-17.1625
 11
23.0192064232
 21
-17.1625
  0
LINE
  5
341
100
AcDbEntity
  8
0
100
AcDbLine
 62
7
  6
CONTINUOUS
 10
21.5192064232
 20
-17.1625
 11
20.5192064232
 21
-17.1625
  0
LINE
  5
342
100
AcDbEntity
  8
0
100
AcDbLine
 62
7
  6
CONTINUOUS
 10
19.0192064232
 20
-17.1625
 11
18.0192064232
 21
-17.1625
  0
LINE
  5
343
100
AcDbEntity
  8
0
100
AcDbLine
 62
7
  6
CONTINUOUS
 10
-5.9807935768
 20
-17.1625
 11
-6.9807935768
 21
-17.1625
  0
LINE
  5
344
100
AcDbEntity
  8
0
100
AcDbLine
 62
7
  6
CONTINUOUS
 10
-8.4807935768
 20
-17.1625
 11
-9.4807935768
 21
-17.1625
  0
LINE
  5
345
100
AcDbEntity
  8
0
100
AcDbLine
 62
7
  6
CONTINUOUS
 10
-10.9807935768
 20
-17.1625
 11
-11.9807935768
 21
-17.1625
  0
LINE
  5
346
100
AcDbEntity
  8
0
100
AcDbLine
 62
7
  6
CONTINUOUS
 10
-13.4807935768
 20
-17.1625
 11
-14.4807935768
 21
-17.1625
  0
LINE
  5
347
100
AcDbEntity
  8
0
100
AcDbLine
 62
7
  6
CONTINUOUS
 10
-15.9807935768
 20
-17.1625
 11
-16.9807935768
 21
-17.1625
  0
LINE
  5
348
100
AcDbEntity
  8
0
100
AcDbLine
 62
7
  6
CONTINUOUS
 10
-18.4807935768
 20
-17.1625
 11
-19.4807935768
 21
-17.1625
  0
LINE
  5
349
100
AcDbEntity
  8
0
100
AcDbLine
 62
7
  6
CONTINUOUS
 10
-20.9807935768
 20
-17.1625
 11
-21.9807935768
 21
-17.1625
  0
LINE
  5
34A
100
AcDbEntity
  8
0
100
AcDbLine
 62
7
  6
CONTINUOUS
 10
-23.4807935768
 20
-17.1625
 11
-24.4807935768
 21
-17.1625
  0
LINE
  5
34B
100
AcDbEntity
  8
0
100
AcDbLine
 62
7
  6
CONTINUOUS
 10
-25.9807935768
 20
-17.1625
 11
-26.9807935768
 21
-17.1625
  0
LINE
  5
34C
100
AcDbEntity
  8
0
100
AcDbLine
 62
7
  6
CONTINUOUS
 10
-28.4807935768
 20
-17.1625
 11
-29.4807935768
 21
-17.1625
  0
LINE
  5
34D
100
AcDbEntity
  8
0
100
AcDbLine
 62
7
  6
CONTINUOUS
 10
-30.9807935768
 20
-17.1625
 11
-31.9807935768
 21
-17.1625
  0
LINE
  5
34E
100
AcDbEntity
  8
0
100
AcDbLine
 62
7
  6
CONTINUOUS
 10
-33.4807935768
 20
-17.1625
 11
-34.4807935768
 21
-17.1625
  0
LINE
  5
34F
100
AcDbEntity
  8
0
100
AcDbLine
 62
7
  6
CONTINUOUS
 10
-35.9807935768
 20
-17.1625
 11
-36.9807935768
 21
-17.1625
  0
LINE
  5
350
100
AcDbEntity
  8
0
100
AcDbLine
 62
7
  6
CONTINUOUS
 10
-38.4807935768
 20
-17.1625
 11
-39.4807935768
 21
-17.1625
  0
LINE
  5
351
100
AcDbEntity
  8
0
100
AcDbLine
 62
7
  6
CONTINUOUS
 10
-40.9807935768
 20
-17.1625
 11
-41.9807935768
 21
-17.1625
  0
LINE
  5
352
100
AcDbEntity
  8
DRAFT
100
AcDbLine
 62
7
  6
CONTINUOUS
 10
34.0192064232
 20
-16.5125
 11
33.0192064232
 21
-16.5125
  0
LINE
  5
353
100
AcDbEntity
  8
DRAFT
100
AcDbLine
 62
7
  6
CONTINUOUS
 10
24.0192064232
 20
-16.5125
 11
23.0192064232
 21
-16.5125
  0
LINE
  5
354
100
AcDbEntity
  8
DRAFT
100
AcDbLine
 62
7
  6
CONTINUOUS
 10
21.5192064232
 20
-16.5125
 11
20.5192064232
 21
-16.5125
  0
LINE
  5
355
100
AcDbEntity
  8
RACCORDO
100
AcDbLine
 62
7
  6
CONTINUOUS
 10
1.0192444994
 20
-15.9875
 11
-0.980831653
 21
-15.9875
  0
LINE
  5
356
100
AcDbEntity
  8
DRAFT
100
AcDbLine
 62
7
  6
CONTINUOUS
 10
18.0192064232
 20
-15.7625
 11
19.0192064232
 21
-15.7625
  0
LINE
  5
357
100
AcDbEntity
  8
DRAFT
100
AcDbLine
 62
7
  6
CONTINUOUS
 10
20.5192064232
 20
-15.7625
 11
21.5192064232
 21
-15.7625
  0
LINE
  5
358
100
AcDbEntity
  8
DRAFT
100
AcDbLine
 62
7
  6
CONTINUOUS
 10
23.0192064232
 20
-15.7625
 11
24.0192064232
 21
-15.7625
  0
LINE
  5
359
100
AcDbEntity
  8
DRAFT
100
AcDbLine
 62
7
  6
CONTINUOUS
 10
33.0192064232
 20
-15.7625
 11
34.0192064232
 21
-15.7625
  0
LINE
  5
35A
100
AcDbEntity
  8
DRAFT
100
AcDbLine
 62
7
  6
CONTINUOUS
 10
35.5192064232
 20
-15.7625
 11
36.5192064232
 21
-15.7625
  0
LINE
  5
35B
100
AcDbEntity
  8
DRAFT
100
AcDbLine
 62
7
  6
CONTINUOUS
 10
38.0192064232
 20
-15.7625
 11
39.0192064232
 21
-15.7625
  0
LINE
  5
35C
100
AcDbEntity
  8
DRAFT
100
AcDbLine
 62
7
  6
CONTINUOUS
 10
40.5192064232
 20
-15.7625
 11
41.5192064232
 21
-15.7625
  0
LINE
  5
35D
100
AcDbEntity
  8
DRAFT
100
AcDbLine
 62
7
  6
CONTINUOUS
 10
43.0192064232
 20
-15.7625
 11
44.0192064232
 21
-15.7625
  0
LINE
  5
35E
100
AcDbEntity
  8
0
100
AcDbLine
 62
7
  6
CONTINUOUS
 10
0.3048466863
 20
-16.545887561
 11
-0.1253083398
 21
-16.4418598309
  0
LINE
  5
35F
100
AcDbEntity
  8
0
100
AcDbLine
 62
7
  6
CONTINUOUS
 10
-0.2931982308
 20
-16.7011463736
 11
0.1441637326
 21
-16.8069709642
  0
LINE
  5
360
100
AcDbEntity
  8
0
100
AcDbLine
 62
7
  6
CONTINUOUS
 10
0.1441637326
 20
-16.8069709642
 11
0.3158791666
 21
-16.8488570365
  0
LINE
  5
361
100
AcDbEntity
  8
0
100
AcDbLine
 62
7
  6
CONTINUOUS
 10
-0.1253083398
 20
-16.4418598309
 11
-0.2932679913
 21
-16.4008208593
  0
LWPOLYLINE
  5
362
100
AcDbEntity
  8
0
100
AcDbPolyline
 62
7
  6
CONTINUOUS
 90
22
 70
0
 10
0.3158791666
 20
-16.8488570365
 10
0.4827244528
 20
-16.8904455246
 10
0.563745162
 20
-16.9111227464
 10
0.6428981042
 20
-16.9317256123
 10
0.7199379295
 20
-16.9522423381
 10
0.7945524303
 20
-16.972639142
 10
0.8665781207
 20
-16.9929180894
 10
0.9358041773
 20
-17.0130645213
 10
1.0018701491
 20
-17.033012422
 10
1.0646745135
 20
-17.0527643077
 10
1.1240402994
 20
-17.0722937741
 10
1.1795452017
 20
-17.0914780748
 10
1.2311565793
 20
-17.110308526
 10
1.2787851918
 20
-17.1287471022
 10
1.3220133371
 20
-17.1466011114
 10
1.3608494966
 20
-17.1638122911
 10
1.395393274
 20
-17.1803461487
 10
1.4254461128
 20
-17.1959934573
 10
1.4511136699
 20
-17.2106463959
 10
1.4726011318
 20
-17.224223741
 10
1.4898993896
 20
-17.236457359
 10
1.5033801013
 20
-17.2472764258
  0
LWPOLYLINE
  5
363
100
AcDbEntity
  8
0
100
AcDbPolyline
 62
7
  6
CONTINUOUS
 90
23
 70
0
 10
-0.2932679913
 20
-16.4008208593
 10
-0.4569186166
 20
-16.3599321205
 10
-0.5366452038
 20
-16.3395297926
 10
-0.6146420264
 20
-16.3191685594
 10
-0.6909296714
 20
-16.2987882785
 10
-0.7650448781
 20
-16.2784581032
 10
-0.8360852199
 20
-16.2583828122
 10
-0.9039295764
 20
-16.2385658948
 10
-0.9684520179
 20
-16.2190178499
 10
-1.028896848
 20
-16.1999587403
 10
-1.0850316334
 20
-16.1814779416
 10
-1.1371406948
 20
-16.163506678
 10
-1.1853214855
 20
-16.1460378959
 10
-1.2295636999
 20
-16.1291108172
 10
-1.2699861456
 20
-16.1127249278
 10
-1.3068090986
 20
-16.0968379871
 10
-1.3401764815
 20
-16.0814343619
 10
-1.3700004242
 20
-16.0666135388
 10
-1.3961142095
 20
-16.052552213
 10
-1.4186532427
 20
-16.0393045965
 10
-1.437688416
 20
-16.0269840458
 10
-1.4530697249
 20
-16.0159138664
 10
-1.4650738726
 20
-16.006202649
  0
LINE
  5
364
100
AcDbEntity
  8
RACCORDO
100
AcDbLine
 62
250
  6
CONTINUOUS
 10
-52.4807935768
 20
25.488109173
 11
-52.2351294731
 21
25.2424450693
  0
LINE
  5
365
100
AcDbEntity
  8
RACCORDO
100
AcDbLine
 62
250
  6
CONTINUOUS
 10
-51.4814027498
 20
26.4875
 11
-51.235738646
 21
26.2418358963
  0
LINE
  5
366
100
AcDbEntity
  8
ASSI
100
AcDbLine
 62
7
  6
CONTINUOUS
 10
-15.3927315074
 20
0.6583812296
 11
-15.3927315074
 21
-0.1375
  0
LINE
  5
367
100
AcDbEntity
  8
ASSI
100
AcDbLine
 62
7
  6
CONTINUOUS
 10
-15.2658518911
 20
-0.1375
 11
-15.2658518911
 21
0.8140971224
  0
LINE
  5
368
100
AcDbEntity
  8
0
100
AcDbLine
 62
7
  6
CONTINUOUS
 10
-14.4807935768
 20
-17.1625
 11
-14.4807935768
 21
-11.0625
  0
LINE
  5
369
100
AcDbEntity
  8
0
100
AcDbLine
 62
7
  6
CONTINUOUS
 10
-14.4807935768
 20
11.7875
 11
-14.4807935768
 21
17.8875
  0
LINE
  5
36A
100
AcDbEntity
  8
ASSI
100
AcDbLine
 62
7
  6
CONTINUOUS
 10
-14.1758406418
 20
0.8140971224
 11
-14.1758406418
 21
-0.1375
  0
LINE
  5
36B
100
AcDbEntity
  8
ASSI
100
AcDbLine
 62
7
  6
CONTINUOUS
 10
-14.0489610255
 20
0.3930874864
 11
-14.0489610255
 21
0.7045192719
  0
LINE
  5
36C
100
AcDbEntity
  8
ASSI
100
AcDbLine
 62
7
  6
CONTINUOUS
 10
-14.0489610255
 20
-0.1375
 11
-14.0489610255
 21
0.283509636
  0
LINE
  5
36D
100
AcDbEntity
  8
0
100
AcDbLine
 62
7
  6
CONTINUOUS
 10
-13.4807935768
 20
17.8875
 11
-13.4807935768
 21
11.7875
  0
LINE
  5
36E
100
AcDbEntity
  8
0
100
AcDbLine
 62
7
  6
CONTINUOUS
 10
-13.4807935768
 20
-11.0625
 11
-13.4807935768
 21
-17.1625
  0
LINE
  5
36F
100
AcDbEntity
  8
0
100
AcDbLine
 62
7
  6
CONTINUOUS
 10
-11.9807935768
 20
-17.1625
 11
-11.9807935768
 21
-11.0625
  0
LINE
  5
370
100
AcDbEntity
  8
0
100
AcDbLine
 62
7
  6
CONTINUOUS
 10
-11.9807935768
 20
11.7875
 11
-11.9807935768
 21
17.8875
  0
LINE
  5
371
100
AcDbEntity
  8
ASSI
100
AcDbLine
 62
7
  6
CONTINUOUS
 10
-15.0351616796
 20
-0.1375
 11
-14.9348654713
 21
0.1508627644
  0
LINE
  5
372
100
AcDbEntity
  8
ASSI
100
AcDbLine
 62
7
  6
CONTINUOUS
 10
-15.6736148364
 20
-0.1375
 11
-15.3927315074
 21
0.6583812296
  0
LINE
  5
373
100
AcDbEntity
  8
ASSI
100
AcDbLine
 62
7
  6
CONTINUOUS
 10
-15.4309395407
 20
0.8140971224
 11
-15.6663156306
 21
0.1534760918
  0
LINE
  5
374
100
AcDbEntity
  8
ASSI
100
AcDbLine
 62
7
  6
CONTINUOUS
 10
-14.898729989
 20
0.2546733595
 11
-14.7959106559
 21
0.5324928754
  0
LINE
  5
375
100
AcDbEntity
  8
ASSI
100
AcDbLine
 62
7
  6
CONTINUOUS
 10
-14.8073550518
 20
0.8140971224
 11
-15.1690700696
 21
-0.1375
  0
LINE
  5
376
100
AcDbEntity
  8
0
100
AcDbLine
 62
7
  6
CONTINUOUS
 10
1.5796889094
 20
-14.862986739
 11
1.5721921169
 21
-14.8650688525
  0
LWPOLYLINE
  5
377
100
AcDbEntity
  8
0
100
AcDbPolyline
 62
7
  6
CONTINUOUS
 90
33
 70
0
 10
1.6555451663
 20
-15.1523132186
 10
1.6608803896
 20
-15.1508520192
 10
1.6660215748
 20
-15.1494162077
 10
1.6709957725
 20
-15.1479976048
 10
1.6758054959
 20
-15.1465946195
 10
1.680459169
 20
-15.1452038142
 10
1.6849942594
 20
-15.1438124877
 10
1.68940812
 20
-15.1424194672
 10
1.6937157766
 20
-15.1410177634
 10
1.6979829809
 20
-15.1395823392
 10
1.7021967993
 20
-15.1381126936
 10
1.7063821666
 20
-15.1365945947
 10
1.710661364
 20
-15.1349742167
 10
1.7150065386
 20
-15.1332489774
 10
1.7194506463
 20
-15.1313906147
 10
1.7242020298
 20
-15.1292858639
 10
1.7292487472
 20
-15.1269007932
 10
1.7345830723
 20
-15.1241925929
 10
1.7404061737
 20
-15.1209905595
 10
1.7467271657
 20
-15.1171887605
 10
1.7534508154
 20
-15.1127227557
 10
1.7605905916
 20
-15.1074324469
 10
1.7681363656
 20
-15.1011187013
 10
1.7758554317
 20
-15.0937231629
 10
1.783422705
 20
-15.0853191065
 10
1.790732818
 20
-15.0758176051
 10
1.7976139342
 20
-15.0652074195
 10
1.8037372466
 20
-15.0538068408
 10
1.8089809361
 20
-15.0417203822
 10
1.8132689371
 20
-15.0289550659
 10
1.8164495209
 20
-15.0157720768
 10
1.8184453542
 20
-15.0023300185
 10
1.8192058853
 20
-14.9878907658
  0
LINE
  5
378
100
AcDbEntity
  8
0
100
AcDbLine
 62
7
  6
CONTINUOUS
 10
1.5721921169
 20
-14.8650688525
 11
1.5636793582
 21
-14.867362029
  0
LINE
  5
379
100
AcDbEntity
  8
0
100
AcDbLine
 62
7
  6
CONTINUOUS
 10
1.6442655313
 20
-15.1553206269
 11
1.6555451663
 21
-15.1523132186
  0
LINE
  5
37A
100
AcDbEntity
  8
0
100
AcDbLine
 62
7
  6
CONTINUOUS
 10
1.5636793582
 20
-14.867362029
 11
1.5541457896
 21
-14.8698616884
  0
LINE
  5
37B
100
AcDbEntity
  8
0
100
AcDbLine
 62
7
  6
CONTINUOUS
 10
1.6321091719
 20
-15.1584601906
 11
1.6442655313
 21
-15.1553206269
  0
LINE
  5
37C
100
AcDbEntity
  8
0
100
AcDbLine
 62
7
  6
CONTINUOUS
 10
1.5541457896
 20
-14.8698616884
 11
1.543577047
 21
-14.872566966
  0
LWPOLYLINE
  5
37D
100
AcDbEntity
  8
0
100
AcDbPolyline
 62
7
  6
CONTINUOUS
 90
30
 70
0
 10
-0.4654768415
 20
-15.3450264746
 10
-0.5499895735
 20
-15.3663702465
 10
-0.6330247625
 20
-15.3877248761
 10
-0.7144095595
 20
-15.409106726
 10
-0.7938794807
 20
-15.4305072674
 10
-0.8710010599
 20
-15.4518677299
 10
-0.945625702
 20
-15.4732019566
 10
-1.017565169
 20
-15.4945103132
 10
-1.086414866
 20
-15.515721277
 10
-1.1520658558
 20
-15.5368429114
 10
-1.2144506962
 20
-15.557893153
 10
-1.2733435248
 20
-15.578829297
 10
-1.3287160924
 20
-15.599667386
 10
-1.380594906
 20
-15.6204413841
 10
-1.4289578151
 20
-15.6411633407
 10
-1.4738478895
 20
-15.6618687538
 10
-1.5153671012
 20
-15.6826223324
 10
-1.5536817471
 20
-15.7035337773
 10
-1.5888664888
 20
-15.7246811327
 10
-1.6210376665
 20
-15.7461834335
 10
-1.6504547179
 20
-15.7683059493
 10
-1.677088891
 20
-15.7911690048
 10
-1.7009768856
 20
-15.8149975767
 10
-1.7223670547
 20
-15.8403722026
 10
-1.7413152581
 20
-15.8679530172
 10
-1.7571510295
 20
-15.8975444713
 10
-1.7691127243
 20
-15.928247992
 10
-1.7769406819
 20
-15.9595402831
 10
-1.7805605976
 20
-15.9914825831
 10
-1.7807649595
 20
-16.0012079939
  0
LINE
  5
37E
100
AcDbEntity
  8
0
100
AcDbLine
 62
7
  6
CONTINUOUS
 10
1.6190187528
 20
-15.161747967
 11
1.6321091719
 21
-15.1584601906
  0
LINE
  5
37F
100
AcDbEntity
  8
0
100
AcDbLine
 62
7
  6
CONTINUOUS
 10
1.543577047
 20
-14.872566966
 11
1.5319596534
 21
-14.8754776599
  0
LINE
  5
380
100
AcDbEntity
  8
0
100
AcDbLine
 62
7
  6
CONTINUOUS
 10
-0.4354177498
 20
-15.6381978197
 11
-0.2734092635
 21
-15.597858938
  0
LINE
  5
381
100
AcDbEntity
  8
0
100
AcDbLine
 62
7
  6
CONTINUOUS
 10
-0.2932914483
 20
-15.3024475295
 11
-0.4654768415
 21
-15.3450264746
  0
LINE
  5
382
100
AcDbEntity
  8
0
100
AcDbLine
 62
7
  6
CONTINUOUS
 10
0.4570030949
 20
-15.1198877116
 11
0.2289119391
 21
-15.1760110297
  0
LINE
  5
383
100
AcDbEntity
  8
0
100
AcDbLine
 62
7
  6
CONTINUOUS
 10
1.6049388599
 20
-15.1651986644
 11
1.6190187528
 21
-15.161747967
  0
LINE
  5
384
100
AcDbEntity
  8
0
100
AcDbLine
 62
7
  6
CONTINUOUS
 10
0.2321706164
 20
-15.4753567697
 11
0.4298997317
 21
-15.4270550713
  0
LINE
  5
385
100
AcDbEntity
  8
0
100
AcDbLine
 62
7
  6
CONTINUOUS
 10
-0.2734092635
 20
-15.597858938
 11
-0.1069468308
 21
-15.5572608398
  0
LINE
  5
386
100
AcDbEntity
  8
0
100
AcDbLine
 62
7
  6
CONTINUOUS
 10
1.5319596534
 20
-14.8754776599
 11
1.5125168297
 21
-14.8802353793
  0
LINE
  5
387
100
AcDbEntity
  8
0
100
AcDbLine
 62
7
  6
CONTINUOUS
 10
-0.1069468308
 20
-15.5572608398
 11
0.2321706164
 21
-15.4753567697
  0
LWPOLYLINE
  5
388
100
AcDbEntity
  8
0
100
AcDbPolyline
 62
7
  6
CONTINUOUS
 90
3
 70
0
 10
0.2289119391
 20
-15.1760110297
 10
-0.0310889963
 20
-15.2389121393
 10
-0.2932914483
 20
-15.3024475295
  0
LINE
  5
389
100
AcDbEntity
  8
0
100
AcDbLine
 62
7
  6
CONTINUOUS
 10
0.4298997317
 20
-15.4270550713
 11
0.5093585519
 21
-15.4079108716
  0
LINE
  5
38A
100
AcDbEntity
  8
0
100
AcDbLine
 62
7
  6
CONTINUOUS
 10
0.5658821014
 20
-15.0936428515
 11
0.4570030949
 21
-15.1198877116
  0
LINE
  5
38B
100
AcDbEntity
  8
0
100
AcDbLine
 62
7
  6
CONTINUOUS
 10
1.5898302591
 20
-15.1688225378
 11
1.6049388599
 21
-15.1651986644
  0
LINE
  5
38C
100
AcDbEntity
  8
0
100
AcDbLine
 62
7
  6
CONTINUOUS
 10
1.5125168297
 20
-14.8802353793
 11
1.4905731204
 21
-14.8854766966
  0
LINE
  5
38D
100
AcDbEntity
  8
0
100
AcDbLine
 62
7
  6
CONTINUOUS
 10
0.6701269912
 20
-15.069094625
 11
0.5658821014
 21
-15.0936428515
  0
LINE
  5
38E
100
AcDbEntity
  8
0
100
AcDbLine
 62
7
  6
CONTINUOUS
 10
0.5093585519
 20
-15.4079108716
 11
0.6121510354
 21
-15.3836949305
  0
LINE
  5
38F
100
AcDbEntity
  8
0
100
AcDbLine
 62
7
  6
CONTINUOUS
 10
1.565169871
 20
-15.1746011626
 11
1.5898302591
 21
-15.1688225378
  0
LINE
  5
390
100
AcDbEntity
  8
0
100
AcDbLine
 62
7
  6
CONTINUOUS
 10
1.4905731204
 20
-14.8854766966
 11
1.4572443934
 21
-14.8932527973
  0
LINE
  5
391
100
AcDbEntity
  8
0
100
AcDbLine
 62
7
  6
CONTINUOUS
 10
0.6121510354
 20
-15.3836949305
 11
0.7110203231
 21
-15.3609300916
  0
LINE
  5
392
100
AcDbEntity
  8
0
100
AcDbLine
 62
7
  6
CONTINUOUS
 10
0.7932448299
 20
-15.0407381644
 11
0.6701269912
 21
-15.069094625
  0
LINE
  5
393
100
AcDbEntity
  8
0
100
AcDbLine
 62
7
  6
CONTINUOUS
 10
1.5380458623
 20
-15.1808099319
 11
1.565169871
 21
-15.1746011626
  0
LINE
  5
394
100
AcDbEntity
  8
0
100
AcDbLine
 62
7
  6
CONTINUOUS
 10
1.4572443934
 20
-14.8932527973
 11
1.408664658
 21
-14.904321696
  0
LINE
  5
395
100
AcDbEntity
  8
0
100
AcDbLine
 62
7
  6
CONTINUOUS
 10
0.7110203231
 20
-15.3609300916
 11
0.8286381892
 21
-15.3344386002
  0
LINE
  5
396
100
AcDbEntity
  8
0
100
AcDbLine
 62
7
  6
CONTINUOUS
 10
0.95100431
 20
-15.0052323958
 11
0.7932448299
 21
-15.0407381644
  0
LINE
  5
397
100
AcDbEntity
  8
0
100
AcDbLine
 62
7
  6
CONTINUOUS
 10
1.4979506386
 20
-15.1897884475
 11
1.5380458623
 21
-15.1808099319
  0
LINE
  5
398
100
AcDbEntity
  8
0
100
AcDbLine
 62
7
  6
CONTINUOUS
 10
1.408664658
 20
-14.904321696
 11
1.3136256664
 21
-14.925475419
  0
LINE
  5
399
100
AcDbEntity
  8
0
100
AcDbLine
 62
7
  6
CONTINUOUS
 10
1.3136256664
 20
-14.925475419
 11
0.95100431
 21
-15.0052323958
  0
LWPOLYLINE
  5
39A
100
AcDbEntity
  8
0
100
AcDbPolyline
 62
7
  6
CONTINUOUS
 90
14
 70
0
 10
-1.5848724789
 20
-14.9776679806
 10
-1.5849082968
 20
-14.9776758097
 10
-1.5847696353
 20
-14.9776471666
 10
-1.5842237133
 20
-14.9775404647
 10
-1.5833569147
 20
-14.9773808977
 10
-1.582175334
 20
-14.977175337
 10
-1.5806616158
 20
-14.9769259924
 10
-1.5788698974
 20
-14.9766459388
 10
-1.5768024647
 20
-14.976338538
 10
-1.5744494125
 20
-14.976005077
 10
-1.5718495386
 20
-14.9756532407
 10
-1.5690072594
 20
-14.975285193
 10
-1.5659143433
 20
-14.9749013119
 10
-1.5625923489
 20
-14.974505478
  0
LINE
  5
39B
100
AcDbEntity
  8
0
100
AcDbLine
 62
7
  6
CONTINUOUS
 10
0.8286381892
 20
-15.3344386002
 11
0.9604164125
 21
-15.3054015084
  0
LINE
  5
39C
100
AcDbEntity
  8
0
100
AcDbLine
 62
7
  6
CONTINUOUS
 10
1.4290589001
 20
-15.2048631236
 11
1.4979506386
 21
-15.1897884475
  0
LINE
  5
39D
100
AcDbEntity
  8
0
100
AcDbLine
 62
7
  6
CONTINUOUS
 10
0.9604164125
 20
-15.3054015084
 11
1.1193006729
 21
-15.2710818007
  0
LINE
  5
39E
100
AcDbEntity
  8
0
100
AcDbLine
 62
7
  6
CONTINUOUS
 10
1.1193006729
 20
-15.2710818007
 11
1.4290589001
 21
-15.2048631236
  0
LWPOLYLINE
  5
39F
100
AcDbEntity
  8
0
100
AcDbPolyline
 62
7
  6
CONTINUOUS
 90
13
 70
0
 10
1.623304868
 20
-14.5473276269
 10
1.6230066082
 20
-14.5473879825
 10
1.6222912658
 20
-14.5475242276
 10
1.6212444679
 20
-14.5477119017
 10
1.6198715431
 20
-14.5479443909
 10
1.6181551683
 20
-14.5482194825
 10
1.6161506043
 20
-14.5485242494
 10
1.6138637597
 20
-14.5488549097
 10
1.6112814431
 20
-14.5492107272
 10
1.6084318233
 20
-14.5495856042
 10
1.6053173244
 20
-14.5499775172
 10
1.6019280471
 20
-14.5503861274
 10
1.5982723446
 20
-14.5508089982
  0
LWPOLYLINE
  5
3A0
100
AcDbEntity
  8
0
100
AcDbPolyline
 62
7
  6
CONTINUOUS
 90
36
 70
0
 10
1.6280173556
 20
-14.8491546599
 10
1.6333738315
 20
-14.848548012
 10
1.6385686279
 20
-14.8479339708
 10
1.6436044143
 20
-14.8473116344
 10
1.6484858841
 20
-14.8466797672
 10
1.6532344121
 20
-14.846034698
 10
1.6578486332
 20
-14.8453754886
 10
1.662340435
 20
-14.8446991723
 10
1.6667540141
 20
-14.8439971026
 10
1.6710828669
 20
-14.8432677154
 10
1.6753457219
 20
-14.8425049173
 10
1.6796264708
 20
-14.8416888351
 10
1.6839063145
 20
-14.840816546
 10
1.6882154304
 20
-14.8398745029
 10
1.6927110234
 20
-14.8388155824
 10
1.6973614335
 20
-14.8376293412
 10
1.7022024942
 20
-14.8362859897
 10
1.707489147
 20
-14.8346799634
 10
1.7132045307
 20
-14.8327647849
 10
1.7193451954
 20
-14.8304807546
 10
1.7261711452
 20
-14.8276411295
 10
1.7337574697
 20
-14.8240773206
 10
1.7419168667
 20
-14.8197124487
 10
1.7504898265
 20
-14.8144559784
 10
1.7594297374
 20
-14.8081276562
 10
1.7685218968
 20
-14.8006287903
 10
1.777360691
 20
-14.7920513343
 10
1.7857820226
 20
-14.782351301
 10
1.7936591213
 20
-14.7714907015
 10
1.8007125192
 20
-14.7596925347
 10
1.8068040723
 20
-14.7470630472
 10
1.8118377443
 20
-14.7336289179
 10
1.8156584619
 20
-14.7195684944
 10
1.8181448982
 20
-14.7050222629
 10
1.8191831749
 20
-14.6900820703
 10
1.8192056702
 20
-14.6879623346
  0
LWPOLYLINE
  5
3A1
100
AcDbEntity
  8
0
100
AcDbPolyline
 62
7
  6
CONTINUOUS
 90
36
 70
0
 10
-1.5878720124
 20
-14.6756544032
 10
-1.5933238237
 20
-14.6762638515
 10
-1.5986161893
 20
-14.6768812281
 10
-1.6037533859
 20
-14.6775077229
 10
-1.6087367103
 20
-14.6781442599
 10
-1.6135915265
 20
-14.6787951206
 10
-1.6183186648
 20
-14.6794617706
 10
-1.6229252497
 20
-14.6801467302
 10
-1.6274496525
 20
-14.6808578593
 10
-1.6318852139
 20
-14.6815968234
 10
-1.636250602
 20
-14.6823698016
 10
-1.640625892
 20
-14.6831959237
 10
-1.6449929855
 20
-14.6840783228
 10
-1.649382834
 20
-14.6850307177
 10
-1.6539503584
 20
-14.6860995229
 10
-1.6586646416
 20
-14.6872954034
 10
-1.6635631862
 20
-14.688648546
 10
-1.6689006391
 20
-14.6902641993
 10
-1.674663022
 20
-14.6921899351
 10
-1.680845981
 20
-14.6944853998
 10
-1.6877036285
 20
-14.6973347935
 10
-1.6953071367
 20
-14.7009039421
 10
-1.7034753705
 20
-14.7052711848
 10
-1.7120571157
 20
-14.7105309728
 10
-1.7210061882
 20
-14.7168641898
 10
-1.7301070221
 20
-14.7243693991
 10
-1.7389580942
 20
-14.7329594855
 10
-1.747391581
 20
-14.742676878
 10
-1.75528157
 20
-14.7535627918
 10
-1.7623546572
 20
-14.7654095535
 10
-1.7684660277
 20
-14.7781119854
 10
-1.7735132752
 20
-14.7916455462
 10
-1.7773380319
 20
-14.8058515753
 10
-1.7798053865
 20
-14.8205956833
 10
-1.780783204
 20
-14.8357761905
 10
-1.7807935702
 20
-14.8375040835
  0
LINE
  5
3A2
100
AcDbEntity
  8
0
100
AcDbLine
 62
7
  6
CONTINUOUS
 10
-1.5625923489
 20
-14.974505478
 11
-1.5552627549
 21
-14.9736817838
  0
LINE
  5
3A3
100
AcDbEntity
  8
0
100
AcDbLine
 62
7
  6
CONTINUOUS
 10
1.5982723446
 20
-14.5508089982
 11
1.5901471363
 21
-14.5516942995
  0
LINE
  5
3A4
100
AcDbEntity
  8
0
100
AcDbLine
 62
7
  6
CONTINUOUS
 10
1.6167721435
 20
-14.8503527874
 11
1.6280173556
 21
-14.8491546599
  0
LINE
  5
3A5
100
AcDbEntity
  8
0
100
AcDbLine
 62
7
  6
CONTINUOUS
 10
-1.5763951481
 20
-14.6744472247
 11
-1.5878720124
 21
-14.6756544032
  0
LINE
  5
3A6
100
AcDbEntity
  8
0
100
AcDbLine
 62
7
  6
CONTINUOUS
 10
-1.5552627549
 20
-14.9736817838
 11
-1.5470311998
 21
-14.9728218481
  0
LINE
  5
3A7
100
AcDbEntity
  8
0
100
AcDbLine
 62
7
  6
CONTINUOUS
 10
1.5901471363
 20
-14.5516942995
 11
1.5809094486
 21
-14.552627954
  0
LINE
  5
3A8
100
AcDbEntity
  8
0
100
AcDbLine
 62
7
  6
CONTINUOUS
 10
1.6047761379
 20
-14.8515368151
 11
1.6167721435
 21
-14.8503527874
  0
LINE
  5
3A9
100
AcDbEntity
  8
0
100
AcDbLine
 62
7
  6
CONTINUOUS
 10
-1.5470311998
 20
-14.9728218481
 11
-1.537900148
 21
-14.9719309545
  0
LINE
  5
3AA
100
AcDbEntity
  8
0
100
AcDbLine
 62
7
  6
CONTINUOUS
 10
-1.5641158893
 20
-14.673250631
 11
-1.5763951481
 21
-14.6744472247
  0
LINE
  5
3AB
100
AcDbEntity
  8
0
100
AcDbLine
 62
7
  6
CONTINUOUS
 10
1.5809094486
 20
-14.552627954
 11
1.5705152592
 21
-14.5536064474
  0
LINE
  5
3AC
100
AcDbEntity
  8
0
100
AcDbLine
 62
7
  6
CONTINUOUS
 10
1.5919285167
 20
-14.8527174592
 11
1.6047761379
 21
-14.8515368151
  0
LINE
  5
3AD
100
AcDbEntity
  8
0
100
AcDbLine
 62
7
  6
CONTINUOUS
 10
-1.537900148
 20
-14.9719309545
 11
-1.527874526
 21
-14.9710136532
  0
LINE
  5
3AE
100
AcDbEntity
  8
0
100
AcDbLine
 62
7
  6
CONTINUOUS
 10
-1.5509611113
 20
-14.6720570883
 11
-1.5641158893
 21
-14.673250631
  0
LINE
  5
3AF
100
AcDbEntity
  8
0
100
AcDbLine
 62
7
  6
CONTINUOUS
 10
1.5705152592
 20
-14.5536064474
 11
1.5589042053
 21
-14.5546281452
  0
LINE
  5
3B0
100
AcDbEntity
  8
0
100
AcDbLine
 62
7
  6
CONTINUOUS
 10
-1.527874526
 20
-14.9710136532
 11
-1.5169470086
 21
-14.9700726422
  0
LINE
  5
3B1
100
AcDbEntity
  8
0
100
AcDbLine
 62
7
  6
CONTINUOUS
 10
1.5781694606
 20
-14.8538997463
 11
1.5919285167
 21
-14.8527174592
  0
LINE
  5
3B2
100
AcDbEntity
  8
0
100
AcDbLine
 62
7
  6
CONTINUOUS
 10
-1.5368691379
 20
-14.6708614917
 11
-1.5509611113
 21
-14.6720570883
  0
LINE
  5
3B3
100
AcDbEntity
  8
0
100
AcDbLine
 62
7
  6
CONTINUOUS
 10
1.5589042053
 20
-14.5546281452
 11
1.5460231539
 21
-14.5556909401
  0
LINE
  5
3B4
100
AcDbEntity
  8
0
100
AcDbLine
 62
7
  6
CONTINUOUS
 10
-1.5169470086
 20
-14.9700726422
 11
-1.5051048187
 21
-14.9691097431
  0
LINE
  5
3B5
100
AcDbEntity
  8
0
100
AcDbLine
 62
7
  6
CONTINUOUS
 10
1.5634461299
 20
-14.8550872542
 11
1.5781694606
 21
-14.8538997463
  0
LINE
  5
3B6
100
AcDbEntity
  8
0
100
AcDbLine
 62
7
  6
CONTINUOUS
 10
-1.5217885771
 20
-14.6696604547
 11
-1.5368691379
 21
-14.6708614917
  0
LINE
  5
3B7
100
AcDbEntity
  8
0
100
AcDbLine
 62
7
  6
CONTINUOUS
 10
1.5460231539
 20
-14.5556909401
 11
1.5318221417
 21
-14.556792763
  0
LINE
  5
3B8
100
AcDbEntity
  8
0
100
AcDbLine
 62
7
  6
CONTINUOUS
 10
-1.5051048187
 20
-14.9691097431
 11
-1.4855941413
 21
-14.9676273225
  0
LINE
  5
3B9
100
AcDbEntity
  8
0
100
AcDbLine
 62
7
  6
CONTINUOUS
 10
1.5394201877
 20
-14.8568859578
 11
1.5634461299
 21
-14.8550872542
  0
LINE
  5
3BA
100
AcDbEntity
  8
0
100
AcDbLine
 62
7
  6
CONTINUOUS
 10
-1.4971869522
 20
-14.6678415611
 11
-1.5217885771
 21
-14.6696604547
  0
LINE
  5
3BB
100
AcDbEntity
  8
0
100
AcDbLine
 62
7
  6
CONTINUOUS
 10
1.5318221417
 20
-14.556792763
 11
1.5079786758
 21
-14.5585119861
  0
LINE
  5
3BC
100
AcDbEntity
  8
0
100
AcDbLine
 62
7
  6
CONTINUOUS
 10
-1.4855941413
 20
-14.9676273225
 11
-1.4639259356
 21
-14.9661014039
  0
LINE
  5
3BD
100
AcDbEntity
  8
0
100
AcDbLine
 62
7
  6
CONTINUOUS
 10
1.5129009067
 20
-14.8587127922
 11
1.5394201877
 21
-14.8568859578
  0
LINE
  5
3BE
100
AcDbEntity
  8
0
100
AcDbLine
 62
7
  6
CONTINUOUS
 10
-1.4700531586
 20
-14.6659952399
 11
-1.4971869522
 21
-14.6678415611
  0
LINE
  5
3BF
100
AcDbEntity
  8
0
100
AcDbLine
 62
7
  6
CONTINUOUS
 10
1.5079786758
 20
-14.5585119861
 11
1.4809873208
 21
-14.5603042214
  0
LINE
  5
3C0
100
AcDbEntity
  8
0
100
AcDbLine
 62
7
  6
CONTINUOUS
 10
-1.4639259356
 20
-14.9661014039
 11
-1.4400206456
 21
-14.9645332302
  0
LINE
  5
3C1
100
AcDbEntity
  8
0
100
AcDbLine
 62
7
  6
CONTINUOUS
 10
1.4837025619
 20
-14.8605743594
 11
1.5129009067
 21
-14.8587127922
  0
LINE
  5
3C2
100
AcDbEntity
  8
0
100
AcDbLine
 62
7
  6
CONTINUOUS
 10
-1.4402142918
 20
-14.6641155244
 11
-1.4700531586
 21
-14.6659952399
  0
LINE
  5
3C3
100
AcDbEntity
  8
0
100
AcDbLine
 62
7
  6
CONTINUOUS
 10
1.4809873208
 20
-14.5603042214
 11
1.4507467226
 21
-14.5621632282
  0
LINE
  5
3C4
100
AcDbEntity
  8
0
100
AcDbLine
 62
7
  6
CONTINUOUS
 10
-1.4400206456
 20
-14.9645332302
 11
-1.4045205081
 21
-14.9623776544
  0
LINE
  5
3C5
100
AcDbEntity
  8
0
100
AcDbLine
 62
7
  6
CONTINUOUS
 10
1.4403086957
 20
-14.8631181498
 11
1.4837025619
 21
-14.8605743594
  0
LINE
  5
3C6
100
AcDbEntity
  8
0
100
AcDbLine
 62
7
  6
CONTINUOUS
 10
-1.3959663508
 20
-14.6615513704
 11
-1.4402142918
 21
-14.6641155244
  0
LINE
  5
3C7
100
AcDbEntity
  8
0
100
AcDbLine
 62
7
  6
CONTINUOUS
 10
1.4507467226
 20
-14.5621632282
 11
1.4051653652
 21
-14.5647398765
  0
LINE
  5
3C8
100
AcDbEntity
  8
0
100
AcDbLine
 62
7
  6
CONTINUOUS
 10
-1.4045205081
 20
-14.9623776544
 11
-1.3541173972
 21
-14.9595847267
  0
LINE
  5
3C9
100
AcDbEntity
  8
0
100
AcDbLine
 62
7
  6
CONTINUOUS
 10
1.3915111881
 20
-14.8657370342
 11
1.4403086957
 21
-14.8631181498
  0
LINE
  5
3CA
100
AcDbEntity
  8
0
100
AcDbLine
 62
7
  6
CONTINUOUS
 10
-1.3331896652
 20
-14.6582530707
 11
-1.3959663508
 21
-14.6615513704
  0
LINE
  5
3CB
100
AcDbEntity
  8
0
100
AcDbLine
 62
7
  6
CONTINUOUS
 10
1.4051653652
 20
-14.5647398765
 11
1.3393362322
 21
-14.5681111743
  0
LINE
  5
3CC
100
AcDbEntity
  8
0
100
AcDbLine
 62
7
  6
CONTINUOUS
 10
-1.3541173972
 20
-14.9595847267
 11
-1.2845165164
 21
-14.956098762
  0
LINE
  5
3CD
100
AcDbEntity
  8
0
100
AcDbLine
 62
7
  6
CONTINUOUS
 10
1.3224629401
 20
-14.8691213427
 11
1.3915111881
 21
-14.8657370342
  0
LINE
  5
3CE
100
AcDbEntity
  8
0
100
AcDbLine
 62
7
  6
CONTINUOUS
 10
-1.2465782821
 20
-14.6541638755
 11
-1.3331896652
 21
-14.6582530707
  0
LINE
  5
3CF
100
AcDbEntity
  8
0
100
AcDbLine
 62
7
  6
CONTINUOUS
 10
1.3393362322
 20
-14.5681111743
 11
1.2467219491
 21
-14.5723680236
  0
LINE
  5
3D0
100
AcDbEntity
  8
0
100
AcDbLine
 62
7
  6
CONTINUOUS
 10
-1.2845165164
 20
-14.956098762
 11
-1.1904079588
 21
-14.9518589205
  0
LINE
  5
3D1
100
AcDbEntity
  8
0
100
AcDbLine
 62
7
  6
CONTINUOUS
 10
1.2271266767
 20
-14.8733512136
 11
1.3224629401
 21
-14.8691213427
  0
LINE
  5
3D2
100
AcDbEntity
  8
0
100
AcDbLine
 62
7
  6
CONTINUOUS
 10
-1.1297663578
 20
-14.6492231852
 11
-1.2465782821
 21
-14.6541638755
  0
LINE
  5
3D3
100
AcDbEntity
  8
0
100
AcDbLine
 62
7
  6
CONTINUOUS
 10
1.2467219491
 20
-14.5723680236
 11
1.1187821628
 21
-14.5776266408
  0
LINE
  5
3D4
100
AcDbEntity
  8
0
100
AcDbLine
 62
7
  6
CONTINUOUS
 10
-1.1904079588
 20
-14.9518589205
 11
-1.0487849178
 21
-14.9461564461
  0
LINE
  5
3D5
100
AcDbEntity
  8
0
100
AcDbLine
 62
7
  6
CONTINUOUS
 10
1.0765700835
 20
-14.8793300419
 11
1.2271266767
 21
-14.8733512136
  0
LINE
  5
3D6
100
AcDbEntity
  8
0
100
AcDbLine
 62
7
  6
CONTINUOUS
 10
-0.9329327503
 20
-14.6418400737
 11
-1.1297663578
 21
-14.6492231852
  0
LINE
  5
3D7
100
AcDbEntity
  8
0
100
AcDbLine
 62
7
  6
CONTINUOUS
 10
1.1187821628
 20
-14.5776266408
 11
0.9438184324
 21
-14.5840714185
  0
LINE
  5
3D8
100
AcDbEntity
  8
0
100
AcDbLine
 62
7
  6
CONTINUOUS
 10
-1.0487849178
 20
-14.9461564461
 11
-0.8845781113
 21
-14.9402028389
  0
LINE
  5
3D9
100
AcDbEntity
  8
0
100
AcDbLine
 62
7
  6
CONTINUOUS
 10
0.8181609357
 20
-14.8883839619
 11
1.0765700835
 21
-14.8793300419
  0
LINE
  5
3DA
100
AcDbEntity
  8
0
100
AcDbLine
 62
7
  6
CONTINUOUS
 10
0.9438184324
 20
-14.5840714185
 11
0.7372746897
 21
-14.5909880833
  0
LINE
  5
3DB
100
AcDbEntity
  8
0
100
AcDbLine
 62
7
  6
CONTINUOUS
 10
-0.8845781113
 20
-14.9402028389
 11
-0.6556953356
 21
-14.9326319811
  0
LINE
  5
3DC
100
AcDbEntity
  8
0
100
AcDbLine
 62
7
  6
CONTINUOUS
 10
-0.545347675
 20
-14.6291655939
 11
-0.9329327503
 21
-14.6418400737
  0
LINE
  5
3DD
100
AcDbEntity
  8
0
100
AcDbLine
 62
7
  6
CONTINUOUS
 10
0.7372746897
 20
-14.5909880833
 11
0.4449592901
 21
-14.6000346472
  0
LINE
  5
3DE
100
AcDbEntity
  8
0
100
AcDbLine
 62
7
  6
CONTINUOUS
 10
-0.6556953356
 20
-14.9326319811
 11
-0.3264194448
 21
-14.9225788175
  0
LINE
  5
3DF
100
AcDbEntity
  8
0
100
AcDbLine
 62
7
  6
CONTINUOUS
 10
-0.3264194448
 20
-14.9225788175
 11
0.8181609357
 21
-14.8883839619
  0
LINE
  5
3E0
100
AcDbEntity
  8
0
100
AcDbLine
 62
7
  6
CONTINUOUS
 10
0.4449592901
 20
-14.6000346472
 11
-0.545347675
 21
-14.6291655939
  0
LINE
  5
3E1
100
AcDbEntity
  8
RACCORDO
100
AcDbLine
 62
7
  6
CONTINUOUS
 10
1.5192825756
 20
-15.2375
 11
1.2767054546
 21
-15.2375
  0
LINE
  5
3E2
100
AcDbEntity
  8
RACCORDO
100
AcDbLine
 62
7
  6
CONTINUOUS
 10
-1.2307935768
 20
-15.2375
 11
-1.4808697292
 21
-15.2375
  0
LINE
  5
3E3
100
AcDbEntity
  8
RACCORDO
100
AcDbLine
 62
7
  6
CONTINUOUS
 10
44.0192064232
 20
-15.0625
 11
43.0192064232
 21
-15.0625
  0
LINE
  5
3E4
100
AcDbEntity
  8
RACCORDO
100
AcDbLine
 62
7
  6
CONTINUOUS
 10
41.5192064232
 20
-15.0625
 11
40.5192064232
 21
-15.0625
  0
LINE
  5
3E5
100
AcDbEntity
  8
RACCORDO
100
AcDbLine
 62
7
  6
CONTINUOUS
 10
39.0192064232
 20
-15.0625
 11
38.0192064232
 21
-15.0625
  0
LINE
  5
3E6
100
AcDbEntity
  8
RACCORDO
100
AcDbLine
 62
7
  6
CONTINUOUS
 10
36.5192064232
 20
-15.0625
 11
35.5192064232
 21
-15.0625
  0
LINE
  5
3E7
100
AcDbEntity
  8
RACCORDO
100
AcDbLine
 62
7
  6
CONTINUOUS
 10
34.0192064232
 20
-15.0625
 11
33.0192064232
 21
-15.0625
  0
LINE
  5
3E8
100
AcDbEntity
  8
RACCORDO
100
AcDbLine
 62
7
  6
CONTINUOUS
 10
24.0192064232
 20
-15.0625
 11
23.0192064232
 21
-15.0625
  0
LINE
  5
3E9
100
AcDbEntity
  8
RACCORDO
100
AcDbLine
 62
7
  6
CONTINUOUS
 10
21.5192064232
 20
-15.0625
 11
20.5192064232
 21
-15.0625
  0
LINE
  5
3EA
100
AcDbEntity
  8
RACCORDO
100
AcDbLine
 62
7
  6
CONTINUOUS
 10
19.0192064232
 20
-15.0625
 11
18.0192064232
 21
-15.0625
  0
LINE
  5
3EB
100
AcDbEntity
  8
RACCORDO
100
AcDbLine
 62
7
  6
CONTINUOUS
 10
18.0192064232
 20
-14.4125
 11
19.0192064232
 21
-14.4125
  0
LINE
  5
3EC
100
AcDbEntity
  8
RACCORDO
100
AcDbLine
 62
7
  6
CONTINUOUS
 10
20.5192064232
 20
-14.4125
 11
21.5192064232
 21
-14.4125
  0
LINE
  5
3ED
100
AcDbEntity
  8
RACCORDO
100
AcDbLine
 62
7
  6
CONTINUOUS
 10
23.0192064232
 20
-14.4125
 11
24.0192064232
 21
-14.4125
  0
LINE
  5
3EE
100
AcDbEntity
  8
RACCORDO
100
AcDbLine
 62
7
  6
CONTINUOUS
 10
33.0192064232
 20
-14.4125
 11
34.0192064232
 21
-14.4125
  0
LINE
  5
3EF
100
AcDbEntity
  8
RACCORDO
100
AcDbLine
 62
7
  6
CONTINUOUS
 10
35.5192064232
 20
-14.4125
 11
36.5192064232
 21
-14.4125
  0
LINE
  5
3F0
100
AcDbEntity
  8
RACCORDO
100
AcDbLine
 62
7
  6
CONTINUOUS
 10
38.0192064232
 20
-14.4125
 11
39.0192064232
 21
-14.4125
  0
LINE
  5
3F1
100
AcDbEntity
  8
RACCORDO
100
AcDbLine
 62
7
  6
CONTINUOUS
 10
40.5192064232
 20
-14.4125
 11
41.5192064232
 21
-14.4125
  0
LINE
  5
3F2
100
AcDbEntity
  8
RACCORDO
100
AcDbLine
 62
7
  6
CONTINUOUS
 10
43.0192064232
 20
-14.4125
 11
44.0192064232
 21
-14.4125
  0
LINE
  5
3F3
100
AcDbEntity
  8
DRAFT
100
AcDbLine
 62
7
  6
CONTINUOUS
 10
4.146571618
 20
-13.2625
 11
-4.1081587716
 21
-13.2625
  0
LINE
  5
3F4
100
AcDbEntity
  8
0
100
AcDbLine
 62
7
  6
CONTINUOUS
 10
-1.4650738726
 20
-16.006202649
 11
-1.4698804061
 21
-16.0017727867
  0
LINE
  5
3F5
100
AcDbEntity
  8
0
100
AcDbLine
 62
7
  6
CONTINUOUS
 10
1.5033801013
 20
-17.2472764258
 11
1.5082575299
 21
-17.2518000331
  0
LINE
  5
3F6
100
AcDbEntity
  8
ASSI
100
AcDbLine
 62
7
  6
CONTINUOUS
 10
-13.624707259
 20
0.0602988598
 11
-13.4999903964
 21
-0.1375
  0
LINE
  5
3F7
100
AcDbEntity
  8
ASSI
100
AcDbLine
 62
7
  6
CONTINUOUS
 10
-14.2889328791
 20
-0.1375
 11
-14.6701124165
 21
0.8140971224
  0
LINE
  5
3F8
100
AcDbEntity
  8
ASSI
100
AcDbLine
 62
7
  6
CONTINUOUS
 10
-14.6707432197
 20
0.5161823717
 11
-14.5682842576
 21
0.2546733595
  0
LINE
  5
3F9
100
AcDbEntity
  8
ASSI
100
AcDbLine
 62
7
  6
CONTINUOUS
 10
-14.5299861096
 20
0.1508627644
 11
-14.4238326192
 21
-0.1375
  0
LINE
  5
3FA
100
AcDbEntity
  8
ASSI
100
AcDbLine
 62
7
  6
CONTINUOUS
 10
-16.0559658654
 20
0.6699157402
 11
-15.7815706216
 21
-0.1375
  0
LINE
  5
3FB
100
AcDbEntity
  8
ASSI
100
AcDbLine
 62
7
  6
CONTINUOUS
 10
-15.7640886263
 20
0.1417613517
 11
-15.9894621561
 21
0.8140971224
  0
LINE
  5
3FC
100
AcDbEntity
  8
ASSI
100
AcDbLine
 62
7
  6
CONTINUOUS
 10
-11.3787218276
 20
0.8140971224
 11
-11.3787218276
 21
0.7045192719
  0
LINE
  5
3FD
100
AcDbEntity
  8
ASSI
100
AcDbLine
 62
7
  6
CONTINUOUS
 10
-11.0672900421
 20
0.7045192719
 11
-11.0672900421
 21
-0.1375
  0
LINE
  5
3FE
100
AcDbEntity
  8
0
100
AcDbLine
 62
7
  6
CONTINUOUS
 10
-10.9807935768
 20
17.8875
 11
-10.9807935768
 21
11.7875
  0
LINE
  5
3FF
100
AcDbEntity
  8
0
100
AcDbLine
 62
7
  6
CONTINUOUS
 10
-10.9807935768
 20
-11.0625
 11
-10.9807935768
 21
-17.1625
  0
LINE
  5
400
100
AcDbEntity
  8
ASSI
100
AcDbLine
 62
7
  6
CONTINUOUS
 10
-10.9404104258
 20
-0.1375
 11
-10.9404104258
 21
0.7045192719
  0
LINE
  5
401
100
AcDbEntity
  8
ASSI
100
AcDbLine
 62
7
  6
CONTINUOUS
 10
-10.6289786403
 20
0.7045192719
 11
-10.6289786403
 21
0.8140971224
  0
LINE
  5
402
100
AcDbEntity
  8
ASSI
100
AcDbLine
 62
7
  6
CONTINUOUS
 10
-10.4847972581
 20
0.8140971224
 11
-10.4847972581
 21
-0.1375
  0
LINE
  5
403
100
AcDbEntity
  8
ASSI
100
AcDbLine
 62
7
  6
CONTINUOUS
 10
-10.3579176418
 20
-0.1375
 11
-10.3579176418
 21
0.8140971224
  0
LINE
  5
404
100
AcDbEntity
  8
0
100
AcDbLine
 62
7
  6
CONTINUOUS
 10
-9.4807935768
 20
-17.1625
 11
-9.4807935768
 21
-11.0625
  0
LINE
  5
405
100
AcDbEntity
  8
0
100
AcDbLine
 62
7
  6
CONTINUOUS
 10
-9.4807935768
 20
11.7875
 11
-9.4807935768
 21
17.8875
  0
LINE
  5
406
100
AcDbEntity
  8
0
100
AcDbLine
 62
7
  6
CONTINUOUS
 10
-8.4807935768
 20
17.8875
 11
-8.4807935768
 21
11.7875
  0
LINE
  5
407
100
AcDbEntity
  8
0
100
AcDbLine
 62
7
  6
CONTINUOUS
 10
-8.4807935768
 20
-11.0625
 11
-8.4807935768
 21
-17.1625
  0
LINE
  5
408
100
AcDbEntity
  8
ASSI
100
AcDbLine
 62
7
  6
CONTINUOUS
 10
-9.1467940315
 20
-0.1375
 11
-9.0464978231
 21
0.1508627644
  0
LINE
  5
409
100
AcDbEntity
  8
ASSI
100
AcDbLine
 62
7
  6
CONTINUOUS
 10
-9.0103623408
 20
0.2546733595
 11
-8.9075430078
 21
0.5324928754
  0
LINE
  5
40A
100
AcDbEntity
  8
ASSI
100
AcDbLine
 62
7
  6
CONTINUOUS
 10
-8.9189874036
 20
0.8140971224
 11
-9.2807024214
 21
-0.1375
  0
LINE
  5
40B
100
AcDbEntity
  8
RACCORDO
100
AcDbLine
 62
7
  6
CONTINUOUS
 10
5.1292688811
 20
-11.1625
 11
-5.0908560347
 21
-11.1625
  0
LINE
  5
40C
100
AcDbEntity
  8
0
100
AcDbLine
 62
7
  6
CONTINUOUS
 10
21.2692064232
 20
-11.0875
 11
21.5192064232
 21
-11.0875
  0
LINE
  5
40D
100
AcDbEntity
  8
0
100
AcDbLine
 62
7
  6
CONTINUOUS
 10
-21.2307935768
 20
-11.0875
 11
-21.9807935768
 21
-11.0875
  0
LINE
  5
40E
100
AcDbEntity
  8
0
100
AcDbLine
 62
7
  6
CONTINUOUS
 10
23.7692064232
 20
-11.0875
 11
24.0192064232
 21
-11.0875
  0
LINE
  5
40F
100
AcDbEntity
  8
0
100
AcDbLine
 62
7
  6
CONTINUOUS
 10
-23.7307935768
 20
-11.0875
 11
-24.4807935768
 21
-11.0875
  0
LINE
  5
410
100
AcDbEntity
  8
0
100
AcDbLine
 62
7
  6
CONTINUOUS
 10
-26.2307935768
 20
-11.0875
 11
-26.9807935768
 21
-11.0875
  0
LINE
  5
411
100
AcDbEntity
  8
0
100
AcDbLine
 62
7
  6
CONTINUOUS
 10
-28.7307935768
 20
-11.0875
 11
-29.4807935768
 21
-11.0875
  0
LINE
  5
412
100
AcDbEntity
  8
0
100
AcDbLine
 62
7
  6
CONTINUOUS
 10
-31.2307935768
 20
-11.0875
 11
-31.9807935768
 21
-11.0875
  0
LINE
  5
413
100
AcDbEntity
  8
0
100
AcDbLine
 62
7
  6
CONTINUOUS
 10
33.7692064232
 20
-11.0875
 11
34.0192064232
 21
-11.0875
  0
LINE
  5
414
100
AcDbEntity
  8
0
100
AcDbLine
 62
7
  6
CONTINUOUS
 10
-33.7307935768
 20
-11.0875
 11
-34.4807935768
 21
-11.0875
  0
LINE
  5
415
100
AcDbEntity
  8
0
100
AcDbLine
 62
7
  6
CONTINUOUS
 10
36.2692064232
 20
-11.0875
 11
36.5192064232
 21
-11.0875
  0
LINE
  5
416
100
AcDbEntity
  8
0
100
AcDbLine
 62
7
  6
CONTINUOUS
 10
-36.2307935768
 20
-11.0875
 11
-36.9807935768
 21
-11.0875
  0
LINE
  5
417
100
AcDbEntity
  8
0
100
AcDbLine
 62
7
  6
CONTINUOUS
 10
38.7692064232
 20
-11.0875
 11
39.0192064232
 21
-11.0875
  0
LINE
  5
418
100
AcDbEntity
  8
0
100
AcDbLine
 62
7
  6
CONTINUOUS
 10
-38.7307935768
 20
-11.0875
 11
-39.4807935768
 21
-11.0875
  0
LINE
  5
419
100
AcDbEntity
  8
0
100
AcDbLine
 62
7
  6
CONTINUOUS
 10
41.2692064232
 20
-11.0875
 11
41.5192064232
 21
-11.0875
  0
LINE
  5
41A
100
AcDbEntity
  8
0
100
AcDbLine
 62
7
  6
CONTINUOUS
 10
-41.2307935768
 20
-11.0875
 11
-41.9807935768
 21
-11.0875
  0
LINE
  5
41B
100
AcDbEntity
  8
0
100
AcDbLine
 62
7
  6
CONTINUOUS
 10
-41.9807935768
 20
-11.0625
 11
-40.9807935768
 21
-11.0625
  0
LINE
  5
41C
100
AcDbEntity
  8
0
100
AcDbLine
 62
7
  6
CONTINUOUS
 10
-39.4807935768
 20
-11.0625
 11
-38.4807935768
 21
-11.0625
  0
LINE
  5
41D
100
AcDbEntity
  8
0
100
AcDbLine
 62
7
  6
CONTINUOUS
 10
-36.9807935768
 20
-11.0625
 11
-35.9807935768
 21
-11.0625
  0
LINE
  5
41E
100
AcDbEntity
  8
0
100
AcDbLine
 62
7
  6
CONTINUOUS
 10
-34.4807935768
 20
-11.0625
 11
-33.4807935768
 21
-11.0625
  0
LINE
  5
41F
100
AcDbEntity
  8
0
100
AcDbLine
 62
7
  6
CONTINUOUS
 10
-31.9807935768
 20
-11.0625
 11
-30.9807935768
 21
-11.0625
  0
LINE
  5
420
100
AcDbEntity
  8
0
100
AcDbLine
 62
7
  6
CONTINUOUS
 10
-29.4807935768
 20
-11.0625
 11
-28.4807935768
 21
-11.0625
  0
LINE
  5
421
100
AcDbEntity
  8
0
100
AcDbLine
 62
7
  6
CONTINUOUS
 10
-26.9807935768
 20
-11.0625
 11
-25.9807935768
 21
-11.0625
  0
LINE
  5
422
100
AcDbEntity
  8
0
100
AcDbLine
 62
7
  6
CONTINUOUS
 10
-24.4807935768
 20
-11.0625
 11
-23.4807935768
 21
-11.0625
  0
LINE
  5
423
100
AcDbEntity
  8
0
100
AcDbLine
 62
7
  6
CONTINUOUS
 10
-21.9807935768
 20
-11.0625
 11
-20.9807935768
 21
-11.0625
  0
LINE
  5
424
100
AcDbEntity
  8
0
100
AcDbLine
 62
7
  6
CONTINUOUS
 10
-19.4807935768
 20
-11.0625
 11
-18.4807935768
 21
-11.0625
  0
LINE
  5
425
100
AcDbEntity
  8
0
100
AcDbLine
 62
7
  6
CONTINUOUS
 10
-16.9807935768
 20
-11.0625
 11
-15.9807935768
 21
-11.0625
  0
LINE
  5
426
100
AcDbEntity
  8
0
100
AcDbLine
 62
7
  6
CONTINUOUS
 10
-14.4807935768
 20
-11.0625
 11
-13.4807935768
 21
-11.0625
  0
LINE
  5
427
100
AcDbEntity
  8
0
100
AcDbLine
 62
7
  6
CONTINUOUS
 10
-11.9807935768
 20
-11.0625
 11
-10.9807935768
 21
-11.0625
  0
LINE
  5
428
100
AcDbEntity
  8
0
100
AcDbLine
 62
7
  6
CONTINUOUS
 10
-9.4807935768
 20
-11.0625
 11
-8.4807935768
 21
-11.0625
  0
LINE
  5
429
100
AcDbEntity
  8
0
100
AcDbLine
 62
7
  6
CONTINUOUS
 10
-6.9807935768
 20
-11.0625
 11
-5.9807935768
 21
-11.0625
  0
LINE
  5
42A
100
AcDbEntity
  8
0
100
AcDbLine
 62
7
  6
CONTINUOUS
 10
18.0192064232
 20
-11.0625
 11
19.0192064232
 21
-11.0625
  0
LINE
  5
42B
100
AcDbEntity
  8
0
100
AcDbLine
 62
7
  6
CONTINUOUS
 10
20.5192064232
 20
-11.0625
 11
21.5192064232
 21
-11.0625
  0
LINE
  5
42C
100
AcDbEntity
  8
0
100
AcDbLine
 62
7
  6
CONTINUOUS
 10
23.0192064232
 20
-11.0625
 11
24.0192064232
 21
-11.0625
  0
LINE
  5
42D
100
AcDbEntity
  8
0
100
AcDbLine
 62
7
  6
CONTINUOUS
 10
33.0192064232
 20
-11.0625
 11
34.0192064232
 21
-11.0625
  0
LINE
  5
42E
100
AcDbEntity
  8
0
100
AcDbLine
 62
7
  6
CONTINUOUS
 10
35.5192064232
 20
-11.0625
 11
36.5192064232
 21
-11.0625
  0
LINE
  5
42F
100
AcDbEntity
  8
0
100
AcDbLine
 62
7
  6
CONTINUOUS
 10
38.0192064232
 20
-11.0625
 11
39.0192064232
 21
-11.0625
  0
LINE
  5
430
100
AcDbEntity
  8
0
100
AcDbLine
 62
7
  6
CONTINUOUS
 10
40.5192064232
 20
-11.0625
 11
41.5192064232
 21
-11.0625
  0
LINE
  5
431
100
AcDbEntity
  8
0
100
AcDbLine
 62
7
  6
CONTINUOUS
 10
43.0192064232
 20
-11.0625
 11
44.0192064232
 21
-11.0625
  0
LINE
  5
432
100
AcDbEntity
  8
DRAFT
100
AcDbLine
 62
7
  6
CONTINUOUS
 10
4.0942064232
 20
-10.8875
 11
4.0192064232
 21
-10.8875
  0
LINE
  5
433
100
AcDbEntity
  8
DRAFT
100
AcDbLine
 62
7
  6
CONTINUOUS
 10
-3.9807935768
 20
-10.8875
 11
-4.0557935768
 21
-10.8875
  0
LINE
  5
434
100
AcDbEntity
  8
RACCORDO
100
AcDbLine
 62
7
  6
CONTINUOUS
 10
4.0192064232
 20
-10.7036829586
 11
-3.9807935768
 21
-10.7036829586
  0
LINE
  5
435
100
AcDbEntity
  8
RACCORDO
100
AcDbLine
 62
250
  6
CONTINUOUS
 10
3.9997120637
 20
-10.6325520455
 11
-3.9612992172
 21
-10.6325520455
  0
LINE
  5
436
100
AcDbEntity
  8
RACCORDO
100
AcDbLine
 62
250
  6
CONTINUOUS
 10
4.129421186
 20
-9.654991814
 11
26.2692064232
 21
-9.654991814
  0
LINE
  5
437
100
AcDbEntity
  8
RACCORDO
100
AcDbLine
 62
250
  6
CONTINUOUS
 10
31.2692064232
 20
-9.654991814
 11
52.2735423195
 21
-9.654991814
  0
LINE
  5
438
100
AcDbEntity
  8
RACCORDO
100
AcDbLine
 62
250
  6
CONTINUOUS
 10
-4.0910083395
 20
-9.654991814
 11
-52.2351294731
 21
-9.654991814
  0
LINE
  5
439
100
AcDbEntity
  8
RACCORDO
100
AcDbLine
 62
250
  6
CONTINUOUS
 10
31.2692445002
 20
-9.6375380784
 11
26.2691683463
 21
-9.6375380784
  0
LINE
  5
43A
100
AcDbEntity
  8
RACCORDO
100
AcDbLine
 62
250
  6
CONTINUOUS
 10
51.2741514925
 20
-8.6550298909
 11
32.2692064232
 21
-8.6550298909
  0
LINE
  5
43B
100
AcDbEntity
  8
RACCORDO
100
AcDbLine
 62
250
  6
CONTINUOUS
 10
25.2692064232
 20
-8.6550298909
 11
5.1292688811
 21
-8.6550298909
  0
LINE
  5
43C
100
AcDbEntity
  8
RACCORDO
100
AcDbLine
 62
250
  6
CONTINUOUS
 10
-5.0908560347
 20
-8.6550298909
 11
-51.235738646
 21
-8.6550298909
  0
LINE
  5
43D
100
AcDbEntity
  8
RACCORDO
100
AcDbLine
 62
7
  6
CONTINUOUS
 10
51.3442977688
 20
-8.6375
 11
5.094206429
 21
-8.6375
  0
LINE
  5
43E
100
AcDbEntity
  8
RACCORDO
100
AcDbLine
 62
7
  6
CONTINUOUS
 10
-5.0557935826
 20
-8.6375
 11
-51.3058849224
 21
-8.6375
  0
LINE
  5
43F
100
AcDbEntity
  8
RACCORDO
100
AcDbLine
 62
250
  6
CONTINUOUS
 10
-3.9804247353
 20
-8.2828153894
 11
4.0188375818
 21
-8.2828153894
  0
LINE
  5
440
100
AcDbEntity
  8
RACCORDO
100
AcDbLine
 62
7
  6
CONTINUOUS
 10
-3.9799208235
 20
-8.2375
 11
4.01833367
 21
-8.2375
  0
LINE
  5
441
100
AcDbEntity
  8
ASSI
100
AcDbLine
 62
7
  6
CONTINUOUS
 10
-13.3509429063
 20
-0.1375
 11
-13.5126062838
 21
0.1212155433
  0
LINE
  5
442
100
AcDbEntity
  8
ASSI
100
AcDbLine
 62
7
  6
CONTINUOUS
 10
-8.400565231
 20
-0.1375
 11
-8.7817447684
 21
0.8140971224
  0
LINE
  5
443
100
AcDbEntity
  8
ASSI
100
AcDbLine
 62
7
  6
CONTINUOUS
 10
-8.7823755715
 20
0.5161823717
 11
-8.6799166094
 21
0.2546733595
  0
LINE
  5
444
100
AcDbEntity
  8
ASSI
100
AcDbLine
 62
7
  6
CONTINUOUS
 10
-8.6416184614
 20
0.1508627644
 11
-8.535464971
 21
-0.1375
  0
LINE
  5
445
100
AcDbEntity
  8
RACCORDO
100
AcDbLine
 62
7
  6
CONTINUOUS
 10
-3.9804247353
 20
-8.2828153894
 11
-3.9612992172
 21
-10.6325520455
  0
LINE
  5
446
100
AcDbEntity
  8
ASSI
100
AcDbLine
 62
7
  6
CONTINUOUS
 10
-7.0244440858
 20
0.8140971224
 11
-7.0244440858
 21
-0.1375
  0
LINE
  5
447
100
AcDbEntity
  8
0
100
AcDbLine
 62
7
  6
CONTINUOUS
 10
-6.9807935768
 20
-17.1625
 11
-6.9807935768
 21
-11.0625
  0
LINE
  5
448
100
AcDbEntity
  8
0
100
AcDbLine
 62
7
  6
CONTINUOUS
 10
-6.9807935768
 20
11.7875
 11
-6.9807935768
 21
17.8875
  0
LINE
  5
449
100
AcDbEntity
  8
ASSI
100
AcDbLine
 62
7
  6
CONTINUOUS
 10
-6.8975644695
 20
-0.1375
 11
-6.8975644695
 21
0.8140971224
  0
LINE
  5
44A
100
AcDbEntity
  8
ASSI
100
AcDbLine
 62
7
  6
CONTINUOUS
 10
-6.2862354091
 20
0.8140971224
 11
-6.2862354091
 21
-0.1375
  0
LINE
  5
44B
100
AcDbEntity
  8
ASSI
100
AcDbLine
 62
7
  6
CONTINUOUS
 10
-6.1593557928
 20
-0.1375
 11
-6.1593557928
 21
0.8140971224
  0
LINE
  5
44C
100
AcDbEntity
  8
ASSI
100
AcDbLine
 62
7
  6
CONTINUOUS
 10
-6.0036399
 20
0.8140971224
 11
-6.0036399
 21
0.7045192719
  0
LINE
  5
44D
100
AcDbEntity
  8
0
100
AcDbLine
 62
7
  6
CONTINUOUS
 10
-5.9807935768
 20
17.8875
 11
-5.9807935768
 21
11.7875
  0
LINE
  5
44E
100
AcDbEntity
  8
0
100
AcDbLine
 62
7
  6
CONTINUOUS
 10
-5.9807935768
 20
-11.0625
 11
-5.9807935768
 21
-17.1625
  0
LINE
  5
44F
100
AcDbEntity
  8
ASSI
100
AcDbLine
 62
7
  6
CONTINUOUS
 10
-5.6922081145
 20
0.7045192719
 11
-5.6922081145
 21
-0.1375
  0
LINE
  5
450
100
AcDbEntity
  8
ASSI
100
AcDbLine
 62
7
  6
CONTINUOUS
 10
-5.5653284982
 20
-0.1375
 11
-5.5653284982
 21
0.7045192719
  0
LINE
  5
451
100
AcDbEntity
  8
ASSI
100
AcDbLine
 62
7
  6
CONTINUOUS
 10
-5.2538967127
 20
0.7045192719
 11
-5.2538967127
 21
0.8140971224
  0
LINE
  5
452
100
AcDbEntity
  8
RACCORDO
100
AcDbLine
 62
250
  6
CONTINUOUS
 10
-5.0908560347
 20
-11.1625
 11
-5.0908560347
 21
-8.6550298909
  0
LINE
  5
453
100
AcDbEntity
  8
ASSI
100
AcDbLine
 62
7
  6
CONTINUOUS
 10
-4.2503942927
 20
0.8140971224
 11
-4.2503942927
 21
-0.1375
  0
LINE
  5
454
100
AcDbEntity
  8
ASSI
100
AcDbLine
 62
7
  6
CONTINUOUS
 10
-4.1235146764
 20
-0.0279221495
 11
-4.1235146764
 21
0.8140971224
  0
LINE
  5
455
100
AcDbEntity
  8
DRAFT
100
AcDbLine
 62
7
  6
CONTINUOUS
 10
-4.1081587716
 20
-13.2625
 11
-4.1081587716
 21
-17.7625
  0
LINE
  5
456
100
AcDbEntity
  8
RACCORDO
100
AcDbLine
 62
250
  6
CONTINUOUS
 10
-4.0910083395
 20
-11.1625
 11
-4.0910083395
 21
-9.654991814
  0
LINE
  5
457
100
AcDbEntity
  8
RACCORDO
100
AcDbLine
 62
7
  6
CONTINUOUS
 10
-4.0557935768
 20
-13.2625
 11
-4.0557935768
 21
-17.7625
  0
LINE
  5
458
100
AcDbEntity
  8
RACCORDO
100
AcDbLine
 62
7
  6
CONTINUOUS
 10
-4.0557935768
 20
-11.1625
 11
-4.0557935768
 21
-9.6373857735
  0
LINE
  5
459
100
AcDbEntity
  8
RACCORDO
100
AcDbLine
 62
7
  6
CONTINUOUS
 10
-3.9807935768
 20
-17.7625
 11
-3.9807935768
 21
-13.2625
  0
LINE
  5
45A
100
AcDbEntity
  8
RACCORDO
100
AcDbLine
 62
7
  6
CONTINUOUS
 10
-3.9807935768
 20
-11.1625
 11
-3.9807935768
 21
-8.2554881465
  0
LINE
  5
45B
100
AcDbEntity
  8
ASSI
100
AcDbLine
 62
7
  6
CONTINUOUS
 10
-3.6505997429
 20
-0.1375
 11
-3.6505997429
 21
-0.0279221495
  0
LINE
  5
45C
100
AcDbEntity
  8
RACCORDO
100
AcDbLine
 62
250
  6
CONTINUOUS
 10
-3.6057935768
 20
-25.7009865965
 11
-3.6057935768
 21
-23.9625
  0
LINE
  5
45D
100
AcDbEntity
  8
ASSI
100
AcDbLine
 62
7
  6
CONTINUOUS
 10
-5.0981808199
 20
-0.1375
 11
-4.9978846116
 21
0.1508627644
  0
LINE
  5
45E
100
AcDbEntity
  8
ASSI
100
AcDbLine
 62
7
  6
CONTINUOUS
 10
-4.9617491293
 20
0.2546733595
 11
-4.8589297963
 21
0.5324928754
  0
LINE
  5
45F
100
AcDbEntity
  8
ASSI
100
AcDbLine
 62
7
  6
CONTINUOUS
 10
-7.2666688079
 20
0.8140971224
 11
-7.5287184205
 21
0.1245497006
  0
LINE
  5
460
100
AcDbEntity
  8
ASSI
100
AcDbLine
 62
7
  6
CONTINUOUS
 10
-4.8703741921
 20
0.8140971224
 11
-5.2320892099
 21
-0.1375
  0
LINE
  5
461
100
AcDbEntity
  8
ASSI
100
AcDbLine
 62
7
  6
CONTINUOUS
 10
-7.5105155072
 20
-0.1375
 11
-7.1309580352
 21
0.8140971224
  0
LINE
  5
462
100
AcDbEntity
  8
ASSI
100
AcDbLine
 62
7
  6
CONTINUOUS
 10
-26.131360852
 20
0.1646501434
 11
-26.2582404683
 21
0.1964602062
  0
LINE
  5
463
100
AcDbEntity
  8
RACCORDO
100
AcDbLine
 62
250
  6
CONTINUOUS
 10
4.0942064232
 20
-9.6373857735
 11
4.129421186
 21
-9.654991814
  0
LINE
  5
464
100
AcDbEntity
  8
RACCORDO
100
AcDbLine
 62
250
  6
CONTINUOUS
 10
5.094206429
 20
-8.6375
 11
5.1292688811
 21
-8.6550298909
  0
LINE
  5
465
100
AcDbEntity
  8
ASSI
100
AcDbLine
 62
7
  6
CONTINUOUS
 10
-4.3519520194
 20
-0.1375
 11
-4.7331315568
 21
0.8140971224
  0
LINE
  5
466
100
AcDbEntity
  8
ASSI
100
AcDbLine
 62
7
  6
CONTINUOUS
 10
-4.73376236
 20
0.5161823717
 11
-4.6313033979
 21
0.2546733595
  0
LINE
  5
467
100
AcDbEntity
  8
ASSI
100
AcDbLine
 62
7
  6
CONTINUOUS
 10
-8.0128975204
 20
0.8140971224
 11
-7.6470373126
 21
-0.1375
  0
LINE
  5
468
100
AcDbEntity
  8
ASSI
100
AcDbLine
 62
7
  6
CONTINUOUS
 10
-4.5930052499
 20
0.1508627644
 11
-4.4868517595
 21
-0.1375
  0
LINE
  5
469
100
AcDbEntity
  8
ASSI
100
AcDbLine
 62
7
  6
CONTINUOUS
 10
-7.6309069504
 20
0.1245497006
 11
-7.8779978683
 21
0.8140971224
  0
LWPOLYLINE
  5
46A
100
AcDbEntity
  8
0
100
AcDbPolyline
 62
7
  6
CONTINUOUS
 90
30
 70
0
 10
1.8190333743
 20
-17.2429209066
 10
1.8157905278
 20
-17.2120128142
 10
1.8084888831
 20
-17.1813321293
 10
1.7970275362
 20
-17.1507693506
 10
1.7815315853
 20
-17.1209425948
 10
1.7627364685
 20
-17.0929535151
 10
1.7412539287
 20
-17.0670321016
 10
1.7169649814
 20
-17.042525004
 10
1.6896824935
 20
-17.0189605481
 10
1.6593430759
 20
-16.9961074649
 10
1.6259281339
 20
-16.9738277991
 10
1.5892704271
 20
-16.9519241859
 10
1.549272994
 20
-16.9302823885
 10
1.505825221
 20
-16.9087997645
 10
1.4588283039
 20
-16.8873941744
 10
1.4081879235
 20
-16.8659952551
 10
1.3538773232
 20
-16.8445656484
 10
1.2960483525
 20
-16.8231318083
 10
1.2347075357
 20
-16.8016570068
 10
1.1699237128
 20
-16.7801253529
 10
1.1021098523
 20
-16.7586245475
 10
1.0314623685
 20
-16.7371584442
 10
0.9580706636
 20
-16.7156961214
 10
0.8823128294
 20
-16.694288068
 10
0.8044431079
 20
-16.672942749
 10
0.7246072703
 20
-16.65163757
 10
0.6430818235
 20
-16.6303844823
 10
0.5600854339
 20
-16.6091787343
 10
0.4758469901
 20
-16.588017709
 10
0.3048466863
 20
-16.545887561
  0
LWPOLYLINE
  5
46B
100
AcDbEntity
  8
0
100
AcDbPolyline
 62
7
  6
CONTINUOUS
 90
31
 70
0
 10
-1.7806495136
 20
-16.0098775566
 10
-1.7778593809
 20
-16.0386433136
 10
-1.7714260648
 20
-16.067667245
 10
-1.7610308171
 20
-16.0972203542
 10
-1.7466608455
 20
-16.1265151968
 10
-1.7291759171
 20
-16.1539815376
 10
-1.7092886137
 20
-16.1792656157
 10
-1.6868753699
 20
-16.2030964175
 10
-1.6619225653
 20
-16.2258107822
 10
-1.6345583132
 20
-16.2475602747
 10
-1.6047710318
 20
-16.2685590891
 10
-1.5722825431
 20
-16.2891242417
 10
-1.5370047548
 20
-16.3093768809
 10
-1.4988918611
 20
-16.3293941348
 10
-1.4577180922
 20
-16.3493274026
 10
-1.413381191
 20
-16.3692435978
 10
-1.3658355373
 20
-16.3891789484
 10
-1.3149953624
 20
-16.4091845484
 10
-1.2608180236
 20
-16.4292918597
 10
-1.2032925763
 20
-16.4495216442
 10
-1.1424586337
 20
-16.4698803167
 10
-1.0783106996
 20
-16.4903930209
 10
-1.0109247465
 20
-16.5110618002
 10
-0.9405485621
 20
-16.5318438423
 10
-0.8672777355
 20
-16.5527496298
 10
-0.7912407374
 20
-16.5737837031
 10
-0.7128205447
 20
-16.5948866578
 10
-0.632188776
 20
-16.6160633538
 10
-0.5495318584
 20
-16.6373174131
 10
-0.4653231766
 20
-16.6585831071
 10
-0.2931982308
 20
-16.7011463736
  0
LINE
  5
46C
100
AcDbEntity
  8
0
100
AcDbLine
 62
7
  6
CONTINUOUS
 10
-1.7807916772
 20
-16.0012074325
 11
-1.7806495136
 21
-16.0098775566
  0
LINE
  5
46D
100
AcDbEntity
  8
ASSI
100
AcDbLine
 62
7
  6
CONTINUOUS
 10
-3.2404036996
 20
0.2655771549
 11
-3.2404036996
 21
-0.1375
  0
LINE
  5
46E
100
AcDbEntity
  8
ASSI
100
AcDbLine
 62
7
  6
CONTINUOUS
 10
-3.1135240833
 20
-0.1375
 11
-3.1135240833
 21
0.2655771549
  0
LINE
  5
46F
100
AcDbEntity
  8
RACCORDO
100
AcDbLine
 62
7
  6
CONTINUOUS
 10
-2.6057935768
 20
-24.6641706412
 11
-2.6057935768
 21
-24.4625
  0
LINE
  5
470
100
AcDbEntity
  8
0
100
AcDbLine
 62
7
  6
CONTINUOUS
 10
-2.5307935768
 20
-19.8625
 11
-2.5307935768
 21
-17.7625
  0
LINE
  5
471
100
AcDbEntity
  8
RACCORDO
100
AcDbLine
 62
7
  6
CONTINUOUS
 10
-2.4807935768
 20
-28.3375228457
 11
-2.4807935768
 21
-24.4625
  0
LINE
  5
472
100
AcDbEntity
  8
RACCORDO
100
AcDbLine
 62
7
  6
CONTINUOUS
 10
-1.9807935768
 20
-15.7374238476
 11
-1.9807935768
 21
-19.2375761524
  0
LINE
  5
473
100
AcDbEntity
  8
ASSI
100
AcDbLine
 62
7
  6
CONTINUOUS
 10
-1.7835692145
 20
-17.2625
 11
-1.7835692145
 21
-15.3401976907
  0
LINE
  5
474
100
AcDbEntity
  8
CURVE
100
AcDbLine
 62
250
  6
CONTINUOUS
 10
-1.7807935768
 20
-14.5375
 11
-1.7807935768
 21
-19.0375
  0
LINE
  5
475
100
AcDbEntity
  8
DRAFT
100
AcDbLine
 62
7
  6
CONTINUOUS
 10
-1.3057935768
 20
-26.6375
 11
-1.3057935768
 21
-27.2375
  0
LINE
  5
476
100
AcDbEntity
  8
RACCORDO
100
AcDbLine
 62
7
  6
CONTINUOUS
 10
-1.2307935768
 20
-19.7375
 11
-1.2307935768
 21
-19.2374619238
  0
LINE
  5
477
100
AcDbEntity
  8
RACCORDO
100
AcDbLine
 62
7
  6
CONTINUOUS
 10
-1.2307935768
 20
-15.5637029759
 11
-1.2307935768
 21
-15.2375
  0
LINE
  5
478
100
AcDbEntity
  8
0
100
AcDbLine
 62
7
  6
CONTINUOUS
 10
-1.7807132864
 20
-18.4957776078
 11
-1.7807834208
 21
-18.5017140365
  0
LINE
  5
479
100
AcDbEntity
  8
ASSI
100
AcDbLine
 62
7
  6
CONTINUOUS
 10
-3.1135240833
 20
0.2655771549
 11
-2.7328852343
 21
0.8140971224
  0
LINE
  5
47A
100
AcDbEntity
  8
RACCORDO
100
AcDbLine
 62
7
  6
CONTINUOUS
 10
-49.9807935768
 20
-3.0125
 11
-51.4807935768
 21
-3.0125
  0
LINE
  5
47B
100
AcDbEntity
  8
0
100
AcDbLine
 62
7
  6
CONTINUOUS
 10
-50.0807935768
 20
-2.8875
 11
-51.4807935768
 21
-2.8875
  0
LINE
  5
47C
100
AcDbEntity
  8
DRAFT
100
AcDbLine
 62
7
  6
CONTINUOUS
 10
-52.4807935768
 20
-2.8875
 11
-52.5192064232
 21
-2.8875
  0
LINE
  5
47D
100
AcDbEntity
  8
ASSI
100
AcDbLine
 62
7
  6
CONTINUOUS
 10
18.5192064232
 20
-2.123814
 11
21.5192064232
 21
-2.123814
  0
LINE
  5
47E
100
AcDbEntity
  8
ASSI
100
AcDbLine
 62
7
  6
CONTINUOUS
 10
21.5192064232
 20
-1.373814
 11
18.5192064232
 21
-1.373814
  0
LINE
  5
47F
100
AcDbEntity
  8
ASSI
100
AcDbLine
 62
7
  6
CONTINUOUS
 10
24.8754072106
 20
-1.1625
 11
25.383740179
 21
-1.1625
  0
LINE
  5
480
100
AcDbEntity
  8
ASSI
100
AcDbLine
 62
7
  6
CONTINUOUS
 10
19.4028792473
 20
-0.4973891891
 11
19.6271782473
 21
-0.4973891891
  0
LINE
  5
481
100
AcDbEntity
  8
ASSI
100
AcDbLine
 62
7
  6
CONTINUOUS
 10
19.6271782473
 20
-0.1983231891
 11
20.2492554742
 21
-0.1983232047
  0
LINE
  5
482
100
AcDbEntity
  8
ASSI
100
AcDbLine
 62
7
  6
CONTINUOUS
 10
20.2492553702
 20
-0.1609401675
 11
19.4371347473
 21
-0.1609401891
  0
LINE
  5
483
100
AcDbEntity
  8
ASSI
100
AcDbLine
 62
7
  6
CONTINUOUS
 10
-39.614933369
 20
-0.1375
 11
-39.4784115636
 21
-0.1375
  0
LINE
  5
484
100
AcDbEntity
  8
ASSI
100
AcDbLine
 62
7
  6
CONTINUOUS
 10
-38.6520720803
 20
-0.1375
 11
-38.525192464
 21
-0.1375
  0
LINE
  5
485
100
AcDbEntity
  8
ASSI
100
AcDbLine
 62
7
  6
CONTINUOUS
 10
-38.9923401422
 20
-0.1375
 11
-38.8654605259
 21
-0.1375
  0
LINE
  5
486
100
AcDbEntity
  8
ASSI
100
AcDbLine
 62
7
  6
CONTINUOUS
 10
-38.2507972201
 20
-0.1375
 11
-38.142841435
 21
-0.1375
  0
LINE
  5
487
100
AcDbEntity
  8
ASSI
100
AcDbLine
 62
7
  6
CONTINUOUS
 10
-37.6382966681
 20
-0.1375
 11
-37.5043882781
 21
-0.1375
  0
LINE
  5
488
100
AcDbEntity
  8
ASSI
100
AcDbLine
 62
7
  6
CONTINUOUS
 10
-37.8619581059
 20
-0.1375
 11
-37.7350784896
 21
-0.1375
  0
LINE
  5
489
100
AcDbEntity
  8
ASSI
100
AcDbLine
 62
7
  6
CONTINUOUS
 10
-36.8930592177
 20
-0.1375
 11
-36.7581594776
 21
-0.1375
  0
LINE
  5
48A
100
AcDbEntity
  8
ASSI
100
AcDbLine
 62
7
  6
CONTINUOUS
 10
-36.6450672404
 20
-0.1375
 11
-36.5181876241
 21
-0.1375
  0
LINE
  5
48B
100
AcDbEntity
  8
ASSI
100
AcDbLine
 62
7
  6
CONTINUOUS
 10
-35.9692169949
 20
-0.1375
 11
-35.8201695048
 21
-0.1375
  0
LINE
  5
48C
100
AcDbEntity
  8
ASSI
100
AcDbLine
 62
7
  6
CONTINUOUS
 10
-34.4362084654
 20
-0.1375
 11
-34.3093288491
 21
-0.1375
  0
LINE
  5
48D
100
AcDbEntity
  8
ASSI
100
AcDbLine
 62
7
  6
CONTINUOUS
 10
-33.6646577753
 20
-0.1375
 11
-33.5307493853
 21
-0.1375
  0
LINE
  5
48E
100
AcDbEntity
  8
ASSI
100
AcDbLine
 62
7
  6
CONTINUOUS
 10
-32.9194203249
 20
-0.1375
 11
-32.7845205848
 21
-0.1375
  0
LINE
  5
48F
100
AcDbEntity
  8
ASSI
100
AcDbLine
 62
7
  6
CONTINUOUS
 10
-32.0309926665
 20
-0.1375
 11
-31.8944708611
 21
-0.1375
  0
LINE
  5
490
100
AcDbEntity
  8
ASSI
100
AcDbLine
 62
7
  6
CONTINUOUS
 10
-31.4083994397
 20
-0.1375
 11
-31.2815198234
 21
-0.1375
  0
LINE
  5
491
100
AcDbEntity
  8
ASSI
100
AcDbLine
 62
7
  6
CONTINUOUS
 10
-31.1616689807
 20
-0.1375
 11
-31.0277605907
 21
-0.1375
  0
LINE
  5
492
100
AcDbEntity
  8
ASSI
100
AcDbLine
 62
7
  6
CONTINUOUS
 10
-30.1799740635
 20
-0.1375
 11
-29.5801795137
 21
-0.1375
  0
LINE
  5
493
100
AcDbEntity
  8
ASSI
100
AcDbLine
 62
7
  6
CONTINUOUS
 10
-30.4164315303
 20
-0.1375
 11
-30.2815317902
 21
-0.1375
  0
LINE
  5
494
100
AcDbEntity
  8
ASSI
100
AcDbLine
 62
7
  6
CONTINUOUS
 10
-29.4302308762
 20
-0.1375
 11
-28.7266257312
 21
-0.1375
  0
LINE
  5
495
100
AcDbEntity
  8
ASSI
100
AcDbLine
 62
7
  6
CONTINUOUS
 10
-27.9074051362
 20
-0.1375
 11
-27.7708833308
 21
-0.1375
  0
LINE
  5
496
100
AcDbEntity
  8
ASSI
100
AcDbLine
 62
7
  6
CONTINUOUS
 10
-27.2848119094
 20
-0.1375
 11
-27.1579322931
 21
-0.1375
  0
LINE
  5
497
100
AcDbEntity
  8
ASSI
100
AcDbLine
 62
7
  6
CONTINUOUS
 10
-25.9698777039
 20
-0.1375
 11
-25.2662725589
 21
-0.1375
  0
LINE
  5
498
100
AcDbEntity
  8
ASSI
100
AcDbLine
 62
7
  6
CONTINUOUS
 10
-25.087487645
 20
-0.1375
 11
-24.9606080287
 21
-0.1375
  0
LINE
  5
499
100
AcDbEntity
  8
ASSI
100
AcDbLine
 62
7
  6
CONTINUOUS
 10
-24.2166320967
 20
-0.1375
 11
-23.4611216541
 21
-0.1375
  0
LINE
  5
49A
100
AcDbEntity
  8
ASSI
100
AcDbLine
 62
7
  6
CONTINUOUS
 10
-24.4841786203
 20
-0.1375
 11
-24.3492789683
 21
-0.1375
  0
LINE
  5
49B
100
AcDbEntity
  8
ASSI
100
AcDbLine
 62
7
  6
CONTINUOUS
 10
-23.433546896
 20
-0.1375
 11
-23.299638506
 21
-0.1375
  0
LINE
  5
49C
100
AcDbEntity
  8
ASSI
100
AcDbLine
 62
7
  6
CONTINUOUS
 10
-22.6883094456
 20
-0.1375
 11
-22.5534097055
 21
-0.1375
  0
LINE
  5
49D
100
AcDbEntity
  8
ASSI
100
AcDbLine
 62
7
  6
CONTINUOUS
 10
-21.8001521314
 20
-0.1375
 11
-21.6848070256
 21
-0.1375
  0
LINE
  5
49E
100
AcDbEntity
  8
ASSI
100
AcDbLine
 62
7
  6
CONTINUOUS
 10
-21.0042709018
 20
-0.1375
 11
-20.888925796
 21
-0.1375
  0
LINE
  5
49F
100
AcDbEntity
  8
ASSI
100
AcDbLine
 62
7
  6
CONTINUOUS
 10
-16.1828454817
 20
-0.1375
 11
-16.0559658654
 21
-0.1375
  0
LINE
  5
4A0
100
AcDbEntity
  8
ASSI
100
AcDbLine
 62
7
  6
CONTINUOUS
 10
-15.7815706216
 20
-0.1375
 11
-15.6736148364
 21
-0.1375
  0
LINE
  5
4A1
100
AcDbEntity
  8
ASSI
100
AcDbLine
 62
7
  6
CONTINUOUS
 10
-15.1690700696
 20
-0.1375
 11
-15.0351616796
 21
-0.1375
  0
LINE
  5
4A2
100
AcDbEntity
  8
ASSI
100
AcDbLine
 62
7
  6
CONTINUOUS
 10
-15.3927315074
 20
-0.1375
 11
-15.2658518911
 21
-0.1375
  0
LINE
  5
4A3
100
AcDbEntity
  8
ASSI
100
AcDbLine
 62
7
  6
CONTINUOUS
 10
-14.1758406418
 20
-0.1375
 11
-14.0489610255
 21
-0.1375
  0
LINE
  5
4A4
100
AcDbEntity
  8
ASSI
100
AcDbLine
 62
7
  6
CONTINUOUS
 10
-14.4238326192
 20
-0.1375
 11
-14.2889328791
 21
-0.1375
  0
LINE
  5
4A5
100
AcDbEntity
  8
ASSI
100
AcDbLine
 62
7
  6
CONTINUOUS
 10
-13.4999903964
 20
-0.1375
 11
-13.3509429063
 21
-0.1375
  0
LINE
  5
4A6
100
AcDbEntity
  8
ASSI
100
AcDbLine
 62
7
  6
CONTINUOUS
 10
-11.0672900421
 20
-0.1375
 11
-10.9404104258
 21
-0.1375
  0
LINE
  5
4A7
100
AcDbEntity
  8
ASSI
100
AcDbLine
 62
7
  6
CONTINUOUS
 10
-10.4847972581
 20
-0.1375
 11
-10.3579176418
 21
-0.1375
  0
LINE
  5
4A8
100
AcDbEntity
  8
ASSI
100
AcDbLine
 62
7
  6
CONTINUOUS
 10
-9.2807024214
 20
-0.1375
 11
-9.1467940315
 21
-0.1375
  0
LINE
  5
4A9
100
AcDbEntity
  8
ASSI
100
AcDbLine
 62
7
  6
CONTINUOUS
 10
-8.535464971
 20
-0.1375
 11
-8.400565231
 21
-0.1375
  0
LINE
  5
4AA
100
AcDbEntity
  8
ASSI
100
AcDbLine
 62
7
  6
CONTINUOUS
 10
-7.6470373126
 20
-0.1375
 11
-7.5105155072
 21
-0.1375
  0
LINE
  5
4AB
100
AcDbEntity
  8
ASSI
100
AcDbLine
 62
7
  6
CONTINUOUS
 10
-7.0244440858
 20
-0.1375
 11
-6.8975644695
 21
-0.1375
  0
LINE
  5
4AC
100
AcDbEntity
  8
ASSI
100
AcDbLine
 62
7
  6
CONTINUOUS
 10
-6.2862354091
 20
-0.1375
 11
-6.1593557928
 21
-0.1375
  0
LINE
  5
4AD
100
AcDbEntity
  8
ASSI
100
AcDbLine
 62
7
  6
CONTINUOUS
 10
-5.6922081145
 20
-0.1375
 11
-5.5653284982
 21
-0.1375
  0
LINE
  5
4AE
100
AcDbEntity
  8
ASSI
100
AcDbLine
 62
7
  6
CONTINUOUS
 10
-5.2320892099
 20
-0.1375
 11
-5.0981808199
 21
-0.1375
  0
LINE
  5
4AF
100
AcDbEntity
  8
ASSI
100
AcDbLine
 62
7
  6
CONTINUOUS
 10
-4.4868517595
 20
-0.1375
 11
-4.3519520194
 21
-0.1375
  0
LINE
  5
4B0
100
AcDbEntity
  8
ASSI
100
AcDbLine
 62
7
  6
CONTINUOUS
 10
-4.2503942927
 20
-0.1375
 11
-3.6505997429
 21
-0.1375
  0
LINE
  5
4B1
100
AcDbEntity
  8
ASSI
100
AcDbLine
 62
7
  6
CONTINUOUS
 10
-3.2404036996
 20
-0.1375
 11
-3.1135240833
 21
-0.1375
  0
LINE
  5
4B2
100
AcDbEntity
  8
ASSI
100
AcDbLine
 62
7
  6
CONTINUOUS
 10
-3.6505997429
 20
-0.0279221495
 11
-4.1235146764
 21
-0.0279221495
  0
LINE
  5
4B3
100
AcDbEntity
  8
ASSI
100
AcDbLine
 62
7
  6
CONTINUOUS
 10
-23.4611216541
 20
-0.0279221495
 11
-24.0729012002
 21
-0.0279221495
  0
LINE
  5
4B4
100
AcDbEntity
  8
ASSI
100
AcDbLine
 62
7
  6
CONTINUOUS
 10
-25.2662725589
 20
-0.0279221495
 11
-25.8429980876
 21
-0.0279221495
  0
LINE
  5
4B5
100
AcDbEntity
  8
ASSI
100
AcDbLine
 62
7
  6
CONTINUOUS
 10
-28.7266257312
 20
-0.0279221495
 11
-29.3033512599
 21
-0.0279221495
  0
LINE
  5
4B6
100
AcDbEntity
  8
ASSI
100
AcDbLine
 62
7
  6
CONTINUOUS
 10
-29.5801795137
 20
-0.0279221495
 11
-30.0530944472
 21
-0.0279221495
  0
LINE
  5
4B7
100
AcDbEntity
  8
ASSI
100
AcDbLine
 62
7
  6
CONTINUOUS
 10
-21.4252805377
 20
0.0874229562
 11
-21.0042709018
 21
0.0874229562
  0
LINE
  5
4B8
100
AcDbEntity
  8
ASSI
100
AcDbLine
 62
7
  6
CONTINUOUS
 10
-20.888925796
 20
0.0874229562
 11
-20.7620461797
 21
0.0874229562
  0
LINE
  5
4B9
100
AcDbEntity
  8
ASSI
100
AcDbLine
 62
7
  6
CONTINUOUS
 10
-37.4040920698
 20
0.1508627644
 11
-36.9992127081
 21
0.1508627644
  0
LINE
  5
4BA
100
AcDbEntity
  8
ASSI
100
AcDbLine
 62
7
  6
CONTINUOUS
 10
-33.430453177
 20
0.1508627644
 11
-33.0255738153
 21
0.1508627644
  0
LINE
  5
4BB
100
AcDbEntity
  8
ASSI
100
AcDbLine
 62
7
  6
CONTINUOUS
 10
-30.9274643824
 20
0.1508627644
 11
-30.5225850207
 21
0.1508627644
  0
LINE
  5
4BC
100
AcDbEntity
  8
ASSI
100
AcDbLine
 62
7
  6
CONTINUOUS
 10
-23.1993422977
 20
0.1508627644
 11
-22.794462936
 21
0.1508627644
  0
LINE
  5
4BD
100
AcDbEntity
  8
ASSI
100
AcDbLine
 62
7
  6
CONTINUOUS
 10
-14.9348654713
 20
0.1508627644
 11
-14.5299861096
 21
0.1508627644
  0
LINE
  5
4BE
100
AcDbEntity
  8
ASSI
100
AcDbLine
 62
7
  6
CONTINUOUS
 10
-9.0464978231
 20
0.1508627644
 11
-8.6416184614
 21
0.1508627644
  0
LINE
  5
4BF
100
AcDbEntity
  8
ASSI
100
AcDbLine
 62
7
  6
CONTINUOUS
 10
-4.9978846116
 20
0.1508627644
 11
-4.5930052499
 21
0.1508627644
  0
LINE
  5
4C0
100
AcDbEntity
  8
ASSI
100
AcDbLine
 62
7
  6
CONTINUOUS
 10
14.3051434232
 20
0.171244
 11
15.0494114232
 21
0.171244
  0
LINE
  5
4C1
100
AcDbEntity
  8
ASSI
100
AcDbLine
 62
7
  6
CONTINUOUS
 10
-20.7620461797
 20
0.1970008067
 11
-20.888925796
 21
0.1970008067
  0
LINE
  5
4C2
100
AcDbEntity
  8
ASSI
100
AcDbLine
 62
7
  6
CONTINUOUS
 10
-21.0042709018
 20
0.1970008067
 11
-21.3097552025
 21
0.1970008067
  0
LINE
  5
4C3
100
AcDbEntity
  8
ASSI
100
AcDbLine
 62
7
  6
CONTINUOUS
 10
-34.3093288491
 20
0.2546733595
 11
-34.0725109234
 21
0.2546733595
  0
LINE
  5
4C4
100
AcDbEntity
  8
ASSI
100
AcDbLine
 62
7
  6
CONTINUOUS
 10
-4.6313033979
 20
0.2546733595
 11
-4.9617491293
 21
0.2546733595
  0
LINE
  5
4C5
100
AcDbEntity
  8
ASSI
100
AcDbLine
 62
7
  6
CONTINUOUS
 10
-8.6799166094
 20
0.2546733595
 11
-9.0103623408
 21
0.2546733595
  0
LINE
  5
4C6
100
AcDbEntity
  8
ASSI
100
AcDbLine
 62
7
  6
CONTINUOUS
 10
-14.5682842576
 20
0.2546733595
 11
-14.898729989
 21
0.2546733595
  0
LINE
  5
4C7
100
AcDbEntity
  8
ASSI
100
AcDbLine
 62
7
  6
CONTINUOUS
 10
-22.832761084
 20
0.2546733595
 11
-23.1632068154
 21
0.2546733595
  0
LINE
  5
4C8
100
AcDbEntity
  8
ASSI
100
AcDbLine
 62
7
  6
CONTINUOUS
 10
-30.5608831687
 20
0.2546733595
 11
-30.8913289001
 21
0.2546733595
  0
LINE
  5
4C9
100
AcDbEntity
  8
ASSI
100
AcDbLine
 62
7
  6
CONTINUOUS
 10
-33.0638719633
 20
0.2546733595
 11
-33.3943176947
 21
0.2546733595
  0
LINE
  5
4CA
100
AcDbEntity
  8
ASSI
100
AcDbLine
 62
7
  6
CONTINUOUS
 10
-37.0375108561
 20
0.2546733595
 11
-37.3679565875
 21
0.2546733595
  0
LINE
  5
4CB
100
AcDbEntity
  8
ASSI
100
AcDbLine
 62
7
  6
CONTINUOUS
 10
-36.5181876241
 20
0.283509636
 11
-36.3735556682
 21
0.283509636
  0
LINE
  5
4CC
100
AcDbEntity
  8
ASSI
100
AcDbLine
 62
7
  6
CONTINUOUS
 10
-14.0489610255
 20
0.283509636
 11
-13.9043290696
 21
0.283509636
  0
LINE
  5
4CD
100
AcDbEntity
  8
ASSI
100
AcDbLine
 62
7
  6
CONTINUOUS
 10
-29.3033512599
 20
0.3008114018
 11
-28.7842982841
 21
0.3008114018
  0
LINE
  5
4CE
100
AcDbEntity
  8
ASSI
100
AcDbLine
 62
7
  6
CONTINUOUS
 10
-25.8429980876
 20
0.3008114018
 11
-25.3239451118
 21
0.3008114018
  0
LINE
  5
4CF
100
AcDbEntity
  8
ASSI
100
AcDbLine
 62
7
  6
CONTINUOUS
 10
-34.0711592023
 20
0.36425121
 11
-34.3093288491
 21
0.36425121
  0
LINE
  5
4D0
100
AcDbEntity
  8
ASSI
100
AcDbLine
 62
7
  6
CONTINUOUS
 10
-13.7809638401
 20
0.3930874864
 11
-14.0489610255
 21
0.3930874864
  0
LINE
  5
4D1
100
AcDbEntity
  8
ASSI
100
AcDbLine
 62
7
  6
CONTINUOUS
 10
-36.2501904387
 20
0.3930874864
 11
-36.5181876241
 21
0.3930874864
  0
LINE
  5
4D2
100
AcDbEntity
  8
ASSI
100
AcDbLine
 62
7
  6
CONTINUOUS
 10
-25.3239451118
 20
0.4103892523
 11
-25.8429980876
 21
0.4103892523
  0
LINE
  5
4D3
100
AcDbEntity
  8
ASSI
100
AcDbLine
 62
7
  6
CONTINUOUS
 10
-28.7842982841
 20
0.4103892523
 11
-29.3033512599
 21
0.4103892523
  0
LINE
  5
4D4
100
AcDbEntity
  8
ASSI
100
AcDbLine
 62
7
  6
CONTINUOUS
 10
-20.266062225
 20
0.5718724003
 11
-20.1507171193
 21
0.5545706345
  0
LINE
  5
4D5
100
AcDbEntity
  8
ASSI
100
AcDbLine
 62
7
  6
CONTINUOUS
 10
-17.313227518
 20
0.5718724003
 11
-17.1978824123
 21
0.5545706345
  0
LINE
  5
4D6
100
AcDbEntity
  8
ASSI
100
AcDbLine
 62
7
  6
CONTINUOUS
 10
-9.3313462007
 20
0.1646501434
 11
-9.458225817
 21
0.1964602062
  0
LINE
  5
4D7
100
AcDbEntity
  8
ASSI
100
AcDbLine
 62
7
  6
CONTINUOUS
 10
-3.6037407827
 20
0.8140971224
 11
-3.2404036996
 21
0.2655771549
  0
LINE
  5
4D8
100
AcDbEntity
  8
ASSI
100
AcDbLine
 62
7
  6
CONTINUOUS
 10
-3.2694202055
 20
0.5237519218
 11
-3.4528008831
 21
0.8140971224
  0
LINE
  5
4D9
100
AcDbEntity
  8
0
100
AcDbLine
 62
7
  6
CONTINUOUS
 10
1.8192039488
 20
-17.2524453214
 11
1.8190333743
 21
-17.2429209066
  0
LINE
  5
4DA
100
AcDbEntity
  8
RACCORDO
100
AcDbLine
 62
7
  6
CONTINUOUS
 10
1.2692064232
 20
-15.2375
 11
1.2692064232
 21
-15.7375380762
  0
LINE
  5
4DB
100
AcDbEntity
  8
RACCORDO
100
AcDbLine
 62
7
  6
CONTINUOUS
 10
1.2692064232
 20
-19.2374619238
 11
1.2692064232
 21
-19.7375
  0
LINE
  5
4DC
100
AcDbEntity
  8
DRAFT
100
AcDbLine
 62
7
  6
CONTINUOUS
 10
1.3442064232
 20
-27.2375
 11
1.3442064232
 21
-26.6375
  0
LINE
  5
4DD
100
AcDbEntity
  8
CURVE
100
AcDbLine
 62
2
  6
CONTINUOUS
 10
1.8192064232
 20
-14.5375
 11
1.8192064232
 21
-17.0375
  0
LINE
  5
4DE
100
AcDbEntity
  8
ASSI
100
AcDbLine
 62
7
  6
CONTINUOUS
 10
1.821982061
 20
-17.2625
 11
1.821982061
 21
-15.3401976912
  0
LINE
  5
4DF
100
AcDbEntity
  8
RACCORDO
100
AcDbLine
 62
7
  6
CONTINUOUS
 10
2.0192064232
 20
-19.2375761524
 11
2.0192064232
 21
-15.7374238476
  0
LINE
  5
4E0
100
AcDbEntity
  8
RACCORDO
100
AcDbLine
 62
7
  6
CONTINUOUS
 10
2.5192064232
 20
-24.4625
 11
2.5192064232
 21
-28.3375228457
  0
LINE
  5
4E1
100
AcDbEntity
  8
0
100
AcDbLine
 62
7
  6
CONTINUOUS
 10
2.5692064232
 20
-19.8625
 11
2.5692064232
 21
-17.7625
  0
LINE
  5
4E2
100
AcDbEntity
  8
RACCORDO
100
AcDbLine
 62
7
  6
CONTINUOUS
 10
2.6442064232
 20
-24.4625
 11
2.6442064232
 21
-24.6641706412
  0
LINE
  5
4E3
100
AcDbEntity
  8
RACCORDO
100
AcDbLine
 62
250
  6
CONTINUOUS
 10
3.6442064232
 20
-23.9625
 11
3.6442064232
 21
-25.7009865965
  0
LINE
  5
4E4
100
AcDbEntity
  8
RACCORDO
100
AcDbLine
 62
7
  6
CONTINUOUS
 10
4.0192064232
 20
-13.2625
 11
4.0192064232
 21
-17.7625
  0
LINE
  5
4E5
100
AcDbEntity
  8
RACCORDO
100
AcDbLine
 62
7
  6
CONTINUOUS
 10
4.0192064232
 20
-11.1625
 11
4.0192064232
 21
-8.2554881465
  0
LINE
  5
4E6
100
AcDbEntity
  8
RACCORDO
100
AcDbLine
 62
7
  6
CONTINUOUS
 10
4.0942064232
 20
-17.7625
 11
4.0942064232
 21
-13.2625
  0
LINE
  5
4E7
100
AcDbEntity
  8
RACCORDO
100
AcDbLine
 62
7
  6
CONTINUOUS
 10
4.0942064232
 20
-11.1625
 11
4.0942064232
 21
-9.6373857735
  0
LINE
  5
4E8
100
AcDbEntity
  8
RACCORDO
100
AcDbLine
 62
250
  6
CONTINUOUS
 10
4.129421186
 20
-9.654991814
 11
4.129421186
 21
-11.1625
  0
LINE
  5
4E9
100
AcDbEntity
  8
DRAFT
100
AcDbLine
 62
7
  6
CONTINUOUS
 10
4.146571618
 20
-17.7625
 11
4.146571618
 21
-13.2625
  0
LINE
  5
4EA
100
AcDbEntity
  8
0
100
AcDbLine
 62
7
  6
CONTINUOUS
 10
1.8192058853
 20
-14.9878907658
 11
1.8192056811
 21
-14.987040996
  0
LINE
  5
4EB
100
AcDbEntity
  8
RACCORDO
100
AcDbLine
 62
7
  6
CONTINUOUS
 10
4.0188375818
 20
-8.2828153894
 11
3.9997120637
 21
-10.6325520455
  0
LINE
  5
4EC
100
AcDbEntity
  8
0
100
AcDbLine
 62
7
  6
CONTINUOUS
 10
1.8190633567
 20
-17.2598491956
 11
1.8191936701
 21
-17.2518713864
  0
LWPOLYLINE
  5
4ED
100
AcDbEntity
  8
0
100
AcDbPolyline
 62
7
  6
CONTINUOUS
 90
28
 70
0
 10
-1.4825887224
 20
-16.0134813235
 10
-1.4828103263
 20
-16.0141553917
 10
-1.4836901021
 20
-16.0164701992
 10
-1.4837119024
 20
-16.0167253062
 10
-1.4816584476
 20
-16.0139843279
 10
-1.4763863044
 20
-16.0080233539
 10
-1.4676602761
 20
-15.9996397883
 10
-1.4555825217
 20
-15.9895955254
 10
-1.4399710054
 20
-15.9781557204
 10
-1.420468125
 20
-15.9653898528
 10
-1.3970777781
 20
-15.9515614746
 10
-1.3696155763
 20
-15.936758579
 10
-1.337963887
 20
-15.9210802223
 10
-1.302257808
 20
-15.9047118561
 10
-1.2623726978
 20
-15.8876829589
 10
-1.2182953341
 20
-15.8700577806
 10
-1.1703947463
 20
-15.852022997
 10
-1.1187262565
 20
-15.8336136808
 10
-1.0633100987
 20
-15.8148430774
 10
-1.0045498447
 20
-15.7958394082
 10
-0.9426039633
 20
-15.7766316143
 10
-0.877545017
 20
-15.757215912
 10
-0.8097000652
 20
-15.7376579059
 10
-0.7392457034
 20
-15.7179705997
 10
-0.6663266417
 20
-15.6981543618
 10
-0.5912463087
 20
-15.6782485396
 10
-0.5142208694
 20
-15.6582643199
 10
-0.4354177498
 20
-15.6381978197
  0
LINE
  5
4EE
100
AcDbEntity
  8
ASSI
100
AcDbLine
 62
7
  6
CONTINUOUS
 10
-9.4812948381
 20
0.5235716923
 11
-9.3544152218
 21
0.5527684277
  0
LINE
  5
4EF
100
AcDbEntity
  8
ASSI
100
AcDbLine
 62
7
  6
CONTINUOUS
 10
-17.2094169228
 20
0.1277937432
 11
-17.3247620286
 21
0.1104919773
  0
LINE
  5
4F0
100
AcDbEntity
  8
ASSI
100
AcDbLine
 62
7
  6
CONTINUOUS
 10
-20.1622516298
 20
0.1277937432
 11
-20.2775967356
 21
0.1104919773
  0
LINE
  5
4F1
100
AcDbEntity
  8
ASSI
100
AcDbLine
 62
7
  6
CONTINUOUS
 10
-17.5727540059
 20
0.5718724003
 11
-17.4574089002
 21
0.5834069109
  0
LINE
  5
4F2
100
AcDbEntity
  8
ASSI
100
AcDbLine
 62
7
  6
CONTINUOUS
 10
-19.0491713594
 20
0.5718724003
 11
-18.9338262537
 21
0.5834069109
  0
LINE
  5
4F3
100
AcDbEntity
  8
ASSI
100
AcDbLine
 62
7
  6
CONTINUOUS
 10
-12.111163249
 20
0.1796990408
 11
-12.2322756101
 21
0.1739317855
  0
LINE
  5
4F4
100
AcDbEntity
  8
ASSI
100
AcDbLine
 62
7
  6
CONTINUOUS
 10
-35.2436242056
 20
0.1796990408
 11
-35.3647365666
 21
0.1739317855
  0
LINE
  5
4F5
100
AcDbEntity
  8
ASSI
100
AcDbLine
 62
7
  6
CONTINUOUS
 10
-11.6324810602
 20
0.5430361239
 11
-11.5056014439
 21
0.5488033792
  0
LINE
  5
4F6
100
AcDbEntity
  8
ASSI
100
AcDbLine
 62
7
  6
CONTINUOUS
 10
-34.7649420168
 20
0.5430361239
 11
-34.6380624005
 21
0.5488033792
  0
LINE
  5
4F7
100
AcDbEntity
  8
ASSI
100
AcDbLine
 62
7
  6
CONTINUOUS
 10
15.0494114232
 20
0.553744
 11
14.305143191
 21
0.553744
  0
LINE
  5
4F8
100
AcDbEntity
  8
ASSI
100
AcDbLine
 62
7
  6
CONTINUOUS
 10
-36.5181876241
 20
0.7045192719
 11
-36.2199123264
 21
0.7045192719
  0
LINE
  5
4F9
100
AcDbEntity
  8
ASSI
100
AcDbLine
 62
7
  6
CONTINUOUS
 10
-34.3093288491
 20
0.7045192719
 11
-34.073682327
 21
0.7045192719
  0
LINE
  5
4FA
100
AcDbEntity
  8
ASSI
100
AcDbLine
 62
7
  6
CONTINUOUS
 10
-29.3033512599
 20
0.7045192719
 11
-28.7496947523
 21
0.7045192719
  0
LINE
  5
4FB
100
AcDbEntity
  8
ASSI
100
AcDbLine
 62
7
  6
CONTINUOUS
 10
-25.8429980876
 20
0.7045192719
 11
-25.2893415801
 21
0.7045192719
  0
LINE
  5
4FC
100
AcDbEntity
  8
ASSI
100
AcDbLine
 62
7
  6
CONTINUOUS
 10
-24.1589595438
 20
0.7045192719
 11
-23.6316161
 21
0.7045192719
  0
LINE
  5
4FD
100
AcDbEntity
  8
ASSI
100
AcDbLine
 62
7
  6
CONTINUOUS
 10
-14.0489610255
 20
0.7045192719
 11
-13.7506857279
 21
0.7045192719
  0
LINE
  5
4FE
100
AcDbEntity
  8
ASSI
100
AcDbLine
 62
7
  6
CONTINUOUS
 10
-11.3787218276
 20
0.7045192719
 11
-11.0672900421
 21
0.7045192719
  0
LINE
  5
4FF
100
AcDbEntity
  8
ASSI
100
AcDbLine
 62
7
  6
CONTINUOUS
 10
-10.9404104258
 20
0.7045192719
 11
-10.6289786403
 21
0.7045192719
  0
LINE
  5
500
100
AcDbEntity
  8
ASSI
100
AcDbLine
 62
7
  6
CONTINUOUS
 10
-6.0036399
 20
0.7045192719
 11
-5.6922081145
 21
0.7045192719
  0
LINE
  5
501
100
AcDbEntity
  8
ASSI
100
AcDbLine
 62
7
  6
CONTINUOUS
 10
-5.5653284982
 20
0.7045192719
 11
-5.2538967127
 21
0.7045192719
  0
LINE
  5
502
100
AcDbEntity
  8
ASSI
100
AcDbLine
 62
7
  6
CONTINUOUS
 10
-2.7328852343
 20
0.8140971224
 11
-2.8859877996
 21
0.8140971224
  0
LINE
  5
503
100
AcDbEntity
  8
ASSI
100
AcDbLine
 62
7
  6
CONTINUOUS
 10
-3.4528008831
 20
0.8140971224
 11
-3.6037407827
 21
0.8140971224
  0
LINE
  5
504
100
AcDbEntity
  8
ASSI
100
AcDbLine
 62
7
  6
CONTINUOUS
 10
-4.1235146764
 20
0.8140971224
 11
-4.2503942927
 21
0.8140971224
  0
LINE
  5
505
100
AcDbEntity
  8
ASSI
100
AcDbLine
 62
7
  6
CONTINUOUS
 10
-4.7331315568
 20
0.8140971224
 11
-4.8703741921
 21
0.8140971224
  0
LINE
  5
506
100
AcDbEntity
  8
ASSI
100
AcDbLine
 62
7
  6
CONTINUOUS
 10
-5.2538967127
 20
0.8140971224
 11
-6.0036399
 21
0.8140971224
  0
LINE
  5
507
100
AcDbEntity
  8
ASSI
100
AcDbLine
 62
7
  6
CONTINUOUS
 10
-6.1593557928
 20
0.8140971224
 11
-6.2862354091
 21
0.8140971224
  0
LINE
  5
508
100
AcDbEntity
  8
ASSI
100
AcDbLine
 62
7
  6
CONTINUOUS
 10
-6.8975644695
 20
0.8140971224
 11
-7.0244440858
 21
0.8140971224
  0
LINE
  5
509
100
AcDbEntity
  8
ASSI
100
AcDbLine
 62
7
  6
CONTINUOUS
 10
-7.1309580352
 20
0.8140971224
 11
-7.2666688079
 21
0.8140971224
  0
LINE
  5
50A
100
AcDbEntity
  8
ASSI
100
AcDbLine
 62
7
  6
CONTINUOUS
 10
-7.8779978683
 20
0.8140971224
 11
-8.0128975204
 21
0.8140971224
  0
LINE
  5
50B
100
AcDbEntity
  8
ASSI
100
AcDbLine
 62
7
  6
CONTINUOUS
 10
-8.7817447684
 20
0.8140971224
 11
-8.9189874036
 21
0.8140971224
  0
LINE
  5
50C
100
AcDbEntity
  8
ASSI
100
AcDbLine
 62
7
  6
CONTINUOUS
 10
-10.3579176418
 20
0.8140971224
 11
-10.4847972581
 21
0.8140971224
  0
LINE
  5
50D
100
AcDbEntity
  8
ASSI
100
AcDbLine
 62
7
  6
CONTINUOUS
 10
-10.6289786403
 20
0.8140971224
 11
-11.3787218276
 21
0.8140971224
  0
LINE
  5
50E
100
AcDbEntity
  8
ASSI
100
AcDbLine
 62
7
  6
CONTINUOUS
 10
-13.75582218
 20
0.8140971224
 11
-14.1758406418
 21
0.8140971224
  0
LINE
  5
50F
100
AcDbEntity
  8
ASSI
100
AcDbLine
 62
7
  6
CONTINUOUS
 10
-14.6701124165
 20
0.8140971224
 11
-14.8073550518
 21
0.8140971224
  0
LINE
  5
510
100
AcDbEntity
  8
ASSI
100
AcDbLine
 62
7
  6
CONTINUOUS
 10
-15.2658518911
 20
0.8140971224
 11
-15.4309395407
 21
0.8140971224
  0
LINE
  5
511
100
AcDbEntity
  8
ASSI
100
AcDbLine
 62
7
  6
CONTINUOUS
 10
-15.9894621561
 20
0.8140971224
 11
-16.1828454817
 21
0.8140971224
  0
LINE
  5
512
100
AcDbEntity
  8
ASSI
100
AcDbLine
 62
7
  6
CONTINUOUS
 10
-20.888925796
 20
0.8140971224
 11
-20.9812018806
 21
0.8140971224
  0
LINE
  5
513
100
AcDbEntity
  8
ASSI
100
AcDbLine
 62
7
  6
CONTINUOUS
 10
-22.9345892429
 20
0.8140971224
 11
-23.0718318782
 21
0.8140971224
  0
LINE
  5
514
100
AcDbEntity
  8
ASSI
100
AcDbLine
 62
7
  6
CONTINUOUS
 10
-23.4841906752
 20
0.8140971224
 11
-24.1589595438
 21
0.8140971224
  0
LINE
  5
515
100
AcDbEntity
  8
ASSI
100
AcDbLine
 62
7
  6
CONTINUOUS
 10
-24.3492789683
 20
0.8140971224
 11
-24.4761585846
 21
0.8140971224
  0
LINE
  5
516
100
AcDbEntity
  8
ASSI
100
AcDbLine
 62
7
  6
CONTINUOUS
 10
-24.9525879049
 20
0.8140971224
 11
-25.087487645
 21
0.8140971224
  0
LINE
  5
517
100
AcDbEntity
  8
ASSI
100
AcDbLine
 62
7
  6
CONTINUOUS
 10
-25.2893415801
 20
0.8140971224
 11
-25.9698777039
 21
0.8140971224
  0
LINE
  5
518
100
AcDbEntity
  8
ASSI
100
AcDbLine
 62
7
  6
CONTINUOUS
 10
-27.1579322931
 20
0.8140971224
 11
-27.2848119094
 21
0.8140971224
  0
LINE
  5
519
100
AcDbEntity
  8
ASSI
100
AcDbLine
 62
7
  6
CONTINUOUS
 10
-27.3913258587
 20
0.8140971224
 11
-27.5270366315
 21
0.8140971224
  0
LINE
  5
51A
100
AcDbEntity
  8
ASSI
100
AcDbLine
 62
7
  6
CONTINUOUS
 10
-28.1383656919
 20
0.8140971224
 11
-28.273265344
 21
0.8140971224
  0
LINE
  5
51B
100
AcDbEntity
  8
ASSI
100
AcDbLine
 62
7
  6
CONTINUOUS
 10
-28.7496947523
 20
0.8140971224
 11
-29.4302308762
 21
0.8140971224
  0
LINE
  5
51C
100
AcDbEntity
  8
ASSI
100
AcDbLine
 62
7
  6
CONTINUOUS
 10
-30.0530944472
 20
0.8140971224
 11
-30.1799740635
 21
0.8140971224
  0
LINE
  5
51D
100
AcDbEntity
  8
ASSI
100
AcDbLine
 62
7
  6
CONTINUOUS
 10
-30.6627113276
 20
0.8140971224
 11
-30.7999539629
 21
0.8140971224
  0
LINE
  5
51E
100
AcDbEntity
  8
ASSI
100
AcDbLine
 62
7
  6
CONTINUOUS
 10
-31.2815198234
 20
0.8140971224
 11
-31.4083994397
 21
0.8140971224
  0
LINE
  5
51F
100
AcDbEntity
  8
ASSI
100
AcDbLine
 62
7
  6
CONTINUOUS
 10
-31.514913389
 20
0.8140971224
 11
-31.6506241617
 21
0.8140971224
  0
LINE
  5
520
100
AcDbEntity
  8
ASSI
100
AcDbLine
 62
7
  6
CONTINUOUS
 10
-32.2619532222
 20
0.8140971224
 11
-32.3968528742
 21
0.8140971224
  0
LINE
  5
521
100
AcDbEntity
  8
ASSI
100
AcDbLine
 62
7
  6
CONTINUOUS
 10
-33.1657001222
 20
0.8140971224
 11
-33.3029427575
 21
0.8140971224
  0
LINE
  5
522
100
AcDbEntity
  8
ASSI
100
AcDbLine
 62
7
  6
CONTINUOUS
 10
-34.0856674112
 20
0.8140971224
 11
-34.4362084654
 21
0.8140971224
  0
LINE
  5
523
100
AcDbEntity
  8
ASSI
100
AcDbLine
 62
7
  6
CONTINUOUS
 10
-36.2250487785
 20
0.8140971224
 11
-36.6450672404
 21
0.8140971224
  0
LINE
  5
524
100
AcDbEntity
  8
ASSI
100
AcDbLine
 62
7
  6
CONTINUOUS
 10
-37.139339015
 20
0.8140971224
 11
-37.2765816503
 21
0.8140971224
  0
LINE
  5
525
100
AcDbEntity
  8
ASSI
100
AcDbLine
 62
7
  6
CONTINUOUS
 10
-37.7350784896
 20
0.8140971224
 11
-37.9001661392
 21
0.8140971224
  0
LINE
  5
526
100
AcDbEntity
  8
ASSI
100
AcDbLine
 62
7
  6
CONTINUOUS
 10
-38.4586887547
 20
0.8140971224
 11
-38.6520720803
 21
0.8140971224
  0
LINE
  5
527
100
AcDbEntity
  8
ASSI
100
AcDbLine
 62
7
  6
CONTINUOUS
 10
-38.8654605259
 20
0.8140971224
 11
-38.9923401422
 21
0.8140971224
  0
LINE
  5
528
100
AcDbEntity
  8
ASSI
100
AcDbLine
 62
7
  6
CONTINUOUS
 10
-39.0988540915
 20
0.8140971224
 11
-39.2345648643
 21
0.8140971224
  0
LINE
  5
529
100
AcDbEntity
  8
ASSI
100
AcDbLine
 62
7
  6
CONTINUOUS
 10
-39.8458939247
 20
0.8140971224
 11
-39.9807935768
 21
0.8140971224
  0
LINE
  5
52A
100
AcDbEntity
  8
ASSI
100
AcDbLine
 62
7
  6
CONTINUOUS
 10
-21.6848070256
 20
0.8198643777
 11
-21.7591505412
 21
0.8198643777
  0
LINE
  5
52B
100
AcDbEntity
  8
ASSI
100
AcDbLine
 62
7
  6
CONTINUOUS
 10
19.7720852473
 20
1.5773773109
 11
20.4262912473
 21
1.5773773109
  0
LINE
  5
52C
100
AcDbEntity
  8
ASSI
100
AcDbLine
 62
7
  6
CONTINUOUS
 10
20.3889077473
 20
1.6147608109
 11
19.8094687473
 21
1.6147608109
  0
LINE
  5
52D
100
AcDbEntity
  8
ASSI
100
AcDbLine
 62
7
  6
CONTINUOUS
 10
19.8094687473
 20
1.7269108109
 11
20.3889077473
 21
1.7269108109
  0
LINE
  5
52E
100
AcDbEntity
  8
ASSI
100
AcDbLine
 62
7
  6
CONTINUOUS
 10
20.4262912473
 20
1.7642933109
 11
19.7720852473
 21
1.7642933109
  0
LINE
  5
52F
100
AcDbEntity
  8
ASSI
100
AcDbLine
 62
7
  6
CONTINUOUS
 10
20.7834212473
 20
1.7642933109
 11
21.1178802473
 21
1.7642933109
  0
LINE
  5
530
100
AcDbEntity
  8
ASSI
100
AcDbLine
 62
7
  6
CONTINUOUS
 10
21.0804967473
 20
1.8016768109
 11
20.7867477473
 21
1.8016768109
  0
LINE
  5
531
100
AcDbEntity
  8
ASSI
100
AcDbLine
 62
7
  6
CONTINUOUS
 10
20.8161277473
 20
2.1381248109
 11
21.0174607473
 21
2.1381248109
  0
LINE
  5
532
100
AcDbEntity
  8
ASSI
100
AcDbLine
 62
7
  6
CONTINUOUS
 10
20.7066652473
 20
2.1381248109
 11
20.7786012473
 21
2.1381248109
  0
LINE
  5
533
100
AcDbEntity
  8
ASSI
100
AcDbLine
 62
7
  6
CONTINUOUS
 10
21.0548442473
 20
2.1755083109
 11
20.8193977473
 21
2.1755083109
  0
LINE
  5
534
100
AcDbEntity
  8
ASSI
100
AcDbLine
 62
7
  6
CONTINUOUS
 10
20.7818717473
 20
2.1755083109
 11
20.6692817473
 21
2.1755083109
  0
LINE
  5
535
100
AcDbEntity
  8
ASSI
100
AcDbLine
 62
7
  6
CONTINUOUS
 10
18.8748897473
 20
2.3250408109
 11
19.1821132473
 21
2.3250408109
  0
LINE
  5
536
100
AcDbEntity
  8
ASSI
100
AcDbLine
 62
7
  6
CONTINUOUS
 10
19.2196397473
 20
2.3250408109
 11
20.7949547473
 21
2.3250408109
  0
LINE
  5
537
100
AcDbEntity
  8
ASSI
100
AcDbLine
 62
7
  6
CONTINUOUS
 10
20.8324802473
 20
2.3250408109
 11
20.9496552473
 21
2.3250408109
  0
LINE
  5
538
100
AcDbEntity
  8
ASSI
100
AcDbLine
 62
7
  6
CONTINUOUS
 10
19.2674127473
 20
2.4745738109
 11
19.2065572473
 21
2.4745738109
  0
LINE
  5
539
100
AcDbEntity
  8
ASSI
100
AcDbLine
 62
7
  6
CONTINUOUS
 10
19.1690312473
 20
2.4745738109
 11
18.8748897473
 21
2.4745738109
  0
LINE
  5
53A
100
AcDbEntity
  8
ASSI
100
AcDbLine
 62
7
  6
CONTINUOUS
 10
20.6921797426
 20
2.4745738098
 11
19.4543287473
 21
2.4745738109
  0
LINE
  5
53B
100
AcDbEntity
  8
ASSI
100
AcDbLine
 62
7
  6
CONTINUOUS
 10
19.4169452473
 20
2.5119573109
 11
19.3047962473
 21
2.5119573109
  0
LINE
  5
53C
100
AcDbEntity
  8
ASSI
100
AcDbLine
 62
7
  6
CONTINUOUS
 10
19.8468522473
 20
2.6241068109
 11
20.3515247473
 21
2.6241068109
  0
LINE
  5
53D
100
AcDbEntity
  8
ASSI
100
AcDbLine
 62
7
  6
CONTINUOUS
 10
20.3141412473
 20
2.6614898109
 11
19.8842352473
 21
2.6614898109
  0
LINE
  5
53E
100
AcDbEntity
  8
ASSI
100
AcDbLine
 62
7
  6
CONTINUOUS
 10
19.3047962473
 20
2.7549473109
 11
19.4169452473
 21
2.7549473109
  0
LINE
  5
53F
100
AcDbEntity
  8
ASSI
100
AcDbLine
 62
7
  6
CONTINUOUS
 10
19.4543287473
 20
2.7923308109
 11
19.2674127473
 21
2.7923308109
  0
LINE
  5
540
100
AcDbEntity
  8
ASSI
100
AcDbLine
 62
7
  6
CONTINUOUS
 10
19.8842352473
 20
2.8110223109
 11
20.3141412473
 21
2.8110223109
  0
LINE
  5
541
100
AcDbEntity
  8
ASSI
100
AcDbLine
 62
7
  6
CONTINUOUS
 10
20.3515247473
 20
2.8484058109
 11
19.8468522473
 21
2.8484058109
  0
LINE
  5
542
100
AcDbEntity
  8
0
100
AcDbLine
 62
7
  6
CONTINUOUS
 10
-50.0807935768
 20
3.6125
 11
-51.4807935768
 21
3.6125
  0
LINE
  5
543
100
AcDbEntity
  8
DRAFT
100
AcDbLine
 62
7
  6
CONTINUOUS
 10
-52.4807935768
 20
3.6125
 11
-52.5192064232
 21
3.6125
  0
LINE
  5
544
100
AcDbEntity
  8
RACCORDO
100
AcDbLine
 62
7
  6
CONTINUOUS
 10
-49.9807935768
 20
3.7375
 11
-51.4807935768
 21
3.7375
  0
LINE
  5
545
100
AcDbEntity
  8
RACCORDO
100
AcDbLine
 62
250
  6
CONTINUOUS
 10
5.1292688811
 20
-8.6550298909
 11
5.1292688811
 21
-11.1625
  0
LWPOLYLINE
  5
546
100
AcDbEntity
  8
0
100
AcDbPolyline
 62
7
  6
CONTINUOUS
 90
6
 70
0
 10
-1.4828051792
 20
-18.5141416908
 10
-1.4829320853
 20
-18.5145081016
 10
-1.4837298026
 20
-18.5165734377
 10
-1.4834866588
 20
-18.5163972887
 10
-1.4809354865
 20
-18.5130978203
 10
-1.4748863311
 20
-18.5064824155
  0
LWPOLYLINE
  5
547
100
AcDbEntity
  8
0
100
AcDbPolyline
 62
7
  6
CONTINUOUS
 90
6
 70
0
 10
1.5212463655
 20
-17.2393466194
 10
1.5213729391
 20
-17.2389841549
 10
1.5221754126
 20
-17.2369340433
 10
1.5219965994
 20
-17.2370317029
 10
1.5196571497
 20
-17.2400985625
 10
1.5140618722
 20
-17.2463117929
  0
LINE
  5
548
100
AcDbEntity
  8
RACCORDO
100
AcDbLine
 62
250
  6
CONTINUOUS
 10
-5.0908560347
 20
-8.6550298909
 11
-5.0557935826
 21
-8.6375
  0
LINE
  5
549
100
AcDbEntity
  8
RACCORDO
100
AcDbLine
 62
250
  6
CONTINUOUS
 10
-4.0910083395
 20
-9.654991814
 11
-4.0557935768
 21
-9.6373857735
  0
LINE
  5
54A
100
AcDbEntity
  8
ASSI
100
AcDbLine
 62
7
  6
CONTINUOUS
 10
-26.2813094895
 20
0.5235716923
 11
-26.1544298731
 21
0.5527684277
  0
LINE
  5
54B
100
AcDbEntity
  8
DRAFT
100
AcDbLine
 62
7
  6
CONTINUOUS
 10
51.277933291
 20
7.8125
 11
46.8692064232
 21
7.8125
  0
LINE
  5
54C
100
AcDbEntity
  8
DRAFT
100
AcDbLine
 62
7
  6
CONTINUOUS
 10
-46.8307935768
 20
7.8125
 11
-51.2395204446
 21
7.8125
  0
LINE
  5
54D
100
AcDbEntity
  8
RACCORDO
100
AcDbLine
 62
7
  6
CONTINUOUS
 10
-51.0307935768
 20
8.0125
 11
-47.0307935768
 21
8.0125
  0
LINE
  5
54E
100
AcDbEntity
  8
RACCORDO
100
AcDbLine
 62
7
  6
CONTINUOUS
 10
47.0692064232
 20
8.0125
 11
51.0692064232
 21
8.0125
  0
LINE
  5
54F
100
AcDbEntity
  8
RACCORDO
100
AcDbLine
 62
250
  6
CONTINUOUS
 10
-51.0307935768
 20
8.3830904774
 11
-47.0307935768
 21
8.3830904774
  0
LINE
  5
550
100
AcDbEntity
  8
RACCORDO
100
AcDbLine
 62
250
  6
CONTINUOUS
 10
47.0692064232
 20
8.3830904774
 11
51.0692064232
 21
8.3830904774
  0
LINE
  5
551
100
AcDbEntity
  8
ASSI
100
AcDbLine
 62
7
  6
CONTINUOUS
 10
18.3328332473
 20
2.8179838109
 11
18.2799652473
 21
2.7651158109
  0
LINE
  5
552
100
AcDbEntity
  8
DRAFT
100
AcDbLine
 62
7
  6
CONTINUOUS
 10
-51.2395204446
 20
9.346791638
 11
-51.0307935768
 21
9.346791638
  0
LINE
  5
553
100
AcDbEntity
  8
DRAFT
100
AcDbLine
 62
7
  6
CONTINUOUS
 10
51.277933291
 20
9.346791638
 11
51.0692064232
 21
9.346791638
  0
LINE
  5
554
100
AcDbEntity
  8
DRAFT
100
AcDbLine
 62
7
  6
CONTINUOUS
 10
-47.0307935768
 20
9.346791638
 11
-46.8307935768
 21
9.346791638
  0
LINE
  5
555
100
AcDbEntity
  8
DRAFT
100
AcDbLine
 62
7
  6
CONTINUOUS
 10
47.0692064232
 20
9.346791638
 11
46.8692064232
 21
9.346791638
  0
LINE
  5
556
100
AcDbEntity
  8
DRAFT
100
AcDbLine
 62
7
  6
CONTINUOUS
 10
-51.0307935768
 20
9.3625
 11
-47.0307935768
 21
9.3625
  0
LINE
  5
557
100
AcDbEntity
  8
RACCORDO
100
AcDbLine
 62
7
  6
CONTINUOUS
 10
51.3442977688
 20
9.3625
 11
51.277933291
 21
9.3625
  0
LINE
  5
558
100
AcDbEntity
  8
DRAFT
100
AcDbLine
 62
7
  6
CONTINUOUS
 10
51.0692064232
 20
9.3625
 11
47.0692064232
 21
9.3625
  0
LINE
  5
559
100
AcDbEntity
  8
DRAFT
100
AcDbLine
 62
7
  6
CONTINUOUS
 10
46.8692064232
 20
9.3625
 11
-46.8307935768
 21
9.3625
  0
LINE
  5
55A
100
AcDbEntity
  8
RACCORDO
100
AcDbLine
 62
7
  6
CONTINUOUS
 10
-51.2395204446
 20
9.3625
 11
-51.3058849224
 21
9.3625
  0
LINE
  5
55B
100
AcDbEntity
  8
RACCORDO
100
AcDbLine
 62
250
  6
CONTINUOUS
 10
25.2692064232
 20
9.3625761553
 11
32.2692064232
 21
9.3625761553
  0
LINE
  5
55C
100
AcDbEntity
  8
RACCORDO
100
AcDbLine
 62
250
  6
CONTINUOUS
 10
-51.235738646
 20
9.3800298909
 11
-51.0307935768
 21
9.3800298909
  0
LINE
  5
55D
100
AcDbEntity
  8
RACCORDO
100
AcDbLine
 62
250
  6
CONTINUOUS
 10
-47.0307935768
 20
9.3800298909
 11
25.2692064232
 21
9.3800298909
  0
LINE
  5
55E
100
AcDbEntity
  8
RACCORDO
100
AcDbLine
 62
250
  6
CONTINUOUS
 10
32.2692064232
 20
9.3800298909
 11
47.0692064232
 21
9.3800298909
  0
LINE
  5
55F
100
AcDbEntity
  8
RACCORDO
100
AcDbLine
 62
250
  6
CONTINUOUS
 10
51.0692064232
 20
9.3800298909
 11
51.2741514925
 21
9.3800298909
  0
LINE
  5
560
100
AcDbEntity
  8
RACCORDO
100
AcDbLine
 62
250
  6
CONTINUOUS
 10
26.2691683463
 20
10.3625380784
 11
31.2692445002
 21
10.3625380784
  0
LINE
  5
561
100
AcDbEntity
  8
RACCORDO
100
AcDbLine
 62
250
  6
CONTINUOUS
 10
-52.2351294731
 20
10.379991814
 11
-51.0307935768
 21
10.379991814
  0
LINE
  5
562
100
AcDbEntity
  8
RACCORDO
100
AcDbLine
 62
250
  6
CONTINUOUS
 10
-47.0307935768
 20
10.379991814
 11
26.2692064232
 21
10.379991814
  0
LINE
  5
563
100
AcDbEntity
  8
RACCORDO
100
AcDbLine
 62
250
  6
CONTINUOUS
 10
31.2692064232
 20
10.379991814
 11
47.0692064232
 21
10.379991814
  0
LINE
  5
564
100
AcDbEntity
  8
RACCORDO
100
AcDbLine
 62
250
  6
CONTINUOUS
 10
51.0692064232
 20
10.379991814
 11
52.2735423195
 21
10.379991814
  0
LINE
  5
565
100
AcDbEntity
  8
0
100
AcDbLine
 62
7
  6
CONTINUOUS
 10
44.0192064232
 20
11.7875
 11
43.0192064232
 21
11.7875
  0
LINE
  5
566
100
AcDbEntity
  8
0
100
AcDbLine
 62
7
  6
CONTINUOUS
 10
41.5192064232
 20
11.7875
 11
40.5192064232
 21
11.7875
  0
LINE
  5
567
100
AcDbEntity
  8
0
100
AcDbLine
 62
7
  6
CONTINUOUS
 10
39.0192064232
 20
11.7875
 11
38.0192064232
 21
11.7875
  0
LINE
  5
568
100
AcDbEntity
  8
0
100
AcDbLine
 62
7
  6
CONTINUOUS
 10
36.5192064232
 20
11.7875
 11
35.5192064232
 21
11.7875
  0
LINE
  5
569
100
AcDbEntity
  8
0
100
AcDbLine
 62
7
  6
CONTINUOUS
 10
34.0192064232
 20
11.7875
 11
33.0192064232
 21
11.7875
  0
LINE
  5
56A
100
AcDbEntity
  8
0
100
AcDbLine
 62
7
  6
CONTINUOUS
 10
24.0192064232
 20
11.7875
 11
23.0192064232
 21
11.7875
  0
LINE
  5
56B
100
AcDbEntity
  8
0
100
AcDbLine
 62
7
  6
CONTINUOUS
 10
21.5192064232
 20
11.7875
 11
20.5192064232
 21
11.7875
  0
LINE
  5
56C
100
AcDbEntity
  8
0
100
AcDbLine
 62
7
  6
CONTINUOUS
 10
19.0192064232
 20
11.7875
 11
18.0192064232
 21
11.7875
  0
LINE
  5
56D
100
AcDbEntity
  8
0
100
AcDbLine
 62
7
  6
CONTINUOUS
 10
-5.9807935768
 20
11.7875
 11
-6.9807935768
 21
11.7875
  0
LINE
  5
56E
100
AcDbEntity
  8
0
100
AcDbLine
 62
7
  6
CONTINUOUS
 10
-8.4807935768
 20
11.7875
 11
-9.4807935768
 21
11.7875
  0
LINE
  5
56F
100
AcDbEntity
  8
0
100
AcDbLine
 62
7
  6
CONTINUOUS
 10
-10.9807935768
 20
11.7875
 11
-11.9807935768
 21
11.7875
  0
LINE
  5
570
100
AcDbEntity
  8
0
100
AcDbLine
 62
7
  6
CONTINUOUS
 10
-13.4807935768
 20
11.7875
 11
-14.4807935768
 21
11.7875
  0
LINE
  5
571
100
AcDbEntity
  8
0
100
AcDbLine
 62
7
  6
CONTINUOUS
 10
-15.9807935768
 20
11.7875
 11
-16.9807935768
 21
11.7875
  0
LINE
  5
572
100
AcDbEntity
  8
0
100
AcDbLine
 62
7
  6
CONTINUOUS
 10
-18.4807935768
 20
11.7875
 11
-19.4807935768
 21
11.7875
  0
LINE
  5
573
100
AcDbEntity
  8
0
100
AcDbLine
 62
7
  6
CONTINUOUS
 10
-20.9807935768
 20
11.7875
 11
-21.9807935768
 21
11.7875
  0
LINE
  5
574
100
AcDbEntity
  8
0
100
AcDbLine
 62
7
  6
CONTINUOUS
 10
-23.4807935768
 20
11.7875
 11
-24.4807935768
 21
11.7875
  0
LINE
  5
575
100
AcDbEntity
  8
0
100
AcDbLine
 62
7
  6
CONTINUOUS
 10
-25.9807935768
 20
11.7875
 11
-26.9807935768
 21
11.7875
  0
LINE
  5
576
100
AcDbEntity
  8
0
100
AcDbLine
 62
7
  6
CONTINUOUS
 10
-28.4807935768
 20
11.7875
 11
-29.4807935768
 21
11.7875
  0
LINE
  5
577
100
AcDbEntity
  8
0
100
AcDbLine
 62
7
  6
CONTINUOUS
 10
-30.9807935768
 20
11.7875
 11
-31.9807935768
 21
11.7875
  0
LINE
  5
578
100
AcDbEntity
  8
0
100
AcDbLine
 62
7
  6
CONTINUOUS
 10
-33.4807935768
 20
11.7875
 11
-34.4807935768
 21
11.7875
  0
LINE
  5
579
100
AcDbEntity
  8
0
100
AcDbLine
 62
7
  6
CONTINUOUS
 10
-35.9807935768
 20
11.7875
 11
-36.9807935768
 21
11.7875
  0
LINE
  5
57A
100
AcDbEntity
  8
0
100
AcDbLine
 62
7
  6
CONTINUOUS
 10
-38.4807935768
 20
11.7875
 11
-39.4807935768
 21
11.7875
  0
LINE
  5
57B
100
AcDbEntity
  8
0
100
AcDbLine
 62
7
  6
CONTINUOUS
 10
-40.9807935768
 20
11.7875
 11
-41.9807935768
 21
11.7875
  0
LINE
  5
57C
100
AcDbEntity
  8
0
100
AcDbLine
 62
7
  6
CONTINUOUS
 10
21.2692064232
 20
11.8125
 11
21.5192064232
 21
11.8125
  0
LINE
  5
57D
100
AcDbEntity
  8
0
100
AcDbLine
 62
7
  6
CONTINUOUS
 10
-21.2307935768
 20
11.8125
 11
-21.9807935768
 21
11.8125
  0
LINE
  5
57E
100
AcDbEntity
  8
0
100
AcDbLine
 62
7
  6
CONTINUOUS
 10
23.7692064232
 20
11.8125
 11
24.0192064232
 21
11.8125
  0
LINE
  5
57F
100
AcDbEntity
  8
0
100
AcDbLine
 62
7
  6
CONTINUOUS
 10
-23.7307935768
 20
11.8125
 11
-24.4807935768
 21
11.8125
  0
LINE
  5
580
100
AcDbEntity
  8
0
100
AcDbLine
 62
7
  6
CONTINUOUS
 10
-26.2307935768
 20
11.8125
 11
-26.9807935768
 21
11.8125
  0
LINE
  5
581
100
AcDbEntity
  8
0
100
AcDbLine
 62
7
  6
CONTINUOUS
 10
-28.7307935768
 20
11.8125
 11
-29.4807935768
 21
11.8125
  0
LINE
  5
582
100
AcDbEntity
  8
0
100
AcDbLine
 62
7
  6
CONTINUOUS
 10
-31.2307935768
 20
11.8125
 11
-31.9807935768
 21
11.8125
  0
LINE
  5
583
100
AcDbEntity
  8
0
100
AcDbLine
 62
7
  6
CONTINUOUS
 10
33.7692064232
 20
11.8125
 11
34.0192064232
 21
11.8125
  0
LINE
  5
584
100
AcDbEntity
  8
0
100
AcDbLine
 62
7
  6
CONTINUOUS
 10
-33.7307935768
 20
11.8125
 11
-34.4807935768
 21
11.8125
  0
LINE
  5
585
100
AcDbEntity
  8
0
100
AcDbLine
 62
7
  6
CONTINUOUS
 10
36.2692064232
 20
11.8125
 11
36.5192064232
 21
11.8125
  0
LINE
  5
586
100
AcDbEntity
  8
0
100
AcDbLine
 62
7
  6
CONTINUOUS
 10
-36.2307935768
 20
11.8125
 11
-36.9807935768
 21
11.8125
  0
LINE
  5
587
100
AcDbEntity
  8
0
100
AcDbLine
 62
7
  6
CONTINUOUS
 10
38.7692064232
 20
11.8125
 11
39.0192064232
 21
11.8125
  0
LINE
  5
588
100
AcDbEntity
  8
0
100
AcDbLine
 62
7
  6
CONTINUOUS
 10
-38.7307935768
 20
11.8125
 11
-39.4807935768
 21
11.8125
  0
LINE
  5
589
100
AcDbEntity
  8
0
100
AcDbLine
 62
7
  6
CONTINUOUS
 10
41.2692064232
 20
11.8125
 11
41.5192064232
 21
11.8125
  0
LINE
  5
58A
100
AcDbEntity
  8
0
100
AcDbLine
 62
7
  6
CONTINUOUS
 10
-41.2307935768
 20
11.8125
 11
-41.9807935768
 21
11.8125
  0
LINE
  5
58B
100
AcDbEntity
  8
0
100
AcDbLine
 62
7
  6
CONTINUOUS
 10
43.7692064232
 20
11.8125
 11
44.0192064232
 21
11.8125
  0
LINE
  5
58C
100
AcDbEntity
  8
ASSI
100
AcDbLine
 62
7
  6
CONTINUOUS
 10
13.1369114232
 20
-0.906115
 11
13.1369114232
 21
-0.520852
  0
LINE
  5
58D
100
AcDbEntity
  8
ASSI
100
AcDbLine
 62
7
  6
CONTINUOUS
 10
13.1369114232
 20
1.24584
 11
13.1369114232
 21
1.631103
  0
LINE
  5
58E
100
AcDbEntity
  8
ASSI
100
AcDbLine
 62
7
  6
CONTINUOUS
 10
15.0494114232
 20
0.171244
 11
15.0494114232
 21
0.553744
  0
LINE
  5
58F
100
AcDbEntity
  8
ASSI
100
AcDbLine
 62
7
  6
CONTINUOUS
 10
15.3044114232
 20
-0.906115
 11
15.3044114232
 21
-0.5208517777
  0
LINE
  5
590
100
AcDbEntity
  8
ASSI
100
AcDbLine
 62
7
  6
CONTINUOUS
 10
15.3044114232
 20
1.24584
 11
15.3044114232
 21
1.631103
  0
LINE
  5
591
100
AcDbEntity
  8
ASSI
100
AcDbLine
 62
7
  6
CONTINUOUS
 10
19.9622087473
 20
1.0828728109
 11
19.3793117473
 21
0.4999763109
  0
LINE
  5
592
100
AcDbEntity
  8
ASSI
100
AcDbLine
 62
7
  6
CONTINUOUS
 10
19.3448052473
 20
0.4654693109
 11
18.2799652473
 21
-0.5993701891
  0
LINE
  5
593
100
AcDbEntity
  8
ASSI
100
AcDbLine
 62
7
  6
CONTINUOUS
 10
21.0174607473
 20
2.1381248109
 11
20.7968242473
 21
1.9174883109
  0
LINE
  5
594
100
AcDbEntity
  8
ASSI
100
AcDbLine
 62
7
  6
CONTINUOUS
 10
21.6973192473
 20
2.8179838109
 11
21.0548442473
 21
2.1755083109
  0
LINE
  5
595
100
AcDbEntity
  8
ASSI
100
AcDbLine
 62
7
  6
CONTINUOUS
 10
20.6692817473
 20
1.7899463109
 11
20.0150762473
 21
1.1357403109
  0
LINE
  5
596
100
AcDbEntity
  8
ASSI
100
AcDbLine
 62
7
  6
CONTINUOUS
 10
20.7557002473
 20
1.8763648109
 11
20.7066652473
 21
1.8273293109
  0
LINE
  5
597
100
AcDbEntity
  8
ASSI
100
AcDbLine
 62
7
  6
CONTINUOUS
 10
18.3328332473
 20
-0.6522381891
 11
19.3533117473
 21
0.3682398109
  0
LINE
  5
598
100
AcDbEntity
  8
ASSI
100
AcDbLine
 62
7
  6
CONTINUOUS
 10
19.3878182473
 20
0.4027473109
 11
20.0150762473
 21
1.0300053109
  0
LINE
  5
599
100
AcDbEntity
  8
ASSI
100
AcDbLine
 62
7
  6
CONTINUOUS
 10
20.0679437473
 20
1.0828728109
 11
20.7455627473
 21
1.7604918109
  0
LINE
  5
59A
100
AcDbEntity
  8
ASSI
100
AcDbLine
 62
7
  6
CONTINUOUS
 10
20.7867477473
 20
1.8016768109
 11
21.0804967473
 21
2.0954258109
  0
LINE
  5
59B
100
AcDbEntity
  8
ASSI
100
AcDbLine
 62
7
  6
CONTINUOUS
 10
21.1178802473
 20
2.1328083109
 11
21.7501872473
 21
2.7651158109
  0
LINE
  5
59C
100
AcDbEntity
  8
ASSI
100
AcDbLine
 62
7
  6
CONTINUOUS
 10
21.6973192473
 20
-0.6522381891
 11
21.7501872473
 21
-0.5993701891
  0
LINE
  5
59D
100
AcDbEntity
  8
0
100
AcDbLine
 62
7
  6
CONTINUOUS
 10
1.5140618722
 20
-17.2463117929
 11
1.504952291
 21
-17.2549252701
  0
LINE
  5
59E
100
AcDbEntity
  8
0
100
AcDbLine
 62
7
  6
CONTINUOUS
 10
-1.4748863311
 20
-18.5064824155
 11
-1.4650834172
 21
-18.4973769799
  0
LWPOLYLINE
  5
59F
100
AcDbEntity
  8
0
100
AcDbPolyline
 62
7
  6
CONTINUOUS
 90
22
 70
0
 10
1.504952291
 20
-17.2549252701
 10
1.4923360106
 20
-17.2652604792
 10
1.4759224884
 20
-17.2771061214
 10
1.4553485069
 20
-17.2903592793
 10
1.4306731213
 20
-17.3047044163
 10
1.4016984548
 20
-17.3200527445
 10
1.3683074662
 20
-17.3362988837
 10
1.3307908236
 20
-17.3531881339
 10
1.2891292479
 20
-17.3706591048
 10
1.2432791455
 20
-17.3886760417
 10
1.1935823275
 20
-17.4070754112
 10
1.1401095153
 20
-17.4258238311
 10
1.0829021022
 20
-17.444907362
 10
1.0223207252
 20
-17.4642188937
 10
0.9585096131
 20
-17.4837372922
 10
0.8915728396
 20
-17.5034595372
 10
0.8218544103
 20
-17.5233192085
 10
0.7495558413
 20
-17.5432998406
 10
0.6748198158
 20
-17.5634050219
 10
0.5979237902
 20
-17.5836055641
 10
0.5190698736
 20
-17.6038963154
 10
0.4384563752
 20
-17.6242755421
  0
LWPOLYLINE
  5
5A0
100
AcDbEntity
  8
0
100
AcDbPolyline
 62
7
  6
CONTINUOUS
 90
21
 70
0
 10
-1.4650834172
 20
-18.4973769799
 10
-1.4516502334
 20
-18.4865809813
 10
-1.4344038211
 20
-18.4743681548
 10
-1.412972962
 20
-18.460810135
 10
-1.3873704507
 20
-18.4461775926
 10
-1.3573922587
 20
-18.4305520412
 10
-1.3229335516
 20
-18.414041419
 10
-1.2841985023
 20
-18.3968572451
 10
-1.2410938087
 20
-18.3790358802
 10
-1.1936089526
 20
-18.3606339566
 10
-1.142153838
 20
-18.3418410804
 10
-1.0868164916
 20
-18.3226949905
 10
-1.0276298769
 20
-18.3032046497
 10
-0.9650078169
 20
-18.2834904753
 10
-0.8991224725
 20
-18.2635779423
 10
-0.8300766217
 20
-18.2434654478
 10
-0.7582304936
 20
-18.223219444
 10
-0.6837929334
 20
-18.2028544531
 10
-0.6069265457
 20
-18.1823685591
 10
-0.5279454813
 20
-18.1617964259
 10
-0.4470926826
 20
-18.1411495278
  0
LWPOLYLINE
  5
5A1
100
AcDbEntity
  8
0
100
AcDbPolyline
 62
7
  6
CONTINUOUS
 90
15
 70
0
 10
1.6005461121
 20
-14.8566263313
 10
1.6009462427
 20
-14.8564600805
 10
1.6013293886
 20
-14.8563062747
 10
1.6012518064
 20
-14.8563357798
 10
1.6008289401
 20
-14.8564915191
 10
1.6000722974
 20
-14.8567608953
 10
1.5989560931
 20
-14.8571456099
 10
1.5975429975
 20
-14.8576181251
 10
1.5958367945
 20
-14.8581729753
 10
1.5938227139
 20
-14.858811141
 10
1.5915369823
 20
-14.8595180313
 10
1.5889797484
 20
-14.8602912594
 10
1.5861415079
 20
-14.8611315464
 10
1.583044922
 20
-14.8620303992
 10
1.5796889094
 20
-14.862986739
  0
LINE
  5
5A2
100
AcDbEntity
  8
RACCORDO
100
AcDbLine
 62
7
  6
CONTINUOUS
 10
-51.6307935768
 20
13.3875
 11
-51.4307935768
 21
13.3875
  0
LINE
  5
5A3
100
AcDbEntity
  8
RACCORDO
100
AcDbLine
 62
7
  6
CONTINUOUS
 10
-45.3307935768
 20
13.3875
 11
-45.1307935768
 21
13.3875
  0
LINE
  5
5A4
100
AcDbEntity
  8
DRAFT
100
AcDbLine
 62
7
  6
CONTINUOUS
 10
21.2124774622
 20
14.4875
 11
21.5192064232
 21
14.4875
  0
LINE
  5
5A5
100
AcDbEntity
  8
DRAFT
100
AcDbLine
 62
7
  6
CONTINUOUS
 10
-21.1740646158
 20
14.4875
 11
-21.9807935768
 21
14.4875
  0
LINE
  5
5A6
100
AcDbEntity
  8
DRAFT
100
AcDbLine
 62
7
  6
CONTINUOUS
 10
23.7124774622
 20
14.4875
 11
24.0192064232
 21
14.4875
  0
LINE
  5
5A7
100
AcDbEntity
  8
DRAFT
100
AcDbLine
 62
7
  6
CONTINUOUS
 10
-23.6740646158
 20
14.4875
 11
-24.4807935768
 21
14.4875
  0
LINE
  5
5A8
100
AcDbEntity
  8
DRAFT
100
AcDbLine
 62
7
  6
CONTINUOUS
 10
-26.1740646158
 20
14.4875
 11
-26.9807935768
 21
14.4875
  0
LINE
  5
5A9
100
AcDbEntity
  8
DRAFT
100
AcDbLine
 62
7
  6
CONTINUOUS
 10
-28.6740646158
 20
14.4875
 11
-29.4807935768
 21
14.4875
  0
LINE
  5
5AA
100
AcDbEntity
  8
DRAFT
100
AcDbLine
 62
7
  6
CONTINUOUS
 10
-31.1740646158
 20
14.4875
 11
-31.9807935768
 21
14.4875
  0
LINE
  5
5AB
100
AcDbEntity
  8
DRAFT
100
AcDbLine
 62
7
  6
CONTINUOUS
 10
33.7124774622
 20
14.4875
 11
34.0192064232
 21
14.4875
  0
LINE
  5
5AC
100
AcDbEntity
  8
DRAFT
100
AcDbLine
 62
7
  6
CONTINUOUS
 10
-33.6740646158
 20
14.4875
 11
-34.4807935768
 21
14.4875
  0
LINE
  5
5AD
100
AcDbEntity
  8
DRAFT
100
AcDbLine
 62
7
  6
CONTINUOUS
 10
36.2124774622
 20
14.4875
 11
36.5192064232
 21
14.4875
  0
LINE
  5
5AE
100
AcDbEntity
  8
DRAFT
100
AcDbLine
 62
7
  6
CONTINUOUS
 10
-36.1740646158
 20
14.4875
 11
-36.9807935768
 21
14.4875
  0
LINE
  5
5AF
100
AcDbEntity
  8
DRAFT
100
AcDbLine
 62
7
  6
CONTINUOUS
 10
38.7124774622
 20
14.4875
 11
39.0192064232
 21
14.4875
  0
LINE
  5
5B0
100
AcDbEntity
  8
DRAFT
100
AcDbLine
 62
7
  6
CONTINUOUS
 10
-38.6740646158
 20
14.4875
 11
-39.4807935768
 21
14.4875
  0
LINE
  5
5B1
100
AcDbEntity
  8
DRAFT
100
AcDbLine
 62
7
  6
CONTINUOUS
 10
41.2124774622
 20
14.4875
 11
41.5192064232
 21
14.4875
  0
LINE
  5
5B2
100
AcDbEntity
  8
DRAFT
100
AcDbLine
 62
7
  6
CONTINUOUS
 10
-41.1740646158
 20
14.4875
 11
-41.9807935768
 21
14.4875
  0
LINE
  5
5B3
100
AcDbEntity
  8
DRAFT
100
AcDbLine
 62
7
  6
CONTINUOUS
 10
43.7124774622
 20
14.4875
 11
44.0192064232
 21
14.4875
  0
LINE
  5
5B4
100
AcDbEntity
  8
DRAFT
100
AcDbLine
 62
250
  6
CONTINUOUS
 10
-47.0807935768
 20
14.6875
 11
-47.0044334836
 21
14.6875
  0
LINE
  5
5B5
100
AcDbEntity
  8
DRAFT
100
AcDbLine
 62
250
  6
CONTINUOUS
 10
-49.6807935768
 20
14.6875
 11
-49.7571536699
 21
14.6875
  0
LINE
  5
5B6
100
AcDbEntity
  8
DRAFT
100
AcDbLine
 62
7
  6
CONTINUOUS
 10
18.0192064232
 20
15.0556469326
 11
19.0192064232
 21
15.0556469326
  0
LINE
  5
5B7
100
AcDbEntity
  8
DRAFT
100
AcDbLine
 62
7
  6
CONTINUOUS
 10
20.5192064232
 20
15.0556469326
 11
21.5192064232
 21
15.0556469326
  0
LINE
  5
5B8
100
AcDbEntity
  8
DRAFT
100
AcDbLine
 62
7
  6
CONTINUOUS
 10
23.0192064232
 20
15.0556469326
 11
24.0192064232
 21
15.0556469326
  0
LINE
  5
5B9
100
AcDbEntity
  8
DRAFT
100
AcDbLine
 62
7
  6
CONTINUOUS
 10
33.0192064232
 20
15.0556469326
 11
34.0192064232
 21
15.0556469326
  0
LINE
  5
5BA
100
AcDbEntity
  8
DRAFT
100
AcDbLine
 62
7
  6
CONTINUOUS
 10
35.5192064232
 20
15.0556469326
 11
36.5192064232
 21
15.0556469326
  0
LINE
  5
5BB
100
AcDbEntity
  8
DRAFT
100
AcDbLine
 62
7
  6
CONTINUOUS
 10
38.0192064232
 20
15.0556469326
 11
39.0192064232
 21
15.0556469326
  0
LINE
  5
5BC
100
AcDbEntity
  8
DRAFT
100
AcDbLine
 62
7
  6
CONTINUOUS
 10
40.5192064232
 20
15.0556469326
 11
41.5192064232
 21
15.0556469326
  0
LINE
  5
5BD
100
AcDbEntity
  8
DRAFT
100
AcDbLine
 62
7
  6
CONTINUOUS
 10
43.0192064232
 20
15.0556469326
 11
44.0192064232
 21
15.0556469326
  0
LINE
  5
5BE
100
AcDbEntity
  8
DRAFT
100
AcDbLine
 62
7
  6
CONTINUOUS
 10
18.0192064232
 20
15.0656828305
 11
19.0192064232
 21
15.0656828305
  0
LINE
  5
5BF
100
AcDbEntity
  8
DRAFT
100
AcDbLine
 62
7
  6
CONTINUOUS
 10
20.5192064232
 20
15.0656828305
 11
21.5192064232
 21
15.0656828305
  0
LINE
  5
5C0
100
AcDbEntity
  8
DRAFT
100
AcDbLine
 62
7
  6
CONTINUOUS
 10
23.0192064232
 20
15.0656828305
 11
24.0192064232
 21
15.0656828305
  0
LINE
  5
5C1
100
AcDbEntity
  8
DRAFT
100
AcDbLine
 62
7
  6
CONTINUOUS
 10
33.0192064232
 20
15.0656828305
 11
34.0192064232
 21
15.0656828305
  0
LINE
  5
5C2
100
AcDbEntity
  8
DRAFT
100
AcDbLine
 62
7
  6
CONTINUOUS
 10
35.5192064232
 20
15.0656828305
 11
36.5192064232
 21
15.0656828305
  0
LINE
  5
5C3
100
AcDbEntity
  8
DRAFT
100
AcDbLine
 62
7
  6
CONTINUOUS
 10
38.0192064232
 20
15.0656828305
 11
39.0192064232
 21
15.0656828305
  0
LINE
  5
5C4
100
AcDbEntity
  8
DRAFT
100
AcDbLine
 62
7
  6
CONTINUOUS
 10
40.5192064232
 20
15.0656828305
 11
41.5192064232
 21
15.0656828305
  0
LINE
  5
5C5
100
AcDbEntity
  8
DRAFT
100
AcDbLine
 62
7
  6
CONTINUOUS
 10
43.0192064232
 20
15.0656828305
 11
44.0192064232
 21
15.0656828305
  0
LINE
  5
5C6
100
AcDbEntity
  8
DRAFT
100
AcDbLine
 62
7
  6
CONTINUOUS
 10
18.0192064232
 20
16.2375
 11
19.0192064232
 21
16.2375
  0
LINE
  5
5C7
100
AcDbEntity
  8
DRAFT
100
AcDbLine
 62
7
  6
CONTINUOUS
 10
20.5192064232
 20
16.2375
 11
21.5192064232
 21
16.2375
  0
LINE
  5
5C8
100
AcDbEntity
  8
DRAFT
100
AcDbLine
 62
7
  6
CONTINUOUS
 10
23.0192064232
 20
16.2375
 11
24.0192064232
 21
16.2375
  0
LINE
  5
5C9
100
AcDbEntity
  8
DRAFT
100
AcDbLine
 62
7
  6
CONTINUOUS
 10
33.0192064232
 20
16.2375
 11
34.0192064232
 21
16.2375
  0
LINE
  5
5CA
100
AcDbEntity
  8
DRAFT
100
AcDbLine
 62
7
  6
CONTINUOUS
 10
35.5192064232
 20
16.2375
 11
36.5192064232
 21
16.2375
  0
LINE
  5
5CB
100
AcDbEntity
  8
DRAFT
100
AcDbLine
 62
7
  6
CONTINUOUS
 10
38.0192064232
 20
16.2375
 11
39.0192064232
 21
16.2375
  0
LINE
  5
5CC
100
AcDbEntity
  8
DRAFT
100
AcDbLine
 62
7
  6
CONTINUOUS
 10
40.5192064232
 20
16.2375
 11
41.5192064232
 21
16.2375
  0
LINE
  5
5CD
100
AcDbEntity
  8
DRAFT
100
AcDbLine
 62
7
  6
CONTINUOUS
 10
43.0192064232
 20
16.2375
 11
44.0192064232
 21
16.2375
  0
LINE
  5
5CE
100
AcDbEntity
  8
ASSI
100
AcDbLine
 62
7
  6
CONTINUOUS
 10
18.2799652473
 20
-0.5993701891
 11
18.3328332473
 21
-0.6522381891
  0
LINE
  5
5CF
100
AcDbEntity
  8
ASSI
100
AcDbLine
 62
7
  6
CONTINUOUS
 10
19.2675392473
 20
1.7775418109
 11
19.9622087473
 21
1.0828728109
  0
LINE
  5
5D0
100
AcDbEntity
  8
ASSI
100
AcDbLine
 62
7
  6
CONTINUOUS
 10
18.2799652473
 20
2.7651158109
 11
19.2264157473
 21
1.8186658109
  0
LINE
  5
5D1
100
AcDbEntity
  8
ASSI
100
AcDbLine
 62
7
  6
CONTINUOUS
 10
20.6625342473
 20
0.3825473109
 11
21.6973192473
 21
-0.6522381891
  0
LINE
  5
5D2
100
AcDbEntity
  8
ASSI
100
AcDbLine
 62
7
  6
CONTINUOUS
 10
20.0150762473
 20
1.0300053109
 11
20.6280272473
 21
0.4170538109
  0
LINE
  5
5D3
100
AcDbEntity
  8
ASSI
100
AcDbLine
 62
7
  6
CONTINUOUS
 10
21.7501872473
 20
-0.5993701891
 11
20.6710407473
 21
0.4797758109
  0
LINE
  5
5D4
100
AcDbEntity
  8
ASSI
100
AcDbLine
 62
7
  6
CONTINUOUS
 10
20.6365332473
 20
0.5142833109
 11
20.0679437473
 21
1.0828728109
  0
LINE
  5
5D5
100
AcDbEntity
  8
ASSI
100
AcDbLine
 62
7
  6
CONTINUOUS
 10
20.0150762473
 20
1.1357403109
 11
19.2574017473
 21
1.8934148109
  0
LINE
  5
5D6
100
AcDbEntity
  8
ASSI
100
AcDbLine
 62
7
  6
CONTINUOUS
 10
19.2162782473
 20
1.9345388109
 11
18.3328332473
 21
2.8179838109
  0
LINE
  5
5D7
100
AcDbEntity
  8
ASSI
100
AcDbLine
 62
7
  6
CONTINUOUS
 10
19.1821132473
 20
2.3250408109
 11
19.2162782473
 21
1.9345388109
  0
LINE
  5
5D8
100
AcDbEntity
  8
ASSI
100
AcDbLine
 62
7
  6
CONTINUOUS
 10
19.2264157473
 20
1.8186658109
 11
19.3448052473
 21
0.4654693109
  0
LINE
  5
5D9
100
AcDbEntity
  8
ASSI
100
AcDbLine
 62
7
  6
CONTINUOUS
 10
19.1576993325
 20
2.6040936064
 11
19.1690312473
 21
2.4745738109
  0
LINE
  5
5DA
100
AcDbEntity
  8
ASSI
100
AcDbLine
 62
7
  6
CONTINUOUS
 10
19.3533117473
 20
0.3682398109
 11
19.4028792473
 21
-0.1983231891
  0
LINE
  5
5DB
100
AcDbEntity
  8
ASSI
100
AcDbLine
 62
7
  6
CONTINUOUS
 10
19.2065572473
 20
2.4745738109
 11
19.1973427651
 21
2.5798992664
  0
LINE
  5
5DC
100
AcDbEntity
  8
ASSI
100
AcDbLine
 62
7
  6
CONTINUOUS
 10
19.4371347473
 20
-0.1609401891
 11
19.3878182473
 21
0.4027473109
  0
LINE
  5
5DD
100
AcDbEntity
  8
ASSI
100
AcDbLine
 62
7
  6
CONTINUOUS
 10
19.3793117473
 20
0.4999763109
 11
19.2675392473
 21
1.7775418109
  0
LINE
  5
5DE
100
AcDbEntity
  8
ASSI
100
AcDbLine
 62
7
  6
CONTINUOUS
 10
19.2574017473
 20
1.8934148109
 11
19.2196397473
 21
2.3250408109
  0
LINE
  5
5DF
100
AcDbEntity
  8
DRAFT
100
AcDbLine
 62
7
  6
CONTINUOUS
 10
21.2692064232
 20
-11.0875
 11
21.2670192066
 21
-11.0625
  0
LINE
  5
5E0
100
AcDbEntity
  8
0
100
AcDbLine
 62
7
  6
CONTINUOUS
 10
18.0192064232
 20
-17.1625
 11
18.0192064232
 21
-11.0625
  0
LINE
  5
5E1
100
AcDbEntity
  8
0
100
AcDbLine
 62
7
  6
CONTINUOUS
 10
18.0192064232
 20
11.7875
 11
18.0192064232
 21
17.8875
  0
LINE
  5
5E2
100
AcDbEntity
  8
ASSI
100
AcDbLine
 62
7
  6
CONTINUOUS
 10
18.5192064232
 20
-1.373814
 11
18.5192064232
 21
-2.123814
  0
LINE
  5
5E3
100
AcDbEntity
  8
ASSI
100
AcDbLine
 62
7
  6
CONTINUOUS
 10
18.8748897473
 20
2.4745738109
 11
18.8748897473
 21
2.3250408109
  0
LINE
  5
5E4
100
AcDbEntity
  8
0
100
AcDbLine
 62
7
  6
CONTINUOUS
 10
19.0192064232
 20
17.8875
 11
19.0192064232
 21
11.7875
  0
LINE
  5
5E5
100
AcDbEntity
  8
0
100
AcDbLine
 62
7
  6
CONTINUOUS
 10
19.0192064232
 20
-11.0625
 11
19.0192064232
 21
-17.1625
  0
LINE
  5
5E6
100
AcDbEntity
  8
ASSI
100
AcDbLine
 62
7
  6
CONTINUOUS
 10
19.2674127473
 20
2.7923308109
 11
19.2674126745
 21
2.6459815201
  0
LINE
  5
5E7
100
AcDbEntity
  8
ASSI
100
AcDbLine
 62
7
  6
CONTINUOUS
 10
19.2674127473
 20
2.6063543618
 11
19.2674127473
 21
2.4745738109
  0
LINE
  5
5E8
100
AcDbEntity
  8
ASSI
100
AcDbLine
 62
7
  6
CONTINUOUS
 10
19.3047962788
 20
2.6585672141
 11
19.3047962473
 21
2.7549473109
  0
LINE
  5
5E9
100
AcDbEntity
  8
ASSI
100
AcDbLine
 62
7
  6
CONTINUOUS
 10
19.3047962473
 20
2.5119573109
 11
19.3047961974
 21
2.619212461
  0
LINE
  5
5EA
100
AcDbEntity
  8
ASSI
100
AcDbLine
 62
7
  6
CONTINUOUS
 10
19.4028792473
 20
-0.1983231891
 11
19.4028792473
 21
-0.4973891891
  0
LINE
  5
5EB
100
AcDbEntity
  8
ASSI
100
AcDbLine
 62
7
  6
CONTINUOUS
 10
19.4169452473
 20
2.7549473109
 11
19.4169452217
 21
2.6914139093
  0
LINE
  5
5EC
100
AcDbEntity
  8
ASSI
100
AcDbLine
 62
7
  6
CONTINUOUS
 10
19.4169452881
 20
2.652754158
 11
19.4169452473
 21
2.5119573109
  0
LINE
  5
5ED
100
AcDbEntity
  8
ASSI
100
AcDbLine
 62
7
  6
CONTINUOUS
 10
19.4543287473
 20
2.4745738109
 11
19.4543287473
 21
2.6623073765
  0
LINE
  5
5EE
100
AcDbEntity
  8
ASSI
100
AcDbLine
 62
7
  6
CONTINUOUS
 10
19.454328732
 20
2.7007728748
 11
19.4543287473
 21
2.7923308109
  0
LINE
  5
5EF
100
AcDbEntity
  8
ASSI
100
AcDbLine
 62
7
  6
CONTINUOUS
 10
19.6271782473
 20
-0.4973891891
 11
19.6271782473
 21
-0.1983231891
  0
LINE
  5
5F0
100
AcDbEntity
  8
ASSI
100
AcDbLine
 62
7
  6
CONTINUOUS
 10
19.7720852473
 20
1.7642933109
 11
19.7720852473
 21
1.5773773109
  0
LINE
  5
5F1
100
AcDbEntity
  8
ASSI
100
AcDbLine
 62
7
  6
CONTINUOUS
 10
19.8094687473
 20
1.6147608109
 11
19.8094687473
 21
1.7269108109
  0
LINE
  5
5F2
100
AcDbEntity
  8
ASSI
100
AcDbLine
 62
7
  6
CONTINUOUS
 10
19.8468522495
 20
2.7164527466
 11
19.8468522473
 21
2.6241068109
  0
LINE
  5
5F3
100
AcDbEntity
  8
ASSI
100
AcDbLine
 62
7
  6
CONTINUOUS
 10
19.8468522473
 20
2.8484058109
 11
19.8468522495
 21
2.7538567452
  0
LINE
  5
5F4
100
AcDbEntity
  8
ASSI
100
AcDbLine
 62
7
  6
CONTINUOUS
 10
19.8842352482
 20
2.7547472518
 11
19.8842352473
 21
2.8110223109
  0
LINE
  5
5F5
100
AcDbEntity
  8
ASSI
100
AcDbLine
 62
7
  6
CONTINUOUS
 10
19.8842352473
 20
2.6614898109
 11
19.8842352512
 21
2.7173600442
  0
LINE
  5
5F6
100
AcDbEntity
  8
ASSI
100
AcDbLine
 62
7
  6
CONTINUOUS
 10
20.314141303
 20
2.6751545717
 11
20.3141412473
 21
2.6614898109
  0
LINE
  5
5F7
100
AcDbEntity
  8
ASSI
100
AcDbLine
 62
7
  6
CONTINUOUS
 10
20.3141412473
 20
2.8110223109
 11
20.3141412594
 21
2.7133633687
  0
LINE
  5
5F8
100
AcDbEntity
  8
ASSI
100
AcDbLine
 62
7
  6
CONTINUOUS
 10
20.3515247473
 20
2.6241068109
 11
20.3515247507
 21
2.6667858253
  0
LINE
  5
5F9
100
AcDbEntity
  8
ASSI
100
AcDbLine
 62
7
  6
CONTINUOUS
 10
20.3515247683
 20
2.7051619022
 11
20.3515247473
 21
2.8484058109
  0
LINE
  5
5FA
100
AcDbEntity
  8
ASSI
100
AcDbLine
 62
7
  6
CONTINUOUS
 10
20.3889077473
 20
1.7269108109
 11
20.3889077473
 21
1.6147608109
  0
LINE
  5
5FB
100
AcDbEntity
  8
ASSI
100
AcDbLine
 62
7
  6
CONTINUOUS
 10
20.4262912473
 20
1.5773773109
 11
20.4262912473
 21
1.7642933109
  0
LINE
  5
5FC
100
AcDbEntity
  8
DRAFT
100
AcDbLine
 62
7
  6
CONTINUOUS
 10
21.2670192066
 20
11.7875
 11
21.2692064232
 21
11.8125
  0
LINE
  5
5FD
100
AcDbEntity
  8
RACCORDO
100
AcDbLine
 62
250
  6
CONTINUOUS
 10
51.5198155962
 20
26.4875
 11
51.2741514925
 21
26.2418358963
  0
LINE
  5
5FE
100
AcDbEntity
  8
RACCORDO
100
AcDbLine
 62
250
  6
CONTINUOUS
 10
52.5192064232
 20
25.488109173
 11
52.2735423195
 21
25.2424450693
  0
LINE
  5
5FF
100
AcDbEntity
  8
DRAFT
100
AcDbLine
 62
250
  6
CONTINUOUS
 10
-47.0807935768
 20
17.0875
 11
-47.0044334836
 21
17.0875
  0
LINE
  5
600
100
AcDbEntity
  8
DRAFT
100
AcDbLine
 62
250
  6
CONTINUOUS
 10
-49.6807935768
 20
17.0875
 11
-49.7571536699
 21
17.0875
  0
LINE
  5
601
100
AcDbEntity
  8
DRAFT
100
AcDbLine
 62
7
  6
CONTINUOUS
 10
-47.1441998289
 20
17.4875
 11
-47.2875225378
 21
17.4875
  0
LINE
  5
602
100
AcDbEntity
  8
0
100
AcDbLine
 62
7
  6
CONTINUOUS
 10
-41.9807935768
 20
17.8875
 11
-40.9807935768
 21
17.8875
  0
LINE
  5
603
100
AcDbEntity
  8
0
100
AcDbLine
 62
7
  6
CONTINUOUS
 10
-39.4807935768
 20
17.8875
 11
-38.4807935768
 21
17.8875
  0
LINE
  5
604
100
AcDbEntity
  8
0
100
AcDbLine
 62
7
  6
CONTINUOUS
 10
-36.9807935768
 20
17.8875
 11
-35.9807935768
 21
17.8875
  0
LINE
  5
605
100
AcDbEntity
  8
0
100
AcDbLine
 62
7
  6
CONTINUOUS
 10
-34.4807935768
 20
17.8875
 11
-33.4807935768
 21
17.8875
  0
LINE
  5
606
100
AcDbEntity
  8
0
100
AcDbLine
 62
7
  6
CONTINUOUS
 10
-31.9807935768
 20
17.8875
 11
-30.9807935768
 21
17.8875
  0
LINE
  5
607
100
AcDbEntity
  8
0
100
AcDbLine
 62
7
  6
CONTINUOUS
 10
-29.4807935768
 20
17.8875
 11
-28.4807935768
 21
17.8875
  0
LINE
  5
608
100
AcDbEntity
  8
0
100
AcDbLine
 62
7
  6
CONTINUOUS
 10
-26.9807935768
 20
17.8875
 11
-25.9807935768
 21
17.8875
  0
LINE
  5
609
100
AcDbEntity
  8
0
100
AcDbLine
 62
7
  6
CONTINUOUS
 10
-24.4807935768
 20
17.8875
 11
-23.4807935768
 21
17.8875
  0
LINE
  5
60A
100
AcDbEntity
  8
0
100
AcDbLine
 62
7
  6
CONTINUOUS
 10
-21.9807935768
 20
17.8875
 11
-20.9807935768
 21
17.8875
  0
LINE
  5
60B
100
AcDbEntity
  8
0
100
AcDbLine
 62
7
  6
CONTINUOUS
 10
-19.4807935768
 20
17.8875
 11
-18.4807935768
 21
17.8875
  0
LINE
  5
60C
100
AcDbEntity
  8
0
100
AcDbLine
 62
7
  6
CONTINUOUS
 10
-16.9807935768
 20
17.8875
 11
-15.9807935768
 21
17.8875
  0
LINE
  5
60D
100
AcDbEntity
  8
0
100
AcDbLine
 62
7
  6
CONTINUOUS
 10
-14.4807935768
 20
17.8875
 11
-13.4807935768
 21
17.8875
  0
LINE
  5
60E
100
AcDbEntity
  8
0
100
AcDbLine
 62
7
  6
CONTINUOUS
 10
-11.9807935768
 20
17.8875
 11
-10.9807935768
 21
17.8875
  0
LINE
  5
60F
100
AcDbEntity
  8
0
100
AcDbLine
 62
7
  6
CONTINUOUS
 10
-9.4807935768
 20
17.8875
 11
-8.4807935768
 21
17.8875
  0
LINE
  5
610
100
AcDbEntity
  8
0
100
AcDbLine
 62
7
  6
CONTINUOUS
 10
-6.9807935768
 20
17.8875
 11
-5.9807935768
 21
17.8875
  0
LINE
  5
611
100
AcDbEntity
  8
0
100
AcDbLine
 62
7
  6
CONTINUOUS
 10
18.0192064232
 20
17.8875
 11
19.0192064232
 21
17.8875
  0
LINE
  5
612
100
AcDbEntity
  8
0
100
AcDbLine
 62
7
  6
CONTINUOUS
 10
20.5192064232
 20
17.8875
 11
21.5192064232
 21
17.8875
  0
LINE
  5
613
100
AcDbEntity
  8
0
100
AcDbLine
 62
7
  6
CONTINUOUS
 10
23.0192064232
 20
17.8875
 11
24.0192064232
 21
17.8875
  0
LINE
  5
614
100
AcDbEntity
  8
0
100
AcDbLine
 62
7
  6
CONTINUOUS
 10
33.0192064232
 20
17.8875
 11
34.0192064232
 21
17.8875
  0
LINE
  5
615
100
AcDbEntity
  8
0
100
AcDbLine
 62
7
  6
CONTINUOUS
 10
35.5192064232
 20
17.8875
 11
36.5192064232
 21
17.8875
  0
LINE
  5
616
100
AcDbEntity
  8
0
100
AcDbLine
 62
7
  6
CONTINUOUS
 10
38.0192064232
 20
17.8875
 11
39.0192064232
 21
17.8875
  0
LINE
  5
617
100
AcDbEntity
  8
0
100
AcDbLine
 62
7
  6
CONTINUOUS
 10
40.5192064232
 20
17.8875
 11
41.5192064232
 21
17.8875
  0
LINE
  5
618
100
AcDbEntity
  8
0
100
AcDbLine
 62
7
  6
CONTINUOUS
 10
43.0192064232
 20
17.8875
 11
44.0192064232
 21
17.8875
  0
LINE
  5
619
100
AcDbEntity
  8
RACCORDO
100
AcDbLine
 62
7
  6
CONTINUOUS
 10
-45.1307935768
 20
18.3875
 11
-45.3307935768
 21
18.3875
  0
LINE
  5
61A
100
AcDbEntity
  8
RACCORDO
100
AcDbLine
 62
7
  6
CONTINUOUS
 10
-51.4307935768
 20
18.3875
 11
-51.6307935768
 21
18.3875
  0
LINE
  5
61B
100
AcDbEntity
  8
RACCORDO
100
AcDbLine
 62
7
  6
CONTINUOUS
 10
49.2692064232
 20
18.8625
 11
49.4692064232
 21
18.8625
  0
LINE
  5
61C
100
AcDbEntity
  8
ASSI
100
AcDbLine
 62
7
  6
CONTINUOUS
 10
21.7501872473
 20
2.7651158109
 11
21.6973192473
 21
2.8179838109
  0
LINE
  5
61D
100
AcDbEntity
  8
RACCORDO
100
AcDbLine
 62
250
  6
CONTINUOUS
 10
51.5198155962
 20
-25.7625
 11
51.2741514925
 21
-25.5168358963
  0
LINE
  5
61E
100
AcDbEntity
  8
RACCORDO
100
AcDbLine
 62
250
  6
CONTINUOUS
 10
52.5192064232
 20
-24.763109173
 11
52.2735423195
 21
-24.5174450693
  0
LINE
  5
61F
100
AcDbEntity
  8
DRAFT
100
AcDbLine
 62
7
  6
CONTINUOUS
 10
23.7692064232
 20
-11.0875
 11
23.7670192066
 21
-11.0625
  0
LINE
  5
620
100
AcDbEntity
  8
0
100
AcDbLine
 62
7
  6
CONTINUOUS
 10
20.5192064232
 20
-17.1625
 11
20.5192064232
 21
-11.0625
  0
LINE
  5
621
100
AcDbEntity
  8
0
100
AcDbLine
 62
7
  6
CONTINUOUS
 10
20.5192064232
 20
11.7875
 11
20.5192064232
 21
17.8875
  0
LINE
  5
622
100
AcDbEntity
  8
ASSI
100
AcDbLine
 62
7
  6
CONTINUOUS
 10
20.6692817473
 20
2.1755083109
 11
20.6692817473
 21
1.7899463109
  0
LINE
  5
623
100
AcDbEntity
  8
ASSI
100
AcDbLine
 62
7
  6
CONTINUOUS
 10
20.7066652473
 20
1.8273293109
 11
20.7066652473
 21
2.1381248109
  0
LINE
  5
624
100
AcDbEntity
  8
ASSI
100
AcDbLine
 62
7
  6
CONTINUOUS
 10
20.9496552473
 20
2.3250408109
 11
20.9496553079
 21
2.3720817202
  0
LINE
  5
625
100
AcDbEntity
  8
ASSI
100
AcDbLine
 62
7
  6
CONTINUOUS
 10
21.0804967473
 20
2.0954258109
 11
21.0804967473
 21
1.8016768109
  0
LINE
  5
626
100
AcDbEntity
  8
ASSI
100
AcDbLine
 62
7
  6
CONTINUOUS
 10
21.1178802473
 20
1.7642933109
 11
21.1178802473
 21
2.1328083109
  0
LINE
  5
627
100
AcDbEntity
  8
DRAFT
100
AcDbLine
 62
7
  6
CONTINUOUS
 10
21.2124774622
 20
15.0556469326
 11
21.2124774622
 21
14.4875
  0
LINE
  5
628
100
AcDbEntity
  8
0
100
AcDbLine
 62
7
  6
CONTINUOUS
 10
21.5192064232
 20
17.8875
 11
21.5192064232
 21
11.7875
  0
LINE
  5
629
100
AcDbEntity
  8
0
100
AcDbLine
 62
7
  6
CONTINUOUS
 10
21.5192064232
 20
-11.0625
 11
21.5192064232
 21
-17.1625
  0
LINE
  5
62A
100
AcDbEntity
  8
ASSI
100
AcDbLine
 62
7
  6
CONTINUOUS
 10
21.5192064232
 20
-2.123814
 11
21.5192064232
 21
-1.373814
  0
LINE
  5
62B
100
AcDbEntity
  8
0
100
AcDbLine
 62
7
  6
CONTINUOUS
 10
23.0192064232
 20
-17.1625
 11
23.0192064232
 21
-11.0625
  0
LINE
  5
62C
100
AcDbEntity
  8
0
100
AcDbLine
 62
7
  6
CONTINUOUS
 10
23.0192064232
 20
11.7875
 11
23.0192064232
 21
17.8875
  0
LINE
  5
62D
100
AcDbEntity
  8
DRAFT
100
AcDbLine
 62
7
  6
CONTINUOUS
 10
23.7124774622
 20
15.0556469326
 11
23.7124774622
 21
14.4875
  0
LINE
  5
62E
100
AcDbEntity
  8
0
100
AcDbLine
 62
7
  6
CONTINUOUS
 10
24.0192064232
 20
17.8875
 11
24.0192064232
 21
11.7875
  0
LINE
  5
62F
100
AcDbEntity
  8
0
100
AcDbLine
 62
7
  6
CONTINUOUS
 10
24.0192064232
 20
-11.0625
 11
24.0192064232
 21
-17.1625
  0
LINE
  5
630
100
AcDbEntity
  8
ASSI
100
AcDbLine
 62
7
  6
CONTINUOUS
 10
20.7949547473
 20
2.3250408109
 11
20.7818717473
 21
2.1755083109
  0
LINE
  5
631
100
AcDbEntity
  8
ASSI
100
AcDbLine
 62
7
  6
CONTINUOUS
 10
20.7455627473
 20
1.7604918109
 11
20.6365332473
 21
0.5142833109
  0
LINE
  5
632
100
AcDbEntity
  8
ASSI
100
AcDbLine
 62
7
  6
CONTINUOUS
 10
20.6280272473
 20
0.4170538109
 11
20.6043327144
 21
0.1462264345
  0
LINE
  5
633
100
AcDbEntity
  8
ASSI
100
AcDbLine
 62
7
  6
CONTINUOUS
 10
20.7786012473
 20
2.1381248109
 11
20.7557002473
 21
1.8763648109
  0
LINE
  5
634
100
AcDbEntity
  8
ASSI
100
AcDbLine
 62
7
  6
CONTINUOUS
 10
20.7968242473
 20
1.9174883109
 11
20.8161277473
 21
2.1381248109
  0
LINE
  5
635
100
AcDbEntity
  8
ASSI
100
AcDbLine
 62
7
  6
CONTINUOUS
 10
20.8193977473
 20
2.1755083109
 11
20.8324802473
 21
2.3250408109
  0
LINE
  5
636
100
AcDbEntity
  8
ASSI
100
AcDbLine
 62
7
  6
CONTINUOUS
 10
20.6710407473
 20
0.4797758109
 11
20.7834212473
 21
1.7642933109
  0
LINE
  5
637
100
AcDbEntity
  8
ASSI
100
AcDbLine
 62
7
  6
CONTINUOUS
 10
20.6413871925
 20
0.1408330429
 11
20.6625342473
 21
0.3825473109
  0
LINE
  5
638
100
AcDbEntity
  8
DRAFT
100
AcDbLine
 62
7
  6
CONTINUOUS
 10
23.7670192066
 20
11.7875
 11
23.7692064232
 21
11.8125
  0
LINE
  5
639
100
AcDbEntity
  8
ASSI
100
AcDbLine
 62
7
  6
CONTINUOUS
 10
25.70493211
 20
0.6755626327
 11
25.4285690726
 21
0.0631970574
  0
LINE
  5
63A
100
AcDbEntity
  8
ASSI
100
AcDbLine
 62
7
  6
CONTINUOUS
 10
25.1619566243
 20
-0.5275631961
 11
24.8754072106
 21
-1.1625
  0
LINE
  5
63B
100
AcDbEntity
  8
ASSI
100
AcDbLine
 62
7
  6
CONTINUOUS
 10
25.7444741326
 20
-0.4142898381
 11
25.8597290738
 21
-0.1752365724
  0
LINE
  5
63C
100
AcDbEntity
  8
ASSI
100
AcDbLine
 62
7
  6
CONTINUOUS
 10
25.383740179
 20
-1.1625
 11
25.5189339297
 21
-0.8820903836
  0
LINE
  5
63D
100
AcDbEntity
  8
RACCORDO
100
AcDbLine
 62
250
  6
CONTINUOUS
 10
-51.3058849224
 20
9.3625
 11
-51.235738646
 21
9.3800298909
  0
LINE
  5
63E
100
AcDbEntity
  8
RACCORDO
100
AcDbLine
 62
250
  6
CONTINUOUS
 10
-52.3398917815
 20
10.3538112106
 11
-52.2351294731
 21
10.379991814
  0
LINE
  5
63F
100
AcDbEntity
  8
RACCORDO
100
AcDbLine
 62
7
  6
CONTINUOUS
 10
49.4692064232
 20
23.3625
 11
49.2692064232
 21
23.3625
  0
LINE
  5
640
100
AcDbEntity
  8
RACCORDO
100
AcDbLine
 62
250
  6
CONTINUOUS
 10
51.2741514925
 20
9.3800298909
 11
51.3442977688
 21
9.3625
  0
LINE
  5
641
100
AcDbEntity
  8
RACCORDO
100
AcDbLine
 62
250
  6
CONTINUOUS
 10
52.2735423195
 20
10.379991814
 11
52.378304628
 21
10.3538112106
  0
LINE
  5
642
100
AcDbEntity
  8
RACCORDO
100
AcDbLine
 62
250
  6
CONTINUOUS
 10
25.2692064232
 20
-25.5866774353
 11
25.2692064232
 21
-8.6375761553
  0
LINE
  5
643
100
AcDbEntity
  8
RACCORDO
100
AcDbLine
 62
250
  6
CONTINUOUS
 10
25.2692064232
 20
9.3625761553
 11
25.2692064232
 21
26.3116774353
  0
LINE
  5
644
100
AcDbEntity
  8
RACCORDO
100
AcDbLine
 62
7
  6
CONTINUOUS
 10
26.2692064232
 20
-24.5523658388
 11
26.2692064232
 21
-9.6462649462
  0
LINE
  5
645
100
AcDbEntity
  8
RACCORDO
100
AcDbLine
 62
7
  6
CONTINUOUS
 10
26.2692064232
 20
10.3712649462
 11
26.2692064232
 21
25.2773658388
  0
LINE
  5
646
100
AcDbEntity
  8
ASSI
100
AcDbLine
 62
7
  6
CONTINUOUS
 10
26.4004072102
 20
-1.1625
 11
26.4004072102
 21
-0.6541664844
  0
LINE
  5
647
100
AcDbEntity
  8
ASSI
100
AcDbLine
 62
7
  6
CONTINUOUS
 10
26.4004072102
 20
1.3791670309
 11
26.4004072102
 21
1.8874999992
  0
LINE
  5
648
100
AcDbEntity
  8
RACCORDO
100
AcDbLine
 62
250
  6
CONTINUOUS
 10
31.2692064232
 20
25.2424450693
 11
52.2735423195
 21
25.2424450692
  0
LINE
  5
649
100
AcDbEntity
  8
RACCORDO
100
AcDbLine
 62
250
  6
CONTINUOUS
 10
26.2692064232
 20
25.2424450693
 11
-52.2351294731
 21
25.2424450693
  0
LINE
  5
64A
100
AcDbEntity
  8
RACCORDO
100
AcDbLine
 62
250
  6
CONTINUOUS
 10
31.2698155962
 20
25.3122866082
 11
26.2685972502
 21
25.3122866082
  0
LINE
  5
64B
100
AcDbEntity
  8
RACCORDO
100
AcDbLine
 62
250
  6
CONTINUOUS
 10
51.2741514925
 20
26.2418358963
 11
32.2692064232
 21
26.2418358963
  0
LINE
  5
64C
100
AcDbEntity
  8
RACCORDO
100
AcDbLine
 62
250
  6
CONTINUOUS
 10
25.2692064232
 20
26.2418358963
 11
-51.235738646
 21
26.2418358963
  0
LINE
  5
64D
100
AcDbEntity
  8
RACCORDO
100
AcDbLine
 62
250
  6
CONTINUOUS
 10
32.2692064232
 20
26.3116774353
 11
25.2692064232
 21
26.3116774353
  0
LINE
  5
64E
100
AcDbEntity
  8
RACCORDO
100
AcDbLine
 62
7
  6
CONTINUOUS
 10
51.7692349809
 20
26.4875
 11
-51.7308221345
 21
26.4875
  0
LINE
  5
64F
100
AcDbEntity
  8
DRAFT
100
AcDbLine
 62
7
  6
CONTINUOUS
 10
50.5192064232
 20
27.7375
 11
49.2692064232
 21
27.7375
  0
LINE
  5
650
100
AcDbEntity
  8
RACCORDO
100
AcDbLine
 62
7
  6
CONTINUOUS
 10
-49.3807935768
 20
27.7375
 11
-50.3307935768
 21
27.7375
  0
LINE
  5
651
100
AcDbEntity
  8
RACCORDO
100
AcDbLine
 62
7
  6
CONTINUOUS
 10
31.2692064232
 20
25.2773658388
 11
31.2692064232
 21
10.3712649462
  0
LINE
  5
652
100
AcDbEntity
  8
RACCORDO
100
AcDbLine
 62
7
  6
CONTINUOUS
 10
31.2692064232
 20
-9.6462649462
 11
31.2692064232
 21
-24.5523658388
  0
LINE
  5
653
100
AcDbEntity
  8
RACCORDO
100
AcDbLine
 62
250
  6
CONTINUOUS
 10
32.2692064232
 20
-25.5866774353
 11
32.2692064232
 21
-8.6375761553
  0
LINE
  5
654
100
AcDbEntity
  8
RACCORDO
100
AcDbLine
 62
250
  6
CONTINUOUS
 10
32.2692064232
 20
9.3625761553
 11
32.2692064232
 21
26.3116774353
  0
LINE
  5
655
100
AcDbEntity
  8
RACCORDO
100
AcDbLine
 62
7
  6
CONTINUOUS
 10
-50.3307935768
 20
28.4875
 11
-48.6307935768
 21
28.4875
  0
LINE
  5
656
100
AcDbEntity
  8
DRAFT
100
AcDbLine
 62
7
  6
CONTINUOUS
 10
48.5192064232
 20
28.4875
 11
50.5192064232
 21
28.4875
  0
LINE
  5
657
100
AcDbEntity
  8
DRAFT
100
AcDbLine
 62
7
  6
CONTINUOUS
 10
33.7692064232
 20
-11.0875
 11
33.7670192066
 21
-11.0625
  0
LINE
  5
658
100
AcDbEntity
  8
DRAFT
100
AcDbLine
 62
7
  6
CONTINUOUS
 10
36.2692064232
 20
-11.0875
 11
36.2670192066
 21
-11.0625
  0
LINE
  5
659
100
AcDbEntity
  8
0
100
AcDbLine
 62
7
  6
CONTINUOUS
 10
33.0192064232
 20
-17.1625
 11
33.0192064232
 21
-11.0625
  0
LINE
  5
65A
100
AcDbEntity
  8
0
100
AcDbLine
 62
7
  6
CONTINUOUS
 10
33.0192064232
 20
11.7875
 11
33.0192064232
 21
17.8875
  0
LINE
  5
65B
100
AcDbEntity
  8
DRAFT
100
AcDbLine
 62
7
  6
CONTINUOUS
 10
33.7124774622
 20
15.0556469326
 11
33.7124774622
 21
14.4875
  0
LINE
  5
65C
100
AcDbEntity
  8
0
100
AcDbLine
 62
7
  6
CONTINUOUS
 10
34.0192064232
 20
17.8875
 11
34.0192064232
 21
11.7875
  0
LINE
  5
65D
100
AcDbEntity
  8
0
100
AcDbLine
 62
7
  6
CONTINUOUS
 10
34.0192064232
 20
-11.0625
 11
34.0192064232
 21
-17.1625
  0
LINE
  5
65E
100
AcDbEntity
  8
0
100
AcDbLine
 62
7
  6
CONTINUOUS
 10
35.5192064232
 20
-17.1625
 11
35.5192064232
 21
-11.0625
  0
LINE
  5
65F
100
AcDbEntity
  8
0
100
AcDbLine
 62
7
  6
CONTINUOUS
 10
35.5192064232
 20
11.7875
 11
35.5192064232
 21
17.8875
  0
LINE
  5
660
100
AcDbEntity
  8
DRAFT
100
AcDbLine
 62
7
  6
CONTINUOUS
 10
36.0192064232
 20
-17.1625
 11
36.0192064232
 21
-15.7625
  0
LINE
  5
661
100
AcDbEntity
  8
DRAFT
100
AcDbLine
 62
7
  6
CONTINUOUS
 10
36.2124774622
 20
15.0556469326
 11
36.2124774622
 21
14.4875
  0
LINE
  5
662
100
AcDbEntity
  8
DRAFT
100
AcDbLine
 62
7
  6
CONTINUOUS
 10
33.7670192066
 20
11.7875
 11
33.7692064232
 21
11.8125
  0
LINE
  5
663
100
AcDbEntity
  8
DRAFT
100
AcDbLine
 62
7
  6
CONTINUOUS
 10
36.2670192066
 20
11.7875
 11
36.2692064232
 21
11.8125
  0
LINE
  5
664
100
AcDbEntity
  8
DRAFT
100
AcDbLine
 62
7
  6
CONTINUOUS
 10
38.7692064232
 20
-11.0875
 11
38.7670192066
 21
-11.0625
  0
LINE
  5
665
100
AcDbEntity
  8
DRAFT
100
AcDbLine
 62
7
  6
CONTINUOUS
 10
41.2692064232
 20
-11.0875
 11
41.2670192066
 21
-11.0625
  0
LINE
  5
666
100
AcDbEntity
  8
0
100
AcDbLine
 62
7
  6
CONTINUOUS
 10
36.5192064232
 20
17.8875
 11
36.5192064232
 21
11.7875
  0
LINE
  5
667
100
AcDbEntity
  8
0
100
AcDbLine
 62
7
  6
CONTINUOUS
 10
36.5192064232
 20
-11.0625
 11
36.5192064232
 21
-17.1625
  0
LINE
  5
668
100
AcDbEntity
  8
RACCORDO
100
AcDbLine
 62
7
  6
CONTINUOUS
 10
36.7692064232
 20
-17.9375
 11
36.7692064232
 21
-18.1375
  0
LINE
  5
669
100
AcDbEntity
  8
RACCORDO
100
AcDbLine
 62
7
  6
CONTINUOUS
 10
36.7692064232
 20
-24.1375
 11
36.7692064232
 21
-24.3375
  0
LINE
  5
66A
100
AcDbEntity
  8
DRAFT
100
AcDbLine
 62
7
  6
CONTINUOUS
 10
36.9324762147
 20
-21.7674680286
 11
36.9324762147
 21
-20.5075319714
  0
LINE
  5
66B
100
AcDbEntity
  8
0
100
AcDbLine
 62
7
  6
CONTINUOUS
 10
38.0192064232
 20
-17.1625
 11
38.0192064232
 21
-11.0625
  0
LINE
  5
66C
100
AcDbEntity
  8
0
100
AcDbLine
 62
7
  6
CONTINUOUS
 10
38.0192064232
 20
11.7875
 11
38.0192064232
 21
17.8875
  0
LINE
  5
66D
100
AcDbEntity
  8
DRAFT
100
AcDbLine
 62
250
  6
CONTINUOUS
 10
38.0692064232
 20
-19.8375
 11
38.0692064232
 21
-19.7611399068
  0
LINE
  5
66E
100
AcDbEntity
  8
DRAFT
100
AcDbLine
 62
250
  6
CONTINUOUS
 10
38.0692064232
 20
-22.4375
 11
38.0692064232
 21
-22.5138600932
  0
LINE
  5
66F
100
AcDbEntity
  8
DRAFT
100
AcDbLine
 62
7
  6
CONTINUOUS
 10
38.3059366317
 20
-22.4375
 11
38.3059366317
 21
-19.8375
  0
LINE
  5
670
100
AcDbEntity
  8
DRAFT
100
AcDbLine
 62
7
  6
CONTINUOUS
 10
38.7124774622
 20
15.0556469326
 11
38.7124774622
 21
14.4875
  0
LINE
  5
671
100
AcDbEntity
  8
0
100
AcDbLine
 62
7
  6
CONTINUOUS
 10
39.0192064232
 20
17.8875
 11
39.0192064232
 21
11.7875
  0
LINE
  5
672
100
AcDbEntity
  8
0
100
AcDbLine
 62
7
  6
CONTINUOUS
 10
39.0192064232
 20
-11.0625
 11
39.0192064232
 21
-17.1625
  0
LINE
  5
673
100
AcDbEntity
  8
DRAFT
100
AcDbLine
 62
7
  6
CONTINUOUS
 10
39.4324762147
 20
-22.4375
 11
39.4324762147
 21
-19.8375
  0
LINE
  5
674
100
AcDbEntity
  8
DRAFT
100
AcDbLine
 62
7
  6
CONTINUOUS
 10
38.7670192066
 20
11.7875
 11
38.7692064232
 21
11.8125
  0
LINE
  5
675
100
AcDbEntity
  8
DRAFT
100
AcDbLine
 62
7
  6
CONTINUOUS
 10
41.2670192066
 20
11.7875
 11
41.2692064232
 21
11.8125
  0
LINE
  5
676
100
AcDbEntity
  8
DRAFT
100
AcDbLine
 62
250
  6
CONTINUOUS
 10
40.4692064232
 20
-19.8375
 11
40.4692064232
 21
-19.7611399068
  0
LINE
  5
677
100
AcDbEntity
  8
DRAFT
100
AcDbLine
 62
250
  6
CONTINUOUS
 10
40.4692064232
 20
-22.4375
 11
40.4692064232
 21
-22.5138600932
  0
LINE
  5
678
100
AcDbEntity
  8
0
100
AcDbLine
 62
7
  6
CONTINUOUS
 10
40.5192064232
 20
-17.1625
 11
40.5192064232
 21
-11.0625
  0
LINE
  5
679
100
AcDbEntity
  8
0
100
AcDbLine
 62
7
  6
CONTINUOUS
 10
40.5192064232
 20
11.7875
 11
40.5192064232
 21
17.8875
  0
LINE
  5
67A
100
AcDbEntity
  8
DRAFT
100
AcDbLine
 62
7
  6
CONTINUOUS
 10
41.2124774622
 20
15.0556469326
 11
41.2124774622
 21
14.4875
  0
LINE
  5
67B
100
AcDbEntity
  8
0
100
AcDbLine
 62
7
  6
CONTINUOUS
 10
41.5192064232
 20
17.8875
 11
41.5192064232
 21
11.7875
  0
LINE
  5
67C
100
AcDbEntity
  8
0
100
AcDbLine
 62
7
  6
CONTINUOUS
 10
41.5192064232
 20
-11.0625
 11
41.5192064232
 21
-17.1625
  0
LINE
  5
67D
100
AcDbEntity
  8
RACCORDO
100
AcDbLine
 62
7
  6
CONTINUOUS
 10
41.7692064232
 20
-24.3375
 11
41.7692064232
 21
-24.1375
  0
LINE
  5
67E
100
AcDbEntity
  8
RACCORDO
100
AcDbLine
 62
7
  6
CONTINUOUS
 10
41.7692064232
 20
-18.1375
 11
41.7692064232
 21
-17.9375
  0
LINE
  5
67F
100
AcDbEntity
  8
0
100
AcDbLine
 62
7
  6
CONTINUOUS
 10
43.0192064232
 20
-17.1625
 11
43.0192064232
 21
-11.0625
  0
LINE
  5
680
100
AcDbEntity
  8
0
100
AcDbLine
 62
7
  6
CONTINUOUS
 10
43.0192064232
 20
11.7875
 11
43.0192064232
 21
17.8875
  0
LINE
  5
681
100
AcDbEntity
  8
RACCORDO
100
AcDbLine
 62
7
  6
CONTINUOUS
 10
43.5192064232
 20
-11.0625
 11
43.5192064232
 21
-14.4125
  0
LINE
  5
682
100
AcDbEntity
  8
RACCORDO
100
AcDbLine
 62
250
  6
CONTINUOUS
 10
43.6497111744
 20
-11.0625
 11
43.6497111744
 21
-14.4125
  0
LINE
  5
683
100
AcDbEntity
  8
DRAFT
100
AcDbLine
 62
7
  6
CONTINUOUS
 10
43.7124774622
 20
15.0556469326
 11
43.7124774622
 21
14.4875
  0
LINE
  5
684
100
AcDbEntity
  8
0
100
AcDbLine
 62
7
  6
CONTINUOUS
 10
44.0192064232
 20
17.8875
 11
44.0192064232
 21
11.7875
  0
LINE
  5
685
100
AcDbEntity
  8
0
100
AcDbLine
 62
7
  6
CONTINUOUS
 10
44.0192064232
 20
-11.0625
 11
44.0192064232
 21
-17.1625
  0
LINE
  5
686
100
AcDbEntity
  8
DRAFT
100
AcDbLine
 62
7
  6
CONTINUOUS
 10
43.7670192066
 20
11.7875
 11
43.7692064232
 21
11.8125
  0
LINE
  5
687
100
AcDbEntity
  8
DRAFT
100
AcDbLine
 62
7
  6
CONTINUOUS
 10
46.8692064232
 20
9.3625
 11
46.8692064232
 21
7.8125
  0
LINE
  5
688
100
AcDbEntity
  8
RACCORDO
100
AcDbLine
 62
7
  6
CONTINUOUS
 10
47.0692064232
 20
8.0125
 11
47.0692064232
 21
10.379991814
  0
LINE
  5
689
100
AcDbEntity
  8
DRAFT
100
AcDbLine
 62
7
  6
CONTINUOUS
 10
48.5192064232
 20
26.4875
 11
48.5192064232
 21
28.4875
  0
LINE
  5
68A
100
AcDbEntity
  8
RACCORDO
100
AcDbLine
 62
7
  6
CONTINUOUS
 10
49.0192064232
 20
23.1125
 11
49.0192064232
 21
19.1125
  0
LINE
  5
68B
100
AcDbEntity
  8
DRAFT
100
AcDbLine
 62
7
  6
CONTINUOUS
 10
49.2692064232
 20
27.7375
 11
49.2692064232
 21
26.4875
  0
LINE
  5
68C
100
AcDbEntity
  8
RACCORDO
100
AcDbLine
 62
250
  6
CONTINUOUS
 10
49.2692064232
 20
23.3625
 11
49.2692064232
 21
18.8625
  0
LINE
  5
68D
100
AcDbEntity
  8
RACCORDO
100
AcDbLine
 62
250
  6
CONTINUOUS
 10
49.4692064232
 20
18.8625
 11
49.4692064232
 21
23.3625
  0
LINE
  5
68E
100
AcDbEntity
  8
RACCORDO
100
AcDbLine
 62
7
  6
CONTINUOUS
 10
49.7192064232
 20
19.1125
 11
49.7192064232
 21
23.1125
  0
LINE
  5
68F
100
AcDbEntity
  8
DRAFT
100
AcDbLine
 62
7
  6
CONTINUOUS
 10
50.1373533558
 20
8.0125
 11
50.1373533558
 21
7.8125
  0
LINE
  5
690
100
AcDbEntity
  8
DRAFT
100
AcDbLine
 62
7
  6
CONTINUOUS
 10
50.1692064232
 20
8.0125
 11
50.1692064232
 21
7.8125
  0
LINE
  5
691
100
AcDbEntity
  8
DRAFT
100
AcDbLine
 62
7
  6
CONTINUOUS
 10
50.5192064232
 20
28.4875
 11
50.5192064232
 21
27.7375
  0
LINE
  5
692
100
AcDbEntity
  8
RACCORDO
100
AcDbLine
 62
7
  6
CONTINUOUS
 10
51.0692064232
 20
8.0125
 11
51.0692064232
 21
10.379991814
  0
LINE
  5
693
100
AcDbEntity
  8
DRAFT
100
AcDbLine
 62
7
  6
CONTINUOUS
 10
51.2491330986
 20
9.346791638
 11
51.2491330986
 21
7.8125
  0
LINE
  5
694
100
AcDbEntity
  8
DRAFT
100
AcDbLine
 62
7
  6
CONTINUOUS
 10
51.2692064232
 20
9.346791638
 11
51.2692064232
 21
7.8125
  0
LINE
  5
695
100
AcDbEntity
  8
RACCORDO
100
AcDbLine
 62
250
  6
CONTINUOUS
 10
51.2741514924
 20
-25.5168358963
 11
51.2741514925
 21
-8.6550298909
  0
LINE
  5
696
100
AcDbEntity
  8
RACCORDO
100
AcDbLine
 62
250
  6
CONTINUOUS
 10
51.2741514925
 20
9.3800298909
 11
51.2741514925
 21
26.2418358963
  0
LINE
  5
697
100
AcDbEntity
  8
DRAFT
100
AcDbLine
 62
7
  6
CONTINUOUS
 10
51.277933291
 20
9.3625
 11
51.277933291
 21
7.8125
  0
LINE
  5
698
100
AcDbEntity
  8
RACCORDO
100
AcDbLine
 62
250
  6
CONTINUOUS
 10
51.378913801
 20
9.3630986134
 11
51.378913801
 21
-8.6380986134
  0
LINE
  5
699
100
AcDbEntity
  8
RACCORDO
100
AcDbLine
 62
250
  6
CONTINUOUS
 10
52.2735423195
 20
-24.5174450693
 11
52.2735423195
 21
-9.654991814
  0
LINE
  5
69A
100
AcDbEntity
  8
RACCORDO
100
AcDbLine
 62
250
  6
CONTINUOUS
 10
52.2735423195
 20
10.379991814
 11
52.2735423195
 21
25.2424450693
  0
LINE
  5
69B
100
AcDbEntity
  8
RACCORDO
100
AcDbLine
 62
250
  6
CONTINUOUS
 10
52.378304628
 20
10.3538112106
 11
52.378304628
 21
-9.6288112106
  0
LINE
  5
69C
100
AcDbEntity
  8
RACCORDO
100
AcDbLine
 62
7
  6
CONTINUOUS
 10
52.5192064232
 20
-25.0125285577
 11
52.5192064232
 21
25.7375285577
  0
ARC
  5
69D
100
AcDbEntity
  8
RACCORDO
100
AcDbCircle
 62
7
  6
CONTINUOUS
 10
-14.4807935768
 20
-12.1375
 40
2.0
100
AcDbArc
 50
270.0
 51
300.0
  0
ARC
  5
69E
100
AcDbEntity
  8
RACCORDO
100
AcDbCircle
 62
7
  6
CONTINUOUS
 10
-15.4807935768
 20
-12.1375
 40
2.0
100
AcDbArc
 50
221.3939685908
 51
255.5193701968
  0
ARC
  5
69F
100
AcDbEntity
  8
ASSI
100
AcDbCircle
 62
7
  6
CONTINUOUS
 10
-5.6910023472
 20
-0.5801770557
 40
1.9682073486
100
AcDbArc
 50
159.0191965858
 51
163.7921491218
  0
ARC
  5
6A0
100
AcDbEntity
  8
ASSI
100
AcDbCircle
 62
7
  6
CONTINUOUS
 10
-25.9513701708
 20
-0.5801770557
 40
1.9682073486
100
AcDbArc
 50
159.0191965858
 51
163.7921491218
  0
ARC
  5
6A1
100
AcDbEntity
  8
ASSI
100
AcDbCircle
 62
7
  6
CONTINUOUS
 10
-30.074957701
 20
-0.5801770557
 40
1.9682073486
100
AcDbArc
 50
159.0191965858
 51
163.7921491218
  0
ARC
  5
6A2
100
AcDbEntity
  8
ASSI
100
AcDbCircle
 62
7
  6
CONTINUOUS
 10
-37.6588984036
 20
-0.5801770557
 40
1.9682073486
100
AcDbArc
 50
159.0191965858
 51
163.7921491218
  0
ARC
  5
6A3
100
AcDbEntity
  8
ASSI
100
AcDbCircle
 62
7
  6
CONTINUOUS
 10
-5.8557707201
 20
0.9470460521
 40
1.079604633
100
AcDbArc
 50
337.4191892411
 51
347.6454766647
  0
ARC
  5
6A4
100
AcDbEntity
  8
ASSI
100
AcDbCircle
 62
7
  6
CONTINUOUS
 10
-9.9043839316
 20
0.9470460521
 40
1.079604633
100
AcDbArc
 50
337.4191892411
 51
347.6454766647
  0
ARC
  5
6A5
100
AcDbEntity
  8
ASSI
100
AcDbCircle
 62
7
  6
CONTINUOUS
 10
-15.7927515797
 20
0.9470460521
 40
1.079604633
100
AcDbArc
 50
337.4191892411
 51
347.6454766647
  0
ARC
  5
6A6
100
AcDbEntity
  8
ASSI
100
AcDbCircle
 62
7
  6
CONTINUOUS
 10
-24.0572284061
 20
0.9470460521
 40
1.079604633
100
AcDbArc
 50
337.4191892411
 51
347.6454766647
  0
ARC
  5
6A7
100
AcDbEntity
  8
ASSI
100
AcDbCircle
 62
7
  6
CONTINUOUS
 10
-31.7853504909
 20
0.9470460521
 40
1.079604633
100
AcDbArc
 50
337.4191892411
 51
347.6454766647
  0
ARC
  5
6A8
100
AcDbEntity
  8
ASSI
100
AcDbCircle
 62
7
  6
CONTINUOUS
 10
-34.2883392855
 20
0.9470460521
 40
1.079604633
100
AcDbArc
 50
337.4191892411
 51
347.6454766647
  0
ARC
  5
6A9
100
AcDbEntity
  8
ASSI
100
AcDbCircle
 62
7
  6
CONTINUOUS
 10
-38.2619781783
 20
0.9470460521
 40
1.079604633
100
AcDbArc
 50
337.4191892411
 51
347.6454766647
  0
ARC
  5
6AA
100
AcDbEntity
  8
RACCORDO
100
AcDbCircle
 62
250
  6
CONTINUOUS
 10
-51.2342922586
 20
-24.5159986819
 40
1.0008403876
100
AcDbArc
 50
180.0828025124
 51
269.9171974876
  0
ARC
  5
6AB
100
AcDbEntity
  8
RACCORDO
100
AcDbCircle
 62
250
  6
CONTINUOUS
 10
-5.0911009754
 20
-9.6551145664
 40
1.0000886745
100
AcDbArc
 50
0.007032546
 51
89.985967121
  0
ARC
  5
6AC
100
AcDbEntity
  8
RACCORDO
100
AcDbCircle
 62
250
  6
CONTINUOUS
 10
-51.2350664702
 20
-9.6550530448
 40
1.0000441517
100
AcDbArc
 50
90.0385119406
 51
179.9964919554
  0
ARC
  5
6AD
100
AcDbEntity
  8
RACCORDO
100
AcDbCircle
 62
250
  6
CONTINUOUS
 10
-3.6054687348
 20
-24.5171184356
 40
0.9996955529
100
AcDbArc
 50
269.9813826648
 51
359.9812791884
  0
ARC
  5
6AE
100
AcDbEntity
  8
RACCORDO
100
AcDbCircle
 62
7
  6
CONTINUOUS
 10
-49.4307935768
 20
-22.3875
 40
0.25
100
AcDbArc
 50
180.0
 51
270.0
  0
ARC
  5
6AF
100
AcDbEntity
  8
RACCORDO
100
AcDbCircle
 62
7
  6
CONTINUOUS
 10
-49.4307935768
 20
-18.3875
 40
0.25
100
AcDbArc
 50
90.0
 51
180.0
  0
ARC
  5
6B0
100
AcDbEntity
  8
RACCORDO
100
AcDbCircle
 62
7
  6
CONTINUOUS
 10
-49.2307935768
 20
-22.3875
 40
0.25
100
AcDbArc
 50
270.0
 51
360.0
  0
ARC
  5
6B1
100
AcDbEntity
  8
RACCORDO
100
AcDbCircle
 62
7
  6
CONTINUOUS
 10
-49.2307935768
 20
-18.3875
 40
0.25
100
AcDbArc
 50
0.0
 51
90.0
  0
ARC
  5
6B2
100
AcDbEntity
  8
RACCORDO
100
AcDbCircle
 62
7
  6
CONTINUOUS
 10
-46.4807935768
 20
12.8625
 40
2.0
100
AcDbArc
 50
107.4578965526
 51
164.7687991294
  0
ARC
  5
6B3
100
AcDbEntity
  8
RACCORDO
100
AcDbCircle
 62
7
  6
CONTINUOUS
 10
-15.4807935768
 20
12.8625
 40
2.0
100
AcDbArc
 50
104.4806298032
 51
138.6060314092
  0
ARC
  5
6B4
100
AcDbEntity
  8
RACCORDO
100
AcDbCircle
 62
7
  6
CONTINUOUS
 10
-14.4807935768
 20
12.8625
 40
2.0
100
AcDbArc
 50
60.0
 51
90.0
  0
ARC
  5
6B5
100
AcDbEntity
  8
DRAFT
100
AcDbCircle
 62
7
  6
CONTINUOUS
 10
-48.3807935768
 20
17.0875
 40
1.3763600932
100
AcDbArc
 50
0.0
 51
180.0
  0
ARC
  5
6B6
100
AcDbEntity
  8
DRAFT
100
AcDbCircle
 62
7
  6
CONTINUOUS
 10
-48.3807935768
 20
14.6875
 40
1.3763600932
100
AcDbArc
 50
180.0
 51
360.0
  0
ARC
  5
6B7
100
AcDbEntity
  8
DRAFT
100
AcDbCircle
 62
7
  6
CONTINUOUS
 10
-48.3807935768
 20
14.6875
 40
1.3
100
AcDbArc
 50
180.0
 51
360.0
  0
ARC
  5
6B8
100
AcDbEntity
  8
DRAFT
100
AcDbCircle
 62
7
  6
CONTINUOUS
 10
-48.3807935768
 20
17.0875
 40
1.3
100
AcDbArc
 50
0.0
 51
180.0
  0
ARC
  5
6B9
100
AcDbEntity
  8
RACCORDO
100
AcDbCircle
 62
250
  6
CONTINUOUS
 10
-51.2342922585
 20
25.2409986817
 40
1.0008403878
100
AcDbArc
 50
90.0828025198
 51
179.9171974802
  0
ARC
  5
6BA
100
AcDbEntity
  8
RACCORDO
100
AcDbCircle
 62
250
  6
CONTINUOUS
 10
-51.2350664728
 20
10.380053046
 40
1.0000441519
100
AcDbArc
 50
180.0035081149
 51
269.9614882102
  0
ARC
  5
6BB
100
AcDbEntity
  8
RACCORDO
100
AcDbCircle
 62
7
  6
CONTINUOUS
 10
-51.4307935768
 20
13.6375
 40
0.25
100
AcDbArc
 50
270.0
 51
360.0
  0
ARC
  5
6BC
100
AcDbEntity
  8
RACCORDO
100
AcDbCircle
 62
7
  6
CONTINUOUS
 10
-51.4307935768
 20
18.1375
 40
0.25
100
AcDbArc
 50
0.0
 51
90.0
  0
ARC
  5
6BD
100
AcDbEntity
  8
RACCORDO
100
AcDbCircle
 62
7
  6
CONTINUOUS
 10
-45.3307935768
 20
13.6375
 40
0.25
100
AcDbArc
 50
180.0
 51
270.0
  0
ARC
  5
6BE
100
AcDbEntity
  8
RACCORDO
100
AcDbCircle
 62
7
  6
CONTINUOUS
 10
-45.3307935768
 20
18.1375
 40
0.25
100
AcDbArc
 50
90.0
 51
180.0
  0
ARC
  5
6BF
100
AcDbEntity
  8
RACCORDO
100
AcDbCircle
 62
7
  6
CONTINUOUS
 10
-45.1307935768
 20
13.6375
 40
0.25
100
AcDbArc
 50
270.0
 51
360.0
  0
ARC
  5
6C0
100
AcDbEntity
  8
RACCORDO
100
AcDbCircle
 62
7
  6
CONTINUOUS
 10
-45.1307935768
 20
18.1375
 40
0.25
100
AcDbArc
 50
0.0
 51
90.0
  0
ARC
  5
6C1
100
AcDbEntity
  8
RACCORDO
100
AcDbCircle
 62
7
  6
CONTINUOUS
 10
-51.6307935768
 20
18.1375
 40
0.25
100
AcDbArc
 50
90.0
 51
180.0
  0
ARC
  5
6C2
100
AcDbEntity
  8
RACCORDO
100
AcDbCircle
 62
7
  6
CONTINUOUS
 10
-51.6307935768
 20
13.6375
 40
0.25
100
AcDbArc
 50
180.0
 51
270.0
  0
ARC
  5
6C3
100
AcDbEntity
  8
RACCORDO
100
AcDbCircle
 62
7
  6
CONTINUOUS
 10
-49.3807935768
 20
27.5875
 40
0.15
100
AcDbArc
 50
0.0
 51
90.0
  0
ARC
  5
6C4
100
AcDbEntity
  8
RACCORDO
100
AcDbCircle
 62
7
  6
CONTINUOUS
 10
-48.6307935768
 20
28.3375
 40
0.15
100
AcDbArc
 50
0.0
 51
90.0
  0
ARC
  5
6C5
100
AcDbEntity
  8
RACCORDO
100
AcDbCircle
 62
7
  6
CONTINUOUS
 10
-50.3307935768
 20
27.8875
 40
0.15
100
AcDbArc
 50
180.0
 51
270.0
  0
ARC
  5
6C6
100
AcDbEntity
  8
RACCORDO
100
AcDbCircle
 62
7
  6
CONTINUOUS
 10
-50.3307935768
 20
28.3375
 40
0.15
100
AcDbArc
 50
90.0
 51
180.0
  0
ARC
  5
6C7
100
AcDbEntity
  8
RACCORDO
100
AcDbCircle
 62
250
  6
CONTINUOUS
 10
25.2695312664
 20
-24.517118433
 40
0.9996955527
100
AcDbArc
 50
269.9813825966
 51
359.9812790404
  0
ARC
  5
6C8
100
AcDbEntity
  8
RACCORDO
100
AcDbCircle
 62
250
  6
CONTINUOUS
 10
3.6438815812
 20
-24.5171184356
 40
0.9996955529
100
AcDbArc
 50
180.0187208128
 51
270.0186173343
  0
ARC
  5
6C9
100
AcDbEntity
  8
0
100
AcDbCircle
 62
250
  6
CONTINUOUS
 10
1.6709492077
 20
-14.9917834448
 40
0.1544505322
100
AcDbArc
 50
114.5885227553
 51
121.049631624
  0
ARC
  5
6CA
100
AcDbEntity
  8
0
100
AcDbCircle
 62
7
  6
CONTINUOUS
 10
1.6692322737
 20
-14.68756121
 40
0.1499460973
100
AcDbArc
 50
0.0233845131
 51
112.3338344912
  0
ARC
  5
6CB
100
AcDbEntity
  8
ASSI
100
AcDbCircle
 62
7
  6
CONTINUOUS
 10
19.9122722008
 20
0.7923284307
 40
1.9626193486
100
AcDbArc
 50
66.1507656662
 51
77.0671262523
  0
ARC
  5
6CC
100
AcDbEntity
  8
ASSI
100
AcDbCircle
 62
7
  6
CONTINUOUS
 10
19.9122727473
 20
0.7923308109
 40
1.9626171233
100
AcDbArc
 50
104.6184599962
 51
108.0305274071
  0
ARC
  5
6CD
100
AcDbEntity
  8
ASSI
100
AcDbCircle
 62
7
  6
CONTINUOUS
 10
19.9122727473
 20
0.7923308109
 40
1.9626169941
100
AcDbArc
 50
109.1820962274
 51
112.6110327739
  0
ARC
  5
6CE
100
AcDbEntity
  8
ASSI
100
AcDbCircle
 62
7
  6
CONTINUOUS
 10
19.9122727473
 20
0.7923308109
 40
1.9626167199
100
AcDbArc
 50
78.1844571259
 51
90.8185424079
  0
ARC
  5
6CF
100
AcDbEntity
  8
ASSI
100
AcDbCircle
 62
7
  6
CONTINUOUS
 10
19.9122727473
 20
0.7923308109
 40
1.9626165781
100
AcDbArc
 50
91.9102115712
 51
103.4934032385
  0
ARC
  5
6D0
100
AcDbEntity
  8
ASSI
100
AcDbCircle
 62
7
  6
CONTINUOUS
 10
19.9122727473
 20
0.7923308109
 40
1.9252339761
100
AcDbArc
 50
109.5695884542
 51
111.7987181432
  0
ARC
  5
6D1
100
AcDbEntity
  8
ASSI
100
AcDbCircle
 62
7
  6
CONTINUOUS
 10
19.9122726455
 20
0.7923303763
 40
1.9252339187
100
AcDbArc
 50
66.0805562364
 51
76.8115157989
  0
ARC
  5
6D2
100
AcDbEntity
  8
ASSI
100
AcDbCircle
 62
7
  6
CONTINUOUS
 10
19.9122727473
 20
0.7923308109
 40
1.925233769
100
AcDbArc
 50
91.9473168422
 51
103.7605121028
  0
ARC
  5
6D3
100
AcDbEntity
  8
ASSI
100
AcDbCircle
 62
7
  6
CONTINUOUS
 10
19.9122727473
 20
0.7923308109
 40
1.9252335761
100
AcDbArc
 50
104.9088315982
 51
108.3930507127
  0
ARC
  5
6D4
100
AcDbEntity
  8
ASSI
100
AcDbCircle
 62
7
  6
CONTINUOUS
 10
19.9122727473
 20
0.7923308109
 40
1.9252334015
100
AcDbArc
 50
77.9516186991
 51
90.8344375197
  0
ARC
  5
6D5
100
AcDbEntity
  8
ASSI
100
AcDbCircle
 62
7
  6
CONTINUOUS
 10
13.0094114232
 20
0.362494
 40
1.2750000176
100
AcDbArc
 50
84.2608296022
 51
275.7391703978
  0
ARC
  5
6D6
100
AcDbEntity
  8
ASSI
100
AcDbCircle
 62
7
  6
CONTINUOUS
 10
15.1769114232
 20
0.362494
 40
1.2750000176
100
AcDbArc
 50
84.2608296022
 51
275.7391703978
  0
ARC
  5
6D7
100
AcDbEntity
  8
RACCORDO
100
AcDbCircle
 62
250
  6
CONTINUOUS
 10
5.1295138218
 20
-9.6551145664
 40
1.0000886745
100
AcDbArc
 50
90.0140328791
 51
179.9929674541
  0
ARC
  5
6D8
100
AcDbEntity
  8
RACCORDO
100
AcDbCircle
 62
250
  6
CONTINUOUS
 10
25.2692254613
 20
-9.6550108528
 40
0.9999809621
100
AcDbArc
 50
0.0010908654
 51
90.0010908239
  0
ARC
  5
6D9
100
AcDbEntity
  8
ASSI
100
AcDbCircle
 62
7
  6
CONTINUOUS
 10
15.1769114232
 20
0.362494
 40
0.8925000872
100
AcDbArc
 50
81.7867901066
 51
167.6263761709
  0
ARC
  5
6DA
100
AcDbEntity
  8
ASSI
100
AcDbCircle
 62
7
  6
CONTINUOUS
 10
13.0094114232
 20
0.362494
 40
0.8925000872
100
AcDbArc
 50
81.7867901066
 51
278.2132098934
  0
ARC
  5
6DB
100
AcDbEntity
  8
ASSI
100
AcDbCircle
 62
7
  6
CONTINUOUS
 10
15.1769114232
 20
0.362494
 40
0.8924998646
100
AcDbArc
 50
192.373627023
 51
278.2132119317
  0
ARC
  5
6DC
100
AcDbEntity
  8
ASSI
100
AcDbCircle
 62
7
  6
CONTINUOUS
 10
20.5758237473
 20
-0.1796316891
 40
0.3271028553
100
AcDbArc
 50
84.9999868542
 51
176.7241833468
  0
ARC
  5
6DD
100
AcDbEntity
  8
ASSI
100
AcDbCircle
 62
7
  6
CONTINUOUS
 10
20.5758237473
 20
-0.1796316891
 40
0.3271027511
100
AcDbArc
 50
183.2758166532
 51
78.4374939936
  0
CIRCLE
  5
6DE
100
AcDbEntity
  8
ASSI
100
AcDbCircle
 62
7
  6
CONTINUOUS
 10
26.4004069232
 20
0.3625005
 40
0.2541665
  0
CIRCLE
  5
6DF
100
AcDbEntity
  8
ASSI
100
AcDbCircle
 62
7
  6
CONTINUOUS
 10
20.5758237473
 20
-0.1796316891
 40
0.186916
  0
CIRCLE
  5
6E0
100
AcDbEntity
  8
ASSI
100
AcDbCircle
 62
7
  6
CONTINUOUS
 10
20.5758237473
 20
-0.1796316891
 40
0.1121495
  0
ARC
  5
6E1
100
AcDbEntity
  8
DRAFT
100
AcDbCircle
 62
7
  6
CONTINUOUS
 10
40.4692064232
 20
-21.1375
 40
1.3763600932
100
AcDbArc
 50
270.0
 51
90.0
  0
ARC
  5
6E2
100
AcDbEntity
  8
DRAFT
100
AcDbCircle
 62
7
  6
CONTINUOUS
 10
38.0692064232
 20
-21.1375
 40
1.3763600932
100
AcDbArc
 50
90.0
 51
270.0
  0
ARC
  5
6E3
100
AcDbEntity
  8
DRAFT
100
AcDbCircle
 62
7
  6
CONTINUOUS
 10
38.0692064232
 20
-21.1375
 40
1.3
100
AcDbArc
 50
90.0
 51
270.0
  0
ARC
  5
6E4
100
AcDbEntity
  8
DRAFT
100
AcDbCircle
 62
7
  6
CONTINUOUS
 10
40.4692064232
 20
-21.1375
 40
1.3
100
AcDbArc
 50
270.0
 51
90.0
  0
ARC
  5
6E5
100
AcDbEntity
  8
RACCORDO
100
AcDbCircle
 62
250
  6
CONTINUOUS
 10
51.2726871327
 20
-24.5159807095
 40
1.000862505
100
AcDbArc
 50
270.0838298822
 51
359.9161701178
  0
ARC
  5
6E6
100
AcDbEntity
  8
RACCORDO
100
AcDbCircle
 62
250
  6
CONTINUOUS
 10
32.26888158
 20
-24.517118433
 40
0.9996955527
100
AcDbArc
 50
180.0187209607
 51
270.0186174024
  0
ARC
  5
6E7
100
AcDbEntity
  8
RACCORDO
100
AcDbCircle
 62
7
  6
CONTINUOUS
 10
41.5192064232
 20
-24.1375
 40
0.25
100
AcDbArc
 50
0.0
 51
90.0
  0
ARC
  5
6E8
100
AcDbEntity
  8
RACCORDO
100
AcDbCircle
 62
7
  6
CONTINUOUS
 10
37.0192064232
 20
-24.1375
 40
0.25
100
AcDbArc
 50
90.0
 51
180.0
  0
ARC
  5
6E9
100
AcDbEntity
  8
RACCORDO
100
AcDbCircle
 62
7
  6
CONTINUOUS
 10
37.0192064232
 20
-24.3375
 40
0.25
100
AcDbArc
 50
180.0
 51
270.0
  0
ARC
  5
6EA
100
AcDbEntity
  8
RACCORDO
100
AcDbCircle
 62
7
  6
CONTINUOUS
 10
41.5192064232
 20
-24.3375
 40
0.25
100
AcDbArc
 50
270.0
 51
360.0
  0
ARC
  5
6EB
100
AcDbEntity
  8
RACCORDO
100
AcDbCircle
 62
7
  6
CONTINUOUS
 10
41.5192064232
 20
-17.9375
 40
0.25
100
AcDbArc
 50
0.0
 51
90.0
  0
ARC
  5
6EC
100
AcDbEntity
  8
RACCORDO
100
AcDbCircle
 62
7
  6
CONTINUOUS
 10
37.0192064232
 20
-17.9375
 40
0.25
100
AcDbArc
 50
90.0
 51
180.0
  0
ARC
  5
6ED
100
AcDbEntity
  8
RACCORDO
100
AcDbCircle
 62
7
  6
CONTINUOUS
 10
37.0192064232
 20
-18.1375
 40
0.25
100
AcDbArc
 50
180.0
 51
270.0
  0
ARC
  5
6EE
100
AcDbEntity
  8
RACCORDO
100
AcDbCircle
 62
7
  6
CONTINUOUS
 10
41.5192064232
 20
-18.1375
 40
0.25
100
AcDbArc
 50
270.0
 51
360.0
  0
ARC
  5
6EF
100
AcDbEntity
  8
RACCORDO
100
AcDbCircle
 62
250
  6
CONTINUOUS
 10
51.2734793167
 20
-9.6550530448
 40
1.0000441517
100
AcDbArc
 50
0.0035080445
 51
89.9614880595
  0
ARC
  5
6F0
100
AcDbEntity
  8
RACCORDO
100
AcDbCircle
 62
250
  6
CONTINUOUS
 10
32.2691873851
 20
-9.6550108528
 40
0.9999809621
100
AcDbArc
 50
89.9989091761
 51
179.9989091346
  0
ARC
  5
6F1
100
AcDbEntity
  8
RACCORDO
100
AcDbCircle
 62
250
  6
CONTINUOUS
 10
51.2726871327
 20
25.2409807095
 40
1.000862505
100
AcDbArc
 50
0.0838298822
 51
89.9161701178
  0
ARC
  5
6F2
100
AcDbEntity
  8
RACCORDO
100
AcDbCircle
 62
250
  6
CONTINUOUS
 10
51.2734793193
 20
10.380053046
 40
1.0000441519
100
AcDbArc
 50
270.0385117897
 51
359.9964918854
  0
ARC
  5
6F3
100
AcDbEntity
  8
RACCORDO
100
AcDbCircle
 62
250
  6
CONTINUOUS
 10
25.2692254613
 20
10.3800108528
 40
0.9999809621
100
AcDbArc
 50
269.9989091761
 51
359.9989091346
  0
ARC
  5
6F4
100
AcDbEntity
  8
RACCORDO
100
AcDbCircle
 62
250
  6
CONTINUOUS
 10
32.2691873851
 20
10.3800108528
 40
0.9999809621
100
AcDbArc
 50
180.0010908654
 51
270.0010908239
  0
ARC
  5
6F5
100
AcDbEntity
  8
RACCORDO
100
AcDbCircle
 62
250
  6
CONTINUOUS
 10
32.26888158
 20
25.2421184331
 40
0.9996955527
100
AcDbArc
 50
89.9813825964
 51
179.9812790465
  0
ARC
  5
6F6
100
AcDbEntity
  8
RACCORDO
100
AcDbCircle
 62
250
  6
CONTINUOUS
 10
25.2695312664
 20
25.2421184331
 40
0.9996955527
100
AcDbArc
 50
0.0187209535
 51
90.0186174036
  0
ARC
  5
6F7
100
AcDbEntity
  8
RACCORDO
100
AcDbCircle
 62
7
  6
CONTINUOUS
 10
49.4692064232
 20
23.1125
 40
0.25
100
AcDbArc
 50
0.0
 51
90.0
  0
ARC
  5
6F8
100
AcDbEntity
  8
RACCORDO
100
AcDbCircle
 62
7
  6
CONTINUOUS
 10
49.4692064232
 20
19.1125
 40
0.25
100
AcDbArc
 50
270.0
 51
360.0
  0
ARC
  5
6F9
100
AcDbEntity
  8
RACCORDO
100
AcDbCircle
 62
7
  6
CONTINUOUS
 10
49.2692064232
 20
23.1125
 40
0.25
100
AcDbArc
 50
90.0
 51
180.0
  0
ARC
  5
6FA
100
AcDbEntity
  8
RACCORDO
100
AcDbCircle
 62
7
  6
CONTINUOUS
 10
49.2692064232
 20
19.1125
 40
0.25
100
AcDbArc
 50
180.0
 51
270.0
  0
ARC
  5
6FB
100
AcDbEntity
  8
ASSI
100
AcDbCircle
 62
7
  6
CONTINUOUS
 10
20.8561977318
 20
2.5119573341
 40
0.1682245698
100
AcDbArc
 50
303.748776311
 51
153.3682546595
  0
ARC
  5
6FC
100
AcDbEntity
  8
ASSI
100
AcDbCircle
 62
7
  6
CONTINUOUS
 10
20.8561977815
 20
2.5119573187
 40
0.1682243853
100
AcDbArc
 50
166.153055358
 51
192.8396974407
  0
SPLINE
  5
6FD
100
AcDbEntity
  8
0
100
AcDbSpline
 62
250
  6
CONTINUOUS
 70
0
 71
3
 72
12
 73
8
 74
0
 42
0.0000001
 43
0.0000001
 44
0.0000000001
 40
0.0
 40
0.0
 40
0.0
 40
0.0
 40
0.0481393146
 40
0.119355354
 40
0.3385464229
 40
0.6457065683
 40
1.0
 40
1.0
 40
1.0
 40
1.0
 10
0.3881102015
 20
-15.4372578424
 30
0.0
 10
0.3905587796
 20
-15.4366729439
 30
0.0
 10
0.3956970524
 20
-15.4323748124
 30
0.0
 10
0.4042811789
 20
-15.4169040733
 30
0.0
 10
0.4123941901
 20
-15.3862886166
 30
0.0
 10
0.418290572
 20
-15.3406724842
 30
0.0
 10
0.4197441043
 20
-15.3060279347
 30
0.0
 10
0.4197441043
 20
-15.2875
 30
0.0
  0
SPLINE
  5
6FE
100
AcDbEntity
  8
0
100
AcDbSpline
 62
250
  6
CONTINUOUS
 70
0
 71
3
 72
14
 73
10
 74
0
 42
0.0000001
 43
0.0000001
 44
0.0000000001
 40
0.0
 40
0.0
 40
0.0
 40
0.0
 40
0.3693549858
 40
0.6826166484
 40
0.8026036886
 40
0.8937579349
 40
0.928644528
 40
0.9568736864
 40
1.0
 40
1.0
 40
1.0
 40
1.0
 10
0.4197441043
 20
-15.2875
 30
0.0
 10
0.4197441043
 20
-15.2677557387
 30
0.0
 10
0.4180760448
 20
-15.2312774174
 30
0.0
 10
0.4123375178
 20
-15.1885920845
 30
0.0
 10
0.4048342136
 20
-15.1615560874
 30
0.0
 10
0.3997012341
 20
-15.1493464947
 30
0.0
 10
0.395002681
 20
-15.1425167948
 30
0.0
 10
0.3910409213
 20
-15.1384451717
 30
0.0
 10
0.3868471563
 20
-15.1372057275
 30
0.0
 10
0.3846059799
 20
-15.1377459362
 30
0.0
  0
SPLINE
  5
6FF
100
AcDbEntity
  8
0
100
AcDbSpline
 62
250
  6
CONTINUOUS
 70
0
 71
3
 72
11
 73
7
 74
0
 42
0.0000001
 43
0.0000001
 44
0.0000000001
 40
0.0
 40
0.0
 40
0.0
 40
0.0
 40
0.2500478627
 40
0.5000407446
 40
0.7499429282
 40
1.0
 40
1.0
 40
1.0
 40
1.0
 10
1.819205674
 20
-14.987040996
 30
0.0
 10
1.8191480242
 20
-14.9693773758
 30
0.0
 10
1.8123940261
 20
-14.9338319133
 30
0.0
 10
1.785051665
 20
-14.8872030572
 30
0.0
 10
1.7428242024
 20
-14.8533837725
 30
0.0
 10
1.7085698286
 20
-14.8417984212
 30
0.0
 10
1.6911022467
 20
-14.8391690928
 30
0.0
  0
SPLINE
  5
700
100
AcDbEntity
  8
0
100
AcDbSpline
 62
250
  6
CONTINUOUS
 70
0
 71
3
 72
14
 73
10
 74
0
 42
0.0000001
 43
0.0000001
 44
0.0000000001
 40
0.0
 40
0.0
 40
0.0
 40
0.0
 40
0.3693505506
 40
0.6826106299
 40
0.8025986154
 40
0.8937547942
 40
0.9286426463
 40
0.9568730631
 40
1.0
 40
1.0
 40
1.0
 40
1.0
 10
0.4197441043
 20
-20.2875
 30
0.0
 10
0.4197441043
 20
-20.2677561047
 30
0.0
 10
0.4180761039
 20
-20.2312783373
 30
0.0
 10
0.4123377474
 20
-20.1885935619
 30
0.0
 10
0.4048347215
 20
-20.1615575976
 30
0.0
 10
0.3997018921
 20
-20.1493478234
 30
0.0
 10
0.3950034885
 20
-20.1425177893
 30
0.0
 10
0.3910419049
 20
-20.1384458704
 30
0.0
 10
0.3868483072
 20
-20.1372057765
 30
0.0
 10
0.3846070387
 20
-20.1377456811
 30
0.0
  0
SPLINE
  5
701
100
AcDbEntity
  8
0
100
AcDbSpline
 62
250
  6
CONTINUOUS
 70
0
 71
3
 72
12
 73
8
 74
0
 42
0.0000001
 43
0.0000001
 44
0.0000000001
 40
0.0
 40
0.0
 40
0.0
 40
0.0
 40
0.0481397896
 40
0.1193563574
 40
0.3385479053
 40
0.6457075874
 40
1.0
 40
1.0
 40
1.0
 40
1.0
 10
0.3881104299
 20
-20.4372577878
 30
0.0
 10
0.3905590113
 20
-20.4366728117
 30
0.0
 10
0.3956972191
 20
-20.4323745672
 30
0.0
 10
0.4042812949
 20
-20.4169037474
 30
0.0
 10
0.4123942396
 20
-20.3862882948
 30
0.0
 10
0.4182905844
 20
-20.3406722772
 30
0.0
 10
0.4197441043
 20
-20.306027855
 30
0.0
 10
0.4197441043
 20
-20.2875
 30
0.0
  0
SPLINE
  5
702
100
AcDbEntity
  8
ASSI
100
AcDbSpline
 62
7
  6
CONTINUOUS
 70
0
 71
3
 72
12
 73
8
 74
0
 42
0.0000001
 43
0.0000001
 44
0.0000000001
 40
0.0
 40
0.0
 40
0.0
 40
0.0
 40
0.160170272
 40
0.373833895
 40
0.5801046928
 40
0.7863141084
 40
1.0
 40
1.0
 40
1.0
 40
1.0
 10
25.4285690726
 20
0.0631970574
 30
0.0
 10
25.3989076574
 20
0.1596184041
 30
0.0
 10
25.3634203593
 20
0.396250352
 30
0.0
 10
25.4371942298
 20
0.764380859
 30
0.0
 10
25.6636965662
 20
1.0992952482
 30
0.0
 10
25.9982376487
 20
1.3253431791
 30
0.0
 10
26.2658208122
 20
1.3791670309
 30
0.0
 10
26.4004072102
 20
1.3791670309
 30
0.0
  0
SPLINE
  5
703
100
AcDbEntity
  8
ASSI
100
AcDbSpline
 62
7
  6
CONTINUOUS
 70
0
 71
3
 72
13
 73
9
 74
0
 42
0.0000001
 43
0.0000001
 44
0.0000000001
 40
0.0
 40
0.0
 40
0.0
 40
0.0
 40
0.1820448067
 40
0.3577131209
 40
0.5334393081
 40
0.7154636694
 40
0.860240729
 40
1.0
 40
1.0
 40
1.0
 40
1.0
 10
26.4004072102
 20
1.8874999992
 30
0.0
 10
26.1985259714
 20
1.8874999992
 30
0.0
 10
25.7971689388
 20
1.8067104338
 30
0.0
 10
25.2953434028
 20
1.4676823771
 30
0.0
 10
24.9555407011
 20
0.9653906632
 30
0.0
 10
24.843239048
 20
0.4035644205
 30
0.0
 10
24.9253131907
 20
-0.1153904947
 30
0.0
 10
25.071399565
 20
-0.4017827388
 30
0.0
 10
25.1619566243
 20
-0.5275631961
 30
0.0
  0
SPLINE
  5
704
100
AcDbEntity
  8
ASSI
100
AcDbSpline
 62
7
  6
CONTINUOUS
 70
0
 71
3
 72
9
 73
5
 74
0
 42
0.0000001
 43
0.0000001
 44
0.0000000001
 40
0.0
 40
0.0
 40
0.0
 40
0.0
 40
0.2458206488
 40
1.0
 40
1.0
 40
1.0
 40
1.0
 10
25.5189339297
 20
-0.8820903836
 30
0.0
 10
25.581301116
 20
-0.9263417176
 30
0.0
 10
25.8479324519
 20
-1.0876062658
 30
0.0
 10
26.1657930293
 20
-1.1625
 30
0.0
 10
26.4004072102
 20
-1.1625
 30
0.0
  0
SPLINE
  5
705
100
AcDbEntity
  8
ASSI
100
AcDbSpline
 62
7
  6
CONTINUOUS
 70
0
 71
3
 72
9
 73
5
 74
0
 42
0.0000001
 43
0.0000001
 44
0.0000000001
 40
0.0
 40
0.0
 40
0.0
 40
0.0
 40
0.2600413185
 40
1.0
 40
1.0
 40
1.0
 40
1.0
 10
26.4004072102
 20
-0.6541664844
 30
0.0
 10
26.3391413848
 20
-0.6541664844
 30
0.0
 10
26.1037546343
 20
-0.6338296568
 30
0.0
 10
25.8776157586
 20
-0.5268333822
 30
0.0
 10
25.7444725049
 20
-0.4142917637
 30
0.0
  0
SPLINE
  5
706
100
AcDbEntity
  8
ASSI
100
AcDbSpline
 62
7
  6
CONTINUOUS
 70
0
 71
3
 72
16
 73
12
 74
0
 42
0.0000001
 43
0.0000001
 44
0.0000000001
 40
0.0
 40
0.0
 40
0.0
 40
0.0
 40
0.1216765773
 40
0.2476390351
 40
0.3732356714
 40
0.4944866233
 40
0.6157375752
 40
0.7413342114
 40
0.8669308477
 40
0.9881817996
 40
1.0
 40
1.0
 40
1.0
 40
1.0
 10
25.8597290738
 20
-0.1752365724
 30
0.0
 10
25.9288693331
 20
-0.2443768317
 30
0.0
 10
26.0984014287
 20
-0.3592690614
 30
0.0
 10
26.4000255419
 20
-0.4205722051
 30
0.0
 10
26.7018142326
 20
-0.3598523488
 30
0.0
 10
26.9529848521
 20
-0.190078353
 30
0.0
 10
27.1227419235
 20
0.0611135066
 30
0.0
 10
27.1834941053
 20
0.3625007457
 30
0.0
 10
27.1221495423
 20
0.66388356
 30
0.0
 10
27.0048742548
 20
0.8404070957
 30
0.0
 10
26.9256535335
 20
0.9150558809
 30
0.0
 10
26.9184770807
 20
0.9215544803
 30
0.0
  0
SPLINE
  5
707
100
AcDbEntity
  8
ASSI
100
AcDbSpline
 62
7
  6
CONTINUOUS
 70
0
 71
3
 72
9
 73
5
 74
0
 42
0.0000001
 43
0.0000001
 44
0.0000000001
 40
0.0
 40
0.0
 40
0.0
 40
0.0
 40
0.506587071
 40
1.0
 40
1.0
 40
1.0
 40
1.0
 10
26.4004072102
 20
1.1249999994
 30
0.0
 10
26.2546201721
 20
1.1249999994
 30
0.0
 10
25.9602939517
 20
1.0385284645
 30
0.0
 10
25.7632931895
 20
0.8050105291
 30
0.0
 10
25.7049324626
 20
0.6755624737
 30
0.0
  0
LINE
  5
708
100
AcDbEntity
  8
ASSI
100
AcDbLine
 62
7
  6
CONTINUOUS
 10
-2.8859877996
 20
0.8140971224
 11
-3.172638384
 21
0.3706492684
  0
SPLINE
  5
709
100
AcDbEntity
  8
ASSI
100
AcDbSpline
 62
7
  6
CONTINUOUS
 70
0
 71
3
 72
8
 73
4
 74
0
 42
0.0000001
 43
0.0000001
 44
0.0000000001
 40
0.0
 40
0.0
 40
0.0
 40
0.0
 40
1.0
 40
1.0
 40
1.0
 40
1.0
 10
-3.172638384
 20
0.3706492684
 30
0.0
 10
-3.2013759709
 20
0.4237471898
 30
0.0
 10
-3.2341288498
 20
0.4747645931
 30
0.0
 10
-3.2694202055
 20
0.5237519218
 30
0.0
  0
SPLINE
  5
70A
100
AcDbEntity
  8
ASSI
100
AcDbSpline
 62
7
  6
CONTINUOUS
 70
0
 71
3
 72
9
 73
5
 74
0
 42
0.0000001
 43
0.0000001
 44
0.0000000001
 40
0.0
 40
0.0
 40
0.0
 40
0.0
 40
0.7097160398
 40
1.0
 40
1.0
 40
1.0
 40
1.0
 10
-4.8011671287
 20
0.7160537825
 30
0.0
 10
-4.787170855
 20
0.6681518236
 30
0.0
 10
-4.7646528661
 20
0.6014839839
 30
0.0
 10
-4.7407955361
 20
0.5353441994
 30
0.0
 10
-4.73376236
 20
0.5161823717
 30
0.0
  0
SPLINE
  5
70B
100
AcDbEntity
  8
ASSI
100
AcDbSpline
 62
7
  6
CONTINUOUS
 70
0
 71
3
 72
8
 73
4
 74
0
 42
0.0000001
 43
0.0000001
 44
0.0000000001
 40
0.0
 40
0.0
 40
0.0
 40
0.0
 40
1.0
 40
1.0
 40
1.0
 40
1.0
 10
-7.580984177
 20
-0.0308057332
 30
0.0
 10
-7.5955052754
 20
0.0216133403
 30
0.0
 10
-7.6124750692
 20
0.0733746352
 30
0.0
 10
-7.6309069504
 20
0.1245497006
 30
0.0
  0
SPLINE
  5
70C
100
AcDbEntity
  8
ASSI
100
AcDbSpline
 62
7
  6
CONTINUOUS
 70
0
 71
3
 72
9
 73
5
 74
0
 42
0.0000001
 43
0.0000001
 44
0.0000000001
 40
0.0
 40
0.0
 40
0.0
 40
0.0
 40
0.7097160398
 40
1.0
 40
1.0
 40
1.0
 40
1.0
 10
-8.8497803402
 20
0.7160537825
 30
0.0
 10
-8.8357840665
 20
0.6681518236
 30
0.0
 10
-8.8132660776
 20
0.6014839839
 30
0.0
 10
-8.7894087477
 20
0.5353441994
 30
0.0
 10
-8.7823755715
 20
0.5161823717
 30
0.0
  0
SPLINE
  5
70D
100
AcDbEntity
  8
ASSI
100
AcDbSpline
 62
7
  6
CONTINUOUS
 70
0
 71
3
 72
17
 73
13
 74
0
 42
0.0000001
 43
0.0000001
 44
0.0000000001
 40
0.0
 40
0.0
 40
0.0
 40
0.0
 40
0.1860451082
 40
0.2705259002
 40
0.3141542026
 40
0.3603530295
 40
0.5121184572
 40
0.5895792025
 40
0.6716563947
 40
0.7632308695
 40
0.8657555241
 40
1.0
 40
1.0
 40
1.0
 40
1.0
 10
-9.458225817
 20
0.1964602062
 30
0.0
 10
-9.4728392902
 20
0.1292077413
 30
0.0
 10
-9.5198961171
 20
0.0291986548
 30
0.0
 10
-9.6246765558
 20
-0.0279103701
 30
0.0
 10
-9.6876543189
 20
-0.0428828812
 30
0.0
 10
-9.7769271056
 20
-0.0494351184
 30
0.0
 10
-9.881496804
 20
-0.0224652036
 30
0.0
 10
-9.9708886956
 20
0.053441608
 30
0.0
 10
-10.0160701206
 20
0.1365349209
 30
0.0
 10
-10.0413770837
 20
0.2361802741
 30
0.0
 10
-10.0503728361
 20
0.3576023577
 30
0.0
 10
-10.0407642007
 20
0.4460990924
 30
0.0
 10
-10.0276981509
 20
0.4941810973
 30
0.0
  0
SPLINE
  5
70E
100
AcDbEntity
  8
ASSI
100
AcDbSpline
 62
7
  6
CONTINUOUS
 70
0
 71
3
 72
9
 73
5
 74
0
 42
0.0000001
 43
0.0000001
 44
0.0000000001
 40
0.0
 40
0.0
 40
0.0
 40
0.0
 40
0.4786249203
 40
1.0
 40
1.0
 40
1.0
 40
1.0
 10
-9.7330715465
 20
0.7218210378
 30
0.0
 10
-9.6784929143
 20
0.7218210378
 30
0.0
 10
-9.556071605
 20
0.6920021147
 30
0.0
 10
-9.4991910669
 20
0.5802677825
 30
0.0
 10
-9.4812948381
 20
0.5235716923
 30
0.0
  0
SPLINE
  5
70F
100
AcDbEntity
  8
ASSI
100
AcDbSpline
 62
7
  6
CONTINUOUS
 70
0
 71
3
 72
25
 73
21
 74
0
 42
0.0000001
 43
0.0000001
 44
0.0000000001
 40
0.0
 40
0.0
 40
0.0
 40
0.0
 40
0.0888847953
 40
0.1718004827
 40
0.2552805514
 40
0.2993533532
 40
0.346394781
 40
0.3886666315
 40
0.4297437762
 40
0.4702843229
 40
0.5109724255
 40
0.5911642652
 40
0.6732957874
 40
0.7613184488
 40
0.8083486364
 40
0.85815985
 40
0.9045619297
 40
0.949869011
 40
0.9945301458
 40
1.0
 40
1.0
 40
1.0
 40
1.0
 10
-9.3544152218
 20
0.5527684277
 30
0.0
 10
-9.3662691488
 20
0.5940605808
 30
0.0
 10
-9.3994371925
 20
0.6718465104
 30
0.0
 10
-9.4848499048
 20
0.7643352269
 30
0.0
 10
-9.5778279602
 20
0.8109733032
 30
0.0
 10
-9.660629573
 20
0.8286436878
 30
0.0
 10
-9.7251864219
 20
0.8326833021
 30
0.0
 10
-9.788239189
 20
0.8291126615
 30
0.0
 10
-9.8473079345
 20
0.8183235004
 30
0.0
 10
-9.9037366282
 20
0.8001382439
 30
0.0
 10
-9.9745180961
 20
0.7669512594
 30
0.0
 10
-10.0539998291
 20
0.7065879414
 30
0.0
 10
-10.1233526036
 20
0.6052545736
 30
0.0
 10
-10.1576549879
 20
0.5048008362
 30
0.0
 10
-10.171207047
 20
0.4163432875
 30
0.0
 10
-10.1744292545
 20
0.3470619554
 30
0.0
 10
-10.1713540132
 20
0.2786386765
 30
0.0
 10
-10.1619254345
 20
0.2132898662
 30
0.0
 10
-10.1506895102
 20
0.1684693045
 30
0.0
 10
-10.1434708404
 20
0.1453296729
 30
0.0
 10
-10.1426673516
 20
0.1428099513
 30
0.0
  0
SPLINE
  5
710
100
AcDbEntity
  8
ASSI
100
AcDbSpline
 62
7
  6
CONTINUOUS
 70
0
 71
3
 72
11
 73
7
 74
0
 42
0.0000001
 43
0.0000001
 44
0.0000000001
 40
0.0
 40
0.0
 40
0.0
 40
0.0
 40
0.2525992429
 40
0.4888102636
 40
0.730558892
 40
1.0
 40
1.0
 40
1.0
 40
1.0
 10
-9.7256822259
 20
-0.1548017659
 30
0.0
 10
-9.6794033279
 20
-0.1548017659
 30
0.0
 10
-9.5888081549
 20
-0.1430847891
 30
0.0
 10
-9.4679028871
 20
-0.0788634034
 30
0.0
 10
-9.377062658
 20
0.0276308073
 30
0.0
 10
-9.3435205641
 20
0.116810415
 30
0.0
 10
-9.3313462007
 20
0.1646501434
 30
0.0
  0
SPLINE
  5
711
100
AcDbEntity
  8
ASSI
100
AcDbSpline
 62
7
  6
CONTINUOUS
 70
0
 71
3
 72
12
 73
8
 74
0
 42
0.0000001
 43
0.0000001
 44
0.0000000001
 40
0.0
 40
0.0
 40
0.0
 40
0.0
 40
0.1606441131
 40
0.3160528741
 40
0.4695579901
 40
0.6257786262
 40
1.0
 40
1.0
 40
1.0
 40
1.0
 10
-12.2322756101
 20
0.1739317855
 30
0.0
 10
-12.2314401728
 20
0.1427906192
 30
0.0
 10
-12.2225124185
 20
0.0812941213
 30
0.0
 10
-12.1843660869
 20
-0.0026516229
 30
0.0
 10
-12.1247991327
 20
-0.0722180562
 30
0.0
 10
-12.0099266648
 20
-0.1423687759
 30
0.0
 10
-11.9033000299
 20
-0.1548017659
 30
0.0
 10
-11.8307304057
 20
-0.1548017659
 30
0.0
  0
SPLINE
  5
712
100
AcDbEntity
  8
ASSI
100
AcDbSpline
 62
7
  6
CONTINUOUS
 70
0
 71
3
 72
15
 73
11
 74
0
 42
0.0000001
 43
0.0000001
 44
0.0000000001
 40
0.0
 40
0.0
 40
0.0
 40
0.0
 40
0.1205523663
 40
0.2334839557
 40
0.3389214346
 40
0.4385318437
 40
0.6258636217
 40
0.7171536601
 40
0.8046135431
 40
1.0
 40
1.0
 40
1.0
 40
1.0
 10
-11.8307304057
 20
-0.1548017659
 30
0.0
 10
-11.7986488901
 20
-0.1548017659
 30
0.0
 10
-11.7362354544
 20
-0.1492723615
 30
0.0
 10
-11.6496753149
 20
-0.121490513
 30
0.0
 10
-11.5765260208
 20
-0.0767697994
 30
0.0
 10
-11.5066032271
 20
0.0025287519
 30
0.0
 10
-11.4755840927
 20
0.1049060037
 30
0.0
 10
-11.4886496803
 20
0.2025561869
 30
0.0
 10
-11.5308188449
 20
0.2946818616
 30
0.0
 10
-11.5967691415
 20
0.3411729218
 30
0.0
 10
-11.6439254561
 20
0.3630798064
 30
0.0
  0
SPLINE
  5
713
100
AcDbEntity
  8
ASSI
100
AcDbSpline
 62
7
  6
CONTINUOUS
 70
0
 71
3
 72
9
 73
5
 74
0
 42
0.0000001
 43
0.0000001
 44
0.0000000001
 40
0.0
 40
0.0
 40
0.0
 40
0.0
 40
0.1708537376
 40
1.0
 40
1.0
 40
1.0
 40
1.0
 10
-11.6439254561
 20
0.3630798064
 30
0.0
 10
-11.6550693252
 20
0.3681741391
 30
0.0
 10
-11.722224337
 20
0.3936405285
 30
0.0
 10
-11.7921689751
 20
0.4105000801
 30
0.0
 10
-11.8500597532
 20
0.4240865166
 30
0.0
  0
SPLINE
  5
714
100
AcDbEntity
  8
ASSI
100
AcDbSpline
 62
7
  6
CONTINUOUS
 70
0
 71
3
 72
9
 73
5
 74
0
 42
0.0000001
 43
0.0000001
 44
0.0000000001
 40
0.0
 40
0.0
 40
0.0
 40
0.0
 40
0.6350560901
 40
1.0
 40
1.0
 40
1.0
 40
1.0
 10
-11.8500597532
 20
0.4240865166
 30
0.0
 10
-11.8908585761
 20
0.4336616274
 30
0.0
 10
-11.9535934417
 20
0.4509015908
 30
0.0
 10
-12.0172560158
 20
0.4760186195
 30
0.0
 10
-12.0347470945
 20
0.4925726621
 30
0.0
  0
SPLINE
  5
715
100
AcDbEntity
  8
ASSI
100
AcDbSpline
 62
7
  6
CONTINUOUS
 70
0
 71
3
 72
14
 73
10
 74
0
 42
0.0000001
 43
0.0000001
 44
0.0000000001
 40
0.0
 40
0.0
 40
0.0
 40
0.0
 40
0.1221754561
 40
0.2479284667
 40
0.3235721644
 40
0.3974374623
 40
0.5551234414
 40
0.7467267791
 40
1.0
 40
1.0
 40
1.0
 40
1.0
 10
-12.0347470945
 20
0.4925726621
 30
0.0
 10
-12.0461455575
 20
0.5031447245
 30
0.0
 10
-12.065442348
 20
0.5296126824
 30
0.0
 10
-12.0724462521
 20
0.5713964972
 30
0.0
 10
-12.0688046096
 20
0.6064599028
 30
0.0
 10
-12.0553884769
 20
0.6435397708
 30
0.0
 10
-12.0196194241
 20
0.6864824226
 30
0.0
 10
-11.9473719675
 20
0.7181539091
 30
0.0
 10
-11.8901729434
 20
0.7218210378
 30
0.0
 10
-11.8579446168
 20
0.7218210378
 30
0.0
  0
SPLINE
  5
716
100
AcDbEntity
  8
ASSI
100
AcDbSpline
 62
7
  6
CONTINUOUS
 70
0
 71
3
 72
9
 73
5
 74
0
 42
0.0000001
 43
0.0000001
 44
0.0000000001
 40
0.0
 40
0.0
 40
0.0
 40
0.0
 40
0.5306823676
 40
1.0
 40
1.0
 40
1.0
 40
1.0
 10
-11.8579446168
 20
0.7218210378
 30
0.0
 10
-11.802092175
 20
0.7218210378
 30
0.0
 10
-11.683225766
 20
0.7044089031
 30
0.0
 10
-11.6377378372
 20
0.5921496206
 30
0.0
 10
-11.6324810602
 20
0.5430361239
 30
0.0
  0
SPLINE
  5
717
100
AcDbEntity
  8
ASSI
100
AcDbSpline
 62
7
  6
CONTINUOUS
 70
0
 71
3
 72
20
 73
16
 74
0
 42
0.0000001
 43
0.0000001
 44
0.0000000001
 40
0.0
 40
0.0
 40
0.0
 40
0.0
 40
0.1573317713
 40
0.2361791109
 40
0.3195933993
 40
0.4109088545
 40
0.4598620877
 40
0.5115766229
 40
0.5588578561
 40
0.6043116697
 40
0.6913315838
 40
0.7718242667
 40
0.8471214746
 40
0.9894569562
 40
1.0
 40
1.0
 40
1.0
 40
1.0
 10
-11.5056014439
 20
0.5488033792
 30
0.0
 10
-11.5076282708
 20
0.6008259116
 30
0.0
 10
-11.5311498159
 20
0.6808122859
 30
0.0
 10
-11.6035774004
 20
0.7599529339
 30
0.0
 10
-11.6776585586
 20
0.8018094511
 30
0.0
 10
-11.7494724308
 20
0.8219418807
 30
0.0
 10
-11.8125436519
 20
0.8300932437
 30
0.0
 10
-11.8615234152
 20
0.8320569418
 30
0.0
 10
-11.9093443722
 20
0.8301409725
 30
0.0
 10
-11.9683643868
 20
0.8221355317
 30
0.0
 10
-12.0365753591
 20
0.8026582251
 30
0.0
 10
-12.1078162469
 20
0.7630576326
 30
0.0
 10
-12.1751653433
 20
0.689029807
 30
0.0
 10
-12.1985518547
 20
0.6119786956
 30
0.0
 10
-12.1976228884
 20
0.5610614371
 30
0.0
 10
-12.1974792293
 20
0.5575564498
 30
0.0
  0
SPLINE
  5
718
100
AcDbEntity
  8
ASSI
100
AcDbSpline
 62
7
  6
CONTINUOUS
 70
0
 71
3
 72
9
 73
5
 74
0
 42
0.0000001
 43
0.0000001
 44
0.0000000001
 40
0.0
 40
0.0
 40
0.0
 40
0.0
 40
0.1806469784
 40
1.0
 40
1.0
 40
1.0
 40
1.0
 10
-12.0599787814
 20
0.36010602
 30
0.0
 10
-12.049784708
 20
0.3547776854
 30
0.0
 10
-11.9913163414
 20
0.3292659684
 30
0.0
 10
-11.9294317008
 20
0.3129230832
 30
0.0
 10
-11.8788059149
 20
0.3003158148
 30
0.0
  0
SPLINE
  5
719
100
AcDbEntity
  8
ASSI
100
AcDbSpline
 62
7
  6
CONTINUOUS
 70
0
 71
3
 72
9
 73
5
 74
0
 42
0.0000001
 43
0.0000001
 44
0.0000000001
 40
0.0
 40
0.0
 40
0.0
 40
0.0
 40
0.3500357027
 40
1.0
 40
1.0
 40
1.0
 40
1.0
 10
-11.8788059149
 20
0.3003158148
 30
0.0
 10
-11.8593983866
 20
0.2954827852
 30
0.0
 10
-11.8041752697
 20
0.2810588158
 30
0.0
 10
-11.748384484
 20
0.267394784
 30
0.0
 10
-11.7139434641
 20
0.2535019559
 30
0.0
  0
SPLINE
  5
71A
100
AcDbEntity
  8
ASSI
100
AcDbSpline
 62
7
  6
CONTINUOUS
 70
0
 71
3
 72
16
 73
12
 74
0
 42
0.0000001
 43
0.0000001
 44
0.0000000001
 40
0.0
 40
0.0
 40
0.0
 40
0.0
 40
0.1566468856
 40
0.220189847
 40
0.2871042189
 40
0.4238330589
 40
0.5820227078
 40
0.6769136751
 40
0.7814331672
 40
0.9003632222
 40
1.0
 40
1.0
 40
1.0
 40
1.0
 10
-11.7139434641
 20
0.2535019559
 30
0.0
 10
-11.6832859409
 20
0.2413815419
 30
0.0
 10
-11.6390468123
 20
0.2169508032
 30
0.0
 10
-11.6129880966
 20
0.1608928326
 30
0.0
 10
-11.6053032116
 20
0.1046517912
 30
0.0
 10
-11.6294680819
 20
0.0266074331
 30
0.0
 10
-11.7016837648
 20
-0.0222769734
 30
0.0
 10
-11.7744229432
 20
-0.0420456606
 30
0.0
 10
-11.8416131752
 20
-0.0471293699
 30
0.0
 10
-11.9097963291
 20
-0.041217458
 30
0.0
 10
-11.9540310637
 20
-0.0275177517
 30
0.0
 10
-11.9733866154
 20
-0.0192853967
 30
0.0
  0
SPLINE
  5
71B
100
AcDbEntity
  8
ASSI
100
AcDbSpline
 62
7
  6
CONTINUOUS
 70
0
 71
3
 72
23
 73
19
 74
0
 42
0.0000001
 43
0.0000001
 44
0.0000000001
 40
0.0
 40
0.0
 40
0.0
 40
0.0
 40
0.1084614748
 40
0.1620300211
 40
0.2177464023
 40
0.2573464431
 40
0.2956467235
 40
0.3712230697
 40
0.4467423271
 40
0.5246924863
 40
0.6091734529
 40
0.6546650189
 40
0.7029278553
 40
0.7773481255
 40
0.8442886394
 40
0.9057717315
 40
0.9643873549
 40
1.0
 40
1.0
 40
1.0
 40
1.0
 10
-13.0411331421
 20
0.630130699
 30
0.0
 10
-13.0105996677
 20
0.6591118558
 30
0.0
 10
-12.9565625297
 20
0.6951285729
 30
0.0
 10
-12.8747940842
 20
0.718241633
 30
0.0
 10
-12.8168718642
 20
0.7231402098
 30
0.0
 10
-12.7649763997
 20
0.7199489097
 30
0.0
 10
-12.7064152095
 20
0.708099653
 30
0.0
 10
-12.6382194969
 20
0.6778516607
 30
0.0
 10
-12.5696233589
 20
0.6191776872
 30
0.0
 10
-12.5205480287
 20
0.5394046584
 30
0.0
 10
-12.4969769605
 20
0.4614353727
 30
0.0
 10
-12.4875200495
 20
0.3928166378
 30
0.0
 10
-12.4848913325
 20
0.3275203226
 30
0.0
 10
-12.4892645445
 20
0.2538109133
 30
0.0
 10
-12.5061144704
 20
0.1765189701
 30
0.0
 10
-12.534943955
 20
0.1092907388
 30
0.0
 10
-12.5709535835
 20
0.0601292841
 30
0.0
 10
-12.5974284488
 20
0.0346818002
 30
0.0
 10
-12.6080319481
 20
0.025776887
 30
0.0
  0
SPLINE
  5
71C
100
AcDbEntity
  8
ASSI
100
AcDbSpline
 62
7
  6
CONTINUOUS
 70
0
 71
3
 72
9
 73
5
 74
0
 42
0.0000001
 43
0.0000001
 44
0.0000000001
 40
0.0
 40
0.0
 40
0.0
 40
0.0
 40
0.7911658617
 40
1.0
 40
1.0
 40
1.0
 40
1.0
 10
-13.1377346902
 20
0.3240606524
 30
0.0
 10
-13.1377346902
 20
0.4101727187
 30
0.0
 10
-13.1250529105
 20
0.5268584468
 30
0.0
 10
-13.0576192357
 20
0.6144827561
 30
0.0
 10
-13.0411331421
 20
0.630130699
 30
0.0
  0
SPLINE
  5
71D
100
AcDbEntity
  8
ASSI
100
AcDbSpline
 62
7
  6
CONTINUOUS
 70
0
 71
3
 72
16
 73
12
 74
0
 42
0.0000001
 43
0.0000001
 44
0.0000000001
 40
0.0
 40
0.0
 40
0.0
 40
0.0
 40
0.1522543123
 40
0.2694555914
 40
0.3706433414
 40
0.4732597487
 40
0.6190505678
 40
0.6948201622
 40
0.775286542
 40
0.8735743773
 40
1.0
 40
1.0
 40
1.0
 40
1.0
 10
-13.7506857279
 20
0.7045192719
 30
0.0
 10
-13.7199947083
 20
0.7045192719
 30
0.0
 10
-13.6650703727
 20
0.7006195167
 30
0.0
 10
-13.5951982909
 20
0.6678967821
 30
0.0
 10
-13.5549036767
 20
0.6140747122
 30
0.0
 10
-13.5413577213
 20
0.5430070751
 30
0.0
 10
-13.5607565105
 20
0.4763666081
 30
0.0
 10
-13.6028518344
 20
0.4308973587
 30
0.0
 10
-13.6493570592
 20
0.4071368411
 30
0.0
 10
-13.7101235696
 20
0.3950698418
 30
0.0
 10
-13.7554792992
 20
0.3930874864
 30
0.0
 10
-13.7809638401
 20
0.3930874864
 30
0.0
  0
SPLINE
  5
71E
100
AcDbEntity
  8
ASSI
100
AcDbSpline
 62
7
  6
CONTINUOUS
 70
0
 71
3
 72
16
 73
12
 74
0
 42
0.0000001
 43
0.0000001
 44
0.0000000001
 40
0.0
 40
0.0
 40
0.0
 40
0.0
 40
0.1089696409
 40
0.1828936499
 40
0.2222819345
 40
0.2625064106
 40
0.3465431344
 40
0.4482180559
 40
0.5822445398
 40
0.7621351793
 40
1.0
 40
1.0
 40
1.0
 40
1.0
 10
-13.9043290696
 20
0.283509636
 30
0.0
 10
-13.8905067831
 20
0.283509636
 30
0.0
 10
-13.8673535195
 20
0.282976172
 30
0.0
 10
-13.8390768387
 20
0.2807248635
 30
0.0
 10
-13.8203674808
 20
0.2750916962
 30
0.0
 10
-13.8009997361
 20
0.2676305397
 30
0.0
 10
-13.7754239663
 20
0.254274435
 30
0.0
 10
-13.7443971471
 20
0.2276878972
 30
0.0
 10
-13.710534869
 20
0.1871410684
 30
0.0
 10
-13.6699986043
 20
0.1300563666
 30
0.0
 10
-13.6409526252
 20
0.0857240385
 30
0.0
 10
-13.624707259
 20
0.0602988598
 30
0.0
  0
SPLINE
  5
71F
100
AcDbEntity
  8
ASSI
100
AcDbSpline
 62
7
  6
CONTINUOUS
 70
0
 71
3
 72
9
 73
5
 74
0
 42
0.0000001
 43
0.0000001
 44
0.0000000001
 40
0.0
 40
0.0
 40
0.0
 40
0.0
 40
0.2659540588
 40
1.0
 40
1.0
 40
1.0
 40
1.0
 10
-13.5126062838
 20
0.1212155433
 30
0.0
 10
-13.5204734339
 20
0.1330971542
 30
0.0
 10
-13.5509868191
 20
0.1771313756
 30
0.0
 10
-13.5855126376
 20
0.2185114293
 30
0.0
 10
-13.6134430926
 20
0.2462027501
 30
0.0
  0
SPLINE
  5
720
100
AcDbEntity
  8
ASSI
100
AcDbSpline
 62
7
  6
CONTINUOUS
 70
0
 71
3
 72
9
 73
5
 74
0
 42
0.0000001
 43
0.0000001
 44
0.0000000001
 40
0.0
 40
0.0
 40
0.0
 40
0.0
 40
0.209446698
 40
1.0
 40
1.0
 40
1.0
 40
1.0
 10
-13.6134430926
 20
0.2462027501
 30
0.0
 10
-13.61781747
 20
0.2504653717
 30
0.0
 10
-13.6399284773
 20
0.2695603975
 30
0.0
 10
-13.6653491251
 20
0.2844106735
 30
0.0
 10
-13.6858040839
 20
0.2950441465
 30
0.0
  0
SPLINE
  5
721
100
AcDbEntity
  8
ASSI
100
AcDbSpline
 62
7
  6
CONTINUOUS
 70
0
 71
3
 72
19
 73
15
 74
0
 42
0.0000001
 43
0.0000001
 44
0.0000000001
 40
0.0
 40
0.0
 40
0.0
 40
0.0
 40
0.136569576
 40
0.2487419393
 40
0.3510973289
 40
0.4029098052
 40
0.4575312966
 40
0.5006597919
 40
0.54259345
 40
0.6258399794
 40
0.7059972618
 40
0.7829904054
 40
0.8757620861
 40
1.0
 40
1.0
 40
1.0
 40
1.0
 10
-13.6858040839
 20
0.2950441465
 30
0.0
 10
-13.6454967239
 20
0.3006416557
 30
0.0
 10
-13.5721168938
 20
0.317362683
 30
0.0
 10
-13.4822957743
 20
0.3763039023
 30
0.0
 10
-13.4390087407
 20
0.4457572651
 30
0.0
 10
-13.422795761
 20
0.5061228757
 30
0.0
 10
-13.4193306729
 20
0.5507944205
 30
0.0
 10
-13.4218874058
 20
0.5924379895
 30
0.0
 10
-13.4316711315
 20
0.6417814054
 30
0.0
 10
-13.4561842956
 20
0.6986771286
 30
0.0
 10
-13.501754249
 20
0.7554965457
 30
0.0
 10
-13.5672496314
 20
0.7942548244
 30
0.0
 10
-13.654161347
 20
0.8112808483
 30
0.0
 10
-13.7188025245
 20
0.8140971224
 30
0.0
 10
-13.75582218
 20
0.8140971224
 30
0.0
  0
SPLINE
  5
722
100
AcDbEntity
  8
ASSI
100
AcDbSpline
 62
7
  6
CONTINUOUS
 70
0
 71
3
 72
9
 73
5
 74
0
 42
0.0000001
 43
0.0000001
 44
0.0000000001
 40
0.0
 40
0.0
 40
0.0
 40
0.0
 40
0.7097160398
 40
1.0
 40
1.0
 40
1.0
 40
1.0
 10
-14.7381479883
 20
0.7160537825
 30
0.0
 10
-14.7241517147
 20
0.6681518236
 30
0.0
 10
-14.7016337258
 20
0.6014839839
 30
0.0
 10
-14.6777763958
 20
0.5353441994
 30
0.0
 10
-14.6707432197
 20
0.5161823717
 30
0.0
  0
SPLINE
  5
723
100
AcDbEntity
  8
ASSI
100
AcDbSpline
 62
7
  6
CONTINUOUS
 70
0
 71
3
 72
9
 73
5
 74
0
 42
0.0000001
 43
0.0000001
 44
0.0000000001
 40
0.0
 40
0.0
 40
0.0
 40
0.0
 40
0.3106214921
 40
1.0
 40
1.0
 40
1.0
 40
1.0
 10
-15.6663156306
 20
0.1534760918
 30
0.0
 10
-15.6718715729
 20
0.1377671589
 30
0.0
 10
-15.6896552647
 20
0.0871595702
 30
0.0
 10
-15.707199837
 20
0.0364595019
 30
0.0
 10
-15.7185813871
 20
0.0012745858
 30
0.0
  0
SPLINE
  5
724
100
AcDbEntity
  8
ASSI
100
AcDbSpline
 62
7
  6
CONTINUOUS
 70
0
 71
3
 72
9
 73
5
 74
0
 42
0.0000001
 43
0.0000001
 44
0.0000000001
 40
0.0
 40
0.0
 40
0.0
 40
0.0
 40
0.1862683768
 40
1.0
 40
1.0
 40
1.0
 40
1.0
 10
-15.7185813871
 20
0.0012745858
 30
0.0
 10
-15.7212766954
 20
0.0100385508
 30
0.0
 10
-15.7360369189
 20
0.056999294
 30
0.0
 10
-15.7514656289
 20
0.1037463555
 30
0.0
 10
-15.7640886263
 20
0.1417613517
 30
0.0
  0
SPLINE
  5
725
100
AcDbEntity
  8
ASSI
100
AcDbSpline
 62
7
  6
CONTINUOUS
 70
0
 71
3
 72
22
 73
18
 74
0
 42
0.0000001
 43
0.0000001
 44
0.0000000001
 40
0.0
 40
0.0
 40
0.0
 40
0.0
 40
0.1245167122
 40
0.2419987357
 40
0.3009613969
 40
0.3584696942
 40
0.4171258175
 40
0.4793882064
 40
0.544834558
 40
0.6069895135
 40
0.6683671276
 40
0.7315742793
 40
0.7950400525
 40
0.8573180853
 40
0.9211191536
 40
0.988971738
 40
1.0
 40
1.0
 40
1.0
 40
1.0
 10
-17.0082838177
 20
0.3253222588
 30
0.0
 10
-16.9826266075
 20
0.3253222588
 30
0.0
 10
-16.9318985995
 20
0.3179367697
 30
0.0
 10
-16.878185573
 20
0.2833385231
 30
0.0
 10
-16.84670479
 20
0.2464857683
 30
0.0
 10
-16.8294272696
 20
0.2144689432
 30
0.0
 10
-16.8192587226
 20
0.1788558181
 30
0.0
 10
-16.8161708896
 20
0.1403826472
 30
0.0
 10
-16.8194044417
 20
0.101190237
 30
0.0
 10
-16.830133694
 20
0.0634711035
 30
0.0
 10
-16.8483184419
 20
0.0292359817
 30
0.0
 10
-16.8732387732
 20
-0.0007459163
 30
0.0
 10
-16.9034038929
 20
-0.0257617643
 30
0.0
 10
-16.9383197661
 20
-0.0439297423
 30
0.0
 10
-16.9771053607
 20
-0.0546255594
 30
0.0
 10
-17.0065572158
 20
-0.0569555552
 30
0.0
 10
-17.0228392155
 20
-0.0567231668
 30
0.0
 10
-17.0251144239
 20
-0.0566593061
 30
0.0
  0
SPLINE
  5
726
100
AcDbEntity
  8
ASSI
100
AcDbSpline
 62
7
  6
CONTINUOUS
 70
0
 71
3
 72
24
 73
20
 74
0
 42
0.0000001
 43
0.0000001
 44
0.0000000001
 40
0.0
 40
0.0
 40
0.0
 40
0.0
 40
0.1121967685
 40
0.166093767
 40
0.2210720507
 40
0.2764710866
 40
0.3317147037
 40
0.3888826938
 40
0.4498582523
 40
0.5174707333
 40
0.5809499684
 40
0.6426255879
 40
0.7050295449
 40
0.7665006467
 40
0.8252721578
 40
0.8839358525
 40
0.9450972128
 40
0.9900525909
 40
1.0
 40
1.0
 40
1.0
 40
1.0
 10
-17.3247620286
 20
0.1104919773
 30
0.0
 10
-17.3211047409
 20
0.0738065945
 30
0.0
 10
-17.3070663006
 20
0.0194129532
 30
0.0
 10
-17.2684181633
 20
-0.0425795299
 30
0.0
 10
-17.2313257054
 20
-0.0822419157
 30
0.0
 10
-17.1872913758
 20
-0.1147810024
 30
0.0
 10
-17.1369782824
 20
-0.1382244992
 30
0.0
 10
-17.0813721324
 20
-0.1520552891
 30
0.0
 10
-17.0202509172
 20
-0.1563428248
 30
0.0
 10
-16.9570326133
 20
-0.1515568874
 30
0.0
 10
-16.8954027621
 20
-0.1352942439
 30
0.0
 10
-16.8397980672
 20
-0.1076814039
 30
0.0
 10
-16.7916749013
 20
-0.0696221683
 30
0.0
 10
-16.7518563516
 20
-0.0242386479
 30
0.0
 10
-16.7226731177
 20
0.0273137124
 30
0.0
 10
-16.7053900132
 20
0.0838769061
 30
0.0
 10
-16.7005967284
 20
0.1381510123
 30
0.0
 10
-16.7030586492
 20
0.1763290094
 30
0.0
 10
-16.7059801938
 20
0.1941471826
 30
0.0
 10
-16.7065696663
 20
0.19736479
 30
0.0
  0
SPLINE
  5
727
100
AcDbEntity
  8
ASSI
100
AcDbSpline
 62
7
  6
CONTINUOUS
 70
0
 71
3
 72
17
 73
13
 74
0
 42
0.0000001
 43
0.0000001
 44
0.0000000001
 40
0.0
 40
0.0
 40
0.0
 40
0.0
 40
0.157922234
 40
0.3041160209
 40
0.4632412459
 40
0.5463538059
 40
0.6330895823
 40
0.7233063267
 40
0.8160954785
 40
0.8830771286
 40
0.946013392
 40
1.0
 40
1.0
 40
1.0
 40
1.0
 10
-16.884648332
 20
0.378038589
 30
0.0
 10
-16.8462668822
 20
0.3958147035
 30
0.0
 10
-16.7770327194
 20
0.44865033
 30
0.0
 10
-16.7420002956
 20
0.5753521975
 30
0.0
 10
-16.7726955812
 20
0.6804099653
 30
0.0
 10
-16.8286683735
 20
0.749789151
 30
0.0
 10
-16.8871401699
 20
0.7892872235
 30
0.0
 10
-16.9555248616
 20
0.814638358
 30
0.0
 10
-17.0227438174
 20
0.821697187
 30
0.0
 10
-17.0824519962
 20
0.8173995994
 30
0.0
 10
-17.1305445145
 20
0.805782458
 30
0.0
 10
-17.1594211417
 20
0.7929280877
 30
0.0
 10
-17.1721801742
 20
0.7859239889
 30
0.0
  0
SPLINE
  5
728
100
AcDbEntity
  8
ASSI
100
AcDbSpline
 62
7
  6
CONTINUOUS
 70
0
 71
3
 72
16
 73
12
 74
0
 42
0.0000001
 43
0.0000001
 44
0.0000000001
 40
0.0
 40
0.0
 40
0.0
 40
0.0
 40
0.2754465559
 40
0.3950325473
 40
0.4565247543
 40
0.5218606479
 40
0.5875789382
 40
0.6488150883
 40
0.7664059399
 40
0.8813245124
 40
1.0
 40
1.0
 40
1.0
 40
1.0
 10
-17.1978824123
 20
0.5545706345
 30
0.0
 10
-17.1908064174
 20
0.6001714371
 30
0.0
 10
-17.1654336447
 20
0.6692077029
 30
0.0
 10
-17.0978086855
 20
0.7099188649
 30
0.0
 10
-17.0576597753
 20
0.7202502468
 30
0.0
 10
-17.0253385014
 20
0.7226312541
 30
0.0
 10
-16.9930759289
 20
0.7202539521
 30
0.0
 10
-16.9531693607
 20
0.7099869413
 30
0.0
 10
-16.9103584542
 20
0.6829085652
 30
0.0
 10
-16.8756793067
 20
0.6332679997
 30
0.0
 10
-16.8691488609
 20
0.5933765905
 30
0.0
 10
-16.8691488609
 20
0.5734944656
 30
0.0
  0
SPLINE
  5
729
100
AcDbEntity
  8
ASSI
100
AcDbSpline
 62
7
  6
CONTINUOUS
 70
0
 71
3
 72
11
 73
7
 74
0
 42
0.0000001
 43
0.0000001
 44
0.0000000001
 40
0.0
 40
0.0
 40
0.0
 40
0.0
 40
0.2589066357
 40
0.4973886641
 40
0.7458566114
 40
1.0
 40
1.0
 40
1.0
 40
1.0
 10
-16.8691488609
 20
0.5734944656
 30
0.0
 10
-16.8691488609
 20
0.5495161404
 30
0.0
 10
-16.876552542
 20
0.5014872682
 30
0.0
 10
-16.9264755727
 20
0.4492073945
 30
0.0
 10
-16.9902343047
 20
0.4212553184
 30
0.0
 10
-17.0370123914
 20
0.4148048745
 30
0.0
 10
-17.0605495742
 20
0.4148048745
 30
0.0
  0
SPLINE
  5
72A
100
AcDbEntity
  8
ASSI
100
AcDbSpline
 62
7
  6
CONTINUOUS
 70
0
 71
3
 72
8
 73
4
 74
0
 42
0.0000001
 43
0.0000001
 44
0.0000000001
 40
0.0
 40
0.0
 40
0.0
 40
0.0
 40
1.0
 40
1.0
 40
1.0
 40
1.0
 10
-17.0605495742
 20
0.4148048745
 30
0.0
 10
-17.0669035498
 20
0.4148048745
 30
0.0
 10
-17.0732495697
 20
0.4154444438
 30
0.0
 10
-17.0795635201
 20
0.4161565076
 30
0.0
  0
SPLINE
  5
72B
100
AcDbEntity
  8
ASSI
100
AcDbSpline
 62
7
  6
CONTINUOUS
 70
0
 71
3
 72
9
 73
5
 74
0
 42
0.0000001
 43
0.0000001
 44
0.0000000001
 40
0.0
 40
0.0
 40
0.0
 40
0.0
 40
0.290916541
 40
1.0
 40
1.0
 40
1.0
 40
1.0
 10
-17.0929003255
 20
0.3123459124
 30
0.0
 10
-17.0848488145
 20
0.3144089337
 30
0.0
 10
-17.0570640533
 20
0.3209303013
 30
0.0
 10
-17.028542639
 20
0.3253222588
 30
0.0
 10
-17.0082838177
 20
0.3253222588
 30
0.0
  0
SPLINE
  5
72C
100
AcDbEntity
  8
ASSI
100
AcDbSpline
 62
7
  6
CONTINUOUS
 70
0
 71
3
 72
14
 73
10
 74
0
 42
0.0000001
 43
0.0000001
 44
0.0000000001
 40
0.0
 40
0.0
 40
0.0
 40
0.0
 40
0.1531755028
 40
0.3079996746
 40
0.4958433067
 40
0.5877948367
 40
0.6835810267
 40
0.8209533056
 40
1.0
 40
1.0
 40
1.0
 40
1.0
 10
-17.8357047659
 20
0.6906418661
 30
0.0
 10
-17.8210653522
 20
0.7007319661
 30
0.0
 10
-17.7883605121
 20
0.7168607401
 30
0.0
 10
-17.7306902893
 20
0.7249383194
 30
0.0
 10
-17.6794363055
 20
0.7159927385
 30
0.0
 10
-17.6413501561
 20
0.694261229
 30
0.0
 10
-17.6121803754
 20
0.6697160332
 30
0.0
 10
-17.5875375085
 20
0.6276220532
 30
0.0
 10
-17.5773690787
 20
0.5921363393
 30
0.0
 10
-17.5727540059
 20
0.5718724003
 30
0.0
  0
SPLINE
  5
72D
100
AcDbEntity
  8
ASSI
100
AcDbSpline
 62
7
  6
CONTINUOUS
 70
0
 71
3
 72
24
 73
20
 74
0
 42
0.0000001
 43
0.0000001
 44
0.0000000001
 40
0.0
 40
0.0
 40
0.0
 40
0.0
 40
0.0822880068
 40
0.1577312241
 40
0.2333251367
 40
0.2732926312
 40
0.3163027384
 40
0.3737228611
 40
0.4272843912
 40
0.4797850241
 40
0.5341863781
 40
0.6021263291
 40
0.6793833912
 40
0.7687493608
 40
0.818588534
 40
0.8720749546
 40
0.919827556
 40
0.9642108003
 40
1.0
 40
1.0
 40
1.0
 40
1.0
 10
-17.4574089002
 20
0.5834069109
 30
0.0
 10
-17.4617797611
 20
0.6174056867
 30
0.0
 10
-17.478826488
 20
0.6824318976
 30
0.0
 10
-17.5391189541
 20
0.7619296851
 30
0.0
 10
-17.6102552224
 20
0.8023341369
 30
0.0
 10
-17.6748322782
 20
0.817536625
 30
0.0
 10
-17.7333874474
 20
0.8214507449
 30
0.0
 10
-17.7977042556
 20
0.8158399826
 30
0.0
 10
-17.8632577148
 20
0.7951775934
 30
0.0
 10
-17.9207957457
 20
0.7598964481
 30
0.0
 10
-17.9727864724
 20
0.7079856072
 30
0.0
 10
-18.016123644
 20
0.63603042
 30
0.0
 10
-18.0471912836
 20
0.5427897612
 30
0.0
 10
-18.0617872567
 20
0.4535148086
 30
0.0
 10
-18.0677792462
 20
0.3734449834
 30
0.0
 10
-18.0692071409
 20
0.3104994501
 30
0.0
 10
-18.067886353
 20
0.2498276424
 30
0.0
 10
-18.0638370112
 20
0.1966713132
 30
0.0
 10
-18.0593693305
 20
0.1635332445
 30
0.0
 10
-18.0569033878
 20
0.1488186864
 30
0.0
  0
SPLINE
  5
72E
100
AcDbEntity
  8
ASSI
100
AcDbSpline
 62
7
  6
CONTINUOUS
 70
0
 71
3
 72
11
 73
7
 74
0
 42
0.0000001
 43
0.0000001
 44
0.0000000001
 40
0.0
 40
0.0
 40
0.0
 40
0.0
 40
0.3426107936
 40
0.6044566108
 40
0.8143265955
 40
1.0
 40
1.0
 40
1.0
 40
1.0
 10
-17.9533928549
 20
0.3533475026
 30
0.0
 10
-17.9530195135
 20
0.39550779
 30
0.0
 10
-17.9493062908
 20
0.4700273941
 30
0.0
 10
-17.9260635929
 20
0.5684627666
 30
0.0
 10
-17.8874267253
 20
0.6404351536
 30
0.0
 10
-17.8538374642
 20
0.6767390971
 30
0.0
 10
-17.8357047659
 20
0.6906418661
 30
0.0
  0
SPLINE
  5
72F
100
AcDbEntity
  8
ASSI
100
AcDbSpline
 62
7
  6
CONTINUOUS
 70
0
 71
3
 72
13
 73
9
 74
0
 42
0.0000001
 43
0.0000001
 44
0.0000000001
 40
0.0
 40
0.0
 40
0.0
 40
0.0
 40
0.2591153923
 40
0.3783559876
 40
0.5002774492
 40
0.6221918058
 40
0.741366948
 40
1.0
 40
1.0
 40
1.0
 40
1.0
 10
-18.3502070355
 20
0.0196577286
 30
0.0
 10
-18.3671171971
 20
-0.0031945831
 30
0.0
 10
-18.3981219436
 20
-0.0334701583
 30
0.0
 10
-18.4497773348
 20
-0.0537437526
 30
0.0
 10
-18.4897470681
 20
-0.0582795733
 30
0.0
 10
-18.5297078231
 20
-0.0537561335
 30
0.0
 10
-18.5813328033
 20
-0.0335881577
 30
0.0
 10
-18.6123643183
 20
-0.0034339945
 30
0.0
 10
-18.6292881137
 20
0.019342327
 30
0.0
  0
SPLINE
  5
730
100
AcDbEntity
  8
ASSI
100
AcDbSpline
 62
7
  6
CONTINUOUS
 70
0
 71
3
 72
9
 73
5
 74
0
 42
0.0000001
 43
0.0000001
 44
0.0000000001
 40
0.0
 40
0.0
 40
0.0
 40
0.0
 40
0.3855604367
 40
1.0
 40
1.0
 40
1.0
 40
1.0
 10
-18.6292881137
 20
0.019342327
 30
0.0
 10
-18.6539075442
 20
0.0524755603
 30
0.0
 10
-18.6814378662
 20
0.1608767245
 30
0.0
 10
-18.6858342763
 20
0.2667485635
 30
0.0
 10
-18.6858342763
 20
0.3325313499
 30
0.0
  0
SPLINE
  5
731
100
AcDbEntity
  8
ASSI
100
AcDbSpline
 62
7
  6
CONTINUOUS
 70
0
 71
3
 72
9
 73
5
 74
0
 42
0.0000001
 43
0.0000001
 44
0.0000000001
 40
0.0
 40
0.0
 40
0.0
 40
0.0
 40
0.6001364234
 40
1.0
 40
1.0
 40
1.0
 40
1.0
 10
-18.6858342763
 20
0.3325313499
 30
0.0
 10
-18.6858342763
 20
0.3985240739
 30
0.0
 10
-18.6808832578
 20
0.5078573855
 30
0.0
 10
-18.6502104123
 20
0.6176648434
 30
0.0
 10
-18.6250077076
 20
0.6536953512
 30
0.0
  0
SPLINE
  5
732
100
AcDbEntity
  8
ASSI
100
AcDbSpline
 62
7
  6
CONTINUOUS
 70
0
 71
3
 72
13
 73
9
 74
0
 42
0.0000001
 43
0.0000001
 44
0.0000000001
 40
0.0
 40
0.0
 40
0.0
 40
0.0
 40
0.2418297111
 40
0.3587506684
 40
0.4819025475
 40
0.6099630364
 40
0.7339475358
 40
1.0
 40
1.0
 40
1.0
 40
1.0
 10
-18.6250077076
 20
0.6536953512
 30
0.0
 10
-18.6094431759
 20
0.6745215222
 30
0.0
 10
-18.5795861853
 20
0.7017841625
 30
0.0
 10
-18.5302651582
 20
0.719229374
 30
0.0
 10
-18.4905745377
 20
0.7232425098
 30
0.0
 10
-18.450094177
 20
0.7188312155
 30
0.0
 10
-18.3975685556
 20
0.6984949517
 30
0.0
 10
-18.3662433244
 20
0.6677753825
 30
0.0
 10
-18.3494861175
 20
0.6445938946
 30
0.0
  0
SPLINE
  5
733
100
AcDbEntity
  8
ASSI
100
AcDbSpline
 62
7
  6
CONTINUOUS
 70
0
 71
3
 72
17
 73
13
 74
0
 42
0.0000001
 43
0.0000001
 44
0.0000000001
 40
0.0
 40
0.0
 40
0.0
 40
0.0
 40
0.0844580526
 40
0.1939587312
 40
0.3316668575
 40
0.4116386184
 40
0.4991820578
 40
0.5872976204
 40
0.6677250704
 40
0.8060064882
 40
0.915671004
 40
1.0
 40
1.0
 40
1.0
 40
1.0
 10
-18.3494861175
 20
0.6445938946
 30
0.0
 10
-18.3388882728
 20
0.6299331095
 30
0.0
 10
-18.3212405464
 20
0.5915969515
 30
0.0
 10
-18.3049829897
 20
0.5222833348
 30
0.0
 10
-18.297387825
 20
0.4524664373
 30
0.0
 10
-18.2941649682
 20
0.3871683216
 30
0.0
 10
-18.2933959068
 20
0.3324088338
 30
0.0
 10
-18.2941708789
 20
0.2775514948
 30
0.0
 10
-18.2974325414
 20
0.2119121899
 30
0.0
 10
-18.3051147183
 20
0.1418432264
 30
0.0
 10
-18.3215622576
 20
0.0724381573
 30
0.0
 10
-18.3394629145
 20
0.0341772823
 30
0.0
 10
-18.3502070355
 20
0.0196577286
 30
0.0
  0
SPLINE
  5
734
100
AcDbEntity
  8
ASSI
100
AcDbSpline
 62
7
  6
CONTINUOUS
 70
0
 71
3
 72
14
 73
10
 74
0
 42
0.0000001
 43
0.0000001
 44
0.0000000001
 40
0.0
 40
0.0
 40
0.0
 40
0.0
 40
0.1531755028
 40
0.3079996746
 40
0.4958433067
 40
0.5877948367
 40
0.6835810267
 40
0.8209533056
 40
1.0
 40
1.0
 40
1.0
 40
1.0
 10
-19.3121221194
 20
0.6906418661
 30
0.0
 10
-19.2974827057
 20
0.7007319661
 30
0.0
 10
-19.2647778656
 20
0.7168607401
 30
0.0
 10
-19.2071076428
 20
0.7249383194
 30
0.0
 10
-19.155853659
 20
0.7159927385
 30
0.0
 10
-19.1177675096
 20
0.694261229
 30
0.0
 10
-19.0885977289
 20
0.6697160332
 30
0.0
 10
-19.063954862
 20
0.6276220532
 30
0.0
 10
-19.0537864322
 20
0.5921363393
 30
0.0
 10
-19.0491713594
 20
0.5718724003
 30
0.0
  0
SPLINE
  5
735
100
AcDbEntity
  8
ASSI
100
AcDbSpline
 62
7
  6
CONTINUOUS
 70
0
 71
3
 72
24
 73
20
 74
0
 42
0.0000001
 43
0.0000001
 44
0.0000000001
 40
0.0
 40
0.0
 40
0.0
 40
0.0
 40
0.0822880068
 40
0.1577312241
 40
0.2333251367
 40
0.2732926312
 40
0.3163027384
 40
0.3737228611
 40
0.4272843912
 40
0.4797850241
 40
0.5341863781
 40
0.6021263291
 40
0.6793833912
 40
0.7687493608
 40
0.8185885339
 40
0.8720749546
 40
0.919827556
 40
0.9642108003
 40
1.0
 40
1.0
 40
1.0
 40
1.0
 10
-18.9338262537
 20
0.5834069109
 30
0.0
 10
-18.9381971146
 20
0.6174056867
 30
0.0
 10
-18.9552438415
 20
0.6824318976
 30
0.0
 10
-19.0155363076
 20
0.7619296851
 30
0.0
 10
-19.0866725759
 20
0.8023341369
 30
0.0
 10
-19.1512496317
 20
0.817536625
 30
0.0
 10
-19.2098048009
 20
0.8214507449
 30
0.0
 10
-19.2741216091
 20
0.8158399826
 30
0.0
 10
-19.3396750683
 20
0.7951775934
 30
0.0
 10
-19.3972130992
 20
0.7598964481
 30
0.0
 10
-19.4492038259
 20
0.7079856072
 30
0.0
 10
-19.4925409975
 20
0.63603042
 30
0.0
 10
-19.5236086371
 20
0.5427897612
 30
0.0
 10
-19.5382046102
 20
0.4535148086
 30
0.0
 10
-19.5441965997
 20
0.3734449834
 30
0.0
 10
-19.5456244944
 20
0.3104994501
 30
0.0
 10
-19.5443037065
 20
0.2498276424
 30
0.0
 10
-19.5402543647
 20
0.1966713132
 30
0.0
 10
-19.535786684
 20
0.1635332445
 30
0.0
 10
-19.5333207413
 20
0.1488186864
 30
0.0
  0
SPLINE
  5
736
100
AcDbEntity
  8
ASSI
100
AcDbSpline
 62
7
  6
CONTINUOUS
 70
0
 71
3
 72
11
 73
7
 74
0
 42
0.0000001
 43
0.0000001
 44
0.0000000001
 40
0.0
 40
0.0
 40
0.0
 40
0.0
 40
0.3426107936
 40
0.6044566108
 40
0.8143265955
 40
1.0
 40
1.0
 40
1.0
 40
1.0
 10
-19.4298102084
 20
0.3533475026
 30
0.0
 10
-19.429436867
 20
0.39550779
 30
0.0
 10
-19.4257236443
 20
0.4700273941
 30
0.0
 10
-19.4024809464
 20
0.5684627666
 30
0.0
 10
-19.3638440788
 20
0.6404351536
 30
0.0
 10
-19.3302548177
 20
0.6767390971
 30
0.0
 10
-19.3121221194
 20
0.6906418661
 30
0.0
  0
SPLINE
  5
737
100
AcDbEntity
  8
ASSI
100
AcDbSpline
 62
7
  6
CONTINUOUS
 70
0
 71
3
 72
24
 73
20
 74
0
 42
0.0000001
 43
0.0000001
 44
0.0000000001
 40
0.0
 40
0.0
 40
0.0
 40
0.0
 40
0.1121967685
 40
0.166093767
 40
0.2210720507
 40
0.2764710866
 40
0.3317147037
 40
0.3888826938
 40
0.4498582523
 40
0.5174707333
 40
0.5809499684
 40
0.6426255879
 40
0.7050295449
 40
0.7665006467
 40
0.8252721578
 40
0.8839358525
 40
0.9450972128
 40
0.9900525909
 40
1.0
 40
1.0
 40
1.0
 40
1.0
 10
-20.2775967356
 20
0.1104919773
 30
0.0
 10
-20.2739394479
 20
0.0738065945
 30
0.0
 10
-20.2599010075
 20
0.0194129532
 30
0.0
 10
-20.2212528703
 20
-0.0425795299
 30
0.0
 10
-20.1841604124
 20
-0.0822419157
 30
0.0
 10
-20.1401260828
 20
-0.1147810024
 30
0.0
 10
-20.0898129894
 20
-0.1382244992
 30
0.0
 10
-20.0342068394
 20
-0.1520552891
 30
0.0
 10
-19.9730856242
 20
-0.1563428248
 30
0.0
 10
-19.9098673203
 20
-0.1515568874
 30
0.0
 10
-19.8482374691
 20
-0.1352942439
 30
0.0
 10
-19.7926327742
 20
-0.1076814039
 30
0.0
 10
-19.7445096083
 20
-0.0696221683
 30
0.0
 10
-19.7046910585
 20
-0.0242386479
 30
0.0
 10
-19.6755078246
 20
0.0273137124
 30
0.0
 10
-19.6582247202
 20
0.0838769061
 30
0.0
 10
-19.6534314354
 20
0.1381510123
 30
0.0
 10
-19.6558933562
 20
0.1763290094
 30
0.0
 10
-19.6588149008
 20
0.1941471826
 30
0.0
 10
-19.6594043733
 20
0.19736479
 30
0.0
  0
SPLINE
  5
738
100
AcDbEntity
  8
ASSI
100
AcDbSpline
 62
7
  6
CONTINUOUS
 70
0
 71
3
 72
17
 73
13
 74
0
 42
0.0000001
 43
0.0000001
 44
0.0000000001
 40
0.0
 40
0.0
 40
0.0
 40
0.0
 40
0.157922234
 40
0.3041160209
 40
0.4632412459
 40
0.5463538059
 40
0.6330895823
 40
0.7233063267
 40
0.8160954785
 40
0.8830771286
 40
0.946013392
 40
1.0
 40
1.0
 40
1.0
 40
1.0
 10
-19.837483039
 20
0.378038589
 30
0.0
 10
-19.7991015892
 20
0.3958147035
 30
0.0
 10
-19.7298674264
 20
0.44865033
 30
0.0
 10
-19.6948350026
 20
0.5753521975
 30
0.0
 10
-19.7255302882
 20
0.6804099653
 30
0.0
 10
-19.7815030805
 20
0.749789151
 30
0.0
 10
-19.8399748769
 20
0.7892872235
 30
0.0
 10
-19.9083595686
 20
0.814638358
 30
0.0
 10
-19.9755785244
 20
0.821697187
 30
0.0
 10
-20.0352867032
 20
0.8173995994
 30
0.0
 10
-20.0833792215
 20
0.805782458
 30
0.0
 10
-20.1122558487
 20
0.7929280877
 30
0.0
 10
-20.1250148812
 20
0.7859239889
 30
0.0
  0
SPLINE
  5
739
100
AcDbEntity
  8
ASSI
100
AcDbSpline
 62
7
  6
CONTINUOUS
 70
0
 71
3
 72
16
 73
12
 74
0
 42
0.0000001
 43
0.0000001
 44
0.0000000001
 40
0.0
 40
0.0
 40
0.0
 40
0.0
 40
0.2754465559
 40
0.3950325473
 40
0.4565247543
 40
0.5218606479
 40
0.5875789382
 40
0.6488150883
 40
0.7664059399
 40
0.8813245124
 40
1.0
 40
1.0
 40
1.0
 40
1.0
 10
-20.1507171193
 20
0.5545706345
 30
0.0
 10
-20.1436411244
 20
0.6001714371
 30
0.0
 10
-20.1182683517
 20
0.6692077029
 30
0.0
 10
-20.0506433925
 20
0.7099188649
 30
0.0
 10
-20.0104944823
 20
0.7202502468
 30
0.0
 10
-19.9781732084
 20
0.7226312541
 30
0.0
 10
-19.9459106359
 20
0.7202539521
 30
0.0
 10
-19.9060040677
 20
0.7099869413
 30
0.0
 10
-19.8631931612
 20
0.6829085652
 30
0.0
 10
-19.8285140137
 20
0.6332679997
 30
0.0
 10
-19.8219835679
 20
0.5933765905
 30
0.0
 10
-19.8219835679
 20
0.5734944656
 30
0.0
  0
SPLINE
  5
73A
100
AcDbEntity
  8
ASSI
100
AcDbSpline
 62
7
  6
CONTINUOUS
 70
0
 71
3
 72
11
 73
7
 74
0
 42
0.0000001
 43
0.0000001
 44
0.0000000001
 40
0.0
 40
0.0
 40
0.0
 40
0.0
 40
0.2589066357
 40
0.4973886641
 40
0.7458566114
 40
1.0
 40
1.0
 40
1.0
 40
1.0
 10
-19.8219835679
 20
0.5734944656
 30
0.0
 10
-19.8219835679
 20
0.5495161404
 30
0.0
 10
-19.8293872489
 20
0.5014872682
 30
0.0
 10
-19.8793102797
 20
0.4492073945
 30
0.0
 10
-19.9430690117
 20
0.4212553184
 30
0.0
 10
-19.9898470984
 20
0.4148048745
 30
0.0
 10
-20.0133842812
 20
0.4148048745
 30
0.0
  0
SPLINE
  5
73B
100
AcDbEntity
  8
ASSI
100
AcDbSpline
 62
7
  6
CONTINUOUS
 70
0
 71
3
 72
8
 73
4
 74
0
 42
0.0000001
 43
0.0000001
 44
0.0000000001
 40
0.0
 40
0.0
 40
0.0
 40
0.0
 40
1.0
 40
1.0
 40
1.0
 40
1.0
 10
-20.0133842812
 20
0.4148048745
 30
0.0
 10
-20.0197382568
 20
0.4148048745
 30
0.0
 10
-20.0260842766
 20
0.4154444438
 30
0.0
 10
-20.0323982271
 20
0.4161565076
 30
0.0
  0
SPLINE
  5
73C
100
AcDbEntity
  8
ASSI
100
AcDbSpline
 62
7
  6
CONTINUOUS
 70
0
 71
3
 72
9
 73
5
 74
0
 42
0.0000001
 43
0.0000001
 44
0.0000000001
 40
0.0
 40
0.0
 40
0.0
 40
0.0
 40
0.290916541
 40
1.0
 40
1.0
 40
1.0
 40
1.0
 10
-20.0457350325
 20
0.3123459124
 30
0.0
 10
-20.0376835215
 20
0.3144089337
 30
0.0
 10
-20.0098987603
 20
0.3209303013
 30
0.0
 10
-19.981377346
 20
0.3253222588
 30
0.0
 10
-19.9611185247
 20
0.3253222588
 30
0.0
  0
SPLINE
  5
73D
100
AcDbEntity
  8
ASSI
100
AcDbSpline
 62
7
  6
CONTINUOUS
 70
0
 71
3
 72
22
 73
18
 74
0
 42
0.0000001
 43
0.0000001
 44
0.0000000001
 40
0.0
 40
0.0
 40
0.0
 40
0.0
 40
0.1245167122
 40
0.2419987357
 40
0.3009613969
 40
0.3584696942
 40
0.4171258175
 40
0.4793882064
 40
0.544834558
 40
0.6069895135
 40
0.6683671276
 40
0.7315742793
 40
0.7950400525
 40
0.8573180853
 40
0.9211191536
 40
0.988971738
 40
1.0
 40
1.0
 40
1.0
 40
1.0
 10
-19.9611185247
 20
0.3253222588
 30
0.0
 10
-19.9354613145
 20
0.3253222588
 30
0.0
 10
-19.8847333065
 20
0.3179367697
 30
0.0
 10
-19.83102028
 20
0.2833385231
 30
0.0
 10
-19.799539497
 20
0.2464857683
 30
0.0
 10
-19.7822619766
 20
0.2144689432
 30
0.0
 10
-19.7720934296
 20
0.1788558181
 30
0.0
 10
-19.7690055966
 20
0.1403826472
 30
0.0
 10
-19.7722391487
 20
0.101190237
 30
0.0
 10
-19.782968401
 20
0.0634711035
 30
0.0
 10
-19.8011531489
 20
0.0292359817
 30
0.0
 10
-19.8260734802
 20
-0.0007459163
 30
0.0
 10
-19.8562385999
 20
-0.0257617643
 30
0.0
 10
-19.891154473
 20
-0.0439297423
 30
0.0
 10
-19.9299400677
 20
-0.0546255594
 30
0.0
 10
-19.9593919228
 20
-0.0569555552
 30
0.0
 10
-19.9756739225
 20
-0.0567231668
 30
0.0
 10
-19.9779491309
 20
-0.0566593061
 30
0.0
  0
SPLINE
  5
73E
100
AcDbEntity
  8
ASSI
100
AcDbSpline
 62
7
  6
CONTINUOUS
 70
0
 71
3
 72
11
 73
7
 74
0
 42
0.0000001
 43
0.0000001
 44
0.0000000001
 40
0.0
 40
0.0
 40
0.0
 40
0.0
 40
0.2023283395
 40
0.445343536
 40
0.7157738534
 40
1.0
 40
1.0
 40
1.0
 40
1.0
 10
-21.7591505412
 20
0.8198643777
 30
0.0
 10
-21.770320052
 20
0.7973943011
 30
0.0
 10
-21.8020588742
 20
0.7515130198
 30
0.0
 10
-21.8649246121
 20
0.6884632123
 30
0.0
 10
-21.9440018378
 20
0.6284347966
 30
0.0
 10
-22.0046672358
 20
0.5954317024
 30
0.0
 10
-22.0366095981
 20
0.5805233272
 30
0.0
  0
SPLINE
  5
73F
100
AcDbEntity
  8
ASSI
100
AcDbSpline
 62
7
  6
CONTINUOUS
 70
0
 71
3
 72
13
 73
9
 74
0
 42
0.0000001
 43
0.0000001
 44
0.0000000001
 40
0.0
 40
0.0
 40
0.0
 40
0.0
 40
0.2307998936
 40
0.3606885394
 40
0.5005072743
 40
0.6401943536
 40
0.7697765133
 40
1.0
 40
1.0
 40
1.0
 40
1.0
 10
-22.0366095981
 20
0.4673409752
 30
0.0
 10
-22.0166147742
 20
0.4746593196
 30
0.0
 10
-21.9860805898
 20
0.4880704866
 30
0.0
 10
-21.9450158329
 20
0.5091843344
 30
0.0
 10
-21.9120599874
 20
0.5276492005
 30
0.0
 10
-21.8797932676
 20
0.5472519911
 30
0.0
 10
-21.8416340476
 20
0.5730885908
 30
0.0
 10
-21.8156039039
 20
0.5938868307
 30
0.0
 10
-21.8001521314
 20
0.6084584563
 30
0.0
  0
SPLINE
  5
740
100
AcDbEntity
  8
ASSI
100
AcDbSpline
 62
7
  6
CONTINUOUS
 70
0
 71
3
 72
9
 73
5
 74
0
 42
0.0000001
 43
0.0000001
 44
0.0000000001
 40
0.0
 40
0.0
 40
0.0
 40
0.0
 40
0.7097160398
 40
1.0
 40
1.0
 40
1.0
 40
1.0
 10
-23.0026248147
 20
0.7160537825
 30
0.0
 10
-22.9886285411
 20
0.6681518236
 30
0.0
 10
-22.9661105522
 20
0.6014839839
 30
0.0
 10
-22.9422532222
 20
0.5353441994
 30
0.0
 10
-22.9352200461
 20
0.5161823717
 30
0.0
  0
LINE
  5
741
100
AcDbEntity
  8
ASSI
100
AcDbLine
 62
7
  6
CONTINUOUS
 10
-24.0729012002
 20
-0.0279221495
 11
-23.4841906752
 21
0.7045192719
  0
SPLINE
  5
742
100
AcDbEntity
  8
ASSI
100
AcDbSpline
 62
7
  6
CONTINUOUS
 70
0
 71
3
 72
9
 73
5
 74
0
 42
0.0000001
 43
0.0000001
 44
0.0000000001
 40
0.0
 40
0.0
 40
0.0
 40
0.0
 40
0.2319301259
 40
1.0
 40
1.0
 40
1.0
 40
1.0
 10
-23.6316161
 20
0.7045192719
 30
0.0
 10
-23.6396775171
 20
0.6960725191
 30
0.0
 10
-23.6739508573
 20
0.6591907216
 30
0.0
 10
-23.7064338513
 20
0.6206708296
 30
0.0
 10
-23.730650702
 20
0.5905258873
 30
0.0
  0
SPLINE
  5
743
100
AcDbEntity
  8
ASSI
100
AcDbSpline
 62
7
  6
CONTINUOUS
 70
0
 71
3
 72
17
 73
13
 74
0
 42
0.0000001
 43
0.0000001
 44
0.0000000001
 40
0.0
 40
0.0
 40
0.0
 40
0.0
 40
0.1860451082
 40
0.2705259002
 40
0.3141542026
 40
0.3603530295
 40
0.5121184572
 40
0.5895792025
 40
0.6716563947
 40
0.7632308695
 40
0.8657555241
 40
1.0
 40
1.0
 40
1.0
 40
1.0
 10
-26.2582404683
 20
0.1964602062
 30
0.0
 10
-26.2728539415
 20
0.1292077413
 30
0.0
 10
-26.3199107685
 20
0.0291986548
 30
0.0
 10
-26.4246912072
 20
-0.0279103701
 30
0.0
 10
-26.4876689702
 20
-0.0428828812
 30
0.0
 10
-26.576941757
 20
-0.0494351184
 30
0.0
 10
-26.6815114554
 20
-0.0224652036
 30
0.0
 10
-26.7709033469
 20
0.053441608
 30
0.0
 10
-26.816084772
 20
0.1365349209
 30
0.0
 10
-26.841391735
 20
0.2361802741
 30
0.0
 10
-26.8503874875
 20
0.3576023577
 30
0.0
 10
-26.8407788521
 20
0.4460990924
 30
0.0
 10
-26.8277128022
 20
0.4941810973
 30
0.0
  0
SPLINE
  5
744
100
AcDbEntity
  8
ASSI
100
AcDbSpline
 62
7
  6
CONTINUOUS
 70
0
 71
3
 72
9
 73
5
 74
0
 42
0.0000001
 43
0.0000001
 44
0.0000000001
 40
0.0
 40
0.0
 40
0.0
 40
0.0
 40
0.4786249203
 40
1.0
 40
1.0
 40
1.0
 40
1.0
 10
-26.5330861978
 20
0.7218210378
 30
0.0
 10
-26.4785075656
 20
0.7218210378
 30
0.0
 10
-26.3560862563
 20
0.6920021147
 30
0.0
 10
-26.2992057183
 20
0.5802677825
 30
0.0
 10
-26.2813094895
 20
0.5235716923
 30
0.0
  0
SPLINE
  5
745
100
AcDbEntity
  8
ASSI
100
AcDbSpline
 62
7
  6
CONTINUOUS
 70
0
 71
3
 72
25
 73
21
 74
0
 42
0.0000001
 43
0.0000001
 44
0.0000000001
 40
0.0
 40
0.0
 40
0.0
 40
0.0
 40
0.0888847953
 40
0.1718004827
 40
0.2552805514
 40
0.2993533532
 40
0.346394781
 40
0.3886666315
 40
0.4297437762
 40
0.4702843229
 40
0.5109724255
 40
0.5911642652
 40
0.6732957874
 40
0.7613184488
 40
0.8083486364
 40
0.85815985
 40
0.9045619297
 40
0.949869011
 40
0.9945301458
 40
1.0
 40
1.0
 40
1.0
 40
1.0
 10
-26.1544298731
 20
0.5527684277
 30
0.0
 10
-26.1662838001
 20
0.5940605808
 30
0.0
 10
-26.1994518439
 20
0.6718465104
 30
0.0
 10
-26.2848645562
 20
0.7643352269
 30
0.0
 10
-26.3778426115
 20
0.8109733032
 30
0.0
 10
-26.4606442243
 20
0.8286436878
 30
0.0
 10
-26.5252010733
 20
0.8326833021
 30
0.0
 10
-26.5882538403
 20
0.8291126615
 30
0.0
 10
-26.6473225858
 20
0.8183235004
 30
0.0
 10
-26.7037512795
 20
0.8001382439
 30
0.0
 10
-26.7745327474
 20
0.7669512594
 30
0.0
 10
-26.8540144805
 20
0.7065879414
 30
0.0
 10
-26.9233672549
 20
0.6052545736
 30
0.0
 10
-26.9576696392
 20
0.5048008362
 30
0.0
 10
-26.9712216983
 20
0.4163432875
 30
0.0
 10
-26.9744439058
 20
0.3470619554
 30
0.0
 10
-26.9713686645
 20
0.2786386765
 30
0.0
 10
-26.9619400858
 20
0.2132898662
 30
0.0
 10
-26.9507041615
 20
0.1684693045
 30
0.0
 10
-26.9434854917
 20
0.1453296729
 30
0.0
 10
-26.9426820029
 20
0.1428099513
 30
0.0
  0
SPLINE
  5
746
100
AcDbEntity
  8
ASSI
100
AcDbSpline
 62
7
  6
CONTINUOUS
 70
0
 71
3
 72
11
 73
7
 74
0
 42
0.0000001
 43
0.0000001
 44
0.0000000001
 40
0.0
 40
0.0
 40
0.0
 40
0.0
 40
0.2525992429
 40
0.4888102636
 40
0.730558892
 40
1.0
 40
1.0
 40
1.0
 40
1.0
 10
-26.5256968772
 20
-0.1548017659
 30
0.0
 10
-26.4794179792
 20
-0.1548017659
 30
0.0
 10
-26.3888228062
 20
-0.1430847891
 30
0.0
 10
-26.2679175384
 20
-0.0788634034
 30
0.0
 10
-26.1770773093
 20
0.0276308073
 30
0.0
 10
-26.1435352155
 20
0.116810415
 30
0.0
 10
-26.131360852
 20
0.1646501434
 30
0.0
  0
SPLINE
  5
747
100
AcDbEntity
  8
ASSI
100
AcDbSpline
 62
7
  6
CONTINUOUS
 70
0
 71
3
 72
8
 73
4
 74
0
 42
0.0000001
 43
0.0000001
 44
0.0000000001
 40
0.0
 40
0.0
 40
0.0
 40
0.0
 40
1.0
 40
1.0
 40
1.0
 40
1.0
 10
-27.8413520006
 20
-0.0308057332
 30
0.0
 10
-27.855873099
 20
0.0216133403
 30
0.0
 10
-27.8728428928
 20
0.0733746352
 30
0.0
 10
-27.8912747739
 20
0.1245497006
 30
0.0
  0
SPLINE
  5
748
100
AcDbEntity
  8
ASSI
100
AcDbSpline
 62
7
  6
CONTINUOUS
 70
0
 71
3
 72
9
 73
5
 74
0
 42
0.0000001
 43
0.0000001
 44
0.0000000001
 40
0.0
 40
0.0
 40
0.0
 40
0.0
 40
0.7097160398
 40
1.0
 40
1.0
 40
1.0
 40
1.0
 10
-30.7307468994
 20
0.7160537825
 30
0.0
 10
-30.7167506258
 20
0.6681518236
 30
0.0
 10
-30.6942326369
 20
0.6014839839
 30
0.0
 10
-30.6703753069
 20
0.5353441994
 30
0.0
 10
-30.6633421308
 20
0.5161823717
 30
0.0
  0
SPLINE
  5
749
100
AcDbEntity
  8
ASSI
100
AcDbSpline
 62
7
  6
CONTINUOUS
 70
0
 71
3
 72
8
 73
4
 74
0
 42
0.0000001
 43
0.0000001
 44
0.0000000001
 40
0.0
 40
0.0
 40
0.0
 40
0.0
 40
1.0
 40
1.0
 40
1.0
 40
1.0
 10
-31.9649395309
 20
-0.0308057332
 30
0.0
 10
-31.9794606292
 20
0.0216133403
 30
0.0
 10
-31.996430423
 20
0.0733746352
 30
0.0
 10
-32.0148623042
 20
0.1245497006
 30
0.0
  0
SPLINE
  5
74A
100
AcDbEntity
  8
ASSI
100
AcDbSpline
 62
7
  6
CONTINUOUS
 70
0
 71
3
 72
9
 73
5
 74
0
 42
0.0000001
 43
0.0000001
 44
0.0000000001
 40
0.0
 40
0.0
 40
0.0
 40
0.0
 40
0.7097160398
 40
1.0
 40
1.0
 40
1.0
 40
1.0
 10
-33.233735694
 20
0.7160537825
 30
0.0
 10
-33.2197394204
 20
0.6681518236
 30
0.0
 10
-33.1972214315
 20
0.6014839839
 30
0.0
 10
-33.1733641015
 20
0.5353441994
 30
0.0
 10
-33.1663309254
 20
0.5161823717
 30
0.0
  0
SPLINE
  5
74B
100
AcDbEntity
  8
ASSI
100
AcDbSpline
 62
7
  6
CONTINUOUS
 70
0
 71
3
 72
15
 73
11
 74
0
 42
0.0000001
 43
0.0000001
 44
0.0000000001
 40
0.0
 40
0.0
 40
0.0
 40
0.0
 40
0.1818234323
 40
0.2742230203
 40
0.3716340726
 40
0.4851660516
 40
0.5943000072
 40
0.6975375539
 40
0.7935178969
 40
1.0
 40
1.0
 40
1.0
 40
1.0
 10
-33.8017653265
 20
0.3379381462
 30
0.0
 10
-33.7776320208
 20
0.3647561678
 30
0.0
 10
-33.7482365643
 20
0.4126046142
 30
0.0
 10
-33.729723543
 20
0.484329216
 30
0.0
 10
-33.7250382987
 20
0.5445979851
 30
0.0
 10
-33.7311148183
 20
0.6083274954
 30
0.0
 10
-33.7524416292
 20
0.6699758267
 30
0.0
 10
-33.7847932575
 20
0.7225845716
 30
0.0
 10
-33.8441120637
 20
0.7785020521
 30
0.0
 10
-33.9038777276
 20
0.7982812999
 30
0.0
 10
-33.944279586
 20
0.8050858245
 30
0.0
  0
SPLINE
  5
74C
100
AcDbEntity
  8
ASSI
100
AcDbSpline
 62
7
  6
CONTINUOUS
 70
0
 71
3
 72
9
 73
5
 74
0
 42
0.0000001
 43
0.0000001
 44
0.0000000001
 40
0.0
 40
0.0
 40
0.0
 40
0.0
 40
0.1935112737
 40
1.0
 40
1.0
 40
1.0
 40
1.0
 10
-33.944279586
 20
0.8050858245
 30
0.0
 10
-33.9532734504
 20
0.8067452036
 30
0.0
 10
-34.0001386648
 20
0.8131776633
 30
0.0
 10
-34.047551423
 20
0.8140971224
 30
0.0
 10
-34.0856674112
 20
0.8140971224
 30
0.0
  0
SPLINE
  5
74D
100
AcDbEntity
  8
ASSI
100
AcDbSpline
 62
7
  6
CONTINUOUS
 70
0
 71
3
 72
9
 73
5
 74
0
 42
0.0000001
 43
0.0000001
 44
0.0000000001
 40
0.0
 40
0.0
 40
0.0
 40
0.0
 40
0.3152731366
 40
1.0
 40
1.0
 40
1.0
 40
1.0
 10
-34.0725109234
 20
0.2546733595
 30
0.0
 10
-34.0423434332
 20
0.2546733595
 30
0.0
 10
-33.9482413568
 20
0.2587698879
 30
0.0
 10
-33.8455925371
 20
0.289235366
 30
0.0
 10
-33.8017653265
 20
0.3379381462
 30
0.0
  0
SPLINE
  5
74E
100
AcDbEntity
  8
ASSI
100
AcDbSpline
 62
7
  6
CONTINUOUS
 70
0
 71
3
 72
9
 73
5
 74
0
 42
0.0000001
 43
0.0000001
 44
0.0000000001
 40
0.0
 40
0.0
 40
0.0
 40
0.0
 40
0.8336714283
 40
1.0
 40
1.0
 40
1.0
 40
1.0
 10
-34.073682327
 20
0.7045192719
 30
0.0
 10
-34.0419451971
 20
0.7045192719
 30
0.0
 10
-34.0036631554
 20
0.7043495586
 30
0.0
 10
-33.9660635884
 20
0.6977313624
 30
0.0
 10
-33.9599592865
 20
0.6960486625
 30
0.0
  0
SPLINE
  5
74F
100
AcDbEntity
  8
ASSI
100
AcDbSpline
 62
7
  6
CONTINUOUS
 70
0
 71
3
 72
16
 73
12
 74
0
 42
0.0000001
 43
0.0000001
 44
0.0000000001
 40
0.0
 40
0.0
 40
0.0
 40
0.0
 40
0.1830996794
 40
0.2824687972
 40
0.3347380912
 40
0.3901799081
 40
0.4651885762
 40
0.533460504
 40
0.6606216576
 40
0.804680395
 40
1.0
 40
1.0
 40
1.0
 40
1.0
 10
-33.9599592865
 20
0.6960486625
 30
0.0
 10
-33.9294100985
 20
0.6873450102
 30
0.0
 10
-33.8861977875
 20
0.6548954578
 30
0.0
 10
-33.8619765206
 20
0.6013000189
 30
0.0
 10
-33.8548081994
 20
0.5659587037
 30
0.0
 10
-33.8529873772
 20
0.5342421558
 30
0.0
 10
-33.8555049295
 20
0.4996698759
 30
0.0
 10
-33.8673931703
 20
0.4541120893
 30
0.0
 10
-33.9011676302
 20
0.4024899501
 30
0.0
 10
-33.9779557069
 20
0.3679689498
 30
0.0
 10
-34.037274379
 20
0.36425121
 30
0.0
 10
-34.0711592023
 20
0.36425121
 30
0.0
  0
SPLINE
  5
750
100
AcDbEntity
  8
ASSI
100
AcDbSpline
 62
7
  6
CONTINUOUS
 70
0
 71
3
 72
16
 73
12
 74
0
 42
0.0000001
 43
0.0000001
 44
0.0000000001
 40
0.0
 40
0.0
 40
0.0
 40
0.0
 40
0.1566468856
 40
0.220189847
 40
0.2871042189
 40
0.4238330589
 40
0.5820227078
 40
0.6769136751
 40
0.7814331672
 40
0.9003632222
 40
1.0
 40
1.0
 40
1.0
 40
1.0
 10
-34.8464044207
 20
0.2535019559
 30
0.0
 10
-34.8157468974
 20
0.2413815419
 30
0.0
 10
-34.7715077689
 20
0.2169508032
 30
0.0
 10
-34.7454490532
 20
0.1608928326
 30
0.0
 10
-34.7377641681
 20
0.1046517912
 30
0.0
 10
-34.7619290385
 20
0.0266074331
 30
0.0
 10
-34.8341447214
 20
-0.0222769734
 30
0.0
 10
-34.9068838998
 20
-0.0420456606
 30
0.0
 10
-34.9740741318
 20
-0.0471293699
 30
0.0
 10
-35.0422572856
 20
-0.041217458
 30
0.0
 10
-35.0864920202
 20
-0.0275177517
 30
0.0
 10
-35.1058475719
 20
-0.0192853967
 30
0.0
  0
SPLINE
  5
751
100
AcDbEntity
  8
ASSI
100
AcDbSpline
 62
7
  6
CONTINUOUS
 70
0
 71
3
 72
12
 73
8
 74
0
 42
0.0000001
 43
0.0000001
 44
0.0000000001
 40
0.0
 40
0.0
 40
0.0
 40
0.0
 40
0.1606441131
 40
0.3160528741
 40
0.4695579901
 40
0.6257786262
 40
1.0
 40
1.0
 40
1.0
 40
1.0
 10
-35.3647365666
 20
0.1739317855
 30
0.0
 10
-35.3639011294
 20
0.1427906192
 30
0.0
 10
-35.354973375
 20
0.0812941213
 30
0.0
 10
-35.3168270435
 20
-0.0026516229
 30
0.0
 10
-35.2572600892
 20
-0.0722180562
 30
0.0
 10
-35.1423876213
 20
-0.1423687759
 30
0.0
 10
-35.0357609864
 20
-0.1548017659
 30
0.0
 10
-34.9631913623
 20
-0.1548017659
 30
0.0
  0
SPLINE
  5
752
100
AcDbEntity
  8
ASSI
100
AcDbSpline
 62
7
  6
CONTINUOUS
 70
0
 71
3
 72
15
 73
11
 74
0
 42
0.0000001
 43
0.0000001
 44
0.0000000001
 40
0.0
 40
0.0
 40
0.0
 40
0.0
 40
0.1205523663
 40
0.2334839557
 40
0.3389214346
 40
0.4385318437
 40
0.6258636217
 40
0.7171536601
 40
0.8046135431
 40
1.0
 40
1.0
 40
1.0
 40
1.0
 10
-34.9631913623
 20
-0.1548017659
 30
0.0
 10
-34.9311098466
 20
-0.1548017659
 30
0.0
 10
-34.868696411
 20
-0.1492723615
 30
0.0
 10
-34.7821362714
 20
-0.121490513
 30
0.0
 10
-34.7089869773
 20
-0.0767697994
 30
0.0
 10
-34.6390641837
 20
0.0025287519
 30
0.0
 10
-34.6080450492
 20
0.1049060037
 30
0.0
 10
-34.6211106368
 20
0.2025561869
 30
0.0
 10
-34.6632798015
 20
0.2946818616
 30
0.0
 10
-34.7292300981
 20
0.3411729218
 30
0.0
 10
-34.7763864126
 20
0.3630798064
 30
0.0
  0
SPLINE
  5
753
100
AcDbEntity
  8
ASSI
100
AcDbSpline
 62
7
  6
CONTINUOUS
 70
0
 71
3
 72
9
 73
5
 74
0
 42
0.0000001
 43
0.0000001
 44
0.0000000001
 40
0.0
 40
0.0
 40
0.0
 40
0.0
 40
0.1708537376
 40
1.0
 40
1.0
 40
1.0
 40
1.0
 10
-34.7763864126
 20
0.3630798064
 30
0.0
 10
-34.7875302817
 20
0.3681741391
 30
0.0
 10
-34.8546852936
 20
0.3936405285
 30
0.0
 10
-34.9246299316
 20
0.4105000801
 30
0.0
 10
-34.9825207098
 20
0.4240865166
 30
0.0
  0
SPLINE
  5
754
100
AcDbEntity
  8
ASSI
100
AcDbSpline
 62
7
  6
CONTINUOUS
 70
0
 71
3
 72
9
 73
5
 74
0
 42
0.0000001
 43
0.0000001
 44
0.0000000001
 40
0.0
 40
0.0
 40
0.0
 40
0.0
 40
0.6350560901
 40
1.0
 40
1.0
 40
1.0
 40
1.0
 10
-34.9825207098
 20
0.4240865166
 30
0.0
 10
-35.0233195327
 20
0.4336616274
 30
0.0
 10
-35.0860543982
 20
0.4509015908
 30
0.0
 10
-35.1497169723
 20
0.4760186195
 30
0.0
 10
-35.167208051
 20
0.4925726621
 30
0.0
  0
SPLINE
  5
755
100
AcDbEntity
  8
ASSI
100
AcDbSpline
 62
7
  6
CONTINUOUS
 70
0
 71
3
 72
14
 73
10
 74
0
 42
0.0000001
 43
0.0000001
 44
0.0000000001
 40
0.0
 40
0.0
 40
0.0
 40
0.0
 40
0.1221754561
 40
0.2479284667
 40
0.3235721644
 40
0.3974374623
 40
0.5551234414
 40
0.7467267791
 40
1.0
 40
1.0
 40
1.0
 40
1.0
 10
-35.167208051
 20
0.4925726621
 30
0.0
 10
-35.1786065141
 20
0.5031447245
 30
0.0
 10
-35.1979033046
 20
0.5296126824
 30
0.0
 10
-35.2049072087
 20
0.5713964972
 30
0.0
 10
-35.2012655661
 20
0.6064599028
 30
0.0
 10
-35.1878494335
 20
0.6435397708
 30
0.0
 10
-35.1520803807
 20
0.6864824226
 30
0.0
 10
-35.0798329241
 20
0.7181539091
 30
0.0
 10
-35.0226338999
 20
0.7218210378
 30
0.0
 10
-34.9904055734
 20
0.7218210378
 30
0.0
  0
SPLINE
  5
756
100
AcDbEntity
  8
ASSI
100
AcDbSpline
 62
7
  6
CONTINUOUS
 70
0
 71
3
 72
9
 73
5
 74
0
 42
0.0000001
 43
0.0000001
 44
0.0000000001
 40
0.0
 40
0.0
 40
0.0
 40
0.0
 40
0.5306823676
 40
1.0
 40
1.0
 40
1.0
 40
1.0
 10
-34.9904055734
 20
0.7218210378
 30
0.0
 10
-34.9345531316
 20
0.7218210378
 30
0.0
 10
-34.8156867225
 20
0.7044089031
 30
0.0
 10
-34.7701987938
 20
0.5921496206
 30
0.0
 10
-34.7649420168
 20
0.5430361239
 30
0.0
  0
SPLINE
  5
757
100
AcDbEntity
  8
ASSI
100
AcDbSpline
 62
7
  6
CONTINUOUS
 70
0
 71
3
 72
20
 73
16
 74
0
 42
0.0000001
 43
0.0000001
 44
0.0000000001
 40
0.0
 40
0.0
 40
0.0
 40
0.0
 40
0.1573317713
 40
0.2361791109
 40
0.3195933993
 40
0.4109088545
 40
0.4598620877
 40
0.5115766229
 40
0.5588578561
 40
0.6043116697
 40
0.6913315838
 40
0.7718242667
 40
0.8471214746
 40
0.9894569562
 40
1.0
 40
1.0
 40
1.0
 40
1.0
 10
-34.6380624005
 20
0.5488033792
 30
0.0
 10
-34.6400892274
 20
0.6008259116
 30
0.0
 10
-34.6636107724
 20
0.6808122859
 30
0.0
 10
-34.736038357
 20
0.7599529339
 30
0.0
 10
-34.8101195151
 20
0.8018094511
 30
0.0
 10
-34.8819333874
 20
0.8219418807
 30
0.0
 10
-34.9450046084
 20
0.8300932437
 30
0.0
 10
-34.9939843718
 20
0.8320569418
 30
0.0
 10
-35.0418053287
 20
0.8301409725
 30
0.0
 10
-35.1008253433
 20
0.8221355317
 30
0.0
 10
-35.1690363156
 20
0.8026582251
 30
0.0
 10
-35.2402772035
 20
0.7630576326
 30
0.0
 10
-35.3076262998
 20
0.689029807
 30
0.0
 10
-35.3310128113
 20
0.6119786956
 30
0.0
 10
-35.3300838449
 20
0.5610614371
 30
0.0
 10
-35.3299401858
 20
0.5575564498
 30
0.0
  0
SPLINE
  5
758
100
AcDbEntity
  8
ASSI
100
AcDbSpline
 62
7
  6
CONTINUOUS
 70
0
 71
3
 72
9
 73
5
 74
0
 42
0.0000001
 43
0.0000001
 44
0.0000000001
 40
0.0
 40
0.0
 40
0.0
 40
0.0
 40
0.1806469784
 40
1.0
 40
1.0
 40
1.0
 40
1.0
 10
-35.1924397379
 20
0.36010602
 30
0.0
 10
-35.1822456646
 20
0.3547776854
 30
0.0
 10
-35.123777298
 20
0.3292659684
 30
0.0
 10
-35.0618926574
 20
0.3129230832
 30
0.0
 10
-35.0112668714
 20
0.3003158148
 30
0.0
  0
SPLINE
  5
759
100
AcDbEntity
  8
ASSI
100
AcDbSpline
 62
7
  6
CONTINUOUS
 70
0
 71
3
 72
9
 73
5
 74
0
 42
0.0000001
 43
0.0000001
 44
0.0000000001
 40
0.0
 40
0.0
 40
0.0
 40
0.0
 40
0.3500357027
 40
1.0
 40
1.0
 40
1.0
 40
1.0
 10
-35.0112668714
 20
0.3003158148
 30
0.0
 10
-34.9918593431
 20
0.2954827852
 30
0.0
 10
-34.9366362262
 20
0.2810588158
 30
0.0
 10
-34.8808454406
 20
0.267394784
 30
0.0
 10
-34.8464044207
 20
0.2535019559
 30
0.0
  0
SPLINE
  5
75A
100
AcDbEntity
  8
ASSI
100
AcDbSpline
 62
7
  6
CONTINUOUS
 70
0
 71
3
 72
16
 73
12
 74
0
 42
0.0000001
 43
0.0000001
 44
0.0000000001
 40
0.0
 40
0.0
 40
0.0
 40
0.0
 40
0.1089696409
 40
0.1828936499
 40
0.2222819345
 40
0.2625064106
 40
0.3465431344
 40
0.4482180559
 40
0.5822445398
 40
0.7621351793
 40
1.0
 40
1.0
 40
1.0
 40
1.0
 10
-36.3735556682
 20
0.283509636
 30
0.0
 10
-36.3597333816
 20
0.283509636
 30
0.0
 10
-36.336580118
 20
0.282976172
 30
0.0
 10
-36.3083034372
 20
0.2807248635
 30
0.0
 10
-36.2895940793
 20
0.2750916962
 30
0.0
 10
-36.2702263347
 20
0.2676305397
 30
0.0
 10
-36.2446505648
 20
0.254274435
 30
0.0
 10
-36.2136237456
 20
0.2276878972
 30
0.0
 10
-36.1797614676
 20
0.1871410684
 30
0.0
 10
-36.1392252028
 20
0.1300563666
 30
0.0
 10
-36.1101792238
 20
0.0857240385
 30
0.0
 10
-36.0939338575
 20
0.0602988598
 30
0.0
  0
SPLINE
  5
75B
100
AcDbEntity
  8
ASSI
100
AcDbSpline
 62
7
  6
CONTINUOUS
 70
0
 71
3
 72
9
 73
5
 74
0
 42
0.0000001
 43
0.0000001
 44
0.0000000001
 40
0.0
 40
0.0
 40
0.0
 40
0.0
 40
0.2659540588
 40
1.0
 40
1.0
 40
1.0
 40
1.0
 10
-35.9818328824
 20
0.1212155433
 30
0.0
 10
-35.9897000324
 20
0.1330971542
 30
0.0
 10
-36.0202134176
 20
0.1771313756
 30
0.0
 10
-36.0547392362
 20
0.2185114293
 30
0.0
 10
-36.0826696911
 20
0.2462027501
 30
0.0
  0
SPLINE
  5
75C
100
AcDbEntity
  8
ASSI
100
AcDbSpline
 62
7
  6
CONTINUOUS
 70
0
 71
3
 72
9
 73
5
 74
0
 42
0.0000001
 43
0.0000001
 44
0.0000000001
 40
0.0
 40
0.0
 40
0.0
 40
0.0
 40
0.209446698
 40
1.0
 40
1.0
 40
1.0
 40
1.0
 10
-36.0826696911
 20
0.2462027501
 30
0.0
 10
-36.0870440685
 20
0.2504653717
 30
0.0
 10
-36.1091550758
 20
0.2695603975
 30
0.0
 10
-36.1345757237
 20
0.2844106735
 30
0.0
 10
-36.1550306824
 20
0.2950441465
 30
0.0
  0
SPLINE
  5
75D
100
AcDbEntity
  8
ASSI
100
AcDbSpline
 62
7
  6
CONTINUOUS
 70
0
 71
3
 72
19
 73
15
 74
0
 42
0.0000001
 43
0.0000001
 44
0.0000000001
 40
0.0
 40
0.0
 40
0.0
 40
0.0
 40
0.136569576
 40
0.2487419393
 40
0.3510973289
 40
0.4029098052
 40
0.4575312966
 40
0.5006597919
 40
0.54259345
 40
0.6258399794
 40
0.7059972618
 40
0.7829904054
 40
0.8757620861
 40
1.0
 40
1.0
 40
1.0
 40
1.0
 10
-36.1550306824
 20
0.2950441465
 30
0.0
 10
-36.1147233224
 20
0.3006416557
 30
0.0
 10
-36.0413434923
 20
0.317362683
 30
0.0
 10
-35.9515223729
 20
0.3763039023
 30
0.0
 10
-35.9082353392
 20
0.4457572651
 30
0.0
 10
-35.8920223595
 20
0.5061228757
 30
0.0
 10
-35.8885572715
 20
0.5507944205
 30
0.0
 10
-35.8911140043
 20
0.5924379895
 30
0.0
 10
-35.90089773
 20
0.6417814054
 30
0.0
 10
-35.9254108941
 20
0.6986771286
 30
0.0
 10
-35.9709808475
 20
0.7554965457
 30
0.0
 10
-36.0364762299
 20
0.7942548244
 30
0.0
 10
-36.1233879456
 20
0.8112808483
 30
0.0
 10
-36.1880291231
 20
0.8140971224
 30
0.0
 10
-36.2250487785
 20
0.8140971224
 30
0.0
  0
SPLINE
  5
75E
100
AcDbEntity
  8
ASSI
100
AcDbSpline
 62
7
  6
CONTINUOUS
 70
0
 71
3
 72
16
 73
12
 74
0
 42
0.0000001
 43
0.0000001
 44
0.0000000001
 40
0.0
 40
0.0
 40
0.0
 40
0.0
 40
0.1522543123
 40
0.2694555914
 40
0.3706433414
 40
0.4732597487
 40
0.6190505678
 40
0.6948201622
 40
0.775286542
 40
0.8735743773
 40
1.0
 40
1.0
 40
1.0
 40
1.0
 10
-36.2199123264
 20
0.7045192719
 30
0.0
 10
-36.1892213069
 20
0.7045192719
 30
0.0
 10
-36.1342969712
 20
0.7006195167
 30
0.0
 10
-36.0644248894
 20
0.6678967821
 30
0.0
 10
-36.0241302752
 20
0.6140747122
 30
0.0
 10
-36.0105843198
 20
0.5430070751
 30
0.0
 10
-36.029983109
 20
0.4763666081
 30
0.0
 10
-36.072078433
 20
0.4308973587
 30
0.0
 10
-36.1185836577
 20
0.4071368411
 30
0.0
 10
-36.1793501681
 20
0.3950698418
 30
0.0
 10
-36.2247058977
 20
0.3930874864
 30
0.0
 10
-36.2501904387
 20
0.3930874864
 30
0.0
  0
SPLINE
  5
75F
100
AcDbEntity
  8
ASSI
100
AcDbSpline
 62
7
  6
CONTINUOUS
 70
0
 71
3
 72
9
 73
5
 74
0
 42
0.0000001
 43
0.0000001
 44
0.0000000001
 40
0.0
 40
0.0
 40
0.0
 40
0.0
 40
0.7097160398
 40
1.0
 40
1.0
 40
1.0
 40
1.0
 10
-37.2073745869
 20
0.7160537825
 30
0.0
 10
-37.1933783132
 20
0.6681518236
 30
0.0
 10
-37.1708603243
 20
0.6014839839
 30
0.0
 10
-37.1470029943
 20
0.5353441994
 30
0.0
 10
-37.1399698182
 20
0.5161823717
 30
0.0
  0
SPLINE
  5
760
100
AcDbEntity
  8
ASSI
100
AcDbSpline
 62
7
  6
CONTINUOUS
 70
0
 71
3
 72
9
 73
5
 74
0
 42
0.0000001
 43
0.0000001
 44
0.0000000001
 40
0.0
 40
0.0
 40
0.0
 40
0.0
 40
0.3106214921
 40
1.0
 40
1.0
 40
1.0
 40
1.0
 10
-38.1355422291
 20
0.1534760918
 30
0.0
 10
-38.1410981714
 20
0.1377671589
 30
0.0
 10
-38.1588818632
 20
0.0871595702
 30
0.0
 10
-38.1764264355
 20
0.0364595019
 30
0.0
 10
-38.1878079857
 20
0.0012745858
 30
0.0
  0
SPLINE
  5
761
100
AcDbEntity
  8
ASSI
100
AcDbSpline
 62
7
  6
CONTINUOUS
 70
0
 71
3
 72
9
 73
5
 74
0
 42
0.0000001
 43
0.0000001
 44
0.0000000001
 40
0.0
 40
0.0
 40
0.0
 40
0.0
 40
0.1862683768
 40
1.0
 40
1.0
 40
1.0
 40
1.0
 10
-38.1878079857
 20
0.0012745858
 30
0.0
 10
-38.1905032939
 20
0.0100385508
 30
0.0
 10
-38.2052635174
 20
0.056999294
 30
0.0
 10
-38.2206922275
 20
0.1037463555
 30
0.0
 10
-38.2333152248
 20
0.1417613517
 30
0.0
  0
SPLINE
  5
762
100
AcDbEntity
  8
ASSI
100
AcDbSpline
 62
7
  6
CONTINUOUS
 70
0
 71
3
 72
8
 73
4
 74
0
 42
0.0000001
 43
0.0000001
 44
0.0000000001
 40
0.0
 40
0.0
 40
0.0
 40
0.0
 40
1.0
 40
1.0
 40
1.0
 40
1.0
 10
-39.5488802334
 20
-0.0308057332
 30
0.0
 10
-39.5634013318
 20
0.0216133403
 30
0.0
 10
-39.5803711256
 20
0.0733746352
 30
0.0
 10
-39.5988030067
 20
0.1245497006
 30
0.0
  0
SPLINE
  5
763
100
AcDbEntity
  8
ASSI
100
AcDbSpline
 62
7
  6
CONTINUOUS
 70
0
 71
3
 72
29
 73
25
 74
0
 42
0.0000001
 43
0.0000001
 44
0.0000000001
 40
0.0
 40
0.0
 40
0.0
 40
0.0
 40
0.0356756609
 40
0.0800743562
 40
0.1648581527
 40
0.2455182361
 40
0.3251916009
 40
0.3657353528
 40
0.4062140955
 40
0.4474175219
 40
0.4900951157
 40
0.5539687363
 40
0.613857537
 40
0.6723265521
 40
0.7321238034
 40
0.7934593331
 40
0.8247695254
 40
0.8568795699
 40
0.8901839737
 40
0.9249781797
 40
0.9615095894
 40
0.9804982722
 40
0.9901836714
 40
1.0
 40
1.0
 40
1.0
 40
1.0
 10
-12.3593302136
 20
0.3528336565
 30
0.0
 10
-12.3597250694
 20
0.370689998
 30
0.0
 10
-12.3621260107
 20
0.4107301225
 30
0.0
 10
-12.3747778573
 20
0.4923732394
 30
0.0
 10
-12.4085741157
 20
0.5929242942
 30
0.0
 10
-12.4771417739
 20
0.6966298048
 30
0.0
 10
-12.5566976748
 20
0.7606707006
 30
0.0
 10
-12.6285323288
 20
0.7972148028
 30
0.0
 10
-12.686590763
 20
0.8171012357
 30
0.0
 10
-12.7478827472
 20
0.8289390772
 30
0.0
 10
-12.8218489096
 20
0.8332045888
 30
0.0
 10
-12.9053225229
 20
0.8263857824
 30
0.0
 10
-12.9936457821
 20
0.8011605563
 30
0.0
 10
-13.0725561898
 20
0.7581506658
 30
0.0
 10
-13.1408975465
 20
0.6988026256
 30
0.0
 10
-13.1872221971
 20
0.6373987807
 30
0.0
 10
-13.2161484875
 20
0.5819631327
 30
0.0
 10
-13.2339199
 20
0.5368539721
 30
0.0
 10
-13.2477080461
 20
0.488572154
 30
0.0
 10
-13.2575337745
 20
0.4370851133
 30
0.0
 10
-13.2623514463
 20
0.3921041967
 30
0.0
 10
-13.264042808
 20
0.3595161269
 30
0.0
 10
-13.2645312259
 20
0.3402623796
 30
0.0
 10
-13.2646185515
 20
0.3305043501
 30
0.0
 10
-13.2646143065
 20
0.325592603
 30
0.0
  0
SPLINE
  5
764
100
AcDbEntity
  8
ASSI
100
AcDbSpline
 62
7
  6
CONTINUOUS
 70
0
 71
3
 72
27
 73
23
 74
0
 42
0.0000001
 43
0.0000001
 44
0.0000000001
 40
0.0
 40
0.0
 40
0.0
 40
0.0
 40
0.0052129271
 40
0.0104072108
 40
0.0207459653
 40
0.041268333
 40
0.08205139
 40
0.1229976731
 40
0.1638963418
 40
0.2444177426
 40
0.3245451876
 40
0.4061500071
 40
0.4479339316
 40
0.4913767295
 40
0.6494860786
 40
0.7289017971
 40
0.8105874161
 40
0.8534559229
 40
0.8970940618
 40
0.942157345
 40
0.9892417994
 40
1.0
 40
1.0
 40
1.0
 40
1.0
 10
-13.2646143065
 20
0.325592603
 30
0.0
 10
-13.2646120522
 20
0.3229842368
 30
0.0
 10
-13.2645804138
 20
0.3177768465
 30
0.0
 10
-13.2643686556
 20
0.3073982398
 30
0.0
 10
-13.2636353364
 20
0.2893702545
 30
0.0
 10
-13.260693569
 20
0.2536261849
 30
0.0
 10
-13.2521636516
 20
0.2030632335
 30
0.0
 10
-13.2351548136
 20
0.1439605593
 30
0.0
 10
-13.2038996177
 20
0.0688529892
 30
0.0
 10
-13.1481181281
 20
-0.0168936969
 30
0.0
 10
-13.053205138
 20
-0.0950224745
 30
0.0
 10
-12.9585065364
 20
-0.1362498507
 30
0.0
 10
-12.8762923974
 20
-0.1522128209
 30
0.0
 10
-12.7547047614
 20
-0.1598652287
 30
0.0
 10
-12.6108501262
 20
-0.1249690647
 30
0.0
 10
-12.4819950777
 20
-0.0269755723
 30
0.0
 10
-12.4236207298
 20
0.0588124224
 30
0.0
 10
-12.3904510577
 20
0.1362922759
 30
0.0
 10
-12.3722246093
 20
0.1997445784
 30
0.0
 10
-12.3614085384
 20
0.2669709085
 30
0.0
 10
-12.3589008911
 20
0.3184892251
 30
0.0
 10
-12.3592111426
 20
0.3474489741
 30
0.0
 10
-12.3593302136
 20
0.3528336565
 30
0.0
  0
SPLINE
  5
765
100
AcDbEntity
  8
ASSI
100
AcDbSpline
 62
7
  6
CONTINUOUS
 70
0
 71
3
 72
20
 73
16
 74
0
 42
0.0000001
 43
0.0000001
 44
0.0000000001
 40
0.0
 40
0.0
 40
0.0
 40
0.0
 40
0.056993967
 40
0.1256281149
 40
0.1895670145
 40
0.2513099568
 40
0.3661710324
 40
0.4798635818
 40
0.5615404775
 40
0.6427660144
 40
0.7262959247
 40
0.8154334154
 40
0.9078772166
 40
0.9537839177
 40
1.0
 40
1.0
 40
1.0
 40
1.0
 10
-17.555623811
 20
0.1525372617
 30
0.0
 10
-17.5559976767
 20
0.1402944474
 30
0.0
 10
-17.5581956367
 20
0.1133615796
 30
0.0
 10
-17.5670270644
 20
0.0734401394
 30
0.0
 10
-17.5835950463
 20
0.034806348
 30
0.0
 10
-17.6136996082
 20
-0.0074446744
 30
0.0
 10
-17.6644439426
 20
-0.047259692
 30
0.0
 10
-17.7320454812
 20
-0.0600871748
 30
0.0
 10
-17.7915274023
 20
-0.0520735568
 30
0.0
 10
-17.8404096046
 20
-0.0298904853
 30
0.0
 10
-17.88212287
 20
0.0064736485
 30
0.0
 10
-17.9122978147
 20
0.0555112415
 30
0.0
 10
-17.9284521499
 20
0.102000808
 30
0.0
 10
-17.9350554037
 20
0.1411501186
 30
0.0
 10
-17.9360801629
 20
0.1609416353
 30
0.0
 10
-17.936091089
 20
0.1708679724
 30
0.0
  0
SPLINE
  5
766
100
AcDbEntity
  8
ASSI
100
AcDbSpline
 62
7
  6
CONTINUOUS
 70
0
 71
3
 72
23
 73
19
 74
0
 42
0.0000001
 43
0.0000001
 44
0.0000000001
 40
0.0
 40
0.0
 40
0.0
 40
0.0
 40
0.0347638563
 40
0.0680301853
 40
0.1312339517
 40
0.2519486401
 40
0.3118327503
 40
0.369444337
 40
0.4272209104
 40
0.4875799959
 40
0.5499206087
 40
0.6081877135
 40
0.7222944188
 40
0.7818693912
 40
0.8433407373
 40
0.9092387339
 40
0.9816309716
 40
1.0
 40
1.0
 40
1.0
 40
1.0
 10
-17.936091089
 20
0.1708679724
 30
0.0
 10
-17.9360993077
 20
0.1783345887
 30
0.0
 10
-17.9355582543
 20
0.1929432415
 30
0.0
 10
-17.9321966028
 20
0.2209456396
 30
0.0
 10
-17.9203777559
 20
0.2663300027
 30
0.0
 10
-17.8909443099
 20
0.3117222583
 30
0.0
 10
-17.8515432418
 20
0.3446970092
 30
0.0
 10
-17.8182848995
 20
0.3628813878
 30
0.0
 10
-17.7818191554
 20
0.3736222745
 30
0.0
 10
-17.7430042085
 20
0.3768876769
 30
0.0
 10
-17.7040734428
 20
0.3736642986
 30
0.0
 10
-17.6553144829
 20
0.359701317
 30
0.0
 10
-17.6133257346
 20
0.3295895065
 30
0.0
 10
-17.5832837157
 20
0.2886614517
 30
0.0
 10
-17.5668835762
 20
0.2516955311
 30
0.0
 10
-17.5572987624
 20
0.2096662679
 30
0.0
 10
-17.5552278466
 20
0.1759918079
 30
0.0
 10
-17.5555033149
 20
0.1564830935
 30
0.0
 10
-17.555623811
 20
0.1525372617
 30
0.0
  0
SPLINE
  5
767
100
AcDbEntity
  8
ASSI
100
AcDbSpline
 62
7
  6
CONTINUOUS
 70
0
 71
3
 72
25
 73
21
 74
0
 42
0.0000001
 43
0.0000001
 44
0.0000000001
 40
0.0
 40
0.0
 40
0.0
 40
0.0
 40
0.0514509122
 40
0.0974915596
 40
0.1736562047
 40
0.2358848562
 40
0.2912931023
 40
0.3421729313
 40
0.3923748328
 40
0.4443027499
 40
0.5000924408
 40
0.5383666631
 40
0.574021779
 40
0.6411427859
 40
0.7101283661
 40
0.788009064
 40
0.8825725913
 40
0.9382660506
 40
0.9683742185
 40
1.0
 40
1.0
 40
1.0
 40
1.0
 10
-18.178315749
 20
0.3322602039
 30
0.0
 10
-18.1783008369
 20
0.3546812004
 30
0.0
 10
-18.179089968
 20
0.3971610621
 30
0.0
 10
-18.1838551416
 20
0.4726715908
 30
0.0
 10
-18.1959367282
 20
0.5524645209
 30
0.0
 10
-18.2223090214
 20
0.632962467
 30
0.0
 10
-18.2543522305
 20
0.6993888408
 30
0.0
 10
-18.2973673156
 20
0.7533238643
 30
0.0
 10
-18.3527780769
 20
0.7919625777
 30
0.0
 10
-18.4182738549
 20
0.8153866198
 30
0.0
 10
-18.4821346083
 20
0.8214313824
 30
0.0
 10
-18.5386860911
 20
0.8178161568
 30
0.0
 10
-18.5989559019
 20
0.8047095099
 30
0.0
 10
-18.6669402528
 20
0.7691712316
 30
0.0
 10
-18.7291269952
 20
0.6973805936
 30
0.0
 10
-18.772691636
 20
0.6004223676
 30
0.0
 10
-18.7919618424
 20
0.5022728217
 30
0.0
 10
-18.7987588551
 20
0.4239742617
 30
0.0
 10
-18.8008408215
 20
0.3728460652
 30
0.0
 10
-18.8011839476
 20
0.3459497421
 30
0.0
 10
-18.8011793821
 20
0.3321708909
 30
0.0
  0
SPLINE
  5
768
100
AcDbEntity
  8
ASSI
100
AcDbSpline
 62
7
  6
CONTINUOUS
 70
0
 71
3
 72
26
 73
22
 74
0
 42
0.0000001
 43
0.0000001
 44
0.0000000001
 40
0.0
 40
0.0
 40
0.0
 40
0.0
 40
0.0252741961
 40
0.0496764813
 40
0.0959388808
 40
0.1389595113
 40
0.1789319094
 40
0.2504850255
 40
0.3127323825
 40
0.3588069517
 40
0.4037833605
 40
0.4502161924
 40
0.5004382742
 40
0.5389263601
 40
0.5747448729
 40
0.6420799547
 40
0.7111715415
 40
0.7890227331
 40
0.8832899337
 40
0.9386812444
 40
1.0
 40
1.0
 40
1.0
 40
1.0
 10
-18.8011793821
 20
0.3321708909
 30
0.0
 10
-18.8011757335
 20
0.3211593247
 30
0.0
 10
-18.8009421746
 20
0.299515955
 30
0.0
 10
-18.7994806358
 20
0.2577402399
 30
0.0
 10
-18.7959036758
 20
0.2083162356
 30
0.0
 10
-18.7886208788
 20
0.1524350415
 30
0.0
 10
-18.7755411113
 20
0.0863556676
 30
0.0
 10
-18.7530201483
 20
0.0136951388
 30
0.0
 10
-18.7137343917
 20
-0.0552704539
 30
0.0
 10
-18.6654180255
 20
-0.1023450171
 30
0.0
 10
-18.6134658146
 20
-0.1332725753
 30
0.0
 10
-18.5538763246
 20
-0.1513193333
 30
0.0
 10
-18.4948536534
 20
-0.156188761
 30
0.0
 10
-18.4405485024
 20
-0.152749233
 30
0.0
 10
-18.3800292431
 20
-0.1395744071
 30
0.0
 10
-18.3118927655
 20
-0.1038332102
 30
0.0
 10
-18.2497698083
 20
-0.031807179
 30
0.0
 10
-18.2065242967
 20
0.0651873065
 30
0.0
 10
-18.1874553235
 20
0.1630805421
 30
0.0
 10
-18.1795335376
 20
0.2546733937
 30
0.0
 10
-18.1783335211
 20
0.3055390526
 30
0.0
 10
-18.178315749
 20
0.3322602039
 30
0.0
  0
SPLINE
  5
769
100
AcDbEntity
  8
ASSI
100
AcDbSpline
 62
7
  6
CONTINUOUS
 70
0
 71
3
 72
20
 73
16
 74
0
 42
0.0000001
 43
0.0000001
 44
0.0000000001
 40
0.0
 40
0.0
 40
0.0
 40
0.0
 40
0.056993967
 40
0.1256281149
 40
0.1895670145
 40
0.2513099568
 40
0.3661710324
 40
0.4798635818
 40
0.5615404775
 40
0.6427660144
 40
0.7262959247
 40
0.8154334154
 40
0.9078772166
 40
0.9537839177
 40
1.0
 40
1.0
 40
1.0
 40
1.0
 10
-19.0320411645
 20
0.1525372617
 30
0.0
 10
-19.0324150302
 20
0.1402944474
 30
0.0
 10
-19.0346129902
 20
0.1133615796
 30
0.0
 10
-19.0434444179
 20
0.0734401394
 30
0.0
 10
-19.0600123998
 20
0.034806348
 30
0.0
 10
-19.0901169617
 20
-0.0074446744
 30
0.0
 10
-19.1408612961
 20
-0.047259692
 30
0.0
 10
-19.2084628347
 20
-0.0600871748
 30
0.0
 10
-19.2679447558
 20
-0.0520735568
 30
0.0
 10
-19.3168269581
 20
-0.0298904853
 30
0.0
 10
-19.3585402235
 20
0.0064736485
 30
0.0
 10
-19.3887151682
 20
0.0555112415
 30
0.0
 10
-19.4048695034
 20
0.102000808
 30
0.0
 10
-19.4114727572
 20
0.1411501186
 30
0.0
 10
-19.4124975164
 20
0.1609416353
 30
0.0
 10
-19.4125084425
 20
0.1708679724
 30
0.0
  0
SPLINE
  5
76A
100
AcDbEntity
  8
ASSI
100
AcDbSpline
 62
7
  6
CONTINUOUS
 70
0
 71
3
 72
23
 73
19
 74
0
 42
0.0000001
 43
0.0000001
 44
0.0000000001
 40
0.0
 40
0.0
 40
0.0
 40
0.0
 40
0.0347638563
 40
0.0680301853
 40
0.1312339517
 40
0.2519486401
 40
0.3118327503
 40
0.369444337
 40
0.4272209104
 40
0.4875799959
 40
0.5499206087
 40
0.6081877135
 40
0.7222944188
 40
0.7818693912
 40
0.8433407373
 40
0.9092387339
 40
0.9816309716
 40
1.0
 40
1.0
 40
1.0
 40
1.0
 10
-19.4125084425
 20
0.1708679724
 30
0.0
 10
-19.4125166612
 20
0.1783345887
 30
0.0
 10
-19.4119756078
 20
0.1929432415
 30
0.0
 10
-19.4086139563
 20
0.2209456396
 30
0.0
 10
-19.3967951094
 20
0.2663300027
 30
0.0
 10
-19.3673616634
 20
0.3117222583
 30
0.0
 10
-19.3279605953
 20
0.3446970092
 30
0.0
 10
-19.294702253
 20
0.3628813878
 30
0.0
 10
-19.2582365089
 20
0.3736222745
 30
0.0
 10
-19.219421562
 20
0.3768876769
 30
0.0
 10
-19.1804907963
 20
0.3736642986
 30
0.0
 10
-19.1317318364
 20
0.359701317
 30
0.0
 10
-19.0897430881
 20
0.3295895065
 30
0.0
 10
-19.0597010692
 20
0.2886614517
 30
0.0
 10
-19.0433009297
 20
0.2516955311
 30
0.0
 10
-19.0337161159
 20
0.2096662679
 30
0.0
 10
-19.0316452001
 20
0.1759918079
 30
0.0
 10
-19.0319206684
 20
0.1564830935
 30
0.0
 10
-19.0320411645
 20
0.1525372617
 30
0.0
  0
SPLINE
  5
76B
100
AcDbEntity
  8
ASSI
100
AcDbSpline
 62
7
  6
CONTINUOUS
 70
0
 71
3
 72
8
 73
4
 74
0
 42
0.0000001
 43
0.0000001
 44
0.0000000001
 40
0.0
 40
0.0
 40
0.0
 40
0.0
 40
1.0
 40
1.0
 40
1.0
 40
1.0
 10
26.9184770807
 20
0.9215544803
 30
0.0
 10
26.7786567912
 20
1.048168014
 30
0.0
 10
26.5854408669
 20
1.1249999994
 30
0.0
 10
26.4004072102
 20
1.1249999994
 30
0.0
  0
SPLINE
  5
76C
100
AcDbEntity
  8
ASSI
100
AcDbSpline
 62
7
  6
CONTINUOUS
 70
0
 71
3
 72
11
 73
7
 74
0
 42
0.0000001
 43
0.0000001
 44
0.0000000001
 40
0.0
 40
0.0
 40
0.0
 40
0.0
 40
0.089231307
 40
0.3113901877
 40
0.5291800206
 40
1.0
 40
1.0
 40
1.0
 40
1.0
 10
-10.0276981509
 20
0.4941810973
 30
0.0
 10
-10.0245592668
 20
0.5057319364
 30
0.0
 10
-10.0120712631
 20
0.5456190798
 30
0.0
 10
-9.9810490409
 20
0.6102148852
 30
0.0
 10
-9.893091168
 20
0.6979540938
 30
0.0
 10
-9.7960182709
 20
0.7218210378
 30
0.0
 10
-9.7330715465
 20
0.7218210378
 30
0.0
  0
SPLINE
  5
76D
100
AcDbEntity
  8
ASSI
100
AcDbSpline
 62
7
  6
CONTINUOUS
 70
0
 71
3
 72
12
 73
8
 74
0
 42
0.0000001
 43
0.0000001
 44
0.0000000001
 40
0.0
 40
0.0
 40
0.0
 40
0.0
 40
0.1025765978
 40
0.2161664823
 40
0.3240892025
 40
0.5317789563
 40
1.0
 40
1.0
 40
1.0
 40
1.0
 10
-10.1426673516
 20
0.1428099513
 30
0.0
 10
-10.1369364353
 20
0.1248379363
 30
0.0
 10
-10.1231599489
 20
0.0875080916
 30
0.0
 10
-10.0967144593
 20
0.0339110985
 30
0.0
 10
-10.0519104523
 20
-0.0312522554
 30
0.0
 10
-9.9439705117
 20
-0.131134039
 30
0.0
 10
-9.8117536329
 20
-0.1548017659
 30
0.0
 10
-9.7256822259
 20
-0.1548017659
 30
0.0
  0
SPLINE
  5
76E
100
AcDbEntity
  8
ASSI
100
AcDbSpline
 62
7
  6
CONTINUOUS
 70
0
 71
3
 72
10
 73
6
 74
0
 42
0.0000001
 43
0.0000001
 44
0.0000000001
 40
0.0
 40
0.0
 40
0.0
 40
0.0
 40
0.2101723731
 40
0.4563781437
 40
1.0
 40
1.0
 40
1.0
 40
1.0
 10
-12.1974792293
 20
0.5575564498
 30
0.0
 10
-12.1967545542
 20
0.5398758619
 30
0.0
 10
-12.1907829983
 20
0.5018396258
 30
0.0
 10
-12.1559046456
 20
0.4242797761
 30
0.0
 10
-12.100427383
 20
0.3809861123
 30
0.0
 10
-12.0599787814
 20
0.36010602
 30
0.0
  0
SPLINE
  5
76F
100
AcDbEntity
  8
ASSI
100
AcDbSpline
 62
7
  6
CONTINUOUS
 70
0
 71
3
 72
12
 73
8
 74
0
 42
0.0000001
 43
0.0000001
 44
0.0000000001
 40
0.0
 40
0.0
 40
0.0
 40
0.0
 40
0.0289732385
 40
0.2799194297
 40
0.5034135291
 40
0.7337877942
 40
1.0
 40
1.0
 40
1.0
 40
1.0
 10
-11.9733866154
 20
-0.0192853967
 30
0.0
 10
-11.9756636432
 20
-0.0183169251
 30
0.0
 10
-11.9975544799
 20
-0.0086945209
 30
0.0
 10
-12.0349290374
 20
0.0132193675
 30
0.0
 10
-12.0761253051
 20
0.0583444585
 30
0.0
 10
-12.1006921699
 20
0.1153998394
 30
0.0
 10
-12.1086389473
 20
0.1571746124
 30
0.0
 10
-12.111163249
 20
0.1796990408
 30
0.0
  0
SPLINE
  5
770
100
AcDbEntity
  8
ASSI
100
AcDbSpline
 62
7
  6
CONTINUOUS
 70
0
 71
3
 72
18
 73
14
 74
0
 42
0.0000001
 43
0.0000001
 44
0.0000000001
 40
0.0
 40
0.0
 40
0.0
 40
0.0
 40
0.0314188831
 40
0.1137535795
 40
0.1972542334
 40
0.2856797666
 40
0.3727265689
 40
0.4553305989
 40
0.5371666397
 40
0.6220093251
 40
0.7093561403
 40
0.7991650126
 40
1.0
 40
1.0
 40
1.0
 40
1.0
 10
-12.6080319481
 20
0.025776887
 30
0.0
 10
-12.6142400858
 20
0.0205632376
 30
0.0
 10
-12.637458596
 20
0.0025714998
 30
0.0
 10
-12.6820509642
 20
-0.0226259877
 30
0.0
 10
-12.7453221967
 20
-0.0414712445
 30
0.0
 10
-12.8121595963
 20
-0.0471467907
 30
0.0
 10
-12.878766155
 20
-0.0414910879
 30
0.0
 10
-12.9413202238
 20
-0.022773494
 30
0.0
 10
-12.9977188813
 20
0.00896511
 30
0.0
 10
-13.0471313019
 20
0.0525232726
 30
0.0
 10
-13.0881226721
 20
0.1067962298
 30
0.0
 10
-13.1285127476
 20
0.1961329241
 30
0.0
 10
-13.1377346902
 20
0.2723302436
 30
0.0
 10
-13.1377346902
 20
0.3240606524
 30
0.0
  0
SPLINE
  5
771
100
AcDbEntity
  8
ASSI
100
AcDbSpline
 62
7
  6
CONTINUOUS
 70
0
 71
3
 72
12
 73
8
 74
0
 42
0.0000001
 43
0.0000001
 44
0.0000000001
 40
0.0
 40
0.0
 40
0.0
 40
0.0
 40
0.1009982855
 40
0.217704019
 40
0.4410700438
 40
0.688240277
 40
1.0
 40
1.0
 40
1.0
 40
1.0
 10
-17.0251144239
 20
-0.0566593061
 30
0.0
 10
-17.0347069855
 20
-0.0563900617
 30
0.0
 10
-17.0553393737
 20
-0.054607705
 30
0.0
 10
-17.0961289553
 20
-0.0445835033
 30
0.0
 10
-17.1458202474
 20
-0.0156548476
 30
0.0
 10
-17.1884764958
 20
0.0474026592
 30
0.0
 10
-17.2033257201
 20
0.0988539517
 30
0.0
 10
-17.2094169228
 20
0.1277937432
 30
0.0
  0
SPLINE
  5
772
100
AcDbEntity
  8
ASSI
100
AcDbSpline
 62
7
  6
CONTINUOUS
 70
0
 71
3
 72
10
 73
6
 74
0
 42
0.0000001
 43
0.0000001
 44
0.0000000001
 40
0.0
 40
0.0
 40
0.0
 40
0.0
 40
0.1187441487
 40
0.4134156441
 40
1.0
 40
1.0
 40
1.0
 40
1.0
 10
-16.7065696663
 20
0.19736479
 30
0.0
 10
-16.7084686517
 20
0.2077303122
 30
0.0
 10
-16.7172530866
 20
0.2434309123
 30
0.0
 10
-16.7592173209
 20
0.3237751101
 30
0.0
 10
-16.833968769
 20
0.3663182492
 30
0.0
 10
-16.884648332
 20
0.378038589
 30
0.0
  0
SPLINE
  5
773
100
AcDbEntity
  8
ASSI
100
AcDbSpline
 62
7
  6
CONTINUOUS
 70
0
 71
3
 72
10
 73
6
 74
0
 42
0.0000001
 43
0.0000001
 44
0.0000000001
 40
0.0
 40
0.0
 40
0.0
 40
0.0
 40
0.2047034631
 40
0.5819525333
 40
1.0
 40
1.0
 40
1.0
 40
1.0
 10
-17.1721801742
 20
0.7859239889
 30
0.0
 10
-17.1880842688
 20
0.7771934014
 30
0.0
 10
-17.2307620861
 20
0.7476517761
 30
0.0
 10
-17.2860127846
 20
0.6764322134
 30
0.0
 10
-17.3067329014
 20
0.608103982
 30
0.0
 10
-17.313227518
 20
0.5718724003
 30
0.0
  0
SPLINE
  5
774
100
AcDbEntity
  8
ASSI
100
AcDbSpline
 62
7
  6
CONTINUOUS
 70
0
 71
3
 72
24
 73
20
 74
0
 42
0.0000001
 43
0.0000001
 44
0.0000000001
 40
0.0
 40
0.0
 40
0.0
 40
0.0
 40
0.0514309364
 40
0.1320192791
 40
0.2025663583
 40
0.2672995774
 40
0.3293613968
 40
0.391969746
 40
0.4582630153
 40
0.4978444158
 40
0.5359032638
 40
0.6101097289
 40
0.6842934869
 40
0.7619758951
 40
0.8427348527
 40
0.8835541282
 40
0.9253641986
 40
0.9872211791
 40
1.0
 40
1.0
 40
1.0
 40
1.0
 10
-18.0569033878
 20
0.1488186864
 30
0.0
 10
-18.0539093651
 20
0.1309530157
 30
0.0
 10
-18.0444395385
 20
0.0853897506
 30
0.0
 10
-18.0213073932
 20
0.0174311485
 30
0.0
 10
-17.9800646639
 20
-0.0473377862
 30
0.0
 10
-17.9292355327
 20
-0.095519459
 30
0.0
 10
-17.871732639
 20
-0.1303368458
 30
0.0
 10
-17.8070595072
 20
-0.1507392519
 30
0.0
 10
-17.7475970192
 20
-0.156108788
 30
0.0
 10
-17.6969113768
 20
-0.1532119596
 30
0.0
 10
-17.6442884385
 20
-0.1430873243
 30
0.0
 10
-17.5829725975
 20
-0.1171454574
 30
0.0
 10
-17.5208055323
 20
-0.0656043307
 30
0.0
 10
-17.4753059575
 20
0.0036373625
 30
0.0
 10
-17.4512846551
 20
0.070228378
 30
0.0
 10
-17.4416447698
 20
0.1270454725
 30
0.0
 10
-17.4389960983
 20
0.1779167966
 30
0.0
 10
-17.441996086
 20
0.2189802456
 30
0.0
 10
-17.4468142377
 20
0.2448492469
 30
0.0
 10
-17.4477268155
 20
0.2492604156
 30
0.0
  0
SPLINE
  5
775
100
AcDbEntity
  8
ASSI
100
AcDbSpline
 62
7
  6
CONTINUOUS
 70
0
 71
3
 72
16
 73
12
 74
0
 42
0.0000001
 43
0.0000001
 44
0.0000000001
 40
0.0
 40
0.0
 40
0.0
 40
0.0
 40
0.0716681923
 40
0.1602407834
 40
0.2489751931
 40
0.3359464937
 40
0.4188868604
 40
0.501429145
 40
0.5872567632
 40
0.7870946486
 40
1.0
 40
1.0
 40
1.0
 40
1.0
 10
-17.4477268155
 20
0.2492604156
 30
0.0
 10
-17.4509262499
 20
0.2647256676
 30
0.0
 10
-17.4604881704
 20
0.2988089983
 30
0.0
 10
-17.484635332
 20
0.3484391738
 30
0.0
 10
-17.5208168763
 20
0.3944497206
 30
0.0
 10
-17.5638596442
 20
0.4321860962
 30
0.0
 10
-17.6124871874
 20
0.4598831587
 30
0.0
 10
-17.6657834737
 20
0.476232247
 30
0.0
 10
-17.7467885355
 20
0.483774242
 30
0.0
 10
-17.8583103476
 20
0.4583598334
 30
0.0
 10
-17.9275999723
 20
0.3924492717
 30
0.0
 10
-17.9533928549
 20
0.3533475026
 30
0.0
  0
SPLINE
  5
776
100
AcDbEntity
  8
ASSI
100
AcDbSpline
 62
7
  6
CONTINUOUS
 70
0
 71
3
 72
24
 73
20
 74
0
 42
0.0000001
 43
0.0000001
 44
0.0000000001
 40
0.0
 40
0.0
 40
0.0
 40
0.0
 40
0.0514309364
 40
0.1320192791
 40
0.2025663583
 40
0.2672995774
 40
0.3293613968
 40
0.391969746
 40
0.4582630153
 40
0.4978444158
 40
0.5359032638
 40
0.6101097289
 40
0.6842934869
 40
0.7619758951
 40
0.8427348527
 40
0.8835541282
 40
0.9253641986
 40
0.9872211791
 40
1.0
 40
1.0
 40
1.0
 40
1.0
 10
-19.5333207413
 20
0.1488186864
 30
0.0
 10
-19.5303267186
 20
0.1309530157
 30
0.0
 10
-19.520856892
 20
0.0853897506
 30
0.0
 10
-19.4977247467
 20
0.0174311485
 30
0.0
 10
-19.4564820174
 20
-0.0473377862
 30
0.0
 10
-19.4056528862
 20
-0.095519459
 30
0.0
 10
-19.3481499925
 20
-0.1303368458
 30
0.0
 10
-19.2834768607
 20
-0.1507392519
 30
0.0
 10
-19.2240143727
 20
-0.156108788
 30
0.0
 10
-19.1733287303
 20
-0.1532119596
 30
0.0
 10
-19.120705792
 20
-0.1430873243
 30
0.0
 10
-19.059389951
 20
-0.1171454574
 30
0.0
 10
-18.9972228858
 20
-0.0656043307
 30
0.0
 10
-18.951723311
 20
0.0036373625
 30
0.0
 10
-18.9277020086
 20
0.070228378
 30
0.0
 10
-18.9180621233
 20
0.1270454725
 30
0.0
 10
-18.9154134518
 20
0.1779167966
 30
0.0
 10
-18.9184134394
 20
0.2189802456
 30
0.0
 10
-18.9232315912
 20
0.2448492469
 30
0.0
 10
-18.924144169
 20
0.2492604156
 30
0.0
  0
SPLINE
  5
777
100
AcDbEntity
  8
ASSI
100
AcDbSpline
 62
7
  6
CONTINUOUS
 70
0
 71
3
 72
16
 73
12
 74
0
 42
0.0000001
 43
0.0000001
 44
0.0000000001
 40
0.0
 40
0.0
 40
0.0
 40
0.0
 40
0.0716681923
 40
0.1602407834
 40
0.2489751931
 40
0.3359464937
 40
0.4188868604
 40
0.501429145
 40
0.5872567632
 40
0.7870946486
 40
1.0
 40
1.0
 40
1.0
 40
1.0
 10
-18.924144169
 20
0.2492604156
 30
0.0
 10
-18.9273436034
 20
0.2647256676
 30
0.0
 10
-18.9369055239
 20
0.2988089983
 30
0.0
 10
-18.9610526855
 20
0.3484391738
 30
0.0
 10
-18.9972342298
 20
0.3944497206
 30
0.0
 10
-19.0402769977
 20
0.4321860962
 30
0.0
 10
-19.0889045409
 20
0.4598831587
 30
0.0
 10
-19.1422008272
 20
0.476232247
 30
0.0
 10
-19.223205889
 20
0.483774242
 30
0.0
 10
-19.3347277011
 20
0.4583598334
 30
0.0
 10
-19.4040173258
 20
0.3924492717
 30
0.0
 10
-19.4298102084
 20
0.3533475026
 30
0.0
  0
SPLINE
  5
778
100
AcDbEntity
  8
ASSI
100
AcDbSpline
 62
7
  6
CONTINUOUS
 70
0
 71
3
 72
10
 73
6
 74
0
 42
0.0000001
 43
0.0000001
 44
0.0000000001
 40
0.0
 40
0.0
 40
0.0
 40
0.0
 40
0.1187441487
 40
0.4134156441
 40
1.0
 40
1.0
 40
1.0
 40
1.0
 10
-19.6594043733
 20
0.19736479
 30
0.0
 10
-19.6613033587
 20
0.2077303122
 30
0.0
 10
-19.6700877936
 20
0.2434309123
 30
0.0
 10
-19.7120520278
 20
0.3237751101
 30
0.0
 10
-19.7868034759
 20
0.3663182492
 30
0.0
 10
-19.837483039
 20
0.378038589
 30
0.0
  0
SPLINE
  5
779
100
AcDbEntity
  8
ASSI
100
AcDbSpline
 62
7
  6
CONTINUOUS
 70
0
 71
3
 72
10
 73
6
 74
0
 42
0.0000001
 43
0.0000001
 44
0.0000000001
 40
0.0
 40
0.0
 40
0.0
 40
0.0
 40
0.2047034631
 40
0.5819525333
 40
1.0
 40
1.0
 40
1.0
 40
1.0
 10
-20.1250148812
 20
0.7859239889
 30
0.0
 10
-20.1409189758
 20
0.7771934014
 30
0.0
 10
-20.1835967931
 20
0.7476517761
 30
0.0
 10
-20.2388474916
 20
0.6764322134
 30
0.0
 10
-20.2595676084
 20
0.608103982
 30
0.0
 10
-20.266062225
 20
0.5718724003
 30
0.0
  0
SPLINE
  5
77A
100
AcDbEntity
  8
ASSI
100
AcDbSpline
 62
7
  6
CONTINUOUS
 70
0
 71
3
 72
12
 73
8
 74
0
 42
0.0000001
 43
0.0000001
 44
0.0000000001
 40
0.0
 40
0.0
 40
0.0
 40
0.0
 40
0.1009982855
 40
0.217704019
 40
0.4410700438
 40
0.688240277
 40
1.0
 40
1.0
 40
1.0
 40
1.0
 10
-19.9779491309
 20
-0.0566593061
 30
0.0
 10
-19.9875416925
 20
-0.0563900617
 30
0.0
 10
-20.0081740807
 20
-0.054607705
 30
0.0
 10
-20.0489636623
 20
-0.0445835033
 30
0.0
 10
-20.0986549544
 20
-0.0156548476
 30
0.0
 10
-20.1413112028
 20
0.0474026592
 30
0.0
 10
-20.1561604271
 20
0.0988539517
 30
0.0
 10
-20.1622516298
 20
0.1277937432
 30
0.0
  0
SPLINE
  5
77B
100
AcDbEntity
  8
ASSI
100
AcDbSpline
 62
7
  6
CONTINUOUS
 70
0
 71
3
 72
11
 73
7
 74
0
 42
0.0000001
 43
0.0000001
 44
0.0000000001
 40
0.0
 40
0.0
 40
0.0
 40
0.0
 40
0.089231307
 40
0.3113901877
 40
0.5291800206
 40
1.0
 40
1.0
 40
1.0
 40
1.0
 10
-26.8277128022
 20
0.4941810973
 30
0.0
 10
-26.8245739181
 20
0.5057319364
 30
0.0
 10
-26.8120859144
 20
0.5456190798
 30
0.0
 10
-26.7810636922
 20
0.6102148852
 30
0.0
 10
-26.6931058194
 20
0.6979540938
 30
0.0
 10
-26.5960329222
 20
0.7218210378
 30
0.0
 10
-26.5330861978
 20
0.7218210378
 30
0.0
  0
SPLINE
  5
77C
100
AcDbEntity
  8
ASSI
100
AcDbSpline
 62
7
  6
CONTINUOUS
 70
0
 71
3
 72
12
 73
8
 74
0
 42
0.0000001
 43
0.0000001
 44
0.0000000001
 40
0.0
 40
0.0
 40
0.0
 40
0.0
 40
0.1025765978
 40
0.2161664823
 40
0.3240892025
 40
0.5317789563
 40
1.0
 40
1.0
 40
1.0
 40
1.0
 10
-26.9426820029
 20
0.1428099513
 30
0.0
 10
-26.9369510866
 20
0.1248379363
 30
0.0
 10
-26.9231746002
 20
0.0875080916
 30
0.0
 10
-26.8967291107
 20
0.0339110985
 30
0.0
 10
-26.8519251036
 20
-0.0312522554
 30
0.0
 10
-26.743985163
 20
-0.131134039
 30
0.0
 10
-26.6117682843
 20
-0.1548017659
 30
0.0
 10
-26.5256968772
 20
-0.1548017659
 30
0.0
  0
SPLINE
  5
77D
100
AcDbEntity
  8
ASSI
100
AcDbSpline
 62
7
  6
CONTINUOUS
 70
0
 71
3
 72
12
 73
8
 74
0
 42
0.0000001
 43
0.0000001
 44
0.0000000001
 40
0.0
 40
0.0
 40
0.0
 40
0.0
 40
0.0289732385
 40
0.2799194297
 40
0.5034135291
 40
0.7337877942
 40
1.0
 40
1.0
 40
1.0
 40
1.0
 10
-35.1058475719
 20
-0.0192853967
 30
0.0
 10
-35.1081245998
 20
-0.0183169251
 30
0.0
 10
-35.1300154365
 20
-0.0086945209
 30
0.0
 10
-35.1673899939
 20
0.0132193675
 30
0.0
 10
-35.2085862616
 20
0.0583444585
 30
0.0
 10
-35.2331531264
 20
0.1153998394
 30
0.0
 10
-35.2410999038
 20
0.1571746124
 30
0.0
 10
-35.2436242056
 20
0.1796990408
 30
0.0
  0
SPLINE
  5
77E
100
AcDbEntity
  8
ASSI
100
AcDbSpline
 62
7
  6
CONTINUOUS
 70
0
 71
3
 72
10
 73
6
 74
0
 42
0.0000001
 43
0.0000001
 44
0.0000000001
 40
0.0
 40
0.0
 40
0.0
 40
0.0
 40
0.2101723731
 40
0.4563781437
 40
1.0
 40
1.0
 40
1.0
 40
1.0
 10
-35.3299401858
 20
0.5575564498
 30
0.0
 10
-35.3292155108
 20
0.5398758619
 30
0.0
 10
-35.3232439548
 20
0.5018396258
 30
0.0
 10
-35.2883656022
 20
0.4242797761
 30
0.0
 10
-35.2328883396
 20
0.3809861123
 30
0.0
 10
-35.1924397379
 20
0.36010602
 30
0.0
  0
SPLINE
  5
77F
100
AcDbEntity
  8
RACCORDO
100
AcDbSpline
 62
7
  6
CONTINUOUS
 70
0
 71
3
 72
12
 73
8
 74
0
 42
0.0000001
 43
0.0000001
 44
0.0000000001
 40
0.0
 40
0.0
 40
0.0
 40
0.0
 40
0.082840078
 40
0.1853520804
 40
0.4319834786
 40
0.7097177442
 40
1.0
 40
1.0
 40
1.0
 40
1.0
 10
-2.739768173
 20
-24.4625
 30
0.0
 10
-2.7675917724
 20
-24.4625
 30
0.0
 10
-2.8293953006
 20
-24.4482083753
 30
0.0
 10
-2.9626298714
 20
-24.3908446718
 30
0.0
 10
-3.1437544798
 20
-24.2819854933
 30
0.0
 10
-3.3704222074
 20
-24.129042706
 30
0.0
 10
-3.5261872339
 20
-24.0187901848
 30
0.0
 10
-3.6057935768
 20
-23.9625
 30
0.0
  0
SPLINE
  5
780
100
AcDbEntity
  8
RACCORDO
100
AcDbSpline
 62
7
  6
CONTINUOUS
 70
0
 71
3
 72
12
 73
8
 74
0
 42
0.0000001
 43
0.0000001
 44
0.0000000001
 40
0.0
 40
0.0
 40
0.0
 40
0.0
 40
0.2902805671
 40
0.5680145935
 40
0.8146460348
 40
0.9171586886
 40
1.0
 40
1.0
 40
1.0
 40
1.0
 10
3.6442064232
 20
-23.9625
 30
0.0
 10
3.5646005422
 20
-24.0187898583
 30
0.0
 10
3.4088359833
 20
-24.1290419184
 30
0.0
 10
3.1821689244
 20
-24.2819845844
 30
0.0
 10
3.0010442116
 20
-24.3908438648
 30
0.0
 10
2.8678091903
 20
-24.4482081438
 30
0.0
 10
2.8060050335
 20
-24.4625
 30
0.0
 10
2.7781810194
 20
-24.4625
 30
0.0
  0
SPLINE
  5
781
100
AcDbEntity
  8
RACCORDO
100
AcDbSpline
 62
7
  6
CONTINUOUS
 70
0
 71
3
 72
11
 73
7
 74
0
 42
0.0000001
 43
0.0000001
 44
0.0000000001
 40
0.0
 40
0.0
 40
0.0
 40
0.0
 40
0.2164881951
 40
0.4477903471
 40
0.7073211223
 40
1.0
 40
1.0
 40
1.0
 40
1.0
 10
52.378304628
 20
-9.6288112106
 30
0.0
 10
52.3744021005
 20
-9.5179603332
 30
0.0
 10
52.3268783071
 20
-9.2883898353
 30
0.0
 10
52.1356805106
 20
-8.9723326667
 30
0.0
 10
51.8130725509
 20
-8.7181087443
 30
0.0
 10
51.5287806278
 20
-8.643283473
 30
0.0
 10
51.378913801
 20
-8.6380986134
 30
0.0
  0
SPLINE
  5
782
100
AcDbEntity
  8
RACCORDO
100
AcDbSpline
 62
7
  6
CONTINUOUS
 70
0
 71
3
 72
11
 73
7
 74
0
 42
0.0000001
 43
0.0000001
 44
0.0000000001
 40
0.0
 40
0.0
 40
0.0
 40
0.0
 40
0.2926788777
 40
0.5522096529
 40
0.7835118049
 40
1.0
 40
1.0
 40
1.0
 40
1.0
 10
51.378913801
 20
9.3630986134
 30
0.0
 10
51.5287806278
 20
9.368283473
 30
0.0
 10
51.8130725509
 20
9.4431087443
 30
0.0
 10
52.1356805106
 20
9.6973326667
 30
0.0
 10
52.3268783071
 20
10.0133898353
 30
0.0
 10
52.3744021005
 20
10.2429603332
 30
0.0
 10
52.378304628
 20
10.3538112106
 30
0.0
  0
SPLINE
  5
783
100
AcDbEntity
  8
RACCORDO
100
AcDbSpline
 62
7
  6
CONTINUOUS
 70
0
 71
3
 72
11
 73
7
 74
0
 42
0.0000001
 43
0.0000001
 44
0.0000000001
 40
0.0
 40
0.0
 40
0.0
 40
0.0
 40
0.2926788777
 40
0.5522096529
 40
0.7835118049
 40
1.0
 40
1.0
 40
1.0
 40
1.0
 10
-51.3405009545
 20
-8.6380986134
 30
0.0
 10
-51.4903677814
 20
-8.643283473
 30
0.0
 10
-51.7746597044
 20
-8.7181087443
 30
0.0
 10
-52.0972676642
 20
-8.9723326667
 30
0.0
 10
-52.2884654606
 20
-9.2883898353
 30
0.0
 10
-52.335989254
 20
-9.5179603332
 30
0.0
 10
-52.3398917815
 20
-9.6288112106
 30
0.0
  0
SPLINE
  5
784
100
AcDbEntity
  8
RACCORDO
100
AcDbSpline
 62
7
  6
CONTINUOUS
 70
0
 71
3
 72
11
 73
7
 74
0
 42
0.0000001
 43
0.0000001
 44
0.0000000001
 40
0.0
 40
0.0
 40
0.0
 40
0.0
 40
0.2164881951
 40
0.4477903471
 40
0.7073211223
 40
1.0
 40
1.0
 40
1.0
 40
1.0
 10
-52.3398917815
 20
10.3538112106
 30
0.0
 10
-52.335989254
 20
10.2429603332
 30
0.0
 10
-52.2884654606
 20
10.0133898353
 30
0.0
 10
-52.0972676642
 20
9.6973326667
 30
0.0
 10
-51.7746597044
 20
9.4431087443
 30
0.0
 10
-51.4903677814
 20
9.368283473
 30
0.0
 10
-51.3405009545
 20
9.3630986134
 30
0.0
  0
SPLINE
  5
785
100
AcDbEntity
  8
RACCORDO
100
AcDbSpline
 62
7
  6
CONTINUOUS
 70
0
 71
3
 72
11
 73
7
 74
0
 42
0.0000001
 43
0.0000001
 44
0.0000000001
 40
0.0
 40
0.0
 40
0.0
 40
0.0
 40
0.2921797949
 40
0.5514492602
 40
0.7829725557
 40
1.0
 40
1.0
 40
1.0
 40
1.0
 10
31.2698155962
 20
-24.5872866082
 30
0.0
 10
31.2750595419
 20
-24.7375451002
 30
0.0
 10
31.3510353003
 20
-25.0226625829
 30
0.0
 10
31.6080874362
 20
-25.3449733699
 30
0.0
 10
31.9266330834
 20
-25.5354939201
 30
0.0
 10
32.1575963219
 20
-25.5827822989
 30
0.0
 10
32.2692064232
 20
-25.5866774353
 30
0.0
  0
SPLINE
  5
786
100
AcDbEntity
  8
RACCORDO
100
AcDbSpline
 62
7
  6
CONTINUOUS
 70
0
 71
3
 72
11
 73
7
 74
0
 42
0.0000001
 43
0.0000001
 44
0.0000000001
 40
0.0
 40
0.0
 40
0.0
 40
0.0
 40
0.2170274443
 40
0.4485507398
 40
0.7078202051
 40
1.0
 40
1.0
 40
1.0
 40
1.0
 10
25.2692064232
 20
-25.5866774353
 30
0.0
 10
25.3808165245
 20
-25.5827822989
 30
0.0
 10
25.611779763
 20
-25.5354939201
 30
0.0
 10
25.9303254102
 20
-25.3449733699
 30
0.0
 10
26.1873775462
 20
-25.0226625829
 30
0.0
 10
26.2633533045
 20
-24.7375451002
 30
0.0
 10
26.2685972502
 20
-24.5872866082
 30
0.0
  0
SPLINE
  5
787
100
AcDbEntity
  8
RACCORDO
100
AcDbSpline
 62
7
  6
CONTINUOUS
 70
0
 71
3
 72
11
 73
7
 74
0
 42
0.0000001
 43
0.0000001
 44
0.0000000001
 40
0.0
 40
0.0
 40
0.0
 40
0.0
 40
0.2921797949
 40
0.5514492602
 40
0.7829725557
 40
1.0
 40
1.0
 40
1.0
 40
1.0
 10
26.2685972502
 20
25.3122866082
 30
0.0
 10
26.2633533045
 20
25.4625451002
 30
0.0
 10
26.1873775462
 20
25.7476625829
 30
0.0
 10
25.9303254102
 20
26.0699733699
 30
0.0
 10
25.611779763
 20
26.2604939201
 30
0.0
 10
25.3808165245
 20
26.3077822989
 30
0.0
 10
25.2692064232
 20
26.3116774353
 30
0.0
  0
SPLINE
  5
788
100
AcDbEntity
  8
RACCORDO
100
AcDbSpline
 62
7
  6
CONTINUOUS
 70
0
 71
3
 72
11
 73
7
 74
0
 42
0.0000001
 43
0.0000001
 44
0.0000000001
 40
0.0
 40
0.0
 40
0.0
 40
0.0
 40
0.2170274443
 40
0.4485507398
 40
0.7078202051
 40
1.0
 40
1.0
 40
1.0
 40
1.0
 10
32.2692064232
 20
26.3116774353
 30
0.0
 10
32.1575963219
 20
26.3077822989
 30
0.0
 10
31.9266330834
 20
26.2604939201
 30
0.0
 10
31.6080874362
 20
26.0699733699
 30
0.0
 10
31.3510353003
 20
25.7476625829
 30
0.0
 10
31.2750595419
 20
25.4625451002
 30
0.0
 10
31.2698155962
 20
25.3122866082
 30
0.0
  0
SPLINE
  5
789
100
AcDbEntity
  8
RACCORDO
100
AcDbSpline
 62
7
  6
CONTINUOUS
 70
0
 71
3
 72
12
 73
8
 74
0
 42
0.0000001
 43
0.0000001
 44
0.0000000001
 40
0.0
 40
0.0
 40
0.0
 40
0.0
 40
0.1507727434
 40
0.2946659611
 40
0.5529033262
 40
0.7831347759
 40
1.0
 40
1.0
 40
1.0
 40
1.0
 10
31.2692445002
 20
10.3625380784
 30
0.0
 10
31.2699282946
 20
10.2841800116
 30
0.0
 10
31.2895023511
 20
10.1305385058
 30
0.0
 10
31.3899672255
 20
9.859274318
 30
0.0
 10
31.5991902741
 20
9.593221375
 30
0.0
 10
31.9226498252
 20
9.4056723754
 30
0.0
 10
32.156499449
 20
9.3635596967
 30
0.0
 10
32.2692064232
 20
9.3625761553
 30
0.0
  0
SPLINE
  5
78A
100
AcDbEntity
  8
RACCORDO
100
AcDbSpline
 62
7
  6
CONTINUOUS
 70
0
 71
3
 72
12
 73
8
 74
0
 42
0.0000001
 43
0.0000001
 44
0.0000000001
 40
0.0
 40
0.0
 40
0.0
 40
0.0
 40
0.2168652241
 40
0.4470966738
 40
0.7053340389
 40
0.8492272566
 40
1.0
 40
1.0
 40
1.0
 40
1.0
 10
25.2692064232
 20
9.3625761553
 30
0.0
 10
25.3819133975
 20
9.3635596967
 30
0.0
 10
25.6157630212
 20
9.4056723754
 30
0.0
 10
25.9392225723
 20
9.593221375
 30
0.0
 10
26.148445621
 20
9.859274318
 30
0.0
 10
26.2489104954
 20
10.1305385058
 30
0.0
 10
26.2684845518
 20
10.2841800116
 30
0.0
 10
26.2691683463
 20
10.3625380784
 30
0.0
  0
SPLINE
  5
78B
100
AcDbEntity
  8
RACCORDO
100
AcDbSpline
 62
7
  6
CONTINUOUS
 70
0
 71
3
 72
12
 73
8
 74
0
 42
0.0000001
 43
0.0000001
 44
0.0000000001
 40
0.0
 40
0.0
 40
0.0
 40
0.0
 40
0.1507727434
 40
0.2946659611
 40
0.5529033262
 40
0.7831347759
 40
1.0
 40
1.0
 40
1.0
 40
1.0
 10
26.2691683463
 20
-9.6375380784
 30
0.0
 10
26.2684845518
 20
-9.5591800116
 30
0.0
 10
26.2489104954
 20
-9.4055385058
 30
0.0
 10
26.148445621
 20
-9.134274318
 30
0.0
 10
25.9392225723
 20
-8.868221375
 30
0.0
 10
25.6157630212
 20
-8.6806723754
 30
0.0
 10
25.3819133975
 20
-8.6385596967
 30
0.0
 10
25.2692064232
 20
-8.6375761553
 30
0.0
  0
SPLINE
  5
78C
100
AcDbEntity
  8
RACCORDO
100
AcDbSpline
 62
7
  6
CONTINUOUS
 70
0
 71
3
 72
12
 73
8
 74
0
 42
0.0000001
 43
0.0000001
 44
0.0000000001
 40
0.0
 40
0.0
 40
0.0
 40
0.0
 40
0.2168652241
 40
0.4470966738
 40
0.7053340389
 40
0.8492272566
 40
1.0
 40
1.0
 40
1.0
 40
1.0
 10
32.2692064232
 20
-8.6375761553
 30
0.0
 10
32.156499449
 20
-8.6385596967
 30
0.0
 10
31.9226498252
 20
-8.6806723754
 30
0.0
 10
31.5991902741
 20
-8.868221375
 30
0.0
 10
31.3899672255
 20
-9.134274318
 30
0.0
 10
31.2895023511
 20
-9.4055385058
 30
0.0
 10
31.2699282946
 20
-9.5591800116
 30
0.0
 10
31.2692445002
 20
-9.6375380784
 30
0.0
  0
ELLIPSE
  5
78D
100
AcDbEntity
  8
RACCORDO
100
AcDbEllipse
 62
7
  6
CONTINUOUS
 10
-0.9807554948
 20
-19.237538082
 30
0.0
 11
-0.1768305473
 21
0.1768305473
 31
0.0
 40
0.9996954599
 41
-0.7852458701
 42
0.7852458701
  0
ELLIPSE
  5
78E
100
AcDbEntity
  8
RACCORDO
100
AcDbEllipse
 62
7
  6
CONTINUOUS
 10
1.0191683412
 20
-19.237538082
 30
0.0
 11
0.1768305473
 21
0.1768305473
 31
0.0
 40
0.9996954599
 41
-0.7852458701
 42
0.7852458701
  0
ELLIPSE
  5
78F
100
AcDbEntity
  8
RACCORDO
100
AcDbEllipse
 62
7
  6
CONTINUOUS
 10
1.0191683412
 20
-15.737461918
 30
0.0
 11
0.1768305473
 21
-0.1768305473
 31
0.0
 40
0.9996954599
 41
-0.7852458701
 42
0.7852458701
  0
ELLIPSE
  5
790
100
AcDbEntity
  8
RACCORDO
100
AcDbEllipse
 62
7
  6
CONTINUOUS
 10
-0.9807554948
 20
-15.737461918
 30
0.0
 11
-0.1768305473
 21
-0.1768305473
 31
0.0
 40
0.9996954599
 41
-0.2631049175
 42
0.7852458701
  0
ELLIPSE
  5
791
100
AcDbEntity
  8
RACCORDO
100
AcDbEllipse
 62
7
  6
CONTINUOUS
 10
2.369183574
 20
-28.3374771508
 30
0.0
 11
-0.1060983284
 21
0.1060983284
 31
0.0
 40
0.9996954599
 41
2.3563467834
 42
3.9268385237
  0
ELLIPSE
  5
792
100
AcDbEntity
  8
RACCORDO
100
AcDbEllipse
 62
7
  6
CONTINUOUS
 10
-2.3307707276
 20
-28.3374771508
 30
0.0
 11
0.1060983284
 21
0.1060983284
 31
0.0
 40
0.9996954599
 41
2.3563467834
 42
3.9268385237
  0
ELLIPSE
  5
793
100
AcDbEntity
  8
RACCORDO
100
AcDbEllipse
 62
7
  6
CONTINUOUS
 10
4.01833367
 20
-8.3159842789
 30
0.0
 11
0.0
 21
0.0784842789
 31
0.0
 40
0.0174550649
 41
-0.6906913887
 42
0.0000001811
  0
ELLIPSE
  5
794
100
AcDbEntity
  8
RACCORDO
100
AcDbEllipse
 62
7
  6
CONTINUOUS
 10
-1.4807174128
 20
-19.237423836
 30
0.0
 11
0.3536610946
 21
0.3536610946
 31
0.0
 40
0.9996954599
 41
-3.9268385237
 42
-2.3563467834
  0
ELLIPSE
  5
795
100
AcDbEntity
  8
RACCORDO
100
AcDbEllipse
 62
7
  6
CONTINUOUS
 10
1.5191302592
 20
-19.237423836
 30
0.0
 11
0.3536610946
 21
-0.3536610946
 31
0.0
 40
0.9996954599
 41
-0.7798074003
 42
0.7852458701
  0
ELLIPSE
  5
796
100
AcDbEntity
  8
RACCORDO
100
AcDbEllipse
 62
7
  6
CONTINUOUS
 10
1.5191302592
 20
-15.737576164
 30
0.0
 11
0.3536610946
 21
0.3536610946
 31
0.0
 40
0.9996954599
 41
-0.7852458701
 42
0.7852458701
  0
ELLIPSE
  5
797
100
AcDbEntity
  8
RACCORDO
100
AcDbEllipse
 62
7
  6
CONTINUOUS
 10
-1.4807174128
 20
-15.737576164
 30
0.0
 11
0.3536610946
 21
-0.3536610946
 31
0.0
 40
0.9996954599
 41
2.3563467834
 42
3.9268385237
  0
ELLIPSE
  5
798
100
AcDbEntity
  8
RACCORDO
100
AcDbEllipse
 62
7
  6
CONTINUOUS
 10
-3.9799208235
 20
-8.3159842789
 30
0.0
 11
0.0
 21
0.0784842789
 31
0.0
 40
0.0174550649
 41
-0.0000001811
 42
0.6906913887
  0
ELLIPSE
  5
799
100
AcDbEntity
  8
RACCORDO
100
AcDbEllipse
 62
7
  6
CONTINUOUS
 10
4.0200791765
 20
-8.3159842789
 30
0.0
 11
-0.0
 21
0.0784842789
 31
0.0
 40
0.0174550649
 41
0.7622693727
 42
1.1344640138
  0
ELLIPSE
  5
79A
100
AcDbEntity
  8
RACCORDO
100
AcDbEllipse
 62
7
  6
CONTINUOUS
 10
4.0005030467
 20
-10.6536829586
 30
0.0
 11
0.0
 21
0.05
 31
0.0
 40
0.0174550649
 41
1.1344640138
 42
3.1415926536
  0
ELLIPSE
  5
79B
100
AcDbEntity
  8
RACCORDO
100
AcDbEllipse
 62
7
  6
CONTINUOUS
 10
-3.98166633
 20
-8.3159842789
 30
0.0
 11
0.0
 21
0.0784842789
 31
0.0
 40
0.0174550649
 41
-1.1344640138
 42
-0.6906913887
  0
ELLIPSE
  5
79C
100
AcDbEntity
  8
RACCORDO
100
AcDbEllipse
 62
7
  6
CONTINUOUS
 10
-3.9620902003
 20
-10.6536829586
 30
0.0
 11
0.0
 21
0.05
 31
0.0
 40
0.0174550649
 41
-3.1415926536
 42
-1.1344640138
  0
ELLIPSE
  5
79D
100
AcDbEntity
  8
RACCORDO
100
AcDbEllipse
 62
7
  6
CONTINUOUS
 10
51.7691778644
 20
-25.0124714412
 30
0.0
 11
-0.5303704733
 21
0.5303704733
 31
0.0
 40
0.9999238505
 41
2.3562325664
 42
3.9269527408
  0
ELLIPSE
  5
79E
100
AcDbEntity
  8
RACCORDO
100
AcDbEllipse
 62
7
  6
CONTINUOUS
 10
51.7691778644
 20
25.7374714412
 30
0.0
 11
0.5303704733
 21
0.5303704733
 31
0.0
 40
0.9999238505
 41
-0.7853600872
 42
0.7853600872
  0
ELLIPSE
  5
79F
100
AcDbEntity
  8
RACCORDO
100
AcDbEllipse
 62
7
  6
CONTINUOUS
 10
-51.730765018
 20
-25.0124714412
 30
0.0
 11
-0.5303704733
 21
-0.5303704733
 31
0.0
 40
0.9999238505
 41
-0.7853600872
 42
0.7853600872
  0
ELLIPSE
  5
7A0
100
AcDbEntity
  8
RACCORDO
100
AcDbEllipse
 62
7
  6
CONTINUOUS
 10
-51.730765018
 20
25.7374714412
 30
0.0
 11
0.5303704733
 21
-0.5303704733
 31
0.0
 40
0.9999238505
 41
2.3562325664
 42
3.9269527408
  0
ELLIPSE
  5
7A1
100
AcDbEntity
  8
RACCORDO
100
AcDbEllipse
 62
7
  6
CONTINUOUS
 10
51.5185968789
 20
-24.7618904557
 30
0.0
 11
0.7079685446
 21
-0.7079685446
 31
0.0
 40
0.998782766
 41
0.5754927014
 42
0.7847891758
  0
ELLIPSE
  5
7A2
100
AcDbEntity
  8
RACCORDO
100
AcDbEllipse
 62
7
  6
CONTINUOUS
 10
51.5185968789
 20
-24.7618904557
 30
0.0
 11
-0.7079685446
 21
0.7079685446
 31
0.0
 40
0.998782766
 41
-2.6185219291
 42
-2.5660999522
  0
ELLIPSE
  5
7A3
100
AcDbEntity
  8
RACCORDO
100
AcDbEllipse
 62
7
  6
CONTINUOUS
 10
51.5185968789
 20
-24.7618904557
 30
0.0
 11
0.7079685446
 21
-0.7079685446
 31
0.0
 40
0.998782766
 41
-0.7847891758
 42
0.5230707245
  0
ELLIPSE
  5
7A4
100
AcDbEntity
  8
RACCORDO
100
AcDbEllipse
 62
7
  6
CONTINUOUS
 10
51.5185968789
 20
25.4868904557
 30
0.0
 11
0.7079685446
 21
0.7079685446
 31
0.0
 40
0.998782766
 41
-0.7847891758
 42
0.7847891758
  0
ELLIPSE
  5
7A5
100
AcDbEntity
  8
RACCORDO
100
AcDbEllipse
 62
7
  6
CONTINUOUS
 10
-51.4801840325
 20
25.4868904557
 30
0.0
 11
0.7079685446
 21
-0.7079685446
 31
0.0
 40
0.998782766
 41
-2.6185219291
 42
-2.3568034778
  0
ELLIPSE
  5
7A6
100
AcDbEntity
  8
RACCORDO
100
AcDbEllipse
 62
7
  6
CONTINUOUS
 10
-51.4801840325
 20
25.4868904557
 30
0.0
 11
-0.7079685446
 21
0.7079685446
 31
0.0
 40
0.998782766
 41
-0.5230706132
 42
0.5230707245
  0
ELLIPSE
  5
7A7
100
AcDbEntity
  8
RACCORDO
100
AcDbEllipse
 62
7
  6
CONTINUOUS
 10
-51.4801840325
 20
25.4868904557
 30
0.0
 11
0.7079685446
 21
-0.7079685446
 31
0.0
 40
0.998782766
 41
2.3568034778
 42
2.6185220404
  0
ELLIPSE
  5
7A8
100
AcDbEntity
  8
RACCORDO
100
AcDbEllipse
 62
7
  6
CONTINUOUS
 10
-51.4801840325
 20
-24.7618904557
 30
0.0
 11
0.7079685446
 21
0.7079685446
 31
0.0
 40
0.998782766
 41
-3.9263818294
 42
-2.3568034778
  0
ELLIPSE
  5
7A9
100
AcDbEntity
  8
RACCORDO
100
AcDbEllipse
 62
7
  6
CONTINUOUS
 10
32.2692064232
 20
25.2773658388
 30
0.0
 11
-0.0
 21
1.0006095443
 31
0.0
 40
0.999390827
 41
1.5358897418
 42
1.5707963268
  0
ELLIPSE
  5
7AA
100
AcDbEntity
  8
RACCORDO
100
AcDbEllipse
 62
7
  6
CONTINUOUS
 10
25.2692064232
 20
25.2773658388
 30
0.0
 11
-0.0
 21
1.0006095443
 31
0.0
 40
0.999390827
 41
-1.5707963268
 42
-1.5358897418
  0
ELLIPSE
  5
7AB
100
AcDbEntity
  8
RACCORDO
100
AcDbEllipse
 62
7
  6
CONTINUOUS
 10
25.2692064232
 20
10.3712649462
 30
0.0
 11
-0.0
 21
1.0000380784
 31
0.0
 40
0.9999619231
 41
-1.5795229731
 42
-1.5707963268
  0
ELLIPSE
  5
7AC
100
AcDbEntity
  8
RACCORDO
100
AcDbEllipse
 62
7
  6
CONTINUOUS
 10
32.2692064232
 20
10.3712649462
 30
0.0
 11
0.0
 21
1.0000380784
 31
0.0
 40
0.9999619231
 41
-4.7123889804
 42
-4.7036623341
  0
ELLIPSE
  5
7AD
100
AcDbEntity
  8
RACCORDO
100
AcDbEllipse
 62
7
  6
CONTINUOUS
 10
25.2692064232
 20
-9.6462649462
 30
0.0
 11
-0.0
 21
1.0000380784
 31
0.0
 40
0.9999619231
 41
-1.5707963268
 42
-1.5620696805
  0
ELLIPSE
  5
7AE
100
AcDbEntity
  8
RACCORDO
100
AcDbEllipse
 62
7
  6
CONTINUOUS
 10
32.2692064232
 20
-9.6462649462
 30
0.0
 11
-0.0
 21
1.0000380784
 31
0.0
 40
0.9999619231
 41
1.5620696805
 42
1.5707963268
  0
ELLIPSE
  5
7AF
100
AcDbEntity
  8
RACCORDO
100
AcDbEllipse
 62
7
  6
CONTINUOUS
 10
25.2692064232
 20
-24.5523658388
 30
0.0
 11
-0.0
 21
1.0006095443
 31
0.0
 40
0.999390827
 41
-1.6057029118
 42
-1.5707963268
  0
ELLIPSE
  5
7B0
100
AcDbEntity
  8
RACCORDO
100
AcDbEllipse
 62
7
  6
CONTINUOUS
 10
32.2692064232
 20
-24.5523658388
 30
0.0
 11
-0.0
 21
1.0006095443
 31
0.0
 40
0.999390827
 41
1.5707963268
 42
1.6057029118
  0
ELLIPSE
  5
7B1
100
AcDbEntity
  8
RACCORDO
100
AcDbEllipse
 62
7
  6
CONTINUOUS
 10
-51.305580185
 20
-9.6375380784
 30
0.0
 11
0.9707925066
 21
-0.2426057037
 31
0.0
 40
0.9993528196
 41
1.8158377039
 42
1.8504397372
  0
ELLIPSE
  5
7B2
100
AcDbEntity
  8
RACCORDO
100
AcDbEllipse
 62
7
  6
CONTINUOUS
 10
-51.305580185
 20
10.3625380784
 30
0.0
 11
0.9707925066
 21
0.2426057037
 31
0.0
 40
0.9993528196
 41
-1.8504397372
 42
-1.8158377039
  0
ELLIPSE
  5
7B3
100
AcDbEntity
  8
RACCORDO
100
AcDbEllipse
 62
7
  6
CONTINUOUS
 10
51.3439930315
 20
10.3625380784
 30
0.0
 11
0.9707925066
 21
-0.2426057037
 31
0.0
 40
0.9993528196
 41
-1.3257549497
 42
-1.2911529164
  0
ELLIPSE
  5
7B4
100
AcDbEntity
  8
RACCORDO
100
AcDbEllipse
 62
7
  6
CONTINUOUS
 10
51.3439930315
 20
-9.6375380784
 30
0.0
 11
0.9707925066
 21
0.2426057037
 31
0.0
 40
0.9993528196
 41
1.2911529164
 42
1.3257549497
  0
ELLIPSE
  5
7B5
100
AcDbEntity
  8
RACCORDO
100
AcDbEllipse
 62
7
  6
CONTINUOUS
 10
-3.6057935768
 20
-24.6641706412
 30
0.0
 11
-0.0
 21
1.0368159553
 31
0.0
 40
0.9644913303
 41
-3.1415926536
 42
-1.5707963268
  0
ELLIPSE
  5
7B6
100
AcDbEntity
  8
RACCORDO
100
AcDbEllipse
 62
7
  6
CONTINUOUS
 10
3.6442064232
 20
-24.6641706412
 30
0.0
 11
-0.0
 21
1.0368159553
 31
0.0
 40
0.9644913303
 41
1.5707963268
 42
3.1415926536
  0
ELLIPSE
  5
7B7
100
AcDbEntity
  8
RACCORDO
100
AcDbEllipse
 62
7
  6
CONTINUOUS
 10
-5.0559459048
 20
-9.6375380784
 30
0.0
 11
0.8946111165
 21
0.4472714922
 31
0.0
 40
0.9998096356
 41
-0.4635410001
 42
1.1071030277
  0
ELLIPSE
  5
7B8
100
AcDbEntity
  8
RACCORDO
100
AcDbEllipse
 62
7
  6
CONTINUOUS
 10
5.0943587513
 20
-9.6375380784
 30
0.0
 11
0.8946111165
 21
-0.4472714922
 31
0.0
 40
0.9998096356
 41
2.0344896259
 42
3.6051336537
  0
ENDSEC
  0
SECTION
  2
OBJECTS
  0
DICTIONARY
  5
C
100
AcDbDictionary
280
0
281
1
  3
ACAD_GROUP
350
D
  3
ACAD_MLINESTYLE
350
17
  3
ACAD_LAYOUT
350
1A
  3
ACAD_PLOTSETTINGS
350
19
  3
ACAD_PLOTSTYLENAME
350
E
  0
DICTIONARY
  5
D
102
{ACAD_REACTORS
330
C
102
}
100
AcDbDictionary
280
0
281
1
  0
ACDBDICTIONARYWDFLT
  5
E
102
{ACAD_REACTORS
330
C
102
}
100
AcDbDictionary
281
1
  3
Normal
350
F
100
AcDbDictionaryWithDefault
340
F
  0
DICTIONARY
  5
17
102
{ACAD_REACTORS
330
C
102
}
100
AcDbDictionary
280
0
281
1
  3
Standard
350
18
  0
DICTIONARY
  5
19
102
{ACAD_REACTORS
330
C
102
}
100
AcDbDictionary
281
1
  0
DICTIONARY
  5
1A
102
{ACAD_REACTORS
330
C
102
}
100
AcDbDictionary
281
1
  3
Model
350
7B9
  3
Layout1
350
7BA
  0
ACDBPLACEHOLDER
  5
F
102
{ACAD_REACTORS
330
E
102
}
  0
MLINESTYLE
  5
18
102
{ACAD_REACTORS
330
17
102
}
100
AcDbMlineStyle
  2
STANDARD
 70
0
  3

 62
256
 51
90.0
 52
90.0
 71
2
 49
0.5
 62
256
  6
BYLAYER
 49
-0.5
 62
256
  6
BYLAYER
  0
LAYOUT
  5
7B9
102
{ACAD_REACTORS
330
1A
102
}
100
AcDbPlotSettings
  1

  2
none_device
  4
ANSI_C_(22.00_x_17.00_Inches)
  6

 40
0.0
 41
0.0
 42
0.0
 43
0.0
 44
558.8
 45
431.8
 46
0.0
 47
0.0
 48
0.0
 49
0.0
140
0.0
141
0.0
142
1.0
143
1.0
 70
1024
 72
1
 73
0
 74
0
  7

 75
0
147
1.0
148
0.0
149
0.0
100
AcDbLayout
  1
Model
 70
0
 71
0
 10
0.0
 20
0.0
 11
558.8
 21
431.8
 12
0.0
 22
0.0
 32
0.0
 14
0.0
 24
0.0
 34
0.0
 15
0.0
 25
0.0
 35
0.0
146
0.0
 13
0.0
 23
0.0
 33
0.0
 16
1.0
 26
0.0
 36
0.0
 17
0.0
 27
1.0
 37
0.0
 76
0
330
21E
345
0
346
0
  0
LAYOUT
  5
7BA
102
{ACAD_REACTORS
330
1A
102
}
100
AcDbPlotSettings
  1

  2
none_device
  4
ANSI_C_(22.00_x_17.00_Inches)
  6

 40
0.0
 41
0.0
 42
0.0
 43
0.0
 44
558.8
 45
431.8
 46
0.0
 47
0.0
 48
0.0
 49
0.0
140
0.0
141
0.0
142
1.0
143
1.0
 70
0
 72
1
 73
0
 74
0
  7

 75
0
147
1.0
148
0.0
149
0.0
100
AcDbLayout
  1
Layout1
 70
0
 71
1
 10
0.0
 20
0.0
 11
558.8
 21
431.8
 12
0.0
 22
0.0
 32
0.0
 14
0.0
 24
0.0
 34
0.0
 15
0.0
 25
0.0
 35
0.0
146
0.0
 13
0.0
 23
0.0
 33
0.0
 16
1.0
 26
0.0
 36
0.0
 17
0.0
 27
1.0
 37
0.0
 76
0
330
21F
345
0
346
0
  0
ENDSEC
  0
EOF
