  0
SECTION
  2
HEADER
  9
$ACADVER
  1
AC1024
  9
$DWGCODEPAGE
  3
ANSI_1252
  9
$EXTMAX
 10
558.8
 20
431.8
 30
0.0
  9
$EXTMIN
 10
0.0
 20
0.0
 30
0.0
  9
$LIMMIN
 10
0.0
 20
0.0
  9
$LIMMAX
 10
558.8
 20
431.8
  9
$VIEWCTR
 10
279.4
 20
215.9
  9
$VIEWSIZE
 40
431.8
  9
$CLAYER
  8
0
  9
$LTSCALE
 40
30.734
  9
$CELTYPE
  6
BYLAYER
  9
$DIMSCALE
 40
1.0
  9
$DIMASZ
 40
3.0
  9
$DIMEXO
 40
0.5
  9
$DIMDLI
 40
21.2344
  9
$DIMEXE
 40
1.5
  9
$DIMCEN
 40
5.0292
  9
$DIMLFAC
 40
1.0
  9
$DIMBLK
  1
_FILLED
  9
$DIMALT
 70
0
  9
$DIMALTF
 40
0.0393700787
  9
$DIMTXT
 40
3.0
  9
$DIMTOL
 70
1
  9
$DIMLIM
 70
0
  9
$DIMTFAC
 40
1.0
  9
$DIMTP
 40
0.01
  9
$DIMTM
 40
0.01
  9
$DIMGAP
 40
0.625
  9
$DIMDSEP
 70
44
  9
$AUNITS
 70
0
  9
$PDMODE
 70
3
  9
$PDSIZE
 40
3.0
  9
$HANDSEED
  5
78C
  9
$TILEMODE
 70
1
  9
$MEASUREMENT
 70
1
  9
$INSUNITS
 70
4
  0
ENDSEC
  0
SECTION
  2
CLASSES
  0
CLASS
  1
ACDBDICTIONARYWDFLT
  2
AcDbDictionaryWithDefault
  3
AutoCAD 2000
 90
0
 91
1
280
0
281
0
  0
CLASS
  1
ACDBPLACEHOLDER
  2
AcDbPlaceHolder
  3
AutoCAD 2000
 90
0
 91
1
280
0
281
0
  0
CLASS
  1
LAYOUT
  2
AcDbLayout
  3
AutoCAD 2000
 90
0
 91
0
280
0
281
0
  0
ENDSEC
  0
SECTION
  2
TABLES
  0
TABLE
  2
VPORT
  5
8
100
AcDbSymbolTable
 70
2
  0
VPORT
  5
1F4
100
AcDbSymbolTableRecord
100
AcDbViewportTableRecord
  2
*ACTIVE
 70
0
 10
0.0
 20
0.0
 11
1.0
 21
1.0
 12
279.4
 22
215.9
 13
0.0
 23
0.0
 14
1.0
 24
1.0
 15
0.0
 25
0.0
 16
0.0
 26
0.0
 36
1.0
 17
0.0
 27
0.0
 37
0.0
 40
431.8
 41
1.2941176471
 42
50.0
 43
0.0
 44
0.0
 50
0.0
 51
0.0
 71
0
 72
100
 73
1
 74
1
 75
0
 76
0
 77
0
 78
0
  0
ENDTAB
  0
TABLE
  2
LTYPE
  5
5
100
AcDbSymbolTable
 70
6
  0
LTYPE
  5
14
100
AcDbSymbolTableRecord
100
AcDbLinetypeTableRecord
  2
BYBLOCK
 70
0
  3

 72
65
 73
0
 40
0.0
  0
LTYPE
  5
15
100
AcDbSymbolTableRecord
100
AcDbLinetypeTableRecord
  2
BYLAYER
 70
0
  3

 72
65
 73
0
 40
0.0
  0
LTYPE
  5
16
100
AcDbSymbolTableRecord
100
AcDbLinetypeTableRecord
  2
CONTINUOUS
 70
64
  3
Solid line
 72
65
 73
0
 40
0.0
  0
LTYPE
  5
1F5
100
AcDbSymbolTableRecord
100
AcDbLinetypeTableRecord
  2
CENTER
 70
64
  3
____ _ ____ _ ____ _ ____ _ ____ _ ____ _ ____
 72
65
 73
4
 40
0.6
 49
0.375
 74
0
 49
-0.075
 74
0
 49
0.075
 74
0
 49
-0.075
 74
0
  0
LTYPE
  5
1F6
100
AcDbSymbolTableRecord
100
AcDbLinetypeTableRecord
  2
HIDDEN
 70
64
  3
- - - - - - - - - - - - - - - - - - - -
 72
65
 73
2
 40
0.2
 49
0.1
 74
0
 49
-0.1
 74
0
  0
LTYPE
  5
1F7
100
AcDbSymbolTableRecord
100
AcDbLinetypeTableRecord
  2
PHANTOM
 70
64
  3
_____ _ _ _____ _ _ _____ _ _ _____
 72
65
 73
6
 40
0.8
 49
0.45
 74
0
 49
-0.05
 74
0
 49
0.1
 74
0
 49
-0.05
 74
0
 49
0.1
 74
0
 49
-0.05
 74
0
  0
LTYPE
  5
1F8
100
AcDbSymbolTableRecord
100
AcDbLinetypeTableRecord
  2
DOT
 70
64
  3
. . . . . . . . . . . . . . . . . . . .
 72
65
 73
2
 40
0.2
 49
0.1
 74
0
 49
-0.1
 74
0
  0
LTYPE
  5
1F9
100
AcDbSymbolTableRecord
100
AcDbLinetypeTableRecord
  2
DASHED
 70
64
  3
- - - - - - - - - - - - - - - - - - - -
 72
65
 73
2
 40
0.2
 49
0.1
 74
0
 49
-0.1
 74
0
  0
ENDTAB
  0
TABLE
  2
LAYER
  5
2
100
AcDbSymbolTable
 70
36
  0
LAYER
  5
10
100
AcDbSymbolTableRecord
100
AcDbLayerTableRecord
  2
0
 70
0
 62
7
  6
CONTINUOUS
370
-3
390
F
  0
LAYER
  5
1FA
100
AcDbSymbolTableRecord
100
AcDbLayerTableRecord
  2
DEFAULT_1
 70
0
 62
7
  6
CENTER
370
-3
390
F
  0
LAYER
  5
1FB
100
AcDbSymbolTableRecord
100
AcDbLayerTableRecord
  2
DEFAULT_2
 70
0
 62
7
  6
HIDDEN
370
-3
390
F
  0
LAYER
  5
1FC
100
AcDbSymbolTableRecord
100
AcDbLayerTableRecord
  2
DEFAULT_3
 70
0
 62
7
  6
PHANTOM
370
-3
390
F
  0
LAYER
  5
1FD
100
AcDbSymbolTableRecord
100
AcDbLayerTableRecord
  2
ASSI
 70
0
 62
7
  6
CONTINUOUS
370
-3
390
F
  0
LAYER
  5
1FE
100
AcDbSymbolTableRecord
100
AcDbLayerTableRecord
  2
COLOR5
 70
0
 62
7
  6
CONTINUOUS
370
-3
390
F
  0
LAYER
  5
1FF
100
AcDbSymbolTableRecord
100
AcDbLayerTableRecord
  2
COORDINATE
 70
0
 62
7
  6
CONTINUOUS
370
-3
390
F
  0
LAYER
  5
200
100
AcDbSymbolTableRecord
100
AcDbLayerTableRecord
  2
COORD_ORIGINE
 70
0
 62
7
  6
CONTINUOUS
370
-3
390
F
  0
LAYER
  5
201
100
AcDbSymbolTableRecord
100
AcDbLayerTableRecord
  2
COPY_PUBLISH
 70
0
 62
7
  6
CONTINUOUS
370
-3
390
F
  0
LAYER
  5
202
100
AcDbSymbolTableRecord
100
AcDbLayerTableRecord
  2
COSMETICI
 70
0
 62
7
  6
CONTINUOUS
370
-3
390
F
  0
LAYER
  5
203
100
AcDbSymbolTableRecord
100
AcDbLayerTableRecord
  2
CURVE
 70
0
 62
7
  6
CONTINUOUS
370
-3
390
F
  0
LAYER
  5
204
100
AcDbSymbolTableRecord
100
AcDbLayerTableRecord
  2
DRAFT
 70
0
 62
7
  6
CONTINUOUS
370
-3
390
F
  0
LAYER
  5
205
100
AcDbSymbolTableRecord
100
AcDbLayerTableRecord
  2
IMPORT_IGES
 70
0
 62
7
  6
CONTINUOUS
370
-3
390
F
  0
LAYER
  5
206
100
AcDbSymbolTableRecord
100
AcDbLayerTableRecord
  2
INTF_1
 70
0
 62
7
  6
CONTINUOUS
370
-3
390
F
  0
LAYER
  5
207
100
AcDbSymbolTableRecord
100
AcDbLayerTableRecord
  2
INTF_11
 70
0
 62
7
  6
CONTINUOUS
370
-3
390
F
  0
LAYER
  5
208
100
AcDbSymbolTableRecord
100
AcDbLayerTableRecord
  2
INTF_12
 70
0
 62
7
  6
CONTINUOUS
370
-3
390
F
  0
LAYER
  5
209
100
AcDbSymbolTableRecord
100
AcDbLayerTableRecord
  2
INTF_2
 70
0
 62
7
  6
CONTINUOUS
370
-3
390
F
  0
LAYER
  5
20A
100
AcDbSymbolTableRecord
100
AcDbLayerTableRecord
  2
INTF_3
 70
0
 62
7
  6
CONTINUOUS
370
-3
390
F
  0
LAYER
  5
20B
100
AcDbSymbolTableRecord
100
AcDbLayerTableRecord
  2
INTF_4
 70
0
 62
7
  6
CONTINUOUS
370
-3
390
F
  0
LAYER
  5
20C
100
AcDbSymbolTableRecord
100
AcDbLayerTableRecord
  2
NOTE
 70
0
 62
7
  6
CONTINUOUS
370
-3
390
F
  0
LAYER
  5
20D
100
AcDbSymbolTableRecord
100
AcDbLayerTableRecord
  2
PIANI
 70
0
 62
7
  6
CONTINUOUS
370
-3
390
F
  0
LAYER
  5
20E
100
AcDbSymbolTableRecord
100
AcDbLayerTableRecord
  2
PIANI_ORIGINE
 70
0
 62
7
  6
CONTINUOUS
370
-3
390
F
  0
LAYER
  5
20F
100
AcDbSymbolTableRecord
100
AcDbLayerTableRecord
  2
PUNTI
 70
0
 62
7
  6
CONTINUOUS
370
-3
390
F
  0
LAYER
  5
210
100
AcDbSymbolTableRecord
100
AcDbLayerTableRecord
  2
RACCORDO
 70
0
 62
7
  6
CONTINUOUS
370
-3
390
F
  0
LAYER
  5
211
100
AcDbSymbolTableRecord
100
AcDbLayerTableRecord
  2
RGB__255__255__255__
 70
0
 62
7
  6
CONTINUOUS
370
-3
390
F
  0
LAYER
  5
212
100
AcDbSymbolTableRecord
100
AcDbLayerTableRecord
  2
RGB____0____0____0__
 70
0
 62
7
  6
CONTINUOUS
370
-3
390
F
  0
LAYER
  5
213
100
AcDbSymbolTableRecord
100
AcDbLayerTableRecord
  2
SIMBOLI
 70
0
 62
7
  6
CONTINUOUS
370
-3
390
F
  0
LAYER
  5
214
100
AcDbSymbolTableRecord
100
AcDbLayerTableRecord
  2
SMUSSO
 70
0
 62
7
  6
CONTINUOUS
370
-3
390
F
  0
LAYER
  5
215
100
AcDbSymbolTableRecord
100
AcDbLayerTableRecord
  2
SNAPLINE
 70
0
 62
7
  6
CONTINUOUS
370
-3
390
F
  0
LAYER
  5
216
100
AcDbSymbolTableRecord
100
AcDbLayerTableRecord
  2
SUPERFICI
 70
0
 62
7
  6
CONTINUOUS
370
-3
390
F
  0
LAYER
  5
217
100
AcDbSymbolTableRecord
100
AcDbLayerTableRecord
  2
TRASH
 70
0
 62
7
  6
CONTINUOUS
370
-3
390
F
  0
ENDTAB
  0
TABLE
  2
STYLE
  5
3
100
AcDbSymbolTable
 70
1
  0
STYLE
  5
11
100
AcDbSymbolTableRecord
100
AcDbTextStyleTableRecord
  2
STANDARD
 70
0
 40
0.0
 41
0.8
 50
0.0
 71
0
 42
0.2
  3
txt
  4

  0
STYLE
  5
218
100
AcDbSymbolTableRecord
100
AcDbTextStyleTableRecord
  2
TEXTSTYLE_1
 70
0
 40
0.0
 41
0.8
 50
0.0
 71
0
 42
0.2
  3
gdt
  4

  0
ENDTAB
  0
TABLE
  2
VIEW
  5
6
100
AcDbSymbolTable
 70
0
  0
ENDTAB
  0
TABLE
  2
UCS
  5
7
100
AcDbSymbolTable
 70
0
  0
ENDTAB
  0
TABLE
  2
APPID
  5
9
100
AcDbSymbolTable
 70
1
  0
APPID
  5
219
100
AcDbSymbolTableRecord
100
AcDbRegAppTableRecord
  2
ACAD
 70
0
  0
ENDTAB
  0
TABLE
  2
BLOCK_RECORD
  5
1
100
AcDbSymbolTable
 70
0
  0
BLOCK_RECORD
  5
21A
100
AcDbSymbolTableRecord
100
AcDbBlockTableRecord
  2
*Model_Space
  0
BLOCK_RECORD
  5
21B
100
AcDbSymbolTableRecord
100
AcDbBlockTableRecord
  2
*Paper_Space
  0
BLOCK_RECORD
  5
21C
100
AcDbSymbolTableRecord
100
AcDbBlockTableRecord
  2
_FILLED
  0
ENDTAB
  0
TABLE
  2
DIMSTYLE
  5
A
100
AcDbSymbolTable
 70
1
100
AcDbDimStyleTable
 71
0
  0
DIMSTYLE
105
21D
100
AcDbSymbolTableRecord
100
AcDbDimStyleTableRecord
  2
STANDARD
 70
0
  3

  4

 40
1.0
 41
3.0
 42
0.5
 43
0.38
 44
1.5
 45
0.0
 46
0.0
 47
0.01
 48
0.01
140
3.0
141
0.09
142
0.0
143
25.4
144
1.0
145
0.0
146
1.0
147
0.625
 71
1
 72
0
 73
0
 74
0
 75
0
 76
0
 77
1
 78
8
 79
2
170
0
171
1
172
0
173
0
174
0
175
0
176
0
177
0
178
0
270
2
179
2
271
2
272
2
273
2
274
2
275
0
280
0
281
0
282
0
283
1
284
8
285
0
286
0
287
3
288
0
340
11
278
44
341
21C
342
21C
343
21C
344
21C
  0
ENDTAB
  0
ENDSEC
  0
SECTION
  2
BLOCKS
  0
BLOCK
  5
20
100
AcDbEntity
  8
0
100
AcDbBlockBegin
  2
*Model_Space
 70
0
 10
0.0
 20
0.0
 30
0.0
  3
*Model_Space
  1

  0
ENDBLK
  5
21
100
AcDbEntity
  8
0
100
AcDbBlockEnd
  0
BLOCK
  5
1C
100
AcDbEntity
  8
0
100
AcDbBlockBegin
  2
*Paper_Space
 70
0
 10
0.0
 20
0.0
 30
0.0
  3
*Paper_Space
  1

  0
ENDBLK
  5
1D
100
AcDbEntity
  8
0
100
AcDbBlockEnd
  0
BLOCK
  5
21E
100
AcDbEntity
  8
0
100
AcDbBlockBegin
  2
_FILLED
 70
64
 10
0.0
 20
0.0
  3
_FILLED
  1

  0
SOLID
  5
21F
100
AcDbEntity
  8
0
  6
BYBLOCK
 62
0
100
AcDbTrace
 10
0.0
 20
0.0
 11
-1.0
 21
0.3166666667
 12
-1.0
 22
-0.3166666667
 13
-1.0
 23
-0.3166666667
  0
ENDBLK
  5
220
100
AcDbEntity
  8
0
  6
BYBLOCK
 62
0
100
AcDbBlockEnd
  0
ENDSEC
  0
SECTION
  2
ENTITIES
  0
LINE
  5
221
100
AcDbEntity
  8
DRAFT
100
AcDbLine
 62
7
  6
CONTINUOUS
 10
-105.0384128464
 20
9.55
 11
-105.0384128464
 21
-3.45
  0
LINE
  5
222
100
AcDbEntity
  8
RACCORDO
100
AcDbLine
 62
7
  6
CONTINUOUS
 10
-104.9615871536
 20
53.8000571154
 11
-104.9615871536
 21
9.55
  0
LINE
  5
223
100
AcDbEntity
  8
RACCORDO
100
AcDbLine
 62
7
  6
CONTINUOUS
 10
-104.9615871536
 20
-3.45
 11
-104.9615871536
 21
-47.7000571154
  0
LINE
  5
224
100
AcDbEntity
  8
RACCORDO
100
AcDbLine
 62
250
  6
CONTINUOUS
 10
-104.6797835631
 20
-16.9326224212
 11
-104.6797835631
 21
23.0326224212
  0
LINE
  5
225
100
AcDbEntity
  8
RACCORDO
100
AcDbLine
 62
250
  6
CONTINUOUS
 10
-104.4702589461
 20
-16.9849836279
 11
-104.4702589461
 21
-46.7098901385
  0
LINE
  5
226
100
AcDbEntity
  8
RACCORDO
100
AcDbLine
 62
250
  6
CONTINUOUS
 10
-104.4702589461
 20
23.0849836279
 11
-104.4702589461
 21
52.8098901385
  0
LINE
  5
227
100
AcDbEntity
  8
RACCORDO
100
AcDbLine
 62
7
  6
CONTINUOUS
 10
-103.7615871536
 20
38.6
 11
-103.7615871536
 21
29.6
  0
LINE
  5
228
100
AcDbEntity
  8
RACCORDO
100
AcDbLine
 62
250
  6
CONTINUOUS
 10
-103.2615871536
 20
39.1
 11
-103.2615871536
 21
29.1
  0
LINE
  5
229
100
AcDbEntity
  8
RACCORDO
100
AcDbLine
 62
7
  6
CONTINUOUS
 10
-102.9615871536
 20
9.8
 11
-102.9615871536
 21
-3.7
  0
LINE
  5
22A
100
AcDbEntity
  8
RACCORDO
100
AcDbLine
 62
250
  6
CONTINUOUS
 10
-102.8615871536
 20
29.1
 11
-102.8615871536
 21
39.1
  0
LINE
  5
22B
100
AcDbEntity
  8
RACCORDO
100
AcDbLine
 62
250
  6
CONTINUOUS
 10
-102.681001909
 20
-14.9511972268
 11
-102.681001909
 21
-3.7
  0
LINE
  5
22C
100
AcDbEntity
  8
RACCORDO
100
AcDbLine
 62
250
  6
CONTINUOUS
 10
-102.681001909
 20
9.8
 11
-102.681001909
 21
21.0511972268
  0
LINE
  5
22D
100
AcDbEntity
  8
DRAFT
100
AcDbLine
 62
7
  6
CONTINUOUS
 10
-102.4790408891
 20
21.05
 11
-102.4790408891
 21
17.95
  0
LINE
  5
22E
100
AcDbEntity
  8
RACCORDO
100
AcDbLine
 62
250
  6
CONTINUOUS
 10
-102.4714772921
 20
29.2872472287
 11
-102.4714772921
 21
21.0850597818
  0
LINE
  5
22F
100
AcDbEntity
  8
RACCORDO
100
AcDbLine
 62
250
  6
CONTINUOUS
 10
-102.4714772921
 20
-14.9850597818
 11
-102.4714772921
 21
-48.7086717926
  0
LINE
  5
230
100
AcDbEntity
  8
RACCORDO
100
AcDbLine
 62
250
  6
CONTINUOUS
 10
-102.4714772921
 20
38.9127527713
 11
-102.4714772921
 21
54.8086717926
  0
LINE
  5
231
100
AcDbEntity
  8
RACCORDO
100
AcDbLine
 62
7
  6
CONTINUOUS
 10
-102.4057847241
 20
-3.7
 11
-102.4057847241
 21
-3.45
  0
LINE
  5
232
100
AcDbEntity
  8
RACCORDO
100
AcDbLine
 62
7
  6
CONTINUOUS
 10
-102.4057847241
 20
9.55
 11
-102.4057847241
 21
9.8
  0
LINE
  5
233
100
AcDbEntity
  8
RACCORDO
100
AcDbLine
 62
7
  6
CONTINUOUS
 10
-102.4057847241
 20
17.95
 11
-102.4057847241
 21
21.018583276
  0
LINE
  5
234
100
AcDbEntity
  8
RACCORDO
100
AcDbLine
 62
7
  6
CONTINUOUS
 10
-102.3615871536
 20
29.6
 11
-102.3615871536
 21
38.6
  0
LINE
  5
235
100
AcDbEntity
  8
RACCORDO
100
AcDbLine
 62
7
  6
CONTINUOUS
 10
-102.0615871536
 20
18.35
 11
-102.0615871536
 21
23.0849836279
  0
LINE
  5
236
100
AcDbEntity
  8
DRAFT
100
AcDbLine
 62
7
  6
CONTINUOUS
 10
-101.9615871536
 20
-3.7
 11
-101.9615871536
 21
-3.45
  0
LINE
  5
237
100
AcDbEntity
  8
DRAFT
100
AcDbLine
 62
7
  6
CONTINUOUS
 10
-101.9615871536
 20
9.55
 11
-101.9615871536
 21
9.8
  0
LINE
  5
238
100
AcDbEntity
  8
DRAFT
100
AcDbLine
 62
7
  6
CONTINUOUS
 10
-101.9615871536
 20
17.95
 11
-101.9615871536
 21
18.35
  0
LINE
  5
239
100
AcDbEntity
  8
DRAFT
100
AcDbLine
 62
7
  6
CONTINUOUS
 10
-100.9615871536
 20
-53.2
 11
-100.9615871536
 21
-51.7
  0
LINE
  5
23A
100
AcDbEntity
  8
0
100
AcDbLine
 62
7
  6
CONTINUOUS
 10
-100.1615871536
 20
9.55
 11
-100.1615871536
 21
-3.45
  0
LINE
  5
23B
100
AcDbEntity
  8
0
100
AcDbLine
 62
7
  6
CONTINUOUS
 10
-99.9615871536
 20
-3.7
 11
-99.9615871536
 21
9.8
  0
LINE
  5
23C
100
AcDbEntity
  8
DRAFT
100
AcDbLine
 62
7
  6
CONTINUOUS
 10
-99.5143073399
 20
31.7
 11
-99.5143073399
 21
36.5
  0
LINE
  5
23D
100
AcDbEntity
  8
RACCORDO
100
AcDbLine
 62
7
  6
CONTINUOUS
 10
-99.3615871536
 20
-34.45
 11
-99.3615871536
 21
-42.45
  0
LINE
  5
23E
100
AcDbEntity
  8
DRAFT
100
AcDbLine
 62
7
  6
CONTINUOUS
 10
-99.3615871536
 20
31.7
 11
-99.3615871536
 21
36.5
  0
LINE
  5
23F
100
AcDbEntity
  8
RACCORDO
100
AcDbLine
 62
250
  6
CONTINUOUS
 10
-98.8615871536
 20
-33.95
 11
-98.8615871536
 21
-42.95
  0
LINE
  5
240
100
AcDbEntity
  8
DRAFT
100
AcDbLine
 62
7
  6
CONTINUOUS
 10
-98.4615871536
 20
-51.7
 11
-98.4615871536
 21
-49.2
  0
LINE
  5
241
100
AcDbEntity
  8
RACCORDO
100
AcDbLine
 62
250
  6
CONTINUOUS
 10
-98.4615871536
 20
-42.95
 11
-98.4615871536
 21
-33.95
  0
LINE
  5
242
100
AcDbEntity
  8
RACCORDO
100
AcDbLine
 62
7
  6
CONTINUOUS
 10
-97.9615871536
 20
-42.45
 11
-97.9615871536
 21
-34.45
  0
LINE
  5
243
100
AcDbEntity
  8
DRAFT
100
AcDbLine
 62
7
  6
CONTINUOUS
 10
-96.9615871536
 20
-49.2
 11
-96.9615871536
 21
-53.2
  0
LINE
  5
244
100
AcDbEntity
  8
DRAFT
100
AcDbLine
 62
7
  6
CONTINUOUS
 10
-94.1615871536
 20
36.5
 11
-94.1615871536
 21
31.7
  0
LINE
  5
245
100
AcDbEntity
  8
RACCORDO
100
AcDbLine
 62
7
  6
CONTINUOUS
 10
-94.0615871536
 20
18.35
 11
-94.0615871536
 21
23.0849836279
  0
LINE
  5
246
100
AcDbEntity
  8
DRAFT
100
AcDbLine
 62
7
  6
CONTINUOUS
 10
-94.0088669672
 20
36.5
 11
-94.0088669672
 21
31.7
  0
LINE
  5
247
100
AcDbEntity
  8
DRAFT
100
AcDbLine
 62
7
  6
CONTINUOUS
 10
-93.6615871536
 20
21.05
 11
-93.6615871536
 21
17.95
  0
LINE
  5
248
100
AcDbEntity
  8
RACCORDO
100
AcDbLine
 62
7
  6
CONTINUOUS
 10
-91.1615871536
 20
38.6
 11
-91.1615871536
 21
29.6
  0
LINE
  5
249
100
AcDbEntity
  8
RACCORDO
100
AcDbLine
 62
250
  6
CONTINUOUS
 10
-90.6615871536
 20
39.1
 11
-90.6615871536
 21
29.1
  0
LINE
  5
24A
100
AcDbEntity
  8
RACCORDO
100
AcDbLine
 62
250
  6
CONTINUOUS
 10
-90.2615871536
 20
29.1
 11
-90.2615871536
 21
39.1
  0
LINE
  5
24B
100
AcDbEntity
  8
RACCORDO
100
AcDbLine
 62
7
  6
CONTINUOUS
 10
-89.7615871536
 20
29.6
 11
-89.7615871536
 21
38.6
  0
LINE
  5
24C
100
AcDbEntity
  8
DRAFT
100
AcDbLine
 62
7
  6
CONTINUOUS
 10
-82.4615871536
 20
25.95
 11
-82.4572127204
 21
25.9
  0
LINE
  5
24D
100
AcDbEntity
  8
0
100
AcDbLine
 62
7
  6
CONTINUOUS
 10
-83.9615871536
 20
-32.0
 11
-83.9615871536
 21
-19.8
  0
LINE
  5
24E
100
AcDbEntity
  8
0
100
AcDbLine
 62
7
  6
CONTINUOUS
 10
-83.9615871536
 20
25.9
 11
-83.9615871536
 21
38.1
  0
LINE
  5
24F
100
AcDbEntity
  8
DRAFT
100
AcDbLine
 62
7
  6
CONTINUOUS
 10
-82.3481292315
 20
-32.0
 11
-82.3481292315
 21
-25.2
  0
LINE
  5
250
100
AcDbEntity
  8
0
100
AcDbLine
 62
7
  6
CONTINUOUS
 10
-81.9615871536
 20
38.1
 11
-81.9615871536
 21
25.9
  0
LINE
  5
251
100
AcDbEntity
  8
0
100
AcDbLine
 62
7
  6
CONTINUOUS
 10
-81.9615871536
 20
-19.8
 11
-81.9615871536
 21
-32.0
  0
LINE
  5
252
100
AcDbEntity
  8
0
100
AcDbLine
 62
7
  6
CONTINUOUS
 10
-78.9615871536
 20
-32.0
 11
-78.9615871536
 21
-19.8
  0
LINE
  5
253
100
AcDbEntity
  8
0
100
AcDbLine
 62
7
  6
CONTINUOUS
 10
-78.9615871536
 20
25.9
 11
-78.9615871536
 21
38.1
  0
LINE
  5
254
100
AcDbEntity
  8
DRAFT
100
AcDbLine
 62
7
  6
CONTINUOUS
 10
-82.4572127204
 20
-19.8
 11
-82.4615871536
 21
-19.85
  0
LINE
  5
255
100
AcDbEntity
  8
DRAFT
100
AcDbLine
 62
7
  6
CONTINUOUS
 10
-77.4615871536
 20
25.95
 11
-77.4572127204
 21
25.9
  0
LINE
  5
256
100
AcDbEntity
  8
ASSI
100
AcDbLine
 62
7
  6
CONTINUOUS
 10
-77.9846802844
 20
3.9531942447
 11
-77.9846802844
 21
2.05
  0
LINE
  5
257
100
AcDbEntity
  8
ASSI
100
AcDbLine
 62
7
  6
CONTINUOUS
 10
-77.7309210518
 20
2.05
 11
-77.7309210518
 21
3.9531942447
  0
LINE
  5
258
100
AcDbEntity
  8
DRAFT
100
AcDbLine
 62
7
  6
CONTINUOUS
 10
-77.3481292315
 20
-32.0
 11
-77.3481292315
 21
-25.2
  0
LINE
  5
259
100
AcDbEntity
  8
ASSI
100
AcDbLine
 62
7
  6
CONTINUOUS
 10
-77.3041441606
 20
3.9531942447
 11
-77.3041441606
 21
2.05
  0
LINE
  5
25A
100
AcDbEntity
  8
ASSI
100
AcDbLine
 62
7
  6
CONTINUOUS
 10
-77.0503849279
 20
2.05
 11
-77.0503849279
 21
3.6648314804
  0
LINE
  5
25B
100
AcDbEntity
  8
0
100
AcDbLine
 62
7
  6
CONTINUOUS
 10
-76.9615871536
 20
38.1
 11
-76.9615871536
 21
25.9
  0
LINE
  5
25C
100
AcDbEntity
  8
0
100
AcDbLine
 62
7
  6
CONTINUOUS
 10
-76.9615871536
 20
-19.8
 11
-76.9615871536
 21
-32.0
  0
LINE
  5
25D
100
AcDbEntity
  8
ASSI
100
AcDbLine
 62
7
  6
CONTINUOUS
 10
-75.7239162119
 20
3.6417624592
 11
-75.7239162119
 21
2.05
  0
LINE
  5
25E
100
AcDbEntity
  8
ASSI
100
AcDbLine
 62
7
  6
CONTINUOUS
 10
-75.4701569793
 20
2.05
 11
-75.4701569793
 21
3.9531942447
  0
LINE
  5
25F
100
AcDbEntity
  8
0
100
AcDbLine
 62
7
  6
CONTINUOUS
 10
-73.9615871536
 20
-32.0
 11
-73.9615871536
 21
-19.8
  0
LINE
  5
260
100
AcDbEntity
  8
0
100
AcDbLine
 62
7
  6
CONTINUOUS
 10
-73.9615871536
 20
25.9
 11
-73.9615871536
 21
38.1
  0
LINE
  5
261
100
AcDbEntity
  8
ASSI
100
AcDbLine
 62
7
  6
CONTINUOUS
 10
-73.2901344807
 20
3.9531942447
 11
-73.2901344807
 21
2.05
  0
LINE
  5
262
100
AcDbEntity
  8
ASSI
100
AcDbLine
 62
7
  6
CONTINUOUS
 10
-73.0363752481
 20
2.05
 11
-73.0363752481
 21
2.8920192719
  0
LINE
  5
263
100
AcDbEntity
  8
ASSI
100
AcDbLine
 62
7
  6
CONTINUOUS
 10
-73.0363752481
 20
3.1111749728
 11
-73.0363752481
 21
3.7340385438
  0
LINE
  5
264
100
AcDbEntity
  8
DRAFT
100
AcDbLine
 62
7
  6
CONTINUOUS
 10
-72.3481292315
 20
-32.0
 11
-72.3481292315
 21
-25.2
  0
LINE
  5
265
100
AcDbEntity
  8
0
100
AcDbLine
 62
7
  6
CONTINUOUS
 10
-71.9615871536
 20
38.1
 11
-71.9615871536
 21
25.9
  0
LINE
  5
266
100
AcDbEntity
  8
0
100
AcDbLine
 62
7
  6
CONTINUOUS
 10
-71.9615871536
 20
-19.8
 11
-71.9615871536
 21
-32.0
  0
LINE
  5
267
100
AcDbEntity
  8
DRAFT
100
AcDbLine
 62
7
  6
CONTINUOUS
 10
-77.4572127204
 20
-19.8
 11
-77.4615871536
 21
-19.85
  0
LINE
  5
268
100
AcDbEntity
  8
DRAFT
100
AcDbLine
 62
7
  6
CONTINUOUS
 10
-72.4572127204
 20
-19.8
 11
-72.4615871536
 21
-19.85
  0
LINE
  5
269
100
AcDbEntity
  8
ASSI
100
AcDbLine
 62
7
  6
CONTINUOUS
 10
-75.0087765563
 20
2.05
 11
-74.8081841396
 21
2.6267255287
  0
LINE
  5
26A
100
AcDbEntity
  8
ASSI
100
AcDbLine
 62
7
  6
CONTINUOUS
 10
-76.2856828699
 20
2.05
 11
-75.7239162119
 21
3.6417624592
  0
LINE
  5
26B
100
AcDbEntity
  8
ASSI
100
AcDbLine
 62
7
  6
CONTINUOUS
 10
-75.8003322784
 20
3.9531942447
 11
-76.2710844582
 21
2.6319521836
  0
LINE
  5
26C
100
AcDbEntity
  8
ASSI
100
AcDbLine
 62
7
  6
CONTINUOUS
 10
-74.735913175
 20
2.834346719
 11
-74.5302745089
 21
3.3899857509
  0
LINE
  5
26D
100
AcDbEntity
  8
ASSI
100
AcDbLine
 62
7
  6
CONTINUOUS
 10
-78.4691297285
 20
3.9531942447
 11
-78.9932289538
 21
2.5740994012
  0
LINE
  5
26E
100
AcDbEntity
  8
ASSI
100
AcDbLine
 62
7
  6
CONTINUOUS
 10
-74.5531633006
 20
3.9531942447
 11
-75.2765933362
 21
2.05
  0
LINE
  5
26F
100
AcDbEntity
  8
ASSI
100
AcDbLine
 62
7
  6
CONTINUOUS
 10
-78.9568231273
 20
2.05
 11
-78.1977081831
 21
3.9531942447
  0
LINE
  5
270
100
AcDbEntity
  8
ASSI
100
AcDbLine
 62
7
  6
CONTINUOUS
 10
-79.9615871536
 20
3.9531942447
 11
-79.229866738
 21
2.05
  0
LINE
  5
271
100
AcDbEntity
  8
ASSI
100
AcDbLine
 62
7
  6
CONTINUOUS
 10
-79.1976060135
 20
2.5740994012
 11
-79.6917878494
 21
3.9531942447
  0
LINE
  5
272
100
AcDbEntity
  8
ASSI
100
AcDbLine
 62
7
  6
CONTINUOUS
 10
-77.0503849279
 20
3.6648314804
 11
-76.5015944403
 21
2.05
  0
LINE
  5
273
100
AcDbEntity
  8
ASSI
100
AcDbLine
 62
7
  6
CONTINUOUS
 10
-76.4666304496
 20
2.6085227035
 11
-76.9173775094
 21
3.9531942447
  0
LINE
  5
274
100
AcDbEntity
  8
DRAFT
100
AcDbLine
 62
7
  6
CONTINUOUS
 10
-72.4615871536
 20
25.95
 11
-72.4572127204
 21
25.9
  0
LINE
  5
275
100
AcDbEntity
  8
DRAFT
100
AcDbLine
 62
7
  6
CONTINUOUS
 10
-67.4615871536
 20
25.95
 11
-67.4572127204
 21
25.9
  0
LINE
  5
276
100
AcDbEntity
  8
0
100
AcDbLine
 62
7
  6
CONTINUOUS
 10
-68.9615871536
 20
-32.0
 11
-68.9615871536
 21
-19.8
  0
LINE
  5
277
100
AcDbEntity
  8
0
100
AcDbLine
 62
7
  6
CONTINUOUS
 10
-68.9615871536
 20
25.9
 11
-68.9615871536
 21
38.1
  0
LINE
  5
278
100
AcDbEntity
  8
ASSI
100
AcDbLine
 62
7
  6
CONTINUOUS
 10
-68.8724169308
 20
3.9531942447
 11
-68.8724169308
 21
2.05
  0
LINE
  5
279
100
AcDbEntity
  8
ASSI
100
AcDbLine
 62
7
  6
CONTINUOUS
 10
-68.6186576982
 20
2.05
 11
-68.6186576982
 21
2.834346719
  0
LINE
  5
27A
100
AcDbEntity
  8
ASSI
100
AcDbLine
 62
7
  6
CONTINUOUS
 10
-68.6186576982
 20
3.05350242
 11
-68.6186576982
 21
3.7340385438
  0
LINE
  5
27B
100
AcDbEntity
  8
DRAFT
100
AcDbLine
 62
7
  6
CONTINUOUS
 10
-67.3481292315
 20
-32.0
 11
-67.3481292315
 21
-25.2
  0
LINE
  5
27C
100
AcDbEntity
  8
0
100
AcDbLine
 62
7
  6
CONTINUOUS
 10
-66.9615871536
 20
38.1
 11
-66.9615871536
 21
25.9
  0
LINE
  5
27D
100
AcDbEntity
  8
0
100
AcDbLine
 62
7
  6
CONTINUOUS
 10
-66.9615871536
 20
-19.8
 11
-66.9615871536
 21
-32.0
  0
LINE
  5
27E
100
AcDbEntity
  8
0
100
AcDbLine
 62
7
  6
CONTINUOUS
 10
-63.9615871536
 20
-32.0
 11
-63.9615871536
 21
-19.8
  0
LINE
  5
27F
100
AcDbEntity
  8
0
100
AcDbLine
 62
7
  6
CONTINUOUS
 10
-63.9615871536
 20
25.9
 11
-63.9615871536
 21
38.1
  0
LINE
  5
280
100
AcDbEntity
  8
ASSI
100
AcDbLine
 62
7
  6
CONTINUOUS
 10
-62.8167988794
 20
3.9531942447
 11
-62.8167988794
 21
2.05
  0
LINE
  5
281
100
AcDbEntity
  8
ASSI
100
AcDbLine
 62
7
  6
CONTINUOUS
 10
-62.5630396467
 20
2.05
 11
-62.5630396467
 21
3.9531942447
  0
LINE
  5
282
100
AcDbEntity
  8
DRAFT
100
AcDbLine
 62
7
  6
CONTINUOUS
 10
-62.3481292315
 20
-32.0
 11
-62.3481292315
 21
-25.2
  0
LINE
  5
283
100
AcDbEntity
  8
DRAFT
100
AcDbLine
 62
7
  6
CONTINUOUS
 10
-67.4572127204
 20
-19.8
 11
-67.4615871536
 21
-19.85
  0
LINE
  5
284
100
AcDbEntity
  8
ASSI
100
AcDbLine
 62
7
  6
CONTINUOUS
 10
-67.0614987707
 20
2.05
 11
-66.860906354
 21
2.6267255287
  0
LINE
  5
285
100
AcDbEntity
  8
ASSI
100
AcDbLine
 62
7
  6
CONTINUOUS
 10
-66.7886353894
 20
2.834346719
 11
-66.5829967233
 21
3.3899857509
  0
LINE
  5
286
100
AcDbEntity
  8
ASSI
100
AcDbLine
 62
7
  6
CONTINUOUS
 10
-66.605885515
 20
3.9531942447
 11
-67.3293155506
 21
2.05
  0
LINE
  5
287
100
AcDbEntity
  8
ASSI
100
AcDbLine
 62
7
  6
CONTINUOUS
 10
-73.5163189553
 20
2.05
 11
-74.27867803
 21
3.9531942447
  0
LINE
  5
288
100
AcDbEntity
  8
ASSI
100
AcDbLine
 62
7
  6
CONTINUOUS
 10
-74.2799396364
 20
3.3573647434
 11
-74.0750217122
 21
2.834346719
  0
LINE
  5
289
100
AcDbEntity
  8
ASSI
100
AcDbLine
 62
7
  6
CONTINUOUS
 10
-73.9984254162
 20
2.6267255287
 11
-73.7861184354
 21
2.05
  0
LINE
  5
28A
100
AcDbEntity
  8
DRAFT
100
AcDbLine
 62
7
  6
CONTINUOUS
 10
-62.4615871536
 20
25.95
 11
-62.4572127204
 21
25.9
  0
LINE
  5
28B
100
AcDbEntity
  8
DRAFT
100
AcDbLine
 62
7
  6
CONTINUOUS
 10
-57.4615871536
 20
25.95
 11
-57.4572127204
 21
25.9
  0
LINE
  5
28C
100
AcDbEntity
  8
0
100
AcDbLine
 62
7
  6
CONTINUOUS
 10
-61.9615871536
 20
38.1
 11
-61.9615871536
 21
25.9
  0
LINE
  5
28D
100
AcDbEntity
  8
0
100
AcDbLine
 62
7
  6
CONTINUOUS
 10
-61.9615871536
 20
-19.8
 11
-61.9615871536
 21
-32.0
  0
LINE
  5
28E
100
AcDbEntity
  8
ASSI
100
AcDbLine
 62
7
  6
CONTINUOUS
 10
-60.3599481271
 20
3.9531942447
 11
-60.3599481271
 21
2.05
  0
LINE
  5
28F
100
AcDbEntity
  8
ASSI
100
AcDbLine
 62
7
  6
CONTINUOUS
 10
-60.1061888944
 20
2.2691557009
 11
-60.1061888944
 21
3.9531942447
  0
LINE
  5
290
100
AcDbEntity
  8
ASSI
100
AcDbLine
 62
7
  6
CONTINUOUS
 10
-59.1603590273
 20
2.05
 11
-59.1603590273
 21
2.2691557009
  0
LINE
  5
291
100
AcDbEntity
  8
0
100
AcDbLine
 62
7
  6
CONTINUOUS
 10
-58.9615871536
 20
-32.0
 11
-58.9615871536
 21
-19.8
  0
LINE
  5
292
100
AcDbEntity
  8
0
100
AcDbLine
 62
7
  6
CONTINUOUS
 10
-58.9615871536
 20
25.9
 11
-58.9615871536
 21
38.1
  0
LINE
  5
293
100
AcDbEntity
  8
ASSI
100
AcDbLine
 62
7
  6
CONTINUOUS
 10
-58.8604617524
 20
3.9531942447
 11
-58.8604617524
 21
2.05
  0
LINE
  5
294
100
AcDbEntity
  8
ASSI
100
AcDbLine
 62
7
  6
CONTINUOUS
 10
-58.6067025198
 20
2.2691557009
 11
-58.6067025198
 21
2.9266228036
  0
LINE
  5
295
100
AcDbEntity
  8
ASSI
100
AcDbLine
 62
7
  6
CONTINUOUS
 10
-58.6067025198
 20
3.1457785045
 11
-58.6067025198
 21
3.7340385438
  0
LINE
  5
296
100
AcDbEntity
  8
ASSI
100
AcDbLine
 62
7
  6
CONTINUOUS
 10
-57.5685965681
 20
2.9266228036
 11
-57.5685965681
 21
3.1457785045
  0
LINE
  5
297
100
AcDbEntity
  8
ASSI
100
AcDbLine
 62
7
  6
CONTINUOUS
 10
-57.4993895047
 20
3.7340385438
 11
-57.4993895047
 21
3.9531942447
  0
LINE
  5
298
100
AcDbEntity
  8
ASSI
100
AcDbLine
 62
7
  6
CONTINUOUS
 10
-57.4532514624
 20
2.05
 11
-57.4532514624
 21
2.2691557009
  0
LINE
  5
299
100
AcDbEntity
  8
DRAFT
100
AcDbLine
 62
7
  6
CONTINUOUS
 10
-57.3481292315
 20
-32.0
 11
-57.3481292315
 21
-25.2
  0
LINE
  5
29A
100
AcDbEntity
  8
0
100
AcDbLine
 62
7
  6
CONTINUOUS
 10
-56.9615871536
 20
38.1
 11
-56.9615871536
 21
25.9
  0
LINE
  5
29B
100
AcDbEntity
  8
0
100
AcDbLine
 62
7
  6
CONTINUOUS
 10
-56.9615871536
 20
-19.8
 11
-56.9615871536
 21
-32.0
  0
LINE
  5
29C
100
AcDbEntity
  8
ASSI
100
AcDbLine
 62
7
  6
CONTINUOUS
 10
-54.5696238188
 20
3.9531942447
 11
-54.5696238188
 21
2.05
  0
LINE
  5
29D
100
AcDbEntity
  8
DRAFT
100
AcDbLine
 62
7
  6
CONTINUOUS
 10
-62.4572127204
 20
-19.8
 11
-62.4615871536
 21
-19.85
  0
LINE
  5
29E
100
AcDbEntity
  8
DRAFT
100
AcDbLine
 62
7
  6
CONTINUOUS
 10
-57.4572127204
 20
-19.8
 11
-57.4615871536
 21
-19.85
  0
LINE
  5
29F
100
AcDbEntity
  8
ASSI
100
AcDbLine
 62
7
  6
CONTINUOUS
 10
-62.0555211815
 20
2.05
 11
-61.8549287648
 21
2.6267255287
  0
LINE
  5
2A0
100
AcDbEntity
  8
ASSI
100
AcDbLine
 62
7
  6
CONTINUOUS
 10
-61.7826578002
 20
2.834346719
 11
-61.5770191341
 21
3.3899857509
  0
LINE
  5
2A1
100
AcDbEntity
  8
ASSI
100
AcDbLine
 62
7
  6
CONTINUOUS
 10
-63.3012483235
 20
3.9531942447
 11
-63.8253475487
 21
2.5740994012
  0
LINE
  5
2A2
100
AcDbEntity
  8
ASSI
100
AcDbLine
 62
7
  6
CONTINUOUS
 10
-61.5999079258
 20
3.9531942447
 11
-62.3233379614
 21
2.05
  0
LINE
  5
2A3
100
AcDbEntity
  8
ASSI
100
AcDbLine
 62
7
  6
CONTINUOUS
 10
-63.7889417222
 20
2.05
 11
-63.029826778
 21
3.9531942447
  0
LINE
  5
2A4
100
AcDbEntity
  8
RACCORDO
100
AcDbLine
 62
7
  6
CONTINUOUS
 10
4.7384585379
 20
-55.3
 11
-4.661632845
 21
-55.3
  0
LINE
  5
2A5
100
AcDbEntity
  8
ASSI
100
AcDbLine
 62
7
  6
CONTINUOUS
 10
-72.187867715
 20
2.4455977196
 11
-71.9384339898
 21
2.05
  0
LINE
  5
2A6
100
AcDbEntity
  8
ASSI
100
AcDbLine
 62
7
  6
CONTINUOUS
 10
-71.6403390097
 20
2.05
 11
-71.9636657647
 21
2.5674310865
  0
LINE
  5
2A7
100
AcDbEntity
  8
ASSI
100
AcDbLine
 62
7
  6
CONTINUOUS
 10
-65.5690411697
 20
2.05
 11
-66.3314002444
 21
3.9531942447
  0
LINE
  5
2A8
100
AcDbEntity
  8
ASSI
100
AcDbLine
 62
7
  6
CONTINUOUS
 10
-60.5630635804
 20
2.05
 11
-61.3254226552
 21
3.9531942447
  0
LINE
  5
2A9
100
AcDbEntity
  8
ASSI
100
AcDbLine
 62
7
  6
CONTINUOUS
 10
-66.3326618508
 20
3.3573647434
 11
-66.1277439266
 21
2.834346719
  0
LINE
  5
2AA
100
AcDbEntity
  8
ASSI
100
AcDbLine
 62
7
  6
CONTINUOUS
 10
-61.3266842616
 20
3.3573647434
 11
-61.1217663374
 21
2.834346719
  0
LINE
  5
2AB
100
AcDbEntity
  8
ASSI
100
AcDbLine
 62
7
  6
CONTINUOUS
 10
-64.7937057485
 20
3.9531942447
 11
-64.0619853329
 21
2.05
  0
LINE
  5
2AC
100
AcDbEntity
  8
ASSI
100
AcDbLine
 62
7
  6
CONTINUOUS
 10
-66.0511476306
 20
2.6267255287
 11
-65.8388406498
 21
2.05
  0
LINE
  5
2AD
100
AcDbEntity
  8
ASSI
100
AcDbLine
 62
7
  6
CONTINUOUS
 10
-61.0451700414
 20
2.6267255287
 11
-60.8328630606
 21
2.05
  0
LINE
  5
2AE
100
AcDbEntity
  8
ASSI
100
AcDbLine
 62
7
  6
CONTINUOUS
 10
-64.0297246084
 20
2.5740994012
 11
-64.5239064443
 21
3.9531942447
  0
LINE
  5
2AF
100
AcDbEntity
  8
DRAFT
100
AcDbLine
 62
7
  6
CONTINUOUS
 10
-52.4615871536
 20
25.95
 11
-52.4572127204
 21
25.9
  0
LINE
  5
2B0
100
AcDbEntity
  8
ASSI
100
AcDbLine
 62
7
  6
CONTINUOUS
 10
-54.3158645862
 20
2.05
 11
-54.3158645862
 21
3.9531942447
  0
LINE
  5
2B1
100
AcDbEntity
  8
0
100
AcDbLine
 62
7
  6
CONTINUOUS
 10
-53.9615871536
 20
-32.0
 11
-53.9615871536
 21
-19.8
  0
LINE
  5
2B2
100
AcDbEntity
  8
0
100
AcDbLine
 62
7
  6
CONTINUOUS
 10
-53.9615871536
 20
25.9
 11
-53.9615871536
 21
38.1
  0
LINE
  5
2B3
100
AcDbEntity
  8
DRAFT
100
AcDbLine
 62
7
  6
CONTINUOUS
 10
-52.3481292315
 20
-32.0
 11
-52.3481292315
 21
-25.2
  0
LINE
  5
2B4
100
AcDbEntity
  8
0
100
AcDbLine
 62
7
  6
CONTINUOUS
 10
-51.9615871536
 20
38.1
 11
-51.9615871536
 21
25.9
  0
LINE
  5
2B5
100
AcDbEntity
  8
0
100
AcDbLine
 62
7
  6
CONTINUOUS
 10
-51.9615871536
 20
-19.8
 11
-51.9615871536
 21
-32.0
  0
LINE
  5
2B6
100
AcDbEntity
  8
ASSI
100
AcDbLine
 62
7
  6
CONTINUOUS
 10
-51.9397554079
 20
3.9531942447
 11
-51.9397554079
 21
2.05
  0
LINE
  5
2B7
100
AcDbEntity
  8
ASSI
100
AcDbLine
 62
7
  6
CONTINUOUS
 10
-51.6859961753
 20
2.2691557009
 11
-51.6859961753
 21
2.9266228036
  0
LINE
  5
2B8
100
AcDbEntity
  8
ASSI
100
AcDbLine
 62
7
  6
CONTINUOUS
 10
-51.6859961753
 20
3.1457785045
 11
-51.6859961753
 21
3.7340385438
  0
LINE
  5
2B9
100
AcDbEntity
  8
ASSI
100
AcDbLine
 62
7
  6
CONTINUOUS
 10
-50.6478902236
 20
2.9266228036
 11
-50.6478902236
 21
3.1457785045
  0
LINE
  5
2BA
100
AcDbEntity
  8
ASSI
100
AcDbLine
 62
7
  6
CONTINUOUS
 10
-50.5786831601
 20
3.7340385438
 11
-50.5786831601
 21
3.9531942447
  0
LINE
  5
2BB
100
AcDbEntity
  8
ASSI
100
AcDbLine
 62
7
  6
CONTINUOUS
 10
-50.5325451178
 20
2.05
 11
-50.5325451178
 21
2.2691557009
  0
LINE
  5
2BC
100
AcDbEntity
  8
ASSI
100
AcDbLine
 62
7
  6
CONTINUOUS
 10
-50.17497529
 20
3.9531942447
 11
-50.17497529
 21
2.05
  0
LINE
  5
2BD
100
AcDbEntity
  8
ASSI
100
AcDbLine
 62
7
  6
CONTINUOUS
 10
-49.9212160574
 20
2.05
 11
-49.9212160574
 21
3.5096563641
  0
LINE
  5
2BE
100
AcDbEntity
  8
0
100
AcDbLine
 62
7
  6
CONTINUOUS
 10
-48.9615871536
 20
-32.0
 11
-48.9615871536
 21
-19.8
  0
LINE
  5
2BF
100
AcDbEntity
  8
0
100
AcDbLine
 62
7
  6
CONTINUOUS
 10
-48.9615871536
 20
25.9
 11
-48.9615871536
 21
38.1
  0
LINE
  5
2C0
100
AcDbEntity
  8
ASSI
100
AcDbLine
 62
7
  6
CONTINUOUS
 10
-48.9523171692
 20
3.9531942447
 11
-48.9523171692
 21
2.4935380567
  0
LINE
  5
2C1
100
AcDbEntity
  8
ASSI
100
AcDbLine
 62
7
  6
CONTINUOUS
 10
-48.6985579365
 20
2.05
 11
-48.6985579365
 21
3.9531942447
  0
LINE
  5
2C2
100
AcDbEntity
  8
ASSI
100
AcDbLine
 62
7
  6
CONTINUOUS
 10
-48.4332641933
 20
2.2783474043
 11
-48.4332641933
 21
2.05
  0
LINE
  5
2C3
100
AcDbEntity
  8
ASSI
100
AcDbLine
 62
7
  6
CONTINUOUS
 10
-48.3179190876
 20
3.9531942447
 11
-48.3179190876
 21
3.7340385438
  0
LINE
  5
2C4
100
AcDbEntity
  8
DRAFT
100
AcDbLine
 62
7
  6
CONTINUOUS
 10
-47.3481292315
 20
-32.0
 11
-47.3481292315
 21
-25.2
  0
LINE
  5
2C5
100
AcDbEntity
  8
ASSI
100
AcDbLine
 62
7
  6
CONTINUOUS
 10
-46.9683813504
 20
3.7340385438
 11
-46.9683813504
 21
3.9531942447
  0
LINE
  5
2C6
100
AcDbEntity
  8
0
100
AcDbLine
 62
7
  6
CONTINUOUS
 10
-46.9615871536
 20
38.1
 11
-46.9615871536
 21
25.9
  0
LINE
  5
2C7
100
AcDbEntity
  8
0
100
AcDbLine
 62
7
  6
CONTINUOUS
 10
-46.9615871536
 20
-19.8
 11
-46.9615871536
 21
-32.0
  0
LINE
  5
2C8
100
AcDbEntity
  8
ASSI
100
AcDbLine
 62
7
  6
CONTINUOUS
 10
-46.9222433081
 20
2.05
 11
-46.9222433081
 21
2.2691557009
  0
LINE
  5
2C9
100
AcDbEntity
  8
DRAFT
100
AcDbLine
 62
7
  6
CONTINUOUS
 10
-52.4572127204
 20
-19.8
 11
-52.4615871536
 21
-19.85
  0
LINE
  5
2CA
100
AcDbEntity
  8
ASSI
100
AcDbLine
 62
7
  6
CONTINUOUS
 10
-55.0540732629
 20
3.9531942447
 11
-55.5781724881
 21
2.5740994012
  0
LINE
  5
2CB
100
AcDbEntity
  8
ASSI
100
AcDbLine
 62
7
  6
CONTINUOUS
 10
-55.5417666616
 20
2.05
 11
-54.7826517175
 21
3.9531942447
  0
LINE
  5
2CC
100
AcDbEntity
  8
RACCORDO
100
AcDbLine
 62
7
  6
CONTINUOUS
 10
100.7384128464
 20
-53.2
 11
97.3384128464
 21
-53.2
  0
LINE
  5
2CD
100
AcDbEntity
  8
DRAFT
100
AcDbLine
 62
7
  6
CONTINUOUS
 10
-96.9615871536
 20
-53.2
 11
-100.9615871536
 21
-53.2
  0
LINE
  5
2CE
100
AcDbEntity
  8
DRAFT
100
AcDbLine
 62
7
  6
CONTINUOUS
 10
-2.6115871536
 20
-52.8
 11
2.6884128464
 21
-52.8
  0
LINE
  5
2CF
100
AcDbEntity
  8
DRAFT
100
AcDbLine
 62
7
  6
CONTINUOUS
 10
-100.9615871536
 20
-51.7
 11
-98.4615871536
 21
-51.7
  0
LINE
  5
2D0
100
AcDbEntity
  8
RACCORDO
100
AcDbLine
 62
7
  6
CONTINUOUS
 10
98.8384128464
 20
-51.7
 11
100.7384128464
 21
-51.7
  0
LINE
  5
2D1
100
AcDbEntity
  8
DRAFT
100
AcDbLine
 62
7
  6
CONTINUOUS
 10
2.6884128464
 20
-51.6
 11
-2.6115871536
 21
-51.6
  0
LINE
  5
2D2
100
AcDbEntity
  8
RACCORDO
100
AcDbLine
 62
7
  6
CONTINUOUS
 10
-4.9615871536
 20
-49.2
 11
-103.461644269
 21
-49.2
  0
LINE
  5
2D3
100
AcDbEntity
  8
RACCORDO
100
AcDbLine
 62
7
  6
CONTINUOUS
 10
5.0384128464
 20
-49.2
 11
103.5384699618
 21
-49.2
  0
LINE
  5
2D4
100
AcDbEntity
  8
RACCORDO
100
AcDbLine
 62
7
  6
CONTINUOUS
 10
7.2884128464
 20
-49.076973193
 11
5.0384128464
 21
-49.076973193
  0
LINE
  5
2D5
100
AcDbEntity
  8
RACCORDO
100
AcDbLine
 62
7
  6
CONTINUOUS
 10
-4.9615871536
 20
-49.076973193
 11
-7.2115871536
 21
-49.076973193
  0
LINE
  5
2D6
100
AcDbEntity
  8
RACCORDO
100
AcDbLine
 62
250
  6
CONTINUOUS
 10
50.5384128464
 20
-48.8483548705
 11
64.5384128464
 21
-48.8483548705
  0
LINE
  5
2D7
100
AcDbEntity
  8
RACCORDO
100
AcDbLine
 62
250
  6
CONTINUOUS
 10
-102.4714772921
 20
-48.7086717926
 11
-7.2115871536
 21
-48.7086717926
  0
LINE
  5
2D8
100
AcDbEntity
  8
RACCORDO
100
AcDbLine
 62
250
  6
CONTINUOUS
 10
102.548302985
 20
-48.7086717926
 11
64.5384128464
 21
-48.7086717926
  0
LINE
  5
2D9
100
AcDbEntity
  8
RACCORDO
100
AcDbLine
 62
250
  6
CONTINUOUS
 10
7.2884128464
 20
-48.7086717926
 11
50.5384128464
 21
-48.7086717926
  0
LINE
  5
2DA
100
AcDbEntity
  8
RACCORDO
100
AcDbLine
 62
7
  6
CONTINUOUS
 10
74.0384128464
 20
-46.85
 11
83.0384128464
 21
-46.85
  0
LINE
  5
2DB
100
AcDbEntity
  8
RACCORDO
100
AcDbLine
 62
250
  6
CONTINUOUS
 10
52.5371945005
 20
-46.8495732165
 11
62.5396311924
 21
-46.8495732165
  0
LINE
  5
2DC
100
AcDbEntity
  8
DRAFT
100
AcDbLine
 62
7
  6
CONTINUOUS
 10
5.2884128464
 20
-46.7537025486
 11
5.0384128464
 21
-46.7537025486
  0
LINE
  5
2DD
100
AcDbEntity
  8
DRAFT
100
AcDbLine
 62
7
  6
CONTINUOUS
 10
-4.9615871536
 20
-46.7537025486
 11
-5.2115871536
 21
-46.7537025486
  0
LINE
  5
2DE
100
AcDbEntity
  8
RACCORDO
100
AcDbLine
 62
250
  6
CONTINUOUS
 10
5.2884128464
 20
-46.7098901385
 11
52.5384128464
 21
-46.7098901385
  0
LINE
  5
2DF
100
AcDbEntity
  8
RACCORDO
100
AcDbLine
 62
250
  6
CONTINUOUS
 10
62.5384128464
 20
-46.7098901385
 11
73.6913118695
 21
-46.7098901385
  0
LINE
  5
2E0
100
AcDbEntity
  8
RACCORDO
100
AcDbLine
 62
250
  6
CONTINUOUS
 10
83.3855138234
 20
-46.7098901385
 11
104.547084639
 21
-46.7098901385
  0
LINE
  5
2E1
100
AcDbEntity
  8
RACCORDO
100
AcDbLine
 62
250
  6
CONTINUOUS
 10
-5.2115871536
 20
-46.7098901385
 11
-104.4702589461
 21
-46.7098901384
  0
LINE
  5
2E2
100
AcDbEntity
  8
RACCORDO
100
AcDbLine
 62
7
  6
CONTINUOUS
 10
5.5563620389
 20
-46.6
 11
-5.479536346
 21
-46.6
  0
LINE
  5
2E3
100
AcDbEntity
  8
ASSI
100
AcDbLine
 62
7
  6
CONTINUOUS
 10
-56.5465306879
 20
3.9531942447
 11
-55.8148102724
 21
2.05
  0
LINE
  5
2E4
100
AcDbEntity
  8
ASSI
100
AcDbLine
 62
7
  6
CONTINUOUS
 10
-55.7825495479
 20
2.5740994012
 11
-56.2767313838
 21
3.9531942447
  0
LINE
  5
2E5
100
AcDbEntity
  8
DRAFT
100
AcDbLine
 62
7
  6
CONTINUOUS
 10
-47.4615871536
 20
25.95
 11
-47.4572127204
 21
25.9
  0
LINE
  5
2E6
100
AcDbEntity
  8
DRAFT
100
AcDbLine
 62
7
  6
CONTINUOUS
 10
-42.4615871536
 20
25.95
 11
-42.4572127204
 21
25.9
  0
LINE
  5
2E7
100
AcDbEntity
  8
ASSI
100
AcDbLine
 62
7
  6
CONTINUOUS
 10
-44.0732191963
 20
3.4860466545
 11
-44.0732191963
 21
3.2596819505
  0
LINE
  5
2E8
100
AcDbEntity
  8
0
100
AcDbLine
 62
7
  6
CONTINUOUS
 10
-43.9615871536
 20
-32.0
 11
-43.9615871536
 21
-19.8
  0
LINE
  5
2E9
100
AcDbEntity
  8
0
100
AcDbLine
 62
7
  6
CONTINUOUS
 10
-43.9615871536
 20
25.9
 11
-43.9615871536
 21
38.1
  0
LINE
  5
2EA
100
AcDbEntity
  8
ASSI
100
AcDbLine
 62
7
  6
CONTINUOUS
 10
-43.6003042628
 20
3.5419169126
 11
-43.6003042628
 21
2.05
  0
LINE
  5
2EB
100
AcDbEntity
  8
ASSI
100
AcDbLine
 62
7
  6
CONTINUOUS
 10
-43.3696140513
 20
2.05
 11
-43.3696140513
 21
3.9647287553
  0
LINE
  5
2EC
100
AcDbEntity
  8
ASSI
100
AcDbLine
 62
7
  6
CONTINUOUS
 10
-42.8505610754
 20
2.7190016133
 11
-42.8505610754
 21
2.4998459124
  0
LINE
  5
2ED
100
AcDbEntity
  8
DRAFT
100
AcDbLine
 62
7
  6
CONTINUOUS
 10
-42.3481292315
 20
-32.0
 11
-42.3481292315
 21
-25.2
  0
LINE
  5
2EE
100
AcDbEntity
  8
ASSI
100
AcDbLine
 62
7
  6
CONTINUOUS
 10
-42.0085418035
 20
3.5682300643
 11
-42.0085418035
 21
2.7190016133
  0
LINE
  5
2EF
100
AcDbEntity
  8
ASSI
100
AcDbLine
 62
7
  6
CONTINUOUS
 10
-42.0085418035
 20
2.4998459124
 11
-42.0085418035
 21
2.05
  0
LINE
  5
2F0
100
AcDbEntity
  8
0
100
AcDbLine
 62
7
  6
CONTINUOUS
 10
-41.9615871536
 20
38.1
 11
-41.9615871536
 21
25.9
  0
LINE
  5
2F1
100
AcDbEntity
  8
0
100
AcDbLine
 62
7
  6
CONTINUOUS
 10
-41.9615871536
 20
-19.8
 11
-41.9615871536
 21
-32.0
  0
LINE
  5
2F2
100
AcDbEntity
  8
ASSI
100
AcDbLine
 62
7
  6
CONTINUOUS
 10
-41.777851592
 20
2.05
 11
-41.777851592
 21
2.4998459124
  0
LINE
  5
2F3
100
AcDbEntity
  8
ASSI
100
AcDbLine
 62
7
  6
CONTINUOUS
 10
-41.777851592
 20
2.7190016133
 11
-41.777851592
 21
3.9531942447
  0
LINE
  5
2F4
100
AcDbEntity
  8
ASSI
100
AcDbLine
 62
7
  6
CONTINUOUS
 10
-41.5240923594
 20
2.4998459124
 11
-41.5240923594
 21
2.7190016133
  0
LINE
  5
2F5
100
AcDbEntity
  8
0
100
AcDbLine
 62
7
  6
CONTINUOUS
 10
-38.9615871536
 20
-32.0
 11
-38.9615871536
 21
-19.8
  0
LINE
  5
2F6
100
AcDbEntity
  8
0
100
AcDbLine
 62
7
  6
CONTINUOUS
 10
-38.9615871536
 20
25.9
 11
-38.9615871536
 21
38.1
  0
LINE
  5
2F7
100
AcDbEntity
  8
DRAFT
100
AcDbLine
 62
7
  6
CONTINUOUS
 10
-47.4572127204
 20
-19.8
 11
-47.4615871536
 21
-19.85
  0
LINE
  5
2F8
100
AcDbEntity
  8
DRAFT
100
AcDbLine
 62
7
  6
CONTINUOUS
 10
-42.4572127204
 20
-19.8
 11
-42.4615871536
 21
-19.85
  0
LINE
  5
2F9
100
AcDbEntity
  8
ASSI
100
AcDbLine
 62
7
  6
CONTINUOUS
 10
-40.0647964543
 20
3.1573130151
 11
-40.091470065
 21
2.9496918248
  0
LINE
  5
2FA
100
AcDbEntity
  8
ASSI
100
AcDbLine
 62
7
  6
CONTINUOUS
 10
-46.599277012
 20
2.05
 11
-46.3986845953
 21
2.6267255287
  0
LINE
  5
2FB
100
AcDbEntity
  8
ASSI
100
AcDbLine
 62
7
  6
CONTINUOUS
 10
-46.3264136308
 20
2.834346719
 11
-46.1207749647
 21
3.3899857509
  0
LINE
  5
2FC
100
AcDbEntity
  8
ASSI
100
AcDbLine
 62
7
  6
CONTINUOUS
 10
-46.1436637564
 20
3.9531942447
 11
-46.8670937919
 21
2.05
  0
LINE
  5
2FD
100
AcDbEntity
  8
ASSI
100
AcDbLine
 62
7
  6
CONTINUOUS
 10
-47.461301404
 20
3.5060517745
 11
-48.4332641933
 21
2.2783474043
  0
LINE
  5
2FE
100
AcDbEntity
  8
RACCORDO
100
AcDbLine
 62
250
  6
CONTINUOUS
 10
-104.9615871536
 20
-47.201218346
 11
-104.4702589461
 21
-46.7098901385
  0
LINE
  5
2FF
100
AcDbEntity
  8
RACCORDO
100
AcDbLine
 62
250
  6
CONTINUOUS
 10
104.547084639
 20
-16.9849836279
 11
104.7566092559
 21
-16.9326224212
  0
LINE
  5
300
100
AcDbEntity
  8
RACCORDO
100
AcDbLine
 62
250
  6
CONTINUOUS
 10
102.548302985
 20
-14.9850597818
 11
102.6885955376
 21
-14.95
  0
LINE
  5
301
100
AcDbEntity
  8
RACCORDO
100
AcDbLine
 62
250
  6
CONTINUOUS
 10
73.5384128464
 20
-46.35
 11
83.5384128464
 21
-46.35
  0
LINE
  5
302
100
AcDbEntity
  8
RACCORDO
100
AcDbLine
 62
250
  6
CONTINUOUS
 10
83.5384128464
 20
-45.95
 11
73.5384128464
 21
-45.95
  0
LINE
  5
303
100
AcDbEntity
  8
RACCORDO
100
AcDbLine
 62
250
  6
CONTINUOUS
 10
7.2884128464
 20
-45.6
 11
-7.2115871536
 21
-45.6
  0
LINE
  5
304
100
AcDbEntity
  8
RACCORDO
100
AcDbLine
 62
7
  6
CONTINUOUS
 10
83.0384128464
 20
-45.45
 11
74.0384128464
 21
-45.45
  0
LINE
  5
305
100
AcDbEntity
  8
RACCORDO
100
AcDbLine
 62
7
  6
CONTINUOUS
 10
-98.8615871536
 20
-42.95
 11
-98.4615871536
 21
-42.95
  0
LINE
  5
306
100
AcDbEntity
  8
DRAFT
100
AcDbLine
 62
7
  6
CONTINUOUS
 10
80.9384128464
 20
-42.7027201863
 11
76.1384128464
 21
-42.7027201863
  0
LINE
  5
307
100
AcDbEntity
  8
DRAFT
100
AcDbLine
 62
7
  6
CONTINUOUS
 10
80.9384128464
 20
-42.55
 11
76.1384128464
 21
-42.55
  0
LINE
  5
308
100
AcDbEntity
  8
RACCORDO
100
AcDbLine
 62
250
  6
CONTINUOUS
 10
-104.4702589461
 20
-16.9849836279
 11
-104.6797835631
 21
-16.9326224212
  0
LINE
  5
309
100
AcDbEntity
  8
RACCORDO
100
AcDbLine
 62
250
  6
CONTINUOUS
 10
-102.4714772921
 20
-14.9850597818
 11
-102.6117698447
 21
-14.95
  0
LINE
  5
30A
100
AcDbEntity
  8
ASSI
100
AcDbLine
 62
7
  6
CONTINUOUS
 10
-49.9212160574
 20
3.5096563641
 11
-48.9683572407
 21
2.05
  0
LINE
  5
30B
100
AcDbEntity
  8
ASSI
100
AcDbLine
 62
7
  6
CONTINUOUS
 10
-48.9523171692
 20
2.4935380567
 11
-49.9051758099
 21
3.9531942447
  0
LINE
  5
30C
100
AcDbEntity
  8
ASSI
100
AcDbLine
 62
7
  6
CONTINUOUS
 10
-45.106819411
 20
2.05
 11
-45.8691784858
 21
3.9531942447
  0
LINE
  5
30D
100
AcDbEntity
  8
ASSI
100
AcDbLine
 62
7
  6
CONTINUOUS
 10
-45.8704400921
 20
3.3573647434
 11
-45.665522168
 21
2.834346719
  0
LINE
  5
30E
100
AcDbEntity
  8
ASSI
100
AcDbLine
 62
7
  6
CONTINUOUS
 10
-45.5889258719
 20
2.6267255287
 11
-45.3766188912
 21
2.05
  0
LINE
  5
30F
100
AcDbEntity
  8
0
100
AcDbLine
 62
7
  6
CONTINUOUS
 10
-36.9615871536
 20
38.1
 11
-36.9615871536
 21
25.9
  0
LINE
  5
310
100
AcDbEntity
  8
0
100
AcDbLine
 62
7
  6
CONTINUOUS
 10
-36.9615871536
 20
-19.8
 11
-36.9615871536
 21
-32.0
  0
LINE
  5
311
100
AcDbEntity
  8
0
100
AcDbLine
 62
7
  6
CONTINUOUS
 10
-33.9615871536
 20
-32.0
 11
-33.9615871536
 21
-19.8
  0
LINE
  5
312
100
AcDbEntity
  8
0
100
AcDbLine
 62
7
  6
CONTINUOUS
 10
-33.9615871536
 20
25.9
 11
-33.9615871536
 21
38.1
  0
LINE
  5
313
100
AcDbEntity
  8
ASSI
100
AcDbLine
 62
7
  6
CONTINUOUS
 10
-32.3656909635
 20
3.9531942447
 11
-32.3656909635
 21
2.05
  0
LINE
  5
314
100
AcDbEntity
  8
ASSI
100
AcDbLine
 62
7
  6
CONTINUOUS
 10
-32.1119317309
 20
2.05
 11
-32.1119317309
 21
3.6648314804
  0
LINE
  5
315
100
AcDbEntity
  8
0
100
AcDbLine
 62
7
  6
CONTINUOUS
 10
-31.9615871536
 20
38.1
 11
-31.9615871536
 21
25.9
  0
LINE
  5
316
100
AcDbEntity
  8
0
100
AcDbLine
 62
7
  6
CONTINUOUS
 10
-31.9615871536
 20
-19.8
 11
-31.9615871536
 21
-32.0
  0
LINE
  5
317
100
AcDbEntity
  8
ASSI
100
AcDbLine
 62
7
  6
CONTINUOUS
 10
-30.7854630148
 20
3.6417624592
 11
-30.7854630148
 21
2.05
  0
LINE
  5
318
100
AcDbEntity
  8
ASSI
100
AcDbLine
 62
7
  6
CONTINUOUS
 10
-34.1591270403
 20
3.1573130151
 11
-34.185800651
 21
2.9496918248
  0
LINE
  5
319
100
AcDbEntity
  8
ASSI
100
AcDbLine
 62
7
  6
CONTINUOUS
 10
-41.9624037612
 20
3.9531942447
 11
-42.8505610754
 21
2.7190016133
  0
LINE
  5
31A
100
AcDbEntity
  8
ASSI
100
AcDbLine
 62
7
  6
CONTINUOUS
 10
-42.619510405
 20
2.7190016133
 11
-42.0085418035
 21
3.5682300643
  0
LINE
  5
31B
100
AcDbEntity
  8
RACCORDO
100
AcDbLine
 62
250
  6
CONTINUOUS
 10
-102.9628054995
 20
-49.2
 11
-102.4714772921
 21
-48.7086717926
  0
LWPOLYLINE
  5
31C
100
AcDbEntity
  8
0
100
AcDbPolyline
 62
7
  6
CONTINUOUS
 90
30
 70
0
 10
1.0077793758
 20
-31.3849470507
 10
1.1768048399
 20
-31.342259507
 10
1.3428752178
 20
-31.2995502478
 10
1.505644812
 20
-31.2567865481
 10
1.6645846542
 20
-31.2139854652
 10
1.8188278127
 20
-31.1712645401
 10
1.9680770969
 20
-31.1285960869
 10
2.1119560308
 20
-31.0859793737
 10
2.249655425
 20
-31.0435574461
 10
2.3809574044
 20
-31.0013141773
 10
2.5057270852
 20
-30.9592136939
 10
2.6235127425
 20
-30.917341406
 10
2.7342578776
 20
-30.8756652281
 10
2.8380155048
 20
-30.8341172317
 10
2.9347413231
 20
-30.7926733186
 10
3.0245214718
 20
-30.7512624925
 10
3.1075598953
 20
-30.7097553352
 10
3.184189187
 20
-30.6679324454
 10
3.2545586705
 20
-30.6256377346
 10
3.3189010258
 20
-30.582633133
 10
3.3777351287
 20
-30.5383881014
 10
3.4310034749
 20
-30.4926619903
 10
3.4787794642
 20
-30.4450048466
 10
3.5215598024
 20
-30.3942555949
 10
3.559456209
 20
-30.3390939655
 10
3.591127752
 20
-30.2799110573
 10
3.6150511414
 20
-30.2185040161
 10
3.6307070568
 20
-30.1559194338
 10
3.6379468881
 20
-30.0920348337
 10
3.6383556119
 20
-30.0725840122
  0
LINE
  5
31D
100
AcDbEntity
  8
0
100
AcDbLine
 62
7
  6
CONTINUOUS
 10
-3.0103284012
 20
-32.329866068
 11
-2.987093614
 21
-32.3240446802
  0
LINE
  5
31E
100
AcDbEntity
  8
0
100
AcDbLine
 62
7
  6
CONTINUOUS
 10
0.6634085894
 20
-31.4701049411
 11
1.0077793758
 21
-31.3849470507
  0
LINE
  5
31F
100
AcDbEntity
  8
0
100
AcDbLine
 62
7
  6
CONTINUOUS
 10
-0.8371804968
 20
-31.8352245768
 11
-0.3809981854
 21
-31.7229779405
  0
LINE
  5
320
100
AcDbEntity
  8
0
100
AcDbLine
 62
7
  6
CONTINUOUS
 10
-2.987093614
 20
-32.3240446802
 11
-2.9482079666
 21
-32.3145292413
  0
LWPOLYLINE
  5
321
100
AcDbEntity
  8
0
100
AcDbPolyline
 62
7
  6
CONTINUOUS
 90
3
 70
0
 10
-0.3809981854
 20
-31.7229779405
 10
0.1390036854
 20
-31.5971757214
 10
0.6634085894
 20
-31.4701049411
  0
LINE
  5
322
100
AcDbEntity
  8
0
100
AcDbLine
 62
7
  6
CONTINUOUS
 10
-1.05493851
 20
-31.887714297
 11
-0.8371804968
 21
-31.8352245768
  0
LINE
  5
323
100
AcDbEntity
  8
0
100
AcDbLine
 62
7
  6
CONTINUOUS
 10
-2.9482079666
 20
-32.3145292413
 11
-2.9043205479
 21
-32.3040466068
  0
LINE
  5
324
100
AcDbEntity
  8
0
100
AcDbLine
 62
7
  6
CONTINUOUS
 10
-1.2634282896
 20
-31.9368107499
 11
-1.05493851
 21
-31.887714297
  0
LINE
  5
325
100
AcDbEntity
  8
0
100
AcDbLine
 62
7
  6
CONTINUOUS
 10
-2.9043205479
 20
-32.3040466068
 11
-2.8376630939
 21
-32.2884944054
  0
LINE
  5
326
100
AcDbEntity
  8
0
100
AcDbLine
 62
7
  6
CONTINUOUS
 10
-1.5096639669
 20
-31.9935236712
 11
-1.2634282896
 21
-31.9368107499
  0
LINE
  5
327
100
AcDbEntity
  8
0
100
AcDbLine
 62
7
  6
CONTINUOUS
 10
-2.8376630939
 20
-32.2884944054
 11
-2.7405036231
 21
-32.2663566081
  0
LINE
  5
328
100
AcDbEntity
  8
0
100
AcDbLine
 62
7
  6
CONTINUOUS
 10
-1.8251829271
 20
-32.0645352084
 11
-1.5096639669
 21
-31.9935236712
  0
LINE
  5
329
100
AcDbEntity
  8
0
100
AcDbLine
 62
7
  6
CONTINUOUS
 10
-2.7405036231
 20
-32.2663566081
 11
-2.5504256399
 21
-32.224049162
  0
LINE
  5
32A
100
AcDbEntity
  8
0
100
AcDbLine
 62
7
  6
CONTINUOUS
 10
-2.5504256399
 20
-32.224049162
 11
-1.8251829271
 21
-32.0645352084
  0
LWPOLYLINE
  5
32B
100
AcDbEntity
  8
0
100
AcDbPolyline
 62
7
  6
CONTINUOUS
 90
14
 70
0
 10
3.2465706507
 20
-32.1196640389
 10
3.2466422865
 20
-32.1196483807
 10
3.2463649634
 20
-32.1197056667
 10
3.2452731194
 20
-32.1199190705
 10
3.2435395223
 20
-32.1202382046
 10
3.2411763608
 20
-32.120649326
 10
3.2381489245
 20
-32.1211480151
 10
3.2345654877
 20
-32.1217081224
 10
3.2304306222
 20
-32.122322924
 10
3.2257245179
 20
-32.122989846
 10
3.2205247702
 20
-32.1236935185
 10
3.2148402117
 20
-32.124429614
 10
3.2086543795
 20
-32.1251973762
 10
3.2020103907
 20
-32.125989044
  0
LWPOLYLINE
  5
32C
100
AcDbEntity
  8
0
100
AcDbPolyline
 62
7
  6
CONTINUOUS
 90
13
 70
0
 10
-3.1697840431
 20
-32.9803447461
 10
-3.1691875236
 20
-32.9802240351
 10
-3.1677568388
 20
-32.9799515449
 10
-3.1656632429
 20
-32.9795761967
 10
-3.1629173934
 20
-32.9791112181
 10
-3.1594846438
 20
-32.978561035
 10
-3.1554755157
 20
-32.9779515011
 10
-3.1509018265
 20
-32.9772901807
 10
-3.1457371934
 20
-32.9765785456
 10
-3.1400379537
 20
-32.9758287916
 10
-3.133808956
 20
-32.9750449656
 10
-3.1270304014
 20
-32.9742277453
 10
-3.1197189963
 20
-32.9733820036
  0
LWPOLYLINE
  5
32D
100
AcDbEntity
  8
0
100
AcDbPolyline
 62
7
  6
CONTINUOUS
 90
36
 70
0
 10
-3.1792090183
 20
-32.3766906802
 10
-3.1899219701
 20
-32.377903976
 10
-3.2003115629
 20
-32.3791320585
 10
-3.2103831358
 20
-32.3803767312
 10
-3.2201460752
 20
-32.3816404657
 10
-3.2296431312
 20
-32.3829306039
 10
-3.2388715734
 20
-32.3842490227
 10
-3.2478551771
 20
-32.3856016553
 10
-3.2566823353
 20
-32.3870057947
 10
-3.265340041
 20
-32.3884645693
 10
-3.2738657508
 20
-32.3899901653
 10
-3.2824272487
 20
-32.3916223298
 10
-3.2909869362
 20
-32.3933669081
 10
-3.2996051678
 20
-32.3952509941
 10
-3.3085963538
 20
-32.3973688353
 10
-3.3178971741
 20
-32.3997413176
 10
-3.3275792955
 20
-32.4024280206
 10
-3.338152601
 20
-32.4056400731
 10
-3.3495833686
 20
-32.4094704301
 10
-3.3618646979
 20
-32.4140384908
 10
-3.3755165974
 20
-32.4197177409
 10
-3.3906892465
 20
-32.4268453589
 10
-3.4070080405
 20
-32.4355751026
 10
-3.4241539602
 20
-32.4460880433
 10
-3.4420337819
 20
-32.4587446876
 10
-3.4602181008
 20
-32.4737424194
 10
-3.4778956892
 20
-32.4908973314
 10
-3.4947383524
 20
-32.510297398
 10
-3.5104925496
 20
-32.532018597
 10
-3.5245993455
 20
-32.5556149307
 10
-3.5367824516
 20
-32.5808739057
 10
-3.5468497956
 20
-32.6077421642
 10
-3.5544912309
 20
-32.6358630111
 10
-3.5594641034
 20
-32.6649554742
 10
-3.5615406569
 20
-32.6948358594
 10
-3.5615856476
 20
-32.6990753307
  0
LWPOLYLINE
  5
32E
100
AcDbEntity
  8
0
100
AcDbPolyline
 62
7
  6
CONTINUOUS
 90
36
 70
0
 10
3.2525697177
 20
-32.7236911937
 10
3.2634733404
 20
-32.722472297
 10
3.2740580716
 20
-32.7212375439
 10
3.2843324647
 20
-32.7199845541
 10
3.2942991135
 20
-32.7187114803
 10
3.3040087458
 20
-32.7174097588
 10
3.3134630225
 20
-32.7160764588
 10
3.3226761924
 20
-32.7147065396
 10
3.3317249979
 20
-32.7132842814
 10
3.3405961208
 20
-32.7118063532
 10
3.3493268969
 20
-32.7102603969
 10
3.3580774769
 20
-32.7086081526
 10
3.3668116639
 20
-32.7068433544
 10
3.3755913609
 20
-32.7049385646
 10
3.3847264097
 20
-32.7028009542
 10
3.394154976
 20
-32.7004091933
 10
3.4039520652
 20
-32.6977029079
 10
3.4146269711
 20
-32.6944716013
 10
3.4261517368
 20
-32.6906201299
 10
3.4385176548
 20
-32.6860292005
 10
3.45223295
 20
-32.680330413
 10
3.4674399662
 20
-32.6731921158
 10
3.483776434
 20
-32.6644576304
 10
3.5009399243
 20
-32.6539380544
 10
3.5188380693
 20
-32.6412716205
 10
3.5370397372
 20
-32.6262612017
 10
3.5547418812
 20
-32.6090810291
 10
3.5716088548
 20
-32.589646244
 10
3.5873888328
 20
-32.5678744164
 10
3.6015350073
 20
-32.544180893
 10
3.6137577484
 20
-32.5187760292
 10
3.6238522432
 20
-32.4917089076
 10
3.6315017568
 20
-32.4632968494
 10
3.6364364658
 20
-32.4338086333
 10
3.6383921009
 20
-32.4034476189
 10
3.6384128333
 20
-32.399991833
  0
LINE
  5
32F
100
AcDbEntity
  8
0
100
AcDbLine
 62
7
  6
CONTINUOUS
 10
3.2020103907
 20
-32.125989044
 11
3.1873512027
 21
-32.1276364323
  0
LINE
  5
330
100
AcDbEntity
  8
0
100
AcDbLine
 62
7
  6
CONTINUOUS
 10
-3.1197189963
 20
-32.9733820036
 11
-3.1034685797
 21
-32.9716114011
  0
LINE
  5
331
100
AcDbEntity
  8
0
100
AcDbLine
 62
7
  6
CONTINUOUS
 10
-3.1567185942
 20
-32.3742944252
 11
-3.1792090183
 21
-32.3766906802
  0
LINE
  5
332
100
AcDbEntity
  8
0
100
AcDbLine
 62
7
  6
CONTINUOUS
 10
3.2296159891
 20
-32.7261055507
 11
3.2525697177
 21
-32.7236911937
  0
LINE
  5
333
100
AcDbEntity
  8
0
100
AcDbLine
 62
7
  6
CONTINUOUS
 10
3.1873512027
 20
-32.1276364323
 11
3.1708880925
 21
-32.1293563039
  0
LINE
  5
334
100
AcDbEntity
  8
0
100
AcDbLine
 62
7
  6
CONTINUOUS
 10
-3.1034685797
 20
-32.9716114011
 11
-3.0849932042
 21
-32.969744092
  0
LINE
  5
335
100
AcDbEntity
  8
0
100
AcDbLine
 62
7
  6
CONTINUOUS
 10
-3.132726583
 20
-32.3719263699
 11
-3.1567185942
 21
-32.3742944252
  0
LINE
  5
336
100
AcDbEntity
  8
0
100
AcDbLine
 62
7
  6
CONTINUOUS
 10
3.1708880925
 20
-32.1293563039
 11
3.1526259889
 21
-32.1311380909
  0
LINE
  5
337
100
AcDbEntity
  8
0
100
AcDbLine
 62
7
  6
CONTINUOUS
 10
3.2050574715
 20
-32.728498738
 11
3.2296159891
 21
-32.7261055507
  0
LINE
  5
338
100
AcDbEntity
  8
0
100
AcDbLine
 62
7
  6
CONTINUOUS
 10
-3.0849932042
 20
-32.969744092
 11
-3.0642048254
 21
-32.9677871052
  0
LINE
  5
339
100
AcDbEntity
  8
0
100
AcDbLine
 62
7
  6
CONTINUOUS
 10
-3.1070313405
 20
-32.3695650816
 11
-3.132726583
 21
-32.3719263699
  0
LINE
  5
33A
100
AcDbEntity
  8
0
100
AcDbLine
 62
7
  6
CONTINUOUS
 10
3.1526259889
 20
-32.1311380909
 11
3.1325747449
 21
-32.1329726937
  0
LINE
  5
33B
100
AcDbEntity
  8
0
100
AcDbLine
 62
7
  6
CONTINUOUS
 10
3.1787479154
 20
-32.7308858233
 11
3.2050574715
 21
-32.728498738
  0
LINE
  5
33C
100
AcDbEntity
  8
0
100
AcDbLine
 62
7
  6
CONTINUOUS
 10
-3.0642048254
 20
-32.9677871052
 11
-3.0409827178
 21
-32.9657437096
  0
LINE
  5
33D
100
AcDbEntity
  8
0
100
AcDbLine
 62
7
  6
CONTINUOUS
 10
3.1325747449
 20
-32.1329726937
 11
3.1107197101
 21
-32.1348547156
  0
LINE
  5
33E
100
AcDbEntity
  8
0
100
AcDbLine
 62
7
  6
CONTINUOUS
 10
-3.0795132283
 20
-32.3672005074
 11
-3.1070313405
 21
-32.3695650816
  0
LINE
  5
33F
100
AcDbEntity
  8
0
100
AcDbLine
 62
7
  6
CONTINUOUS
 10
3.1505639686
 20
-32.7332770166
 11
3.1787479154
 21
-32.7308858233
  0
LINE
  5
340
100
AcDbEntity
  8
0
100
AcDbLine
 62
7
  6
CONTINUOUS
 10
-3.0409827178
 20
-32.9657437096
 11
-3.0152206148
 21
-32.9636181199
  0
LINE
  5
341
100
AcDbEntity
  8
0
100
AcDbLine
 62
7
  6
CONTINUOUS
 10
3.1107197101
 20
-32.1348547156
 11
3.0870353303
 21
-32.1367805138
  0
LINE
  5
342
100
AcDbEntity
  8
0
100
AcDbLine
 62
7
  6
CONTINUOUS
 10
-3.0500665669
 20
-32.3648254917
 11
-3.0795132283
 21
-32.3672005074
  0
LINE
  5
343
100
AcDbEntity
  8
0
100
AcDbLine
 62
7
  6
CONTINUOUS
 10
3.1204028472
 20
-32.7356790906
 11
3.1505639686
 21
-32.7332770166
  0
LINE
  5
344
100
AcDbEntity
  8
0
100
AcDbLine
 62
7
  6
CONTINUOUS
 10
-3.0152206148
 20
-32.9636181199
 11
-2.9868185906
 21
-32.9614144741
  0
LINE
  5
345
100
AcDbEntity
  8
0
100
AcDbLine
 62
7
  6
CONTINUOUS
 10
3.0870353303
 20
-32.1367805138
 11
3.0480139754
 21
-32.1397453551
  0
LINE
  5
346
100
AcDbEntity
  8
0
100
AcDbLine
 62
7
  6
CONTINUOUS
 10
-3.0020146825
 20
-32.3612280843
 11
-3.0500665669
 21
-32.3648254917
  0
LINE
  5
347
100
AcDbEntity
  8
0
100
AcDbLine
 62
7
  6
CONTINUOUS
 10
3.0711995973
 20
-32.7393168779
 11
3.1204028472
 21
-32.7356790906
  0
LINE
  5
348
100
AcDbEntity
  8
0
100
AcDbLine
 62
7
  6
CONTINUOUS
 10
-2.9868185906
 20
-32.9614144741
 11
-2.9391316587
 21
-32.9579760279
  0
LINE
  5
349
100
AcDbEntity
  8
0
100
AcDbLine
 62
7
  6
CONTINUOUS
 10
3.0480139754
 20
-32.1397453551
 11
3.0046775641
 21
-32.1427971921
  0
LINE
  5
34A
100
AcDbEntity
  8
0
100
AcDbLine
 62
7
  6
CONTINUOUS
 10
-2.9489761206
 20
-32.3575744157
 11
-3.0020146825
 21
-32.3612280843
  0
LINE
  5
34B
100
AcDbEntity
  8
0
100
AcDbLine
 62
7
  6
CONTINUOUS
 10
3.01693201
 20
-32.7430095202
 11
3.0711995973
 21
-32.7393168779
  0
LINE
  5
34C
100
AcDbEntity
  8
0
100
AcDbLine
 62
7
  6
CONTINUOUS
 10
-2.9391316587
 20
-32.9579760279
 11
-2.8851489487
 21
-32.9543915572
  0
LINE
  5
34D
100
AcDbEntity
  8
0
100
AcDbLine
 62
7
  6
CONTINUOUS
 10
3.0046775641
 20
-32.1427971921
 11
2.9568669841
 21
-32.1459335396
  0
LINE
  5
34E
100
AcDbEntity
  8
0
100
AcDbLine
 62
7
  6
CONTINUOUS
 10
-2.8905794309
 20
-32.3538512812
 11
-2.9489761206
 21
-32.3575744157
  0
LINE
  5
34F
100
AcDbEntity
  8
0
100
AcDbLine
 62
7
  6
CONTINUOUS
 10
2.9572542765
 20
-32.7467689511
 11
3.01693201
 21
-32.7430095202
  0
LINE
  5
350
100
AcDbEntity
  8
0
100
AcDbLine
 62
7
  6
CONTINUOUS
 10
-2.8851489487
 20
-32.9543915572
 11
-2.8246677524
 21
-32.9506735437
  0
LINE
  5
351
100
AcDbEntity
  8
0
100
AcDbLine
 62
7
  6
CONTINUOUS
 10
2.9568669841
 20
-32.1459335396
 11
2.8858667091
 21
-32.1502446911
  0
LINE
  5
352
100
AcDbEntity
  8
0
100
AcDbLine
 62
7
  6
CONTINUOUS
 10
-2.8037916985
 20
-32.3487637005
 11
-2.8905794309
 21
-32.3538512812
  0
LINE
  5
353
100
AcDbEntity
  8
0
100
AcDbLine
 62
7
  6
CONTINUOUS
 10
2.8687583944
 20
-32.7518972593
 11
2.9572542765
 21
-32.7467689511
  0
LINE
  5
354
100
AcDbEntity
  8
0
100
AcDbLine
 62
7
  6
CONTINUOUS
 10
-2.8246677524
 20
-32.9506735437
 11
-2.7335050376
 21
-32.945520247
  0
LINE
  5
355
100
AcDbEntity
  8
0
100
AcDbLine
 62
7
  6
CONTINUOUS
 10
2.8858667091
 20
-32.1502446911
 11
2.7850604872
 21
-32.1558305466
  0
LINE
  5
356
100
AcDbEntity
  8
0
100
AcDbLine
 62
7
  6
CONTINUOUS
 10
-2.7061966834
 20
-32.3435259315
 11
-2.8037916985
 21
-32.3487637005
  0
LINE
  5
357
100
AcDbEntity
  8
0
100
AcDbLine
 62
7
  6
CONTINUOUS
 10
2.7432050232
 20
-32.7584938586
 11
2.8687583944
 21
-32.7518972593
  0
LINE
  5
358
100
AcDbEntity
  8
0
100
AcDbLine
 62
7
  6
CONTINUOUS
 10
-2.7335050376
 20
-32.945520247
 11
-2.6018467714
 21
-32.9387776514
  0
LINE
  5
359
100
AcDbEntity
  8
0
100
AcDbLine
 62
7
  6
CONTINUOUS
 10
2.7850604872
 20
-32.1558305466
 11
2.6458587256
 21
-32.162802476
  0
LINE
  5
35A
100
AcDbEntity
  8
0
100
AcDbLine
 62
7
  6
CONTINUOUS
 10
-2.5681001873
 20
-32.3367573147
 11
-2.7061966834
 21
-32.3435259315
  0
LINE
  5
35B
100
AcDbEntity
  8
0
100
AcDbLine
 62
7
  6
CONTINUOUS
 10
2.569982257
 20
-32.766672249
 11
2.7432050232
 21
-32.7584938586
  0
LINE
  5
35C
100
AcDbEntity
  8
0
100
AcDbLine
 62
7
  6
CONTINUOUS
 10
-2.6018467714
 20
-32.9387776514
 11
-2.4166182054
 21
-32.9302639527
  0
LINE
  5
35D
100
AcDbEntity
  8
0
100
AcDbLine
 62
7
  6
CONTINUOUS
 10
2.6458587256
 20
-32.162802476
 11
2.4576416104
 21
-32.1712821591
  0
LINE
  5
35E
100
AcDbEntity
  8
0
100
AcDbLine
 62
7
  6
CONTINUOUS
 10
-2.3774276606
 20
-32.3282975727
 11
-2.5681001873
 21
-32.3367573147
  0
LINE
  5
35F
100
AcDbEntity
  8
0
100
AcDbLine
 62
7
  6
CONTINUOUS
 10
2.3363584086
 20
-32.7765536296
 11
2.569982257
 21
-32.766672249
  0
LINE
  5
360
100
AcDbEntity
  8
0
100
AcDbLine
 62
7
  6
CONTINUOUS
 10
-2.4166182054
 20
-32.9302639527
 11
-2.1607386327
 21
-32.9197467184
  0
LINE
  5
361
100
AcDbEntity
  8
0
100
AcDbLine
 62
7
  6
CONTINUOUS
 10
2.4576416104
 20
-32.1712821591
 11
2.1743955284
 21
-32.1826871078
  0
LINE
  5
362
100
AcDbEntity
  8
0
100
AcDbLine
 62
7
  6
CONTINUOUS
 10
-2.0763144741
 20
-32.3163399161
 11
-2.3774276606
 21
-32.3282975727
  0
LINE
  5
363
100
AcDbEntity
  8
0
100
AcDbLine
 62
7
  6
CONTINUOUS
 10
1.9426911934
 20
-32.7913198526
 11
2.3363584086
 21
-32.7765536296
  0
LINE
  5
364
100
AcDbEntity
  8
0
100
AcDbLine
 62
7
  6
CONTINUOUS
 10
-2.1607386327
 20
-32.9197467184
 11
-1.8108111719
 21
-32.906857163
  0
LINE
  5
365
100
AcDbEntity
  8
0
100
AcDbLine
 62
7
  6
CONTINUOUS
 10
2.1743955284
 20
-32.1826871078
 11
1.8459819155
 21
-32.1945943222
  0
LINE
  5
366
100
AcDbEntity
  8
0
100
AcDbLine
 62
7
  6
CONTINUOUS
 10
-1.5594961785
 20
-32.2982320761
 11
-2.0763144741
 21
-32.3163399161
  0
LINE
  5
367
100
AcDbEntity
  8
0
100
AcDbLine
 62
7
  6
CONTINUOUS
 10
-1.8108111719
 20
-32.906857163
 11
-1.3977236866
 21
-32.8930238334
  0
LINE
  5
368
100
AcDbEntity
  8
0
100
AcDbLine
 62
7
  6
CONTINUOUS
 10
1.8459819155
 20
-32.1945943222
 11
1.3882163641
 21
-32.2097360378
  0
LINE
  5
369
100
AcDbEntity
  8
0
100
AcDbLine
 62
7
  6
CONTINUOUS
 10
1.1675210428
 20
-32.8166688121
 11
1.9426911934
 21
-32.7913198526
  0
LINE
  5
36A
100
AcDbEntity
  8
0
100
AcDbLine
 62
7
  6
CONTINUOUS
 10
-1.3977236866
 20
-32.8930238334
 11
-0.8130928873
 21
-32.8749307055
  0
LINE
  5
36B
100
AcDbEntity
  8
0
100
AcDbLine
 62
7
  6
CONTINUOUS
 10
1.3882163641
 20
-32.2097360378
 11
0.7296645824
 21
-32.2298423651
  0
LINE
  5
36C
100
AcDbEntity
  8
0
100
AcDbLine
 62
7
  6
CONTINUOUS
 10
-0.8130928873
 20
-32.8749307055
 11
1.1675210428
 21
-32.8166688121
  0
LINE
  5
36D
100
AcDbEntity
  8
0
100
AcDbLine
 62
7
  6
CONTINUOUS
 10
0.7296645824
 20
-32.2298423651
 11
-1.5594961785
 21
-32.2982320761
  0
LINE
  5
36E
100
AcDbEntity
  8
RACCORDO
100
AcDbLine
 62
7
  6
CONTINUOUS
 10
-2.9617394584
 20
-37.8
 11
-2.4615871536
 21
-37.8
  0
LINE
  5
36F
100
AcDbEntity
  8
RACCORDO
100
AcDbLine
 62
7
  6
CONTINUOUS
 10
2.5384128464
 20
-37.8
 11
3.0385651513
 21
-37.8
  0
LINE
  5
370
100
AcDbEntity
  8
RACCORDO
100
AcDbLine
 62
7
  6
CONTINUOUS
 10
65.0384128464
 20
-37.6973819397
 11
70.6384128464
 21
-37.6973819397
  0
LINE
  5
371
100
AcDbEntity
  8
RACCORDO
100
AcDbLine
 62
7
  6
CONTINUOUS
 10
72.0384128464
 20
-37.6973819397
 11
84.0384128464
 21
-37.6973819397
  0
LINE
  5
372
100
AcDbEntity
  8
0
100
AcDbLine
 62
7
  6
CONTINUOUS
 10
5.1384128464
 20
-37.4
 11
-5.0615871536
 21
-37.4
  0
LINE
  5
373
100
AcDbEntity
  8
DRAFT
100
AcDbLine
 62
7
  6
CONTINUOUS
 10
76.1384128464
 20
-37.1972798137
 11
80.9384128464
 21
-37.1972798137
  0
LINE
  5
374
100
AcDbEntity
  8
RACCORDO
100
AcDbLine
 62
7
  6
CONTINUOUS
 10
-1.961663306
 20
-36.3
 11
2.0384889989
 21
-36.3
  0
LINE
  5
375
100
AcDbEntity
  8
RACCORDO
100
AcDbLine
 62
7
  6
CONTINUOUS
 10
74.0384128464
 20
-34.45
 11
83.0384128464
 21
-34.45
  0
LINE
  5
376
100
AcDbEntity
  8
RACCORDO
100
AcDbLine
 62
250
  6
CONTINUOUS
 10
73.5384128464
 20
-33.95
 11
83.5384128464
 21
-33.95
  0
LINE
  5
377
100
AcDbEntity
  8
RACCORDO
100
AcDbLine
 62
7
  6
CONTINUOUS
 10
-98.4615871536
 20
-33.95
 11
-98.8615871536
 21
-33.95
  0
LINE
  5
378
100
AcDbEntity
  8
RACCORDO
100
AcDbLine
 62
250
  6
CONTINUOUS
 10
83.5384128464
 20
-33.55
 11
73.5384128464
 21
-33.55
  0
LINE
  5
379
100
AcDbEntity
  8
DRAFT
100
AcDbLine
 62
7
  6
CONTINUOUS
 10
-8.2163175431
 20
-33.2
 11
-5.0615871536
 21
-33.2
  0
LINE
  5
37A
100
AcDbEntity
  8
0
100
AcDbLine
 62
7
  6
CONTINUOUS
 10
4.0384128464
 20
-33.2
 11
-3.9615871536
 21
-33.2
  0
LINE
  5
37B
100
AcDbEntity
  8
DRAFT
100
AcDbLine
 62
7
  6
CONTINUOUS
 10
5.1384128464
 20
-33.2
 11
8.293143236
 21
-33.2
  0
LINE
  5
37C
100
AcDbEntity
  8
RACCORDO
100
AcDbLine
 62
7
  6
CONTINUOUS
 10
83.0384128464
 20
-33.05
 11
74.0384128464
 21
-33.05
  0
LINE
  5
37D
100
AcDbEntity
  8
DRAFT
100
AcDbLine
 62
7
  6
CONTINUOUS
 10
-8.1115871536
 20
-32.2
 11
-7.9615871536
 21
-32.2
  0
LINE
  5
37E
100
AcDbEntity
  8
DRAFT
100
AcDbLine
 62
7
  6
CONTINUOUS
 10
-3.9615871536
 20
-32.2
 11
-3.567138429
 21
-32.2
  0
LINE
  5
37F
100
AcDbEntity
  8
ASSI
100
AcDbLine
 62
7
  6
CONTINUOUS
 10
-3.567138429
 20
-32.2
 11
-3.5439183141
 21
-32.2
  0
LINE
  5
380
100
AcDbEntity
  8
DRAFT
100
AcDbLine
 62
7
  6
CONTINUOUS
 10
3.6439641219
 20
-32.2
 11
4.0384128464
 21
-32.2
  0
LINE
  5
381
100
AcDbEntity
  8
ASSI
100
AcDbLine
 62
7
  6
CONTINUOUS
 10
3.5626220253
 20
-32.2
 11
3.6439641219
 21
-32.2
  0
LINE
  5
382
100
AcDbEntity
  8
DRAFT
100
AcDbLine
 62
7
  6
CONTINUOUS
 10
8.0384128464
 20
-32.2
 11
8.1884128464
 21
-32.2
  0
LINE
  5
383
100
AcDbEntity
  8
0
100
AcDbLine
 62
7
  6
CONTINUOUS
 10
88.0384128464
 20
-32.0
 11
86.0384128464
 21
-32.0
  0
LINE
  5
384
100
AcDbEntity
  8
0
100
AcDbLine
 62
7
  6
CONTINUOUS
 10
83.0384128464
 20
-32.0
 11
81.0384128464
 21
-32.0
  0
LINE
  5
385
100
AcDbEntity
  8
0
100
AcDbLine
 62
7
  6
CONTINUOUS
 10
78.0384128464
 20
-32.0
 11
76.0384128464
 21
-32.0
  0
LINE
  5
386
100
AcDbEntity
  8
0
100
AcDbLine
 62
7
  6
CONTINUOUS
 10
73.0384128464
 20
-32.0
 11
71.0384128464
 21
-32.0
  0
LINE
  5
387
100
AcDbEntity
  8
0
100
AcDbLine
 62
7
  6
CONTINUOUS
 10
68.0384128464
 20
-32.0
 11
66.0384128464
 21
-32.0
  0
LINE
  5
388
100
AcDbEntity
  8
0
100
AcDbLine
 62
7
  6
CONTINUOUS
 10
48.0384128464
 20
-32.0
 11
46.0384128464
 21
-32.0
  0
LINE
  5
389
100
AcDbEntity
  8
0
100
AcDbLine
 62
7
  6
CONTINUOUS
 10
43.0384128464
 20
-32.0
 11
41.0384128464
 21
-32.0
  0
LINE
  5
38A
100
AcDbEntity
  8
0
100
AcDbLine
 62
7
  6
CONTINUOUS
 10
38.0384128464
 20
-32.0
 11
36.0384128464
 21
-32.0
  0
LINE
  5
38B
100
AcDbEntity
  8
0
100
AcDbLine
 62
7
  6
CONTINUOUS
 10
-11.9615871536
 20
-32.0
 11
-13.9615871536
 21
-32.0
  0
LINE
  5
38C
100
AcDbEntity
  8
0
100
AcDbLine
 62
7
  6
CONTINUOUS
 10
-16.9615871536
 20
-32.0
 11
-18.9615871536
 21
-32.0
  0
LINE
  5
38D
100
AcDbEntity
  8
0
100
AcDbLine
 62
7
  6
CONTINUOUS
 10
-21.9615871536
 20
-32.0
 11
-23.9615871536
 21
-32.0
  0
LINE
  5
38E
100
AcDbEntity
  8
0
100
AcDbLine
 62
7
  6
CONTINUOUS
 10
-26.9615871536
 20
-32.0
 11
-28.9615871536
 21
-32.0
  0
LINE
  5
38F
100
AcDbEntity
  8
0
100
AcDbLine
 62
7
  6
CONTINUOUS
 10
-31.9615871536
 20
-32.0
 11
-33.9615871536
 21
-32.0
  0
LINE
  5
390
100
AcDbEntity
  8
0
100
AcDbLine
 62
7
  6
CONTINUOUS
 10
-36.9615871536
 20
-32.0
 11
-38.9615871536
 21
-32.0
  0
LINE
  5
391
100
AcDbEntity
  8
0
100
AcDbLine
 62
7
  6
CONTINUOUS
 10
-41.9615871536
 20
-32.0
 11
-43.9615871536
 21
-32.0
  0
LINE
  5
392
100
AcDbEntity
  8
0
100
AcDbLine
 62
7
  6
CONTINUOUS
 10
-46.9615871536
 20
-32.0
 11
-48.9615871536
 21
-32.0
  0
LINE
  5
393
100
AcDbEntity
  8
0
100
AcDbLine
 62
7
  6
CONTINUOUS
 10
-51.9615871536
 20
-32.0
 11
-53.9615871536
 21
-32.0
  0
LINE
  5
394
100
AcDbEntity
  8
0
100
AcDbLine
 62
7
  6
CONTINUOUS
 10
-56.9615871536
 20
-32.0
 11
-58.9615871536
 21
-32.0
  0
LINE
  5
395
100
AcDbEntity
  8
0
100
AcDbLine
 62
7
  6
CONTINUOUS
 10
-61.9615871536
 20
-32.0
 11
-63.9615871536
 21
-32.0
  0
LINE
  5
396
100
AcDbEntity
  8
0
100
AcDbLine
 62
7
  6
CONTINUOUS
 10
-66.9615871536
 20
-32.0
 11
-68.9615871536
 21
-32.0
  0
LINE
  5
397
100
AcDbEntity
  8
0
100
AcDbLine
 62
7
  6
CONTINUOUS
 10
-71.9615871536
 20
-32.0
 11
-73.9615871536
 21
-32.0
  0
LINE
  5
398
100
AcDbEntity
  8
0
100
AcDbLine
 62
7
  6
CONTINUOUS
 10
-76.9615871536
 20
-32.0
 11
-78.9615871536
 21
-32.0
  0
LINE
  5
399
100
AcDbEntity
  8
0
100
AcDbLine
 62
7
  6
CONTINUOUS
 10
-81.9615871536
 20
-32.0
 11
-83.9615871536
 21
-32.0
  0
LINE
  5
39A
100
AcDbEntity
  8
DRAFT
100
AcDbLine
 62
7
  6
CONTINUOUS
 10
68.0384128464
 20
-30.7
 11
66.0384128464
 21
-30.7
  0
LINE
  5
39B
100
AcDbEntity
  8
DRAFT
100
AcDbLine
 62
7
  6
CONTINUOUS
 10
48.0384128464
 20
-30.7
 11
46.0384128464
 21
-30.7
  0
LINE
  5
39C
100
AcDbEntity
  8
DRAFT
100
AcDbLine
 62
7
  6
CONTINUOUS
 10
43.0384128464
 20
-30.7
 11
41.0384128464
 21
-30.7
  0
LINE
  5
39D
100
AcDbEntity
  8
0
100
AcDbLine
 62
7
  6
CONTINUOUS
 10
-0.7885091694
 20
-31.9258053814
 11
-1.1671531796
 21
-31.9142676284
  0
LINE
  5
39E
100
AcDbEntity
  8
0
100
AcDbLine
 62
7
  6
CONTINUOUS
 10
1.6992130729
 20
-32.0003210266
 11
-0.7885091694
 21
-31.9258053814
  0
LINE
  5
39F
100
AcDbEntity
  8
0
100
AcDbLine
 62
7
  6
CONTINUOUS
 10
2.1726616147
 20
-32.0170755141
 11
1.6992130729
 21
-32.0003210266
  0
LINE
  5
3A0
100
AcDbEntity
  8
0
100
AcDbLine
 62
7
  6
CONTINUOUS
 10
2.4625719859
 20
-32.0286495947
 11
2.1726616147
 21
-32.0170755141
  0
LINE
  5
3A1
100
AcDbEntity
  8
0
100
AcDbLine
 62
7
  6
CONTINUOUS
 10
2.6504745667
 20
-32.0370173623
 11
2.4625719859
 21
-32.0286495947
  0
LINE
  5
3A2
100
AcDbEntity
  8
0
100
AcDbLine
 62
7
  6
CONTINUOUS
 10
2.7879519147
 20
-32.0437803037
 11
2.6504745667
 21
-32.0370173623
  0
LINE
  5
3A3
100
AcDbEntity
  8
0
100
AcDbLine
 62
7
  6
CONTINUOUS
 10
2.8856200853
 20
-32.0490447629
 11
2.7879519147
 21
-32.0437803037
  0
LINE
  5
3A4
100
AcDbEntity
  8
0
100
AcDbLine
 62
7
  6
CONTINUOUS
 10
2.9726646141
 20
-32.0541755561
 11
2.8856200853
 21
-32.0490447629
  0
LINE
  5
3A5
100
AcDbEntity
  8
0
100
AcDbLine
 62
7
  6
CONTINUOUS
 10
3.0312645235
 20
-32.0579376241
 11
2.9726646141
 21
-32.0541755561
  0
LINE
  5
3A6
100
AcDbEntity
  8
0
100
AcDbLine
 62
7
  6
CONTINUOUS
 10
3.0844807796
 20
-32.0616347767
 11
3.0312645235
 21
-32.0579376241
  0
LINE
  5
3A7
100
AcDbEntity
  8
0
100
AcDbLine
 62
7
  6
CONTINUOUS
 10
3.1171405778
 20
-32.0640696275
 11
3.0844807796
 21
-32.0616347767
  0
LINE
  5
3A8
100
AcDbEntity
  8
0
100
AcDbLine
 62
7
  6
CONTINUOUS
 10
3.1476697754
 20
-32.0664859189
 11
3.1171405778
 21
-32.0640696275
  0
LINE
  5
3A9
100
AcDbEntity
  8
0
100
AcDbLine
 62
7
  6
CONTINUOUS
 10
3.1761865472
 20
-32.0688902612
 11
3.1476697754
 21
-32.0664859189
  0
LINE
  5
3AA
100
AcDbEntity
  8
0
100
AcDbLine
 62
7
  6
CONTINUOUS
 10
3.2027948506
 20
-32.0712893014
 11
3.1761865472
 21
-32.0688902612
  0
LINE
  5
3AB
100
AcDbEntity
  8
0
100
AcDbLine
 62
7
  6
CONTINUOUS
 10
3.2276189776
 20
-32.0736930539
 11
3.2027948506
 21
-32.0712893014
  0
LINE
  5
3AC
100
AcDbEntity
  8
RACCORDO
100
AcDbLine
 62
250
  6
CONTINUOUS
 10
-104.9615871536
 20
53.301218346
 11
-104.4702589461
 21
52.8098901385
  0
LINE
  5
3AD
100
AcDbEntity
  8
RACCORDO
100
AcDbLine
 62
250
  6
CONTINUOUS
 10
-102.9628054995
 20
55.3
 11
-102.4714772921
 21
54.8086717926
  0
LINE
  5
3AE
100
AcDbEntity
  8
ASSI
100
AcDbLine
 62
7
  6
CONTINUOUS
 10
-30.5317037822
 20
2.05
 11
-30.5317037822
 21
3.9531942447
  0
LINE
  5
3AF
100
AcDbEntity
  8
0
100
AcDbLine
 62
7
  6
CONTINUOUS
 10
-28.9615871536
 20
-32.0
 11
-28.9615871536
 21
-19.8
  0
LINE
  5
3B0
100
AcDbEntity
  8
0
100
AcDbLine
 62
7
  6
CONTINUOUS
 10
-28.9615871536
 20
25.9
 11
-28.9615871536
 21
38.1
  0
LINE
  5
3B1
100
AcDbEntity
  8
ASSI
100
AcDbLine
 62
7
  6
CONTINUOUS
 10
-28.3516812837
 20
3.9531942447
 11
-28.3516812837
 21
2.05
  0
LINE
  5
3B2
100
AcDbEntity
  8
ASSI
100
AcDbLine
 62
7
  6
CONTINUOUS
 10
-28.097922051
 20
2.05
 11
-28.097922051
 21
2.8920192719
  0
LINE
  5
3B3
100
AcDbEntity
  8
ASSI
100
AcDbLine
 62
7
  6
CONTINUOUS
 10
-28.097922051
 20
3.1111749728
 11
-28.097922051
 21
3.7340385438
  0
LINE
  5
3B4
100
AcDbEntity
  8
0
100
AcDbLine
 62
7
  6
CONTINUOUS
 10
-26.9615871536
 20
38.1
 11
-26.9615871536
 21
25.9
  0
LINE
  5
3B5
100
AcDbEntity
  8
0
100
AcDbLine
 62
7
  6
CONTINUOUS
 10
-26.9615871536
 20
-19.8
 11
-26.9615871536
 21
-32.0
  0
LINE
  5
3B6
100
AcDbEntity
  8
0
100
AcDbLine
 62
7
  6
CONTINUOUS
 10
-23.9615871536
 20
-32.0
 11
-23.9615871536
 21
-19.8
  0
LINE
  5
3B7
100
AcDbEntity
  8
0
100
AcDbLine
 62
7
  6
CONTINUOUS
 10
-23.9615871536
 20
25.9
 11
-23.9615871536
 21
38.1
  0
LINE
  5
3B8
100
AcDbEntity
  8
ASSI
100
AcDbLine
 62
7
  6
CONTINUOUS
 10
-22.7574436552
 20
3.9531942447
 11
-22.7574436552
 21
3.7340385438
  0
LINE
  5
3B9
100
AcDbEntity
  8
ASSI
100
AcDbLine
 62
7
  6
CONTINUOUS
 10
-30.0703233592
 20
2.05
 11
-29.8697309425
 21
2.6267255287
  0
LINE
  5
3BA
100
AcDbEntity
  8
ASSI
100
AcDbLine
 62
7
  6
CONTINUOUS
 10
-31.3472296729
 20
2.05
 11
-30.7854630148
 21
3.6417624592
  0
LINE
  5
3BB
100
AcDbEntity
  8
ASSI
100
AcDbLine
 62
7
  6
CONTINUOUS
 10
-30.8618790814
 20
3.9531942447
 11
-31.3326312612
 21
2.6319521836
  0
LINE
  5
3BC
100
AcDbEntity
  8
ASSI
100
AcDbLine
 62
7
  6
CONTINUOUS
 10
-29.7974599779
 20
2.834346719
 11
-29.5918213119
 21
3.3899857509
  0
LINE
  5
3BD
100
AcDbEntity
  8
ASSI
100
AcDbLine
 62
7
  6
CONTINUOUS
 10
-29.6147101035
 20
3.9531942447
 11
-30.3381401391
 21
2.05
  0
LINE
  5
3BE
100
AcDbEntity
  8
0
100
AcDbLine
 62
7
  6
CONTINUOUS
 10
-3.0825521259
 20
-32.3490265221
 11
-3.067558541
 21
-32.344862295
  0
LWPOLYLINE
  5
3BF
100
AcDbEntity
  8
0
100
AcDbPolyline
 62
7
  6
CONTINUOUS
 90
33
 70
0
 10
-3.2342646397
 20
-31.7703735627
 10
-3.2449350863
 20
-31.7732959617
 10
-3.2552174567
 20
-31.7761675846
 10
-3.2651658521
 20
-31.7790047903
 10
-3.2747852988
 20
-31.781810761
 10
-3.2840926451
 20
-31.7845923716
 10
-3.2931628258
 20
-31.7873750246
 10
-3.3019905472
 20
-31.7901610655
 10
-3.3106058602
 20
-31.7929644732
 10
-3.3191402688
 20
-31.7958353216
 10
-3.3275679058
 20
-31.7987746127
 10
-3.3359386403
 20
-31.8018108106
 10
-3.344497035
 20
-31.8050515666
 10
-3.3531873842
 20
-31.8085020453
 10
-3.3620755997
 20
-31.8122187706
 10
-3.3715783668
 20
-31.8164282722
 10
-3.3816718016
 20
-31.8211984136
 10
-3.3923404518
 20
-31.8266148142
 10
-3.4039866545
 20
-31.8330188811
 10
-3.4166286386
 20
-31.840622479
 10
-3.4300759378
 20
-31.8495544886
 10
-3.4443554904
 20
-31.8601351062
 10
-3.4594470384
 20
-31.8727625975
 10
-3.4748851705
 20
-31.8875536741
 10
-3.4900197171
 20
-31.9043617871
 10
-3.5046399431
 20
-31.9233647897
 10
-3.5184021756
 20
-31.944585161
 10
-3.5306488002
 20
-31.9673863183
 10
-3.5411361794
 20
-31.9915592357
 10
-3.5497121813
 20
-32.0170898682
 10
-3.556073349
 20
-32.0434558464
 10
-3.5600650155
 20
-32.070339963
 10
-3.5615860777
 20
-32.0992184683
  0
LINE
  5
3C0
100
AcDbEntity
  8
0
100
AcDbLine
 62
7
  6
CONTINUOUS
 10
-3.067558541
 20
-32.344862295
 11
-3.0505330235
 21
-32.340275942
  0
LINE
  5
3C1
100
AcDbEntity
  8
0
100
AcDbLine
 62
7
  6
CONTINUOUS
 10
-3.2117053697
 20
-31.7643587463
 11
-3.2342646397
 21
-31.7703735627
  0
LINE
  5
3C2
100
AcDbEntity
  8
0
100
AcDbLine
 62
7
  6
CONTINUOUS
 10
-3.0505330235
 20
-32.340275942
 11
-3.0314658864
 21
-32.3352766233
  0
LINE
  5
3C3
100
AcDbEntity
  8
0
100
AcDbLine
 62
7
  6
CONTINUOUS
 10
-3.1873926509
 20
-31.7580796187
 11
-3.2117053697
 21
-31.7643587463
  0
LINE
  5
3C4
100
AcDbEntity
  8
0
100
AcDbLine
 62
7
  6
CONTINUOUS
 10
-3.0314658864
 20
-32.3352766233
 11
-3.0103284012
 21
-32.329866068
  0
LWPOLYLINE
  5
3C5
100
AcDbEntity
  8
0
100
AcDbPolyline
 62
7
  6
CONTINUOUS
 90
29
 70
0
 10
1.0770845396
 20
-26.3675287148
 10
1.2466362033
 20
-26.324402332
 10
1.4128983782
 20
-26.2812730097
 10
1.575420977
 20
-26.2381346493
 10
1.733784814
 20
-26.1949759209
 10
1.8868297517
 20
-26.1520001324
 10
2.0341977573
 20
-26.1092080709
 10
2.1756661442
 20
-26.0665685453
 10
2.3104948229
 20
-26.0242214273
 10
2.4384693473
 20
-25.9821678771
 10
2.5595785773
 20
-25.9403514533
 10
2.6736052743
 20
-25.8987955054
 10
2.7805546057
 20
-25.8574572221
 10
2.8804999356
 20
-25.8162719734
 10
2.9735292468
 20
-25.7751704445
 10
3.0597363595
 20
-25.734082176
 10
3.1393581043
 20
-25.6928630357
 10
3.2128473904
 20
-25.6512181909
 10
3.2803290491
 20
-25.6089825756
 10
3.3420104093
 20
-25.5659029645
 10
3.3984683555
 20
-25.5213420381
 10
3.4497836016
 20
-25.4748265796
 10
3.4956905631
 20
-25.4260551288
 10
3.5361664036
 20
-25.3744279312
 10
3.571513359
 20
-25.3184503763
 10
3.6003106143
 20
-25.2588737276
 10
3.6208270115
 20
-25.1990968436
 10
3.6332112273
 20
-25.1408189779
 10
3.6382522656
 20
-25.0834447843
  0
LWPOLYLINE
  5
3C6
100
AcDbEntity
  8
0
100
AcDbPolyline
 62
7
  6
CONTINUOUS
 90
30
 70
0
 10
-0.9223698186
 20
-26.2557605756
 10
-1.0910441932
 20
-26.2983230289
 10
-1.2567387025
 20
-26.3408896749
 10
-1.4184606128
 20
-26.3833193179
 10
-1.5758307114
 20
-26.4256195683
 10
-1.7284960772
 20
-26.4677998907
 10
-1.8756437264
 20
-26.5097307912
 10
-2.0170097859
 20
-26.5514211881
 10
-2.1523976321
 20
-26.5928923364
 10
-2.2812740514
 20
-26.6340485951
 10
-2.4034803776
 20
-26.6748925088
 10
-2.5190313135
 20
-26.7154760392
 10
-2.6278326537
 20
-26.755806834
 10
-2.7299041654
 20
-26.7959249445
 10
-2.8253376598
 20
-26.8358949426
 10
-2.9143062423
 20
-26.8758186175
 10
-2.9969034756
 20
-26.9157681508
 10
-3.0733385147
 20
-26.9558780424
 10
-3.1440685592
 20
-26.9964523852
 10
-3.2091887122
 20
-27.0376459177
 10
-3.2688785231
 20
-27.0797013571
 10
-3.3236991338
 20
-27.1232543371
 10
-3.3736782357
 20
-27.1687358188
 10
-3.4185595
 20
-27.2164479938
 10
-3.4583686135
 20
-27.2670602503
 10
-3.4933567747
 20
-27.3220316382
 10
-3.5221008651
 20
-27.380652577
 10
-3.5428821531
 20
-27.4397706286
 10
-3.5557333906
 20
-27.4978053469
 10
-3.5613010205
 20
-27.5553016088
  0
LINE
  5
3C7
100
AcDbEntity
  8
0
100
AcDbLine
 62
7
  6
CONTINUOUS
 10
-3.1612118128
 20
-31.751504066
 11
-3.1873926509
 21
-31.7580796187
  0
LINE
  5
3C8
100
AcDbEntity
  8
0
100
AcDbLine
 62
7
  6
CONTINUOUS
 10
0.971011058
 20
-25.7927009444
 11
0.6379817085
 21
-25.8757533929
  0
LINE
  5
3C9
100
AcDbEntity
  8
0
100
AcDbLine
 62
7
  6
CONTINUOUS
 10
0.9476611925
 20
-30.7986043607
 11
0.6236442199
 21
-30.879282124
  0
LINE
  5
3CA
100
AcDbEntity
  8
0
100
AcDbLine
 62
7
  6
CONTINUOUS
 10
0.7329139895
 20
-26.4530731524
 11
1.0770845396
 21
-26.3675287148
  0
LINE
  5
3CB
100
AcDbEntity
  8
0
100
AcDbLine
 62
7
  6
CONTINUOUS
 10
-0.8000870575
 20
-26.8264489158
 11
-0.469218079
 21
-26.7445307341
  0
LINE
  5
3CC
100
AcDbEntity
  8
0
100
AcDbLine
 62
7
  6
CONTINUOUS
 10
-0.5780537842
 20
-26.1706668028
 11
-0.9223698186
 21
-26.2557605756
  0
LINE
  5
3CD
100
AcDbEntity
  8
0
100
AcDbLine
 62
7
  6
CONTINUOUS
 10
-3.1330520269
 20
-31.7446026712
 11
-3.1612118128
 21
-31.751504066
  0
LINE
  5
3CE
100
AcDbEntity
  8
0
100
AcDbLine
 62
7
  6
CONTINUOUS
 10
-0.38751554
 20
-31.1242864605
 11
-0.7829737706
 21
-31.2208898573
  0
LINE
  5
3CF
100
AcDbEntity
  8
0
100
AcDbLine
 62
7
  6
CONTINUOUS
 10
0.6379817085
 20
-25.8757533929
 11
0.2952374836
 21
-25.959383587
  0
LINE
  5
3D0
100
AcDbEntity
  8
0
100
AcDbLine
 62
7
  6
CONTINUOUS
 10
0.6236442199
 20
-30.879282124
 11
0.2907193545
 21
-30.9604783204
  0
LWPOLYLINE
  5
3D1
100
AcDbEntity
  8
0
100
AcDbPolyline
 62
7
  6
CONTINUOUS
 90
3
 70
0
 10
-0.469218079
 20
-26.7445307341
 10
0.0410592376
 20
-26.6207903683
 10
0.7329139895
 20
-26.4530731524
  0
LINE
  5
3D2
100
AcDbEntity
  8
0
100
AcDbLine
 62
7
  6
CONTINUOUS
 10
0.2907193545
 20
-30.9604783204
 11
-0.38751554
 21
-31.1242864605
  0
LINE
  5
3D3
100
AcDbEntity
  8
0
100
AcDbLine
 62
7
  6
CONTINUOUS
 10
0.2952374836
 20
-25.959383587
 11
-0.5780537842
 21
-26.1706668028
  0
LINE
  5
3D4
100
AcDbEntity
  8
0
100
AcDbLine
 62
7
  6
CONTINUOUS
 10
-0.7829737706
 20
-31.2208898573
 11
-0.9418914109
 21
-31.2591782568
  0
LINE
  5
3D5
100
AcDbEntity
  8
0
100
AcDbLine
 62
7
  6
CONTINUOUS
 10
-3.1028348253
 20
-31.7373549244
 11
-3.1330520269
 21
-31.7446026712
  0
LINE
  5
3D6
100
AcDbEntity
  8
0
100
AcDbLine
 62
7
  6
CONTINUOUS
 10
-0.9418914109
 20
-31.2591782568
 11
-1.147476378
 21
-31.3076101389
  0
LINE
  5
3D7
100
AcDbEntity
  8
0
100
AcDbLine
 62
7
  6
CONTINUOUS
 10
-3.0535140492
 20
-31.7257976748
 11
-3.1028348253
 21
-31.7373549244
  0
LINE
  5
3D8
100
AcDbEntity
  8
0
100
AcDbLine
 62
7
  6
CONTINUOUS
 10
-1.147476378
 20
-31.3076101389
 11
-1.3452149534
 21
-31.3531398168
  0
LINE
  5
3D9
100
AcDbEntity
  8
0
100
AcDbLine
 62
7
  6
CONTINUOUS
 10
-2.9992660317
 20
-31.7133801363
 11
-3.0535140492
 21
-31.7257976748
  0
LINE
  5
3DA
100
AcDbEntity
  8
0
100
AcDbLine
 62
7
  6
CONTINUOUS
 10
-1.3452149534
 20
-31.3531398168
 11
-1.5804506854
 21
-31.4061227996
  0
LINE
  5
3DB
100
AcDbEntity
  8
0
100
AcDbLine
 62
7
  6
CONTINUOUS
 10
-2.9190755843
 20
-31.6954231051
 11
-2.9992660317
 21
-31.7133801363
  0
LINE
  5
3DC
100
AcDbEntity
  8
0
100
AcDbLine
 62
7
  6
CONTINUOUS
 10
-1.5804506854
 20
-31.4061227996
 11
-1.8440071322
 21
-31.4641969833
  0
LINE
  5
3DD
100
AcDbEntity
  8
0
100
AcDbLine
 62
7
  6
CONTINUOUS
 10
-2.7812921074
 20
-31.6652737528
 11
-2.9190755843
 21
-31.6954231051
  0
LINE
  5
3DE
100
AcDbEntity
  8
0
100
AcDbLine
 62
7
  6
CONTINUOUS
 10
-1.8440071322
 20
-31.4641969833
 11
-2.161775653
 21
-31.5328363986
  0
LINE
  5
3DF
100
AcDbEntity
  8
0
100
AcDbLine
 62
7
  6
CONTINUOUS
 10
-2.161775653
 20
-31.5328363986
 11
-2.7812921074
 21
-31.6652737528
  0
LINE
  5
3E0
100
AcDbEntity
  8
RACCORDO
100
AcDbLine
 62
7
  6
CONTINUOUS
 10
2.0384889989
 20
-30.3
 11
-1.961663306
 21
-30.3
  0
LINE
  5
3E1
100
AcDbEntity
  8
DRAFT
100
AcDbLine
 62
7
  6
CONTINUOUS
 10
36.0384128464
 20
-29.2
 11
38.0384128464
 21
-29.2
  0
LINE
  5
3E2
100
AcDbEntity
  8
DRAFT
100
AcDbLine
 62
7
  6
CONTINUOUS
 10
41.0384128464
 20
-29.2
 11
43.0384128464
 21
-29.2
  0
LINE
  5
3E3
100
AcDbEntity
  8
DRAFT
100
AcDbLine
 62
7
  6
CONTINUOUS
 10
46.0384128464
 20
-29.2
 11
48.0384128464
 21
-29.2
  0
LINE
  5
3E4
100
AcDbEntity
  8
DRAFT
100
AcDbLine
 62
7
  6
CONTINUOUS
 10
66.0384128464
 20
-29.2
 11
68.0384128464
 21
-29.2
  0
LINE
  5
3E5
100
AcDbEntity
  8
DRAFT
100
AcDbLine
 62
7
  6
CONTINUOUS
 10
71.0384128464
 20
-29.2
 11
73.0384128464
 21
-29.2
  0
LINE
  5
3E6
100
AcDbEntity
  8
DRAFT
100
AcDbLine
 62
7
  6
CONTINUOUS
 10
76.0384128464
 20
-29.2
 11
78.0384128464
 21
-29.2
  0
LINE
  5
3E7
100
AcDbEntity
  8
DRAFT
100
AcDbLine
 62
7
  6
CONTINUOUS
 10
81.0384128464
 20
-29.2
 11
83.0384128464
 21
-29.2
  0
LINE
  5
3E8
100
AcDbEntity
  8
DRAFT
100
AcDbLine
 62
7
  6
CONTINUOUS
 10
86.0384128464
 20
-29.2
 11
88.0384128464
 21
-29.2
  0
LINE
  5
3E9
100
AcDbEntity
  8
RACCORDO
100
AcDbLine
 62
7
  6
CONTINUOUS
 10
3.0385651513
 20
-28.8
 11
2.5384128464
 21
-28.8
  0
LINE
  5
3EA
100
AcDbEntity
  8
RACCORDO
100
AcDbLine
 62
7
  6
CONTINUOUS
 10
-2.4615871536
 20
-28.8
 11
-2.9617394584
 21
-28.8
  0
LINE
  5
3EB
100
AcDbEntity
  8
RACCORDO
100
AcDbLine
 62
7
  6
CONTINUOUS
 10
88.0384128464
 20
-27.8
 11
86.0384128464
 21
-27.8
  0
LINE
  5
3EC
100
AcDbEntity
  8
RACCORDO
100
AcDbLine
 62
7
  6
CONTINUOUS
 10
83.0384128464
 20
-27.8
 11
81.0384128464
 21
-27.8
  0
LINE
  5
3ED
100
AcDbEntity
  8
RACCORDO
100
AcDbLine
 62
7
  6
CONTINUOUS
 10
78.0384128464
 20
-27.8
 11
76.0384128464
 21
-27.8
  0
LINE
  5
3EE
100
AcDbEntity
  8
RACCORDO
100
AcDbLine
 62
7
  6
CONTINUOUS
 10
73.0384128464
 20
-27.8
 11
71.0384128464
 21
-27.8
  0
LINE
  5
3EF
100
AcDbEntity
  8
RACCORDO
100
AcDbLine
 62
7
  6
CONTINUOUS
 10
68.0384128464
 20
-27.8
 11
66.0384128464
 21
-27.8
  0
LINE
  5
3F0
100
AcDbEntity
  8
RACCORDO
100
AcDbLine
 62
7
  6
CONTINUOUS
 10
48.0384128464
 20
-27.8
 11
46.0384128464
 21
-27.8
  0
LINE
  5
3F1
100
AcDbEntity
  8
RACCORDO
100
AcDbLine
 62
7
  6
CONTINUOUS
 10
43.0384128464
 20
-27.8
 11
41.0384128464
 21
-27.8
  0
LINE
  5
3F2
100
AcDbEntity
  8
RACCORDO
100
AcDbLine
 62
7
  6
CONTINUOUS
 10
38.0384128464
 20
-27.8
 11
36.0384128464
 21
-27.8
  0
LINE
  5
3F3
100
AcDbEntity
  8
RACCORDO
100
AcDbLine
 62
7
  6
CONTINUOUS
 10
36.0384128464
 20
-26.5
 11
38.0384128464
 21
-26.5
  0
LINE
  5
3F4
100
AcDbEntity
  8
RACCORDO
100
AcDbLine
 62
7
  6
CONTINUOUS
 10
41.0384128464
 20
-26.5
 11
43.0384128464
 21
-26.5
  0
LINE
  5
3F5
100
AcDbEntity
  8
RACCORDO
100
AcDbLine
 62
7
  6
CONTINUOUS
 10
46.0384128464
 20
-26.5
 11
48.0384128464
 21
-26.5
  0
LINE
  5
3F6
100
AcDbEntity
  8
RACCORDO
100
AcDbLine
 62
7
  6
CONTINUOUS
 10
66.0384128464
 20
-26.5
 11
68.0384128464
 21
-26.5
  0
LINE
  5
3F7
100
AcDbEntity
  8
RACCORDO
100
AcDbLine
 62
7
  6
CONTINUOUS
 10
71.0384128464
 20
-26.5
 11
73.0384128464
 21
-26.5
  0
LINE
  5
3F8
100
AcDbEntity
  8
RACCORDO
100
AcDbLine
 62
7
  6
CONTINUOUS
 10
76.0384128464
 20
-26.5
 11
78.0384128464
 21
-26.5
  0
LINE
  5
3F9
100
AcDbEntity
  8
RACCORDO
100
AcDbLine
 62
7
  6
CONTINUOUS
 10
81.0384128464
 20
-26.5
 11
83.0384128464
 21
-26.5
  0
LINE
  5
3FA
100
AcDbEntity
  8
RACCORDO
100
AcDbLine
 62
7
  6
CONTINUOUS
 10
86.0384128464
 20
-26.5
 11
88.0384128464
 21
-26.5
  0
LINE
  5
3FB
100
AcDbEntity
  8
DRAFT
100
AcDbLine
 62
7
  6
CONTINUOUS
 10
-42.3481292315
 20
-25.2
 11
-43.9615871536
 21
-25.2
  0
LINE
  5
3FC
100
AcDbEntity
  8
DRAFT
100
AcDbLine
 62
7
  6
CONTINUOUS
 10
-47.3481292315
 20
-25.2
 11
-48.9615871536
 21
-25.2
  0
LINE
  5
3FD
100
AcDbEntity
  8
DRAFT
100
AcDbLine
 62
7
  6
CONTINUOUS
 10
-52.3481292315
 20
-25.2
 11
-53.9615871536
 21
-25.2
  0
LINE
  5
3FE
100
AcDbEntity
  8
DRAFT
100
AcDbLine
 62
7
  6
CONTINUOUS
 10
-57.3481292315
 20
-25.2
 11
-58.9615871536
 21
-25.2
  0
LINE
  5
3FF
100
AcDbEntity
  8
DRAFT
100
AcDbLine
 62
7
  6
CONTINUOUS
 10
-62.3481292315
 20
-25.2
 11
-63.9615871536
 21
-25.2
  0
LINE
  5
400
100
AcDbEntity
  8
DRAFT
100
AcDbLine
 62
7
  6
CONTINUOUS
 10
-67.3481292315
 20
-25.2
 11
-68.9615871536
 21
-25.2
  0
LINE
  5
401
100
AcDbEntity
  8
DRAFT
100
AcDbLine
 62
7
  6
CONTINUOUS
 10
-72.3481292315
 20
-25.2
 11
-73.9615871536
 21
-25.2
  0
LINE
  5
402
100
AcDbEntity
  8
DRAFT
100
AcDbLine
 62
7
  6
CONTINUOUS
 10
-77.3481292315
 20
-25.2
 11
-78.9615871536
 21
-25.2
  0
LINE
  5
403
100
AcDbEntity
  8
DRAFT
100
AcDbLine
 62
7
  6
CONTINUOUS
 10
-82.3481292315
 20
-25.2
 11
-83.9615871536
 21
-25.2
  0
LINE
  5
404
100
AcDbEntity
  8
DRAFT
100
AcDbLine
 62
7
  6
CONTINUOUS
 10
8.293143236
 20
-24.2
 11
-8.2163175431
 21
-24.2
  0
LWPOLYLINE
  5
405
100
AcDbEntity
  8
0
100
AcDbPolyline
 62
7
  6
CONTINUOUS
 90
10
 70
0
 10
2.5374413308
 20
-29.8173816469
 10
2.6167979841
 20
-29.8495501444
 10
2.69044389
 20
-29.8813240257
 10
2.757178656
 20
-29.9121312761
 10
2.8168265413
 20
-29.9417729225
 10
2.869054112
 20
-29.969895574
 10
2.9141321783
 20
-29.9963908069
 10
2.9522025249
 20
-30.0210319085
 10
2.9829651427
 20
-30.0431722672
 10
3.0069734381
 20
-30.062594702
  0
LINE
  5
406
100
AcDbEntity
  8
ASSI
100
AcDbLine
 62
7
  6
CONTINUOUS
 10
-28.5778657582
 20
2.05
 11
-29.340224833
 21
3.9531942447
  0
LINE
  5
407
100
AcDbEntity
  8
ASSI
100
AcDbLine
 62
7
  6
CONTINUOUS
 10
-29.3414864393
 20
3.3573647434
 11
-29.1365685151
 21
2.834346719
  0
LINE
  5
408
100
AcDbEntity
  8
ASSI
100
AcDbLine
 62
7
  6
CONTINUOUS
 10
-29.0599722191
 20
2.6267255287
 11
-28.8476652384
 21
2.05
  0
LINE
  5
409
100
AcDbEntity
  8
ASSI
100
AcDbLine
 62
7
  6
CONTINUOUS
 10
-32.1119317309
 20
3.6648314804
 11
-31.5631412432
 21
2.05
  0
LINE
  5
40A
100
AcDbEntity
  8
ASSI
100
AcDbLine
 62
7
  6
CONTINUOUS
 10
-31.5281772525
 20
2.6085227035
 11
-31.9789243123
 21
3.9531942447
  0
LINE
  5
40B
100
AcDbEntity
  8
ASSI
100
AcDbLine
 62
7
  6
CONTINUOUS
 10
-22.1345800842
 20
3.7340385438
 11
-22.1345800842
 21
2.05
  0
LINE
  5
40C
100
AcDbEntity
  8
0
100
AcDbLine
 62
7
  6
CONTINUOUS
 10
-21.9615871536
 20
38.1
 11
-21.9615871536
 21
25.9
  0
LINE
  5
40D
100
AcDbEntity
  8
0
100
AcDbLine
 62
7
  6
CONTINUOUS
 10
-21.9615871536
 20
-19.8
 11
-21.9615871536
 21
-32.0
  0
LINE
  5
40E
100
AcDbEntity
  8
ASSI
100
AcDbLine
 62
7
  6
CONTINUOUS
 10
-21.8808208515
 20
2.05
 11
-21.8808208515
 21
3.7340385438
  0
LINE
  5
40F
100
AcDbEntity
  8
ASSI
100
AcDbLine
 62
7
  6
CONTINUOUS
 10
-21.2579572805
 20
3.7340385438
 11
-21.2579572805
 21
3.9531942447
  0
LINE
  5
410
100
AcDbEntity
  8
ASSI
100
AcDbLine
 62
7
  6
CONTINUOUS
 10
-20.9695945162
 20
3.9531942447
 11
-20.9695945162
 21
2.05
  0
LINE
  5
411
100
AcDbEntity
  8
ASSI
100
AcDbLine
 62
7
  6
CONTINUOUS
 10
-20.7158352835
 20
2.05
 11
-20.7158352835
 21
3.9531942447
  0
LINE
  5
412
100
AcDbEntity
  8
0
100
AcDbLine
 62
7
  6
CONTINUOUS
 10
-18.9615871536
 20
-32.0
 11
-18.9615871536
 21
-19.8
  0
LINE
  5
413
100
AcDbEntity
  8
0
100
AcDbLine
 62
7
  6
CONTINUOUS
 10
-18.9615871536
 20
25.9
 11
-18.9615871536
 21
38.1
  0
LINE
  5
414
100
AcDbEntity
  8
0
100
AcDbLine
 62
7
  6
CONTINUOUS
 10
-16.9615871536
 20
38.1
 11
-16.9615871536
 21
25.9
  0
LINE
  5
415
100
AcDbEntity
  8
0
100
AcDbLine
 62
7
  6
CONTINUOUS
 10
-16.9615871536
 20
-19.8
 11
-16.9615871536
 21
-32.0
  0
LINE
  5
416
100
AcDbEntity
  8
ASSI
100
AcDbLine
 62
7
  6
CONTINUOUS
 10
-18.293588063
 20
2.05
 11
-18.0929956463
 21
2.6267255287
  0
LINE
  5
417
100
AcDbEntity
  8
ASSI
100
AcDbLine
 62
7
  6
CONTINUOUS
 10
-18.0207246817
 20
2.834346719
 11
-17.8150860156
 21
3.3899857509
  0
LINE
  5
418
100
AcDbEntity
  8
ASSI
100
AcDbLine
 62
7
  6
CONTINUOUS
 10
-17.8379748073
 20
3.9531942447
 11
-18.5614048429
 21
2.05
  0
LINE
  5
419
100
AcDbEntity
  8
ASSI
100
AcDbLine
 62
7
  6
CONTINUOUS
 10
-14.5333376158
 20
3.9531942447
 11
-15.057436841
 21
2.5740994012
  0
LINE
  5
41A
100
AcDbEntity
  8
RACCORDO
100
AcDbLine
 62
7
  6
CONTINUOUS
 10
10.2585377622
 20
-20.0
 11
-10.1817120694
 21
-20.0
  0
LINE
  5
41B
100
AcDbEntity
  8
0
100
AcDbLine
 62
7
  6
CONTINUOUS
 10
-42.4615871536
 20
-19.85
 11
-43.9615871536
 21
-19.85
  0
LINE
  5
41C
100
AcDbEntity
  8
0
100
AcDbLine
 62
7
  6
CONTINUOUS
 10
-47.4615871536
 20
-19.85
 11
-48.9615871536
 21
-19.85
  0
LINE
  5
41D
100
AcDbEntity
  8
0
100
AcDbLine
 62
7
  6
CONTINUOUS
 10
-52.4615871536
 20
-19.85
 11
-53.9615871536
 21
-19.85
  0
LINE
  5
41E
100
AcDbEntity
  8
0
100
AcDbLine
 62
7
  6
CONTINUOUS
 10
-57.4615871536
 20
-19.85
 11
-58.9615871536
 21
-19.85
  0
LINE
  5
41F
100
AcDbEntity
  8
0
100
AcDbLine
 62
7
  6
CONTINUOUS
 10
-62.4615871536
 20
-19.85
 11
-63.9615871536
 21
-19.85
  0
LINE
  5
420
100
AcDbEntity
  8
0
100
AcDbLine
 62
7
  6
CONTINUOUS
 10
-67.4615871536
 20
-19.85
 11
-68.9615871536
 21
-19.85
  0
LINE
  5
421
100
AcDbEntity
  8
0
100
AcDbLine
 62
7
  6
CONTINUOUS
 10
-72.4615871536
 20
-19.85
 11
-73.9615871536
 21
-19.85
  0
LINE
  5
422
100
AcDbEntity
  8
0
100
AcDbLine
 62
7
  6
CONTINUOUS
 10
-77.4615871536
 20
-19.85
 11
-78.9615871536
 21
-19.85
  0
LINE
  5
423
100
AcDbEntity
  8
0
100
AcDbLine
 62
7
  6
CONTINUOUS
 10
-82.4615871536
 20
-19.85
 11
-83.9615871536
 21
-19.85
  0
LINE
  5
424
100
AcDbEntity
  8
0
100
AcDbLine
 62
7
  6
CONTINUOUS
 10
-83.9615871536
 20
-19.8
 11
-81.9615871536
 21
-19.8
  0
LINE
  5
425
100
AcDbEntity
  8
0
100
AcDbLine
 62
7
  6
CONTINUOUS
 10
-78.9615871536
 20
-19.8
 11
-76.9615871536
 21
-19.8
  0
LINE
  5
426
100
AcDbEntity
  8
0
100
AcDbLine
 62
7
  6
CONTINUOUS
 10
-73.9615871536
 20
-19.8
 11
-71.9615871536
 21
-19.8
  0
LINE
  5
427
100
AcDbEntity
  8
0
100
AcDbLine
 62
7
  6
CONTINUOUS
 10
-68.9615871536
 20
-19.8
 11
-66.9615871536
 21
-19.8
  0
LINE
  5
428
100
AcDbEntity
  8
0
100
AcDbLine
 62
7
  6
CONTINUOUS
 10
-63.9615871536
 20
-19.8
 11
-61.9615871536
 21
-19.8
  0
LINE
  5
429
100
AcDbEntity
  8
0
100
AcDbLine
 62
7
  6
CONTINUOUS
 10
-58.9615871536
 20
-19.8
 11
-56.9615871536
 21
-19.8
  0
LINE
  5
42A
100
AcDbEntity
  8
0
100
AcDbLine
 62
7
  6
CONTINUOUS
 10
-53.9615871536
 20
-19.8
 11
-51.9615871536
 21
-19.8
  0
LINE
  5
42B
100
AcDbEntity
  8
0
100
AcDbLine
 62
7
  6
CONTINUOUS
 10
-48.9615871536
 20
-19.8
 11
-46.9615871536
 21
-19.8
  0
LINE
  5
42C
100
AcDbEntity
  8
0
100
AcDbLine
 62
7
  6
CONTINUOUS
 10
-43.9615871536
 20
-19.8
 11
-41.9615871536
 21
-19.8
  0
LINE
  5
42D
100
AcDbEntity
  8
0
100
AcDbLine
 62
7
  6
CONTINUOUS
 10
-38.9615871536
 20
-19.8
 11
-36.9615871536
 21
-19.8
  0
LINE
  5
42E
100
AcDbEntity
  8
0
100
AcDbLine
 62
7
  6
CONTINUOUS
 10
-33.9615871536
 20
-19.8
 11
-31.9615871536
 21
-19.8
  0
LINE
  5
42F
100
AcDbEntity
  8
0
100
AcDbLine
 62
7
  6
CONTINUOUS
 10
-28.9615871536
 20
-19.8
 11
-26.9615871536
 21
-19.8
  0
LINE
  5
430
100
AcDbEntity
  8
0
100
AcDbLine
 62
7
  6
CONTINUOUS
 10
-23.9615871536
 20
-19.8
 11
-21.9615871536
 21
-19.8
  0
LINE
  5
431
100
AcDbEntity
  8
0
100
AcDbLine
 62
7
  6
CONTINUOUS
 10
-18.9615871536
 20
-19.8
 11
-16.9615871536
 21
-19.8
  0
LINE
  5
432
100
AcDbEntity
  8
0
100
AcDbLine
 62
7
  6
CONTINUOUS
 10
-13.9615871536
 20
-19.8
 11
-11.9615871536
 21
-19.8
  0
LINE
  5
433
100
AcDbEntity
  8
0
100
AcDbLine
 62
7
  6
CONTINUOUS
 10
36.0384128464
 20
-19.8
 11
38.0384128464
 21
-19.8
  0
LINE
  5
434
100
AcDbEntity
  8
0
100
AcDbLine
 62
7
  6
CONTINUOUS
 10
41.0384128464
 20
-19.8
 11
43.0384128464
 21
-19.8
  0
LINE
  5
435
100
AcDbEntity
  8
0
100
AcDbLine
 62
7
  6
CONTINUOUS
 10
46.0384128464
 20
-19.8
 11
48.0384128464
 21
-19.8
  0
LINE
  5
436
100
AcDbEntity
  8
0
100
AcDbLine
 62
7
  6
CONTINUOUS
 10
66.0384128464
 20
-19.8
 11
68.0384128464
 21
-19.8
  0
LINE
  5
437
100
AcDbEntity
  8
0
100
AcDbLine
 62
7
  6
CONTINUOUS
 10
71.0384128464
 20
-19.8
 11
73.0384128464
 21
-19.8
  0
LINE
  5
438
100
AcDbEntity
  8
0
100
AcDbLine
 62
7
  6
CONTINUOUS
 10
76.0384128464
 20
-19.8
 11
78.0384128464
 21
-19.8
  0
LINE
  5
439
100
AcDbEntity
  8
0
100
AcDbLine
 62
7
  6
CONTINUOUS
 10
81.0384128464
 20
-19.8
 11
83.0384128464
 21
-19.8
  0
LINE
  5
43A
100
AcDbEntity
  8
0
100
AcDbLine
 62
7
  6
CONTINUOUS
 10
86.0384128464
 20
-19.8
 11
88.0384128464
 21
-19.8
  0
LINE
  5
43B
100
AcDbEntity
  8
RACCORDO
100
AcDbLine
 62
7
  6
CONTINUOUS
 10
8.0384128464
 20
-19.7323659172
 11
-7.9615871536
 21
-19.7323659172
  0
LINE
  5
43C
100
AcDbEntity
  8
RACCORDO
100
AcDbLine
 62
250
  6
CONTINUOUS
 10
7.9994241273
 20
-19.590104091
 11
-7.9225984345
 21
-19.590104091
  0
LINE
  5
43D
100
AcDbEntity
  8
DRAFT
100
AcDbLine
 62
7
  6
CONTINUOUS
 10
8.1884128464
 20
-19.45
 11
8.0384128464
 21
-19.45
  0
LINE
  5
43E
100
AcDbEntity
  8
DRAFT
100
AcDbLine
 62
7
  6
CONTINUOUS
 10
-7.9615871536
 20
-19.45
 11
-8.1115871536
 21
-19.45
  0
LINE
  5
43F
100
AcDbEntity
  8
RACCORDO
100
AcDbLine
 62
250
  6
CONTINUOUS
 10
8.2588423719
 20
-16.9849836279
 11
52.5384128464
 21
-16.9849836279
  0
LINE
  5
440
100
AcDbEntity
  8
RACCORDO
100
AcDbLine
 62
250
  6
CONTINUOUS
 10
62.5384128464
 20
-16.9849836279
 11
104.547084639
 21
-16.9849836279
  0
LINE
  5
441
100
AcDbEntity
  8
RACCORDO
100
AcDbLine
 62
250
  6
CONTINUOUS
 10
-8.182016679
 20
-16.9849836279
 11
-104.4702589461
 21
-16.9849836279
  0
LINE
  5
442
100
AcDbEntity
  8
RACCORDO
100
AcDbLine
 62
250
  6
CONTINUOUS
 10
62.5384890003
 20
-16.9500761568
 11
52.5383366926
 21
-16.9500761568
  0
LINE
  5
443
100
AcDbEntity
  8
RACCORDO
100
AcDbLine
 62
250
  6
CONTINUOUS
 10
102.548302985
 20
-14.9850597818
 11
64.5384128464
 21
-14.9850597818
  0
LINE
  5
444
100
AcDbEntity
  8
RACCORDO
100
AcDbLine
 62
250
  6
CONTINUOUS
 10
50.5384128464
 20
-14.9850597818
 11
10.2585377622
 21
-14.9850597818
  0
LINE
  5
445
100
AcDbEntity
  8
RACCORDO
100
AcDbLine
 62
250
  6
CONTINUOUS
 10
-10.1817120694
 20
-14.9850597818
 11
-102.4714772921
 21
-14.9850597818
  0
LINE
  5
446
100
AcDbEntity
  8
RACCORDO
100
AcDbLine
 62
7
  6
CONTINUOUS
 10
102.6885955376
 20
-14.95
 11
10.188412858
 21
-14.95
  0
LINE
  5
447
100
AcDbEntity
  8
RACCORDO
100
AcDbLine
 62
7
  6
CONTINUOUS
 10
-10.1115871652
 20
-14.95
 11
-102.6117698447
 21
-14.95
  0
LINE
  5
448
100
AcDbEntity
  8
RACCORDO
100
AcDbLine
 62
250
  6
CONTINUOUS
 10
-7.9608494706
 20
-14.8906307787
 11
8.0376751635
 21
-14.8906307787
  0
LINE
  5
449
100
AcDbEntity
  8
RACCORDO
100
AcDbLine
 62
7
  6
CONTINUOUS
 10
-7.9598416471
 20
-14.8
 11
8.0366673399
 21
-14.8
  0
LINE
  5
44A
100
AcDbEntity
  8
0
100
AcDbLine
 62
7
  6
CONTINUOUS
 10
3.0069734381
 20
-30.062594702
 11
3.016586505
 21
-30.0714544265
  0
LWPOLYLINE
  5
44B
100
AcDbEntity
  8
0
100
AcDbPolyline
 62
7
  6
CONTINUOUS
 90
30
 70
0
 10
3.5866249671
 20
-32.2309730031
 10
3.5707530714
 20
-32.209282177
 10
3.5538018029
 20
-32.1899310786
 10
3.5360233308
 20
-32.1728357922
 10
3.5177540634
 20
-32.1579063813
 10
3.4998088707
 20
-32.1453225288
 10
3.4826216992
 20
-32.1348859857
 10
3.4662787619
 20
-32.1262304527
 10
3.4510822969
 20
-32.1191655314
 10
3.4374007987
 20
-32.1135355704
 10
3.425083124
 20
-32.1090059886
 10
3.4135988841
 20
-32.1052036104
 10
3.4029482763
 20
-32.1020088097
 10
3.3931654123
 20
-32.0993303449
 10
3.3837411766
 20
-32.0969603259
 10
3.3745995688
 20
-32.0948392161
 10
3.3658027728
 20
-32.0929464439
 10
3.357043645
 20
-32.0911908677
 10
3.3482607592
 20
-32.0895455795
 10
3.3394898016
 20
-32.0880044567
 10
3.3305719969
 20
-32.0865299266
 10
3.3214703135
 20
-32.0851098771
 10
3.3121978186
 20
-32.0837410549
 10
3.3026782343
 20
-32.0824080009
 10
3.2928981845
 20
-32.0811058867
 10
3.2828551297
 20
-32.0798317337
 10
3.2724957057
 20
-32.0785767753
 10
3.2618152568
 20
-32.0773390263
 10
3.2508063093
 20
-32.0761163409
 10
3.2276189776
 20
-32.0736930539
  0
LINE
  5
44C
100
AcDbEntity
  8
ASSI
100
AcDbLine
 62
7
  6
CONTINUOUS
 10
-27.2494145179
 20
2.4455977196
 11
-26.9999807927
 21
2.05
  0
LINE
  5
44D
100
AcDbEntity
  8
ASSI
100
AcDbLine
 62
7
  6
CONTINUOUS
 10
-26.7018858126
 20
2.05
 11
-27.0252125676
 21
2.5674310865
  0
LWPOLYLINE
  5
44E
100
AcDbEntity
  8
0
100
AcDbPolyline
 62
7
  6
CONTINUOUS
 90
16
 70
0
 10
-3.5253549367
 20
-32.2429747596
 10
-3.5113687565
 20
-32.2666464766
 10
-3.4957392118
 20
-32.288437141
 10
-3.4790128288
 20
-32.3079169046
 10
-3.461441455
 20
-32.3251596204
 10
-3.4433509306
 20
-32.3402461655
 10
-3.4255373575
 20
-32.3529979272
 10
-3.4084246381
 20
-32.3636108132
 10
-3.3921138843
 20
-32.3724381775
 10
-3.3769282471
 20
-32.379656579
 10
-3.3632366824
 20
-32.3854202762
 10
-3.3508979762
 20
-32.3900637135
 10
-3.3394178629
 20
-32.3939548352
 10
-3.3288126509
 20
-32.3972127539
 10
-3.3191093044
 20
-32.3999348804
 10
-3.3188425535
 20
-32.400003652
  0
LINE
  5
44F
100
AcDbEntity
  8
ASSI
100
AcDbLine
 62
7
  6
CONTINUOUS
 10
-16.8011304619
 20
2.05
 11
-17.5634895367
 21
3.9531942447
  0
LINE
  5
450
100
AcDbEntity
  8
ASSI
100
AcDbLine
 62
7
  6
CONTINUOUS
 10
-17.5647511431
 20
3.3573647434
 11
-17.3598332189
 21
2.834346719
  0
LINE
  5
451
100
AcDbEntity
  8
ASSI
100
AcDbLine
 62
7
  6
CONTINUOUS
 10
-17.2832369229
 20
2.6267255287
 11
-17.0709299421
 21
2.05
  0
LINE
  5
452
100
AcDbEntity
  8
RACCORDO
100
AcDbLine
 62
7
  6
CONTINUOUS
 10
-7.9608494706
 20
-14.8906307787
 11
-7.9225984345
 21
-19.590104091
  0
LINE
  5
453
100
AcDbEntity
  8
ASSI
100
AcDbLine
 62
7
  6
CONTINUOUS
 10
-14.0488881717
 20
3.9531942447
 11
-14.0488881717
 21
2.05
  0
LINE
  5
454
100
AcDbEntity
  8
0
100
AcDbLine
 62
7
  6
CONTINUOUS
 10
-13.9615871536
 20
-32.0
 11
-13.9615871536
 21
-19.8
  0
LINE
  5
455
100
AcDbEntity
  8
0
100
AcDbLine
 62
7
  6
CONTINUOUS
 10
-13.9615871536
 20
25.9
 11
-13.9615871536
 21
38.1
  0
LINE
  5
456
100
AcDbEntity
  8
ASSI
100
AcDbLine
 62
7
  6
CONTINUOUS
 10
-13.795128939
 20
2.05
 11
-13.795128939
 21
3.9531942447
  0
LINE
  5
457
100
AcDbEntity
  8
ASSI
100
AcDbLine
 62
7
  6
CONTINUOUS
 10
-12.5724708182
 20
3.9531942447
 11
-12.5724708182
 21
2.05
  0
LINE
  5
458
100
AcDbEntity
  8
ASSI
100
AcDbLine
 62
7
  6
CONTINUOUS
 10
-12.3187115855
 20
2.05
 11
-12.3187115855
 21
3.9531942447
  0
LINE
  5
459
100
AcDbEntity
  8
ASSI
100
AcDbLine
 62
7
  6
CONTINUOUS
 10
-12.0072798
 20
3.9531942447
 11
-12.0072798
 21
3.7340385438
  0
LINE
  5
45A
100
AcDbEntity
  8
0
100
AcDbLine
 62
7
  6
CONTINUOUS
 10
-11.9615871536
 20
38.1
 11
-11.9615871536
 21
25.9
  0
LINE
  5
45B
100
AcDbEntity
  8
0
100
AcDbLine
 62
7
  6
CONTINUOUS
 10
-11.9615871536
 20
-19.8
 11
-11.9615871536
 21
-32.0
  0
LINE
  5
45C
100
AcDbEntity
  8
ASSI
100
AcDbLine
 62
7
  6
CONTINUOUS
 10
-11.384416229
 20
3.7340385438
 11
-11.384416229
 21
2.05
  0
LINE
  5
45D
100
AcDbEntity
  8
ASSI
100
AcDbLine
 62
7
  6
CONTINUOUS
 10
-11.1306569964
 20
2.05
 11
-11.1306569964
 21
3.7340385438
  0
LINE
  5
45E
100
AcDbEntity
  8
ASSI
100
AcDbLine
 62
7
  6
CONTINUOUS
 10
-10.5077934254
 20
3.7340385438
 11
-10.5077934254
 21
3.9531942447
  0
LINE
  5
45F
100
AcDbEntity
  8
RACCORDO
100
AcDbLine
 62
250
  6
CONTINUOUS
 10
-10.1817120694
 20
-20.0
 11
-10.1817120694
 21
-14.9850597818
  0
LINE
  5
460
100
AcDbEntity
  8
ASSI
100
AcDbLine
 62
7
  6
CONTINUOUS
 10
-8.5007885855
 20
3.9531942447
 11
-8.5007885855
 21
2.05
  0
LINE
  5
461
100
AcDbEntity
  8
ASSI
100
AcDbLine
 62
7
  6
CONTINUOUS
 10
-8.2470293528
 20
2.2691557009
 11
-8.2470293528
 21
3.9531942447
  0
LINE
  5
462
100
AcDbEntity
  8
DRAFT
100
AcDbLine
 62
7
  6
CONTINUOUS
 10
-8.2163175431
 20
-24.2
 11
-8.2163175431
 21
-33.2
  0
LINE
  5
463
100
AcDbEntity
  8
RACCORDO
100
AcDbLine
 62
250
  6
CONTINUOUS
 10
-8.182016679
 20
-20.0
 11
-8.182016679
 21
-16.9849836279
  0
LINE
  5
464
100
AcDbEntity
  8
RACCORDO
100
AcDbLine
 62
7
  6
CONTINUOUS
 10
-8.1115871536
 20
-20.0
 11
-8.1115871536
 21
-16.9497715471
  0
LINE
  5
465
100
AcDbEntity
  8
RACCORDO
100
AcDbLine
 62
7
  6
CONTINUOUS
 10
-8.1115871536
 20
-24.2
 11
-8.1115871536
 21
-33.2
  0
LINE
  5
466
100
AcDbEntity
  8
RACCORDO
100
AcDbLine
 62
7
  6
CONTINUOUS
 10
-7.9615871536
 20
-33.2
 11
-7.9615871536
 21
-24.2
  0
LINE
  5
467
100
AcDbEntity
  8
RACCORDO
100
AcDbLine
 62
7
  6
CONTINUOUS
 10
-7.9615871536
 20
-20.0
 11
-7.9615871536
 21
-14.835976293
  0
LINE
  5
468
100
AcDbEntity
  8
ASSI
100
AcDbLine
 62
7
  6
CONTINUOUS
 10
-7.3011994858
 20
2.05
 11
-7.3011994858
 21
2.2691557009
  0
LINE
  5
469
100
AcDbEntity
  8
RACCORDO
100
AcDbLine
 62
250
  6
CONTINUOUS
 10
-7.2115871536
 20
-49.076973193
 11
-7.2115871536
 21
-45.6
  0
LINE
  5
46A
100
AcDbEntity
  8
ASSI
100
AcDbLine
 62
7
  6
CONTINUOUS
 10
-10.1963616399
 20
2.05
 11
-9.9957692232
 21
2.6267255287
  0
LINE
  5
46B
100
AcDbEntity
  8
ASSI
100
AcDbLine
 62
7
  6
CONTINUOUS
 10
-9.9234982586
 20
2.834346719
 11
-9.7178595925
 21
3.3899857509
  0
LINE
  5
46C
100
AcDbEntity
  8
ASSI
100
AcDbLine
 62
7
  6
CONTINUOUS
 10
-9.7407483842
 20
3.9531942447
 11
-10.4641784198
 21
2.05
  0
LINE
  5
46D
100
AcDbEntity
  8
ASSI
100
AcDbLine
 62
7
  6
CONTINUOUS
 10
-15.0210310145
 20
2.05
 11
-14.2619160703
 21
3.9531942447
  0
LINE
  5
46E
100
AcDbEntity
  8
ASSI
100
AcDbLine
 62
7
  6
CONTINUOUS
 10
-52.262721704
 20
2.6543002868
 11
-52.5164809366
 21
2.7179204124
  0
LINE
  5
46F
100
AcDbEntity
  8
RACCORDO
100
AcDbLine
 62
250
  6
CONTINUOUS
 10
8.1884128464
 20
-16.9497715471
 11
8.2588423719
 21
-16.9849836279
  0
LINE
  5
470
100
AcDbEntity
  8
RACCORDO
100
AcDbLine
 62
250
  6
CONTINUOUS
 10
10.188412858
 20
-14.95
 11
10.2585377622
 21
-14.9850597818
  0
LINE
  5
471
100
AcDbEntity
  8
0
100
AcDbLine
 62
7
  6
CONTINUOUS
 10
3.6008615272
 20
-32.2545743551
 11
3.5866249671
 21
-32.2309730031
  0
LINE
  5
472
100
AcDbEntity
  8
ASSI
100
AcDbLine
 62
7
  6
CONTINUOUS
 10
-8.7039040389
 20
2.05
 11
-9.4662631136
 21
3.9531942447
  0
LINE
  5
473
100
AcDbEntity
  8
ASSI
100
AcDbLine
 62
7
  6
CONTINUOUS
 10
-9.46752472
 20
3.3573647434
 11
-9.2626067958
 21
2.834346719
  0
LINE
  5
474
100
AcDbEntity
  8
ASSI
100
AcDbLine
 62
7
  6
CONTINUOUS
 10
-16.0257950408
 20
3.9531942447
 11
-15.2940746252
 21
2.05
  0
LINE
  5
475
100
AcDbEntity
  8
ASSI
100
AcDbLine
 62
7
  6
CONTINUOUS
 10
-9.1860104998
 20
2.6267255287
 11
-8.973703519
 21
2.05
  0
LINE
  5
476
100
AcDbEntity
  8
ASSI
100
AcDbLine
 62
7
  6
CONTINUOUS
 10
-15.2618139007
 20
2.5740994012
 11
-15.7559957366
 21
3.9531942447
  0
LWPOLYLINE
  5
477
100
AcDbEntity
  8
0
100
AcDbPolyline
 62
7
  6
CONTINUOUS
 90
20
 70
0
 10
3.6381247201
 20
-30.0552448868
 10
3.6325444547
 20
-29.9977133727
 10
3.6196778225
 20
-29.9396655099
 10
3.5988873271
 20
-29.8805592917
 10
3.5701473838
 20
-29.8219696065
 10
3.5351775271
 20
-29.7670369248
 10
3.4954029203
 20
-29.7164687686
 10
3.4505764326
 20
-29.6688071651
 10
3.4006708235
 20
-29.6233784357
 10
3.3459423192
 20
-29.5798794506
 10
3.2863677564
 20
-29.5378818217
 10
3.2213907791
 20
-29.4967515166
 10
3.1508352025
 20
-29.4562462383
 10
3.0746094151
 20
-29.4162117304
 10
2.9922618772
 20
-29.3763451947
 10
2.9035880748
 20
-29.3365128043
 10
2.8084967675
 20
-29.2966421032
 10
2.7068164176
 20
-29.2566309031
 10
2.5984617401
 20
-29.2164162806
 10
2.5384128464
 20
-29.1952990841
  0
LWPOLYLINE
  5
478
100
AcDbEntity
  8
0
100
AcDbPolyline
 62
7
  6
CONTINUOUS
 90
6
 70
0
 10
-3.5615856692
 20
-32.1009180081
 10
-3.5596833335
 20
-32.1331802945
 10
-3.5548633669
 20
-32.1624337578
 10
-3.5473561267
 20
-32.1906759207
 10
-3.5374166105
 20
-32.2176340036
 10
-3.5253549367
 20
-32.2429747596
  0
LINE
  5
479
100
AcDbEntity
  8
ASSI
100
AcDbLine
 62
7
  6
CONTINUOUS
 10
-6.4808073992
 20
2.8561543099
 11
-6.4808073992
 21
2.05
  0
LINE
  5
47A
100
AcDbEntity
  8
ASSI
100
AcDbLine
 62
7
  6
CONTINUOUS
 10
-6.2270481665
 20
2.05
 11
-6.2270481665
 21
2.8561543099
  0
LINE
  5
47B
100
AcDbEntity
  8
RACCORDO
100
AcDbLine
 62
7
  6
CONTINUOUS
 10
-5.2115871536
 20
-47.0033412824
 11
-5.2115871536
 21
-46.6
  0
LINE
  5
47C
100
AcDbEntity
  8
0
100
AcDbLine
 62
7
  6
CONTINUOUS
 10
-5.0615871536
 20
-37.4
 11
-5.0615871536
 21
-33.2
  0
LINE
  5
47D
100
AcDbEntity
  8
RACCORDO
100
AcDbLine
 62
7
  6
CONTINUOUS
 10
-4.9615871536
 20
-55.0000456915
 11
-4.9615871536
 21
-46.6
  0
LINE
  5
47E
100
AcDbEntity
  8
RACCORDO
100
AcDbLine
 62
7
  6
CONTINUOUS
 10
-3.9615871536
 20
-29.7998476952
 11
-3.9615871536
 21
-36.8001523048
  0
LINE
  5
47F
100
AcDbEntity
  8
ASSI
100
AcDbLine
 62
7
  6
CONTINUOUS
 10
-3.567138429
 20
-32.2
 11
-3.567138429
 21
-29.0053953814
  0
LINE
  5
480
100
AcDbEntity
  8
CURVE
100
AcDbLine
 62
2
  6
CONTINUOUS
 10
-3.5615871536
 20
-33.0
 11
-3.5615871536
 21
-29.0011357788
  0
LINE
  5
481
100
AcDbEntity
  8
DRAFT
100
AcDbLine
 62
7
  6
CONTINUOUS
 10
-2.6115871536
 20
-51.6
 11
-2.6115871536
 21
-52.8
  0
LINE
  5
482
100
AcDbEntity
  8
RACCORDO
100
AcDbLine
 62
7
  6
CONTINUOUS
 10
-2.4615871536
 20
-37.8
 11
-2.4615871536
 21
-36.7999238476
  0
LINE
  5
483
100
AcDbEntity
  8
RACCORDO
100
AcDbLine
 62
7
  6
CONTINUOUS
 10
-2.4615871536
 20
-29.8000761524
 11
-2.4615871536
 21
-28.8
  0
LINE
  5
484
100
AcDbEntity
  8
0
100
AcDbLine
 62
7
  6
CONTINUOUS
 10
-3.5615860777
 20
-32.0992184683
 11
-3.5615856692
 21
-32.1009180081
  0
LINE
  5
485
100
AcDbEntity
  8
0
100
AcDbLine
 62
7
  6
CONTINUOUS
 10
-3.5613010205
 20
-27.5553016088
 11
-3.5615616473
 21
-27.5712572273
  0
LINE
  5
486
100
AcDbEntity
  8
ASSI
100
AcDbLine
 62
7
  6
CONTINUOUS
 10
-6.2270481665
 20
2.8561543099
 11
-5.4657704686
 21
3.9531942447
  0
LINE
  5
487
100
AcDbEntity
  8
RACCORDO
100
AcDbLine
 62
7
  6
CONTINUOUS
 10
-99.9615871536
 20
-3.7
 11
-102.9615871536
 21
-3.7
  0
LINE
  5
488
100
AcDbEntity
  8
0
100
AcDbLine
 62
7
  6
CONTINUOUS
 10
-100.1615871536
 20
-3.45
 11
-102.9615871536
 21
-3.45
  0
LINE
  5
489
100
AcDbEntity
  8
DRAFT
100
AcDbLine
 62
7
  6
CONTINUOUS
 10
-104.9615871536
 20
-3.45
 11
-105.0384128464
 21
-3.45
  0
LINE
  5
48A
100
AcDbEntity
  8
ASSI
100
AcDbLine
 62
7
  6
CONTINUOUS
 10
37.0384128464
 20
-1.922628
 11
43.0384128464
 21
-1.922628
  0
LINE
  5
48B
100
AcDbEntity
  8
ASSI
100
AcDbLine
 62
7
  6
CONTINUOUS
 10
43.0384128464
 20
-0.422628
 11
37.0384128464
 21
-0.422628
  0
LINE
  5
48C
100
AcDbEntity
  8
ASSI
100
AcDbLine
 62
7
  6
CONTINUOUS
 10
49.7508144212
 20
-0.0
 11
50.767480358
 21
-0.0
  0
LINE
  5
48D
100
AcDbEntity
  8
ASSI
100
AcDbLine
 62
7
  6
CONTINUOUS
 10
-40.53212445
 20
3.4687448006
 11
-40.3014342385
 21
3.4341412689
  0
LINE
  5
48E
100
AcDbEntity
  8
ASSI
100
AcDbLine
 62
7
  6
CONTINUOUS
 10
-34.626455036
 20
3.4687448006
 11
-34.3957648245
 21
3.4341412689
  0
LINE
  5
48F
100
AcDbEntity
  8
ASSI
100
AcDbLine
 62
7
  6
CONTINUOUS
 10
-18.6626924013
 20
2.6543002868
 11
-18.916451634
 21
2.7179204124
  0
LINE
  5
490
100
AcDbEntity
  8
ASSI
100
AcDbLine
 62
7
  6
CONTINUOUS
 10
-7.2074815653
 20
3.9531942447
 11
-6.4808073992
 21
2.8561543099
  0
LINE
  5
491
100
AcDbEntity
  8
ASSI
100
AcDbLine
 62
7
  6
CONTINUOUS
 10
-6.538840411
 20
3.3725038435
 11
-6.9056017662
 21
3.9531942447
  0
LINE
  5
492
100
AcDbEntity
  8
0
100
AcDbLine
 62
7
  6
CONTINUOUS
 10
3.6384090473
 20
-30.072585135
 11
3.6381247201
 21
-30.0552448868
  0
LWPOLYLINE
  5
493
100
AcDbEntity
  8
0
100
AcDbPolyline
 62
7
  6
CONTINUOUS
 90
7
 70
0
 10
3.6384128333
 20
-32.4000081562
 10
3.6383606442
 20
-32.3945278118
 10
3.6362206541
 20
-32.3643876615
 10
3.6311446641
 20
-32.3350899803
 10
3.6233784987
 20
-32.3068275987
 10
3.6131789778
 20
-32.2798761649
 10
3.6008615272
 20
-32.2545743551
  0
LINE
  5
494
100
AcDbEntity
  8
RACCORDO
100
AcDbLine
 62
7
  6
CONTINUOUS
 10
2.5384128464
 20
-28.8
 11
2.5384128464
 21
-29.8000761524
  0
LINE
  5
495
100
AcDbEntity
  8
RACCORDO
100
AcDbLine
 62
7
  6
CONTINUOUS
 10
2.5384128464
 20
-36.7999238476
 11
2.5384128464
 21
-37.8
  0
LINE
  5
496
100
AcDbEntity
  8
DRAFT
100
AcDbLine
 62
7
  6
CONTINUOUS
 10
2.6884128464
 20
-52.8
 11
2.6884128464
 21
-51.6
  0
LINE
  5
497
100
AcDbEntity
  8
CURVE
100
AcDbLine
 62
250
  6
CONTINUOUS
 10
3.6384128464
 20
-33.0
 11
3.6384128464
 21
-29.0011357774
  0
LINE
  5
498
100
AcDbEntity
  8
ASSI
100
AcDbLine
 62
7
  6
CONTINUOUS
 10
3.6439641219
 20
-32.2
 11
3.6439641219
 21
-29.0053953824
  0
LINE
  5
499
100
AcDbEntity
  8
RACCORDO
100
AcDbLine
 62
7
  6
CONTINUOUS
 10
4.0384128464
 20
-36.8001523048
 11
4.0384128464
 21
-29.7998476952
  0
LINE
  5
49A
100
AcDbEntity
  8
RACCORDO
100
AcDbLine
 62
7
  6
CONTINUOUS
 10
5.0384128464
 20
-46.6
 11
5.0384128464
 21
-55.0000456915
  0
LINE
  5
49B
100
AcDbEntity
  8
0
100
AcDbLine
 62
7
  6
CONTINUOUS
 10
5.1384128464
 20
-37.4
 11
5.1384128464
 21
-33.2
  0
LINE
  5
49C
100
AcDbEntity
  8
RACCORDO
100
AcDbLine
 62
7
  6
CONTINUOUS
 10
5.2884128464
 20
-46.6
 11
5.2884128464
 21
-47.0033412824
  0
LINE
  5
49D
100
AcDbEntity
  8
RACCORDO
100
AcDbLine
 62
250
  6
CONTINUOUS
 10
7.2884128464
 20
-45.6
 11
7.2884128464
 21
-49.076973193
  0
LINE
  5
49E
100
AcDbEntity
  8
RACCORDO
100
AcDbLine
 62
7
  6
CONTINUOUS
 10
8.0384128464
 20
-24.2
 11
8.0384128464
 21
-33.2
  0
LINE
  5
49F
100
AcDbEntity
  8
RACCORDO
100
AcDbLine
 62
7
  6
CONTINUOUS
 10
8.0384128464
 20
-20.0
 11
8.0384128464
 21
-14.835976293
  0
LINE
  5
4A0
100
AcDbEntity
  8
RACCORDO
100
AcDbLine
 62
7
  6
CONTINUOUS
 10
8.1884128464
 20
-33.2
 11
8.1884128464
 21
-24.2
  0
LINE
  5
4A1
100
AcDbEntity
  8
RACCORDO
100
AcDbLine
 62
7
  6
CONTINUOUS
 10
8.1884128464
 20
-20.0
 11
8.1884128464
 21
-16.9497715471
  0
LINE
  5
4A2
100
AcDbEntity
  8
RACCORDO
100
AcDbLine
 62
250
  6
CONTINUOUS
 10
8.2588423719
 20
-16.9849836279
 11
8.2588423719
 21
-20.0
  0
LINE
  5
4A3
100
AcDbEntity
  8
DRAFT
100
AcDbLine
 62
7
  6
CONTINUOUS
 10
8.293143236
 20
-33.2
 11
8.293143236
 21
-24.2
  0
LINE
  5
4A4
100
AcDbEntity
  8
RACCORDO
100
AcDbLine
 62
7
  6
CONTINUOUS
 10
8.0376751635
 20
-14.8906307787
 11
7.9994241273
 21
-19.590104091
  0
LINE
  5
4A5
100
AcDbEntity
  8
0
100
AcDbLine
 62
7
  6
CONTINUOUS
 10
3.6382522656
 20
-25.0834447843
 11
3.6383925345
 21
-25.0715719269
  0
LWPOLYLINE
  5
4A6
100
AcDbEntity
  8
0
100
AcDbPolyline
 62
7
  6
CONTINUOUS
 90
6
 70
0
 10
-2.9656670382
 20
-27.5963067613
 10
-2.9659201854
 20
-27.5970316902
 10
-2.9675251323
 20
-27.6011319134
 10
-2.9671675059
 20
-27.6009365942
 10
-2.9624886066
 20
-27.5948028749
 10
-2.9512980516
 20
-27.5823764142
  0
LINE
  5
4A7
100
AcDbEntity
  8
RACCORDO
100
AcDbLine
 62
250
  6
CONTINUOUS
 10
-10.1817120694
 20
-14.9850597818
 11
-10.1115871652
 21
-14.95
  0
LINE
  5
4A8
100
AcDbEntity
  8
ASSI
100
AcDbLine
 62
7
  6
CONTINUOUS
 10
-18.9625896763
 20
3.3721433846
 11
-18.7088304436
 21
3.4305368554
  0
LINE
  5
4A9
100
AcDbEntity
  8
ASSI
100
AcDbLine
 62
7
  6
CONTINUOUS
 10
-34.4188338457
 20
2.5805874864
 11
-34.6495240572
 21
2.5459839547
  0
LINE
  5
4AA
100
AcDbEntity
  8
ASSI
100
AcDbLine
 62
7
  6
CONTINUOUS
 10
-40.3245032597
 20
2.5805874864
 11
-40.5551934712
 21
2.5459839547
  0
LINE
  5
4AB
100
AcDbEntity
  8
ASSI
100
AcDbLine
 62
7
  6
CONTINUOUS
 10
-35.1455080119
 20
3.4687448006
 11
-34.9148178004
 21
3.4918138218
  0
LINE
  5
4AC
100
AcDbEntity
  8
ASSI
100
AcDbLine
 62
7
  6
CONTINUOUS
 10
-38.0983427189
 20
3.4687448006
 11
-37.8676525074
 21
3.4918138218
  0
LINE
  5
4AD
100
AcDbEntity
  8
ASSI
100
AcDbLine
 62
7
  6
CONTINUOUS
 10
-24.2223264981
 20
2.6843980816
 11
-24.4645512202
 21
2.672863571
  0
LINE
  5
4AE
100
AcDbEntity
  8
ASSI
100
AcDbLine
 62
7
  6
CONTINUOUS
 10
-70.4872484112
 20
2.6843980816
 11
-70.7294731333
 21
2.672863571
  0
LINE
  5
4AF
100
AcDbEntity
  8
ASSI
100
AcDbLine
 62
7
  6
CONTINUOUS
 10
-23.2649621204
 20
3.4110722478
 11
-23.0112028878
 21
3.4226067583
  0
LINE
  5
4B0
100
AcDbEntity
  8
ASSI
100
AcDbLine
 62
7
  6
CONTINUOUS
 10
-69.5298840335
 20
3.4110722478
 11
-69.2761248009
 21
3.4226067583
  0
LINE
  5
4B1
100
AcDbEntity
  8
ASSI
100
AcDbLine
 62
7
  6
CONTINUOUS
 10
38.8057584947
 20
1.3302216218
 11
39.2543564947
 21
1.3302216218
  0
LINE
  5
4B2
100
AcDbEntity
  8
ASSI
100
AcDbLine
 62
7
  6
CONTINUOUS
 10
39.2543564947
 20
1.9283536218
 11
40.4985109484
 21
1.9283535905
  0
LINE
  5
4B3
100
AcDbEntity
  8
ASSI
100
AcDbLine
 62
7
  6
CONTINUOUS
 10
40.4985107403
 20
2.0031196649
 11
38.8742694947
 21
2.0031196218
  0
LINE
  5
4B4
100
AcDbEntity
  8
ASSI
100
AcDbLine
 62
7
  6
CONTINUOUS
 10
-79.229866738
 20
2.05
 11
-78.9568231273
 21
2.05
  0
LINE
  5
4B5
100
AcDbEntity
  8
ASSI
100
AcDbLine
 62
7
  6
CONTINUOUS
 10
-77.9846802844
 20
2.05
 11
-77.7309210518
 21
2.05
  0
LINE
  5
4B6
100
AcDbEntity
  8
ASSI
100
AcDbLine
 62
7
  6
CONTINUOUS
 10
-77.3041441606
 20
2.05
 11
-77.0503849279
 21
2.05
  0
LINE
  5
4B7
100
AcDbEntity
  8
ASSI
100
AcDbLine
 62
7
  6
CONTINUOUS
 10
-76.5015944403
 20
2.05
 11
-76.2856828699
 21
2.05
  0
LINE
  5
4B8
100
AcDbEntity
  8
ASSI
100
AcDbLine
 62
7
  6
CONTINUOUS
 10
-75.7239162119
 20
2.05
 11
-75.4701569793
 21
2.05
  0
LINE
  5
4B9
100
AcDbEntity
  8
ASSI
100
AcDbLine
 62
7
  6
CONTINUOUS
 10
-75.2765933362
 20
2.05
 11
-75.0087765563
 21
2.05
  0
LINE
  5
4BA
100
AcDbEntity
  8
ASSI
100
AcDbLine
 62
7
  6
CONTINUOUS
 10
-73.7861184354
 20
2.05
 11
-73.5163189553
 21
2.05
  0
LINE
  5
4BB
100
AcDbEntity
  8
ASSI
100
AcDbLine
 62
7
  6
CONTINUOUS
 10
-73.2901344807
 20
2.05
 11
-73.0363752481
 21
2.05
  0
LINE
  5
4BC
100
AcDbEntity
  8
ASSI
100
AcDbLine
 62
7
  6
CONTINUOUS
 10
-71.9384339898
 20
2.05
 11
-71.6403390097
 21
2.05
  0
LINE
  5
4BD
100
AcDbEntity
  8
ASSI
100
AcDbLine
 62
7
  6
CONTINUOUS
 10
-68.8724169308
 20
2.05
 11
-68.6186576982
 21
2.05
  0
LINE
  5
4BE
100
AcDbEntity
  8
ASSI
100
AcDbLine
 62
7
  6
CONTINUOUS
 10
-67.3293155506
 20
2.05
 11
-67.0614987707
 21
2.05
  0
LINE
  5
4BF
100
AcDbEntity
  8
ASSI
100
AcDbLine
 62
7
  6
CONTINUOUS
 10
-65.8388406498
 20
2.05
 11
-65.5690411697
 21
2.05
  0
LINE
  5
4C0
100
AcDbEntity
  8
ASSI
100
AcDbLine
 62
7
  6
CONTINUOUS
 10
-64.0619853329
 20
2.05
 11
-63.7889417222
 21
2.05
  0
LINE
  5
4C1
100
AcDbEntity
  8
ASSI
100
AcDbLine
 62
7
  6
CONTINUOUS
 10
-62.8167988794
 20
2.05
 11
-62.5630396467
 21
2.05
  0
LINE
  5
4C2
100
AcDbEntity
  8
ASSI
100
AcDbLine
 62
7
  6
CONTINUOUS
 10
-62.3233379614
 20
2.05
 11
-62.0555211815
 21
2.05
  0
LINE
  5
4C3
100
AcDbEntity
  8
ASSI
100
AcDbLine
 62
7
  6
CONTINUOUS
 10
-60.3599481271
 20
2.05
 11
-59.1603590273
 21
2.05
  0
LINE
  5
4C4
100
AcDbEntity
  8
ASSI
100
AcDbLine
 62
7
  6
CONTINUOUS
 10
-60.8328630606
 20
2.05
 11
-60.5630635804
 21
2.05
  0
LINE
  5
4C5
100
AcDbEntity
  8
ASSI
100
AcDbLine
 62
7
  6
CONTINUOUS
 10
-58.8604617524
 20
2.05
 11
-57.4532514624
 21
2.05
  0
LINE
  5
4C6
100
AcDbEntity
  8
ASSI
100
AcDbLine
 62
7
  6
CONTINUOUS
 10
-55.8148102724
 20
2.05
 11
-55.5417666616
 21
2.05
  0
LINE
  5
4C7
100
AcDbEntity
  8
ASSI
100
AcDbLine
 62
7
  6
CONTINUOUS
 10
-54.5696238188
 20
2.05
 11
-54.3158645862
 21
2.05
  0
LINE
  5
4C8
100
AcDbEntity
  8
ASSI
100
AcDbLine
 62
7
  6
CONTINUOUS
 10
-51.9397554079
 20
2.05
 11
-50.5325451178
 21
2.05
  0
LINE
  5
4C9
100
AcDbEntity
  8
ASSI
100
AcDbLine
 62
7
  6
CONTINUOUS
 10
-50.17497529
 20
2.05
 11
-49.9212160574
 21
2.05
  0
LINE
  5
4CA
100
AcDbEntity
  8
ASSI
100
AcDbLine
 62
7
  6
CONTINUOUS
 10
-48.9683572407
 20
2.05
 11
-48.6985579365
 21
2.05
  0
LINE
  5
4CB
100
AcDbEntity
  8
ASSI
100
AcDbLine
 62
7
  6
CONTINUOUS
 10
-48.4332641933
 20
2.05
 11
-46.9222433081
 21
2.05
  0
LINE
  5
4CC
100
AcDbEntity
  8
ASSI
100
AcDbLine
 62
7
  6
CONTINUOUS
 10
-46.8670937919
 20
2.05
 11
-46.599277012
 21
2.05
  0
LINE
  5
4CD
100
AcDbEntity
  8
ASSI
100
AcDbLine
 62
7
  6
CONTINUOUS
 10
-45.3766188912
 20
2.05
 11
-45.106819411
 21
2.05
  0
LINE
  5
4CE
100
AcDbEntity
  8
ASSI
100
AcDbLine
 62
7
  6
CONTINUOUS
 10
-43.6003042628
 20
2.05
 11
-43.3696140513
 21
2.05
  0
LINE
  5
4CF
100
AcDbEntity
  8
ASSI
100
AcDbLine
 62
7
  6
CONTINUOUS
 10
-42.0085418035
 20
2.05
 11
-41.777851592
 21
2.05
  0
LINE
  5
4D0
100
AcDbEntity
  8
ASSI
100
AcDbLine
 62
7
  6
CONTINUOUS
 10
-32.3656909635
 20
2.05
 11
-32.1119317309
 21
2.05
  0
LINE
  5
4D1
100
AcDbEntity
  8
ASSI
100
AcDbLine
 62
7
  6
CONTINUOUS
 10
-31.5631412432
 20
2.05
 11
-31.3472296729
 21
2.05
  0
LINE
  5
4D2
100
AcDbEntity
  8
ASSI
100
AcDbLine
 62
7
  6
CONTINUOUS
 10
-30.7854630148
 20
2.05
 11
-30.5317037822
 21
2.05
  0
LINE
  5
4D3
100
AcDbEntity
  8
ASSI
100
AcDbLine
 62
7
  6
CONTINUOUS
 10
-30.3381401391
 20
2.05
 11
-30.0703233592
 21
2.05
  0
LINE
  5
4D4
100
AcDbEntity
  8
ASSI
100
AcDbLine
 62
7
  6
CONTINUOUS
 10
-28.8476652384
 20
2.05
 11
-28.5778657582
 21
2.05
  0
LINE
  5
4D5
100
AcDbEntity
  8
ASSI
100
AcDbLine
 62
7
  6
CONTINUOUS
 10
-28.3516812837
 20
2.05
 11
-28.097922051
 21
2.05
  0
LINE
  5
4D6
100
AcDbEntity
  8
ASSI
100
AcDbLine
 62
7
  6
CONTINUOUS
 10
-26.9999807927
 20
2.05
 11
-26.7018858126
 21
2.05
  0
LINE
  5
4D7
100
AcDbEntity
  8
ASSI
100
AcDbLine
 62
7
  6
CONTINUOUS
 10
-22.1345800842
 20
2.05
 11
-21.8808208515
 21
2.05
  0
LINE
  5
4D8
100
AcDbEntity
  8
ASSI
100
AcDbLine
 62
7
  6
CONTINUOUS
 10
-20.9695945162
 20
2.05
 11
-20.7158352835
 21
2.05
  0
LINE
  5
4D9
100
AcDbEntity
  8
ASSI
100
AcDbLine
 62
7
  6
CONTINUOUS
 10
-18.5614048429
 20
2.05
 11
-18.293588063
 21
2.05
  0
LINE
  5
4DA
100
AcDbEntity
  8
ASSI
100
AcDbLine
 62
7
  6
CONTINUOUS
 10
-17.0709299421
 20
2.05
 11
-16.8011304619
 21
2.05
  0
LINE
  5
4DB
100
AcDbEntity
  8
ASSI
100
AcDbLine
 62
7
  6
CONTINUOUS
 10
-15.2940746252
 20
2.05
 11
-15.0210310145
 21
2.05
  0
LINE
  5
4DC
100
AcDbEntity
  8
ASSI
100
AcDbLine
 62
7
  6
CONTINUOUS
 10
-14.0488881717
 20
2.05
 11
-13.795128939
 21
2.05
  0
LINE
  5
4DD
100
AcDbEntity
  8
ASSI
100
AcDbLine
 62
7
  6
CONTINUOUS
 10
-12.5724708182
 20
2.05
 11
-12.3187115855
 21
2.05
  0
LINE
  5
4DE
100
AcDbEntity
  8
ASSI
100
AcDbLine
 62
7
  6
CONTINUOUS
 10
-11.384416229
 20
2.05
 11
-11.1306569964
 21
2.05
  0
LINE
  5
4DF
100
AcDbEntity
  8
ASSI
100
AcDbLine
 62
7
  6
CONTINUOUS
 10
-10.4641784198
 20
2.05
 11
-10.1963616399
 21
2.05
  0
LINE
  5
4E0
100
AcDbEntity
  8
ASSI
100
AcDbLine
 62
7
  6
CONTINUOUS
 10
-8.973703519
 20
2.05
 11
-8.7039040389
 21
2.05
  0
LINE
  5
4E1
100
AcDbEntity
  8
ASSI
100
AcDbLine
 62
7
  6
CONTINUOUS
 10
-8.5007885855
 20
2.05
 11
-7.3011994858
 21
2.05
  0
LINE
  5
4E2
100
AcDbEntity
  8
ASSI
100
AcDbLine
 62
7
  6
CONTINUOUS
 10
-6.4808073992
 20
2.05
 11
-6.2270481665
 21
2.05
  0
LINE
  5
4E3
100
AcDbEntity
  8
ASSI
100
AcDbLine
 62
7
  6
CONTINUOUS
 10
-7.3011994858
 20
2.2691557009
 11
-8.2470293528
 21
2.2691557009
  0
LINE
  5
4E4
100
AcDbEntity
  8
ASSI
100
AcDbLine
 62
7
  6
CONTINUOUS
 10
-46.9222433081
 20
2.2691557009
 11
-48.1458024004
 21
2.2691557009
  0
LINE
  5
4E5
100
AcDbEntity
  8
ASSI
100
AcDbLine
 62
7
  6
CONTINUOUS
 10
-50.5325451178
 20
2.2691557009
 11
-51.6859961753
 21
2.2691557009
  0
LINE
  5
4E6
100
AcDbEntity
  8
ASSI
100
AcDbLine
 62
7
  6
CONTINUOUS
 10
-57.4532514624
 20
2.2691557009
 11
-58.6067025198
 21
2.2691557009
  0
LINE
  5
4E7
100
AcDbEntity
  8
ASSI
100
AcDbLine
 62
7
  6
CONTINUOUS
 10
-59.1603590273
 20
2.2691557009
 11
-60.1061888944
 21
2.2691557009
  0
LINE
  5
4E8
100
AcDbEntity
  8
ASSI
100
AcDbLine
 62
7
  6
CONTINUOUS
 10
-42.8505610754
 20
2.4998459124
 11
-42.0085418035
 21
2.4998459124
  0
LINE
  5
4E9
100
AcDbEntity
  8
ASSI
100
AcDbLine
 62
7
  6
CONTINUOUS
 10
-41.777851592
 20
2.4998459124
 11
-41.5240923594
 21
2.4998459124
  0
LINE
  5
4EA
100
AcDbEntity
  8
ASSI
100
AcDbLine
 62
7
  6
CONTINUOUS
 10
-74.8081841396
 20
2.6267255287
 11
-73.9984254162
 21
2.6267255287
  0
LINE
  5
4EB
100
AcDbEntity
  8
ASSI
100
AcDbLine
 62
7
  6
CONTINUOUS
 10
-66.860906354
 20
2.6267255287
 11
-66.0511476306
 21
2.6267255287
  0
LINE
  5
4EC
100
AcDbEntity
  8
ASSI
100
AcDbLine
 62
7
  6
CONTINUOUS
 10
-61.8549287648
 20
2.6267255287
 11
-61.0451700414
 21
2.6267255287
  0
LINE
  5
4ED
100
AcDbEntity
  8
ASSI
100
AcDbLine
 62
7
  6
CONTINUOUS
 10
-46.3986845953
 20
2.6267255287
 11
-45.5889258719
 21
2.6267255287
  0
LINE
  5
4EE
100
AcDbEntity
  8
ASSI
100
AcDbLine
 62
7
  6
CONTINUOUS
 10
-29.8697309425
 20
2.6267255287
 11
-29.0599722191
 21
2.6267255287
  0
LINE
  5
4EF
100
AcDbEntity
  8
ASSI
100
AcDbLine
 62
7
  6
CONTINUOUS
 10
-18.0929956463
 20
2.6267255287
 11
-17.2832369229
 21
2.6267255287
  0
LINE
  5
4F0
100
AcDbEntity
  8
ASSI
100
AcDbLine
 62
7
  6
CONTINUOUS
 10
-9.9957692232
 20
2.6267255287
 11
-9.1860104998
 21
2.6267255287
  0
LINE
  5
4F1
100
AcDbEntity
  8
ASSI
100
AcDbLine
 62
7
  6
CONTINUOUS
 10
28.6102868464
 20
2.667488
 11
30.0988228464
 21
2.667488
  0
LINE
  5
4F2
100
AcDbEntity
  8
ASSI
100
AcDbLine
 62
7
  6
CONTINUOUS
 10
-41.5240923594
 20
2.7190016133
 11
-41.777851592
 21
2.7190016133
  0
LINE
  5
4F3
100
AcDbEntity
  8
ASSI
100
AcDbLine
 62
7
  6
CONTINUOUS
 10
-42.0085418035
 20
2.7190016133
 11
-42.619510405
 21
2.7190016133
  0
LINE
  5
4F4
100
AcDbEntity
  8
ASSI
100
AcDbLine
 62
7
  6
CONTINUOUS
 10
-68.6186576982
 20
2.834346719
 11
-68.1450218467
 21
2.834346719
  0
LINE
  5
4F5
100
AcDbEntity
  8
ASSI
100
AcDbLine
 62
7
  6
CONTINUOUS
 10
-9.2626067958
 20
2.834346719
 11
-9.9234982586
 21
2.834346719
  0
LINE
  5
4F6
100
AcDbEntity
  8
ASSI
100
AcDbLine
 62
7
  6
CONTINUOUS
 10
-17.3598332189
 20
2.834346719
 11
-18.0207246817
 21
2.834346719
  0
LINE
  5
4F7
100
AcDbEntity
  8
ASSI
100
AcDbLine
 62
7
  6
CONTINUOUS
 10
-29.1365685151
 20
2.834346719
 11
-29.7974599779
 21
2.834346719
  0
LINE
  5
4F8
100
AcDbEntity
  8
ASSI
100
AcDbLine
 62
7
  6
CONTINUOUS
 10
-45.665522168
 20
2.834346719
 11
-46.3264136308
 21
2.834346719
  0
LINE
  5
4F9
100
AcDbEntity
  8
ASSI
100
AcDbLine
 62
7
  6
CONTINUOUS
 10
-61.1217663374
 20
2.834346719
 11
-61.7826578002
 21
2.834346719
  0
LINE
  5
4FA
100
AcDbEntity
  8
ASSI
100
AcDbLine
 62
7
  6
CONTINUOUS
 10
-66.1277439266
 20
2.834346719
 11
-66.7886353894
 21
2.834346719
  0
LINE
  5
4FB
100
AcDbEntity
  8
ASSI
100
AcDbLine
 62
7
  6
CONTINUOUS
 10
-74.0750217122
 20
2.834346719
 11
-74.735913175
 21
2.834346719
  0
LINE
  5
4FC
100
AcDbEntity
  8
ASSI
100
AcDbLine
 62
7
  6
CONTINUOUS
 10
-73.0363752481
 20
2.8920192719
 11
-72.7471113364
 21
2.8920192719
  0
LINE
  5
4FD
100
AcDbEntity
  8
ASSI
100
AcDbLine
 62
7
  6
CONTINUOUS
 10
-28.097922051
 20
2.8920192719
 11
-27.8086581393
 21
2.8920192719
  0
LINE
  5
4FE
100
AcDbEntity
  8
ASSI
100
AcDbLine
 62
7
  6
CONTINUOUS
 10
-58.6067025198
 20
2.9266228036
 11
-57.5685965681
 21
2.9266228036
  0
LINE
  5
4FF
100
AcDbEntity
  8
ASSI
100
AcDbLine
 62
7
  6
CONTINUOUS
 10
-51.6859961753
 20
2.9266228036
 11
-50.6478902236
 21
2.9266228036
  0
LINE
  5
500
100
AcDbEntity
  8
ASSI
100
AcDbLine
 62
7
  6
CONTINUOUS
 10
-68.1423184046
 20
3.05350242
 11
-68.6186576982
 21
3.05350242
  0
LINE
  5
501
100
AcDbEntity
  8
ASSI
100
AcDbLine
 62
7
  6
CONTINUOUS
 10
-27.5619276803
 20
3.1111749728
 11
-28.097922051
 21
3.1111749728
  0
LINE
  5
502
100
AcDbEntity
  8
ASSI
100
AcDbLine
 62
7
  6
CONTINUOUS
 10
-72.5003808774
 20
3.1111749728
 11
-73.0363752481
 21
3.1111749728
  0
LINE
  5
503
100
AcDbEntity
  8
ASSI
100
AcDbLine
 62
7
  6
CONTINUOUS
 10
-50.6478902236
 20
3.1457785045
 11
-51.6859961753
 21
3.1457785045
  0
LINE
  5
504
100
AcDbEntity
  8
ASSI
100
AcDbLine
 62
7
  6
CONTINUOUS
 10
-57.5685965681
 20
3.1457785045
 11
-58.6067025198
 21
3.1457785045
  0
LINE
  5
505
100
AcDbEntity
  8
ASSI
100
AcDbLine
 62
7
  6
CONTINUOUS
 10
30.0988228464
 20
3.432488
 11
28.6102863821
 21
3.432488
  0
LINE
  5
506
100
AcDbEntity
  8
ASSI
100
AcDbLine
 62
7
  6
CONTINUOUS
 10
-73.0363752481
 20
3.7340385438
 11
-72.4398246528
 21
3.7340385438
  0
LINE
  5
507
100
AcDbEntity
  8
ASSI
100
AcDbLine
 62
7
  6
CONTINUOUS
 10
-68.6186576982
 20
3.7340385438
 11
-68.1473646539
 21
3.7340385438
  0
LINE
  5
508
100
AcDbEntity
  8
ASSI
100
AcDbLine
 62
7
  6
CONTINUOUS
 10
-58.6067025198
 20
3.7340385438
 11
-57.4993895047
 21
3.7340385438
  0
LINE
  5
509
100
AcDbEntity
  8
ASSI
100
AcDbLine
 62
7
  6
CONTINUOUS
 10
-51.6859961753
 20
3.7340385438
 11
-50.5786831601
 21
3.7340385438
  0
LINE
  5
50A
100
AcDbEntity
  8
ASSI
100
AcDbLine
 62
7
  6
CONTINUOUS
 10
-48.3179190876
 20
3.7340385438
 11
-47.2632322
 21
3.7340385438
  0
LINE
  5
50B
100
AcDbEntity
  8
ASSI
100
AcDbLine
 62
7
  6
CONTINUOUS
 10
-28.097922051
 20
3.7340385438
 11
-27.5013714558
 21
3.7340385438
  0
LINE
  5
50C
100
AcDbEntity
  8
ASSI
100
AcDbLine
 62
7
  6
CONTINUOUS
 10
-22.7574436552
 20
3.7340385438
 11
-22.1345800842
 21
3.7340385438
  0
LINE
  5
50D
100
AcDbEntity
  8
ASSI
100
AcDbLine
 62
7
  6
CONTINUOUS
 10
-21.8808208515
 20
3.7340385438
 11
-21.2579572805
 21
3.7340385438
  0
LINE
  5
50E
100
AcDbEntity
  8
ASSI
100
AcDbLine
 62
7
  6
CONTINUOUS
 10
-12.0072798
 20
3.7340385438
 11
-11.384416229
 21
3.7340385438
  0
LINE
  5
50F
100
AcDbEntity
  8
ASSI
100
AcDbLine
 62
7
  6
CONTINUOUS
 10
-11.1306569964
 20
3.7340385438
 11
-10.5077934254
 21
3.7340385438
  0
LINE
  5
510
100
AcDbEntity
  8
ASSI
100
AcDbLine
 62
7
  6
CONTINUOUS
 10
-5.4657704686
 20
3.9531942447
 11
-5.7719755993
 21
3.9531942447
  0
LINE
  5
511
100
AcDbEntity
  8
ASSI
100
AcDbLine
 62
7
  6
CONTINUOUS
 10
-6.9056017662
 20
3.9531942447
 11
-7.2074815653
 21
3.9531942447
  0
LINE
  5
512
100
AcDbEntity
  8
ASSI
100
AcDbLine
 62
7
  6
CONTINUOUS
 10
-8.2470293528
 20
3.9531942447
 11
-8.5007885855
 21
3.9531942447
  0
LINE
  5
513
100
AcDbEntity
  8
ASSI
100
AcDbLine
 62
7
  6
CONTINUOUS
 10
-9.4662631136
 20
3.9531942447
 11
-9.7407483842
 21
3.9531942447
  0
LINE
  5
514
100
AcDbEntity
  8
ASSI
100
AcDbLine
 62
7
  6
CONTINUOUS
 10
-10.5077934254
 20
3.9531942447
 11
-12.0072798
 21
3.9531942447
  0
LINE
  5
515
100
AcDbEntity
  8
ASSI
100
AcDbLine
 62
7
  6
CONTINUOUS
 10
-12.3187115855
 20
3.9531942447
 11
-12.5724708182
 21
3.9531942447
  0
LINE
  5
516
100
AcDbEntity
  8
ASSI
100
AcDbLine
 62
7
  6
CONTINUOUS
 10
-13.795128939
 20
3.9531942447
 11
-14.0488881717
 21
3.9531942447
  0
LINE
  5
517
100
AcDbEntity
  8
ASSI
100
AcDbLine
 62
7
  6
CONTINUOUS
 10
-14.2619160703
 20
3.9531942447
 11
-14.5333376158
 21
3.9531942447
  0
LINE
  5
518
100
AcDbEntity
  8
ASSI
100
AcDbLine
 62
7
  6
CONTINUOUS
 10
-15.7559957366
 20
3.9531942447
 11
-16.0257950408
 21
3.9531942447
  0
LINE
  5
519
100
AcDbEntity
  8
ASSI
100
AcDbLine
 62
7
  6
CONTINUOUS
 10
-17.5634895367
 20
3.9531942447
 11
-17.8379748073
 21
3.9531942447
  0
LINE
  5
51A
100
AcDbEntity
  8
ASSI
100
AcDbLine
 62
7
  6
CONTINUOUS
 10
-20.7158352835
 20
3.9531942447
 11
-20.9695945162
 21
3.9531942447
  0
LINE
  5
51B
100
AcDbEntity
  8
ASSI
100
AcDbLine
 62
7
  6
CONTINUOUS
 10
-21.2579572805
 20
3.9531942447
 11
-22.7574436552
 21
3.9531942447
  0
LINE
  5
51C
100
AcDbEntity
  8
ASSI
100
AcDbLine
 62
7
  6
CONTINUOUS
 10
-27.51164436
 20
3.9531942447
 11
-28.3516812837
 21
3.9531942447
  0
LINE
  5
51D
100
AcDbEntity
  8
ASSI
100
AcDbLine
 62
7
  6
CONTINUOUS
 10
-29.340224833
 20
3.9531942447
 11
-29.6147101035
 21
3.9531942447
  0
LINE
  5
51E
100
AcDbEntity
  8
ASSI
100
AcDbLine
 62
7
  6
CONTINUOUS
 10
-30.5317037822
 20
3.9531942447
 11
-30.8618790814
 21
3.9531942447
  0
LINE
  5
51F
100
AcDbEntity
  8
ASSI
100
AcDbLine
 62
7
  6
CONTINUOUS
 10
-31.9789243123
 20
3.9531942447
 11
-32.3656909635
 21
3.9531942447
  0
LINE
  5
520
100
AcDbEntity
  8
ASSI
100
AcDbLine
 62
7
  6
CONTINUOUS
 10
-41.777851592
 20
3.9531942447
 11
-41.9624037612
 21
3.9531942447
  0
LINE
  5
521
100
AcDbEntity
  8
ASSI
100
AcDbLine
 62
7
  6
CONTINUOUS
 10
-45.8691784858
 20
3.9531942447
 11
-46.1436637564
 21
3.9531942447
  0
LINE
  5
522
100
AcDbEntity
  8
ASSI
100
AcDbLine
 62
7
  6
CONTINUOUS
 10
-46.9683813504
 20
3.9531942447
 11
-48.3179190876
 21
3.9531942447
  0
LINE
  5
523
100
AcDbEntity
  8
ASSI
100
AcDbLine
 62
7
  6
CONTINUOUS
 10
-48.6985579365
 20
3.9531942447
 11
-48.9523171692
 21
3.9531942447
  0
LINE
  5
524
100
AcDbEntity
  8
ASSI
100
AcDbLine
 62
7
  6
CONTINUOUS
 10
-49.9051758099
 20
3.9531942447
 11
-50.17497529
 21
3.9531942447
  0
LINE
  5
525
100
AcDbEntity
  8
ASSI
100
AcDbLine
 62
7
  6
CONTINUOUS
 10
-50.5786831601
 20
3.9531942447
 11
-51.9397554079
 21
3.9531942447
  0
LINE
  5
526
100
AcDbEntity
  8
ASSI
100
AcDbLine
 62
7
  6
CONTINUOUS
 10
-54.3158645862
 20
3.9531942447
 11
-54.5696238188
 21
3.9531942447
  0
LINE
  5
527
100
AcDbEntity
  8
ASSI
100
AcDbLine
 62
7
  6
CONTINUOUS
 10
-54.7826517175
 20
3.9531942447
 11
-55.0540732629
 21
3.9531942447
  0
LINE
  5
528
100
AcDbEntity
  8
ASSI
100
AcDbLine
 62
7
  6
CONTINUOUS
 10
-56.2767313838
 20
3.9531942447
 11
-56.5465306879
 21
3.9531942447
  0
LINE
  5
529
100
AcDbEntity
  8
ASSI
100
AcDbLine
 62
7
  6
CONTINUOUS
 10
-57.4993895047
 20
3.9531942447
 11
-58.8604617524
 21
3.9531942447
  0
LINE
  5
52A
100
AcDbEntity
  8
ASSI
100
AcDbLine
 62
7
  6
CONTINUOUS
 10
-60.1061888944
 20
3.9531942447
 11
-60.3599481271
 21
3.9531942447
  0
LINE
  5
52B
100
AcDbEntity
  8
ASSI
100
AcDbLine
 62
7
  6
CONTINUOUS
 10
-61.3254226552
 20
3.9531942447
 11
-61.5999079258
 21
3.9531942447
  0
LINE
  5
52C
100
AcDbEntity
  8
ASSI
100
AcDbLine
 62
7
  6
CONTINUOUS
 10
-62.5630396467
 20
3.9531942447
 11
-62.8167988794
 21
3.9531942447
  0
LINE
  5
52D
100
AcDbEntity
  8
ASSI
100
AcDbLine
 62
7
  6
CONTINUOUS
 10
-63.029826778
 20
3.9531942447
 11
-63.3012483235
 21
3.9531942447
  0
LINE
  5
52E
100
AcDbEntity
  8
ASSI
100
AcDbLine
 62
7
  6
CONTINUOUS
 10
-64.5239064443
 20
3.9531942447
 11
-64.7937057485
 21
3.9531942447
  0
LINE
  5
52F
100
AcDbEntity
  8
ASSI
100
AcDbLine
 62
7
  6
CONTINUOUS
 10
-66.3314002444
 20
3.9531942447
 11
-66.605885515
 21
3.9531942447
  0
LINE
  5
530
100
AcDbEntity
  8
ASSI
100
AcDbLine
 62
7
  6
CONTINUOUS
 10
-68.1713348225
 20
3.9531942447
 11
-68.8724169308
 21
3.9531942447
  0
LINE
  5
531
100
AcDbEntity
  8
ASSI
100
AcDbLine
 62
7
  6
CONTINUOUS
 10
-72.4500975571
 20
3.9531942447
 11
-73.2901344807
 21
3.9531942447
  0
LINE
  5
532
100
AcDbEntity
  8
ASSI
100
AcDbLine
 62
7
  6
CONTINUOUS
 10
-74.27867803
 20
3.9531942447
 11
-74.5531633006
 21
3.9531942447
  0
LINE
  5
533
100
AcDbEntity
  8
ASSI
100
AcDbLine
 62
7
  6
CONTINUOUS
 10
-75.4701569793
 20
3.9531942447
 11
-75.8003322784
 21
3.9531942447
  0
LINE
  5
534
100
AcDbEntity
  8
ASSI
100
AcDbLine
 62
7
  6
CONTINUOUS
 10
-76.9173775094
 20
3.9531942447
 11
-77.3041441606
 21
3.9531942447
  0
LINE
  5
535
100
AcDbEntity
  8
ASSI
100
AcDbLine
 62
7
  6
CONTINUOUS
 10
-77.7309210518
 20
3.9531942447
 11
-77.9846802844
 21
3.9531942447
  0
LINE
  5
536
100
AcDbEntity
  8
ASSI
100
AcDbLine
 62
7
  6
CONTINUOUS
 10
-78.1977081831
 20
3.9531942447
 11
-78.4691297285
 21
3.9531942447
  0
LINE
  5
537
100
AcDbEntity
  8
ASSI
100
AcDbLine
 62
7
  6
CONTINUOUS
 10
-79.6917878494
 20
3.9531942447
 11
-79.9615871536
 21
3.9531942447
  0
LINE
  5
538
100
AcDbEntity
  8
ASSI
100
AcDbLine
 62
7
  6
CONTINUOUS
 10
-43.3696140513
 20
3.9647287553
 11
-43.5183010824
 21
3.9647287553
  0
LINE
  5
539
100
AcDbEntity
  8
ASSI
100
AcDbLine
 62
7
  6
CONTINUOUS
 10
39.5441704947
 20
5.4797546218
 11
40.8525824947
 21
5.4797546218
  0
LINE
  5
53A
100
AcDbEntity
  8
ASSI
100
AcDbLine
 62
7
  6
CONTINUOUS
 10
40.7778154947
 20
5.5545216218
 11
39.6189374947
 21
5.5545216218
  0
LINE
  5
53B
100
AcDbEntity
  8
ASSI
100
AcDbLine
 62
7
  6
CONTINUOUS
 10
39.6189374947
 20
5.7788216218
 11
40.7778154947
 21
5.7788216218
  0
LINE
  5
53C
100
AcDbEntity
  8
ASSI
100
AcDbLine
 62
7
  6
CONTINUOUS
 10
40.8525824947
 20
5.8535866218
 11
39.5441704947
 21
5.8535866218
  0
LINE
  5
53D
100
AcDbEntity
  8
ASSI
100
AcDbLine
 62
7
  6
CONTINUOUS
 10
41.5668424947
 20
5.8535866218
 11
42.2357604947
 21
5.8535866218
  0
LINE
  5
53E
100
AcDbEntity
  8
ASSI
100
AcDbLine
 62
7
  6
CONTINUOUS
 10
42.1609934947
 20
5.9283536218
 11
41.5734954947
 21
5.9283536218
  0
LINE
  5
53F
100
AcDbEntity
  8
ASSI
100
AcDbLine
 62
7
  6
CONTINUOUS
 10
41.6322554947
 20
6.6012496218
 11
42.0349214947
 21
6.6012496218
  0
LINE
  5
540
100
AcDbEntity
  8
ASSI
100
AcDbLine
 62
7
  6
CONTINUOUS
 10
41.4133304947
 20
6.6012496218
 11
41.5572024947
 21
6.6012496218
  0
LINE
  5
541
100
AcDbEntity
  8
ASSI
100
AcDbLine
 62
7
  6
CONTINUOUS
 10
42.1096884947
 20
6.6760166218
 11
41.6387954947
 21
6.6760166218
  0
LINE
  5
542
100
AcDbEntity
  8
ASSI
100
AcDbLine
 62
7
  6
CONTINUOUS
 10
41.5637434947
 20
6.6760166218
 11
41.3385634947
 21
6.6760166218
  0
LINE
  5
543
100
AcDbEntity
  8
ASSI
100
AcDbLine
 62
7
  6
CONTINUOUS
 10
37.7497794947
 20
6.9750816218
 11
38.3642264947
 21
6.9750816218
  0
LINE
  5
544
100
AcDbEntity
  8
ASSI
100
AcDbLine
 62
7
  6
CONTINUOUS
 10
38.4392794947
 20
6.9750816218
 11
41.5899094947
 21
6.9750816218
  0
LINE
  5
545
100
AcDbEntity
  8
ASSI
100
AcDbLine
 62
7
  6
CONTINUOUS
 10
41.6649604947
 20
6.9750816218
 11
41.8993104947
 21
6.9750816218
  0
LINE
  5
546
100
AcDbEntity
  8
ASSI
100
AcDbLine
 62
7
  6
CONTINUOUS
 10
41.3843594852
 20
7.2741476196
 11
38.9086574947
 21
7.2741476218
  0
LINE
  5
547
100
AcDbEntity
  8
ASSI
100
AcDbLine
 62
7
  6
CONTINUOUS
 10
38.5348254947
 20
7.2741476218
 11
38.4131144947
 21
7.2741476218
  0
LINE
  5
548
100
AcDbEntity
  8
ASSI
100
AcDbLine
 62
7
  6
CONTINUOUS
 10
38.3380624947
 20
7.2741476218
 11
37.7497794947
 21
7.2741476218
  0
LINE
  5
549
100
AcDbEntity
  8
ASSI
100
AcDbLine
 62
7
  6
CONTINUOUS
 10
38.8338904947
 20
7.3489146218
 11
38.6095924947
 21
7.3489146218
  0
LINE
  5
54A
100
AcDbEntity
  8
ASSI
100
AcDbLine
 62
7
  6
CONTINUOUS
 10
39.6937044947
 20
7.5732136218
 11
40.7030494947
 21
7.5732136218
  0
LINE
  5
54B
100
AcDbEntity
  8
ASSI
100
AcDbLine
 62
7
  6
CONTINUOUS
 10
40.6282824947
 20
7.6479796218
 11
39.7684704947
 21
7.6479796218
  0
LINE
  5
54C
100
AcDbEntity
  8
ASSI
100
AcDbLine
 62
7
  6
CONTINUOUS
 10
38.6095924947
 20
7.8348946218
 11
38.8338904947
 21
7.8348946218
  0
LINE
  5
54D
100
AcDbEntity
  8
ASSI
100
AcDbLine
 62
7
  6
CONTINUOUS
 10
38.9086574947
 20
7.9096616218
 11
38.5348254947
 21
7.9096616218
  0
LINE
  5
54E
100
AcDbEntity
  8
ASSI
100
AcDbLine
 62
7
  6
CONTINUOUS
 10
39.7684704947
 20
7.9470446218
 11
40.6282824947
 21
7.9470446218
  0
LINE
  5
54F
100
AcDbEntity
  8
ASSI
100
AcDbLine
 62
7
  6
CONTINUOUS
 10
40.7030494947
 20
8.0218116218
 11
39.6937044947
 21
8.0218116218
  0
LINE
  5
550
100
AcDbEntity
  8
RACCORDO
100
AcDbLine
 62
250
  6
CONTINUOUS
 10
10.2585377622
 20
-14.9850597818
 11
10.2585377622
 21
-20.0
  0
LWPOLYLINE
  5
551
100
AcDbEntity
  8
0
100
AcDbPolyline
 62
7
  6
CONTINUOUS
 90
28
 70
0
 10
3.0420031376
 20
-30.0480373529
 10
3.0424463454
 20
-30.0466892166
 10
3.044205897
 20
-30.0420596016
 10
3.0442494978
 20
-30.0415493877
 10
3.040142588
 20
-30.0470313442
 10
3.0295983017
 20
-30.0589532923
 10
3.0121462451
 20
-30.0757204235
 10
2.9879907362
 20
-30.0958089491
 10
2.9567677036
 20
-30.1186885591
 10
2.9177619429
 20
-30.1442202944
 10
2.870981249
 20
-30.1718770508
 10
2.8160568454
 20
-30.2014828419
 10
2.7527534669
 20
-30.2328395554
 10
2.681341309
 20
-30.2655762877
 10
2.6015710885
 20
-30.2996340822
 10
2.5134163611
 20
-30.3348844388
 10
2.4176151855
 20
-30.3709540061
 10
2.3142782058
 20
-30.4077726385
 10
2.2034458903
 20
-30.4453138452
 10
2.0859253823
 20
-30.4833211836
 10
1.9620336195
 20
-30.5217367715
 10
1.8319157269
 20
-30.560568176
 10
1.6962258233
 20
-30.5996841882
 10
1.5553170997
 20
-30.6390588006
 10
1.4094789763
 20
-30.6786912765
 10
1.2593183103
 20
-30.7185029208
 10
1.1052674316
 20
-30.7584713601
 10
0.9476611925
 20
-30.7986043607
  0
LWPOLYLINE
  5
552
100
AcDbEntity
  8
0
100
AcDbPolyline
 62
7
  6
CONTINUOUS
 90
6
 70
0
 10
3.0424360514
 20
-25.0467166184
 10
3.0426898636
 20
-25.0459837968
 10
3.0442852981
 20
-25.0418531245
 10
3.0437990106
 20
-25.0422054225
 10
3.0386966658
 20
-25.0488043594
 10
3.026598355
 20
-25.062035169
  0
LINE
  5
553
100
AcDbEntity
  8
RACCORDO
100
AcDbLine
 62
250
  6
CONTINUOUS
 10
-8.182016679
 20
-16.9849836279
 11
-8.1115871536
 21
-16.9497715471
  0
LINE
  5
554
100
AcDbEntity
  8
ASSI
100
AcDbLine
 62
7
  6
CONTINUOUS
 10
-52.5626189789
 20
3.3721433846
 11
-52.3088597463
 21
3.4305368554
  0
LINE
  5
555
100
AcDbEntity
  8
0
100
AcDbLine
 62
7
  6
CONTINUOUS
 10
-100.1615871536
 20
9.55
 11
-102.9615871536
 21
9.55
  0
LINE
  5
556
100
AcDbEntity
  8
DRAFT
100
AcDbLine
 62
7
  6
CONTINUOUS
 10
-104.9615871536
 20
9.55
 11
-105.0384128464
 21
9.55
  0
LINE
  5
557
100
AcDbEntity
  8
RACCORDO
100
AcDbLine
 62
7
  6
CONTINUOUS
 10
-99.9615871536
 20
9.8
 11
-102.9615871536
 21
9.8
  0
LINE
  5
558
100
AcDbEntity
  8
ASSI
100
AcDbLine
 62
7
  6
CONTINUOUS
 10
36.6656664947
 20
7.9609676218
 11
36.5599304947
 21
7.8552316218
  0
LINE
  5
559
100
AcDbEntity
  8
0
100
AcDbLine
 62
7
  6
CONTINUOUS
 10
-2.9512980516
 20
-27.5823764142
 11
-2.9330788892
 21
-27.5651494598
  0
LINE
  5
55A
100
AcDbEntity
  8
0
100
AcDbLine
 62
7
  6
CONTINUOUS
 10
3.026598355
 20
-25.062035169
 11
3.0069925272
 21
-25.0802460402
  0
LWPOLYLINE
  5
55B
100
AcDbEntity
  8
0
100
AcDbPolyline
 62
7
  6
CONTINUOUS
 90
22
 70
0
 10
-2.9330788892
 20
-27.5651494598
 10
-2.9078463283
 20
-27.5444790417
 10
-2.8750192839
 20
-27.5207877571
 10
-2.8338713208
 20
-27.4942814414
 10
-2.7845205496
 20
-27.4655911674
 10
-2.7265712167
 20
-27.434894511
 10
-2.6597892395
 20
-27.4024022325
 10
-2.5847559542
 20
-27.3686237322
 10
-2.5014328028
 20
-27.3336817904
 10
-2.4097325982
 20
-27.2976479167
 10
-2.3103389622
 20
-27.2608491775
 10
-2.2033933377
 20
-27.2233523377
 10
-2.0889785116
 20
-27.185185276
 10
-1.9678157575
 20
-27.1465622125
 10
-1.8401935334
 20
-27.1075254157
 10
-1.7063199864
 20
-27.0680809256
 10
-1.5668831277
 20
-27.0283615829
 10
-1.4222859896
 20
-26.9884003188
 10
-1.2728139387
 20
-26.9481899562
 10
-1.1190218874
 20
-26.9077888718
 10
-0.9613140543
 20
-26.8672073692
 10
-0.8000870575
 20
-26.8264489158
  0
LWPOLYLINE
  5
55C
100
AcDbEntity
  8
0
100
AcDbPolyline
 62
7
  6
CONTINUOUS
 90
21
 70
0
 10
3.0069925272
 20
-25.0802460402
 10
2.9801261597
 20
-25.1018380374
 10
2.9456333351
 20
-25.1262636905
 10
2.9027716169
 20
-25.15337973
 10
2.8515665943
 20
-25.1826448148
 10
2.7916102103
 20
-25.2138959176
 10
2.7226927961
 20
-25.2469171621
 10
2.6452226975
 20
-25.2812855097
 10
2.5590133103
 20
-25.3169282395
 10
2.464043598
 20
-25.3537320868
 10
2.3611333688
 20
-25.3913178391
 10
2.250458676
 20
-25.429610019
 10
2.1320854467
 20
-25.4685907006
 10
2.0068413267
 20
-25.5080190494
 10
1.875070638
 20
-25.5478441153
 10
1.7369789362
 20
-25.5880691043
 10
1.5932866801
 20
-25.628561112
 10
1.4444115596
 20
-25.6692910938
 10
1.2906787843
 20
-25.7102628818
 10
1.1327166555
 20
-25.7514071482
 10
0.971011058
 20
-25.7927009444
  0
LINE
  5
55D
100
AcDbEntity
  8
DRAFT
100
AcDbLine
 62
7
  6
CONTINUOUS
 10
102.555866582
 20
17.95
 11
93.7384128464
 21
17.95
  0
LINE
  5
55E
100
AcDbEntity
  8
DRAFT
100
AcDbLine
 62
7
  6
CONTINUOUS
 10
-93.6615871536
 20
17.95
 11
-102.4790408891
 21
17.95
  0
LINE
  5
55F
100
AcDbEntity
  8
RACCORDO
100
AcDbLine
 62
7
  6
CONTINUOUS
 10
-102.0615871536
 20
18.35
 11
-94.0615871536
 21
18.35
  0
LINE
  5
560
100
AcDbEntity
  8
RACCORDO
100
AcDbLine
 62
7
  6
CONTINUOUS
 10
94.1384128464
 20
18.35
 11
102.1384128464
 21
18.35
  0
LINE
  5
561
100
AcDbEntity
  8
RACCORDO
100
AcDbLine
 62
250
  6
CONTINUOUS
 10
-102.0615871536
 20
19.0911809549
 11
-94.0615871536
 21
19.0911809549
  0
LINE
  5
562
100
AcDbEntity
  8
RACCORDO
100
AcDbLine
 62
250
  6
CONTINUOUS
 10
94.1384128464
 20
19.0911809549
 11
102.1384128464
 21
19.0911809549
  0
LINE
  5
563
100
AcDbEntity
  8
DRAFT
100
AcDbLine
 62
7
  6
CONTINUOUS
 10
-102.4790408891
 20
21.018583276
 11
-102.0615871536
 21
21.018583276
  0
LINE
  5
564
100
AcDbEntity
  8
DRAFT
100
AcDbLine
 62
7
  6
CONTINUOUS
 10
102.555866582
 20
21.018583276
 11
102.1384128464
 21
21.018583276
  0
LINE
  5
565
100
AcDbEntity
  8
DRAFT
100
AcDbLine
 62
7
  6
CONTINUOUS
 10
-94.0615871536
 20
21.018583276
 11
-93.6615871536
 21
21.018583276
  0
LINE
  5
566
100
AcDbEntity
  8
DRAFT
100
AcDbLine
 62
7
  6
CONTINUOUS
 10
94.1384128464
 20
21.018583276
 11
93.7384128464
 21
21.018583276
  0
LINE
  5
567
100
AcDbEntity
  8
RACCORDO
100
AcDbLine
 62
7
  6
CONTINUOUS
 10
102.6885955376
 20
21.05
 11
102.555866582
 21
21.05
  0
LINE
  5
568
100
AcDbEntity
  8
DRAFT
100
AcDbLine
 62
7
  6
CONTINUOUS
 10
-102.0615871536
 20
21.05
 11
-94.0615871536
 21
21.05
  0
LINE
  5
569
100
AcDbEntity
  8
DRAFT
100
AcDbLine
 62
7
  6
CONTINUOUS
 10
102.1384128464
 20
21.05
 11
94.1384128464
 21
21.05
  0
LINE
  5
56A
100
AcDbEntity
  8
DRAFT
100
AcDbLine
 62
7
  6
CONTINUOUS
 10
93.7384128464
 20
21.05
 11
-93.6615871536
 21
21.05
  0
LINE
  5
56B
100
AcDbEntity
  8
RACCORDO
100
AcDbLine
 62
7
  6
CONTINUOUS
 10
-102.4790408891
 20
21.05
 11
-102.6117698447
 21
21.05
  0
LINE
  5
56C
100
AcDbEntity
  8
RACCORDO
100
AcDbLine
 62
250
  6
CONTINUOUS
 10
50.5384128464
 20
21.0501523106
 11
64.5384128464
 21
21.0501523106
  0
LINE
  5
56D
100
AcDbEntity
  8
RACCORDO
100
AcDbLine
 62
250
  6
CONTINUOUS
 10
-102.4714772921
 20
21.0850597818
 11
-102.0615871536
 21
21.0850597818
  0
LINE
  5
56E
100
AcDbEntity
  8
RACCORDO
100
AcDbLine
 62
250
  6
CONTINUOUS
 10
-94.0615871536
 20
21.0850597818
 11
50.5384128464
 21
21.0850597818
  0
LINE
  5
56F
100
AcDbEntity
  8
RACCORDO
100
AcDbLine
 62
250
  6
CONTINUOUS
 10
64.5384128464
 20
21.0850597818
 11
94.1384128464
 21
21.0850597818
  0
LINE
  5
570
100
AcDbEntity
  8
RACCORDO
100
AcDbLine
 62
250
  6
CONTINUOUS
 10
102.1384128464
 20
21.0850597818
 11
102.548302985
 21
21.0850597818
  0
LINE
  5
571
100
AcDbEntity
  8
RACCORDO
100
AcDbLine
 62
250
  6
CONTINUOUS
 10
52.5383366926
 20
23.0500761568
 11
62.5384890003
 21
23.0500761568
  0
LINE
  5
572
100
AcDbEntity
  8
RACCORDO
100
AcDbLine
 62
250
  6
CONTINUOUS
 10
-104.4702589461
 20
23.0849836279
 11
-102.0615871536
 21
23.0849836279
  0
LINE
  5
573
100
AcDbEntity
  8
RACCORDO
100
AcDbLine
 62
250
  6
CONTINUOUS
 10
-94.0615871536
 20
23.0849836279
 11
52.5384128464
 21
23.0849836279
  0
LINE
  5
574
100
AcDbEntity
  8
RACCORDO
100
AcDbLine
 62
250
  6
CONTINUOUS
 10
62.5384128464
 20
23.0849836279
 11
94.1384128464
 21
23.0849836279
  0
LINE
  5
575
100
AcDbEntity
  8
RACCORDO
100
AcDbLine
 62
250
  6
CONTINUOUS
 10
102.1384128464
 20
23.0849836279
 11
104.547084639
 21
23.0849836279
  0
LINE
  5
576
100
AcDbEntity
  8
ASSI
100
AcDbLine
 62
7
  6
CONTINUOUS
 10
26.2738228464
 20
0.51277
 11
26.2738228464
 21
1.283296
  0
LINE
  5
577
100
AcDbEntity
  8
ASSI
100
AcDbLine
 62
7
  6
CONTINUOUS
 10
26.2738228464
 20
4.81668
 11
26.2738228464
 21
5.587206
  0
LINE
  5
578
100
AcDbEntity
  8
ASSI
100
AcDbLine
 62
7
  6
CONTINUOUS
 10
30.0988228464
 20
2.667488
 11
30.0988228464
 21
3.432488
  0
LINE
  5
579
100
AcDbEntity
  8
ASSI
100
AcDbLine
 62
7
  6
CONTINUOUS
 10
30.6088228464
 20
0.51277
 11
30.6088228464
 21
1.2832964445
  0
LINE
  5
57A
100
AcDbEntity
  8
ASSI
100
AcDbLine
 62
7
  6
CONTINUOUS
 10
30.6088228464
 20
4.81668
 11
30.6088228464
 21
5.587206
  0
LINE
  5
57B
100
AcDbEntity
  8
ASSI
100
AcDbLine
 62
7
  6
CONTINUOUS
 10
39.9244174947
 20
4.4907456218
 11
38.7586234947
 21
3.3249526218
  0
LINE
  5
57C
100
AcDbEntity
  8
ASSI
100
AcDbLine
 62
7
  6
CONTINUOUS
 10
38.6896104947
 20
3.2559386218
 11
36.5599304947
 21
1.1262596218
  0
LINE
  5
57D
100
AcDbEntity
  8
ASSI
100
AcDbLine
 62
7
  6
CONTINUOUS
 10
42.0349214947
 20
6.6012496218
 11
41.5936484947
 21
6.1599766218
  0
LINE
  5
57E
100
AcDbEntity
  8
ASSI
100
AcDbLine
 62
7
  6
CONTINUOUS
 10
43.3946384947
 20
7.9609676218
 11
42.1096884947
 21
6.6760166218
  0
LINE
  5
57F
100
AcDbEntity
  8
ASSI
100
AcDbLine
 62
7
  6
CONTINUOUS
 10
41.3385634947
 20
5.9048926218
 11
40.0301524947
 21
4.5964806218
  0
LINE
  5
580
100
AcDbEntity
  8
ASSI
100
AcDbLine
 62
7
  6
CONTINUOUS
 10
41.5114004947
 20
6.0777296218
 11
41.4133304947
 21
5.9796586218
  0
LINE
  5
581
100
AcDbEntity
  8
ASSI
100
AcDbLine
 62
7
  6
CONTINUOUS
 10
36.6656664947
 20
1.0205236218
 11
38.7066234947
 21
3.0614796218
  0
LINE
  5
582
100
AcDbEntity
  8
ASSI
100
AcDbLine
 62
7
  6
CONTINUOUS
 10
38.7756364947
 20
3.1304946218
 11
40.0301524947
 21
4.3850106218
  0
LINE
  5
583
100
AcDbEntity
  8
ASSI
100
AcDbLine
 62
7
  6
CONTINUOUS
 10
40.1358874947
 20
4.4907456218
 11
41.4911254947
 21
5.8459836218
  0
LINE
  5
584
100
AcDbEntity
  8
ASSI
100
AcDbLine
 62
7
  6
CONTINUOUS
 10
41.5734954947
 20
5.9283536218
 11
42.1609934947
 21
6.5158516218
  0
LINE
  5
585
100
AcDbEntity
  8
ASSI
100
AcDbLine
 62
7
  6
CONTINUOUS
 10
42.2357604947
 20
6.5906166218
 11
43.5003744947
 21
7.8552316218
  0
LINE
  5
586
100
AcDbEntity
  8
ASSI
100
AcDbLine
 62
7
  6
CONTINUOUS
 10
43.3946384947
 20
1.0205236218
 11
43.5003744947
 21
1.1262596218
  0
LWPOLYLINE
  5
587
100
AcDbEntity
  8
0
100
AcDbPolyline
 62
7
  6
CONTINUOUS
 90
15
 70
0
 10
-3.1242665313
 20
-32.3617473374
 10
-3.1250667926
 20
-32.3620798389
 10
-3.1258330843
 20
-32.3623874506
 10
-3.1256779198
 20
-32.3623284405
 10
-3.1248321874
 20
-32.3620169618
 10
-3.1233189019
 20
-32.3614782094
 10
-3.1210864932
 20
-32.3607087802
 10
-3.1182603021
 20
-32.3597637497
 10
-3.1148478961
 20
-32.3586540495
 10
-3.1108197348
 20
-32.3573777181
 10
-3.1062482718
 20
-32.3559639374
 10
-3.1011338038
 20
-32.3544174812
 10
-3.095457323
 20
-32.3527369073
 10
-3.089264151
 20
-32.3509392016
 10
-3.0825521259
 20
-32.3490265221
  0
LINE
  5
588
100
AcDbEntity
  8
0
100
AcDbLine
 62
7
  6
CONTINUOUS
 10
88.0384128464
 20
25.9
 11
86.0384128464
 21
25.9
  0
LINE
  5
589
100
AcDbEntity
  8
0
100
AcDbLine
 62
7
  6
CONTINUOUS
 10
83.0384128464
 20
25.9
 11
81.0384128464
 21
25.9
  0
LINE
  5
58A
100
AcDbEntity
  8
0
100
AcDbLine
 62
7
  6
CONTINUOUS
 10
78.0384128464
 20
25.9
 11
76.0384128464
 21
25.9
  0
LINE
  5
58B
100
AcDbEntity
  8
0
100
AcDbLine
 62
7
  6
CONTINUOUS
 10
73.0384128464
 20
25.9
 11
71.0384128464
 21
25.9
  0
LINE
  5
58C
100
AcDbEntity
  8
0
100
AcDbLine
 62
7
  6
CONTINUOUS
 10
68.0384128464
 20
25.9
 11
66.0384128464
 21
25.9
  0
LINE
  5
58D
100
AcDbEntity
  8
0
100
AcDbLine
 62
7
  6
CONTINUOUS
 10
48.0384128464
 20
25.9
 11
46.0384128464
 21
25.9
  0
LINE
  5
58E
100
AcDbEntity
  8
0
100
AcDbLine
 62
7
  6
CONTINUOUS
 10
43.0384128464
 20
25.9
 11
41.0384128464
 21
25.9
  0
LINE
  5
58F
100
AcDbEntity
  8
0
100
AcDbLine
 62
7
  6
CONTINUOUS
 10
38.0384128464
 20
25.9
 11
36.0384128464
 21
25.9
  0
LINE
  5
590
100
AcDbEntity
  8
0
100
AcDbLine
 62
7
  6
CONTINUOUS
 10
-11.9615871536
 20
25.9
 11
-13.9615871536
 21
25.9
  0
LINE
  5
591
100
AcDbEntity
  8
0
100
AcDbLine
 62
7
  6
CONTINUOUS
 10
-16.9615871536
 20
25.9
 11
-18.9615871536
 21
25.9
  0
LINE
  5
592
100
AcDbEntity
  8
0
100
AcDbLine
 62
7
  6
CONTINUOUS
 10
-21.9615871536
 20
25.9
 11
-23.9615871536
 21
25.9
  0
LINE
  5
593
100
AcDbEntity
  8
0
100
AcDbLine
 62
7
  6
CONTINUOUS
 10
-26.9615871536
 20
25.9
 11
-28.9615871536
 21
25.9
  0
LINE
  5
594
100
AcDbEntity
  8
0
100
AcDbLine
 62
7
  6
CONTINUOUS
 10
-31.9615871536
 20
25.9
 11
-33.9615871536
 21
25.9
  0
LINE
  5
595
100
AcDbEntity
  8
0
100
AcDbLine
 62
7
  6
CONTINUOUS
 10
-36.9615871536
 20
25.9
 11
-38.9615871536
 21
25.9
  0
LINE
  5
596
100
AcDbEntity
  8
0
100
AcDbLine
 62
7
  6
CONTINUOUS
 10
-41.9615871536
 20
25.9
 11
-43.9615871536
 21
25.9
  0
LINE
  5
597
100
AcDbEntity
  8
0
100
AcDbLine
 62
7
  6
CONTINUOUS
 10
-46.9615871536
 20
25.9
 11
-48.9615871536
 21
25.9
  0
LINE
  5
598
100
AcDbEntity
  8
0
100
AcDbLine
 62
7
  6
CONTINUOUS
 10
-51.9615871536
 20
25.9
 11
-53.9615871536
 21
25.9
  0
LINE
  5
599
100
AcDbEntity
  8
0
100
AcDbLine
 62
7
  6
CONTINUOUS
 10
-56.9615871536
 20
25.9
 11
-58.9615871536
 21
25.9
  0
LINE
  5
59A
100
AcDbEntity
  8
0
100
AcDbLine
 62
7
  6
CONTINUOUS
 10
-61.9615871536
 20
25.9
 11
-63.9615871536
 21
25.9
  0
LINE
  5
59B
100
AcDbEntity
  8
0
100
AcDbLine
 62
7
  6
CONTINUOUS
 10
-66.9615871536
 20
25.9
 11
-68.9615871536
 21
25.9
  0
LINE
  5
59C
100
AcDbEntity
  8
0
100
AcDbLine
 62
7
  6
CONTINUOUS
 10
-71.9615871536
 20
25.9
 11
-73.9615871536
 21
25.9
  0
LINE
  5
59D
100
AcDbEntity
  8
0
100
AcDbLine
 62
7
  6
CONTINUOUS
 10
-76.9615871536
 20
25.9
 11
-78.9615871536
 21
25.9
  0
LINE
  5
59E
100
AcDbEntity
  8
0
100
AcDbLine
 62
7
  6
CONTINUOUS
 10
-81.9615871536
 20
25.9
 11
-83.9615871536
 21
25.9
  0
LINE
  5
59F
100
AcDbEntity
  8
0
100
AcDbLine
 62
7
  6
CONTINUOUS
 10
-42.4615871536
 20
25.95
 11
-43.9615871536
 21
25.95
  0
LINE
  5
5A0
100
AcDbEntity
  8
0
100
AcDbLine
 62
7
  6
CONTINUOUS
 10
-47.4615871536
 20
25.95
 11
-48.9615871536
 21
25.95
  0
LINE
  5
5A1
100
AcDbEntity
  8
0
100
AcDbLine
 62
7
  6
CONTINUOUS
 10
-52.4615871536
 20
25.95
 11
-53.9615871536
 21
25.95
  0
LINE
  5
5A2
100
AcDbEntity
  8
0
100
AcDbLine
 62
7
  6
CONTINUOUS
 10
-57.4615871536
 20
25.95
 11
-58.9615871536
 21
25.95
  0
LINE
  5
5A3
100
AcDbEntity
  8
0
100
AcDbLine
 62
7
  6
CONTINUOUS
 10
-62.4615871536
 20
25.95
 11
-63.9615871536
 21
25.95
  0
LINE
  5
5A4
100
AcDbEntity
  8
0
100
AcDbLine
 62
7
  6
CONTINUOUS
 10
-67.4615871536
 20
25.95
 11
-68.9615871536
 21
25.95
  0
LINE
  5
5A5
100
AcDbEntity
  8
0
100
AcDbLine
 62
7
  6
CONTINUOUS
 10
-72.4615871536
 20
25.95
 11
-73.9615871536
 21
25.95
  0
LINE
  5
5A6
100
AcDbEntity
  8
0
100
AcDbLine
 62
7
  6
CONTINUOUS
 10
-77.4615871536
 20
25.95
 11
-78.9615871536
 21
25.95
  0
LINE
  5
5A7
100
AcDbEntity
  8
0
100
AcDbLine
 62
7
  6
CONTINUOUS
 10
-82.4615871536
 20
25.95
 11
-83.9615871536
 21
25.95
  0
LINE
  5
5A8
100
AcDbEntity
  8
RACCORDO
100
AcDbLine
 62
7
  6
CONTINUOUS
 10
-103.2615871536
 20
29.1
 11
-102.8615871536
 21
29.1
  0
LINE
  5
5A9
100
AcDbEntity
  8
RACCORDO
100
AcDbLine
 62
7
  6
CONTINUOUS
 10
-90.6615871536
 20
29.1
 11
-90.2615871536
 21
29.1
  0
LINE
  5
5AA
100
AcDbEntity
  8
DRAFT
100
AcDbLine
 62
250
  6
CONTINUOUS
 10
-94.1615871536
 20
31.7
 11
-94.0088669672
 21
31.7
  0
LINE
  5
5AB
100
AcDbEntity
  8
DRAFT
100
AcDbLine
 62
250
  6
CONTINUOUS
 10
-99.3615871536
 20
31.7
 11
-99.5143073399
 21
31.7
  0
LINE
  5
5AC
100
AcDbEntity
  8
DRAFT
100
AcDbLine
 62
7
  6
CONTINUOUS
 10
36.0384128464
 20
32.4362938651
 11
38.0384128464
 21
32.4362938651
  0
LINE
  5
5AD
100
AcDbEntity
  8
DRAFT
100
AcDbLine
 62
7
  6
CONTINUOUS
 10
41.0384128464
 20
32.4362938651
 11
43.0384128464
 21
32.4362938651
  0
LINE
  5
5AE
100
AcDbEntity
  8
DRAFT
100
AcDbLine
 62
7
  6
CONTINUOUS
 10
46.0384128464
 20
32.4362938651
 11
48.0384128464
 21
32.4362938651
  0
LINE
  5
5AF
100
AcDbEntity
  8
DRAFT
100
AcDbLine
 62
7
  6
CONTINUOUS
 10
66.0384128464
 20
32.4362938651
 11
68.0384128464
 21
32.4362938651
  0
LINE
  5
5B0
100
AcDbEntity
  8
DRAFT
100
AcDbLine
 62
7
  6
CONTINUOUS
 10
71.0384128464
 20
32.4362938651
 11
73.0384128464
 21
32.4362938651
  0
LINE
  5
5B1
100
AcDbEntity
  8
DRAFT
100
AcDbLine
 62
7
  6
CONTINUOUS
 10
76.0384128464
 20
32.4362938651
 11
78.0384128464
 21
32.4362938651
  0
LINE
  5
5B2
100
AcDbEntity
  8
DRAFT
100
AcDbLine
 62
7
  6
CONTINUOUS
 10
81.0384128464
 20
32.4362938651
 11
83.0384128464
 21
32.4362938651
  0
LINE
  5
5B3
100
AcDbEntity
  8
DRAFT
100
AcDbLine
 62
7
  6
CONTINUOUS
 10
86.0384128464
 20
32.4362938651
 11
88.0384128464
 21
32.4362938651
  0
LINE
  5
5B4
100
AcDbEntity
  8
DRAFT
100
AcDbLine
 62
7
  6
CONTINUOUS
 10
36.0384128464
 20
32.456365661
 11
38.0384128464
 21
32.456365661
  0
LINE
  5
5B5
100
AcDbEntity
  8
DRAFT
100
AcDbLine
 62
7
  6
CONTINUOUS
 10
41.0384128464
 20
32.456365661
 11
43.0384128464
 21
32.456365661
  0
LINE
  5
5B6
100
AcDbEntity
  8
DRAFT
100
AcDbLine
 62
7
  6
CONTINUOUS
 10
46.0384128464
 20
32.456365661
 11
48.0384128464
 21
32.456365661
  0
LINE
  5
5B7
100
AcDbEntity
  8
DRAFT
100
AcDbLine
 62
7
  6
CONTINUOUS
 10
66.0384128464
 20
32.456365661
 11
68.0384128464
 21
32.456365661
  0
LINE
  5
5B8
100
AcDbEntity
  8
DRAFT
100
AcDbLine
 62
7
  6
CONTINUOUS
 10
71.0384128464
 20
32.456365661
 11
73.0384128464
 21
32.456365661
  0
LINE
  5
5B9
100
AcDbEntity
  8
DRAFT
100
AcDbLine
 62
7
  6
CONTINUOUS
 10
76.0384128464
 20
32.456365661
 11
78.0384128464
 21
32.456365661
  0
LINE
  5
5BA
100
AcDbEntity
  8
DRAFT
100
AcDbLine
 62
7
  6
CONTINUOUS
 10
81.0384128464
 20
32.456365661
 11
83.0384128464
 21
32.456365661
  0
LINE
  5
5BB
100
AcDbEntity
  8
DRAFT
100
AcDbLine
 62
7
  6
CONTINUOUS
 10
86.0384128464
 20
32.456365661
 11
88.0384128464
 21
32.456365661
  0
LINE
  5
5BC
100
AcDbEntity
  8
ASSI
100
AcDbLine
 62
7
  6
CONTINUOUS
 10
36.5599304947
 20
1.1262596218
 11
36.6656664947
 21
1.0205236218
  0
LINE
  5
5BD
100
AcDbEntity
  8
ASSI
100
AcDbLine
 62
7
  6
CONTINUOUS
 10
38.5350784947
 20
5.8800836218
 11
39.9244174947
 21
4.4907456218
  0
LINE
  5
5BE
100
AcDbEntity
  8
ASSI
100
AcDbLine
 62
7
  6
CONTINUOUS
 10
36.5599304947
 20
7.8552316218
 11
38.4528314947
 21
5.9623316218
  0
LINE
  5
5BF
100
AcDbEntity
  8
ASSI
100
AcDbLine
 62
7
  6
CONTINUOUS
 10
41.3250684947
 20
3.0900946218
 11
43.3946384947
 21
1.0205236218
  0
LINE
  5
5C0
100
AcDbEntity
  8
ASSI
100
AcDbLine
 62
7
  6
CONTINUOUS
 10
40.0301524947
 20
4.3850106218
 11
41.2560544947
 21
3.1591076218
  0
LINE
  5
5C1
100
AcDbEntity
  8
ASSI
100
AcDbLine
 62
7
  6
CONTINUOUS
 10
43.5003744947
 20
1.1262596218
 11
41.3420814947
 21
3.2845516218
  0
LINE
  5
5C2
100
AcDbEntity
  8
ASSI
100
AcDbLine
 62
7
  6
CONTINUOUS
 10
41.2730664947
 20
3.3535666218
 11
40.1358874947
 21
4.4907456218
  0
LINE
  5
5C3
100
AcDbEntity
  8
ASSI
100
AcDbLine
 62
7
  6
CONTINUOUS
 10
40.0301524947
 20
4.5964806218
 11
38.5148034947
 21
6.1118296218
  0
LINE
  5
5C4
100
AcDbEntity
  8
ASSI
100
AcDbLine
 62
7
  6
CONTINUOUS
 10
38.4325564947
 20
6.1940776218
 11
36.6656664947
 21
7.9609676218
  0
LINE
  5
5C5
100
AcDbEntity
  8
ASSI
100
AcDbLine
 62
7
  6
CONTINUOUS
 10
38.4528314947
 20
5.9623316218
 11
38.6896104947
 21
3.2559386218
  0
LINE
  5
5C6
100
AcDbEntity
  8
ASSI
100
AcDbLine
 62
7
  6
CONTINUOUS
 10
38.7066234947
 20
3.0614796218
 11
38.8057584947
 21
1.9283536218
  0
LINE
  5
5C7
100
AcDbEntity
  8
ASSI
100
AcDbLine
 62
7
  6
CONTINUOUS
 10
38.3642264947
 20
6.9750816218
 11
38.4325564947
 21
6.1940776218
  0
LINE
  5
5C8
100
AcDbEntity
  8
ASSI
100
AcDbLine
 62
7
  6
CONTINUOUS
 10
38.3153986651
 20
7.5331872127
 11
38.3380624947
 21
7.2741476218
  0
LINE
  5
5C9
100
AcDbEntity
  8
ASSI
100
AcDbLine
 62
7
  6
CONTINUOUS
 10
38.4131144947
 20
7.2741476218
 11
38.3946855303
 21
7.4847985328
  0
LINE
  5
5CA
100
AcDbEntity
  8
ASSI
100
AcDbLine
 62
7
  6
CONTINUOUS
 10
38.5148034947
 20
6.1118296218
 11
38.4392794947
 21
6.9750816218
  0
LINE
  5
5CB
100
AcDbEntity
  8
ASSI
100
AcDbLine
 62
7
  6
CONTINUOUS
 10
38.8742694947
 20
2.0031196218
 11
38.7756364947
 21
3.1304946218
  0
LINE
  5
5CC
100
AcDbEntity
  8
ASSI
100
AcDbLine
 62
7
  6
CONTINUOUS
 10
38.7586234947
 20
3.3249526218
 11
38.5350784947
 21
5.8800836218
  0
LINE
  5
5CD
100
AcDbEntity
  8
0
100
AcDbLine
 62
7
  6
CONTINUOUS
 10
36.0384128464
 20
-32.0
 11
36.0384128464
 21
-19.8
  0
LINE
  5
5CE
100
AcDbEntity
  8
0
100
AcDbLine
 62
7
  6
CONTINUOUS
 10
36.0384128464
 20
25.9
 11
36.0384128464
 21
38.1
  0
LINE
  5
5CF
100
AcDbEntity
  8
ASSI
100
AcDbLine
 62
7
  6
CONTINUOUS
 10
37.0384128464
 20
-0.422628
 11
37.0384128464
 21
-1.922628
  0
LINE
  5
5D0
100
AcDbEntity
  8
ASSI
100
AcDbLine
 62
7
  6
CONTINUOUS
 10
37.7497794947
 20
7.2741476218
 11
37.7497794947
 21
6.9750816218
  0
LINE
  5
5D1
100
AcDbEntity
  8
0
100
AcDbLine
 62
7
  6
CONTINUOUS
 10
38.0384128464
 20
38.1
 11
38.0384128464
 21
25.9
  0
LINE
  5
5D2
100
AcDbEntity
  8
0
100
AcDbLine
 62
7
  6
CONTINUOUS
 10
38.0384128464
 20
-19.8
 11
38.0384128464
 21
-32.0
  0
LINE
  5
5D3
100
AcDbEntity
  8
ASSI
100
AcDbLine
 62
7
  6
CONTINUOUS
 10
38.5348254947
 20
7.9096616218
 11
38.5348253491
 21
7.6169630403
  0
LINE
  5
5D4
100
AcDbEntity
  8
ASSI
100
AcDbLine
 62
7
  6
CONTINUOUS
 10
38.5348254947
 20
7.5377087237
 11
38.5348254947
 21
7.2741476218
  0
LINE
  5
5D5
100
AcDbEntity
  8
ASSI
100
AcDbLine
 62
7
  6
CONTINUOUS
 10
38.6095925577
 20
7.6421344282
 11
38.6095924947
 21
7.8348946218
  0
LINE
  5
5D6
100
AcDbEntity
  8
ASSI
100
AcDbLine
 62
7
  6
CONTINUOUS
 10
38.6095924947
 20
7.3489146218
 11
38.6095923948
 21
7.5634249221
  0
LINE
  5
5D7
100
AcDbEntity
  8
ASSI
100
AcDbLine
 62
7
  6
CONTINUOUS
 10
38.8057584947
 20
1.9283536218
 11
38.8057584947
 21
1.3302216218
  0
LINE
  5
5D8
100
AcDbEntity
  8
ASSI
100
AcDbLine
 62
7
  6
CONTINUOUS
 10
38.8338904947
 20
7.8348946218
 11
38.8338904433
 21
7.7078278187
  0
LINE
  5
5D9
100
AcDbEntity
  8
ASSI
100
AcDbLine
 62
7
  6
CONTINUOUS
 10
38.8338905761
 20
7.630508316
 11
38.8338904947
 21
7.3489146218
  0
LINE
  5
5DA
100
AcDbEntity
  8
ASSI
100
AcDbLine
 62
7
  6
CONTINUOUS
 10
38.908657464
 20
7.7265457496
 11
38.9086574947
 21
7.9096616218
  0
LINE
  5
5DB
100
AcDbEntity
  8
ASSI
100
AcDbLine
 62
7
  6
CONTINUOUS
 10
38.9086574947
 20
7.2741476218
 11
38.9086574947
 21
7.649614753
  0
LINE
  5
5DC
100
AcDbEntity
  8
ASSI
100
AcDbLine
 62
7
  6
CONTINUOUS
 10
39.2543564947
 20
1.3302216218
 11
39.2543564947
 21
1.9283536218
  0
LINE
  5
5DD
100
AcDbEntity
  8
ASSI
100
AcDbLine
 62
7
  6
CONTINUOUS
 10
39.5441704947
 20
5.8535866218
 11
39.5441704947
 21
5.4797546218
  0
LINE
  5
5DE
100
AcDbEntity
  8
ASSI
100
AcDbLine
 62
7
  6
CONTINUOUS
 10
39.6189374947
 20
5.5545216218
 11
39.6189374947
 21
5.7788216218
  0
LINE
  5
5DF
100
AcDbEntity
  8
ASSI
100
AcDbLine
 62
7
  6
CONTINUOUS
 10
39.6937044991
 20
7.7579054933
 11
39.6937044947
 21
7.5732136218
  0
LINE
  5
5E0
100
AcDbEntity
  8
ASSI
100
AcDbLine
 62
7
  6
CONTINUOUS
 10
39.6937044947
 20
8.0218116218
 11
39.6937044991
 21
7.8327134904
  0
LINE
  5
5E1
100
AcDbEntity
  8
ASSI
100
AcDbLine
 62
7
  6
CONTINUOUS
 10
39.7684704964
 20
7.8344945037
 11
39.7684704947
 21
7.9470446218
  0
LINE
  5
5E2
100
AcDbEntity
  8
ASSI
100
AcDbLine
 62
7
  6
CONTINUOUS
 10
39.7684704947
 20
7.6479796218
 11
39.7684705025
 21
7.7597200884
  0
LINE
  5
5E3
100
AcDbEntity
  8
ASSI
100
AcDbLine
 62
7
  6
CONTINUOUS
 10
40.628282606
 20
7.6753091434
 11
40.6282824947
 21
7.6479796218
  0
LINE
  5
5E4
100
AcDbEntity
  8
ASSI
100
AcDbLine
 62
7
  6
CONTINUOUS
 10
40.6282824947
 20
7.9470446218
 11
40.6282825189
 21
7.7517267374
  0
LINE
  5
5E5
100
AcDbEntity
  8
RACCORDO
100
AcDbLine
 62
250
  6
CONTINUOUS
 10
103.0396311924
 20
55.3
 11
102.548302985
 21
54.8086717926
  0
LINE
  5
5E6
100
AcDbEntity
  8
RACCORDO
100
AcDbLine
 62
250
  6
CONTINUOUS
 10
105.0384128464
 20
53.301218346
 11
104.547084639
 21
52.8098901385
  0
LINE
  5
5E7
100
AcDbEntity
  8
DRAFT
100
AcDbLine
 62
7
  6
CONTINUOUS
 10
36.0384128464
 20
34.8
 11
38.0384128464
 21
34.8
  0
LINE
  5
5E8
100
AcDbEntity
  8
DRAFT
100
AcDbLine
 62
7
  6
CONTINUOUS
 10
41.0384128464
 20
34.8
 11
43.0384128464
 21
34.8
  0
LINE
  5
5E9
100
AcDbEntity
  8
DRAFT
100
AcDbLine
 62
7
  6
CONTINUOUS
 10
46.0384128464
 20
34.8
 11
48.0384128464
 21
34.8
  0
LINE
  5
5EA
100
AcDbEntity
  8
DRAFT
100
AcDbLine
 62
7
  6
CONTINUOUS
 10
66.0384128464
 20
34.8
 11
68.0384128464
 21
34.8
  0
LINE
  5
5EB
100
AcDbEntity
  8
DRAFT
100
AcDbLine
 62
7
  6
CONTINUOUS
 10
71.0384128464
 20
34.8
 11
73.0384128464
 21
34.8
  0
LINE
  5
5EC
100
AcDbEntity
  8
DRAFT
100
AcDbLine
 62
7
  6
CONTINUOUS
 10
76.0384128464
 20
34.8
 11
78.0384128464
 21
34.8
  0
LINE
  5
5ED
100
AcDbEntity
  8
DRAFT
100
AcDbLine
 62
7
  6
CONTINUOUS
 10
81.0384128464
 20
34.8
 11
83.0384128464
 21
34.8
  0
LINE
  5
5EE
100
AcDbEntity
  8
DRAFT
100
AcDbLine
 62
7
  6
CONTINUOUS
 10
86.0384128464
 20
34.8
 11
88.0384128464
 21
34.8
  0
LINE
  5
5EF
100
AcDbEntity
  8
DRAFT
100
AcDbLine
 62
250
  6
CONTINUOUS
 10
-94.1615871536
 20
36.5
 11
-94.0088669672
 21
36.5
  0
LINE
  5
5F0
100
AcDbEntity
  8
DRAFT
100
AcDbLine
 62
250
  6
CONTINUOUS
 10
-99.3615871536
 20
36.5
 11
-99.5143073399
 21
36.5
  0
LINE
  5
5F1
100
AcDbEntity
  8
0
100
AcDbLine
 62
7
  6
CONTINUOUS
 10
-83.9615871536
 20
38.1
 11
-81.9615871536
 21
38.1
  0
LINE
  5
5F2
100
AcDbEntity
  8
0
100
AcDbLine
 62
7
  6
CONTINUOUS
 10
-78.9615871536
 20
38.1
 11
-76.9615871536
 21
38.1
  0
LINE
  5
5F3
100
AcDbEntity
  8
0
100
AcDbLine
 62
7
  6
CONTINUOUS
 10
-73.9615871536
 20
38.1
 11
-71.9615871536
 21
38.1
  0
LINE
  5
5F4
100
AcDbEntity
  8
0
100
AcDbLine
 62
7
  6
CONTINUOUS
 10
-68.9615871536
 20
38.1
 11
-66.9615871536
 21
38.1
  0
LINE
  5
5F5
100
AcDbEntity
  8
0
100
AcDbLine
 62
7
  6
CONTINUOUS
 10
-63.9615871536
 20
38.1
 11
-61.9615871536
 21
38.1
  0
LINE
  5
5F6
100
AcDbEntity
  8
0
100
AcDbLine
 62
7
  6
CONTINUOUS
 10
-58.9615871536
 20
38.1
 11
-56.9615871536
 21
38.1
  0
LINE
  5
5F7
100
AcDbEntity
  8
0
100
AcDbLine
 62
7
  6
CONTINUOUS
 10
-53.9615871536
 20
38.1
 11
-51.9615871536
 21
38.1
  0
LINE
  5
5F8
100
AcDbEntity
  8
0
100
AcDbLine
 62
7
  6
CONTINUOUS
 10
-48.9615871536
 20
38.1
 11
-46.9615871536
 21
38.1
  0
LINE
  5
5F9
100
AcDbEntity
  8
0
100
AcDbLine
 62
7
  6
CONTINUOUS
 10
-43.9615871536
 20
38.1
 11
-41.9615871536
 21
38.1
  0
LINE
  5
5FA
100
AcDbEntity
  8
0
100
AcDbLine
 62
7
  6
CONTINUOUS
 10
-38.9615871536
 20
38.1
 11
-36.9615871536
 21
38.1
  0
LINE
  5
5FB
100
AcDbEntity
  8
0
100
AcDbLine
 62
7
  6
CONTINUOUS
 10
-33.9615871536
 20
38.1
 11
-31.9615871536
 21
38.1
  0
LINE
  5
5FC
100
AcDbEntity
  8
0
100
AcDbLine
 62
7
  6
CONTINUOUS
 10
-28.9615871536
 20
38.1
 11
-26.9615871536
 21
38.1
  0
LINE
  5
5FD
100
AcDbEntity
  8
0
100
AcDbLine
 62
7
  6
CONTINUOUS
 10
-23.9615871536
 20
38.1
 11
-21.9615871536
 21
38.1
  0
LINE
  5
5FE
100
AcDbEntity
  8
0
100
AcDbLine
 62
7
  6
CONTINUOUS
 10
-18.9615871536
 20
38.1
 11
-16.9615871536
 21
38.1
  0
LINE
  5
5FF
100
AcDbEntity
  8
0
100
AcDbLine
 62
7
  6
CONTINUOUS
 10
-13.9615871536
 20
38.1
 11
-11.9615871536
 21
38.1
  0
LINE
  5
600
100
AcDbEntity
  8
0
100
AcDbLine
 62
7
  6
CONTINUOUS
 10
36.0384128464
 20
38.1
 11
38.0384128464
 21
38.1
  0
LINE
  5
601
100
AcDbEntity
  8
0
100
AcDbLine
 62
7
  6
CONTINUOUS
 10
41.0384128464
 20
38.1
 11
43.0384128464
 21
38.1
  0
LINE
  5
602
100
AcDbEntity
  8
0
100
AcDbLine
 62
7
  6
CONTINUOUS
 10
46.0384128464
 20
38.1
 11
48.0384128464
 21
38.1
  0
LINE
  5
603
100
AcDbEntity
  8
0
100
AcDbLine
 62
7
  6
CONTINUOUS
 10
66.0384128464
 20
38.1
 11
68.0384128464
 21
38.1
  0
LINE
  5
604
100
AcDbEntity
  8
0
100
AcDbLine
 62
7
  6
CONTINUOUS
 10
71.0384128464
 20
38.1
 11
73.0384128464
 21
38.1
  0
LINE
  5
605
100
AcDbEntity
  8
0
100
AcDbLine
 62
7
  6
CONTINUOUS
 10
76.0384128464
 20
38.1
 11
78.0384128464
 21
38.1
  0
LINE
  5
606
100
AcDbEntity
  8
0
100
AcDbLine
 62
7
  6
CONTINUOUS
 10
81.0384128464
 20
38.1
 11
83.0384128464
 21
38.1
  0
LINE
  5
607
100
AcDbEntity
  8
0
100
AcDbLine
 62
7
  6
CONTINUOUS
 10
86.0384128464
 20
38.1
 11
88.0384128464
 21
38.1
  0
LINE
  5
608
100
AcDbEntity
  8
RACCORDO
100
AcDbLine
 62
7
  6
CONTINUOUS
 10
-90.2615871536
 20
39.1
 11
-90.6615871536
 21
39.1
  0
LINE
  5
609
100
AcDbEntity
  8
RACCORDO
100
AcDbLine
 62
7
  6
CONTINUOUS
 10
-102.8615871536
 20
39.1
 11
-103.2615871536
 21
39.1
  0
LINE
  5
60A
100
AcDbEntity
  8
RACCORDO
100
AcDbLine
 62
7
  6
CONTINUOUS
 10
98.5384128464
 20
40.05
 11
98.9384128464
 21
40.05
  0
LINE
  5
60B
100
AcDbEntity
  8
ASSI
100
AcDbLine
 62
7
  6
CONTINUOUS
 10
43.5003744947
 20
7.8552316218
 11
43.3946384947
 21
7.9609676218
  0
LINE
  5
60C
100
AcDbEntity
  8
RACCORDO
100
AcDbLine
 62
250
  6
CONTINUOUS
 10
103.0396311924
 20
-49.2
 11
102.548302985
 21
-48.7086717926
  0
LINE
  5
60D
100
AcDbEntity
  8
ASSI
100
AcDbLine
 62
7
  6
CONTINUOUS
 10
40.7030494947
 20
7.5732136218
 11
40.7030495014
 21
7.6585716505
  0
LINE
  5
60E
100
AcDbEntity
  8
ASSI
100
AcDbLine
 62
7
  6
CONTINUOUS
 10
40.7030495366
 20
7.7353238044
 11
40.7030494947
 21
8.0218116218
  0
LINE
  5
60F
100
AcDbEntity
  8
ASSI
100
AcDbLine
 62
7
  6
CONTINUOUS
 10
40.7778154947
 20
5.7788216218
 11
40.7778154947
 21
5.5545216218
  0
LINE
  5
610
100
AcDbEntity
  8
ASSI
100
AcDbLine
 62
7
  6
CONTINUOUS
 10
40.8525824947
 20
5.4797546218
 11
40.8525824947
 21
5.8535866218
  0
LINE
  5
611
100
AcDbEntity
  8
0
100
AcDbLine
 62
7
  6
CONTINUOUS
 10
41.0384128464
 20
-32.0
 11
41.0384128464
 21
-19.8
  0
LINE
  5
612
100
AcDbEntity
  8
0
100
AcDbLine
 62
7
  6
CONTINUOUS
 10
41.0384128464
 20
25.9
 11
41.0384128464
 21
38.1
  0
LINE
  5
613
100
AcDbEntity
  8
ASSI
100
AcDbLine
 62
7
  6
CONTINUOUS
 10
41.3385634947
 20
6.6760166218
 11
41.3385634947
 21
5.9048926218
  0
LINE
  5
614
100
AcDbEntity
  8
ASSI
100
AcDbLine
 62
7
  6
CONTINUOUS
 10
41.4133304947
 20
5.9796586218
 11
41.4133304947
 21
6.6012496218
  0
LINE
  5
615
100
AcDbEntity
  8
ASSI
100
AcDbLine
 62
7
  6
CONTINUOUS
 10
41.8993104947
 20
6.9750816218
 11
41.8993106159
 21
7.0691634404
  0
LINE
  5
616
100
AcDbEntity
  8
ASSI
100
AcDbLine
 62
7
  6
CONTINUOUS
 10
42.1609934947
 20
6.5158516218
 11
42.1609934947
 21
5.9283536218
  0
LINE
  5
617
100
AcDbEntity
  8
ASSI
100
AcDbLine
 62
7
  6
CONTINUOUS
 10
42.2357604947
 20
5.8535866218
 11
42.2357604947
 21
6.5906166218
  0
LINE
  5
618
100
AcDbEntity
  8
0
100
AcDbLine
 62
7
  6
CONTINUOUS
 10
43.0384128464
 20
38.1
 11
43.0384128464
 21
25.9
  0
LINE
  5
619
100
AcDbEntity
  8
0
100
AcDbLine
 62
7
  6
CONTINUOUS
 10
43.0384128464
 20
-19.8
 11
43.0384128464
 21
-32.0
  0
LINE
  5
61A
100
AcDbEntity
  8
ASSI
100
AcDbLine
 62
7
  6
CONTINUOUS
 10
43.0384128464
 20
-1.922628
 11
43.0384128464
 21
-0.422628
  0
LINE
  5
61B
100
AcDbEntity
  8
0
100
AcDbLine
 62
7
  6
CONTINUOUS
 10
46.0384128464
 20
-32.0
 11
46.0384128464
 21
-19.8
  0
LINE
  5
61C
100
AcDbEntity
  8
0
100
AcDbLine
 62
7
  6
CONTINUOUS
 10
46.0384128464
 20
25.9
 11
46.0384128464
 21
38.1
  0
LINE
  5
61D
100
AcDbEntity
  8
0
100
AcDbLine
 62
7
  6
CONTINUOUS
 10
48.0384128464
 20
38.1
 11
48.0384128464
 21
25.9
  0
LINE
  5
61E
100
AcDbEntity
  8
0
100
AcDbLine
 62
7
  6
CONTINUOUS
 10
48.0384128464
 20
-19.8
 11
48.0384128464
 21
-32.0
  0
LINE
  5
61F
100
AcDbEntity
  8
ASSI
100
AcDbLine
 62
7
  6
CONTINUOUS
 10
41.5899094947
 20
6.9750816218
 11
41.5637434947
 21
6.6760166218
  0
LINE
  5
620
100
AcDbEntity
  8
ASSI
100
AcDbLine
 62
7
  6
CONTINUOUS
 10
41.2560544947
 20
3.1591076218
 11
41.2086654288
 21
2.6174528691
  0
LINE
  5
621
100
AcDbEntity
  8
ASSI
100
AcDbLine
 62
7
  6
CONTINUOUS
 10
41.4911254947
 20
5.8459836218
 11
41.2730664947
 21
3.3535666218
  0
LINE
  5
622
100
AcDbEntity
  8
ASSI
100
AcDbLine
 62
7
  6
CONTINUOUS
 10
41.5572024947
 20
6.6012496218
 11
41.5114004947
 21
6.0777296218
  0
LINE
  5
623
100
AcDbEntity
  8
ASSI
100
AcDbLine
 62
7
  6
CONTINUOUS
 10
41.5936484947
 20
6.1599766218
 11
41.6322554947
 21
6.6012496218
  0
LINE
  5
624
100
AcDbEntity
  8
ASSI
100
AcDbLine
 62
7
  6
CONTINUOUS
 10
41.6387954947
 20
6.6760166218
 11
41.6649604947
 21
6.9750816218
  0
LINE
  5
625
100
AcDbEntity
  8
ASSI
100
AcDbLine
 62
7
  6
CONTINUOUS
 10
41.3420814947
 20
3.2845516218
 11
41.5668424947
 21
5.8535866218
  0
LINE
  5
626
100
AcDbEntity
  8
ASSI
100
AcDbLine
 62
7
  6
CONTINUOUS
 10
41.282774385
 20
2.6066660857
 11
41.3250684947
 21
3.0900946218
  0
LINE
  5
627
100
AcDbEntity
  8
ASSI
100
AcDbLine
 62
7
  6
CONTINUOUS
 10
51.4098642199
 20
3.6761252653
 11
50.8571381451
 21
2.4513941147
  0
LINE
  5
628
100
AcDbEntity
  8
ASSI
100
AcDbLine
 62
7
  6
CONTINUOUS
 10
50.3239132487
 20
1.2698736077
 11
49.7508144212
 21
-0.0
  0
LINE
  5
629
100
AcDbEntity
  8
ASSI
100
AcDbLine
 62
7
  6
CONTINUOUS
 10
51.4889482652
 20
1.4964203239
 11
51.7194581476
 21
1.9745268551
  0
LINE
  5
62A
100
AcDbEntity
  8
ASSI
100
AcDbLine
 62
7
  6
CONTINUOUS
 10
50.767480358
 20
-0.0
 11
51.0378678594
 21
0.5608192328
  0
LINE
  5
62B
100
AcDbEntity
  8
RACCORDO
100
AcDbLine
 62
250
  6
CONTINUOUS
 10
-102.6117698447
 20
21.05
 11
-102.4714772921
 21
21.0850597818
  0
LINE
  5
62C
100
AcDbEntity
  8
RACCORDO
100
AcDbLine
 62
250
  6
CONTINUOUS
 10
-104.6797835631
 20
23.0326224212
 11
-104.4702589461
 21
23.0849836279
  0
LINE
  5
62D
100
AcDbEntity
  8
RACCORDO
100
AcDbLine
 62
250
  6
CONTINUOUS
 10
102.548302985
 20
21.0850597818
 11
102.6885955376
 21
21.05
  0
LINE
  5
62E
100
AcDbEntity
  8
RACCORDO
100
AcDbLine
 62
250
  6
CONTINUOUS
 10
104.547084639
 20
23.0849836279
 11
104.7566092559
 21
23.0326224212
  0
LINE
  5
62F
100
AcDbEntity
  8
RACCORDO
100
AcDbLine
 62
250
  6
CONTINUOUS
 10
105.0384128464
 20
-47.201218346
 11
104.547084639
 21
-46.7098901385
  0
LINE
  5
630
100
AcDbEntity
  8
RACCORDO
100
AcDbLine
 62
250
  6
CONTINUOUS
 10
50.5384128464
 20
-14.9501523106
 11
50.5384128464
 21
-48.8483548705
  0
LINE
  5
631
100
AcDbEntity
  8
RACCORDO
100
AcDbLine
 62
250
  6
CONTINUOUS
 10
50.5384128464
 20
21.0501523106
 11
50.5384128464
 21
54.9483548705
  0
LINE
  5
632
100
AcDbEntity
  8
RACCORDO
100
AcDbLine
 62
7
  6
CONTINUOUS
 10
52.5384128464
 20
-46.7797316775
 11
52.5384128464
 21
-16.9675298924
  0
LINE
  5
633
100
AcDbEntity
  8
RACCORDO
100
AcDbLine
 62
7
  6
CONTINUOUS
 10
52.5384128464
 20
23.0675298924
 11
52.5384128464
 21
52.8797316775
  0
LINE
  5
634
100
AcDbEntity
  8
ASSI
100
AcDbLine
 62
7
  6
CONTINUOUS
 10
52.8008144205
 20
-0.0
 11
52.8008144205
 21
1.0166670313
  0
LINE
  5
635
100
AcDbEntity
  8
ASSI
100
AcDbLine
 62
7
  6
CONTINUOUS
 10
52.8008144205
 20
5.0833340618
 11
52.8008144205
 21
6.0999999985
  0
LINE
  5
636
100
AcDbEntity
  8
RACCORDO
100
AcDbLine
 62
7
  6
CONTINUOUS
 10
98.9384128464
 20
49.05
 11
98.5384128464
 21
49.05
  0
LINE
  5
637
100
AcDbEntity
  8
RACCORDO
100
AcDbLine
 62
250
  6
CONTINUOUS
 10
62.5384128464
 20
52.8098901385
 11
104.547084639
 21
52.8098901384
  0
LINE
  5
638
100
AcDbEntity
  8
RACCORDO
100
AcDbLine
 62
250
  6
CONTINUOUS
 10
52.5384128464
 20
52.8098901385
 11
-104.4702589461
 21
52.8098901385
  0
LINE
  5
639
100
AcDbEntity
  8
RACCORDO
100
AcDbLine
 62
250
  6
CONTINUOUS
 10
62.5396311924
 20
52.9495732165
 11
52.5371945005
 21
52.9495732165
  0
LINE
  5
63A
100
AcDbEntity
  8
RACCORDO
100
AcDbLine
 62
250
  6
CONTINUOUS
 10
102.548302985
 20
54.8086717926
 11
64.5384128464
 21
54.8086717926
  0
LINE
  5
63B
100
AcDbEntity
  8
RACCORDO
100
AcDbLine
 62
250
  6
CONTINUOUS
 10
50.5384128464
 20
54.8086717926
 11
-102.4714772921
 21
54.8086717926
  0
LINE
  5
63C
100
AcDbEntity
  8
RACCORDO
100
AcDbLine
 62
250
  6
CONTINUOUS
 10
64.5384128464
 20
54.9483548705
 11
50.5384128464
 21
54.9483548705
  0
LINE
  5
63D
100
AcDbEntity
  8
RACCORDO
100
AcDbLine
 62
7
  6
CONTINUOUS
 10
-103.461644269
 20
55.3
 11
103.5384699618
 21
55.3
  0
LINE
  5
63E
100
AcDbEntity
  8
RACCORDO
100
AcDbLine
 62
7
  6
CONTINUOUS
 10
62.5384128464
 20
52.8797316775
 11
62.5384128464
 21
23.0675298924
  0
LINE
  5
63F
100
AcDbEntity
  8
RACCORDO
100
AcDbLine
 62
7
  6
CONTINUOUS
 10
62.5384128464
 20
-16.9675298924
 11
62.5384128464
 21
-46.7797316775
  0
LINE
  5
640
100
AcDbEntity
  8
RACCORDO
100
AcDbLine
 62
250
  6
CONTINUOUS
 10
64.5384128464
 20
-14.9501523106
 11
64.5384128464
 21
-48.8483548705
  0
LINE
  5
641
100
AcDbEntity
  8
RACCORDO
100
AcDbLine
 62
250
  6
CONTINUOUS
 10
64.5384128464
 20
21.0501523106
 11
64.5384128464
 21
54.9483548705
  0
LINE
  5
642
100
AcDbEntity
  8
0
100
AcDbLine
 62
7
  6
CONTINUOUS
 10
66.0384128464
 20
-32.0
 11
66.0384128464
 21
-19.8
  0
LINE
  5
643
100
AcDbEntity
  8
0
100
AcDbLine
 62
7
  6
CONTINUOUS
 10
66.0384128464
 20
25.9
 11
66.0384128464
 21
38.1
  0
LINE
  5
644
100
AcDbEntity
  8
0
100
AcDbLine
 62
7
  6
CONTINUOUS
 10
68.0384128464
 20
38.1
 11
68.0384128464
 21
25.9
  0
LINE
  5
645
100
AcDbEntity
  8
0
100
AcDbLine
 62
7
  6
CONTINUOUS
 10
68.0384128464
 20
-19.8
 11
68.0384128464
 21
-32.0
  0
LINE
  5
646
100
AcDbEntity
  8
0
100
AcDbLine
 62
7
  6
CONTINUOUS
 10
71.0384128464
 20
-32.0
 11
71.0384128464
 21
-19.8
  0
LINE
  5
647
100
AcDbEntity
  8
0
100
AcDbLine
 62
7
  6
CONTINUOUS
 10
71.0384128464
 20
25.9
 11
71.0384128464
 21
38.1
  0
LINE
  5
648
100
AcDbEntity
  8
DRAFT
100
AcDbLine
 62
7
  6
CONTINUOUS
 10
72.0384128464
 20
-32.0
 11
72.0384128464
 21
-29.2
  0
LINE
  5
649
100
AcDbEntity
  8
0
100
AcDbLine
 62
7
  6
CONTINUOUS
 10
73.0384128464
 20
38.1
 11
73.0384128464
 21
25.9
  0
LINE
  5
64A
100
AcDbEntity
  8
0
100
AcDbLine
 62
7
  6
CONTINUOUS
 10
73.0384128464
 20
-19.8
 11
73.0384128464
 21
-32.0
  0
LINE
  5
64B
100
AcDbEntity
  8
RACCORDO
100
AcDbLine
 62
7
  6
CONTINUOUS
 10
73.5384128464
 20
-33.55
 11
73.5384128464
 21
-33.95
  0
LINE
  5
64C
100
AcDbEntity
  8
RACCORDO
100
AcDbLine
 62
7
  6
CONTINUOUS
 10
73.5384128464
 20
-45.95
 11
73.5384128464
 21
-46.35
  0
LINE
  5
64D
100
AcDbEntity
  8
0
100
AcDbLine
 62
7
  6
CONTINUOUS
 10
76.0384128464
 20
-32.0
 11
76.0384128464
 21
-19.8
  0
LINE
  5
64E
100
AcDbEntity
  8
0
100
AcDbLine
 62
7
  6
CONTINUOUS
 10
76.0384128464
 20
25.9
 11
76.0384128464
 21
38.1
  0
LINE
  5
64F
100
AcDbEntity
  8
DRAFT
100
AcDbLine
 62
250
  6
CONTINUOUS
 10
76.1384128464
 20
-37.35
 11
76.1384128464
 21
-37.1972798137
  0
LINE
  5
650
100
AcDbEntity
  8
DRAFT
100
AcDbLine
 62
250
  6
CONTINUOUS
 10
76.1384128464
 20
-42.55
 11
76.1384128464
 21
-42.7027201863
  0
LINE
  5
651
100
AcDbEntity
  8
0
100
AcDbLine
 62
7
  6
CONTINUOUS
 10
78.0384128464
 20
38.1
 11
78.0384128464
 21
25.9
  0
LINE
  5
652
100
AcDbEntity
  8
0
100
AcDbLine
 62
7
  6
CONTINUOUS
 10
78.0384128464
 20
-19.8
 11
78.0384128464
 21
-32.0
  0
LINE
  5
653
100
AcDbEntity
  8
DRAFT
100
AcDbLine
 62
250
  6
CONTINUOUS
 10
80.9384128464
 20
-37.35
 11
80.9384128464
 21
-37.1972798137
  0
LINE
  5
654
100
AcDbEntity
  8
DRAFT
100
AcDbLine
 62
250
  6
CONTINUOUS
 10
80.9384128464
 20
-42.55
 11
80.9384128464
 21
-42.7027201863
  0
LINE
  5
655
100
AcDbEntity
  8
0
100
AcDbLine
 62
7
  6
CONTINUOUS
 10
81.0384128464
 20
-32.0
 11
81.0384128464
 21
-19.8
  0
LINE
  5
656
100
AcDbEntity
  8
0
100
AcDbLine
 62
7
  6
CONTINUOUS
 10
81.0384128464
 20
25.9
 11
81.0384128464
 21
38.1
  0
LINE
  5
657
100
AcDbEntity
  8
0
100
AcDbLine
 62
7
  6
CONTINUOUS
 10
83.0384128464
 20
38.1
 11
83.0384128464
 21
25.9
  0
LINE
  5
658
100
AcDbEntity
  8
0
100
AcDbLine
 62
7
  6
CONTINUOUS
 10
83.0384128464
 20
-19.8
 11
83.0384128464
 21
-32.0
  0
LINE
  5
659
100
AcDbEntity
  8
RACCORDO
100
AcDbLine
 62
7
  6
CONTINUOUS
 10
83.5384128464
 20
-46.35
 11
83.5384128464
 21
-45.95
  0
LINE
  5
65A
100
AcDbEntity
  8
RACCORDO
100
AcDbLine
 62
7
  6
CONTINUOUS
 10
83.5384128464
 20
-33.95
 11
83.5384128464
 21
-33.55
  0
LINE
  5
65B
100
AcDbEntity
  8
0
100
AcDbLine
 62
7
  6
CONTINUOUS
 10
86.0384128464
 20
-32.0
 11
86.0384128464
 21
-19.8
  0
LINE
  5
65C
100
AcDbEntity
  8
0
100
AcDbLine
 62
7
  6
CONTINUOUS
 10
86.0384128464
 20
25.9
 11
86.0384128464
 21
38.1
  0
LINE
  5
65D
100
AcDbEntity
  8
0
100
AcDbLine
 62
7
  6
CONTINUOUS
 10
88.0384128464
 20
38.1
 11
88.0384128464
 21
25.9
  0
LINE
  5
65E
100
AcDbEntity
  8
0
100
AcDbLine
 62
7
  6
CONTINUOUS
 10
88.0384128464
 20
-19.8
 11
88.0384128464
 21
-32.0
  0
LINE
  5
65F
100
AcDbEntity
  8
DRAFT
100
AcDbLine
 62
7
  6
CONTINUOUS
 10
93.7384128464
 20
21.05
 11
93.7384128464
 21
17.95
  0
LINE
  5
660
100
AcDbEntity
  8
RACCORDO
100
AcDbLine
 62
7
  6
CONTINUOUS
 10
94.1384128464
 20
18.35
 11
94.1384128464
 21
23.0849836279
  0
LINE
  5
661
100
AcDbEntity
  8
RACCORDO
100
AcDbLine
 62
7
  6
CONTINUOUS
 10
97.0384128464
 20
-52.9
 11
97.0384128464
 21
-49.2
  0
LINE
  5
662
100
AcDbEntity
  8
RACCORDO
100
AcDbLine
 62
7
  6
CONTINUOUS
 10
98.0384128464
 20
48.55
 11
98.0384128464
 21
40.55
  0
LINE
  5
663
100
AcDbEntity
  8
RACCORDO
100
AcDbLine
 62
250
  6
CONTINUOUS
 10
98.5384128464
 20
49.05
 11
98.5384128464
 21
40.05
  0
LINE
  5
664
100
AcDbEntity
  8
RACCORDO
100
AcDbLine
 62
7
  6
CONTINUOUS
 10
98.5384128464
 20
-49.2
 11
98.5384128464
 21
-51.4
  0
LINE
  5
665
100
AcDbEntity
  8
RACCORDO
100
AcDbLine
 62
250
  6
CONTINUOUS
 10
98.9384128464
 20
40.05
 11
98.9384128464
 21
49.05
  0
LINE
  5
666
100
AcDbEntity
  8
RACCORDO
100
AcDbLine
 62
7
  6
CONTINUOUS
 10
99.4384128464
 20
40.55
 11
99.4384128464
 21
48.55
  0
LINE
  5
667
100
AcDbEntity
  8
DRAFT
100
AcDbLine
 62
7
  6
CONTINUOUS
 10
100.2747067116
 20
18.35
 11
100.2747067116
 21
17.95
  0
LINE
  5
668
100
AcDbEntity
  8
DRAFT
100
AcDbLine
 62
7
  6
CONTINUOUS
 10
100.3384128464
 20
18.35
 11
100.3384128464
 21
17.95
  0
LINE
  5
669
100
AcDbEntity
  8
RACCORDO
100
AcDbLine
 62
7
  6
CONTINUOUS
 10
101.0384128464
 20
-52.0
 11
101.0384128464
 21
-52.9
  0
LINE
  5
66A
100
AcDbEntity
  8
RACCORDO
100
AcDbLine
 62
7
  6
CONTINUOUS
 10
102.1384128464
 20
18.35
 11
102.1384128464
 21
23.0849836279
  0
LINE
  5
66B
100
AcDbEntity
  8
DRAFT
100
AcDbLine
 62
7
  6
CONTINUOUS
 10
102.4982661971
 20
21.018583276
 11
102.4982661971
 21
17.95
  0
LINE
  5
66C
100
AcDbEntity
  8
DRAFT
100
AcDbLine
 62
7
  6
CONTINUOUS
 10
102.5384128464
 20
21.018583276
 11
102.5384128464
 21
17.95
  0
LINE
  5
66D
100
AcDbEntity
  8
RACCORDO
100
AcDbLine
 62
250
  6
CONTINUOUS
 10
102.548302985
 20
-14.9850597818
 11
102.5483029848
 21
-48.7086717926
  0
LINE
  5
66E
100
AcDbEntity
  8
RACCORDO
100
AcDbLine
 62
250
  6
CONTINUOUS
 10
102.548302985
 20
21.0850597818
 11
102.548302985
 21
54.8086717926
  0
LINE
  5
66F
100
AcDbEntity
  8
DRAFT
100
AcDbLine
 62
7
  6
CONTINUOUS
 10
102.555866582
 20
21.05
 11
102.555866582
 21
17.95
  0
LINE
  5
670
100
AcDbEntity
  8
RACCORDO
100
AcDbLine
 62
250
  6
CONTINUOUS
 10
102.7578276019
 20
21.0511972268
 11
102.7578276019
 21
-14.9511972268
  0
LINE
  5
671
100
AcDbEntity
  8
RACCORDO
100
AcDbLine
 62
250
  6
CONTINUOUS
 10
104.547084639
 20
-46.7098901385
 11
104.547084639
 21
-16.9849836279
  0
LINE
  5
672
100
AcDbEntity
  8
RACCORDO
100
AcDbLine
 62
250
  6
CONTINUOUS
 10
104.547084639
 20
23.0849836279
 11
104.547084639
 21
52.8098901385
  0
LINE
  5
673
100
AcDbEntity
  8
RACCORDO
100
AcDbLine
 62
250
  6
CONTINUOUS
 10
104.7566092559
 20
23.0326224212
 11
104.7566092559
 21
-16.9326224212
  0
LINE
  5
674
100
AcDbEntity
  8
RACCORDO
100
AcDbLine
 62
7
  6
CONTINUOUS
 10
105.0384128464
 20
53.8000571154
 11
105.0384128464
 21
-47.7000571154
  0
ARC
  5
675
100
AcDbEntity
  8
RACCORDO
100
AcDbCircle
 62
250
  6
CONTINUOUS
 10
-102.4685845173
 20
-46.7069973637
 40
2.0016807753
100
AcDbArc
 50
180.0828025123
 51
269.9171974877
  0
ARC
  5
676
100
AcDbEntity
  8
RACCORDO
100
AcDbCircle
 62
250
  6
CONTINUOUS
 10
-10.1822019507
 20
-16.9852291328
 40
2.0001773489
100
AcDbArc
 50
0.007032546
 51
89.985967121
  0
ARC
  5
677
100
AcDbEntity
  8
RACCORDO
100
AcDbCircle
 62
250
  6
CONTINUOUS
 10
-102.4701329404
 20
-16.9851060895
 40
2.0000883033
100
AcDbArc
 50
90.0385119413
 51
179.9964919547
  0
ARC
  5
678
100
AcDbEntity
  8
RACCORDO
100
AcDbCircle
 62
250
  6
CONTINUOUS
 10
-7.2109374696
 20
-46.7092368712
 40
1.9993911058
100
AcDbArc
 50
269.9813826651
 51
359.981279188
  0
ARC
  5
679
100
AcDbEntity
  8
RACCORDO
100
AcDbCircle
 62
7
  6
CONTINUOUS
 10
-98.8615871536
 20
-42.45
 40
0.5
100
AcDbArc
 50
180.0
 51
270.0
  0
ARC
  5
67A
100
AcDbEntity
  8
RACCORDO
100
AcDbCircle
 62
7
  6
CONTINUOUS
 10
-98.8615871536
 20
-34.45
 40
0.5
100
AcDbArc
 50
90.0
 51
180.0
  0
ARC
  5
67B
100
AcDbEntity
  8
RACCORDO
100
AcDbCircle
 62
7
  6
CONTINUOUS
 10
-98.4615871536
 20
-42.45
 40
0.5
100
AcDbArc
 50
270.0
 51
360.0
  0
ARC
  5
67C
100
AcDbEntity
  8
RACCORDO
100
AcDbCircle
 62
7
  6
CONTINUOUS
 10
-98.4615871536
 20
-34.45
 40
0.5
100
AcDbArc
 50
0.0
 51
90.0
  0
ARC
  5
67D
100
AcDbEntity
  8
0
100
AcDbCircle
 62
250
  6
CONTINUOUS
 10
-3.2650727225
 20
-32.0914331105
 40
0.3089010644
100
AcDbArc
 50
294.5885227553
 51
301.0496316239
  0
ARC
  5
67E
100
AcDbEntity
  8
0
100
AcDbCircle
 62
7
  6
CONTINUOUS
 10
-3.2616388575
 20
-32.6998775606
 40
0.2998922648
100
AcDbArc
 50
180.0233882282
 51
292.3338336258
  0
ARC
  5
67F
100
AcDbEntity
  8
ASSI
100
AcDbCircle
 62
7
  6
CONTINUOUS
 10
-11.3820046944
 20
1.1646458886
 40
3.9364146972
100
AcDbArc
 50
159.0191965858
 51
163.7921491218
  0
ARC
  5
680
100
AcDbEntity
  8
ASSI
100
AcDbCircle
 62
7
  6
CONTINUOUS
 10
-51.9027403415
 20
1.1646458886
 40
3.9364146972
100
AcDbArc
 50
159.0191965858
 51
163.7921491218
  0
ARC
  5
681
100
AcDbEntity
  8
ASSI
100
AcDbCircle
 62
7
  6
CONTINUOUS
 10
-60.1499154021
 20
1.1646458886
 40
3.9364146972
100
AcDbArc
 50
159.0191965858
 51
163.7921491218
  0
ARC
  5
682
100
AcDbEntity
  8
ASSI
100
AcDbCircle
 62
7
  6
CONTINUOUS
 10
-75.3177968071
 20
1.1646458886
 40
3.9364146972
100
AcDbArc
 50
159.0191965858
 51
163.7921491218
  0
ARC
  5
683
100
AcDbEntity
  8
DRAFT
100
AcDbCircle
 62
7
  6
CONTINUOUS
 10
-96.7615871536
 20
36.5
 40
2.7527201863
100
AcDbArc
 50
0.0
 51
180.0
  0
ARC
  5
684
100
AcDbEntity
  8
DRAFT
100
AcDbCircle
 62
7
  6
CONTINUOUS
 10
-96.7615871536
 20
31.7
 40
2.7527201863
100
AcDbArc
 50
180.0
 51
360.0
  0
ARC
  5
685
100
AcDbEntity
  8
DRAFT
100
AcDbCircle
 62
7
  6
CONTINUOUS
 10
-96.7615871536
 20
31.7
 40
2.6
100
AcDbArc
 50
180.0
 51
360.0
  0
ARC
  5
686
100
AcDbEntity
  8
DRAFT
100
AcDbCircle
 62
7
  6
CONTINUOUS
 10
-96.7615871536
 20
36.5
 40
2.6
100
AcDbArc
 50
0.0
 51
180.0
  0
ARC
  5
687
100
AcDbEntity
  8
ASSI
100
AcDbCircle
 62
7
  6
CONTINUOUS
 10
-11.7115414401
 20
4.2190921041
 40
2.159209266
100
AcDbArc
 50
337.4191892411
 51
347.6454766647
  0
ARC
  5
688
100
AcDbEntity
  8
ASSI
100
AcDbCircle
 62
7
  6
CONTINUOUS
 10
-19.8087678632
 20
4.2190921041
 40
2.159209266
100
AcDbArc
 50
337.4191892411
 51
347.6454766647
  0
ARC
  5
689
100
AcDbEntity
  8
ASSI
100
AcDbCircle
 62
7
  6
CONTINUOUS
 10
-31.5855031595
 20
4.2190921041
 40
2.159209266
100
AcDbArc
 50
337.4191892411
 51
347.6454766647
  0
ARC
  5
68A
100
AcDbEntity
  8
ASSI
100
AcDbCircle
 62
7
  6
CONTINUOUS
 10
-48.1144568123
 20
4.2190921041
 40
2.159209266
100
AcDbArc
 50
337.4191892411
 51
347.6454766647
  0
ARC
  5
68B
100
AcDbEntity
  8
ASSI
100
AcDbCircle
 62
7
  6
CONTINUOUS
 10
-63.5707009817
 20
4.2190921041
 40
2.159209266
100
AcDbArc
 50
337.4191892411
 51
347.6454766647
  0
ARC
  5
68C
100
AcDbEntity
  8
ASSI
100
AcDbCircle
 62
7
  6
CONTINUOUS
 10
-68.5766785709
 20
4.2190921041
 40
2.159209266
100
AcDbArc
 50
337.4191892411
 51
347.6454766647
  0
ARC
  5
68D
100
AcDbEntity
  8
ASSI
100
AcDbCircle
 62
7
  6
CONTINUOUS
 10
-76.5239563565
 20
4.2190921041
 40
2.159209266
100
AcDbArc
 50
337.4191892411
 51
347.6454766647
  0
ARC
  5
68E
100
AcDbEntity
  8
RACCORDO
100
AcDbCircle
 62
250
  6
CONTINUOUS
 10
-102.4685845172
 20
52.8069973636
 40
2.0016807754
100
AcDbArc
 50
90.0828025149
 51
179.9171974851
  0
ARC
  5
68F
100
AcDbEntity
  8
RACCORDO
100
AcDbCircle
 62
250
  6
CONTINUOUS
 10
-102.4701329457
 20
23.085106092
 40
2.0000883037
100
AcDbArc
 50
180.0035081153
 51
269.9614882097
  0
ARC
  5
690
100
AcDbEntity
  8
RACCORDO
100
AcDbCircle
 62
7
  6
CONTINUOUS
 10
-102.8615871536
 20
29.6
 40
0.5
100
AcDbArc
 50
270.0
 51
360.0
  0
ARC
  5
691
100
AcDbEntity
  8
RACCORDO
100
AcDbCircle
 62
7
  6
CONTINUOUS
 10
-102.8615871536
 20
38.6
 40
0.5
100
AcDbArc
 50
0.0
 51
90.0
  0
ARC
  5
692
100
AcDbEntity
  8
RACCORDO
100
AcDbCircle
 62
7
  6
CONTINUOUS
 10
-90.6615871536
 20
29.6
 40
0.5
100
AcDbArc
 50
180.0
 51
270.0
  0
ARC
  5
693
100
AcDbEntity
  8
RACCORDO
100
AcDbCircle
 62
7
  6
CONTINUOUS
 10
-90.6615871536
 20
38.6
 40
0.5
100
AcDbArc
 50
90.0
 51
180.0
  0
ARC
  5
694
100
AcDbEntity
  8
RACCORDO
100
AcDbCircle
 62
7
  6
CONTINUOUS
 10
-90.2615871536
 20
29.6
 40
0.5
100
AcDbArc
 50
270.0
 51
360.0
  0
ARC
  5
695
100
AcDbEntity
  8
RACCORDO
100
AcDbCircle
 62
7
  6
CONTINUOUS
 10
-90.2615871536
 20
38.6
 40
0.5
100
AcDbArc
 50
0.0
 51
90.0
  0
ARC
  5
696
100
AcDbEntity
  8
RACCORDO
100
AcDbCircle
 62
7
  6
CONTINUOUS
 10
-103.2615871536
 20
38.6
 40
0.5
100
AcDbArc
 50
90.0
 51
180.0
  0
ARC
  5
697
100
AcDbEntity
  8
RACCORDO
100
AcDbCircle
 62
7
  6
CONTINUOUS
 10
-103.2615871536
 20
29.6
 40
0.5
100
AcDbArc
 50
180.0
 51
270.0
  0
ARC
  5
698
100
AcDbEntity
  8
DRAFT
100
AcDbCircle
 62
7
  6
CONTINUOUS
 10
80.9384128464
 20
-39.95
 40
2.7527201863
100
AcDbArc
 50
270.0
 51
90.0
  0
ARC
  5
699
100
AcDbEntity
  8
DRAFT
100
AcDbCircle
 62
7
  6
CONTINUOUS
 10
76.1384128464
 20
-39.95
 40
2.7527201863
100
AcDbArc
 50
90.0
 51
270.0
  0
ARC
  5
69A
100
AcDbEntity
  8
DRAFT
100
AcDbCircle
 62
7
  6
CONTINUOUS
 10
76.1384128464
 20
-39.95
 40
2.6
100
AcDbArc
 50
119.9254616586
 51
270.0
  0
ARC
  5
69B
100
AcDbEntity
  8
DRAFT
100
AcDbCircle
 62
7
  6
CONTINUOUS
 10
80.9384128464
 20
-39.95
 40
2.6
100
AcDbArc
 50
270.0
 51
60.0745383414
  0
ARC
  5
69C
100
AcDbEntity
  8
RACCORDO
100
AcDbCircle
 62
250
  6
CONTINUOUS
 10
102.5453742655
 20
-46.7069614191
 40
2.00172501
100
AcDbArc
 50
270.0838298822
 51
359.9161701178
  0
ARC
  5
69D
100
AcDbEntity
  8
RACCORDO
100
AcDbCircle
 62
250
  6
CONTINUOUS
 10
10.2590276436
 20
-16.9852291328
 40
2.0001773489
100
AcDbArc
 50
90.0140328791
 51
179.9929674541
  0
ARC
  5
69E
100
AcDbEntity
  8
RACCORDO
100
AcDbCircle
 62
250
  6
CONTINUOUS
 10
102.5469586333
 20
-16.9851060895
 40
2.0000883033
100
AcDbArc
 50
0.0035080454
 51
89.9614880586
  0
ARC
  5
69F
100
AcDbEntity
  8
RACCORDO
100
AcDbCircle
 62
250
  6
CONTINUOUS
 10
50.5384509227
 20
-16.9850217056
 40
1.9999619242
100
AcDbArc
 50
0.0010908654
 51
90.0010908239
  0
ARC
  5
6A0
100
AcDbEntity
  8
RACCORDO
100
AcDbCircle
 62
250
  6
CONTINUOUS
 10
64.5383747702
 20
-16.9850217056
 40
1.9999619242
100
AcDbArc
 50
89.9989091761
 51
179.9989091346
  0
ARC
  5
6A1
100
AcDbEntity
  8
RACCORDO
100
AcDbCircle
 62
250
  6
CONTINUOUS
 10
50.5390625328
 20
-46.709236866
 40
1.9993911054
100
AcDbArc
 50
269.9813825971
 51
359.9812790399
  0
ARC
  5
6A2
100
AcDbEntity
  8
RACCORDO
100
AcDbCircle
 62
250
  6
CONTINUOUS
 10
64.5377631601
 20
-46.709236866
 40
1.9993911054
100
AcDbArc
 50
180.0187209605
 51
270.0186174025
  0
ARC
  5
6A3
100
AcDbEntity
  8
RACCORDO
100
AcDbCircle
 62
250
  6
CONTINUOUS
 10
7.2877631624
 20
-46.7092368712
 40
1.9993911058
100
AcDbArc
 50
180.0187208103
 51
270.0186173368
  0
ARC
  5
6A4
100
AcDbEntity
  8
RACCORDO
100
AcDbCircle
 62
7
  6
CONTINUOUS
 10
83.0384128464
 20
-45.95
 40
0.5
100
AcDbArc
 50
0.0
 51
90.0
  0
ARC
  5
6A5
100
AcDbEntity
  8
RACCORDO
100
AcDbCircle
 62
7
  6
CONTINUOUS
 10
74.0384128464
 20
-45.95
 40
0.5
100
AcDbArc
 50
90.0
 51
180.0
  0
ARC
  5
6A6
100
AcDbEntity
  8
RACCORDO
100
AcDbCircle
 62
7
  6
CONTINUOUS
 10
74.0384128464
 20
-46.35
 40
0.5
100
AcDbArc
 50
180.0
 51
270.0
  0
ARC
  5
6A7
100
AcDbEntity
  8
RACCORDO
100
AcDbCircle
 62
7
  6
CONTINUOUS
 10
83.0384128464
 20
-46.35
 40
0.5
100
AcDbArc
 50
270.0
 51
360.0
  0
ARC
  5
6A8
100
AcDbEntity
  8
RACCORDO
100
AcDbCircle
 62
7
  6
CONTINUOUS
 10
83.0384128464
 20
-33.55
 40
0.5
100
AcDbArc
 50
0.0
 51
90.0
  0
ARC
  5
6A9
100
AcDbEntity
  8
RACCORDO
100
AcDbCircle
 62
7
  6
CONTINUOUS
 10
74.0384128464
 20
-33.55
 40
0.5
100
AcDbArc
 50
90.0
 51
180.0
  0
ARC
  5
6AA
100
AcDbEntity
  8
RACCORDO
100
AcDbCircle
 62
7
  6
CONTINUOUS
 10
74.0384128464
 20
-33.95
 40
0.5
100
AcDbArc
 50
180.0
 51
270.0
  0
ARC
  5
6AB
100
AcDbEntity
  8
RACCORDO
100
AcDbCircle
 62
7
  6
CONTINUOUS
 10
83.0384128464
 20
-33.95
 40
0.5
100
AcDbArc
 50
270.0
 51
360.0
  0
ARC
  5
6AC
100
AcDbEntity
  8
RACCORDO
100
AcDbCircle
 62
7
  6
CONTINUOUS
 10
98.8384128464
 20
-51.4
 40
0.3
100
AcDbArc
 50
180.0
 51
270.0
  0
ARC
  5
6AD
100
AcDbEntity
  8
RACCORDO
100
AcDbCircle
 62
7
  6
CONTINUOUS
 10
97.3384128464
 20
-52.9
 40
0.3
100
AcDbArc
 50
180.0
 51
270.0
  0
ARC
  5
6AE
100
AcDbEntity
  8
RACCORDO
100
AcDbCircle
 62
7
  6
CONTINUOUS
 10
100.7384128464
 20
-52.0
 40
0.3
100
AcDbArc
 50
0.0
 51
90.0
  0
ARC
  5
6AF
100
AcDbEntity
  8
RACCORDO
100
AcDbCircle
 62
7
  6
CONTINUOUS
 10
100.7384128464
 20
-52.9
 40
0.3
100
AcDbArc
 50
270.0
 51
360.0
  0
ARC
  5
6B0
100
AcDbEntity
  8
ASSI
100
AcDbCircle
 62
7
  6
CONTINUOUS
 10
39.8245444016
 20
3.9096568615
 40
3.9252386973
100
AcDbArc
 50
66.1507656662
 51
77.0671262523
  0
ARC
  5
6B1
100
AcDbEntity
  8
ASSI
100
AcDbCircle
 62
7
  6
CONTINUOUS
 10
39.8245454947
 20
3.9096616218
 40
3.9252342465
100
AcDbArc
 50
104.6184599962
 51
108.0305274071
  0
ARC
  5
6B2
100
AcDbEntity
  8
ASSI
100
AcDbCircle
 62
7
  6
CONTINUOUS
 10
39.8245454947
 20
3.9096616218
 40
3.9252339881
100
AcDbArc
 50
109.1820962274
 51
112.6110327739
  0
ARC
  5
6B3
100
AcDbEntity
  8
ASSI
100
AcDbCircle
 62
7
  6
CONTINUOUS
 10
39.8245454947
 20
3.9096616218
 40
3.9252334397
100
AcDbArc
 50
78.1844571259
 51
90.8185424079
  0
ARC
  5
6B4
100
AcDbEntity
  8
ASSI
100
AcDbCircle
 62
7
  6
CONTINUOUS
 10
39.8245454947
 20
3.9096616218
 40
3.9252331561
100
AcDbArc
 50
91.9102115712
 51
103.4934032385
  0
ARC
  5
6B5
100
AcDbEntity
  8
ASSI
100
AcDbCircle
 62
7
  6
CONTINUOUS
 10
39.8245454947
 20
3.9096616218
 40
3.8504679521
100
AcDbArc
 50
109.5695884542
 51
111.7987181432
  0
ARC
  5
6B6
100
AcDbEntity
  8
ASSI
100
AcDbCircle
 62
7
  6
CONTINUOUS
 10
39.824545291
 20
3.9096607527
 40
3.8504678375
100
AcDbArc
 50
66.0805562364
 51
76.8115157989
  0
ARC
  5
6B7
100
AcDbEntity
  8
ASSI
100
AcDbCircle
 62
7
  6
CONTINUOUS
 10
39.8245454947
 20
3.9096616218
 40
3.8504675379
100
AcDbArc
 50
91.9473168422
 51
103.7605121028
  0
ARC
  5
6B8
100
AcDbEntity
  8
ASSI
100
AcDbCircle
 62
7
  6
CONTINUOUS
 10
39.8245454947
 20
3.9096616218
 40
3.8504671521
100
AcDbArc
 50
104.9088315982
 51
108.3930507127
  0
ARC
  5
6B9
100
AcDbEntity
  8
ASSI
100
AcDbCircle
 62
7
  6
CONTINUOUS
 10
39.8245454947
 20
3.9096616218
 40
3.8504668031
100
AcDbArc
 50
77.9516186991
 51
90.8344375197
  0
ARC
  5
6BA
100
AcDbEntity
  8
ASSI
100
AcDbCircle
 62
7
  6
CONTINUOUS
 10
26.0188228464
 20
3.049988
 40
2.5500000352
100
AcDbArc
 50
84.2608296022
 51
275.7391703978
  0
ARC
  5
6BB
100
AcDbEntity
  8
ASSI
100
AcDbCircle
 62
7
  6
CONTINUOUS
 10
30.3538228464
 20
3.049988
 40
2.5500000352
100
AcDbArc
 50
84.2608296022
 51
275.7391703978
  0
ARC
  5
6BC
100
AcDbEntity
  8
RACCORDO
100
AcDbCircle
 62
250
  6
CONTINUOUS
 10
50.5384509227
 20
23.0850217056
 40
1.9999619242
100
AcDbArc
 50
269.9989091761
 51
359.9989091346
  0
ARC
  5
6BD
100
AcDbEntity
  8
ASSI
100
AcDbCircle
 62
7
  6
CONTINUOUS
 10
30.3538228464
 20
3.049988
 40
1.7850001745
100
AcDbArc
 50
81.7867901066
 51
167.6263761709
  0
ARC
  5
6BE
100
AcDbEntity
  8
ASSI
100
AcDbCircle
 62
7
  6
CONTINUOUS
 10
26.0188228464
 20
3.049988
 40
1.7850001745
100
AcDbArc
 50
81.7867901066
 51
278.2132098934
  0
ARC
  5
6BF
100
AcDbEntity
  8
ASSI
100
AcDbCircle
 62
7
  6
CONTINUOUS
 10
30.3538228464
 20
3.049988
 40
1.7849997292
100
AcDbArc
 50
192.373627023
 51
278.2132119317
  0
ARC
  5
6C0
100
AcDbEntity
  8
ASSI
100
AcDbCircle
 62
7
  6
CONTINUOUS
 10
41.1516474947
 20
1.9657366218
 40
0.6542057106
100
AcDbArc
 50
84.9999868542
 51
176.7241833468
  0
ARC
  5
6C1
100
AcDbEntity
  8
ASSI
100
AcDbCircle
 62
7
  6
CONTINUOUS
 10
41.1516474947
 20
1.9657366218
 40
0.6542055022
100
AcDbArc
 50
183.2758166532
 51
78.4374939936
  0
CIRCLE
  5
6C2
100
AcDbEntity
  8
ASSI
100
AcDbCircle
 62
7
  6
CONTINUOUS
 10
52.8008138464
 20
3.050001
 40
0.508333
  0
CIRCLE
  5
6C3
100
AcDbEntity
  8
ASSI
100
AcDbCircle
 62
7
  6
CONTINUOUS
 10
41.1516474947
 20
1.9657366218
 40
0.373832
  0
ARC
  5
6C4
100
AcDbEntity
  8
ASSI
100
AcDbCircle
 62
7
  6
CONTINUOUS
 10
41.7123954636
 20
7.3489146683
 40
0.3364491397
100
AcDbArc
 50
303.748776311
 51
153.3682546595
  0
ARC
  5
6C5
100
AcDbEntity
  8
ASSI
100
AcDbCircle
 62
7
  6
CONTINUOUS
 10
41.712395563
 20
7.3489146373
 40
0.3364487707
100
AcDbArc
 50
166.153055358
 51
192.8396974407
  0
CIRCLE
  5
6C6
100
AcDbEntity
  8
ASSI
100
AcDbCircle
 62
7
  6
CONTINUOUS
 10
41.1516474947
 20
1.9657366218
 40
0.224299
  0
ARC
  5
6C7
100
AcDbEntity
  8
RACCORDO
100
AcDbCircle
 62
250
  6
CONTINUOUS
 10
50.5390625328
 20
52.8092368662
 40
1.9993911054
100
AcDbArc
 50
0.0187209535
 51
90.0186174036
  0
ARC
  5
6C8
100
AcDbEntity
  8
RACCORDO
100
AcDbCircle
 62
250
  6
CONTINUOUS
 10
102.5469586386
 20
23.0851060919
 40
2.0000883037
100
AcDbArc
 50
270.0385117896
 51
359.9964918855
  0
ARC
  5
6C9
100
AcDbEntity
  8
RACCORDO
100
AcDbCircle
 62
250
  6
CONTINUOUS
 10
64.5383747702
 20
23.0850217056
 40
1.9999619242
100
AcDbArc
 50
180.0010908654
 51
270.0010908239
  0
ARC
  5
6CA
100
AcDbEntity
  8
RACCORDO
100
AcDbCircle
 62
250
  6
CONTINUOUS
 10
102.5453742655
 20
52.8069614191
 40
2.00172501
100
AcDbArc
 50
0.0838298822
 51
89.9161701178
  0
ARC
  5
6CB
100
AcDbEntity
  8
RACCORDO
100
AcDbCircle
 62
250
  6
CONTINUOUS
 10
64.53776316
 20
52.8092368662
 40
1.9993911054
100
AcDbArc
 50
89.9813825964
 51
179.9812790465
  0
ARC
  5
6CC
100
AcDbEntity
  8
RACCORDO
100
AcDbCircle
 62
7
  6
CONTINUOUS
 10
98.9384128464
 20
48.55
 40
0.5
100
AcDbArc
 50
0.0
 51
90.0
  0
ARC
  5
6CD
100
AcDbEntity
  8
RACCORDO
100
AcDbCircle
 62
7
  6
CONTINUOUS
 10
98.9384128464
 20
40.55
 40
0.5
100
AcDbArc
 50
270.0
 51
360.0
  0
ARC
  5
6CE
100
AcDbEntity
  8
RACCORDO
100
AcDbCircle
 62
7
  6
CONTINUOUS
 10
98.5384128464
 20
48.55
 40
0.5
100
AcDbArc
 50
90.0
 51
180.0
  0
ARC
  5
6CF
100
AcDbEntity
  8
RACCORDO
100
AcDbCircle
 62
7
  6
CONTINUOUS
 10
98.5384128464
 20
40.55
 40
0.5
100
AcDbArc
 50
180.0
 51
270.0
  0
SPLINE
  5
6D0
100
AcDbEntity
  8
0
100
AcDbSpline
 62
250
  6
CONTINUOUS
 70
0
 71
3
 72
12
 73
8
 74
0
 42
0.0000001
 43
0.0000001
 44
0.0000000001
 40
0.0
 40
0.0
 40
0.0
 40
0.0
 40
0.0481393146
 40
0.119355354
 40
0.3385464229
 40
0.6457065683
 40
1.0
 40
1.0
 40
1.0
 40
1.0
 10
-0.6993947102
 20
-31.2004843152
 30
0.0
 10
-0.7042918664
 20
-31.2016541122
 30
0.0
 10
-0.7145684119
 20
-31.2102503752
 30
0.0
 10
-0.731736665
 20
-31.2411918534
 30
0.0
 10
-0.7479626873
 20
-31.3024227668
 30
0.0
 10
-0.7597554512
 20
-31.3936550316
 30
0.0
 10
-0.7626625158
 20
-31.4629441306
 30
0.0
 10
-0.7626625158
 20
-31.5
 30
0.0
  0
SPLINE
  5
6D1
100
AcDbEntity
  8
0
100
AcDbSpline
 62
250
  6
CONTINUOUS
 70
0
 71
3
 72
16
 73
12
 74
0
 42
0.0000001
 43
0.0000001
 44
0.0000000001
 40
0.0
 40
0.0
 40
0.0
 40
0.0
 40
0.3689055638
 40
0.5356391498
 40
0.6819546034
 40
0.8017956464
 40
0.8928389786
 40
0.9276831225
 40
0.9558779324
 40
0.9789208298
 40
1.0
 40
1.0
 40
1.0
 40
1.0
 10
-0.7626625158
 20
-31.5
 30
0.0
 10
-0.7626625158
 20
-31.5394885226
 30
0.0
 10
-0.7601653486
 20
-31.5968889715
 30
0.0
 10
-0.7514791433
 20
-31.6693891689
 30
0.0
 10
-0.7431080104
 20
-31.7150223615
 30
0.0
 10
-0.7328551902
 20
-31.7518920542
 30
0.0
 10
-0.7225369279
 20
-31.7762933597
 30
0.0
 10
-0.7132282659
 20
-31.7899830621
 30
0.0
 10
-0.7066156199
 20
-31.796525765
 30
0.0
 10
-0.6995104686
 20
-31.8000760356
 30
0.0
 10
-0.694579809
 20
-31.8000368545
 30
0.0
 10
-0.6923862669
 20
-31.7995081275
 30
0.0
  0
SPLINE
  5
6D2
100
AcDbEntity
  8
0
100
AcDbSpline
 62
250
  6
CONTINUOUS
 70
0
 71
3
 72
12
 73
8
 74
0
 42
0.0000001
 43
0.0000001
 44
0.0000000001
 40
0.0
 40
0.0
 40
0.0
 40
0.0
 40
0.2497877954
 40
0.4995206672
 40
0.6248560063
 40
0.7502030051
 40
1.0
 40
1.0
 40
1.0
 40
1.0
 10
-3.5615856551
 20
-32.100918008
 30
0.0
 10
-3.5614703555
 20
-32.1362452484
 30
0.0
 10
-3.548006437
 20
-32.2073438243
 30
0.0
 10
-3.5022300407
 20
-32.2850987856
 30
0.0
 10
-3.451099268
 20
-32.3345959781
 30
0.0
 10
-3.391855079
 20
-32.3738102227
 30
0.0
 10
-3.3403139643
 20
-32.3914031577
 30
0.0
 10
-3.3053788006
 20
-32.3966618145
 30
0.0
  0
SPLINE
  5
6D3
100
AcDbEntity
  8
ASSI
100
AcDbSpline
 62
7
  6
CONTINUOUS
 70
0
 71
3
 72
12
 73
8
 74
0
 42
0.0000001
 43
0.0000001
 44
0.0000000001
 40
0.0
 40
0.0
 40
0.0
 40
0.0
 40
0.160170272
 40
0.373833895
 40
0.5801046928
 40
0.7863141084
 40
1.0
 40
1.0
 40
1.0
 40
1.0
 10
50.8571381451
 20
2.4513941147
 30
0.0
 10
50.7978153148
 20
2.6442368083
 30
0.0
 10
50.7268407187
 20
3.1175007039
 30
0.0
 10
50.8743884596
 20
3.853761718
 30
0.0
 10
51.3273931324
 20
4.5235904963
 30
0.0
 10
51.9964752973
 20
4.9756863582
 30
0.0
 10
52.5316416243
 20
5.0833340618
 30
0.0
 10
52.8008144205
 20
5.0833340618
 30
0.0
  0
SPLINE
  5
6D4
100
AcDbEntity
  8
ASSI
100
AcDbSpline
 62
7
  6
CONTINUOUS
 70
0
 71
3
 72
13
 73
9
 74
0
 42
0.0000001
 43
0.0000001
 44
0.0000000001
 40
0.0
 40
0.0
 40
0.0
 40
0.0
 40
0.1820448067
 40
0.3577131209
 40
0.5334393081
 40
0.7154636694
 40
0.860240729
 40
1.0
 40
1.0
 40
1.0
 40
1.0
 10
52.8008144205
 20
6.0999999985
 30
0.0
 10
52.3970519428
 20
6.0999999985
 30
0.0
 10
51.5943378776
 20
5.9384208676
 30
0.0
 10
50.5906868056
 20
5.2603647543
 30
0.0
 10
49.9110814022
 20
4.2557813265
 30
0.0
 10
49.6864780961
 20
3.1321288411
 30
0.0
 10
49.8506263814
 20
2.0942190107
 30
0.0
 10
50.14279913
 20
1.5214345223
 30
0.0
 10
50.3239132487
 20
1.2698736077
 30
0.0
  0
SPLINE
  5
6D5
100
AcDbEntity
  8
ASSI
100
AcDbSpline
 62
7
  6
CONTINUOUS
 70
0
 71
3
 72
9
 73
5
 74
0
 42
0.0000001
 43
0.0000001
 44
0.0000000001
 40
0.0
 40
0.0
 40
0.0
 40
0.0
 40
0.2458206488
 40
1.0
 40
1.0
 40
1.0
 40
1.0
 10
51.0378678594
 20
0.5608192328
 30
0.0
 10
51.162602232
 20
0.4723165647
 30
0.0
 10
51.6958649038
 20
0.1497874684
 30
0.0
 10
52.3315860585
 20
-0.0
 30
0.0
 10
52.8008144205
 20
-0.0
 30
0.0
  0
SPLINE
  5
6D6
100
AcDbEntity
  8
ASSI
100
AcDbSpline
 62
7
  6
CONTINUOUS
 70
0
 71
3
 72
9
 73
5
 74
0
 42
0.0000001
 43
0.0000001
 44
0.0000000001
 40
0.0
 40
0.0
 40
0.0
 40
0.0
 40
0.2600413185
 40
1.0
 40
1.0
 40
1.0
 40
1.0
 10
52.8008144205
 20
1.0166670313
 30
0.0
 10
52.6782827696
 20
1.0166670313
 30
0.0
 10
52.2075092686
 20
1.0573406865
 30
0.0
 10
51.7552315171
 20
1.2713332355
 30
0.0
 10
51.4889450099
 20
1.4964164726
 30
0.0
  0
SPLINE
  5
6D7
100
AcDbEntity
  8
ASSI
100
AcDbSpline
 62
7
  6
CONTINUOUS
 70
0
 71
3
 72
16
 73
12
 74
0
 42
0.0000001
 43
0.0000001
 44
0.0000000001
 40
0.0
 40
0.0
 40
0.0
 40
0.0
 40
0.1216765773
 40
0.2476390351
 40
0.3732356714
 40
0.4944866233
 40
0.6157375752
 40
0.7413342114
 40
0.8669308477
 40
0.9881817996
 40
1.0
 40
1.0
 40
1.0
 40
1.0
 10
51.7194581476
 20
1.9745268551
 30
0.0
 10
51.8577386661
 20
1.8362463366
 30
0.0
 10
52.1968028575
 20
1.6064618773
 30
0.0
 10
52.8000510839
 20
1.4838555899
 30
0.0
 10
53.4036284652
 20
1.6052953024
 30
0.0
 10
53.9059697042
 20
1.9448432939
 30
0.0
 10
54.2454838469
 20
2.4472270131
 30
0.0
 10
54.3669882105
 20
3.0500014914
 30
0.0
 10
54.2442990846
 20
3.6527671199
 30
0.0
 10
54.0097485096
 20
4.0058141915
 30
0.0
 10
53.8513070669
 20
4.1551117617
 30
0.0
 10
53.8369541613
 20
4.1681089605
 30
0.0
  0
SPLINE
  5
6D8
100
AcDbEntity
  8
ASSI
100
AcDbSpline
 62
7
  6
CONTINUOUS
 70
0
 71
3
 72
9
 73
5
 74
0
 42
0.0000001
 43
0.0000001
 44
0.0000000001
 40
0.0
 40
0.0
 40
0.0
 40
0.0
 40
0.506587071
 40
1.0
 40
1.0
 40
1.0
 40
1.0
 10
52.8008144205
 20
4.5749999989
 30
0.0
 10
52.5092403443
 20
4.5749999989
 30
0.0
 10
51.9205879034
 20
4.402056929
 30
0.0
 10
51.5265863789
 20
3.9350210583
 30
0.0
 10
51.4098649251
 20
3.6761249474
 30
0.0
  0
LINE
  5
6D9
100
AcDbEntity
  8
ASSI
100
AcDbLine
 62
7
  6
CONTINUOUS
 10
-5.7719755993
 20
3.9531942447
 11
-6.3452767679
 21
3.0662985369
  0
SPLINE
  5
6DA
100
AcDbEntity
  8
ASSI
100
AcDbSpline
 62
7
  6
CONTINUOUS
 70
0
 71
3
 72
8
 73
4
 74
0
 42
0.0000001
 43
0.0000001
 44
0.0000000001
 40
0.0
 40
0.0
 40
0.0
 40
0.0
 40
1.0
 40
1.0
 40
1.0
 40
1.0
 10
-6.3452767679
 20
3.0662985369
 30
0.0
 10
-6.4027519418
 20
3.1724943797
 30
0.0
 10
-6.4682576996
 20
3.2745291861
 30
0.0
 10
-6.538840411
 20
3.3725038435
 30
0.0
  0
SPLINE
  5
6DB
100
AcDbEntity
  8
ASSI
100
AcDbSpline
 62
7
  6
CONTINUOUS
 70
0
 71
3
 72
9
 73
5
 74
0
 42
0.0000001
 43
0.0000001
 44
0.0000000001
 40
0.0
 40
0.0
 40
0.0
 40
0.0
 40
0.7097160398
 40
1.0
 40
1.0
 40
1.0
 40
1.0
 10
-9.6023342573
 20
3.757107565
 30
0.0
 10
-9.57434171
 20
3.6613036472
 30
0.0
 10
-9.5293057322
 20
3.5279679677
 30
0.0
 10
-9.4815910722
 20
3.3956883989
 30
0.0
 10
-9.46752472
 20
3.3573647434
 30
0.0
  0
SPLINE
  5
6DC
100
AcDbEntity
  8
ASSI
100
AcDbSpline
 62
7
  6
CONTINUOUS
 70
0
 71
3
 72
8
 73
4
 74
0
 42
0.0000001
 43
0.0000001
 44
0.0000000001
 40
0.0
 40
0.0
 40
0.0
 40
0.0
 40
1.0
 40
1.0
 40
1.0
 40
1.0
 10
-15.1619683541
 20
2.2633885336
 30
0.0
 10
-15.1910105508
 20
2.3682266807
 30
0.0
 10
-15.2249501384
 20
2.4717492703
 30
0.0
 10
-15.2618139007
 20
2.5740994012
 30
0.0
  0
SPLINE
  5
6DD
100
AcDbEntity
  8
ASSI
100
AcDbSpline
 62
7
  6
CONTINUOUS
 70
0
 71
3
 72
9
 73
5
 74
0
 42
0.0000001
 43
0.0000001
 44
0.0000000001
 40
0.0
 40
0.0
 40
0.0
 40
0.0
 40
0.7097160398
 40
1.0
 40
1.0
 40
1.0
 40
1.0
 10
-17.6995606804
 20
3.757107565
 30
0.0
 10
-17.6715681331
 20
3.6613036472
 30
0.0
 10
-17.6265321553
 20
3.5279679677
 30
0.0
 10
-17.5788174953
 20
3.3956883989
 30
0.0
 10
-17.5647511431
 20
3.3573647434
 30
0.0
  0
SPLINE
  5
6DE
100
AcDbEntity
  8
ASSI
100
AcDbSpline
 62
7
  6
CONTINUOUS
 70
0
 71
3
 72
17
 73
13
 74
0
 42
0.0000001
 43
0.0000001
 44
0.0000000001
 40
0.0
 40
0.0
 40
0.0
 40
0.0
 40
0.1860451082
 40
0.2705259002
 40
0.3141542026
 40
0.3603530295
 40
0.5121184572
 40
0.5895792025
 40
0.6716563947
 40
0.7632308695
 40
0.8657555241
 40
1.0
 40
1.0
 40
1.0
 40
1.0
 10
-18.916451634
 20
2.7179204124
 30
0.0
 10
-18.9456785805
 20
2.5834154825
 30
0.0
 10
-19.0397922343
 20
2.3833973097
 30
0.0
 10
-19.2493531117
 20
2.2691792598
 30
0.0
 10
-19.3753086378
 20
2.2392342376
 30
0.0
 10
-19.5538542113
 20
2.2261297631
 30
0.0
 10
-19.7629936081
 20
2.2800695928
 30
0.0
 10
-19.9417773911
 20
2.4318832161
 30
0.0
 10
-20.0321402413
 20
2.5980698418
 30
0.0
 10
-20.0827541674
 20
2.7973605483
 30
0.0
 10
-20.1007456723
 20
3.0402047153
 30
0.0
 10
-20.0815284015
 20
3.2171981848
 30
0.0
 10
-20.0553963018
 20
3.3133621945
 30
0.0
  0
SPLINE
  5
6DF
100
AcDbEntity
  8
ASSI
100
AcDbSpline
 62
7
  6
CONTINUOUS
 70
0
 71
3
 72
9
 73
5
 74
0
 42
0.0000001
 43
0.0000001
 44
0.0000000001
 40
0.0
 40
0.0
 40
0.0
 40
0.0
 40
0.4786249203
 40
1.0
 40
1.0
 40
1.0
 40
1.0
 10
-19.466143093
 20
3.7686420756
 30
0.0
 10
-19.3569858285
 20
3.7686420756
 30
0.0
 10
-19.11214321
 20
3.7090042294
 30
0.0
 10
-18.9983821339
 20
3.485535565
 30
0.0
 10
-18.9625896763
 20
3.3721433846
 30
0.0
  0
SPLINE
  5
6E0
100
AcDbEntity
  8
ASSI
100
AcDbSpline
 62
7
  6
CONTINUOUS
 70
0
 71
3
 72
25
 73
21
 74
0
 42
0.0000001
 43
0.0000001
 44
0.0000000001
 40
0.0
 40
0.0
 40
0.0
 40
0.0
 40
0.0888847953
 40
0.1718004827
 40
0.2552805514
 40
0.2993533532
 40
0.346394781
 40
0.3886666315
 40
0.4297437762
 40
0.4702843229
 40
0.5109724255
 40
0.5911642652
 40
0.6732957874
 40
0.7613184488
 40
0.8083486364
 40
0.85815985
 40
0.9045619297
 40
0.949869011
 40
0.9945301458
 40
1.0
 40
1.0
 40
1.0
 40
1.0
 10
-18.7088304436
 20
3.4305368554
 30
0.0
 10
-18.7325382975
 20
3.5131211616
 30
0.0
 10
-18.7988743851
 20
3.6686930208
 30
0.0
 10
-18.9696998097
 20
3.8536704539
 30
0.0
 10
-19.1556559204
 20
3.9469466064
 30
0.0
 10
-19.321259146
 20
3.9822873756
 30
0.0
 10
-19.4503728439
 20
3.9903666043
 30
0.0
 10
-19.5764783779
 20
3.9832253229
 30
0.0
 10
-19.6946158689
 20
3.9616470007
 30
0.0
 10
-19.8074732564
 20
3.9252764877
 30
0.0
 10
-19.9490361922
 20
3.8589025188
 30
0.0
 10
-20.1079996583
 20
3.7381758829
 30
0.0
 10
-20.2467052071
 20
3.5355091473
 30
0.0
 10
-20.3153099757
 20
3.3346016723
 30
0.0
 10
-20.342414094
 20
3.157686575
 30
0.0
 10
-20.348858509
 20
3.0191239109
 30
0.0
 10
-20.3427080264
 20
2.882277353
 30
0.0
 10
-20.323850869
 20
2.7515797325
 30
0.0
 10
-20.3013790203
 20
2.6619386091
 30
0.0
 10
-20.2869416808
 20
2.6156593458
 30
0.0
 10
-20.2853347031
 20
2.6106199025
 30
0.0
  0
SPLINE
  5
6E1
100
AcDbEntity
  8
ASSI
100
AcDbSpline
 62
7
  6
CONTINUOUS
 70
0
 71
3
 72
11
 73
7
 74
0
 42
0.0000001
 43
0.0000001
 44
0.0000000001
 40
0.0
 40
0.0
 40
0.0
 40
0.0
 40
0.2525992429
 40
0.4888102636
 40
0.730558892
 40
1.0
 40
1.0
 40
1.0
 40
1.0
 10
-19.4513644518
 20
2.0153964683
 30
0.0
 10
-19.3588066558
 20
2.0153964683
 30
0.0
 10
-19.1776163098
 20
2.0388304219
 30
0.0
 10
-18.9358057742
 20
2.1672731932
 30
0.0
 10
-18.7541253159
 20
2.3802616147
 30
0.0
 10
-18.6870411283
 20
2.5586208301
 30
0.0
 10
-18.6626924013
 20
2.6543002868
 30
0.0
  0
SPLINE
  5
6E2
100
AcDbEntity
  8
ASSI
100
AcDbSpline
 62
7
  6
CONTINUOUS
 70
0
 71
3
 72
12
 73
8
 74
0
 42
0.0000001
 43
0.0000001
 44
0.0000000001
 40
0.0
 40
0.0
 40
0.0
 40
0.0
 40
0.1606441131
 40
0.3160528741
 40
0.4695579901
 40
0.6257786262
 40
1.0
 40
1.0
 40
1.0
 40
1.0
 10
-24.4645512202
 20
2.672863571
 30
0.0
 10
-24.4628803456
 20
2.6105812385
 30
0.0
 10
-24.4450248369
 20
2.4875882426
 30
0.0
 10
-24.3687321738
 20
2.3196967542
 30
0.0
 10
-24.2495982654
 20
2.1805638877
 30
0.0
 10
-24.0198533296
 20
2.0402624483
 30
0.0
 10
-23.8066000597
 20
2.0153964683
 30
0.0
 10
-23.6614608114
 20
2.0153964683
 30
0.0
  0
SPLINE
  5
6E3
100
AcDbEntity
  8
ASSI
100
AcDbSpline
 62
7
  6
CONTINUOUS
 70
0
 71
3
 72
15
 73
11
 74
0
 42
0.0000001
 43
0.0000001
 44
0.0000000001
 40
0.0
 40
0.0
 40
0.0
 40
0.0
 40
0.1205523663
 40
0.2334839557
 40
0.3389214346
 40
0.4385318437
 40
0.6258636217
 40
0.7171536601
 40
0.8046135431
 40
1.0
 40
1.0
 40
1.0
 40
1.0
 10
-23.6614608114
 20
2.0153964683
 30
0.0
 10
-23.5972977802
 20
2.0153964683
 30
0.0
 10
-23.4724709089
 20
2.026455277
 30
0.0
 10
-23.2993506297
 20
2.0820189741
 30
0.0
 10
-23.1530520415
 20
2.1714604012
 30
0.0
 10
-23.0132064543
 20
2.3300575038
 30
0.0
 10
-22.9511681853
 20
2.5348120074
 30
0.0
 10
-22.9772993605
 20
2.7301123737
 30
0.0
 10
-23.0616376898
 20
2.9143637232
 30
0.0
 10
-23.1935382831
 20
3.0073458435
 30
0.0
 10
-23.2878509121
 20
3.0511596127
 30
0.0
  0
SPLINE
  5
6E4
100
AcDbEntity
  8
ASSI
100
AcDbSpline
 62
7
  6
CONTINUOUS
 70
0
 71
3
 72
9
 73
5
 74
0
 42
0.0000001
 43
0.0000001
 44
0.0000000001
 40
0.0
 40
0.0
 40
0.0
 40
0.0
 40
0.1708537376
 40
1.0
 40
1.0
 40
1.0
 40
1.0
 10
-23.2878509121
 20
3.0511596127
 30
0.0
 10
-23.3101386503
 20
3.0613482783
 30
0.0
 10
-23.444448674
 20
3.1122810571
 30
0.0
 10
-23.5843379501
 20
3.1460001602
 30
0.0
 10
-23.7001195064
 20
3.1731730332
 30
0.0
  0
SPLINE
  5
6E5
100
AcDbEntity
  8
ASSI
100
AcDbSpline
 62
7
  6
CONTINUOUS
 70
0
 71
3
 72
9
 73
5
 74
0
 42
0.0000001
 43
0.0000001
 44
0.0000000001
 40
0.0
 40
0.0
 40
0.0
 40
0.0
 40
0.6350560901
 40
1.0
 40
1.0
 40
1.0
 40
1.0
 10
-23.7001195064
 20
3.1731730332
 30
0.0
 10
-23.7817171522
 20
3.1923232548
 30
0.0
 10
-23.9071868834
 20
3.2268031815
 30
0.0
 10
-24.0345120316
 20
3.277037239
 30
0.0
 10
-24.069494189
 20
3.3101453242
 30
0.0
  0
SPLINE
  5
6E6
100
AcDbEntity
  8
ASSI
100
AcDbSpline
 62
7
  6
CONTINUOUS
 70
0
 71
3
 72
14
 73
10
 74
0
 42
0.0000001
 43
0.0000001
 44
0.0000000001
 40
0.0
 40
0.0
 40
0.0
 40
0.0
 40
0.1221754561
 40
0.2479284667
 40
0.3235721644
 40
0.3974374623
 40
0.5551234414
 40
0.7467267791
 40
1.0
 40
1.0
 40
1.0
 40
1.0
 10
-24.069494189
 20
3.3101453242
 30
0.0
 10
-24.092291115
 20
3.3312894489
 30
0.0
 10
-24.130884696
 20
3.3842253648
 30
0.0
 10
-24.1448925042
 20
3.4677929943
 30
0.0
 10
-24.1376092191
 20
3.5379198055
 30
0.0
 10
-24.1107769538
 20
3.6120795416
 30
0.0
 10
-24.0392388483
 20
3.6979648451
 30
0.0
 10
-23.894743935
 20
3.7613078182
 30
0.0
 10
-23.7803458867
 20
3.7686420756
 30
0.0
 10
-23.7158892337
 20
3.7686420756
 30
0.0
  0
SPLINE
  5
6E7
100
AcDbEntity
  8
ASSI
100
AcDbSpline
 62
7
  6
CONTINUOUS
 70
0
 71
3
 72
9
 73
5
 74
0
 42
0.0000001
 43
0.0000001
 44
0.0000000001
 40
0.0
 40
0.0
 40
0.0
 40
0.0
 40
0.5306823676
 40
1.0
 40
1.0
 40
1.0
 40
1.0
 10
-23.7158892337
 20
3.7686420756
 30
0.0
 10
-23.6041843501
 20
3.7686420756
 30
0.0
 10
-23.366451532
 20
3.7338178063
 30
0.0
 10
-23.2754756744
 20
3.5092992412
 30
0.0
 10
-23.2649621204
 20
3.4110722478
 30
0.0
  0
SPLINE
  5
6E8
100
AcDbEntity
  8
ASSI
100
AcDbSpline
 62
7
  6
CONTINUOUS
 70
0
 71
3
 72
20
 73
16
 74
0
 42
0.0000001
 43
0.0000001
 44
0.0000000001
 40
0.0
 40
0.0
 40
0.0
 40
0.0
 40
0.1573317713
 40
0.2361791109
 40
0.3195933993
 40
0.4109088545
 40
0.4598620877
 40
0.5115766229
 40
0.5588578561
 40
0.6043116697
 40
0.6913315838
 40
0.7718242667
 40
0.8471214746
 40
0.9894569562
 40
1.0
 40
1.0
 40
1.0
 40
1.0
 10
-23.0112028878
 20
3.4226067583
 30
0.0
 10
-23.0152565417
 20
3.5266518233
 30
0.0
 10
-23.0622996318
 20
3.6866245718
 30
0.0
 10
-23.2071548009
 20
3.8449058679
 30
0.0
 10
-23.3553171171
 20
3.9286189022
 30
0.0
 10
-23.4989448616
 20
3.9688837615
 30
0.0
 10
-23.6250873037
 20
3.9851864874
 30
0.0
 10
-23.7230468304
 20
3.9891138836
 30
0.0
 10
-23.8186887444
 20
3.9852819451
 30
0.0
 10
-23.9367287735
 20
3.9692710634
 30
0.0
 10
-24.0731507182
 20
3.9303164501
 30
0.0
 10
-24.2156324938
 20
3.8511152653
 30
0.0
 10
-24.3503306866
 20
3.703059614
 30
0.0
 10
-24.3971037095
 20
3.5489573912
 30
0.0
 10
-24.3952457767
 20
3.4471228743
 30
0.0
 10
-24.3949584586
 20
3.4401128996
 30
0.0
  0
SPLINE
  5
6E9
100
AcDbEntity
  8
ASSI
100
AcDbSpline
 62
7
  6
CONTINUOUS
 70
0
 71
3
 72
9
 73
5
 74
0
 42
0.0000001
 43
0.0000001
 44
0.0000000001
 40
0.0
 40
0.0
 40
0.0
 40
0.0
 40
0.1806469784
 40
1.0
 40
1.0
 40
1.0
 40
1.0
 10
-24.1199575627
 20
3.04521204
 30
0.0
 10
-24.0995694161
 20
3.0345553708
 30
0.0
 10
-23.9826326828
 20
2.9835319367
 30
0.0
 10
-23.8588634016
 20
2.9508461664
 30
0.0
 10
-23.7576118298
 20
2.9256316295
 30
0.0
  0
SPLINE
  5
6EA
100
AcDbEntity
  8
ASSI
100
AcDbSpline
 62
7
  6
CONTINUOUS
 70
0
 71
3
 72
9
 73
5
 74
0
 42
0.0000001
 43
0.0000001
 44
0.0000000001
 40
0.0
 40
0.0
 40
0.0
 40
0.0
 40
0.3500357027
 40
1.0
 40
1.0
 40
1.0
 40
1.0
 10
-23.7576118298
 20
2.9256316295
 30
0.0
 10
-23.7187967732
 20
2.9159655704
 30
0.0
 10
-23.6083505393
 20
2.8871176317
 30
0.0
 10
-23.496768968
 20
2.859789568
 30
0.0
 10
-23.4278869283
 20
2.8320039118
 30
0.0
  0
SPLINE
  5
6EB
100
AcDbEntity
  8
ASSI
100
AcDbSpline
 62
7
  6
CONTINUOUS
 70
0
 71
3
 72
16
 73
12
 74
0
 42
0.0000001
 43
0.0000001
 44
0.0000000001
 40
0.0
 40
0.0
 40
0.0
 40
0.0
 40
0.1566468856
 40
0.220189847
 40
0.2871042189
 40
0.4238330589
 40
0.5820227078
 40
0.6769136751
 40
0.7814331672
 40
0.9003632222
 40
1.0
 40
1.0
 40
1.0
 40
1.0
 10
-23.4278869283
 20
2.8320039118
 30
0.0
 10
-23.3665718817
 20
2.8077630838
 30
0.0
 10
-23.2780936247
 20
2.7589016063
 30
0.0
 10
-23.2259761932
 20
2.6467856652
 30
0.0
 10
-23.2106064231
 20
2.5343035824
 30
0.0
 10
-23.2589361639
 20
2.3782148663
 30
0.0
 10
-23.4033675297
 20
2.2804460533
 30
0.0
 10
-23.5488458865
 20
2.2409086787
 30
0.0
 10
-23.6832263504
 20
2.2307412602
 30
0.0
 10
-23.8195926582
 20
2.2425650839
 30
0.0
 10
-23.9080621273
 20
2.2699644966
 30
0.0
 10
-23.9467732307
 20
2.2864292066
 30
0.0
  0
SPLINE
  5
6EC
100
AcDbEntity
  8
ASSI
100
AcDbSpline
 62
7
  6
CONTINUOUS
 70
0
 71
3
 72
23
 73
19
 74
0
 42
0.0000001
 43
0.0000001
 44
0.0000000001
 40
0.0
 40
0.0
 40
0.0
 40
0.0
 40
0.1084614748
 40
0.1620300211
 40
0.2177464023
 40
0.2573464431
 40
0.2956467235
 40
0.3712230697
 40
0.4467423271
 40
0.5246924863
 40
0.6091734529
 40
0.6546650189
 40
0.7029278553
 40
0.7773481255
 40
0.8442886394
 40
0.9057717315
 40
0.9643873549
 40
1.0
 40
1.0
 40
1.0
 40
1.0
 10
-26.0822662842
 20
3.585261398
 30
0.0
 10
-26.0211993353
 20
3.6432237117
 30
0.0
 10
-25.9131250594
 20
3.7152571458
 30
0.0
 10
-25.7495881684
 20
3.7614832659
 30
0.0
 10
-25.6337437284
 20
3.7712804196
 30
0.0
 10
-25.5299527993
 20
3.7648978194
 30
0.0
 10
-25.4128304189
 20
3.7411993059
 30
0.0
 10
-25.2764389938
 20
3.6807033215
 30
0.0
 10
-25.1392467179
 20
3.5633553745
 30
0.0
 10
-25.0410960574
 20
3.4038093168
 30
0.0
 10
-24.993953921
 20
3.2478707453
 30
0.0
 10
-24.975040099
 20
3.1106332756
 30
0.0
 10
-24.9697826649
 20
2.9800406452
 30
0.0
 10
-24.978529089
 20
2.8326218267
 30
0.0
 10
-25.0122289409
 20
2.6780379401
 30
0.0
 10
-25.0698879101
 20
2.5435814776
 30
0.0
 10
-25.141907167
 20
2.4452585683
 30
0.0
 10
-25.1948568975
 20
2.3943636005
 30
0.0
 10
-25.2160638962
 20
2.3765537739
 30
0.0
  0
SPLINE
  5
6ED
100
AcDbEntity
  8
ASSI
100
AcDbSpline
 62
7
  6
CONTINUOUS
 70
0
 71
3
 72
9
 73
5
 74
0
 42
0.0000001
 43
0.0000001
 44
0.0000000001
 40
0.0
 40
0.0
 40
0.0
 40
0.0
 40
0.7911658617
 40
1.0
 40
1.0
 40
1.0
 40
1.0
 10
-26.2754693803
 20
2.9731213049
 30
0.0
 10
-26.2754693803
 20
3.1453454373
 30
0.0
 10
-26.250105821
 20
3.3787168937
 30
0.0
 10
-26.1152384715
 20
3.5539655121
 30
0.0
 10
-26.0822662842
 20
3.585261398
 30
0.0
  0
SPLINE
  5
6EE
100
AcDbEntity
  8
ASSI
100
AcDbSpline
 62
7
  6
CONTINUOUS
 70
0
 71
3
 72
16
 73
12
 74
0
 42
0.0000001
 43
0.0000001
 44
0.0000000001
 40
0.0
 40
0.0
 40
0.0
 40
0.0
 40
0.1522543123
 40
0.2694555914
 40
0.3706433414
 40
0.4732597487
 40
0.6190505678
 40
0.6948201622
 40
0.775286542
 40
0.8735743773
 40
1.0
 40
1.0
 40
1.0
 40
1.0
 10
-27.5013714558
 20
3.7340385438
 30
0.0
 10
-27.4399894166
 20
3.7340385438
 30
0.0
 10
-27.3301407454
 20
3.7262390333
 30
0.0
 10
-27.1903965818
 20
3.6607935642
 30
0.0
 10
-27.1098073533
 20
3.5531494243
 30
0.0
 10
-27.0827154425
 20
3.4110141502
 30
0.0
 10
-27.1215130209
 20
3.2777332162
 30
0.0
 10
-27.2057036689
 20
3.1867947175
 30
0.0
 10
-27.2987141184
 20
3.1392736822
 30
0.0
 10
-27.4202471392
 20
3.1151396837
 30
0.0
 10
-27.5109585984
 20
3.1111749728
 30
0.0
 10
-27.5619276803
 20
3.1111749728
 30
0.0
  0
SPLINE
  5
6EF
100
AcDbEntity
  8
ASSI
100
AcDbSpline
 62
7
  6
CONTINUOUS
 70
0
 71
3
 72
16
 73
12
 74
0
 42
0.0000001
 43
0.0000001
 44
0.0000000001
 40
0.0
 40
0.0
 40
0.0
 40
0.0
 40
0.1089696409
 40
0.1828936499
 40
0.2222819345
 40
0.2625064106
 40
0.3465431344
 40
0.4482180559
 40
0.5822445398
 40
0.7621351793
 40
1.0
 40
1.0
 40
1.0
 40
1.0
 10
-27.8086581393
 20
2.8920192719
 30
0.0
 10
-27.7810135662
 20
2.8920192719
 30
0.0
 10
-27.734707039
 20
2.8909523441
 30
0.0
 10
-27.6781536773
 20
2.8864497271
 30
0.0
 10
-27.6407349616
 20
2.8751833923
 30
0.0
 10
-27.6019994723
 20
2.8602610794
 30
0.0
 10
-27.5508479326
 20
2.8335488701
 30
0.0
 10
-27.4887942941
 20
2.7803757944
 30
0.0
 10
-27.4210697381
 20
2.6992821367
 30
0.0
 10
-27.3399972085
 20
2.5851127331
 30
0.0
 10
-27.2819052505
 20
2.496448077
 30
0.0
 10
-27.2494145179
 20
2.4455977196
 30
0.0
  0
SPLINE
  5
6F0
100
AcDbEntity
  8
ASSI
100
AcDbSpline
 62
7
  6
CONTINUOUS
 70
0
 71
3
 72
9
 73
5
 74
0
 42
0.0000001
 43
0.0000001
 44
0.0000000001
 40
0.0
 40
0.0
 40
0.0
 40
0.0
 40
0.2659540588
 40
1.0
 40
1.0
 40
1.0
 40
1.0
 10
-27.0252125676
 20
2.5674310865
 30
0.0
 10
-27.0409468678
 20
2.5911943083
 30
0.0
 10
-27.1019736381
 20
2.6792627512
 30
0.0
 10
-27.1710252752
 20
2.7620228586
 30
0.0
 10
-27.2268861852
 20
2.8174055001
 30
0.0
  0
SPLINE
  5
6F1
100
AcDbEntity
  8
ASSI
100
AcDbSpline
 62
7
  6
CONTINUOUS
 70
0
 71
3
 72
9
 73
5
 74
0
 42
0.0000001
 43
0.0000001
 44
0.0000000001
 40
0.0
 40
0.0
 40
0.0
 40
0.0
 40
0.209446698
 40
1.0
 40
1.0
 40
1.0
 40
1.0
 10
-27.2268861852
 20
2.8174055001
 30
0.0
 10
-27.23563494
 20
2.8259307434
 30
0.0
 10
-27.2798569546
 20
2.8641207951
 30
0.0
 10
-27.3306982503
 20
2.893821347
 30
0.0
 10
-27.3716081678
 20
2.9150882931
 30
0.0
  0
SPLINE
  5
6F2
100
AcDbEntity
  8
ASSI
100
AcDbSpline
 62
7
  6
CONTINUOUS
 70
0
 71
3
 72
19
 73
15
 74
0
 42
0.0000001
 43
0.0000001
 44
0.0000000001
 40
0.0
 40
0.0
 40
0.0
 40
0.0
 40
0.136569576
 40
0.2487419393
 40
0.3510973289
 40
0.4029098052
 40
0.4575312966
 40
0.5006597919
 40
0.54259345
 40
0.6258399794
 40
0.7059972618
 40
0.7829904054
 40
0.8757620861
 40
1.0
 40
1.0
 40
1.0
 40
1.0
 10
-27.3716081678
 20
2.9150882931
 30
0.0
 10
-27.2909934478
 20
2.9262833115
 30
0.0
 10
-27.1442337876
 20
2.9597253661
 30
0.0
 10
-26.9645915487
 20
3.0776078045
 30
0.0
 10
-26.8780174813
 20
3.2165145303
 30
0.0
 10
-26.8455915219
 20
3.3372457515
 30
0.0
 10
-26.8386613459
 20
3.426588841
 30
0.0
 10
-26.8437748116
 20
3.509875979
 30
0.0
 10
-26.863342263
 20
3.6085628108
 30
0.0
 10
-26.9123685911
 20
3.7223542573
 30
0.0
 10
-27.0035084979
 20
3.8359930913
 30
0.0
 10
-27.1344992628
 20
3.9135096489
 30
0.0
 10
-27.3083226941
 20
3.9475616966
 30
0.0
 10
-27.4376050491
 20
3.9531942447
 30
0.0
 10
-27.51164436
 20
3.9531942447
 30
0.0
  0
SPLINE
  5
6F3
100
AcDbEntity
  8
ASSI
100
AcDbSpline
 62
7
  6
CONTINUOUS
 70
0
 71
3
 72
9
 73
5
 74
0
 42
0.0000001
 43
0.0000001
 44
0.0000000001
 40
0.0
 40
0.0
 40
0.0
 40
0.0
 40
0.7097160398
 40
1.0
 40
1.0
 40
1.0
 40
1.0
 10
-29.4762959766
 20
3.757107565
 30
0.0
 10
-29.4483034293
 20
3.6613036472
 30
0.0
 10
-29.4032674515
 20
3.5279679677
 30
0.0
 10
-29.3555527916
 20
3.3956883989
 30
0.0
 10
-29.3414864393
 20
3.3573647434
 30
0.0
  0
SPLINE
  5
6F4
100
AcDbEntity
  8
ASSI
100
AcDbSpline
 62
7
  6
CONTINUOUS
 70
0
 71
3
 72
9
 73
5
 74
0
 42
0.0000001
 43
0.0000001
 44
0.0000000001
 40
0.0
 40
0.0
 40
0.0
 40
0.0
 40
0.3106214921
 40
1.0
 40
1.0
 40
1.0
 40
1.0
 10
-31.3326312612
 20
2.6319521836
 30
0.0
 10
-31.3437431458
 20
2.6005343179
 30
0.0
 10
-31.3793105294
 20
2.4993191403
 30
0.0
 10
-31.414399674
 20
2.3979190038
 30
0.0
 10
-31.4371627743
 20
2.3275491717
 30
0.0
  0
SPLINE
  5
6F5
100
AcDbEntity
  8
ASSI
100
AcDbSpline
 62
7
  6
CONTINUOUS
 70
0
 71
3
 72
9
 73
5
 74
0
 42
0.0000001
 43
0.0000001
 44
0.0000000001
 40
0.0
 40
0.0
 40
0.0
 40
0.0
 40
0.1862683768
 40
1.0
 40
1.0
 40
1.0
 40
1.0
 10
-31.4371627743
 20
2.3275491717
 30
0.0
 10
-31.4425533908
 20
2.3450771016
 30
0.0
 10
-31.4720738378
 20
2.4389985879
 30
0.0
 10
-31.5029312579
 20
2.532492711
 30
0.0
 10
-31.5281772525
 20
2.6085227035
 30
0.0
  0
SPLINE
  5
6F6
100
AcDbEntity
  8
ASSI
100
AcDbSpline
 62
7
  6
CONTINUOUS
 70
0
 71
3
 72
22
 73
18
 74
0
 42
0.0000001
 43
0.0000001
 44
0.0000000001
 40
0.0
 40
0.0
 40
0.0
 40
0.0
 40
0.1245167122
 40
0.2419987357
 40
0.3009613969
 40
0.3584696942
 40
0.4171258175
 40
0.4793882064
 40
0.544834558
 40
0.6069895135
 40
0.6683671276
 40
0.7315742793
 40
0.7950400525
 40
0.8573180853
 40
0.9211191536
 40
0.988971738
 40
1.0
 40
1.0
 40
1.0
 40
1.0
 10
-34.0165676354
 20
2.9756445176
 30
0.0
 10
-33.965253215
 20
2.9756445176
 30
0.0
 10
-33.8637971989
 20
2.9608735394
 30
0.0
 10
-33.756371146
 20
2.8916770463
 30
0.0
 10
-33.69340958
 20
2.8179715367
 30
0.0
 10
-33.6588545391
 20
2.7539378863
 30
0.0
 10
-33.6385174452
 20
2.6827116362
 30
0.0
 10
-33.6323417792
 20
2.6057652944
 30
0.0
 10
-33.6388088834
 20
2.5273804739
 30
0.0
 10
-33.660267388
 20
2.4519422069
 30
0.0
 10
-33.6966368839
 20
2.3834719635
 30
0.0
 10
-33.7464775464
 20
2.3235081674
 30
0.0
 10
-33.8068077858
 20
2.2734764714
 30
0.0
 10
-33.8766395321
 20
2.2371405155
 30
0.0
 10
-33.9542107215
 20
2.2157488811
 30
0.0
 10
-34.0131144316
 20
2.2110888897
 30
0.0
 10
-34.0456784309
 20
2.2115536664
 30
0.0
 10
-34.0502288477
 20
2.2116813877
 30
0.0
  0
SPLINE
  5
6F7
100
AcDbEntity
  8
ASSI
100
AcDbSpline
 62
7
  6
CONTINUOUS
 70
0
 71
3
 72
24
 73
20
 74
0
 42
0.0000001
 43
0.0000001
 44
0.0000000001
 40
0.0
 40
0.0
 40
0.0
 40
0.0
 40
0.1121967685
 40
0.166093767
 40
0.2210720507
 40
0.2764710866
 40
0.3317147037
 40
0.3888826938
 40
0.4498582523
 40
0.5174707333
 40
0.5809499684
 40
0.6426255879
 40
0.7050295449
 40
0.7665006467
 40
0.8252721578
 40
0.8839358525
 40
0.9450972128
 40
0.9900525909
 40
1.0
 40
1.0
 40
1.0
 40
1.0
 10
-34.6495240572
 20
2.5459839547
 30
0.0
 10
-34.6422094818
 20
2.472613189
 30
0.0
 10
-34.6141326011
 20
2.3638259065
 30
0.0
 10
-34.5368363265
 20
2.2398409401
 30
0.0
 10
-34.4626514109
 20
2.1605161685
 30
0.0
 10
-34.3745827516
 20
2.0954379951
 30
0.0
 10
-34.2739565648
 20
2.0485510016
 30
0.0
 10
-34.1627442648
 20
2.0208894217
 30
0.0
 10
-34.0405018344
 20
2.0123143503
 30
0.0
 10
-33.9140652267
 20
2.0218862253
 30
0.0
 10
-33.7908055242
 20
2.0544115123
 30
0.0
 10
-33.6795961343
 20
2.1096371922
 30
0.0
 10
-33.5833498025
 20
2.1857556634
 30
0.0
 10
-33.5037127031
 20
2.2765227042
 30
0.0
 10
-33.4453462353
 20
2.3796274249
 30
0.0
 10
-33.4107800263
 20
2.4927538122
 30
0.0
 10
-33.4011934568
 20
2.6013020245
 30
0.0
 10
-33.4061172985
 20
2.6776580187
 30
0.0
 10
-33.4119603877
 20
2.7132943651
 30
0.0
 10
-33.4131393325
 20
2.7197295799
 30
0.0
  0
SPLINE
  5
6F8
100
AcDbEntity
  8
ASSI
100
AcDbSpline
 62
7
  6
CONTINUOUS
 70
0
 71
3
 72
17
 73
13
 74
0
 42
0.0000001
 43
0.0000001
 44
0.0000000001
 40
0.0
 40
0.0
 40
0.0
 40
0.0
 40
0.157922234
 40
0.3041160209
 40
0.4632412459
 40
0.5463538059
 40
0.6330895823
 40
0.7233063267
 40
0.8160954785
 40
0.8830771286
 40
0.946013392
 40
1.0
 40
1.0
 40
1.0
 40
1.0
 10
-33.769296664
 20
3.081077178
 30
0.0
 10
-33.6925337644
 20
3.116629407
 30
0.0
 10
-33.5540654389
 20
3.22230066
 30
0.0
 10
-33.4840005911
 20
3.4757043949
 30
0.0
 10
-33.5453911624
 20
3.6858199305
 30
0.0
 10
-33.657336747
 20
3.824578302
 30
0.0
 10
-33.7742803398
 20
3.9035744471
 30
0.0
 10
-33.9110497233
 20
3.954276716
 30
0.0
 10
-34.0454876348
 20
3.9683943739
 30
0.0
 10
-34.1649039924
 20
3.9597991987
 30
0.0
 10
-34.261089029
 20
3.9365649161
 30
0.0
 10
-34.3188422834
 20
3.9108561753
 30
0.0
 10
-34.3443603483
 20
3.8968479778
 30
0.0
  0
SPLINE
  5
6F9
100
AcDbEntity
  8
ASSI
100
AcDbSpline
 62
7
  6
CONTINUOUS
 70
0
 71
3
 72
16
 73
12
 74
0
 42
0.0000001
 43
0.0000001
 44
0.0000000001
 40
0.0
 40
0.0
 40
0.0
 40
0.0
 40
0.2754465559
 40
0.3950325473
 40
0.4565247543
 40
0.5218606479
 40
0.5875789382
 40
0.6488150883
 40
0.7664059399
 40
0.8813245124
 40
1.0
 40
1.0
 40
1.0
 40
1.0
 10
-34.3957648245
 20
3.4341412689
 30
0.0
 10
-34.3816128347
 20
3.5253428743
 30
0.0
 10
-34.3308672895
 20
3.6634154058
 30
0.0
 10
-34.195617371
 20
3.7448377299
 30
0.0
 10
-34.1153195506
 20
3.7655004936
 30
0.0
 10
-34.0506770028
 20
3.7702625083
 30
0.0
 10
-33.9861518578
 20
3.7655079043
 30
0.0
 10
-33.9063387214
 20
3.7449738826
 30
0.0
 10
-33.8207169083
 20
3.6908171304
 30
0.0
 10
-33.7513586133
 20
3.5915359993
 30
0.0
 10
-33.7382977218
 20
3.511753181
 30
0.0
 10
-33.7382977218
 20
3.4719889312
 30
0.0
  0
SPLINE
  5
6FA
100
AcDbEntity
  8
ASSI
100
AcDbSpline
 62
7
  6
CONTINUOUS
 70
0
 71
3
 72
11
 73
7
 74
0
 42
0.0000001
 43
0.0000001
 44
0.0000000001
 40
0.0
 40
0.0
 40
0.0
 40
0.0
 40
0.2589066357
 40
0.4973886641
 40
0.7458566114
 40
1.0
 40
1.0
 40
1.0
 40
1.0
 10
-33.7382977218
 20
3.4719889312
 30
0.0
 10
-33.7382977218
 20
3.4240322807
 30
0.0
 10
-33.7531050839
 20
3.3279745363
 30
0.0
 10
-33.8529511453
 20
3.223414789
 30
0.0
 10
-33.9804686095
 20
3.1675106368
 30
0.0
 10
-34.0740247827
 20
3.154609749
 30
0.0
 10
-34.1210991485
 20
3.154609749
 30
0.0
  0
SPLINE
  5
6FB
100
AcDbEntity
  8
ASSI
100
AcDbSpline
 62
7
  6
CONTINUOUS
 70
0
 71
3
 72
8
 73
4
 74
0
 42
0.0000001
 43
0.0000001
 44
0.0000000001
 40
0.0
 40
0.0
 40
0.0
 40
0.0
 40
1.0
 40
1.0
 40
1.0
 40
1.0
 10
-34.1210991485
 20
3.154609749
 30
0.0
 10
-34.1338070996
 20
3.154609749
 30
0.0
 10
-34.1464991393
 20
3.1558888876
 30
0.0
 10
-34.1591270403
 20
3.1573130151
 30
0.0
  0
SPLINE
  5
6FC
100
AcDbEntity
  8
ASSI
100
AcDbSpline
 62
7
  6
CONTINUOUS
 70
0
 71
3
 72
9
 73
5
 74
0
 42
0.0000001
 43
0.0000001
 44
0.0000000001
 40
0.0
 40
0.0
 40
0.0
 40
0.0
 40
0.290916541
 40
1.0
 40
1.0
 40
1.0
 40
1.0
 10
-34.185800651
 20
2.9496918248
 30
0.0
 10
-34.1696976291
 20
2.9538178674
 30
0.0
 10
-34.1141281067
 20
2.9668606026
 30
0.0
 10
-34.0570852781
 20
2.9756445176
 30
0.0
 10
-34.0165676354
 20
2.9756445176
 30
0.0
  0
SPLINE
  5
6FD
100
AcDbEntity
  8
ASSI
100
AcDbSpline
 62
7
  6
CONTINUOUS
 70
0
 71
3
 72
14
 73
10
 74
0
 42
0.0000001
 43
0.0000001
 44
0.0000000001
 40
0.0
 40
0.0
 40
0.0
 40
0.0
 40
0.1531755028
 40
0.3079996746
 40
0.4958433067
 40
0.5877948367
 40
0.6835810267
 40
0.8209533056
 40
1.0
 40
1.0
 40
1.0
 40
1.0
 10
-35.6714095319
 20
3.7062837323
 30
0.0
 10
-35.6421307044
 20
3.7264639323
 30
0.0
 10
-35.5767210242
 20
3.7587214802
 30
0.0
 10
-35.4613805786
 20
3.7748766388
 30
0.0
 10
-35.358872611
 20
3.756985477
 30
0.0
 10
-35.2827003123
 20
3.7135224581
 30
0.0
 10
-35.2243607509
 20
3.6644320663
 30
0.0
 10
-35.1750750169
 20
3.5802441064
 30
0.0
 10
-35.1547381574
 20
3.5092726785
 30
0.0
 10
-35.1455080119
 20
3.4687448006
 30
0.0
  0
SPLINE
  5
6FE
100
AcDbEntity
  8
ASSI
100
AcDbSpline
 62
7
  6
CONTINUOUS
 70
0
 71
3
 72
24
 73
20
 74
0
 42
0.0000001
 43
0.0000001
 44
0.0000000001
 40
0.0
 40
0.0
 40
0.0
 40
0.0
 40
0.0822880068
 40
0.1577312241
 40
0.2333251367
 40
0.2732926312
 40
0.3163027384
 40
0.3737228611
 40
0.4272843912
 40
0.4797850241
 40
0.5341863781
 40
0.6021263291
 40
0.6793833912
 40
0.7687493608
 40
0.818588534
 40
0.8720749546
 40
0.919827556
 40
0.9642108003
 40
1.0
 40
1.0
 40
1.0
 40
1.0
 10
-34.9148178004
 20
3.4918138218
 30
0.0
 10
-34.9235595222
 20
3.5598113733
 30
0.0
 10
-34.9576529759
 20
3.6898637953
 30
0.0
 10
-35.0782379081
 20
3.8488593702
 30
0.0
 10
-35.2205104448
 20
3.9296682739
 30
0.0
 10
-35.3496645564
 20
3.96007325
 30
0.0
 10
-35.4667748949
 20
3.9679014897
 30
0.0
 10
-35.5954085113
 20
3.9566799652
 30
0.0
 10
-35.7265154296
 20
3.9153551869
 30
0.0
 10
-35.8415914913
 20
3.8447928962
 30
0.0
 10
-35.9455729448
 20
3.7409712143
 30
0.0
 10
-36.032247288
 20
3.5970608399
 30
0.0
 10
-36.0943825672
 20
3.4105795225
 30
0.0
 10
-36.1235745134
 20
3.2320296172
 30
0.0
 10
-36.1355584924
 20
3.0718899669
 30
0.0
 10
-36.1384142819
 20
2.9459989002
 30
0.0
 10
-36.135772706
 20
2.8246552848
 30
0.0
 10
-36.1276740224
 20
2.7183426264
 30
0.0
 10
-36.118738661
 20
2.652066489
 30
0.0
 10
-36.1138067755
 20
2.6226373728
 30
0.0
  0
SPLINE
  5
6FF
100
AcDbEntity
  8
ASSI
100
AcDbSpline
 62
7
  6
CONTINUOUS
 70
0
 71
3
 72
11
 73
7
 74
0
 42
0.0000001
 43
0.0000001
 44
0.0000000001
 40
0.0
 40
0.0
 40
0.0
 40
0.0
 40
0.3426107936
 40
0.6044566108
 40
0.8143265955
 40
1.0
 40
1.0
 40
1.0
 40
1.0
 10
-35.9067857098
 20
3.0316950052
 30
0.0
 10
-35.9060390269
 20
3.11601558
 30
0.0
 10
-35.8986125816
 20
3.2650547881
 30
0.0
 10
-35.8521271859
 20
3.4619255332
 30
0.0
 10
-35.7748534507
 20
3.6058703073
 30
0.0
 10
-35.7076749284
 20
3.6784781941
 30
0.0
 10
-35.6714095319
 20
3.7062837323
 30
0.0
  0
SPLINE
  5
700
100
AcDbEntity
  8
ASSI
100
AcDbSpline
 62
7
  6
CONTINUOUS
 70
0
 71
3
 72
13
 73
9
 74
0
 42
0.0000001
 43
0.0000001
 44
0.0000000001
 40
0.0
 40
0.0
 40
0.0
 40
0.0
 40
0.2591153923
 40
0.3783559876
 40
0.5002774492
 40
0.6221918058
 40
0.741366948
 40
1.0
 40
1.0
 40
1.0
 40
1.0
 10
-36.7004140709
 20
2.3643154571
 30
0.0
 10
-36.7342343942
 20
2.3186108339
 30
0.0
 10
-36.7962438873
 20
2.2580596833
 30
0.0
 10
-36.8995546695
 20
2.2175124947
 30
0.0
 10
-36.9794941363
 20
2.2084408533
 30
0.0
 10
-37.0594156463
 20
2.217487733
 30
0.0
 10
-37.1626656067
 20
2.2578236846
 30
0.0
 10
-37.2247286365
 20
2.3181320111
 30
0.0
 10
-37.2585762274
 20
2.363684654
 30
0.0
  0
SPLINE
  5
701
100
AcDbEntity
  8
ASSI
100
AcDbSpline
 62
7
  6
CONTINUOUS
 70
0
 71
3
 72
9
 73
5
 74
0
 42
0.0000001
 43
0.0000001
 44
0.0000000001
 40
0.0
 40
0.0
 40
0.0
 40
0.0
 40
0.3855604367
 40
1.0
 40
1.0
 40
1.0
 40
1.0
 10
-37.2585762274
 20
2.363684654
 30
0.0
 10
-37.3078150884
 20
2.4299511206
 30
0.0
 10
-37.3628757324
 20
2.646753449
 30
0.0
 10
-37.3716685527
 20
2.858497127
 30
0.0
 10
-37.3716685527
 20
2.9900626998
 30
0.0
  0
SPLINE
  5
702
100
AcDbEntity
  8
ASSI
100
AcDbSpline
 62
7
  6
CONTINUOUS
 70
0
 71
3
 72
9
 73
5
 74
0
 42
0.0000001
 43
0.0000001
 44
0.0000000001
 40
0.0
 40
0.0
 40
0.0
 40
0.0
 40
0.6001364234
 40
1.0
 40
1.0
 40
1.0
 40
1.0
 10
-37.3716685527
 20
2.9900626998
 30
0.0
 10
-37.3716685527
 20
3.1220481479
 30
0.0
 10
-37.3617665155
 20
3.340714771
 30
0.0
 10
-37.3004208247
 20
3.5603296869
 30
0.0
 10
-37.2500154152
 20
3.6323907024
 30
0.0
  0
SPLINE
  5
703
100
AcDbEntity
  8
ASSI
100
AcDbSpline
 62
7
  6
CONTINUOUS
 70
0
 71
3
 72
13
 73
9
 74
0
 42
0.0000001
 43
0.0000001
 44
0.0000000001
 40
0.0
 40
0.0
 40
0.0
 40
0.0
 40
0.2418297111
 40
0.3587506684
 40
0.4819025475
 40
0.6099630364
 40
0.7339475358
 40
1.0
 40
1.0
 40
1.0
 40
1.0
 10
-37.2500154152
 20
3.6323907024
 30
0.0
 10
-37.2188863517
 20
3.6740430445
 30
0.0
 10
-37.1591723706
 20
3.728568325
 30
0.0
 10
-37.0605303164
 20
3.7634587479
 30
0.0
 10
-36.9811490753
 20
3.7714850196
 30
0.0
 10
-36.9001883541
 20
3.7626624309
 30
0.0
 10
-36.7951371113
 20
3.7219899033
 30
0.0
 10
-36.7324866488
 20
3.6605507649
 30
0.0
 10
-36.6989722351
 20
3.6141877891
 30
0.0
  0
SPLINE
  5
704
100
AcDbEntity
  8
ASSI
100
AcDbSpline
 62
7
  6
CONTINUOUS
 70
0
 71
3
 72
17
 73
13
 74
0
 42
0.0000001
 43
0.0000001
 44
0.0000000001
 40
0.0
 40
0.0
 40
0.0
 40
0.0
 40
0.0844580526
 40
0.1939587312
 40
0.3316668575
 40
0.4116386184
 40
0.4991820578
 40
0.5872976204
 40
0.6677250704
 40
0.8060064882
 40
0.915671004
 40
1.0
 40
1.0
 40
1.0
 40
1.0
 10
-36.6989722351
 20
3.6141877891
 30
0.0
 10
-36.6777765457
 20
3.5848662189
 30
0.0
 10
-36.6424810928
 20
3.5081939031
 30
0.0
 10
-36.6099659795
 20
3.3695666696
 30
0.0
 10
-36.59477565
 20
3.2299328746
 30
0.0
 10
-36.5883299364
 20
3.0993366432
 30
0.0
 10
-36.5867918137
 20
2.9898176677
 30
0.0
 10
-36.5883417577
 20
2.8801029896
 30
0.0
 10
-36.5948650828
 20
2.7488243798
 30
0.0
 10
-36.6102294366
 20
2.6086864528
 30
0.0
 10
-36.6431245153
 20
2.4698763145
 30
0.0
 10
-36.678925829
 20
2.3933545646
 30
0.0
 10
-36.7004140709
 20
2.3643154571
 30
0.0
  0
SPLINE
  5
705
100
AcDbEntity
  8
ASSI
100
AcDbSpline
 62
7
  6
CONTINUOUS
 70
0
 71
3
 72
14
 73
10
 74
0
 42
0.0000001
 43
0.0000001
 44
0.0000000001
 40
0.0
 40
0.0
 40
0.0
 40
0.0
 40
0.1531755028
 40
0.3079996746
 40
0.4958433067
 40
0.5877948367
 40
0.6835810267
 40
0.8209533056
 40
1.0
 40
1.0
 40
1.0
 40
1.0
 10
-38.6242442388
 20
3.7062837323
 30
0.0
 10
-38.5949654114
 20
3.7264639323
 30
0.0
 10
-38.5295557312
 20
3.7587214802
 30
0.0
 10
-38.4142152856
 20
3.7748766388
 30
0.0
 10
-38.311707318
 20
3.756985477
 30
0.0
 10
-38.2355350193
 20
3.7135224581
 30
0.0
 10
-38.1771954579
 20
3.6644320663
 30
0.0
 10
-38.1279097239
 20
3.5802441064
 30
0.0
 10
-38.1075728644
 20
3.5092726785
 30
0.0
 10
-38.0983427189
 20
3.4687448006
 30
0.0
  0
SPLINE
  5
706
100
AcDbEntity
  8
ASSI
100
AcDbSpline
 62
7
  6
CONTINUOUS
 70
0
 71
3
 72
24
 73
20
 74
0
 42
0.0000001
 43
0.0000001
 44
0.0000000001
 40
0.0
 40
0.0
 40
0.0
 40
0.0
 40
0.0822880068
 40
0.1577312241
 40
0.2333251367
 40
0.2732926312
 40
0.3163027384
 40
0.3737228611
 40
0.4272843912
 40
0.4797850241
 40
0.5341863781
 40
0.6021263291
 40
0.6793833912
 40
0.7687493608
 40
0.8185885339
 40
0.8720749546
 40
0.919827556
 40
0.9642108003
 40
1.0
 40
1.0
 40
1.0
 40
1.0
 10
-37.8676525074
 20
3.4918138218
 30
0.0
 10
-37.8763942292
 20
3.5598113733
 30
0.0
 10
-37.9104876829
 20
3.6898637953
 30
0.0
 10
-38.0310726151
 20
3.8488593702
 30
0.0
 10
-38.1733451518
 20
3.9296682739
 30
0.0
 10
-38.3024992634
 20
3.96007325
 30
0.0
 10
-38.4196096019
 20
3.9679014897
 30
0.0
 10
-38.5482432183
 20
3.9566799652
 30
0.0
 10
-38.6793501366
 20
3.9153551869
 30
0.0
 10
-38.7944261983
 20
3.8447928962
 30
0.0
 10
-38.8984076518
 20
3.7409712143
 30
0.0
 10
-38.985081995
 20
3.5970608399
 30
0.0
 10
-39.0472172742
 20
3.4105795225
 30
0.0
 10
-39.0764092204
 20
3.2320296172
 30
0.0
 10
-39.0883931994
 20
3.0718899669
 30
0.0
 10
-39.0912489889
 20
2.9459989002
 30
0.0
 10
-39.088607413
 20
2.8246552848
 30
0.0
 10
-39.0805087294
 20
2.7183426264
 30
0.0
 10
-39.071573368
 20
2.652066489
 30
0.0
 10
-39.0666414825
 20
2.6226373728
 30
0.0
  0
SPLINE
  5
707
100
AcDbEntity
  8
ASSI
100
AcDbSpline
 62
7
  6
CONTINUOUS
 70
0
 71
3
 72
11
 73
7
 74
0
 42
0.0000001
 43
0.0000001
 44
0.0000000001
 40
0.0
 40
0.0
 40
0.0
 40
0.0
 40
0.3426107936
 40
0.6044566108
 40
0.8143265955
 40
1.0
 40
1.0
 40
1.0
 40
1.0
 10
-38.8596204168
 20
3.0316950052
 30
0.0
 10
-38.8588737339
 20
3.11601558
 30
0.0
 10
-38.8514472885
 20
3.2650547881
 30
0.0
 10
-38.8049618929
 20
3.4619255332
 30
0.0
 10
-38.7276881577
 20
3.6058703073
 30
0.0
 10
-38.6605096354
 20
3.6784781941
 30
0.0
 10
-38.6242442388
 20
3.7062837323
 30
0.0
  0
SPLINE
  5
708
100
AcDbEntity
  8
ASSI
100
AcDbSpline
 62
7
  6
CONTINUOUS
 70
0
 71
3
 72
24
 73
20
 74
0
 42
0.0000001
 43
0.0000001
 44
0.0000000001
 40
0.0
 40
0.0
 40
0.0
 40
0.0
 40
0.1121967685
 40
0.166093767
 40
0.2210720507
 40
0.2764710866
 40
0.3317147037
 40
0.3888826938
 40
0.4498582523
 40
0.5174707333
 40
0.5809499684
 40
0.6426255879
 40
0.7050295449
 40
0.7665006467
 40
0.8252721578
 40
0.8839358525
 40
0.9450972128
 40
0.9900525909
 40
1.0
 40
1.0
 40
1.0
 40
1.0
 10
-40.5551934712
 20
2.5459839547
 30
0.0
 10
-40.5478788958
 20
2.472613189
 30
0.0
 10
-40.5198020151
 20
2.3638259065
 30
0.0
 10
-40.4425057405
 20
2.2398409401
 30
0.0
 10
-40.3683208249
 20
2.1605161685
 30
0.0
 10
-40.2802521655
 20
2.0954379951
 30
0.0
 10
-40.1796259788
 20
2.0485510016
 30
0.0
 10
-40.0684136788
 20
2.0208894217
 30
0.0
 10
-39.9461712484
 20
2.0123143503
 30
0.0
 10
-39.8197346407
 20
2.0218862253
 30
0.0
 10
-39.6964749382
 20
2.0544115123
 30
0.0
 10
-39.5852655483
 20
2.1096371922
 30
0.0
 10
-39.4890192165
 20
2.1857556634
 30
0.0
 10
-39.4093821171
 20
2.2765227042
 30
0.0
 10
-39.3510156493
 20
2.3796274249
 30
0.0
 10
-39.3164494403
 20
2.4927538122
 30
0.0
 10
-39.3068628708
 20
2.6013020245
 30
0.0
 10
-39.3117867125
 20
2.6776580187
 30
0.0
 10
-39.3176298017
 20
2.7132943651
 30
0.0
 10
-39.3188087465
 20
2.7197295799
 30
0.0
  0
SPLINE
  5
709
100
AcDbEntity
  8
ASSI
100
AcDbSpline
 62
7
  6
CONTINUOUS
 70
0
 71
3
 72
17
 73
13
 74
0
 42
0.0000001
 43
0.0000001
 44
0.0000000001
 40
0.0
 40
0.0
 40
0.0
 40
0.0
 40
0.157922234
 40
0.3041160209
 40
0.4632412459
 40
0.5463538059
 40
0.6330895823
 40
0.7233063267
 40
0.8160954785
 40
0.8830771286
 40
0.946013392
 40
1.0
 40
1.0
 40
1.0
 40
1.0
 10
-39.674966078
 20
3.081077178
 30
0.0
 10
-39.5982031784
 20
3.116629407
 30
0.0
 10
-39.4597348529
 20
3.22230066
 30
0.0
 10
-39.3896700051
 20
3.4757043949
 30
0.0
 10
-39.4510605764
 20
3.6858199305
 30
0.0
 10
-39.563006161
 20
3.824578302
 30
0.0
 10
-39.6799497538
 20
3.9035744471
 30
0.0
 10
-39.8167191373
 20
3.954276716
 30
0.0
 10
-39.9511570488
 20
3.9683943739
 30
0.0
 10
-40.0705734064
 20
3.9597991987
 30
0.0
 10
-40.166758443
 20
3.9365649161
 30
0.0
 10
-40.2245116974
 20
3.9108561753
 30
0.0
 10
-40.2500297623
 20
3.8968479778
 30
0.0
  0
SPLINE
  5
70A
100
AcDbEntity
  8
ASSI
100
AcDbSpline
 62
7
  6
CONTINUOUS
 70
0
 71
3
 72
16
 73
12
 74
0
 42
0.0000001
 43
0.0000001
 44
0.0000000001
 40
0.0
 40
0.0
 40
0.0
 40
0.0
 40
0.2754465559
 40
0.3950325473
 40
0.4565247543
 40
0.5218606479
 40
0.5875789382
 40
0.6488150883
 40
0.7664059399
 40
0.8813245124
 40
1.0
 40
1.0
 40
1.0
 40
1.0
 10
-40.3014342385
 20
3.4341412689
 30
0.0
 10
-40.2872822487
 20
3.5253428743
 30
0.0
 10
-40.2365367035
 20
3.6634154058
 30
0.0
 10
-40.1012867849
 20
3.7448377299
 30
0.0
 10
-40.0209889646
 20
3.7655004936
 30
0.0
 10
-39.9563464168
 20
3.7702625083
 30
0.0
 10
-39.8918212718
 20
3.7655079043
 30
0.0
 10
-39.8120081354
 20
3.7449738826
 30
0.0
 10
-39.7263863223
 20
3.6908171304
 30
0.0
 10
-39.6570280273
 20
3.5915359993
 30
0.0
 10
-39.6439671358
 20
3.511753181
 30
0.0
 10
-39.6439671358
 20
3.4719889312
 30
0.0
  0
SPLINE
  5
70B
100
AcDbEntity
  8
ASSI
100
AcDbSpline
 62
7
  6
CONTINUOUS
 70
0
 71
3
 72
11
 73
7
 74
0
 42
0.0000001
 43
0.0000001
 44
0.0000000001
 40
0.0
 40
0.0
 40
0.0
 40
0.0
 40
0.2589066357
 40
0.4973886641
 40
0.7458566114
 40
1.0
 40
1.0
 40
1.0
 40
1.0
 10
-39.6439671358
 20
3.4719889312
 30
0.0
 10
-39.6439671358
 20
3.4240322807
 30
0.0
 10
-39.6587744979
 20
3.3279745363
 30
0.0
 10
-39.7586205593
 20
3.223414789
 30
0.0
 10
-39.8861380234
 20
3.1675106368
 30
0.0
 10
-39.9796941967
 20
3.154609749
 30
0.0
 10
-40.0267685625
 20
3.154609749
 30
0.0
  0
SPLINE
  5
70C
100
AcDbEntity
  8
ASSI
100
AcDbSpline
 62
7
  6
CONTINUOUS
 70
0
 71
3
 72
8
 73
4
 74
0
 42
0.0000001
 43
0.0000001
 44
0.0000000001
 40
0.0
 40
0.0
 40
0.0
 40
0.0
 40
1.0
 40
1.0
 40
1.0
 40
1.0
 10
-40.0267685625
 20
3.154609749
 30
0.0
 10
-40.0394765136
 20
3.154609749
 30
0.0
 10
-40.0521685533
 20
3.1558888876
 30
0.0
 10
-40.0647964543
 20
3.1573130151
 30
0.0
  0
SPLINE
  5
70D
100
AcDbEntity
  8
ASSI
100
AcDbSpline
 62
7
  6
CONTINUOUS
 70
0
 71
3
 72
9
 73
5
 74
0
 42
0.0000001
 43
0.0000001
 44
0.0000000001
 40
0.0
 40
0.0
 40
0.0
 40
0.0
 40
0.290916541
 40
1.0
 40
1.0
 40
1.0
 40
1.0
 10
-40.091470065
 20
2.9496918248
 30
0.0
 10
-40.0753670431
 20
2.9538178674
 30
0.0
 10
-40.0197975206
 20
2.9668606026
 30
0.0
 10
-39.9627546921
 20
2.9756445176
 30
0.0
 10
-39.9222370494
 20
2.9756445176
 30
0.0
  0
SPLINE
  5
70E
100
AcDbEntity
  8
ASSI
100
AcDbSpline
 62
7
  6
CONTINUOUS
 70
0
 71
3
 72
22
 73
18
 74
0
 42
0.0000001
 43
0.0000001
 44
0.0000000001
 40
0.0
 40
0.0
 40
0.0
 40
0.0
 40
0.1245167122
 40
0.2419987357
 40
0.3009613969
 40
0.3584696942
 40
0.4171258175
 40
0.4793882064
 40
0.544834558
 40
0.6069895135
 40
0.6683671276
 40
0.7315742793
 40
0.7950400525
 40
0.8573180853
 40
0.9211191536
 40
0.988971738
 40
1.0
 40
1.0
 40
1.0
 40
1.0
 10
-39.9222370494
 20
2.9756445176
 30
0.0
 10
-39.870922629
 20
2.9756445176
 30
0.0
 10
-39.7694666129
 20
2.9608735394
 30
0.0
 10
-39.66204056
 20
2.8916770463
 30
0.0
 10
-39.599078994
 20
2.8179715367
 30
0.0
 10
-39.5645239531
 20
2.7539378863
 30
0.0
 10
-39.5441868592
 20
2.6827116362
 30
0.0
 10
-39.5380111932
 20
2.6057652944
 30
0.0
 10
-39.5444782973
 20
2.5273804739
 30
0.0
 10
-39.565936802
 20
2.4519422069
 30
0.0
 10
-39.6023062979
 20
2.3834719635
 30
0.0
 10
-39.6521469604
 20
2.3235081674
 30
0.0
 10
-39.7124771998
 20
2.2734764714
 30
0.0
 10
-39.7823089461
 20
2.2371405155
 30
0.0
 10
-39.8598801355
 20
2.2157488811
 30
0.0
 10
-39.9187838456
 20
2.2110888897
 30
0.0
 10
-39.9513478449
 20
2.2115536664
 30
0.0
 10
-39.9558982617
 20
2.2116813877
 30
0.0
  0
SPLINE
  5
70F
100
AcDbEntity
  8
ASSI
100
AcDbSpline
 62
7
  6
CONTINUOUS
 70
0
 71
3
 72
11
 73
7
 74
0
 42
0.0000001
 43
0.0000001
 44
0.0000000001
 40
0.0
 40
0.0
 40
0.0
 40
0.0
 40
0.2023283395
 40
0.445343536
 40
0.7157738534
 40
1.0
 40
1.0
 40
1.0
 40
1.0
 10
-43.5183010824
 20
3.9647287553
 30
0.0
 10
-43.540640104
 20
3.9197886022
 30
0.0
 10
-43.6041177484
 20
3.8280260396
 30
0.0
 10
-43.7298492242
 20
3.7019264246
 30
0.0
 10
-43.8880036755
 20
3.5818695931
 30
0.0
 10
-44.0093344715
 20
3.5158634047
 30
0.0
 10
-44.0732191963
 20
3.4860466545
 30
0.0
  0
SPLINE
  5
710
100
AcDbEntity
  8
ASSI
100
AcDbSpline
 62
7
  6
CONTINUOUS
 70
0
 71
3
 72
13
 73
9
 74
0
 42
0.0000001
 43
0.0000001
 44
0.0000000001
 40
0.0
 40
0.0
 40
0.0
 40
0.0
 40
0.2307998936
 40
0.3606885394
 40
0.5005072743
 40
0.6401943536
 40
0.7697765133
 40
1.0
 40
1.0
 40
1.0
 40
1.0
 10
-44.0732191963
 20
3.2596819505
 30
0.0
 10
-44.0332295484
 20
3.2743186393
 30
0.0
 10
-43.9721611795
 20
3.3011409733
 30
0.0
 10
-43.8900316657
 20
3.3433686688
 30
0.0
 10
-43.8241199748
 20
3.3802984011
 30
0.0
 10
-43.7595865352
 20
3.4195039821
 30
0.0
 10
-43.6832680951
 20
3.4711771816
 30
0.0
 10
-43.6312078079
 20
3.5127736613
 30
0.0
 10
-43.6003042628
 20
3.5419169126
 30
0.0
  0
SPLINE
  5
711
100
AcDbEntity
  8
ASSI
100
AcDbSpline
 62
7
  6
CONTINUOUS
 70
0
 71
3
 72
9
 73
5
 74
0
 42
0.0000001
 43
0.0000001
 44
0.0000000001
 40
0.0
 40
0.0
 40
0.0
 40
0.0
 40
0.7097160398
 40
1.0
 40
1.0
 40
1.0
 40
1.0
 10
-46.0052496295
 20
3.757107565
 30
0.0
 10
-45.9772570822
 20
3.6613036472
 30
0.0
 10
-45.9322211044
 20
3.5279679677
 30
0.0
 10
-45.8845064444
 20
3.3956883989
 30
0.0
 10
-45.8704400921
 20
3.3573647434
 30
0.0
  0
SPLINE
  5
712
100
AcDbEntity
  8
ASSI
100
AcDbSpline
 62
7
  6
CONTINUOUS
 70
0
 71
3
 72
9
 73
5
 74
0
 42
0.0000001
 43
0.0000001
 44
0.0000000001
 40
0.0
 40
0.0
 40
0.0
 40
0.0
 40
0.0986341094
 40
1.0
 40
1.0
 40
1.0
 40
1.0
 10
-48.1458024004
 20
2.2691557009
 30
0.0
 10
-48.1071137258
 20
2.317336344
 30
0.0
 10
-47.714894444
 20
2.8058350163
 30
0.0
 10
-47.3221663592
 20
3.2939249059
 30
0.0
 10
-46.9683813504
 20
3.7340385438
 30
0.0
  0
SPLINE
  5
713
100
AcDbEntity
  8
ASSI
100
AcDbSpline
 62
7
  6
CONTINUOUS
 70
0
 71
3
 72
9
 73
5
 74
0
 42
0.0000001
 43
0.0000001
 44
0.0000000001
 40
0.0
 40
0.0
 40
0.0
 40
0.0
 40
0.2319301259
 40
1.0
 40
1.0
 40
1.0
 40
1.0
 10
-47.2632322
 20
3.7340385438
 30
0.0
 10
-47.2793550342
 20
3.7171450382
 30
0.0
 10
-47.3479017147
 20
3.6433814432
 30
0.0
 10
-47.4128677025
 20
3.5663416591
 30
0.0
 10
-47.461301404
 20
3.5060517745
 30
0.0
  0
SPLINE
  5
714
100
AcDbEntity
  8
ASSI
100
AcDbSpline
 62
7
  6
CONTINUOUS
 70
0
 71
3
 72
17
 73
13
 74
0
 42
0.0000001
 43
0.0000001
 44
0.0000000001
 40
0.0
 40
0.0
 40
0.0
 40
0.0
 40
0.1860451082
 40
0.2705259002
 40
0.3141542026
 40
0.3603530295
 40
0.5121184572
 40
0.5895792025
 40
0.6716563947
 40
0.7632308695
 40
0.8657555241
 40
1.0
 40
1.0
 40
1.0
 40
1.0
 10
-52.5164809366
 20
2.7179204124
 30
0.0
 10
-52.5457078831
 20
2.5834154825
 30
0.0
 10
-52.6398215369
 20
2.3833973097
 30
0.0
 10
-52.8493824143
 20
2.2691792598
 30
0.0
 10
-52.9753379405
 20
2.2392342376
 30
0.0
 10
-53.1538835139
 20
2.2261297631
 30
0.0
 10
-53.3630229107
 20
2.2800695928
 30
0.0
 10
-53.5418066937
 20
2.4318832161
 30
0.0
 10
-53.6321695439
 20
2.5980698418
 30
0.0
 10
-53.6827834701
 20
2.7973605483
 30
0.0
 10
-53.7007749749
 20
3.0402047153
 30
0.0
 10
-53.6815577041
 20
3.2171981848
 30
0.0
 10
-53.6554256044
 20
3.3133621945
 30
0.0
  0
SPLINE
  5
715
100
AcDbEntity
  8
ASSI
100
AcDbSpline
 62
7
  6
CONTINUOUS
 70
0
 71
3
 72
9
 73
5
 74
0
 42
0.0000001
 43
0.0000001
 44
0.0000000001
 40
0.0
 40
0.0
 40
0.0
 40
0.0
 40
0.4786249203
 40
1.0
 40
1.0
 40
1.0
 40
1.0
 10
-53.0661723957
 20
3.7686420756
 30
0.0
 10
-52.9570151312
 20
3.7686420756
 30
0.0
 10
-52.7121725126
 20
3.7090042294
 30
0.0
 10
-52.5984114365
 20
3.485535565
 30
0.0
 10
-52.5626189789
 20
3.3721433846
 30
0.0
  0
SPLINE
  5
716
100
AcDbEntity
  8
ASSI
100
AcDbSpline
 62
7
  6
CONTINUOUS
 70
0
 71
3
 72
25
 73
21
 74
0
 42
0.0000001
 43
0.0000001
 44
0.0000000001
 40
0.0
 40
0.0
 40
0.0
 40
0.0
 40
0.0888847953
 40
0.1718004827
 40
0.2552805514
 40
0.2993533532
 40
0.346394781
 40
0.3886666315
 40
0.4297437762
 40
0.4702843229
 40
0.5109724255
 40
0.5911642652
 40
0.6732957874
 40
0.7613184488
 40
0.8083486364
 40
0.85815985
 40
0.9045619297
 40
0.949869011
 40
0.9945301458
 40
1.0
 40
1.0
 40
1.0
 40
1.0
 10
-52.3088597463
 20
3.4305368554
 30
0.0
 10
-52.3325676001
 20
3.5131211616
 30
0.0
 10
-52.3989036877
 20
3.6686930208
 30
0.0
 10
-52.5697291123
 20
3.8536704539
 30
0.0
 10
-52.7556852231
 20
3.9469466064
 30
0.0
 10
-52.9212884487
 20
3.9822873756
 30
0.0
 10
-53.0504021465
 20
3.9903666043
 30
0.0
 10
-53.1765076806
 20
3.9832253229
 30
0.0
 10
-53.2946451715
 20
3.9616470007
 30
0.0
 10
-53.407502559
 20
3.9252764877
 30
0.0
 10
-53.5490654949
 20
3.8589025188
 30
0.0
 10
-53.7080289609
 20
3.7381758829
 30
0.0
 10
-53.8467345097
 20
3.5355091473
 30
0.0
 10
-53.9153392784
 20
3.3346016723
 30
0.0
 10
-53.9424433966
 20
3.157686575
 30
0.0
 10
-53.9488878116
 20
3.0191239109
 30
0.0
 10
-53.942737329
 20
2.882277353
 30
0.0
 10
-53.9238801716
 20
2.7515797325
 30
0.0
 10
-53.9014083229
 20
2.6619386091
 30
0.0
 10
-53.8869709835
 20
2.6156593458
 30
0.0
 10
-53.8853640057
 20
2.6106199025
 30
0.0
  0
SPLINE
  5
717
100
AcDbEntity
  8
ASSI
100
AcDbSpline
 62
7
  6
CONTINUOUS
 70
0
 71
3
 72
11
 73
7
 74
0
 42
0.0000001
 43
0.0000001
 44
0.0000000001
 40
0.0
 40
0.0
 40
0.0
 40
0.0
 40
0.2525992429
 40
0.4888102636
 40
0.730558892
 40
1.0
 40
1.0
 40
1.0
 40
1.0
 10
-53.0513937545
 20
2.0153964683
 30
0.0
 10
-52.9588359584
 20
2.0153964683
 30
0.0
 10
-52.7776456124
 20
2.0388304219
 30
0.0
 10
-52.5358350768
 20
2.1672731932
 30
0.0
 10
-52.3541546185
 20
2.3802616147
 30
0.0
 10
-52.2870704309
 20
2.5586208301
 30
0.0
 10
-52.262721704
 20
2.6543002868
 30
0.0
  0
SPLINE
  5
718
100
AcDbEntity
  8
ASSI
100
AcDbSpline
 62
7
  6
CONTINUOUS
 70
0
 71
3
 72
8
 73
4
 74
0
 42
0.0000001
 43
0.0000001
 44
0.0000000001
 40
0.0
 40
0.0
 40
0.0
 40
0.0
 40
1.0
 40
1.0
 40
1.0
 40
1.0
 10
-55.6827040012
 20
2.2633885336
 30
0.0
 10
-55.7117461979
 20
2.3682266807
 30
0.0
 10
-55.7456857855
 20
2.4717492703
 30
0.0
 10
-55.7825495479
 20
2.5740994012
 30
0.0
  0
SPLINE
  5
719
100
AcDbEntity
  8
ASSI
100
AcDbSpline
 62
7
  6
CONTINUOUS
 70
0
 71
3
 72
9
 73
5
 74
0
 42
0.0000001
 43
0.0000001
 44
0.0000000001
 40
0.0
 40
0.0
 40
0.0
 40
0.0
 40
0.7097160398
 40
1.0
 40
1.0
 40
1.0
 40
1.0
 10
-61.4614937989
 20
3.757107565
 30
0.0
 10
-61.4335012516
 20
3.6613036472
 30
0.0
 10
-61.3884652738
 20
3.5279679677
 30
0.0
 10
-61.3407506138
 20
3.3956883989
 30
0.0
 10
-61.3266842616
 20
3.3573647434
 30
0.0
  0
SPLINE
  5
71A
100
AcDbEntity
  8
ASSI
100
AcDbSpline
 62
7
  6
CONTINUOUS
 70
0
 71
3
 72
8
 73
4
 74
0
 42
0.0000001
 43
0.0000001
 44
0.0000000001
 40
0.0
 40
0.0
 40
0.0
 40
0.0
 40
1.0
 40
1.0
 40
1.0
 40
1.0
 10
-63.9298790618
 20
2.2633885336
 30
0.0
 10
-63.9589212585
 20
2.3682266807
 30
0.0
 10
-63.9928608461
 20
2.4717492703
 30
0.0
 10
-64.0297246084
 20
2.5740994012
 30
0.0
  0
SPLINE
  5
71B
100
AcDbEntity
  8
ASSI
100
AcDbSpline
 62
7
  6
CONTINUOUS
 70
0
 71
3
 72
9
 73
5
 74
0
 42
0.0000001
 43
0.0000001
 44
0.0000000001
 40
0.0
 40
0.0
 40
0.0
 40
0.0
 40
0.7097160398
 40
1.0
 40
1.0
 40
1.0
 40
1.0
 10
-66.4674713881
 20
3.757107565
 30
0.0
 10
-66.4394788408
 20
3.6613036472
 30
0.0
 10
-66.394442863
 20
3.5279679677
 30
0.0
 10
-66.346728203
 20
3.3956883989
 30
0.0
 10
-66.3326618508
 20
3.3573647434
 30
0.0
  0
SPLINE
  5
71C
100
AcDbEntity
  8
ASSI
100
AcDbSpline
 62
7
  6
CONTINUOUS
 70
0
 71
3
 72
15
 73
11
 74
0
 42
0.0000001
 43
0.0000001
 44
0.0000000001
 40
0.0
 40
0.0
 40
0.0
 40
0.0
 40
0.1818234323
 40
0.2742230203
 40
0.3716340726
 40
0.4851660516
 40
0.5943000072
 40
0.6975375539
 40
0.7935178969
 40
1.0
 40
1.0
 40
1.0
 40
1.0
 10
-67.6035306529
 20
3.0008762925
 30
0.0
 10
-67.5552640416
 20
3.0545123357
 30
0.0
 10
-67.4964731286
 20
3.1502092284
 30
0.0
 10
-67.4594470861
 20
3.2936584319
 30
0.0
 10
-67.4500765975
 20
3.4141959702
 30
0.0
 10
-67.4622296367
 20
3.5416549907
 30
0.0
 10
-67.5048832585
 20
3.6649516534
 30
0.0
 10
-67.5695865149
 20
3.7701691433
 30
0.0
 10
-67.6882241273
 20
3.8820041043
 30
0.0
 10
-67.8077554552
 20
3.9215625998
 30
0.0
 10
-67.8885591719
 20
3.935171649
 30
0.0
  0
SPLINE
  5
71D
100
AcDbEntity
  8
ASSI
100
AcDbSpline
 62
7
  6
CONTINUOUS
 70
0
 71
3
 72
9
 73
5
 74
0
 42
0.0000001
 43
0.0000001
 44
0.0000000001
 40
0.0
 40
0.0
 40
0.0
 40
0.0
 40
0.1935112737
 40
1.0
 40
1.0
 40
1.0
 40
1.0
 10
-67.8885591719
 20
3.935171649
 30
0.0
 10
-67.9065469008
 20
3.9384904071
 30
0.0
 10
-68.0002773296
 20
3.9513553266
 30
0.0
 10
-68.095102846
 20
3.9531942447
 30
0.0
 10
-68.1713348225
 20
3.9531942447
 30
0.0
  0
SPLINE
  5
71E
100
AcDbEntity
  8
ASSI
100
AcDbSpline
 62
7
  6
CONTINUOUS
 70
0
 71
3
 72
9
 73
5
 74
0
 42
0.0000001
 43
0.0000001
 44
0.0000000001
 40
0.0
 40
0.0
 40
0.0
 40
0.0
 40
0.3152731366
 40
1.0
 40
1.0
 40
1.0
 40
1.0
 10
-68.1450218467
 20
2.834346719
 30
0.0
 10
-68.0846868664
 20
2.834346719
 30
0.0
 10
-67.8964827137
 20
2.8425397758
 30
0.0
 10
-67.6911850742
 20
2.903470732
 30
0.0
 10
-67.6035306529
 20
3.0008762925
 30
0.0
  0
SPLINE
  5
71F
100
AcDbEntity
  8
ASSI
100
AcDbSpline
 62
7
  6
CONTINUOUS
 70
0
 71
3
 72
9
 73
5
 74
0
 42
0.0000001
 43
0.0000001
 44
0.0000000001
 40
0.0
 40
0.0
 40
0.0
 40
0.0
 40
0.8336714283
 40
1.0
 40
1.0
 40
1.0
 40
1.0
 10
-68.1473646539
 20
3.7340385438
 30
0.0
 10
-68.0838903942
 20
3.7340385438
 30
0.0
 10
-68.0073263109
 20
3.7336991172
 30
0.0
 10
-67.9321271769
 20
3.7204627248
 30
0.0
 10
-67.9199185731
 20
3.7170973249
 30
0.0
  0
SPLINE
  5
720
100
AcDbEntity
  8
ASSI
100
AcDbSpline
 62
7
  6
CONTINUOUS
 70
0
 71
3
 72
16
 73
12
 74
0
 42
0.0000001
 43
0.0000001
 44
0.0000000001
 40
0.0
 40
0.0
 40
0.0
 40
0.0
 40
0.1830996794
 40
0.2824687972
 40
0.3347380912
 40
0.3901799081
 40
0.4651885762
 40
0.533460504
 40
0.6606216576
 40
0.804680395
 40
1.0
 40
1.0
 40
1.0
 40
1.0
 10
-67.9199185731
 20
3.7170973249
 30
0.0
 10
-67.8588201971
 20
3.6996900203
 30
0.0
 10
-67.772395575
 20
3.6347909157
 30
0.0
 10
-67.7239530412
 20
3.5276000379
 30
0.0
 10
-67.7096163987
 20
3.4569174074
 30
0.0
 10
-67.7059747544
 20
3.3934843116
 30
0.0
 10
-67.711009859
 20
3.3243397518
 30
0.0
 10
-67.7347863407
 20
3.2332241786
 30
0.0
 10
-67.8023352604
 20
3.1299799001
 30
0.0
 10
-67.9559114138
 20
3.0609378997
 30
0.0
 10
-68.074548758
 20
3.05350242
 30
0.0
 10
-68.1423184046
 20
3.05350242
 30
0.0
  0
SPLINE
  5
721
100
AcDbEntity
  8
ASSI
100
AcDbSpline
 62
7
  6
CONTINUOUS
 70
0
 71
3
 72
16
 73
12
 74
0
 42
0.0000001
 43
0.0000001
 44
0.0000000001
 40
0.0
 40
0.0
 40
0.0
 40
0.0
 40
0.1566468856
 40
0.220189847
 40
0.2871042189
 40
0.4238330589
 40
0.5820227078
 40
0.6769136751
 40
0.7814331672
 40
0.9003632222
 40
1.0
 40
1.0
 40
1.0
 40
1.0
 10
-69.6928088414
 20
2.8320039118
 30
0.0
 10
-69.6314937948
 20
2.8077630838
 30
0.0
 10
-69.5430155378
 20
2.7589016063
 30
0.0
 10
-69.4908981063
 20
2.6467856652
 30
0.0
 10
-69.4755283362
 20
2.5343035824
 30
0.0
 10
-69.523858077
 20
2.3782148663
 30
0.0
 10
-69.6682894428
 20
2.2804460533
 30
0.0
 10
-69.8137677996
 20
2.2409086787
 30
0.0
 10
-69.9481482635
 20
2.2307412602
 30
0.0
 10
-70.0845145713
 20
2.2425650839
 30
0.0
 10
-70.1729840404
 20
2.2699644966
 30
0.0
 10
-70.2116951438
 20
2.2864292066
 30
0.0
  0
SPLINE
  5
722
100
AcDbEntity
  8
ASSI
100
AcDbSpline
 62
7
  6
CONTINUOUS
 70
0
 71
3
 72
12
 73
8
 74
0
 42
0.0000001
 43
0.0000001
 44
0.0000000001
 40
0.0
 40
0.0
 40
0.0
 40
0.0
 40
0.1606441131
 40
0.3160528741
 40
0.4695579901
 40
0.6257786262
 40
1.0
 40
1.0
 40
1.0
 40
1.0
 10
-70.7294731333
 20
2.672863571
 30
0.0
 10
-70.7278022587
 20
2.6105812385
 30
0.0
 10
-70.70994675
 20
2.4875882426
 30
0.0
 10
-70.6336540869
 20
2.3196967542
 30
0.0
 10
-70.5145201785
 20
2.1805638877
 30
0.0
 10
-70.2847752427
 20
2.0402624483
 30
0.0
 10
-70.0715219728
 20
2.0153964683
 30
0.0
 10
-69.9263827245
 20
2.0153964683
 30
0.0
  0
SPLINE
  5
723
100
AcDbEntity
  8
ASSI
100
AcDbSpline
 62
7
  6
CONTINUOUS
 70
0
 71
3
 72
15
 73
11
 74
0
 42
0.0000001
 43
0.0000001
 44
0.0000000001
 40
0.0
 40
0.0
 40
0.0
 40
0.0
 40
0.1205523663
 40
0.2334839557
 40
0.3389214346
 40
0.4385318437
 40
0.6258636217
 40
0.7171536601
 40
0.8046135431
 40
1.0
 40
1.0
 40
1.0
 40
1.0
 10
-69.9263827245
 20
2.0153964683
 30
0.0
 10
-69.8622196933
 20
2.0153964683
 30
0.0
 10
-69.737392822
 20
2.026455277
 30
0.0
 10
-69.5642725429
 20
2.0820189741
 30
0.0
 10
-69.4179739546
 20
2.1714604012
 30
0.0
 10
-69.2781283674
 20
2.3300575038
 30
0.0
 10
-69.2160900984
 20
2.5348120074
 30
0.0
 10
-69.2422212736
 20
2.7301123737
 30
0.0
 10
-69.3265596029
 20
2.9143637232
 30
0.0
 10
-69.4584601962
 20
3.0073458435
 30
0.0
 10
-69.5527728252
 20
3.0511596127
 30
0.0
  0
SPLINE
  5
724
100
AcDbEntity
  8
ASSI
100
AcDbSpline
 62
7
  6
CONTINUOUS
 70
0
 71
3
 72
9
 73
5
 74
0
 42
0.0000001
 43
0.0000001
 44
0.0000000001
 40
0.0
 40
0.0
 40
0.0
 40
0.0
 40
0.1708537376
 40
1.0
 40
1.0
 40
1.0
 40
1.0
 10
-69.5527728252
 20
3.0511596127
 30
0.0
 10
-69.5750605634
 20
3.0613482783
 30
0.0
 10
-69.7093705871
 20
3.1122810571
 30
0.0
 10
-69.8492598632
 20
3.1460001602
 30
0.0
 10
-69.9650414195
 20
3.1731730332
 30
0.0
  0
SPLINE
  5
725
100
AcDbEntity
  8
ASSI
100
AcDbSpline
 62
7
  6
CONTINUOUS
 70
0
 71
3
 72
9
 73
5
 74
0
 42
0.0000001
 43
0.0000001
 44
0.0000000001
 40
0.0
 40
0.0
 40
0.0
 40
0.0
 40
0.6350560901
 40
1.0
 40
1.0
 40
1.0
 40
1.0
 10
-69.9650414195
 20
3.1731730332
 30
0.0
 10
-70.0466390654
 20
3.1923232548
 30
0.0
 10
-70.1721087965
 20
3.2268031815
 30
0.0
 10
-70.2994339447
 20
3.277037239
 30
0.0
 10
-70.3344161021
 20
3.3101453242
 30
0.0
  0
SPLINE
  5
726
100
AcDbEntity
  8
ASSI
100
AcDbSpline
 62
7
  6
CONTINUOUS
 70
0
 71
3
 72
14
 73
10
 74
0
 42
0.0000001
 43
0.0000001
 44
0.0000000001
 40
0.0
 40
0.0
 40
0.0
 40
0.0
 40
0.1221754561
 40
0.2479284667
 40
0.3235721644
 40
0.3974374623
 40
0.5551234414
 40
0.7467267791
 40
1.0
 40
1.0
 40
1.0
 40
1.0
 10
-70.3344161021
 20
3.3101453242
 30
0.0
 10
-70.3572130281
 20
3.3312894489
 30
0.0
 10
-70.3958066091
 20
3.3842253648
 30
0.0
 10
-70.4098144174
 20
3.4677929943
 30
0.0
 10
-70.4025311322
 20
3.5379198055
 30
0.0
 10
-70.3756988669
 20
3.6120795416
 30
0.0
 10
-70.3041607614
 20
3.6979648451
 30
0.0
 10
-70.1596658481
 20
3.7613078182
 30
0.0
 10
-70.0452677998
 20
3.7686420756
 30
0.0
 10
-69.9808111468
 20
3.7686420756
 30
0.0
  0
SPLINE
  5
727
100
AcDbEntity
  8
ASSI
100
AcDbSpline
 62
7
  6
CONTINUOUS
 70
0
 71
3
 72
9
 73
5
 74
0
 42
0.0000001
 43
0.0000001
 44
0.0000000001
 40
0.0
 40
0.0
 40
0.0
 40
0.0
 40
0.5306823676
 40
1.0
 40
1.0
 40
1.0
 40
1.0
 10
-69.9808111468
 20
3.7686420756
 30
0.0
 10
-69.8691062632
 20
3.7686420756
 30
0.0
 10
-69.6313734451
 20
3.7338178063
 30
0.0
 10
-69.5403975875
 20
3.5092992412
 30
0.0
 10
-69.5298840335
 20
3.4110722478
 30
0.0
  0
SPLINE
  5
728
100
AcDbEntity
  8
ASSI
100
AcDbSpline
 62
7
  6
CONTINUOUS
 70
0
 71
3
 72
20
 73
16
 74
0
 42
0.0000001
 43
0.0000001
 44
0.0000000001
 40
0.0
 40
0.0
 40
0.0
 40
0.0
 40
0.1573317713
 40
0.2361791109
 40
0.3195933993
 40
0.4109088545
 40
0.4598620877
 40
0.5115766229
 40
0.5588578561
 40
0.6043116697
 40
0.6913315838
 40
0.7718242667
 40
0.8471214746
 40
0.9894569562
 40
1.0
 40
1.0
 40
1.0
 40
1.0
 10
-69.2761248009
 20
3.4226067583
 30
0.0
 10
-69.2801784548
 20
3.5266518233
 30
0.0
 10
-69.3272215449
 20
3.6866245718
 30
0.0
 10
-69.472076714
 20
3.8449058679
 30
0.0
 10
-69.6202390302
 20
3.9286189022
 30
0.0
 10
-69.7638667747
 20
3.9688837615
 30
0.0
 10
-69.8900092168
 20
3.9851864874
 30
0.0
 10
-69.9879687435
 20
3.9891138836
 30
0.0
 10
-70.0836106575
 20
3.9852819451
 30
0.0
 10
-70.2016506866
 20
3.9692710634
 30
0.0
 10
-70.3380726313
 20
3.9303164501
 30
0.0
 10
-70.4805544069
 20
3.8511152653
 30
0.0
 10
-70.6152525997
 20
3.703059614
 30
0.0
 10
-70.6620256226
 20
3.5489573912
 30
0.0
 10
-70.6601676898
 20
3.4471228743
 30
0.0
 10
-70.6598803717
 20
3.4401128996
 30
0.0
  0
SPLINE
  5
729
100
AcDbEntity
  8
ASSI
100
AcDbSpline
 62
7
  6
CONTINUOUS
 70
0
 71
3
 72
9
 73
5
 74
0
 42
0.0000001
 43
0.0000001
 44
0.0000000001
 40
0.0
 40
0.0
 40
0.0
 40
0.0
 40
0.1806469784
 40
1.0
 40
1.0
 40
1.0
 40
1.0
 10
-70.3848794759
 20
3.04521204
 30
0.0
 10
-70.3644913292
 20
3.0345553708
 30
0.0
 10
-70.2475545959
 20
2.9835319367
 30
0.0
 10
-70.1237853147
 20
2.9508461664
 30
0.0
 10
-70.0225337429
 20
2.9256316295
 30
0.0
  0
SPLINE
  5
72A
100
AcDbEntity
  8
ASSI
100
AcDbSpline
 62
7
  6
CONTINUOUS
 70
0
 71
3
 72
9
 73
5
 74
0
 42
0.0000001
 43
0.0000001
 44
0.0000000001
 40
0.0
 40
0.0
 40
0.0
 40
0.0
 40
0.3500357027
 40
1.0
 40
1.0
 40
1.0
 40
1.0
 10
-70.0225337429
 20
2.9256316295
 30
0.0
 10
-69.9837186863
 20
2.9159655704
 30
0.0
 10
-69.8732724524
 20
2.8871176317
 30
0.0
 10
-69.7616908811
 20
2.859789568
 30
0.0
 10
-69.6928088414
 20
2.8320039118
 30
0.0
  0
SPLINE
  5
72B
100
AcDbEntity
  8
ASSI
100
AcDbSpline
 62
7
  6
CONTINUOUS
 70
0
 71
3
 72
16
 73
12
 74
0
 42
0.0000001
 43
0.0000001
 44
0.0000000001
 40
0.0
 40
0.0
 40
0.0
 40
0.0
 40
0.1089696409
 40
0.1828936499
 40
0.2222819345
 40
0.2625064106
 40
0.3465431344
 40
0.4482180559
 40
0.5822445398
 40
0.7621351793
 40
1.0
 40
1.0
 40
1.0
 40
1.0
 10
-72.7471113364
 20
2.8920192719
 30
0.0
 10
-72.7194667633
 20
2.8920192719
 30
0.0
 10
-72.6731602361
 20
2.8909523441
 30
0.0
 10
-72.6166068744
 20
2.8864497271
 30
0.0
 10
-72.5791881587
 20
2.8751833923
 30
0.0
 10
-72.5404526693
 20
2.8602610794
 30
0.0
 10
-72.4893011297
 20
2.8335488701
 30
0.0
 10
-72.4272474912
 20
2.7803757944
 30
0.0
 10
-72.3595229352
 20
2.6992821367
 30
0.0
 10
-72.2784504056
 20
2.5851127331
 30
0.0
 10
-72.2203584475
 20
2.496448077
 30
0.0
 10
-72.187867715
 20
2.4455977196
 30
0.0
  0
SPLINE
  5
72C
100
AcDbEntity
  8
ASSI
100
AcDbSpline
 62
7
  6
CONTINUOUS
 70
0
 71
3
 72
9
 73
5
 74
0
 42
0.0000001
 43
0.0000001
 44
0.0000000001
 40
0.0
 40
0.0
 40
0.0
 40
0.0
 40
0.2659540588
 40
1.0
 40
1.0
 40
1.0
 40
1.0
 10
-71.9636657647
 20
2.5674310865
 30
0.0
 10
-71.9794000649
 20
2.5911943083
 30
0.0
 10
-72.0404268352
 20
2.6792627512
 30
0.0
 10
-72.1094784723
 20
2.7620228586
 30
0.0
 10
-72.1653393823
 20
2.8174055001
 30
0.0
  0
SPLINE
  5
72D
100
AcDbEntity
  8
ASSI
100
AcDbSpline
 62
7
  6
CONTINUOUS
 70
0
 71
3
 72
9
 73
5
 74
0
 42
0.0000001
 43
0.0000001
 44
0.0000000001
 40
0.0
 40
0.0
 40
0.0
 40
0.0
 40
0.209446698
 40
1.0
 40
1.0
 40
1.0
 40
1.0
 10
-72.1653393823
 20
2.8174055001
 30
0.0
 10
-72.1740881371
 20
2.8259307434
 30
0.0
 10
-72.2183101516
 20
2.8641207951
 30
0.0
 10
-72.2691514474
 20
2.893821347
 30
0.0
 10
-72.3100613649
 20
2.9150882931
 30
0.0
  0
SPLINE
  5
72E
100
AcDbEntity
  8
ASSI
100
AcDbSpline
 62
7
  6
CONTINUOUS
 70
0
 71
3
 72
19
 73
15
 74
0
 42
0.0000001
 43
0.0000001
 44
0.0000000001
 40
0.0
 40
0.0
 40
0.0
 40
0.0
 40
0.136569576
 40
0.2487419393
 40
0.3510973289
 40
0.4029098052
 40
0.4575312966
 40
0.5006597919
 40
0.54259345
 40
0.6258399794
 40
0.7059972618
 40
0.7829904054
 40
0.8757620861
 40
1.0
 40
1.0
 40
1.0
 40
1.0
 10
-72.3100613649
 20
2.9150882931
 30
0.0
 10
-72.2294466448
 20
2.9262833115
 30
0.0
 10
-72.0826869846
 20
2.9597253661
 30
0.0
 10
-71.9030447457
 20
3.0776078045
 30
0.0
 10
-71.8164706784
 20
3.2165145303
 30
0.0
 10
-71.784044719
 20
3.3372457515
 30
0.0
 10
-71.777114543
 20
3.426588841
 30
0.0
 10
-71.7822280086
 20
3.509875979
 30
0.0
 10
-71.8017954601
 20
3.6085628108
 30
0.0
 10
-71.8508217882
 20
3.7223542573
 30
0.0
 10
-71.941961695
 20
3.8359930913
 30
0.0
 10
-72.0729524599
 20
3.9135096489
 30
0.0
 10
-72.2467758912
 20
3.9475616966
 30
0.0
 10
-72.3760582462
 20
3.9531942447
 30
0.0
 10
-72.4500975571
 20
3.9531942447
 30
0.0
  0
SPLINE
  5
72F
100
AcDbEntity
  8
ASSI
100
AcDbSpline
 62
7
  6
CONTINUOUS
 70
0
 71
3
 72
16
 73
12
 74
0
 42
0.0000001
 43
0.0000001
 44
0.0000000001
 40
0.0
 40
0.0
 40
0.0
 40
0.0
 40
0.1522543123
 40
0.2694555914
 40
0.3706433414
 40
0.4732597487
 40
0.6190505678
 40
0.6948201622
 40
0.775286542
 40
0.8735743773
 40
1.0
 40
1.0
 40
1.0
 40
1.0
 10
-72.4398246528
 20
3.7340385438
 30
0.0
 10
-72.3784426137
 20
3.7340385438
 30
0.0
 10
-72.2685939425
 20
3.7262390333
 30
0.0
 10
-72.1288497789
 20
3.6607935642
 30
0.0
 10
-72.0482605504
 20
3.5531494243
 30
0.0
 10
-72.0211686396
 20
3.4110141502
 30
0.0
 10
-72.059966218
 20
3.2777332162
 30
0.0
 10
-72.1441568659
 20
3.1867947175
 30
0.0
 10
-72.2371673155
 20
3.1392736822
 30
0.0
 10
-72.3587003363
 20
3.1151396837
 30
0.0
 10
-72.4494117954
 20
3.1111749728
 30
0.0
 10
-72.5003808774
 20
3.1111749728
 30
0.0
  0
SPLINE
  5
730
100
AcDbEntity
  8
ASSI
100
AcDbSpline
 62
7
  6
CONTINUOUS
 70
0
 71
3
 72
9
 73
5
 74
0
 42
0.0000001
 43
0.0000001
 44
0.0000000001
 40
0.0
 40
0.0
 40
0.0
 40
0.0
 40
0.7097160398
 40
1.0
 40
1.0
 40
1.0
 40
1.0
 10
-74.4147491737
 20
3.757107565
 30
0.0
 10
-74.3867566264
 20
3.6613036472
 30
0.0
 10
-74.3417206486
 20
3.5279679677
 30
0.0
 10
-74.2940059886
 20
3.3956883989
 30
0.0
 10
-74.2799396364
 20
3.3573647434
 30
0.0
  0
SPLINE
  5
731
100
AcDbEntity
  8
ASSI
100
AcDbSpline
 62
7
  6
CONTINUOUS
 70
0
 71
3
 72
9
 73
5
 74
0
 42
0.0000001
 43
0.0000001
 44
0.0000000001
 40
0.0
 40
0.0
 40
0.0
 40
0.0
 40
0.3106214921
 40
1.0
 40
1.0
 40
1.0
 40
1.0
 10
-76.2710844582
 20
2.6319521836
 30
0.0
 10
-76.2821963429
 20
2.6005343179
 30
0.0
 10
-76.3177637264
 20
2.4993191403
 30
0.0
 10
-76.352852871
 20
2.3979190038
 30
0.0
 10
-76.3756159713
 20
2.3275491717
 30
0.0
  0
SPLINE
  5
732
100
AcDbEntity
  8
ASSI
100
AcDbSpline
 62
7
  6
CONTINUOUS
 70
0
 71
3
 72
9
 73
5
 74
0
 42
0.0000001
 43
0.0000001
 44
0.0000000001
 40
0.0
 40
0.0
 40
0.0
 40
0.0
 40
0.1862683768
 40
1.0
 40
1.0
 40
1.0
 40
1.0
 10
-76.3756159713
 20
2.3275491717
 30
0.0
 10
-76.3810065878
 20
2.3450771016
 30
0.0
 10
-76.4105270349
 20
2.4389985879
 30
0.0
 10
-76.441384455
 20
2.532492711
 30
0.0
 10
-76.4666304496
 20
2.6085227035
 30
0.0
  0
SPLINE
  5
733
100
AcDbEntity
  8
ASSI
100
AcDbSpline
 62
7
  6
CONTINUOUS
 70
0
 71
3
 72
8
 73
4
 74
0
 42
0.0000001
 43
0.0000001
 44
0.0000000001
 40
0.0
 40
0.0
 40
0.0
 40
0.0
 40
1.0
 40
1.0
 40
1.0
 40
1.0
 10
-79.0977604668
 20
2.2633885336
 30
0.0
 10
-79.1268026635
 20
2.3682266807
 30
0.0
 10
-79.1607422511
 20
2.4717492703
 30
0.0
 10
-79.1976060135
 20
2.5740994012
 30
0.0
  0
SPLINE
  5
734
100
AcDbEntity
  8
ASSI
100
AcDbSpline
 62
7
  6
CONTINUOUS
 70
0
 71
3
 72
29
 73
25
 74
0
 42
0.0000001
 43
0.0000001
 44
0.0000000001
 40
0.0
 40
0.0
 40
0.0
 40
0.0
 40
0.0356756609
 40
0.0800743562
 40
0.1648581527
 40
0.2455182361
 40
0.3251916009
 40
0.3657353528
 40
0.4062140955
 40
0.4474175219
 40
0.4900951157
 40
0.5539687363
 40
0.613857537
 40
0.6723265521
 40
0.7321238034
 40
0.7934593331
 40
0.8247695254
 40
0.8568795699
 40
0.8901839737
 40
0.9249781797
 40
0.9615095894
 40
0.9804982722
 40
0.9901836714
 40
1.0
 40
1.0
 40
1.0
 40
1.0
 10
-24.7186604272
 20
3.030667313
 30
0.0
 10
-24.7194501387
 20
3.066379996
 30
0.0
 10
-24.7242520215
 20
3.146460245
 30
0.0
 10
-24.7495557146
 20
3.3097464789
 30
0.0
 10
-24.8171482314
 20
3.5108485884
 30
0.0
 10
-24.9542835477
 20
3.7182596096
 30
0.0
 10
-25.1133953497
 20
3.8463414012
 30
0.0
 10
-25.2570646576
 20
3.9194296055
 30
0.0
 10
-25.3731815259
 20
3.9592024714
 30
0.0
 10
-25.4957654945
 20
3.9828781544
 30
0.0
 10
-25.6436978192
 20
3.9914091777
 30
0.0
 10
-25.8106450457
 20
3.9777715648
 30
0.0
 10
-25.9872915641
 20
3.9273211127
 30
0.0
 10
-26.1451123796
 20
3.8413013317
 30
0.0
 10
-26.281795093
 20
3.7226052512
 30
0.0
 10
-26.3744443942
 20
3.5997975614
 30
0.0
 10
-26.4322969749
 20
3.4889262654
 30
0.0
 10
-26.4678398001
 20
3.3987079441
 30
0.0
 10
-26.4954160922
 20
3.302144308
 30
0.0
 10
-26.5150675489
 20
3.1991702266
 30
0.0
 10
-26.5247028927
 20
3.1092083934
 30
0.0
 10
-26.528085616
 20
3.0440322537
 30
0.0
 10
-26.5290624518
 20
3.0055247593
 30
0.0
 10
-26.529237103
 20
2.9860087002
 30
0.0
 10
-26.5292286129
 20
2.976185206
 30
0.0
  0
SPLINE
  5
735
100
AcDbEntity
  8
ASSI
100
AcDbSpline
 62
7
  6
CONTINUOUS
 70
0
 71
3
 72
27
 73
23
 74
0
 42
0.0000001
 43
0.0000001
 44
0.0000000001
 40
0.0
 40
0.0
 40
0.0
 40
0.0
 40
0.0052129271
 40
0.0104072108
 40
0.0207459653
 40
0.041268333
 40
0.08205139
 40
0.1229976731
 40
0.1638963418
 40
0.2444177426
 40
0.3245451876
 40
0.4061500071
 40
0.4479339316
 40
0.4913767295
 40
0.6494860786
 40
0.7289017971
 40
0.8105874161
 40
0.8534559229
 40
0.8970940618
 40
0.942157345
 40
0.9892417994
 40
1.0
 40
1.0
 40
1.0
 40
1.0
 10
-26.5292286129
 20
2.976185206
 30
0.0
 10
-26.5292241043
 20
2.9709684736
 30
0.0
 10
-26.5291608277
 20
2.9605536929
 30
0.0
 10
-26.5287373112
 20
2.9397964796
 30
0.0
 10
-26.5272706727
 20
2.903740509
 30
0.0
 10
-26.521387138
 20
2.8322523699
 30
0.0
 10
-26.5043273032
 20
2.731126467
 30
0.0
 10
-26.4703096273
 20
2.6129211185
 30
0.0
 10
-26.4077992354
 20
2.4627059784
 30
0.0
 10
-26.2962362562
 20
2.2912126062
 30
0.0
 10
-26.1064102759
 20
2.1349550509
 30
0.0
 10
-25.9170130727
 20
2.0525002985
 30
0.0
 10
-25.7525847948
 20
2.0205743582
 30
0.0
 10
-25.5094095227
 20
2.0052695425
 30
0.0
 10
-25.2217002525
 20
2.0750618706
 30
0.0
 10
-24.9639901553
 20
2.2710488555
 30
0.0
 10
-24.8472414596
 20
2.4426248449
 30
0.0
 10
-24.7809021153
 20
2.5975845517
 30
0.0
 10
-24.7444492186
 20
2.7244891568
 30
0.0
 10
-24.7228170769
 20
2.8589418171
 30
0.0
 10
-24.7178017823
 20
2.9619784502
 30
0.0
 10
-24.7184222851
 20
3.0198979482
 30
0.0
 10
-24.7186604272
 20
3.030667313
 30
0.0
  0
SPLINE
  5
736
100
AcDbEntity
  8
ASSI
100
AcDbSpline
 62
7
  6
CONTINUOUS
 70
0
 71
3
 72
20
 73
16
 74
0
 42
0.0000001
 43
0.0000001
 44
0.0000000001
 40
0.0
 40
0.0
 40
0.0
 40
0.0
 40
0.056993967
 40
0.1256281149
 40
0.1895670145
 40
0.2513099568
 40
0.3661710324
 40
0.4798635818
 40
0.5615404775
 40
0.6427660144
 40
0.7262959247
 40
0.8154334154
 40
0.9078772166
 40
0.9537839177
 40
1.0
 40
1.0
 40
1.0
 40
1.0
 10
-35.111247622
 20
2.6300745235
 30
0.0
 10
-35.1119953534
 20
2.6055888947
 30
0.0
 10
-35.1163912735
 20
2.5517231593
 30
0.0
 10
-35.1340541289
 20
2.4718802787
 30
0.0
 10
-35.1671900926
 20
2.394612696
 30
0.0
 10
-35.2273992165
 20
2.3101106511
 30
0.0
 10
-35.3288878851
 20
2.230480616
 30
0.0
 10
-35.4640909625
 20
2.2048256504
 30
0.0
 10
-35.5830548045
 20
2.2208528864
 30
0.0
 10
-35.6808192091
 20
2.2652190294
 30
0.0
 10
-35.76424574
 20
2.3379472969
 30
0.0
 10
-35.8245956294
 20
2.4360224831
 30
0.0
 10
-35.8569042997
 20
2.5290016161
 30
0.0
 10
-35.8701108073
 20
2.6073002372
 30
0.0
 10
-35.8721603258
 20
2.6468832706
 30
0.0
 10
-35.872182178
 20
2.6667359448
 30
0.0
  0
SPLINE
  5
737
100
AcDbEntity
  8
ASSI
100
AcDbSpline
 62
7
  6
CONTINUOUS
 70
0
 71
3
 72
23
 73
19
 74
0
 42
0.0000001
 43
0.0000001
 44
0.0000000001
 40
0.0
 40
0.0
 40
0.0
 40
0.0
 40
0.0347638563
 40
0.0680301853
 40
0.1312339517
 40
0.2519486401
 40
0.3118327503
 40
0.369444337
 40
0.4272209104
 40
0.4875799959
 40
0.5499206087
 40
0.6081877135
 40
0.7222944188
 40
0.7818693912
 40
0.8433407373
 40
0.9092387339
 40
0.9816309716
 40
1.0
 40
1.0
 40
1.0
 40
1.0
 10
-35.872182178
 20
2.6667359448
 30
0.0
 10
-35.8721986154
 20
2.6816691774
 30
0.0
 10
-35.8711165086
 20
2.7108864829
 30
0.0
 10
-35.8643932057
 20
2.7668912792
 30
0.0
 10
-35.8407555119
 20
2.8576600053
 30
0.0
 10
-35.7818886197
 20
2.9484445166
 30
0.0
 10
-35.7030864836
 20
3.0143940185
 30
0.0
 10
-35.6365697989
 20
3.0507627756
 30
0.0
 10
-35.5636383108
 20
3.072244549
 30
0.0
 10
-35.486008417
 20
3.0787753538
 30
0.0
 10
-35.4081468855
 20
3.0723285972
 30
0.0
 10
-35.3106289658
 20
3.044402634
 30
0.0
 10
-35.2266514692
 20
2.984179013
 30
0.0
 10
-35.1665674315
 20
2.9023229035
 30
0.0
 10
-35.1337671523
 20
2.8283910622
 30
0.0
 10
-35.1145975249
 20
2.7443325358
 30
0.0
 10
-35.1104556933
 20
2.6769836159
 30
0.0
 10
-35.1110066298
 20
2.637966187
 30
0.0
 10
-35.111247622
 20
2.6300745235
 30
0.0
  0
SPLINE
  5
738
100
AcDbEntity
  8
ASSI
100
AcDbSpline
 62
7
  6
CONTINUOUS
 70
0
 71
3
 72
25
 73
21
 74
0
 42
0.0000001
 43
0.0000001
 44
0.0000000001
 40
0.0
 40
0.0
 40
0.0
 40
0.0
 40
0.0514509122
 40
0.0974915596
 40
0.1736562047
 40
0.2358848562
 40
0.2912931023
 40
0.3421729313
 40
0.3923748328
 40
0.4443027499
 40
0.5000924408
 40
0.5383666631
 40
0.574021779
 40
0.6411427859
 40
0.7101283661
 40
0.788009064
 40
0.8825725913
 40
0.9382660506
 40
0.9683742185
 40
1.0
 40
1.0
 40
1.0
 40
1.0
 10
-36.356631498
 20
2.9895204077
 30
0.0
 10
-36.3566016737
 20
3.0343624008
 30
0.0
 10
-36.3581799359
 20
3.1193221241
 30
0.0
 10
-36.3677102831
 20
3.2703431817
 30
0.0
 10
-36.3918734564
 20
3.4299290418
 30
0.0
 10
-36.4446180428
 20
3.5909249341
 30
0.0
 10
-36.5087044611
 20
3.7237776815
 30
0.0
 10
-36.5947346312
 20
3.8316477286
 30
0.0
 10
-36.7055561538
 20
3.9089251555
 30
0.0
 10
-36.8365477099
 20
3.9557732395
 30
0.0
 10
-36.9642692165
 20
3.9678627647
 30
0.0
 10
-37.0773721822
 20
3.9606323135
 30
0.0
 10
-37.1979118039
 20
3.9344190198
 30
0.0
 10
-37.3338805057
 20
3.8633424631
 30
0.0
 10
-37.4582539904
 20
3.7197611872
 30
0.0
 10
-37.5453832719
 20
3.5258447352
 30
0.0
 10
-37.5839236848
 20
3.3295456435
 30
0.0
 10
-37.5975177103
 20
3.1729485234
 30
0.0
 10
-37.6016816429
 20
3.0706921305
 30
0.0
 10
-37.6023678952
 20
3.0168994842
 30
0.0
 10
-37.6023587642
 20
2.9893417819
 30
0.0
  0
SPLINE
  5
739
100
AcDbEntity
  8
ASSI
100
AcDbSpline
 62
7
  6
CONTINUOUS
 70
0
 71
3
 72
26
 73
22
 74
0
 42
0.0000001
 43
0.0000001
 44
0.0000000001
 40
0.0
 40
0.0
 40
0.0
 40
0.0
 40
0.0252741961
 40
0.0496764813
 40
0.0959388808
 40
0.1389595113
 40
0.1789319094
 40
0.2504850255
 40
0.3127323825
 40
0.3588069517
 40
0.4037833605
 40
0.4502161924
 40
0.5004382742
 40
0.5389263601
 40
0.5747448729
 40
0.6420799547
 40
0.7111715415
 40
0.7890227331
 40
0.8832899337
 40
0.9386812444
 40
1.0
 40
1.0
 40
1.0
 40
1.0
 10
-37.6023587642
 20
2.9893417819
 30
0.0
 10
-37.6023514669
 20
2.9673186495
 30
0.0
 10
-37.6018843491
 20
2.9240319099
 30
0.0
 10
-37.5989612716
 20
2.8404804798
 30
0.0
 10
-37.5918073516
 20
2.7416324712
 30
0.0
 10
-37.5772417576
 20
2.629870083
 30
0.0
 10
-37.5510822227
 20
2.4977113352
 30
0.0
 10
-37.5060402966
 20
2.3523902776
 30
0.0
 10
-37.4274687835
 20
2.2144590923
 30
0.0
 10
-37.3308360509
 20
2.1203099658
 30
0.0
 10
-37.2269316292
 20
2.0584548494
 30
0.0
 10
-37.1077526493
 20
2.0223613333
 30
0.0
 10
-36.9897073068
 20
2.012622478
 30
0.0
 10
-36.8810970049
 20
2.0195015341
 30
0.0
 10
-36.7600584862
 20
2.0458511857
 30
0.0
 10
-36.6237855311
 20
2.1173335796
 30
0.0
 10
-36.4995396167
 20
2.2613856421
 30
0.0
 10
-36.4130485935
 20
2.455374613
 30
0.0
 10
-36.374910647
 20
2.6511610842
 30
0.0
 10
-36.3590670753
 20
2.8343467873
 30
0.0
 10
-36.3566670422
 20
2.9360781052
 30
0.0
 10
-36.356631498
 20
2.9895204077
 30
0.0
  0
SPLINE
  5
73A
100
AcDbEntity
  8
ASSI
100
AcDbSpline
 62
7
  6
CONTINUOUS
 70
0
 71
3
 72
20
 73
16
 74
0
 42
0.0000001
 43
0.0000001
 44
0.0000000001
 40
0.0
 40
0.0
 40
0.0
 40
0.0
 40
0.056993967
 40
0.1256281149
 40
0.1895670145
 40
0.2513099568
 40
0.3661710324
 40
0.4798635818
 40
0.5615404775
 40
0.6427660144
 40
0.7262959247
 40
0.8154334154
 40
0.9078772166
 40
0.9537839177
 40
1.0
 40
1.0
 40
1.0
 40
1.0
 10
-38.064082329
 20
2.6300745235
 30
0.0
 10
-38.0648300604
 20
2.6055888947
 30
0.0
 10
-38.0692259805
 20
2.5517231593
 30
0.0
 10
-38.0868888359
 20
2.4718802787
 30
0.0
 10
-38.1200247996
 20
2.394612696
 30
0.0
 10
-38.1802339235
 20
2.3101106511
 30
0.0
 10
-38.2817225921
 20
2.230480616
 30
0.0
 10
-38.4169256695
 20
2.2048256504
 30
0.0
 10
-38.5358895115
 20
2.2208528864
 30
0.0
 10
-38.6336539161
 20
2.2652190294
 30
0.0
 10
-38.717080447
 20
2.3379472969
 30
0.0
 10
-38.7774303364
 20
2.4360224831
 30
0.0
 10
-38.8097390067
 20
2.5290016161
 30
0.0
 10
-38.8229455143
 20
2.6073002372
 30
0.0
 10
-38.8249950328
 20
2.6468832706
 30
0.0
 10
-38.825016885
 20
2.6667359448
 30
0.0
  0
SPLINE
  5
73B
100
AcDbEntity
  8
ASSI
100
AcDbSpline
 62
7
  6
CONTINUOUS
 70
0
 71
3
 72
23
 73
19
 74
0
 42
0.0000001
 43
0.0000001
 44
0.0000000001
 40
0.0
 40
0.0
 40
0.0
 40
0.0
 40
0.0347638563
 40
0.0680301853
 40
0.1312339517
 40
0.2519486401
 40
0.3118327503
 40
0.369444337
 40
0.4272209104
 40
0.4875799959
 40
0.5499206087
 40
0.6081877135
 40
0.7222944188
 40
0.7818693912
 40
0.8433407373
 40
0.9092387339
 40
0.9816309716
 40
1.0
 40
1.0
 40
1.0
 40
1.0
 10
-38.825016885
 20
2.6667359448
 30
0.0
 10
-38.8250333224
 20
2.6816691774
 30
0.0
 10
-38.8239512156
 20
2.7108864829
 30
0.0
 10
-38.8172279127
 20
2.7668912792
 30
0.0
 10
-38.7935902189
 20
2.8576600053
 30
0.0
 10
-38.7347233267
 20
2.9484445166
 30
0.0
 10
-38.6559211906
 20
3.0143940185
 30
0.0
 10
-38.5894045059
 20
3.0507627756
 30
0.0
 10
-38.5164730178
 20
3.072244549
 30
0.0
 10
-38.438843124
 20
3.0787753538
 30
0.0
 10
-38.3609815925
 20
3.0723285972
 30
0.0
 10
-38.2634636728
 20
3.044402634
 30
0.0
 10
-38.1794861762
 20
2.984179013
 30
0.0
 10
-38.1194021385
 20
2.9023229035
 30
0.0
 10
-38.0866018593
 20
2.8283910622
 30
0.0
 10
-38.0674322319
 20
2.7443325358
 30
0.0
 10
-38.0632904003
 20
2.6769836159
 30
0.0
 10
-38.0638413368
 20
2.637966187
 30
0.0
 10
-38.064082329
 20
2.6300745235
 30
0.0
  0
SPLINE
  5
73C
100
AcDbEntity
  8
ASSI
100
AcDbSpline
 62
7
  6
CONTINUOUS
 70
0
 71
3
 72
8
 73
4
 74
0
 42
0.0000001
 43
0.0000001
 44
0.0000000001
 40
0.0
 40
0.0
 40
0.0
 40
0.0
 40
1.0
 40
1.0
 40
1.0
 40
1.0
 10
53.8369541613
 20
4.1681089605
 30
0.0
 10
53.5573135824
 20
4.4213360281
 30
0.0
 10
53.1708817338
 20
4.5749999989
 30
0.0
 10
52.8008144205
 20
4.5749999989
 30
0.0
  0
SPLINE
  5
73D
100
AcDbEntity
  8
ASSI
100
AcDbSpline
 62
7
  6
CONTINUOUS
 70
0
 71
3
 72
11
 73
7
 74
0
 42
0.0000001
 43
0.0000001
 44
0.0000000001
 40
0.0
 40
0.0
 40
0.0
 40
0.0
 40
0.089231307
 40
0.3113901877
 40
0.5291800206
 40
1.0
 40
1.0
 40
1.0
 40
1.0
 10
-20.0553963018
 20
3.3133621945
 30
0.0
 10
-20.0491185336
 20
3.3364638727
 30
0.0
 10
-20.0241425262
 20
3.4162381595
 30
0.0
 10
-19.9620980817
 20
3.5454297704
 30
0.0
 10
-19.7861823361
 20
3.7209081875
 30
0.0
 10
-19.5920365418
 20
3.7686420756
 30
0.0
 10
-19.466143093
 20
3.7686420756
 30
0.0
  0
SPLINE
  5
73E
100
AcDbEntity
  8
ASSI
100
AcDbSpline
 62
7
  6
CONTINUOUS
 70
0
 71
3
 72
12
 73
8
 74
0
 42
0.0000001
 43
0.0000001
 44
0.0000000001
 40
0.0
 40
0.0
 40
0.0
 40
0.0
 40
0.1025765978
 40
0.2161664823
 40
0.3240892025
 40
0.5317789563
 40
1.0
 40
1.0
 40
1.0
 40
1.0
 10
-20.2853347031
 20
2.6106199025
 30
0.0
 10
-20.2738728707
 20
2.5746758726
 30
0.0
 10
-20.2463198977
 20
2.5000161832
 30
0.0
 10
-20.1934289187
 20
2.3928221971
 30
0.0
 10
-20.1038209045
 20
2.2624954892
 30
0.0
 10
-19.8879410233
 20
2.062731922
 30
0.0
 10
-19.6235072659
 20
2.0153964683
 30
0.0
 10
-19.4513644518
 20
2.0153964683
 30
0.0
  0
SPLINE
  5
73F
100
AcDbEntity
  8
ASSI
100
AcDbSpline
 62
7
  6
CONTINUOUS
 70
0
 71
3
 72
10
 73
6
 74
0
 42
0.0000001
 43
0.0000001
 44
0.0000000001
 40
0.0
 40
0.0
 40
0.0
 40
0.0
 40
0.2101723731
 40
0.4563781437
 40
1.0
 40
1.0
 40
1.0
 40
1.0
 10
-24.3949584586
 20
3.4401128996
 30
0.0
 10
-24.3935091084
 20
3.4047517237
 30
0.0
 10
-24.3815659965
 20
3.3286792517
 30
0.0
 10
-24.3118092913
 20
3.1735595522
 30
0.0
 10
-24.200854766
 20
3.0869722245
 30
0.0
 10
-24.1199575627
 20
3.04521204
 30
0.0
  0
SPLINE
  5
740
100
AcDbEntity
  8
ASSI
100
AcDbSpline
 62
7
  6
CONTINUOUS
 70
0
 71
3
 72
12
 73
8
 74
0
 42
0.0000001
 43
0.0000001
 44
0.0000000001
 40
0.0
 40
0.0
 40
0.0
 40
0.0
 40
0.0289732385
 40
0.2799194297
 40
0.5034135291
 40
0.7337877942
 40
1.0
 40
1.0
 40
1.0
 40
1.0
 10
-23.9467732307
 20
2.2864292066
 30
0.0
 10
-23.9513272864
 20
2.2883661497
 30
0.0
 10
-23.9951089598
 20
2.3076109582
 30
0.0
 10
-24.0698580747
 20
2.3514387351
 30
0.0
 10
-24.1522506101
 20
2.441688917
 30
0.0
 10
-24.2013843398
 20
2.5557996788
 30
0.0
 10
-24.2172778946
 20
2.6393492247
 30
0.0
 10
-24.2223264981
 20
2.6843980816
 30
0.0
  0
SPLINE
  5
741
100
AcDbEntity
  8
ASSI
100
AcDbSpline
 62
7
  6
CONTINUOUS
 70
0
 71
3
 72
18
 73
14
 74
0
 42
0.0000001
 43
0.0000001
 44
0.0000000001
 40
0.0
 40
0.0
 40
0.0
 40
0.0
 40
0.0314188831
 40
0.1137535795
 40
0.1972542334
 40
0.2856797666
 40
0.3727265689
 40
0.4553305989
 40
0.5371666397
 40
0.6220093251
 40
0.7093561403
 40
0.7991650126
 40
1.0
 40
1.0
 40
1.0
 40
1.0
 10
-25.2160638962
 20
2.3765537739
 30
0.0
 10
-25.2284801716
 20
2.3661264753
 30
0.0
 10
-25.2749171921
 20
2.3301429995
 30
0.0
 10
-25.3641019283
 20
2.2797480247
 30
0.0
 10
-25.4906443935
 20
2.2420575109
 30
0.0
 10
-25.6243191927
 20
2.2307064185
 30
0.0
 10
-25.7575323101
 20
2.2420178242
 30
0.0
 10
-25.8826404475
 20
2.279453012
 30
0.0
 10
-25.9954377625
 20
2.3429302199
 30
0.0
 10
-26.0942626039
 20
2.4300465451
 30
0.0
 10
-26.1762453443
 20
2.5385924597
 30
0.0
 10
-26.2570254951
 20
2.7172658481
 30
0.0
 10
-26.2754693803
 20
2.8696604871
 30
0.0
 10
-26.2754693803
 20
2.9731213049
 30
0.0
  0
SPLINE
  5
742
100
AcDbEntity
  8
ASSI
100
AcDbSpline
 62
7
  6
CONTINUOUS
 70
0
 71
3
 72
12
 73
8
 74
0
 42
0.0000001
 43
0.0000001
 44
0.0000000001
 40
0.0
 40
0.0
 40
0.0
 40
0.0
 40
0.1009982855
 40
0.217704019
 40
0.4410700438
 40
0.688240277
 40
1.0
 40
1.0
 40
1.0
 40
1.0
 10
-34.0502288477
 20
2.2116813877
 30
0.0
 10
-34.0694139709
 20
2.2122198765
 30
0.0
 10
-34.1106787474
 20
2.21578459
 30
0.0
 10
-34.1922579106
 20
2.2358329934
 30
0.0
 10
-34.2916404948
 20
2.2936903048
 30
0.0
 10
-34.3769529915
 20
2.4198053183
 30
0.0
 10
-34.4066514402
 20
2.5227079034
 30
0.0
 10
-34.4188338457
 20
2.5805874864
 30
0.0
  0
SPLINE
  5
743
100
AcDbEntity
  8
ASSI
100
AcDbSpline
 62
7
  6
CONTINUOUS
 70
0
 71
3
 72
10
 73
6
 74
0
 42
0.0000001
 43
0.0000001
 44
0.0000000001
 40
0.0
 40
0.0
 40
0.0
 40
0.0
 40
0.1187441487
 40
0.4134156441
 40
1.0
 40
1.0
 40
1.0
 40
1.0
 10
-33.4131393325
 20
2.7197295799
 30
0.0
 10
-33.4169373034
 20
2.7404606244
 30
0.0
 10
-33.4345061732
 20
2.8118618246
 30
0.0
 10
-33.5184346417
 20
2.9725502203
 30
0.0
 10
-33.6679375379
 20
3.0576364984
 30
0.0
 10
-33.769296664
 20
3.081077178
 30
0.0
  0
SPLINE
  5
744
100
AcDbEntity
  8
ASSI
100
AcDbSpline
 62
7
  6
CONTINUOUS
 70
0
 71
3
 72
10
 73
6
 74
0
 42
0.0000001
 43
0.0000001
 44
0.0000000001
 40
0.0
 40
0.0
 40
0.0
 40
0.0
 40
0.2047034631
 40
0.5819525333
 40
1.0
 40
1.0
 40
1.0
 40
1.0
 10
-34.3443603483
 20
3.8968479778
 30
0.0
 10
-34.3761685376
 20
3.8793868028
 30
0.0
 10
-34.4615241722
 20
3.8203035522
 30
0.0
 10
-34.5720255691
 20
3.6778644269
 30
0.0
 10
-34.6134658028
 20
3.5412079641
 30
0.0
 10
-34.626455036
 20
3.4687448006
 30
0.0
  0
SPLINE
  5
745
100
AcDbEntity
  8
ASSI
100
AcDbSpline
 62
7
  6
CONTINUOUS
 70
0
 71
3
 72
24
 73
20
 74
0
 42
0.0000001
 43
0.0000001
 44
0.0000000001
 40
0.0
 40
0.0
 40
0.0
 40
0.0
 40
0.0514309364
 40
0.1320192791
 40
0.2025663583
 40
0.2672995774
 40
0.3293613968
 40
0.391969746
 40
0.4582630153
 40
0.4978444158
 40
0.5359032638
 40
0.6101097289
 40
0.6842934869
 40
0.7619758951
 40
0.8427348527
 40
0.8835541282
 40
0.9253641986
 40
0.9872211791
 40
1.0
 40
1.0
 40
1.0
 40
1.0
 10
-36.1138067755
 20
2.6226373728
 30
0.0
 10
-36.1078187301
 20
2.5869060314
 30
0.0
 10
-36.088879077
 20
2.4957795011
 30
0.0
 10
-36.0426147864
 20
2.359862297
 30
0.0
 10
-35.9601293278
 20
2.2303244276
 30
0.0
 10
-35.8584710655
 20
2.1339610819
 30
0.0
 10
-35.743465278
 20
2.0643263084
 30
0.0
 10
-35.6141190144
 20
2.0235214963
 30
0.0
 10
-35.4951940384
 20
2.012782424
 30
0.0
 10
-35.3938227536
 20
2.0185760808
 30
0.0
 10
-35.288576877
 20
2.0388253514
 30
0.0
 10
-35.165945195
 20
2.0907090853
 30
0.0
 10
-35.0416110647
 20
2.1937913387
 30
0.0
 10
-34.9506119149
 20
2.3322747251
 30
0.0
 10
-34.9025693102
 20
2.4654567561
 30
0.0
 10
-34.8832895396
 20
2.579090945
 30
0.0
 10
-34.8779921966
 20
2.6808335932
 30
0.0
 10
-34.8839921719
 20
2.7629604913
 30
0.0
 10
-34.8936284754
 20
2.8146984938
 30
0.0
 10
-34.8954536309
 20
2.8235208313
 30
0.0
  0
SPLINE
  5
746
100
AcDbEntity
  8
ASSI
100
AcDbSpline
 62
7
  6
CONTINUOUS
 70
0
 71
3
 72
16
 73
12
 74
0
 42
0.0000001
 43
0.0000001
 44
0.0000000001
 40
0.0
 40
0.0
 40
0.0
 40
0.0
 40
0.0716681923
 40
0.1602407834
 40
0.2489751931
 40
0.3359464937
 40
0.4188868604
 40
0.501429145
 40
0.5872567632
 40
0.7870946486
 40
1.0
 40
1.0
 40
1.0
 40
1.0
 10
-34.8954536309
 20
2.8235208313
 30
0.0
 10
-34.9018524998
 20
2.8544513352
 30
0.0
 10
-34.9209763409
 20
2.9226179965
 30
0.0
 10
-34.969270664
 20
3.0218783476
 30
0.0
 10
-35.0416337526
 20
3.1138994412
 30
0.0
 10
-35.1277192884
 20
3.1893721923
 30
0.0
 10
-35.2249743747
 20
3.2447663175
 30
0.0
 10
-35.3315669475
 20
3.277464494
 30
0.0
 10
-35.4935770709
 20
3.292548484
 30
0.0
 10
-35.7166206952
 20
3.2417196668
 30
0.0
 10
-35.8551999446
 20
3.1098985434
 30
0.0
 10
-35.9067857098
 20
3.0316950052
 30
0.0
  0
SPLINE
  5
747
100
AcDbEntity
  8
ASSI
100
AcDbSpline
 62
7
  6
CONTINUOUS
 70
0
 71
3
 72
24
 73
20
 74
0
 42
0.0000001
 43
0.0000001
 44
0.0000000001
 40
0.0
 40
0.0
 40
0.0
 40
0.0
 40
0.0514309364
 40
0.1320192791
 40
0.2025663583
 40
0.2672995774
 40
0.3293613968
 40
0.391969746
 40
0.4582630153
 40
0.4978444158
 40
0.5359032638
 40
0.6101097289
 40
0.6842934869
 40
0.7619758951
 40
0.8427348527
 40
0.8835541282
 40
0.9253641986
 40
0.9872211791
 40
1.0
 40
1.0
 40
1.0
 40
1.0
 10
-39.0666414825
 20
2.6226373728
 30
0.0
 10
-39.0606534371
 20
2.5869060314
 30
0.0
 10
-39.041713784
 20
2.4957795011
 30
0.0
 10
-38.9954494934
 20
2.359862297
 30
0.0
 10
-38.9129640348
 20
2.2303244276
 30
0.0
 10
-38.8113057725
 20
2.1339610819
 30
0.0
 10
-38.696299985
 20
2.0643263084
 30
0.0
 10
-38.5669537214
 20
2.0235214963
 30
0.0
 10
-38.4480287454
 20
2.012782424
 30
0.0
 10
-38.3466574606
 20
2.0185760808
 30
0.0
 10
-38.241411584
 20
2.0388253514
 30
0.0
 10
-38.118779902
 20
2.0907090853
 30
0.0
 10
-37.9944457716
 20
2.1937913387
 30
0.0
 10
-37.9034466219
 20
2.3322747251
 30
0.0
 10
-37.8554040172
 20
2.4654567561
 30
0.0
 10
-37.8361242466
 20
2.579090945
 30
0.0
 10
-37.8308269036
 20
2.6808335932
 30
0.0
 10
-37.8368268789
 20
2.7629604913
 30
0.0
 10
-37.8464631824
 20
2.8146984938
 30
0.0
 10
-37.8482883379
 20
2.8235208313
 30
0.0
  0
SPLINE
  5
748
100
AcDbEntity
  8
ASSI
100
AcDbSpline
 62
7
  6
CONTINUOUS
 70
0
 71
3
 72
16
 73
12
 74
0
 42
0.0000001
 43
0.0000001
 44
0.0000000001
 40
0.0
 40
0.0
 40
0.0
 40
0.0
 40
0.0716681923
 40
0.1602407834
 40
0.2489751931
 40
0.3359464937
 40
0.4188868604
 40
0.501429145
 40
0.5872567632
 40
0.7870946486
 40
1.0
 40
1.0
 40
1.0
 40
1.0
 10
-37.8482883379
 20
2.8235208313
 30
0.0
 10
-37.8546872068
 20
2.8544513352
 30
0.0
 10
-37.8738110479
 20
2.9226179965
 30
0.0
 10
-37.922105371
 20
3.0218783476
 30
0.0
 10
-37.9944684596
 20
3.1138994412
 30
0.0
 10
-38.0805539954
 20
3.1893721923
 30
0.0
 10
-38.1778090817
 20
3.2447663175
 30
0.0
 10
-38.2844016545
 20
3.277464494
 30
0.0
 10
-38.4464117779
 20
3.292548484
 30
0.0
 10
-38.6694554022
 20
3.2417196668
 30
0.0
 10
-38.8080346516
 20
3.1098985434
 30
0.0
 10
-38.8596204168
 20
3.0316950052
 30
0.0
  0
SPLINE
  5
749
100
AcDbEntity
  8
ASSI
100
AcDbSpline
 62
7
  6
CONTINUOUS
 70
0
 71
3
 72
10
 73
6
 74
0
 42
0.0000001
 43
0.0000001
 44
0.0000000001
 40
0.0
 40
0.0
 40
0.0
 40
0.0
 40
0.1187441487
 40
0.4134156441
 40
1.0
 40
1.0
 40
1.0
 40
1.0
 10
-39.3188087465
 20
2.7197295799
 30
0.0
 10
-39.3226067174
 20
2.7404606244
 30
0.0
 10
-39.3401755872
 20
2.8118618246
 30
0.0
 10
-39.4241040557
 20
2.9725502203
 30
0.0
 10
-39.5736069519
 20
3.0576364984
 30
0.0
 10
-39.674966078
 20
3.081077178
 30
0.0
  0
SPLINE
  5
74A
100
AcDbEntity
  8
ASSI
100
AcDbSpline
 62
7
  6
CONTINUOUS
 70
0
 71
3
 72
10
 73
6
 74
0
 42
0.0000001
 43
0.0000001
 44
0.0000000001
 40
0.0
 40
0.0
 40
0.0
 40
0.0
 40
0.2047034631
 40
0.5819525333
 40
1.0
 40
1.0
 40
1.0
 40
1.0
 10
-40.2500297623
 20
3.8968479778
 30
0.0
 10
-40.2818379515
 20
3.8793868028
 30
0.0
 10
-40.3671935862
 20
3.8203035522
 30
0.0
 10
-40.4776949831
 20
3.6778644269
 30
0.0
 10
-40.5191352167
 20
3.5412079641
 30
0.0
 10
-40.53212445
 20
3.4687448006
 30
0.0
  0
SPLINE
  5
74B
100
AcDbEntity
  8
ASSI
100
AcDbSpline
 62
7
  6
CONTINUOUS
 70
0
 71
3
 72
12
 73
8
 74
0
 42
0.0000001
 43
0.0000001
 44
0.0000000001
 40
0.0
 40
0.0
 40
0.0
 40
0.0
 40
0.1009982855
 40
0.217704019
 40
0.4410700438
 40
0.688240277
 40
1.0
 40
1.0
 40
1.0
 40
1.0
 10
-39.9558982617
 20
2.2116813877
 30
0.0
 10
-39.9750833849
 20
2.2122198765
 30
0.0
 10
-40.0163481614
 20
2.21578459
 30
0.0
 10
-40.0979273246
 20
2.2358329934
 30
0.0
 10
-40.1973099087
 20
2.2936903048
 30
0.0
 10
-40.2826224055
 20
2.4198053183
 30
0.0
 10
-40.3123208542
 20
2.5227079034
 30
0.0
 10
-40.3245032597
 20
2.5805874864
 30
0.0
  0
SPLINE
  5
74C
100
AcDbEntity
  8
ASSI
100
AcDbSpline
 62
7
  6
CONTINUOUS
 70
0
 71
3
 72
11
 73
7
 74
0
 42
0.0000001
 43
0.0000001
 44
0.0000000001
 40
0.0
 40
0.0
 40
0.0
 40
0.0
 40
0.089231307
 40
0.3113901877
 40
0.5291800206
 40
1.0
 40
1.0
 40
1.0
 40
1.0
 10
-53.6554256044
 20
3.3133621945
 30
0.0
 10
-53.6491478362
 20
3.3364638727
 30
0.0
 10
-53.6241718288
 20
3.4162381595
 30
0.0
 10
-53.5621273844
 20
3.5454297704
 30
0.0
 10
-53.3862116387
 20
3.7209081875
 30
0.0
 10
-53.1920658444
 20
3.7686420756
 30
0.0
 10
-53.0661723957
 20
3.7686420756
 30
0.0
  0
SPLINE
  5
74D
100
AcDbEntity
  8
ASSI
100
AcDbSpline
 62
7
  6
CONTINUOUS
 70
0
 71
3
 72
12
 73
8
 74
0
 42
0.0000001
 43
0.0000001
 44
0.0000000001
 40
0.0
 40
0.0
 40
0.0
 40
0.0
 40
0.1025765978
 40
0.2161664823
 40
0.3240892025
 40
0.5317789563
 40
1.0
 40
1.0
 40
1.0
 40
1.0
 10
-53.8853640057
 20
2.6106199025
 30
0.0
 10
-53.8739021733
 20
2.5746758726
 30
0.0
 10
-53.8463492004
 20
2.5000161832
 30
0.0
 10
-53.7934582213
 20
2.3928221971
 30
0.0
 10
-53.7038502072
 20
2.2624954892
 30
0.0
 10
-53.487970326
 20
2.062731922
 30
0.0
 10
-53.2235365685
 20
2.0153964683
 30
0.0
 10
-53.0513937545
 20
2.0153964683
 30
0.0
  0
SPLINE
  5
74E
100
AcDbEntity
  8
ASSI
100
AcDbSpline
 62
7
  6
CONTINUOUS
 70
0
 71
3
 72
12
 73
8
 74
0
 42
0.0000001
 43
0.0000001
 44
0.0000000001
 40
0.0
 40
0.0
 40
0.0
 40
0.0
 40
0.0289732385
 40
0.2799194297
 40
0.5034135291
 40
0.7337877942
 40
1.0
 40
1.0
 40
1.0
 40
1.0
 10
-70.2116951438
 20
2.2864292066
 30
0.0
 10
-70.2162491995
 20
2.2883661497
 30
0.0
 10
-70.2600308729
 20
2.3076109582
 30
0.0
 10
-70.3347799878
 20
2.3514387351
 30
0.0
 10
-70.4171725232
 20
2.441688917
 30
0.0
 10
-70.4663062529
 20
2.5557996788
 30
0.0
 10
-70.4821998077
 20
2.6393492247
 30
0.0
 10
-70.4872484112
 20
2.6843980816
 30
0.0
  0
SPLINE
  5
74F
100
AcDbEntity
  8
ASSI
100
AcDbSpline
 62
7
  6
CONTINUOUS
 70
0
 71
3
 72
10
 73
6
 74
0
 42
0.0000001
 43
0.0000001
 44
0.0000000001
 40
0.0
 40
0.0
 40
0.0
 40
0.0
 40
0.2101723731
 40
0.4563781437
 40
1.0
 40
1.0
 40
1.0
 40
1.0
 10
-70.6598803717
 20
3.4401128996
 30
0.0
 10
-70.6584310215
 20
3.4047517237
 30
0.0
 10
-70.6464879096
 20
3.3286792517
 30
0.0
 10
-70.5767312044
 20
3.1735595522
 30
0.0
 10
-70.4657766791
 20
3.0869722245
 30
0.0
 10
-70.3848794759
 20
3.04521204
 30
0.0
  0
SPLINE
  5
750
100
AcDbEntity
  8
RACCORDO
100
AcDbSpline
 62
7
  6
CONTINUOUS
 70
0
 71
3
 72
13
 73
9
 74
0
 42
0.0000001
 43
0.0000001
 44
0.0000000001
 40
0.0
 40
0.0
 40
0.0
 40
0.0
 40
0.0828320369
 40
0.1853340887
 40
0.3032114663
 40
0.4320386148
 40
0.7097459213
 40
1.0
 40
1.0
 40
1.0
 40
1.0
 10
-5.479536346
 20
-46.6
 30
0.0
 10
-5.5351835448
 20
-46.6
 30
0.0
 10
-5.6587820231
 20
-46.5713739443
 30
0.0
 10
-5.8458850333
 20
-46.4910817165
 30
0.0
 10
-6.0524987451
 20
-46.3792142714
 30
0.0
 10
-6.3530646745
 20
-46.1953896694
 30
0.0
 10
-6.7408417194
 20
-45.9328339544
 30
0.0
 10
-7.0523744679
 20
-45.7125803697
 30
0.0
 10
-7.2115871536
 20
-45.6
 30
0.0
  0
SPLINE
  5
751
100
AcDbEntity
  8
RACCORDO
100
AcDbSpline
 62
7
  6
CONTINUOUS
 70
0
 71
3
 72
13
 73
9
 74
0
 42
0.0000001
 43
0.0000001
 44
0.0000000001
 40
0.0
 40
0.0
 40
0.0
 40
0.0
 40
0.2902523906
 40
0.5679594584
 40
0.6967865609
 40
0.8146640264
 40
0.9171667297
 40
1.0
 40
1.0
 40
1.0
 40
1.0
 10
7.2884128464
 20
-45.6
 30
0.0
 10
7.1292010845
 20
-45.7125797165
 30
0.0
 10
6.8176692758
 20
-45.9328323952
 30
0.0
 10
6.4298935598
 20
-46.195387713
 30
0.0
 10
6.129327853
 20
-46.379212441
 30
0.0
 10
5.9227138229
 20
-46.4910802698
 30
0.0
 10
5.7356098035
 20
-46.5713734833
 30
0.0
 10
5.6120100671
 20
-46.6
 30
0.0
 10
5.5563620389
 20
-46.6
 30
0.0
  0
SPLINE
  5
752
100
AcDbEntity
  8
RACCORDO
100
AcDbSpline
 62
7
  6
CONTINUOUS
 70
0
 71
3
 72
13
 73
9
 74
0
 42
0.0000001
 43
0.0000001
 44
0.0000000001
 40
0.0
 40
0.0
 40
0.0
 40
0.0
 40
0.2158485605
 40
0.4464673086
 40
0.5720590714
 40
0.7064164091
 40
0.8499553926
 40
1.0
 40
1.0
 40
1.0
 40
1.0
 10
104.7566092559
 20
-16.9326224212
 30
0.0
 10
104.7488042009
 20
-16.7109206664
 30
0.0
 10
104.6539275846
 20
-16.2519525509
 30
0.0
 10
104.3430544113
 20
-15.7385085453
 30
0.0
 10
103.97727289
 20
-15.3879888306
 30
0.0
 10
103.626573646
 20
-15.1614301562
 30
0.0
 10
103.2133922984
 20
-15.0017848888
 30
0.0
 10
102.9119442593
 20
-14.9565291155
 30
0.0
 10
102.7578276019
 20
-14.9511972268
 30
0.0
  0
SPLINE
  5
753
100
AcDbEntity
  8
RACCORDO
100
AcDbSpline
 62
7
  6
CONTINUOUS
 70
0
 71
3
 72
13
 73
9
 74
0
 42
0.0000001
 43
0.0000001
 44
0.0000000001
 40
0.0
 40
0.0
 40
0.0
 40
0.0
 40
0.1500446074
 40
0.2935835909
 40
0.4279409286
 40
0.5535326914
 40
0.7841514395
 40
1.0
 40
1.0
 40
1.0
 40
1.0
 10
102.7578276019
 20
21.0511972268
 30
0.0
 10
102.9119442593
 20
21.0565291155
 30
0.0
 10
103.2133922984
 20
21.1017848888
 30
0.0
 10
103.626573646
 20
21.2614301562
 30
0.0
 10
103.97727289
 20
21.4879888306
 30
0.0
 10
104.3430544113
 20
21.8385085453
 30
0.0
 10
104.6539275846
 20
22.3519525509
 30
0.0
 10
104.7488042009
 20
22.8109206664
 30
0.0
 10
104.7566092559
 20
23.0326224212
 30
0.0
  0
SPLINE
  5
754
100
AcDbEntity
  8
RACCORDO
100
AcDbSpline
 62
7
  6
CONTINUOUS
 70
0
 71
3
 72
13
 73
9
 74
0
 42
0.0000001
 43
0.0000001
 44
0.0000000001
 40
0.0
 40
0.0
 40
0.0
 40
0.0
 40
0.1500446074
 40
0.2935835909
 40
0.4279409286
 40
0.5535326914
 40
0.7841514395
 40
1.0
 40
1.0
 40
1.0
 40
1.0
 10
-102.681001909
 20
-14.9511972268
 30
0.0
 10
-102.8351185664
 20
-14.9565291155
 30
0.0
 10
-103.1365666055
 20
-15.0017848888
 30
0.0
 10
-103.5497479531
 20
-15.1614301562
 30
0.0
 10
-103.9004471971
 20
-15.3879888306
 30
0.0
 10
-104.2662287184
 20
-15.7385085453
 30
0.0
 10
-104.5771018917
 20
-16.2519525509
 30
0.0
 10
-104.6719785081
 20
-16.7109206664
 30
0.0
 10
-104.6797835631
 20
-16.9326224212
 30
0.0
  0
SPLINE
  5
755
100
AcDbEntity
  8
RACCORDO
100
AcDbSpline
 62
7
  6
CONTINUOUS
 70
0
 71
3
 72
13
 73
9
 74
0
 42
0.0000001
 43
0.0000001
 44
0.0000000001
 40
0.0
 40
0.0
 40
0.0
 40
0.0
 40
0.2158485605
 40
0.4464673086
 40
0.5720590714
 40
0.7064164091
 40
0.8499553926
 40
1.0
 40
1.0
 40
1.0
 40
1.0
 10
-104.6797835631
 20
23.0326224212
 30
0.0
 10
-104.6719785081
 20
22.8109206664
 30
0.0
 10
-104.5771018917
 20
22.3519525509
 30
0.0
 10
-104.2662287184
 20
21.8385085453
 30
0.0
 10
-103.9004471971
 20
21.4879888306
 30
0.0
 10
-103.5497479531
 20
21.2614301562
 30
0.0
 10
-103.1365666055
 20
21.1017848888
 30
0.0
 10
-102.8351185664
 20
21.0565291155
 30
0.0
 10
-102.681001909
 20
21.0511972268
 30
0.0
  0
SPLINE
  5
756
100
AcDbEntity
  8
RACCORDO
100
AcDbSpline
 62
7
  6
CONTINUOUS
 70
0
 71
3
 72
13
 73
9
 74
0
 42
0.0000001
 43
0.0000001
 44
0.0000000001
 40
0.0
 40
0.0
 40
0.0
 40
0.0
 40
0.1498063231
 40
0.2931070866
 40
0.4272776998
 40
0.5527900353
 40
0.7836212783
 40
1.0
 40
1.0
 40
1.0
 40
1.0
 10
62.5396311924
 20
-46.8495732165
 30
0.0
 10
62.5450246623
 20
-47.0041161287
 30
0.0
 10
62.5909138056
 20
-47.3063841647
 30
0.0
 10
62.7526156661
 20
-47.7201592598
 30
0.0
 10
62.9816758263
 20
-48.0708078671
 30
0.0
 10
63.3356917825
 20
-48.4362311705
 30
0.0
 10
63.8534440092
 20
-48.7461599318
 30
0.0
 10
64.3151926439
 20
-48.8405645978
 30
0.0
 10
64.5384128464
 20
-48.8483548705
 30
0.0
  0
SPLINE
  5
757
100
AcDbEntity
  8
RACCORDO
100
AcDbSpline
 62
7
  6
CONTINUOUS
 70
0
 71
3
 72
13
 73
9
 74
0
 42
0.0000001
 43
0.0000001
 44
0.0000000001
 40
0.0
 40
0.0
 40
0.0
 40
0.0
 40
0.2163787217
 40
0.4472099647
 40
0.5727223002
 40
0.7068929134
 40
0.8501936769
 40
1.0
 40
1.0
 40
1.0
 40
1.0
 10
50.5384128464
 20
-48.8483548705
 30
0.0
 10
50.761633049
 20
-48.8405645978
 30
0.0
 10
51.2233816836
 20
-48.7461599318
 30
0.0
 10
51.7411339104
 20
-48.4362311705
 30
0.0
 10
52.0951498665
 20
-48.0708078671
 30
0.0
 10
52.3242100268
 20
-47.7201592598
 30
0.0
 10
52.4859118873
 20
-47.3063841647
 30
0.0
 10
52.5318010306
 20
-47.0041161287
 30
0.0
 10
52.5371945005
 20
-46.8495732165
 30
0.0
  0
SPLINE
  5
758
100
AcDbEntity
  8
RACCORDO
100
AcDbSpline
 62
7
  6
CONTINUOUS
 70
0
 71
3
 72
13
 73
9
 74
0
 42
0.0000001
 43
0.0000001
 44
0.0000000001
 40
0.0
 40
0.0
 40
0.0
 40
0.0
 40
0.1498063231
 40
0.2931070866
 40
0.4272776998
 40
0.5527900353
 40
0.7836212783
 40
1.0
 40
1.0
 40
1.0
 40
1.0
 10
52.5371945005
 20
52.9495732165
 30
0.0
 10
52.5318010306
 20
53.1041161287
 30
0.0
 10
52.4859118873
 20
53.4063841647
 30
0.0
 10
52.3242100268
 20
53.8201592598
 30
0.0
 10
52.0951498665
 20
54.1708078671
 30
0.0
 10
51.7411339104
 20
54.5362311705
 30
0.0
 10
51.2233816836
 20
54.8461599318
 30
0.0
 10
50.761633049
 20
54.9405645978
 30
0.0
 10
50.5384128464
 20
54.9483548705
 30
0.0
  0
SPLINE
  5
759
100
AcDbEntity
  8
RACCORDO
100
AcDbSpline
 62
7
  6
CONTINUOUS
 70
0
 71
3
 72
13
 73
9
 74
0
 42
0.0000001
 43
0.0000001
 44
0.0000000001
 40
0.0
 40
0.0
 40
0.0
 40
0.0
 40
0.2163787217
 40
0.4472099647
 40
0.5727223002
 40
0.7068929134
 40
0.8501936769
 40
1.0
 40
1.0
 40
1.0
 40
1.0
 10
64.5384128464
 20
54.9483548705
 30
0.0
 10
64.3151926439
 20
54.9405645978
 30
0.0
 10
63.8534440092
 20
54.8461599318
 30
0.0
 10
63.3356917825
 20
54.5362311705
 30
0.0
 10
62.9816758263
 20
54.1708078671
 30
0.0
 10
62.7526156661
 20
53.8201592598
 30
0.0
 10
62.5909138056
 20
53.4063841647
 30
0.0
 10
62.5450246623
 20
53.1041161287
 30
0.0
 10
62.5396311924
 20
52.9495732165
 30
0.0
  0
SPLINE
  5
75A
100
AcDbEntity
  8
RACCORDO
100
AcDbSpline
 62
7
  6
CONTINUOUS
 70
0
 71
3
 72
13
 73
9
 74
0
 42
0.0000001
 43
0.0000001
 44
0.0000000001
 40
0.0
 40
0.0
 40
0.0
 40
0.0
 40
0.1505774469
 40
0.2942842791
 40
0.4283730485
 40
0.5534824523
 40
0.7834156823
 40
1.0
 40
1.0
 40
1.0
 40
1.0
 10
62.5384890003
 20
23.0500761568
 30
0.0
 10
62.5398565892
 20
22.8933600232
 30
0.0
 10
62.578882543
 20
22.5861663376
 30
0.0
 10
62.7352760751
 20
22.1649081103
 30
0.0
 10
62.9634119517
 20
21.8093120604
 30
0.0
 10
63.3197059764
 20
21.4418888255
 30
0.0
 10
63.8455091659
 20
21.1359587119
 30
0.0
 10
64.312998898
 20
21.0521193935
 30
0.0
 10
64.5384128464
 20
21.0501523106
 30
0.0
  0
SPLINE
  5
75B
100
AcDbEntity
  8
RACCORDO
100
AcDbSpline
 62
7
  6
CONTINUOUS
 70
0
 71
3
 72
13
 73
9
 74
0
 42
0.0000001
 43
0.0000001
 44
0.0000000001
 40
0.0
 40
0.0
 40
0.0
 40
0.0
 40
0.2165843177
 40
0.4465175477
 40
0.5716269515
 40
0.7057157209
 40
0.8494225531
 40
1.0
 40
1.0
 40
1.0
 40
1.0
 10
50.5384128464
 20
21.0501523106
 30
0.0
 10
50.7638267949
 20
21.0521193935
 30
0.0
 10
51.231316527
 20
21.1359587119
 30
0.0
 10
51.7571197164
 20
21.4418888255
 30
0.0
 10
52.1134137412
 20
21.8093120604
 30
0.0
 10
52.3415496178
 20
22.1649081103
 30
0.0
 10
52.4979431499
 20
22.5861663376
 30
0.0
 10
52.5369691037
 20
22.8933600232
 30
0.0
 10
52.5383366926
 20
23.0500761568
 30
0.0
  0
SPLINE
  5
75C
100
AcDbEntity
  8
RACCORDO
100
AcDbSpline
 62
7
  6
CONTINUOUS
 70
0
 71
3
 72
13
 73
9
 74
0
 42
0.0000001
 43
0.0000001
 44
0.0000000001
 40
0.0
 40
0.0
 40
0.0
 40
0.0
 40
0.1505774469
 40
0.2942842791
 40
0.4283730485
 40
0.5534824523
 40
0.7834156823
 40
1.0
 40
1.0
 40
1.0
 40
1.0
 10
52.5383366926
 20
-16.9500761568
 30
0.0
 10
52.5369691037
 20
-16.7933600232
 30
0.0
 10
52.4979431499
 20
-16.4861663376
 30
0.0
 10
52.3415496178
 20
-16.0649081103
 30
0.0
 10
52.1134137412
 20
-15.7093120604
 30
0.0
 10
51.7571197164
 20
-15.3418888255
 30
0.0
 10
51.231316527
 20
-15.0359587119
 30
0.0
 10
50.7638267949
 20
-14.9521193935
 30
0.0
 10
50.5384128464
 20
-14.9501523106
 30
0.0
  0
SPLINE
  5
75D
100
AcDbEntity
  8
RACCORDO
100
AcDbSpline
 62
7
  6
CONTINUOUS
 70
0
 71
3
 72
13
 73
9
 74
0
 42
0.0000001
 43
0.0000001
 44
0.0000000001
 40
0.0
 40
0.0
 40
0.0
 40
0.0
 40
0.2165843177
 40
0.4465175477
 40
0.5716269515
 40
0.7057157209
 40
0.8494225531
 40
1.0
 40
1.0
 40
1.0
 40
1.0
 10
64.5384128464
 20
-14.9501523106
 30
0.0
 10
64.312998898
 20
-14.9521193935
 30
0.0
 10
63.8455091659
 20
-15.0359587119
 30
0.0
 10
63.3197059764
 20
-15.3418888255
 30
0.0
 10
62.9634119517
 20
-15.7093120604
 30
0.0
 10
62.7352760751
 20
-16.0649081103
 30
0.0
 10
62.578882543
 20
-16.4861663376
 30
0.0
 10
62.5398565892
 20
-16.7933600232
 30
0.0
 10
62.5384890003
 20
-16.9500761568
 30
0.0
  0
ELLIPSE
  5
75E
100
AcDbEntity
  8
RACCORDO
100
AcDbEllipse
 62
7
  6
CONTINUOUS
 10
-1.9615109895
 20
-36.800076164
 30
0.0
 11
-0.3536610946
 21
0.3536610946
 31
0.0
 40
0.9996954599
 41
-0.7852458701
 42
0.7852458701
  0
ELLIPSE
  5
75F
100
AcDbEntity
  8
RACCORDO
100
AcDbEllipse
 62
7
  6
CONTINUOUS
 10
2.0383366824
 20
-36.800076164
 30
0.0
 11
0.3536610946
 21
0.3536610946
 31
0.0
 40
0.9996954599
 41
-0.7852458701
 42
0.7852458701
  0
ELLIPSE
  5
760
100
AcDbEntity
  8
RACCORDO
100
AcDbEllipse
 62
7
  6
CONTINUOUS
 10
2.0383366824
 20
-29.799923836
 30
0.0
 11
0.3536610946
 21
-0.3536610946
 31
0.0
 40
0.9996954599
 41
-0.7852458701
 42
0.7852458701
  0
ELLIPSE
  5
761
100
AcDbEntity
  8
RACCORDO
100
AcDbEllipse
 62
7
  6
CONTINUOUS
 10
-1.9615109895
 20
-29.799923836
 30
0.0
 11
-0.3536610946
 21
-0.3536610946
 31
0.0
 40
0.9996954599
 41
-0.7852458701
 42
0.7852458701
  0
ELLIPSE
  5
762
100
AcDbEntity
  8
RACCORDO
100
AcDbEllipse
 62
7
  6
CONTINUOUS
 10
4.738367148
 20
-54.9999543016
 30
0.0
 11
-0.2121966568
 21
0.2121966568
 31
0.0
 40
0.9996954599
 41
2.3563467834
 42
3.9268385237
  0
ELLIPSE
  5
763
100
AcDbEntity
  8
RACCORDO
100
AcDbEllipse
 62
7
  6
CONTINUOUS
 10
-4.6615414551
 20
-54.9999543016
 30
0.0
 11
0.2121966568
 21
0.2121966568
 31
0.0
 40
0.9996954599
 41
2.3563467834
 42
3.9268385237
  0
ELLIPSE
  5
764
100
AcDbEntity
  8
RACCORDO
100
AcDbEllipse
 62
7
  6
CONTINUOUS
 10
8.0366673399
 20
-14.9569685577
 30
0.0
 11
0.0
 21
0.1569685577
 31
0.0
 40
0.0174550649
 41
-0.6906913887
 42
0.0000001811
  0
ELLIPSE
  5
765
100
AcDbEntity
  8
RACCORDO
100
AcDbEllipse
 62
7
  6
CONTINUOUS
 10
-2.9614348255
 20
-36.799847672
 30
0.0
 11
0.7073221892
 21
0.7073221892
 31
0.0
 40
0.9996954599
 41
-3.9268385237
 42
-2.3563467834
  0
ELLIPSE
  5
766
100
AcDbEntity
  8
RACCORDO
100
AcDbEllipse
 62
7
  6
CONTINUOUS
 10
3.0382605184
 20
-36.799847672
 30
0.0
 11
0.7073221892
 21
-0.7073221892
 31
0.0
 40
0.9996954599
 41
-0.7852458701
 42
0.7852458701
  0
ELLIPSE
  5
767
100
AcDbEntity
  8
RACCORDO
100
AcDbEllipse
 62
7
  6
CONTINUOUS
 10
3.0382605184
 20
-29.800152328
 30
0.0
 11
0.7073221892
 21
0.7073221892
 31
0.0
 40
0.9996954599
 41
-0.7852458701
 42
0.7852458701
  0
ELLIPSE
  5
768
100
AcDbEntity
  8
RACCORDO
100
AcDbEllipse
 62
7
  6
CONTINUOUS
 10
-2.9614348255
 20
-29.800152328
 30
0.0
 11
0.7073221892
 21
-0.7073221892
 31
0.0
 40
0.9996954599
 41
2.3563467834
 42
3.9268385237
  0
ELLIPSE
  5
769
100
AcDbEntity
  8
RACCORDO
100
AcDbEllipse
 62
7
  6
CONTINUOUS
 10
-7.9598416471
 20
-14.9569685577
 30
0.0
 11
0.0
 21
0.1569685577
 31
0.0
 40
0.0174550649
 41
-0.0000001811
 42
0.6906913887
  0
ELLIPSE
  5
76A
100
AcDbEntity
  8
RACCORDO
100
AcDbEllipse
 62
7
  6
CONTINUOUS
 10
8.0401583529
 20
-14.9569685577
 30
0.0
 11
0.0
 21
0.1569685577
 31
0.0
 40
0.0174550649
 41
0.7622693727
 42
1.1344640138
  0
ELLIPSE
  5
76B
100
AcDbEntity
  8
RACCORDO
100
AcDbEllipse
 62
7
  6
CONTINUOUS
 10
8.0010060935
 20
-19.6323659172
 30
0.0
 11
0.0
 21
0.1
 31
0.0
 40
0.0174550649
 41
1.1344640138
 42
3.1415926536
  0
ELLIPSE
  5
76C
100
AcDbEntity
  8
RACCORDO
100
AcDbEllipse
 62
7
  6
CONTINUOUS
 10
-7.9633326601
 20
-14.9569685577
 30
0.0
 11
-0.0
 21
0.1569685577
 31
0.0
 40
0.0174550649
 41
-1.1344640138
 42
-0.6906913887
  0
ELLIPSE
  5
76D
100
AcDbEntity
  8
RACCORDO
100
AcDbEllipse
 62
7
  6
CONTINUOUS
 10
-7.9241804006
 20
-19.6323659172
 30
0.0
 11
-0.0
 21
0.1
 31
0.0
 40
0.0174550649
 41
-3.1415926536
 42
-1.1344640138
  0
ELLIPSE
  5
76E
100
AcDbEntity
  8
RACCORDO
100
AcDbEllipse
 62
7
  6
CONTINUOUS
 10
-103.461530036
 20
53.7999428824
 30
0.0
 11
1.0607409467
 21
-1.0607409467
 31
0.0
 40
0.9999238505
 41
2.3562325664
 42
3.9269527408
  0
ELLIPSE
  5
76F
100
AcDbEntity
  8
RACCORDO
100
AcDbEllipse
 62
7
  6
CONTINUOUS
 10
-103.461530036
 20
-47.6999428824
 30
0.0
 11
-1.0607409467
 21
-1.0607409467
 31
0.0
 40
0.9999238505
 41
-0.7853600872
 42
0.7853600872
  0
ELLIPSE
  5
770
100
AcDbEntity
  8
RACCORDO
100
AcDbEllipse
 62
7
  6
CONTINUOUS
 10
103.5383557289
 20
53.7999428824
 30
0.0
 11
1.0607409467
 21
1.0607409467
 31
0.0
 40
0.9999238505
 41
-0.7853600872
 42
0.7853600872
  0
ELLIPSE
  5
771
100
AcDbEntity
  8
RACCORDO
100
AcDbEllipse
 62
7
  6
CONTINUOUS
 10
103.5383557289
 20
-47.6999428824
 30
0.0
 11
-1.0607409467
 21
1.0607409467
 31
0.0
 40
0.9999238505
 41
2.3562325664
 42
3.9269527408
  0
ELLIPSE
  5
772
100
AcDbEntity
  8
RACCORDO
100
AcDbEllipse
 62
7
  6
CONTINUOUS
 10
103.0371937578
 20
-47.1987809114
 30
0.0
 11
1.4159370892
 21
-1.4159370892
 31
0.0
 40
0.998782766
 41
0.5754927014
 42
0.7847891758
  0
ELLIPSE
  5
773
100
AcDbEntity
  8
RACCORDO
100
AcDbEllipse
 62
7
  6
CONTINUOUS
 10
103.0371937578
 20
-47.1987809114
 30
0.0
 11
-1.4159370892
 21
1.4159370892
 31
0.0
 40
0.998782766
 41
-2.6185219291
 42
-2.5660999522
  0
ELLIPSE
  5
774
100
AcDbEntity
  8
RACCORDO
100
AcDbEllipse
 62
7
  6
CONTINUOUS
 10
103.0371937578
 20
-47.1987809114
 30
0.0
 11
1.4159370892
 21
-1.4159370892
 31
0.0
 40
0.998782766
 41
-0.5754926252
 42
0.5230707245
  0
ELLIPSE
  5
775
100
AcDbEntity
  8
RACCORDO
100
AcDbEllipse
 62
7
  6
CONTINUOUS
 10
103.0371937578
 20
-47.1987809114
 30
0.0
 11
-1.4159370892
 21
1.4159370892
 31
0.0
 40
0.998782766
 41
-3.9263818294
 42
-3.7170852788
  0
ELLIPSE
  5
776
100
AcDbEntity
  8
RACCORDO
100
AcDbEllipse
 62
7
  6
CONTINUOUS
 10
103.0371937578
 20
53.2987809114
 30
0.0
 11
1.4159370892
 21
1.4159370892
 31
0.0
 40
0.998782766
 41
-0.7847891758
 42
0.7847891758
  0
ELLIPSE
  5
777
100
AcDbEntity
  8
RACCORDO
100
AcDbEllipse
 62
7
  6
CONTINUOUS
 10
-102.960368065
 20
53.2987809114
 30
0.0
 11
-1.4159370892
 21
1.4159370892
 31
0.0
 40
0.998782766
 41
-0.5230706132
 42
0.7847891758
  0
ELLIPSE
  5
778
100
AcDbEntity
  8
RACCORDO
100
AcDbEllipse
 62
7
  6
CONTINUOUS
 10
-102.960368065
 20
53.2987809114
 30
0.0
 11
1.4159370892
 21
-1.4159370892
 31
0.0
 40
0.998782766
 41
2.3568034778
 42
2.6185220404
  0
ELLIPSE
  5
779
100
AcDbEntity
  8
RACCORDO
100
AcDbEllipse
 62
7
  6
CONTINUOUS
 10
-102.960368065
 20
-47.1987809114
 30
0.0
 11
1.4159370892
 21
1.4159370892
 31
0.0
 40
0.998782766
 41
-3.9263818294
 42
-2.3568034778
  0
ELLIPSE
  5
77A
100
AcDbEntity
  8
RACCORDO
100
AcDbEllipse
 62
7
  6
CONTINUOUS
 10
64.5384128464
 20
52.8797316775
 30
0.0
 11
-0.0
 21
2.0012190886
 31
0.0
 40
0.999390827
 41
1.5358897418
 42
1.5707963268
  0
ELLIPSE
  5
77B
100
AcDbEntity
  8
RACCORDO
100
AcDbEllipse
 62
7
  6
CONTINUOUS
 10
50.5384128464
 20
52.8797316775
 30
0.0
 11
-0.0
 21
2.0012190886
 31
0.0
 40
0.999390827
 41
-1.5707963268
 42
-1.5358897418
  0
ELLIPSE
  5
77C
100
AcDbEntity
  8
RACCORDO
100
AcDbEllipse
 62
7
  6
CONTINUOUS
 10
50.5384128464
 20
23.0675298924
 30
0.0
 11
-0.0
 21
2.0000761568
 31
0.0
 40
0.9999619231
 41
-1.5795229731
 42
-1.5707963268
  0
ELLIPSE
  5
77D
100
AcDbEntity
  8
RACCORDO
100
AcDbEllipse
 62
7
  6
CONTINUOUS
 10
64.5384128464
 20
23.0675298924
 30
0.0
 11
-0.0
 21
2.0000761568
 31
0.0
 40
0.9999619231
 41
-4.7123889804
 42
-4.7036623341
  0
ELLIPSE
  5
77E
100
AcDbEntity
  8
RACCORDO
100
AcDbEllipse
 62
7
  6
CONTINUOUS
 10
50.5384128464
 20
-16.9675298924
 30
0.0
 11
-0.0
 21
2.0000761568
 31
0.0
 40
0.9999619231
 41
-1.5707963268
 42
-1.5620696805
  0
ELLIPSE
  5
77F
100
AcDbEntity
  8
RACCORDO
100
AcDbEllipse
 62
7
  6
CONTINUOUS
 10
64.5384128464
 20
-16.9675298924
 30
0.0
 11
-0.0
 21
2.0000761568
 31
0.0
 40
0.9999619231
 41
1.5620696805
 42
1.5707963268
  0
ELLIPSE
  5
780
100
AcDbEntity
  8
RACCORDO
100
AcDbEllipse
 62
7
  6
CONTINUOUS
 10
50.5384128464
 20
-46.7797316775
 30
0.0
 11
-0.0
 21
2.0012190886
 31
0.0
 40
0.999390827
 41
-1.6057029118
 42
-1.5707963268
  0
ELLIPSE
  5
781
100
AcDbEntity
  8
RACCORDO
100
AcDbEllipse
 62
7
  6
CONTINUOUS
 10
64.5384128464
 20
-46.7797316775
 30
0.0
 11
-0.0
 21
2.0012190886
 31
0.0
 40
0.999390827
 41
1.5707963268
 42
1.6057029118
  0
ELLIPSE
  5
782
100
AcDbEntity
  8
RACCORDO
100
AcDbEllipse
 62
7
  6
CONTINUOUS
 10
-102.61116037
 20
-16.9500761568
 30
0.0
 11
1.9415850132
 21
-0.4852114075
 31
0.0
 40
0.9993528196
 41
1.8158377039
 42
1.8504397372
  0
ELLIPSE
  5
783
100
AcDbEntity
  8
RACCORDO
100
AcDbEllipse
 62
7
  6
CONTINUOUS
 10
-102.61116037
 20
23.0500761568
 30
0.0
 11
1.9415850132
 21
0.4852114075
 31
0.0
 40
0.9993528196
 41
-1.8504397372
 42
-1.8158377039
  0
ELLIPSE
  5
784
100
AcDbEntity
  8
RACCORDO
100
AcDbEllipse
 62
7
  6
CONTINUOUS
 10
102.6879860629
 20
23.0500761568
 30
0.0
 11
1.9415850132
 21
-0.4852114075
 31
0.0
 40
0.9993528196
 41
-1.3257549497
 42
-1.2911529164
  0
ELLIPSE
  5
785
100
AcDbEntity
  8
RACCORDO
100
AcDbEllipse
 62
7
  6
CONTINUOUS
 10
102.6879860629
 20
-16.9500761568
 30
0.0
 11
1.9415850132
 21
0.4852114075
 31
0.0
 40
0.9993528196
 41
1.2911529164
 42
1.3257549497
  0
ELLIPSE
  5
786
100
AcDbEntity
  8
RACCORDO
100
AcDbEllipse
 62
7
  6
CONTINUOUS
 10
-7.2115871536
 20
-47.0033412824
 30
0.0
 11
0.0
 21
2.0736319106
 31
0.0
 40
0.9644913303
 41
-3.1415926536
 42
-1.5707963268
  0
ELLIPSE
  5
787
100
AcDbEntity
  8
RACCORDO
100
AcDbEllipse
 62
7
  6
CONTINUOUS
 10
7.2884128464
 20
-47.0033412824
 30
0.0
 11
0.0
 21
2.0736319106
 31
0.0
 40
0.9644913303
 41
1.5707963268
 42
3.1415926536
  0
ELLIPSE
  5
788
100
AcDbEntity
  8
RACCORDO
100
AcDbEllipse
 62
7
  6
CONTINUOUS
 10
-10.1118918096
 20
-16.9500761568
 30
0.0
 11
1.789222233
 21
0.8945429845
 31
0.0
 40
0.9998096356
 41
-0.4635410001
 42
1.1071030277
  0
ELLIPSE
  5
789
100
AcDbEntity
  8
RACCORDO
100
AcDbEllipse
 62
7
  6
CONTINUOUS
 10
10.1887175025
 20
-16.9500761568
 30
0.0
 11
1.789222233
 21
-0.8945429845
 31
0.0
 40
0.9998096356
 41
2.0344896259
 42
3.6051336537
  0
ENDSEC
  0
SECTION
  2
OBJECTS
  0
DICTIONARY
  5
C
100
AcDbDictionary
280
0
281
1
  3
ACAD_GROUP
350
D
  3
ACAD_MLINESTYLE
350
17
  3
ACAD_LAYOUT
350
1A
  3
ACAD_PLOTSETTINGS
350
19
  3
ACAD_PLOTSTYLENAME
350
E
  0
DICTIONARY
  5
D
102
{ACAD_REACTORS
330
C
102
}
100
AcDbDictionary
280
0
281
1
  0
ACDBDICTIONARYWDFLT
  5
E
102
{ACAD_REACTORS
330
C
102
}
100
AcDbDictionary
281
1
  3
Normal
350
F
100
AcDbDictionaryWithDefault
340
F
  0
DICTIONARY
  5
17
102
{ACAD_REACTORS
330
C
102
}
100
AcDbDictionary
280
0
281
1
  3
Standard
350
18
  0
DICTIONARY
  5
19
102
{ACAD_REACTORS
330
C
102
}
100
AcDbDictionary
281
1
  0
DICTIONARY
  5
1A
102
{ACAD_REACTORS
330
C
102
}
100
AcDbDictionary
281
1
  3
Model
350
78A
  3
Layout1
350
78B
  0
ACDBPLACEHOLDER
  5
F
102
{ACAD_REACTORS
330
E
102
}
  0
MLINESTYLE
  5
18
102
{ACAD_REACTORS
330
17
102
}
100
AcDbMlineStyle
  2
STANDARD
 70
0
  3

 62
256
 51
90.0
 52
90.0
 71
2
 49
0.5
 62
256
  6
BYLAYER
 49
-0.5
 62
256
  6
BYLAYER
  0
LAYOUT
  5
78A
102
{ACAD_REACTORS
330
1A
102
}
100
AcDbPlotSettings
  1

  2
none_device
  4
ANSI_C_(22.00_x_17.00_Inches)
  6

 40
0.0
 41
0.0
 42
0.0
 43
0.0
 44
558.8
 45
431.8
 46
0.0
 47
0.0
 48
0.0
 49
0.0
140
0.0
141
0.0
142
1.0
143
1.0
 70
1024
 72
1
 73
0
 74
0
  7

 75
0
147
1.0
148
0.0
149
0.0
100
AcDbLayout
  1
Model
 70
0
 71
0
 10
0.0
 20
0.0
 11
558.8
 21
431.8
 12
0.0
 22
0.0
 32
0.0
 14
0.0
 24
0.0
 34
0.0
 15
0.0
 25
0.0
 35
0.0
146
0.0
 13
0.0
 23
0.0
 33
0.0
 16
1.0
 26
0.0
 36
0.0
 17
0.0
 27
1.0
 37
0.0
 76
0
330
21A
345
0
346
0
  0
LAYOUT
  5
78B
102
{ACAD_REACTORS
330
1A
102
}
100
AcDbPlotSettings
  1

  2
none_device
  4
ANSI_C_(22.00_x_17.00_Inches)
  6

 40
0.0
 41
0.0
 42
0.0
 43
0.0
 44
558.8
 45
431.8
 46
0.0
 47
0.0
 48
0.0
 49
0.0
140
0.0
141
0.0
142
1.0
143
1.0
 70
0
 72
1
 73
0
 74
0
  7

 75
0
147
1.0
148
0.0
149
0.0
100
AcDbLayout
  1
Layout1
 70
0
 71
1
 10
0.0
 20
0.0
 11
558.8
 21
431.8
 12
0.0
 22
0.0
 32
0.0
 14
0.0
 24
0.0
 34
0.0
 15
0.0
 25
0.0
 35
0.0
146
0.0
 13
0.0
 23
0.0
 33
0.0
 16
1.0
 26
0.0
 36
0.0
 17
0.0
 27
1.0
 37
0.0
 76
0
330
21B
345
0
346
0
  0
ENDSEC
  0
EOF
