  0
SECTION
  2
HEADER
  9
$ACADVER
  1
AC1015
  9
$DWGCODEPAGE
  3
ANSI_1252
  9
$EXTMAX
 10
297.0
 20
210.0
 30
0.0
  9
$EXTMIN
 10
0.0
 20
0.0
 30
0.0
  9
$LIMMIN
 10
0.0
 20
0.0
  9
$LIMMAX
 10
297.0
 20
210.0
  9
$VIEWCTR
 10
148.5
 20
105.0
  9
$VIEWSIZE
 40
210.0
  9
$CLAYER
  8
0
  9
$LTSCALE
 40
16.335
  9
$CELTYPE
  6
BYLAYER
  9
$DIMSCALE
 40
1.0
  9
$DIMASZ
 40
3.0
  9
$DIMEXO
 40
0.5
  9
$DIMDLI
 40
11.286
  9
$DIMEXE
 40
1.5
  9
$DIMCEN
 40
2.673
  9
$DIMLFAC
 40
1.0
  9
$DIMBLK
  1
_FILLED
  9
$DIMTXT
 40
3.0
  9
$DIMTOL
 70
1
  9
$DIMLIM
 70
0
  9
$DIMTFAC
 40
1.0
  9
$DIMTP
 40
0.01
  9
$DIMTM
 40
0.01
  9
$DIMGAP
 40
0.625
  9
$DIMDSEP
 70
44
  9
$PDMODE
 70
3
  9
$PDSIZE
 40
3.0
  9
$HANDSEED
  5
409
  9
$TILEMODE
 70
1
  9
$MEASUREMENT
 70
1
  9
$INSUNITS
 70
4
  0
ENDSEC
  0
SECTION
  2
CLASSES
  0
CLASS
  1
ACDBDICTIONARYWDFLT
  2
AcDbDictionaryWithDefault
  3
AutoCAD 2000
 90
0
280
0
281
0
  0
CLASS
  1
ACDBPLACEHOLDER
  2
AcDbPlaceHolder
  3
AutoCAD 2000
 90
0
280
0
281
0
  0
CLASS
  1
LAYOUT
  2
AcDbLayout
  3
AutoCAD 2000
 90
0
280
0
281
0
  0
ENDSEC
  0
SECTION
  2
TABLES
  0
TABLE
  2
VPORT
  5
8
100
AcDbSymbolTable
 70
2
  0
VPORT
  5
1F4
100
AcDbSymbolTableRecord
100
AcDbViewportTableRecord
  2
*ACTIVE
 70
0
 10
0.0
 20
0.0
 11
1.0
 21
1.0
 12
148.5
 22
105.0
 13
0.0
 23
0.0
 14
1.0
 24
1.0
 15
0.0
 25
0.0
 16
0.0
 26
0.0
 36
1.0
 17
0.0
 27
0.0
 37
0.0
 40
210.0
 41
1.4142857143
 42
50.0
 43
0.0
 44
0.0
 50
0.0
 51
0.0
 71
0
 72
100
 73
1
 74
1
 75
0
 76
0
 77
0
 78
0
  0
ENDTAB
  0
TABLE
  2
LTYPE
  5
5
100
AcDbSymbolTable
 70
6
  0
LTYPE
  5
14
100
AcDbSymbolTableRecord
100
AcDbLinetypeTableRecord
  2
BYBLOCK
 70
0
  3

 72
65
 73
0
 40
0.0
  0
LTYPE
  5
15
100
AcDbSymbolTableRecord
100
AcDbLinetypeTableRecord
  2
BYLAYER
 70
0
  3

 72
65
 73
0
 40
0.0
  0
LTYPE
  5
16
100
AcDbSymbolTableRecord
100
AcDbLinetypeTableRecord
  2
CONTINUOUS
 70
64
  3
Solid line
 72
65
 73
0
 40
0.0
  0
LTYPE
  5
1F5
100
AcDbSymbolTableRecord
100
AcDbLinetypeTableRecord
  2
CENTER
 70
64
  3
____ _ ____ _ ____ _ ____ _ ____ _ ____ _ ____
 72
65
 73
4
 40
0.6
 49
0.375
 74
0
 49
-0.075
 74
0
 49
0.075
 74
0
 49
-0.075
 74
0
  0
LTYPE
  5
1F6
100
AcDbSymbolTableRecord
100
AcDbLinetypeTableRecord
  2
HIDDEN
 70
64
  3
- - - - - - - - - - - - - - - - - - - -
 72
65
 73
2
 40
0.2
 49
0.1
 74
0
 49
-0.1
 74
0
  0
LTYPE
  5
1F7
100
AcDbSymbolTableRecord
100
AcDbLinetypeTableRecord
  2
PHANTOM
 70
64
  3
_____ _ _ _____ _ _ _____ _ _ _____
 72
65
 73
6
 40
0.8
 49
0.45
 74
0
 49
-0.05
 74
0
 49
0.1
 74
0
 49
-0.05
 74
0
 49
0.1
 74
0
 49
-0.05
 74
0
  0
LTYPE
  5
1F8
100
AcDbSymbolTableRecord
100
AcDbLinetypeTableRecord
  2
DOT
 70
64
  3
. . . . . . . . . . . . . . . . . . . .
 72
65
 73
2
 40
0.2
 49
0.1
 74
0
 49
-0.1
 74
0
  0
LTYPE
  5
1F9
100
AcDbSymbolTableRecord
100
AcDbLinetypeTableRecord
  2
DASHED
 70
64
  3
- - - - - - - - - - - - - - - - - - - -
 72
65
 73
2
 40
0.2
 49
0.1
 74
0
 49
-0.1
 74
0
  0
ENDTAB
  0
TABLE
  2
LAYER
  5
2
100
AcDbSymbolTable
 70
36
  0
LAYER
  5
10
100
AcDbSymbolTableRecord
100
AcDbLayerTableRecord
  2
0
 70
0
 62
7
  6
CONTINUOUS
370
-3
390
F
  0
LAYER
  5
1FA
100
AcDbSymbolTableRecord
100
AcDbLayerTableRecord
  2
DEFAULT_1
 70
0
 62
7
  6
CENTER
370
-3
390
F
  0
LAYER
  5
1FB
100
AcDbSymbolTableRecord
100
AcDbLayerTableRecord
  2
DEFAULT_2
 70
0
 62
7
  6
HIDDEN
370
-3
390
F
  0
LAYER
  5
1FC
100
AcDbSymbolTableRecord
100
AcDbLayerTableRecord
  2
DEFAULT_3
 70
0
 62
7
  6
PHANTOM
370
-3
390
F
  0
LAYER
  5
1FD
100
AcDbSymbolTableRecord
100
AcDbLayerTableRecord
  2
641
 70
0
 62
7
  6
CONTINUOUS
370
-3
390
F
  0
LAYER
  5
1FE
100
AcDbSymbolTableRecord
100
AcDbLayerTableRecord
  2
641D_ASM
 70
0
 62
7
  6
CONTINUOUS
370
-3
390
F
  0
LAYER
  5
1FF
100
AcDbSymbolTableRecord
100
AcDbLayerTableRecord
  2
647______
 70
0
 62
7
  6
CONTINUOUS
370
-3
390
F
  0
LAYER
  5
200
100
AcDbSymbolTableRecord
100
AcDbLayerTableRecord
  2
ASSI
 70
0
 62
7
  6
CONTINUOUS
370
-3
390
F
  0
LAYER
  5
201
100
AcDbSymbolTableRecord
100
AcDbLayerTableRecord
  2
COORDINATE
 70
0
 62
7
  6
CONTINUOUS
370
-3
390
F
  0
LAYER
  5
202
100
AcDbSymbolTableRecord
100
AcDbLayerTableRecord
  2
COPY_PUBLISH
 70
0
 62
7
  6
CONTINUOUS
370
-3
390
F
  0
LAYER
  5
203
100
AcDbSymbolTableRecord
100
AcDbLayerTableRecord
  2
COSMETICI
 70
0
 62
7
  6
CONTINUOUS
370
-3
390
F
  0
LAYER
  5
204
100
AcDbSymbolTableRecord
100
AcDbLayerTableRecord
  2
CURVE
 70
0
 62
7
  6
CONTINUOUS
370
-3
390
F
  0
LAYER
  5
205
100
AcDbSymbolTableRecord
100
AcDbLayerTableRecord
  2
DRAFT
 70
0
 62
7
  6
CONTINUOUS
370
-3
390
F
  0
LAYER
  5
206
100
AcDbSymbolTableRecord
100
AcDbLayerTableRecord
  2
IMPORT_IGES
 70
0
 62
7
  6
CONTINUOUS
370
-3
390
F
  0
LAYER
  5
207
100
AcDbSymbolTableRecord
100
AcDbLayerTableRecord
  2
INTF_1
 70
0
 62
7
  6
CONTINUOUS
370
-3
390
F
  0
LAYER
  5
208
100
AcDbSymbolTableRecord
100
AcDbLayerTableRecord
  2
INTF_641
 70
0
 62
7
  6
CONTINUOUS
370
-3
390
F
  0
LAYER
  5
209
100
AcDbSymbolTableRecord
100
AcDbLayerTableRecord
  2
NONE
 70
0
 62
7
  6
CONTINUOUS
370
-3
390
F
  0
LAYER
  5
20A
100
AcDbSymbolTableRecord
100
AcDbLayerTableRecord
  2
NONE_1
 70
0
 62
7
  6
CONTINUOUS
370
-3
390
F
  0
LAYER
  5
20B
100
AcDbSymbolTableRecord
100
AcDbLayerTableRecord
  2
NONE_2
 70
0
 62
7
  6
CONTINUOUS
370
-3
390
F
  0
LAYER
  5
20C
100
AcDbSymbolTableRecord
100
AcDbLayerTableRecord
  2
NONE_3
 70
0
 62
7
  6
CONTINUOUS
370
-3
390
F
  0
LAYER
  5
20D
100
AcDbSymbolTableRecord
100
AcDbLayerTableRecord
  2
NOTE
 70
0
 62
7
  6
CONTINUOUS
370
-3
390
F
  0
LAYER
  5
20E
100
AcDbSymbolTableRecord
100
AcDbLayerTableRecord
  2
PIANI
 70
0
 62
7
  6
CONTINUOUS
370
-3
390
F
  0
LAYER
  5
20F
100
AcDbSymbolTableRecord
100
AcDbLayerTableRecord
  2
PUNTI
 70
0
 62
7
  6
CONTINUOUS
370
-3
390
F
  0
LAYER
  5
210
100
AcDbSymbolTableRecord
100
AcDbLayerTableRecord
  2
RACCORDO
 70
0
 62
7
  6
CONTINUOUS
370
-3
390
F
  0
LAYER
  5
211
100
AcDbSymbolTableRecord
100
AcDbLayerTableRecord
  2
SIMBOLI
 70
0
 62
7
  6
CONTINUOUS
370
-3
390
F
  0
LAYER
  5
212
100
AcDbSymbolTableRecord
100
AcDbLayerTableRecord
  2
SMUSSO
 70
0
 62
7
  6
CONTINUOUS
370
-3
390
F
  0
LAYER
  5
213
100
AcDbSymbolTableRecord
100
AcDbLayerTableRecord
  2
SNAPLINE
 70
0
 62
7
  6
CONTINUOUS
370
-3
390
F
  0
LAYER
  5
214
100
AcDbSymbolTableRecord
100
AcDbLayerTableRecord
  2
SUPERFICI
 70
0
 62
7
  6
CONTINUOUS
370
-3
390
F
  0
LAYER
  5
215
100
AcDbSymbolTableRecord
100
AcDbLayerTableRecord
  2
TRASH
 70
0
 62
7
  6
CONTINUOUS
370
-3
390
F
  0
LAYER
  5
216
100
AcDbSymbolTableRecord
100
AcDbLayerTableRecord
  2
___SHELL
 70
0
 62
7
  6
CONTINUOUS
370
-3
390
F
  0
LAYER
  5
217
100
AcDbSymbolTableRecord
100
AcDbLayerTableRecord
  2
___W
 70
0
 62
7
  6
CONTINUOUS
370
-3
390
F
  0
LAYER
  5
218
100
AcDbSymbolTableRecord
100
AcDbLayerTableRecord
  2
___W3
 70
0
 62
7
  6
CONTINUOUS
370
-3
390
F
  0
LAYER
  5
219
100
AcDbSymbolTableRecord
100
AcDbLayerTableRecord
  2
___W3_1
 70
0
 62
7
  6
CONTINUOUS
370
-3
390
F
  0
LAYER
  5
21A
100
AcDbSymbolTableRecord
100
AcDbLayerTableRecord
  2
___W3_2
 70
0
 62
7
  6
CONTINUOUS
370
-3
390
F
  0
LAYER
  5
21B
100
AcDbSymbolTableRecord
100
AcDbLayerTableRecord
  2
___W3_3
 70
0
 62
7
  6
CONTINUOUS
370
-3
390
F
  0
LAYER
  5
21C
100
AcDbSymbolTableRecord
100
AcDbLayerTableRecord
  2
___W_1
 70
0
 62
7
  6
CONTINUOUS
370
-3
390
F
  0
LAYER
  5
21D
100
AcDbSymbolTableRecord
100
AcDbLayerTableRecord
  2
___W_2
 70
0
 62
7
  6
CONTINUOUS
370
-3
390
F
  0
LAYER
  5
21E
100
AcDbSymbolTableRecord
100
AcDbLayerTableRecord
  2
___W_3
 70
0
 62
7
  6
CONTINUOUS
370
-3
390
F
  0
ENDTAB
  0
TABLE
  2
STYLE
  5
3
100
AcDbSymbolTable
 70
1
  0
STYLE
  5
11
100
AcDbSymbolTableRecord
100
AcDbTextStyleTableRecord
  2
STANDARD
 70
0
 40
0.0
 41
0.8
 50
0.0
 71
0
 42
0.2
  3
txt
  4

  0
STYLE
  5
21F
100
AcDbSymbolTableRecord
100
AcDbTextStyleTableRecord
  2
TEXTSTYLE_1
 70
0
 40
0.0
 41
0.8
 50
0.0
 71
0
 42
0.2
  3
gdt
  4

  0
ENDTAB
  0
TABLE
  2
VIEW
  5
6
100
AcDbSymbolTable
 70
0
  0
ENDTAB
  0
TABLE
  2
UCS
  5
7
100
AcDbSymbolTable
 70
0
  0
ENDTAB
  0
TABLE
  2
APPID
  5
9
100
AcDbSymbolTable
 70
1
  0
APPID
  5
220
100
AcDbSymbolTableRecord
100
AcDbRegAppTableRecord
  2
ACAD
 70
0
  0
ENDTAB
  0
TABLE
  2
BLOCK_RECORD
  5
1
100
AcDbSymbolTable
 70
0
  0
BLOCK_RECORD
  5
221
100
AcDbSymbolTableRecord
100
AcDbBlockTableRecord
  2
*Model_Space
  0
BLOCK_RECORD
  5
222
100
AcDbSymbolTableRecord
100
AcDbBlockTableRecord
  2
*Paper_Space
  0
ENDTAB
  0
TABLE
  2
DIMSTYLE
  5
A
100
AcDbSymbolTable
 70
1
100
AcDbDimStyleTable
 71
0
  0
DIMSTYLE
105
223
100
AcDbSymbolTableRecord
100
AcDbDimStyleTableRecord
  2
STANDARD
 70
0
  3

  4

 40
1.0
 41
3.0
 42
0.5
 43
0.38
 44
1.5
 45
0.0
 46
0.0
 47
0.01
 48
0.01
140
3.0
141
0.09
142
0.0
143
25.4
144
1.0
145
0.0
146
1.0
147
0.625
 71
1.0
 72
0.0
 73
0
 74
0
 75
0
 76
0
 77
1
 78
8
170
0
171
2
172
0
173
0
174
0
175
0
176
0
177
0
178
0
270
2
271
2
272
2
273
2
274
2
275
0
280
0
281
0
282
0
283
1
284
8
285
0
286
0
287
3
288
0
340
11
278
44
  0
ENDTAB
  0
ENDSEC
  0
SECTION
  2
BLOCKS
  0
BLOCK
  5
20
100
AcDbEntity
  8
0
100
AcDbBlockBegin
  2
*Model_Space
 70
0
 10
0.0
 20
0.0
 30
0.0
  3
*Model_Space
  1

  0
ENDBLK
  5
21
100
AcDbEntity
  8
0
100
AcDbBlockEnd
  0
BLOCK
  5
1C
100
AcDbEntity
  8
0
100
AcDbBlockBegin
  2
*Paper_Space
 70
0
 10
0.0
 20
0.0
 30
0.0
  3
*Paper_Space
  1

  0
ENDBLK
  5
1D
100
AcDbEntity
  8
0
100
AcDbBlockEnd
  0
ENDSEC
  0
SECTION
  2
ENTITIES
  0
LINE
  5
224
100
AcDbEntity
  8
RACCORDO
100
AcDbLine
 62
7
  6
CONTINUOUS
 10
111.7363323173
 20
82.3145454909
 11
111.7363323173
 21
122.3858887991
  0
LINE
  5
225
100
AcDbEntity
  8
DRAFT
100
AcDbLine
 62
7
  6
CONTINUOUS
 10
113.0682575641
 20
87.2472322619
 11
113.0682575641
 21
94.0532020281
  0
LINE
  5
226
100
AcDbEntity
  8
DRAFT
100
AcDbLine
 62
7
  6
CONTINUOUS
 10
113.0682575641
 20
110.6472322619
 11
113.0682575641
 21
117.4532020281
  0
LINE
  5
227
100
AcDbEntity
  8
DRAFT
100
AcDbLine
 62
7
  6
CONTINUOUS
 10
113.1031676939
 20
87.2821423918
 11
113.1031676939
 21
94.0182918982
  0
LINE
  5
228
100
AcDbEntity
  8
DRAFT
100
AcDbLine
 62
7
  6
CONTINUOUS
 10
113.1031676939
 20
110.6821423918
 11
113.1031676939
 21
117.4182918982
  0
LINE
  5
229
100
AcDbEntity
  8
RACCORDO
100
AcDbLine
 62
7
  6
CONTINUOUS
 10
113.1712424471
 20
87.2821423918
 11
113.1712424471
 21
87.750217145
  0
LINE
  5
22A
100
AcDbEntity
  8
DRAFT
100
AcDbLine
 62
7
  6
CONTINUOUS
 10
113.1712424471
 20
87.750217145
 11
113.1712424471
 21
94.0182918982
  0
LINE
  5
22B
100
AcDbEntity
  8
DRAFT
100
AcDbLine
 62
7
  6
CONTINUOUS
 10
113.1712424471
 20
110.6821423918
 11
113.1712424471
 21
116.950217145
  0
LINE
  5
22C
100
AcDbEntity
  8
RACCORDO
100
AcDbLine
 62
7
  6
CONTINUOUS
 10
113.1712424471
 20
116.950217145
 11
113.1712424471
 21
117.4182918982
  0
LINE
  5
22D
100
AcDbEntity
  8
DRAFT
100
AcDbLine
 62
7
  6
CONTINUOUS
 10
113.3742273302
 20
117.350217145
 11
113.3742273302
 21
116.9232894762
  0
LINE
  5
22E
100
AcDbEntity
  8
DRAFT
100
AcDbLine
 62
7
  6
CONTINUOUS
 10
113.3742273302
 20
111.1771448138
 11
113.3742273302
 21
110.750217145
  0
LINE
  5
22F
100
AcDbEntity
  8
DRAFT
100
AcDbLine
 62
7
  6
CONTINUOUS
 10
113.3742273302
 20
93.950217145
 11
113.3742273302
 21
93.5232894762
  0
LINE
  5
230
100
AcDbEntity
  8
DRAFT
100
AcDbLine
 62
7
  6
CONTINUOUS
 10
113.3742273302
 20
87.7771448138
 11
113.3742273302
 21
87.350217145
  0
LINE
  5
231
100
AcDbEntity
  8
DRAFT
100
AcDbLine
 62
7
  6
CONTINUOUS
 10
113.6712424471
 20
116.8838878983
 11
113.6712424471
 21
111.2165463917
  0
LINE
  5
232
100
AcDbEntity
  8
DRAFT
100
AcDbLine
 62
7
  6
CONTINUOUS
 10
113.6712424471
 20
93.4838878983
 11
113.6712424471
 21
87.8165463917
  0
LINE
  5
233
100
AcDbEntity
  8
DRAFT
100
AcDbLine
 62
7
  6
CONTINUOUS
 10
114.5792367329
 20
119.7353450119
 11
114.7712424471
 21
119.9273507261
  0
LINE
  5
234
100
AcDbEntity
  8
DRAFT
100
AcDbLine
 62
7
  6
CONTINUOUS
 10
114.5792367329
 20
84.9650892781
 11
114.7712424471
 21
84.7730835639
  0
LINE
  5
235
100
AcDbEntity
  8
DRAFT
100
AcDbLine
 62
7
  6
CONTINUOUS
 10
114.5792367329
 20
80.0810778497
 11
114.5792367329
 21
84.9650892781
  0
LINE
  5
236
100
AcDbEntity
  8
DRAFT
100
AcDbLine
 62
7
  6
CONTINUOUS
 10
114.5792367329
 20
119.7353450119
 11
114.5792367329
 21
124.6193564403
  0
LINE
  5
237
100
AcDbEntity
  8
DRAFT
100
AcDbLine
 62
7
  6
CONTINUOUS
 10
114.7031676939
 20
117.350217145
 11
114.7031676939
 21
110.750217145
  0
LINE
  5
238
100
AcDbEntity
  8
DRAFT
100
AcDbLine
 62
7
  6
CONTINUOUS
 10
114.7031676939
 20
93.950217145
 11
114.7031676939
 21
87.350217145
  0
LINE
  5
239
100
AcDbEntity
  8
DRAFT
100
AcDbLine
 62
7
  6
CONTINUOUS
 10
114.7712424471
 20
80.2730835639
 11
114.7712424471
 21
84.7730835639
  0
LINE
  5
23A
100
AcDbEntity
  8
DRAFT
100
AcDbLine
 62
7
  6
CONTINUOUS
 10
114.7712424471
 20
119.9273507261
 11
114.7712424471
 21
124.4273507261
  0
LINE
  5
23B
100
AcDbEntity
  8
DRAFT
100
AcDbLine
 62
7
  6
CONTINUOUS
 10
114.8393172003
 20
117.4182918982
 11
114.8393172003
 21
110.6821423918
  0
LINE
  5
23C
100
AcDbEntity
  8
DRAFT
100
AcDbLine
 62
7
  6
CONTINUOUS
 10
114.8393172003
 20
94.0182918982
 11
114.8393172003
 21
87.2821423918
  0
LINE
  5
23D
100
AcDbEntity
  8
DRAFT
100
AcDbLine
 62
7
  6
CONTINUOUS
 10
114.8742273302
 20
117.4532020281
 11
114.8742273302
 21
110.6472322619
  0
LINE
  5
23E
100
AcDbEntity
  8
DRAFT
100
AcDbLine
 62
7
  6
CONTINUOUS
 10
114.8742273302
 20
94.0532020281
 11
114.8742273302
 21
87.2472322619
  0
LINE
  5
23F
100
AcDbEntity
  8
DRAFT
100
AcDbLine
 62
7
  6
CONTINUOUS
 10
114.7712424471
 20
117.4182918982
 11
114.7031676939
 21
117.350217145
  0
LINE
  5
240
100
AcDbEntity
  8
DRAFT
100
AcDbLine
 62
7
  6
CONTINUOUS
 10
114.8742273302
 20
117.4532020281
 11
114.8393172003
 21
117.4182918982
  0
LINE
  5
241
100
AcDbEntity
  8
DRAFT
100
AcDbLine
 62
7
  6
CONTINUOUS
 10
114.7712424471
 20
87.2821423918
 11
114.7031676939
 21
87.350217145
  0
LINE
  5
242
100
AcDbEntity
  8
DRAFT
100
AcDbLine
 62
7
  6
CONTINUOUS
 10
114.8742273302
 20
87.2472322619
 11
114.8393172003
 21
87.2821423918
  0
LINE
  5
243
100
AcDbEntity
  8
DRAFT
100
AcDbLine
 62
7
  6
CONTINUOUS
 10
113.0682575641
 20
110.6472322619
 11
113.1031676939
 21
110.6821423918
  0
LINE
  5
244
100
AcDbEntity
  8
DRAFT
100
AcDbLine
 62
7
  6
CONTINUOUS
 10
113.306152577
 20
110.6821423918
 11
113.3742273302
 21
110.750217145
  0
LINE
  5
245
100
AcDbEntity
  8
DRAFT
100
AcDbLine
 62
7
  6
CONTINUOUS
 10
113.0682575641
 20
94.0532020281
 11
113.1031676939
 21
94.0182918982
  0
LINE
  5
246
100
AcDbEntity
  8
DRAFT
100
AcDbLine
 62
7
  6
CONTINUOUS
 10
113.306152577
 20
94.0182918982
 11
113.3742273302
 21
93.950217145
  0
LINE
  5
247
100
AcDbEntity
  8
IMPORT_IGES
100
AcDbLine
 62
253
  6
CONTINUOUS
 10
131.9597904567
 20
119.2687655984
 11
131.9251254138
 21
119.2341004532
  0
LINE
  5
248
100
AcDbEntity
  8
IMPORT_IGES
100
AcDbLine
 62
253
  6
CONTINUOUS
 10
130.1573593471
 20
117.4663330659
 11
130.1226947243
 21
117.4316684048
  0
LINE
  5
249
100
AcDbEntity
  8
RACCORDO
100
AcDbLine
 62
7
  6
CONTINUOUS
 10
184.8069141012
 20
77.3153070152
 11
116.7355707931
 21
77.3153070152
  0
LINE
  5
24A
100
AcDbEntity
  8
IMPORT_IGES
100
AcDbLine
 62
253
  6
CONTINUOUS
 10
130.12269402
 20
87.2687651809
 11
130.1573591424
 21
87.2341001185
  0
LINE
  5
24B
100
AcDbEntity
  8
DRAFT
100
AcDbLine
 62
7
  6
CONTINUOUS
 10
133.8235165661
 20
119.7353450119
 11
133.9399748714
 21
119.9273507261
  0
LINE
  5
24C
100
AcDbEntity
  8
DRAFT
100
AcDbLine
 62
7
  6
CONTINUOUS
 10
181.9742273302
 20
78.6472322619
 11
175.2363323173
 21
78.6472322619
  0
LINE
  5
24D
100
AcDbEntity
  8
DRAFT
100
AcDbLine
 62
7
  6
CONTINUOUS
 10
181.9393172003
 20
78.6821423918
 11
175.2712424471
 21
78.6821423918
  0
LINE
  5
24E
100
AcDbEntity
  8
RACCORDO
100
AcDbLine
 62
7
  6
CONTINUOUS
 10
181.9393172003
 20
78.750217145
 11
181.4712424471
 21
78.750217145
  0
LINE
  5
24F
100
AcDbEntity
  8
RACCORDO
100
AcDbLine
 62
7
  6
CONTINUOUS
 10
175.6712424471
 20
78.750217145
 11
175.2712424471
 21
78.750217145
  0
LINE
  5
250
100
AcDbEntity
  8
DRAFT
100
AcDbLine
 62
7
  6
CONTINUOUS
 10
175.6712424471
 20
78.750217145
 11
181.4712424471
 21
78.750217145
  0
LINE
  5
251
100
AcDbEntity
  8
DRAFT
100
AcDbLine
 62
7
  6
CONTINUOUS
 10
175.3393172003
 20
78.9532020281
 11
175.6981701159
 21
78.9532020281
  0
LINE
  5
252
100
AcDbEntity
  8
DRAFT
100
AcDbLine
 62
7
  6
CONTINUOUS
 10
181.4443147783
 20
78.9532020281
 11
181.8712424471
 21
78.9532020281
  0
LINE
  5
253
100
AcDbEntity
  8
DRAFT
100
AcDbLine
 62
7
  6
CONTINUOUS
 10
181.4049132004
 20
79.250217145
 11
175.7375716939
 21
79.250217145
  0
LINE
  5
254
100
AcDbEntity
  8
DRAFT
100
AcDbLine
 62
7
  6
CONTINUOUS
 10
173.1919805856
 20
80.0810778497
 11
114.5792367329
 21
80.0810778497
  0
LINE
  5
255
100
AcDbEntity
  8
DRAFT
100
AcDbLine
 62
7
  6
CONTINUOUS
 10
172.9999748714
 20
80.2730835639
 11
114.7712424471
 21
80.2730835639
  0
LINE
  5
256
100
AcDbEntity
  8
DRAFT
100
AcDbLine
 62
7
  6
CONTINUOUS
 10
175.3393172003
 20
80.2821423918
 11
181.8712424471
 21
80.2821423918
  0
LINE
  5
257
100
AcDbEntity
  8
DRAFT
100
AcDbLine
 62
7
  6
CONTINUOUS
 10
175.2712424471
 20
80.4182918982
 11
181.9393172003
 21
80.4182918982
  0
LINE
  5
258
100
AcDbEntity
  8
DRAFT
100
AcDbLine
 62
7
  6
CONTINUOUS
 10
175.2363323173
 20
80.4532020281
 11
181.9742273302
 21
80.4532020281
  0
LINE
  5
259
100
AcDbEntity
  8
DRAFT
100
AcDbLine
 62
7
  6
CONTINUOUS
 10
133.8235165661
 20
84.9650892781
 11
133.9399748714
 21
84.7730835639
  0
LINE
  5
25A
100
AcDbEntity
  8
IMPORT_IGES
100
AcDbLine
 62
253
  6
CONTINUOUS
 10
131.0412421045
 20
87.650217132
 11
131.0412421942
 21
87.6002164777
  0
LINE
  5
25B
100
AcDbEntity
  8
IMPORT_IGES
100
AcDbLine
 62
253
  6
CONTINUOUS
 10
131.0412421045
 20
119.650217132
 11
131.0412421942
 21
119.6002164777
  0
LINE
  5
25C
100
AcDbEntity
  8
DRAFT
100
AcDbLine
 62
7
  6
CONTINUOUS
 10
114.7712424471
 20
94.0182918982
 11
114.7031676939
 21
93.950217145
  0
LINE
  5
25D
100
AcDbEntity
  8
DRAFT
100
AcDbLine
 62
7
  6
CONTINUOUS
 10
114.8742273302
 20
94.0532020281
 11
114.8393172003
 21
94.0182918982
  0
LINE
  5
25E
100
AcDbEntity
  8
IMPORT_IGES
100
AcDbLine
 62
7
  6
CONTINUOUS
 10
130.8505020677
 20
117.0644653857
 11
130.9646081751
 21
117.1025652775
  0
LINE
  5
25F
100
AcDbEntity
  8
DRAFT
100
AcDbLine
 62
7
  6
CONTINUOUS
 10
114.7712424471
 20
110.6821423918
 11
114.7031676939
 21
110.750217145
  0
LINE
  5
260
100
AcDbEntity
  8
DRAFT
100
AcDbLine
 62
7
  6
CONTINUOUS
 10
114.8742273302
 20
110.6472322619
 11
114.8393172003
 21
110.6821423918
  0
LINE
  5
261
100
AcDbEntity
  8
IMPORT_IGES
100
AcDbLine
 62
253
  6
CONTINUOUS
 10
142.1573593471
 20
117.4663330659
 11
142.1226947243
 21
117.4316684048
  0
LINE
  5
262
100
AcDbEntity
  8
IMPORT_IGES
100
AcDbLine
 62
253
  6
CONTINUOUS
 10
143.9597904567
 20
119.2687655984
 11
143.9251254138
 21
119.2341004532
  0
LINE
  5
263
100
AcDbEntity
  8
DRAFT
100
AcDbLine
 62
7
  6
CONTINUOUS
 10
113.0682575641
 20
87.2472322619
 11
113.1031676939
 21
87.2821423918
  0
LINE
  5
264
100
AcDbEntity
  8
DRAFT
100
AcDbLine
 62
7
  6
CONTINUOUS
 10
113.306152577
 20
87.2821423918
 11
113.3742273302
 21
87.350217145
  0
LINE
  5
265
100
AcDbEntity
  8
IMPORT_IGES
100
AcDbLine
 62
7
  6
CONTINUOUS
 10
142.8505020677
 20
117.0644653857
 11
142.9646081751
 21
117.1025652775
  0
LINE
  5
266
100
AcDbEntity
  8
DRAFT
100
AcDbLine
 62
7
  6
CONTINUOUS
 10
114.7712424471
 20
84.7730835639
 11
128.1425100229
 21
84.7730835639
  0
LINE
  5
267
100
AcDbEntity
  8
DRAFT
100
AcDbLine
 62
7
  6
CONTINUOUS
 10
133.9399748714
 20
84.7730835639
 11
140.1425100229
 21
84.7730835639
  0
LINE
  5
268
100
AcDbEntity
  8
DRAFT
100
AcDbLine
 62
7
  6
CONTINUOUS
 10
145.9399748714
 20
84.7730835639
 11
152.1425100229
 21
84.7730835639
  0
LINE
  5
269
100
AcDbEntity
  8
DRAFT
100
AcDbLine
 62
7
  6
CONTINUOUS
 10
157.9399748714
 20
84.7730835639
 11
164.1425100229
 21
84.7730835639
  0
LINE
  5
26A
100
AcDbEntity
  8
DRAFT
100
AcDbLine
 62
7
  6
CONTINUOUS
 10
169.9399748714
 20
84.7730835639
 11
172.9999748714
 21
84.7730835639
  0
LINE
  5
26B
100
AcDbEntity
  8
DRAFT
100
AcDbLine
 62
7
  6
CONTINUOUS
 10
114.5792367329
 20
84.9650892781
 11
128.2589683282
 21
84.9650892781
  0
LINE
  5
26C
100
AcDbEntity
  8
DRAFT
100
AcDbLine
 62
7
  6
CONTINUOUS
 10
133.8235165661
 20
84.9650892781
 11
140.2589683282
 21
84.9650892781
  0
LINE
  5
26D
100
AcDbEntity
  8
DRAFT
100
AcDbLine
 62
7
  6
CONTINUOUS
 10
145.8235165661
 20
84.9650892781
 11
152.2589683282
 21
84.9650892781
  0
LINE
  5
26E
100
AcDbEntity
  8
DRAFT
100
AcDbLine
 62
7
  6
CONTINUOUS
 10
157.8235165661
 20
84.9650892781
 11
164.2589683282
 21
84.9650892781
  0
LINE
  5
26F
100
AcDbEntity
  8
DRAFT
100
AcDbLine
 62
7
  6
CONTINUOUS
 10
169.8235165661
 20
84.9650892781
 11
173.1919805856
 21
84.9650892781
  0
LINE
  5
270
100
AcDbEntity
  8
IMPORT_IGES
100
AcDbLine
 62
253
  6
CONTINUOUS
 10
168.2912403213
 20
86.3502283858
 11
168.1990567336
 21
86.3502275568
  0
LINE
  5
271
100
AcDbEntity
  8
IMPORT_IGES
100
AcDbLine
 62
253
  6
CONTINUOUS
 10
156.2912403213
 20
86.3502283858
 11
156.1990567336
 21
86.3502275568
  0
LINE
  5
272
100
AcDbEntity
  8
IMPORT_IGES
100
AcDbLine
 62
7
  6
CONTINUOUS
 10
168.3412424471
 20
86.350217145
 11
168.2912424471
 21
86.350217145
  0
LINE
  5
273
100
AcDbEntity
  8
IMPORT_IGES
100
AcDbLine
 62
7
  6
CONTINUOUS
 10
156.3412424471
 20
86.350217145
 11
156.2912424471
 21
86.350217145
  0
LINE
  5
274
100
AcDbEntity
  8
IMPORT_IGES
100
AcDbLine
 62
7
  6
CONTINUOUS
 10
144.3412424471
 20
86.350217145
 11
144.2912424471
 21
86.350217145
  0
LINE
  5
275
100
AcDbEntity
  8
IMPORT_IGES
100
AcDbLine
 62
7
  6
CONTINUOUS
 10
132.3412424471
 20
86.350217145
 11
132.2912424471
 21
86.350217145
  0
LINE
  5
276
100
AcDbEntity
  8
IMPORT_IGES
100
AcDbLine
 62
253
  6
CONTINUOUS
 10
141.8834281607
 20
86.3502275568
 11
141.7412424471
 21
86.3502170982
  0
LINE
  5
277
100
AcDbEntity
  8
IMPORT_IGES
100
AcDbLine
 62
253
  6
CONTINUOUS
 10
129.8834281607
 20
86.3502275568
 11
129.7412424471
 21
86.3502170982
  0
LINE
  5
278
100
AcDbEntity
  8
IMPORT_IGES
100
AcDbLine
 62
253
  6
CONTINUOUS
 10
153.8834281607
 20
86.3502275568
 11
153.7412424471
 21
86.3502170982
  0
LINE
  5
279
100
AcDbEntity
  8
IMPORT_IGES
100
AcDbLine
 62
253
  6
CONTINUOUS
 10
144.2912403213
 20
86.3502283858
 11
144.1990567336
 21
86.3502275568
  0
LINE
  5
27A
100
AcDbEntity
  8
IMPORT_IGES
100
AcDbLine
 62
253
  6
CONTINUOUS
 10
165.8834281607
 20
86.3502275568
 11
165.7412424471
 21
86.3502170982
  0
LINE
  5
27B
100
AcDbEntity
  8
IMPORT_IGES
100
AcDbLine
 62
253
  6
CONTINUOUS
 10
132.2912403213
 20
86.3502283858
 11
132.1990567336
 21
86.3502275568
  0
LINE
  5
27C
100
AcDbEntity
  8
DRAFT
100
AcDbLine
 62
7
  6
CONTINUOUS
 10
114.8742273302
 20
87.2472322619
 11
113.0682575641
 21
87.2472322619
  0
LINE
  5
27D
100
AcDbEntity
  8
DRAFT
100
AcDbLine
 62
7
  6
CONTINUOUS
 10
113.306152577
 20
87.2821423918
 11
113.1031676939
 21
87.2821423918
  0
LINE
  5
27E
100
AcDbEntity
  8
DRAFT
100
AcDbLine
 62
7
  6
CONTINUOUS
 10
114.7712424471
 20
87.2821423918
 11
114.8393172003
 21
87.2821423918
  0
LINE
  5
27F
100
AcDbEntity
  8
IMPORT_IGES
100
AcDbLine
 62
253
  6
CONTINUOUS
 10
142.12269402
 20
87.2687651809
 11
142.1573591424
 21
87.2341001185
  0
LINE
  5
280
100
AcDbEntity
  8
DRAFT
100
AcDbLine
 62
7
  6
CONTINUOUS
 10
113.0682575641
 20
117.4532020281
 11
113.1031676939
 21
117.4182918982
  0
LINE
  5
281
100
AcDbEntity
  8
DRAFT
100
AcDbLine
 62
7
  6
CONTINUOUS
 10
113.306152577
 20
117.4182918982
 11
113.3742273302
 21
117.350217145
  0
LINE
  5
282
100
AcDbEntity
  8
DRAFT
100
AcDbLine
 62
7
  6
CONTINUOUS
 10
145.8235165661
 20
119.7353450119
 11
145.9399748714
 21
119.9273507261
  0
LINE
  5
283
100
AcDbEntity
  8
IMPORT_IGES
100
AcDbLine
 62
7
  6
CONTINUOUS
 10
154.8505020677
 20
117.0644653857
 11
154.9646081751
 21
117.1025652775
  0
LINE
  5
284
100
AcDbEntity
  8
DRAFT
100
AcDbLine
 62
7
  6
CONTINUOUS
 10
113.3742273302
 20
87.350217145
 11
114.7031676939
 21
87.350217145
  0
LINE
  5
285
100
AcDbEntity
  8
DRAFT
100
AcDbLine
 62
7
  6
CONTINUOUS
 10
113.6712424471
 20
93.4838878983
 11
113.1712424471
 21
93.550217145
  0
LINE
  5
286
100
AcDbEntity
  8
DRAFT
100
AcDbLine
 62
7
  6
CONTINUOUS
 10
145.8235165661
 20
84.9650892781
 11
145.9399748714
 21
84.7730835639
  0
LINE
  5
287
100
AcDbEntity
  8
DRAFT
100
AcDbLine
 62
7
  6
CONTINUOUS
 10
128.2589683282
 20
84.9650892781
 11
128.1425100229
 21
84.7730835639
  0
LINE
  5
288
100
AcDbEntity
  8
DRAFT
100
AcDbLine
 62
7
  6
CONTINUOUS
 10
114.5792367329
 20
80.0810778497
 11
114.7712424471
 21
80.2730835639
  0
LINE
  5
289
100
AcDbEntity
  8
IMPORT_IGES
100
AcDbLine
 62
7
  6
CONTINUOUS
 10
166.8505020677
 20
117.0644653857
 11
166.9646081751
 21
117.1025652775
  0
LINE
  5
28A
100
AcDbEntity
  8
DRAFT
100
AcDbLine
 62
7
  6
CONTINUOUS
 10
113.6712424471
 20
87.8165463917
 11
113.1712424471
 21
87.750217145
  0
LINE
  5
28B
100
AcDbEntity
  8
ASSI
100
AcDbLine
 62
7
  6
CONTINUOUS
 10
163.2983926099
 20
93.0984965441
 11
163.4212444471
 21
93.101037145
  0
LINE
  5
28C
100
AcDbEntity
  8
DRAFT
100
AcDbLine
 62
7
  6
CONTINUOUS
 10
114.5792367329
 20
124.6193564403
 11
114.7712424471
 21
124.4273507261
  0
LINE
  5
28D
100
AcDbEntity
  8
DRAFT
100
AcDbLine
 62
7
  6
CONTINUOUS
 10
128.2589683282
 20
119.7353450119
 11
128.1425100229
 21
119.9273507261
  0
LINE
  5
28E
100
AcDbEntity
  8
IMPORT_IGES
100
AcDbLine
 62
253
  6
CONTINUOUS
 10
143.0412421045
 20
87.650217132
 11
143.0412421942
 21
87.6002164777
  0
LINE
  5
28F
100
AcDbEntity
  8
IMPORT_IGES
100
AcDbLine
 62
253
  6
CONTINUOUS
 10
143.0412421045
 20
119.650217132
 11
143.0412421942
 21
119.6002164777
  0
LINE
  5
290
100
AcDbEntity
  8
IMPORT_IGES
100
AcDbLine
 62
253
  6
CONTINUOUS
 10
154.1573593471
 20
117.4663330659
 11
154.1226947243
 21
117.4316684048
  0
LINE
  5
291
100
AcDbEntity
  8
IMPORT_IGES
100
AcDbLine
 62
253
  6
CONTINUOUS
 10
155.9597904567
 20
119.2687655984
 11
155.9251254138
 21
119.2341004532
  0
LINE
  5
292
100
AcDbEntity
  8
DRAFT
100
AcDbLine
 62
7
  6
CONTINUOUS
 10
113.3742273302
 20
93.950217145
 11
114.7031676939
 21
93.950217145
  0
LINE
  5
293
100
AcDbEntity
  8
DRAFT
100
AcDbLine
 62
7
  6
CONTINUOUS
 10
114.8393172003
 20
94.0182918982
 11
114.7712424471
 21
94.0182918982
  0
LINE
  5
294
100
AcDbEntity
  8
DRAFT
100
AcDbLine
 62
7
  6
CONTINUOUS
 10
113.1031676939
 20
94.0182918982
 11
113.306152577
 21
94.0182918982
  0
LINE
  5
295
100
AcDbEntity
  8
DRAFT
100
AcDbLine
 62
7
  6
CONTINUOUS
 10
113.0682575641
 20
94.0532020281
 11
114.8742273302
 21
94.0532020281
  0
LINE
  5
296
100
AcDbEntity
  8
IMPORT_IGES
100
AcDbLine
 62
7
  6
CONTINUOUS
 10
186.4712424471
 20
94.300217145
 11
184.5712424471
 21
94.300217145
  0
LINE
  5
297
100
AcDbEntity
  8
DRAFT
100
AcDbLine
 62
7
  6
CONTINUOUS
 10
187.9537887115
 20
94.4176708806
 11
181.0712424471
 21
94.4176708806
  0
LINE
  5
298
100
AcDbEntity
  8
IMPORT_IGES
100
AcDbLine
 62
7
  6
CONTINUOUS
 10
167.4063544471
 20
94.523257145
 11
165.9458544471
 21
94.523257145
  0
LINE
  5
299
100
AcDbEntity
  8
ASSI
100
AcDbLine
 62
7
  6
CONTINUOUS
 10
165.9458534471
 20
94.523257145
 11
167.4063544471
 21
94.523257145
  0
LINE
  5
29A
100
AcDbEntity
  8
ASSI
100
AcDbLine
 62
7
  6
CONTINUOUS
 10
167.4063544471
 20
95.273257145
 11
165.9458503351
 21
95.273257145
  0
LINE
  5
29B
100
AcDbEntity
  8
IMPORT_IGES
100
AcDbLine
 62
7
  6
CONTINUOUS
 10
165.9458544471
 20
95.273257145
 11
167.4063544471
 21
95.273257145
  0
LINE
  5
29C
100
AcDbEntity
  8
IMPORT_IGES
100
AcDbLine
 62
253
  6
CONTINUOUS
 10
154.12269402
 20
87.2687651809
 11
154.1573591424
 21
87.2341001185
  0
LINE
  5
29D
100
AcDbEntity
  8
DRAFT
100
AcDbLine
 62
7
  6
CONTINUOUS
 10
157.8235165661
 20
119.7353450119
 11
157.9399748714
 21
119.9273507261
  0
LINE
  5
29E
100
AcDbEntity
  8
IMPORT_IGES
100
AcDbLine
 62
7
  6
CONTINUOUS
 10
184.5712424471
 20
97.525217145
 11
186.4712424471
 21
97.525217145
  0
LINE
  5
29F
100
AcDbEntity
  8
IMPORT_IGES
100
AcDbLine
 62
7
  6
CONTINUOUS
 10
182.9712424471
 20
98.500217145
 11
181.0712424471
 21
98.500217145
  0
LINE
  5
2A0
100
AcDbEntity
  8
DRAFT
100
AcDbLine
 62
7
  6
CONTINUOUS
 10
157.8235165661
 20
84.9650892781
 11
157.9399748714
 21
84.7730835639
  0
LINE
  5
2A1
100
AcDbEntity
  8
DRAFT
100
AcDbLine
 62
7
  6
CONTINUOUS
 10
140.2589683282
 20
84.9650892781
 11
140.1425100229
 21
84.7730835639
  0
LINE
  5
2A2
100
AcDbEntity
  8
IMPORT_IGES
100
AcDbLine
 62
253
  6
CONTINUOUS
 10
131.9597904567
 20
87.2687655984
 11
131.9251254138
 21
87.2341004532
  0
LINE
  5
2A3
100
AcDbEntity
  8
IMPORT_IGES
100
AcDbLine
 62
253
  6
CONTINUOUS
 10
130.1573593471
 20
85.4663330659
 11
130.1226947243
 21
85.4316684048
  0
LINE
  5
2A4
100
AcDbEntity
  8
DRAFT
100
AcDbLine
 62
7
  6
CONTINUOUS
 10
173.1919805856
 20
124.6193564403
 11
172.9999748714
 21
124.4273507261
  0
LINE
  5
2A5
100
AcDbEntity
  8
IMPORT_IGES
100
AcDbLine
 62
253
  6
CONTINUOUS
 10
166.1573593471
 20
117.4663330659
 11
166.1226947243
 21
117.4316684048
  0
LINE
  5
2A6
100
AcDbEntity
  8
IMPORT_IGES
100
AcDbLine
 62
253
  6
CONTINUOUS
 10
167.9597904567
 20
119.2687655984
 11
167.9251254138
 21
119.2341004532
  0
LINE
  5
2A7
100
AcDbEntity
  8
0
100
AcDbLine
 62
7
  6
CONTINUOUS
 10
166.3962424471
 20
112.4353234582
 11
165.8754093125
 21
112.1161745601
  0
LINE
  5
2A8
100
AcDbEntity
  8
0
100
AcDbLine
 62
7
  6
CONTINUOUS
 10
170.9795761778
 20
114.243834179
 11
170.5629093125
 21
114.0310682469
  0
LINE
  5
2A9
100
AcDbEntity
  8
0
100
AcDbLine
 62
7
  6
CONTINUOUS
 10
172.6462424471
 20
112.3289404922
 11
172.0212424471
 21
112.1161745601
  0
LINE
  5
2AA
100
AcDbEntity
  8
0
100
AcDbLine
 62
7
  6
CONTINUOUS
 10
177.4379087164
 20
112.3289404922
 11
177.1254087164
 21
112.2225575262
  0
LINE
  5
2AB
100
AcDbEntity
  8
IMPORT_IGES
100
AcDbLine
 62
7
  6
CONTINUOUS
 10
187.9537887115
 20
99.850217145
 11
182.9712424471
 21
99.850217145
  0
LINE
  5
2AC
100
AcDbEntity
  8
IMPORT_IGES
100
AcDbLine
 62
7
  6
CONTINUOUS
 10
182.9712424471
 20
100.300217145
 11
183.3712424471
 21
100.300217145
  0
LINE
  5
2AD
100
AcDbEntity
  8
DRAFT
100
AcDbLine
 62
7
  6
CONTINUOUS
 10
139.7905017487
 20
101.850217145
 11
140.5932146205
 21
101.850217145
  0
LINE
  5
2AE
100
AcDbEntity
  8
DRAFT
100
AcDbLine
 62
7
  6
CONTINUOUS
 10
151.9492702738
 20
101.850217145
 11
152.7519831455
 21
101.850217145
  0
LINE
  5
2AF
100
AcDbEntity
  8
IMPORT_IGES
100
AcDbLine
 62
253
  6
CONTINUOUS
 10
130.12269402
 20
119.2687651809
 11
130.1573591424
 21
119.2341001185
  0
LINE
  5
2B0
100
AcDbEntity
  8
DRAFT
100
AcDbLine
 62
7
  6
CONTINUOUS
 10
173.1919805856
 20
80.0810778497
 11
172.9999748714
 21
80.2730835639
  0
LINE
  5
2B1
100
AcDbEntity
  8
IMPORT_IGES
100
AcDbLine
 62
253
  6
CONTINUOUS
 10
166.12269402
 20
87.2687651809
 11
166.1573591424
 21
87.2341001185
  0
LINE
  5
2B2
100
AcDbEntity
  8
DRAFT
100
AcDbLine
 62
7
  6
CONTINUOUS
 10
140.2589683282
 20
119.7353450119
 11
140.1425100229
 21
119.9273507261
  0
LINE
  5
2B3
100
AcDbEntity
  8
DRAFT
100
AcDbLine
 62
7
  6
CONTINUOUS
 10
175.2363323173
 20
124.2472322619
 11
175.2712424471
 21
124.2821423918
  0
LINE
  5
2B4
100
AcDbEntity
  8
0
100
AcDbLine
 62
7
  6
CONTINUOUS
 10
166.0837424471
 20
111.5842597299
 11
166.5004093125
 21
111.903408628
  0
LINE
  5
2B5
100
AcDbEntity
  8
0
100
AcDbLine
 62
7
  6
CONTINUOUS
 10
170.7712424471
 20
113.4991534167
 11
171.0837424471
 21
113.7119193488
  0
LINE
  5
2B6
100
AcDbEntity
  8
0
100
AcDbLine
 62
7
  6
CONTINUOUS
 10
168.2712424471
 20
110.2012809479
 11
167.9587424471
 21
109.9885150158
  0
LINE
  5
2B7
100
AcDbEntity
  8
0
100
AcDbLine
 62
7
  6
CONTINUOUS
 10
168.0629093125
 20
109.4566001204
 11
168.5837424471
 21
109.7757490464
  0
LINE
  5
2B8
100
AcDbEntity
  8
0
100
AcDbLine
 62
7
  6
CONTINUOUS
 10
172.8545761778
 20
110.0948979818
 11
172.6462424471
 21
109.9885150158
  0
LINE
  5
2B9
100
AcDbEntity
  8
0
100
AcDbLine
 62
7
  6
CONTINUOUS
 10
177.4379087164
 20
110.0948979818
 11
177.1254087164
 21
109.9885150158
  0
LINE
  5
2BA
100
AcDbEntity
  8
0
100
AcDbLine
 62
7
  6
CONTINUOUS
 10
172.2295761778
 20
109.350217145
 11
172.6462424471
 21
109.4566001204
  0
LINE
  5
2BB
100
AcDbEntity
  8
0
100
AcDbLine
 62
7
  6
CONTINUOUS
 10
167.9587424471
 20
109.9885150158
 11
167.5420755818
 21
109.8821320497
  0
LINE
  5
2BC
100
AcDbEntity
  8
0
100
AcDbLine
 62
7
  6
CONTINUOUS
 10
177.0212424471
 20
109.350217145
 11
177.5420761778
 21
109.4566001204
  0
LINE
  5
2BD
100
AcDbEntity
  8
0
100
AcDbLine
 62
7
  6
CONTINUOUS
 10
172.6462424471
 20
109.9885150158
 11
172.1254087164
 21
109.8821320497
  0
LINE
  5
2BE
100
AcDbEntity
  8
0
100
AcDbLine
 62
7
  6
CONTINUOUS
 10
167.5420755818
 20
109.350217145
 11
168.0629093125
 21
109.4566001204
  0
LINE
  5
2BF
100
AcDbEntity
  8
DRAFT
100
AcDbLine
 62
7
  6
CONTINUOUS
 10
152.7519831455
 20
102.850217145
 11
151.9492702738
 21
102.850217145
  0
LINE
  5
2C0
100
AcDbEntity
  8
DRAFT
100
AcDbLine
 62
7
  6
CONTINUOUS
 10
140.5932146205
 20
102.850217145
 11
139.7905017487
 21
102.850217145
  0
LINE
  5
2C1
100
AcDbEntity
  8
IMPORT_IGES
100
AcDbLine
 62
7
  6
CONTINUOUS
 10
182.9712424471
 20
104.400217145
 11
183.3712424471
 21
104.400217145
  0
LINE
  5
2C2
100
AcDbEntity
  8
IMPORT_IGES
100
AcDbLine
 62
7
  6
CONTINUOUS
 10
182.9712424471
 20
104.850217145
 11
187.9537887115
 21
104.850217145
  0
LINE
  5
2C3
100
AcDbEntity
  8
DRAFT
100
AcDbLine
 62
7
  6
CONTINUOUS
 10
175.2712424471
 20
80.350217145
 11
175.3393172003
 21
80.2821423918
  0
LINE
  5
2C4
100
AcDbEntity
  8
DRAFT
100
AcDbLine
 62
7
  6
CONTINUOUS
 10
175.2363323173
 20
80.4532020281
 11
175.2712424471
 21
80.4182918982
  0
LINE
  5
2C5
100
AcDbEntity
  8
IMPORT_IGES
100
AcDbLine
 62
253
  6
CONTINUOUS
 10
155.0412421045
 20
87.650217132
 11
155.0412421942
 21
87.6002164777
  0
LINE
  5
2C6
100
AcDbEntity
  8
IMPORT_IGES
100
AcDbLine
 62
253
  6
CONTINUOUS
 10
155.0412421045
 20
119.650217132
 11
155.0412421942
 21
119.6002164777
  0
LINE
  5
2C7
100
AcDbEntity
  8
0
100
AcDbLine
 62
7
  6
CONTINUOUS
 10
170.5629093125
 20
114.0310682469
 11
170.1462424471
 21
113.6055363827
  0
LINE
  5
2C8
100
AcDbEntity
  8
DRAFT
100
AcDbLine
 62
7
  6
CONTINUOUS
 10
181.9742273302
 20
126.0532020281
 11
181.9393172003
 21
126.0182918982
  0
LINE
  5
2C9
100
AcDbEntity
  8
DRAFT
100
AcDbLine
 62
7
  6
CONTINUOUS
 10
181.9393172003
 20
125.8153070152
 11
181.8712424471
 21
125.7472322619
  0
LINE
  5
2CA
100
AcDbEntity
  8
IMPORT_IGES
100
AcDbLine
 62
253
  6
CONTINUOUS
 10
143.9597904567
 20
87.2687655984
 11
143.9251254138
 21
87.2341004532
  0
LINE
  5
2CB
100
AcDbEntity
  8
IMPORT_IGES
100
AcDbLine
 62
253
  6
CONTINUOUS
 10
142.1573593471
 20
85.4663330659
 11
142.1226947243
 21
85.4316684048
  0
LINE
  5
2CC
100
AcDbEntity
  8
0
100
AcDbLine
 62
7
  6
CONTINUOUS
 10
172.8545761778
 20
111.903408628
 11
173.2712424471
 21
112.2225575262
  0
LINE
  5
2CD
100
AcDbEntity
  8
0
100
AcDbLine
 62
7
  6
CONTINUOUS
 10
173.0629087164
 20
109.6693660804
 11
173.3754087164
 21
109.8821320497
  0
LINE
  5
2CE
100
AcDbEntity
  8
0
100
AcDbLine
 62
7
  6
CONTINUOUS
 10
172.6462424471
 20
109.4566001204
 11
173.0629087164
 21
109.6693660804
  0
LINE
  5
2CF
100
AcDbEntity
  8
0
100
AcDbLine
 62
7
  6
CONTINUOUS
 10
177.7504087164
 20
111.903408628
 11
177.9587424471
 21
112.0097915941
  0
LINE
  5
2D0
100
AcDbEntity
  8
0
100
AcDbLine
 62
7
  6
CONTINUOUS
 10
166.5004093125
 20
111.903408628
 11
166.9170755818
 21
112.0097915941
  0
LINE
  5
2D1
100
AcDbEntity
  8
IMPORT_IGES
100
AcDbLine
 62
7
  6
CONTINUOUS
 10
181.0712424471
 20
106.200217145
 11
182.9712424471
 21
106.200217145
  0
LINE
  5
2D2
100
AcDbEntity
  8
IMPORT_IGES
100
AcDbLine
 62
7
  6
CONTINUOUS
 10
184.5712424471
 20
107.175217145
 11
186.4712424471
 21
107.175217145
  0
LINE
  5
2D3
100
AcDbEntity
  8
DRAFT
100
AcDbLine
 62
7
  6
CONTINUOUS
 10
181.9742273302
 20
78.6472322619
 11
181.9393172003
 21
78.6821423918
  0
LINE
  5
2D4
100
AcDbEntity
  8
DRAFT
100
AcDbLine
 62
7
  6
CONTINUOUS
 10
181.9393172003
 20
78.8851272749
 11
181.8712424471
 21
78.9532020281
  0
LINE
  5
2D5
100
AcDbEntity
  8
IMPORT_IGES
100
AcDbLine
 62
253
  6
CONTINUOUS
 10
142.12269402
 20
119.2687651809
 11
142.1573591424
 21
119.2341001185
  0
LINE
  5
2D6
100
AcDbEntity
  8
0
100
AcDbLine
 62
7
  6
CONTINUOUS
 10
163.8962424471
 20
113.8183023148
 11
161.812909089
 21
109.350217145
  0
LINE
  5
2D7
100
AcDbEntity
  8
0
100
AcDbLine
 62
7
  6
CONTINUOUS
 10
162.4379091635
 20
109.350217145
 11
164.5212424471
 21
113.8183023148
  0
LINE
  5
2D8
100
AcDbEntity
  8
DRAFT
100
AcDbLine
 62
7
  6
CONTINUOUS
 10
169.8235165661
 20
119.7353450119
 11
169.9399748714
 21
119.9273507261
  0
LINE
  5
2D9
100
AcDbEntity
  8
0
100
AcDbLine
 62
7
  6
CONTINUOUS
 10
172.8545761778
 20
112.5417064243
 11
172.6462424471
 21
112.3289404922
  0
LINE
  5
2DA
100
AcDbEntity
  8
0
100
AcDbLine
 62
7
  6
CONTINUOUS
 10
166.9170755818
 20
112.5417064243
 11
166.3962424471
 21
112.4353234582
  0
LINE
  5
2DB
100
AcDbEntity
  8
0
100
AcDbLine
 62
7
  6
CONTINUOUS
 10
171.0837424471
 20
113.7119193488
 11
171.6045761778
 21
113.8183023148
  0
LINE
  5
2DC
100
AcDbEntity
  8
0
100
AcDbLine
 62
7
  6
CONTINUOUS
 10
171.7087424471
 20
114.350217145
 11
170.9795761778
 21
114.243834179
  0
LINE
  5
2DD
100
AcDbEntity
  8
0
100
AcDbLine
 62
7
  6
CONTINUOUS
 10
161.812909089
 20
109.350217145
 11
162.4379091635
 21
109.350217145
  0
LINE
  5
2DE
100
AcDbEntity
  8
0
100
AcDbLine
 62
7
  6
CONTINUOUS
 10
166.9170755818
 20
109.350217145
 11
167.5420755818
 21
109.350217145
  0
LINE
  5
2DF
100
AcDbEntity
  8
0
100
AcDbLine
 62
7
  6
CONTINUOUS
 10
171.3962424471
 20
109.350217145
 11
172.2295761778
 21
109.350217145
  0
LINE
  5
2E0
100
AcDbEntity
  8
0
100
AcDbLine
 62
7
  6
CONTINUOUS
 10
174.5212424471
 20
109.350217145
 11
177.0212424471
 21
109.350217145
  0
LINE
  5
2E1
100
AcDbEntity
  8
0
100
AcDbLine
 62
7
  6
CONTINUOUS
 10
172.1254087164
 20
109.8821320497
 11
171.5004087164
 21
109.8821320497
  0
LINE
  5
2E2
100
AcDbEntity
  8
0
100
AcDbLine
 62
7
  6
CONTINUOUS
 10
167.5420755818
 20
109.8821320497
 11
166.9170755818
 21
109.8821320497
  0
LINE
  5
2E3
100
AcDbEntity
  8
0
100
AcDbLine
 62
7
  6
CONTINUOUS
 10
177.1254087164
 20
109.9885150158
 11
175.1462424471
 21
109.9885150158
  0
LINE
  5
2E4
100
AcDbEntity
  8
DRAFT
100
AcDbLine
 62
7
  6
CONTINUOUS
 10
181.0712424471
 20
110.2827634094
 11
187.9537887115
 21
110.2827634094
  0
LINE
  5
2E5
100
AcDbEntity
  8
IMPORT_IGES
100
AcDbLine
 62
7
  6
CONTINUOUS
 10
186.4712424471
 20
110.400217145
 11
184.5712424471
 21
110.400217145
  0
LINE
  5
2E6
100
AcDbEntity
  8
0
100
AcDbLine
 62
7
  6
CONTINUOUS
 10
170.4587424471
 20
110.5204299205
 11
169.9379093125
 21
110.5204299205
  0
LINE
  5
2E7
100
AcDbEntity
  8
0
100
AcDbLine
 62
7
  6
CONTINUOUS
 10
165.9795755818
 20
110.6268128865
 11
165.3545758798
 21
110.6268128865
  0
LINE
  5
2E8
100
AcDbEntity
  8
DRAFT
100
AcDbLine
 62
7
  6
CONTINUOUS
 10
114.8742273302
 20
110.6472322619
 11
113.0682575641
 21
110.6472322619
  0
LINE
  5
2E9
100
AcDbEntity
  8
DRAFT
100
AcDbLine
 62
7
  6
CONTINUOUS
 10
114.8393172003
 20
110.6821423918
 11
114.7712424471
 21
110.6821423918
  0
LINE
  5
2EA
100
AcDbEntity
  8
DRAFT
100
AcDbLine
 62
7
  6
CONTINUOUS
 10
113.306152577
 20
110.6821423918
 11
113.1031676939
 21
110.6821423918
  0
LINE
  5
2EB
100
AcDbEntity
  8
DRAFT
100
AcDbLine
 62
7
  6
CONTINUOUS
 10
113.3742273302
 20
110.750217145
 11
114.7031676939
 21
110.750217145
  0
LINE
  5
2EC
100
AcDbEntity
  8
0
100
AcDbLine
 62
7
  6
CONTINUOUS
 10
165.3545758798
 20
111.5842597299
 11
166.0837424471
 21
111.5842597299
  0
LINE
  5
2ED
100
AcDbEntity
  8
0
100
AcDbLine
 62
7
  6
CONTINUOUS
 10
175.1462424471
 20
111.5842597299
 11
177.1254087164
 21
111.5842597299
  0
LINE
  5
2EE
100
AcDbEntity
  8
0
100
AcDbLine
 62
7
  6
CONTINUOUS
 10
171.6045761778
 20
111.690642696
 11
172.0212424471
 21
111.690642696
  0
LINE
  5
2EF
100
AcDbEntity
  8
0
100
AcDbLine
 62
7
  6
CONTINUOUS
 10
166.9170755818
 20
112.0097915941
 11
167.5420755818
 21
112.0097915941
  0
LINE
  5
2F0
100
AcDbEntity
  8
DRAFT
100
AcDbLine
 62
7
  6
CONTINUOUS
 10
113.6712424471
 20
116.8838878983
 11
113.1712424471
 21
116.950217145
  0
LINE
  5
2F1
100
AcDbEntity
  8
DRAFT
100
AcDbLine
 62
7
  6
CONTINUOUS
 10
169.8235165661
 20
84.9650892781
 11
169.9399748714
 21
84.7730835639
  0
LINE
  5
2F2
100
AcDbEntity
  8
0
100
AcDbLine
 62
7
  6
CONTINUOUS
 10
160.7712424471
 20
114.350217145
 11
160.7712424471
 21
113.8183023148
  0
LINE
  5
2F3
100
AcDbEntity
  8
IMPORT_IGES
100
AcDbLine
 62
7
  6
CONTINUOUS
 10
163.4212444471
 20
97.446297145
 11
163.4212444471
 21
96.695477145
  0
LINE
  5
2F4
100
AcDbEntity
  8
IMPORT_IGES
100
AcDbLine
 62
7
  6
CONTINUOUS
 10
163.4212444471
 20
93.101037145
 11
163.4212444471
 21
92.350217145
  0
LINE
  5
2F5
100
AcDbEntity
  8
ASSI
100
AcDbLine
 62
7
  6
CONTINUOUS
 10
163.4212444471
 20
92.3502201843
 11
163.4212444471
 21
93.101037145
  0
LINE
  5
2F6
100
AcDbEntity
  8
ASSI
100
AcDbLine
 62
7
  6
CONTINUOUS
 10
163.4212444471
 20
96.695477145
 11
163.4212444471
 21
97.4462941058
  0
LINE
  5
2F7
100
AcDbEntity
  8
DRAFT
100
AcDbLine
 62
7
  6
CONTINUOUS
 10
152.2589683282
 20
84.9650892781
 11
152.1425100229
 21
84.7730835639
  0
LINE
  5
2F8
100
AcDbEntity
  8
0
100
AcDbLine
 62
7
  6
CONTINUOUS
 10
168.4795755818
 20
110.5204299205
 11
168.2712424471
 21
110.2012809479
  0
LINE
  5
2F9
100
AcDbEntity
  8
0
100
AcDbLine
 62
7
  6
CONTINUOUS
 10
170.5629093125
 20
113.1800045186
 11
170.7712424471
 21
113.4991534167
  0
LINE
  5
2FA
100
AcDbEntity
  8
0
100
AcDbLine
 62
7
  6
CONTINUOUS
 10
168.5837424471
 20
109.7757490464
 11
168.8962424471
 21
110.2012809479
  0
LINE
  5
2FB
100
AcDbEntity
  8
0
100
AcDbLine
 62
7
  6
CONTINUOUS
 10
173.0629087164
 20
110.3076639884
 11
172.8545761778
 21
110.0948979818
  0
LINE
  5
2FC
100
AcDbEntity
  8
0
100
AcDbLine
 62
7
  6
CONTINUOUS
 10
177.6462424471
 20
112.5417064243
 11
177.4379087164
 21
112.3289404922
  0
LINE
  5
2FD
100
AcDbEntity
  8
0
100
AcDbLine
 62
7
  6
CONTINUOUS
 10
177.5420761778
 20
109.4566001204
 11
177.9587424471
 21
109.7757490464
  0
LINE
  5
2FE
100
AcDbEntity
  8
IMPORT_IGES
100
AcDbLine
 62
7
  6
CONTINUOUS
 10
130.8505020677
 20
85.0644653857
 11
130.9646081751
 21
85.1025652775
  0
LINE
  5
2FF
100
AcDbEntity
  8
0
100
AcDbLine
 62
7
  6
CONTINUOUS
 10
172.0212424471
 20
112.1161745601
 11
171.6045761778
 21
112.1161745601
  0
LINE
  5
300
100
AcDbEntity
  8
0
100
AcDbLine
 62
7
  6
CONTINUOUS
 10
177.1254087164
 20
112.2225575262
 11
175.1462424471
 21
112.2225575262
  0
LINE
  5
301
100
AcDbEntity
  8
0
100
AcDbLine
 62
7
  6
CONTINUOUS
 10
167.5420755818
 20
112.5417064243
 11
166.9170755818
 21
112.5417064243
  0
LINE
  5
302
100
AcDbEntity
  8
0
100
AcDbLine
 62
7
  6
CONTINUOUS
 10
170.0420755818
 20
113.1800045186
 11
170.5629093125
 21
113.1800045186
  0
LINE
  5
303
100
AcDbEntity
  8
0
100
AcDbLine
 62
7
  6
CONTINUOUS
 10
175.1462424471
 20
113.7119193488
 11
177.1254087164
 21
113.7119193488
  0
LINE
  5
304
100
AcDbEntity
  8
0
100
AcDbLine
 62
7
  6
CONTINUOUS
 10
160.7712424471
 20
113.8183023148
 11
163.8962424471
 21
113.8183023148
  0
LINE
  5
305
100
AcDbEntity
  8
0
100
AcDbLine
 62
7
  6
CONTINUOUS
 10
165.8754093125
 20
113.8183023148
 11
168.8962424471
 21
113.8183023148
  0
LINE
  5
306
100
AcDbEntity
  8
0
100
AcDbLine
 62
7
  6
CONTINUOUS
 10
171.6045761778
 20
113.8183023148
 11
172.0212424471
 21
113.8183023148
  0
LINE
  5
307
100
AcDbEntity
  8
0
100
AcDbLine
 62
7
  6
CONTINUOUS
 10
177.0212424471
 20
114.350217145
 11
174.5212424471
 21
114.350217145
  0
LINE
  5
308
100
AcDbEntity
  8
0
100
AcDbLine
 62
7
  6
CONTINUOUS
 10
171.9170761778
 20
114.350217145
 11
171.7087424471
 21
114.350217145
  0
LINE
  5
309
100
AcDbEntity
  8
0
100
AcDbLine
 62
7
  6
CONTINUOUS
 10
168.8962424471
 20
114.350217145
 11
165.3545758798
 21
114.350217145
  0
LINE
  5
30A
100
AcDbEntity
  8
0
100
AcDbLine
 62
7
  6
CONTINUOUS
 10
164.5212424471
 20
114.350217145
 11
160.7712424471
 21
114.350217145
  0
LINE
  5
30B
100
AcDbEntity
  8
0
100
AcDbLine
 62
7
  6
CONTINUOUS
 10
172.0212424471
 20
111.690642696
 11
172.6462424471
 21
111.5842597299
  0
LINE
  5
30C
100
AcDbEntity
  8
0
100
AcDbLine
 62
7
  6
CONTINUOUS
 10
166.3962424471
 20
109.4566001204
 11
166.9170755818
 21
109.350217145
  0
LINE
  5
30D
100
AcDbEntity
  8
0
100
AcDbLine
 62
7
  6
CONTINUOUS
 10
171.5004087164
 20
109.8821320497
 11
170.9795761778
 21
109.9885150158
  0
LINE
  5
30E
100
AcDbEntity
  8
0
100
AcDbLine
 62
7
  6
CONTINUOUS
 10
166.9170755818
 20
109.8821320497
 11
166.5004093125
 21
109.9885150158
  0
LINE
  5
30F
100
AcDbEntity
  8
0
100
AcDbLine
 62
7
  6
CONTINUOUS
 10
170.9795761778
 20
109.4566001204
 11
171.3962424471
 21
109.350217145
  0
LINE
  5
310
100
AcDbEntity
  8
DRAFT
100
AcDbLine
 62
7
  6
CONTINUOUS
 10
152.2589683282
 20
119.7353450119
 11
152.1425100229
 21
119.9273507261
  0
LINE
  5
311
100
AcDbEntity
  8
0
100
AcDbLine
 62
7
  6
CONTINUOUS
 10
164.5212424471
 20
113.8183023148
 11
164.5212424471
 21
114.350217145
  0
LINE
  5
312
100
AcDbEntity
  8
0
100
AcDbLine
 62
7
  6
CONTINUOUS
 10
165.3545758798
 20
114.350217145
 11
165.3545758798
 21
111.5842597299
  0
LINE
  5
313
100
AcDbEntity
  8
0
100
AcDbLine
 62
7
  6
CONTINUOUS
 10
165.8754093125
 20
112.1161745601
 11
165.8754093125
 21
113.8183023148
  0
LINE
  5
314
100
AcDbEntity
  8
0
100
AcDbLine
 62
7
  6
CONTINUOUS
 10
168.5837424471
 20
110.8395788186
 11
168.4795755818
 21
110.5204299205
  0
LINE
  5
315
100
AcDbEntity
  8
0
100
AcDbLine
 62
7
  6
CONTINUOUS
 10
168.8962424471
 20
110.2012809479
 11
169.1045755818
 21
110.7331958526
  0
LINE
  5
316
100
AcDbEntity
  8
0
100
AcDbLine
 62
7
  6
CONTINUOUS
 10
173.0629087164
 20
112.9672382885
 11
172.8545761778
 21
112.5417064243
  0
LINE
  5
317
100
AcDbEntity
  8
0
100
AcDbLine
 62
7
  6
CONTINUOUS
 10
173.2712424471
 20
112.2225575262
 11
173.4795761778
 21
112.5417064243
  0
LINE
  5
318
100
AcDbEntity
  8
0
100
AcDbLine
 62
7
  6
CONTINUOUS
 10
173.3754087164
 20
109.8821320497
 11
173.5837424471
 21
110.2012809479
  0
LINE
  5
319
100
AcDbEntity
  8
0
100
AcDbLine
 62
7
  6
CONTINUOUS
 10
177.6462424471
 20
110.3076639884
 11
177.4379087164
 21
110.0948979818
  0
LINE
  5
31A
100
AcDbEntity
  8
IMPORT_IGES
100
AcDbLine
 62
253
  6
CONTINUOUS
 10
155.9597904567
 20
87.2687655984
 11
155.9251254138
 21
87.2341004532
  0
LINE
  5
31B
100
AcDbEntity
  8
IMPORT_IGES
100
AcDbLine
 62
253
  6
CONTINUOUS
 10
154.1573593471
 20
85.4663330659
 11
154.1226947243
 21
85.4316684048
  0
LINE
  5
31C
100
AcDbEntity
  8
IMPORT_IGES
100
AcDbLine
 62
7
  6
CONTINUOUS
 10
142.8505020677
 20
85.0644653857
 11
142.9646081751
 21
85.1025652775
  0
LINE
  5
31D
100
AcDbEntity
  8
DRAFT
100
AcDbLine
 62
7
  6
CONTINUOUS
 10
113.6712424471
 20
111.2165463917
 11
113.1712424471
 21
111.150217145
  0
LINE
  5
31E
100
AcDbEntity
  8
DRAFT
100
AcDbLine
 62
7
  6
CONTINUOUS
 10
113.3742273302
 20
117.350217145
 11
114.7031676939
 21
117.350217145
  0
LINE
  5
31F
100
AcDbEntity
  8
DRAFT
100
AcDbLine
 62
7
  6
CONTINUOUS
 10
114.8393172003
 20
117.4182918982
 11
114.7712424471
 21
117.4182918982
  0
LINE
  5
320
100
AcDbEntity
  8
DRAFT
100
AcDbLine
 62
7
  6
CONTINUOUS
 10
113.1031676939
 20
117.4182918982
 11
113.306152577
 21
117.4182918982
  0
LINE
  5
321
100
AcDbEntity
  8
DRAFT
100
AcDbLine
 62
7
  6
CONTINUOUS
 10
113.0682575641
 20
117.4532020281
 11
114.8742273302
 21
117.4532020281
  0
LINE
  5
322
100
AcDbEntity
  8
0
100
AcDbLine
 62
7
  6
CONTINUOUS
 10
172.6462424471
 20
114.243834179
 11
171.9170761778
 21
114.350217145
  0
LINE
  5
323
100
AcDbEntity
  8
0
100
AcDbLine
 62
7
  6
CONTINUOUS
 10
168.0629093125
 20
112.4353234582
 11
167.5420755818
 21
112.5417064243
  0
LINE
  5
324
100
AcDbEntity
  8
0
100
AcDbLine
 62
7
  6
CONTINUOUS
 10
172.0212424471
 20
113.8183023148
 11
172.5420761778
 21
113.7119193488
  0
LINE
  5
325
100
AcDbEntity
  8
0
100
AcDbLine
 62
7
  6
CONTINUOUS
 10
167.5420755818
 20
112.0097915941
 11
167.9587424471
 21
111.903408628
  0
LINE
  5
326
100
AcDbEntity
  8
0
100
AcDbLine
 62
7
  6
CONTINUOUS
 10
170.5629093125
 20
109.6693660804
 11
170.9795761778
 21
109.4566001204
  0
LINE
  5
327
100
AcDbEntity
  8
0
100
AcDbLine
 62
7
  6
CONTINUOUS
 10
165.8754093125
 20
109.7757490464
 11
166.3962424471
 21
109.4566001204
  0
LINE
  5
328
100
AcDbEntity
  8
0
100
AcDbLine
 62
7
  6
CONTINUOUS
 10
166.5004093125
 20
109.9885150158
 11
166.1879093125
 21
110.2012809479
  0
LINE
  5
329
100
AcDbEntity
  8
IMPORT_IGES
100
AcDbLine
 62
253
  6
CONTINUOUS
 10
154.12269402
 20
119.2687651809
 11
154.1573591424
 21
119.2341001185
  0
LINE
  5
32A
100
AcDbEntity
  8
IMPORT_IGES
100
AcDbLine
 62
253
  6
CONTINUOUS
 10
167.0412421045
 20
87.650217132
 11
167.0412421942
 21
87.6002164777
  0
LINE
  5
32B
100
AcDbEntity
  8
IMPORT_IGES
100
AcDbLine
 62
253
  6
CONTINUOUS
 10
167.0412421045
 20
119.650217132
 11
167.0412421942
 21
119.6002164777
  0
LINE
  5
32C
100
AcDbEntity
  8
IMPORT_IGES
100
AcDbLine
 62
7
  6
CONTINUOUS
 10
167.4063544471
 20
95.273257145
 11
167.4063544471
 21
94.523257145
  0
LINE
  5
32D
100
AcDbEntity
  8
ASSI
100
AcDbLine
 62
7
  6
CONTINUOUS
 10
167.4063544471
 20
94.523257145
 11
167.4063544471
 21
95.273257145
  0
LINE
  5
32E
100
AcDbEntity
  8
IMPORT_IGES
100
AcDbLine
 62
7
  6
CONTINUOUS
 10
167.8063544471
 20
97.446297145
 11
167.8063544471
 21
96.695477145
  0
LINE
  5
32F
100
AcDbEntity
  8
IMPORT_IGES
100
AcDbLine
 62
7
  6
CONTINUOUS
 10
167.8063544471
 20
93.101037145
 11
167.8063544471
 21
92.350217145
  0
LINE
  5
330
100
AcDbEntity
  8
ASSI
100
AcDbLine
 62
7
  6
CONTINUOUS
 10
167.8063544471
 20
92.3502200273
 11
167.8063544471
 21
93.1010401934
  0
LINE
  5
331
100
AcDbEntity
  8
ASSI
100
AcDbLine
 62
7
  6
CONTINUOUS
 10
167.8063544471
 20
96.695477145
 11
167.8063544471
 21
97.4462942628
  0
LINE
  5
332
100
AcDbEntity
  8
0
100
AcDbLine
 62
7
  6
CONTINUOUS
 10
168.5837424471
 20
111.0523447507
 11
168.5837424471
 21
110.8395788186
  0
LINE
  5
333
100
AcDbEntity
  8
0
100
AcDbLine
 62
7
  6
CONTINUOUS
 10
168.8962424471
 20
113.8183023148
 11
168.8962424471
 21
114.350217145
  0
LINE
  5
334
100
AcDbEntity
  8
0
100
AcDbLine
 62
7
  6
CONTINUOUS
 10
169.1045755818
 20
110.7331958526
 11
169.1045755818
 21
111.1587277167
  0
LINE
  5
335
100
AcDbEntity
  8
0
100
AcDbLine
 62
7
  6
CONTINUOUS
 10
170.1462424471
 20
113.6055363827
 11
170.0420755818
 21
113.1800045186
  0
LINE
  5
336
100
AcDbEntity
  8
0
100
AcDbLine
 62
7
  6
CONTINUOUS
 10
173.1670761778
 20
110.5204299205
 11
173.0629087164
 21
110.3076639884
  0
LINE
  5
337
100
AcDbEntity
  8
0
100
AcDbLine
 62
7
  6
CONTINUOUS
 10
177.9587424471
 20
112.0097915941
 11
178.2712424471
 21
112.4353234582
  0
LINE
  5
338
100
AcDbEntity
  8
0
100
AcDbLine
 62
7
  6
CONTINUOUS
 10
177.9587424471
 20
109.7757490464
 11
178.2712424471
 21
110.2012809479
  0
LINE
  5
339
100
AcDbEntity
  8
IMPORT_IGES
100
AcDbLine
 62
7
  6
CONTINUOUS
 10
154.8505020677
 20
85.0644653857
 11
154.9646081751
 21
85.1025652775
  0
LINE
  5
33A
100
AcDbEntity
  8
IMPORT_IGES
100
AcDbLine
 62
253
  6
CONTINUOUS
 10
168.2912403213
 20
118.3502283858
 11
168.1990567336
 21
118.3502275568
  0
LINE
  5
33B
100
AcDbEntity
  8
IMPORT_IGES
100
AcDbLine
 62
253
  6
CONTINUOUS
 10
156.2912403213
 20
118.3502283858
 11
156.1990567336
 21
118.3502275568
  0
LINE
  5
33C
100
AcDbEntity
  8
IMPORT_IGES
100
AcDbLine
 62
7
  6
CONTINUOUS
 10
168.3412424471
 20
118.350217145
 11
168.2912424471
 21
118.350217145
  0
LINE
  5
33D
100
AcDbEntity
  8
IMPORT_IGES
100
AcDbLine
 62
7
  6
CONTINUOUS
 10
156.3412424471
 20
118.350217145
 11
156.2912424471
 21
118.350217145
  0
LINE
  5
33E
100
AcDbEntity
  8
IMPORT_IGES
100
AcDbLine
 62
7
  6
CONTINUOUS
 10
144.3412424471
 20
118.350217145
 11
144.2912424471
 21
118.350217145
  0
LINE
  5
33F
100
AcDbEntity
  8
IMPORT_IGES
100
AcDbLine
 62
253
  6
CONTINUOUS
 10
141.8834281607
 20
118.3502275568
 11
141.7412424471
 21
118.3502170982
  0
LINE
  5
340
100
AcDbEntity
  8
IMPORT_IGES
100
AcDbLine
 62
7
  6
CONTINUOUS
 10
132.3412424471
 20
118.350217145
 11
132.2912424471
 21
118.350217145
  0
LINE
  5
341
100
AcDbEntity
  8
IMPORT_IGES
100
AcDbLine
 62
253
  6
CONTINUOUS
 10
129.8834281607
 20
118.3502275568
 11
129.7412424471
 21
118.3502170982
  0
LINE
  5
342
100
AcDbEntity
  8
IMPORT_IGES
100
AcDbLine
 62
253
  6
CONTINUOUS
 10
153.8834281607
 20
118.3502275568
 11
153.7412424471
 21
118.3502170982
  0
LINE
  5
343
100
AcDbEntity
  8
IMPORT_IGES
100
AcDbLine
 62
253
  6
CONTINUOUS
 10
144.2912403213
 20
118.3502283858
 11
144.1990567336
 21
118.3502275568
  0
LINE
  5
344
100
AcDbEntity
  8
IMPORT_IGES
100
AcDbLine
 62
253
  6
CONTINUOUS
 10
165.8834281607
 20
118.3502275568
 11
165.7412424471
 21
118.3502170982
  0
LINE
  5
345
100
AcDbEntity
  8
IMPORT_IGES
100
AcDbLine
 62
253
  6
CONTINUOUS
 10
132.2912403213
 20
118.3502283858
 11
132.1990567336
 21
118.3502275568
  0
LINE
  5
346
100
AcDbEntity
  8
DRAFT
100
AcDbLine
 62
7
  6
CONTINUOUS
 10
173.1919805856
 20
119.7353450119
 11
169.8235165661
 21
119.7353450119
  0
LINE
  5
347
100
AcDbEntity
  8
DRAFT
100
AcDbLine
 62
7
  6
CONTINUOUS
 10
164.2589683282
 20
119.7353450119
 11
157.8235165661
 21
119.7353450119
  0
LINE
  5
348
100
AcDbEntity
  8
DRAFT
100
AcDbLine
 62
7
  6
CONTINUOUS
 10
152.2589683282
 20
119.7353450119
 11
145.8235165661
 21
119.7353450119
  0
LINE
  5
349
100
AcDbEntity
  8
DRAFT
100
AcDbLine
 62
7
  6
CONTINUOUS
 10
140.2589683282
 20
119.7353450119
 11
133.8235165661
 21
119.7353450119
  0
LINE
  5
34A
100
AcDbEntity
  8
DRAFT
100
AcDbLine
 62
7
  6
CONTINUOUS
 10
128.2589683282
 20
119.7353450119
 11
114.5792367329
 21
119.7353450119
  0
LINE
  5
34B
100
AcDbEntity
  8
DRAFT
100
AcDbLine
 62
7
  6
CONTINUOUS
 10
172.9999748714
 20
119.9273507261
 11
169.9399748714
 21
119.9273507261
  0
LINE
  5
34C
100
AcDbEntity
  8
DRAFT
100
AcDbLine
 62
7
  6
CONTINUOUS
 10
164.1425100229
 20
119.9273507261
 11
157.9399748714
 21
119.9273507261
  0
LINE
  5
34D
100
AcDbEntity
  8
DRAFT
100
AcDbLine
 62
7
  6
CONTINUOUS
 10
152.1425100229
 20
119.9273507261
 11
145.9399748714
 21
119.9273507261
  0
LINE
  5
34E
100
AcDbEntity
  8
DRAFT
100
AcDbLine
 62
7
  6
CONTINUOUS
 10
140.1425100229
 20
119.9273507261
 11
133.9399748714
 21
119.9273507261
  0
LINE
  5
34F
100
AcDbEntity
  8
DRAFT
100
AcDbLine
 62
7
  6
CONTINUOUS
 10
128.1425100229
 20
119.9273507261
 11
114.7712424471
 21
119.9273507261
  0
LINE
  5
350
100
AcDbEntity
  8
0
100
AcDbLine
 62
7
  6
CONTINUOUS
 10
177.5420761778
 20
114.243834179
 11
177.0212424471
 21
114.350217145
  0
LINE
  5
351
100
AcDbEntity
  8
0
100
AcDbLine
 62
7
  6
CONTINUOUS
 10
177.1254087164
 20
111.5842597299
 11
177.4379087164
 21
111.4778767639
  0
LINE
  5
352
100
AcDbEntity
  8
0
100
AcDbLine
 62
7
  6
CONTINUOUS
 10
173.3754087164
 20
111.690642696
 11
172.8545761778
 21
111.903408628
  0
LINE
  5
353
100
AcDbEntity
  8
0
100
AcDbLine
 62
7
  6
CONTINUOUS
 10
170.9795761778
 20
109.9885150158
 11
170.7712424471
 21
110.0948979818
  0
LINE
  5
354
100
AcDbEntity
  8
0
100
AcDbLine
 62
7
  6
CONTINUOUS
 10
168.5837424471
 20
112.1161745601
 11
168.0629093125
 21
112.4353234582
  0
LINE
  5
355
100
AcDbEntity
  8
0
100
AcDbLine
 62
7
  6
CONTINUOUS
 10
170.2504093125
 20
109.8821320497
 11
170.5629093125
 21
109.6693660804
  0
LINE
  5
356
100
AcDbEntity
  8
0
100
AcDbLine
 62
7
  6
CONTINUOUS
 10
167.9587424471
 20
111.903408628
 11
168.2712424471
 21
111.690642696
  0
LINE
  5
357
100
AcDbEntity
  8
0
100
AcDbLine
 62
7
  6
CONTINUOUS
 10
165.5629090145
 20
110.2012809479
 11
165.8754093125
 21
109.7757490464
  0
LINE
  5
358
100
AcDbEntity
  8
0
100
AcDbLine
 62
7
  6
CONTINUOUS
 10
165.3545758798
 20
110.6268128865
 11
165.5629090145
 21
110.2012809479
  0
LINE
  5
359
100
AcDbEntity
  8
0
100
AcDbLine
 62
7
  6
CONTINUOUS
 10
166.1879093125
 20
110.2012809479
 11
165.9795755818
 21
110.6268128865
  0
LINE
  5
35A
100
AcDbEntity
  8
0
100
AcDbLine
 62
7
  6
CONTINUOUS
 10
171.6045761778
 20
112.1161745601
 11
171.6045761778
 21
111.690642696
  0
LINE
  5
35B
100
AcDbEntity
  8
0
100
AcDbLine
 62
7
  6
CONTINUOUS
 10
173.4795761778
 20
112.5417064243
 11
173.5837424471
 21
112.9672382885
  0
LINE
  5
35C
100
AcDbEntity
  8
0
100
AcDbLine
 62
7
  6
CONTINUOUS
 10
173.5837424471
 20
110.2012809479
 11
173.6879087164
 21
110.5204299205
  0
LINE
  5
35D
100
AcDbEntity
  8
DRAFT
100
AcDbLine
 62
7
  6
CONTINUOUS
 10
164.2589683282
 20
84.9650892781
 11
164.1425100229
 21
84.7730835639
  0
LINE
  5
35E
100
AcDbEntity
  8
IMPORT_IGES
100
AcDbLine
 62
7
  6
CONTINUOUS
 10
166.8505020677
 20
85.0644653857
 11
166.9646081751
 21
85.1025652775
  0
LINE
  5
35F
100
AcDbEntity
  8
DRAFT
100
AcDbLine
 62
7
  6
CONTINUOUS
 10
181.9742273302
 20
124.2472322619
 11
175.2363323173
 21
124.2472322619
  0
LINE
  5
360
100
AcDbEntity
  8
DRAFT
100
AcDbLine
 62
7
  6
CONTINUOUS
 10
181.9393172003
 20
124.2821423918
 11
175.2712424471
 21
124.2821423918
  0
LINE
  5
361
100
AcDbEntity
  8
0
100
AcDbLine
 62
7
  6
CONTINUOUS
 10
177.1254087164
 20
113.7119193488
 11
177.4379087164
 21
113.6055363827
  0
LINE
  5
362
100
AcDbEntity
  8
0
100
AcDbLine
 62
7
  6
CONTINUOUS
 10
173.0629087164
 20
114.0310682469
 11
172.6462424471
 21
114.243834179
  0
LINE
  5
363
100
AcDbEntity
  8
0
100
AcDbLine
 62
7
  6
CONTINUOUS
 10
177.9587424471
 20
111.797025662
 11
177.7504087164
 21
111.903408628
  0
LINE
  5
364
100
AcDbEntity
  8
0
100
AcDbLine
 62
7
  6
CONTINUOUS
 10
172.6462424471
 20
111.5842597299
 11
172.9587424471
 21
111.3714937978
  0
LINE
  5
365
100
AcDbEntity
  8
0
100
AcDbLine
 62
7
  6
CONTINUOUS
 10
172.5420761778
 20
113.7119193488
 11
172.8545761778
 21
113.4991534167
  0
LINE
  5
366
100
AcDbEntity
  8
0
100
AcDbLine
 62
7
  6
CONTINUOUS
 10
170.7712424471
 20
110.0948979818
 11
170.5629093125
 21
110.3076639884
  0
LINE
  5
367
100
AcDbEntity
  8
0
100
AcDbLine
 62
7
  6
CONTINUOUS
 10
168.8962424471
 20
111.690642696
 11
168.5837424471
 21
112.1161745601
  0
LINE
  5
368
100
AcDbEntity
  8
0
100
AcDbLine
 62
7
  6
CONTINUOUS
 10
168.2712424471
 20
111.690642696
 11
168.4795755818
 21
111.3714937978
  0
LINE
  5
369
100
AcDbEntity
  8
0
100
AcDbLine
 62
7
  6
CONTINUOUS
 10
170.0420755818
 20
110.2012809479
 11
170.2504093125
 21
109.8821320497
  0
LINE
  5
36A
100
AcDbEntity
  8
DRAFT
100
AcDbLine
 62
7
  6
CONTINUOUS
 10
164.2589683282
 20
119.7353450119
 11
164.1425100229
 21
119.9273507261
  0
LINE
  5
36B
100
AcDbEntity
  8
0
100
AcDbLine
 62
7
  6
CONTINUOUS
 10
170.5629093125
 20
110.3076639884
 11
170.4587424471
 21
110.5204299205
  0
LINE
  5
36C
100
AcDbEntity
  8
0
100
AcDbLine
 62
7
  6
CONTINUOUS
 10
169.1045755818
 20
111.1587277167
 11
168.8962424471
 21
111.690642696
  0
LINE
  5
36D
100
AcDbEntity
  8
0
100
AcDbLine
 62
7
  6
CONTINUOUS
 10
168.4795755818
 20
111.3714937978
 11
168.5837424471
 21
111.0523447507
  0
LINE
  5
36E
100
AcDbEntity
  8
0
100
AcDbLine
 62
7
  6
CONTINUOUS
 10
169.9379093125
 20
110.5204299205
 11
170.0420755818
 21
110.2012809479
  0
LINE
  5
36F
100
AcDbEntity
  8
DRAFT
100
AcDbLine
 62
7
  6
CONTINUOUS
 10
172.9999748714
 20
124.4273507261
 11
172.9999748714
 21
119.9273507261
  0
LINE
  5
370
100
AcDbEntity
  8
DRAFT
100
AcDbLine
 62
7
  6
CONTINUOUS
 10
172.9999748714
 20
84.7730835639
 11
172.9999748714
 21
80.2730835639
  0
LINE
  5
371
100
AcDbEntity
  8
0
100
AcDbLine
 62
7
  6
CONTINUOUS
 10
173.0629087164
 20
113.1800045186
 11
173.0629087164
 21
112.9672382885
  0
LINE
  5
372
100
AcDbEntity
  8
0
100
AcDbLine
 62
7
  6
CONTINUOUS
 10
173.1670761778
 20
110.9459617847
 11
173.1670761778
 21
110.5204299205
  0
LINE
  5
373
100
AcDbEntity
  8
DRAFT
100
AcDbLine
 62
7
  6
CONTINUOUS
 10
173.1919805856
 20
124.6193564403
 11
173.1919805856
 21
119.7353450119
  0
LINE
  5
374
100
AcDbEntity
  8
DRAFT
100
AcDbLine
 62
7
  6
CONTINUOUS
 10
173.1919805856
 20
84.9650892781
 11
173.1919805856
 21
80.0810778497
  0
LINE
  5
375
100
AcDbEntity
  8
0
100
AcDbLine
 62
7
  6
CONTINUOUS
 10
173.5837424471
 20
112.9672382885
 11
173.5837424471
 21
113.1800045186
  0
LINE
  5
376
100
AcDbEntity
  8
0
100
AcDbLine
 62
7
  6
CONTINUOUS
 10
173.6879087164
 20
110.5204299205
 11
173.6879087164
 21
110.9459617847
  0
LINE
  5
377
100
AcDbEntity
  8
0
100
AcDbLine
 62
7
  6
CONTINUOUS
 10
174.5212424471
 20
114.350217145
 11
174.5212424471
 21
109.350217145
  0
LINE
  5
378
100
AcDbEntity
  8
0
100
AcDbLine
 62
7
  6
CONTINUOUS
 10
175.1462424471
 20
109.9885150158
 11
175.1462424471
 21
111.5842597299
  0
LINE
  5
379
100
AcDbEntity
  8
0
100
AcDbLine
 62
7
  6
CONTINUOUS
 10
175.1462424471
 20
112.2225575262
 11
175.1462424471
 21
113.7119193488
  0
LINE
  5
37A
100
AcDbEntity
  8
DRAFT
100
AcDbLine
 62
7
  6
CONTINUOUS
 10
175.2363323173
 20
78.6472322619
 11
175.2363323173
 21
80.4532020281
  0
LINE
  5
37B
100
AcDbEntity
  8
DRAFT
100
AcDbLine
 62
7
  6
CONTINUOUS
 10
175.2363323173
 20
124.2472322619
 11
175.2363323173
 21
126.0532020281
  0
LINE
  5
37C
100
AcDbEntity
  8
DRAFT
100
AcDbLine
 62
7
  6
CONTINUOUS
 10
175.2712424471
 20
80.4182918982
 11
175.2712424471
 21
80.350217145
  0
LINE
  5
37D
100
AcDbEntity
  8
DRAFT
100
AcDbLine
 62
7
  6
CONTINUOUS
 10
175.2712424471
 20
78.6821423918
 11
175.2712424471
 21
78.8851272749
  0
LINE
  5
37E
100
AcDbEntity
  8
DRAFT
100
AcDbLine
 62
7
  6
CONTINUOUS
 10
175.2712424471
 20
125.8153070152
 11
175.2712424471
 21
126.0182918982
  0
LINE
  5
37F
100
AcDbEntity
  8
DRAFT
100
AcDbLine
 62
7
  6
CONTINUOUS
 10
175.3393172003
 20
125.7472322619
 11
175.3393172003
 21
124.4182918982
  0
LINE
  5
380
100
AcDbEntity
  8
DRAFT
100
AcDbLine
 62
7
  6
CONTINUOUS
 10
175.3393172003
 20
78.9532020281
 11
175.3393172003
 21
80.2821423918
  0
LINE
  5
381
100
AcDbEntity
  8
DRAFT
100
AcDbLine
 62
7
  6
CONTINUOUS
 10
175.4545206289
 20
124.2821423918
 11
175.4545206289
 21
124.4182918982
  0
LINE
  5
382
100
AcDbEntity
  8
0
100
AcDbLine
 62
7
  6
CONTINUOUS
 10
177.7504087164
 20
112.8608553224
 11
177.6462424471
 21
112.5417064243
  0
LINE
  5
383
100
AcDbEntity
  8
0
100
AcDbLine
 62
7
  6
CONTINUOUS
 10
178.2712424471
 20
112.4353234582
 11
178.3754087164
 21
112.7544723564
  0
LINE
  5
384
100
AcDbEntity
  8
0
100
AcDbLine
 62
7
  6
CONTINUOUS
 10
177.7504087164
 20
110.6268128865
 11
177.6462424471
 21
110.3076639884
  0
LINE
  5
385
100
AcDbEntity
  8
0
100
AcDbLine
 62
7
  6
CONTINUOUS
 10
178.2712424471
 20
110.2012809479
 11
178.3754087164
 21
110.5204299205
  0
LINE
  5
386
100
AcDbEntity
  8
IMPORT_IGES
100
AcDbLine
 62
253
  6
CONTINUOUS
 10
166.1573593471
 20
85.4663330659
 11
166.1226947243
 21
85.4316684048
  0
LINE
  5
387
100
AcDbEntity
  8
IMPORT_IGES
100
AcDbLine
 62
253
  6
CONTINUOUS
 10
167.9597904567
 20
87.2687655984
 11
167.9251254138
 21
87.2341004532
  0
LINE
  5
388
100
AcDbEntity
  8
DRAFT
100
AcDbLine
 62
7
  6
CONTINUOUS
 10
175.3393172003
 20
124.4182918982
 11
181.8712424471
 21
124.4182918982
  0
LINE
  5
389
100
AcDbEntity
  8
DRAFT
100
AcDbLine
 62
7
  6
CONTINUOUS
 10
114.7712424471
 20
124.4273507261
 11
172.9999748714
 21
124.4273507261
  0
LINE
  5
38A
100
AcDbEntity
  8
DRAFT
100
AcDbLine
 62
7
  6
CONTINUOUS
 10
114.5792367329
 20
124.6193564403
 11
173.1919805856
 21
124.6193564403
  0
LINE
  5
38B
100
AcDbEntity
  8
DRAFT
100
AcDbLine
 62
7
  6
CONTINUOUS
 10
181.4049132004
 20
125.450217145
 11
175.7375716939
 21
125.450217145
  0
LINE
  5
38C
100
AcDbEntity
  8
DRAFT
100
AcDbLine
 62
7
  6
CONTINUOUS
 10
181.8712424471
 20
125.7472322619
 11
181.4443147783
 21
125.7472322619
  0
LINE
  5
38D
100
AcDbEntity
  8
DRAFT
100
AcDbLine
 62
7
  6
CONTINUOUS
 10
175.6981701159
 20
125.7472322619
 11
175.3393172003
 21
125.7472322619
  0
LINE
  5
38E
100
AcDbEntity
  8
RACCORDO
100
AcDbLine
 62
7
  6
CONTINUOUS
 10
175.2712424471
 20
125.950217145
 11
175.6712424471
 21
125.950217145
  0
LINE
  5
38F
100
AcDbEntity
  8
DRAFT
100
AcDbLine
 62
7
  6
CONTINUOUS
 10
175.6712424471
 20
125.950217145
 11
181.4712424471
 21
125.950217145
  0
LINE
  5
390
100
AcDbEntity
  8
RACCORDO
100
AcDbLine
 62
7
  6
CONTINUOUS
 10
181.4712424471
 20
125.950217145
 11
181.9393172003
 21
125.950217145
  0
LINE
  5
391
100
AcDbEntity
  8
DRAFT
100
AcDbLine
 62
7
  6
CONTINUOUS
 10
175.2712424471
 20
126.0182918982
 11
181.9393172003
 21
126.0182918982
  0
LINE
  5
392
100
AcDbEntity
  8
DRAFT
100
AcDbLine
 62
7
  6
CONTINUOUS
 10
175.2363323173
 20
126.0532020281
 11
181.9742273302
 21
126.0532020281
  0
LINE
  5
393
100
AcDbEntity
  8
RACCORDO
100
AcDbLine
 62
7
  6
CONTINUOUS
 10
116.7355707931
 20
127.3851272749
 11
184.8069141012
 21
127.3851272749
  0
LINE
  5
394
100
AcDbEntity
  8
IMPORT_IGES
100
AcDbLine
 62
253
  6
CONTINUOUS
 10
166.12269402
 20
119.2687651809
 11
166.1573591424
 21
119.2341001185
  0
LINE
  5
395
100
AcDbEntity
  8
0
100
AcDbLine
 62
7
  6
CONTINUOUS
 10
173.4795761778
 20
113.6055363827
 11
173.0629087164
 21
114.0310682469
  0
LINE
  5
396
100
AcDbEntity
  8
0
100
AcDbLine
 62
7
  6
CONTINUOUS
 10
173.5837424471
 20
111.3714937978
 11
173.3754087164
 21
111.690642696
  0
LINE
  5
397
100
AcDbEntity
  8
0
100
AcDbLine
 62
7
  6
CONTINUOUS
 10
172.8545761778
 20
113.4991534167
 11
173.0629087164
 21
113.1800045186
  0
LINE
  5
398
100
AcDbEntity
  8
0
100
AcDbLine
 62
7
  6
CONTINUOUS
 10
172.9587424471
 20
111.3714937978
 11
173.1670761778
 21
110.9459617847
  0
LINE
  5
399
100
AcDbEntity
  8
0
100
AcDbLine
 62
7
  6
CONTINUOUS
 10
173.6879087164
 20
110.9459617847
 11
173.5837424471
 21
111.3714937978
  0
LINE
  5
39A
100
AcDbEntity
  8
0
100
AcDbLine
 62
7
  6
CONTINUOUS
 10
173.5837424471
 20
113.1800045186
 11
173.4795761778
 21
113.6055363827
  0
LINE
  5
39B
100
AcDbEntity
  8
0
100
AcDbLine
 62
7
  6
CONTINUOUS
 10
177.7504087164
 20
113.0736212545
 11
177.7504087164
 21
112.8608553224
  0
LINE
  5
39C
100
AcDbEntity
  8
0
100
AcDbLine
 62
7
  6
CONTINUOUS
 10
177.7504087164
 20
110.9459617847
 11
177.7504087164
 21
110.6268128865
  0
LINE
  5
39D
100
AcDbEntity
  8
0
100
AcDbLine
 62
7
  6
CONTINUOUS
 10
178.3754087164
 20
110.5204299205
 11
178.3754087164
 21
111.0523447507
  0
LINE
  5
39E
100
AcDbEntity
  8
0
100
AcDbLine
 62
7
  6
CONTINUOUS
 10
178.3754087164
 20
112.7544723564
 11
178.3754087164
 21
113.1800045186
  0
LINE
  5
39F
100
AcDbEntity
  8
DRAFT
100
AcDbLine
 62
7
  6
CONTINUOUS
 10
181.4712424471
 20
125.950217145
 11
181.4049132004
 21
125.450217145
  0
LINE
  5
3A0
100
AcDbEntity
  8
DRAFT
100
AcDbLine
 62
7
  6
CONTINUOUS
 10
175.7375716939
 20
79.250217145
 11
175.6712424471
 21
78.750217145
  0
LINE
  5
3A1
100
AcDbEntity
  8
DRAFT
100
AcDbLine
 62
7
  6
CONTINUOUS
 10
173.1919805856
 20
84.9650892781
 11
172.9999748714
 21
84.7730835639
  0
LINE
  5
3A2
100
AcDbEntity
  8
0
100
AcDbLine
 62
7
  6
CONTINUOUS
 10
177.9587424471
 20
113.9246852808
 11
177.5420761778
 21
114.243834179
  0
LINE
  5
3A3
100
AcDbEntity
  8
DRAFT
100
AcDbLine
 62
7
  6
CONTINUOUS
 10
173.1919805856
 20
119.7353450119
 11
172.9999748714
 21
119.9273507261
  0
LINE
  5
3A4
100
AcDbEntity
  8
0
100
AcDbLine
 62
7
  6
CONTINUOUS
 10
177.4379087164
 20
111.4778767639
 11
177.6462424471
 21
111.2651108318
  0
LINE
  5
3A5
100
AcDbEntity
  8
0
100
AcDbLine
 62
7
  6
CONTINUOUS
 10
177.4379087164
 20
113.6055363827
 11
177.6462424471
 21
113.3927704506
  0
LINE
  5
3A6
100
AcDbEntity
  8
0
100
AcDbLine
 62
7
  6
CONTINUOUS
 10
178.2712424471
 20
111.3714937978
 11
177.9587424471
 21
111.797025662
  0
LINE
  5
3A7
100
AcDbEntity
  8
DRAFT
100
AcDbLine
 62
7
  6
CONTINUOUS
 10
181.4049132004
 20
79.250217145
 11
181.4712424471
 21
78.750217145
  0
LINE
  5
3A8
100
AcDbEntity
  8
DRAFT
100
AcDbLine
 62
7
  6
CONTINUOUS
 10
175.6712424471
 20
125.950217145
 11
175.7375716939
 21
125.450217145
  0
LINE
  5
3A9
100
AcDbEntity
  8
IMPORT_IGES
100
AcDbLine
 62
7
  6
CONTINUOUS
 10
181.0712424471
 20
98.500217145
 11
181.0712424471
 21
106.200217145
  0
LINE
  5
3AA
100
AcDbEntity
  8
DRAFT
100
AcDbLine
 62
7
  6
CONTINUOUS
 10
181.0712424471
 20
94.4176708806
 11
181.0712424471
 21
110.2827634094
  0
LINE
  5
3AB
100
AcDbEntity
  8
DRAFT
100
AcDbLine
 62
7
  6
CONTINUOUS
 10
181.8712424471
 20
125.7472322619
 11
181.8712424471
 21
124.4182918982
  0
LINE
  5
3AC
100
AcDbEntity
  8
DRAFT
100
AcDbLine
 62
7
  6
CONTINUOUS
 10
181.8712424471
 20
78.9532020281
 11
181.8712424471
 21
80.2821423918
  0
LINE
  5
3AD
100
AcDbEntity
  8
DRAFT
100
AcDbLine
 62
7
  6
CONTINUOUS
 10
181.9393172003
 20
126.0182918982
 11
181.9393172003
 21
125.8153070152
  0
LINE
  5
3AE
100
AcDbEntity
  8
DRAFT
100
AcDbLine
 62
7
  6
CONTINUOUS
 10
181.9393172003
 20
78.8851272749
 11
181.9393172003
 21
78.6821423918
  0
LINE
  5
3AF
100
AcDbEntity
  8
DRAFT
100
AcDbLine
 62
7
  6
CONTINUOUS
 10
181.9393172003
 20
80.350217145
 11
181.9393172003
 21
80.4182918982
  0
LINE
  5
3B0
100
AcDbEntity
  8
DRAFT
100
AcDbLine
 62
7
  6
CONTINUOUS
 10
181.9393172003
 20
124.2821423918
 11
181.9393172003
 21
124.350217145
  0
LINE
  5
3B1
100
AcDbEntity
  8
DRAFT
100
AcDbLine
 62
7
  6
CONTINUOUS
 10
181.9742273302
 20
126.0532020281
 11
181.9742273302
 21
124.2472322619
  0
LINE
  5
3B2
100
AcDbEntity
  8
DRAFT
100
AcDbLine
 62
7
  6
CONTINUOUS
 10
181.9742273302
 20
80.4532020281
 11
181.9742273302
 21
78.6472322619
  0
LINE
  5
3B3
100
AcDbEntity
  8
0
100
AcDbLine
 62
7
  6
CONTINUOUS
 10
178.2712424471
 20
113.4991534167
 11
177.9587424471
 21
113.9246852808
  0
LINE
  5
3B4
100
AcDbEntity
  8
0
100
AcDbLine
 62
7
  6
CONTINUOUS
 10
177.6462424471
 20
111.2651108318
 11
177.7504087164
 21
110.9459617847
  0
LINE
  5
3B5
100
AcDbEntity
  8
0
100
AcDbLine
 62
7
  6
CONTINUOUS
 10
178.3754087164
 20
111.0523447507
 11
178.2712424471
 21
111.3714937978
  0
LINE
  5
3B6
100
AcDbEntity
  8
0
100
AcDbLine
 62
7
  6
CONTINUOUS
 10
177.6462424471
 20
113.3927704506
 11
177.7504087164
 21
113.0736212545
  0
LINE
  5
3B7
100
AcDbEntity
  8
0
100
AcDbLine
 62
7
  6
CONTINUOUS
 10
178.3754087164
 20
113.1800045186
 11
178.2712424471
 21
113.4991534167
  0
LINE
  5
3B8
100
AcDbEntity
  8
IMPORT_IGES
100
AcDbLine
 62
7
  6
CONTINUOUS
 10
182.9712424471
 20
106.200217145
 11
182.9712424471
 21
98.500217145
  0
LINE
  5
3B9
100
AcDbEntity
  8
IMPORT_IGES
100
AcDbLine
 62
7
  6
CONTINUOUS
 10
182.9959647722
 20
104.400217145
 11
182.9959647722
 21
100.300217145
  0
LINE
  5
3BA
100
AcDbEntity
  8
IMPORT_IGES
100
AcDbLine
 62
7
  6
CONTINUOUS
 10
183.3712424471
 20
104.400217145
 11
183.3712424471
 21
100.300217145
  0
LINE
  5
3BB
100
AcDbEntity
  8
IMPORT_IGES
100
AcDbLine
 62
7
  6
CONTINUOUS
 10
184.5712424471
 20
110.400217145
 11
184.5712424471
 21
107.175217145
  0
LINE
  5
3BC
100
AcDbEntity
  8
IMPORT_IGES
100
AcDbLine
 62
7
  6
CONTINUOUS
 10
184.5712424471
 20
94.300217145
 11
184.5712424471
 21
97.525217145
  0
LINE
  5
3BD
100
AcDbEntity
  8
DRAFT
100
AcDbLine
 62
7
  6
CONTINUOUS
 10
175.2712424471
 20
78.8851272749
 11
175.3393172003
 21
78.9532020281
  0
LINE
  5
3BE
100
AcDbEntity
  8
DRAFT
100
AcDbLine
 62
7
  6
CONTINUOUS
 10
175.2363323173
 20
78.6472322619
 11
175.2712424471
 21
78.6821423918
  0
LINE
  5
3BF
100
AcDbEntity
  8
DRAFT
100
AcDbLine
 62
7
  6
CONTINUOUS
 10
175.2712424471
 20
125.8153070152
 11
175.3393172003
 21
125.7472322619
  0
LINE
  5
3C0
100
AcDbEntity
  8
DRAFT
100
AcDbLine
 62
7
  6
CONTINUOUS
 10
175.2363323173
 20
126.0532020281
 11
175.2712424471
 21
126.0182918982
  0
LINE
  5
3C1
100
AcDbEntity
  8
IMPORT_IGES
100
AcDbLine
 62
7
  6
CONTINUOUS
 10
186.4712424471
 20
97.525217145
 11
186.4712424471
 21
94.300217145
  0
LINE
  5
3C2
100
AcDbEntity
  8
IMPORT_IGES
100
AcDbLine
 62
7
  6
CONTINUOUS
 10
186.4712424471
 20
107.175217145
 11
186.4712424471
 21
110.400217145
  0
LINE
  5
3C3
100
AcDbEntity
  8
IMPORT_IGES
100
AcDbLine
 62
7
  6
CONTINUOUS
 10
186.5212424471
 20
99.850217145
 11
186.5212424471
 21
104.850217145
  0
LINE
  5
3C4
100
AcDbEntity
  8
IMPORT_IGES
100
AcDbLine
 62
7
  6
CONTINUOUS
 10
186.7512424471
 20
99.850217145
 11
186.7512424471
 21
104.850217145
  0
LINE
  5
3C5
100
AcDbEntity
  8
DRAFT
100
AcDbLine
 62
7
  6
CONTINUOUS
 10
187.9537887115
 20
110.2827634094
 11
187.9537887115
 21
94.4176708806
  0
LINE
  5
3C6
100
AcDbEntity
  8
RACCORDO
100
AcDbLine
 62
7
  6
CONTINUOUS
 10
189.806152577
 20
122.3858887991
 11
189.806152577
 21
82.3145454909
  0
LINE
  5
3C7
100
AcDbEntity
  8
DRAFT
100
AcDbLine
 62
7
  6
CONTINUOUS
 10
181.9742273302
 20
80.4532020281
 11
181.9393172003
 21
80.4182918982
  0
LINE
  5
3C8
100
AcDbEntity
  8
DRAFT
100
AcDbLine
 62
7
  6
CONTINUOUS
 10
181.9393172003
 20
80.350217145
 11
181.8712424471
 21
80.2821423918
  0
LINE
  5
3C9
100
AcDbEntity
  8
DRAFT
100
AcDbLine
 62
7
  6
CONTINUOUS
 10
181.9742273302
 20
124.2472322619
 11
181.9393172003
 21
124.2821423918
  0
LINE
  5
3CA
100
AcDbEntity
  8
DRAFT
100
AcDbLine
 62
7
  6
CONTINUOUS
 10
181.9393172003
 20
124.350217145
 11
181.8712424471
 21
124.4182918982
  0
ARC
  5
3CB
100
AcDbEntity
  8
DRAFT
100
AcDbCircle
 62
7
  6
CONTINUOUS
 10
143.0412424471
 20
86.350217145
 40
3.3
100
AcDbArc
 50
208.54959402
 51
331.45040598
  0
ARC
  5
3CC
100
AcDbEntity
  8
DRAFT
100
AcDbCircle
 62
7
  6
CONTINUOUS
 10
131.0412424471
 20
86.350217145
 40
3.3
100
AcDbArc
 50
208.54959402
 51
331.45040598
  0
ARC
  5
3CD
100
AcDbEntity
  8
DRAFT
100
AcDbCircle
 62
7
  6
CONTINUOUS
 10
143.0412424471
 20
86.350217145
 40
3.1079942858
100
AcDbArc
 50
206.4659671263
 51
333.5340328737
  0
ARC
  5
3CE
100
AcDbEntity
  8
DRAFT
100
AcDbCircle
 62
7
  6
CONTINUOUS
 10
131.0412424471
 20
86.350217145
 40
3.1079942858
100
AcDbArc
 50
206.4659671263
 51
333.5340328737
  0
CIRCLE
  5
3CF
100
AcDbEntity
  8
DRAFT
100
AcDbCircle
 62
7
  6
CONTINUOUS
 10
143.0412424471
 20
86.350217145
 40
1.3
  0
CIRCLE
  5
3D0
100
AcDbEntity
  8
DRAFT
100
AcDbCircle
 62
7
  6
CONTINUOUS
 10
131.0412424471
 20
86.350217145
 40
1.3
  0
ARC
  5
3D1
100
AcDbEntity
  8
IMPORT_IGES
100
AcDbCircle
 62
7
  6
CONTINUOUS
 10
131.0412424471
 20
86.350217145
 40
1.25
100
AcDbArc
 50
0.0038562425
 51
266.485142113
  0
ARC
  5
3D2
100
AcDbEntity
  8
IMPORT_IGES
100
AcDbCircle
 62
7
  6
CONTINUOUS
 10
143.0412424471
 20
86.350217145
 40
1.25
100
AcDbArc
 50
0.0038562425
 51
266.485142113
  0
CIRCLE
  5
3D3
100
AcDbEntity
  8
IMPORT_IGES
100
AcDbCircle
 62
7
  6
CONTINUOUS
 10
131.0412424471
 20
86.350217145
 40
1.1578117746
  0
CIRCLE
  5
3D4
100
AcDbEntity
  8
IMPORT_IGES
100
AcDbCircle
 62
7
  6
CONTINUOUS
 10
143.0412424471
 20
86.350217145
 40
1.1578117746
  0
ARC
  5
3D5
100
AcDbEntity
  8
DRAFT
100
AcDbCircle
 62
7
  6
CONTINUOUS
 10
146.2712424471
 20
102.350217145
 40
6.5
100
AcDbArc
 50
184.4117257858
 51
355.5882742142
  0
ARC
  5
3D6
100
AcDbEntity
  8
DRAFT
100
AcDbCircle
 62
7
  6
CONTINUOUS
 10
146.2712424471
 20
102.350217145
 40
6.5
100
AcDbArc
 50
4.4117257858
 51
175.5882742142
  0
ARC
  5
3D7
100
AcDbEntity
  8
DRAFT
100
AcDbCircle
 62
7
  6
CONTINUOUS
 10
146.2712424471
 20
102.350217145
 40
5.7
100
AcDbArc
 50
185.0324134955
 51
354.9675865045
  0
ARC
  5
3D8
100
AcDbEntity
  8
DRAFT
100
AcDbCircle
 62
7
  6
CONTINUOUS
 10
146.2712424471
 20
102.350217145
 40
5.7
100
AcDbArc
 50
5.0324134955
 51
174.9675865045
  0
ARC
  5
3D9
100
AcDbEntity
  8
DRAFT
100
AcDbCircle
 62
7
  6
CONTINUOUS
 10
131.0412424471
 20
118.350217145
 40
3.3
100
AcDbArc
 50
28.54959402
 51
151.45040598
  0
ARC
  5
3DA
100
AcDbEntity
  8
DRAFT
100
AcDbCircle
 62
7
  6
CONTINUOUS
 10
143.0412424471
 20
118.350217145
 40
3.3
100
AcDbArc
 50
28.54959402
 51
151.45040598
  0
ARC
  5
3DB
100
AcDbEntity
  8
DRAFT
100
AcDbCircle
 62
7
  6
CONTINUOUS
 10
143.0412424471
 20
118.350217145
 40
3.1079942858
100
AcDbArc
 50
26.4659671263
 51
153.5340328737
  0
ARC
  5
3DC
100
AcDbEntity
  8
DRAFT
100
AcDbCircle
 62
7
  6
CONTINUOUS
 10
131.0412424471
 20
118.350217145
 40
3.1079942858
100
AcDbArc
 50
26.4659671263
 51
153.5340328737
  0
CIRCLE
  5
3DD
100
AcDbEntity
  8
DRAFT
100
AcDbCircle
 62
7
  6
CONTINUOUS
 10
128.7712424471
 20
102.350217145
 40
2.0
  0
CIRCLE
  5
3DE
100
AcDbEntity
  8
DRAFT
100
AcDbCircle
 62
7
  6
CONTINUOUS
 10
143.0412424471
 20
118.350217145
 40
1.3
  0
CIRCLE
  5
3DF
100
AcDbEntity
  8
DRAFT
100
AcDbCircle
 62
7
  6
CONTINUOUS
 10
131.0412424471
 20
118.350217145
 40
1.3
  0
ARC
  5
3E0
100
AcDbEntity
  8
IMPORT_IGES
100
AcDbCircle
 62
7
  6
CONTINUOUS
 10
131.0412424471
 20
118.350217145
 40
1.25
100
AcDbArc
 50
0.0038562425
 51
266.485142113
  0
ARC
  5
3E1
100
AcDbEntity
  8
IMPORT_IGES
100
AcDbCircle
 62
7
  6
CONTINUOUS
 10
143.0412424471
 20
118.350217145
 40
1.25
100
AcDbArc
 50
0.0038562425
 51
266.485142113
  0
CIRCLE
  5
3E2
100
AcDbEntity
  8
IMPORT_IGES
100
AcDbCircle
 62
7
  6
CONTINUOUS
 10
131.0412424471
 20
118.350217145
 40
1.1578117746
  0
CIRCLE
  5
3E3
100
AcDbEntity
  8
IMPORT_IGES
100
AcDbCircle
 62
7
  6
CONTINUOUS
 10
143.0412424471
 20
118.350217145
 40
1.1578117746
  0
ARC
  5
3E4
100
AcDbEntity
  8
DRAFT
100
AcDbCircle
 62
7
  6
CONTINUOUS
 10
155.0412424471
 20
86.350217145
 40
3.3
100
AcDbArc
 50
208.54959402
 51
331.45040598
  0
ARC
  5
3E5
100
AcDbEntity
  8
DRAFT
100
AcDbCircle
 62
7
  6
CONTINUOUS
 10
155.0412424471
 20
86.350217145
 40
3.1079942858
100
AcDbArc
 50
206.4659671263
 51
333.5340328737
  0
CIRCLE
  5
3E6
100
AcDbEntity
  8
DRAFT
100
AcDbCircle
 62
7
  6
CONTINUOUS
 10
155.0412424471
 20
86.350217145
 40
1.3
  0
ARC
  5
3E7
100
AcDbEntity
  8
IMPORT_IGES
100
AcDbCircle
 62
7
  6
CONTINUOUS
 10
155.0412424471
 20
86.350217145
 40
1.25
100
AcDbArc
 50
0.0038562425
 51
266.485142113
  0
CIRCLE
  5
3E8
100
AcDbEntity
  8
IMPORT_IGES
100
AcDbCircle
 62
7
  6
CONTINUOUS
 10
155.0412424471
 20
86.350217145
 40
1.1578117746
  0
ARC
  5
3E9
100
AcDbEntity
  8
DRAFT
100
AcDbCircle
 62
7
  6
CONTINUOUS
 10
167.0412424471
 20
86.350217145
 40
3.3
100
AcDbArc
 50
208.54959402
 51
331.45040598
  0
ARC
  5
3EA
100
AcDbEntity
  8
DRAFT
100
AcDbCircle
 62
7
  6
CONTINUOUS
 10
167.0412424471
 20
86.350217145
 40
3.1079942858
100
AcDbArc
 50
206.4659671263
 51
333.5340328737
  0
CIRCLE
  5
3EB
100
AcDbEntity
  8
DRAFT
100
AcDbCircle
 62
7
  6
CONTINUOUS
 10
167.0412424471
 20
86.350217145
 40
1.3
  0
ARC
  5
3EC
100
AcDbEntity
  8
IMPORT_IGES
100
AcDbCircle
 62
7
  6
CONTINUOUS
 10
167.0412424471
 20
86.350217145
 40
1.25
100
AcDbArc
 50
0.0038562425
 51
266.485142113
  0
CIRCLE
  5
3ED
100
AcDbEntity
  8
IMPORT_IGES
100
AcDbCircle
 62
7
  6
CONTINUOUS
 10
167.0412424471
 20
86.350217145
 40
1.1578117746
  0
ARC
  5
3EE
100
AcDbEntity
  8
ASSI
100
AcDbCircle
 62
7
  6
CONTINUOUS
 10
167.7063544471
 20
94.898257145
 40
2.5499986575
100
AcDbArc
 50
87.752529198
 51
272.247470802
  0
ARC
  5
3EF
100
AcDbEntity
  8
IMPORT_IGES
100
AcDbCircle
 62
7
  6
CONTINUOUS
 10
167.7063544471
 20
94.898257145
 40
2.5499986575
100
AcDbArc
 50
87.7524617393
 51
272.2474682623
  0
ARC
  5
3F0
100
AcDbEntity
  8
ASSI
100
AcDbCircle
 62
7
  6
CONTINUOUS
 10
163.3212444471
 20
94.898257145
 40
2.5499985007
100
AcDbArc
 50
87.7525290597
 51
272.2474709403
  0
ARC
  5
3F1
100
AcDbEntity
  8
IMPORT_IGES
100
AcDbCircle
 62
7
  6
CONTINUOUS
 10
163.3212444471
 20
94.898257145
 40
2.5499985007
100
AcDbArc
 50
87.752551546
 51
272.2474682623
  0
ARC
  5
3F2
100
AcDbEntity
  8
ASSI
100
AcDbCircle
 62
7
  6
CONTINUOUS
 10
167.7063544471
 20
94.898257145
 40
1.7999999246
100
AcDbArc
 50
86.8152613297
 51
167.9753003079
  0
ARC
  5
3F3
100
AcDbEntity
  8
ASSI
100
AcDbCircle
 62
7
  6
CONTINUOUS
 10
163.3212444471
 20
94.898257145
 40
1.7999999246
100
AcDbArc
 50
86.8152613297
 51
269.2725457642
  0
ARC
  5
3F4
100
AcDbEntity
  8
IMPORT_IGES
100
AcDbCircle
 62
7
  6
CONTINUOUS
 10
167.7063544471
 20
94.898257145
 40
1.7999999246
100
AcDbArc
 50
86.8152613297
 51
167.9753174348
  0
ARC
  5
3F5
100
AcDbEntity
  8
IMPORT_IGES
100
AcDbCircle
 62
7
  6
CONTINUOUS
 10
163.3212444471
 20
94.898257145
 40
1.7999999246
100
AcDbArc
 50
86.8152613297
 51
273.1847351336
  0
ARC
  5
3F6
100
AcDbEntity
  8
ASSI
100
AcDbCircle
 62
7
  6
CONTINUOUS
 10
167.7063544471
 20
94.898257145
 40
1.7999968808
100
AcDbArc
 50
192.0247203293
 51
273.1847440612
  0
ARC
  5
3F7
100
AcDbEntity
  8
IMPORT_IGES
100
AcDbCircle
 62
7
  6
CONTINUOUS
 10
167.7063544471
 20
94.898257145
 40
1.7999968808
100
AcDbArc
 50
192.0247203293
 51
273.1848322474
  0
ARC
  5
3F8
100
AcDbEntity
  8
DRAFT
100
AcDbCircle
 62
7
  6
CONTINUOUS
 10
155.0412424471
 20
118.350217145
 40
3.3
100
AcDbArc
 50
28.54959402
 51
151.45040598
  0
ARC
  5
3F9
100
AcDbEntity
  8
DRAFT
100
AcDbCircle
 62
7
  6
CONTINUOUS
 10
167.0412424471
 20
118.350217145
 40
3.3
100
AcDbArc
 50
28.54959402
 51
151.45040598
  0
ARC
  5
3FA
100
AcDbEntity
  8
DRAFT
100
AcDbCircle
 62
7
  6
CONTINUOUS
 10
167.0412424471
 20
118.350217145
 40
3.1079942858
100
AcDbArc
 50
26.4659671263
 51
153.5340328737
  0
ARC
  5
3FB
100
AcDbEntity
  8
DRAFT
100
AcDbCircle
 62
7
  6
CONTINUOUS
 10
155.0412424471
 20
118.350217145
 40
3.1079942858
100
AcDbArc
 50
26.4659671263
 51
153.5340328737
  0
CIRCLE
  5
3FC
100
AcDbEntity
  8
DRAFT
100
AcDbCircle
 62
7
  6
CONTINUOUS
 10
163.7712424471
 20
102.350217145
 40
2.0
  0
CIRCLE
  5
3FD
100
AcDbEntity
  8
DRAFT
100
AcDbCircle
 62
7
  6
CONTINUOUS
 10
167.0412424471
 20
118.350217145
 40
1.3
  0
CIRCLE
  5
3FE
100
AcDbEntity
  8
DRAFT
100
AcDbCircle
 62
7
  6
CONTINUOUS
 10
155.0412424471
 20
118.350217145
 40
1.3
  0
ARC
  5
3FF
100
AcDbEntity
  8
IMPORT_IGES
100
AcDbCircle
 62
7
  6
CONTINUOUS
 10
155.0412424471
 20
118.350217145
 40
1.25
100
AcDbArc
 50
0.0038562425
 51
266.485142113
  0
ARC
  5
400
100
AcDbEntity
  8
IMPORT_IGES
100
AcDbCircle
 62
7
  6
CONTINUOUS
 10
167.0412424471
 20
118.350217145
 40
1.25
100
AcDbArc
 50
0.0038562425
 51
266.485142113
  0
CIRCLE
  5
401
100
AcDbEntity
  8
IMPORT_IGES
100
AcDbCircle
 62
7
  6
CONTINUOUS
 10
155.0412424471
 20
118.350217145
 40
1.1578117746
  0
CIRCLE
  5
402
100
AcDbEntity
  8
IMPORT_IGES
100
AcDbCircle
 62
7
  6
CONTINUOUS
 10
167.0412424471
 20
118.350217145
 40
1.1578117746
  0
ELLIPSE
  5
403
100
AcDbEntity
  8
RACCORDO
100
AcDbEllipse
 62
7
  6
CONTINUOUS
 10
116.7370939575
 20
82.3160686554
 30
0.0
 11
3.5366109458
 21
3.5366109458
 31
0.0
 40
0.9996954599
 41
2.3563467834
 42
3.9268385237
  0
ELLIPSE
  5
404
100
AcDbEntity
  8
RACCORDO
100
AcDbEllipse
 62
7
  6
CONTINUOUS
 10
116.7370939575
 20
122.3843656347
 30
0.0
 11
3.5366109458
 21
-3.5366109458
 31
0.0
 40
0.9996954599
 41
2.3563467834
 42
3.9268385237
  0
ELLIPSE
  5
405
100
AcDbEntity
  8
RACCORDO
100
AcDbEllipse
 62
7
  6
CONTINUOUS
 10
184.8053909368
 20
122.3843656347
 30
0.0
 11
-3.5366109458
 21
-3.5366109458
 31
0.0
 40
0.9996954599
 41
2.3563467834
 42
3.9268385237
  0
ELLIPSE
  5
406
100
AcDbEntity
  8
RACCORDO
100
AcDbEllipse
 62
7
  6
CONTINUOUS
 10
184.8053909368
 20
82.3160686554
 30
0.0
 11
-3.5366109458
 21
3.5366109458
 31
0.0
 40
0.9996954599
 41
2.3563467834
 42
3.9268385237
  0
ENDSEC
  0
SECTION
  2
OBJECTS
  0
DICTIONARY
  5
C
100
AcDbDictionary
280
0
281
1
  3
ACAD_GROUP
350
D
  3
ACAD_MLINESTYLE
350
17
  3
ACAD_LAYOUT
350
1A
  3
ACAD_PLOTSETTINGS
350
19
  3
ACAD_PLOTSTYLENAME
350
E
  0
DICTIONARY
  5
D
102
{ACAD_REACTORS
330
C
102
}
100
AcDbDictionary
280
0
281
1
  0
ACDBDICTIONARYWDFLT
  5
E
102
{ACAD_REACTORS
330
C
102
}
100
AcDbDictionary
281
1
  3
Normal
350
F
100
AcDbDictionaryWithDefault
340
F
  0
DICTIONARY
  5
17
102
{ACAD_REACTORS
330
C
102
}
100
AcDbDictionary
280
0
281
1
  3
Standard
350
18
  0
DICTIONARY
  5
19
102
{ACAD_REACTORS
330
C
102
}
100
AcDbDictionary
281
1
  0
DICTIONARY
  5
1A
102
{ACAD_REACTORS
330
C
102
}
100
AcDbDictionary
281
1
  3
Model
350
407
  3
Layout1
350
408
  0
ACDBPLACEHOLDER
  5
F
102
{ACAD_REACTORS
330
E
102
}
  0
MLINESTYLE
  5
18
102
{ACAD_REACTORS
330
17
102
}
100
AcDbMlineStyle
  2
STANDARD
 70
0
  3

 62
256
 51
90.0
 52
90.0
 71
2
 49
0.5
 62
256
  6
BYLAYER
 49
-0.5
 62
256
  6
BYLAYER
  0
LAYOUT
  5
407
102
{ACAD_REACTORS
330
1A
102
}
100
AcDbPlotSettings
  1

  2
none_device
  4
ISO_A4_(297.00_x_210.00_MM)
  6

 40
0.0
 41
0.0
 42
0.0
 43
0.0
 44
297.0
 45
210.0
 46
0.0
 47
0.0
 48
0.0
 49
0.0
140
0.0
141
0.0
142
1.0
143
1.0
 70
1024
 72
1
 73
0
 74
0
  7

 75
0
147
1.0
148
0.0
149
0.0
100
AcDbLayout
  1
Model
 70
0
 71
0
 10
0.0
 20
0.0
 11
297.0
 21
210.0
 12
0.0
 22
0.0
 32
0.0
 14
0.0
 24
0.0
 34
0.0
 15
0.0
 25
0.0
 35
0.0
146
0.0
 13
0.0
 23
0.0
 33
0.0
 16
1.0
 26
0.0
 36
0.0
 17
0.0
 27
1.0
 37
0.0
 76
0
330
221
345
0
346
0
  0
LAYOUT
  5
408
102
{ACAD_REACTORS
330
1A
102
}
100
AcDbPlotSettings
  1

  2
none_device
  4
ISO_A4_(297.00_x_210.00_MM)
  6

 40
0.0
 41
0.0
 42
0.0
 43
0.0
 44
297.0
 45
210.0
 46
0.0
 47
0.0
 48
0.0
 49
0.0
140
0.0
141
0.0
142
1.0
143
1.0
 70
0
 72
1
 73
0
 74
0
  7

 75
0
147
1.0
148
0.0
149
0.0
100
AcDbLayout
  1
Layout1
 70
0
 71
1
 10
0.0
 20
0.0
 11
297.0
 21
210.0
 12
0.0
 22
0.0
 32
0.0
 14
0.0
 24
0.0
 34
0.0
 15
0.0
 25
0.0
 35
0.0
146
0.0
 13
0.0
 23
0.0
 33
0.0
 16
1.0
 26
0.0
 36
0.0
 17
0.0
 27
1.0
 37
0.0
 76
0
330
222
345
0
346
0
  0
ENDSEC
  0
EOF
