  0
SECTION
  2
HEADER
  9
$ACADVER
  1
AC1024
  9
$DWGCODEPAGE
  3
ANSI_1252
  9
$EXTMAX
 10
297.0
 20
210.0
 30
0.0
  9
$EXTMIN
 10
0.0
 20
0.0
 30
0.0
  9
$LIMMIN
 10
0.0
 20
0.0
  9
$LIMMAX
 10
297.0
 20
210.0
  9
$VIEWCTR
 10
148.5
 20
105.0
  9
$VIEWSIZE
 40
210.0
  9
$CLAYER
  8
0
  9
$LTSCALE
 40
16.335
  9
$CELTYPE
  6
BYLAYER
  9
$DIMSCALE
 40
1.0
  9
$DIMASZ
 40
3.0
  9
$DIMEXO
 40
0.5
  9
$DIMDLI
 40
11.286
  9
$DIMEXE
 40
1.5
  9
$DIMCEN
 40
2.673
  9
$DIMLFAC
 40
1.0
  9
$DIMBLK
  1
_FILLED
  9
$DIMALT
 70
0
  9
$DIMALTF
 40
0.0393700787
  9
$DIMTXT
 40
3.0
  9
$DIMTOL
 70
1
  9
$DIMLIM
 70
0
  9
$DIMTFAC
 40
1.0
  9
$DIMTP
 40
0.01
  9
$DIMTM
 40
0.01
  9
$DIMGAP
 40
0.625
  9
$DIMDSEP
 70
44
  9
$AUNITS
 70
0
  9
$PDMODE
 70
3
  9
$PDSIZE
 40
3.0
  9
$HANDSEED
  5
467
  9
$TILEMODE
 70
1
  9
$MEASUREMENT
 70
1
  9
$INSUNITS
 70
4
  0
ENDSEC
  0
SECTION
  2
CLASSES
  0
CLASS
  1
ACDBDICTIONARYWDFLT
  2
AcDbDictionaryWithDefault
  3
AutoCAD 2000
 90
0
 91
1
280
0
281
0
  0
CLASS
  1
ACDBPLACEHOLDER
  2
AcDbPlaceHolder
  3
AutoCAD 2000
 90
0
 91
1
280
0
281
0
  0
CLASS
  1
LAYOUT
  2
AcDbLayout
  3
AutoCAD 2000
 90
0
 91
0
280
0
281
0
  0
ENDSEC
  0
SECTION
  2
TABLES
  0
TABLE
  2
VPORT
  5
8
100
AcDbSymbolTable
 70
2
  0
VPORT
  5
1F4
100
AcDbSymbolTableRecord
100
AcDbViewportTableRecord
  2
*ACTIVE
 70
0
 10
0.0
 20
0.0
 11
1.0
 21
1.0
 12
148.5
 22
105.0
 13
0.0
 23
0.0
 14
1.0
 24
1.0
 15
0.0
 25
0.0
 16
0.0
 26
0.0
 36
1.0
 17
0.0
 27
0.0
 37
0.0
 40
210.0
 41
1.4142857143
 42
50.0
 43
0.0
 44
0.0
 50
0.0
 51
0.0
 71
0
 72
100
 73
1
 74
1
 75
0
 76
0
 77
0
 78
0
  0
ENDTAB
  0
TABLE
  2
LTYPE
  5
5
100
AcDbSymbolTable
 70
6
  0
LTYPE
  5
14
100
AcDbSymbolTableRecord
100
AcDbLinetypeTableRecord
  2
BYBLOCK
 70
0
  3

 72
65
 73
0
 40
0.0
  0
LTYPE
  5
15
100
AcDbSymbolTableRecord
100
AcDbLinetypeTableRecord
  2
BYLAYER
 70
0
  3

 72
65
 73
0
 40
0.0
  0
LTYPE
  5
16
100
AcDbSymbolTableRecord
100
AcDbLinetypeTableRecord
  2
CONTINUOUS
 70
64
  3
Solid line
 72
65
 73
0
 40
0.0
  0
LTYPE
  5
1F5
100
AcDbSymbolTableRecord
100
AcDbLinetypeTableRecord
  2
CENTER
 70
64
  3
____ _ ____ _ ____ _ ____ _ ____ _ ____ _ ____
 72
65
 73
4
 40
0.6
 49
0.375
 74
0
 49
-0.075
 74
0
 49
0.075
 74
0
 49
-0.075
 74
0
  0
LTYPE
  5
1F6
100
AcDbSymbolTableRecord
100
AcDbLinetypeTableRecord
  2
HIDDEN
 70
64
  3
- - - - - - - - - - - - - - - - - - - -
 72
65
 73
2
 40
0.2
 49
0.1
 74
0
 49
-0.1
 74
0
  0
LTYPE
  5
1F7
100
AcDbSymbolTableRecord
100
AcDbLinetypeTableRecord
  2
PHANTOM
 70
64
  3
_____ _ _ _____ _ _ _____ _ _ _____
 72
65
 73
6
 40
0.8
 49
0.45
 74
0
 49
-0.05
 74
0
 49
0.1
 74
0
 49
-0.05
 74
0
 49
0.1
 74
0
 49
-0.05
 74
0
  0
LTYPE
  5
1F8
100
AcDbSymbolTableRecord
100
AcDbLinetypeTableRecord
  2
DOT
 70
64
  3
. . . . . . . . . . . . . . . . . . . .
 72
65
 73
2
 40
0.2
 49
0.1
 74
0
 49
-0.1
 74
0
  0
LTYPE
  5
1F9
100
AcDbSymbolTableRecord
100
AcDbLinetypeTableRecord
  2
DASHED
 70
64
  3
- - - - - - - - - - - - - - - - - - - -
 72
65
 73
2
 40
0.2
 49
0.1
 74
0
 49
-0.1
 74
0
  0
ENDTAB
  0
TABLE
  2
LAYER
  5
2
100
AcDbSymbolTable
 70
36
  0
LAYER
  5
10
100
AcDbSymbolTableRecord
100
AcDbLayerTableRecord
  2
0
 70
0
 62
7
  6
CONTINUOUS
370
-3
390
F
  0
LAYER
  5
1FA
100
AcDbSymbolTableRecord
100
AcDbLayerTableRecord
  2
DEFAULT_1
 70
0
 62
7
  6
CENTER
370
-3
390
F
  0
LAYER
  5
1FB
100
AcDbSymbolTableRecord
100
AcDbLayerTableRecord
  2
DEFAULT_2
 70
0
 62
7
  6
HIDDEN
370
-3
390
F
  0
LAYER
  5
1FC
100
AcDbSymbolTableRecord
100
AcDbLayerTableRecord
  2
DEFAULT_3
 70
0
 62
7
  6
PHANTOM
370
-3
390
F
  0
LAYER
  5
1FD
100
AcDbSymbolTableRecord
100
AcDbLayerTableRecord
  2
ARROTONDAMENTI
 70
0
 62
7
  6
CONTINUOUS
370
-3
390
F
  0
LAYER
  5
1FE
100
AcDbSymbolTableRecord
100
AcDbLayerTableRecord
  2
ASSI
 70
0
 62
7
  6
CONTINUOUS
370
-3
390
F
  0
LAYER
  5
1FF
100
AcDbSymbolTableRecord
100
AcDbLayerTableRecord
  2
COORDINATE
 70
0
 62
7
  6
CONTINUOUS
370
-3
390
F
  0
LAYER
  5
200
100
AcDbSymbolTableRecord
100
AcDbLayerTableRecord
  2
COPY_PUBLISH
 70
0
 62
7
  6
CONTINUOUS
370
-3
390
F
  0
LAYER
  5
201
100
AcDbSymbolTableRecord
100
AcDbLayerTableRecord
  2
COSMETICHE_FILETTO
 70
0
 62
7
  6
CONTINUOUS
370
-3
390
F
  0
LAYER
  5
202
100
AcDbSymbolTableRecord
100
AcDbLayerTableRecord
  2
COSMETICI
 70
0
 62
7
  6
CONTINUOUS
370
-3
390
F
  0
LAYER
  5
203
100
AcDbSymbolTableRecord
100
AcDbLayerTableRecord
  2
CURVE
 70
0
 62
7
  6
CONTINUOUS
370
-3
390
F
  0
LAYER
  5
204
100
AcDbSymbolTableRecord
100
AcDbLayerTableRecord
  2
DRAFT
 70
0
 62
7
  6
CONTINUOUS
370
-3
390
F
  0
LAYER
  5
205
100
AcDbSymbolTableRecord
100
AcDbLayerTableRecord
  2
ELEMENTI_DI_ANNOTAZIONE
 70
0
 62
7
  6
CONTINUOUS
370
-3
390
F
  0
LAYER
  5
206
100
AcDbSymbolTableRecord
100
AcDbLayerTableRecord
  2
FEATURE_CON_ASSI
 70
0
 62
7
  6
CONTINUOUS
370
-3
390
F
  0
LAYER
  5
207
100
AcDbSymbolTableRecord
100
AcDbLayerTableRecord
  2
FEATURE_DI_GUSCIO
 70
0
 62
7
  6
CONTINUOUS
370
-3
390
F
  0
LAYER
  5
208
100
AcDbSymbolTableRecord
100
AcDbLayerTableRecord
  2
FEATURE_DI_TAGLIO
 70
0
 62
7
  6
CONTINUOUS
370
-3
390
F
  0
LAYER
  5
209
100
AcDbSymbolTableRecord
100
AcDbLayerTableRecord
  2
FORI
 70
0
 62
7
  6
CONTINUOUS
370
-3
390
F
  0
LAYER
  5
20A
100
AcDbSymbolTableRecord
100
AcDbLayerTableRecord
  2
FORI_FILETTATI
 70
0
 62
7
  6
CONTINUOUS
370
-3
390
F
  0
LAYER
  5
20B
100
AcDbSymbolTableRecord
100
AcDbLayerTableRecord
  2
GEOMETRIA_SOLIDA
 70
0
 62
7
  6
CONTINUOUS
370
-3
390
F
  0
LAYER
  5
20C
100
AcDbSymbolTableRecord
100
AcDbLayerTableRecord
  2
IMPORT_IGES
 70
0
 62
7
  6
CONTINUOUS
370
-3
390
F
  0
LAYER
  5
20D
100
AcDbSymbolTableRecord
100
AcDbLayerTableRecord
  2
INTFCLR_2816
 70
0
 62
7
  6
CONTINUOUS
370
-3
390
F
  0
LAYER
  5
20E
100
AcDbSymbolTableRecord
100
AcDbLayerTableRecord
  2
NOTE
 70
0
 62
7
  6
CONTINUOUS
370
-3
390
F
  0
LAYER
  5
20F
100
AcDbSymbolTableRecord
100
AcDbLayerTableRecord
  2
PIANI
 70
0
 62
7
  6
CONTINUOUS
370
-3
390
F
  0
LAYER
  5
210
100
AcDbSymbolTableRecord
100
AcDbLayerTableRecord
  2
PIANI_DI_DEFAULT
 70
0
 62
7
  6
CONTINUOUS
370
-3
390
F
  0
LAYER
  5
211
100
AcDbSymbolTableRecord
100
AcDbLayerTableRecord
  2
PIANI_DI_RIFERIMENTO_CREATI
 70
0
 62
7
  6
CONTINUOUS
370
-3
390
F
  0
LAYER
  5
212
100
AcDbSymbolTableRecord
100
AcDbLayerTableRecord
  2
PROTUSIONI
 70
0
 62
7
  6
CONTINUOUS
370
-3
390
F
  0
LAYER
  5
213
100
AcDbSymbolTableRecord
100
AcDbLayerTableRecord
  2
PUNTI
 70
0
 62
7
  6
CONTINUOUS
370
-3
390
F
  0
LAYER
  5
214
100
AcDbSymbolTableRecord
100
AcDbLayerTableRecord
  2
QUOTE_AE
 70
0
 62
7
  6
CONTINUOUS
370
-3
390
F
  0
LAYER
  5
215
100
AcDbSymbolTableRecord
100
AcDbLayerTableRecord
  2
QUOTE_DEL_MODELLO
 70
0
 62
7
  6
CONTINUOUS
370
-3
390
F
  0
LAYER
  5
216
100
AcDbSymbolTableRecord
100
AcDbLayerTableRecord
  2
RACCORDO
 70
0
 62
7
  6
CONTINUOUS
370
-3
390
F
  0
LAYER
  5
217
100
AcDbSymbolTableRecord
100
AcDbLayerTableRecord
  2
SALDATURE
 70
0
 62
7
  6
CONTINUOUS
370
-3
390
F
  0
LAYER
  5
218
100
AcDbSymbolTableRecord
100
AcDbLayerTableRecord
  2
SIMBOLI
 70
0
 62
7
  6
CONTINUOUS
370
-3
390
F
  0
LAYER
  5
219
100
AcDbSymbolTableRecord
100
AcDbLayerTableRecord
  2
SMUSSI
 70
0
 62
7
  6
CONTINUOUS
370
-3
390
F
  0
LAYER
  5
21A
100
AcDbSymbolTableRecord
100
AcDbLayerTableRecord
  2
SMUSSO
 70
0
 62
7
  6
CONTINUOUS
370
-3
390
F
  0
LAYER
  5
21B
100
AcDbSymbolTableRecord
100
AcDbLayerTableRecord
  2
SNAPLINE
 70
0
 62
7
  6
CONTINUOUS
370
-3
390
F
  0
LAYER
  5
21C
100
AcDbSymbolTableRecord
100
AcDbLayerTableRecord
  2
SUPERFICI
 70
0
 62
7
  6
CONTINUOUS
370
-3
390
F
  0
LAYER
  5
21D
100
AcDbSymbolTableRecord
100
AcDbLayerTableRecord
  2
TERNA_DI_RIFERIMENTO_DI_DEFAULT
 70
0
 62
7
  6
CONTINUOUS
370
-3
390
F
  0
LAYER
  5
21E
100
AcDbSymbolTableRecord
100
AcDbLayerTableRecord
  2
TERNE_DI_RIFERIMENTO_CREATE
 70
0
 62
7
  6
CONTINUOUS
370
-3
390
F
  0
LAYER
  5
21F
100
AcDbSymbolTableRecord
100
AcDbLayerTableRecord
  2
TRASH
 70
0
 62
7
  6
CONTINUOUS
370
-3
390
F
  0
ENDTAB
  0
TABLE
  2
STYLE
  5
3
100
AcDbSymbolTable
 70
1
  0
STYLE
  5
11
100
AcDbSymbolTableRecord
100
AcDbTextStyleTableRecord
  2
STANDARD
 70
0
 40
0.0
 41
0.8
 50
0.0
 71
0
 42
0.2
  3
txt
  4

  0
STYLE
  5
220
100
AcDbSymbolTableRecord
100
AcDbTextStyleTableRecord
  2
TEXTSTYLE_1
 70
0
 40
0.0
 41
0.8
 50
0.0
 71
0
 42
0.2
  3
gdt
  4

  0
ENDTAB
  0
TABLE
  2
VIEW
  5
6
100
AcDbSymbolTable
 70
0
  0
ENDTAB
  0
TABLE
  2
UCS
  5
7
100
AcDbSymbolTable
 70
0
  0
ENDTAB
  0
TABLE
  2
APPID
  5
9
100
AcDbSymbolTable
 70
1
  0
APPID
  5
221
100
AcDbSymbolTableRecord
100
AcDbRegAppTableRecord
  2
ACAD
 70
0
  0
ENDTAB
  0
TABLE
  2
BLOCK_RECORD
  5
1
100
AcDbSymbolTable
 70
0
  0
BLOCK_RECORD
  5
222
100
AcDbSymbolTableRecord
100
AcDbBlockTableRecord
  2
*Model_Space
  0
BLOCK_RECORD
  5
223
100
AcDbSymbolTableRecord
100
AcDbBlockTableRecord
  2
*Paper_Space
  0
BLOCK_RECORD
  5
224
100
AcDbSymbolTableRecord
100
AcDbBlockTableRecord
  2
_FILLED
  0
ENDTAB
  0
TABLE
  2
DIMSTYLE
  5
A
100
AcDbSymbolTable
 70
1
100
AcDbDimStyleTable
 71
0
  0
DIMSTYLE
105
225
100
AcDbSymbolTableRecord
100
AcDbDimStyleTableRecord
  2
STANDARD
 70
0
  3

  4

 40
1.0
 41
3.0
 42
0.5
 43
0.38
 44
1.5
 45
0.0
 46
0.0
 47
0.01
 48
0.01
140
3.0
141
0.09
142
0.0
143
25.4
144
1.0
145
0.0
146
1.0
147
0.625
 71
1.0
 72
0.0
 73
0
 74
0
 75
0
 76
0
 77
1
 78
8
 79
2
170
0
171
1
172
0
173
0
174
0
175
0
176
0
177
0
178
0
270
2
179
2
271
2
272
2
273
2
274
2
275
0
280
0
281
0
282
0
283
1
284
8
285
0
286
0
287
3
288
0
340
11
278
44
341
224
342
224
343
224
344
224
  0
ENDTAB
  0
ENDSEC
  0
SECTION
  2
BLOCKS
  0
BLOCK
  5
20
100
AcDbEntity
  8
0
100
AcDbBlockBegin
  2
*Model_Space
 70
0
 10
0.0
 20
0.0
 30
0.0
  3
*Model_Space
  1

  0
ENDBLK
  5
21
100
AcDbEntity
  8
0
100
AcDbBlockEnd
  0
BLOCK
  5
1C
100
AcDbEntity
  8
0
100
AcDbBlockBegin
  2
*Paper_Space
 70
0
 10
0.0
 20
0.0
 30
0.0
  3
*Paper_Space
  1

  0
ENDBLK
  5
1D
100
AcDbEntity
  8
0
100
AcDbBlockEnd
  0
BLOCK
  5
226
100
AcDbEntity
  8
0
100
AcDbBlockBegin
  2
_FILLED
 70
64
 10
0.0
 20
0.0
  3
_FILLED
  1

  0
SOLID
  5
227
100
AcDbEntity
  8
0
  6
BYBLOCK
 62
0
100
AcDbTrace
 10
0.0
 20
0.0
 11
-1.0
 21
0.3166666667
 12
-1.0
 22
-0.3166666667
 13
-1.0
 23
-0.3166666667
  0
ENDBLK
  5
228
100
AcDbEntity
  8
0
  6
BYBLOCK
 62
0
100
AcDbBlockEnd
  0
ENDSEC
  0
SECTION
  2
ENTITIES
  0
LINE
  5
229
100
AcDbEntity
  8
DRAFT
100
AcDbLine
 62
7
  6
CONTINUOUS
 10
-42.2214522078
 20
-46.35
 11
-42.3
 21
-46.2714522078
  0
LINE
  5
22A
100
AcDbEntity
  8
0
100
AcDbLine
 62
7
  6
CONTINUOUS
 10
48.4
 20
-55.5
 11
-48.4
 21
-55.5
  0
LINE
  5
22B
100
AcDbEntity
  8
0
100
AcDbLine
 62
7
  6
CONTINUOUS
 10
-48.4
 20
55.5
 11
-48.4
 21
-55.5
  0
LINE
  5
22C
100
AcDbEntity
  8
0
100
AcDbLine
 62
250
  6
CONTINUOUS
 10
-48.15
 20
55.5
 11
-48.15
 21
-55.5
  0
LINE
  5
22D
100
AcDbEntity
  8
DRAFT
100
AcDbLine
 62
7
  6
CONTINUOUS
 10
-40.95
 20
-47.5
 11
-36.45
 21
-47.4528713247
  0
LINE
  5
22E
100
AcDbEntity
  8
DRAFT
100
AcDbLine
 62
7
  6
CONTINUOUS
 10
-40.95
 20
-46.35
 11
-36.45
 21
-46.326437457
  0
LINE
  5
22F
100
AcDbEntity
  8
RACCORDO
100
AcDbLine
 62
7
  6
CONTINUOUS
 10
43.4985086164
 20
-47.5
 11
37.15
 21
-47.5
  0
LINE
  5
230
100
AcDbEntity
  8
RACCORDO
100
AcDbLine
 62
7
  6
CONTINUOUS
 10
-40.95
 20
-47.5
 11
-43.3985086164
 21
-47.5
  0
LINE
  5
231
100
AcDbEntity
  8
DRAFT
100
AcDbLine
 62
7
  6
CONTINUOUS
 10
-36.45
 20
-47.4528713247
 11
-19.85
 21
-47.4528713247
  0
LINE
  5
232
100
AcDbEntity
  8
DRAFT
100
AcDbLine
 62
7
  6
CONTINUOUS
 10
35.45
 20
-47.4310524935
 11
-19.85
 21
-47.4310524935
  0
LINE
  5
233
100
AcDbEntity
  8
DRAFT
100
AcDbLine
 62
7
  6
CONTINUOUS
 10
44.0
 20
-46.35
 11
42.3214522078
 21
-46.35
  0
LINE
  5
234
100
AcDbEntity
  8
DRAFT
100
AcDbLine
 62
7
  6
CONTINUOUS
 10
41.25
 20
-46.35
 11
37.15
 21
-46.35
  0
LINE
  5
235
100
AcDbEntity
  8
DRAFT
100
AcDbLine
 62
7
  6
CONTINUOUS
 10
-40.95
 20
-46.35
 11
-41.15
 21
-46.35
  0
LINE
  5
236
100
AcDbEntity
  8
DRAFT
100
AcDbLine
 62
7
  6
CONTINUOUS
 10
-42.2214522078
 20
-46.35
 11
-43.9
 21
-46.35
  0
LINE
  5
237
100
AcDbEntity
  8
DRAFT
100
AcDbLine
 62
7
  6
CONTINUOUS
 10
-36.45
 20
-46.326437457
 11
-19.85
 21
-46.326437457
  0
LINE
  5
238
100
AcDbEntity
  8
RACCORDO
100
AcDbLine
 62
7
  6
CONTINUOUS
 10
35.45
 20
-46.3155288722
 11
23.85
 21
-46.3155288722
  0
LINE
  5
239
100
AcDbEntity
  8
RACCORDO
100
AcDbLine
 62
7
  6
CONTINUOUS
 10
20.85
 20
-46.3155288722
 11
-3.15
 21
-46.3155288722
  0
LINE
  5
23A
100
AcDbEntity
  8
RACCORDO
100
AcDbLine
 62
7
  6
CONTINUOUS
 10
-6.15
 20
-46.3155288722
 11
-19.85
 21
-46.3155288722
  0
LINE
  5
23B
100
AcDbEntity
  8
RACCORDO
100
AcDbLine
 62
250
  6
CONTINUOUS
 10
-2.85
 20
-46.3
 11
-6.45
 21
-46.3
  0
LINE
  5
23C
100
AcDbEntity
  8
RACCORDO
100
AcDbLine
 62
250
  6
CONTINUOUS
 10
20.55
 20
-46.3
 11
24.15
 21
-46.3
  0
LINE
  5
23D
100
AcDbEntity
  8
DRAFT
100
AcDbLine
 62
7
  6
CONTINUOUS
 10
35.3
 20
-46.274687131
 11
36.475312869
 21
-46.274687131
  0
LINE
  5
23E
100
AcDbEntity
  8
DRAFT
100
AcDbLine
 62
7
  6
CONTINUOUS
 10
43.564516129
 20
-46.2714522078
 11
42.4
 21
-46.2714522078
  0
LINE
  5
23F
100
AcDbEntity
  8
DRAFT
100
AcDbLine
 62
7
  6
CONTINUOUS
 10
-42.3
 20
-46.2714522078
 11
-43.464516129
 21
-46.2714522078
  0
LINE
  5
240
100
AcDbEntity
  8
DRAFT
100
AcDbLine
 62
7
  6
CONTINUOUS
 10
-18.8148455801
 20
-46.2351544199
 11
-17.6
 21
-46.2351544199
  0
LINE
  5
241
100
AcDbEntity
  8
0
100
AcDbLine
 62
7
  6
CONTINUOUS
 10
34.85
 20
-46.0
 11
24.0735420253
 21
-46.0
  0
LINE
  5
242
100
AcDbEntity
  8
0
100
AcDbLine
 62
7
  6
CONTINUOUS
 10
20.6264579747
 20
-46.0
 11
-2.9264579747
 21
-46.0
  0
LINE
  5
243
100
AcDbEntity
  8
0
100
AcDbLine
 62
7
  6
CONTINUOUS
 10
-6.3735420253
 20
-46.0
 11
-17.15
 21
-46.0
  0
LINE
  5
244
100
AcDbEntity
  8
RACCORDO
100
AcDbLine
 62
7
  6
CONTINUOUS
 10
23.85
 20
-45.9
 11
20.85
 21
-45.9
  0
LINE
  5
245
100
AcDbEntity
  8
RACCORDO
100
AcDbLine
 62
7
  6
CONTINUOUS
 10
-3.15
 20
-45.9
 11
-6.15
 21
-45.9
  0
LINE
  5
246
100
AcDbEntity
  8
DRAFT
100
AcDbLine
 62
7
  6
CONTINUOUS
 10
44.1
 20
-45.3
 11
43.4
 21
-45.3
  0
LINE
  5
247
100
AcDbEntity
  8
DRAFT
100
AcDbLine
 62
7
  6
CONTINUOUS
 10
-44.0318668212
 20
-45.5
 11
-44.1
 21
-45.4995743916
  0
LINE
  5
248
100
AcDbEntity
  8
DRAFT
100
AcDbLine
 62
7
  6
CONTINUOUS
 10
35.45
 20
-46.3155288722
 11
37.15
 21
-46.35
  0
LINE
  5
249
100
AcDbEntity
  8
DRAFT
100
AcDbLine
 62
7
  6
CONTINUOUS
 10
35.45
 20
-47.4310524935
 11
37.15
 21
-47.5
  0
LINE
  5
24A
100
AcDbEntity
  8
DRAFT
100
AcDbLine
 62
7
  6
CONTINUOUS
 10
-31.2145662182
 20
-35.0177155416
 11
-31.25
 21
-35.0
  0
LINE
  5
24B
100
AcDbEntity
  8
DRAFT
100
AcDbLine
 62
7
  6
CONTINUOUS
 10
-30.4074219605
 20
-35.0306115575
 11
-30.4332159566
 21
-35.0177155416
  0
LINE
  5
24C
100
AcDbEntity
  8
DRAFT
100
AcDbLine
 62
7
  6
CONTINUOUS
 10
-41.15
 20
-28.65
 11
-41.0712127159
 21
-28.7287872841
  0
LINE
  5
24D
100
AcDbEntity
  8
DRAFT
100
AcDbLine
 62
7
  6
CONTINUOUS
 10
-27.2806115575
 20
-39.9693884425
 11
-27.25
 21
-40.0
  0
LINE
  5
24E
100
AcDbEntity
  8
RACCORDO
100
AcDbLine
 62
7
  6
CONTINUOUS
 10
-31.146491465
 20
-35.4
 11
-31.2094210886
 21
-35.3370703764
  0
LINE
  5
24F
100
AcDbEntity
  8
DRAFT
100
AcDbLine
 62
7
  6
CONTINUOUS
 10
-42.2214522078
 20
-21.35
 11
-42.3
 21
-21.2714522078
  0
LINE
  5
250
100
AcDbEntity
  8
0
100
AcDbLine
 62
250
  6
CONTINUOUS
 10
-44.35
 20
55.5
 11
-44.35
 21
-55.5
  0
LINE
  5
251
100
AcDbEntity
  8
0
100
AcDbLine
 62
7
  6
CONTINUOUS
 10
-44.1
 20
55.5
 11
-44.1
 21
-55.5
  0
LINE
  5
252
100
AcDbEntity
  8
DRAFT
100
AcDbLine
 62
7
  6
CONTINUOUS
 10
-44.0318668212
 20
-4.5
 11
-44.0318668212
 21
-20.5
  0
LINE
  5
253
100
AcDbEntity
  8
DRAFT
100
AcDbLine
 62
7
  6
CONTINUOUS
 10
-44.0318668212
 20
-29.5
 11
-44.0318668212
 21
-45.5
  0
LINE
  5
254
100
AcDbEntity
  8
RACCORDO
100
AcDbLine
 62
7
  6
CONTINUOUS
 10
-43.9
 20
-47.0007645085
 11
-43.9
 21
-46.35
  0
LINE
  5
255
100
AcDbEntity
  8
RACCORDO
100
AcDbLine
 62
7
  6
CONTINUOUS
 10
-43.9
 20
-2.9992354915
 11
-43.9
 21
-3.65
  0
LINE
  5
256
100
AcDbEntity
  8
RACCORDO
100
AcDbLine
 62
7
  6
CONTINUOUS
 10
-43.9
 20
-22.0007645085
 11
-43.9
 21
-21.35
  0
LINE
  5
257
100
AcDbEntity
  8
RACCORDO
100
AcDbLine
 62
7
  6
CONTINUOUS
 10
-43.9
 20
-27.9992354915
 11
-43.9
 21
-28.65
  0
LINE
  5
258
100
AcDbEntity
  8
0
100
AcDbLine
 62
250
  6
CONTINUOUS
 10
-43.6
 20
55.5
 11
-43.6
 21
-2.5424890621
  0
LINE
  5
259
100
AcDbEntity
  8
0
100
AcDbLine
 62
250
  6
CONTINUOUS
 10
-43.6
 20
-3.7041107013
 11
-43.6
 21
-4.5210640206
  0
LINE
  5
25A
100
AcDbEntity
  8
0
100
AcDbLine
 62
250
  6
CONTINUOUS
 10
-43.6
 20
-20.4789359794
 11
-43.6
 21
-21.2958892987
  0
LINE
  5
25B
100
AcDbEntity
  8
0
100
AcDbLine
 62
250
  6
CONTINUOUS
 10
-43.6
 20
-22.4575109379
 11
-43.6
 21
-27.5424890621
  0
LINE
  5
25C
100
AcDbEntity
  8
0
100
AcDbLine
 62
250
  6
CONTINUOUS
 10
-43.6
 20
-28.7041107013
 11
-43.6
 21
-29.5210640206
  0
LINE
  5
25D
100
AcDbEntity
  8
0
100
AcDbLine
 62
250
  6
CONTINUOUS
 10
-43.6
 20
-45.4789359794
 11
-43.6
 21
-46.2958892987
  0
LINE
  5
25E
100
AcDbEntity
  8
0
100
AcDbLine
 62
250
  6
CONTINUOUS
 10
-43.6
 20
-47.4575109379
 11
-43.6
 21
-55.5
  0
LINE
  5
25F
100
AcDbEntity
  8
DRAFT
100
AcDbLine
 62
7
  6
CONTINUOUS
 10
-43.464516129
 20
-46.2714522078
 11
-43.464516129
 21
-45.4723278426
  0
LINE
  5
260
100
AcDbEntity
  8
DRAFT
100
AcDbLine
 62
7
  6
CONTINUOUS
 10
-43.464516129
 20
-29.5276721574
 11
-43.464516129
 21
-28.7285477922
  0
LINE
  5
261
100
AcDbEntity
  8
DRAFT
100
AcDbLine
 62
7
  6
CONTINUOUS
 10
-43.464516129
 20
-21.2714522078
 11
-43.464516129
 21
-20.4723278426
  0
LINE
  5
262
100
AcDbEntity
  8
DRAFT
100
AcDbLine
 62
7
  6
CONTINUOUS
 10
-43.464516129
 20
-4.5276721574
 11
-43.464516129
 21
-3.7285477922
  0
LINE
  5
263
100
AcDbEntity
  8
0
100
AcDbLine
 62
7
  6
CONTINUOUS
 10
-43.1
 20
55.5
 11
-43.1
 21
-2.5
  0
LINE
  5
264
100
AcDbEntity
  8
0
100
AcDbLine
 62
7
  6
CONTINUOUS
 10
-43.1
 20
-22.5
 11
-43.1
 21
-27.5
  0
LINE
  5
265
100
AcDbEntity
  8
0
100
AcDbLine
 62
7
  6
CONTINUOUS
 10
-43.1
 20
-47.5
 11
-43.1
 21
-55.5
  0
LINE
  5
266
100
AcDbEntity
  8
0
100
AcDbLine
 62
250
  6
CONTINUOUS
 10
-43.055272805
 20
-55.5
 11
-43.055272805
 21
-47.5
  0
LINE
  5
267
100
AcDbEntity
  8
0
100
AcDbLine
 62
250
  6
CONTINUOUS
 10
-43.055272805
 20
-27.5
 11
-43.055272805
 21
-22.5
  0
LINE
  5
268
100
AcDbEntity
  8
0
100
AcDbLine
 62
250
  6
CONTINUOUS
 10
-43.055272805
 20
-2.5
 11
-43.055272805
 21
55.5
  0
LINE
  5
269
100
AcDbEntity
  8
DRAFT
100
AcDbLine
 62
7
  6
CONTINUOUS
 10
-42.4214342279
 20
-4.5785477922
 11
-42.4214342279
 21
-20.4214522078
  0
LINE
  5
26A
100
AcDbEntity
  8
DRAFT
100
AcDbLine
 62
7
  6
CONTINUOUS
 10
-42.4214342279
 20
-29.5785477922
 11
-42.4214342279
 21
-45.4214522078
  0
LINE
  5
26B
100
AcDbEntity
  8
DRAFT
100
AcDbLine
 62
7
  6
CONTINUOUS
 10
-42.3
 20
-3.7285477922
 11
-42.3
 21
-21.2714522078
  0
LINE
  5
26C
100
AcDbEntity
  8
DRAFT
100
AcDbLine
 62
7
  6
CONTINUOUS
 10
-42.3
 20
-28.7285477922
 11
-42.3
 21
-46.2714522078
  0
LINE
  5
26D
100
AcDbEntity
  8
DRAFT
100
AcDbLine
 62
7
  6
CONTINUOUS
 10
-42.2214522078
 20
-3.65
 11
-42.2214522078
 21
-21.35
  0
LINE
  5
26E
100
AcDbEntity
  8
DRAFT
100
AcDbLine
 62
7
  6
CONTINUOUS
 10
-42.2214522078
 20
-28.65
 11
-42.2214522078
 21
-46.35
  0
LINE
  5
26F
100
AcDbEntity
  8
DRAFT
100
AcDbLine
 62
7
  6
CONTINUOUS
 10
-41.15
 20
-46.35
 11
-41.15
 21
-28.65
  0
LINE
  5
270
100
AcDbEntity
  8
DRAFT
100
AcDbLine
 62
7
  6
CONTINUOUS
 10
-41.15
 20
-21.35
 11
-41.15
 21
-3.65
  0
LINE
  5
271
100
AcDbEntity
  8
DRAFT
100
AcDbLine
 62
7
  6
CONTINUOUS
 10
-41.0712127159
 20
-3.7287872841
 11
-41.0712127159
 21
-21.2712127159
  0
LINE
  5
272
100
AcDbEntity
  8
DRAFT
100
AcDbLine
 62
7
  6
CONTINUOUS
 10
-41.0712127159
 20
-28.7287872841
 11
-41.0712127159
 21
-46.2712127159
  0
LINE
  5
273
100
AcDbEntity
  8
DRAFT
100
AcDbLine
 62
7
  6
CONTINUOUS
 10
-40.95
 20
-47.5
 11
-40.95
 21
-46.35
  0
LINE
  5
274
100
AcDbEntity
  8
DRAFT
100
AcDbLine
 62
7
  6
CONTINUOUS
 10
-40.95
 20
-28.65
 11
-40.95
 21
-27.5
  0
LINE
  5
275
100
AcDbEntity
  8
DRAFT
100
AcDbLine
 62
7
  6
CONTINUOUS
 10
-40.95
 20
-22.5
 11
-40.95
 21
-21.35
  0
LINE
  5
276
100
AcDbEntity
  8
DRAFT
100
AcDbLine
 62
7
  6
CONTINUOUS
 10
-40.95
 20
-3.65
 11
-40.95
 21
-2.5
  0
LINE
  5
277
100
AcDbEntity
  8
DRAFT
100
AcDbLine
 62
7
  6
CONTINUOUS
 10
-42.4214342279
 20
-45.4214522078
 11
-44.0318668212
 21
-45.5
  0
LINE
  5
278
100
AcDbEntity
  8
DRAFT
100
AcDbLine
 62
7
  6
CONTINUOUS
 10
-17.6
 20
-44.35
 11
-18.8148455801
 21
-44.35
  0
LINE
  5
279
100
AcDbEntity
  8
DRAFT
100
AcDbLine
 62
7
  6
CONTINUOUS
 10
35.3
 20
-43.75
 11
36.475312869
 21
-43.75
  0
LINE
  5
27A
100
AcDbEntity
  8
DRAFT
100
AcDbLine
 62
7
  6
CONTINUOUS
 10
44.1
 20
-40.3
 11
43.4
 21
-40.3
  0
LINE
  5
27B
100
AcDbEntity
  8
DRAFT
100
AcDbLine
 62
7
  6
CONTINUOUS
 10
-27.25
 20
-40.0
 11
-31.25
 21
-40.0
  0
LINE
  5
27C
100
AcDbEntity
  8
DRAFT
100
AcDbLine
 62
7
  6
CONTINUOUS
 10
-31.2145662182
 20
-39.9822844584
 11
-30.4332159566
 21
-39.9822844584
  0
LINE
  5
27D
100
AcDbEntity
  8
DRAFT
100
AcDbLine
 62
7
  6
CONTINUOUS
 10
-27.2806115575
 20
-39.9693884425
 11
-30.4074219605
 21
-39.9693884425
  0
LINE
  5
27E
100
AcDbEntity
  8
DRAFT
100
AcDbLine
 62
7
  6
CONTINUOUS
 10
-30.25
 20
-39.6
 11
-31.146491465
 21
-39.6
  0
LINE
  5
27F
100
AcDbEntity
  8
SMUSSO
100
AcDbLine
 62
7
  6
CONTINUOUS
 10
-27.0174537356
 20
-39.5
 11
-28.0174918111
 21
-39.5
  0
LINE
  5
280
100
AcDbEntity
  8
RACCORDO
100
AcDbLine
 62
7
  6
CONTINUOUS
 10
-28.0174918111
 20
-39.5
 11
-31.8055301685
 21
-39.5
  0
LINE
  5
281
100
AcDbEntity
  8
DRAFT
100
AcDbLine
 62
7
  6
CONTINUOUS
 10
43.4
 20
-45.2668353766
 11
42.8722222222
 21
-45.2336707533
  0
LINE
  5
282
100
AcDbEntity
  8
0
100
AcDbLine
 62
7
  6
CONTINUOUS
 10
-37.8854702333
 20
-55.5
 11
-37.8854702333
 21
-47.4679050604
  0
LINE
  5
283
100
AcDbEntity
  8
0
100
AcDbLine
 62
7
  6
CONTINUOUS
 10
-37.8854702333
 20
-27.5320949396
 11
-37.8854702333
 21
-22.4679050604
  0
LINE
  5
284
100
AcDbEntity
  8
0
100
AcDbLine
 62
7
  6
CONTINUOUS
 10
-37.8854702333
 20
-2.5320949396
 11
-37.8854702333
 21
55.5
  0
LINE
  5
285
100
AcDbEntity
  8
DRAFT
100
AcDbLine
 62
7
  6
CONTINUOUS
 10
-37.8133128871
 20
-3.7421106371
 11
-37.8133128871
 21
-21.2578893629
  0
LINE
  5
286
100
AcDbEntity
  8
DRAFT
100
AcDbLine
 62
7
  6
CONTINUOUS
 10
-37.8133128871
 20
-28.7421106371
 11
-37.8133128871
 21
-46.2578893629
  0
LINE
  5
287
100
AcDbEntity
  8
DRAFT
100
AcDbLine
 62
7
  6
CONTINUOUS
 10
-36.45
 20
-2.5471286753
 11
-36.45
 21
-3.673562543
  0
LINE
  5
288
100
AcDbEntity
  8
DRAFT
100
AcDbLine
 62
7
  6
CONTINUOUS
 10
-36.45
 20
-21.326437457
 11
-36.45
 21
-22.4528713247
  0
LINE
  5
289
100
AcDbEntity
  8
DRAFT
100
AcDbLine
 62
7
  6
CONTINUOUS
 10
-36.45
 20
-27.5471286753
 11
-36.45
 21
-28.673562543
  0
LINE
  5
28A
100
AcDbEntity
  8
DRAFT
100
AcDbLine
 62
7
  6
CONTINUOUS
 10
-36.45
 20
-46.326437457
 11
-36.45
 21
-47.4528713247
  0
LINE
  5
28B
100
AcDbEntity
  8
DRAFT
100
AcDbLine
 62
7
  6
CONTINUOUS
 10
-43.9
 20
-46.35
 11
-43.464516129
 21
-46.2714522078
  0
LINE
  5
28C
100
AcDbEntity
  8
DRAFT
100
AcDbLine
 62
7
  6
CONTINUOUS
 10
43.564516129
 20
-28.7285477922
 11
44.0
 21
-28.65
  0
LINE
  5
28D
100
AcDbEntity
  8
DRAFT
100
AcDbLine
 62
7
  6
CONTINUOUS
 10
36.4404053979
 20
-38.0404053979
 11
37.1983032699
 21
-38.0404053979
  0
LINE
  5
28E
100
AcDbEntity
  8
DRAFT
100
AcDbLine
 62
7
  6
CONTINUOUS
 10
40.4016967301
 20
-38.0404053979
 11
41.2095946021
 21
-38.0404053979
  0
LINE
  5
28F
100
AcDbEntity
  8
RACCORDO
100
AcDbLine
 62
250
  6
CONTINUOUS
 10
-21.593718194
 20
-37.5
 11
-21.95
 21
-37.5
  0
LINE
  5
290
100
AcDbEntity
  8
SMUSSO
100
AcDbLine
 62
7
  6
CONTINUOUS
 10
-27.0
 20
-37.5
 11
-28.0000380755
 21
-37.5
  0
LINE
  5
291
100
AcDbEntity
  8
RACCORDO
100
AcDbLine
 62
7
  6
CONTINUOUS
 10
-28.0000380755
 20
-37.5
 11
-31.8229839041
 21
-37.5
  0
LINE
  5
292
100
AcDbEntity
  8
RACCORDO
100
AcDbLine
 62
250
  6
CONTINUOUS
 10
-36.55
 20
-37.5
 11
-36.9268295361
 21
-37.5
  0
LINE
  5
293
100
AcDbEntity
  8
DRAFT
100
AcDbLine
 62
7
  6
CONTINUOUS
 10
41.2095946021
 20
-36.9595946021
 11
40.4016967301
 21
-36.9595946021
  0
LINE
  5
294
100
AcDbEntity
  8
DRAFT
100
AcDbLine
 62
7
  6
CONTINUOUS
 10
37.1983032699
 20
-36.9595946021
 11
36.4404053979
 21
-36.9595946021
  0
LINE
  5
295
100
AcDbEntity
  8
SMUSSO
100
AcDbLine
 62
7
  6
CONTINUOUS
 10
-28.0174918111
 20
-35.5
 11
-27.0174537356
 21
-35.5
  0
LINE
  5
296
100
AcDbEntity
  8
RACCORDO
100
AcDbLine
 62
7
  6
CONTINUOUS
 10
-28.0174918111
 20
-35.5
 11
-31.8055301685
 21
-35.5
  0
LINE
  5
297
100
AcDbEntity
  8
DRAFT
100
AcDbLine
 62
7
  6
CONTINUOUS
 10
-30.25
 20
-35.4
 11
-31.146491465
 21
-35.4
  0
LINE
  5
298
100
AcDbEntity
  8
DRAFT
100
AcDbLine
 62
7
  6
CONTINUOUS
 10
-30.4074219605
 20
-35.0306115575
 11
-27.2806115575
 21
-35.0306115575
  0
LINE
  5
299
100
AcDbEntity
  8
DRAFT
100
AcDbLine
 62
7
  6
CONTINUOUS
 10
-31.2145662182
 20
-35.0177155416
 11
-30.4332159566
 21
-35.0177155416
  0
LINE
  5
29A
100
AcDbEntity
  8
DRAFT
100
AcDbLine
 62
7
  6
CONTINUOUS
 10
-31.25
 20
-35.0
 11
-27.25
 21
-35.0
  0
LINE
  5
29B
100
AcDbEntity
  8
DRAFT
100
AcDbLine
 62
7
  6
CONTINUOUS
 10
44.1
 20
-34.7
 11
43.4
 21
-34.7
  0
LINE
  5
29C
100
AcDbEntity
  8
RACCORDO
100
AcDbLine
 62
250
  6
CONTINUOUS
 10
35.3
 20
-37.5000153796
 11
35.1983088705
 21
-37.4999579861
  0
LINE
  5
29D
100
AcDbEntity
  8
RACCORDO
100
AcDbLine
 62
250
  6
CONTINUOUS
 10
-17.6
 20
-37.5000107933
 11
-17.4791987501
 21
-37.5001060353
  0
LINE
  5
29E
100
AcDbEntity
  8
DRAFT
100
AcDbLine
 62
7
  6
CONTINUOUS
 10
43.564516129
 20
-46.2714522078
 11
44.0
 21
-46.35
  0
LINE
  5
29F
100
AcDbEntity
  8
DRAFT
100
AcDbLine
 62
7
  6
CONTINUOUS
 10
-43.9
 20
-28.65
 11
-43.464516129
 21
-28.7285477922
  0
LINE
  5
2A0
100
AcDbEntity
  8
RACCORDO
100
AcDbLine
 62
7
  6
CONTINUOUS
 10
-29.75
 20
-39.5
 11
-29.7418067943
 21
-39.9693884425
  0
LINE
  5
2A1
100
AcDbEntity
  8
RACCORDO
100
AcDbLine
 62
7
  6
CONTINUOUS
 10
-29.75
 20
-14.5
 11
-29.7418067943
 21
-14.9693884425
  0
LINE
  5
2A2
100
AcDbEntity
  8
RACCORDO
100
AcDbLine
 62
7
  6
CONTINUOUS
 10
-28.75
 20
-35.5
 11
-28.7581932057
 21
-35.0306115575
  0
LINE
  5
2A3
100
AcDbEntity
  8
RACCORDO
100
AcDbLine
 62
7
  6
CONTINUOUS
 10
-28.75
 20
-10.5
 11
-28.7581932057
 21
-10.0306115575
  0
LINE
  5
2A4
100
AcDbEntity
  8
SMUSSO
100
AcDbLine
 62
7
  6
CONTINUOUS
 10
-28.0174918111
 20
-35.5
 11
-28.0000380755
 21
-37.5
  0
LINE
  5
2A5
100
AcDbEntity
  8
SMUSSO
100
AcDbLine
 62
7
  6
CONTINUOUS
 10
-28.0174918111
 20
-10.5
 11
-28.0000380755
 21
-12.5
  0
LINE
  5
2A6
100
AcDbEntity
  8
DRAFT
100
AcDbLine
 62
7
  6
CONTINUOUS
 10
-30.4325922409
 20
-39.5999999421
 11
-30.4294554913
 21
-39.9822537193
  0
LINE
  5
2A7
100
AcDbEntity
  8
DRAFT
100
AcDbLine
 62
7
  6
CONTINUOUS
 10
-30.4325922409
 20
-14.5999999421
 11
-30.4294554913
 21
-14.9822537193
  0
LINE
  5
2A8
100
AcDbEntity
  8
RACCORDO
100
AcDbLine
 62
250
  6
CONTINUOUS
 10
-30.6507464185
 20
-37.5
 11
-30.6369496039
 21
-39.5
  0
LINE
  5
2A9
100
AcDbEntity
  8
RACCORDO
100
AcDbLine
 62
250
  6
CONTINUOUS
 10
-30.6507464185
 20
-12.5
 11
-30.6369496039
 21
-14.5
  0
LINE
  5
2AA
100
AcDbEntity
  8
RACCORDO
100
AcDbLine
 62
250
  6
CONTINUOUS
 10
-29.5805060086
 20
-37.5
 11
-29.566709194
 21
-39.5
  0
LINE
  5
2AB
100
AcDbEntity
  8
RACCORDO
100
AcDbLine
 62
250
  6
CONTINUOUS
 10
-29.5805060086
 20
-12.5
 11
-29.566709194
 21
-14.5
  0
LINE
  5
2AC
100
AcDbEntity
  8
DRAFT
100
AcDbLine
 62
7
  6
CONTINUOUS
 10
-31.25
 20
-40.0
 11
-31.25
 21
-39.5
  0
LINE
  5
2AD
100
AcDbEntity
  8
DRAFT
100
AcDbLine
 62
7
  6
CONTINUOUS
 10
-31.25
 20
-35.5
 11
-31.25
 21
-35.0
  0
LINE
  5
2AE
100
AcDbEntity
  8
DRAFT
100
AcDbLine
 62
7
  6
CONTINUOUS
 10
-31.25
 20
-15.0
 11
-31.25
 21
-14.5
  0
LINE
  5
2AF
100
AcDbEntity
  8
DRAFT
100
AcDbLine
 62
7
  6
CONTINUOUS
 10
-31.25
 20
-10.5
 11
-31.25
 21
-10.0
  0
LINE
  5
2B0
100
AcDbEntity
  8
RACCORDO
100
AcDbLine
 62
7
  6
CONTINUOUS
 10
-31.2145662182
 20
-39.9822844584
 11
-31.2145662182
 21
-39.9628839322
  0
LINE
  5
2B1
100
AcDbEntity
  8
RACCORDO
100
AcDbLine
 62
7
  6
CONTINUOUS
 10
-31.2145662182
 20
-35.0371160678
 11
-31.2145662182
 21
-35.0177155416
  0
LINE
  5
2B2
100
AcDbEntity
  8
RACCORDO
100
AcDbLine
 62
7
  6
CONTINUOUS
 10
-31.2145662182
 20
-14.9822844584
 11
-31.2145662182
 21
-14.9628839322
  0
LINE
  5
2B3
100
AcDbEntity
  8
RACCORDO
100
AcDbLine
 62
7
  6
CONTINUOUS
 10
-31.2145662182
 20
-10.0371160678
 11
-31.2145662182
 21
-10.0177155416
  0
LINE
  5
2B4
100
AcDbEntity
  8
DRAFT
100
AcDbLine
 62
7
  6
CONTINUOUS
 10
-31.146491465
 20
-10.4
 11
-31.146491465
 21
-10.5
  0
LINE
  5
2B5
100
AcDbEntity
  8
DRAFT
100
AcDbLine
 62
7
  6
CONTINUOUS
 10
-31.146491465
 20
-14.5
 11
-31.146491465
 21
-14.6
  0
LINE
  5
2B6
100
AcDbEntity
  8
DRAFT
100
AcDbLine
 62
7
  6
CONTINUOUS
 10
-31.146491465
 20
-35.4
 11
-31.146491465
 21
-35.5
  0
LINE
  5
2B7
100
AcDbEntity
  8
DRAFT
100
AcDbLine
 62
7
  6
CONTINUOUS
 10
-31.146491465
 20
-39.5
 11
-31.146491465
 21
-39.6
  0
LINE
  5
2B8
100
AcDbEntity
  8
DRAFT
100
AcDbLine
 62
7
  6
CONTINUOUS
 10
-30.25
 20
-10.4
 11
-30.25
 21
-10.5
  0
LINE
  5
2B9
100
AcDbEntity
  8
DRAFT
100
AcDbLine
 62
7
  6
CONTINUOUS
 10
-30.25
 20
-14.5
 11
-30.25
 21
-14.6
  0
LINE
  5
2BA
100
AcDbEntity
  8
DRAFT
100
AcDbLine
 62
7
  6
CONTINUOUS
 10
-30.25
 20
-35.4
 11
-30.25
 21
-35.5
  0
LINE
  5
2BB
100
AcDbEntity
  8
DRAFT
100
AcDbLine
 62
7
  6
CONTINUOUS
 10
-30.25
 20
-39.5
 11
-30.25
 21
-39.6
  0
LINE
  5
2BC
100
AcDbEntity
  8
RACCORDO
100
AcDbLine
 62
250
  6
CONTINUOUS
 10
-30.6369496039
 20
-10.5
 11
-30.6507464185
 21
-12.5
  0
LINE
  5
2BD
100
AcDbEntity
  8
RACCORDO
100
AcDbLine
 62
250
  6
CONTINUOUS
 10
-30.6369496039
 20
-35.5
 11
-30.6507464185
 21
-37.5
  0
LINE
  5
2BE
100
AcDbEntity
  8
RACCORDO
100
AcDbLine
 62
250
  6
CONTINUOUS
 10
-29.566709194
 20
-10.5
 11
-29.5805060086
 21
-12.5
  0
LINE
  5
2BF
100
AcDbEntity
  8
RACCORDO
100
AcDbLine
 62
250
  6
CONTINUOUS
 10
-29.566709194
 20
-35.5
 11
-29.5805060086
 21
-37.5
  0
LINE
  5
2C0
100
AcDbEntity
  8
DRAFT
100
AcDbLine
 62
7
  6
CONTINUOUS
 10
-30.4294751096
 20
-10.0177461124
 11
-30.4325989496
 21
-10.4
  0
LINE
  5
2C1
100
AcDbEntity
  8
DRAFT
100
AcDbLine
 62
7
  6
CONTINUOUS
 10
-30.4294751096
 20
-35.0177461124
 11
-30.4325989496
 21
-35.4
  0
LINE
  5
2C2
100
AcDbEntity
  8
SMUSSO
100
AcDbLine
 62
7
  6
CONTINUOUS
 10
-28.0000380755
 20
-12.5
 11
-28.0174918111
 21
-14.5
  0
LINE
  5
2C3
100
AcDbEntity
  8
RACCORDO
100
AcDbLine
 62
7
  6
CONTINUOUS
 10
-29.7418067943
 20
-10.0306115575
 11
-29.75
 21
-10.5
  0
LINE
  5
2C4
100
AcDbEntity
  8
RACCORDO
100
AcDbLine
 62
7
  6
CONTINUOUS
 10
-29.7418067943
 20
-35.0306115575
 11
-29.75
 21
-35.5
  0
LINE
  5
2C5
100
AcDbEntity
  8
RACCORDO
100
AcDbLine
 62
7
  6
CONTINUOUS
 10
-28.7581932057
 20
-14.9693884425
 11
-28.75
 21
-14.5
  0
LINE
  5
2C6
100
AcDbEntity
  8
RACCORDO
100
AcDbLine
 62
7
  6
CONTINUOUS
 10
-28.7581932057
 20
-39.9693884425
 11
-28.75
 21
-39.5
  0
LINE
  5
2C7
100
AcDbEntity
  8
DRAFT
100
AcDbLine
 62
7
  6
CONTINUOUS
 10
43.4
 20
-29.7331646234
 11
42.8722222222
 21
-29.7663292467
  0
LINE
  5
2C8
100
AcDbEntity
  8
DRAFT
100
AcDbLine
 62
7
  6
CONTINUOUS
 10
35.45
 20
-27.5689475065
 11
37.15
 21
-27.5
  0
LINE
  5
2C9
100
AcDbEntity
  8
DRAFT
100
AcDbLine
 62
7
  6
CONTINUOUS
 10
35.45
 20
-28.6844711278
 11
37.15
 21
-28.65
  0
LINE
  5
2CA
100
AcDbEntity
  8
DRAFT
100
AcDbLine
 62
7
  6
CONTINUOUS
 10
-44.0318668212
 20
-29.5
 11
-44.1
 21
-29.5004256084
  0
LINE
  5
2CB
100
AcDbEntity
  8
DRAFT
100
AcDbLine
 62
7
  6
CONTINUOUS
 10
44.1
 20
-29.7
 11
43.4
 21
-29.7
  0
LINE
  5
2CC
100
AcDbEntity
  8
RACCORDO
100
AcDbLine
 62
7
  6
CONTINUOUS
 10
-6.15
 20
-29.1
 11
-3.15
 21
-29.1
  0
LINE
  5
2CD
100
AcDbEntity
  8
RACCORDO
100
AcDbLine
 62
7
  6
CONTINUOUS
 10
20.85
 20
-29.1
 11
23.85
 21
-29.1
  0
LINE
  5
2CE
100
AcDbEntity
  8
0
100
AcDbLine
 62
7
  6
CONTINUOUS
 10
-17.15
 20
-29.0
 11
-6.3735420253
 21
-29.0
  0
LINE
  5
2CF
100
AcDbEntity
  8
0
100
AcDbLine
 62
7
  6
CONTINUOUS
 10
-2.9264579747
 20
-29.0
 11
20.6264579747
 21
-29.0
  0
LINE
  5
2D0
100
AcDbEntity
  8
0
100
AcDbLine
 62
7
  6
CONTINUOUS
 10
24.0735420253
 20
-29.0
 11
34.85
 21
-29.0
  0
LINE
  5
2D1
100
AcDbEntity
  8
DRAFT
100
AcDbLine
 62
7
  6
CONTINUOUS
 10
-17.6
 20
-28.729938109
 11
-18.779938109
 21
-28.729938109
  0
LINE
  5
2D2
100
AcDbEntity
  8
DRAFT
100
AcDbLine
 62
7
  6
CONTINUOUS
 10
43.564516129
 20
-28.7285477922
 11
42.4
 21
-28.7285477922
  0
LINE
  5
2D3
100
AcDbEntity
  8
DRAFT
100
AcDbLine
 62
7
  6
CONTINUOUS
 10
-42.3
 20
-28.7285477922
 11
-43.464516129
 21
-28.7285477922
  0
LINE
  5
2D4
100
AcDbEntity
  8
RACCORDO
100
AcDbLine
 62
250
  6
CONTINUOUS
 10
-2.85
 20
-28.7
 11
-6.45
 21
-28.7
  0
LINE
  5
2D5
100
AcDbEntity
  8
RACCORDO
100
AcDbLine
 62
250
  6
CONTINUOUS
 10
20.55
 20
-28.7
 11
24.15
 21
-28.7
  0
LINE
  5
2D6
100
AcDbEntity
  8
DRAFT
100
AcDbLine
 62
7
  6
CONTINUOUS
 10
36.4404053979
 20
-28.6904053979
 11
35.3
 21
-28.6904053979
  0
LINE
  5
2D7
100
AcDbEntity
  8
RACCORDO
100
AcDbLine
 62
7
  6
CONTINUOUS
 10
-19.85
 20
-28.6844711278
 11
-6.15
 21
-28.6844711278
  0
LINE
  5
2D8
100
AcDbEntity
  8
RACCORDO
100
AcDbLine
 62
7
  6
CONTINUOUS
 10
-3.15
 20
-28.6844711278
 11
20.85
 21
-28.6844711278
  0
LINE
  5
2D9
100
AcDbEntity
  8
RACCORDO
100
AcDbLine
 62
7
  6
CONTINUOUS
 10
23.85
 20
-28.6844711278
 11
35.45
 21
-28.6844711278
  0
LINE
  5
2DA
100
AcDbEntity
  8
DRAFT
100
AcDbLine
 62
7
  6
CONTINUOUS
 10
-36.45
 20
-28.673562543
 11
-19.85
 21
-28.673562543
  0
LINE
  5
2DB
100
AcDbEntity
  8
DRAFT
100
AcDbLine
 62
7
  6
CONTINUOUS
 10
44.0
 20
-28.65
 11
42.3214522078
 21
-28.65
  0
LINE
  5
2DC
100
AcDbEntity
  8
DRAFT
100
AcDbLine
 62
7
  6
CONTINUOUS
 10
-41.15
 20
-28.65
 11
-40.95
 21
-28.65
  0
LINE
  5
2DD
100
AcDbEntity
  8
DRAFT
100
AcDbLine
 62
7
  6
CONTINUOUS
 10
37.15
 20
-28.65
 11
41.25
 21
-28.65
  0
LINE
  5
2DE
100
AcDbEntity
  8
DRAFT
100
AcDbLine
 62
7
  6
CONTINUOUS
 10
-42.2214522078
 20
-28.65
 11
-43.9
 21
-28.65
  0
LINE
  5
2DF
100
AcDbEntity
  8
DRAFT
100
AcDbLine
 62
7
  6
CONTINUOUS
 10
-40.95
 20
-28.65
 11
-36.45
 21
-28.673562543
  0
LINE
  5
2E0
100
AcDbEntity
  8
DRAFT
100
AcDbLine
 62
7
  6
CONTINUOUS
 10
-40.95
 20
-27.5
 11
-36.45
 21
-27.5471286753
  0
LINE
  5
2E1
100
AcDbEntity
  8
DRAFT
100
AcDbLine
 62
7
  6
CONTINUOUS
 10
-42.4214342279
 20
-29.5785477922
 11
-44.0318668212
 21
-29.5
  0
LINE
  5
2E2
100
AcDbEntity
  8
DRAFT
100
AcDbLine
 62
7
  6
CONTINUOUS
 10
-41.15
 20
-3.65
 11
-41.0712127159
 21
-3.7287872841
  0
LINE
  5
2E3
100
AcDbEntity
  8
DRAFT
100
AcDbLine
 62
7
  6
CONTINUOUS
 10
-27.2806115575
 20
-14.9693884425
 11
-27.25
 21
-15.0
  0
LINE
  5
2E4
100
AcDbEntity
  8
RACCORDO
100
AcDbLine
 62
7
  6
CONTINUOUS
 10
-31.146491465
 20
-10.4
 11
-31.2094210886
 21
-10.3370703764
  0
LINE
  5
2E5
100
AcDbEntity
  8
SMUSSO
100
AcDbLine
 62
7
  6
CONTINUOUS
 10
-27.0174537356
 20
-35.5
 11
-27.0
 21
-37.5
  0
LINE
  5
2E6
100
AcDbEntity
  8
SMUSSO
100
AcDbLine
 62
7
  6
CONTINUOUS
 10
-27.0174537356
 20
-10.5
 11
-27.0
 21
-12.5
  0
LINE
  5
2E7
100
AcDbEntity
  8
DRAFT
100
AcDbLine
 62
7
  6
CONTINUOUS
 10
-27.2806115575
 20
-10.0306115575
 11
-27.2806115575
 21
-10.5
  0
LINE
  5
2E8
100
AcDbEntity
  8
DRAFT
100
AcDbLine
 62
7
  6
CONTINUOUS
 10
-27.2806115575
 20
-14.5
 11
-27.2806115575
 21
-14.9693884425
  0
LINE
  5
2E9
100
AcDbEntity
  8
DRAFT
100
AcDbLine
 62
7
  6
CONTINUOUS
 10
-27.2806115575
 20
-35.0306115575
 11
-27.2806115575
 21
-35.5
  0
LINE
  5
2EA
100
AcDbEntity
  8
DRAFT
100
AcDbLine
 62
7
  6
CONTINUOUS
 10
-27.2806115575
 20
-39.5
 11
-27.2806115575
 21
-39.9693884425
  0
LINE
  5
2EB
100
AcDbEntity
  8
DRAFT
100
AcDbLine
 62
7
  6
CONTINUOUS
 10
-27.25
 20
-10.0
 11
-27.25
 21
-10.5
  0
LINE
  5
2EC
100
AcDbEntity
  8
DRAFT
100
AcDbLine
 62
7
  6
CONTINUOUS
 10
-27.25
 20
-14.5
 11
-27.25
 21
-15.0
  0
LINE
  5
2ED
100
AcDbEntity
  8
DRAFT
100
AcDbLine
 62
7
  6
CONTINUOUS
 10
-27.25
 20
-35.0
 11
-27.25
 21
-35.5
  0
LINE
  5
2EE
100
AcDbEntity
  8
DRAFT
100
AcDbLine
 62
7
  6
CONTINUOUS
 10
-27.25
 20
-39.5
 11
-27.25
 21
-40.0
  0
LINE
  5
2EF
100
AcDbEntity
  8
SMUSSO
100
AcDbLine
 62
7
  6
CONTINUOUS
 10
-28.0000380755
 20
-37.5
 11
-28.0174918111
 21
-39.5
  0
LINE
  5
2F0
100
AcDbEntity
  8
SMUSSO
100
AcDbLine
 62
7
  6
CONTINUOUS
 10
-27.0
 20
-12.5
 11
-27.0174537356
 21
-14.5
  0
LINE
  5
2F1
100
AcDbEntity
  8
SMUSSO
100
AcDbLine
 62
7
  6
CONTINUOUS
 10
-27.0
 20
-37.5
 11
-27.0174537356
 21
-39.5
  0
LINE
  5
2F2
100
AcDbEntity
  8
DRAFT
100
AcDbLine
 62
7
  6
CONTINUOUS
 10
-42.3
 20
-3.7285477922
 11
-42.2214522078
 21
-3.65
  0
LINE
  5
2F3
100
AcDbEntity
  8
DRAFT
100
AcDbLine
 62
7
  6
CONTINUOUS
 10
-40.95
 20
-22.5
 11
-36.45
 21
-22.4528713247
  0
LINE
  5
2F4
100
AcDbEntity
  8
DRAFT
100
AcDbLine
 62
7
  6
CONTINUOUS
 10
-19.85
 20
-27.5689475065
 11
35.45
 21
-27.5689475065
  0
LINE
  5
2F5
100
AcDbEntity
  8
DRAFT
100
AcDbLine
 62
7
  6
CONTINUOUS
 10
-36.45
 20
-27.5471286753
 11
-19.85
 21
-27.5471286753
  0
LINE
  5
2F6
100
AcDbEntity
  8
RACCORDO
100
AcDbLine
 62
7
  6
CONTINUOUS
 10
-43.3985086164
 20
-27.5
 11
-40.95
 21
-27.5
  0
LINE
  5
2F7
100
AcDbEntity
  8
RACCORDO
100
AcDbLine
 62
7
  6
CONTINUOUS
 10
37.15
 20
-27.5
 11
43.4985086164
 21
-27.5
  0
LINE
  5
2F8
100
AcDbEntity
  8
RACCORDO
100
AcDbLine
 62
7
  6
CONTINUOUS
 10
43.4985086164
 20
-22.5
 11
37.15
 21
-22.5
  0
LINE
  5
2F9
100
AcDbEntity
  8
RACCORDO
100
AcDbLine
 62
7
  6
CONTINUOUS
 10
-40.95
 20
-22.5
 11
-43.3985086164
 21
-22.5
  0
LINE
  5
2FA
100
AcDbEntity
  8
DRAFT
100
AcDbLine
 62
7
  6
CONTINUOUS
 10
-36.45
 20
-22.4528713247
 11
-19.85
 21
-22.4528713247
  0
LINE
  5
2FB
100
AcDbEntity
  8
DRAFT
100
AcDbLine
 62
7
  6
CONTINUOUS
 10
35.45
 20
-22.4310524935
 11
-19.85
 21
-22.4310524935
  0
LINE
  5
2FC
100
AcDbEntity
  8
DRAFT
100
AcDbLine
 62
7
  6
CONTINUOUS
 10
-31.2145662182
 20
-10.0177155416
 11
-31.25
 21
-10.0
  0
LINE
  5
2FD
100
AcDbEntity
  8
DRAFT
100
AcDbLine
 62
7
  6
CONTINUOUS
 10
-30.4074219605
 20
-10.0306115575
 11
-30.4332159566
 21
-10.0177155416
  0
LINE
  5
2FE
100
AcDbEntity
  8
DRAFT
100
AcDbLine
 62
7
  6
CONTINUOUS
 10
-19.85
 20
-2.5471286753
 11
-19.85
 21
-3.6844711278
  0
LINE
  5
2FF
100
AcDbEntity
  8
DRAFT
100
AcDbLine
 62
7
  6
CONTINUOUS
 10
-19.85
 20
-21.3155288722
 11
-19.85
 21
-22.4528713247
  0
LINE
  5
300
100
AcDbEntity
  8
DRAFT
100
AcDbLine
 62
7
  6
CONTINUOUS
 10
-19.85
 20
-27.5471286753
 11
-19.85
 21
-28.6844711278
  0
LINE
  5
301
100
AcDbEntity
  8
DRAFT
100
AcDbLine
 62
7
  6
CONTINUOUS
 10
-19.85
 20
-46.3155288722
 11
-19.85
 21
-47.4528713247
  0
LINE
  5
302
100
AcDbEntity
  8
DRAFT
100
AcDbLine
 62
7
  6
CONTINUOUS
 10
-18.8180476669
 20
-3.7680476669
 11
-18.8180476669
 21
-19.35
  0
LINE
  5
303
100
AcDbEntity
  8
DRAFT
100
AcDbLine
 62
7
  6
CONTINUOUS
 10
-18.8180476669
 20
-28.7680476669
 11
-18.8180476669
 21
-44.35
  0
LINE
  5
304
100
AcDbEntity
  8
DRAFT
100
AcDbLine
 62
7
  6
CONTINUOUS
 10
-18.8148455801
 20
-46.2351544199
 11
-18.8148455801
 21
-44.35
  0
LINE
  5
305
100
AcDbEntity
  8
DRAFT
100
AcDbLine
 62
7
  6
CONTINUOUS
 10
-18.8148455801
 20
-21.2351544199
 11
-18.8148455801
 21
-19.35
  0
LINE
  5
306
100
AcDbEntity
  8
DRAFT
100
AcDbLine
 62
7
  6
CONTINUOUS
 10
-18.779938109
 20
-3.729938109
 11
-18.779938109
 21
-19.35
  0
LINE
  5
307
100
AcDbEntity
  8
DRAFT
100
AcDbLine
 62
7
  6
CONTINUOUS
 10
-18.779938109
 20
-28.729938109
 11
-18.779938109
 21
-44.35
  0
LINE
  5
308
100
AcDbEntity
  8
DRAFT
100
AcDbLine
 62
7
  6
CONTINUOUS
 10
-17.6
 20
-46.2351544199
 11
-17.6
 21
-28.729938109
  0
LINE
  5
309
100
AcDbEntity
  8
DRAFT
100
AcDbLine
 62
7
  6
CONTINUOUS
 10
-17.6
 20
-21.2351544199
 11
-17.6
 21
-3.729938109
  0
LINE
  5
30A
100
AcDbEntity
  8
0
100
AcDbLine
 62
7
  6
CONTINUOUS
 10
-17.15
 20
-46.0
 11
-17.15
 21
-29.0
  0
LINE
  5
30B
100
AcDbEntity
  8
0
100
AcDbLine
 62
7
  6
CONTINUOUS
 10
-17.15
 20
-21.0
 11
-17.15
 21
-4.0
  0
LINE
  5
30C
100
AcDbEntity
  8
DRAFT
100
AcDbLine
 62
7
  6
CONTINUOUS
 10
-42.4214342279
 20
-20.4214522078
 11
-44.0318668212
 21
-20.5
  0
LINE
  5
30D
100
AcDbEntity
  8
DRAFT
100
AcDbLine
 62
7
  6
CONTINUOUS
 10
-40.95
 20
-21.35
 11
-36.45
 21
-21.326437457
  0
LINE
  5
30E
100
AcDbEntity
  8
DRAFT
100
AcDbLine
 62
7
  6
CONTINUOUS
 10
44.0
 20
-21.35
 11
42.3214522078
 21
-21.35
  0
LINE
  5
30F
100
AcDbEntity
  8
DRAFT
100
AcDbLine
 62
7
  6
CONTINUOUS
 10
41.25
 20
-21.35
 11
37.15
 21
-21.35
  0
LINE
  5
310
100
AcDbEntity
  8
DRAFT
100
AcDbLine
 62
7
  6
CONTINUOUS
 10
-40.95
 20
-21.35
 11
-41.15
 21
-21.35
  0
LINE
  5
311
100
AcDbEntity
  8
DRAFT
100
AcDbLine
 62
7
  6
CONTINUOUS
 10
-42.2214522078
 20
-21.35
 11
-43.9
 21
-21.35
  0
LINE
  5
312
100
AcDbEntity
  8
DRAFT
100
AcDbLine
 62
7
  6
CONTINUOUS
 10
-36.45
 20
-21.326437457
 11
-19.85
 21
-21.326437457
  0
LINE
  5
313
100
AcDbEntity
  8
RACCORDO
100
AcDbLine
 62
7
  6
CONTINUOUS
 10
35.45
 20
-21.3155288722
 11
23.85
 21
-21.3155288722
  0
LINE
  5
314
100
AcDbEntity
  8
RACCORDO
100
AcDbLine
 62
7
  6
CONTINUOUS
 10
20.85
 20
-21.3155288722
 11
-3.15
 21
-21.3155288722
  0
LINE
  5
315
100
AcDbEntity
  8
RACCORDO
100
AcDbLine
 62
7
  6
CONTINUOUS
 10
-6.15
 20
-21.3155288722
 11
-19.85
 21
-21.3155288722
  0
LINE
  5
316
100
AcDbEntity
  8
RACCORDO
100
AcDbLine
 62
250
  6
CONTINUOUS
 10
-2.85
 20
-21.3
 11
-6.45
 21
-21.3
  0
LINE
  5
317
100
AcDbEntity
  8
RACCORDO
100
AcDbLine
 62
250
  6
CONTINUOUS
 10
20.55
 20
-21.3
 11
24.15
 21
-21.3
  0
LINE
  5
318
100
AcDbEntity
  8
DRAFT
100
AcDbLine
 62
7
  6
CONTINUOUS
 10
35.3
 20
-21.274687131
 11
36.475312869
 21
-21.274687131
  0
LINE
  5
319
100
AcDbEntity
  8
DRAFT
100
AcDbLine
 62
7
  6
CONTINUOUS
 10
43.564516129
 20
-21.2714522078
 11
42.4
 21
-21.2714522078
  0
LINE
  5
31A
100
AcDbEntity
  8
DRAFT
100
AcDbLine
 62
7
  6
CONTINUOUS
 10
-42.3
 20
-21.2714522078
 11
-43.464516129
 21
-21.2714522078
  0
LINE
  5
31B
100
AcDbEntity
  8
DRAFT
100
AcDbLine
 62
7
  6
CONTINUOUS
 10
-18.8148455801
 20
-21.2351544199
 11
-17.6
 21
-21.2351544199
  0
LINE
  5
31C
100
AcDbEntity
  8
0
100
AcDbLine
 62
7
  6
CONTINUOUS
 10
34.85
 20
-21.0
 11
24.0735420253
 21
-21.0
  0
LINE
  5
31D
100
AcDbEntity
  8
0
100
AcDbLine
 62
7
  6
CONTINUOUS
 10
20.6264579747
 20
-21.0
 11
-2.9264579747
 21
-21.0
  0
LINE
  5
31E
100
AcDbEntity
  8
0
100
AcDbLine
 62
7
  6
CONTINUOUS
 10
-6.3735420253
 20
-21.0
 11
-17.15
 21
-21.0
  0
LINE
  5
31F
100
AcDbEntity
  8
RACCORDO
100
AcDbLine
 62
7
  6
CONTINUOUS
 10
23.85
 20
-20.9
 11
20.85
 21
-20.9
  0
LINE
  5
320
100
AcDbEntity
  8
RACCORDO
100
AcDbLine
 62
7
  6
CONTINUOUS
 10
-3.15
 20
-20.9
 11
-6.15
 21
-20.9
  0
LINE
  5
321
100
AcDbEntity
  8
DRAFT
100
AcDbLine
 62
7
  6
CONTINUOUS
 10
44.1
 20
-20.3
 11
43.4
 21
-20.3
  0
LINE
  5
322
100
AcDbEntity
  8
DRAFT
100
AcDbLine
 62
7
  6
CONTINUOUS
 10
-17.6
 20
-19.35
 11
-18.8148455801
 21
-19.35
  0
LINE
  5
323
100
AcDbEntity
  8
DRAFT
100
AcDbLine
 62
7
  6
CONTINUOUS
 10
35.3
 20
-18.75
 11
36.475312869
 21
-18.75
  0
LINE
  5
324
100
AcDbEntity
  8
DRAFT
100
AcDbLine
 62
7
  6
CONTINUOUS
 10
-44.0318668212
 20
-20.5
 11
-44.1
 21
-20.4995743916
  0
LINE
  5
325
100
AcDbEntity
  8
DRAFT
100
AcDbLine
 62
7
  6
CONTINUOUS
 10
35.45
 20
-21.3155288722
 11
37.15
 21
-21.35
  0
LINE
  5
326
100
AcDbEntity
  8
DRAFT
100
AcDbLine
 62
7
  6
CONTINUOUS
 10
35.45
 20
-22.4310524935
 11
37.15
 21
-22.5
  0
LINE
  5
327
100
AcDbEntity
  8
DRAFT
100
AcDbLine
 62
7
  6
CONTINUOUS
 10
43.4
 20
-20.2668353766
 11
42.8722222222
 21
-20.2336707533
  0
LINE
  5
328
100
AcDbEntity
  8
DRAFT
100
AcDbLine
 62
7
  6
CONTINUOUS
 10
-41.15
 20
-21.35
 11
-41.0712127159
 21
-21.2712127159
  0
LINE
  5
329
100
AcDbEntity
  8
DRAFT
100
AcDbLine
 62
7
  6
CONTINUOUS
 10
-27.2806115575
 20
-10.0306115575
 11
-27.25
 21
-10.0
  0
LINE
  5
32A
100
AcDbEntity
  8
RACCORDO
100
AcDbLine
 62
7
  6
CONTINUOUS
 10
-31.146491465
 20
-14.6
 11
-31.2094210886
 21
-14.6629296236
  0
LINE
  5
32B
100
AcDbEntity
  8
DRAFT
100
AcDbLine
 62
7
  6
CONTINUOUS
 10
-18.8180476669
 20
-3.7680476669
 11
-18.779938109
 21
-3.729938109
  0
LINE
  5
32C
100
AcDbEntity
  8
DRAFT
100
AcDbLine
 62
7
  6
CONTINUOUS
 10
-43.9
 20
-21.35
 11
-43.464516129
 21
-21.2714522078
  0
LINE
  5
32D
100
AcDbEntity
  8
DRAFT
100
AcDbLine
 62
7
  6
CONTINUOUS
 10
43.564516129
 20
-3.7285477922
 11
44.0
 21
-3.65
  0
LINE
  5
32E
100
AcDbEntity
  8
DRAFT
100
AcDbLine
 62
7
  6
CONTINUOUS
 10
44.1
 20
-15.3
 11
43.4
 21
-15.3
  0
LINE
  5
32F
100
AcDbEntity
  8
DRAFT
100
AcDbLine
 62
7
  6
CONTINUOUS
 10
-27.25
 20
-15.0
 11
-31.25
 21
-15.0
  0
LINE
  5
330
100
AcDbEntity
  8
DRAFT
100
AcDbLine
 62
7
  6
CONTINUOUS
 10
-31.2145662182
 20
-14.9822844584
 11
-30.4332159566
 21
-14.9822844584
  0
LINE
  5
331
100
AcDbEntity
  8
DRAFT
100
AcDbLine
 62
7
  6
CONTINUOUS
 10
-27.2806115575
 20
-14.9693884425
 11
-30.4074219605
 21
-14.9693884425
  0
LINE
  5
332
100
AcDbEntity
  8
DRAFT
100
AcDbLine
 62
7
  6
CONTINUOUS
 10
-30.25
 20
-14.6
 11
-31.146491465
 21
-14.6
  0
LINE
  5
333
100
AcDbEntity
  8
SMUSSO
100
AcDbLine
 62
7
  6
CONTINUOUS
 10
-27.0174537356
 20
-14.5
 11
-28.0174918111
 21
-14.5
  0
LINE
  5
334
100
AcDbEntity
  8
RACCORDO
100
AcDbLine
 62
7
  6
CONTINUOUS
 10
-28.0174918111
 20
-14.5
 11
-31.8055301685
 21
-14.5
  0
LINE
  5
335
100
AcDbEntity
  8
DRAFT
100
AcDbLine
 62
7
  6
CONTINUOUS
 10
36.4404053979
 20
-13.0404053979
 11
37.1983032699
 21
-13.0404053979
  0
LINE
  5
336
100
AcDbEntity
  8
DRAFT
100
AcDbLine
 62
7
  6
CONTINUOUS
 10
40.4016967301
 20
-13.0404053979
 11
41.2095946021
 21
-13.0404053979
  0
LINE
  5
337
100
AcDbEntity
  8
SMUSSO
100
AcDbLine
 62
7
  6
CONTINUOUS
 10
-27.0
 20
-12.5
 11
-28.0000380755
 21
-12.5
  0
LINE
  5
338
100
AcDbEntity
  8
RACCORDO
100
AcDbLine
 62
7
  6
CONTINUOUS
 10
-28.0000380755
 20
-12.5
 11
-31.8229839041
 21
-12.5
  0
LINE
  5
339
100
AcDbEntity
  8
RACCORDO
100
AcDbLine
 62
250
  6
CONTINUOUS
 10
-36.55
 20
-12.5
 11
-36.9268295361
 21
-12.5
  0
LINE
  5
33A
100
AcDbEntity
  8
RACCORDO
100
AcDbLine
 62
250
  6
CONTINUOUS
 10
-21.593718194
 20
-12.5
 11
-21.95
 21
-12.5
  0
LINE
  5
33B
100
AcDbEntity
  8
DRAFT
100
AcDbLine
 62
7
  6
CONTINUOUS
 10
41.2095946021
 20
-11.9595946021
 11
40.4016967301
 21
-11.9595946021
  0
LINE
  5
33C
100
AcDbEntity
  8
DRAFT
100
AcDbLine
 62
7
  6
CONTINUOUS
 10
37.1983032699
 20
-11.9595946021
 11
36.4404053979
 21
-11.9595946021
  0
LINE
  5
33D
100
AcDbEntity
  8
RACCORDO
100
AcDbLine
 62
250
  6
CONTINUOUS
 10
35.3
 20
-12.5000153796
 11
35.1983088705
 21
-12.4999579861
  0
LINE
  5
33E
100
AcDbEntity
  8
RACCORDO
100
AcDbLine
 62
250
  6
CONTINUOUS
 10
-17.6
 20
-12.5000107933
 11
-17.4791987501
 21
-12.5001060353
  0
LINE
  5
33F
100
AcDbEntity
  8
DRAFT
100
AcDbLine
 62
7
  6
CONTINUOUS
 10
43.564516129
 20
-21.2714522078
 11
44.0
 21
-21.35
  0
LINE
  5
340
100
AcDbEntity
  8
DRAFT
100
AcDbLine
 62
7
  6
CONTINUOUS
 10
-43.9
 20
-3.65
 11
-43.464516129
 21
-3.7285477922
  0
LINE
  5
341
100
AcDbEntity
  8
RACCORDO
100
AcDbLine
 62
7
  6
CONTINUOUS
 10
-6.45
 20
-3.6870891881
 11
-6.45
 21
-3.8
  0
LINE
  5
342
100
AcDbEntity
  8
RACCORDO
100
AcDbLine
 62
7
  6
CONTINUOUS
 10
-6.45
 20
-21.2
 11
-6.45
 21
-21.3129108119
  0
LINE
  5
343
100
AcDbEntity
  8
RACCORDO
100
AcDbLine
 62
7
  6
CONTINUOUS
 10
-6.45
 20
-28.6870891881
 11
-6.45
 21
-28.8
  0
LINE
  5
344
100
AcDbEntity
  8
RACCORDO
100
AcDbLine
 62
7
  6
CONTINUOUS
 10
-6.45
 20
-46.2
 11
-6.45
 21
-46.3129108119
  0
LINE
  5
345
100
AcDbEntity
  8
RACCORDO
100
AcDbLine
 62
250
  6
CONTINUOUS
 10
-6.15
 20
-3.6844711278
 11
-6.15
 21
-4.1
  0
LINE
  5
346
100
AcDbEntity
  8
RACCORDO
100
AcDbLine
 62
250
  6
CONTINUOUS
 10
-6.15
 20
-20.9
 11
-6.15
 21
-21.3155288722
  0
LINE
  5
347
100
AcDbEntity
  8
RACCORDO
100
AcDbLine
 62
250
  6
CONTINUOUS
 10
-6.15
 20
-28.6844711278
 11
-6.15
 21
-29.1
  0
LINE
  5
348
100
AcDbEntity
  8
RACCORDO
100
AcDbLine
 62
250
  6
CONTINUOUS
 10
-6.15
 20
-45.9
 11
-6.15
 21
-46.3155288722
  0
LINE
  5
349
100
AcDbEntity
  8
DRAFT
100
AcDbLine
 62
7
  6
CONTINUOUS
 10
-42.3
 20
-28.7285477922
 11
-42.2214522078
 21
-28.65
  0
LINE
  5
34A
100
AcDbEntity
  8
DRAFT
100
AcDbLine
 62
7
  6
CONTINUOUS
 10
43.4
 20
-4.7331646234
 11
42.8722222222
 21
-4.7663292467
  0
LINE
  5
34B
100
AcDbEntity
  8
SMUSSO
100
AcDbLine
 62
7
  6
CONTINUOUS
 10
-28.0174918111
 20
-10.5
 11
-27.0174537356
 21
-10.5
  0
LINE
  5
34C
100
AcDbEntity
  8
RACCORDO
100
AcDbLine
 62
7
  6
CONTINUOUS
 10
-28.0174918111
 20
-10.5
 11
-31.8055301685
 21
-10.5
  0
LINE
  5
34D
100
AcDbEntity
  8
DRAFT
100
AcDbLine
 62
7
  6
CONTINUOUS
 10
-30.25
 20
-10.4
 11
-31.146491465
 21
-10.4
  0
LINE
  5
34E
100
AcDbEntity
  8
DRAFT
100
AcDbLine
 62
7
  6
CONTINUOUS
 10
-30.4074219605
 20
-10.0306115575
 11
-27.2806115575
 21
-10.0306115575
  0
LINE
  5
34F
100
AcDbEntity
  8
DRAFT
100
AcDbLine
 62
7
  6
CONTINUOUS
 10
-31.2145662182
 20
-10.0177155416
 11
-30.4332159566
 21
-10.0177155416
  0
LINE
  5
350
100
AcDbEntity
  8
DRAFT
100
AcDbLine
 62
7
  6
CONTINUOUS
 10
-31.25
 20
-10.0
 11
-27.25
 21
-10.0
  0
LINE
  5
351
100
AcDbEntity
  8
DRAFT
100
AcDbLine
 62
7
  6
CONTINUOUS
 10
44.1
 20
-9.7
 11
43.4
 21
-9.7
  0
LINE
  5
352
100
AcDbEntity
  8
DRAFT
100
AcDbLine
 62
7
  6
CONTINUOUS
 10
-42.4214342279
 20
-4.5785477922
 11
-44.0318668212
 21
-4.5
  0
LINE
  5
353
100
AcDbEntity
  8
RACCORDO
100
AcDbLine
 62
250
  6
CONTINUOUS
 10
-3.15
 20
-46.3155288722
 11
-3.15
 21
-45.9
  0
LINE
  5
354
100
AcDbEntity
  8
RACCORDO
100
AcDbLine
 62
250
  6
CONTINUOUS
 10
-3.15
 20
-29.1
 11
-3.15
 21
-28.6844711278
  0
LINE
  5
355
100
AcDbEntity
  8
RACCORDO
100
AcDbLine
 62
250
  6
CONTINUOUS
 10
-3.15
 20
-21.3155288722
 11
-3.15
 21
-20.9
  0
LINE
  5
356
100
AcDbEntity
  8
RACCORDO
100
AcDbLine
 62
250
  6
CONTINUOUS
 10
-3.15
 20
-4.1
 11
-3.15
 21
-3.6844711278
  0
LINE
  5
357
100
AcDbEntity
  8
RACCORDO
100
AcDbLine
 62
7
  6
CONTINUOUS
 10
-2.85
 20
-46.3129108119
 11
-2.85
 21
-46.2
  0
LINE
  5
358
100
AcDbEntity
  8
RACCORDO
100
AcDbLine
 62
7
  6
CONTINUOUS
 10
-2.85
 20
-28.8
 11
-2.85
 21
-28.6870891881
  0
LINE
  5
359
100
AcDbEntity
  8
RACCORDO
100
AcDbLine
 62
7
  6
CONTINUOUS
 10
-2.85
 20
-21.3129108119
 11
-2.85
 21
-21.2
  0
LINE
  5
35A
100
AcDbEntity
  8
RACCORDO
100
AcDbLine
 62
7
  6
CONTINUOUS
 10
-2.85
 20
-3.8
 11
-2.85
 21
-3.6870891881
  0
LINE
  5
35B
100
AcDbEntity
  8
DRAFT
100
AcDbLine
 62
7
  6
CONTINUOUS
 10
-31.2145662182
 20
-14.9822844584
 11
-31.25
 21
-15.0
  0
LINE
  5
35C
100
AcDbEntity
  8
DRAFT
100
AcDbLine
 62
7
  6
CONTINUOUS
 10
-30.4074219605
 20
-14.9693884425
 11
-30.4332159566
 21
-14.9822844584
  0
LINE
  5
35D
100
AcDbEntity
  8
DRAFT
100
AcDbLine
 62
7
  6
CONTINUOUS
 10
35.45
 20
-2.5689475065
 11
37.15
 21
-2.5
  0
LINE
  5
35E
100
AcDbEntity
  8
DRAFT
100
AcDbLine
 62
7
  6
CONTINUOUS
 10
35.45
 20
-3.6844711278
 11
37.15
 21
-3.65
  0
LINE
  5
35F
100
AcDbEntity
  8
DRAFT
100
AcDbLine
 62
7
  6
CONTINUOUS
 10
-44.0318668212
 20
-4.5
 11
-44.1
 21
-4.5004256084
  0
LINE
  5
360
100
AcDbEntity
  8
DRAFT
100
AcDbLine
 62
7
  6
CONTINUOUS
 10
44.1
 20
-4.7
 11
43.4
 21
-4.7
  0
LINE
  5
361
100
AcDbEntity
  8
RACCORDO
100
AcDbLine
 62
7
  6
CONTINUOUS
 10
-6.15
 20
-4.1
 11
-3.15
 21
-4.1
  0
LINE
  5
362
100
AcDbEntity
  8
RACCORDO
100
AcDbLine
 62
7
  6
CONTINUOUS
 10
20.85
 20
-4.1
 11
23.85
 21
-4.1
  0
LINE
  5
363
100
AcDbEntity
  8
0
100
AcDbLine
 62
7
  6
CONTINUOUS
 10
-17.15
 20
-4.0
 11
-6.3735420253
 21
-4.0
  0
LINE
  5
364
100
AcDbEntity
  8
0
100
AcDbLine
 62
7
  6
CONTINUOUS
 10
-2.9264579747
 20
-4.0
 11
20.6264579747
 21
-4.0
  0
LINE
  5
365
100
AcDbEntity
  8
0
100
AcDbLine
 62
7
  6
CONTINUOUS
 10
24.0735420253
 20
-4.0
 11
34.85
 21
-4.0
  0
LINE
  5
366
100
AcDbEntity
  8
DRAFT
100
AcDbLine
 62
7
  6
CONTINUOUS
 10
-17.6
 20
-3.729938109
 11
-18.779938109
 21
-3.729938109
  0
LINE
  5
367
100
AcDbEntity
  8
DRAFT
100
AcDbLine
 62
7
  6
CONTINUOUS
 10
43.564516129
 20
-3.7285477922
 11
42.4
 21
-3.7285477922
  0
LINE
  5
368
100
AcDbEntity
  8
DRAFT
100
AcDbLine
 62
7
  6
CONTINUOUS
 10
-42.3
 20
-3.7285477922
 11
-43.464516129
 21
-3.7285477922
  0
LINE
  5
369
100
AcDbEntity
  8
RACCORDO
100
AcDbLine
 62
250
  6
CONTINUOUS
 10
-2.85
 20
-3.7
 11
-6.45
 21
-3.7
  0
LINE
  5
36A
100
AcDbEntity
  8
RACCORDO
100
AcDbLine
 62
250
  6
CONTINUOUS
 10
20.55
 20
-3.7
 11
24.15
 21
-3.7
  0
LINE
  5
36B
100
AcDbEntity
  8
DRAFT
100
AcDbLine
 62
7
  6
CONTINUOUS
 10
36.4404053979
 20
-3.6904053979
 11
35.3
 21
-3.6904053979
  0
LINE
  5
36C
100
AcDbEntity
  8
RACCORDO
100
AcDbLine
 62
7
  6
CONTINUOUS
 10
-19.85
 20
-3.6844711278
 11
-6.15
 21
-3.6844711278
  0
LINE
  5
36D
100
AcDbEntity
  8
RACCORDO
100
AcDbLine
 62
7
  6
CONTINUOUS
 10
-3.15
 20
-3.6844711278
 11
20.85
 21
-3.6844711278
  0
LINE
  5
36E
100
AcDbEntity
  8
RACCORDO
100
AcDbLine
 62
7
  6
CONTINUOUS
 10
23.85
 20
-3.6844711278
 11
35.45
 21
-3.6844711278
  0
LINE
  5
36F
100
AcDbEntity
  8
DRAFT
100
AcDbLine
 62
7
  6
CONTINUOUS
 10
-36.45
 20
-3.673562543
 11
-19.85
 21
-3.673562543
  0
LINE
  5
370
100
AcDbEntity
  8
DRAFT
100
AcDbLine
 62
7
  6
CONTINUOUS
 10
44.0
 20
-3.65
 11
42.3214522078
 21
-3.65
  0
LINE
  5
371
100
AcDbEntity
  8
DRAFT
100
AcDbLine
 62
7
  6
CONTINUOUS
 10
-41.15
 20
-3.65
 11
-40.95
 21
-3.65
  0
LINE
  5
372
100
AcDbEntity
  8
DRAFT
100
AcDbLine
 62
7
  6
CONTINUOUS
 10
37.15
 20
-3.65
 11
41.25
 21
-3.65
  0
LINE
  5
373
100
AcDbEntity
  8
DRAFT
100
AcDbLine
 62
7
  6
CONTINUOUS
 10
-42.2214522078
 20
-3.65
 11
-43.9
 21
-3.65
  0
LINE
  5
374
100
AcDbEntity
  8
DRAFT
100
AcDbLine
 62
7
  6
CONTINUOUS
 10
-19.85
 20
-2.5689475065
 11
35.45
 21
-2.5689475065
  0
LINE
  5
375
100
AcDbEntity
  8
DRAFT
100
AcDbLine
 62
7
  6
CONTINUOUS
 10
-36.45
 20
-2.5471286753
 11
-19.85
 21
-2.5471286753
  0
LINE
  5
376
100
AcDbEntity
  8
RACCORDO
100
AcDbLine
 62
7
  6
CONTINUOUS
 10
-43.3985086164
 20
-2.5
 11
-40.95
 21
-2.5
  0
LINE
  5
377
100
AcDbEntity
  8
RACCORDO
100
AcDbLine
 62
7
  6
CONTINUOUS
 10
37.15
 20
-2.5
 11
43.4985086164
 21
-2.5
  0
LINE
  5
378
100
AcDbEntity
  8
DRAFT
100
AcDbLine
 62
7
  6
CONTINUOUS
 10
-40.95
 20
-3.65
 11
-36.45
 21
-3.673562543
  0
LINE
  5
379
100
AcDbEntity
  8
DRAFT
100
AcDbLine
 62
7
  6
CONTINUOUS
 10
-40.95
 20
-2.5
 11
-36.45
 21
-2.5471286753
  0
LINE
  5
37A
100
AcDbEntity
  8
DRAFT
100
AcDbLine
 62
7
  6
CONTINUOUS
 10
41.25
 20
-46.35
 11
41.1712702155
 21
-46.2712702155
  0
LINE
  5
37B
100
AcDbEntity
  8
DRAFT
100
AcDbLine
 62
7
  6
CONTINUOUS
 10
36.4981436789
 20
-38.0981436789
 11
36.4404053979
 21
-38.0404053979
  0
LINE
  5
37C
100
AcDbEntity
  8
DRAFT
100
AcDbLine
 62
7
  6
CONTINUOUS
 10
-41.15
 20
-46.35
 11
-41.0712127159
 21
-46.2712127159
  0
LINE
  5
37D
100
AcDbEntity
  8
DRAFT
100
AcDbLine
 62
7
  6
CONTINUOUS
 10
-27.2806115575
 20
-35.0306115575
 11
-27.25
 21
-35.0
  0
LINE
  5
37E
100
AcDbEntity
  8
RACCORDO
100
AcDbLine
 62
7
  6
CONTINUOUS
 10
-31.146491465
 20
-39.6
 11
-31.2094210886
 21
-39.6629296236
  0
LINE
  5
37F
100
AcDbEntity
  8
DRAFT
100
AcDbLine
 62
7
  6
CONTINUOUS
 10
41.1712702155
 20
-36.9212702155
 11
41.2095946021
 21
-36.9595946021
  0
LINE
  5
380
100
AcDbEntity
  8
DRAFT
100
AcDbLine
 62
7
  6
CONTINUOUS
 10
36.4981436789
 20
-28.7481436789
 11
36.4404053979
 21
-28.6904053979
  0
LINE
  5
381
100
AcDbEntity
  8
DRAFT
100
AcDbLine
 62
7
  6
CONTINUOUS
 10
-18.8180476669
 20
-28.7680476669
 11
-18.779938109
 21
-28.729938109
  0
LINE
  5
382
100
AcDbEntity
  8
DRAFT
100
AcDbLine
 62
7
  6
CONTINUOUS
 10
42.3214522078
 20
-28.65
 11
42.4
 21
-28.7285477922
  0
LINE
  5
383
100
AcDbEntity
  8
DRAFT
100
AcDbLine
 62
7
  6
CONTINUOUS
 10
40.4016967301
 20
-38.0404053979
 11
40.4301450834
 21
-38.0803795622
  0
LINE
  5
384
100
AcDbEntity
  8
DRAFT
100
AcDbLine
 62
7
  6
CONTINUOUS
 10
37.1983032699
 20
-36.9595946021
 11
37.1582089484
 21
-36.9030531055
  0
LINE
  5
385
100
AcDbEntity
  8
DRAFT
100
AcDbLine
 62
7
  6
CONTINUOUS
 10
41.25
 20
-21.35
 11
41.1712702155
 21
-21.2712702155
  0
LINE
  5
386
100
AcDbEntity
  8
DRAFT
100
AcDbLine
 62
7
  6
CONTINUOUS
 10
36.4981436789
 20
-13.0981436789
 11
36.4404053979
 21
-13.0404053979
  0
LINE
  5
387
100
AcDbEntity
  8
RACCORDO
100
AcDbLine
 62
7
  6
CONTINUOUS
 10
20.55
 20
-3.6870891881
 11
20.55
 21
-3.8
  0
LINE
  5
388
100
AcDbEntity
  8
RACCORDO
100
AcDbLine
 62
7
  6
CONTINUOUS
 10
20.55
 20
-21.2
 11
20.55
 21
-21.3129108119
  0
LINE
  5
389
100
AcDbEntity
  8
RACCORDO
100
AcDbLine
 62
7
  6
CONTINUOUS
 10
20.55
 20
-28.6870891881
 11
20.55
 21
-28.8
  0
LINE
  5
38A
100
AcDbEntity
  8
RACCORDO
100
AcDbLine
 62
7
  6
CONTINUOUS
 10
20.55
 20
-46.2
 11
20.55
 21
-46.3129108119
  0
LINE
  5
38B
100
AcDbEntity
  8
RACCORDO
100
AcDbLine
 62
250
  6
CONTINUOUS
 10
20.85
 20
-3.6844711278
 11
20.85
 21
-4.1
  0
LINE
  5
38C
100
AcDbEntity
  8
RACCORDO
100
AcDbLine
 62
250
  6
CONTINUOUS
 10
20.85
 20
-20.9
 11
20.85
 21
-21.3155288722
  0
LINE
  5
38D
100
AcDbEntity
  8
RACCORDO
100
AcDbLine
 62
250
  6
CONTINUOUS
 10
20.85
 20
-28.6844711278
 11
20.85
 21
-29.1
  0
LINE
  5
38E
100
AcDbEntity
  8
RACCORDO
100
AcDbLine
 62
250
  6
CONTINUOUS
 10
20.85
 20
-45.9
 11
20.85
 21
-46.3155288722
  0
LINE
  5
38F
100
AcDbEntity
  8
DRAFT
100
AcDbLine
 62
7
  6
CONTINUOUS
 10
-31.2145662182
 20
-39.9822844584
 11
-31.25
 21
-40.0
  0
LINE
  5
390
100
AcDbEntity
  8
DRAFT
100
AcDbLine
 62
7
  6
CONTINUOUS
 10
-30.4074219605
 20
-39.9693884425
 11
-30.4332159566
 21
-39.9822844584
  0
LINE
  5
391
100
AcDbEntity
  8
DRAFT
100
AcDbLine
 62
7
  6
CONTINUOUS
 10
41.1712702155
 20
-11.9212702155
 11
41.2095946021
 21
-11.9595946021
  0
LINE
  5
392
100
AcDbEntity
  8
DRAFT
100
AcDbLine
 62
7
  6
CONTINUOUS
 10
36.4981436789
 20
-3.7481436789
 11
36.4404053979
 21
-3.6904053979
  0
LINE
  5
393
100
AcDbEntity
  8
DRAFT
100
AcDbLine
 62
7
  6
CONTINUOUS
 10
37.1983032699
 20
-11.9595946021
 11
37.1582089484
 21
-11.9030531055
  0
LINE
  5
394
100
AcDbEntity
  8
RACCORDO
100
AcDbLine
 62
250
  6
CONTINUOUS
 10
23.85
 20
-46.3155288722
 11
23.85
 21
-45.9
  0
LINE
  5
395
100
AcDbEntity
  8
RACCORDO
100
AcDbLine
 62
250
  6
CONTINUOUS
 10
23.85
 20
-29.1
 11
23.85
 21
-28.6844711278
  0
LINE
  5
396
100
AcDbEntity
  8
RACCORDO
100
AcDbLine
 62
250
  6
CONTINUOUS
 10
23.85
 20
-21.3155288722
 11
23.85
 21
-20.9
  0
LINE
  5
397
100
AcDbEntity
  8
RACCORDO
100
AcDbLine
 62
250
  6
CONTINUOUS
 10
23.85
 20
-4.1
 11
23.85
 21
-3.6844711278
  0
LINE
  5
398
100
AcDbEntity
  8
RACCORDO
100
AcDbLine
 62
7
  6
CONTINUOUS
 10
24.15
 20
-46.3129108119
 11
24.15
 21
-46.2
  0
LINE
  5
399
100
AcDbEntity
  8
RACCORDO
100
AcDbLine
 62
7
  6
CONTINUOUS
 10
24.15
 20
-28.8
 11
24.15
 21
-28.6870891881
  0
LINE
  5
39A
100
AcDbEntity
  8
RACCORDO
100
AcDbLine
 62
7
  6
CONTINUOUS
 10
24.15
 20
-21.3129108119
 11
24.15
 21
-21.2
  0
LINE
  5
39B
100
AcDbEntity
  8
RACCORDO
100
AcDbLine
 62
7
  6
CONTINUOUS
 10
24.15
 20
-3.8
 11
24.15
 21
-3.6870891881
  0
LINE
  5
39C
100
AcDbEntity
  8
DRAFT
100
AcDbLine
 62
7
  6
CONTINUOUS
 10
42.3214522078
 20
-3.65
 11
42.4
 21
-3.7285477922
  0
LINE
  5
39D
100
AcDbEntity
  8
DRAFT
100
AcDbLine
 62
7
  6
CONTINUOUS
 10
40.4016967301
 20
-13.0404053979
 11
40.4301450834
 21
-13.0803795622
  0
LINE
  5
39E
100
AcDbEntity
  8
0
100
AcDbLine
 62
7
  6
CONTINUOUS
 10
34.85
 20
-4.0
 11
34.85
 21
-21.0
  0
LINE
  5
39F
100
AcDbEntity
  8
0
100
AcDbLine
 62
7
  6
CONTINUOUS
 10
34.85
 20
-29.0
 11
34.85
 21
-46.0
  0
LINE
  5
3A0
100
AcDbEntity
  8
DRAFT
100
AcDbLine
 62
7
  6
CONTINUOUS
 10
41.25
 20
-3.65
 11
41.1712702155
 21
-3.7287297845
  0
LINE
  5
3A1
100
AcDbEntity
  8
DRAFT
100
AcDbLine
 62
7
  6
CONTINUOUS
 10
36.4981436789
 20
-11.9018563211
 11
36.4404053979
 21
-11.9595946021
  0
LINE
  5
3A2
100
AcDbEntity
  8
DRAFT
100
AcDbLine
 62
7
  6
CONTINUOUS
 10
35.3
 20
-21.274687131
 11
35.3
 21
-3.6904053979
  0
LINE
  5
3A3
100
AcDbEntity
  8
DRAFT
100
AcDbLine
 62
7
  6
CONTINUOUS
 10
35.3
 20
-28.6904053979
 11
35.3
 21
-46.274687131
  0
LINE
  5
3A4
100
AcDbEntity
  8
DRAFT
100
AcDbLine
 62
7
  6
CONTINUOUS
 10
35.45
 20
-2.5689475065
 11
35.45
 21
-3.6844711278
  0
LINE
  5
3A5
100
AcDbEntity
  8
DRAFT
100
AcDbLine
 62
7
  6
CONTINUOUS
 10
35.45
 20
-21.3155288722
 11
35.45
 21
-22.4310524935
  0
LINE
  5
3A6
100
AcDbEntity
  8
DRAFT
100
AcDbLine
 62
7
  6
CONTINUOUS
 10
35.45
 20
-27.5689475065
 11
35.45
 21
-28.6844711278
  0
LINE
  5
3A7
100
AcDbEntity
  8
DRAFT
100
AcDbLine
 62
7
  6
CONTINUOUS
 10
35.45
 20
-46.3155288722
 11
35.45
 21
-47.4310524935
  0
LINE
  5
3A8
100
AcDbEntity
  8
DRAFT
100
AcDbLine
 62
7
  6
CONTINUOUS
 10
36.4404053979
 20
-43.75
 11
36.4404053979
 21
-38.0404053979
  0
LINE
  5
3A9
100
AcDbEntity
  8
DRAFT
100
AcDbLine
 62
7
  6
CONTINUOUS
 10
36.4404053979
 20
-36.9595946021
 11
36.4404053979
 21
-28.6904053979
  0
LINE
  5
3AA
100
AcDbEntity
  8
DRAFT
100
AcDbLine
 62
7
  6
CONTINUOUS
 10
36.4404053979
 20
-18.75
 11
36.4404053979
 21
-13.0404053979
  0
LINE
  5
3AB
100
AcDbEntity
  8
DRAFT
100
AcDbLine
 62
7
  6
CONTINUOUS
 10
36.4404053979
 20
-11.9595946021
 11
36.4404053979
 21
-3.6904053979
  0
LINE
  5
3AC
100
AcDbEntity
  8
DRAFT
100
AcDbLine
 62
7
  6
CONTINUOUS
 10
36.475312869
 20
-46.274687131
 11
36.475312869
 21
-43.75
  0
LINE
  5
3AD
100
AcDbEntity
  8
DRAFT
100
AcDbLine
 62
7
  6
CONTINUOUS
 10
36.475312869
 20
-21.274687131
 11
36.475312869
 21
-18.75
  0
LINE
  5
3AE
100
AcDbEntity
  8
DRAFT
100
AcDbLine
 62
7
  6
CONTINUOUS
 10
36.4981436789
 20
-3.7481436789
 11
36.4981436789
 21
-11.9018563211
  0
LINE
  5
3AF
100
AcDbEntity
  8
DRAFT
100
AcDbLine
 62
7
  6
CONTINUOUS
 10
36.4981436789
 20
-13.0981436789
 11
36.4981436789
 21
-21.2518563211
  0
LINE
  5
3B0
100
AcDbEntity
  8
DRAFT
100
AcDbLine
 62
7
  6
CONTINUOUS
 10
36.4981436789
 20
-28.7481436789
 11
36.4981436789
 21
-36.9018563211
  0
LINE
  5
3B1
100
AcDbEntity
  8
DRAFT
100
AcDbLine
 62
7
  6
CONTINUOUS
 10
36.4981436789
 20
-38.0981436789
 11
36.4981436789
 21
-46.2518563211
  0
LINE
  5
3B2
100
AcDbEntity
  8
DRAFT
100
AcDbLine
 62
7
  6
CONTINUOUS
 10
37.1436214034
 20
-3.7470671302
 11
37.1436214034
 21
-11.9029328698
  0
LINE
  5
3B3
100
AcDbEntity
  8
DRAFT
100
AcDbLine
 62
7
  6
CONTINUOUS
 10
37.1436214034
 20
-13.0970671302
 11
37.1436214034
 21
-21.2529328698
  0
LINE
  5
3B4
100
AcDbEntity
  8
DRAFT
100
AcDbLine
 62
7
  6
CONTINUOUS
 10
37.1436214034
 20
-28.7470671302
 11
37.1436214034
 21
-36.9029328698
  0
LINE
  5
3B5
100
AcDbEntity
  8
DRAFT
100
AcDbLine
 62
7
  6
CONTINUOUS
 10
37.1436214034
 20
-38.0970671302
 11
37.1436214034
 21
-46.2529328698
  0
LINE
  5
3B6
100
AcDbEntity
  8
DRAFT
100
AcDbLine
 62
7
  6
CONTINUOUS
 10
37.15
 20
-47.5
 11
37.15
 21
-46.35
  0
LINE
  5
3B7
100
AcDbEntity
  8
DRAFT
100
AcDbLine
 62
7
  6
CONTINUOUS
 10
37.15
 20
-28.65
 11
37.15
 21
-27.5
  0
LINE
  5
3B8
100
AcDbEntity
  8
DRAFT
100
AcDbLine
 62
7
  6
CONTINUOUS
 10
37.15
 20
-22.5
 11
37.15
 21
-21.35
  0
LINE
  5
3B9
100
AcDbEntity
  8
DRAFT
100
AcDbLine
 62
7
  6
CONTINUOUS
 10
37.15
 20
-3.65
 11
37.15
 21
-2.5
  0
LINE
  5
3BA
100
AcDbEntity
  8
0
100
AcDbLine
 62
7
  6
CONTINUOUS
 10
37.8854702333
 20
-55.5
 11
37.8854702333
 21
-47.5
  0
LINE
  5
3BB
100
AcDbEntity
  8
0
100
AcDbLine
 62
7
  6
CONTINUOUS
 10
37.8854702333
 20
-27.5
 11
37.8854702333
 21
-22.5
  0
LINE
  5
3BC
100
AcDbEntity
  8
0
100
AcDbLine
 62
7
  6
CONTINUOUS
 10
37.8854702333
 20
-2.5
 11
37.8854702333
 21
55.5
  0
LINE
  5
3BD
100
AcDbEntity
  8
DRAFT
100
AcDbLine
 62
7
  6
CONTINUOUS
 10
37.1983032699
 20
-13.0404053979
 11
37.1582089484
 21
-13.0969468945
  0
LINE
  5
3BE
100
AcDbEntity
  8
DRAFT
100
AcDbLine
 62
7
  6
CONTINUOUS
 10
40.4016967301
 20
-11.9595946021
 11
40.4301450834
 21
-11.9196204378
  0
LINE
  5
3BF
100
AcDbEntity
  8
DRAFT
100
AcDbLine
 62
7
  6
CONTINUOUS
 10
41.1712702155
 20
-13.0787297845
 11
41.2095946021
 21
-13.0404053979
  0
LINE
  5
3C0
100
AcDbEntity
  8
DRAFT
100
AcDbLine
 62
7
  6
CONTINUOUS
 10
41.1712702155
 20
-3.7287297845
 11
41.1712702155
 21
-11.9212702155
  0
LINE
  5
3C1
100
AcDbEntity
  8
DRAFT
100
AcDbLine
 62
7
  6
CONTINUOUS
 10
41.1712702155
 20
-13.0787297845
 11
41.1712702155
 21
-21.2712702155
  0
LINE
  5
3C2
100
AcDbEntity
  8
DRAFT
100
AcDbLine
 62
7
  6
CONTINUOUS
 10
41.1712702155
 20
-28.7287297845
 11
41.1712702155
 21
-36.9212702155
  0
LINE
  5
3C3
100
AcDbEntity
  8
DRAFT
100
AcDbLine
 62
7
  6
CONTINUOUS
 10
41.1712702155
 20
-38.0787297845
 11
41.1712702155
 21
-46.2712702155
  0
LINE
  5
3C4
100
AcDbEntity
  8
DRAFT
100
AcDbLine
 62
7
  6
CONTINUOUS
 10
41.2095946021
 20
-11.9595946021
 11
41.2095946021
 21
-13.0404053979
  0
LINE
  5
3C5
100
AcDbEntity
  8
DRAFT
100
AcDbLine
 62
7
  6
CONTINUOUS
 10
41.2095946021
 20
-36.9595946021
 11
41.2095946021
 21
-38.0404053979
  0
LINE
  5
3C6
100
AcDbEntity
  8
DRAFT
100
AcDbLine
 62
7
  6
CONTINUOUS
 10
41.25
 20
-3.65
 11
41.25
 21
-21.35
  0
LINE
  5
3C7
100
AcDbEntity
  8
DRAFT
100
AcDbLine
 62
7
  6
CONTINUOUS
 10
41.25
 20
-28.65
 11
41.25
 21
-46.35
  0
LINE
  5
3C8
100
AcDbEntity
  8
DRAFT
100
AcDbLine
 62
7
  6
CONTINUOUS
 10
42.3214522078
 20
-46.35
 11
42.3214522078
 21
-28.65
  0
LINE
  5
3C9
100
AcDbEntity
  8
DRAFT
100
AcDbLine
 62
7
  6
CONTINUOUS
 10
42.3214522078
 20
-21.35
 11
42.3214522078
 21
-3.65
  0
LINE
  5
3CA
100
AcDbEntity
  8
DRAFT
100
AcDbLine
 62
7
  6
CONTINUOUS
 10
42.4
 20
-46.2714522078
 11
42.4
 21
-28.7285477922
  0
LINE
  5
3CB
100
AcDbEntity
  8
DRAFT
100
AcDbLine
 62
7
  6
CONTINUOUS
 10
42.4
 20
-21.2714522078
 11
42.4
 21
-3.7285477922
  0
LINE
  5
3CC
100
AcDbEntity
  8
DRAFT
100
AcDbLine
 62
7
  6
CONTINUOUS
 10
42.8722222222
 20
-4.7663292467
 11
42.8722222222
 21
-20.2336707533
  0
LINE
  5
3CD
100
AcDbEntity
  8
DRAFT
100
AcDbLine
 62
7
  6
CONTINUOUS
 10
42.8722222222
 20
-29.7663292467
 11
42.8722222222
 21
-45.2336707533
  0
LINE
  5
3CE
100
AcDbEntity
  8
0
100
AcDbLine
 62
250
  6
CONTINUOUS
 10
43.055272805
 20
-55.5
 11
43.055272805
 21
-47.5
  0
LINE
  5
3CF
100
AcDbEntity
  8
0
100
AcDbLine
 62
250
  6
CONTINUOUS
 10
43.055272805
 20
-27.5
 11
43.055272805
 21
-22.5
  0
LINE
  5
3D0
100
AcDbEntity
  8
0
100
AcDbLine
 62
250
  6
CONTINUOUS
 10
43.055272805
 20
-2.5
 11
43.055272805
 21
55.5
  0
LINE
  5
3D1
100
AcDbEntity
  8
0
100
AcDbLine
 62
7
  6
CONTINUOUS
 10
43.1
 20
-55.5
 11
43.1
 21
-47.5
  0
LINE
  5
3D2
100
AcDbEntity
  8
0
100
AcDbLine
 62
7
  6
CONTINUOUS
 10
43.1
 20
-27.5
 11
43.1
 21
-22.5
  0
LINE
  5
3D3
100
AcDbEntity
  8
0
100
AcDbLine
 62
7
  6
CONTINUOUS
 10
43.1
 20
-2.5
 11
43.1
 21
55.5
  0
LINE
  5
3D4
100
AcDbEntity
  8
DRAFT
100
AcDbLine
 62
7
  6
CONTINUOUS
 10
43.4
 20
-20.3
 11
43.4
 21
-4.7
  0
LINE
  5
3D5
100
AcDbEntity
  8
DRAFT
100
AcDbLine
 62
7
  6
CONTINUOUS
 10
43.4
 20
-29.7
 11
43.4
 21
-45.3
  0
LINE
  5
3D6
100
AcDbEntity
  8
DRAFT
100
AcDbLine
 62
7
  6
CONTINUOUS
 10
43.564516129
 20
-46.2714522078
 11
43.564516129
 21
-45.3
  0
LINE
  5
3D7
100
AcDbEntity
  8
DRAFT
100
AcDbLine
 62
7
  6
CONTINUOUS
 10
43.564516129
 20
-29.7
 11
43.564516129
 21
-28.7285477922
  0
LINE
  5
3D8
100
AcDbEntity
  8
DRAFT
100
AcDbLine
 62
7
  6
CONTINUOUS
 10
43.564516129
 20
-21.2714522078
 11
43.564516129
 21
-20.3
  0
LINE
  5
3D9
100
AcDbEntity
  8
DRAFT
100
AcDbLine
 62
7
  6
CONTINUOUS
 10
43.564516129
 20
-4.7
 11
43.564516129
 21
-3.7285477922
  0
LINE
  5
3DA
100
AcDbEntity
  8
0
100
AcDbLine
 62
250
  6
CONTINUOUS
 10
43.6
 20
-55.5
 11
43.6
 21
-47.4892422484
  0
LINE
  5
3DB
100
AcDbEntity
  8
0
100
AcDbLine
 62
250
  6
CONTINUOUS
 10
43.6
 20
-46.2778523983
 11
43.6
 21
-45.3
  0
LINE
  5
3DC
100
AcDbEntity
  8
0
100
AcDbLine
 62
250
  6
CONTINUOUS
 10
43.6
 20
-29.7
 11
43.6
 21
-28.7221476017
  0
LINE
  5
3DD
100
AcDbEntity
  8
0
100
AcDbLine
 62
250
  6
CONTINUOUS
 10
43.6
 20
-27.5107577516
 11
43.6
 21
-22.4892422484
  0
LINE
  5
3DE
100
AcDbEntity
  8
0
100
AcDbLine
 62
250
  6
CONTINUOUS
 10
43.6
 20
-21.2778523983
 11
43.6
 21
-20.3
  0
LINE
  5
3DF
100
AcDbEntity
  8
0
100
AcDbLine
 62
250
  6
CONTINUOUS
 10
43.6
 20
-4.7
 11
43.6
 21
-3.7221476017
  0
LINE
  5
3E0
100
AcDbEntity
  8
0
100
AcDbLine
 62
250
  6
CONTINUOUS
 10
43.6
 20
-2.5107577516
 11
43.6
 21
55.5
  0
LINE
  5
3E1
100
AcDbEntity
  8
RACCORDO
100
AcDbLine
 62
7
  6
CONTINUOUS
 10
44.0
 20
-47.0007645085
 11
44.0
 21
-46.35
  0
LINE
  5
3E2
100
AcDbEntity
  8
RACCORDO
100
AcDbLine
 62
7
  6
CONTINUOUS
 10
44.0
 20
-2.9992354915
 11
44.0
 21
-3.65
  0
LINE
  5
3E3
100
AcDbEntity
  8
RACCORDO
100
AcDbLine
 62
7
  6
CONTINUOUS
 10
44.0
 20
-22.0007645085
 11
44.0
 21
-21.35
  0
LINE
  5
3E4
100
AcDbEntity
  8
RACCORDO
100
AcDbLine
 62
7
  6
CONTINUOUS
 10
44.0
 20
-27.9992354915
 11
44.0
 21
-28.65
  0
LINE
  5
3E5
100
AcDbEntity
  8
0
100
AcDbLine
 62
7
  6
CONTINUOUS
 10
44.1
 20
55.5
 11
44.1
 21
-55.5
  0
LINE
  5
3E6
100
AcDbEntity
  8
0
100
AcDbLine
 62
250
  6
CONTINUOUS
 10
44.35
 20
55.5
 11
44.35
 21
-55.5
  0
LINE
  5
3E7
100
AcDbEntity
  8
DRAFT
100
AcDbLine
 62
7
  6
CONTINUOUS
 10
36.4981436789
 20
-21.2518563211
 11
36.475312869
 21
-21.274687131
  0
LINE
  5
3E8
100
AcDbEntity
  8
DRAFT
100
AcDbLine
 62
7
  6
CONTINUOUS
 10
42.4
 20
-21.2714522078
 11
42.3214522078
 21
-21.35
  0
LINE
  5
3E9
100
AcDbEntity
  8
0
100
AcDbLine
 62
250
  6
CONTINUOUS
 10
48.15
 20
55.5
 11
48.15
 21
-55.5
  0
LINE
  5
3EA
100
AcDbEntity
  8
0
100
AcDbLine
 62
7
  6
CONTINUOUS
 10
48.4
 20
55.5
 11
48.4
 21
-55.5
  0
LINE
  5
3EB
100
AcDbEntity
  8
DRAFT
100
AcDbLine
 62
7
  6
CONTINUOUS
 10
41.25
 20
-28.65
 11
41.1712702155
 21
-28.7287297845
  0
LINE
  5
3EC
100
AcDbEntity
  8
DRAFT
100
AcDbLine
 62
7
  6
CONTINUOUS
 10
36.4981436789
 20
-36.9018563211
 11
36.4404053979
 21
-36.9595946021
  0
LINE
  5
3ED
100
AcDbEntity
  8
DRAFT
100
AcDbLine
 62
7
  6
CONTINUOUS
 10
37.1983032699
 20
-38.0404053979
 11
37.1582089484
 21
-38.0969468945
  0
LINE
  5
3EE
100
AcDbEntity
  8
DRAFT
100
AcDbLine
 62
7
  6
CONTINUOUS
 10
40.4016967301
 20
-36.9595946021
 11
40.4301450834
 21
-36.9196204378
  0
LINE
  5
3EF
100
AcDbEntity
  8
DRAFT
100
AcDbLine
 62
7
  6
CONTINUOUS
 10
41.1712702155
 20
-38.0787297845
 11
41.2095946021
 21
-38.0404053979
  0
LINE
  5
3F0
100
AcDbEntity
  8
0
100
AcDbLine
 62
7
  6
CONTINUOUS
 10
48.4
 20
55.5
 11
-48.4
 21
55.5
  0
LINE
  5
3F1
100
AcDbEntity
  8
DRAFT
100
AcDbLine
 62
7
  6
CONTINUOUS
 10
36.4981436789
 20
-46.2518563211
 11
36.475312869
 21
-46.274687131
  0
LINE
  5
3F2
100
AcDbEntity
  8
DRAFT
100
AcDbLine
 62
7
  6
CONTINUOUS
 10
42.4
 20
-46.2714522078
 11
42.3214522078
 21
-46.35
  0
ARC
  5
3F3
100
AcDbEntity
  8
RACCORDO
100
AcDbCircle
 62
250
  6
CONTINUOUS
 10
-29.2284020461
 20
-37.5029039486
 40
7.4580402241
100
AcDbArc
 50
179.977692136
 51
0.0223078773
  0
ARC
  5
3F4
100
AcDbEntity
  8
RACCORDO
100
AcDbCircle
 62
250
  6
CONTINUOUS
 10
-29.2284042596
 20
-37.4970964592
 40
7.458039882
100
AcDbArc
 50
359.9776952618
 51
180.0223047381
  0
CIRCLE
  5
3F5
100
AcDbEntity
  8
DRAFT
100
AcDbCircle
 62
7
  6
CONTINUOUS
 10
-29.25
 20
-37.5000126286
 40
7.2999717386
  0
ARC
  5
3F6
100
AcDbEntity
  8
RACCORDO
100
AcDbCircle
 62
250
  6
CONTINUOUS
 10
-10.9285371113
 20
-37.5003042432
 40
6.7309884781
100
AcDbArc
 50
157.5806831643
 51
172.3744593147
  0
ARC
  5
3F7
100
AcDbEntity
  8
RACCORDO
100
AcDbCircle
 62
250
  6
CONTINUOUS
 10
-10.9307884443
 20
-37.500292578
 40
6.7286765473
100
AcDbArc
 50
187.6229680596
 51
202.4069510116
  0
ARC
  5
3F8
100
AcDbEntity
  8
RACCORDO
100
AcDbCircle
 62
250
  6
CONTINUOUS
 10
-10.9552374387
 20
-37.4998145151
 40
6.5239619789
100
AcDbArc
 50
161.750339556
 51
198.277582754
  0
ARC
  5
3F9
100
AcDbEntity
  8
RACCORDO
100
AcDbCircle
 62
7
  6
CONTINUOUS
 10
-10.9552818793
 20
-37.5000167606
 40
6.5077288198
100
AcDbArc
 50
162.1923914911
 51
197.7892857764
  0
CIRCLE
  5
3FA
100
AcDbEntity
  8
DRAFT
100
AcDbCircle
 62
7
  6
CONTINUOUS
 10
-29.25
 20
-37.5
 40
6.5
  0
CIRCLE
  5
3FB
100
AcDbEntity
  8
DRAFT
100
AcDbCircle
 62
7
  6
CONTINUOUS
 10
-29.25
 20
-37.5
 40
6.4790539221
  0
ARC
  5
3FC
100
AcDbEntity
  8
RACCORDO
100
AcDbCircle
 62
250
  6
CONTINUOUS
 10
-10.980773093
 20
-37.5000619307
 40
6.3013129104
100
AcDbArc
 50
168.2612749422
 51
191.679016309
  0
ARC
  5
3FD
100
AcDbEntity
  8
RACCORDO
100
AcDbCircle
 62
7
  6
CONTINUOUS
 10
-3.15
 20
-46.2
 40
0.3
100
AcDbArc
 50
0.0
 51
90.0
  0
ARC
  5
3FE
100
AcDbEntity
  8
RACCORDO
100
AcDbCircle
 62
7
  6
CONTINUOUS
 10
-6.15
 20
-46.2
 40
0.3
100
AcDbArc
 50
90.0
 51
180.0
  0
ARC
  5
3FF
100
AcDbEntity
  8
RACCORDO
100
AcDbCircle
 62
7
  6
CONTINUOUS
 10
-3.15
 20
-28.8
 40
0.3
100
AcDbArc
 50
270.0
 51
360.0
  0
ARC
  5
400
100
AcDbEntity
  8
RACCORDO
100
AcDbCircle
 62
7
  6
CONTINUOUS
 10
-6.15
 20
-28.8
 40
0.3
100
AcDbArc
 50
180.0
 51
270.0
  0
ARC
  5
401
100
AcDbEntity
  8
RACCORDO
100
AcDbCircle
 62
250
  6
CONTINUOUS
 10
-29.2284020461
 20
-12.5029039486
 40
7.4580402241
100
AcDbArc
 50
179.9776921359
 51
0.0223078774
  0
ARC
  5
402
100
AcDbEntity
  8
RACCORDO
100
AcDbCircle
 62
250
  6
CONTINUOUS
 10
-29.2284042596
 20
-12.4970964589
 40
7.4580398818
100
AcDbArc
 50
359.97769526
 51
180.0223047399
  0
CIRCLE
  5
403
100
AcDbEntity
  8
DRAFT
100
AcDbCircle
 62
7
  6
CONTINUOUS
 10
-29.25
 20
-12.5000126287
 40
7.2999717386
  0
ARC
  5
404
100
AcDbEntity
  8
RACCORDO
100
AcDbCircle
 62
250
  6
CONTINUOUS
 10
-10.9285371113
 20
-12.5003042432
 40
6.7309884781
100
AcDbArc
 50
157.5806831643
 51
172.3744593147
  0
ARC
  5
405
100
AcDbEntity
  8
RACCORDO
100
AcDbCircle
 62
250
  6
CONTINUOUS
 10
-10.9307884443
 20
-12.500292578
 40
6.7286765473
100
AcDbArc
 50
187.6229680596
 51
202.4069510116
  0
ARC
  5
406
100
AcDbEntity
  8
RACCORDO
100
AcDbCircle
 62
250
  6
CONTINUOUS
 10
-10.9552374387
 20
-12.4998145151
 40
6.5239619789
100
AcDbArc
 50
161.750339556
 51
198.277582754
  0
ARC
  5
407
100
AcDbEntity
  8
RACCORDO
100
AcDbCircle
 62
7
  6
CONTINUOUS
 10
-10.9552818793
 20
-12.5000167606
 40
6.5077288198
100
AcDbArc
 50
162.1923914911
 51
197.7892857764
  0
CIRCLE
  5
408
100
AcDbEntity
  8
DRAFT
100
AcDbCircle
 62
7
  6
CONTINUOUS
 10
-29.25
 20
-12.5
 40
6.5
  0
CIRCLE
  5
409
100
AcDbEntity
  8
DRAFT
100
AcDbCircle
 62
7
  6
CONTINUOUS
 10
-29.25
 20
-12.5
 40
6.4790539221
  0
ARC
  5
40A
100
AcDbEntity
  8
RACCORDO
100
AcDbCircle
 62
250
  6
CONTINUOUS
 10
-10.980773093
 20
-12.5000619307
 40
6.3013129104
100
AcDbArc
 50
168.2612749422
 51
191.679016309
  0
ARC
  5
40B
100
AcDbEntity
  8
RACCORDO
100
AcDbCircle
 62
7
  6
CONTINUOUS
 10
-3.15
 20
-21.2
 40
0.3
100
AcDbArc
 50
0.0
 51
90.0
  0
ARC
  5
40C
100
AcDbEntity
  8
RACCORDO
100
AcDbCircle
 62
7
  6
CONTINUOUS
 10
-6.15
 20
-21.2
 40
0.3
100
AcDbArc
 50
90.0
 51
180.0
  0
ARC
  5
40D
100
AcDbEntity
  8
RACCORDO
100
AcDbCircle
 62
7
  6
CONTINUOUS
 10
-3.15
 20
-3.8
 40
0.3
100
AcDbArc
 50
270.0
 51
360.0
  0
ARC
  5
40E
100
AcDbEntity
  8
RACCORDO
100
AcDbCircle
 62
7
  6
CONTINUOUS
 10
-6.15
 20
-3.8
 40
0.3
100
AcDbArc
 50
180.0
 51
270.0
  0
ARC
  5
40F
100
AcDbEntity
  8
RACCORDO
100
AcDbCircle
 62
250
  6
CONTINUOUS
 10
28.6175393588
 20
-37.4998384257
 40
6.7447462818
100
AcDbArc
 50
337.5406519183
 51
352.207378684
  0
ARC
  5
410
100
AcDbEntity
  8
RACCORDO
100
AcDbCircle
 62
250
  6
CONTINUOUS
 10
28.6196645152
 20
-37.4996154723
 40
6.7425682954
100
AcDbArc
 50
7.7905792336
 51
22.4474727611
  0
ARC
  5
411
100
AcDbEntity
  8
RACCORDO
100
AcDbCircle
 62
250
  6
CONTINUOUS
 10
28.6600871364
 20
-37.5001940682
 40
6.5382219004
100
AcDbArc
 50
341.2553702876
 51
18.7528886657
  0
ARC
  5
412
100
AcDbEntity
  8
RACCORDO
100
AcDbCircle
 62
7
  6
CONTINUOUS
 10
28.6598173966
 20
-37.4999834869
 40
6.5218166537
100
AcDbArc
 50
341.7005981092
 51
18.3111615711
  0
ARC
  5
413
100
AcDbEntity
  8
RACCORDO
100
AcDbCircle
 62
250
  6
CONTINUOUS
 10
28.7014267292
 20
-37.4999779039
 40
6.3154563154
100
AcDbArc
 50
346.8655824623
 51
13.1683393998
  0
ARC
  5
414
100
AcDbEntity
  8
DRAFT
100
AcDbCircle
 62
7
  6
CONTINUOUS
 10
38.791238014
 20
-37.4966372708
 40
1.7399430043
100
AcDbArc
 50
200.1836793177
 51
340.3952303962
  0
ARC
  5
415
100
AcDbEntity
  8
DRAFT
100
AcDbCircle
 62
7
  6
CONTINUOUS
 10
38.7912380132
 20
-37.5033627196
 40
1.7399430031
100
AcDbArc
 50
19.6047692957
 51
159.8163209704
  0
ARC
  5
416
100
AcDbEntity
  8
DRAFT
100
AcDbCircle
 62
7
  6
CONTINUOUS
 10
38.8
 20
-37.5
 40
1.6904053979
100
AcDbArc
 50
18.6441675736
 51
161.3558324264
  0
ARC
  5
417
100
AcDbEntity
  8
DRAFT
100
AcDbCircle
 62
7
  6
CONTINUOUS
 10
38.8
 20
-37.5
 40
1.6904053979
100
AcDbArc
 50
198.6441675736
 51
341.3558324264
  0
CIRCLE
  5
418
100
AcDbEntity
  8
DRAFT
100
AcDbCircle
 62
7
  6
CONTINUOUS
 10
38.8
 20
-37.5
 40
0.95
  0
CIRCLE
  5
419
100
AcDbEntity
  8
DRAFT
100
AcDbCircle
 62
7
  6
CONTINUOUS
 10
38.8044369213
 20
-37.4993465179
 40
0.9032408266
  0
ARC
  5
41A
100
AcDbEntity
  8
RACCORDO
100
AcDbCircle
 62
7
  6
CONTINUOUS
 10
23.85
 20
-46.2
 40
0.3
100
AcDbArc
 50
0.0
 51
90.0
  0
ARC
  5
41B
100
AcDbEntity
  8
RACCORDO
100
AcDbCircle
 62
7
  6
CONTINUOUS
 10
20.85
 20
-46.2
 40
0.3
100
AcDbArc
 50
90.0
 51
180.0
  0
ARC
  5
41C
100
AcDbEntity
  8
RACCORDO
100
AcDbCircle
 62
7
  6
CONTINUOUS
 10
23.85
 20
-28.8
 40
0.3
100
AcDbArc
 50
270.0
 51
360.0
  0
ARC
  5
41D
100
AcDbEntity
  8
RACCORDO
100
AcDbCircle
 62
7
  6
CONTINUOUS
 10
20.85
 20
-28.8
 40
0.3
100
AcDbArc
 50
180.0
 51
270.0
  0
ARC
  5
41E
100
AcDbEntity
  8
RACCORDO
100
AcDbCircle
 62
250
  6
CONTINUOUS
 10
28.6175393588
 20
-12.4998384257
 40
6.7447462818
100
AcDbArc
 50
337.5406519183
 51
352.207378684
  0
ARC
  5
41F
100
AcDbEntity
  8
RACCORDO
100
AcDbCircle
 62
250
  6
CONTINUOUS
 10
28.6196645152
 20
-12.4996154723
 40
6.7425682954
100
AcDbArc
 50
7.7905792336
 51
22.4474727611
  0
ARC
  5
420
100
AcDbEntity
  8
RACCORDO
100
AcDbCircle
 62
250
  6
CONTINUOUS
 10
28.6600871364
 20
-12.5001940682
 40
6.5382219004
100
AcDbArc
 50
341.2553702876
 51
18.7528886657
  0
ARC
  5
421
100
AcDbEntity
  8
RACCORDO
100
AcDbCircle
 62
7
  6
CONTINUOUS
 10
28.6598173966
 20
-12.4999834869
 40
6.5218166537
100
AcDbArc
 50
341.7005981092
 51
18.3111615711
  0
ARC
  5
422
100
AcDbEntity
  8
RACCORDO
100
AcDbCircle
 62
250
  6
CONTINUOUS
 10
28.7014267292
 20
-12.4999779039
 40
6.3154563154
100
AcDbArc
 50
346.8655824623
 51
13.1683393998
  0
ARC
  5
423
100
AcDbEntity
  8
DRAFT
100
AcDbCircle
 62
7
  6
CONTINUOUS
 10
38.7912380139
 20
-12.4966372711
 40
1.7399430041
100
AcDbArc
 50
200.1836793092
 51
340.3952304079
  0
ARC
  5
424
100
AcDbEntity
  8
DRAFT
100
AcDbCircle
 62
7
  6
CONTINUOUS
 10
38.7912380132
 20
-12.5033627196
 40
1.7399430031
100
AcDbArc
 50
19.6047692956
 51
159.8163209705
  0
ARC
  5
425
100
AcDbEntity
  8
DRAFT
100
AcDbCircle
 62
7
  6
CONTINUOUS
 10
38.8
 20
-12.5
 40
1.6904053979
100
AcDbArc
 50
18.6441675736
 51
161.3558324264
  0
ARC
  5
426
100
AcDbEntity
  8
DRAFT
100
AcDbCircle
 62
7
  6
CONTINUOUS
 10
38.8
 20
-12.5
 40
1.6904053979
100
AcDbArc
 50
198.6441675736
 51
341.3558324264
  0
CIRCLE
  5
427
100
AcDbEntity
  8
DRAFT
100
AcDbCircle
 62
7
  6
CONTINUOUS
 10
38.8
 20
-12.5
 40
0.95
  0
CIRCLE
  5
428
100
AcDbEntity
  8
DRAFT
100
AcDbCircle
 62
7
  6
CONTINUOUS
 10
38.8044369212
 20
-12.4993465178
 40
0.9032408266
  0
ARC
  5
429
100
AcDbEntity
  8
RACCORDO
100
AcDbCircle
 62
7
  6
CONTINUOUS
 10
23.85
 20
-21.2
 40
0.3
100
AcDbArc
 50
0.0
 51
90.0
  0
ARC
  5
42A
100
AcDbEntity
  8
RACCORDO
100
AcDbCircle
 62
7
  6
CONTINUOUS
 10
20.85
 20
-21.2
 40
0.3
100
AcDbArc
 50
90.0
 51
180.0
  0
ARC
  5
42B
100
AcDbEntity
  8
RACCORDO
100
AcDbCircle
 62
7
  6
CONTINUOUS
 10
23.85
 20
-3.8
 40
0.3
100
AcDbArc
 50
270.0
 51
360.0
  0
ARC
  5
42C
100
AcDbEntity
  8
RACCORDO
100
AcDbCircle
 62
7
  6
CONTINUOUS
 10
20.85
 20
-3.8
 40
0.3
100
AcDbArc
 50
180.0
 51
270.0
  0
SPLINE
  5
42D
100
AcDbEntity
  8
RACCORDO
100
AcDbSpline
 62
250
  6
CONTINUOUS
 70
0
 71
3
 72
27
 73
23
 74
0
 42
0.0000001
 43
0.0000001
 44
0.0000000001
 40
0.0
 40
0.0
 40
0.0
 40
0.0
 40
0.0628888393
 40
0.0943382354
 40
0.1257554681
 40
0.188381096
 40
0.2508118764
 40
0.2819944453
 40
0.3131363668
 40
0.3752551108
 40
0.4373128656
 40
0.4993839326
 40
0.5615326937
 40
0.6237996582
 40
0.6862014217
 40
0.7174909305
 40
0.7488127776
 40
0.8114687358
 40
0.8742261055
 40
0.905671303
 40
0.937130271
 40
1.0
 40
1.0
 40
1.0
 40
1.0
 10
-36.9268295361
 20
-12.5
 30
0.0
 10
-36.9268119517
 20
-13.0040633992
 30
0.0
 10
-36.8512625499
 20
-13.7629344353
 30
0.0
 10
-36.6043481138
 20
-14.7413706331
 30
0.0
 10
-36.2630241563
 20
-15.6891175079
 30
0.0
 10
-35.6645641063
 20
-16.8011118345
 30
0.0
 10
-34.8612450179
 20
-17.7728939918
 30
0.0
 10
-34.1173908268
 20
-18.4432146664
 30
0.0
 10
-33.3138202693
 20
-19.036412972
 30
0.0
 10
-32.2073243869
 20
-19.6254654683
 30
0.0
 10
-30.7697520027
 20
-20.0608471566
 30
0.0
 10
-29.2746136603
 20
-20.2100268486
 30
0.0
 10
-27.7772288297
 20
-20.0662682986
 30
0.0
 10
-26.3337488003
 20
-19.6343544703
 30
0.0
 10
-25.2211275934
 20
-19.0456386142
 30
0.0
 10
-24.4128065082
 20
-18.451159397
 30
0.0
 10
-23.6648881362
 20
-17.7791947688
 30
0.0
 10
-22.8581737528
 20
-16.8049292995
 30
0.0
 10
-22.2579609696
 20
-15.6903135648
 30
0.0
 10
-21.9161702574
 20
-14.7412895456
 30
0.0
 10
-21.6692219084
 20
-13.7627082982
 30
0.0
 10
-21.5937195823
 20
-13.0039102281
 30
0.0
 10
-21.593718194
 20
-12.5
 30
0.0
  0
SPLINE
  5
42E
100
AcDbEntity
  8
RACCORDO
100
AcDbSpline
 62
250
  6
CONTINUOUS
 70
0
 71
3
 72
27
 73
23
 74
0
 42
0.0000001
 43
0.0000001
 44
0.0000000001
 40
0.0
 40
0.0
 40
0.0
 40
0.0
 40
0.0628633833
 40
0.0943208904
 40
0.1257653958
 40
0.1885202172
 40
0.2511776841
 40
0.2825017654
 40
0.3137941535
 40
0.3762022231
 40
0.4384727616
 40
0.5006214142
 40
0.5626921474
 40
0.6247496076
 40
0.6868676727
 40
0.7180092846
 40
0.7491914075
 40
0.8116212113
 40
0.8742460307
 40
0.9056621206
 40
0.9371106892
 40
1.0
 40
1.0
 40
1.0
 40
1.0
 10
-21.593718194
 20
-12.5
 30
0.0
 10
-21.5937186345
 20
-11.9961406763
 30
0.0
 10
-21.6692150631
 20
-11.2374070724
 30
0.0
 10
-21.916117531
 20
-10.258885004
 30
0.0
 10
-22.2578653411
 20
-9.3098861718
 30
0.0
 10
-22.8580378885
 20
-8.1952604301
 30
0.0
 10
-23.6647542033
 20
-7.220992684
 30
0.0
 10
-24.4126521986
 20
-6.5489208752
 30
0.0
 10
-25.2211035528
 20
-5.954467126
 30
0.0
 10
-26.3337390484
 20
-5.3655575155
 30
0.0
 10
-27.7773457483
 20
-4.933773697
 30
0.0
 10
-29.2747405446
 20
-4.789904824
 30
0.0
 10
-30.7698672196
 20
-4.9392181983
 30
0.0
 10
-32.2074265486
 20
-5.374571712
 30
0.0
 10
-33.3139169059
 20
-5.9636258718
 30
0.0
 10
-34.1174516319
 20
-6.5568523565
 30
0.0
 10
-34.8612943942
 20
-7.2271625249
 30
0.0
 10
-35.6646140288
 20
-8.1989253163
 30
0.0
 10
-36.2630195397
 20
-9.3109209661
 30
0.0
 10
-36.6043524862
 20
-10.2586397453
 30
0.0
 10
-36.8512652766
 20
-11.2370646677
 30
0.0
 10
-36.9268111753
 20
-11.9959328634
 30
0.0
 10
-36.9268295361
 20
-12.5
 30
0.0
  0
SPLINE
  5
42F
100
AcDbEntity
  8
RACCORDO
100
AcDbSpline
 62
250
  6
CONTINUOUS
 70
0
 71
3
 72
27
 73
23
 74
0
 42
0.0000001
 43
0.0000001
 44
0.0000000001
 40
0.0
 40
0.0
 40
0.0
 40
0.0
 40
0.0628888393
 40
0.0943382354
 40
0.1257554681
 40
0.188381096
 40
0.2508118764
 40
0.2819944453
 40
0.3131363668
 40
0.3752551108
 40
0.4373128656
 40
0.4993839326
 40
0.5615326937
 40
0.6237996582
 40
0.6862014217
 40
0.7174909305
 40
0.7488127776
 40
0.8114687358
 40
0.8742261055
 40
0.905671303
 40
0.937130271
 40
1.0
 40
1.0
 40
1.0
 40
1.0
 10
-36.9268295361
 20
-37.5
 30
0.0
 10
-36.9268119517
 20
-38.0040633992
 30
0.0
 10
-36.8512625499
 20
-38.7629344353
 30
0.0
 10
-36.6043481138
 20
-39.7413706331
 30
0.0
 10
-36.2630241563
 20
-40.6891175079
 30
0.0
 10
-35.6645641063
 20
-41.8011118345
 30
0.0
 10
-34.8612450179
 20
-42.7728939918
 30
0.0
 10
-34.1173908268
 20
-43.4432146664
 30
0.0
 10
-33.3138202693
 20
-44.036412972
 30
0.0
 10
-32.2073243869
 20
-44.6254654683
 30
0.0
 10
-30.7697520027
 20
-45.0608471566
 30
0.0
 10
-29.2746136603
 20
-45.2100268486
 30
0.0
 10
-27.7772288297
 20
-45.0662682986
 30
0.0
 10
-26.3337488003
 20
-44.6343544703
 30
0.0
 10
-25.2211275934
 20
-44.0456386142
 30
0.0
 10
-24.4128065082
 20
-43.451159397
 30
0.0
 10
-23.6648881362
 20
-42.7791947688
 30
0.0
 10
-22.8581737528
 20
-41.8049292995
 30
0.0
 10
-22.2579609696
 20
-40.6903135648
 30
0.0
 10
-21.9161702574
 20
-39.7412895456
 30
0.0
 10
-21.6692219084
 20
-38.7627082982
 30
0.0
 10
-21.5937195823
 20
-38.0039102281
 30
0.0
 10
-21.593718194
 20
-37.5
 30
0.0
  0
SPLINE
  5
430
100
AcDbEntity
  8
RACCORDO
100
AcDbSpline
 62
250
  6
CONTINUOUS
 70
0
 71
3
 72
27
 73
23
 74
0
 42
0.0000001
 43
0.0000001
 44
0.0000000001
 40
0.0
 40
0.0
 40
0.0
 40
0.0
 40
0.0628633833
 40
0.0943208904
 40
0.1257653958
 40
0.1885202172
 40
0.2511776841
 40
0.2825017654
 40
0.3137941535
 40
0.3762022231
 40
0.4384727616
 40
0.5006214142
 40
0.5626921474
 40
0.6247496076
 40
0.6868676727
 40
0.7180092846
 40
0.7491914075
 40
0.8116212113
 40
0.8742460307
 40
0.9056621206
 40
0.9371106892
 40
1.0
 40
1.0
 40
1.0
 40
1.0
 10
-21.593718194
 20
-37.5
 30
0.0
 10
-21.5937186345
 20
-36.9961406763
 30
0.0
 10
-21.6692150631
 20
-36.2374070724
 30
0.0
 10
-21.916117531
 20
-35.258885004
 30
0.0
 10
-22.2578653411
 20
-34.3098861718
 30
0.0
 10
-22.8580378885
 20
-33.1952604301
 30
0.0
 10
-23.6647542033
 20
-32.220992684
 30
0.0
 10
-24.4126521986
 20
-31.5489208752
 30
0.0
 10
-25.2211035528
 20
-30.954467126
 30
0.0
 10
-26.3337390484
 20
-30.3655575155
 30
0.0
 10
-27.7773457483
 20
-29.933773697
 30
0.0
 10
-29.2747405446
 20
-29.789904824
 30
0.0
 10
-30.7698672196
 20
-29.9392181983
 30
0.0
 10
-32.2074265486
 20
-30.374571712
 30
0.0
 10
-33.3139169059
 20
-30.9636258718
 30
0.0
 10
-34.1174516319
 20
-31.5568523565
 30
0.0
 10
-34.8612943942
 20
-32.2271625249
 30
0.0
 10
-35.6646140288
 20
-33.1989253163
 30
0.0
 10
-36.2630195397
 20
-34.3109209661
 30
0.0
 10
-36.6043524862
 20
-35.2586397453
 30
0.0
 10
-36.8512652766
 20
-36.2370646677
 30
0.0
 10
-36.9268111753
 20
-36.9959328634
 30
0.0
 10
-36.9268295361
 20
-37.5
 30
0.0
  0
ELLIPSE
  5
431
100
AcDbEntity
  8
RACCORDO
100
AcDbEllipse
 62
7
  6
CONTINUOUS
 10
-43.3976641451
 20
-21.999923836
 30
0.0
 11
-0.4944333407
 21
-0.0891804493
 31
0.0
 40
0.9951998232
 41
-0.1776116889
 42
1.3915035481
  0
ELLIPSE
  5
432
100
AcDbEntity
  8
RACCORDO
100
AcDbEllipse
 62
7
  6
CONTINUOUS
 10
-43.3976641451
 20
-3.000076164
 30
0.0
 11
0.4944333407
 21
-0.0891804493
 31
0.0
 40
0.9951998232
 41
1.7500891054
 42
3.3192043424
  0
ELLIPSE
  5
433
100
AcDbEntity
  8
RACCORDO
100
AcDbEllipse
 62
7
  6
CONTINUOUS
 10
43.4976641451
 20
-21.999923836
 30
0.0
 11
-0.4944333407
 21
0.0891804493
 31
0.0
 40
0.9951998232
 41
1.7500891054
 42
3.3192043424
  0
ELLIPSE
  5
434
100
AcDbEntity
  8
RACCORDO
100
AcDbEllipse
 62
7
  6
CONTINUOUS
 10
43.4976641451
 20
-3.000076164
 30
0.0
 11
0.4944333407
 21
0.0891804493
 31
0.0
 40
0.9951998232
 41
-0.1776116889
 42
1.3915035481
  0
ELLIPSE
  5
435
100
AcDbEntity
  8
RACCORDO
100
AcDbEllipse
 62
7
  6
CONTINUOUS
 10
-31.2093296987
 20
-14.9628839322
 30
0.0
 11
-0.0
 21
0.3
 31
0.0
 40
0.0174550649
 41
0.0174532925
 42
1.5707963268
  0
ELLIPSE
  5
436
100
AcDbEntity
  8
RACCORDO
100
AcDbEllipse
 62
7
  6
CONTINUOUS
 10
-31.2093296987
 20
-10.0371160678
 30
0.0
 11
0.0
 21
0.3
 31
0.0
 40
0.0174550649
 41
-4.7123889804
 42
-3.1590459461
  0
ELLIPSE
  5
437
100
AcDbEntity
  8
DRAFT
100
AcDbEllipse
 62
7
  6
CONTINUOUS
 10
1.0795706564
 20
-13.5344497855
 30
0.0
 11
190.4
 21
-0.0
 31
0.0
 40
0.0087268678
 41
1.3802330235
 42
1.3836844957
  0
ELLIPSE
  5
438
100
AcDbEntity
  8
DRAFT
100
AcDbEllipse
 62
7
  6
CONTINUOUS
 10
1.0795706564
 20
-11.4655502145
 30
0.0
 11
190.4
 21
0.0
 31
0.0
 40
0.0087268678
 41
-1.3836844957
 42
-1.3802330235
  0
ELLIPSE
  5
439
100
AcDbEntity
  8
DRAFT
100
AcDbEllipse
 62
7
  6
CONTINUOUS
 10
42.85
 20
-11.8503342174
 30
0.0
 11
8.3
 21
-0.0
 31
0.0
 40
0.0087268678
 41
-1.8666418925
 42
-1.7744579245
  0
ELLIPSE
  5
43A
100
AcDbEntity
  8
DRAFT
100
AcDbEllipse
 62
7
  6
CONTINUOUS
 10
42.85
 20
-11.8503342174
 30
0.0
 11
8.3
 21
-0.0
 31
0.0
 40
0.0087268678
 41
-2.328858428
 42
-2.3264409102
  0
ELLIPSE
  5
43B
100
AcDbEntity
  8
DRAFT
100
AcDbEllipse
 62
7
  6
CONTINUOUS
 10
42.85
 20
-13.1496657826
 30
0.0
 11
8.3
 21
0.0
 31
0.0
 40
0.0087268678
 41
2.3264409102
 42
2.328858428
  0
ELLIPSE
  5
43C
100
AcDbEntity
  8
DRAFT
100
AcDbEllipse
 62
7
  6
CONTINUOUS
 10
42.85
 20
-13.1496657826
 30
0.0
 11
8.3
 21
0.0
 31
0.0
 40
0.0087268678
 41
1.7744579245
 42
1.8666418925
  0
ELLIPSE
  5
43D
100
AcDbEntity
  8
DRAFT
100
AcDbEllipse
 62
7
  6
CONTINUOUS
 10
-42.75
 20
-21.2029522777
 30
0.0
 11
8.0
 21
0.0
 31
0.0
 40
0.0087268678
 41
-1.3593764113
 42
-0.9057623248
  0
ELLIPSE
  5
43E
100
AcDbEntity
  8
DRAFT
100
AcDbEllipse
 62
7
  6
CONTINUOUS
 10
1.0795706564
 20
-22.8844497855
 30
0.0
 11
190.4
 21
0.0
 31
0.0
 40
0.0087268678
 41
1.6754917835
 42
1.7765135843
  0
ELLIPSE
  5
43F
100
AcDbEntity
  8
DRAFT
100
AcDbEllipse
 62
7
  6
CONTINUOUS
 10
1.0795706564
 20
-22.8844497855
 30
0.0
 11
190.4
 21
0.0
 31
0.0
 40
0.0087268678
 41
1.6103535179
 42
1.6690613808
  0
ELLIPSE
  5
440
100
AcDbEntity
  8
DRAFT
100
AcDbEllipse
 62
7
  6
CONTINUOUS
 10
1.0795706564
 20
-22.8844497855
 30
0.0
 11
190.4
 21
0.0
 31
0.0
 40
0.0087268678
 41
1.4683558766
 42
1.5914365081
  0
ELLIPSE
  5
441
100
AcDbEntity
  8
DRAFT
100
AcDbEllipse
 62
7
  6
CONTINUOUS
 10
1.0795706564
 20
-22.8844497855
 30
0.0
 11
190.4
 21
0.0
 31
0.0
 40
0.0087268678
 41
1.3900852203
 42
1.4493271448
  0
ELLIPSE
  5
442
100
AcDbEntity
  8
DRAFT
100
AcDbEllipse
 62
7
  6
CONTINUOUS
 10
1.0795706564
 20
-22.8844497855
 30
0.0
 11
190.4
 21
0.0
 31
0.0
 40
0.0087268678
 41
1.3802330235
 42
1.3836844957
  0
ELLIPSE
  5
443
100
AcDbEntity
  8
DRAFT
100
AcDbEllipse
 62
7
  6
CONTINUOUS
 10
42.85
 20
-21.2003342174
 30
0.0
 11
8.3
 21
0.0
 31
0.0
 40
0.0087268678
 41
-2.328858428
 42
-1.7744579245
  0
ELLIPSE
  5
444
100
AcDbEntity
  8
DRAFT
100
AcDbEllipse
 62
7
  6
CONTINUOUS
 10
42.85
 20
-3.7996657826
 30
0.0
 11
8.3
 21
0.0
 31
0.0
 40
0.0087268678
 41
1.7744579245
 42
2.328858428
  0
ELLIPSE
  5
445
100
AcDbEntity
  8
DRAFT
100
AcDbEllipse
 62
7
  6
CONTINUOUS
 10
1.0795706564
 20
-2.1155502145
 30
0.0
 11
190.4
 21
0.0
 31
0.0
 40
0.0087268678
 41
-1.3836844957
 42
-1.3802330235
  0
ELLIPSE
  5
446
100
AcDbEntity
  8
DRAFT
100
AcDbEllipse
 62
7
  6
CONTINUOUS
 10
1.0795706564
 20
-2.1155502145
 30
0.0
 11
190.4
 21
0.0
 31
0.0
 40
0.0087268678
 41
-1.6690613808
 42
-1.6103535179
  0
ELLIPSE
  5
447
100
AcDbEntity
  8
DRAFT
100
AcDbEllipse
 62
7
  6
CONTINUOUS
 10
1.0795706564
 20
-2.1155502145
 30
0.0
 11
190.4
 21
0.0
 31
0.0
 40
0.0087268678
 41
-1.5914365081
 42
-1.4683558766
  0
ELLIPSE
  5
448
100
AcDbEntity
  8
DRAFT
100
AcDbEllipse
 62
7
  6
CONTINUOUS
 10
1.0795706564
 20
-2.1155502145
 30
0.0
 11
190.4
 21
0.0
 31
0.0
 40
0.0087268678
 41
-1.4493271448
 42
-1.3900852203
  0
ELLIPSE
  5
449
100
AcDbEntity
  8
DRAFT
100
AcDbEllipse
 62
7
  6
CONTINUOUS
 10
1.0795706564
 20
-2.1155502145
 30
0.0
 11
190.4
 21
0.0
 31
0.0
 40
0.0087268678
 41
-1.7765135843
 42
-1.6754917835
  0
ELLIPSE
  5
44A
100
AcDbEntity
  8
DRAFT
100
AcDbEllipse
 62
7
  6
CONTINUOUS
 10
-42.75
 20
-3.7970477223
 30
0.0
 11
8.0
 21
0.0
 31
0.0
 40
0.0087268678
 41
0.9057623248
 42
1.3593764113
  0
ELLIPSE
  5
44B
100
AcDbEntity
  8
RACCORDO
100
AcDbEllipse
 62
7
  6
CONTINUOUS
 10
-43.3976641451
 20
-46.999923836
 30
0.0
 11
-0.4944333407
 21
-0.0891804493
 31
0.0
 40
0.9951998232
 41
-0.1776116889
 42
1.3915035481
  0
ELLIPSE
  5
44C
100
AcDbEntity
  8
RACCORDO
100
AcDbEllipse
 62
7
  6
CONTINUOUS
 10
-43.3976641451
 20
-28.000076164
 30
0.0
 11
0.4944333407
 21
-0.0891804493
 31
0.0
 40
0.9951998232
 41
1.7500891054
 42
3.3192043424
  0
ELLIPSE
  5
44D
100
AcDbEntity
  8
RACCORDO
100
AcDbEllipse
 62
7
  6
CONTINUOUS
 10
43.4976641451
 20
-46.999923836
 30
0.0
 11
-0.4944333407
 21
0.0891804493
 31
0.0
 40
0.9951998232
 41
1.7500891054
 42
3.3192043424
  0
ELLIPSE
  5
44E
100
AcDbEntity
  8
RACCORDO
100
AcDbEllipse
 62
7
  6
CONTINUOUS
 10
43.4976641451
 20
-28.000076164
 30
0.0
 11
0.4944333407
 21
0.0891804493
 31
0.0
 40
0.9951998232
 41
-0.1776116889
 42
1.3915035481
  0
ELLIPSE
  5
44F
100
AcDbEntity
  8
RACCORDO
100
AcDbEllipse
 62
7
  6
CONTINUOUS
 10
-31.2093296987
 20
-39.9628839322
 30
0.0
 11
0.0
 21
0.3
 31
0.0
 40
0.0174550649
 41
0.0174532925
 42
1.5707963268
  0
ELLIPSE
  5
450
100
AcDbEntity
  8
RACCORDO
100
AcDbEllipse
 62
7
  6
CONTINUOUS
 10
-31.2093296987
 20
-35.0371160678
 30
0.0
 11
0.0
 21
0.3
 31
0.0
 40
0.0174550649
 41
-4.7123889804
 42
-3.1590459461
  0
ELLIPSE
  5
451
100
AcDbEntity
  8
DRAFT
100
AcDbEllipse
 62
7
  6
CONTINUOUS
 10
1.0795706564
 20
-38.5344497855
 30
0.0
 11
190.4
 21
-0.0
 31
0.0
 40
0.0087268678
 41
1.3802330235
 42
1.3836844957
  0
ELLIPSE
  5
452
100
AcDbEntity
  8
DRAFT
100
AcDbEllipse
 62
7
  6
CONTINUOUS
 10
1.0795706564
 20
-36.4655502145
 30
0.0
 11
190.4
 21
0.0
 31
0.0
 40
0.0087268678
 41
-1.3836844957
 42
-1.3802330235
  0
ELLIPSE
  5
453
100
AcDbEntity
  8
DRAFT
100
AcDbEllipse
 62
7
  6
CONTINUOUS
 10
42.85
 20
-36.8503342174
 30
0.0
 11
8.3
 21
-0.0
 31
0.0
 40
0.0087268678
 41
-1.8666418925
 42
-1.7744579245
  0
ELLIPSE
  5
454
100
AcDbEntity
  8
DRAFT
100
AcDbEllipse
 62
7
  6
CONTINUOUS
 10
42.85
 20
-36.8503342174
 30
0.0
 11
8.3
 21
-0.0
 31
0.0
 40
0.0087268678
 41
-2.328858428
 42
-2.3264409102
  0
ELLIPSE
  5
455
100
AcDbEntity
  8
DRAFT
100
AcDbEllipse
 62
7
  6
CONTINUOUS
 10
42.85
 20
-38.1496657826
 30
0.0
 11
8.3
 21
0.0
 31
0.0
 40
0.0087268678
 41
2.3264409102
 42
2.328858428
  0
ELLIPSE
  5
456
100
AcDbEntity
  8
DRAFT
100
AcDbEllipse
 62
7
  6
CONTINUOUS
 10
42.85
 20
-38.1496657826
 30
0.0
 11
8.3
 21
0.0
 31
0.0
 40
0.0087268678
 41
1.7744579245
 42
1.8666418925
  0
ELLIPSE
  5
457
100
AcDbEntity
  8
DRAFT
100
AcDbEllipse
 62
7
  6
CONTINUOUS
 10
-42.75
 20
-46.2029522777
 30
0.0
 11
8.0
 21
0.0
 31
0.0
 40
0.0087268678
 41
-1.3593764113
 42
-0.9057623248
  0
ELLIPSE
  5
458
100
AcDbEntity
  8
DRAFT
100
AcDbEllipse
 62
7
  6
CONTINUOUS
 10
1.0795706564
 20
-47.8844497855
 30
0.0
 11
190.4
 21
0.0
 31
0.0
 40
0.0087268678
 41
1.6754917835
 42
1.7765135843
  0
ELLIPSE
  5
459
100
AcDbEntity
  8
DRAFT
100
AcDbEllipse
 62
7
  6
CONTINUOUS
 10
1.0795706564
 20
-47.8844497855
 30
0.0
 11
190.4
 21
0.0
 31
0.0
 40
0.0087268678
 41
1.6103535179
 42
1.6690613808
  0
ELLIPSE
  5
45A
100
AcDbEntity
  8
DRAFT
100
AcDbEllipse
 62
7
  6
CONTINUOUS
 10
1.0795706564
 20
-47.8844497855
 30
0.0
 11
190.4
 21
0.0
 31
0.0
 40
0.0087268678
 41
1.4683558766
 42
1.5914365081
  0
ELLIPSE
  5
45B
100
AcDbEntity
  8
DRAFT
100
AcDbEllipse
 62
7
  6
CONTINUOUS
 10
1.0795706564
 20
-47.8844497855
 30
0.0
 11
190.4
 21
0.0
 31
0.0
 40
0.0087268678
 41
1.3900852203
 42
1.4493271448
  0
ELLIPSE
  5
45C
100
AcDbEntity
  8
DRAFT
100
AcDbEllipse
 62
7
  6
CONTINUOUS
 10
1.0795706564
 20
-47.8844497855
 30
0.0
 11
190.4
 21
0.0
 31
0.0
 40
0.0087268678
 41
1.3802330235
 42
1.3836844957
  0
ELLIPSE
  5
45D
100
AcDbEntity
  8
DRAFT
100
AcDbEllipse
 62
7
  6
CONTINUOUS
 10
42.85
 20
-46.2003342174
 30
0.0
 11
8.3
 21
0.0
 31
0.0
 40
0.0087268678
 41
-2.328858428
 42
-1.7744579245
  0
ELLIPSE
  5
45E
100
AcDbEntity
  8
DRAFT
100
AcDbEllipse
 62
7
  6
CONTINUOUS
 10
42.85
 20
-28.7996657826
 30
0.0
 11
8.3
 21
0.0
 31
0.0
 40
0.0087268678
 41
1.7744579245
 42
2.328858428
  0
ELLIPSE
  5
45F
100
AcDbEntity
  8
DRAFT
100
AcDbEllipse
 62
7
  6
CONTINUOUS
 10
1.0795706564
 20
-27.1155502145
 30
0.0
 11
190.4
 21
0.0
 31
0.0
 40
0.0087268678
 41
-1.3836844957
 42
-1.3802330235
  0
ELLIPSE
  5
460
100
AcDbEntity
  8
DRAFT
100
AcDbEllipse
 62
7
  6
CONTINUOUS
 10
1.0795706564
 20
-27.1155502145
 30
0.0
 11
190.4
 21
0.0
 31
0.0
 40
0.0087268678
 41
-1.6690613808
 42
-1.6103535179
  0
ELLIPSE
  5
461
100
AcDbEntity
  8
DRAFT
100
AcDbEllipse
 62
7
  6
CONTINUOUS
 10
1.0795706564
 20
-27.1155502145
 30
0.0
 11
190.4
 21
0.0
 31
0.0
 40
0.0087268678
 41
-1.5914365081
 42
-1.4683558766
  0
ELLIPSE
  5
462
100
AcDbEntity
  8
DRAFT
100
AcDbEllipse
 62
7
  6
CONTINUOUS
 10
1.0795706564
 20
-27.1155502145
 30
0.0
 11
190.4
 21
0.0
 31
0.0
 40
0.0087268678
 41
-1.4493271448
 42
-1.3900852203
  0
ELLIPSE
  5
463
100
AcDbEntity
  8
DRAFT
100
AcDbEllipse
 62
7
  6
CONTINUOUS
 10
1.0795706564
 20
-27.1155502145
 30
0.0
 11
190.4
 21
0.0
 31
0.0
 40
0.0087268678
 41
-1.7765135843
 42
-1.6754917835
  0
ELLIPSE
  5
464
100
AcDbEntity
  8
DRAFT
100
AcDbEllipse
 62
7
  6
CONTINUOUS
 10
-42.75
 20
-28.7970477223
 30
0.0
 11
8.0
 21
0.0
 31
0.0
 40
0.0087268678
 41
0.9057623248
 42
1.3593764113
  0
ENDSEC
  0
SECTION
  2
OBJECTS
  0
DICTIONARY
  5
C
100
AcDbDictionary
280
0
281
1
  3
ACAD_GROUP
350
D
  3
ACAD_MLINESTYLE
350
17
  3
ACAD_LAYOUT
350
1A
  3
ACAD_PLOTSETTINGS
350
19
  3
ACAD_PLOTSTYLENAME
350
E
  0
DICTIONARY
  5
D
102
{ACAD_REACTORS
330
C
102
}
100
AcDbDictionary
280
0
281
1
  0
ACDBDICTIONARYWDFLT
  5
E
102
{ACAD_REACTORS
330
C
102
}
100
AcDbDictionary
281
1
  3
Normal
350
F
100
AcDbDictionaryWithDefault
340
F
  0
DICTIONARY
  5
17
102
{ACAD_REACTORS
330
C
102
}
100
AcDbDictionary
280
0
281
1
  3
Standard
350
18
  0
DICTIONARY
  5
19
102
{ACAD_REACTORS
330
C
102
}
100
AcDbDictionary
281
1
  0
DICTIONARY
  5
1A
102
{ACAD_REACTORS
330
C
102
}
100
AcDbDictionary
281
1
  3
Model
350
465
  3
Layout1
350
466
  0
ACDBPLACEHOLDER
  5
F
102
{ACAD_REACTORS
330
E
102
}
  0
MLINESTYLE
  5
18
102
{ACAD_REACTORS
330
17
102
}
100
AcDbMlineStyle
  2
STANDARD
 70
0
  3

 62
256
 51
90.0
 52
90.0
 71
2
 49
0.5
 62
256
  6
BYLAYER
 49
-0.5
 62
256
  6
BYLAYER
  0
LAYOUT
  5
465
102
{ACAD_REACTORS
330
1A
102
}
100
AcDbPlotSettings
  1

  2
none_device
  4
ISO_A4_(297.00_x_210.00_MM)
  6

 40
0.0
 41
0.0
 42
0.0
 43
0.0
 44
297.0
 45
210.0
 46
0.0
 47
0.0
 48
0.0
 49
0.0
140
0.0
141
0.0
142
1.0
143
1.0
 70
1024
 72
1
 73
0
 74
0
  7

 75
0
147
1.0
148
0.0
149
0.0
100
AcDbLayout
  1
Model
 70
0
 71
0
 10
0.0
 20
0.0
 11
297.0
 21
210.0
 12
0.0
 22
0.0
 32
0.0
 14
0.0
 24
0.0
 34
0.0
 15
0.0
 25
0.0
 35
0.0
146
0.0
 13
0.0
 23
0.0
 33
0.0
 16
1.0
 26
0.0
 36
0.0
 17
0.0
 27
1.0
 37
0.0
 76
0
330
222
345
0
346
0
  0
LAYOUT
  5
466
102
{ACAD_REACTORS
330
1A
102
}
100
AcDbPlotSettings
  1

  2
none_device
  4
ISO_A4_(297.00_x_210.00_MM)
  6

 40
0.0
 41
0.0
 42
0.0
 43
0.0
 44
297.0
 45
210.0
 46
0.0
 47
0.0
 48
0.0
 49
0.0
140
0.0
141
0.0
142
1.0
143
1.0
 70
0
 72
1
 73
0
 74
0
  7

 75
0
147
1.0
148
0.0
149
0.0
100
AcDbLayout
  1
Layout1
 70
0
 71
1
 10
0.0
 20
0.0
 11
297.0
 21
210.0
 12
0.0
 22
0.0
 32
0.0
 14
0.0
 24
0.0
 34
0.0
 15
0.0
 25
0.0
 35
0.0
146
0.0
 13
0.0
 23
0.0
 33
0.0
 16
1.0
 26
0.0
 36
0.0
 17
0.0
 27
1.0
 37
0.0
 76
0
330
223
345
0
346
0
  0
ENDSEC
  0
EOF
