  0
SECTION
  2
HEADER
  9
$ACADVER
  1
AC1024
  9
$DWGCODEPAGE
  3
ANSI_1252
  9
$EXTMAX
 10
297.0
 20
210.0
 30
0.0
  9
$EXTMIN
 10
0.0
 20
0.0
 30
0.0
  9
$LIMMIN
 10
0.0
 20
0.0
  9
$LIMMAX
 10
297.0
 20
210.0
  9
$VIEWCTR
 10
148.5
 20
105.0
  9
$VIEWSIZE
 40
210.0
  9
$CLAYER
  8
0
  9
$LTSCALE
 40
16.335
  9
$CELTYPE
  6
BYLAYER
  9
$DIMSCALE
 40
1.0
  9
$DIMASZ
 40
3.0
  9
$DIMEXO
 40
0.5
  9
$DIMDLI
 40
11.286
  9
$DIMEXE
 40
1.5
  9
$DIMCEN
 40
2.673
  9
$DIMLFAC
 40
1.0
  9
$DIMBLK
  1
_FILLED
  9
$DIMALT
 70
0
  9
$DIMALTF
 40
0.0393700787
  9
$DIMTXT
 40
3.0
  9
$DIMTOL
 70
1
  9
$DIMLIM
 70
0
  9
$DIMTFAC
 40
1.0
  9
$DIMTP
 40
0.01
  9
$DIMTM
 40
0.01
  9
$DIMGAP
 40
0.625
  9
$DIMDSEP
 70
44
  9
$AUNITS
 70
0
  9
$PDMODE
 70
3
  9
$PDSIZE
 40
3.0
  9
$HANDSEED
  5
692
  9
$TILEMODE
 70
1
  9
$MEASUREMENT
 70
1
  9
$INSUNITS
 70
4
  0
ENDSEC
  0
SECTION
  2
CLASSES
  0
CLASS
  1
ACDBDICTIONARYWDFLT
  2
AcDbDictionaryWithDefault
  3
AutoCAD 2000
 90
0
 91
1
280
0
281
0
  0
CLASS
  1
ACDBPLACEHOLDER
  2
AcDbPlaceHolder
  3
AutoCAD 2000
 90
0
 91
1
280
0
281
0
  0
CLASS
  1
LAYOUT
  2
AcDbLayout
  3
AutoCAD 2000
 90
0
 91
0
280
0
281
0
  0
ENDSEC
  0
SECTION
  2
TABLES
  0
TABLE
  2
VPORT
  5
8
100
AcDbSymbolTable
 70
2
  0
VPORT
  5
1F4
100
AcDbSymbolTableRecord
100
AcDbViewportTableRecord
  2
*ACTIVE
 70
0
 10
0.0
 20
0.0
 11
1.0
 21
1.0
 12
148.5
 22
105.0
 13
0.0
 23
0.0
 14
1.0
 24
1.0
 15
0.0
 25
0.0
 16
0.0
 26
0.0
 36
1.0
 17
0.0
 27
0.0
 37
0.0
 40
210.0
 41
1.4142857143
 42
50.0
 43
0.0
 44
0.0
 50
0.0
 51
0.0
 71
0
 72
100
 73
1
 74
1
 75
0
 76
0
 77
0
 78
0
  0
ENDTAB
  0
TABLE
  2
LTYPE
  5
5
100
AcDbSymbolTable
 70
6
  0
LTYPE
  5
14
100
AcDbSymbolTableRecord
100
AcDbLinetypeTableRecord
  2
BYBLOCK
 70
0
  3

 72
65
 73
0
 40
0.0
  0
LTYPE
  5
15
100
AcDbSymbolTableRecord
100
AcDbLinetypeTableRecord
  2
BYLAYER
 70
0
  3

 72
65
 73
0
 40
0.0
  0
LTYPE
  5
16
100
AcDbSymbolTableRecord
100
AcDbLinetypeTableRecord
  2
CONTINUOUS
 70
64
  3
Solid line
 72
65
 73
0
 40
0.0
  0
LTYPE
  5
1F5
100
AcDbSymbolTableRecord
100
AcDbLinetypeTableRecord
  2
CENTER
 70
64
  3
____ _ ____ _ ____ _ ____ _ ____ _ ____ _ ____
 72
65
 73
4
 40
0.6
 49
0.375
 74
0
 49
-0.075
 74
0
 49
0.075
 74
0
 49
-0.075
 74
0
  0
LTYPE
  5
1F6
100
AcDbSymbolTableRecord
100
AcDbLinetypeTableRecord
  2
HIDDEN
 70
64
  3
- - - - - - - - - - - - - - - - - - - -
 72
65
 73
2
 40
0.2
 49
0.1
 74
0
 49
-0.1
 74
0
  0
LTYPE
  5
1F7
100
AcDbSymbolTableRecord
100
AcDbLinetypeTableRecord
  2
PHANTOM
 70
64
  3
_____ _ _ _____ _ _ _____ _ _ _____
 72
65
 73
6
 40
0.8
 49
0.45
 74
0
 49
-0.05
 74
0
 49
0.1
 74
0
 49
-0.05
 74
0
 49
0.1
 74
0
 49
-0.05
 74
0
  0
LTYPE
  5
1F8
100
AcDbSymbolTableRecord
100
AcDbLinetypeTableRecord
  2
DOT
 70
64
  3
. . . . . . . . . . . . . . . . . . . .
 72
65
 73
2
 40
0.2
 49
0.1
 74
0
 49
-0.1
 74
0
  0
LTYPE
  5
1F9
100
AcDbSymbolTableRecord
100
AcDbLinetypeTableRecord
  2
DASHED
 70
64
  3
- - - - - - - - - - - - - - - - - - - -
 72
65
 73
2
 40
0.2
 49
0.1
 74
0
 49
-0.1
 74
0
  0
ENDTAB
  0
TABLE
  2
LAYER
  5
2
100
AcDbSymbolTable
 70
36
  0
LAYER
  5
10
100
AcDbSymbolTableRecord
100
AcDbLayerTableRecord
  2
0
 70
0
 62
7
  6
CONTINUOUS
370
-3
390
F
  0
LAYER
  5
1FA
100
AcDbSymbolTableRecord
100
AcDbLayerTableRecord
  2
DEFAULT_1
 70
0
 62
7
  6
CENTER
370
-3
390
F
  0
LAYER
  5
1FB
100
AcDbSymbolTableRecord
100
AcDbLayerTableRecord
  2
DEFAULT_2
 70
0
 62
7
  6
HIDDEN
370
-3
390
F
  0
LAYER
  5
1FC
100
AcDbSymbolTableRecord
100
AcDbLayerTableRecord
  2
DEFAULT_3
 70
0
 62
7
  6
PHANTOM
370
-3
390
F
  0
LAYER
  5
1FD
100
AcDbSymbolTableRecord
100
AcDbLayerTableRecord
  2
ARROTONDAMENTI
 70
0
 62
7
  6
CONTINUOUS
370
-3
390
F
  0
LAYER
  5
1FE
100
AcDbSymbolTableRecord
100
AcDbLayerTableRecord
  2
ASSI
 70
0
 62
7
  6
CONTINUOUS
370
-3
390
F
  0
LAYER
  5
1FF
100
AcDbSymbolTableRecord
100
AcDbLayerTableRecord
  2
COORDINATE
 70
0
 62
7
  6
CONTINUOUS
370
-3
390
F
  0
LAYER
  5
200
100
AcDbSymbolTableRecord
100
AcDbLayerTableRecord
  2
COPY_PUBLISH
 70
0
 62
7
  6
CONTINUOUS
370
-3
390
F
  0
LAYER
  5
201
100
AcDbSymbolTableRecord
100
AcDbLayerTableRecord
  2
COSMETICHE_FILETTO
 70
0
 62
7
  6
CONTINUOUS
370
-3
390
F
  0
LAYER
  5
202
100
AcDbSymbolTableRecord
100
AcDbLayerTableRecord
  2
COSMETICI
 70
0
 62
7
  6
CONTINUOUS
370
-3
390
F
  0
LAYER
  5
203
100
AcDbSymbolTableRecord
100
AcDbLayerTableRecord
  2
CURVE
 70
0
 62
7
  6
CONTINUOUS
370
-3
390
F
  0
LAYER
  5
204
100
AcDbSymbolTableRecord
100
AcDbLayerTableRecord
  2
DRAFT
 70
0
 62
7
  6
CONTINUOUS
370
-3
390
F
  0
LAYER
  5
205
100
AcDbSymbolTableRecord
100
AcDbLayerTableRecord
  2
ELEMENTI_DI_ANNOTAZIONE
 70
0
 62
7
  6
CONTINUOUS
370
-3
390
F
  0
LAYER
  5
206
100
AcDbSymbolTableRecord
100
AcDbLayerTableRecord
  2
FEATURE_CON_ASSI
 70
0
 62
7
  6
CONTINUOUS
370
-3
390
F
  0
LAYER
  5
207
100
AcDbSymbolTableRecord
100
AcDbLayerTableRecord
  2
FEATURE_DI_GUSCIO
 70
0
 62
7
  6
CONTINUOUS
370
-3
390
F
  0
LAYER
  5
208
100
AcDbSymbolTableRecord
100
AcDbLayerTableRecord
  2
FEATURE_DI_TAGLIO
 70
0
 62
7
  6
CONTINUOUS
370
-3
390
F
  0
LAYER
  5
209
100
AcDbSymbolTableRecord
100
AcDbLayerTableRecord
  2
FORI
 70
0
 62
7
  6
CONTINUOUS
370
-3
390
F
  0
LAYER
  5
20A
100
AcDbSymbolTableRecord
100
AcDbLayerTableRecord
  2
FORI_FILETTATI
 70
0
 62
7
  6
CONTINUOUS
370
-3
390
F
  0
LAYER
  5
20B
100
AcDbSymbolTableRecord
100
AcDbLayerTableRecord
  2
GEOMETRIA_SOLIDA
 70
0
 62
7
  6
CONTINUOUS
370
-3
390
F
  0
LAYER
  5
20C
100
AcDbSymbolTableRecord
100
AcDbLayerTableRecord
  2
IMPORT_IGES
 70
0
 62
7
  6
CONTINUOUS
370
-3
390
F
  0
LAYER
  5
20D
100
AcDbSymbolTableRecord
100
AcDbLayerTableRecord
  2
INTFCLR_2816
 70
0
 62
7
  6
CONTINUOUS
370
-3
390
F
  0
LAYER
  5
20E
100
AcDbSymbolTableRecord
100
AcDbLayerTableRecord
  2
NOTE
 70
0
 62
7
  6
CONTINUOUS
370
-3
390
F
  0
LAYER
  5
20F
100
AcDbSymbolTableRecord
100
AcDbLayerTableRecord
  2
PIANI
 70
0
 62
7
  6
CONTINUOUS
370
-3
390
F
  0
LAYER
  5
210
100
AcDbSymbolTableRecord
100
AcDbLayerTableRecord
  2
PIANI_DI_DEFAULT
 70
0
 62
7
  6
CONTINUOUS
370
-3
390
F
  0
LAYER
  5
211
100
AcDbSymbolTableRecord
100
AcDbLayerTableRecord
  2
PIANI_DI_RIFERIMENTO_CREATI
 70
0
 62
7
  6
CONTINUOUS
370
-3
390
F
  0
LAYER
  5
212
100
AcDbSymbolTableRecord
100
AcDbLayerTableRecord
  2
PROTUSIONI
 70
0
 62
7
  6
CONTINUOUS
370
-3
390
F
  0
LAYER
  5
213
100
AcDbSymbolTableRecord
100
AcDbLayerTableRecord
  2
PUNTI
 70
0
 62
7
  6
CONTINUOUS
370
-3
390
F
  0
LAYER
  5
214
100
AcDbSymbolTableRecord
100
AcDbLayerTableRecord
  2
QUOTE_AE
 70
0
 62
7
  6
CONTINUOUS
370
-3
390
F
  0
LAYER
  5
215
100
AcDbSymbolTableRecord
100
AcDbLayerTableRecord
  2
QUOTE_DEL_MODELLO
 70
0
 62
7
  6
CONTINUOUS
370
-3
390
F
  0
LAYER
  5
216
100
AcDbSymbolTableRecord
100
AcDbLayerTableRecord
  2
RACCORDO
 70
0
 62
7
  6
CONTINUOUS
370
-3
390
F
  0
LAYER
  5
217
100
AcDbSymbolTableRecord
100
AcDbLayerTableRecord
  2
SALDATURE
 70
0
 62
7
  6
CONTINUOUS
370
-3
390
F
  0
LAYER
  5
218
100
AcDbSymbolTableRecord
100
AcDbLayerTableRecord
  2
SIMBOLI
 70
0
 62
7
  6
CONTINUOUS
370
-3
390
F
  0
LAYER
  5
219
100
AcDbSymbolTableRecord
100
AcDbLayerTableRecord
  2
SMUSSI
 70
0
 62
7
  6
CONTINUOUS
370
-3
390
F
  0
LAYER
  5
21A
100
AcDbSymbolTableRecord
100
AcDbLayerTableRecord
  2
SMUSSO
 70
0
 62
7
  6
CONTINUOUS
370
-3
390
F
  0
LAYER
  5
21B
100
AcDbSymbolTableRecord
100
AcDbLayerTableRecord
  2
SNAPLINE
 70
0
 62
7
  6
CONTINUOUS
370
-3
390
F
  0
LAYER
  5
21C
100
AcDbSymbolTableRecord
100
AcDbLayerTableRecord
  2
SUPERFICI
 70
0
 62
7
  6
CONTINUOUS
370
-3
390
F
  0
LAYER
  5
21D
100
AcDbSymbolTableRecord
100
AcDbLayerTableRecord
  2
TERNA_DI_RIFERIMENTO_DI_DEFAULT
 70
0
 62
7
  6
CONTINUOUS
370
-3
390
F
  0
LAYER
  5
21E
100
AcDbSymbolTableRecord
100
AcDbLayerTableRecord
  2
TERNE_DI_RIFERIMENTO_CREATE
 70
0
 62
7
  6
CONTINUOUS
370
-3
390
F
  0
LAYER
  5
21F
100
AcDbSymbolTableRecord
100
AcDbLayerTableRecord
  2
TRASH
 70
0
 62
7
  6
CONTINUOUS
370
-3
390
F
  0
ENDTAB
  0
TABLE
  2
STYLE
  5
3
100
AcDbSymbolTable
 70
1
  0
STYLE
  5
11
100
AcDbSymbolTableRecord
100
AcDbTextStyleTableRecord
  2
STANDARD
 70
0
 40
0.0
 41
0.8
 50
0.0
 71
0
 42
0.2
  3
txt
  4

  0
STYLE
  5
220
100
AcDbSymbolTableRecord
100
AcDbTextStyleTableRecord
  2
TEXTSTYLE_1
 70
0
 40
0.0
 41
0.8
 50
0.0
 71
0
 42
0.2
  3
gdt
  4

  0
ENDTAB
  0
TABLE
  2
VIEW
  5
6
100
AcDbSymbolTable
 70
0
  0
ENDTAB
  0
TABLE
  2
UCS
  5
7
100
AcDbSymbolTable
 70
0
  0
ENDTAB
  0
TABLE
  2
APPID
  5
9
100
AcDbSymbolTable
 70
1
  0
APPID
  5
221
100
AcDbSymbolTableRecord
100
AcDbRegAppTableRecord
  2
ACAD
 70
0
  0
ENDTAB
  0
TABLE
  2
BLOCK_RECORD
  5
1
100
AcDbSymbolTable
 70
0
  0
BLOCK_RECORD
  5
222
100
AcDbSymbolTableRecord
100
AcDbBlockTableRecord
  2
*Model_Space
  0
BLOCK_RECORD
  5
223
100
AcDbSymbolTableRecord
100
AcDbBlockTableRecord
  2
*Paper_Space
  0
BLOCK_RECORD
  5
224
100
AcDbSymbolTableRecord
100
AcDbBlockTableRecord
  2
_FILLED
  0
ENDTAB
  0
TABLE
  2
DIMSTYLE
  5
A
100
AcDbSymbolTable
 70
1
100
AcDbDimStyleTable
 71
0
  0
DIMSTYLE
105
225
100
AcDbSymbolTableRecord
100
AcDbDimStyleTableRecord
  2
STANDARD
 70
0
  3

  4

 40
1.0
 41
3.0
 42
0.5
 43
0.38
 44
1.5
 45
0.0
 46
0.0
 47
0.01
 48
0.01
140
3.0
141
0.09
142
0.0
143
25.4
144
1.0
145
0.0
146
1.0
147
0.625
 71
1.0
 72
0.0
 73
0
 74
0
 75
0
 76
0
 77
1
 78
8
 79
2
170
0
171
1
172
0
173
0
174
0
175
0
176
0
177
0
178
0
270
2
179
2
271
2
272
2
273
2
274
2
275
0
280
0
281
0
282
0
283
1
284
8
285
0
286
0
287
3
288
0
340
11
278
44
341
224
342
224
343
224
344
224
  0
ENDTAB
  0
ENDSEC
  0
SECTION
  2
BLOCKS
  0
BLOCK
  5
20
100
AcDbEntity
  8
0
100
AcDbBlockBegin
  2
*Model_Space
 70
0
 10
0.0
 20
0.0
 30
0.0
  3
*Model_Space
  1

  0
ENDBLK
  5
21
100
AcDbEntity
  8
0
100
AcDbBlockEnd
  0
BLOCK
  5
1C
100
AcDbEntity
  8
0
100
AcDbBlockBegin
  2
*Paper_Space
 70
0
 10
0.0
 20
0.0
 30
0.0
  3
*Paper_Space
  1

  0
ENDBLK
  5
1D
100
AcDbEntity
  8
0
100
AcDbBlockEnd
  0
BLOCK
  5
226
100
AcDbEntity
  8
0
100
AcDbBlockBegin
  2
_FILLED
 70
64
 10
0.0
 20
0.0
  3
_FILLED
  1

  0
SOLID
  5
227
100
AcDbEntity
  8
0
  6
BYBLOCK
 62
0
100
AcDbTrace
 10
0.0
 20
0.0
 11
-1.0
 21
0.1333333333
 12
-1.0
 22
-0.1333333333
 13
-1.0
 23
-0.1333333333
  0
ENDBLK
  5
228
100
AcDbEntity
  8
0
  6
BYBLOCK
 62
0
100
AcDbBlockEnd
  0
ENDSEC
  0
SECTION
  2
ENTITIES
  0
LINE
  5
229
100
AcDbEntity
  8
DRAFT
100
AcDbLine
 62
7
  6
CONTINUOUS
 10
-21.15
 20
23.1357261039
 11
-21.1107261039
 21
23.175
  0
LINE
  5
22A
100
AcDbEntity
  8
DRAFT
100
AcDbLine
 62
7
  6
CONTINUOUS
 10
-21.1107261039
 20
-23.175
 11
-21.15
 21
-23.1357261039
  0
LINE
  5
22B
100
AcDbEntity
  8
0
100
AcDbLine
 62
7
  6
CONTINUOUS
 10
24.2
 20
-27.75
 11
-24.2
 21
-27.75
  0
LINE
  5
22C
100
AcDbEntity
  8
0
100
AcDbLine
 62
7
  6
CONTINUOUS
 10
-24.2
 20
27.75
 11
-24.2
 21
-27.75
  0
LINE
  5
22D
100
AcDbEntity
  8
0
100
AcDbLine
 62
250
  6
CONTINUOUS
 10
-24.075
 20
27.75
 11
-24.075
 21
-27.75
  0
LINE
  5
22E
100
AcDbEntity
  8
DRAFT
100
AcDbLine
 62
7
  6
CONTINUOUS
 10
-20.575
 20
14.325
 11
-20.5356063579
 21
14.3643936421
  0
LINE
  5
22F
100
AcDbEntity
  8
DRAFT
100
AcDbLine
 62
7
  6
CONTINUOUS
 10
-13.6403057787
 20
19.9846942213
 11
-13.625
 21
20.0
  0
LINE
  5
230
100
AcDbEntity
  8
RACCORDO
100
AcDbLine
 62
7
  6
CONTINUOUS
 10
-15.5732457325
 20
17.7
 11
-15.6047105443
 21
17.6685351882
  0
LINE
  5
231
100
AcDbEntity
  8
DRAFT
100
AcDbLine
 62
7
  6
CONTINUOUS
 10
-9.4090238335
 20
23.1159761665
 11
-9.3899690545
 21
23.1350309455
  0
LINE
  5
232
100
AcDbEntity
  8
DRAFT
100
AcDbLine
 62
7
  6
CONTINUOUS
 10
-21.15
 20
10.6357261039
 11
-21.1107261039
 21
10.675
  0
LINE
  5
233
100
AcDbEntity
  8
DRAFT
100
AcDbLine
 62
7
  6
CONTINUOUS
 10
-15.6072831091
 20
17.5088577708
 11
-15.625
 21
17.5
  0
LINE
  5
234
100
AcDbEntity
  8
DRAFT
100
AcDbLine
 62
7
  6
CONTINUOUS
 10
-15.2037109802
 20
17.5153057787
 11
-15.2166079783
 21
17.5088577708
  0
LINE
  5
235
100
AcDbEntity
  8
DRAFT
100
AcDbLine
 62
7
  6
CONTINUOUS
 10
-20.475
 20
-23.75
 11
-18.225
 21
-23.7264356623
  0
LINE
  5
236
100
AcDbEntity
  8
DRAFT
100
AcDbLine
 62
7
  6
CONTINUOUS
 10
-20.475
 20
-23.175
 11
-18.225
 21
-23.1632187285
  0
LINE
  5
237
100
AcDbEntity
  8
RACCORDO
100
AcDbLine
 62
7
  6
CONTINUOUS
 10
21.7492543082
 20
-23.75
 11
18.575
 21
-23.75
  0
LINE
  5
238
100
AcDbEntity
  8
RACCORDO
100
AcDbLine
 62
7
  6
CONTINUOUS
 10
-20.475
 20
-23.75
 11
-21.6992543082
 21
-23.75
  0
LINE
  5
239
100
AcDbEntity
  8
DRAFT
100
AcDbLine
 62
7
  6
CONTINUOUS
 10
-18.225
 20
-23.7264356623
 11
-9.925
 21
-23.7264356623
  0
LINE
  5
23A
100
AcDbEntity
  8
DRAFT
100
AcDbLine
 62
7
  6
CONTINUOUS
 10
17.725
 20
-23.7155262468
 11
-9.925
 21
-23.7155262468
  0
LINE
  5
23B
100
AcDbEntity
  8
DRAFT
100
AcDbLine
 62
7
  6
CONTINUOUS
 10
22.0
 20
-23.175
 11
21.1607261039
 21
-23.175
  0
LINE
  5
23C
100
AcDbEntity
  8
DRAFT
100
AcDbLine
 62
7
  6
CONTINUOUS
 10
20.625
 20
-23.175
 11
18.575
 21
-23.175
  0
LINE
  5
23D
100
AcDbEntity
  8
DRAFT
100
AcDbLine
 62
7
  6
CONTINUOUS
 10
-20.475
 20
-23.175
 11
-20.575
 21
-23.175
  0
LINE
  5
23E
100
AcDbEntity
  8
DRAFT
100
AcDbLine
 62
7
  6
CONTINUOUS
 10
-21.1107261039
 20
-23.175
 11
-21.95
 21
-23.175
  0
LINE
  5
23F
100
AcDbEntity
  8
DRAFT
100
AcDbLine
 62
7
  6
CONTINUOUS
 10
-18.225
 20
-23.1632187285
 11
-9.925
 21
-23.1632187285
  0
LINE
  5
240
100
AcDbEntity
  8
RACCORDO
100
AcDbLine
 62
7
  6
CONTINUOUS
 10
17.725
 20
-23.1577644361
 11
11.925
 21
-23.1577644361
  0
LINE
  5
241
100
AcDbEntity
  8
RACCORDO
100
AcDbLine
 62
7
  6
CONTINUOUS
 10
10.425
 20
-23.1577644361
 11
-1.575
 21
-23.1577644361
  0
LINE
  5
242
100
AcDbEntity
  8
RACCORDO
100
AcDbLine
 62
7
  6
CONTINUOUS
 10
-3.075
 20
-23.1577644361
 11
-9.925
 21
-23.1577644361
  0
LINE
  5
243
100
AcDbEntity
  8
RACCORDO
100
AcDbLine
 62
250
  6
CONTINUOUS
 10
-1.425
 20
-23.15
 11
-3.225
 21
-23.15
  0
LINE
  5
244
100
AcDbEntity
  8
RACCORDO
100
AcDbLine
 62
250
  6
CONTINUOUS
 10
10.275
 20
-23.15
 11
12.075
 21
-23.15
  0
LINE
  5
245
100
AcDbEntity
  8
DRAFT
100
AcDbLine
 62
7
  6
CONTINUOUS
 10
17.65
 20
-23.1373435655
 11
18.2376564345
 21
-23.1373435655
  0
LINE
  5
246
100
AcDbEntity
  8
DRAFT
100
AcDbLine
 62
7
  6
CONTINUOUS
 10
21.7822580645
 20
-23.1357261039
 11
21.2
 21
-23.1357261039
  0
LINE
  5
247
100
AcDbEntity
  8
DRAFT
100
AcDbLine
 62
7
  6
CONTINUOUS
 10
-21.15
 20
-23.1357261039
 11
-21.7322580645
 21
-23.1357261039
  0
LINE
  5
248
100
AcDbEntity
  8
DRAFT
100
AcDbLine
 62
7
  6
CONTINUOUS
 10
-9.4074227901
 20
-23.1175772099
 11
-8.8
 21
-23.1175772099
  0
LINE
  5
249
100
AcDbEntity
  8
0
100
AcDbLine
 62
7
  6
CONTINUOUS
 10
17.425
 20
-23.0
 11
12.0367710127
 21
-23.0
  0
LINE
  5
24A
100
AcDbEntity
  8
0
100
AcDbLine
 62
7
  6
CONTINUOUS
 10
10.3132289873
 20
-23.0
 11
-1.4632289873
 21
-23.0
  0
LINE
  5
24B
100
AcDbEntity
  8
0
100
AcDbLine
 62
7
  6
CONTINUOUS
 10
-3.1867710127
 20
-23.0
 11
-8.575
 21
-23.0
  0
LINE
  5
24C
100
AcDbEntity
  8
RACCORDO
100
AcDbLine
 62
7
  6
CONTINUOUS
 10
11.925
 20
-22.95
 11
10.425
 21
-22.95
  0
LINE
  5
24D
100
AcDbEntity
  8
RACCORDO
100
AcDbLine
 62
7
  6
CONTINUOUS
 10
-1.575
 20
-22.95
 11
-3.075
 21
-22.95
  0
LINE
  5
24E
100
AcDbEntity
  8
DRAFT
100
AcDbLine
 62
7
  6
CONTINUOUS
 10
22.05
 20
-22.65
 11
21.7
 21
-22.65
  0
LINE
  5
24F
100
AcDbEntity
  8
DRAFT
100
AcDbLine
 62
7
  6
CONTINUOUS
 10
-22.0159334106
 20
-22.75
 11
-22.05
 21
-22.7497871958
  0
LINE
  5
250
100
AcDbEntity
  8
DRAFT
100
AcDbLine
 62
7
  6
CONTINUOUS
 10
17.725
 20
-23.1577644361
 11
18.575
 21
-23.175
  0
LINE
  5
251
100
AcDbEntity
  8
DRAFT
100
AcDbLine
 62
7
  6
CONTINUOUS
 10
17.725
 20
-23.7155262468
 11
18.575
 21
-23.75
  0
LINE
  5
252
100
AcDbEntity
  8
DRAFT
100
AcDbLine
 62
7
  6
CONTINUOUS
 10
-15.6072831091
 20
-17.5088577708
 11
-15.625
 21
-17.5
  0
LINE
  5
253
100
AcDbEntity
  8
DRAFT
100
AcDbLine
 62
7
  6
CONTINUOUS
 10
-15.2037109802
 20
-17.5153057787
 11
-15.2166079783
 21
-17.5088577708
  0
LINE
  5
254
100
AcDbEntity
  8
DRAFT
100
AcDbLine
 62
7
  6
CONTINUOUS
 10
-20.575
 20
-14.325
 11
-20.5356063579
 21
-14.3643936421
  0
LINE
  5
255
100
AcDbEntity
  8
DRAFT
100
AcDbLine
 62
7
  6
CONTINUOUS
 10
-13.6403057787
 20
-19.9846942213
 11
-13.625
 21
-20.0
  0
LINE
  5
256
100
AcDbEntity
  8
RACCORDO
100
AcDbLine
 62
7
  6
CONTINUOUS
 10
-15.5732457325
 20
-17.7
 11
-15.6047105443
 21
-17.6685351882
  0
LINE
  5
257
100
AcDbEntity
  8
DRAFT
100
AcDbLine
 62
7
  6
CONTINUOUS
 10
-21.1107261039
 20
-10.675
 11
-21.15
 21
-10.6357261039
  0
LINE
  5
258
100
AcDbEntity
  8
0
100
AcDbLine
 62
250
  6
CONTINUOUS
 10
-22.175
 20
27.75
 11
-22.175
 21
-27.75
  0
LINE
  5
259
100
AcDbEntity
  8
0
100
AcDbLine
 62
7
  6
CONTINUOUS
 10
-22.05
 20
27.75
 11
-22.05
 21
-27.75
  0
LINE
  5
25A
100
AcDbEntity
  8
DRAFT
100
AcDbLine
 62
7
  6
CONTINUOUS
 10
-22.0159334106
 20
22.75
 11
-22.0159334106
 21
14.75
  0
LINE
  5
25B
100
AcDbEntity
  8
DRAFT
100
AcDbLine
 62
7
  6
CONTINUOUS
 10
-22.0159334106
 20
10.25
 11
-22.0159334106
 21
2.25
  0
LINE
  5
25C
100
AcDbEntity
  8
DRAFT
100
AcDbLine
 62
7
  6
CONTINUOUS
 10
-22.0159334106
 20
-2.25
 11
-22.0159334106
 21
-10.25
  0
LINE
  5
25D
100
AcDbEntity
  8
DRAFT
100
AcDbLine
 62
7
  6
CONTINUOUS
 10
-22.0159334106
 20
-14.75
 11
-22.0159334106
 21
-22.75
  0
LINE
  5
25E
100
AcDbEntity
  8
RACCORDO
100
AcDbLine
 62
7
  6
CONTINUOUS
 10
-21.95
 20
23.5003822543
 11
-21.95
 21
23.175
  0
LINE
  5
25F
100
AcDbEntity
  8
RACCORDO
100
AcDbLine
 62
7
  6
CONTINUOUS
 10
-21.95
 20
11.0003822543
 11
-21.95
 21
10.675
  0
LINE
  5
260
100
AcDbEntity
  8
RACCORDO
100
AcDbLine
 62
7
  6
CONTINUOUS
 10
-21.95
 20
-1.4996177457
 11
-21.95
 21
-1.825
  0
LINE
  5
261
100
AcDbEntity
  8
RACCORDO
100
AcDbLine
 62
7
  6
CONTINUOUS
 10
-21.95
 20
-13.9996177457
 11
-21.95
 21
-14.325
  0
LINE
  5
262
100
AcDbEntity
  8
RACCORDO
100
AcDbLine
 62
7
  6
CONTINUOUS
 10
-21.95
 20
-23.5003822543
 11
-21.95
 21
-23.175
  0
LINE
  5
263
100
AcDbEntity
  8
RACCORDO
100
AcDbLine
 62
7
  6
CONTINUOUS
 10
-21.95
 20
-11.0003822543
 11
-21.95
 21
-10.675
  0
LINE
  5
264
100
AcDbEntity
  8
RACCORDO
100
AcDbLine
 62
7
  6
CONTINUOUS
 10
-21.95
 20
1.4996177457
 11
-21.95
 21
1.825
  0
LINE
  5
265
100
AcDbEntity
  8
RACCORDO
100
AcDbLine
 62
7
  6
CONTINUOUS
 10
-21.95
 20
13.9996177457
 11
-21.95
 21
14.325
  0
LINE
  5
266
100
AcDbEntity
  8
0
100
AcDbLine
 62
250
  6
CONTINUOUS
 10
-21.8
 20
27.75
 11
-21.8
 21
23.728755469
  0
LINE
  5
267
100
AcDbEntity
  8
0
100
AcDbLine
 62
250
  6
CONTINUOUS
 10
-21.8
 20
23.1479446494
 11
-21.8
 21
22.7394679897
  0
LINE
  5
268
100
AcDbEntity
  8
0
100
AcDbLine
 62
250
  6
CONTINUOUS
 10
-21.8
 20
14.7605320103
 11
-21.8
 21
14.3520553506
  0
LINE
  5
269
100
AcDbEntity
  8
0
100
AcDbLine
 62
250
  6
CONTINUOUS
 10
-21.8
 20
13.771244531
 11
-21.8
 21
11.228755469
  0
LINE
  5
26A
100
AcDbEntity
  8
0
100
AcDbLine
 62
250
  6
CONTINUOUS
 10
-21.8
 20
10.6479446494
 11
-21.8
 21
10.2394679897
  0
LINE
  5
26B
100
AcDbEntity
  8
0
100
AcDbLine
 62
250
  6
CONTINUOUS
 10
-21.8
 20
2.2605320103
 11
-21.8
 21
1.8520553506
  0
LINE
  5
26C
100
AcDbEntity
  8
0
100
AcDbLine
 62
250
  6
CONTINUOUS
 10
-21.8
 20
1.271244531
 11
-21.8
 21
-1.271244531
  0
LINE
  5
26D
100
AcDbEntity
  8
0
100
AcDbLine
 62
250
  6
CONTINUOUS
 10
-21.8
 20
-1.8520553506
 11
-21.8
 21
-2.2605320103
  0
LINE
  5
26E
100
AcDbEntity
  8
0
100
AcDbLine
 62
250
  6
CONTINUOUS
 10
-21.8
 20
-10.2394679897
 11
-21.8
 21
-10.6479446494
  0
LINE
  5
26F
100
AcDbEntity
  8
0
100
AcDbLine
 62
250
  6
CONTINUOUS
 10
-21.8
 20
-11.228755469
 11
-21.8
 21
-13.771244531
  0
LINE
  5
270
100
AcDbEntity
  8
0
100
AcDbLine
 62
250
  6
CONTINUOUS
 10
-21.8
 20
-14.3520553506
 11
-21.8
 21
-14.7605320103
  0
LINE
  5
271
100
AcDbEntity
  8
0
100
AcDbLine
 62
250
  6
CONTINUOUS
 10
-21.8
 20
-22.7394679897
 11
-21.8
 21
-23.1479446494
  0
LINE
  5
272
100
AcDbEntity
  8
0
100
AcDbLine
 62
250
  6
CONTINUOUS
 10
-21.8
 20
-23.728755469
 11
-21.8
 21
-27.75
  0
LINE
  5
273
100
AcDbEntity
  8
DRAFT
100
AcDbLine
 62
7
  6
CONTINUOUS
 10
-21.7322580645
 20
-23.1357261039
 11
-21.7322580645
 21
-22.7361639213
  0
LINE
  5
274
100
AcDbEntity
  8
DRAFT
100
AcDbLine
 62
7
  6
CONTINUOUS
 10
-21.7322580645
 20
-14.7638360787
 11
-21.7322580645
 21
-14.3642738961
  0
LINE
  5
275
100
AcDbEntity
  8
DRAFT
100
AcDbLine
 62
7
  6
CONTINUOUS
 10
-21.7322580645
 20
-10.6357261039
 11
-21.7322580645
 21
-10.2361639213
  0
LINE
  5
276
100
AcDbEntity
  8
DRAFT
100
AcDbLine
 62
7
  6
CONTINUOUS
 10
-21.7322580645
 20
-2.2638360787
 11
-21.7322580645
 21
-1.8642738961
  0
LINE
  5
277
100
AcDbEntity
  8
DRAFT
100
AcDbLine
 62
7
  6
CONTINUOUS
 10
-21.7322580645
 20
1.8642738961
 11
-21.7322580645
 21
2.2638360787
  0
LINE
  5
278
100
AcDbEntity
  8
DRAFT
100
AcDbLine
 62
7
  6
CONTINUOUS
 10
-21.7322580645
 20
10.2361639213
 11
-21.7322580645
 21
10.6357261039
  0
LINE
  5
279
100
AcDbEntity
  8
DRAFT
100
AcDbLine
 62
7
  6
CONTINUOUS
 10
-21.7322580645
 20
14.3642738961
 11
-21.7322580645
 21
14.7638360787
  0
LINE
  5
27A
100
AcDbEntity
  8
DRAFT
100
AcDbLine
 62
7
  6
CONTINUOUS
 10
-21.7322580645
 20
22.7361639213
 11
-21.7322580645
 21
23.1357261039
  0
LINE
  5
27B
100
AcDbEntity
  8
0
100
AcDbLine
 62
7
  6
CONTINUOUS
 10
-21.55
 20
27.75
 11
-21.55
 21
23.75
  0
LINE
  5
27C
100
AcDbEntity
  8
0
100
AcDbLine
 62
7
  6
CONTINUOUS
 10
-21.55
 20
13.75
 11
-21.55
 21
11.25
  0
LINE
  5
27D
100
AcDbEntity
  8
0
100
AcDbLine
 62
7
  6
CONTINUOUS
 10
-21.55
 20
1.25
 11
-21.55
 21
-1.25
  0
LINE
  5
27E
100
AcDbEntity
  8
0
100
AcDbLine
 62
7
  6
CONTINUOUS
 10
-21.55
 20
-11.25
 11
-21.55
 21
-13.75
  0
LINE
  5
27F
100
AcDbEntity
  8
0
100
AcDbLine
 62
7
  6
CONTINUOUS
 10
-21.55
 20
-23.75
 11
-21.55
 21
-27.75
  0
LINE
  5
280
100
AcDbEntity
  8
0
100
AcDbLine
 62
250
  6
CONTINUOUS
 10
-21.5276364025
 20
-27.75
 11
-21.5276364025
 21
-23.75
  0
LINE
  5
281
100
AcDbEntity
  8
0
100
AcDbLine
 62
250
  6
CONTINUOUS
 10
-21.5276364025
 20
-13.75
 11
-21.5276364025
 21
-11.25
  0
LINE
  5
282
100
AcDbEntity
  8
0
100
AcDbLine
 62
250
  6
CONTINUOUS
 10
-21.5276364025
 20
-1.25
 11
-21.5276364025
 21
1.25
  0
LINE
  5
283
100
AcDbEntity
  8
0
100
AcDbLine
 62
250
  6
CONTINUOUS
 10
-21.5276364025
 20
11.25
 11
-21.5276364025
 21
13.75
  0
LINE
  5
284
100
AcDbEntity
  8
0
100
AcDbLine
 62
250
  6
CONTINUOUS
 10
-21.5276364025
 20
23.75
 11
-21.5276364025
 21
27.75
  0
LINE
  5
285
100
AcDbEntity
  8
DRAFT
100
AcDbLine
 62
7
  6
CONTINUOUS
 10
-21.2107171139
 20
22.7107261039
 11
-21.2107171139
 21
14.7892738961
  0
LINE
  5
286
100
AcDbEntity
  8
DRAFT
100
AcDbLine
 62
7
  6
CONTINUOUS
 10
-21.2107171139
 20
10.2107261039
 11
-21.2107171139
 21
2.2892738961
  0
LINE
  5
287
100
AcDbEntity
  8
DRAFT
100
AcDbLine
 62
7
  6
CONTINUOUS
 10
-21.2107171139
 20
-2.2892738961
 11
-21.2107171139
 21
-10.2107261039
  0
LINE
  5
288
100
AcDbEntity
  8
DRAFT
100
AcDbLine
 62
7
  6
CONTINUOUS
 10
-21.2107171139
 20
-14.7892738961
 11
-21.2107171139
 21
-22.7107261039
  0
LINE
  5
289
100
AcDbEntity
  8
DRAFT
100
AcDbLine
 62
7
  6
CONTINUOUS
 10
-21.15
 20
23.1357261039
 11
-21.15
 21
14.3642738961
  0
LINE
  5
28A
100
AcDbEntity
  8
DRAFT
100
AcDbLine
 62
7
  6
CONTINUOUS
 10
-21.15
 20
10.6357261039
 11
-21.15
 21
1.8642738961
  0
LINE
  5
28B
100
AcDbEntity
  8
DRAFT
100
AcDbLine
 62
7
  6
CONTINUOUS
 10
-21.15
 20
-1.8642738961
 11
-21.15
 21
-10.6357261039
  0
LINE
  5
28C
100
AcDbEntity
  8
DRAFT
100
AcDbLine
 62
7
  6
CONTINUOUS
 10
-21.15
 20
-14.3642738961
 11
-21.15
 21
-23.1357261039
  0
LINE
  5
28D
100
AcDbEntity
  8
DRAFT
100
AcDbLine
 62
7
  6
CONTINUOUS
 10
-21.1107261039
 20
23.175
 11
-21.1107261039
 21
14.325
  0
LINE
  5
28E
100
AcDbEntity
  8
DRAFT
100
AcDbLine
 62
7
  6
CONTINUOUS
 10
-21.1107261039
 20
10.675
 11
-21.1107261039
 21
1.825
  0
LINE
  5
28F
100
AcDbEntity
  8
DRAFT
100
AcDbLine
 62
7
  6
CONTINUOUS
 10
-21.1107261039
 20
-1.825
 11
-21.1107261039
 21
-10.675
  0
LINE
  5
290
100
AcDbEntity
  8
DRAFT
100
AcDbLine
 62
7
  6
CONTINUOUS
 10
-21.1107261039
 20
-14.325
 11
-21.1107261039
 21
-23.175
  0
LINE
  5
291
100
AcDbEntity
  8
DRAFT
100
AcDbLine
 62
7
  6
CONTINUOUS
 10
-20.575
 20
-23.175
 11
-20.575
 21
-14.325
  0
LINE
  5
292
100
AcDbEntity
  8
DRAFT
100
AcDbLine
 62
7
  6
CONTINUOUS
 10
-20.575
 20
-10.675
 11
-20.575
 21
-1.825
  0
LINE
  5
293
100
AcDbEntity
  8
DRAFT
100
AcDbLine
 62
7
  6
CONTINUOUS
 10
-20.575
 20
1.825
 11
-20.575
 21
10.675
  0
LINE
  5
294
100
AcDbEntity
  8
DRAFT
100
AcDbLine
 62
7
  6
CONTINUOUS
 10
-20.575
 20
14.325
 11
-20.575
 21
23.175
  0
LINE
  5
295
100
AcDbEntity
  8
DRAFT
100
AcDbLine
 62
7
  6
CONTINUOUS
 10
-20.5356063579
 20
23.1356063579
 11
-20.5356063579
 21
14.3643936421
  0
LINE
  5
296
100
AcDbEntity
  8
DRAFT
100
AcDbLine
 62
7
  6
CONTINUOUS
 10
-20.5356063579
 20
10.6356063579
 11
-20.5356063579
 21
1.8643936421
  0
LINE
  5
297
100
AcDbEntity
  8
DRAFT
100
AcDbLine
 62
7
  6
CONTINUOUS
 10
-20.5356063579
 20
-1.8643936421
 11
-20.5356063579
 21
-10.6356063579
  0
LINE
  5
298
100
AcDbEntity
  8
DRAFT
100
AcDbLine
 62
7
  6
CONTINUOUS
 10
-20.5356063579
 20
-14.3643936421
 11
-20.5356063579
 21
-23.1356063579
  0
LINE
  5
299
100
AcDbEntity
  8
DRAFT
100
AcDbLine
 62
7
  6
CONTINUOUS
 10
-20.475
 20
-23.75
 11
-20.475
 21
-23.175
  0
LINE
  5
29A
100
AcDbEntity
  8
DRAFT
100
AcDbLine
 62
7
  6
CONTINUOUS
 10
-20.475
 20
-14.325
 11
-20.475
 21
-13.75
  0
LINE
  5
29B
100
AcDbEntity
  8
DRAFT
100
AcDbLine
 62
7
  6
CONTINUOUS
 10
-20.475
 20
-11.25
 11
-20.475
 21
-10.675
  0
LINE
  5
29C
100
AcDbEntity
  8
DRAFT
100
AcDbLine
 62
7
  6
CONTINUOUS
 10
-20.475
 20
-1.825
 11
-20.475
 21
-1.25
  0
LINE
  5
29D
100
AcDbEntity
  8
DRAFT
100
AcDbLine
 62
7
  6
CONTINUOUS
 10
-20.475
 20
1.25
 11
-20.475
 21
1.825
  0
LINE
  5
29E
100
AcDbEntity
  8
DRAFT
100
AcDbLine
 62
7
  6
CONTINUOUS
 10
-20.475
 20
10.675
 11
-20.475
 21
11.25
  0
LINE
  5
29F
100
AcDbEntity
  8
DRAFT
100
AcDbLine
 62
7
  6
CONTINUOUS
 10
-20.475
 20
13.75
 11
-20.475
 21
14.325
  0
LINE
  5
2A0
100
AcDbEntity
  8
DRAFT
100
AcDbLine
 62
7
  6
CONTINUOUS
 10
-20.475
 20
23.175
 11
-20.475
 21
23.75
  0
LINE
  5
2A1
100
AcDbEntity
  8
DRAFT
100
AcDbLine
 62
7
  6
CONTINUOUS
 10
-21.2107171139
 20
-22.7107261039
 11
-22.0159334106
 21
-22.75
  0
LINE
  5
2A2
100
AcDbEntity
  8
DRAFT
100
AcDbLine
 62
7
  6
CONTINUOUS
 10
-8.8
 20
-22.175
 11
-9.4074227901
 21
-22.175
  0
LINE
  5
2A3
100
AcDbEntity
  8
DRAFT
100
AcDbLine
 62
7
  6
CONTINUOUS
 10
17.65
 20
-21.875
 11
18.2376564345
 21
-21.875
  0
LINE
  5
2A4
100
AcDbEntity
  8
DRAFT
100
AcDbLine
 62
7
  6
CONTINUOUS
 10
22.05
 20
-20.15
 11
21.7
 21
-20.15
  0
LINE
  5
2A5
100
AcDbEntity
  8
DRAFT
100
AcDbLine
 62
7
  6
CONTINUOUS
 10
-13.625
 20
-20.0
 11
-15.625
 21
-20.0
  0
LINE
  5
2A6
100
AcDbEntity
  8
DRAFT
100
AcDbLine
 62
7
  6
CONTINUOUS
 10
-15.6072831091
 20
-19.9911422292
 11
-15.2166079783
 21
-19.9911422292
  0
LINE
  5
2A7
100
AcDbEntity
  8
DRAFT
100
AcDbLine
 62
7
  6
CONTINUOUS
 10
-13.6403057787
 20
-19.9846942213
 11
-15.2037109802
 21
-19.9846942213
  0
LINE
  5
2A8
100
AcDbEntity
  8
DRAFT
100
AcDbLine
 62
7
  6
CONTINUOUS
 10
-15.125
 20
-19.8
 11
-15.5732457325
 21
-19.8
  0
LINE
  5
2A9
100
AcDbEntity
  8
SMUSSO
100
AcDbLine
 62
7
  6
CONTINUOUS
 10
-13.5087268678
 20
-19.75
 11
-14.0087459055
 21
-19.75
  0
LINE
  5
2AA
100
AcDbEntity
  8
RACCORDO
100
AcDbLine
 62
7
  6
CONTINUOUS
 10
-14.0087459055
 20
-19.75
 11
-15.9027650843
 21
-19.75
  0
LINE
  5
2AB
100
AcDbEntity
  8
DRAFT
100
AcDbLine
 62
7
  6
CONTINUOUS
 10
21.7
 20
-22.6334176883
 11
21.4361111111
 21
-22.6168353766
  0
LINE
  5
2AC
100
AcDbEntity
  8
0
100
AcDbLine
 62
7
  6
CONTINUOUS
 10
-18.9427351167
 20
-27.75
 11
-18.9427351167
 21
-23.7339525302
  0
LINE
  5
2AD
100
AcDbEntity
  8
0
100
AcDbLine
 62
7
  6
CONTINUOUS
 10
-18.9427351167
 20
-13.7660474698
 11
-18.9427351167
 21
-11.2339525302
  0
LINE
  5
2AE
100
AcDbEntity
  8
0
100
AcDbLine
 62
7
  6
CONTINUOUS
 10
-18.9427351167
 20
-1.2660474698
 11
-18.9427351167
 21
1.2660474698
  0
LINE
  5
2AF
100
AcDbEntity
  8
0
100
AcDbLine
 62
7
  6
CONTINUOUS
 10
-18.9427351167
 20
11.2339525302
 11
-18.9427351167
 21
13.7660474698
  0
LINE
  5
2B0
100
AcDbEntity
  8
0
100
AcDbLine
 62
7
  6
CONTINUOUS
 10
-18.9427351167
 20
23.7339525302
 11
-18.9427351167
 21
27.75
  0
LINE
  5
2B1
100
AcDbEntity
  8
DRAFT
100
AcDbLine
 62
7
  6
CONTINUOUS
 10
-18.9066564435
 20
23.1289446814
 11
-18.9066564435
 21
14.3710553186
  0
LINE
  5
2B2
100
AcDbEntity
  8
DRAFT
100
AcDbLine
 62
7
  6
CONTINUOUS
 10
-18.9066564435
 20
10.6289446814
 11
-18.9066564435
 21
1.8710553186
  0
LINE
  5
2B3
100
AcDbEntity
  8
DRAFT
100
AcDbLine
 62
7
  6
CONTINUOUS
 10
-18.9066564435
 20
-1.8710553186
 11
-18.9066564435
 21
-10.6289446814
  0
LINE
  5
2B4
100
AcDbEntity
  8
DRAFT
100
AcDbLine
 62
7
  6
CONTINUOUS
 10
-18.9066564435
 20
-14.3710553186
 11
-18.9066564435
 21
-23.1289446814
  0
LINE
  5
2B5
100
AcDbEntity
  8
DRAFT
100
AcDbLine
 62
7
  6
CONTINUOUS
 10
-18.225
 20
23.7264356623
 11
-18.225
 21
23.1632187285
  0
LINE
  5
2B6
100
AcDbEntity
  8
DRAFT
100
AcDbLine
 62
7
  6
CONTINUOUS
 10
-18.225
 20
14.3367812715
 11
-18.225
 21
13.7735643377
  0
LINE
  5
2B7
100
AcDbEntity
  8
DRAFT
100
AcDbLine
 62
7
  6
CONTINUOUS
 10
-18.225
 20
11.2264356623
 11
-18.225
 21
10.6632187285
  0
LINE
  5
2B8
100
AcDbEntity
  8
DRAFT
100
AcDbLine
 62
7
  6
CONTINUOUS
 10
-18.225
 20
1.8367812715
 11
-18.225
 21
1.2735643377
  0
LINE
  5
2B9
100
AcDbEntity
  8
DRAFT
100
AcDbLine
 62
7
  6
CONTINUOUS
 10
-18.225
 20
-1.2735643377
 11
-18.225
 21
-1.8367812715
  0
LINE
  5
2BA
100
AcDbEntity
  8
DRAFT
100
AcDbLine
 62
7
  6
CONTINUOUS
 10
-18.225
 20
-10.6632187285
 11
-18.225
 21
-11.2264356623
  0
LINE
  5
2BB
100
AcDbEntity
  8
DRAFT
100
AcDbLine
 62
7
  6
CONTINUOUS
 10
-18.225
 20
-13.7735643377
 11
-18.225
 21
-14.3367812715
  0
LINE
  5
2BC
100
AcDbEntity
  8
DRAFT
100
AcDbLine
 62
7
  6
CONTINUOUS
 10
-18.225
 20
-23.1632187285
 11
-18.225
 21
-23.7264356623
  0
LINE
  5
2BD
100
AcDbEntity
  8
DRAFT
100
AcDbLine
 62
7
  6
CONTINUOUS
 10
-21.95
 20
-23.175
 11
-21.7322580645
 21
-23.1357261039
  0
LINE
  5
2BE
100
AcDbEntity
  8
DRAFT
100
AcDbLine
 62
7
  6
CONTINUOUS
 10
21.7822580645
 20
-14.3642738961
 11
22.0
 21
-14.325
  0
LINE
  5
2BF
100
AcDbEntity
  8
DRAFT
100
AcDbLine
 62
7
  6
CONTINUOUS
 10
18.2202026989
 20
-19.0202026989
 11
18.599151635
 21
-19.0202026989
  0
LINE
  5
2C0
100
AcDbEntity
  8
DRAFT
100
AcDbLine
 62
7
  6
CONTINUOUS
 10
20.200848365
 20
-19.0202026989
 11
20.6047973011
 21
-19.0202026989
  0
LINE
  5
2C1
100
AcDbEntity
  8
RACCORDO
100
AcDbLine
 62
250
  6
CONTINUOUS
 10
-10.796859097
 20
-18.75
 11
-10.975
 21
-18.75
  0
LINE
  5
2C2
100
AcDbEntity
  8
SMUSSO
100
AcDbLine
 62
7
  6
CONTINUOUS
 10
-13.5
 20
-18.75
 11
-14.0000190377
 21
-18.75
  0
LINE
  5
2C3
100
AcDbEntity
  8
RACCORDO
100
AcDbLine
 62
7
  6
CONTINUOUS
 10
-14.0000190377
 20
-18.75
 11
-15.9114919521
 21
-18.75
  0
LINE
  5
2C4
100
AcDbEntity
  8
RACCORDO
100
AcDbLine
 62
250
  6
CONTINUOUS
 10
-18.275
 20
-18.75
 11
-18.4634147681
 21
-18.75
  0
LINE
  5
2C5
100
AcDbEntity
  8
DRAFT
100
AcDbLine
 62
7
  6
CONTINUOUS
 10
20.6047973011
 20
-18.4797973011
 11
20.200848365
 21
-18.4797973011
  0
LINE
  5
2C6
100
AcDbEntity
  8
DRAFT
100
AcDbLine
 62
7
  6
CONTINUOUS
 10
18.599151635
 20
-18.4797973011
 11
18.2202026989
 21
-18.4797973011
  0
LINE
  5
2C7
100
AcDbEntity
  8
SMUSSO
100
AcDbLine
 62
7
  6
CONTINUOUS
 10
-14.0087459055
 20
-17.75
 11
-13.5087268678
 21
-17.75
  0
LINE
  5
2C8
100
AcDbEntity
  8
RACCORDO
100
AcDbLine
 62
7
  6
CONTINUOUS
 10
-14.0087459055
 20
-17.75
 11
-15.9027650843
 21
-17.75
  0
LINE
  5
2C9
100
AcDbEntity
  8
DRAFT
100
AcDbLine
 62
7
  6
CONTINUOUS
 10
-15.125
 20
-17.7
 11
-15.5732457325
 21
-17.7
  0
LINE
  5
2CA
100
AcDbEntity
  8
DRAFT
100
AcDbLine
 62
7
  6
CONTINUOUS
 10
-15.2037109802
 20
-17.5153057787
 11
-13.6403057787
 21
-17.5153057787
  0
LINE
  5
2CB
100
AcDbEntity
  8
DRAFT
100
AcDbLine
 62
7
  6
CONTINUOUS
 10
-15.6072831091
 20
-17.5088577708
 11
-15.2166079783
 21
-17.5088577708
  0
LINE
  5
2CC
100
AcDbEntity
  8
DRAFT
100
AcDbLine
 62
7
  6
CONTINUOUS
 10
-15.625
 20
-17.5
 11
-13.625
 21
-17.5
  0
LINE
  5
2CD
100
AcDbEntity
  8
DRAFT
100
AcDbLine
 62
7
  6
CONTINUOUS
 10
22.05
 20
-17.35
 11
21.7
 21
-17.35
  0
LINE
  5
2CE
100
AcDbEntity
  8
RACCORDO
100
AcDbLine
 62
250
  6
CONTINUOUS
 10
17.65
 20
-18.7500076898
 11
17.5991544352
 21
-18.7499789931
  0
LINE
  5
2CF
100
AcDbEntity
  8
RACCORDO
100
AcDbLine
 62
250
  6
CONTINUOUS
 10
-8.8
 20
-18.7500053967
 11
-8.739599375
 21
-18.7500530177
  0
LINE
  5
2D0
100
AcDbEntity
  8
DRAFT
100
AcDbLine
 62
7
  6
CONTINUOUS
 10
21.7822580645
 20
-23.1357261039
 11
22.0
 21
-23.175
  0
LINE
  5
2D1
100
AcDbEntity
  8
DRAFT
100
AcDbLine
 62
7
  6
CONTINUOUS
 10
-21.95
 20
-14.325
 11
-21.7322580645
 21
-14.3642738961
  0
LINE
  5
2D2
100
AcDbEntity
  8
RACCORDO
100
AcDbLine
 62
7
  6
CONTINUOUS
 10
-14.875
 20
-19.75
 11
-14.8709033971
 21
-19.9846942213
  0
LINE
  5
2D3
100
AcDbEntity
  8
RACCORDO
100
AcDbLine
 62
7
  6
CONTINUOUS
 10
-14.875
 20
-7.25
 11
-14.8709033971
 21
-7.4846942213
  0
LINE
  5
2D4
100
AcDbEntity
  8
RACCORDO
100
AcDbLine
 62
7
  6
CONTINUOUS
 10
-14.875
 20
5.25
 11
-14.8709033971
 21
5.0153057787
  0
LINE
  5
2D5
100
AcDbEntity
  8
RACCORDO
100
AcDbLine
 62
7
  6
CONTINUOUS
 10
-14.375
 20
-17.75
 11
-14.3790966029
 21
-17.5153057787
  0
LINE
  5
2D6
100
AcDbEntity
  8
RACCORDO
100
AcDbLine
 62
7
  6
CONTINUOUS
 10
-14.875
 20
17.75
 11
-14.8709033971
 21
17.5153057787
  0
LINE
  5
2D7
100
AcDbEntity
  8
RACCORDO
100
AcDbLine
 62
7
  6
CONTINUOUS
 10
-14.375
 20
-5.25
 11
-14.3790966029
 21
-5.0153057787
  0
LINE
  5
2D8
100
AcDbEntity
  8
RACCORDO
100
AcDbLine
 62
7
  6
CONTINUOUS
 10
-14.375
 20
7.25
 11
-14.3790966029
 21
7.4846942213
  0
LINE
  5
2D9
100
AcDbEntity
  8
RACCORDO
100
AcDbLine
 62
7
  6
CONTINUOUS
 10
-14.375
 20
19.75
 11
-14.3790966029
 21
19.9846942213
  0
LINE
  5
2DA
100
AcDbEntity
  8
RACCORDO
100
AcDbLine
 62
250
  6
CONTINUOUS
 10
-15.9027650843
 20
-7.25
 11
-15.9114919521
 21
-6.25
  0
LINE
  5
2DB
100
AcDbEntity
  8
SMUSSO
100
AcDbLine
 62
7
  6
CONTINUOUS
 10
-14.0087459055
 20
-17.75
 11
-14.0000190377
 21
-18.75
  0
LINE
  5
2DC
100
AcDbEntity
  8
SMUSSO
100
AcDbLine
 62
7
  6
CONTINUOUS
 10
-14.0087459055
 20
-5.25
 11
-14.0000190377
 21
-6.25
  0
LINE
  5
2DD
100
AcDbEntity
  8
SMUSSO
100
AcDbLine
 62
7
  6
CONTINUOUS
 10
-14.0087459055
 20
7.25
 11
-14.0000190377
 21
6.25
  0
LINE
  5
2DE
100
AcDbEntity
  8
DRAFT
100
AcDbLine
 62
7
  6
CONTINUOUS
 10
-15.2162961205
 20
-19.7999999711
 11
-15.2147277456
 21
-19.9911268596
  0
LINE
  5
2DF
100
AcDbEntity
  8
DRAFT
100
AcDbLine
 62
7
  6
CONTINUOUS
 10
-15.2162961205
 20
-7.2999999711
 11
-15.2147277456
 21
-7.4911268596
  0
LINE
  5
2E0
100
AcDbEntity
  8
DRAFT
100
AcDbLine
 62
7
  6
CONTINUOUS
 10
-15.2162994748
 20
5.2
 11
-15.2147375548
 21
5.0088730562
  0
LINE
  5
2E1
100
AcDbEntity
  8
DRAFT
100
AcDbLine
 62
7
  6
CONTINUOUS
 10
-15.2162994748
 20
17.7
 11
-15.2147375548
 21
17.5088730562
  0
LINE
  5
2E2
100
AcDbEntity
  8
RACCORDO
100
AcDbLine
 62
250
  6
CONTINUOUS
 10
-15.3253732093
 20
-18.75
 11
-15.318474802
 21
-19.75
  0
LINE
  5
2E3
100
AcDbEntity
  8
RACCORDO
100
AcDbLine
 62
250
  6
CONTINUOUS
 10
-15.3253732093
 20
-6.25
 11
-15.318474802
 21
-7.25
  0
LINE
  5
2E4
100
AcDbEntity
  8
RACCORDO
100
AcDbLine
 62
250
  6
CONTINUOUS
 10
-15.3253732093
 20
6.25
 11
-15.318474802
 21
5.25
  0
LINE
  5
2E5
100
AcDbEntity
  8
RACCORDO
100
AcDbLine
 62
250
  6
CONTINUOUS
 10
-15.3253732093
 20
18.75
 11
-15.318474802
 21
17.75
  0
LINE
  5
2E6
100
AcDbEntity
  8
RACCORDO
100
AcDbLine
 62
250
  6
CONTINUOUS
 10
-14.7902530043
 20
-18.75
 11
-14.783354597
 21
-19.75
  0
LINE
  5
2E7
100
AcDbEntity
  8
RACCORDO
100
AcDbLine
 62
250
  6
CONTINUOUS
 10
-14.7902530043
 20
-6.25
 11
-14.783354597
 21
-7.25
  0
LINE
  5
2E8
100
AcDbEntity
  8
RACCORDO
100
AcDbLine
 62
250
  6
CONTINUOUS
 10
-14.7902530043
 20
6.25
 11
-14.783354597
 21
5.25
  0
LINE
  5
2E9
100
AcDbEntity
  8
RACCORDO
100
AcDbLine
 62
250
  6
CONTINUOUS
 10
-14.7902530043
 20
18.75
 11
-14.783354597
 21
17.75
  0
LINE
  5
2EA
100
AcDbEntity
  8
DRAFT
100
AcDbLine
 62
7
  6
CONTINUOUS
 10
-15.625
 20
-20.0
 11
-15.625
 21
-19.75
  0
LINE
  5
2EB
100
AcDbEntity
  8
DRAFT
100
AcDbLine
 62
7
  6
CONTINUOUS
 10
-15.625
 20
-17.75
 11
-15.625
 21
-17.5
  0
LINE
  5
2EC
100
AcDbEntity
  8
DRAFT
100
AcDbLine
 62
7
  6
CONTINUOUS
 10
-15.625
 20
-7.5
 11
-15.625
 21
-7.25
  0
LINE
  5
2ED
100
AcDbEntity
  8
DRAFT
100
AcDbLine
 62
7
  6
CONTINUOUS
 10
-15.625
 20
-5.25
 11
-15.625
 21
-5.0
  0
LINE
  5
2EE
100
AcDbEntity
  8
DRAFT
100
AcDbLine
 62
7
  6
CONTINUOUS
 10
-15.625
 20
5.0
 11
-15.625
 21
5.25
  0
LINE
  5
2EF
100
AcDbEntity
  8
DRAFT
100
AcDbLine
 62
7
  6
CONTINUOUS
 10
-15.625
 20
7.25
 11
-15.625
 21
7.5
  0
LINE
  5
2F0
100
AcDbEntity
  8
DRAFT
100
AcDbLine
 62
7
  6
CONTINUOUS
 10
-15.625
 20
17.5
 11
-15.625
 21
17.75
  0
LINE
  5
2F1
100
AcDbEntity
  8
DRAFT
100
AcDbLine
 62
7
  6
CONTINUOUS
 10
-15.625
 20
19.75
 11
-15.625
 21
20.0
  0
LINE
  5
2F2
100
AcDbEntity
  8
RACCORDO
100
AcDbLine
 62
7
  6
CONTINUOUS
 10
-15.6072831091
 20
-19.9911422292
 11
-15.6072831091
 21
-19.9814419661
  0
LINE
  5
2F3
100
AcDbEntity
  8
RACCORDO
100
AcDbLine
 62
7
  6
CONTINUOUS
 10
-15.6072831091
 20
-17.5185580339
 11
-15.6072831091
 21
-17.5088577708
  0
LINE
  5
2F4
100
AcDbEntity
  8
RACCORDO
100
AcDbLine
 62
7
  6
CONTINUOUS
 10
-15.6072831091
 20
-7.4911422292
 11
-15.6072831091
 21
-7.4814419661
  0
LINE
  5
2F5
100
AcDbEntity
  8
RACCORDO
100
AcDbLine
 62
7
  6
CONTINUOUS
 10
-15.6072831091
 20
-5.0185580339
 11
-15.6072831091
 21
-5.0088577708
  0
LINE
  5
2F6
100
AcDbEntity
  8
RACCORDO
100
AcDbLine
 62
7
  6
CONTINUOUS
 10
-15.6072831091
 20
5.0088577708
 11
-15.6072831091
 21
5.0185580339
  0
LINE
  5
2F7
100
AcDbEntity
  8
RACCORDO
100
AcDbLine
 62
7
  6
CONTINUOUS
 10
-15.6072831091
 20
7.4814419661
 11
-15.6072831091
 21
7.4911422292
  0
LINE
  5
2F8
100
AcDbEntity
  8
RACCORDO
100
AcDbLine
 62
7
  6
CONTINUOUS
 10
-15.6072831091
 20
17.5088577708
 11
-15.6072831091
 21
17.5185580339
  0
LINE
  5
2F9
100
AcDbEntity
  8
RACCORDO
100
AcDbLine
 62
7
  6
CONTINUOUS
 10
-15.6072831091
 20
19.9814419661
 11
-15.6072831091
 21
19.9911422292
  0
LINE
  5
2FA
100
AcDbEntity
  8
DRAFT
100
AcDbLine
 62
7
  6
CONTINUOUS
 10
-15.5732457325
 20
19.8
 11
-15.5732457325
 21
19.75
  0
LINE
  5
2FB
100
AcDbEntity
  8
DRAFT
100
AcDbLine
 62
7
  6
CONTINUOUS
 10
-15.5732457325
 20
17.75
 11
-15.5732457325
 21
17.7
  0
LINE
  5
2FC
100
AcDbEntity
  8
DRAFT
100
AcDbLine
 62
7
  6
CONTINUOUS
 10
-15.5732457325
 20
7.3
 11
-15.5732457325
 21
7.25
  0
LINE
  5
2FD
100
AcDbEntity
  8
DRAFT
100
AcDbLine
 62
7
  6
CONTINUOUS
 10
-15.5732457325
 20
5.25
 11
-15.5732457325
 21
5.2
  0
LINE
  5
2FE
100
AcDbEntity
  8
DRAFT
100
AcDbLine
 62
7
  6
CONTINUOUS
 10
-15.5732457325
 20
-5.2
 11
-15.5732457325
 21
-5.25
  0
LINE
  5
2FF
100
AcDbEntity
  8
DRAFT
100
AcDbLine
 62
7
  6
CONTINUOUS
 10
-15.5732457325
 20
-7.25
 11
-15.5732457325
 21
-7.3
  0
LINE
  5
300
100
AcDbEntity
  8
DRAFT
100
AcDbLine
 62
7
  6
CONTINUOUS
 10
-15.5732457325
 20
-17.7
 11
-15.5732457325
 21
-17.75
  0
LINE
  5
301
100
AcDbEntity
  8
DRAFT
100
AcDbLine
 62
7
  6
CONTINUOUS
 10
-15.5732457325
 20
-19.75
 11
-15.5732457325
 21
-19.8
  0
LINE
  5
302
100
AcDbEntity
  8
DRAFT
100
AcDbLine
 62
7
  6
CONTINUOUS
 10
-15.125
 20
19.8
 11
-15.125
 21
19.75
  0
LINE
  5
303
100
AcDbEntity
  8
DRAFT
100
AcDbLine
 62
7
  6
CONTINUOUS
 10
-15.125
 20
17.75
 11
-15.125
 21
17.7
  0
LINE
  5
304
100
AcDbEntity
  8
DRAFT
100
AcDbLine
 62
7
  6
CONTINUOUS
 10
-15.125
 20
7.3
 11
-15.125
 21
7.25
  0
LINE
  5
305
100
AcDbEntity
  8
DRAFT
100
AcDbLine
 62
7
  6
CONTINUOUS
 10
-15.125
 20
5.25
 11
-15.125
 21
5.2
  0
LINE
  5
306
100
AcDbEntity
  8
DRAFT
100
AcDbLine
 62
7
  6
CONTINUOUS
 10
-15.125
 20
-5.2
 11
-15.125
 21
-5.25
  0
LINE
  5
307
100
AcDbEntity
  8
DRAFT
100
AcDbLine
 62
7
  6
CONTINUOUS
 10
-15.125
 20
-7.25
 11
-15.125
 21
-7.3
  0
LINE
  5
308
100
AcDbEntity
  8
DRAFT
100
AcDbLine
 62
7
  6
CONTINUOUS
 10
-15.125
 20
-17.7
 11
-15.125
 21
-17.75
  0
LINE
  5
309
100
AcDbEntity
  8
DRAFT
100
AcDbLine
 62
7
  6
CONTINUOUS
 10
-15.125
 20
-19.75
 11
-15.125
 21
-19.8
  0
LINE
  5
30A
100
AcDbEntity
  8
RACCORDO
100
AcDbLine
 62
250
  6
CONTINUOUS
 10
-15.318474802
 20
19.75
 11
-15.3253732093
 21
18.75
  0
LINE
  5
30B
100
AcDbEntity
  8
RACCORDO
100
AcDbLine
 62
250
  6
CONTINUOUS
 10
-15.318474802
 20
7.25
 11
-15.3253732093
 21
6.25
  0
LINE
  5
30C
100
AcDbEntity
  8
RACCORDO
100
AcDbLine
 62
250
  6
CONTINUOUS
 10
-15.318474802
 20
-5.25
 11
-15.3253732093
 21
-6.25
  0
LINE
  5
30D
100
AcDbEntity
  8
RACCORDO
100
AcDbLine
 62
250
  6
CONTINUOUS
 10
-15.318474802
 20
-17.75
 11
-15.3253732093
 21
-18.75
  0
LINE
  5
30E
100
AcDbEntity
  8
RACCORDO
100
AcDbLine
 62
250
  6
CONTINUOUS
 10
-14.783354597
 20
19.75
 11
-14.7902530043
 21
18.75
  0
LINE
  5
30F
100
AcDbEntity
  8
RACCORDO
100
AcDbLine
 62
250
  6
CONTINUOUS
 10
-14.783354597
 20
7.25
 11
-14.7902530043
 21
6.25
  0
LINE
  5
310
100
AcDbEntity
  8
RACCORDO
100
AcDbLine
 62
250
  6
CONTINUOUS
 10
-14.783354597
 20
-5.25
 11
-14.7902530043
 21
-6.25
  0
LINE
  5
311
100
AcDbEntity
  8
RACCORDO
100
AcDbLine
 62
250
  6
CONTINUOUS
 10
-14.783354597
 20
-17.75
 11
-14.7902530043
 21
-18.75
  0
LINE
  5
312
100
AcDbEntity
  8
DRAFT
100
AcDbLine
 62
7
  6
CONTINUOUS
 10
-15.2147277456
 20
19.9911268596
 11
-15.2162961205
 21
19.7999999711
  0
LINE
  5
313
100
AcDbEntity
  8
DRAFT
100
AcDbLine
 62
7
  6
CONTINUOUS
 10
-15.2147277456
 20
7.4911268596
 11
-15.2162961205
 21
7.2999999711
  0
LINE
  5
314
100
AcDbEntity
  8
DRAFT
100
AcDbLine
 62
7
  6
CONTINUOUS
 10
-15.2147375548
 20
-5.0088730562
 11
-15.2162994748
 21
-5.2
  0
LINE
  5
315
100
AcDbEntity
  8
DRAFT
100
AcDbLine
 62
7
  6
CONTINUOUS
 10
-15.2147375548
 20
-17.5088730562
 11
-15.2162994748
 21
-17.7
  0
LINE
  5
316
100
AcDbEntity
  8
SMUSSO
100
AcDbLine
 62
7
  6
CONTINUOUS
 10
-14.0000190377
 20
18.75
 11
-14.0087459055
 21
17.75
  0
LINE
  5
317
100
AcDbEntity
  8
SMUSSO
100
AcDbLine
 62
7
  6
CONTINUOUS
 10
-14.0000190377
 20
6.25
 11
-14.0087459055
 21
5.25
  0
LINE
  5
318
100
AcDbEntity
  8
SMUSSO
100
AcDbLine
 62
7
  6
CONTINUOUS
 10
-14.0000190377
 20
-6.25
 11
-14.0087459055
 21
-7.25
  0
LINE
  5
319
100
AcDbEntity
  8
RACCORDO
100
AcDbLine
 62
7
  6
CONTINUOUS
 10
-14.8709033971
 20
19.9846942213
 11
-14.875
 21
19.75
  0
LINE
  5
31A
100
AcDbEntity
  8
RACCORDO
100
AcDbLine
 62
7
  6
CONTINUOUS
 10
-14.8709033971
 20
7.4846942213
 11
-14.875
 21
7.25
  0
LINE
  5
31B
100
AcDbEntity
  8
RACCORDO
100
AcDbLine
 62
7
  6
CONTINUOUS
 10
-14.8709033971
 20
-5.0153057787
 11
-14.875
 21
-5.25
  0
LINE
  5
31C
100
AcDbEntity
  8
RACCORDO
100
AcDbLine
 62
7
  6
CONTINUOUS
 10
-14.3790966029
 20
17.5153057787
 11
-14.375
 21
17.75
  0
LINE
  5
31D
100
AcDbEntity
  8
RACCORDO
100
AcDbLine
 62
7
  6
CONTINUOUS
 10
-14.8709033971
 20
-17.5153057787
 11
-14.875
 21
-17.75
  0
LINE
  5
31E
100
AcDbEntity
  8
RACCORDO
100
AcDbLine
 62
7
  6
CONTINUOUS
 10
-14.3790966029
 20
5.0153057787
 11
-14.375
 21
5.25
  0
LINE
  5
31F
100
AcDbEntity
  8
RACCORDO
100
AcDbLine
 62
7
  6
CONTINUOUS
 10
-14.3790966029
 20
-7.4846942213
 11
-14.375
 21
-7.25
  0
LINE
  5
320
100
AcDbEntity
  8
RACCORDO
100
AcDbLine
 62
7
  6
CONTINUOUS
 10
-14.3790966029
 20
-19.9846942213
 11
-14.375
 21
-19.75
  0
LINE
  5
321
100
AcDbEntity
  8
DRAFT
100
AcDbLine
 62
7
  6
CONTINUOUS
 10
-20.575
 20
1.825
 11
-20.5356063579
 21
1.8643936421
  0
LINE
  5
322
100
AcDbEntity
  8
DRAFT
100
AcDbLine
 62
7
  6
CONTINUOUS
 10
-13.6403057787
 20
7.4846942213
 11
-13.625
 21
7.5
  0
LINE
  5
323
100
AcDbEntity
  8
RACCORDO
100
AcDbLine
 62
7
  6
CONTINUOUS
 10
-15.5732457325
 20
5.2
 11
-15.6047105443
 21
5.1685351882
  0
LINE
  5
324
100
AcDbEntity
  8
DRAFT
100
AcDbLine
 62
7
  6
CONTINUOUS
 10
-9.4090238335
 20
10.6159761665
 11
-9.3899690545
 21
10.6350309455
  0
LINE
  5
325
100
AcDbEntity
  8
DRAFT
100
AcDbLine
 62
7
  6
CONTINUOUS
 10
21.7
 20
-14.8665823117
 11
21.4361111111
 21
-14.8831646234
  0
LINE
  5
326
100
AcDbEntity
  8
DRAFT
100
AcDbLine
 62
7
  6
CONTINUOUS
 10
17.725
 20
-13.7844737532
 11
18.575
 21
-13.75
  0
LINE
  5
327
100
AcDbEntity
  8
DRAFT
100
AcDbLine
 62
7
  6
CONTINUOUS
 10
17.725
 20
-14.3422355639
 11
18.575
 21
-14.325
  0
LINE
  5
328
100
AcDbEntity
  8
DRAFT
100
AcDbLine
 62
7
  6
CONTINUOUS
 10
-22.0159334106
 20
-14.75
 11
-22.05
 21
-14.7502128042
  0
LINE
  5
329
100
AcDbEntity
  8
DRAFT
100
AcDbLine
 62
7
  6
CONTINUOUS
 10
22.05
 20
-14.85
 11
21.7
 21
-14.85
  0
LINE
  5
32A
100
AcDbEntity
  8
RACCORDO
100
AcDbLine
 62
7
  6
CONTINUOUS
 10
-3.075
 20
-14.55
 11
-1.575
 21
-14.55
  0
LINE
  5
32B
100
AcDbEntity
  8
RACCORDO
100
AcDbLine
 62
7
  6
CONTINUOUS
 10
10.425
 20
-14.55
 11
11.925
 21
-14.55
  0
LINE
  5
32C
100
AcDbEntity
  8
0
100
AcDbLine
 62
7
  6
CONTINUOUS
 10
-8.575
 20
-14.5
 11
-3.1867710127
 21
-14.5
  0
LINE
  5
32D
100
AcDbEntity
  8
0
100
AcDbLine
 62
7
  6
CONTINUOUS
 10
-1.4632289873
 20
-14.5
 11
10.3132289873
 21
-14.5
  0
LINE
  5
32E
100
AcDbEntity
  8
0
100
AcDbLine
 62
7
  6
CONTINUOUS
 10
12.0367710127
 20
-14.5
 11
17.425
 21
-14.5
  0
LINE
  5
32F
100
AcDbEntity
  8
DRAFT
100
AcDbLine
 62
7
  6
CONTINUOUS
 10
-8.8
 20
-14.3649690545
 11
-9.3899690545
 21
-14.3649690545
  0
LINE
  5
330
100
AcDbEntity
  8
DRAFT
100
AcDbLine
 62
7
  6
CONTINUOUS
 10
21.7822580645
 20
-14.3642738961
 11
21.2
 21
-14.3642738961
  0
LINE
  5
331
100
AcDbEntity
  8
DRAFT
100
AcDbLine
 62
7
  6
CONTINUOUS
 10
-21.15
 20
-14.3642738961
 11
-21.7322580645
 21
-14.3642738961
  0
LINE
  5
332
100
AcDbEntity
  8
RACCORDO
100
AcDbLine
 62
250
  6
CONTINUOUS
 10
-1.425
 20
-14.35
 11
-3.225
 21
-14.35
  0
LINE
  5
333
100
AcDbEntity
  8
RACCORDO
100
AcDbLine
 62
250
  6
CONTINUOUS
 10
10.275
 20
-14.35
 11
12.075
 21
-14.35
  0
LINE
  5
334
100
AcDbEntity
  8
DRAFT
100
AcDbLine
 62
7
  6
CONTINUOUS
 10
18.2202026989
 20
-14.3452026989
 11
17.65
 21
-14.3452026989
  0
LINE
  5
335
100
AcDbEntity
  8
RACCORDO
100
AcDbLine
 62
7
  6
CONTINUOUS
 10
-9.925
 20
-14.3422355639
 11
-3.075
 21
-14.3422355639
  0
LINE
  5
336
100
AcDbEntity
  8
RACCORDO
100
AcDbLine
 62
7
  6
CONTINUOUS
 10
-1.575
 20
-14.3422355639
 11
10.425
 21
-14.3422355639
  0
LINE
  5
337
100
AcDbEntity
  8
RACCORDO
100
AcDbLine
 62
7
  6
CONTINUOUS
 10
11.925
 20
-14.3422355639
 11
17.725
 21
-14.3422355639
  0
LINE
  5
338
100
AcDbEntity
  8
DRAFT
100
AcDbLine
 62
7
  6
CONTINUOUS
 10
-18.225
 20
-14.3367812715
 11
-9.925
 21
-14.3367812715
  0
LINE
  5
339
100
AcDbEntity
  8
DRAFT
100
AcDbLine
 62
7
  6
CONTINUOUS
 10
22.0
 20
-14.325
 11
21.1607261039
 21
-14.325
  0
LINE
  5
33A
100
AcDbEntity
  8
DRAFT
100
AcDbLine
 62
7
  6
CONTINUOUS
 10
-20.575
 20
-14.325
 11
-20.475
 21
-14.325
  0
LINE
  5
33B
100
AcDbEntity
  8
DRAFT
100
AcDbLine
 62
7
  6
CONTINUOUS
 10
18.575
 20
-14.325
 11
20.625
 21
-14.325
  0
LINE
  5
33C
100
AcDbEntity
  8
DRAFT
100
AcDbLine
 62
7
  6
CONTINUOUS
 10
-21.1107261039
 20
-14.325
 11
-21.95
 21
-14.325
  0
LINE
  5
33D
100
AcDbEntity
  8
DRAFT
100
AcDbLine
 62
7
  6
CONTINUOUS
 10
-20.475
 20
-14.325
 11
-18.225
 21
-14.3367812715
  0
LINE
  5
33E
100
AcDbEntity
  8
DRAFT
100
AcDbLine
 62
7
  6
CONTINUOUS
 10
-20.475
 20
-13.75
 11
-18.225
 21
-13.7735643377
  0
LINE
  5
33F
100
AcDbEntity
  8
DRAFT
100
AcDbLine
 62
7
  6
CONTINUOUS
 10
-21.2107171139
 20
-14.7892738961
 11
-22.0159334106
 21
-14.75
  0
LINE
  5
340
100
AcDbEntity
  8
DRAFT
100
AcDbLine
 62
7
  6
CONTINUOUS
 10
-20.575
 20
-1.825
 11
-20.5356063579
 21
-1.8643936421
  0
LINE
  5
341
100
AcDbEntity
  8
DRAFT
100
AcDbLine
 62
7
  6
CONTINUOUS
 10
-13.6403057787
 20
-7.4846942213
 11
-13.625
 21
-7.5
  0
LINE
  5
342
100
AcDbEntity
  8
RACCORDO
100
AcDbLine
 62
7
  6
CONTINUOUS
 10
-15.5732457325
 20
-5.2
 11
-15.6047105443
 21
-5.1685351882
  0
LINE
  5
343
100
AcDbEntity
  8
SMUSSO
100
AcDbLine
 62
7
  6
CONTINUOUS
 10
-14.0087459055
 20
19.75
 11
-14.0000190377
 21
18.75
  0
LINE
  5
344
100
AcDbEntity
  8
SMUSSO
100
AcDbLine
 62
7
  6
CONTINUOUS
 10
-13.5087268678
 20
-17.75
 11
-13.5
 21
-18.75
  0
LINE
  5
345
100
AcDbEntity
  8
SMUSSO
100
AcDbLine
 62
7
  6
CONTINUOUS
 10
-13.5087268678
 20
-5.25
 11
-13.5
 21
-6.25
  0
LINE
  5
346
100
AcDbEntity
  8
SMUSSO
100
AcDbLine
 62
7
  6
CONTINUOUS
 10
-13.5087268678
 20
7.25
 11
-13.5
 21
6.25
  0
LINE
  5
347
100
AcDbEntity
  8
SMUSSO
100
AcDbLine
 62
7
  6
CONTINUOUS
 10
-13.5087268678
 20
19.75
 11
-13.5
 21
18.75
  0
LINE
  5
348
100
AcDbEntity
  8
DRAFT
100
AcDbLine
 62
7
  6
CONTINUOUS
 10
-13.6403057787
 20
19.9846942213
 11
-13.6403057787
 21
19.75
  0
LINE
  5
349
100
AcDbEntity
  8
DRAFT
100
AcDbLine
 62
7
  6
CONTINUOUS
 10
-13.6403057787
 20
17.75
 11
-13.6403057787
 21
17.5153057787
  0
LINE
  5
34A
100
AcDbEntity
  8
DRAFT
100
AcDbLine
 62
7
  6
CONTINUOUS
 10
-13.6403057787
 20
7.4846942213
 11
-13.6403057787
 21
7.25
  0
LINE
  5
34B
100
AcDbEntity
  8
DRAFT
100
AcDbLine
 62
7
  6
CONTINUOUS
 10
-13.6403057787
 20
5.25
 11
-13.6403057787
 21
5.0153057787
  0
LINE
  5
34C
100
AcDbEntity
  8
DRAFT
100
AcDbLine
 62
7
  6
CONTINUOUS
 10
-13.6403057787
 20
-5.0153057787
 11
-13.6403057787
 21
-5.25
  0
LINE
  5
34D
100
AcDbEntity
  8
DRAFT
100
AcDbLine
 62
7
  6
CONTINUOUS
 10
-13.6403057787
 20
-7.25
 11
-13.6403057787
 21
-7.4846942213
  0
LINE
  5
34E
100
AcDbEntity
  8
DRAFT
100
AcDbLine
 62
7
  6
CONTINUOUS
 10
-13.6403057787
 20
-17.5153057787
 11
-13.6403057787
 21
-17.75
  0
LINE
  5
34F
100
AcDbEntity
  8
DRAFT
100
AcDbLine
 62
7
  6
CONTINUOUS
 10
-13.6403057787
 20
-19.75
 11
-13.6403057787
 21
-19.9846942213
  0
LINE
  5
350
100
AcDbEntity
  8
DRAFT
100
AcDbLine
 62
7
  6
CONTINUOUS
 10
-13.625
 20
20.0
 11
-13.625
 21
19.75
  0
LINE
  5
351
100
AcDbEntity
  8
DRAFT
100
AcDbLine
 62
7
  6
CONTINUOUS
 10
-13.625
 20
17.75
 11
-13.625
 21
17.5
  0
LINE
  5
352
100
AcDbEntity
  8
DRAFT
100
AcDbLine
 62
7
  6
CONTINUOUS
 10
-13.625
 20
7.5
 11
-13.625
 21
7.25
  0
LINE
  5
353
100
AcDbEntity
  8
DRAFT
100
AcDbLine
 62
7
  6
CONTINUOUS
 10
-13.625
 20
5.25
 11
-13.625
 21
5.0
  0
LINE
  5
354
100
AcDbEntity
  8
DRAFT
100
AcDbLine
 62
7
  6
CONTINUOUS
 10
-13.625
 20
-5.0
 11
-13.625
 21
-5.25
  0
LINE
  5
355
100
AcDbEntity
  8
DRAFT
100
AcDbLine
 62
7
  6
CONTINUOUS
 10
-13.625
 20
-7.25
 11
-13.625
 21
-7.5
  0
LINE
  5
356
100
AcDbEntity
  8
DRAFT
100
AcDbLine
 62
7
  6
CONTINUOUS
 10
-13.625
 20
-17.5
 11
-13.625
 21
-17.75
  0
LINE
  5
357
100
AcDbEntity
  8
DRAFT
100
AcDbLine
 62
7
  6
CONTINUOUS
 10
-13.625
 20
-19.75
 11
-13.625
 21
-20.0
  0
LINE
  5
358
100
AcDbEntity
  8
SMUSSO
100
AcDbLine
 62
7
  6
CONTINUOUS
 10
-14.0000190377
 20
-18.75
 11
-14.0087459055
 21
-19.75
  0
LINE
  5
359
100
AcDbEntity
  8
SMUSSO
100
AcDbLine
 62
7
  6
CONTINUOUS
 10
-13.5
 20
18.75
 11
-13.5087268678
 21
17.75
  0
LINE
  5
35A
100
AcDbEntity
  8
SMUSSO
100
AcDbLine
 62
7
  6
CONTINUOUS
 10
-13.5
 20
6.25
 11
-13.5087268678
 21
5.25
  0
LINE
  5
35B
100
AcDbEntity
  8
SMUSSO
100
AcDbLine
 62
7
  6
CONTINUOUS
 10
-13.5
 20
-6.25
 11
-13.5087268678
 21
-7.25
  0
LINE
  5
35C
100
AcDbEntity
  8
SMUSSO
100
AcDbLine
 62
7
  6
CONTINUOUS
 10
-13.5
 20
-18.75
 11
-13.5087268678
 21
-19.75
  0
LINE
  5
35D
100
AcDbEntity
  8
DRAFT
100
AcDbLine
 62
7
  6
CONTINUOUS
 10
-21.15
 20
-1.8642738961
 11
-21.1107261039
 21
-1.825
  0
LINE
  5
35E
100
AcDbEntity
  8
DRAFT
100
AcDbLine
 62
7
  6
CONTINUOUS
 10
-15.6072831091
 20
5.0088577708
 11
-15.625
 21
5.0
  0
LINE
  5
35F
100
AcDbEntity
  8
DRAFT
100
AcDbLine
 62
7
  6
CONTINUOUS
 10
-15.2037109802
 20
5.0153057787
 11
-15.2166079783
 21
5.0088577708
  0
LINE
  5
360
100
AcDbEntity
  8
DRAFT
100
AcDbLine
 62
7
  6
CONTINUOUS
 10
-20.475
 20
-11.25
 11
-18.225
 21
-11.2264356623
  0
LINE
  5
361
100
AcDbEntity
  8
DRAFT
100
AcDbLine
 62
7
  6
CONTINUOUS
 10
-9.925
 20
-13.7844737532
 11
17.725
 21
-13.7844737532
  0
LINE
  5
362
100
AcDbEntity
  8
DRAFT
100
AcDbLine
 62
7
  6
CONTINUOUS
 10
-18.225
 20
-13.7735643377
 11
-9.925
 21
-13.7735643377
  0
LINE
  5
363
100
AcDbEntity
  8
RACCORDO
100
AcDbLine
 62
7
  6
CONTINUOUS
 10
-21.6992543082
 20
-13.75
 11
-20.475
 21
-13.75
  0
LINE
  5
364
100
AcDbEntity
  8
RACCORDO
100
AcDbLine
 62
7
  6
CONTINUOUS
 10
18.575
 20
-13.75
 11
21.7492543082
 21
-13.75
  0
LINE
  5
365
100
AcDbEntity
  8
RACCORDO
100
AcDbLine
 62
7
  6
CONTINUOUS
 10
21.7492543082
 20
-11.25
 11
18.575
 21
-11.25
  0
LINE
  5
366
100
AcDbEntity
  8
RACCORDO
100
AcDbLine
 62
7
  6
CONTINUOUS
 10
-20.475
 20
-11.25
 11
-21.6992543082
 21
-11.25
  0
LINE
  5
367
100
AcDbEntity
  8
DRAFT
100
AcDbLine
 62
7
  6
CONTINUOUS
 10
-18.225
 20
-11.2264356623
 11
-9.925
 21
-11.2264356623
  0
LINE
  5
368
100
AcDbEntity
  8
DRAFT
100
AcDbLine
 62
7
  6
CONTINUOUS
 10
17.725
 20
-11.2155262468
 11
-9.925
 21
-11.2155262468
  0
LINE
  5
369
100
AcDbEntity
  8
DRAFT
100
AcDbLine
 62
7
  6
CONTINUOUS
 10
-15.6072831091
 20
-5.0088577708
 11
-15.625
 21
-5.0
  0
LINE
  5
36A
100
AcDbEntity
  8
DRAFT
100
AcDbLine
 62
7
  6
CONTINUOUS
 10
-15.2037109802
 20
-5.0153057787
 11
-15.2166079783
 21
-5.0088577708
  0
LINE
  5
36B
100
AcDbEntity
  8
DRAFT
100
AcDbLine
 62
7
  6
CONTINUOUS
 10
-21.1107261039
 20
1.825
 11
-21.15
 21
1.8642738961
  0
LINE
  5
36C
100
AcDbEntity
  8
DRAFT
100
AcDbLine
 62
7
  6
CONTINUOUS
 10
-9.925
 20
23.7264356623
 11
-9.925
 21
23.1577644361
  0
LINE
  5
36D
100
AcDbEntity
  8
DRAFT
100
AcDbLine
 62
7
  6
CONTINUOUS
 10
-9.925
 20
11.2264356623
 11
-9.925
 21
10.6577644361
  0
LINE
  5
36E
100
AcDbEntity
  8
DRAFT
100
AcDbLine
 62
7
  6
CONTINUOUS
 10
-9.925
 20
-1.2735643377
 11
-9.925
 21
-1.8422355639
  0
LINE
  5
36F
100
AcDbEntity
  8
DRAFT
100
AcDbLine
 62
7
  6
CONTINUOUS
 10
-9.925
 20
-13.7735643377
 11
-9.925
 21
-14.3422355639
  0
LINE
  5
370
100
AcDbEntity
  8
DRAFT
100
AcDbLine
 62
7
  6
CONTINUOUS
 10
-9.925
 20
-23.1577644361
 11
-9.925
 21
-23.7264356623
  0
LINE
  5
371
100
AcDbEntity
  8
DRAFT
100
AcDbLine
 62
7
  6
CONTINUOUS
 10
-9.925
 20
-11.2264356623
 11
-9.925
 21
-10.6577644361
  0
LINE
  5
372
100
AcDbEntity
  8
DRAFT
100
AcDbLine
 62
7
  6
CONTINUOUS
 10
-9.925
 20
1.2735643377
 11
-9.925
 21
1.8422355639
  0
LINE
  5
373
100
AcDbEntity
  8
DRAFT
100
AcDbLine
 62
7
  6
CONTINUOUS
 10
-9.925
 20
13.7735643377
 11
-9.925
 21
14.3422355639
  0
LINE
  5
374
100
AcDbEntity
  8
DRAFT
100
AcDbLine
 62
7
  6
CONTINUOUS
 10
-9.4090238335
 20
23.1159761665
 11
-9.4090238335
 21
15.325
  0
LINE
  5
375
100
AcDbEntity
  8
DRAFT
100
AcDbLine
 62
7
  6
CONTINUOUS
 10
-9.4090238335
 20
10.6159761665
 11
-9.4090238335
 21
2.825
  0
LINE
  5
376
100
AcDbEntity
  8
DRAFT
100
AcDbLine
 62
7
  6
CONTINUOUS
 10
-9.4090238335
 20
-1.8840238335
 11
-9.4090238335
 21
-9.675
  0
LINE
  5
377
100
AcDbEntity
  8
DRAFT
100
AcDbLine
 62
7
  6
CONTINUOUS
 10
-9.4090238335
 20
-14.3840238335
 11
-9.4090238335
 21
-22.175
  0
LINE
  5
378
100
AcDbEntity
  8
DRAFT
100
AcDbLine
 62
7
  6
CONTINUOUS
 10
-9.4074227901
 20
-23.1175772099
 11
-9.4074227901
 21
-22.175
  0
LINE
  5
379
100
AcDbEntity
  8
DRAFT
100
AcDbLine
 62
7
  6
CONTINUOUS
 10
-9.4074227901
 20
-10.6175772099
 11
-9.4074227901
 21
-9.675
  0
LINE
  5
37A
100
AcDbEntity
  8
DRAFT
100
AcDbLine
 62
7
  6
CONTINUOUS
 10
-9.4074227901
 20
1.8824227901
 11
-9.4074227901
 21
2.825
  0
LINE
  5
37B
100
AcDbEntity
  8
DRAFT
100
AcDbLine
 62
7
  6
CONTINUOUS
 10
-9.4074227901
 20
14.3824227901
 11
-9.4074227901
 21
15.325
  0
LINE
  5
37C
100
AcDbEntity
  8
DRAFT
100
AcDbLine
 62
7
  6
CONTINUOUS
 10
-9.3899690545
 20
23.1350309455
 11
-9.3899690545
 21
15.325
  0
LINE
  5
37D
100
AcDbEntity
  8
DRAFT
100
AcDbLine
 62
7
  6
CONTINUOUS
 10
-9.3899690545
 20
10.6350309455
 11
-9.3899690545
 21
2.825
  0
LINE
  5
37E
100
AcDbEntity
  8
DRAFT
100
AcDbLine
 62
7
  6
CONTINUOUS
 10
-9.3899690545
 20
-1.8649690545
 11
-9.3899690545
 21
-9.675
  0
LINE
  5
37F
100
AcDbEntity
  8
DRAFT
100
AcDbLine
 62
7
  6
CONTINUOUS
 10
-9.3899690545
 20
-14.3649690545
 11
-9.3899690545
 21
-22.175
  0
LINE
  5
380
100
AcDbEntity
  8
DRAFT
100
AcDbLine
 62
7
  6
CONTINUOUS
 10
-8.8
 20
-23.1175772099
 11
-8.8
 21
-14.3649690545
  0
LINE
  5
381
100
AcDbEntity
  8
DRAFT
100
AcDbLine
 62
7
  6
CONTINUOUS
 10
-8.8
 20
-10.6175772099
 11
-8.8
 21
-1.8649690545
  0
LINE
  5
382
100
AcDbEntity
  8
DRAFT
100
AcDbLine
 62
7
  6
CONTINUOUS
 10
-8.8
 20
1.8824227901
 11
-8.8
 21
10.6350309455
  0
LINE
  5
383
100
AcDbEntity
  8
DRAFT
100
AcDbLine
 62
7
  6
CONTINUOUS
 10
-8.8
 20
14.3824227901
 11
-8.8
 21
23.1350309455
  0
LINE
  5
384
100
AcDbEntity
  8
0
100
AcDbLine
 62
7
  6
CONTINUOUS
 10
-8.575
 20
-23.0
 11
-8.575
 21
-14.5
  0
LINE
  5
385
100
AcDbEntity
  8
0
100
AcDbLine
 62
7
  6
CONTINUOUS
 10
-8.575
 20
-10.5
 11
-8.575
 21
-2.0
  0
LINE
  5
386
100
AcDbEntity
  8
0
100
AcDbLine
 62
7
  6
CONTINUOUS
 10
-8.575
 20
2.0
 11
-8.575
 21
10.5
  0
LINE
  5
387
100
AcDbEntity
  8
0
100
AcDbLine
 62
7
  6
CONTINUOUS
 10
-8.575
 20
14.5
 11
-8.575
 21
23.0
  0
LINE
  5
388
100
AcDbEntity
  8
DRAFT
100
AcDbLine
 62
7
  6
CONTINUOUS
 10
-21.2107171139
 20
-10.2107261039
 11
-22.0159334106
 21
-10.25
  0
LINE
  5
389
100
AcDbEntity
  8
DRAFT
100
AcDbLine
 62
7
  6
CONTINUOUS
 10
-20.475
 20
-10.675
 11
-18.225
 21
-10.6632187285
  0
LINE
  5
38A
100
AcDbEntity
  8
DRAFT
100
AcDbLine
 62
7
  6
CONTINUOUS
 10
22.0
 20
-10.675
 11
21.1607261039
 21
-10.675
  0
LINE
  5
38B
100
AcDbEntity
  8
DRAFT
100
AcDbLine
 62
7
  6
CONTINUOUS
 10
20.625
 20
-10.675
 11
18.575
 21
-10.675
  0
LINE
  5
38C
100
AcDbEntity
  8
DRAFT
100
AcDbLine
 62
7
  6
CONTINUOUS
 10
-20.475
 20
-10.675
 11
-20.575
 21
-10.675
  0
LINE
  5
38D
100
AcDbEntity
  8
DRAFT
100
AcDbLine
 62
7
  6
CONTINUOUS
 10
-21.1107261039
 20
-10.675
 11
-21.95
 21
-10.675
  0
LINE
  5
38E
100
AcDbEntity
  8
DRAFT
100
AcDbLine
 62
7
  6
CONTINUOUS
 10
-18.225
 20
-10.6632187285
 11
-9.925
 21
-10.6632187285
  0
LINE
  5
38F
100
AcDbEntity
  8
RACCORDO
100
AcDbLine
 62
7
  6
CONTINUOUS
 10
17.725
 20
-10.6577644361
 11
11.925
 21
-10.6577644361
  0
LINE
  5
390
100
AcDbEntity
  8
RACCORDO
100
AcDbLine
 62
7
  6
CONTINUOUS
 10
10.425
 20
-10.6577644361
 11
-1.575
 21
-10.6577644361
  0
LINE
  5
391
100
AcDbEntity
  8
RACCORDO
100
AcDbLine
 62
7
  6
CONTINUOUS
 10
-3.075
 20
-10.6577644361
 11
-9.925
 21
-10.6577644361
  0
LINE
  5
392
100
AcDbEntity
  8
RACCORDO
100
AcDbLine
 62
250
  6
CONTINUOUS
 10
-1.425
 20
-10.65
 11
-3.225
 21
-10.65
  0
LINE
  5
393
100
AcDbEntity
  8
RACCORDO
100
AcDbLine
 62
250
  6
CONTINUOUS
 10
10.275
 20
-10.65
 11
12.075
 21
-10.65
  0
LINE
  5
394
100
AcDbEntity
  8
DRAFT
100
AcDbLine
 62
7
  6
CONTINUOUS
 10
17.65
 20
-10.6373435655
 11
18.2376564345
 21
-10.6373435655
  0
LINE
  5
395
100
AcDbEntity
  8
DRAFT
100
AcDbLine
 62
7
  6
CONTINUOUS
 10
21.7822580645
 20
-10.6357261039
 11
21.2
 21
-10.6357261039
  0
LINE
  5
396
100
AcDbEntity
  8
DRAFT
100
AcDbLine
 62
7
  6
CONTINUOUS
 10
-21.15
 20
-10.6357261039
 11
-21.7322580645
 21
-10.6357261039
  0
LINE
  5
397
100
AcDbEntity
  8
DRAFT
100
AcDbLine
 62
7
  6
CONTINUOUS
 10
-9.4074227901
 20
-10.6175772099
 11
-8.8
 21
-10.6175772099
  0
LINE
  5
398
100
AcDbEntity
  8
0
100
AcDbLine
 62
7
  6
CONTINUOUS
 10
17.425
 20
-10.5
 11
12.0367710127
 21
-10.5
  0
LINE
  5
399
100
AcDbEntity
  8
0
100
AcDbLine
 62
7
  6
CONTINUOUS
 10
10.3132289873
 20
-10.5
 11
-1.4632289873
 21
-10.5
  0
LINE
  5
39A
100
AcDbEntity
  8
0
100
AcDbLine
 62
7
  6
CONTINUOUS
 10
-3.1867710127
 20
-10.5
 11
-8.575
 21
-10.5
  0
LINE
  5
39B
100
AcDbEntity
  8
RACCORDO
100
AcDbLine
 62
7
  6
CONTINUOUS
 10
11.925
 20
-10.45
 11
10.425
 21
-10.45
  0
LINE
  5
39C
100
AcDbEntity
  8
RACCORDO
100
AcDbLine
 62
7
  6
CONTINUOUS
 10
-1.575
 20
-10.45
 11
-3.075
 21
-10.45
  0
LINE
  5
39D
100
AcDbEntity
  8
DRAFT
100
AcDbLine
 62
7
  6
CONTINUOUS
 10
22.05
 20
-10.15
 11
21.7
 21
-10.15
  0
LINE
  5
39E
100
AcDbEntity
  8
DRAFT
100
AcDbLine
 62
7
  6
CONTINUOUS
 10
-8.8
 20
-9.675
 11
-9.4074227901
 21
-9.675
  0
LINE
  5
39F
100
AcDbEntity
  8
DRAFT
100
AcDbLine
 62
7
  6
CONTINUOUS
 10
17.65
 20
-9.375
 11
18.2376564345
 21
-9.375
  0
LINE
  5
3A0
100
AcDbEntity
  8
DRAFT
100
AcDbLine
 62
7
  6
CONTINUOUS
 10
-22.0159334106
 20
-10.25
 11
-22.05
 21
-10.2497871958
  0
LINE
  5
3A1
100
AcDbEntity
  8
DRAFT
100
AcDbLine
 62
7
  6
CONTINUOUS
 10
17.725
 20
-10.6577644361
 11
18.575
 21
-10.675
  0
LINE
  5
3A2
100
AcDbEntity
  8
DRAFT
100
AcDbLine
 62
7
  6
CONTINUOUS
 10
17.725
 20
-11.2155262468
 11
18.575
 21
-11.25
  0
LINE
  5
3A3
100
AcDbEntity
  8
DRAFT
100
AcDbLine
 62
7
  6
CONTINUOUS
 10
21.7
 20
-10.1334176883
 11
21.4361111111
 21
-10.1168353766
  0
LINE
  5
3A4
100
AcDbEntity
  8
DRAFT
100
AcDbLine
 62
7
  6
CONTINUOUS
 10
-20.575
 20
-10.675
 11
-20.5356063579
 21
-10.6356063579
  0
LINE
  5
3A5
100
AcDbEntity
  8
DRAFT
100
AcDbLine
 62
7
  6
CONTINUOUS
 10
-13.6403057787
 20
-5.0153057787
 11
-13.625
 21
-5.0
  0
LINE
  5
3A6
100
AcDbEntity
  8
RACCORDO
100
AcDbLine
 62
7
  6
CONTINUOUS
 10
-15.5732457325
 20
-7.3
 11
-15.6047105443
 21
-7.3314648118
  0
LINE
  5
3A7
100
AcDbEntity
  8
DRAFT
100
AcDbLine
 62
7
  6
CONTINUOUS
 10
-9.4090238335
 20
-1.8840238335
 11
-9.3899690545
 21
-1.8649690545
  0
LINE
  5
3A8
100
AcDbEntity
  8
DRAFT
100
AcDbLine
 62
7
  6
CONTINUOUS
 10
-21.95
 20
-10.675
 11
-21.7322580645
 21
-10.6357261039
  0
LINE
  5
3A9
100
AcDbEntity
  8
DRAFT
100
AcDbLine
 62
7
  6
CONTINUOUS
 10
21.7822580645
 20
-1.8642738961
 11
22.0
 21
-1.825
  0
LINE
  5
3AA
100
AcDbEntity
  8
DRAFT
100
AcDbLine
 62
7
  6
CONTINUOUS
 10
22.05
 20
-7.65
 11
21.7
 21
-7.65
  0
LINE
  5
3AB
100
AcDbEntity
  8
DRAFT
100
AcDbLine
 62
7
  6
CONTINUOUS
 10
-13.625
 20
-7.5
 11
-15.625
 21
-7.5
  0
LINE
  5
3AC
100
AcDbEntity
  8
DRAFT
100
AcDbLine
 62
7
  6
CONTINUOUS
 10
-15.6072831091
 20
-7.4911422292
 11
-15.2166079783
 21
-7.4911422292
  0
LINE
  5
3AD
100
AcDbEntity
  8
DRAFT
100
AcDbLine
 62
7
  6
CONTINUOUS
 10
-13.6403057787
 20
-7.4846942213
 11
-15.2037109802
 21
-7.4846942213
  0
LINE
  5
3AE
100
AcDbEntity
  8
DRAFT
100
AcDbLine
 62
7
  6
CONTINUOUS
 10
-15.125
 20
-7.3
 11
-15.5732457325
 21
-7.3
  0
LINE
  5
3AF
100
AcDbEntity
  8
SMUSSO
100
AcDbLine
 62
7
  6
CONTINUOUS
 10
-13.5087268678
 20
-7.25
 11
-14.0087459055
 21
-7.25
  0
LINE
  5
3B0
100
AcDbEntity
  8
RACCORDO
100
AcDbLine
 62
7
  6
CONTINUOUS
 10
-14.0087459055
 20
-7.25
 11
-15.9027650843
 21
-7.25
  0
LINE
  5
3B1
100
AcDbEntity
  8
DRAFT
100
AcDbLine
 62
7
  6
CONTINUOUS
 10
18.2202026989
 20
-6.5202026989
 11
18.599151635
 21
-6.5202026989
  0
LINE
  5
3B2
100
AcDbEntity
  8
DRAFT
100
AcDbLine
 62
7
  6
CONTINUOUS
 10
20.200848365
 20
-6.5202026989
 11
20.6047973011
 21
-6.5202026989
  0
LINE
  5
3B3
100
AcDbEntity
  8
SMUSSO
100
AcDbLine
 62
7
  6
CONTINUOUS
 10
-13.5
 20
-6.25
 11
-14.0000190377
 21
-6.25
  0
LINE
  5
3B4
100
AcDbEntity
  8
RACCORDO
100
AcDbLine
 62
7
  6
CONTINUOUS
 10
-14.0000190377
 20
-6.25
 11
-15.9114919521
 21
-6.25
  0
LINE
  5
3B5
100
AcDbEntity
  8
RACCORDO
100
AcDbLine
 62
250
  6
CONTINUOUS
 10
-18.275
 20
-6.25
 11
-18.4634147681
 21
-6.25
  0
LINE
  5
3B6
100
AcDbEntity
  8
RACCORDO
100
AcDbLine
 62
250
  6
CONTINUOUS
 10
-10.796859097
 20
-6.25
 11
-10.975
 21
-6.25
  0
LINE
  5
3B7
100
AcDbEntity
  8
DRAFT
100
AcDbLine
 62
7
  6
CONTINUOUS
 10
20.6047973011
 20
-5.9797973011
 11
20.200848365
 21
-5.9797973011
  0
LINE
  5
3B8
100
AcDbEntity
  8
DRAFT
100
AcDbLine
 62
7
  6
CONTINUOUS
 10
18.599151635
 20
-5.9797973011
 11
18.2202026989
 21
-5.9797973011
  0
LINE
  5
3B9
100
AcDbEntity
  8
RACCORDO
100
AcDbLine
 62
250
  6
CONTINUOUS
 10
17.65
 20
-6.2500076898
 11
17.5991544352
 21
-6.2499789931
  0
LINE
  5
3BA
100
AcDbEntity
  8
RACCORDO
100
AcDbLine
 62
250
  6
CONTINUOUS
 10
-8.8
 20
-6.2500053967
 11
-8.739599375
 21
-6.2500530177
  0
LINE
  5
3BB
100
AcDbEntity
  8
DRAFT
100
AcDbLine
 62
7
  6
CONTINUOUS
 10
21.7822580645
 20
-10.6357261039
 11
22.0
 21
-10.675
  0
LINE
  5
3BC
100
AcDbEntity
  8
DRAFT
100
AcDbLine
 62
7
  6
CONTINUOUS
 10
-21.95
 20
-1.825
 11
-21.7322580645
 21
-1.8642738961
  0
LINE
  5
3BD
100
AcDbEntity
  8
DRAFT
100
AcDbLine
 62
7
  6
CONTINUOUS
 10
-20.575
 20
10.675
 11
-20.5356063579
 21
10.6356063579
  0
LINE
  5
3BE
100
AcDbEntity
  8
DRAFT
100
AcDbLine
 62
7
  6
CONTINUOUS
 10
-13.6403057787
 20
5.0153057787
 11
-13.625
 21
5.0
  0
LINE
  5
3BF
100
AcDbEntity
  8
RACCORDO
100
AcDbLine
 62
7
  6
CONTINUOUS
 10
-15.5732457325
 20
7.3
 11
-15.6047105443
 21
7.3314648118
  0
LINE
  5
3C0
100
AcDbEntity
  8
RACCORDO
100
AcDbLine
 62
7
  6
CONTINUOUS
 10
-3.225
 20
23.1564554059
 11
-3.225
 21
23.1
  0
LINE
  5
3C1
100
AcDbEntity
  8
RACCORDO
100
AcDbLine
 62
7
  6
CONTINUOUS
 10
-3.225
 20
14.4
 11
-3.225
 21
14.3435445941
  0
LINE
  5
3C2
100
AcDbEntity
  8
RACCORDO
100
AcDbLine
 62
7
  6
CONTINUOUS
 10
-3.225
 20
10.6564554059
 11
-3.225
 21
10.6
  0
LINE
  5
3C3
100
AcDbEntity
  8
RACCORDO
100
AcDbLine
 62
7
  6
CONTINUOUS
 10
-3.225
 20
1.9
 11
-3.225
 21
1.8435445941
  0
LINE
  5
3C4
100
AcDbEntity
  8
RACCORDO
100
AcDbLine
 62
7
  6
CONTINUOUS
 10
-3.225
 20
-1.8435445941
 11
-3.225
 21
-1.9
  0
LINE
  5
3C5
100
AcDbEntity
  8
RACCORDO
100
AcDbLine
 62
7
  6
CONTINUOUS
 10
-3.225
 20
-10.6
 11
-3.225
 21
-10.6564554059
  0
LINE
  5
3C6
100
AcDbEntity
  8
RACCORDO
100
AcDbLine
 62
7
  6
CONTINUOUS
 10
-3.225
 20
-14.3435445941
 11
-3.225
 21
-14.4
  0
LINE
  5
3C7
100
AcDbEntity
  8
RACCORDO
100
AcDbLine
 62
7
  6
CONTINUOUS
 10
-3.225
 20
-23.1
 11
-3.225
 21
-23.1564554059
  0
LINE
  5
3C8
100
AcDbEntity
  8
RACCORDO
100
AcDbLine
 62
250
  6
CONTINUOUS
 10
-3.075
 20
23.1577644361
 11
-3.075
 21
22.95
  0
LINE
  5
3C9
100
AcDbEntity
  8
RACCORDO
100
AcDbLine
 62
250
  6
CONTINUOUS
 10
-3.075
 20
14.55
 11
-3.075
 21
14.3422355639
  0
LINE
  5
3CA
100
AcDbEntity
  8
RACCORDO
100
AcDbLine
 62
250
  6
CONTINUOUS
 10
-3.075
 20
10.6577644361
 11
-3.075
 21
10.45
  0
LINE
  5
3CB
100
AcDbEntity
  8
RACCORDO
100
AcDbLine
 62
250
  6
CONTINUOUS
 10
-3.075
 20
2.05
 11
-3.075
 21
1.8422355639
  0
LINE
  5
3CC
100
AcDbEntity
  8
RACCORDO
100
AcDbLine
 62
250
  6
CONTINUOUS
 10
-3.075
 20
-1.8422355639
 11
-3.075
 21
-2.05
  0
LINE
  5
3CD
100
AcDbEntity
  8
RACCORDO
100
AcDbLine
 62
250
  6
CONTINUOUS
 10
-3.075
 20
-10.45
 11
-3.075
 21
-10.6577644361
  0
LINE
  5
3CE
100
AcDbEntity
  8
RACCORDO
100
AcDbLine
 62
250
  6
CONTINUOUS
 10
-3.075
 20
-14.3422355639
 11
-3.075
 21
-14.55
  0
LINE
  5
3CF
100
AcDbEntity
  8
RACCORDO
100
AcDbLine
 62
250
  6
CONTINUOUS
 10
-3.075
 20
-22.95
 11
-3.075
 21
-23.1577644361
  0
LINE
  5
3D0
100
AcDbEntity
  8
DRAFT
100
AcDbLine
 62
7
  6
CONTINUOUS
 10
-21.15
 20
-14.3642738961
 11
-21.1107261039
 21
-14.325
  0
LINE
  5
3D1
100
AcDbEntity
  8
DRAFT
100
AcDbLine
 62
7
  6
CONTINUOUS
 10
21.7
 20
-2.3665823117
 11
21.4361111111
 21
-2.3831646234
  0
LINE
  5
3D2
100
AcDbEntity
  8
SMUSSO
100
AcDbLine
 62
7
  6
CONTINUOUS
 10
-14.0087459055
 20
-5.25
 11
-13.5087268678
 21
-5.25
  0
LINE
  5
3D3
100
AcDbEntity
  8
RACCORDO
100
AcDbLine
 62
7
  6
CONTINUOUS
 10
-14.0087459055
 20
-5.25
 11
-15.9027650843
 21
-5.25
  0
LINE
  5
3D4
100
AcDbEntity
  8
DRAFT
100
AcDbLine
 62
7
  6
CONTINUOUS
 10
-15.125
 20
-5.2
 11
-15.5732457325
 21
-5.2
  0
LINE
  5
3D5
100
AcDbEntity
  8
DRAFT
100
AcDbLine
 62
7
  6
CONTINUOUS
 10
-15.2037109802
 20
-5.0153057787
 11
-13.6403057787
 21
-5.0153057787
  0
LINE
  5
3D6
100
AcDbEntity
  8
DRAFT
100
AcDbLine
 62
7
  6
CONTINUOUS
 10
-15.6072831091
 20
-5.0088577708
 11
-15.2166079783
 21
-5.0088577708
  0
LINE
  5
3D7
100
AcDbEntity
  8
DRAFT
100
AcDbLine
 62
7
  6
CONTINUOUS
 10
-15.625
 20
-5.0
 11
-13.625
 21
-5.0
  0
LINE
  5
3D8
100
AcDbEntity
  8
DRAFT
100
AcDbLine
 62
7
  6
CONTINUOUS
 10
22.05
 20
-4.85
 11
21.7
 21
-4.85
  0
LINE
  5
3D9
100
AcDbEntity
  8
DRAFT
100
AcDbLine
 62
7
  6
CONTINUOUS
 10
-21.2107171139
 20
-2.2892738961
 11
-22.0159334106
 21
-2.25
  0
LINE
  5
3DA
100
AcDbEntity
  8
DRAFT
100
AcDbLine
 62
7
  6
CONTINUOUS
 10
-21.1107261039
 20
14.325
 11
-21.15
 21
14.3642738961
  0
LINE
  5
3DB
100
AcDbEntity
  8
RACCORDO
100
AcDbLine
 62
250
  6
CONTINUOUS
 10
-1.575
 20
-23.1577644361
 11
-1.575
 21
-22.95
  0
LINE
  5
3DC
100
AcDbEntity
  8
RACCORDO
100
AcDbLine
 62
250
  6
CONTINUOUS
 10
-1.575
 20
-14.55
 11
-1.575
 21
-14.3422355639
  0
LINE
  5
3DD
100
AcDbEntity
  8
RACCORDO
100
AcDbLine
 62
250
  6
CONTINUOUS
 10
-1.575
 20
-10.6577644361
 11
-1.575
 21
-10.45
  0
LINE
  5
3DE
100
AcDbEntity
  8
RACCORDO
100
AcDbLine
 62
250
  6
CONTINUOUS
 10
-1.575
 20
-2.05
 11
-1.575
 21
-1.8422355639
  0
LINE
  5
3DF
100
AcDbEntity
  8
RACCORDO
100
AcDbLine
 62
250
  6
CONTINUOUS
 10
-1.575
 20
1.8422355639
 11
-1.575
 21
2.05
  0
LINE
  5
3E0
100
AcDbEntity
  8
RACCORDO
100
AcDbLine
 62
250
  6
CONTINUOUS
 10
-1.575
 20
10.45
 11
-1.575
 21
10.6577644361
  0
LINE
  5
3E1
100
AcDbEntity
  8
RACCORDO
100
AcDbLine
 62
250
  6
CONTINUOUS
 10
-1.575
 20
14.3422355639
 11
-1.575
 21
14.55
  0
LINE
  5
3E2
100
AcDbEntity
  8
RACCORDO
100
AcDbLine
 62
250
  6
CONTINUOUS
 10
-1.575
 20
22.95
 11
-1.575
 21
23.1577644361
  0
LINE
  5
3E3
100
AcDbEntity
  8
RACCORDO
100
AcDbLine
 62
7
  6
CONTINUOUS
 10
-1.425
 20
-23.1564554059
 11
-1.425
 21
-23.1
  0
LINE
  5
3E4
100
AcDbEntity
  8
RACCORDO
100
AcDbLine
 62
7
  6
CONTINUOUS
 10
-1.425
 20
-14.4
 11
-1.425
 21
-14.3435445941
  0
LINE
  5
3E5
100
AcDbEntity
  8
RACCORDO
100
AcDbLine
 62
7
  6
CONTINUOUS
 10
-1.425
 20
-10.6564554059
 11
-1.425
 21
-10.6
  0
LINE
  5
3E6
100
AcDbEntity
  8
RACCORDO
100
AcDbLine
 62
7
  6
CONTINUOUS
 10
-1.425
 20
-1.9
 11
-1.425
 21
-1.8435445941
  0
LINE
  5
3E7
100
AcDbEntity
  8
RACCORDO
100
AcDbLine
 62
7
  6
CONTINUOUS
 10
-1.425
 20
1.8435445941
 11
-1.425
 21
1.9
  0
LINE
  5
3E8
100
AcDbEntity
  8
RACCORDO
100
AcDbLine
 62
7
  6
CONTINUOUS
 10
-1.425
 20
10.6
 11
-1.425
 21
10.6564554059
  0
LINE
  5
3E9
100
AcDbEntity
  8
RACCORDO
100
AcDbLine
 62
7
  6
CONTINUOUS
 10
-1.425
 20
14.3435445941
 11
-1.425
 21
14.4
  0
LINE
  5
3EA
100
AcDbEntity
  8
RACCORDO
100
AcDbLine
 62
7
  6
CONTINUOUS
 10
-1.425
 20
23.1
 11
-1.425
 21
23.1564554059
  0
LINE
  5
3EB
100
AcDbEntity
  8
DRAFT
100
AcDbLine
 62
7
  6
CONTINUOUS
 10
20.625
 20
23.175
 11
20.5856351077
 21
23.1356351077
  0
LINE
  5
3EC
100
AcDbEntity
  8
DRAFT
100
AcDbLine
 62
7
  6
CONTINUOUS
 10
18.2490718395
 20
19.0490718395
 11
18.2202026989
 21
19.0202026989
  0
LINE
  5
3ED
100
AcDbEntity
  8
DRAFT
100
AcDbLine
 62
7
  6
CONTINUOUS
 10
-15.6072831091
 20
-7.4911422292
 11
-15.625
 21
-7.5
  0
LINE
  5
3EE
100
AcDbEntity
  8
DRAFT
100
AcDbLine
 62
7
  6
CONTINUOUS
 10
-15.2037109802
 20
-7.4846942213
 11
-15.2166079783
 21
-7.4911422292
  0
LINE
  5
3EF
100
AcDbEntity
  8
DRAFT
100
AcDbLine
 62
7
  6
CONTINUOUS
 10
17.725
 20
-1.2844737532
 11
18.575
 21
-1.25
  0
LINE
  5
3F0
100
AcDbEntity
  8
DRAFT
100
AcDbLine
 62
7
  6
CONTINUOUS
 10
17.725
 20
-1.8422355639
 11
18.575
 21
-1.825
  0
LINE
  5
3F1
100
AcDbEntity
  8
DRAFT
100
AcDbLine
 62
7
  6
CONTINUOUS
 10
-22.0159334106
 20
-2.25
 11
-22.05
 21
-2.2502128042
  0
LINE
  5
3F2
100
AcDbEntity
  8
DRAFT
100
AcDbLine
 62
7
  6
CONTINUOUS
 10
22.05
 20
-2.35
 11
21.7
 21
-2.35
  0
LINE
  5
3F3
100
AcDbEntity
  8
RACCORDO
100
AcDbLine
 62
7
  6
CONTINUOUS
 10
-3.075
 20
-2.05
 11
-1.575
 21
-2.05
  0
LINE
  5
3F4
100
AcDbEntity
  8
RACCORDO
100
AcDbLine
 62
7
  6
CONTINUOUS
 10
10.425
 20
-2.05
 11
11.925
 21
-2.05
  0
LINE
  5
3F5
100
AcDbEntity
  8
0
100
AcDbLine
 62
7
  6
CONTINUOUS
 10
-8.575
 20
-2.0
 11
-3.1867710127
 21
-2.0
  0
LINE
  5
3F6
100
AcDbEntity
  8
0
100
AcDbLine
 62
7
  6
CONTINUOUS
 10
-1.4632289873
 20
-2.0
 11
10.3132289873
 21
-2.0
  0
LINE
  5
3F7
100
AcDbEntity
  8
0
100
AcDbLine
 62
7
  6
CONTINUOUS
 10
12.0367710127
 20
-2.0
 11
17.425
 21
-2.0
  0
LINE
  5
3F8
100
AcDbEntity
  8
DRAFT
100
AcDbLine
 62
7
  6
CONTINUOUS
 10
-8.8
 20
-1.8649690545
 11
-9.3899690545
 21
-1.8649690545
  0
LINE
  5
3F9
100
AcDbEntity
  8
DRAFT
100
AcDbLine
 62
7
  6
CONTINUOUS
 10
21.7822580645
 20
-1.8642738961
 11
21.2
 21
-1.8642738961
  0
LINE
  5
3FA
100
AcDbEntity
  8
DRAFT
100
AcDbLine
 62
7
  6
CONTINUOUS
 10
-21.15
 20
-1.8642738961
 11
-21.7322580645
 21
-1.8642738961
  0
LINE
  5
3FB
100
AcDbEntity
  8
RACCORDO
100
AcDbLine
 62
250
  6
CONTINUOUS
 10
-1.425
 20
-1.85
 11
-3.225
 21
-1.85
  0
LINE
  5
3FC
100
AcDbEntity
  8
RACCORDO
100
AcDbLine
 62
250
  6
CONTINUOUS
 10
10.275
 20
-1.85
 11
12.075
 21
-1.85
  0
LINE
  5
3FD
100
AcDbEntity
  8
DRAFT
100
AcDbLine
 62
7
  6
CONTINUOUS
 10
18.2202026989
 20
-1.8452026989
 11
17.65
 21
-1.8452026989
  0
LINE
  5
3FE
100
AcDbEntity
  8
RACCORDO
100
AcDbLine
 62
7
  6
CONTINUOUS
 10
-9.925
 20
-1.8422355639
 11
-3.075
 21
-1.8422355639
  0
LINE
  5
3FF
100
AcDbEntity
  8
RACCORDO
100
AcDbLine
 62
7
  6
CONTINUOUS
 10
-1.575
 20
-1.8422355639
 11
10.425
 21
-1.8422355639
  0
LINE
  5
400
100
AcDbEntity
  8
RACCORDO
100
AcDbLine
 62
7
  6
CONTINUOUS
 10
11.925
 20
-1.8422355639
 11
17.725
 21
-1.8422355639
  0
LINE
  5
401
100
AcDbEntity
  8
DRAFT
100
AcDbLine
 62
7
  6
CONTINUOUS
 10
-18.225
 20
-1.8367812715
 11
-9.925
 21
-1.8367812715
  0
LINE
  5
402
100
AcDbEntity
  8
DRAFT
100
AcDbLine
 62
7
  6
CONTINUOUS
 10
22.0
 20
-1.825
 11
21.1607261039
 21
-1.825
  0
LINE
  5
403
100
AcDbEntity
  8
DRAFT
100
AcDbLine
 62
7
  6
CONTINUOUS
 10
-20.575
 20
-1.825
 11
-20.475
 21
-1.825
  0
LINE
  5
404
100
AcDbEntity
  8
DRAFT
100
AcDbLine
 62
7
  6
CONTINUOUS
 10
18.575
 20
-1.825
 11
20.625
 21
-1.825
  0
LINE
  5
405
100
AcDbEntity
  8
DRAFT
100
AcDbLine
 62
7
  6
CONTINUOUS
 10
-21.1107261039
 20
-1.825
 11
-21.95
 21
-1.825
  0
LINE
  5
406
100
AcDbEntity
  8
DRAFT
100
AcDbLine
 62
7
  6
CONTINUOUS
 10
-9.925
 20
-1.2844737532
 11
17.725
 21
-1.2844737532
  0
LINE
  5
407
100
AcDbEntity
  8
DRAFT
100
AcDbLine
 62
7
  6
CONTINUOUS
 10
-18.225
 20
-1.2735643377
 11
-9.925
 21
-1.2735643377
  0
LINE
  5
408
100
AcDbEntity
  8
RACCORDO
100
AcDbLine
 62
7
  6
CONTINUOUS
 10
-21.6992543082
 20
-1.25
 11
-20.475
 21
-1.25
  0
LINE
  5
409
100
AcDbEntity
  8
RACCORDO
100
AcDbLine
 62
7
  6
CONTINUOUS
 10
18.575
 20
-1.25
 11
21.7492543082
 21
-1.25
  0
LINE
  5
40A
100
AcDbEntity
  8
DRAFT
100
AcDbLine
 62
7
  6
CONTINUOUS
 10
-20.475
 20
-1.825
 11
-18.225
 21
-1.8367812715
  0
LINE
  5
40B
100
AcDbEntity
  8
DRAFT
100
AcDbLine
 62
7
  6
CONTINUOUS
 10
-20.475
 20
-1.25
 11
-18.225
 21
-1.2735643377
  0
LINE
  5
40C
100
AcDbEntity
  8
DRAFT
100
AcDbLine
 62
7
  6
CONTINUOUS
 10
-15.6072831091
 20
7.4911422292
 11
-15.625
 21
7.5
  0
LINE
  5
40D
100
AcDbEntity
  8
DRAFT
100
AcDbLine
 62
7
  6
CONTINUOUS
 10
-15.2037109802
 20
7.4846942213
 11
-15.2166079783
 21
7.4911422292
  0
LINE
  5
40E
100
AcDbEntity
  8
DRAFT
100
AcDbLine
 62
7
  6
CONTINUOUS
 10
20.625
 20
-23.175
 11
20.5856351077
 21
-23.1356351077
  0
LINE
  5
40F
100
AcDbEntity
  8
DRAFT
100
AcDbLine
 62
7
  6
CONTINUOUS
 10
18.2490718395
 20
-19.0490718395
 11
18.2202026989
 21
-19.0202026989
  0
LINE
  5
410
100
AcDbEntity
  8
DRAFT
100
AcDbLine
 62
7
  6
CONTINUOUS
 10
20.5856351077
 20
18.4606351077
 11
20.6047973011
 21
18.4797973011
  0
LINE
  5
411
100
AcDbEntity
  8
DRAFT
100
AcDbLine
 62
7
  6
CONTINUOUS
 10
-20.575
 20
-23.175
 11
-20.5356063579
 21
-23.1356063579
  0
LINE
  5
412
100
AcDbEntity
  8
DRAFT
100
AcDbLine
 62
7
  6
CONTINUOUS
 10
18.2490718395
 20
14.3740718395
 11
18.2376564345
 21
14.3626564345
  0
LINE
  5
413
100
AcDbEntity
  8
DRAFT
100
AcDbLine
 62
7
  6
CONTINUOUS
 10
-13.6403057787
 20
-17.5153057787
 11
-13.625
 21
-17.5
  0
LINE
  5
414
100
AcDbEntity
  8
RACCORDO
100
AcDbLine
 62
7
  6
CONTINUOUS
 10
-15.5732457325
 20
-19.8
 11
-15.6047105443
 21
-19.8314648118
  0
LINE
  5
415
100
AcDbEntity
  8
DRAFT
100
AcDbLine
 62
7
  6
CONTINUOUS
 10
-20.475
 20
1.25
 11
-18.225
 21
1.2735643377
  0
LINE
  5
416
100
AcDbEntity
  8
DRAFT
100
AcDbLine
 62
7
  6
CONTINUOUS
 10
-20.475
 20
1.825
 11
-18.225
 21
1.8367812715
  0
LINE
  5
417
100
AcDbEntity
  8
RACCORDO
100
AcDbLine
 62
7
  6
CONTINUOUS
 10
21.7492543082
 20
1.25
 11
18.575
 21
1.25
  0
LINE
  5
418
100
AcDbEntity
  8
RACCORDO
100
AcDbLine
 62
7
  6
CONTINUOUS
 10
-20.475
 20
1.25
 11
-21.6992543082
 21
1.25
  0
LINE
  5
419
100
AcDbEntity
  8
DRAFT
100
AcDbLine
 62
7
  6
CONTINUOUS
 10
-18.225
 20
1.2735643377
 11
-9.925
 21
1.2735643377
  0
LINE
  5
41A
100
AcDbEntity
  8
DRAFT
100
AcDbLine
 62
7
  6
CONTINUOUS
 10
17.725
 20
1.2844737532
 11
-9.925
 21
1.2844737532
  0
LINE
  5
41B
100
AcDbEntity
  8
DRAFT
100
AcDbLine
 62
7
  6
CONTINUOUS
 10
22.0
 20
1.825
 11
21.1607261039
 21
1.825
  0
LINE
  5
41C
100
AcDbEntity
  8
DRAFT
100
AcDbLine
 62
7
  6
CONTINUOUS
 10
20.625
 20
1.825
 11
18.575
 21
1.825
  0
LINE
  5
41D
100
AcDbEntity
  8
DRAFT
100
AcDbLine
 62
7
  6
CONTINUOUS
 10
-20.475
 20
1.825
 11
-20.575
 21
1.825
  0
LINE
  5
41E
100
AcDbEntity
  8
DRAFT
100
AcDbLine
 62
7
  6
CONTINUOUS
 10
-21.1107261039
 20
1.825
 11
-21.95
 21
1.825
  0
LINE
  5
41F
100
AcDbEntity
  8
DRAFT
100
AcDbLine
 62
7
  6
CONTINUOUS
 10
-18.225
 20
1.8367812715
 11
-9.925
 21
1.8367812715
  0
LINE
  5
420
100
AcDbEntity
  8
RACCORDO
100
AcDbLine
 62
7
  6
CONTINUOUS
 10
17.725
 20
1.8422355639
 11
11.925
 21
1.8422355639
  0
LINE
  5
421
100
AcDbEntity
  8
RACCORDO
100
AcDbLine
 62
7
  6
CONTINUOUS
 10
10.425
 20
1.8422355639
 11
-1.575
 21
1.8422355639
  0
LINE
  5
422
100
AcDbEntity
  8
RACCORDO
100
AcDbLine
 62
7
  6
CONTINUOUS
 10
-3.075
 20
1.8422355639
 11
-9.925
 21
1.8422355639
  0
LINE
  5
423
100
AcDbEntity
  8
RACCORDO
100
AcDbLine
 62
250
  6
CONTINUOUS
 10
-1.425
 20
1.85
 11
-3.225
 21
1.85
  0
LINE
  5
424
100
AcDbEntity
  8
RACCORDO
100
AcDbLine
 62
250
  6
CONTINUOUS
 10
10.275
 20
1.85
 11
12.075
 21
1.85
  0
LINE
  5
425
100
AcDbEntity
  8
DRAFT
100
AcDbLine
 62
7
  6
CONTINUOUS
 10
17.65
 20
1.8626564345
 11
18.2376564345
 21
1.8626564345
  0
LINE
  5
426
100
AcDbEntity
  8
DRAFT
100
AcDbLine
 62
7
  6
CONTINUOUS
 10
21.7822580645
 20
1.8642738961
 11
21.2
 21
1.8642738961
  0
LINE
  5
427
100
AcDbEntity
  8
DRAFT
100
AcDbLine
 62
7
  6
CONTINUOUS
 10
-21.15
 20
1.8642738961
 11
-21.7322580645
 21
1.8642738961
  0
LINE
  5
428
100
AcDbEntity
  8
DRAFT
100
AcDbLine
 62
7
  6
CONTINUOUS
 10
-9.4074227901
 20
1.8824227901
 11
-8.8
 21
1.8824227901
  0
LINE
  5
429
100
AcDbEntity
  8
0
100
AcDbLine
 62
7
  6
CONTINUOUS
 10
17.425
 20
2.0
 11
12.0367710127
 21
2.0
  0
LINE
  5
42A
100
AcDbEntity
  8
0
100
AcDbLine
 62
7
  6
CONTINUOUS
 10
10.3132289873
 20
2.0
 11
-1.4632289873
 21
2.0
  0
LINE
  5
42B
100
AcDbEntity
  8
0
100
AcDbLine
 62
7
  6
CONTINUOUS
 10
-3.1867710127
 20
2.0
 11
-8.575
 21
2.0
  0
LINE
  5
42C
100
AcDbEntity
  8
RACCORDO
100
AcDbLine
 62
7
  6
CONTINUOUS
 10
11.925
 20
2.05
 11
10.425
 21
2.05
  0
LINE
  5
42D
100
AcDbEntity
  8
RACCORDO
100
AcDbLine
 62
7
  6
CONTINUOUS
 10
-1.575
 20
2.05
 11
-3.075
 21
2.05
  0
LINE
  5
42E
100
AcDbEntity
  8
DRAFT
100
AcDbLine
 62
7
  6
CONTINUOUS
 10
22.05
 20
2.35
 11
21.7
 21
2.35
  0
LINE
  5
42F
100
AcDbEntity
  8
DRAFT
100
AcDbLine
 62
7
  6
CONTINUOUS
 10
-8.8
 20
2.825
 11
-9.4074227901
 21
2.825
  0
LINE
  5
430
100
AcDbEntity
  8
DRAFT
100
AcDbLine
 62
7
  6
CONTINUOUS
 10
17.65
 20
3.125
 11
18.2376564345
 21
3.125
  0
LINE
  5
431
100
AcDbEntity
  8
DRAFT
100
AcDbLine
 62
7
  6
CONTINUOUS
 10
-22.0159334106
 20
2.25
 11
-22.05
 21
2.2502128042
  0
LINE
  5
432
100
AcDbEntity
  8
DRAFT
100
AcDbLine
 62
7
  6
CONTINUOUS
 10
17.725
 20
1.8422355639
 11
18.575
 21
1.825
  0
LINE
  5
433
100
AcDbEntity
  8
DRAFT
100
AcDbLine
 62
7
  6
CONTINUOUS
 10
17.725
 20
1.2844737532
 11
18.575
 21
1.25
  0
LINE
  5
434
100
AcDbEntity
  8
DRAFT
100
AcDbLine
 62
7
  6
CONTINUOUS
 10
20.5856351077
 20
-18.4606351077
 11
20.6047973011
 21
-18.4797973011
  0
LINE
  5
435
100
AcDbEntity
  8
DRAFT
100
AcDbLine
 62
7
  6
CONTINUOUS
 10
-20.575
 20
23.175
 11
-20.5356063579
 21
23.1356063579
  0
LINE
  5
436
100
AcDbEntity
  8
DRAFT
100
AcDbLine
 62
7
  6
CONTINUOUS
 10
-13.6403057787
 20
17.5153057787
 11
-13.625
 21
17.5
  0
LINE
  5
437
100
AcDbEntity
  8
DRAFT
100
AcDbLine
 62
7
  6
CONTINUOUS
 10
18.2490718395
 20
-14.3740718395
 11
18.2202026989
 21
-14.3452026989
  0
LINE
  5
438
100
AcDbEntity
  8
RACCORDO
100
AcDbLine
 62
7
  6
CONTINUOUS
 10
-15.5732457325
 20
19.8
 11
-15.6047105443
 21
19.8314648118
  0
LINE
  5
439
100
AcDbEntity
  8
DRAFT
100
AcDbLine
 62
7
  6
CONTINUOUS
 10
18.599151635
 20
18.4797973011
 11
18.5791044742
 21
18.4515265528
  0
LINE
  5
43A
100
AcDbEntity
  8
DRAFT
100
AcDbLine
 62
7
  6
CONTINUOUS
 10
20.200848365
 20
19.0202026989
 11
20.2150725417
 21
19.0401897811
  0
LINE
  5
43B
100
AcDbEntity
  8
DRAFT
100
AcDbLine
 62
7
  6
CONTINUOUS
 10
-9.4090238335
 20
-14.3840238335
 11
-9.3899690545
 21
-14.3649690545
  0
LINE
  5
43C
100
AcDbEntity
  8
DRAFT
100
AcDbLine
 62
7
  6
CONTINUOUS
 10
21.2
 20
14.3642738961
 11
21.1607261039
 21
14.325
  0
LINE
  5
43D
100
AcDbEntity
  8
DRAFT
100
AcDbLine
 62
7
  6
CONTINUOUS
 10
-21.95
 20
1.825
 11
-21.7322580645
 21
1.8642738961
  0
LINE
  5
43E
100
AcDbEntity
  8
DRAFT
100
AcDbLine
 62
7
  6
CONTINUOUS
 10
-21.2107171139
 20
2.2892738961
 11
-22.0159334106
 21
2.25
  0
LINE
  5
43F
100
AcDbEntity
  8
DRAFT
100
AcDbLine
 62
7
  6
CONTINUOUS
 10
22.05
 20
4.85
 11
21.7
 21
4.85
  0
LINE
  5
440
100
AcDbEntity
  8
DRAFT
100
AcDbLine
 62
7
  6
CONTINUOUS
 10
-13.625
 20
5.0
 11
-15.625
 21
5.0
  0
LINE
  5
441
100
AcDbEntity
  8
DRAFT
100
AcDbLine
 62
7
  6
CONTINUOUS
 10
-15.6072831091
 20
5.0088577708
 11
-15.2166079783
 21
5.0088577708
  0
LINE
  5
442
100
AcDbEntity
  8
DRAFT
100
AcDbLine
 62
7
  6
CONTINUOUS
 10
-13.6403057787
 20
5.0153057787
 11
-15.2037109802
 21
5.0153057787
  0
LINE
  5
443
100
AcDbEntity
  8
DRAFT
100
AcDbLine
 62
7
  6
CONTINUOUS
 10
-15.125
 20
5.2
 11
-15.5732457325
 21
5.2
  0
LINE
  5
444
100
AcDbEntity
  8
SMUSSO
100
AcDbLine
 62
7
  6
CONTINUOUS
 10
-13.5087268678
 20
5.25
 11
-14.0087459055
 21
5.25
  0
LINE
  5
445
100
AcDbEntity
  8
RACCORDO
100
AcDbLine
 62
7
  6
CONTINUOUS
 10
-14.0087459055
 20
5.25
 11
-15.9027650843
 21
5.25
  0
LINE
  5
446
100
AcDbEntity
  8
DRAFT
100
AcDbLine
 62
7
  6
CONTINUOUS
 10
18.2202026989
 20
5.9797973011
 11
18.599151635
 21
5.9797973011
  0
LINE
  5
447
100
AcDbEntity
  8
DRAFT
100
AcDbLine
 62
7
  6
CONTINUOUS
 10
20.200848365
 20
5.9797973011
 11
20.6047973011
 21
5.9797973011
  0
LINE
  5
448
100
AcDbEntity
  8
DRAFT
100
AcDbLine
 62
7
  6
CONTINUOUS
 10
21.7
 20
2.3665823117
 11
21.4361111111
 21
2.3831646234
  0
LINE
  5
449
100
AcDbEntity
  8
DRAFT
100
AcDbLine
 62
7
  6
CONTINUOUS
 10
21.7822580645
 20
1.8642738961
 11
22.0
 21
1.825
  0
LINE
  5
44A
100
AcDbEntity
  8
DRAFT
100
AcDbLine
 62
7
  6
CONTINUOUS
 10
21.1607261039
 20
-14.325
 11
21.2
 21
-14.3642738961
  0
LINE
  5
44B
100
AcDbEntity
  8
DRAFT
100
AcDbLine
 62
7
  6
CONTINUOUS
 10
20.200848365
 20
-19.0202026989
 11
20.2150725417
 21
-19.0401897811
  0
LINE
  5
44C
100
AcDbEntity
  8
DRAFT
100
AcDbLine
 62
7
  6
CONTINUOUS
 10
18.599151635
 20
-18.4797973011
 11
18.5791044742
 21
-18.4515265528
  0
LINE
  5
44D
100
AcDbEntity
  8
DRAFT
100
AcDbLine
 62
7
  6
CONTINUOUS
 10
20.625
 20
10.675
 11
20.5856351077
 21
10.6356351077
  0
LINE
  5
44E
100
AcDbEntity
  8
DRAFT
100
AcDbLine
 62
7
  6
CONTINUOUS
 10
18.2490718395
 20
6.5490718395
 11
18.2202026989
 21
6.5202026989
  0
LINE
  5
44F
100
AcDbEntity
  8
DRAFT
100
AcDbLine
 62
7
  6
CONTINUOUS
 10
21.7822580645
 20
10.6357261039
 11
22.0
 21
10.675
  0
LINE
  5
450
100
AcDbEntity
  8
DRAFT
100
AcDbLine
 62
7
  6
CONTINUOUS
 10
21.7
 20
10.1334176883
 11
21.4361111111
 21
10.1168353766
  0
LINE
  5
451
100
AcDbEntity
  8
RACCORDO
100
AcDbLine
 62
250
  6
CONTINUOUS
 10
-10.796859097
 20
6.25
 11
-10.975
 21
6.25
  0
LINE
  5
452
100
AcDbEntity
  8
SMUSSO
100
AcDbLine
 62
7
  6
CONTINUOUS
 10
-13.5
 20
6.25
 11
-14.0000190377
 21
6.25
  0
LINE
  5
453
100
AcDbEntity
  8
RACCORDO
100
AcDbLine
 62
7
  6
CONTINUOUS
 10
-14.0000190377
 20
6.25
 11
-15.9114919521
 21
6.25
  0
LINE
  5
454
100
AcDbEntity
  8
RACCORDO
100
AcDbLine
 62
250
  6
CONTINUOUS
 10
-18.275
 20
6.25
 11
-18.4634147681
 21
6.25
  0
LINE
  5
455
100
AcDbEntity
  8
DRAFT
100
AcDbLine
 62
7
  6
CONTINUOUS
 10
20.6047973011
 20
6.5202026989
 11
20.200848365
 21
6.5202026989
  0
LINE
  5
456
100
AcDbEntity
  8
DRAFT
100
AcDbLine
 62
7
  6
CONTINUOUS
 10
18.599151635
 20
6.5202026989
 11
18.2202026989
 21
6.5202026989
  0
LINE
  5
457
100
AcDbEntity
  8
SMUSSO
100
AcDbLine
 62
7
  6
CONTINUOUS
 10
-14.0087459055
 20
7.25
 11
-13.5087268678
 21
7.25
  0
LINE
  5
458
100
AcDbEntity
  8
RACCORDO
100
AcDbLine
 62
7
  6
CONTINUOUS
 10
-14.0087459055
 20
7.25
 11
-15.9027650843
 21
7.25
  0
LINE
  5
459
100
AcDbEntity
  8
DRAFT
100
AcDbLine
 62
7
  6
CONTINUOUS
 10
-15.125
 20
7.3
 11
-15.5732457325
 21
7.3
  0
LINE
  5
45A
100
AcDbEntity
  8
DRAFT
100
AcDbLine
 62
7
  6
CONTINUOUS
 10
-15.2037109802
 20
7.4846942213
 11
-13.6403057787
 21
7.4846942213
  0
LINE
  5
45B
100
AcDbEntity
  8
DRAFT
100
AcDbLine
 62
7
  6
CONTINUOUS
 10
-15.6072831091
 20
7.4911422292
 11
-15.2166079783
 21
7.4911422292
  0
LINE
  5
45C
100
AcDbEntity
  8
DRAFT
100
AcDbLine
 62
7
  6
CONTINUOUS
 10
-15.625
 20
7.5
 11
-13.625
 21
7.5
  0
LINE
  5
45D
100
AcDbEntity
  8
DRAFT
100
AcDbLine
 62
7
  6
CONTINUOUS
 10
22.05
 20
7.65
 11
21.7
 21
7.65
  0
LINE
  5
45E
100
AcDbEntity
  8
RACCORDO
100
AcDbLine
 62
250
  6
CONTINUOUS
 10
17.65
 20
6.2499923102
 11
17.5991544352
 21
6.2500210069
  0
LINE
  5
45F
100
AcDbEntity
  8
RACCORDO
100
AcDbLine
 62
250
  6
CONTINUOUS
 10
-8.8
 20
6.2499946033
 11
-8.739599375
 21
6.2499469823
  0
LINE
  5
460
100
AcDbEntity
  8
DRAFT
100
AcDbLine
 62
7
  6
CONTINUOUS
 10
-21.95
 20
10.675
 11
-21.7322580645
 21
10.6357261039
  0
LINE
  5
461
100
AcDbEntity
  8
DRAFT
100
AcDbLine
 62
7
  6
CONTINUOUS
 10
20.625
 20
-10.675
 11
20.5856351077
 21
-10.6356351077
  0
LINE
  5
462
100
AcDbEntity
  8
DRAFT
100
AcDbLine
 62
7
  6
CONTINUOUS
 10
18.2490718395
 20
-6.5490718395
 11
18.2202026989
 21
-6.5202026989
  0
LINE
  5
463
100
AcDbEntity
  8
RACCORDO
100
AcDbLine
 62
7
  6
CONTINUOUS
 10
10.275
 20
23.1564554059
 11
10.275
 21
23.1
  0
LINE
  5
464
100
AcDbEntity
  8
RACCORDO
100
AcDbLine
 62
7
  6
CONTINUOUS
 10
10.275
 20
14.4
 11
10.275
 21
14.3435445941
  0
LINE
  5
465
100
AcDbEntity
  8
RACCORDO
100
AcDbLine
 62
7
  6
CONTINUOUS
 10
10.275
 20
10.6564554059
 11
10.275
 21
10.6
  0
LINE
  5
466
100
AcDbEntity
  8
RACCORDO
100
AcDbLine
 62
7
  6
CONTINUOUS
 10
10.275
 20
1.9
 11
10.275
 21
1.8435445941
  0
LINE
  5
467
100
AcDbEntity
  8
RACCORDO
100
AcDbLine
 62
7
  6
CONTINUOUS
 10
10.275
 20
-1.8435445941
 11
10.275
 21
-1.9
  0
LINE
  5
468
100
AcDbEntity
  8
RACCORDO
100
AcDbLine
 62
7
  6
CONTINUOUS
 10
10.275
 20
-10.6
 11
10.275
 21
-10.6564554059
  0
LINE
  5
469
100
AcDbEntity
  8
RACCORDO
100
AcDbLine
 62
7
  6
CONTINUOUS
 10
10.275
 20
-14.3435445941
 11
10.275
 21
-14.4
  0
LINE
  5
46A
100
AcDbEntity
  8
RACCORDO
100
AcDbLine
 62
7
  6
CONTINUOUS
 10
10.275
 20
-23.1
 11
10.275
 21
-23.1564554059
  0
LINE
  5
46B
100
AcDbEntity
  8
RACCORDO
100
AcDbLine
 62
250
  6
CONTINUOUS
 10
10.425
 20
23.1577644361
 11
10.425
 21
22.95
  0
LINE
  5
46C
100
AcDbEntity
  8
RACCORDO
100
AcDbLine
 62
250
  6
CONTINUOUS
 10
10.425
 20
14.55
 11
10.425
 21
14.3422355639
  0
LINE
  5
46D
100
AcDbEntity
  8
RACCORDO
100
AcDbLine
 62
250
  6
CONTINUOUS
 10
10.425
 20
10.6577644361
 11
10.425
 21
10.45
  0
LINE
  5
46E
100
AcDbEntity
  8
RACCORDO
100
AcDbLine
 62
250
  6
CONTINUOUS
 10
10.425
 20
2.05
 11
10.425
 21
1.8422355639
  0
LINE
  5
46F
100
AcDbEntity
  8
RACCORDO
100
AcDbLine
 62
250
  6
CONTINUOUS
 10
10.425
 20
-1.8422355639
 11
10.425
 21
-2.05
  0
LINE
  5
470
100
AcDbEntity
  8
RACCORDO
100
AcDbLine
 62
250
  6
CONTINUOUS
 10
10.425
 20
-10.45
 11
10.425
 21
-10.6577644361
  0
LINE
  5
471
100
AcDbEntity
  8
RACCORDO
100
AcDbLine
 62
250
  6
CONTINUOUS
 10
10.425
 20
-14.3422355639
 11
10.425
 21
-14.55
  0
LINE
  5
472
100
AcDbEntity
  8
RACCORDO
100
AcDbLine
 62
250
  6
CONTINUOUS
 10
10.425
 20
-22.95
 11
10.425
 21
-23.1577644361
  0
LINE
  5
473
100
AcDbEntity
  8
DRAFT
100
AcDbLine
 62
7
  6
CONTINUOUS
 10
18.599151635
 20
5.9797973011
 11
18.5791044742
 21
5.9515265528
  0
LINE
  5
474
100
AcDbEntity
  8
DRAFT
100
AcDbLine
 62
7
  6
CONTINUOUS
 10
20.5856351077
 20
5.9606351077
 11
20.6047973011
 21
5.9797973011
  0
LINE
  5
475
100
AcDbEntity
  8
DRAFT
100
AcDbLine
 62
7
  6
CONTINUOUS
 10
18.2490718395
 20
1.8740718395
 11
18.2376564345
 21
1.8626564345
  0
LINE
  5
476
100
AcDbEntity
  8
DRAFT
100
AcDbLine
 62
7
  6
CONTINUOUS
 10
-15.6072831091
 20
-19.9911422292
 11
-15.625
 21
-20.0
  0
LINE
  5
477
100
AcDbEntity
  8
DRAFT
100
AcDbLine
 62
7
  6
CONTINUOUS
 10
-15.2037109802
 20
-19.9846942213
 11
-15.2166079783
 21
-19.9911422292
  0
LINE
  5
478
100
AcDbEntity
  8
DRAFT
100
AcDbLine
 62
7
  6
CONTINUOUS
 10
17.725
 20
11.2155262468
 11
18.575
 21
11.25
  0
LINE
  5
479
100
AcDbEntity
  8
DRAFT
100
AcDbLine
 62
7
  6
CONTINUOUS
 10
17.725
 20
10.6577644361
 11
18.575
 21
10.675
  0
LINE
  5
47A
100
AcDbEntity
  8
DRAFT
100
AcDbLine
 62
7
  6
CONTINUOUS
 10
-22.0159334106
 20
10.25
 11
-22.05
 21
10.2497871958
  0
LINE
  5
47B
100
AcDbEntity
  8
DRAFT
100
AcDbLine
 62
7
  6
CONTINUOUS
 10
22.05
 20
10.15
 11
21.7
 21
10.15
  0
LINE
  5
47C
100
AcDbEntity
  8
RACCORDO
100
AcDbLine
 62
7
  6
CONTINUOUS
 10
-3.075
 20
10.45
 11
-1.575
 21
10.45
  0
LINE
  5
47D
100
AcDbEntity
  8
RACCORDO
100
AcDbLine
 62
7
  6
CONTINUOUS
 10
10.425
 20
10.45
 11
11.925
 21
10.45
  0
LINE
  5
47E
100
AcDbEntity
  8
0
100
AcDbLine
 62
7
  6
CONTINUOUS
 10
-8.575
 20
10.5
 11
-3.1867710127
 21
10.5
  0
LINE
  5
47F
100
AcDbEntity
  8
0
100
AcDbLine
 62
7
  6
CONTINUOUS
 10
-1.4632289873
 20
10.5
 11
10.3132289873
 21
10.5
  0
LINE
  5
480
100
AcDbEntity
  8
0
100
AcDbLine
 62
7
  6
CONTINUOUS
 10
12.0367710127
 20
10.5
 11
17.425
 21
10.5
  0
LINE
  5
481
100
AcDbEntity
  8
DRAFT
100
AcDbLine
 62
7
  6
CONTINUOUS
 10
-8.8
 20
10.6350309455
 11
-9.3899690545
 21
10.6350309455
  0
LINE
  5
482
100
AcDbEntity
  8
DRAFT
100
AcDbLine
 62
7
  6
CONTINUOUS
 10
21.7822580645
 20
10.6357261039
 11
21.2
 21
10.6357261039
  0
LINE
  5
483
100
AcDbEntity
  8
DRAFT
100
AcDbLine
 62
7
  6
CONTINUOUS
 10
-21.15
 20
10.6357261039
 11
-21.7322580645
 21
10.6357261039
  0
LINE
  5
484
100
AcDbEntity
  8
RACCORDO
100
AcDbLine
 62
250
  6
CONTINUOUS
 10
-1.425
 20
10.65
 11
-3.225
 21
10.65
  0
LINE
  5
485
100
AcDbEntity
  8
RACCORDO
100
AcDbLine
 62
250
  6
CONTINUOUS
 10
10.275
 20
10.65
 11
12.075
 21
10.65
  0
LINE
  5
486
100
AcDbEntity
  8
DRAFT
100
AcDbLine
 62
7
  6
CONTINUOUS
 10
18.2202026989
 20
10.6547973011
 11
17.65
 21
10.6547973011
  0
LINE
  5
487
100
AcDbEntity
  8
RACCORDO
100
AcDbLine
 62
7
  6
CONTINUOUS
 10
-9.925
 20
10.6577644361
 11
-3.075
 21
10.6577644361
  0
LINE
  5
488
100
AcDbEntity
  8
RACCORDO
100
AcDbLine
 62
7
  6
CONTINUOUS
 10
-1.575
 20
10.6577644361
 11
10.425
 21
10.6577644361
  0
LINE
  5
489
100
AcDbEntity
  8
RACCORDO
100
AcDbLine
 62
7
  6
CONTINUOUS
 10
11.925
 20
10.6577644361
 11
17.725
 21
10.6577644361
  0
LINE
  5
48A
100
AcDbEntity
  8
DRAFT
100
AcDbLine
 62
7
  6
CONTINUOUS
 10
-18.225
 20
10.6632187285
 11
-9.925
 21
10.6632187285
  0
LINE
  5
48B
100
AcDbEntity
  8
DRAFT
100
AcDbLine
 62
7
  6
CONTINUOUS
 10
22.0
 20
10.675
 11
21.1607261039
 21
10.675
  0
LINE
  5
48C
100
AcDbEntity
  8
DRAFT
100
AcDbLine
 62
7
  6
CONTINUOUS
 10
-20.575
 20
10.675
 11
-20.475
 21
10.675
  0
LINE
  5
48D
100
AcDbEntity
  8
DRAFT
100
AcDbLine
 62
7
  6
CONTINUOUS
 10
18.575
 20
10.675
 11
20.625
 21
10.675
  0
LINE
  5
48E
100
AcDbEntity
  8
DRAFT
100
AcDbLine
 62
7
  6
CONTINUOUS
 10
-21.1107261039
 20
10.675
 11
-21.95
 21
10.675
  0
LINE
  5
48F
100
AcDbEntity
  8
DRAFT
100
AcDbLine
 62
7
  6
CONTINUOUS
 10
-9.925
 20
11.2155262468
 11
17.725
 21
11.2155262468
  0
LINE
  5
490
100
AcDbEntity
  8
DRAFT
100
AcDbLine
 62
7
  6
CONTINUOUS
 10
-18.225
 20
11.2264356623
 11
-9.925
 21
11.2264356623
  0
LINE
  5
491
100
AcDbEntity
  8
RACCORDO
100
AcDbLine
 62
7
  6
CONTINUOUS
 10
-21.6992543082
 20
11.25
 11
-20.475
 21
11.25
  0
LINE
  5
492
100
AcDbEntity
  8
RACCORDO
100
AcDbLine
 62
7
  6
CONTINUOUS
 10
18.575
 20
11.25
 11
21.7492543082
 21
11.25
  0
LINE
  5
493
100
AcDbEntity
  8
DRAFT
100
AcDbLine
 62
7
  6
CONTINUOUS
 10
-20.475
 20
10.675
 11
-18.225
 21
10.6632187285
  0
LINE
  5
494
100
AcDbEntity
  8
DRAFT
100
AcDbLine
 62
7
  6
CONTINUOUS
 10
-20.475
 20
11.25
 11
-18.225
 21
11.2264356623
  0
LINE
  5
495
100
AcDbEntity
  8
DRAFT
100
AcDbLine
 62
7
  6
CONTINUOUS
 10
-21.2107171139
 20
10.2107261039
 11
-22.0159334106
 21
10.25
  0
LINE
  5
496
100
AcDbEntity
  8
DRAFT
100
AcDbLine
 62
7
  6
CONTINUOUS
 10
-15.6072831091
 20
19.9911422292
 11
-15.625
 21
20.0
  0
LINE
  5
497
100
AcDbEntity
  8
DRAFT
100
AcDbLine
 62
7
  6
CONTINUOUS
 10
-15.2037109802
 20
19.9846942213
 11
-15.2166079783
 21
19.9911422292
  0
LINE
  5
498
100
AcDbEntity
  8
DRAFT
100
AcDbLine
 62
7
  6
CONTINUOUS
 10
20.5856351077
 20
-5.9606351077
 11
20.6047973011
 21
-5.9797973011
  0
LINE
  5
499
100
AcDbEntity
  8
DRAFT
100
AcDbLine
 62
7
  6
CONTINUOUS
 10
18.2490718395
 20
-1.8740718395
 11
18.2202026989
 21
-1.8452026989
  0
LINE
  5
49A
100
AcDbEntity
  8
DRAFT
100
AcDbLine
 62
7
  6
CONTINUOUS
 10
18.599151635
 20
-5.9797973011
 11
18.5791044742
 21
-5.9515265528
  0
LINE
  5
49B
100
AcDbEntity
  8
RACCORDO
100
AcDbLine
 62
250
  6
CONTINUOUS
 10
11.925
 20
-23.1577644361
 11
11.925
 21
-22.95
  0
LINE
  5
49C
100
AcDbEntity
  8
RACCORDO
100
AcDbLine
 62
250
  6
CONTINUOUS
 10
11.925
 20
-14.55
 11
11.925
 21
-14.3422355639
  0
LINE
  5
49D
100
AcDbEntity
  8
RACCORDO
100
AcDbLine
 62
250
  6
CONTINUOUS
 10
11.925
 20
-10.6577644361
 11
11.925
 21
-10.45
  0
LINE
  5
49E
100
AcDbEntity
  8
RACCORDO
100
AcDbLine
 62
250
  6
CONTINUOUS
 10
11.925
 20
-2.05
 11
11.925
 21
-1.8422355639
  0
LINE
  5
49F
100
AcDbEntity
  8
RACCORDO
100
AcDbLine
 62
250
  6
CONTINUOUS
 10
11.925
 20
1.8422355639
 11
11.925
 21
2.05
  0
LINE
  5
4A0
100
AcDbEntity
  8
RACCORDO
100
AcDbLine
 62
250
  6
CONTINUOUS
 10
11.925
 20
10.45
 11
11.925
 21
10.6577644361
  0
LINE
  5
4A1
100
AcDbEntity
  8
RACCORDO
100
AcDbLine
 62
250
  6
CONTINUOUS
 10
11.925
 20
14.3422355639
 11
11.925
 21
14.55
  0
LINE
  5
4A2
100
AcDbEntity
  8
RACCORDO
100
AcDbLine
 62
250
  6
CONTINUOUS
 10
11.925
 20
22.95
 11
11.925
 21
23.1577644361
  0
LINE
  5
4A3
100
AcDbEntity
  8
RACCORDO
100
AcDbLine
 62
7
  6
CONTINUOUS
 10
12.075
 20
-23.1564554059
 11
12.075
 21
-23.1
  0
LINE
  5
4A4
100
AcDbEntity
  8
RACCORDO
100
AcDbLine
 62
7
  6
CONTINUOUS
 10
12.075
 20
-14.4
 11
12.075
 21
-14.3435445941
  0
LINE
  5
4A5
100
AcDbEntity
  8
RACCORDO
100
AcDbLine
 62
7
  6
CONTINUOUS
 10
12.075
 20
-10.6564554059
 11
12.075
 21
-10.6
  0
LINE
  5
4A6
100
AcDbEntity
  8
RACCORDO
100
AcDbLine
 62
7
  6
CONTINUOUS
 10
12.075
 20
-1.9
 11
12.075
 21
-1.8435445941
  0
LINE
  5
4A7
100
AcDbEntity
  8
RACCORDO
100
AcDbLine
 62
7
  6
CONTINUOUS
 10
12.075
 20
1.8435445941
 11
12.075
 21
1.9
  0
LINE
  5
4A8
100
AcDbEntity
  8
RACCORDO
100
AcDbLine
 62
7
  6
CONTINUOUS
 10
12.075
 20
10.6
 11
12.075
 21
10.6564554059
  0
LINE
  5
4A9
100
AcDbEntity
  8
RACCORDO
100
AcDbLine
 62
7
  6
CONTINUOUS
 10
12.075
 20
14.3435445941
 11
12.075
 21
14.4
  0
LINE
  5
4AA
100
AcDbEntity
  8
RACCORDO
100
AcDbLine
 62
7
  6
CONTINUOUS
 10
12.075
 20
23.1
 11
12.075
 21
23.1564554059
  0
LINE
  5
4AB
100
AcDbEntity
  8
DRAFT
100
AcDbLine
 62
7
  6
CONTINUOUS
 10
20.200848365
 20
6.5202026989
 11
20.2150725417
 21
6.5401897811
  0
LINE
  5
4AC
100
AcDbEntity
  8
DRAFT
100
AcDbLine
 62
7
  6
CONTINUOUS
 10
21.2
 20
1.8642738961
 11
21.1607261039
 21
1.825
  0
LINE
  5
4AD
100
AcDbEntity
  8
DRAFT
100
AcDbLine
 62
7
  6
CONTINUOUS
 10
-20.475
 20
13.75
 11
-18.225
 21
13.7735643377
  0
LINE
  5
4AE
100
AcDbEntity
  8
DRAFT
100
AcDbLine
 62
7
  6
CONTINUOUS
 10
-20.475
 20
14.325
 11
-18.225
 21
14.3367812715
  0
LINE
  5
4AF
100
AcDbEntity
  8
RACCORDO
100
AcDbLine
 62
7
  6
CONTINUOUS
 10
21.7492543082
 20
13.75
 11
18.575
 21
13.75
  0
LINE
  5
4B0
100
AcDbEntity
  8
RACCORDO
100
AcDbLine
 62
7
  6
CONTINUOUS
 10
-20.475
 20
13.75
 11
-21.6992543082
 21
13.75
  0
LINE
  5
4B1
100
AcDbEntity
  8
DRAFT
100
AcDbLine
 62
7
  6
CONTINUOUS
 10
-18.225
 20
13.7735643377
 11
-9.925
 21
13.7735643377
  0
LINE
  5
4B2
100
AcDbEntity
  8
DRAFT
100
AcDbLine
 62
7
  6
CONTINUOUS
 10
17.725
 20
13.7844737532
 11
-9.925
 21
13.7844737532
  0
LINE
  5
4B3
100
AcDbEntity
  8
DRAFT
100
AcDbLine
 62
7
  6
CONTINUOUS
 10
22.0
 20
14.325
 11
21.1607261039
 21
14.325
  0
LINE
  5
4B4
100
AcDbEntity
  8
DRAFT
100
AcDbLine
 62
7
  6
CONTINUOUS
 10
20.625
 20
14.325
 11
18.575
 21
14.325
  0
LINE
  5
4B5
100
AcDbEntity
  8
DRAFT
100
AcDbLine
 62
7
  6
CONTINUOUS
 10
-20.475
 20
14.325
 11
-20.575
 21
14.325
  0
LINE
  5
4B6
100
AcDbEntity
  8
DRAFT
100
AcDbLine
 62
7
  6
CONTINUOUS
 10
-21.1107261039
 20
14.325
 11
-21.95
 21
14.325
  0
LINE
  5
4B7
100
AcDbEntity
  8
DRAFT
100
AcDbLine
 62
7
  6
CONTINUOUS
 10
-18.225
 20
14.3367812715
 11
-9.925
 21
14.3367812715
  0
LINE
  5
4B8
100
AcDbEntity
  8
RACCORDO
100
AcDbLine
 62
7
  6
CONTINUOUS
 10
17.725
 20
14.3422355639
 11
11.925
 21
14.3422355639
  0
LINE
  5
4B9
100
AcDbEntity
  8
RACCORDO
100
AcDbLine
 62
7
  6
CONTINUOUS
 10
10.425
 20
14.3422355639
 11
-1.575
 21
14.3422355639
  0
LINE
  5
4BA
100
AcDbEntity
  8
RACCORDO
100
AcDbLine
 62
7
  6
CONTINUOUS
 10
-3.075
 20
14.3422355639
 11
-9.925
 21
14.3422355639
  0
LINE
  5
4BB
100
AcDbEntity
  8
RACCORDO
100
AcDbLine
 62
250
  6
CONTINUOUS
 10
-1.425
 20
14.35
 11
-3.225
 21
14.35
  0
LINE
  5
4BC
100
AcDbEntity
  8
RACCORDO
100
AcDbLine
 62
250
  6
CONTINUOUS
 10
10.275
 20
14.35
 11
12.075
 21
14.35
  0
LINE
  5
4BD
100
AcDbEntity
  8
DRAFT
100
AcDbLine
 62
7
  6
CONTINUOUS
 10
17.65
 20
14.3626564345
 11
18.2376564345
 21
14.3626564345
  0
LINE
  5
4BE
100
AcDbEntity
  8
DRAFT
100
AcDbLine
 62
7
  6
CONTINUOUS
 10
21.7822580645
 20
14.3642738961
 11
21.2
 21
14.3642738961
  0
LINE
  5
4BF
100
AcDbEntity
  8
DRAFT
100
AcDbLine
 62
7
  6
CONTINUOUS
 10
-21.15
 20
14.3642738961
 11
-21.7322580645
 21
14.3642738961
  0
LINE
  5
4C0
100
AcDbEntity
  8
DRAFT
100
AcDbLine
 62
7
  6
CONTINUOUS
 10
-9.4074227901
 20
14.3824227901
 11
-8.8
 21
14.3824227901
  0
LINE
  5
4C1
100
AcDbEntity
  8
0
100
AcDbLine
 62
7
  6
CONTINUOUS
 10
17.425
 20
14.5
 11
12.0367710127
 21
14.5
  0
LINE
  5
4C2
100
AcDbEntity
  8
0
100
AcDbLine
 62
7
  6
CONTINUOUS
 10
10.3132289873
 20
14.5
 11
-1.4632289873
 21
14.5
  0
LINE
  5
4C3
100
AcDbEntity
  8
0
100
AcDbLine
 62
7
  6
CONTINUOUS
 10
-3.1867710127
 20
14.5
 11
-8.575
 21
14.5
  0
LINE
  5
4C4
100
AcDbEntity
  8
RACCORDO
100
AcDbLine
 62
7
  6
CONTINUOUS
 10
11.925
 20
14.55
 11
10.425
 21
14.55
  0
LINE
  5
4C5
100
AcDbEntity
  8
RACCORDO
100
AcDbLine
 62
7
  6
CONTINUOUS
 10
-1.575
 20
14.55
 11
-3.075
 21
14.55
  0
LINE
  5
4C6
100
AcDbEntity
  8
DRAFT
100
AcDbLine
 62
7
  6
CONTINUOUS
 10
-22.0159334106
 20
14.75
 11
-22.05
 21
14.7502128042
  0
LINE
  5
4C7
100
AcDbEntity
  8
DRAFT
100
AcDbLine
 62
7
  6
CONTINUOUS
 10
17.725
 20
13.7844737532
 11
18.575
 21
13.75
  0
LINE
  5
4C8
100
AcDbEntity
  8
DRAFT
100
AcDbLine
 62
7
  6
CONTINUOUS
 10
21.1607261039
 20
-1.825
 11
21.2
 21
-1.8642738961
  0
LINE
  5
4C9
100
AcDbEntity
  8
DRAFT
100
AcDbLine
 62
7
  6
CONTINUOUS
 10
20.200848365
 20
-6.5202026989
 11
20.2150725417
 21
-6.5401897811
  0
LINE
  5
4CA
100
AcDbEntity
  8
0
100
AcDbLine
 62
7
  6
CONTINUOUS
 10
17.425
 20
23.0
 11
17.425
 21
14.5
  0
LINE
  5
4CB
100
AcDbEntity
  8
0
100
AcDbLine
 62
7
  6
CONTINUOUS
 10
17.425
 20
10.5
 11
17.425
 21
2.0
  0
LINE
  5
4CC
100
AcDbEntity
  8
0
100
AcDbLine
 62
7
  6
CONTINUOUS
 10
17.425
 20
-2.0
 11
17.425
 21
-10.5
  0
LINE
  5
4CD
100
AcDbEntity
  8
0
100
AcDbLine
 62
7
  6
CONTINUOUS
 10
17.425
 20
-14.5
 11
17.425
 21
-23.0
  0
LINE
  5
4CE
100
AcDbEntity
  8
DRAFT
100
AcDbLine
 62
7
  6
CONTINUOUS
 10
20.625
 20
-1.825
 11
20.5856351077
 21
-1.8643648923
  0
LINE
  5
4CF
100
AcDbEntity
  8
DRAFT
100
AcDbLine
 62
7
  6
CONTINUOUS
 10
18.2490718395
 20
-5.9509281605
 11
18.2202026989
 21
-5.9797973011
  0
LINE
  5
4D0
100
AcDbEntity
  8
DRAFT
100
AcDbLine
 62
7
  6
CONTINUOUS
 10
-21.2107171139
 20
14.7892738961
 11
-22.0159334106
 21
14.75
  0
LINE
  5
4D1
100
AcDbEntity
  8
DRAFT
100
AcDbLine
 62
7
  6
CONTINUOUS
 10
22.05
 20
14.85
 11
21.7
 21
14.85
  0
LINE
  5
4D2
100
AcDbEntity
  8
DRAFT
100
AcDbLine
 62
7
  6
CONTINUOUS
 10
-8.8
 20
15.325
 11
-9.4074227901
 21
15.325
  0
LINE
  5
4D3
100
AcDbEntity
  8
DRAFT
100
AcDbLine
 62
7
  6
CONTINUOUS
 10
17.65
 20
15.625
 11
18.2376564345
 21
15.625
  0
LINE
  5
4D4
100
AcDbEntity
  8
DRAFT
100
AcDbLine
 62
7
  6
CONTINUOUS
 10
22.05
 20
17.35
 11
21.7
 21
17.35
  0
LINE
  5
4D5
100
AcDbEntity
  8
DRAFT
100
AcDbLine
 62
7
  6
CONTINUOUS
 10
17.725
 20
14.3422355639
 11
18.575
 21
14.325
  0
LINE
  5
4D6
100
AcDbEntity
  8
DRAFT
100
AcDbLine
 62
7
  6
CONTINUOUS
 10
21.7
 20
14.8665823117
 11
21.4361111111
 21
14.8831646234
  0
LINE
  5
4D7
100
AcDbEntity
  8
DRAFT
100
AcDbLine
 62
7
  6
CONTINUOUS
 10
20.625
 20
1.825
 11
20.5856351077
 21
1.8643648923
  0
LINE
  5
4D8
100
AcDbEntity
  8
DRAFT
100
AcDbLine
 62
7
  6
CONTINUOUS
 10
18.2490718395
 20
5.9509281605
 11
18.2202026989
 21
5.9797973011
  0
LINE
  5
4D9
100
AcDbEntity
  8
DRAFT
100
AcDbLine
 62
7
  6
CONTINUOUS
 10
17.65
 20
-23.1373435655
 11
17.65
 21
-14.3452026989
  0
LINE
  5
4DA
100
AcDbEntity
  8
DRAFT
100
AcDbLine
 62
7
  6
CONTINUOUS
 10
17.65
 20
-10.6373435655
 11
17.65
 21
-1.8452026989
  0
LINE
  5
4DB
100
AcDbEntity
  8
DRAFT
100
AcDbLine
 62
7
  6
CONTINUOUS
 10
17.65
 20
1.8626564345
 11
17.65
 21
10.6547973011
  0
LINE
  5
4DC
100
AcDbEntity
  8
DRAFT
100
AcDbLine
 62
7
  6
CONTINUOUS
 10
17.65
 20
14.3626564345
 11
17.65
 21
23.1547973011
  0
LINE
  5
4DD
100
AcDbEntity
  8
DRAFT
100
AcDbLine
 62
7
  6
CONTINUOUS
 10
17.725
 20
23.7155262468
 11
17.725
 21
23.1577644361
  0
LINE
  5
4DE
100
AcDbEntity
  8
DRAFT
100
AcDbLine
 62
7
  6
CONTINUOUS
 10
17.725
 20
14.3422355639
 11
17.725
 21
13.7844737532
  0
LINE
  5
4DF
100
AcDbEntity
  8
DRAFT
100
AcDbLine
 62
7
  6
CONTINUOUS
 10
17.725
 20
11.2155262468
 11
17.725
 21
10.6577644361
  0
LINE
  5
4E0
100
AcDbEntity
  8
DRAFT
100
AcDbLine
 62
7
  6
CONTINUOUS
 10
17.725
 20
1.8422355639
 11
17.725
 21
1.2844737532
  0
LINE
  5
4E1
100
AcDbEntity
  8
DRAFT
100
AcDbLine
 62
7
  6
CONTINUOUS
 10
17.725
 20
-1.2844737532
 11
17.725
 21
-1.8422355639
  0
LINE
  5
4E2
100
AcDbEntity
  8
DRAFT
100
AcDbLine
 62
7
  6
CONTINUOUS
 10
17.725
 20
-10.6577644361
 11
17.725
 21
-11.2155262468
  0
LINE
  5
4E3
100
AcDbEntity
  8
DRAFT
100
AcDbLine
 62
7
  6
CONTINUOUS
 10
17.725
 20
-13.7844737532
 11
17.725
 21
-14.3422355639
  0
LINE
  5
4E4
100
AcDbEntity
  8
DRAFT
100
AcDbLine
 62
7
  6
CONTINUOUS
 10
17.725
 20
-23.1577644361
 11
17.725
 21
-23.7155262468
  0
LINE
  5
4E5
100
AcDbEntity
  8
DRAFT
100
AcDbLine
 62
7
  6
CONTINUOUS
 10
18.2202026989
 20
-21.875
 11
18.2202026989
 21
-19.0202026989
  0
LINE
  5
4E6
100
AcDbEntity
  8
DRAFT
100
AcDbLine
 62
7
  6
CONTINUOUS
 10
18.2202026989
 20
-18.4797973011
 11
18.2202026989
 21
-14.3452026989
  0
LINE
  5
4E7
100
AcDbEntity
  8
DRAFT
100
AcDbLine
 62
7
  6
CONTINUOUS
 10
18.2202026989
 20
-9.375
 11
18.2202026989
 21
-6.5202026989
  0
LINE
  5
4E8
100
AcDbEntity
  8
DRAFT
100
AcDbLine
 62
7
  6
CONTINUOUS
 10
18.2202026989
 20
-5.9797973011
 11
18.2202026989
 21
-1.8452026989
  0
LINE
  5
4E9
100
AcDbEntity
  8
DRAFT
100
AcDbLine
 62
7
  6
CONTINUOUS
 10
18.2202026989
 20
3.125
 11
18.2202026989
 21
5.9797973011
  0
LINE
  5
4EA
100
AcDbEntity
  8
DRAFT
100
AcDbLine
 62
7
  6
CONTINUOUS
 10
18.2202026989
 20
6.5202026989
 11
18.2202026989
 21
10.6547973011
  0
LINE
  5
4EB
100
AcDbEntity
  8
DRAFT
100
AcDbLine
 62
7
  6
CONTINUOUS
 10
18.2202026989
 20
15.625
 11
18.2202026989
 21
18.4797973011
  0
LINE
  5
4EC
100
AcDbEntity
  8
DRAFT
100
AcDbLine
 62
7
  6
CONTINUOUS
 10
18.2202026989
 20
19.0202026989
 11
18.2202026989
 21
23.1547973011
  0
LINE
  5
4ED
100
AcDbEntity
  8
DRAFT
100
AcDbLine
 62
7
  6
CONTINUOUS
 10
18.2376564345
 20
-23.1373435655
 11
18.2376564345
 21
-21.875
  0
LINE
  5
4EE
100
AcDbEntity
  8
DRAFT
100
AcDbLine
 62
7
  6
CONTINUOUS
 10
18.2376564345
 20
-10.6373435655
 11
18.2376564345
 21
-9.375
  0
LINE
  5
4EF
100
AcDbEntity
  8
DRAFT
100
AcDbLine
 62
7
  6
CONTINUOUS
 10
18.2376564345
 20
1.8626564345
 11
18.2376564345
 21
3.125
  0
LINE
  5
4F0
100
AcDbEntity
  8
DRAFT
100
AcDbLine
 62
7
  6
CONTINUOUS
 10
18.2376564345
 20
14.3626564345
 11
18.2376564345
 21
15.625
  0
LINE
  5
4F1
100
AcDbEntity
  8
DRAFT
100
AcDbLine
 62
7
  6
CONTINUOUS
 10
18.2490718395
 20
23.1259281605
 11
18.2490718395
 21
19.0490718395
  0
LINE
  5
4F2
100
AcDbEntity
  8
DRAFT
100
AcDbLine
 62
7
  6
CONTINUOUS
 10
18.2490718395
 20
18.4509281605
 11
18.2490718395
 21
14.3740718395
  0
LINE
  5
4F3
100
AcDbEntity
  8
DRAFT
100
AcDbLine
 62
7
  6
CONTINUOUS
 10
18.2490718395
 20
10.6259281605
 11
18.2490718395
 21
6.5490718395
  0
LINE
  5
4F4
100
AcDbEntity
  8
DRAFT
100
AcDbLine
 62
7
  6
CONTINUOUS
 10
18.2490718395
 20
5.9509281605
 11
18.2490718395
 21
1.8740718395
  0
LINE
  5
4F5
100
AcDbEntity
  8
DRAFT
100
AcDbLine
 62
7
  6
CONTINUOUS
 10
18.2490718395
 20
-1.8740718395
 11
18.2490718395
 21
-5.9509281605
  0
LINE
  5
4F6
100
AcDbEntity
  8
DRAFT
100
AcDbLine
 62
7
  6
CONTINUOUS
 10
18.2490718395
 20
-6.5490718395
 11
18.2490718395
 21
-10.6259281605
  0
LINE
  5
4F7
100
AcDbEntity
  8
DRAFT
100
AcDbLine
 62
7
  6
CONTINUOUS
 10
18.2490718395
 20
-14.3740718395
 11
18.2490718395
 21
-18.4509281605
  0
LINE
  5
4F8
100
AcDbEntity
  8
DRAFT
100
AcDbLine
 62
7
  6
CONTINUOUS
 10
18.2490718395
 20
-19.0490718395
 11
18.2490718395
 21
-23.1259281605
  0
LINE
  5
4F9
100
AcDbEntity
  8
DRAFT
100
AcDbLine
 62
7
  6
CONTINUOUS
 10
18.5718107017
 20
23.1264664349
 11
18.5718107017
 21
19.0485335651
  0
LINE
  5
4FA
100
AcDbEntity
  8
DRAFT
100
AcDbLine
 62
7
  6
CONTINUOUS
 10
18.5718107017
 20
18.4514664349
 11
18.5718107017
 21
14.3735335651
  0
LINE
  5
4FB
100
AcDbEntity
  8
DRAFT
100
AcDbLine
 62
7
  6
CONTINUOUS
 10
18.5718107017
 20
10.6264664349
 11
18.5718107017
 21
6.5485335651
  0
LINE
  5
4FC
100
AcDbEntity
  8
DRAFT
100
AcDbLine
 62
7
  6
CONTINUOUS
 10
18.5718107017
 20
5.9514664349
 11
18.5718107017
 21
1.8735335651
  0
LINE
  5
4FD
100
AcDbEntity
  8
DRAFT
100
AcDbLine
 62
7
  6
CONTINUOUS
 10
18.5718107017
 20
-1.8735335651
 11
18.5718107017
 21
-5.9514664349
  0
LINE
  5
4FE
100
AcDbEntity
  8
DRAFT
100
AcDbLine
 62
7
  6
CONTINUOUS
 10
18.5718107017
 20
-6.5485335651
 11
18.5718107017
 21
-10.6264664349
  0
LINE
  5
4FF
100
AcDbEntity
  8
DRAFT
100
AcDbLine
 62
7
  6
CONTINUOUS
 10
18.5718107017
 20
-14.3735335651
 11
18.5718107017
 21
-18.4514664349
  0
LINE
  5
500
100
AcDbEntity
  8
DRAFT
100
AcDbLine
 62
7
  6
CONTINUOUS
 10
18.5718107017
 20
-19.0485335651
 11
18.5718107017
 21
-23.1264664349
  0
LINE
  5
501
100
AcDbEntity
  8
DRAFT
100
AcDbLine
 62
7
  6
CONTINUOUS
 10
18.575
 20
-23.75
 11
18.575
 21
-23.175
  0
LINE
  5
502
100
AcDbEntity
  8
DRAFT
100
AcDbLine
 62
7
  6
CONTINUOUS
 10
18.575
 20
-14.325
 11
18.575
 21
-13.75
  0
LINE
  5
503
100
AcDbEntity
  8
DRAFT
100
AcDbLine
 62
7
  6
CONTINUOUS
 10
18.575
 20
-11.25
 11
18.575
 21
-10.675
  0
LINE
  5
504
100
AcDbEntity
  8
DRAFT
100
AcDbLine
 62
7
  6
CONTINUOUS
 10
18.575
 20
-1.825
 11
18.575
 21
-1.25
  0
LINE
  5
505
100
AcDbEntity
  8
DRAFT
100
AcDbLine
 62
7
  6
CONTINUOUS
 10
18.575
 20
1.25
 11
18.575
 21
1.825
  0
LINE
  5
506
100
AcDbEntity
  8
DRAFT
100
AcDbLine
 62
7
  6
CONTINUOUS
 10
18.575
 20
10.675
 11
18.575
 21
11.25
  0
LINE
  5
507
100
AcDbEntity
  8
DRAFT
100
AcDbLine
 62
7
  6
CONTINUOUS
 10
18.575
 20
13.75
 11
18.575
 21
14.325
  0
LINE
  5
508
100
AcDbEntity
  8
DRAFT
100
AcDbLine
 62
7
  6
CONTINUOUS
 10
18.575
 20
23.175
 11
18.575
 21
23.75
  0
LINE
  5
509
100
AcDbEntity
  8
0
100
AcDbLine
 62
7
  6
CONTINUOUS
 10
18.9427351167
 20
-27.75
 11
18.9427351167
 21
-23.75
  0
LINE
  5
50A
100
AcDbEntity
  8
0
100
AcDbLine
 62
7
  6
CONTINUOUS
 10
18.9427351167
 20
-13.75
 11
18.9427351167
 21
-11.25
  0
LINE
  5
50B
100
AcDbEntity
  8
0
100
AcDbLine
 62
7
  6
CONTINUOUS
 10
18.9427351167
 20
-1.25
 11
18.9427351167
 21
1.25
  0
LINE
  5
50C
100
AcDbEntity
  8
0
100
AcDbLine
 62
7
  6
CONTINUOUS
 10
18.9427351167
 20
11.25
 11
18.9427351167
 21
13.75
  0
LINE
  5
50D
100
AcDbEntity
  8
0
100
AcDbLine
 62
7
  6
CONTINUOUS
 10
18.9427351167
 20
23.75
 11
18.9427351167
 21
27.75
  0
LINE
  5
50E
100
AcDbEntity
  8
DRAFT
100
AcDbLine
 62
7
  6
CONTINUOUS
 10
18.599151635
 20
-6.5202026989
 11
18.5791044742
 21
-6.5484734472
  0
LINE
  5
50F
100
AcDbEntity
  8
DRAFT
100
AcDbLine
 62
7
  6
CONTINUOUS
 10
20.200848365
 20
-5.9797973011
 11
20.2150725417
 21
-5.9598102189
  0
LINE
  5
510
100
AcDbEntity
  8
DRAFT
100
AcDbLine
 62
7
  6
CONTINUOUS
 10
20.5856351077
 20
-6.5393648923
 11
20.6047973011
 21
-6.5202026989
  0
LINE
  5
511
100
AcDbEntity
  8
DRAFT
100
AcDbLine
 62
7
  6
CONTINUOUS
 10
-21.95
 20
14.325
 11
-21.7322580645
 21
14.3642738961
  0
LINE
  5
512
100
AcDbEntity
  8
DRAFT
100
AcDbLine
 62
7
  6
CONTINUOUS
 10
21.7822580645
 20
23.1357261039
 11
22.0
 21
23.175
  0
LINE
  5
513
100
AcDbEntity
  8
DRAFT
100
AcDbLine
 62
7
  6
CONTINUOUS
 10
-13.625
 20
17.5
 11
-15.625
 21
17.5
  0
LINE
  5
514
100
AcDbEntity
  8
DRAFT
100
AcDbLine
 62
7
  6
CONTINUOUS
 10
-15.6072831091
 20
17.5088577708
 11
-15.2166079783
 21
17.5088577708
  0
LINE
  5
515
100
AcDbEntity
  8
DRAFT
100
AcDbLine
 62
7
  6
CONTINUOUS
 10
-13.6403057787
 20
17.5153057787
 11
-15.2037109802
 21
17.5153057787
  0
LINE
  5
516
100
AcDbEntity
  8
DRAFT
100
AcDbLine
 62
7
  6
CONTINUOUS
 10
-15.125
 20
17.7
 11
-15.5732457325
 21
17.7
  0
LINE
  5
517
100
AcDbEntity
  8
SMUSSO
100
AcDbLine
 62
7
  6
CONTINUOUS
 10
-13.5087268678
 20
17.75
 11
-14.0087459055
 21
17.75
  0
LINE
  5
518
100
AcDbEntity
  8
RACCORDO
100
AcDbLine
 62
7
  6
CONTINUOUS
 10
-14.0087459055
 20
17.75
 11
-15.9027650843
 21
17.75
  0
LINE
  5
519
100
AcDbEntity
  8
DRAFT
100
AcDbLine
 62
7
  6
CONTINUOUS
 10
18.2202026989
 20
18.4797973011
 11
18.599151635
 21
18.4797973011
  0
LINE
  5
51A
100
AcDbEntity
  8
DRAFT
100
AcDbLine
 62
7
  6
CONTINUOUS
 10
20.200848365
 20
18.4797973011
 11
20.6047973011
 21
18.4797973011
  0
LINE
  5
51B
100
AcDbEntity
  8
RACCORDO
100
AcDbLine
 62
250
  6
CONTINUOUS
 10
-10.796859097
 20
18.75
 11
-10.975
 21
18.75
  0
LINE
  5
51C
100
AcDbEntity
  8
SMUSSO
100
AcDbLine
 62
7
  6
CONTINUOUS
 10
-13.5
 20
18.75
 11
-14.0000190377
 21
18.75
  0
LINE
  5
51D
100
AcDbEntity
  8
RACCORDO
100
AcDbLine
 62
7
  6
CONTINUOUS
 10
-14.0000190377
 20
18.75
 11
-15.9114919521
 21
18.75
  0
LINE
  5
51E
100
AcDbEntity
  8
RACCORDO
100
AcDbLine
 62
250
  6
CONTINUOUS
 10
-18.275
 20
18.75
 11
-18.4634147681
 21
18.75
  0
LINE
  5
51F
100
AcDbEntity
  8
DRAFT
100
AcDbLine
 62
7
  6
CONTINUOUS
 10
20.6047973011
 20
19.0202026989
 11
20.200848365
 21
19.0202026989
  0
LINE
  5
520
100
AcDbEntity
  8
DRAFT
100
AcDbLine
 62
7
  6
CONTINUOUS
 10
18.599151635
 20
19.0202026989
 11
18.2202026989
 21
19.0202026989
  0
LINE
  5
521
100
AcDbEntity
  8
SMUSSO
100
AcDbLine
 62
7
  6
CONTINUOUS
 10
-14.0087459055
 20
19.75
 11
-13.5087268678
 21
19.75
  0
LINE
  5
522
100
AcDbEntity
  8
RACCORDO
100
AcDbLine
 62
7
  6
CONTINUOUS
 10
-14.0087459055
 20
19.75
 11
-15.9027650843
 21
19.75
  0
LINE
  5
523
100
AcDbEntity
  8
DRAFT
100
AcDbLine
 62
7
  6
CONTINUOUS
 10
-15.125
 20
19.8
 11
-15.5732457325
 21
19.8
  0
LINE
  5
524
100
AcDbEntity
  8
DRAFT
100
AcDbLine
 62
7
  6
CONTINUOUS
 10
-15.2037109802
 20
19.9846942213
 11
-13.6403057787
 21
19.9846942213
  0
LINE
  5
525
100
AcDbEntity
  8
DRAFT
100
AcDbLine
 62
7
  6
CONTINUOUS
 10
-15.6072831091
 20
19.9911422292
 11
-15.2166079783
 21
19.9911422292
  0
LINE
  5
526
100
AcDbEntity
  8
DRAFT
100
AcDbLine
 62
7
  6
CONTINUOUS
 10
-15.625
 20
20.0
 11
-13.625
 21
20.0
  0
LINE
  5
527
100
AcDbEntity
  8
DRAFT
100
AcDbLine
 62
7
  6
CONTINUOUS
 10
22.05
 20
20.15
 11
21.7
 21
20.15
  0
LINE
  5
528
100
AcDbEntity
  8
RACCORDO
100
AcDbLine
 62
250
  6
CONTINUOUS
 10
17.65
 20
18.7499923102
 11
17.5991544352
 21
18.7500210069
  0
LINE
  5
529
100
AcDbEntity
  8
RACCORDO
100
AcDbLine
 62
250
  6
CONTINUOUS
 10
-8.8
 20
18.7499946033
 11
-8.739599375
 21
18.7499469823
  0
LINE
  5
52A
100
AcDbEntity
  8
DRAFT
100
AcDbLine
 62
7
  6
CONTINUOUS
 10
21.7822580645
 20
14.3642738961
 11
22.0
 21
14.325
  0
LINE
  5
52B
100
AcDbEntity
  8
DRAFT
100
AcDbLine
 62
7
  6
CONTINUOUS
 10
-21.95
 20
23.175
 11
-21.7322580645
 21
23.1357261039
  0
LINE
  5
52C
100
AcDbEntity
  8
DRAFT
100
AcDbLine
 62
7
  6
CONTINUOUS
 10
20.5856351077
 20
6.5393648923
 11
20.6047973011
 21
6.5202026989
  0
LINE
  5
52D
100
AcDbEntity
  8
DRAFT
100
AcDbLine
 62
7
  6
CONTINUOUS
 10
20.200848365
 20
5.9797973011
 11
20.2150725417
 21
5.9598102189
  0
LINE
  5
52E
100
AcDbEntity
  8
DRAFT
100
AcDbLine
 62
7
  6
CONTINUOUS
 10
18.599151635
 20
6.5202026989
 11
18.5791044742
 21
6.5484734472
  0
LINE
  5
52F
100
AcDbEntity
  8
DRAFT
100
AcDbLine
 62
7
  6
CONTINUOUS
 10
20.5856351077
 20
23.1356351077
 11
20.5856351077
 21
19.0393648923
  0
LINE
  5
530
100
AcDbEntity
  8
DRAFT
100
AcDbLine
 62
7
  6
CONTINUOUS
 10
20.5856351077
 20
18.4606351077
 11
20.5856351077
 21
14.3643648923
  0
LINE
  5
531
100
AcDbEntity
  8
DRAFT
100
AcDbLine
 62
7
  6
CONTINUOUS
 10
20.5856351077
 20
10.6356351077
 11
20.5856351077
 21
6.5393648923
  0
LINE
  5
532
100
AcDbEntity
  8
DRAFT
100
AcDbLine
 62
7
  6
CONTINUOUS
 10
20.5856351077
 20
5.9606351077
 11
20.5856351077
 21
1.8643648923
  0
LINE
  5
533
100
AcDbEntity
  8
DRAFT
100
AcDbLine
 62
7
  6
CONTINUOUS
 10
20.5856351077
 20
-1.8643648923
 11
20.5856351077
 21
-5.9606351077
  0
LINE
  5
534
100
AcDbEntity
  8
DRAFT
100
AcDbLine
 62
7
  6
CONTINUOUS
 10
20.5856351077
 20
-6.5393648923
 11
20.5856351077
 21
-10.6356351077
  0
LINE
  5
535
100
AcDbEntity
  8
DRAFT
100
AcDbLine
 62
7
  6
CONTINUOUS
 10
20.5856351077
 20
-14.3643648923
 11
20.5856351077
 21
-18.4606351077
  0
LINE
  5
536
100
AcDbEntity
  8
DRAFT
100
AcDbLine
 62
7
  6
CONTINUOUS
 10
20.5856351077
 20
-19.0393648923
 11
20.5856351077
 21
-23.1356351077
  0
LINE
  5
537
100
AcDbEntity
  8
DRAFT
100
AcDbLine
 62
7
  6
CONTINUOUS
 10
20.6047973011
 20
19.0202026989
 11
20.6047973011
 21
18.4797973011
  0
LINE
  5
538
100
AcDbEntity
  8
DRAFT
100
AcDbLine
 62
7
  6
CONTINUOUS
 10
20.6047973011
 20
6.5202026989
 11
20.6047973011
 21
5.9797973011
  0
LINE
  5
539
100
AcDbEntity
  8
DRAFT
100
AcDbLine
 62
7
  6
CONTINUOUS
 10
20.6047973011
 20
-5.9797973011
 11
20.6047973011
 21
-6.5202026989
  0
LINE
  5
53A
100
AcDbEntity
  8
DRAFT
100
AcDbLine
 62
7
  6
CONTINUOUS
 10
20.6047973011
 20
-18.4797973011
 11
20.6047973011
 21
-19.0202026989
  0
LINE
  5
53B
100
AcDbEntity
  8
DRAFT
100
AcDbLine
 62
7
  6
CONTINUOUS
 10
20.625
 20
23.175
 11
20.625
 21
14.325
  0
LINE
  5
53C
100
AcDbEntity
  8
DRAFT
100
AcDbLine
 62
7
  6
CONTINUOUS
 10
20.625
 20
10.675
 11
20.625
 21
1.825
  0
LINE
  5
53D
100
AcDbEntity
  8
DRAFT
100
AcDbLine
 62
7
  6
CONTINUOUS
 10
20.625
 20
-1.825
 11
20.625
 21
-10.675
  0
LINE
  5
53E
100
AcDbEntity
  8
DRAFT
100
AcDbLine
 62
7
  6
CONTINUOUS
 10
20.625
 20
-14.325
 11
20.625
 21
-23.175
  0
LINE
  5
53F
100
AcDbEntity
  8
DRAFT
100
AcDbLine
 62
7
  6
CONTINUOUS
 10
21.1607261039
 20
-23.175
 11
21.1607261039
 21
-14.325
  0
LINE
  5
540
100
AcDbEntity
  8
DRAFT
100
AcDbLine
 62
7
  6
CONTINUOUS
 10
21.1607261039
 20
-10.675
 11
21.1607261039
 21
-1.825
  0
LINE
  5
541
100
AcDbEntity
  8
DRAFT
100
AcDbLine
 62
7
  6
CONTINUOUS
 10
21.1607261039
 20
1.825
 11
21.1607261039
 21
10.675
  0
LINE
  5
542
100
AcDbEntity
  8
DRAFT
100
AcDbLine
 62
7
  6
CONTINUOUS
 10
21.1607261039
 20
14.325
 11
21.1607261039
 21
23.175
  0
LINE
  5
543
100
AcDbEntity
  8
DRAFT
100
AcDbLine
 62
7
  6
CONTINUOUS
 10
21.2
 20
-23.1357261039
 11
21.2
 21
-14.3642738961
  0
LINE
  5
544
100
AcDbEntity
  8
DRAFT
100
AcDbLine
 62
7
  6
CONTINUOUS
 10
21.2
 20
-10.6357261039
 11
21.2
 21
-1.8642738961
  0
LINE
  5
545
100
AcDbEntity
  8
DRAFT
100
AcDbLine
 62
7
  6
CONTINUOUS
 10
21.2
 20
1.8642738961
 11
21.2
 21
10.6357261039
  0
LINE
  5
546
100
AcDbEntity
  8
DRAFT
100
AcDbLine
 62
7
  6
CONTINUOUS
 10
21.2
 20
14.3642738961
 11
21.2
 21
23.1357261039
  0
LINE
  5
547
100
AcDbEntity
  8
DRAFT
100
AcDbLine
 62
7
  6
CONTINUOUS
 10
21.4361111111
 20
22.6168353766
 11
21.4361111111
 21
14.8831646234
  0
LINE
  5
548
100
AcDbEntity
  8
DRAFT
100
AcDbLine
 62
7
  6
CONTINUOUS
 10
21.4361111111
 20
10.1168353766
 11
21.4361111111
 21
2.3831646234
  0
LINE
  5
549
100
AcDbEntity
  8
DRAFT
100
AcDbLine
 62
7
  6
CONTINUOUS
 10
21.4361111111
 20
-2.3831646234
 11
21.4361111111
 21
-10.1168353766
  0
LINE
  5
54A
100
AcDbEntity
  8
DRAFT
100
AcDbLine
 62
7
  6
CONTINUOUS
 10
21.4361111111
 20
-14.8831646234
 11
21.4361111111
 21
-22.6168353766
  0
LINE
  5
54B
100
AcDbEntity
  8
0
100
AcDbLine
 62
250
  6
CONTINUOUS
 10
21.5276364025
 20
-27.75
 11
21.5276364025
 21
-23.75
  0
LINE
  5
54C
100
AcDbEntity
  8
0
100
AcDbLine
 62
250
  6
CONTINUOUS
 10
21.5276364025
 20
-13.75
 11
21.5276364025
 21
-11.25
  0
LINE
  5
54D
100
AcDbEntity
  8
0
100
AcDbLine
 62
250
  6
CONTINUOUS
 10
21.5276364025
 20
-1.25
 11
21.5276364025
 21
1.25
  0
LINE
  5
54E
100
AcDbEntity
  8
0
100
AcDbLine
 62
250
  6
CONTINUOUS
 10
21.5276364025
 20
11.25
 11
21.5276364025
 21
13.75
  0
LINE
  5
54F
100
AcDbEntity
  8
0
100
AcDbLine
 62
250
  6
CONTINUOUS
 10
21.5276364025
 20
23.75
 11
21.5276364025
 21
27.75
  0
LINE
  5
550
100
AcDbEntity
  8
0
100
AcDbLine
 62
7
  6
CONTINUOUS
 10
21.55
 20
-27.75
 11
21.55
 21
-23.75
  0
LINE
  5
551
100
AcDbEntity
  8
0
100
AcDbLine
 62
7
  6
CONTINUOUS
 10
21.55
 20
-13.75
 11
21.55
 21
-11.25
  0
LINE
  5
552
100
AcDbEntity
  8
0
100
AcDbLine
 62
7
  6
CONTINUOUS
 10
21.55
 20
-1.25
 11
21.55
 21
1.25
  0
LINE
  5
553
100
AcDbEntity
  8
0
100
AcDbLine
 62
7
  6
CONTINUOUS
 10
21.55
 20
11.25
 11
21.55
 21
13.75
  0
LINE
  5
554
100
AcDbEntity
  8
0
100
AcDbLine
 62
7
  6
CONTINUOUS
 10
21.55
 20
23.75
 11
21.55
 21
27.75
  0
LINE
  5
555
100
AcDbEntity
  8
DRAFT
100
AcDbLine
 62
7
  6
CONTINUOUS
 10
21.7
 20
-22.65
 11
21.7
 21
-14.85
  0
LINE
  5
556
100
AcDbEntity
  8
DRAFT
100
AcDbLine
 62
7
  6
CONTINUOUS
 10
21.7
 20
-10.15
 11
21.7
 21
-2.35
  0
LINE
  5
557
100
AcDbEntity
  8
DRAFT
100
AcDbLine
 62
7
  6
CONTINUOUS
 10
21.7
 20
2.35
 11
21.7
 21
10.15
  0
LINE
  5
558
100
AcDbEntity
  8
DRAFT
100
AcDbLine
 62
7
  6
CONTINUOUS
 10
21.7
 20
14.85
 11
21.7
 21
22.65
  0
LINE
  5
559
100
AcDbEntity
  8
DRAFT
100
AcDbLine
 62
7
  6
CONTINUOUS
 10
21.7822580645
 20
-23.1357261039
 11
21.7822580645
 21
-22.65
  0
LINE
  5
55A
100
AcDbEntity
  8
DRAFT
100
AcDbLine
 62
7
  6
CONTINUOUS
 10
21.7822580645
 20
-14.85
 11
21.7822580645
 21
-14.3642738961
  0
LINE
  5
55B
100
AcDbEntity
  8
DRAFT
100
AcDbLine
 62
7
  6
CONTINUOUS
 10
21.7822580645
 20
-10.6357261039
 11
21.7822580645
 21
-10.15
  0
LINE
  5
55C
100
AcDbEntity
  8
DRAFT
100
AcDbLine
 62
7
  6
CONTINUOUS
 10
21.7822580645
 20
-2.35
 11
21.7822580645
 21
-1.8642738961
  0
LINE
  5
55D
100
AcDbEntity
  8
DRAFT
100
AcDbLine
 62
7
  6
CONTINUOUS
 10
21.7822580645
 20
1.8642738961
 11
21.7822580645
 21
2.35
  0
LINE
  5
55E
100
AcDbEntity
  8
DRAFT
100
AcDbLine
 62
7
  6
CONTINUOUS
 10
21.7822580645
 20
10.15
 11
21.7822580645
 21
10.6357261039
  0
LINE
  5
55F
100
AcDbEntity
  8
DRAFT
100
AcDbLine
 62
7
  6
CONTINUOUS
 10
21.7822580645
 20
14.3642738961
 11
21.7822580645
 21
14.85
  0
LINE
  5
560
100
AcDbEntity
  8
DRAFT
100
AcDbLine
 62
7
  6
CONTINUOUS
 10
21.7822580645
 20
22.65
 11
21.7822580645
 21
23.1357261039
  0
LINE
  5
561
100
AcDbEntity
  8
0
100
AcDbLine
 62
250
  6
CONTINUOUS
 10
21.8
 20
-27.75
 11
21.8
 21
-23.7446211242
  0
LINE
  5
562
100
AcDbEntity
  8
0
100
AcDbLine
 62
250
  6
CONTINUOUS
 10
21.8
 20
-23.1389261991
 11
21.8
 21
-22.65
  0
LINE
  5
563
100
AcDbEntity
  8
0
100
AcDbLine
 62
250
  6
CONTINUOUS
 10
21.8
 20
-14.85
 11
21.8
 21
-14.3610738009
  0
LINE
  5
564
100
AcDbEntity
  8
0
100
AcDbLine
 62
250
  6
CONTINUOUS
 10
21.8
 20
-13.7553788758
 11
21.8
 21
-11.2446211242
  0
LINE
  5
565
100
AcDbEntity
  8
0
100
AcDbLine
 62
250
  6
CONTINUOUS
 10
21.8
 20
-10.6389261991
 11
21.8
 21
-10.15
  0
LINE
  5
566
100
AcDbEntity
  8
0
100
AcDbLine
 62
250
  6
CONTINUOUS
 10
21.8
 20
-2.35
 11
21.8
 21
-1.8610738009
  0
LINE
  5
567
100
AcDbEntity
  8
0
100
AcDbLine
 62
250
  6
CONTINUOUS
 10
21.8
 20
-1.2553788758
 11
21.8
 21
1.2553788758
  0
LINE
  5
568
100
AcDbEntity
  8
0
100
AcDbLine
 62
250
  6
CONTINUOUS
 10
21.8
 20
1.8610738009
 11
21.8
 21
2.35
  0
LINE
  5
569
100
AcDbEntity
  8
0
100
AcDbLine
 62
250
  6
CONTINUOUS
 10
21.8
 20
10.15
 11
21.8
 21
10.6389261991
  0
LINE
  5
56A
100
AcDbEntity
  8
0
100
AcDbLine
 62
250
  6
CONTINUOUS
 10
21.8
 20
11.2446211242
 11
21.8
 21
13.7553788758
  0
LINE
  5
56B
100
AcDbEntity
  8
0
100
AcDbLine
 62
250
  6
CONTINUOUS
 10
21.8
 20
14.3610738009
 11
21.8
 21
14.85
  0
LINE
  5
56C
100
AcDbEntity
  8
0
100
AcDbLine
 62
250
  6
CONTINUOUS
 10
21.8
 20
22.65
 11
21.8
 21
23.1389261991
  0
LINE
  5
56D
100
AcDbEntity
  8
0
100
AcDbLine
 62
250
  6
CONTINUOUS
 10
21.8
 20
23.7446211242
 11
21.8
 21
27.75
  0
LINE
  5
56E
100
AcDbEntity
  8
RACCORDO
100
AcDbLine
 62
7
  6
CONTINUOUS
 10
22.0
 20
23.5003822543
 11
22.0
 21
23.175
  0
LINE
  5
56F
100
AcDbEntity
  8
RACCORDO
100
AcDbLine
 62
7
  6
CONTINUOUS
 10
22.0
 20
11.0003822543
 11
22.0
 21
10.675
  0
LINE
  5
570
100
AcDbEntity
  8
RACCORDO
100
AcDbLine
 62
7
  6
CONTINUOUS
 10
22.0
 20
-1.4996177457
 11
22.0
 21
-1.825
  0
LINE
  5
571
100
AcDbEntity
  8
RACCORDO
100
AcDbLine
 62
7
  6
CONTINUOUS
 10
22.0
 20
-13.9996177457
 11
22.0
 21
-14.325
  0
LINE
  5
572
100
AcDbEntity
  8
RACCORDO
100
AcDbLine
 62
7
  6
CONTINUOUS
 10
22.0
 20
-23.5003822543
 11
22.0
 21
-23.175
  0
LINE
  5
573
100
AcDbEntity
  8
RACCORDO
100
AcDbLine
 62
7
  6
CONTINUOUS
 10
22.0
 20
-11.0003822543
 11
22.0
 21
-10.675
  0
LINE
  5
574
100
AcDbEntity
  8
RACCORDO
100
AcDbLine
 62
7
  6
CONTINUOUS
 10
22.0
 20
1.4996177457
 11
22.0
 21
1.825
  0
LINE
  5
575
100
AcDbEntity
  8
RACCORDO
100
AcDbLine
 62
7
  6
CONTINUOUS
 10
22.0
 20
13.9996177457
 11
22.0
 21
14.325
  0
LINE
  5
576
100
AcDbEntity
  8
0
100
AcDbLine
 62
7
  6
CONTINUOUS
 10
22.05
 20
27.75
 11
22.05
 21
-27.75
  0
LINE
  5
577
100
AcDbEntity
  8
0
100
AcDbLine
 62
250
  6
CONTINUOUS
 10
22.175
 20
27.75
 11
22.175
 21
-27.75
  0
LINE
  5
578
100
AcDbEntity
  8
DRAFT
100
AcDbLine
 62
7
  6
CONTINUOUS
 10
18.2490718395
 20
-10.6259281605
 11
18.2376564345
 21
-10.6373435655
  0
LINE
  5
579
100
AcDbEntity
  8
DRAFT
100
AcDbLine
 62
7
  6
CONTINUOUS
 10
21.2
 20
-10.6357261039
 11
21.1607261039
 21
-10.675
  0
LINE
  5
57A
100
AcDbEntity
  8
DRAFT
100
AcDbLine
 62
7
  6
CONTINUOUS
 10
21.7
 20
22.6334176883
 11
21.4361111111
 21
22.6168353766
  0
LINE
  5
57B
100
AcDbEntity
  8
DRAFT
100
AcDbLine
 62
7
  6
CONTINUOUS
 10
17.725
 20
23.7155262468
 11
18.575
 21
23.75
  0
LINE
  5
57C
100
AcDbEntity
  8
DRAFT
100
AcDbLine
 62
7
  6
CONTINUOUS
 10
17.725
 20
23.1577644361
 11
18.575
 21
23.175
  0
LINE
  5
57D
100
AcDbEntity
  8
DRAFT
100
AcDbLine
 62
7
  6
CONTINUOUS
 10
-22.0159334106
 20
22.75
 11
-22.05
 21
22.7497871958
  0
LINE
  5
57E
100
AcDbEntity
  8
DRAFT
100
AcDbLine
 62
7
  6
CONTINUOUS
 10
22.05
 20
22.65
 11
21.7
 21
22.65
  0
LINE
  5
57F
100
AcDbEntity
  8
RACCORDO
100
AcDbLine
 62
7
  6
CONTINUOUS
 10
-3.075
 20
22.95
 11
-1.575
 21
22.95
  0
LINE
  5
580
100
AcDbEntity
  8
RACCORDO
100
AcDbLine
 62
7
  6
CONTINUOUS
 10
10.425
 20
22.95
 11
11.925
 21
22.95
  0
LINE
  5
581
100
AcDbEntity
  8
0
100
AcDbLine
 62
7
  6
CONTINUOUS
 10
-8.575
 20
23.0
 11
-3.1867710127
 21
23.0
  0
LINE
  5
582
100
AcDbEntity
  8
0
100
AcDbLine
 62
7
  6
CONTINUOUS
 10
-1.4632289873
 20
23.0
 11
10.3132289873
 21
23.0
  0
LINE
  5
583
100
AcDbEntity
  8
0
100
AcDbLine
 62
7
  6
CONTINUOUS
 10
12.0367710127
 20
23.0
 11
17.425
 21
23.0
  0
LINE
  5
584
100
AcDbEntity
  8
DRAFT
100
AcDbLine
 62
7
  6
CONTINUOUS
 10
-8.8
 20
23.1350309455
 11
-9.3899690545
 21
23.1350309455
  0
LINE
  5
585
100
AcDbEntity
  8
DRAFT
100
AcDbLine
 62
7
  6
CONTINUOUS
 10
21.7822580645
 20
23.1357261039
 11
21.2
 21
23.1357261039
  0
LINE
  5
586
100
AcDbEntity
  8
DRAFT
100
AcDbLine
 62
7
  6
CONTINUOUS
 10
-21.15
 20
23.1357261039
 11
-21.7322580645
 21
23.1357261039
  0
LINE
  5
587
100
AcDbEntity
  8
RACCORDO
100
AcDbLine
 62
250
  6
CONTINUOUS
 10
-1.425
 20
23.15
 11
-3.225
 21
23.15
  0
LINE
  5
588
100
AcDbEntity
  8
RACCORDO
100
AcDbLine
 62
250
  6
CONTINUOUS
 10
10.275
 20
23.15
 11
12.075
 21
23.15
  0
LINE
  5
589
100
AcDbEntity
  8
DRAFT
100
AcDbLine
 62
7
  6
CONTINUOUS
 10
18.2202026989
 20
23.1547973011
 11
17.65
 21
23.1547973011
  0
LINE
  5
58A
100
AcDbEntity
  8
RACCORDO
100
AcDbLine
 62
7
  6
CONTINUOUS
 10
-9.925
 20
23.1577644361
 11
-3.075
 21
23.1577644361
  0
LINE
  5
58B
100
AcDbEntity
  8
RACCORDO
100
AcDbLine
 62
7
  6
CONTINUOUS
 10
-1.575
 20
23.1577644361
 11
10.425
 21
23.1577644361
  0
LINE
  5
58C
100
AcDbEntity
  8
RACCORDO
100
AcDbLine
 62
7
  6
CONTINUOUS
 10
11.925
 20
23.1577644361
 11
17.725
 21
23.1577644361
  0
LINE
  5
58D
100
AcDbEntity
  8
DRAFT
100
AcDbLine
 62
7
  6
CONTINUOUS
 10
-18.225
 20
23.1632187285
 11
-9.925
 21
23.1632187285
  0
LINE
  5
58E
100
AcDbEntity
  8
DRAFT
100
AcDbLine
 62
7
  6
CONTINUOUS
 10
22.0
 20
23.175
 11
21.1607261039
 21
23.175
  0
LINE
  5
58F
100
AcDbEntity
  8
DRAFT
100
AcDbLine
 62
7
  6
CONTINUOUS
 10
-20.575
 20
23.175
 11
-20.475
 21
23.175
  0
LINE
  5
590
100
AcDbEntity
  8
DRAFT
100
AcDbLine
 62
7
  6
CONTINUOUS
 10
18.575
 20
23.175
 11
20.625
 21
23.175
  0
LINE
  5
591
100
AcDbEntity
  8
DRAFT
100
AcDbLine
 62
7
  6
CONTINUOUS
 10
-21.1107261039
 20
23.175
 11
-21.95
 21
23.175
  0
LINE
  5
592
100
AcDbEntity
  8
DRAFT
100
AcDbLine
 62
7
  6
CONTINUOUS
 10
-20.475
 20
23.175
 11
-18.225
 21
23.1632187285
  0
LINE
  5
593
100
AcDbEntity
  8
DRAFT
100
AcDbLine
 62
7
  6
CONTINUOUS
 10
-21.2107171139
 20
22.7107261039
 11
-22.0159334106
 21
22.75
  0
LINE
  5
594
100
AcDbEntity
  8
DRAFT
100
AcDbLine
 62
7
  6
CONTINUOUS
 10
18.2490718395
 20
10.6259281605
 11
18.2202026989
 21
10.6547973011
  0
LINE
  5
595
100
AcDbEntity
  8
DRAFT
100
AcDbLine
 62
7
  6
CONTINUOUS
 10
21.1607261039
 20
10.675
 11
21.2
 21
10.6357261039
  0
LINE
  5
596
100
AcDbEntity
  8
0
100
AcDbLine
 62
250
  6
CONTINUOUS
 10
24.075
 20
27.75
 11
24.075
 21
-27.75
  0
LINE
  5
597
100
AcDbEntity
  8
0
100
AcDbLine
 62
7
  6
CONTINUOUS
 10
24.2
 20
27.75
 11
24.2
 21
-27.75
  0
LINE
  5
598
100
AcDbEntity
  8
DRAFT
100
AcDbLine
 62
7
  6
CONTINUOUS
 10
20.625
 20
-14.325
 11
20.5856351077
 21
-14.3643648923
  0
LINE
  5
599
100
AcDbEntity
  8
DRAFT
100
AcDbLine
 62
7
  6
CONTINUOUS
 10
18.2490718395
 20
-18.4509281605
 11
18.2202026989
 21
-18.4797973011
  0
LINE
  5
59A
100
AcDbEntity
  8
DRAFT
100
AcDbLine
 62
7
  6
CONTINUOUS
 10
-9.925
 20
23.7155262468
 11
17.725
 21
23.7155262468
  0
LINE
  5
59B
100
AcDbEntity
  8
DRAFT
100
AcDbLine
 62
7
  6
CONTINUOUS
 10
-18.225
 20
23.7264356623
 11
-9.925
 21
23.7264356623
  0
LINE
  5
59C
100
AcDbEntity
  8
RACCORDO
100
AcDbLine
 62
7
  6
CONTINUOUS
 10
-21.6992543082
 20
23.75
 11
-20.475
 21
23.75
  0
LINE
  5
59D
100
AcDbEntity
  8
RACCORDO
100
AcDbLine
 62
7
  6
CONTINUOUS
 10
18.575
 20
23.75
 11
21.7492543082
 21
23.75
  0
LINE
  5
59E
100
AcDbEntity
  8
DRAFT
100
AcDbLine
 62
7
  6
CONTINUOUS
 10
-20.475
 20
23.75
 11
-18.225
 21
23.7264356623
  0
LINE
  5
59F
100
AcDbEntity
  8
DRAFT
100
AcDbLine
 62
7
  6
CONTINUOUS
 10
20.625
 20
14.325
 11
20.5856351077
 21
14.3643648923
  0
LINE
  5
5A0
100
AcDbEntity
  8
DRAFT
100
AcDbLine
 62
7
  6
CONTINUOUS
 10
18.2490718395
 20
18.4509281605
 11
18.2202026989
 21
18.4797973011
  0
LINE
  5
5A1
100
AcDbEntity
  8
DRAFT
100
AcDbLine
 62
7
  6
CONTINUOUS
 10
18.599151635
 20
-19.0202026989
 11
18.5791044742
 21
-19.0484734472
  0
LINE
  5
5A2
100
AcDbEntity
  8
DRAFT
100
AcDbLine
 62
7
  6
CONTINUOUS
 10
20.200848365
 20
-18.4797973011
 11
20.2150725417
 21
-18.4598102189
  0
LINE
  5
5A3
100
AcDbEntity
  8
DRAFT
100
AcDbLine
 62
7
  6
CONTINUOUS
 10
20.5856351077
 20
-19.0393648923
 11
20.6047973011
 21
-19.0202026989
  0
LINE
  5
5A4
100
AcDbEntity
  8
0
100
AcDbLine
 62
7
  6
CONTINUOUS
 10
24.2
 20
27.75
 11
-24.2
 21
27.75
  0
LINE
  5
5A5
100
AcDbEntity
  8
DRAFT
100
AcDbLine
 62
7
  6
CONTINUOUS
 10
20.5856351077
 20
19.0393648923
 11
20.6047973011
 21
19.0202026989
  0
LINE
  5
5A6
100
AcDbEntity
  8
DRAFT
100
AcDbLine
 62
7
  6
CONTINUOUS
 10
20.200848365
 20
18.4797973011
 11
20.2150725417
 21
18.4598102189
  0
LINE
  5
5A7
100
AcDbEntity
  8
DRAFT
100
AcDbLine
 62
7
  6
CONTINUOUS
 10
18.599151635
 20
19.0202026989
 11
18.5791044742
 21
19.0484734472
  0
LINE
  5
5A8
100
AcDbEntity
  8
DRAFT
100
AcDbLine
 62
7
  6
CONTINUOUS
 10
18.2490718395
 20
-23.1259281605
 11
18.2376564345
 21
-23.1373435655
  0
LINE
  5
5A9
100
AcDbEntity
  8
DRAFT
100
AcDbLine
 62
7
  6
CONTINUOUS
 10
21.2
 20
-23.1357261039
 11
21.1607261039
 21
-23.175
  0
LINE
  5
5AA
100
AcDbEntity
  8
DRAFT
100
AcDbLine
 62
7
  6
CONTINUOUS
 10
18.2490718395
 20
23.1259281605
 11
18.2202026989
 21
23.1547973011
  0
LINE
  5
5AB
100
AcDbEntity
  8
DRAFT
100
AcDbLine
 62
7
  6
CONTINUOUS
 10
21.1607261039
 20
23.175
 11
21.2
 21
23.1357261039
  0
ARC
  5
5AC
100
AcDbEntity
  8
RACCORDO
100
AcDbCircle
 62
250
  6
CONTINUOUS
 10
-14.6142014156
 20
-6.2485565692
 40
3.7290449929
100
AcDbArc
 50
359.9778233856
 51
180.0221766058
  0
ARC
  5
5AD
100
AcDbEntity
  8
RACCORDO
100
AcDbCircle
 62
250
  6
CONTINUOUS
 10
-14.6142014156
 20
-18.7485565692
 40
3.7290449929
100
AcDbArc
 50
359.9778233856
 51
180.0221766058
  0
ARC
  5
5AE
100
AcDbEntity
  8
RACCORDO
100
AcDbCircle
 62
250
  6
CONTINUOUS
 10
-14.6142151502
 20
-6.251447159
 40
3.7290327557
100
AcDbArc
 50
179.9777660334
 51
0.0222338115
  0
ARC
  5
5AF
100
AcDbEntity
  8
RACCORDO
100
AcDbCircle
 62
250
  6
CONTINUOUS
 10
-14.6142151503
 20
-18.7514471591
 40
3.7290327556
100
AcDbArc
 50
179.9777660309
 51
0.0222338139
  0
CIRCLE
  5
5B0
100
AcDbEntity
  8
DRAFT
100
AcDbCircle
 62
7
  6
CONTINUOUS
 10
-14.625
 20
-6.2500046748
 40
3.6499873375
  0
CIRCLE
  5
5B1
100
AcDbEntity
  8
DRAFT
100
AcDbCircle
 62
7
  6
CONTINUOUS
 10
-14.625
 20
-18.7500046749
 40
3.6499873375
  0
ARC
  5
5B2
100
AcDbEntity
  8
RACCORDO
100
AcDbCircle
 62
250
  6
CONTINUOUS
 10
-5.4636013088
 20
-6.2503311898
 40
3.3661793483
100
AcDbArc
 50
157.5821970501
 51
172.3729454289
  0
ARC
  5
5B3
100
AcDbEntity
  8
RACCORDO
100
AcDbCircle
 62
250
  6
CONTINUOUS
 10
-5.4636013088
 20
-18.7503311898
 40
3.3661793483
100
AcDbArc
 50
157.5821970501
 51
172.3729454289
  0
ARC
  5
5B4
100
AcDbEntity
  8
RACCORDO
100
AcDbCircle
 62
250
  6
CONTINUOUS
 10
-5.4654567878
 20
-6.2501630709
 40
3.3642740348
100
AcDbArc
 50
187.6228261254
 51
202.4070929458
  0
ARC
  5
5B5
100
AcDbEntity
  8
RACCORDO
100
AcDbCircle
 62
250
  6
CONTINUOUS
 10
-5.4654567878
 20
-18.7501630709
 40
3.3642740348
100
AcDbArc
 50
187.6228261254
 51
202.4070929458
  0
ARC
  5
5B6
100
AcDbEntity
  8
RACCORDO
100
AcDbCircle
 62
250
  6
CONTINUOUS
 10
-5.4776187193
 20
-6.2499072575
 40
3.2619809894
100
AcDbArc
 50
161.750339556
 51
198.277582754
  0
ARC
  5
5B7
100
AcDbEntity
  8
RACCORDO
100
AcDbCircle
 62
250
  6
CONTINUOUS
 10
-5.4776187193
 20
-18.7499072575
 40
3.2619809894
100
AcDbArc
 50
161.750339556
 51
198.277582754
  0
ARC
  5
5B8
100
AcDbEntity
  8
RACCORDO
100
AcDbCircle
 62
7
  6
CONTINUOUS
 10
-5.4776411916
 20
-6.2499995393
 40
3.2538644099
100
AcDbArc
 50
162.1925383521
 51
197.7894353652
  0
ARC
  5
5B9
100
AcDbEntity
  8
RACCORDO
100
AcDbCircle
 62
7
  6
CONTINUOUS
 10
-5.4776411916
 20
-18.7499995393
 40
3.2538644099
100
AcDbArc
 50
162.1925383521
 51
197.7894353652
  0
CIRCLE
  5
5BA
100
AcDbEntity
  8
DRAFT
100
AcDbCircle
 62
7
  6
CONTINUOUS
 10
-14.625
 20
-6.25
 40
3.25
  0
CIRCLE
  5
5BB
100
AcDbEntity
  8
DRAFT
100
AcDbCircle
 62
7
  6
CONTINUOUS
 10
-14.625
 20
-18.75
 40
3.25
  0
CIRCLE
  5
5BC
100
AcDbEntity
  8
DRAFT
100
AcDbCircle
 62
7
  6
CONTINUOUS
 10
-14.625
 20
-6.25
 40
3.239526961
  0
CIRCLE
  5
5BD
100
AcDbEntity
  8
DRAFT
100
AcDbCircle
 62
7
  6
CONTINUOUS
 10
-14.625
 20
-18.75
 40
3.239526961
  0
ARC
  5
5BE
100
AcDbEntity
  8
RACCORDO
100
AcDbCircle
 62
250
  6
CONTINUOUS
 10
-5.4903865465
 20
-6.2500309653
 40
3.1506564552
100
AcDbArc
 50
168.2612749422
 51
191.679016309
  0
ARC
  5
5BF
100
AcDbEntity
  8
RACCORDO
100
AcDbCircle
 62
250
  6
CONTINUOUS
 10
-5.4903865465
 20
-18.7500309653
 40
3.1506564552
100
AcDbArc
 50
168.2612749422
 51
191.679016309
  0
ARC
  5
5C0
100
AcDbEntity
  8
RACCORDO
100
AcDbCircle
 62
7
  6
CONTINUOUS
 10
-1.575
 20
-10.6
 40
0.15
100
AcDbArc
 50
0.0
 51
90.0
  0
ARC
  5
5C1
100
AcDbEntity
  8
RACCORDO
100
AcDbCircle
 62
7
  6
CONTINUOUS
 10
-3.075
 20
-10.6
 40
0.15
100
AcDbArc
 50
90.0
 51
180.0
  0
ARC
  5
5C2
100
AcDbEntity
  8
RACCORDO
100
AcDbCircle
 62
7
  6
CONTINUOUS
 10
-1.575
 20
-1.9
 40
0.15
100
AcDbArc
 50
270.0
 51
360.0
  0
ARC
  5
5C3
100
AcDbEntity
  8
RACCORDO
100
AcDbCircle
 62
7
  6
CONTINUOUS
 10
-3.075
 20
-1.9
 40
0.15
100
AcDbArc
 50
180.0
 51
270.0
  0
ARC
  5
5C4
100
AcDbEntity
  8
RACCORDO
100
AcDbCircle
 62
7
  6
CONTINUOUS
 10
-1.575
 20
-23.1
 40
0.15
100
AcDbArc
 50
0.0
 51
90.0
  0
ARC
  5
5C5
100
AcDbEntity
  8
RACCORDO
100
AcDbCircle
 62
7
  6
CONTINUOUS
 10
-3.075
 20
-23.1
 40
0.15
100
AcDbArc
 50
90.0
 51
180.0
  0
ARC
  5
5C6
100
AcDbEntity
  8
RACCORDO
100
AcDbCircle
 62
7
  6
CONTINUOUS
 10
-1.575
 20
-14.4
 40
0.15
100
AcDbArc
 50
270.0
 51
360.0
  0
ARC
  5
5C7
100
AcDbEntity
  8
RACCORDO
100
AcDbCircle
 62
7
  6
CONTINUOUS
 10
-3.075
 20
-14.4
 40
0.15
100
AcDbArc
 50
180.0
 51
270.0
  0
ARC
  5
5C8
100
AcDbEntity
  8
RACCORDO
100
AcDbCircle
 62
250
  6
CONTINUOUS
 10
-14.6142014156
 20
18.7514434308
 40
3.7290449929
100
AcDbArc
 50
359.9778233856
 51
180.0221766058
  0
ARC
  5
5C9
100
AcDbEntity
  8
RACCORDO
100
AcDbCircle
 62
250
  6
CONTINUOUS
 10
-14.6142014156
 20
6.2514434308
 40
3.7290449929
100
AcDbArc
 50
359.9778233856
 51
180.0221766058
  0
ARC
  5
5CA
100
AcDbEntity
  8
RACCORDO
100
AcDbCircle
 62
250
  6
CONTINUOUS
 10
-14.6142151503
 20
18.7485528409
 40
3.7290327556
100
AcDbArc
 50
179.9777660309
 51
0.0222338139
  0
ARC
  5
5CB
100
AcDbEntity
  8
RACCORDO
100
AcDbCircle
 62
250
  6
CONTINUOUS
 10
-14.6142151504
 20
6.2485528407
 40
3.7290327555
100
AcDbArc
 50
179.9777660285
 51
0.0222338164
  0
CIRCLE
  5
5CC
100
AcDbEntity
  8
DRAFT
100
AcDbCircle
 62
7
  6
CONTINUOUS
 10
-14.625
 20
18.7499953252
 40
3.6499873375
  0
CIRCLE
  5
5CD
100
AcDbEntity
  8
DRAFT
100
AcDbCircle
 62
7
  6
CONTINUOUS
 10
-14.625
 20
6.2499953251
 40
3.6499873375
  0
ARC
  5
5CE
100
AcDbEntity
  8
RACCORDO
100
AcDbCircle
 62
250
  6
CONTINUOUS
 10
-5.4636013088
 20
18.7496688102
 40
3.3661793483
100
AcDbArc
 50
157.5821970501
 51
172.3729454289
  0
ARC
  5
5CF
100
AcDbEntity
  8
RACCORDO
100
AcDbCircle
 62
250
  6
CONTINUOUS
 10
-5.4636013088
 20
6.2496688102
 40
3.3661793483
100
AcDbArc
 50
157.5821970501
 51
172.3729454289
  0
ARC
  5
5D0
100
AcDbEntity
  8
RACCORDO
100
AcDbCircle
 62
250
  6
CONTINUOUS
 10
-5.4654567878
 20
18.7498369291
 40
3.3642740348
100
AcDbArc
 50
187.6228261254
 51
202.4070929458
  0
ARC
  5
5D1
100
AcDbEntity
  8
RACCORDO
100
AcDbCircle
 62
250
  6
CONTINUOUS
 10
-5.4654567878
 20
6.2498369291
 40
3.3642740348
100
AcDbArc
 50
187.6228261254
 51
202.4070929458
  0
ARC
  5
5D2
100
AcDbEntity
  8
RACCORDO
100
AcDbCircle
 62
250
  6
CONTINUOUS
 10
-5.4776187193
 20
18.7500927425
 40
3.2619809894
100
AcDbArc
 50
161.750339556
 51
198.277582754
  0
ARC
  5
5D3
100
AcDbEntity
  8
RACCORDO
100
AcDbCircle
 62
250
  6
CONTINUOUS
 10
-5.4776187193
 20
6.2500927425
 40
3.2619809894
100
AcDbArc
 50
161.750339556
 51
198.277582754
  0
ARC
  5
5D4
100
AcDbEntity
  8
RACCORDO
100
AcDbCircle
 62
7
  6
CONTINUOUS
 10
-5.4776411916
 20
18.7500004607
 40
3.2538644099
100
AcDbArc
 50
162.1925383521
 51
197.7894353652
  0
ARC
  5
5D5
100
AcDbEntity
  8
RACCORDO
100
AcDbCircle
 62
7
  6
CONTINUOUS
 10
-5.4776411916
 20
6.2500004607
 40
3.2538644099
100
AcDbArc
 50
162.1925383521
 51
197.7894353652
  0
CIRCLE
  5
5D6
100
AcDbEntity
  8
DRAFT
100
AcDbCircle
 62
7
  6
CONTINUOUS
 10
-14.625
 20
18.75
 40
3.25
  0
CIRCLE
  5
5D7
100
AcDbEntity
  8
DRAFT
100
AcDbCircle
 62
7
  6
CONTINUOUS
 10
-14.625
 20
6.25
 40
3.25
  0
CIRCLE
  5
5D8
100
AcDbEntity
  8
DRAFT
100
AcDbCircle
 62
7
  6
CONTINUOUS
 10
-14.625
 20
18.75
 40
3.239526961
  0
CIRCLE
  5
5D9
100
AcDbEntity
  8
DRAFT
100
AcDbCircle
 62
7
  6
CONTINUOUS
 10
-14.625
 20
6.25
 40
3.239526961
  0
ARC
  5
5DA
100
AcDbEntity
  8
RACCORDO
100
AcDbCircle
 62
250
  6
CONTINUOUS
 10
-5.4903865465
 20
18.7499690347
 40
3.1506564552
100
AcDbArc
 50
168.2612749422
 51
191.679016309
  0
ARC
  5
5DB
100
AcDbEntity
  8
RACCORDO
100
AcDbCircle
 62
250
  6
CONTINUOUS
 10
-5.4903865465
 20
6.2499690347
 40
3.1506564552
100
AcDbArc
 50
168.2612749422
 51
191.679016309
  0
ARC
  5
5DC
100
AcDbEntity
  8
RACCORDO
100
AcDbCircle
 62
7
  6
CONTINUOUS
 10
-1.575
 20
14.4
 40
0.15
100
AcDbArc
 50
0.0
 51
90.0
  0
ARC
  5
5DD
100
AcDbEntity
  8
RACCORDO
100
AcDbCircle
 62
7
  6
CONTINUOUS
 10
-3.075
 20
14.4
 40
0.15
100
AcDbArc
 50
90.0
 51
180.0
  0
ARC
  5
5DE
100
AcDbEntity
  8
RACCORDO
100
AcDbCircle
 62
7
  6
CONTINUOUS
 10
-1.575
 20
23.1
 40
0.15
100
AcDbArc
 50
270.0
 51
360.0
  0
ARC
  5
5DF
100
AcDbEntity
  8
RACCORDO
100
AcDbCircle
 62
7
  6
CONTINUOUS
 10
-3.075
 20
23.1
 40
0.15
100
AcDbArc
 50
180.0
 51
270.0
  0
ARC
  5
5E0
100
AcDbEntity
  8
RACCORDO
100
AcDbCircle
 62
7
  6
CONTINUOUS
 10
-1.575
 20
1.9
 40
0.15
100
AcDbArc
 50
0.0
 51
90.0
  0
ARC
  5
5E1
100
AcDbEntity
  8
RACCORDO
100
AcDbCircle
 62
7
  6
CONTINUOUS
 10
-3.075
 20
1.9
 40
0.15
100
AcDbArc
 50
90.0
 51
180.0
  0
ARC
  5
5E2
100
AcDbEntity
  8
RACCORDO
100
AcDbCircle
 62
7
  6
CONTINUOUS
 10
-1.575
 20
10.6
 40
0.15
100
AcDbArc
 50
270.0
 51
360.0
  0
ARC
  5
5E3
100
AcDbEntity
  8
RACCORDO
100
AcDbCircle
 62
7
  6
CONTINUOUS
 10
-3.075
 20
10.6
 40
0.15
100
AcDbArc
 50
180.0
 51
270.0
  0
ARC
  5
5E4
100
AcDbEntity
  8
RACCORDO
100
AcDbCircle
 62
250
  6
CONTINUOUS
 10
14.3076453717
 20
-6.2496153043
 40
3.3735282756
100
AcDbArc
 50
337.5431767409
 51
352.2048538614
  0
ARC
  5
5E5
100
AcDbEntity
  8
RACCORDO
100
AcDbCircle
 62
250
  6
CONTINUOUS
 10
14.3076453717
 20
-18.7496153043
 40
3.3735282756
100
AcDbArc
 50
337.5431767409
 51
352.2048538614
  0
ARC
  5
5E6
100
AcDbEntity
  8
RACCORDO
100
AcDbCircle
 62
250
  6
CONTINUOUS
 10
14.3086809044
 20
-6.2501188053
 40
3.3724670438
100
AcDbArc
 50
7.7931637957
 51
22.444888199
  0
ARC
  5
5E7
100
AcDbEntity
  8
RACCORDO
100
AcDbCircle
 62
250
  6
CONTINUOUS
 10
14.3086809044
 20
-18.7501188053
 40
3.3724670438
100
AcDbArc
 50
7.7931637957
 51
22.444888199
  0
ARC
  5
5E8
100
AcDbEntity
  8
RACCORDO
100
AcDbCircle
 62
250
  6
CONTINUOUS
 10
14.3300435682
 20
-6.2500970341
 40
3.2691109502
100
AcDbArc
 50
341.2553702876
 51
18.7528886657
  0
ARC
  5
5E9
100
AcDbEntity
  8
RACCORDO
100
AcDbCircle
 62
250
  6
CONTINUOUS
 10
14.3300435682
 20
-18.7500970341
 40
3.2691109502
100
AcDbArc
 50
341.2553702876
 51
18.7528886657
  0
ARC
  5
5EA
100
AcDbEntity
  8
RACCORDO
100
AcDbCircle
 62
7
  6
CONTINUOUS
 10
14.3299086993
 20
-6.2500019853
 40
3.2609083268
100
AcDbArc
 50
341.7007689568
 51
18.3113324188
  0
ARC
  5
5EB
100
AcDbEntity
  8
RACCORDO
100
AcDbCircle
 62
7
  6
CONTINUOUS
 10
14.3299086993
 20
-18.7500019853
 40
3.2609083268
100
AcDbArc
 50
341.7007689568
 51
18.3113324188
  0
ARC
  5
5EC
100
AcDbEntity
  8
RACCORDO
100
AcDbCircle
 62
250
  6
CONTINUOUS
 10
14.3507133646
 20
-6.249988952
 40
3.1577281577
100
AcDbArc
 50
346.8655824623
 51
13.1683393998
  0
ARC
  5
5ED
100
AcDbEntity
  8
RACCORDO
100
AcDbCircle
 62
250
  6
CONTINUOUS
 10
14.3507133646
 20
-18.749988952
 40
3.1577281577
100
AcDbArc
 50
346.8655824623
 51
13.1683393998
  0
ARC
  5
5EE
100
AcDbEntity
  8
DRAFT
100
AcDbCircle
 62
7
  6
CONTINUOUS
 10
19.3956408776
 20
-6.2516566445
 40
0.8699563852
100
AcDbArc
 50
19.6037190758
 51
159.8183457891
  0
ARC
  5
5EF
100
AcDbEntity
  8
DRAFT
100
AcDbCircle
 62
7
  6
CONTINUOUS
 10
19.3956408776
 20
-18.7516566445
 40
0.8699563852
100
AcDbArc
 50
19.6037190758
 51
159.8183457891
  0
ARC
  5
5F0
100
AcDbEntity
  8
DRAFT
100
AcDbCircle
 62
7
  6
CONTINUOUS
 10
19.3956408119
 20
-6.2483434408
 40
0.8699563804
100
AcDbArc
 50
200.1816504363
 51
340.3962876632
  0
ARC
  5
5F1
100
AcDbEntity
  8
DRAFT
100
AcDbCircle
 62
7
  6
CONTINUOUS
 10
19.3956408118
 20
-18.7483434407
 40
0.8699563804
100
AcDbArc
 50
200.181650438
 51
340.3962876621
  0
ARC
  5
5F2
100
AcDbEntity
  8
DRAFT
100
AcDbCircle
 62
7
  6
CONTINUOUS
 10
19.4
 20
-6.25
 40
0.8452026989
100
AcDbArc
 50
18.6441675736
 51
161.3558324264
  0
ARC
  5
5F3
100
AcDbEntity
  8
DRAFT
100
AcDbCircle
 62
7
  6
CONTINUOUS
 10
19.4
 20
-6.25
 40
0.8452026989
100
AcDbArc
 50
198.6441675736
 51
341.3558324264
  0
ARC
  5
5F4
100
AcDbEntity
  8
DRAFT
100
AcDbCircle
 62
7
  6
CONTINUOUS
 10
19.4
 20
-18.75
 40
0.8452026989
100
AcDbArc
 50
18.6441675736
 51
161.3558324264
  0
ARC
  5
5F5
100
AcDbEntity
  8
DRAFT
100
AcDbCircle
 62
7
  6
CONTINUOUS
 10
19.4
 20
-18.75
 40
0.8452026989
100
AcDbArc
 50
198.6441675736
 51
341.3558324264
  0
CIRCLE
  5
5F6
100
AcDbEntity
  8
DRAFT
100
AcDbCircle
 62
7
  6
CONTINUOUS
 10
19.4
 20
-6.25
 40
0.475
  0
CIRCLE
  5
5F7
100
AcDbEntity
  8
DRAFT
100
AcDbCircle
 62
7
  6
CONTINUOUS
 10
19.4
 20
-18.75
 40
0.475
  0
CIRCLE
  5
5F8
100
AcDbEntity
  8
DRAFT
100
AcDbCircle
 62
7
  6
CONTINUOUS
 10
19.4022252357
 20
-6.2496784512
 40
0.4516301285
  0
CIRCLE
  5
5F9
100
AcDbEntity
  8
DRAFT
100
AcDbCircle
 62
7
  6
CONTINUOUS
 10
19.4022252357
 20
-18.7496784512
 40
0.4516301285
  0
ARC
  5
5FA
100
AcDbEntity
  8
RACCORDO
100
AcDbCircle
 62
7
  6
CONTINUOUS
 10
11.925
 20
-10.6
 40
0.15
100
AcDbArc
 50
0.0
 51
90.0
  0
ARC
  5
5FB
100
AcDbEntity
  8
RACCORDO
100
AcDbCircle
 62
7
  6
CONTINUOUS
 10
10.425
 20
-10.6
 40
0.15
100
AcDbArc
 50
90.0
 51
180.0
  0
ARC
  5
5FC
100
AcDbEntity
  8
RACCORDO
100
AcDbCircle
 62
7
  6
CONTINUOUS
 10
11.925
 20
-1.9
 40
0.15
100
AcDbArc
 50
270.0
 51
360.0
  0
ARC
  5
5FD
100
AcDbEntity
  8
RACCORDO
100
AcDbCircle
 62
7
  6
CONTINUOUS
 10
10.425
 20
-1.9
 40
0.15
100
AcDbArc
 50
180.0
 51
270.0
  0
ARC
  5
5FE
100
AcDbEntity
  8
RACCORDO
100
AcDbCircle
 62
7
  6
CONTINUOUS
 10
11.925
 20
-23.1
 40
0.15
100
AcDbArc
 50
0.0
 51
90.0
  0
ARC
  5
5FF
100
AcDbEntity
  8
RACCORDO
100
AcDbCircle
 62
7
  6
CONTINUOUS
 10
10.425
 20
-23.1
 40
0.15
100
AcDbArc
 50
90.0
 51
180.0
  0
ARC
  5
600
100
AcDbEntity
  8
RACCORDO
100
AcDbCircle
 62
7
  6
CONTINUOUS
 10
11.925
 20
-14.4
 40
0.15
100
AcDbArc
 50
270.0
 51
360.0
  0
ARC
  5
601
100
AcDbEntity
  8
RACCORDO
100
AcDbCircle
 62
7
  6
CONTINUOUS
 10
10.425
 20
-14.4
 40
0.15
100
AcDbArc
 50
180.0
 51
270.0
  0
ARC
  5
602
100
AcDbEntity
  8
RACCORDO
100
AcDbCircle
 62
250
  6
CONTINUOUS
 10
14.3076453717
 20
18.7503846957
 40
3.3735282756
100
AcDbArc
 50
337.5431767409
 51
352.2048538614
  0
ARC
  5
603
100
AcDbEntity
  8
RACCORDO
100
AcDbCircle
 62
250
  6
CONTINUOUS
 10
14.3076453717
 20
6.2503846957
 40
3.3735282756
100
AcDbArc
 50
337.5431767409
 51
352.2048538614
  0
ARC
  5
604
100
AcDbEntity
  8
RACCORDO
100
AcDbCircle
 62
250
  6
CONTINUOUS
 10
14.3086809044
 20
18.7498811947
 40
3.3724670438
100
AcDbArc
 50
7.7931637957
 51
22.444888199
  0
ARC
  5
605
100
AcDbEntity
  8
RACCORDO
100
AcDbCircle
 62
250
  6
CONTINUOUS
 10
14.3086809044
 20
6.2498811947
 40
3.3724670438
100
AcDbArc
 50
7.7931637957
 51
22.444888199
  0
ARC
  5
606
100
AcDbEntity
  8
RACCORDO
100
AcDbCircle
 62
250
  6
CONTINUOUS
 10
14.3300435682
 20
18.7499029659
 40
3.2691109502
100
AcDbArc
 50
341.2553702876
 51
18.7528886657
  0
ARC
  5
607
100
AcDbEntity
  8
RACCORDO
100
AcDbCircle
 62
250
  6
CONTINUOUS
 10
14.3300435682
 20
6.2499029659
 40
3.2691109502
100
AcDbArc
 50
341.2553702876
 51
18.7528886657
  0
ARC
  5
608
100
AcDbEntity
  8
RACCORDO
100
AcDbCircle
 62
7
  6
CONTINUOUS
 10
14.3299086993
 20
18.7499980147
 40
3.2609083268
100
AcDbArc
 50
341.7007689568
 51
18.3113324188
  0
ARC
  5
609
100
AcDbEntity
  8
RACCORDO
100
AcDbCircle
 62
7
  6
CONTINUOUS
 10
14.3299086993
 20
6.2499980147
 40
3.2609083268
100
AcDbArc
 50
341.7007689568
 51
18.3113324188
  0
ARC
  5
60A
100
AcDbEntity
  8
RACCORDO
100
AcDbCircle
 62
250
  6
CONTINUOUS
 10
14.3507133646
 20
18.750011048
 40
3.1577281577
100
AcDbArc
 50
346.8655824623
 51
13.1683393998
  0
ARC
  5
60B
100
AcDbEntity
  8
RACCORDO
100
AcDbCircle
 62
250
  6
CONTINUOUS
 10
14.3507133646
 20
6.250011048
 40
3.1577281577
100
AcDbArc
 50
346.8655824623
 51
13.1683393998
  0
ARC
  5
60C
100
AcDbEntity
  8
DRAFT
100
AcDbCircle
 62
7
  6
CONTINUOUS
 10
19.3956408776
 20
18.7483433556
 40
0.8699563852
100
AcDbArc
 50
19.6037190727
 51
159.8183457921
  0
ARC
  5
60D
100
AcDbEntity
  8
DRAFT
100
AcDbCircle
 62
7
  6
CONTINUOUS
 10
19.3956408776
 20
6.2483433554
 40
0.8699563853
100
AcDbArc
 50
19.6037190826
 51
159.8183457823
  0
ARC
  5
60E
100
AcDbEntity
  8
DRAFT
100
AcDbCircle
 62
7
  6
CONTINUOUS
 10
19.3956408119
 20
18.7516565592
 40
0.8699563803
100
AcDbArc
 50
200.1816504318
 51
340.3962876665
  0
ARC
  5
60F
100
AcDbEntity
  8
DRAFT
100
AcDbCircle
 62
7
  6
CONTINUOUS
 10
19.3956408119
 20
6.2516565592
 40
0.8699563804
100
AcDbArc
 50
200.1816504357
 51
340.3962876635
  0
ARC
  5
610
100
AcDbEntity
  8
DRAFT
100
AcDbCircle
 62
7
  6
CONTINUOUS
 10
19.4
 20
18.75
 40
0.8452026989
100
AcDbArc
 50
18.6441675736
 51
161.3558324264
  0
ARC
  5
611
100
AcDbEntity
  8
DRAFT
100
AcDbCircle
 62
7
  6
CONTINUOUS
 10
19.4
 20
18.75
 40
0.8452026989
100
AcDbArc
 50
198.6441675736
 51
341.3558324264
  0
ARC
  5
612
100
AcDbEntity
  8
DRAFT
100
AcDbCircle
 62
7
  6
CONTINUOUS
 10
19.4
 20
6.25
 40
0.8452026989
100
AcDbArc
 50
18.6441675736
 51
161.3558324264
  0
ARC
  5
613
100
AcDbEntity
  8
DRAFT
100
AcDbCircle
 62
7
  6
CONTINUOUS
 10
19.4
 20
6.25
 40
0.8452026989
100
AcDbArc
 50
198.6441675736
 51
341.3558324264
  0
CIRCLE
  5
614
100
AcDbEntity
  8
DRAFT
100
AcDbCircle
 62
7
  6
CONTINUOUS
 10
19.4
 20
18.75
 40
0.475
  0
CIRCLE
  5
615
100
AcDbEntity
  8
DRAFT
100
AcDbCircle
 62
7
  6
CONTINUOUS
 10
19.4
 20
6.25
 40
0.475
  0
CIRCLE
  5
616
100
AcDbEntity
  8
DRAFT
100
AcDbCircle
 62
7
  6
CONTINUOUS
 10
19.4022252357
 20
18.7503215488
 40
0.4516301284
  0
CIRCLE
  5
617
100
AcDbEntity
  8
DRAFT
100
AcDbCircle
 62
7
  6
CONTINUOUS
 10
19.4022252357
 20
6.2503215488
 40
0.4516301285
  0
ARC
  5
618
100
AcDbEntity
  8
RACCORDO
100
AcDbCircle
 62
7
  6
CONTINUOUS
 10
11.925
 20
14.4
 40
0.15
100
AcDbArc
 50
0.0
 51
90.0
  0
ARC
  5
619
100
AcDbEntity
  8
RACCORDO
100
AcDbCircle
 62
7
  6
CONTINUOUS
 10
10.425
 20
14.4
 40
0.15
100
AcDbArc
 50
90.0
 51
180.0
  0
ARC
  5
61A
100
AcDbEntity
  8
RACCORDO
100
AcDbCircle
 62
7
  6
CONTINUOUS
 10
11.925
 20
23.1
 40
0.15
100
AcDbArc
 50
270.0
 51
360.0
  0
ARC
  5
61B
100
AcDbEntity
  8
RACCORDO
100
AcDbCircle
 62
7
  6
CONTINUOUS
 10
10.425
 20
23.1
 40
0.15
100
AcDbArc
 50
180.0
 51
270.0
  0
ARC
  5
61C
100
AcDbEntity
  8
RACCORDO
100
AcDbCircle
 62
7
  6
CONTINUOUS
 10
11.925
 20
1.9
 40
0.15
100
AcDbArc
 50
0.0
 51
90.0
  0
ARC
  5
61D
100
AcDbEntity
  8
RACCORDO
100
AcDbCircle
 62
7
  6
CONTINUOUS
 10
10.425
 20
1.9
 40
0.15
100
AcDbArc
 50
90.0
 51
180.0
  0
ARC
  5
61E
100
AcDbEntity
  8
RACCORDO
100
AcDbCircle
 62
7
  6
CONTINUOUS
 10
11.925
 20
10.6
 40
0.15
100
AcDbArc
 50
270.0
 51
360.0
  0
ARC
  5
61F
100
AcDbEntity
  8
RACCORDO
100
AcDbCircle
 62
7
  6
CONTINUOUS
 10
10.425
 20
10.6
 40
0.15
100
AcDbArc
 50
180.0
 51
270.0
  0
SPLINE
  5
620
100
AcDbEntity
  8
RACCORDO
100
AcDbSpline
 62
250
  6
CONTINUOUS
 70
0
 71
3
 72
25
 73
21
 74
0
 42
0.0000001
 43
0.0000001
 44
0.0000000001
 40
0.0
 40
0.0
 40
0.0
 40
0.0
 40
0.0628983369
 40
0.1256978641
 40
0.1883329498
 40
0.2507731586
 40
0.3130326354
 40
0.3751607608
 40
0.4372278876
 40
0.4993083287
 40
0.5614664756
 40
0.6237428438
 40
0.6861540313
 40
0.7174482655
 40
0.7487748429
 40
0.8114402635
 40
0.8742071109
 40
0.9056570573
 40
0.9371207763
 40
1.0
 40
1.0
 40
1.0
 40
1.0
 10
-18.4634147681
 20
-6.25
 30
0.0
 10
-18.4634059758
 20
-6.5020316996
 30
0.0
 10
-18.4131999323
 20
-7.0070935275
 30
0.0
 10
-18.1914416815
 20
-7.7333166994
 30
0.0
 10
-17.8322359127
 20
-8.4005446037
 30
0.0
 10
-17.3510029245
 20
-8.982876871
 30
0.0
 10
-16.7674662784
 20
-9.4594217418
 30
0.0
 10
-16.1037295414
 20
-9.8126779587
 30
0.0
 10
-15.3848579594
 20
-10.0304382522
 30
0.0
 10
-14.6373116719
 20
-10.1050094864
 30
0.0
 10
-13.8886131121
 20
-10.0331352089
 30
0.0
 10
-13.166874758
 20
-9.8171769441
 30
0.0
 10
-12.6105637522
 20
-9.5228193433
 30
0.0
 10
-12.2064032623
 20
-9.2255796918
 30
0.0
 10
-11.8324440633
 20
-8.8895973883
 30
0.0
 10
-11.429086878
 20
-8.4024646484
 30
0.0
 10
-11.1289804846
 20
-7.8451567826
 30
0.0
 10
-10.9580851287
 20
-7.3706447728
 30
0.0
 10
-10.8346109542
 20
-6.8813541491
 30
0.0
 10
-10.7968597912
 20
-6.5019551141
 30
0.0
 10
-10.796859097
 20
-6.25
 30
0.0
  0
SPLINE
  5
621
100
AcDbEntity
  8
RACCORDO
100
AcDbSpline
 62
250
  6
CONTINUOUS
 70
0
 71
3
 72
25
 73
21
 74
0
 42
0.0000001
 43
0.0000001
 44
0.0000000001
 40
0.0
 40
0.0
 40
0.0
 40
0.0
 40
0.0628729433
 40
0.0943352344
 40
0.1257845217
 40
0.1885488867
 40
0.2512158823
 40
0.3137663986
 40
0.376183959
 40
0.4384639675
 40
0.5006220714
 40
0.5627022441
 40
0.6247691418
 40
0.6868966536
 40
0.7180430014
 40
0.7492298664
 40
0.8116691643
 40
0.8743035075
 40
0.9371011252
 40
1.0
 40
1.0
 40
1.0
 40
1.0
 10
-10.796859097
 20
-6.25
 30
0.0
 10
-10.7968593172
 20
-5.9980703381
 30
0.0
 10
-10.8346065377
 20
-5.6187043005
 30
0.0
 10
-10.9580604231
 20
-5.1294412272
 30
0.0
 10
-11.1289237355
 20
-4.6549499576
 30
0.0
 10
-11.4290908672
 20
-4.0975749011
 30
0.0
 10
-11.9124513
 20
-3.5136761741
 30
0.0
 10
-12.4993486464
 20
-3.036008494
 30
0.0
 10
-13.1668015507
 20
-2.6828371847
 30
0.0
 10
-13.8886910301
 20
-2.4668712355
 30
0.0
 10
-14.6373654243
 20
-2.394956607
 30
0.0
 10
-15.3849348852
 20
-2.4696078986
 30
0.0
 10
-16.1037130164
 20
-2.6872864669
 30
0.0
 10
-16.6569582052
 20
-2.9818120012
 30
0.0
 10
-17.0587263153
 20
-3.2784277436
 30
0.0
 10
-17.430644444
 20
-3.6135727907
 30
0.0
 10
-17.8323293459
 20
-4.0995312313
 30
0.0
 10
-18.1914172444
 20
-4.7666851143
 30
0.0
 10
-18.4132104156
 20
-5.4929136882
 30
0.0
 10
-18.4634055877
 20
-5.9979664317
 30
0.0
 10
-18.4634147681
 20
-6.25
 30
0.0
  0
SPLINE
  5
622
100
AcDbEntity
  8
RACCORDO
100
AcDbSpline
 62
250
  6
CONTINUOUS
 70
0
 71
3
 72
25
 73
21
 74
0
 42
0.0000001
 43
0.0000001
 44
0.0000000001
 40
0.0
 40
0.0
 40
0.0
 40
0.0
 40
0.0628983369
 40
0.1256978641
 40
0.1883329498
 40
0.2507731586
 40
0.3130326354
 40
0.3751607608
 40
0.4372278876
 40
0.4993083287
 40
0.5614664756
 40
0.6237428438
 40
0.6861540313
 40
0.7174482655
 40
0.7487748429
 40
0.8114402635
 40
0.8742071109
 40
0.9056570573
 40
0.9371207763
 40
1.0
 40
1.0
 40
1.0
 40
1.0
 10
-18.4634147681
 20
18.75
 30
0.0
 10
-18.4634059758
 20
18.4979683004
 30
0.0
 10
-18.4131999323
 20
17.9929064725
 30
0.0
 10
-18.1914416815
 20
17.2666833006
 30
0.0
 10
-17.8322359127
 20
16.5994553963
 30
0.0
 10
-17.3510029245
 20
16.017123129
 30
0.0
 10
-16.7674662784
 20
15.5405782582
 30
0.0
 10
-16.1037295414
 20
15.1873220413
 30
0.0
 10
-15.3848579594
 20
14.9695617478
 30
0.0
 10
-14.6373116719
 20
14.8949905136
 30
0.0
 10
-13.8886131121
 20
14.9668647911
 30
0.0
 10
-13.166874758
 20
15.1828230559
 30
0.0
 10
-12.6105637522
 20
15.4771806567
 30
0.0
 10
-12.2064032623
 20
15.7744203082
 30
0.0
 10
-11.8324440633
 20
16.1104026117
 30
0.0
 10
-11.429086878
 20
16.5975353516
 30
0.0
 10
-11.1289804846
 20
17.1548432174
 30
0.0
 10
-10.9580851287
 20
17.6293552272
 30
0.0
 10
-10.8346109542
 20
18.1186458509
 30
0.0
 10
-10.7968597912
 20
18.4980448859
 30
0.0
 10
-10.796859097
 20
18.75
 30
0.0
  0
SPLINE
  5
623
100
AcDbEntity
  8
RACCORDO
100
AcDbSpline
 62
250
  6
CONTINUOUS
 70
0
 71
3
 72
25
 73
21
 74
0
 42
0.0000001
 43
0.0000001
 44
0.0000000001
 40
0.0
 40
0.0
 40
0.0
 40
0.0
 40
0.0628729433
 40
0.0943352344
 40
0.1257845217
 40
0.1885488867
 40
0.2512158823
 40
0.3137663986
 40
0.376183959
 40
0.4384639675
 40
0.5006220714
 40
0.5627022441
 40
0.6247691418
 40
0.6868966536
 40
0.7180430014
 40
0.7492298664
 40
0.8116691643
 40
0.8743035075
 40
0.9371011252
 40
1.0
 40
1.0
 40
1.0
 40
1.0
 10
-10.796859097
 20
18.75
 30
0.0
 10
-10.7968593172
 20
19.0019296619
 30
0.0
 10
-10.8346065377
 20
19.3812956995
 30
0.0
 10
-10.9580604231
 20
19.8705587728
 30
0.0
 10
-11.1289237355
 20
20.3450500424
 30
0.0
 10
-11.4290908672
 20
20.9024250989
 30
0.0
 10
-11.9124513
 20
21.4863238259
 30
0.0
 10
-12.4993486464
 20
21.963991506
 30
0.0
 10
-13.1668015507
 20
22.3171628153
 30
0.0
 10
-13.8886910301
 20
22.5331287645
 30
0.0
 10
-14.6373654243
 20
22.605043393
 30
0.0
 10
-15.3849348852
 20
22.5303921014
 30
0.0
 10
-16.1037130164
 20
22.3127135331
 30
0.0
 10
-16.6569582052
 20
22.0181879988
 30
0.0
 10
-17.0587263153
 20
21.7215722564
 30
0.0
 10
-17.430644444
 20
21.3864272093
 30
0.0
 10
-17.8323293459
 20
20.9004687687
 30
0.0
 10
-18.1914172444
 20
20.2333148857
 30
0.0
 10
-18.4132104156
 20
19.5070863118
 30
0.0
 10
-18.4634055877
 20
19.0020335683
 30
0.0
 10
-18.4634147681
 20
18.75
 30
0.0
  0
SPLINE
  5
624
100
AcDbEntity
  8
RACCORDO
100
AcDbSpline
 62
250
  6
CONTINUOUS
 70
0
 71
3
 72
25
 73
21
 74
0
 42
0.0000001
 43
0.0000001
 44
0.0000000001
 40
0.0
 40
0.0
 40
0.0
 40
0.0
 40
0.0628983369
 40
0.1256978641
 40
0.1883329498
 40
0.2507731586
 40
0.3130326354
 40
0.3751607608
 40
0.4372278876
 40
0.4993083287
 40
0.5614664756
 40
0.6237428438
 40
0.6861540313
 40
0.7174482655
 40
0.7487748429
 40
0.8114402635
 40
0.8742071109
 40
0.9056570573
 40
0.9371207763
 40
1.0
 40
1.0
 40
1.0
 40
1.0
 10
-18.4634147681
 20
6.25
 30
0.0
 10
-18.4634059758
 20
5.9979683004
 30
0.0
 10
-18.4131999323
 20
5.4929064725
 30
0.0
 10
-18.1914416815
 20
4.7666833006
 30
0.0
 10
-17.8322359127
 20
4.0994553963
 30
0.0
 10
-17.3510029245
 20
3.517123129
 30
0.0
 10
-16.7674662784
 20
3.0405782582
 30
0.0
 10
-16.1037295414
 20
2.6873220413
 30
0.0
 10
-15.3848579594
 20
2.4695617478
 30
0.0
 10
-14.6373116719
 20
2.3949905136
 30
0.0
 10
-13.8886131121
 20
2.4668647911
 30
0.0
 10
-13.166874758
 20
2.6828230559
 30
0.0
 10
-12.6105637522
 20
2.9771806567
 30
0.0
 10
-12.2064032623
 20
3.2744203082
 30
0.0
 10
-11.8324440633
 20
3.6104026117
 30
0.0
 10
-11.429086878
 20
4.0975353516
 30
0.0
 10
-11.1289804846
 20
4.6548432174
 30
0.0
 10
-10.9580851287
 20
5.1293552272
 30
0.0
 10
-10.8346109542
 20
5.6186458509
 30
0.0
 10
-10.7968597912
 20
5.9980448859
 30
0.0
 10
-10.796859097
 20
6.25
 30
0.0
  0
SPLINE
  5
625
100
AcDbEntity
  8
RACCORDO
100
AcDbSpline
 62
250
  6
CONTINUOUS
 70
0
 71
3
 72
25
 73
21
 74
0
 42
0.0000001
 43
0.0000001
 44
0.0000000001
 40
0.0
 40
0.0
 40
0.0
 40
0.0
 40
0.0628729433
 40
0.0943352344
 40
0.1257845217
 40
0.1885488867
 40
0.2512158823
 40
0.3137663986
 40
0.376183959
 40
0.4384639675
 40
0.5006220714
 40
0.5627022441
 40
0.6247691418
 40
0.6868966536
 40
0.7180430014
 40
0.7492298664
 40
0.8116691643
 40
0.8743035075
 40
0.9371011252
 40
1.0
 40
1.0
 40
1.0
 40
1.0
 10
-10.796859097
 20
6.25
 30
0.0
 10
-10.7968593172
 20
6.5019296619
 30
0.0
 10
-10.8346065377
 20
6.8812956995
 30
0.0
 10
-10.9580604231
 20
7.3705587728
 30
0.0
 10
-11.1289237355
 20
7.8450500424
 30
0.0
 10
-11.4290908672
 20
8.4024250989
 30
0.0
 10
-11.9124513
 20
8.9863238259
 30
0.0
 10
-12.4993486464
 20
9.463991506
 30
0.0
 10
-13.1668015507
 20
9.8171628153
 30
0.0
 10
-13.8886910301
 20
10.0331287645
 30
0.0
 10
-14.6373654243
 20
10.105043393
 30
0.0
 10
-15.3849348852
 20
10.0303921014
 30
0.0
 10
-16.1037130164
 20
9.8127135331
 30
0.0
 10
-16.6569582052
 20
9.5181879988
 30
0.0
 10
-17.0587263153
 20
9.2215722564
 30
0.0
 10
-17.430644444
 20
8.8864272093
 30
0.0
 10
-17.8323293459
 20
8.4004687687
 30
0.0
 10
-18.1914172444
 20
7.7333148857
 30
0.0
 10
-18.4132104156
 20
7.0070863118
 30
0.0
 10
-18.4634055877
 20
6.5020335683
 30
0.0
 10
-18.4634147681
 20
6.25
 30
0.0
  0
SPLINE
  5
626
100
AcDbEntity
  8
RACCORDO
100
AcDbSpline
 62
250
  6
CONTINUOUS
 70
0
 71
3
 72
25
 73
21
 74
0
 42
0.0000001
 43
0.0000001
 44
0.0000000001
 40
0.0
 40
0.0
 40
0.0
 40
0.0
 40
0.0628983369
 40
0.1256978641
 40
0.1883329498
 40
0.2507731586
 40
0.3130326354
 40
0.3751607608
 40
0.4372278876
 40
0.4993083287
 40
0.5614664756
 40
0.6237428438
 40
0.6861540313
 40
0.7174482655
 40
0.7487748429
 40
0.8114402635
 40
0.8742071109
 40
0.9056570573
 40
0.9371207763
 40
1.0
 40
1.0
 40
1.0
 40
1.0
 10
-18.4634147681
 20
-18.75
 30
0.0
 10
-18.4634059758
 20
-19.0020316996
 30
0.0
 10
-18.4131999323
 20
-19.5070935275
 30
0.0
 10
-18.1914416815
 20
-20.2333166994
 30
0.0
 10
-17.8322359127
 20
-20.9005446037
 30
0.0
 10
-17.3510029245
 20
-21.482876871
 30
0.0
 10
-16.7674662784
 20
-21.9594217418
 30
0.0
 10
-16.1037295414
 20
-22.3126779587
 30
0.0
 10
-15.3848579594
 20
-22.5304382522
 30
0.0
 10
-14.6373116719
 20
-22.6050094864
 30
0.0
 10
-13.8886131121
 20
-22.5331352089
 30
0.0
 10
-13.166874758
 20
-22.3171769441
 30
0.0
 10
-12.6105637522
 20
-22.0228193433
 30
0.0
 10
-12.2064032623
 20
-21.7255796918
 30
0.0
 10
-11.8324440633
 20
-21.3895973883
 30
0.0
 10
-11.429086878
 20
-20.9024646484
 30
0.0
 10
-11.1289804846
 20
-20.3451567826
 30
0.0
 10
-10.9580851287
 20
-19.8706447728
 30
0.0
 10
-10.8346109542
 20
-19.3813541491
 30
0.0
 10
-10.7968597912
 20
-19.0019551141
 30
0.0
 10
-10.796859097
 20
-18.75
 30
0.0
  0
SPLINE
  5
627
100
AcDbEntity
  8
RACCORDO
100
AcDbSpline
 62
250
  6
CONTINUOUS
 70
0
 71
3
 72
25
 73
21
 74
0
 42
0.0000001
 43
0.0000001
 44
0.0000000001
 40
0.0
 40
0.0
 40
0.0
 40
0.0
 40
0.0628729433
 40
0.0943352344
 40
0.1257845217
 40
0.1885488867
 40
0.2512158823
 40
0.3137663986
 40
0.376183959
 40
0.4384639675
 40
0.5006220714
 40
0.5627022441
 40
0.6247691418
 40
0.6868966536
 40
0.7180430014
 40
0.7492298664
 40
0.8116691643
 40
0.8743035075
 40
0.9371011252
 40
1.0
 40
1.0
 40
1.0
 40
1.0
 10
-10.796859097
 20
-18.75
 30
0.0
 10
-10.7968593172
 20
-18.4980703381
 30
0.0
 10
-10.8346065377
 20
-18.1187043005
 30
0.0
 10
-10.9580604231
 20
-17.6294412272
 30
0.0
 10
-11.1289237355
 20
-17.1549499576
 30
0.0
 10
-11.4290908672
 20
-16.5975749011
 30
0.0
 10
-11.9124513
 20
-16.0136761741
 30
0.0
 10
-12.4993486464
 20
-15.536008494
 30
0.0
 10
-13.1668015507
 20
-15.1828371847
 30
0.0
 10
-13.8886910301
 20
-14.9668712355
 30
0.0
 10
-14.6373654243
 20
-14.894956607
 30
0.0
 10
-15.3849348852
 20
-14.9696078986
 30
0.0
 10
-16.1037130164
 20
-15.1872864669
 30
0.0
 10
-16.6569582052
 20
-15.4818120012
 30
0.0
 10
-17.0587263153
 20
-15.7784277436
 30
0.0
 10
-17.430644444
 20
-16.1135727907
 30
0.0
 10
-17.8323293459
 20
-16.5995312313
 30
0.0
 10
-18.1914172444
 20
-17.2666851143
 30
0.0
 10
-18.4132104156
 20
-17.9929136882
 30
0.0
 10
-18.4634055877
 20
-18.4979664317
 30
0.0
 10
-18.4634147681
 20
-18.75
 30
0.0
  0
ELLIPSE
  5
628
100
AcDbEntity
  8
RACCORDO
100
AcDbEllipse
 62
7
  6
CONTINUOUS
 10
-21.6988320725
 20
-10.999961918
 30
0.0
 11
-0.2472166704
 21
-0.0445902247
 31
0.0
 40
0.9951998232
 41
-0.1776116889
 42
1.3915035481
  0
ELLIPSE
  5
629
100
AcDbEntity
  8
RACCORDO
100
AcDbEllipse
 62
7
  6
CONTINUOUS
 10
-21.6988320725
 20
-1.500038082
 30
0.0
 11
0.2472166704
 21
-0.0445902247
 31
0.0
 40
0.9951998232
 41
1.7500891054
 42
3.3192043424
  0
ELLIPSE
  5
62A
100
AcDbEntity
  8
RACCORDO
100
AcDbEllipse
 62
7
  6
CONTINUOUS
 10
21.7488320725
 20
-10.999961918
 30
0.0
 11
-0.2472166704
 21
0.0445902247
 31
0.0
 40
0.9951998232
 41
1.7500891054
 42
3.3192043424
  0
ELLIPSE
  5
62B
100
AcDbEntity
  8
RACCORDO
100
AcDbEllipse
 62
7
  6
CONTINUOUS
 10
21.7488320725
 20
-1.500038082
 30
0.0
 11
0.2472166704
 21
0.0445902247
 31
0.0
 40
0.9951998232
 41
-0.1776116889
 42
1.3915035481
  0
ELLIPSE
  5
62C
100
AcDbEntity
  8
RACCORDO
100
AcDbEllipse
 62
7
  6
CONTINUOUS
 10
-15.6046648494
 20
-7.4814419661
 30
0.0
 11
0.0
 21
0.15
 31
0.0
 40
0.0174550649
 41
0.0174532925
 42
1.5707963268
  0
ELLIPSE
  5
62D
100
AcDbEntity
  8
RACCORDO
100
AcDbEllipse
 62
7
  6
CONTINUOUS
 10
-15.6046648494
 20
-5.0185580339
 30
0.0
 11
0.0
 21
0.15
 31
0.0
 40
0.0174550649
 41
-4.7123889804
 42
-3.1590459461
  0
ELLIPSE
  5
62E
100
AcDbEntity
  8
DRAFT
100
AcDbEllipse
 62
7
  6
CONTINUOUS
 10
0.5397853282
 20
-6.7672248928
 30
0.0
 11
95.2
 21
-0.0
 31
0.0
 40
0.0087268678
 41
1.3802330235
 42
1.3836844957
  0
ELLIPSE
  5
62F
100
AcDbEntity
  8
DRAFT
100
AcDbEllipse
 62
7
  6
CONTINUOUS
 10
0.5397853282
 20
-5.7327751072
 30
0.0
 11
95.2
 21
0.0
 31
0.0
 40
0.0087268678
 41
-1.3836844957
 42
-1.3802330235
  0
ELLIPSE
  5
630
100
AcDbEntity
  8
DRAFT
100
AcDbEllipse
 62
7
  6
CONTINUOUS
 10
21.425
 20
-5.9251671087
 30
0.0
 11
4.15
 21
-0.0
 31
0.0
 40
0.0087268678
 41
-1.8666418925
 42
-1.7744579245
  0
ELLIPSE
  5
631
100
AcDbEntity
  8
DRAFT
100
AcDbEllipse
 62
7
  6
CONTINUOUS
 10
21.425
 20
-5.9251671087
 30
0.0
 11
4.15
 21
-0.0
 31
0.0
 40
0.0087268678
 41
-2.328858428
 42
-2.3264409102
  0
ELLIPSE
  5
632
100
AcDbEntity
  8
DRAFT
100
AcDbEllipse
 62
7
  6
CONTINUOUS
 10
21.425
 20
-6.5748328913
 30
0.0
 11
4.15
 21
0.0
 31
0.0
 40
0.0087268678
 41
2.3264409102
 42
2.328858428
  0
ELLIPSE
  5
633
100
AcDbEntity
  8
DRAFT
100
AcDbEllipse
 62
7
  6
CONTINUOUS
 10
21.425
 20
-6.5748328913
 30
0.0
 11
4.15
 21
0.0
 31
0.0
 40
0.0087268678
 41
1.7744579245
 42
1.8666418925
  0
ELLIPSE
  5
634
100
AcDbEntity
  8
DRAFT
100
AcDbEllipse
 62
7
  6
CONTINUOUS
 10
-21.375
 20
-10.6014761389
 30
0.0
 11
4.0
 21
0.0
 31
0.0
 40
0.0087268678
 41
-1.3593764113
 42
-0.9057623248
  0
ELLIPSE
  5
635
100
AcDbEntity
  8
DRAFT
100
AcDbEllipse
 62
7
  6
CONTINUOUS
 10
0.5397853282
 20
-11.4422248928
 30
0.0
 11
95.2
 21
0.0
 31
0.0
 40
0.0087268678
 41
1.6754917835
 42
1.7765135843
  0
ELLIPSE
  5
636
100
AcDbEntity
  8
DRAFT
100
AcDbEllipse
 62
7
  6
CONTINUOUS
 10
0.5397853282
 20
-11.4422248928
 30
0.0
 11
95.2
 21
0.0
 31
0.0
 40
0.0087268678
 41
1.6103535179
 42
1.6690613808
  0
ELLIPSE
  5
637
100
AcDbEntity
  8
DRAFT
100
AcDbEllipse
 62
7
  6
CONTINUOUS
 10
0.5397853282
 20
-11.4422248928
 30
0.0
 11
95.2
 21
0.0
 31
0.0
 40
0.0087268678
 41
1.4683558766
 42
1.5914365081
  0
ELLIPSE
  5
638
100
AcDbEntity
  8
DRAFT
100
AcDbEllipse
 62
7
  6
CONTINUOUS
 10
0.5397853282
 20
-11.4422248928
 30
0.0
 11
95.2
 21
0.0
 31
0.0
 40
0.0087268678
 41
1.3900852203
 42
1.4493271448
  0
ELLIPSE
  5
639
100
AcDbEntity
  8
DRAFT
100
AcDbEllipse
 62
7
  6
CONTINUOUS
 10
0.5397853282
 20
-11.4422248928
 30
0.0
 11
95.2
 21
0.0
 31
0.0
 40
0.0087268678
 41
1.3802330235
 42
1.3836844957
  0
ELLIPSE
  5
63A
100
AcDbEntity
  8
DRAFT
100
AcDbEllipse
 62
7
  6
CONTINUOUS
 10
21.425
 20
-10.6001671087
 30
0.0
 11
4.15
 21
0.0
 31
0.0
 40
0.0087268678
 41
-2.328858428
 42
-1.7744579245
  0
ELLIPSE
  5
63B
100
AcDbEntity
  8
DRAFT
100
AcDbEllipse
 62
7
  6
CONTINUOUS
 10
21.425
 20
-1.8998328913
 30
0.0
 11
4.15
 21
0.0
 31
0.0
 40
0.0087268678
 41
1.7744579245
 42
2.328858428
  0
ELLIPSE
  5
63C
100
AcDbEntity
  8
DRAFT
100
AcDbEllipse
 62
7
  6
CONTINUOUS
 10
0.5397853282
 20
-1.0577751072
 30
0.0
 11
95.2
 21
0.0
 31
0.0
 40
0.0087268678
 41
-1.3836844957
 42
-1.3802330235
  0
ELLIPSE
  5
63D
100
AcDbEntity
  8
DRAFT
100
AcDbEllipse
 62
7
  6
CONTINUOUS
 10
0.5397853282
 20
-1.0577751072
 30
0.0
 11
95.2
 21
0.0
 31
0.0
 40
0.0087268678
 41
-1.6690613808
 42
-1.6103535179
  0
ELLIPSE
  5
63E
100
AcDbEntity
  8
DRAFT
100
AcDbEllipse
 62
7
  6
CONTINUOUS
 10
0.5397853282
 20
-1.0577751072
 30
0.0
 11
95.2
 21
0.0
 31
0.0
 40
0.0087268678
 41
-1.5914365081
 42
-1.4683558766
  0
ELLIPSE
  5
63F
100
AcDbEntity
  8
DRAFT
100
AcDbEllipse
 62
7
  6
CONTINUOUS
 10
0.5397853282
 20
-1.0577751072
 30
0.0
 11
95.2
 21
0.0
 31
0.0
 40
0.0087268678
 41
-1.4493271448
 42
-1.3900852203
  0
ELLIPSE
  5
640
100
AcDbEntity
  8
DRAFT
100
AcDbEllipse
 62
7
  6
CONTINUOUS
 10
0.5397853282
 20
-1.0577751072
 30
0.0
 11
95.2
 21
0.0
 31
0.0
 40
0.0087268678
 41
-1.7765135843
 42
-1.6754917835
  0
ELLIPSE
  5
641
100
AcDbEntity
  8
DRAFT
100
AcDbEllipse
 62
7
  6
CONTINUOUS
 10
-21.375
 20
-1.8985238611
 30
0.0
 11
4.0
 21
0.0
 31
0.0
 40
0.0087268678
 41
0.9057623248
 42
1.3593764113
  0
ELLIPSE
  5
642
100
AcDbEntity
  8
RACCORDO
100
AcDbEllipse
 62
7
  6
CONTINUOUS
 10
-21.6988320725
 20
14.000038082
 30
0.0
 11
-0.2472166704
 21
-0.0445902247
 31
0.0
 40
0.9951998232
 41
-0.1776116889
 42
1.3915035481
  0
ELLIPSE
  5
643
100
AcDbEntity
  8
RACCORDO
100
AcDbEllipse
 62
7
  6
CONTINUOUS
 10
-21.6988320725
 20
23.499961918
 30
0.0
 11
0.2472166704
 21
-0.0445902247
 31
0.0
 40
0.9951998232
 41
1.7500891054
 42
3.3192043424
  0
ELLIPSE
  5
644
100
AcDbEntity
  8
RACCORDO
100
AcDbEllipse
 62
7
  6
CONTINUOUS
 10
21.7488320725
 20
14.000038082
 30
0.0
 11
-0.2472166704
 21
0.0445902247
 31
0.0
 40
0.9951998232
 41
1.7500891054
 42
3.3192043424
  0
ELLIPSE
  5
645
100
AcDbEntity
  8
RACCORDO
100
AcDbEllipse
 62
7
  6
CONTINUOUS
 10
21.7488320725
 20
23.499961918
 30
0.0
 11
0.2472166704
 21
0.0445902247
 31
0.0
 40
0.9951998232
 41
-0.1776116889
 42
1.3915035481
  0
ELLIPSE
  5
646
100
AcDbEntity
  8
RACCORDO
100
AcDbEllipse
 62
7
  6
CONTINUOUS
 10
-15.6046648494
 20
17.5185580339
 30
0.0
 11
0.0
 21
0.15
 31
0.0
 40
0.0174550649
 41
0.0174532925
 42
1.5707963268
  0
ELLIPSE
  5
647
100
AcDbEntity
  8
RACCORDO
100
AcDbEllipse
 62
7
  6
CONTINUOUS
 10
-15.6046648494
 20
19.9814419661
 30
0.0
 11
0.0
 21
0.15
 31
0.0
 40
0.0174550649
 41
-4.7123889804
 42
-3.1590459461
  0
ELLIPSE
  5
648
100
AcDbEntity
  8
DRAFT
100
AcDbEllipse
 62
7
  6
CONTINUOUS
 10
0.5397853282
 20
18.2327751072
 30
0.0
 11
95.2
 21
-0.0
 31
0.0
 40
0.0087268678
 41
1.3802330235
 42
1.3836844957
  0
ELLIPSE
  5
649
100
AcDbEntity
  8
DRAFT
100
AcDbEllipse
 62
7
  6
CONTINUOUS
 10
0.5397853282
 20
19.2672248928
 30
0.0
 11
95.2
 21
0.0
 31
0.0
 40
0.0087268678
 41
-1.3836844957
 42
-1.3802330235
  0
ELLIPSE
  5
64A
100
AcDbEntity
  8
DRAFT
100
AcDbEllipse
 62
7
  6
CONTINUOUS
 10
21.425
 20
19.0748328913
 30
0.0
 11
4.15
 21
-0.0
 31
0.0
 40
0.0087268678
 41
-1.8666418925
 42
-1.7744579245
  0
ELLIPSE
  5
64B
100
AcDbEntity
  8
DRAFT
100
AcDbEllipse
 62
7
  6
CONTINUOUS
 10
21.425
 20
19.0748328913
 30
0.0
 11
4.15
 21
-0.0
 31
0.0
 40
0.0087268678
 41
-2.328858428
 42
-2.3264409102
  0
ELLIPSE
  5
64C
100
AcDbEntity
  8
DRAFT
100
AcDbEllipse
 62
7
  6
CONTINUOUS
 10
21.425
 20
18.4251671087
 30
0.0
 11
4.15
 21
0.0
 31
0.0
 40
0.0087268678
 41
2.3264409102
 42
2.328858428
  0
ELLIPSE
  5
64D
100
AcDbEntity
  8
DRAFT
100
AcDbEllipse
 62
7
  6
CONTINUOUS
 10
21.425
 20
18.4251671087
 30
0.0
 11
4.15
 21
0.0
 31
0.0
 40
0.0087268678
 41
1.7744579245
 42
1.8666418925
  0
ELLIPSE
  5
64E
100
AcDbEntity
  8
DRAFT
100
AcDbEllipse
 62
7
  6
CONTINUOUS
 10
-21.375
 20
14.3985238611
 30
0.0
 11
4.0
 21
0.0
 31
0.0
 40
0.0087268678
 41
-1.3593764113
 42
-0.9057623248
  0
ELLIPSE
  5
64F
100
AcDbEntity
  8
DRAFT
100
AcDbEllipse
 62
7
  6
CONTINUOUS
 10
0.5397853282
 20
13.5577751072
 30
0.0
 11
95.2
 21
0.0
 31
0.0
 40
0.0087268678
 41
1.6754917835
 42
1.7765135843
  0
ELLIPSE
  5
650
100
AcDbEntity
  8
DRAFT
100
AcDbEllipse
 62
7
  6
CONTINUOUS
 10
0.5397853282
 20
13.5577751072
 30
0.0
 11
95.2
 21
0.0
 31
0.0
 40
0.0087268678
 41
1.6103535179
 42
1.6690613808
  0
ELLIPSE
  5
651
100
AcDbEntity
  8
DRAFT
100
AcDbEllipse
 62
7
  6
CONTINUOUS
 10
0.5397853282
 20
13.5577751072
 30
0.0
 11
95.2
 21
0.0
 31
0.0
 40
0.0087268678
 41
1.4683558766
 42
1.5914365081
  0
ELLIPSE
  5
652
100
AcDbEntity
  8
DRAFT
100
AcDbEllipse
 62
7
  6
CONTINUOUS
 10
0.5397853282
 20
13.5577751072
 30
0.0
 11
95.2
 21
0.0
 31
0.0
 40
0.0087268678
 41
1.3900852203
 42
1.4493271448
  0
ELLIPSE
  5
653
100
AcDbEntity
  8
DRAFT
100
AcDbEllipse
 62
7
  6
CONTINUOUS
 10
0.5397853282
 20
13.5577751072
 30
0.0
 11
95.2
 21
0.0
 31
0.0
 40
0.0087268678
 41
1.3802330235
 42
1.3836844957
  0
ELLIPSE
  5
654
100
AcDbEntity
  8
DRAFT
100
AcDbEllipse
 62
7
  6
CONTINUOUS
 10
21.425
 20
14.3998328913
 30
0.0
 11
4.15
 21
0.0
 31
0.0
 40
0.0087268678
 41
-2.328858428
 42
-1.7744579245
  0
ELLIPSE
  5
655
100
AcDbEntity
  8
DRAFT
100
AcDbEllipse
 62
7
  6
CONTINUOUS
 10
21.425
 20
23.1001671087
 30
0.0
 11
4.15
 21
0.0
 31
0.0
 40
0.0087268678
 41
1.7744579245
 42
2.328858428
  0
ELLIPSE
  5
656
100
AcDbEntity
  8
DRAFT
100
AcDbEllipse
 62
7
  6
CONTINUOUS
 10
0.5397853282
 20
23.9422248928
 30
0.0
 11
95.2
 21
0.0
 31
0.0
 40
0.0087268678
 41
-1.3836844957
 42
-1.3802330235
  0
ELLIPSE
  5
657
100
AcDbEntity
  8
DRAFT
100
AcDbEllipse
 62
7
  6
CONTINUOUS
 10
0.5397853282
 20
23.9422248928
 30
0.0
 11
95.2
 21
0.0
 31
0.0
 40
0.0087268678
 41
-1.6690613808
 42
-1.6103535179
  0
ELLIPSE
  5
658
100
AcDbEntity
  8
DRAFT
100
AcDbEllipse
 62
7
  6
CONTINUOUS
 10
0.5397853282
 20
23.9422248928
 30
0.0
 11
95.2
 21
0.0
 31
0.0
 40
0.0087268678
 41
-1.5914365081
 42
-1.4683558766
  0
ELLIPSE
  5
659
100
AcDbEntity
  8
DRAFT
100
AcDbEllipse
 62
7
  6
CONTINUOUS
 10
0.5397853282
 20
23.9422248928
 30
0.0
 11
95.2
 21
0.0
 31
0.0
 40
0.0087268678
 41
-1.4493271448
 42
-1.3900852203
  0
ELLIPSE
  5
65A
100
AcDbEntity
  8
DRAFT
100
AcDbEllipse
 62
7
  6
CONTINUOUS
 10
0.5397853282
 20
23.9422248928
 30
0.0
 11
95.2
 21
0.0
 31
0.0
 40
0.0087268678
 41
-1.7765135843
 42
-1.6754917835
  0
ELLIPSE
  5
65B
100
AcDbEntity
  8
DRAFT
100
AcDbEllipse
 62
7
  6
CONTINUOUS
 10
-21.375
 20
23.1014761389
 30
0.0
 11
4.0
 21
0.0
 31
0.0
 40
0.0087268678
 41
0.9057623248
 42
1.3593764113
  0
ELLIPSE
  5
65C
100
AcDbEntity
  8
RACCORDO
100
AcDbEllipse
 62
7
  6
CONTINUOUS
 10
-21.6988320725
 20
1.500038082
 30
0.0
 11
-0.2472166704
 21
-0.0445902247
 31
0.0
 40
0.9951998232
 41
-0.1776116889
 42
1.3915035481
  0
ELLIPSE
  5
65D
100
AcDbEntity
  8
RACCORDO
100
AcDbEllipse
 62
7
  6
CONTINUOUS
 10
-21.6988320725
 20
10.999961918
 30
0.0
 11
0.2472166704
 21
-0.0445902247
 31
0.0
 40
0.9951998232
 41
1.7500891054
 42
3.3192043424
  0
ELLIPSE
  5
65E
100
AcDbEntity
  8
RACCORDO
100
AcDbEllipse
 62
7
  6
CONTINUOUS
 10
21.7488320725
 20
1.500038082
 30
0.0
 11
-0.2472166704
 21
0.0445902247
 31
0.0
 40
0.9951998232
 41
1.7500891054
 42
3.3192043424
  0
ELLIPSE
  5
65F
100
AcDbEntity
  8
RACCORDO
100
AcDbEllipse
 62
7
  6
CONTINUOUS
 10
21.7488320725
 20
10.999961918
 30
0.0
 11
0.2472166704
 21
0.0445902247
 31
0.0
 40
0.9951998232
 41
-0.1776116889
 42
1.3915035481
  0
ELLIPSE
  5
660
100
AcDbEntity
  8
RACCORDO
100
AcDbEllipse
 62
7
  6
CONTINUOUS
 10
-15.6046648494
 20
5.0185580339
 30
0.0
 11
0.0
 21
0.15
 31
0.0
 40
0.0174550649
 41
0.0174532925
 42
1.5707963268
  0
ELLIPSE
  5
661
100
AcDbEntity
  8
RACCORDO
100
AcDbEllipse
 62
7
  6
CONTINUOUS
 10
-15.6046648494
 20
7.4814419661
 30
0.0
 11
0.0
 21
0.15
 31
0.0
 40
0.0174550649
 41
1.5707963268
 42
3.1241393611
  0
ELLIPSE
  5
662
100
AcDbEntity
  8
DRAFT
100
AcDbEllipse
 62
7
  6
CONTINUOUS
 10
0.5397853282
 20
5.7327751072
 30
0.0
 11
95.2
 21
-0.0
 31
0.0
 40
0.0087268678
 41
1.3802330235
 42
1.3836844957
  0
ELLIPSE
  5
663
100
AcDbEntity
  8
DRAFT
100
AcDbEllipse
 62
7
  6
CONTINUOUS
 10
0.5397853282
 20
6.7672248928
 30
0.0
 11
95.2
 21
-0.0
 31
0.0
 40
0.0087268678
 41
-1.3836844957
 42
-1.3802330235
  0
ELLIPSE
  5
664
100
AcDbEntity
  8
DRAFT
100
AcDbEllipse
 62
7
  6
CONTINUOUS
 10
21.425
 20
6.5748328913
 30
0.0
 11
4.15
 21
-0.0
 31
0.0
 40
0.0087268678
 41
-1.8666418925
 42
-1.7744579245
  0
ELLIPSE
  5
665
100
AcDbEntity
  8
DRAFT
100
AcDbEllipse
 62
7
  6
CONTINUOUS
 10
21.425
 20
6.5748328913
 30
0.0
 11
4.15
 21
-0.0
 31
0.0
 40
0.0087268678
 41
-2.328858428
 42
-2.3264409102
  0
ELLIPSE
  5
666
100
AcDbEntity
  8
DRAFT
100
AcDbEllipse
 62
7
  6
CONTINUOUS
 10
21.425
 20
5.9251671087
 30
0.0
 11
4.15
 21
0.0
 31
0.0
 40
0.0087268678
 41
2.3264409102
 42
2.328858428
  0
ELLIPSE
  5
667
100
AcDbEntity
  8
DRAFT
100
AcDbEllipse
 62
7
  6
CONTINUOUS
 10
21.425
 20
5.9251671087
 30
0.0
 11
4.15
 21
0.0
 31
0.0
 40
0.0087268678
 41
1.7744579245
 42
1.8666418925
  0
ELLIPSE
  5
668
100
AcDbEntity
  8
DRAFT
100
AcDbEllipse
 62
7
  6
CONTINUOUS
 10
-21.375
 20
1.8985238611
 30
0.0
 11
4.0
 21
0.0
 31
0.0
 40
0.0087268678
 41
-1.3593764113
 42
-0.9057623248
  0
ELLIPSE
  5
669
100
AcDbEntity
  8
DRAFT
100
AcDbEllipse
 62
7
  6
CONTINUOUS
 10
0.5397853282
 20
1.0577751072
 30
0.0
 11
95.2
 21
0.0
 31
0.0
 40
0.0087268678
 41
1.6754917835
 42
1.7765135843
  0
ELLIPSE
  5
66A
100
AcDbEntity
  8
DRAFT
100
AcDbEllipse
 62
7
  6
CONTINUOUS
 10
0.5397853282
 20
1.0577751072
 30
0.0
 11
95.2
 21
0.0
 31
0.0
 40
0.0087268678
 41
1.6103535179
 42
1.6690613808
  0
ELLIPSE
  5
66B
100
AcDbEntity
  8
DRAFT
100
AcDbEllipse
 62
7
  6
CONTINUOUS
 10
0.5397853282
 20
1.0577751072
 30
0.0
 11
95.2
 21
0.0
 31
0.0
 40
0.0087268678
 41
1.4683558766
 42
1.5914365081
  0
ELLIPSE
  5
66C
100
AcDbEntity
  8
DRAFT
100
AcDbEllipse
 62
7
  6
CONTINUOUS
 10
0.5397853282
 20
1.0577751072
 30
0.0
 11
95.2
 21
0.0
 31
0.0
 40
0.0087268678
 41
1.3900852203
 42
1.4493271448
  0
ELLIPSE
  5
66D
100
AcDbEntity
  8
DRAFT
100
AcDbEllipse
 62
7
  6
CONTINUOUS
 10
0.5397853282
 20
1.0577751072
 30
0.0
 11
95.2
 21
0.0
 31
0.0
 40
0.0087268678
 41
1.3802330235
 42
1.3836844957
  0
ELLIPSE
  5
66E
100
AcDbEntity
  8
DRAFT
100
AcDbEllipse
 62
7
  6
CONTINUOUS
 10
21.425
 20
1.8998328913
 30
0.0
 11
4.15
 21
0.0
 31
0.0
 40
0.0087268678
 41
-2.328858428
 42
-1.7744579245
  0
ELLIPSE
  5
66F
100
AcDbEntity
  8
DRAFT
100
AcDbEllipse
 62
7
  6
CONTINUOUS
 10
21.425
 20
10.6001671087
 30
0.0
 11
4.15
 21
0.0
 31
0.0
 40
0.0087268678
 41
1.7744579245
 42
2.328858428
  0
ELLIPSE
  5
670
100
AcDbEntity
  8
DRAFT
100
AcDbEllipse
 62
7
  6
CONTINUOUS
 10
0.5397853282
 20
11.4422248928
 30
0.0
 11
95.2
 21
0.0
 31
0.0
 40
0.0087268678
 41
-1.3836844957
 42
-1.3802330235
  0
ELLIPSE
  5
671
100
AcDbEntity
  8
DRAFT
100
AcDbEllipse
 62
7
  6
CONTINUOUS
 10
0.5397853282
 20
11.4422248928
 30
0.0
 11
95.2
 21
0.0
 31
0.0
 40
0.0087268678
 41
-1.6690613808
 42
-1.6103535179
  0
ELLIPSE
  5
672
100
AcDbEntity
  8
DRAFT
100
AcDbEllipse
 62
7
  6
CONTINUOUS
 10
0.5397853282
 20
11.4422248928
 30
0.0
 11
95.2
 21
0.0
 31
0.0
 40
0.0087268678
 41
-1.5914365081
 42
-1.4683558766
  0
ELLIPSE
  5
673
100
AcDbEntity
  8
DRAFT
100
AcDbEllipse
 62
7
  6
CONTINUOUS
 10
0.5397853282
 20
11.4422248928
 30
0.0
 11
95.2
 21
0.0
 31
0.0
 40
0.0087268678
 41
-1.4493271448
 42
-1.3900852203
  0
ELLIPSE
  5
674
100
AcDbEntity
  8
DRAFT
100
AcDbEllipse
 62
7
  6
CONTINUOUS
 10
0.5397853282
 20
11.4422248928
 30
0.0
 11
95.2
 21
0.0
 31
0.0
 40
0.0087268678
 41
-1.7765135843
 42
-1.6754917835
  0
ELLIPSE
  5
675
100
AcDbEntity
  8
DRAFT
100
AcDbEllipse
 62
7
  6
CONTINUOUS
 10
-21.375
 20
10.6014761389
 30
0.0
 11
4.0
 21
0.0
 31
0.0
 40
0.0087268678
 41
0.9057623248
 42
1.3593764113
  0
ELLIPSE
  5
676
100
AcDbEntity
  8
RACCORDO
100
AcDbEllipse
 62
7
  6
CONTINUOUS
 10
-21.6988320725
 20
-23.499961918
 30
0.0
 11
-0.2472166704
 21
-0.0445902247
 31
0.0
 40
0.9951998232
 41
-0.1776116889
 42
1.3915035481
  0
ELLIPSE
  5
677
100
AcDbEntity
  8
RACCORDO
100
AcDbEllipse
 62
7
  6
CONTINUOUS
 10
-21.6988320725
 20
-14.000038082
 30
0.0
 11
0.2472166704
 21
-0.0445902247
 31
0.0
 40
0.9951998232
 41
1.7500891054
 42
3.3192043424
  0
ELLIPSE
  5
678
100
AcDbEntity
  8
RACCORDO
100
AcDbEllipse
 62
7
  6
CONTINUOUS
 10
21.7488320725
 20
-23.499961918
 30
0.0
 11
-0.2472166704
 21
0.0445902247
 31
0.0
 40
0.9951998232
 41
1.7500891054
 42
3.3192043424
  0
ELLIPSE
  5
679
100
AcDbEntity
  8
RACCORDO
100
AcDbEllipse
 62
7
  6
CONTINUOUS
 10
21.7488320725
 20
-14.000038082
 30
0.0
 11
0.2472166704
 21
0.0445902247
 31
0.0
 40
0.9951998232
 41
-0.1776116889
 42
1.3915035481
  0
ELLIPSE
  5
67A
100
AcDbEntity
  8
RACCORDO
100
AcDbEllipse
 62
7
  6
CONTINUOUS
 10
-15.6046648494
 20
-19.9814419661
 30
0.0
 11
-0.0
 21
0.15
 31
0.0
 40
0.0174550649
 41
0.0174532925
 42
1.5707963268
  0
ELLIPSE
  5
67B
100
AcDbEntity
  8
RACCORDO
100
AcDbEllipse
 62
7
  6
CONTINUOUS
 10
-15.6046648494
 20
-17.5185580339
 30
0.0
 11
0.0
 21
0.15
 31
0.0
 40
0.0174550649
 41
-4.7123889804
 42
-3.1590459461
  0
ELLIPSE
  5
67C
100
AcDbEntity
  8
DRAFT
100
AcDbEllipse
 62
7
  6
CONTINUOUS
 10
0.5397853282
 20
-19.2672248928
 30
0.0
 11
95.2
 21
-0.0
 31
0.0
 40
0.0087268678
 41
1.3802330235
 42
1.3836844957
  0
ELLIPSE
  5
67D
100
AcDbEntity
  8
DRAFT
100
AcDbEllipse
 62
7
  6
CONTINUOUS
 10
0.5397853282
 20
-18.2327751072
 30
0.0
 11
95.2
 21
0.0
 31
0.0
 40
0.0087268678
 41
-1.3836844957
 42
-1.3802330235
  0
ELLIPSE
  5
67E
100
AcDbEntity
  8
DRAFT
100
AcDbEllipse
 62
7
  6
CONTINUOUS
 10
21.425
 20
-18.4251671087
 30
0.0
 11
4.15
 21
-0.0
 31
0.0
 40
0.0087268678
 41
-1.8666418925
 42
-1.7744579245
  0
ELLIPSE
  5
67F
100
AcDbEntity
  8
DRAFT
100
AcDbEllipse
 62
7
  6
CONTINUOUS
 10
21.425
 20
-18.4251671087
 30
0.0
 11
4.15
 21
-0.0
 31
0.0
 40
0.0087268678
 41
-2.328858428
 42
-2.3264409102
  0
ELLIPSE
  5
680
100
AcDbEntity
  8
DRAFT
100
AcDbEllipse
 62
7
  6
CONTINUOUS
 10
21.425
 20
-19.0748328913
 30
0.0
 11
4.15
 21
0.0
 31
0.0
 40
0.0087268678
 41
2.3264409102
 42
2.328858428
  0
ELLIPSE
  5
681
100
AcDbEntity
  8
DRAFT
100
AcDbEllipse
 62
7
  6
CONTINUOUS
 10
21.425
 20
-19.0748328913
 30
0.0
 11
4.15
 21
0.0
 31
0.0
 40
0.0087268678
 41
1.7744579245
 42
1.8666418925
  0
ELLIPSE
  5
682
100
AcDbEntity
  8
DRAFT
100
AcDbEllipse
 62
7
  6
CONTINUOUS
 10
-21.375
 20
-23.1014761389
 30
0.0
 11
4.0
 21
0.0
 31
0.0
 40
0.0087268678
 41
-1.3593764113
 42
-0.9057623248
  0
ELLIPSE
  5
683
100
AcDbEntity
  8
DRAFT
100
AcDbEllipse
 62
7
  6
CONTINUOUS
 10
0.5397853282
 20
-23.9422248928
 30
0.0
 11
95.2
 21
0.0
 31
0.0
 40
0.0087268678
 41
1.6754917835
 42
1.7765135843
  0
ELLIPSE
  5
684
100
AcDbEntity
  8
DRAFT
100
AcDbEllipse
 62
7
  6
CONTINUOUS
 10
0.5397853282
 20
-23.9422248928
 30
0.0
 11
95.2
 21
0.0
 31
0.0
 40
0.0087268678
 41
1.6103535179
 42
1.6690613808
  0
ELLIPSE
  5
685
100
AcDbEntity
  8
DRAFT
100
AcDbEllipse
 62
7
  6
CONTINUOUS
 10
0.5397853282
 20
-23.9422248928
 30
0.0
 11
95.2
 21
0.0
 31
0.0
 40
0.0087268678
 41
1.4683558766
 42
1.5914365081
  0
ELLIPSE
  5
686
100
AcDbEntity
  8
DRAFT
100
AcDbEllipse
 62
7
  6
CONTINUOUS
 10
0.5397853282
 20
-23.9422248928
 30
0.0
 11
95.2
 21
0.0
 31
0.0
 40
0.0087268678
 41
1.3900852203
 42
1.4493271448
  0
ELLIPSE
  5
687
100
AcDbEntity
  8
DRAFT
100
AcDbEllipse
 62
7
  6
CONTINUOUS
 10
0.5397853282
 20
-23.9422248928
 30
0.0
 11
95.2
 21
0.0
 31
0.0
 40
0.0087268678
 41
1.3802330235
 42
1.3836844957
  0
ELLIPSE
  5
688
100
AcDbEntity
  8
DRAFT
100
AcDbEllipse
 62
7
  6
CONTINUOUS
 10
21.425
 20
-23.1001671087
 30
0.0
 11
4.15
 21
0.0
 31
0.0
 40
0.0087268678
 41
-2.328858428
 42
-1.7744579245
  0
ELLIPSE
  5
689
100
AcDbEntity
  8
DRAFT
100
AcDbEllipse
 62
7
  6
CONTINUOUS
 10
21.425
 20
-14.3998328913
 30
0.0
 11
4.15
 21
0.0
 31
0.0
 40
0.0087268678
 41
1.7744579245
 42
2.328858428
  0
ELLIPSE
  5
68A
100
AcDbEntity
  8
DRAFT
100
AcDbEllipse
 62
7
  6
CONTINUOUS
 10
0.5397853282
 20
-13.5577751072
 30
0.0
 11
95.2
 21
0.0
 31
0.0
 40
0.0087268678
 41
-1.3836844957
 42
-1.3802330235
  0
ELLIPSE
  5
68B
100
AcDbEntity
  8
DRAFT
100
AcDbEllipse
 62
7
  6
CONTINUOUS
 10
0.5397853282
 20
-13.5577751072
 30
0.0
 11
95.2
 21
0.0
 31
0.0
 40
0.0087268678
 41
-1.6690613808
 42
-1.6103535179
  0
ELLIPSE
  5
68C
100
AcDbEntity
  8
DRAFT
100
AcDbEllipse
 62
7
  6
CONTINUOUS
 10
0.5397853282
 20
-13.5577751072
 30
0.0
 11
95.2
 21
0.0
 31
0.0
 40
0.0087268678
 41
-1.5914365081
 42
-1.4683558766
  0
ELLIPSE
  5
68D
100
AcDbEntity
  8
DRAFT
100
AcDbEllipse
 62
7
  6
CONTINUOUS
 10
0.5397853282
 20
-13.5577751072
 30
0.0
 11
95.2
 21
0.0
 31
0.0
 40
0.0087268678
 41
-1.4493271448
 42
-1.3900852203
  0
ELLIPSE
  5
68E
100
AcDbEntity
  8
DRAFT
100
AcDbEllipse
 62
7
  6
CONTINUOUS
 10
0.5397853282
 20
-13.5577751072
 30
0.0
 11
95.2
 21
-0.0
 31
0.0
 40
0.0087268678
 41
-1.7765135843
 42
-1.6754917835
  0
ELLIPSE
  5
68F
100
AcDbEntity
  8
DRAFT
100
AcDbEllipse
 62
7
  6
CONTINUOUS
 10
-21.375
 20
-14.3985238611
 30
0.0
 11
4.0
 21
0.0
 31
0.0
 40
0.0087268678
 41
0.9057623248
 42
1.3593764113
  0
ENDSEC
  0
SECTION
  2
OBJECTS
  0
DICTIONARY
  5
C
100
AcDbDictionary
280
0
281
1
  3
ACAD_GROUP
350
D
  3
ACAD_MLINESTYLE
350
17
  3
ACAD_LAYOUT
350
1A
  3
ACAD_PLOTSETTINGS
350
19
  3
ACAD_PLOTSTYLENAME
350
E
  0
DICTIONARY
  5
D
102
{ACAD_REACTORS
330
C
102
}
100
AcDbDictionary
280
0
281
1
  0
ACDBDICTIONARYWDFLT
  5
E
102
{ACAD_REACTORS
330
C
102
}
100
AcDbDictionary
281
1
  3
Normal
350
F
100
AcDbDictionaryWithDefault
340
F
  0
DICTIONARY
  5
17
102
{ACAD_REACTORS
330
C
102
}
100
AcDbDictionary
280
0
281
1
  3
Standard
350
18
  0
DICTIONARY
  5
19
102
{ACAD_REACTORS
330
C
102
}
100
AcDbDictionary
281
1
  0
DICTIONARY
  5
1A
102
{ACAD_REACTORS
330
C
102
}
100
AcDbDictionary
281
1
  3
Model
350
690
  3
Layout1
350
691
  0
ACDBPLACEHOLDER
  5
F
102
{ACAD_REACTORS
330
E
102
}
  0
MLINESTYLE
  5
18
102
{ACAD_REACTORS
330
17
102
}
100
AcDbMlineStyle
  2
STANDARD
 70
0
  3

 62
256
 51
90.0
 52
90.0
 71
2
 49
0.5
 62
256
  6
BYLAYER
 49
-0.5
 62
256
  6
BYLAYER
  0
LAYOUT
  5
690
102
{ACAD_REACTORS
330
1A
102
}
100
AcDbPlotSettings
  1

  2
none_device
  4
ISO_A4_(297.00_x_210.00_MM)
  6

 40
0.0
 41
0.0
 42
0.0
 43
0.0
 44
297.0
 45
210.0
 46
0.0
 47
0.0
 48
0.0
 49
0.0
140
0.0
141
0.0
142
1.0
143
1.0
 70
1024
 72
1
 73
0
 74
0
  7

 75
0
147
1.0
148
0.0
149
0.0
100
AcDbLayout
  1
Model
 70
0
 71
0
 10
0.0
 20
0.0
 11
297.0
 21
210.0
 12
0.0
 22
0.0
 32
0.0
 14
0.0
 24
0.0
 34
0.0
 15
0.0
 25
0.0
 35
0.0
146
0.0
 13
0.0
 23
0.0
 33
0.0
 16
1.0
 26
0.0
 36
0.0
 17
0.0
 27
1.0
 37
0.0
 76
0
330
222
345
0
346
0
  0
LAYOUT
  5
691
102
{ACAD_REACTORS
330
1A
102
}
100
AcDbPlotSettings
  1

  2
none_device
  4
ISO_A4_(297.00_x_210.00_MM)
  6

 40
0.0
 41
0.0
 42
0.0
 43
0.0
 44
297.0
 45
210.0
 46
0.0
 47
0.0
 48
0.0
 49
0.0
140
0.0
141
0.0
142
1.0
143
1.0
 70
0
 72
1
 73
0
 74
0
  7

 75
0
147
1.0
148
0.0
149
0.0
100
AcDbLayout
  1
Layout1
 70
0
 71
1
 10
0.0
 20
0.0
 11
297.0
 21
210.0
 12
0.0
 22
0.0
 32
0.0
 14
0.0
 24
0.0
 34
0.0
 15
0.0
 25
0.0
 35
0.0
146
0.0
 13
0.0
 23
0.0
 33
0.0
 16
1.0
 26
0.0
 36
0.0
 17
0.0
 27
1.0
 37
0.0
 76
0
330
223
345
0
346
0
  0
ENDSEC
  0
EOF
