  0
SECTION
  2
HEADER
  9
$ACADVER
  1
AC1024
  9
$DWGCODEPAGE
  3
ANSI_1252
  9
$EXTMAX
 10
297.0
 20
210.0
 30
0.0
  9
$EXTMIN
 10
0.0
 20
0.0
 30
0.0
  9
$LIMMIN
 10
0.0
 20
0.0
  9
$LIMMAX
 10
297.0
 20
210.0
  9
$VIEWCTR
 10
148.5
 20
105.0
  9
$VIEWSIZE
 40
210.0
  9
$CLAYER
  8
0
  9
$LTSCALE
 40
16.335
  9
$CELTYPE
  6
BYLAYER
  9
$DIMSCALE
 40
1.0
  9
$DIMASZ
 40
3.0
  9
$DIMEXO
 40
0.5
  9
$DIMDLI
 40
11.286
  9
$DIMEXE
 40
1.5
  9
$DIMCEN
 40
2.673
  9
$DIMLFAC
 40
1.0
  9
$DIMBLK
  1
_FILLED
  9
$DIMALT
 70
0
  9
$DIMALTF
 40
0.0393700787
  9
$DIMTXT
 40
3.0
  9
$DIMTOL
 70
1
  9
$DIMLIM
 70
0
  9
$DIMTFAC
 40
1.0
  9
$DIMTP
 40
0.01
  9
$DIMTM
 40
0.01
  9
$DIMGAP
 40
0.625
  9
$DIMDSEP
 70
44
  9
$AUNITS
 70
0
  9
$PDMODE
 70
3
  9
$PDSIZE
 40
3.0
  9
$HANDSEED
  5
426
  9
$TILEMODE
 70
1
  9
$MEASUREMENT
 70
1
  9
$INSUNITS
 70
4
  0
ENDSEC
  0
SECTION
  2
CLASSES
  0
CLASS
  1
ACDBDICTIONARYWDFLT
  2
AcDbDictionaryWithDefault
  3
AutoCAD 2000
 90
0
 91
1
280
0
281
0
  0
CLASS
  1
ACDBPLACEHOLDER
  2
AcDbPlaceHolder
  3
AutoCAD 2000
 90
0
 91
1
280
0
281
0
  0
CLASS
  1
LAYOUT
  2
AcDbLayout
  3
AutoCAD 2000
 90
0
 91
0
280
0
281
0
  0
ENDSEC
  0
SECTION
  2
TABLES
  0
TABLE
  2
VPORT
  5
8
100
AcDbSymbolTable
 70
2
  0
VPORT
  5
1F4
100
AcDbSymbolTableRecord
100
AcDbViewportTableRecord
  2
*ACTIVE
 70
0
 10
0.0
 20
0.0
 11
1.0
 21
1.0
 12
148.5
 22
105.0
 13
0.0
 23
0.0
 14
1.0
 24
1.0
 15
0.0
 25
0.0
 16
0.0
 26
0.0
 36
1.0
 17
0.0
 27
0.0
 37
0.0
 40
210.0
 41
1.4142857143
 42
50.0
 43
0.0
 44
0.0
 50
0.0
 51
0.0
 71
0
 72
100
 73
1
 74
1
 75
0
 76
0
 77
0
 78
0
  0
ENDTAB
  0
TABLE
  2
LTYPE
  5
5
100
AcDbSymbolTable
 70
6
  0
LTYPE
  5
14
100
AcDbSymbolTableRecord
100
AcDbLinetypeTableRecord
  2
BYBLOCK
 70
0
  3

 72
65
 73
0
 40
0.0
  0
LTYPE
  5
15
100
AcDbSymbolTableRecord
100
AcDbLinetypeTableRecord
  2
BYLAYER
 70
0
  3

 72
65
 73
0
 40
0.0
  0
LTYPE
  5
16
100
AcDbSymbolTableRecord
100
AcDbLinetypeTableRecord
  2
CONTINUOUS
 70
64
  3
Solid line
 72
65
 73
0
 40
0.0
  0
LTYPE
  5
1F5
100
AcDbSymbolTableRecord
100
AcDbLinetypeTableRecord
  2
CENTER
 70
64
  3
____ _ ____ _ ____ _ ____ _ ____ _ ____ _ ____
 72
65
 73
4
 40
0.6
 49
0.375
 74
0
 49
-0.075
 74
0
 49
0.075
 74
0
 49
-0.075
 74
0
  0
LTYPE
  5
1F6
100
AcDbSymbolTableRecord
100
AcDbLinetypeTableRecord
  2
HIDDEN
 70
64
  3
- - - - - - - - - - - - - - - - - - - -
 72
65
 73
2
 40
0.2
 49
0.1
 74
0
 49
-0.1
 74
0
  0
LTYPE
  5
1F7
100
AcDbSymbolTableRecord
100
AcDbLinetypeTableRecord
  2
PHANTOM
 70
64
  3
_____ _ _ _____ _ _ _____ _ _ _____
 72
65
 73
6
 40
0.8
 49
0.45
 74
0
 49
-0.05
 74
0
 49
0.1
 74
0
 49
-0.05
 74
0
 49
0.1
 74
0
 49
-0.05
 74
0
  0
LTYPE
  5
1F8
100
AcDbSymbolTableRecord
100
AcDbLinetypeTableRecord
  2
DOT
 70
64
  3
. . . . . . . . . . . . . . . . . . . .
 72
65
 73
2
 40
0.2
 49
0.1
 74
0
 49
-0.1
 74
0
  0
LTYPE
  5
1F9
100
AcDbSymbolTableRecord
100
AcDbLinetypeTableRecord
  2
DASHED
 70
64
  3
- - - - - - - - - - - - - - - - - - - -
 72
65
 73
2
 40
0.2
 49
0.1
 74
0
 49
-0.1
 74
0
  0
ENDTAB
  0
TABLE
  2
LAYER
  5
2
100
AcDbSymbolTable
 70
36
  0
LAYER
  5
10
100
AcDbSymbolTableRecord
100
AcDbLayerTableRecord
  2
0
 70
0
 62
7
  6
CONTINUOUS
370
-3
390
F
  0
LAYER
  5
1FA
100
AcDbSymbolTableRecord
100
AcDbLayerTableRecord
  2
DEFAULT_1
 70
0
 62
7
  6
CENTER
370
-3
390
F
  0
LAYER
  5
1FB
100
AcDbSymbolTableRecord
100
AcDbLayerTableRecord
  2
DEFAULT_2
 70
0
 62
7
  6
HIDDEN
370
-3
390
F
  0
LAYER
  5
1FC
100
AcDbSymbolTableRecord
100
AcDbLayerTableRecord
  2
DEFAULT_3
 70
0
 62
7
  6
PHANTOM
370
-3
390
F
  0
LAYER
  5
1FD
100
AcDbSymbolTableRecord
100
AcDbLayerTableRecord
  2
ASSI
 70
0
 62
7
  6
CONTINUOUS
370
-3
390
F
  0
LAYER
  5
1FE
100
AcDbSymbolTableRecord
100
AcDbLayerTableRecord
  2
CLOSED_SHELL
 70
0
 62
7
  6
CONTINUOUS
370
-3
390
F
  0
LAYER
  5
1FF
100
AcDbSymbolTableRecord
100
AcDbLayerTableRecord
  2
COORDINATE
 70
0
 62
7
  6
CONTINUOUS
370
-3
390
F
  0
LAYER
  5
200
100
AcDbSymbolTableRecord
100
AcDbLayerTableRecord
  2
COPY_PUBLISH
 70
0
 62
7
  6
CONTINUOUS
370
-3
390
F
  0
LAYER
  5
201
100
AcDbSymbolTableRecord
100
AcDbLayerTableRecord
  2
COSMETICI
 70
0
 62
7
  6
CONTINUOUS
370
-3
390
F
  0
LAYER
  5
202
100
AcDbSymbolTableRecord
100
AcDbLayerTableRecord
  2
CURVE
 70
0
 62
7
  6
CONTINUOUS
370
-3
390
F
  0
LAYER
  5
203
100
AcDbSymbolTableRecord
100
AcDbLayerTableRecord
  2
DRAFT
 70
0
 62
7
  6
CONTINUOUS
370
-3
390
F
  0
LAYER
  5
204
100
AcDbSymbolTableRecord
100
AcDbLayerTableRecord
  2
IMPORT_IGES
 70
0
 62
7
  6
CONTINUOUS
370
-3
390
F
  0
LAYER
  5
205
100
AcDbSymbolTableRecord
100
AcDbLayerTableRecord
  2
INTFCLR_2816
 70
0
 62
7
  6
CONTINUOUS
370
-3
390
F
  0
LAYER
  5
206
100
AcDbSymbolTableRecord
100
AcDbLayerTableRecord
  2
NOTE
 70
0
 62
7
  6
CONTINUOUS
370
-3
390
F
  0
LAYER
  5
207
100
AcDbSymbolTableRecord
100
AcDbLayerTableRecord
  2
PIANI
 70
0
 62
7
  6
CONTINUOUS
370
-3
390
F
  0
LAYER
  5
208
100
AcDbSymbolTableRecord
100
AcDbLayerTableRecord
  2
PUNTI
 70
0
 62
7
  6
CONTINUOUS
370
-3
390
F
  0
LAYER
  5
209
100
AcDbSymbolTableRecord
100
AcDbLayerTableRecord
  2
RACCORDO
 70
0
 62
7
  6
CONTINUOUS
370
-3
390
F
  0
LAYER
  5
20A
100
AcDbSymbolTableRecord
100
AcDbLayerTableRecord
  2
SIMBOLI
 70
0
 62
7
  6
CONTINUOUS
370
-3
390
F
  0
LAYER
  5
20B
100
AcDbSymbolTableRecord
100
AcDbLayerTableRecord
  2
SMUSSO
 70
0
 62
7
  6
CONTINUOUS
370
-3
390
F
  0
LAYER
  5
20C
100
AcDbSymbolTableRecord
100
AcDbLayerTableRecord
  2
SNAPLINE
 70
0
 62
7
  6
CONTINUOUS
370
-3
390
F
  0
LAYER
  5
20D
100
AcDbSymbolTableRecord
100
AcDbLayerTableRecord
  2
SUPERFICI
 70
0
 62
7
  6
CONTINUOUS
370
-3
390
F
  0
LAYER
  5
20E
100
AcDbSymbolTableRecord
100
AcDbLayerTableRecord
  2
TRASH
 70
0
 62
7
  6
CONTINUOUS
370
-3
390
F
  0
ENDTAB
  0
TABLE
  2
STYLE
  5
3
100
AcDbSymbolTable
 70
1
  0
STYLE
  5
11
100
AcDbSymbolTableRecord
100
AcDbTextStyleTableRecord
  2
STANDARD
 70
0
 40
0.0
 41
0.8
 50
0.0
 71
0
 42
0.2
  3
txt
  4

  0
STYLE
  5
20F
100
AcDbSymbolTableRecord
100
AcDbTextStyleTableRecord
  2
TEXTSTYLE_1
 70
0
 40
0.0
 41
0.8
 50
0.0
 71
0
 42
0.2
  3
gdt
  4

  0
ENDTAB
  0
TABLE
  2
VIEW
  5
6
100
AcDbSymbolTable
 70
0
  0
ENDTAB
  0
TABLE
  2
UCS
  5
7
100
AcDbSymbolTable
 70
0
  0
ENDTAB
  0
TABLE
  2
APPID
  5
9
100
AcDbSymbolTable
 70
1
  0
APPID
  5
210
100
AcDbSymbolTableRecord
100
AcDbRegAppTableRecord
  2
ACAD
 70
0
  0
ENDTAB
  0
TABLE
  2
BLOCK_RECORD
  5
1
100
AcDbSymbolTable
 70
0
  0
BLOCK_RECORD
  5
211
100
AcDbSymbolTableRecord
100
AcDbBlockTableRecord
  2
*Model_Space
  0
BLOCK_RECORD
  5
212
100
AcDbSymbolTableRecord
100
AcDbBlockTableRecord
  2
*Paper_Space
  0
BLOCK_RECORD
  5
213
100
AcDbSymbolTableRecord
100
AcDbBlockTableRecord
  2
_FILLED
  0
ENDTAB
  0
TABLE
  2
DIMSTYLE
  5
A
100
AcDbSymbolTable
 70
1
100
AcDbDimStyleTable
 71
0
  0
DIMSTYLE
105
214
100
AcDbSymbolTableRecord
100
AcDbDimStyleTableRecord
  2
STANDARD
 70
0
  3

  4

 40
1.0
 41
3.0
 42
0.5
 43
0.38
 44
1.5
 45
0.0
 46
0.0
 47
0.01
 48
0.01
140
3.0
141
0.09
142
0.0
143
25.4
144
1.0
145
0.0
146
1.0
147
0.625
 71
1.0
 72
0.0
 73
0
 74
0
 75
0
 76
0
 77
1
 78
8
 79
2
170
0
171
1
172
0
173
0
174
0
175
0
176
0
177
0
178
0
270
2
179
2
271
2
272
2
273
2
274
2
275
0
280
0
281
0
282
0
283
1
284
8
285
0
286
0
287
3
288
0
340
11
278
44
341
213
342
213
343
213
344
213
  0
ENDTAB
  0
ENDSEC
  0
SECTION
  2
BLOCKS
  0
BLOCK
  5
20
100
AcDbEntity
  8
0
100
AcDbBlockBegin
  2
*Model_Space
 70
0
 10
0.0
 20
0.0
 30
0.0
  3
*Model_Space
  1

  0
ENDBLK
  5
21
100
AcDbEntity
  8
0
100
AcDbBlockEnd
  0
BLOCK
  5
1C
100
AcDbEntity
  8
0
100
AcDbBlockBegin
  2
*Paper_Space
 70
0
 10
0.0
 20
0.0
 30
0.0
  3
*Paper_Space
  1

  0
ENDBLK
  5
1D
100
AcDbEntity
  8
0
100
AcDbBlockEnd
  0
BLOCK
  5
215
100
AcDbEntity
  8
0
100
AcDbBlockBegin
  2
_FILLED
 70
64
 10
0.0
 20
0.0
  3
_FILLED
  1

  0
SOLID
  5
216
100
AcDbEntity
  8
0
  6
BYBLOCK
 62
0
100
AcDbTrace
 10
0.0
 20
0.0
 11
-1.0
 21
0.3166666667
 12
-1.0
 22
-0.3166666667
 13
-1.0
 23
-0.3166666667
  0
ENDBLK
  5
217
100
AcDbEntity
  8
0
  6
BYBLOCK
 62
0
100
AcDbBlockEnd
  0
ENDSEC
  0
SECTION
  2
ENTITIES
  0
LINE
  5
218
100
AcDbEntity
  8
0
100
AcDbLine
 62
7
  6
CONTINUOUS
 10
24.2
 20
-27.75
 11
-24.2
 21
-27.75
  0
LINE
  5
219
100
AcDbEntity
  8
0
100
AcDbLine
 62
7
  6
CONTINUOUS
 10
-24.2
 20
27.75
 11
-24.2
 21
-27.75
  0
LINE
  5
21A
100
AcDbEntity
  8
0
100
AcDbLine
 62
250
  6
CONTINUOUS
 10
-24.075
 20
27.75
 11
-24.075
 21
-27.75
  0
LINE
  5
21B
100
AcDbEntity
  8
0
100
AcDbLine
 62
250
  6
CONTINUOUS
 10
-22.175
 20
27.75
 11
-22.175
 21
-27.75
  0
LINE
  5
21C
100
AcDbEntity
  8
0
100
AcDbLine
 62
7
  6
CONTINUOUS
 10
-22.05
 20
27.75
 11
-22.05
 21
-27.75
  0
LINE
  5
21D
100
AcDbEntity
  8
IMPORT_IGES
100
AcDbLine
 62
250
  6
CONTINUOUS
 10
-21.87932306
 20
-7.1078109763
 11
-21.87932306
 21
-5.1273402067
  0
LINE
  5
21E
100
AcDbEntity
  8
IMPORT_IGES
100
AcDbLine
 62
250
  6
CONTINUOUS
 10
-21.87932306
 20
-2.1976597925
 11
-21.87932306
 21
-0.2171890237
  0
LINE
  5
21F
100
AcDbEntity
  8
IMPORT_IGES
100
AcDbLine
 62
250
  6
CONTINUOUS
 10
-21.87932306
 20
14.8421890237
 11
-21.87932306
 21
16.8226597925
  0
LINE
  5
220
100
AcDbEntity
  8
IMPORT_IGES
100
AcDbLine
 62
250
  6
CONTINUOUS
 10
-21.87932306
 20
19.8023402075
 11
-21.87932306
 21
21.7828109763
  0
LINE
  5
221
100
AcDbEntity
  8
0
100
AcDbLine
 62
250
  6
CONTINUOUS
 10
-21.8
 20
27.75
 11
-21.8
 21
21.8135617295
  0
LINE
  5
222
100
AcDbEntity
  8
0
100
AcDbLine
 62
250
  6
CONTINUOUS
 10
-21.8
 20
14.8114382705
 11
-21.8
 21
-0.1864382705
  0
LINE
  5
223
100
AcDbEntity
  8
0
100
AcDbLine
 62
250
  6
CONTINUOUS
 10
-21.8
 20
-7.1385617295
 11
-21.8
 21
-27.75
  0
LINE
  5
224
100
AcDbEntity
  8
IMPORT_IGES
100
AcDbLine
 62
7
  6
CONTINUOUS
 10
-21.6989011009
 20
-7.1428768161
 11
-21.6989011009
 21
-5.0999999993
  0
LINE
  5
225
100
AcDbEntity
  8
IMPORT_IGES
100
AcDbLine
 62
7
  6
CONTINUOUS
 10
-21.6989011009
 20
-2.2249999998
 11
-21.6989011009
 21
-0.1821231839
  0
LINE
  5
226
100
AcDbEntity
  8
IMPORT_IGES
100
AcDbLine
 62
7
  6
CONTINUOUS
 10
-21.6989011009
 20
14.807123184
 11
-21.6989011009
 21
16.8499999998
  0
LINE
  5
227
100
AcDbEntity
  8
IMPORT_IGES
100
AcDbLine
 62
7
  6
CONTINUOUS
 10
-21.6989011009
 20
19.7750000002
 11
-21.6989011009
 21
21.817876816
  0
LINE
  5
228
100
AcDbEntity
  8
0
100
AcDbLine
 62
7
  6
CONTINUOUS
 10
-21.55
 20
27.75
 11
-21.55
 21
21.825
  0
LINE
  5
229
100
AcDbEntity
  8
0
100
AcDbLine
 62
7
  6
CONTINUOUS
 10
-21.55
 20
14.8
 11
-21.55
 21
-0.175
  0
LINE
  5
22A
100
AcDbEntity
  8
0
100
AcDbLine
 62
7
  6
CONTINUOUS
 10
-21.55
 20
-7.15
 11
-21.55
 21
-27.75
  0
LINE
  5
22B
100
AcDbEntity
  8
IMPORT_IGES
100
AcDbLine
 62
7
  6
CONTINUOUS
 10
-21.5320108098
 20
21.825
 11
-21.5320108098
 21
14.8
  0
LINE
  5
22C
100
AcDbEntity
  8
IMPORT_IGES
100
AcDbLine
 62
7
  6
CONTINUOUS
 10
-21.5320108098
 20
-0.175
 11
-21.5320108098
 21
-7.15
  0
LINE
  5
22D
100
AcDbEntity
  8
0
100
AcDbLine
 62
250
  6
CONTINUOUS
 10
-21.5276364025
 20
-27.75
 11
-21.5276364025
 21
-7.15
  0
LINE
  5
22E
100
AcDbEntity
  8
0
100
AcDbLine
 62
250
  6
CONTINUOUS
 10
-21.5276364025
 20
-0.175
 11
-21.5276364025
 21
14.8
  0
LINE
  5
22F
100
AcDbEntity
  8
0
100
AcDbLine
 62
250
  6
CONTINUOUS
 10
-21.5276364025
 20
21.825
 11
-21.5276364025
 21
27.75
  0
LINE
  5
230
100
AcDbEntity
  8
IMPORT_IGES
100
AcDbLine
 62
250
  6
CONTINUOUS
 10
-19.8883475745
 20
21.8544096234
 11
-19.8883475745
 21
14.7705903766
  0
LINE
  5
231
100
AcDbEntity
  8
IMPORT_IGES
100
AcDbLine
 62
250
  6
CONTINUOUS
 10
-19.8883475745
 20
-0.1455903766
 11
-19.8883475745
 21
-7.1794096234
  0
LINE
  5
232
100
AcDbEntity
  8
IMPORT_IGES
100
AcDbLine
 62
250
  6
CONTINUOUS
 10
-19.7626857485
 20
-7.1803066687
 11
-19.7626857485
 21
-0.1446933314
  0
LINE
  5
233
100
AcDbEntity
  8
IMPORT_IGES
100
AcDbLine
 62
250
  6
CONTINUOUS
 10
-19.7626857485
 20
14.7696933314
 11
-19.7626857485
 21
21.8553066687
  0
LINE
  5
234
100
AcDbEntity
  8
IMPORT_IGES
100
AcDbLine
 62
7
  6
CONTINUOUS
 10
-19.4972399566
 20
24.1256289187
 11
-19.4972399566
 21
21.8621982739
  0
LINE
  5
235
100
AcDbEntity
  8
IMPORT_IGES
100
AcDbLine
 62
7
  6
CONTINUOUS
 10
-19.4972399566
 20
14.7628017261
 11
-19.4972399566
 21
-0.137801726
  0
LINE
  5
236
100
AcDbEntity
  8
IMPORT_IGES
100
AcDbLine
 62
7
  6
CONTINUOUS
 10
-19.4972399566
 20
-9.6256289187
 11
-19.4972399566
 21
-7.1869800929
  0
LINE
  5
237
100
AcDbEntity
  8
IMPORT_IGES
100
AcDbLine
 62
250
  6
CONTINUOUS
 10
-19.1470595272
 20
21.8553066687
 11
-19.1470595272
 21
14.7696933314
  0
LINE
  5
238
100
AcDbEntity
  8
IMPORT_IGES
100
AcDbLine
 62
250
  6
CONTINUOUS
 10
-19.1470595272
 20
-0.1446933314
 11
-19.1470595272
 21
-7.1803066687
  0
LINE
  5
239
100
AcDbEntity
  8
IMPORT_IGES
100
AcDbLine
 62
250
  6
CONTINUOUS
 10
-18.9436667353
 20
-7.1815908966
 11
-18.9436667353
 21
-0.1434091034
  0
LINE
  5
23A
100
AcDbEntity
  8
IMPORT_IGES
100
AcDbLine
 62
250
  6
CONTINUOUS
 10
-18.9436667353
 20
14.7684091034
 11
-18.9436667353
 21
21.8565908966
  0
LINE
  5
23B
100
AcDbEntity
  8
0
100
AcDbLine
 62
7
  6
CONTINUOUS
 10
-18.9427351167
 20
-27.75
 11
-18.9427351167
 21
-9.775
  0
LINE
  5
23C
100
AcDbEntity
  8
0
100
AcDbLine
 62
7
  6
CONTINUOUS
 10
-18.9427351167
 20
24.275
 11
-18.9427351167
 21
27.75
  0
LINE
  5
23D
100
AcDbEntity
  8
IMPORT_IGES
100
AcDbLine
 62
250
  6
CONTINUOUS
 10
-18.6303362036
 20
21.8615238742
 11
-18.6303362036
 21
14.7634761258
  0
LINE
  5
23E
100
AcDbEntity
  8
IMPORT_IGES
100
AcDbLine
 62
250
  6
CONTINUOUS
 10
-18.6303362036
 20
-0.1384761258
 11
-18.6303362036
 21
-7.1865238742
  0
LINE
  5
23F
100
AcDbEntity
  8
IMPORT_IGES
100
AcDbLine
 62
250
  6
CONTINUOUS
 10
-18.4991432476
 20
-7.187198274
 11
-18.4991432476
 21
-0.137801726
  0
LINE
  5
240
100
AcDbEntity
  8
IMPORT_IGES
100
AcDbLine
 62
250
  6
CONTINUOUS
 10
-18.4991432476
 20
14.7628017261
 11
-18.4991432476
 21
21.8621982739
  0
LINE
  5
241
100
AcDbEntity
  8
IMPORT_IGES
100
AcDbLine
 62
7
  6
CONTINUOUS
 10
-15.6661459351
 20
-6.175
 11
-15.65
 21
-6.8470518384
  0
LINE
  5
242
100
AcDbEntity
  8
IMPORT_IGES
100
AcDbLine
 62
7
  6
CONTINUOUS
 10
-16.1718911087
 20
-9.775
 11
-16.1718911087
 21
-6.3695903479
  0
LINE
  5
243
100
AcDbEntity
  8
IMPORT_IGES
100
AcDbLine
 62
7
  6
CONTINUOUS
 10
-16.125
 20
-6.4164814566
 11
-16.125
 21
-9.7734727981
  0
LINE
  5
244
100
AcDbEntity
  8
IMPORT_IGES
100
AcDbLine
 62
7
  6
CONTINUOUS
 10
-15.6661459351
 20
-9.6845518384
 11
-15.6661459351
 21
-6.175
  0
LINE
  5
245
100
AcDbEntity
  8
IMPORT_IGES
100
AcDbLine
 62
7
  6
CONTINUOUS
 10
-15.65
 20
-6.8470518384
 11
-15.65
 21
-9.0125
  0
LINE
  5
246
100
AcDbEntity
  8
IMPORT_IGES
100
AcDbLine
 62
7
  6
CONTINUOUS
 10
-15.4625
 20
-7.3499847695
 11
-15.4625
 21
-8.6500152305
  0
LINE
  5
247
100
AcDbEntity
  8
IMPORT_IGES
100
AcDbLine
 62
7
  6
CONTINUOUS
 10
-14.9749999998
 20
-8.75
 11
-14.9749999998
 21
-7.25
  0
LINE
  5
248
100
AcDbEntity
  8
IMPORT_IGES
100
AcDbLine
 62
7
  6
CONTINUOUS
 10
-14.3057994286
 20
24.125017134
 11
-14.3057994286
 21
23.625
  0
LINE
  5
249
100
AcDbEntity
  8
IMPORT_IGES
100
AcDbLine
 62
7
  6
CONTINUOUS
 10
-14.2249999998
 20
-7.25
 11
-14.2249999998
 21
-8.75
  0
LINE
  5
24A
100
AcDbEntity
  8
IMPORT_IGES
100
AcDbLine
 62
7
  6
CONTINUOUS
 10
-15.65
 20
-9.0125
 11
-15.6661459351
 21
-9.6845518384
  0
LINE
  5
24B
100
AcDbEntity
  8
IMPORT_IGES
100
AcDbLine
 62
250
  6
CONTINUOUS
 10
-16.125
 20
-6.4164814566
 11
-16.1718911087
 21
-6.3695903479
  0
LINE
  5
24C
100
AcDbEntity
  8
IMPORT_IGES
100
AcDbLine
 62
250
  6
CONTINUOUS
 10
-15.9304096521
 20
-6.1281088913
 11
-15.8835185435
 21
-6.175
  0
LINE
  5
24D
100
AcDbEntity
  8
IMPORT_IGES
100
AcDbLine
 62
7
  6
CONTINUOUS
 10
-10.883854065
 20
-9.6845518384
 11
-10.9
 21
-9.0125
  0
LINE
  5
24E
100
AcDbEntity
  8
IMPORT_IGES
100
AcDbLine
 62
7
  6
CONTINUOUS
 10
-13.6749999999
 20
-8.7500000001
 11
-13.6749999999
 21
-7.2500000001
  0
LINE
  5
24F
100
AcDbEntity
  8
IMPORT_IGES
100
AcDbLine
 62
7
  6
CONTINUOUS
 10
-12.9249999999
 20
-7.25
 11
-12.9249999999
 21
-8.75
  0
LINE
  5
250
100
AcDbEntity
  8
IMPORT_IGES
100
AcDbLine
 62
7
  6
CONTINUOUS
 10
-12.375
 20
-8.7500000001
 11
-12.375
 21
-7.2500000001
  0
LINE
  5
251
100
AcDbEntity
  8
IMPORT_IGES
100
AcDbLine
 62
7
  6
CONTINUOUS
 10
-11.625
 20
-7.25
 11
-11.625
 21
-8.75
  0
LINE
  5
252
100
AcDbEntity
  8
IMPORT_IGES
100
AcDbLine
 62
7
  6
CONTINUOUS
 10
-11.0875
 20
-8.6500152305
 11
-11.0875
 21
-7.3499847695
  0
LINE
  5
253
100
AcDbEntity
  8
IMPORT_IGES
100
AcDbLine
 62
7
  6
CONTINUOUS
 10
-21.87932306
 20
-7.1078109763
 11
-21.6989011009
 21
-7.1428768161
  0
LINE
  5
254
100
AcDbEntity
  8
IMPORT_IGES
100
AcDbLine
 62
7
  6
CONTINUOUS
 10
-10.9
 20
-9.0125
 11
-10.9
 21
-6.8470518384
  0
LINE
  5
255
100
AcDbEntity
  8
IMPORT_IGES
100
AcDbLine
 62
7
  6
CONTINUOUS
 10
-10.883854065
 20
-6.175
 11
-10.883854065
 21
-9.6845518384
  0
LINE
  5
256
100
AcDbEntity
  8
IMPORT_IGES
100
AcDbLine
 62
7
  6
CONTINUOUS
 10
-10.425
 20
-9.7734727981
 11
-10.425
 21
-6.4164814566
  0
LINE
  5
257
100
AcDbEntity
  8
IMPORT_IGES
100
AcDbLine
 62
7
  6
CONTINUOUS
 10
-10.3781088913
 20
-9.775
 11
-10.3781088913
 21
-6.3695903479
  0
LINE
  5
258
100
AcDbEntity
  8
IMPORT_IGES
100
AcDbLine
 62
7
  6
CONTINUOUS
 10
-10.9
 20
-6.8470518384
 11
-10.883854065
 21
-6.175
  0
LINE
  5
259
100
AcDbEntity
  8
IMPORT_IGES
100
AcDbLine
 62
7
  6
CONTINUOUS
 10
21.87932306
 20
-4.1828109763
 11
21.6989011011
 21
-4.2178768161
  0
LINE
  5
25A
100
AcDbEntity
  8
IMPORT_IGES
100
AcDbLine
 62
7
  6
CONTINUOUS
 10
-16.125
 20
-9.7734727981
 11
-16.1718911087
 21
-9.775
  0
LINE
  5
25B
100
AcDbEntity
  8
RACCORDO
100
AcDbLine
 62
7
  6
CONTINUOUS
 10
14.5332050294
 20
-8.4468575309
 11
14.6222649902
 21
-8.4456917092
  0
LINE
  5
25C
100
AcDbEntity
  8
RACCORDO
100
AcDbLine
 62
7
  6
CONTINUOUS
 10
14.0332050294
 20
-8.4468575309
 11
14.1222649902
 21
-8.4456917092
  0
LINE
  5
25D
100
AcDbEntity
  8
RACCORDO
100
AcDbLine
 62
7
  6
CONTINUOUS
 10
13.5332050294
 20
-8.4468575309
 11
13.6222649902
 21
-8.4456917092
  0
LINE
  5
25E
100
AcDbEntity
  8
RACCORDO
100
AcDbLine
 62
7
  6
CONTINUOUS
 10
13.0332050294
 20
-8.4468575309
 11
13.1222649902
 21
-8.4456917092
  0
LINE
  5
25F
100
AcDbEntity
  8
RACCORDO
100
AcDbLine
 62
7
  6
CONTINUOUS
 10
12.5332050294
 20
-8.4468575309
 11
12.6222649902
 21
-8.4456917092
  0
LINE
  5
260
100
AcDbEntity
  8
RACCORDO
100
AcDbLine
 62
7
  6
CONTINUOUS
 10
12.0332050294
 20
-8.4468575309
 11
12.1222649902
 21
-8.4456917092
  0
LINE
  5
261
100
AcDbEntity
  8
RACCORDO
100
AcDbLine
 62
7
  6
CONTINUOUS
 10
11.6
 20
-8.4459831646
 11
11.6222649902
 21
-8.4456917092
  0
LINE
  5
262
100
AcDbEntity
  8
IMPORT_IGES
100
AcDbLine
 62
7
  6
CONTINUOUS
 10
22.05
 20
-9.812198274
 11
21.5320108098
 21
-9.812198274
  0
LINE
  5
263
100
AcDbEntity
  8
IMPORT_IGES
100
AcDbLine
 62
7
  6
CONTINUOUS
 10
-19.326462426
 20
-9.775
 11
-16.1718911087
 21
-9.775
  0
LINE
  5
264
100
AcDbEntity
  8
IMPORT_IGES
100
AcDbLine
 62
7
  6
CONTINUOUS
 10
-10.3781088913
 20
-9.775
 11
18.4991432475
 21
-9.775
  0
LINE
  5
265
100
AcDbEntity
  8
IMPORT_IGES
100
AcDbLine
 62
7
  6
CONTINUOUS
 10
-16.125
 20
-9.7734727981
 11
-10.425
 21
-9.7734727981
  0
LINE
  5
266
100
AcDbEntity
  8
IMPORT_IGES
100
AcDbLine
 62
7
  6
CONTINUOUS
 10
-10.883854065
 20
-9.6845518384
 11
-15.6661459351
 21
-9.6845518384
  0
LINE
  5
267
100
AcDbEntity
  8
IMPORT_IGES
100
AcDbLine
 62
7
  6
CONTINUOUS
 10
-10.9
 20
-9.0125
 11
-15.65
 21
-9.0125
  0
LINE
  5
268
100
AcDbEntity
  8
IMPORT_IGES
100
AcDbLine
 62
7
  6
CONTINUOUS
 10
-15.3625152305
 20
-8.75
 11
-14.975
 21
-8.75
  0
LINE
  5
269
100
AcDbEntity
  8
IMPORT_IGES
100
AcDbLine
 62
7
  6
CONTINUOUS
 10
-14.225
 20
-8.75
 11
-13.6749999999
 21
-8.75
  0
LINE
  5
26A
100
AcDbEntity
  8
IMPORT_IGES
100
AcDbLine
 62
7
  6
CONTINUOUS
 10
-12.925
 20
-8.75
 11
-12.375
 21
-8.75
  0
LINE
  5
26B
100
AcDbEntity
  8
IMPORT_IGES
100
AcDbLine
 62
7
  6
CONTINUOUS
 10
-11.625
 20
-8.75
 11
-11.1874847695
 21
-8.75
  0
LINE
  5
26C
100
AcDbEntity
  8
IMPORT_IGES
100
AcDbLine
 62
7
  6
CONTINUOUS
 10
11.1749999999
 20
-8.4999999996
 11
15.375
 21
-8.4999999996
  0
LINE
  5
26D
100
AcDbEntity
  8
RACCORDO
100
AcDbLine
 62
7
  6
CONTINUOUS
 10
14.8
 20
-8.4741349288
 11
11.6
 21
-8.4741349288
  0
LINE
  5
26E
100
AcDbEntity
  8
IMPORT_IGES
100
AcDbLine
 62
7
  6
CONTINUOUS
 10
19.7626857485
 20
-9.7820559031
 11
19.1470595273
 21
-9.7817273076
  0
LINE
  5
26F
100
AcDbEntity
  8
RACCORDO
100
AcDbLine
 62
7
  6
CONTINUOUS
 10
11.7777350098
 20
-8.4456917092
 11
11.8667949706
 21
-8.4468575309
  0
LINE
  5
270
100
AcDbEntity
  8
RACCORDO
100
AcDbLine
 62
7
  6
CONTINUOUS
 10
12.2777350098
 20
-8.4456917092
 11
12.3667949706
 21
-8.4468575309
  0
LINE
  5
271
100
AcDbEntity
  8
RACCORDO
100
AcDbLine
 62
7
  6
CONTINUOUS
 10
12.7777350098
 20
-8.4456917092
 11
12.8667949706
 21
-8.4468575309
  0
LINE
  5
272
100
AcDbEntity
  8
RACCORDO
100
AcDbLine
 62
7
  6
CONTINUOUS
 10
13.2777350098
 20
-8.4456917092
 11
13.3667949706
 21
-8.4468575309
  0
LINE
  5
273
100
AcDbEntity
  8
RACCORDO
100
AcDbLine
 62
7
  6
CONTINUOUS
 10
13.7777350098
 20
-8.4456917092
 11
13.8667949706
 21
-8.4468575309
  0
LINE
  5
274
100
AcDbEntity
  8
RACCORDO
100
AcDbLine
 62
7
  6
CONTINUOUS
 10
14.2777350098
 20
-8.4456917092
 11
14.3667949706
 21
-8.4468575309
  0
LINE
  5
275
100
AcDbEntity
  8
RACCORDO
100
AcDbLine
 62
7
  6
CONTINUOUS
 10
14.8
 20
-8.4459831646
 11
14.7777350098
 21
-8.4456917092
  0
LINE
  5
276
100
AcDbEntity
  8
IMPORT_IGES
100
AcDbLine
 62
7
  6
CONTINUOUS
 10
18.9436667352
 20
-9.7806073773
 11
18.6303362036
 21
-9.7756743997
  0
LINE
  5
277
100
AcDbEntity
  8
IMPORT_IGES
100
AcDbLine
 62
7
  6
CONTINUOUS
 10
19.8883475745
 20
-9.7827886505
 11
21.5320108098
 21
-9.812198274
  0
LINE
  5
278
100
AcDbEntity
  8
IMPORT_IGES
100
AcDbLine
 62
7
  6
CONTINUOUS
 10
-10.3781088913
 20
-9.775
 11
-10.425
 21
-9.7734727981
  0
LINE
  5
279
100
AcDbEntity
  8
IMPORT_IGES
100
AcDbLine
 62
7
  6
CONTINUOUS
 10
-8.0
 20
11.2653997143
 11
-8.0
 21
10.8249771543
  0
LINE
  5
27A
100
AcDbEntity
  8
IMPORT_IGES
100
AcDbLine
 62
7
  6
CONTINUOUS
 10
-7.85
 20
14.5153997143
 11
-7.85
 21
14.0749771543
  0
LINE
  5
27B
100
AcDbEntity
  8
IMPORT_IGES
100
AcDbLine
 62
7
  6
CONTINUOUS
 10
-7.35
 20
8.0153997143
 11
-7.35
 21
7.5749771543
  0
LINE
  5
27C
100
AcDbEntity
  8
IMPORT_IGES
100
AcDbLine
 62
7
  6
CONTINUOUS
 10
-6.85
 20
-5.9250152305
 11
-6.85
 21
-5.5749847695
  0
LINE
  5
27D
100
AcDbEntity
  8
IMPORT_IGES
100
AcDbLine
 62
7
  6
CONTINUOUS
 10
-6.7
 20
17.7653997143
 11
-6.7
 21
17.3249771543
  0
LINE
  5
27E
100
AcDbEntity
  8
IMPORT_IGES
100
AcDbLine
 62
7
  6
CONTINUOUS
 10
-5.4
 20
4.7653997143
 11
-5.4
 21
4.3249771543
  0
LINE
  5
27F
100
AcDbEntity
  8
RACCORDO
100
AcDbLine
 62
7
  6
CONTINUOUS
 10
14.8
 20
-7.5040168354
 11
14.7777350098
 21
-7.5043082908
  0
LINE
  5
280
100
AcDbEntity
  8
RACCORDO
100
AcDbLine
 62
7
  6
CONTINUOUS
 10
14.2777350098
 20
-7.5043082908
 11
14.3667949706
 21
-7.5031424691
  0
LINE
  5
281
100
AcDbEntity
  8
RACCORDO
100
AcDbLine
 62
7
  6
CONTINUOUS
 10
13.7777350098
 20
-7.5043082908
 11
13.8667949706
 21
-7.5031424691
  0
LINE
  5
282
100
AcDbEntity
  8
RACCORDO
100
AcDbLine
 62
7
  6
CONTINUOUS
 10
13.2777350098
 20
-7.5043082908
 11
13.3667949706
 21
-7.5031424691
  0
LINE
  5
283
100
AcDbEntity
  8
RACCORDO
100
AcDbLine
 62
7
  6
CONTINUOUS
 10
12.7777350098
 20
-7.5043082908
 11
12.8667949706
 21
-7.5031424691
  0
LINE
  5
284
100
AcDbEntity
  8
RACCORDO
100
AcDbLine
 62
7
  6
CONTINUOUS
 10
12.2777350098
 20
-7.5043082908
 11
12.3667949706
 21
-7.5031424691
  0
LINE
  5
285
100
AcDbEntity
  8
RACCORDO
100
AcDbLine
 62
7
  6
CONTINUOUS
 10
11.7777350098
 20
-7.5043082908
 11
11.8667949706
 21
-7.5031424691
  0
LINE
  5
286
100
AcDbEntity
  8
RACCORDO
100
AcDbLine
 62
7
  6
CONTINUOUS
 10
11.6
 20
-7.4758650712
 11
14.8
 21
-7.4758650712
  0
LINE
  5
287
100
AcDbEntity
  8
IMPORT_IGES
100
AcDbLine
 62
7
  6
CONTINUOUS
 10
15.375
 20
-7.4500000001
 11
11.1749999999
 21
-7.4500000001
  0
LINE
  5
288
100
AcDbEntity
  8
IMPORT_IGES
100
AcDbLine
 62
7
  6
CONTINUOUS
 10
18.4991432475
 20
-7.4128017262
 11
19.4972399566
 21
-7.4128017262
  0
LINE
  5
289
100
AcDbEntity
  8
IMPORT_IGES
100
AcDbLine
 62
7
  6
CONTINUOUS
 10
-11.1874847695
 20
-7.25
 11
-11.625
 21
-7.25
  0
LINE
  5
28A
100
AcDbEntity
  8
IMPORT_IGES
100
AcDbLine
 62
7
  6
CONTINUOUS
 10
-12.375
 20
-7.25
 11
-12.925
 21
-7.25
  0
LINE
  5
28B
100
AcDbEntity
  8
IMPORT_IGES
100
AcDbLine
 62
7
  6
CONTINUOUS
 10
-13.6749999999
 20
-7.25
 11
-14.225
 21
-7.25
  0
LINE
  5
28C
100
AcDbEntity
  8
IMPORT_IGES
100
AcDbLine
 62
7
  6
CONTINUOUS
 10
-14.975
 20
-7.25
 11
-15.3625152305
 21
-7.25
  0
LINE
  5
28D
100
AcDbEntity
  8
IMPORT_IGES
100
AcDbLine
 62
7
  6
CONTINUOUS
 10
-18.4991432476
 20
-7.187198274
 11
-19.4972399566
 21
-7.187198274
  0
LINE
  5
28E
100
AcDbEntity
  8
IMPORT_IGES
100
AcDbLine
 62
7
  6
CONTINUOUS
 10
-10.9
 20
-6.8470518384
 11
-15.65
 21
-6.8470518384
  0
LINE
  5
28F
100
AcDbEntity
  8
IMPORT_IGES
100
AcDbLine
 62
7
  6
CONTINUOUS
 10
-10.6664814566
 20
-6.175
 11
-15.8835185435
 21
-6.175
  0
LINE
  5
290
100
AcDbEntity
  8
IMPORT_IGES
100
AcDbLine
 62
7
  6
CONTINUOUS
 10
-10.6195903479
 20
-6.1281088913
 11
-15.9304096521
 21
-6.1281088913
  0
LINE
  5
291
100
AcDbEntity
  8
IMPORT_IGES
100
AcDbLine
 62
7
  6
CONTINUOUS
 10
19.3271879505
 20
-6.025
 11
-6.7500152305
 21
-6.025
  0
LINE
  5
292
100
AcDbEntity
  8
IMPORT_IGES
100
AcDbLine
 62
7
  6
CONTINUOUS
 10
19.3271879505
 20
-5.475
 11
-6.7500152305
 21
-5.475
  0
LINE
  5
293
100
AcDbEntity
  8
IMPORT_IGES
100
AcDbLine
 62
7
  6
CONTINUOUS
 10
19.1470595272
 20
-7.4195290337
 11
19.7626857485
 21
-7.4198576292
  0
LINE
  5
294
100
AcDbEntity
  8
IMPORT_IGES
100
AcDbLine
 62
7
  6
CONTINUOUS
 10
-19.1470595273
 20
-7.1804709664
 11
-19.7626857485
 21
-7.1801423709
  0
LINE
  5
295
100
AcDbEntity
  8
RACCORDO
100
AcDbLine
 62
7
  6
CONTINUOUS
 10
11.6
 20
-7.5040168354
 11
11.6222649902
 21
-7.5043082908
  0
LINE
  5
296
100
AcDbEntity
  8
RACCORDO
100
AcDbLine
 62
7
  6
CONTINUOUS
 10
12.0332050294
 20
-7.5031424691
 11
12.1222649902
 21
-7.5043082908
  0
LINE
  5
297
100
AcDbEntity
  8
RACCORDO
100
AcDbLine
 62
7
  6
CONTINUOUS
 10
12.5332050294
 20
-7.5031424691
 11
12.6222649902
 21
-7.5043082908
  0
LINE
  5
298
100
AcDbEntity
  8
RACCORDO
100
AcDbLine
 62
7
  6
CONTINUOUS
 10
13.0332050294
 20
-7.5031424691
 11
13.1222649902
 21
-7.5043082908
  0
LINE
  5
299
100
AcDbEntity
  8
RACCORDO
100
AcDbLine
 62
7
  6
CONTINUOUS
 10
13.5332050294
 20
-7.5031424691
 11
13.6222649902
 21
-7.5043082908
  0
LINE
  5
29A
100
AcDbEntity
  8
RACCORDO
100
AcDbLine
 62
7
  6
CONTINUOUS
 10
14.0332050294
 20
-7.5031424691
 11
14.1222649902
 21
-7.5043082908
  0
LINE
  5
29B
100
AcDbEntity
  8
RACCORDO
100
AcDbLine
 62
7
  6
CONTINUOUS
 10
14.5332050294
 20
-7.5031424691
 11
14.6222649902
 21
-7.5043082908
  0
LINE
  5
29C
100
AcDbEntity
  8
IMPORT_IGES
100
AcDbLine
 62
7
  6
CONTINUOUS
 10
-19.5249700377
 20
-7.1867617003
 11
-19.4972399566
 21
-7.187198274
  0
LINE
  5
29D
100
AcDbEntity
  8
IMPORT_IGES
100
AcDbLine
 62
7
  6
CONTINUOUS
 10
-18.6303362036
 20
-7.1865238742
 11
-18.9436667354
 21
-7.1815908966
  0
LINE
  5
29E
100
AcDbEntity
  8
IMPORT_IGES
100
AcDbLine
 62
7
  6
CONTINUOUS
 10
18.6303362036
 20
-7.4134761259
 11
18.9436667353
 21
-7.4184091035
  0
LINE
  5
29F
100
AcDbEntity
  8
IMPORT_IGES
100
AcDbLine
 62
7
  6
CONTINUOUS
 10
19.5249569166
 20
-7.4132380933
 11
19.4972399566
 21
-7.4128017261
  0
LINE
  5
2A0
100
AcDbEntity
  8
IMPORT_IGES
100
AcDbLine
 62
7
  6
CONTINUOUS
 10
-21.5320108098
 20
-7.15
 11
-19.850000425
 21
-7.1800957673
  0
LINE
  5
2A1
100
AcDbEntity
  8
IMPORT_IGES
100
AcDbLine
 62
7
  6
CONTINUOUS
 10
21.5320108098
 20
-7.4500000001
 11
19.8500019619
 21
-7.419904269
  0
LINE
  5
2A2
100
AcDbEntity
  8
IMPORT_IGES
100
AcDbLine
 62
7
  6
CONTINUOUS
 10
-21.5320108098
 20
-7.15
 11
-22.05
 21
-7.1278912706
  0
LINE
  5
2A3
100
AcDbEntity
  8
IMPORT_IGES
100
AcDbLine
 62
7
  6
CONTINUOUS
 10
22.05
 20
-7.4721087293
 11
21.5320108098
 21
-7.45
  0
LINE
  5
2A4
100
AcDbEntity
  8
IMPORT_IGES
100
AcDbLine
 62
7
  6
CONTINUOUS
 10
-21.87932306
 20
-2.1976597925
 11
-21.6989011009
 21
-2.2249999998
  0
LINE
  5
2A5
100
AcDbEntity
  8
IMPORT_IGES
100
AcDbLine
 62
7
  6
CONTINUOUS
 10
-4.15
 20
21.0153997143
 11
-4.15
 21
20.5749771543
  0
LINE
  5
2A6
100
AcDbEntity
  8
IMPORT_IGES
100
AcDbLine
 62
250
  6
CONTINUOUS
 10
-10.6664814566
 20
-6.175
 11
-10.6195903479
 21
-6.1281088913
  0
LINE
  5
2A7
100
AcDbEntity
  8
IMPORT_IGES
100
AcDbLine
 62
250
  6
CONTINUOUS
 10
-10.3781088913
 20
-6.3695903479
 11
-10.425
 21
-6.4164814566
  0
LINE
  5
2A8
100
AcDbEntity
  8
IMPORT_IGES
100
AcDbLine
 62
7
  6
CONTINUOUS
 10
21.87932306
 20
0.7023402073
 11
21.6989011009
 21
0.6749999999
  0
LINE
  5
2A9
100
AcDbEntity
  8
IMPORT_IGES
100
AcDbLine
 62
7
  6
CONTINUOUS
 10
21.5320108098
 20
-4.225
 11
22.05
 21
-4.2028912706
  0
LINE
  5
2AA
100
AcDbEntity
  8
IMPORT_IGES
100
AcDbLine
 62
7
  6
CONTINUOUS
 10
19.850000425
 20
-4.2550957673
 11
21.5320108098
 21
-4.225
  0
LINE
  5
2AB
100
AcDbEntity
  8
IMPORT_IGES
100
AcDbLine
 62
7
  6
CONTINUOUS
 10
19.4972399566
 20
-4.262198274
 11
19.5249701483
 21
-4.2617616985
  0
LINE
  5
2AC
100
AcDbEntity
  8
IMPORT_IGES
100
AcDbLine
 62
7
  6
CONTINUOUS
 10
18.9436667353
 20
-4.2565908966
 11
18.6303362036
 21
-4.2615238742
  0
LINE
  5
2AD
100
AcDbEntity
  8
IMPORT_IGES
100
AcDbLine
 62
7
  6
CONTINUOUS
 10
19.7626857485
 20
-4.2551423709
 11
19.1470595273
 21
-4.2554709664
  0
LINE
  5
2AE
100
AcDbEntity
  8
IMPORT_IGES
100
AcDbLine
 62
7
  6
CONTINUOUS
 10
-21.6989011009
 20
-5.0999999994
 11
-22.05
 21
-5.0999999994
  0
LINE
  5
2AF
100
AcDbEntity
  8
IMPORT_IGES
100
AcDbLine
 62
7
  6
CONTINUOUS
 10
19.4972399566
 20
-4.262198274
 11
18.4991432475
 21
-4.262198274
  0
LINE
  5
2B0
100
AcDbEntity
  8
IMPORT_IGES
100
AcDbLine
 62
7
  6
CONTINUOUS
 10
-1.3692005714
 20
4.175
 11
-1.3692005714
 21
4.8125263702
  0
LINE
  5
2B1
100
AcDbEntity
  8
IMPORT_IGES
100
AcDbLine
 62
7
  6
CONTINUOUS
 10
-1.3692005714
 20
7.425
 11
-1.3692005714
 21
8.0625263702
  0
LINE
  5
2B2
100
AcDbEntity
  8
IMPORT_IGES
100
AcDbLine
 62
7
  6
CONTINUOUS
 10
-1.3692005714
 20
10.675
 11
-1.3692005714
 21
11.3125263391
  0
LINE
  5
2B3
100
AcDbEntity
  8
IMPORT_IGES
100
AcDbLine
 62
7
  6
CONTINUOUS
 10
-1.3692005714
 20
13.925
 11
-1.3692005714
 21
14.5625263702
  0
LINE
  5
2B4
100
AcDbEntity
  8
IMPORT_IGES
100
AcDbLine
 62
7
  6
CONTINUOUS
 10
-1.3692005714
 20
17.175
 11
-1.3692005714
 21
17.8125263702
  0
LINE
  5
2B5
100
AcDbEntity
  8
IMPORT_IGES
100
AcDbLine
 62
7
  6
CONTINUOUS
 10
-1.3692005714
 20
20.425
 11
-1.3692005714
 21
21.0625263702
  0
LINE
  5
2B6
100
AcDbEntity
  8
IMPORT_IGES
100
AcDbLine
 62
7
  6
CONTINUOUS
 10
-1.3692005714
 20
23.625
 11
-1.3692005714
 21
24.125017134
  0
LINE
  5
2B7
100
AcDbEntity
  8
IMPORT_IGES
100
AcDbLine
 62
7
  6
CONTINUOUS
 10
-21.8793230601
 20
-5.1273402067
 11
-21.6989011009
 21
-5.0999999994
  0
LINE
  5
2B8
100
AcDbEntity
  8
IMPORT_IGES
100
AcDbLine
 62
7
  6
CONTINUOUS
 10
-19.850000425
 20
-0.1449042327
 11
-21.5320108098
 21
-0.175
  0
LINE
  5
2B9
100
AcDbEntity
  8
IMPORT_IGES
100
AcDbLine
 62
7
  6
CONTINUOUS
 10
-18.9436667354
 20
-0.1434091034
 11
-18.6303362036
 21
-0.1384761258
  0
LINE
  5
2BA
100
AcDbEntity
  8
IMPORT_IGES
100
AcDbLine
 62
7
  6
CONTINUOUS
 10
-19.4972399566
 20
-0.137801726
 11
-19.5249700378
 21
-0.1382382997
  0
LINE
  5
2BB
100
AcDbEntity
  8
IMPORT_IGES
100
AcDbLine
 62
7
  6
CONTINUOUS
 10
-19.7626857485
 20
-0.1448576291
 11
-19.1470595273
 21
-0.1445290336
  0
LINE
  5
2BC
100
AcDbEntity
  8
IMPORT_IGES
100
AcDbLine
 62
7
  6
CONTINUOUS
 10
-22.05
 20
-2.2249999998
 11
-21.6989011009
 21
-2.2249999998
  0
LINE
  5
2BD
100
AcDbEntity
  8
IMPORT_IGES
100
AcDbLine
 62
7
  6
CONTINUOUS
 10
22.05
 20
-2.1749999999
 11
21.6989011009
 21
-2.1749999999
  0
LINE
  5
2BE
100
AcDbEntity
  8
IMPORT_IGES
100
AcDbLine
 62
7
  6
CONTINUOUS
 10
-19.4972399566
 20
-0.137801726
 11
-18.4991432476
 21
-0.137801726
  0
LINE
  5
2BF
100
AcDbEntity
  8
IMPORT_IGES
100
AcDbLine
 62
7
  6
CONTINUOUS
 10
1.3692005714
 20
24.125017134
 11
1.3692005714
 21
23.625
  0
LINE
  5
2C0
100
AcDbEntity
  8
IMPORT_IGES
100
AcDbLine
 62
7
  6
CONTINUOUS
 10
1.3692005714
 20
21.0625263266
 11
1.3692005714
 21
20.425
  0
LINE
  5
2C1
100
AcDbEntity
  8
IMPORT_IGES
100
AcDbLine
 62
7
  6
CONTINUOUS
 10
1.3692005714
 20
17.8125263266
 11
1.3692005714
 21
17.175
  0
LINE
  5
2C2
100
AcDbEntity
  8
IMPORT_IGES
100
AcDbLine
 62
7
  6
CONTINUOUS
 10
1.3692005714
 20
14.5625263266
 11
1.3692005714
 21
13.925
  0
LINE
  5
2C3
100
AcDbEntity
  8
IMPORT_IGES
100
AcDbLine
 62
7
  6
CONTINUOUS
 10
1.3692005714
 20
11.3125263266
 11
1.3692005714
 21
10.675
  0
LINE
  5
2C4
100
AcDbEntity
  8
IMPORT_IGES
100
AcDbLine
 62
7
  6
CONTINUOUS
 10
1.3692005714
 20
8.0625263266
 11
1.3692005714
 21
7.425
  0
LINE
  5
2C5
100
AcDbEntity
  8
IMPORT_IGES
100
AcDbLine
 62
7
  6
CONTINUOUS
 10
1.3692005714
 20
4.8125263266
 11
1.3692005714
 21
4.175
  0
LINE
  5
2C6
100
AcDbEntity
  8
IMPORT_IGES
100
AcDbLine
 62
7
  6
CONTINUOUS
 10
1.3692005714
 20
1.5625263266
 11
1.3692005714
 21
0.925
  0
LINE
  5
2C7
100
AcDbEntity
  8
IMPORT_IGES
100
AcDbLine
 62
7
  6
CONTINUOUS
 10
-21.5320108098
 20
-0.175
 11
-22.05
 21
-0.1971087294
  0
LINE
  5
2C8
100
AcDbEntity
  8
IMPORT_IGES
100
AcDbLine
 62
7
  6
CONTINUOUS
 10
21.6989011009
 20
0.6749999999
 11
22.05
 21
0.6749999999
  0
LINE
  5
2C9
100
AcDbEntity
  8
IMPORT_IGES
100
AcDbLine
 62
7
  6
CONTINUOUS
 10
1.3692005714
 20
0.925
 11
7.1000228457
 21
0.925
  0
LINE
  5
2CA
100
AcDbEntity
  8
IMPORT_IGES
100
AcDbLine
 62
7
  6
CONTINUOUS
 10
1.9153007161
 20
1.5153997143
 11
7.25
 21
1.5153997143
  0
LINE
  5
2CB
100
AcDbEntity
  8
IMPORT_IGES
100
AcDbLine
 62
7
  6
CONTINUOUS
 10
18.4991432475
 20
2.762198274
 11
19.4972399566
 21
2.762198274
  0
LINE
  5
2CC
100
AcDbEntity
  8
IMPORT_IGES
100
AcDbLine
 62
7
  6
CONTINUOUS
 10
19.1470595273
 20
2.7554709664
 11
19.7626857485
 21
2.7551423709
  0
LINE
  5
2CD
100
AcDbEntity
  8
IMPORT_IGES
100
AcDbLine
 62
7
  6
CONTINUOUS
 10
18.6303362036
 20
2.7615238742
 11
18.9436667354
 21
2.7565908966
  0
LINE
  5
2CE
100
AcDbEntity
  8
IMPORT_IGES
100
AcDbLine
 62
7
  6
CONTINUOUS
 10
19.5249700377
 20
2.7617617003
 11
19.4972399566
 21
2.762198274
  0
LINE
  5
2CF
100
AcDbEntity
  8
IMPORT_IGES
100
AcDbLine
 62
7
  6
CONTINUOUS
 10
21.5320108098
 20
2.725
 11
19.850000425
 21
2.7550957673
  0
LINE
  5
2D0
100
AcDbEntity
  8
IMPORT_IGES
100
AcDbLine
 62
7
  6
CONTINUOUS
 10
21.87932306
 20
-2.2023402072
 11
21.6989011009
 21
-2.1749999999
  0
LINE
  5
2D1
100
AcDbEntity
  8
IMPORT_IGES
100
AcDbLine
 62
7
  6
CONTINUOUS
 10
-21.87932306
 20
-0.2171890237
 11
-21.6989011009
 21
-0.1821231839
  0
LINE
  5
2D2
100
AcDbEntity
  8
IMPORT_IGES
100
AcDbLine
 62
7
  6
CONTINUOUS
 10
-5.2500228458
 20
4.175
 11
-1.3692005714
 21
4.175
  0
LINE
  5
2D3
100
AcDbEntity
  8
IMPORT_IGES
100
AcDbLine
 62
7
  6
CONTINUOUS
 10
1.3692005714
 20
4.175
 11
11.6000228457
 21
4.175
  0
LINE
  5
2D4
100
AcDbEntity
  8
IMPORT_IGES
100
AcDbLine
 62
7
  6
CONTINUOUS
 10
1.9153007161
 20
4.7653997143
 11
11.75
 21
4.7653997143
  0
LINE
  5
2D5
100
AcDbEntity
  8
IMPORT_IGES
100
AcDbLine
 62
7
  6
CONTINUOUS
 10
-1.9153007161
 20
4.7653997143
 11
-5.4
 21
4.7653997143
  0
LINE
  5
2D6
100
AcDbEntity
  8
IMPORT_IGES
100
AcDbLine
 62
7
  6
CONTINUOUS
 10
21.5320108098
 20
2.725
 11
22.05
 21
2.7028912706
  0
LINE
  5
2D7
100
AcDbEntity
  8
IMPORT_IGES
100
AcDbLine
 62
7
  6
CONTINUOUS
 10
7.25
 20
1.0749771543
 11
7.25
 21
1.5153997143
  0
LINE
  5
2D8
100
AcDbEntity
  8
IMPORT_IGES
100
AcDbLine
 62
7
  6
CONTINUOUS
 10
-7.2000228458
 20
7.425
 11
-1.3692005714
 21
7.425
  0
LINE
  5
2D9
100
AcDbEntity
  8
IMPORT_IGES
100
AcDbLine
 62
7
  6
CONTINUOUS
 10
1.3692005714
 20
7.425
 11
14.5807994286
 21
7.425
  0
LINE
  5
2DA
100
AcDbEntity
  8
IMPORT_IGES
100
AcDbLine
 62
7
  6
CONTINUOUS
 10
1.9153007161
 20
8.0153997143
 11
14.4808146591
 21
8.0153997143
  0
LINE
  5
2DB
100
AcDbEntity
  8
IMPORT_IGES
100
AcDbLine
 62
7
  6
CONTINUOUS
 10
-1.9153007161
 20
8.0153997143
 11
-7.35
 21
8.0153997143
  0
LINE
  5
2DC
100
AcDbEntity
  8
IMPORT_IGES
100
AcDbLine
 62
7
  6
CONTINUOUS
 10
21.87932306
 20
2.6828109763
 11
21.6989011009
 21
2.7178768161
  0
LINE
  5
2DD
100
AcDbEntity
  8
IMPORT_IGES
100
AcDbLine
 62
7
  6
CONTINUOUS
 10
11.1
 20
20.5749771543
 11
11.1
 21
21.0153997143
  0
LINE
  5
2DE
100
AcDbEntity
  8
IMPORT_IGES
100
AcDbLine
 62
7
  6
CONTINUOUS
 10
11.1749999999
 20
-7.45
 11
11.1749999999
 21
-8.5
  0
LINE
  5
2DF
100
AcDbEntity
  8
RACCORDO
100
AcDbLine
 62
250
  6
CONTINUOUS
 10
11.1884538678
 20
-7.7473186007
 11
11.1884538678
 21
-8.2026813993
  0
LINE
  5
2E0
100
AcDbEntity
  8
RACCORDO
100
AcDbLine
 62
250
  6
CONTINUOUS
 10
11.2841396516
 20
-7.6259128235
 11
11.2841396516
 21
-8.3240871765
  0
LINE
  5
2E1
100
AcDbEntity
  8
RACCORDO
100
AcDbLine
 62
250
  6
CONTINUOUS
 10
11.3667949706
 20
-7.5647988984
 11
11.3667949706
 21
-8.3852011016
  0
LINE
  5
2E2
100
AcDbEntity
  8
RACCORDO
100
AcDbLine
 62
250
  6
CONTINUOUS
 10
11.5332050294
 20
-7.5078940576
 11
11.5332050294
 21
-8.4421059424
  0
LINE
  5
2E3
100
AcDbEntity
  8
RACCORDO
100
AcDbLine
 62
250
  6
CONTINUOUS
 10
11.6
 20
-7.4500000001
 11
11.6
 21
-7.5040168354
  0
LINE
  5
2E4
100
AcDbEntity
  8
RACCORDO
100
AcDbLine
 62
250
  6
CONTINUOUS
 10
11.6
 20
-8.4999999996
 11
11.6
 21
-8.4459831646
  0
LINE
  5
2E5
100
AcDbEntity
  8
RACCORDO
100
AcDbLine
 62
250
  6
CONTINUOUS
 10
11.6222649902
 20
-7.5043082908
 11
11.6222649902
 21
-8.4456917092
  0
LINE
  5
2E6
100
AcDbEntity
  8
IMPORT_IGES
100
AcDbLine
 62
7
  6
CONTINUOUS
 10
11.75
 20
4.3249771543
 11
11.75
 21
4.7653997143
  0
LINE
  5
2E7
100
AcDbEntity
  8
RACCORDO
100
AcDbLine
 62
250
  6
CONTINUOUS
 10
11.7777350098
 20
-7.5043082908
 11
11.7777350098
 21
-8.4456917092
  0
LINE
  5
2E8
100
AcDbEntity
  8
IMPORT_IGES
100
AcDbLine
 62
7
  6
CONTINUOUS
 10
21.87932306
 20
14.8421890237
 11
21.6989011011
 21
14.8071231839
  0
LINE
  5
2E9
100
AcDbEntity
  8
IMPORT_IGES
100
AcDbLine
 62
7
  6
CONTINUOUS
 10
-7.8500228458
 20
10.675
 11
-1.3692005714
 21
10.675
  0
LINE
  5
2EA
100
AcDbEntity
  8
IMPORT_IGES
100
AcDbLine
 62
7
  6
CONTINUOUS
 10
1.3692005714
 20
10.675
 11
14.5807994286
 21
10.675
  0
LINE
  5
2EB
100
AcDbEntity
  8
IMPORT_IGES
100
AcDbLine
 62
7
  6
CONTINUOUS
 10
1.9153007161
 20
11.2653997143
 11
14.4808146591
 21
11.2653997143
  0
LINE
  5
2EC
100
AcDbEntity
  8
IMPORT_IGES
100
AcDbLine
 62
7
  6
CONTINUOUS
 10
-1.9153007161
 20
11.2653997143
 11
-8.0
 21
11.2653997143
  0
LINE
  5
2ED
100
AcDbEntity
  8
IMPORT_IGES
100
AcDbLine
 62
7
  6
CONTINUOUS
 10
-21.87932306
 20
14.8421890237
 11
-21.6989011009
 21
14.807123184
  0
LINE
  5
2EE
100
AcDbEntity
  8
RACCORDO
100
AcDbLine
 62
250
  6
CONTINUOUS
 10
11.8667949706
 20
-7.5031424691
 11
11.8667949706
 21
-8.4468575309
  0
LINE
  5
2EF
100
AcDbEntity
  8
RACCORDO
100
AcDbLine
 62
250
  6
CONTINUOUS
 10
12.0332050294
 20
-7.5031424691
 11
12.0332050294
 21
-8.4468575309
  0
LINE
  5
2F0
100
AcDbEntity
  8
RACCORDO
100
AcDbLine
 62
250
  6
CONTINUOUS
 10
12.1222649902
 20
-7.5043082908
 11
12.1222649902
 21
-8.4456917092
  0
LINE
  5
2F1
100
AcDbEntity
  8
RACCORDO
100
AcDbLine
 62
250
  6
CONTINUOUS
 10
12.2777350098
 20
-7.5043082908
 11
12.2777350098
 21
-8.4456917092
  0
LINE
  5
2F2
100
AcDbEntity
  8
RACCORDO
100
AcDbLine
 62
250
  6
CONTINUOUS
 10
12.3667949706
 20
-7.5031424691
 11
12.3667949706
 21
-8.4468575309
  0
LINE
  5
2F3
100
AcDbEntity
  8
RACCORDO
100
AcDbLine
 62
250
  6
CONTINUOUS
 10
12.5332050294
 20
-7.5031424691
 11
12.5332050294
 21
-8.4468575309
  0
LINE
  5
2F4
100
AcDbEntity
  8
RACCORDO
100
AcDbLine
 62
250
  6
CONTINUOUS
 10
12.6222649902
 20
-7.5043082908
 11
12.6222649902
 21
-8.4456917092
  0
LINE
  5
2F5
100
AcDbEntity
  8
RACCORDO
100
AcDbLine
 62
250
  6
CONTINUOUS
 10
12.7777350098
 20
-7.5043082908
 11
12.7777350098
 21
-8.4456917092
  0
LINE
  5
2F6
100
AcDbEntity
  8
RACCORDO
100
AcDbLine
 62
250
  6
CONTINUOUS
 10
12.8667949706
 20
-7.5031424691
 11
12.8667949706
 21
-8.4468575309
  0
LINE
  5
2F7
100
AcDbEntity
  8
RACCORDO
100
AcDbLine
 62
250
  6
CONTINUOUS
 10
13.0332050294
 20
-7.5031424691
 11
13.0332050294
 21
-8.4468575309
  0
LINE
  5
2F8
100
AcDbEntity
  8
RACCORDO
100
AcDbLine
 62
250
  6
CONTINUOUS
 10
13.1222649902
 20
-7.5043082908
 11
13.1222649902
 21
-8.4456917092
  0
LINE
  5
2F9
100
AcDbEntity
  8
RACCORDO
100
AcDbLine
 62
250
  6
CONTINUOUS
 10
13.2777350098
 20
-7.5043082908
 11
13.2777350098
 21
-8.4456917092
  0
LINE
  5
2FA
100
AcDbEntity
  8
RACCORDO
100
AcDbLine
 62
250
  6
CONTINUOUS
 10
13.3667949706
 20
-7.5031424691
 11
13.3667949706
 21
-8.4468575309
  0
LINE
  5
2FB
100
AcDbEntity
  8
RACCORDO
100
AcDbLine
 62
250
  6
CONTINUOUS
 10
13.5332050294
 20
-7.5031424691
 11
13.5332050294
 21
-8.4468575309
  0
LINE
  5
2FC
100
AcDbEntity
  8
RACCORDO
100
AcDbLine
 62
250
  6
CONTINUOUS
 10
13.6222649902
 20
-7.5043082908
 11
13.6222649902
 21
-8.4456917092
  0
LINE
  5
2FD
100
AcDbEntity
  8
RACCORDO
100
AcDbLine
 62
250
  6
CONTINUOUS
 10
13.7777350098
 20
-7.5043082908
 11
13.7777350098
 21
-8.4456917092
  0
LINE
  5
2FE
100
AcDbEntity
  8
RACCORDO
100
AcDbLine
 62
250
  6
CONTINUOUS
 10
13.8667949706
 20
-7.5031424691
 11
13.8667949706
 21
-8.4468575309
  0
LINE
  5
2FF
100
AcDbEntity
  8
RACCORDO
100
AcDbLine
 62
250
  6
CONTINUOUS
 10
14.0332050294
 20
-7.5031424691
 11
14.0332050294
 21
-8.4468575309
  0
LINE
  5
300
100
AcDbEntity
  8
RACCORDO
100
AcDbLine
 62
250
  6
CONTINUOUS
 10
14.1222649902
 20
-7.5043082908
 11
14.1222649902
 21
-8.4456917092
  0
LINE
  5
301
100
AcDbEntity
  8
RACCORDO
100
AcDbLine
 62
250
  6
CONTINUOUS
 10
14.2777350098
 20
-7.5043082908
 11
14.2777350098
 21
-8.4456917092
  0
LINE
  5
302
100
AcDbEntity
  8
IMPORT_IGES
100
AcDbLine
 62
7
  6
CONTINUOUS
 10
14.3057994286
 20
24.125017134
 11
14.3057994286
 21
23.625
  0
LINE
  5
303
100
AcDbEntity
  8
RACCORDO
100
AcDbLine
 62
250
  6
CONTINUOUS
 10
14.3667949706
 20
-7.5031424691
 11
14.3667949706
 21
-8.4468575309
  0
LINE
  5
304
100
AcDbEntity
  8
RACCORDO
100
AcDbLine
 62
250
  6
CONTINUOUS
 10
14.5332050294
 20
-7.5031424691
 11
14.5332050294
 21
-8.4468575309
  0
LINE
  5
305
100
AcDbEntity
  8
IMPORT_IGES
100
AcDbLine
 62
7
  6
CONTINUOUS
 10
14.5807994286
 20
7.425
 11
14.5807994286
 21
7.9154149448
  0
LINE
  5
306
100
AcDbEntity
  8
IMPORT_IGES
100
AcDbLine
 62
7
  6
CONTINUOUS
 10
14.5807994286
 20
10.675
 11
14.5807994286
 21
11.1654149448
  0
LINE
  5
307
100
AcDbEntity
  8
IMPORT_IGES
100
AcDbLine
 62
7
  6
CONTINUOUS
 10
14.5807994286
 20
13.925
 11
14.5807994286
 21
14.4154149448
  0
LINE
  5
308
100
AcDbEntity
  8
IMPORT_IGES
100
AcDbLine
 62
7
  6
CONTINUOUS
 10
14.5807994286
 20
17.175
 11
14.5807994286
 21
17.6654149447
  0
LINE
  5
309
100
AcDbEntity
  8
RACCORDO
100
AcDbLine
 62
250
  6
CONTINUOUS
 10
14.6222649902
 20
-7.5043082908
 11
14.6222649902
 21
-8.4456917092
  0
LINE
  5
30A
100
AcDbEntity
  8
IMPORT_IGES
100
AcDbLine
 62
7
  6
CONTINUOUS
 10
21.5320108098
 20
14.8
 11
22.05
 21
14.8221087294
  0
LINE
  5
30B
100
AcDbEntity
  8
IMPORT_IGES
100
AcDbLine
 62
7
  6
CONTINUOUS
 10
19.850000425
 20
14.7699042327
 11
21.5320108098
 21
14.8
  0
LINE
  5
30C
100
AcDbEntity
  8
IMPORT_IGES
100
AcDbLine
 62
7
  6
CONTINUOUS
 10
19.4972399566
 20
14.762801726
 11
19.5249700378
 21
14.7632382997
  0
LINE
  5
30D
100
AcDbEntity
  8
IMPORT_IGES
100
AcDbLine
 62
7
  6
CONTINUOUS
 10
18.9436667353
 20
14.7684091034
 11
18.6303362036
 21
14.7634761258
  0
LINE
  5
30E
100
AcDbEntity
  8
IMPORT_IGES
100
AcDbLine
 62
7
  6
CONTINUOUS
 10
-7.7000228458
 20
13.925
 11
-1.3692005714
 21
13.925
  0
LINE
  5
30F
100
AcDbEntity
  8
IMPORT_IGES
100
AcDbLine
 62
7
  6
CONTINUOUS
 10
1.3692005714
 20
13.925
 11
14.5807994286
 21
13.925
  0
LINE
  5
310
100
AcDbEntity
  8
IMPORT_IGES
100
AcDbLine
 62
7
  6
CONTINUOUS
 10
1.9153007161
 20
14.5153997143
 11
14.4808146591
 21
14.5153997143
  0
LINE
  5
311
100
AcDbEntity
  8
IMPORT_IGES
100
AcDbLine
 62
7
  6
CONTINUOUS
 10
-1.9153007161
 20
14.5153997143
 11
-7.85
 21
14.5153997143
  0
LINE
  5
312
100
AcDbEntity
  8
IMPORT_IGES
100
AcDbLine
 62
7
  6
CONTINUOUS
 10
-19.5249700371
 20
14.7632382997
 11
-19.4972399566
 21
14.762801726
  0
LINE
  5
313
100
AcDbEntity
  8
IMPORT_IGES
100
AcDbLine
 62
7
  6
CONTINUOUS
 10
-18.6303362036
 20
14.7634761258
 11
-18.9436667354
 21
14.7684091034
  0
LINE
  5
314
100
AcDbEntity
  8
IMPORT_IGES
100
AcDbLine
 62
7
  6
CONTINUOUS
 10
-21.5320108098
 20
14.8
 11
-19.850000425
 21
14.7699042327
  0
LINE
  5
315
100
AcDbEntity
  8
IMPORT_IGES
100
AcDbLine
 62
7
  6
CONTINUOUS
 10
-21.5320108098
 20
14.8
 11
-22.05
 21
14.8221087294
  0
LINE
  5
316
100
AcDbEntity
  8
RACCORDO
100
AcDbLine
 62
250
  6
CONTINUOUS
 10
14.7777350098
 20
-7.5043082908
 11
14.7777350098
 21
-8.4456917092
  0
LINE
  5
317
100
AcDbEntity
  8
RACCORDO
100
AcDbLine
 62
250
  6
CONTINUOUS
 10
14.8
 20
-7.4500000001
 11
14.8
 21
-7.5040168354
  0
LINE
  5
318
100
AcDbEntity
  8
RACCORDO
100
AcDbLine
 62
250
  6
CONTINUOUS
 10
14.8
 20
-8.4999999996
 11
14.8
 21
-8.4459831646
  0
LINE
  5
319
100
AcDbEntity
  8
RACCORDO
100
AcDbLine
 62
250
  6
CONTINUOUS
 10
14.8667949706
 20
-7.5078940576
 11
14.8667949706
 21
-8.4421059424
  0
LINE
  5
31A
100
AcDbEntity
  8
RACCORDO
100
AcDbLine
 62
250
  6
CONTINUOUS
 10
15.0332050294
 20
-7.5647988984
 11
15.0332050294
 21
-8.3852011016
  0
LINE
  5
31B
100
AcDbEntity
  8
RACCORDO
100
AcDbLine
 62
250
  6
CONTINUOUS
 10
15.1158603484
 20
-8.3240871765
 11
15.1158603484
 21
-7.6259128235
  0
LINE
  5
31C
100
AcDbEntity
  8
RACCORDO
100
AcDbLine
 62
250
  6
CONTINUOUS
 10
15.2115461322
 20
-8.2026813993
 11
15.2115461322
 21
-7.7473186007
  0
LINE
  5
31D
100
AcDbEntity
  8
IMPORT_IGES
100
AcDbLine
 62
7
  6
CONTINUOUS
 10
15.375
 20
-8.5000000002
 11
15.375
 21
-7.4500000001
  0
LINE
  5
31E
100
AcDbEntity
  8
IMPORT_IGES
100
AcDbLine
 62
7
  6
CONTINUOUS
 10
21.8793230601
 20
19.8023402076
 11
21.6989011009
 21
19.7750000002
  0
LINE
  5
31F
100
AcDbEntity
  8
IMPORT_IGES
100
AcDbLine
 62
7
  6
CONTINUOUS
 10
19.7626857485
 20
14.7698576291
 11
19.1470595273
 21
14.7695290336
  0
LINE
  5
320
100
AcDbEntity
  8
IMPORT_IGES
100
AcDbLine
 62
7
  6
CONTINUOUS
 10
19.4972399566
 20
14.7628017261
 11
18.4991432475
 21
14.7628017261
  0
LINE
  5
321
100
AcDbEntity
  8
IMPORT_IGES
100
AcDbLine
 62
7
  6
CONTINUOUS
 10
-18.4991432476
 20
14.7628017261
 11
-19.4972399566
 21
14.7628017261
  0
LINE
  5
322
100
AcDbEntity
  8
IMPORT_IGES
100
AcDbLine
 62
7
  6
CONTINUOUS
 10
22.05
 20
16.8499999998
 11
21.6989011009
 21
16.8499999998
  0
LINE
  5
323
100
AcDbEntity
  8
IMPORT_IGES
100
AcDbLine
 62
7
  6
CONTINUOUS
 10
-21.6989011009
 20
16.8499999998
 11
-22.05
 21
16.8499999998
  0
LINE
  5
324
100
AcDbEntity
  8
IMPORT_IGES
100
AcDbLine
 62
7
  6
CONTINUOUS
 10
-6.5500228458
 20
17.175
 11
-1.3692005714
 21
17.175
  0
LINE
  5
325
100
AcDbEntity
  8
IMPORT_IGES
100
AcDbLine
 62
7
  6
CONTINUOUS
 10
1.3692005714
 20
17.175
 11
14.5807994286
 21
17.175
  0
LINE
  5
326
100
AcDbEntity
  8
IMPORT_IGES
100
AcDbLine
 62
7
  6
CONTINUOUS
 10
-19.1470595273
 20
14.7695290336
 11
-19.7626857485
 21
14.7698576291
  0
LINE
  5
327
100
AcDbEntity
  8
IMPORT_IGES
100
AcDbLine
 62
7
  6
CONTINUOUS
 10
-21.87932306
 20
19.8023402075
 11
-21.6989011009
 21
19.7750000002
  0
LINE
  5
328
100
AcDbEntity
  8
IMPORT_IGES
100
AcDbLine
 62
250
  6
CONTINUOUS
 10
18.4991432475
 20
21.8621982739
 11
18.4991432475
 21
14.7628017261
  0
LINE
  5
329
100
AcDbEntity
  8
IMPORT_IGES
100
AcDbLine
 62
250
  6
CONTINUOUS
 10
18.4991432475
 20
2.762198274
 11
18.4991432475
 21
-4.262198274
  0
LINE
  5
32A
100
AcDbEntity
  8
IMPORT_IGES
100
AcDbLine
 62
250
  6
CONTINUOUS
 10
18.4991432475
 20
-7.4128017262
 11
18.4991432475
 21
-9.775
  0
LINE
  5
32B
100
AcDbEntity
  8
IMPORT_IGES
100
AcDbLine
 62
250
  6
CONTINUOUS
 10
18.6303362036
 20
-9.7756743998
 11
18.6303362036
 21
-7.4134761259
  0
LINE
  5
32C
100
AcDbEntity
  8
IMPORT_IGES
100
AcDbLine
 62
250
  6
CONTINUOUS
 10
18.6303362036
 20
-4.2615238742
 11
18.6303362036
 21
2.7615238742
  0
LINE
  5
32D
100
AcDbEntity
  8
IMPORT_IGES
100
AcDbLine
 62
250
  6
CONTINUOUS
 10
18.6303362036
 20
14.7634761258
 11
18.6303362036
 21
21.8615238742
  0
LINE
  5
32E
100
AcDbEntity
  8
0
100
AcDbLine
 62
7
  6
CONTINUOUS
 10
18.9427351167
 20
-27.75
 11
18.9427351167
 21
-9.7806073773
  0
LINE
  5
32F
100
AcDbEntity
  8
0
100
AcDbLine
 62
7
  6
CONTINUOUS
 10
18.9427351167
 20
-6.025
 11
18.9427351167
 21
-5.475
  0
LINE
  5
330
100
AcDbEntity
  8
0
100
AcDbLine
 62
7
  6
CONTINUOUS
 10
18.9427351167
 20
24.275
 11
18.9427351167
 21
27.75
  0
LINE
  5
331
100
AcDbEntity
  8
IMPORT_IGES
100
AcDbLine
 62
250
  6
CONTINUOUS
 10
18.9436667353
 20
21.8565908966
 11
18.9436667353
 21
14.7684091034
  0
LINE
  5
332
100
AcDbEntity
  8
IMPORT_IGES
100
AcDbLine
 62
250
  6
CONTINUOUS
 10
18.9436667353
 20
2.7565908966
 11
18.9436667353
 21
-4.2565908966
  0
LINE
  5
333
100
AcDbEntity
  8
IMPORT_IGES
100
AcDbLine
 62
250
  6
CONTINUOUS
 10
18.9436667353
 20
-7.4184091034
 11
18.9436667353
 21
-9.7806073773
  0
LINE
  5
334
100
AcDbEntity
  8
IMPORT_IGES
100
AcDbLine
 62
250
  6
CONTINUOUS
 10
19.1470595272
 20
-9.7818916053
 11
19.1470595272
 21
-7.4196933315
  0
LINE
  5
335
100
AcDbEntity
  8
IMPORT_IGES
100
AcDbLine
 62
250
  6
CONTINUOUS
 10
19.1470595272
 20
-4.2554709664
 11
19.1470595272
 21
2.7554709664
  0
LINE
  5
336
100
AcDbEntity
  8
IMPORT_IGES
100
AcDbLine
 62
250
  6
CONTINUOUS
 10
19.1470595272
 20
14.7695290336
 11
19.1470595272
 21
21.8554709664
  0
LINE
  5
337
100
AcDbEntity
  8
IMPORT_IGES
100
AcDbLine
 62
7
  6
CONTINUOUS
 10
19.4972399566
 20
24.1256289187
 11
19.4972399566
 21
21.8621982739
  0
LINE
  5
338
100
AcDbEntity
  8
IMPORT_IGES
100
AcDbLine
 62
7
  6
CONTINUOUS
 10
19.4972399566
 20
14.7628017261
 11
19.4972399566
 21
2.762198274
  0
LINE
  5
339
100
AcDbEntity
  8
IMPORT_IGES
100
AcDbLine
 62
7
  6
CONTINUOUS
 10
19.4972399566
 20
-4.2621982739
 11
19.4972399566
 21
-5.3262465083
  0
LINE
  5
33A
100
AcDbEntity
  8
IMPORT_IGES
100
AcDbLine
 62
7
  6
CONTINUOUS
 10
19.4972399566
 20
-6.1737534917
 11
19.4972399566
 21
-7.4130198978
  0
LINE
  5
33B
100
AcDbEntity
  8
IMPORT_IGES
100
AcDbLine
 62
250
  6
CONTINUOUS
 10
19.7626857485
 20
21.8551423709
 11
19.7626857485
 21
14.7698576291
  0
LINE
  5
33C
100
AcDbEntity
  8
IMPORT_IGES
100
AcDbLine
 62
250
  6
CONTINUOUS
 10
19.7626857485
 20
2.7551423709
 11
19.7626857485
 21
-4.2551423709
  0
LINE
  5
33D
100
AcDbEntity
  8
IMPORT_IGES
100
AcDbLine
 62
250
  6
CONTINUOUS
 10
19.7626857485
 20
-7.4196933315
 11
19.7626857485
 21
-9.7818916053
  0
LINE
  5
33E
100
AcDbEntity
  8
IMPORT_IGES
100
AcDbLine
 62
250
  6
CONTINUOUS
 10
19.8883475745
 20
-9.7827886505
 11
19.8883475745
 21
-7.4205903767
  0
LINE
  5
33F
100
AcDbEntity
  8
IMPORT_IGES
100
AcDbLine
 62
250
  6
CONTINUOUS
 10
19.8883475745
 20
-4.2544096234
 11
19.8883475745
 21
2.7544096234
  0
LINE
  5
340
100
AcDbEntity
  8
IMPORT_IGES
100
AcDbLine
 62
250
  6
CONTINUOUS
 10
19.8883475745
 20
14.7705903766
 11
19.8883475745
 21
21.8544096234
  0
LINE
  5
341
100
AcDbEntity
  8
IMPORT_IGES
100
AcDbLine
 62
7
  6
CONTINUOUS
 10
-21.8793230601
 20
16.8226597924
 11
-21.6989011009
 21
16.8499999998
  0
LINE
  5
342
100
AcDbEntity
  8
IMPORT_IGES
100
AcDbLine
 62
7
  6
CONTINUOUS
 10
1.9153007161
 20
17.7653997143
 11
14.4808146591
 21
17.7653997143
  0
LINE
  5
343
100
AcDbEntity
  8
IMPORT_IGES
100
AcDbLine
 62
7
  6
CONTINUOUS
 10
-1.9153007161
 20
17.7653997143
 11
-6.7
 21
17.7653997143
  0
LINE
  5
344
100
AcDbEntity
  8
IMPORT_IGES
100
AcDbLine
 62
7
  6
CONTINUOUS
 10
-22.05
 20
19.7750000002
 11
-21.6989011009
 21
19.7750000002
  0
LINE
  5
345
100
AcDbEntity
  8
IMPORT_IGES
100
AcDbLine
 62
7
  6
CONTINUOUS
 10
21.6989011009
 20
19.7750000002
 11
22.05
 21
19.7750000002
  0
LINE
  5
346
100
AcDbEntity
  8
IMPORT_IGES
100
AcDbLine
 62
7
  6
CONTINUOUS
 10
21.87932306
 20
16.8226597925
 11
21.6989011009
 21
16.8499999998
  0
LINE
  5
347
100
AcDbEntity
  8
0
100
AcDbLine
 62
250
  6
CONTINUOUS
 10
21.5276364025
 20
-27.75
 11
21.5276364025
 21
-9.812198274
  0
LINE
  5
348
100
AcDbEntity
  8
0
100
AcDbLine
 62
250
  6
CONTINUOUS
 10
21.5276364025
 20
-7.4500000001
 11
21.5276364025
 21
-4.225
  0
LINE
  5
349
100
AcDbEntity
  8
0
100
AcDbLine
 62
250
  6
CONTINUOUS
 10
21.5276364025
 20
2.725
 11
21.5276364025
 21
14.8
  0
LINE
  5
34A
100
AcDbEntity
  8
0
100
AcDbLine
 62
250
  6
CONTINUOUS
 10
21.5276364025
 20
21.825
 11
21.5276364025
 21
27.75
  0
LINE
  5
34B
100
AcDbEntity
  8
IMPORT_IGES
100
AcDbLine
 62
7
  6
CONTINUOUS
 10
21.5320108098
 20
21.825
 11
21.5320108098
 21
14.8
  0
LINE
  5
34C
100
AcDbEntity
  8
IMPORT_IGES
100
AcDbLine
 62
7
  6
CONTINUOUS
 10
21.5320108098
 20
2.725
 11
21.5320108098
 21
-4.225
  0
LINE
  5
34D
100
AcDbEntity
  8
IMPORT_IGES
100
AcDbLine
 62
7
  6
CONTINUOUS
 10
21.5320108098
 20
-7.45
 11
21.5320108098
 21
-9.8121982739
  0
LINE
  5
34E
100
AcDbEntity
  8
0
100
AcDbLine
 62
7
  6
CONTINUOUS
 10
21.55
 20
-27.75
 11
21.55
 21
-9.812198274
  0
LINE
  5
34F
100
AcDbEntity
  8
0
100
AcDbLine
 62
7
  6
CONTINUOUS
 10
21.55
 20
-7.4500000001
 11
21.55
 21
-4.225
  0
LINE
  5
350
100
AcDbEntity
  8
0
100
AcDbLine
 62
7
  6
CONTINUOUS
 10
21.55
 20
2.725
 11
21.55
 21
14.8
  0
LINE
  5
351
100
AcDbEntity
  8
0
100
AcDbLine
 62
7
  6
CONTINUOUS
 10
21.55
 20
21.825
 11
21.55
 21
27.75
  0
LINE
  5
352
100
AcDbEntity
  8
IMPORT_IGES
100
AcDbLine
 62
7
  6
CONTINUOUS
 10
21.6989011009
 20
-4.217876816
 11
21.6989011009
 21
-2.175
  0
LINE
  5
353
100
AcDbEntity
  8
IMPORT_IGES
100
AcDbLine
 62
7
  6
CONTINUOUS
 10
21.6989011009
 20
0.675
 11
21.6989011009
 21
2.717876816
  0
LINE
  5
354
100
AcDbEntity
  8
IMPORT_IGES
100
AcDbLine
 62
7
  6
CONTINUOUS
 10
21.6989011009
 20
14.807123184
 11
21.6989011009
 21
16.85
  0
LINE
  5
355
100
AcDbEntity
  8
IMPORT_IGES
100
AcDbLine
 62
7
  6
CONTINUOUS
 10
21.6989011009
 20
19.775
 11
21.6989011009
 21
21.8178768161
  0
LINE
  5
356
100
AcDbEntity
  8
0
100
AcDbLine
 62
250
  6
CONTINUOUS
 10
21.8
 20
-27.75
 11
21.8
 21
-9.812198274
  0
LINE
  5
357
100
AcDbEntity
  8
0
100
AcDbLine
 62
250
  6
CONTINUOUS
 10
21.8
 20
-7.4614382705
 11
21.8
 21
-4.2135617295
  0
LINE
  5
358
100
AcDbEntity
  8
0
100
AcDbLine
 62
250
  6
CONTINUOUS
 10
21.8
 20
2.7135617295
 11
21.8
 21
14.8114382705
  0
LINE
  5
359
100
AcDbEntity
  8
0
100
AcDbLine
 62
250
  6
CONTINUOUS
 10
21.8
 20
21.8135617295
 11
21.8
 21
27.75
  0
LINE
  5
35A
100
AcDbEntity
  8
IMPORT_IGES
100
AcDbLine
 62
250
  6
CONTINUOUS
 10
21.87932306
 20
21.7828109763
 11
21.87932306
 21
19.8023402075
  0
LINE
  5
35B
100
AcDbEntity
  8
IMPORT_IGES
100
AcDbLine
 62
250
  6
CONTINUOUS
 10
21.87932306
 20
16.8226597925
 11
21.87932306
 21
14.8421890237
  0
LINE
  5
35C
100
AcDbEntity
  8
IMPORT_IGES
100
AcDbLine
 62
250
  6
CONTINUOUS
 10
21.87932306
 20
2.6828109763
 11
21.87932306
 21
0.7023402073
  0
LINE
  5
35D
100
AcDbEntity
  8
IMPORT_IGES
100
AcDbLine
 62
250
  6
CONTINUOUS
 10
21.87932306
 20
-2.2023402072
 11
21.87932306
 21
-4.1828109763
  0
LINE
  5
35E
100
AcDbEntity
  8
0
100
AcDbLine
 62
7
  6
CONTINUOUS
 10
22.05
 20
27.75
 11
22.05
 21
-27.75
  0
LINE
  5
35F
100
AcDbEntity
  8
0
100
AcDbLine
 62
250
  6
CONTINUOUS
 10
22.175
 20
27.75
 11
22.175
 21
-27.75
  0
LINE
  5
360
100
AcDbEntity
  8
IMPORT_IGES
100
AcDbLine
 62
7
  6
CONTINUOUS
 10
-21.5320108098
 20
21.825
 11
-22.05
 21
21.8028912706
  0
LINE
  5
361
100
AcDbEntity
  8
IMPORT_IGES
100
AcDbLine
 62
7
  6
CONTINUOUS
 10
-19.8500004569
 20
21.8550957667
 11
-21.5320108098
 21
21.825
  0
LINE
  5
362
100
AcDbEntity
  8
IMPORT_IGES
100
AcDbLine
 62
7
  6
CONTINUOUS
 10
-18.9436667354
 20
21.8565908966
 11
-18.6303362036
 21
21.8615238742
  0
LINE
  5
363
100
AcDbEntity
  8
IMPORT_IGES
100
AcDbLine
 62
7
  6
CONTINUOUS
 10
-19.4972399566
 20
21.862198274
 11
-19.5249700371
 21
21.8617617003
  0
LINE
  5
364
100
AcDbEntity
  8
IMPORT_IGES
100
AcDbLine
 62
7
  6
CONTINUOUS
 10
-19.7626857485
 20
21.8551423709
 11
-19.1470595273
 21
21.8554709664
  0
LINE
  5
365
100
AcDbEntity
  8
IMPORT_IGES
100
AcDbLine
 62
7
  6
CONTINUOUS
 10
-4.0000228457
 20
20.425
 11
-1.3692005714
 21
20.425
  0
LINE
  5
366
100
AcDbEntity
  8
IMPORT_IGES
100
AcDbLine
 62
7
  6
CONTINUOUS
 10
1.3692005714
 20
20.425
 11
10.9500228457
 21
20.425
  0
LINE
  5
367
100
AcDbEntity
  8
IMPORT_IGES
100
AcDbLine
 62
7
  6
CONTINUOUS
 10
1.9153007161
 20
21.0153997143
 11
11.1
 21
21.0153997143
  0
LINE
  5
368
100
AcDbEntity
  8
IMPORT_IGES
100
AcDbLine
 62
7
  6
CONTINUOUS
 10
-1.9153007161
 20
21.0153997143
 11
-4.15
 21
21.0153997143
  0
LINE
  5
369
100
AcDbEntity
  8
IMPORT_IGES
100
AcDbLine
 62
7
  6
CONTINUOUS
 10
-19.4972399566
 20
21.8621982739
 11
-18.4991432476
 21
21.8621982739
  0
LINE
  5
36A
100
AcDbEntity
  8
IMPORT_IGES
100
AcDbLine
 62
7
  6
CONTINUOUS
 10
18.4991432475
 20
21.8621982739
 11
19.4972399566
 21
21.8621982739
  0
LINE
  5
36B
100
AcDbEntity
  8
IMPORT_IGES
100
AcDbLine
 62
7
  6
CONTINUOUS
 10
19.1470595273
 20
21.8554709664
 11
19.7626857485
 21
21.8551423709
  0
LINE
  5
36C
100
AcDbEntity
  8
IMPORT_IGES
100
AcDbLine
 62
7
  6
CONTINUOUS
 10
18.6303362036
 20
21.8615238742
 11
18.9436667353
 21
21.8565908966
  0
LINE
  5
36D
100
AcDbEntity
  8
IMPORT_IGES
100
AcDbLine
 62
7
  6
CONTINUOUS
 10
19.5249700377
 20
21.8617617003
 11
19.4972399566
 21
21.862198274
  0
LINE
  5
36E
100
AcDbEntity
  8
IMPORT_IGES
100
AcDbLine
 62
7
  6
CONTINUOUS
 10
21.5320108098
 20
21.825
 11
19.850000425
 21
21.8550957673
  0
LINE
  5
36F
100
AcDbEntity
  8
IMPORT_IGES
100
AcDbLine
 62
7
  6
CONTINUOUS
 10
21.5320108098
 20
21.825
 11
22.05
 21
21.8028912706
  0
LINE
  5
370
100
AcDbEntity
  8
0
100
AcDbLine
 62
250
  6
CONTINUOUS
 10
24.075
 20
27.75
 11
24.075
 21
-27.75
  0
LINE
  5
371
100
AcDbEntity
  8
0
100
AcDbLine
 62
7
  6
CONTINUOUS
 10
24.2
 20
27.75
 11
24.2
 21
-27.75
  0
LINE
  5
372
100
AcDbEntity
  8
IMPORT_IGES
100
AcDbLine
 62
7
  6
CONTINUOUS
 10
-21.8793230601
 20
21.7828109763
 11
-21.6989011009
 21
21.817876816
  0
LINE
  5
373
100
AcDbEntity
  8
IMPORT_IGES
100
AcDbLine
 62
7
  6
CONTINUOUS
 10
1.3692005714
 20
23.625
 11
14.3057994286
 21
23.625
  0
LINE
  5
374
100
AcDbEntity
  8
IMPORT_IGES
100
AcDbLine
 62
7
  6
CONTINUOUS
 10
-1.3692005714
 20
23.625
 11
-14.3057994286
 21
23.625
  0
LINE
  5
375
100
AcDbEntity
  8
IMPORT_IGES
100
AcDbLine
 62
7
  6
CONTINUOUS
 10
-19.3264624261
 20
24.275
 11
-14.4557994295
 21
24.275
  0
LINE
  5
376
100
AcDbEntity
  8
IMPORT_IGES
100
AcDbLine
 62
7
  6
CONTINUOUS
 10
19.326462426
 20
24.275
 11
14.4557994294
 21
24.275
  0
LINE
  5
377
100
AcDbEntity
  8
IMPORT_IGES
100
AcDbLine
 62
7
  6
CONTINUOUS
 10
1.2192005705
 20
24.275
 11
-1.2192005706
 21
24.275
  0
LINE
  5
378
100
AcDbEntity
  8
IMPORT_IGES
100
AcDbLine
 62
7
  6
CONTINUOUS
 10
21.87932306
 20
21.7828109763
 11
21.6989011009
 21
21.8178768161
  0
LINE
  5
379
100
AcDbEntity
  8
0
100
AcDbLine
 62
7
  6
CONTINUOUS
 10
24.2
 20
27.75
 11
-24.2
 21
27.75
  0
ARC
  5
37A
100
AcDbEntity
  8
IMPORT_IGES
100
AcDbCircle
 62
7
  6
CONTINUOUS
 10
-20.8908364839
 20
-65.8587449149
 40
58.6878795449
100
AcDbArc
 50
88.6664120451
 51
88.9837997133
  0
ARC
  5
37B
100
AcDbEntity
  8
IMPORT_IGES
100
AcDbCircle
 62
7
  6
CONTINUOUS
 10
-20.8906259946
 20
-43.8984815208
 40
58.6776140321
100
AcDbArc
 50
88.6663842823
 51
88.9838274775
  0
ARC
  5
37C
100
AcDbEntity
  8
IMPORT_IGES
100
AcDbCircle
 62
7
  6
CONTINUOUS
 10
-1.4691737127
 20
4.8125565102
 40
0.0999713565
100
AcDbArc
 50
359.9827264163
 51
126.5055671987
  0
ARC
  5
37D
100
AcDbEntity
  8
IMPORT_IGES
100
AcDbCircle
 62
7
  6
CONTINUOUS
 10
-20.8908365161
 20
58.5337464564
 40
58.6878810868
100
AcDbArc
 50
271.0162002914
 51
271.3335879512
  0
ARC
  5
37E
100
AcDbEntity
  8
IMPORT_IGES
100
AcDbCircle
 62
7
  6
CONTINUOUS
 10
-20.8906260976
 20
80.5234864678
 40
58.6776189801
100
AcDbArc
 50
271.0161725062
 51
271.3336157058
  0
ARC
  5
37F
100
AcDbEntity
  8
IMPORT_IGES
100
AcDbCircle
 62
7
  6
CONTINUOUS
 10
-1.4691737691
 20
11.3125564309
 40
0.0999714193
100
AcDbArc
 50
359.9827540216
 51
126.5057617567
  0
ARC
  5
380
100
AcDbEntity
  8
IMPORT_IGES
100
AcDbCircle
 62
7
  6
CONTINUOUS
 10
-1.4691737122
 20
17.8125565107
 40
0.0999713565
100
AcDbArc
 50
359.9827261055
 51
126.5055678589
  0
ARC
  5
381
100
AcDbEntity
  8
IMPORT_IGES
100
AcDbCircle
 62
7
  6
CONTINUOUS
 10
-1.4691737122
 20
14.5625565105
 40
0.0999713565
100
AcDbArc
 50
359.9827262259
 51
126.5055677956
  0
ARC
  5
382
100
AcDbEntity
  8
IMPORT_IGES
100
AcDbCircle
 62
7
  6
CONTINUOUS
 10
-1.4691737122
 20
8.0625565105
 40
0.0999713564
100
AcDbArc
 50
359.9827262155
 51
126.5055675755
  0
ARC
  5
383
100
AcDbEntity
  8
IMPORT_IGES
100
AcDbCircle
 62
7
  6
CONTINUOUS
 10
-1.4691737122
 20
21.0625565105
 40
0.0999713565
100
AcDbArc
 50
359.9827262258
 51
126.5055677956
  0
ARC
  5
384
100
AcDbEntity
  8
IMPORT_IGES
100
AcDbCircle
 62
7
  6
CONTINUOUS
 10
20.8908365087
 20
-43.9087461153
 40
58.6878807456
100
AcDbArc
 50
91.0162002901
 51
91.3335879518
  0
ARC
  5
385
100
AcDbEntity
  8
IMPORT_IGES
100
AcDbCircle
 62
7
  6
CONTINUOUS
 10
20.8908352741
 20
-62.9336785804
 40
58.6878131994
100
AcDbArc
 50
91.0162002542
 51
91.3335881733
  0
ARC
  5
386
100
AcDbEntity
  8
RACCORDO
100
AcDbCircle
 62
250
  6
CONTINUOUS
 10
14.8
 20
-7.975
 40
0.5991311211
100
AcDbArc
 50
16.0789919261
 51
61.3207311933
  0
ARC
  5
387
100
AcDbEntity
  8
RACCORDO
100
AcDbCircle
 62
250
  6
CONTINUOUS
 10
14.8
 20
-7.975
 40
0.5991311211
100
AcDbArc
 50
298.6792153431
 51
343.920713139
  0
ARC
  5
388
100
AcDbEntity
  8
RACCORDO
100
AcDbCircle
 62
250
  6
CONTINUOUS
 10
11.6
 20
-7.975
 40
0.5991311211
100
AcDbArc
 50
224.7291292284
 51
241.3207311188
  0
ARC
  5
389
100
AcDbEntity
  8
RACCORDO
100
AcDbCircle
 62
250
  6
CONTINUOUS
 10
11.6
 20
-7.975
 40
0.5991311211
100
AcDbArc
 50
118.6792152686
 51
135.2708177853
  0
CIRCLE
  5
38A
100
AcDbEntity
  8
IMPORT_IGES
100
AcDbCircle
 62
7
  6
CONTINUOUS
 10
10.2
 20
-7.975
 40
0.5
  0
ARC
  5
38B
100
AcDbEntity
  8
RACCORDO
100
AcDbCircle
 62
7
  6
CONTINUOUS
 10
11.6
 20
-7.975
 40
0.4991349288
100
AcDbArc
 50
211.5181805856
 51
270.0
  0
ARC
  5
38C
100
AcDbEntity
  8
RACCORDO
100
AcDbCircle
 62
7
  6
CONTINUOUS
 10
11.6
 20
-7.975
 40
0.4991349288
100
AcDbArc
 50
90.0
 51
148.4818283624
  0
ARC
  5
38D
100
AcDbEntity
  8
RACCORDO
100
AcDbCircle
 62
7
  6
CONTINUOUS
 10
14.8
 20
-7.975
 40
0.4991349288
100
AcDbArc
 50
270.0
 51
90.0
  0
CIRCLE
  5
38E
100
AcDbEntity
  8
RACCORDO
100
AcDbCircle
 62
7
  6
CONTINUOUS
 10
10.2
 20
-7.975
 40
0.493883577
  0
ARC
  5
38F
100
AcDbEntity
  8
RACCORDO
100
AcDbCircle
 62
7
  6
CONTINUOUS
 10
14.8
 20
-7.975
 40
0.4703286495
100
AcDbArc
 50
331.047130652
 51
28.952869348
  0
CIRCLE
  5
390
100
AcDbEntity
  8
RACCORDO
100
AcDbCircle
 62
250
  6
CONTINUOUS
 10
10.2
 20
-7.975
 40
0.3938873847
  0
ARC
  5
391
100
AcDbEntity
  8
DRAFT
100
AcDbCircle
 62
7
  6
CONTINUOUS
 10
16.2
 20
-7.975
 40
0.375
100
AcDbArc
 50
272.9214501161
 51
87.1483846257
  0
ARC
  5
392
100
AcDbEntity
  8
IMPORT_IGES
100
AcDbCircle
 62
7
  6
CONTINUOUS
 10
16.2375
 20
-7.975
 40
0.375
100
AcDbArc
 50
257.2609586553
 51
102.7819708348
  0
CIRCLE
  5
393
100
AcDbEntity
  8
RACCORDO
100
AcDbCircle
 62
7
  6
CONTINUOUS
 10
16.2
 20
-7.975
 40
0.368883577
  0
CIRCLE
  5
394
100
AcDbEntity
  8
RACCORDO
100
AcDbCircle
 62
250
  6
CONTINUOUS
 10
16.2
 20
-7.975
 40
0.2688873847
  0
ARC
  5
395
100
AcDbEntity
  8
IMPORT_IGES
100
AcDbCircle
 62
7
  6
CONTINUOUS
 10
1.4691737855
 20
4.812556398
 40
0.0999714436
100
AcDbArc
 50
53.4941598043
 51
180.0172342422
  0
ARC
  5
396
100
AcDbEntity
  8
IMPORT_IGES
100
AcDbCircle
 62
7
  6
CONTINUOUS
 10
1.4691737855
 20
1.562556398
 40
0.0999714436
100
AcDbArc
 50
53.4941598001
 51
180.0172342463
  0
ARC
  5
397
100
AcDbEntity
  8
IMPORT_IGES
100
AcDbCircle
 62
7
  6
CONTINUOUS
 10
20.8908364854
 20
61.433744979
 40
58.6878796091
100
AcDbArc
 50
268.6664120452
 51
268.983799713
  0
ARC
  5
398
100
AcDbEntity
  8
IMPORT_IGES
100
AcDbCircle
 62
7
  6
CONTINUOUS
 10
20.8908364841
 20
80.5337449146
 40
58.6878795447
100
AcDbArc
 50
268.666412045
 51
268.9837997132
  0
ARC
  5
399
100
AcDbEntity
  8
IMPORT_IGES
100
AcDbCircle
 62
7
  6
CONTINUOUS
 10
20.7539677981
 20
44.585771856
 40
52.0135319263
100
AcDbArc
 50
268.6460505948
 51
269.0041815466
  0
ARC
  5
39A
100
AcDbEntity
  8
IMPORT_IGES
100
AcDbCircle
 62
7
  6
CONTINUOUS
 10
1.4691737855
 20
17.8125563979
 40
0.0999714436
100
AcDbArc
 50
53.4941598093
 51
180.0172342301
  0
ARC
  5
39B
100
AcDbEntity
  8
IMPORT_IGES
100
AcDbCircle
 62
7
  6
CONTINUOUS
 10
1.4691737855
 20
14.562556398
 40
0.0999714436
100
AcDbArc
 50
53.4941598078
 51
180.0172342314
  0
ARC
  5
39C
100
AcDbEntity
  8
IMPORT_IGES
100
AcDbCircle
 62
7
  6
CONTINUOUS
 10
1.4691737855
 20
11.3125563979
 40
0.0999714436
100
AcDbArc
 50
53.4941598108
 51
180.01723424
  0
ARC
  5
39D
100
AcDbEntity
  8
IMPORT_IGES
100
AcDbCircle
 62
7
  6
CONTINUOUS
 10
1.4691737855
 20
8.062556398
 40
0.0999714436
100
AcDbArc
 50
53.4941598015
 51
180.0172342451
  0
ARC
  5
39E
100
AcDbEntity
  8
IMPORT_IGES
100
AcDbCircle
 62
7
  6
CONTINUOUS
 10
1.4691737855
 20
21.062556398
 40
0.0999714436
100
AcDbArc
 50
53.4941598078
 51
180.0172342315
  0
SPLINE
  5
39F
100
AcDbEntity
  8
RACCORDO
100
AcDbSpline
 62
7
  6
CONTINUOUS
 70
0
 71
3
 72
9
 73
5
 74
0
 42
0.0000001
 43
0.0000001
 44
0.0000000001
 40
0.0
 40
0.0
 40
0.0
 40
0.0
 40
0.2168173998
 40
1.0
 40
1.0
 40
1.0
 40
1.0
 10
11.5332050294
 20
-8.4421059424
 30
0.0
 10
11.5205585006
 20
-8.4404647515
 30
0.0
 10
11.4626444223
 20
-8.430115031
 30
0.0
 10
11.4065804267
 20
-8.408418771
 30
0.0
 10
11.3667949706
 20
-8.3852011016
 30
0.0
  0
SPLINE
  5
3A0
100
AcDbEntity
  8
RACCORDO
100
AcDbSpline
 62
7
  6
CONTINUOUS
 70
0
 71
3
 72
9
 73
5
 74
0
 42
0.0000001
 43
0.0000001
 44
0.0000000001
 40
0.0
 40
0.0
 40
0.0
 40
0.0
 40
0.2240271548
 40
1.0
 40
1.0
 40
1.0
 40
1.0
 10
11.3667949706
 20
-7.5647988984
 30
0.0
 10
11.3781761784
 20
-7.5581571467
 30
0.0
 10
11.4303399259
 20
-7.5309489928
 30
0.0
 10
11.4879413233
 20
-7.5137681105
 30
0.0
 10
11.5332050294
 20
-7.5078940576
 30
0.0
  0
SPLINE
  5
3A1
100
AcDbEntity
  8
RACCORDO
100
AcDbSpline
 62
7
  6
CONTINUOUS
 70
0
 71
3
 72
9
 73
5
 74
0
 42
0.0000001
 43
0.0000001
 44
0.0000000001
 40
0.0
 40
0.0
 40
0.0
 40
0.0
 40
0.213630616
 40
1.0
 40
1.0
 40
1.0
 40
1.0
 10
11.2841396516
 20
-8.3240871765
 30
0.0
 10
11.2760313215
 20
-8.3166074737
 30
0.0
 10
11.2391967084
 20
-8.2804177545
 30
0.0
 10
11.2081109203
 20
-8.238212558
 30
0.0
 10
11.1884538678
 20
-8.2026813993
 30
0.0
  0
SPLINE
  5
3A2
100
AcDbEntity
  8
RACCORDO
100
AcDbSpline
 62
7
  6
CONTINUOUS
 70
0
 71
3
 72
9
 73
5
 74
0
 42
0.0000001
 43
0.0000001
 44
0.0000000001
 40
0.0
 40
0.0
 40
0.0
 40
0.0
 40
0.2702742036
 40
1.0
 40
1.0
 40
1.0
 40
1.0
 10
11.1884538678
 20
-7.7473186007
 30
0.0
 10
11.1952128834
 20
-7.7351013236
 30
0.0
 10
11.2221963712
 20
-7.6910015747
 30
0.0
 10
11.2564310454
 20
-7.6514732208
 30
0.0
 10
11.2841396516
 20
-7.6259128235
 30
0.0
  0
SPLINE
  5
3A3
100
AcDbEntity
  8
RACCORDO
100
AcDbSpline
 62
7
  6
CONTINUOUS
 70
0
 71
3
 72
9
 73
5
 74
0
 42
0.0000001
 43
0.0000001
 44
0.0000000001
 40
0.0
 40
0.0
 40
0.0
 40
0.0
 40
0.213630616
 40
1.0
 40
1.0
 40
1.0
 40
1.0
 10
15.1158603484
 20
-7.6259128235
 30
0.0
 10
15.1239686785
 20
-7.6333925263
 30
0.0
 10
15.1608032916
 20
-7.6695822455
 30
0.0
 10
15.1918890797
 20
-7.711787442
 30
0.0
 10
15.2115461322
 20
-7.7473186007
 30
0.0
  0
SPLINE
  5
3A4
100
AcDbEntity
  8
RACCORDO
100
AcDbSpline
 62
7
  6
CONTINUOUS
 70
0
 71
3
 72
9
 73
5
 74
0
 42
0.0000001
 43
0.0000001
 44
0.0000000001
 40
0.0
 40
0.0
 40
0.0
 40
0.0
 40
0.2240281829
 40
1.0
 40
1.0
 40
1.0
 40
1.0
 10
15.0332050294
 20
-8.3852011016
 30
0.0
 10
15.0218237692
 20
-8.3918428838
 30
0.0
 10
14.9696600176
 20
-8.4190510332
 30
0.0
 10
14.9120586173
 20
-8.4362318972
 30
0.0
 10
14.8667949706
 20
-8.4421059424
 30
0.0
  0
SPLINE
  5
3A5
100
AcDbEntity
  8
RACCORDO
100
AcDbSpline
 62
7
  6
CONTINUOUS
 70
0
 71
3
 72
9
 73
5
 74
0
 42
0.0000001
 43
0.0000001
 44
0.0000000001
 40
0.0
 40
0.0
 40
0.0
 40
0.0
 40
0.2702742036
 40
1.0
 40
1.0
 40
1.0
 40
1.0
 10
15.2115461322
 20
-8.2026813993
 30
0.0
 10
15.2047871166
 20
-8.2148986764
 30
0.0
 10
15.1778036288
 20
-8.2589984253
 30
0.0
 10
15.1435689546
 20
-8.2985267792
 30
0.0
 10
15.1158603484
 20
-8.3240871765
 30
0.0
  0
SPLINE
  5
3A6
100
AcDbEntity
  8
RACCORDO
100
AcDbSpline
 62
7
  6
CONTINUOUS
 70
0
 71
3
 72
9
 73
5
 74
0
 42
0.0000001
 43
0.0000001
 44
0.0000000001
 40
0.0
 40
0.0
 40
0.0
 40
0.0
 40
0.2168223877
 40
1.0
 40
1.0
 40
1.0
 40
1.0
 10
14.8667949706
 20
-7.5078940576
 30
0.0
 10
14.8794417897
 20
-7.5095352861
 30
0.0
 10
14.937355804
 20
-7.5198853527
 30
0.0
 10
14.9934198289
 20
-7.5415813782
 30
0.0
 10
15.0332050294
 20
-7.5647988984
 30
0.0
  0
SPLINE
  5
3A7
100
AcDbEntity
  8
IMPORT_IGES
100
AcDbSpline
 62
7
  6
CONTINUOUS
 70
0
 71
3
 72
9
 73
5
 74
0
 42
0.0000001
 43
0.0000001
 44
0.0000000001
 40
0.0
 40
0.0
 40
0.0
 40
0.0
 40
0.5000004072
 40
1.0
 40
1.0
 40
1.0
 40
1.0
 10
-1.9153007161
 20
21.0153997143
 30
0.0
 10
-1.8465885815
 20
21.0153997143
 30
0.0
 10
-1.7083996126
 20
21.037995189
 30
0.0
 10
-1.5838760866
 20
21.1020347451
 30
0.0
 10
-1.5286458267
 20
21.1429121283
 30
0.0
  0
SPLINE
  5
3A8
100
AcDbEntity
  8
IMPORT_IGES
100
AcDbSpline
 62
7
  6
CONTINUOUS
 70
0
 71
3
 72
9
 73
5
 74
0
 42
0.0000001
 43
0.0000001
 44
0.0000000001
 40
0.0
 40
0.0
 40
0.0
 40
0.0
 40
0.5000004071
 40
1.0
 40
1.0
 40
1.0
 40
1.0
 10
-1.9153007161
 20
8.0153997143
 30
0.0
 10
-1.8465885815
 20
8.0153997143
 30
0.0
 10
-1.7083996124
 20
8.0379951891
 30
0.0
 10
-1.5838760862
 20
8.1020347453
 30
0.0
 10
-1.5286458263
 20
8.1429121285
 30
0.0
  0
SPLINE
  5
3A9
100
AcDbEntity
  8
IMPORT_IGES
100
AcDbSpline
 62
7
  6
CONTINUOUS
 70
0
 71
3
 72
9
 73
5
 74
0
 42
0.0000001
 43
0.0000001
 44
0.0000000001
 40
0.0
 40
0.0
 40
0.0
 40
0.0
 40
0.5000004072
 40
1.0
 40
1.0
 40
1.0
 40
1.0
 10
-1.9153007161
 20
14.5153997143
 30
0.0
 10
-1.8465885815
 20
14.5153997143
 30
0.0
 10
-1.7083996126
 20
14.537995189
 30
0.0
 10
-1.5838760866
 20
14.6020347451
 30
0.0
 10
-1.5286458267
 20
14.6429121283
 30
0.0
  0
SPLINE
  5
3AA
100
AcDbEntity
  8
IMPORT_IGES
100
AcDbSpline
 62
7
  6
CONTINUOUS
 70
0
 71
3
 72
9
 73
5
 74
0
 42
0.0000001
 43
0.0000001
 44
0.0000000001
 40
0.0
 40
0.0
 40
0.0
 40
0.0
 40
0.5000004071
 40
1.0
 40
1.0
 40
1.0
 40
1.0
 10
-1.9153007161
 20
4.7653997143
 30
0.0
 10
-1.8465885815
 20
4.7653997143
 30
0.0
 10
-1.7083996124
 20
4.7879951891
 30
0.0
 10
-1.5838760862
 20
4.8520347453
 30
0.0
 10
-1.5286458263
 20
4.8929121285
 30
0.0
  0
SPLINE
  5
3AB
100
AcDbEntity
  8
IMPORT_IGES
100
AcDbSpline
 62
7
  6
CONTINUOUS
 70
0
 71
3
 72
9
 73
5
 74
0
 42
0.0000001
 43
0.0000001
 44
0.0000000001
 40
0.0
 40
0.0
 40
0.0
 40
0.0
 40
0.5000004122
 40
1.0
 40
1.0
 40
1.0
 40
1.0
 10
-1.9153007161
 20
11.2653997143
 30
0.0
 10
-1.8465886529
 20
11.2653997143
 30
0.0
 10
-1.7083998327
 20
11.2879951366
 30
0.0
 10
-1.5838764026
 20
11.3520345692
 30
0.0
 10
-1.5286461996
 20
11.3929119068
 30
0.0
  0
SPLINE
  5
3AC
100
AcDbEntity
  8
IMPORT_IGES
100
AcDbSpline
 62
7
  6
CONTINUOUS
 70
0
 71
3
 72
9
 73
5
 74
0
 42
0.0000001
 43
0.0000001
 44
0.0000000001
 40
0.0
 40
0.0
 40
0.0
 40
0.0
 40
0.5000004072
 40
1.0
 40
1.0
 40
1.0
 40
1.0
 10
-1.9153007161
 20
17.7653997143
 30
0.0
 10
-1.8465885815
 20
17.7653997143
 30
0.0
 10
-1.7083996121
 20
17.7879951882
 30
0.0
 10
-1.5838760874
 20
17.8520347463
 30
0.0
 10
-1.5286458267
 20
17.8929121283
 30
0.0
  0
SPLINE
  5
3AD
100
AcDbEntity
  8
IMPORT_IGES
100
AcDbSpline
 62
7
  6
CONTINUOUS
 70
0
 71
3
 72
9
 73
5
 74
0
 42
0.0000001
 43
0.0000001
 44
0.0000000001
 40
0.0
 40
0.0
 40
0.0
 40
0.0
 40
0.1737100452
 40
1.0
 40
1.0
 40
1.0
 40
1.0
 10
-19.8883475729
 20
-0.1455903766
 30
0.0
 10
-19.8810723323
 20
-0.1454602027
 30
0.0
 10
-19.8391864546
 20
-0.1449748883
 30
0.0
 10
-19.7972975614
 20
-0.1448761034
 30
0.0
 10
-19.7626857485
 20
-0.1448576291
 30
0.0
  0
SPLINE
  5
3AE
100
AcDbEntity
  8
IMPORT_IGES
100
AcDbSpline
 62
7
  6
CONTINUOUS
 70
0
 71
3
 72
9
 73
5
 74
0
 42
0.0000001
 43
0.0000001
 44
0.0000000001
 40
0.0
 40
0.0
 40
0.0
 40
0.0
 40
0.1737100452
 40
1.0
 40
1.0
 40
1.0
 40
1.0
 10
-19.8883475728
 20
21.8544096234
 30
0.0
 10
-19.8810723322
 20
21.8545397973
 30
0.0
 10
-19.8391864546
 20
21.8550251117
 30
0.0
 10
-19.7972975614
 20
21.8551238966
 30
0.0
 10
-19.7626857485
 20
21.8551423709
 30
0.0
  0
SPLINE
  5
3AF
100
AcDbEntity
  8
IMPORT_IGES
100
AcDbSpline
 62
7
  6
CONTINUOUS
 70
0
 71
3
 72
9
 73
5
 74
0
 42
0.0000001
 43
0.0000001
 44
0.0000000001
 40
0.0
 40
0.0
 40
0.0
 40
0.0
 40
0.1737097073
 40
1.0
 40
1.0
 40
1.0
 40
1.0
 10
19.8883475738
 20
21.8544096234
 30
0.0
 10
19.8810723473
 20
21.8545397971
 30
0.0
 10
19.839186469
 20
21.8550250838
 30
0.0
 10
19.7972975758
 20
21.8551238966
 30
0.0
 10
19.7626857485
 20
21.8551423709
 30
0.0
  0
SPLINE
  5
3B0
100
AcDbEntity
  8
IMPORT_IGES
100
AcDbSpline
 62
7
  6
CONTINUOUS
 70
0
 71
3
 72
9
 73
5
 74
0
 42
0.0000001
 43
0.0000001
 44
0.0000000001
 40
0.0
 40
0.0
 40
0.0
 40
0.0
 40
0.1737100446
 40
1.0
 40
1.0
 40
1.0
 40
1.0
 10
19.8883475738
 20
14.7705903766
 30
0.0
 10
19.8810723332
 20
14.7704602027
 30
0.0
 10
19.8391864552
 20
14.7699748883
 30
0.0
 10
19.7972975617
 20
14.7698761034
 30
0.0
 10
19.7626857485
 20
14.7698576291
 30
0.0
  0
SPLINE
  5
3B1
100
AcDbEntity
  8
IMPORT_IGES
100
AcDbSpline
 62
7
  6
CONTINUOUS
 70
0
 71
3
 72
9
 73
5
 74
0
 42
0.0000001
 43
0.0000001
 44
0.0000000001
 40
0.0
 40
0.0
 40
0.0
 40
0.0
 40
0.1737097073
 40
1.0
 40
1.0
 40
1.0
 40
1.0
 10
19.8883475738
 20
2.7544096234
 30
0.0
 10
19.8810723473
 20
2.7545397971
 30
0.0
 10
19.839186469
 20
2.7550250838
 30
0.0
 10
19.7972975758
 20
2.7551238966
 30
0.0
 10
19.7626857485
 20
2.7551423709
 30
0.0
  0
SPLINE
  5
3B2
100
AcDbEntity
  8
IMPORT_IGES
100
AcDbSpline
 62
7
  6
CONTINUOUS
 70
0
 71
3
 72
9
 73
5
 74
0
 42
0.0000001
 43
0.0000001
 44
0.0000000001
 40
0.0
 40
0.0
 40
0.0
 40
0.0
 40
0.1737100446
 40
1.0
 40
1.0
 40
1.0
 40
1.0
 10
19.8883475738
 20
-4.2544096234
 30
0.0
 10
19.8810723332
 20
-4.2545397973
 30
0.0
 10
19.8391864552
 20
-4.2550251117
 30
0.0
 10
19.7972975617
 20
-4.2551238966
 30
0.0
 10
19.7626857485
 20
-4.2551423709
 30
0.0
  0
ELLIPSE
  5
3B3
100
AcDbEntity
  8
RACCORDO
100
AcDbEllipse
 62
7
  6
CONTINUOUS
 10
14.45
 20
-8.4463734514
 30
0.0
 11
0.1
 21
0.0
 31
0.0
 40
0.0087268678
 41
-2.55359005
 42
-0.5880026035
  0
ELLIPSE
  5
3B4
100
AcDbEntity
  8
RACCORDO
100
AcDbEllipse
 62
7
  6
CONTINUOUS
 10
14.45
 20
-7.5036265486
 30
0.0
 11
0.1
 21
0.0
 31
0.0
 40
0.0087268678
 41
0.5880026035
 42
2.55359005
  0
ELLIPSE
  5
3B5
100
AcDbEntity
  8
RACCORDO
100
AcDbEllipse
 62
7
  6
CONTINUOUS
 10
13.95
 20
-8.4463734514
 30
0.0
 11
0.1
 21
-0.0
 31
0.0
 40
0.0087268678
 41
-2.55359005
 42
-0.5880026035
  0
ELLIPSE
  5
3B6
100
AcDbEntity
  8
RACCORDO
100
AcDbEllipse
 62
7
  6
CONTINUOUS
 10
13.95
 20
-7.5036265486
 30
0.0
 11
0.1
 21
0.0
 31
0.0
 40
0.0087268678
 41
0.5880026035
 42
2.55359005
  0
ELLIPSE
  5
3B7
100
AcDbEntity
  8
RACCORDO
100
AcDbEllipse
 62
7
  6
CONTINUOUS
 10
13.45
 20
-8.4463734514
 30
0.0
 11
0.1
 21
-0.0
 31
0.0
 40
0.0087268678
 41
-2.55359005
 42
-0.5880026035
  0
ELLIPSE
  5
3B8
100
AcDbEntity
  8
RACCORDO
100
AcDbEllipse
 62
7
  6
CONTINUOUS
 10
13.45
 20
-7.5036265486
 30
0.0
 11
0.1
 21
0.0
 31
0.0
 40
0.0087268678
 41
0.5880026035
 42
2.55359005
  0
ELLIPSE
  5
3B9
100
AcDbEntity
  8
RACCORDO
100
AcDbEllipse
 62
7
  6
CONTINUOUS
 10
12.95
 20
-8.4463734514
 30
0.0
 11
0.1
 21
0.0
 31
0.0
 40
0.0087268678
 41
-2.55359005
 42
-0.5880026035
  0
ELLIPSE
  5
3BA
100
AcDbEntity
  8
RACCORDO
100
AcDbEllipse
 62
7
  6
CONTINUOUS
 10
12.95
 20
-7.5036265486
 30
0.0
 11
0.1
 21
0.0
 31
0.0
 40
0.0087268678
 41
0.5880026035
 42
2.55359005
  0
ELLIPSE
  5
3BB
100
AcDbEntity
  8
RACCORDO
100
AcDbEllipse
 62
7
  6
CONTINUOUS
 10
12.45
 20
-8.4463734514
 30
0.0
 11
0.1
 21
-0.0
 31
0.0
 40
0.0087268678
 41
-2.55359005
 42
-0.5880026035
  0
ELLIPSE
  5
3BC
100
AcDbEntity
  8
RACCORDO
100
AcDbEllipse
 62
7
  6
CONTINUOUS
 10
12.45
 20
-7.5036265486
 30
0.0
 11
0.1
 21
0.0
 31
0.0
 40
0.0087268678
 41
0.5880026035
 42
2.55359005
  0
ELLIPSE
  5
3BD
100
AcDbEntity
  8
RACCORDO
100
AcDbEllipse
 62
7
  6
CONTINUOUS
 10
11.95
 20
-8.4463734514
 30
0.0
 11
0.1
 21
0.0
 31
0.0
 40
0.0087268678
 41
-2.55359005
 42
-0.5880026035
  0
ELLIPSE
  5
3BE
100
AcDbEntity
  8
RACCORDO
100
AcDbEllipse
 62
7
  6
CONTINUOUS
 10
11.95
 20
-7.5036265486
 30
0.0
 11
0.1
 21
0.0
 31
0.0
 40
0.0087268678
 41
0.5880026035
 42
2.55359005
  0
ELLIPSE
  5
3BF
100
AcDbEntity
  8
RACCORDO
100
AcDbEllipse
 62
7
  6
CONTINUOUS
 10
11.606217784
 20
-7.975
 30
0.0
 11
0.4749916478
 21
-0.0
 31
0.0
 40
0.9999143183
 41
-2.3159314735
 42
-2.0990859663
  0
ELLIPSE
  5
3C0
100
AcDbEntity
  8
RACCORDO
100
AcDbEllipse
 62
7
  6
CONTINUOUS
 10
11.5938336316
 20
-7.975
 30
0.0
 11
0.4710638842
 21
-0.0
 31
0.0
 40
0.9999143183
 41
-1.6998600302
 42
-1.5577056512
  0
ELLIPSE
  5
3C1
100
AcDbEntity
  8
RACCORDO
100
AcDbEllipse
 62
7
  6
CONTINUOUS
 10
11.5938336316
 20
-7.975
 30
0.0
 11
0.4710638842
 21
-0.0
 31
0.0
 40
0.9999143183
 41
1.5577056512
 42
1.6998600302
  0
ELLIPSE
  5
3C2
100
AcDbEntity
  8
RACCORDO
100
AcDbEllipse
 62
7
  6
CONTINUOUS
 10
11.606217784
 20
-7.975
 30
0.0
 11
0.4749916478
 21
-0.0
 31
0.0
 40
0.9999143183
 41
2.0990859663
 42
2.3159314735
  0
ELLIPSE
  5
3C3
100
AcDbEntity
  8
RACCORDO
100
AcDbEllipse
 62
7
  6
CONTINUOUS
 10
11.7
 20
-8.4461439646
 30
0.0
 11
0.0934258546
 21
-0.0
 31
0.0
 40
0.0087268678
 41
0.5880026035
 42
2.55359005
  0
ELLIPSE
  5
3C4
100
AcDbEntity
  8
RACCORDO
100
AcDbEllipse
 62
7
  6
CONTINUOUS
 10
12.2
 20
-8.4461439646
 30
0.0
 11
0.0934258546
 21
-0.0
 31
0.0
 40
0.0087268678
 41
0.5880026035
 42
2.55359005
  0
ELLIPSE
  5
3C5
100
AcDbEntity
  8
RACCORDO
100
AcDbEllipse
 62
7
  6
CONTINUOUS
 10
12.7
 20
-8.4461439646
 30
0.0
 11
0.0934258546
 21
-0.0
 31
0.0
 40
0.0087268678
 41
0.5880026035
 42
2.55359005
  0
ELLIPSE
  5
3C6
100
AcDbEntity
  8
RACCORDO
100
AcDbEllipse
 62
7
  6
CONTINUOUS
 10
13.2
 20
-8.4461439646
 30
0.0
 11
0.0934258546
 21
-0.0
 31
0.0
 40
0.0087268678
 41
0.5880026035
 42
2.55359005
  0
ELLIPSE
  5
3C7
100
AcDbEntity
  8
RACCORDO
100
AcDbEllipse
 62
7
  6
CONTINUOUS
 10
13.7
 20
-8.4461439646
 30
0.0
 11
0.0934258546
 21
0.0
 31
0.0
 40
0.0087268678
 41
0.5880026035
 42
2.55359005
  0
ELLIPSE
  5
3C8
100
AcDbEntity
  8
RACCORDO
100
AcDbEllipse
 62
7
  6
CONTINUOUS
 10
14.2
 20
-8.4461439646
 30
0.0
 11
0.0934258546
 21
-0.0
 31
0.0
 40
0.0087268678
 41
0.5880026035
 42
2.55359005
  0
ELLIPSE
  5
3C9
100
AcDbEntity
  8
RACCORDO
100
AcDbEllipse
 62
7
  6
CONTINUOUS
 10
14.7
 20
-8.4461439646
 30
0.0
 11
0.0934258546
 21
0.0
 31
0.0
 40
0.0087268678
 41
0.5880026035
 42
2.55359005
  0
ELLIPSE
  5
3CA
100
AcDbEntity
  8
RACCORDO
100
AcDbEllipse
 62
7
  6
CONTINUOUS
 10
14.793782216
 20
-7.975
 30
0.0
 11
0.4749916478
 21
-0.0
 31
0.0
 40
0.9999143183
 41
0.8256611801
 42
1.0425066873
  0
ELLIPSE
  5
3CB
100
AcDbEntity
  8
RACCORDO
100
AcDbEllipse
 62
7
  6
CONTINUOUS
 10
14.8061663684
 20
-7.975
 30
0.0
 11
0.4710638842
 21
0.0
 31
0.0
 40
0.9999143183
 41
1.4417326234
 42
1.5838870024
  0
ELLIPSE
  5
3CC
100
AcDbEntity
  8
RACCORDO
100
AcDbEllipse
 62
7
  6
CONTINUOUS
 10
14.8061663684
 20
-7.975
 30
0.0
 11
0.4710638842
 21
0.0
 31
0.0
 40
0.9999143183
 41
-1.5838870024
 42
-1.4417326234
  0
ELLIPSE
  5
3CD
100
AcDbEntity
  8
RACCORDO
100
AcDbEllipse
 62
7
  6
CONTINUOUS
 10
14.793782216
 20
-7.975
 30
0.0
 11
0.4749916478
 21
0.0
 31
0.0
 40
0.9999143183
 41
-1.0425066873
 42
-0.8256611801
  0
ELLIPSE
  5
3CE
100
AcDbEntity
  8
RACCORDO
100
AcDbEllipse
 62
7
  6
CONTINUOUS
 10
11.7
 20
-7.5038560354
 30
0.0
 11
0.0934258546
 21
-0.0
 31
0.0
 40
0.0087268678
 41
-2.55359005
 42
-0.5880026035
  0
ELLIPSE
  5
3CF
100
AcDbEntity
  8
RACCORDO
100
AcDbEllipse
 62
7
  6
CONTINUOUS
 10
14.7
 20
-7.5038560354
 30
0.0
 11
0.0934258546
 21
-0.0
 31
0.0
 40
0.0087268678
 41
-2.55359005
 42
-0.5880026035
  0
ELLIPSE
  5
3D0
100
AcDbEntity
  8
RACCORDO
100
AcDbEllipse
 62
7
  6
CONTINUOUS
 10
14.2
 20
-7.5038560354
 30
0.0
 11
0.0934258546
 21
-0.0
 31
0.0
 40
0.0087268678
 41
-2.55359005
 42
-0.5880026035
  0
ELLIPSE
  5
3D1
100
AcDbEntity
  8
RACCORDO
100
AcDbEllipse
 62
7
  6
CONTINUOUS
 10
13.7
 20
-7.5038560354
 30
0.0
 11
0.0934258546
 21
0.0
 31
0.0
 40
0.0087268678
 41
-2.55359005
 42
-0.5880026035
  0
ELLIPSE
  5
3D2
100
AcDbEntity
  8
RACCORDO
100
AcDbEllipse
 62
7
  6
CONTINUOUS
 10
13.2
 20
-7.5038560354
 30
0.0
 11
0.0934258546
 21
-0.0
 31
0.0
 40
0.0087268678
 41
-2.55359005
 42
-0.5880026035
  0
ELLIPSE
  5
3D3
100
AcDbEntity
  8
RACCORDO
100
AcDbEllipse
 62
7
  6
CONTINUOUS
 10
12.7
 20
-7.5038560354
 30
0.0
 11
0.0934258546
 21
0.0
 31
0.0
 40
0.0087268678
 41
-2.55359005
 42
-0.5880026035
  0
ELLIPSE
  5
3D4
100
AcDbEntity
  8
RACCORDO
100
AcDbEllipse
 62
7
  6
CONTINUOUS
 10
12.2
 20
-7.5038560354
 30
0.0
 11
0.0934258546
 21
0.0
 31
0.0
 40
0.0087268678
 41
-2.55359005
 42
-0.5880026035
  0
ELLIPSE
  5
3D5
100
AcDbEntity
  8
IMPORT_IGES
100
AcDbEllipse
 62
7
  6
CONTINUOUS
 10
-11.1875152328
 20
-8.6499847672
 30
0.0
 11
0.0707322189
 21
-0.0707322189
 31
0.0
 40
0.9996954599
 41
-0.7852458698
 42
0.7852458698
  0
ELLIPSE
  5
3D6
100
AcDbEntity
  8
IMPORT_IGES
100
AcDbEllipse
 62
7
  6
CONTINUOUS
 10
-11.1875152328
 20
-7.3500152328
 30
0.0
 11
0.0707322189
 21
0.0707322189
 31
0.0
 40
0.9996954599
 41
-0.7852458698
 42
0.7852458698
  0
ELLIPSE
  5
3D7
100
AcDbEntity
  8
IMPORT_IGES
100
AcDbEllipse
 62
7
  6
CONTINUOUS
 10
-6.5499771508
 20
17.3250228492
 30
0.0
 11
-0.1060983284
 21
-0.1060983284
 31
0.0
 40
0.9996954599
 41
-0.7852458701
 42
0.7852458701
  0
ELLIPSE
  5
3D8
100
AcDbEntity
  8
IMPORT_IGES
100
AcDbEllipse
 62
7
  6
CONTINUOUS
 10
-7.6999771508
 20
14.0750228492
 30
0.0
 11
-0.1060983284
 21
-0.1060983284
 31
0.0
 40
0.9996954599
 41
-0.7852458701
 42
0.7852458701
  0
ELLIPSE
  5
3D9
100
AcDbEntity
  8
IMPORT_IGES
100
AcDbEllipse
 62
7
  6
CONTINUOUS
 10
-7.8499771508
 20
10.8250228492
 30
0.0
 11
-0.1060983284
 21
-0.1060983284
 31
0.0
 40
0.9996954599
 41
-0.7852458701
 42
0.7852458701
  0
ELLIPSE
  5
3DA
100
AcDbEntity
  8
IMPORT_IGES
100
AcDbEllipse
 62
7
  6
CONTINUOUS
 10
-7.1999771508
 20
7.5750228492
 30
0.0
 11
-0.1060983284
 21
-0.1060983284
 31
0.0
 40
0.9996954599
 41
-0.7852458701
 42
0.7852458701
  0
ELLIPSE
  5
3DB
100
AcDbEntity
  8
IMPORT_IGES
100
AcDbEllipse
 62
7
  6
CONTINUOUS
 10
-5.2499771508
 20
4.3250228492
 30
0.0
 11
-0.1060983284
 21
-0.1060983284
 31
0.0
 40
0.9996954599
 41
-0.7852458701
 42
0.7852458701
  0
ELLIPSE
  5
3DC
100
AcDbEntity
  8
IMPORT_IGES
100
AcDbEllipse
 62
7
  6
CONTINUOUS
 10
14.4807841958
 20
17.6653844815
 30
0.0
 11
0.0707322189
 21
0.0707322189
 31
0.0
 40
0.9996954599
 41
-0.7852458701
 42
0.7852458701
  0
ELLIPSE
  5
3DD
100
AcDbEntity
  8
IMPORT_IGES
100
AcDbEllipse
 62
7
  6
CONTINUOUS
 10
11.5999771508
 20
4.3250228492
 30
0.0
 11
0.1060983284
 21
-0.1060983284
 31
0.0
 40
0.9996954599
 41
-0.7852458701
 42
0.7852458701
  0
ELLIPSE
  5
3DE
100
AcDbEntity
  8
IMPORT_IGES
100
AcDbEllipse
 62
7
  6
CONTINUOUS
 10
7.0999771508
 20
1.0750228492
 30
0.0
 11
0.1060983284
 21
-0.1060983284
 31
0.0
 40
0.9996954599
 41
-0.7852458701
 42
0.7852458701
  0
ELLIPSE
  5
3DF
100
AcDbEntity
  8
IMPORT_IGES
100
AcDbEllipse
 62
7
  6
CONTINUOUS
 10
14.4807841958
 20
7.9153844815
 30
0.0
 11
0.0707322189
 21
0.0707322189
 31
0.0
 40
0.9996954599
 41
-0.7852458702
 42
0.7852458701
  0
ELLIPSE
  5
3E0
100
AcDbEntity
  8
IMPORT_IGES
100
AcDbEllipse
 62
7
  6
CONTINUOUS
 10
14.4807841958
 20
11.1653844815
 30
0.0
 11
0.0707322189
 21
0.0707322189
 31
0.0
 40
0.9996954599
 41
-0.7852458702
 42
0.7852458701
  0
ELLIPSE
  5
3E1
100
AcDbEntity
  8
IMPORT_IGES
100
AcDbEllipse
 62
7
  6
CONTINUOUS
 10
14.4807841958
 20
14.4153844815
 30
0.0
 11
0.0707322189
 21
0.0707322189
 31
0.0
 40
0.9996954599
 41
-0.7852458706
 42
0.7852458701
  0
ELLIPSE
  5
3E2
100
AcDbEntity
  8
IMPORT_IGES
100
AcDbEllipse
 62
7
  6
CONTINUOUS
 10
-15.3624847672
 20
-8.6499847672
 30
0.0
 11
-0.0707322189
 21
-0.0707322189
 31
0.0
 40
0.9996954599
 41
-0.7852458701
 42
0.7852458701
  0
ELLIPSE
  5
3E3
100
AcDbEntity
  8
IMPORT_IGES
100
AcDbEllipse
 62
7
  6
CONTINUOUS
 10
1.9154987275
 20
18.4154987275
 30
0.0
 11
0.459759423
 21
0.459759423
 31
0.0
 40
0.9996954599
 41
-2.9933910408
 42
-2.3563467834
  0
ELLIPSE
  5
3E4
100
AcDbEntity
  8
IMPORT_IGES
100
AcDbEllipse
 62
7
  6
CONTINUOUS
 10
1.9154987275
 20
15.1654987275
 30
0.0
 11
0.459759423
 21
0.459759423
 31
0.0
 40
0.9996954599
 41
-2.9933910408
 42
-2.3563467834
  0
ELLIPSE
  5
3E5
100
AcDbEntity
  8
IMPORT_IGES
100
AcDbEllipse
 62
7
  6
CONTINUOUS
 10
1.9154987275
 20
11.9154987275
 30
0.0
 11
0.459759423
 21
0.459759423
 31
0.0
 40
0.9996954599
 41
-2.9933910408
 42
-2.3563467834
  0
ELLIPSE
  5
3E6
100
AcDbEntity
  8
IMPORT_IGES
100
AcDbEllipse
 62
7
  6
CONTINUOUS
 10
1.9154987275
 20
8.6654987275
 30
0.0
 11
0.459759423
 21
0.459759423
 31
0.0
 40
0.9996954599
 41
-2.9933910408
 42
-2.3563467834
  0
ELLIPSE
  5
3E7
100
AcDbEntity
  8
IMPORT_IGES
100
AcDbEllipse
 62
7
  6
CONTINUOUS
 10
-15.3624847672
 20
-7.3500152328
 30
0.0
 11
-0.0707322189
 21
0.0707322189
 31
0.0
 40
0.9996954599
 41
-0.7852458702
 42
0.7852458702
  0
ELLIPSE
  5
3E8
100
AcDbEntity
  8
IMPORT_IGES
100
AcDbEllipse
 62
7
  6
CONTINUOUS
 10
1.9154987275
 20
5.4154987275
 30
0.0
 11
0.459759423
 21
0.459759423
 31
0.0
 40
0.9996954599
 41
-2.9933910408
 42
-2.3563467834
  0
ELLIPSE
  5
3E9
100
AcDbEntity
  8
IMPORT_IGES
100
AcDbEllipse
 62
7
  6
CONTINUOUS
 10
1.9154987275
 20
2.1654987275
 30
0.0
 11
0.459759423
 21
0.459759423
 31
0.0
 40
0.9996954599
 41
-2.9933910408
 42
-2.3563467834
  0
ELLIPSE
  5
3EA
100
AcDbEntity
  8
IMPORT_IGES
100
AcDbEllipse
 62
7
  6
CONTINUOUS
 10
19.1623216621
 20
-9.77954966
 30
0.0
 11
0.25
 21
-0.0
 31
0.0
 40
0.0087268678
 41
-2.6354471715
 42
-1.6318828504
  0
ELLIPSE
  5
3EB
100
AcDbEntity
  8
IMPORT_IGES
100
AcDbEllipse
 62
7
  6
CONTINUOUS
 10
-19.3257368464
 20
24.1249942882
 30
0.0
 11
0.1714868545
 21
-0.0026998352
 31
0.0
 40
0.8745942315
 41
1.5887955148
 42
3.1553611206
  0
ELLIPSE
  5
3EC
100
AcDbEntity
  8
IMPORT_IGES
100
AcDbEllipse
 62
7
  6
CONTINUOUS
 10
-14.4558222778
 20
24.1249942882
 30
0.0
 11
-0.1341916675
 21
-0.0670907238
 31
0.0
 40
0.9998096356
 41
2.6780516535
 42
4.2486956812
  0
ELLIPSE
  5
3ED
100
AcDbEntity
  8
IMPORT_IGES
100
AcDbEllipse
 62
7
  6
CONTINUOUS
 10
-1.2191777222
 20
24.1249942882
 30
0.0
 11
0.1341916675
 21
-0.0670907238
 31
0.0
 40
0.9998096356
 41
2.0344896259
 42
3.6051336538
  0
ELLIPSE
  5
3EE
100
AcDbEntity
  8
IMPORT_IGES
100
AcDbEllipse
 62
7
  6
CONTINUOUS
 10
1.2191777222
 20
24.1249942882
 30
0.0
 11
-0.1341916675
 21
-0.0670907238
 31
0.0
 40
0.9998096356
 41
2.6780516534
 42
4.2486956813
  0
ELLIPSE
  5
3EF
100
AcDbEntity
  8
IMPORT_IGES
100
AcDbEllipse
 62
7
  6
CONTINUOUS
 10
14.4558222778
 20
24.1249942882
 30
0.0
 11
0.1341916675
 21
-0.0670907238
 31
0.0
 40
0.9998096356
 41
2.0344896259
 42
3.6051336536
  0
ELLIPSE
  5
3F0
100
AcDbEntity
  8
IMPORT_IGES
100
AcDbEllipse
 62
7
  6
CONTINUOUS
 10
19.3257368464
 20
-5.3249771508
 30
0.0
 11
-0.1714381165
 21
0.005398547
 31
0.0
 40
0.8745178023
 41
1.6067889292
 42
3.1691240605
  0
ELLIPSE
  5
3F1
100
AcDbEntity
  8
IMPORT_IGES
100
AcDbEllipse
 62
7
  6
CONTINUOUS
 10
19.3257368464
 20
-6.1750228492
 30
0.0
 11
-0.1714381165
 21
-0.005398547
 31
0.0
 40
0.8745178023
 41
3.1140612467
 42
4.676396378
  0
ELLIPSE
  5
3F2
100
AcDbEntity
  8
IMPORT_IGES
100
AcDbEllipse
 62
7
  6
CONTINUOUS
 10
-19.3257368464
 20
-9.6249942883
 30
0.0
 11
0.1714868545
 21
0.0026998352
 31
0.0
 40
0.8745942315
 41
3.1278241863
 42
4.6943897924
  0
ELLIPSE
  5
3F3
100
AcDbEntity
  8
IMPORT_IGES
100
AcDbEllipse
 62
7
  6
CONTINUOUS
 10
-3.9999771508
 20
20.5750228492
 30
0.0
 11
-0.1060983284
 21
-0.1060983284
 31
0.0
 40
0.9996954599
 41
-0.7852458701
 42
0.7852458701
  0
ELLIPSE
  5
3F4
100
AcDbEntity
  8
IMPORT_IGES
100
AcDbEllipse
 62
7
  6
CONTINUOUS
 10
10.9499771508
 20
20.5750228492
 30
0.0
 11
0.1060983284
 21
-0.1060983284
 31
0.0
 40
0.9996954599
 41
-0.7852458701
 42
0.7852458701
  0
ELLIPSE
  5
3F5
100
AcDbEntity
  8
IMPORT_IGES
100
AcDbEllipse
 62
7
  6
CONTINUOUS
 10
1.9154987275
 20
21.6654987275
 30
0.0
 11
0.459759423
 21
0.459759423
 31
0.0
 40
0.9996954599
 41
-2.9933910408
 42
-2.3563467834
  0
ELLIPSE
  5
3F6
100
AcDbEntity
  8
IMPORT_IGES
100
AcDbEllipse
 62
7
  6
CONTINUOUS
 10
19.3257368464
 20
24.1249942882
 30
0.0
 11
0.1714868545
 21
0.0026998352
 31
0.0
 40
0.8745942315
 41
-0.013768467
 42
1.5527971388
  0
ELLIPSE
  5
3F7
100
AcDbEntity
  8
IMPORT_IGES
100
AcDbEllipse
 62
7
  6
CONTINUOUS
 10
19.7535284676
 20
-9.7833624916
 30
0.0
 11
0.15
 21
-0.0
 31
0.0
 40
0.0087268678
 41
0.4537856057
 42
1.5097098026
  0
ELLIPSE
  5
3F8
100
AcDbEntity
  8
IMPORT_IGES
100
AcDbEllipse
 62
7
  6
CONTINUOUS
 10
18.4991432475
 20
-9.7763090302
 30
0.0
 11
0.15
 21
0.0
 31
0.0
 40
0.0087268678
 41
0.5061454836
 42
1.5707963268
  0
ELLIPSE
  5
3F9
100
AcDbEntity
  8
IMPORT_IGES
100
AcDbEllipse
 62
7
  6
CONTINUOUS
 10
-6.7499847672
 20
-5.9249847672
 30
0.0
 11
0.0707322189
 21
0.0707322189
 31
0.0
 40
0.9996954599
 41
2.3563467835
 42
3.9268385236
  0
ELLIPSE
  5
3FA
100
AcDbEntity
  8
IMPORT_IGES
100
AcDbEllipse
 62
7
  6
CONTINUOUS
 10
-6.7499847672
 20
-5.5750152328
 30
0.0
 11
0.0707322189
 21
-0.0707322189
 31
0.0
 40
0.9996954599
 41
2.3563467835
 42
3.9268385236
  0
ELLIPSE
  5
3FB
100
AcDbEntity
  8
IMPORT_IGES
100
AcDbEllipse
 62
7
  6
CONTINUOUS
 10
-22.1391306812
 20
21.7848571578
 30
0.0
 11
0.2999978799
 21
0.0129032235
 31
0.0
 40
0.0874078555
 41
-1.2727189522
 42
-0.5273582617
  0
ELLIPSE
  5
3FC
100
AcDbEntity
  8
IMPORT_IGES
100
AcDbEllipse
 62
7
  6
CONTINUOUS
 10
-18.4991432476
 20
-0.1391107562
 30
0.0
 11
0.15
 21
0.0
 31
0.0
 40
0.0087268678
 41
1.570796327
 42
2.6354471705
  0
ELLIPSE
  5
3FD
100
AcDbEntity
  8
IMPORT_IGES
100
AcDbEllipse
 62
7
  6
CONTINUOUS
 10
-18.4991432475
 20
-7.1858892438
 30
0.0
 11
0.15
 21
-0.0
 31
0.0
 40
0.0087268678
 41
-2.6354471705
 42
-1.570796327
  0
ELLIPSE
  5
3FE
100
AcDbEntity
  8
IMPORT_IGES
100
AcDbEllipse
 62
7
  6
CONTINUOUS
 10
-19.1623216621
 20
-0.142351386
 30
0.0
 11
0.25
 21
0.0
 31
0.0
 40
0.0087268678
 41
-1.5097098031
 42
-0.5061454831
  0
ELLIPSE
  5
3FF
100
AcDbEntity
  8
IMPORT_IGES
100
AcDbEllipse
 62
7
  6
CONTINUOUS
 10
-19.1623216621
 20
-7.182648614
 30
0.0
 11
0.25
 21
0.0
 31
0.0
 40
0.0087268678
 41
0.5061454831
 42
1.5097098031
  0
ELLIPSE
  5
400
100
AcDbEntity
  8
IMPORT_IGES
100
AcDbEllipse
 62
7
  6
CONTINUOUS
 10
-18.4991432475
 20
21.8608892438
 30
0.0
 11
0.15
 21
-0.0
 31
0.0
 40
0.0087268678
 41
1.570796327
 42
2.6354471705
  0
ELLIPSE
  5
401
100
AcDbEntity
  8
IMPORT_IGES
100
AcDbEllipse
 62
7
  6
CONTINUOUS
 10
-18.4991432476
 20
14.7641107562
 30
0.0
 11
0.15
 21
-0.0
 31
0.0
 40
0.0087268678
 41
-2.6354471705
 42
-1.570796327
  0
ELLIPSE
  5
402
100
AcDbEntity
  8
IMPORT_IGES
100
AcDbEllipse
 62
7
  6
CONTINUOUS
 10
19.1623216621
 20
14.767351386
 30
0.0
 11
0.25
 21
0.0
 31
0.0
 40
0.0087268678
 41
1.6318828505
 42
2.6354471704
  0
ELLIPSE
  5
403
100
AcDbEntity
  8
IMPORT_IGES
100
AcDbEllipse
 62
7
  6
CONTINUOUS
 10
-19.1623216621
 20
14.767351386
 30
0.0
 11
0.25
 21
0.0
 31
0.0
 40
0.0087268678
 41
0.5061454831
 42
1.5097098031
  0
ELLIPSE
  5
404
100
AcDbEntity
  8
IMPORT_IGES
100
AcDbEllipse
 62
7
  6
CONTINUOUS
 10
22.1391306812
 20
19.789216908
 30
0.0
 11
0.3
 21
-0.0
 31
0.0
 40
0.0874886635
 41
1.8726335885
 42
2.6179938777
  0
ELLIPSE
  5
405
100
AcDbEntity
  8
IMPORT_IGES
100
AcDbEllipse
 62
7
  6
CONTINUOUS
 10
-22.1391306812
 20
-2.210783092
 30
0.0
 11
0.3
 21
-0.0
 31
0.0
 40
0.0874886635
 41
0.5235987756
 42
1.2689402103
  0
ELLIPSE
  5
406
100
AcDbEntity
  8
IMPORT_IGES
100
AcDbEllipse
 62
7
  6
CONTINUOUS
 10
-22.1391306812
 20
-0.2151428421
 30
0.0
 11
0.2999978799
 21
0.0129032235
 31
0.0
 40
0.0874078555
 41
-1.2727189513
 42
-0.5273582614
  0
ELLIPSE
  5
407
100
AcDbEntity
  8
IMPORT_IGES
100
AcDbEllipse
 62
7
  6
CONTINUOUS
 10
-22.1391306812
 20
-5.1142169072
 30
0.0
 11
0.3
 21
0.0
 31
0.0
 40
0.0874886635
 41
-1.2689590651
 42
-0.5235987759
  0
ELLIPSE
  5
408
100
AcDbEntity
  8
IMPORT_IGES
100
AcDbEllipse
 62
7
  6
CONTINUOUS
 10
-22.1391306811
 20
-7.1098571579
 30
0.0
 11
0.2999978799
 21
-0.0129032235
 31
0.0
 40
0.0874078555
 41
0.5273582614
 42
1.2725544261
  0
ELLIPSE
  5
409
100
AcDbEntity
  8
IMPORT_IGES
100
AcDbEllipse
 62
7
  6
CONTINUOUS
 10
-19.7535284676
 20
-7.1788357823
 30
0.0
 11
0.15
 21
0.0
 31
0.0
 40
0.0087268678
 41
-2.6878070451
 42
-1.6318828507
  0
ELLIPSE
  5
40A
100
AcDbEntity
  8
IMPORT_IGES
100
AcDbEllipse
 62
7
  6
CONTINUOUS
 10
22.1391306812
 20
21.7848571579
 30
0.0
 11
0.2999978799
 21
-0.0129032235
 31
0.0
 40
0.0874078555
 41
-2.6142343922
 42
-1.8690382275
  0
ELLIPSE
  5
40B
100
AcDbEntity
  8
IMPORT_IGES
100
AcDbEllipse
 62
7
  6
CONTINUOUS
 10
22.1391306811
 20
14.8401428421
 30
0.0
 11
0.2999978799
 21
0.0129032235
 31
0.0
 40
0.0874078555
 41
1.8688737023
 42
2.6142343922
  0
ELLIPSE
  5
40C
100
AcDbEntity
  8
IMPORT_IGES
100
AcDbEllipse
 62
7
  6
CONTINUOUS
 10
22.1391306812
 20
16.835783092
 30
0.0
 11
0.3
 21
0.0
 31
0.0
 40
0.0874886635
 41
-2.617993878
 42
-1.8726524433
  0
ELLIPSE
  5
40D
100
AcDbEntity
  8
IMPORT_IGES
100
AcDbEllipse
 62
7
  6
CONTINUOUS
 10
-19.7535284676
 20
14.7711642177
 30
0.0
 11
0.15
 21
-0.0
 31
0.0
 40
0.0087268678
 41
-2.6878070444
 42
-1.6318828507
  0
ELLIPSE
  5
40E
100
AcDbEntity
  8
IMPORT_IGES
100
AcDbEllipse
 62
7
  6
CONTINUOUS
 10
-19.1623216621
 20
21.857648614
 30
0.0
 11
0.25
 21
-0.0
 31
0.0
 40
0.0087268678
 41
-1.5097098031
 42
-0.5061454831
  0
ELLIPSE
  5
40F
100
AcDbEntity
  8
IMPORT_IGES
100
AcDbEllipse
 62
7
  6
CONTINUOUS
 10
19.1623216621
 20
21.857648614
 30
0.0
 11
0.25
 21
0.0
 31
0.0
 40
0.0087268678
 41
-2.6354471704
 42
-1.6318828505
  0
ELLIPSE
  5
410
100
AcDbEntity
  8
IMPORT_IGES
100
AcDbEllipse
 62
7
  6
CONTINUOUS
 10
19.1623216621
 20
-7.4173513861
 30
0.0
 11
0.25
 21
0.0
 31
0.0
 40
0.0087268678
 41
-2.6354471705
 42
-1.6318828505
  0
ELLIPSE
  5
411
100
AcDbEntity
  8
IMPORT_IGES
100
AcDbEllipse
 62
7
  6
CONTINUOUS
 10
19.7535284676
 20
-7.4211642178
 30
0.0
 11
0.15
 21
0.0
 31
0.0
 40
0.0087268678
 41
0.4537856057
 42
1.5097098028
  0
ELLIPSE
  5
412
100
AcDbEntity
  8
IMPORT_IGES
100
AcDbEllipse
 62
7
  6
CONTINUOUS
 10
-10.6369279364
 20
-6.3869279364
 30
0.0
 11
-0.1890431118
 21
-0.1890431118
 31
0.0
 40
0.9351131265
 41
2.3897132394
 42
3.8934720678
  0
ELLIPSE
  5
413
100
AcDbEntity
  8
IMPORT_IGES
100
AcDbEllipse
 62
7
  6
CONTINUOUS
 10
-10.6838190451
 20
-6.4338190451
 30
0.0
 11
0.1890431118
 21
0.1890431118
 31
0.0
 40
0.9351131265
 41
-0.7518794141
 42
0.7518794141
  0
ELLIPSE
  5
414
100
AcDbEntity
  8
IMPORT_IGES
100
AcDbEllipse
 62
7
  6
CONTINUOUS
 10
18.4991432475
 20
21.8608892438
 30
0.0
 11
0.15
 21
-0.0
 31
0.0
 40
0.0087268678
 41
0.5061454831
 42
1.5707963268
  0
ELLIPSE
  5
415
100
AcDbEntity
  8
IMPORT_IGES
100
AcDbEllipse
 62
7
  6
CONTINUOUS
 10
18.4991432475
 20
14.7641107562
 30
0.0
 11
0.15
 21
0.0
 31
0.0
 40
0.0087268678
 41
-1.5707963265
 42
-0.5061454831
  0
ELLIPSE
  5
416
100
AcDbEntity
  8
IMPORT_IGES
100
AcDbEllipse
 62
7
  6
CONTINUOUS
 10
18.4991432475
 20
-7.4141107563
 30
0.0
 11
0.15
 21
0.0
 31
0.0
 40
0.0087268678
 41
0.5061454831
 42
1.5707963268
  0
ELLIPSE
  5
417
100
AcDbEntity
  8
IMPORT_IGES
100
AcDbEllipse
 62
7
  6
CONTINUOUS
 10
19.1623216621
 20
-4.257648614
 30
0.0
 11
0.25
 21
0.0
 31
0.0
 40
0.0087268678
 41
1.6318828505
 42
2.6354471704
  0
ELLIPSE
  5
418
100
AcDbEntity
  8
IMPORT_IGES
100
AcDbEllipse
 62
7
  6
CONTINUOUS
 10
22.1391306812
 20
2.6848571579
 30
0.0
 11
0.2999978799
 21
-0.0129032235
 31
0.0
 40
0.0874078555
 41
-2.6142343922
 42
-1.8690382275
  0
ELLIPSE
  5
419
100
AcDbEntity
  8
IMPORT_IGES
100
AcDbEllipse
 62
7
  6
CONTINUOUS
 10
22.1391306811
 20
0.6892169077
 30
0.0
 11
0.3
 21
-0.0
 31
0.0
 40
0.0874886635
 41
1.8726335885
 42
2.6179938778
  0
ELLIPSE
  5
41A
100
AcDbEntity
  8
IMPORT_IGES
100
AcDbEllipse
 62
7
  6
CONTINUOUS
 10
22.1391306812
 20
-4.1848571579
 30
0.0
 11
0.2999978799
 21
0.0129032235
 31
0.0
 40
0.0874078555
 41
1.8688737023
 42
2.6142343922
  0
ELLIPSE
  5
41B
100
AcDbEntity
  8
IMPORT_IGES
100
AcDbEllipse
 62
7
  6
CONTINUOUS
 10
22.1391306812
 20
-2.1892169077
 30
0.0
 11
0.3
 21
-0.0
 31
0.0
 40
0.0874886635
 41
-2.617993878
 42
-1.8726524433
  0
ELLIPSE
  5
41C
100
AcDbEntity
  8
IMPORT_IGES
100
AcDbEllipse
 62
7
  6
CONTINUOUS
 10
-22.1391306812
 20
16.835783092
 30
0.0
 11
0.3
 21
0.0
 31
0.0
 40
0.0874886635
 41
-1.2689590651
 42
-0.5235987759
  0
ELLIPSE
  5
41D
100
AcDbEntity
  8
IMPORT_IGES
100
AcDbEllipse
 62
7
  6
CONTINUOUS
 10
-22.1391306811
 20
14.8401428422
 30
0.0
 11
0.2999978799
 21
-0.0129032235
 31
0.0
 40
0.0874078555
 41
0.5273582617
 42
1.2725544261
  0
ELLIPSE
  5
41E
100
AcDbEntity
  8
IMPORT_IGES
100
AcDbEllipse
 62
7
  6
CONTINUOUS
 10
-15.9130720636
 20
-6.3869279364
 30
0.0
 11
0.1890431118
 21
-0.1890431118
 31
0.0
 40
0.9351131265
 41
2.3897132394
 42
3.8934720678
  0
ELLIPSE
  5
41F
100
AcDbEntity
  8
IMPORT_IGES
100
AcDbEllipse
 62
7
  6
CONTINUOUS
 10
19.1623216621
 20
2.757648614
 30
0.0
 11
0.25
 21
-0.0
 31
0.0
 40
0.0087268678
 41
-2.6354471704
 42
-1.6318828505
  0
ELLIPSE
  5
420
100
AcDbEntity
  8
IMPORT_IGES
100
AcDbEllipse
 62
7
  6
CONTINUOUS
 10
18.4991432475
 20
2.7608892438
 30
0.0
 11
0.15
 21
0.0
 31
0.0
 40
0.0087268678
 41
0.5061454831
 42
1.5707963268
  0
ELLIPSE
  5
421
100
AcDbEntity
  8
IMPORT_IGES
100
AcDbEllipse
 62
7
  6
CONTINUOUS
 10
-15.8661809549
 20
-6.4338190451
 30
0.0
 11
0.1890431118
 21
-0.1890431118
 31
0.0
 40
0.9351131265
 41
2.3897132395
 42
3.8934720677
  0
ELLIPSE
  5
422
100
AcDbEntity
  8
IMPORT_IGES
100
AcDbEllipse
 62
7
  6
CONTINUOUS
 10
18.4991432475
 20
-4.2608892438
 30
0.0
 11
0.15
 21
0.0
 31
0.0
 40
0.0087268678
 41
-1.5707963265
 42
-0.5061454831
  0
ELLIPSE
  5
423
100
AcDbEntity
  8
IMPORT_IGES
100
AcDbEllipse
 62
7
  6
CONTINUOUS
 10
-22.1391306812
 20
19.789216908
 30
0.0
 11
0.3
 21
0.0
 31
0.0
 40
0.0874886635
 41
0.5235987759
 42
1.2689402103
  0
ENDSEC
  0
SECTION
  2
OBJECTS
  0
DICTIONARY
  5
C
100
AcDbDictionary
280
0
281
1
  3
ACAD_GROUP
350
D
  3
ACAD_MLINESTYLE
350
17
  3
ACAD_LAYOUT
350
1A
  3
ACAD_PLOTSETTINGS
350
19
  3
ACAD_PLOTSTYLENAME
350
E
  0
DICTIONARY
  5
D
102
{ACAD_REACTORS
330
C
102
}
100
AcDbDictionary
280
0
281
1
  0
ACDBDICTIONARYWDFLT
  5
E
102
{ACAD_REACTORS
330
C
102
}
100
AcDbDictionary
281
1
  3
Normal
350
F
100
AcDbDictionaryWithDefault
340
F
  0
DICTIONARY
  5
17
102
{ACAD_REACTORS
330
C
102
}
100
AcDbDictionary
280
0
281
1
  3
Standard
350
18
  0
DICTIONARY
  5
19
102
{ACAD_REACTORS
330
C
102
}
100
AcDbDictionary
281
1
  0
DICTIONARY
  5
1A
102
{ACAD_REACTORS
330
C
102
}
100
AcDbDictionary
281
1
  3
Model
350
424
  3
Layout1
350
425
  0
ACDBPLACEHOLDER
  5
F
102
{ACAD_REACTORS
330
E
102
}
  0
MLINESTYLE
  5
18
102
{ACAD_REACTORS
330
17
102
}
100
AcDbMlineStyle
  2
STANDARD
 70
0
  3

 62
256
 51
90.0
 52
90.0
 71
2
 49
0.5
 62
256
  6
BYLAYER
 49
-0.5
 62
256
  6
BYLAYER
  0
LAYOUT
  5
424
102
{ACAD_REACTORS
330
1A
102
}
100
AcDbPlotSettings
  1

  2
none_device
  4
ISO_A4_(297.00_x_210.00_MM)
  6

 40
0.0
 41
0.0
 42
0.0
 43
0.0
 44
297.0
 45
210.0
 46
0.0
 47
0.0
 48
0.0
 49
0.0
140
0.0
141
0.0
142
1.0
143
1.0
 70
1024
 72
1
 73
0
 74
0
  7

 75
0
147
1.0
148
0.0
149
0.0
100
AcDbLayout
  1
Model
 70
0
 71
0
 10
0.0
 20
0.0
 11
297.0
 21
210.0
 12
0.0
 22
0.0
 32
0.0
 14
0.0
 24
0.0
 34
0.0
 15
0.0
 25
0.0
 35
0.0
146
0.0
 13
0.0
 23
0.0
 33
0.0
 16
1.0
 26
0.0
 36
0.0
 17
0.0
 27
1.0
 37
0.0
 76
0
330
211
345
0
346
0
  0
LAYOUT
  5
425
102
{ACAD_REACTORS
330
1A
102
}
100
AcDbPlotSettings
  1

  2
none_device
  4
ISO_A4_(297.00_x_210.00_MM)
  6

 40
0.0
 41
0.0
 42
0.0
 43
0.0
 44
297.0
 45
210.0
 46
0.0
 47
0.0
 48
0.0
 49
0.0
140
0.0
141
0.0
142
1.0
143
1.0
 70
0
 72
1
 73
0
 74
0
  7

 75
0
147
1.0
148
0.0
149
0.0
100
AcDbLayout
  1
Layout1
 70
0
 71
1
 10
0.0
 20
0.0
 11
297.0
 21
210.0
 12
0.0
 22
0.0
 32
0.0
 14
0.0
 24
0.0
 34
0.0
 15
0.0
 25
0.0
 35
0.0
146
0.0
 13
0.0
 23
0.0
 33
0.0
 16
1.0
 26
0.0
 36
0.0
 17
0.0
 27
1.0
 37
0.0
 76
0
330
212
345
0
346
0
  0
ENDSEC
  0
EOF
