  0
SECTION
  2
HEADER
  9
$ACADVER
  1
AC1024
  9
$DWGCODEPAGE
  3
ANSI_1252
  9
$EXTMAX
 10
558.8
 20
431.8
 30
0.0
  9
$EXTMIN
 10
0.0
 20
0.0
 30
0.0
  9
$LIMMIN
 10
0.0
 20
0.0
  9
$LIMMAX
 10
558.8
 20
431.8
  9
$VIEWCTR
 10
279.4
 20
215.9
  9
$VIEWSIZE
 40
431.8
  9
$CLAYER
  8
0
  9
$LTSCALE
 40
30.734
  9
$CELTYPE
  6
BYLAYER
  9
$DIMSCALE
 40
1.0
  9
$DIMASZ
 40
3.0
  9
$DIMEXO
 40
0.5
  9
$DIMDLI
 40
21.2344
  9
$DIMEXE
 40
1.5
  9
$DIMCEN
 40
5.0292
  9
$DIMLFAC
 40
1.0
  9
$DIMBLK
  1
_FILLED
  9
$DIMALT
 70
0
  9
$DIMALTF
 40
0.0393700787
  9
$DIMTXT
 40
3.0
  9
$DIMTOL
 70
1
  9
$DIMLIM
 70
0
  9
$DIMTFAC
 40
1.0
  9
$DIMTP
 40
0.01
  9
$DIMTM
 40
0.01
  9
$DIMGAP
 40
0.625
  9
$DIMDSEP
 70
44
  9
$AUNITS
 70
0
  9
$PDMODE
 70
3
  9
$PDSIZE
 40
3.0
  9
$HANDSEED
  5
A8E
  9
$TILEMODE
 70
1
  9
$MEASUREMENT
 70
1
  9
$INSUNITS
 70
4
  0
ENDSEC
  0
SECTION
  2
CLASSES
  0
CLASS
  1
ACDBDICTIONARYWDFLT
  2
AcDbDictionaryWithDefault
  3
AutoCAD 2000
 90
0
 91
1
280
0
281
0
  0
CLASS
  1
ACDBPLACEHOLDER
  2
AcDbPlaceHolder
  3
AutoCAD 2000
 90
0
 91
1
280
0
281
0
  0
CLASS
  1
LAYOUT
  2
AcDbLayout
  3
AutoCAD 2000
 90
0
 91
0
280
0
281
0
  0
ENDSEC
  0
SECTION
  2
TABLES
  0
TABLE
  2
VPORT
  5
8
100
AcDbSymbolTable
 70
2
  0
VPORT
  5
1F4
100
AcDbSymbolTableRecord
100
AcDbViewportTableRecord
  2
*ACTIVE
 70
0
 10
0.0
 20
0.0
 11
1.0
 21
1.0
 12
279.4
 22
215.9
 13
0.0
 23
0.0
 14
1.0
 24
1.0
 15
0.0
 25
0.0
 16
0.0
 26
0.0
 36
1.0
 17
0.0
 27
0.0
 37
0.0
 40
431.8
 41
1.2941176471
 42
50.0
 43
0.0
 44
0.0
 50
0.0
 51
0.0
 71
0
 72
100
 73
1
 74
1
 75
0
 76
0
 77
0
 78
0
  0
ENDTAB
  0
TABLE
  2
LTYPE
  5
5
100
AcDbSymbolTable
 70
6
  0
LTYPE
  5
14
100
AcDbSymbolTableRecord
100
AcDbLinetypeTableRecord
  2
BYBLOCK
 70
0
  3

 72
65
 73
0
 40
0.0
  0
LTYPE
  5
15
100
AcDbSymbolTableRecord
100
AcDbLinetypeTableRecord
  2
BYLAYER
 70
0
  3

 72
65
 73
0
 40
0.0
  0
LTYPE
  5
16
100
AcDbSymbolTableRecord
100
AcDbLinetypeTableRecord
  2
CONTINUOUS
 70
64
  3
Solid line
 72
65
 73
0
 40
0.0
  0
LTYPE
  5
1F5
100
AcDbSymbolTableRecord
100
AcDbLinetypeTableRecord
  2
CENTER
 70
64
  3
____ _ ____ _ ____ _ ____ _ ____ _ ____ _ ____
 72
65
 73
4
 40
0.6
 49
0.375
 74
0
 49
-0.075
 74
0
 49
0.075
 74
0
 49
-0.075
 74
0
  0
LTYPE
  5
1F6
100
AcDbSymbolTableRecord
100
AcDbLinetypeTableRecord
  2
HIDDEN
 70
64
  3
- - - - - - - - - - - - - - - - - - - -
 72
65
 73
2
 40
0.2
 49
0.1
 74
0
 49
-0.1
 74
0
  0
LTYPE
  5
1F7
100
AcDbSymbolTableRecord
100
AcDbLinetypeTableRecord
  2
PHANTOM
 70
64
  3
_____ _ _ _____ _ _ _____ _ _ _____
 72
65
 73
6
 40
0.8
 49
0.45
 74
0
 49
-0.05
 74
0
 49
0.1
 74
0
 49
-0.05
 74
0
 49
0.1
 74
0
 49
-0.05
 74
0
  0
LTYPE
  5
1F8
100
AcDbSymbolTableRecord
100
AcDbLinetypeTableRecord
  2
DOT
 70
64
  3
. . . . . . . . . . . . . . . . . . . .
 72
65
 73
2
 40
0.2
 49
0.1
 74
0
 49
-0.1
 74
0
  0
LTYPE
  5
1F9
100
AcDbSymbolTableRecord
100
AcDbLinetypeTableRecord
  2
DASHED
 70
64
  3
- - - - - - - - - - - - - - - - - - - -
 72
65
 73
2
 40
0.2
 49
0.1
 74
0
 49
-0.1
 74
0
  0
ENDTAB
  0
TABLE
  2
LAYER
  5
2
100
AcDbSymbolTable
 70
36
  0
LAYER
  5
10
100
AcDbSymbolTableRecord
100
AcDbLayerTableRecord
  2
0
 70
0
 62
7
  6
CONTINUOUS
370
-3
390
F
  0
LAYER
  5
1FA
100
AcDbSymbolTableRecord
100
AcDbLayerTableRecord
  2
DEFAULT_1
 70
0
 62
7
  6
CENTER
370
-3
390
F
  0
LAYER
  5
1FB
100
AcDbSymbolTableRecord
100
AcDbLayerTableRecord
  2
DEFAULT_2
 70
0
 62
7
  6
HIDDEN
370
-3
390
F
  0
LAYER
  5
1FC
100
AcDbSymbolTableRecord
100
AcDbLayerTableRecord
  2
DEFAULT_3
 70
0
 62
7
  6
PHANTOM
370
-3
390
F
  0
LAYER
  5
1FD
100
AcDbSymbolTableRecord
100
AcDbLayerTableRecord
  2
ASSI
 70
0
 62
7
  6
CONTINUOUS
370
-3
390
F
  0
LAYER
  5
1FE
100
AcDbSymbolTableRecord
100
AcDbLayerTableRecord
  2
CLOSED_SHELL
 70
0
 62
7
  6
CONTINUOUS
370
-3
390
F
  0
LAYER
  5
1FF
100
AcDbSymbolTableRecord
100
AcDbLayerTableRecord
  2
COORDINATE
 70
0
 62
7
  6
CONTINUOUS
370
-3
390
F
  0
LAYER
  5
200
100
AcDbSymbolTableRecord
100
AcDbLayerTableRecord
  2
COPY_PUBLISH
 70
0
 62
7
  6
CONTINUOUS
370
-3
390
F
  0
LAYER
  5
201
100
AcDbSymbolTableRecord
100
AcDbLayerTableRecord
  2
COSMETICI
 70
0
 62
7
  6
CONTINUOUS
370
-3
390
F
  0
LAYER
  5
202
100
AcDbSymbolTableRecord
100
AcDbLayerTableRecord
  2
CURVE
 70
0
 62
7
  6
CONTINUOUS
370
-3
390
F
  0
LAYER
  5
203
100
AcDbSymbolTableRecord
100
AcDbLayerTableRecord
  2
DRAFT
 70
0
 62
7
  6
CONTINUOUS
370
-3
390
F
  0
LAYER
  5
204
100
AcDbSymbolTableRecord
100
AcDbLayerTableRecord
  2
IMPORT_IGES
 70
0
 62
7
  6
CONTINUOUS
370
-3
390
F
  0
LAYER
  5
205
100
AcDbSymbolTableRecord
100
AcDbLayerTableRecord
  2
INTFCLR_2816
 70
0
 62
7
  6
CONTINUOUS
370
-3
390
F
  0
LAYER
  5
206
100
AcDbSymbolTableRecord
100
AcDbLayerTableRecord
  2
NOTE
 70
0
 62
7
  6
CONTINUOUS
370
-3
390
F
  0
LAYER
  5
207
100
AcDbSymbolTableRecord
100
AcDbLayerTableRecord
  2
PIANI
 70
0
 62
7
  6
CONTINUOUS
370
-3
390
F
  0
LAYER
  5
208
100
AcDbSymbolTableRecord
100
AcDbLayerTableRecord
  2
PUNTI
 70
0
 62
7
  6
CONTINUOUS
370
-3
390
F
  0
LAYER
  5
209
100
AcDbSymbolTableRecord
100
AcDbLayerTableRecord
  2
RACCORDO
 70
0
 62
7
  6
CONTINUOUS
370
-3
390
F
  0
LAYER
  5
20A
100
AcDbSymbolTableRecord
100
AcDbLayerTableRecord
  2
SIMBOLI
 70
0
 62
7
  6
CONTINUOUS
370
-3
390
F
  0
LAYER
  5
20B
100
AcDbSymbolTableRecord
100
AcDbLayerTableRecord
  2
SMUSSO
 70
0
 62
7
  6
CONTINUOUS
370
-3
390
F
  0
LAYER
  5
20C
100
AcDbSymbolTableRecord
100
AcDbLayerTableRecord
  2
SNAPLINE
 70
0
 62
7
  6
CONTINUOUS
370
-3
390
F
  0
LAYER
  5
20D
100
AcDbSymbolTableRecord
100
AcDbLayerTableRecord
  2
SUPERFICI
 70
0
 62
7
  6
CONTINUOUS
370
-3
390
F
  0
LAYER
  5
20E
100
AcDbSymbolTableRecord
100
AcDbLayerTableRecord
  2
TRASH
 70
0
 62
7
  6
CONTINUOUS
370
-3
390
F
  0
ENDTAB
  0
TABLE
  2
STYLE
  5
3
100
AcDbSymbolTable
 70
1
  0
STYLE
  5
11
100
AcDbSymbolTableRecord
100
AcDbTextStyleTableRecord
  2
STANDARD
 70
0
 40
0.0
 41
0.8
 50
0.0
 71
0
 42
0.2
  3
txt
  4

  0
STYLE
  5
20F
100
AcDbSymbolTableRecord
100
AcDbTextStyleTableRecord
  2
TEXTSTYLE_1
 70
0
 40
0.0
 41
0.8
 50
0.0
 71
0
 42
0.2
  3
gdt
  4

  0
ENDTAB
  0
TABLE
  2
VIEW
  5
6
100
AcDbSymbolTable
 70
0
  0
ENDTAB
  0
TABLE
  2
UCS
  5
7
100
AcDbSymbolTable
 70
0
  0
ENDTAB
  0
TABLE
  2
APPID
  5
9
100
AcDbSymbolTable
 70
1
  0
APPID
  5
210
100
AcDbSymbolTableRecord
100
AcDbRegAppTableRecord
  2
ACAD
 70
0
  0
ENDTAB
  0
TABLE
  2
BLOCK_RECORD
  5
1
100
AcDbSymbolTable
 70
0
  0
BLOCK_RECORD
  5
211
100
AcDbSymbolTableRecord
100
AcDbBlockTableRecord
  2
*Model_Space
  0
BLOCK_RECORD
  5
212
100
AcDbSymbolTableRecord
100
AcDbBlockTableRecord
  2
*Paper_Space
  0
BLOCK_RECORD
  5
213
100
AcDbSymbolTableRecord
100
AcDbBlockTableRecord
  2
_FILLED
  0
ENDTAB
  0
TABLE
  2
DIMSTYLE
  5
A
100
AcDbSymbolTable
 70
1
100
AcDbDimStyleTable
 71
0
  0
DIMSTYLE
105
214
100
AcDbSymbolTableRecord
100
AcDbDimStyleTableRecord
  2
STANDARD
 70
0
  3

  4

 40
1.0
 41
3.0
 42
0.5
 43
0.38
 44
1.5
 45
0.0
 46
0.0
 47
0.01
 48
0.01
140
3.0
141
0.09
142
0.0
143
25.4
144
1.0
145
0.0
146
1.0
147
0.625
 71
1.0
 72
0.0
 73
0
 74
0
 75
0
 76
0
 77
1
 78
8
 79
2
170
0
171
1
172
0
173
0
174
0
175
0
176
0
177
0
178
0
270
2
179
2
271
2
272
2
273
2
274
2
275
0
280
0
281
0
282
0
283
1
284
8
285
0
286
0
287
3
288
0
340
11
278
44
341
213
342
213
343
213
344
213
  0
ENDTAB
  0
ENDSEC
  0
SECTION
  2
BLOCKS
  0
BLOCK
  5
20
100
AcDbEntity
  8
0
100
AcDbBlockBegin
  2
*Model_Space
 70
0
 10
0.0
 20
0.0
 30
0.0
  3
*Model_Space
  1

  0
ENDBLK
  5
21
100
AcDbEntity
  8
0
100
AcDbBlockEnd
  0
BLOCK
  5
1C
100
AcDbEntity
  8
0
100
AcDbBlockBegin
  2
*Paper_Space
 70
0
 10
0.0
 20
0.0
 30
0.0
  3
*Paper_Space
  1

  0
ENDBLK
  5
1D
100
AcDbEntity
  8
0
100
AcDbBlockEnd
  0
BLOCK
  5
215
100
AcDbEntity
  8
0
100
AcDbBlockBegin
  2
_FILLED
 70
64
 10
0.0
 20
0.0
  3
_FILLED
  1

  0
SOLID
  5
216
100
AcDbEntity
  8
0
  6
BYBLOCK
 62
0
100
AcDbTrace
 10
0.0
 20
0.0
 11
-1.0
 21
0.3166666667
 12
-1.0
 22
-0.3166666667
 13
-1.0
 23
-0.3166666667
  0
ENDBLK
  5
217
100
AcDbEntity
  8
0
  6
BYBLOCK
 62
0
100
AcDbBlockEnd
  0
ENDSEC
  0
SECTION
  2
ENTITIES
  0
LINE
  5
218
100
AcDbEntity
  8
ASSI
100
AcDbLine
 62
7
  6
CONTINUOUS
 10
-42.2796713505
 20
45.0716421706
 11
-42.2654418109
 21
45.0773338651
  0
LINE
  5
219
100
AcDbEntity
  8
DRAFT
100
AcDbLine
 62
7
  6
CONTINUOUS
 10
-42.2796713505
 20
45.0716421706
 11
-42.2654418109
 21
45.0773338651
  0
LINE
  5
21A
100
AcDbEntity
  8
ASSI
100
AcDbLine
 62
7
  6
CONTINUOUS
 10
-40.7900864743
 20
45.0674533634
 11
-40.7654989263
 21
45.0772881729
  0
LINE
  5
21B
100
AcDbEntity
  8
DRAFT
100
AcDbLine
 62
7
  6
CONTINUOUS
 10
-40.7900864743
 20
45.0674533634
 11
-40.7654989263
 21
45.0772881729
  0
LINE
  5
21C
100
AcDbEntity
  8
ASSI
100
AcDbLine
 62
7
  6
CONTINUOUS
 10
-40.7796142329
 20
31.1
 11
-40.7654989263
 21
31.1141153066
  0
LINE
  5
21D
100
AcDbEntity
  8
DRAFT
100
AcDbLine
 62
7
  6
CONTINUOUS
 10
-40.7796142329
 20
31.1
 11
-40.7654989263
 21
31.1141153066
  0
LINE
  5
21E
100
AcDbEntity
  8
0
100
AcDbLine
 62
7
  6
CONTINUOUS
 10
48.4
 20
-55.5
 11
-48.4
 21
-55.5
  0
LINE
  5
21F
100
AcDbEntity
  8
IMPORT_IGES
100
AcDbLine
 62
250
  6
CONTINUOUS
 10
-32.25
 20
-40.3363703305
 11
-32.3437822174
 21
-40.2425881132
  0
LINE
  5
220
100
AcDbEntity
  8
IMPORT_IGES
100
AcDbLine
 62
250
  6
CONTINUOUS
 10
-31.9574118868
 20
-39.8562177826
 11
-31.8636296695
 21
-39.95
  0
LINE
  5
221
100
AcDbEntity
  8
0
100
AcDbLine
 62
7
  6
CONTINUOUS
 10
-48.4
 20
55.5
 11
-48.4
 21
-55.5
  0
LINE
  5
222
100
AcDbEntity
  8
0
100
AcDbLine
 62
250
  6
CONTINUOUS
 10
-48.15
 20
55.5
 11
-48.15
 21
-55.5
  0
LINE
  5
223
100
AcDbEntity
  8
ASSI
100
AcDbLine
 62
7
  6
CONTINUOUS
 10
-40.7900864743
 20
30.4895277587
 11
-40.7796142329
 21
30.5
  0
LINE
  5
224
100
AcDbEntity
  8
DRAFT
100
AcDbLine
 62
7
  6
CONTINUOUS
 10
-40.7900864743
 20
30.4895277587
 11
-40.7796142329
 21
30.5
  0
LINE
  5
225
100
AcDbEntity
  8
IMPORT_IGES
100
AcDbLine
 62
7
  6
CONTINUOUS
 10
43.9289381281
 20
-38.2712745899
 11
43.5969617236
 21
-38.3357127466
  0
LINE
  5
226
100
AcDbEntity
  8
IMPORT_IGES
100
AcDbLine
 62
7
  6
CONTINUOUS
 10
-32.25
 20
-46.9484728272
 11
-32.3437822174
 21
-46.95
  0
LINE
  5
227
100
AcDbEntity
  8
IMPORT_IGES
100
AcDbLine
 62
7
  6
CONTINUOUS
 10
-39.8778430844
 20
-46.9577956737
 11
-43.2602638521
 21
-46.9867612307
  0
LINE
  5
228
100
AcDbEntity
  8
IMPORT_IGES
100
AcDbLine
 62
7
  6
CONTINUOUS
 10
-37.2606724071
 20
-46.9506743869
 11
-37.8873334704
 21
-46.9556072706
  0
LINE
  5
229
100
AcDbEntity
  8
IMPORT_IGES
100
AcDbLine
 62
7
  6
CONTINUOUS
 10
-43.5969617233
 20
-46.9867612307
 11
-43.6382476673
 21
-46.9870732511
  0
LINE
  5
22A
100
AcDbEntity
  8
IMPORT_IGES
100
AcDbLine
 62
7
  6
CONTINUOUS
 10
-38.2941190545
 20
-46.9567271795
 11
-39.6288556889
 21
-46.957083386
  0
LINE
  5
22B
100
AcDbEntity
  8
IMPORT_IGES
100
AcDbLine
 62
7
  6
CONTINUOUS
 10
-44.1
 20
-46.9870732511
 11
-43.6382476673
 21
-46.9870732511
  0
LINE
  5
22C
100
AcDbEntity
  8
IMPORT_IGES
100
AcDbLine
 62
7
  6
CONTINUOUS
 10
43.2602638521
 20
-46.9867612306
 11
44.1
 21
-46.9867612307
  0
LINE
  5
22D
100
AcDbEntity
  8
IMPORT_IGES
100
AcDbLine
 62
7
  6
CONTINUOUS
 10
-43.2602638521
 20
-46.9867612307
 11
-43.5969617233
 21
-46.9867612307
  0
LINE
  5
22E
100
AcDbEntity
  8
IMPORT_IGES
100
AcDbLine
 62
7
  6
CONTINUOUS
 10
-36.9982864951
 20
-46.95
 11
-32.3437822174
 21
-46.95
  0
LINE
  5
22F
100
AcDbEntity
  8
IMPORT_IGES
100
AcDbLine
 62
7
  6
CONTINUOUS
 10
-20.7562177826
 20
-46.95
 11
36.9982864951
 21
-46.95
  0
LINE
  5
230
100
AcDbEntity
  8
IMPORT_IGES
100
AcDbLine
 62
7
  6
CONTINUOUS
 10
-32.25
 20
-46.9484728272
 11
-20.85
 21
-46.9484728272
  0
LINE
  5
231
100
AcDbEntity
  8
IMPORT_IGES
100
AcDbLine
 62
7
  6
CONTINUOUS
 10
-21.5177081299
 20
-46.8953839457
 11
-31.7822918701
 21
-46.8953839457
  0
LINE
  5
232
100
AcDbEntity
  8
IMPORT_IGES
100
AcDbLine
 62
7
  6
CONTINUOUS
 10
-21.55
 20
-45.6
 11
-31.75
 21
-45.6
  0
LINE
  5
233
100
AcDbEntity
  8
IMPORT_IGES
100
AcDbLine
 62
7
  6
CONTINUOUS
 10
-30.725030461
 20
-45.0
 11
-29.95
 21
-45.0
  0
LINE
  5
234
100
AcDbEntity
  8
IMPORT_IGES
100
AcDbLine
 62
7
  6
CONTINUOUS
 10
-28.45
 20
-45.0
 11
-27.35
 21
-45.0
  0
LINE
  5
235
100
AcDbEntity
  8
IMPORT_IGES
100
AcDbLine
 62
7
  6
CONTINUOUS
 10
-25.85
 20
-45.0
 11
-24.75
 21
-45.0
  0
LINE
  5
236
100
AcDbEntity
  8
IMPORT_IGES
100
AcDbLine
 62
7
  6
CONTINUOUS
 10
-23.25
 20
-45.0
 11
-22.374969539
 21
-45.0
  0
LINE
  5
237
100
AcDbEntity
  8
IMPORT_IGES
100
AcDbLine
 62
7
  6
CONTINUOUS
 10
39.6288556889
 20
-46.957083386
 11
38.2941190545
 21
-46.9567271795
  0
LINE
  5
238
100
AcDbEntity
  8
IMPORT_IGES
100
AcDbLine
 62
7
  6
CONTINUOUS
 10
37.8873334704
 20
-46.9556072706
 11
37.2606724071
 21
-46.9506743869
  0
LINE
  5
239
100
AcDbEntity
  8
IMPORT_IGES
100
AcDbLine
 62
7
  6
CONTINUOUS
 10
39.8778430844
 20
-46.9577956736
 11
43.2602638521
 21
-46.9867612306
  0
LINE
  5
23A
100
AcDbEntity
  8
IMPORT_IGES
100
AcDbLine
 62
7
  6
CONTINUOUS
 10
-20.7562177826
 20
-46.95
 11
-20.85
 21
-46.9484728272
  0
LINE
  5
23B
100
AcDbEntity
  8
0
100
AcDbLine
 62
250
  6
CONTINUOUS
 10
-44.35
 20
55.5
 11
-44.35
 21
-55.5
  0
LINE
  5
23C
100
AcDbEntity
  8
0
100
AcDbLine
 62
7
  6
CONTINUOUS
 10
-44.1
 20
55.5
 11
-44.1
 21
-55.5
  0
LINE
  5
23D
100
AcDbEntity
  8
IMPORT_IGES
100
AcDbLine
 62
250
  6
CONTINUOUS
 10
-43.9289381281
 20
-46.8115806663
 11
-43.9289381281
 21
-42.9003059814
  0
LINE
  5
23E
100
AcDbEntity
  8
IMPORT_IGES
100
AcDbLine
 62
250
  6
CONTINUOUS
 10
-43.9289381281
 20
-36.8996940181
 11
-43.9289381281
 21
-32.9287254102
  0
LINE
  5
23F
100
AcDbEntity
  8
IMPORT_IGES
100
AcDbLine
 62
250
  6
CONTINUOUS
 10
-43.9289381281
 20
-17.0712745898
 11
-43.9289381281
 21
-13.1003059819
  0
LINE
  5
240
100
AcDbEntity
  8
IMPORT_IGES
100
AcDbLine
 62
250
  6
CONTINUOUS
 10
-43.9289381281
 20
-7.2496940188
 11
-43.9289381281
 21
-3.2787254102
  0
LINE
  5
241
100
AcDbEntity
  8
ASSI
100
AcDbLine
 62
7
  6
CONTINUOUS
 10
-43.7583105186
 20
33.0
 11
-43.7583105186
 21
22.0
  0
LINE
  5
242
100
AcDbEntity
  8
DRAFT
100
AcDbLine
 62
7
  6
CONTINUOUS
 10
-43.7583105186
 20
33.0
 11
-43.7583105186
 21
22.0
  0
LINE
  5
243
100
AcDbEntity
  8
0
100
AcDbLine
 62
250
  6
CONTINUOUS
 10
-43.6
 20
55.5
 11
-43.6
 21
45.0716421706
  0
LINE
  5
244
100
AcDbEntity
  8
0
100
AcDbLine
 62
250
  6
CONTINUOUS
 10
-43.6
 20
9.9283578294
 11
-43.6
 21
-3.2142872533
  0
LINE
  5
245
100
AcDbEntity
  8
0
100
AcDbLine
 62
250
  6
CONTINUOUS
 10
-43.6
 20
-17.1357127466
 11
-43.6
 21
-32.8642872533
  0
LINE
  5
246
100
AcDbEntity
  8
0
100
AcDbLine
 62
250
  6
CONTINUOUS
 10
-43.6
 20
-46.9867612307
 11
-43.6
 21
-55.5
  0
LINE
  5
247
100
AcDbEntity
  8
IMPORT_IGES
100
AcDbLine
 62
7
  6
CONTINUOUS
 10
-43.5969617234
 20
-46.9869172408
 11
-43.5969617234
 21
-42.8499999998
  0
LINE
  5
248
100
AcDbEntity
  8
IMPORT_IGES
100
AcDbLine
 62
7
  6
CONTINUOUS
 10
-43.5969617234
 20
-36.9499999996
 11
-43.5969617234
 21
-32.8642872534
  0
LINE
  5
249
100
AcDbEntity
  8
IMPORT_IGES
100
AcDbLine
 62
7
  6
CONTINUOUS
 10
-43.5969617234
 20
-17.1357127466
 11
-43.5969617234
 21
-13.0500000004
  0
LINE
  5
24A
100
AcDbEntity
  8
IMPORT_IGES
100
AcDbLine
 62
7
  6
CONTINUOUS
 10
-43.5969617234
 20
-7.3000000004
 11
-43.5969617234
 21
-3.2142872534
  0
LINE
  5
24B
100
AcDbEntity
  8
IMPORT_IGES
100
AcDbLine
 62
7
  6
CONTINUOUS
 10
-43.2602638521
 20
-3.2
 11
-43.2602638521
 21
-17.15
  0
LINE
  5
24C
100
AcDbEntity
  8
IMPORT_IGES
100
AcDbLine
 62
7
  6
CONTINUOUS
 10
-43.2602638521
 20
-32.85
 11
-43.2602638521
 21
-46.9867612306
  0
LINE
  5
24D
100
AcDbEntity
  8
0
100
AcDbLine
 62
7
  6
CONTINUOUS
 10
-43.1
 20
55.5
 11
-43.1
 21
45.0716421706
  0
LINE
  5
24E
100
AcDbEntity
  8
0
100
AcDbLine
 62
7
  6
CONTINUOUS
 10
-43.1
 20
9.9283578294
 11
-43.1
 21
-3.1972550901
  0
LINE
  5
24F
100
AcDbEntity
  8
0
100
AcDbLine
 62
7
  6
CONTINUOUS
 10
-43.1
 20
-17.1527449099
 11
-43.1
 21
-32.8472550901
  0
LINE
  5
250
100
AcDbEntity
  8
0
100
AcDbLine
 62
7
  6
CONTINUOUS
 10
-43.1
 20
-46.9853888018
 11
-43.1
 21
-55.5
  0
LINE
  5
251
100
AcDbEntity
  8
0
100
AcDbLine
 62
250
  6
CONTINUOUS
 10
-43.055272805
 20
-55.5
 11
-43.055272805
 21
-46.9850057779
  0
LINE
  5
252
100
AcDbEntity
  8
0
100
AcDbLine
 62
250
  6
CONTINUOUS
 10
-43.055272805
 20
-32.8464890276
 11
-43.055272805
 21
-17.1535109724
  0
LINE
  5
253
100
AcDbEntity
  8
0
100
AcDbLine
 62
250
  6
CONTINUOUS
 10
-43.055272805
 20
-3.1964890276
 11
-43.055272805
 21
9.9283578294
  0
LINE
  5
254
100
AcDbEntity
  8
0
100
AcDbLine
 62
250
  6
CONTINUOUS
 10
-43.055272805
 20
45.0716421706
 11
-43.055272805
 21
55.5
  0
LINE
  5
255
100
AcDbEntity
  8
ASSI
100
AcDbLine
 62
7
  6
CONTINUOUS
 10
-43.0214502394
 20
9.9325466366
 11
-43.0214502394
 21
45.0674533634
  0
LINE
  5
256
100
AcDbEntity
  8
DRAFT
100
AcDbLine
 62
7
  6
CONTINUOUS
 10
-43.0214502394
 20
9.9325466366
 11
-43.0214502394
 21
45.0674533634
  0
LINE
  5
257
100
AcDbEntity
  8
ASSI
100
AcDbLine
 62
7
  6
CONTINUOUS
 10
-40.7900864743
 20
45.0674533634
 11
-40.7900864743
 21
30.4895277587
  0
LINE
  5
258
100
AcDbEntity
  8
DRAFT
100
AcDbLine
 62
7
  6
CONTINUOUS
 10
-40.7900864743
 20
45.0674533634
 11
-40.7900864743
 21
30.4895277587
  0
LINE
  5
259
100
AcDbEntity
  8
ASSI
100
AcDbLine
 62
7
  6
CONTINUOUS
 10
-40.7900864743
 20
24.5104722413
 11
-40.7900864743
 21
9.9325466366
  0
LINE
  5
25A
100
AcDbEntity
  8
DRAFT
100
AcDbLine
 62
7
  6
CONTINUOUS
 10
-40.7900864743
 20
24.5104722413
 11
-40.7900864743
 21
9.9325466366
  0
LINE
  5
25B
100
AcDbEntity
  8
ASSI
100
AcDbLine
 62
7
  6
CONTINUOUS
 10
-40.7796142329
 20
23.9
 11
-40.7796142329
 21
24.5
  0
LINE
  5
25C
100
AcDbEntity
  8
DRAFT
100
AcDbLine
 62
7
  6
CONTINUOUS
 10
-40.7796142329
 20
23.9
 11
-40.7796142329
 21
24.5
  0
LINE
  5
25D
100
AcDbEntity
  8
ASSI
100
AcDbLine
 62
7
  6
CONTINUOUS
 10
-40.7796142329
 20
30.5
 11
-40.7796142329
 21
31.1
  0
LINE
  5
25E
100
AcDbEntity
  8
DRAFT
100
AcDbLine
 62
7
  6
CONTINUOUS
 10
-40.7796142329
 20
30.5
 11
-40.7796142329
 21
31.1
  0
LINE
  5
25F
100
AcDbEntity
  8
ASSI
100
AcDbLine
 62
7
  6
CONTINUOUS
 10
-40.7654989263
 20
9.9227118271
 11
-40.7654989263
 21
23.8858846934
  0
LINE
  5
260
100
AcDbEntity
  8
DRAFT
100
AcDbLine
 62
7
  6
CONTINUOUS
 10
-40.7654989263
 20
9.9227118271
 11
-40.7654989263
 21
23.8858846934
  0
LINE
  5
261
100
AcDbEntity
  8
ASSI
100
AcDbLine
 62
7
  6
CONTINUOUS
 10
-40.7654989263
 20
31.1141153066
 11
-40.7654989263
 21
45.0772881729
  0
LINE
  5
262
100
AcDbEntity
  8
DRAFT
100
AcDbLine
 62
7
  6
CONTINUOUS
 10
-40.7654989263
 20
31.1141153066
 11
-40.7654989263
 21
45.0772881729
  0
LINE
  5
263
100
AcDbEntity
  8
ASSI
100
AcDbLine
 62
250
  6
CONTINUOUS
 10
-40.3762557309
 20
9.9210250653
 11
-40.3762557309
 21
23.881667699
  0
LINE
  5
264
100
AcDbEntity
  8
DRAFT
100
AcDbLine
 62
250
  6
CONTINUOUS
 10
-40.3762557309
 20
9.9210250653
 11
-40.3762557309
 21
23.881667699
  0
LINE
  5
265
100
AcDbEntity
  8
ASSI
100
AcDbLine
 62
250
  6
CONTINUOUS
 10
-40.3762557309
 20
31.118332301
 11
-40.3762557309
 21
45.0789749347
  0
LINE
  5
266
100
AcDbEntity
  8
DRAFT
100
AcDbLine
 62
250
  6
CONTINUOUS
 10
-40.3762557309
 20
31.118332301
 11
-40.3762557309
 21
45.0789749347
  0
LINE
  5
267
100
AcDbEntity
  8
DRAFT
100
AcDbLine
 62
7
  6
CONTINUOUS
 10
-40.15
 20
37.5003490673
 11
-40.15
 21
30.5
  0
LINE
  5
268
100
AcDbEntity
  8
DRAFT
100
AcDbLine
 62
7
  6
CONTINUOUS
 10
-40.15
 20
24.5
 11
-40.15
 21
17.4996509327
  0
LINE
  5
269
100
AcDbEntity
  8
IMPORT_IGES
100
AcDbLine
 62
250
  6
CONTINUOUS
 10
-39.8778430844
 20
-3.1420677831
 11
-39.8778430844
 21
-17.2079322169
  0
LINE
  5
26A
100
AcDbEntity
  8
IMPORT_IGES
100
AcDbLine
 62
250
  6
CONTINUOUS
 10
-39.8778430844
 20
-32.7920677831
 11
-39.8778430844
 21
-46.9577956736
  0
LINE
  5
26B
100
AcDbEntity
  8
IMPORT_IGES
100
AcDbLine
 62
250
  6
CONTINUOUS
 10
-39.6288556889
 20
-46.9569052827
 11
-39.6288556889
 21
-32.7902869673
  0
LINE
  5
26C
100
AcDbEntity
  8
IMPORT_IGES
100
AcDbLine
 62
250
  6
CONTINUOUS
 10
-39.6288556889
 20
-17.2097130327
 11
-39.6288556889
 21
-3.1402869672
  0
LINE
  5
26D
100
AcDbEntity
  8
DRAFT
100
AcDbLine
 62
7
  6
CONTINUOUS
 10
-39.5
 20
37.5003490673
 11
-39.5
 21
30.5
  0
LINE
  5
26E
100
AcDbEntity
  8
DRAFT
100
AcDbLine
 62
7
  6
CONTINUOUS
 10
-39.5
 20
24.5
 11
-39.5
 21
17.4996509327
  0
LINE
  5
26F
100
AcDbEntity
  8
ASSI
100
AcDbLine
 62
7
  6
CONTINUOUS
 10
-39.15
 20
24.5104722413
 11
-39.15
 21
30.4895277587
  0
LINE
  5
270
100
AcDbEntity
  8
DRAFT
100
AcDbLine
 62
7
  6
CONTINUOUS
 10
-39.15
 20
24.5104722413
 11
-39.15
 21
30.4895277587
  0
LINE
  5
271
100
AcDbEntity
  8
DRAFT
100
AcDbLine
 62
7
  6
CONTINUOUS
 10
-27.489895413
 20
34.7074559629
 11
-27.4945942996
 21
34.6973642111
  0
LINE
  5
272
100
AcDbEntity
  8
DRAFT
100
AcDbLine
 62
7
  6
CONTINUOUS
 10
-27.4894406633
 20
34.7072383478
 11
-27.494198133
 21
34.6971747975
  0
LINE
  5
273
100
AcDbEntity
  8
DRAFT
100
AcDbLine
 62
7
  6
CONTINUOUS
 10
-26.5119403581
 20
35.780821494
 11
-26.5000001999
 21
35.7927616522
  0
LINE
  5
274
100
AcDbEntity
  8
DRAFT
100
AcDbLine
 62
7
  6
CONTINUOUS
 10
-26.9951238259
 20
35.7927616522
 11
-27.0152971065
 21
35.7802272429
  0
LINE
  5
275
100
AcDbEntity
  8
IMPORT_IGES
100
AcDbLine
 62
7
  6
CONTINUOUS
 10
43.2602638521
 20
-38.35
 11
44.1
 21
-38.3143670955
  0
LINE
  5
276
100
AcDbEntity
  8
RACCORDO
100
AcDbLine
 62
7
  6
CONTINUOUS
 10
29.2664100589
 20
-44.3937150618
 11
29.4445299804
 21
-44.3913834183
  0
LINE
  5
277
100
AcDbEntity
  8
RACCORDO
100
AcDbLine
 62
7
  6
CONTINUOUS
 10
28.2664100589
 20
-44.3937150618
 11
28.4445299804
 21
-44.3913834183
  0
LINE
  5
278
100
AcDbEntity
  8
RACCORDO
100
AcDbLine
 62
7
  6
CONTINUOUS
 10
27.2664100589
 20
-44.3937150618
 11
27.4445299804
 21
-44.3913834183
  0
LINE
  5
279
100
AcDbEntity
  8
RACCORDO
100
AcDbLine
 62
7
  6
CONTINUOUS
 10
26.2664100589
 20
-44.3937150618
 11
26.4445299804
 21
-44.3913834183
  0
LINE
  5
27A
100
AcDbEntity
  8
RACCORDO
100
AcDbLine
 62
7
  6
CONTINUOUS
 10
25.2664100589
 20
-44.3937150618
 11
25.4445299804
 21
-44.3913834183
  0
LINE
  5
27B
100
AcDbEntity
  8
RACCORDO
100
AcDbLine
 62
7
  6
CONTINUOUS
 10
24.2664100589
 20
-44.3937150618
 11
24.4445299804
 21
-44.3913834183
  0
LINE
  5
27C
100
AcDbEntity
  8
RACCORDO
100
AcDbLine
 62
7
  6
CONTINUOUS
 10
23.4
 20
-44.3919663292
 11
23.4445299804
 21
-44.3913834183
  0
LINE
  5
27D
100
AcDbEntity
  8
IMPORT_IGES
100
AcDbLine
 62
7
  6
CONTINUOUS
 10
22.5500000004
 20
-44.6000000007
 11
30.75
 21
-44.6000000007
  0
LINE
  5
27E
100
AcDbEntity
  8
RACCORDO
100
AcDbLine
 62
7
  6
CONTINUOUS
 10
29.8
 20
-44.4482698575
 11
23.4
 21
-44.4482698575
  0
LINE
  5
27F
100
AcDbEntity
  8
IMPORT_IGES
100
AcDbLine
 62
7
  6
CONTINUOUS
 10
-43.5969617234
 20
-42.8499999998
 11
-44.1
 21
-42.8499999998
  0
LINE
  5
280
100
AcDbEntity
  8
IMPORT_IGES
100
AcDbLine
 62
7
  6
CONTINUOUS
 10
30.75
 20
-42.5499999994
 11
22.5500000004
 21
-42.5499999994
  0
LINE
  5
281
100
AcDbEntity
  8
IMPORT_IGES
100
AcDbLine
 62
7
  6
CONTINUOUS
 10
36.9982864951
 20
-42.326476139
 11
38.9694799132
 21
-42.326476139
  0
LINE
  5
282
100
AcDbEntity
  8
IMPORT_IGES
100
AcDbLine
 62
7
  6
CONTINUOUS
 10
-22.374969539
 20
-42.0
 11
-23.25
 21
-42.0
  0
LINE
  5
283
100
AcDbEntity
  8
IMPORT_IGES
100
AcDbLine
 62
7
  6
CONTINUOUS
 10
-24.75
 20
-42.0
 11
-25.85
 21
-42.0
  0
LINE
  5
284
100
AcDbEntity
  8
IMPORT_IGES
100
AcDbLine
 62
7
  6
CONTINUOUS
 10
-27.35
 20
-42.0
 11
-28.45
 21
-42.0
  0
LINE
  5
285
100
AcDbEntity
  8
IMPORT_IGES
100
AcDbLine
 62
7
  6
CONTINUOUS
 10
-29.95
 20
-42.0
 11
-30.725030461
 21
-42.0
  0
LINE
  5
286
100
AcDbEntity
  8
IMPORT_IGES
100
AcDbLine
 62
7
  6
CONTINUOUS
 10
-21.55
 20
-41.4215564458
 11
-31.75
 21
-41.4215564458
  0
LINE
  5
287
100
AcDbEntity
  8
IMPORT_IGES
100
AcDbLine
 62
7
  6
CONTINUOUS
 10
-21.2363703305
 20
-39.95
 11
-31.8636296695
 21
-39.95
  0
LINE
  5
288
100
AcDbEntity
  8
IMPORT_IGES
100
AcDbLine
 62
7
  6
CONTINUOUS
 10
-21.1425881131
 20
-39.8562177826
 11
-31.9574118868
 21
-39.8562177826
  0
LINE
  5
289
100
AcDbEntity
  8
IMPORT_IGES
100
AcDbLine
 62
7
  6
CONTINUOUS
 10
38.6293759009
 20
-39.55
 11
-13.500030461
 21
-39.55
  0
LINE
  5
28A
100
AcDbEntity
  8
IMPORT_IGES
100
AcDbLine
 62
7
  6
CONTINUOUS
 10
38.2941190545
 20
-42.3399307542
 11
39.6288556889
 21
-42.3406431807
  0
LINE
  5
28B
100
AcDbEntity
  8
RACCORDO
100
AcDbLine
 62
7
  6
CONTINUOUS
 10
23.7554700196
 20
-44.3913834183
 11
23.9335899411
 21
-44.3937150618
  0
LINE
  5
28C
100
AcDbEntity
  8
RACCORDO
100
AcDbLine
 62
7
  6
CONTINUOUS
 10
24.7554700196
 20
-44.3913834183
 11
24.9335899411
 21
-44.3937150618
  0
LINE
  5
28D
100
AcDbEntity
  8
RACCORDO
100
AcDbLine
 62
7
  6
CONTINUOUS
 10
25.7554700196
 20
-44.3913834183
 11
25.9335899411
 21
-44.3937150618
  0
LINE
  5
28E
100
AcDbEntity
  8
RACCORDO
100
AcDbLine
 62
7
  6
CONTINUOUS
 10
26.7554700196
 20
-44.3913834183
 11
26.9335899411
 21
-44.3937150618
  0
LINE
  5
28F
100
AcDbEntity
  8
RACCORDO
100
AcDbLine
 62
7
  6
CONTINUOUS
 10
27.7554700196
 20
-44.3913834183
 11
27.9335899411
 21
-44.3937150618
  0
LINE
  5
290
100
AcDbEntity
  8
RACCORDO
100
AcDbLine
 62
7
  6
CONTINUOUS
 10
28.7554700196
 20
-44.3913834183
 11
28.9335899411
 21
-44.3937150618
  0
LINE
  5
291
100
AcDbEntity
  8
RACCORDO
100
AcDbLine
 62
7
  6
CONTINUOUS
 10
29.8
 20
-44.3919663292
 11
29.7554700196
 21
-44.3913834183
  0
LINE
  5
292
100
AcDbEntity
  8
IMPORT_IGES
100
AcDbLine
 62
7
  6
CONTINUOUS
 10
37.2606724072
 20
-42.3278249386
 11
37.8873334707
 21
-42.3376908937
  0
LINE
  5
293
100
AcDbEntity
  8
IMPORT_IGES
100
AcDbLine
 62
7
  6
CONTINUOUS
 10
39.0249130591
 20
-42.327348816
 11
38.9694799132
 21
-42.3264761391
  0
LINE
  5
294
100
AcDbEntity
  8
IMPORT_IGES
100
AcDbLine
 62
7
  6
CONTINUOUS
 10
43.2602638521
 20
-42.4000000001
 11
39.800002028
 21
-42.3407345227
  0
LINE
  5
295
100
AcDbEntity
  8
IMPORT_IGES
100
AcDbLine
 62
7
  6
CONTINUOUS
 10
44.1
 20
-42.435632897
 11
43.2602638521
 21
-42.4
  0
LINE
  5
296
100
AcDbEntity
  8
IMPORT_IGES
100
AcDbLine
 62
7
  6
CONTINUOUS
 10
-43.9289381281
 20
-36.8996940181
 11
-43.5969617234
 21
-36.9499999996
  0
LINE
  5
297
100
AcDbEntity
  8
IMPORT_IGES
100
AcDbLine
 62
7
  6
CONTINUOUS
 10
-38.9694799132
 20
1.4006317625
 11
-38.9694799132
 21
-3.1264761389
  0
LINE
  5
298
100
AcDbEntity
  8
IMPORT_IGES
100
AcDbLine
 62
7
  6
CONTINUOUS
 10
-38.9694799132
 20
-17.2235238611
 11
-38.9694799132
 21
-32.7764761389
  0
LINE
  5
299
100
AcDbEntity
  8
ASSI
100
AcDbLine
 62
7
  6
CONTINUOUS
 10
-38.3535214786
 20
24.5035214786
 11
-38.3535214786
 21
30.4964785214
  0
LINE
  5
29A
100
AcDbEntity
  8
DRAFT
100
AcDbLine
 62
7
  6
CONTINUOUS
 10
-38.3535214786
 20
24.5035214786
 11
-38.3535214786
 21
30.4964785214
  0
LINE
  5
29B
100
AcDbEntity
  8
IMPORT_IGES
100
AcDbLine
 62
250
  6
CONTINUOUS
 10
-38.2941190545
 20
-3.1402869672
 11
-38.2941190545
 21
-17.2097130327
  0
LINE
  5
29C
100
AcDbEntity
  8
IMPORT_IGES
100
AcDbLine
 62
250
  6
CONTINUOUS
 10
-38.2941190545
 20
-32.7902869673
 11
-38.2941190545
 21
-46.9569052827
  0
LINE
  5
29D
100
AcDbEntity
  8
IMPORT_IGES
100
AcDbLine
 62
250
  6
CONTINUOUS
 10
-37.8873334707
 20
-46.9556072705
 11
-37.8873334707
 21
-32.7876908935
  0
LINE
  5
29E
100
AcDbEntity
  8
IMPORT_IGES
100
AcDbLine
 62
250
  6
CONTINUOUS
 10
-37.8873334707
 20
-17.2123091065
 11
-37.8873334707
 21
-3.1376908935
  0
LINE
  5
29F
100
AcDbEntity
  8
0
100
AcDbLine
 62
7
  6
CONTINUOUS
 10
-37.8854702333
 20
-55.5
 11
-37.8854702333
 21
-46.9556072706
  0
LINE
  5
2A0
100
AcDbEntity
  8
0
100
AcDbLine
 62
7
  6
CONTINUOUS
 10
-37.8854702333
 20
1.7
 11
-37.8854702333
 21
9.9109743852
  0
LINE
  5
2A1
100
AcDbEntity
  8
0
100
AcDbLine
 62
7
  6
CONTINUOUS
 10
-37.8854702333
 20
45.0890256148
 11
-37.8854702333
 21
55.5
  0
LINE
  5
2A2
100
AcDbEntity
  8
IMPORT_IGES
100
AcDbLine
 62
250
  6
CONTINUOUS
 10
-37.2606724072
 20
-3.1278249384
 11
-37.2606724072
 21
-17.2221750616
  0
LINE
  5
2A3
100
AcDbEntity
  8
IMPORT_IGES
100
AcDbLine
 62
250
  6
CONTINUOUS
 10
-37.2606724072
 20
-32.7778249384
 11
-37.2606724072
 21
-46.9506743869
  0
LINE
  5
2A4
100
AcDbEntity
  8
ASSI
100
AcDbLine
 62
7
  6
CONTINUOUS
 10
-37.0845404698
 20
47.4845404698
 11
-37.0845404698
 21
45.0845404698
  0
LINE
  5
2A5
100
AcDbEntity
  8
DRAFT
100
AcDbLine
 62
7
  6
CONTINUOUS
 10
-37.0845404698
 20
47.4845404698
 11
-37.0845404698
 21
45.0845404698
  0
LINE
  5
2A6
100
AcDbEntity
  8
ASSI
100
AcDbLine
 62
7
  6
CONTINUOUS
 10
-37.0845404698
 20
9.9154595302
 11
-37.0845404698
 21
7.5154595302
  0
LINE
  5
2A7
100
AcDbEntity
  8
DRAFT
100
AcDbLine
 62
7
  6
CONTINUOUS
 10
-37.0845404698
 20
9.9154595302
 11
-37.0845404698
 21
7.5154595302
  0
LINE
  5
2A8
100
AcDbEntity
  8
IMPORT_IGES
100
AcDbLine
 62
250
  6
CONTINUOUS
 10
-36.9982864951
 20
-46.95
 11
-36.9982864951
 21
-32.7764761389
  0
LINE
  5
2A9
100
AcDbEntity
  8
IMPORT_IGES
100
AcDbLine
 62
250
  6
CONTINUOUS
 10
-36.9982864951
 20
-17.2235238611
 11
-36.9982864951
 21
-3.1264761389
  0
LINE
  5
2AA
100
AcDbEntity
  8
DRAFT
100
AcDbLine
 62
7
  6
CONTINUOUS
 10
-36.906837937
 20
47.506837937
 11
-36.906837937
 21
37.506837937
  0
LINE
  5
2AB
100
AcDbEntity
  8
DRAFT
100
AcDbLine
 62
7
  6
CONTINUOUS
 10
-36.906837937
 20
17.493162063
 11
-36.906837937
 21
7.493162063
  0
LINE
  5
2AC
100
AcDbEntity
  8
DRAFT
100
AcDbLine
 62
7
  6
CONTINUOUS
 10
-36.9
 20
17.4931575734
 11
-36.9
 21
37.5068424266
  0
LINE
  5
2AD
100
AcDbEntity
  8
DRAFT
100
AcDbLine
 62
7
  6
CONTINUOUS
 10
-30.8977940237
 20
19.9752600943
 11
-30.8715655981
 21
20.00148852
  0
LINE
  5
2AE
100
AcDbEntity
  8
DRAFT
100
AcDbLine
 62
7
  6
CONTINUOUS
 10
-31.7797755031
 20
19.974036686
 11
-31.7486131541
 21
20.00148852
  0
LINE
  5
2AF
100
AcDbEntity
  8
IMPORT_IGES
100
AcDbLine
 62
7
  6
CONTINUOUS
 10
-43.9289381285
 20
-42.9003059814
 11
-43.5969617234
 21
-42.8499999998
  0
LINE
  5
2B0
100
AcDbEntity
  8
IMPORT_IGES
100
AcDbLine
 62
7
  6
CONTINUOUS
 10
43.9289381285
 20
-28.4496940184
 11
43.5969617234
 21
-28.5
  0
LINE
  5
2B1
100
AcDbEntity
  8
IMPORT_IGES
100
AcDbLine
 62
7
  6
CONTINUOUS
 10
39.8000020739
 20
-38.4092654777
 11
43.2602638521
 21
-38.35
  0
LINE
  5
2B2
100
AcDbEntity
  8
IMPORT_IGES
100
AcDbLine
 62
7
  6
CONTINUOUS
 10
37.8873334707
 20
-38.4123091065
 11
37.2606724072
 21
-38.4221750616
  0
LINE
  5
2B3
100
AcDbEntity
  8
IMPORT_IGES
100
AcDbLine
 62
7
  6
CONTINUOUS
 10
38.7699957077
 20
-38.4235238611
 11
38.8265094821
 21
-38.4227267797
  0
LINE
  5
2B4
100
AcDbEntity
  8
IMPORT_IGES
100
AcDbLine
 62
7
  6
CONTINUOUS
 10
39.6288556889
 20
-38.4093568195
 11
38.2941190545
 21
-38.410069246
  0
LINE
  5
2B5
100
AcDbEntity
  8
IMPORT_IGES
100
AcDbLine
 62
7
  6
CONTINUOUS
 10
38.8265094821
 20
-38.4227267797
 11
39.0249160462
 21
-38.4226511833
  0
LINE
  5
2B6
100
AcDbEntity
  8
IMPORT_IGES
100
AcDbLine
 62
7
  6
CONTINUOUS
 10
38.6293759009
 20
-38.45
 11
-13.500030461
 21
-38.45
  0
LINE
  5
2B7
100
AcDbEntity
  8
IMPORT_IGES
100
AcDbLine
 62
7
  6
CONTINUOUS
 10
38.7699957149
 20
-38.4235238611
 11
36.9982864951
 21
-38.4235238611
  0
LINE
  5
2B8
100
AcDbEntity
  8
IMPORT_IGES
100
AcDbLine
 62
7
  6
CONTINUOUS
 10
-44.1
 20
-36.9499999996
 11
-43.5969617234
 21
-36.9499999996
  0
LINE
  5
2B9
100
AcDbEntity
  8
IMPORT_IGES
100
AcDbLine
 62
7
  6
CONTINUOUS
 10
44.1
 20
-34.25
 11
43.5969617234
 21
-34.25
  0
LINE
  5
2BA
100
AcDbEntity
  8
IMPORT_IGES
100
AcDbLine
 62
7
  6
CONTINUOUS
 10
-31.7822918702
 20
-39.95
 11
-31.75
 21
-41.4215564458
  0
LINE
  5
2BB
100
AcDbEntity
  8
IMPORT_IGES
100
AcDbLine
 62
7
  6
CONTINUOUS
 10
-32.3437822174
 20
-46.95
 11
-32.3437822174
 21
-40.2425881132
  0
LINE
  5
2BC
100
AcDbEntity
  8
IMPORT_IGES
100
AcDbLine
 62
7
  6
CONTINUOUS
 10
-32.25
 20
-40.3363703305
 11
-32.25
 21
-46.9484728272
  0
LINE
  5
2BD
100
AcDbEntity
  8
IMPORT_IGES
100
AcDbLine
 62
7
  6
CONTINUOUS
 10
-31.7822918701
 20
-46.8953839457
 11
-31.7822918701
 21
-39.95
  0
LINE
  5
2BE
100
AcDbEntity
  8
IMPORT_IGES
100
AcDbLine
 62
7
  6
CONTINUOUS
 10
-31.75
 20
-41.4215564458
 11
-31.75
 21
-45.6
  0
LINE
  5
2BF
100
AcDbEntity
  8
IMPORT_IGES
100
AcDbLine
 62
7
  6
CONTINUOUS
 10
-30.925
 20
-42.199969539
 11
-30.925
 21
-44.8000304609
  0
LINE
  5
2C0
100
AcDbEntity
  8
DRAFT
100
AcDbLine
 62
7
  6
CONTINUOUS
 10
-30.8977940237
 20
19.9752600943
 11
-30.8977940237
 21
18.9247399057
  0
LINE
  5
2C1
100
AcDbEntity
  8
DRAFT
100
AcDbLine
 62
7
  6
CONTINUOUS
 10
-30.8715655981
 20
20.00148852
 11
-30.8715655981
 21
18.89851148
  0
LINE
  5
2C2
100
AcDbEntity
  8
DRAFT
100
AcDbLine
 62
250
  6
CONTINUOUS
 10
-30.6838558378
 20
13.4755515645
 11
-30.6838558378
 21
13.5097711855
  0
LINE
  5
2C3
100
AcDbEntity
  8
IMPORT_IGES
100
AcDbLine
 62
7
  6
CONTINUOUS
 10
-29.9499999996
 20
-45.0
 11
-29.9499999996
 21
-42.0
  0
LINE
  5
2C4
100
AcDbEntity
  8
IMPORT_IGES
100
AcDbLine
 62
7
  6
CONTINUOUS
 10
-29.0115988572
 20
1.4000199895
 11
-29.0115988572
 21
0.45
  0
LINE
  5
2C5
100
AcDbEntity
  8
IMPORT_IGES
100
AcDbLine
 62
7
  6
CONTINUOUS
 10
-28.4499999996
 20
-42.0
 11
-28.4499999996
 21
-45.0
  0
LINE
  5
2C6
100
AcDbEntity
  8
DRAFT
100
AcDbLine
 62
7
  6
CONTINUOUS
 10
-28.4075973274
 20
13.5075973582
 11
-28.4075973274
 21
14.5075973274
  0
LINE
  5
2C7
100
AcDbEntity
  8
DRAFT
100
AcDbLine
 62
7
  6
CONTINUOUS
 10
-28.3785605902
 20
14.4785605902
 11
-28.3785605902
 21
13.4785606209
  0
LINE
  5
2C8
100
AcDbEntity
  8
IMPORT_IGES
100
AcDbLine
 62
7
  6
CONTINUOUS
 10
-31.75
 20
-45.6
 11
-31.7822918702
 21
-46.8953839457
  0
LINE
  5
2C9
100
AcDbEntity
  8
DRAFT
100
AcDbLine
 62
7
  6
CONTINUOUS
 10
-36.906837937
 20
7.493162063
 11
-36.9103871999
 21
7.4896128001
  0
LINE
  5
2CA
100
AcDbEntity
  8
DRAFT
100
AcDbLine
 62
7
  6
CONTINUOUS
 10
-27.3201381807
 20
14.4798618193
 11
-27.2924026726
 21
14.5075973274
  0
LINE
  5
2CB
100
AcDbEntity
  8
DRAFT
100
AcDbLine
 62
7
  6
CONTINUOUS
 10
-27.2924026726
 20
13.5075973582
 11
-27.3201381807
 21
13.47986185
  0
LINE
  5
2CC
100
AcDbEntity
  8
IMPORT_IGES
100
AcDbLine
 62
7
  6
CONTINUOUS
 10
-43.2602638521
 20
-32.85
 11
-44.1
 21
-32.8856329045
  0
LINE
  5
2CD
100
AcDbEntity
  8
IMPORT_IGES
100
AcDbLine
 62
7
  6
CONTINUOUS
 10
-39.8000020739
 20
-32.7907345223
 11
-43.2602638521
 21
-32.85
  0
LINE
  5
2CE
100
AcDbEntity
  8
IMPORT_IGES
100
AcDbLine
 62
7
  6
CONTINUOUS
 10
-37.8873334707
 20
-32.7876908935
 11
-37.2606724072
 21
-32.7778249384
  0
LINE
  5
2CF
100
AcDbEntity
  8
IMPORT_IGES
100
AcDbLine
 62
7
  6
CONTINUOUS
 10
-38.9694799132
 20
-32.7764761389
 11
-39.024914495
 21
-32.7773488385
  0
LINE
  5
2D0
100
AcDbEntity
  8
IMPORT_IGES
100
AcDbLine
 62
7
  6
CONTINUOUS
 10
-39.6288556889
 20
-32.7906431805
 11
-38.2941190545
 21
-32.789930754
  0
LINE
  5
2D1
100
AcDbEntity
  8
IMPORT_IGES
100
AcDbLine
 62
7
  6
CONTINUOUS
 10
-38.9694799132
 20
-32.7764761389
 11
-36.9982864951
 21
-32.7764761389
  0
LINE
  5
2D2
100
AcDbEntity
  8
IMPORT_IGES
100
AcDbLine
 62
7
  6
CONTINUOUS
 10
-10.5000456915
 20
-32.15
 11
-2.7384011428
 21
-32.15
  0
LINE
  5
2D3
100
AcDbEntity
  8
IMPORT_IGES
100
AcDbLine
 62
7
  6
CONTINUOUS
 10
2.7384011428
 20
-32.15
 11
26.0
 21
-32.15
  0
LINE
  5
2D4
100
AcDbEntity
  8
IMPORT_IGES
100
AcDbLine
 62
7
  6
CONTINUOUS
 10
26.0
 20
-31.1628735604
 11
25.5329620017
 21
-31.1628735604
  0
LINE
  5
2D5
100
AcDbEntity
  8
IMPORT_IGES
100
AcDbLine
 62
7
  6
CONTINUOUS
 10
3.8306014323
 20
-30.9692005714
 11
26.0
 21
-30.9692005714
  0
LINE
  5
2D6
100
AcDbEntity
  8
IMPORT_IGES
100
AcDbLine
 62
7
  6
CONTINUOUS
 10
-3.8306014323
 20
-30.9692005714
 11
-10.8
 21
-30.9692005714
  0
LINE
  5
2D7
100
AcDbEntity
  8
IMPORT_IGES
100
AcDbLine
 62
7
  6
CONTINUOUS
 10
43.5969617234
 20
-28.5
 11
44.1
 21
-28.5
  0
LINE
  5
2D8
100
AcDbEntity
  8
IMPORT_IGES
100
AcDbLine
 62
7
  6
CONTINUOUS
 10
-21.5177081299
 20
-46.8953839457
 11
-21.55
 21
-45.6
  0
LINE
  5
2D9
100
AcDbEntity
  8
IMPORT_IGES
100
AcDbLine
 62
7
  6
CONTINUOUS
 10
-27.3499999998
 20
-45.0
 11
-27.3499999998
 21
-42.0
  0
LINE
  5
2DA
100
AcDbEntity
  8
DRAFT
100
AcDbLine
 62
7
  6
CONTINUOUS
 10
-27.3201381807
 20
14.4798618193
 11
-27.3201381807
 21
13.47986185
  0
LINE
  5
2DB
100
AcDbEntity
  8
DRAFT
100
AcDbLine
 62
7
  6
CONTINUOUS
 10
-27.2924026726
 20
14.5075973274
 11
-27.2924026726
 21
13.5075973582
  0
LINE
  5
2DC
100
AcDbEntity
  8
DRAFT
100
AcDbLine
 62
7
  6
CONTINUOUS
 10
-26.5119403581
 20
35.780821494
 11
-26.5119403581
 21
34.719178506
  0
LINE
  5
2DD
100
AcDbEntity
  8
DRAFT
100
AcDbLine
 62
7
  6
CONTINUOUS
 10
-26.5000001999
 20
34.7072383478
 11
-26.5000001999
 21
35.7927616522
  0
LINE
  5
2DE
100
AcDbEntity
  8
IMPORT_IGES
100
AcDbLine
 62
7
  6
CONTINUOUS
 10
-25.8499999998
 20
-42.0
 11
-25.8499999998
 21
-45.0
  0
LINE
  5
2DF
100
AcDbEntity
  8
IMPORT_IGES
100
AcDbLine
 62
7
  6
CONTINUOUS
 10
-24.75
 20
-45.0
 11
-24.75
 21
-42.0
  0
LINE
  5
2E0
100
AcDbEntity
  8
IMPORT_IGES
100
AcDbLine
 62
7
  6
CONTINUOUS
 10
-23.25
 20
-42.0000000002
 11
-23.25
 21
-45.0
  0
LINE
  5
2E1
100
AcDbEntity
  8
IMPORT_IGES
100
AcDbLine
 62
7
  6
CONTINUOUS
 10
-22.175
 20
-44.800030461
 11
-22.175
 21
-42.199969539
  0
LINE
  5
2E2
100
AcDbEntity
  8
DRAFT
100
AcDbLine
 62
7
  6
CONTINUOUS
 10
-11.9675963871
 20
41.4068808118
 11
-11.984518491
 21
41.3645746499
  0
LINE
  5
2E3
100
AcDbEntity
  8
IMPORT_IGES
100
AcDbLine
 62
7
  6
CONTINUOUS
 10
43.9289381281
 20
-17.0712745898
 11
43.5969617231
 21
-17.1357127466
  0
LINE
  5
2E4
100
AcDbEntity
  8
IMPORT_IGES
100
AcDbLine
 62
7
  6
CONTINUOUS
 10
-43.9289381281
 20
-32.9287254102
 11
-43.5969617231
 21
-32.8642872534
  0
LINE
  5
2E5
100
AcDbEntity
  8
IMPORT_IGES
100
AcDbLine
 62
7
  6
CONTINUOUS
 10
-13.6000456915
 20
-25.65
 11
-2.7384011428
 21
-25.65
  0
LINE
  5
2E6
100
AcDbEntity
  8
IMPORT_IGES
100
AcDbLine
 62
7
  6
CONTINUOUS
 10
2.7384011428
 20
-25.65
 11
29.0115988572
 21
-25.65
  0
LINE
  5
2E7
100
AcDbEntity
  8
IMPORT_IGES
100
AcDbLine
 62
7
  6
CONTINUOUS
 10
3.8306014323
 20
-24.4692005714
 11
28.8116293181
 21
-24.4692005714
  0
LINE
  5
2E8
100
AcDbEntity
  8
IMPORT_IGES
100
AcDbLine
 62
7
  6
CONTINUOUS
 10
-3.8306014323
 20
-24.4692005714
 11
-13.9
 21
-24.4692005714
  0
LINE
  5
2E9
100
AcDbEntity
  8
IMPORT_IGES
100
AcDbLine
 62
7
  6
CONTINUOUS
 10
36.9982864951
 20
-24.3264761389
 11
38.9694799132
 21
-24.3264761389
  0
LINE
  5
2EA
100
AcDbEntity
  8
IMPORT_IGES
100
AcDbLine
 62
7
  6
CONTINUOUS
 10
38.2941190545
 20
-24.339930754
 11
39.6288556889
 21
-24.3406431805
  0
LINE
  5
2EB
100
AcDbEntity
  8
IMPORT_IGES
100
AcDbLine
 62
7
  6
CONTINUOUS
 10
37.2606724072
 20
-24.3278249384
 11
37.8873334707
 21
-24.3376908935
  0
LINE
  5
2EC
100
AcDbEntity
  8
IMPORT_IGES
100
AcDbLine
 62
7
  6
CONTINUOUS
 10
39.0249137513
 20
-24.3273488268
 11
38.9694799132
 21
-24.3264761389
  0
LINE
  5
2ED
100
AcDbEntity
  8
IMPORT_IGES
100
AcDbLine
 62
7
  6
CONTINUOUS
 10
43.2602638521
 20
-24.4
 11
39.800002074
 21
-24.3407345223
  0
LINE
  5
2EE
100
AcDbEntity
  8
IMPORT_IGES
100
AcDbLine
 62
7
  6
CONTINUOUS
 10
43.2602638521
 20
-24.4
 11
44.1
 21
-24.4356329045
  0
LINE
  5
2EF
100
AcDbEntity
  8
IMPORT_IGES
100
AcDbLine
 62
7
  6
CONTINUOUS
 10
43.9289381281
 20
-34.3003059815
 11
43.5969617234
 21
-34.25
  0
LINE
  5
2F0
100
AcDbEntity
  8
IMPORT_IGES
100
AcDbLine
 62
7
  6
CONTINUOUS
 10
-43.9289381281
 20
-17.0712745898
 11
-43.5969617234
 21
-17.1357127466
  0
LINE
  5
2F1
100
AcDbEntity
  8
DRAFT
100
AcDbLine
 62
250
  6
CONTINUOUS
 10
-21.9147383684
 20
41.4142761594
 11
-21.9147383684
 21
41.3752945479
  0
LINE
  5
2F2
100
AcDbEntity
  8
IMPORT_IGES
100
AcDbLine
 62
7
  6
CONTINUOUS
 10
-21.55
 20
-45.6
 11
-21.55
 21
-41.4215564458
  0
LINE
  5
2F3
100
AcDbEntity
  8
IMPORT_IGES
100
AcDbLine
 62
7
  6
CONTINUOUS
 10
-21.5177081299
 20
-39.95
 11
-21.5177081299
 21
-46.8953839457
  0
LINE
  5
2F4
100
AcDbEntity
  8
IMPORT_IGES
100
AcDbLine
 62
7
  6
CONTINUOUS
 10
-20.85
 20
-46.9484728272
 11
-20.85
 21
-40.3363703305
  0
LINE
  5
2F5
100
AcDbEntity
  8
IMPORT_IGES
100
AcDbLine
 62
7
  6
CONTINUOUS
 10
-20.7562177826
 20
-46.95
 11
-20.7562177826
 21
-40.2425881132
  0
LINE
  5
2F6
100
AcDbEntity
  8
DRAFT
100
AcDbLine
 62
7
  6
CONTINUOUS
 10
-19.3880171782
 20
41.4119828525
 11
-19.3880171782
 21
40.4119828218
  0
LINE
  5
2F7
100
AcDbEntity
  8
DRAFT
100
AcDbLine
 62
7
  6
CONTINUOUS
 10
-18.3110914811
 20
41.4110915118
 11
-18.3110914811
 21
40.4110914811
  0
LINE
  5
2F8
100
AcDbEntity
  8
IMPORT_IGES
100
AcDbLine
 62
7
  6
CONTINUOUS
 10
-21.55
 20
-41.4215564458
 11
-21.5177081299
 21
-39.95
  0
LINE
  5
2F9
100
AcDbEntity
  8
DRAFT
100
AcDbLine
 62
7
  6
CONTINUOUS
 10
11.95
 20
42.5
 11
11.9675963871
 21
42.5175963871
  0
LINE
  5
2FA
100
AcDbEntity
  8
DRAFT
100
AcDbLine
 62
7
  6
CONTINUOUS
 10
11.0003490673
 20
41.4503490673
 11
10.9636970041
 21
41.4136970041
  0
LINE
  5
2FB
100
AcDbEntity
  8
DRAFT
100
AcDbLine
 62
7
  6
CONTINUOUS
 10
-11.0003490673
 20
13.5496509327
 11
-10.9636970041
 21
13.5863029959
  0
LINE
  5
2FC
100
AcDbEntity
  8
DRAFT
100
AcDbLine
 62
7
  6
CONTINUOUS
 10
-11.95
 20
12.5
 11
-11.9675963871
 21
12.4824036129
  0
LINE
  5
2FD
100
AcDbEntity
  8
DRAFT
100
AcDbLine
 62
250
  6
CONTINUOUS
 10
24.7833773731
 20
39.8132669386
 11
24.7513048268
 21
39.7935528994
  0
LINE
  5
2FE
100
AcDbEntity
  8
IMPORT_IGES
100
AcDbLine
 62
7
  6
CONTINUOUS
 10
43.2602638521
 20
-17.15
 11
44.1
 21
-17.1143670955
  0
LINE
  5
2FF
100
AcDbEntity
  8
IMPORT_IGES
100
AcDbLine
 62
7
  6
CONTINUOUS
 10
39.8000020739
 20
-17.2092654777
 11
43.2602638521
 21
-17.15
  0
LINE
  5
300
100
AcDbEntity
  8
IMPORT_IGES
100
AcDbLine
 62
7
  6
CONTINUOUS
 10
38.9694799132
 20
-17.2235238611
 11
39.024914495
 21
-17.2226511615
  0
LINE
  5
301
100
AcDbEntity
  8
IMPORT_IGES
100
AcDbLine
 62
7
  6
CONTINUOUS
 10
37.8873334707
 20
-17.2123091065
 11
37.2606724072
 21
-17.2221750616
  0
LINE
  5
302
100
AcDbEntity
  8
IMPORT_IGES
100
AcDbLine
 62
7
  6
CONTINUOUS
 10
39.6288556889
 20
-17.2093568195
 11
38.2941190545
 21
-17.210069246
  0
LINE
  5
303
100
AcDbEntity
  8
IMPORT_IGES
100
AcDbLine
 62
7
  6
CONTINUOUS
 10
-15.0000456915
 20
-19.15
 11
-2.7384011428
 21
-19.15
  0
LINE
  5
304
100
AcDbEntity
  8
IMPORT_IGES
100
AcDbLine
 62
7
  6
CONTINUOUS
 10
2.7384011428
 20
-19.15
 11
29.0115988572
 21
-19.15
  0
LINE
  5
305
100
AcDbEntity
  8
IMPORT_IGES
100
AcDbLine
 62
7
  6
CONTINUOUS
 10
3.8306014323
 20
-17.9692005714
 11
28.8116293181
 21
-17.9692005714
  0
LINE
  5
306
100
AcDbEntity
  8
IMPORT_IGES
100
AcDbLine
 62
7
  6
CONTINUOUS
 10
-3.8306014323
 20
-17.9692005714
 11
-15.3
 21
-17.9692005714
  0
LINE
  5
307
100
AcDbEntity
  8
IMPORT_IGES
100
AcDbLine
 62
7
  6
CONTINUOUS
 10
38.9694799132
 20
-17.2235238611
 11
36.9982864951
 21
-17.2235238611
  0
LINE
  5
308
100
AcDbEntity
  8
IMPORT_IGES
100
AcDbLine
 62
7
  6
CONTINUOUS
 10
-36.9982864951
 20
-17.2235238611
 11
-38.9694799132
 21
-17.2235238611
  0
LINE
  5
309
100
AcDbEntity
  8
IMPORT_IGES
100
AcDbLine
 62
7
  6
CONTINUOUS
 10
-38.2941190545
 20
-17.210069246
 11
-39.6288556889
 21
-17.2093568195
  0
LINE
  5
30A
100
AcDbEntity
  8
IMPORT_IGES
100
AcDbLine
 62
7
  6
CONTINUOUS
 10
-39.0249137513
 20
-17.2226511732
 11
-38.9694799132
 21
-17.2235238611
  0
LINE
  5
30B
100
AcDbEntity
  8
IMPORT_IGES
100
AcDbLine
 62
7
  6
CONTINUOUS
 10
-37.2606724072
 20
-17.2221750616
 11
-37.8873334707
 21
-17.2123091065
  0
LINE
  5
30C
100
AcDbEntity
  8
IMPORT_IGES
100
AcDbLine
 62
7
  6
CONTINUOUS
 10
-43.2602638521
 20
-17.15
 11
-39.800002074
 21
-17.2092654777
  0
LINE
  5
30D
100
AcDbEntity
  8
IMPORT_IGES
100
AcDbLine
 62
7
  6
CONTINUOUS
 10
-43.2602638521
 20
-17.15
 11
-44.1
 21
-17.1143670955
  0
LINE
  5
30E
100
AcDbEntity
  8
IMPORT_IGES
100
AcDbLine
 62
7
  6
CONTINUOUS
 10
-15.3
 20
-17.9692005714
 11
-15.3
 21
-18.8500456914
  0
LINE
  5
30F
100
AcDbEntity
  8
DRAFT
100
AcDbLine
 62
7
  6
CONTINUOUS
 10
-14.5
 20
13.5333508405
 11
-14.5
 21
41.3666827722
  0
LINE
  5
310
100
AcDbEntity
  8
IMPORT_IGES
100
AcDbLine
 62
7
  6
CONTINUOUS
 10
-14.0
 20
-11.4692005714
 11
-14.0
 21
-12.3500456914
  0
LINE
  5
311
100
AcDbEntity
  8
IMPORT_IGES
100
AcDbLine
 62
7
  6
CONTINUOUS
 10
-13.9
 20
-24.4692005714
 11
-13.9
 21
-25.3500456915
  0
LINE
  5
312
100
AcDbEntity
  8
IMPORT_IGES
100
AcDbLine
 62
7
  6
CONTINUOUS
 10
-13.7
 20
-39.350030461
 11
-13.7
 21
-38.649969539
  0
LINE
  5
313
100
AcDbEntity
  8
DRAFT
100
AcDbLine
 62
7
  6
CONTINUOUS
 10
-11.9675963871
 20
42.5175963871
 11
-11.9675963871
 21
41.4068808118
  0
LINE
  5
314
100
AcDbEntity
  8
DRAFT
100
AcDbLine
 62
7
  6
CONTINUOUS
 10
-11.9675963871
 20
13.4931192497
 11
-11.9675963871
 21
12.4824036129
  0
LINE
  5
315
100
AcDbEntity
  8
DRAFT
100
AcDbLine
 62
7
  6
CONTINUOUS
 10
-11.95
 20
42.5
 11
-11.95
 21
12.5
  0
LINE
  5
316
100
AcDbEntity
  8
DRAFT
100
AcDbLine
 62
7
  6
CONTINUOUS
 10
-11.0003490673
 20
13.5496509327
 11
-11.0003490673
 21
41.4503490673
  0
LINE
  5
317
100
AcDbEntity
  8
IMPORT_IGES
100
AcDbLine
 62
7
  6
CONTINUOUS
 10
-11.0
 20
-4.9692005714
 11
-11.0
 21
-5.8500456914
  0
LINE
  5
318
100
AcDbEntity
  8
DRAFT
100
AcDbLine
 62
7
  6
CONTINUOUS
 10
-10.9636970041
 20
41.4136970041
 11
-10.9636970041
 21
13.5863029959
  0
LINE
  5
319
100
AcDbEntity
  8
IMPORT_IGES
100
AcDbLine
 62
7
  6
CONTINUOUS
 10
-10.8
 20
-30.9692005714
 11
-10.8
 21
-31.8500456915
  0
LINE
  5
31A
100
AcDbEntity
  8
IMPORT_IGES
100
AcDbLine
 62
7
  6
CONTINUOUS
 10
43.9289381285
 20
-7.2496940188
 11
43.5969617234
 21
-7.3000000004
  0
LINE
  5
31B
100
AcDbEntity
  8
IMPORT_IGES
100
AcDbLine
 62
7
  6
CONTINUOUS
 10
44.1
 20
-13.0500000004
 11
43.5969617234
 21
-13.0500000004
  0
LINE
  5
31C
100
AcDbEntity
  8
IMPORT_IGES
100
AcDbLine
 62
7
  6
CONTINUOUS
 10
-43.5969617234
 20
-13.0500000004
 11
-44.1
 21
-13.0500000004
  0
LINE
  5
31D
100
AcDbEntity
  8
IMPORT_IGES
100
AcDbLine
 62
7
  6
CONTINUOUS
 10
-13.7000456915
 20
-12.65
 11
-2.7384011428
 21
-12.65
  0
LINE
  5
31E
100
AcDbEntity
  8
IMPORT_IGES
100
AcDbLine
 62
7
  6
CONTINUOUS
 10
2.7384011428
 20
-12.65
 11
29.0115988572
 21
-12.65
  0
LINE
  5
31F
100
AcDbEntity
  8
IMPORT_IGES
100
AcDbLine
 62
7
  6
CONTINUOUS
 10
3.8306014323
 20
-11.4692005714
 11
28.8116293181
 21
-11.4692005714
  0
LINE
  5
320
100
AcDbEntity
  8
IMPORT_IGES
100
AcDbLine
 62
7
  6
CONTINUOUS
 10
-3.8306014323
 20
-11.4692005714
 11
-14.0
 21
-11.4692005714
  0
LINE
  5
321
100
AcDbEntity
  8
IMPORT_IGES
100
AcDbLine
 62
7
  6
CONTINUOUS
 10
-43.9289381281
 20
-7.2496940188
 11
-43.5969617234
 21
-7.3000000004
  0
LINE
  5
322
100
AcDbEntity
  8
IMPORT_IGES
100
AcDbLine
 62
7
  6
CONTINUOUS
 10
43.9289381281
 20
-24.4787254102
 11
43.5969617234
 21
-24.4142872534
  0
LINE
  5
323
100
AcDbEntity
  8
ASSI
100
AcDbLine
 62
7
  6
CONTINUOUS
 10
-40.7796142329
 20
23.9
 11
-40.7654989263
 21
23.8858846934
  0
LINE
  5
324
100
AcDbEntity
  8
DRAFT
100
AcDbLine
 62
7
  6
CONTINUOUS
 10
-40.7796142329
 20
23.9
 11
-40.7654989263
 21
23.8858846934
  0
LINE
  5
325
100
AcDbEntity
  8
ASSI
100
AcDbLine
 62
7
  6
CONTINUOUS
 10
-40.7900864743
 20
24.5104722413
 11
-40.7796142329
 21
24.5
  0
LINE
  5
326
100
AcDbEntity
  8
DRAFT
100
AcDbLine
 62
7
  6
CONTINUOUS
 10
-40.7900864743
 20
24.5104722413
 11
-40.7796142329
 21
24.5
  0
LINE
  5
327
100
AcDbEntity
  8
DRAFT
100
AcDbLine
 62
7
  6
CONTINUOUS
 10
-31.8767039984
 20
18.89851148
 11
-31.901576218
 21
18.9261350408
  0
LINE
  5
328
100
AcDbEntity
  8
DRAFT
100
AcDbLine
 62
7
  6
CONTINUOUS
 10
26.5119403581
 20
34.719178506
 11
26.5000001999
 21
34.7072383478
  0
LINE
  5
329
100
AcDbEntity
  8
IMPORT_IGES
100
AcDbLine
 62
7
  6
CONTINUOUS
 10
-43.9289381285
 20
-13.1003059819
 11
-43.5969617234
 21
-13.0500000004
  0
LINE
  5
32A
100
AcDbEntity
  8
IMPORT_IGES
100
AcDbLine
 62
7
  6
CONTINUOUS
 10
-44.1
 20
-7.3000000004
 11
-43.5969617234
 21
-7.3000000004
  0
LINE
  5
32B
100
AcDbEntity
  8
IMPORT_IGES
100
AcDbLine
 62
7
  6
CONTINUOUS
 10
43.5969617234
 20
-7.3000000004
 11
44.1
 21
-7.3000000004
  0
LINE
  5
32C
100
AcDbEntity
  8
IMPORT_IGES
100
AcDbLine
 62
7
  6
CONTINUOUS
 10
-10.7000456915
 20
-6.15
 11
-2.7384011428
 21
-6.15
  0
LINE
  5
32D
100
AcDbEntity
  8
IMPORT_IGES
100
AcDbLine
 62
7
  6
CONTINUOUS
 10
2.7384011428
 20
-6.15
 11
29.0115988572
 21
-6.15
  0
LINE
  5
32E
100
AcDbEntity
  8
IMPORT_IGES
100
AcDbLine
 62
7
  6
CONTINUOUS
 10
3.8306014323
 20
-4.9692005714
 11
28.8116293181
 21
-4.9692005714
  0
LINE
  5
32F
100
AcDbEntity
  8
IMPORT_IGES
100
AcDbLine
 62
7
  6
CONTINUOUS
 10
-3.8306014323
 20
-4.9692005714
 11
-11.0
 21
-4.9692005714
  0
LINE
  5
330
100
AcDbEntity
  8
IMPORT_IGES
100
AcDbLine
 62
7
  6
CONTINUOUS
 10
43.9289381281
 20
-13.1003059819
 11
43.5969617234
 21
-13.0500000004
  0
LINE
  5
331
100
AcDbEntity
  8
ASSI
100
AcDbLine
 62
7
  6
CONTINUOUS
 10
-42.2796713505
 20
9.9283578294
 11
-42.2654418109
 21
9.9226661349
  0
LINE
  5
332
100
AcDbEntity
  8
DRAFT
100
AcDbLine
 62
7
  6
CONTINUOUS
 10
-42.2796713505
 20
9.9283578294
 11
-42.2654418109
 21
9.9226661349
  0
LINE
  5
333
100
AcDbEntity
  8
ASSI
100
AcDbLine
 62
7
  6
CONTINUOUS
 10
-40.7900864743
 20
9.9325466366
 11
-40.7654989263
 21
9.9227118271
  0
LINE
  5
334
100
AcDbEntity
  8
DRAFT
100
AcDbLine
 62
7
  6
CONTINUOUS
 10
-40.7900864743
 20
9.9325466366
 11
-40.7654989263
 21
9.9227118271
  0
LINE
  5
335
100
AcDbEntity
  8
DRAFT
100
AcDbLine
 62
7
  6
CONTINUOUS
 10
-28.3785605902
 20
13.4785606209
 11
-28.4075973274
 21
13.5075973582
  0
LINE
  5
336
100
AcDbEntity
  8
DRAFT
100
AcDbLine
 62
7
  6
CONTINUOUS
 10
-28.4075973274
 20
14.5075973274
 11
-28.3785605902
 21
14.4785605902
  0
LINE
  5
337
100
AcDbEntity
  8
DRAFT
100
AcDbLine
 62
7
  6
CONTINUOUS
 10
-30.8715655981
 20
18.89851148
 11
-30.8977940237
 21
18.9247399057
  0
LINE
  5
338
100
AcDbEntity
  8
DRAFT
100
AcDbLine
 62
7
  6
CONTINUOUS
 10
-11.9675963871
 20
13.4931192497
 11
-11.9845317165
 21
13.5354584762
  0
LINE
  5
339
100
AcDbEntity
  8
IMPORT_IGES
100
AcDbLine
 62
7
  6
CONTINUOUS
 10
-2.7384011428
 20
-32.15
 11
-2.7384011428
 21
-30.8749472681
  0
LINE
  5
33A
100
AcDbEntity
  8
IMPORT_IGES
100
AcDbLine
 62
7
  6
CONTINUOUS
 10
-2.7384011428
 20
-25.65
 11
-2.7384011428
 21
-24.3749472681
  0
LINE
  5
33B
100
AcDbEntity
  8
IMPORT_IGES
100
AcDbLine
 62
7
  6
CONTINUOUS
 10
-2.7384011428
 20
-19.15
 11
-2.7384011428
 21
-17.8749472681
  0
LINE
  5
33C
100
AcDbEntity
  8
IMPORT_IGES
100
AcDbLine
 62
7
  6
CONTINUOUS
 10
-2.7384011428
 20
-12.65
 11
-2.7384011428
 21
-11.3749472681
  0
LINE
  5
33D
100
AcDbEntity
  8
IMPORT_IGES
100
AcDbLine
 62
7
  6
CONTINUOUS
 10
-2.7384011428
 20
-6.15
 11
-2.7384011428
 21
-4.8749473238
  0
LINE
  5
33E
100
AcDbEntity
  8
IMPORT_IGES
100
AcDbLine
 62
7
  6
CONTINUOUS
 10
-2.7384011428
 20
0.45
 11
-2.7384011428
 21
1.4000199894
  0
LINE
  5
33F
100
AcDbEntity
  8
ASSI
100
AcDbLine
 62
7
  6
CONTINUOUS
 10
0.0
 20
27.6729751594
 11
-0.000086118
 21
13.5881343696
  0
LINE
  5
340
100
AcDbEntity
  8
0
100
AcDbLine
 62
7
  6
CONTINUOUS
 10
0.0
 20
27.6729751594
 11
-0.000086118
 21
13.5881343696
  0
LINE
  5
341
100
AcDbEntity
  8
IMPORT_IGES
100
AcDbLine
 62
7
  6
CONTINUOUS
 10
-43.2602638521
 20
-3.2
 11
-44.1
 21
-3.2356329045
  0
LINE
  5
342
100
AcDbEntity
  8
IMPORT_IGES
100
AcDbLine
 62
7
  6
CONTINUOUS
 10
-39.8000021367
 20
-3.1407345234
 11
-43.2602638521
 21
-3.2
  0
LINE
  5
343
100
AcDbEntity
  8
IMPORT_IGES
100
AcDbLine
 62
7
  6
CONTINUOUS
 10
-37.8873334707
 20
-3.1376908935
 11
-37.2606724072
 21
-3.1278249384
  0
LINE
  5
344
100
AcDbEntity
  8
IMPORT_IGES
100
AcDbLine
 62
7
  6
CONTINUOUS
 10
-38.9694799132
 20
-3.1264761389
 11
-39.0249137513
 21
-3.1273488268
  0
LINE
  5
345
100
AcDbEntity
  8
IMPORT_IGES
100
AcDbLine
 62
7
  6
CONTINUOUS
 10
-39.6288556889
 20
-3.1406431805
 11
-38.2941190545
 21
-3.139930754
  0
LINE
  5
346
100
AcDbEntity
  8
IMPORT_IGES
100
AcDbLine
 62
7
  6
CONTINUOUS
 10
-38.9694799132
 20
-3.1264761389
 11
-36.9982864951
 21
-3.1264761389
  0
LINE
  5
347
100
AcDbEntity
  8
IMPORT_IGES
100
AcDbLine
 62
7
  6
CONTINUOUS
 10
36.9982864951
 20
-3.1264761389
 11
38.9694799132
 21
-3.1264761389
  0
LINE
  5
348
100
AcDbEntity
  8
IMPORT_IGES
100
AcDbLine
 62
7
  6
CONTINUOUS
 10
2.7384011428
 20
0.45
 11
29.0115988572
 21
0.45
  0
LINE
  5
349
100
AcDbEntity
  8
IMPORT_IGES
100
AcDbLine
 62
7
  6
CONTINUOUS
 10
-2.7384011428
 20
0.45
 11
-29.0115988572
 21
0.45
  0
LINE
  5
34A
100
AcDbEntity
  8
IMPORT_IGES
100
AcDbLine
 62
7
  6
CONTINUOUS
 10
38.2941190545
 20
-3.139930754
 11
39.6288556889
 21
-3.1406431805
  0
LINE
  5
34B
100
AcDbEntity
  8
IMPORT_IGES
100
AcDbLine
 62
7
  6
CONTINUOUS
 10
37.2606724072
 20
-3.1278249384
 11
37.8873334707
 21
-3.1376908935
  0
LINE
  5
34C
100
AcDbEntity
  8
IMPORT_IGES
100
AcDbLine
 62
7
  6
CONTINUOUS
 10
39.024914495
 20
-3.1273488385
 11
38.9694799132
 21
-3.1264761389
  0
LINE
  5
34D
100
AcDbEntity
  8
IMPORT_IGES
100
AcDbLine
 62
7
  6
CONTINUOUS
 10
43.2602638521
 20
-3.2
 11
39.8000020739
 21
-3.1407345223
  0
LINE
  5
34E
100
AcDbEntity
  8
IMPORT_IGES
100
AcDbLine
 62
7
  6
CONTINUOUS
 10
43.2602638521
 20
-3.2
 11
44.1
 21
-3.2356329045
  0
LINE
  5
34F
100
AcDbEntity
  8
DRAFT
100
AcDbLine
 62
7
  6
CONTINUOUS
 10
-27.5154857193
 20
34.7072383478
 11
-27.5238730687
 21
34.7203847344
  0
LINE
  5
350
100
AcDbEntity
  8
IMPORT_IGES
100
AcDbLine
 62
7
  6
CONTINUOUS
 10
2.7384011428
 20
1.4000199895
 11
2.7384011428
 21
0.45
  0
LINE
  5
351
100
AcDbEntity
  8
IMPORT_IGES
100
AcDbLine
 62
7
  6
CONTINUOUS
 10
2.7384011428
 20
-4.8749473469
 11
2.7384011428
 21
-6.15
  0
LINE
  5
352
100
AcDbEntity
  8
IMPORT_IGES
100
AcDbLine
 62
7
  6
CONTINUOUS
 10
2.7384011428
 20
-11.3749473469
 11
2.7384011428
 21
-12.65
  0
LINE
  5
353
100
AcDbEntity
  8
IMPORT_IGES
100
AcDbLine
 62
7
  6
CONTINUOUS
 10
2.7384011428
 20
-17.8749473469
 11
2.7384011428
 21
-19.15
  0
LINE
  5
354
100
AcDbEntity
  8
IMPORT_IGES
100
AcDbLine
 62
7
  6
CONTINUOUS
 10
2.7384011428
 20
-24.3749473469
 11
2.7384011428
 21
-25.65
  0
LINE
  5
355
100
AcDbEntity
  8
IMPORT_IGES
100
AcDbLine
 62
7
  6
CONTINUOUS
 10
2.7384011428
 20
-30.8749473469
 11
2.7384011428
 21
-32.15
  0
LINE
  5
356
100
AcDbEntity
  8
DRAFT
100
AcDbLine
 62
7
  6
CONTINUOUS
 10
11.9675963871
 20
13.4931192189
 11
11.9845317165
 21
13.5354584455
  0
LINE
  5
357
100
AcDbEntity
  8
DRAFT
100
AcDbLine
 62
7
  6
CONTINUOUS
 10
27.5154857617
 20
34.7072383478
 11
27.5238731112
 21
34.7203847345
  0
LINE
  5
358
100
AcDbEntity
  8
ASSI
100
AcDbLine
 62
7
  6
CONTINUOUS
 10
40.7654989263
 20
9.9227118271
 11
40.7900864743
 21
9.9325466366
  0
LINE
  5
359
100
AcDbEntity
  8
DRAFT
100
AcDbLine
 62
7
  6
CONTINUOUS
 10
40.7654989263
 20
9.9227118271
 11
40.7900864743
 21
9.9325466366
  0
LINE
  5
35A
100
AcDbEntity
  8
IMPORT_IGES
100
AcDbLine
 62
7
  6
CONTINUOUS
 10
-43.9289381285
 20
-3.2787254103
 11
-43.5969617231
 21
-3.2142872534
  0
LINE
  5
35B
100
AcDbEntity
  8
IMPORT_IGES
100
AcDbLine
 62
7
  6
CONTINUOUS
 10
-38.6271992794
 20
1.7
 11
-29.311621707
 21
1.7
  0
LINE
  5
35C
100
AcDbEntity
  8
IMPORT_IGES
100
AcDbLine
 62
7
  6
CONTINUOUS
 10
38.6271992794
 20
1.7
 11
29.311621707
 21
1.7
  0
LINE
  5
35D
100
AcDbEntity
  8
IMPORT_IGES
100
AcDbLine
 62
7
  6
CONTINUOUS
 10
2.438378293
 20
1.7
 11
-2.438378293
 21
1.7
  0
LINE
  5
35E
100
AcDbEntity
  8
0
100
AcDbLine
 62
7
  6
CONTINUOUS
 10
-37.5
 20
2.6999999999
 11
37.5
 21
2.6999999999
  0
LINE
  5
35F
100
AcDbEntity
  8
IMPORT_IGES
100
AcDbLine
 62
7
  6
CONTINUOUS
 10
43.9289381281
 20
-3.2787254102
 11
43.5969617234
 21
-3.2142872534
  0
LINE
  5
360
100
AcDbEntity
  8
DRAFT
100
AcDbLine
 62
7
  6
CONTINUOUS
 10
-26.5119403581
 20
34.719178506
 11
-26.5000001999
 21
34.7072383478
  0
LINE
  5
361
100
AcDbEntity
  8
DRAFT
100
AcDbLine
 62
7
  6
CONTINUOUS
 10
10.9636970041
 20
13.5863029959
 11
10.9636970041
 21
41.4136970041
  0
LINE
  5
362
100
AcDbEntity
  8
DRAFT
100
AcDbLine
 62
7
  6
CONTINUOUS
 10
11.0003490673
 20
41.4503490673
 11
11.0003490673
 21
13.5496509327
  0
LINE
  5
363
100
AcDbEntity
  8
DRAFT
100
AcDbLine
 62
7
  6
CONTINUOUS
 10
11.95
 20
12.5
 11
11.95
 21
42.5
  0
LINE
  5
364
100
AcDbEntity
  8
DRAFT
100
AcDbLine
 62
7
  6
CONTINUOUS
 10
11.9675963871
 20
42.5175963871
 11
11.9675963871
 21
41.4068807811
  0
LINE
  5
365
100
AcDbEntity
  8
DRAFT
100
AcDbLine
 62
7
  6
CONTINUOUS
 10
11.9675963871
 20
13.4931192189
 11
11.9675963871
 21
12.4824036129
  0
LINE
  5
366
100
AcDbEntity
  8
DRAFT
100
AcDbLine
 62
7
  6
CONTINUOUS
 10
31.901576176
 20
18.9261350408
 11
31.8767039563
 21
18.89851148
  0
LINE
  5
367
100
AcDbEntity
  8
DRAFT
100
AcDbLine
 62
7
  6
CONTINUOUS
 10
30.8977940237
 20
18.9247399057
 11
30.8715655981
 21
18.89851148
  0
LINE
  5
368
100
AcDbEntity
  8
DRAFT
100
AcDbLine
 62
7
  6
CONTINUOUS
 10
28.3785605902
 20
14.4785605902
 11
28.4075973274
 21
14.5075973274
  0
LINE
  5
369
100
AcDbEntity
  8
DRAFT
100
AcDbLine
 62
7
  6
CONTINUOUS
 10
28.4075973274
 20
13.5075973274
 11
28.3785605902
 21
13.4785605902
  0
LINE
  5
36A
100
AcDbEntity
  8
ASSI
100
AcDbLine
 62
7
  6
CONTINUOUS
 10
40.7900864743
 20
24.5104722413
 11
40.7796142329
 21
24.5
  0
LINE
  5
36B
100
AcDbEntity
  8
DRAFT
100
AcDbLine
 62
7
  6
CONTINUOUS
 10
40.7900864743
 20
24.5104722413
 11
40.7796142329
 21
24.5
  0
LINE
  5
36C
100
AcDbEntity
  8
ASSI
100
AcDbLine
 62
7
  6
CONTINUOUS
 10
40.7654989263
 20
23.8858846934
 11
40.7796142329
 21
23.9
  0
LINE
  5
36D
100
AcDbEntity
  8
DRAFT
100
AcDbLine
 62
7
  6
CONTINUOUS
 10
40.7654989263
 20
23.8858846934
 11
40.7796142329
 21
23.9
  0
LINE
  5
36E
100
AcDbEntity
  8
ASSI
100
AcDbLine
 62
7
  6
CONTINUOUS
 10
42.2654418109
 20
9.9226661349
 11
42.2796713505
 21
9.9283578294
  0
LINE
  5
36F
100
AcDbEntity
  8
DRAFT
100
AcDbLine
 62
7
  6
CONTINUOUS
 10
42.2654418109
 20
9.9226661349
 11
42.2796713505
 21
9.9283578294
  0
LINE
  5
370
100
AcDbEntity
  8
ASSI
100
AcDbLine
 62
7
  6
CONTINUOUS
 10
44.1
 20
9.9317616851
 11
43.8387150069
 21
9.9283578294
  0
LINE
  5
371
100
AcDbEntity
  8
DRAFT
100
AcDbLine
 62
7
  6
CONTINUOUS
 10
44.1
 20
9.9317616851
 11
43.8387150069
 21
9.9283578294
  0
LINE
  5
372
100
AcDbEntity
  8
ASSI
100
AcDbLine
 62
7
  6
CONTINUOUS
 10
44.1
 20
9.946597301
 11
43.0214502394
 21
9.9325466366
  0
LINE
  5
373
100
AcDbEntity
  8
DRAFT
100
AcDbLine
 62
7
  6
CONTINUOUS
 10
44.1
 20
9.946597301
 11
43.0214502394
 21
9.9325466366
  0
LINE
  5
374
100
AcDbEntity
  8
ASSI
100
AcDbLine
 62
7
  6
CONTINUOUS
 10
-43.8387150069
 20
9.9283578294
 11
-42.2796713505
 21
9.9283578294
  0
LINE
  5
375
100
AcDbEntity
  8
DRAFT
100
AcDbLine
 62
7
  6
CONTINUOUS
 10
-43.8387150069
 20
9.9283578294
 11
-42.2796713505
 21
9.9283578294
  0
LINE
  5
376
100
AcDbEntity
  8
ASSI
100
AcDbLine
 62
7
  6
CONTINUOUS
 10
42.2796713505
 20
9.9283578294
 11
43.8387150069
 21
9.9283578294
  0
LINE
  5
377
100
AcDbEntity
  8
DRAFT
100
AcDbLine
 62
7
  6
CONTINUOUS
 10
42.2796713505
 20
9.9283578294
 11
43.8387150069
 21
9.9283578294
  0
LINE
  5
378
100
AcDbEntity
  8
ASSI
100
AcDbLine
 62
7
  6
CONTINUOUS
 10
-43.0214502394
 20
9.9325466366
 11
-40.7900864743
 21
9.9325466366
  0
LINE
  5
379
100
AcDbEntity
  8
DRAFT
100
AcDbLine
 62
7
  6
CONTINUOUS
 10
-43.0214502394
 20
9.9325466366
 11
-40.7900864743
 21
9.9325466366
  0
LINE
  5
37A
100
AcDbEntity
  8
ASSI
100
AcDbLine
 62
7
  6
CONTINUOUS
 10
40.7900864743
 20
9.9325466366
 11
43.0214502394
 21
9.9325466366
  0
LINE
  5
37B
100
AcDbEntity
  8
DRAFT
100
AcDbLine
 62
7
  6
CONTINUOUS
 10
40.7900864743
 20
9.9325466366
 11
43.0214502394
 21
9.9325466366
  0
LINE
  5
37C
100
AcDbEntity
  8
0
100
AcDbLine
 62
7
  6
CONTINUOUS
 10
32.2011846771
 20
10.2
 11
-32.2011846771
 21
10.2
  0
LINE
  5
37D
100
AcDbEntity
  8
ASSI
100
AcDbLine
 62
7
  6
CONTINUOUS
 10
-44.1
 20
9.9317616851
 11
-43.8387150069
 21
9.9283578294
  0
LINE
  5
37E
100
AcDbEntity
  8
DRAFT
100
AcDbLine
 62
7
  6
CONTINUOUS
 10
-44.1
 20
9.9317616851
 11
-43.8387150069
 21
9.9283578294
  0
LINE
  5
37F
100
AcDbEntity
  8
ASSI
100
AcDbLine
 62
7
  6
CONTINUOUS
 10
-44.1
 20
9.946597301
 11
-43.0214502394
 21
9.9325466366
  0
LINE
  5
380
100
AcDbEntity
  8
DRAFT
100
AcDbLine
 62
7
  6
CONTINUOUS
 10
-44.1
 20
9.946597301
 11
-43.0214502394
 21
9.9325466366
  0
LINE
  5
381
100
AcDbEntity
  8
DRAFT
100
AcDbLine
 62
7
  6
CONTINUOUS
 10
-36.906837937
 20
47.506837937
 11
-36.9103871999
 21
47.5103871999
  0
LINE
  5
382
100
AcDbEntity
  8
DRAFT
100
AcDbLine
 62
7
  6
CONTINUOUS
 10
14.5
 20
41.3666827414
 11
14.5
 21
13.5333508098
  0
LINE
  5
383
100
AcDbEntity
  8
IMPORT_IGES
100
AcDbLine
 62
250
  6
CONTINUOUS
 10
-21.2363703305
 20
-39.95
 11
-21.1425881131
 21
-39.8562177826
  0
LINE
  5
384
100
AcDbEntity
  8
IMPORT_IGES
100
AcDbLine
 62
250
  6
CONTINUOUS
 10
-20.7562177826
 20
-40.2425881132
 11
-20.85
 21
-40.3363703305
  0
LINE
  5
385
100
AcDbEntity
  8
DRAFT
100
AcDbLine
 62
250
  6
CONTINUOUS
 10
32.1598647118
 20
14.9881327849
 11
32.1264706082
 21
14.9872700461
  0
LINE
  5
386
100
AcDbEntity
  8
DRAFT
100
AcDbLine
 62
7
  6
CONTINUOUS
 10
-28.7000247737
 20
13.5136026541
 11
-28.4076092344
 21
13.514135213
  0
LINE
  5
387
100
AcDbEntity
  8
DRAFT
100
AcDbLine
 62
7
  6
CONTINUOUS
 10
36.9051314181
 20
17.4931662259
 11
36.9
 21
17.4931575734
  0
LINE
  5
388
100
AcDbEntity
  8
DRAFT
100
AcDbLine
 62
7
  6
CONTINUOUS
 10
-11.95
 20
12.5
 11
11.95
 21
12.5
  0
LINE
  5
389
100
AcDbEntity
  8
DRAFT
100
AcDbLine
 62
7
  6
CONTINUOUS
 10
11.0003490673
 20
13.5496509327
 11
-11.0003490673
 21
13.5496509327
  0
LINE
  5
38A
100
AcDbEntity
  8
DRAFT
100
AcDbLine
 62
7
  6
CONTINUOUS
 10
-10.9636970041
 20
13.5863029959
 11
-8.0
 21
13.5863029959
  0
LINE
  5
38B
100
AcDbEntity
  8
DRAFT
100
AcDbLine
 62
7
  6
CONTINUOUS
 10
8.0
 20
13.5863029959
 11
10.9636970041
 21
13.5863029959
  0
LINE
  5
38C
100
AcDbEntity
  8
DRAFT
100
AcDbLine
 62
7
  6
CONTINUOUS
 10
-28.4075973274
 20
14.5075973274
 11
-27.2924026726
 21
14.5075973274
  0
LINE
  5
38D
100
AcDbEntity
  8
DRAFT
100
AcDbLine
 62
7
  6
CONTINUOUS
 10
27.2924026726
 20
14.5075973274
 11
28.4075973274
 21
14.5075973274
  0
LINE
  5
38E
100
AcDbEntity
  8
DRAFT
100
AcDbLine
 62
7
  6
CONTINUOUS
 10
40.15
 20
17.4996509327
 11
36.9068316567
 21
17.4931683433
  0
LINE
  5
38F
100
AcDbEntity
  8
DRAFT
100
AcDbLine
 62
7
  6
CONTINUOUS
 10
-36.9
 20
17.4931575734
 11
-36.9051314181
 21
17.4931662259
  0
LINE
  5
390
100
AcDbEntity
  8
DRAFT
100
AcDbLine
 62
7
  6
CONTINUOUS
 10
28.4076092344
 20
13.5141351822
 11
28.7000247736
 21
13.5136026233
  0
LINE
  5
391
100
AcDbEntity
  8
DRAFT
100
AcDbLine
 62
7
  6
CONTINUOUS
 10
-36.9068316567
 20
17.4931683433
 11
-40.15
 21
17.4996509327
  0
LINE
  5
392
100
AcDbEntity
  8
DRAFT
100
AcDbLine
 62
250
  6
CONTINUOUS
 10
-32.159864771
 20
14.9881328235
 11
-32.1264706674
 21
14.9872700845
  0
LINE
  5
393
100
AcDbEntity
  8
DRAFT
100
AcDbLine
 62
7
  6
CONTINUOUS
 10
11.95
 20
12.5
 11
11.9675963871
 21
12.4824036129
  0
LINE
  5
394
100
AcDbEntity
  8
DRAFT
100
AcDbLine
 62
7
  6
CONTINUOUS
 10
11.0003490673
 20
13.5496509327
 11
10.9636970041
 21
13.5863029959
  0
LINE
  5
395
100
AcDbEntity
  8
DRAFT
100
AcDbLine
 62
7
  6
CONTINUOUS
 10
18.3110914811
 20
41.4110914811
 11
18.3110914811
 21
40.4110914811
  0
LINE
  5
396
100
AcDbEntity
  8
DRAFT
100
AcDbLine
 62
7
  6
CONTINUOUS
 10
19.3880171782
 20
41.4119828218
 11
19.3880171782
 21
40.4119828218
  0
LINE
  5
397
100
AcDbEntity
  8
DRAFT
100
AcDbLine
 62
250
  6
CONTINUOUS
 10
21.9147384189
 20
41.4142761287
 11
21.9147384189
 21
41.3752945172
  0
LINE
  5
398
100
AcDbEntity
  8
IMPORT_IGES
100
AcDbLine
 62
7
  6
CONTINUOUS
 10
22.5500000004
 20
-42.5499999996
 11
22.5500000004
 21
-44.5999999996
  0
LINE
  5
399
100
AcDbEntity
  8
RACCORDO
100
AcDbLine
 62
250
  6
CONTINUOUS
 10
22.5769077355
 20
-42.9946372013
 11
22.5769077355
 21
-43.9053627987
  0
LINE
  5
39A
100
AcDbEntity
  8
RACCORDO
100
AcDbLine
 62
250
  6
CONTINUOUS
 10
22.7682793032
 20
-42.7518256471
 11
22.7682793032
 21
-44.1481743529
  0
LINE
  5
39B
100
AcDbEntity
  8
RACCORDO
100
AcDbLine
 62
250
  6
CONTINUOUS
 10
22.9335899411
 20
-42.6295977969
 11
22.9335899411
 21
-44.2704022031
  0
LINE
  5
39C
100
AcDbEntity
  8
RACCORDO
100
AcDbLine
 62
250
  6
CONTINUOUS
 10
23.2664100589
 20
-42.5499999994
 11
23.2664100589
 21
-44.3842118847
  0
LINE
  5
39D
100
AcDbEntity
  8
RACCORDO
100
AcDbLine
 62
250
  6
CONTINUOUS
 10
23.4
 20
-44.6000000007
 11
23.4
 21
-44.3919663292
  0
LINE
  5
39E
100
AcDbEntity
  8
RACCORDO
100
AcDbLine
 62
250
  6
CONTINUOUS
 10
23.4445299804
 20
-42.5499999994
 11
23.4445299804
 21
-44.3913834183
  0
LINE
  5
39F
100
AcDbEntity
  8
ASSI
100
AcDbLine
 62
7
  6
CONTINUOUS
 10
-44.1
 20
21.9888714763
 11
-43.7583105186
 21
22.0
  0
LINE
  5
3A0
100
AcDbEntity
  8
DRAFT
100
AcDbLine
 62
7
  6
CONTINUOUS
 10
-44.1
 20
21.9888714763
 11
-43.7583105186
 21
22.0
  0
LINE
  5
3A1
100
AcDbEntity
  8
DRAFT
100
AcDbLine
 62
7
  6
CONTINUOUS
 10
31.8767039563
 20
18.89851148
 11
30.8715655981
 21
18.89851148
  0
LINE
  5
3A2
100
AcDbEntity
  8
DRAFT
100
AcDbLine
 62
7
  6
CONTINUOUS
 10
-30.8715655981
 20
18.89851148
 11
-31.8767039984
 21
18.89851148
  0
LINE
  5
3A3
100
AcDbEntity
  8
DRAFT
100
AcDbLine
 62
7
  6
CONTINUOUS
 10
-31.7486131541
 20
20.00148852
 11
-30.8715655981
 21
20.00148852
  0
LINE
  5
3A4
100
AcDbEntity
  8
DRAFT
100
AcDbLine
 62
7
  6
CONTINUOUS
 10
30.8715655981
 20
20.00148852
 11
31.7486131171
 21
20.00148852
  0
LINE
  5
3A5
100
AcDbEntity
  8
ASSI
100
AcDbLine
 62
7
  6
CONTINUOUS
 10
44.1
 20
22.0
 11
43.7583105186
 21
22.0
  0
LINE
  5
3A6
100
AcDbEntity
  8
DRAFT
100
AcDbLine
 62
7
  6
CONTINUOUS
 10
44.1
 20
22.0
 11
43.7583105186
 21
22.0
  0
LINE
  5
3A7
100
AcDbEntity
  8
ASSI
100
AcDbLine
 62
7
  6
CONTINUOUS
 10
-43.7583105186
 20
22.0
 11
-44.1
 21
22.0
  0
LINE
  5
3A8
100
AcDbEntity
  8
DRAFT
100
AcDbLine
 62
7
  6
CONTINUOUS
 10
-43.7583105186
 20
22.0
 11
-44.1
 21
22.0
  0
LINE
  5
3A9
100
AcDbEntity
  8
ASSI
100
AcDbLine
 62
7
  6
CONTINUOUS
 10
44.1
 20
21.9888714763
 11
43.7583105186
 21
22.0
  0
LINE
  5
3AA
100
AcDbEntity
  8
DRAFT
100
AcDbLine
 62
7
  6
CONTINUOUS
 10
44.1
 20
21.9888714763
 11
43.7583105186
 21
22.0
  0
LINE
  5
3AB
100
AcDbEntity
  8
DRAFT
100
AcDbLine
 62
250
  6
CONTINUOUS
 10
-24.7833772364
 20
39.8132670324
 11
-24.7513046901
 21
39.793552993
  0
LINE
  5
3AC
100
AcDbEntity
  8
DRAFT
100
AcDbLine
 62
7
  6
CONTINUOUS
 10
-11.0003490673
 20
41.4503490673
 11
-10.9636970041
 21
41.4136970041
  0
LINE
  5
3AD
100
AcDbEntity
  8
DRAFT
100
AcDbLine
 62
7
  6
CONTINUOUS
 10
-11.95
 20
42.5
 11
-11.9675963871
 21
42.5175963871
  0
LINE
  5
3AE
100
AcDbEntity
  8
RACCORDO
100
AcDbLine
 62
250
  6
CONTINUOUS
 10
23.7554700196
 20
-42.5499999994
 11
23.7554700196
 21
-44.3913834183
  0
LINE
  5
3AF
100
AcDbEntity
  8
RACCORDO
100
AcDbLine
 62
250
  6
CONTINUOUS
 10
23.9335899411
 20
-42.5499999994
 11
23.9335899411
 21
-44.3937150618
  0
LINE
  5
3B0
100
AcDbEntity
  8
RACCORDO
100
AcDbLine
 62
250
  6
CONTINUOUS
 10
24.2664100589
 20
-42.5499999994
 11
24.2664100589
 21
-44.3937150618
  0
LINE
  5
3B1
100
AcDbEntity
  8
RACCORDO
100
AcDbLine
 62
250
  6
CONTINUOUS
 10
24.4445299804
 20
-42.5499999994
 11
24.4445299804
 21
-44.3913834183
  0
LINE
  5
3B2
100
AcDbEntity
  8
RACCORDO
100
AcDbLine
 62
250
  6
CONTINUOUS
 10
24.7554700196
 20
-42.5499999994
 11
24.7554700196
 21
-44.3913834183
  0
LINE
  5
3B3
100
AcDbEntity
  8
RACCORDO
100
AcDbLine
 62
250
  6
CONTINUOUS
 10
24.9335899411
 20
-42.5499999994
 11
24.9335899411
 21
-44.3937150618
  0
LINE
  5
3B4
100
AcDbEntity
  8
RACCORDO
100
AcDbLine
 62
250
  6
CONTINUOUS
 10
25.2664100589
 20
-42.5499999994
 11
25.2664100589
 21
-44.3937150618
  0
LINE
  5
3B5
100
AcDbEntity
  8
IMPORT_IGES
100
AcDbLine
 62
7
  6
CONTINUOUS
 10
25.3345435065
 20
-31.3865329179
 11
25.3345435065
 21
-32.15
  0
LINE
  5
3B6
100
AcDbEntity
  8
RACCORDO
100
AcDbLine
 62
250
  6
CONTINUOUS
 10
25.4445299804
 20
-42.5499999994
 11
25.4445299804
 21
-44.3913834183
  0
LINE
  5
3B7
100
AcDbEntity
  8
RACCORDO
100
AcDbLine
 62
250
  6
CONTINUOUS
 10
25.7554700196
 20
-42.5499999994
 11
25.7554700196
 21
-44.3913834183
  0
LINE
  5
3B8
100
AcDbEntity
  8
RACCORDO
100
AcDbLine
 62
250
  6
CONTINUOUS
 10
25.9335899411
 20
-42.5499999994
 11
25.9335899411
 21
-44.3937150618
  0
LINE
  5
3B9
100
AcDbEntity
  8
IMPORT_IGES
100
AcDbLine
 62
7
  6
CONTINUOUS
 10
26.0
 20
-32.15
 11
26.0
 21
-30.9692005714
  0
LINE
  5
3BA
100
AcDbEntity
  8
RACCORDO
100
AcDbLine
 62
250
  6
CONTINUOUS
 10
26.2664100589
 20
-42.5499999994
 11
26.2664100589
 21
-44.3937150618
  0
LINE
  5
3BB
100
AcDbEntity
  8
RACCORDO
100
AcDbLine
 62
250
  6
CONTINUOUS
 10
26.4445299804
 20
-42.5499999994
 11
26.4445299804
 21
-44.3913834183
  0
LINE
  5
3BC
100
AcDbEntity
  8
DRAFT
100
AcDbLine
 62
7
  6
CONTINUOUS
 10
26.5000001999
 20
35.7927616522
 11
26.5000001999
 21
34.7072383478
  0
LINE
  5
3BD
100
AcDbEntity
  8
DRAFT
100
AcDbLine
 62
7
  6
CONTINUOUS
 10
26.5119403581
 20
35.780821494
 11
26.5119403581
 21
34.719178506
  0
LINE
  5
3BE
100
AcDbEntity
  8
RACCORDO
100
AcDbLine
 62
250
  6
CONTINUOUS
 10
26.7554700196
 20
-42.5499999994
 11
26.7554700196
 21
-44.3913834183
  0
LINE
  5
3BF
100
AcDbEntity
  8
RACCORDO
100
AcDbLine
 62
250
  6
CONTINUOUS
 10
26.9335899411
 20
-42.5499999994
 11
26.9335899411
 21
-44.3937150618
  0
LINE
  5
3C0
100
AcDbEntity
  8
RACCORDO
100
AcDbLine
 62
250
  6
CONTINUOUS
 10
27.2664100589
 20
-42.5499999994
 11
27.2664100589
 21
-44.3937150618
  0
LINE
  5
3C1
100
AcDbEntity
  8
DRAFT
100
AcDbLine
 62
7
  6
CONTINUOUS
 10
27.2924026726
 20
13.5075973274
 11
27.2924026726
 21
14.5075973274
  0
LINE
  5
3C2
100
AcDbEntity
  8
DRAFT
100
AcDbLine
 62
7
  6
CONTINUOUS
 10
27.3201381807
 20
14.4798618193
 11
27.3201381807
 21
13.4798618193
  0
LINE
  5
3C3
100
AcDbEntity
  8
RACCORDO
100
AcDbLine
 62
250
  6
CONTINUOUS
 10
27.4445299804
 20
-42.5499999994
 11
27.4445299804
 21
-44.3913834183
  0
LINE
  5
3C4
100
AcDbEntity
  8
RACCORDO
100
AcDbLine
 62
250
  6
CONTINUOUS
 10
27.7554700196
 20
-42.5499999994
 11
27.7554700196
 21
-44.3913834183
  0
LINE
  5
3C5
100
AcDbEntity
  8
RACCORDO
100
AcDbLine
 62
250
  6
CONTINUOUS
 10
27.9335899411
 20
-42.5499999994
 11
27.9335899411
 21
-44.3937150618
  0
LINE
  5
3C6
100
AcDbEntity
  8
RACCORDO
100
AcDbLine
 62
250
  6
CONTINUOUS
 10
28.2664100589
 20
-42.5499999994
 11
28.2664100589
 21
-44.3937150618
  0
LINE
  5
3C7
100
AcDbEntity
  8
DRAFT
100
AcDbLine
 62
7
  6
CONTINUOUS
 10
28.3785605902
 20
14.4785605902
 11
28.3785605902
 21
13.4785605902
  0
LINE
  5
3C8
100
AcDbEntity
  8
DRAFT
100
AcDbLine
 62
7
  6
CONTINUOUS
 10
28.4075973274
 20
14.5075973274
 11
28.4075973274
 21
13.5075973274
  0
LINE
  5
3C9
100
AcDbEntity
  8
RACCORDO
100
AcDbLine
 62
250
  6
CONTINUOUS
 10
28.4445299804
 20
-42.5499999994
 11
28.4445299804
 21
-44.3913834183
  0
LINE
  5
3CA
100
AcDbEntity
  8
RACCORDO
100
AcDbLine
 62
250
  6
CONTINUOUS
 10
28.7554700196
 20
-42.5499999994
 11
28.7554700196
 21
-44.3913834183
  0
LINE
  5
3CB
100
AcDbEntity
  8
RACCORDO
100
AcDbLine
 62
250
  6
CONTINUOUS
 10
28.9335899411
 20
-42.5499999994
 11
28.9335899411
 21
-44.3937150618
  0
LINE
  5
3CC
100
AcDbEntity
  8
IMPORT_IGES
100
AcDbLine
 62
7
  6
CONTINUOUS
 10
29.0115988572
 20
-25.65
 11
29.0115988572
 21
-24.6691701105
  0
LINE
  5
3CD
100
AcDbEntity
  8
IMPORT_IGES
100
AcDbLine
 62
7
  6
CONTINUOUS
 10
29.0115988572
 20
-19.15
 11
29.0115988572
 21
-18.1691701105
  0
LINE
  5
3CE
100
AcDbEntity
  8
IMPORT_IGES
100
AcDbLine
 62
7
  6
CONTINUOUS
 10
29.0115988572
 20
-12.65
 11
29.0115988572
 21
-11.6691701105
  0
LINE
  5
3CF
100
AcDbEntity
  8
IMPORT_IGES
100
AcDbLine
 62
7
  6
CONTINUOUS
 10
29.0115988572
 20
-6.15
 11
29.0115988572
 21
-5.1691701105
  0
LINE
  5
3D0
100
AcDbEntity
  8
IMPORT_IGES
100
AcDbLine
 62
7
  6
CONTINUOUS
 10
29.0115988572
 20
0.45
 11
29.0115988572
 21
1.4000199895
  0
LINE
  5
3D1
100
AcDbEntity
  8
RACCORDO
100
AcDbLine
 62
250
  6
CONTINUOUS
 10
29.2664100589
 20
-42.5499999994
 11
29.2664100589
 21
-44.3937150618
  0
LINE
  5
3D2
100
AcDbEntity
  8
ASSI
100
AcDbLine
 62
7
  6
CONTINUOUS
 10
39.15
 20
24.5104722413
 11
38.3535214786
 21
24.5035214786
  0
LINE
  5
3D3
100
AcDbEntity
  8
DRAFT
100
AcDbLine
 62
7
  6
CONTINUOUS
 10
39.15
 20
24.5104722413
 11
38.3535214786
 21
24.5035214786
  0
LINE
  5
3D4
100
AcDbEntity
  8
DRAFT
100
AcDbLine
 62
7
  6
CONTINUOUS
 10
38.35
 20
27.04281969
 11
36.9
 21
27.0337662556
  0
LINE
  5
3D5
100
AcDbEntity
  8
DRAFT
100
AcDbLine
 62
7
  6
CONTINUOUS
 10
-36.9
 20
27.9662337444
 11
-38.35
 21
27.95718031
  0
LINE
  5
3D6
100
AcDbEntity
  8
DRAFT
100
AcDbLine
 62
7
  6
CONTINUOUS
 10
38.35
 20
27.0476446409
 11
36.9
 21
27.0446748404
  0
LINE
  5
3D7
100
AcDbEntity
  8
DRAFT
100
AcDbLine
 62
7
  6
CONTINUOUS
 10
-36.9
 20
27.9553251596
 11
-38.35
 21
27.9523553591
  0
LINE
  5
3D8
100
AcDbEntity
  8
ASSI
100
AcDbLine
 62
7
  6
CONTINUOUS
 10
-40.7796142329
 20
24.5
 11
-38.35
 21
24.5
  0
LINE
  5
3D9
100
AcDbEntity
  8
DRAFT
100
AcDbLine
 62
7
  6
CONTINUOUS
 10
-40.7796142329
 20
24.5
 11
-38.35
 21
24.5
  0
LINE
  5
3DA
100
AcDbEntity
  8
ASSI
100
AcDbLine
 62
7
  6
CONTINUOUS
 10
38.35
 20
24.5
 11
40.7796142329
 21
24.5
  0
LINE
  5
3DB
100
AcDbEntity
  8
DRAFT
100
AcDbLine
 62
7
  6
CONTINUOUS
 10
38.35
 20
24.5
 11
40.7796142329
 21
24.5
  0
LINE
  5
3DC
100
AcDbEntity
  8
ASSI
100
AcDbLine
 62
7
  6
CONTINUOUS
 10
40.7900864743
 20
24.5104722413
 11
39.15
 21
24.5104722413
  0
LINE
  5
3DD
100
AcDbEntity
  8
DRAFT
100
AcDbLine
 62
7
  6
CONTINUOUS
 10
40.7900864743
 20
24.5104722413
 11
39.15
 21
24.5104722413
  0
LINE
  5
3DE
100
AcDbEntity
  8
ASSI
100
AcDbLine
 62
7
  6
CONTINUOUS
 10
-39.15
 20
24.5104722413
 11
-40.7900864743
 21
24.5104722413
  0
LINE
  5
3DF
100
AcDbEntity
  8
DRAFT
100
AcDbLine
 62
7
  6
CONTINUOUS
 10
-39.15
 20
24.5104722413
 11
-40.7900864743
 21
24.5104722413
  0
LINE
  5
3E0
100
AcDbEntity
  8
DRAFT
100
AcDbLine
 62
7
  6
CONTINUOUS
 10
-36.9
 20
27.0446748404
 11
-38.35
 21
27.0476446409
  0
LINE
  5
3E1
100
AcDbEntity
  8
DRAFT
100
AcDbLine
 62
7
  6
CONTINUOUS
 10
38.35
 20
27.9523553591
 11
36.9
 21
27.9553251596
  0
LINE
  5
3E2
100
AcDbEntity
  8
DRAFT
100
AcDbLine
 62
7
  6
CONTINUOUS
 10
-36.9
 20
27.0337662556
 11
-38.35
 21
27.04281969
  0
LINE
  5
3E3
100
AcDbEntity
  8
DRAFT
100
AcDbLine
 62
7
  6
CONTINUOUS
 10
38.35
 20
27.95718031
 11
36.9
 21
27.9662337444
  0
LINE
  5
3E4
100
AcDbEntity
  8
ASSI
100
AcDbLine
 62
7
  6
CONTINUOUS
 10
-38.3535214786
 20
24.5035214786
 11
-39.15
 21
24.5104722413
  0
LINE
  5
3E5
100
AcDbEntity
  8
DRAFT
100
AcDbLine
 62
7
  6
CONTINUOUS
 10
-38.3535214786
 20
24.5035214786
 11
-39.15
 21
24.5104722413
  0
LINE
  5
3E6
100
AcDbEntity
  8
DRAFT
100
AcDbLine
 62
7
  6
CONTINUOUS
 10
27.3201381807
 20
13.4798618193
 11
27.2924026726
 21
13.5075973274
  0
LINE
  5
3E7
100
AcDbEntity
  8
DRAFT
100
AcDbLine
 62
7
  6
CONTINUOUS
 10
11.9675963871
 20
41.4068807811
 11
11.984518491
 21
41.3645746192
  0
LINE
  5
3E8
100
AcDbEntity
  8
RACCORDO
100
AcDbLine
 62
250
  6
CONTINUOUS
 10
29.4445299804
 20
-42.5499999994
 11
29.4445299804
 21
-44.3913834183
  0
LINE
  5
3E9
100
AcDbEntity
  8
RACCORDO
100
AcDbLine
 62
250
  6
CONTINUOUS
 10
29.7554700196
 20
-42.5499999994
 11
29.7554700196
 21
-44.3913834183
  0
LINE
  5
3EA
100
AcDbEntity
  8
RACCORDO
100
AcDbLine
 62
250
  6
CONTINUOUS
 10
29.8
 20
-44.6000000007
 11
29.8
 21
-44.3919663292
  0
LINE
  5
3EB
100
AcDbEntity
  8
RACCORDO
100
AcDbLine
 62
250
  6
CONTINUOUS
 10
29.9335899411
 20
-42.5499999994
 11
29.9335899411
 21
-44.3842118847
  0
LINE
  5
3EC
100
AcDbEntity
  8
RACCORDO
100
AcDbLine
 62
250
  6
CONTINUOUS
 10
30.2664100589
 20
-42.6295977969
 11
30.2664100589
 21
-44.2704022031
  0
LINE
  5
3ED
100
AcDbEntity
  8
RACCORDO
100
AcDbLine
 62
250
  6
CONTINUOUS
 10
30.4317206968
 20
-44.1481743529
 11
30.4317206968
 21
-42.7518256471
  0
LINE
  5
3EE
100
AcDbEntity
  8
RACCORDO
100
AcDbLine
 62
250
  6
CONTINUOUS
 10
30.6230922645
 20
-43.9053627987
 11
30.6230922645
 21
-42.9946372013
  0
LINE
  5
3EF
100
AcDbEntity
  8
DRAFT
100
AcDbLine
 62
250
  6
CONTINUOUS
 10
30.6838557786
 20
13.4755515339
 11
30.6838557786
 21
13.5097711549
  0
LINE
  5
3F0
100
AcDbEntity
  8
IMPORT_IGES
100
AcDbLine
 62
7
  6
CONTINUOUS
 10
30.75
 20
-44.6000000007
 11
30.75
 21
-42.5499999994
  0
LINE
  5
3F1
100
AcDbEntity
  8
DRAFT
100
AcDbLine
 62
7
  6
CONTINUOUS
 10
30.8715655981
 20
18.89851148
 11
30.8715655981
 21
20.00148852
  0
LINE
  5
3F2
100
AcDbEntity
  8
DRAFT
100
AcDbLine
 62
7
  6
CONTINUOUS
 10
30.8977940237
 20
19.9752600943
 11
30.8977940237
 21
18.9247399057
  0
LINE
  5
3F3
100
AcDbEntity
  8
ASSI
100
AcDbLine
 62
7
  6
CONTINUOUS
 10
44.1
 20
33.0111285237
 11
43.7583105186
 21
33.0
  0
LINE
  5
3F4
100
AcDbEntity
  8
DRAFT
100
AcDbLine
 62
7
  6
CONTINUOUS
 10
44.1
 20
33.0111285237
 11
43.7583105186
 21
33.0
  0
LINE
  5
3F5
100
AcDbEntity
  8
ASSI
100
AcDbLine
 62
7
  6
CONTINUOUS
 10
-39.15
 20
30.4895277587
 11
-38.3535214786
 21
30.4964785214
  0
LINE
  5
3F6
100
AcDbEntity
  8
DRAFT
100
AcDbLine
 62
7
  6
CONTINUOUS
 10
-39.15
 20
30.4895277587
 11
-38.3535214786
 21
30.4964785214
  0
LINE
  5
3F7
100
AcDbEntity
  8
ASSI
100
AcDbLine
 62
7
  6
CONTINUOUS
 10
40.7900864743
 20
30.4895277587
 11
39.15
 21
30.4895277587
  0
LINE
  5
3F8
100
AcDbEntity
  8
DRAFT
100
AcDbLine
 62
7
  6
CONTINUOUS
 10
40.7900864743
 20
30.4895277587
 11
39.15
 21
30.4895277587
  0
LINE
  5
3F9
100
AcDbEntity
  8
ASSI
100
AcDbLine
 62
7
  6
CONTINUOUS
 10
-39.15
 20
30.4895277587
 11
-40.7900864743
 21
30.4895277587
  0
LINE
  5
3FA
100
AcDbEntity
  8
DRAFT
100
AcDbLine
 62
7
  6
CONTINUOUS
 10
-39.15
 20
30.4895277587
 11
-40.7900864743
 21
30.4895277587
  0
LINE
  5
3FB
100
AcDbEntity
  8
ASSI
100
AcDbLine
 62
7
  6
CONTINUOUS
 10
-40.7796142329
 20
30.5
 11
-38.35
 21
30.5
  0
LINE
  5
3FC
100
AcDbEntity
  8
DRAFT
100
AcDbLine
 62
7
  6
CONTINUOUS
 10
-40.7796142329
 20
30.5
 11
-38.35
 21
30.5
  0
LINE
  5
3FD
100
AcDbEntity
  8
ASSI
100
AcDbLine
 62
7
  6
CONTINUOUS
 10
38.35
 20
30.5
 11
40.7796142329
 21
30.5
  0
LINE
  5
3FE
100
AcDbEntity
  8
DRAFT
100
AcDbLine
 62
7
  6
CONTINUOUS
 10
38.35
 20
30.5
 11
40.7796142329
 21
30.5
  0
LINE
  5
3FF
100
AcDbEntity
  8
ASSI
100
AcDbLine
 62
7
  6
CONTINUOUS
 10
44.1
 20
33.0
 11
43.7583105186
 21
33.0
  0
LINE
  5
400
100
AcDbEntity
  8
DRAFT
100
AcDbLine
 62
7
  6
CONTINUOUS
 10
44.1
 20
33.0
 11
43.7583105186
 21
33.0
  0
LINE
  5
401
100
AcDbEntity
  8
ASSI
100
AcDbLine
 62
7
  6
CONTINUOUS
 10
-43.7583105186
 20
33.0
 11
-44.1
 21
33.0
  0
LINE
  5
402
100
AcDbEntity
  8
DRAFT
100
AcDbLine
 62
7
  6
CONTINUOUS
 10
-43.7583105186
 20
33.0
 11
-44.1
 21
33.0
  0
LINE
  5
403
100
AcDbEntity
  8
DRAFT
100
AcDbLine
 62
7
  6
CONTINUOUS
 10
-27.5154857193
 20
34.7072383478
 11
-26.5000001999
 21
34.7072383478
  0
LINE
  5
404
100
AcDbEntity
  8
DRAFT
100
AcDbLine
 62
7
  6
CONTINUOUS
 10
26.5000001999
 20
34.7072383478
 11
27.5154857617
 21
34.7072383478
  0
LINE
  5
405
100
AcDbEntity
  8
ASSI
100
AcDbLine
 62
7
  6
CONTINUOUS
 10
38.3535214786
 20
30.4964785214
 11
39.15
 21
30.4895277587
  0
LINE
  5
406
100
AcDbEntity
  8
DRAFT
100
AcDbLine
 62
7
  6
CONTINUOUS
 10
38.3535214786
 20
30.4964785214
 11
39.15
 21
30.4895277587
  0
LINE
  5
407
100
AcDbEntity
  8
ASSI
100
AcDbLine
 62
7
  6
CONTINUOUS
 10
-44.1
 20
33.0111285237
 11
-43.7583105186
 21
33.0
  0
LINE
  5
408
100
AcDbEntity
  8
DRAFT
100
AcDbLine
 62
7
  6
CONTINUOUS
 10
-44.1
 20
33.0111285237
 11
-43.7583105186
 21
33.0
  0
LINE
  5
409
100
AcDbEntity
  8
DRAFT
100
AcDbLine
 62
7
  6
CONTINUOUS
 10
27.3201381807
 20
14.4798618193
 11
27.2924026726
 21
14.5075973274
  0
LINE
  5
40A
100
AcDbEntity
  8
DRAFT
100
AcDbLine
 62
7
  6
CONTINUOUS
 10
31.6021263025
 20
21.0145096063
 11
31.5955965663
 21
21.0582916286
  0
LINE
  5
40B
100
AcDbEntity
  8
DRAFT
100
AcDbLine
 62
7
  6
CONTINUOUS
 10
31.6018223391
 20
21.0144620076
 11
31.5955971842
 21
21.0582913186
  0
LINE
  5
40C
100
AcDbEntity
  8
DRAFT
100
AcDbLine
 62
7
  6
CONTINUOUS
 10
36.9
 20
17.4931575734
 11
36.9
 21
37.5068424266
  0
LINE
  5
40D
100
AcDbEntity
  8
DRAFT
100
AcDbLine
 62
7
  6
CONTINUOUS
 10
36.906837937
 20
47.506837937
 11
36.906837937
 21
37.506837937
  0
LINE
  5
40E
100
AcDbEntity
  8
DRAFT
100
AcDbLine
 62
7
  6
CONTINUOUS
 10
36.906837937
 20
17.493162063
 11
36.906837937
 21
7.493162063
  0
LINE
  5
40F
100
AcDbEntity
  8
IMPORT_IGES
100
AcDbLine
 62
250
  6
CONTINUOUS
 10
36.9982864951
 20
-3.1264761389
 11
36.9982864951
 21
-17.2235238611
  0
LINE
  5
410
100
AcDbEntity
  8
IMPORT_IGES
100
AcDbLine
 62
250
  6
CONTINUOUS
 10
36.9982864951
 20
-24.3264761389
 11
36.9982864951
 21
-38.4235238611
  0
LINE
  5
411
100
AcDbEntity
  8
IMPORT_IGES
100
AcDbLine
 62
250
  6
CONTINUOUS
 10
36.9982864951
 20
-42.326476139
 11
36.9982864951
 21
-46.95
  0
LINE
  5
412
100
AcDbEntity
  8
ASSI
100
AcDbLine
 62
7
  6
CONTINUOUS
 10
37.0845404698
 20
47.4845404698
 11
37.0845404698
 21
45.0845404698
  0
LINE
  5
413
100
AcDbEntity
  8
DRAFT
100
AcDbLine
 62
7
  6
CONTINUOUS
 10
37.0845404698
 20
47.4845404698
 11
37.0845404698
 21
45.0845404698
  0
LINE
  5
414
100
AcDbEntity
  8
ASSI
100
AcDbLine
 62
7
  6
CONTINUOUS
 10
37.0845404698
 20
9.9154595302
 11
37.0845404698
 21
7.5154595302
  0
LINE
  5
415
100
AcDbEntity
  8
DRAFT
100
AcDbLine
 62
7
  6
CONTINUOUS
 10
37.0845404698
 20
9.9154595302
 11
37.0845404698
 21
7.5154595302
  0
LINE
  5
416
100
AcDbEntity
  8
IMPORT_IGES
100
AcDbLine
 62
250
  6
CONTINUOUS
 10
37.2606724072
 20
-46.9506743869
 11
37.2606724072
 21
-42.3278249385
  0
LINE
  5
417
100
AcDbEntity
  8
IMPORT_IGES
100
AcDbLine
 62
250
  6
CONTINUOUS
 10
37.2606724072
 20
-38.4221750616
 11
37.2606724072
 21
-24.3278249384
  0
LINE
  5
418
100
AcDbEntity
  8
IMPORT_IGES
100
AcDbLine
 62
250
  6
CONTINUOUS
 10
37.2606724072
 20
-17.2221750616
 11
37.2606724072
 21
-3.1278249384
  0
LINE
  5
419
100
AcDbEntity
  8
0
100
AcDbLine
 62
7
  6
CONTINUOUS
 10
37.8854702333
 20
-55.5
 11
37.8854702333
 21
-46.9556072706
  0
LINE
  5
41A
100
AcDbEntity
  8
0
100
AcDbLine
 62
7
  6
CONTINUOUS
 10
37.8854702333
 20
-39.55
 11
37.8854702333
 21
-38.45
  0
LINE
  5
41B
100
AcDbEntity
  8
0
100
AcDbLine
 62
7
  6
CONTINUOUS
 10
37.8854702333
 20
1.7
 11
37.8854702333
 21
9.9109743852
  0
LINE
  5
41C
100
AcDbEntity
  8
0
100
AcDbLine
 62
7
  6
CONTINUOUS
 10
37.8854702333
 20
45.0890256148
 11
37.8854702333
 21
55.5
  0
LINE
  5
41D
100
AcDbEntity
  8
IMPORT_IGES
100
AcDbLine
 62
250
  6
CONTINUOUS
 10
37.8873334707
 20
-3.1376908935
 11
37.8873334707
 21
-17.2123091065
  0
LINE
  5
41E
100
AcDbEntity
  8
IMPORT_IGES
100
AcDbLine
 62
250
  6
CONTINUOUS
 10
37.8873334707
 20
-24.3376908935
 11
37.8873334707
 21
-38.4123091065
  0
LINE
  5
41F
100
AcDbEntity
  8
IMPORT_IGES
100
AcDbLine
 62
250
  6
CONTINUOUS
 10
37.8873334707
 20
-42.3376908937
 11
37.8873334707
 21
-46.9556072705
  0
LINE
  5
420
100
AcDbEntity
  8
IMPORT_IGES
100
AcDbLine
 62
250
  6
CONTINUOUS
 10
38.2941190545
 20
-46.9569052827
 11
38.2941190545
 21
-42.3402869675
  0
LINE
  5
421
100
AcDbEntity
  8
IMPORT_IGES
100
AcDbLine
 62
250
  6
CONTINUOUS
 10
38.2941190545
 20
-38.410069246
 11
38.2941190545
 21
-24.339930754
  0
LINE
  5
422
100
AcDbEntity
  8
IMPORT_IGES
100
AcDbLine
 62
250
  6
CONTINUOUS
 10
38.2941190545
 20
-17.210069246
 11
38.2941190545
 21
-3.139930754
  0
LINE
  5
423
100
AcDbEntity
  8
ASSI
100
AcDbLine
 62
7
  6
CONTINUOUS
 10
38.3535214786
 20
24.5035214786
 11
38.3535214786
 21
30.4964785214
  0
LINE
  5
424
100
AcDbEntity
  8
DRAFT
100
AcDbLine
 62
7
  6
CONTINUOUS
 10
38.3535214786
 20
24.5035214786
 11
38.3535214786
 21
30.4964785214
  0
LINE
  5
425
100
AcDbEntity
  8
IMPORT_IGES
100
AcDbLine
 62
7
  6
CONTINUOUS
 10
38.9694799132
 20
1.4006317625
 11
38.9694799132
 21
-3.1264761389
  0
LINE
  5
426
100
AcDbEntity
  8
IMPORT_IGES
100
AcDbLine
 62
7
  6
CONTINUOUS
 10
38.9694799132
 20
-17.2235238611
 11
38.9694799132
 21
-24.3264761389
  0
LINE
  5
427
100
AcDbEntity
  8
IMPORT_IGES
100
AcDbLine
 62
7
  6
CONTINUOUS
 10
38.9694799132
 20
-39.8475069834
 11
38.9694799132
 21
-42.3269124824
  0
LINE
  5
428
100
AcDbEntity
  8
ASSI
100
AcDbLine
 62
7
  6
CONTINUOUS
 10
39.15
 20
24.5104722413
 11
39.15
 21
30.4895277587
  0
LINE
  5
429
100
AcDbEntity
  8
DRAFT
100
AcDbLine
 62
7
  6
CONTINUOUS
 10
39.15
 20
24.5104722413
 11
39.15
 21
30.4895277587
  0
LINE
  5
42A
100
AcDbEntity
  8
DRAFT
100
AcDbLine
 62
7
  6
CONTINUOUS
 10
39.5
 20
37.5003490673
 11
39.5
 21
30.5
  0
LINE
  5
42B
100
AcDbEntity
  8
DRAFT
100
AcDbLine
 62
7
  6
CONTINUOUS
 10
39.5
 20
24.5
 11
39.5
 21
17.4996509327
  0
LINE
  5
42C
100
AcDbEntity
  8
IMPORT_IGES
100
AcDbLine
 62
250
  6
CONTINUOUS
 10
39.6288556889
 20
-3.1406431805
 11
39.6288556889
 21
-17.2093568195
  0
LINE
  5
42D
100
AcDbEntity
  8
IMPORT_IGES
100
AcDbLine
 62
250
  6
CONTINUOUS
 10
39.6288556889
 20
-24.3406431805
 11
39.6288556889
 21
-38.4093568195
  0
LINE
  5
42E
100
AcDbEntity
  8
IMPORT_IGES
100
AcDbLine
 62
250
  6
CONTINUOUS
 10
39.6288556889
 20
-42.3402869675
 11
39.6288556889
 21
-46.9569052827
  0
LINE
  5
42F
100
AcDbEntity
  8
IMPORT_IGES
100
AcDbLine
 62
250
  6
CONTINUOUS
 10
39.8778430844
 20
-46.9577956736
 11
39.8778430844
 21
-42.3420677833
  0
LINE
  5
430
100
AcDbEntity
  8
IMPORT_IGES
100
AcDbLine
 62
250
  6
CONTINUOUS
 10
39.8778430844
 20
-38.4079322169
 11
39.8778430844
 21
-24.3420677831
  0
LINE
  5
431
100
AcDbEntity
  8
IMPORT_IGES
100
AcDbLine
 62
250
  6
CONTINUOUS
 10
39.8778430844
 20
-17.2079322169
 11
39.8778430844
 21
-3.1420677831
  0
LINE
  5
432
100
AcDbEntity
  8
DRAFT
100
AcDbLine
 62
7
  6
CONTINUOUS
 10
40.15
 20
37.5003490673
 11
40.15
 21
30.5
  0
LINE
  5
433
100
AcDbEntity
  8
DRAFT
100
AcDbLine
 62
7
  6
CONTINUOUS
 10
40.15
 20
24.5
 11
40.15
 21
17.4996509327
  0
LINE
  5
434
100
AcDbEntity
  8
ASSI
100
AcDbLine
 62
250
  6
CONTINUOUS
 10
40.3762557309
 20
9.9210250653
 11
40.3762557309
 21
23.881667699
  0
LINE
  5
435
100
AcDbEntity
  8
DRAFT
100
AcDbLine
 62
250
  6
CONTINUOUS
 10
40.3762557309
 20
9.9210250653
 11
40.3762557309
 21
23.881667699
  0
LINE
  5
436
100
AcDbEntity
  8
ASSI
100
AcDbLine
 62
250
  6
CONTINUOUS
 10
40.3762557309
 20
31.118332301
 11
40.3762557309
 21
45.0789749347
  0
LINE
  5
437
100
AcDbEntity
  8
DRAFT
100
AcDbLine
 62
250
  6
CONTINUOUS
 10
40.3762557309
 20
31.118332301
 11
40.3762557309
 21
45.0789749347
  0
LINE
  5
438
100
AcDbEntity
  8
DRAFT
100
AcDbLine
 62
7
  6
CONTINUOUS
 10
-36.9
 20
37.5068424266
 11
-36.9051314181
 21
37.5068337741
  0
LINE
  5
439
100
AcDbEntity
  8
DRAFT
100
AcDbLine
 62
7
  6
CONTINUOUS
 10
26.9951238756
 20
35.7927616522
 11
26.5000001999
 21
35.7927616522
  0
LINE
  5
43A
100
AcDbEntity
  8
DRAFT
100
AcDbLine
 62
7
  6
CONTINUOUS
 10
-26.5000001999
 20
35.7927616522
 11
-26.9951238259
 21
35.7927616522
  0
LINE
  5
43B
100
AcDbEntity
  8
DRAFT
100
AcDbLine
 62
7
  6
CONTINUOUS
 10
-36.9068316567
 20
37.5068316567
 11
-40.15
 21
37.5003490673
  0
LINE
  5
43C
100
AcDbEntity
  8
DRAFT
100
AcDbLine
 62
7
  6
CONTINUOUS
 10
36.9051314181
 20
37.5068337741
 11
36.9
 21
37.5068424266
  0
LINE
  5
43D
100
AcDbEntity
  8
DRAFT
100
AcDbLine
 62
7
  6
CONTINUOUS
 10
40.15
 20
37.5003490673
 11
36.9068316567
 21
37.5068316567
  0
LINE
  5
43E
100
AcDbEntity
  8
DRAFT
100
AcDbLine
 62
7
  6
CONTINUOUS
 10
31.7486131171
 20
20.00148852
 11
31.779775466
 21
19.974036686
  0
LINE
  5
43F
100
AcDbEntity
  8
DRAFT
100
AcDbLine
 62
7
  6
CONTINUOUS
 10
30.8715655981
 20
20.00148852
 11
30.8977940237
 21
19.9752600943
  0
LINE
  5
440
100
AcDbEntity
  8
DRAFT
100
AcDbLine
 62
7
  6
CONTINUOUS
 10
27.4944696475
 20
34.6976322946
 11
27.4888882856
 21
34.7096184839
  0
LINE
  5
441
100
AcDbEntity
  8
DRAFT
100
AcDbLine
 62
7
  6
CONTINUOUS
 10
27.4943859421
 20
34.6975931968
 11
27.4888884437
 21
34.7096195741
  0
LINE
  5
442
100
AcDbEntity
  8
DRAFT
100
AcDbLine
 62
7
  6
CONTINUOUS
 10
30.9300184113
 20
24.6171857051
 11
30.9102117631
 21
24.7023742717
  0
LINE
  5
443
100
AcDbEntity
  8
DRAFT
100
AcDbLine
 62
7
  6
CONTINUOUS
 10
30.9300180645
 20
24.6171844685
 11
30.910747451
 21
24.7024996317
  0
LINE
  5
444
100
AcDbEntity
  8
ASSI
100
AcDbLine
 62
7
  6
CONTINUOUS
 10
40.7654989263
 20
9.9227118271
 11
40.7654989263
 21
23.8858846934
  0
LINE
  5
445
100
AcDbEntity
  8
DRAFT
100
AcDbLine
 62
7
  6
CONTINUOUS
 10
40.7654989263
 20
9.9227118271
 11
40.7654989263
 21
23.8858846934
  0
LINE
  5
446
100
AcDbEntity
  8
ASSI
100
AcDbLine
 62
7
  6
CONTINUOUS
 10
40.7654989263
 20
31.1141153066
 11
40.7654989263
 21
45.0772881729
  0
LINE
  5
447
100
AcDbEntity
  8
DRAFT
100
AcDbLine
 62
7
  6
CONTINUOUS
 10
40.7654989263
 20
31.1141153066
 11
40.7654989263
 21
45.0772881729
  0
LINE
  5
448
100
AcDbEntity
  8
ASSI
100
AcDbLine
 62
7
  6
CONTINUOUS
 10
40.7796142329
 20
23.9
 11
40.7796142329
 21
24.5
  0
LINE
  5
449
100
AcDbEntity
  8
DRAFT
100
AcDbLine
 62
7
  6
CONTINUOUS
 10
40.7796142329
 20
23.9
 11
40.7796142329
 21
24.5
  0
LINE
  5
44A
100
AcDbEntity
  8
ASSI
100
AcDbLine
 62
7
  6
CONTINUOUS
 10
40.7796142329
 20
30.5
 11
40.7796142329
 21
31.1
  0
LINE
  5
44B
100
AcDbEntity
  8
DRAFT
100
AcDbLine
 62
7
  6
CONTINUOUS
 10
40.7796142329
 20
30.5
 11
40.7796142329
 21
31.1
  0
LINE
  5
44C
100
AcDbEntity
  8
ASSI
100
AcDbLine
 62
7
  6
CONTINUOUS
 10
40.7900864743
 20
45.0674533634
 11
40.7900864743
 21
30.4895277587
  0
LINE
  5
44D
100
AcDbEntity
  8
DRAFT
100
AcDbLine
 62
7
  6
CONTINUOUS
 10
40.7900864743
 20
45.0674533634
 11
40.7900864743
 21
30.4895277587
  0
LINE
  5
44E
100
AcDbEntity
  8
ASSI
100
AcDbLine
 62
7
  6
CONTINUOUS
 10
40.7900864743
 20
24.5104722413
 11
40.7900864743
 21
9.9325466366
  0
LINE
  5
44F
100
AcDbEntity
  8
DRAFT
100
AcDbLine
 62
7
  6
CONTINUOUS
 10
40.7900864743
 20
24.5104722413
 11
40.7900864743
 21
9.9325466366
  0
LINE
  5
450
100
AcDbEntity
  8
ASSI
100
AcDbLine
 62
7
  6
CONTINUOUS
 10
43.0214502394
 20
45.0674533634
 11
43.0214502394
 21
9.9325466366
  0
LINE
  5
451
100
AcDbEntity
  8
DRAFT
100
AcDbLine
 62
7
  6
CONTINUOUS
 10
43.0214502394
 20
45.0674533634
 11
43.0214502394
 21
9.9325466366
  0
LINE
  5
452
100
AcDbEntity
  8
0
100
AcDbLine
 62
250
  6
CONTINUOUS
 10
43.055272805
 20
-55.5
 11
43.055272805
 21
-46.9850057779
  0
LINE
  5
453
100
AcDbEntity
  8
0
100
AcDbLine
 62
250
  6
CONTINUOUS
 10
43.055272805
 20
-42.3964890278
 11
43.055272805
 21
-38.3535109724
  0
LINE
  5
454
100
AcDbEntity
  8
0
100
AcDbLine
 62
250
  6
CONTINUOUS
 10
43.055272805
 20
-24.3964890276
 11
43.055272805
 21
-17.1535109724
  0
LINE
  5
455
100
AcDbEntity
  8
0
100
AcDbLine
 62
250
  6
CONTINUOUS
 10
43.055272805
 20
-3.1964890276
 11
43.055272805
 21
9.9283578294
  0
LINE
  5
456
100
AcDbEntity
  8
0
100
AcDbLine
 62
250
  6
CONTINUOUS
 10
43.055272805
 20
45.0716421706
 11
43.055272805
 21
55.5
  0
LINE
  5
457
100
AcDbEntity
  8
0
100
AcDbLine
 62
7
  6
CONTINUOUS
 10
43.1
 20
-55.5
 11
43.1
 21
-46.9853888018
  0
LINE
  5
458
100
AcDbEntity
  8
0
100
AcDbLine
 62
7
  6
CONTINUOUS
 10
43.1
 20
-42.3972550903
 11
43.1
 21
-38.3527449099
  0
LINE
  5
459
100
AcDbEntity
  8
0
100
AcDbLine
 62
7
  6
CONTINUOUS
 10
43.1
 20
-24.3972550901
 11
43.1
 21
-17.1527449099
  0
LINE
  5
45A
100
AcDbEntity
  8
0
100
AcDbLine
 62
7
  6
CONTINUOUS
 10
43.1
 20
-3.1972550901
 11
43.1
 21
9.9283578294
  0
LINE
  5
45B
100
AcDbEntity
  8
0
100
AcDbLine
 62
7
  6
CONTINUOUS
 10
43.1
 20
45.0716421706
 11
43.1
 21
55.5
  0
LINE
  5
45C
100
AcDbEntity
  8
IMPORT_IGES
100
AcDbLine
 62
7
  6
CONTINUOUS
 10
43.2602638521
 20
-3.2
 11
43.2602638521
 21
-17.15
  0
LINE
  5
45D
100
AcDbEntity
  8
IMPORT_IGES
100
AcDbLine
 62
7
  6
CONTINUOUS
 10
43.2602638521
 20
-24.4
 11
43.2602638521
 21
-38.35
  0
LINE
  5
45E
100
AcDbEntity
  8
IMPORT_IGES
100
AcDbLine
 62
7
  6
CONTINUOUS
 10
43.2602638521
 20
-42.4
 11
43.2602638521
 21
-46.9867612306
  0
LINE
  5
45F
100
AcDbEntity
  8
IMPORT_IGES
100
AcDbLine
 62
7
  6
CONTINUOUS
 10
43.5969617234
 20
-38.3357127466
 11
43.5969617234
 21
-34.25
  0
LINE
  5
460
100
AcDbEntity
  8
IMPORT_IGES
100
AcDbLine
 62
7
  6
CONTINUOUS
 10
43.5969617234
 20
-28.5
 11
43.5969617234
 21
-24.4142872534
  0
LINE
  5
461
100
AcDbEntity
  8
IMPORT_IGES
100
AcDbLine
 62
7
  6
CONTINUOUS
 10
43.5969617234
 20
-17.1357127466
 11
43.5969617234
 21
-13.05
  0
LINE
  5
462
100
AcDbEntity
  8
IMPORT_IGES
100
AcDbLine
 62
7
  6
CONTINUOUS
 10
43.5969617234
 20
-7.3
 11
43.5969617234
 21
-3.2142872534
  0
LINE
  5
463
100
AcDbEntity
  8
0
100
AcDbLine
 62
250
  6
CONTINUOUS
 10
43.6
 20
-55.5
 11
43.6
 21
-46.9867612307
  0
LINE
  5
464
100
AcDbEntity
  8
0
100
AcDbLine
 62
250
  6
CONTINUOUS
 10
43.6
 20
-42.4144161749
 11
43.6
 21
-38.3357127466
  0
LINE
  5
465
100
AcDbEntity
  8
0
100
AcDbLine
 62
250
  6
CONTINUOUS
 10
43.6
 20
-24.4142872534
 11
43.6
 21
-17.1357127466
  0
LINE
  5
466
100
AcDbEntity
  8
0
100
AcDbLine
 62
250
  6
CONTINUOUS
 10
43.6
 20
-3.2142872534
 11
43.6
 21
9.9283578294
  0
LINE
  5
467
100
AcDbEntity
  8
0
100
AcDbLine
 62
250
  6
CONTINUOUS
 10
43.6
 20
45.0716421706
 11
43.6
 21
55.5
  0
LINE
  5
468
100
AcDbEntity
  8
ASSI
100
AcDbLine
 62
7
  6
CONTINUOUS
 10
43.7583105186
 20
33.0
 11
43.7583105186
 21
22.0
  0
LINE
  5
469
100
AcDbEntity
  8
DRAFT
100
AcDbLine
 62
7
  6
CONTINUOUS
 10
43.7583105186
 20
33.0
 11
43.7583105186
 21
22.0
  0
LINE
  5
46A
100
AcDbEntity
  8
IMPORT_IGES
100
AcDbLine
 62
250
  6
CONTINUOUS
 10
43.9289381281
 20
-3.2787254102
 11
43.9289381281
 21
-7.2496940188
  0
LINE
  5
46B
100
AcDbEntity
  8
IMPORT_IGES
100
AcDbLine
 62
250
  6
CONTINUOUS
 10
43.9289381281
 20
-13.1003059819
 11
43.9289381281
 21
-17.0712745898
  0
LINE
  5
46C
100
AcDbEntity
  8
IMPORT_IGES
100
AcDbLine
 62
250
  6
CONTINUOUS
 10
43.9289381281
 20
-24.4787254102
 11
43.9289381281
 21
-28.4496940184
  0
LINE
  5
46D
100
AcDbEntity
  8
IMPORT_IGES
100
AcDbLine
 62
250
  6
CONTINUOUS
 10
43.9289381281
 20
-34.3003059815
 11
43.9289381281
 21
-38.2712745899
  0
LINE
  5
46E
100
AcDbEntity
  8
0
100
AcDbLine
 62
7
  6
CONTINUOUS
 10
44.1
 20
55.5
 11
44.1
 21
-55.5
  0
LINE
  5
46F
100
AcDbEntity
  8
0
100
AcDbLine
 62
250
  6
CONTINUOUS
 10
44.35
 20
55.5
 11
44.35
 21
-55.5
  0
LINE
  5
470
100
AcDbEntity
  8
ASSI
100
AcDbLine
 62
7
  6
CONTINUOUS
 10
-44.1
 20
45.053402699
 11
-43.0214502394
 21
45.0674533634
  0
LINE
  5
471
100
AcDbEntity
  8
DRAFT
100
AcDbLine
 62
7
  6
CONTINUOUS
 10
-44.1
 20
45.053402699
 11
-43.0214502394
 21
45.0674533634
  0
LINE
  5
472
100
AcDbEntity
  8
ASSI
100
AcDbLine
 62
7
  6
CONTINUOUS
 10
-44.1
 20
45.0682383149
 11
-43.8387150069
 21
45.0716421706
  0
LINE
  5
473
100
AcDbEntity
  8
DRAFT
100
AcDbLine
 62
7
  6
CONTINUOUS
 10
-44.1
 20
45.0682383149
 11
-43.8387150069
 21
45.0716421706
  0
LINE
  5
474
100
AcDbEntity
  8
DRAFT
100
AcDbLine
 62
7
  6
CONTINUOUS
 10
10.9636970041
 20
41.4136970041
 11
8.0
 21
41.4136970041
  0
LINE
  5
475
100
AcDbEntity
  8
DRAFT
100
AcDbLine
 62
7
  6
CONTINUOUS
 10
-8.0
 20
41.4136970041
 11
-10.9636970041
 21
41.4136970041
  0
LINE
  5
476
100
AcDbEntity
  8
DRAFT
100
AcDbLine
 62
7
  6
CONTINUOUS
 10
-11.0003490673
 20
41.4503490673
 11
11.0003490673
 21
41.4503490673
  0
LINE
  5
477
100
AcDbEntity
  8
DRAFT
100
AcDbLine
 62
7
  6
CONTINUOUS
 10
11.95
 20
42.5
 11
-11.95
 21
42.5
  0
LINE
  5
478
100
AcDbEntity
  8
0
100
AcDbLine
 62
7
  6
CONTINUOUS
 10
-21.0
 20
44.8
 11
21.0
 21
44.8
  0
LINE
  5
479
100
AcDbEntity
  8
ASSI
100
AcDbLine
 62
7
  6
CONTINUOUS
 10
-43.0214502394
 20
45.0674533634
 11
-40.7900864743
 21
45.0674533634
  0
LINE
  5
47A
100
AcDbEntity
  8
DRAFT
100
AcDbLine
 62
7
  6
CONTINUOUS
 10
-43.0214502394
 20
45.0674533634
 11
-40.7900864743
 21
45.0674533634
  0
LINE
  5
47B
100
AcDbEntity
  8
ASSI
100
AcDbLine
 62
7
  6
CONTINUOUS
 10
40.7900864743
 20
45.0674533634
 11
43.0214502394
 21
45.0674533634
  0
LINE
  5
47C
100
AcDbEntity
  8
DRAFT
100
AcDbLine
 62
7
  6
CONTINUOUS
 10
40.7900864743
 20
45.0674533634
 11
43.0214502394
 21
45.0674533634
  0
LINE
  5
47D
100
AcDbEntity
  8
ASSI
100
AcDbLine
 62
7
  6
CONTINUOUS
 10
-43.8387150069
 20
45.0716421706
 11
-42.2796713505
 21
45.0716421706
  0
LINE
  5
47E
100
AcDbEntity
  8
DRAFT
100
AcDbLine
 62
7
  6
CONTINUOUS
 10
-43.8387150069
 20
45.0716421706
 11
-42.2796713505
 21
45.0716421706
  0
LINE
  5
47F
100
AcDbEntity
  8
ASSI
100
AcDbLine
 62
7
  6
CONTINUOUS
 10
42.2796713505
 20
45.0716421706
 11
43.8387150069
 21
45.0716421706
  0
LINE
  5
480
100
AcDbEntity
  8
DRAFT
100
AcDbLine
 62
7
  6
CONTINUOUS
 10
42.2796713505
 20
45.0716421706
 11
43.8387150069
 21
45.0716421706
  0
LINE
  5
481
100
AcDbEntity
  8
ASSI
100
AcDbLine
 62
7
  6
CONTINUOUS
 10
44.1
 20
45.053402699
 11
43.0214502394
 21
45.0674533634
  0
LINE
  5
482
100
AcDbEntity
  8
DRAFT
100
AcDbLine
 62
7
  6
CONTINUOUS
 10
44.1
 20
45.053402699
 11
43.0214502394
 21
45.0674533634
  0
LINE
  5
483
100
AcDbEntity
  8
ASSI
100
AcDbLine
 62
7
  6
CONTINUOUS
 10
44.1
 20
45.0682383149
 11
43.8387150069
 21
45.0716421706
  0
LINE
  5
484
100
AcDbEntity
  8
DRAFT
100
AcDbLine
 62
7
  6
CONTINUOUS
 10
44.1
 20
45.0682383149
 11
43.8387150069
 21
45.0716421706
  0
LINE
  5
485
100
AcDbEntity
  8
DRAFT
100
AcDbLine
 62
7
  6
CONTINUOUS
 10
26.9951238756
 20
35.7927616522
 11
27.0152971561
 21
35.7802272428
  0
LINE
  5
486
100
AcDbEntity
  8
DRAFT
100
AcDbLine
 62
7
  6
CONTINUOUS
 10
26.5119403581
 20
35.780821494
 11
26.5000001999
 21
35.7927616522
  0
LINE
  5
487
100
AcDbEntity
  8
0
100
AcDbLine
 62
250
  6
CONTINUOUS
 10
48.15
 20
55.5
 11
48.15
 21
-55.5
  0
LINE
  5
488
100
AcDbEntity
  8
0
100
AcDbLine
 62
7
  6
CONTINUOUS
 10
48.4
 20
55.5
 11
48.4
 21
-55.5
  0
LINE
  5
489
100
AcDbEntity
  8
ASSI
100
AcDbLine
 62
7
  6
CONTINUOUS
 10
40.7900864743
 20
30.4895277587
 11
40.7796142329
 21
30.5
  0
LINE
  5
48A
100
AcDbEntity
  8
DRAFT
100
AcDbLine
 62
7
  6
CONTINUOUS
 10
40.7900864743
 20
30.4895277587
 11
40.7796142329
 21
30.5
  0
LINE
  5
48B
100
AcDbEntity
  8
ASSI
100
AcDbLine
 62
7
  6
CONTINUOUS
 10
40.7654989263
 20
31.1141153066
 11
40.7796142329
 21
31.1
  0
LINE
  5
48C
100
AcDbEntity
  8
DRAFT
100
AcDbLine
 62
7
  6
CONTINUOUS
 10
40.7654989263
 20
31.1141153066
 11
40.7796142329
 21
31.1
  0
LINE
  5
48D
100
AcDbEntity
  8
0
100
AcDbLine
 62
7
  6
CONTINUOUS
 10
37.5
 20
52.2999999999
 11
-37.5
 21
52.2999999999
  0
LINE
  5
48E
100
AcDbEntity
  8
0
100
AcDbLine
 62
7
  6
CONTINUOUS
 10
48.4
 20
55.5
 11
-48.4
 21
55.5
  0
LINE
  5
48F
100
AcDbEntity
  8
ASSI
100
AcDbLine
 62
7
  6
CONTINUOUS
 10
40.7654989263
 20
45.0772881729
 11
40.7900864743
 21
45.0674533634
  0
LINE
  5
490
100
AcDbEntity
  8
DRAFT
100
AcDbLine
 62
7
  6
CONTINUOUS
 10
40.7654989263
 20
45.0772881729
 11
40.7900864743
 21
45.0674533634
  0
LINE
  5
491
100
AcDbEntity
  8
ASSI
100
AcDbLine
 62
7
  6
CONTINUOUS
 10
42.2654418109
 20
45.0773338651
 11
42.2796713505
 21
45.0716421706
  0
LINE
  5
492
100
AcDbEntity
  8
DRAFT
100
AcDbLine
 62
7
  6
CONTINUOUS
 10
42.2654418109
 20
45.0773338651
 11
42.2796713505
 21
45.0716421706
  0
ARC
  5
493
100
AcDbEntity
  8
IMPORT_IGES
100
AcDbCircle
 62
7
  6
CONTINUOUS
 10
-2.938347542
 20
-4.8748871432
 40
0.1999428428
100
AcDbArc
 50
359.9827549105
 51
126.5057681535
  0
ARC
  5
494
100
AcDbEntity
  8
IMPORT_IGES
100
AcDbCircle
 62
7
  6
CONTINUOUS
 10
-2.9383474398
 20
-30.8748870006
 40
0.1999427299
100
AcDbArc
 50
359.9827299821
 51
126.5055939781
  0
ARC
  5
495
100
AcDbEntity
  8
IMPORT_IGES
100
AcDbCircle
 62
7
  6
CONTINUOUS
 10
-2.9383474398
 20
-24.3748870005
 40
0.1999427299
100
AcDbArc
 50
359.9827299713
 51
126.5055939888
  0
ARC
  5
496
100
AcDbEntity
  8
IMPORT_IGES
100
AcDbCircle
 62
7
  6
CONTINUOUS
 10
-2.9383474398
 20
-17.8748870005
 40
0.1999427299
100
AcDbArc
 50
359.9827299712
 51
126.505593989
  0
ARC
  5
497
100
AcDbEntity
  8
IMPORT_IGES
100
AcDbCircle
 62
7
  6
CONTINUOUS
 10
-2.9383474398
 20
-11.3748870005
 40
0.1999427299
100
AcDbArc
 50
359.9827299712
 51
126.505593989
  0
ARC
  5
498
100
AcDbEntity
  8
DRAFT
100
AcDbCircle
 62
7
  6
CONTINUOUS
 10
-30.6858833269
 20
14.9500241673
 40
1.4744739967
100
AcDbArc
 50
178.5189916327
 51
270.0787851168
  0
ARC
  5
499
100
AcDbEntity
  8
DRAFT
100
AcDbCircle
 62
7
  6
CONTINUOUS
 10
-30.6843125385
 20
14.9501051467
 40
1.4426369264
100
AcDbArc
 50
178.5237937193
 51
185.9884357657
  0
ARC
  5
49A
100
AcDbEntity
  8
DRAFT
100
AcDbCircle
 62
7
  6
CONTINUOUS
 10
-30.6867627222
 20
14.9499719772
 40
1.4402037253
100
AcDbArc
 50
185.9881228598
 51
270.1156449744
  0
CIRCLE
  5
49B
100
AcDbEntity
  8
ASSI
100
AcDbCircle
 62
7
  6
CONTINUOUS
 10
-31.3
 20
14.7
 40
0.4
  0
CIRCLE
  5
49C
100
AcDbEntity
  8
ASSI
100
AcDbCircle
 62
7
  6
CONTINUOUS
 10
-30.7
 20
16.0
 40
0.4
  0
CIRCLE
  5
49D
100
AcDbEntity
  8
ASSI
100
AcDbCircle
 62
7
  6
CONTINUOUS
 10
-30.1
 20
14.7
 40
0.4
  0
ARC
  5
49E
100
AcDbEntity
  8
0
100
AcDbCircle
 62
7
  6
CONTINUOUS
 10
-32.5
 20
14.7
 40
0.4
100
AcDbArc
 50
357.2129466818
 51
18.4780278694
  0
ARC
  5
49F
100
AcDbEntity
  8
0
100
AcDbCircle
 62
7
  6
CONTINUOUS
 10
-31.9
 20
16.0
 40
0.4
100
AcDbArc
 50
239.3472294137
 51
115.2628230246
  0
CIRCLE
  5
4A0
100
AcDbEntity
  8
0
100
AcDbCircle
 62
7
  6
CONTINUOUS
 10
-31.3
 20
14.7
 40
0.4
  0
CIRCLE
  5
4A1
100
AcDbEntity
  8
0
100
AcDbCircle
 62
7
  6
CONTINUOUS
 10
-30.7
 20
16.0
 40
0.4
  0
CIRCLE
  5
4A2
100
AcDbEntity
  8
0
100
AcDbCircle
 62
7
  6
CONTINUOUS
 10
-30.1
 20
14.7
 40
0.4
  0
ARC
  5
4A3
100
AcDbEntity
  8
0
100
AcDbCircle
 62
7
  6
CONTINUOUS
 10
-30.7
 20
13.5
 40
0.4
100
AcDbArc
 50
1.5075500445
 51
170.0383173092
  0
ARC
  5
4A4
100
AcDbEntity
  8
ASSI
100
AcDbCircle
 62
7
  6
CONTINUOUS
 10
-32.5
 20
14.7
 40
0.4
100
AcDbArc
 50
357.2129466818
 51
18.4780278694
  0
ARC
  5
4A5
100
AcDbEntity
  8
ASSI
100
AcDbCircle
 62
7
  6
CONTINUOUS
 10
-31.9
 20
16.0
 40
0.4
100
AcDbArc
 50
239.3472294137
 51
115.2628230246
  0
ARC
  5
4A6
100
AcDbEntity
  8
ASSI
100
AcDbCircle
 62
7
  6
CONTINUOUS
 10
-30.7
 20
13.5
 40
0.4
100
AcDbArc
 50
1.5075500445
 51
170.0383173092
  0
CIRCLE
  5
4A7
100
AcDbEntity
  8
ASSI
100
AcDbCircle
 62
7
  6
CONTINUOUS
 10
-30.1
 20
19.7
 40
0.4
  0
CIRCLE
  5
4A8
100
AcDbEntity
  8
ASSI
100
AcDbCircle
 62
7
  6
CONTINUOUS
 10
-31.3
 20
17.2
 40
0.4
  0
CIRCLE
  5
4A9
100
AcDbEntity
  8
ASSI
100
AcDbCircle
 62
7
  6
CONTINUOUS
 10
-30.7
 20
18.5
 40
0.4
  0
CIRCLE
  5
4AA
100
AcDbEntity
  8
ASSI
100
AcDbCircle
 62
7
  6
CONTINUOUS
 10
-30.1
 20
17.2
 40
0.4
  0
ARC
  5
4AB
100
AcDbEntity
  8
0
100
AcDbCircle
 62
7
  6
CONTINUOUS
 10
-31.3
 20
19.7
 40
0.4
100
AcDbArc
 50
48.9259847899
 51
131.075575278
  0
CIRCLE
  5
4AC
100
AcDbEntity
  8
0
100
AcDbCircle
 62
7
  6
CONTINUOUS
 10
-30.1
 20
19.7
 40
0.4
  0
ARC
  5
4AD
100
AcDbEntity
  8
0
100
AcDbCircle
 62
7
  6
CONTINUOUS
 10
-31.9
 20
18.5
 40
0.4
100
AcDbArc
 50
263.1940650717
 51
85.6753091939
  0
CIRCLE
  5
4AE
100
AcDbEntity
  8
0
100
AcDbCircle
 62
7
  6
CONTINUOUS
 10
-31.3
 20
17.2
 40
0.4
  0
CIRCLE
  5
4AF
100
AcDbEntity
  8
0
100
AcDbCircle
 62
7
  6
CONTINUOUS
 10
-30.7
 20
18.5
 40
0.4
  0
CIRCLE
  5
4B0
100
AcDbEntity
  8
0
100
AcDbCircle
 62
7
  6
CONTINUOUS
 10
-30.1
 20
17.2
 40
0.4
  0
ARC
  5
4B1
100
AcDbEntity
  8
ASSI
100
AcDbCircle
 62
7
  6
CONTINUOUS
 10
-31.3
 20
19.7
 40
0.4
100
AcDbArc
 50
48.9259847899
 51
131.075575278
  0
ARC
  5
4B2
100
AcDbEntity
  8
ASSI
100
AcDbCircle
 62
7
  6
CONTINUOUS
 10
-31.9
 20
18.5
 40
0.4
100
AcDbArc
 50
263.1940650717
 51
85.6753091939
  0
CIRCLE
  5
4B3
100
AcDbEntity
  8
ASSI
100
AcDbCircle
 62
7
  6
CONTINUOUS
 10
-28.9
 20
14.7
 40
0.4
  0
CIRCLE
  5
4B4
100
AcDbEntity
  8
0
100
AcDbCircle
 62
7
  6
CONTINUOUS
 10
-28.9
 20
14.7
 40
0.4
  0
ARC
  5
4B5
100
AcDbEntity
  8
0
100
AcDbCircle
 62
7
  6
CONTINUOUS
 10
-29.5
 20
13.5
 40
0.4
100
AcDbArc
 50
1.8421292222
 51
178.3781098739
  0
ARC
  5
4B6
100
AcDbEntity
  8
ASSI
100
AcDbCircle
 62
7
  6
CONTINUOUS
 10
-29.5
 20
13.5
 40
0.4
100
AcDbArc
 50
1.8421292222
 51
178.3781098739
  0
CIRCLE
  5
4B7
100
AcDbEntity
  8
ASSI
100
AcDbCircle
 62
7
  6
CONTINUOUS
 10
-29.5
 20
16.0
 40
0.4
  0
CIRCLE
  5
4B8
100
AcDbEntity
  8
0
100
AcDbCircle
 62
7
  6
CONTINUOUS
 10
-29.5
 20
16.0
 40
0.4
  0
ARC
  5
4B9
100
AcDbEntity
  8
0
100
AcDbCircle
 62
7
  6
CONTINUOUS
 10
-27.7
 20
14.7
 40
0.4
100
AcDbArc
 50
331.2192450822
 51
208.7803278122
  0
ARC
  5
4BA
100
AcDbEntity
  8
0
100
AcDbCircle
 62
7
  6
CONTINUOUS
 10
-28.3
 20
13.5
 40
0.4
100
AcDbArc
 50
105.6176912238
 51
178.0469024102
  0
ARC
  5
4BB
100
AcDbEntity
  8
0
100
AcDbCircle
 62
7
  6
CONTINUOUS
 10
-27.1
 20
13.5
 40
0.4
100
AcDbArc
 50
2.4653359215
 51
118.7879011674
  0
ARC
  5
4BC
100
AcDbEntity
  8
ASSI
100
AcDbCircle
 62
7
  6
CONTINUOUS
 10
-27.7
 20
14.7
 40
0.4
100
AcDbArc
 50
331.2192450822
 51
208.7803278122
  0
ARC
  5
4BD
100
AcDbEntity
  8
ASSI
100
AcDbCircle
 62
7
  6
CONTINUOUS
 10
-28.3
 20
13.5
 40
0.4
100
AcDbArc
 50
105.6176912238
 51
178.0469024102
  0
ARC
  5
4BE
100
AcDbEntity
  8
ASSI
100
AcDbCircle
 62
7
  6
CONTINUOUS
 10
-27.1
 20
13.5
 40
0.4
100
AcDbArc
 50
2.4653359215
 51
118.7879011674
  0
CIRCLE
  5
4BF
100
AcDbEntity
  8
ASSI
100
AcDbCircle
 62
7
  6
CONTINUOUS
 10
-28.3
 20
16.0
 40
0.4
  0
CIRCLE
  5
4C0
100
AcDbEntity
  8
ASSI
100
AcDbCircle
 62
7
  6
CONTINUOUS
 10
-27.1
 20
16.0
 40
0.4
  0
CIRCLE
  5
4C1
100
AcDbEntity
  8
0
100
AcDbCircle
 62
7
  6
CONTINUOUS
 10
-28.3
 20
16.0
 40
0.4
  0
CIRCLE
  5
4C2
100
AcDbEntity
  8
0
100
AcDbCircle
 62
7
  6
CONTINUOUS
 10
-27.1
 20
16.0
 40
0.4
  0
CIRCLE
  5
4C3
100
AcDbEntity
  8
ASSI
100
AcDbCircle
 62
7
  6
CONTINUOUS
 10
-28.9
 20
17.2
 40
0.4
  0
CIRCLE
  5
4C4
100
AcDbEntity
  8
0
100
AcDbCircle
 62
7
  6
CONTINUOUS
 10
-28.9
 20
17.2
 40
0.4
  0
CIRCLE
  5
4C5
100
AcDbEntity
  8
ASSI
100
AcDbCircle
 62
7
  6
CONTINUOUS
 10
-28.9
 20
19.7
 40
0.4
  0
CIRCLE
  5
4C6
100
AcDbEntity
  8
ASSI
100
AcDbCircle
 62
7
  6
CONTINUOUS
 10
-29.5
 20
18.5
 40
0.4
  0
CIRCLE
  5
4C7
100
AcDbEntity
  8
0
100
AcDbCircle
 62
7
  6
CONTINUOUS
 10
-28.9
 20
19.7
 40
0.4
  0
CIRCLE
  5
4C8
100
AcDbEntity
  8
0
100
AcDbCircle
 62
7
  6
CONTINUOUS
 10
-29.5
 20
18.5
 40
0.4
  0
CIRCLE
  5
4C9
100
AcDbEntity
  8
ASSI
100
AcDbCircle
 62
7
  6
CONTINUOUS
 10
-27.7
 20
17.2
 40
0.4
  0
CIRCLE
  5
4CA
100
AcDbEntity
  8
0
100
AcDbCircle
 62
7
  6
CONTINUOUS
 10
-27.7
 20
17.2
 40
0.4
  0
CIRCLE
  5
4CB
100
AcDbEntity
  8
ASSI
100
AcDbCircle
 62
7
  6
CONTINUOUS
 10
-27.7
 20
19.7
 40
0.4
  0
CIRCLE
  5
4CC
100
AcDbEntity
  8
ASSI
100
AcDbCircle
 62
7
  6
CONTINUOUS
 10
-28.3
 20
18.5
 40
0.4
  0
CIRCLE
  5
4CD
100
AcDbEntity
  8
ASSI
100
AcDbCircle
 62
7
  6
CONTINUOUS
 10
-27.1
 20
18.5
 40
0.4
  0
CIRCLE
  5
4CE
100
AcDbEntity
  8
0
100
AcDbCircle
 62
7
  6
CONTINUOUS
 10
-27.7
 20
19.7
 40
0.4
  0
CIRCLE
  5
4CF
100
AcDbEntity
  8
0
100
AcDbCircle
 62
7
  6
CONTINUOUS
 10
-28.3
 20
18.5
 40
0.4
  0
CIRCLE
  5
4D0
100
AcDbEntity
  8
0
100
AcDbCircle
 62
7
  6
CONTINUOUS
 10
-27.1
 20
18.5
 40
0.4
  0
CIRCLE
  5
4D1
100
AcDbEntity
  8
ASSI
100
AcDbCircle
 62
7
  6
CONTINUOUS
 10
-30.7
 20
23.5
 40
0.4
  0
CIRCLE
  5
4D2
100
AcDbEntity
  8
ASSI
100
AcDbCircle
 62
7
  6
CONTINUOUS
 10
-30.1
 20
22.2
 40
0.4
  0
CIRCLE
  5
4D3
100
AcDbEntity
  8
ASSI
100
AcDbCircle
 62
7
  6
CONTINUOUS
 10
-30.7
 20
21.0
 40
0.4
  0
ARC
  5
4D4
100
AcDbEntity
  8
0
100
AcDbCircle
 62
7
  6
CONTINUOUS
 10
-31.3
 20
22.2
 40
0.4
100
AcDbArc
 50
244.5872454919
 51
95.6768863123
  0
CIRCLE
  5
4D5
100
AcDbEntity
  8
0
100
AcDbCircle
 62
7
  6
CONTINUOUS
 10
-30.7
 20
23.5
 40
0.4
  0
CIRCLE
  5
4D6
100
AcDbEntity
  8
0
100
AcDbCircle
 62
7
  6
CONTINUOUS
 10
-30.1
 20
22.2
 40
0.4
  0
ARC
  5
4D7
100
AcDbEntity
  8
0
100
AcDbCircle
 62
7
  6
CONTINUOUS
 10
-31.9
 20
21.0
 40
0.4
100
AcDbArc
 50
309.0981947607
 51
34.1395743465
  0
CIRCLE
  5
4D8
100
AcDbEntity
  8
0
100
AcDbCircle
 62
7
  6
CONTINUOUS
 10
-30.7
 20
21.0
 40
0.4
  0
ARC
  5
4D9
100
AcDbEntity
  8
ASSI
100
AcDbCircle
 62
7
  6
CONTINUOUS
 10
-31.3
 20
22.2
 40
0.4
100
AcDbArc
 50
244.5872454919
 51
95.6768863123
  0
ARC
  5
4DA
100
AcDbEntity
  8
ASSI
100
AcDbCircle
 62
7
  6
CONTINUOUS
 10
-31.9
 20
21.0
 40
0.4
100
AcDbArc
 50
309.0981947607
 51
34.1395743465
  0
CIRCLE
  5
4DB
100
AcDbEntity
  8
ASSI
100
AcDbCircle
 62
7
  6
CONTINUOUS
 10
-30.1
 20
24.7
 40
0.4
  0
ARC
  5
4DC
100
AcDbEntity
  8
0
100
AcDbCircle
 62
7
  6
CONTINUOUS
 10
-30.1
 20
27.2
 40
0.4
100
AcDbArc
 50
229.5552986541
 51
98.8373479607
  0
ARC
  5
4DD
100
AcDbEntity
  8
0
100
AcDbCircle
 62
7
  6
CONTINUOUS
 10
-31.3
 20
24.7
 40
0.4
100
AcDbArc
 50
328.9563279854
 51
5.3023864077
  0
ARC
  5
4DE
100
AcDbEntity
  8
0
100
AcDbCircle
 62
7
  6
CONTINUOUS
 10
-30.7
 20
26.0
 40
0.4
100
AcDbArc
 50
270.4233502162
 51
61.0227641166
  0
CIRCLE
  5
4DF
100
AcDbEntity
  8
0
100
AcDbCircle
 62
7
  6
CONTINUOUS
 10
-30.1
 20
24.7
 40
0.4
  0
ARC
  5
4E0
100
AcDbEntity
  8
ASSI
100
AcDbCircle
 62
7
  6
CONTINUOUS
 10
-30.1
 20
27.2
 40
0.4
100
AcDbArc
 50
229.5552986541
 51
98.8373479607
  0
ARC
  5
4E1
100
AcDbEntity
  8
ASSI
100
AcDbCircle
 62
7
  6
CONTINUOUS
 10
-31.3
 20
24.7
 40
0.4
100
AcDbArc
 50
328.9563279854
 51
5.3023864077
  0
ARC
  5
4E2
100
AcDbEntity
  8
ASSI
100
AcDbCircle
 62
7
  6
CONTINUOUS
 10
-30.7
 20
26.0
 40
0.4
100
AcDbArc
 50
270.4233502162
 51
61.0227641166
  0
CIRCLE
  5
4E3
100
AcDbEntity
  8
ASSI
100
AcDbCircle
 62
7
  6
CONTINUOUS
 10
-28.9
 20
22.2
 40
0.4
  0
CIRCLE
  5
4E4
100
AcDbEntity
  8
ASSI
100
AcDbCircle
 62
7
  6
CONTINUOUS
 10
-29.5
 20
21.0
 40
0.4
  0
CIRCLE
  5
4E5
100
AcDbEntity
  8
0
100
AcDbCircle
 62
7
  6
CONTINUOUS
 10
-28.9
 20
22.2
 40
0.4
  0
CIRCLE
  5
4E6
100
AcDbEntity
  8
0
100
AcDbCircle
 62
7
  6
CONTINUOUS
 10
-29.5
 20
21.0
 40
0.4
  0
CIRCLE
  5
4E7
100
AcDbEntity
  8
ASSI
100
AcDbCircle
 62
7
  6
CONTINUOUS
 10
-29.5
 20
23.5
 40
0.4
  0
CIRCLE
  5
4E8
100
AcDbEntity
  8
0
100
AcDbCircle
 62
7
  6
CONTINUOUS
 10
-29.5
 20
23.5
 40
0.4
  0
CIRCLE
  5
4E9
100
AcDbEntity
  8
ASSI
100
AcDbCircle
 62
7
  6
CONTINUOUS
 10
-27.7
 20
22.2
 40
0.4
  0
CIRCLE
  5
4EA
100
AcDbEntity
  8
ASSI
100
AcDbCircle
 62
7
  6
CONTINUOUS
 10
-28.3
 20
21.0
 40
0.4
  0
CIRCLE
  5
4EB
100
AcDbEntity
  8
ASSI
100
AcDbCircle
 62
7
  6
CONTINUOUS
 10
-27.1
 20
21.0
 40
0.4
  0
CIRCLE
  5
4EC
100
AcDbEntity
  8
0
100
AcDbCircle
 62
7
  6
CONTINUOUS
 10
-27.7
 20
22.2
 40
0.4
  0
CIRCLE
  5
4ED
100
AcDbEntity
  8
0
100
AcDbCircle
 62
7
  6
CONTINUOUS
 10
-28.3
 20
21.0
 40
0.4
  0
CIRCLE
  5
4EE
100
AcDbEntity
  8
0
100
AcDbCircle
 62
7
  6
CONTINUOUS
 10
-27.1
 20
21.0
 40
0.4
  0
CIRCLE
  5
4EF
100
AcDbEntity
  8
ASSI
100
AcDbCircle
 62
7
  6
CONTINUOUS
 10
-28.3
 20
23.5
 40
0.4
  0
CIRCLE
  5
4F0
100
AcDbEntity
  8
ASSI
100
AcDbCircle
 62
7
  6
CONTINUOUS
 10
-27.1
 20
23.5
 40
0.4
  0
CIRCLE
  5
4F1
100
AcDbEntity
  8
0
100
AcDbCircle
 62
7
  6
CONTINUOUS
 10
-28.3
 20
23.5
 40
0.4
  0
CIRCLE
  5
4F2
100
AcDbEntity
  8
0
100
AcDbCircle
 62
7
  6
CONTINUOUS
 10
-27.1
 20
23.5
 40
0.4
  0
CIRCLE
  5
4F3
100
AcDbEntity
  8
ASSI
100
AcDbCircle
 62
7
  6
CONTINUOUS
 10
-28.9
 20
24.7
 40
0.4
  0
CIRCLE
  5
4F4
100
AcDbEntity
  8
0
100
AcDbCircle
 62
7
  6
CONTINUOUS
 10
-28.9
 20
24.7
 40
0.4
  0
CIRCLE
  5
4F5
100
AcDbEntity
  8
ASSI
100
AcDbCircle
 62
7
  6
CONTINUOUS
 10
-28.9
 20
27.2
 40
0.4
  0
CIRCLE
  5
4F6
100
AcDbEntity
  8
ASSI
100
AcDbCircle
 62
7
  6
CONTINUOUS
 10
-29.5
 20
26.0
 40
0.4
  0
CIRCLE
  5
4F7
100
AcDbEntity
  8
0
100
AcDbCircle
 62
7
  6
CONTINUOUS
 10
-28.9
 20
27.2
 40
0.4
  0
CIRCLE
  5
4F8
100
AcDbEntity
  8
0
100
AcDbCircle
 62
7
  6
CONTINUOUS
 10
-29.5
 20
26.0
 40
0.4
  0
CIRCLE
  5
4F9
100
AcDbEntity
  8
ASSI
100
AcDbCircle
 62
7
  6
CONTINUOUS
 10
-27.7
 20
24.7
 40
0.4
  0
CIRCLE
  5
4FA
100
AcDbEntity
  8
0
100
AcDbCircle
 62
7
  6
CONTINUOUS
 10
-27.7
 20
24.7
 40
0.4
  0
CIRCLE
  5
4FB
100
AcDbEntity
  8
ASSI
100
AcDbCircle
 62
7
  6
CONTINUOUS
 10
-27.7
 20
27.2
 40
0.4
  0
CIRCLE
  5
4FC
100
AcDbEntity
  8
ASSI
100
AcDbCircle
 62
7
  6
CONTINUOUS
 10
-28.3
 20
26.0
 40
0.4
  0
CIRCLE
  5
4FD
100
AcDbEntity
  8
ASSI
100
AcDbCircle
 62
7
  6
CONTINUOUS
 10
-27.1
 20
26.0
 40
0.4
  0
CIRCLE
  5
4FE
100
AcDbEntity
  8
0
100
AcDbCircle
 62
7
  6
CONTINUOUS
 10
-27.7
 20
27.2
 40
0.4
  0
CIRCLE
  5
4FF
100
AcDbEntity
  8
0
100
AcDbCircle
 62
7
  6
CONTINUOUS
 10
-28.3
 20
26.0
 40
0.4
  0
CIRCLE
  5
500
100
AcDbEntity
  8
0
100
AcDbCircle
 62
7
  6
CONTINUOUS
 10
-27.1
 20
26.0
 40
0.4
  0
CIRCLE
  5
501
100
AcDbEntity
  8
ASSI
100
AcDbCircle
 62
7
  6
CONTINUOUS
 10
-26.5
 20
14.7
 40
0.4
  0
CIRCLE
  5
502
100
AcDbEntity
  8
ASSI
100
AcDbCircle
 62
7
  6
CONTINUOUS
 10
-25.9
 20
16.0
 40
0.4
  0
CIRCLE
  5
503
100
AcDbEntity
  8
ASSI
100
AcDbCircle
 62
7
  6
CONTINUOUS
 10
-25.3
 20
14.7
 40
0.4
  0
CIRCLE
  5
504
100
AcDbEntity
  8
ASSI
100
AcDbCircle
 62
7
  6
CONTINUOUS
 10
-24.7
 20
16.0
 40
0.4
  0
CIRCLE
  5
505
100
AcDbEntity
  8
ASSI
100
AcDbCircle
 62
7
  6
CONTINUOUS
 10
-24.1
 20
14.7
 40
0.4
  0
CIRCLE
  5
506
100
AcDbEntity
  8
0
100
AcDbCircle
 62
7
  6
CONTINUOUS
 10
-26.5
 20
14.7
 40
0.4
  0
CIRCLE
  5
507
100
AcDbEntity
  8
0
100
AcDbCircle
 62
7
  6
CONTINUOUS
 10
-25.9
 20
16.0
 40
0.4
  0
CIRCLE
  5
508
100
AcDbEntity
  8
0
100
AcDbCircle
 62
7
  6
CONTINUOUS
 10
-25.3
 20
14.7
 40
0.4
  0
CIRCLE
  5
509
100
AcDbEntity
  8
0
100
AcDbCircle
 62
7
  6
CONTINUOUS
 10
-24.7
 20
16.0
 40
0.4
  0
CIRCLE
  5
50A
100
AcDbEntity
  8
0
100
AcDbCircle
 62
7
  6
CONTINUOUS
 10
-24.1
 20
14.7
 40
0.4
  0
ARC
  5
50B
100
AcDbEntity
  8
0
100
AcDbCircle
 62
7
  6
CONTINUOUS
 10
-25.9
 20
13.5
 40
0.4
100
AcDbArc
 50
2.7579019747
 51
177.434061119
  0
ARC
  5
50C
100
AcDbEntity
  8
0
100
AcDbCircle
 62
7
  6
CONTINUOUS
 10
-24.7
 20
13.5
 40
0.4
100
AcDbArc
 50
3.0325757652
 51
177.1455532301
  0
ARC
  5
50D
100
AcDbEntity
  8
ASSI
100
AcDbCircle
 62
7
  6
CONTINUOUS
 10
-25.9
 20
13.5
 40
0.4
100
AcDbArc
 50
2.7579019747
 51
177.434061119
  0
ARC
  5
50E
100
AcDbEntity
  8
ASSI
100
AcDbCircle
 62
7
  6
CONTINUOUS
 10
-24.7
 20
13.5
 40
0.4
100
AcDbArc
 50
3.0325757652
 51
177.1455532301
  0
CIRCLE
  5
50F
100
AcDbEntity
  8
ASSI
100
AcDbCircle
 62
7
  6
CONTINUOUS
 10
-26.5
 20
17.2
 40
0.4
  0
CIRCLE
  5
510
100
AcDbEntity
  8
0
100
AcDbCircle
 62
7
  6
CONTINUOUS
 10
-26.5
 20
17.2
 40
0.4
  0
CIRCLE
  5
511
100
AcDbEntity
  8
ASSI
100
AcDbCircle
 62
7
  6
CONTINUOUS
 10
-26.5
 20
19.7
 40
0.4
  0
CIRCLE
  5
512
100
AcDbEntity
  8
ASSI
100
AcDbCircle
 62
7
  6
CONTINUOUS
 10
-25.9
 20
18.5
 40
0.4
  0
CIRCLE
  5
513
100
AcDbEntity
  8
0
100
AcDbCircle
 62
7
  6
CONTINUOUS
 10
-26.5
 20
19.7
 40
0.4
  0
CIRCLE
  5
514
100
AcDbEntity
  8
0
100
AcDbCircle
 62
7
  6
CONTINUOUS
 10
-25.9
 20
18.5
 40
0.4
  0
CIRCLE
  5
515
100
AcDbEntity
  8
ASSI
100
AcDbCircle
 62
7
  6
CONTINUOUS
 10
-25.3
 20
17.2
 40
0.4
  0
CIRCLE
  5
516
100
AcDbEntity
  8
ASSI
100
AcDbCircle
 62
7
  6
CONTINUOUS
 10
-24.1
 20
17.2
 40
0.4
  0
CIRCLE
  5
517
100
AcDbEntity
  8
0
100
AcDbCircle
 62
7
  6
CONTINUOUS
 10
-25.3
 20
17.2
 40
0.4
  0
CIRCLE
  5
518
100
AcDbEntity
  8
0
100
AcDbCircle
 62
7
  6
CONTINUOUS
 10
-24.1
 20
17.2
 40
0.4
  0
CIRCLE
  5
519
100
AcDbEntity
  8
ASSI
100
AcDbCircle
 62
7
  6
CONTINUOUS
 10
-25.3
 20
19.7
 40
0.4
  0
CIRCLE
  5
51A
100
AcDbEntity
  8
ASSI
100
AcDbCircle
 62
7
  6
CONTINUOUS
 10
-24.1
 20
19.7
 40
0.4
  0
CIRCLE
  5
51B
100
AcDbEntity
  8
ASSI
100
AcDbCircle
 62
7
  6
CONTINUOUS
 10
-24.7
 20
18.5
 40
0.4
  0
CIRCLE
  5
51C
100
AcDbEntity
  8
0
100
AcDbCircle
 62
7
  6
CONTINUOUS
 10
-25.3
 20
19.7
 40
0.4
  0
CIRCLE
  5
51D
100
AcDbEntity
  8
0
100
AcDbCircle
 62
7
  6
CONTINUOUS
 10
-24.1
 20
19.7
 40
0.4
  0
CIRCLE
  5
51E
100
AcDbEntity
  8
0
100
AcDbCircle
 62
7
  6
CONTINUOUS
 10
-24.7
 20
18.5
 40
0.4
  0
CIRCLE
  5
51F
100
AcDbEntity
  8
ASSI
100
AcDbCircle
 62
7
  6
CONTINUOUS
 10
-22.9
 20
14.7
 40
0.4
  0
CIRCLE
  5
520
100
AcDbEntity
  8
0
100
AcDbCircle
 62
7
  6
CONTINUOUS
 10
-22.9
 20
14.7
 40
0.4
  0
ARC
  5
521
100
AcDbEntity
  8
0
100
AcDbCircle
 62
7
  6
CONTINUOUS
 10
-23.5
 20
13.5
 40
0.4
100
AcDbArc
 50
3.2967589818
 51
176.8739789528
  0
ARC
  5
522
100
AcDbEntity
  8
0
100
AcDbCircle
 62
7
  6
CONTINUOUS
 10
-22.3
 20
13.5
 40
0.4
100
AcDbArc
 50
3.5476675466
 51
176.6169100135
  0
ARC
  5
523
100
AcDbEntity
  8
ASSI
100
AcDbCircle
 62
7
  6
CONTINUOUS
 10
-23.5
 20
13.5
 40
0.4
100
AcDbArc
 50
3.2967589818
 51
176.8739789528
  0
ARC
  5
524
100
AcDbEntity
  8
ASSI
100
AcDbCircle
 62
7
  6
CONTINUOUS
 10
-22.3
 20
13.5
 40
0.4
100
AcDbArc
 50
3.5476675466
 51
176.6169100135
  0
CIRCLE
  5
525
100
AcDbEntity
  8
ASSI
100
AcDbCircle
 62
7
  6
CONTINUOUS
 10
-23.5
 20
16.0
 40
0.4
  0
CIRCLE
  5
526
100
AcDbEntity
  8
ASSI
100
AcDbCircle
 62
7
  6
CONTINUOUS
 10
-22.3
 20
16.0
 40
0.4
  0
CIRCLE
  5
527
100
AcDbEntity
  8
0
100
AcDbCircle
 62
7
  6
CONTINUOUS
 10
-23.5
 20
16.0
 40
0.4
  0
CIRCLE
  5
528
100
AcDbEntity
  8
0
100
AcDbCircle
 62
7
  6
CONTINUOUS
 10
-22.3
 20
16.0
 40
0.4
  0
CIRCLE
  5
529
100
AcDbEntity
  8
ASSI
100
AcDbCircle
 62
7
  6
CONTINUOUS
 10
-21.7
 20
14.7
 40
0.4
  0
CIRCLE
  5
52A
100
AcDbEntity
  8
ASSI
100
AcDbCircle
 62
7
  6
CONTINUOUS
 10
-20.5
 20
14.7
 40
0.4
  0
CIRCLE
  5
52B
100
AcDbEntity
  8
0
100
AcDbCircle
 62
7
  6
CONTINUOUS
 10
-21.7
 20
14.7
 40
0.4
  0
CIRCLE
  5
52C
100
AcDbEntity
  8
0
100
AcDbCircle
 62
7
  6
CONTINUOUS
 10
-20.5
 20
14.7
 40
0.4
  0
ARC
  5
52D
100
AcDbEntity
  8
0
100
AcDbCircle
 62
7
  6
CONTINUOUS
 10
-21.1
 20
13.5
 40
0.4
100
AcDbArc
 50
3.7807480469
 51
176.3702548898
  0
ARC
  5
52E
100
AcDbEntity
  8
ASSI
100
AcDbCircle
 62
7
  6
CONTINUOUS
 10
-21.1
 20
13.5
 40
0.4
100
AcDbArc
 50
3.7807480469
 51
176.3702548898
  0
CIRCLE
  5
52F
100
AcDbEntity
  8
ASSI
100
AcDbCircle
 62
7
  6
CONTINUOUS
 10
-21.1
 20
16.0
 40
0.4
  0
CIRCLE
  5
530
100
AcDbEntity
  8
0
100
AcDbCircle
 62
7
  6
CONTINUOUS
 10
-21.1
 20
16.0
 40
0.4
  0
CIRCLE
  5
531
100
AcDbEntity
  8
ASSI
100
AcDbCircle
 62
7
  6
CONTINUOUS
 10
-22.9
 20
17.2
 40
0.4
  0
CIRCLE
  5
532
100
AcDbEntity
  8
0
100
AcDbCircle
 62
7
  6
CONTINUOUS
 10
-22.9
 20
17.2
 40
0.4
  0
CIRCLE
  5
533
100
AcDbEntity
  8
ASSI
100
AcDbCircle
 62
7
  6
CONTINUOUS
 10
-22.9
 20
19.7
 40
0.4
  0
CIRCLE
  5
534
100
AcDbEntity
  8
ASSI
100
AcDbCircle
 62
7
  6
CONTINUOUS
 10
-23.5
 20
18.5
 40
0.4
  0
CIRCLE
  5
535
100
AcDbEntity
  8
ASSI
100
AcDbCircle
 62
7
  6
CONTINUOUS
 10
-22.3
 20
18.5
 40
0.4
  0
CIRCLE
  5
536
100
AcDbEntity
  8
0
100
AcDbCircle
 62
7
  6
CONTINUOUS
 10
-22.9
 20
19.7
 40
0.4
  0
CIRCLE
  5
537
100
AcDbEntity
  8
0
100
AcDbCircle
 62
7
  6
CONTINUOUS
 10
-23.5
 20
18.5
 40
0.4
  0
CIRCLE
  5
538
100
AcDbEntity
  8
0
100
AcDbCircle
 62
7
  6
CONTINUOUS
 10
-22.3
 20
18.5
 40
0.4
  0
CIRCLE
  5
539
100
AcDbEntity
  8
ASSI
100
AcDbCircle
 62
7
  6
CONTINUOUS
 10
-21.7
 20
17.2
 40
0.4
  0
CIRCLE
  5
53A
100
AcDbEntity
  8
ASSI
100
AcDbCircle
 62
7
  6
CONTINUOUS
 10
-20.5
 20
17.2
 40
0.4
  0
CIRCLE
  5
53B
100
AcDbEntity
  8
0
100
AcDbCircle
 62
7
  6
CONTINUOUS
 10
-21.7
 20
17.2
 40
0.4
  0
CIRCLE
  5
53C
100
AcDbEntity
  8
0
100
AcDbCircle
 62
7
  6
CONTINUOUS
 10
-20.5
 20
17.2
 40
0.4
  0
CIRCLE
  5
53D
100
AcDbEntity
  8
ASSI
100
AcDbCircle
 62
7
  6
CONTINUOUS
 10
-21.7
 20
19.7
 40
0.4
  0
CIRCLE
  5
53E
100
AcDbEntity
  8
ASSI
100
AcDbCircle
 62
7
  6
CONTINUOUS
 10
-20.5
 20
19.7
 40
0.4
  0
CIRCLE
  5
53F
100
AcDbEntity
  8
ASSI
100
AcDbCircle
 62
7
  6
CONTINUOUS
 10
-21.1
 20
18.5
 40
0.4
  0
CIRCLE
  5
540
100
AcDbEntity
  8
0
100
AcDbCircle
 62
7
  6
CONTINUOUS
 10
-21.7
 20
19.7
 40
0.4
  0
CIRCLE
  5
541
100
AcDbEntity
  8
0
100
AcDbCircle
 62
7
  6
CONTINUOUS
 10
-20.5
 20
19.7
 40
0.4
  0
CIRCLE
  5
542
100
AcDbEntity
  8
0
100
AcDbCircle
 62
7
  6
CONTINUOUS
 10
-21.1
 20
18.5
 40
0.4
  0
CIRCLE
  5
543
100
AcDbEntity
  8
ASSI
100
AcDbCircle
 62
7
  6
CONTINUOUS
 10
-26.5
 20
22.2
 40
0.4
  0
CIRCLE
  5
544
100
AcDbEntity
  8
ASSI
100
AcDbCircle
 62
7
  6
CONTINUOUS
 10
-25.9
 20
21.0
 40
0.4
  0
CIRCLE
  5
545
100
AcDbEntity
  8
0
100
AcDbCircle
 62
7
  6
CONTINUOUS
 10
-26.5
 20
22.2
 40
0.4
  0
CIRCLE
  5
546
100
AcDbEntity
  8
0
100
AcDbCircle
 62
7
  6
CONTINUOUS
 10
-25.9
 20
21.0
 40
0.4
  0
CIRCLE
  5
547
100
AcDbEntity
  8
ASSI
100
AcDbCircle
 62
7
  6
CONTINUOUS
 10
-25.9
 20
23.5
 40
0.4
  0
CIRCLE
  5
548
100
AcDbEntity
  8
0
100
AcDbCircle
 62
7
  6
CONTINUOUS
 10
-25.9
 20
23.5
 40
0.4
  0
CIRCLE
  5
549
100
AcDbEntity
  8
ASSI
100
AcDbCircle
 62
7
  6
CONTINUOUS
 10
-25.3
 20
22.2
 40
0.4
  0
CIRCLE
  5
54A
100
AcDbEntity
  8
ASSI
100
AcDbCircle
 62
7
  6
CONTINUOUS
 10
-24.1
 20
22.2
 40
0.4
  0
CIRCLE
  5
54B
100
AcDbEntity
  8
ASSI
100
AcDbCircle
 62
7
  6
CONTINUOUS
 10
-24.7
 20
21.0
 40
0.4
  0
CIRCLE
  5
54C
100
AcDbEntity
  8
0
100
AcDbCircle
 62
7
  6
CONTINUOUS
 10
-25.3
 20
22.2
 40
0.4
  0
CIRCLE
  5
54D
100
AcDbEntity
  8
0
100
AcDbCircle
 62
7
  6
CONTINUOUS
 10
-24.1
 20
22.2
 40
0.4
  0
CIRCLE
  5
54E
100
AcDbEntity
  8
0
100
AcDbCircle
 62
7
  6
CONTINUOUS
 10
-24.7
 20
21.0
 40
0.4
  0
CIRCLE
  5
54F
100
AcDbEntity
  8
ASSI
100
AcDbCircle
 62
7
  6
CONTINUOUS
 10
-24.7
 20
23.5
 40
0.4
  0
CIRCLE
  5
550
100
AcDbEntity
  8
0
100
AcDbCircle
 62
7
  6
CONTINUOUS
 10
-24.7
 20
23.5
 40
0.4
  0
CIRCLE
  5
551
100
AcDbEntity
  8
ASSI
100
AcDbCircle
 62
7
  6
CONTINUOUS
 10
-26.5
 20
24.7
 40
0.4
  0
CIRCLE
  5
552
100
AcDbEntity
  8
0
100
AcDbCircle
 62
7
  6
CONTINUOUS
 10
-26.5
 20
24.7
 40
0.4
  0
CIRCLE
  5
553
100
AcDbEntity
  8
ASSI
100
AcDbCircle
 62
7
  6
CONTINUOUS
 10
-26.5
 20
27.2
 40
0.4
  0
CIRCLE
  5
554
100
AcDbEntity
  8
ASSI
100
AcDbCircle
 62
7
  6
CONTINUOUS
 10
-25.9
 20
26.0
 40
0.4
  0
CIRCLE
  5
555
100
AcDbEntity
  8
0
100
AcDbCircle
 62
7
  6
CONTINUOUS
 10
-26.5
 20
27.2
 40
0.4
  0
CIRCLE
  5
556
100
AcDbEntity
  8
0
100
AcDbCircle
 62
7
  6
CONTINUOUS
 10
-25.9
 20
26.0
 40
0.4
  0
CIRCLE
  5
557
100
AcDbEntity
  8
ASSI
100
AcDbCircle
 62
7
  6
CONTINUOUS
 10
-25.3
 20
24.7
 40
0.4
  0
CIRCLE
  5
558
100
AcDbEntity
  8
ASSI
100
AcDbCircle
 62
7
  6
CONTINUOUS
 10
-24.1
 20
24.7
 40
0.4
  0
CIRCLE
  5
559
100
AcDbEntity
  8
0
100
AcDbCircle
 62
7
  6
CONTINUOUS
 10
-25.3
 20
24.7
 40
0.4
  0
CIRCLE
  5
55A
100
AcDbEntity
  8
0
100
AcDbCircle
 62
7
  6
CONTINUOUS
 10
-24.1
 20
24.7
 40
0.4
  0
CIRCLE
  5
55B
100
AcDbEntity
  8
ASSI
100
AcDbCircle
 62
7
  6
CONTINUOUS
 10
-25.3
 20
27.2
 40
0.4
  0
CIRCLE
  5
55C
100
AcDbEntity
  8
ASSI
100
AcDbCircle
 62
7
  6
CONTINUOUS
 10
-24.1
 20
27.2
 40
0.4
  0
CIRCLE
  5
55D
100
AcDbEntity
  8
ASSI
100
AcDbCircle
 62
7
  6
CONTINUOUS
 10
-24.7
 20
26.0
 40
0.4
  0
CIRCLE
  5
55E
100
AcDbEntity
  8
0
100
AcDbCircle
 62
7
  6
CONTINUOUS
 10
-25.3
 20
27.2
 40
0.4
  0
CIRCLE
  5
55F
100
AcDbEntity
  8
0
100
AcDbCircle
 62
7
  6
CONTINUOUS
 10
-24.1
 20
27.2
 40
0.4
  0
CIRCLE
  5
560
100
AcDbEntity
  8
0
100
AcDbCircle
 62
7
  6
CONTINUOUS
 10
-24.7
 20
26.0
 40
0.4
  0
CIRCLE
  5
561
100
AcDbEntity
  8
ASSI
100
AcDbCircle
 62
7
  6
CONTINUOUS
 10
-22.9
 20
22.2
 40
0.4
  0
CIRCLE
  5
562
100
AcDbEntity
  8
ASSI
100
AcDbCircle
 62
7
  6
CONTINUOUS
 10
-23.5
 20
21.0
 40
0.4
  0
CIRCLE
  5
563
100
AcDbEntity
  8
ASSI
100
AcDbCircle
 62
7
  6
CONTINUOUS
 10
-22.3
 20
21.0
 40
0.4
  0
CIRCLE
  5
564
100
AcDbEntity
  8
0
100
AcDbCircle
 62
7
  6
CONTINUOUS
 10
-22.9
 20
22.2
 40
0.4
  0
CIRCLE
  5
565
100
AcDbEntity
  8
0
100
AcDbCircle
 62
7
  6
CONTINUOUS
 10
-23.5
 20
21.0
 40
0.4
  0
CIRCLE
  5
566
100
AcDbEntity
  8
0
100
AcDbCircle
 62
7
  6
CONTINUOUS
 10
-22.3
 20
21.0
 40
0.4
  0
CIRCLE
  5
567
100
AcDbEntity
  8
ASSI
100
AcDbCircle
 62
7
  6
CONTINUOUS
 10
-23.5
 20
23.5
 40
0.4
  0
CIRCLE
  5
568
100
AcDbEntity
  8
ASSI
100
AcDbCircle
 62
7
  6
CONTINUOUS
 10
-22.3
 20
23.5
 40
0.4
  0
CIRCLE
  5
569
100
AcDbEntity
  8
0
100
AcDbCircle
 62
7
  6
CONTINUOUS
 10
-23.5
 20
23.5
 40
0.4
  0
CIRCLE
  5
56A
100
AcDbEntity
  8
0
100
AcDbCircle
 62
7
  6
CONTINUOUS
 10
-22.3
 20
23.5
 40
0.4
  0
CIRCLE
  5
56B
100
AcDbEntity
  8
ASSI
100
AcDbCircle
 62
7
  6
CONTINUOUS
 10
-21.7
 20
22.2
 40
0.4
  0
CIRCLE
  5
56C
100
AcDbEntity
  8
ASSI
100
AcDbCircle
 62
7
  6
CONTINUOUS
 10
-20.5
 20
22.2
 40
0.4
  0
CIRCLE
  5
56D
100
AcDbEntity
  8
ASSI
100
AcDbCircle
 62
7
  6
CONTINUOUS
 10
-21.1
 20
21.0
 40
0.4
  0
CIRCLE
  5
56E
100
AcDbEntity
  8
0
100
AcDbCircle
 62
7
  6
CONTINUOUS
 10
-21.7
 20
22.2
 40
0.4
  0
CIRCLE
  5
56F
100
AcDbEntity
  8
0
100
AcDbCircle
 62
7
  6
CONTINUOUS
 10
-20.5
 20
22.2
 40
0.4
  0
CIRCLE
  5
570
100
AcDbEntity
  8
0
100
AcDbCircle
 62
7
  6
CONTINUOUS
 10
-21.1
 20
21.0
 40
0.4
  0
CIRCLE
  5
571
100
AcDbEntity
  8
ASSI
100
AcDbCircle
 62
7
  6
CONTINUOUS
 10
-21.1
 20
23.5
 40
0.4
  0
CIRCLE
  5
572
100
AcDbEntity
  8
0
100
AcDbCircle
 62
7
  6
CONTINUOUS
 10
-21.1
 20
23.5
 40
0.4
  0
CIRCLE
  5
573
100
AcDbEntity
  8
ASSI
100
AcDbCircle
 62
7
  6
CONTINUOUS
 10
-22.9
 20
24.7
 40
0.4
  0
CIRCLE
  5
574
100
AcDbEntity
  8
0
100
AcDbCircle
 62
7
  6
CONTINUOUS
 10
-22.9
 20
24.7
 40
0.4
  0
CIRCLE
  5
575
100
AcDbEntity
  8
ASSI
100
AcDbCircle
 62
7
  6
CONTINUOUS
 10
-22.9
 20
27.2
 40
0.4
  0
CIRCLE
  5
576
100
AcDbEntity
  8
ASSI
100
AcDbCircle
 62
7
  6
CONTINUOUS
 10
-23.5
 20
26.0
 40
0.4
  0
CIRCLE
  5
577
100
AcDbEntity
  8
ASSI
100
AcDbCircle
 62
7
  6
CONTINUOUS
 10
-22.3
 20
26.0
 40
0.4
  0
CIRCLE
  5
578
100
AcDbEntity
  8
0
100
AcDbCircle
 62
7
  6
CONTINUOUS
 10
-22.9
 20
27.2
 40
0.4
  0
CIRCLE
  5
579
100
AcDbEntity
  8
0
100
AcDbCircle
 62
7
  6
CONTINUOUS
 10
-23.5
 20
26.0
 40
0.4
  0
CIRCLE
  5
57A
100
AcDbEntity
  8
0
100
AcDbCircle
 62
7
  6
CONTINUOUS
 10
-22.3
 20
26.0
 40
0.4
  0
CIRCLE
  5
57B
100
AcDbEntity
  8
ASSI
100
AcDbCircle
 62
7
  6
CONTINUOUS
 10
-21.7
 20
24.7
 40
0.4
  0
CIRCLE
  5
57C
100
AcDbEntity
  8
ASSI
100
AcDbCircle
 62
7
  6
CONTINUOUS
 10
-20.5
 20
24.7
 40
0.4
  0
CIRCLE
  5
57D
100
AcDbEntity
  8
0
100
AcDbCircle
 62
7
  6
CONTINUOUS
 10
-21.7
 20
24.7
 40
0.4
  0
CIRCLE
  5
57E
100
AcDbEntity
  8
0
100
AcDbCircle
 62
7
  6
CONTINUOUS
 10
-20.5
 20
24.7
 40
0.4
  0
CIRCLE
  5
57F
100
AcDbEntity
  8
ASSI
100
AcDbCircle
 62
7
  6
CONTINUOUS
 10
-21.7
 20
27.2
 40
0.4
  0
CIRCLE
  5
580
100
AcDbEntity
  8
ASSI
100
AcDbCircle
 62
7
  6
CONTINUOUS
 10
-20.5
 20
27.2
 40
0.4
  0
CIRCLE
  5
581
100
AcDbEntity
  8
ASSI
100
AcDbCircle
 62
7
  6
CONTINUOUS
 10
-21.1
 20
26.0
 40
0.4
  0
CIRCLE
  5
582
100
AcDbEntity
  8
0
100
AcDbCircle
 62
7
  6
CONTINUOUS
 10
-21.7
 20
27.2
 40
0.4
  0
CIRCLE
  5
583
100
AcDbEntity
  8
0
100
AcDbCircle
 62
7
  6
CONTINUOUS
 10
-20.5
 20
27.2
 40
0.4
  0
CIRCLE
  5
584
100
AcDbEntity
  8
0
100
AcDbCircle
 62
7
  6
CONTINUOUS
 10
-21.1
 20
26.0
 40
0.4
  0
CIRCLE
  5
585
100
AcDbEntity
  8
ASSI
100
AcDbCircle
 62
7
  6
CONTINUOUS
 10
-28.9
 20
29.7
 40
0.4
  0
CIRCLE
  5
586
100
AcDbEntity
  8
ASSI
100
AcDbCircle
 62
7
  6
CONTINUOUS
 10
-28.3
 20
31.0
 40
0.4
  0
CIRCLE
  5
587
100
AcDbEntity
  8
ASSI
100
AcDbCircle
 62
7
  6
CONTINUOUS
 10
-27.7
 20
29.7
 40
0.4
  0
CIRCLE
  5
588
100
AcDbEntity
  8
ASSI
100
AcDbCircle
 62
7
  6
CONTINUOUS
 10
-28.3
 20
28.5
 40
0.4
  0
CIRCLE
  5
589
100
AcDbEntity
  8
0
100
AcDbCircle
 62
7
  6
CONTINUOUS
 10
-28.9
 20
29.7
 40
0.4
  0
CIRCLE
  5
58A
100
AcDbEntity
  8
0
100
AcDbCircle
 62
7
  6
CONTINUOUS
 10
-28.3
 20
31.0
 40
0.4
  0
CIRCLE
  5
58B
100
AcDbEntity
  8
0
100
AcDbCircle
 62
7
  6
CONTINUOUS
 10
-27.7
 20
29.7
 40
0.4
  0
ARC
  5
58C
100
AcDbEntity
  8
0
100
AcDbCircle
 62
7
  6
CONTINUOUS
 10
-29.5
 20
28.5
 40
0.4
100
AcDbArc
 50
184.3152354046
 51
140.8864905031
  0
CIRCLE
  5
58D
100
AcDbEntity
  8
0
100
AcDbCircle
 62
7
  6
CONTINUOUS
 10
-28.3
 20
28.5
 40
0.4
  0
ARC
  5
58E
100
AcDbEntity
  8
ASSI
100
AcDbCircle
 62
7
  6
CONTINUOUS
 10
-29.5
 20
28.5
 40
0.4
100
AcDbArc
 50
184.3152354046
 51
140.8864905031
  0
CIRCLE
  5
58F
100
AcDbEntity
  8
ASSI
100
AcDbCircle
 62
7
  6
CONTINUOUS
 10
-27.7
 20
32.2
 40
0.4
  0
ARC
  5
590
100
AcDbEntity
  8
0
100
AcDbCircle
 62
7
  6
CONTINUOUS
 10
-27.7
 20
34.7
 40
0.4
100
AcDbArc
 50
273.5016252087
 51
1.0372183104
  0
ARC
  5
591
100
AcDbEntity
  8
0
100
AcDbCircle
 62
7
  6
CONTINUOUS
 10
-28.9
 20
32.2
 40
0.4
100
AcDbArc
 50
297.7109859888
 51
18.8165276611
  0
ARC
  5
592
100
AcDbEntity
  8
0
100
AcDbCircle
 62
7
  6
CONTINUOUS
 10
-28.3
 20
33.5
 40
0.4
100
AcDbArc
 50
284.8643747566
 51
28.4161625738
  0
CIRCLE
  5
593
100
AcDbEntity
  8
0
100
AcDbCircle
 62
7
  6
CONTINUOUS
 10
-27.7
 20
32.2
 40
0.4
  0
ARC
  5
594
100
AcDbEntity
  8
ASSI
100
AcDbCircle
 62
7
  6
CONTINUOUS
 10
-27.7
 20
34.7
 40
0.4
100
AcDbArc
 50
273.5016252087
 51
1.0372183104
  0
ARC
  5
595
100
AcDbEntity
  8
ASSI
100
AcDbCircle
 62
7
  6
CONTINUOUS
 10
-28.9
 20
32.2
 40
0.4
100
AcDbArc
 50
297.7109859888
 51
18.8165276611
  0
ARC
  5
596
100
AcDbEntity
  8
ASSI
100
AcDbCircle
 62
7
  6
CONTINUOUS
 10
-28.3
 20
33.5
 40
0.4
100
AcDbArc
 50
284.8643747566
 51
28.4161625738
  0
CIRCLE
  5
597
100
AcDbEntity
  8
ASSI
100
AcDbCircle
 62
7
  6
CONTINUOUS
 10
-27.1
 20
31.0
 40
0.4
  0
CIRCLE
  5
598
100
AcDbEntity
  8
ASSI
100
AcDbCircle
 62
7
  6
CONTINUOUS
 10
-26.5
 20
29.7
 40
0.4
  0
CIRCLE
  5
599
100
AcDbEntity
  8
ASSI
100
AcDbCircle
 62
7
  6
CONTINUOUS
 10
-25.9
 20
31.0
 40
0.4
  0
CIRCLE
  5
59A
100
AcDbEntity
  8
ASSI
100
AcDbCircle
 62
7
  6
CONTINUOUS
 10
-25.3
 20
29.7
 40
0.4
  0
CIRCLE
  5
59B
100
AcDbEntity
  8
ASSI
100
AcDbCircle
 62
7
  6
CONTINUOUS
 10
-27.1
 20
28.5
 40
0.4
  0
CIRCLE
  5
59C
100
AcDbEntity
  8
ASSI
100
AcDbCircle
 62
7
  6
CONTINUOUS
 10
-25.9
 20
28.5
 40
0.4
  0
CIRCLE
  5
59D
100
AcDbEntity
  8
0
100
AcDbCircle
 62
7
  6
CONTINUOUS
 10
-27.1
 20
31.0
 40
0.4
  0
CIRCLE
  5
59E
100
AcDbEntity
  8
0
100
AcDbCircle
 62
7
  6
CONTINUOUS
 10
-26.5
 20
29.7
 40
0.4
  0
CIRCLE
  5
59F
100
AcDbEntity
  8
0
100
AcDbCircle
 62
7
  6
CONTINUOUS
 10
-25.9
 20
31.0
 40
0.4
  0
CIRCLE
  5
5A0
100
AcDbEntity
  8
0
100
AcDbCircle
 62
7
  6
CONTINUOUS
 10
-25.3
 20
29.7
 40
0.4
  0
CIRCLE
  5
5A1
100
AcDbEntity
  8
0
100
AcDbCircle
 62
7
  6
CONTINUOUS
 10
-27.1
 20
28.5
 40
0.4
  0
CIRCLE
  5
5A2
100
AcDbEntity
  8
0
100
AcDbCircle
 62
7
  6
CONTINUOUS
 10
-25.9
 20
28.5
 40
0.4
  0
CIRCLE
  5
5A3
100
AcDbEntity
  8
ASSI
100
AcDbCircle
 62
7
  6
CONTINUOUS
 10
-25.3
 20
34.7
 40
0.4
  0
CIRCLE
  5
5A4
100
AcDbEntity
  8
ASSI
100
AcDbCircle
 62
7
  6
CONTINUOUS
 10
-27.1
 20
33.5
 40
0.4
  0
CIRCLE
  5
5A5
100
AcDbEntity
  8
ASSI
100
AcDbCircle
 62
7
  6
CONTINUOUS
 10
-26.5
 20
32.2
 40
0.4
  0
CIRCLE
  5
5A6
100
AcDbEntity
  8
ASSI
100
AcDbCircle
 62
7
  6
CONTINUOUS
 10
-25.9
 20
33.5
 40
0.4
  0
CIRCLE
  5
5A7
100
AcDbEntity
  8
ASSI
100
AcDbCircle
 62
7
  6
CONTINUOUS
 10
-25.3
 20
32.2
 40
0.4
  0
ARC
  5
5A8
100
AcDbEntity
  8
0
100
AcDbCircle
 62
7
  6
CONTINUOUS
 10
-26.5
 20
34.7
 40
0.4
100
AcDbArc
 50
178.9598865211
 51
90.0029728875
  0
CIRCLE
  5
5A9
100
AcDbEntity
  8
0
100
AcDbCircle
 62
7
  6
CONTINUOUS
 10
-25.3
 20
34.7
 40
0.4
  0
CIRCLE
  5
5AA
100
AcDbEntity
  8
0
100
AcDbCircle
 62
7
  6
CONTINUOUS
 10
-27.1
 20
33.5
 40
0.4
  0
CIRCLE
  5
5AB
100
AcDbEntity
  8
0
100
AcDbCircle
 62
7
  6
CONTINUOUS
 10
-26.5
 20
32.2
 40
0.4
  0
CIRCLE
  5
5AC
100
AcDbEntity
  8
0
100
AcDbCircle
 62
7
  6
CONTINUOUS
 10
-25.9
 20
33.5
 40
0.4
  0
CIRCLE
  5
5AD
100
AcDbEntity
  8
0
100
AcDbCircle
 62
7
  6
CONTINUOUS
 10
-25.3
 20
32.2
 40
0.4
  0
ARC
  5
5AE
100
AcDbEntity
  8
ASSI
100
AcDbCircle
 62
7
  6
CONTINUOUS
 10
-26.5
 20
34.7
 40
0.4
100
AcDbArc
 50
178.9598865211
 51
90.0029728875
  0
CIRCLE
  5
5AF
100
AcDbEntity
  8
ASSI
100
AcDbCircle
 62
7
  6
CONTINUOUS
 10
-25.3
 20
37.2
 40
0.4
  0
CIRCLE
  5
5B0
100
AcDbEntity
  8
ASSI
100
AcDbCircle
 62
7
  6
CONTINUOUS
 10
-25.9
 20
36.0
 40
0.4
  0
ARC
  5
5B1
100
AcDbEntity
  8
0
100
AcDbCircle
 62
7
  6
CONTINUOUS
 10
-26.5
 20
37.2
 40
0.4
100
AcDbArc
 50
276.9319198822
 51
27.0593054478
  0
ARC
  5
5B2
100
AcDbEntity
  8
0
100
AcDbCircle
 62
7
  6
CONTINUOUS
 10
-25.9
 20
38.5
 40
0.4
100
AcDbArc
 50
296.0952500298
 51
4.8858760437
  0
CIRCLE
  5
5B3
100
AcDbEntity
  8
0
100
AcDbCircle
 62
7
  6
CONTINUOUS
 10
-25.3
 20
37.2
 40
0.4
  0
ARC
  5
5B4
100
AcDbEntity
  8
0
100
AcDbCircle
 62
7
  6
CONTINUOUS
 10
-27.1
 20
36.0
 40
0.4
100
AcDbArc
 50
328.7804121126
 51
31.3542301506
  0
CIRCLE
  5
5B5
100
AcDbEntity
  8
0
100
AcDbCircle
 62
7
  6
CONTINUOUS
 10
-25.9
 20
36.0
 40
0.4
  0
ARC
  5
5B6
100
AcDbEntity
  8
ASSI
100
AcDbCircle
 62
7
  6
CONTINUOUS
 10
-26.5
 20
37.2
 40
0.4
100
AcDbArc
 50
276.9319198822
 51
27.0593054478
  0
ARC
  5
5B7
100
AcDbEntity
  8
ASSI
100
AcDbCircle
 62
7
  6
CONTINUOUS
 10
-25.9
 20
38.5
 40
0.4
100
AcDbArc
 50
296.0952500298
 51
4.8858760437
  0
ARC
  5
5B8
100
AcDbEntity
  8
ASSI
100
AcDbCircle
 62
7
  6
CONTINUOUS
 10
-27.1
 20
36.0
 40
0.4
100
AcDbArc
 50
328.7804121126
 51
31.3542301506
  0
CIRCLE
  5
5B9
100
AcDbEntity
  8
ASSI
100
AcDbCircle
 62
7
  6
CONTINUOUS
 10
-24.7
 20
31.0
 40
0.4
  0
CIRCLE
  5
5BA
100
AcDbEntity
  8
ASSI
100
AcDbCircle
 62
7
  6
CONTINUOUS
 10
-24.1
 20
29.7
 40
0.4
  0
CIRCLE
  5
5BB
100
AcDbEntity
  8
ASSI
100
AcDbCircle
 62
7
  6
CONTINUOUS
 10
-23.5
 20
31.0
 40
0.4
  0
CIRCLE
  5
5BC
100
AcDbEntity
  8
ASSI
100
AcDbCircle
 62
7
  6
CONTINUOUS
 10
-22.9
 20
29.7
 40
0.4
  0
CIRCLE
  5
5BD
100
AcDbEntity
  8
ASSI
100
AcDbCircle
 62
7
  6
CONTINUOUS
 10
-24.7
 20
28.5
 40
0.4
  0
CIRCLE
  5
5BE
100
AcDbEntity
  8
ASSI
100
AcDbCircle
 62
7
  6
CONTINUOUS
 10
-23.5
 20
28.5
 40
0.4
  0
CIRCLE
  5
5BF
100
AcDbEntity
  8
0
100
AcDbCircle
 62
7
  6
CONTINUOUS
 10
-24.7
 20
31.0
 40
0.4
  0
CIRCLE
  5
5C0
100
AcDbEntity
  8
0
100
AcDbCircle
 62
7
  6
CONTINUOUS
 10
-24.1
 20
29.7
 40
0.4
  0
CIRCLE
  5
5C1
100
AcDbEntity
  8
0
100
AcDbCircle
 62
7
  6
CONTINUOUS
 10
-23.5
 20
31.0
 40
0.4
  0
CIRCLE
  5
5C2
100
AcDbEntity
  8
0
100
AcDbCircle
 62
7
  6
CONTINUOUS
 10
-22.9
 20
29.7
 40
0.4
  0
CIRCLE
  5
5C3
100
AcDbEntity
  8
0
100
AcDbCircle
 62
7
  6
CONTINUOUS
 10
-24.7
 20
28.5
 40
0.4
  0
CIRCLE
  5
5C4
100
AcDbEntity
  8
0
100
AcDbCircle
 62
7
  6
CONTINUOUS
 10
-23.5
 20
28.5
 40
0.4
  0
CIRCLE
  5
5C5
100
AcDbEntity
  8
ASSI
100
AcDbCircle
 62
7
  6
CONTINUOUS
 10
-24.1
 20
34.7
 40
0.4
  0
CIRCLE
  5
5C6
100
AcDbEntity
  8
ASSI
100
AcDbCircle
 62
7
  6
CONTINUOUS
 10
-22.9
 20
34.7
 40
0.4
  0
CIRCLE
  5
5C7
100
AcDbEntity
  8
ASSI
100
AcDbCircle
 62
7
  6
CONTINUOUS
 10
-24.7
 20
33.5
 40
0.4
  0
CIRCLE
  5
5C8
100
AcDbEntity
  8
ASSI
100
AcDbCircle
 62
7
  6
CONTINUOUS
 10
-24.1
 20
32.2
 40
0.4
  0
CIRCLE
  5
5C9
100
AcDbEntity
  8
ASSI
100
AcDbCircle
 62
7
  6
CONTINUOUS
 10
-23.5
 20
33.5
 40
0.4
  0
CIRCLE
  5
5CA
100
AcDbEntity
  8
ASSI
100
AcDbCircle
 62
7
  6
CONTINUOUS
 10
-22.9
 20
32.2
 40
0.4
  0
CIRCLE
  5
5CB
100
AcDbEntity
  8
0
100
AcDbCircle
 62
7
  6
CONTINUOUS
 10
-24.1
 20
34.7
 40
0.4
  0
CIRCLE
  5
5CC
100
AcDbEntity
  8
0
100
AcDbCircle
 62
7
  6
CONTINUOUS
 10
-22.9
 20
34.7
 40
0.4
  0
CIRCLE
  5
5CD
100
AcDbEntity
  8
0
100
AcDbCircle
 62
7
  6
CONTINUOUS
 10
-24.7
 20
33.5
 40
0.4
  0
CIRCLE
  5
5CE
100
AcDbEntity
  8
0
100
AcDbCircle
 62
7
  6
CONTINUOUS
 10
-24.1
 20
32.2
 40
0.4
  0
CIRCLE
  5
5CF
100
AcDbEntity
  8
0
100
AcDbCircle
 62
7
  6
CONTINUOUS
 10
-23.5
 20
33.5
 40
0.4
  0
CIRCLE
  5
5D0
100
AcDbEntity
  8
0
100
AcDbCircle
 62
7
  6
CONTINUOUS
 10
-22.9
 20
32.2
 40
0.4
  0
CIRCLE
  5
5D1
100
AcDbEntity
  8
ASSI
100
AcDbCircle
 62
7
  6
CONTINUOUS
 10
-22.3
 20
31.0
 40
0.4
  0
CIRCLE
  5
5D2
100
AcDbEntity
  8
ASSI
100
AcDbCircle
 62
7
  6
CONTINUOUS
 10
-21.7
 20
29.7
 40
0.4
  0
CIRCLE
  5
5D3
100
AcDbEntity
  8
ASSI
100
AcDbCircle
 62
7
  6
CONTINUOUS
 10
-21.1
 20
31.0
 40
0.4
  0
CIRCLE
  5
5D4
100
AcDbEntity
  8
ASSI
100
AcDbCircle
 62
7
  6
CONTINUOUS
 10
-20.5
 20
29.7
 40
0.4
  0
CIRCLE
  5
5D5
100
AcDbEntity
  8
ASSI
100
AcDbCircle
 62
7
  6
CONTINUOUS
 10
-22.3
 20
28.5
 40
0.4
  0
CIRCLE
  5
5D6
100
AcDbEntity
  8
ASSI
100
AcDbCircle
 62
7
  6
CONTINUOUS
 10
-21.1
 20
28.5
 40
0.4
  0
CIRCLE
  5
5D7
100
AcDbEntity
  8
0
100
AcDbCircle
 62
7
  6
CONTINUOUS
 10
-22.3
 20
31.0
 40
0.4
  0
CIRCLE
  5
5D8
100
AcDbEntity
  8
0
100
AcDbCircle
 62
7
  6
CONTINUOUS
 10
-21.7
 20
29.7
 40
0.4
  0
CIRCLE
  5
5D9
100
AcDbEntity
  8
0
100
AcDbCircle
 62
7
  6
CONTINUOUS
 10
-21.1
 20
31.0
 40
0.4
  0
CIRCLE
  5
5DA
100
AcDbEntity
  8
0
100
AcDbCircle
 62
7
  6
CONTINUOUS
 10
-20.5
 20
29.7
 40
0.4
  0
CIRCLE
  5
5DB
100
AcDbEntity
  8
0
100
AcDbCircle
 62
7
  6
CONTINUOUS
 10
-22.3
 20
28.5
 40
0.4
  0
CIRCLE
  5
5DC
100
AcDbEntity
  8
0
100
AcDbCircle
 62
7
  6
CONTINUOUS
 10
-21.1
 20
28.5
 40
0.4
  0
CIRCLE
  5
5DD
100
AcDbEntity
  8
ASSI
100
AcDbCircle
 62
7
  6
CONTINUOUS
 10
-21.7
 20
34.7
 40
0.4
  0
CIRCLE
  5
5DE
100
AcDbEntity
  8
ASSI
100
AcDbCircle
 62
7
  6
CONTINUOUS
 10
-20.5
 20
34.7
 40
0.4
  0
CIRCLE
  5
5DF
100
AcDbEntity
  8
ASSI
100
AcDbCircle
 62
7
  6
CONTINUOUS
 10
-22.3
 20
33.5
 40
0.4
  0
CIRCLE
  5
5E0
100
AcDbEntity
  8
ASSI
100
AcDbCircle
 62
7
  6
CONTINUOUS
 10
-21.7
 20
32.2
 40
0.4
  0
CIRCLE
  5
5E1
100
AcDbEntity
  8
ASSI
100
AcDbCircle
 62
7
  6
CONTINUOUS
 10
-21.1
 20
33.5
 40
0.4
  0
CIRCLE
  5
5E2
100
AcDbEntity
  8
ASSI
100
AcDbCircle
 62
7
  6
CONTINUOUS
 10
-20.5
 20
32.2
 40
0.4
  0
CIRCLE
  5
5E3
100
AcDbEntity
  8
0
100
AcDbCircle
 62
7
  6
CONTINUOUS
 10
-21.7
 20
34.7
 40
0.4
  0
CIRCLE
  5
5E4
100
AcDbEntity
  8
0
100
AcDbCircle
 62
7
  6
CONTINUOUS
 10
-20.5
 20
34.7
 40
0.4
  0
CIRCLE
  5
5E5
100
AcDbEntity
  8
0
100
AcDbCircle
 62
7
  6
CONTINUOUS
 10
-22.3
 20
33.5
 40
0.4
  0
CIRCLE
  5
5E6
100
AcDbEntity
  8
0
100
AcDbCircle
 62
7
  6
CONTINUOUS
 10
-21.7
 20
32.2
 40
0.4
  0
CIRCLE
  5
5E7
100
AcDbEntity
  8
0
100
AcDbCircle
 62
7
  6
CONTINUOUS
 10
-21.1
 20
33.5
 40
0.4
  0
CIRCLE
  5
5E8
100
AcDbEntity
  8
0
100
AcDbCircle
 62
7
  6
CONTINUOUS
 10
-20.5
 20
32.2
 40
0.4
  0
CIRCLE
  5
5E9
100
AcDbEntity
  8
ASSI
100
AcDbCircle
 62
7
  6
CONTINUOUS
 10
-24.1
 20
37.2
 40
0.4
  0
CIRCLE
  5
5EA
100
AcDbEntity
  8
ASSI
100
AcDbCircle
 62
7
  6
CONTINUOUS
 10
-22.9
 20
37.2
 40
0.4
  0
CIRCLE
  5
5EB
100
AcDbEntity
  8
ASSI
100
AcDbCircle
 62
7
  6
CONTINUOUS
 10
-24.7
 20
36.0
 40
0.4
  0
CIRCLE
  5
5EC
100
AcDbEntity
  8
ASSI
100
AcDbCircle
 62
7
  6
CONTINUOUS
 10
-23.5
 20
36.0
 40
0.4
  0
CIRCLE
  5
5ED
100
AcDbEntity
  8
0
100
AcDbCircle
 62
7
  6
CONTINUOUS
 10
-24.1
 20
37.2
 40
0.4
  0
CIRCLE
  5
5EE
100
AcDbEntity
  8
0
100
AcDbCircle
 62
7
  6
CONTINUOUS
 10
-22.9
 20
37.2
 40
0.4
  0
CIRCLE
  5
5EF
100
AcDbEntity
  8
0
100
AcDbCircle
 62
7
  6
CONTINUOUS
 10
-24.7
 20
36.0
 40
0.4
  0
CIRCLE
  5
5F0
100
AcDbEntity
  8
0
100
AcDbCircle
 62
7
  6
CONTINUOUS
 10
-23.5
 20
36.0
 40
0.4
  0
CIRCLE
  5
5F1
100
AcDbEntity
  8
ASSI
100
AcDbCircle
 62
7
  6
CONTINUOUS
 10
-24.1
 20
39.7
 40
0.4
  0
CIRCLE
  5
5F2
100
AcDbEntity
  8
ASSI
100
AcDbCircle
 62
7
  6
CONTINUOUS
 10
-22.9
 20
39.7
 40
0.4
  0
CIRCLE
  5
5F3
100
AcDbEntity
  8
ASSI
100
AcDbCircle
 62
7
  6
CONTINUOUS
 10
-24.7
 20
38.5
 40
0.4
  0
CIRCLE
  5
5F4
100
AcDbEntity
  8
ASSI
100
AcDbCircle
 62
7
  6
CONTINUOUS
 10
-23.5
 20
38.5
 40
0.4
  0
CIRCLE
  5
5F5
100
AcDbEntity
  8
0
100
AcDbCircle
 62
7
  6
CONTINUOUS
 10
-24.1
 20
39.7
 40
0.4
  0
ARC
  5
5F6
100
AcDbEntity
  8
0
100
AcDbCircle
 62
7
  6
CONTINUOUS
 10
-23.5
 20
41.0
 40
0.4
100
AcDbArc
 50
214.7834498972
 51
21.5739683202
  0
CIRCLE
  5
5F7
100
AcDbEntity
  8
0
100
AcDbCircle
 62
7
  6
CONTINUOUS
 10
-22.9
 20
39.7
 40
0.4
  0
CIRCLE
  5
5F8
100
AcDbEntity
  8
0
100
AcDbCircle
 62
7
  6
CONTINUOUS
 10
-24.7
 20
38.5
 40
0.4
  0
CIRCLE
  5
5F9
100
AcDbEntity
  8
0
100
AcDbCircle
 62
7
  6
CONTINUOUS
 10
-23.5
 20
38.5
 40
0.4
  0
ARC
  5
5FA
100
AcDbEntity
  8
ASSI
100
AcDbCircle
 62
7
  6
CONTINUOUS
 10
-23.5
 20
41.0
 40
0.4
100
AcDbArc
 50
214.7834498972
 51
21.5739683202
  0
ARC
  5
5FB
100
AcDbEntity
  8
DRAFT
100
AcDbCircle
 62
7
  6
CONTINUOUS
 10
-21.9180240417
 20
38.0496893568
 40
3.3645884069
100
AcDbArc
 50
89.9440480607
 51
148.3883875915
  0
ARC
  5
5FC
100
AcDbEntity
  8
DRAFT
100
AcDbCircle
 62
7
  6
CONTINUOUS
 10
-21.9194876512
 20
38.0495073799
 40
3.325790559
100
AcDbArc
 50
89.918180671
 51
148.3721185522
  0
CIRCLE
  5
5FD
100
AcDbEntity
  8
ASSI
100
AcDbCircle
 62
7
  6
CONTINUOUS
 10
-21.7
 20
37.2
 40
0.4
  0
CIRCLE
  5
5FE
100
AcDbEntity
  8
ASSI
100
AcDbCircle
 62
7
  6
CONTINUOUS
 10
-20.5
 20
37.2
 40
0.4
  0
CIRCLE
  5
5FF
100
AcDbEntity
  8
ASSI
100
AcDbCircle
 62
7
  6
CONTINUOUS
 10
-22.3
 20
36.0
 40
0.4
  0
CIRCLE
  5
600
100
AcDbEntity
  8
ASSI
100
AcDbCircle
 62
7
  6
CONTINUOUS
 10
-21.1
 20
36.0
 40
0.4
  0
CIRCLE
  5
601
100
AcDbEntity
  8
0
100
AcDbCircle
 62
7
  6
CONTINUOUS
 10
-21.7
 20
37.2
 40
0.4
  0
CIRCLE
  5
602
100
AcDbEntity
  8
0
100
AcDbCircle
 62
7
  6
CONTINUOUS
 10
-20.5
 20
37.2
 40
0.4
  0
CIRCLE
  5
603
100
AcDbEntity
  8
0
100
AcDbCircle
 62
7
  6
CONTINUOUS
 10
-22.3
 20
36.0
 40
0.4
  0
CIRCLE
  5
604
100
AcDbEntity
  8
0
100
AcDbCircle
 62
7
  6
CONTINUOUS
 10
-21.1
 20
36.0
 40
0.4
  0
CIRCLE
  5
605
100
AcDbEntity
  8
ASSI
100
AcDbCircle
 62
7
  6
CONTINUOUS
 10
-21.7
 20
39.7
 40
0.4
  0
CIRCLE
  5
606
100
AcDbEntity
  8
ASSI
100
AcDbCircle
 62
7
  6
CONTINUOUS
 10
-22.3
 20
38.5
 40
0.4
  0
CIRCLE
  5
607
100
AcDbEntity
  8
0
100
AcDbCircle
 62
7
  6
CONTINUOUS
 10
-21.7
 20
39.7
 40
0.4
  0
CIRCLE
  5
608
100
AcDbEntity
  8
0
100
AcDbCircle
 62
7
  6
CONTINUOUS
 10
-22.3
 20
38.5
 40
0.4
  0
ARC
  5
609
100
AcDbEntity
  8
0
100
AcDbCircle
 62
7
  6
CONTINUOUS
 10
-22.3
 20
41.0
 40
0.4
100
AcDbArc
 50
128.1067886093
 51
66.6287679193
  0
ARC
  5
60A
100
AcDbEntity
  8
ASSI
100
AcDbCircle
 62
7
  6
CONTINUOUS
 10
-22.3
 20
41.0
 40
0.4
100
AcDbArc
 50
128.1067886093
 51
66.6287679193
  0
CIRCLE
  5
60B
100
AcDbEntity
  8
ASSI
100
AcDbCircle
 62
7
  6
CONTINUOUS
 10
-20.5
 20
39.7
 40
0.4
  0
CIRCLE
  5
60C
100
AcDbEntity
  8
ASSI
100
AcDbCircle
 62
7
  6
CONTINUOUS
 10
-21.1
 20
38.5
 40
0.4
  0
CIRCLE
  5
60D
100
AcDbEntity
  8
0
100
AcDbCircle
 62
7
  6
CONTINUOUS
 10
-20.5
 20
39.7
 40
0.4
  0
CIRCLE
  5
60E
100
AcDbEntity
  8
0
100
AcDbCircle
 62
7
  6
CONTINUOUS
 10
-21.1
 20
38.5
 40
0.4
  0
ARC
  5
60F
100
AcDbEntity
  8
0
100
AcDbCircle
 62
7
  6
CONTINUOUS
 10
-21.1
 20
41.0
 40
0.4
100
AcDbArc
 50
110.4979329487
 51
69.3768044828
  0
ARC
  5
610
100
AcDbEntity
  8
ASSI
100
AcDbCircle
 62
7
  6
CONTINUOUS
 10
-21.1
 20
41.0
 40
0.4
100
AcDbArc
 50
110.4979329487
 51
69.3768044828
  0
CIRCLE
  5
611
100
AcDbEntity
  8
ASSI
100
AcDbCircle
 62
7
  6
CONTINUOUS
 10
-19.3
 20
14.7
 40
0.4
  0
CIRCLE
  5
612
100
AcDbEntity
  8
0
100
AcDbCircle
 62
7
  6
CONTINUOUS
 10
-19.3
 20
14.7
 40
0.4
  0
ARC
  5
613
100
AcDbEntity
  8
0
100
AcDbCircle
 62
7
  6
CONTINUOUS
 10
-19.9
 20
13.5
 40
0.4
100
AcDbArc
 50
4.0035663388
 51
176.1402336992
  0
ARC
  5
614
100
AcDbEntity
  8
ASSI
100
AcDbCircle
 62
7
  6
CONTINUOUS
 10
-19.9
 20
13.5
 40
0.4
100
AcDbArc
 50
4.0035663388
 51
176.1402336992
  0
CIRCLE
  5
615
100
AcDbEntity
  8
ASSI
100
AcDbCircle
 62
7
  6
CONTINUOUS
 10
-19.9
 20
16.0
 40
0.4
  0
CIRCLE
  5
616
100
AcDbEntity
  8
0
100
AcDbCircle
 62
7
  6
CONTINUOUS
 10
-19.9
 20
16.0
 40
0.4
  0
ARC
  5
617
100
AcDbEntity
  8
DRAFT
100
AcDbCircle
 62
7
  6
CONTINUOUS
 10
-17.6651850829
 20
13.6877557104
 40
49.8439845068
100
AcDbArc
 50
26.310306979
 51
31.6107514403
  0
ARC
  5
618
100
AcDbEntity
  8
DRAFT
100
AcDbCircle
 62
7
  6
CONTINUOUS
 10
-17.6492486459
 20
13.6986882231
 40
49.8258009545
100
AcDbArc
 50
1.4829260925
 51
6.0222380466
  0
ARC
  5
619
100
AcDbEntity
  8
DRAFT
100
AcDbCircle
 62
7
  6
CONTINUOUS
 10
-17.6422908315
 20
13.6977881385
 40
49.8189916893
100
AcDbArc
 50
7.2374133106
 51
24.9596291205
  0
ARC
  5
61A
100
AcDbEntity
  8
DRAFT
100
AcDbCircle
 62
7
  6
CONTINUOUS
 10
-17.6365422828
 20
13.6896092961
 40
49.780974822
100
AcDbArc
 50
26.3605407383
 51
31.6262388184
  0
ARC
  5
61B
100
AcDbEntity
  8
DRAFT
100
AcDbCircle
 62
7
  6
CONTINUOUS
 10
-17.6351971455
 20
13.6910881772
 40
49.7791677072
100
AcDbArc
 50
17.3037149401
 51
20.3225255339
  0
ARC
  5
61C
100
AcDbEntity
  8
DRAFT
100
AcDbCircle
 62
7
  6
CONTINUOUS
 10
-17.6337011783
 20
13.6911739212
 40
49.7777392727
100
AcDbArc
 50
21.8609902275
 51
23.5113849381
  0
ARC
  5
61D
100
AcDbEntity
  8
DRAFT
100
AcDbCircle
 62
7
  6
CONTINUOUS
 10
-17.6339791121
 20
13.6951441832
 40
49.7772231609
100
AcDbArc
 50
1.4874609439
 51
5.9994790384
  0
ARC
  5
61E
100
AcDbEntity
  8
DRAFT
100
AcDbCircle
 62
7
  6
CONTINUOUS
 10
-17.6311197334
 20
13.6922352098
 40
49.774948756
100
AcDbArc
 50
23.5114501338
 51
24.9613885342
  0
ARC
  5
61F
100
AcDbEntity
  8
DRAFT
100
AcDbCircle
 62
7
  6
CONTINUOUS
 10
-17.6305837014
 20
13.6925436454
 40
49.7743359488
100
AcDbArc
 50
20.3227988079
 51
21.8608631263
  0
ARC
  5
620
100
AcDbEntity
  8
DRAFT
100
AcDbCircle
 62
7
  6
CONTINUOUS
 10
-17.6271536356
 20
13.6945007751
 40
49.770518916
100
AcDbArc
 50
8.5084270623
 51
11.3779213605
  0
ARC
  5
621
100
AcDbEntity
  8
DRAFT
100
AcDbCircle
 62
7
  6
CONTINUOUS
 10
-17.6238765121
 20
13.6952321916
 40
49.76716965
100
AcDbArc
 50
7.278886973
 51
8.4571897552
  0
ARC
  5
622
100
AcDbEntity
  8
DRAFT
100
AcDbCircle
 62
7
  6
CONTINUOUS
 10
-17.6229651769
 20
13.6951154152
 40
49.7662914907
100
AcDbArc
 50
12.7784390798
 51
17.3034769278
  0
ARC
  5
623
100
AcDbEntity
  8
DRAFT
100
AcDbCircle
 62
7
  6
CONTINUOUS
 10
-17.6203791302
 20
13.6956676533
 40
49.7636473473
100
AcDbArc
 50
11.3781430266
 51
12.6777746226
  0
CIRCLE
  5
624
100
AcDbEntity
  8
ASSI
100
AcDbCircle
 62
7
  6
CONTINUOUS
 10
-18.1
 20
14.7
 40
0.4
  0
CIRCLE
  5
625
100
AcDbEntity
  8
0
100
AcDbCircle
 62
7
  6
CONTINUOUS
 10
-18.1
 20
14.7
 40
0.4
  0
ARC
  5
626
100
AcDbEntity
  8
0
100
AcDbCircle
 62
7
  6
CONTINUOUS
 10
-18.7
 20
13.5
 40
0.4
100
AcDbArc
 50
4.2131648354
 51
175.9245357053
  0
ARC
  5
627
100
AcDbEntity
  8
0
100
AcDbCircle
 62
7
  6
CONTINUOUS
 10
-17.5
 20
13.5
 40
0.4
100
AcDbArc
 50
4.4027631613
 51
175.7190420624
  0
ARC
  5
628
100
AcDbEntity
  8
ASSI
100
AcDbCircle
 62
7
  6
CONTINUOUS
 10
-18.7
 20
13.5
 40
0.4
100
AcDbArc
 50
4.2131648354
 51
175.9245357053
  0
ARC
  5
629
100
AcDbEntity
  8
ASSI
100
AcDbCircle
 62
7
  6
CONTINUOUS
 10
-17.5
 20
13.5
 40
0.4
100
AcDbArc
 50
4.4027631613
 51
175.7190420624
  0
CIRCLE
  5
62A
100
AcDbEntity
  8
ASSI
100
AcDbCircle
 62
7
  6
CONTINUOUS
 10
-18.7
 20
16.0
 40
0.4
  0
CIRCLE
  5
62B
100
AcDbEntity
  8
ASSI
100
AcDbCircle
 62
7
  6
CONTINUOUS
 10
-17.5
 20
16.0
 40
0.4
  0
CIRCLE
  5
62C
100
AcDbEntity
  8
0
100
AcDbCircle
 62
7
  6
CONTINUOUS
 10
-18.7
 20
16.0
 40
0.4
  0
CIRCLE
  5
62D
100
AcDbEntity
  8
0
100
AcDbCircle
 62
7
  6
CONTINUOUS
 10
-17.5
 20
16.0
 40
0.4
  0
CIRCLE
  5
62E
100
AcDbEntity
  8
ASSI
100
AcDbCircle
 62
7
  6
CONTINUOUS
 10
-19.3
 20
17.2
 40
0.4
  0
CIRCLE
  5
62F
100
AcDbEntity
  8
0
100
AcDbCircle
 62
7
  6
CONTINUOUS
 10
-19.3
 20
17.2
 40
0.4
  0
CIRCLE
  5
630
100
AcDbEntity
  8
ASSI
100
AcDbCircle
 62
7
  6
CONTINUOUS
 10
-19.3
 20
19.7
 40
0.4
  0
CIRCLE
  5
631
100
AcDbEntity
  8
ASSI
100
AcDbCircle
 62
7
  6
CONTINUOUS
 10
-19.9
 20
18.5
 40
0.4
  0
CIRCLE
  5
632
100
AcDbEntity
  8
0
100
AcDbCircle
 62
7
  6
CONTINUOUS
 10
-19.3
 20
19.7
 40
0.4
  0
CIRCLE
  5
633
100
AcDbEntity
  8
0
100
AcDbCircle
 62
7
  6
CONTINUOUS
 10
-19.9
 20
18.5
 40
0.4
  0
CIRCLE
  5
634
100
AcDbEntity
  8
ASSI
100
AcDbCircle
 62
7
  6
CONTINUOUS
 10
-18.1
 20
17.2
 40
0.4
  0
CIRCLE
  5
635
100
AcDbEntity
  8
0
100
AcDbCircle
 62
7
  6
CONTINUOUS
 10
-18.1
 20
17.2
 40
0.4
  0
CIRCLE
  5
636
100
AcDbEntity
  8
ASSI
100
AcDbCircle
 62
7
  6
CONTINUOUS
 10
-18.1
 20
19.7
 40
0.4
  0
CIRCLE
  5
637
100
AcDbEntity
  8
ASSI
100
AcDbCircle
 62
7
  6
CONTINUOUS
 10
-18.7
 20
18.5
 40
0.4
  0
CIRCLE
  5
638
100
AcDbEntity
  8
ASSI
100
AcDbCircle
 62
7
  6
CONTINUOUS
 10
-17.5
 20
18.5
 40
0.4
  0
CIRCLE
  5
639
100
AcDbEntity
  8
0
100
AcDbCircle
 62
7
  6
CONTINUOUS
 10
-18.1
 20
19.7
 40
0.4
  0
CIRCLE
  5
63A
100
AcDbEntity
  8
0
100
AcDbCircle
 62
7
  6
CONTINUOUS
 10
-18.7
 20
18.5
 40
0.4
  0
CIRCLE
  5
63B
100
AcDbEntity
  8
0
100
AcDbCircle
 62
7
  6
CONTINUOUS
 10
-17.5
 20
18.5
 40
0.4
  0
CIRCLE
  5
63C
100
AcDbEntity
  8
ASSI
100
AcDbCircle
 62
7
  6
CONTINUOUS
 10
-16.9
 20
14.7
 40
0.4
  0
CIRCLE
  5
63D
100
AcDbEntity
  8
ASSI
100
AcDbCircle
 62
7
  6
CONTINUOUS
 10
-16.3
 20
16.0
 40
0.4
  0
CIRCLE
  5
63E
100
AcDbEntity
  8
ASSI
100
AcDbCircle
 62
7
  6
CONTINUOUS
 10
-15.7
 20
14.7
 40
0.4
  0
CIRCLE
  5
63F
100
AcDbEntity
  8
ASSI
100
AcDbCircle
 62
7
  6
CONTINUOUS
 10
-15.1
 20
16.0
 40
0.4
  0
CIRCLE
  5
640
100
AcDbEntity
  8
0
100
AcDbCircle
 62
7
  6
CONTINUOUS
 10
-16.9
 20
14.7
 40
0.4
  0
CIRCLE
  5
641
100
AcDbEntity
  8
0
100
AcDbCircle
 62
7
  6
CONTINUOUS
 10
-16.3
 20
16.0
 40
0.4
  0
CIRCLE
  5
642
100
AcDbEntity
  8
0
100
AcDbCircle
 62
7
  6
CONTINUOUS
 10
-15.7
 20
14.7
 40
0.4
  0
CIRCLE
  5
643
100
AcDbEntity
  8
0
100
AcDbCircle
 62
7
  6
CONTINUOUS
 10
-15.1
 20
16.0
 40
0.4
  0
ARC
  5
644
100
AcDbEntity
  8
0
100
AcDbCircle
 62
7
  6
CONTINUOUS
 10
-14.5
 20
14.7
 40
0.4
100
AcDbArc
 50
90.0008516381
 51
270.0009873051
  0
ARC
  5
645
100
AcDbEntity
  8
0
100
AcDbCircle
 62
7
  6
CONTINUOUS
 10
-16.3
 20
13.5
 40
0.4
100
AcDbArc
 50
4.5872836828
 51
175.5301536382
  0
ARC
  5
646
100
AcDbEntity
  8
0
100
AcDbCircle
 62
7
  6
CONTINUOUS
 10
-15.1
 20
13.5
 40
0.4
100
AcDbArc
 50
4.755907862
 51
175.3551789637
  0
ARC
  5
647
100
AcDbEntity
  8
ASSI
100
AcDbCircle
 62
7
  6
CONTINUOUS
 10
-14.5
 20
14.7
 40
0.4
100
AcDbArc
 50
90.0008516381
 51
270.0009873051
  0
ARC
  5
648
100
AcDbEntity
  8
ASSI
100
AcDbCircle
 62
7
  6
CONTINUOUS
 10
-16.3
 20
13.5
 40
0.4
100
AcDbArc
 50
4.5872836828
 51
175.5301536382
  0
ARC
  5
649
100
AcDbEntity
  8
ASSI
100
AcDbCircle
 62
7
  6
CONTINUOUS
 10
-15.1
 20
13.5
 40
0.4
100
AcDbArc
 50
4.755907862
 51
175.3551789637
  0
CIRCLE
  5
64A
100
AcDbEntity
  8
ASSI
100
AcDbCircle
 62
7
  6
CONTINUOUS
 10
-16.9
 20
17.2
 40
0.4
  0
CIRCLE
  5
64B
100
AcDbEntity
  8
0
100
AcDbCircle
 62
7
  6
CONTINUOUS
 10
-16.9
 20
17.2
 40
0.4
  0
CIRCLE
  5
64C
100
AcDbEntity
  8
ASSI
100
AcDbCircle
 62
7
  6
CONTINUOUS
 10
-16.9
 20
19.7
 40
0.4
  0
CIRCLE
  5
64D
100
AcDbEntity
  8
ASSI
100
AcDbCircle
 62
7
  6
CONTINUOUS
 10
-16.3
 20
18.5
 40
0.4
  0
CIRCLE
  5
64E
100
AcDbEntity
  8
0
100
AcDbCircle
 62
7
  6
CONTINUOUS
 10
-16.9
 20
19.7
 40
0.4
  0
CIRCLE
  5
64F
100
AcDbEntity
  8
0
100
AcDbCircle
 62
7
  6
CONTINUOUS
 10
-16.3
 20
18.5
 40
0.4
  0
CIRCLE
  5
650
100
AcDbEntity
  8
ASSI
100
AcDbCircle
 62
7
  6
CONTINUOUS
 10
-15.7
 20
17.2
 40
0.4
  0
CIRCLE
  5
651
100
AcDbEntity
  8
0
100
AcDbCircle
 62
7
  6
CONTINUOUS
 10
-15.7
 20
17.2
 40
0.4
  0
ARC
  5
652
100
AcDbEntity
  8
0
100
AcDbCircle
 62
7
  6
CONTINUOUS
 10
-14.5
 20
17.2
 40
0.4
100
AcDbArc
 50
90.0003090521
 51
270.0004399307
  0
ARC
  5
653
100
AcDbEntity
  8
ASSI
100
AcDbCircle
 62
7
  6
CONTINUOUS
 10
-14.5
 20
17.2
 40
0.4
100
AcDbArc
 50
90.0003090521
 51
270.0004399307
  0
CIRCLE
  5
654
100
AcDbEntity
  8
ASSI
100
AcDbCircle
 62
7
  6
CONTINUOUS
 10
-15.7
 20
19.7
 40
0.4
  0
CIRCLE
  5
655
100
AcDbEntity
  8
ASSI
100
AcDbCircle
 62
7
  6
CONTINUOUS
 10
-15.1
 20
18.5
 40
0.4
  0
CIRCLE
  5
656
100
AcDbEntity
  8
0
100
AcDbCircle
 62
7
  6
CONTINUOUS
 10
-15.7
 20
19.7
 40
0.4
  0
ARC
  5
657
100
AcDbEntity
  8
0
100
AcDbCircle
 62
7
  6
CONTINUOUS
 10
-14.5
 20
19.7
 40
0.4
100
AcDbArc
 50
89.999948985
 51
270.0000594593
  0
CIRCLE
  5
658
100
AcDbEntity
  8
0
100
AcDbCircle
 62
7
  6
CONTINUOUS
 10
-15.1
 20
18.5
 40
0.4
  0
ARC
  5
659
100
AcDbEntity
  8
ASSI
100
AcDbCircle
 62
7
  6
CONTINUOUS
 10
-14.5
 20
19.7
 40
0.4
100
AcDbArc
 50
89.999948985
 51
270.0000594593
  0
CIRCLE
  5
65A
100
AcDbEntity
  8
ASSI
100
AcDbCircle
 62
7
  6
CONTINUOUS
 10
-19.3
 20
22.2
 40
0.4
  0
CIRCLE
  5
65B
100
AcDbEntity
  8
ASSI
100
AcDbCircle
 62
7
  6
CONTINUOUS
 10
-19.9
 20
21.0
 40
0.4
  0
CIRCLE
  5
65C
100
AcDbEntity
  8
0
100
AcDbCircle
 62
7
  6
CONTINUOUS
 10
-19.3
 20
22.2
 40
0.4
  0
CIRCLE
  5
65D
100
AcDbEntity
  8
0
100
AcDbCircle
 62
7
  6
CONTINUOUS
 10
-19.9
 20
21.0
 40
0.4
  0
CIRCLE
  5
65E
100
AcDbEntity
  8
ASSI
100
AcDbCircle
 62
7
  6
CONTINUOUS
 10
-19.9
 20
23.5
 40
0.4
  0
CIRCLE
  5
65F
100
AcDbEntity
  8
0
100
AcDbCircle
 62
7
  6
CONTINUOUS
 10
-19.9
 20
23.5
 40
0.4
  0
CIRCLE
  5
660
100
AcDbEntity
  8
ASSI
100
AcDbCircle
 62
7
  6
CONTINUOUS
 10
-18.1
 20
22.2
 40
0.4
  0
CIRCLE
  5
661
100
AcDbEntity
  8
ASSI
100
AcDbCircle
 62
7
  6
CONTINUOUS
 10
-18.7
 20
21.0
 40
0.4
  0
CIRCLE
  5
662
100
AcDbEntity
  8
ASSI
100
AcDbCircle
 62
7
  6
CONTINUOUS
 10
-17.5
 20
21.0
 40
0.4
  0
CIRCLE
  5
663
100
AcDbEntity
  8
0
100
AcDbCircle
 62
7
  6
CONTINUOUS
 10
-18.1
 20
22.2
 40
0.4
  0
CIRCLE
  5
664
100
AcDbEntity
  8
0
100
AcDbCircle
 62
7
  6
CONTINUOUS
 10
-18.7
 20
21.0
 40
0.4
  0
CIRCLE
  5
665
100
AcDbEntity
  8
0
100
AcDbCircle
 62
7
  6
CONTINUOUS
 10
-17.5
 20
21.0
 40
0.4
  0
CIRCLE
  5
666
100
AcDbEntity
  8
ASSI
100
AcDbCircle
 62
7
  6
CONTINUOUS
 10
-18.7
 20
23.5
 40
0.4
  0
CIRCLE
  5
667
100
AcDbEntity
  8
ASSI
100
AcDbCircle
 62
7
  6
CONTINUOUS
 10
-17.5
 20
23.5
 40
0.4
  0
CIRCLE
  5
668
100
AcDbEntity
  8
0
100
AcDbCircle
 62
7
  6
CONTINUOUS
 10
-18.7
 20
23.5
 40
0.4
  0
CIRCLE
  5
669
100
AcDbEntity
  8
0
100
AcDbCircle
 62
7
  6
CONTINUOUS
 10
-17.5
 20
23.5
 40
0.4
  0
CIRCLE
  5
66A
100
AcDbEntity
  8
ASSI
100
AcDbCircle
 62
7
  6
CONTINUOUS
 10
-19.3
 20
24.7
 40
0.4
  0
CIRCLE
  5
66B
100
AcDbEntity
  8
0
100
AcDbCircle
 62
7
  6
CONTINUOUS
 10
-19.3
 20
24.7
 40
0.4
  0
CIRCLE
  5
66C
100
AcDbEntity
  8
ASSI
100
AcDbCircle
 62
7
  6
CONTINUOUS
 10
-19.3
 20
27.2
 40
0.4
  0
CIRCLE
  5
66D
100
AcDbEntity
  8
ASSI
100
AcDbCircle
 62
7
  6
CONTINUOUS
 10
-19.9
 20
26.0
 40
0.4
  0
CIRCLE
  5
66E
100
AcDbEntity
  8
0
100
AcDbCircle
 62
7
  6
CONTINUOUS
 10
-19.3
 20
27.2
 40
0.4
  0
CIRCLE
  5
66F
100
AcDbEntity
  8
0
100
AcDbCircle
 62
7
  6
CONTINUOUS
 10
-19.9
 20
26.0
 40
0.4
  0
CIRCLE
  5
670
100
AcDbEntity
  8
ASSI
100
AcDbCircle
 62
7
  6
CONTINUOUS
 10
-18.1
 20
24.7
 40
0.4
  0
CIRCLE
  5
671
100
AcDbEntity
  8
0
100
AcDbCircle
 62
7
  6
CONTINUOUS
 10
-18.1
 20
24.7
 40
0.4
  0
CIRCLE
  5
672
100
AcDbEntity
  8
ASSI
100
AcDbCircle
 62
7
  6
CONTINUOUS
 10
-18.1
 20
27.2
 40
0.4
  0
CIRCLE
  5
673
100
AcDbEntity
  8
ASSI
100
AcDbCircle
 62
7
  6
CONTINUOUS
 10
-18.7
 20
26.0
 40
0.4
  0
CIRCLE
  5
674
100
AcDbEntity
  8
ASSI
100
AcDbCircle
 62
7
  6
CONTINUOUS
 10
-17.5
 20
26.0
 40
0.4
  0
CIRCLE
  5
675
100
AcDbEntity
  8
0
100
AcDbCircle
 62
7
  6
CONTINUOUS
 10
-18.1
 20
27.2
 40
0.4
  0
CIRCLE
  5
676
100
AcDbEntity
  8
0
100
AcDbCircle
 62
7
  6
CONTINUOUS
 10
-18.7
 20
26.0
 40
0.4
  0
CIRCLE
  5
677
100
AcDbEntity
  8
0
100
AcDbCircle
 62
7
  6
CONTINUOUS
 10
-17.5
 20
26.0
 40
0.4
  0
CIRCLE
  5
678
100
AcDbEntity
  8
ASSI
100
AcDbCircle
 62
7
  6
CONTINUOUS
 10
-16.9
 20
22.2
 40
0.4
  0
CIRCLE
  5
679
100
AcDbEntity
  8
ASSI
100
AcDbCircle
 62
7
  6
CONTINUOUS
 10
-16.3
 20
21.0
 40
0.4
  0
CIRCLE
  5
67A
100
AcDbEntity
  8
0
100
AcDbCircle
 62
7
  6
CONTINUOUS
 10
-16.9
 20
22.2
 40
0.4
  0
CIRCLE
  5
67B
100
AcDbEntity
  8
0
100
AcDbCircle
 62
7
  6
CONTINUOUS
 10
-16.3
 20
21.0
 40
0.4
  0
CIRCLE
  5
67C
100
AcDbEntity
  8
ASSI
100
AcDbCircle
 62
7
  6
CONTINUOUS
 10
-16.3
 20
23.5
 40
0.4
  0
CIRCLE
  5
67D
100
AcDbEntity
  8
0
100
AcDbCircle
 62
7
  6
CONTINUOUS
 10
-16.3
 20
23.5
 40
0.4
  0
CIRCLE
  5
67E
100
AcDbEntity
  8
ASSI
100
AcDbCircle
 62
7
  6
CONTINUOUS
 10
-15.7
 20
22.2
 40
0.4
  0
CIRCLE
  5
67F
100
AcDbEntity
  8
ASSI
100
AcDbCircle
 62
7
  6
CONTINUOUS
 10
-15.1
 20
21.0
 40
0.4
  0
CIRCLE
  5
680
100
AcDbEntity
  8
0
100
AcDbCircle
 62
7
  6
CONTINUOUS
 10
-15.7
 20
22.2
 40
0.4
  0
ARC
  5
681
100
AcDbEntity
  8
0
100
AcDbCircle
 62
7
  6
CONTINUOUS
 10
-14.5
 20
22.2
 40
0.4
100
AcDbArc
 50
89.9997596286
 51
269.999850261
  0
CIRCLE
  5
682
100
AcDbEntity
  8
0
100
AcDbCircle
 62
7
  6
CONTINUOUS
 10
-15.1
 20
21.0
 40
0.4
  0
ARC
  5
683
100
AcDbEntity
  8
ASSI
100
AcDbCircle
 62
7
  6
CONTINUOUS
 10
-14.5
 20
22.2
 40
0.4
100
AcDbArc
 50
89.9997596286
 51
269.999850261
  0
CIRCLE
  5
684
100
AcDbEntity
  8
ASSI
100
AcDbCircle
 62
7
  6
CONTINUOUS
 10
-15.1
 20
23.5
 40
0.4
  0
CIRCLE
  5
685
100
AcDbEntity
  8
0
100
AcDbCircle
 62
7
  6
CONTINUOUS
 10
-15.1
 20
23.5
 40
0.4
  0
CIRCLE
  5
686
100
AcDbEntity
  8
ASSI
100
AcDbCircle
 62
7
  6
CONTINUOUS
 10
-16.9
 20
24.7
 40
0.4
  0
CIRCLE
  5
687
100
AcDbEntity
  8
0
100
AcDbCircle
 62
7
  6
CONTINUOUS
 10
-16.9
 20
24.7
 40
0.4
  0
CIRCLE
  5
688
100
AcDbEntity
  8
ASSI
100
AcDbCircle
 62
7
  6
CONTINUOUS
 10
-16.9
 20
27.2
 40
0.4
  0
CIRCLE
  5
689
100
AcDbEntity
  8
ASSI
100
AcDbCircle
 62
7
  6
CONTINUOUS
 10
-16.3
 20
26.0
 40
0.4
  0
CIRCLE
  5
68A
100
AcDbEntity
  8
0
100
AcDbCircle
 62
7
  6
CONTINUOUS
 10
-16.9
 20
27.2
 40
0.4
  0
CIRCLE
  5
68B
100
AcDbEntity
  8
0
100
AcDbCircle
 62
7
  6
CONTINUOUS
 10
-16.3
 20
26.0
 40
0.4
  0
CIRCLE
  5
68C
100
AcDbEntity
  8
ASSI
100
AcDbCircle
 62
7
  6
CONTINUOUS
 10
-15.7
 20
24.7
 40
0.4
  0
CIRCLE
  5
68D
100
AcDbEntity
  8
0
100
AcDbCircle
 62
7
  6
CONTINUOUS
 10
-15.7
 20
24.7
 40
0.4
  0
ARC
  5
68E
100
AcDbEntity
  8
0
100
AcDbCircle
 62
7
  6
CONTINUOUS
 10
-14.5
 20
24.7
 40
0.4
100
AcDbArc
 50
89.9997510533
 51
269.9998070209
  0
ARC
  5
68F
100
AcDbEntity
  8
ASSI
100
AcDbCircle
 62
7
  6
CONTINUOUS
 10
-14.5
 20
24.7
 40
0.4
100
AcDbArc
 50
89.9997510533
 51
269.9998070209
  0
CIRCLE
  5
690
100
AcDbEntity
  8
ASSI
100
AcDbCircle
 62
7
  6
CONTINUOUS
 10
-15.7
 20
27.2
 40
0.4
  0
CIRCLE
  5
691
100
AcDbEntity
  8
ASSI
100
AcDbCircle
 62
7
  6
CONTINUOUS
 10
-15.1
 20
26.0
 40
0.4
  0
CIRCLE
  5
692
100
AcDbEntity
  8
0
100
AcDbCircle
 62
7
  6
CONTINUOUS
 10
-15.7
 20
27.2
 40
0.4
  0
ARC
  5
693
100
AcDbEntity
  8
0
100
AcDbCircle
 62
7
  6
CONTINUOUS
 10
-14.5
 20
27.2
 40
0.4
100
AcDbArc
 50
89.9999124739
 51
269.9999241546
  0
CIRCLE
  5
694
100
AcDbEntity
  8
0
100
AcDbCircle
 62
7
  6
CONTINUOUS
 10
-15.1
 20
26.0
 40
0.4
  0
ARC
  5
695
100
AcDbEntity
  8
ASSI
100
AcDbCircle
 62
7
  6
CONTINUOUS
 10
-14.5
 20
27.2
 40
0.4
100
AcDbArc
 50
89.9999124739
 51
269.9999241546
  0
ARC
  5
696
100
AcDbEntity
  8
DRAFT
100
AcDbCircle
 62
7
  6
CONTINUOUS
 10
-8.0
 20
16.55
 40
2.9636970041
100
AcDbArc
 50
180.0
 51
270.0
  0
CIRCLE
  5
697
100
AcDbEntity
  8
ASSI
100
AcDbCircle
 62
7
  6
CONTINUOUS
 10
-19.3
 20
29.7
 40
0.4
  0
CIRCLE
  5
698
100
AcDbEntity
  8
ASSI
100
AcDbCircle
 62
7
  6
CONTINUOUS
 10
-19.9
 20
28.5
 40
0.4
  0
CIRCLE
  5
699
100
AcDbEntity
  8
0
100
AcDbCircle
 62
7
  6
CONTINUOUS
 10
-19.3
 20
29.7
 40
0.4
  0
CIRCLE
  5
69A
100
AcDbEntity
  8
0
100
AcDbCircle
 62
7
  6
CONTINUOUS
 10
-19.9
 20
28.5
 40
0.4
  0
CIRCLE
  5
69B
100
AcDbEntity
  8
ASSI
100
AcDbCircle
 62
7
  6
CONTINUOUS
 10
-19.9
 20
31.0
 40
0.4
  0
CIRCLE
  5
69C
100
AcDbEntity
  8
0
100
AcDbCircle
 62
7
  6
CONTINUOUS
 10
-19.9
 20
31.0
 40
0.4
  0
CIRCLE
  5
69D
100
AcDbEntity
  8
ASSI
100
AcDbCircle
 62
7
  6
CONTINUOUS
 10
-18.1
 20
29.7
 40
0.4
  0
CIRCLE
  5
69E
100
AcDbEntity
  8
ASSI
100
AcDbCircle
 62
7
  6
CONTINUOUS
 10
-18.7
 20
28.5
 40
0.4
  0
CIRCLE
  5
69F
100
AcDbEntity
  8
ASSI
100
AcDbCircle
 62
7
  6
CONTINUOUS
 10
-17.5
 20
28.5
 40
0.4
  0
CIRCLE
  5
6A0
100
AcDbEntity
  8
0
100
AcDbCircle
 62
7
  6
CONTINUOUS
 10
-18.1
 20
29.7
 40
0.4
  0
CIRCLE
  5
6A1
100
AcDbEntity
  8
0
100
AcDbCircle
 62
7
  6
CONTINUOUS
 10
-18.7
 20
28.5
 40
0.4
  0
CIRCLE
  5
6A2
100
AcDbEntity
  8
0
100
AcDbCircle
 62
7
  6
CONTINUOUS
 10
-17.5
 20
28.5
 40
0.4
  0
CIRCLE
  5
6A3
100
AcDbEntity
  8
ASSI
100
AcDbCircle
 62
7
  6
CONTINUOUS
 10
-18.7
 20
31.0
 40
0.4
  0
CIRCLE
  5
6A4
100
AcDbEntity
  8
ASSI
100
AcDbCircle
 62
7
  6
CONTINUOUS
 10
-17.5
 20
31.0
 40
0.4
  0
CIRCLE
  5
6A5
100
AcDbEntity
  8
0
100
AcDbCircle
 62
7
  6
CONTINUOUS
 10
-18.7
 20
31.0
 40
0.4
  0
CIRCLE
  5
6A6
100
AcDbEntity
  8
0
100
AcDbCircle
 62
7
  6
CONTINUOUS
 10
-17.5
 20
31.0
 40
0.4
  0
CIRCLE
  5
6A7
100
AcDbEntity
  8
ASSI
100
AcDbCircle
 62
7
  6
CONTINUOUS
 10
-19.3
 20
32.2
 40
0.4
  0
CIRCLE
  5
6A8
100
AcDbEntity
  8
0
100
AcDbCircle
 62
7
  6
CONTINUOUS
 10
-19.3
 20
32.2
 40
0.4
  0
CIRCLE
  5
6A9
100
AcDbEntity
  8
ASSI
100
AcDbCircle
 62
7
  6
CONTINUOUS
 10
-19.3
 20
34.7
 40
0.4
  0
CIRCLE
  5
6AA
100
AcDbEntity
  8
ASSI
100
AcDbCircle
 62
7
  6
CONTINUOUS
 10
-19.9
 20
33.5
 40
0.4
  0
CIRCLE
  5
6AB
100
AcDbEntity
  8
0
100
AcDbCircle
 62
7
  6
CONTINUOUS
 10
-19.3
 20
34.7
 40
0.4
  0
CIRCLE
  5
6AC
100
AcDbEntity
  8
0
100
AcDbCircle
 62
7
  6
CONTINUOUS
 10
-19.9
 20
33.5
 40
0.4
  0
CIRCLE
  5
6AD
100
AcDbEntity
  8
ASSI
100
AcDbCircle
 62
7
  6
CONTINUOUS
 10
-18.1
 20
32.2
 40
0.4
  0
CIRCLE
  5
6AE
100
AcDbEntity
  8
0
100
AcDbCircle
 62
7
  6
CONTINUOUS
 10
-18.1
 20
32.2
 40
0.4
  0
CIRCLE
  5
6AF
100
AcDbEntity
  8
ASSI
100
AcDbCircle
 62
7
  6
CONTINUOUS
 10
-18.1
 20
34.7
 40
0.4
  0
CIRCLE
  5
6B0
100
AcDbEntity
  8
ASSI
100
AcDbCircle
 62
7
  6
CONTINUOUS
 10
-18.7
 20
33.5
 40
0.4
  0
CIRCLE
  5
6B1
100
AcDbEntity
  8
ASSI
100
AcDbCircle
 62
7
  6
CONTINUOUS
 10
-17.5
 20
33.5
 40
0.4
  0
CIRCLE
  5
6B2
100
AcDbEntity
  8
0
100
AcDbCircle
 62
7
  6
CONTINUOUS
 10
-18.1
 20
34.7
 40
0.4
  0
CIRCLE
  5
6B3
100
AcDbEntity
  8
0
100
AcDbCircle
 62
7
  6
CONTINUOUS
 10
-18.7
 20
33.5
 40
0.4
  0
CIRCLE
  5
6B4
100
AcDbEntity
  8
0
100
AcDbCircle
 62
7
  6
CONTINUOUS
 10
-17.5
 20
33.5
 40
0.4
  0
CIRCLE
  5
6B5
100
AcDbEntity
  8
ASSI
100
AcDbCircle
 62
7
  6
CONTINUOUS
 10
-16.9
 20
29.7
 40
0.4
  0
CIRCLE
  5
6B6
100
AcDbEntity
  8
ASSI
100
AcDbCircle
 62
7
  6
CONTINUOUS
 10
-16.3
 20
28.5
 40
0.4
  0
CIRCLE
  5
6B7
100
AcDbEntity
  8
0
100
AcDbCircle
 62
7
  6
CONTINUOUS
 10
-16.9
 20
29.7
 40
0.4
  0
CIRCLE
  5
6B8
100
AcDbEntity
  8
0
100
AcDbCircle
 62
7
  6
CONTINUOUS
 10
-16.3
 20
28.5
 40
0.4
  0
CIRCLE
  5
6B9
100
AcDbEntity
  8
ASSI
100
AcDbCircle
 62
7
  6
CONTINUOUS
 10
-16.3
 20
31.0
 40
0.4
  0
CIRCLE
  5
6BA
100
AcDbEntity
  8
0
100
AcDbCircle
 62
7
  6
CONTINUOUS
 10
-16.3
 20
31.0
 40
0.4
  0
CIRCLE
  5
6BB
100
AcDbEntity
  8
ASSI
100
AcDbCircle
 62
7
  6
CONTINUOUS
 10
-15.7
 20
29.7
 40
0.4
  0
CIRCLE
  5
6BC
100
AcDbEntity
  8
ASSI
100
AcDbCircle
 62
7
  6
CONTINUOUS
 10
-15.1
 20
28.5
 40
0.4
  0
CIRCLE
  5
6BD
100
AcDbEntity
  8
0
100
AcDbCircle
 62
7
  6
CONTINUOUS
 10
-15.7
 20
29.7
 40
0.4
  0
ARC
  5
6BE
100
AcDbEntity
  8
0
100
AcDbCircle
 62
7
  6
CONTINUOUS
 10
-14.5
 20
29.7
 40
0.4
100
AcDbArc
 50
90.0002050251
 51
270.0002059095
  0
CIRCLE
  5
6BF
100
AcDbEntity
  8
0
100
AcDbCircle
 62
7
  6
CONTINUOUS
 10
-15.1
 20
28.5
 40
0.4
  0
ARC
  5
6C0
100
AcDbEntity
  8
ASSI
100
AcDbCircle
 62
7
  6
CONTINUOUS
 10
-14.5
 20
29.7
 40
0.4
100
AcDbArc
 50
90.0002050251
 51
270.0002059095
  0
CIRCLE
  5
6C1
100
AcDbEntity
  8
ASSI
100
AcDbCircle
 62
7
  6
CONTINUOUS
 10
-15.1
 20
31.0
 40
0.4
  0
CIRCLE
  5
6C2
100
AcDbEntity
  8
0
100
AcDbCircle
 62
7
  6
CONTINUOUS
 10
-15.1
 20
31.0
 40
0.4
  0
CIRCLE
  5
6C3
100
AcDbEntity
  8
ASSI
100
AcDbCircle
 62
7
  6
CONTINUOUS
 10
-16.9
 20
32.2
 40
0.4
  0
CIRCLE
  5
6C4
100
AcDbEntity
  8
0
100
AcDbCircle
 62
7
  6
CONTINUOUS
 10
-16.9
 20
32.2
 40
0.4
  0
CIRCLE
  5
6C5
100
AcDbEntity
  8
ASSI
100
AcDbCircle
 62
7
  6
CONTINUOUS
 10
-16.9
 20
34.7
 40
0.4
  0
CIRCLE
  5
6C6
100
AcDbEntity
  8
ASSI
100
AcDbCircle
 62
7
  6
CONTINUOUS
 10
-16.3
 20
33.5
 40
0.4
  0
CIRCLE
  5
6C7
100
AcDbEntity
  8
0
100
AcDbCircle
 62
7
  6
CONTINUOUS
 10
-16.9
 20
34.7
 40
0.4
  0
CIRCLE
  5
6C8
100
AcDbEntity
  8
0
100
AcDbCircle
 62
7
  6
CONTINUOUS
 10
-16.3
 20
33.5
 40
0.4
  0
CIRCLE
  5
6C9
100
AcDbEntity
  8
ASSI
100
AcDbCircle
 62
7
  6
CONTINUOUS
 10
-15.7
 20
32.2
 40
0.4
  0
CIRCLE
  5
6CA
100
AcDbEntity
  8
0
100
AcDbCircle
 62
7
  6
CONTINUOUS
 10
-15.7
 20
32.2
 40
0.4
  0
ARC
  5
6CB
100
AcDbEntity
  8
0
100
AcDbCircle
 62
7
  6
CONTINUOUS
 10
-14.5
 20
32.2
 40
0.4
100
AcDbArc
 50
90.0008402417
 51
270.0007107338
  0
ARC
  5
6CC
100
AcDbEntity
  8
ASSI
100
AcDbCircle
 62
7
  6
CONTINUOUS
 10
-14.5
 20
32.2
 40
0.4
100
AcDbArc
 50
90.0008402417
 51
270.0007107338
  0
CIRCLE
  5
6CD
100
AcDbEntity
  8
ASSI
100
AcDbCircle
 62
7
  6
CONTINUOUS
 10
-15.7
 20
34.7
 40
0.4
  0
CIRCLE
  5
6CE
100
AcDbEntity
  8
ASSI
100
AcDbCircle
 62
7
  6
CONTINUOUS
 10
-15.1
 20
33.5
 40
0.4
  0
CIRCLE
  5
6CF
100
AcDbEntity
  8
0
100
AcDbCircle
 62
7
  6
CONTINUOUS
 10
-15.7
 20
34.7
 40
0.4
  0
ARC
  5
6D0
100
AcDbEntity
  8
0
100
AcDbCircle
 62
7
  6
CONTINUOUS
 10
-14.5
 20
34.7
 40
0.4
100
AcDbArc
 50
90.0017032072
 51
270.0014752935
  0
CIRCLE
  5
6D1
100
AcDbEntity
  8
0
100
AcDbCircle
 62
7
  6
CONTINUOUS
 10
-15.1
 20
33.5
 40
0.4
  0
ARC
  5
6D2
100
AcDbEntity
  8
ASSI
100
AcDbCircle
 62
7
  6
CONTINUOUS
 10
-14.5
 20
34.7
 40
0.4
100
AcDbArc
 50
90.0017032072
 51
270.0014752935
  0
CIRCLE
  5
6D3
100
AcDbEntity
  8
ASSI
100
AcDbCircle
 62
7
  6
CONTINUOUS
 10
-19.3
 20
37.2
 40
0.4
  0
CIRCLE
  5
6D4
100
AcDbEntity
  8
ASSI
100
AcDbCircle
 62
7
  6
CONTINUOUS
 10
-18.1
 20
37.2
 40
0.4
  0
CIRCLE
  5
6D5
100
AcDbEntity
  8
ASSI
100
AcDbCircle
 62
7
  6
CONTINUOUS
 10
-19.9
 20
36.0
 40
0.4
  0
CIRCLE
  5
6D6
100
AcDbEntity
  8
ASSI
100
AcDbCircle
 62
7
  6
CONTINUOUS
 10
-18.7
 20
36.0
 40
0.4
  0
CIRCLE
  5
6D7
100
AcDbEntity
  8
ASSI
100
AcDbCircle
 62
7
  6
CONTINUOUS
 10
-17.5
 20
36.0
 40
0.4
  0
CIRCLE
  5
6D8
100
AcDbEntity
  8
0
100
AcDbCircle
 62
7
  6
CONTINUOUS
 10
-19.3
 20
37.2
 40
0.4
  0
CIRCLE
  5
6D9
100
AcDbEntity
  8
0
100
AcDbCircle
 62
7
  6
CONTINUOUS
 10
-18.1
 20
37.2
 40
0.4
  0
CIRCLE
  5
6DA
100
AcDbEntity
  8
0
100
AcDbCircle
 62
7
  6
CONTINUOUS
 10
-19.9
 20
36.0
 40
0.4
  0
CIRCLE
  5
6DB
100
AcDbEntity
  8
0
100
AcDbCircle
 62
7
  6
CONTINUOUS
 10
-18.7
 20
36.0
 40
0.4
  0
CIRCLE
  5
6DC
100
AcDbEntity
  8
0
100
AcDbCircle
 62
7
  6
CONTINUOUS
 10
-17.5
 20
36.0
 40
0.4
  0
CIRCLE
  5
6DD
100
AcDbEntity
  8
ASSI
100
AcDbCircle
 62
7
  6
CONTINUOUS
 10
-19.3
 20
39.7
 40
0.4
  0
CIRCLE
  5
6DE
100
AcDbEntity
  8
ASSI
100
AcDbCircle
 62
7
  6
CONTINUOUS
 10
-19.9
 20
38.5
 40
0.4
  0
CIRCLE
  5
6DF
100
AcDbEntity
  8
0
100
AcDbCircle
 62
7
  6
CONTINUOUS
 10
-19.3
 20
39.7
 40
0.4
  0
CIRCLE
  5
6E0
100
AcDbEntity
  8
0
100
AcDbCircle
 62
7
  6
CONTINUOUS
 10
-19.9
 20
38.5
 40
0.4
  0
ARC
  5
6E1
100
AcDbEntity
  8
0
100
AcDbCircle
 62
7
  6
CONTINUOUS
 10
-19.9
 20
41.0
 40
0.4
100
AcDbArc
 50
111.1613240371
 51
68.7306504058
  0
ARC
  5
6E2
100
AcDbEntity
  8
ASSI
100
AcDbCircle
 62
7
  6
CONTINUOUS
 10
-19.9
 20
41.0
 40
0.4
100
AcDbArc
 50
111.1613240371
 51
68.7306504058
  0
CIRCLE
  5
6E3
100
AcDbEntity
  8
ASSI
100
AcDbCircle
 62
7
  6
CONTINUOUS
 10
-18.1
 20
39.7
 40
0.4
  0
CIRCLE
  5
6E4
100
AcDbEntity
  8
ASSI
100
AcDbCircle
 62
7
  6
CONTINUOUS
 10
-18.7
 20
38.5
 40
0.4
  0
CIRCLE
  5
6E5
100
AcDbEntity
  8
ASSI
100
AcDbCircle
 62
7
  6
CONTINUOUS
 10
-17.5
 20
38.5
 40
0.4
  0
CIRCLE
  5
6E6
100
AcDbEntity
  8
0
100
AcDbCircle
 62
7
  6
CONTINUOUS
 10
-18.1
 20
39.7
 40
0.4
  0
CIRCLE
  5
6E7
100
AcDbEntity
  8
0
100
AcDbCircle
 62
7
  6
CONTINUOUS
 10
-18.7
 20
38.5
 40
0.4
  0
CIRCLE
  5
6E8
100
AcDbEntity
  8
0
100
AcDbCircle
 62
7
  6
CONTINUOUS
 10
-17.5
 20
38.5
 40
0.4
  0
ARC
  5
6E9
100
AcDbEntity
  8
0
100
AcDbCircle
 62
7
  6
CONTINUOUS
 10
-18.7
 20
41.0
 40
0.4
100
AcDbArc
 50
349.0932520273
 51
10.8559334145
  0
ARC
  5
6EA
100
AcDbEntity
  8
0
100
AcDbCircle
 62
7
  6
CONTINUOUS
 10
-17.5
 20
41.0
 40
0.4
100
AcDbArc
 50
112.2734604924
 51
67.5306635293
  0
ARC
  5
6EB
100
AcDbEntity
  8
ASSI
100
AcDbCircle
 62
7
  6
CONTINUOUS
 10
-18.7
 20
41.0
 40
0.4
100
AcDbArc
 50
349.0932520273
 51
10.8559334145
  0
ARC
  5
6EC
100
AcDbEntity
  8
ASSI
100
AcDbCircle
 62
7
  6
CONTINUOUS
 10
-17.5
 20
41.0
 40
0.4
100
AcDbArc
 50
112.2734604924
 51
67.5306635293
  0
CIRCLE
  5
6ED
100
AcDbEntity
  8
ASSI
100
AcDbCircle
 62
7
  6
CONTINUOUS
 10
-16.9
 20
37.2
 40
0.4
  0
CIRCLE
  5
6EE
100
AcDbEntity
  8
ASSI
100
AcDbCircle
 62
7
  6
CONTINUOUS
 10
-15.7
 20
37.2
 40
0.4
  0
CIRCLE
  5
6EF
100
AcDbEntity
  8
ASSI
100
AcDbCircle
 62
7
  6
CONTINUOUS
 10
-16.3
 20
36.0
 40
0.4
  0
CIRCLE
  5
6F0
100
AcDbEntity
  8
ASSI
100
AcDbCircle
 62
7
  6
CONTINUOUS
 10
-15.1
 20
36.0
 40
0.4
  0
CIRCLE
  5
6F1
100
AcDbEntity
  8
0
100
AcDbCircle
 62
7
  6
CONTINUOUS
 10
-16.9
 20
37.2
 40
0.4
  0
CIRCLE
  5
6F2
100
AcDbEntity
  8
0
100
AcDbCircle
 62
7
  6
CONTINUOUS
 10
-15.7
 20
37.2
 40
0.4
  0
ARC
  5
6F3
100
AcDbEntity
  8
0
100
AcDbCircle
 62
7
  6
CONTINUOUS
 10
-14.5
 20
37.2
 40
0.4
100
AcDbArc
 50
90.0026477778
 51
270.0023559509
  0
CIRCLE
  5
6F4
100
AcDbEntity
  8
0
100
AcDbCircle
 62
7
  6
CONTINUOUS
 10
-16.3
 20
36.0
 40
0.4
  0
CIRCLE
  5
6F5
100
AcDbEntity
  8
0
100
AcDbCircle
 62
7
  6
CONTINUOUS
 10
-15.1
 20
36.0
 40
0.4
  0
ARC
  5
6F6
100
AcDbEntity
  8
ASSI
100
AcDbCircle
 62
7
  6
CONTINUOUS
 10
-14.5
 20
37.2
 40
0.4
100
AcDbArc
 50
90.0026477778
 51
270.0023559509
  0
CIRCLE
  5
6F7
100
AcDbEntity
  8
ASSI
100
AcDbCircle
 62
7
  6
CONTINUOUS
 10
-16.9
 20
39.7
 40
0.4
  0
CIRCLE
  5
6F8
100
AcDbEntity
  8
ASSI
100
AcDbCircle
 62
7
  6
CONTINUOUS
 10
-16.3
 20
38.5
 40
0.4
  0
CIRCLE
  5
6F9
100
AcDbEntity
  8
0
100
AcDbCircle
 62
7
  6
CONTINUOUS
 10
-16.9
 20
39.7
 40
0.4
  0
CIRCLE
  5
6FA
100
AcDbEntity
  8
0
100
AcDbCircle
 62
7
  6
CONTINUOUS
 10
-16.3
 20
38.5
 40
0.4
  0
ARC
  5
6FB
100
AcDbEntity
  8
0
100
AcDbCircle
 62
7
  6
CONTINUOUS
 10
-16.3
 20
41.0
 40
0.4
100
AcDbArc
 50
112.7274473767
 51
67.0460706604
  0
ARC
  5
6FC
100
AcDbEntity
  8
ASSI
100
AcDbCircle
 62
7
  6
CONTINUOUS
 10
-16.3
 20
41.0
 40
0.4
100
AcDbArc
 50
112.7274473767
 51
67.0460706604
  0
CIRCLE
  5
6FD
100
AcDbEntity
  8
ASSI
100
AcDbCircle
 62
7
  6
CONTINUOUS
 10
-15.7
 20
39.7
 40
0.4
  0
CIRCLE
  5
6FE
100
AcDbEntity
  8
ASSI
100
AcDbCircle
 62
7
  6
CONTINUOUS
 10
-15.1
 20
38.5
 40
0.4
  0
CIRCLE
  5
6FF
100
AcDbEntity
  8
0
100
AcDbCircle
 62
7
  6
CONTINUOUS
 10
-15.7
 20
39.7
 40
0.4
  0
ARC
  5
700
100
AcDbEntity
  8
0
100
AcDbCircle
 62
7
  6
CONTINUOUS
 10
-14.5
 20
39.7
 40
0.4
100
AcDbArc
 50
90.0031447591
 51
270.0029336524
  0
CIRCLE
  5
701
100
AcDbEntity
  8
0
100
AcDbCircle
 62
7
  6
CONTINUOUS
 10
-15.1
 20
38.5
 40
0.4
  0
ARC
  5
702
100
AcDbEntity
  8
ASSI
100
AcDbCircle
 62
7
  6
CONTINUOUS
 10
-14.5
 20
39.7
 40
0.4
100
AcDbArc
 50
90.0031447591
 51
270.0029336524
  0
ARC
  5
703
100
AcDbEntity
  8
0
100
AcDbCircle
 62
7
  6
CONTINUOUS
 10
-15.1
 20
41.0
 40
0.4
100
AcDbArc
 50
113.1570639511
 51
66.622805482
  0
ARC
  5
704
100
AcDbEntity
  8
ASSI
100
AcDbCircle
 62
7
  6
CONTINUOUS
 10
-15.1
 20
41.0
 40
0.4
100
AcDbArc
 50
113.1570639511
 51
66.622805482
  0
ARC
  5
705
100
AcDbEntity
  8
DRAFT
100
AcDbCircle
 62
7
  6
CONTINUOUS
 10
-8.0
 20
38.45
 40
2.9636970041
100
AcDbArc
 50
90.0
 51
180.0
  0
ARC
  5
706
100
AcDbEntity
  8
IMPORT_IGES
100
AcDbCircle
 62
7
  6
CONTINUOUS
 10
2.9383475711
 20
-24.3748872041
 40
0.1999428872
100
AcDbArc
 50
53.4941597583
 51
180.0172342372
  0
ARC
  5
707
100
AcDbEntity
  8
IMPORT_IGES
100
AcDbCircle
 62
7
  6
CONTINUOUS
 10
2.9383475711
 20
-30.8748872041
 40
0.1999428872
100
AcDbArc
 50
53.494159766
 51
180.017234245
  0
ARC
  5
708
100
AcDbEntity
  8
IMPORT_IGES
100
AcDbCircle
 62
7
  6
CONTINUOUS
 10
2.9383475711
 20
-4.8748872041
 40
0.1999428872
100
AcDbArc
 50
53.494159767
 51
180.0172342359
  0
ARC
  5
709
100
AcDbEntity
  8
IMPORT_IGES
100
AcDbCircle
 62
7
  6
CONTINUOUS
 10
2.9383475711
 20
-11.3748872041
 40
0.1999428872
100
AcDbArc
 50
53.4941597583
 51
180.0172342372
  0
ARC
  5
70A
100
AcDbEntity
  8
IMPORT_IGES
100
AcDbCircle
 62
7
  6
CONTINUOUS
 10
2.9383475711
 20
-17.8748872041
 40
0.1999428872
100
AcDbArc
 50
53.4941597583
 51
180.0172342372
  0
ARC
  5
70B
100
AcDbEntity
  8
RACCORDO
100
AcDbCircle
 62
250
  6
CONTINUOUS
 10
29.8
 20
-43.45
 40
1.1982622421
100
AcDbArc
 50
37.4661333189
 51
48.7280438066
  0
ARC
  5
70C
100
AcDbEntity
  8
RACCORDO
100
AcDbCircle
 62
250
  6
CONTINUOUS
 10
29.8
 20
-43.45
 40
1.1982622421
100
AcDbArc
 50
286.1171272082
 51
322.5339463793
  0
ARC
  5
70D
100
AcDbEntity
  8
RACCORDO
100
AcDbCircle
 62
250
  6
CONTINUOUS
 10
23.4
 20
-43.45
 40
1.1982622421
100
AcDbArc
 50
224.7291292689
 51
253.8821471137
  0
ARC
  5
70E
100
AcDbEntity
  8
RACCORDO
100
AcDbCircle
 62
250
  6
CONTINUOUS
 10
23.4
 20
-43.45
 40
1.1982622421
100
AcDbArc
 50
131.8264248909
 51
135.2708177448
  0
CIRCLE
  5
70F
100
AcDbEntity
  8
IMPORT_IGES
100
AcDbCircle
 62
7
  6
CONTINUOUS
 10
20.6
 20
-43.45
 40
1.0
  0
ARC
  5
710
100
AcDbEntity
  8
RACCORDO
100
AcDbCircle
 62
7
  6
CONTINUOUS
 10
23.4
 20
-43.45
 40
0.9982698575
100
AcDbArc
 50
211.5181806483
 51
270.0
  0
ARC
  5
711
100
AcDbEntity
  8
RACCORDO
100
AcDbCircle
 62
7
  6
CONTINUOUS
 10
23.4
 20
-43.45
 40
0.9982698575
100
AcDbArc
 50
115.5192816461
 51
148.4818282997
  0
ARC
  5
712
100
AcDbEntity
  8
RACCORDO
100
AcDbCircle
 62
7
  6
CONTINUOUS
 10
29.8
 20
-43.45
 40
0.9982698575
100
AcDbArc
 50
17.7298704143
 51
64.4807020505
  0
ARC
  5
713
100
AcDbEntity
  8
RACCORDO
100
AcDbCircle
 62
7
  6
CONTINUOUS
 10
29.8
 20
-43.45
 40
0.9982698575
100
AcDbArc
 50
270.0
 51
342.2701522079
  0
CIRCLE
  5
714
100
AcDbEntity
  8
RACCORDO
100
AcDbCircle
 62
7
  6
CONTINUOUS
 10
20.6
 20
-43.45
 40
0.987767154
  0
ARC
  5
715
100
AcDbEntity
  8
RACCORDO
100
AcDbCircle
 62
7
  6
CONTINUOUS
 10
29.8
 20
-43.45
 40
0.940657299
100
AcDbArc
 50
331.047130652
 51
28.952869348
  0
CIRCLE
  5
716
100
AcDbEntity
  8
IMPORT_IGES
100
AcDbCircle
 62
7
  6
CONTINUOUS
 10
32.475
 20
-43.45
 40
0.9
  0
CIRCLE
  5
717
100
AcDbEntity
  8
RACCORDO
100
AcDbCircle
 62
250
  6
CONTINUOUS
 10
20.6
 20
-43.45
 40
0.7877747694
  0
CIRCLE
  5
718
100
AcDbEntity
  8
DRAFT
100
AcDbCircle
 62
7
  6
CONTINUOUS
 10
32.6
 20
-43.45
 40
0.75
  0
CIRCLE
  5
719
100
AcDbEntity
  8
RACCORDO
100
AcDbCircle
 62
7
  6
CONTINUOUS
 10
32.6
 20
-43.45
 40
0.737767154
  0
CIRCLE
  5
71A
100
AcDbEntity
  8
RACCORDO
100
AcDbCircle
 62
250
  6
CONTINUOUS
 10
32.6
 20
-43.45
 40
0.5377747694
  0
ARC
  5
71B
100
AcDbEntity
  8
DRAFT
100
AcDbCircle
 62
7
  6
CONTINUOUS
 10
8.0
 20
16.55
 40
2.9636970041
100
AcDbArc
 50
270.0
 51
360.0
  0
CIRCLE
  5
71C
100
AcDbEntity
  8
ASSI
100
AcDbCircle
 62
7
  6
CONTINUOUS
 10
16.9
 20
14.7
 40
0.4
  0
CIRCLE
  5
71D
100
AcDbEntity
  8
ASSI
100
AcDbCircle
 62
7
  6
CONTINUOUS
 10
16.3
 20
16.0
 40
0.4
  0
CIRCLE
  5
71E
100
AcDbEntity
  8
ASSI
100
AcDbCircle
 62
7
  6
CONTINUOUS
 10
15.7
 20
14.7
 40
0.4
  0
CIRCLE
  5
71F
100
AcDbEntity
  8
ASSI
100
AcDbCircle
 62
7
  6
CONTINUOUS
 10
15.1
 20
16.0
 40
0.4
  0
CIRCLE
  5
720
100
AcDbEntity
  8
0
100
AcDbCircle
 62
7
  6
CONTINUOUS
 10
16.9
 20
14.7
 40
0.4
  0
CIRCLE
  5
721
100
AcDbEntity
  8
0
100
AcDbCircle
 62
7
  6
CONTINUOUS
 10
16.3
 20
16.0
 40
0.4
  0
CIRCLE
  5
722
100
AcDbEntity
  8
0
100
AcDbCircle
 62
7
  6
CONTINUOUS
 10
15.7
 20
14.7
 40
0.4
  0
CIRCLE
  5
723
100
AcDbEntity
  8
0
100
AcDbCircle
 62
7
  6
CONTINUOUS
 10
15.1
 20
16.0
 40
0.4
  0
ARC
  5
724
100
AcDbEntity
  8
0
100
AcDbCircle
 62
7
  6
CONTINUOUS
 10
14.5
 20
14.7
 40
0.4
100
AcDbArc
 50
269.9990126949
 51
89.9991483619
  0
ARC
  5
725
100
AcDbEntity
  8
0
100
AcDbCircle
 62
7
  6
CONTINUOUS
 10
16.3
 20
13.5
 40
0.4
100
AcDbArc
 50
4.4698419548
 51
175.4127207279
  0
ARC
  5
726
100
AcDbEntity
  8
0
100
AcDbCircle
 62
7
  6
CONTINUOUS
 10
15.1
 20
13.5
 40
0.4
100
AcDbArc
 50
4.6448166296
 51
175.2440965487
  0
ARC
  5
727
100
AcDbEntity
  8
ASSI
100
AcDbCircle
 62
7
  6
CONTINUOUS
 10
14.5
 20
14.7
 40
0.4
100
AcDbArc
 50
269.9990126949
 51
89.9991483619
  0
ARC
  5
728
100
AcDbEntity
  8
ASSI
100
AcDbCircle
 62
7
  6
CONTINUOUS
 10
16.3
 20
13.5
 40
0.4
100
AcDbArc
 50
4.4698419548
 51
175.4127207279
  0
ARC
  5
729
100
AcDbEntity
  8
ASSI
100
AcDbCircle
 62
7
  6
CONTINUOUS
 10
15.1
 20
13.5
 40
0.4
100
AcDbArc
 50
4.6448166296
 51
175.2440965487
  0
ARC
  5
72A
100
AcDbEntity
  8
0
100
AcDbCircle
 62
7
  6
CONTINUOUS
 10
14.5
 20
17.2
 40
0.4
100
AcDbArc
 50
269.9995600693
 51
89.9996909479
  0
ARC
  5
72B
100
AcDbEntity
  8
ASSI
100
AcDbCircle
 62
7
  6
CONTINUOUS
 10
14.5
 20
17.2
 40
0.4
100
AcDbArc
 50
269.9995600693
 51
89.9996909479
  0
CIRCLE
  5
72C
100
AcDbEntity
  8
ASSI
100
AcDbCircle
 62
7
  6
CONTINUOUS
 10
15.1
 20
18.5
 40
0.4
  0
ARC
  5
72D
100
AcDbEntity
  8
0
100
AcDbCircle
 62
7
  6
CONTINUOUS
 10
14.5
 20
19.7
 40
0.4
100
AcDbArc
 50
269.9999405407
 51
90.000051015
  0
CIRCLE
  5
72E
100
AcDbEntity
  8
0
100
AcDbCircle
 62
7
  6
CONTINUOUS
 10
15.1
 20
18.5
 40
0.4
  0
ARC
  5
72F
100
AcDbEntity
  8
ASSI
100
AcDbCircle
 62
7
  6
CONTINUOUS
 10
14.5
 20
19.7
 40
0.4
100
AcDbArc
 50
269.9999405407
 51
90.000051015
  0
CIRCLE
  5
730
100
AcDbEntity
  8
ASSI
100
AcDbCircle
 62
7
  6
CONTINUOUS
 10
16.9
 20
17.2
 40
0.4
  0
CIRCLE
  5
731
100
AcDbEntity
  8
ASSI
100
AcDbCircle
 62
7
  6
CONTINUOUS
 10
15.7
 20
17.2
 40
0.4
  0
CIRCLE
  5
732
100
AcDbEntity
  8
0
100
AcDbCircle
 62
7
  6
CONTINUOUS
 10
16.9
 20
17.2
 40
0.4
  0
CIRCLE
  5
733
100
AcDbEntity
  8
0
100
AcDbCircle
 62
7
  6
CONTINUOUS
 10
15.7
 20
17.2
 40
0.4
  0
CIRCLE
  5
734
100
AcDbEntity
  8
ASSI
100
AcDbCircle
 62
7
  6
CONTINUOUS
 10
16.9
 20
19.7
 40
0.4
  0
CIRCLE
  5
735
100
AcDbEntity
  8
ASSI
100
AcDbCircle
 62
7
  6
CONTINUOUS
 10
15.7
 20
19.7
 40
0.4
  0
CIRCLE
  5
736
100
AcDbEntity
  8
ASSI
100
AcDbCircle
 62
7
  6
CONTINUOUS
 10
16.3
 20
18.5
 40
0.4
  0
CIRCLE
  5
737
100
AcDbEntity
  8
0
100
AcDbCircle
 62
7
  6
CONTINUOUS
 10
16.9
 20
19.7
 40
0.4
  0
CIRCLE
  5
738
100
AcDbEntity
  8
0
100
AcDbCircle
 62
7
  6
CONTINUOUS
 10
15.7
 20
19.7
 40
0.4
  0
CIRCLE
  5
739
100
AcDbEntity
  8
0
100
AcDbCircle
 62
7
  6
CONTINUOUS
 10
16.3
 20
18.5
 40
0.4
  0
ARC
  5
73A
100
AcDbEntity
  8
DRAFT
100
AcDbCircle
 62
7
  6
CONTINUOUS
 10
17.665184979
 20
13.6877554854
 40
49.843984469
100
AcDbArc
 50
148.3892481025
 51
153.6896927108
  0
ARC
  5
73B
100
AcDbEntity
  8
DRAFT
100
AcDbCircle
 62
7
  6
CONTINUOUS
 10
17.649248541
 20
13.6986879984
 40
49.8258009155
100
AcDbArc
 50
173.9777616888
 51
178.5170736035
  0
ARC
  5
73C
100
AcDbEntity
  8
DRAFT
100
AcDbCircle
 62
7
  6
CONTINUOUS
 10
17.6422907273
 20
13.6977879137
 40
49.8189916511
100
AcDbArc
 50
155.040370574
 51
172.7625864233
  0
ARC
  5
73D
100
AcDbEntity
  8
DRAFT
100
AcDbCircle
 62
7
  6
CONTINUOUS
 10
17.6391527786
 20
13.6881618394
 40
49.7839565692
100
AcDbArc
 50
148.3739179779
 51
153.6393947615
  0
ARC
  5
73E
100
AcDbEntity
  8
DRAFT
100
AcDbCircle
 62
7
  6
CONTINUOUS
 10
17.6353319256
 20
13.6910431153
 40
49.7793097134
100
AcDbArc
 50
159.6773197071
 51
162.6962598278
  0
ARC
  5
73F
100
AcDbEntity
  8
DRAFT
100
AcDbCircle
 62
7
  6
CONTINUOUS
 10
17.6340561948
 20
13.6910286659
 40
49.7781227767
100
AcDbArc
 50
156.4888858651
 51
158.1391764511
  0
ARC
  5
740
100
AcDbEntity
  8
DRAFT
100
AcDbCircle
 62
7
  6
CONTINUOUS
 10
17.6339739397
 20
13.695144495
 40
49.7772180424
100
AcDbArc
 50
174.0005126212
 51
178.512539218
  0
ARC
  5
741
100
AcDbEntity
  8
DRAFT
100
AcDbCircle
 62
7
  6
CONTINUOUS
 10
17.6312027891
 20
13.6921918722
 40
49.7750422188
100
AcDbArc
 50
155.0389469031
 51
156.4888033773
  0
ARC
  5
742
100
AcDbEntity
  8
DRAFT
100
AcDbCircle
 62
7
  6
CONTINUOUS
 10
17.6299232067
 20
13.6927969672
 40
49.7736285547
100
AcDbArc
 50
158.1392941113
 51
159.6770505643
  0
ARC
  5
743
100
AcDbEntity
  8
DRAFT
100
AcDbCircle
 62
7
  6
CONTINUOUS
 10
17.6272879669
 20
13.6944803952
 40
49.7706547254
100
AcDbArc
 50
168.6222660208
 51
171.5410029191
  0
ARC
  5
744
100
AcDbEntity
  8
DRAFT
100
AcDbCircle
 62
7
  6
CONTINUOUS
 10
17.6239008421
 20
13.6952364582
 40
49.7671932304
100
AcDbArc
 50
171.5412902621
 51
172.7211108966
  0
ARC
  5
745
100
AcDbEntity
  8
DRAFT
100
AcDbCircle
 62
7
  6
CONTINUOUS
 10
17.6216611539
 20
13.6953880298
 40
49.7649594367
100
AcDbArc
 50
162.6964901558
 51
168.6220124528
  0
CIRCLE
  5
746
100
AcDbEntity
  8
ASSI
100
AcDbCircle
 62
7
  6
CONTINUOUS
 10
18.1
 20
14.7
 40
0.4
  0
CIRCLE
  5
747
100
AcDbEntity
  8
0
100
AcDbCircle
 62
7
  6
CONTINUOUS
 10
18.1
 20
14.7
 40
0.4
  0
ARC
  5
748
100
AcDbEntity
  8
0
100
AcDbCircle
 62
7
  6
CONTINUOUS
 10
17.5
 20
13.5
 40
0.4
100
AcDbArc
 50
4.2809745011
 51
175.5947531963
  0
ARC
  5
749
100
AcDbEntity
  8
ASSI
100
AcDbCircle
 62
7
  6
CONTINUOUS
 10
17.5
 20
13.5
 40
0.4
100
AcDbArc
 50
4.2809745011
 51
175.5947531963
  0
CIRCLE
  5
74A
100
AcDbEntity
  8
ASSI
100
AcDbCircle
 62
7
  6
CONTINUOUS
 10
17.5
 20
16.0
 40
0.4
  0
CIRCLE
  5
74B
100
AcDbEntity
  8
0
100
AcDbCircle
 62
7
  6
CONTINUOUS
 10
17.5
 20
16.0
 40
0.4
  0
CIRCLE
  5
74C
100
AcDbEntity
  8
ASSI
100
AcDbCircle
 62
7
  6
CONTINUOUS
 10
19.3
 20
14.7
 40
0.4
  0
CIRCLE
  5
74D
100
AcDbEntity
  8
0
100
AcDbCircle
 62
7
  6
CONTINUOUS
 10
19.3
 20
14.7
 40
0.4
  0
ARC
  5
74E
100
AcDbEntity
  8
0
100
AcDbCircle
 62
7
  6
CONTINUOUS
 10
19.9
 20
13.5
 40
0.4
100
AcDbArc
 50
3.8597618926
 51
175.9964380718
  0
ARC
  5
74F
100
AcDbEntity
  8
0
100
AcDbCircle
 62
7
  6
CONTINUOUS
 10
18.7
 20
13.5
 40
0.4
100
AcDbArc
 50
4.0754598871
 51
175.7868395754
  0
ARC
  5
750
100
AcDbEntity
  8
ASSI
100
AcDbCircle
 62
7
  6
CONTINUOUS
 10
19.9
 20
13.5
 40
0.4
100
AcDbArc
 50
3.8597618926
 51
175.9964380718
  0
ARC
  5
751
100
AcDbEntity
  8
ASSI
100
AcDbCircle
 62
7
  6
CONTINUOUS
 10
18.7
 20
13.5
 40
0.4
100
AcDbArc
 50
4.0754598871
 51
175.7868395754
  0
CIRCLE
  5
752
100
AcDbEntity
  8
ASSI
100
AcDbCircle
 62
7
  6
CONTINUOUS
 10
19.9
 20
16.0
 40
0.4
  0
CIRCLE
  5
753
100
AcDbEntity
  8
ASSI
100
AcDbCircle
 62
7
  6
CONTINUOUS
 10
18.7
 20
16.0
 40
0.4
  0
CIRCLE
  5
754
100
AcDbEntity
  8
0
100
AcDbCircle
 62
7
  6
CONTINUOUS
 10
19.9
 20
16.0
 40
0.4
  0
CIRCLE
  5
755
100
AcDbEntity
  8
0
100
AcDbCircle
 62
7
  6
CONTINUOUS
 10
18.7
 20
16.0
 40
0.4
  0
CIRCLE
  5
756
100
AcDbEntity
  8
ASSI
100
AcDbCircle
 62
7
  6
CONTINUOUS
 10
18.1
 20
17.2
 40
0.4
  0
CIRCLE
  5
757
100
AcDbEntity
  8
0
100
AcDbCircle
 62
7
  6
CONTINUOUS
 10
18.1
 20
17.2
 40
0.4
  0
CIRCLE
  5
758
100
AcDbEntity
  8
ASSI
100
AcDbCircle
 62
7
  6
CONTINUOUS
 10
18.1
 20
19.7
 40
0.4
  0
CIRCLE
  5
759
100
AcDbEntity
  8
ASSI
100
AcDbCircle
 62
7
  6
CONTINUOUS
 10
17.5
 20
18.5
 40
0.4
  0
CIRCLE
  5
75A
100
AcDbEntity
  8
0
100
AcDbCircle
 62
7
  6
CONTINUOUS
 10
18.1
 20
19.7
 40
0.4
  0
CIRCLE
  5
75B
100
AcDbEntity
  8
0
100
AcDbCircle
 62
7
  6
CONTINUOUS
 10
17.5
 20
18.5
 40
0.4
  0
CIRCLE
  5
75C
100
AcDbEntity
  8
ASSI
100
AcDbCircle
 62
7
  6
CONTINUOUS
 10
19.3
 20
17.2
 40
0.4
  0
CIRCLE
  5
75D
100
AcDbEntity
  8
0
100
AcDbCircle
 62
7
  6
CONTINUOUS
 10
19.3
 20
17.2
 40
0.4
  0
CIRCLE
  5
75E
100
AcDbEntity
  8
ASSI
100
AcDbCircle
 62
7
  6
CONTINUOUS
 10
19.3
 20
19.7
 40
0.4
  0
CIRCLE
  5
75F
100
AcDbEntity
  8
ASSI
100
AcDbCircle
 62
7
  6
CONTINUOUS
 10
19.9
 20
18.5
 40
0.4
  0
CIRCLE
  5
760
100
AcDbEntity
  8
ASSI
100
AcDbCircle
 62
7
  6
CONTINUOUS
 10
18.7
 20
18.5
 40
0.4
  0
CIRCLE
  5
761
100
AcDbEntity
  8
0
100
AcDbCircle
 62
7
  6
CONTINUOUS
 10
19.3
 20
19.7
 40
0.4
  0
CIRCLE
  5
762
100
AcDbEntity
  8
0
100
AcDbCircle
 62
7
  6
CONTINUOUS
 10
19.9
 20
18.5
 40
0.4
  0
CIRCLE
  5
763
100
AcDbEntity
  8
0
100
AcDbCircle
 62
7
  6
CONTINUOUS
 10
18.7
 20
18.5
 40
0.4
  0
CIRCLE
  5
764
100
AcDbEntity
  8
ASSI
100
AcDbCircle
 62
7
  6
CONTINUOUS
 10
15.1
 20
21.0
 40
0.4
  0
ARC
  5
765
100
AcDbEntity
  8
0
100
AcDbCircle
 62
7
  6
CONTINUOUS
 10
14.5
 20
22.2
 40
0.4
100
AcDbArc
 50
270.000149739
 51
90.0002403714
  0
CIRCLE
  5
766
100
AcDbEntity
  8
0
100
AcDbCircle
 62
7
  6
CONTINUOUS
 10
15.1
 20
21.0
 40
0.4
  0
ARC
  5
767
100
AcDbEntity
  8
ASSI
100
AcDbCircle
 62
7
  6
CONTINUOUS
 10
14.5
 20
22.2
 40
0.4
100
AcDbArc
 50
270.000149739
 51
90.0002403714
  0
CIRCLE
  5
768
100
AcDbEntity
  8
ASSI
100
AcDbCircle
 62
7
  6
CONTINUOUS
 10
15.1
 20
23.5
 40
0.4
  0
CIRCLE
  5
769
100
AcDbEntity
  8
0
100
AcDbCircle
 62
7
  6
CONTINUOUS
 10
15.1
 20
23.5
 40
0.4
  0
CIRCLE
  5
76A
100
AcDbEntity
  8
ASSI
100
AcDbCircle
 62
7
  6
CONTINUOUS
 10
16.9
 20
22.2
 40
0.4
  0
CIRCLE
  5
76B
100
AcDbEntity
  8
ASSI
100
AcDbCircle
 62
7
  6
CONTINUOUS
 10
15.7
 20
22.2
 40
0.4
  0
CIRCLE
  5
76C
100
AcDbEntity
  8
ASSI
100
AcDbCircle
 62
7
  6
CONTINUOUS
 10
16.3
 20
21.0
 40
0.4
  0
CIRCLE
  5
76D
100
AcDbEntity
  8
0
100
AcDbCircle
 62
7
  6
CONTINUOUS
 10
16.9
 20
22.2
 40
0.4
  0
CIRCLE
  5
76E
100
AcDbEntity
  8
0
100
AcDbCircle
 62
7
  6
CONTINUOUS
 10
15.7
 20
22.2
 40
0.4
  0
CIRCLE
  5
76F
100
AcDbEntity
  8
0
100
AcDbCircle
 62
7
  6
CONTINUOUS
 10
16.3
 20
21.0
 40
0.4
  0
CIRCLE
  5
770
100
AcDbEntity
  8
ASSI
100
AcDbCircle
 62
7
  6
CONTINUOUS
 10
16.3
 20
23.5
 40
0.4
  0
CIRCLE
  5
771
100
AcDbEntity
  8
0
100
AcDbCircle
 62
7
  6
CONTINUOUS
 10
16.3
 20
23.5
 40
0.4
  0
ARC
  5
772
100
AcDbEntity
  8
0
100
AcDbCircle
 62
7
  6
CONTINUOUS
 10
14.5
 20
24.7
 40
0.4
100
AcDbArc
 50
270.0001929791
 51
90.0002489467
  0
ARC
  5
773
100
AcDbEntity
  8
ASSI
100
AcDbCircle
 62
7
  6
CONTINUOUS
 10
14.5
 20
24.7
 40
0.4
100
AcDbArc
 50
270.0001929791
 51
90.0002489467
  0
CIRCLE
  5
774
100
AcDbEntity
  8
ASSI
100
AcDbCircle
 62
7
  6
CONTINUOUS
 10
15.1
 20
26.0
 40
0.4
  0
ARC
  5
775
100
AcDbEntity
  8
0
100
AcDbCircle
 62
7
  6
CONTINUOUS
 10
14.5
 20
27.2
 40
0.4
100
AcDbArc
 50
270.0000758454
 51
90.0000875261
  0
CIRCLE
  5
776
100
AcDbEntity
  8
0
100
AcDbCircle
 62
7
  6
CONTINUOUS
 10
15.1
 20
26.0
 40
0.4
  0
ARC
  5
777
100
AcDbEntity
  8
ASSI
100
AcDbCircle
 62
7
  6
CONTINUOUS
 10
14.5
 20
27.2
 40
0.4
100
AcDbArc
 50
270.0000758454
 51
90.0000875261
  0
CIRCLE
  5
778
100
AcDbEntity
  8
ASSI
100
AcDbCircle
 62
7
  6
CONTINUOUS
 10
16.9
 20
24.7
 40
0.4
  0
CIRCLE
  5
779
100
AcDbEntity
  8
ASSI
100
AcDbCircle
 62
7
  6
CONTINUOUS
 10
15.7
 20
24.7
 40
0.4
  0
CIRCLE
  5
77A
100
AcDbEntity
  8
0
100
AcDbCircle
 62
7
  6
CONTINUOUS
 10
16.9
 20
24.7
 40
0.4
  0
CIRCLE
  5
77B
100
AcDbEntity
  8
0
100
AcDbCircle
 62
7
  6
CONTINUOUS
 10
15.7
 20
24.7
 40
0.4
  0
CIRCLE
  5
77C
100
AcDbEntity
  8
ASSI
100
AcDbCircle
 62
7
  6
CONTINUOUS
 10
16.9
 20
27.2
 40
0.4
  0
CIRCLE
  5
77D
100
AcDbEntity
  8
ASSI
100
AcDbCircle
 62
7
  6
CONTINUOUS
 10
15.7
 20
27.2
 40
0.4
  0
CIRCLE
  5
77E
100
AcDbEntity
  8
ASSI
100
AcDbCircle
 62
7
  6
CONTINUOUS
 10
16.3
 20
26.0
 40
0.4
  0
CIRCLE
  5
77F
100
AcDbEntity
  8
0
100
AcDbCircle
 62
7
  6
CONTINUOUS
 10
16.9
 20
27.2
 40
0.4
  0
CIRCLE
  5
780
100
AcDbEntity
  8
0
100
AcDbCircle
 62
7
  6
CONTINUOUS
 10
15.7
 20
27.2
 40
0.4
  0
CIRCLE
  5
781
100
AcDbEntity
  8
0
100
AcDbCircle
 62
7
  6
CONTINUOUS
 10
16.3
 20
26.0
 40
0.4
  0
CIRCLE
  5
782
100
AcDbEntity
  8
ASSI
100
AcDbCircle
 62
7
  6
CONTINUOUS
 10
18.1
 20
22.2
 40
0.4
  0
CIRCLE
  5
783
100
AcDbEntity
  8
ASSI
100
AcDbCircle
 62
7
  6
CONTINUOUS
 10
17.5
 20
21.0
 40
0.4
  0
CIRCLE
  5
784
100
AcDbEntity
  8
0
100
AcDbCircle
 62
7
  6
CONTINUOUS
 10
18.1
 20
22.2
 40
0.4
  0
CIRCLE
  5
785
100
AcDbEntity
  8
0
100
AcDbCircle
 62
7
  6
CONTINUOUS
 10
17.5
 20
21.0
 40
0.4
  0
CIRCLE
  5
786
100
AcDbEntity
  8
ASSI
100
AcDbCircle
 62
7
  6
CONTINUOUS
 10
17.5
 20
23.5
 40
0.4
  0
CIRCLE
  5
787
100
AcDbEntity
  8
0
100
AcDbCircle
 62
7
  6
CONTINUOUS
 10
17.5
 20
23.5
 40
0.4
  0
CIRCLE
  5
788
100
AcDbEntity
  8
ASSI
100
AcDbCircle
 62
7
  6
CONTINUOUS
 10
19.3
 20
22.2
 40
0.4
  0
CIRCLE
  5
789
100
AcDbEntity
  8
ASSI
100
AcDbCircle
 62
7
  6
CONTINUOUS
 10
19.9
 20
21.0
 40
0.4
  0
CIRCLE
  5
78A
100
AcDbEntity
  8
ASSI
100
AcDbCircle
 62
7
  6
CONTINUOUS
 10
18.7
 20
21.0
 40
0.4
  0
CIRCLE
  5
78B
100
AcDbEntity
  8
0
100
AcDbCircle
 62
7
  6
CONTINUOUS
 10
19.3
 20
22.2
 40
0.4
  0
CIRCLE
  5
78C
100
AcDbEntity
  8
0
100
AcDbCircle
 62
7
  6
CONTINUOUS
 10
19.9
 20
21.0
 40
0.4
  0
CIRCLE
  5
78D
100
AcDbEntity
  8
0
100
AcDbCircle
 62
7
  6
CONTINUOUS
 10
18.7
 20
21.0
 40
0.4
  0
CIRCLE
  5
78E
100
AcDbEntity
  8
ASSI
100
AcDbCircle
 62
7
  6
CONTINUOUS
 10
19.9
 20
23.5
 40
0.4
  0
CIRCLE
  5
78F
100
AcDbEntity
  8
ASSI
100
AcDbCircle
 62
7
  6
CONTINUOUS
 10
18.7
 20
23.5
 40
0.4
  0
CIRCLE
  5
790
100
AcDbEntity
  8
0
100
AcDbCircle
 62
7
  6
CONTINUOUS
 10
19.9
 20
23.5
 40
0.4
  0
CIRCLE
  5
791
100
AcDbEntity
  8
0
100
AcDbCircle
 62
7
  6
CONTINUOUS
 10
18.7
 20
23.5
 40
0.4
  0
CIRCLE
  5
792
100
AcDbEntity
  8
ASSI
100
AcDbCircle
 62
7
  6
CONTINUOUS
 10
18.1
 20
24.7
 40
0.4
  0
CIRCLE
  5
793
100
AcDbEntity
  8
0
100
AcDbCircle
 62
7
  6
CONTINUOUS
 10
18.1
 20
24.7
 40
0.4
  0
CIRCLE
  5
794
100
AcDbEntity
  8
ASSI
100
AcDbCircle
 62
7
  6
CONTINUOUS
 10
18.1
 20
27.2
 40
0.4
  0
CIRCLE
  5
795
100
AcDbEntity
  8
ASSI
100
AcDbCircle
 62
7
  6
CONTINUOUS
 10
17.5
 20
26.0
 40
0.4
  0
CIRCLE
  5
796
100
AcDbEntity
  8
0
100
AcDbCircle
 62
7
  6
CONTINUOUS
 10
18.1
 20
27.2
 40
0.4
  0
CIRCLE
  5
797
100
AcDbEntity
  8
0
100
AcDbCircle
 62
7
  6
CONTINUOUS
 10
17.5
 20
26.0
 40
0.4
  0
CIRCLE
  5
798
100
AcDbEntity
  8
ASSI
100
AcDbCircle
 62
7
  6
CONTINUOUS
 10
19.3
 20
24.7
 40
0.4
  0
CIRCLE
  5
799
100
AcDbEntity
  8
0
100
AcDbCircle
 62
7
  6
CONTINUOUS
 10
19.3
 20
24.7
 40
0.4
  0
CIRCLE
  5
79A
100
AcDbEntity
  8
ASSI
100
AcDbCircle
 62
7
  6
CONTINUOUS
 10
19.3
 20
27.2
 40
0.4
  0
CIRCLE
  5
79B
100
AcDbEntity
  8
ASSI
100
AcDbCircle
 62
7
  6
CONTINUOUS
 10
19.9
 20
26.0
 40
0.4
  0
CIRCLE
  5
79C
100
AcDbEntity
  8
ASSI
100
AcDbCircle
 62
7
  6
CONTINUOUS
 10
18.7
 20
26.0
 40
0.4
  0
CIRCLE
  5
79D
100
AcDbEntity
  8
0
100
AcDbCircle
 62
7
  6
CONTINUOUS
 10
19.3
 20
27.2
 40
0.4
  0
CIRCLE
  5
79E
100
AcDbEntity
  8
0
100
AcDbCircle
 62
7
  6
CONTINUOUS
 10
19.9
 20
26.0
 40
0.4
  0
CIRCLE
  5
79F
100
AcDbEntity
  8
0
100
AcDbCircle
 62
7
  6
CONTINUOUS
 10
18.7
 20
26.0
 40
0.4
  0
ARC
  5
7A0
100
AcDbEntity
  8
DRAFT
100
AcDbCircle
 62
7
  6
CONTINUOUS
 10
8.0
 20
38.45
 40
2.9636970041
100
AcDbArc
 50
0.0
 51
90.0
  0
CIRCLE
  5
7A1
100
AcDbEntity
  8
ASSI
100
AcDbCircle
 62
7
  6
CONTINUOUS
 10
15.1
 20
28.5
 40
0.4
  0
ARC
  5
7A2
100
AcDbEntity
  8
0
100
AcDbCircle
 62
7
  6
CONTINUOUS
 10
14.5
 20
29.7
 40
0.4
100
AcDbArc
 50
269.9997940905
 51
89.9997949749
  0
CIRCLE
  5
7A3
100
AcDbEntity
  8
0
100
AcDbCircle
 62
7
  6
CONTINUOUS
 10
15.1
 20
28.5
 40
0.4
  0
ARC
  5
7A4
100
AcDbEntity
  8
ASSI
100
AcDbCircle
 62
7
  6
CONTINUOUS
 10
14.5
 20
29.7
 40
0.4
100
AcDbArc
 50
269.9997940905
 51
89.9997949749
  0
CIRCLE
  5
7A5
100
AcDbEntity
  8
ASSI
100
AcDbCircle
 62
7
  6
CONTINUOUS
 10
15.1
 20
31.0
 40
0.4
  0
CIRCLE
  5
7A6
100
AcDbEntity
  8
0
100
AcDbCircle
 62
7
  6
CONTINUOUS
 10
15.1
 20
31.0
 40
0.4
  0
CIRCLE
  5
7A7
100
AcDbEntity
  8
ASSI
100
AcDbCircle
 62
7
  6
CONTINUOUS
 10
16.9
 20
29.7
 40
0.4
  0
CIRCLE
  5
7A8
100
AcDbEntity
  8
ASSI
100
AcDbCircle
 62
7
  6
CONTINUOUS
 10
15.7
 20
29.7
 40
0.4
  0
CIRCLE
  5
7A9
100
AcDbEntity
  8
ASSI
100
AcDbCircle
 62
7
  6
CONTINUOUS
 10
16.3
 20
28.5
 40
0.4
  0
CIRCLE
  5
7AA
100
AcDbEntity
  8
0
100
AcDbCircle
 62
7
  6
CONTINUOUS
 10
16.9
 20
29.7
 40
0.4
  0
CIRCLE
  5
7AB
100
AcDbEntity
  8
0
100
AcDbCircle
 62
7
  6
CONTINUOUS
 10
15.7
 20
29.7
 40
0.4
  0
CIRCLE
  5
7AC
100
AcDbEntity
  8
0
100
AcDbCircle
 62
7
  6
CONTINUOUS
 10
16.3
 20
28.5
 40
0.4
  0
CIRCLE
  5
7AD
100
AcDbEntity
  8
ASSI
100
AcDbCircle
 62
7
  6
CONTINUOUS
 10
16.3
 20
31.0
 40
0.4
  0
CIRCLE
  5
7AE
100
AcDbEntity
  8
0
100
AcDbCircle
 62
7
  6
CONTINUOUS
 10
16.3
 20
31.0
 40
0.4
  0
ARC
  5
7AF
100
AcDbEntity
  8
0
100
AcDbCircle
 62
7
  6
CONTINUOUS
 10
14.5
 20
32.2
 40
0.4
100
AcDbArc
 50
269.9992892662
 51
89.9991597583
  0
ARC
  5
7B0
100
AcDbEntity
  8
ASSI
100
AcDbCircle
 62
7
  6
CONTINUOUS
 10
14.5
 20
32.2
 40
0.4
100
AcDbArc
 50
269.9992892662
 51
89.9991597583
  0
CIRCLE
  5
7B1
100
AcDbEntity
  8
ASSI
100
AcDbCircle
 62
7
  6
CONTINUOUS
 10
15.1
 20
33.5
 40
0.4
  0
ARC
  5
7B2
100
AcDbEntity
  8
0
100
AcDbCircle
 62
7
  6
CONTINUOUS
 10
14.5
 20
34.7
 40
0.4
100
AcDbArc
 50
269.9985247065
 51
89.9982967928
  0
CIRCLE
  5
7B3
100
AcDbEntity
  8
0
100
AcDbCircle
 62
7
  6
CONTINUOUS
 10
15.1
 20
33.5
 40
0.4
  0
ARC
  5
7B4
100
AcDbEntity
  8
ASSI
100
AcDbCircle
 62
7
  6
CONTINUOUS
 10
14.5
 20
34.7
 40
0.4
100
AcDbArc
 50
269.9985247065
 51
89.9982967928
  0
CIRCLE
  5
7B5
100
AcDbEntity
  8
ASSI
100
AcDbCircle
 62
7
  6
CONTINUOUS
 10
16.9
 20
32.2
 40
0.4
  0
CIRCLE
  5
7B6
100
AcDbEntity
  8
ASSI
100
AcDbCircle
 62
7
  6
CONTINUOUS
 10
15.7
 20
32.2
 40
0.4
  0
CIRCLE
  5
7B7
100
AcDbEntity
  8
0
100
AcDbCircle
 62
7
  6
CONTINUOUS
 10
16.9
 20
32.2
 40
0.4
  0
CIRCLE
  5
7B8
100
AcDbEntity
  8
0
100
AcDbCircle
 62
7
  6
CONTINUOUS
 10
15.7
 20
32.2
 40
0.4
  0
CIRCLE
  5
7B9
100
AcDbEntity
  8
ASSI
100
AcDbCircle
 62
7
  6
CONTINUOUS
 10
16.9
 20
34.7
 40
0.4
  0
CIRCLE
  5
7BA
100
AcDbEntity
  8
ASSI
100
AcDbCircle
 62
7
  6
CONTINUOUS
 10
15.7
 20
34.7
 40
0.4
  0
CIRCLE
  5
7BB
100
AcDbEntity
  8
ASSI
100
AcDbCircle
 62
7
  6
CONTINUOUS
 10
16.3
 20
33.5
 40
0.4
  0
CIRCLE
  5
7BC
100
AcDbEntity
  8
0
100
AcDbCircle
 62
7
  6
CONTINUOUS
 10
16.9
 20
34.7
 40
0.4
  0
CIRCLE
  5
7BD
100
AcDbEntity
  8
0
100
AcDbCircle
 62
7
  6
CONTINUOUS
 10
15.7
 20
34.7
 40
0.4
  0
CIRCLE
  5
7BE
100
AcDbEntity
  8
0
100
AcDbCircle
 62
7
  6
CONTINUOUS
 10
16.3
 20
33.5
 40
0.4
  0
CIRCLE
  5
7BF
100
AcDbEntity
  8
ASSI
100
AcDbCircle
 62
7
  6
CONTINUOUS
 10
18.1
 20
29.7
 40
0.4
  0
CIRCLE
  5
7C0
100
AcDbEntity
  8
ASSI
100
AcDbCircle
 62
7
  6
CONTINUOUS
 10
17.5
 20
28.5
 40
0.4
  0
CIRCLE
  5
7C1
100
AcDbEntity
  8
0
100
AcDbCircle
 62
7
  6
CONTINUOUS
 10
18.1
 20
29.7
 40
0.4
  0
CIRCLE
  5
7C2
100
AcDbEntity
  8
0
100
AcDbCircle
 62
7
  6
CONTINUOUS
 10
17.5
 20
28.5
 40
0.4
  0
CIRCLE
  5
7C3
100
AcDbEntity
  8
ASSI
100
AcDbCircle
 62
7
  6
CONTINUOUS
 10
17.5
 20
31.0
 40
0.4
  0
CIRCLE
  5
7C4
100
AcDbEntity
  8
0
100
AcDbCircle
 62
7
  6
CONTINUOUS
 10
17.5
 20
31.0
 40
0.4
  0
CIRCLE
  5
7C5
100
AcDbEntity
  8
ASSI
100
AcDbCircle
 62
7
  6
CONTINUOUS
 10
19.3
 20
29.7
 40
0.4
  0
CIRCLE
  5
7C6
100
AcDbEntity
  8
ASSI
100
AcDbCircle
 62
7
  6
CONTINUOUS
 10
19.9
 20
28.5
 40
0.4
  0
CIRCLE
  5
7C7
100
AcDbEntity
  8
ASSI
100
AcDbCircle
 62
7
  6
CONTINUOUS
 10
18.7
 20
28.5
 40
0.4
  0
CIRCLE
  5
7C8
100
AcDbEntity
  8
0
100
AcDbCircle
 62
7
  6
CONTINUOUS
 10
19.3
 20
29.7
 40
0.4
  0
CIRCLE
  5
7C9
100
AcDbEntity
  8
0
100
AcDbCircle
 62
7
  6
CONTINUOUS
 10
19.9
 20
28.5
 40
0.4
  0
CIRCLE
  5
7CA
100
AcDbEntity
  8
0
100
AcDbCircle
 62
7
  6
CONTINUOUS
 10
18.7
 20
28.5
 40
0.4
  0
CIRCLE
  5
7CB
100
AcDbEntity
  8
ASSI
100
AcDbCircle
 62
7
  6
CONTINUOUS
 10
19.9
 20
31.0
 40
0.4
  0
CIRCLE
  5
7CC
100
AcDbEntity
  8
ASSI
100
AcDbCircle
 62
7
  6
CONTINUOUS
 10
18.7
 20
31.0
 40
0.4
  0
CIRCLE
  5
7CD
100
AcDbEntity
  8
0
100
AcDbCircle
 62
7
  6
CONTINUOUS
 10
19.9
 20
31.0
 40
0.4
  0
CIRCLE
  5
7CE
100
AcDbEntity
  8
0
100
AcDbCircle
 62
7
  6
CONTINUOUS
 10
18.7
 20
31.0
 40
0.4
  0
CIRCLE
  5
7CF
100
AcDbEntity
  8
ASSI
100
AcDbCircle
 62
7
  6
CONTINUOUS
 10
18.1
 20
32.2
 40
0.4
  0
CIRCLE
  5
7D0
100
AcDbEntity
  8
0
100
AcDbCircle
 62
7
  6
CONTINUOUS
 10
18.1
 20
32.2
 40
0.4
  0
CIRCLE
  5
7D1
100
AcDbEntity
  8
ASSI
100
AcDbCircle
 62
7
  6
CONTINUOUS
 10
18.1
 20
34.7
 40
0.4
  0
CIRCLE
  5
7D2
100
AcDbEntity
  8
ASSI
100
AcDbCircle
 62
7
  6
CONTINUOUS
 10
17.5
 20
33.5
 40
0.4
  0
CIRCLE
  5
7D3
100
AcDbEntity
  8
0
100
AcDbCircle
 62
7
  6
CONTINUOUS
 10
18.1
 20
34.7
 40
0.4
  0
CIRCLE
  5
7D4
100
AcDbEntity
  8
0
100
AcDbCircle
 62
7
  6
CONTINUOUS
 10
17.5
 20
33.5
 40
0.4
  0
CIRCLE
  5
7D5
100
AcDbEntity
  8
ASSI
100
AcDbCircle
 62
7
  6
CONTINUOUS
 10
19.3
 20
32.2
 40
0.4
  0
CIRCLE
  5
7D6
100
AcDbEntity
  8
0
100
AcDbCircle
 62
7
  6
CONTINUOUS
 10
19.3
 20
32.2
 40
0.4
  0
CIRCLE
  5
7D7
100
AcDbEntity
  8
ASSI
100
AcDbCircle
 62
7
  6
CONTINUOUS
 10
19.3
 20
34.7
 40
0.4
  0
CIRCLE
  5
7D8
100
AcDbEntity
  8
ASSI
100
AcDbCircle
 62
7
  6
CONTINUOUS
 10
19.9
 20
33.5
 40
0.4
  0
CIRCLE
  5
7D9
100
AcDbEntity
  8
ASSI
100
AcDbCircle
 62
7
  6
CONTINUOUS
 10
18.7
 20
33.5
 40
0.4
  0
CIRCLE
  5
7DA
100
AcDbEntity
  8
0
100
AcDbCircle
 62
7
  6
CONTINUOUS
 10
19.3
 20
34.7
 40
0.4
  0
CIRCLE
  5
7DB
100
AcDbEntity
  8
0
100
AcDbCircle
 62
7
  6
CONTINUOUS
 10
19.9
 20
33.5
 40
0.4
  0
CIRCLE
  5
7DC
100
AcDbEntity
  8
0
100
AcDbCircle
 62
7
  6
CONTINUOUS
 10
18.7
 20
33.5
 40
0.4
  0
CIRCLE
  5
7DD
100
AcDbEntity
  8
ASSI
100
AcDbCircle
 62
7
  6
CONTINUOUS
 10
16.9
 20
37.2
 40
0.4
  0
CIRCLE
  5
7DE
100
AcDbEntity
  8
ASSI
100
AcDbCircle
 62
7
  6
CONTINUOUS
 10
15.7
 20
37.2
 40
0.4
  0
CIRCLE
  5
7DF
100
AcDbEntity
  8
ASSI
100
AcDbCircle
 62
7
  6
CONTINUOUS
 10
16.3
 20
36.0
 40
0.4
  0
CIRCLE
  5
7E0
100
AcDbEntity
  8
ASSI
100
AcDbCircle
 62
7
  6
CONTINUOUS
 10
15.1
 20
36.0
 40
0.4
  0
CIRCLE
  5
7E1
100
AcDbEntity
  8
0
100
AcDbCircle
 62
7
  6
CONTINUOUS
 10
16.9
 20
37.2
 40
0.4
  0
CIRCLE
  5
7E2
100
AcDbEntity
  8
0
100
AcDbCircle
 62
7
  6
CONTINUOUS
 10
15.7
 20
37.2
 40
0.4
  0
ARC
  5
7E3
100
AcDbEntity
  8
0
100
AcDbCircle
 62
7
  6
CONTINUOUS
 10
14.5
 20
37.2
 40
0.4
100
AcDbArc
 50
269.9976440491
 51
89.9973522222
  0
CIRCLE
  5
7E4
100
AcDbEntity
  8
0
100
AcDbCircle
 62
7
  6
CONTINUOUS
 10
16.3
 20
36.0
 40
0.4
  0
CIRCLE
  5
7E5
100
AcDbEntity
  8
0
100
AcDbCircle
 62
7
  6
CONTINUOUS
 10
15.1
 20
36.0
 40
0.4
  0
ARC
  5
7E6
100
AcDbEntity
  8
ASSI
100
AcDbCircle
 62
7
  6
CONTINUOUS
 10
14.5
 20
37.2
 40
0.4
100
AcDbArc
 50
269.9976440491
 51
89.9973522222
  0
CIRCLE
  5
7E7
100
AcDbEntity
  8
ASSI
100
AcDbCircle
 62
7
  6
CONTINUOUS
 10
15.1
 20
38.5
 40
0.4
  0
ARC
  5
7E8
100
AcDbEntity
  8
0
100
AcDbCircle
 62
7
  6
CONTINUOUS
 10
14.5
 20
39.7
 40
0.4
100
AcDbArc
 50
269.9970663476
 51
89.9968552409
  0
CIRCLE
  5
7E9
100
AcDbEntity
  8
0
100
AcDbCircle
 62
7
  6
CONTINUOUS
 10
15.1
 20
38.5
 40
0.4
  0
ARC
  5
7EA
100
AcDbEntity
  8
ASSI
100
AcDbCircle
 62
7
  6
CONTINUOUS
 10
14.5
 20
39.7
 40
0.4
100
AcDbArc
 50
269.9970663476
 51
89.9968552409
  0
ARC
  5
7EB
100
AcDbEntity
  8
0
100
AcDbCircle
 62
7
  6
CONTINUOUS
 10
15.1
 20
41.0
 40
0.4
100
AcDbArc
 50
113.3772045949
 51
66.8429250588
  0
ARC
  5
7EC
100
AcDbEntity
  8
ASSI
100
AcDbCircle
 62
7
  6
CONTINUOUS
 10
15.1
 20
41.0
 40
0.4
100
AcDbArc
 50
113.3772045949
 51
66.8429250588
  0
CIRCLE
  5
7ED
100
AcDbEntity
  8
ASSI
100
AcDbCircle
 62
7
  6
CONTINUOUS
 10
16.9
 20
39.7
 40
0.4
  0
CIRCLE
  5
7EE
100
AcDbEntity
  8
ASSI
100
AcDbCircle
 62
7
  6
CONTINUOUS
 10
15.7
 20
39.7
 40
0.4
  0
CIRCLE
  5
7EF
100
AcDbEntity
  8
ASSI
100
AcDbCircle
 62
7
  6
CONTINUOUS
 10
16.3
 20
38.5
 40
0.4
  0
CIRCLE
  5
7F0
100
AcDbEntity
  8
0
100
AcDbCircle
 62
7
  6
CONTINUOUS
 10
16.9
 20
39.7
 40
0.4
  0
CIRCLE
  5
7F1
100
AcDbEntity
  8
0
100
AcDbCircle
 62
7
  6
CONTINUOUS
 10
15.7
 20
39.7
 40
0.4
  0
CIRCLE
  5
7F2
100
AcDbEntity
  8
0
100
AcDbCircle
 62
7
  6
CONTINUOUS
 10
16.3
 20
38.5
 40
0.4
  0
ARC
  5
7F3
100
AcDbEntity
  8
0
100
AcDbCircle
 62
7
  6
CONTINUOUS
 10
16.3
 20
41.0
 40
0.4
100
AcDbArc
 50
112.9539395161
 51
67.2725416863
  0
ARC
  5
7F4
100
AcDbEntity
  8
ASSI
100
AcDbCircle
 62
7
  6
CONTINUOUS
 10
16.3
 20
41.0
 40
0.4
100
AcDbArc
 50
112.9539395161
 51
67.2725416863
  0
CIRCLE
  5
7F5
100
AcDbEntity
  8
ASSI
100
AcDbCircle
 62
7
  6
CONTINUOUS
 10
19.3
 20
37.2
 40
0.4
  0
CIRCLE
  5
7F6
100
AcDbEntity
  8
ASSI
100
AcDbCircle
 62
7
  6
CONTINUOUS
 10
18.1
 20
37.2
 40
0.4
  0
CIRCLE
  5
7F7
100
AcDbEntity
  8
ASSI
100
AcDbCircle
 62
7
  6
CONTINUOUS
 10
19.9
 20
36.0
 40
0.4
  0
CIRCLE
  5
7F8
100
AcDbEntity
  8
ASSI
100
AcDbCircle
 62
7
  6
CONTINUOUS
 10
18.7
 20
36.0
 40
0.4
  0
CIRCLE
  5
7F9
100
AcDbEntity
  8
ASSI
100
AcDbCircle
 62
7
  6
CONTINUOUS
 10
17.5
 20
36.0
 40
0.4
  0
CIRCLE
  5
7FA
100
AcDbEntity
  8
0
100
AcDbCircle
 62
7
  6
CONTINUOUS
 10
19.3
 20
37.2
 40
0.4
  0
CIRCLE
  5
7FB
100
AcDbEntity
  8
0
100
AcDbCircle
 62
7
  6
CONTINUOUS
 10
18.1
 20
37.2
 40
0.4
  0
CIRCLE
  5
7FC
100
AcDbEntity
  8
0
100
AcDbCircle
 62
7
  6
CONTINUOUS
 10
19.9
 20
36.0
 40
0.4
  0
CIRCLE
  5
7FD
100
AcDbEntity
  8
0
100
AcDbCircle
 62
7
  6
CONTINUOUS
 10
18.7
 20
36.0
 40
0.4
  0
CIRCLE
  5
7FE
100
AcDbEntity
  8
0
100
AcDbCircle
 62
7
  6
CONTINUOUS
 10
17.5
 20
36.0
 40
0.4
  0
CIRCLE
  5
7FF
100
AcDbEntity
  8
ASSI
100
AcDbCircle
 62
7
  6
CONTINUOUS
 10
18.1
 20
39.7
 40
0.4
  0
CIRCLE
  5
800
100
AcDbEntity
  8
ASSI
100
AcDbCircle
 62
7
  6
CONTINUOUS
 10
17.5
 20
38.5
 40
0.4
  0
CIRCLE
  5
801
100
AcDbEntity
  8
0
100
AcDbCircle
 62
7
  6
CONTINUOUS
 10
18.1
 20
39.7
 40
0.4
  0
CIRCLE
  5
802
100
AcDbEntity
  8
0
100
AcDbCircle
 62
7
  6
CONTINUOUS
 10
17.5
 20
38.5
 40
0.4
  0
ARC
  5
803
100
AcDbEntity
  8
0
100
AcDbCircle
 62
7
  6
CONTINUOUS
 10
17.5
 20
41.0
 40
0.4
100
AcDbArc
 50
112.4693494796
 51
67.7265286246
  0
ARC
  5
804
100
AcDbEntity
  8
ASSI
100
AcDbCircle
 62
7
  6
CONTINUOUS
 10
17.5
 20
41.0
 40
0.4
100
AcDbArc
 50
112.4693494796
 51
67.7265286246
  0
CIRCLE
  5
805
100
AcDbEntity
  8
ASSI
100
AcDbCircle
 62
7
  6
CONTINUOUS
 10
19.3
 20
39.7
 40
0.4
  0
CIRCLE
  5
806
100
AcDbEntity
  8
ASSI
100
AcDbCircle
 62
7
  6
CONTINUOUS
 10
19.9
 20
38.5
 40
0.4
  0
CIRCLE
  5
807
100
AcDbEntity
  8
ASSI
100
AcDbCircle
 62
7
  6
CONTINUOUS
 10
18.7
 20
38.5
 40
0.4
  0
CIRCLE
  5
808
100
AcDbEntity
  8
0
100
AcDbCircle
 62
7
  6
CONTINUOUS
 10
19.3
 20
39.7
 40
0.4
  0
CIRCLE
  5
809
100
AcDbEntity
  8
0
100
AcDbCircle
 62
7
  6
CONTINUOUS
 10
19.9
 20
38.5
 40
0.4
  0
CIRCLE
  5
80A
100
AcDbEntity
  8
0
100
AcDbCircle
 62
7
  6
CONTINUOUS
 10
18.7
 20
38.5
 40
0.4
  0
ARC
  5
80B
100
AcDbEntity
  8
0
100
AcDbCircle
 62
7
  6
CONTINUOUS
 10
19.9
 20
41.0
 40
0.4
100
AcDbArc
 50
111.2693623602
 51
68.8386631309
  0
ARC
  5
80C
100
AcDbEntity
  8
0
100
AcDbCircle
 62
7
  6
CONTINUOUS
 10
18.7
 20
41.0
 40
0.4
100
AcDbArc
 50
169.1440665855
 51
190.9067479727
  0
ARC
  5
80D
100
AcDbEntity
  8
ASSI
100
AcDbCircle
 62
7
  6
CONTINUOUS
 10
19.9
 20
41.0
 40
0.4
100
AcDbArc
 50
111.2693623602
 51
68.8386631309
  0
ARC
  5
80E
100
AcDbEntity
  8
ASSI
100
AcDbCircle
 62
7
  6
CONTINUOUS
 10
18.7
 20
41.0
 40
0.4
100
AcDbArc
 50
169.1440665855
 51
190.9067479727
  0
CIRCLE
  5
80F
100
AcDbEntity
  8
ASSI
100
AcDbCircle
 62
7
  6
CONTINUOUS
 10
22.9
 20
14.7
 40
0.4
  0
CIRCLE
  5
810
100
AcDbEntity
  8
ASSI
100
AcDbCircle
 62
7
  6
CONTINUOUS
 10
22.3
 20
16.0
 40
0.4
  0
CIRCLE
  5
811
100
AcDbEntity
  8
ASSI
100
AcDbCircle
 62
7
  6
CONTINUOUS
 10
21.7
 20
14.7
 40
0.4
  0
CIRCLE
  5
812
100
AcDbEntity
  8
ASSI
100
AcDbCircle
 62
7
  6
CONTINUOUS
 10
21.1
 20
16.0
 40
0.4
  0
CIRCLE
  5
813
100
AcDbEntity
  8
ASSI
100
AcDbCircle
 62
7
  6
CONTINUOUS
 10
20.5
 20
14.7
 40
0.4
  0
CIRCLE
  5
814
100
AcDbEntity
  8
0
100
AcDbCircle
 62
7
  6
CONTINUOUS
 10
22.9
 20
14.7
 40
0.4
  0
CIRCLE
  5
815
100
AcDbEntity
  8
0
100
AcDbCircle
 62
7
  6
CONTINUOUS
 10
22.3
 20
16.0
 40
0.4
  0
CIRCLE
  5
816
100
AcDbEntity
  8
0
100
AcDbCircle
 62
7
  6
CONTINUOUS
 10
21.7
 20
14.7
 40
0.4
  0
CIRCLE
  5
817
100
AcDbEntity
  8
0
100
AcDbCircle
 62
7
  6
CONTINUOUS
 10
21.1
 20
16.0
 40
0.4
  0
CIRCLE
  5
818
100
AcDbEntity
  8
0
100
AcDbCircle
 62
7
  6
CONTINUOUS
 10
20.5
 20
14.7
 40
0.4
  0
ARC
  5
819
100
AcDbEntity
  8
0
100
AcDbCircle
 62
7
  6
CONTINUOUS
 10
22.3
 20
13.5
 40
0.4
100
AcDbArc
 50
3.3830855775
 51
176.4523368642
  0
ARC
  5
81A
100
AcDbEntity
  8
0
100
AcDbCircle
 62
7
  6
CONTINUOUS
 10
21.1
 20
13.5
 40
0.4
100
AcDbArc
 50
3.6297407018
 51
176.2192563638
  0
ARC
  5
81B
100
AcDbEntity
  8
ASSI
100
AcDbCircle
 62
7
  6
CONTINUOUS
 10
22.3
 20
13.5
 40
0.4
100
AcDbArc
 50
3.3830855775
 51
176.4523368642
  0
ARC
  5
81C
100
AcDbEntity
  8
ASSI
100
AcDbCircle
 62
7
  6
CONTINUOUS
 10
21.1
 20
13.5
 40
0.4
100
AcDbArc
 50
3.6297407018
 51
176.2192563638
  0
CIRCLE
  5
81D
100
AcDbEntity
  8
ASSI
100
AcDbCircle
 62
7
  6
CONTINUOUS
 10
20.5
 20
17.2
 40
0.4
  0
CIRCLE
  5
81E
100
AcDbEntity
  8
0
100
AcDbCircle
 62
7
  6
CONTINUOUS
 10
20.5
 20
17.2
 40
0.4
  0
CIRCLE
  5
81F
100
AcDbEntity
  8
ASSI
100
AcDbCircle
 62
7
  6
CONTINUOUS
 10
20.5
 20
19.7
 40
0.4
  0
CIRCLE
  5
820
100
AcDbEntity
  8
ASSI
100
AcDbCircle
 62
7
  6
CONTINUOUS
 10
21.1
 20
18.5
 40
0.4
  0
CIRCLE
  5
821
100
AcDbEntity
  8
0
100
AcDbCircle
 62
7
  6
CONTINUOUS
 10
20.5
 20
19.7
 40
0.4
  0
CIRCLE
  5
822
100
AcDbEntity
  8
0
100
AcDbCircle
 62
7
  6
CONTINUOUS
 10
21.1
 20
18.5
 40
0.4
  0
CIRCLE
  5
823
100
AcDbEntity
  8
ASSI
100
AcDbCircle
 62
7
  6
CONTINUOUS
 10
22.9
 20
17.2
 40
0.4
  0
CIRCLE
  5
824
100
AcDbEntity
  8
ASSI
100
AcDbCircle
 62
7
  6
CONTINUOUS
 10
21.7
 20
17.2
 40
0.4
  0
CIRCLE
  5
825
100
AcDbEntity
  8
0
100
AcDbCircle
 62
7
  6
CONTINUOUS
 10
22.9
 20
17.2
 40
0.4
  0
CIRCLE
  5
826
100
AcDbEntity
  8
0
100
AcDbCircle
 62
7
  6
CONTINUOUS
 10
21.7
 20
17.2
 40
0.4
  0
CIRCLE
  5
827
100
AcDbEntity
  8
ASSI
100
AcDbCircle
 62
7
  6
CONTINUOUS
 10
22.9
 20
19.7
 40
0.4
  0
CIRCLE
  5
828
100
AcDbEntity
  8
ASSI
100
AcDbCircle
 62
7
  6
CONTINUOUS
 10
21.7
 20
19.7
 40
0.4
  0
CIRCLE
  5
829
100
AcDbEntity
  8
ASSI
100
AcDbCircle
 62
7
  6
CONTINUOUS
 10
22.3
 20
18.5
 40
0.4
  0
CIRCLE
  5
82A
100
AcDbEntity
  8
0
100
AcDbCircle
 62
7
  6
CONTINUOUS
 10
22.9
 20
19.7
 40
0.4
  0
CIRCLE
  5
82B
100
AcDbEntity
  8
0
100
AcDbCircle
 62
7
  6
CONTINUOUS
 10
21.7
 20
19.7
 40
0.4
  0
CIRCLE
  5
82C
100
AcDbEntity
  8
0
100
AcDbCircle
 62
7
  6
CONTINUOUS
 10
22.3
 20
18.5
 40
0.4
  0
CIRCLE
  5
82D
100
AcDbEntity
  8
ASSI
100
AcDbCircle
 62
7
  6
CONTINUOUS
 10
25.9
 20
16.0
 40
0.4
  0
CIRCLE
  5
82E
100
AcDbEntity
  8
ASSI
100
AcDbCircle
 62
7
  6
CONTINUOUS
 10
25.3
 20
14.7
 40
0.4
  0
CIRCLE
  5
82F
100
AcDbEntity
  8
ASSI
100
AcDbCircle
 62
7
  6
CONTINUOUS
 10
24.7
 20
16.0
 40
0.4
  0
CIRCLE
  5
830
100
AcDbEntity
  8
ASSI
100
AcDbCircle
 62
7
  6
CONTINUOUS
 10
24.1
 20
14.7
 40
0.4
  0
CIRCLE
  5
831
100
AcDbEntity
  8
ASSI
100
AcDbCircle
 62
7
  6
CONTINUOUS
 10
23.5
 20
16.0
 40
0.4
  0
CIRCLE
  5
832
100
AcDbEntity
  8
0
100
AcDbCircle
 62
7
  6
CONTINUOUS
 10
25.9
 20
16.0
 40
0.4
  0
CIRCLE
  5
833
100
AcDbEntity
  8
0
100
AcDbCircle
 62
7
  6
CONTINUOUS
 10
25.3
 20
14.7
 40
0.4
  0
CIRCLE
  5
834
100
AcDbEntity
  8
0
100
AcDbCircle
 62
7
  6
CONTINUOUS
 10
24.7
 20
16.0
 40
0.4
  0
CIRCLE
  5
835
100
AcDbEntity
  8
0
100
AcDbCircle
 62
7
  6
CONTINUOUS
 10
24.1
 20
14.7
 40
0.4
  0
CIRCLE
  5
836
100
AcDbEntity
  8
0
100
AcDbCircle
 62
7
  6
CONTINUOUS
 10
23.5
 20
16.0
 40
0.4
  0
ARC
  5
837
100
AcDbEntity
  8
0
100
AcDbCircle
 62
7
  6
CONTINUOUS
 10
25.9
 20
13.5
 40
0.4
100
AcDbArc
 50
2.5659344703
 51
177.2421024355
  0
ARC
  5
838
100
AcDbEntity
  8
0
100
AcDbCircle
 62
7
  6
CONTINUOUS
 10
24.7
 20
13.5
 40
0.4
100
AcDbArc
 50
2.85444236
 51
176.967428645
  0
ARC
  5
839
100
AcDbEntity
  8
0
100
AcDbCircle
 62
7
  6
CONTINUOUS
 10
23.5
 20
13.5
 40
0.4
100
AcDbArc
 50
3.1260166373
 51
176.7032454286
  0
ARC
  5
83A
100
AcDbEntity
  8
ASSI
100
AcDbCircle
 62
7
  6
CONTINUOUS
 10
25.9
 20
13.5
 40
0.4
100
AcDbArc
 50
2.5659344703
 51
177.2421024355
  0
ARC
  5
83B
100
AcDbEntity
  8
ASSI
100
AcDbCircle
 62
7
  6
CONTINUOUS
 10
24.7
 20
13.5
 40
0.4
100
AcDbArc
 50
2.85444236
 51
176.967428645
  0
ARC
  5
83C
100
AcDbEntity
  8
ASSI
100
AcDbCircle
 62
7
  6
CONTINUOUS
 10
23.5
 20
13.5
 40
0.4
100
AcDbArc
 50
3.1260166373
 51
176.7032454286
  0
CIRCLE
  5
83D
100
AcDbEntity
  8
ASSI
100
AcDbCircle
 62
7
  6
CONTINUOUS
 10
24.1
 20
17.2
 40
0.4
  0
CIRCLE
  5
83E
100
AcDbEntity
  8
0
100
AcDbCircle
 62
7
  6
CONTINUOUS
 10
24.1
 20
17.2
 40
0.4
  0
CIRCLE
  5
83F
100
AcDbEntity
  8
ASSI
100
AcDbCircle
 62
7
  6
CONTINUOUS
 10
24.1
 20
19.7
 40
0.4
  0
CIRCLE
  5
840
100
AcDbEntity
  8
ASSI
100
AcDbCircle
 62
7
  6
CONTINUOUS
 10
23.5
 20
18.5
 40
0.4
  0
CIRCLE
  5
841
100
AcDbEntity
  8
0
100
AcDbCircle
 62
7
  6
CONTINUOUS
 10
24.1
 20
19.7
 40
0.4
  0
CIRCLE
  5
842
100
AcDbEntity
  8
0
100
AcDbCircle
 62
7
  6
CONTINUOUS
 10
23.5
 20
18.5
 40
0.4
  0
CIRCLE
  5
843
100
AcDbEntity
  8
ASSI
100
AcDbCircle
 62
7
  6
CONTINUOUS
 10
25.3
 20
17.2
 40
0.4
  0
CIRCLE
  5
844
100
AcDbEntity
  8
0
100
AcDbCircle
 62
7
  6
CONTINUOUS
 10
25.3
 20
17.2
 40
0.4
  0
CIRCLE
  5
845
100
AcDbEntity
  8
ASSI
100
AcDbCircle
 62
7
  6
CONTINUOUS
 10
25.3
 20
19.7
 40
0.4
  0
CIRCLE
  5
846
100
AcDbEntity
  8
ASSI
100
AcDbCircle
 62
7
  6
CONTINUOUS
 10
25.9
 20
18.5
 40
0.4
  0
CIRCLE
  5
847
100
AcDbEntity
  8
ASSI
100
AcDbCircle
 62
7
  6
CONTINUOUS
 10
24.7
 20
18.5
 40
0.4
  0
CIRCLE
  5
848
100
AcDbEntity
  8
0
100
AcDbCircle
 62
7
  6
CONTINUOUS
 10
25.3
 20
19.7
 40
0.4
  0
CIRCLE
  5
849
100
AcDbEntity
  8
0
100
AcDbCircle
 62
7
  6
CONTINUOUS
 10
25.9
 20
18.5
 40
0.4
  0
CIRCLE
  5
84A
100
AcDbEntity
  8
0
100
AcDbCircle
 62
7
  6
CONTINUOUS
 10
24.7
 20
18.5
 40
0.4
  0
CIRCLE
  5
84B
100
AcDbEntity
  8
ASSI
100
AcDbCircle
 62
7
  6
CONTINUOUS
 10
20.5
 20
22.2
 40
0.4
  0
CIRCLE
  5
84C
100
AcDbEntity
  8
ASSI
100
AcDbCircle
 62
7
  6
CONTINUOUS
 10
21.1
 20
21.0
 40
0.4
  0
CIRCLE
  5
84D
100
AcDbEntity
  8
0
100
AcDbCircle
 62
7
  6
CONTINUOUS
 10
20.5
 20
22.2
 40
0.4
  0
CIRCLE
  5
84E
100
AcDbEntity
  8
0
100
AcDbCircle
 62
7
  6
CONTINUOUS
 10
21.1
 20
21.0
 40
0.4
  0
CIRCLE
  5
84F
100
AcDbEntity
  8
ASSI
100
AcDbCircle
 62
7
  6
CONTINUOUS
 10
21.1
 20
23.5
 40
0.4
  0
CIRCLE
  5
850
100
AcDbEntity
  8
0
100
AcDbCircle
 62
7
  6
CONTINUOUS
 10
21.1
 20
23.5
 40
0.4
  0
CIRCLE
  5
851
100
AcDbEntity
  8
ASSI
100
AcDbCircle
 62
7
  6
CONTINUOUS
 10
22.9
 20
22.2
 40
0.4
  0
CIRCLE
  5
852
100
AcDbEntity
  8
ASSI
100
AcDbCircle
 62
7
  6
CONTINUOUS
 10
21.7
 20
22.2
 40
0.4
  0
CIRCLE
  5
853
100
AcDbEntity
  8
ASSI
100
AcDbCircle
 62
7
  6
CONTINUOUS
 10
22.3
 20
21.0
 40
0.4
  0
CIRCLE
  5
854
100
AcDbEntity
  8
0
100
AcDbCircle
 62
7
  6
CONTINUOUS
 10
22.9
 20
22.2
 40
0.4
  0
CIRCLE
  5
855
100
AcDbEntity
  8
0
100
AcDbCircle
 62
7
  6
CONTINUOUS
 10
21.7
 20
22.2
 40
0.4
  0
CIRCLE
  5
856
100
AcDbEntity
  8
0
100
AcDbCircle
 62
7
  6
CONTINUOUS
 10
22.3
 20
21.0
 40
0.4
  0
CIRCLE
  5
857
100
AcDbEntity
  8
ASSI
100
AcDbCircle
 62
7
  6
CONTINUOUS
 10
22.3
 20
23.5
 40
0.4
  0
CIRCLE
  5
858
100
AcDbEntity
  8
0
100
AcDbCircle
 62
7
  6
CONTINUOUS
 10
22.3
 20
23.5
 40
0.4
  0
CIRCLE
  5
859
100
AcDbEntity
  8
ASSI
100
AcDbCircle
 62
7
  6
CONTINUOUS
 10
20.5
 20
24.7
 40
0.4
  0
CIRCLE
  5
85A
100
AcDbEntity
  8
0
100
AcDbCircle
 62
7
  6
CONTINUOUS
 10
20.5
 20
24.7
 40
0.4
  0
CIRCLE
  5
85B
100
AcDbEntity
  8
ASSI
100
AcDbCircle
 62
7
  6
CONTINUOUS
 10
20.5
 20
27.2
 40
0.4
  0
CIRCLE
  5
85C
100
AcDbEntity
  8
ASSI
100
AcDbCircle
 62
7
  6
CONTINUOUS
 10
21.1
 20
26.0
 40
0.4
  0
CIRCLE
  5
85D
100
AcDbEntity
  8
0
100
AcDbCircle
 62
7
  6
CONTINUOUS
 10
20.5
 20
27.2
 40
0.4
  0
CIRCLE
  5
85E
100
AcDbEntity
  8
0
100
AcDbCircle
 62
7
  6
CONTINUOUS
 10
21.1
 20
26.0
 40
0.4
  0
CIRCLE
  5
85F
100
AcDbEntity
  8
ASSI
100
AcDbCircle
 62
7
  6
CONTINUOUS
 10
22.9
 20
24.7
 40
0.4
  0
CIRCLE
  5
860
100
AcDbEntity
  8
ASSI
100
AcDbCircle
 62
7
  6
CONTINUOUS
 10
21.7
 20
24.7
 40
0.4
  0
CIRCLE
  5
861
100
AcDbEntity
  8
0
100
AcDbCircle
 62
7
  6
CONTINUOUS
 10
22.9
 20
24.7
 40
0.4
  0
CIRCLE
  5
862
100
AcDbEntity
  8
0
100
AcDbCircle
 62
7
  6
CONTINUOUS
 10
21.7
 20
24.7
 40
0.4
  0
CIRCLE
  5
863
100
AcDbEntity
  8
ASSI
100
AcDbCircle
 62
7
  6
CONTINUOUS
 10
22.9
 20
27.2
 40
0.4
  0
CIRCLE
  5
864
100
AcDbEntity
  8
ASSI
100
AcDbCircle
 62
7
  6
CONTINUOUS
 10
21.7
 20
27.2
 40
0.4
  0
CIRCLE
  5
865
100
AcDbEntity
  8
ASSI
100
AcDbCircle
 62
7
  6
CONTINUOUS
 10
22.3
 20
26.0
 40
0.4
  0
CIRCLE
  5
866
100
AcDbEntity
  8
0
100
AcDbCircle
 62
7
  6
CONTINUOUS
 10
22.9
 20
27.2
 40
0.4
  0
CIRCLE
  5
867
100
AcDbEntity
  8
0
100
AcDbCircle
 62
7
  6
CONTINUOUS
 10
21.7
 20
27.2
 40
0.4
  0
CIRCLE
  5
868
100
AcDbEntity
  8
0
100
AcDbCircle
 62
7
  6
CONTINUOUS
 10
22.3
 20
26.0
 40
0.4
  0
CIRCLE
  5
869
100
AcDbEntity
  8
ASSI
100
AcDbCircle
 62
7
  6
CONTINUOUS
 10
24.1
 20
22.2
 40
0.4
  0
CIRCLE
  5
86A
100
AcDbEntity
  8
ASSI
100
AcDbCircle
 62
7
  6
CONTINUOUS
 10
23.5
 20
21.0
 40
0.4
  0
CIRCLE
  5
86B
100
AcDbEntity
  8
0
100
AcDbCircle
 62
7
  6
CONTINUOUS
 10
24.1
 20
22.2
 40
0.4
  0
CIRCLE
  5
86C
100
AcDbEntity
  8
0
100
AcDbCircle
 62
7
  6
CONTINUOUS
 10
23.5
 20
21.0
 40
0.4
  0
CIRCLE
  5
86D
100
AcDbEntity
  8
ASSI
100
AcDbCircle
 62
7
  6
CONTINUOUS
 10
23.5
 20
23.5
 40
0.4
  0
CIRCLE
  5
86E
100
AcDbEntity
  8
0
100
AcDbCircle
 62
7
  6
CONTINUOUS
 10
23.5
 20
23.5
 40
0.4
  0
CIRCLE
  5
86F
100
AcDbEntity
  8
ASSI
100
AcDbCircle
 62
7
  6
CONTINUOUS
 10
25.3
 20
22.2
 40
0.4
  0
CIRCLE
  5
870
100
AcDbEntity
  8
ASSI
100
AcDbCircle
 62
7
  6
CONTINUOUS
 10
25.9
 20
21.0
 40
0.4
  0
CIRCLE
  5
871
100
AcDbEntity
  8
ASSI
100
AcDbCircle
 62
7
  6
CONTINUOUS
 10
24.7
 20
21.0
 40
0.4
  0
CIRCLE
  5
872
100
AcDbEntity
  8
0
100
AcDbCircle
 62
7
  6
CONTINUOUS
 10
25.3
 20
22.2
 40
0.4
  0
CIRCLE
  5
873
100
AcDbEntity
  8
0
100
AcDbCircle
 62
7
  6
CONTINUOUS
 10
25.9
 20
21.0
 40
0.4
  0
CIRCLE
  5
874
100
AcDbEntity
  8
0
100
AcDbCircle
 62
7
  6
CONTINUOUS
 10
24.7
 20
21.0
 40
0.4
  0
CIRCLE
  5
875
100
AcDbEntity
  8
ASSI
100
AcDbCircle
 62
7
  6
CONTINUOUS
 10
25.9
 20
23.5
 40
0.4
  0
CIRCLE
  5
876
100
AcDbEntity
  8
ASSI
100
AcDbCircle
 62
7
  6
CONTINUOUS
 10
24.7
 20
23.5
 40
0.4
  0
CIRCLE
  5
877
100
AcDbEntity
  8
0
100
AcDbCircle
 62
7
  6
CONTINUOUS
 10
25.9
 20
23.5
 40
0.4
  0
CIRCLE
  5
878
100
AcDbEntity
  8
0
100
AcDbCircle
 62
7
  6
CONTINUOUS
 10
24.7
 20
23.5
 40
0.4
  0
CIRCLE
  5
879
100
AcDbEntity
  8
ASSI
100
AcDbCircle
 62
7
  6
CONTINUOUS
 10
24.1
 20
24.7
 40
0.4
  0
CIRCLE
  5
87A
100
AcDbEntity
  8
0
100
AcDbCircle
 62
7
  6
CONTINUOUS
 10
24.1
 20
24.7
 40
0.4
  0
CIRCLE
  5
87B
100
AcDbEntity
  8
ASSI
100
AcDbCircle
 62
7
  6
CONTINUOUS
 10
24.1
 20
27.2
 40
0.4
  0
CIRCLE
  5
87C
100
AcDbEntity
  8
ASSI
100
AcDbCircle
 62
7
  6
CONTINUOUS
 10
23.5
 20
26.0
 40
0.4
  0
CIRCLE
  5
87D
100
AcDbEntity
  8
0
100
AcDbCircle
 62
7
  6
CONTINUOUS
 10
24.1
 20
27.2
 40
0.4
  0
CIRCLE
  5
87E
100
AcDbEntity
  8
0
100
AcDbCircle
 62
7
  6
CONTINUOUS
 10
23.5
 20
26.0
 40
0.4
  0
CIRCLE
  5
87F
100
AcDbEntity
  8
ASSI
100
AcDbCircle
 62
7
  6
CONTINUOUS
 10
25.3
 20
24.7
 40
0.4
  0
CIRCLE
  5
880
100
AcDbEntity
  8
0
100
AcDbCircle
 62
7
  6
CONTINUOUS
 10
25.3
 20
24.7
 40
0.4
  0
CIRCLE
  5
881
100
AcDbEntity
  8
ASSI
100
AcDbCircle
 62
7
  6
CONTINUOUS
 10
25.3
 20
27.2
 40
0.4
  0
CIRCLE
  5
882
100
AcDbEntity
  8
ASSI
100
AcDbCircle
 62
7
  6
CONTINUOUS
 10
25.9
 20
26.0
 40
0.4
  0
CIRCLE
  5
883
100
AcDbEntity
  8
ASSI
100
AcDbCircle
 62
7
  6
CONTINUOUS
 10
24.7
 20
26.0
 40
0.4
  0
CIRCLE
  5
884
100
AcDbEntity
  8
0
100
AcDbCircle
 62
7
  6
CONTINUOUS
 10
25.3
 20
27.2
 40
0.4
  0
CIRCLE
  5
885
100
AcDbEntity
  8
0
100
AcDbCircle
 62
7
  6
CONTINUOUS
 10
25.9
 20
26.0
 40
0.4
  0
CIRCLE
  5
886
100
AcDbEntity
  8
0
100
AcDbCircle
 62
7
  6
CONTINUOUS
 10
24.7
 20
26.0
 40
0.4
  0
CIRCLE
  5
887
100
AcDbEntity
  8
ASSI
100
AcDbCircle
 62
7
  6
CONTINUOUS
 10
26.5
 20
14.7
 40
0.4
  0
CIRCLE
  5
888
100
AcDbEntity
  8
0
100
AcDbCircle
 62
7
  6
CONTINUOUS
 10
26.5
 20
14.7
 40
0.4
  0
ARC
  5
889
100
AcDbEntity
  8
0
100
AcDbCircle
 62
7
  6
CONTINUOUS
 10
27.1
 20
13.5
 40
0.4
100
AcDbArc
 50
61.2120988326
 51
177.5346684879
  0
ARC
  5
88A
100
AcDbEntity
  8
ASSI
100
AcDbCircle
 62
7
  6
CONTINUOUS
 10
27.1
 20
13.5
 40
0.4
100
AcDbArc
 50
61.2120988326
 51
177.5346684879
  0
CIRCLE
  5
88B
100
AcDbEntity
  8
ASSI
100
AcDbCircle
 62
7
  6
CONTINUOUS
 10
27.1
 20
16.0
 40
0.4
  0
CIRCLE
  5
88C
100
AcDbEntity
  8
0
100
AcDbCircle
 62
7
  6
CONTINUOUS
 10
27.1
 20
16.0
 40
0.4
  0
CIRCLE
  5
88D
100
AcDbEntity
  8
ASSI
100
AcDbCircle
 62
7
  6
CONTINUOUS
 10
28.9
 20
14.7
 40
0.4
  0
CIRCLE
  5
88E
100
AcDbEntity
  8
0
100
AcDbCircle
 62
7
  6
CONTINUOUS
 10
28.9
 20
14.7
 40
0.4
  0
ARC
  5
88F
100
AcDbEntity
  8
0
100
AcDbCircle
 62
7
  6
CONTINUOUS
 10
27.7
 20
14.7
 40
0.4
100
AcDbArc
 50
331.2196721878
 51
208.7807549178
  0
ARC
  5
890
100
AcDbEntity
  8
0
100
AcDbCircle
 62
7
  6
CONTINUOUS
 10
28.3
 20
13.5
 40
0.4
100
AcDbArc
 50
1.9530931779
 51
74.3823087762
  0
ARC
  5
891
100
AcDbEntity
  8
ASSI
100
AcDbCircle
 62
7
  6
CONTINUOUS
 10
27.7
 20
14.7
 40
0.4
100
AcDbArc
 50
331.2196721878
 51
208.7807549178
  0
ARC
  5
892
100
AcDbEntity
  8
ASSI
100
AcDbCircle
 62
7
  6
CONTINUOUS
 10
28.3
 20
13.5
 40
0.4
100
AcDbArc
 50
1.9530931779
 51
74.3823087762
  0
CIRCLE
  5
893
100
AcDbEntity
  8
ASSI
100
AcDbCircle
 62
7
  6
CONTINUOUS
 10
28.3
 20
16.0
 40
0.4
  0
CIRCLE
  5
894
100
AcDbEntity
  8
0
100
AcDbCircle
 62
7
  6
CONTINUOUS
 10
28.3
 20
16.0
 40
0.4
  0
CIRCLE
  5
895
100
AcDbEntity
  8
ASSI
100
AcDbCircle
 62
7
  6
CONTINUOUS
 10
26.5
 20
17.2
 40
0.4
  0
CIRCLE
  5
896
100
AcDbEntity
  8
0
100
AcDbCircle
 62
7
  6
CONTINUOUS
 10
26.5
 20
17.2
 40
0.4
  0
CIRCLE
  5
897
100
AcDbEntity
  8
ASSI
100
AcDbCircle
 62
7
  6
CONTINUOUS
 10
26.5
 20
19.7
 40
0.4
  0
CIRCLE
  5
898
100
AcDbEntity
  8
ASSI
100
AcDbCircle
 62
7
  6
CONTINUOUS
 10
27.1
 20
18.5
 40
0.4
  0
CIRCLE
  5
899
100
AcDbEntity
  8
0
100
AcDbCircle
 62
7
  6
CONTINUOUS
 10
26.5
 20
19.7
 40
0.4
  0
CIRCLE
  5
89A
100
AcDbEntity
  8
0
100
AcDbCircle
 62
7
  6
CONTINUOUS
 10
27.1
 20
18.5
 40
0.4
  0
CIRCLE
  5
89B
100
AcDbEntity
  8
ASSI
100
AcDbCircle
 62
7
  6
CONTINUOUS
 10
28.9
 20
17.2
 40
0.4
  0
CIRCLE
  5
89C
100
AcDbEntity
  8
ASSI
100
AcDbCircle
 62
7
  6
CONTINUOUS
 10
27.7
 20
17.2
 40
0.4
  0
CIRCLE
  5
89D
100
AcDbEntity
  8
0
100
AcDbCircle
 62
7
  6
CONTINUOUS
 10
28.9
 20
17.2
 40
0.4
  0
CIRCLE
  5
89E
100
AcDbEntity
  8
0
100
AcDbCircle
 62
7
  6
CONTINUOUS
 10
27.7
 20
17.2
 40
0.4
  0
CIRCLE
  5
89F
100
AcDbEntity
  8
ASSI
100
AcDbCircle
 62
7
  6
CONTINUOUS
 10
28.9
 20
19.7
 40
0.4
  0
CIRCLE
  5
8A0
100
AcDbEntity
  8
ASSI
100
AcDbCircle
 62
7
  6
CONTINUOUS
 10
27.7
 20
19.7
 40
0.4
  0
CIRCLE
  5
8A1
100
AcDbEntity
  8
ASSI
100
AcDbCircle
 62
7
  6
CONTINUOUS
 10
28.3
 20
18.5
 40
0.4
  0
CIRCLE
  5
8A2
100
AcDbEntity
  8
0
100
AcDbCircle
 62
7
  6
CONTINUOUS
 10
28.9
 20
19.7
 40
0.4
  0
CIRCLE
  5
8A3
100
AcDbEntity
  8
0
100
AcDbCircle
 62
7
  6
CONTINUOUS
 10
27.7
 20
19.7
 40
0.4
  0
CIRCLE
  5
8A4
100
AcDbEntity
  8
0
100
AcDbCircle
 62
7
  6
CONTINUOUS
 10
28.3
 20
18.5
 40
0.4
  0
CIRCLE
  5
8A5
100
AcDbEntity
  8
ASSI
100
AcDbCircle
 62
7
  6
CONTINUOUS
 10
30.1
 20
14.7
 40
0.4
  0
CIRCLE
  5
8A6
100
AcDbEntity
  8
0
100
AcDbCircle
 62
7
  6
CONTINUOUS
 10
30.1
 20
14.7
 40
0.4
  0
ARC
  5
8A7
100
AcDbEntity
  8
0
100
AcDbCircle
 62
7
  6
CONTINUOUS
 10
30.7
 20
13.5
 40
0.4
100
AcDbArc
 50
9.9618790428
 51
178.4924543634
  0
ARC
  5
8A8
100
AcDbEntity
  8
0
100
AcDbCircle
 62
7
  6
CONTINUOUS
 10
29.5
 20
13.5
 40
0.4
100
AcDbArc
 50
1.6218857132
 51
178.1578751868
  0
ARC
  5
8A9
100
AcDbEntity
  8
ASSI
100
AcDbCircle
 62
7
  6
CONTINUOUS
 10
30.7
 20
13.5
 40
0.4
100
AcDbArc
 50
9.9618790428
 51
178.4924543634
  0
ARC
  5
8AA
100
AcDbEntity
  8
ASSI
100
AcDbCircle
 62
7
  6
CONTINUOUS
 10
29.5
 20
13.5
 40
0.4
100
AcDbArc
 50
1.6218857132
 51
178.1578751868
  0
ARC
  5
8AB
100
AcDbEntity
  8
DRAFT
100
AcDbCircle
 62
7
  6
CONTINUOUS
 10
30.6858832677
 20
14.9500241365
 40
1.4744739966
100
AcDbArc
 50
269.9212148816
 51
1.481008065
  0
ARC
  5
8AC
100
AcDbEntity
  8
DRAFT
100
AcDbCircle
 62
7
  6
CONTINUOUS
 10
30.6843123765
 20
14.9501051302
 40
1.4426370285
100
AcDbArc
 50
354.0113601962
 51
1.4762053049
  0
ARC
  5
8AD
100
AcDbEntity
  8
DRAFT
100
AcDbCircle
 62
7
  6
CONTINUOUS
 10
30.6867626464
 20
14.9499719659
 40
1.4402037446
100
AcDbArc
 50
269.8843556863
 51
354.0116722473
  0
CIRCLE
  5
8AE
100
AcDbEntity
  8
ASSI
100
AcDbCircle
 62
7
  6
CONTINUOUS
 10
30.7
 20
16.0
 40
0.4
  0
CIRCLE
  5
8AF
100
AcDbEntity
  8
ASSI
100
AcDbCircle
 62
7
  6
CONTINUOUS
 10
29.5
 20
16.0
 40
0.4
  0
CIRCLE
  5
8B0
100
AcDbEntity
  8
0
100
AcDbCircle
 62
7
  6
CONTINUOUS
 10
30.7
 20
16.0
 40
0.4
  0
CIRCLE
  5
8B1
100
AcDbEntity
  8
0
100
AcDbCircle
 62
7
  6
CONTINUOUS
 10
29.5
 20
16.0
 40
0.4
  0
CIRCLE
  5
8B2
100
AcDbEntity
  8
ASSI
100
AcDbCircle
 62
7
  6
CONTINUOUS
 10
31.3
 20
14.7
 40
0.4
  0
ARC
  5
8B3
100
AcDbEntity
  8
0
100
AcDbCircle
 62
7
  6
CONTINUOUS
 10
32.5
 20
14.7
 40
0.4
100
AcDbArc
 50
161.5220615386
 51
182.787076439
  0
CIRCLE
  5
8B4
100
AcDbEntity
  8
0
100
AcDbCircle
 62
7
  6
CONTINUOUS
 10
31.3
 20
14.7
 40
0.4
  0
ARC
  5
8B5
100
AcDbEntity
  8
ASSI
100
AcDbCircle
 62
7
  6
CONTINUOUS
 10
32.5
 20
14.7
 40
0.4
100
AcDbArc
 50
161.5220615386
 51
182.787076439
  0
ARC
  5
8B6
100
AcDbEntity
  8
0
100
AcDbCircle
 62
7
  6
CONTINUOUS
 10
31.9
 20
16.0
 40
0.4
100
AcDbArc
 50
64.7493389217
 51
300.6449706375
  0
ARC
  5
8B7
100
AcDbEntity
  8
ASSI
100
AcDbCircle
 62
7
  6
CONTINUOUS
 10
31.9
 20
16.0
 40
0.4
100
AcDbArc
 50
64.7493389217
 51
300.6449706375
  0
CIRCLE
  5
8B8
100
AcDbEntity
  8
ASSI
100
AcDbCircle
 62
7
  6
CONTINUOUS
 10
30.1
 20
17.2
 40
0.4
  0
CIRCLE
  5
8B9
100
AcDbEntity
  8
0
100
AcDbCircle
 62
7
  6
CONTINUOUS
 10
30.1
 20
17.2
 40
0.4
  0
CIRCLE
  5
8BA
100
AcDbEntity
  8
ASSI
100
AcDbCircle
 62
7
  6
CONTINUOUS
 10
30.1
 20
19.7
 40
0.4
  0
CIRCLE
  5
8BB
100
AcDbEntity
  8
ASSI
100
AcDbCircle
 62
7
  6
CONTINUOUS
 10
29.5
 20
18.5
 40
0.4
  0
CIRCLE
  5
8BC
100
AcDbEntity
  8
0
100
AcDbCircle
 62
7
  6
CONTINUOUS
 10
30.1
 20
19.7
 40
0.4
  0
CIRCLE
  5
8BD
100
AcDbEntity
  8
0
100
AcDbCircle
 62
7
  6
CONTINUOUS
 10
29.5
 20
18.5
 40
0.4
  0
CIRCLE
  5
8BE
100
AcDbEntity
  8
ASSI
100
AcDbCircle
 62
7
  6
CONTINUOUS
 10
31.3
 20
17.2
 40
0.4
  0
CIRCLE
  5
8BF
100
AcDbEntity
  8
0
100
AcDbCircle
 62
7
  6
CONTINUOUS
 10
31.3
 20
17.2
 40
0.4
  0
CIRCLE
  5
8C0
100
AcDbEntity
  8
ASSI
100
AcDbCircle
 62
7
  6
CONTINUOUS
 10
30.7
 20
18.5
 40
0.4
  0
ARC
  5
8C1
100
AcDbEntity
  8
0
100
AcDbCircle
 62
7
  6
CONTINUOUS
 10
31.3
 20
19.7
 40
0.4
100
AcDbArc
 50
48.9244246379
 51
131.0740152907
  0
ARC
  5
8C2
100
AcDbEntity
  8
0
100
AcDbCircle
 62
7
  6
CONTINUOUS
 10
31.9
 20
18.5
 40
0.4
100
AcDbArc
 50
94.2848468367
 51
276.8413266558
  0
CIRCLE
  5
8C3
100
AcDbEntity
  8
0
100
AcDbCircle
 62
7
  6
CONTINUOUS
 10
30.7
 20
18.5
 40
0.4
  0
ARC
  5
8C4
100
AcDbEntity
  8
ASSI
100
AcDbCircle
 62
7
  6
CONTINUOUS
 10
31.3
 20
19.7
 40
0.4
100
AcDbArc
 50
48.9244246379
 51
131.0740152907
  0
ARC
  5
8C5
100
AcDbEntity
  8
ASSI
100
AcDbCircle
 62
7
  6
CONTINUOUS
 10
31.9
 20
18.5
 40
0.4
100
AcDbArc
 50
94.2848468367
 51
276.8413266558
  0
CIRCLE
  5
8C6
100
AcDbEntity
  8
ASSI
100
AcDbCircle
 62
7
  6
CONTINUOUS
 10
26.5
 20
22.2
 40
0.4
  0
CIRCLE
  5
8C7
100
AcDbEntity
  8
ASSI
100
AcDbCircle
 62
7
  6
CONTINUOUS
 10
27.1
 20
21.0
 40
0.4
  0
CIRCLE
  5
8C8
100
AcDbEntity
  8
0
100
AcDbCircle
 62
7
  6
CONTINUOUS
 10
26.5
 20
22.2
 40
0.4
  0
CIRCLE
  5
8C9
100
AcDbEntity
  8
0
100
AcDbCircle
 62
7
  6
CONTINUOUS
 10
27.1
 20
21.0
 40
0.4
  0
CIRCLE
  5
8CA
100
AcDbEntity
  8
ASSI
100
AcDbCircle
 62
7
  6
CONTINUOUS
 10
27.1
 20
23.5
 40
0.4
  0
CIRCLE
  5
8CB
100
AcDbEntity
  8
0
100
AcDbCircle
 62
7
  6
CONTINUOUS
 10
27.1
 20
23.5
 40
0.4
  0
CIRCLE
  5
8CC
100
AcDbEntity
  8
ASSI
100
AcDbCircle
 62
7
  6
CONTINUOUS
 10
28.9
 20
22.2
 40
0.4
  0
CIRCLE
  5
8CD
100
AcDbEntity
  8
ASSI
100
AcDbCircle
 62
7
  6
CONTINUOUS
 10
27.7
 20
22.2
 40
0.4
  0
CIRCLE
  5
8CE
100
AcDbEntity
  8
ASSI
100
AcDbCircle
 62
7
  6
CONTINUOUS
 10
28.3
 20
21.0
 40
0.4
  0
CIRCLE
  5
8CF
100
AcDbEntity
  8
0
100
AcDbCircle
 62
7
  6
CONTINUOUS
 10
28.9
 20
22.2
 40
0.4
  0
CIRCLE
  5
8D0
100
AcDbEntity
  8
0
100
AcDbCircle
 62
7
  6
CONTINUOUS
 10
27.7
 20
22.2
 40
0.4
  0
CIRCLE
  5
8D1
100
AcDbEntity
  8
0
100
AcDbCircle
 62
7
  6
CONTINUOUS
 10
28.3
 20
21.0
 40
0.4
  0
CIRCLE
  5
8D2
100
AcDbEntity
  8
ASSI
100
AcDbCircle
 62
7
  6
CONTINUOUS
 10
28.3
 20
23.5
 40
0.4
  0
CIRCLE
  5
8D3
100
AcDbEntity
  8
0
100
AcDbCircle
 62
7
  6
CONTINUOUS
 10
28.3
 20
23.5
 40
0.4
  0
CIRCLE
  5
8D4
100
AcDbEntity
  8
ASSI
100
AcDbCircle
 62
7
  6
CONTINUOUS
 10
26.5
 20
24.7
 40
0.4
  0
CIRCLE
  5
8D5
100
AcDbEntity
  8
0
100
AcDbCircle
 62
7
  6
CONTINUOUS
 10
26.5
 20
24.7
 40
0.4
  0
CIRCLE
  5
8D6
100
AcDbEntity
  8
ASSI
100
AcDbCircle
 62
7
  6
CONTINUOUS
 10
26.5
 20
27.2
 40
0.4
  0
CIRCLE
  5
8D7
100
AcDbEntity
  8
ASSI
100
AcDbCircle
 62
7
  6
CONTINUOUS
 10
27.1
 20
26.0
 40
0.4
  0
CIRCLE
  5
8D8
100
AcDbEntity
  8
0
100
AcDbCircle
 62
7
  6
CONTINUOUS
 10
26.5
 20
27.2
 40
0.4
  0
CIRCLE
  5
8D9
100
AcDbEntity
  8
0
100
AcDbCircle
 62
7
  6
CONTINUOUS
 10
27.1
 20
26.0
 40
0.4
  0
CIRCLE
  5
8DA
100
AcDbEntity
  8
ASSI
100
AcDbCircle
 62
7
  6
CONTINUOUS
 10
28.9
 20
24.7
 40
0.4
  0
CIRCLE
  5
8DB
100
AcDbEntity
  8
ASSI
100
AcDbCircle
 62
7
  6
CONTINUOUS
 10
27.7
 20
24.7
 40
0.4
  0
CIRCLE
  5
8DC
100
AcDbEntity
  8
0
100
AcDbCircle
 62
7
  6
CONTINUOUS
 10
28.9
 20
24.7
 40
0.4
  0
CIRCLE
  5
8DD
100
AcDbEntity
  8
0
100
AcDbCircle
 62
7
  6
CONTINUOUS
 10
27.7
 20
24.7
 40
0.4
  0
CIRCLE
  5
8DE
100
AcDbEntity
  8
ASSI
100
AcDbCircle
 62
7
  6
CONTINUOUS
 10
28.9
 20
27.2
 40
0.4
  0
CIRCLE
  5
8DF
100
AcDbEntity
  8
ASSI
100
AcDbCircle
 62
7
  6
CONTINUOUS
 10
27.7
 20
27.2
 40
0.4
  0
CIRCLE
  5
8E0
100
AcDbEntity
  8
ASSI
100
AcDbCircle
 62
7
  6
CONTINUOUS
 10
28.3
 20
26.0
 40
0.4
  0
CIRCLE
  5
8E1
100
AcDbEntity
  8
0
100
AcDbCircle
 62
7
  6
CONTINUOUS
 10
28.9
 20
27.2
 40
0.4
  0
CIRCLE
  5
8E2
100
AcDbEntity
  8
0
100
AcDbCircle
 62
7
  6
CONTINUOUS
 10
27.7
 20
27.2
 40
0.4
  0
CIRCLE
  5
8E3
100
AcDbEntity
  8
0
100
AcDbCircle
 62
7
  6
CONTINUOUS
 10
28.3
 20
26.0
 40
0.4
  0
CIRCLE
  5
8E4
100
AcDbEntity
  8
ASSI
100
AcDbCircle
 62
7
  6
CONTINUOUS
 10
30.1
 20
22.2
 40
0.4
  0
CIRCLE
  5
8E5
100
AcDbEntity
  8
ASSI
100
AcDbCircle
 62
7
  6
CONTINUOUS
 10
29.5
 20
21.0
 40
0.4
  0
CIRCLE
  5
8E6
100
AcDbEntity
  8
0
100
AcDbCircle
 62
7
  6
CONTINUOUS
 10
30.1
 20
22.2
 40
0.4
  0
CIRCLE
  5
8E7
100
AcDbEntity
  8
0
100
AcDbCircle
 62
7
  6
CONTINUOUS
 10
29.5
 20
21.0
 40
0.4
  0
CIRCLE
  5
8E8
100
AcDbEntity
  8
ASSI
100
AcDbCircle
 62
7
  6
CONTINUOUS
 10
29.5
 20
23.5
 40
0.4
  0
CIRCLE
  5
8E9
100
AcDbEntity
  8
0
100
AcDbCircle
 62
7
  6
CONTINUOUS
 10
29.5
 20
23.5
 40
0.4
  0
CIRCLE
  5
8EA
100
AcDbEntity
  8
ASSI
100
AcDbCircle
 62
7
  6
CONTINUOUS
 10
30.7
 20
21.0
 40
0.4
  0
ARC
  5
8EB
100
AcDbEntity
  8
0
100
AcDbCircle
 62
7
  6
CONTINUOUS
 10
31.3
 20
22.2
 40
0.4
100
AcDbArc
 50
84.2587187517
 51
295.48681179
  0
ARC
  5
8EC
100
AcDbEntity
  8
0
100
AcDbCircle
 62
7
  6
CONTINUOUS
 10
31.9
 20
21.0
 40
0.4
100
AcDbArc
 50
145.8106174893
 51
230.8797635004
  0
CIRCLE
  5
8ED
100
AcDbEntity
  8
0
100
AcDbCircle
 62
7
  6
CONTINUOUS
 10
30.7
 20
21.0
 40
0.4
  0
ARC
  5
8EE
100
AcDbEntity
  8
ASSI
100
AcDbCircle
 62
7
  6
CONTINUOUS
 10
31.3
 20
22.2
 40
0.4
100
AcDbArc
 50
84.2587187517
 51
295.48681179
  0
ARC
  5
8EF
100
AcDbEntity
  8
ASSI
100
AcDbCircle
 62
7
  6
CONTINUOUS
 10
31.9
 20
21.0
 40
0.4
100
AcDbArc
 50
145.8106174893
 51
230.8797635004
  0
CIRCLE
  5
8F0
100
AcDbEntity
  8
ASSI
100
AcDbCircle
 62
7
  6
CONTINUOUS
 10
30.7
 20
23.5
 40
0.4
  0
CIRCLE
  5
8F1
100
AcDbEntity
  8
0
100
AcDbCircle
 62
7
  6
CONTINUOUS
 10
30.7
 20
23.5
 40
0.4
  0
CIRCLE
  5
8F2
100
AcDbEntity
  8
ASSI
100
AcDbCircle
 62
7
  6
CONTINUOUS
 10
30.1
 20
24.7
 40
0.4
  0
CIRCLE
  5
8F3
100
AcDbEntity
  8
ASSI
100
AcDbCircle
 62
7
  6
CONTINUOUS
 10
29.5
 20
26.0
 40
0.4
  0
ARC
  5
8F4
100
AcDbEntity
  8
0
100
AcDbCircle
 62
7
  6
CONTINUOUS
 10
30.1
 20
27.2
 40
0.4
100
AcDbArc
 50
81.1343537124
 51
310.4784579439
  0
ARC
  5
8F5
100
AcDbEntity
  8
0
100
AcDbCircle
 62
7
  6
CONTINUOUS
 10
31.3
 20
24.7
 40
0.4
100
AcDbArc
 50
174.5136535198
 51
210.6900323842
  0
ARC
  5
8F6
100
AcDbEntity
  8
0
100
AcDbCircle
 62
7
  6
CONTINUOUS
 10
30.7
 20
26.0
 40
0.4
100
AcDbArc
 50
118.9987052138
 51
269.5763092176
  0
CIRCLE
  5
8F7
100
AcDbEntity
  8
0
100
AcDbCircle
 62
7
  6
CONTINUOUS
 10
30.1
 20
24.7
 40
0.4
  0
CIRCLE
  5
8F8
100
AcDbEntity
  8
0
100
AcDbCircle
 62
7
  6
CONTINUOUS
 10
29.5
 20
26.0
 40
0.4
  0
ARC
  5
8F9
100
AcDbEntity
  8
ASSI
100
AcDbCircle
 62
7
  6
CONTINUOUS
 10
30.1
 20
27.2
 40
0.4
100
AcDbArc
 50
81.1343537124
 51
310.4784579439
  0
ARC
  5
8FA
100
AcDbEntity
  8
ASSI
100
AcDbCircle
 62
7
  6
CONTINUOUS
 10
31.3
 20
24.7
 40
0.4
100
AcDbArc
 50
174.5136535198
 51
210.6900323842
  0
ARC
  5
8FB
100
AcDbEntity
  8
ASSI
100
AcDbCircle
 62
7
  6
CONTINUOUS
 10
30.7
 20
26.0
 40
0.4
100
AcDbArc
 50
118.9987052138
 51
269.5763092176
  0
CIRCLE
  5
8FC
100
AcDbEntity
  8
ASSI
100
AcDbCircle
 62
7
  6
CONTINUOUS
 10
22.3
 20
31.0
 40
0.4
  0
CIRCLE
  5
8FD
100
AcDbEntity
  8
ASSI
100
AcDbCircle
 62
7
  6
CONTINUOUS
 10
21.7
 20
29.7
 40
0.4
  0
CIRCLE
  5
8FE
100
AcDbEntity
  8
ASSI
100
AcDbCircle
 62
7
  6
CONTINUOUS
 10
21.1
 20
31.0
 40
0.4
  0
CIRCLE
  5
8FF
100
AcDbEntity
  8
ASSI
100
AcDbCircle
 62
7
  6
CONTINUOUS
 10
20.5
 20
29.7
 40
0.4
  0
CIRCLE
  5
900
100
AcDbEntity
  8
ASSI
100
AcDbCircle
 62
7
  6
CONTINUOUS
 10
22.3
 20
28.5
 40
0.4
  0
CIRCLE
  5
901
100
AcDbEntity
  8
ASSI
100
AcDbCircle
 62
7
  6
CONTINUOUS
 10
21.1
 20
28.5
 40
0.4
  0
CIRCLE
  5
902
100
AcDbEntity
  8
0
100
AcDbCircle
 62
7
  6
CONTINUOUS
 10
22.3
 20
31.0
 40
0.4
  0
CIRCLE
  5
903
100
AcDbEntity
  8
0
100
AcDbCircle
 62
7
  6
CONTINUOUS
 10
21.7
 20
29.7
 40
0.4
  0
CIRCLE
  5
904
100
AcDbEntity
  8
0
100
AcDbCircle
 62
7
  6
CONTINUOUS
 10
21.1
 20
31.0
 40
0.4
  0
CIRCLE
  5
905
100
AcDbEntity
  8
0
100
AcDbCircle
 62
7
  6
CONTINUOUS
 10
20.5
 20
29.7
 40
0.4
  0
CIRCLE
  5
906
100
AcDbEntity
  8
0
100
AcDbCircle
 62
7
  6
CONTINUOUS
 10
22.3
 20
28.5
 40
0.4
  0
CIRCLE
  5
907
100
AcDbEntity
  8
0
100
AcDbCircle
 62
7
  6
CONTINUOUS
 10
21.1
 20
28.5
 40
0.4
  0
CIRCLE
  5
908
100
AcDbEntity
  8
ASSI
100
AcDbCircle
 62
7
  6
CONTINUOUS
 10
21.7
 20
34.7
 40
0.4
  0
CIRCLE
  5
909
100
AcDbEntity
  8
ASSI
100
AcDbCircle
 62
7
  6
CONTINUOUS
 10
20.5
 20
34.7
 40
0.4
  0
CIRCLE
  5
90A
100
AcDbEntity
  8
ASSI
100
AcDbCircle
 62
7
  6
CONTINUOUS
 10
22.3
 20
33.5
 40
0.4
  0
CIRCLE
  5
90B
100
AcDbEntity
  8
ASSI
100
AcDbCircle
 62
7
  6
CONTINUOUS
 10
21.7
 20
32.2
 40
0.4
  0
CIRCLE
  5
90C
100
AcDbEntity
  8
ASSI
100
AcDbCircle
 62
7
  6
CONTINUOUS
 10
21.1
 20
33.5
 40
0.4
  0
CIRCLE
  5
90D
100
AcDbEntity
  8
ASSI
100
AcDbCircle
 62
7
  6
CONTINUOUS
 10
20.5
 20
32.2
 40
0.4
  0
CIRCLE
  5
90E
100
AcDbEntity
  8
0
100
AcDbCircle
 62
7
  6
CONTINUOUS
 10
21.7
 20
34.7
 40
0.4
  0
CIRCLE
  5
90F
100
AcDbEntity
  8
0
100
AcDbCircle
 62
7
  6
CONTINUOUS
 10
20.5
 20
34.7
 40
0.4
  0
CIRCLE
  5
910
100
AcDbEntity
  8
0
100
AcDbCircle
 62
7
  6
CONTINUOUS
 10
22.3
 20
33.5
 40
0.4
  0
CIRCLE
  5
911
100
AcDbEntity
  8
0
100
AcDbCircle
 62
7
  6
CONTINUOUS
 10
21.7
 20
32.2
 40
0.4
  0
CIRCLE
  5
912
100
AcDbEntity
  8
0
100
AcDbCircle
 62
7
  6
CONTINUOUS
 10
21.1
 20
33.5
 40
0.4
  0
CIRCLE
  5
913
100
AcDbEntity
  8
0
100
AcDbCircle
 62
7
  6
CONTINUOUS
 10
20.5
 20
32.2
 40
0.4
  0
CIRCLE
  5
914
100
AcDbEntity
  8
ASSI
100
AcDbCircle
 62
7
  6
CONTINUOUS
 10
24.7
 20
31.0
 40
0.4
  0
CIRCLE
  5
915
100
AcDbEntity
  8
ASSI
100
AcDbCircle
 62
7
  6
CONTINUOUS
 10
24.1
 20
29.7
 40
0.4
  0
CIRCLE
  5
916
100
AcDbEntity
  8
ASSI
100
AcDbCircle
 62
7
  6
CONTINUOUS
 10
23.5
 20
31.0
 40
0.4
  0
CIRCLE
  5
917
100
AcDbEntity
  8
ASSI
100
AcDbCircle
 62
7
  6
CONTINUOUS
 10
22.9
 20
29.7
 40
0.4
  0
CIRCLE
  5
918
100
AcDbEntity
  8
ASSI
100
AcDbCircle
 62
7
  6
CONTINUOUS
 10
24.7
 20
28.5
 40
0.4
  0
CIRCLE
  5
919
100
AcDbEntity
  8
ASSI
100
AcDbCircle
 62
7
  6
CONTINUOUS
 10
23.5
 20
28.5
 40
0.4
  0
CIRCLE
  5
91A
100
AcDbEntity
  8
0
100
AcDbCircle
 62
7
  6
CONTINUOUS
 10
24.7
 20
31.0
 40
0.4
  0
CIRCLE
  5
91B
100
AcDbEntity
  8
0
100
AcDbCircle
 62
7
  6
CONTINUOUS
 10
24.1
 20
29.7
 40
0.4
  0
CIRCLE
  5
91C
100
AcDbEntity
  8
0
100
AcDbCircle
 62
7
  6
CONTINUOUS
 10
23.5
 20
31.0
 40
0.4
  0
CIRCLE
  5
91D
100
AcDbEntity
  8
0
100
AcDbCircle
 62
7
  6
CONTINUOUS
 10
22.9
 20
29.7
 40
0.4
  0
CIRCLE
  5
91E
100
AcDbEntity
  8
0
100
AcDbCircle
 62
7
  6
CONTINUOUS
 10
24.7
 20
28.5
 40
0.4
  0
CIRCLE
  5
91F
100
AcDbEntity
  8
0
100
AcDbCircle
 62
7
  6
CONTINUOUS
 10
23.5
 20
28.5
 40
0.4
  0
CIRCLE
  5
920
100
AcDbEntity
  8
ASSI
100
AcDbCircle
 62
7
  6
CONTINUOUS
 10
24.1
 20
34.7
 40
0.4
  0
CIRCLE
  5
921
100
AcDbEntity
  8
ASSI
100
AcDbCircle
 62
7
  6
CONTINUOUS
 10
22.9
 20
34.7
 40
0.4
  0
CIRCLE
  5
922
100
AcDbEntity
  8
ASSI
100
AcDbCircle
 62
7
  6
CONTINUOUS
 10
24.7
 20
33.5
 40
0.4
  0
CIRCLE
  5
923
100
AcDbEntity
  8
ASSI
100
AcDbCircle
 62
7
  6
CONTINUOUS
 10
24.1
 20
32.2
 40
0.4
  0
CIRCLE
  5
924
100
AcDbEntity
  8
ASSI
100
AcDbCircle
 62
7
  6
CONTINUOUS
 10
23.5
 20
33.5
 40
0.4
  0
CIRCLE
  5
925
100
AcDbEntity
  8
ASSI
100
AcDbCircle
 62
7
  6
CONTINUOUS
 10
22.9
 20
32.2
 40
0.4
  0
CIRCLE
  5
926
100
AcDbEntity
  8
0
100
AcDbCircle
 62
7
  6
CONTINUOUS
 10
24.1
 20
34.7
 40
0.4
  0
CIRCLE
  5
927
100
AcDbEntity
  8
0
100
AcDbCircle
 62
7
  6
CONTINUOUS
 10
22.9
 20
34.7
 40
0.4
  0
CIRCLE
  5
928
100
AcDbEntity
  8
0
100
AcDbCircle
 62
7
  6
CONTINUOUS
 10
24.7
 20
33.5
 40
0.4
  0
CIRCLE
  5
929
100
AcDbEntity
  8
0
100
AcDbCircle
 62
7
  6
CONTINUOUS
 10
24.1
 20
32.2
 40
0.4
  0
CIRCLE
  5
92A
100
AcDbEntity
  8
0
100
AcDbCircle
 62
7
  6
CONTINUOUS
 10
23.5
 20
33.5
 40
0.4
  0
CIRCLE
  5
92B
100
AcDbEntity
  8
0
100
AcDbCircle
 62
7
  6
CONTINUOUS
 10
22.9
 20
32.2
 40
0.4
  0
ARC
  5
92C
100
AcDbEntity
  8
DRAFT
100
AcDbCircle
 62
7
  6
CONTINUOUS
 10
21.9180240924
 20
38.0496892416
 40
3.3645884914
100
AcDbArc
 50
31.6116119504
 51
90.0559519405
  0
ARC
  5
92D
100
AcDbEntity
  8
DRAFT
100
AcDbCircle
 62
7
  6
CONTINUOUS
 10
21.9194876255
 20
38.0495071277
 40
3.3257907804
100
AcDbArc
 50
31.6278823088
 51
90.081818011
  0
CIRCLE
  5
92E
100
AcDbEntity
  8
ASSI
100
AcDbCircle
 62
7
  6
CONTINUOUS
 10
21.7
 20
37.2
 40
0.4
  0
CIRCLE
  5
92F
100
AcDbEntity
  8
ASSI
100
AcDbCircle
 62
7
  6
CONTINUOUS
 10
20.5
 20
37.2
 40
0.4
  0
CIRCLE
  5
930
100
AcDbEntity
  8
ASSI
100
AcDbCircle
 62
7
  6
CONTINUOUS
 10
22.3
 20
36.0
 40
0.4
  0
CIRCLE
  5
931
100
AcDbEntity
  8
ASSI
100
AcDbCircle
 62
7
  6
CONTINUOUS
 10
21.1
 20
36.0
 40
0.4
  0
CIRCLE
  5
932
100
AcDbEntity
  8
0
100
AcDbCircle
 62
7
  6
CONTINUOUS
 10
21.7
 20
37.2
 40
0.4
  0
CIRCLE
  5
933
100
AcDbEntity
  8
0
100
AcDbCircle
 62
7
  6
CONTINUOUS
 10
20.5
 20
37.2
 40
0.4
  0
CIRCLE
  5
934
100
AcDbEntity
  8
0
100
AcDbCircle
 62
7
  6
CONTINUOUS
 10
22.3
 20
36.0
 40
0.4
  0
CIRCLE
  5
935
100
AcDbEntity
  8
0
100
AcDbCircle
 62
7
  6
CONTINUOUS
 10
21.1
 20
36.0
 40
0.4
  0
CIRCLE
  5
936
100
AcDbEntity
  8
ASSI
100
AcDbCircle
 62
7
  6
CONTINUOUS
 10
20.5
 20
39.7
 40
0.4
  0
CIRCLE
  5
937
100
AcDbEntity
  8
ASSI
100
AcDbCircle
 62
7
  6
CONTINUOUS
 10
21.1
 20
38.5
 40
0.4
  0
CIRCLE
  5
938
100
AcDbEntity
  8
0
100
AcDbCircle
 62
7
  6
CONTINUOUS
 10
20.5
 20
39.7
 40
0.4
  0
CIRCLE
  5
939
100
AcDbEntity
  8
0
100
AcDbCircle
 62
7
  6
CONTINUOUS
 10
21.1
 20
38.5
 40
0.4
  0
ARC
  5
93A
100
AcDbEntity
  8
0
100
AcDbCircle
 62
7
  6
CONTINUOUS
 10
21.1
 20
41.0
 40
0.4
100
AcDbArc
 50
110.6232083679
 51
69.5020542888
  0
ARC
  5
93B
100
AcDbEntity
  8
ASSI
100
AcDbCircle
 62
7
  6
CONTINUOUS
 10
21.1
 20
41.0
 40
0.4
100
AcDbArc
 50
110.6232083679
 51
69.5020542888
  0
CIRCLE
  5
93C
100
AcDbEntity
  8
ASSI
100
AcDbCircle
 62
7
  6
CONTINUOUS
 10
21.7
 20
39.7
 40
0.4
  0
CIRCLE
  5
93D
100
AcDbEntity
  8
ASSI
100
AcDbCircle
 62
7
  6
CONTINUOUS
 10
22.3
 20
38.5
 40
0.4
  0
CIRCLE
  5
93E
100
AcDbEntity
  8
0
100
AcDbCircle
 62
7
  6
CONTINUOUS
 10
21.7
 20
39.7
 40
0.4
  0
CIRCLE
  5
93F
100
AcDbEntity
  8
0
100
AcDbCircle
 62
7
  6
CONTINUOUS
 10
22.3
 20
38.5
 40
0.4
  0
ARC
  5
940
100
AcDbEntity
  8
0
100
AcDbCircle
 62
7
  6
CONTINUOUS
 10
22.3
 20
41.0
 40
0.4
100
AcDbArc
 50
113.3728767554
 51
51.8982155617
  0
ARC
  5
941
100
AcDbEntity
  8
ASSI
100
AcDbCircle
 62
7
  6
CONTINUOUS
 10
22.3
 20
41.0
 40
0.4
100
AcDbArc
 50
113.3728767554
 51
51.8982155617
  0
CIRCLE
  5
942
100
AcDbEntity
  8
ASSI
100
AcDbCircle
 62
7
  6
CONTINUOUS
 10
24.1
 20
37.2
 40
0.4
  0
CIRCLE
  5
943
100
AcDbEntity
  8
ASSI
100
AcDbCircle
 62
7
  6
CONTINUOUS
 10
22.9
 20
37.2
 40
0.4
  0
CIRCLE
  5
944
100
AcDbEntity
  8
ASSI
100
AcDbCircle
 62
7
  6
CONTINUOUS
 10
24.7
 20
36.0
 40
0.4
  0
CIRCLE
  5
945
100
AcDbEntity
  8
ASSI
100
AcDbCircle
 62
7
  6
CONTINUOUS
 10
23.5
 20
36.0
 40
0.4
  0
CIRCLE
  5
946
100
AcDbEntity
  8
0
100
AcDbCircle
 62
7
  6
CONTINUOUS
 10
24.1
 20
37.2
 40
0.4
  0
CIRCLE
  5
947
100
AcDbEntity
  8
0
100
AcDbCircle
 62
7
  6
CONTINUOUS
 10
22.9
 20
37.2
 40
0.4
  0
CIRCLE
  5
948
100
AcDbEntity
  8
0
100
AcDbCircle
 62
7
  6
CONTINUOUS
 10
24.7
 20
36.0
 40
0.4
  0
CIRCLE
  5
949
100
AcDbEntity
  8
0
100
AcDbCircle
 62
7
  6
CONTINUOUS
 10
23.5
 20
36.0
 40
0.4
  0
CIRCLE
  5
94A
100
AcDbEntity
  8
ASSI
100
AcDbCircle
 62
7
  6
CONTINUOUS
 10
24.1
 20
39.7
 40
0.4
  0
CIRCLE
  5
94B
100
AcDbEntity
  8
ASSI
100
AcDbCircle
 62
7
  6
CONTINUOUS
 10
22.9
 20
39.7
 40
0.4
  0
CIRCLE
  5
94C
100
AcDbEntity
  8
ASSI
100
AcDbCircle
 62
7
  6
CONTINUOUS
 10
24.7
 20
38.5
 40
0.4
  0
CIRCLE
  5
94D
100
AcDbEntity
  8
ASSI
100
AcDbCircle
 62
7
  6
CONTINUOUS
 10
23.5
 20
38.5
 40
0.4
  0
CIRCLE
  5
94E
100
AcDbEntity
  8
0
100
AcDbCircle
 62
7
  6
CONTINUOUS
 10
24.1
 20
39.7
 40
0.4
  0
ARC
  5
94F
100
AcDbEntity
  8
0
100
AcDbCircle
 62
7
  6
CONTINUOUS
 10
23.5
 20
41.0
 40
0.4
100
AcDbArc
 50
158.429505251
 51
325.2177545228
  0
CIRCLE
  5
950
100
AcDbEntity
  8
0
100
AcDbCircle
 62
7
  6
CONTINUOUS
 10
22.9
 20
39.7
 40
0.4
  0
CIRCLE
  5
951
100
AcDbEntity
  8
0
100
AcDbCircle
 62
7
  6
CONTINUOUS
 10
24.7
 20
38.5
 40
0.4
  0
CIRCLE
  5
952
100
AcDbEntity
  8
0
100
AcDbCircle
 62
7
  6
CONTINUOUS
 10
23.5
 20
38.5
 40
0.4
  0
ARC
  5
953
100
AcDbEntity
  8
ASSI
100
AcDbCircle
 62
7
  6
CONTINUOUS
 10
23.5
 20
41.0
 40
0.4
100
AcDbArc
 50
158.429505251
 51
325.2177545228
  0
CIRCLE
  5
954
100
AcDbEntity
  8
ASSI
100
AcDbCircle
 62
7
  6
CONTINUOUS
 10
27.1
 20
31.0
 40
0.4
  0
CIRCLE
  5
955
100
AcDbEntity
  8
ASSI
100
AcDbCircle
 62
7
  6
CONTINUOUS
 10
26.5
 20
29.7
 40
0.4
  0
CIRCLE
  5
956
100
AcDbEntity
  8
ASSI
100
AcDbCircle
 62
7
  6
CONTINUOUS
 10
25.9
 20
31.0
 40
0.4
  0
CIRCLE
  5
957
100
AcDbEntity
  8
ASSI
100
AcDbCircle
 62
7
  6
CONTINUOUS
 10
25.3
 20
29.7
 40
0.4
  0
CIRCLE
  5
958
100
AcDbEntity
  8
ASSI
100
AcDbCircle
 62
7
  6
CONTINUOUS
 10
27.1
 20
28.5
 40
0.4
  0
CIRCLE
  5
959
100
AcDbEntity
  8
ASSI
100
AcDbCircle
 62
7
  6
CONTINUOUS
 10
25.9
 20
28.5
 40
0.4
  0
CIRCLE
  5
95A
100
AcDbEntity
  8
0
100
AcDbCircle
 62
7
  6
CONTINUOUS
 10
27.1
 20
31.0
 40
0.4
  0
CIRCLE
  5
95B
100
AcDbEntity
  8
0
100
AcDbCircle
 62
7
  6
CONTINUOUS
 10
26.5
 20
29.7
 40
0.4
  0
CIRCLE
  5
95C
100
AcDbEntity
  8
0
100
AcDbCircle
 62
7
  6
CONTINUOUS
 10
25.9
 20
31.0
 40
0.4
  0
CIRCLE
  5
95D
100
AcDbEntity
  8
0
100
AcDbCircle
 62
7
  6
CONTINUOUS
 10
25.3
 20
29.7
 40
0.4
  0
CIRCLE
  5
95E
100
AcDbEntity
  8
0
100
AcDbCircle
 62
7
  6
CONTINUOUS
 10
27.1
 20
28.5
 40
0.4
  0
CIRCLE
  5
95F
100
AcDbEntity
  8
0
100
AcDbCircle
 62
7
  6
CONTINUOUS
 10
25.9
 20
28.5
 40
0.4
  0
CIRCLE
  5
960
100
AcDbEntity
  8
ASSI
100
AcDbCircle
 62
7
  6
CONTINUOUS
 10
25.3
 20
34.7
 40
0.4
  0
CIRCLE
  5
961
100
AcDbEntity
  8
ASSI
100
AcDbCircle
 62
7
  6
CONTINUOUS
 10
27.1
 20
33.5
 40
0.4
  0
CIRCLE
  5
962
100
AcDbEntity
  8
ASSI
100
AcDbCircle
 62
7
  6
CONTINUOUS
 10
26.5
 20
32.2
 40
0.4
  0
CIRCLE
  5
963
100
AcDbEntity
  8
ASSI
100
AcDbCircle
 62
7
  6
CONTINUOUS
 10
25.9
 20
33.5
 40
0.4
  0
CIRCLE
  5
964
100
AcDbEntity
  8
ASSI
100
AcDbCircle
 62
7
  6
CONTINUOUS
 10
25.3
 20
32.2
 40
0.4
  0
ARC
  5
965
100
AcDbEntity
  8
0
100
AcDbCircle
 62
7
  6
CONTINUOUS
 10
26.5
 20
34.7
 40
0.4
100
AcDbArc
 50
89.9970271125
 51
1.0401134789
  0
CIRCLE
  5
966
100
AcDbEntity
  8
0
100
AcDbCircle
 62
7
  6
CONTINUOUS
 10
25.3
 20
34.7
 40
0.4
  0
CIRCLE
  5
967
100
AcDbEntity
  8
0
100
AcDbCircle
 62
7
  6
CONTINUOUS
 10
27.1
 20
33.5
 40
0.4
  0
CIRCLE
  5
968
100
AcDbEntity
  8
0
100
AcDbCircle
 62
7
  6
CONTINUOUS
 10
26.5
 20
32.2
 40
0.4
  0
CIRCLE
  5
969
100
AcDbEntity
  8
0
100
AcDbCircle
 62
7
  6
CONTINUOUS
 10
25.9
 20
33.5
 40
0.4
  0
CIRCLE
  5
96A
100
AcDbEntity
  8
0
100
AcDbCircle
 62
7
  6
CONTINUOUS
 10
25.3
 20
32.2
 40
0.4
  0
ARC
  5
96B
100
AcDbEntity
  8
ASSI
100
AcDbCircle
 62
7
  6
CONTINUOUS
 10
26.5
 20
34.7
 40
0.4
100
AcDbArc
 50
89.9970271125
 51
1.0401134789
  0
CIRCLE
  5
96C
100
AcDbEntity
  8
ASSI
100
AcDbCircle
 62
7
  6
CONTINUOUS
 10
28.9
 20
29.7
 40
0.4
  0
CIRCLE
  5
96D
100
AcDbEntity
  8
ASSI
100
AcDbCircle
 62
7
  6
CONTINUOUS
 10
28.3
 20
31.0
 40
0.4
  0
CIRCLE
  5
96E
100
AcDbEntity
  8
ASSI
100
AcDbCircle
 62
7
  6
CONTINUOUS
 10
27.7
 20
29.7
 40
0.4
  0
CIRCLE
  5
96F
100
AcDbEntity
  8
ASSI
100
AcDbCircle
 62
7
  6
CONTINUOUS
 10
28.3
 20
28.5
 40
0.4
  0
CIRCLE
  5
970
100
AcDbEntity
  8
0
100
AcDbCircle
 62
7
  6
CONTINUOUS
 10
28.9
 20
29.7
 40
0.4
  0
CIRCLE
  5
971
100
AcDbEntity
  8
0
100
AcDbCircle
 62
7
  6
CONTINUOUS
 10
28.3
 20
31.0
 40
0.4
  0
CIRCLE
  5
972
100
AcDbEntity
  8
0
100
AcDbCircle
 62
7
  6
CONTINUOUS
 10
27.7
 20
29.7
 40
0.4
  0
ARC
  5
973
100
AcDbEntity
  8
0
100
AcDbCircle
 62
7
  6
CONTINUOUS
 10
29.5
 20
28.5
 40
0.4
100
AcDbArc
 50
38.8634944713
 51
355.5561789397
  0
CIRCLE
  5
974
100
AcDbEntity
  8
0
100
AcDbCircle
 62
7
  6
CONTINUOUS
 10
28.3
 20
28.5
 40
0.4
  0
ARC
  5
975
100
AcDbEntity
  8
ASSI
100
AcDbCircle
 62
7
  6
CONTINUOUS
 10
29.5
 20
28.5
 40
0.4
100
AcDbArc
 50
38.8634944713
 51
355.5561789397
  0
CIRCLE
  5
976
100
AcDbEntity
  8
ASSI
100
AcDbCircle
 62
7
  6
CONTINUOUS
 10
27.7
 20
32.2
 40
0.4
  0
ARC
  5
977
100
AcDbEntity
  8
0
100
AcDbCircle
 62
7
  6
CONTINUOUS
 10
27.7
 20
34.7
 40
0.4
100
AcDbArc
 50
178.9627816896
 51
266.5178599277
  0
ARC
  5
978
100
AcDbEntity
  8
0
100
AcDbCircle
 62
7
  6
CONTINUOUS
 10
28.9
 20
32.2
 40
0.4
100
AcDbArc
 50
161.1564467475
 51
242.2175355365
  0
ARC
  5
979
100
AcDbEntity
  8
0
100
AcDbCircle
 62
7
  6
CONTINUOUS
 10
28.3
 20
33.5
 40
0.4
100
AcDbArc
 50
151.577760289
 51
255.1070727056
  0
CIRCLE
  5
97A
100
AcDbEntity
  8
0
100
AcDbCircle
 62
7
  6
CONTINUOUS
 10
27.7
 20
32.2
 40
0.4
  0
ARC
  5
97B
100
AcDbEntity
  8
ASSI
100
AcDbCircle
 62
7
  6
CONTINUOUS
 10
27.7
 20
34.7
 40
0.4
100
AcDbArc
 50
178.9627816896
 51
266.5178599277
  0
ARC
  5
97C
100
AcDbEntity
  8
ASSI
100
AcDbCircle
 62
7
  6
CONTINUOUS
 10
28.9
 20
32.2
 40
0.4
100
AcDbArc
 50
161.1564467475
 51
242.2175355365
  0
ARC
  5
97D
100
AcDbEntity
  8
ASSI
100
AcDbCircle
 62
7
  6
CONTINUOUS
 10
28.3
 20
33.5
 40
0.4
100
AcDbArc
 50
151.577760289
 51
255.1070727056
  0
CIRCLE
  5
97E
100
AcDbEntity
  8
ASSI
100
AcDbCircle
 62
7
  6
CONTINUOUS
 10
25.3
 20
37.2
 40
0.4
  0
CIRCLE
  5
97F
100
AcDbEntity
  8
ASSI
100
AcDbCircle
 62
7
  6
CONTINUOUS
 10
25.9
 20
36.0
 40
0.4
  0
ARC
  5
980
100
AcDbEntity
  8
0
100
AcDbCircle
 62
7
  6
CONTINUOUS
 10
26.5
 20
37.2
 40
0.4
100
AcDbArc
 50
152.9111358104
 51
263.0966151154
  0
ARC
  5
981
100
AcDbEntity
  8
0
100
AcDbCircle
 62
7
  6
CONTINUOUS
 10
25.9
 20
38.5
 40
0.4
100
AcDbArc
 50
175.1042271035
 51
243.9202699906
  0
CIRCLE
  5
982
100
AcDbEntity
  8
0
100
AcDbCircle
 62
7
  6
CONTINUOUS
 10
25.3
 20
37.2
 40
0.4
  0
ARC
  5
983
100
AcDbEntity
  8
0
100
AcDbCircle
 62
7
  6
CONTINUOUS
 10
27.1
 20
36.0
 40
0.4
100
AcDbArc
 50
148.6217250298
 51
211.2192543597
  0
CIRCLE
  5
984
100
AcDbEntity
  8
0
100
AcDbCircle
 62
7
  6
CONTINUOUS
 10
25.9
 20
36.0
 40
0.4
  0
ARC
  5
985
100
AcDbEntity
  8
ASSI
100
AcDbCircle
 62
7
  6
CONTINUOUS
 10
26.5
 20
37.2
 40
0.4
100
AcDbArc
 50
152.9111358104
 51
263.0966151154
  0
ARC
  5
986
100
AcDbEntity
  8
ASSI
100
AcDbCircle
 62
7
  6
CONTINUOUS
 10
25.9
 20
38.5
 40
0.4
100
AcDbArc
 50
175.1042271035
 51
243.9202699906
  0
ARC
  5
987
100
AcDbEntity
  8
ASSI
100
AcDbCircle
 62
7
  6
CONTINUOUS
 10
27.1
 20
36.0
 40
0.4
100
AcDbArc
 50
148.6217250298
 51
211.2192543597
  0
SPLINE
  5
988
100
AcDbEntity
  8
RACCORDO
100
AcDbSpline
 62
7
  6
CONTINUOUS
 70
0
 71
3
 72
9
 73
5
 74
0
 42
0.0000001
 43
0.0000001
 44
0.0000000001
 40
0.0
 40
0.0
 40
0.0
 40
0.0
 40
0.2168173998
 40
1.0
 40
1.0
 40
1.0
 40
1.0
 10
23.2664100589
 20
-44.3842118847
 30
0.0
 10
23.2411170011
 20
-44.3809295031
 30
0.0
 10
23.1252888445
 20
-44.360230062
 30
0.0
 10
23.0131608534
 20
-44.316837542
 30
0.0
 10
22.9335899411
 20
-44.2704022031
 30
0.0
  0
SPLINE
  5
989
100
AcDbEntity
  8
RACCORDO
100
AcDbSpline
 62
7
  6
CONTINUOUS
 70
0
 71
3
 72
9
 73
5
 74
0
 42
0.0000001
 43
0.0000001
 44
0.0000000001
 40
0.0
 40
0.0
 40
0.0
 40
0.0
 40
0.2011256508
 40
1.0
 40
1.0
 40
1.0
 40
1.0
 10
22.9335899411
 20
-42.6295977969
 30
0.0
 10
22.9450079065
 20
-42.6229345945
 30
0.0
 10
23.0025713192
 20
-42.5911939886
 30
0.0
 10
23.0637203559
 20
-42.5658466239
 30
0.0
 10
23.113763187
 20
-42.5499400937
 30
0.0
  0
SPLINE
  5
98A
100
AcDbEntity
  8
RACCORDO
100
AcDbSpline
 62
7
  6
CONTINUOUS
 70
0
 71
3
 72
9
 73
5
 74
0
 42
0.0000001
 43
0.0000001
 44
0.0000000001
 40
0.0
 40
0.0
 40
0.0
 40
0.0
 40
0.213630616
 40
1.0
 40
1.0
 40
1.0
 40
1.0
 10
22.7682793032
 20
-44.1481743529
 30
0.0
 10
22.7520626431
 20
-44.1332149475
 30
0.0
 10
22.6783934167
 20
-44.0608355091
 30
0.0
 10
22.6162218406
 20
-43.9764251161
 30
0.0
 10
22.5769077355
 20
-43.9053627987
 30
0.0
  0
SPLINE
  5
98B
100
AcDbEntity
  8
RACCORDO
100
AcDbSpline
 62
7
  6
CONTINUOUS
 70
0
 71
3
 72
9
 73
5
 74
0
 42
0.0000001
 43
0.0000001
 44
0.0000000001
 40
0.0
 40
0.0
 40
0.0
 40
0.0
 40
0.2702742036
 40
1.0
 40
1.0
 40
1.0
 40
1.0
 10
22.5769077355
 20
-42.9946372013
 30
0.0
 10
22.5904257668
 20
-42.9702026471
 30
0.0
 10
22.6443927424
 20
-42.8820031494
 30
0.0
 10
22.7128620908
 20
-42.8029464416
 30
0.0
 10
22.7682793032
 20
-42.7518256471
 30
0.0
  0
SPLINE
  5
98C
100
AcDbEntity
  8
RACCORDO
100
AcDbSpline
 62
7
  6
CONTINUOUS
 70
0
 71
3
 72
9
 73
5
 74
0
 42
0.0000001
 43
0.0000001
 44
0.0000000001
 40
0.0
 40
0.0
 40
0.0
 40
0.0
 40
0.213630616
 40
1.0
 40
1.0
 40
1.0
 40
1.0
 10
30.4317206968
 20
-42.7518256471
 30
0.0
 10
30.4479373569
 20
-42.7667850525
 30
0.0
 10
30.5216065833
 20
-42.8391644909
 30
0.0
 10
30.5837781594
 20
-42.9235748839
 30
0.0
 10
30.6230922645
 20
-42.9946372013
 30
0.0
  0
SPLINE
  5
98D
100
AcDbEntity
  8
RACCORDO
100
AcDbSpline
 62
7
  6
CONTINUOUS
 70
0
 71
3
 72
9
 73
5
 74
0
 42
0.0000001
 43
0.0000001
 44
0.0000000001
 40
0.0
 40
0.0
 40
0.0
 40
0.0
 40
0.2240281829
 40
1.0
 40
1.0
 40
1.0
 40
1.0
 10
30.2664100589
 20
-44.2704022031
 30
0.0
 10
30.2436475385
 20
-44.2836857677
 30
0.0
 10
30.1393200352
 20
-44.3381020665
 30
0.0
 10
30.0241172346
 20
-44.3724637945
 30
0.0
 10
29.9335899411
 20
-44.3842118847
 30
0.0
  0
SPLINE
  5
98E
100
AcDbEntity
  8
RACCORDO
100
AcDbSpline
 62
7
  6
CONTINUOUS
 70
0
 71
3
 72
9
 73
5
 74
0
 42
0.0000001
 43
0.0000001
 44
0.0000000001
 40
0.0
 40
0.0
 40
0.0
 40
0.0
 40
0.2702742036
 40
1.0
 40
1.0
 40
1.0
 40
1.0
 10
30.6230922645
 20
-43.9053627987
 30
0.0
 10
30.6095742332
 20
-43.9297973529
 30
0.0
 10
30.5556072576
 20
-44.0179968506
 30
0.0
 10
30.4871379092
 20
-44.0970535584
 30
0.0
 10
30.4317206968
 20
-44.1481743529
 30
0.0
  0
SPLINE
  5
98F
100
AcDbEntity
  8
RACCORDO
100
AcDbSpline
 62
7
  6
CONTINUOUS
 70
0
 71
3
 72
9
 73
5
 74
0
 42
0.0000001
 43
0.0000001
 44
0.0000000001
 40
0.0
 40
0.0
 40
0.0
 40
0.0
 40
0.2840261913
 40
1.0
 40
1.0
 40
1.0
 40
1.0
 10
30.0861786563
 20
-42.549919298
 30
0.0
 10
30.1039805714
 20
-42.5555768603
 30
0.0
 10
30.1660497224
 20
-42.5773708465
 30
0.0
 10
30.2257416834
 20
-42.6058648806
 30
0.0
 10
30.2664100589
 20
-42.6295977969
 30
0.0
  0
LINE
  5
990
100
AcDbEntity
  8
DRAFT
100
AcDbLine
 62
7
  6
CONTINUOUS
 10
21.9147384189
 20
41.3752945172
 11
19.3928271157
 21
41.3719609352
  0
SPLINE
  5
991
100
AcDbEntity
  8
DRAFT
100
AcDbSpline
 62
7
  6
CONTINUOUS
 70
0
 71
3
 72
9
 73
5
 74
0
 42
0.0000001
 43
0.0000001
 44
0.0000000001
 40
0.0
 40
0.0
 40
0.0
 40
0.0
 40
0.2496795958
 40
1.0
 40
1.0
 40
1.0
 40
1.0
 10
18.3073602247
 20
41.3706549705
 30
0.0
 10
17.9904868804
 20
41.3702850062
 30
0.0
 10
16.7213669321
 20
41.3688427646
 30
0.0
 10
15.4522468047
 20
41.3675583104
 30
0.0
 10
14.5
 20
41.3666827414
 30
0.0
  0
SPLINE
  5
992
100
AcDbEntity
  8
DRAFT
100
AcDbSpline
 62
7
  6
CONTINUOUS
 70
0
 71
3
 72
9
 73
5
 74
0
 42
0.0000001
 43
0.0000001
 44
0.0000000001
 40
0.0
 40
0.0
 40
0.0
 40
0.0
 40
0.2502998581
 40
1.0
 40
1.0
 40
1.0
 40
1.0
 10
14.5
 20
13.5333508098
 30
0.0
 10
14.8170614619
 20
13.5330591698
 30
0.0
 10
16.0837879203
 20
13.5318546785
 30
0.0
 10
17.350514229
 20
13.53049276
 30
0.0
 10
18.3001790148
 20
13.5293825673
 30
0.0
  0
LINE
  5
993
100
AcDbEntity
  8
DRAFT
100
AcDbLine
 62
7
  6
CONTINUOUS
 10
18.3001790148
 20
13.5293825673
 11
19.1004568756
 21
13.5284258853
  0
LINE
  5
994
100
AcDbEntity
  8
DRAFT
100
AcDbLine
 62
7
  6
CONTINUOUS
 10
19.1004568756
 20
13.5284258853
 11
19.500349612
 21
13.5279319853
  0
LINE
  5
995
100
AcDbEntity
  8
DRAFT
100
AcDbLine
 62
7
  6
CONTINUOUS
 10
19.500349612
 20
13.5279319853
 11
20.3003295429
 21
13.5269121671
  0
LINE
  5
996
100
AcDbEntity
  8
DRAFT
100
AcDbLine
 62
7
  6
CONTINUOUS
 10
20.3003295429
 20
13.5269121671
 11
20.7004860294
 21
13.5263861168
  0
LINE
  5
997
100
AcDbEntity
  8
DRAFT
100
AcDbLine
 62
7
  6
CONTINUOUS
 10
20.7004860294
 20
13.5263861168
 11
21.5002515601
 21
13.525302828
  0
LINE
  5
998
100
AcDbEntity
  8
DRAFT
100
AcDbLine
 62
7
  6
CONTINUOUS
 10
21.5002515601
 20
13.525302828
 11
21.9001993111
 21
13.5247451096
  0
LINE
  5
999
100
AcDbEntity
  8
DRAFT
100
AcDbLine
 62
7
  6
CONTINUOUS
 10
21.9001993111
 20
13.5247451096
 11
22.7005386778
 21
13.5235969655
  0
LINE
  5
99A
100
AcDbEntity
  8
DRAFT
100
AcDbLine
 62
7
  6
CONTINUOUS
 10
22.7005386778
 20
13.5235969655
 11
23.1004119362
 21
13.523007253
  0
LINE
  5
99B
100
AcDbEntity
  8
DRAFT
100
AcDbLine
 62
7
  6
CONTINUOUS
 10
23.1004119362
 20
13.523007253
 11
23.9003811992
 21
13.5217952795
  0
LINE
  5
99C
100
AcDbEntity
  8
DRAFT
100
AcDbLine
 62
7
  6
CONTINUOUS
 10
23.9003811992
 20
13.5217952795
 11
24.3005645305
 21
13.5211728328
  0
LINE
  5
99D
100
AcDbEntity
  8
DRAFT
100
AcDbLine
 62
7
  6
CONTINUOUS
 10
24.3005645305
 20
13.5211728328
 11
25.1002811171
 21
13.5198965707
  0
LINE
  5
99E
100
AcDbEntity
  8
DRAFT
100
AcDbLine
 62
7
  6
CONTINUOUS
 10
25.1002811171
 20
13.5198965707
 11
25.500229164
 21
13.5192420667
  0
LINE
  5
99F
100
AcDbEntity
  8
DRAFT
100
AcDbLine
 62
7
  6
CONTINUOUS
 10
25.500229164
 20
13.5192420667
 11
26.3006126202
 21
13.5178996709
  0
LINE
  5
9A0
100
AcDbEntity
  8
DRAFT
100
AcDbLine
 62
7
  6
CONTINUOUS
 10
26.3006126202
 20
13.5178996709
 11
26.7004557598
 21
13.5172127429
  0
LINE
  5
9A1
100
AcDbEntity
  8
DRAFT
100
AcDbLine
 62
7
  6
CONTINUOUS
 10
26.7004557598
 20
13.5172127429
 11
27.2926313241
 21
13.5161753683
  0
LINE
  5
9A2
100
AcDbEntity
  8
DRAFT
100
AcDbLine
 62
7
  6
CONTINUOUS
 10
28.7002833407
 20
13.5136131615
 11
29.1002797712
 21
13.5128602678
  0
LINE
  5
9A3
100
AcDbEntity
  8
DRAFT
100
AcDbLine
 62
7
  6
CONTINUOUS
 10
29.1002797712
 20
13.5128602678
 11
29.9006806622
 21
13.5113205917
  0
LINE
  5
9A4
100
AcDbEntity
  8
DRAFT
100
AcDbLine
 62
7
  6
CONTINUOUS
 10
29.9006806622
 20
13.5113205917
 11
30.3004786631
 21
13.5105349422
  0
LINE
  5
9A5
100
AcDbEntity
  8
DRAFT
100
AcDbLine
 62
7
  6
CONTINUOUS
 10
30.3004786631
 20
13.5105349422
 11
30.6838557786
 21
13.5097711549
  0
LINE
  5
9A6
100
AcDbEntity
  8
DRAFT
100
AcDbLine
 62
7
  6
CONTINUOUS
 10
-30.6838558378
 20
13.5097711855
 11
-30.3004786632
 21
13.5105349729
  0
LINE
  5
9A7
100
AcDbEntity
  8
DRAFT
100
AcDbLine
 62
7
  6
CONTINUOUS
 10
-30.3004786632
 20
13.5105349729
 11
-29.9006806623
 21
13.5113206225
  0
LINE
  5
9A8
100
AcDbEntity
  8
DRAFT
100
AcDbLine
 62
7
  6
CONTINUOUS
 10
-29.9006806623
 20
13.5113206225
 11
-29.1002797712
 21
13.5128602986
  0
LINE
  5
9A9
100
AcDbEntity
  8
DRAFT
100
AcDbLine
 62
7
  6
CONTINUOUS
 10
-29.1002797712
 20
13.5128602986
 11
-28.7002833408
 21
13.5136131923
  0
LINE
  5
9AA
100
AcDbEntity
  8
DRAFT
100
AcDbLine
 62
7
  6
CONTINUOUS
 10
-27.292631324
 20
13.5161753991
 11
-26.7004557599
 21
13.5172127737
  0
LINE
  5
9AB
100
AcDbEntity
  8
DRAFT
100
AcDbLine
 62
7
  6
CONTINUOUS
 10
-26.7004557599
 20
13.5172127737
 11
-26.3006126203
 21
13.5178997016
  0
LINE
  5
9AC
100
AcDbEntity
  8
DRAFT
100
AcDbLine
 62
7
  6
CONTINUOUS
 10
-26.3006126203
 20
13.5178997016
 11
-25.500229164
 21
13.5192420975
  0
LINE
  5
9AD
100
AcDbEntity
  8
DRAFT
100
AcDbLine
 62
7
  6
CONTINUOUS
 10
-25.500229164
 20
13.5192420975
 11
-25.1002811172
 21
13.5198966014
  0
LINE
  5
9AE
100
AcDbEntity
  8
DRAFT
100
AcDbLine
 62
7
  6
CONTINUOUS
 10
-25.1002811172
 20
13.5198966014
 11
-24.3005645306
 21
13.5211728636
  0
LINE
  5
9AF
100
AcDbEntity
  8
DRAFT
100
AcDbLine
 62
7
  6
CONTINUOUS
 10
-24.3005645306
 20
13.5211728636
 11
-23.9003811992
 21
13.5217953103
  0
LINE
  5
9B0
100
AcDbEntity
  8
DRAFT
100
AcDbLine
 62
7
  6
CONTINUOUS
 10
-23.9003811992
 20
13.5217953103
 11
-23.1004119363
 21
13.5230072837
  0
LINE
  5
9B1
100
AcDbEntity
  8
DRAFT
100
AcDbLine
 62
7
  6
CONTINUOUS
 10
-23.1004119363
 20
13.5230072837
 11
-22.7005386778
 21
13.5235969963
  0
LINE
  5
9B2
100
AcDbEntity
  8
DRAFT
100
AcDbLine
 62
7
  6
CONTINUOUS
 10
-22.7005386778
 20
13.5235969963
 11
-21.9001993111
 21
13.5247451404
  0
LINE
  5
9B3
100
AcDbEntity
  8
DRAFT
100
AcDbLine
 62
7
  6
CONTINUOUS
 10
-21.9001993111
 20
13.5247451404
 11
-21.5002515602
 21
13.5253028588
  0
LINE
  5
9B4
100
AcDbEntity
  8
DRAFT
100
AcDbLine
 62
7
  6
CONTINUOUS
 10
-21.5002515602
 20
13.5253028588
 11
-20.7004860294
 21
13.5263861476
  0
LINE
  5
9B5
100
AcDbEntity
  8
DRAFT
100
AcDbLine
 62
7
  6
CONTINUOUS
 10
-20.7004860294
 20
13.5263861476
 11
-20.3003295429
 21
13.5269121979
  0
LINE
  5
9B6
100
AcDbEntity
  8
DRAFT
100
AcDbLine
 62
7
  6
CONTINUOUS
 10
-20.3003295429
 20
13.5269121979
 11
-19.500349612
 21
13.527932016
  0
LINE
  5
9B7
100
AcDbEntity
  8
DRAFT
100
AcDbLine
 62
7
  6
CONTINUOUS
 10
-19.500349612
 20
13.527932016
 11
-19.1004568757
 21
13.5284259161
  0
LINE
  5
9B8
100
AcDbEntity
  8
DRAFT
100
AcDbLine
 62
7
  6
CONTINUOUS
 10
-19.1004568757
 20
13.5284259161
 11
-18.3001790149
 21
13.529382598
  0
SPLINE
  5
9B9
100
AcDbEntity
  8
DRAFT
100
AcDbSpline
 62
7
  6
CONTINUOUS
 70
0
 71
3
 72
9
 73
5
 74
0
 42
0.0000001
 43
0.0000001
 44
0.0000000001
 40
0.0
 40
0.0
 40
0.0
 40
0.0
 40
0.249685288
 40
1.0
 40
1.0
 40
1.0
 40
1.0
 10
-18.3001790149
 20
13.529382598
 30
0.0
 10
-17.9838961275
 20
13.5297523442
 30
0.0
 10
-16.7171699164
 20
13.5311935741
 30
0.0
 10
-15.4504435252
 20
13.532476602
 30
0.0
 10
-14.5
 20
13.5333508405
 30
0.0
  0
SPLINE
  5
9BA
100
AcDbEntity
  8
DRAFT
100
AcDbSpline
 62
7
  6
CONTINUOUS
 70
0
 71
3
 72
9
 73
5
 74
0
 42
0.0000001
 43
0.0000001
 44
0.0000000001
 40
0.0
 40
0.0
 40
0.0
 40
0.0
 40
0.2503064761
 40
1.0
 40
1.0
 40
1.0
 40
1.0
 10
-14.5
 20
41.3666827722
 30
0.0
 10
-14.8176690127
 20
41.3669748615
 30
0.0
 10
-16.0867892073
 20
41.3681810046
 30
0.0
 10
-17.3559092527
 20
41.3695441384
 30
0.0
 10
-18.3073602247
 20
41.3706550012
 30
0.0
  0
LINE
  5
9BB
100
AcDbEntity
  8
DRAFT
100
AcDbLine
 62
7
  6
CONTINUOUS
 10
-19.3928271157
 20
41.371960966
 11
-21.9147383684
 21
41.3752945479
  0
LINE
  5
9BC
100
AcDbEntity
  8
DRAFT
100
AcDbLine
 62
7
  6
CONTINUOUS
 10
11.9845317165
 20
13.5354584455
 11
14.5
 21
13.5333508098
  0
SPLINE
  5
9BD
100
AcDbEntity
  8
DRAFT
100
AcDbSpline
 62
7
  6
CONTINUOUS
 70
0
 71
3
 72
8
 73
4
 74
0
 42
0.0000001
 43
0.0000001
 44
0.0000000001
 40
0.0
 40
0.0
 40
0.0
 40
0.0
 40
1.0
 40
1.0
 40
1.0
 40
1.0
 10
11.984518491
 20
41.3645746192
 30
0.0
 10
11.9842699562
 20
32.0882025646
 30
0.0
 10
11.9843548898
 20
22.8118305017
 30
0.0
 10
11.9845317165
 20
13.5354584455
 30
0.0
  0
LINE
  5
9BE
100
AcDbEntity
  8
DRAFT
100
AcDbLine
 62
7
  6
CONTINUOUS
 10
14.5
 20
41.3666827414
 11
11.984518491
 21
41.3645746192
  0
LINE
  5
9BF
100
AcDbEntity
  8
DRAFT
100
AcDbLine
 62
7
  6
CONTINUOUS
 10
-11.984518491
 20
41.3645746499
 11
-14.5
 21
41.3666827722
  0
SPLINE
  5
9C0
100
AcDbEntity
  8
DRAFT
100
AcDbSpline
 62
7
  6
CONTINUOUS
 70
0
 71
3
 72
8
 73
4
 74
0
 42
0.0000001
 43
0.0000001
 44
0.0000000001
 40
0.0
 40
0.0
 40
0.0
 40
0.0
 40
1.0
 40
1.0
 40
1.0
 40
1.0
 10
-11.9845317165
 20
13.5354584762
 30
0.0
 10
-11.9843548898
 20
22.8118305324
 30
0.0
 10
-11.9842699562
 20
32.0882025953
 30
0.0
 10
-11.984518491
 20
41.3645746499
 30
0.0
  0
LINE
  5
9C1
100
AcDbEntity
  8
DRAFT
100
AcDbLine
 62
7
  6
CONTINUOUS
 10
-14.5
 20
13.5333508405
 11
-11.9845317165
 21
13.5354584762
  0
SPLINE
  5
9C2
100
AcDbEntity
  8
DRAFT
100
AcDbSpline
 62
7
  6
CONTINUOUS
 70
0
 71
3
 72
9
 73
5
 74
0
 42
0.0000001
 43
0.0000001
 44
0.0000000001
 40
0.0
 40
0.0
 40
0.0
 40
0.0
 40
0.2478930828
 40
1.0
 40
1.0
 40
1.0
 40
1.0
 10
30.0903922527
 20
27.8425325588
 30
0.0
 10
28.8022142631
 20
27.8343084144
 30
0.0
 10
23.6057049429
 20
27.8015919792
 30
0.0
 10
18.4091823175
 20
27.7709899297
 30
0.0
 10
14.5008353991
 20
27.7491292488
 30
0.0
  0
SPLINE
  5
9C3
100
AcDbEntity
  8
DRAFT
100
AcDbSpline
 62
7
  6
CONTINUOUS
 70
0
 71
3
 72
9
 73
5
 74
0
 42
0.0000001
 43
0.0000001
 44
0.0000000001
 40
0.0
 40
0.0
 40
0.0
 40
0.0
 40
0.2494145918
 40
1.0
 40
1.0
 40
1.0
 40
1.0
 10
10.9631953169
 20
27.7296463908
 30
0.0
 10
10.0517362391
 20
27.724704013
 30
0.0
 10
6.3973414008
 20
27.705124735
 30
0.0
 10
2.7429416674
 20
27.6864585424
 30
0.0
 10
0.0
 20
27.6729751594
 30
0.0
  0
SPLINE
  5
9C4
100
AcDbEntity
  8
RACCORDO
100
AcDbSpline
 62
7
  6
CONTINUOUS
 70
0
 71
3
 72
11
 73
7
 74
0
 42
0.0000001
 43
0.0000001
 44
0.0000000001
 40
0.0
 40
0.0
 40
0.0
 40
0.0
 40
0.2491499534
 40
0.4989798598
 40
0.749321961
 40
1.0
 40
1.0
 40
1.0
 40
1.0
 10
0.0006451974
 20
41.411935686
 30
0.0
 10
0.001149021
 20
40.2709153339
 30
0.0
 10
-0.0001239392
 20
37.9857603374
 30
0.0
 10
-0.000274803
 20
34.5541254488
 30
0.0
 10
0.000161629
 20
31.1154923756
 30
0.0
 10
0.0
 20
28.8209937252
 30
0.0
 10
0.0
 20
27.6729751594
 30
0.0
  0
SPLINE
  5
9C5
100
AcDbEntity
  8
RACCORDO
100
AcDbSpline
 62
7
  6
CONTINUOUS
 70
0
 71
3
 72
9
 73
5
 74
0
 42
0.0000001
 43
0.0000001
 44
0.0000000001
 40
0.0
 40
0.0
 40
0.0
 40
0.0
 40
0.4973201758
 40
1.0
 40
1.0
 40
1.0
 40
1.0
 10
-30.0906504986
 20
27.8421023938
 30
0.0
 10
-27.5062782461
 20
27.8247151734
 30
0.0
 10
-22.3096499493
 20
27.7946815867
 30
0.0
 10
-17.1130280944
 20
27.7637670808
 30
0.0
 10
-14.5007859819
 20
27.7490976644
 30
0.0
  0
SPLINE
  5
9C6
100
AcDbEntity
  8
RACCORDO
100
AcDbSpline
 62
7
  6
CONTINUOUS
 70
0
 71
3
 72
9
 73
5
 74
0
 42
0.0000001
 43
0.0000001
 44
0.0000000001
 40
0.0
 40
0.0
 40
0.0
 40
0.0
 40
0.2494141861
 40
1.0
 40
1.0
 40
1.0
 40
1.0
 10
-10.9632728185
 20
27.7296061162
 30
0.0
 10
-10.051808744
 20
27.7246736415
 30
0.0
 10
-6.3973878037
 20
27.7051580648
 30
0.0
 10
-2.7429624862
 20
27.6864586447
 30
0.0
 10
0.0
 20
27.6729751594
 30
0.0
  0
SPLINE
  5
9C7
100
AcDbEntity
  8
ASSI
100
AcDbSpline
 62
7
  6
CONTINUOUS
 70
0
 71
3
 72
9
 73
5
 74
0
 42
0.0000001
 43
0.0000001
 44
0.0000000001
 40
0.0
 40
0.0
 40
0.0
 40
0.0
 40
0.2478930828
 40
1.0
 40
1.0
 40
1.0
 40
1.0
 10
30.0903922527
 20
27.8425325588
 30
0.0
 10
28.8022142631
 20
27.8343084144
 30
0.0
 10
23.6057049429
 20
27.8015919792
 30
0.0
 10
18.4091823175
 20
27.7709899297
 30
0.0
 10
14.5008353991
 20
27.7491292488
 30
0.0
  0
SPLINE
  5
9C8
100
AcDbEntity
  8
ASSI
100
AcDbSpline
 62
7
  6
CONTINUOUS
 70
0
 71
3
 72
9
 73
5
 74
0
 42
0.0000001
 43
0.0000001
 44
0.0000000001
 40
0.0
 40
0.0
 40
0.0
 40
0.0
 40
0.2494145918
 40
1.0
 40
1.0
 40
1.0
 40
1.0
 10
10.9631953169
 20
27.7296463908
 30
0.0
 10
10.0517362391
 20
27.724704013
 30
0.0
 10
6.3973414008
 20
27.705124735
 30
0.0
 10
2.7429416674
 20
27.6864585424
 30
0.0
 10
0.0
 20
27.6729751594
 30
0.0
  0
SPLINE
  5
9C9
100
AcDbEntity
  8
ASSI
100
AcDbSpline
 62
7
  6
CONTINUOUS
 70
0
 71
3
 72
11
 73
7
 74
0
 42
0.0000001
 43
0.0000001
 44
0.0000000001
 40
0.0
 40
0.0
 40
0.0
 40
0.0
 40
0.2491499534
 40
0.4989798598
 40
0.749321961
 40
1.0
 40
1.0
 40
1.0
 40
1.0
 10
0.0006451974
 20
41.411935686
 30
0.0
 10
0.001149021
 20
40.2709153339
 30
0.0
 10
-0.0001239392
 20
37.9857603374
 30
0.0
 10
-0.000274803
 20
34.5541254488
 30
0.0
 10
0.000161629
 20
31.1154923756
 30
0.0
 10
0.0
 20
28.8209937252
 30
0.0
 10
0.0
 20
27.6729751594
 30
0.0
  0
SPLINE
  5
9CA
100
AcDbEntity
  8
ASSI
100
AcDbSpline
 62
7
  6
CONTINUOUS
 70
0
 71
3
 72
9
 73
5
 74
0
 42
0.0000001
 43
0.0000001
 44
0.0000000001
 40
0.0
 40
0.0
 40
0.0
 40
0.0
 40
0.4973201758
 40
1.0
 40
1.0
 40
1.0
 40
1.0
 10
-30.0906504986
 20
27.8421023938
 30
0.0
 10
-27.5062782461
 20
27.8247151734
 30
0.0
 10
-22.3096499493
 20
27.7946815867
 30
0.0
 10
-17.1130280944
 20
27.7637670808
 30
0.0
 10
-14.5007859819
 20
27.7490976644
 30
0.0
  0
SPLINE
  5
9CB
100
AcDbEntity
  8
ASSI
100
AcDbSpline
 62
7
  6
CONTINUOUS
 70
0
 71
3
 72
9
 73
5
 74
0
 42
0.0000001
 43
0.0000001
 44
0.0000000001
 40
0.0
 40
0.0
 40
0.0
 40
0.0
 40
0.2494141861
 40
1.0
 40
1.0
 40
1.0
 40
1.0
 10
-10.9632728185
 20
27.7296061162
 30
0.0
 10
-10.051808744
 20
27.7246736415
 30
0.0
 10
-6.3973878037
 20
27.7051580648
 30
0.0
 10
-2.7429624862
 20
27.6864586447
 30
0.0
 10
0.0
 20
27.6729751594
 30
0.0
  0
SPLINE
  5
9CC
100
AcDbEntity
  8
IMPORT_IGES
100
AcDbSpline
 62
7
  6
CONTINUOUS
 70
0
 71
3
 72
8
 73
4
 74
0
 42
0.0000001
 43
0.0000001
 44
0.0000000001
 40
0.0
 40
0.0
 40
0.0
 40
0.0
 40
1.0
 40
1.0
 40
1.0
 40
1.0
 10
38.6293759009
 20
-38.45
 30
0.0
 10
38.6770727655
 20
-38.45
 30
0.0
 10
38.7256429423
 20
-38.4410687308
 30
0.0
 10
38.7699957149
 20
-38.4235238611
 30
0.0
  0
SPLINE
  5
9CD
100
AcDbEntity
  8
IMPORT_IGES
100
AcDbSpline
 62
7
  6
CONTINUOUS
 70
0
 71
3
 72
9
 73
5
 74
0
 42
0.0000001
 43
0.0000001
 44
0.0000000001
 40
0.0
 40
0.0
 40
0.0
 40
0.0
 40
0.5000004013
 40
1.0
 40
1.0
 40
1.0
 40
1.0
 10
-3.8306014323
 20
-30.9692005714
 30
0.0
 10
-3.6931771024
 20
-30.9692005714
 30
0.0
 10
-3.4167983186
 20
-30.9240125718
 30
0.0
 10
-3.1677523256
 20
-30.795930607
 30
0.0
 10
-3.057291754
 20
-30.7141758033
 30
0.0
  0
SPLINE
  5
9CE
100
AcDbEntity
  8
IMPORT_IGES
100
AcDbSpline
 62
7
  6
CONTINUOUS
 70
0
 71
3
 72
9
 73
5
 74
0
 42
0.0000001
 43
0.0000001
 44
0.0000000001
 40
0.0
 40
0.0
 40
0.0
 40
0.0
 40
0.5000004013
 40
1.0
 40
1.0
 40
1.0
 40
1.0
 10
-3.8306014323
 20
-11.4692005714
 30
0.0
 10
-3.6931771024
 20
-11.4692005714
 30
0.0
 10
-3.4167983186
 20
-11.4240125718
 30
0.0
 10
-3.1677523256
 20
-11.295930607
 30
0.0
 10
-3.057291754
 20
-11.2141758033
 30
0.0
  0
SPLINE
  5
9CF
100
AcDbEntity
  8
IMPORT_IGES
100
AcDbSpline
 62
7
  6
CONTINUOUS
 70
0
 71
3
 72
9
 73
5
 74
0
 42
0.0000001
 43
0.0000001
 44
0.0000000001
 40
0.0
 40
0.0
 40
0.0
 40
0.0
 40
0.5000004013
 40
1.0
 40
1.0
 40
1.0
 40
1.0
 10
-3.8306014323
 20
-24.4692005714
 30
0.0
 10
-3.6931771024
 20
-24.4692005714
 30
0.0
 10
-3.4167983186
 20
-24.4240125718
 30
0.0
 10
-3.1677523256
 20
-24.295930607
 30
0.0
 10
-3.057291754
 20
-24.2141758033
 30
0.0
  0
SPLINE
  5
9D0
100
AcDbEntity
  8
IMPORT_IGES
100
AcDbSpline
 62
7
  6
CONTINUOUS
 70
0
 71
3
 72
9
 73
5
 74
0
 42
0.0000001
 43
0.0000001
 44
0.0000000001
 40
0.0
 40
0.0
 40
0.0
 40
0.0
 40
0.5000004013
 40
1.0
 40
1.0
 40
1.0
 40
1.0
 10
-3.8306014323
 20
-17.9692005714
 30
0.0
 10
-3.6931771024
 20
-17.9692005714
 30
0.0
 10
-3.4167983186
 20
-17.9240125718
 30
0.0
 10
-3.1677523256
 20
-17.795930607
 30
0.0
 10
-3.057291754
 20
-17.7141758033
 30
0.0
  0
SPLINE
  5
9D1
100
AcDbEntity
  8
IMPORT_IGES
100
AcDbSpline
 62
7
  6
CONTINUOUS
 70
0
 71
3
 72
9
 73
5
 74
0
 42
0.0000001
 43
0.0000001
 44
0.0000000001
 40
0.0
 40
0.0
 40
0.0
 40
0.0
 40
0.5000004059
 40
1.0
 40
1.0
 40
1.0
 40
1.0
 10
-3.8306014323
 20
-4.9692005714
 30
0.0
 10
-3.6931772306
 20
-4.9692005714
 30
0.0
 10
-3.4167987138
 20
-4.9240126659
 30
0.0
 10
-3.1677528932
 20
-4.7959309229
 30
0.0
 10
-3.0572924237
 20
-4.7141762008
 30
0.0
  0
LINE
  5
9D2
100
AcDbEntity
  8
IMPORT_IGES
100
AcDbLine
 62
7
  6
CONTINUOUS
 10
-39.024914495
 20
-32.7773488385
 11
-39.8000020739
 21
-32.7907345223
  0
LINE
  5
9D3
100
AcDbEntity
  8
IMPORT_IGES
100
AcDbLine
 62
7
  6
CONTINUOUS
 10
-39.0249137513
 20
-3.1273488268
 11
-39.8000021367
 21
-3.1407345234
  0
LINE
  5
9D4
100
AcDbEntity
  8
IMPORT_IGES
100
AcDbLine
 62
7
  6
CONTINUOUS
 10
-39.800002074
 20
-17.2092654777
 11
-39.0249137513
 21
-17.2226511732
  0
LINE
  5
9D5
100
AcDbEntity
  8
IMPORT_IGES
100
AcDbLine
 62
7
  6
CONTINUOUS
 10
39.8000020739
 20
-3.1407345223
 11
39.024914495
 21
-3.1273488385
  0
LINE
  5
9D6
100
AcDbEntity
  8
IMPORT_IGES
100
AcDbLine
 62
7
  6
CONTINUOUS
 10
39.800002028
 20
-42.3407345227
 11
39.0249130591
 21
-42.327348816
  0
LINE
  5
9D7
100
AcDbEntity
  8
IMPORT_IGES
100
AcDbLine
 62
7
  6
CONTINUOUS
 10
39.024914495
 20
-17.2226511615
 11
39.8000020739
 21
-17.2092654777
  0
LINE
  5
9D8
100
AcDbEntity
  8
IMPORT_IGES
100
AcDbLine
 62
7
  6
CONTINUOUS
 10
39.800002074
 20
-24.3407345223
 11
39.0249137513
 21
-24.3273488268
  0
LINE
  5
9D9
100
AcDbEntity
  8
IMPORT_IGES
100
AcDbLine
 62
7
  6
CONTINUOUS
 10
39.0249160462
 20
-38.4226511833
 11
39.8000020739
 21
-38.4092654777
  0
SPLINE
  5
9DA
100
AcDbEntity
  8
IMPORT_IGES
100
AcDbSpline
 62
7
  6
CONTINUOUS
 70
0
 71
3
 72
9
 73
5
 74
0
 42
0.0000001
 43
0.0000001
 44
0.0000000001
 40
0.0
 40
0.0
 40
0.0
 40
0.0
 40
0.1764065936
 40
1.0
 40
1.0
 40
1.0
 40
1.0
 10
-39.8778430813
 20
-17.2079322169
 30
0.0
 10
-39.8632039058
 20
-17.2081829486
 30
0.0
 10
-39.7802108208
 20
-17.2091220122
 30
0.0
 10
-39.6972119488
 20
-17.2093203338
 30
0.0
 10
-39.6288556889
 20
-17.2093568195
 30
0.0
  0
SPLINE
  5
9DB
100
AcDbEntity
  8
IMPORT_IGES
100
AcDbSpline
 62
7
  6
CONTINUOUS
 70
0
 71
3
 72
9
 73
5
 74
0
 42
0.0000001
 43
0.0000001
 44
0.0000000001
 40
0.0
 40
0.0
 40
0.0
 40
0.0
 40
0.1764065936
 40
1.0
 40
1.0
 40
1.0
 40
1.0
 10
39.8778430813
 20
-3.1420677831
 30
0.0
 10
39.8632039058
 20
-3.1418170514
 30
0.0
 10
39.7802108208
 20
-3.1408779878
 30
0.0
 10
39.6972119488
 20
-3.1406796662
 30
0.0
 10
39.6288556889
 20
-3.1406431805
 30
0.0
  0
SPLINE
  5
9DC
100
AcDbEntity
  8
IMPORT_IGES
100
AcDbSpline
 62
7
  6
CONTINUOUS
 70
0
 71
3
 72
10
 73
6
 74
0
 42
0.0000001
 43
0.0000001
 44
0.0000000001
 40
0.0
 40
0.0
 40
0.0
 40
0.0
 40
0.5452942431
 40
0.7791900885
 40
1.0
 40
1.0
 40
1.0
 40
1.0
 10
-43.9289381281
 20
-46.8115806663
 30
0.0
 10
-43.8916986284
 20
-46.8632225608
 30
0.0
 10
-43.8258145271
 20
-46.9310551491
 30
0.0
 10
-43.718276664
 20
-46.9794282202
 30
0.0
 10
-43.6648401775
 20
-46.9871120816
 30
0.0
 10
-43.6390592102
 20
-46.9869172408
 30
0.0
  0
SPLINE
  5
9DD
100
AcDbEntity
  8
IMPORT_IGES
100
AcDbSpline
 62
7
  6
CONTINUOUS
 70
0
 71
3
 72
9
 73
5
 74
0
 42
0.0000001
 43
0.0000001
 44
0.0000000001
 40
0.0
 40
0.0
 40
0.0
 40
0.0
 40
0.2716136815
 40
1.0
 40
1.0
 40
1.0
 40
1.0
 10
-44.0999088457
 20
-46.5947749683
 30
0.0
 10
-44.0839485255
 20
-46.614017501
 30
0.0
 10
-44.0255309943
 20
-46.6851334038
 30
0.0
 10
-43.96815134
 20
-46.7572017255
 30
0.0
 10
-43.9289381281
 20
-46.8115806663
 30
0.0
  0
SPLINE
  5
9DE
100
AcDbEntity
  8
IMPORT_IGES
100
AcDbSpline
 62
7
  6
CONTINUOUS
 70
0
 71
3
 72
9
 73
5
 74
0
 42
0.0000001
 43
0.0000001
 44
0.0000000001
 40
0.0
 40
0.0
 40
0.0
 40
0.0
 40
0.1764028352
 40
1.0
 40
1.0
 40
1.0
 40
1.0
 10
-39.8778430813
 20
-32.7920677831
 30
0.0
 10
-39.8632042177
 20
-32.7918170568
 30
0.0
 10
-39.7802111335
 20
-32.7908779299
 30
0.0
 10
-39.6972122608
 20
-32.7906796664
 30
0.0
 10
-39.6288556889
 20
-32.7906431805
 30
0.0
  0
SPLINE
  5
9DF
100
AcDbEntity
  8
IMPORT_IGES
100
AcDbSpline
 62
7
  6
CONTINUOUS
 70
0
 71
3
 72
9
 73
5
 74
0
 42
0.0000001
 43
0.0000001
 44
0.0000000001
 40
0.0
 40
0.0
 40
0.0
 40
0.0
 40
0.1764028352
 40
1.0
 40
1.0
 40
1.0
 40
1.0
 10
-39.8778430813
 20
-3.1420677831
 30
0.0
 10
-39.8632042177
 20
-3.1418170568
 30
0.0
 10
-39.7802111335
 20
-3.1408779299
 30
0.0
 10
-39.6972122608
 20
-3.1406796664
 30
0.0
 10
-39.6288556889
 20
-3.1406431805
 30
0.0
  0
SPLINE
  5
9E0
100
AcDbEntity
  8
IMPORT_IGES
100
AcDbSpline
 62
7
  6
CONTINUOUS
 70
0
 71
3
 72
9
 73
5
 74
0
 42
0.0000001
 43
0.0000001
 44
0.0000000001
 40
0.0
 40
0.0
 40
0.0
 40
0.0
 40
0.1764028352
 40
1.0
 40
1.0
 40
1.0
 40
1.0
 10
39.8778430813
 20
-17.2079322169
 30
0.0
 10
39.8632042177
 20
-17.2081829432
 30
0.0
 10
39.7802111335
 20
-17.2091220701
 30
0.0
 10
39.6972122608
 20
-17.2093203336
 30
0.0
 10
39.6288556889
 20
-17.2093568195
 30
0.0
  0
SPLINE
  5
9E1
100
AcDbEntity
  8
IMPORT_IGES
100
AcDbSpline
 62
7
  6
CONTINUOUS
 70
0
 71
3
 72
9
 73
5
 74
0
 42
0.0000001
 43
0.0000001
 44
0.0000000001
 40
0.0
 40
0.0
 40
0.0
 40
0.0
 40
0.1764065936
 40
1.0
 40
1.0
 40
1.0
 40
1.0
 10
39.8778430813
 20
-24.3420677831
 30
0.0
 10
39.8632039058
 20
-24.3418170514
 30
0.0
 10
39.7802108208
 20
-24.3408779878
 30
0.0
 10
39.6972119488
 20
-24.3406796662
 30
0.0
 10
39.6288556889
 20
-24.3406431805
 30
0.0
  0
SPLINE
  5
9E2
100
AcDbEntity
  8
IMPORT_IGES
100
AcDbSpline
 62
7
  6
CONTINUOUS
 70
0
 71
3
 72
9
 73
5
 74
0
 42
0.0000001
 43
0.0000001
 44
0.0000000001
 40
0.0
 40
0.0
 40
0.0
 40
0.0
 40
0.1764028352
 40
1.0
 40
1.0
 40
1.0
 40
1.0
 10
39.8778430813
 20
-38.4079322169
 30
0.0
 10
39.8632042177
 20
-38.4081829432
 30
0.0
 10
39.7802111335
 20
-38.4091220701
 30
0.0
 10
39.6972122608
 20
-38.4093203336
 30
0.0
 10
39.6288556889
 20
-38.4093568195
 30
0.0
  0
ELLIPSE
  5
9E3
100
AcDbEntity
  8
RACCORDO
100
AcDbEllipse
 62
7
  6
CONTINUOUS
 10
29.1
 20
-44.3927469028
 30
0.0
 11
0.2
 21
-0.0
 31
0.0
 40
0.0087268678
 41
-2.55359005
 42
-0.5880026035
  0
ELLIPSE
  5
9E4
100
AcDbEntity
  8
RACCORDO
100
AcDbEllipse
 62
7
  6
CONTINUOUS
 10
28.1
 20
-44.3927469028
 30
0.0
 11
0.2
 21
-0.0
 31
0.0
 40
0.0087268678
 41
-2.55359005
 42
-0.5880026035
  0
ELLIPSE
  5
9E5
100
AcDbEntity
  8
RACCORDO
100
AcDbEllipse
 62
7
  6
CONTINUOUS
 10
27.1
 20
-44.3927469028
 30
0.0
 11
0.2
 21
0.0
 31
0.0
 40
0.0087268678
 41
-2.55359005
 42
-0.5880026035
  0
ELLIPSE
  5
9E6
100
AcDbEntity
  8
RACCORDO
100
AcDbEllipse
 62
7
  6
CONTINUOUS
 10
26.1
 20
-44.3927469028
 30
0.0
 11
0.2
 21
0.0
 31
0.0
 40
0.0087268678
 41
-2.55359005
 42
-0.5880026035
  0
ELLIPSE
  5
9E7
100
AcDbEntity
  8
RACCORDO
100
AcDbEllipse
 62
7
  6
CONTINUOUS
 10
25.1
 20
-44.3927469028
 30
0.0
 11
0.2
 21
-0.0
 31
0.0
 40
0.0087268678
 41
-2.55359005
 42
-0.5880026035
  0
ELLIPSE
  5
9E8
100
AcDbEntity
  8
RACCORDO
100
AcDbEllipse
 62
7
  6
CONTINUOUS
 10
24.1
 20
-44.3927469028
 30
0.0
 11
0.2
 21
0.0
 31
0.0
 40
0.0087268678
 41
-2.55359005
 42
-0.5880026035
  0
ELLIPSE
  5
9E9
100
AcDbEntity
  8
RACCORDO
100
AcDbEllipse
 62
7
  6
CONTINUOUS
 10
23.4124355679
 20
-43.45
 30
0.0
 11
0.9499832955
 21
-0.0
 31
0.0
 40
0.9999143183
 41
-2.3159314735
 42
-2.0990859663
  0
ELLIPSE
  5
9EA
100
AcDbEntity
  8
RACCORDO
100
AcDbEllipse
 62
7
  6
CONTINUOUS
 10
23.3876672633
 20
-43.45
 30
0.0
 11
0.9421277684
 21
-0.0
 31
0.0
 40
0.9999143183
 41
-1.6998600302
 42
-1.5577056512
  0
ELLIPSE
  5
9EB
100
AcDbEntity
  8
RACCORDO
100
AcDbEllipse
 62
7
  6
CONTINUOUS
 10
23.4124355679
 20
-43.45
 30
0.0
 11
0.9499832955
 21
0.0
 31
0.0
 40
0.9999143183
 41
2.0990859663
 42
2.3159314735
  0
ELLIPSE
  5
9EC
100
AcDbEntity
  8
RACCORDO
100
AcDbEllipse
 62
7
  6
CONTINUOUS
 10
23.6
 20
-44.3922879292
 30
0.0
 11
0.1868517092
 21
0.0
 31
0.0
 40
0.0087268678
 41
0.5880026035
 42
2.55359005
  0
ELLIPSE
  5
9ED
100
AcDbEntity
  8
RACCORDO
100
AcDbEllipse
 62
7
  6
CONTINUOUS
 10
24.6
 20
-44.3922879292
 30
0.0
 11
0.1868517092
 21
0.0
 31
0.0
 40
0.0087268678
 41
0.5880026035
 42
2.55359005
  0
ELLIPSE
  5
9EE
100
AcDbEntity
  8
RACCORDO
100
AcDbEllipse
 62
7
  6
CONTINUOUS
 10
25.6
 20
-44.3922879292
 30
0.0
 11
0.1868517092
 21
-0.0
 31
0.0
 40
0.0087268678
 41
0.5880026035
 42
2.55359005
  0
ELLIPSE
  5
9EF
100
AcDbEntity
  8
RACCORDO
100
AcDbEllipse
 62
7
  6
CONTINUOUS
 10
26.6
 20
-44.3922879292
 30
0.0
 11
0.1868517092
 21
-0.0
 31
0.0
 40
0.0087268678
 41
0.5880026035
 42
2.55359005
  0
ELLIPSE
  5
9F0
100
AcDbEntity
  8
RACCORDO
100
AcDbEllipse
 62
7
  6
CONTINUOUS
 10
27.6
 20
-44.3922879292
 30
0.0
 11
0.1868517092
 21
-0.0
 31
0.0
 40
0.0087268678
 41
0.5880026035
 42
2.55359005
  0
ELLIPSE
  5
9F1
100
AcDbEntity
  8
RACCORDO
100
AcDbEllipse
 62
7
  6
CONTINUOUS
 10
28.6
 20
-44.3922879292
 30
0.0
 11
0.1868517092
 21
-0.0
 31
0.0
 40
0.0087268678
 41
0.5880026035
 42
2.55359005
  0
ELLIPSE
  5
9F2
100
AcDbEntity
  8
RACCORDO
100
AcDbEllipse
 62
7
  6
CONTINUOUS
 10
29.6
 20
-44.3922879292
 30
0.0
 11
0.1868517092
 21
-0.0
 31
0.0
 40
0.0087268678
 41
0.5880026035
 42
2.55359005
  0
ELLIPSE
  5
9F3
100
AcDbEntity
  8
RACCORDO
100
AcDbEllipse
 62
7
  6
CONTINUOUS
 10
29.7875644321
 20
-43.45
 30
0.0
 11
0.9499832955
 21
-0.0
 31
0.0
 40
0.9999143183
 41
0.8256611801
 42
1.0425066873
  0
ELLIPSE
  5
9F4
100
AcDbEntity
  8
RACCORDO
100
AcDbEllipse
 62
7
  6
CONTINUOUS
 10
29.8123327367
 20
-43.45
 30
0.0
 11
0.9421277684
 21
0.0
 31
0.0
 40
0.9999143183
 41
-1.5838870024
 42
-1.4417326234
  0
ELLIPSE
  5
9F5
100
AcDbEntity
  8
RACCORDO
100
AcDbEllipse
 62
7
  6
CONTINUOUS
 10
29.7875644321
 20
-43.45
 30
0.0
 11
0.9499832955
 21
-0.0
 31
0.0
 40
0.9999143183
 41
-1.0425066873
 42
-0.8256611801
  0
ELLIPSE
  5
9F6
100
AcDbEntity
  8
DRAFT
100
AcDbEllipse
 62
7
  6
CONTINUOUS
 10
-0.0
 20
12.9757552549
 30
0.0
 11
175.5083333333
 21
0.0
 31
0.0
 40
0.0034906727
 41
1.5251986465
 42
1.6163940071
  0
ELLIPSE
  5
9F7
100
AcDbEntity
  8
DRAFT
100
AcDbEllipse
 62
7
  6
CONTINUOUS
 10
-0.0
 20
42.0242447451
 30
0.0
 11
175.5083333333
 21
-0.0
 31
0.0
 40
0.0034906727
 41
-1.6163940071
 42
-1.5251986465
  0
ELLIPSE
  5
9F8
100
AcDbEntity
  8
DRAFT
100
AcDbEllipse
 62
7
  6
CONTINUOUS
 10
-0.0
 20
36.4459794865
 30
0.0
 11
199.64
 21
-0.0
 31
0.0
 40
0.0087268678
 41
-1.709104384
 42
-1.7039885257
  0
ELLIPSE
  5
9F9
100
AcDbEntity
  8
DRAFT
100
AcDbEllipse
 62
7
  6
CONTINUOUS
 10
-0.0
 20
18.2540205135
 30
0.0
 11
199.64
 21
0.0
 31
0.0
 40
0.0087268678
 41
1.7261884926
 42
1.7306618148
  0
ELLIPSE
  5
9FA
100
AcDbEntity
  8
DRAFT
100
AcDbEllipse
 62
7
  6
CONTINUOUS
 10
-0.0
 20
20.6459794865
 30
0.0
 11
199.64
 21
-0.0
 31
0.0
 40
0.0087268678
 41
-1.7312798275
 42
-1.7261884926
  0
ELLIPSE
  5
9FB
100
AcDbEntity
  8
DRAFT
100
AcDbEllipse
 62
7
  6
CONTINUOUS
 10
-0.0
 20
42.1459794865
 30
0.0
 11
199.64
 21
-0.0
 31
0.0
 40
0.0087268678
 41
-1.6680645243
 42
-1.6626459728
  0
ELLIPSE
  5
9FC
100
AcDbEntity
  8
DRAFT
100
AcDbEllipse
 62
7
  6
CONTINUOUS
 10
-0.0
 20
34.0540205135
 30
0.0
 11
199.64
 21
0.0
 31
0.0
 40
0.0087268678
 41
1.7039885257
 42
1.7065328151
  0
ELLIPSE
  5
9FD
100
AcDbEntity
  8
DRAFT
100
AcDbEllipse
 62
7
  6
CONTINUOUS
 10
-0.0
 20
43.1459794865
 30
0.0
 11
199.64
 21
-0.0
 31
0.0
 40
0.0087268678
 41
-1.4735281292
 42
-1.4608033899
  0
ELLIPSE
  5
9FE
100
AcDbEntity
  8
DRAFT
100
AcDbEllipse
 62
7
  6
CONTINUOUS
 10
-0.0
 20
43.1459794865
 30
0.0
 11
199.64
 21
-0.0
 31
0.0
 40
0.0087268678
 41
-1.5108144814
 42
-1.4789466808
  0
ELLIPSE
  5
9FF
100
AcDbEntity
  8
DRAFT
100
AcDbEllipse
 62
7
  6
CONTINUOUS
 10
-0.0
 20
12.7540205135
 30
0.0
 11
199.64
 21
0.0
 31
0.0
 40
0.0087268678
 41
1.7080741072
 42
1.7134281184
  0
ELLIPSE
  5
A00
100
AcDbEntity
  8
DRAFT
100
AcDbEllipse
 62
7
  6
CONTINUOUS
 10
-0.0
 20
41.8219717383
 30
0.0
 11
199.64
 21
0.0
 31
0.0
 40
0.0034906727
 41
1.5108144814
 42
1.6307781722
  0
ELLIPSE
  5
A01
100
AcDbEntity
  8
DRAFT
100
AcDbEllipse
 62
7
  6
CONTINUOUS
 10
0.0
 20
43.1459795172
 30
0.0
 11
199.64
 21
-0.0
 31
0.0
 40
0.0087268678
 41
-1.6626459728
 42
-1.6307781722
  0
ELLIPSE
  5
A02
100
AcDbEntity
  8
DRAFT
100
AcDbEllipse
 62
7
  6
CONTINUOUS
 10
-0.0
 20
36.4459794865
 30
0.0
 11
199.64
 21
-0.0
 31
0.0
 40
0.0087268678
 41
-1.4376041279
 42
-1.4324882694
  0
ELLIPSE
  5
A03
100
AcDbEntity
  8
DRAFT
100
AcDbEllipse
 62
7
  6
CONTINUOUS
 10
-0.0
 20
34.0540205135
 30
0.0
 11
199.64
 21
0.0
 31
0.0
 40
0.0087268678
 41
1.4350598383
 42
1.4376041279
  0
ELLIPSE
  5
A04
100
AcDbEntity
  8
DRAFT
100
AcDbEllipse
 62
7
  6
CONTINUOUS
 10
-0.0
 20
20.6459794865
 30
0.0
 11
199.64
 21
-0.0
 31
0.0
 40
0.0087268678
 41
-1.415404161
 42
-1.4103128264
  0
ELLIPSE
  5
A05
100
AcDbEntity
  8
DRAFT
100
AcDbEllipse
 62
7
  6
CONTINUOUS
 10
-0.0
 20
43.1459795172
 30
0.0
 11
199.64
 21
-0.0
 31
0.0
 40
0.0087268678
 41
-1.6807892634
 42
-1.6680645243
  0
ELLIPSE
  5
A06
100
AcDbEntity
  8
DRAFT
100
AcDbEllipse
 62
7
  6
CONTINUOUS
 10
-0.0
 20
18.2540205135
 30
0.0
 11
199.64
 21
0.0
 31
0.0
 40
0.0087268678
 41
1.410930839
 42
1.415404161
  0
ELLIPSE
  5
A07
100
AcDbEntity
  8
DRAFT
100
AcDbEllipse
 62
7
  6
CONTINUOUS
 10
-0.0
 20
11.7540205443
 30
0.0
 11
199.64
 21
-0.0
 31
0.0
 40
0.0087268678
 41
1.7134281184
 42
1.7251038951
  0
ELLIPSE
  5
A08
100
AcDbEntity
  8
DRAFT
100
AcDbEllipse
 62
7
  6
CONTINUOUS
 10
0.0
 20
11.7540205443
 30
0.0
 11
199.64
 21
-0.0
 31
0.0
 40
0.0087268678
 41
1.6307781722
 42
1.7080741072
  0
ELLIPSE
  5
A09
100
AcDbEntity
  8
DRAFT
100
AcDbEllipse
 62
7
  6
CONTINUOUS
 10
-0.0
 20
13.1780282617
 30
0.0
 11
199.64
 21
-0.0
 31
0.0
 40
0.0034906727
 41
-1.6307781722
 42
-1.5108144814
  0
ELLIPSE
  5
A0A
100
AcDbEntity
  8
DRAFT
100
AcDbEllipse
 62
7
  6
CONTINUOUS
 10
-0.0
 20
11.7540205135
 30
0.0
 11
199.64
 21
0.0
 31
0.0
 40
0.0087268678
 41
1.4335185464
 42
1.5108144814
  0
ELLIPSE
  5
A0B
100
AcDbEntity
  8
DRAFT
100
AcDbEllipse
 62
7
  6
CONTINUOUS
 10
-0.0
 20
11.7540205135
 30
0.0
 11
199.64
 21
0.0
 31
0.0
 40
0.0087268678
 41
1.4164887588
 42
1.4281645352
  0
ELLIPSE
  5
A0C
100
AcDbEntity
  8
DRAFT
100
AcDbEllipse
 62
7
  6
CONTINUOUS
 10
-0.0
 20
42.1459794865
 30
0.0
 11
199.64
 21
-0.0
 31
0.0
 40
0.0087268678
 41
-1.4789466808
 42
-1.4735281292
  0
ELLIPSE
  5
A0D
100
AcDbEntity
  8
DRAFT
100
AcDbEllipse
 62
7
  6
CONTINUOUS
 10
-0.0
 20
12.7540205135
 30
0.0
 11
199.64
 21
0.0
 31
0.0
 40
0.0087268678
 41
1.4281645352
 42
1.4335185464
  0
ELLIPSE
  5
A0E
100
AcDbEntity
  8
DRAFT
100
AcDbEllipse
 62
7
  6
CONTINUOUS
 10
42.1702075424
 20
45.1065472137
 30
0.0
 11
6.6
 21
-0.0
 31
0.0
 40
0.0034906727
 41
-2.3569427062
 42
-1.7941236469
  0
ELLIPSE
  5
A0F
100
AcDbEntity
  8
DRAFT
100
AcDbEllipse
 62
7
  6
CONTINUOUS
 10
42.1702075424
 20
9.8934527863
 30
0.0
 11
6.6
 21
0.0
 31
0.0
 40
0.0034906727
 41
1.7941236469
 42
2.3569427062
  0
ELLIPSE
  5
A10
100
AcDbEntity
  8
DRAFT
100
AcDbEllipse
 62
7
  6
CONTINUOUS
 10
-42.1702075424
 20
9.8934527863
 30
0.0
 11
6.6
 21
0.0
 31
0.0
 40
0.0034906727
 41
0.7846499474
 42
1.3474690067
  0
ELLIPSE
  5
A11
100
AcDbEntity
  8
DRAFT
100
AcDbEllipse
 62
7
  6
CONTINUOUS
 10
-42.1702075424
 20
45.1065472137
 30
0.0
 11
6.6
 21
0.0
 31
0.0
 40
0.0034906727
 41
-1.3474690067
 42
-0.7846499474
  0
ELLIPSE
  5
A12
100
AcDbEntity
  8
DRAFT
100
AcDbEllipse
 62
7
  6
CONTINUOUS
 10
-40.2655179648
 20
45.0772729421
 30
0.0
 11
2.0
 21
0.0
 31
0.0
 40
0.0034906727
 41
1.8236040553
 42
3.1328660073
  0
ELLIPSE
  5
A13
100
AcDbEntity
  8
DRAFT
100
AcDbEllipse
 62
7
  6
CONTINUOUS
 10
-40.2655179648
 20
9.9227270579
 30
0.0
 11
2.0
 21
0.0
 31
0.0
 40
0.0034906727
 41
-3.1328660073
 42
-1.8236040553
  0
ELLIPSE
  5
A14
100
AcDbEntity
  8
DRAFT
100
AcDbEllipse
 62
7
  6
CONTINUOUS
 10
40.2655179648
 20
9.9227270579
 30
0.0
 11
2.0
 21
-0.0
 31
0.0
 40
0.0034906727
 41
-1.3474690067
 42
-0.0087266463
  0
ELLIPSE
  5
A15
100
AcDbEntity
  8
DRAFT
100
AcDbEllipse
 62
7
  6
CONTINUOUS
 10
40.2655179648
 20
45.0772729421
 30
0.0
 11
2.0
 21
0.0
 31
0.0
 40
0.0034906727
 41
6.2919119534
 42
7.6306543139
  0
ELLIPSE
  5
A16
100
AcDbEntity
  8
DRAFT
100
AcDbEllipse
 62
7
  6
CONTINUOUS
 10
42.1702075424
 20
31.1872644685
 30
0.0
 11
8.1
 21
0.0
 31
0.0
 40
0.0087268678
 41
-1.8229206645
 42
-1.7941236469
  0
ELLIPSE
  5
A17
100
AcDbEntity
  8
DRAFT
100
AcDbEllipse
 62
7
  6
CONTINUOUS
 10
42.1702075424
 20
23.8127355315
 30
0.0
 11
8.1
 21
-0.0
 31
0.0
 40
0.0087268678
 41
1.7941236469
 42
1.8229206645
  0
ELLIPSE
  5
A18
100
AcDbEntity
  8
DRAFT
100
AcDbEllipse
 62
7
  6
CONTINUOUS
 10
-42.1702075424
 20
31.1872644685
 30
0.0
 11
8.1
 21
-0.0
 31
0.0
 40
0.0087268678
 41
-1.3474690067
 42
-1.3186719891
  0
ELLIPSE
  5
A19
100
AcDbEntity
  8
DRAFT
100
AcDbEllipse
 62
7
  6
CONTINUOUS
 10
-42.1702075424
 20
23.8127355315
 30
0.0
 11
8.1
 21
0.0
 31
0.0
 40
0.0087268678
 41
1.3186719891
 42
1.3474690067
  0
ELLIPSE
  5
A1A
100
AcDbEntity
  8
DRAFT
100
AcDbEllipse
 62
7
  6
CONTINUOUS
 10
-40.2655179648
 20
23.8859227711
 30
0.0
 11
0.5
 21
0.0
 31
0.0
 40
0.0087268678
 41
-3.1328660073
 42
-1.7941236469
  0
ELLIPSE
  5
A1B
100
AcDbEntity
  8
DRAFT
100
AcDbEllipse
 62
7
  6
CONTINUOUS
 10
-40.2655179648
 20
31.1140772289
 30
0.0
 11
0.5
 21
-0.0
 31
0.0
 40
0.0087268678
 41
1.7941236469
 42
3.1328660073
  0
ELLIPSE
  5
A1C
100
AcDbEntity
  8
DRAFT
100
AcDbEllipse
 62
7
  6
CONTINUOUS
 10
40.2655179648
 20
31.1140772289
 30
0.0
 11
0.5
 21
0.0
 31
0.0
 40
0.0087268678
 41
0.3991307541
 42
1.3474690067
  0
ELLIPSE
  5
A1D
100
AcDbEntity
  8
DRAFT
100
AcDbEllipse
 62
7
  6
CONTINUOUS
 10
40.2655179648
 20
23.8859227711
 30
0.0
 11
0.5
 21
0.0
 31
0.0
 40
0.0087268678
 41
-1.3474690067
 42
-0.3991307541
  0
ELLIPSE
  5
A1E
100
AcDbEntity
  8
DRAFT
100
AcDbEllipse
 62
7
  6
CONTINUOUS
 10
42.1702075424
 20
9.8934527863
 30
0.0
 11
8.1
 21
-0.0
 31
0.0
 40
0.0034906727
 41
8.0773089541
 42
8.5327824667
  0
ELLIPSE
  5
A1F
100
AcDbEntity
  8
DRAFT
100
AcDbEllipse
 62
7
  6
CONTINUOUS
 10
42.1702075424
 20
45.1065472137
 30
0.0
 11
8.1
 21
0.0
 31
0.0
 40
0.0034906727
 41
-2.2495971596
 42
-1.7941236469
  0
ELLIPSE
  5
A20
100
AcDbEntity
  8
DRAFT
100
AcDbEllipse
 62
7
  6
CONTINUOUS
 10
-42.1702075424
 20
45.1065472137
 30
0.0
 11
8.1
 21
0.0
 31
0.0
 40
0.0034906727
 41
-1.3474690067
 42
-0.891995494
  0
ELLIPSE
  5
A21
100
AcDbEntity
  8
DRAFT
100
AcDbEllipse
 62
7
  6
CONTINUOUS
 10
-42.1702075424
 20
9.8934527863
 30
0.0
 11
8.1
 21
0.0
 31
0.0
 40
0.0034906727
 41
7.1751808012
 42
7.6306543139
  0
ELLIPSE
  5
A22
100
AcDbEntity
  8
DRAFT
100
AcDbEllipse
 62
7
  6
CONTINUOUS
 10
-40.2655179648
 20
9.9227270579
 30
0.0
 11
0.5
 21
0.0
 31
0.0
 40
0.0034906727
 41
-3.1328660073
 42
-3.0767973856
  0
ELLIPSE
  5
A23
100
AcDbEntity
  8
DRAFT
100
AcDbEllipse
 62
7
  6
CONTINUOUS
 10
-42.1702075424
 20
47.5065472137
 30
0.0
 11
8.1
 21
-0.0
 31
0.0
 40
0.0034906727
 41
-0.891995494
 42
-0.8640412607
  0
ELLIPSE
  5
A24
100
AcDbEntity
  8
DRAFT
100
AcDbEllipse
 62
7
  6
CONTINUOUS
 10
42.1702075424
 20
47.5065472137
 30
0.0
 11
8.1
 21
0.0
 31
0.0
 40
0.0034906727
 41
-2.2775513929
 42
-2.2495971596
  0
ELLIPSE
  5
A25
100
AcDbEntity
  8
DRAFT
100
AcDbEllipse
 62
7
  6
CONTINUOUS
 10
-40.2655179648
 20
45.0772729421
 30
0.0
 11
0.5
 21
0.0
 31
0.0
 40
0.0034906727
 41
3.0767973856
 42
3.1328660073
  0
ELLIPSE
  5
A26
100
AcDbEntity
  8
DRAFT
100
AcDbEllipse
 62
7
  6
CONTINUOUS
 10
42.1702075424
 20
7.4934527863
 30
0.0
 11
8.1
 21
-0.0
 31
0.0
 40
0.0034906727
 41
8.5327824667
 42
8.5607367001
  0
ELLIPSE
  5
A27
100
AcDbEntity
  8
DRAFT
100
AcDbEllipse
 62
7
  6
CONTINUOUS
 10
40.2655179648
 20
45.0772729421
 30
0.0
 11
0.5
 21
0.0
 31
0.0
 40
0.0034906727
 41
0.6223739122
 42
1.3474690067
  0
ELLIPSE
  5
A28
100
AcDbEntity
  8
DRAFT
100
AcDbEllipse
 62
7
  6
CONTINUOUS
 10
-42.1702075424
 20
7.4934527863
 30
0.0
 11
8.1
 21
0.0
 31
0.0
 40
0.0034906727
 41
7.1472265678
 42
7.1751808012
  0
ELLIPSE
  5
A29
100
AcDbEntity
  8
DRAFT
100
AcDbEllipse
 62
7
  6
CONTINUOUS
 10
40.2655179648
 20
9.9227270579
 30
0.0
 11
0.5
 21
-0.0
 31
0.0
 40
0.0034906727
 41
-1.3474690067
 42
-0.6223739122
  0
ELLIPSE
  5
A2A
100
AcDbEntity
  8
ASSI
100
AcDbEllipse
 62
7
  6
CONTINUOUS
 10
42.1702075424
 20
45.1065472137
 30
0.0
 11
6.6
 21
-0.0
 31
0.0
 40
0.0034906727
 41
-2.3569427062
 42
-1.7941236469
  0
ELLIPSE
  5
A2B
100
AcDbEntity
  8
ASSI
100
AcDbEllipse
 62
7
  6
CONTINUOUS
 10
42.1702075424
 20
9.8934527863
 30
0.0
 11
6.6
 21
0.0
 31
0.0
 40
0.0034906727
 41
1.7941236469
 42
2.3569427062
  0
ELLIPSE
  5
A2C
100
AcDbEntity
  8
ASSI
100
AcDbEllipse
 62
7
  6
CONTINUOUS
 10
-42.1702075424
 20
9.8934527863
 30
0.0
 11
6.6
 21
0.0
 31
0.0
 40
0.0034906727
 41
0.7846499474
 42
1.3474690067
  0
ELLIPSE
  5
A2D
100
AcDbEntity
  8
ASSI
100
AcDbEllipse
 62
7
  6
CONTINUOUS
 10
-42.1702075424
 20
45.1065472137
 30
0.0
 11
6.6
 21
0.0
 31
0.0
 40
0.0034906727
 41
-1.3474690067
 42
-0.7846499474
  0
ELLIPSE
  5
A2E
100
AcDbEntity
  8
ASSI
100
AcDbEllipse
 62
7
  6
CONTINUOUS
 10
-40.2655179648
 20
45.0772729421
 30
0.0
 11
2.0
 21
0.0
 31
0.0
 40
0.0034906727
 41
1.8236040553
 42
3.1328660073
  0
ELLIPSE
  5
A2F
100
AcDbEntity
  8
ASSI
100
AcDbEllipse
 62
7
  6
CONTINUOUS
 10
-40.2655179648
 20
9.9227270579
 30
0.0
 11
2.0
 21
0.0
 31
0.0
 40
0.0034906727
 41
-3.1328660073
 42
-1.8236040553
  0
ELLIPSE
  5
A30
100
AcDbEntity
  8
ASSI
100
AcDbEllipse
 62
7
  6
CONTINUOUS
 10
40.2655179648
 20
9.9227270579
 30
0.0
 11
2.0
 21
-0.0
 31
0.0
 40
0.0034906727
 41
-1.3474690067
 42
-0.0087266463
  0
ELLIPSE
  5
A31
100
AcDbEntity
  8
ASSI
100
AcDbEllipse
 62
7
  6
CONTINUOUS
 10
40.2655179648
 20
45.0772729421
 30
0.0
 11
2.0
 21
0.0
 31
0.0
 40
0.0034906727
 41
6.2919119534
 42
7.6306543139
  0
ELLIPSE
  5
A32
100
AcDbEntity
  8
ASSI
100
AcDbEllipse
 62
7
  6
CONTINUOUS
 10
42.1702075424
 20
31.1872644685
 30
0.0
 11
8.1
 21
0.0
 31
0.0
 40
0.0087268678
 41
-1.8229206645
 42
-1.7941236469
  0
ELLIPSE
  5
A33
100
AcDbEntity
  8
ASSI
100
AcDbEllipse
 62
7
  6
CONTINUOUS
 10
42.1702075424
 20
23.8127355315
 30
0.0
 11
8.1
 21
-0.0
 31
0.0
 40
0.0087268678
 41
1.7941236469
 42
1.8229206645
  0
ELLIPSE
  5
A34
100
AcDbEntity
  8
ASSI
100
AcDbEllipse
 62
7
  6
CONTINUOUS
 10
-42.1702075424
 20
31.1872644685
 30
0.0
 11
8.1
 21
-0.0
 31
0.0
 40
0.0087268678
 41
-1.3474690067
 42
-1.3186719891
  0
ELLIPSE
  5
A35
100
AcDbEntity
  8
ASSI
100
AcDbEllipse
 62
7
  6
CONTINUOUS
 10
-42.1702075424
 20
23.8127355315
 30
0.0
 11
8.1
 21
0.0
 31
0.0
 40
0.0087268678
 41
1.3186719891
 42
1.3474690067
  0
ELLIPSE
  5
A36
100
AcDbEntity
  8
ASSI
100
AcDbEllipse
 62
7
  6
CONTINUOUS
 10
-40.2655179648
 20
23.8859227711
 30
0.0
 11
0.5
 21
0.0
 31
0.0
 40
0.0087268678
 41
-3.1328660073
 42
-1.7941236469
  0
ELLIPSE
  5
A37
100
AcDbEntity
  8
ASSI
100
AcDbEllipse
 62
7
  6
CONTINUOUS
 10
-40.2655179648
 20
31.1140772289
 30
0.0
 11
0.5
 21
-0.0
 31
0.0
 40
0.0087268678
 41
1.7941236469
 42
3.1328660073
  0
ELLIPSE
  5
A38
100
AcDbEntity
  8
ASSI
100
AcDbEllipse
 62
7
  6
CONTINUOUS
 10
40.2655179648
 20
31.1140772289
 30
0.0
 11
0.5
 21
0.0
 31
0.0
 40
0.0087268678
 41
0.3991307541
 42
1.3474690067
  0
ELLIPSE
  5
A39
100
AcDbEntity
  8
ASSI
100
AcDbEllipse
 62
7
  6
CONTINUOUS
 10
40.2655179648
 20
23.8859227711
 30
0.0
 11
0.5
 21
0.0
 31
0.0
 40
0.0087268678
 41
-1.3474690067
 42
-0.3991307541
  0
ELLIPSE
  5
A3A
100
AcDbEntity
  8
ASSI
100
AcDbEllipse
 62
7
  6
CONTINUOUS
 10
42.1702075424
 20
9.8934527863
 30
0.0
 11
8.1
 21
-0.0
 31
0.0
 40
0.0034906727
 41
8.0773089541
 42
8.5327824667
  0
ELLIPSE
  5
A3B
100
AcDbEntity
  8
ASSI
100
AcDbEllipse
 62
7
  6
CONTINUOUS
 10
42.1702075424
 20
45.1065472137
 30
0.0
 11
8.1
 21
0.0
 31
0.0
 40
0.0034906727
 41
-2.2495971596
 42
-1.7941236469
  0
ELLIPSE
  5
A3C
100
AcDbEntity
  8
ASSI
100
AcDbEllipse
 62
7
  6
CONTINUOUS
 10
-42.1702075424
 20
45.1065472137
 30
0.0
 11
8.1
 21
0.0
 31
0.0
 40
0.0034906727
 41
-1.3474690067
 42
-0.891995494
  0
ELLIPSE
  5
A3D
100
AcDbEntity
  8
ASSI
100
AcDbEllipse
 62
7
  6
CONTINUOUS
 10
-42.1702075424
 20
9.8934527863
 30
0.0
 11
8.1
 21
0.0
 31
0.0
 40
0.0034906727
 41
7.1751808012
 42
7.6306543139
  0
ELLIPSE
  5
A3E
100
AcDbEntity
  8
ASSI
100
AcDbEllipse
 62
7
  6
CONTINUOUS
 10
-40.2655179648
 20
9.9227270579
 30
0.0
 11
0.5
 21
0.0
 31
0.0
 40
0.0034906727
 41
-3.1328660073
 42
-3.0767973856
  0
ELLIPSE
  5
A3F
100
AcDbEntity
  8
ASSI
100
AcDbEllipse
 62
7
  6
CONTINUOUS
 10
-42.1702075424
 20
47.5065472137
 30
0.0
 11
8.1
 21
-0.0
 31
0.0
 40
0.0034906727
 41
-0.891995494
 42
-0.8640412607
  0
ELLIPSE
  5
A40
100
AcDbEntity
  8
ASSI
100
AcDbEllipse
 62
7
  6
CONTINUOUS
 10
42.1702075424
 20
47.5065472137
 30
0.0
 11
8.1
 21
0.0
 31
0.0
 40
0.0034906727
 41
-2.2775513929
 42
-2.2495971596
  0
ELLIPSE
  5
A41
100
AcDbEntity
  8
ASSI
100
AcDbEllipse
 62
7
  6
CONTINUOUS
 10
-40.2655179648
 20
45.0772729421
 30
0.0
 11
0.5
 21
0.0
 31
0.0
 40
0.0034906727
 41
3.0767973856
 42
3.1328660073
  0
ELLIPSE
  5
A42
100
AcDbEntity
  8
ASSI
100
AcDbEllipse
 62
7
  6
CONTINUOUS
 10
42.1702075424
 20
7.4934527863
 30
0.0
 11
8.1
 21
-0.0
 31
0.0
 40
0.0034906727
 41
8.5327824667
 42
8.5607367001
  0
ELLIPSE
  5
A43
100
AcDbEntity
  8
ASSI
100
AcDbEllipse
 62
7
  6
CONTINUOUS
 10
40.2655179648
 20
45.0772729421
 30
0.0
 11
0.5
 21
0.0
 31
0.0
 40
0.0034906727
 41
0.6223739122
 42
1.3474690067
  0
ELLIPSE
  5
A44
100
AcDbEntity
  8
ASSI
100
AcDbEllipse
 62
7
  6
CONTINUOUS
 10
-42.1702075424
 20
7.4934527863
 30
0.0
 11
8.1
 21
0.0
 31
0.0
 40
0.0034906727
 41
7.1472265678
 42
7.1751808012
  0
ELLIPSE
  5
A45
100
AcDbEntity
  8
ASSI
100
AcDbEllipse
 62
7
  6
CONTINUOUS
 10
40.2655179648
 20
9.9227270579
 30
0.0
 11
0.5
 21
-0.0
 31
0.0
 40
0.0034906727
 41
-1.3474690067
 42
-0.6223739122
  0
ELLIPSE
  5
A46
100
AcDbEntity
  8
IMPORT_IGES
100
AcDbEllipse
 62
7
  6
CONTINUOUS
 10
-30.7249695344
 20
-42.2000304656
 30
0.0
 11
-0.1414644378
 21
0.1414644378
 31
0.0
 40
0.9996954599
 41
-0.78524587
 42
0.78524587
  0
ELLIPSE
  5
A47
100
AcDbEntity
  8
IMPORT_IGES
100
AcDbEllipse
 62
7
  6
CONTINUOUS
 10
-30.7249695344
 20
-44.7999695344
 30
0.0
 11
-0.1414644378
 21
-0.1414644378
 31
0.0
 40
0.9996954599
 41
-0.7852458699
 42
0.7852458699
  0
ELLIPSE
  5
A48
100
AcDbEntity
  8
IMPORT_IGES
100
AcDbEllipse
 62
7
  6
CONTINUOUS
 10
-22.3750304656
 20
-42.2000304656
 30
0.0
 11
0.1414644378
 21
0.1414644378
 31
0.0
 40
0.9996954599
 41
-0.78524587
 42
0.78524587
  0
ELLIPSE
  5
A49
100
AcDbEntity
  8
IMPORT_IGES
100
AcDbEllipse
 62
7
  6
CONTINUOUS
 10
-22.3750304656
 20
-44.7999695344
 30
0.0
 11
0.1414644378
 21
-0.1414644378
 31
0.0
 40
0.9996954599
 41
-0.78524587
 42
0.78524587
  0
ELLIPSE
  5
A4A
100
AcDbEntity
  8
IMPORT_IGES
100
AcDbEllipse
 62
7
  6
CONTINUOUS
 10
-38.6264736928
 20
1.3999971442
 30
0.0
 11
0.3429980916
 21
-0.0026999758
 31
0.0
 40
0.8746133383
 41
1.5797962819
 42
3.1484772329
  0
ELLIPSE
  5
A4B
100
AcDbEntity
  8
IMPORT_IGES
100
AcDbEllipse
 62
7
  6
CONTINUOUS
 10
-13.5999543016
 20
-25.3499543016
 30
0.0
 11
-0.2121966568
 21
-0.2121966568
 31
0.0
 40
0.9996954599
 41
-0.7852458701
 42
0.7852458701
  0
ELLIPSE
  5
A4C
100
AcDbEntity
  8
IMPORT_IGES
100
AcDbEllipse
 62
7
  6
CONTINUOUS
 10
28.8115683916
 20
-5.169231037
 30
0.0
 11
0.1414644378
 21
0.1414644378
 31
0.0
 40
0.9996954599
 41
-0.7852458702
 42
0.7852458704
  0
ELLIPSE
  5
A4D
100
AcDbEntity
  8
IMPORT_IGES
100
AcDbEllipse
 62
7
  6
CONTINUOUS
 10
28.8115683916
 20
-11.669231037
 30
0.0
 11
0.1414644378
 21
0.1414644378
 31
0.0
 40
0.9996954599
 41
-0.7852458702
 42
0.7852458704
  0
ELLIPSE
  5
A4E
100
AcDbEntity
  8
IMPORT_IGES
100
AcDbEllipse
 62
7
  6
CONTINUOUS
 10
28.8115683916
 20
-18.169231037
 30
0.0
 11
0.1414644378
 21
0.1414644378
 31
0.0
 40
0.9996954599
 41
-0.7852458702
 42
0.7852458704
  0
ELLIPSE
  5
A4F
100
AcDbEntity
  8
IMPORT_IGES
100
AcDbEllipse
 62
7
  6
CONTINUOUS
 10
25.5345739721
 20
-31.3883499498
 30
0.0
 11
-0.007557078
 21
0.225376751
 31
0.0
 40
0.886904536
 41
-0.0297299165
 42
1.5330076882
  0
ELLIPSE
  5
A50
100
AcDbEntity
  8
IMPORT_IGES
100
AcDbEllipse
 62
7
  6
CONTINUOUS
 10
28.8115683916
 20
-24.669231037
 30
0.0
 11
0.1414644378
 21
0.1414644378
 31
0.0
 40
0.9996954599
 41
-0.7852458702
 42
0.7852458704
  0
ELLIPSE
  5
A51
100
AcDbEntity
  8
IMPORT_IGES
100
AcDbEllipse
 62
7
  6
CONTINUOUS
 10
3.830997455
 20
-3.669002545
 30
0.0
 11
0.9195188459
 21
0.9195188459
 31
0.0
 40
0.9996954599
 41
-2.9933910406
 42
-2.3563467834
  0
ELLIPSE
  5
A52
100
AcDbEntity
  8
IMPORT_IGES
100
AcDbEllipse
 62
7
  6
CONTINUOUS
 10
3.830997455
 20
-10.169002545
 30
0.0
 11
0.9195188459
 21
0.9195188459
 31
0.0
 40
0.9996954599
 41
-2.9933910406
 42
-2.3563467834
  0
ELLIPSE
  5
A53
100
AcDbEntity
  8
IMPORT_IGES
100
AcDbEllipse
 62
7
  6
CONTINUOUS
 10
3.830997455
 20
-16.669002545
 30
0.0
 11
0.9195188459
 21
0.9195188459
 31
0.0
 40
0.9996954599
 41
-2.9933910406
 42
-2.3563467834
  0
ELLIPSE
  5
A54
100
AcDbEntity
  8
IMPORT_IGES
100
AcDbEllipse
 62
7
  6
CONTINUOUS
 10
3.830997455
 20
-23.169002545
 30
0.0
 11
0.9195188459
 21
0.9195188459
 31
0.0
 40
0.9996954599
 41
-2.9933910406
 42
-2.3563467834
  0
ELLIPSE
  5
A55
100
AcDbEntity
  8
IMPORT_IGES
100
AcDbEllipse
 62
7
  6
CONTINUOUS
 10
3.830997455
 20
-29.669002545
 30
0.0
 11
0.9195188459
 21
0.9195188459
 31
0.0
 40
0.9996954599
 41
-2.9933910406
 42
-2.3563467834
  0
ELLIPSE
  5
A56
100
AcDbEntity
  8
IMPORT_IGES
100
AcDbEllipse
 62
7
  6
CONTINUOUS
 10
38.3246433242
 20
-46.9545495733
 30
0.0
 11
0.5
 21
0.0
 31
0.0
 40
0.0043633508
 41
-2.6354471715
 42
-1.6318828504
  0
ELLIPSE
  5
A57
100
AcDbEntity
  8
IMPORT_IGES
100
AcDbEllipse
 62
7
  6
CONTINUOUS
 10
-10.4999543016
 20
-31.8499543016
 30
0.0
 11
-0.2121966568
 21
-0.2121966568
 31
0.0
 40
0.9996954599
 41
-0.7852458701
 42
0.7852458701
  0
ELLIPSE
  5
A58
100
AcDbEntity
  8
IMPORT_IGES
100
AcDbEllipse
 62
7
  6
CONTINUOUS
 10
-38.3246433242
 20
-46.9545495733
 30
0.0
 11
0.5
 21
0.0
 31
0.0
 40
0.0043633508
 41
-1.5097098032
 42
-0.5061454821
  0
ELLIPSE
  5
A59
100
AcDbEntity
  8
IMPORT_IGES
100
AcDbEllipse
 62
7
  6
CONTINUOUS
 10
-29.3116445556
 20
1.3999971442
 30
0.0
 11
-0.2910914841
 21
-0.0727659434
 31
0.0
 40
0.9998381802
 41
2.896674462
 42
4.4673946384
  0
ELLIPSE
  5
A5A
100
AcDbEntity
  8
IMPORT_IGES
100
AcDbEllipse
 62
7
  6
CONTINUOUS
 10
-2.4383554444
 20
1.3999971442
 30
0.0
 11
0.2910914841
 21
-0.0727659434
 31
0.0
 40
0.9998381802
 41
1.8157906687
 42
3.386510845
  0
ELLIPSE
  5
A5B
100
AcDbEntity
  8
IMPORT_IGES
100
AcDbEllipse
 62
7
  6
CONTINUOUS
 10
2.4383554444
 20
1.3999971442
 30
0.0
 11
-0.2910914841
 21
-0.0727659434
 31
0.0
 40
0.9998381802
 41
2.8966744621
 42
4.4673946385
  0
ELLIPSE
  5
A5C
100
AcDbEntity
  8
IMPORT_IGES
100
AcDbEllipse
 62
7
  6
CONTINUOUS
 10
29.3116445556
 20
1.3999971442
 30
0.0
 11
0.2910914841
 21
-0.0727659434
 31
0.0
 40
0.9998381802
 41
1.8157906687
 42
3.3865108452
  0
ELLIPSE
  5
A5D
100
AcDbEntity
  8
IMPORT_IGES
100
AcDbEllipse
 62
7
  6
CONTINUOUS
 10
38.6264736928
 20
1.3999971442
 30
0.0
 11
-0.3429980916
 21
-0.0026999758
 31
0.0
 40
0.8746133383
 41
3.1347080743
 42
4.7033890252
  0
ELLIPSE
  5
A5E
100
AcDbEntity
  8
IMPORT_IGES
100
AcDbEllipse
 62
7
  6
CONTINUOUS
 10
38.6264736928
 20
-39.8500456984
 30
0.0
 11
-0.3428762329
 21
-0.010797094
 31
0.0
 40
0.8745178023
 41
3.1140612467
 42
4.676396378
  0
ELLIPSE
  5
A5F
100
AcDbEntity
  8
IMPORT_IGES
100
AcDbEllipse
 62
7
  6
CONTINUOUS
 10
-36.9982864951
 20
-46.9513090052
 30
0.0
 11
0.3
 21
0.0
 31
0.0
 40
0.0043633508
 41
1.5707963268
 42
2.63544717
  0
ELLIPSE
  5
A60
100
AcDbEntity
  8
IMPORT_IGES
100
AcDbEllipse
 62
7
  6
CONTINUOUS
 10
-14.9999543016
 20
-18.8499543016
 30
0.0
 11
-0.2121966568
 21
-0.2121966568
 31
0.0
 40
0.9996954599
 41
-0.7852458701
 42
0.7852458701
  0
ELLIPSE
  5
A61
100
AcDbEntity
  8
IMPORT_IGES
100
AcDbEllipse
 62
7
  6
CONTINUOUS
 10
-13.6999543016
 20
-12.3499543016
 30
0.0
 11
-0.2121966568
 21
-0.2121966568
 31
0.0
 40
0.9996954599
 41
-0.7852458701
 42
0.7852458701
  0
ELLIPSE
  5
A62
100
AcDbEntity
  8
IMPORT_IGES
100
AcDbEllipse
 62
7
  6
CONTINUOUS
 10
-10.6999543016
 20
-5.8499543016
 30
0.0
 11
-0.2121966568
 21
-0.2121966568
 31
0.0
 40
0.9996954599
 41
-0.7852458701
 42
0.7852458701
  0
ELLIPSE
  5
A63
100
AcDbEntity
  8
IMPORT_IGES
100
AcDbEllipse
 62
7
  6
CONTINUOUS
 10
-39.6105411271
 20
-46.9583899496
 30
0.0
 11
0.3
 21
0.0
 31
0.0
 40
0.0043633508
 41
1.6318828503
 42
2.6703537563
  0
ELLIPSE
  5
A64
100
AcDbEntity
  8
IMPORT_IGES
100
AcDbEllipse
 62
7
  6
CONTINUOUS
 10
39.6105411271
 20
-46.9583899496
 30
0.0
 11
0.3
 21
0.0
 31
0.0
 40
0.0043633508
 41
0.4712388973
 42
1.5097098033
  0
ELLIPSE
  5
A65
100
AcDbEntity
  8
IMPORT_IGES
100
AcDbEllipse
 62
7
  6
CONTINUOUS
 10
36.9982864951
 20
-46.9513090052
 30
0.0
 11
0.3
 21
0.0
 31
0.0
 40
0.0043633508
 41
0.5061454836
 42
1.5707963268
  0
ELLIPSE
  5
A66
100
AcDbEntity
  8
IMPORT_IGES
100
AcDbEllipse
 62
7
  6
CONTINUOUS
 10
-13.4999695344
 20
-39.3499695344
 30
0.0
 11
0.1414644378
 21
0.1414644378
 31
0.0
 40
0.9996954599
 41
2.3563467835
 42
3.9268385236
  0
ELLIPSE
  5
A67
100
AcDbEntity
  8
IMPORT_IGES
100
AcDbEllipse
 62
7
  6
CONTINUOUS
 10
-13.4999695344
 20
-38.6500304656
 30
0.0
 11
0.1414644378
 21
-0.1414644378
 31
0.0
 40
0.9996954599
 41
2.3563467835
 42
3.9268385236
  0
ELLIPSE
  5
A68
100
AcDbEntity
  8
IMPORT_IGES
100
AcDbEllipse
 62
7
  6
CONTINUOUS
 10
-21.1703282548
 20
-40.2703282548
 30
0.0
 11
-0.3024689788
 21
-0.3024689788
 31
0.0
 40
0.9351131265
 41
2.3897132391
 42
3.893472068
  0
ELLIPSE
  5
A69
100
AcDbEntity
  8
IMPORT_IGES
100
AcDbEllipse
 62
7
  6
CONTINUOUS
 10
-44.4485533704
 20
-13.0740593828
 30
0.0
 11
0.6
 21
0.0
 31
0.0
 40
0.0874886635
 41
-0.9505941102
 42
-0.5235987766
  0
ELLIPSE
  5
A6A
100
AcDbEntity
  8
IMPORT_IGES
100
AcDbEllipse
 62
7
  6
CONTINUOUS
 10
-21.2641104721
 20
-40.3641104721
 30
0.0
 11
0.3024689788
 21
0.3024689788
 31
0.0
 40
0.9351131265
 41
-0.7518794143
 42
0.7518794143
  0
ELLIPSE
  5
A6B
100
AcDbEntity
  8
IMPORT_IGES
100
AcDbEllipse
 62
7
  6
CONTINUOUS
 10
-44.4485533704
 20
-7.2759406179
 30
0.0
 11
0.6
 21
0.0
 31
0.0
 40
0.0874886635
 41
0.5235987756
 42
0.950658019
  0
ELLIPSE
  5
A6C
100
AcDbEntity
  8
IMPORT_IGES
100
AcDbEllipse
 62
7
  6
CONTINUOUS
 10
-44.4485533704
 20
-3.2745042611
 30
0.0
 11
0.599995809
 21
0.0256562713
 31
0.0
 40
0.087408792
 41
-0.9542999055
 42
-0.5273364247
  0
ELLIPSE
  5
A6D
100
AcDbEntity
  8
IMPORT_IGES
100
AcDbEllipse
 62
7
  6
CONTINUOUS
 10
-38.3246433242
 20
-3.1355754588
 30
0.0
 11
0.5
 21
-0.0
 31
0.0
 40
0.0087268678
 41
-1.5097098031
 42
-0.5061454831
  0
ELLIPSE
  5
A6E
100
AcDbEntity
  8
IMPORT_IGES
100
AcDbEllipse
 62
7
  6
CONTINUOUS
 10
-31.9296717452
 20
-40.2703282548
 30
0.0
 11
0.3024689788
 21
-0.3024689788
 31
0.0
 40
0.9351131265
 41
2.3897132391
 42
3.893472068
  0
ELLIPSE
  5
A6F
100
AcDbEntity
  8
IMPORT_IGES
100
AcDbEllipse
 62
7
  6
CONTINUOUS
 10
-31.8358895279
 20
-40.3641104721
 30
0.0
 11
-0.3024689788
 21
0.3024689788
 31
0.0
 40
0.9351131265
 41
-0.7518794143
 42
0.7518794143
  0
ELLIPSE
  5
A70
100
AcDbEntity
  8
IMPORT_IGES
100
AcDbEllipse
 62
7
  6
CONTINUOUS
 10
38.3246433242
 20
-17.2144245412
 30
0.0
 11
0.5
 21
0.0
 31
0.0
 40
0.0087268678
 41
1.6318828505
 42
2.6354471704
  0
ELLIPSE
  5
A71
100
AcDbEntity
  8
IMPORT_IGES
100
AcDbEllipse
 62
7
  6
CONTINUOUS
 10
44.4485533704
 20
-7.2759406179
 30
0.0
 11
0.6
 21
-0.0
 31
0.0
 40
0.0874886635
 41
2.1909985434
 42
2.617993877
  0
ELLIPSE
  5
A72
100
AcDbEntity
  8
IMPORT_IGES
100
AcDbEllipse
 62
7
  6
CONTINUOUS
 10
-44.4485533704
 20
-36.9259406171
 30
0.0
 11
0.6
 21
-0.0
 31
0.0
 40
0.0874886635
 41
0.5235987756
 42
0.950658019
  0
ELLIPSE
  5
A73
100
AcDbEntity
  8
IMPORT_IGES
100
AcDbEllipse
 62
7
  6
CONTINUOUS
 10
-44.4485533704
 20
-32.9245042611
 30
0.0
 11
0.599995809
 21
0.0256562713
 31
0.0
 40
0.087408792
 41
-0.9542999047
 42
-0.5273364237
  0
ELLIPSE
  5
A74
100
AcDbEntity
  8
IMPORT_IGES
100
AcDbEllipse
 62
7
  6
CONTINUOUS
 10
-36.9982864951
 20
-32.7790941992
 30
0.0
 11
0.3
 21
0.0
 31
0.0
 40
0.0087268678
 41
1.570796327
 42
2.6354471705
  0
ELLIPSE
  5
A75
100
AcDbEntity
  8
IMPORT_IGES
100
AcDbEllipse
 62
7
  6
CONTINUOUS
 10
-38.3246433242
 20
-32.7855754588
 30
0.0
 11
0.5
 21
-0.0
 31
0.0
 40
0.0087268678
 41
-1.5097098031
 42
-0.5061454831
  0
ELLIPSE
  5
A76
100
AcDbEntity
  8
IMPORT_IGES
100
AcDbEllipse
 62
7
  6
CONTINUOUS
 10
-44.4485533704
 20
-42.8740593823
 30
0.0
 11
0.6
 21
-0.0
 31
0.0
 40
0.0874886635
 41
-0.9505941102
 42
-0.5235987765
  0
ELLIPSE
  5
A77
100
AcDbEntity
  8
IMPORT_IGES
100
AcDbEllipse
 62
7
  6
CONTINUOUS
 10
44.4485533704
 20
-3.2745042611
 30
0.0
 11
0.599995809
 21
-0.0256562713
 31
0.0
 40
0.087408792
 41
-2.6142562299
 42
-2.1872018202
  0
ELLIPSE
  5
A78
100
AcDbEntity
  8
IMPORT_IGES
100
AcDbEllipse
 62
7
  6
CONTINUOUS
 10
44.4485533704
 20
-17.0754957389
 30
0.0
 11
0.599995809
 21
0.0256562713
 31
0.0
 40
0.087408792
 41
2.1872927489
 42
2.6142562298
  0
ELLIPSE
  5
A79
100
AcDbEntity
  8
IMPORT_IGES
100
AcDbEllipse
 62
7
  6
CONTINUOUS
 10
-36.9982864951
 20
-3.1290941992
 30
0.0
 11
0.3
 21
0.0
 31
0.0
 40
0.0087268678
 41
1.570796327
 42
2.6354471705
  0
ELLIPSE
  5
A7A
100
AcDbEntity
  8
IMPORT_IGES
100
AcDbEllipse
 62
7
  6
CONTINUOUS
 10
44.4485533704
 20
-13.0740593828
 30
0.0
 11
0.6
 21
-0.0
 31
0.0
 40
0.0874886635
 41
-2.617993878
 42
-2.1909346346
  0
ELLIPSE
  5
A7B
100
AcDbEntity
  8
IMPORT_IGES
100
AcDbEllipse
 62
7
  6
CONTINUOUS
 10
-36.9982864951
 20
-17.2209058008
 30
0.0
 11
0.3
 21
0.0
 31
0.0
 40
0.0087268678
 41
-2.6354471705
 42
-1.570796327
  0
ELLIPSE
  5
A7C
100
AcDbEntity
  8
IMPORT_IGES
100
AcDbEllipse
 62
7
  6
CONTINUOUS
 10
-38.3246433242
 20
-17.2144245412
 30
0.0
 11
0.5
 21
0.0
 31
0.0
 40
0.0087268678
 41
0.5061454831
 42
1.5097098031
  0
ELLIPSE
  5
A7D
100
AcDbEntity
  8
IMPORT_IGES
100
AcDbEllipse
 62
7
  6
CONTINUOUS
 10
38.3246433242
 20
-3.1355754588
 30
0.0
 11
0.5
 21
0.0
 31
0.0
 40
0.0087268678
 41
-2.6354471704
 42
-1.6318828505
  0
ELLIPSE
  5
A7E
100
AcDbEntity
  8
IMPORT_IGES
100
AcDbEllipse
 62
7
  6
CONTINUOUS
 10
36.9982864951
 20
-3.1290941992
 30
0.0
 11
0.3
 21
-0.0
 31
0.0
 40
0.0087268678
 41
0.5061454831
 42
1.5707963268
  0
ELLIPSE
  5
A7F
100
AcDbEntity
  8
IMPORT_IGES
100
AcDbEllipse
 62
7
  6
CONTINUOUS
 10
38.3246433242
 20
-42.335575459
 30
0.0
 11
0.5
 21
0.0
 31
0.0
 40
0.0087268678
 41
-2.6354471704
 42
-1.6318828505
  0
ELLIPSE
  5
A80
100
AcDbEntity
  8
IMPORT_IGES
100
AcDbEllipse
 62
7
  6
CONTINUOUS
 10
39.6105411271
 20
-42.3432563578
 30
0.0
 11
0.3
 21
0.0
 31
0.0
 40
0.0087268678
 41
0.471238901
 42
1.5097098032
  0
ELLIPSE
  5
A81
100
AcDbEntity
  8
IMPORT_IGES
100
AcDbEllipse
 62
7
  6
CONTINUOUS
 10
36.9982864951
 20
-17.2209058008
 30
0.0
 11
0.3
 21
-0.0
 31
0.0
 40
0.0087268678
 41
-1.5707963265
 42
-0.5061454831
  0
ELLIPSE
  5
A82
100
AcDbEntity
  8
IMPORT_IGES
100
AcDbEllipse
 62
7
  6
CONTINUOUS
 10
44.4485533704
 20
-38.275495739
 30
0.0
 11
0.599995809
 21
0.0256562713
 31
0.0
 40
0.087408792
 41
2.1872927489
 42
2.6142562299
  0
ELLIPSE
  5
A83
100
AcDbEntity
  8
IMPORT_IGES
100
AcDbEllipse
 62
7
  6
CONTINUOUS
 10
36.9982864951
 20
-42.3290941994
 30
0.0
 11
0.3
 21
0.0
 31
0.0
 40
0.0087268678
 41
0.5061454831
 42
1.5707963268
  0
ELLIPSE
  5
A84
100
AcDbEntity
  8
IMPORT_IGES
100
AcDbEllipse
 62
7
  6
CONTINUOUS
 10
44.4485533704
 20
-34.2740593825
 30
0.0
 11
0.6
 21
0.0
 31
0.0
 40
0.0874886635
 41
-2.617993878
 42
-2.1909346346
  0
ELLIPSE
  5
A85
100
AcDbEntity
  8
IMPORT_IGES
100
AcDbEllipse
 62
7
  6
CONTINUOUS
 10
44.4485533704
 20
-24.4745042611
 30
0.0
 11
0.599995809
 21
-0.0256562713
 31
0.0
 40
0.087408792
 41
-2.6142562298
 42
-2.1872018202
  0
ELLIPSE
  5
A86
100
AcDbEntity
  8
IMPORT_IGES
100
AcDbEllipse
 62
7
  6
CONTINUOUS
 10
44.4485533704
 20
-28.4759406175
 30
0.0
 11
0.6
 21
-0.0
 31
0.0
 40
0.0874886635
 41
2.1909985434
 42
2.617993877
  0
ELLIPSE
  5
A87
100
AcDbEntity
  8
IMPORT_IGES
100
AcDbEllipse
 62
7
  6
CONTINUOUS
 10
36.9982864951
 20
-24.3290941992
 30
0.0
 11
0.3
 21
0.0
 31
0.0
 40
0.0087268678
 41
0.5061454831
 42
1.5707963268
  0
ELLIPSE
  5
A88
100
AcDbEntity
  8
IMPORT_IGES
100
AcDbEllipse
 62
7
  6
CONTINUOUS
 10
38.3246433242
 20
-38.4144245412
 30
0.0
 11
0.5
 21
-0.0
 31
0.0
 40
0.0087268678
 41
1.6318828505
 42
2.6354471704
  0
ELLIPSE
  5
A89
100
AcDbEntity
  8
IMPORT_IGES
100
AcDbEllipse
 62
7
  6
CONTINUOUS
 10
38.3246433242
 20
-24.3355754588
 30
0.0
 11
0.5
 21
-0.0
 31
0.0
 40
0.0087268678
 41
-2.6354471704
 42
-1.6318828505
  0
ELLIPSE
  5
A8A
100
AcDbEntity
  8
IMPORT_IGES
100
AcDbEllipse
 62
7
  6
CONTINUOUS
 10
-44.4485533704
 20
-17.0754957389
 30
0.0
 11
0.599995809
 21
-0.0256562713
 31
0.0
 40
0.087408792
 41
0.5273364248
 42
0.9543908334
  0
ELLIPSE
  5
A8B
100
AcDbEntity
  8
IMPORT_IGES
100
AcDbEllipse
 62
7
  6
CONTINUOUS
 10
36.9982864951
 20
-38.4209058008
 30
0.0
 11
0.3
 21
-0.0
 31
0.0
 40
0.0087268678
 41
-1.5707963265
 42
-0.5061454831
  0
ENDSEC
  0
SECTION
  2
OBJECTS
  0
DICTIONARY
  5
C
100
AcDbDictionary
280
0
281
1
  3
ACAD_GROUP
350
D
  3
ACAD_MLINESTYLE
350
17
  3
ACAD_LAYOUT
350
1A
  3
ACAD_PLOTSETTINGS
350
19
  3
ACAD_PLOTSTYLENAME
350
E
  0
DICTIONARY
  5
D
102
{ACAD_REACTORS
330
C
102
}
100
AcDbDictionary
280
0
281
1
  0
ACDBDICTIONARYWDFLT
  5
E
102
{ACAD_REACTORS
330
C
102
}
100
AcDbDictionary
281
1
  3
Normal
350
F
100
AcDbDictionaryWithDefault
340
F
  0
DICTIONARY
  5
17
102
{ACAD_REACTORS
330
C
102
}
100
AcDbDictionary
280
0
281
1
  3
Standard
350
18
  0
DICTIONARY
  5
19
102
{ACAD_REACTORS
330
C
102
}
100
AcDbDictionary
281
1
  0
DICTIONARY
  5
1A
102
{ACAD_REACTORS
330
C
102
}
100
AcDbDictionary
281
1
  3
Model
350
A8C
  3
Layout1
350
A8D
  0
ACDBPLACEHOLDER
  5
F
102
{ACAD_REACTORS
330
E
102
}
  0
MLINESTYLE
  5
18
102
{ACAD_REACTORS
330
17
102
}
100
AcDbMlineStyle
  2
STANDARD
 70
0
  3

 62
256
 51
90.0
 52
90.0
 71
2
 49
0.5
 62
256
  6
BYLAYER
 49
-0.5
 62
256
  6
BYLAYER
  0
LAYOUT
  5
A8C
102
{ACAD_REACTORS
330
1A
102
}
100
AcDbPlotSettings
  1

  2
none_device
  4
ANSI_C_(22.00_x_17.00_Inches)
  6

 40
0.0
 41
0.0
 42
0.0
 43
0.0
 44
558.8
 45
431.8
 46
0.0
 47
0.0
 48
0.0
 49
0.0
140
0.0
141
0.0
142
1.0
143
1.0
 70
1024
 72
1
 73
0
 74
0
  7

 75
0
147
1.0
148
0.0
149
0.0
100
AcDbLayout
  1
Model
 70
0
 71
0
 10
0.0
 20
0.0
 11
558.8
 21
431.8
 12
0.0
 22
0.0
 32
0.0
 14
0.0
 24
0.0
 34
0.0
 15
0.0
 25
0.0
 35
0.0
146
0.0
 13
0.0
 23
0.0
 33
0.0
 16
1.0
 26
0.0
 36
0.0
 17
0.0
 27
1.0
 37
0.0
 76
0
330
211
345
0
346
0
  0
LAYOUT
  5
A8D
102
{ACAD_REACTORS
330
1A
102
}
100
AcDbPlotSettings
  1

  2
none_device
  4
ANSI_C_(22.00_x_17.00_Inches)
  6

 40
0.0
 41
0.0
 42
0.0
 43
0.0
 44
558.8
 45
431.8
 46
0.0
 47
0.0
 48
0.0
 49
0.0
140
0.0
141
0.0
142
1.0
143
1.0
 70
0
 72
1
 73
0
 74
0
  7

 75
0
147
1.0
148
0.0
149
0.0
100
AcDbLayout
  1
Layout1
 70
0
 71
1
 10
0.0
 20
0.0
 11
558.8
 21
431.8
 12
0.0
 22
0.0
 32
0.0
 14
0.0
 24
0.0
 34
0.0
 15
0.0
 25
0.0
 35
0.0
146
0.0
 13
0.0
 23
0.0
 33
0.0
 16
1.0
 26
0.0
 36
0.0
 17
0.0
 27
1.0
 37
0.0
 76
0
330
212
345
0
346
0
  0
ENDSEC
  0
EOF
