  0
SECTION
  2
HEADER
  9
$ACADVER
  1
AC1024
  9
$DWGCODEPAGE
  3
ANSI_1252
  9
$EXTMAX
 10
297.0
 20
210.0
 30
0.0
  9
$EXTMIN
 10
0.0
 20
0.0
 30
0.0
  9
$LIMMIN
 10
0.0
 20
0.0
  9
$LIMMAX
 10
297.0
 20
210.0
  9
$VIEWCTR
 10
148.5
 20
105.0
  9
$VIEWSIZE
 40
210.0
  9
$CLAYER
  8
0
  9
$LTSCALE
 40
16.335
  9
$CELTYPE
  6
BYLAYER
  9
$DIMSCALE
 40
1.0
  9
$DIMASZ
 40
3.0
  9
$DIMEXO
 40
0.5
  9
$DIMDLI
 40
11.286
  9
$DIMEXE
 40
1.5
  9
$DIMCEN
 40
2.673
  9
$DIMLFAC
 40
1.0
  9
$DIMBLK
  1
_FILLED
  9
$DIMALT
 70
0
  9
$DIMALTF
 40
0.0393700787
  9
$DIMTXT
 40
3.0
  9
$DIMTOL
 70
1
  9
$DIMLIM
 70
0
  9
$DIMTFAC
 40
1.0
  9
$DIMTP
 40
0.01
  9
$DIMTM
 40
0.01
  9
$DIMGAP
 40
0.625
  9
$DIMDSEP
 70
44
  9
$AUNITS
 70
0
  9
$PDMODE
 70
3
  9
$PDSIZE
 40
3.0
  9
$HANDSEED
  5
8CA
  9
$TILEMODE
 70
1
  9
$MEASUREMENT
 70
1
  9
$INSUNITS
 70
4
  0
ENDSEC
  0
SECTION
  2
CLASSES
  0
CLASS
  1
ACDBDICTIONARYWDFLT
  2
AcDbDictionaryWithDefault
  3
AutoCAD 2000
 90
0
 91
1
280
0
281
0
  0
CLASS
  1
ACDBPLACEHOLDER
  2
AcDbPlaceHolder
  3
AutoCAD 2000
 90
0
 91
1
280
0
281
0
  0
CLASS
  1
LAYOUT
  2
AcDbLayout
  3
AutoCAD 2000
 90
0
 91
0
280
0
281
0
  0
ENDSEC
  0
SECTION
  2
TABLES
  0
TABLE
  2
VPORT
  5
8
100
AcDbSymbolTable
 70
2
  0
VPORT
  5
1F4
100
AcDbSymbolTableRecord
100
AcDbViewportTableRecord
  2
*ACTIVE
 70
0
 10
0.0
 20
0.0
 11
1.0
 21
1.0
 12
148.5
 22
105.0
 13
0.0
 23
0.0
 14
1.0
 24
1.0
 15
0.0
 25
0.0
 16
0.0
 26
0.0
 36
1.0
 17
0.0
 27
0.0
 37
0.0
 40
210.0
 41
1.4142857143
 42
50.0
 43
0.0
 44
0.0
 50
0.0
 51
0.0
 71
0
 72
100
 73
1
 74
1
 75
0
 76
0
 77
0
 78
0
  0
ENDTAB
  0
TABLE
  2
LTYPE
  5
5
100
AcDbSymbolTable
 70
6
  0
LTYPE
  5
14
100
AcDbSymbolTableRecord
100
AcDbLinetypeTableRecord
  2
BYBLOCK
 70
0
  3

 72
65
 73
0
 40
0.0
  0
LTYPE
  5
15
100
AcDbSymbolTableRecord
100
AcDbLinetypeTableRecord
  2
BYLAYER
 70
0
  3

 72
65
 73
0
 40
0.0
  0
LTYPE
  5
16
100
AcDbSymbolTableRecord
100
AcDbLinetypeTableRecord
  2
CONTINUOUS
 70
64
  3
Solid line
 72
65
 73
0
 40
0.0
  0
LTYPE
  5
1F5
100
AcDbSymbolTableRecord
100
AcDbLinetypeTableRecord
  2
CENTER
 70
64
  3
____ _ ____ _ ____ _ ____ _ ____ _ ____ _ ____
 72
65
 73
4
 40
0.6
 49
0.375
 74
0
 49
-0.075
 74
0
 49
0.075
 74
0
 49
-0.075
 74
0
  0
LTYPE
  5
1F6
100
AcDbSymbolTableRecord
100
AcDbLinetypeTableRecord
  2
HIDDEN
 70
64
  3
- - - - - - - - - - - - - - - - - - - -
 72
65
 73
2
 40
0.2
 49
0.1
 74
0
 49
-0.1
 74
0
  0
LTYPE
  5
1F7
100
AcDbSymbolTableRecord
100
AcDbLinetypeTableRecord
  2
PHANTOM
 70
64
  3
_____ _ _ _____ _ _ _____ _ _ _____
 72
65
 73
6
 40
0.8
 49
0.45
 74
0
 49
-0.05
 74
0
 49
0.1
 74
0
 49
-0.05
 74
0
 49
0.1
 74
0
 49
-0.05
 74
0
  0
LTYPE
  5
1F8
100
AcDbSymbolTableRecord
100
AcDbLinetypeTableRecord
  2
DOT
 70
64
  3
. . . . . . . . . . . . . . . . . . . .
 72
65
 73
2
 40
0.2
 49
0.1
 74
0
 49
-0.1
 74
0
  0
LTYPE
  5
1F9
100
AcDbSymbolTableRecord
100
AcDbLinetypeTableRecord
  2
DASHED
 70
64
  3
- - - - - - - - - - - - - - - - - - - -
 72
65
 73
2
 40
0.2
 49
0.1
 74
0
 49
-0.1
 74
0
  0
ENDTAB
  0
TABLE
  2
LAYER
  5
2
100
AcDbSymbolTable
 70
36
  0
LAYER
  5
10
100
AcDbSymbolTableRecord
100
AcDbLayerTableRecord
  2
0
 70
0
 62
7
  6
CONTINUOUS
370
-3
390
F
  0
LAYER
  5
1FA
100
AcDbSymbolTableRecord
100
AcDbLayerTableRecord
  2
DEFAULT_1
 70
0
 62
7
  6
CENTER
370
-3
390
F
  0
LAYER
  5
1FB
100
AcDbSymbolTableRecord
100
AcDbLayerTableRecord
  2
DEFAULT_2
 70
0
 62
7
  6
HIDDEN
370
-3
390
F
  0
LAYER
  5
1FC
100
AcDbSymbolTableRecord
100
AcDbLayerTableRecord
  2
DEFAULT_3
 70
0
 62
7
  6
PHANTOM
370
-3
390
F
  0
LAYER
  5
1FD
100
AcDbSymbolTableRecord
100
AcDbLayerTableRecord
  2
ASSI
 70
0
 62
7
  6
CONTINUOUS
370
-3
390
F
  0
LAYER
  5
1FE
100
AcDbSymbolTableRecord
100
AcDbLayerTableRecord
  2
COORDINATE
 70
0
 62
7
  6
CONTINUOUS
370
-3
390
F
  0
LAYER
  5
1FF
100
AcDbSymbolTableRecord
100
AcDbLayerTableRecord
  2
COPY_PUBLISH
 70
0
 62
7
  6
CONTINUOUS
370
-3
390
F
  0
LAYER
  5
200
100
AcDbSymbolTableRecord
100
AcDbLayerTableRecord
  2
COSMETICI
 70
0
 62
7
  6
CONTINUOUS
370
-3
390
F
  0
LAYER
  5
201
100
AcDbSymbolTableRecord
100
AcDbLayerTableRecord
  2
CURVE
 70
0
 62
7
  6
CONTINUOUS
370
-3
390
F
  0
LAYER
  5
202
100
AcDbSymbolTableRecord
100
AcDbLayerTableRecord
  2
DRAFT
 70
0
 62
7
  6
CONTINUOUS
370
-3
390
F
  0
LAYER
  5
203
100
AcDbSymbolTableRecord
100
AcDbLayerTableRecord
  2
IMPORT_IGES
 70
0
 62
7
  6
CONTINUOUS
370
-3
390
F
  0
LAYER
  5
204
100
AcDbSymbolTableRecord
100
AcDbLayerTableRecord
  2
INTFCLR_2816
 70
0
 62
7
  6
CONTINUOUS
370
-3
390
F
  0
LAYER
  5
205
100
AcDbSymbolTableRecord
100
AcDbLayerTableRecord
  2
NOTE
 70
0
 62
7
  6
CONTINUOUS
370
-3
390
F
  0
LAYER
  5
206
100
AcDbSymbolTableRecord
100
AcDbLayerTableRecord
  2
PIANI
 70
0
 62
7
  6
CONTINUOUS
370
-3
390
F
  0
LAYER
  5
207
100
AcDbSymbolTableRecord
100
AcDbLayerTableRecord
  2
PUNTI
 70
0
 62
7
  6
CONTINUOUS
370
-3
390
F
  0
LAYER
  5
208
100
AcDbSymbolTableRecord
100
AcDbLayerTableRecord
  2
RACCORDO
 70
0
 62
7
  6
CONTINUOUS
370
-3
390
F
  0
LAYER
  5
209
100
AcDbSymbolTableRecord
100
AcDbLayerTableRecord
  2
SIMBOLI
 70
0
 62
7
  6
CONTINUOUS
370
-3
390
F
  0
LAYER
  5
20A
100
AcDbSymbolTableRecord
100
AcDbLayerTableRecord
  2
SMUSSO
 70
0
 62
7
  6
CONTINUOUS
370
-3
390
F
  0
LAYER
  5
20B
100
AcDbSymbolTableRecord
100
AcDbLayerTableRecord
  2
SNAPLINE
 70
0
 62
7
  6
CONTINUOUS
370
-3
390
F
  0
LAYER
  5
20C
100
AcDbSymbolTableRecord
100
AcDbLayerTableRecord
  2
SUPERFICI
 70
0
 62
7
  6
CONTINUOUS
370
-3
390
F
  0
LAYER
  5
20D
100
AcDbSymbolTableRecord
100
AcDbLayerTableRecord
  2
TRASH
 70
0
 62
7
  6
CONTINUOUS
370
-3
390
F
  0
ENDTAB
  0
TABLE
  2
STYLE
  5
3
100
AcDbSymbolTable
 70
1
  0
STYLE
  5
11
100
AcDbSymbolTableRecord
100
AcDbTextStyleTableRecord
  2
STANDARD
 70
0
 40
0.0
 41
0.8
 50
0.0
 71
0
 42
0.2
  3
txt
  4

  0
STYLE
  5
20E
100
AcDbSymbolTableRecord
100
AcDbTextStyleTableRecord
  2
TEXTSTYLE_1
 70
0
 40
0.0
 41
0.8
 50
0.0
 71
0
 42
0.2
  3
gdt
  4

  0
ENDTAB
  0
TABLE
  2
VIEW
  5
6
100
AcDbSymbolTable
 70
0
  0
ENDTAB
  0
TABLE
  2
UCS
  5
7
100
AcDbSymbolTable
 70
0
  0
ENDTAB
  0
TABLE
  2
APPID
  5
9
100
AcDbSymbolTable
 70
1
  0
APPID
  5
20F
100
AcDbSymbolTableRecord
100
AcDbRegAppTableRecord
  2
ACAD
 70
0
  0
ENDTAB
  0
TABLE
  2
BLOCK_RECORD
  5
1
100
AcDbSymbolTable
 70
0
  0
BLOCK_RECORD
  5
210
100
AcDbSymbolTableRecord
100
AcDbBlockTableRecord
  2
*Model_Space
  0
BLOCK_RECORD
  5
211
100
AcDbSymbolTableRecord
100
AcDbBlockTableRecord
  2
*Paper_Space
  0
BLOCK_RECORD
  5
212
100
AcDbSymbolTableRecord
100
AcDbBlockTableRecord
  2
_FILLED
  0
ENDTAB
  0
TABLE
  2
DIMSTYLE
  5
A
100
AcDbSymbolTable
 70
1
100
AcDbDimStyleTable
 71
0
  0
DIMSTYLE
105
213
100
AcDbSymbolTableRecord
100
AcDbDimStyleTableRecord
  2
STANDARD
 70
0
  3

  4

 40
1.0
 41
3.0
 42
0.5
 43
0.38
 44
1.5
 45
0.0
 46
0.0
 47
0.01
 48
0.01
140
3.0
141
0.09
142
0.0
143
25.4
144
1.0
145
0.0
146
1.0
147
0.625
 71
1.0
 72
0.0
 73
0
 74
0
 75
0
 76
0
 77
1
 78
8
 79
2
170
0
171
1
172
0
173
0
174
0
175
0
176
0
177
0
178
0
270
2
179
2
271
2
272
2
273
2
274
2
275
0
280
0
281
0
282
0
283
1
284
8
285
0
286
0
287
3
288
0
340
11
278
44
341
212
342
212
343
212
344
212
  0
ENDTAB
  0
ENDSEC
  0
SECTION
  2
BLOCKS
  0
BLOCK
  5
20
100
AcDbEntity
  8
0
100
AcDbBlockBegin
  2
*Model_Space
 70
0
 10
0.0
 20
0.0
 30
0.0
  3
*Model_Space
  1

  0
ENDBLK
  5
21
100
AcDbEntity
  8
0
100
AcDbBlockEnd
  0
BLOCK
  5
1C
100
AcDbEntity
  8
0
100
AcDbBlockBegin
  2
*Paper_Space
 70
0
 10
0.0
 20
0.0
 30
0.0
  3
*Paper_Space
  1

  0
ENDBLK
  5
1D
100
AcDbEntity
  8
0
100
AcDbBlockEnd
  0
BLOCK
  5
214
100
AcDbEntity
  8
0
100
AcDbBlockBegin
  2
_FILLED
 70
64
 10
0.0
 20
0.0
  3
_FILLED
  1

  0
SOLID
  5
215
100
AcDbEntity
  8
0
  6
BYBLOCK
 62
0
100
AcDbTrace
 10
0.0
 20
0.0
 11
-1.0
 21
0.3166666667
 12
-1.0
 22
-0.3166666667
 13
-1.0
 23
-0.3166666667
  0
ENDBLK
  5
216
100
AcDbEntity
  8
0
  6
BYBLOCK
 62
0
100
AcDbBlockEnd
  0
ENDSEC
  0
SECTION
  2
ENTITIES
  0
LINE
  5
217
100
AcDbEntity
  8
ASSI
100
AcDbLine
 62
7
  6
CONTINUOUS
 10
-21.1398356752
 20
22.5358210853
 11
-21.1327209055
 21
22.5386669325
  0
LINE
  5
218
100
AcDbEntity
  8
DRAFT
100
AcDbLine
 62
7
  6
CONTINUOUS
 10
-21.1398356752
 20
22.5358210853
 11
-21.1327209055
 21
22.5386669325
  0
LINE
  5
219
100
AcDbEntity
  8
ASSI
100
AcDbLine
 62
7
  6
CONTINUOUS
 10
-20.3950432371
 20
22.5337266817
 11
-20.3827494632
 21
22.5386440864
  0
LINE
  5
21A
100
AcDbEntity
  8
DRAFT
100
AcDbLine
 62
7
  6
CONTINUOUS
 10
-20.3950432371
 20
22.5337266817
 11
-20.3827494632
 21
22.5386440864
  0
LINE
  5
21B
100
AcDbEntity
  8
ASSI
100
AcDbLine
 62
7
  6
CONTINUOUS
 10
-20.3898071165
 20
15.55
 11
-20.3827494632
 21
15.5570576533
  0
LINE
  5
21C
100
AcDbEntity
  8
DRAFT
100
AcDbLine
 62
7
  6
CONTINUOUS
 10
-20.3898071165
 20
15.55
 11
-20.3827494632
 21
15.5570576533
  0
LINE
  5
21D
100
AcDbEntity
  8
0
100
AcDbLine
 62
7
  6
CONTINUOUS
 10
24.2
 20
-27.75
 11
-24.2
 21
-27.75
  0
LINE
  5
21E
100
AcDbEntity
  8
0
100
AcDbLine
 62
7
  6
CONTINUOUS
 10
-24.2
 20
27.75
 11
-24.2
 21
-27.75
  0
LINE
  5
21F
100
AcDbEntity
  8
0
100
AcDbLine
 62
250
  6
CONTINUOUS
 10
-24.075
 20
27.75
 11
-24.075
 21
-27.75
  0
LINE
  5
220
100
AcDbEntity
  8
ASSI
100
AcDbLine
 62
7
  6
CONTINUOUS
 10
-20.3950432371
 20
15.2447638793
 11
-20.3898071165
 21
15.25
  0
LINE
  5
221
100
AcDbEntity
  8
DRAFT
100
AcDbLine
 62
7
  6
CONTINUOUS
 10
-20.3950432371
 20
15.2447638793
 11
-20.3898071165
 21
15.25
  0
LINE
  5
222
100
AcDbEntity
  8
0
100
AcDbLine
 62
250
  6
CONTINUOUS
 10
-22.175
 20
27.75
 11
-22.175
 21
-27.75
  0
LINE
  5
223
100
AcDbEntity
  8
0
100
AcDbLine
 62
7
  6
CONTINUOUS
 10
-22.05
 20
27.75
 11
-22.05
 21
-27.75
  0
LINE
  5
224
100
AcDbEntity
  8
ASSI
100
AcDbLine
 62
7
  6
CONTINUOUS
 10
-21.8791552593
 20
16.5
 11
-21.8791552593
 21
11.0
  0
LINE
  5
225
100
AcDbEntity
  8
DRAFT
100
AcDbLine
 62
7
  6
CONTINUOUS
 10
-21.8791552593
 20
16.5
 11
-21.8791552593
 21
11.0
  0
LINE
  5
226
100
AcDbEntity
  8
0
100
AcDbLine
 62
250
  6
CONTINUOUS
 10
-21.8
 20
27.75
 11
-21.8
 21
22.5358210853
  0
LINE
  5
227
100
AcDbEntity
  8
0
100
AcDbLine
 62
250
  6
CONTINUOUS
 10
-21.8
 20
4.9641789147
 11
-21.8
 21
-27.75
  0
LINE
  5
228
100
AcDbEntity
  8
0
100
AcDbLine
 62
7
  6
CONTINUOUS
 10
-21.55
 20
27.75
 11
-21.55
 21
22.5358210853
  0
LINE
  5
229
100
AcDbEntity
  8
0
100
AcDbLine
 62
7
  6
CONTINUOUS
 10
-21.55
 20
4.9641789147
 11
-21.55
 21
-27.75
  0
LINE
  5
22A
100
AcDbEntity
  8
0
100
AcDbLine
 62
250
  6
CONTINUOUS
 10
-21.5276364025
 20
-27.75
 11
-21.5276364025
 21
4.9641789147
  0
LINE
  5
22B
100
AcDbEntity
  8
0
100
AcDbLine
 62
250
  6
CONTINUOUS
 10
-21.5276364025
 20
22.5358210853
 11
-21.5276364025
 21
27.75
  0
LINE
  5
22C
100
AcDbEntity
  8
ASSI
100
AcDbLine
 62
7
  6
CONTINUOUS
 10
-21.5107251197
 20
4.9662733183
 11
-21.5107251197
 21
22.5337266817
  0
LINE
  5
22D
100
AcDbEntity
  8
DRAFT
100
AcDbLine
 62
7
  6
CONTINUOUS
 10
-21.5107251197
 20
4.9662733183
 11
-21.5107251197
 21
22.5337266817
  0
LINE
  5
22E
100
AcDbEntity
  8
ASSI
100
AcDbLine
 62
7
  6
CONTINUOUS
 10
-20.3950432371
 20
22.5337266817
 11
-20.3950432371
 21
15.2447638793
  0
LINE
  5
22F
100
AcDbEntity
  8
DRAFT
100
AcDbLine
 62
7
  6
CONTINUOUS
 10
-20.3950432371
 20
22.5337266817
 11
-20.3950432371
 21
15.2447638793
  0
LINE
  5
230
100
AcDbEntity
  8
ASSI
100
AcDbLine
 62
7
  6
CONTINUOUS
 10
-20.3950432371
 20
12.2552361207
 11
-20.3950432371
 21
4.9662733183
  0
LINE
  5
231
100
AcDbEntity
  8
DRAFT
100
AcDbLine
 62
7
  6
CONTINUOUS
 10
-20.3950432371
 20
12.2552361207
 11
-20.3950432371
 21
4.9662733183
  0
LINE
  5
232
100
AcDbEntity
  8
ASSI
100
AcDbLine
 62
7
  6
CONTINUOUS
 10
-20.3898071165
 20
11.95
 11
-20.3898071165
 21
12.25
  0
LINE
  5
233
100
AcDbEntity
  8
DRAFT
100
AcDbLine
 62
7
  6
CONTINUOUS
 10
-20.3898071165
 20
11.95
 11
-20.3898071165
 21
12.25
  0
LINE
  5
234
100
AcDbEntity
  8
ASSI
100
AcDbLine
 62
7
  6
CONTINUOUS
 10
-20.3898071165
 20
15.25
 11
-20.3898071165
 21
15.55
  0
LINE
  5
235
100
AcDbEntity
  8
DRAFT
100
AcDbLine
 62
7
  6
CONTINUOUS
 10
-20.3898071165
 20
15.25
 11
-20.3898071165
 21
15.55
  0
LINE
  5
236
100
AcDbEntity
  8
ASSI
100
AcDbLine
 62
7
  6
CONTINUOUS
 10
-20.3827494632
 20
4.9613559136
 11
-20.3827494632
 21
11.9429423467
  0
LINE
  5
237
100
AcDbEntity
  8
DRAFT
100
AcDbLine
 62
7
  6
CONTINUOUS
 10
-20.3827494632
 20
4.9613559136
 11
-20.3827494632
 21
11.9429423467
  0
LINE
  5
238
100
AcDbEntity
  8
ASSI
100
AcDbLine
 62
7
  6
CONTINUOUS
 10
-20.3827494632
 20
15.5570576533
 11
-20.3827494632
 21
22.5386440864
  0
LINE
  5
239
100
AcDbEntity
  8
DRAFT
100
AcDbLine
 62
7
  6
CONTINUOUS
 10
-20.3827494632
 20
15.5570576533
 11
-20.3827494632
 21
22.5386440864
  0
LINE
  5
23A
100
AcDbEntity
  8
ASSI
100
AcDbLine
 62
250
  6
CONTINUOUS
 10
-20.1881278655
 20
4.9605125327
 11
-20.1881278655
 21
11.9408338495
  0
LINE
  5
23B
100
AcDbEntity
  8
DRAFT
100
AcDbLine
 62
250
  6
CONTINUOUS
 10
-20.1881278655
 20
4.9605125327
 11
-20.1881278655
 21
11.9408338495
  0
LINE
  5
23C
100
AcDbEntity
  8
ASSI
100
AcDbLine
 62
250
  6
CONTINUOUS
 10
-20.1881278655
 20
15.5591661505
 11
-20.1881278655
 21
22.5394874673
  0
LINE
  5
23D
100
AcDbEntity
  8
DRAFT
100
AcDbLine
 62
250
  6
CONTINUOUS
 10
-20.1881278655
 20
15.5591661505
 11
-20.1881278655
 21
22.5394874673
  0
LINE
  5
23E
100
AcDbEntity
  8
DRAFT
100
AcDbLine
 62
7
  6
CONTINUOUS
 10
-20.075
 20
18.7501745336
 11
-20.075
 21
15.25
  0
LINE
  5
23F
100
AcDbEntity
  8
DRAFT
100
AcDbLine
 62
7
  6
CONTINUOUS
 10
-20.075
 20
12.25
 11
-20.075
 21
8.7498254664
  0
LINE
  5
240
100
AcDbEntity
  8
DRAFT
100
AcDbLine
 62
7
  6
CONTINUOUS
 10
-19.75
 20
18.7501745336
 11
-19.75
 21
15.25
  0
LINE
  5
241
100
AcDbEntity
  8
DRAFT
100
AcDbLine
 62
7
  6
CONTINUOUS
 10
-19.75
 20
12.25
 11
-19.75
 21
8.7498254664
  0
LINE
  5
242
100
AcDbEntity
  8
ASSI
100
AcDbLine
 62
7
  6
CONTINUOUS
 10
-19.575
 20
12.2552361207
 11
-19.575
 21
15.2447638793
  0
LINE
  5
243
100
AcDbEntity
  8
DRAFT
100
AcDbLine
 62
7
  6
CONTINUOUS
 10
-19.575
 20
12.2552361207
 11
-19.575
 21
15.2447638793
  0
LINE
  5
244
100
AcDbEntity
  8
DRAFT
100
AcDbLine
 62
7
  6
CONTINUOUS
 10
-13.7449477065
 20
17.3537279815
 11
-13.7472971498
 21
17.3486821055
  0
LINE
  5
245
100
AcDbEntity
  8
DRAFT
100
AcDbLine
 62
7
  6
CONTINUOUS
 10
-13.7447203317
 20
17.3536191739
 11
-13.7470990665
 21
17.3485873987
  0
LINE
  5
246
100
AcDbEntity
  8
DRAFT
100
AcDbLine
 62
7
  6
CONTINUOUS
 10
-13.255970179
 20
17.890410747
 11
-13.2500000999
 21
17.8963808261
  0
LINE
  5
247
100
AcDbEntity
  8
DRAFT
100
AcDbLine
 62
7
  6
CONTINUOUS
 10
-9.6940085891
 20
20.2059914109
 11
-9.6963808261
 21
20.2036191739
  0
LINE
  5
248
100
AcDbEntity
  8
DRAFT
100
AcDbLine
 62
7
  6
CONTINUOUS
 10
-13.497561913
 20
17.8963808261
 11
-13.5076485532
 21
17.8901136214
  0
LINE
  5
249
100
AcDbEntity
  8
ASSI
100
AcDbLine
 62
7
  6
CONTINUOUS
 10
-19.1767607393
 20
12.2517607393
 11
-19.1767607393
 21
15.2482392607
  0
LINE
  5
24A
100
AcDbEntity
  8
DRAFT
100
AcDbLine
 62
7
  6
CONTINUOUS
 10
-19.1767607393
 20
12.2517607393
 11
-19.1767607393
 21
15.2482392607
  0
LINE
  5
24B
100
AcDbEntity
  8
0
100
AcDbLine
 62
7
  6
CONTINUOUS
 10
-18.9427351167
 20
-27.75
 11
-18.9427351167
 21
4.9554871926
  0
LINE
  5
24C
100
AcDbEntity
  8
0
100
AcDbLine
 62
7
  6
CONTINUOUS
 10
-18.9427351167
 20
22.5445128074
 11
-18.9427351167
 21
27.75
  0
LINE
  5
24D
100
AcDbEntity
  8
ASSI
100
AcDbLine
 62
7
  6
CONTINUOUS
 10
-18.5422702349
 20
23.7422702349
 11
-18.5422702349
 21
22.5422702349
  0
LINE
  5
24E
100
AcDbEntity
  8
DRAFT
100
AcDbLine
 62
7
  6
CONTINUOUS
 10
-18.5422702349
 20
23.7422702349
 11
-18.5422702349
 21
22.5422702349
  0
LINE
  5
24F
100
AcDbEntity
  8
ASSI
100
AcDbLine
 62
7
  6
CONTINUOUS
 10
-18.5422702349
 20
4.9577297651
 11
-18.5422702349
 21
3.7577297651
  0
LINE
  5
250
100
AcDbEntity
  8
DRAFT
100
AcDbLine
 62
7
  6
CONTINUOUS
 10
-18.5422702349
 20
4.9577297651
 11
-18.5422702349
 21
3.7577297651
  0
LINE
  5
251
100
AcDbEntity
  8
DRAFT
100
AcDbLine
 62
7
  6
CONTINUOUS
 10
-18.4534189685
 20
23.7534189685
 11
-18.4534189685
 21
18.7534189685
  0
LINE
  5
252
100
AcDbEntity
  8
DRAFT
100
AcDbLine
 62
7
  6
CONTINUOUS
 10
-18.4534189685
 20
8.7465810315
 11
-18.4534189685
 21
3.7465810315
  0
LINE
  5
253
100
AcDbEntity
  8
DRAFT
100
AcDbLine
 62
7
  6
CONTINUOUS
 10
-18.45
 20
8.7465787867
 11
-18.45
 21
18.7534212133
  0
LINE
  5
254
100
AcDbEntity
  8
DRAFT
100
AcDbLine
 62
7
  6
CONTINUOUS
 10
-15.4488970118
 20
9.9876300472
 11
-15.435782799
 21
10.00074426
  0
LINE
  5
255
100
AcDbEntity
  8
DRAFT
100
AcDbLine
 62
7
  6
CONTINUOUS
 10
-15.8898877515
 20
9.987018343
 11
-15.874306577
 21
10.00074426
  0
LINE
  5
256
100
AcDbEntity
  8
DRAFT
100
AcDbLine
 62
7
  6
CONTINUOUS
 10
-15.4488970118
 20
9.9876300472
 11
-15.4488970118
 21
9.4623699528
  0
LINE
  5
257
100
AcDbEntity
  8
DRAFT
100
AcDbLine
 62
7
  6
CONTINUOUS
 10
-15.435782799
 20
10.00074426
 11
-15.435782799
 21
9.44925574
  0
LINE
  5
258
100
AcDbEntity
  8
DRAFT
100
AcDbLine
 62
250
  6
CONTINUOUS
 10
-15.3419279189
 20
6.7377757823
 11
-15.3419279189
 21
6.7548855927
  0
LINE
  5
259
100
AcDbEntity
  8
DRAFT
100
AcDbLine
 62
7
  6
CONTINUOUS
 10
-14.2037986637
 20
6.7537986791
 11
-14.2037986637
 21
7.2537986637
  0
LINE
  5
25A
100
AcDbEntity
  8
DRAFT
100
AcDbLine
 62
7
  6
CONTINUOUS
 10
-14.1892802951
 20
7.2392802951
 11
-14.1892802951
 21
6.7392803105
  0
LINE
  5
25B
100
AcDbEntity
  8
DRAFT
100
AcDbLine
 62
7
  6
CONTINUOUS
 10
-18.4534189685
 20
3.7465810315
 11
-18.4551936
 21
3.7448064
  0
LINE
  5
25C
100
AcDbEntity
  8
DRAFT
100
AcDbLine
 62
7
  6
CONTINUOUS
 10
-13.6600690904
 20
7.2399309096
 11
-13.6462013363
 21
7.2537986637
  0
LINE
  5
25D
100
AcDbEntity
  8
DRAFT
100
AcDbLine
 62
7
  6
CONTINUOUS
 10
-13.6462013363
 20
6.7537986791
 11
-13.6600690904
 21
6.739930925
  0
LINE
  5
25E
100
AcDbEntity
  8
DRAFT
100
AcDbLine
 62
7
  6
CONTINUOUS
 10
-13.6600690904
 20
7.2399309096
 11
-13.6600690904
 21
6.739930925
  0
LINE
  5
25F
100
AcDbEntity
  8
DRAFT
100
AcDbLine
 62
7
  6
CONTINUOUS
 10
-13.6462013363
 20
7.2537986637
 11
-13.6462013363
 21
6.7537986791
  0
LINE
  5
260
100
AcDbEntity
  8
DRAFT
100
AcDbLine
 62
7
  6
CONTINUOUS
 10
-13.255970179
 20
17.890410747
 11
-13.255970179
 21
17.359589253
  0
LINE
  5
261
100
AcDbEntity
  8
DRAFT
100
AcDbLine
 62
7
  6
CONTINUOUS
 10
-13.2500000999
 20
17.3536191739
 11
-13.2500000999
 21
17.8963808261
  0
LINE
  5
262
100
AcDbEntity
  8
DRAFT
100
AcDbLine
 62
7
  6
CONTINUOUS
 10
-5.9837981935
 20
20.7034404059
 11
-5.9922592455
 21
20.682287325
  0
LINE
  5
263
100
AcDbEntity
  8
DRAFT
100
AcDbLine
 62
250
  6
CONTINUOUS
 10
-10.9573691842
 20
20.7071380797
 11
-10.9573691842
 21
20.6876472739
  0
LINE
  5
264
100
AcDbEntity
  8
DRAFT
100
AcDbLine
 62
7
  6
CONTINUOUS
 10
-9.6940085891
 20
20.7059914263
 11
-9.6940085891
 21
20.2059914109
  0
LINE
  5
265
100
AcDbEntity
  8
DRAFT
100
AcDbLine
 62
7
  6
CONTINUOUS
 10
-9.1555457405
 20
20.7055457559
 11
-9.1555457405
 21
20.2055457405
  0
LINE
  5
266
100
AcDbEntity
  8
DRAFT
100
AcDbLine
 62
7
  6
CONTINUOUS
 10
5.975
 20
21.25
 11
5.9837981935
 21
21.2587981935
  0
LINE
  5
267
100
AcDbEntity
  8
DRAFT
100
AcDbLine
 62
7
  6
CONTINUOUS
 10
5.5001745336
 20
20.7251745336
 11
5.4818485021
 21
20.7068485021
  0
LINE
  5
268
100
AcDbEntity
  8
DRAFT
100
AcDbLine
 62
7
  6
CONTINUOUS
 10
-5.5001745336
 20
6.7748254664
 11
-5.4818485021
 21
6.7931514979
  0
LINE
  5
269
100
AcDbEntity
  8
DRAFT
100
AcDbLine
 62
7
  6
CONTINUOUS
 10
-5.975
 20
6.25
 11
-5.9837981935
 21
6.2412018065
  0
LINE
  5
26A
100
AcDbEntity
  8
DRAFT
100
AcDbLine
 62
250
  6
CONTINUOUS
 10
12.3916886866
 20
19.9066334693
 11
12.3756524134
 21
19.8967764497
  0
LINE
  5
26B
100
AcDbEntity
  8
DRAFT
100
AcDbLine
 62
7
  6
CONTINUOUS
 10
-7.25
 20
6.7666754203
 11
-7.25
 21
20.6833413861
  0
LINE
  5
26C
100
AcDbEntity
  8
DRAFT
100
AcDbLine
 62
7
  6
CONTINUOUS
 10
-5.9837981935
 20
21.2587981935
 11
-5.9837981935
 21
20.7034404059
  0
LINE
  5
26D
100
AcDbEntity
  8
DRAFT
100
AcDbLine
 62
7
  6
CONTINUOUS
 10
-5.9837981935
 20
6.7465596248
 11
-5.9837981935
 21
6.2412018065
  0
LINE
  5
26E
100
AcDbEntity
  8
DRAFT
100
AcDbLine
 62
7
  6
CONTINUOUS
 10
-5.975
 20
21.25
 11
-5.975
 21
6.25
  0
LINE
  5
26F
100
AcDbEntity
  8
DRAFT
100
AcDbLine
 62
7
  6
CONTINUOUS
 10
-5.5001745336
 20
6.7748254664
 11
-5.5001745336
 21
20.7251745336
  0
LINE
  5
270
100
AcDbEntity
  8
DRAFT
100
AcDbLine
 62
7
  6
CONTINUOUS
 10
-5.4818485021
 20
20.7068485021
 11
-5.4818485021
 21
6.7931514979
  0
LINE
  5
271
100
AcDbEntity
  8
ASSI
100
AcDbLine
 62
7
  6
CONTINUOUS
 10
-20.3898071165
 20
11.95
 11
-20.3827494632
 21
11.9429423467
  0
LINE
  5
272
100
AcDbEntity
  8
DRAFT
100
AcDbLine
 62
7
  6
CONTINUOUS
 10
-20.3898071165
 20
11.95
 11
-20.3827494632
 21
11.9429423467
  0
LINE
  5
273
100
AcDbEntity
  8
ASSI
100
AcDbLine
 62
7
  6
CONTINUOUS
 10
-20.3950432371
 20
12.2552361207
 11
-20.3898071165
 21
12.25
  0
LINE
  5
274
100
AcDbEntity
  8
DRAFT
100
AcDbLine
 62
7
  6
CONTINUOUS
 10
-20.3950432371
 20
12.2552361207
 11
-20.3898071165
 21
12.25
  0
LINE
  5
275
100
AcDbEntity
  8
DRAFT
100
AcDbLine
 62
7
  6
CONTINUOUS
 10
-15.9383519992
 20
9.44925574
 11
-15.950788109
 21
9.4630675204
  0
LINE
  5
276
100
AcDbEntity
  8
DRAFT
100
AcDbLine
 62
7
  6
CONTINUOUS
 10
18.4534189685
 20
23.7534189685
 11
18.4551936
 21
23.7551936
  0
LINE
  5
277
100
AcDbEntity
  8
DRAFT
100
AcDbLine
 62
7
  6
CONTINUOUS
 10
13.255970179
 20
17.359589253
 11
13.2500000999
 21
17.3536191739
  0
LINE
  5
278
100
AcDbEntity
  8
ASSI
100
AcDbLine
 62
7
  6
CONTINUOUS
 10
-21.1398356752
 20
4.9641789147
 11
-21.1327209055
 21
4.9613330675
  0
LINE
  5
279
100
AcDbEntity
  8
DRAFT
100
AcDbLine
 62
7
  6
CONTINUOUS
 10
-21.1398356752
 20
4.9641789147
 11
-21.1327209055
 21
4.9613330675
  0
LINE
  5
27A
100
AcDbEntity
  8
ASSI
100
AcDbLine
 62
7
  6
CONTINUOUS
 10
-20.3950432371
 20
4.9662733183
 11
-20.3827494632
 21
4.9613559136
  0
LINE
  5
27B
100
AcDbEntity
  8
DRAFT
100
AcDbLine
 62
7
  6
CONTINUOUS
 10
-20.3950432371
 20
4.9662733183
 11
-20.3827494632
 21
4.9613559136
  0
LINE
  5
27C
100
AcDbEntity
  8
DRAFT
100
AcDbLine
 62
7
  6
CONTINUOUS
 10
-14.1892802951
 20
6.7392803105
 11
-14.2037986637
 21
6.7537986791
  0
LINE
  5
27D
100
AcDbEntity
  8
DRAFT
100
AcDbLine
 62
7
  6
CONTINUOUS
 10
-14.2037986637
 20
7.2537986637
 11
-14.1892802951
 21
7.2392802951
  0
LINE
  5
27E
100
AcDbEntity
  8
DRAFT
100
AcDbLine
 62
7
  6
CONTINUOUS
 10
-15.435782799
 20
9.44925574
 11
-15.4488970118
 21
9.4623699528
  0
LINE
  5
27F
100
AcDbEntity
  8
DRAFT
100
AcDbLine
 62
7
  6
CONTINUOUS
 10
-5.9837981935
 20
6.7465596248
 11
-5.9922658583
 21
6.7677292381
  0
LINE
  5
280
100
AcDbEntity
  8
ASSI
100
AcDbLine
 62
7
  6
CONTINUOUS
 10
-0.0
 20
13.8364875797
 11
-0.000043059
 21
6.7940671848
  0
LINE
  5
281
100
AcDbEntity
  8
0
100
AcDbLine
 62
7
  6
CONTINUOUS
 10
-0.0
 20
13.8364875797
 11
-0.000043059
 21
6.7940671848
  0
LINE
  5
282
100
AcDbEntity
  8
DRAFT
100
AcDbLine
 62
7
  6
CONTINUOUS
 10
-13.7577428596
 20
17.3536191739
 11
-13.7619365343
 21
17.3601923672
  0
LINE
  5
283
100
AcDbEntity
  8
DRAFT
100
AcDbLine
 62
7
  6
CONTINUOUS
 10
5.9837981935
 20
6.7465596095
 11
5.9922658583
 21
6.7677292227
  0
LINE
  5
284
100
AcDbEntity
  8
DRAFT
100
AcDbLine
 62
7
  6
CONTINUOUS
 10
13.7577428809
 20
17.3536191739
 11
13.7619365556
 21
17.3601923672
  0
LINE
  5
285
100
AcDbEntity
  8
ASSI
100
AcDbLine
 62
7
  6
CONTINUOUS
 10
20.3827494632
 20
4.9613559136
 11
20.3950432371
 21
4.9662733183
  0
LINE
  5
286
100
AcDbEntity
  8
DRAFT
100
AcDbLine
 62
7
  6
CONTINUOUS
 10
20.3827494632
 20
4.9613559136
 11
20.3950432371
 21
4.9662733183
  0
LINE
  5
287
100
AcDbEntity
  8
0
100
AcDbLine
 62
7
  6
CONTINUOUS
 10
-18.75
 20
1.3499999999
 11
18.75
 21
1.3499999999
  0
LINE
  5
288
100
AcDbEntity
  8
DRAFT
100
AcDbLine
 62
7
  6
CONTINUOUS
 10
-13.255970179
 20
17.359589253
 11
-13.2500000999
 21
17.3536191739
  0
LINE
  5
289
100
AcDbEntity
  8
DRAFT
100
AcDbLine
 62
7
  6
CONTINUOUS
 10
5.4818485021
 20
6.7931514979
 11
5.4818485021
 21
20.7068485021
  0
LINE
  5
28A
100
AcDbEntity
  8
DRAFT
100
AcDbLine
 62
7
  6
CONTINUOUS
 10
5.5001745336
 20
20.7251745336
 11
5.5001745336
 21
6.7748254664
  0
LINE
  5
28B
100
AcDbEntity
  8
DRAFT
100
AcDbLine
 62
7
  6
CONTINUOUS
 10
5.975
 20
6.25
 11
5.975
 21
21.25
  0
LINE
  5
28C
100
AcDbEntity
  8
DRAFT
100
AcDbLine
 62
7
  6
CONTINUOUS
 10
5.9837981935
 20
21.2587981935
 11
5.9837981935
 21
20.7034403905
  0
LINE
  5
28D
100
AcDbEntity
  8
DRAFT
100
AcDbLine
 62
7
  6
CONTINUOUS
 10
5.9837981935
 20
6.7465596095
 11
5.9837981935
 21
6.2412018065
  0
LINE
  5
28E
100
AcDbEntity
  8
DRAFT
100
AcDbLine
 62
7
  6
CONTINUOUS
 10
15.950788088
 20
9.4630675204
 11
15.9383519781
 21
9.44925574
  0
LINE
  5
28F
100
AcDbEntity
  8
DRAFT
100
AcDbLine
 62
7
  6
CONTINUOUS
 10
15.4488970118
 20
9.4623699528
 11
15.435782799
 21
9.44925574
  0
LINE
  5
290
100
AcDbEntity
  8
DRAFT
100
AcDbLine
 62
7
  6
CONTINUOUS
 10
14.1892802951
 20
7.2392802951
 11
14.2037986637
 21
7.2537986637
  0
LINE
  5
291
100
AcDbEntity
  8
DRAFT
100
AcDbLine
 62
7
  6
CONTINUOUS
 10
14.2037986637
 20
6.7537986637
 11
14.1892802951
 21
6.7392802951
  0
LINE
  5
292
100
AcDbEntity
  8
ASSI
100
AcDbLine
 62
7
  6
CONTINUOUS
 10
20.3950432371
 20
12.2552361207
 11
20.3898071165
 21
12.25
  0
LINE
  5
293
100
AcDbEntity
  8
DRAFT
100
AcDbLine
 62
7
  6
CONTINUOUS
 10
20.3950432371
 20
12.2552361207
 11
20.3898071165
 21
12.25
  0
LINE
  5
294
100
AcDbEntity
  8
ASSI
100
AcDbLine
 62
7
  6
CONTINUOUS
 10
20.3827494632
 20
11.9429423467
 11
20.3898071165
 21
11.95
  0
LINE
  5
295
100
AcDbEntity
  8
DRAFT
100
AcDbLine
 62
7
  6
CONTINUOUS
 10
20.3827494632
 20
11.9429423467
 11
20.3898071165
 21
11.95
  0
LINE
  5
296
100
AcDbEntity
  8
ASSI
100
AcDbLine
 62
7
  6
CONTINUOUS
 10
21.1327209055
 20
4.9613330675
 11
21.1398356752
 21
4.9641789147
  0
LINE
  5
297
100
AcDbEntity
  8
DRAFT
100
AcDbLine
 62
7
  6
CONTINUOUS
 10
21.1327209055
 20
4.9613330675
 11
21.1398356752
 21
4.9641789147
  0
LINE
  5
298
100
AcDbEntity
  8
ASSI
100
AcDbLine
 62
7
  6
CONTINUOUS
 10
22.05
 20
4.9658808425
 11
21.9193575035
 21
4.9641789147
  0
LINE
  5
299
100
AcDbEntity
  8
DRAFT
100
AcDbLine
 62
7
  6
CONTINUOUS
 10
22.05
 20
4.9658808425
 11
21.9193575035
 21
4.9641789147
  0
LINE
  5
29A
100
AcDbEntity
  8
ASSI
100
AcDbLine
 62
7
  6
CONTINUOUS
 10
22.05
 20
4.9732986505
 11
21.5107251197
 21
4.9662733183
  0
LINE
  5
29B
100
AcDbEntity
  8
DRAFT
100
AcDbLine
 62
7
  6
CONTINUOUS
 10
22.05
 20
4.9732986505
 11
21.5107251197
 21
4.9662733183
  0
LINE
  5
29C
100
AcDbEntity
  8
ASSI
100
AcDbLine
 62
7
  6
CONTINUOUS
 10
-21.9193575035
 20
4.9641789147
 11
-21.1398356752
 21
4.9641789147
  0
LINE
  5
29D
100
AcDbEntity
  8
DRAFT
100
AcDbLine
 62
7
  6
CONTINUOUS
 10
-21.9193575035
 20
4.9641789147
 11
-21.1398356752
 21
4.9641789147
  0
LINE
  5
29E
100
AcDbEntity
  8
ASSI
100
AcDbLine
 62
7
  6
CONTINUOUS
 10
21.1398356752
 20
4.9641789147
 11
21.9193575035
 21
4.9641789147
  0
LINE
  5
29F
100
AcDbEntity
  8
DRAFT
100
AcDbLine
 62
7
  6
CONTINUOUS
 10
21.1398356752
 20
4.9641789147
 11
21.9193575035
 21
4.9641789147
  0
LINE
  5
2A0
100
AcDbEntity
  8
ASSI
100
AcDbLine
 62
7
  6
CONTINUOUS
 10
-21.5107251197
 20
4.9662733183
 11
-20.3950432371
 21
4.9662733183
  0
LINE
  5
2A1
100
AcDbEntity
  8
DRAFT
100
AcDbLine
 62
7
  6
CONTINUOUS
 10
-21.5107251197
 20
4.9662733183
 11
-20.3950432371
 21
4.9662733183
  0
LINE
  5
2A2
100
AcDbEntity
  8
ASSI
100
AcDbLine
 62
7
  6
CONTINUOUS
 10
20.3950432371
 20
4.9662733183
 11
21.5107251197
 21
4.9662733183
  0
LINE
  5
2A3
100
AcDbEntity
  8
DRAFT
100
AcDbLine
 62
7
  6
CONTINUOUS
 10
20.3950432371
 20
4.9662733183
 11
21.5107251197
 21
4.9662733183
  0
LINE
  5
2A4
100
AcDbEntity
  8
0
100
AcDbLine
 62
7
  6
CONTINUOUS
 10
16.1005923386
 20
5.1
 11
-16.1005923386
 21
5.1
  0
LINE
  5
2A5
100
AcDbEntity
  8
ASSI
100
AcDbLine
 62
7
  6
CONTINUOUS
 10
-22.05
 20
4.9658808425
 11
-21.9193575035
 21
4.9641789147
  0
LINE
  5
2A6
100
AcDbEntity
  8
DRAFT
100
AcDbLine
 62
7
  6
CONTINUOUS
 10
-22.05
 20
4.9658808425
 11
-21.9193575035
 21
4.9641789147
  0
LINE
  5
2A7
100
AcDbEntity
  8
ASSI
100
AcDbLine
 62
7
  6
CONTINUOUS
 10
-22.05
 20
4.9732986505
 11
-21.5107251197
 21
4.9662733183
  0
LINE
  5
2A8
100
AcDbEntity
  8
DRAFT
100
AcDbLine
 62
7
  6
CONTINUOUS
 10
-22.05
 20
4.9732986505
 11
-21.5107251197
 21
4.9662733183
  0
LINE
  5
2A9
100
AcDbEntity
  8
DRAFT
100
AcDbLine
 62
7
  6
CONTINUOUS
 10
7.25
 20
20.6833413707
 11
7.25
 21
6.7666754049
  0
LINE
  5
2AA
100
AcDbEntity
  8
DRAFT
100
AcDbLine
 62
250
  6
CONTINUOUS
 10
16.0799323559
 20
7.4940663925
 11
16.0632353041
 21
7.4936350231
  0
LINE
  5
2AB
100
AcDbEntity
  8
DRAFT
100
AcDbLine
 62
7
  6
CONTINUOUS
 10
-14.3500123868
 20
6.756801327
 11
-14.2038046172
 21
6.7570676065
  0
LINE
  5
2AC
100
AcDbEntity
  8
DRAFT
100
AcDbLine
 62
7
  6
CONTINUOUS
 10
18.4525657091
 20
8.746583113
 11
18.45
 21
8.7465787867
  0
LINE
  5
2AD
100
AcDbEntity
  8
DRAFT
100
AcDbLine
 62
7
  6
CONTINUOUS
 10
-5.975
 20
6.25
 11
5.975
 21
6.25
  0
LINE
  5
2AE
100
AcDbEntity
  8
DRAFT
100
AcDbLine
 62
7
  6
CONTINUOUS
 10
5.5001745336
 20
6.7748254664
 11
-5.5001745336
 21
6.7748254664
  0
LINE
  5
2AF
100
AcDbEntity
  8
DRAFT
100
AcDbLine
 62
7
  6
CONTINUOUS
 10
-5.4818485021
 20
6.7931514979
 11
-4.0
 21
6.7931514979
  0
LINE
  5
2B0
100
AcDbEntity
  8
DRAFT
100
AcDbLine
 62
7
  6
CONTINUOUS
 10
4.0
 20
6.7931514979
 11
5.4818485021
 21
6.7931514979
  0
LINE
  5
2B1
100
AcDbEntity
  8
DRAFT
100
AcDbLine
 62
7
  6
CONTINUOUS
 10
-14.2037986637
 20
7.2537986637
 11
-13.6462013363
 21
7.2537986637
  0
LINE
  5
2B2
100
AcDbEntity
  8
DRAFT
100
AcDbLine
 62
7
  6
CONTINUOUS
 10
13.6462013363
 20
7.2537986637
 11
14.2037986637
 21
7.2537986637
  0
LINE
  5
2B3
100
AcDbEntity
  8
DRAFT
100
AcDbLine
 62
7
  6
CONTINUOUS
 10
20.075
 20
8.7498254664
 11
18.4534158284
 21
8.7465841716
  0
LINE
  5
2B4
100
AcDbEntity
  8
DRAFT
100
AcDbLine
 62
7
  6
CONTINUOUS
 10
-18.45
 20
8.7465787867
 11
-18.4525657091
 21
8.746583113
  0
LINE
  5
2B5
100
AcDbEntity
  8
DRAFT
100
AcDbLine
 62
7
  6
CONTINUOUS
 10
14.2038046172
 20
6.7570675911
 11
14.3500123868
 21
6.7568013117
  0
LINE
  5
2B6
100
AcDbEntity
  8
DRAFT
100
AcDbLine
 62
7
  6
CONTINUOUS
 10
-18.4534158284
 20
8.7465841716
 11
-20.075
 21
8.7498254664
  0
LINE
  5
2B7
100
AcDbEntity
  8
DRAFT
100
AcDbLine
 62
250
  6
CONTINUOUS
 10
-16.0799323855
 20
7.4940664117
 11
-16.0632353337
 21
7.4936350423
  0
LINE
  5
2B8
100
AcDbEntity
  8
DRAFT
100
AcDbLine
 62
7
  6
CONTINUOUS
 10
5.975
 20
6.25
 11
5.9837981935
 21
6.2412018065
  0
LINE
  5
2B9
100
AcDbEntity
  8
DRAFT
100
AcDbLine
 62
7
  6
CONTINUOUS
 10
5.5001745336
 20
6.7748254664
 11
5.4818485021
 21
6.7931514979
  0
LINE
  5
2BA
100
AcDbEntity
  8
DRAFT
100
AcDbLine
 62
7
  6
CONTINUOUS
 10
9.1555457405
 20
20.7055457405
 11
9.1555457405
 21
20.2055457405
  0
LINE
  5
2BB
100
AcDbEntity
  8
DRAFT
100
AcDbLine
 62
7
  6
CONTINUOUS
 10
9.6940085891
 20
20.7059914109
 11
9.6940085891
 21
20.2059914109
  0
LINE
  5
2BC
100
AcDbEntity
  8
DRAFT
100
AcDbLine
 62
250
  6
CONTINUOUS
 10
10.9573692095
 20
20.7071380644
 11
10.9573692095
 21
20.6876472586
  0
LINE
  5
2BD
100
AcDbEntity
  8
ASSI
100
AcDbLine
 62
7
  6
CONTINUOUS
 10
-22.05
 20
10.9944357382
 11
-21.8791552593
 21
11.0
  0
LINE
  5
2BE
100
AcDbEntity
  8
DRAFT
100
AcDbLine
 62
7
  6
CONTINUOUS
 10
-22.05
 20
10.9944357382
 11
-21.8791552593
 21
11.0
  0
LINE
  5
2BF
100
AcDbEntity
  8
DRAFT
100
AcDbLine
 62
7
  6
CONTINUOUS
 10
15.9383519781
 20
9.44925574
 11
15.435782799
 21
9.44925574
  0
LINE
  5
2C0
100
AcDbEntity
  8
DRAFT
100
AcDbLine
 62
7
  6
CONTINUOUS
 10
-15.435782799
 20
9.44925574
 11
-15.9383519992
 21
9.44925574
  0
LINE
  5
2C1
100
AcDbEntity
  8
DRAFT
100
AcDbLine
 62
7
  6
CONTINUOUS
 10
-15.874306577
 20
10.00074426
 11
-15.435782799
 21
10.00074426
  0
LINE
  5
2C2
100
AcDbEntity
  8
DRAFT
100
AcDbLine
 62
7
  6
CONTINUOUS
 10
15.435782799
 20
10.00074426
 11
15.8743065586
 21
10.00074426
  0
LINE
  5
2C3
100
AcDbEntity
  8
ASSI
100
AcDbLine
 62
7
  6
CONTINUOUS
 10
22.05
 20
11.0
 11
21.8791552593
 21
11.0
  0
LINE
  5
2C4
100
AcDbEntity
  8
DRAFT
100
AcDbLine
 62
7
  6
CONTINUOUS
 10
22.05
 20
11.0
 11
21.8791552593
 21
11.0
  0
LINE
  5
2C5
100
AcDbEntity
  8
ASSI
100
AcDbLine
 62
7
  6
CONTINUOUS
 10
-21.8791552593
 20
11.0
 11
-22.05
 21
11.0
  0
LINE
  5
2C6
100
AcDbEntity
  8
DRAFT
100
AcDbLine
 62
7
  6
CONTINUOUS
 10
-21.8791552593
 20
11.0
 11
-22.05
 21
11.0
  0
LINE
  5
2C7
100
AcDbEntity
  8
ASSI
100
AcDbLine
 62
7
  6
CONTINUOUS
 10
22.05
 20
10.9944357382
 11
21.8791552593
 21
11.0
  0
LINE
  5
2C8
100
AcDbEntity
  8
DRAFT
100
AcDbLine
 62
7
  6
CONTINUOUS
 10
22.05
 20
10.9944357382
 11
21.8791552593
 21
11.0
  0
LINE
  5
2C9
100
AcDbEntity
  8
DRAFT
100
AcDbLine
 62
250
  6
CONTINUOUS
 10
-12.3916886182
 20
19.9066335162
 11
-12.3756523451
 21
19.8967764965
  0
LINE
  5
2CA
100
AcDbEntity
  8
DRAFT
100
AcDbLine
 62
7
  6
CONTINUOUS
 10
-5.5001745336
 20
20.7251745336
 11
-5.4818485021
 21
20.7068485021
  0
LINE
  5
2CB
100
AcDbEntity
  8
DRAFT
100
AcDbLine
 62
7
  6
CONTINUOUS
 10
-5.975
 20
21.25
 11
-5.9837981935
 21
21.2587981935
  0
LINE
  5
2CC
100
AcDbEntity
  8
DRAFT
100
AcDbLine
 62
7
  6
CONTINUOUS
 10
13.2500000999
 20
17.8963808261
 11
13.2500000999
 21
17.3536191739
  0
LINE
  5
2CD
100
AcDbEntity
  8
DRAFT
100
AcDbLine
 62
7
  6
CONTINUOUS
 10
13.255970179
 20
17.890410747
 11
13.255970179
 21
17.359589253
  0
LINE
  5
2CE
100
AcDbEntity
  8
DRAFT
100
AcDbLine
 62
7
  6
CONTINUOUS
 10
13.6462013363
 20
6.7537986637
 11
13.6462013363
 21
7.2537986637
  0
LINE
  5
2CF
100
AcDbEntity
  8
DRAFT
100
AcDbLine
 62
7
  6
CONTINUOUS
 10
13.6600690904
 20
7.2399309096
 11
13.6600690904
 21
6.7399309096
  0
LINE
  5
2D0
100
AcDbEntity
  8
DRAFT
100
AcDbLine
 62
7
  6
CONTINUOUS
 10
14.1892802951
 20
7.2392802951
 11
14.1892802951
 21
6.7392802951
  0
LINE
  5
2D1
100
AcDbEntity
  8
DRAFT
100
AcDbLine
 62
7
  6
CONTINUOUS
 10
14.2037986637
 20
7.2537986637
 11
14.2037986637
 21
6.7537986637
  0
LINE
  5
2D2
100
AcDbEntity
  8
ASSI
100
AcDbLine
 62
7
  6
CONTINUOUS
 10
19.575
 20
12.2552361207
 11
19.1767607393
 21
12.2517607393
  0
LINE
  5
2D3
100
AcDbEntity
  8
DRAFT
100
AcDbLine
 62
7
  6
CONTINUOUS
 10
19.575
 20
12.2552361207
 11
19.1767607393
 21
12.2517607393
  0
LINE
  5
2D4
100
AcDbEntity
  8
DRAFT
100
AcDbLine
 62
7
  6
CONTINUOUS
 10
19.175
 20
13.521409845
 11
18.45
 21
13.5168831278
  0
LINE
  5
2D5
100
AcDbEntity
  8
DRAFT
100
AcDbLine
 62
7
  6
CONTINUOUS
 10
-18.45
 20
13.9831168722
 11
-19.175
 21
13.978590155
  0
LINE
  5
2D6
100
AcDbEntity
  8
DRAFT
100
AcDbLine
 62
7
  6
CONTINUOUS
 10
19.175
 20
13.5238223205
 11
18.45
 21
13.5223374202
  0
LINE
  5
2D7
100
AcDbEntity
  8
DRAFT
100
AcDbLine
 62
7
  6
CONTINUOUS
 10
-18.45
 20
13.9776625798
 11
-19.175
 21
13.9761776795
  0
LINE
  5
2D8
100
AcDbEntity
  8
ASSI
100
AcDbLine
 62
7
  6
CONTINUOUS
 10
-20.3898071165
 20
12.25
 11
-19.175
 21
12.25
  0
LINE
  5
2D9
100
AcDbEntity
  8
DRAFT
100
AcDbLine
 62
7
  6
CONTINUOUS
 10
-20.3898071165
 20
12.25
 11
-19.175
 21
12.25
  0
LINE
  5
2DA
100
AcDbEntity
  8
ASSI
100
AcDbLine
 62
7
  6
CONTINUOUS
 10
19.175
 20
12.25
 11
20.3898071165
 21
12.25
  0
LINE
  5
2DB
100
AcDbEntity
  8
DRAFT
100
AcDbLine
 62
7
  6
CONTINUOUS
 10
19.175
 20
12.25
 11
20.3898071165
 21
12.25
  0
LINE
  5
2DC
100
AcDbEntity
  8
ASSI
100
AcDbLine
 62
7
  6
CONTINUOUS
 10
20.3950432371
 20
12.2552361207
 11
19.575
 21
12.2552361207
  0
LINE
  5
2DD
100
AcDbEntity
  8
DRAFT
100
AcDbLine
 62
7
  6
CONTINUOUS
 10
20.3950432371
 20
12.2552361207
 11
19.575
 21
12.2552361207
  0
LINE
  5
2DE
100
AcDbEntity
  8
ASSI
100
AcDbLine
 62
7
  6
CONTINUOUS
 10
-19.575
 20
12.2552361207
 11
-20.3950432371
 21
12.2552361207
  0
LINE
  5
2DF
100
AcDbEntity
  8
DRAFT
100
AcDbLine
 62
7
  6
CONTINUOUS
 10
-19.575
 20
12.2552361207
 11
-20.3950432371
 21
12.2552361207
  0
LINE
  5
2E0
100
AcDbEntity
  8
DRAFT
100
AcDbLine
 62
7
  6
CONTINUOUS
 10
-18.45
 20
13.5223374202
 11
-19.175
 21
13.5238223205
  0
LINE
  5
2E1
100
AcDbEntity
  8
DRAFT
100
AcDbLine
 62
7
  6
CONTINUOUS
 10
19.175
 20
13.9761776795
 11
18.45
 21
13.9776625798
  0
LINE
  5
2E2
100
AcDbEntity
  8
DRAFT
100
AcDbLine
 62
7
  6
CONTINUOUS
 10
-18.45
 20
13.5168831278
 11
-19.175
 21
13.521409845
  0
LINE
  5
2E3
100
AcDbEntity
  8
DRAFT
100
AcDbLine
 62
7
  6
CONTINUOUS
 10
19.175
 20
13.978590155
 11
18.45
 21
13.9831168722
  0
LINE
  5
2E4
100
AcDbEntity
  8
ASSI
100
AcDbLine
 62
7
  6
CONTINUOUS
 10
-19.1767607393
 20
12.2517607393
 11
-19.575
 21
12.2552361207
  0
LINE
  5
2E5
100
AcDbEntity
  8
DRAFT
100
AcDbLine
 62
7
  6
CONTINUOUS
 10
-19.1767607393
 20
12.2517607393
 11
-19.575
 21
12.2552361207
  0
LINE
  5
2E6
100
AcDbEntity
  8
DRAFT
100
AcDbLine
 62
7
  6
CONTINUOUS
 10
13.6600690904
 20
6.7399309096
 11
13.6462013363
 21
6.7537986637
  0
LINE
  5
2E7
100
AcDbEntity
  8
DRAFT
100
AcDbLine
 62
7
  6
CONTINUOUS
 10
5.9837981935
 20
20.7034403905
 11
5.9922592455
 21
20.6822873096
  0
LINE
  5
2E8
100
AcDbEntity
  8
DRAFT
100
AcDbLine
 62
250
  6
CONTINUOUS
 10
15.3419278893
 20
6.7377757669
 11
15.3419278893
 21
6.7548855774
  0
LINE
  5
2E9
100
AcDbEntity
  8
DRAFT
100
AcDbLine
 62
7
  6
CONTINUOUS
 10
15.435782799
 20
9.44925574
 11
15.435782799
 21
10.00074426
  0
LINE
  5
2EA
100
AcDbEntity
  8
DRAFT
100
AcDbLine
 62
7
  6
CONTINUOUS
 10
15.4488970118
 20
9.9876300472
 11
15.4488970118
 21
9.4623699528
  0
LINE
  5
2EB
100
AcDbEntity
  8
ASSI
100
AcDbLine
 62
7
  6
CONTINUOUS
 10
22.05
 20
16.5055642618
 11
21.8791552593
 21
16.5
  0
LINE
  5
2EC
100
AcDbEntity
  8
DRAFT
100
AcDbLine
 62
7
  6
CONTINUOUS
 10
22.05
 20
16.5055642618
 11
21.8791552593
 21
16.5
  0
LINE
  5
2ED
100
AcDbEntity
  8
ASSI
100
AcDbLine
 62
7
  6
CONTINUOUS
 10
-19.575
 20
15.2447638793
 11
-19.1767607393
 21
15.2482392607
  0
LINE
  5
2EE
100
AcDbEntity
  8
DRAFT
100
AcDbLine
 62
7
  6
CONTINUOUS
 10
-19.575
 20
15.2447638793
 11
-19.1767607393
 21
15.2482392607
  0
LINE
  5
2EF
100
AcDbEntity
  8
ASSI
100
AcDbLine
 62
7
  6
CONTINUOUS
 10
20.3950432371
 20
15.2447638793
 11
19.575
 21
15.2447638793
  0
LINE
  5
2F0
100
AcDbEntity
  8
DRAFT
100
AcDbLine
 62
7
  6
CONTINUOUS
 10
20.3950432371
 20
15.2447638793
 11
19.575
 21
15.2447638793
  0
LINE
  5
2F1
100
AcDbEntity
  8
ASSI
100
AcDbLine
 62
7
  6
CONTINUOUS
 10
-19.575
 20
15.2447638793
 11
-20.3950432371
 21
15.2447638793
  0
LINE
  5
2F2
100
AcDbEntity
  8
DRAFT
100
AcDbLine
 62
7
  6
CONTINUOUS
 10
-19.575
 20
15.2447638793
 11
-20.3950432371
 21
15.2447638793
  0
LINE
  5
2F3
100
AcDbEntity
  8
ASSI
100
AcDbLine
 62
7
  6
CONTINUOUS
 10
-20.3898071165
 20
15.25
 11
-19.175
 21
15.25
  0
LINE
  5
2F4
100
AcDbEntity
  8
DRAFT
100
AcDbLine
 62
7
  6
CONTINUOUS
 10
-20.3898071165
 20
15.25
 11
-19.175
 21
15.25
  0
LINE
  5
2F5
100
AcDbEntity
  8
ASSI
100
AcDbLine
 62
7
  6
CONTINUOUS
 10
19.175
 20
15.25
 11
20.3898071165
 21
15.25
  0
LINE
  5
2F6
100
AcDbEntity
  8
DRAFT
100
AcDbLine
 62
7
  6
CONTINUOUS
 10
19.175
 20
15.25
 11
20.3898071165
 21
15.25
  0
LINE
  5
2F7
100
AcDbEntity
  8
ASSI
100
AcDbLine
 62
7
  6
CONTINUOUS
 10
22.05
 20
16.5
 11
21.8791552593
 21
16.5
  0
LINE
  5
2F8
100
AcDbEntity
  8
DRAFT
100
AcDbLine
 62
7
  6
CONTINUOUS
 10
22.05
 20
16.5
 11
21.8791552593
 21
16.5
  0
LINE
  5
2F9
100
AcDbEntity
  8
ASSI
100
AcDbLine
 62
7
  6
CONTINUOUS
 10
-21.8791552593
 20
16.5
 11
-22.05
 21
16.5
  0
LINE
  5
2FA
100
AcDbEntity
  8
DRAFT
100
AcDbLine
 62
7
  6
CONTINUOUS
 10
-21.8791552593
 20
16.5
 11
-22.05
 21
16.5
  0
LINE
  5
2FB
100
AcDbEntity
  8
DRAFT
100
AcDbLine
 62
7
  6
CONTINUOUS
 10
-13.7577428596
 20
17.3536191739
 11
-13.2500000999
 21
17.3536191739
  0
LINE
  5
2FC
100
AcDbEntity
  8
DRAFT
100
AcDbLine
 62
7
  6
CONTINUOUS
 10
13.2500000999
 20
17.3536191739
 11
13.7577428809
 21
17.3536191739
  0
LINE
  5
2FD
100
AcDbEntity
  8
ASSI
100
AcDbLine
 62
7
  6
CONTINUOUS
 10
19.1767607393
 20
15.2482392607
 11
19.575
 21
15.2447638793
  0
LINE
  5
2FE
100
AcDbEntity
  8
DRAFT
100
AcDbLine
 62
7
  6
CONTINUOUS
 10
19.1767607393
 20
15.2482392607
 11
19.575
 21
15.2447638793
  0
LINE
  5
2FF
100
AcDbEntity
  8
ASSI
100
AcDbLine
 62
7
  6
CONTINUOUS
 10
-22.05
 20
16.5055642618
 11
-21.8791552593
 21
16.5
  0
LINE
  5
300
100
AcDbEntity
  8
DRAFT
100
AcDbLine
 62
7
  6
CONTINUOUS
 10
-22.05
 20
16.5055642618
 11
-21.8791552593
 21
16.5
  0
LINE
  5
301
100
AcDbEntity
  8
DRAFT
100
AcDbLine
 62
7
  6
CONTINUOUS
 10
13.6600690904
 20
7.2399309096
 11
13.6462013363
 21
7.2537986637
  0
LINE
  5
302
100
AcDbEntity
  8
DRAFT
100
AcDbLine
 62
7
  6
CONTINUOUS
 10
18.4534189685
 20
3.7465810315
 11
18.4551936
 21
3.7448064
  0
LINE
  5
303
100
AcDbEntity
  8
DRAFT
100
AcDbLine
 62
7
  6
CONTINUOUS
 10
15.8010631512
 20
10.5072548032
 11
15.7977982832
 21
10.5291458143
  0
LINE
  5
304
100
AcDbEntity
  8
DRAFT
100
AcDbLine
 62
7
  6
CONTINUOUS
 10
15.8009111695
 20
10.5072310038
 11
15.7977985921
 21
10.5291456593
  0
LINE
  5
305
100
AcDbEntity
  8
DRAFT
100
AcDbLine
 62
7
  6
CONTINUOUS
 10
18.45
 20
8.7465787867
 11
18.45
 21
18.7534212133
  0
LINE
  5
306
100
AcDbEntity
  8
DRAFT
100
AcDbLine
 62
7
  6
CONTINUOUS
 10
18.4534189685
 20
23.7534189685
 11
18.4534189685
 21
18.7534189685
  0
LINE
  5
307
100
AcDbEntity
  8
DRAFT
100
AcDbLine
 62
7
  6
CONTINUOUS
 10
18.4534189685
 20
8.7465810315
 11
18.4534189685
 21
3.7465810315
  0
LINE
  5
308
100
AcDbEntity
  8
ASSI
100
AcDbLine
 62
7
  6
CONTINUOUS
 10
18.5422702349
 20
23.7422702349
 11
18.5422702349
 21
22.5422702349
  0
LINE
  5
309
100
AcDbEntity
  8
DRAFT
100
AcDbLine
 62
7
  6
CONTINUOUS
 10
18.5422702349
 20
23.7422702349
 11
18.5422702349
 21
22.5422702349
  0
LINE
  5
30A
100
AcDbEntity
  8
ASSI
100
AcDbLine
 62
7
  6
CONTINUOUS
 10
18.5422702349
 20
4.9577297651
 11
18.5422702349
 21
3.7577297651
  0
LINE
  5
30B
100
AcDbEntity
  8
DRAFT
100
AcDbLine
 62
7
  6
CONTINUOUS
 10
18.5422702349
 20
4.9577297651
 11
18.5422702349
 21
3.7577297651
  0
LINE
  5
30C
100
AcDbEntity
  8
0
100
AcDbLine
 62
7
  6
CONTINUOUS
 10
18.9427351167
 20
-27.75
 11
18.9427351167
 21
4.9554871926
  0
LINE
  5
30D
100
AcDbEntity
  8
0
100
AcDbLine
 62
7
  6
CONTINUOUS
 10
18.9427351167
 20
22.5445128074
 11
18.9427351167
 21
27.75
  0
LINE
  5
30E
100
AcDbEntity
  8
ASSI
100
AcDbLine
 62
7
  6
CONTINUOUS
 10
19.1767607393
 20
12.2517607393
 11
19.1767607393
 21
15.2482392607
  0
LINE
  5
30F
100
AcDbEntity
  8
DRAFT
100
AcDbLine
 62
7
  6
CONTINUOUS
 10
19.1767607393
 20
12.2517607393
 11
19.1767607393
 21
15.2482392607
  0
LINE
  5
310
100
AcDbEntity
  8
ASSI
100
AcDbLine
 62
7
  6
CONTINUOUS
 10
19.575
 20
12.2552361207
 11
19.575
 21
15.2447638793
  0
LINE
  5
311
100
AcDbEntity
  8
DRAFT
100
AcDbLine
 62
7
  6
CONTINUOUS
 10
19.575
 20
12.2552361207
 11
19.575
 21
15.2447638793
  0
LINE
  5
312
100
AcDbEntity
  8
DRAFT
100
AcDbLine
 62
7
  6
CONTINUOUS
 10
19.75
 20
18.7501745336
 11
19.75
 21
15.25
  0
LINE
  5
313
100
AcDbEntity
  8
DRAFT
100
AcDbLine
 62
7
  6
CONTINUOUS
 10
19.75
 20
12.25
 11
19.75
 21
8.7498254664
  0
LINE
  5
314
100
AcDbEntity
  8
DRAFT
100
AcDbLine
 62
7
  6
CONTINUOUS
 10
20.075
 20
18.7501745336
 11
20.075
 21
15.25
  0
LINE
  5
315
100
AcDbEntity
  8
DRAFT
100
AcDbLine
 62
7
  6
CONTINUOUS
 10
20.075
 20
12.25
 11
20.075
 21
8.7498254664
  0
LINE
  5
316
100
AcDbEntity
  8
ASSI
100
AcDbLine
 62
250
  6
CONTINUOUS
 10
20.1881278655
 20
4.9605125327
 11
20.1881278655
 21
11.9408338495
  0
LINE
  5
317
100
AcDbEntity
  8
DRAFT
100
AcDbLine
 62
250
  6
CONTINUOUS
 10
20.1881278655
 20
4.9605125327
 11
20.1881278655
 21
11.9408338495
  0
LINE
  5
318
100
AcDbEntity
  8
ASSI
100
AcDbLine
 62
250
  6
CONTINUOUS
 10
20.1881278655
 20
15.5591661505
 11
20.1881278655
 21
22.5394874673
  0
LINE
  5
319
100
AcDbEntity
  8
DRAFT
100
AcDbLine
 62
250
  6
CONTINUOUS
 10
20.1881278655
 20
15.5591661505
 11
20.1881278655
 21
22.5394874673
  0
LINE
  5
31A
100
AcDbEntity
  8
DRAFT
100
AcDbLine
 62
7
  6
CONTINUOUS
 10
-18.45
 20
18.7534212133
 11
-18.4525657091
 21
18.753416887
  0
LINE
  5
31B
100
AcDbEntity
  8
DRAFT
100
AcDbLine
 62
7
  6
CONTINUOUS
 10
13.4975619378
 20
17.8963808261
 11
13.2500000999
 21
17.8963808261
  0
LINE
  5
31C
100
AcDbEntity
  8
DRAFT
100
AcDbLine
 62
7
  6
CONTINUOUS
 10
-13.2500000999
 20
17.8963808261
 11
-13.497561913
 21
17.8963808261
  0
LINE
  5
31D
100
AcDbEntity
  8
DRAFT
100
AcDbLine
 62
7
  6
CONTINUOUS
 10
-18.4534158284
 20
18.7534158284
 11
-20.075
 21
18.7501745336
  0
LINE
  5
31E
100
AcDbEntity
  8
DRAFT
100
AcDbLine
 62
7
  6
CONTINUOUS
 10
18.4525657091
 20
18.753416887
 11
18.45
 21
18.7534212133
  0
LINE
  5
31F
100
AcDbEntity
  8
DRAFT
100
AcDbLine
 62
7
  6
CONTINUOUS
 10
20.075
 20
18.7501745336
 11
18.4534158284
 21
18.7534158284
  0
LINE
  5
320
100
AcDbEntity
  8
DRAFT
100
AcDbLine
 62
7
  6
CONTINUOUS
 10
15.8743065586
 20
10.00074426
 11
15.889887733
 21
9.987018343
  0
LINE
  5
321
100
AcDbEntity
  8
DRAFT
100
AcDbLine
 62
7
  6
CONTINUOUS
 10
15.435782799
 20
10.00074426
 11
15.4488970118
 21
9.9876300472
  0
LINE
  5
322
100
AcDbEntity
  8
DRAFT
100
AcDbLine
 62
7
  6
CONTINUOUS
 10
13.7472348238
 20
17.3488161473
 11
13.7444441428
 21
17.3548092419
  0
LINE
  5
323
100
AcDbEntity
  8
DRAFT
100
AcDbLine
 62
7
  6
CONTINUOUS
 10
13.7471929711
 20
17.3487965984
 11
13.7444442219
 21
17.354809787
  0
LINE
  5
324
100
AcDbEntity
  8
DRAFT
100
AcDbLine
 62
7
  6
CONTINUOUS
 10
15.4650092056
 20
12.3085928526
 11
15.4551058816
 21
12.3511871358
  0
LINE
  5
325
100
AcDbEntity
  8
DRAFT
100
AcDbLine
 62
7
  6
CONTINUOUS
 10
15.4650090322
 20
12.3085922343
 11
15.4553737255
 21
12.3512498158
  0
LINE
  5
326
100
AcDbEntity
  8
ASSI
100
AcDbLine
 62
7
  6
CONTINUOUS
 10
20.3827494632
 20
4.9613559136
 11
20.3827494632
 21
11.9429423467
  0
LINE
  5
327
100
AcDbEntity
  8
DRAFT
100
AcDbLine
 62
7
  6
CONTINUOUS
 10
20.3827494632
 20
4.9613559136
 11
20.3827494632
 21
11.9429423467
  0
LINE
  5
328
100
AcDbEntity
  8
ASSI
100
AcDbLine
 62
7
  6
CONTINUOUS
 10
20.3827494632
 20
15.5570576533
 11
20.3827494632
 21
22.5386440864
  0
LINE
  5
329
100
AcDbEntity
  8
DRAFT
100
AcDbLine
 62
7
  6
CONTINUOUS
 10
20.3827494632
 20
15.5570576533
 11
20.3827494632
 21
22.5386440864
  0
LINE
  5
32A
100
AcDbEntity
  8
ASSI
100
AcDbLine
 62
7
  6
CONTINUOUS
 10
20.3898071165
 20
11.95
 11
20.3898071165
 21
12.25
  0
LINE
  5
32B
100
AcDbEntity
  8
DRAFT
100
AcDbLine
 62
7
  6
CONTINUOUS
 10
20.3898071165
 20
11.95
 11
20.3898071165
 21
12.25
  0
LINE
  5
32C
100
AcDbEntity
  8
ASSI
100
AcDbLine
 62
7
  6
CONTINUOUS
 10
20.3898071165
 20
15.25
 11
20.3898071165
 21
15.55
  0
LINE
  5
32D
100
AcDbEntity
  8
DRAFT
100
AcDbLine
 62
7
  6
CONTINUOUS
 10
20.3898071165
 20
15.25
 11
20.3898071165
 21
15.55
  0
LINE
  5
32E
100
AcDbEntity
  8
ASSI
100
AcDbLine
 62
7
  6
CONTINUOUS
 10
20.3950432371
 20
22.5337266817
 11
20.3950432371
 21
15.2447638793
  0
LINE
  5
32F
100
AcDbEntity
  8
DRAFT
100
AcDbLine
 62
7
  6
CONTINUOUS
 10
20.3950432371
 20
22.5337266817
 11
20.3950432371
 21
15.2447638793
  0
LINE
  5
330
100
AcDbEntity
  8
ASSI
100
AcDbLine
 62
7
  6
CONTINUOUS
 10
20.3950432371
 20
12.2552361207
 11
20.3950432371
 21
4.9662733183
  0
LINE
  5
331
100
AcDbEntity
  8
DRAFT
100
AcDbLine
 62
7
  6
CONTINUOUS
 10
20.3950432371
 20
12.2552361207
 11
20.3950432371
 21
4.9662733183
  0
LINE
  5
332
100
AcDbEntity
  8
ASSI
100
AcDbLine
 62
7
  6
CONTINUOUS
 10
21.5107251197
 20
22.5337266817
 11
21.5107251197
 21
4.9662733183
  0
LINE
  5
333
100
AcDbEntity
  8
DRAFT
100
AcDbLine
 62
7
  6
CONTINUOUS
 10
21.5107251197
 20
22.5337266817
 11
21.5107251197
 21
4.9662733183
  0
LINE
  5
334
100
AcDbEntity
  8
0
100
AcDbLine
 62
250
  6
CONTINUOUS
 10
21.5276364025
 20
-27.75
 11
21.5276364025
 21
4.9641789147
  0
LINE
  5
335
100
AcDbEntity
  8
0
100
AcDbLine
 62
250
  6
CONTINUOUS
 10
21.5276364025
 20
22.5358210853
 11
21.5276364025
 21
27.75
  0
LINE
  5
336
100
AcDbEntity
  8
0
100
AcDbLine
 62
7
  6
CONTINUOUS
 10
21.55
 20
-27.75
 11
21.55
 21
4.9641789147
  0
LINE
  5
337
100
AcDbEntity
  8
0
100
AcDbLine
 62
7
  6
CONTINUOUS
 10
21.55
 20
22.5358210853
 11
21.55
 21
27.75
  0
LINE
  5
338
100
AcDbEntity
  8
0
100
AcDbLine
 62
250
  6
CONTINUOUS
 10
21.8
 20
-27.75
 11
21.8
 21
4.9641789147
  0
LINE
  5
339
100
AcDbEntity
  8
0
100
AcDbLine
 62
250
  6
CONTINUOUS
 10
21.8
 20
22.5358210853
 11
21.8
 21
27.75
  0
LINE
  5
33A
100
AcDbEntity
  8
ASSI
100
AcDbLine
 62
7
  6
CONTINUOUS
 10
21.8791552593
 20
16.5
 11
21.8791552593
 21
11.0
  0
LINE
  5
33B
100
AcDbEntity
  8
DRAFT
100
AcDbLine
 62
7
  6
CONTINUOUS
 10
21.8791552593
 20
16.5
 11
21.8791552593
 21
11.0
  0
LINE
  5
33C
100
AcDbEntity
  8
0
100
AcDbLine
 62
7
  6
CONTINUOUS
 10
22.05
 20
27.75
 11
22.05
 21
-27.75
  0
LINE
  5
33D
100
AcDbEntity
  8
0
100
AcDbLine
 62
250
  6
CONTINUOUS
 10
22.175
 20
27.75
 11
22.175
 21
-27.75
  0
LINE
  5
33E
100
AcDbEntity
  8
ASSI
100
AcDbLine
 62
7
  6
CONTINUOUS
 10
-22.05
 20
22.5267013495
 11
-21.5107251197
 21
22.5337266817
  0
LINE
  5
33F
100
AcDbEntity
  8
DRAFT
100
AcDbLine
 62
7
  6
CONTINUOUS
 10
-22.05
 20
22.5267013495
 11
-21.5107251197
 21
22.5337266817
  0
LINE
  5
340
100
AcDbEntity
  8
ASSI
100
AcDbLine
 62
7
  6
CONTINUOUS
 10
-22.05
 20
22.5341191575
 11
-21.9193575035
 21
22.5358210853
  0
LINE
  5
341
100
AcDbEntity
  8
DRAFT
100
AcDbLine
 62
7
  6
CONTINUOUS
 10
-22.05
 20
22.5341191575
 11
-21.9193575035
 21
22.5358210853
  0
LINE
  5
342
100
AcDbEntity
  8
DRAFT
100
AcDbLine
 62
7
  6
CONTINUOUS
 10
5.4818485021
 20
20.7068485021
 11
4.0
 21
20.7068485021
  0
LINE
  5
343
100
AcDbEntity
  8
DRAFT
100
AcDbLine
 62
7
  6
CONTINUOUS
 10
-4.0
 20
20.7068485021
 11
-5.4818485021
 21
20.7068485021
  0
LINE
  5
344
100
AcDbEntity
  8
DRAFT
100
AcDbLine
 62
7
  6
CONTINUOUS
 10
-5.5001745336
 20
20.7251745336
 11
5.5001745336
 21
20.7251745336
  0
LINE
  5
345
100
AcDbEntity
  8
DRAFT
100
AcDbLine
 62
7
  6
CONTINUOUS
 10
5.975
 20
21.25
 11
-5.975
 21
21.25
  0
LINE
  5
346
100
AcDbEntity
  8
0
100
AcDbLine
 62
7
  6
CONTINUOUS
 10
-10.5
 20
22.4
 11
10.5
 21
22.4
  0
LINE
  5
347
100
AcDbEntity
  8
ASSI
100
AcDbLine
 62
7
  6
CONTINUOUS
 10
-21.5107251197
 20
22.5337266817
 11
-20.3950432371
 21
22.5337266817
  0
LINE
  5
348
100
AcDbEntity
  8
DRAFT
100
AcDbLine
 62
7
  6
CONTINUOUS
 10
-21.5107251197
 20
22.5337266817
 11
-20.3950432371
 21
22.5337266817
  0
LINE
  5
349
100
AcDbEntity
  8
ASSI
100
AcDbLine
 62
7
  6
CONTINUOUS
 10
20.3950432371
 20
22.5337266817
 11
21.5107251197
 21
22.5337266817
  0
LINE
  5
34A
100
AcDbEntity
  8
DRAFT
100
AcDbLine
 62
7
  6
CONTINUOUS
 10
20.3950432371
 20
22.5337266817
 11
21.5107251197
 21
22.5337266817
  0
LINE
  5
34B
100
AcDbEntity
  8
ASSI
100
AcDbLine
 62
7
  6
CONTINUOUS
 10
-21.9193575035
 20
22.5358210853
 11
-21.1398356752
 21
22.5358210853
  0
LINE
  5
34C
100
AcDbEntity
  8
DRAFT
100
AcDbLine
 62
7
  6
CONTINUOUS
 10
-21.9193575035
 20
22.5358210853
 11
-21.1398356752
 21
22.5358210853
  0
LINE
  5
34D
100
AcDbEntity
  8
ASSI
100
AcDbLine
 62
7
  6
CONTINUOUS
 10
21.1398356752
 20
22.5358210853
 11
21.9193575035
 21
22.5358210853
  0
LINE
  5
34E
100
AcDbEntity
  8
DRAFT
100
AcDbLine
 62
7
  6
CONTINUOUS
 10
21.1398356752
 20
22.5358210853
 11
21.9193575035
 21
22.5358210853
  0
LINE
  5
34F
100
AcDbEntity
  8
ASSI
100
AcDbLine
 62
7
  6
CONTINUOUS
 10
22.05
 20
22.5267013495
 11
21.5107251197
 21
22.5337266817
  0
LINE
  5
350
100
AcDbEntity
  8
DRAFT
100
AcDbLine
 62
7
  6
CONTINUOUS
 10
22.05
 20
22.5267013495
 11
21.5107251197
 21
22.5337266817
  0
LINE
  5
351
100
AcDbEntity
  8
ASSI
100
AcDbLine
 62
7
  6
CONTINUOUS
 10
22.05
 20
22.5341191575
 11
21.9193575035
 21
22.5358210853
  0
LINE
  5
352
100
AcDbEntity
  8
DRAFT
100
AcDbLine
 62
7
  6
CONTINUOUS
 10
22.05
 20
22.5341191575
 11
21.9193575035
 21
22.5358210853
  0
LINE
  5
353
100
AcDbEntity
  8
DRAFT
100
AcDbLine
 62
7
  6
CONTINUOUS
 10
13.4975619378
 20
17.8963808261
 11
13.507648578
 21
17.8901136214
  0
LINE
  5
354
100
AcDbEntity
  8
DRAFT
100
AcDbLine
 62
7
  6
CONTINUOUS
 10
13.255970179
 20
17.890410747
 11
13.2500000999
 21
17.8963808261
  0
LINE
  5
355
100
AcDbEntity
  8
0
100
AcDbLine
 62
250
  6
CONTINUOUS
 10
24.075
 20
27.75
 11
24.075
 21
-27.75
  0
LINE
  5
356
100
AcDbEntity
  8
0
100
AcDbLine
 62
7
  6
CONTINUOUS
 10
24.2
 20
27.75
 11
24.2
 21
-27.75
  0
LINE
  5
357
100
AcDbEntity
  8
ASSI
100
AcDbLine
 62
7
  6
CONTINUOUS
 10
20.3950432371
 20
15.2447638793
 11
20.3898071165
 21
15.25
  0
LINE
  5
358
100
AcDbEntity
  8
DRAFT
100
AcDbLine
 62
7
  6
CONTINUOUS
 10
20.3950432371
 20
15.2447638793
 11
20.3898071165
 21
15.25
  0
LINE
  5
359
100
AcDbEntity
  8
ASSI
100
AcDbLine
 62
7
  6
CONTINUOUS
 10
20.3827494632
 20
15.5570576533
 11
20.3898071165
 21
15.55
  0
LINE
  5
35A
100
AcDbEntity
  8
DRAFT
100
AcDbLine
 62
7
  6
CONTINUOUS
 10
20.3827494632
 20
15.5570576533
 11
20.3898071165
 21
15.55
  0
LINE
  5
35B
100
AcDbEntity
  8
0
100
AcDbLine
 62
7
  6
CONTINUOUS
 10
18.75
 20
26.1499999999
 11
-18.75
 21
26.1499999999
  0
LINE
  5
35C
100
AcDbEntity
  8
0
100
AcDbLine
 62
7
  6
CONTINUOUS
 10
24.2
 20
27.75
 11
-24.2
 21
27.75
  0
LINE
  5
35D
100
AcDbEntity
  8
ASSI
100
AcDbLine
 62
7
  6
CONTINUOUS
 10
20.3827494632
 20
22.5386440864
 11
20.3950432371
 21
22.5337266817
  0
LINE
  5
35E
100
AcDbEntity
  8
DRAFT
100
AcDbLine
 62
7
  6
CONTINUOUS
 10
20.3827494632
 20
22.5386440864
 11
20.3950432371
 21
22.5337266817
  0
LINE
  5
35F
100
AcDbEntity
  8
ASSI
100
AcDbLine
 62
7
  6
CONTINUOUS
 10
21.1327209055
 20
22.5386669325
 11
21.1398356752
 21
22.5358210853
  0
LINE
  5
360
100
AcDbEntity
  8
DRAFT
100
AcDbLine
 62
7
  6
CONTINUOUS
 10
21.1327209055
 20
22.5386669325
 11
21.1398356752
 21
22.5358210853
  0
CIRCLE
  5
361
100
AcDbEntity
  8
ASSI
100
AcDbCircle
 62
7
  6
CONTINUOUS
 10
-15.65
 20
7.35
 40
0.2
  0
CIRCLE
  5
362
100
AcDbEntity
  8
ASSI
100
AcDbCircle
 62
7
  6
CONTINUOUS
 10
-15.05
 20
7.35
 40
0.2
  0
ARC
  5
363
100
AcDbEntity
  8
0
100
AcDbCircle
 62
7
  6
CONTINUOUS
 10
-16.25
 20
7.35
 40
0.2
100
AcDbArc
 50
357.2129466818
 51
18.4780278694
  0
CIRCLE
  5
364
100
AcDbEntity
  8
0
100
AcDbCircle
 62
7
  6
CONTINUOUS
 10
-15.65
 20
7.35
 40
0.2
  0
CIRCLE
  5
365
100
AcDbEntity
  8
0
100
AcDbCircle
 62
7
  6
CONTINUOUS
 10
-15.05
 20
7.35
 40
0.2
  0
ARC
  5
366
100
AcDbEntity
  8
0
100
AcDbCircle
 62
7
  6
CONTINUOUS
 10
-15.35
 20
6.75
 40
0.2
100
AcDbArc
 50
1.5075500445
 51
170.0383173092
  0
ARC
  5
367
100
AcDbEntity
  8
ASSI
100
AcDbCircle
 62
7
  6
CONTINUOUS
 10
-16.25
 20
7.35
 40
0.2
100
AcDbArc
 50
357.2129466818
 51
18.4780278694
  0
ARC
  5
368
100
AcDbEntity
  8
ASSI
100
AcDbCircle
 62
7
  6
CONTINUOUS
 10
-15.35
 20
6.75
 40
0.2
100
AcDbArc
 50
1.5075500445
 51
170.0383173092
  0
ARC
  5
369
100
AcDbEntity
  8
DRAFT
100
AcDbCircle
 62
7
  6
CONTINUOUS
 10
-15.3429416635
 20
7.4750120837
 40
0.7372369984
100
AcDbArc
 50
178.5189916327
 51
270.0787851168
  0
ARC
  5
36A
100
AcDbEntity
  8
DRAFT
100
AcDbCircle
 62
7
  6
CONTINUOUS
 10
-15.3421562692
 20
7.4750525733
 40
0.7213184632
100
AcDbArc
 50
178.5237937193
 51
185.9884357657
  0
ARC
  5
36B
100
AcDbEntity
  8
DRAFT
100
AcDbCircle
 62
7
  6
CONTINUOUS
 10
-15.3433813611
 20
7.4749859886
 40
0.7201018627
100
AcDbArc
 50
185.9881228598
 51
270.1156449744
  0
CIRCLE
  5
36C
100
AcDbEntity
  8
ASSI
100
AcDbCircle
 62
7
  6
CONTINUOUS
 10
-15.35
 20
8.0
 40
0.2
  0
ARC
  5
36D
100
AcDbEntity
  8
0
100
AcDbCircle
 62
7
  6
CONTINUOUS
 10
-15.95
 20
8.0
 40
0.2
100
AcDbArc
 50
239.3472294137
 51
115.2628230246
  0
CIRCLE
  5
36E
100
AcDbEntity
  8
0
100
AcDbCircle
 62
7
  6
CONTINUOUS
 10
-15.35
 20
8.0
 40
0.2
  0
ARC
  5
36F
100
AcDbEntity
  8
ASSI
100
AcDbCircle
 62
7
  6
CONTINUOUS
 10
-15.95
 20
8.0
 40
0.2
100
AcDbArc
 50
239.3472294137
 51
115.2628230246
  0
CIRCLE
  5
370
100
AcDbEntity
  8
ASSI
100
AcDbCircle
 62
7
  6
CONTINUOUS
 10
-14.45
 20
7.35
 40
0.2
  0
CIRCLE
  5
371
100
AcDbEntity
  8
0
100
AcDbCircle
 62
7
  6
CONTINUOUS
 10
-14.45
 20
7.35
 40
0.2
  0
ARC
  5
372
100
AcDbEntity
  8
0
100
AcDbCircle
 62
7
  6
CONTINUOUS
 10
-13.85
 20
7.35
 40
0.2
100
AcDbArc
 50
331.2192450822
 51
208.7803278122
  0
ARC
  5
373
100
AcDbEntity
  8
0
100
AcDbCircle
 62
7
  6
CONTINUOUS
 10
-14.75
 20
6.75
 40
0.2
100
AcDbArc
 50
1.8421292222
 51
178.3781098739
  0
ARC
  5
374
100
AcDbEntity
  8
0
100
AcDbCircle
 62
7
  6
CONTINUOUS
 10
-14.15
 20
6.75
 40
0.2
100
AcDbArc
 50
105.6176912238
 51
178.0469024102
  0
ARC
  5
375
100
AcDbEntity
  8
0
100
AcDbCircle
 62
7
  6
CONTINUOUS
 10
-13.55
 20
6.75
 40
0.2
100
AcDbArc
 50
2.4653359215
 51
118.7879011674
  0
ARC
  5
376
100
AcDbEntity
  8
ASSI
100
AcDbCircle
 62
7
  6
CONTINUOUS
 10
-13.85
 20
7.35
 40
0.2
100
AcDbArc
 50
331.2192450822
 51
208.7803278122
  0
ARC
  5
377
100
AcDbEntity
  8
ASSI
100
AcDbCircle
 62
7
  6
CONTINUOUS
 10
-14.75
 20
6.75
 40
0.2
100
AcDbArc
 50
1.8421292222
 51
178.3781098739
  0
ARC
  5
378
100
AcDbEntity
  8
ASSI
100
AcDbCircle
 62
7
  6
CONTINUOUS
 10
-14.15
 20
6.75
 40
0.2
100
AcDbArc
 50
105.6176912238
 51
178.0469024102
  0
ARC
  5
379
100
AcDbEntity
  8
ASSI
100
AcDbCircle
 62
7
  6
CONTINUOUS
 10
-13.55
 20
6.75
 40
0.2
100
AcDbArc
 50
2.4653359215
 51
118.7879011674
  0
CIRCLE
  5
37A
100
AcDbEntity
  8
ASSI
100
AcDbCircle
 62
7
  6
CONTINUOUS
 10
-14.75
 20
8.0
 40
0.2
  0
CIRCLE
  5
37B
100
AcDbEntity
  8
ASSI
100
AcDbCircle
 62
7
  6
CONTINUOUS
 10
-14.15
 20
8.0
 40
0.2
  0
CIRCLE
  5
37C
100
AcDbEntity
  8
ASSI
100
AcDbCircle
 62
7
  6
CONTINUOUS
 10
-13.55
 20
8.0
 40
0.2
  0
CIRCLE
  5
37D
100
AcDbEntity
  8
0
100
AcDbCircle
 62
7
  6
CONTINUOUS
 10
-14.75
 20
8.0
 40
0.2
  0
CIRCLE
  5
37E
100
AcDbEntity
  8
0
100
AcDbCircle
 62
7
  6
CONTINUOUS
 10
-14.15
 20
8.0
 40
0.2
  0
CIRCLE
  5
37F
100
AcDbEntity
  8
0
100
AcDbCircle
 62
7
  6
CONTINUOUS
 10
-13.55
 20
8.0
 40
0.2
  0
CIRCLE
  5
380
100
AcDbEntity
  8
ASSI
100
AcDbCircle
 62
7
  6
CONTINUOUS
 10
-15.65
 20
8.6
 40
0.2
  0
CIRCLE
  5
381
100
AcDbEntity
  8
ASSI
100
AcDbCircle
 62
7
  6
CONTINUOUS
 10
-15.05
 20
8.6
 40
0.2
  0
CIRCLE
  5
382
100
AcDbEntity
  8
0
100
AcDbCircle
 62
7
  6
CONTINUOUS
 10
-15.65
 20
8.6
 40
0.2
  0
CIRCLE
  5
383
100
AcDbEntity
  8
0
100
AcDbCircle
 62
7
  6
CONTINUOUS
 10
-15.05
 20
8.6
 40
0.2
  0
CIRCLE
  5
384
100
AcDbEntity
  8
ASSI
100
AcDbCircle
 62
7
  6
CONTINUOUS
 10
-15.05
 20
9.85
 40
0.2
  0
CIRCLE
  5
385
100
AcDbEntity
  8
ASSI
100
AcDbCircle
 62
7
  6
CONTINUOUS
 10
-15.35
 20
9.25
 40
0.2
  0
ARC
  5
386
100
AcDbEntity
  8
0
100
AcDbCircle
 62
7
  6
CONTINUOUS
 10
-15.65
 20
9.85
 40
0.2
100
AcDbArc
 50
48.9259847899
 51
131.075575278
  0
CIRCLE
  5
387
100
AcDbEntity
  8
0
100
AcDbCircle
 62
7
  6
CONTINUOUS
 10
-15.05
 20
9.85
 40
0.2
  0
ARC
  5
388
100
AcDbEntity
  8
0
100
AcDbCircle
 62
7
  6
CONTINUOUS
 10
-15.95
 20
9.25
 40
0.2
100
AcDbArc
 50
263.1940650717
 51
85.6753091939
  0
CIRCLE
  5
389
100
AcDbEntity
  8
0
100
AcDbCircle
 62
7
  6
CONTINUOUS
 10
-15.35
 20
9.25
 40
0.2
  0
ARC
  5
38A
100
AcDbEntity
  8
ASSI
100
AcDbCircle
 62
7
  6
CONTINUOUS
 10
-15.65
 20
9.85
 40
0.2
100
AcDbArc
 50
48.9259847899
 51
131.075575278
  0
ARC
  5
38B
100
AcDbEntity
  8
ASSI
100
AcDbCircle
 62
7
  6
CONTINUOUS
 10
-15.95
 20
9.25
 40
0.2
100
AcDbArc
 50
263.1940650717
 51
85.6753091939
  0
CIRCLE
  5
38C
100
AcDbEntity
  8
ASSI
100
AcDbCircle
 62
7
  6
CONTINUOUS
 10
-14.45
 20
8.6
 40
0.2
  0
CIRCLE
  5
38D
100
AcDbEntity
  8
ASSI
100
AcDbCircle
 62
7
  6
CONTINUOUS
 10
-13.85
 20
8.6
 40
0.2
  0
CIRCLE
  5
38E
100
AcDbEntity
  8
0
100
AcDbCircle
 62
7
  6
CONTINUOUS
 10
-14.45
 20
8.6
 40
0.2
  0
CIRCLE
  5
38F
100
AcDbEntity
  8
0
100
AcDbCircle
 62
7
  6
CONTINUOUS
 10
-13.85
 20
8.6
 40
0.2
  0
CIRCLE
  5
390
100
AcDbEntity
  8
ASSI
100
AcDbCircle
 62
7
  6
CONTINUOUS
 10
-14.45
 20
9.85
 40
0.2
  0
CIRCLE
  5
391
100
AcDbEntity
  8
ASSI
100
AcDbCircle
 62
7
  6
CONTINUOUS
 10
-13.85
 20
9.85
 40
0.2
  0
CIRCLE
  5
392
100
AcDbEntity
  8
ASSI
100
AcDbCircle
 62
7
  6
CONTINUOUS
 10
-14.75
 20
9.25
 40
0.2
  0
CIRCLE
  5
393
100
AcDbEntity
  8
ASSI
100
AcDbCircle
 62
7
  6
CONTINUOUS
 10
-14.15
 20
9.25
 40
0.2
  0
CIRCLE
  5
394
100
AcDbEntity
  8
ASSI
100
AcDbCircle
 62
7
  6
CONTINUOUS
 10
-13.55
 20
9.25
 40
0.2
  0
CIRCLE
  5
395
100
AcDbEntity
  8
0
100
AcDbCircle
 62
7
  6
CONTINUOUS
 10
-14.45
 20
9.85
 40
0.2
  0
CIRCLE
  5
396
100
AcDbEntity
  8
0
100
AcDbCircle
 62
7
  6
CONTINUOUS
 10
-13.85
 20
9.85
 40
0.2
  0
CIRCLE
  5
397
100
AcDbEntity
  8
0
100
AcDbCircle
 62
7
  6
CONTINUOUS
 10
-14.75
 20
9.25
 40
0.2
  0
CIRCLE
  5
398
100
AcDbEntity
  8
0
100
AcDbCircle
 62
7
  6
CONTINUOUS
 10
-14.15
 20
9.25
 40
0.2
  0
CIRCLE
  5
399
100
AcDbEntity
  8
0
100
AcDbCircle
 62
7
  6
CONTINUOUS
 10
-13.55
 20
9.25
 40
0.2
  0
CIRCLE
  5
39A
100
AcDbEntity
  8
ASSI
100
AcDbCircle
 62
7
  6
CONTINUOUS
 10
-13.25
 20
7.35
 40
0.2
  0
CIRCLE
  5
39B
100
AcDbEntity
  8
ASSI
100
AcDbCircle
 62
7
  6
CONTINUOUS
 10
-12.65
 20
7.35
 40
0.2
  0
CIRCLE
  5
39C
100
AcDbEntity
  8
ASSI
100
AcDbCircle
 62
7
  6
CONTINUOUS
 10
-12.05
 20
7.35
 40
0.2
  0
CIRCLE
  5
39D
100
AcDbEntity
  8
0
100
AcDbCircle
 62
7
  6
CONTINUOUS
 10
-13.25
 20
7.35
 40
0.2
  0
CIRCLE
  5
39E
100
AcDbEntity
  8
0
100
AcDbCircle
 62
7
  6
CONTINUOUS
 10
-12.65
 20
7.35
 40
0.2
  0
CIRCLE
  5
39F
100
AcDbEntity
  8
0
100
AcDbCircle
 62
7
  6
CONTINUOUS
 10
-12.05
 20
7.35
 40
0.2
  0
ARC
  5
3A0
100
AcDbEntity
  8
0
100
AcDbCircle
 62
7
  6
CONTINUOUS
 10
-12.95
 20
6.75
 40
0.2
100
AcDbArc
 50
2.7579019747
 51
177.434061119
  0
ARC
  5
3A1
100
AcDbEntity
  8
0
100
AcDbCircle
 62
7
  6
CONTINUOUS
 10
-12.35
 20
6.75
 40
0.2
100
AcDbArc
 50
3.0325757652
 51
177.1455532301
  0
ARC
  5
3A2
100
AcDbEntity
  8
ASSI
100
AcDbCircle
 62
7
  6
CONTINUOUS
 10
-12.95
 20
6.75
 40
0.2
100
AcDbArc
 50
2.7579019747
 51
177.434061119
  0
ARC
  5
3A3
100
AcDbEntity
  8
ASSI
100
AcDbCircle
 62
7
  6
CONTINUOUS
 10
-12.35
 20
6.75
 40
0.2
100
AcDbArc
 50
3.0325757652
 51
177.1455532301
  0
CIRCLE
  5
3A4
100
AcDbEntity
  8
ASSI
100
AcDbCircle
 62
7
  6
CONTINUOUS
 10
-12.95
 20
8.0
 40
0.2
  0
CIRCLE
  5
3A5
100
AcDbEntity
  8
ASSI
100
AcDbCircle
 62
7
  6
CONTINUOUS
 10
-12.35
 20
8.0
 40
0.2
  0
CIRCLE
  5
3A6
100
AcDbEntity
  8
0
100
AcDbCircle
 62
7
  6
CONTINUOUS
 10
-12.95
 20
8.0
 40
0.2
  0
CIRCLE
  5
3A7
100
AcDbEntity
  8
0
100
AcDbCircle
 62
7
  6
CONTINUOUS
 10
-12.35
 20
8.0
 40
0.2
  0
CIRCLE
  5
3A8
100
AcDbEntity
  8
ASSI
100
AcDbCircle
 62
7
  6
CONTINUOUS
 10
-11.45
 20
7.35
 40
0.2
  0
CIRCLE
  5
3A9
100
AcDbEntity
  8
ASSI
100
AcDbCircle
 62
7
  6
CONTINUOUS
 10
-10.85
 20
7.35
 40
0.2
  0
CIRCLE
  5
3AA
100
AcDbEntity
  8
ASSI
100
AcDbCircle
 62
7
  6
CONTINUOUS
 10
-10.25
 20
7.35
 40
0.2
  0
CIRCLE
  5
3AB
100
AcDbEntity
  8
0
100
AcDbCircle
 62
7
  6
CONTINUOUS
 10
-11.45
 20
7.35
 40
0.2
  0
CIRCLE
  5
3AC
100
AcDbEntity
  8
0
100
AcDbCircle
 62
7
  6
CONTINUOUS
 10
-10.85
 20
7.35
 40
0.2
  0
CIRCLE
  5
3AD
100
AcDbEntity
  8
0
100
AcDbCircle
 62
7
  6
CONTINUOUS
 10
-10.25
 20
7.35
 40
0.2
  0
ARC
  5
3AE
100
AcDbEntity
  8
0
100
AcDbCircle
 62
7
  6
CONTINUOUS
 10
-11.75
 20
6.75
 40
0.2
100
AcDbArc
 50
3.2967589818
 51
176.8739789528
  0
ARC
  5
3AF
100
AcDbEntity
  8
0
100
AcDbCircle
 62
7
  6
CONTINUOUS
 10
-11.15
 20
6.75
 40
0.2
100
AcDbArc
 50
3.5476675466
 51
176.6169100135
  0
ARC
  5
3B0
100
AcDbEntity
  8
0
100
AcDbCircle
 62
7
  6
CONTINUOUS
 10
-10.55
 20
6.75
 40
0.2
100
AcDbArc
 50
3.7807480469
 51
176.3702548898
  0
ARC
  5
3B1
100
AcDbEntity
  8
ASSI
100
AcDbCircle
 62
7
  6
CONTINUOUS
 10
-11.75
 20
6.75
 40
0.2
100
AcDbArc
 50
3.2967589818
 51
176.8739789528
  0
ARC
  5
3B2
100
AcDbEntity
  8
ASSI
100
AcDbCircle
 62
7
  6
CONTINUOUS
 10
-11.15
 20
6.75
 40
0.2
100
AcDbArc
 50
3.5476675466
 51
176.6169100135
  0
ARC
  5
3B3
100
AcDbEntity
  8
ASSI
100
AcDbCircle
 62
7
  6
CONTINUOUS
 10
-10.55
 20
6.75
 40
0.2
100
AcDbArc
 50
3.7807480469
 51
176.3702548898
  0
CIRCLE
  5
3B4
100
AcDbEntity
  8
ASSI
100
AcDbCircle
 62
7
  6
CONTINUOUS
 10
-11.75
 20
8.0
 40
0.2
  0
CIRCLE
  5
3B5
100
AcDbEntity
  8
ASSI
100
AcDbCircle
 62
7
  6
CONTINUOUS
 10
-11.15
 20
8.0
 40
0.2
  0
CIRCLE
  5
3B6
100
AcDbEntity
  8
ASSI
100
AcDbCircle
 62
7
  6
CONTINUOUS
 10
-10.55
 20
8.0
 40
0.2
  0
CIRCLE
  5
3B7
100
AcDbEntity
  8
0
100
AcDbCircle
 62
7
  6
CONTINUOUS
 10
-11.75
 20
8.0
 40
0.2
  0
CIRCLE
  5
3B8
100
AcDbEntity
  8
0
100
AcDbCircle
 62
7
  6
CONTINUOUS
 10
-11.15
 20
8.0
 40
0.2
  0
CIRCLE
  5
3B9
100
AcDbEntity
  8
0
100
AcDbCircle
 62
7
  6
CONTINUOUS
 10
-10.55
 20
8.0
 40
0.2
  0
CIRCLE
  5
3BA
100
AcDbEntity
  8
ASSI
100
AcDbCircle
 62
7
  6
CONTINUOUS
 10
-13.25
 20
8.6
 40
0.2
  0
CIRCLE
  5
3BB
100
AcDbEntity
  8
ASSI
100
AcDbCircle
 62
7
  6
CONTINUOUS
 10
-12.65
 20
8.6
 40
0.2
  0
CIRCLE
  5
3BC
100
AcDbEntity
  8
ASSI
100
AcDbCircle
 62
7
  6
CONTINUOUS
 10
-12.05
 20
8.6
 40
0.2
  0
CIRCLE
  5
3BD
100
AcDbEntity
  8
0
100
AcDbCircle
 62
7
  6
CONTINUOUS
 10
-13.25
 20
8.6
 40
0.2
  0
CIRCLE
  5
3BE
100
AcDbEntity
  8
0
100
AcDbCircle
 62
7
  6
CONTINUOUS
 10
-12.65
 20
8.6
 40
0.2
  0
CIRCLE
  5
3BF
100
AcDbEntity
  8
0
100
AcDbCircle
 62
7
  6
CONTINUOUS
 10
-12.05
 20
8.6
 40
0.2
  0
CIRCLE
  5
3C0
100
AcDbEntity
  8
ASSI
100
AcDbCircle
 62
7
  6
CONTINUOUS
 10
-13.25
 20
9.85
 40
0.2
  0
CIRCLE
  5
3C1
100
AcDbEntity
  8
ASSI
100
AcDbCircle
 62
7
  6
CONTINUOUS
 10
-12.65
 20
9.85
 40
0.2
  0
CIRCLE
  5
3C2
100
AcDbEntity
  8
ASSI
100
AcDbCircle
 62
7
  6
CONTINUOUS
 10
-12.05
 20
9.85
 40
0.2
  0
CIRCLE
  5
3C3
100
AcDbEntity
  8
ASSI
100
AcDbCircle
 62
7
  6
CONTINUOUS
 10
-12.95
 20
9.25
 40
0.2
  0
CIRCLE
  5
3C4
100
AcDbEntity
  8
ASSI
100
AcDbCircle
 62
7
  6
CONTINUOUS
 10
-12.35
 20
9.25
 40
0.2
  0
CIRCLE
  5
3C5
100
AcDbEntity
  8
0
100
AcDbCircle
 62
7
  6
CONTINUOUS
 10
-13.25
 20
9.85
 40
0.2
  0
CIRCLE
  5
3C6
100
AcDbEntity
  8
0
100
AcDbCircle
 62
7
  6
CONTINUOUS
 10
-12.65
 20
9.85
 40
0.2
  0
CIRCLE
  5
3C7
100
AcDbEntity
  8
0
100
AcDbCircle
 62
7
  6
CONTINUOUS
 10
-12.05
 20
9.85
 40
0.2
  0
CIRCLE
  5
3C8
100
AcDbEntity
  8
0
100
AcDbCircle
 62
7
  6
CONTINUOUS
 10
-12.95
 20
9.25
 40
0.2
  0
CIRCLE
  5
3C9
100
AcDbEntity
  8
0
100
AcDbCircle
 62
7
  6
CONTINUOUS
 10
-12.35
 20
9.25
 40
0.2
  0
CIRCLE
  5
3CA
100
AcDbEntity
  8
ASSI
100
AcDbCircle
 62
7
  6
CONTINUOUS
 10
-11.45
 20
8.6
 40
0.2
  0
CIRCLE
  5
3CB
100
AcDbEntity
  8
ASSI
100
AcDbCircle
 62
7
  6
CONTINUOUS
 10
-10.85
 20
8.6
 40
0.2
  0
CIRCLE
  5
3CC
100
AcDbEntity
  8
ASSI
100
AcDbCircle
 62
7
  6
CONTINUOUS
 10
-10.25
 20
8.6
 40
0.2
  0
CIRCLE
  5
3CD
100
AcDbEntity
  8
0
100
AcDbCircle
 62
7
  6
CONTINUOUS
 10
-11.45
 20
8.6
 40
0.2
  0
CIRCLE
  5
3CE
100
AcDbEntity
  8
0
100
AcDbCircle
 62
7
  6
CONTINUOUS
 10
-10.85
 20
8.6
 40
0.2
  0
CIRCLE
  5
3CF
100
AcDbEntity
  8
0
100
AcDbCircle
 62
7
  6
CONTINUOUS
 10
-10.25
 20
8.6
 40
0.2
  0
CIRCLE
  5
3D0
100
AcDbEntity
  8
ASSI
100
AcDbCircle
 62
7
  6
CONTINUOUS
 10
-11.45
 20
9.85
 40
0.2
  0
CIRCLE
  5
3D1
100
AcDbEntity
  8
ASSI
100
AcDbCircle
 62
7
  6
CONTINUOUS
 10
-10.85
 20
9.85
 40
0.2
  0
CIRCLE
  5
3D2
100
AcDbEntity
  8
ASSI
100
AcDbCircle
 62
7
  6
CONTINUOUS
 10
-10.25
 20
9.85
 40
0.2
  0
CIRCLE
  5
3D3
100
AcDbEntity
  8
ASSI
100
AcDbCircle
 62
7
  6
CONTINUOUS
 10
-11.75
 20
9.25
 40
0.2
  0
CIRCLE
  5
3D4
100
AcDbEntity
  8
ASSI
100
AcDbCircle
 62
7
  6
CONTINUOUS
 10
-11.15
 20
9.25
 40
0.2
  0
CIRCLE
  5
3D5
100
AcDbEntity
  8
ASSI
100
AcDbCircle
 62
7
  6
CONTINUOUS
 10
-10.55
 20
9.25
 40
0.2
  0
CIRCLE
  5
3D6
100
AcDbEntity
  8
0
100
AcDbCircle
 62
7
  6
CONTINUOUS
 10
-11.45
 20
9.85
 40
0.2
  0
CIRCLE
  5
3D7
100
AcDbEntity
  8
0
100
AcDbCircle
 62
7
  6
CONTINUOUS
 10
-10.85
 20
9.85
 40
0.2
  0
CIRCLE
  5
3D8
100
AcDbEntity
  8
0
100
AcDbCircle
 62
7
  6
CONTINUOUS
 10
-10.25
 20
9.85
 40
0.2
  0
CIRCLE
  5
3D9
100
AcDbEntity
  8
0
100
AcDbCircle
 62
7
  6
CONTINUOUS
 10
-11.75
 20
9.25
 40
0.2
  0
CIRCLE
  5
3DA
100
AcDbEntity
  8
0
100
AcDbCircle
 62
7
  6
CONTINUOUS
 10
-11.15
 20
9.25
 40
0.2
  0
CIRCLE
  5
3DB
100
AcDbEntity
  8
0
100
AcDbCircle
 62
7
  6
CONTINUOUS
 10
-10.55
 20
9.25
 40
0.2
  0
CIRCLE
  5
3DC
100
AcDbEntity
  8
ASSI
100
AcDbCircle
 62
7
  6
CONTINUOUS
 10
-15.05
 20
11.1
 40
0.2
  0
CIRCLE
  5
3DD
100
AcDbEntity
  8
ASSI
100
AcDbCircle
 62
7
  6
CONTINUOUS
 10
-15.35
 20
10.5
 40
0.2
  0
CIRCLE
  5
3DE
100
AcDbEntity
  8
ASSI
100
AcDbCircle
 62
7
  6
CONTINUOUS
 10
-14.75
 20
10.5
 40
0.2
  0
ARC
  5
3DF
100
AcDbEntity
  8
0
100
AcDbCircle
 62
7
  6
CONTINUOUS
 10
-15.65
 20
11.1
 40
0.2
100
AcDbArc
 50
244.5872454919
 51
95.6768863123
  0
CIRCLE
  5
3E0
100
AcDbEntity
  8
0
100
AcDbCircle
 62
7
  6
CONTINUOUS
 10
-15.05
 20
11.1
 40
0.2
  0
ARC
  5
3E1
100
AcDbEntity
  8
0
100
AcDbCircle
 62
7
  6
CONTINUOUS
 10
-15.95
 20
10.5
 40
0.2
100
AcDbArc
 50
309.0981947607
 51
34.1395743465
  0
CIRCLE
  5
3E2
100
AcDbEntity
  8
0
100
AcDbCircle
 62
7
  6
CONTINUOUS
 10
-15.35
 20
10.5
 40
0.2
  0
CIRCLE
  5
3E3
100
AcDbEntity
  8
0
100
AcDbCircle
 62
7
  6
CONTINUOUS
 10
-14.75
 20
10.5
 40
0.2
  0
ARC
  5
3E4
100
AcDbEntity
  8
ASSI
100
AcDbCircle
 62
7
  6
CONTINUOUS
 10
-15.65
 20
11.1
 40
0.2
100
AcDbArc
 50
244.5872454919
 51
95.6768863123
  0
ARC
  5
3E5
100
AcDbEntity
  8
ASSI
100
AcDbCircle
 62
7
  6
CONTINUOUS
 10
-15.95
 20
10.5
 40
0.2
100
AcDbArc
 50
309.0981947607
 51
34.1395743465
  0
CIRCLE
  5
3E6
100
AcDbEntity
  8
ASSI
100
AcDbCircle
 62
7
  6
CONTINUOUS
 10
-15.35
 20
11.75
 40
0.2
  0
CIRCLE
  5
3E7
100
AcDbEntity
  8
ASSI
100
AcDbCircle
 62
7
  6
CONTINUOUS
 10
-14.75
 20
11.75
 40
0.2
  0
CIRCLE
  5
3E8
100
AcDbEntity
  8
0
100
AcDbCircle
 62
7
  6
CONTINUOUS
 10
-15.35
 20
11.75
 40
0.2
  0
CIRCLE
  5
3E9
100
AcDbEntity
  8
0
100
AcDbCircle
 62
7
  6
CONTINUOUS
 10
-14.75
 20
11.75
 40
0.2
  0
CIRCLE
  5
3EA
100
AcDbEntity
  8
ASSI
100
AcDbCircle
 62
7
  6
CONTINUOUS
 10
-14.45
 20
11.1
 40
0.2
  0
CIRCLE
  5
3EB
100
AcDbEntity
  8
ASSI
100
AcDbCircle
 62
7
  6
CONTINUOUS
 10
-13.85
 20
11.1
 40
0.2
  0
CIRCLE
  5
3EC
100
AcDbEntity
  8
ASSI
100
AcDbCircle
 62
7
  6
CONTINUOUS
 10
-13.25
 20
11.1
 40
0.2
  0
CIRCLE
  5
3ED
100
AcDbEntity
  8
ASSI
100
AcDbCircle
 62
7
  6
CONTINUOUS
 10
-14.15
 20
10.5
 40
0.2
  0
CIRCLE
  5
3EE
100
AcDbEntity
  8
ASSI
100
AcDbCircle
 62
7
  6
CONTINUOUS
 10
-13.55
 20
10.5
 40
0.2
  0
CIRCLE
  5
3EF
100
AcDbEntity
  8
0
100
AcDbCircle
 62
7
  6
CONTINUOUS
 10
-14.45
 20
11.1
 40
0.2
  0
CIRCLE
  5
3F0
100
AcDbEntity
  8
0
100
AcDbCircle
 62
7
  6
CONTINUOUS
 10
-13.85
 20
11.1
 40
0.2
  0
CIRCLE
  5
3F1
100
AcDbEntity
  8
0
100
AcDbCircle
 62
7
  6
CONTINUOUS
 10
-13.25
 20
11.1
 40
0.2
  0
CIRCLE
  5
3F2
100
AcDbEntity
  8
0
100
AcDbCircle
 62
7
  6
CONTINUOUS
 10
-14.15
 20
10.5
 40
0.2
  0
CIRCLE
  5
3F3
100
AcDbEntity
  8
0
100
AcDbCircle
 62
7
  6
CONTINUOUS
 10
-13.55
 20
10.5
 40
0.2
  0
CIRCLE
  5
3F4
100
AcDbEntity
  8
ASSI
100
AcDbCircle
 62
7
  6
CONTINUOUS
 10
-14.15
 20
11.75
 40
0.2
  0
CIRCLE
  5
3F5
100
AcDbEntity
  8
ASSI
100
AcDbCircle
 62
7
  6
CONTINUOUS
 10
-13.55
 20
11.75
 40
0.2
  0
CIRCLE
  5
3F6
100
AcDbEntity
  8
0
100
AcDbCircle
 62
7
  6
CONTINUOUS
 10
-14.15
 20
11.75
 40
0.2
  0
CIRCLE
  5
3F7
100
AcDbEntity
  8
0
100
AcDbCircle
 62
7
  6
CONTINUOUS
 10
-13.55
 20
11.75
 40
0.2
  0
CIRCLE
  5
3F8
100
AcDbEntity
  8
ASSI
100
AcDbCircle
 62
7
  6
CONTINUOUS
 10
-15.05
 20
12.35
 40
0.2
  0
ARC
  5
3F9
100
AcDbEntity
  8
0
100
AcDbCircle
 62
7
  6
CONTINUOUS
 10
-15.65
 20
12.35
 40
0.2
100
AcDbArc
 50
328.9563279854
 51
5.3023864077
  0
CIRCLE
  5
3FA
100
AcDbEntity
  8
0
100
AcDbCircle
 62
7
  6
CONTINUOUS
 10
-15.05
 20
12.35
 40
0.2
  0
ARC
  5
3FB
100
AcDbEntity
  8
ASSI
100
AcDbCircle
 62
7
  6
CONTINUOUS
 10
-15.65
 20
12.35
 40
0.2
100
AcDbArc
 50
328.9563279854
 51
5.3023864077
  0
CIRCLE
  5
3FC
100
AcDbEntity
  8
ASSI
100
AcDbCircle
 62
7
  6
CONTINUOUS
 10
-14.75
 20
13.0
 40
0.2
  0
ARC
  5
3FD
100
AcDbEntity
  8
0
100
AcDbCircle
 62
7
  6
CONTINUOUS
 10
-15.05
 20
13.6
 40
0.2
100
AcDbArc
 50
229.5552986541
 51
98.8373479607
  0
ARC
  5
3FE
100
AcDbEntity
  8
0
100
AcDbCircle
 62
7
  6
CONTINUOUS
 10
-15.35
 20
13.0
 40
0.2
100
AcDbArc
 50
270.4233502162
 51
61.0227641166
  0
CIRCLE
  5
3FF
100
AcDbEntity
  8
0
100
AcDbCircle
 62
7
  6
CONTINUOUS
 10
-14.75
 20
13.0
 40
0.2
  0
ARC
  5
400
100
AcDbEntity
  8
ASSI
100
AcDbCircle
 62
7
  6
CONTINUOUS
 10
-15.05
 20
13.6
 40
0.2
100
AcDbArc
 50
229.5552986541
 51
98.8373479607
  0
ARC
  5
401
100
AcDbEntity
  8
ASSI
100
AcDbCircle
 62
7
  6
CONTINUOUS
 10
-15.35
 20
13.0
 40
0.2
100
AcDbArc
 50
270.4233502162
 51
61.0227641166
  0
CIRCLE
  5
402
100
AcDbEntity
  8
ASSI
100
AcDbCircle
 62
7
  6
CONTINUOUS
 10
-14.45
 20
12.35
 40
0.2
  0
CIRCLE
  5
403
100
AcDbEntity
  8
ASSI
100
AcDbCircle
 62
7
  6
CONTINUOUS
 10
-13.85
 20
12.35
 40
0.2
  0
CIRCLE
  5
404
100
AcDbEntity
  8
ASSI
100
AcDbCircle
 62
7
  6
CONTINUOUS
 10
-13.25
 20
12.35
 40
0.2
  0
CIRCLE
  5
405
100
AcDbEntity
  8
0
100
AcDbCircle
 62
7
  6
CONTINUOUS
 10
-14.45
 20
12.35
 40
0.2
  0
CIRCLE
  5
406
100
AcDbEntity
  8
0
100
AcDbCircle
 62
7
  6
CONTINUOUS
 10
-13.85
 20
12.35
 40
0.2
  0
CIRCLE
  5
407
100
AcDbEntity
  8
0
100
AcDbCircle
 62
7
  6
CONTINUOUS
 10
-13.25
 20
12.35
 40
0.2
  0
CIRCLE
  5
408
100
AcDbEntity
  8
ASSI
100
AcDbCircle
 62
7
  6
CONTINUOUS
 10
-14.45
 20
13.6
 40
0.2
  0
CIRCLE
  5
409
100
AcDbEntity
  8
ASSI
100
AcDbCircle
 62
7
  6
CONTINUOUS
 10
-13.85
 20
13.6
 40
0.2
  0
CIRCLE
  5
40A
100
AcDbEntity
  8
ASSI
100
AcDbCircle
 62
7
  6
CONTINUOUS
 10
-13.25
 20
13.6
 40
0.2
  0
CIRCLE
  5
40B
100
AcDbEntity
  8
ASSI
100
AcDbCircle
 62
7
  6
CONTINUOUS
 10
-14.15
 20
13.0
 40
0.2
  0
CIRCLE
  5
40C
100
AcDbEntity
  8
ASSI
100
AcDbCircle
 62
7
  6
CONTINUOUS
 10
-13.55
 20
13.0
 40
0.2
  0
CIRCLE
  5
40D
100
AcDbEntity
  8
0
100
AcDbCircle
 62
7
  6
CONTINUOUS
 10
-14.45
 20
13.6
 40
0.2
  0
CIRCLE
  5
40E
100
AcDbEntity
  8
0
100
AcDbCircle
 62
7
  6
CONTINUOUS
 10
-13.85
 20
13.6
 40
0.2
  0
CIRCLE
  5
40F
100
AcDbEntity
  8
0
100
AcDbCircle
 62
7
  6
CONTINUOUS
 10
-13.25
 20
13.6
 40
0.2
  0
CIRCLE
  5
410
100
AcDbEntity
  8
0
100
AcDbCircle
 62
7
  6
CONTINUOUS
 10
-14.15
 20
13.0
 40
0.2
  0
CIRCLE
  5
411
100
AcDbEntity
  8
0
100
AcDbCircle
 62
7
  6
CONTINUOUS
 10
-13.55
 20
13.0
 40
0.2
  0
CIRCLE
  5
412
100
AcDbEntity
  8
ASSI
100
AcDbCircle
 62
7
  6
CONTINUOUS
 10
-12.65
 20
11.1
 40
0.2
  0
CIRCLE
  5
413
100
AcDbEntity
  8
ASSI
100
AcDbCircle
 62
7
  6
CONTINUOUS
 10
-12.05
 20
11.1
 40
0.2
  0
CIRCLE
  5
414
100
AcDbEntity
  8
ASSI
100
AcDbCircle
 62
7
  6
CONTINUOUS
 10
-12.95
 20
10.5
 40
0.2
  0
CIRCLE
  5
415
100
AcDbEntity
  8
ASSI
100
AcDbCircle
 62
7
  6
CONTINUOUS
 10
-12.35
 20
10.5
 40
0.2
  0
CIRCLE
  5
416
100
AcDbEntity
  8
ASSI
100
AcDbCircle
 62
7
  6
CONTINUOUS
 10
-11.75
 20
10.5
 40
0.2
  0
CIRCLE
  5
417
100
AcDbEntity
  8
0
100
AcDbCircle
 62
7
  6
CONTINUOUS
 10
-12.65
 20
11.1
 40
0.2
  0
CIRCLE
  5
418
100
AcDbEntity
  8
0
100
AcDbCircle
 62
7
  6
CONTINUOUS
 10
-12.05
 20
11.1
 40
0.2
  0
CIRCLE
  5
419
100
AcDbEntity
  8
0
100
AcDbCircle
 62
7
  6
CONTINUOUS
 10
-12.95
 20
10.5
 40
0.2
  0
CIRCLE
  5
41A
100
AcDbEntity
  8
0
100
AcDbCircle
 62
7
  6
CONTINUOUS
 10
-12.35
 20
10.5
 40
0.2
  0
CIRCLE
  5
41B
100
AcDbEntity
  8
0
100
AcDbCircle
 62
7
  6
CONTINUOUS
 10
-11.75
 20
10.5
 40
0.2
  0
CIRCLE
  5
41C
100
AcDbEntity
  8
ASSI
100
AcDbCircle
 62
7
  6
CONTINUOUS
 10
-12.95
 20
11.75
 40
0.2
  0
CIRCLE
  5
41D
100
AcDbEntity
  8
ASSI
100
AcDbCircle
 62
7
  6
CONTINUOUS
 10
-12.35
 20
11.75
 40
0.2
  0
CIRCLE
  5
41E
100
AcDbEntity
  8
ASSI
100
AcDbCircle
 62
7
  6
CONTINUOUS
 10
-11.75
 20
11.75
 40
0.2
  0
CIRCLE
  5
41F
100
AcDbEntity
  8
0
100
AcDbCircle
 62
7
  6
CONTINUOUS
 10
-12.95
 20
11.75
 40
0.2
  0
CIRCLE
  5
420
100
AcDbEntity
  8
0
100
AcDbCircle
 62
7
  6
CONTINUOUS
 10
-12.35
 20
11.75
 40
0.2
  0
CIRCLE
  5
421
100
AcDbEntity
  8
0
100
AcDbCircle
 62
7
  6
CONTINUOUS
 10
-11.75
 20
11.75
 40
0.2
  0
CIRCLE
  5
422
100
AcDbEntity
  8
ASSI
100
AcDbCircle
 62
7
  6
CONTINUOUS
 10
-11.45
 20
11.1
 40
0.2
  0
CIRCLE
  5
423
100
AcDbEntity
  8
ASSI
100
AcDbCircle
 62
7
  6
CONTINUOUS
 10
-10.85
 20
11.1
 40
0.2
  0
CIRCLE
  5
424
100
AcDbEntity
  8
ASSI
100
AcDbCircle
 62
7
  6
CONTINUOUS
 10
-10.25
 20
11.1
 40
0.2
  0
CIRCLE
  5
425
100
AcDbEntity
  8
ASSI
100
AcDbCircle
 62
7
  6
CONTINUOUS
 10
-11.15
 20
10.5
 40
0.2
  0
CIRCLE
  5
426
100
AcDbEntity
  8
ASSI
100
AcDbCircle
 62
7
  6
CONTINUOUS
 10
-10.55
 20
10.5
 40
0.2
  0
CIRCLE
  5
427
100
AcDbEntity
  8
0
100
AcDbCircle
 62
7
  6
CONTINUOUS
 10
-11.45
 20
11.1
 40
0.2
  0
CIRCLE
  5
428
100
AcDbEntity
  8
0
100
AcDbCircle
 62
7
  6
CONTINUOUS
 10
-10.85
 20
11.1
 40
0.2
  0
CIRCLE
  5
429
100
AcDbEntity
  8
0
100
AcDbCircle
 62
7
  6
CONTINUOUS
 10
-10.25
 20
11.1
 40
0.2
  0
CIRCLE
  5
42A
100
AcDbEntity
  8
0
100
AcDbCircle
 62
7
  6
CONTINUOUS
 10
-11.15
 20
10.5
 40
0.2
  0
CIRCLE
  5
42B
100
AcDbEntity
  8
0
100
AcDbCircle
 62
7
  6
CONTINUOUS
 10
-10.55
 20
10.5
 40
0.2
  0
CIRCLE
  5
42C
100
AcDbEntity
  8
ASSI
100
AcDbCircle
 62
7
  6
CONTINUOUS
 10
-11.15
 20
11.75
 40
0.2
  0
CIRCLE
  5
42D
100
AcDbEntity
  8
ASSI
100
AcDbCircle
 62
7
  6
CONTINUOUS
 10
-10.55
 20
11.75
 40
0.2
  0
CIRCLE
  5
42E
100
AcDbEntity
  8
0
100
AcDbCircle
 62
7
  6
CONTINUOUS
 10
-11.15
 20
11.75
 40
0.2
  0
CIRCLE
  5
42F
100
AcDbEntity
  8
0
100
AcDbCircle
 62
7
  6
CONTINUOUS
 10
-10.55
 20
11.75
 40
0.2
  0
CIRCLE
  5
430
100
AcDbEntity
  8
ASSI
100
AcDbCircle
 62
7
  6
CONTINUOUS
 10
-12.65
 20
12.35
 40
0.2
  0
CIRCLE
  5
431
100
AcDbEntity
  8
ASSI
100
AcDbCircle
 62
7
  6
CONTINUOUS
 10
-12.05
 20
12.35
 40
0.2
  0
CIRCLE
  5
432
100
AcDbEntity
  8
0
100
AcDbCircle
 62
7
  6
CONTINUOUS
 10
-12.65
 20
12.35
 40
0.2
  0
CIRCLE
  5
433
100
AcDbEntity
  8
0
100
AcDbCircle
 62
7
  6
CONTINUOUS
 10
-12.05
 20
12.35
 40
0.2
  0
CIRCLE
  5
434
100
AcDbEntity
  8
ASSI
100
AcDbCircle
 62
7
  6
CONTINUOUS
 10
-12.65
 20
13.6
 40
0.2
  0
CIRCLE
  5
435
100
AcDbEntity
  8
ASSI
100
AcDbCircle
 62
7
  6
CONTINUOUS
 10
-12.05
 20
13.6
 40
0.2
  0
CIRCLE
  5
436
100
AcDbEntity
  8
ASSI
100
AcDbCircle
 62
7
  6
CONTINUOUS
 10
-12.95
 20
13.0
 40
0.2
  0
CIRCLE
  5
437
100
AcDbEntity
  8
ASSI
100
AcDbCircle
 62
7
  6
CONTINUOUS
 10
-12.35
 20
13.0
 40
0.2
  0
CIRCLE
  5
438
100
AcDbEntity
  8
ASSI
100
AcDbCircle
 62
7
  6
CONTINUOUS
 10
-11.75
 20
13.0
 40
0.2
  0
CIRCLE
  5
439
100
AcDbEntity
  8
0
100
AcDbCircle
 62
7
  6
CONTINUOUS
 10
-12.65
 20
13.6
 40
0.2
  0
CIRCLE
  5
43A
100
AcDbEntity
  8
0
100
AcDbCircle
 62
7
  6
CONTINUOUS
 10
-12.05
 20
13.6
 40
0.2
  0
CIRCLE
  5
43B
100
AcDbEntity
  8
0
100
AcDbCircle
 62
7
  6
CONTINUOUS
 10
-12.95
 20
13.0
 40
0.2
  0
CIRCLE
  5
43C
100
AcDbEntity
  8
0
100
AcDbCircle
 62
7
  6
CONTINUOUS
 10
-12.35
 20
13.0
 40
0.2
  0
CIRCLE
  5
43D
100
AcDbEntity
  8
0
100
AcDbCircle
 62
7
  6
CONTINUOUS
 10
-11.75
 20
13.0
 40
0.2
  0
CIRCLE
  5
43E
100
AcDbEntity
  8
ASSI
100
AcDbCircle
 62
7
  6
CONTINUOUS
 10
-11.45
 20
12.35
 40
0.2
  0
CIRCLE
  5
43F
100
AcDbEntity
  8
ASSI
100
AcDbCircle
 62
7
  6
CONTINUOUS
 10
-10.85
 20
12.35
 40
0.2
  0
CIRCLE
  5
440
100
AcDbEntity
  8
ASSI
100
AcDbCircle
 62
7
  6
CONTINUOUS
 10
-10.25
 20
12.35
 40
0.2
  0
CIRCLE
  5
441
100
AcDbEntity
  8
0
100
AcDbCircle
 62
7
  6
CONTINUOUS
 10
-11.45
 20
12.35
 40
0.2
  0
CIRCLE
  5
442
100
AcDbEntity
  8
0
100
AcDbCircle
 62
7
  6
CONTINUOUS
 10
-10.85
 20
12.35
 40
0.2
  0
CIRCLE
  5
443
100
AcDbEntity
  8
0
100
AcDbCircle
 62
7
  6
CONTINUOUS
 10
-10.25
 20
12.35
 40
0.2
  0
CIRCLE
  5
444
100
AcDbEntity
  8
ASSI
100
AcDbCircle
 62
7
  6
CONTINUOUS
 10
-11.45
 20
13.6
 40
0.2
  0
CIRCLE
  5
445
100
AcDbEntity
  8
ASSI
100
AcDbCircle
 62
7
  6
CONTINUOUS
 10
-10.85
 20
13.6
 40
0.2
  0
CIRCLE
  5
446
100
AcDbEntity
  8
ASSI
100
AcDbCircle
 62
7
  6
CONTINUOUS
 10
-10.25
 20
13.6
 40
0.2
  0
CIRCLE
  5
447
100
AcDbEntity
  8
ASSI
100
AcDbCircle
 62
7
  6
CONTINUOUS
 10
-11.15
 20
13.0
 40
0.2
  0
CIRCLE
  5
448
100
AcDbEntity
  8
ASSI
100
AcDbCircle
 62
7
  6
CONTINUOUS
 10
-10.55
 20
13.0
 40
0.2
  0
CIRCLE
  5
449
100
AcDbEntity
  8
0
100
AcDbCircle
 62
7
  6
CONTINUOUS
 10
-11.45
 20
13.6
 40
0.2
  0
CIRCLE
  5
44A
100
AcDbEntity
  8
0
100
AcDbCircle
 62
7
  6
CONTINUOUS
 10
-10.85
 20
13.6
 40
0.2
  0
CIRCLE
  5
44B
100
AcDbEntity
  8
0
100
AcDbCircle
 62
7
  6
CONTINUOUS
 10
-10.25
 20
13.6
 40
0.2
  0
CIRCLE
  5
44C
100
AcDbEntity
  8
0
100
AcDbCircle
 62
7
  6
CONTINUOUS
 10
-11.15
 20
13.0
 40
0.2
  0
CIRCLE
  5
44D
100
AcDbEntity
  8
0
100
AcDbCircle
 62
7
  6
CONTINUOUS
 10
-10.55
 20
13.0
 40
0.2
  0
ARC
  5
44E
100
AcDbEntity
  8
DRAFT
100
AcDbCircle
 62
7
  6
CONTINUOUS
 10
-8.8446234409
 20
6.8372198492
 40
24.9357278848
100
AcDbArc
 50
26.3117678723
 51
31.609290547
  0
ARC
  5
44F
100
AcDbEntity
  8
DRAFT
100
AcDbCircle
 62
7
  6
CONTINUOUS
 10
-8.8246243229
 20
6.8493441116
 40
24.9129004772
100
AcDbArc
 50
1.4829260925
 51
6.0222380466
  0
ARC
  5
450
100
AcDbEntity
  8
DRAFT
100
AcDbCircle
 62
7
  6
CONTINUOUS
 10
-8.8211454157
 20
6.8488940692
 40
24.9094958447
100
AcDbArc
 50
7.2374133106
 51
24.9596291205
  0
ARC
  5
451
100
AcDbEntity
  8
DRAFT
100
AcDbCircle
 62
7
  6
CONTINUOUS
 10
-8.8182711414
 20
6.8448046481
 40
24.890487411
100
AcDbArc
 50
26.3605407383
 51
31.6262388184
  0
ARC
  5
452
100
AcDbEntity
  8
DRAFT
100
AcDbCircle
 62
7
  6
CONTINUOUS
 10
-8.8175985727
 20
6.8455440886
 40
24.8895838536
100
AcDbArc
 50
17.3037149401
 51
20.3225255339
  0
ARC
  5
453
100
AcDbEntity
  8
DRAFT
100
AcDbCircle
 62
7
  6
CONTINUOUS
 10
-8.8168505892
 20
6.8455869606
 40
24.8888696364
100
AcDbArc
 50
21.8609902275
 51
23.5113849381
  0
ARC
  5
454
100
AcDbEntity
  8
DRAFT
100
AcDbCircle
 62
7
  6
CONTINUOUS
 10
-8.816989556
 20
6.8475720916
 40
24.8886115804
100
AcDbArc
 50
1.4874609439
 51
5.9994790384
  0
ARC
  5
455
100
AcDbEntity
  8
DRAFT
100
AcDbCircle
 62
7
  6
CONTINUOUS
 10
-8.8155598667
 20
6.8461176049
 40
24.887474378
100
AcDbArc
 50
23.5114501338
 51
24.9613885342
  0
ARC
  5
456
100
AcDbEntity
  8
DRAFT
100
AcDbCircle
 62
7
  6
CONTINUOUS
 10
-8.8152918507
 20
6.8462718227
 40
24.8871679744
100
AcDbArc
 50
20.3227988079
 51
21.8608631263
  0
ARC
  5
457
100
AcDbEntity
  8
DRAFT
100
AcDbCircle
 62
7
  6
CONTINUOUS
 10
-8.8135768178
 20
6.8472503876
 40
24.885259458
100
AcDbArc
 50
8.5084270623
 51
11.3779213605
  0
ARC
  5
458
100
AcDbEntity
  8
DRAFT
100
AcDbCircle
 62
7
  6
CONTINUOUS
 10
-8.8119382561
 20
6.8476160958
 40
24.883584825
100
AcDbArc
 50
7.278886973
 51
8.4571897552
  0
ARC
  5
459
100
AcDbEntity
  8
DRAFT
100
AcDbCircle
 62
7
  6
CONTINUOUS
 10
-8.8114825885
 20
6.8475577076
 40
24.8831457453
100
AcDbArc
 50
12.7784390798
 51
17.3034769278
  0
ARC
  5
45A
100
AcDbEntity
  8
DRAFT
100
AcDbCircle
 62
7
  6
CONTINUOUS
 10
-8.8101895651
 20
6.8478338267
 40
24.8818236737
100
AcDbArc
 50
11.3781430266
 51
12.6777746226
  0
CIRCLE
  5
45B
100
AcDbEntity
  8
ASSI
100
AcDbCircle
 62
7
  6
CONTINUOUS
 10
-9.65
 20
7.35
 40
0.2
  0
CIRCLE
  5
45C
100
AcDbEntity
  8
ASSI
100
AcDbCircle
 62
7
  6
CONTINUOUS
 10
-9.05
 20
7.35
 40
0.2
  0
CIRCLE
  5
45D
100
AcDbEntity
  8
0
100
AcDbCircle
 62
7
  6
CONTINUOUS
 10
-9.65
 20
7.35
 40
0.2
  0
CIRCLE
  5
45E
100
AcDbEntity
  8
0
100
AcDbCircle
 62
7
  6
CONTINUOUS
 10
-9.05
 20
7.35
 40
0.2
  0
ARC
  5
45F
100
AcDbEntity
  8
0
100
AcDbCircle
 62
7
  6
CONTINUOUS
 10
-9.95
 20
6.75
 40
0.2
100
AcDbArc
 50
4.0035663388
 51
176.1402336992
  0
ARC
  5
460
100
AcDbEntity
  8
0
100
AcDbCircle
 62
7
  6
CONTINUOUS
 10
-9.35
 20
6.75
 40
0.2
100
AcDbArc
 50
4.2131648354
 51
175.9245357053
  0
ARC
  5
461
100
AcDbEntity
  8
0
100
AcDbCircle
 62
7
  6
CONTINUOUS
 10
-8.75
 20
6.75
 40
0.2
100
AcDbArc
 50
4.4027631613
 51
175.7190420624
  0
ARC
  5
462
100
AcDbEntity
  8
ASSI
100
AcDbCircle
 62
7
  6
CONTINUOUS
 10
-9.95
 20
6.75
 40
0.2
100
AcDbArc
 50
4.0035663388
 51
176.1402336992
  0
ARC
  5
463
100
AcDbEntity
  8
ASSI
100
AcDbCircle
 62
7
  6
CONTINUOUS
 10
-9.35
 20
6.75
 40
0.2
100
AcDbArc
 50
4.2131648354
 51
175.9245357053
  0
ARC
  5
464
100
AcDbEntity
  8
ASSI
100
AcDbCircle
 62
7
  6
CONTINUOUS
 10
-8.75
 20
6.75
 40
0.2
100
AcDbArc
 50
4.4027631613
 51
175.7190420624
  0
CIRCLE
  5
465
100
AcDbEntity
  8
ASSI
100
AcDbCircle
 62
7
  6
CONTINUOUS
 10
-9.95
 20
8.0
 40
0.2
  0
CIRCLE
  5
466
100
AcDbEntity
  8
ASSI
100
AcDbCircle
 62
7
  6
CONTINUOUS
 10
-9.35
 20
8.0
 40
0.2
  0
CIRCLE
  5
467
100
AcDbEntity
  8
ASSI
100
AcDbCircle
 62
7
  6
CONTINUOUS
 10
-8.75
 20
8.0
 40
0.2
  0
CIRCLE
  5
468
100
AcDbEntity
  8
0
100
AcDbCircle
 62
7
  6
CONTINUOUS
 10
-9.95
 20
8.0
 40
0.2
  0
CIRCLE
  5
469
100
AcDbEntity
  8
0
100
AcDbCircle
 62
7
  6
CONTINUOUS
 10
-9.35
 20
8.0
 40
0.2
  0
CIRCLE
  5
46A
100
AcDbEntity
  8
0
100
AcDbCircle
 62
7
  6
CONTINUOUS
 10
-8.75
 20
8.0
 40
0.2
  0
CIRCLE
  5
46B
100
AcDbEntity
  8
ASSI
100
AcDbCircle
 62
7
  6
CONTINUOUS
 10
-8.45
 20
7.35
 40
0.2
  0
CIRCLE
  5
46C
100
AcDbEntity
  8
ASSI
100
AcDbCircle
 62
7
  6
CONTINUOUS
 10
-7.85
 20
7.35
 40
0.2
  0
CIRCLE
  5
46D
100
AcDbEntity
  8
0
100
AcDbCircle
 62
7
  6
CONTINUOUS
 10
-8.45
 20
7.35
 40
0.2
  0
CIRCLE
  5
46E
100
AcDbEntity
  8
0
100
AcDbCircle
 62
7
  6
CONTINUOUS
 10
-7.85
 20
7.35
 40
0.2
  0
ARC
  5
46F
100
AcDbEntity
  8
0
100
AcDbCircle
 62
7
  6
CONTINUOUS
 10
-7.25
 20
7.35
 40
0.2
100
AcDbArc
 50
90.0008516381
 51
270.0009873051
  0
ARC
  5
470
100
AcDbEntity
  8
0
100
AcDbCircle
 62
7
  6
CONTINUOUS
 10
-8.15
 20
6.75
 40
0.2
100
AcDbArc
 50
4.5872836828
 51
175.5301536382
  0
ARC
  5
471
100
AcDbEntity
  8
0
100
AcDbCircle
 62
7
  6
CONTINUOUS
 10
-7.55
 20
6.75
 40
0.2
100
AcDbArc
 50
4.755907862
 51
175.3551789637
  0
ARC
  5
472
100
AcDbEntity
  8
ASSI
100
AcDbCircle
 62
7
  6
CONTINUOUS
 10
-7.25
 20
7.35
 40
0.2
100
AcDbArc
 50
90.0008516381
 51
270.0009873051
  0
ARC
  5
473
100
AcDbEntity
  8
ASSI
100
AcDbCircle
 62
7
  6
CONTINUOUS
 10
-8.15
 20
6.75
 40
0.2
100
AcDbArc
 50
4.5872836828
 51
175.5301536382
  0
ARC
  5
474
100
AcDbEntity
  8
ASSI
100
AcDbCircle
 62
7
  6
CONTINUOUS
 10
-7.55
 20
6.75
 40
0.2
100
AcDbArc
 50
4.755907862
 51
175.3551789637
  0
CIRCLE
  5
475
100
AcDbEntity
  8
ASSI
100
AcDbCircle
 62
7
  6
CONTINUOUS
 10
-8.15
 20
8.0
 40
0.2
  0
CIRCLE
  5
476
100
AcDbEntity
  8
ASSI
100
AcDbCircle
 62
7
  6
CONTINUOUS
 10
-7.55
 20
8.0
 40
0.2
  0
CIRCLE
  5
477
100
AcDbEntity
  8
0
100
AcDbCircle
 62
7
  6
CONTINUOUS
 10
-8.15
 20
8.0
 40
0.2
  0
CIRCLE
  5
478
100
AcDbEntity
  8
0
100
AcDbCircle
 62
7
  6
CONTINUOUS
 10
-7.55
 20
8.0
 40
0.2
  0
CIRCLE
  5
479
100
AcDbEntity
  8
ASSI
100
AcDbCircle
 62
7
  6
CONTINUOUS
 10
-9.65
 20
8.6
 40
0.2
  0
CIRCLE
  5
47A
100
AcDbEntity
  8
ASSI
100
AcDbCircle
 62
7
  6
CONTINUOUS
 10
-9.05
 20
8.6
 40
0.2
  0
CIRCLE
  5
47B
100
AcDbEntity
  8
0
100
AcDbCircle
 62
7
  6
CONTINUOUS
 10
-9.65
 20
8.6
 40
0.2
  0
CIRCLE
  5
47C
100
AcDbEntity
  8
0
100
AcDbCircle
 62
7
  6
CONTINUOUS
 10
-9.05
 20
8.6
 40
0.2
  0
CIRCLE
  5
47D
100
AcDbEntity
  8
ASSI
100
AcDbCircle
 62
7
  6
CONTINUOUS
 10
-9.65
 20
9.85
 40
0.2
  0
CIRCLE
  5
47E
100
AcDbEntity
  8
ASSI
100
AcDbCircle
 62
7
  6
CONTINUOUS
 10
-9.05
 20
9.85
 40
0.2
  0
CIRCLE
  5
47F
100
AcDbEntity
  8
ASSI
100
AcDbCircle
 62
7
  6
CONTINUOUS
 10
-9.95
 20
9.25
 40
0.2
  0
CIRCLE
  5
480
100
AcDbEntity
  8
ASSI
100
AcDbCircle
 62
7
  6
CONTINUOUS
 10
-9.35
 20
9.25
 40
0.2
  0
CIRCLE
  5
481
100
AcDbEntity
  8
ASSI
100
AcDbCircle
 62
7
  6
CONTINUOUS
 10
-8.75
 20
9.25
 40
0.2
  0
CIRCLE
  5
482
100
AcDbEntity
  8
0
100
AcDbCircle
 62
7
  6
CONTINUOUS
 10
-9.65
 20
9.85
 40
0.2
  0
CIRCLE
  5
483
100
AcDbEntity
  8
0
100
AcDbCircle
 62
7
  6
CONTINUOUS
 10
-9.05
 20
9.85
 40
0.2
  0
CIRCLE
  5
484
100
AcDbEntity
  8
0
100
AcDbCircle
 62
7
  6
CONTINUOUS
 10
-9.95
 20
9.25
 40
0.2
  0
CIRCLE
  5
485
100
AcDbEntity
  8
0
100
AcDbCircle
 62
7
  6
CONTINUOUS
 10
-9.35
 20
9.25
 40
0.2
  0
CIRCLE
  5
486
100
AcDbEntity
  8
0
100
AcDbCircle
 62
7
  6
CONTINUOUS
 10
-8.75
 20
9.25
 40
0.2
  0
CIRCLE
  5
487
100
AcDbEntity
  8
ASSI
100
AcDbCircle
 62
7
  6
CONTINUOUS
 10
-8.45
 20
8.6
 40
0.2
  0
CIRCLE
  5
488
100
AcDbEntity
  8
ASSI
100
AcDbCircle
 62
7
  6
CONTINUOUS
 10
-7.85
 20
8.6
 40
0.2
  0
CIRCLE
  5
489
100
AcDbEntity
  8
0
100
AcDbCircle
 62
7
  6
CONTINUOUS
 10
-8.45
 20
8.6
 40
0.2
  0
CIRCLE
  5
48A
100
AcDbEntity
  8
0
100
AcDbCircle
 62
7
  6
CONTINUOUS
 10
-7.85
 20
8.6
 40
0.2
  0
ARC
  5
48B
100
AcDbEntity
  8
0
100
AcDbCircle
 62
7
  6
CONTINUOUS
 10
-7.25
 20
8.6
 40
0.2
100
AcDbArc
 50
90.0003090521
 51
270.0004399307
  0
ARC
  5
48C
100
AcDbEntity
  8
ASSI
100
AcDbCircle
 62
7
  6
CONTINUOUS
 10
-7.25
 20
8.6
 40
0.2
100
AcDbArc
 50
90.0003090521
 51
270.0004399307
  0
CIRCLE
  5
48D
100
AcDbEntity
  8
ASSI
100
AcDbCircle
 62
7
  6
CONTINUOUS
 10
-8.45
 20
9.85
 40
0.2
  0
CIRCLE
  5
48E
100
AcDbEntity
  8
ASSI
100
AcDbCircle
 62
7
  6
CONTINUOUS
 10
-7.85
 20
9.85
 40
0.2
  0
CIRCLE
  5
48F
100
AcDbEntity
  8
ASSI
100
AcDbCircle
 62
7
  6
CONTINUOUS
 10
-8.15
 20
9.25
 40
0.2
  0
CIRCLE
  5
490
100
AcDbEntity
  8
ASSI
100
AcDbCircle
 62
7
  6
CONTINUOUS
 10
-7.55
 20
9.25
 40
0.2
  0
CIRCLE
  5
491
100
AcDbEntity
  8
0
100
AcDbCircle
 62
7
  6
CONTINUOUS
 10
-8.45
 20
9.85
 40
0.2
  0
CIRCLE
  5
492
100
AcDbEntity
  8
0
100
AcDbCircle
 62
7
  6
CONTINUOUS
 10
-7.85
 20
9.85
 40
0.2
  0
ARC
  5
493
100
AcDbEntity
  8
0
100
AcDbCircle
 62
7
  6
CONTINUOUS
 10
-7.25
 20
9.85
 40
0.2
100
AcDbArc
 50
89.999948985
 51
270.0000594593
  0
CIRCLE
  5
494
100
AcDbEntity
  8
0
100
AcDbCircle
 62
7
  6
CONTINUOUS
 10
-8.15
 20
9.25
 40
0.2
  0
CIRCLE
  5
495
100
AcDbEntity
  8
0
100
AcDbCircle
 62
7
  6
CONTINUOUS
 10
-7.55
 20
9.25
 40
0.2
  0
ARC
  5
496
100
AcDbEntity
  8
ASSI
100
AcDbCircle
 62
7
  6
CONTINUOUS
 10
-7.25
 20
9.85
 40
0.2
100
AcDbArc
 50
89.999948985
 51
270.0000594593
  0
ARC
  5
497
100
AcDbEntity
  8
DRAFT
100
AcDbCircle
 62
7
  6
CONTINUOUS
 10
-4.0
 20
8.275
 40
1.4818485021
100
AcDbArc
 50
180.0
 51
270.0
  0
CIRCLE
  5
498
100
AcDbEntity
  8
ASSI
100
AcDbCircle
 62
7
  6
CONTINUOUS
 10
-9.65
 20
11.1
 40
0.2
  0
CIRCLE
  5
499
100
AcDbEntity
  8
ASSI
100
AcDbCircle
 62
7
  6
CONTINUOUS
 10
-9.95
 20
10.5
 40
0.2
  0
CIRCLE
  5
49A
100
AcDbEntity
  8
0
100
AcDbCircle
 62
7
  6
CONTINUOUS
 10
-9.65
 20
11.1
 40
0.2
  0
CIRCLE
  5
49B
100
AcDbEntity
  8
0
100
AcDbCircle
 62
7
  6
CONTINUOUS
 10
-9.95
 20
10.5
 40
0.2
  0
CIRCLE
  5
49C
100
AcDbEntity
  8
ASSI
100
AcDbCircle
 62
7
  6
CONTINUOUS
 10
-9.95
 20
11.75
 40
0.2
  0
CIRCLE
  5
49D
100
AcDbEntity
  8
0
100
AcDbCircle
 62
7
  6
CONTINUOUS
 10
-9.95
 20
11.75
 40
0.2
  0
CIRCLE
  5
49E
100
AcDbEntity
  8
ASSI
100
AcDbCircle
 62
7
  6
CONTINUOUS
 10
-9.05
 20
11.1
 40
0.2
  0
CIRCLE
  5
49F
100
AcDbEntity
  8
ASSI
100
AcDbCircle
 62
7
  6
CONTINUOUS
 10
-9.35
 20
10.5
 40
0.2
  0
CIRCLE
  5
4A0
100
AcDbEntity
  8
ASSI
100
AcDbCircle
 62
7
  6
CONTINUOUS
 10
-8.75
 20
10.5
 40
0.2
  0
CIRCLE
  5
4A1
100
AcDbEntity
  8
0
100
AcDbCircle
 62
7
  6
CONTINUOUS
 10
-9.05
 20
11.1
 40
0.2
  0
CIRCLE
  5
4A2
100
AcDbEntity
  8
0
100
AcDbCircle
 62
7
  6
CONTINUOUS
 10
-9.35
 20
10.5
 40
0.2
  0
CIRCLE
  5
4A3
100
AcDbEntity
  8
0
100
AcDbCircle
 62
7
  6
CONTINUOUS
 10
-8.75
 20
10.5
 40
0.2
  0
CIRCLE
  5
4A4
100
AcDbEntity
  8
ASSI
100
AcDbCircle
 62
7
  6
CONTINUOUS
 10
-9.35
 20
11.75
 40
0.2
  0
CIRCLE
  5
4A5
100
AcDbEntity
  8
ASSI
100
AcDbCircle
 62
7
  6
CONTINUOUS
 10
-8.75
 20
11.75
 40
0.2
  0
CIRCLE
  5
4A6
100
AcDbEntity
  8
0
100
AcDbCircle
 62
7
  6
CONTINUOUS
 10
-9.35
 20
11.75
 40
0.2
  0
CIRCLE
  5
4A7
100
AcDbEntity
  8
0
100
AcDbCircle
 62
7
  6
CONTINUOUS
 10
-8.75
 20
11.75
 40
0.2
  0
CIRCLE
  5
4A8
100
AcDbEntity
  8
ASSI
100
AcDbCircle
 62
7
  6
CONTINUOUS
 10
-9.65
 20
12.35
 40
0.2
  0
CIRCLE
  5
4A9
100
AcDbEntity
  8
0
100
AcDbCircle
 62
7
  6
CONTINUOUS
 10
-9.65
 20
12.35
 40
0.2
  0
CIRCLE
  5
4AA
100
AcDbEntity
  8
ASSI
100
AcDbCircle
 62
7
  6
CONTINUOUS
 10
-9.65
 20
13.6
 40
0.2
  0
CIRCLE
  5
4AB
100
AcDbEntity
  8
ASSI
100
AcDbCircle
 62
7
  6
CONTINUOUS
 10
-9.95
 20
13.0
 40
0.2
  0
CIRCLE
  5
4AC
100
AcDbEntity
  8
0
100
AcDbCircle
 62
7
  6
CONTINUOUS
 10
-9.65
 20
13.6
 40
0.2
  0
CIRCLE
  5
4AD
100
AcDbEntity
  8
0
100
AcDbCircle
 62
7
  6
CONTINUOUS
 10
-9.95
 20
13.0
 40
0.2
  0
CIRCLE
  5
4AE
100
AcDbEntity
  8
ASSI
100
AcDbCircle
 62
7
  6
CONTINUOUS
 10
-9.05
 20
12.35
 40
0.2
  0
CIRCLE
  5
4AF
100
AcDbEntity
  8
0
100
AcDbCircle
 62
7
  6
CONTINUOUS
 10
-9.05
 20
12.35
 40
0.2
  0
CIRCLE
  5
4B0
100
AcDbEntity
  8
ASSI
100
AcDbCircle
 62
7
  6
CONTINUOUS
 10
-9.05
 20
13.6
 40
0.2
  0
CIRCLE
  5
4B1
100
AcDbEntity
  8
ASSI
100
AcDbCircle
 62
7
  6
CONTINUOUS
 10
-9.35
 20
13.0
 40
0.2
  0
CIRCLE
  5
4B2
100
AcDbEntity
  8
ASSI
100
AcDbCircle
 62
7
  6
CONTINUOUS
 10
-8.75
 20
13.0
 40
0.2
  0
CIRCLE
  5
4B3
100
AcDbEntity
  8
0
100
AcDbCircle
 62
7
  6
CONTINUOUS
 10
-9.05
 20
13.6
 40
0.2
  0
CIRCLE
  5
4B4
100
AcDbEntity
  8
0
100
AcDbCircle
 62
7
  6
CONTINUOUS
 10
-9.35
 20
13.0
 40
0.2
  0
CIRCLE
  5
4B5
100
AcDbEntity
  8
0
100
AcDbCircle
 62
7
  6
CONTINUOUS
 10
-8.75
 20
13.0
 40
0.2
  0
CIRCLE
  5
4B6
100
AcDbEntity
  8
ASSI
100
AcDbCircle
 62
7
  6
CONTINUOUS
 10
-8.45
 20
11.1
 40
0.2
  0
CIRCLE
  5
4B7
100
AcDbEntity
  8
ASSI
100
AcDbCircle
 62
7
  6
CONTINUOUS
 10
-8.15
 20
10.5
 40
0.2
  0
CIRCLE
  5
4B8
100
AcDbEntity
  8
0
100
AcDbCircle
 62
7
  6
CONTINUOUS
 10
-8.45
 20
11.1
 40
0.2
  0
CIRCLE
  5
4B9
100
AcDbEntity
  8
0
100
AcDbCircle
 62
7
  6
CONTINUOUS
 10
-8.15
 20
10.5
 40
0.2
  0
CIRCLE
  5
4BA
100
AcDbEntity
  8
ASSI
100
AcDbCircle
 62
7
  6
CONTINUOUS
 10
-8.15
 20
11.75
 40
0.2
  0
CIRCLE
  5
4BB
100
AcDbEntity
  8
0
100
AcDbCircle
 62
7
  6
CONTINUOUS
 10
-8.15
 20
11.75
 40
0.2
  0
CIRCLE
  5
4BC
100
AcDbEntity
  8
ASSI
100
AcDbCircle
 62
7
  6
CONTINUOUS
 10
-7.85
 20
11.1
 40
0.2
  0
CIRCLE
  5
4BD
100
AcDbEntity
  8
ASSI
100
AcDbCircle
 62
7
  6
CONTINUOUS
 10
-7.55
 20
10.5
 40
0.2
  0
CIRCLE
  5
4BE
100
AcDbEntity
  8
0
100
AcDbCircle
 62
7
  6
CONTINUOUS
 10
-7.85
 20
11.1
 40
0.2
  0
ARC
  5
4BF
100
AcDbEntity
  8
0
100
AcDbCircle
 62
7
  6
CONTINUOUS
 10
-7.25
 20
11.1
 40
0.2
100
AcDbArc
 50
89.9997596286
 51
269.999850261
  0
CIRCLE
  5
4C0
100
AcDbEntity
  8
0
100
AcDbCircle
 62
7
  6
CONTINUOUS
 10
-7.55
 20
10.5
 40
0.2
  0
ARC
  5
4C1
100
AcDbEntity
  8
ASSI
100
AcDbCircle
 62
7
  6
CONTINUOUS
 10
-7.25
 20
11.1
 40
0.2
100
AcDbArc
 50
89.9997596286
 51
269.999850261
  0
CIRCLE
  5
4C2
100
AcDbEntity
  8
ASSI
100
AcDbCircle
 62
7
  6
CONTINUOUS
 10
-7.55
 20
11.75
 40
0.2
  0
CIRCLE
  5
4C3
100
AcDbEntity
  8
0
100
AcDbCircle
 62
7
  6
CONTINUOUS
 10
-7.55
 20
11.75
 40
0.2
  0
CIRCLE
  5
4C4
100
AcDbEntity
  8
ASSI
100
AcDbCircle
 62
7
  6
CONTINUOUS
 10
-8.45
 20
12.35
 40
0.2
  0
CIRCLE
  5
4C5
100
AcDbEntity
  8
0
100
AcDbCircle
 62
7
  6
CONTINUOUS
 10
-8.45
 20
12.35
 40
0.2
  0
CIRCLE
  5
4C6
100
AcDbEntity
  8
ASSI
100
AcDbCircle
 62
7
  6
CONTINUOUS
 10
-8.45
 20
13.6
 40
0.2
  0
CIRCLE
  5
4C7
100
AcDbEntity
  8
ASSI
100
AcDbCircle
 62
7
  6
CONTINUOUS
 10
-8.15
 20
13.0
 40
0.2
  0
CIRCLE
  5
4C8
100
AcDbEntity
  8
0
100
AcDbCircle
 62
7
  6
CONTINUOUS
 10
-8.45
 20
13.6
 40
0.2
  0
CIRCLE
  5
4C9
100
AcDbEntity
  8
0
100
AcDbCircle
 62
7
  6
CONTINUOUS
 10
-8.15
 20
13.0
 40
0.2
  0
CIRCLE
  5
4CA
100
AcDbEntity
  8
ASSI
100
AcDbCircle
 62
7
  6
CONTINUOUS
 10
-7.85
 20
12.35
 40
0.2
  0
CIRCLE
  5
4CB
100
AcDbEntity
  8
0
100
AcDbCircle
 62
7
  6
CONTINUOUS
 10
-7.85
 20
12.35
 40
0.2
  0
ARC
  5
4CC
100
AcDbEntity
  8
0
100
AcDbCircle
 62
7
  6
CONTINUOUS
 10
-7.25
 20
12.35
 40
0.2
100
AcDbArc
 50
89.9997510533
 51
269.9998070209
  0
ARC
  5
4CD
100
AcDbEntity
  8
ASSI
100
AcDbCircle
 62
7
  6
CONTINUOUS
 10
-7.25
 20
12.35
 40
0.2
100
AcDbArc
 50
89.9997510533
 51
269.9998070209
  0
CIRCLE
  5
4CE
100
AcDbEntity
  8
ASSI
100
AcDbCircle
 62
7
  6
CONTINUOUS
 10
-7.85
 20
13.6
 40
0.2
  0
CIRCLE
  5
4CF
100
AcDbEntity
  8
ASSI
100
AcDbCircle
 62
7
  6
CONTINUOUS
 10
-7.55
 20
13.0
 40
0.2
  0
CIRCLE
  5
4D0
100
AcDbEntity
  8
0
100
AcDbCircle
 62
7
  6
CONTINUOUS
 10
-7.85
 20
13.6
 40
0.2
  0
ARC
  5
4D1
100
AcDbEntity
  8
0
100
AcDbCircle
 62
7
  6
CONTINUOUS
 10
-7.25
 20
13.6
 40
0.2
100
AcDbArc
 50
89.9999124739
 51
269.9999241546
  0
CIRCLE
  5
4D2
100
AcDbEntity
  8
0
100
AcDbCircle
 62
7
  6
CONTINUOUS
 10
-7.55
 20
13.0
 40
0.2
  0
ARC
  5
4D3
100
AcDbEntity
  8
ASSI
100
AcDbCircle
 62
7
  6
CONTINUOUS
 10
-7.25
 20
13.6
 40
0.2
100
AcDbArc
 50
89.9999124739
 51
269.9999241546
  0
CIRCLE
  5
4D4
100
AcDbEntity
  8
ASSI
100
AcDbCircle
 62
7
  6
CONTINUOUS
 10
-14.45
 20
14.85
 40
0.2
  0
CIRCLE
  5
4D5
100
AcDbEntity
  8
ASSI
100
AcDbCircle
 62
7
  6
CONTINUOUS
 10
-13.85
 20
14.85
 40
0.2
  0
CIRCLE
  5
4D6
100
AcDbEntity
  8
ASSI
100
AcDbCircle
 62
7
  6
CONTINUOUS
 10
-14.15
 20
14.25
 40
0.2
  0
CIRCLE
  5
4D7
100
AcDbEntity
  8
0
100
AcDbCircle
 62
7
  6
CONTINUOUS
 10
-14.45
 20
14.85
 40
0.2
  0
CIRCLE
  5
4D8
100
AcDbEntity
  8
0
100
AcDbCircle
 62
7
  6
CONTINUOUS
 10
-13.85
 20
14.85
 40
0.2
  0
ARC
  5
4D9
100
AcDbEntity
  8
0
100
AcDbCircle
 62
7
  6
CONTINUOUS
 10
-14.75
 20
14.25
 40
0.2
100
AcDbArc
 50
184.3152354046
 51
140.8864905031
  0
CIRCLE
  5
4DA
100
AcDbEntity
  8
0
100
AcDbCircle
 62
7
  6
CONTINUOUS
 10
-14.15
 20
14.25
 40
0.2
  0
ARC
  5
4DB
100
AcDbEntity
  8
ASSI
100
AcDbCircle
 62
7
  6
CONTINUOUS
 10
-14.75
 20
14.25
 40
0.2
100
AcDbArc
 50
184.3152354046
 51
140.8864905031
  0
CIRCLE
  5
4DC
100
AcDbEntity
  8
ASSI
100
AcDbCircle
 62
7
  6
CONTINUOUS
 10
-14.15
 20
15.5
 40
0.2
  0
CIRCLE
  5
4DD
100
AcDbEntity
  8
0
100
AcDbCircle
 62
7
  6
CONTINUOUS
 10
-14.15
 20
15.5
 40
0.2
  0
CIRCLE
  5
4DE
100
AcDbEntity
  8
ASSI
100
AcDbCircle
 62
7
  6
CONTINUOUS
 10
-13.25
 20
14.85
 40
0.2
  0
CIRCLE
  5
4DF
100
AcDbEntity
  8
ASSI
100
AcDbCircle
 62
7
  6
CONTINUOUS
 10
-12.65
 20
14.85
 40
0.2
  0
CIRCLE
  5
4E0
100
AcDbEntity
  8
ASSI
100
AcDbCircle
 62
7
  6
CONTINUOUS
 10
-13.55
 20
14.25
 40
0.2
  0
CIRCLE
  5
4E1
100
AcDbEntity
  8
ASSI
100
AcDbCircle
 62
7
  6
CONTINUOUS
 10
-12.95
 20
14.25
 40
0.2
  0
CIRCLE
  5
4E2
100
AcDbEntity
  8
ASSI
100
AcDbCircle
 62
7
  6
CONTINUOUS
 10
-12.35
 20
14.25
 40
0.2
  0
CIRCLE
  5
4E3
100
AcDbEntity
  8
0
100
AcDbCircle
 62
7
  6
CONTINUOUS
 10
-13.25
 20
14.85
 40
0.2
  0
CIRCLE
  5
4E4
100
AcDbEntity
  8
0
100
AcDbCircle
 62
7
  6
CONTINUOUS
 10
-12.65
 20
14.85
 40
0.2
  0
CIRCLE
  5
4E5
100
AcDbEntity
  8
0
100
AcDbCircle
 62
7
  6
CONTINUOUS
 10
-13.55
 20
14.25
 40
0.2
  0
CIRCLE
  5
4E6
100
AcDbEntity
  8
0
100
AcDbCircle
 62
7
  6
CONTINUOUS
 10
-12.95
 20
14.25
 40
0.2
  0
CIRCLE
  5
4E7
100
AcDbEntity
  8
0
100
AcDbCircle
 62
7
  6
CONTINUOUS
 10
-12.35
 20
14.25
 40
0.2
  0
CIRCLE
  5
4E8
100
AcDbEntity
  8
ASSI
100
AcDbCircle
 62
7
  6
CONTINUOUS
 10
-13.55
 20
15.5
 40
0.2
  0
CIRCLE
  5
4E9
100
AcDbEntity
  8
ASSI
100
AcDbCircle
 62
7
  6
CONTINUOUS
 10
-12.95
 20
15.5
 40
0.2
  0
CIRCLE
  5
4EA
100
AcDbEntity
  8
ASSI
100
AcDbCircle
 62
7
  6
CONTINUOUS
 10
-12.35
 20
15.5
 40
0.2
  0
CIRCLE
  5
4EB
100
AcDbEntity
  8
0
100
AcDbCircle
 62
7
  6
CONTINUOUS
 10
-13.55
 20
15.5
 40
0.2
  0
CIRCLE
  5
4EC
100
AcDbEntity
  8
0
100
AcDbCircle
 62
7
  6
CONTINUOUS
 10
-12.95
 20
15.5
 40
0.2
  0
CIRCLE
  5
4ED
100
AcDbEntity
  8
0
100
AcDbCircle
 62
7
  6
CONTINUOUS
 10
-12.35
 20
15.5
 40
0.2
  0
CIRCLE
  5
4EE
100
AcDbEntity
  8
ASSI
100
AcDbCircle
 62
7
  6
CONTINUOUS
 10
-13.85
 20
16.1
 40
0.2
  0
ARC
  5
4EF
100
AcDbEntity
  8
0
100
AcDbCircle
 62
7
  6
CONTINUOUS
 10
-14.45
 20
16.1
 40
0.2
100
AcDbArc
 50
297.7109859888
 51
18.8165276611
  0
CIRCLE
  5
4F0
100
AcDbEntity
  8
0
100
AcDbCircle
 62
7
  6
CONTINUOUS
 10
-13.85
 20
16.1
 40
0.2
  0
ARC
  5
4F1
100
AcDbEntity
  8
ASSI
100
AcDbCircle
 62
7
  6
CONTINUOUS
 10
-14.45
 20
16.1
 40
0.2
100
AcDbArc
 50
297.7109859888
 51
18.8165276611
  0
CIRCLE
  5
4F2
100
AcDbEntity
  8
ASSI
100
AcDbCircle
 62
7
  6
CONTINUOUS
 10
-13.55
 20
16.75
 40
0.2
  0
ARC
  5
4F3
100
AcDbEntity
  8
0
100
AcDbCircle
 62
7
  6
CONTINUOUS
 10
-13.85
 20
17.35
 40
0.2
100
AcDbArc
 50
273.5016252087
 51
1.0372183104
  0
ARC
  5
4F4
100
AcDbEntity
  8
0
100
AcDbCircle
 62
7
  6
CONTINUOUS
 10
-14.15
 20
16.75
 40
0.2
100
AcDbArc
 50
284.8643747566
 51
28.4161625738
  0
CIRCLE
  5
4F5
100
AcDbEntity
  8
0
100
AcDbCircle
 62
7
  6
CONTINUOUS
 10
-13.55
 20
16.75
 40
0.2
  0
ARC
  5
4F6
100
AcDbEntity
  8
ASSI
100
AcDbCircle
 62
7
  6
CONTINUOUS
 10
-13.85
 20
17.35
 40
0.2
100
AcDbArc
 50
273.5016252087
 51
1.0372183104
  0
ARC
  5
4F7
100
AcDbEntity
  8
ASSI
100
AcDbCircle
 62
7
  6
CONTINUOUS
 10
-14.15
 20
16.75
 40
0.2
100
AcDbArc
 50
284.8643747566
 51
28.4161625738
  0
CIRCLE
  5
4F8
100
AcDbEntity
  8
ASSI
100
AcDbCircle
 62
7
  6
CONTINUOUS
 10
-13.25
 20
16.1
 40
0.2
  0
CIRCLE
  5
4F9
100
AcDbEntity
  8
ASSI
100
AcDbCircle
 62
7
  6
CONTINUOUS
 10
-12.65
 20
16.1
 40
0.2
  0
CIRCLE
  5
4FA
100
AcDbEntity
  8
0
100
AcDbCircle
 62
7
  6
CONTINUOUS
 10
-13.25
 20
16.1
 40
0.2
  0
CIRCLE
  5
4FB
100
AcDbEntity
  8
0
100
AcDbCircle
 62
7
  6
CONTINUOUS
 10
-12.65
 20
16.1
 40
0.2
  0
CIRCLE
  5
4FC
100
AcDbEntity
  8
ASSI
100
AcDbCircle
 62
7
  6
CONTINUOUS
 10
-12.65
 20
17.35
 40
0.2
  0
CIRCLE
  5
4FD
100
AcDbEntity
  8
ASSI
100
AcDbCircle
 62
7
  6
CONTINUOUS
 10
-12.95
 20
16.75
 40
0.2
  0
CIRCLE
  5
4FE
100
AcDbEntity
  8
ASSI
100
AcDbCircle
 62
7
  6
CONTINUOUS
 10
-12.35
 20
16.75
 40
0.2
  0
ARC
  5
4FF
100
AcDbEntity
  8
0
100
AcDbCircle
 62
7
  6
CONTINUOUS
 10
-13.25
 20
17.35
 40
0.2
100
AcDbArc
 50
178.9598865211
 51
90.0029728875
  0
CIRCLE
  5
500
100
AcDbEntity
  8
0
100
AcDbCircle
 62
7
  6
CONTINUOUS
 10
-12.65
 20
17.35
 40
0.2
  0
CIRCLE
  5
501
100
AcDbEntity
  8
0
100
AcDbCircle
 62
7
  6
CONTINUOUS
 10
-12.95
 20
16.75
 40
0.2
  0
CIRCLE
  5
502
100
AcDbEntity
  8
0
100
AcDbCircle
 62
7
  6
CONTINUOUS
 10
-12.35
 20
16.75
 40
0.2
  0
ARC
  5
503
100
AcDbEntity
  8
ASSI
100
AcDbCircle
 62
7
  6
CONTINUOUS
 10
-13.25
 20
17.35
 40
0.2
100
AcDbArc
 50
178.9598865211
 51
90.0029728875
  0
CIRCLE
  5
504
100
AcDbEntity
  8
ASSI
100
AcDbCircle
 62
7
  6
CONTINUOUS
 10
-12.05
 20
14.85
 40
0.2
  0
CIRCLE
  5
505
100
AcDbEntity
  8
ASSI
100
AcDbCircle
 62
7
  6
CONTINUOUS
 10
-11.45
 20
14.85
 40
0.2
  0
CIRCLE
  5
506
100
AcDbEntity
  8
ASSI
100
AcDbCircle
 62
7
  6
CONTINUOUS
 10
-11.75
 20
14.25
 40
0.2
  0
CIRCLE
  5
507
100
AcDbEntity
  8
ASSI
100
AcDbCircle
 62
7
  6
CONTINUOUS
 10
-11.15
 20
14.25
 40
0.2
  0
CIRCLE
  5
508
100
AcDbEntity
  8
0
100
AcDbCircle
 62
7
  6
CONTINUOUS
 10
-12.05
 20
14.85
 40
0.2
  0
CIRCLE
  5
509
100
AcDbEntity
  8
0
100
AcDbCircle
 62
7
  6
CONTINUOUS
 10
-11.45
 20
14.85
 40
0.2
  0
CIRCLE
  5
50A
100
AcDbEntity
  8
0
100
AcDbCircle
 62
7
  6
CONTINUOUS
 10
-11.75
 20
14.25
 40
0.2
  0
CIRCLE
  5
50B
100
AcDbEntity
  8
0
100
AcDbCircle
 62
7
  6
CONTINUOUS
 10
-11.15
 20
14.25
 40
0.2
  0
CIRCLE
  5
50C
100
AcDbEntity
  8
ASSI
100
AcDbCircle
 62
7
  6
CONTINUOUS
 10
-11.75
 20
15.5
 40
0.2
  0
CIRCLE
  5
50D
100
AcDbEntity
  8
ASSI
100
AcDbCircle
 62
7
  6
CONTINUOUS
 10
-11.15
 20
15.5
 40
0.2
  0
CIRCLE
  5
50E
100
AcDbEntity
  8
0
100
AcDbCircle
 62
7
  6
CONTINUOUS
 10
-11.75
 20
15.5
 40
0.2
  0
CIRCLE
  5
50F
100
AcDbEntity
  8
0
100
AcDbCircle
 62
7
  6
CONTINUOUS
 10
-11.15
 20
15.5
 40
0.2
  0
CIRCLE
  5
510
100
AcDbEntity
  8
ASSI
100
AcDbCircle
 62
7
  6
CONTINUOUS
 10
-10.85
 20
14.85
 40
0.2
  0
CIRCLE
  5
511
100
AcDbEntity
  8
ASSI
100
AcDbCircle
 62
7
  6
CONTINUOUS
 10
-10.25
 20
14.85
 40
0.2
  0
CIRCLE
  5
512
100
AcDbEntity
  8
ASSI
100
AcDbCircle
 62
7
  6
CONTINUOUS
 10
-9.65
 20
14.85
 40
0.2
  0
CIRCLE
  5
513
100
AcDbEntity
  8
ASSI
100
AcDbCircle
 62
7
  6
CONTINUOUS
 10
-10.55
 20
14.25
 40
0.2
  0
CIRCLE
  5
514
100
AcDbEntity
  8
ASSI
100
AcDbCircle
 62
7
  6
CONTINUOUS
 10
-9.95
 20
14.25
 40
0.2
  0
CIRCLE
  5
515
100
AcDbEntity
  8
0
100
AcDbCircle
 62
7
  6
CONTINUOUS
 10
-10.85
 20
14.85
 40
0.2
  0
CIRCLE
  5
516
100
AcDbEntity
  8
0
100
AcDbCircle
 62
7
  6
CONTINUOUS
 10
-10.25
 20
14.85
 40
0.2
  0
CIRCLE
  5
517
100
AcDbEntity
  8
0
100
AcDbCircle
 62
7
  6
CONTINUOUS
 10
-9.65
 20
14.85
 40
0.2
  0
CIRCLE
  5
518
100
AcDbEntity
  8
0
100
AcDbCircle
 62
7
  6
CONTINUOUS
 10
-10.55
 20
14.25
 40
0.2
  0
CIRCLE
  5
519
100
AcDbEntity
  8
0
100
AcDbCircle
 62
7
  6
CONTINUOUS
 10
-9.95
 20
14.25
 40
0.2
  0
CIRCLE
  5
51A
100
AcDbEntity
  8
ASSI
100
AcDbCircle
 62
7
  6
CONTINUOUS
 10
-10.55
 20
15.5
 40
0.2
  0
CIRCLE
  5
51B
100
AcDbEntity
  8
ASSI
100
AcDbCircle
 62
7
  6
CONTINUOUS
 10
-9.95
 20
15.5
 40
0.2
  0
CIRCLE
  5
51C
100
AcDbEntity
  8
0
100
AcDbCircle
 62
7
  6
CONTINUOUS
 10
-10.55
 20
15.5
 40
0.2
  0
CIRCLE
  5
51D
100
AcDbEntity
  8
0
100
AcDbCircle
 62
7
  6
CONTINUOUS
 10
-9.95
 20
15.5
 40
0.2
  0
CIRCLE
  5
51E
100
AcDbEntity
  8
ASSI
100
AcDbCircle
 62
7
  6
CONTINUOUS
 10
-12.05
 20
16.1
 40
0.2
  0
CIRCLE
  5
51F
100
AcDbEntity
  8
ASSI
100
AcDbCircle
 62
7
  6
CONTINUOUS
 10
-11.45
 20
16.1
 40
0.2
  0
CIRCLE
  5
520
100
AcDbEntity
  8
0
100
AcDbCircle
 62
7
  6
CONTINUOUS
 10
-12.05
 20
16.1
 40
0.2
  0
CIRCLE
  5
521
100
AcDbEntity
  8
0
100
AcDbCircle
 62
7
  6
CONTINUOUS
 10
-11.45
 20
16.1
 40
0.2
  0
CIRCLE
  5
522
100
AcDbEntity
  8
ASSI
100
AcDbCircle
 62
7
  6
CONTINUOUS
 10
-12.05
 20
17.35
 40
0.2
  0
CIRCLE
  5
523
100
AcDbEntity
  8
ASSI
100
AcDbCircle
 62
7
  6
CONTINUOUS
 10
-11.45
 20
17.35
 40
0.2
  0
CIRCLE
  5
524
100
AcDbEntity
  8
ASSI
100
AcDbCircle
 62
7
  6
CONTINUOUS
 10
-11.75
 20
16.75
 40
0.2
  0
CIRCLE
  5
525
100
AcDbEntity
  8
ASSI
100
AcDbCircle
 62
7
  6
CONTINUOUS
 10
-11.15
 20
16.75
 40
0.2
  0
CIRCLE
  5
526
100
AcDbEntity
  8
0
100
AcDbCircle
 62
7
  6
CONTINUOUS
 10
-12.05
 20
17.35
 40
0.2
  0
CIRCLE
  5
527
100
AcDbEntity
  8
0
100
AcDbCircle
 62
7
  6
CONTINUOUS
 10
-11.45
 20
17.35
 40
0.2
  0
CIRCLE
  5
528
100
AcDbEntity
  8
0
100
AcDbCircle
 62
7
  6
CONTINUOUS
 10
-11.75
 20
16.75
 40
0.2
  0
CIRCLE
  5
529
100
AcDbEntity
  8
0
100
AcDbCircle
 62
7
  6
CONTINUOUS
 10
-11.15
 20
16.75
 40
0.2
  0
CIRCLE
  5
52A
100
AcDbEntity
  8
ASSI
100
AcDbCircle
 62
7
  6
CONTINUOUS
 10
-10.85
 20
16.1
 40
0.2
  0
CIRCLE
  5
52B
100
AcDbEntity
  8
ASSI
100
AcDbCircle
 62
7
  6
CONTINUOUS
 10
-10.25
 20
16.1
 40
0.2
  0
CIRCLE
  5
52C
100
AcDbEntity
  8
ASSI
100
AcDbCircle
 62
7
  6
CONTINUOUS
 10
-9.65
 20
16.1
 40
0.2
  0
CIRCLE
  5
52D
100
AcDbEntity
  8
0
100
AcDbCircle
 62
7
  6
CONTINUOUS
 10
-10.85
 20
16.1
 40
0.2
  0
CIRCLE
  5
52E
100
AcDbEntity
  8
0
100
AcDbCircle
 62
7
  6
CONTINUOUS
 10
-10.25
 20
16.1
 40
0.2
  0
CIRCLE
  5
52F
100
AcDbEntity
  8
0
100
AcDbCircle
 62
7
  6
CONTINUOUS
 10
-9.65
 20
16.1
 40
0.2
  0
CIRCLE
  5
530
100
AcDbEntity
  8
ASSI
100
AcDbCircle
 62
7
  6
CONTINUOUS
 10
-10.85
 20
17.35
 40
0.2
  0
CIRCLE
  5
531
100
AcDbEntity
  8
ASSI
100
AcDbCircle
 62
7
  6
CONTINUOUS
 10
-10.25
 20
17.35
 40
0.2
  0
CIRCLE
  5
532
100
AcDbEntity
  8
ASSI
100
AcDbCircle
 62
7
  6
CONTINUOUS
 10
-9.65
 20
17.35
 40
0.2
  0
CIRCLE
  5
533
100
AcDbEntity
  8
ASSI
100
AcDbCircle
 62
7
  6
CONTINUOUS
 10
-10.55
 20
16.75
 40
0.2
  0
CIRCLE
  5
534
100
AcDbEntity
  8
ASSI
100
AcDbCircle
 62
7
  6
CONTINUOUS
 10
-9.95
 20
16.75
 40
0.2
  0
CIRCLE
  5
535
100
AcDbEntity
  8
0
100
AcDbCircle
 62
7
  6
CONTINUOUS
 10
-10.85
 20
17.35
 40
0.2
  0
CIRCLE
  5
536
100
AcDbEntity
  8
0
100
AcDbCircle
 62
7
  6
CONTINUOUS
 10
-10.25
 20
17.35
 40
0.2
  0
CIRCLE
  5
537
100
AcDbEntity
  8
0
100
AcDbCircle
 62
7
  6
CONTINUOUS
 10
-9.65
 20
17.35
 40
0.2
  0
CIRCLE
  5
538
100
AcDbEntity
  8
0
100
AcDbCircle
 62
7
  6
CONTINUOUS
 10
-10.55
 20
16.75
 40
0.2
  0
CIRCLE
  5
539
100
AcDbEntity
  8
0
100
AcDbCircle
 62
7
  6
CONTINUOUS
 10
-9.95
 20
16.75
 40
0.2
  0
CIRCLE
  5
53A
100
AcDbEntity
  8
ASSI
100
AcDbCircle
 62
7
  6
CONTINUOUS
 10
-12.95
 20
18.0
 40
0.2
  0
ARC
  5
53B
100
AcDbEntity
  8
0
100
AcDbCircle
 62
7
  6
CONTINUOUS
 10
-13.55
 20
18.0
 40
0.2
100
AcDbArc
 50
328.7804121126
 51
31.3542301506
  0
CIRCLE
  5
53C
100
AcDbEntity
  8
0
100
AcDbCircle
 62
7
  6
CONTINUOUS
 10
-12.95
 20
18.0
 40
0.2
  0
ARC
  5
53D
100
AcDbEntity
  8
ASSI
100
AcDbCircle
 62
7
  6
CONTINUOUS
 10
-13.55
 20
18.0
 40
0.2
100
AcDbArc
 50
328.7804121126
 51
31.3542301506
  0
ARC
  5
53E
100
AcDbEntity
  8
0
100
AcDbCircle
 62
7
  6
CONTINUOUS
 10
-13.25
 20
18.6
 40
0.2
100
AcDbArc
 50
276.9319198822
 51
27.0593054478
  0
ARC
  5
53F
100
AcDbEntity
  8
ASSI
100
AcDbCircle
 62
7
  6
CONTINUOUS
 10
-13.25
 20
18.6
 40
0.2
100
AcDbArc
 50
276.9319198822
 51
27.0593054478
  0
CIRCLE
  5
540
100
AcDbEntity
  8
ASSI
100
AcDbCircle
 62
7
  6
CONTINUOUS
 10
-12.35
 20
18.0
 40
0.2
  0
CIRCLE
  5
541
100
AcDbEntity
  8
ASSI
100
AcDbCircle
 62
7
  6
CONTINUOUS
 10
-11.75
 20
18.0
 40
0.2
  0
CIRCLE
  5
542
100
AcDbEntity
  8
0
100
AcDbCircle
 62
7
  6
CONTINUOUS
 10
-12.35
 20
18.0
 40
0.2
  0
CIRCLE
  5
543
100
AcDbEntity
  8
0
100
AcDbCircle
 62
7
  6
CONTINUOUS
 10
-11.75
 20
18.0
 40
0.2
  0
CIRCLE
  5
544
100
AcDbEntity
  8
ASSI
100
AcDbCircle
 62
7
  6
CONTINUOUS
 10
-12.65
 20
18.6
 40
0.2
  0
CIRCLE
  5
545
100
AcDbEntity
  8
ASSI
100
AcDbCircle
 62
7
  6
CONTINUOUS
 10
-12.05
 20
18.6
 40
0.2
  0
CIRCLE
  5
546
100
AcDbEntity
  8
0
100
AcDbCircle
 62
7
  6
CONTINUOUS
 10
-12.65
 20
18.6
 40
0.2
  0
CIRCLE
  5
547
100
AcDbEntity
  8
0
100
AcDbCircle
 62
7
  6
CONTINUOUS
 10
-12.05
 20
18.6
 40
0.2
  0
CIRCLE
  5
548
100
AcDbEntity
  8
ASSI
100
AcDbCircle
 62
7
  6
CONTINUOUS
 10
-12.05
 20
19.85
 40
0.2
  0
CIRCLE
  5
549
100
AcDbEntity
  8
ASSI
100
AcDbCircle
 62
7
  6
CONTINUOUS
 10
-12.35
 20
19.25
 40
0.2
  0
CIRCLE
  5
54A
100
AcDbEntity
  8
ASSI
100
AcDbCircle
 62
7
  6
CONTINUOUS
 10
-11.75
 20
19.25
 40
0.2
  0
CIRCLE
  5
54B
100
AcDbEntity
  8
0
100
AcDbCircle
 62
7
  6
CONTINUOUS
 10
-12.05
 20
19.85
 40
0.2
  0
ARC
  5
54C
100
AcDbEntity
  8
0
100
AcDbCircle
 62
7
  6
CONTINUOUS
 10
-11.75
 20
20.5
 40
0.2
100
AcDbArc
 50
214.7834498972
 51
21.5739683202
  0
ARC
  5
54D
100
AcDbEntity
  8
0
100
AcDbCircle
 62
7
  6
CONTINUOUS
 10
-12.95
 20
19.25
 40
0.2
100
AcDbArc
 50
296.0952500298
 51
4.8858760437
  0
CIRCLE
  5
54E
100
AcDbEntity
  8
0
100
AcDbCircle
 62
7
  6
CONTINUOUS
 10
-12.35
 20
19.25
 40
0.2
  0
CIRCLE
  5
54F
100
AcDbEntity
  8
0
100
AcDbCircle
 62
7
  6
CONTINUOUS
 10
-11.75
 20
19.25
 40
0.2
  0
ARC
  5
550
100
AcDbEntity
  8
ASSI
100
AcDbCircle
 62
7
  6
CONTINUOUS
 10
-11.75
 20
20.5
 40
0.2
100
AcDbArc
 50
214.7834498972
 51
21.5739683202
  0
ARC
  5
551
100
AcDbEntity
  8
ASSI
100
AcDbCircle
 62
7
  6
CONTINUOUS
 10
-12.95
 20
19.25
 40
0.2
100
AcDbArc
 50
296.0952500298
 51
4.8858760437
  0
CIRCLE
  5
552
100
AcDbEntity
  8
ASSI
100
AcDbCircle
 62
7
  6
CONTINUOUS
 10
-11.15
 20
18.0
 40
0.2
  0
CIRCLE
  5
553
100
AcDbEntity
  8
0
100
AcDbCircle
 62
7
  6
CONTINUOUS
 10
-11.15
 20
18.0
 40
0.2
  0
ARC
  5
554
100
AcDbEntity
  8
DRAFT
100
AcDbCircle
 62
7
  6
CONTINUOUS
 10
-10.9590120209
 20
19.0248446784
 40
1.6822942035
100
AcDbArc
 50
89.9440480607
 51
148.3883875915
  0
ARC
  5
555
100
AcDbEntity
  8
DRAFT
100
AcDbCircle
 62
7
  6
CONTINUOUS
 10
-10.9597438256
 20
19.0247536899
 40
1.6628952795
100
AcDbArc
 50
89.918180671
 51
148.3721185522
  0
CIRCLE
  5
556
100
AcDbEntity
  8
ASSI
100
AcDbCircle
 62
7
  6
CONTINUOUS
 10
-11.45
 20
18.6
 40
0.2
  0
CIRCLE
  5
557
100
AcDbEntity
  8
ASSI
100
AcDbCircle
 62
7
  6
CONTINUOUS
 10
-10.85
 20
18.6
 40
0.2
  0
CIRCLE
  5
558
100
AcDbEntity
  8
0
100
AcDbCircle
 62
7
  6
CONTINUOUS
 10
-11.45
 20
18.6
 40
0.2
  0
CIRCLE
  5
559
100
AcDbEntity
  8
0
100
AcDbCircle
 62
7
  6
CONTINUOUS
 10
-10.85
 20
18.6
 40
0.2
  0
CIRCLE
  5
55A
100
AcDbEntity
  8
ASSI
100
AcDbCircle
 62
7
  6
CONTINUOUS
 10
-10.55
 20
18.0
 40
0.2
  0
CIRCLE
  5
55B
100
AcDbEntity
  8
ASSI
100
AcDbCircle
 62
7
  6
CONTINUOUS
 10
-9.95
 20
18.0
 40
0.2
  0
CIRCLE
  5
55C
100
AcDbEntity
  8
0
100
AcDbCircle
 62
7
  6
CONTINUOUS
 10
-10.55
 20
18.0
 40
0.2
  0
CIRCLE
  5
55D
100
AcDbEntity
  8
0
100
AcDbCircle
 62
7
  6
CONTINUOUS
 10
-9.95
 20
18.0
 40
0.2
  0
CIRCLE
  5
55E
100
AcDbEntity
  8
ASSI
100
AcDbCircle
 62
7
  6
CONTINUOUS
 10
-10.25
 20
18.6
 40
0.2
  0
CIRCLE
  5
55F
100
AcDbEntity
  8
ASSI
100
AcDbCircle
 62
7
  6
CONTINUOUS
 10
-9.65
 20
18.6
 40
0.2
  0
CIRCLE
  5
560
100
AcDbEntity
  8
0
100
AcDbCircle
 62
7
  6
CONTINUOUS
 10
-10.25
 20
18.6
 40
0.2
  0
CIRCLE
  5
561
100
AcDbEntity
  8
0
100
AcDbCircle
 62
7
  6
CONTINUOUS
 10
-9.65
 20
18.6
 40
0.2
  0
CIRCLE
  5
562
100
AcDbEntity
  8
ASSI
100
AcDbCircle
 62
7
  6
CONTINUOUS
 10
-11.45
 20
19.85
 40
0.2
  0
CIRCLE
  5
563
100
AcDbEntity
  8
ASSI
100
AcDbCircle
 62
7
  6
CONTINUOUS
 10
-10.85
 20
19.85
 40
0.2
  0
CIRCLE
  5
564
100
AcDbEntity
  8
ASSI
100
AcDbCircle
 62
7
  6
CONTINUOUS
 10
-11.15
 20
19.25
 40
0.2
  0
CIRCLE
  5
565
100
AcDbEntity
  8
0
100
AcDbCircle
 62
7
  6
CONTINUOUS
 10
-11.45
 20
19.85
 40
0.2
  0
CIRCLE
  5
566
100
AcDbEntity
  8
0
100
AcDbCircle
 62
7
  6
CONTINUOUS
 10
-10.85
 20
19.85
 40
0.2
  0
CIRCLE
  5
567
100
AcDbEntity
  8
0
100
AcDbCircle
 62
7
  6
CONTINUOUS
 10
-11.15
 20
19.25
 40
0.2
  0
ARC
  5
568
100
AcDbEntity
  8
0
100
AcDbCircle
 62
7
  6
CONTINUOUS
 10
-11.15
 20
20.5
 40
0.2
100
AcDbArc
 50
128.1067886093
 51
66.6287679193
  0
ARC
  5
569
100
AcDbEntity
  8
ASSI
100
AcDbCircle
 62
7
  6
CONTINUOUS
 10
-11.15
 20
20.5
 40
0.2
100
AcDbArc
 50
128.1067886093
 51
66.6287679193
  0
CIRCLE
  5
56A
100
AcDbEntity
  8
ASSI
100
AcDbCircle
 62
7
  6
CONTINUOUS
 10
-10.25
 20
19.85
 40
0.2
  0
CIRCLE
  5
56B
100
AcDbEntity
  8
ASSI
100
AcDbCircle
 62
7
  6
CONTINUOUS
 10
-9.65
 20
19.85
 40
0.2
  0
CIRCLE
  5
56C
100
AcDbEntity
  8
ASSI
100
AcDbCircle
 62
7
  6
CONTINUOUS
 10
-10.55
 20
19.25
 40
0.2
  0
CIRCLE
  5
56D
100
AcDbEntity
  8
ASSI
100
AcDbCircle
 62
7
  6
CONTINUOUS
 10
-9.95
 20
19.25
 40
0.2
  0
CIRCLE
  5
56E
100
AcDbEntity
  8
0
100
AcDbCircle
 62
7
  6
CONTINUOUS
 10
-10.25
 20
19.85
 40
0.2
  0
CIRCLE
  5
56F
100
AcDbEntity
  8
0
100
AcDbCircle
 62
7
  6
CONTINUOUS
 10
-9.65
 20
19.85
 40
0.2
  0
CIRCLE
  5
570
100
AcDbEntity
  8
0
100
AcDbCircle
 62
7
  6
CONTINUOUS
 10
-10.55
 20
19.25
 40
0.2
  0
CIRCLE
  5
571
100
AcDbEntity
  8
0
100
AcDbCircle
 62
7
  6
CONTINUOUS
 10
-9.95
 20
19.25
 40
0.2
  0
ARC
  5
572
100
AcDbEntity
  8
0
100
AcDbCircle
 62
7
  6
CONTINUOUS
 10
-10.55
 20
20.5
 40
0.2
100
AcDbArc
 50
110.4979329487
 51
69.3768044828
  0
ARC
  5
573
100
AcDbEntity
  8
0
100
AcDbCircle
 62
7
  6
CONTINUOUS
 10
-9.95
 20
20.5
 40
0.2
100
AcDbArc
 50
111.161324037
 51
68.7306504058
  0
ARC
  5
574
100
AcDbEntity
  8
ASSI
100
AcDbCircle
 62
7
  6
CONTINUOUS
 10
-10.55
 20
20.5
 40
0.2
100
AcDbArc
 50
110.4979329487
 51
69.3768044828
  0
ARC
  5
575
100
AcDbEntity
  8
ASSI
100
AcDbCircle
 62
7
  6
CONTINUOUS
 10
-9.95
 20
20.5
 40
0.2
100
AcDbArc
 50
111.161324037
 51
68.7306504058
  0
CIRCLE
  5
576
100
AcDbEntity
  8
ASSI
100
AcDbCircle
 62
7
  6
CONTINUOUS
 10
-9.35
 20
15.5
 40
0.2
  0
CIRCLE
  5
577
100
AcDbEntity
  8
ASSI
100
AcDbCircle
 62
7
  6
CONTINUOUS
 10
-9.05
 20
14.85
 40
0.2
  0
CIRCLE
  5
578
100
AcDbEntity
  8
ASSI
100
AcDbCircle
 62
7
  6
CONTINUOUS
 10
-8.75
 20
15.5
 40
0.2
  0
CIRCLE
  5
579
100
AcDbEntity
  8
ASSI
100
AcDbCircle
 62
7
  6
CONTINUOUS
 10
-8.45
 20
14.85
 40
0.2
  0
CIRCLE
  5
57A
100
AcDbEntity
  8
ASSI
100
AcDbCircle
 62
7
  6
CONTINUOUS
 10
-9.35
 20
14.25
 40
0.2
  0
CIRCLE
  5
57B
100
AcDbEntity
  8
ASSI
100
AcDbCircle
 62
7
  6
CONTINUOUS
 10
-8.75
 20
14.25
 40
0.2
  0
CIRCLE
  5
57C
100
AcDbEntity
  8
0
100
AcDbCircle
 62
7
  6
CONTINUOUS
 10
-9.35
 20
15.5
 40
0.2
  0
CIRCLE
  5
57D
100
AcDbEntity
  8
0
100
AcDbCircle
 62
7
  6
CONTINUOUS
 10
-9.05
 20
14.85
 40
0.2
  0
CIRCLE
  5
57E
100
AcDbEntity
  8
0
100
AcDbCircle
 62
7
  6
CONTINUOUS
 10
-8.75
 20
15.5
 40
0.2
  0
CIRCLE
  5
57F
100
AcDbEntity
  8
0
100
AcDbCircle
 62
7
  6
CONTINUOUS
 10
-8.45
 20
14.85
 40
0.2
  0
CIRCLE
  5
580
100
AcDbEntity
  8
0
100
AcDbCircle
 62
7
  6
CONTINUOUS
 10
-9.35
 20
14.25
 40
0.2
  0
CIRCLE
  5
581
100
AcDbEntity
  8
0
100
AcDbCircle
 62
7
  6
CONTINUOUS
 10
-8.75
 20
14.25
 40
0.2
  0
CIRCLE
  5
582
100
AcDbEntity
  8
ASSI
100
AcDbCircle
 62
7
  6
CONTINUOUS
 10
-9.05
 20
17.35
 40
0.2
  0
CIRCLE
  5
583
100
AcDbEntity
  8
ASSI
100
AcDbCircle
 62
7
  6
CONTINUOUS
 10
-8.45
 20
17.35
 40
0.2
  0
CIRCLE
  5
584
100
AcDbEntity
  8
ASSI
100
AcDbCircle
 62
7
  6
CONTINUOUS
 10
-9.35
 20
16.75
 40
0.2
  0
CIRCLE
  5
585
100
AcDbEntity
  8
ASSI
100
AcDbCircle
 62
7
  6
CONTINUOUS
 10
-9.05
 20
16.1
 40
0.2
  0
CIRCLE
  5
586
100
AcDbEntity
  8
ASSI
100
AcDbCircle
 62
7
  6
CONTINUOUS
 10
-8.75
 20
16.75
 40
0.2
  0
CIRCLE
  5
587
100
AcDbEntity
  8
ASSI
100
AcDbCircle
 62
7
  6
CONTINUOUS
 10
-8.45
 20
16.1
 40
0.2
  0
CIRCLE
  5
588
100
AcDbEntity
  8
0
100
AcDbCircle
 62
7
  6
CONTINUOUS
 10
-9.05
 20
17.35
 40
0.2
  0
CIRCLE
  5
589
100
AcDbEntity
  8
0
100
AcDbCircle
 62
7
  6
CONTINUOUS
 10
-8.45
 20
17.35
 40
0.2
  0
CIRCLE
  5
58A
100
AcDbEntity
  8
0
100
AcDbCircle
 62
7
  6
CONTINUOUS
 10
-9.35
 20
16.75
 40
0.2
  0
CIRCLE
  5
58B
100
AcDbEntity
  8
0
100
AcDbCircle
 62
7
  6
CONTINUOUS
 10
-9.05
 20
16.1
 40
0.2
  0
CIRCLE
  5
58C
100
AcDbEntity
  8
0
100
AcDbCircle
 62
7
  6
CONTINUOUS
 10
-8.75
 20
16.75
 40
0.2
  0
CIRCLE
  5
58D
100
AcDbEntity
  8
0
100
AcDbCircle
 62
7
  6
CONTINUOUS
 10
-8.45
 20
16.1
 40
0.2
  0
CIRCLE
  5
58E
100
AcDbEntity
  8
ASSI
100
AcDbCircle
 62
7
  6
CONTINUOUS
 10
-8.15
 20
15.5
 40
0.2
  0
CIRCLE
  5
58F
100
AcDbEntity
  8
ASSI
100
AcDbCircle
 62
7
  6
CONTINUOUS
 10
-7.85
 20
14.85
 40
0.2
  0
CIRCLE
  5
590
100
AcDbEntity
  8
ASSI
100
AcDbCircle
 62
7
  6
CONTINUOUS
 10
-7.55
 20
15.5
 40
0.2
  0
CIRCLE
  5
591
100
AcDbEntity
  8
ASSI
100
AcDbCircle
 62
7
  6
CONTINUOUS
 10
-8.15
 20
14.25
 40
0.2
  0
CIRCLE
  5
592
100
AcDbEntity
  8
ASSI
100
AcDbCircle
 62
7
  6
CONTINUOUS
 10
-7.55
 20
14.25
 40
0.2
  0
CIRCLE
  5
593
100
AcDbEntity
  8
0
100
AcDbCircle
 62
7
  6
CONTINUOUS
 10
-8.15
 20
15.5
 40
0.2
  0
CIRCLE
  5
594
100
AcDbEntity
  8
0
100
AcDbCircle
 62
7
  6
CONTINUOUS
 10
-7.85
 20
14.85
 40
0.2
  0
CIRCLE
  5
595
100
AcDbEntity
  8
0
100
AcDbCircle
 62
7
  6
CONTINUOUS
 10
-7.55
 20
15.5
 40
0.2
  0
ARC
  5
596
100
AcDbEntity
  8
0
100
AcDbCircle
 62
7
  6
CONTINUOUS
 10
-7.25
 20
14.85
 40
0.2
100
AcDbArc
 50
90.0002050251
 51
270.0002059095
  0
CIRCLE
  5
597
100
AcDbEntity
  8
0
100
AcDbCircle
 62
7
  6
CONTINUOUS
 10
-8.15
 20
14.25
 40
0.2
  0
CIRCLE
  5
598
100
AcDbEntity
  8
0
100
AcDbCircle
 62
7
  6
CONTINUOUS
 10
-7.55
 20
14.25
 40
0.2
  0
ARC
  5
599
100
AcDbEntity
  8
ASSI
100
AcDbCircle
 62
7
  6
CONTINUOUS
 10
-7.25
 20
14.85
 40
0.2
100
AcDbArc
 50
90.0002050251
 51
270.0002059095
  0
CIRCLE
  5
59A
100
AcDbEntity
  8
ASSI
100
AcDbCircle
 62
7
  6
CONTINUOUS
 10
-7.85
 20
17.35
 40
0.2
  0
CIRCLE
  5
59B
100
AcDbEntity
  8
ASSI
100
AcDbCircle
 62
7
  6
CONTINUOUS
 10
-8.15
 20
16.75
 40
0.2
  0
CIRCLE
  5
59C
100
AcDbEntity
  8
ASSI
100
AcDbCircle
 62
7
  6
CONTINUOUS
 10
-7.85
 20
16.1
 40
0.2
  0
CIRCLE
  5
59D
100
AcDbEntity
  8
ASSI
100
AcDbCircle
 62
7
  6
CONTINUOUS
 10
-7.55
 20
16.75
 40
0.2
  0
CIRCLE
  5
59E
100
AcDbEntity
  8
0
100
AcDbCircle
 62
7
  6
CONTINUOUS
 10
-7.85
 20
17.35
 40
0.2
  0
ARC
  5
59F
100
AcDbEntity
  8
0
100
AcDbCircle
 62
7
  6
CONTINUOUS
 10
-7.25
 20
17.35
 40
0.2
100
AcDbArc
 50
90.0017032072
 51
270.0014752935
  0
CIRCLE
  5
5A0
100
AcDbEntity
  8
0
100
AcDbCircle
 62
7
  6
CONTINUOUS
 10
-8.15
 20
16.75
 40
0.2
  0
CIRCLE
  5
5A1
100
AcDbEntity
  8
0
100
AcDbCircle
 62
7
  6
CONTINUOUS
 10
-7.85
 20
16.1
 40
0.2
  0
CIRCLE
  5
5A2
100
AcDbEntity
  8
0
100
AcDbCircle
 62
7
  6
CONTINUOUS
 10
-7.55
 20
16.75
 40
0.2
  0
ARC
  5
5A3
100
AcDbEntity
  8
0
100
AcDbCircle
 62
7
  6
CONTINUOUS
 10
-7.25
 20
16.1
 40
0.2
100
AcDbArc
 50
90.0008402417
 51
270.0007107338
  0
ARC
  5
5A4
100
AcDbEntity
  8
ASSI
100
AcDbCircle
 62
7
  6
CONTINUOUS
 10
-7.25
 20
17.35
 40
0.2
100
AcDbArc
 50
90.0017032072
 51
270.0014752935
  0
ARC
  5
5A5
100
AcDbEntity
  8
ASSI
100
AcDbCircle
 62
7
  6
CONTINUOUS
 10
-7.25
 20
16.1
 40
0.2
100
AcDbArc
 50
90.0008402417
 51
270.0007107338
  0
CIRCLE
  5
5A6
100
AcDbEntity
  8
ASSI
100
AcDbCircle
 62
7
  6
CONTINUOUS
 10
-9.35
 20
18.0
 40
0.2
  0
CIRCLE
  5
5A7
100
AcDbEntity
  8
ASSI
100
AcDbCircle
 62
7
  6
CONTINUOUS
 10
-8.75
 20
18.0
 40
0.2
  0
CIRCLE
  5
5A8
100
AcDbEntity
  8
0
100
AcDbCircle
 62
7
  6
CONTINUOUS
 10
-9.35
 20
18.0
 40
0.2
  0
CIRCLE
  5
5A9
100
AcDbEntity
  8
0
100
AcDbCircle
 62
7
  6
CONTINUOUS
 10
-8.75
 20
18.0
 40
0.2
  0
CIRCLE
  5
5AA
100
AcDbEntity
  8
ASSI
100
AcDbCircle
 62
7
  6
CONTINUOUS
 10
-9.05
 20
18.6
 40
0.2
  0
CIRCLE
  5
5AB
100
AcDbEntity
  8
ASSI
100
AcDbCircle
 62
7
  6
CONTINUOUS
 10
-8.45
 20
18.6
 40
0.2
  0
CIRCLE
  5
5AC
100
AcDbEntity
  8
0
100
AcDbCircle
 62
7
  6
CONTINUOUS
 10
-9.05
 20
18.6
 40
0.2
  0
CIRCLE
  5
5AD
100
AcDbEntity
  8
0
100
AcDbCircle
 62
7
  6
CONTINUOUS
 10
-8.45
 20
18.6
 40
0.2
  0
CIRCLE
  5
5AE
100
AcDbEntity
  8
ASSI
100
AcDbCircle
 62
7
  6
CONTINUOUS
 10
-8.15
 20
18.0
 40
0.2
  0
CIRCLE
  5
5AF
100
AcDbEntity
  8
ASSI
100
AcDbCircle
 62
7
  6
CONTINUOUS
 10
-7.55
 20
18.0
 40
0.2
  0
CIRCLE
  5
5B0
100
AcDbEntity
  8
0
100
AcDbCircle
 62
7
  6
CONTINUOUS
 10
-8.15
 20
18.0
 40
0.2
  0
CIRCLE
  5
5B1
100
AcDbEntity
  8
0
100
AcDbCircle
 62
7
  6
CONTINUOUS
 10
-7.55
 20
18.0
 40
0.2
  0
CIRCLE
  5
5B2
100
AcDbEntity
  8
ASSI
100
AcDbCircle
 62
7
  6
CONTINUOUS
 10
-7.85
 20
18.6
 40
0.2
  0
CIRCLE
  5
5B3
100
AcDbEntity
  8
0
100
AcDbCircle
 62
7
  6
CONTINUOUS
 10
-7.85
 20
18.6
 40
0.2
  0
ARC
  5
5B4
100
AcDbEntity
  8
0
100
AcDbCircle
 62
7
  6
CONTINUOUS
 10
-7.25
 20
18.6
 40
0.2
100
AcDbArc
 50
90.0026477778
 51
270.0023559509
  0
ARC
  5
5B5
100
AcDbEntity
  8
ASSI
100
AcDbCircle
 62
7
  6
CONTINUOUS
 10
-7.25
 20
18.6
 40
0.2
100
AcDbArc
 50
90.0026477778
 51
270.0023559509
  0
CIRCLE
  5
5B6
100
AcDbEntity
  8
ASSI
100
AcDbCircle
 62
7
  6
CONTINUOUS
 10
-9.05
 20
19.85
 40
0.2
  0
CIRCLE
  5
5B7
100
AcDbEntity
  8
ASSI
100
AcDbCircle
 62
7
  6
CONTINUOUS
 10
-8.45
 20
19.85
 40
0.2
  0
CIRCLE
  5
5B8
100
AcDbEntity
  8
ASSI
100
AcDbCircle
 62
7
  6
CONTINUOUS
 10
-9.35
 20
19.25
 40
0.2
  0
CIRCLE
  5
5B9
100
AcDbEntity
  8
ASSI
100
AcDbCircle
 62
7
  6
CONTINUOUS
 10
-8.75
 20
19.25
 40
0.2
  0
CIRCLE
  5
5BA
100
AcDbEntity
  8
0
100
AcDbCircle
 62
7
  6
CONTINUOUS
 10
-9.05
 20
19.85
 40
0.2
  0
CIRCLE
  5
5BB
100
AcDbEntity
  8
0
100
AcDbCircle
 62
7
  6
CONTINUOUS
 10
-8.45
 20
19.85
 40
0.2
  0
CIRCLE
  5
5BC
100
AcDbEntity
  8
0
100
AcDbCircle
 62
7
  6
CONTINUOUS
 10
-9.35
 20
19.25
 40
0.2
  0
CIRCLE
  5
5BD
100
AcDbEntity
  8
0
100
AcDbCircle
 62
7
  6
CONTINUOUS
 10
-8.75
 20
19.25
 40
0.2
  0
ARC
  5
5BE
100
AcDbEntity
  8
0
100
AcDbCircle
 62
7
  6
CONTINUOUS
 10
-9.35
 20
20.5
 40
0.2
100
AcDbArc
 50
349.0932520273
 51
10.8559334145
  0
ARC
  5
5BF
100
AcDbEntity
  8
0
100
AcDbCircle
 62
7
  6
CONTINUOUS
 10
-8.75
 20
20.5
 40
0.2
100
AcDbArc
 50
112.2734604924
 51
67.5306635293
  0
ARC
  5
5C0
100
AcDbEntity
  8
ASSI
100
AcDbCircle
 62
7
  6
CONTINUOUS
 10
-9.35
 20
20.5
 40
0.2
100
AcDbArc
 50
349.0932520273
 51
10.8559334145
  0
ARC
  5
5C1
100
AcDbEntity
  8
ASSI
100
AcDbCircle
 62
7
  6
CONTINUOUS
 10
-8.75
 20
20.5
 40
0.2
100
AcDbArc
 50
112.2734604924
 51
67.5306635293
  0
CIRCLE
  5
5C2
100
AcDbEntity
  8
ASSI
100
AcDbCircle
 62
7
  6
CONTINUOUS
 10
-7.85
 20
19.85
 40
0.2
  0
CIRCLE
  5
5C3
100
AcDbEntity
  8
ASSI
100
AcDbCircle
 62
7
  6
CONTINUOUS
 10
-8.15
 20
19.25
 40
0.2
  0
CIRCLE
  5
5C4
100
AcDbEntity
  8
ASSI
100
AcDbCircle
 62
7
  6
CONTINUOUS
 10
-7.55
 20
19.25
 40
0.2
  0
CIRCLE
  5
5C5
100
AcDbEntity
  8
0
100
AcDbCircle
 62
7
  6
CONTINUOUS
 10
-7.85
 20
19.85
 40
0.2
  0
ARC
  5
5C6
100
AcDbEntity
  8
0
100
AcDbCircle
 62
7
  6
CONTINUOUS
 10
-7.25
 20
19.85
 40
0.2
100
AcDbArc
 50
90.0031447591
 51
270.0029336524
  0
CIRCLE
  5
5C7
100
AcDbEntity
  8
0
100
AcDbCircle
 62
7
  6
CONTINUOUS
 10
-8.15
 20
19.25
 40
0.2
  0
CIRCLE
  5
5C8
100
AcDbEntity
  8
0
100
AcDbCircle
 62
7
  6
CONTINUOUS
 10
-7.55
 20
19.25
 40
0.2
  0
ARC
  5
5C9
100
AcDbEntity
  8
ASSI
100
AcDbCircle
 62
7
  6
CONTINUOUS
 10
-7.25
 20
19.85
 40
0.2
100
AcDbArc
 50
90.0031447591
 51
270.0029336524
  0
ARC
  5
5CA
100
AcDbEntity
  8
0
100
AcDbCircle
 62
7
  6
CONTINUOUS
 10
-8.15
 20
20.5
 40
0.2
100
AcDbArc
 50
112.7274473767
 51
67.0460706604
  0
ARC
  5
5CB
100
AcDbEntity
  8
0
100
AcDbCircle
 62
7
  6
CONTINUOUS
 10
-7.55
 20
20.5
 40
0.2
100
AcDbArc
 50
113.1570639511
 51
66.622805482
  0
ARC
  5
5CC
100
AcDbEntity
  8
ASSI
100
AcDbCircle
 62
7
  6
CONTINUOUS
 10
-8.15
 20
20.5
 40
0.2
100
AcDbArc
 50
112.7274473767
 51
67.0460706604
  0
ARC
  5
5CD
100
AcDbEntity
  8
ASSI
100
AcDbCircle
 62
7
  6
CONTINUOUS
 10
-7.55
 20
20.5
 40
0.2
100
AcDbArc
 50
113.1570639511
 51
66.622805482
  0
ARC
  5
5CE
100
AcDbEntity
  8
DRAFT
100
AcDbCircle
 62
7
  6
CONTINUOUS
 10
-4.0
 20
19.225
 40
1.4818485021
100
AcDbArc
 50
90.0
 51
180.0
  0
ARC
  5
5CF
100
AcDbEntity
  8
DRAFT
100
AcDbCircle
 62
7
  6
CONTINUOUS
 10
4.0
 20
8.275
 40
1.4818485021
100
AcDbArc
 50
270.0
 51
360.0
  0
CIRCLE
  5
5D0
100
AcDbEntity
  8
ASSI
100
AcDbCircle
 62
7
  6
CONTINUOUS
 10
8.45
 20
7.35
 40
0.2
  0
CIRCLE
  5
5D1
100
AcDbEntity
  8
ASSI
100
AcDbCircle
 62
7
  6
CONTINUOUS
 10
7.85
 20
7.35
 40
0.2
  0
CIRCLE
  5
5D2
100
AcDbEntity
  8
0
100
AcDbCircle
 62
7
  6
CONTINUOUS
 10
8.45
 20
7.35
 40
0.2
  0
CIRCLE
  5
5D3
100
AcDbEntity
  8
0
100
AcDbCircle
 62
7
  6
CONTINUOUS
 10
7.85
 20
7.35
 40
0.2
  0
ARC
  5
5D4
100
AcDbEntity
  8
0
100
AcDbCircle
 62
7
  6
CONTINUOUS
 10
7.25
 20
7.35
 40
0.2
100
AcDbArc
 50
269.9990126949
 51
89.9991483619
  0
ARC
  5
5D5
100
AcDbEntity
  8
0
100
AcDbCircle
 62
7
  6
CONTINUOUS
 10
8.15
 20
6.75
 40
0.2
100
AcDbArc
 50
4.4698419548
 51
175.4127207279
  0
ARC
  5
5D6
100
AcDbEntity
  8
0
100
AcDbCircle
 62
7
  6
CONTINUOUS
 10
7.55
 20
6.75
 40
0.2
100
AcDbArc
 50
4.6448166296
 51
175.2440965487
  0
ARC
  5
5D7
100
AcDbEntity
  8
ASSI
100
AcDbCircle
 62
7
  6
CONTINUOUS
 10
7.25
 20
7.35
 40
0.2
100
AcDbArc
 50
269.9990126949
 51
89.9991483619
  0
ARC
  5
5D8
100
AcDbEntity
  8
ASSI
100
AcDbCircle
 62
7
  6
CONTINUOUS
 10
8.15
 20
6.75
 40
0.2
100
AcDbArc
 50
4.4698419548
 51
175.4127207279
  0
ARC
  5
5D9
100
AcDbEntity
  8
ASSI
100
AcDbCircle
 62
7
  6
CONTINUOUS
 10
7.55
 20
6.75
 40
0.2
100
AcDbArc
 50
4.6448166296
 51
175.2440965487
  0
CIRCLE
  5
5DA
100
AcDbEntity
  8
ASSI
100
AcDbCircle
 62
7
  6
CONTINUOUS
 10
8.15
 20
8.0
 40
0.2
  0
CIRCLE
  5
5DB
100
AcDbEntity
  8
ASSI
100
AcDbCircle
 62
7
  6
CONTINUOUS
 10
7.55
 20
8.0
 40
0.2
  0
CIRCLE
  5
5DC
100
AcDbEntity
  8
0
100
AcDbCircle
 62
7
  6
CONTINUOUS
 10
8.15
 20
8.0
 40
0.2
  0
CIRCLE
  5
5DD
100
AcDbEntity
  8
0
100
AcDbCircle
 62
7
  6
CONTINUOUS
 10
7.55
 20
8.0
 40
0.2
  0
ARC
  5
5DE
100
AcDbEntity
  8
DRAFT
100
AcDbCircle
 62
7
  6
CONTINUOUS
 10
8.8446233895
 20
6.8372197363
 40
24.9357278667
100
AcDbArc
 50
148.3907089959
 51
153.6882318174
  0
ARC
  5
5DF
100
AcDbEntity
  8
DRAFT
100
AcDbCircle
 62
7
  6
CONTINUOUS
 10
8.8246242705
 20
6.8493439992
 40
24.9129004578
100
AcDbArc
 50
173.9777616888
 51
178.5170736035
  0
ARC
  5
5E0
100
AcDbEntity
  8
DRAFT
100
AcDbCircle
 62
7
  6
CONTINUOUS
 10
8.8211453636
 20
6.8488939569
 40
24.9094958255
100
AcDbArc
 50
155.040370574
 51
172.7625864233
  0
ARC
  5
5E1
100
AcDbEntity
  8
DRAFT
100
AcDbCircle
 62
7
  6
CONTINUOUS
 10
8.8182941949
 20
6.844791457
 40
24.8905139242
100
AcDbArc
 50
148.3737629794
 51
153.63954976
  0
ARC
  5
5E2
100
AcDbEntity
  8
DRAFT
100
AcDbCircle
 62
7
  6
CONTINUOUS
 10
8.8176659628
 20
6.8455215576
 40
24.8896548567
100
AcDbArc
 50
159.6773197071
 51
162.6962598278
  0
ARC
  5
5E3
100
AcDbEntity
  8
DRAFT
100
AcDbCircle
 62
7
  6
CONTINUOUS
 10
8.8170280974
 20
6.845514333
 40
24.8890613884
100
AcDbArc
 50
156.4888858651
 51
158.1391764511
  0
ARC
  5
5E4
100
AcDbEntity
  8
DRAFT
100
AcDbCircle
 62
7
  6
CONTINUOUS
 10
8.8169869699
 20
6.8475722475
 40
24.8886090212
100
AcDbArc
 50
174.0005126212
 51
178.512539218
  0
ARC
  5
5E5
100
AcDbEntity
  8
DRAFT
100
AcDbCircle
 62
7
  6
CONTINUOUS
 10
8.8156013946
 20
6.8460959361
 40
24.8875211094
100
AcDbArc
 50
155.0389469031
 51
156.4888033773
  0
ARC
  5
5E6
100
AcDbEntity
  8
DRAFT
100
AcDbCircle
 62
7
  6
CONTINUOUS
 10
8.8149616034
 20
6.8463984836
 40
24.8868142774
100
AcDbArc
 50
158.1392941113
 51
159.6770505643
  0
ARC
  5
5E7
100
AcDbEntity
  8
DRAFT
100
AcDbCircle
 62
7
  6
CONTINUOUS
 10
8.8136439835
 20
6.8472401976
 40
24.8853273627
100
AcDbArc
 50
168.6222660208
 51
171.5410029191
  0
ARC
  5
5E8
100
AcDbEntity
  8
DRAFT
100
AcDbCircle
 62
7
  6
CONTINUOUS
 10
8.811950421
 20
6.8476182291
 40
24.8835966152
100
AcDbArc
 50
171.5412902621
 51
172.7211108966
  0
ARC
  5
5E9
100
AcDbEntity
  8
DRAFT
100
AcDbCircle
 62
7
  6
CONTINUOUS
 10
8.810830577
 20
6.8476940149
 40
24.8824797184
100
AcDbArc
 50
162.6964901558
 51
168.6220124528
  0
CIRCLE
  5
5EA
100
AcDbEntity
  8
ASSI
100
AcDbCircle
 62
7
  6
CONTINUOUS
 10
9.65
 20
7.35
 40
0.2
  0
CIRCLE
  5
5EB
100
AcDbEntity
  8
ASSI
100
AcDbCircle
 62
7
  6
CONTINUOUS
 10
9.05
 20
7.35
 40
0.2
  0
CIRCLE
  5
5EC
100
AcDbEntity
  8
0
100
AcDbCircle
 62
7
  6
CONTINUOUS
 10
9.65
 20
7.35
 40
0.2
  0
CIRCLE
  5
5ED
100
AcDbEntity
  8
0
100
AcDbCircle
 62
7
  6
CONTINUOUS
 10
9.05
 20
7.35
 40
0.2
  0
ARC
  5
5EE
100
AcDbEntity
  8
0
100
AcDbCircle
 62
7
  6
CONTINUOUS
 10
9.95
 20
6.75
 40
0.2
100
AcDbArc
 50
3.8597618926
 51
175.9964380718
  0
ARC
  5
5EF
100
AcDbEntity
  8
0
100
AcDbCircle
 62
7
  6
CONTINUOUS
 10
9.35
 20
6.75
 40
0.2
100
AcDbArc
 50
4.0754598871
 51
175.7868395754
  0
ARC
  5
5F0
100
AcDbEntity
  8
0
100
AcDbCircle
 62
7
  6
CONTINUOUS
 10
8.75
 20
6.75
 40
0.2
100
AcDbArc
 50
4.2809745011
 51
175.5947531963
  0
ARC
  5
5F1
100
AcDbEntity
  8
ASSI
100
AcDbCircle
 62
7
  6
CONTINUOUS
 10
9.95
 20
6.75
 40
0.2
100
AcDbArc
 50
3.8597618926
 51
175.9964380718
  0
ARC
  5
5F2
100
AcDbEntity
  8
ASSI
100
AcDbCircle
 62
7
  6
CONTINUOUS
 10
9.35
 20
6.75
 40
0.2
100
AcDbArc
 50
4.0754598871
 51
175.7868395754
  0
ARC
  5
5F3
100
AcDbEntity
  8
ASSI
100
AcDbCircle
 62
7
  6
CONTINUOUS
 10
8.75
 20
6.75
 40
0.2
100
AcDbArc
 50
4.2809745011
 51
175.5947531963
  0
CIRCLE
  5
5F4
100
AcDbEntity
  8
ASSI
100
AcDbCircle
 62
7
  6
CONTINUOUS
 10
9.95
 20
8.0
 40
0.2
  0
CIRCLE
  5
5F5
100
AcDbEntity
  8
ASSI
100
AcDbCircle
 62
7
  6
CONTINUOUS
 10
9.35
 20
8.0
 40
0.2
  0
CIRCLE
  5
5F6
100
AcDbEntity
  8
ASSI
100
AcDbCircle
 62
7
  6
CONTINUOUS
 10
8.75
 20
8.0
 40
0.2
  0
CIRCLE
  5
5F7
100
AcDbEntity
  8
0
100
AcDbCircle
 62
7
  6
CONTINUOUS
 10
9.95
 20
8.0
 40
0.2
  0
CIRCLE
  5
5F8
100
AcDbEntity
  8
0
100
AcDbCircle
 62
7
  6
CONTINUOUS
 10
9.35
 20
8.0
 40
0.2
  0
CIRCLE
  5
5F9
100
AcDbEntity
  8
0
100
AcDbCircle
 62
7
  6
CONTINUOUS
 10
8.75
 20
8.0
 40
0.2
  0
CIRCLE
  5
5FA
100
AcDbEntity
  8
ASSI
100
AcDbCircle
 62
7
  6
CONTINUOUS
 10
8.45
 20
8.6
 40
0.2
  0
CIRCLE
  5
5FB
100
AcDbEntity
  8
ASSI
100
AcDbCircle
 62
7
  6
CONTINUOUS
 10
7.85
 20
8.6
 40
0.2
  0
CIRCLE
  5
5FC
100
AcDbEntity
  8
0
100
AcDbCircle
 62
7
  6
CONTINUOUS
 10
8.45
 20
8.6
 40
0.2
  0
CIRCLE
  5
5FD
100
AcDbEntity
  8
0
100
AcDbCircle
 62
7
  6
CONTINUOUS
 10
7.85
 20
8.6
 40
0.2
  0
ARC
  5
5FE
100
AcDbEntity
  8
0
100
AcDbCircle
 62
7
  6
CONTINUOUS
 10
7.25
 20
8.6
 40
0.2
100
AcDbArc
 50
269.9995600693
 51
89.9996909479
  0
ARC
  5
5FF
100
AcDbEntity
  8
ASSI
100
AcDbCircle
 62
7
  6
CONTINUOUS
 10
7.25
 20
8.6
 40
0.2
100
AcDbArc
 50
269.9995600693
 51
89.9996909479
  0
CIRCLE
  5
600
100
AcDbEntity
  8
ASSI
100
AcDbCircle
 62
7
  6
CONTINUOUS
 10
8.45
 20
9.85
 40
0.2
  0
CIRCLE
  5
601
100
AcDbEntity
  8
ASSI
100
AcDbCircle
 62
7
  6
CONTINUOUS
 10
7.85
 20
9.85
 40
0.2
  0
CIRCLE
  5
602
100
AcDbEntity
  8
ASSI
100
AcDbCircle
 62
7
  6
CONTINUOUS
 10
8.15
 20
9.25
 40
0.2
  0
CIRCLE
  5
603
100
AcDbEntity
  8
ASSI
100
AcDbCircle
 62
7
  6
CONTINUOUS
 10
7.55
 20
9.25
 40
0.2
  0
CIRCLE
  5
604
100
AcDbEntity
  8
0
100
AcDbCircle
 62
7
  6
CONTINUOUS
 10
8.45
 20
9.85
 40
0.2
  0
CIRCLE
  5
605
100
AcDbEntity
  8
0
100
AcDbCircle
 62
7
  6
CONTINUOUS
 10
7.85
 20
9.85
 40
0.2
  0
ARC
  5
606
100
AcDbEntity
  8
0
100
AcDbCircle
 62
7
  6
CONTINUOUS
 10
7.25
 20
9.85
 40
0.2
100
AcDbArc
 50
269.9999405407
 51
90.000051015
  0
CIRCLE
  5
607
100
AcDbEntity
  8
0
100
AcDbCircle
 62
7
  6
CONTINUOUS
 10
8.15
 20
9.25
 40
0.2
  0
CIRCLE
  5
608
100
AcDbEntity
  8
0
100
AcDbCircle
 62
7
  6
CONTINUOUS
 10
7.55
 20
9.25
 40
0.2
  0
ARC
  5
609
100
AcDbEntity
  8
ASSI
100
AcDbCircle
 62
7
  6
CONTINUOUS
 10
7.25
 20
9.85
 40
0.2
100
AcDbArc
 50
269.9999405407
 51
90.000051015
  0
CIRCLE
  5
60A
100
AcDbEntity
  8
ASSI
100
AcDbCircle
 62
7
  6
CONTINUOUS
 10
9.65
 20
8.6
 40
0.2
  0
CIRCLE
  5
60B
100
AcDbEntity
  8
ASSI
100
AcDbCircle
 62
7
  6
CONTINUOUS
 10
9.05
 20
8.6
 40
0.2
  0
CIRCLE
  5
60C
100
AcDbEntity
  8
0
100
AcDbCircle
 62
7
  6
CONTINUOUS
 10
9.65
 20
8.6
 40
0.2
  0
CIRCLE
  5
60D
100
AcDbEntity
  8
0
100
AcDbCircle
 62
7
  6
CONTINUOUS
 10
9.05
 20
8.6
 40
0.2
  0
CIRCLE
  5
60E
100
AcDbEntity
  8
ASSI
100
AcDbCircle
 62
7
  6
CONTINUOUS
 10
9.65
 20
9.85
 40
0.2
  0
CIRCLE
  5
60F
100
AcDbEntity
  8
ASSI
100
AcDbCircle
 62
7
  6
CONTINUOUS
 10
9.05
 20
9.85
 40
0.2
  0
CIRCLE
  5
610
100
AcDbEntity
  8
ASSI
100
AcDbCircle
 62
7
  6
CONTINUOUS
 10
9.95
 20
9.25
 40
0.2
  0
CIRCLE
  5
611
100
AcDbEntity
  8
ASSI
100
AcDbCircle
 62
7
  6
CONTINUOUS
 10
9.35
 20
9.25
 40
0.2
  0
CIRCLE
  5
612
100
AcDbEntity
  8
ASSI
100
AcDbCircle
 62
7
  6
CONTINUOUS
 10
8.75
 20
9.25
 40
0.2
  0
CIRCLE
  5
613
100
AcDbEntity
  8
0
100
AcDbCircle
 62
7
  6
CONTINUOUS
 10
9.65
 20
9.85
 40
0.2
  0
CIRCLE
  5
614
100
AcDbEntity
  8
0
100
AcDbCircle
 62
7
  6
CONTINUOUS
 10
9.05
 20
9.85
 40
0.2
  0
CIRCLE
  5
615
100
AcDbEntity
  8
0
100
AcDbCircle
 62
7
  6
CONTINUOUS
 10
9.95
 20
9.25
 40
0.2
  0
CIRCLE
  5
616
100
AcDbEntity
  8
0
100
AcDbCircle
 62
7
  6
CONTINUOUS
 10
9.35
 20
9.25
 40
0.2
  0
CIRCLE
  5
617
100
AcDbEntity
  8
0
100
AcDbCircle
 62
7
  6
CONTINUOUS
 10
8.75
 20
9.25
 40
0.2
  0
CIRCLE
  5
618
100
AcDbEntity
  8
ASSI
100
AcDbCircle
 62
7
  6
CONTINUOUS
 10
7.55
 20
10.5
 40
0.2
  0
ARC
  5
619
100
AcDbEntity
  8
0
100
AcDbCircle
 62
7
  6
CONTINUOUS
 10
7.25
 20
11.1
 40
0.2
100
AcDbArc
 50
270.000149739
 51
90.0002403714
  0
CIRCLE
  5
61A
100
AcDbEntity
  8
0
100
AcDbCircle
 62
7
  6
CONTINUOUS
 10
7.55
 20
10.5
 40
0.2
  0
ARC
  5
61B
100
AcDbEntity
  8
ASSI
100
AcDbCircle
 62
7
  6
CONTINUOUS
 10
7.25
 20
11.1
 40
0.2
100
AcDbArc
 50
270.000149739
 51
90.0002403714
  0
CIRCLE
  5
61C
100
AcDbEntity
  8
ASSI
100
AcDbCircle
 62
7
  6
CONTINUOUS
 10
7.55
 20
11.75
 40
0.2
  0
CIRCLE
  5
61D
100
AcDbEntity
  8
0
100
AcDbCircle
 62
7
  6
CONTINUOUS
 10
7.55
 20
11.75
 40
0.2
  0
CIRCLE
  5
61E
100
AcDbEntity
  8
ASSI
100
AcDbCircle
 62
7
  6
CONTINUOUS
 10
8.45
 20
11.1
 40
0.2
  0
CIRCLE
  5
61F
100
AcDbEntity
  8
ASSI
100
AcDbCircle
 62
7
  6
CONTINUOUS
 10
7.85
 20
11.1
 40
0.2
  0
CIRCLE
  5
620
100
AcDbEntity
  8
ASSI
100
AcDbCircle
 62
7
  6
CONTINUOUS
 10
8.15
 20
10.5
 40
0.2
  0
CIRCLE
  5
621
100
AcDbEntity
  8
0
100
AcDbCircle
 62
7
  6
CONTINUOUS
 10
8.45
 20
11.1
 40
0.2
  0
CIRCLE
  5
622
100
AcDbEntity
  8
0
100
AcDbCircle
 62
7
  6
CONTINUOUS
 10
7.85
 20
11.1
 40
0.2
  0
CIRCLE
  5
623
100
AcDbEntity
  8
0
100
AcDbCircle
 62
7
  6
CONTINUOUS
 10
8.15
 20
10.5
 40
0.2
  0
CIRCLE
  5
624
100
AcDbEntity
  8
ASSI
100
AcDbCircle
 62
7
  6
CONTINUOUS
 10
8.15
 20
11.75
 40
0.2
  0
CIRCLE
  5
625
100
AcDbEntity
  8
0
100
AcDbCircle
 62
7
  6
CONTINUOUS
 10
8.15
 20
11.75
 40
0.2
  0
ARC
  5
626
100
AcDbEntity
  8
0
100
AcDbCircle
 62
7
  6
CONTINUOUS
 10
7.25
 20
12.35
 40
0.2
100
AcDbArc
 50
270.0001929791
 51
90.0002489467
  0
ARC
  5
627
100
AcDbEntity
  8
ASSI
100
AcDbCircle
 62
7
  6
CONTINUOUS
 10
7.25
 20
12.35
 40
0.2
100
AcDbArc
 50
270.0001929791
 51
90.0002489467
  0
CIRCLE
  5
628
100
AcDbEntity
  8
ASSI
100
AcDbCircle
 62
7
  6
CONTINUOUS
 10
7.55
 20
13.0
 40
0.2
  0
ARC
  5
629
100
AcDbEntity
  8
0
100
AcDbCircle
 62
7
  6
CONTINUOUS
 10
7.25
 20
13.6
 40
0.2
100
AcDbArc
 50
270.0000758454
 51
90.0000875261
  0
CIRCLE
  5
62A
100
AcDbEntity
  8
0
100
AcDbCircle
 62
7
  6
CONTINUOUS
 10
7.55
 20
13.0
 40
0.2
  0
ARC
  5
62B
100
AcDbEntity
  8
ASSI
100
AcDbCircle
 62
7
  6
CONTINUOUS
 10
7.25
 20
13.6
 40
0.2
100
AcDbArc
 50
270.0000758454
 51
90.0000875261
  0
CIRCLE
  5
62C
100
AcDbEntity
  8
ASSI
100
AcDbCircle
 62
7
  6
CONTINUOUS
 10
8.45
 20
12.35
 40
0.2
  0
CIRCLE
  5
62D
100
AcDbEntity
  8
ASSI
100
AcDbCircle
 62
7
  6
CONTINUOUS
 10
7.85
 20
12.35
 40
0.2
  0
CIRCLE
  5
62E
100
AcDbEntity
  8
0
100
AcDbCircle
 62
7
  6
CONTINUOUS
 10
8.45
 20
12.35
 40
0.2
  0
CIRCLE
  5
62F
100
AcDbEntity
  8
0
100
AcDbCircle
 62
7
  6
CONTINUOUS
 10
7.85
 20
12.35
 40
0.2
  0
CIRCLE
  5
630
100
AcDbEntity
  8
ASSI
100
AcDbCircle
 62
7
  6
CONTINUOUS
 10
8.45
 20
13.6
 40
0.2
  0
CIRCLE
  5
631
100
AcDbEntity
  8
ASSI
100
AcDbCircle
 62
7
  6
CONTINUOUS
 10
7.85
 20
13.6
 40
0.2
  0
CIRCLE
  5
632
100
AcDbEntity
  8
ASSI
100
AcDbCircle
 62
7
  6
CONTINUOUS
 10
8.15
 20
13.0
 40
0.2
  0
CIRCLE
  5
633
100
AcDbEntity
  8
0
100
AcDbCircle
 62
7
  6
CONTINUOUS
 10
8.45
 20
13.6
 40
0.2
  0
CIRCLE
  5
634
100
AcDbEntity
  8
0
100
AcDbCircle
 62
7
  6
CONTINUOUS
 10
7.85
 20
13.6
 40
0.2
  0
CIRCLE
  5
635
100
AcDbEntity
  8
0
100
AcDbCircle
 62
7
  6
CONTINUOUS
 10
8.15
 20
13.0
 40
0.2
  0
CIRCLE
  5
636
100
AcDbEntity
  8
ASSI
100
AcDbCircle
 62
7
  6
CONTINUOUS
 10
9.05
 20
11.1
 40
0.2
  0
CIRCLE
  5
637
100
AcDbEntity
  8
ASSI
100
AcDbCircle
 62
7
  6
CONTINUOUS
 10
8.75
 20
10.5
 40
0.2
  0
CIRCLE
  5
638
100
AcDbEntity
  8
0
100
AcDbCircle
 62
7
  6
CONTINUOUS
 10
9.05
 20
11.1
 40
0.2
  0
CIRCLE
  5
639
100
AcDbEntity
  8
0
100
AcDbCircle
 62
7
  6
CONTINUOUS
 10
8.75
 20
10.5
 40
0.2
  0
CIRCLE
  5
63A
100
AcDbEntity
  8
ASSI
100
AcDbCircle
 62
7
  6
CONTINUOUS
 10
8.75
 20
11.75
 40
0.2
  0
CIRCLE
  5
63B
100
AcDbEntity
  8
0
100
AcDbCircle
 62
7
  6
CONTINUOUS
 10
8.75
 20
11.75
 40
0.2
  0
CIRCLE
  5
63C
100
AcDbEntity
  8
ASSI
100
AcDbCircle
 62
7
  6
CONTINUOUS
 10
9.65
 20
11.1
 40
0.2
  0
CIRCLE
  5
63D
100
AcDbEntity
  8
ASSI
100
AcDbCircle
 62
7
  6
CONTINUOUS
 10
9.95
 20
10.5
 40
0.2
  0
CIRCLE
  5
63E
100
AcDbEntity
  8
ASSI
100
AcDbCircle
 62
7
  6
CONTINUOUS
 10
9.35
 20
10.5
 40
0.2
  0
CIRCLE
  5
63F
100
AcDbEntity
  8
0
100
AcDbCircle
 62
7
  6
CONTINUOUS
 10
9.65
 20
11.1
 40
0.2
  0
CIRCLE
  5
640
100
AcDbEntity
  8
0
100
AcDbCircle
 62
7
  6
CONTINUOUS
 10
9.95
 20
10.5
 40
0.2
  0
CIRCLE
  5
641
100
AcDbEntity
  8
0
100
AcDbCircle
 62
7
  6
CONTINUOUS
 10
9.35
 20
10.5
 40
0.2
  0
CIRCLE
  5
642
100
AcDbEntity
  8
ASSI
100
AcDbCircle
 62
7
  6
CONTINUOUS
 10
9.95
 20
11.75
 40
0.2
  0
CIRCLE
  5
643
100
AcDbEntity
  8
ASSI
100
AcDbCircle
 62
7
  6
CONTINUOUS
 10
9.35
 20
11.75
 40
0.2
  0
CIRCLE
  5
644
100
AcDbEntity
  8
0
100
AcDbCircle
 62
7
  6
CONTINUOUS
 10
9.95
 20
11.75
 40
0.2
  0
CIRCLE
  5
645
100
AcDbEntity
  8
0
100
AcDbCircle
 62
7
  6
CONTINUOUS
 10
9.35
 20
11.75
 40
0.2
  0
CIRCLE
  5
646
100
AcDbEntity
  8
ASSI
100
AcDbCircle
 62
7
  6
CONTINUOUS
 10
9.05
 20
12.35
 40
0.2
  0
CIRCLE
  5
647
100
AcDbEntity
  8
0
100
AcDbCircle
 62
7
  6
CONTINUOUS
 10
9.05
 20
12.35
 40
0.2
  0
CIRCLE
  5
648
100
AcDbEntity
  8
ASSI
100
AcDbCircle
 62
7
  6
CONTINUOUS
 10
9.05
 20
13.6
 40
0.2
  0
CIRCLE
  5
649
100
AcDbEntity
  8
ASSI
100
AcDbCircle
 62
7
  6
CONTINUOUS
 10
8.75
 20
13.0
 40
0.2
  0
CIRCLE
  5
64A
100
AcDbEntity
  8
0
100
AcDbCircle
 62
7
  6
CONTINUOUS
 10
9.05
 20
13.6
 40
0.2
  0
CIRCLE
  5
64B
100
AcDbEntity
  8
0
100
AcDbCircle
 62
7
  6
CONTINUOUS
 10
8.75
 20
13.0
 40
0.2
  0
CIRCLE
  5
64C
100
AcDbEntity
  8
ASSI
100
AcDbCircle
 62
7
  6
CONTINUOUS
 10
9.65
 20
12.35
 40
0.2
  0
CIRCLE
  5
64D
100
AcDbEntity
  8
0
100
AcDbCircle
 62
7
  6
CONTINUOUS
 10
9.65
 20
12.35
 40
0.2
  0
CIRCLE
  5
64E
100
AcDbEntity
  8
ASSI
100
AcDbCircle
 62
7
  6
CONTINUOUS
 10
9.65
 20
13.6
 40
0.2
  0
CIRCLE
  5
64F
100
AcDbEntity
  8
ASSI
100
AcDbCircle
 62
7
  6
CONTINUOUS
 10
9.95
 20
13.0
 40
0.2
  0
CIRCLE
  5
650
100
AcDbEntity
  8
ASSI
100
AcDbCircle
 62
7
  6
CONTINUOUS
 10
9.35
 20
13.0
 40
0.2
  0
CIRCLE
  5
651
100
AcDbEntity
  8
0
100
AcDbCircle
 62
7
  6
CONTINUOUS
 10
9.65
 20
13.6
 40
0.2
  0
CIRCLE
  5
652
100
AcDbEntity
  8
0
100
AcDbCircle
 62
7
  6
CONTINUOUS
 10
9.95
 20
13.0
 40
0.2
  0
CIRCLE
  5
653
100
AcDbEntity
  8
0
100
AcDbCircle
 62
7
  6
CONTINUOUS
 10
9.35
 20
13.0
 40
0.2
  0
CIRCLE
  5
654
100
AcDbEntity
  8
ASSI
100
AcDbCircle
 62
7
  6
CONTINUOUS
 10
11.45
 20
7.35
 40
0.2
  0
CIRCLE
  5
655
100
AcDbEntity
  8
ASSI
100
AcDbCircle
 62
7
  6
CONTINUOUS
 10
10.85
 20
7.35
 40
0.2
  0
CIRCLE
  5
656
100
AcDbEntity
  8
ASSI
100
AcDbCircle
 62
7
  6
CONTINUOUS
 10
10.25
 20
7.35
 40
0.2
  0
CIRCLE
  5
657
100
AcDbEntity
  8
0
100
AcDbCircle
 62
7
  6
CONTINUOUS
 10
11.45
 20
7.35
 40
0.2
  0
CIRCLE
  5
658
100
AcDbEntity
  8
0
100
AcDbCircle
 62
7
  6
CONTINUOUS
 10
10.85
 20
7.35
 40
0.2
  0
CIRCLE
  5
659
100
AcDbEntity
  8
0
100
AcDbCircle
 62
7
  6
CONTINUOUS
 10
10.25
 20
7.35
 40
0.2
  0
ARC
  5
65A
100
AcDbEntity
  8
0
100
AcDbCircle
 62
7
  6
CONTINUOUS
 10
11.15
 20
6.75
 40
0.2
100
AcDbArc
 50
3.3830855775
 51
176.4523368642
  0
ARC
  5
65B
100
AcDbEntity
  8
0
100
AcDbCircle
 62
7
  6
CONTINUOUS
 10
10.55
 20
6.75
 40
0.2
100
AcDbArc
 50
3.6297407018
 51
176.2192563638
  0
ARC
  5
65C
100
AcDbEntity
  8
ASSI
100
AcDbCircle
 62
7
  6
CONTINUOUS
 10
11.15
 20
6.75
 40
0.2
100
AcDbArc
 50
3.3830855775
 51
176.4523368642
  0
ARC
  5
65D
100
AcDbEntity
  8
ASSI
100
AcDbCircle
 62
7
  6
CONTINUOUS
 10
10.55
 20
6.75
 40
0.2
100
AcDbArc
 50
3.6297407018
 51
176.2192563638
  0
CIRCLE
  5
65E
100
AcDbEntity
  8
ASSI
100
AcDbCircle
 62
7
  6
CONTINUOUS
 10
11.15
 20
8.0
 40
0.2
  0
CIRCLE
  5
65F
100
AcDbEntity
  8
ASSI
100
AcDbCircle
 62
7
  6
CONTINUOUS
 10
10.55
 20
8.0
 40
0.2
  0
CIRCLE
  5
660
100
AcDbEntity
  8
0
100
AcDbCircle
 62
7
  6
CONTINUOUS
 10
11.15
 20
8.0
 40
0.2
  0
CIRCLE
  5
661
100
AcDbEntity
  8
0
100
AcDbCircle
 62
7
  6
CONTINUOUS
 10
10.55
 20
8.0
 40
0.2
  0
CIRCLE
  5
662
100
AcDbEntity
  8
ASSI
100
AcDbCircle
 62
7
  6
CONTINUOUS
 10
12.65
 20
7.35
 40
0.2
  0
CIRCLE
  5
663
100
AcDbEntity
  8
ASSI
100
AcDbCircle
 62
7
  6
CONTINUOUS
 10
12.05
 20
7.35
 40
0.2
  0
CIRCLE
  5
664
100
AcDbEntity
  8
0
100
AcDbCircle
 62
7
  6
CONTINUOUS
 10
12.65
 20
7.35
 40
0.2
  0
CIRCLE
  5
665
100
AcDbEntity
  8
0
100
AcDbCircle
 62
7
  6
CONTINUOUS
 10
12.05
 20
7.35
 40
0.2
  0
ARC
  5
666
100
AcDbEntity
  8
0
100
AcDbCircle
 62
7
  6
CONTINUOUS
 10
12.95
 20
6.75
 40
0.2
100
AcDbArc
 50
2.5659344703
 51
177.2421024355
  0
ARC
  5
667
100
AcDbEntity
  8
0
100
AcDbCircle
 62
7
  6
CONTINUOUS
 10
12.35
 20
6.75
 40
0.2
100
AcDbArc
 50
2.85444236
 51
176.967428645
  0
ARC
  5
668
100
AcDbEntity
  8
0
100
AcDbCircle
 62
7
  6
CONTINUOUS
 10
11.75
 20
6.75
 40
0.2
100
AcDbArc
 50
3.1260166373
 51
176.7032454286
  0
ARC
  5
669
100
AcDbEntity
  8
ASSI
100
AcDbCircle
 62
7
  6
CONTINUOUS
 10
12.95
 20
6.75
 40
0.2
100
AcDbArc
 50
2.5659344703
 51
177.2421024355
  0
ARC
  5
66A
100
AcDbEntity
  8
ASSI
100
AcDbCircle
 62
7
  6
CONTINUOUS
 10
12.35
 20
6.75
 40
0.2
100
AcDbArc
 50
2.85444236
 51
176.967428645
  0
ARC
  5
66B
100
AcDbEntity
  8
ASSI
100
AcDbCircle
 62
7
  6
CONTINUOUS
 10
11.75
 20
6.75
 40
0.2
100
AcDbArc
 50
3.1260166373
 51
176.7032454286
  0
CIRCLE
  5
66C
100
AcDbEntity
  8
ASSI
100
AcDbCircle
 62
7
  6
CONTINUOUS
 10
12.95
 20
8.0
 40
0.2
  0
CIRCLE
  5
66D
100
AcDbEntity
  8
ASSI
100
AcDbCircle
 62
7
  6
CONTINUOUS
 10
12.35
 20
8.0
 40
0.2
  0
CIRCLE
  5
66E
100
AcDbEntity
  8
ASSI
100
AcDbCircle
 62
7
  6
CONTINUOUS
 10
11.75
 20
8.0
 40
0.2
  0
CIRCLE
  5
66F
100
AcDbEntity
  8
0
100
AcDbCircle
 62
7
  6
CONTINUOUS
 10
12.95
 20
8.0
 40
0.2
  0
CIRCLE
  5
670
100
AcDbEntity
  8
0
100
AcDbCircle
 62
7
  6
CONTINUOUS
 10
12.35
 20
8.0
 40
0.2
  0
CIRCLE
  5
671
100
AcDbEntity
  8
0
100
AcDbCircle
 62
7
  6
CONTINUOUS
 10
11.75
 20
8.0
 40
0.2
  0
CIRCLE
  5
672
100
AcDbEntity
  8
ASSI
100
AcDbCircle
 62
7
  6
CONTINUOUS
 10
11.45
 20
8.6
 40
0.2
  0
CIRCLE
  5
673
100
AcDbEntity
  8
ASSI
100
AcDbCircle
 62
7
  6
CONTINUOUS
 10
10.85
 20
8.6
 40
0.2
  0
CIRCLE
  5
674
100
AcDbEntity
  8
ASSI
100
AcDbCircle
 62
7
  6
CONTINUOUS
 10
10.25
 20
8.6
 40
0.2
  0
CIRCLE
  5
675
100
AcDbEntity
  8
0
100
AcDbCircle
 62
7
  6
CONTINUOUS
 10
11.45
 20
8.6
 40
0.2
  0
CIRCLE
  5
676
100
AcDbEntity
  8
0
100
AcDbCircle
 62
7
  6
CONTINUOUS
 10
10.85
 20
8.6
 40
0.2
  0
CIRCLE
  5
677
100
AcDbEntity
  8
0
100
AcDbCircle
 62
7
  6
CONTINUOUS
 10
10.25
 20
8.6
 40
0.2
  0
CIRCLE
  5
678
100
AcDbEntity
  8
ASSI
100
AcDbCircle
 62
7
  6
CONTINUOUS
 10
11.45
 20
9.85
 40
0.2
  0
CIRCLE
  5
679
100
AcDbEntity
  8
ASSI
100
AcDbCircle
 62
7
  6
CONTINUOUS
 10
10.85
 20
9.85
 40
0.2
  0
CIRCLE
  5
67A
100
AcDbEntity
  8
ASSI
100
AcDbCircle
 62
7
  6
CONTINUOUS
 10
10.25
 20
9.85
 40
0.2
  0
CIRCLE
  5
67B
100
AcDbEntity
  8
ASSI
100
AcDbCircle
 62
7
  6
CONTINUOUS
 10
11.15
 20
9.25
 40
0.2
  0
CIRCLE
  5
67C
100
AcDbEntity
  8
ASSI
100
AcDbCircle
 62
7
  6
CONTINUOUS
 10
10.55
 20
9.25
 40
0.2
  0
CIRCLE
  5
67D
100
AcDbEntity
  8
0
100
AcDbCircle
 62
7
  6
CONTINUOUS
 10
11.45
 20
9.85
 40
0.2
  0
CIRCLE
  5
67E
100
AcDbEntity
  8
0
100
AcDbCircle
 62
7
  6
CONTINUOUS
 10
10.85
 20
9.85
 40
0.2
  0
CIRCLE
  5
67F
100
AcDbEntity
  8
0
100
AcDbCircle
 62
7
  6
CONTINUOUS
 10
10.25
 20
9.85
 40
0.2
  0
CIRCLE
  5
680
100
AcDbEntity
  8
0
100
AcDbCircle
 62
7
  6
CONTINUOUS
 10
11.15
 20
9.25
 40
0.2
  0
CIRCLE
  5
681
100
AcDbEntity
  8
0
100
AcDbCircle
 62
7
  6
CONTINUOUS
 10
10.55
 20
9.25
 40
0.2
  0
CIRCLE
  5
682
100
AcDbEntity
  8
ASSI
100
AcDbCircle
 62
7
  6
CONTINUOUS
 10
12.65
 20
8.6
 40
0.2
  0
CIRCLE
  5
683
100
AcDbEntity
  8
ASSI
100
AcDbCircle
 62
7
  6
CONTINUOUS
 10
12.05
 20
8.6
 40
0.2
  0
CIRCLE
  5
684
100
AcDbEntity
  8
0
100
AcDbCircle
 62
7
  6
CONTINUOUS
 10
12.65
 20
8.6
 40
0.2
  0
CIRCLE
  5
685
100
AcDbEntity
  8
0
100
AcDbCircle
 62
7
  6
CONTINUOUS
 10
12.05
 20
8.6
 40
0.2
  0
CIRCLE
  5
686
100
AcDbEntity
  8
ASSI
100
AcDbCircle
 62
7
  6
CONTINUOUS
 10
12.65
 20
9.85
 40
0.2
  0
CIRCLE
  5
687
100
AcDbEntity
  8
ASSI
100
AcDbCircle
 62
7
  6
CONTINUOUS
 10
12.05
 20
9.85
 40
0.2
  0
CIRCLE
  5
688
100
AcDbEntity
  8
ASSI
100
AcDbCircle
 62
7
  6
CONTINUOUS
 10
12.95
 20
9.25
 40
0.2
  0
CIRCLE
  5
689
100
AcDbEntity
  8
ASSI
100
AcDbCircle
 62
7
  6
CONTINUOUS
 10
12.35
 20
9.25
 40
0.2
  0
CIRCLE
  5
68A
100
AcDbEntity
  8
ASSI
100
AcDbCircle
 62
7
  6
CONTINUOUS
 10
11.75
 20
9.25
 40
0.2
  0
CIRCLE
  5
68B
100
AcDbEntity
  8
0
100
AcDbCircle
 62
7
  6
CONTINUOUS
 10
12.65
 20
9.85
 40
0.2
  0
CIRCLE
  5
68C
100
AcDbEntity
  8
0
100
AcDbCircle
 62
7
  6
CONTINUOUS
 10
12.05
 20
9.85
 40
0.2
  0
CIRCLE
  5
68D
100
AcDbEntity
  8
0
100
AcDbCircle
 62
7
  6
CONTINUOUS
 10
12.95
 20
9.25
 40
0.2
  0
CIRCLE
  5
68E
100
AcDbEntity
  8
0
100
AcDbCircle
 62
7
  6
CONTINUOUS
 10
12.35
 20
9.25
 40
0.2
  0
CIRCLE
  5
68F
100
AcDbEntity
  8
0
100
AcDbCircle
 62
7
  6
CONTINUOUS
 10
11.75
 20
9.25
 40
0.2
  0
CIRCLE
  5
690
100
AcDbEntity
  8
ASSI
100
AcDbCircle
 62
7
  6
CONTINUOUS
 10
14.45
 20
7.35
 40
0.2
  0
CIRCLE
  5
691
100
AcDbEntity
  8
ASSI
100
AcDbCircle
 62
7
  6
CONTINUOUS
 10
13.25
 20
7.35
 40
0.2
  0
CIRCLE
  5
692
100
AcDbEntity
  8
0
100
AcDbCircle
 62
7
  6
CONTINUOUS
 10
14.45
 20
7.35
 40
0.2
  0
ARC
  5
693
100
AcDbEntity
  8
0
100
AcDbCircle
 62
7
  6
CONTINUOUS
 10
13.85
 20
7.35
 40
0.2
100
AcDbArc
 50
331.2196721878
 51
208.7807549178
  0
CIRCLE
  5
694
100
AcDbEntity
  8
0
100
AcDbCircle
 62
7
  6
CONTINUOUS
 10
13.25
 20
7.35
 40
0.2
  0
ARC
  5
695
100
AcDbEntity
  8
0
100
AcDbCircle
 62
7
  6
CONTINUOUS
 10
14.15
 20
6.75
 40
0.2
100
AcDbArc
 50
1.9530931779
 51
74.3823087762
  0
ARC
  5
696
100
AcDbEntity
  8
0
100
AcDbCircle
 62
7
  6
CONTINUOUS
 10
13.55
 20
6.75
 40
0.2
100
AcDbArc
 50
61.2120988326
 51
177.5346684879
  0
ARC
  5
697
100
AcDbEntity
  8
ASSI
100
AcDbCircle
 62
7
  6
CONTINUOUS
 10
13.85
 20
7.35
 40
0.2
100
AcDbArc
 50
331.2196721878
 51
208.7807549178
  0
ARC
  5
698
100
AcDbEntity
  8
ASSI
100
AcDbCircle
 62
7
  6
CONTINUOUS
 10
14.15
 20
6.75
 40
0.2
100
AcDbArc
 50
1.9530931779
 51
74.3823087762
  0
ARC
  5
699
100
AcDbEntity
  8
ASSI
100
AcDbCircle
 62
7
  6
CONTINUOUS
 10
13.55
 20
6.75
 40
0.2
100
AcDbArc
 50
61.2120988326
 51
177.5346684879
  0
CIRCLE
  5
69A
100
AcDbEntity
  8
ASSI
100
AcDbCircle
 62
7
  6
CONTINUOUS
 10
14.15
 20
8.0
 40
0.2
  0
CIRCLE
  5
69B
100
AcDbEntity
  8
ASSI
100
AcDbCircle
 62
7
  6
CONTINUOUS
 10
13.55
 20
8.0
 40
0.2
  0
CIRCLE
  5
69C
100
AcDbEntity
  8
0
100
AcDbCircle
 62
7
  6
CONTINUOUS
 10
14.15
 20
8.0
 40
0.2
  0
CIRCLE
  5
69D
100
AcDbEntity
  8
0
100
AcDbCircle
 62
7
  6
CONTINUOUS
 10
13.55
 20
8.0
 40
0.2
  0
CIRCLE
  5
69E
100
AcDbEntity
  8
ASSI
100
AcDbCircle
 62
7
  6
CONTINUOUS
 10
15.65
 20
7.35
 40
0.2
  0
CIRCLE
  5
69F
100
AcDbEntity
  8
ASSI
100
AcDbCircle
 62
7
  6
CONTINUOUS
 10
15.05
 20
7.35
 40
0.2
  0
ARC
  5
6A0
100
AcDbEntity
  8
0
100
AcDbCircle
 62
7
  6
CONTINUOUS
 10
16.25
 20
7.35
 40
0.2
100
AcDbArc
 50
161.5220615386
 51
182.787076439
  0
CIRCLE
  5
6A1
100
AcDbEntity
  8
0
100
AcDbCircle
 62
7
  6
CONTINUOUS
 10
15.65
 20
7.35
 40
0.2
  0
CIRCLE
  5
6A2
100
AcDbEntity
  8
0
100
AcDbCircle
 62
7
  6
CONTINUOUS
 10
15.05
 20
7.35
 40
0.2
  0
ARC
  5
6A3
100
AcDbEntity
  8
0
100
AcDbCircle
 62
7
  6
CONTINUOUS
 10
15.35
 20
6.75
 40
0.2
100
AcDbArc
 50
9.9618790428
 51
178.4924543634
  0
ARC
  5
6A4
100
AcDbEntity
  8
0
100
AcDbCircle
 62
7
  6
CONTINUOUS
 10
14.75
 20
6.75
 40
0.2
100
AcDbArc
 50
1.6218857132
 51
178.1578751868
  0
ARC
  5
6A5
100
AcDbEntity
  8
ASSI
100
AcDbCircle
 62
7
  6
CONTINUOUS
 10
16.25
 20
7.35
 40
0.2
100
AcDbArc
 50
161.5220615386
 51
182.787076439
  0
ARC
  5
6A6
100
AcDbEntity
  8
ASSI
100
AcDbCircle
 62
7
  6
CONTINUOUS
 10
15.35
 20
6.75
 40
0.2
100
AcDbArc
 50
9.9618790428
 51
178.4924543634
  0
ARC
  5
6A7
100
AcDbEntity
  8
ASSI
100
AcDbCircle
 62
7
  6
CONTINUOUS
 10
14.75
 20
6.75
 40
0.2
100
AcDbArc
 50
1.6218857132
 51
178.1578751868
  0
ARC
  5
6A8
100
AcDbEntity
  8
DRAFT
100
AcDbCircle
 62
7
  6
CONTINUOUS
 10
15.3429416339
 20
7.4750120683
 40
0.7372369983
100
AcDbArc
 50
269.9212148816
 51
1.481008065
  0
ARC
  5
6A9
100
AcDbEntity
  8
DRAFT
100
AcDbCircle
 62
7
  6
CONTINUOUS
 10
15.3421561883
 20
7.4750525651
 40
0.7213185143
100
AcDbArc
 50
354.0113601962
 51
1.4762053049
  0
ARC
  5
6AA
100
AcDbEntity
  8
DRAFT
100
AcDbCircle
 62
7
  6
CONTINUOUS
 10
15.3433813232
 20
7.4749859829
 40
0.7201018723
100
AcDbArc
 50
269.8843556863
 51
354.0116722473
  0
CIRCLE
  5
6AB
100
AcDbEntity
  8
ASSI
100
AcDbCircle
 62
7
  6
CONTINUOUS
 10
15.35
 20
8.0
 40
0.2
  0
CIRCLE
  5
6AC
100
AcDbEntity
  8
ASSI
100
AcDbCircle
 62
7
  6
CONTINUOUS
 10
14.75
 20
8.0
 40
0.2
  0
ARC
  5
6AD
100
AcDbEntity
  8
0
100
AcDbCircle
 62
7
  6
CONTINUOUS
 10
15.95
 20
8.0
 40
0.2
100
AcDbArc
 50
64.7493389217
 51
300.6449706375
  0
CIRCLE
  5
6AE
100
AcDbEntity
  8
0
100
AcDbCircle
 62
7
  6
CONTINUOUS
 10
15.35
 20
8.0
 40
0.2
  0
CIRCLE
  5
6AF
100
AcDbEntity
  8
0
100
AcDbCircle
 62
7
  6
CONTINUOUS
 10
14.75
 20
8.0
 40
0.2
  0
ARC
  5
6B0
100
AcDbEntity
  8
ASSI
100
AcDbCircle
 62
7
  6
CONTINUOUS
 10
15.95
 20
8.0
 40
0.2
100
AcDbArc
 50
64.7493389217
 51
300.6449706375
  0
CIRCLE
  5
6B1
100
AcDbEntity
  8
ASSI
100
AcDbCircle
 62
7
  6
CONTINUOUS
 10
14.45
 20
8.6
 40
0.2
  0
CIRCLE
  5
6B2
100
AcDbEntity
  8
ASSI
100
AcDbCircle
 62
7
  6
CONTINUOUS
 10
13.85
 20
8.6
 40
0.2
  0
CIRCLE
  5
6B3
100
AcDbEntity
  8
ASSI
100
AcDbCircle
 62
7
  6
CONTINUOUS
 10
13.25
 20
8.6
 40
0.2
  0
CIRCLE
  5
6B4
100
AcDbEntity
  8
0
100
AcDbCircle
 62
7
  6
CONTINUOUS
 10
14.45
 20
8.6
 40
0.2
  0
CIRCLE
  5
6B5
100
AcDbEntity
  8
0
100
AcDbCircle
 62
7
  6
CONTINUOUS
 10
13.85
 20
8.6
 40
0.2
  0
CIRCLE
  5
6B6
100
AcDbEntity
  8
0
100
AcDbCircle
 62
7
  6
CONTINUOUS
 10
13.25
 20
8.6
 40
0.2
  0
CIRCLE
  5
6B7
100
AcDbEntity
  8
ASSI
100
AcDbCircle
 62
7
  6
CONTINUOUS
 10
14.45
 20
9.85
 40
0.2
  0
CIRCLE
  5
6B8
100
AcDbEntity
  8
ASSI
100
AcDbCircle
 62
7
  6
CONTINUOUS
 10
13.85
 20
9.85
 40
0.2
  0
CIRCLE
  5
6B9
100
AcDbEntity
  8
ASSI
100
AcDbCircle
 62
7
  6
CONTINUOUS
 10
13.25
 20
9.85
 40
0.2
  0
CIRCLE
  5
6BA
100
AcDbEntity
  8
ASSI
100
AcDbCircle
 62
7
  6
CONTINUOUS
 10
14.15
 20
9.25
 40
0.2
  0
CIRCLE
  5
6BB
100
AcDbEntity
  8
ASSI
100
AcDbCircle
 62
7
  6
CONTINUOUS
 10
13.55
 20
9.25
 40
0.2
  0
CIRCLE
  5
6BC
100
AcDbEntity
  8
0
100
AcDbCircle
 62
7
  6
CONTINUOUS
 10
14.45
 20
9.85
 40
0.2
  0
CIRCLE
  5
6BD
100
AcDbEntity
  8
0
100
AcDbCircle
 62
7
  6
CONTINUOUS
 10
13.85
 20
9.85
 40
0.2
  0
CIRCLE
  5
6BE
100
AcDbEntity
  8
0
100
AcDbCircle
 62
7
  6
CONTINUOUS
 10
13.25
 20
9.85
 40
0.2
  0
CIRCLE
  5
6BF
100
AcDbEntity
  8
0
100
AcDbCircle
 62
7
  6
CONTINUOUS
 10
14.15
 20
9.25
 40
0.2
  0
CIRCLE
  5
6C0
100
AcDbEntity
  8
0
100
AcDbCircle
 62
7
  6
CONTINUOUS
 10
13.55
 20
9.25
 40
0.2
  0
CIRCLE
  5
6C1
100
AcDbEntity
  8
ASSI
100
AcDbCircle
 62
7
  6
CONTINUOUS
 10
15.65
 20
8.6
 40
0.2
  0
CIRCLE
  5
6C2
100
AcDbEntity
  8
ASSI
100
AcDbCircle
 62
7
  6
CONTINUOUS
 10
15.05
 20
8.6
 40
0.2
  0
CIRCLE
  5
6C3
100
AcDbEntity
  8
0
100
AcDbCircle
 62
7
  6
CONTINUOUS
 10
15.65
 20
8.6
 40
0.2
  0
CIRCLE
  5
6C4
100
AcDbEntity
  8
0
100
AcDbCircle
 62
7
  6
CONTINUOUS
 10
15.05
 20
8.6
 40
0.2
  0
CIRCLE
  5
6C5
100
AcDbEntity
  8
ASSI
100
AcDbCircle
 62
7
  6
CONTINUOUS
 10
15.05
 20
9.85
 40
0.2
  0
CIRCLE
  5
6C6
100
AcDbEntity
  8
ASSI
100
AcDbCircle
 62
7
  6
CONTINUOUS
 10
15.35
 20
9.25
 40
0.2
  0
CIRCLE
  5
6C7
100
AcDbEntity
  8
ASSI
100
AcDbCircle
 62
7
  6
CONTINUOUS
 10
14.75
 20
9.25
 40
0.2
  0
ARC
  5
6C8
100
AcDbEntity
  8
0
100
AcDbCircle
 62
7
  6
CONTINUOUS
 10
15.65
 20
9.85
 40
0.2
100
AcDbArc
 50
48.9244246379
 51
131.0740152907
  0
CIRCLE
  5
6C9
100
AcDbEntity
  8
0
100
AcDbCircle
 62
7
  6
CONTINUOUS
 10
15.05
 20
9.85
 40
0.2
  0
ARC
  5
6CA
100
AcDbEntity
  8
0
100
AcDbCircle
 62
7
  6
CONTINUOUS
 10
15.95
 20
9.25
 40
0.2
100
AcDbArc
 50
94.2848468367
 51
276.8413266558
  0
CIRCLE
  5
6CB
100
AcDbEntity
  8
0
100
AcDbCircle
 62
7
  6
CONTINUOUS
 10
15.35
 20
9.25
 40
0.2
  0
CIRCLE
  5
6CC
100
AcDbEntity
  8
0
100
AcDbCircle
 62
7
  6
CONTINUOUS
 10
14.75
 20
9.25
 40
0.2
  0
ARC
  5
6CD
100
AcDbEntity
  8
ASSI
100
AcDbCircle
 62
7
  6
CONTINUOUS
 10
15.65
 20
9.85
 40
0.2
100
AcDbArc
 50
48.9244246379
 51
131.0740152907
  0
ARC
  5
6CE
100
AcDbEntity
  8
ASSI
100
AcDbCircle
 62
7
  6
CONTINUOUS
 10
15.95
 20
9.25
 40
0.2
100
AcDbArc
 50
94.2848468367
 51
276.8413266558
  0
CIRCLE
  5
6CF
100
AcDbEntity
  8
ASSI
100
AcDbCircle
 62
7
  6
CONTINUOUS
 10
11.45
 20
11.1
 40
0.2
  0
CIRCLE
  5
6D0
100
AcDbEntity
  8
ASSI
100
AcDbCircle
 62
7
  6
CONTINUOUS
 10
10.85
 20
11.1
 40
0.2
  0
CIRCLE
  5
6D1
100
AcDbEntity
  8
ASSI
100
AcDbCircle
 62
7
  6
CONTINUOUS
 10
10.25
 20
11.1
 40
0.2
  0
CIRCLE
  5
6D2
100
AcDbEntity
  8
ASSI
100
AcDbCircle
 62
7
  6
CONTINUOUS
 10
11.15
 20
10.5
 40
0.2
  0
CIRCLE
  5
6D3
100
AcDbEntity
  8
ASSI
100
AcDbCircle
 62
7
  6
CONTINUOUS
 10
10.55
 20
10.5
 40
0.2
  0
CIRCLE
  5
6D4
100
AcDbEntity
  8
0
100
AcDbCircle
 62
7
  6
CONTINUOUS
 10
11.45
 20
11.1
 40
0.2
  0
CIRCLE
  5
6D5
100
AcDbEntity
  8
0
100
AcDbCircle
 62
7
  6
CONTINUOUS
 10
10.85
 20
11.1
 40
0.2
  0
CIRCLE
  5
6D6
100
AcDbEntity
  8
0
100
AcDbCircle
 62
7
  6
CONTINUOUS
 10
10.25
 20
11.1
 40
0.2
  0
CIRCLE
  5
6D7
100
AcDbEntity
  8
0
100
AcDbCircle
 62
7
  6
CONTINUOUS
 10
11.15
 20
10.5
 40
0.2
  0
CIRCLE
  5
6D8
100
AcDbEntity
  8
0
100
AcDbCircle
 62
7
  6
CONTINUOUS
 10
10.55
 20
10.5
 40
0.2
  0
CIRCLE
  5
6D9
100
AcDbEntity
  8
ASSI
100
AcDbCircle
 62
7
  6
CONTINUOUS
 10
11.15
 20
11.75
 40
0.2
  0
CIRCLE
  5
6DA
100
AcDbEntity
  8
ASSI
100
AcDbCircle
 62
7
  6
CONTINUOUS
 10
10.55
 20
11.75
 40
0.2
  0
CIRCLE
  5
6DB
100
AcDbEntity
  8
0
100
AcDbCircle
 62
7
  6
CONTINUOUS
 10
11.15
 20
11.75
 40
0.2
  0
CIRCLE
  5
6DC
100
AcDbEntity
  8
0
100
AcDbCircle
 62
7
  6
CONTINUOUS
 10
10.55
 20
11.75
 40
0.2
  0
CIRCLE
  5
6DD
100
AcDbEntity
  8
ASSI
100
AcDbCircle
 62
7
  6
CONTINUOUS
 10
12.65
 20
11.1
 40
0.2
  0
CIRCLE
  5
6DE
100
AcDbEntity
  8
ASSI
100
AcDbCircle
 62
7
  6
CONTINUOUS
 10
12.05
 20
11.1
 40
0.2
  0
CIRCLE
  5
6DF
100
AcDbEntity
  8
ASSI
100
AcDbCircle
 62
7
  6
CONTINUOUS
 10
12.95
 20
10.5
 40
0.2
  0
CIRCLE
  5
6E0
100
AcDbEntity
  8
ASSI
100
AcDbCircle
 62
7
  6
CONTINUOUS
 10
12.35
 20
10.5
 40
0.2
  0
CIRCLE
  5
6E1
100
AcDbEntity
  8
ASSI
100
AcDbCircle
 62
7
  6
CONTINUOUS
 10
11.75
 20
10.5
 40
0.2
  0
CIRCLE
  5
6E2
100
AcDbEntity
  8
0
100
AcDbCircle
 62
7
  6
CONTINUOUS
 10
12.65
 20
11.1
 40
0.2
  0
CIRCLE
  5
6E3
100
AcDbEntity
  8
0
100
AcDbCircle
 62
7
  6
CONTINUOUS
 10
12.05
 20
11.1
 40
0.2
  0
CIRCLE
  5
6E4
100
AcDbEntity
  8
0
100
AcDbCircle
 62
7
  6
CONTINUOUS
 10
12.95
 20
10.5
 40
0.2
  0
CIRCLE
  5
6E5
100
AcDbEntity
  8
0
100
AcDbCircle
 62
7
  6
CONTINUOUS
 10
12.35
 20
10.5
 40
0.2
  0
CIRCLE
  5
6E6
100
AcDbEntity
  8
0
100
AcDbCircle
 62
7
  6
CONTINUOUS
 10
11.75
 20
10.5
 40
0.2
  0
CIRCLE
  5
6E7
100
AcDbEntity
  8
ASSI
100
AcDbCircle
 62
7
  6
CONTINUOUS
 10
12.95
 20
11.75
 40
0.2
  0
CIRCLE
  5
6E8
100
AcDbEntity
  8
ASSI
100
AcDbCircle
 62
7
  6
CONTINUOUS
 10
12.35
 20
11.75
 40
0.2
  0
CIRCLE
  5
6E9
100
AcDbEntity
  8
ASSI
100
AcDbCircle
 62
7
  6
CONTINUOUS
 10
11.75
 20
11.75
 40
0.2
  0
CIRCLE
  5
6EA
100
AcDbEntity
  8
0
100
AcDbCircle
 62
7
  6
CONTINUOUS
 10
12.95
 20
11.75
 40
0.2
  0
CIRCLE
  5
6EB
100
AcDbEntity
  8
0
100
AcDbCircle
 62
7
  6
CONTINUOUS
 10
12.35
 20
11.75
 40
0.2
  0
CIRCLE
  5
6EC
100
AcDbEntity
  8
0
100
AcDbCircle
 62
7
  6
CONTINUOUS
 10
11.75
 20
11.75
 40
0.2
  0
CIRCLE
  5
6ED
100
AcDbEntity
  8
ASSI
100
AcDbCircle
 62
7
  6
CONTINUOUS
 10
11.45
 20
12.35
 40
0.2
  0
CIRCLE
  5
6EE
100
AcDbEntity
  8
ASSI
100
AcDbCircle
 62
7
  6
CONTINUOUS
 10
10.85
 20
12.35
 40
0.2
  0
CIRCLE
  5
6EF
100
AcDbEntity
  8
ASSI
100
AcDbCircle
 62
7
  6
CONTINUOUS
 10
10.25
 20
12.35
 40
0.2
  0
CIRCLE
  5
6F0
100
AcDbEntity
  8
0
100
AcDbCircle
 62
7
  6
CONTINUOUS
 10
11.45
 20
12.35
 40
0.2
  0
CIRCLE
  5
6F1
100
AcDbEntity
  8
0
100
AcDbCircle
 62
7
  6
CONTINUOUS
 10
10.85
 20
12.35
 40
0.2
  0
CIRCLE
  5
6F2
100
AcDbEntity
  8
0
100
AcDbCircle
 62
7
  6
CONTINUOUS
 10
10.25
 20
12.35
 40
0.2
  0
CIRCLE
  5
6F3
100
AcDbEntity
  8
ASSI
100
AcDbCircle
 62
7
  6
CONTINUOUS
 10
11.45
 20
13.6
 40
0.2
  0
CIRCLE
  5
6F4
100
AcDbEntity
  8
ASSI
100
AcDbCircle
 62
7
  6
CONTINUOUS
 10
10.85
 20
13.6
 40
0.2
  0
CIRCLE
  5
6F5
100
AcDbEntity
  8
ASSI
100
AcDbCircle
 62
7
  6
CONTINUOUS
 10
10.25
 20
13.6
 40
0.2
  0
CIRCLE
  5
6F6
100
AcDbEntity
  8
ASSI
100
AcDbCircle
 62
7
  6
CONTINUOUS
 10
11.15
 20
13.0
 40
0.2
  0
CIRCLE
  5
6F7
100
AcDbEntity
  8
ASSI
100
AcDbCircle
 62
7
  6
CONTINUOUS
 10
10.55
 20
13.0
 40
0.2
  0
CIRCLE
  5
6F8
100
AcDbEntity
  8
0
100
AcDbCircle
 62
7
  6
CONTINUOUS
 10
11.45
 20
13.6
 40
0.2
  0
CIRCLE
  5
6F9
100
AcDbEntity
  8
0
100
AcDbCircle
 62
7
  6
CONTINUOUS
 10
10.85
 20
13.6
 40
0.2
  0
CIRCLE
  5
6FA
100
AcDbEntity
  8
0
100
AcDbCircle
 62
7
  6
CONTINUOUS
 10
10.25
 20
13.6
 40
0.2
  0
CIRCLE
  5
6FB
100
AcDbEntity
  8
0
100
AcDbCircle
 62
7
  6
CONTINUOUS
 10
11.15
 20
13.0
 40
0.2
  0
CIRCLE
  5
6FC
100
AcDbEntity
  8
0
100
AcDbCircle
 62
7
  6
CONTINUOUS
 10
10.55
 20
13.0
 40
0.2
  0
CIRCLE
  5
6FD
100
AcDbEntity
  8
ASSI
100
AcDbCircle
 62
7
  6
CONTINUOUS
 10
12.65
 20
12.35
 40
0.2
  0
CIRCLE
  5
6FE
100
AcDbEntity
  8
ASSI
100
AcDbCircle
 62
7
  6
CONTINUOUS
 10
12.05
 20
12.35
 40
0.2
  0
CIRCLE
  5
6FF
100
AcDbEntity
  8
0
100
AcDbCircle
 62
7
  6
CONTINUOUS
 10
12.65
 20
12.35
 40
0.2
  0
CIRCLE
  5
700
100
AcDbEntity
  8
0
100
AcDbCircle
 62
7
  6
CONTINUOUS
 10
12.05
 20
12.35
 40
0.2
  0
CIRCLE
  5
701
100
AcDbEntity
  8
ASSI
100
AcDbCircle
 62
7
  6
CONTINUOUS
 10
12.65
 20
13.6
 40
0.2
  0
CIRCLE
  5
702
100
AcDbEntity
  8
ASSI
100
AcDbCircle
 62
7
  6
CONTINUOUS
 10
12.05
 20
13.6
 40
0.2
  0
CIRCLE
  5
703
100
AcDbEntity
  8
ASSI
100
AcDbCircle
 62
7
  6
CONTINUOUS
 10
12.95
 20
13.0
 40
0.2
  0
CIRCLE
  5
704
100
AcDbEntity
  8
ASSI
100
AcDbCircle
 62
7
  6
CONTINUOUS
 10
12.35
 20
13.0
 40
0.2
  0
CIRCLE
  5
705
100
AcDbEntity
  8
ASSI
100
AcDbCircle
 62
7
  6
CONTINUOUS
 10
11.75
 20
13.0
 40
0.2
  0
CIRCLE
  5
706
100
AcDbEntity
  8
0
100
AcDbCircle
 62
7
  6
CONTINUOUS
 10
12.65
 20
13.6
 40
0.2
  0
CIRCLE
  5
707
100
AcDbEntity
  8
0
100
AcDbCircle
 62
7
  6
CONTINUOUS
 10
12.05
 20
13.6
 40
0.2
  0
CIRCLE
  5
708
100
AcDbEntity
  8
0
100
AcDbCircle
 62
7
  6
CONTINUOUS
 10
12.95
 20
13.0
 40
0.2
  0
CIRCLE
  5
709
100
AcDbEntity
  8
0
100
AcDbCircle
 62
7
  6
CONTINUOUS
 10
12.35
 20
13.0
 40
0.2
  0
CIRCLE
  5
70A
100
AcDbEntity
  8
0
100
AcDbCircle
 62
7
  6
CONTINUOUS
 10
11.75
 20
13.0
 40
0.2
  0
CIRCLE
  5
70B
100
AcDbEntity
  8
ASSI
100
AcDbCircle
 62
7
  6
CONTINUOUS
 10
14.45
 20
11.1
 40
0.2
  0
CIRCLE
  5
70C
100
AcDbEntity
  8
ASSI
100
AcDbCircle
 62
7
  6
CONTINUOUS
 10
13.85
 20
11.1
 40
0.2
  0
CIRCLE
  5
70D
100
AcDbEntity
  8
ASSI
100
AcDbCircle
 62
7
  6
CONTINUOUS
 10
13.25
 20
11.1
 40
0.2
  0
CIRCLE
  5
70E
100
AcDbEntity
  8
ASSI
100
AcDbCircle
 62
7
  6
CONTINUOUS
 10
14.15
 20
10.5
 40
0.2
  0
CIRCLE
  5
70F
100
AcDbEntity
  8
ASSI
100
AcDbCircle
 62
7
  6
CONTINUOUS
 10
13.55
 20
10.5
 40
0.2
  0
CIRCLE
  5
710
100
AcDbEntity
  8
0
100
AcDbCircle
 62
7
  6
CONTINUOUS
 10
14.45
 20
11.1
 40
0.2
  0
CIRCLE
  5
711
100
AcDbEntity
  8
0
100
AcDbCircle
 62
7
  6
CONTINUOUS
 10
13.85
 20
11.1
 40
0.2
  0
CIRCLE
  5
712
100
AcDbEntity
  8
0
100
AcDbCircle
 62
7
  6
CONTINUOUS
 10
13.25
 20
11.1
 40
0.2
  0
CIRCLE
  5
713
100
AcDbEntity
  8
0
100
AcDbCircle
 62
7
  6
CONTINUOUS
 10
14.15
 20
10.5
 40
0.2
  0
CIRCLE
  5
714
100
AcDbEntity
  8
0
100
AcDbCircle
 62
7
  6
CONTINUOUS
 10
13.55
 20
10.5
 40
0.2
  0
CIRCLE
  5
715
100
AcDbEntity
  8
ASSI
100
AcDbCircle
 62
7
  6
CONTINUOUS
 10
14.15
 20
11.75
 40
0.2
  0
CIRCLE
  5
716
100
AcDbEntity
  8
ASSI
100
AcDbCircle
 62
7
  6
CONTINUOUS
 10
13.55
 20
11.75
 40
0.2
  0
CIRCLE
  5
717
100
AcDbEntity
  8
0
100
AcDbCircle
 62
7
  6
CONTINUOUS
 10
14.15
 20
11.75
 40
0.2
  0
CIRCLE
  5
718
100
AcDbEntity
  8
0
100
AcDbCircle
 62
7
  6
CONTINUOUS
 10
13.55
 20
11.75
 40
0.2
  0
CIRCLE
  5
719
100
AcDbEntity
  8
ASSI
100
AcDbCircle
 62
7
  6
CONTINUOUS
 10
15.05
 20
11.1
 40
0.2
  0
CIRCLE
  5
71A
100
AcDbEntity
  8
ASSI
100
AcDbCircle
 62
7
  6
CONTINUOUS
 10
15.35
 20
10.5
 40
0.2
  0
CIRCLE
  5
71B
100
AcDbEntity
  8
ASSI
100
AcDbCircle
 62
7
  6
CONTINUOUS
 10
14.75
 20
10.5
 40
0.2
  0
ARC
  5
71C
100
AcDbEntity
  8
0
100
AcDbCircle
 62
7
  6
CONTINUOUS
 10
15.65
 20
11.1
 40
0.2
100
AcDbArc
 50
84.2587187517
 51
295.48681179
  0
CIRCLE
  5
71D
100
AcDbEntity
  8
0
100
AcDbCircle
 62
7
  6
CONTINUOUS
 10
15.05
 20
11.1
 40
0.2
  0
ARC
  5
71E
100
AcDbEntity
  8
0
100
AcDbCircle
 62
7
  6
CONTINUOUS
 10
15.95
 20
10.5
 40
0.2
100
AcDbArc
 50
145.8106174893
 51
230.8797635004
  0
CIRCLE
  5
71F
100
AcDbEntity
  8
0
100
AcDbCircle
 62
7
  6
CONTINUOUS
 10
15.35
 20
10.5
 40
0.2
  0
CIRCLE
  5
720
100
AcDbEntity
  8
0
100
AcDbCircle
 62
7
  6
CONTINUOUS
 10
14.75
 20
10.5
 40
0.2
  0
ARC
  5
721
100
AcDbEntity
  8
ASSI
100
AcDbCircle
 62
7
  6
CONTINUOUS
 10
15.65
 20
11.1
 40
0.2
100
AcDbArc
 50
84.2587187517
 51
295.48681179
  0
ARC
  5
722
100
AcDbEntity
  8
ASSI
100
AcDbCircle
 62
7
  6
CONTINUOUS
 10
15.95
 20
10.5
 40
0.2
100
AcDbArc
 50
145.8106174893
 51
230.8797635004
  0
CIRCLE
  5
723
100
AcDbEntity
  8
ASSI
100
AcDbCircle
 62
7
  6
CONTINUOUS
 10
15.35
 20
11.75
 40
0.2
  0
CIRCLE
  5
724
100
AcDbEntity
  8
ASSI
100
AcDbCircle
 62
7
  6
CONTINUOUS
 10
14.75
 20
11.75
 40
0.2
  0
CIRCLE
  5
725
100
AcDbEntity
  8
0
100
AcDbCircle
 62
7
  6
CONTINUOUS
 10
15.35
 20
11.75
 40
0.2
  0
CIRCLE
  5
726
100
AcDbEntity
  8
0
100
AcDbCircle
 62
7
  6
CONTINUOUS
 10
14.75
 20
11.75
 40
0.2
  0
CIRCLE
  5
727
100
AcDbEntity
  8
ASSI
100
AcDbCircle
 62
7
  6
CONTINUOUS
 10
13.85
 20
12.35
 40
0.2
  0
CIRCLE
  5
728
100
AcDbEntity
  8
ASSI
100
AcDbCircle
 62
7
  6
CONTINUOUS
 10
13.25
 20
12.35
 40
0.2
  0
CIRCLE
  5
729
100
AcDbEntity
  8
0
100
AcDbCircle
 62
7
  6
CONTINUOUS
 10
13.85
 20
12.35
 40
0.2
  0
CIRCLE
  5
72A
100
AcDbEntity
  8
0
100
AcDbCircle
 62
7
  6
CONTINUOUS
 10
13.25
 20
12.35
 40
0.2
  0
CIRCLE
  5
72B
100
AcDbEntity
  8
ASSI
100
AcDbCircle
 62
7
  6
CONTINUOUS
 10
13.85
 20
13.6
 40
0.2
  0
CIRCLE
  5
72C
100
AcDbEntity
  8
ASSI
100
AcDbCircle
 62
7
  6
CONTINUOUS
 10
13.25
 20
13.6
 40
0.2
  0
CIRCLE
  5
72D
100
AcDbEntity
  8
ASSI
100
AcDbCircle
 62
7
  6
CONTINUOUS
 10
14.15
 20
13.0
 40
0.2
  0
CIRCLE
  5
72E
100
AcDbEntity
  8
ASSI
100
AcDbCircle
 62
7
  6
CONTINUOUS
 10
13.55
 20
13.0
 40
0.2
  0
CIRCLE
  5
72F
100
AcDbEntity
  8
0
100
AcDbCircle
 62
7
  6
CONTINUOUS
 10
13.85
 20
13.6
 40
0.2
  0
CIRCLE
  5
730
100
AcDbEntity
  8
0
100
AcDbCircle
 62
7
  6
CONTINUOUS
 10
13.25
 20
13.6
 40
0.2
  0
CIRCLE
  5
731
100
AcDbEntity
  8
0
100
AcDbCircle
 62
7
  6
CONTINUOUS
 10
14.15
 20
13.0
 40
0.2
  0
CIRCLE
  5
732
100
AcDbEntity
  8
0
100
AcDbCircle
 62
7
  6
CONTINUOUS
 10
13.55
 20
13.0
 40
0.2
  0
CIRCLE
  5
733
100
AcDbEntity
  8
ASSI
100
AcDbCircle
 62
7
  6
CONTINUOUS
 10
15.05
 20
12.35
 40
0.2
  0
CIRCLE
  5
734
100
AcDbEntity
  8
ASSI
100
AcDbCircle
 62
7
  6
CONTINUOUS
 10
14.45
 20
12.35
 40
0.2
  0
ARC
  5
735
100
AcDbEntity
  8
0
100
AcDbCircle
 62
7
  6
CONTINUOUS
 10
15.65
 20
12.35
 40
0.2
100
AcDbArc
 50
174.5136535198
 51
210.6900323842
  0
CIRCLE
  5
736
100
AcDbEntity
  8
0
100
AcDbCircle
 62
7
  6
CONTINUOUS
 10
15.05
 20
12.35
 40
0.2
  0
CIRCLE
  5
737
100
AcDbEntity
  8
0
100
AcDbCircle
 62
7
  6
CONTINUOUS
 10
14.45
 20
12.35
 40
0.2
  0
ARC
  5
738
100
AcDbEntity
  8
ASSI
100
AcDbCircle
 62
7
  6
CONTINUOUS
 10
15.65
 20
12.35
 40
0.2
100
AcDbArc
 50
174.5136535198
 51
210.6900323842
  0
CIRCLE
  5
739
100
AcDbEntity
  8
ASSI
100
AcDbCircle
 62
7
  6
CONTINUOUS
 10
14.45
 20
13.6
 40
0.2
  0
CIRCLE
  5
73A
100
AcDbEntity
  8
ASSI
100
AcDbCircle
 62
7
  6
CONTINUOUS
 10
14.75
 20
13.0
 40
0.2
  0
ARC
  5
73B
100
AcDbEntity
  8
0
100
AcDbCircle
 62
7
  6
CONTINUOUS
 10
15.05
 20
13.6
 40
0.2
100
AcDbArc
 50
81.1343537124
 51
310.4784579439
  0
CIRCLE
  5
73C
100
AcDbEntity
  8
0
100
AcDbCircle
 62
7
  6
CONTINUOUS
 10
14.45
 20
13.6
 40
0.2
  0
ARC
  5
73D
100
AcDbEntity
  8
0
100
AcDbCircle
 62
7
  6
CONTINUOUS
 10
15.35
 20
13.0
 40
0.2
100
AcDbArc
 50
118.9987052138
 51
269.5763092176
  0
CIRCLE
  5
73E
100
AcDbEntity
  8
0
100
AcDbCircle
 62
7
  6
CONTINUOUS
 10
14.75
 20
13.0
 40
0.2
  0
ARC
  5
73F
100
AcDbEntity
  8
ASSI
100
AcDbCircle
 62
7
  6
CONTINUOUS
 10
15.05
 20
13.6
 40
0.2
100
AcDbArc
 50
81.1343537124
 51
310.4784579439
  0
ARC
  5
740
100
AcDbEntity
  8
ASSI
100
AcDbCircle
 62
7
  6
CONTINUOUS
 10
15.35
 20
13.0
 40
0.2
100
AcDbArc
 50
118.9987052138
 51
269.5763092176
  0
CIRCLE
  5
741
100
AcDbEntity
  8
ASSI
100
AcDbCircle
 62
7
  6
CONTINUOUS
 10
8.15
 20
15.5
 40
0.2
  0
CIRCLE
  5
742
100
AcDbEntity
  8
ASSI
100
AcDbCircle
 62
7
  6
CONTINUOUS
 10
7.85
 20
14.85
 40
0.2
  0
CIRCLE
  5
743
100
AcDbEntity
  8
ASSI
100
AcDbCircle
 62
7
  6
CONTINUOUS
 10
7.55
 20
15.5
 40
0.2
  0
CIRCLE
  5
744
100
AcDbEntity
  8
ASSI
100
AcDbCircle
 62
7
  6
CONTINUOUS
 10
8.15
 20
14.25
 40
0.2
  0
CIRCLE
  5
745
100
AcDbEntity
  8
ASSI
100
AcDbCircle
 62
7
  6
CONTINUOUS
 10
7.55
 20
14.25
 40
0.2
  0
CIRCLE
  5
746
100
AcDbEntity
  8
0
100
AcDbCircle
 62
7
  6
CONTINUOUS
 10
8.15
 20
15.5
 40
0.2
  0
CIRCLE
  5
747
100
AcDbEntity
  8
0
100
AcDbCircle
 62
7
  6
CONTINUOUS
 10
7.85
 20
14.85
 40
0.2
  0
CIRCLE
  5
748
100
AcDbEntity
  8
0
100
AcDbCircle
 62
7
  6
CONTINUOUS
 10
7.55
 20
15.5
 40
0.2
  0
ARC
  5
749
100
AcDbEntity
  8
0
100
AcDbCircle
 62
7
  6
CONTINUOUS
 10
7.25
 20
14.85
 40
0.2
100
AcDbArc
 50
269.9997940905
 51
89.9997949749
  0
CIRCLE
  5
74A
100
AcDbEntity
  8
0
100
AcDbCircle
 62
7
  6
CONTINUOUS
 10
8.15
 20
14.25
 40
0.2
  0
CIRCLE
  5
74B
100
AcDbEntity
  8
0
100
AcDbCircle
 62
7
  6
CONTINUOUS
 10
7.55
 20
14.25
 40
0.2
  0
ARC
  5
74C
100
AcDbEntity
  8
ASSI
100
AcDbCircle
 62
7
  6
CONTINUOUS
 10
7.25
 20
14.85
 40
0.2
100
AcDbArc
 50
269.9997940905
 51
89.9997949749
  0
CIRCLE
  5
74D
100
AcDbEntity
  8
ASSI
100
AcDbCircle
 62
7
  6
CONTINUOUS
 10
7.85
 20
17.35
 40
0.2
  0
CIRCLE
  5
74E
100
AcDbEntity
  8
ASSI
100
AcDbCircle
 62
7
  6
CONTINUOUS
 10
8.15
 20
16.75
 40
0.2
  0
CIRCLE
  5
74F
100
AcDbEntity
  8
ASSI
100
AcDbCircle
 62
7
  6
CONTINUOUS
 10
7.85
 20
16.1
 40
0.2
  0
CIRCLE
  5
750
100
AcDbEntity
  8
ASSI
100
AcDbCircle
 62
7
  6
CONTINUOUS
 10
7.55
 20
16.75
 40
0.2
  0
CIRCLE
  5
751
100
AcDbEntity
  8
0
100
AcDbCircle
 62
7
  6
CONTINUOUS
 10
7.85
 20
17.35
 40
0.2
  0
ARC
  5
752
100
AcDbEntity
  8
0
100
AcDbCircle
 62
7
  6
CONTINUOUS
 10
7.25
 20
17.35
 40
0.2
100
AcDbArc
 50
269.9985247065
 51
89.9982967928
  0
CIRCLE
  5
753
100
AcDbEntity
  8
0
100
AcDbCircle
 62
7
  6
CONTINUOUS
 10
8.15
 20
16.75
 40
0.2
  0
CIRCLE
  5
754
100
AcDbEntity
  8
0
100
AcDbCircle
 62
7
  6
CONTINUOUS
 10
7.85
 20
16.1
 40
0.2
  0
CIRCLE
  5
755
100
AcDbEntity
  8
0
100
AcDbCircle
 62
7
  6
CONTINUOUS
 10
7.55
 20
16.75
 40
0.2
  0
ARC
  5
756
100
AcDbEntity
  8
0
100
AcDbCircle
 62
7
  6
CONTINUOUS
 10
7.25
 20
16.1
 40
0.2
100
AcDbArc
 50
269.9992892662
 51
89.9991597583
  0
ARC
  5
757
100
AcDbEntity
  8
ASSI
100
AcDbCircle
 62
7
  6
CONTINUOUS
 10
7.25
 20
17.35
 40
0.2
100
AcDbArc
 50
269.9985247065
 51
89.9982967928
  0
ARC
  5
758
100
AcDbEntity
  8
ASSI
100
AcDbCircle
 62
7
  6
CONTINUOUS
 10
7.25
 20
16.1
 40
0.2
100
AcDbArc
 50
269.9992892662
 51
89.9991597583
  0
CIRCLE
  5
759
100
AcDbEntity
  8
ASSI
100
AcDbCircle
 62
7
  6
CONTINUOUS
 10
9.35
 20
15.5
 40
0.2
  0
CIRCLE
  5
75A
100
AcDbEntity
  8
ASSI
100
AcDbCircle
 62
7
  6
CONTINUOUS
 10
9.05
 20
14.85
 40
0.2
  0
CIRCLE
  5
75B
100
AcDbEntity
  8
ASSI
100
AcDbCircle
 62
7
  6
CONTINUOUS
 10
8.75
 20
15.5
 40
0.2
  0
CIRCLE
  5
75C
100
AcDbEntity
  8
ASSI
100
AcDbCircle
 62
7
  6
CONTINUOUS
 10
8.45
 20
14.85
 40
0.2
  0
CIRCLE
  5
75D
100
AcDbEntity
  8
ASSI
100
AcDbCircle
 62
7
  6
CONTINUOUS
 10
9.35
 20
14.25
 40
0.2
  0
CIRCLE
  5
75E
100
AcDbEntity
  8
ASSI
100
AcDbCircle
 62
7
  6
CONTINUOUS
 10
8.75
 20
14.25
 40
0.2
  0
CIRCLE
  5
75F
100
AcDbEntity
  8
0
100
AcDbCircle
 62
7
  6
CONTINUOUS
 10
9.35
 20
15.5
 40
0.2
  0
CIRCLE
  5
760
100
AcDbEntity
  8
0
100
AcDbCircle
 62
7
  6
CONTINUOUS
 10
9.05
 20
14.85
 40
0.2
  0
CIRCLE
  5
761
100
AcDbEntity
  8
0
100
AcDbCircle
 62
7
  6
CONTINUOUS
 10
8.75
 20
15.5
 40
0.2
  0
CIRCLE
  5
762
100
AcDbEntity
  8
0
100
AcDbCircle
 62
7
  6
CONTINUOUS
 10
8.45
 20
14.85
 40
0.2
  0
CIRCLE
  5
763
100
AcDbEntity
  8
0
100
AcDbCircle
 62
7
  6
CONTINUOUS
 10
9.35
 20
14.25
 40
0.2
  0
CIRCLE
  5
764
100
AcDbEntity
  8
0
100
AcDbCircle
 62
7
  6
CONTINUOUS
 10
8.75
 20
14.25
 40
0.2
  0
CIRCLE
  5
765
100
AcDbEntity
  8
ASSI
100
AcDbCircle
 62
7
  6
CONTINUOUS
 10
9.05
 20
17.35
 40
0.2
  0
CIRCLE
  5
766
100
AcDbEntity
  8
ASSI
100
AcDbCircle
 62
7
  6
CONTINUOUS
 10
8.45
 20
17.35
 40
0.2
  0
CIRCLE
  5
767
100
AcDbEntity
  8
ASSI
100
AcDbCircle
 62
7
  6
CONTINUOUS
 10
9.35
 20
16.75
 40
0.2
  0
CIRCLE
  5
768
100
AcDbEntity
  8
ASSI
100
AcDbCircle
 62
7
  6
CONTINUOUS
 10
9.05
 20
16.1
 40
0.2
  0
CIRCLE
  5
769
100
AcDbEntity
  8
ASSI
100
AcDbCircle
 62
7
  6
CONTINUOUS
 10
8.75
 20
16.75
 40
0.2
  0
CIRCLE
  5
76A
100
AcDbEntity
  8
ASSI
100
AcDbCircle
 62
7
  6
CONTINUOUS
 10
8.45
 20
16.1
 40
0.2
  0
CIRCLE
  5
76B
100
AcDbEntity
  8
0
100
AcDbCircle
 62
7
  6
CONTINUOUS
 10
9.05
 20
17.35
 40
0.2
  0
CIRCLE
  5
76C
100
AcDbEntity
  8
0
100
AcDbCircle
 62
7
  6
CONTINUOUS
 10
8.45
 20
17.35
 40
0.2
  0
CIRCLE
  5
76D
100
AcDbEntity
  8
0
100
AcDbCircle
 62
7
  6
CONTINUOUS
 10
9.35
 20
16.75
 40
0.2
  0
CIRCLE
  5
76E
100
AcDbEntity
  8
0
100
AcDbCircle
 62
7
  6
CONTINUOUS
 10
9.05
 20
16.1
 40
0.2
  0
CIRCLE
  5
76F
100
AcDbEntity
  8
0
100
AcDbCircle
 62
7
  6
CONTINUOUS
 10
8.75
 20
16.75
 40
0.2
  0
CIRCLE
  5
770
100
AcDbEntity
  8
0
100
AcDbCircle
 62
7
  6
CONTINUOUS
 10
8.45
 20
16.1
 40
0.2
  0
ARC
  5
771
100
AcDbEntity
  8
DRAFT
100
AcDbCircle
 62
7
  6
CONTINUOUS
 10
4.0
 20
19.225
 40
1.4818485021
100
AcDbArc
 50
0.0
 51
90.0
  0
CIRCLE
  5
772
100
AcDbEntity
  8
ASSI
100
AcDbCircle
 62
7
  6
CONTINUOUS
 10
8.15
 20
18.0
 40
0.2
  0
CIRCLE
  5
773
100
AcDbEntity
  8
ASSI
100
AcDbCircle
 62
7
  6
CONTINUOUS
 10
7.55
 20
18.0
 40
0.2
  0
CIRCLE
  5
774
100
AcDbEntity
  8
0
100
AcDbCircle
 62
7
  6
CONTINUOUS
 10
8.15
 20
18.0
 40
0.2
  0
CIRCLE
  5
775
100
AcDbEntity
  8
0
100
AcDbCircle
 62
7
  6
CONTINUOUS
 10
7.55
 20
18.0
 40
0.2
  0
CIRCLE
  5
776
100
AcDbEntity
  8
ASSI
100
AcDbCircle
 62
7
  6
CONTINUOUS
 10
7.85
 20
18.6
 40
0.2
  0
CIRCLE
  5
777
100
AcDbEntity
  8
0
100
AcDbCircle
 62
7
  6
CONTINUOUS
 10
7.85
 20
18.6
 40
0.2
  0
ARC
  5
778
100
AcDbEntity
  8
0
100
AcDbCircle
 62
7
  6
CONTINUOUS
 10
7.25
 20
18.6
 40
0.2
100
AcDbArc
 50
269.9976440491
 51
89.9973522222
  0
ARC
  5
779
100
AcDbEntity
  8
ASSI
100
AcDbCircle
 62
7
  6
CONTINUOUS
 10
7.25
 20
18.6
 40
0.2
100
AcDbArc
 50
269.9976440491
 51
89.9973522222
  0
CIRCLE
  5
77A
100
AcDbEntity
  8
ASSI
100
AcDbCircle
 62
7
  6
CONTINUOUS
 10
9.35
 20
18.0
 40
0.2
  0
CIRCLE
  5
77B
100
AcDbEntity
  8
ASSI
100
AcDbCircle
 62
7
  6
CONTINUOUS
 10
8.75
 20
18.0
 40
0.2
  0
CIRCLE
  5
77C
100
AcDbEntity
  8
0
100
AcDbCircle
 62
7
  6
CONTINUOUS
 10
9.35
 20
18.0
 40
0.2
  0
CIRCLE
  5
77D
100
AcDbEntity
  8
0
100
AcDbCircle
 62
7
  6
CONTINUOUS
 10
8.75
 20
18.0
 40
0.2
  0
CIRCLE
  5
77E
100
AcDbEntity
  8
ASSI
100
AcDbCircle
 62
7
  6
CONTINUOUS
 10
9.05
 20
18.6
 40
0.2
  0
CIRCLE
  5
77F
100
AcDbEntity
  8
ASSI
100
AcDbCircle
 62
7
  6
CONTINUOUS
 10
8.45
 20
18.6
 40
0.2
  0
CIRCLE
  5
780
100
AcDbEntity
  8
0
100
AcDbCircle
 62
7
  6
CONTINUOUS
 10
9.05
 20
18.6
 40
0.2
  0
CIRCLE
  5
781
100
AcDbEntity
  8
0
100
AcDbCircle
 62
7
  6
CONTINUOUS
 10
8.45
 20
18.6
 40
0.2
  0
CIRCLE
  5
782
100
AcDbEntity
  8
ASSI
100
AcDbCircle
 62
7
  6
CONTINUOUS
 10
7.85
 20
19.85
 40
0.2
  0
CIRCLE
  5
783
100
AcDbEntity
  8
ASSI
100
AcDbCircle
 62
7
  6
CONTINUOUS
 10
8.15
 20
19.25
 40
0.2
  0
CIRCLE
  5
784
100
AcDbEntity
  8
ASSI
100
AcDbCircle
 62
7
  6
CONTINUOUS
 10
7.55
 20
19.25
 40
0.2
  0
CIRCLE
  5
785
100
AcDbEntity
  8
0
100
AcDbCircle
 62
7
  6
CONTINUOUS
 10
7.85
 20
19.85
 40
0.2
  0
ARC
  5
786
100
AcDbEntity
  8
0
100
AcDbCircle
 62
7
  6
CONTINUOUS
 10
7.25
 20
19.85
 40
0.2
100
AcDbArc
 50
269.9970663476
 51
89.9968552409
  0
CIRCLE
  5
787
100
AcDbEntity
  8
0
100
AcDbCircle
 62
7
  6
CONTINUOUS
 10
8.15
 20
19.25
 40
0.2
  0
CIRCLE
  5
788
100
AcDbEntity
  8
0
100
AcDbCircle
 62
7
  6
CONTINUOUS
 10
7.55
 20
19.25
 40
0.2
  0
ARC
  5
789
100
AcDbEntity
  8
ASSI
100
AcDbCircle
 62
7
  6
CONTINUOUS
 10
7.25
 20
19.85
 40
0.2
100
AcDbArc
 50
269.9970663476
 51
89.9968552409
  0
ARC
  5
78A
100
AcDbEntity
  8
0
100
AcDbCircle
 62
7
  6
CONTINUOUS
 10
8.15
 20
20.5
 40
0.2
100
AcDbArc
 50
112.9539395161
 51
67.2725416863
  0
ARC
  5
78B
100
AcDbEntity
  8
0
100
AcDbCircle
 62
7
  6
CONTINUOUS
 10
7.55
 20
20.5
 40
0.2
100
AcDbArc
 50
113.3772045949
 51
66.8429250588
  0
ARC
  5
78C
100
AcDbEntity
  8
ASSI
100
AcDbCircle
 62
7
  6
CONTINUOUS
 10
8.15
 20
20.5
 40
0.2
100
AcDbArc
 50
112.9539395161
 51
67.2725416863
  0
ARC
  5
78D
100
AcDbEntity
  8
ASSI
100
AcDbCircle
 62
7
  6
CONTINUOUS
 10
7.55
 20
20.5
 40
0.2
100
AcDbArc
 50
113.3772045949
 51
66.8429250588
  0
CIRCLE
  5
78E
100
AcDbEntity
  8
ASSI
100
AcDbCircle
 62
7
  6
CONTINUOUS
 10
9.05
 20
19.85
 40
0.2
  0
CIRCLE
  5
78F
100
AcDbEntity
  8
ASSI
100
AcDbCircle
 62
7
  6
CONTINUOUS
 10
8.45
 20
19.85
 40
0.2
  0
CIRCLE
  5
790
100
AcDbEntity
  8
ASSI
100
AcDbCircle
 62
7
  6
CONTINUOUS
 10
9.35
 20
19.25
 40
0.2
  0
CIRCLE
  5
791
100
AcDbEntity
  8
ASSI
100
AcDbCircle
 62
7
  6
CONTINUOUS
 10
8.75
 20
19.25
 40
0.2
  0
CIRCLE
  5
792
100
AcDbEntity
  8
0
100
AcDbCircle
 62
7
  6
CONTINUOUS
 10
9.05
 20
19.85
 40
0.2
  0
CIRCLE
  5
793
100
AcDbEntity
  8
0
100
AcDbCircle
 62
7
  6
CONTINUOUS
 10
8.45
 20
19.85
 40
0.2
  0
CIRCLE
  5
794
100
AcDbEntity
  8
0
100
AcDbCircle
 62
7
  6
CONTINUOUS
 10
9.35
 20
19.25
 40
0.2
  0
CIRCLE
  5
795
100
AcDbEntity
  8
0
100
AcDbCircle
 62
7
  6
CONTINUOUS
 10
8.75
 20
19.25
 40
0.2
  0
ARC
  5
796
100
AcDbEntity
  8
0
100
AcDbCircle
 62
7
  6
CONTINUOUS
 10
9.35
 20
20.5
 40
0.2
100
AcDbArc
 50
169.1440665855
 51
190.9067479727
  0
ARC
  5
797
100
AcDbEntity
  8
0
100
AcDbCircle
 62
7
  6
CONTINUOUS
 10
8.75
 20
20.5
 40
0.2
100
AcDbArc
 50
112.4693494796
 51
67.7265286246
  0
ARC
  5
798
100
AcDbEntity
  8
ASSI
100
AcDbCircle
 62
7
  6
CONTINUOUS
 10
9.35
 20
20.5
 40
0.2
100
AcDbArc
 50
169.1440665855
 51
190.9067479727
  0
ARC
  5
799
100
AcDbEntity
  8
ASSI
100
AcDbCircle
 62
7
  6
CONTINUOUS
 10
8.75
 20
20.5
 40
0.2
100
AcDbArc
 50
112.4693494796
 51
67.7265286246
  0
CIRCLE
  5
79A
100
AcDbEntity
  8
ASSI
100
AcDbCircle
 62
7
  6
CONTINUOUS
 10
10.25
 20
14.85
 40
0.2
  0
CIRCLE
  5
79B
100
AcDbEntity
  8
ASSI
100
AcDbCircle
 62
7
  6
CONTINUOUS
 10
9.65
 20
14.85
 40
0.2
  0
CIRCLE
  5
79C
100
AcDbEntity
  8
ASSI
100
AcDbCircle
 62
7
  6
CONTINUOUS
 10
10.55
 20
14.25
 40
0.2
  0
CIRCLE
  5
79D
100
AcDbEntity
  8
ASSI
100
AcDbCircle
 62
7
  6
CONTINUOUS
 10
9.95
 20
14.25
 40
0.2
  0
CIRCLE
  5
79E
100
AcDbEntity
  8
0
100
AcDbCircle
 62
7
  6
CONTINUOUS
 10
10.25
 20
14.85
 40
0.2
  0
CIRCLE
  5
79F
100
AcDbEntity
  8
0
100
AcDbCircle
 62
7
  6
CONTINUOUS
 10
9.65
 20
14.85
 40
0.2
  0
CIRCLE
  5
7A0
100
AcDbEntity
  8
0
100
AcDbCircle
 62
7
  6
CONTINUOUS
 10
10.55
 20
14.25
 40
0.2
  0
CIRCLE
  5
7A1
100
AcDbEntity
  8
0
100
AcDbCircle
 62
7
  6
CONTINUOUS
 10
9.95
 20
14.25
 40
0.2
  0
CIRCLE
  5
7A2
100
AcDbEntity
  8
ASSI
100
AcDbCircle
 62
7
  6
CONTINUOUS
 10
10.55
 20
15.5
 40
0.2
  0
CIRCLE
  5
7A3
100
AcDbEntity
  8
ASSI
100
AcDbCircle
 62
7
  6
CONTINUOUS
 10
9.95
 20
15.5
 40
0.2
  0
CIRCLE
  5
7A4
100
AcDbEntity
  8
0
100
AcDbCircle
 62
7
  6
CONTINUOUS
 10
10.55
 20
15.5
 40
0.2
  0
CIRCLE
  5
7A5
100
AcDbEntity
  8
0
100
AcDbCircle
 62
7
  6
CONTINUOUS
 10
9.95
 20
15.5
 40
0.2
  0
CIRCLE
  5
7A6
100
AcDbEntity
  8
ASSI
100
AcDbCircle
 62
7
  6
CONTINUOUS
 10
12.05
 20
14.85
 40
0.2
  0
CIRCLE
  5
7A7
100
AcDbEntity
  8
ASSI
100
AcDbCircle
 62
7
  6
CONTINUOUS
 10
11.45
 20
14.85
 40
0.2
  0
CIRCLE
  5
7A8
100
AcDbEntity
  8
ASSI
100
AcDbCircle
 62
7
  6
CONTINUOUS
 10
10.85
 20
14.85
 40
0.2
  0
CIRCLE
  5
7A9
100
AcDbEntity
  8
ASSI
100
AcDbCircle
 62
7
  6
CONTINUOUS
 10
11.75
 20
14.25
 40
0.2
  0
CIRCLE
  5
7AA
100
AcDbEntity
  8
ASSI
100
AcDbCircle
 62
7
  6
CONTINUOUS
 10
11.15
 20
14.25
 40
0.2
  0
CIRCLE
  5
7AB
100
AcDbEntity
  8
0
100
AcDbCircle
 62
7
  6
CONTINUOUS
 10
12.05
 20
14.85
 40
0.2
  0
CIRCLE
  5
7AC
100
AcDbEntity
  8
0
100
AcDbCircle
 62
7
  6
CONTINUOUS
 10
11.45
 20
14.85
 40
0.2
  0
CIRCLE
  5
7AD
100
AcDbEntity
  8
0
100
AcDbCircle
 62
7
  6
CONTINUOUS
 10
10.85
 20
14.85
 40
0.2
  0
CIRCLE
  5
7AE
100
AcDbEntity
  8
0
100
AcDbCircle
 62
7
  6
CONTINUOUS
 10
11.75
 20
14.25
 40
0.2
  0
CIRCLE
  5
7AF
100
AcDbEntity
  8
0
100
AcDbCircle
 62
7
  6
CONTINUOUS
 10
11.15
 20
14.25
 40
0.2
  0
CIRCLE
  5
7B0
100
AcDbEntity
  8
ASSI
100
AcDbCircle
 62
7
  6
CONTINUOUS
 10
11.75
 20
15.5
 40
0.2
  0
CIRCLE
  5
7B1
100
AcDbEntity
  8
ASSI
100
AcDbCircle
 62
7
  6
CONTINUOUS
 10
11.15
 20
15.5
 40
0.2
  0
CIRCLE
  5
7B2
100
AcDbEntity
  8
0
100
AcDbCircle
 62
7
  6
CONTINUOUS
 10
11.75
 20
15.5
 40
0.2
  0
CIRCLE
  5
7B3
100
AcDbEntity
  8
0
100
AcDbCircle
 62
7
  6
CONTINUOUS
 10
11.15
 20
15.5
 40
0.2
  0
CIRCLE
  5
7B4
100
AcDbEntity
  8
ASSI
100
AcDbCircle
 62
7
  6
CONTINUOUS
 10
10.25
 20
16.1
 40
0.2
  0
CIRCLE
  5
7B5
100
AcDbEntity
  8
ASSI
100
AcDbCircle
 62
7
  6
CONTINUOUS
 10
9.65
 20
16.1
 40
0.2
  0
CIRCLE
  5
7B6
100
AcDbEntity
  8
0
100
AcDbCircle
 62
7
  6
CONTINUOUS
 10
10.25
 20
16.1
 40
0.2
  0
CIRCLE
  5
7B7
100
AcDbEntity
  8
0
100
AcDbCircle
 62
7
  6
CONTINUOUS
 10
9.65
 20
16.1
 40
0.2
  0
CIRCLE
  5
7B8
100
AcDbEntity
  8
ASSI
100
AcDbCircle
 62
7
  6
CONTINUOUS
 10
10.25
 20
17.35
 40
0.2
  0
CIRCLE
  5
7B9
100
AcDbEntity
  8
ASSI
100
AcDbCircle
 62
7
  6
CONTINUOUS
 10
9.65
 20
17.35
 40
0.2
  0
CIRCLE
  5
7BA
100
AcDbEntity
  8
ASSI
100
AcDbCircle
 62
7
  6
CONTINUOUS
 10
10.55
 20
16.75
 40
0.2
  0
CIRCLE
  5
7BB
100
AcDbEntity
  8
ASSI
100
AcDbCircle
 62
7
  6
CONTINUOUS
 10
9.95
 20
16.75
 40
0.2
  0
CIRCLE
  5
7BC
100
AcDbEntity
  8
0
100
AcDbCircle
 62
7
  6
CONTINUOUS
 10
10.25
 20
17.35
 40
0.2
  0
CIRCLE
  5
7BD
100
AcDbEntity
  8
0
100
AcDbCircle
 62
7
  6
CONTINUOUS
 10
9.65
 20
17.35
 40
0.2
  0
CIRCLE
  5
7BE
100
AcDbEntity
  8
0
100
AcDbCircle
 62
7
  6
CONTINUOUS
 10
10.55
 20
16.75
 40
0.2
  0
CIRCLE
  5
7BF
100
AcDbEntity
  8
0
100
AcDbCircle
 62
7
  6
CONTINUOUS
 10
9.95
 20
16.75
 40
0.2
  0
CIRCLE
  5
7C0
100
AcDbEntity
  8
ASSI
100
AcDbCircle
 62
7
  6
CONTINUOUS
 10
12.05
 20
16.1
 40
0.2
  0
CIRCLE
  5
7C1
100
AcDbEntity
  8
ASSI
100
AcDbCircle
 62
7
  6
CONTINUOUS
 10
11.45
 20
16.1
 40
0.2
  0
CIRCLE
  5
7C2
100
AcDbEntity
  8
ASSI
100
AcDbCircle
 62
7
  6
CONTINUOUS
 10
10.85
 20
16.1
 40
0.2
  0
CIRCLE
  5
7C3
100
AcDbEntity
  8
0
100
AcDbCircle
 62
7
  6
CONTINUOUS
 10
12.05
 20
16.1
 40
0.2
  0
CIRCLE
  5
7C4
100
AcDbEntity
  8
0
100
AcDbCircle
 62
7
  6
CONTINUOUS
 10
11.45
 20
16.1
 40
0.2
  0
CIRCLE
  5
7C5
100
AcDbEntity
  8
0
100
AcDbCircle
 62
7
  6
CONTINUOUS
 10
10.85
 20
16.1
 40
0.2
  0
CIRCLE
  5
7C6
100
AcDbEntity
  8
ASSI
100
AcDbCircle
 62
7
  6
CONTINUOUS
 10
12.05
 20
17.35
 40
0.2
  0
CIRCLE
  5
7C7
100
AcDbEntity
  8
ASSI
100
AcDbCircle
 62
7
  6
CONTINUOUS
 10
11.45
 20
17.35
 40
0.2
  0
CIRCLE
  5
7C8
100
AcDbEntity
  8
ASSI
100
AcDbCircle
 62
7
  6
CONTINUOUS
 10
10.85
 20
17.35
 40
0.2
  0
CIRCLE
  5
7C9
100
AcDbEntity
  8
ASSI
100
AcDbCircle
 62
7
  6
CONTINUOUS
 10
11.75
 20
16.75
 40
0.2
  0
CIRCLE
  5
7CA
100
AcDbEntity
  8
ASSI
100
AcDbCircle
 62
7
  6
CONTINUOUS
 10
11.15
 20
16.75
 40
0.2
  0
CIRCLE
  5
7CB
100
AcDbEntity
  8
0
100
AcDbCircle
 62
7
  6
CONTINUOUS
 10
12.05
 20
17.35
 40
0.2
  0
CIRCLE
  5
7CC
100
AcDbEntity
  8
0
100
AcDbCircle
 62
7
  6
CONTINUOUS
 10
11.45
 20
17.35
 40
0.2
  0
CIRCLE
  5
7CD
100
AcDbEntity
  8
0
100
AcDbCircle
 62
7
  6
CONTINUOUS
 10
10.85
 20
17.35
 40
0.2
  0
CIRCLE
  5
7CE
100
AcDbEntity
  8
0
100
AcDbCircle
 62
7
  6
CONTINUOUS
 10
11.75
 20
16.75
 40
0.2
  0
CIRCLE
  5
7CF
100
AcDbEntity
  8
0
100
AcDbCircle
 62
7
  6
CONTINUOUS
 10
11.15
 20
16.75
 40
0.2
  0
CIRCLE
  5
7D0
100
AcDbEntity
  8
ASSI
100
AcDbCircle
 62
7
  6
CONTINUOUS
 10
13.25
 20
14.85
 40
0.2
  0
CIRCLE
  5
7D1
100
AcDbEntity
  8
ASSI
100
AcDbCircle
 62
7
  6
CONTINUOUS
 10
12.65
 20
14.85
 40
0.2
  0
CIRCLE
  5
7D2
100
AcDbEntity
  8
ASSI
100
AcDbCircle
 62
7
  6
CONTINUOUS
 10
12.95
 20
14.25
 40
0.2
  0
CIRCLE
  5
7D3
100
AcDbEntity
  8
ASSI
100
AcDbCircle
 62
7
  6
CONTINUOUS
 10
12.35
 20
14.25
 40
0.2
  0
CIRCLE
  5
7D4
100
AcDbEntity
  8
0
100
AcDbCircle
 62
7
  6
CONTINUOUS
 10
13.25
 20
14.85
 40
0.2
  0
CIRCLE
  5
7D5
100
AcDbEntity
  8
0
100
AcDbCircle
 62
7
  6
CONTINUOUS
 10
12.65
 20
14.85
 40
0.2
  0
CIRCLE
  5
7D6
100
AcDbEntity
  8
0
100
AcDbCircle
 62
7
  6
CONTINUOUS
 10
12.95
 20
14.25
 40
0.2
  0
CIRCLE
  5
7D7
100
AcDbEntity
  8
0
100
AcDbCircle
 62
7
  6
CONTINUOUS
 10
12.35
 20
14.25
 40
0.2
  0
CIRCLE
  5
7D8
100
AcDbEntity
  8
ASSI
100
AcDbCircle
 62
7
  6
CONTINUOUS
 10
12.95
 20
15.5
 40
0.2
  0
CIRCLE
  5
7D9
100
AcDbEntity
  8
ASSI
100
AcDbCircle
 62
7
  6
CONTINUOUS
 10
12.35
 20
15.5
 40
0.2
  0
CIRCLE
  5
7DA
100
AcDbEntity
  8
0
100
AcDbCircle
 62
7
  6
CONTINUOUS
 10
12.95
 20
15.5
 40
0.2
  0
CIRCLE
  5
7DB
100
AcDbEntity
  8
0
100
AcDbCircle
 62
7
  6
CONTINUOUS
 10
12.35
 20
15.5
 40
0.2
  0
CIRCLE
  5
7DC
100
AcDbEntity
  8
ASSI
100
AcDbCircle
 62
7
  6
CONTINUOUS
 10
14.45
 20
14.85
 40
0.2
  0
CIRCLE
  5
7DD
100
AcDbEntity
  8
ASSI
100
AcDbCircle
 62
7
  6
CONTINUOUS
 10
13.85
 20
14.85
 40
0.2
  0
CIRCLE
  5
7DE
100
AcDbEntity
  8
ASSI
100
AcDbCircle
 62
7
  6
CONTINUOUS
 10
14.15
 20
14.25
 40
0.2
  0
CIRCLE
  5
7DF
100
AcDbEntity
  8
ASSI
100
AcDbCircle
 62
7
  6
CONTINUOUS
 10
13.55
 20
14.25
 40
0.2
  0
CIRCLE
  5
7E0
100
AcDbEntity
  8
0
100
AcDbCircle
 62
7
  6
CONTINUOUS
 10
14.45
 20
14.85
 40
0.2
  0
CIRCLE
  5
7E1
100
AcDbEntity
  8
0
100
AcDbCircle
 62
7
  6
CONTINUOUS
 10
13.85
 20
14.85
 40
0.2
  0
ARC
  5
7E2
100
AcDbEntity
  8
0
100
AcDbCircle
 62
7
  6
CONTINUOUS
 10
14.75
 20
14.25
 40
0.2
100
AcDbArc
 50
38.8634944713
 51
355.5561789397
  0
CIRCLE
  5
7E3
100
AcDbEntity
  8
0
100
AcDbCircle
 62
7
  6
CONTINUOUS
 10
14.15
 20
14.25
 40
0.2
  0
CIRCLE
  5
7E4
100
AcDbEntity
  8
0
100
AcDbCircle
 62
7
  6
CONTINUOUS
 10
13.55
 20
14.25
 40
0.2
  0
ARC
  5
7E5
100
AcDbEntity
  8
ASSI
100
AcDbCircle
 62
7
  6
CONTINUOUS
 10
14.75
 20
14.25
 40
0.2
100
AcDbArc
 50
38.8634944713
 51
355.5561789397
  0
CIRCLE
  5
7E6
100
AcDbEntity
  8
ASSI
100
AcDbCircle
 62
7
  6
CONTINUOUS
 10
14.15
 20
15.5
 40
0.2
  0
CIRCLE
  5
7E7
100
AcDbEntity
  8
ASSI
100
AcDbCircle
 62
7
  6
CONTINUOUS
 10
13.55
 20
15.5
 40
0.2
  0
CIRCLE
  5
7E8
100
AcDbEntity
  8
0
100
AcDbCircle
 62
7
  6
CONTINUOUS
 10
14.15
 20
15.5
 40
0.2
  0
CIRCLE
  5
7E9
100
AcDbEntity
  8
0
100
AcDbCircle
 62
7
  6
CONTINUOUS
 10
13.55
 20
15.5
 40
0.2
  0
CIRCLE
  5
7EA
100
AcDbEntity
  8
ASSI
100
AcDbCircle
 62
7
  6
CONTINUOUS
 10
13.25
 20
16.1
 40
0.2
  0
CIRCLE
  5
7EB
100
AcDbEntity
  8
ASSI
100
AcDbCircle
 62
7
  6
CONTINUOUS
 10
12.65
 20
16.1
 40
0.2
  0
CIRCLE
  5
7EC
100
AcDbEntity
  8
0
100
AcDbCircle
 62
7
  6
CONTINUOUS
 10
13.25
 20
16.1
 40
0.2
  0
CIRCLE
  5
7ED
100
AcDbEntity
  8
0
100
AcDbCircle
 62
7
  6
CONTINUOUS
 10
12.65
 20
16.1
 40
0.2
  0
CIRCLE
  5
7EE
100
AcDbEntity
  8
ASSI
100
AcDbCircle
 62
7
  6
CONTINUOUS
 10
12.65
 20
17.35
 40
0.2
  0
CIRCLE
  5
7EF
100
AcDbEntity
  8
ASSI
100
AcDbCircle
 62
7
  6
CONTINUOUS
 10
12.95
 20
16.75
 40
0.2
  0
CIRCLE
  5
7F0
100
AcDbEntity
  8
ASSI
100
AcDbCircle
 62
7
  6
CONTINUOUS
 10
12.35
 20
16.75
 40
0.2
  0
ARC
  5
7F1
100
AcDbEntity
  8
0
100
AcDbCircle
 62
7
  6
CONTINUOUS
 10
13.25
 20
17.35
 40
0.2
100
AcDbArc
 50
89.9970271125
 51
1.0401134789
  0
CIRCLE
  5
7F2
100
AcDbEntity
  8
0
100
AcDbCircle
 62
7
  6
CONTINUOUS
 10
12.65
 20
17.35
 40
0.2
  0
CIRCLE
  5
7F3
100
AcDbEntity
  8
0
100
AcDbCircle
 62
7
  6
CONTINUOUS
 10
12.95
 20
16.75
 40
0.2
  0
CIRCLE
  5
7F4
100
AcDbEntity
  8
0
100
AcDbCircle
 62
7
  6
CONTINUOUS
 10
12.35
 20
16.75
 40
0.2
  0
ARC
  5
7F5
100
AcDbEntity
  8
ASSI
100
AcDbCircle
 62
7
  6
CONTINUOUS
 10
13.25
 20
17.35
 40
0.2
100
AcDbArc
 50
89.9970271125
 51
1.0401134789
  0
CIRCLE
  5
7F6
100
AcDbEntity
  8
ASSI
100
AcDbCircle
 62
7
  6
CONTINUOUS
 10
13.85
 20
16.1
 40
0.2
  0
ARC
  5
7F7
100
AcDbEntity
  8
0
100
AcDbCircle
 62
7
  6
CONTINUOUS
 10
14.45
 20
16.1
 40
0.2
100
AcDbArc
 50
161.1564467475
 51
242.2175355365
  0
CIRCLE
  5
7F8
100
AcDbEntity
  8
0
100
AcDbCircle
 62
7
  6
CONTINUOUS
 10
13.85
 20
16.1
 40
0.2
  0
ARC
  5
7F9
100
AcDbEntity
  8
ASSI
100
AcDbCircle
 62
7
  6
CONTINUOUS
 10
14.45
 20
16.1
 40
0.2
100
AcDbArc
 50
161.1564467475
 51
242.2175355365
  0
CIRCLE
  5
7FA
100
AcDbEntity
  8
ASSI
100
AcDbCircle
 62
7
  6
CONTINUOUS
 10
13.55
 20
16.75
 40
0.2
  0
ARC
  5
7FB
100
AcDbEntity
  8
0
100
AcDbCircle
 62
7
  6
CONTINUOUS
 10
13.85
 20
17.35
 40
0.2
100
AcDbArc
 50
178.9627816896
 51
266.5178599277
  0
ARC
  5
7FC
100
AcDbEntity
  8
0
100
AcDbCircle
 62
7
  6
CONTINUOUS
 10
14.15
 20
16.75
 40
0.2
100
AcDbArc
 50
151.577760289
 51
255.1070727056
  0
CIRCLE
  5
7FD
100
AcDbEntity
  8
0
100
AcDbCircle
 62
7
  6
CONTINUOUS
 10
13.55
 20
16.75
 40
0.2
  0
ARC
  5
7FE
100
AcDbEntity
  8
ASSI
100
AcDbCircle
 62
7
  6
CONTINUOUS
 10
13.85
 20
17.35
 40
0.2
100
AcDbArc
 50
178.9627816896
 51
266.5178599277
  0
ARC
  5
7FF
100
AcDbEntity
  8
ASSI
100
AcDbCircle
 62
7
  6
CONTINUOUS
 10
14.15
 20
16.75
 40
0.2
100
AcDbArc
 50
151.577760289
 51
255.1070727056
  0
CIRCLE
  5
800
100
AcDbEntity
  8
ASSI
100
AcDbCircle
 62
7
  6
CONTINUOUS
 10
9.95
 20
18.0
 40
0.2
  0
CIRCLE
  5
801
100
AcDbEntity
  8
0
100
AcDbCircle
 62
7
  6
CONTINUOUS
 10
9.95
 20
18.0
 40
0.2
  0
CIRCLE
  5
802
100
AcDbEntity
  8
ASSI
100
AcDbCircle
 62
7
  6
CONTINUOUS
 10
10.25
 20
18.6
 40
0.2
  0
CIRCLE
  5
803
100
AcDbEntity
  8
ASSI
100
AcDbCircle
 62
7
  6
CONTINUOUS
 10
9.65
 20
18.6
 40
0.2
  0
CIRCLE
  5
804
100
AcDbEntity
  8
0
100
AcDbCircle
 62
7
  6
CONTINUOUS
 10
10.25
 20
18.6
 40
0.2
  0
CIRCLE
  5
805
100
AcDbEntity
  8
0
100
AcDbCircle
 62
7
  6
CONTINUOUS
 10
9.65
 20
18.6
 40
0.2
  0
CIRCLE
  5
806
100
AcDbEntity
  8
ASSI
100
AcDbCircle
 62
7
  6
CONTINUOUS
 10
11.15
 20
18.0
 40
0.2
  0
CIRCLE
  5
807
100
AcDbEntity
  8
ASSI
100
AcDbCircle
 62
7
  6
CONTINUOUS
 10
10.55
 20
18.0
 40
0.2
  0
CIRCLE
  5
808
100
AcDbEntity
  8
0
100
AcDbCircle
 62
7
  6
CONTINUOUS
 10
11.15
 20
18.0
 40
0.2
  0
CIRCLE
  5
809
100
AcDbEntity
  8
0
100
AcDbCircle
 62
7
  6
CONTINUOUS
 10
10.55
 20
18.0
 40
0.2
  0
ARC
  5
80A
100
AcDbEntity
  8
DRAFT
100
AcDbCircle
 62
7
  6
CONTINUOUS
 10
10.9590120462
 20
19.0248446208
 40
1.6822942457
100
AcDbArc
 50
31.6116119504
 51
90.0559519405
  0
ARC
  5
80B
100
AcDbEntity
  8
DRAFT
100
AcDbCircle
 62
7
  6
CONTINUOUS
 10
10.9597438128
 20
19.0247535639
 40
1.6628953902
100
AcDbArc
 50
31.6278823088
 51
90.081818011
  0
CIRCLE
  5
80C
100
AcDbEntity
  8
ASSI
100
AcDbCircle
 62
7
  6
CONTINUOUS
 10
11.45
 20
18.6
 40
0.2
  0
CIRCLE
  5
80D
100
AcDbEntity
  8
ASSI
100
AcDbCircle
 62
7
  6
CONTINUOUS
 10
10.85
 20
18.6
 40
0.2
  0
CIRCLE
  5
80E
100
AcDbEntity
  8
0
100
AcDbCircle
 62
7
  6
CONTINUOUS
 10
11.45
 20
18.6
 40
0.2
  0
CIRCLE
  5
80F
100
AcDbEntity
  8
0
100
AcDbCircle
 62
7
  6
CONTINUOUS
 10
10.85
 20
18.6
 40
0.2
  0
CIRCLE
  5
810
100
AcDbEntity
  8
ASSI
100
AcDbCircle
 62
7
  6
CONTINUOUS
 10
10.25
 20
19.85
 40
0.2
  0
CIRCLE
  5
811
100
AcDbEntity
  8
ASSI
100
AcDbCircle
 62
7
  6
CONTINUOUS
 10
9.65
 20
19.85
 40
0.2
  0
CIRCLE
  5
812
100
AcDbEntity
  8
ASSI
100
AcDbCircle
 62
7
  6
CONTINUOUS
 10
9.95
 20
19.25
 40
0.2
  0
CIRCLE
  5
813
100
AcDbEntity
  8
0
100
AcDbCircle
 62
7
  6
CONTINUOUS
 10
10.25
 20
19.85
 40
0.2
  0
CIRCLE
  5
814
100
AcDbEntity
  8
0
100
AcDbCircle
 62
7
  6
CONTINUOUS
 10
9.65
 20
19.85
 40
0.2
  0
CIRCLE
  5
815
100
AcDbEntity
  8
0
100
AcDbCircle
 62
7
  6
CONTINUOUS
 10
9.95
 20
19.25
 40
0.2
  0
ARC
  5
816
100
AcDbEntity
  8
0
100
AcDbCircle
 62
7
  6
CONTINUOUS
 10
9.95
 20
20.5
 40
0.2
100
AcDbArc
 50
111.2693623602
 51
68.8386631309
  0
ARC
  5
817
100
AcDbEntity
  8
ASSI
100
AcDbCircle
 62
7
  6
CONTINUOUS
 10
9.95
 20
20.5
 40
0.2
100
AcDbArc
 50
111.2693623602
 51
68.8386631309
  0
CIRCLE
  5
818
100
AcDbEntity
  8
ASSI
100
AcDbCircle
 62
7
  6
CONTINUOUS
 10
11.45
 20
19.85
 40
0.2
  0
CIRCLE
  5
819
100
AcDbEntity
  8
ASSI
100
AcDbCircle
 62
7
  6
CONTINUOUS
 10
10.85
 20
19.85
 40
0.2
  0
CIRCLE
  5
81A
100
AcDbEntity
  8
ASSI
100
AcDbCircle
 62
7
  6
CONTINUOUS
 10
11.15
 20
19.25
 40
0.2
  0
CIRCLE
  5
81B
100
AcDbEntity
  8
ASSI
100
AcDbCircle
 62
7
  6
CONTINUOUS
 10
10.55
 20
19.25
 40
0.2
  0
CIRCLE
  5
81C
100
AcDbEntity
  8
0
100
AcDbCircle
 62
7
  6
CONTINUOUS
 10
11.45
 20
19.85
 40
0.2
  0
CIRCLE
  5
81D
100
AcDbEntity
  8
0
100
AcDbCircle
 62
7
  6
CONTINUOUS
 10
10.85
 20
19.85
 40
0.2
  0
CIRCLE
  5
81E
100
AcDbEntity
  8
0
100
AcDbCircle
 62
7
  6
CONTINUOUS
 10
11.15
 20
19.25
 40
0.2
  0
CIRCLE
  5
81F
100
AcDbEntity
  8
0
100
AcDbCircle
 62
7
  6
CONTINUOUS
 10
10.55
 20
19.25
 40
0.2
  0
ARC
  5
820
100
AcDbEntity
  8
0
100
AcDbCircle
 62
7
  6
CONTINUOUS
 10
11.15
 20
20.5
 40
0.2
100
AcDbArc
 50
113.3728767554
 51
51.8982155617
  0
ARC
  5
821
100
AcDbEntity
  8
0
100
AcDbCircle
 62
7
  6
CONTINUOUS
 10
10.55
 20
20.5
 40
0.2
100
AcDbArc
 50
110.6232083679
 51
69.5020542888
  0
ARC
  5
822
100
AcDbEntity
  8
ASSI
100
AcDbCircle
 62
7
  6
CONTINUOUS
 10
11.15
 20
20.5
 40
0.2
100
AcDbArc
 50
113.3728767554
 51
51.8982155617
  0
ARC
  5
823
100
AcDbEntity
  8
ASSI
100
AcDbCircle
 62
7
  6
CONTINUOUS
 10
10.55
 20
20.5
 40
0.2
100
AcDbArc
 50
110.6232083679
 51
69.5020542888
  0
CIRCLE
  5
824
100
AcDbEntity
  8
ASSI
100
AcDbCircle
 62
7
  6
CONTINUOUS
 10
12.35
 20
18.0
 40
0.2
  0
CIRCLE
  5
825
100
AcDbEntity
  8
ASSI
100
AcDbCircle
 62
7
  6
CONTINUOUS
 10
11.75
 20
18.0
 40
0.2
  0
CIRCLE
  5
826
100
AcDbEntity
  8
0
100
AcDbCircle
 62
7
  6
CONTINUOUS
 10
12.35
 20
18.0
 40
0.2
  0
CIRCLE
  5
827
100
AcDbEntity
  8
0
100
AcDbCircle
 62
7
  6
CONTINUOUS
 10
11.75
 20
18.0
 40
0.2
  0
CIRCLE
  5
828
100
AcDbEntity
  8
ASSI
100
AcDbCircle
 62
7
  6
CONTINUOUS
 10
12.05
 20
18.6
 40
0.2
  0
CIRCLE
  5
829
100
AcDbEntity
  8
0
100
AcDbCircle
 62
7
  6
CONTINUOUS
 10
12.05
 20
18.6
 40
0.2
  0
CIRCLE
  5
82A
100
AcDbEntity
  8
ASSI
100
AcDbCircle
 62
7
  6
CONTINUOUS
 10
12.95
 20
18.0
 40
0.2
  0
ARC
  5
82B
100
AcDbEntity
  8
0
100
AcDbCircle
 62
7
  6
CONTINUOUS
 10
13.55
 20
18.0
 40
0.2
100
AcDbArc
 50
148.6217250298
 51
211.2192543597
  0
CIRCLE
  5
82C
100
AcDbEntity
  8
0
100
AcDbCircle
 62
7
  6
CONTINUOUS
 10
12.95
 20
18.0
 40
0.2
  0
ARC
  5
82D
100
AcDbEntity
  8
ASSI
100
AcDbCircle
 62
7
  6
CONTINUOUS
 10
13.55
 20
18.0
 40
0.2
100
AcDbArc
 50
148.6217250298
 51
211.2192543597
  0
CIRCLE
  5
82E
100
AcDbEntity
  8
ASSI
100
AcDbCircle
 62
7
  6
CONTINUOUS
 10
12.65
 20
18.6
 40
0.2
  0
ARC
  5
82F
100
AcDbEntity
  8
0
100
AcDbCircle
 62
7
  6
CONTINUOUS
 10
13.25
 20
18.6
 40
0.2
100
AcDbArc
 50
152.9111358104
 51
263.0966151154
  0
CIRCLE
  5
830
100
AcDbEntity
  8
0
100
AcDbCircle
 62
7
  6
CONTINUOUS
 10
12.65
 20
18.6
 40
0.2
  0
ARC
  5
831
100
AcDbEntity
  8
ASSI
100
AcDbCircle
 62
7
  6
CONTINUOUS
 10
13.25
 20
18.6
 40
0.2
100
AcDbArc
 50
152.9111358104
 51
263.0966151154
  0
CIRCLE
  5
832
100
AcDbEntity
  8
ASSI
100
AcDbCircle
 62
7
  6
CONTINUOUS
 10
12.05
 20
19.85
 40
0.2
  0
CIRCLE
  5
833
100
AcDbEntity
  8
ASSI
100
AcDbCircle
 62
7
  6
CONTINUOUS
 10
12.35
 20
19.25
 40
0.2
  0
CIRCLE
  5
834
100
AcDbEntity
  8
ASSI
100
AcDbCircle
 62
7
  6
CONTINUOUS
 10
11.75
 20
19.25
 40
0.2
  0
CIRCLE
  5
835
100
AcDbEntity
  8
0
100
AcDbCircle
 62
7
  6
CONTINUOUS
 10
12.05
 20
19.85
 40
0.2
  0
ARC
  5
836
100
AcDbEntity
  8
0
100
AcDbCircle
 62
7
  6
CONTINUOUS
 10
11.75
 20
20.5
 40
0.2
100
AcDbArc
 50
158.429505251
 51
325.2177545228
  0
ARC
  5
837
100
AcDbEntity
  8
0
100
AcDbCircle
 62
7
  6
CONTINUOUS
 10
12.95
 20
19.25
 40
0.2
100
AcDbArc
 50
175.1042271035
 51
243.9202699906
  0
CIRCLE
  5
838
100
AcDbEntity
  8
0
100
AcDbCircle
 62
7
  6
CONTINUOUS
 10
12.35
 20
19.25
 40
0.2
  0
CIRCLE
  5
839
100
AcDbEntity
  8
0
100
AcDbCircle
 62
7
  6
CONTINUOUS
 10
11.75
 20
19.25
 40
0.2
  0
ARC
  5
83A
100
AcDbEntity
  8
ASSI
100
AcDbCircle
 62
7
  6
CONTINUOUS
 10
11.75
 20
20.5
 40
0.2
100
AcDbArc
 50
158.429505251
 51
325.2177545228
  0
ARC
  5
83B
100
AcDbEntity
  8
ASSI
100
AcDbCircle
 62
7
  6
CONTINUOUS
 10
12.95
 20
19.25
 40
0.2
100
AcDbArc
 50
175.1042271035
 51
243.9202699906
  0
LINE
  5
83C
100
AcDbEntity
  8
DRAFT
100
AcDbLine
 62
7
  6
CONTINUOUS
 10
10.9573692095
 20
20.6876472586
 11
9.6964135579
 21
20.6859804676
  0
LINE
  5
83D
100
AcDbEntity
  8
DRAFT
100
AcDbLine
 62
7
  6
CONTINUOUS
 10
9.1536801123
 20
20.6853274852
 11
7.25
 21
20.6833413707
  0
LINE
  5
83E
100
AcDbEntity
  8
DRAFT
100
AcDbLine
 62
7
  6
CONTINUOUS
 10
7.25
 20
6.7666754049
 11
9.1500895074
 21
6.7646912836
  0
LINE
  5
83F
100
AcDbEntity
  8
DRAFT
100
AcDbLine
 62
7
  6
CONTINUOUS
 10
9.1500895074
 20
6.7646912836
 11
9.5502284378
 21
6.7642129427
  0
LINE
  5
840
100
AcDbEntity
  8
DRAFT
100
AcDbLine
 62
7
  6
CONTINUOUS
 10
9.5502284378
 20
6.7642129427
 11
9.750174806
 21
6.7639659926
  0
LINE
  5
841
100
AcDbEntity
  8
DRAFT
100
AcDbLine
 62
7
  6
CONTINUOUS
 10
9.750174806
 20
6.7639659926
 11
10.1501647715
 21
6.7634560836
  0
LINE
  5
842
100
AcDbEntity
  8
DRAFT
100
AcDbLine
 62
7
  6
CONTINUOUS
 10
10.1501647715
 20
6.7634560836
 11
10.3502430147
 21
6.7631930584
  0
LINE
  5
843
100
AcDbEntity
  8
DRAFT
100
AcDbLine
 62
7
  6
CONTINUOUS
 10
10.3502430147
 20
6.7631930584
 11
10.7501257801
 21
6.762651414
  0
LINE
  5
844
100
AcDbEntity
  8
DRAFT
100
AcDbLine
 62
7
  6
CONTINUOUS
 10
10.7501257801
 20
6.762651414
 11
10.9500996556
 21
6.7623725548
  0
LINE
  5
845
100
AcDbEntity
  8
DRAFT
100
AcDbLine
 62
7
  6
CONTINUOUS
 10
10.9500996556
 20
6.7623725548
 11
11.3502693389
 21
6.7617984828
  0
LINE
  5
846
100
AcDbEntity
  8
DRAFT
100
AcDbLine
 62
7
  6
CONTINUOUS
 10
11.3502693389
 20
6.7617984828
 11
11.5502059681
 21
6.7615036265
  0
LINE
  5
847
100
AcDbEntity
  8
DRAFT
100
AcDbLine
 62
7
  6
CONTINUOUS
 10
11.5502059681
 20
6.7615036265
 11
11.9501905996
 21
6.7608976398
  0
LINE
  5
848
100
AcDbEntity
  8
DRAFT
100
AcDbLine
 62
7
  6
CONTINUOUS
 10
11.9501905996
 20
6.7608976398
 11
12.1502822653
 21
6.7605864164
  0
LINE
  5
849
100
AcDbEntity
  8
DRAFT
100
AcDbLine
 62
7
  6
CONTINUOUS
 10
12.1502822653
 20
6.7605864164
 11
12.5501405586
 21
6.7599482853
  0
LINE
  5
84A
100
AcDbEntity
  8
DRAFT
100
AcDbLine
 62
7
  6
CONTINUOUS
 10
12.5501405586
 20
6.7599482853
 11
12.750114582
 21
6.7596210334
  0
LINE
  5
84B
100
AcDbEntity
  8
DRAFT
100
AcDbLine
 62
7
  6
CONTINUOUS
 10
12.750114582
 20
6.7596210334
 11
13.1503063101
 21
6.7589498354
  0
LINE
  5
84C
100
AcDbEntity
  8
DRAFT
100
AcDbLine
 62
7
  6
CONTINUOUS
 10
13.1503063101
 20
6.7589498354
 11
13.3502278799
 21
6.7586063715
  0
LINE
  5
84D
100
AcDbEntity
  8
DRAFT
100
AcDbLine
 62
7
  6
CONTINUOUS
 10
13.3502278799
 20
6.7586063715
 11
13.646315662
 21
6.7580876842
  0
LINE
  5
84E
100
AcDbEntity
  8
DRAFT
100
AcDbLine
 62
7
  6
CONTINUOUS
 10
14.3501416703
 20
6.7568065808
 11
14.5501398856
 21
6.7564301339
  0
LINE
  5
84F
100
AcDbEntity
  8
DRAFT
100
AcDbLine
 62
7
  6
CONTINUOUS
 10
14.5501398856
 20
6.7564301339
 11
14.9503403311
 21
6.7556602959
  0
LINE
  5
850
100
AcDbEntity
  8
DRAFT
100
AcDbLine
 62
7
  6
CONTINUOUS
 10
14.9503403311
 20
6.7556602959
 11
15.1502393315
 21
6.7552674711
  0
LINE
  5
851
100
AcDbEntity
  8
DRAFT
100
AcDbLine
 62
7
  6
CONTINUOUS
 10
15.1502393315
 20
6.7552674711
 11
15.3419278893
 21
6.7548855774
  0
LINE
  5
852
100
AcDbEntity
  8
DRAFT
100
AcDbLine
 62
7
  6
CONTINUOUS
 10
-15.3419279189
 20
6.7548855927
 11
-15.1502393316
 21
6.7552674865
  0
LINE
  5
853
100
AcDbEntity
  8
DRAFT
100
AcDbLine
 62
7
  6
CONTINUOUS
 10
-15.1502393316
 20
6.7552674865
 11
-14.9503403312
 21
6.7556603112
  0
LINE
  5
854
100
AcDbEntity
  8
DRAFT
100
AcDbLine
 62
7
  6
CONTINUOUS
 10
-14.9503403312
 20
6.7556603112
 11
-14.5501398856
 21
6.7564301493
  0
LINE
  5
855
100
AcDbEntity
  8
DRAFT
100
AcDbLine
 62
7
  6
CONTINUOUS
 10
-14.5501398856
 20
6.7564301493
 11
-14.3501416704
 21
6.7568065961
  0
LINE
  5
856
100
AcDbEntity
  8
DRAFT
100
AcDbLine
 62
7
  6
CONTINUOUS
 10
-13.646315662
 20
6.7580876995
 11
-13.35022788
 21
6.7586063868
  0
LINE
  5
857
100
AcDbEntity
  8
DRAFT
100
AcDbLine
 62
7
  6
CONTINUOUS
 10
-13.35022788
 20
6.7586063868
 11
-13.1503063101
 21
6.7589498508
  0
LINE
  5
858
100
AcDbEntity
  8
DRAFT
100
AcDbLine
 62
7
  6
CONTINUOUS
 10
-13.1503063101
 20
6.7589498508
 11
-12.750114582
 21
6.7596210487
  0
LINE
  5
859
100
AcDbEntity
  8
DRAFT
100
AcDbLine
 62
7
  6
CONTINUOUS
 10
-12.750114582
 20
6.7596210487
 11
-12.5501405586
 21
6.7599483007
  0
LINE
  5
85A
100
AcDbEntity
  8
DRAFT
100
AcDbLine
 62
7
  6
CONTINUOUS
 10
-12.5501405586
 20
6.7599483007
 11
-12.1502822653
 21
6.7605864318
  0
LINE
  5
85B
100
AcDbEntity
  8
DRAFT
100
AcDbLine
 62
7
  6
CONTINUOUS
 10
-12.1502822653
 20
6.7605864318
 11
-11.9501905996
 21
6.7608976551
  0
LINE
  5
85C
100
AcDbEntity
  8
DRAFT
100
AcDbLine
 62
7
  6
CONTINUOUS
 10
-11.9501905996
 20
6.7608976551
 11
-11.5502059681
 21
6.7615036418
  0
LINE
  5
85D
100
AcDbEntity
  8
DRAFT
100
AcDbLine
 62
7
  6
CONTINUOUS
 10
-11.5502059681
 20
6.7615036418
 11
-11.3502693389
 21
6.7617984981
  0
LINE
  5
85E
100
AcDbEntity
  8
DRAFT
100
AcDbLine
 62
7
  6
CONTINUOUS
 10
-11.3502693389
 20
6.7617984981
 11
-10.9500996556
 21
6.7623725702
  0
LINE
  5
85F
100
AcDbEntity
  8
DRAFT
100
AcDbLine
 62
7
  6
CONTINUOUS
 10
-10.9500996556
 20
6.7623725702
 11
-10.7501257801
 21
6.7626514294
  0
LINE
  5
860
100
AcDbEntity
  8
DRAFT
100
AcDbLine
 62
7
  6
CONTINUOUS
 10
-10.7501257801
 20
6.7626514294
 11
-10.3502430147
 21
6.7631930738
  0
LINE
  5
861
100
AcDbEntity
  8
DRAFT
100
AcDbLine
 62
7
  6
CONTINUOUS
 10
-10.3502430147
 20
6.7631930738
 11
-10.1501647715
 21
6.7634560989
  0
LINE
  5
862
100
AcDbEntity
  8
DRAFT
100
AcDbLine
 62
7
  6
CONTINUOUS
 10
-10.1501647715
 20
6.7634560989
 11
-9.750174806
 21
6.763966008
  0
LINE
  5
863
100
AcDbEntity
  8
DRAFT
100
AcDbLine
 62
7
  6
CONTINUOUS
 10
-9.750174806
 20
6.763966008
 11
-9.5502284378
 21
6.764212958
  0
LINE
  5
864
100
AcDbEntity
  8
DRAFT
100
AcDbLine
 62
7
  6
CONTINUOUS
 10
-9.5502284378
 20
6.764212958
 11
-9.1500895074
 21
6.764691299
  0
LINE
  5
865
100
AcDbEntity
  8
DRAFT
100
AcDbLine
 62
7
  6
CONTINUOUS
 10
-9.1500895074
 20
6.764691299
 11
-7.25
 21
6.7666754203
  0
LINE
  5
866
100
AcDbEntity
  8
DRAFT
100
AcDbLine
 62
7
  6
CONTINUOUS
 10
-7.25
 20
20.6833413861
 11
-9.1536801123
 21
20.6853275006
  0
LINE
  5
867
100
AcDbEntity
  8
DRAFT
100
AcDbLine
 62
7
  6
CONTINUOUS
 10
-9.6964135579
 20
20.685980483
 11
-10.9573691842
 21
20.6876472739
  0
LINE
  5
868
100
AcDbEntity
  8
DRAFT
100
AcDbLine
 62
7
  6
CONTINUOUS
 10
5.9922658583
 20
6.7677292227
 11
7.25
 21
6.7666754049
  0
LINE
  5
869
100
AcDbEntity
  8
DRAFT
100
AcDbLine
 62
7
  6
CONTINUOUS
 10
5.9922592455
 20
20.6822873096
 11
5.9922658583
 21
6.7677292227
  0
LINE
  5
86A
100
AcDbEntity
  8
DRAFT
100
AcDbLine
 62
7
  6
CONTINUOUS
 10
7.25
 20
20.6833413707
 11
5.9922592455
 21
20.6822873096
  0
LINE
  5
86B
100
AcDbEntity
  8
DRAFT
100
AcDbLine
 62
7
  6
CONTINUOUS
 10
-5.9922592455
 20
20.682287325
 11
-7.25
 21
20.6833413861
  0
LINE
  5
86C
100
AcDbEntity
  8
DRAFT
100
AcDbLine
 62
7
  6
CONTINUOUS
 10
-5.9922658583
 20
6.7677292381
 11
-5.9922592455
 21
20.682287325
  0
LINE
  5
86D
100
AcDbEntity
  8
DRAFT
100
AcDbLine
 62
7
  6
CONTINUOUS
 10
-7.25
 20
6.7666754203
 11
-5.9922658583
 21
6.7677292381
  0
SPLINE
  5
86E
100
AcDbEntity
  8
DRAFT
100
AcDbSpline
 62
7
  6
CONTINUOUS
 70
0
 71
3
 72
9
 73
5
 74
0
 42
0.0000001
 43
0.0000001
 44
0.0000000001
 40
0.0
 40
0.0
 40
0.0
 40
0.0
 40
0.2478930828
 40
1.0
 40
1.0
 40
1.0
 40
1.0
 10
15.0451961264
 20
13.9212662794
 30
0.0
 10
14.4011071315
 20
13.9171542072
 30
0.0
 10
11.8028524715
 20
13.9007959896
 30
0.0
 10
9.2045911587
 20
13.8854949649
 30
0.0
 10
7.2504176996
 20
13.8745646244
 30
0.0
  0
SPLINE
  5
86F
100
AcDbEntity
  8
DRAFT
100
AcDbSpline
 62
7
  6
CONTINUOUS
 70
0
 71
3
 72
9
 73
5
 74
0
 42
0.0000001
 43
0.0000001
 44
0.0000000001
 40
0.0
 40
0.0
 40
0.0
 40
0.0
 40
0.2494145918
 40
1.0
 40
1.0
 40
1.0
 40
1.0
 10
5.4815976584
 20
13.8648231954
 30
0.0
 10
5.0258681196
 20
13.8623520065
 30
0.0
 10
3.1986707004
 20
13.8525623675
 30
0.0
 10
1.3714708337
 20
13.8432292712
 30
0.0
 10
0.0
 20
13.8364875797
 30
0.0
  0
SPLINE
  5
870
100
AcDbEntity
  8
RACCORDO
100
AcDbSpline
 62
7
  6
CONTINUOUS
 70
0
 71
3
 72
10
 73
6
 74
0
 42
0.0000001
 43
0.0000001
 44
0.0000000001
 40
0.0
 40
0.0
 40
0.0
 40
0.0
 40
0.2491499535
 40
0.49897986
 40
1.0
 40
1.0
 40
1.0
 40
1.0
 10
0.0003225987
 20
20.705967843
 30
0.0
 10
0.0005745105
 20
20.1354576669
 30
0.0
 10
-0.000071122
 20
18.992880169
 30
0.0
 10
-0.0001166621
 20
16.7030534532
 30
0.0
 10
-0.0
 20
14.9837369051
 30
0.0
 10
-0.0
 20
13.8364875797
 30
0.0
  0
SPLINE
  5
871
100
AcDbEntity
  8
RACCORDO
100
AcDbSpline
 62
7
  6
CONTINUOUS
 70
0
 71
3
 72
9
 73
5
 74
0
 42
0.0000001
 43
0.0000001
 44
0.0000000001
 40
0.0
 40
0.0
 40
0.0
 40
0.0
 40
0.4973201758
 40
1.0
 40
1.0
 40
1.0
 40
1.0
 10
-15.0453252493
 20
13.9210511969
 30
0.0
 10
-13.7531391231
 20
13.9123575867
 30
0.0
 10
-11.1548249747
 20
13.8973407934
 30
0.0
 10
-8.5565140472
 20
13.8818835404
 30
0.0
 10
-7.250392991
 20
13.8745488322
 30
0.0
  0
SPLINE
  5
872
100
AcDbEntity
  8
RACCORDO
100
AcDbSpline
 62
7
  6
CONTINUOUS
 70
0
 71
3
 72
9
 73
5
 74
0
 42
0.0000001
 43
0.0000001
 44
0.0000000001
 40
0.0
 40
0.0
 40
0.0
 40
0.0
 40
0.2494141861
 40
1.0
 40
1.0
 40
1.0
 40
1.0
 10
-5.4816364092
 20
13.8648030581
 30
0.0
 10
-5.025904372
 20
13.8623368207
 30
0.0
 10
-3.1986939018
 20
13.8525790324
 30
0.0
 10
-1.3714812431
 20
13.8432293224
 30
0.0
 10
-0.0
 20
13.8364875797
 30
0.0
  0
SPLINE
  5
873
100
AcDbEntity
  8
ASSI
100
AcDbSpline
 62
7
  6
CONTINUOUS
 70
0
 71
3
 72
9
 73
5
 74
0
 42
0.0000001
 43
0.0000001
 44
0.0000000001
 40
0.0
 40
0.0
 40
0.0
 40
0.0
 40
0.2478930828
 40
1.0
 40
1.0
 40
1.0
 40
1.0
 10
15.0451961264
 20
13.9212662794
 30
0.0
 10
14.4011071315
 20
13.9171542072
 30
0.0
 10
11.8028524715
 20
13.9007959896
 30
0.0
 10
9.2045911587
 20
13.8854949649
 30
0.0
 10
7.2504176996
 20
13.8745646244
 30
0.0
  0
SPLINE
  5
874
100
AcDbEntity
  8
ASSI
100
AcDbSpline
 62
7
  6
CONTINUOUS
 70
0
 71
3
 72
9
 73
5
 74
0
 42
0.0000001
 43
0.0000001
 44
0.0000000001
 40
0.0
 40
0.0
 40
0.0
 40
0.0
 40
0.2494145918
 40
1.0
 40
1.0
 40
1.0
 40
1.0
 10
5.4815976584
 20
13.8648231954
 30
0.0
 10
5.0258681196
 20
13.8623520065
 30
0.0
 10
3.1986707004
 20
13.8525623675
 30
0.0
 10
1.3714708337
 20
13.8432292712
 30
0.0
 10
0.0
 20
13.8364875797
 30
0.0
  0
SPLINE
  5
875
100
AcDbEntity
  8
ASSI
100
AcDbSpline
 62
7
  6
CONTINUOUS
 70
0
 71
3
 72
10
 73
6
 74
0
 42
0.0000001
 43
0.0000001
 44
0.0000000001
 40
0.0
 40
0.0
 40
0.0
 40
0.0
 40
0.2491499535
 40
0.49897986
 40
1.0
 40
1.0
 40
1.0
 40
1.0
 10
0.0003225987
 20
20.705967843
 30
0.0
 10
0.0005745105
 20
20.1354576669
 30
0.0
 10
-0.000071122
 20
18.992880169
 30
0.0
 10
-0.0001166621
 20
16.7030534532
 30
0.0
 10
-0.0
 20
14.9837369051
 30
0.0
 10
-0.0
 20
13.8364875797
 30
0.0
  0
SPLINE
  5
876
100
AcDbEntity
  8
ASSI
100
AcDbSpline
 62
7
  6
CONTINUOUS
 70
0
 71
3
 72
9
 73
5
 74
0
 42
0.0000001
 43
0.0000001
 44
0.0000000001
 40
0.0
 40
0.0
 40
0.0
 40
0.0
 40
0.4973201758
 40
1.0
 40
1.0
 40
1.0
 40
1.0
 10
-15.0453252493
 20
13.9210511969
 30
0.0
 10
-13.7531391231
 20
13.9123575867
 30
0.0
 10
-11.1548249747
 20
13.8973407934
 30
0.0
 10
-8.5565140472
 20
13.8818835404
 30
0.0
 10
-7.250392991
 20
13.8745488322
 30
0.0
  0
SPLINE
  5
877
100
AcDbEntity
  8
ASSI
100
AcDbSpline
 62
7
  6
CONTINUOUS
 70
0
 71
3
 72
9
 73
5
 74
0
 42
0.0000001
 43
0.0000001
 44
0.0000000001
 40
0.0
 40
0.0
 40
0.0
 40
0.0
 40
0.2494141861
 40
1.0
 40
1.0
 40
1.0
 40
1.0
 10
-5.4816364092
 20
13.8648030581
 30
0.0
 10
-5.025904372
 20
13.8623368207
 30
0.0
 10
-3.1986939018
 20
13.8525790324
 30
0.0
 10
-1.3714812431
 20
13.8432293224
 30
0.0
 10
-0.0
 20
13.8364875797
 30
0.0
  0
ELLIPSE
  5
878
100
AcDbEntity
  8
DRAFT
100
AcDbEllipse
 62
7
  6
CONTINUOUS
 10
-0.0
 20
6.4878776275
 30
0.0
 11
87.7541666667
 21
0.0
 31
0.0
 40
0.0034906727
 41
1.5251986465
 42
1.6163940071
  0
ELLIPSE
  5
879
100
AcDbEntity
  8
DRAFT
100
AcDbEllipse
 62
7
  6
CONTINUOUS
 10
-0.0
 20
21.0121223725
 30
0.0
 11
87.7541666667
 21
-0.0
 31
0.0
 40
0.0034906727
 41
-1.6163940071
 42
-1.5251986465
  0
ELLIPSE
  5
87A
100
AcDbEntity
  8
DRAFT
100
AcDbEllipse
 62
7
  6
CONTINUOUS
 10
-0.0
 20
18.2229897432
 30
0.0
 11
99.82
 21
-0.0
 31
0.0
 40
0.0087268678
 41
-1.709104384
 42
-1.7039885257
  0
ELLIPSE
  5
87B
100
AcDbEntity
  8
DRAFT
100
AcDbEllipse
 62
7
  6
CONTINUOUS
 10
-0.0
 20
9.1270102568
 30
0.0
 11
99.82
 21
0.0
 31
0.0
 40
0.0087268678
 41
1.7261884926
 42
1.7306618148
  0
ELLIPSE
  5
87C
100
AcDbEntity
  8
DRAFT
100
AcDbEllipse
 62
7
  6
CONTINUOUS
 10
-0.0
 20
10.3229897432
 30
0.0
 11
99.82
 21
-0.0
 31
0.0
 40
0.0087268678
 41
-1.7312798275
 42
-1.7261884926
  0
ELLIPSE
  5
87D
100
AcDbEntity
  8
DRAFT
100
AcDbEllipse
 62
7
  6
CONTINUOUS
 10
-0.0
 20
21.0729897432
 30
0.0
 11
99.82
 21
-0.0
 31
0.0
 40
0.0087268678
 41
-1.6680645243
 42
-1.6626459728
  0
ELLIPSE
  5
87E
100
AcDbEntity
  8
DRAFT
100
AcDbEllipse
 62
7
  6
CONTINUOUS
 10
-0.0
 20
17.0270102568
 30
0.0
 11
99.82
 21
0.0
 31
0.0
 40
0.0087268678
 41
1.7039885257
 42
1.7065328151
  0
ELLIPSE
  5
87F
100
AcDbEntity
  8
DRAFT
100
AcDbEllipse
 62
7
  6
CONTINUOUS
 10
-0.0
 20
21.5729897432
 30
0.0
 11
99.82
 21
-0.0
 31
0.0
 40
0.0087268678
 41
-1.4735281292
 42
-1.4608033899
  0
ELLIPSE
  5
880
100
AcDbEntity
  8
DRAFT
100
AcDbEllipse
 62
7
  6
CONTINUOUS
 10
-0.0
 20
21.5729897432
 30
0.0
 11
99.82
 21
-0.0
 31
0.0
 40
0.0087268678
 41
-1.5108144814
 42
-1.4789466808
  0
ELLIPSE
  5
881
100
AcDbEntity
  8
DRAFT
100
AcDbEllipse
 62
7
  6
CONTINUOUS
 10
-0.0
 20
6.3770102568
 30
0.0
 11
99.82
 21
0.0
 31
0.0
 40
0.0087268678
 41
1.7080741072
 42
1.7134281184
  0
ELLIPSE
  5
882
100
AcDbEntity
  8
DRAFT
100
AcDbEllipse
 62
7
  6
CONTINUOUS
 10
-0.0
 20
20.9109858692
 30
0.0
 11
99.82
 21
0.0
 31
0.0
 40
0.0034906727
 41
1.5108144814
 42
1.6307781722
  0
ELLIPSE
  5
883
100
AcDbEntity
  8
DRAFT
100
AcDbEllipse
 62
7
  6
CONTINUOUS
 10
0.0
 20
21.5729897586
 30
0.0
 11
99.82
 21
-0.0
 31
0.0
 40
0.0087268678
 41
-1.6626459728
 42
-1.6307781722
  0
ELLIPSE
  5
884
100
AcDbEntity
  8
DRAFT
100
AcDbEllipse
 62
7
  6
CONTINUOUS
 10
-0.0
 20
18.2229897432
 30
0.0
 11
99.82
 21
-0.0
 31
0.0
 40
0.0087268678
 41
-1.4376041279
 42
-1.4324882694
  0
ELLIPSE
  5
885
100
AcDbEntity
  8
DRAFT
100
AcDbEllipse
 62
7
  6
CONTINUOUS
 10
-0.0
 20
17.0270102568
 30
0.0
 11
99.82
 21
0.0
 31
0.0
 40
0.0087268678
 41
1.4350598383
 42
1.4376041279
  0
ELLIPSE
  5
886
100
AcDbEntity
  8
DRAFT
100
AcDbEllipse
 62
7
  6
CONTINUOUS
 10
-0.0
 20
10.3229897432
 30
0.0
 11
99.82
 21
-0.0
 31
0.0
 40
0.0087268678
 41
-1.415404161
 42
-1.4103128264
  0
ELLIPSE
  5
887
100
AcDbEntity
  8
DRAFT
100
AcDbEllipse
 62
7
  6
CONTINUOUS
 10
-0.0
 20
21.5729897586
 30
0.0
 11
99.82
 21
-0.0
 31
0.0
 40
0.0087268678
 41
-1.6807892634
 42
-1.6680645243
  0
ELLIPSE
  5
888
100
AcDbEntity
  8
DRAFT
100
AcDbEllipse
 62
7
  6
CONTINUOUS
 10
-0.0
 20
9.1270102568
 30
0.0
 11
99.82
 21
0.0
 31
0.0
 40
0.0087268678
 41
1.410930839
 42
1.415404161
  0
ELLIPSE
  5
889
100
AcDbEntity
  8
DRAFT
100
AcDbEllipse
 62
7
  6
CONTINUOUS
 10
0.0
 20
5.8770102721
 30
0.0
 11
99.82
 21
-0.0
 31
0.0
 40
0.0087268678
 41
1.7134281184
 42
1.7251038951
  0
ELLIPSE
  5
88A
100
AcDbEntity
  8
DRAFT
100
AcDbEllipse
 62
7
  6
CONTINUOUS
 10
0.0
 20
5.8770102721
 30
0.0
 11
99.82
 21
-0.0
 31
0.0
 40
0.0087268678
 41
1.6307781722
 42
1.7080741072
  0
ELLIPSE
  5
88B
100
AcDbEntity
  8
DRAFT
100
AcDbEllipse
 62
7
  6
CONTINUOUS
 10
-0.0
 20
6.5890141308
 30
0.0
 11
99.82
 21
-0.0
 31
0.0
 40
0.0034906727
 41
-1.6307781722
 42
-1.5108144814
  0
ELLIPSE
  5
88C
100
AcDbEntity
  8
DRAFT
100
AcDbEllipse
 62
7
  6
CONTINUOUS
 10
-0.0
 20
5.8770102568
 30
0.0
 11
99.82
 21
0.0
 31
0.0
 40
0.0087268678
 41
1.4335185464
 42
1.5108144814
  0
ELLIPSE
  5
88D
100
AcDbEntity
  8
DRAFT
100
AcDbEllipse
 62
7
  6
CONTINUOUS
 10
-0.0
 20
5.8770102568
 30
0.0
 11
99.82
 21
0.0
 31
0.0
 40
0.0087268678
 41
1.4164887588
 42
1.4281645352
  0
ELLIPSE
  5
88E
100
AcDbEntity
  8
DRAFT
100
AcDbEllipse
 62
7
  6
CONTINUOUS
 10
-0.0
 20
21.0729897432
 30
0.0
 11
99.82
 21
-0.0
 31
0.0
 40
0.0087268678
 41
-1.4789466808
 42
-1.4735281292
  0
ELLIPSE
  5
88F
100
AcDbEntity
  8
DRAFT
100
AcDbEllipse
 62
7
  6
CONTINUOUS
 10
-0.0
 20
6.3770102568
 30
0.0
 11
99.82
 21
0.0
 31
0.0
 40
0.0087268678
 41
1.4281645352
 42
1.4335185464
  0
ELLIPSE
  5
890
100
AcDbEntity
  8
DRAFT
100
AcDbEllipse
 62
7
  6
CONTINUOUS
 10
21.0851037712
 20
22.5532736069
 30
0.0
 11
3.3
 21
0.0
 31
0.0
 40
0.0034906727
 41
-2.3569427062
 42
-1.7941236469
  0
ELLIPSE
  5
891
100
AcDbEntity
  8
DRAFT
100
AcDbEllipse
 62
7
  6
CONTINUOUS
 10
21.0851037712
 20
4.9467263931
 30
0.0
 11
3.3
 21
-0.0
 31
0.0
 40
0.0034906727
 41
1.7941236469
 42
2.3569427062
  0
ELLIPSE
  5
892
100
AcDbEntity
  8
DRAFT
100
AcDbEllipse
 62
7
  6
CONTINUOUS
 10
-21.0851037712
 20
4.9467263931
 30
0.0
 11
3.3
 21
0.0
 31
0.0
 40
0.0034906727
 41
0.7846499474
 42
1.3474690067
  0
ELLIPSE
  5
893
100
AcDbEntity
  8
DRAFT
100
AcDbEllipse
 62
7
  6
CONTINUOUS
 10
-21.0851037712
 20
22.5532736069
 30
0.0
 11
3.3
 21
0.0
 31
0.0
 40
0.0034906727
 41
-1.3474690067
 42
-0.7846499474
  0
ELLIPSE
  5
894
100
AcDbEntity
  8
DRAFT
100
AcDbEllipse
 62
7
  6
CONTINUOUS
 10
-20.1327589824
 20
22.5386364711
 30
0.0
 11
1.0
 21
0.0
 31
0.0
 40
0.0034906727
 41
1.8236040553
 42
3.1328660073
  0
ELLIPSE
  5
895
100
AcDbEntity
  8
DRAFT
100
AcDbEllipse
 62
7
  6
CONTINUOUS
 10
-20.1327589824
 20
4.9613635289
 30
0.0
 11
1.0
 21
0.0
 31
0.0
 40
0.0034906727
 41
-3.1328660073
 42
-1.8236040553
  0
ELLIPSE
  5
896
100
AcDbEntity
  8
DRAFT
100
AcDbEllipse
 62
7
  6
CONTINUOUS
 10
20.1327589824
 20
4.9613635289
 30
0.0
 11
1.0
 21
-0.0
 31
0.0
 40
0.0034906727
 41
-1.3474690067
 42
-0.0087266463
  0
ELLIPSE
  5
897
100
AcDbEntity
  8
DRAFT
100
AcDbEllipse
 62
7
  6
CONTINUOUS
 10
20.1327589824
 20
22.5386364711
 30
0.0
 11
1.0
 21
0.0
 31
0.0
 40
0.0034906727
 41
6.2919119534
 42
7.6306543139
  0
ELLIPSE
  5
898
100
AcDbEntity
  8
DRAFT
100
AcDbEllipse
 62
7
  6
CONTINUOUS
 10
21.0851037712
 20
15.5936322342
 30
0.0
 11
4.05
 21
0.0
 31
0.0
 40
0.0087268678
 41
-1.8229206645
 42
-1.7941236469
  0
ELLIPSE
  5
899
100
AcDbEntity
  8
DRAFT
100
AcDbEllipse
 62
7
  6
CONTINUOUS
 10
21.0851037712
 20
11.9063677658
 30
0.0
 11
4.05
 21
-0.0
 31
0.0
 40
0.0087268678
 41
1.7941236469
 42
1.8229206645
  0
ELLIPSE
  5
89A
100
AcDbEntity
  8
DRAFT
100
AcDbEllipse
 62
7
  6
CONTINUOUS
 10
-21.0851037712
 20
15.5936322342
 30
0.0
 11
4.05
 21
0.0
 31
0.0
 40
0.0087268678
 41
-1.3474690067
 42
-1.3186719891
  0
ELLIPSE
  5
89B
100
AcDbEntity
  8
DRAFT
100
AcDbEllipse
 62
7
  6
CONTINUOUS
 10
-21.0851037712
 20
11.9063677658
 30
0.0
 11
4.05
 21
-0.0
 31
0.0
 40
0.0087268678
 41
1.3186719891
 42
1.3474690067
  0
ELLIPSE
  5
89C
100
AcDbEntity
  8
DRAFT
100
AcDbEllipse
 62
7
  6
CONTINUOUS
 10
-20.1327589824
 20
11.9429613855
 30
0.0
 11
0.25
 21
0.0
 31
0.0
 40
0.0087268678
 41
-3.1328660073
 42
-1.7941236469
  0
ELLIPSE
  5
89D
100
AcDbEntity
  8
DRAFT
100
AcDbEllipse
 62
7
  6
CONTINUOUS
 10
-20.1327589824
 20
15.5570386145
 30
0.0
 11
0.25
 21
0.0
 31
0.0
 40
0.0087268678
 41
1.7941236469
 42
3.1328660073
  0
ELLIPSE
  5
89E
100
AcDbEntity
  8
DRAFT
100
AcDbEllipse
 62
7
  6
CONTINUOUS
 10
20.1327589824
 20
15.5570386145
 30
0.0
 11
0.25
 21
-0.0
 31
0.0
 40
0.0087268678
 41
0.3991307541
 42
1.3474690067
  0
ELLIPSE
  5
89F
100
AcDbEntity
  8
DRAFT
100
AcDbEllipse
 62
7
  6
CONTINUOUS
 10
20.1327589824
 20
11.9429613855
 30
0.0
 11
0.25
 21
0.0
 31
0.0
 40
0.0087268678
 41
-1.3474690067
 42
-0.3991307541
  0
ELLIPSE
  5
8A0
100
AcDbEntity
  8
DRAFT
100
AcDbEllipse
 62
7
  6
CONTINUOUS
 10
21.0851037712
 20
4.9467263931
 30
0.0
 11
4.05
 21
-0.0
 31
0.0
 40
0.0034906727
 41
8.0773089541
 42
8.5327824667
  0
ELLIPSE
  5
8A1
100
AcDbEntity
  8
DRAFT
100
AcDbEllipse
 62
7
  6
CONTINUOUS
 10
21.0851037712
 20
22.5532736069
 30
0.0
 11
4.05
 21
0.0
 31
0.0
 40
0.0034906727
 41
-2.2495971596
 42
-1.7941236469
  0
ELLIPSE
  5
8A2
100
AcDbEntity
  8
DRAFT
100
AcDbEllipse
 62
7
  6
CONTINUOUS
 10
-21.0851037712
 20
22.5532736069
 30
0.0
 11
4.05
 21
0.0
 31
0.0
 40
0.0034906727
 41
-1.3474690067
 42
-0.891995494
  0
ELLIPSE
  5
8A3
100
AcDbEntity
  8
DRAFT
100
AcDbEllipse
 62
7
  6
CONTINUOUS
 10
-21.0851037712
 20
4.9467263931
 30
0.0
 11
4.05
 21
0.0
 31
0.0
 40
0.0034906727
 41
7.1751808012
 42
7.6306543139
  0
ELLIPSE
  5
8A4
100
AcDbEntity
  8
DRAFT
100
AcDbEllipse
 62
7
  6
CONTINUOUS
 10
-20.1327589824
 20
4.9613635289
 30
0.0
 11
0.25
 21
0.0
 31
0.0
 40
0.0034906727
 41
-3.1328660073
 42
-3.0767973856
  0
ELLIPSE
  5
8A5
100
AcDbEntity
  8
DRAFT
100
AcDbEllipse
 62
7
  6
CONTINUOUS
 10
-21.0851037712
 20
23.7532736069
 30
0.0
 11
4.05
 21
0.0
 31
0.0
 40
0.0034906727
 41
-0.891995494
 42
-0.8640412607
  0
ELLIPSE
  5
8A6
100
AcDbEntity
  8
DRAFT
100
AcDbEllipse
 62
7
  6
CONTINUOUS
 10
21.0851037712
 20
23.7532736069
 30
0.0
 11
4.05
 21
0.0
 31
0.0
 40
0.0034906727
 41
-2.2775513929
 42
-2.2495971596
  0
ELLIPSE
  5
8A7
100
AcDbEntity
  8
DRAFT
100
AcDbEllipse
 62
7
  6
CONTINUOUS
 10
-20.1327589824
 20
22.5386364711
 30
0.0
 11
0.25
 21
0.0
 31
0.0
 40
0.0034906727
 41
3.0767973856
 42
3.1328660073
  0
ELLIPSE
  5
8A8
100
AcDbEntity
  8
DRAFT
100
AcDbEllipse
 62
7
  6
CONTINUOUS
 10
21.0851037712
 20
3.7467263931
 30
0.0
 11
4.05
 21
-0.0
 31
0.0
 40
0.0034906727
 41
8.5327824667
 42
8.5607367001
  0
ELLIPSE
  5
8A9
100
AcDbEntity
  8
DRAFT
100
AcDbEllipse
 62
7
  6
CONTINUOUS
 10
20.1327589824
 20
22.5386364711
 30
0.0
 11
0.25
 21
0.0
 31
0.0
 40
0.0034906727
 41
0.6223739122
 42
1.3474690067
  0
ELLIPSE
  5
8AA
100
AcDbEntity
  8
DRAFT
100
AcDbEllipse
 62
7
  6
CONTINUOUS
 10
-21.0851037712
 20
3.7467263931
 30
0.0
 11
4.05
 21
0.0
 31
0.0
 40
0.0034906727
 41
7.1472265678
 42
7.1751808012
  0
ELLIPSE
  5
8AB
100
AcDbEntity
  8
DRAFT
100
AcDbEllipse
 62
7
  6
CONTINUOUS
 10
20.1327589824
 20
4.9613635289
 30
0.0
 11
0.25
 21
-0.0
 31
0.0
 40
0.0034906727
 41
-1.3474690067
 42
-0.6223739122
  0
ELLIPSE
  5
8AC
100
AcDbEntity
  8
ASSI
100
AcDbEllipse
 62
7
  6
CONTINUOUS
 10
21.0851037712
 20
22.5532736069
 30
0.0
 11
3.3
 21
0.0
 31
0.0
 40
0.0034906727
 41
-2.3569427062
 42
-1.7941236469
  0
ELLIPSE
  5
8AD
100
AcDbEntity
  8
ASSI
100
AcDbEllipse
 62
7
  6
CONTINUOUS
 10
21.0851037712
 20
4.9467263931
 30
0.0
 11
3.3
 21
-0.0
 31
0.0
 40
0.0034906727
 41
1.7941236469
 42
2.3569427062
  0
ELLIPSE
  5
8AE
100
AcDbEntity
  8
ASSI
100
AcDbEllipse
 62
7
  6
CONTINUOUS
 10
-21.0851037712
 20
4.9467263931
 30
0.0
 11
3.3
 21
0.0
 31
0.0
 40
0.0034906727
 41
0.7846499474
 42
1.3474690067
  0
ELLIPSE
  5
8AF
100
AcDbEntity
  8
ASSI
100
AcDbEllipse
 62
7
  6
CONTINUOUS
 10
-21.0851037712
 20
22.5532736069
 30
0.0
 11
3.3
 21
0.0
 31
0.0
 40
0.0034906727
 41
-1.3474690067
 42
-0.7846499474
  0
ELLIPSE
  5
8B0
100
AcDbEntity
  8
ASSI
100
AcDbEllipse
 62
7
  6
CONTINUOUS
 10
-20.1327589824
 20
22.5386364711
 30
0.0
 11
1.0
 21
0.0
 31
0.0
 40
0.0034906727
 41
1.8236040553
 42
3.1328660073
  0
ELLIPSE
  5
8B1
100
AcDbEntity
  8
ASSI
100
AcDbEllipse
 62
7
  6
CONTINUOUS
 10
-20.1327589824
 20
4.9613635289
 30
0.0
 11
1.0
 21
0.0
 31
0.0
 40
0.0034906727
 41
-3.1328660073
 42
-1.8236040553
  0
ELLIPSE
  5
8B2
100
AcDbEntity
  8
ASSI
100
AcDbEllipse
 62
7
  6
CONTINUOUS
 10
20.1327589824
 20
4.9613635289
 30
0.0
 11
1.0
 21
-0.0
 31
0.0
 40
0.0034906727
 41
-1.3474690067
 42
-0.0087266463
  0
ELLIPSE
  5
8B3
100
AcDbEntity
  8
ASSI
100
AcDbEllipse
 62
7
  6
CONTINUOUS
 10
20.1327589824
 20
22.5386364711
 30
0.0
 11
1.0
 21
0.0
 31
0.0
 40
0.0034906727
 41
6.2919119534
 42
7.6306543139
  0
ELLIPSE
  5
8B4
100
AcDbEntity
  8
ASSI
100
AcDbEllipse
 62
7
  6
CONTINUOUS
 10
21.0851037712
 20
15.5936322342
 30
0.0
 11
4.05
 21
0.0
 31
0.0
 40
0.0087268678
 41
-1.8229206645
 42
-1.7941236469
  0
ELLIPSE
  5
8B5
100
AcDbEntity
  8
ASSI
100
AcDbEllipse
 62
7
  6
CONTINUOUS
 10
21.0851037712
 20
11.9063677658
 30
0.0
 11
4.05
 21
-0.0
 31
0.0
 40
0.0087268678
 41
1.7941236469
 42
1.8229206645
  0
ELLIPSE
  5
8B6
100
AcDbEntity
  8
ASSI
100
AcDbEllipse
 62
7
  6
CONTINUOUS
 10
-21.0851037712
 20
15.5936322342
 30
0.0
 11
4.05
 21
0.0
 31
0.0
 40
0.0087268678
 41
-1.3474690067
 42
-1.3186719891
  0
ELLIPSE
  5
8B7
100
AcDbEntity
  8
ASSI
100
AcDbEllipse
 62
7
  6
CONTINUOUS
 10
-21.0851037712
 20
11.9063677658
 30
0.0
 11
4.05
 21
-0.0
 31
0.0
 40
0.0087268678
 41
1.3186719891
 42
1.3474690067
  0
ELLIPSE
  5
8B8
100
AcDbEntity
  8
ASSI
100
AcDbEllipse
 62
7
  6
CONTINUOUS
 10
-20.1327589824
 20
11.9429613855
 30
0.0
 11
0.25
 21
0.0
 31
0.0
 40
0.0087268678
 41
-3.1328660073
 42
-1.7941236469
  0
ELLIPSE
  5
8B9
100
AcDbEntity
  8
ASSI
100
AcDbEllipse
 62
7
  6
CONTINUOUS
 10
-20.1327589824
 20
15.5570386145
 30
0.0
 11
0.25
 21
0.0
 31
0.0
 40
0.0087268678
 41
1.7941236469
 42
3.1328660073
  0
ELLIPSE
  5
8BA
100
AcDbEntity
  8
ASSI
100
AcDbEllipse
 62
7
  6
CONTINUOUS
 10
20.1327589824
 20
15.5570386145
 30
0.0
 11
0.25
 21
-0.0
 31
0.0
 40
0.0087268678
 41
0.3991307541
 42
1.3474690067
  0
ELLIPSE
  5
8BB
100
AcDbEntity
  8
ASSI
100
AcDbEllipse
 62
7
  6
CONTINUOUS
 10
20.1327589824
 20
11.9429613855
 30
0.0
 11
0.25
 21
0.0
 31
0.0
 40
0.0087268678
 41
-1.3474690067
 42
-0.3991307541
  0
ELLIPSE
  5
8BC
100
AcDbEntity
  8
ASSI
100
AcDbEllipse
 62
7
  6
CONTINUOUS
 10
21.0851037712
 20
4.9467263931
 30
0.0
 11
4.05
 21
-0.0
 31
0.0
 40
0.0034906727
 41
8.0773089541
 42
8.5327824667
  0
ELLIPSE
  5
8BD
100
AcDbEntity
  8
ASSI
100
AcDbEllipse
 62
7
  6
CONTINUOUS
 10
21.0851037712
 20
22.5532736069
 30
0.0
 11
4.05
 21
0.0
 31
0.0
 40
0.0034906727
 41
-2.2495971596
 42
-1.7941236469
  0
ELLIPSE
  5
8BE
100
AcDbEntity
  8
ASSI
100
AcDbEllipse
 62
7
  6
CONTINUOUS
 10
-21.0851037712
 20
22.5532736069
 30
0.0
 11
4.05
 21
0.0
 31
0.0
 40
0.0034906727
 41
-1.3474690067
 42
-0.891995494
  0
ELLIPSE
  5
8BF
100
AcDbEntity
  8
ASSI
100
AcDbEllipse
 62
7
  6
CONTINUOUS
 10
-21.0851037712
 20
4.9467263931
 30
0.0
 11
4.05
 21
0.0
 31
0.0
 40
0.0034906727
 41
7.1751808012
 42
7.6306543139
  0
ELLIPSE
  5
8C0
100
AcDbEntity
  8
ASSI
100
AcDbEllipse
 62
7
  6
CONTINUOUS
 10
-20.1327589824
 20
4.9613635289
 30
0.0
 11
0.25
 21
0.0
 31
0.0
 40
0.0034906727
 41
-3.1328660073
 42
-3.0767973856
  0
ELLIPSE
  5
8C1
100
AcDbEntity
  8
ASSI
100
AcDbEllipse
 62
7
  6
CONTINUOUS
 10
-21.0851037712
 20
23.7532736069
 30
0.0
 11
4.05
 21
0.0
 31
0.0
 40
0.0034906727
 41
-0.891995494
 42
-0.8640412607
  0
ELLIPSE
  5
8C2
100
AcDbEntity
  8
ASSI
100
AcDbEllipse
 62
7
  6
CONTINUOUS
 10
21.0851037712
 20
23.7532736069
 30
0.0
 11
4.05
 21
0.0
 31
0.0
 40
0.0034906727
 41
-2.2775513929
 42
-2.2495971596
  0
ELLIPSE
  5
8C3
100
AcDbEntity
  8
ASSI
100
AcDbEllipse
 62
7
  6
CONTINUOUS
 10
-20.1327589824
 20
22.5386364711
 30
0.0
 11
0.25
 21
0.0
 31
0.0
 40
0.0034906727
 41
3.0767973856
 42
3.1328660073
  0
ELLIPSE
  5
8C4
100
AcDbEntity
  8
ASSI
100
AcDbEllipse
 62
7
  6
CONTINUOUS
 10
21.0851037712
 20
3.7467263931
 30
0.0
 11
4.05
 21
-0.0
 31
0.0
 40
0.0034906727
 41
8.5327824667
 42
8.5607367001
  0
ELLIPSE
  5
8C5
100
AcDbEntity
  8
ASSI
100
AcDbEllipse
 62
7
  6
CONTINUOUS
 10
20.1327589824
 20
22.5386364711
 30
0.0
 11
0.25
 21
0.0
 31
0.0
 40
0.0034906727
 41
0.6223739122
 42
1.3474690067
  0
ELLIPSE
  5
8C6
100
AcDbEntity
  8
ASSI
100
AcDbEllipse
 62
7
  6
CONTINUOUS
 10
-21.0851037712
 20
3.7467263931
 30
0.0
 11
4.05
 21
0.0
 31
0.0
 40
0.0034906727
 41
7.1472265678
 42
7.1751808012
  0
ELLIPSE
  5
8C7
100
AcDbEntity
  8
ASSI
100
AcDbEllipse
 62
7
  6
CONTINUOUS
 10
20.1327589824
 20
4.9613635289
 30
0.0
 11
0.25
 21
-0.0
 31
0.0
 40
0.0034906727
 41
-1.3474690067
 42
-0.6223739122
  0
ENDSEC
  0
SECTION
  2
OBJECTS
  0
DICTIONARY
  5
C
100
AcDbDictionary
280
0
281
1
  3
ACAD_GROUP
350
D
  3
ACAD_MLINESTYLE
350
17
  3
ACAD_LAYOUT
350
1A
  3
ACAD_PLOTSETTINGS
350
19
  3
ACAD_PLOTSTYLENAME
350
E
  0
DICTIONARY
  5
D
102
{ACAD_REACTORS
330
C
102
}
100
AcDbDictionary
280
0
281
1
  0
ACDBDICTIONARYWDFLT
  5
E
102
{ACAD_REACTORS
330
C
102
}
100
AcDbDictionary
281
1
  3
Normal
350
F
100
AcDbDictionaryWithDefault
340
F
  0
DICTIONARY
  5
17
102
{ACAD_REACTORS
330
C
102
}
100
AcDbDictionary
280
0
281
1
  3
Standard
350
18
  0
DICTIONARY
  5
19
102
{ACAD_REACTORS
330
C
102
}
100
AcDbDictionary
281
1
  0
DICTIONARY
  5
1A
102
{ACAD_REACTORS
330
C
102
}
100
AcDbDictionary
281
1
  3
Model
350
8C8
  3
Layout1
350
8C9
  0
ACDBPLACEHOLDER
  5
F
102
{ACAD_REACTORS
330
E
102
}
  0
MLINESTYLE
  5
18
102
{ACAD_REACTORS
330
17
102
}
100
AcDbMlineStyle
  2
STANDARD
 70
0
  3

 62
256
 51
90.0
 52
90.0
 71
2
 49
0.5
 62
256
  6
BYLAYER
 49
-0.5
 62
256
  6
BYLAYER
  0
LAYOUT
  5
8C8
102
{ACAD_REACTORS
330
1A
102
}
100
AcDbPlotSettings
  1

  2
none_device
  4
ISO_A4_(297.00_x_210.00_MM)
  6

 40
0.0
 41
0.0
 42
0.0
 43
0.0
 44
297.0
 45
210.0
 46
0.0
 47
0.0
 48
0.0
 49
0.0
140
0.0
141
0.0
142
1.0
143
1.0
 70
1024
 72
1
 73
0
 74
0
  7

 75
0
147
1.0
148
0.0
149
0.0
100
AcDbLayout
  1
Model
 70
0
 71
0
 10
0.0
 20
0.0
 11
297.0
 21
210.0
 12
0.0
 22
0.0
 32
0.0
 14
0.0
 24
0.0
 34
0.0
 15
0.0
 25
0.0
 35
0.0
146
0.0
 13
0.0
 23
0.0
 33
0.0
 16
1.0
 26
0.0
 36
0.0
 17
0.0
 27
1.0
 37
0.0
 76
0
330
210
345
0
346
0
  0
LAYOUT
  5
8C9
102
{ACAD_REACTORS
330
1A
102
}
100
AcDbPlotSettings
  1

  2
none_device
  4
ISO_A4_(297.00_x_210.00_MM)
  6

 40
0.0
 41
0.0
 42
0.0
 43
0.0
 44
297.0
 45
210.0
 46
0.0
 47
0.0
 48
0.0
 49
0.0
140
0.0
141
0.0
142
1.0
143
1.0
 70
0
 72
1
 73
0
 74
0
  7

 75
0
147
1.0
148
0.0
149
0.0
100
AcDbLayout
  1
Layout1
 70
0
 71
1
 10
0.0
 20
0.0
 11
297.0
 21
210.0
 12
0.0
 22
0.0
 32
0.0
 14
0.0
 24
0.0
 34
0.0
 15
0.0
 25
0.0
 35
0.0
146
0.0
 13
0.0
 23
0.0
 33
0.0
 16
1.0
 26
0.0
 36
0.0
 17
0.0
 27
1.0
 37
0.0
 76
0
330
211
345
0
346
0
  0
ENDSEC
  0
EOF
