  0
SECTION
  2
HEADER
  9
$ACADVER
  1
AC1024
  9
$DWGCODEPAGE
  3
ANSI_1252
  9
$EXTMAX
 10
297.0
 20
210.0
 30
0.0
  9
$EXTMIN
 10
0.0
 20
0.0
 30
0.0
  9
$LIMMIN
 10
0.0
 20
0.0
  9
$LIMMAX
 10
297.0
 20
210.0
  9
$VIEWCTR
 10
148.5
 20
105.0
  9
$VIEWSIZE
 40
210.0
  9
$CLAYER
  8
0
  9
$LTSCALE
 40
16.335
  9
$CELTYPE
  6
BYLAYER
  9
$DIMSCALE
 40
1.0
  9
$DIMASZ
 40
3.0
  9
$DIMEXO
 40
0.5
  9
$DIMDLI
 40
11.286
  9
$DIMEXE
 40
1.5
  9
$DIMCEN
 40
2.673
  9
$DIMLFAC
 40
1.0
  9
$DIMBLK
  1
_FILLED
  9
$DIMALT
 70
0
  9
$DIMALTF
 40
0.0393700787
  9
$DIMTXT
 40
3.0
  9
$DIMTOL
 70
1
  9
$DIMLIM
 70
0
  9
$DIMTFAC
 40
1.0
  9
$DIMTP
 40
0.01
  9
$DIMTM
 40
0.01
  9
$DIMGAP
 40
0.625
  9
$DIMDSEP
 70
44
  9
$AUNITS
 70
0
  9
$PDMODE
 70
3
  9
$PDSIZE
 40
3.0
  9
$HANDSEED
  5
363
  9
$TILEMODE
 70
1
  9
$MEASUREMENT
 70
1
  9
$INSUNITS
 70
4
  0
ENDSEC
  0
SECTION
  2
CLASSES
  0
CLASS
  1
ACDBDICTIONARYWDFLT
  2
AcDbDictionaryWithDefault
  3
AutoCAD 2000
 90
0
 91
1
280
0
281
0
  0
CLASS
  1
ACDBPLACEHOLDER
  2
AcDbPlaceHolder
  3
AutoCAD 2000
 90
0
 91
1
280
0
281
0
  0
CLASS
  1
LAYOUT
  2
AcDbLayout
  3
AutoCAD 2000
 90
0
 91
0
280
0
281
0
  0
ENDSEC
  0
SECTION
  2
TABLES
  0
TABLE
  2
VPORT
  5
8
100
AcDbSymbolTable
 70
2
  0
VPORT
  5
1F4
100
AcDbSymbolTableRecord
100
AcDbViewportTableRecord
  2
*ACTIVE
 70
0
 10
0.0
 20
0.0
 11
1.0
 21
1.0
 12
148.5
 22
105.0
 13
0.0
 23
0.0
 14
1.0
 24
1.0
 15
0.0
 25
0.0
 16
0.0
 26
0.0
 36
1.0
 17
0.0
 27
0.0
 37
0.0
 40
210.0
 41
1.4142857143
 42
50.0
 43
0.0
 44
0.0
 50
0.0
 51
0.0
 71
0
 72
100
 73
1
 74
1
 75
0
 76
0
 77
0
 78
0
  0
ENDTAB
  0
TABLE
  2
LTYPE
  5
5
100
AcDbSymbolTable
 70
6
  0
LTYPE
  5
14
100
AcDbSymbolTableRecord
100
AcDbLinetypeTableRecord
  2
BYBLOCK
 70
0
  3

 72
65
 73
0
 40
0.0
  0
LTYPE
  5
15
100
AcDbSymbolTableRecord
100
AcDbLinetypeTableRecord
  2
BYLAYER
 70
0
  3

 72
65
 73
0
 40
0.0
  0
LTYPE
  5
16
100
AcDbSymbolTableRecord
100
AcDbLinetypeTableRecord
  2
CONTINUOUS
 70
64
  3
Solid line
 72
65
 73
0
 40
0.0
  0
LTYPE
  5
1F5
100
AcDbSymbolTableRecord
100
AcDbLinetypeTableRecord
  2
CENTER
 70
64
  3
____ _ ____ _ ____ _ ____ _ ____ _ ____ _ ____
 72
65
 73
4
 40
0.6
 49
0.375
 74
0
 49
-0.075
 74
0
 49
0.075
 74
0
 49
-0.075
 74
0
  0
LTYPE
  5
1F6
100
AcDbSymbolTableRecord
100
AcDbLinetypeTableRecord
  2
HIDDEN
 70
64
  3
- - - - - - - - - - - - - - - - - - - -
 72
65
 73
2
 40
0.2
 49
0.1
 74
0
 49
-0.1
 74
0
  0
LTYPE
  5
1F7
100
AcDbSymbolTableRecord
100
AcDbLinetypeTableRecord
  2
PHANTOM
 70
64
  3
_____ _ _ _____ _ _ _____ _ _ _____
 72
65
 73
6
 40
0.8
 49
0.45
 74
0
 49
-0.05
 74
0
 49
0.1
 74
0
 49
-0.05
 74
0
 49
0.1
 74
0
 49
-0.05
 74
0
  0
LTYPE
  5
1F8
100
AcDbSymbolTableRecord
100
AcDbLinetypeTableRecord
  2
DOT
 70
64
  3
. . . . . . . . . . . . . . . . . . . .
 72
65
 73
2
 40
0.2
 49
0.1
 74
0
 49
-0.1
 74
0
  0
LTYPE
  5
1F9
100
AcDbSymbolTableRecord
100
AcDbLinetypeTableRecord
  2
DASHED
 70
64
  3
- - - - - - - - - - - - - - - - - - - -
 72
65
 73
2
 40
0.2
 49
0.1
 74
0
 49
-0.1
 74
0
  0
ENDTAB
  0
TABLE
  2
LAYER
  5
2
100
AcDbSymbolTable
 70
36
  0
LAYER
  5
10
100
AcDbSymbolTableRecord
100
AcDbLayerTableRecord
  2
0
 70
0
 62
7
  6
CONTINUOUS
370
-3
390
F
  0
LAYER
  5
1FA
100
AcDbSymbolTableRecord
100
AcDbLayerTableRecord
  2
DEFAULT_1
 70
0
 62
7
  6
CENTER
370
-3
390
F
  0
LAYER
  5
1FB
100
AcDbSymbolTableRecord
100
AcDbLayerTableRecord
  2
DEFAULT_2
 70
0
 62
7
  6
HIDDEN
370
-3
390
F
  0
LAYER
  5
1FC
100
AcDbSymbolTableRecord
100
AcDbLayerTableRecord
  2
DEFAULT_3
 70
0
 62
7
  6
PHANTOM
370
-3
390
F
  0
LAYER
  5
1FD
100
AcDbSymbolTableRecord
100
AcDbLayerTableRecord
  2
ASSI
 70
0
 62
7
  6
CONTINUOUS
370
-3
390
F
  0
LAYER
  5
1FE
100
AcDbSymbolTableRecord
100
AcDbLayerTableRecord
  2
COORDINATE
 70
0
 62
7
  6
CONTINUOUS
370
-3
390
F
  0
LAYER
  5
1FF
100
AcDbSymbolTableRecord
100
AcDbLayerTableRecord
  2
COPY_PUBLISH
 70
0
 62
7
  6
CONTINUOUS
370
-3
390
F
  0
LAYER
  5
200
100
AcDbSymbolTableRecord
100
AcDbLayerTableRecord
  2
COSMETICI
 70
0
 62
7
  6
CONTINUOUS
370
-3
390
F
  0
LAYER
  5
201
100
AcDbSymbolTableRecord
100
AcDbLayerTableRecord
  2
CURVE
 70
0
 62
7
  6
CONTINUOUS
370
-3
390
F
  0
LAYER
  5
202
100
AcDbSymbolTableRecord
100
AcDbLayerTableRecord
  2
DRAFT
 70
0
 62
7
  6
CONTINUOUS
370
-3
390
F
  0
LAYER
  5
203
100
AcDbSymbolTableRecord
100
AcDbLayerTableRecord
  2
IMPORT_IGES
 70
0
 62
7
  6
CONTINUOUS
370
-3
390
F
  0
LAYER
  5
204
100
AcDbSymbolTableRecord
100
AcDbLayerTableRecord
  2
INTFCLR_2816
 70
0
 62
7
  6
CONTINUOUS
370
-3
390
F
  0
LAYER
  5
205
100
AcDbSymbolTableRecord
100
AcDbLayerTableRecord
  2
NOTE
 70
0
 62
7
  6
CONTINUOUS
370
-3
390
F
  0
LAYER
  5
206
100
AcDbSymbolTableRecord
100
AcDbLayerTableRecord
  2
PIANI
 70
0
 62
7
  6
CONTINUOUS
370
-3
390
F
  0
LAYER
  5
207
100
AcDbSymbolTableRecord
100
AcDbLayerTableRecord
  2
PUNTI
 70
0
 62
7
  6
CONTINUOUS
370
-3
390
F
  0
LAYER
  5
208
100
AcDbSymbolTableRecord
100
AcDbLayerTableRecord
  2
RACCORDO
 70
0
 62
7
  6
CONTINUOUS
370
-3
390
F
  0
LAYER
  5
209
100
AcDbSymbolTableRecord
100
AcDbLayerTableRecord
  2
SIMBOLI
 70
0
 62
7
  6
CONTINUOUS
370
-3
390
F
  0
LAYER
  5
20A
100
AcDbSymbolTableRecord
100
AcDbLayerTableRecord
  2
SMUSSO
 70
0
 62
7
  6
CONTINUOUS
370
-3
390
F
  0
LAYER
  5
20B
100
AcDbSymbolTableRecord
100
AcDbLayerTableRecord
  2
SNAPLINE
 70
0
 62
7
  6
CONTINUOUS
370
-3
390
F
  0
LAYER
  5
20C
100
AcDbSymbolTableRecord
100
AcDbLayerTableRecord
  2
SUPERFICI
 70
0
 62
7
  6
CONTINUOUS
370
-3
390
F
  0
LAYER
  5
20D
100
AcDbSymbolTableRecord
100
AcDbLayerTableRecord
  2
TRASH
 70
0
 62
7
  6
CONTINUOUS
370
-3
390
F
  0
ENDTAB
  0
TABLE
  2
STYLE
  5
3
100
AcDbSymbolTable
 70
1
  0
STYLE
  5
11
100
AcDbSymbolTableRecord
100
AcDbTextStyleTableRecord
  2
STANDARD
 70
0
 40
0.0
 41
0.8
 50
0.0
 71
0
 42
0.2
  3
txt
  4

  0
STYLE
  5
20E
100
AcDbSymbolTableRecord
100
AcDbTextStyleTableRecord
  2
TEXTSTYLE_1
 70
0
 40
0.0
 41
0.8
 50
0.0
 71
0
 42
0.2
  3
gdt
  4

  0
ENDTAB
  0
TABLE
  2
VIEW
  5
6
100
AcDbSymbolTable
 70
0
  0
ENDTAB
  0
TABLE
  2
UCS
  5
7
100
AcDbSymbolTable
 70
0
  0
ENDTAB
  0
TABLE
  2
APPID
  5
9
100
AcDbSymbolTable
 70
1
  0
APPID
  5
20F
100
AcDbSymbolTableRecord
100
AcDbRegAppTableRecord
  2
ACAD
 70
0
  0
ENDTAB
  0
TABLE
  2
BLOCK_RECORD
  5
1
100
AcDbSymbolTable
 70
0
  0
BLOCK_RECORD
  5
210
100
AcDbSymbolTableRecord
100
AcDbBlockTableRecord
  2
*Model_Space
  0
BLOCK_RECORD
  5
211
100
AcDbSymbolTableRecord
100
AcDbBlockTableRecord
  2
*Paper_Space
  0
BLOCK_RECORD
  5
212
100
AcDbSymbolTableRecord
100
AcDbBlockTableRecord
  2
_FILLED
  0
ENDTAB
  0
TABLE
  2
DIMSTYLE
  5
A
100
AcDbSymbolTable
 70
1
100
AcDbDimStyleTable
 71
0
  0
DIMSTYLE
105
213
100
AcDbSymbolTableRecord
100
AcDbDimStyleTableRecord
  2
STANDARD
 70
0
  3

  4

 40
1.0
 41
3.0
 42
0.5
 43
0.38
 44
1.5
 45
0.0
 46
0.0
 47
0.01
 48
0.01
140
3.0
141
0.09
142
0.0
143
25.4
144
1.0
145
0.0
146
1.0
147
0.625
 71
1.0
 72
0.0
 73
0
 74
0
 75
0
 76
0
 77
1
 78
8
 79
2
170
0
171
1
172
0
173
0
174
0
175
0
176
0
177
0
178
0
270
2
179
2
271
2
272
2
273
2
274
2
275
0
280
0
281
0
282
0
283
1
284
8
285
0
286
0
287
3
288
0
340
11
278
44
341
212
342
212
343
212
344
212
  0
ENDTAB
  0
ENDSEC
  0
SECTION
  2
BLOCKS
  0
BLOCK
  5
20
100
AcDbEntity
  8
0
100
AcDbBlockBegin
  2
*Model_Space
 70
0
 10
0.0
 20
0.0
 30
0.0
  3
*Model_Space
  1

  0
ENDBLK
  5
21
100
AcDbEntity
  8
0
100
AcDbBlockEnd
  0
BLOCK
  5
1C
100
AcDbEntity
  8
0
100
AcDbBlockBegin
  2
*Paper_Space
 70
0
 10
0.0
 20
0.0
 30
0.0
  3
*Paper_Space
  1

  0
ENDBLK
  5
1D
100
AcDbEntity
  8
0
100
AcDbBlockEnd
  0
BLOCK
  5
214
100
AcDbEntity
  8
0
100
AcDbBlockBegin
  2
_FILLED
 70
64
 10
0.0
 20
0.0
  3
_FILLED
  1

  0
SOLID
  5
215
100
AcDbEntity
  8
0
  6
BYBLOCK
 62
0
100
AcDbTrace
 10
0.0
 20
0.0
 11
-1.0
 21
0.3166666667
 12
-1.0
 22
-0.3166666667
 13
-1.0
 23
-0.3166666667
  0
ENDBLK
  5
216
100
AcDbEntity
  8
0
  6
BYBLOCK
 62
0
100
AcDbBlockEnd
  0
ENDSEC
  0
SECTION
  2
ENTITIES
  0
LINE
  5
217
100
AcDbEntity
  8
0
100
AcDbLine
 62
7
  6
CONTINUOUS
 10
24.2
 20
-27.75
 11
-24.2
 21
-27.75
  0
LINE
  5
218
100
AcDbEntity
  8
0
100
AcDbLine
 62
7
  6
CONTINUOUS
 10
-24.2
 20
27.75
 11
-24.2
 21
-27.75
  0
LINE
  5
219
100
AcDbEntity
  8
0
100
AcDbLine
 62
250
  6
CONTINUOUS
 10
-24.075
 20
27.75
 11
-24.075
 21
-27.75
  0
LINE
  5
21A
100
AcDbEntity
  8
RACCORDO
100
AcDbLine
 62
250
  6
CONTINUOUS
 10
-15.445387661
 20
-23.3261751346
 11
15.445387661
 21
-23.3261751346
  0
LINE
  5
21B
100
AcDbEntity
  8
RACCORDO
100
AcDbLine
 62
250
  6
CONTINUOUS
 10
-17.1457599445
 20
-22.4790063016
 11
-17.0663414705
 21
-22.4790063085
  0
LINE
  5
21C
100
AcDbEntity
  8
RACCORDO
100
AcDbLine
 62
250
  6
CONTINUOUS
 10
17.1457599441
 20
-22.4790063043
 11
17.0663414705
 21
-22.4790063111
  0
LINE
  5
21D
100
AcDbEntity
  8
RACCORDO
100
AcDbLine
 62
250
  6
CONTINUOUS
 10
-16.35
 20
-22.4601497308
 11
16.35
 21
-22.4601497308
  0
LINE
  5
21E
100
AcDbEntity
  8
0
100
AcDbLine
 62
250
  6
CONTINUOUS
 10
-22.175
 20
27.75
 11
-22.175
 21
-27.75
  0
LINE
  5
21F
100
AcDbEntity
  8
0
100
AcDbLine
 62
7
  6
CONTINUOUS
 10
-22.05
 20
27.75
 11
-22.05
 21
-27.75
  0
LINE
  5
220
100
AcDbEntity
  8
0
100
AcDbLine
 62
7
  6
CONTINUOUS
 10
-21.9574059103
 20
13.5
 11
-21.9574059103
 21
12.25
  0
LINE
  5
221
100
AcDbEntity
  8
0
100
AcDbLine
 62
7
  6
CONTINUOUS
 10
-21.9574059103
 20
-12.25
 11
-21.9574059103
 21
-13.5
  0
LINE
  5
222
100
AcDbEntity
  8
RACCORDO
100
AcDbLine
 62
7
  6
CONTINUOUS
 10
-21.9574059103
 20
-15.2429406779
 11
-21.9574059103
 21
-13.5
  0
LINE
  5
223
100
AcDbEntity
  8
RACCORDO
100
AcDbLine
 62
7
  6
CONTINUOUS
 10
-21.9574059103
 20
-12.25
 11
-21.9574059103
 21
-10.5070593221
  0
LINE
  5
224
100
AcDbEntity
  8
RACCORDO
100
AcDbLine
 62
7
  6
CONTINUOUS
 10
-21.9574059103
 20
10.5070593221
 11
-21.9574059103
 21
12.25
  0
LINE
  5
225
100
AcDbEntity
  8
RACCORDO
100
AcDbLine
 62
7
  6
CONTINUOUS
 10
-21.9574059103
 20
13.5
 11
-21.9574059103
 21
15.2429406779
  0
LINE
  5
226
100
AcDbEntity
  8
DRAFT
100
AcDbLine
 62
7
  6
CONTINUOUS
 10
-21.95
 20
19.4916390909
 11
-21.95
 21
18.7
  0
LINE
  5
227
100
AcDbEntity
  8
DRAFT
100
AcDbLine
 62
7
  6
CONTINUOUS
 10
-21.95
 20
-19.4916390909
 11
-21.95
 21
-18.7
  0
LINE
  5
228
100
AcDbEntity
  8
0
100
AcDbLine
 62
250
  6
CONTINUOUS
 10
-21.8
 20
27.75
 11
-21.8
 21
19.4916390909
  0
LINE
  5
229
100
AcDbEntity
  8
0
100
AcDbLine
 62
250
  6
CONTINUOUS
 10
-21.8
 20
18.7
 11
-21.8
 21
15.2265316551
  0
LINE
  5
22A
100
AcDbEntity
  8
0
100
AcDbLine
 62
250
  6
CONTINUOUS
 10
-21.8
 20
10.5234683449
 11
-21.8
 21
-10.5234683449
  0
LINE
  5
22B
100
AcDbEntity
  8
0
100
AcDbLine
 62
250
  6
CONTINUOUS
 10
-21.8
 20
-15.2265316551
 11
-21.8
 21
-18.7
  0
LINE
  5
22C
100
AcDbEntity
  8
0
100
AcDbLine
 62
250
  6
CONTINUOUS
 10
-21.8
 20
-19.4916390909
 11
-21.8
 21
-27.75
  0
LINE
  5
22D
100
AcDbEntity
  8
0
100
AcDbLine
 62
7
  6
CONTINUOUS
 10
-21.55
 20
27.75
 11
-21.55
 21
19.4916390909
  0
LINE
  5
22E
100
AcDbEntity
  8
0
100
AcDbLine
 62
7
  6
CONTINUOUS
 10
-21.55
 20
18.7
 11
-21.55
 21
15.2142087594
  0
LINE
  5
22F
100
AcDbEntity
  8
0
100
AcDbLine
 62
7
  6
CONTINUOUS
 10
-21.55
 20
10.5357912406
 11
-21.55
 21
-10.5357912406
  0
LINE
  5
230
100
AcDbEntity
  8
0
100
AcDbLine
 62
7
  6
CONTINUOUS
 10
-21.55
 20
-15.2142087594
 11
-21.55
 21
-18.7
  0
LINE
  5
231
100
AcDbEntity
  8
0
100
AcDbLine
 62
7
  6
CONTINUOUS
 10
-21.55
 20
-19.4916390909
 11
-21.55
 21
-27.75
  0
LINE
  5
232
100
AcDbEntity
  8
0
100
AcDbLine
 62
250
  6
CONTINUOUS
 10
-21.5276364025
 20
-27.75
 11
-21.5276364025
 21
-19.4916390909
  0
LINE
  5
233
100
AcDbEntity
  8
0
100
AcDbLine
 62
250
  6
CONTINUOUS
 10
-21.5276364025
 20
-18.7
 11
-21.5276364025
 21
-15.2131064223
  0
LINE
  5
234
100
AcDbEntity
  8
0
100
AcDbLine
 62
250
  6
CONTINUOUS
 10
-21.5276364025
 20
-10.5368935777
 11
-21.5276364025
 21
10.5368935777
  0
LINE
  5
235
100
AcDbEntity
  8
0
100
AcDbLine
 62
250
  6
CONTINUOUS
 10
-21.5276364025
 20
15.2131064223
 11
-21.5276364025
 21
18.7
  0
LINE
  5
236
100
AcDbEntity
  8
0
100
AcDbLine
 62
250
  6
CONTINUOUS
 10
-21.5276364025
 20
19.4916390909
 11
-21.5276364025
 21
27.75
  0
LINE
  5
237
100
AcDbEntity
  8
DRAFT
100
AcDbLine
 62
7
  6
CONTINUOUS
 10
-21.0012857645
 20
13.1921452208
 11
-21.0012857645
 21
12.5578547792
  0
LINE
  5
238
100
AcDbEntity
  8
DRAFT
100
AcDbLine
 62
7
  6
CONTINUOUS
 10
-21.0012857645
 20
-12.5578547792
 11
-21.0012857645
 21
-13.1921452208
  0
LINE
  5
239
100
AcDbEntity
  8
0
100
AcDbLine
 62
7
  6
CONTINUOUS
 10
-20.85
 20
18.7
 11
-20.85
 21
15.179306987
  0
LINE
  5
23A
100
AcDbEntity
  8
DRAFT
100
AcDbLine
 62
7
  6
CONTINUOUS
 10
-20.85
 20
15.1797046515
 11
-20.85
 21
13.1996023356
  0
LINE
  5
23B
100
AcDbEntity
  8
DRAFT
100
AcDbLine
 62
7
  6
CONTINUOUS
 10
-20.85
 20
12.5503976644
 11
-20.85
 21
-12.5503976644
  0
LINE
  5
23C
100
AcDbEntity
  8
DRAFT
100
AcDbLine
 62
7
  6
CONTINUOUS
 10
-20.85
 20
-13.1996023356
 11
-20.85
 21
-15.1797046515
  0
LINE
  5
23D
100
AcDbEntity
  8
0
100
AcDbLine
 62
7
  6
CONTINUOUS
 10
-20.85
 20
-15.179306987
 11
-20.85
 21
-18.7
  0
LINE
  5
23E
100
AcDbEntity
  8
0
100
AcDbLine
 62
7
  6
CONTINUOUS
 10
-20.2825873194
 20
-2.7
 11
-20.2825873194
 21
3.3
  0
LINE
  5
23F
100
AcDbEntity
  8
0
100
AcDbLine
 62
250
  6
CONTINUOUS
 10
-20.2779950785
 20
-2.7
 11
-20.2779950785
 21
3.3
  0
LINE
  5
240
100
AcDbEntity
  8
DRAFT
100
AcDbLine
 62
7
  6
CONTINUOUS
 10
-9.6508159741
 20
-18.6741840259
 11
-9.725
 21
-18.6
  0
LINE
  5
241
100
AcDbEntity
  8
DRAFT
100
AcDbLine
 62
7
  6
CONTINUOUS
 10
-18.4991840259
 20
18.6
 11
-18.472898422
 21
6.377101578
  0
LINE
  5
242
100
AcDbEntity
  8
0
100
AcDbLine
 62
250
  6
CONTINUOUS
 10
-19.5281093071
 20
-2.7
 11
-19.5281093071
 21
3.3
  0
LINE
  5
243
100
AcDbEntity
  8
0
100
AcDbLine
 62
7
  6
CONTINUOUS
 10
-19.225
 20
18.7
 11
-19.225
 21
18.6
  0
LINE
  5
244
100
AcDbEntity
  8
0
100
AcDbLine
 62
7
  6
CONTINUOUS
 10
-19.225
 20
-18.6
 11
-19.225
 21
-18.7
  0
LINE
  5
245
100
AcDbEntity
  8
DRAFT
100
AcDbLine
 62
7
  6
CONTINUOUS
 10
-19.225
 20
-18.6
 11
-19.225
 21
-2.7
  0
LINE
  5
246
100
AcDbEntity
  8
DRAFT
100
AcDbLine
 62
7
  6
CONTINUOUS
 10
-19.225
 20
3.3
 11
-19.225
 21
18.6
  0
LINE
  5
247
100
AcDbEntity
  8
0
100
AcDbLine
 62
7
  6
CONTINUOUS
 10
-18.9427351167
 20
-27.75
 11
-18.9427351167
 21
-19.4916390909
  0
LINE
  5
248
100
AcDbEntity
  8
0
100
AcDbLine
 62
7
  6
CONTINUOUS
 10
-18.9427351167
 20
19.4916390909
 11
-18.9427351167
 21
27.75
  0
LINE
  5
249
100
AcDbEntity
  8
DRAFT
100
AcDbLine
 62
7
  6
CONTINUOUS
 10
-18.4730014286
 20
4.0230014286
 11
-18.4730014286
 21
3.3
  0
LINE
  5
24A
100
AcDbEntity
  8
DRAFT
100
AcDbLine
 62
7
  6
CONTINUOUS
 10
-18.4730014286
 20
-2.7
 11
-18.4730014286
 21
-4.0230014286
  0
LINE
  5
24B
100
AcDbEntity
  8
RACCORDO
100
AcDbLine
 62
7
  6
CONTINUOUS
 10
-18.4360000044
 20
-16.4235870645
 11
-18.436
 21
-2.7
  0
LINE
  5
24C
100
AcDbEntity
  8
RACCORDO
100
AcDbLine
 62
7
  6
CONTINUOUS
 10
-18.436
 20
3.3
 11
-18.4360000014
 21
17.0235870947
  0
LINE
  5
24D
100
AcDbEntity
  8
DRAFT
100
AcDbLine
 62
7
  6
CONTINUOUS
 10
-18.425
 20
18.6
 11
-18.425
 21
17.1408761874
  0
LINE
  5
24E
100
AcDbEntity
  8
DRAFT
100
AcDbLine
 62
7
  6
CONTINUOUS
 10
-18.425
 20
-16.5408760845
 11
-18.425
 21
-18.6
  0
LINE
  5
24F
100
AcDbEntity
  8
0
100
AcDbLine
 62
7
  6
CONTINUOUS
 10
-18.3233333333
 20
-2.7
 11
-18.3233333333
 21
-4.05
  0
LINE
  5
250
100
AcDbEntity
  8
RACCORDO
100
AcDbLine
 62
7
  6
CONTINUOUS
 10
-18.15
 20
-17.975
 11
-18.15
 21
-16.95
  0
LINE
  5
251
100
AcDbEntity
  8
RACCORDO
100
AcDbLine
 62
7
  6
CONTINUOUS
 10
-18.15
 20
17.55
 11
-18.15
 21
18.575
  0
LINE
  5
252
100
AcDbEntity
  8
0
100
AcDbLine
 62
7
  6
CONTINUOUS
 10
-18.125
 20
-18.25
 11
-18.125
 21
-17.975
  0
LINE
  5
253
100
AcDbEntity
  8
0
100
AcDbLine
 62
7
  6
CONTINUOUS
 10
-17.7651322545
 20
3.3
 11
-17.7651322545
 21
-4.05
  0
LINE
  5
254
100
AcDbEntity
  8
DRAFT
100
AcDbLine
 62
7
  6
CONTINUOUS
 10
-17.675
 20
-6.3481977143
 11
-17.675
 21
-4.0518022857
  0
LINE
  5
255
100
AcDbEntity
  8
DRAFT
100
AcDbLine
 62
7
  6
CONTINUOUS
 10
-17.675
 20
4.0518022857
 11
-17.675
 21
6.3481977143
  0
LINE
  5
256
100
AcDbEntity
  8
0
100
AcDbLine
 62
7
  6
CONTINUOUS
 10
-17.5917989211
 20
-17.975
 11
-17.5917989211
 21
-4.05
  0
LINE
  5
257
100
AcDbEntity
  8
0
100
AcDbLine
 62
7
  6
CONTINUOUS
 10
-17.5917989211
 20
3.3
 11
-17.5917989211
 21
18.575
  0
LINE
  5
258
100
AcDbEntity
  8
RACCORDO
100
AcDbLine
 62
250
  6
CONTINUOUS
 10
-17.1457599441
 20
22.4790063043
 11
-17.1457599441
 21
19.4916390909
  0
LINE
  5
259
100
AcDbEntity
  8
RACCORDO
100
AcDbLine
 62
250
  6
CONTINUOUS
 10
-17.1457599444
 20
-19.4916390909
 11
-17.1457599445
 21
-22.4790063016
  0
LINE
  5
25A
100
AcDbEntity
  8
0
100
AcDbLine
 62
7
  6
CONTINUOUS
 10
-17.1237989211
 20
-17.975
 11
-17.1237989211
 21
18.575
  0
LINE
  5
25B
100
AcDbEntity
  8
RACCORDO
100
AcDbLine
 62
250
  6
CONTINUOUS
 10
-17.0663414705
 20
22.4790063101
 11
-17.0663414705
 21
19.4916390909
  0
LINE
  5
25C
100
AcDbEntity
  8
RACCORDO
100
AcDbLine
 62
250
  6
CONTINUOUS
 10
-17.0663414705
 20
-19.4916390909
 11
-17.0663414705
 21
-22.4790062964
  0
LINE
  5
25D
100
AcDbEntity
  8
DRAFT
100
AcDbLine
 62
7
  6
CONTINUOUS
 10
-18.4991840259
 20
-18.6741840259
 11
-18.472898422
 21
-6.377101578
  0
LINE
  5
25E
100
AcDbEntity
  8
DRAFT
100
AcDbLine
 62
7
  6
CONTINUOUS
 10
-18.472898422
 20
6.377101578
 11
-18.4360000003
 21
6.4139999997
  0
LINE
  5
25F
100
AcDbEntity
  8
DRAFT
100
AcDbLine
 62
7
  6
CONTINUOUS
 10
21.95
 20
-19.4916390909
 11
-21.95
 21
-19.4916390909
  0
LINE
  5
260
100
AcDbEntity
  8
0
100
AcDbLine
 62
7
  6
CONTINUOUS
 10
21.95
 20
-18.7
 11
19.225
 21
-18.7
  0
LINE
  5
261
100
AcDbEntity
  8
0
100
AcDbLine
 62
7
  6
CONTINUOUS
 10
-19.225
 20
-18.7
 11
-21.95
 21
-18.7
  0
LINE
  5
262
100
AcDbEntity
  8
DRAFT
100
AcDbLine
 62
7
  6
CONTINUOUS
 10
18.4991840259
 20
-18.6741840259
 11
9.6508159741
 21
-18.6741840259
  0
LINE
  5
263
100
AcDbEntity
  8
DRAFT
100
AcDbLine
 62
7
  6
CONTINUOUS
 10
9.2491840259
 20
-18.6741840259
 11
-9.2491840259
 21
-18.6741840259
  0
LINE
  5
264
100
AcDbEntity
  8
DRAFT
100
AcDbLine
 62
7
  6
CONTINUOUS
 10
-9.6508159741
 20
-18.6741840259
 11
-18.4991840259
 21
-18.6741840259
  0
LINE
  5
265
100
AcDbEntity
  8
DRAFT
100
AcDbLine
 62
7
  6
CONTINUOUS
 10
-19.225
 20
-18.6
 11
-18.4991840259
 21
-18.6
  0
LINE
  5
266
100
AcDbEntity
  8
DRAFT
100
AcDbLine
 62
7
  6
CONTINUOUS
 10
-18.425
 20
-18.6
 11
-9.725
 21
-18.6
  0
LINE
  5
267
100
AcDbEntity
  8
DRAFT
100
AcDbLine
 62
7
  6
CONTINUOUS
 10
-9.175
 20
-18.6
 11
9.175
 21
-18.6
  0
LINE
  5
268
100
AcDbEntity
  8
DRAFT
100
AcDbLine
 62
7
  6
CONTINUOUS
 10
9.725
 20
-18.6
 11
18.425
 21
-18.6
  0
LINE
  5
269
100
AcDbEntity
  8
DRAFT
100
AcDbLine
 62
7
  6
CONTINUOUS
 10
18.4991840259
 20
-18.6
 11
19.225
 21
-18.6
  0
LINE
  5
26A
100
AcDbEntity
  8
0
100
AcDbLine
 62
7
  6
CONTINUOUS
 10
18.125
 20
-18.25
 11
-18.125
 21
-18.25
  0
LINE
  5
26B
100
AcDbEntity
  8
DRAFT
100
AcDbLine
 62
7
  6
CONTINUOUS
 10
9.6508159741
 20
-18.0241840259
 11
9.2491840259
 21
-18.0241840259
  0
LINE
  5
26C
100
AcDbEntity
  8
DRAFT
100
AcDbLine
 62
7
  6
CONTINUOUS
 10
-9.2491840259
 20
-18.0241840259
 11
-9.6508159741
 21
-18.0241840259
  0
LINE
  5
26D
100
AcDbEntity
  8
0
100
AcDbLine
 62
7
  6
CONTINUOUS
 10
-18.15
 20
-17.975
 11
18.15
 21
-17.975
  0
LINE
  5
26E
100
AcDbEntity
  8
DRAFT
100
AcDbLine
 62
7
  6
CONTINUOUS
 10
-9.6508159741
 20
-18.0241840259
 11
-9.7
 21
-17.975
  0
LINE
  5
26F
100
AcDbEntity
  8
DRAFT
100
AcDbLine
 62
7
  6
CONTINUOUS
 10
-18.472898422
 20
-6.377101578
 11
-18.4360000012
 21
-6.4139999988
  0
LINE
  5
270
100
AcDbEntity
  8
RACCORDO
100
AcDbLine
 62
250
  6
CONTINUOUS
 10
-16.3499999608
 20
23.234771925
 11
-16.35
 21
19.4916390909
  0
LINE
  5
271
100
AcDbEntity
  8
RACCORDO
100
AcDbLine
 62
250
  6
CONTINUOUS
 10
-16.35
 20
-19.4916390909
 11
-16.3499999607
 21
-23.2347719248
  0
LINE
  5
272
100
AcDbEntity
  8
ASSI
100
AcDbLine
 62
7
  6
CONTINUOUS
 10
-15.525
 20
18.575
 11
-15.525
 21
6.625
  0
LINE
  5
273
100
AcDbEntity
  8
RACCORDO
100
AcDbLine
 62
7
  6
CONTINUOUS
 10
-15.525
 20
6.425
 11
-15.525
 21
6.625
  0
LINE
  5
274
100
AcDbEntity
  8
DRAFT
100
AcDbLine
 62
7
  6
CONTINUOUS
 10
20.85
 20
-13.1996023356
 11
21.0012857645
 21
-13.1921452208
  0
LINE
  5
275
100
AcDbEntity
  8
DRAFT
100
AcDbLine
 62
7
  6
CONTINUOUS
 10
-20.85
 20
-15.1797046515
 11
-21.9574059103
 21
-15.2342904416
  0
LINE
  5
276
100
AcDbEntity
  8
RACCORDO
100
AcDbLine
 62
7
  6
CONTINUOUS
 10
-22.05
 20
-15.2429570428
 11
-21.9574059103
 21
-15.2429570428
  0
LINE
  5
277
100
AcDbEntity
  8
RACCORDO
100
AcDbLine
 62
7
  6
CONTINUOUS
 10
21.9574059103
 20
-15.2429570428
 11
22.05
 21
-15.2429570428
  0
LINE
  5
278
100
AcDbEntity
  8
RACCORDO
100
AcDbLine
 62
250
  6
CONTINUOUS
 10
-22.05
 20
-14.8429570428
 11
-21.9574059103
 21
-14.8429570428
  0
LINE
  5
279
100
AcDbEntity
  8
RACCORDO
100
AcDbLine
 62
250
  6
CONTINUOUS
 10
21.9574059103
 20
-14.8429570428
 11
22.05
 21
-14.8429570428
  0
LINE
  5
27A
100
AcDbEntity
  8
RACCORDO
100
AcDbLine
 62
250
  6
CONTINUOUS
 10
22.05
 20
-13.9
 11
21.9574059103
 21
-13.9
  0
LINE
  5
27B
100
AcDbEntity
  8
RACCORDO
100
AcDbLine
 62
250
  6
CONTINUOUS
 10
-21.9574059103
 20
-13.9
 11
-22.05
 21
-13.9
  0
LINE
  5
27C
100
AcDbEntity
  8
DRAFT
100
AcDbLine
 62
7
  6
CONTINUOUS
 10
-20.85
 20
-13.1996023356
 11
-21.0012857645
 21
-13.1921452208
  0
LINE
  5
27D
100
AcDbEntity
  8
DRAFT
100
AcDbLine
 62
7
  6
CONTINUOUS
 10
21.9574059103
 20
-15.2342904416
 11
20.85
 21
-15.1797046515
  0
LINE
  5
27E
100
AcDbEntity
  8
RACCORDO
100
AcDbLine
 62
7
  6
CONTINUOUS
 10
-13.825
 20
6.625
 11
-13.825
 21
6.425
  0
LINE
  5
27F
100
AcDbEntity
  8
ASSI
100
AcDbLine
 62
7
  6
CONTINUOUS
 10
-13.825
 20
6.625
 11
-13.825
 21
18.575
  0
LINE
  5
280
100
AcDbEntity
  8
DRAFT
100
AcDbLine
 62
7
  6
CONTINUOUS
 10
21.9574059103
 20
-10.5157095584
 11
20.85
 21
-10.5702953485
  0
LINE
  5
281
100
AcDbEntity
  8
DRAFT
100
AcDbLine
 62
7
  6
CONTINUOUS
 10
-20.85
 20
-12.5503976644
 11
-21.0012857645
 21
-12.5578547792
  0
LINE
  5
282
100
AcDbEntity
  8
DRAFT
100
AcDbLine
 62
7
  6
CONTINUOUS
 10
-19.225
 20
-13.1659626234
 11
-21.0012857645
 21
-13.1921452208
  0
LINE
  5
283
100
AcDbEntity
  8
DRAFT
100
AcDbLine
 62
7
  6
CONTINUOUS
 10
21.0012857645
 20
-12.5578547792
 11
19.225
 21
-12.5840373766
  0
LINE
  5
284
100
AcDbEntity
  8
RACCORDO
100
AcDbLine
 62
7
  6
CONTINUOUS
 10
22.05
 20
-13.5
 11
21.9574059103
 21
-13.5
  0
LINE
  5
285
100
AcDbEntity
  8
RACCORDO
100
AcDbLine
 62
7
  6
CONTINUOUS
 10
-21.9574059103
 20
-13.5
 11
-22.05
 21
-13.5
  0
LINE
  5
286
100
AcDbEntity
  8
DRAFT
100
AcDbLine
 62
7
  6
CONTINUOUS
 10
20.85
 20
-13.2
 11
19.225
 21
-13.2
  0
LINE
  5
287
100
AcDbEntity
  8
DRAFT
100
AcDbLine
 62
7
  6
CONTINUOUS
 10
-19.225
 20
-13.2
 11
-20.85
 21
-13.2
  0
LINE
  5
288
100
AcDbEntity
  8
DRAFT
100
AcDbLine
 62
7
  6
CONTINUOUS
 10
20.85
 20
-12.55
 11
19.225
 21
-12.55
  0
LINE
  5
289
100
AcDbEntity
  8
DRAFT
100
AcDbLine
 62
7
  6
CONTINUOUS
 10
-19.225
 20
-12.55
 11
-20.85
 21
-12.55
  0
LINE
  5
28A
100
AcDbEntity
  8
RACCORDO
100
AcDbLine
 62
7
  6
CONTINUOUS
 10
-22.05
 20
-12.25
 11
-21.9574059103
 21
-12.25
  0
LINE
  5
28B
100
AcDbEntity
  8
RACCORDO
100
AcDbLine
 62
7
  6
CONTINUOUS
 10
21.9574059103
 20
-12.25
 11
22.05
 21
-12.25
  0
LINE
  5
28C
100
AcDbEntity
  8
RACCORDO
100
AcDbLine
 62
250
  6
CONTINUOUS
 10
-22.05
 20
-11.85
 11
-21.9574059103
 21
-11.85
  0
LINE
  5
28D
100
AcDbEntity
  8
RACCORDO
100
AcDbLine
 62
250
  6
CONTINUOUS
 10
21.9574059103
 20
-11.85
 11
22.05
 21
-11.85
  0
LINE
  5
28E
100
AcDbEntity
  8
DRAFT
100
AcDbLine
 62
7
  6
CONTINUOUS
 10
21.0012857645
 20
-13.1921452208
 11
19.225
 21
-13.1659626234
  0
LINE
  5
28F
100
AcDbEntity
  8
DRAFT
100
AcDbLine
 62
7
  6
CONTINUOUS
 10
-19.225
 20
-12.5840373766
 11
-21.0012857645
 21
-12.5578547792
  0
LINE
  5
290
100
AcDbEntity
  8
DRAFT
100
AcDbLine
 62
7
  6
CONTINUOUS
 10
-20.85
 20
-10.5702953485
 11
-21.9574059103
 21
-10.5157095584
  0
LINE
  5
291
100
AcDbEntity
  8
DRAFT
100
AcDbLine
 62
7
  6
CONTINUOUS
 10
20.85
 20
-12.5503976644
 11
21.0012857645
 21
-12.5578547792
  0
LINE
  5
292
100
AcDbEntity
  8
DRAFT
100
AcDbLine
 62
7
  6
CONTINUOUS
 10
-9.725
 20
-18.6
 11
-9.725
 21
-18.25
  0
LINE
  5
293
100
AcDbEntity
  8
DRAFT
100
AcDbLine
 62
7
  6
CONTINUOUS
 10
-9.6508159741
 20
-18.0241840259
 11
-9.6508159741
 21
-18.6741840259
  0
LINE
  5
294
100
AcDbEntity
  8
DRAFT
100
AcDbLine
 62
7
  6
CONTINUOUS
 10
-9.2491840259
 20
-18.6741840259
 11
-9.2491840259
 21
-18.0241840259
  0
LINE
  5
295
100
AcDbEntity
  8
DRAFT
100
AcDbLine
 62
7
  6
CONTINUOUS
 10
-9.175
 20
-18.6
 11
-9.175
 21
-18.25
  0
LINE
  5
296
100
AcDbEntity
  8
DRAFT
100
AcDbLine
 62
7
  6
CONTINUOUS
 10
-18.4730014286
 20
-4.0230014286
 11
-18.4360000004
 21
-3.9860000004
  0
LINE
  5
297
100
AcDbEntity
  8
RACCORDO
100
AcDbLine
 62
250
  6
CONTINUOUS
 10
22.05
 20
-10.9070429572
 11
21.9574059103
 21
-10.9070429572
  0
LINE
  5
298
100
AcDbEntity
  8
RACCORDO
100
AcDbLine
 62
250
  6
CONTINUOUS
 10
-21.9574059103
 20
-10.9070429572
 11
-22.05
 21
-10.9070429572
  0
LINE
  5
299
100
AcDbEntity
  8
RACCORDO
100
AcDbLine
 62
7
  6
CONTINUOUS
 10
22.05
 20
-10.5070429572
 11
21.9574059103
 21
-10.5070429572
  0
LINE
  5
29A
100
AcDbEntity
  8
RACCORDO
100
AcDbLine
 62
7
  6
CONTINUOUS
 10
-21.9574059103
 20
-10.5070429572
 11
-22.05
 21
-10.5070429572
  0
LINE
  5
29B
100
AcDbEntity
  8
DRAFT
100
AcDbLine
 62
7
  6
CONTINUOUS
 10
-18.4730014286
 20
4.0230014286
 11
-18.4360000001
 21
3.9860000001
  0
LINE
  5
29C
100
AcDbEntity
  8
DRAFT
100
AcDbLine
 62
7
  6
CONTINUOUS
 10
19.225
 20
-6.377101578
 11
18.472898422
 21
-6.377101578
  0
LINE
  5
29D
100
AcDbEntity
  8
DRAFT
100
AcDbLine
 62
7
  6
CONTINUOUS
 10
-18.472898422
 20
-6.377101578
 11
-19.225
 21
-6.377101578
  0
LINE
  5
29E
100
AcDbEntity
  8
DRAFT
100
AcDbLine
 62
7
  6
CONTINUOUS
 10
19.225
 20
-6.3377246754
 11
17.675
 21
-6.3377246754
  0
LINE
  5
29F
100
AcDbEntity
  8
DRAFT
100
AcDbLine
 62
7
  6
CONTINUOUS
 10
-17.675
 20
-6.3377246754
 11
-19.225
 21
-6.3377246754
  0
LINE
  5
2A0
100
AcDbEntity
  8
DRAFT
100
AcDbLine
 62
7
  6
CONTINUOUS
 10
9.2491840259
 20
-18.6741840259
 11
9.175
 21
-18.6
  0
LINE
  5
2A1
100
AcDbEntity
  8
DRAFT
100
AcDbLine
 62
7
  6
CONTINUOUS
 10
9.2491840259
 20
-18.0241840259
 11
9.2
 21
-17.975
  0
LINE
  5
2A2
100
AcDbEntity
  8
DRAFT
100
AcDbLine
 62
7
  6
CONTINUOUS
 10
19.225
 20
-4.0622753246
 11
17.675
 21
-4.0622753246
  0
LINE
  5
2A3
100
AcDbEntity
  8
DRAFT
100
AcDbLine
 62
7
  6
CONTINUOUS
 10
-17.675
 20
-4.0622753246
 11
-19.225
 21
-4.0622753246
  0
LINE
  5
2A4
100
AcDbEntity
  8
0
100
AcDbLine
 62
7
  6
CONTINUOUS
 10
18.3233333333
 20
-4.05
 11
17.5917989211
 21
-4.05
  0
LINE
  5
2A5
100
AcDbEntity
  8
0
100
AcDbLine
 62
7
  6
CONTINUOUS
 10
-17.5917989211
 20
-4.05
 11
-18.3233333333
 21
-4.05
  0
LINE
  5
2A6
100
AcDbEntity
  8
DRAFT
100
AcDbLine
 62
7
  6
CONTINUOUS
 10
19.225
 20
-4.0230014286
 11
18.4730014286
 21
-4.0230014286
  0
LINE
  5
2A7
100
AcDbEntity
  8
DRAFT
100
AcDbLine
 62
7
  6
CONTINUOUS
 10
-18.4730014286
 20
-4.0230014286
 11
-19.225
 21
-4.0230014286
  0
LINE
  5
2A8
100
AcDbEntity
  8
0
100
AcDbLine
 62
7
  6
CONTINUOUS
 10
-20.2825873194
 20
-2.7
 11
-18.3233333333
 21
-2.7
  0
LINE
  5
2A9
100
AcDbEntity
  8
0
100
AcDbLine
 62
7
  6
CONTINUOUS
 10
18.3233333333
 20
-2.7
 11
20.2825873194
 21
-2.7
  0
LINE
  5
2AA
100
AcDbEntity
  8
DRAFT
100
AcDbLine
 62
7
  6
CONTINUOUS
 10
-18.425
 20
-18.6
 11
-18.4991840259
 21
-18.6741840259
  0
LINE
  5
2AB
100
AcDbEntity
  8
DRAFT
100
AcDbLine
 62
7
  6
CONTINUOUS
 10
18.425
 20
-18.6
 11
18.4991840259
 21
-18.6741840259
  0
LINE
  5
2AC
100
AcDbEntity
  8
0
100
AcDbLine
 62
7
  6
CONTINUOUS
 10
-20.2825873194
 20
3.3
 11
-17.5917989211
 21
3.3
  0
LINE
  5
2AD
100
AcDbEntity
  8
0
100
AcDbLine
 62
7
  6
CONTINUOUS
 10
17.5917989211
 20
3.3
 11
20.2825873194
 21
3.3
  0
LINE
  5
2AE
100
AcDbEntity
  8
DRAFT
100
AcDbLine
 62
7
  6
CONTINUOUS
 10
19.225
 20
4.0230014286
 11
18.4730014286
 21
4.0230014286
  0
LINE
  5
2AF
100
AcDbEntity
  8
DRAFT
100
AcDbLine
 62
7
  6
CONTINUOUS
 10
-18.4730014286
 20
4.0230014286
 11
-19.225
 21
4.0230014286
  0
LINE
  5
2B0
100
AcDbEntity
  8
DRAFT
100
AcDbLine
 62
7
  6
CONTINUOUS
 10
19.225
 20
4.0622753246
 11
17.675
 21
4.0622753246
  0
LINE
  5
2B1
100
AcDbEntity
  8
DRAFT
100
AcDbLine
 62
7
  6
CONTINUOUS
 10
-17.675
 20
4.0622753246
 11
-19.225
 21
4.0622753246
  0
LINE
  5
2B2
100
AcDbEntity
  8
DRAFT
100
AcDbLine
 62
7
  6
CONTINUOUS
 10
-9.2491840259
 20
-18.0241840259
 11
-9.2
 21
-17.975
  0
LINE
  5
2B3
100
AcDbEntity
  8
DRAFT
100
AcDbLine
 62
7
  6
CONTINUOUS
 10
-9.2491840259
 20
-18.6741840259
 11
-9.175
 21
-18.6
  0
LINE
  5
2B4
100
AcDbEntity
  8
DRAFT
100
AcDbLine
 62
7
  6
CONTINUOUS
 10
19.225
 20
6.3377246754
 11
17.675
 21
6.3377246754
  0
LINE
  5
2B5
100
AcDbEntity
  8
DRAFT
100
AcDbLine
 62
7
  6
CONTINUOUS
 10
-17.675
 20
6.3377246754
 11
-19.225
 21
6.3377246754
  0
LINE
  5
2B6
100
AcDbEntity
  8
DRAFT
100
AcDbLine
 62
7
  6
CONTINUOUS
 10
19.225
 20
6.377101578
 11
18.472898422
 21
6.377101578
  0
LINE
  5
2B7
100
AcDbEntity
  8
DRAFT
100
AcDbLine
 62
7
  6
CONTINUOUS
 10
-18.472898422
 20
6.377101578
 11
-19.225
 21
6.377101578
  0
LINE
  5
2B8
100
AcDbEntity
  8
RACCORDO
100
AcDbLine
 62
7
  6
CONTINUOUS
 10
-15.525
 20
6.425
 11
-13.825
 21
6.425
  0
LINE
  5
2B9
100
AcDbEntity
  8
RACCORDO
100
AcDbLine
 62
7
  6
CONTINUOUS
 10
13.825
 20
6.425
 11
15.525
 21
6.425
  0
LINE
  5
2BA
100
AcDbEntity
  8
RACCORDO
100
AcDbLine
 62
250
  6
CONTINUOUS
 10
-15.525
 20
6.625
 11
-13.825
 21
6.625
  0
LINE
  5
2BB
100
AcDbEntity
  8
RACCORDO
100
AcDbLine
 62
250
  6
CONTINUOUS
 10
13.825
 20
6.625
 11
15.525
 21
6.625
  0
LINE
  5
2BC
100
AcDbEntity
  8
DRAFT
100
AcDbLine
 62
7
  6
CONTINUOUS
 10
9.175
 20
-18.6
 11
9.175
 21
-18.25
  0
LINE
  5
2BD
100
AcDbEntity
  8
DRAFT
100
AcDbLine
 62
7
  6
CONTINUOUS
 10
9.2491840259
 20
-18.0241840259
 11
9.2491840259
 21
-18.6741840259
  0
LINE
  5
2BE
100
AcDbEntity
  8
DRAFT
100
AcDbLine
 62
7
  6
CONTINUOUS
 10
9.6508159741
 20
-18.6741840259
 11
9.6508159741
 21
-18.0241840259
  0
LINE
  5
2BF
100
AcDbEntity
  8
DRAFT
100
AcDbLine
 62
7
  6
CONTINUOUS
 10
9.725
 20
-18.6
 11
9.725
 21
-18.25
  0
LINE
  5
2C0
100
AcDbEntity
  8
DRAFT
100
AcDbLine
 62
7
  6
CONTINUOUS
 10
18.436
 20
3.986
 11
18.4730014286
 21
4.0230014286
  0
LINE
  5
2C1
100
AcDbEntity
  8
DRAFT
100
AcDbLine
 62
7
  6
CONTINUOUS
 10
20.85
 20
12.5503976644
 11
21.0012857645
 21
12.5578547792
  0
LINE
  5
2C2
100
AcDbEntity
  8
DRAFT
100
AcDbLine
 62
7
  6
CONTINUOUS
 10
-20.85
 20
10.5702953485
 11
-21.9574059103
 21
10.5157095584
  0
LINE
  5
2C3
100
AcDbEntity
  8
RACCORDO
100
AcDbLine
 62
7
  6
CONTINUOUS
 10
-22.05
 20
10.5070429572
 11
-21.9574059103
 21
10.5070429572
  0
LINE
  5
2C4
100
AcDbEntity
  8
RACCORDO
100
AcDbLine
 62
7
  6
CONTINUOUS
 10
21.9574059103
 20
10.5070429572
 11
22.05
 21
10.5070429572
  0
LINE
  5
2C5
100
AcDbEntity
  8
RACCORDO
100
AcDbLine
 62
250
  6
CONTINUOUS
 10
-22.05
 20
10.9070429572
 11
-21.9574059103
 21
10.9070429572
  0
LINE
  5
2C6
100
AcDbEntity
  8
RACCORDO
100
AcDbLine
 62
250
  6
CONTINUOUS
 10
21.9574059103
 20
10.9070429572
 11
22.05
 21
10.9070429572
  0
LINE
  5
2C7
100
AcDbEntity
  8
DRAFT
100
AcDbLine
 62
7
  6
CONTINUOUS
 10
-20.85
 20
12.5503976644
 11
-21.0012857645
 21
12.5578547792
  0
LINE
  5
2C8
100
AcDbEntity
  8
DRAFT
100
AcDbLine
 62
7
  6
CONTINUOUS
 10
21.9574059103
 20
10.5157095584
 11
20.85
 21
10.5702953485
  0
LINE
  5
2C9
100
AcDbEntity
  8
DRAFT
100
AcDbLine
 62
7
  6
CONTINUOUS
 10
18.436
 20
-3.986
 11
18.4730014286
 21
-4.0230014286
  0
LINE
  5
2CA
100
AcDbEntity
  8
ASSI
100
AcDbLine
 62
7
  6
CONTINUOUS
 10
13.825
 20
18.575
 11
13.825
 21
6.625
  0
LINE
  5
2CB
100
AcDbEntity
  8
RACCORDO
100
AcDbLine
 62
7
  6
CONTINUOUS
 10
13.825
 20
6.425
 11
13.825
 21
6.625
  0
LINE
  5
2CC
100
AcDbEntity
  8
DRAFT
100
AcDbLine
 62
7
  6
CONTINUOUS
 10
21.9574059103
 20
15.2342904416
 11
20.85
 21
15.1797046515
  0
LINE
  5
2CD
100
AcDbEntity
  8
DRAFT
100
AcDbLine
 62
7
  6
CONTINUOUS
 10
-20.85
 20
13.1996023356
 11
-21.0012857645
 21
13.1921452208
  0
LINE
  5
2CE
100
AcDbEntity
  8
DRAFT
100
AcDbLine
 62
7
  6
CONTINUOUS
 10
-19.225
 20
12.5840373766
 11
-21.0012857645
 21
12.5578547792
  0
LINE
  5
2CF
100
AcDbEntity
  8
DRAFT
100
AcDbLine
 62
7
  6
CONTINUOUS
 10
21.0012857645
 20
13.1921452208
 11
19.225
 21
13.1659626234
  0
LINE
  5
2D0
100
AcDbEntity
  8
RACCORDO
100
AcDbLine
 62
250
  6
CONTINUOUS
 10
22.05
 20
11.85
 11
21.9574059103
 21
11.85
  0
LINE
  5
2D1
100
AcDbEntity
  8
RACCORDO
100
AcDbLine
 62
250
  6
CONTINUOUS
 10
-21.9574059103
 20
11.85
 11
-22.05
 21
11.85
  0
LINE
  5
2D2
100
AcDbEntity
  8
RACCORDO
100
AcDbLine
 62
7
  6
CONTINUOUS
 10
22.05
 20
12.25
 11
21.9574059103
 21
12.25
  0
LINE
  5
2D3
100
AcDbEntity
  8
RACCORDO
100
AcDbLine
 62
7
  6
CONTINUOUS
 10
-21.9574059103
 20
12.25
 11
-22.05
 21
12.25
  0
LINE
  5
2D4
100
AcDbEntity
  8
DRAFT
100
AcDbLine
 62
7
  6
CONTINUOUS
 10
20.85
 20
12.55
 11
19.225
 21
12.55
  0
LINE
  5
2D5
100
AcDbEntity
  8
DRAFT
100
AcDbLine
 62
7
  6
CONTINUOUS
 10
-19.225
 20
12.55
 11
-20.85
 21
12.55
  0
LINE
  5
2D6
100
AcDbEntity
  8
DRAFT
100
AcDbLine
 62
7
  6
CONTINUOUS
 10
20.85
 20
13.2
 11
19.225
 21
13.2
  0
LINE
  5
2D7
100
AcDbEntity
  8
DRAFT
100
AcDbLine
 62
7
  6
CONTINUOUS
 10
-19.225
 20
13.2
 11
-20.85
 21
13.2
  0
LINE
  5
2D8
100
AcDbEntity
  8
RACCORDO
100
AcDbLine
 62
7
  6
CONTINUOUS
 10
-22.05
 20
13.5
 11
-21.9574059103
 21
13.5
  0
LINE
  5
2D9
100
AcDbEntity
  8
RACCORDO
100
AcDbLine
 62
7
  6
CONTINUOUS
 10
21.9574059103
 20
13.5
 11
22.05
 21
13.5
  0
LINE
  5
2DA
100
AcDbEntity
  8
RACCORDO
100
AcDbLine
 62
250
  6
CONTINUOUS
 10
-22.05
 20
13.9
 11
-21.9574059103
 21
13.9
  0
LINE
  5
2DB
100
AcDbEntity
  8
RACCORDO
100
AcDbLine
 62
250
  6
CONTINUOUS
 10
21.9574059103
 20
13.9
 11
22.05
 21
13.9
  0
LINE
  5
2DC
100
AcDbEntity
  8
DRAFT
100
AcDbLine
 62
7
  6
CONTINUOUS
 10
21.0012857645
 20
12.5578547792
 11
19.225
 21
12.5840373766
  0
LINE
  5
2DD
100
AcDbEntity
  8
DRAFT
100
AcDbLine
 62
7
  6
CONTINUOUS
 10
-19.225
 20
13.1659626234
 11
-21.0012857645
 21
13.1921452208
  0
LINE
  5
2DE
100
AcDbEntity
  8
DRAFT
100
AcDbLine
 62
7
  6
CONTINUOUS
 10
-20.85
 20
15.1797046515
 11
-21.9574059103
 21
15.2342904416
  0
LINE
  5
2DF
100
AcDbEntity
  8
DRAFT
100
AcDbLine
 62
7
  6
CONTINUOUS
 10
20.85
 20
13.1996023356
 11
21.0012857645
 21
13.1921452208
  0
LINE
  5
2E0
100
AcDbEntity
  8
RACCORDO
100
AcDbLine
 62
7
  6
CONTINUOUS
 10
15.525
 20
6.625
 11
15.525
 21
6.425
  0
LINE
  5
2E1
100
AcDbEntity
  8
ASSI
100
AcDbLine
 62
7
  6
CONTINUOUS
 10
15.525
 20
6.625
 11
15.525
 21
18.575
  0
LINE
  5
2E2
100
AcDbEntity
  8
RACCORDO
100
AcDbLine
 62
250
  6
CONTINUOUS
 10
16.3499999607
 20
23.2347719248
 11
16.35
 21
19.4916390909
  0
LINE
  5
2E3
100
AcDbEntity
  8
RACCORDO
100
AcDbLine
 62
250
  6
CONTINUOUS
 10
16.35
 20
-19.4916390909
 11
16.3499999608
 21
-23.234771925
  0
LINE
  5
2E4
100
AcDbEntity
  8
RACCORDO
100
AcDbLine
 62
250
  6
CONTINUOUS
 10
17.0663414705
 20
-22.4790063101
 11
17.0663414705
 21
-19.4916390909
  0
LINE
  5
2E5
100
AcDbEntity
  8
RACCORDO
100
AcDbLine
 62
250
  6
CONTINUOUS
 10
17.0663414705
 20
19.4916390909
 11
17.0663414705
 21
22.4790062964
  0
LINE
  5
2E6
100
AcDbEntity
  8
0
100
AcDbLine
 62
7
  6
CONTINUOUS
 10
17.1237989211
 20
-17.975
 11
17.1237989211
 21
18.575
  0
LINE
  5
2E7
100
AcDbEntity
  8
RACCORDO
100
AcDbLine
 62
250
  6
CONTINUOUS
 10
17.1457599441
 20
-22.4790063043
 11
17.1457599441
 21
-19.4916390909
  0
LINE
  5
2E8
100
AcDbEntity
  8
RACCORDO
100
AcDbLine
 62
250
  6
CONTINUOUS
 10
17.1457599444
 20
19.4916390909
 11
17.1457599445
 21
22.4790063016
  0
LINE
  5
2E9
100
AcDbEntity
  8
RACCORDO
100
AcDbLine
 62
250
  6
CONTINUOUS
 10
22.05
 20
14.8429570428
 11
21.9574059103
 21
14.8429570428
  0
LINE
  5
2EA
100
AcDbEntity
  8
RACCORDO
100
AcDbLine
 62
250
  6
CONTINUOUS
 10
-21.9574059103
 20
14.8429570428
 11
-22.05
 21
14.8429570428
  0
LINE
  5
2EB
100
AcDbEntity
  8
RACCORDO
100
AcDbLine
 62
7
  6
CONTINUOUS
 10
22.05
 20
15.2429570428
 11
21.9574059103
 21
15.2429570428
  0
LINE
  5
2EC
100
AcDbEntity
  8
RACCORDO
100
AcDbLine
 62
7
  6
CONTINUOUS
 10
-21.9574059103
 20
15.2429570428
 11
-22.05
 21
15.2429570428
  0
LINE
  5
2ED
100
AcDbEntity
  8
ASSI
100
AcDbLine
 62
7
  6
CONTINUOUS
 10
15.525
 20
17.125
 11
13.825
 21
17.125
  0
LINE
  5
2EE
100
AcDbEntity
  8
ASSI
100
AcDbLine
 62
7
  6
CONTINUOUS
 10
-13.825
 20
17.125
 11
-15.525
 21
17.125
  0
LINE
  5
2EF
100
AcDbEntity
  8
0
100
AcDbLine
 62
7
  6
CONTINUOUS
 10
17.5917989211
 20
-17.975
 11
17.5917989211
 21
-4.05
  0
LINE
  5
2F0
100
AcDbEntity
  8
0
100
AcDbLine
 62
7
  6
CONTINUOUS
 10
17.5917989211
 20
3.3
 11
17.5917989211
 21
18.575
  0
LINE
  5
2F1
100
AcDbEntity
  8
DRAFT
100
AcDbLine
 62
7
  6
CONTINUOUS
 10
17.675
 20
-6.3481977143
 11
17.675
 21
-4.0518022857
  0
LINE
  5
2F2
100
AcDbEntity
  8
DRAFT
100
AcDbLine
 62
7
  6
CONTINUOUS
 10
17.675
 20
4.0518022857
 11
17.675
 21
6.3481977143
  0
LINE
  5
2F3
100
AcDbEntity
  8
0
100
AcDbLine
 62
7
  6
CONTINUOUS
 10
17.7651322545
 20
3.3
 11
17.7651322545
 21
-4.05
  0
LINE
  5
2F4
100
AcDbEntity
  8
0
100
AcDbLine
 62
7
  6
CONTINUOUS
 10
18.125
 20
-17.975
 11
18.125
 21
-18.25
  0
LINE
  5
2F5
100
AcDbEntity
  8
RACCORDO
100
AcDbLine
 62
7
  6
CONTINUOUS
 10
18.15
 20
-17.975
 11
18.15
 21
-16.95
  0
LINE
  5
2F6
100
AcDbEntity
  8
RACCORDO
100
AcDbLine
 62
7
  6
CONTINUOUS
 10
18.15
 20
17.55
 11
18.15
 21
18.575
  0
LINE
  5
2F7
100
AcDbEntity
  8
0
100
AcDbLine
 62
7
  6
CONTINUOUS
 10
18.3233333333
 20
-2.7
 11
18.3233333333
 21
-4.05
  0
LINE
  5
2F8
100
AcDbEntity
  8
DRAFT
100
AcDbLine
 62
7
  6
CONTINUOUS
 10
18.425
 20
-18.6
 11
18.425
 21
-16.540876208
  0
LINE
  5
2F9
100
AcDbEntity
  8
DRAFT
100
AcDbLine
 62
7
  6
CONTINUOUS
 10
18.425
 20
17.140876085
 11
18.425
 21
18.6
  0
LINE
  5
2FA
100
AcDbEntity
  8
RACCORDO
100
AcDbLine
 62
7
  6
CONTINUOUS
 10
18.4360000003
 20
-16.423587109
 11
18.436
 21
-2.7
  0
LINE
  5
2FB
100
AcDbEntity
  8
RACCORDO
100
AcDbLine
 62
7
  6
CONTINUOUS
 10
18.436
 20
3.3
 11
18.4360000006
 21
17.0235871092
  0
LINE
  5
2FC
100
AcDbEntity
  8
DRAFT
100
AcDbLine
 62
7
  6
CONTINUOUS
 10
18.4730014286
 20
4.0230014286
 11
18.4730014286
 21
3.3
  0
LINE
  5
2FD
100
AcDbEntity
  8
DRAFT
100
AcDbLine
 62
7
  6
CONTINUOUS
 10
18.4730014286
 20
-2.7
 11
18.4730014286
 21
-4.0230014286
  0
LINE
  5
2FE
100
AcDbEntity
  8
DRAFT
100
AcDbLine
 62
7
  6
CONTINUOUS
 10
18.472898422
 20
-6.377101578
 11
18.4991840259
 21
-18.6741840259
  0
LINE
  5
2FF
100
AcDbEntity
  8
0
100
AcDbLine
 62
7
  6
CONTINUOUS
 10
18.9427351167
 20
-27.75
 11
18.9427351167
 21
-19.4916390909
  0
LINE
  5
300
100
AcDbEntity
  8
0
100
AcDbLine
 62
7
  6
CONTINUOUS
 10
18.9427351167
 20
19.4916390909
 11
18.9427351167
 21
27.75
  0
LINE
  5
301
100
AcDbEntity
  8
0
100
AcDbLine
 62
7
  6
CONTINUOUS
 10
19.225
 20
-18.7
 11
19.225
 21
-18.6
  0
LINE
  5
302
100
AcDbEntity
  8
DRAFT
100
AcDbLine
 62
7
  6
CONTINUOUS
 10
19.225
 20
-18.6
 11
19.225
 21
-2.7
  0
LINE
  5
303
100
AcDbEntity
  8
DRAFT
100
AcDbLine
 62
7
  6
CONTINUOUS
 10
19.225
 20
3.3
 11
19.225
 21
18.6
  0
LINE
  5
304
100
AcDbEntity
  8
0
100
AcDbLine
 62
7
  6
CONTINUOUS
 10
19.225
 20
18.6
 11
19.225
 21
18.7
  0
LINE
  5
305
100
AcDbEntity
  8
0
100
AcDbLine
 62
250
  6
CONTINUOUS
 10
19.5281093071
 20
-2.7
 11
19.5281093071
 21
3.3
  0
LINE
  5
306
100
AcDbEntity
  8
0
100
AcDbLine
 62
250
  6
CONTINUOUS
 10
20.2779950785
 20
-2.7
 11
20.2779950785
 21
3.3
  0
LINE
  5
307
100
AcDbEntity
  8
0
100
AcDbLine
 62
7
  6
CONTINUOUS
 10
20.2825873194
 20
-2.7
 11
20.2825873194
 21
3.3
  0
LINE
  5
308
100
AcDbEntity
  8
DRAFT
100
AcDbLine
 62
7
  6
CONTINUOUS
 10
18.4991840259
 20
18.6
 11
18.472898422
 21
6.377101578
  0
LINE
  5
309
100
AcDbEntity
  8
DRAFT
100
AcDbLine
 62
7
  6
CONTINUOUS
 10
18.4360000001
 20
-6.4139999999
 11
18.472898422
 21
-6.377101578
  0
LINE
  5
30A
100
AcDbEntity
  8
DRAFT
100
AcDbLine
 62
7
  6
CONTINUOUS
 10
9.6508159741
 20
-18.0241840259
 11
9.7
 21
-17.975
  0
LINE
  5
30B
100
AcDbEntity
  8
DRAFT
100
AcDbLine
 62
7
  6
CONTINUOUS
 10
9.6508159741
 20
-18.6741840259
 11
9.725
 21
-18.6
  0
LINE
  5
30C
100
AcDbEntity
  8
0
100
AcDbLine
 62
7
  6
CONTINUOUS
 10
-15.525
 20
18.25
 11
-13.825
 21
18.25
  0
LINE
  5
30D
100
AcDbEntity
  8
0
100
AcDbLine
 62
7
  6
CONTINUOUS
 10
13.825
 20
18.25
 11
15.525
 21
18.25
  0
LINE
  5
30E
100
AcDbEntity
  8
0
100
AcDbLine
 62
7
  6
CONTINUOUS
 10
-18.15
 20
18.575
 11
-15.525
 21
18.575
  0
LINE
  5
30F
100
AcDbEntity
  8
0
100
AcDbLine
 62
7
  6
CONTINUOUS
 10
-13.825
 20
18.575
 11
13.825
 21
18.575
  0
LINE
  5
310
100
AcDbEntity
  8
0
100
AcDbLine
 62
7
  6
CONTINUOUS
 10
15.525
 20
18.575
 11
18.15
 21
18.575
  0
LINE
  5
311
100
AcDbEntity
  8
DRAFT
100
AcDbLine
 62
7
  6
CONTINUOUS
 10
-19.225
 20
18.6
 11
19.225
 21
18.6
  0
LINE
  5
312
100
AcDbEntity
  8
0
100
AcDbLine
 62
7
  6
CONTINUOUS
 10
-21.95
 20
18.7
 11
-19.225
 21
18.7
  0
LINE
  5
313
100
AcDbEntity
  8
0
100
AcDbLine
 62
7
  6
CONTINUOUS
 10
19.225
 20
18.7
 11
21.95
 21
18.7
  0
LINE
  5
314
100
AcDbEntity
  8
DRAFT
100
AcDbLine
 62
7
  6
CONTINUOUS
 10
-21.95
 20
19.4916390909
 11
21.95
 21
19.4916390909
  0
LINE
  5
315
100
AcDbEntity
  8
DRAFT
100
AcDbLine
 62
7
  6
CONTINUOUS
 10
18.4360000001
 20
6.4139999999
 11
18.472898422
 21
6.377101578
  0
LINE
  5
316
100
AcDbEntity
  8
0
100
AcDbLine
 62
7
  6
CONTINUOUS
 10
20.85
 20
18.7
 11
20.85
 21
15.179306987
  0
LINE
  5
317
100
AcDbEntity
  8
DRAFT
100
AcDbLine
 62
7
  6
CONTINUOUS
 10
20.85
 20
15.1797046515
 11
20.85
 21
13.1996023356
  0
LINE
  5
318
100
AcDbEntity
  8
DRAFT
100
AcDbLine
 62
7
  6
CONTINUOUS
 10
20.85
 20
12.5503976644
 11
20.85
 21
-12.5503976644
  0
LINE
  5
319
100
AcDbEntity
  8
DRAFT
100
AcDbLine
 62
7
  6
CONTINUOUS
 10
20.85
 20
-13.1996023356
 11
20.85
 21
-15.1797046515
  0
LINE
  5
31A
100
AcDbEntity
  8
0
100
AcDbLine
 62
7
  6
CONTINUOUS
 10
20.85
 20
-15.179306987
 11
20.85
 21
-18.7
  0
LINE
  5
31B
100
AcDbEntity
  8
DRAFT
100
AcDbLine
 62
7
  6
CONTINUOUS
 10
21.0012857645
 20
13.1921452208
 11
21.0012857645
 21
12.5578547792
  0
LINE
  5
31C
100
AcDbEntity
  8
DRAFT
100
AcDbLine
 62
7
  6
CONTINUOUS
 10
21.0012857645
 20
-12.5578547792
 11
21.0012857645
 21
-13.1921452208
  0
LINE
  5
31D
100
AcDbEntity
  8
0
100
AcDbLine
 62
250
  6
CONTINUOUS
 10
21.5276364025
 20
-27.75
 11
21.5276364025
 21
-19.4916390909
  0
LINE
  5
31E
100
AcDbEntity
  8
0
100
AcDbLine
 62
250
  6
CONTINUOUS
 10
21.5276364025
 20
-18.7
 11
21.5276364025
 21
-15.2131064223
  0
LINE
  5
31F
100
AcDbEntity
  8
0
100
AcDbLine
 62
250
  6
CONTINUOUS
 10
21.5276364025
 20
-10.5368935777
 11
21.5276364025
 21
10.5368935777
  0
LINE
  5
320
100
AcDbEntity
  8
0
100
AcDbLine
 62
250
  6
CONTINUOUS
 10
21.5276364025
 20
15.2131064223
 11
21.5276364025
 21
18.7
  0
LINE
  5
321
100
AcDbEntity
  8
0
100
AcDbLine
 62
250
  6
CONTINUOUS
 10
21.5276364025
 20
19.4916390909
 11
21.5276364025
 21
27.75
  0
LINE
  5
322
100
AcDbEntity
  8
0
100
AcDbLine
 62
7
  6
CONTINUOUS
 10
21.55
 20
-27.75
 11
21.55
 21
-19.4916390909
  0
LINE
  5
323
100
AcDbEntity
  8
0
100
AcDbLine
 62
7
  6
CONTINUOUS
 10
21.55
 20
-18.7
 11
21.55
 21
-15.2142087594
  0
LINE
  5
324
100
AcDbEntity
  8
0
100
AcDbLine
 62
7
  6
CONTINUOUS
 10
21.55
 20
-10.5357912406
 11
21.55
 21
10.5357912406
  0
LINE
  5
325
100
AcDbEntity
  8
0
100
AcDbLine
 62
7
  6
CONTINUOUS
 10
21.55
 20
15.2142087594
 11
21.55
 21
18.7
  0
LINE
  5
326
100
AcDbEntity
  8
0
100
AcDbLine
 62
7
  6
CONTINUOUS
 10
21.55
 20
19.4916390909
 11
21.55
 21
27.75
  0
LINE
  5
327
100
AcDbEntity
  8
0
100
AcDbLine
 62
250
  6
CONTINUOUS
 10
21.8
 20
-27.75
 11
21.8
 21
-19.4916390909
  0
LINE
  5
328
100
AcDbEntity
  8
0
100
AcDbLine
 62
250
  6
CONTINUOUS
 10
21.8
 20
-18.7
 11
21.8
 21
-15.2265316551
  0
LINE
  5
329
100
AcDbEntity
  8
0
100
AcDbLine
 62
250
  6
CONTINUOUS
 10
21.8
 20
-10.5234683449
 11
21.8
 21
10.5234683449
  0
LINE
  5
32A
100
AcDbEntity
  8
0
100
AcDbLine
 62
250
  6
CONTINUOUS
 10
21.8
 20
15.2265316551
 11
21.8
 21
18.7
  0
LINE
  5
32B
100
AcDbEntity
  8
0
100
AcDbLine
 62
250
  6
CONTINUOUS
 10
21.8
 20
19.4916390909
 11
21.8
 21
27.75
  0
LINE
  5
32C
100
AcDbEntity
  8
DRAFT
100
AcDbLine
 62
7
  6
CONTINUOUS
 10
21.95
 20
19.4916390909
 11
21.95
 21
18.7
  0
LINE
  5
32D
100
AcDbEntity
  8
DRAFT
100
AcDbLine
 62
7
  6
CONTINUOUS
 10
21.95
 20
-19.4916390909
 11
21.95
 21
-18.7
  0
LINE
  5
32E
100
AcDbEntity
  8
0
100
AcDbLine
 62
7
  6
CONTINUOUS
 10
21.9574059103
 20
13.5
 11
21.9574059103
 21
12.25
  0
LINE
  5
32F
100
AcDbEntity
  8
0
100
AcDbLine
 62
7
  6
CONTINUOUS
 10
21.9574059103
 20
-12.25
 11
21.9574059103
 21
-13.5
  0
LINE
  5
330
100
AcDbEntity
  8
RACCORDO
100
AcDbLine
 62
7
  6
CONTINUOUS
 10
21.9574059103
 20
-15.2429406779
 11
21.9574059103
 21
-13.5
  0
LINE
  5
331
100
AcDbEntity
  8
RACCORDO
100
AcDbLine
 62
7
  6
CONTINUOUS
 10
21.9574059103
 20
-12.25
 11
21.9574059103
 21
-10.5070593221
  0
LINE
  5
332
100
AcDbEntity
  8
RACCORDO
100
AcDbLine
 62
7
  6
CONTINUOUS
 10
21.9574059103
 20
10.5070593221
 11
21.9574059103
 21
12.25
  0
LINE
  5
333
100
AcDbEntity
  8
RACCORDO
100
AcDbLine
 62
7
  6
CONTINUOUS
 10
21.9574059103
 20
13.5
 11
21.9574059103
 21
15.2429406779
  0
LINE
  5
334
100
AcDbEntity
  8
0
100
AcDbLine
 62
7
  6
CONTINUOUS
 10
22.05
 20
27.75
 11
22.05
 21
-27.75
  0
LINE
  5
335
100
AcDbEntity
  8
0
100
AcDbLine
 62
250
  6
CONTINUOUS
 10
22.175
 20
27.75
 11
22.175
 21
-27.75
  0
LINE
  5
336
100
AcDbEntity
  8
RACCORDO
100
AcDbLine
 62
250
  6
CONTINUOUS
 10
16.35
 20
22.4601497308
 11
-16.35
 21
22.4601497308
  0
LINE
  5
337
100
AcDbEntity
  8
RACCORDO
100
AcDbLine
 62
250
  6
CONTINUOUS
 10
17.1457599445
 20
22.4790063016
 11
17.0663414705
 21
22.4790063085
  0
LINE
  5
338
100
AcDbEntity
  8
RACCORDO
100
AcDbLine
 62
250
  6
CONTINUOUS
 10
-17.1457599441
 20
22.4790063043
 11
-17.0663414705
 21
22.4790063111
  0
LINE
  5
339
100
AcDbEntity
  8
0
100
AcDbLine
 62
250
  6
CONTINUOUS
 10
24.075
 20
27.75
 11
24.075
 21
-27.75
  0
LINE
  5
33A
100
AcDbEntity
  8
0
100
AcDbLine
 62
7
  6
CONTINUOUS
 10
24.2
 20
27.75
 11
24.2
 21
-27.75
  0
LINE
  5
33B
100
AcDbEntity
  8
RACCORDO
100
AcDbLine
 62
250
  6
CONTINUOUS
 10
15.445387661
 20
23.3261751346
 11
-15.445387661
 21
23.3261751346
  0
LINE
  5
33C
100
AcDbEntity
  8
0
100
AcDbLine
 62
7
  6
CONTINUOUS
 10
24.2
 20
27.75
 11
-24.2
 21
27.75
  0
SPLINE
  5
33D
100
AcDbEntity
  8
RACCORDO
100
AcDbSpline
 62
7
  6
CONTINUOUS
 70
0
 71
3
 72
11
 73
7
 74
0
 42
0.0000001
 43
0.0000001
 44
0.0000000001
 40
0.0
 40
0.0
 40
0.0
 40
0.0
 40
0.2500329992
 40
0.5000183613
 40
0.7499936074
 40
1.0
 40
1.0
 40
1.0
 40
1.0
 10
-18.4360000044
 20
-16.4235870645
 30
0.0
 10
-18.4359999918
 20
-16.475552752
 30
0.0
 10
-18.4234097315
 20
-16.5799416693
 30
0.0
 10
-18.3665448313
 20
-16.7267990397
 30
0.0
 10
-18.2746806527
 20
-16.8547443624
 30
0.0
 10
-18.1937683207
 20
-16.9219965701
 30
0.0
 10
-18.15
 20
-16.95
 30
0.0
  0
SPLINE
  5
33E
100
AcDbEntity
  8
RACCORDO
100
AcDbSpline
 62
7
  6
CONTINUOUS
 70
0
 71
3
 72
11
 73
7
 74
0
 42
0.0000001
 43
0.0000001
 44
0.0000000001
 40
0.0
 40
0.0
 40
0.0
 40
0.0
 40
0.250006393
 40
0.4999816399
 40
0.7499670013
 40
1.0
 40
1.0
 40
1.0
 40
1.0
 10
-18.15
 20
17.55
 30
0.0
 10
-18.1937683202
 20
17.5219965722
 30
0.0
 10
-18.2746806524
 20
17.4547443708
 30
0.0
 10
-18.3665448401
 20
17.3267990601
 30
0.0
 10
-18.4234097416
 20
17.1799416967
 30
0.0
 10
-18.4360000067
 20
17.0755527804
 30
0.0
 10
-18.4360000014
 20
17.0235870947
 30
0.0
  0
SPLINE
  5
33F
100
AcDbEntity
  8
RACCORDO
100
AcDbSpline
 62
7
  6
CONTINUOUS
 70
0
 71
3
 72
11
 73
7
 74
0
 42
0.0000001
 43
0.0000001
 44
0.0000000001
 40
0.0
 40
0.0
 40
0.0
 40
0.0
 40
0.2500329992
 40
0.5000183612
 40
0.7499936074
 40
1.0
 40
1.0
 40
1.0
 40
1.0
 10
18.4360000042
 20
17.0235870667
 30
0.0
 10
18.4359999922
 20
17.075552754
 30
0.0
 10
18.4234097307
 20
17.1799416708
 30
0.0
 10
18.3665448308
 20
17.3267990406
 30
0.0
 10
18.2746806523
 20
17.4547443627
 30
0.0
 10
18.1937683206
 20
17.5219965702
 30
0.0
 10
18.15
 20
17.55
 30
0.0
  0
SPLINE
  5
340
100
AcDbEntity
  8
RACCORDO
100
AcDbSpline
 62
7
  6
CONTINUOUS
 70
0
 71
3
 72
11
 73
7
 74
0
 42
0.0000001
 43
0.0000001
 44
0.0000000001
 40
0.0
 40
0.0
 40
0.0
 40
0.0
 40
0.2500063931
 40
0.4999816398
 40
0.7499670014
 40
1.0
 40
1.0
 40
1.0
 40
1.0
 10
18.15
 20
-16.95
 30
0.0
 10
18.1937683209
 20
-16.921996572
 30
0.0
 10
18.2746806548
 20
-16.85474437
 30
0.0
 10
18.3665448434
 20
-16.7267990574
 30
0.0
 10
18.4234097481
 20
-16.5799416924
 30
0.0
 10
18.4360000082
 20
-16.4755527738
 30
0.0
 10
18.4360000021
 20
-16.4235870874
 30
0.0
  0
SPLINE
  5
341
100
AcDbEntity
  8
RACCORDO
100
AcDbSpline
 62
250
  6
CONTINUOUS
 70
0
 71
3
 72
9
 73
5
 74
0
 42
0.0000001
 43
0.0000001
 44
0.0000000001
 40
0.0
 40
0.0
 40
0.0
 40
0.0
 40
0.5501134267
 40
1.0
 40
1.0
 40
1.0
 40
1.0
 10
16.3663509565
 20
23.3122339833
 30
0.0
 10
16.364453581
 20
23.2978266589
 30
0.0
 10
16.36009178
 20
23.2717630153
 30
0.0
 10
16.3538089438
 20
23.2460292359
 30
0.0
 10
16.3500004654
 20
23.2347718648
 30
0.0
  0
SPLINE
  5
342
100
AcDbEntity
  8
RACCORDO
100
AcDbSpline
 62
250
  6
CONTINUOUS
 70
0
 71
3
 72
9
 73
5
 74
0
 42
0.0000001
 43
0.0000001
 44
0.0000000001
 40
0.0
 40
0.0
 40
0.0
 40
0.0
 40
0.5734648165
 40
1.0
 40
1.0
 40
1.0
 40
1.0
 10
-15.4608330487
 20
23.412777675
 30
0.0
 10
-15.4593550126
 20
23.3960016197
 30
0.0
 10
-15.4555993901
 20
23.3668988584
 30
0.0
 10
-15.4496412289
 20
23.3379569487
 30
0.0
 10
-15.445387661
 20
23.3261751346
 30
0.0
  0
SPLINE
  5
343
100
AcDbEntity
  8
RACCORDO
100
AcDbSpline
 62
250
  6
CONTINUOUS
 70
0
 71
3
 72
9
 73
5
 74
0
 42
0.0000001
 43
0.0000001
 44
0.0000000001
 40
0.0
 40
0.0
 40
0.0
 40
0.0
 40
0.5501134668
 40
1.0
 40
1.0
 40
1.0
 40
1.0
 10
-16.3663509855
 20
23.3122339833
 30
0.0
 10
-16.3644533526
 20
23.2978266314
 30
0.0
 10
-16.360091136
 20
23.2717629484
 30
0.0
 10
-16.353807985
 20
23.2460291417
 30
0.0
 10
-16.3499994163
 20
23.2347717506
 30
0.0
  0
SPLINE
  5
344
100
AcDbEntity
  8
RACCORDO
100
AcDbSpline
 62
250
  6
CONTINUOUS
 70
0
 71
3
 72
9
 73
5
 74
0
 42
0.0000001
 43
0.0000001
 44
0.0000000001
 40
0.0
 40
0.0
 40
0.0
 40
0.0
 40
0.5501134267
 40
1.0
 40
1.0
 40
1.0
 40
1.0
 10
-16.3663509565
 20
-23.3122339833
 30
0.0
 10
-16.364453581
 20
-23.2978266589
 30
0.0
 10
-16.36009178
 20
-23.2717630153
 30
0.0
 10
-16.3538089438
 20
-23.2460292359
 30
0.0
 10
-16.3500004654
 20
-23.2347718648
 30
0.0
  0
SPLINE
  5
345
100
AcDbEntity
  8
RACCORDO
100
AcDbSpline
 62
250
  6
CONTINUOUS
 70
0
 71
3
 72
9
 73
5
 74
0
 42
0.0000001
 43
0.0000001
 44
0.0000000001
 40
0.0
 40
0.0
 40
0.0
 40
0.0
 40
0.5734648228
 40
1.0
 40
1.0
 40
1.0
 40
1.0
 10
15.4608330487
 20
23.412777675
 30
0.0
 10
15.4593550128
 20
23.3960016195
 30
0.0
 10
15.4555993905
 20
23.3668988582
 30
0.0
 10
15.4496412291
 20
23.3379569484
 30
0.0
 10
15.445387661
 20
23.3261751346
 30
0.0
  0
SPLINE
  5
346
100
AcDbEntity
  8
RACCORDO
100
AcDbSpline
 62
250
  6
CONTINUOUS
 70
0
 71
3
 72
9
 73
5
 74
0
 42
0.0000001
 43
0.0000001
 44
0.0000000001
 40
0.0
 40
0.0
 40
0.0
 40
0.0
 40
0.5734648228
 40
1.0
 40
1.0
 40
1.0
 40
1.0
 10
-15.4608330487
 20
-23.412777675
 30
0.0
 10
-15.4593550128
 20
-23.3960016195
 30
0.0
 10
-15.4555993905
 20
-23.3668988582
 30
0.0
 10
-15.4496412291
 20
-23.3379569484
 30
0.0
 10
-15.445387661
 20
-23.3261751346
 30
0.0
  0
SPLINE
  5
347
100
AcDbEntity
  8
RACCORDO
100
AcDbSpline
 62
250
  6
CONTINUOUS
 70
0
 71
3
 72
13
 73
9
 74
0
 42
0.0000001
 43
0.0000001
 44
0.0000000001
 40
0.0
 40
0.0
 40
0.0
 40
0.0
 40
0.1247126343
 40
0.2494700934
 40
0.3743077011
 40
0.4993570711
 40
0.7491662284
 40
1.0
 40
1.0
 40
1.0
 40
1.0
 10
-16.3499999608
 20
23.234771651
 30
0.0
 10
-16.3971057732
 20
23.2286565908
 30
0.0
 10
-16.4909227321
 20
23.212020507
 30
0.0
 10
-16.6267111466
 20
23.1664374598
 30
0.0
 10
-16.75220837
 20
23.0966277411
 30
0.0
 10
-16.8983686383
 20
22.9730693253
 30
0.0
 10
-17.0310840994
 20
22.7673559859
 30
0.0
 10
-17.0666591819
 20
22.574544399
 30
0.0
 10
-17.0663404695
 20
22.4790063169
 30
0.0
  0
SPLINE
  5
348
100
AcDbEntity
  8
RACCORDO
100
AcDbSpline
 62
250
  6
CONTINUOUS
 70
0
 71
3
 72
13
 73
9
 74
0
 42
0.0000001
 43
0.0000001
 44
0.0000000001
 40
0.0
 40
0.0
 40
0.0
 40
0.0
 40
0.2509264265
 40
0.5007454271
 40
0.6257786076
 40
0.7505875701
 40
0.8753113179
 40
1.0
 40
1.0
 40
1.0
 40
1.0
 10
17.0663404716
 20
22.4790063034
 30
0.0
 10
17.0666578474
 20
22.5745795328
 30
0.0
 10
17.0310619999
 20
22.7674318434
 30
0.0
 10
16.898296943
 20
22.9731536671
 30
0.0
 10
16.7521284988
 20
23.096680566
 30
0.0
 10
16.626651156
 20
23.1664626703
 30
0.0
 10
16.4908917537
 20
23.212026489
 30
0.0
 10
16.397096634
 20
23.2286576794
 30
0.0
 10
16.3499999607
 20
23.2347717023
 30
0.0
  0
SPLINE
  5
349
100
AcDbEntity
  8
RACCORDO
100
AcDbSpline
 62
250
  6
CONTINUOUS
 70
0
 71
3
 72
13
 73
9
 74
0
 42
0.0000001
 43
0.0000001
 44
0.0000000001
 40
0.0
 40
0.0
 40
0.0
 40
0.0
 40
0.1247126345
 40
0.2494700938
 40
0.3743077015
 40
0.4993570716
 40
0.7491662289
 40
1.0
 40
1.0
 40
1.0
 40
1.0
 10
16.3499999608
 20
-23.234771651
 30
0.0
 10
16.3971057732
 20
-23.2286565908
 30
0.0
 10
16.4909227323
 20
-23.212020507
 30
0.0
 10
16.626711147
 20
-23.1664374597
 30
0.0
 10
16.7522083704
 20
-23.0966277408
 30
0.0
 10
16.8983686387
 20
-22.973069325
 30
0.0
 10
17.0310840995
 20
-22.7673559856
 30
0.0
 10
17.0666591819
 20
-22.5745443989
 30
0.0
 10
17.0663404695
 20
-22.4790063169
 30
0.0
  0
SPLINE
  5
34A
100
AcDbEntity
  8
RACCORDO
100
AcDbSpline
 62
250
  6
CONTINUOUS
 70
0
 71
3
 72
13
 73
9
 74
0
 42
0.0000001
 43
0.0000001
 44
0.0000000001
 40
0.0
 40
0.0
 40
0.0
 40
0.0
 40
0.2509264257
 40
0.500745425
 40
0.6257786048
 40
0.7505875667
 40
0.875311314
 40
1.0
 40
1.0
 40
1.0
 40
1.0
 10
-17.0663404716
 20
-22.4790063034
 30
0.0
 10
-17.0666578474
 20
-22.5745795319
 30
0.0
 10
-17.0310620007
 20
-22.7674318407
 30
0.0
 10
-16.8982969463
 20
-22.973153662
 30
0.0
 10
-16.7521285053
 20
-23.0966805628
 30
0.0
 10
-16.6266511635
 20
-23.1664626619
 30
0.0
 10
-16.4908917657
 20
-23.2120265044
 30
0.0
 10
-16.3970966351
 20
-23.2286576406
 30
0.0
 10
-16.3499999607
 20
-23.2347716639
 30
0.0
  0
SPLINE
  5
34B
100
AcDbEntity
  8
RACCORDO
100
AcDbSpline
 62
250
  6
CONTINUOUS
 70
0
 71
3
 72
8
 73
4
 74
0
 42
0.0000001
 43
0.0000001
 44
0.0000000001
 40
0.0
 40
0.0
 40
0.0
 40
0.0
 40
1.0
 40
1.0
 40
1.0
 40
1.0
 10
-15.445387661
 20
23.3261751346
 30
0.0
 10
-15.7474453408
 20
23.3013907702
 30
0.0
 10
-16.0491943132
 20
23.2717728576
 30
0.0
 10
-16.3499999608
 20
23.234771925
 30
0.0
  0
SPLINE
  5
34C
100
AcDbEntity
  8
RACCORDO
100
AcDbSpline
 62
250
  6
CONTINUOUS
 70
0
 71
3
 72
8
 73
4
 74
0
 42
0.0000001
 43
0.0000001
 44
0.0000000001
 40
0.0
 40
0.0
 40
0.0
 40
0.0
 40
1.0
 40
1.0
 40
1.0
 40
1.0
 10
16.3499999607
 20
23.2347719248
 30
0.0
 10
16.0491943007
 20
23.2717727555
 30
0.0
 10
15.7474453401
 20
23.3013907616
 30
0.0
 10
15.445387661
 20
23.3261751346
 30
0.0
  0
SPLINE
  5
34D
100
AcDbEntity
  8
RACCORDO
100
AcDbSpline
 62
250
  6
CONTINUOUS
 70
0
 71
3
 72
8
 73
4
 74
0
 42
0.0000001
 43
0.0000001
 44
0.0000000001
 40
0.0
 40
0.0
 40
0.0
 40
0.0
 40
1.0
 40
1.0
 40
1.0
 40
1.0
 10
-16.3499999607
 20
-23.2347719248
 30
0.0
 10
-16.0491943007
 20
-23.2717727555
 30
0.0
 10
-15.7474453401
 20
-23.3013907616
 30
0.0
 10
-15.445387661
 20
-23.3261751346
 30
0.0
  0
SPLINE
  5
34E
100
AcDbEntity
  8
RACCORDO
100
AcDbSpline
 62
250
  6
CONTINUOUS
 70
0
 71
3
 72
8
 73
4
 74
0
 42
0.0000001
 43
0.0000001
 44
0.0000000001
 40
0.0
 40
0.0
 40
0.0
 40
0.0
 40
1.0
 40
1.0
 40
1.0
 40
1.0
 10
15.445387661
 20
-23.3261751346
 30
0.0
 10
15.7474453408
 20
-23.3013907702
 30
0.0
 10
16.0491943132
 20
-23.2717728576
 30
0.0
 10
16.3499999608
 20
-23.234771925
 30
0.0
  0
SPLINE
  5
34F
100
AcDbEntity
  8
RACCORDO
100
AcDbSpline
 62
250
  6
CONTINUOUS
 70
0
 71
3
 72
9
 73
5
 74
0
 42
0.0000001
 43
0.0000001
 44
0.0000000001
 40
0.0
 40
0.0
 40
0.0
 40
0.0
 40
0.4703925874
 40
1.0
 40
1.0
 40
1.0
 40
1.0
 10
17.0663414705
 20
22.4790062964
 30
0.0
 10
16.9541745762
 20
22.4722366185
 30
0.0
 10
16.715407858
 20
22.4631083742
 30
0.0
 10
16.4765166874
 20
22.4601649692
 30
0.0
 10
16.35
 20
22.4601497308
 30
0.0
  0
SPLINE
  5
350
100
AcDbEntity
  8
RACCORDO
100
AcDbSpline
 62
250
  6
CONTINUOUS
 70
0
 71
3
 72
9
 73
5
 74
0
 42
0.0000001
 43
0.0000001
 44
0.0000000001
 40
0.0
 40
0.0
 40
0.0
 40
0.0
 40
0.5296074125
 40
1.0
 40
1.0
 40
1.0
 40
1.0
 10
16.35
 20
-22.4601497308
 30
0.0
 10
16.4765166875
 20
-22.4601649698
 30
0.0
 10
16.7154078582
 20
-22.463108373
 30
0.0
 10
16.9541745766
 20
-22.4722366231
 30
0.0
 10
17.0663414705
 20
-22.4790063101
 30
0.0
  0
SPLINE
  5
351
100
AcDbEntity
  8
RACCORDO
100
AcDbSpline
 62
250
  6
CONTINUOUS
 70
0
 71
3
 72
9
 73
5
 74
0
 42
0.0000001
 43
0.0000001
 44
0.0000000001
 40
0.0
 40
0.0
 40
0.0
 40
0.0
 40
0.4703925874
 40
1.0
 40
1.0
 40
1.0
 40
1.0
 10
-17.0663414705
 20
-22.4790062964
 30
0.0
 10
-16.9541745762
 20
-22.4722366185
 30
0.0
 10
-16.715407858
 20
-22.4631083742
 30
0.0
 10
-16.4765166874
 20
-22.4601649692
 30
0.0
 10
-16.35
 20
-22.4601497308
 30
0.0
  0
SPLINE
  5
352
100
AcDbEntity
  8
RACCORDO
100
AcDbSpline
 62
250
  6
CONTINUOUS
 70
0
 71
3
 72
9
 73
5
 74
0
 42
0.0000001
 43
0.0000001
 44
0.0000000001
 40
0.0
 40
0.0
 40
0.0
 40
0.0
 40
0.5296074125
 40
1.0
 40
1.0
 40
1.0
 40
1.0
 10
-16.35
 20
22.4601497308
 30
0.0
 10
-16.4765166875
 20
22.4601649698
 30
0.0
 10
-16.7154078582
 20
22.463108373
 30
0.0
 10
-16.9541745766
 20
22.4722366231
 30
0.0
 10
-17.0663414705
 20
22.4790063101
 30
0.0
  0
SPLINE
  5
353
100
AcDbEntity
  8
RACCORDO
100
AcDbSpline
 62
250
  6
CONTINUOUS
 70
0
 71
3
 72
9
 73
5
 74
0
 42
0.0000001
 43
0.0000001
 44
0.0000000001
 40
0.0
 40
0.0
 40
0.0
 40
0.0
 40
0.4999989152
 40
1.0
 40
1.0
 40
1.0
 40
1.0
 10
15.445387661
 20
23.3261751346
 30
0.0
 10
10.3126234323
 20
23.7894419208
 30
0.0
 10
0.0000112616
 20
24.2485480541
 30
0.0
 10
-10.3126011397
 20
23.789443714
 30
0.0
 10
-15.445387661
 20
23.3261751346
 30
0.0
  0
SPLINE
  5
354
100
AcDbEntity
  8
RACCORDO
100
AcDbSpline
 62
250
  6
CONTINUOUS
 70
0
 71
3
 72
9
 73
5
 74
0
 42
0.0000001
 43
0.0000001
 44
0.0000000001
 40
0.0
 40
0.0
 40
0.0
 40
0.0
 40
0.4999989152
 40
1.0
 40
1.0
 40
1.0
 40
1.0
 10
-15.445387661
 20
-23.3261751346
 30
0.0
 10
-10.3126234323
 20
-23.7894419208
 30
0.0
 10
-0.0000112616
 20
-24.2485480541
 30
0.0
 10
10.3126011397
 20
-23.789443714
 30
0.0
 10
15.445387661
 20
-23.3261751346
 30
0.0
  0
SPLINE
  5
355
100
AcDbEntity
  8
RACCORDO
100
AcDbSpline
 62
250
  6
CONTINUOUS
 70
0
 71
3
 72
9
 73
5
 74
0
 42
0.0000001
 43
0.0000001
 44
0.0000000001
 40
0.0
 40
0.0
 40
0.0
 40
0.0
 40
0.4999989157
 40
1.0
 40
1.0
 40
1.0
 40
1.0
 10
15.4608330487
 20
23.412777675
 30
0.0
 10
10.3229048989
 20
23.8760472899
 30
0.0
 10
0.0000112673
 20
24.335147765
 30
0.0
 10
-10.3228825949
 20
23.8760490847
 30
0.0
 10
-15.4608330487
 20
23.412777675
 30
0.0
  0
SPLINE
  5
356
100
AcDbEntity
  8
RACCORDO
100
AcDbSpline
 62
250
  6
CONTINUOUS
 70
0
 71
3
 72
8
 73
4
 74
0
 42
0.0000001
 43
0.0000001
 44
0.0000000001
 40
0.0
 40
0.0
 40
0.0
 40
0.0
 40
1.0
 40
1.0
 40
1.0
 40
1.0
 10
-15.4608330487
 20
23.412777675
 30
0.0
 10
-15.7633002451
 20
23.3855051872
 30
0.0
 10
-16.0653937358
 20
23.3529148886
 30
0.0
 10
-16.3663509711
 20
23.3122339833
 30
0.0
  0
SPLINE
  5
357
100
AcDbEntity
  8
RACCORDO
100
AcDbSpline
 62
250
  6
CONTINUOUS
 70
0
 71
3
 72
11
 73
7
 74
0
 42
0.0000001
 43
0.0000001
 44
0.0000000001
 40
0.0
 40
0.0
 40
0.0
 40
0.0
 40
0.2489090853
 40
0.4981012087
 40
0.7485387999
 40
1.0
 40
1.0
 40
1.0
 40
1.0
 10
-16.3663509711
 20
23.3122339833
 30
0.0
 10
-16.46883574
 20
23.298378435
 30
0.0
 10
-16.6730732152
 20
23.2468682665
 30
0.0
 10
-16.9339857935
 20
23.0635367294
 30
0.0
 10
-17.1062719845
 20
22.7942115149
 30
0.0
 10
-17.1457586655
 20
22.5834837973
 30
0.0
 10
-17.1457599441
 20
22.4790063043
 30
0.0
  0
SPLINE
  5
358
100
AcDbEntity
  8
RACCORDO
100
AcDbSpline
 62
250
  6
CONTINUOUS
 70
0
 71
3
 72
11
 73
7
 74
0
 42
0.0000001
 43
0.0000001
 44
0.0000000001
 40
0.0
 40
0.0
 40
0.0
 40
0.0
 40
0.2515481992
 40
0.5019930321
 40
0.751143251
 40
1.0
 40
1.0
 40
1.0
 40
1.0
 10
-17.1457599445
 20
-22.4790063016
 30
0.0
 10
-17.1457570459
 20
-22.5835198968
 30
0.0
 10
-17.1062492558
 20
-22.7942886124
 30
0.0
 10
-16.933913036
 20
-23.0636087989
 30
0.0
 10
-16.673012445
 20
-23.2468874186
 30
0.0
 10
-16.4688141035
 20
-23.2983810269
 30
0.0
 10
-16.366350971
 20
-23.3122339833
 30
0.0
  0
SPLINE
  5
359
100
AcDbEntity
  8
RACCORDO
100
AcDbSpline
 62
250
  6
CONTINUOUS
 70
0
 71
3
 72
8
 73
4
 74
0
 42
0.0000001
 43
0.0000001
 44
0.0000000001
 40
0.0
 40
0.0
 40
0.0
 40
0.0
 40
1.0
 40
1.0
 40
1.0
 40
1.0
 10
-16.366350971
 20
-23.3122339833
 30
0.0
 10
-16.0653937163
 20
-23.3529147446
 30
0.0
 10
-15.7633002444
 20
-23.3855051786
 30
0.0
 10
-15.4608330487
 20
-23.412777675
 30
0.0
  0
SPLINE
  5
35A
100
AcDbEntity
  8
RACCORDO
100
AcDbSpline
 62
250
  6
CONTINUOUS
 70
0
 71
3
 72
9
 73
5
 74
0
 42
0.0000001
 43
0.0000001
 44
0.0000000001
 40
0.0
 40
0.0
 40
0.0
 40
0.0
 40
0.4999989157
 40
1.0
 40
1.0
 40
1.0
 40
1.0
 10
-15.4608330487
 20
-23.412777675
 30
0.0
 10
-10.3229048989
 20
-23.8760472899
 30
0.0
 10
-0.0000112673
 20
-24.335147765
 30
0.0
 10
10.3228825949
 20
-23.8760490847
 30
0.0
 10
15.4608330487
 20
-23.412777675
 30
0.0
  0
SPLINE
  5
35B
100
AcDbEntity
  8
RACCORDO
100
AcDbSpline
 62
250
  6
CONTINUOUS
 70
0
 71
3
 72
8
 73
4
 74
0
 42
0.0000001
 43
0.0000001
 44
0.0000000001
 40
0.0
 40
0.0
 40
0.0
 40
0.0
 40
1.0
 40
1.0
 40
1.0
 40
1.0
 10
15.4608330487
 20
-23.412777675
 30
0.0
 10
15.7633002451
 20
-23.3855051872
 30
0.0
 10
16.0653937358
 20
-23.3529148886
 30
0.0
 10
16.3663509711
 20
-23.3122339833
 30
0.0
  0
SPLINE
  5
35C
100
AcDbEntity
  8
RACCORDO
100
AcDbSpline
 62
250
  6
CONTINUOUS
 70
0
 71
3
 72
11
 73
7
 74
0
 42
0.0000001
 43
0.0000001
 44
0.0000000001
 40
0.0
 40
0.0
 40
0.0
 40
0.0
 40
0.2489090857
 40
0.4981012092
 40
0.7485388004
 40
1.0
 40
1.0
 40
1.0
 40
1.0
 10
16.3663509711
 20
-23.3122339833
 30
0.0
 10
16.4688357402
 20
-23.298378435
 30
0.0
 10
16.6730732156
 20
-23.2468682664
 30
0.0
 10
16.9339857939
 20
-23.0635367289
 30
0.0
 10
17.1062719846
 20
-22.7942115144
 30
0.0
 10
17.1457586655
 20
-22.5834837971
 30
0.0
 10
17.1457599441
 20
-22.4790063043
 30
0.0
  0
SPLINE
  5
35D
100
AcDbEntity
  8
RACCORDO
100
AcDbSpline
 62
250
  6
CONTINUOUS
 70
0
 71
3
 72
11
 73
7
 74
0
 42
0.0000001
 43
0.0000001
 44
0.0000000001
 40
0.0
 40
0.0
 40
0.0
 40
0.0
 40
0.251548199
 40
0.501993032
 40
0.751143251
 40
1.0
 40
1.0
 40
1.0
 40
1.0
 10
17.1457599445
 20
22.4790063016
 30
0.0
 10
17.1457570459
 20
22.5835198967
 30
0.0
 10
17.1062492559
 20
22.7942886122
 30
0.0
 10
16.9339130361
 20
23.0636087988
 30
0.0
 10
16.6730124451
 20
23.2468874186
 30
0.0
 10
16.4688141035
 20
23.2983810269
 30
0.0
 10
16.366350971
 20
23.3122339833
 30
0.0
  0
SPLINE
  5
35E
100
AcDbEntity
  8
RACCORDO
100
AcDbSpline
 62
250
  6
CONTINUOUS
 70
0
 71
3
 72
8
 73
4
 74
0
 42
0.0000001
 43
0.0000001
 44
0.0000000001
 40
0.0
 40
0.0
 40
0.0
 40
0.0
 40
1.0
 40
1.0
 40
1.0
 40
1.0
 10
16.366350971
 20
23.3122339833
 30
0.0
 10
16.0653937163
 20
23.3529147446
 30
0.0
 10
15.7633002444
 20
23.3855051786
 30
0.0
 10
15.4608330487
 20
23.412777675
 30
0.0
  0
SPLINE
  5
35F
100
AcDbEntity
  8
RACCORDO
100
AcDbSpline
 62
250
  6
CONTINUOUS
 70
0
 71
3
 72
9
 73
5
 74
0
 42
0.0000001
 43
0.0000001
 44
0.0000000001
 40
0.0
 40
0.0
 40
0.0
 40
0.0
 40
0.5734648165
 40
1.0
 40
1.0
 40
1.0
 40
1.0
 10
15.4608330487
 20
-23.412777675
 30
0.0
 10
15.4593550126
 20
-23.3960016197
 30
0.0
 10
15.4555993901
 20
-23.3668988584
 30
0.0
 10
15.4496412289
 20
-23.3379569487
 30
0.0
 10
15.445387661
 20
-23.3261751346
 30
0.0
  0
SPLINE
  5
360
100
AcDbEntity
  8
RACCORDO
100
AcDbSpline
 62
250
  6
CONTINUOUS
 70
0
 71
3
 72
9
 73
5
 74
0
 42
0.0000001
 43
0.0000001
 44
0.0000000001
 40
0.0
 40
0.0
 40
0.0
 40
0.0
 40
0.5501134668
 40
1.0
 40
1.0
 40
1.0
 40
1.0
 10
16.3663509855
 20
-23.3122339833
 30
0.0
 10
16.3644533526
 20
-23.2978266314
 30
0.0
 10
16.360091136
 20
-23.2717629484
 30
0.0
 10
16.353807985
 20
-23.2460291417
 30
0.0
 10
16.3499994163
 20
-23.2347717506
 30
0.0
  0
ENDSEC
  0
SECTION
  2
OBJECTS
  0
DICTIONARY
  5
C
100
AcDbDictionary
280
0
281
1
  3
ACAD_GROUP
350
D
  3
ACAD_MLINESTYLE
350
17
  3
ACAD_LAYOUT
350
1A
  3
ACAD_PLOTSETTINGS
350
19
  3
ACAD_PLOTSTYLENAME
350
E
  0
DICTIONARY
  5
D
102
{ACAD_REACTORS
330
C
102
}
100
AcDbDictionary
280
0
281
1
  0
ACDBDICTIONARYWDFLT
  5
E
102
{ACAD_REACTORS
330
C
102
}
100
AcDbDictionary
281
1
  3
Normal
350
F
100
AcDbDictionaryWithDefault
340
F
  0
DICTIONARY
  5
17
102
{ACAD_REACTORS
330
C
102
}
100
AcDbDictionary
280
0
281
1
  3
Standard
350
18
  0
DICTIONARY
  5
19
102
{ACAD_REACTORS
330
C
102
}
100
AcDbDictionary
281
1
  0
DICTIONARY
  5
1A
102
{ACAD_REACTORS
330
C
102
}
100
AcDbDictionary
281
1
  3
Model
350
361
  3
Layout1
350
362
  0
ACDBPLACEHOLDER
  5
F
102
{ACAD_REACTORS
330
E
102
}
  0
MLINESTYLE
  5
18
102
{ACAD_REACTORS
330
17
102
}
100
AcDbMlineStyle
  2
STANDARD
 70
0
  3

 62
256
 51
90.0
 52
90.0
 71
2
 49
0.5
 62
256
  6
BYLAYER
 49
-0.5
 62
256
  6
BYLAYER
  0
LAYOUT
  5
361
102
{ACAD_REACTORS
330
1A
102
}
100
AcDbPlotSettings
  1

  2
none_device
  4
ISO_A4_(297.00_x_210.00_MM)
  6

 40
0.0
 41
0.0
 42
0.0
 43
0.0
 44
297.0
 45
210.0
 46
0.0
 47
0.0
 48
0.0
 49
0.0
140
0.0
141
0.0
142
1.0
143
1.0
 70
1024
 72
1
 73
0
 74
0
  7

 75
0
147
1.0
148
0.0
149
0.0
100
AcDbLayout
  1
Model
 70
0
 71
0
 10
0.0
 20
0.0
 11
297.0
 21
210.0
 12
0.0
 22
0.0
 32
0.0
 14
0.0
 24
0.0
 34
0.0
 15
0.0
 25
0.0
 35
0.0
146
0.0
 13
0.0
 23
0.0
 33
0.0
 16
1.0
 26
0.0
 36
0.0
 17
0.0
 27
1.0
 37
0.0
 76
0
330
210
345
0
346
0
  0
LAYOUT
  5
362
102
{ACAD_REACTORS
330
1A
102
}
100
AcDbPlotSettings
  1

  2
none_device
  4
ISO_A4_(297.00_x_210.00_MM)
  6

 40
0.0
 41
0.0
 42
0.0
 43
0.0
 44
297.0
 45
210.0
 46
0.0
 47
0.0
 48
0.0
 49
0.0
140
0.0
141
0.0
142
1.0
143
1.0
 70
0
 72
1
 73
0
 74
0
  7

 75
0
147
1.0
148
0.0
149
0.0
100
AcDbLayout
  1
Layout1
 70
0
 71
1
 10
0.0
 20
0.0
 11
297.0
 21
210.0
 12
0.0
 22
0.0
 32
0.0
 14
0.0
 24
0.0
 34
0.0
 15
0.0
 25
0.0
 35
0.0
146
0.0
 13
0.0
 23
0.0
 33
0.0
 16
1.0
 26
0.0
 36
0.0
 17
0.0
 27
1.0
 37
0.0
 76
0
330
211
345
0
346
0
  0
ENDSEC
  0
EOF
