  0
SECTION
  2
HEADER
  9
$ACADVER
  1
AC1024
  9
$DWGCODEPAGE
  3
ANSI_1252
  9
$EXTMAX
 10
558.8
 20
431.8
 30
0.0
  9
$EXTMIN
 10
0.0
 20
0.0
 30
0.0
  9
$LIMMIN
 10
0.0
 20
0.0
  9
$LIMMAX
 10
558.8
 20
431.8
  9
$VIEWCTR
 10
279.4
 20
215.9
  9
$VIEWSIZE
 40
431.8
  9
$CLAYER
  8
0
  9
$LTSCALE
 40
30.734
  9
$CELTYPE
  6
BYLAYER
  9
$DIMSCALE
 40
1.0
  9
$DIMASZ
 40
3.0
  9
$DIMEXO
 40
0.5
  9
$DIMDLI
 40
21.2344
  9
$DIMEXE
 40
1.5
  9
$DIMCEN
 40
5.0292
  9
$DIMLFAC
 40
1.0
  9
$DIMBLK
  1
_FILLED
  9
$DIMALT
 70
0
  9
$DIMALTF
 40
0.0393700787
  9
$DIMTXT
 40
3.0
  9
$DIMTOL
 70
1
  9
$DIMLIM
 70
0
  9
$DIMTFAC
 40
1.0
  9
$DIMTP
 40
0.01
  9
$DIMTM
 40
0.01
  9
$DIMGAP
 40
0.625
  9
$DIMDSEP
 70
44
  9
$AUNITS
 70
0
  9
$PDMODE
 70
3
  9
$PDSIZE
 40
3.0
  9
$HANDSEED
  5
4C0
  9
$TILEMODE
 70
1
  9
$MEASUREMENT
 70
1
  9
$INSUNITS
 70
4
  0
ENDSEC
  0
SECTION
  2
CLASSES
  0
CLASS
  1
ACDBDICTIONARYWDFLT
  2
AcDbDictionaryWithDefault
  3
AutoCAD 2000
 90
0
 91
1
280
0
281
0
  0
CLASS
  1
ACDBPLACEHOLDER
  2
AcDbPlaceHolder
  3
AutoCAD 2000
 90
0
 91
1
280
0
281
0
  0
CLASS
  1
LAYOUT
  2
AcDbLayout
  3
AutoCAD 2000
 90
0
 91
0
280
0
281
0
  0
ENDSEC
  0
SECTION
  2
TABLES
  0
TABLE
  2
VPORT
  5
8
100
AcDbSymbolTable
 70
2
  0
VPORT
  5
1F4
100
AcDbSymbolTableRecord
100
AcDbViewportTableRecord
  2
*ACTIVE
 70
0
 10
0.0
 20
0.0
 11
1.0
 21
1.0
 12
279.4
 22
215.9
 13
0.0
 23
0.0
 14
1.0
 24
1.0
 15
0.0
 25
0.0
 16
0.0
 26
0.0
 36
1.0
 17
0.0
 27
0.0
 37
0.0
 40
431.8
 41
1.2941176471
 42
50.0
 43
0.0
 44
0.0
 50
0.0
 51
0.0
 71
0
 72
100
 73
1
 74
1
 75
0
 76
0
 77
0
 78
0
  0
ENDTAB
  0
TABLE
  2
LTYPE
  5
5
100
AcDbSymbolTable
 70
6
  0
LTYPE
  5
14
100
AcDbSymbolTableRecord
100
AcDbLinetypeTableRecord
  2
BYBLOCK
 70
0
  3

 72
65
 73
0
 40
0.0
  0
LTYPE
  5
15
100
AcDbSymbolTableRecord
100
AcDbLinetypeTableRecord
  2
BYLAYER
 70
0
  3

 72
65
 73
0
 40
0.0
  0
LTYPE
  5
16
100
AcDbSymbolTableRecord
100
AcDbLinetypeTableRecord
  2
CONTINUOUS
 70
64
  3
Solid line
 72
65
 73
0
 40
0.0
  0
LTYPE
  5
1F5
100
AcDbSymbolTableRecord
100
AcDbLinetypeTableRecord
  2
CENTER
 70
64
  3
____ _ ____ _ ____ _ ____ _ ____ _ ____ _ ____
 72
65
 73
4
 40
0.6
 49
0.375
 74
0
 49
-0.075
 74
0
 49
0.075
 74
0
 49
-0.075
 74
0
  0
LTYPE
  5
1F6
100
AcDbSymbolTableRecord
100
AcDbLinetypeTableRecord
  2
HIDDEN
 70
64
  3
- - - - - - - - - - - - - - - - - - - -
 72
65
 73
2
 40
0.2
 49
0.1
 74
0
 49
-0.1
 74
0
  0
LTYPE
  5
1F7
100
AcDbSymbolTableRecord
100
AcDbLinetypeTableRecord
  2
PHANTOM
 70
64
  3
_____ _ _ _____ _ _ _____ _ _ _____
 72
65
 73
6
 40
0.8
 49
0.45
 74
0
 49
-0.05
 74
0
 49
0.1
 74
0
 49
-0.05
 74
0
 49
0.1
 74
0
 49
-0.05
 74
0
  0
LTYPE
  5
1F8
100
AcDbSymbolTableRecord
100
AcDbLinetypeTableRecord
  2
DOT
 70
64
  3
. . . . . . . . . . . . . . . . . . . .
 72
65
 73
2
 40
0.2
 49
0.1
 74
0
 49
-0.1
 74
0
  0
LTYPE
  5
1F9
100
AcDbSymbolTableRecord
100
AcDbLinetypeTableRecord
  2
DASHED
 70
64
  3
- - - - - - - - - - - - - - - - - - - -
 72
65
 73
2
 40
0.2
 49
0.1
 74
0
 49
-0.1
 74
0
  0
ENDTAB
  0
TABLE
  2
LAYER
  5
2
100
AcDbSymbolTable
 70
36
  0
LAYER
  5
10
100
AcDbSymbolTableRecord
100
AcDbLayerTableRecord
  2
0
 70
0
 62
7
  6
CONTINUOUS
370
-3
390
F
  0
LAYER
  5
1FA
100
AcDbSymbolTableRecord
100
AcDbLayerTableRecord
  2
DEFAULT_1
 70
0
 62
7
  6
CENTER
370
-3
390
F
  0
LAYER
  5
1FB
100
AcDbSymbolTableRecord
100
AcDbLayerTableRecord
  2
DEFAULT_2
 70
0
 62
7
  6
HIDDEN
370
-3
390
F
  0
LAYER
  5
1FC
100
AcDbSymbolTableRecord
100
AcDbLayerTableRecord
  2
DEFAULT_3
 70
0
 62
7
  6
PHANTOM
370
-3
390
F
  0
LAYER
  5
1FD
100
AcDbSymbolTableRecord
100
AcDbLayerTableRecord
  2
ARROTONDAMENTI
 70
0
 62
7
  6
CONTINUOUS
370
-3
390
F
  0
LAYER
  5
1FE
100
AcDbSymbolTableRecord
100
AcDbLayerTableRecord
  2
ASSI
 70
0
 62
7
  6
CONTINUOUS
370
-3
390
F
  0
LAYER
  5
1FF
100
AcDbSymbolTableRecord
100
AcDbLayerTableRecord
  2
CLOSED_SHELL
 70
0
 62
7
  6
CONTINUOUS
370
-3
390
F
  0
LAYER
  5
200
100
AcDbSymbolTableRecord
100
AcDbLayerTableRecord
  2
COORDINATE
 70
0
 62
7
  6
CONTINUOUS
370
-3
390
F
  0
LAYER
  5
201
100
AcDbSymbolTableRecord
100
AcDbLayerTableRecord
  2
COPY_PUBLISH
 70
0
 62
7
  6
CONTINUOUS
370
-3
390
F
  0
LAYER
  5
202
100
AcDbSymbolTableRecord
100
AcDbLayerTableRecord
  2
COSMETICHE_FILETTO
 70
0
 62
7
  6
CONTINUOUS
370
-3
390
F
  0
LAYER
  5
203
100
AcDbSymbolTableRecord
100
AcDbLayerTableRecord
  2
COSMETICI
 70
0
 62
7
  6
CONTINUOUS
370
-3
390
F
  0
LAYER
  5
204
100
AcDbSymbolTableRecord
100
AcDbLayerTableRecord
  2
CURVE
 70
0
 62
7
  6
CONTINUOUS
370
-3
390
F
  0
LAYER
  5
205
100
AcDbSymbolTableRecord
100
AcDbLayerTableRecord
  2
DRAFT
 70
0
 62
7
  6
CONTINUOUS
370
-3
390
F
  0
LAYER
  5
206
100
AcDbSymbolTableRecord
100
AcDbLayerTableRecord
  2
ELEMENTI_DI_ANNOTAZIONE
 70
0
 62
7
  6
CONTINUOUS
370
-3
390
F
  0
LAYER
  5
207
100
AcDbSymbolTableRecord
100
AcDbLayerTableRecord
  2
FEATURE_CON_ASSI
 70
0
 62
7
  6
CONTINUOUS
370
-3
390
F
  0
LAYER
  5
208
100
AcDbSymbolTableRecord
100
AcDbLayerTableRecord
  2
FEATURE_DI_GUSCIO
 70
0
 62
7
  6
CONTINUOUS
370
-3
390
F
  0
LAYER
  5
209
100
AcDbSymbolTableRecord
100
AcDbLayerTableRecord
  2
FEATURE_DI_TAGLIO
 70
0
 62
7
  6
CONTINUOUS
370
-3
390
F
  0
LAYER
  5
20A
100
AcDbSymbolTableRecord
100
AcDbLayerTableRecord
  2
FORI
 70
0
 62
7
  6
CONTINUOUS
370
-3
390
F
  0
LAYER
  5
20B
100
AcDbSymbolTableRecord
100
AcDbLayerTableRecord
  2
FORI_FILETTATI
 70
0
 62
7
  6
CONTINUOUS
370
-3
390
F
  0
LAYER
  5
20C
100
AcDbSymbolTableRecord
100
AcDbLayerTableRecord
  2
GEOMETRIA_SOLIDA
 70
0
 62
7
  6
CONTINUOUS
370
-3
390
F
  0
LAYER
  5
20D
100
AcDbSymbolTableRecord
100
AcDbLayerTableRecord
  2
IMPORT_IGES
 70
0
 62
7
  6
CONTINUOUS
370
-3
390
F
  0
LAYER
  5
20E
100
AcDbSymbolTableRecord
100
AcDbLayerTableRecord
  2
INTFCLR_2816
 70
0
 62
7
  6
CONTINUOUS
370
-3
390
F
  0
LAYER
  5
20F
100
AcDbSymbolTableRecord
100
AcDbLayerTableRecord
  2
INTF_1
 70
0
 62
7
  6
CONTINUOUS
370
-3
390
F
  0
LAYER
  5
210
100
AcDbSymbolTableRecord
100
AcDbLayerTableRecord
  2
INTF_14
 70
0
 62
7
  6
CONTINUOUS
370
-3
390
F
  0
LAYER
  5
211
100
AcDbSymbolTableRecord
100
AcDbLayerTableRecord
  2
INTF_7
 70
0
 62
7
  6
CONTINUOUS
370
-3
390
F
  0
LAYER
  5
212
100
AcDbSymbolTableRecord
100
AcDbLayerTableRecord
  2
INTF_RED
 70
0
 62
7
  6
CONTINUOUS
370
-3
390
F
  0
LAYER
  5
213
100
AcDbSymbolTableRecord
100
AcDbLayerTableRecord
  2
NOTE
 70
0
 62
7
  6
CONTINUOUS
370
-3
390
F
  0
LAYER
  5
214
100
AcDbSymbolTableRecord
100
AcDbLayerTableRecord
  2
PIANI
 70
0
 62
7
  6
CONTINUOUS
370
-3
390
F
  0
LAYER
  5
215
100
AcDbSymbolTableRecord
100
AcDbLayerTableRecord
  2
PIANI_DI_DEFAULT
 70
0
 62
7
  6
CONTINUOUS
370
-3
390
F
  0
LAYER
  5
216
100
AcDbSymbolTableRecord
100
AcDbLayerTableRecord
  2
PIANI_DI_RIFERIMENTO_CREATI
 70
0
 62
7
  6
CONTINUOUS
370
-3
390
F
  0
LAYER
  5
217
100
AcDbSymbolTableRecord
100
AcDbLayerTableRecord
  2
PROTUSIONI
 70
0
 62
7
  6
CONTINUOUS
370
-3
390
F
  0
LAYER
  5
218
100
AcDbSymbolTableRecord
100
AcDbLayerTableRecord
  2
PUNTI
 70
0
 62
7
  6
CONTINUOUS
370
-3
390
F
  0
LAYER
  5
219
100
AcDbSymbolTableRecord
100
AcDbLayerTableRecord
  2
QUOTE_AE
 70
0
 62
7
  6
CONTINUOUS
370
-3
390
F
  0
LAYER
  5
21A
100
AcDbSymbolTableRecord
100
AcDbLayerTableRecord
  2
QUOTE_DEL_MODELLO
 70
0
 62
7
  6
CONTINUOUS
370
-3
390
F
  0
LAYER
  5
21B
100
AcDbSymbolTableRecord
100
AcDbLayerTableRecord
  2
RACCORDO
 70
0
 62
7
  6
CONTINUOUS
370
-3
390
F
  0
LAYER
  5
21C
100
AcDbSymbolTableRecord
100
AcDbLayerTableRecord
  2
SALDATURE
 70
0
 62
7
  6
CONTINUOUS
370
-3
390
F
  0
LAYER
  5
21D
100
AcDbSymbolTableRecord
100
AcDbLayerTableRecord
  2
SIMBOLI
 70
0
 62
7
  6
CONTINUOUS
370
-3
390
F
  0
LAYER
  5
21E
100
AcDbSymbolTableRecord
100
AcDbLayerTableRecord
  2
SMUSSI
 70
0
 62
7
  6
CONTINUOUS
370
-3
390
F
  0
LAYER
  5
21F
100
AcDbSymbolTableRecord
100
AcDbLayerTableRecord
  2
SMUSSO
 70
0
 62
7
  6
CONTINUOUS
370
-3
390
F
  0
LAYER
  5
220
100
AcDbSymbolTableRecord
100
AcDbLayerTableRecord
  2
SNAPLINE
 70
0
 62
7
  6
CONTINUOUS
370
-3
390
F
  0
LAYER
  5
221
100
AcDbSymbolTableRecord
100
AcDbLayerTableRecord
  2
SUPERFICI
 70
0
 62
7
  6
CONTINUOUS
370
-3
390
F
  0
LAYER
  5
222
100
AcDbSymbolTableRecord
100
AcDbLayerTableRecord
  2
TERNA_DI_RIFERIMENTO_DI_DEFAULT
 70
0
 62
7
  6
CONTINUOUS
370
-3
390
F
  0
LAYER
  5
223
100
AcDbSymbolTableRecord
100
AcDbLayerTableRecord
  2
TERNE_DI_RIFERIMENTO_CREATE
 70
0
 62
7
  6
CONTINUOUS
370
-3
390
F
  0
LAYER
  5
224
100
AcDbSymbolTableRecord
100
AcDbLayerTableRecord
  2
TRASH
 70
0
 62
7
  6
CONTINUOUS
370
-3
390
F
  0
ENDTAB
  0
TABLE
  2
STYLE
  5
3
100
AcDbSymbolTable
 70
1
  0
STYLE
  5
11
100
AcDbSymbolTableRecord
100
AcDbTextStyleTableRecord
  2
STANDARD
 70
0
 40
0.0
 41
0.8
 50
0.0
 71
0
 42
0.2
  3
txt
  4

  0
STYLE
  5
225
100
AcDbSymbolTableRecord
100
AcDbTextStyleTableRecord
  2
TEXTSTYLE_1
 70
0
 40
0.0
 41
0.8
 50
0.0
 71
0
 42
0.2
  3
gdt
  4

  0
ENDTAB
  0
TABLE
  2
VIEW
  5
6
100
AcDbSymbolTable
 70
0
  0
ENDTAB
  0
TABLE
  2
UCS
  5
7
100
AcDbSymbolTable
 70
0
  0
ENDTAB
  0
TABLE
  2
APPID
  5
9
100
AcDbSymbolTable
 70
1
  0
APPID
  5
226
100
AcDbSymbolTableRecord
100
AcDbRegAppTableRecord
  2
ACAD
 70
0
  0
ENDTAB
  0
TABLE
  2
BLOCK_RECORD
  5
1
100
AcDbSymbolTable
 70
0
  0
BLOCK_RECORD
  5
227
100
AcDbSymbolTableRecord
100
AcDbBlockTableRecord
  2
*Model_Space
  0
BLOCK_RECORD
  5
228
100
AcDbSymbolTableRecord
100
AcDbBlockTableRecord
  2
*Paper_Space
  0
BLOCK_RECORD
  5
229
100
AcDbSymbolTableRecord
100
AcDbBlockTableRecord
  2
_FILLED
  0
ENDTAB
  0
TABLE
  2
DIMSTYLE
  5
A
100
AcDbSymbolTable
 70
1
100
AcDbDimStyleTable
 71
0
  0
DIMSTYLE
105
22A
100
AcDbSymbolTableRecord
100
AcDbDimStyleTableRecord
  2
STANDARD
 70
0
  3

  4

 40
1.0
 41
3.0
 42
0.5
 43
0.38
 44
1.5
 45
0.0
 46
0.0
 47
0.01
 48
0.01
140
3.0
141
0.09
142
0.0
143
25.4
144
1.0
145
0.0
146
1.0
147
0.625
 71
1.0
 72
0.0
 73
0
 74
0
 75
0
 76
0
 77
1
 78
8
 79
2
170
0
171
1
172
0
173
0
174
0
175
0
176
0
177
0
178
0
270
2
179
2
271
2
272
2
273
2
274
2
275
0
280
0
281
0
282
0
283
1
284
8
285
0
286
0
287
3
288
0
340
11
278
44
341
229
342
229
343
229
344
229
  0
ENDTAB
  0
ENDSEC
  0
SECTION
  2
BLOCKS
  0
BLOCK
  5
20
100
AcDbEntity
  8
0
100
AcDbBlockBegin
  2
*Model_Space
 70
0
 10
0.0
 20
0.0
 30
0.0
  3
*Model_Space
  1

  0
ENDBLK
  5
21
100
AcDbEntity
  8
0
100
AcDbBlockEnd
  0
BLOCK
  5
1C
100
AcDbEntity
  8
0
100
AcDbBlockBegin
  2
*Paper_Space
 70
0
 10
0.0
 20
0.0
 30
0.0
  3
*Paper_Space
  1

  0
ENDBLK
  5
1D
100
AcDbEntity
  8
0
100
AcDbBlockEnd
  0
BLOCK
  5
22B
100
AcDbEntity
  8
0
100
AcDbBlockBegin
  2
_FILLED
 70
64
 10
0.0
 20
0.0
  3
_FILLED
  1

  0
SOLID
  5
22C
100
AcDbEntity
  8
0
  6
BYBLOCK
 62
0
100
AcDbTrace
 10
0.0
 20
0.0
 11
-1.0
 21
0.3166666667
 12
-1.0
 22
-0.3166666667
 13
-1.0
 23
-0.3166666667
  0
ENDBLK
  5
22D
100
AcDbEntity
  8
0
  6
BYBLOCK
 62
0
100
AcDbBlockEnd
  0
ENDSEC
  0
SECTION
  2
ENTITIES
  0
LINE
  5
22E
100
AcDbEntity
  8
DRAFT
100
AcDbLine
 62
7
  6
CONTINUOUS
 10
-27.72
 20
-105.6972536445
 11
-29.11
 21
-105.6972536445
  0
LINE
  5
22F
100
AcDbEntity
  8
DRAFT
100
AcDbLine
 62
7
  6
CONTINUOUS
 10
-36.89
 20
-105.6972536445
 11
-38.28
 21
-105.6972536445
  0
LINE
  5
230
100
AcDbEntity
  8
0
100
AcDbLine
 62
7
  6
CONTINUOUS
 10
50.6
 20
-101.6966443323
 11
-27.72
 21
-101.6966443323
  0
LINE
  5
231
100
AcDbEntity
  8
0
100
AcDbLine
 62
7
  6
CONTINUOUS
 10
-29.11
 20
-101.6966443323
 11
-36.89
 21
-101.6966443323
  0
LINE
  5
232
100
AcDbEntity
  8
0
100
AcDbLine
 62
7
  6
CONTINUOUS
 10
-38.28
 20
-101.6966443323
 11
-50.6
 21
-101.6966443323
  0
LINE
  5
233
100
AcDbEntity
  8
DRAFT
100
AcDbLine
 62
7
  6
CONTINUOUS
 10
-49.25
 20
-101.1966443323
 11
-47.8530487132
 21
-101.1966443323
  0
LINE
  5
234
100
AcDbEntity
  8
DRAFT
100
AcDbLine
 62
7
  6
CONTINUOUS
 10
47.8530487132
 20
-101.1966443323
 11
49.25
 21
-101.1966443323
  0
LINE
  5
235
100
AcDbEntity
  8
DRAFT
100
AcDbLine
 62
7
  6
CONTINUOUS
 10
49.1452376915
 20
-101.0918820238
 11
47.905413908
 21
-101.0918820238
  0
LINE
  5
236
100
AcDbEntity
  8
DRAFT
100
AcDbLine
 62
7
  6
CONTINUOUS
 10
-47.905413908
 20
-101.0918820238
 11
-49.1452376915
 21
-101.0918820238
  0
LINE
  5
237
100
AcDbEntity
  8
IMPORT_IGES
100
AcDbLine
 62
250
  6
CONTINUOUS
 10
-45.0014670235
 20
-98.4209186842
 11
-45.3780708506
 21
-98.2326741424
  0
LINE
  5
238
100
AcDbEntity
  8
IMPORT_IGES
100
AcDbLine
 62
250
  6
CONTINUOUS
 10
-47.7398893871
 20
-100.5068767798
 11
-47.6434916531
 21
-100.6032745138
  0
LINE
  5
239
100
AcDbEntity
  8
IMPORT_IGES
100
AcDbLine
 62
250
  6
CONTINUOUS
 10
-47.7432595896
 20
-100.4069376999
 11
-47.943137755
 21
-100.4069376999
  0
LINE
  5
23A
100
AcDbEntity
  8
IMPORT_IGES
100
AcDbLine
 62
250
  6
CONTINUOUS
 10
-12.0147862868
 20
-98.5767415038
 11
-7.7852137132
 21
-98.5767415038
  0
LINE
  5
23B
100
AcDbEntity
  8
IMPORT_IGES
100
AcDbLine
 62
250
  6
CONTINUOUS
 10
28.8352137132
 20
-98.5767415038
 11
33.0647862868
 21
-98.5767415038
  0
LINE
  5
23C
100
AcDbEntity
  8
0
100
AcDbLine
 62
7
  6
CONTINUOUS
 10
44.8750818427
 20
-98.4961568826
 11
47.8530487132
 21
-98.4961568826
  0
LINE
  5
23D
100
AcDbEntity
  8
0
100
AcDbLine
 62
7
  6
CONTINUOUS
 10
-44.8750818427
 20
-98.4961568826
 11
-47.8530487132
 21
-98.4961568826
  0
LINE
  5
23E
100
AcDbEntity
  8
IMPORT_IGES
100
AcDbLine
 62
250
  6
CONTINUOUS
 10
47.0920246296
 20
-98.4209186842
 11
45.0014670234
 21
-98.4209186842
  0
LINE
  5
23F
100
AcDbEntity
  8
IMPORT_IGES
100
AcDbLine
 62
250
  6
CONTINUOUS
 10
-45.0014670235
 20
-98.4209186842
 11
-47.0920246296
 21
-98.4209186842
  0
LINE
  5
240
100
AcDbEntity
  8
DRAFT
100
AcDbLine
 62
7
  6
CONTINUOUS
 10
-6.05
 20
-98.3066443323
 11
-13.55
 21
-98.3066443323
  0
LINE
  5
241
100
AcDbEntity
  8
DRAFT
100
AcDbLine
 62
7
  6
CONTINUOUS
 10
27.45
 20
-98.3066443323
 11
34.95
 21
-98.3066443323
  0
LINE
  5
242
100
AcDbEntity
  8
IMPORT_IGES
100
AcDbLine
 62
250
  6
CONTINUOUS
 10
32.7655170718
 20
-98.2774722887
 11
29.3897723804
 21
-98.2774722887
  0
LINE
  5
243
100
AcDbEntity
  8
IMPORT_IGES
100
AcDbLine
 62
250
  6
CONTINUOUS
 10
-8.0844829282
 20
-98.2774722887
 11
-11.6102276196
 21
-98.2774722887
  0
LINE
  5
244
100
AcDbEntity
  8
IMPORT_IGES
100
AcDbLine
 62
250
  6
CONTINUOUS
 10
-46.7154208025
 20
-98.2326741424
 11
-45.3780708506
 21
-98.2326741424
  0
LINE
  5
245
100
AcDbEntity
  8
IMPORT_IGES
100
AcDbLine
 62
250
  6
CONTINUOUS
 10
45.3780708505
 20
-98.2326741424
 11
46.7154208025
 21
-98.2326741424
  0
LINE
  5
246
100
AcDbEntity
  8
DRAFT
100
AcDbLine
 62
7
  6
CONTINUOUS
 10
-13.475893842
 20
-98.2325381743
 11
-11.6843337776
 21
-98.2325381743
  0
LINE
  5
247
100
AcDbEntity
  8
DRAFT
100
AcDbLine
 62
7
  6
CONTINUOUS
 10
-7.9156662224
 20
-98.2325381743
 11
-6.124106158
 21
-98.2325381743
  0
LINE
  5
248
100
AcDbEntity
  8
DRAFT
100
AcDbLine
 62
7
  6
CONTINUOUS
 10
27.524106158
 20
-98.2325381743
 11
29.3156662224
 21
-98.2325381743
  0
LINE
  5
249
100
AcDbEntity
  8
DRAFT
100
AcDbLine
 62
7
  6
CONTINUOUS
 10
33.0843337776
 20
-98.2325381743
 11
34.875893842
 21
-98.2325381743
  0
LINE
  5
24A
100
AcDbEntity
  8
IMPORT_IGES
100
AcDbLine
 62
7
  6
CONTINUOUS
 10
-11.65
 20
-98.1466443323
 11
-8.15
 21
-98.1466443323
  0
LINE
  5
24B
100
AcDbEntity
  8
IMPORT_IGES
100
AcDbLine
 62
250
  6
CONTINUOUS
 10
47.215116216
 20
-97.7327502948
 11
44.8783754371
 21
-97.7327502948
  0
LINE
  5
24C
100
AcDbEntity
  8
IMPORT_IGES
100
AcDbLine
 62
250
  6
CONTINUOUS
 10
-45.3780708506
 20
-97.7327502948
 11
-47.215116216
 21
-97.7327502948
  0
LINE
  5
24D
100
AcDbEntity
  8
IMPORT_IGES
100
AcDbLine
 62
250
  6
CONTINUOUS
 10
29.0355067682
 20
-97.5142752386
 11
27.2894135774
 21
-97.5142757518
  0
LINE
  5
24E
100
AcDbEntity
  8
IMPORT_IGES
100
AcDbLine
 62
250
  6
CONTINUOUS
 10
32.8644932318
 20
-97.5142757518
 11
34.6105864226
 21
-97.5142757518
  0
LINE
  5
24F
100
AcDbEntity
  8
IMPORT_IGES
100
AcDbLine
 62
7
  6
CONTINUOUS
 10
-11.65
 20
-97.1966443323
 11
-8.15
 21
-97.1966443323
  0
LINE
  5
250
100
AcDbEntity
  8
IMPORT_IGES
100
AcDbLine
 62
7
  6
CONTINUOUS
 10
29.2
 20
-97.1966443323
 11
32.7
 21
-97.1966443323
  0
LINE
  5
251
100
AcDbEntity
  8
IMPORT_IGES
100
AcDbLine
 62
250
  6
CONTINUOUS
 10
-43.7777522329
 20
95.5475982872
 11
-43.6766728394
 21
95.7246356389
  0
LINE
  5
252
100
AcDbEntity
  8
DRAFT
100
AcDbLine
 62
250
  6
CONTINUOUS
 10
34.95
 20
-91.0816443323
 11
34.875893842
 21
-91.0816443323
  0
LINE
  5
253
100
AcDbEntity
  8
DRAFT
100
AcDbLine
 62
250
  6
CONTINUOUS
 10
-13.55
 20
-91.0816443323
 11
-13.475893842
 21
-91.0816443323
  0
LINE
  5
254
100
AcDbEntity
  8
DRAFT
100
AcDbLine
 62
250
  6
CONTINUOUS
 10
-11.6843337776
 20
-91.0816443323
 11
-11.55
 21
-91.0816443323
  0
LINE
  5
255
100
AcDbEntity
  8
DRAFT
100
AcDbLine
 62
250
  6
CONTINUOUS
 10
-8.05
 20
-91.0816443323
 11
-7.9156662224
 21
-91.0816443323
  0
LINE
  5
256
100
AcDbEntity
  8
DRAFT
100
AcDbLine
 62
250
  6
CONTINUOUS
 10
-6.05
 20
-91.0816443323
 11
-6.124106158
 21
-91.0816443323
  0
LINE
  5
257
100
AcDbEntity
  8
DRAFT
100
AcDbLine
 62
250
  6
CONTINUOUS
 10
27.45
 20
-91.0816443323
 11
27.524106158
 21
-91.0816443323
  0
LINE
  5
258
100
AcDbEntity
  8
DRAFT
100
AcDbLine
 62
250
  6
CONTINUOUS
 10
29.3156662224
 20
-91.0816443323
 11
29.45
 21
-91.0816443323
  0
LINE
  5
259
100
AcDbEntity
  8
DRAFT
100
AcDbLine
 62
250
  6
CONTINUOUS
 10
32.95
 20
-91.0816443323
 11
33.0843337776
 21
-91.0816443323
  0
LINE
  5
25A
100
AcDbEntity
  8
IMPORT_IGES
100
AcDbLine
 62
250
  6
CONTINUOUS
 10
-13.65
 20
-90.8466443323
 11
-13.5605864226
 21
-90.8466443323
  0
LINE
  5
25B
100
AcDbEntity
  8
IMPORT_IGES
100
AcDbLine
 62
250
  6
CONTINUOUS
 10
-8.15
 20
-90.8466443323
 11
-7.9855067682
 21
-90.8466443323
  0
LINE
  5
25C
100
AcDbEntity
  8
IMPORT_IGES
100
AcDbLine
 62
250
  6
CONTINUOUS
 10
27.2
 20
-90.8466443323
 11
27.5892308255
 21
-90.8466443323
  0
LINE
  5
25D
100
AcDbEntity
  8
IMPORT_IGES
100
AcDbLine
 62
250
  6
CONTINUOUS
 10
28.7356895201
 20
-90.8466443323
 11
29.0355067682
 21
-90.8466443323
  0
LINE
  5
25E
100
AcDbEntity
  8
IMPORT_IGES
100
AcDbLine
 62
250
  6
CONTINUOUS
 10
32.7
 20
-90.8466443323
 11
33.1643104799
 21
-90.8466443323
  0
LINE
  5
25F
100
AcDbEntity
  8
IMPORT_IGES
100
AcDbLine
 62
250
  6
CONTINUOUS
 10
34.3107691745
 20
-90.8466443323
 11
34.7
 21
-90.8466443323
  0
LINE
  5
260
100
AcDbEntity
  8
DRAFT
100
AcDbLine
 62
7
  6
CONTINUOUS
 10
-47.8530487132
 20
-101.1966443323
 11
-47.905413908
 21
-101.0918820238
  0
LINE
  5
261
100
AcDbEntity
  8
IMPORT_IGES
100
AcDbLine
 62
250
  6
CONTINUOUS
 10
-41.6901471589
 20
95.8013997825
 11
-41.4226174488
 21
96.2699695843
  0
LINE
  5
262
100
AcDbEntity
  8
IMPORT_IGES
100
AcDbLine
 62
250
  6
CONTINUOUS
 10
-5.9026346431
 20
93.1836961644
 11
-5.9927239391
 21
93.12857176
  0
LINE
  5
263
100
AcDbEntity
  8
IMPORT_IGES
100
AcDbLine
 62
250
  6
CONTINUOUS
 10
-6.3495241931
 20
93.6230697642
 11
-6.2567404104
 21
93.676638506
  0
LINE
  5
264
100
AcDbEntity
  8
IMPORT_IGES
100
AcDbLine
 62
250
  6
CONTINUOUS
 10
-6.0068927037
 20
93.2438895838
 11
-6.0996764863
 21
93.1903208419
  0
LINE
  5
265
100
AcDbEntity
  8
IMPORT_IGES
100
AcDbLine
 62
250
  6
CONTINUOUS
 10
5.9026346431
 20
93.1836961644
 11
6.0068927037
 21
93.2438895838
  0
LINE
  5
266
100
AcDbEntity
  8
IMPORT_IGES
100
AcDbLine
 62
7
  6
CONTINUOUS
 10
6.0996764875
 20
93.1903208427
 11
5.9927239401
 21
93.1285717607
  0
LINE
  5
267
100
AcDbEntity
  8
DRAFT
100
AcDbLine
 62
7
  6
CONTINUOUS
 10
-2.2
 20
-95.242685685
 11
-0.0
 21
-96.5128562772
  0
LINE
  5
268
100
AcDbEntity
  8
DRAFT
100
AcDbLine
 62
7
  6
CONTINUOUS
 10
-1.9153957286
 20
-95.0783693323
 11
-0.0
 21
-96.1842235719
  0
LINE
  5
269
100
AcDbEntity
  8
DRAFT
100
AcDbLine
 62
7
  6
CONTINUOUS
 10
2.2
 20
-95.242685685
 11
1.9153957286
 21
-95.0783693323
  0
LINE
  5
26A
100
AcDbEntity
  8
DRAFT
100
AcDbLine
 62
7
  6
CONTINUOUS
 10
-2.2
 20
-92.7023445006
 11
-1.9153957286
 21
-92.8666608533
  0
LINE
  5
26B
100
AcDbEntity
  8
DRAFT
100
AcDbLine
 62
7
  6
CONTINUOUS
 10
1.9153957286
 20
-92.8666608533
 11
-0.0
 21
-91.7608066137
  0
LINE
  5
26C
100
AcDbEntity
  8
DRAFT
100
AcDbLine
 62
7
  6
CONTINUOUS
 10
2.2
 20
-92.7023445006
 11
-0.0
 21
-91.4321739084
  0
LINE
  5
26D
100
AcDbEntity
  8
DRAFT
100
AcDbLine
 62
7
  6
CONTINUOUS
 10
-11.6102276196
 20
-98.3066443323
 11
-11.6843337776
 21
-98.2325381743
  0
LINE
  5
26E
100
AcDbEntity
  8
IMPORT_IGES
100
AcDbLine
 62
250
  6
CONTINUOUS
 10
-11.8077528319
 20
-97.7141539067
 11
-11.7149690387
 21
-97.8069376999
  0
LINE
  5
26F
100
AcDbEntity
  8
IMPORT_IGES
100
AcDbLine
 62
250
  6
CONTINUOUS
 10
-6.6493414412
 20
97.2538314746
 11
-6.5565576585
 21
97.3466152573
  0
LINE
  5
270
100
AcDbEntity
  8
DRAFT
100
AcDbLine
 62
7
  6
CONTINUOUS
 10
-6.4214422353
 20
93.7819134324
 11
-6.5
 21
93.7033556677
  0
LINE
  5
271
100
AcDbEntity
  8
IMPORT_IGES
100
AcDbLine
 62
250
  6
CONTINUOUS
 10
20.5328427125
 20
-72.0466443323
 11
19.7
 21
-72.0466443323
  0
LINE
  5
272
100
AcDbEntity
  8
IMPORT_IGES
100
AcDbLine
 62
250
  6
CONTINUOUS
 10
-19.7
 20
-72.0466443323
 11
-20.5328427125
 21
-72.0466443323
  0
LINE
  5
273
100
AcDbEntity
  8
RACCORDO
100
AcDbLine
 62
250
  6
CONTINUOUS
 10
-20.85
 20
-71.6466443323
 11
-20.4
 21
-71.6466443323
  0
LINE
  5
274
100
AcDbEntity
  8
RACCORDO
100
AcDbLine
 62
250
  6
CONTINUOUS
 10
20.85
 20
-71.6466443323
 11
20.4
 21
-71.6466443323
  0
LINE
  5
275
100
AcDbEntity
  8
RACCORDO
100
AcDbLine
 62
250
  6
CONTINUOUS
 10
27.15
 20
-71.6466443323
 11
28.05
 21
-71.6466443323
  0
LINE
  5
276
100
AcDbEntity
  8
RACCORDO
100
AcDbLine
 62
250
  6
CONTINUOUS
 10
-27.15
 20
-71.6466443323
 11
-28.05
 21
-71.6466443323
  0
LINE
  5
277
100
AcDbEntity
  8
DRAFT
100
AcDbLine
 62
7
  6
CONTINUOUS
 10
-6.05
 20
-98.3066443323
 11
-6.124106158
 21
-98.2325381743
  0
LINE
  5
278
100
AcDbEntity
  8
DRAFT
100
AcDbLine
 62
7
  6
CONTINUOUS
 10
-4.925
 20
99.3033556677
 11
-5.0035577647
 21
99.1985933592
  0
LINE
  5
279
100
AcDbEntity
  8
IMPORT_IGES
100
AcDbLine
 62
250
  6
CONTINUOUS
 10
47.0920246296
 20
-98.4209186842
 11
46.7154208025
 21
-98.2326741424
  0
LINE
  5
27A
100
AcDbEntity
  8
IMPORT_IGES
100
AcDbLine
 62
250
  6
CONTINUOUS
 10
47.215116216
 20
-97.7327502948
 11
47.5929385747
 21
-97.9216039168
  0
LINE
  5
27B
100
AcDbEntity
  8
IMPORT_IGES
100
AcDbLine
 62
250
  6
CONTINUOUS
 10
44.8434680154
 20
88.7005779485
 11
44.5005530783
 21
88.5291727195
  0
LINE
  5
27C
100
AcDbEntity
  8
DRAFT
100
AcDbLine
 62
7
  6
CONTINUOUS
 10
-12.45
 20
-61.3166443323
 11
-10.85
 21
-61.3166443323
  0
LINE
  5
27D
100
AcDbEntity
  8
DRAFT
100
AcDbLine
 62
7
  6
CONTINUOUS
 10
10.85
 20
-61.3166443323
 11
12.45
 21
-61.3166443323
  0
LINE
  5
27E
100
AcDbEntity
  8
DRAFT
100
AcDbLine
 62
7
  6
CONTINUOUS
 10
-12.3714422353
 20
-61.2380865676
 11
-10.9285577647
 21
-61.2380865676
  0
LINE
  5
27F
100
AcDbEntity
  8
DRAFT
100
AcDbLine
 62
7
  6
CONTINUOUS
 10
10.9285577647
 20
-61.2380865676
 11
12.3714422353
 21
-61.2380865676
  0
LINE
  5
280
100
AcDbEntity
  8
DRAFT
100
AcDbLine
 62
7
  6
CONTINUOUS
 10
4.0
 20
-58.1166443323
 11
-4.0
 21
-58.1166443323
  0
LINE
  5
281
100
AcDbEntity
  8
DRAFT
100
AcDbLine
 62
7
  6
CONTINUOUS
 10
4.0
 20
-58.0380865676
 11
-4.0
 21
-58.0380865676
  0
LINE
  5
282
100
AcDbEntity
  8
DRAFT
100
AcDbLine
 62
7
  6
CONTINUOUS
 10
-4.0
 20
-56.1090521116
 11
4.0
 21
-56.1090521116
  0
LINE
  5
283
100
AcDbEntity
  8
IMPORT_IGES
100
AcDbLine
 62
7
  6
CONTINUOUS
 10
3.9
 20
-55.9966443323
 11
-3.9
 21
-55.9966443323
  0
LINE
  5
284
100
AcDbEntity
  8
IMPORT_IGES
100
AcDbLine
 62
250
  6
CONTINUOUS
 10
-47.215116216
 20
3.1430721424
 11
-47.2306652888
 21
3.4548515825
  0
LINE
  5
285
100
AcDbEntity
  8
RACCORDO
100
AcDbLine
 62
7
  6
CONTINUOUS
 10
-50.6
 20
98.9534487179
 11
-50.6
 21
-101.6966443323
  0
LINE
  5
286
100
AcDbEntity
  8
DRAFT
100
AcDbLine
 62
7
  6
CONTINUOUS
 10
-49.25
 20
-101.1966443323
 11
-49.25
 21
99.3033556677
  0
LINE
  5
287
100
AcDbEntity
  8
DRAFT
100
AcDbLine
 62
7
  6
CONTINUOUS
 10
-49.1452376915
 20
99.1985933592
 11
-49.1452376915
 21
-101.0918820238
  0
LINE
  5
288
100
AcDbEntity
  8
IMPORT_IGES
100
AcDbLine
 62
250
  6
CONTINUOUS
 10
-47.943137755
 20
97.0467943923
 11
-47.943137755
 21
-100.4069376999
  0
LINE
  5
289
100
AcDbEntity
  8
DRAFT
100
AcDbLine
 62
7
  6
CONTINUOUS
 10
-47.905413908
 20
97.8319134324
 11
-47.905413908
 21
-101.0918820238
  0
LINE
  5
28A
100
AcDbEntity
  8
IMPORT_IGES
100
AcDbLine
 62
250
  6
CONTINUOUS
 10
-47.7432595896
 20
-100.4069377065
 11
-47.7432595896
 21
97.0467980092
  0
LINE
  5
28B
100
AcDbEntity
  8
IMPORT_IGES
100
AcDbLine
 62
250
  6
CONTINUOUS
 10
-47.4434423415
 20
97.3466152573
 11
-47.4434423415
 21
97.5464934227
  0
LINE
  5
28C
100
AcDbEntity
  8
IMPORT_IGES
100
AcDbLine
 62
250
  6
CONTINUOUS
 10
-47.215116216
 20
3.1430721424
 11
-47.215116216
 21
-97.7327502948
  0
LINE
  5
28D
100
AcDbEntity
  8
IMPORT_IGES
100
AcDbLine
 62
250
  6
CONTINUOUS
 10
-47.1278583581
 20
96.2699695843
 11
-47.1278583581
 21
96.7690369835
  0
LINE
  5
28E
100
AcDbEntity
  8
IMPORT_IGES
100
AcDbLine
 62
250
  6
CONTINUOUS
 10
-47.0920246927
 20
-99.920690227
 11
-47.0920246927
 21
-98.4209186843
  0
LINE
  5
28F
100
AcDbEntity
  8
IMPORT_IGES
100
AcDbLine
 62
250
  6
CONTINUOUS
 10
-46.7154208025
 20
-98.2326741424
 11
-46.7154208025
 21
3.5526481646
  0
LINE
  5
290
100
AcDbEntity
  8
IMPORT_IGES
100
AcDbLine
 62
250
  6
CONTINUOUS
 10
-46.7154208025
 20
94.3121526923
 11
-46.7154208025
 21
95.5475982872
  0
LINE
  5
291
100
AcDbEntity
  8
IMPORT_IGES
100
AcDbLine
 62
250
  6
CONTINUOUS
 10
-6.0068927037
 20
93.2438895838
 11
-5.906953621
 21
93.4169891527
  0
LINE
  5
292
100
AcDbEntity
  8
DRAFT
100
AcDbLine
 62
7
  6
CONTINUOUS
 10
4.0
 20
-52.1766443323
 11
-4.0
 21
-52.1766443323
  0
LINE
  5
293
100
AcDbEntity
  8
DRAFT
100
AcDbLine
 62
7
  6
CONTINUOUS
 10
4.0
 20
-52.124236553
 11
-4.0
 21
-52.124236553
  0
LINE
  5
294
100
AcDbEntity
  8
IMPORT_IGES
100
AcDbLine
 62
7
  6
CONTINUOUS
 10
-3.9
 20
-51.9966443323
 11
3.9
 21
-51.9966443323
  0
LINE
  5
295
100
AcDbEntity
  8
DRAFT
100
AcDbLine
 62
7
  6
CONTINUOUS
 10
-4.0
 20
-50.195202097
 11
4.0
 21
-50.195202097
  0
LINE
  5
296
100
AcDbEntity
  8
IMPORT_IGES
100
AcDbLine
 62
250
  6
CONTINUOUS
 10
3.9
 20
-49.9914992027
 11
-3.9
 21
-49.9914992027
  0
LINE
  5
297
100
AcDbEntity
  8
IMPORT_IGES
100
AcDbLine
 62
7
  6
CONTINUOUS
 10
3.9
 20
-49.9468973973
 11
-3.9
 21
-49.9468973973
  0
LINE
  5
298
100
AcDbEntity
  8
0
100
AcDbLine
 62
7
  6
CONTINUOUS
 10
10.1448770389
 20
-49.2224991439
 11
-10.1448770389
 21
-49.2224991439
  0
LINE
  5
299
100
AcDbEntity
  8
IMPORT_IGES
100
AcDbLine
 62
7
  6
CONTINUOUS
 10
9.9183537311
 20
-48.9823981755
 11
-9.9183537311
 21
-48.9823981755
  0
LINE
  5
29A
100
AcDbEntity
  8
IMPORT_IGES
100
AcDbLine
 62
250
  6
CONTINUOUS
 10
-9.8123629405
 20
-48.6283210698
 11
9.8123629404
 21
-48.6283210698
  0
LINE
  5
29B
100
AcDbEntity
  8
IMPORT_IGES
100
AcDbLine
 62
250
  6
CONTINUOUS
 10
9.7112722205
 20
-48.3852840778
 11
-9.7112722205
 21
-48.3852840778
  0
LINE
  5
29C
100
AcDbEntity
  8
DRAFT
100
AcDbLine
 62
7
  6
CONTINUOUS
 10
-10.85
 20
-61.3166443323
 11
-10.9285577647
 21
-61.2380865676
  0
LINE
  5
29D
100
AcDbEntity
  8
DRAFT
100
AcDbLine
 62
7
  6
CONTINUOUS
 10
29.3897723804
 20
-98.3066443323
 11
29.3156662224
 21
-98.2325381743
  0
LINE
  5
29E
100
AcDbEntity
  8
IMPORT_IGES
100
AcDbLine
 62
7
  6
CONTINUOUS
 10
-8.0850309613
 20
-98.2767410576
 11
-8.15
 21
-98.1466443323
  0
LINE
  5
29F
100
AcDbEntity
  8
IMPORT_IGES
100
AcDbLine
 62
250
  6
CONTINUOUS
 10
-45.3780708506
 20
3.5526481646
 11
-45.3780708506
 21
-98.2326741424
  0
LINE
  5
2A0
100
AcDbEntity
  8
IMPORT_IGES
100
AcDbLine
 62
250
  6
CONTINUOUS
 10
-45.0014670235
 20
-98.4209186843
 11
-45.0014670235
 21
-99.920690227
  0
LINE
  5
2A1
100
AcDbEntity
  8
IMPORT_IGES
100
AcDbLine
 62
250
  6
CONTINUOUS
 10
-44.8783754371
 20
-97.7327502948
 11
-44.8783754371
 21
3.1430721424
  0
LINE
  5
2A2
100
AcDbEntity
  8
DRAFT
100
AcDbLine
 62
7
  6
CONTINUOUS
 10
-44.8750818427
 20
90.1784597076
 11
-44.8750818427
 21
-98.4961568826
  0
LINE
  5
2A3
100
AcDbEntity
  8
IMPORT_IGES
100
AcDbLine
 62
250
  6
CONTINUOUS
 10
-43.7777522329
 20
95.5475982872
 11
-43.7777522329
 21
95.048530888
  0
LINE
  5
2A4
100
AcDbEntity
  8
IMPORT_IGES
100
AcDbLine
 62
250
  6
CONTINUOUS
 10
-41.6901471589
 20
95.8013997825
 11
-41.6901471589
 21
95.3023323833
  0
LINE
  5
2A5
100
AcDbEntity
  8
DRAFT
100
AcDbLine
 62
7
  6
CONTINUOUS
 10
-41.6790472465
 20
90.7044582409
 11
-41.6790472465
 21
96.5283461492
  0
LINE
  5
2A6
100
AcDbEntity
  8
IMPORT_IGES
100
AcDbLine
 62
250
  6
CONTINUOUS
 10
-41.4226173648
 20
96.7690369835
 11
-41.4226173648
 21
96.2699695843
  0
LINE
  5
2A7
100
AcDbEntity
  8
DRAFT
100
AcDbLine
 62
7
  6
CONTINUOUS
 10
-41.1530487132
 20
90.1784597076
 11
-41.1530487132
 21
96.6784597076
  0
LINE
  5
2A8
100
AcDbEntity
  8
IMPORT_IGES
100
AcDbLine
 62
250
  6
CONTINUOUS
 10
-40.4171556126
 20
90.2079252699
 11
-40.4171556126
 21
97.2538314746
  0
LINE
  5
2A9
100
AcDbEntity
  8
DRAFT
100
AcDbLine
 62
7
  6
CONTINUOUS
 10
-38.28
 20
-101.6966443323
 11
-38.28
 21
-105.6972536445
  0
LINE
  5
2AA
100
AcDbEntity
  8
IMPORT_IGES
100
AcDbLine
 62
250
  6
CONTINUOUS
 10
-45.3780708506
 20
3.5526481646
 11
-45.3625217796
 21
3.8644275687
  0
LINE
  5
2AB
100
AcDbEntity
  8
0
100
AcDbLine
 62
7
  6
CONTINUOUS
 10
10.0070156058
 20
-44.6625427172
 11
-10.0070156058
 21
-44.6625427172
  0
LINE
  5
2AC
100
AcDbEntity
  8
DRAFT
100
AcDbLine
 62
7
  6
CONTINUOUS
 10
34.95
 20
-98.3066443323
 11
34.875893842
 21
-98.2325381743
  0
LINE
  5
2AD
100
AcDbEntity
  8
IMPORT_IGES
100
AcDbLine
 62
250
  6
CONTINUOUS
 10
34.6173268352
 20
-97.7141539193
 11
34.7
 21
-97.7968270842
  0
LINE
  5
2AE
100
AcDbEntity
  8
DRAFT
100
AcDbLine
 62
7
  6
CONTINUOUS
 10
-36.89
 20
-101.6966443323
 11
-36.89
 21
-105.6972536445
  0
LINE
  5
2AF
100
AcDbEntity
  8
IMPORT_IGES
100
AcDbLine
 62
7
  6
CONTINUOUS
 10
-36.75
 20
-105.3964677021
 11
-36.75
 21
-101.6966443323
  0
LINE
  5
2B0
100
AcDbEntity
  8
DRAFT
100
AcDbLine
 62
7
  6
CONTINUOUS
 10
49.25
 20
99.3033556677
 11
49.1452376915
 21
99.1985933592
  0
LINE
  5
2B1
100
AcDbEntity
  8
IMPORT_IGES
100
AcDbLine
 62
250
  6
CONTINUOUS
 10
47.7432595896
 20
97.0467980092
 11
47.6434916531
 21
96.9470300726
  0
LINE
  5
2B2
100
AcDbEntity
  8
DRAFT
100
AcDbLine
 62
7
  6
CONTINUOUS
 10
41.1530487132
 20
90.1784597076
 11
41.6790472465
 21
90.7044582409
  0
LINE
  5
2B3
100
AcDbEntity
  8
IMPORT_IGES
100
AcDbLine
 62
7
  6
CONTINUOUS
 10
9.4499279373
 20
-34.6966443323
 11
-9.449965716
 21
-34.6966443323
  0
LINE
  5
2B4
100
AcDbEntity
  8
IMPORT_IGES
100
AcDbLine
 62
250
  6
CONTINUOUS
 10
-9.6162654
 20
-34.6412223624
 11
9.6162654
 21
-34.6412223624
  0
LINE
  5
2B5
100
AcDbEntity
  8
IMPORT_IGES
100
AcDbLine
 62
250
  6
CONTINUOUS
 10
9.670671909
 20
-34.5957598523
 11
-9.670671909
 21
-34.5957598523
  0
LINE
  5
2B6
100
AcDbEntity
  8
DRAFT
100
AcDbLine
 62
7
  6
CONTINUOUS
 10
-10.1448770389
 20
-34.5517672934
 11
10.1448770389
 21
-34.5517672934
  0
LINE
  5
2B7
100
AcDbEntity
  8
IMPORT_IGES
100
AcDbLine
 62
7
  6
CONTINUOUS
 10
9.9006915766
 20
-34.3657401847
 11
-9.9006915766
 21
-34.3657401847
  0
LINE
  5
2B8
100
AcDbEntity
  8
DRAFT
100
AcDbLine
 62
250
  6
CONTINUOUS
 10
10.85
 20
-34.2166443323
 11
10.9285577647
 21
-34.2166443323
  0
LINE
  5
2B9
100
AcDbEntity
  8
DRAFT
100
AcDbLine
 62
250
  6
CONTINUOUS
 10
-10.85
 20
-34.2166443323
 11
-10.9285577647
 21
-34.2166443323
  0
LINE
  5
2BA
100
AcDbEntity
  8
DRAFT
100
AcDbLine
 62
250
  6
CONTINUOUS
 10
12.3714422353
 20
-34.2166443323
 11
12.45
 21
-34.2166443323
  0
LINE
  5
2BB
100
AcDbEntity
  8
DRAFT
100
AcDbLine
 62
250
  6
CONTINUOUS
 10
-12.3714422353
 20
-34.2166443323
 11
-12.45
 21
-34.2166443323
  0
LINE
  5
2BC
100
AcDbEntity
  8
IMPORT_IGES
100
AcDbLine
 62
250
  6
CONTINUOUS
 10
-10.7948548704
 20
-34.1466443323
 11
-10.750253065
 21
-34.1466443323
  0
LINE
  5
2BD
100
AcDbEntity
  8
IMPORT_IGES
100
AcDbLine
 62
250
  6
CONTINUOUS
 10
-9.75
 20
-34.996587223
 11
-9.9161625776
 21
-34.941210946
  0
LINE
  5
2BE
100
AcDbEntity
  8
IMPORT_IGES
100
AcDbLine
 62
250
  6
CONTINUOUS
 10
-9.6162654
 20
-34.6412223624
 11
-9.449965716
 21
-34.6966443323
  0
LINE
  5
2BF
100
AcDbEntity
  8
DRAFT
100
AcDbLine
 62
7
  6
CONTINUOUS
 10
49.25
 20
-101.1966443323
 11
49.1452376915
 21
-101.0918820238
  0
LINE
  5
2C0
100
AcDbEntity
  8
DRAFT
100
AcDbLine
 62
7
  6
CONTINUOUS
 10
12.45
 20
-61.3166443323
 11
12.3714422353
 21
-61.2380865676
  0
LINE
  5
2C1
100
AcDbEntity
  8
IMPORT_IGES
100
AcDbLine
 62
250
  6
CONTINUOUS
 10
-9.96611479
 20
-34.8912016232
 11
-10.1961339025
 21
-34.6611825106
  0
LINE
  5
2C2
100
AcDbEntity
  8
DRAFT
100
AcDbLine
 62
7
  6
CONTINUOUS
 10
-29.11
 20
-101.6966443323
 11
-29.11
 21
-105.6972536445
  0
LINE
  5
2C3
100
AcDbEntity
  8
RACCORDO
100
AcDbLine
 62
250
  6
CONTINUOUS
 10
-28.05
 20
78.1533556677
 11
-28.05
 21
-71.6466443323
  0
LINE
  5
2C4
100
AcDbEntity
  8
DRAFT
100
AcDbLine
 62
7
  6
CONTINUOUS
 10
-27.72
 20
-101.6966443323
 11
-27.72
 21
-105.6972536445
  0
LINE
  5
2C5
100
AcDbEntity
  8
IMPORT_IGES
100
AcDbLine
 62
7
  6
CONTINUOUS
 10
-27.65
 20
-105.3965491463
 11
-27.65
 21
-101.6966443323
  0
LINE
  5
2C6
100
AcDbEntity
  8
RACCORDO
100
AcDbLine
 62
7
  6
CONTINUOUS
 10
-27.6
 20
78.1533556677
 11
-27.6
 21
-71.6466443323
  0
LINE
  5
2C7
100
AcDbEntity
  8
RACCORDO
100
AcDbLine
 62
250
  6
CONTINUOUS
 10
-27.15
 20
78.1533556677
 11
-27.15
 21
-71.6466443323
  0
LINE
  5
2C8
100
AcDbEntity
  8
IMPORT_IGES
100
AcDbLine
 62
250
  6
CONTINUOUS
 10
-23.8
 20
-75.5466443323
 11
-23.8
 21
-75.2403328321
  0
LINE
  5
2C9
100
AcDbEntity
  8
IMPORT_IGES
100
AcDbLine
 62
250
  6
CONTINUOUS
 10
-23.2
 20
-75.1556959654
 11
-23.2
 21
-75.5466443323
  0
LINE
  5
2CA
100
AcDbEntity
  8
RACCORDO
100
AcDbLine
 62
250
  6
CONTINUOUS
 10
-20.85
 20
11.3033556677
 11
-20.625
 21
11.7533556677
  0
LINE
  5
2CB
100
AcDbEntity
  8
IMPORT_IGES
100
AcDbLine
 62
250
  6
CONTINUOUS
 10
-20.3914213562
 20
11.9690410926
 11
-19.7
 21
12.6604624489
  0
LINE
  5
2CC
100
AcDbEntity
  8
DRAFT
100
AcDbLine
 62
7
  6
CONTINUOUS
 10
5.95
 20
-29.3166443323
 11
-5.95
 21
-29.3166443323
  0
LINE
  5
2CD
100
AcDbEntity
  8
DRAFT
100
AcDbLine
 62
7
  6
CONTINUOUS
 10
5.95
 20
-29.2380865676
 11
-5.95
 21
-29.2380865676
  0
LINE
  5
2CE
100
AcDbEntity
  8
DRAFT
100
AcDbLine
 62
7
  6
CONTINUOUS
 10
5.95
 20
-27.795202097
 11
-5.95
 21
-27.795202097
  0
LINE
  5
2CF
100
AcDbEntity
  8
IMPORT_IGES
100
AcDbLine
 62
250
  6
CONTINUOUS
 10
5.8
 20
-27.6414992027
 11
-5.8
 21
-27.6414992027
  0
LINE
  5
2D0
100
AcDbEntity
  8
IMPORT_IGES
100
AcDbLine
 62
7
  6
CONTINUOUS
 10
5.8
 20
-27.5968973973
 11
-5.8
 21
-27.5968973973
  0
LINE
  5
2D1
100
AcDbEntity
  8
RACCORDO
100
AcDbLine
 62
250
  6
CONTINUOUS
 10
-20.85
 20
-71.6466443323
 11
-20.8499985775
 21
4.1033510973
  0
LINE
  5
2D2
100
AcDbEntity
  8
RACCORDO
100
AcDbLine
 62
250
  6
CONTINUOUS
 10
-20.85
 20
11.3033556677
 11
-20.85
 21
78.1533556677
  0
LINE
  5
2D3
100
AcDbEntity
  8
IMPORT_IGES
100
AcDbLine
 62
250
  6
CONTINUOUS
 10
-20.3914213562
 20
-72.0466443323
 11
-20.3914213562
 21
5.1376702427
  0
LINE
  5
2D4
100
AcDbEntity
  8
IMPORT_IGES
100
AcDbLine
 62
250
  6
CONTINUOUS
 10
-20.3914213562
 20
11.9690410926
 11
-20.3914213562
 21
78.1533556677
  0
LINE
  5
2D5
100
AcDbEntity
  8
RACCORDO
100
AcDbLine
 62
250
  6
CONTINUOUS
 10
-19.9500000154
 20
4.5533556677
 11
-19.9500000154
 21
5.0033556677
  0
LINE
  5
2D6
100
AcDbEntity
  8
IMPORT_IGES
100
AcDbLine
 62
7
  6
CONTINUOUS
 10
-19.7
 20
78.1533556677
 11
-19.7
 21
12.6604624489
  0
LINE
  5
2D7
100
AcDbEntity
  8
IMPORT_IGES
100
AcDbLine
 62
7
  6
CONTINUOUS
 10
-19.7
 20
4.4462488865
 11
-19.7
 21
-72.0466443323
  0
LINE
  5
2D8
100
AcDbEntity
  8
RACCORDO
100
AcDbLine
 62
250
  6
CONTINUOUS
 10
-20.85
 20
11.3033556677
 11
-19.9500032359
 21
11.7533556675
  0
LINE
  5
2D9
100
AcDbEntity
  8
DRAFT
100
AcDbLine
 62
7
  6
CONTINUOUS
 10
-44.8750818427
 20
90.1784597076
 11
-45.0251954011
 21
90.7044582409
  0
LINE
  5
2DA
100
AcDbEntity
  8
IMPORT_IGES
100
AcDbLine
 62
7
  6
CONTINUOUS
 10
-13.65
 20
-90.8466443323
 11
-13.65
 21
-97.7968270842
  0
LINE
  5
2DB
100
AcDbEntity
  8
DRAFT
100
AcDbLine
 62
7
  6
CONTINUOUS
 10
-13.475893842
 20
-91.0816443323
 11
-13.475893842
 21
-98.2325381743
  0
LINE
  5
2DC
100
AcDbEntity
  8
DRAFT
100
AcDbLine
 62
7
  6
CONTINUOUS
 10
-12.45
 20
-34.2166443323
 11
-12.45
 21
-61.3166443323
  0
LINE
  5
2DD
100
AcDbEntity
  8
DRAFT
100
AcDbLine
 62
7
  6
CONTINUOUS
 10
-12.3714422353
 20
-34.2166443323
 11
-12.3714422353
 21
-61.2380865676
  0
LINE
  5
2DE
100
AcDbEntity
  8
IMPORT_IGES
100
AcDbLine
 62
250
  6
CONTINUOUS
 10
-12.0147862868
 20
-98.0966443323
 11
-12.0147862868
 21
-98.5767415038
  0
LINE
  5
2DF
100
AcDbEntity
  8
IMPORT_IGES
100
AcDbLine
 62
250
  6
CONTINUOUS
 10
-11.7149690387
 20
-98.2767410576
 11
-11.7149690387
 21
-97.8069376999
  0
LINE
  5
2E0
100
AcDbEntity
  8
DRAFT
100
AcDbLine
 62
7
  6
CONTINUOUS
 10
-11.6843337776
 20
-98.2325381743
 11
-11.6843337776
 21
-91.0816443323
  0
LINE
  5
2E1
100
AcDbEntity
  8
IMPORT_IGES
100
AcDbLine
 62
7
  6
CONTINUOUS
 10
-11.65
 20
-98.1466443323
 11
-11.65
 21
-97.1966443323
  0
LINE
  5
2E2
100
AcDbEntity
  8
DRAFT
100
AcDbLine
 62
7
  6
CONTINUOUS
 10
-11.55
 20
-97.1966443323
 11
-11.55
 21
-91.0816443323
  0
LINE
  5
2E3
100
AcDbEntity
  8
DRAFT
100
AcDbLine
 62
7
  6
CONTINUOUS
 10
-10.9285577647
 20
-61.2380865676
 11
-10.9285577647
 21
-34.2166443323
  0
LINE
  5
2E4
100
AcDbEntity
  8
IMPORT_IGES
100
AcDbLine
 62
7
  6
CONTINUOUS
 10
-10.750253065
 20
-60.6464369588
 11
-10.750253065
 21
-34.1466443323
  0
LINE
  5
2E5
100
AcDbEntity
  8
IMPORT_IGES
100
AcDbLine
 62
7
  6
CONTINUOUS
 10
-10.1961339025
 20
-48.6649065225
 11
-10.1961339025
 21
-34.6611825106
  0
LINE
  5
2E6
100
AcDbEntity
  8
0
100
AcDbLine
 62
7
  6
CONTINUOUS
 10
-10.1448770389
 20
-49.2224991439
 11
-10.1448770389
 21
-34.5517672934
  0
LINE
  5
2E7
100
AcDbEntity
  8
IMPORT_IGES
100
AcDbLine
 62
250
  6
CONTINUOUS
 10
-9.9615399484
 20
-34.8956698451
 11
-9.9615399484
 21
-48.0117672042
  0
LINE
  5
2E8
100
AcDbEntity
  8
IMPORT_IGES
100
AcDbLine
 62
250
  6
CONTINUOUS
 10
-9.9169912325
 20
-47.8394336101
 11
-9.9169912325
 21
-34.9407830282
  0
LINE
  5
2E9
100
AcDbEntity
  8
IMPORT_IGES
100
AcDbLine
 62
7
  6
CONTINUOUS
 10
-9.75
 20
-44.6625427172
 11
-9.75
 21
-34.996587223
  0
LINE
  5
2EA
100
AcDbEntity
  8
IMPORT_IGES
100
AcDbLine
 62
7
  6
CONTINUOUS
 10
-8.15
 20
-90.8466443323
 11
-8.15
 21
-98.1466443323
  0
LINE
  5
2EB
100
AcDbEntity
  8
IMPORT_IGES
100
AcDbLine
 62
250
  6
CONTINUOUS
 10
-8.0850309613
 20
-97.8069376999
 11
-8.0850309613
 21
-98.2767410576
  0
LINE
  5
2EC
100
AcDbEntity
  8
DRAFT
100
AcDbLine
 62
7
  6
CONTINUOUS
 10
-7.9156662224
 20
-91.0816443323
 11
-7.9156662224
 21
-98.2325381743
  0
LINE
  5
2ED
100
AcDbEntity
  8
IMPORT_IGES
100
AcDbLine
 62
250
  6
CONTINUOUS
 10
46.7154208025
 20
95.5475982872
 11
47.1278583581
 21
96.2699695843
  0
LINE
  5
2EE
100
AcDbEntity
  8
IMPORT_IGES
100
AcDbLine
 62
250
  6
CONTINUOUS
 10
9.7112722205
 20
-48.3852840778
 11
9.6660976225
 21
-48.2945596515
  0
LINE
  5
2EF
100
AcDbEntity
  8
IMPORT_IGES
100
AcDbLine
 62
250
  6
CONTINUOUS
 10
9.9615399484
 20
-48.0117672042
 11
10.0067145469
 21
-48.1024916315
  0
LINE
  5
2F0
100
AcDbEntity
  8
IMPORT_IGES
100
AcDbLine
 62
250
  6
CONTINUOUS
 10
-6.5565576585
 20
97.5464934227
 11
-6.5565576585
 21
97.3466152573
  0
LINE
  5
2F1
100
AcDbEntity
  8
DRAFT
100
AcDbLine
 62
7
  6
CONTINUOUS
 10
-6.5
 20
97.7533556677
 11
-6.5
 21
93.7033556677
  0
LINE
  5
2F2
100
AcDbEntity
  8
DRAFT
100
AcDbLine
 62
7
  6
CONTINUOUS
 10
-6.4214422353
 20
97.8319134324
 11
-6.4214422353
 21
93.7819134324
  0
LINE
  5
2F3
100
AcDbEntity
  8
DRAFT
100
AcDbLine
 62
7
  6
CONTINUOUS
 10
-6.124106158
 20
-98.2325381743
 11
-6.124106158
 21
-91.0816443323
  0
LINE
  5
2F4
100
AcDbEntity
  8
DRAFT
100
AcDbLine
 62
7
  6
CONTINUOUS
 10
-6.05
 20
-98.3066443323
 11
-6.05
 21
-91.0816443323
  0
LINE
  5
2F5
100
AcDbEntity
  8
DRAFT
100
AcDbLine
 62
250
  6
CONTINUOUS
 10
-5.95
 20
-29.3166443323
 11
-5.95
 21
-29.2380865676
  0
LINE
  5
2F6
100
AcDbEntity
  8
DRAFT
100
AcDbLine
 62
250
  6
CONTINUOUS
 10
-5.95
 20
-27.795202097
 11
-5.95
 21
-27.7166443323
  0
LINE
  5
2F7
100
AcDbEntity
  8
IMPORT_IGES
100
AcDbLine
 62
250
  6
CONTINUOUS
 10
-5.8
 20
-27.9414535112
 11
-5.8
 21
-27.5968973973
  0
LINE
  5
2F8
100
AcDbEntity
  8
RACCORDO
100
AcDbLine
 62
7
  6
CONTINUOUS
 10
-5.0035577647
 20
97.0742799367
 11
-5.0035577647
 21
99.1985933592
  0
LINE
  5
2F9
100
AcDbEntity
  8
IMPORT_IGES
100
AcDbLine
 62
250
  6
CONTINUOUS
 10
-4.7932595896
 20
96.6615184134
 11
-4.7932595896
 21
98.4536239515
  0
LINE
  5
2FA
100
AcDbEntity
  8
DRAFT
100
AcDbLine
 62
250
  6
CONTINUOUS
 10
-4.0
 20
-58.1166443323
 11
-4.0
 21
-58.0380865676
  0
LINE
  5
2FB
100
AcDbEntity
  8
DRAFT
100
AcDbLine
 62
250
  6
CONTINUOUS
 10
-4.0
 20
-50.1166443323
 11
-4.0
 21
-50.195202097
  0
LINE
  5
2FC
100
AcDbEntity
  8
DRAFT
100
AcDbLine
 62
250
  6
CONTINUOUS
 10
-4.0
 20
-52.124236553
 11
-4.0
 21
-52.1766443323
  0
LINE
  5
2FD
100
AcDbEntity
  8
IMPORT_IGES
100
AcDbLine
 62
250
  6
CONTINUOUS
 10
-3.9
 20
-50.2914535112
 11
-3.9
 21
-49.9468973973
  0
LINE
  5
2FE
100
AcDbEntity
  8
IMPORT_IGES
100
AcDbLine
 62
250
  6
CONTINUOUS
 10
-3.75
 20
28.1876004109
 11
-3.75
 21
28.7733556677
  0
LINE
  5
2FF
100
AcDbEntity
  8
IMPORT_IGES
100
AcDbLine
 62
250
  6
CONTINUOUS
 10
-3.75
 20
35.1933556677
 11
-3.75
 21
35.4191109245
  0
LINE
  5
300
100
AcDbEntity
  8
DRAFT
100
AcDbLine
 62
250
  6
CONTINUOUS
 10
-2.23
 20
91.7619134324
 11
-2.23
 21
91.9006988167
  0
LINE
  5
301
100
AcDbEntity
  8
DRAFT
100
AcDbLine
 62
250
  6
CONTINUOUS
 10
-2.23
 20
97.244797903
 11
-2.23
 21
97.3233556677
  0
LINE
  5
302
100
AcDbEntity
  8
DRAFT
100
AcDbLine
 62
7
  6
CONTINUOUS
 10
-2.2
 20
-92.7023445006
 11
-2.2
 21
-95.242685685
  0
LINE
  5
303
100
AcDbEntity
  8
IMPORT_IGES
100
AcDbLine
 62
250
  6
CONTINUOUS
 10
-2.05
 20
89.3038314746
 11
-2.05
 21
89.5964934227
  0
LINE
  5
304
100
AcDbEntity
  8
IMPORT_IGES
100
AcDbLine
 62
250
  6
CONTINUOUS
 10
-2.05
 20
94.9033556677
 11
-2.05
 21
95.187170445
  0
LINE
  5
305
100
AcDbEntity
  8
DRAFT
100
AcDbLine
 62
7
  6
CONTINUOUS
 10
-1.9153957286
 20
-92.8666608533
 11
-1.9153957286
 21
-95.0783693323
  0
LINE
  5
306
100
AcDbEntity
  8
DRAFT
100
AcDbLine
 62
7
  6
CONTINUOUS
 10
-0.0
 20
-96.5128562772
 11
-0.0
 21
-96.1842235719
  0
LINE
  5
307
100
AcDbEntity
  8
DRAFT
100
AcDbLine
 62
7
  6
CONTINUOUS
 10
-0.0
 20
-91.4321739084
 11
-0.0
 21
-91.7608066137
  0
LINE
  5
308
100
AcDbEntity
  8
IMPORT_IGES
100
AcDbLine
 62
250
  6
CONTINUOUS
 10
47.6266406262
 20
95.7693028398
 11
47.215116216
 21
95.048530888
  0
LINE
  5
309
100
AcDbEntity
  8
IMPORT_IGES
100
AcDbLine
 62
250
  6
CONTINUOUS
 10
9.918353731
 20
-48.9823981756
 11
9.8123629404
 21
-48.6283210698
  0
LINE
  5
30A
100
AcDbEntity
  8
IMPORT_IGES
100
AcDbLine
 62
250
  6
CONTINUOUS
 10
10.1078062183
 20
-48.3698355019
 11
10.1961339025
 21
-48.6649065225
  0
LINE
  5
30B
100
AcDbEntity
  8
IMPORT_IGES
100
AcDbLine
 62
250
  6
CONTINUOUS
 10
9.6170937252
 20
-48.1222218684
 11
9.4525194743
 21
-45.8966443323
  0
LINE
  5
30C
100
AcDbEntity
  8
DRAFT
100
AcDbLine
 62
7
  6
CONTINUOUS
 10
1.9153957286
 20
-95.0783693323
 11
1.9153957286
 21
-92.8666608533
  0
LINE
  5
30D
100
AcDbEntity
  8
IMPORT_IGES
100
AcDbLine
 62
250
  6
CONTINUOUS
 10
2.05
 20
95.187170445
 11
2.05
 21
94.9033556677
  0
LINE
  5
30E
100
AcDbEntity
  8
IMPORT_IGES
100
AcDbLine
 62
250
  6
CONTINUOUS
 10
2.05
 20
89.5964934227
 11
2.05
 21
89.3038314746
  0
LINE
  5
30F
100
AcDbEntity
  8
DRAFT
100
AcDbLine
 62
7
  6
CONTINUOUS
 10
2.2
 20
-95.242685685
 11
2.2
 21
-92.7023445006
  0
LINE
  5
310
100
AcDbEntity
  8
DRAFT
100
AcDbLine
 62
250
  6
CONTINUOUS
 10
2.23
 20
91.7619134324
 11
2.23
 21
91.9006988167
  0
LINE
  5
311
100
AcDbEntity
  8
DRAFT
100
AcDbLine
 62
250
  6
CONTINUOUS
 10
2.23
 20
97.244797903
 11
2.23
 21
97.3233556677
  0
LINE
  5
312
100
AcDbEntity
  8
IMPORT_IGES
100
AcDbLine
 62
250
  6
CONTINUOUS
 10
3.75
 20
35.4191109245
 11
3.75
 21
35.1933556677
  0
LINE
  5
313
100
AcDbEntity
  8
IMPORT_IGES
100
AcDbLine
 62
250
  6
CONTINUOUS
 10
3.75
 20
28.7733556677
 11
3.75
 21
28.1876004109
  0
LINE
  5
314
100
AcDbEntity
  8
DRAFT
100
AcDbLine
 62
250
  6
CONTINUOUS
 10
4.0
 20
-58.1166443323
 11
4.0
 21
-58.0380865676
  0
LINE
  5
315
100
AcDbEntity
  8
DRAFT
100
AcDbLine
 62
250
  6
CONTINUOUS
 10
4.0
 20
-50.1166443323
 11
4.0
 21
-50.195202097
  0
LINE
  5
316
100
AcDbEntity
  8
DRAFT
100
AcDbLine
 62
250
  6
CONTINUOUS
 10
4.0
 20
-52.124236553
 11
4.0
 21
-52.1766443323
  0
LINE
  5
317
100
AcDbEntity
  8
IMPORT_IGES
100
AcDbLine
 62
250
  6
CONTINUOUS
 10
4.7932595896
 20
98.4536239515
 11
4.7932595896
 21
96.6615184134
  0
LINE
  5
318
100
AcDbEntity
  8
0
100
AcDbLine
 62
7
  6
CONTINUOUS
 10
4.925
 20
99.3033556677
 11
4.925
 21
99.1985933592
  0
LINE
  5
319
100
AcDbEntity
  8
RACCORDO
100
AcDbLine
 62
7
  6
CONTINUOUS
 10
4.925
 20
99.1985933592
 11
4.925
 21
97.1242938968
  0
LINE
  5
31A
100
AcDbEntity
  8
IMPORT_IGES
100
AcDbLine
 62
250
  6
CONTINUOUS
 10
5.8
 20
-27.5968973973
 11
5.8
 21
-27.9414535112
  0
LINE
  5
31B
100
AcDbEntity
  8
DRAFT
100
AcDbLine
 62
250
  6
CONTINUOUS
 10
5.95
 20
-29.3166443323
 11
5.95
 21
-29.2380865676
  0
LINE
  5
31C
100
AcDbEntity
  8
DRAFT
100
AcDbLine
 62
250
  6
CONTINUOUS
 10
5.95
 20
-27.795202097
 11
5.95
 21
-27.7166443323
  0
LINE
  5
31D
100
AcDbEntity
  8
DRAFT
100
AcDbLine
 62
7
  6
CONTINUOUS
 10
6.4214422353
 20
93.7819134324
 11
6.4214422353
 21
97.8319134324
  0
LINE
  5
31E
100
AcDbEntity
  8
DRAFT
100
AcDbLine
 62
7
  6
CONTINUOUS
 10
6.5
 20
93.7033556677
 11
6.5
 21
97.7533556677
  0
LINE
  5
31F
100
AcDbEntity
  8
IMPORT_IGES
100
AcDbLine
 62
250
  6
CONTINUOUS
 10
6.5565576586
 20
97.3466152573
 11
6.5565576586
 21
97.5464934227
  0
LINE
  5
320
100
AcDbEntity
  8
IMPORT_IGES
100
AcDbLine
 62
250
  6
CONTINUOUS
 10
-10.1961339025
 20
-48.6649065225
 11
-10.1078062182
 21
-48.3698355013
  0
LINE
  5
321
100
AcDbEntity
  8
IMPORT_IGES
100
AcDbLine
 62
250
  6
CONTINUOUS
 10
-9.8123629405
 20
-48.6283210698
 11
-9.9183537311
 21
-48.9823981756
  0
LINE
  5
322
100
AcDbEntity
  8
IMPORT_IGES
100
AcDbLine
 62
250
  6
CONTINUOUS
 10
-46.7154208025
 20
3.1430721424
 11
-44.8783754371
 21
3.1430721424
  0
LINE
  5
323
100
AcDbEntity
  8
IMPORT_IGES
100
AcDbLine
 62
250
  6
CONTINUOUS
 10
44.8783754371
 20
3.1430721424
 11
46.7154208025
 21
3.1430721424
  0
LINE
  5
324
100
AcDbEntity
  8
IMPORT_IGES
100
AcDbLine
 62
250
  6
CONTINUOUS
 10
46.7154208025
 20
3.5526481646
 11
45.3780708506
 21
3.5526481646
  0
LINE
  5
325
100
AcDbEntity
  8
IMPORT_IGES
100
AcDbLine
 62
250
  6
CONTINUOUS
 10
-45.3780708506
 20
3.5526481646
 11
-46.7154208025
 21
3.5526481646
  0
LINE
  5
326
100
AcDbEntity
  8
IMPORT_IGES
100
AcDbLine
 62
250
  6
CONTINUOUS
 10
45.3625217796
 20
3.8644275687
 11
46.7309698735
 21
3.8644275687
  0
LINE
  5
327
100
AcDbEntity
  8
RACCORDO
100
AcDbLine
 62
250
  6
CONTINUOUS
 10
20.85
 20
4.1033622827
 11
20.4
 21
4.1033561237
  0
LINE
  5
328
100
AcDbEntity
  8
RACCORDO
100
AcDbLine
 62
250
  6
CONTINUOUS
 10
-19.95
 20
4.1033556677
 11
19.95
 21
4.1033556677
  0
LINE
  5
329
100
AcDbEntity
  8
RACCORDO
100
AcDbLine
 62
250
  6
CONTINUOUS
 10
-20.4
 20
4.1033547132
 11
-20.85
 21
4.1033510973
  0
LINE
  5
32A
100
AcDbEntity
  8
IMPORT_IGES
100
AcDbLine
 62
250
  6
CONTINUOUS
 10
47.2500236376
 20
4.5197492042
 11
44.8434680154
 21
4.5197492042
  0
LINE
  5
32B
100
AcDbEntity
  8
IMPORT_IGES
100
AcDbLine
 62
250
  6
CONTINUOUS
 10
-46.7503282241
 20
4.5197492042
 11
-47.2500236376
 21
4.5197492042
  0
LINE
  5
32C
100
AcDbEntity
  8
RACCORDO
100
AcDbLine
 62
7
  6
CONTINUOUS
 10
-19.95
 20
4.5533556677
 11
19.95
 21
4.5533556677
  0
LINE
  5
32D
100
AcDbEntity
  8
RACCORDO
100
AcDbLine
 62
250
  6
CONTINUOUS
 10
-19.9503196064
 20
5.0033556677
 11
19.9499983861
 21
5.0033556677
  0
LINE
  5
32E
100
AcDbEntity
  8
IMPORT_IGES
100
AcDbLine
 62
250
  6
CONTINUOUS
 10
20.3914213562
 20
5.1376702427
 11
20.5328427125
 21
5.1376702427
  0
LINE
  5
32F
100
AcDbEntity
  8
IMPORT_IGES
100
AcDbLine
 62
250
  6
CONTINUOUS
 10
-47.215116216
 20
95.048530888
 11
-47.6266406266
 21
95.7693028406
  0
LINE
  5
330
100
AcDbEntity
  8
IMPORT_IGES
100
AcDbLine
 62
250
  6
CONTINUOUS
 10
-47.1278583582
 20
96.2699695843
 11
-46.7154208025
 21
95.5475982872
  0
LINE
  5
331
100
AcDbEntity
  8
IMPORT_IGES
100
AcDbLine
 62
7
  6
CONTINUOUS
 10
9.75
 20
-44.6625427172
 11
9.75
 21
-34.996554799
  0
LINE
  5
332
100
AcDbEntity
  8
IMPORT_IGES
100
AcDbLine
 62
250
  6
CONTINUOUS
 10
9.9169912325
 20
-34.9407830282
 11
9.9169912325
 21
-47.8394336101
  0
LINE
  5
333
100
AcDbEntity
  8
IMPORT_IGES
100
AcDbLine
 62
250
  6
CONTINUOUS
 10
9.9615399484
 20
-48.0117672042
 11
9.9615399484
 21
-34.8956698451
  0
LINE
  5
334
100
AcDbEntity
  8
0
100
AcDbLine
 62
7
  6
CONTINUOUS
 10
10.1448770389
 20
-34.5517672934
 11
10.1448770389
 21
-49.2224991439
  0
LINE
  5
335
100
AcDbEntity
  8
IMPORT_IGES
100
AcDbLine
 62
7
  6
CONTINUOUS
 10
10.1961339025
 20
-48.6649065225
 11
10.1961339025
 21
-34.6611825106
  0
LINE
  5
336
100
AcDbEntity
  8
IMPORT_IGES
100
AcDbLine
 62
7
  6
CONTINUOUS
 10
10.750253065
 20
-60.6464369588
 11
10.750253065
 21
-34.1466443331
  0
LINE
  5
337
100
AcDbEntity
  8
DRAFT
100
AcDbLine
 62
7
  6
CONTINUOUS
 10
10.9285577647
 20
-61.2380865676
 11
10.9285577647
 21
-34.2166443323
  0
LINE
  5
338
100
AcDbEntity
  8
DRAFT
100
AcDbLine
 62
7
  6
CONTINUOUS
 10
12.3714422353
 20
-61.2380865676
 11
12.3714422353
 21
-34.2166443323
  0
LINE
  5
339
100
AcDbEntity
  8
DRAFT
100
AcDbLine
 62
7
  6
CONTINUOUS
 10
12.45
 20
-61.3166443323
 11
12.45
 21
-34.2166443323
  0
LINE
  5
33A
100
AcDbEntity
  8
IMPORT_IGES
100
AcDbLine
 62
250
  6
CONTINUOUS
 10
-10.0067145469
 20
-48.1024916315
 11
-9.9615399484
 21
-48.0117672042
  0
LINE
  5
33B
100
AcDbEntity
  8
IMPORT_IGES
100
AcDbLine
 62
250
  6
CONTINUOUS
 10
-9.6660976225
 20
-48.2945596515
 11
-9.7112722205
 21
-48.3852840778
  0
LINE
  5
33C
100
AcDbEntity
  8
RACCORDO
100
AcDbLine
 62
250
  6
CONTINUOUS
 10
19.950320369
 20
11.3033556677
 11
-20.85
 21
11.3033556677
  0
LINE
  5
33D
100
AcDbEntity
  8
IMPORT_IGES
100
AcDbLine
 62
7
  6
CONTINUOUS
 10
19.7
 20
78.1533556677
 11
19.7
 21
12.6604624489
  0
LINE
  5
33E
100
AcDbEntity
  8
IMPORT_IGES
100
AcDbLine
 62
7
  6
CONTINUOUS
 10
19.7
 20
4.4462488865
 11
19.7
 21
-72.0466443323
  0
LINE
  5
33F
100
AcDbEntity
  8
RACCORDO
100
AcDbLine
 62
250
  6
CONTINUOUS
 10
19.9500000154
 20
11.7533556677
 11
19.9500000154
 21
11.3033556677
  0
LINE
  5
340
100
AcDbEntity
  8
RACCORDO
100
AcDbLine
 62
250
  6
CONTINUOUS
 10
19.9500000154
 20
5.0033556677
 11
19.9500000154
 21
4.5533556677
  0
LINE
  5
341
100
AcDbEntity
  8
IMPORT_IGES
100
AcDbLine
 62
250
  6
CONTINUOUS
 10
20.3914213562
 20
5.1376702427
 11
20.3914213562
 21
-72.0466443323
  0
LINE
  5
342
100
AcDbEntity
  8
RACCORDO
100
AcDbLine
 62
250
  6
CONTINUOUS
 10
20.85
 20
78.1533556677
 11
20.85
 21
12.2033557112
  0
LINE
  5
343
100
AcDbEntity
  8
RACCORDO
100
AcDbLine
 62
250
  6
CONTINUOUS
 10
20.85
 20
4.1033223466
 11
20.85
 21
-71.6466443323
  0
LINE
  5
344
100
AcDbEntity
  8
IMPORT_IGES
100
AcDbLine
 62
250
  6
CONTINUOUS
 10
23.2
 20
-75.5466443323
 11
23.2
 21
-75.1556959654
  0
LINE
  5
345
100
AcDbEntity
  8
IMPORT_IGES
100
AcDbLine
 62
250
  6
CONTINUOUS
 10
23.8
 20
-75.2403328321
 11
23.8
 21
-75.5466443323
  0
LINE
  5
346
100
AcDbEntity
  8
DRAFT
100
AcDbLine
 62
7
  6
CONTINUOUS
 10
44.8750818427
 20
90.1784597076
 11
45.0251954011
 21
90.7044582409
  0
LINE
  5
347
100
AcDbEntity
  8
IMPORT_IGES
100
AcDbLine
 62
250
  6
CONTINUOUS
 10
19.7
 20
12.6604624489
 11
20.3914213562
 21
11.9690410927
  0
LINE
  5
348
100
AcDbEntity
  8
RACCORDO
100
AcDbLine
 62
250
  6
CONTINUOUS
 10
27.15
 20
-71.6466443323
 11
27.15
 21
78.1533556677
  0
LINE
  5
349
100
AcDbEntity
  8
IMPORT_IGES
100
AcDbLine
 62
7
  6
CONTINUOUS
 10
27.2
 20
-90.8466443323
 11
27.2
 21
-97.7968270842
  0
LINE
  5
34A
100
AcDbEntity
  8
IMPORT_IGES
100
AcDbLine
 62
250
  6
CONTINUOUS
 10
27.2894135774
 20
-90.8466443323
 11
27.2894135774
 21
-97.5142760542
  0
LINE
  5
34B
100
AcDbEntity
  8
DRAFT
100
AcDbLine
 62
7
  6
CONTINUOUS
 10
27.524106158
 20
-91.0816443323
 11
27.524106158
 21
-98.2325381743
  0
LINE
  5
34C
100
AcDbEntity
  8
IMPORT_IGES
100
AcDbLine
 62
250
  6
CONTINUOUS
 10
27.5892308255
 20
-97.5142757518
 11
27.5892308255
 21
-90.8466443322
  0
LINE
  5
34D
100
AcDbEntity
  8
RACCORDO
100
AcDbLine
 62
7
  6
CONTINUOUS
 10
27.6
 20
-71.6466443323
 11
27.6
 21
78.1533556677
  0
LINE
  5
34E
100
AcDbEntity
  8
RACCORDO
100
AcDbLine
 62
250
  6
CONTINUOUS
 10
28.05
 20
-71.6466443323
 11
28.05
 21
78.1533556677
  0
LINE
  5
34F
100
AcDbEntity
  8
IMPORT_IGES
100
AcDbLine
 62
250
  6
CONTINUOUS
 10
28.7356895201
 20
-90.8466443323
 11
28.7356895201
 21
-97.5142757518
  0
LINE
  5
350
100
AcDbEntity
  8
IMPORT_IGES
100
AcDbLine
 62
250
  6
CONTINUOUS
 10
28.8352137132
 20
-98.0966443323
 11
28.8352137132
 21
-98.5767415038
  0
LINE
  5
351
100
AcDbEntity
  8
IMPORT_IGES
100
AcDbLine
 62
250
  6
CONTINUOUS
 10
29.0355067682
 20
-97.5142754747
 11
29.0355067682
 21
-90.8466443323
  0
LINE
  5
352
100
AcDbEntity
  8
DRAFT
100
AcDbLine
 62
7
  6
CONTINUOUS
 10
29.3156662224
 20
-98.2325381743
 11
29.3156662224
 21
-91.0816443323
  0
LINE
  5
353
100
AcDbEntity
  8
DRAFT
100
AcDbLine
 62
7
  6
CONTINUOUS
 10
29.45
 20
-97.1966443323
 11
29.45
 21
-91.0816443323
  0
LINE
  5
354
100
AcDbEntity
  8
IMPORT_IGES
100
AcDbLine
 62
250
  6
CONTINUOUS
 10
9.670671909
 20
-34.5957598523
 11
9.9006915766
 21
-34.3657401847
  0
LINE
  5
355
100
AcDbEntity
  8
IMPORT_IGES
100
AcDbLine
 62
250
  6
CONTINUOUS
 10
10.1961339025
 20
-34.6611825106
 11
9.96611479
 21
-34.8912016232
  0
LINE
  5
356
100
AcDbEntity
  8
IMPORT_IGES
100
AcDbLine
 62
250
  6
CONTINUOUS
 10
-3.7500000007
 20
28.1876004109
 11
3.7500000007
 21
28.1876004109
  0
LINE
  5
357
100
AcDbEntity
  8
IMPORT_IGES
100
AcDbLine
 62
250
  6
CONTINUOUS
 10
3.75
 20
28.4875547194
 11
-3.75
 21
28.4875547194
  0
LINE
  5
358
100
AcDbEntity
  8
IMPORT_IGES
100
AcDbLine
 62
250
  6
CONTINUOUS
 10
-3.75
 20
28.4982105381
 11
3.75
 21
28.4982105381
  0
LINE
  5
359
100
AcDbEntity
  8
0
100
AcDbLine
 62
7
  6
CONTINUOUS
 10
-4.005
 20
28.7733556677
 11
4.005
 21
28.7733556677
  0
LINE
  5
35A
100
AcDbEntity
  8
DRAFT
100
AcDbLine
 62
7
  6
CONTINUOUS
 10
-4.005
 20
30.0462450028
 11
3.995
 21
30.0462450028
  0
LINE
  5
35B
100
AcDbEntity
  8
IMPORT_IGES
100
AcDbLine
 62
7
  6
CONTINUOUS
 10
32.7
 20
-90.8466443323
 11
32.7
 21
-97.1966443323
  0
LINE
  5
35C
100
AcDbEntity
  8
IMPORT_IGES
100
AcDbLine
 62
250
  6
CONTINUOUS
 10
32.7649690387
 20
-97.8069376999
 11
32.7649690387
 21
-98.2767410576
  0
LINE
  5
35D
100
AcDbEntity
  8
IMPORT_IGES
100
AcDbLine
 62
250
  6
CONTINUOUS
 10
32.8644932318
 20
-90.8466443323
 11
32.8644932318
 21
-97.5142760542
  0
LINE
  5
35E
100
AcDbEntity
  8
DRAFT
100
AcDbLine
 62
7
  6
CONTINUOUS
 10
33.0843337776
 20
-91.0816443323
 11
33.0843337776
 21
-98.2325381743
  0
LINE
  5
35F
100
AcDbEntity
  8
IMPORT_IGES
100
AcDbLine
 62
250
  6
CONTINUOUS
 10
33.1643104799
 20
-97.5142757518
 11
33.1643104799
 21
-90.8466443323
  0
LINE
  5
360
100
AcDbEntity
  8
IMPORT_IGES
100
AcDbLine
 62
250
  6
CONTINUOUS
 10
34.3107691745
 20
-90.8466443321
 11
34.3107691745
 21
-97.5142757518
  0
LINE
  5
361
100
AcDbEntity
  8
IMPORT_IGES
100
AcDbLine
 62
250
  6
CONTINUOUS
 10
34.6105864226
 20
-97.514276084
 11
34.6105864226
 21
-90.8466443323
  0
LINE
  5
362
100
AcDbEntity
  8
DRAFT
100
AcDbLine
 62
7
  6
CONTINUOUS
 10
34.875893842
 20
-98.2325381743
 11
34.875893842
 21
-91.0816443323
  0
LINE
  5
363
100
AcDbEntity
  8
DRAFT
100
AcDbLine
 62
7
  6
CONTINUOUS
 10
34.95
 20
-98.3066443323
 11
34.95
 21
-91.0816443323
  0
LINE
  5
364
100
AcDbEntity
  8
IMPORT_IGES
100
AcDbLine
 62
7
  6
CONTINUOUS
 10
-11.7149690387
 20
-98.2767410576
 11
-11.65
 21
-98.1466443323
  0
LINE
  5
365
100
AcDbEntity
  8
DRAFT
100
AcDbLine
 62
7
  6
CONTINUOUS
 10
-12.45
 20
-61.3166443323
 11
-12.3714422353
 21
-61.2380865676
  0
LINE
  5
366
100
AcDbEntity
  8
DRAFT
100
AcDbLine
 62
7
  6
CONTINUOUS
 10
-49.1452376915
 20
-101.0918820238
 11
-49.25
 21
-101.1966443323
  0
LINE
  5
367
100
AcDbEntity
  8
IMPORT_IGES
100
AcDbLine
 62
250
  6
CONTINUOUS
 10
9.449965716
 20
-34.6966443323
 11
9.6162654
 21
-34.6412223624
  0
LINE
  5
368
100
AcDbEntity
  8
IMPORT_IGES
100
AcDbLine
 62
250
  6
CONTINUOUS
 10
9.9161625776
 20
-34.941210946
 11
9.75
 21
-34.996587223
  0
LINE
  5
369
100
AcDbEntity
  8
IMPORT_IGES
100
AcDbLine
 62
7
  6
CONTINUOUS
 10
-3.75
 20
33.8033556677
 11
3.75
 21
33.8033556677
  0
LINE
  5
36A
100
AcDbEntity
  8
DRAFT
100
AcDbLine
 62
7
  6
CONTINUOUS
 10
3.995
 20
33.9204663326
 11
-4.005
 21
33.9204663326
  0
LINE
  5
36B
100
AcDbEntity
  8
0
100
AcDbLine
 62
7
  6
CONTINUOUS
 10
4.005
 20
35.1933556677
 11
-4.005
 21
35.1933556677
  0
LINE
  5
36C
100
AcDbEntity
  8
IMPORT_IGES
100
AcDbLine
 62
250
  6
CONTINUOUS
 10
3.7499999346
 20
35.4191109245
 11
-3.7499999346
 21
35.4191109245
  0
LINE
  5
36D
100
AcDbEntity
  8
DRAFT
100
AcDbLine
 62
7
  6
CONTINUOUS
 10
-41.1530487132
 20
90.1784597076
 11
-41.6790472465
 21
90.7044582409
  0
LINE
  5
36E
100
AcDbEntity
  8
IMPORT_IGES
100
AcDbLine
 62
250
  6
CONTINUOUS
 10
-47.6434916531
 20
96.9470300726
 11
-47.7432595896
 21
97.0467980092
  0
LINE
  5
36F
100
AcDbEntity
  8
IMPORT_IGES
100
AcDbLine
 62
250
  6
CONTINUOUS
 10
-47.4434423415
 20
97.3466152573
 11
-47.3436744049
 21
97.2468473207
  0
LINE
  5
370
100
AcDbEntity
  8
DRAFT
100
AcDbLine
 62
7
  6
CONTINUOUS
 10
-49.25
 20
99.3033556677
 11
-49.1452376915
 21
99.1985933592
  0
LINE
  5
371
100
AcDbEntity
  8
IMPORT_IGES
100
AcDbLine
 62
250
  6
CONTINUOUS
 10
44.8783754371
 20
3.1430721424
 11
44.8628264304
 21
3.4548502576
  0
LINE
  5
372
100
AcDbEntity
  8
IMPORT_IGES
100
AcDbLine
 62
250
  6
CONTINUOUS
 10
45.3625217796
 20
3.8644275687
 11
45.3780708506
 21
3.5526481646
  0
LINE
  5
373
100
AcDbEntity
  8
IMPORT_IGES
100
AcDbLine
 62
250
  6
CONTINUOUS
 10
40.1233069315
 20
-100.0662595746
 11
40.1233069315
 21
-100.3162595746
  0
LINE
  5
374
100
AcDbEntity
  8
IMPORT_IGES
100
AcDbLine
 62
250
  6
CONTINUOUS
 10
40.4171556126
 20
97.2538314746
 11
40.4171556126
 21
90.2079229741
  0
LINE
  5
375
100
AcDbEntity
  8
DRAFT
100
AcDbLine
 62
7
  6
CONTINUOUS
 10
41.1530487132
 20
90.1784597076
 11
41.1530487132
 21
96.6784597076
  0
LINE
  5
376
100
AcDbEntity
  8
DRAFT
100
AcDbLine
 62
7
  6
CONTINUOUS
 10
41.6790472465
 20
90.7044582409
 11
41.6790472465
 21
96.5283461492
  0
LINE
  5
377
100
AcDbEntity
  8
IMPORT_IGES
100
AcDbLine
 62
250
  6
CONTINUOUS
 10
42.3774489802
 20
95.8013997825
 11
42.3774489802
 21
95.3023323833
  0
LINE
  5
378
100
AcDbEntity
  8
IMPORT_IGES
100
AcDbLine
 62
250
  6
CONTINUOUS
 10
42.4796641643
 20
88.5177693424
 11
42.4796641643
 21
-97.0369855297
  0
LINE
  5
379
100
AcDbEntity
  8
IMPORT_IGES
100
AcDbLine
 62
250
  6
CONTINUOUS
 10
44.8434680154
 20
88.7005779485
 11
44.8434680154
 21
4.5196514546
  0
LINE
  5
37A
100
AcDbEntity
  8
DRAFT
100
AcDbLine
 62
7
  6
CONTINUOUS
 10
44.8750818427
 20
90.1784597076
 11
44.8750818427
 21
-98.4961568826
  0
LINE
  5
37B
100
AcDbEntity
  8
IMPORT_IGES
100
AcDbLine
 62
250
  6
CONTINUOUS
 10
44.8783754371
 20
3.1430721424
 11
44.8783754371
 21
-97.7327502948
  0
LINE
  5
37C
100
AcDbEntity
  8
DRAFT
100
AcDbLine
 62
7
  6
CONTINUOUS
 10
45.0251954011
 20
96.1524611743
 11
45.0251954011
 21
90.7044582409
  0
LINE
  5
37D
100
AcDbEntity
  8
DRAFT
100
AcDbLine
 62
7
  6
CONTINUOUS
 10
45.0936192557
 20
93.9127037031
 11
45.0936192557
 21
-98.2776194696
  0
LINE
  5
37E
100
AcDbEntity
  8
IMPORT_IGES
100
AcDbLine
 62
250
  6
CONTINUOUS
 10
45.3431634289
 20
4.5197492042
 11
45.3431634289
 21
88.7006874358
  0
LINE
  5
37F
100
AcDbEntity
  8
IMPORT_IGES
100
AcDbLine
 62
250
  6
CONTINUOUS
 10
45.3780708506
 20
-98.2326741424
 11
45.3780708506
 21
3.5526481646
  0
LINE
  5
380
100
AcDbEntity
  8
IMPORT_IGES
100
AcDbLine
 62
250
  6
CONTINUOUS
 10
46.7154208025
 20
95.5475982872
 11
46.7154208025
 21
93.8122288447
  0
LINE
  5
381
100
AcDbEntity
  8
IMPORT_IGES
100
AcDbLine
 62
250
  6
CONTINUOUS
 10
46.7154208025
 20
3.5526481646
 11
46.7154208025
 21
-98.2326741424
  0
LINE
  5
382
100
AcDbEntity
  8
IMPORT_IGES
100
AcDbLine
 62
250
  6
CONTINUOUS
 10
46.7503282241
 20
93.3120070361
 11
46.7503282241
 21
4.5197492042
  0
LINE
  5
383
100
AcDbEntity
  8
IMPORT_IGES
100
AcDbLine
 62
250
  6
CONTINUOUS
 10
47.1278583581
 20
96.7690369835
 11
47.1278583581
 21
96.2699695843
  0
LINE
  5
384
100
AcDbEntity
  8
IMPORT_IGES
100
AcDbLine
 62
250
  6
CONTINUOUS
 10
47.215116216
 20
-97.7327502948
 11
47.215116216
 21
3.1430721424
  0
LINE
  5
385
100
AcDbEntity
  8
IMPORT_IGES
100
AcDbLine
 62
250
  6
CONTINUOUS
 10
47.215116216
 20
94.3120037118
 11
47.215116216
 21
95.048530888
  0
LINE
  5
386
100
AcDbEntity
  8
IMPORT_IGES
100
AcDbLine
 62
250
  6
CONTINUOUS
 10
47.2500236376
 20
4.5197491624
 11
47.2500236376
 21
93.3120067025
  0
LINE
  5
387
100
AcDbEntity
  8
IMPORT_IGES
100
AcDbLine
 62
250
  6
CONTINUOUS
 10
47.4434423415
 20
97.3466152573
 11
47.4434423415
 21
97.5464934227
  0
LINE
  5
388
100
AcDbEntity
  8
IMPORT_IGES
100
AcDbLine
 62
7
  6
CONTINUOUS
 10
47.6434916531
 20
-99.8432294471
 11
47.6434916531
 21
-100.6032745138
  0
LINE
  5
389
100
AcDbEntity
  8
DRAFT
100
AcDbLine
 62
7
  6
CONTINUOUS
 10
47.905413908
 20
97.8319134324
 11
47.905413908
 21
-101.0918820238
  0
LINE
  5
38A
100
AcDbEntity
  8
IMPORT_IGES
100
AcDbLine
 62
250
  6
CONTINUOUS
 10
46.7154208025
 20
3.5526481646
 11
46.7309698735
 21
3.8644275687
  0
LINE
  5
38B
100
AcDbEntity
  8
IMPORT_IGES
100
AcDbLine
 62
250
  6
CONTINUOUS
 10
47.2306652888
 20
3.4548515825
 11
47.215116216
 21
3.1430721424
  0
LINE
  5
38C
100
AcDbEntity
  8
DRAFT
100
AcDbLine
 62
7
  6
CONTINUOUS
 10
49.1452376915
 20
-101.0918820238
 11
49.1452376915
 21
99.1985933592
  0
LINE
  5
38D
100
AcDbEntity
  8
DRAFT
100
AcDbLine
 62
7
  6
CONTINUOUS
 10
49.25
 20
99.3033556677
 11
49.25
 21
-101.1966443323
  0
LINE
  5
38E
100
AcDbEntity
  8
RACCORDO
100
AcDbLine
 62
7
  6
CONTINUOUS
 10
50.6
 20
98.9534487179
 11
50.6
 21
-101.6966443323
  0
LINE
  5
38F
100
AcDbEntity
  8
IMPORT_IGES
100
AcDbLine
 62
250
  6
CONTINUOUS
 10
10.750253065
 20
-60.6464369588
 11
10.7948548704
 21
-60.6018351534
  0
LINE
  5
390
100
AcDbEntity
  8
DRAFT
100
AcDbLine
 62
7
  6
CONTINUOUS
 10
10.85
 20
-61.3166443323
 11
10.9285577647
 21
-61.2380865676
  0
LINE
  5
391
100
AcDbEntity
  8
IMPORT_IGES
100
AcDbLine
 62
250
  6
CONTINUOUS
 10
6.0068926837
 20
93.2438895722
 11
5.9069537289
 21
93.416989215
  0
LINE
  5
392
100
AcDbEntity
  8
DRAFT
100
AcDbLine
 62
7
  6
CONTINUOUS
 10
-13.55
 20
-98.3066443323
 11
-13.475893842
 21
-98.2325381743
  0
LINE
  5
393
100
AcDbEntity
  8
DRAFT
100
AcDbLine
 62
7
  6
CONTINUOUS
 10
-7.9897723804
 20
-98.3066443323
 11
-7.9156662224
 21
-98.2325381743
  0
LINE
  5
394
100
AcDbEntity
  8
IMPORT_IGES
100
AcDbLine
 62
250
  6
CONTINUOUS
 10
-47.5929385747
 20
-97.9216039168
 11
-47.215116216
 21
-97.7327502948
  0
LINE
  5
395
100
AcDbEntity
  8
IMPORT_IGES
100
AcDbLine
 62
250
  6
CONTINUOUS
 10
-46.7154208025
 20
-98.2326741424
 11
-47.0920246296
 21
-98.4209186842
  0
LINE
  5
396
100
AcDbEntity
  8
DRAFT
100
AcDbLine
 62
7
  6
CONTINUOUS
 10
6.4214422353
 20
93.7819134324
 11
6.5
 21
93.7033556677
  0
LINE
  5
397
100
AcDbEntity
  8
RACCORDO
100
AcDbLine
 62
250
  6
CONTINUOUS
 10
-20.85
 20
78.1533556677
 11
-20.4
 21
78.1533556677
  0
LINE
  5
398
100
AcDbEntity
  8
IMPORT_IGES
100
AcDbLine
 62
250
  6
CONTINUOUS
 10
-20.5328427125
 20
78.1533556677
 11
-19.7
 21
78.1533556677
  0
LINE
  5
399
100
AcDbEntity
  8
RACCORDO
100
AcDbLine
 62
250
  6
CONTINUOUS
 10
20.85
 20
78.1533556677
 11
20.4
 21
78.1533556677
  0
LINE
  5
39A
100
AcDbEntity
  8
IMPORT_IGES
100
AcDbLine
 62
250
  6
CONTINUOUS
 10
19.7
 20
78.1533556677
 11
20.5328427125
 21
78.1533556677
  0
LINE
  5
39B
100
AcDbEntity
  8
RACCORDO
100
AcDbLine
 62
250
  6
CONTINUOUS
 10
27.15
 20
78.1533556677
 11
28.05
 21
78.1533556677
  0
LINE
  5
39C
100
AcDbEntity
  8
RACCORDO
100
AcDbLine
 62
250
  6
CONTINUOUS
 10
-27.15
 20
78.1533556677
 11
-28.05
 21
78.1533556677
  0
LINE
  5
39D
100
AcDbEntity
  8
IMPORT_IGES
100
AcDbLine
 62
7
  6
CONTINUOUS
 10
-5.9927239402
 20
93.1285717608
 11
-6.0996764875
 21
93.1903208427
  0
LINE
  5
39E
100
AcDbEntity
  8
IMPORT_IGES
100
AcDbLine
 62
250
  6
CONTINUOUS
 10
-6.0068927037
 20
93.2438895838
 11
-5.9026346431
 21
93.1836961644
  0
LINE
  5
39F
100
AcDbEntity
  8
IMPORT_IGES
100
AcDbLine
 62
250
  6
CONTINUOUS
 10
6.5565576586
 20
97.3466152573
 11
6.6493414412
 21
97.2538314746
  0
LINE
  5
3A0
100
AcDbEntity
  8
DRAFT
100
AcDbLine
 62
7
  6
CONTINUOUS
 10
-0.0
 20
-91.4321739084
 11
-2.2
 21
-92.7023445006
  0
LINE
  5
3A1
100
AcDbEntity
  8
DRAFT
100
AcDbLine
 62
7
  6
CONTINUOUS
 10
-0.0
 20
-91.7608066137
 11
-1.9153957286
 21
-92.8666608533
  0
LINE
  5
3A2
100
AcDbEntity
  8
DRAFT
100
AcDbLine
 62
7
  6
CONTINUOUS
 10
-2.2
 20
-95.242685685
 11
-1.9153957286
 21
-95.0783693323
  0
LINE
  5
3A3
100
AcDbEntity
  8
DRAFT
100
AcDbLine
 62
7
  6
CONTINUOUS
 10
2.2
 20
-92.7023445006
 11
1.9153957286
 21
-92.8666608533
  0
LINE
  5
3A4
100
AcDbEntity
  8
DRAFT
100
AcDbLine
 62
7
  6
CONTINUOUS
 10
-0.0
 20
-96.1842235719
 11
1.9153957286
 21
-95.0783693323
  0
LINE
  5
3A5
100
AcDbEntity
  8
DRAFT
100
AcDbLine
 62
7
  6
CONTINUOUS
 10
-0.0
 20
-96.5128562772
 11
2.2
 21
-95.242685685
  0
LINE
  5
3A6
100
AcDbEntity
  8
IMPORT_IGES
100
AcDbLine
 62
250
  6
CONTINUOUS
 10
6.0996764863
 20
93.1903208419
 11
6.0068927037
 21
93.2438895838
  0
LINE
  5
3A7
100
AcDbEntity
  8
IMPORT_IGES
100
AcDbLine
 62
250
  6
CONTINUOUS
 10
6.2567404104
 20
93.676638506
 11
6.3495241931
 21
93.6230697641
  0
LINE
  5
3A8
100
AcDbEntity
  8
IMPORT_IGES
100
AcDbLine
 62
250
  6
CONTINUOUS
 10
5.9927239391
 20
93.12857176
 11
5.9026346431
 21
93.1836961644
  0
LINE
  5
3A9
100
AcDbEntity
  8
DRAFT
100
AcDbLine
 62
7
  6
CONTINUOUS
 10
47.905413908
 20
-101.0918820238
 11
47.8530487132
 21
-101.1966443323
  0
LINE
  5
3AA
100
AcDbEntity
  8
IMPORT_IGES
100
AcDbLine
 62
250
  6
CONTINUOUS
 10
27.2
 20
-97.7968270842
 11
27.2826731466
 21
-97.7141539376
  0
LINE
  5
3AB
100
AcDbEntity
  8
DRAFT
100
AcDbLine
 62
7
  6
CONTINUOUS
 10
27.45
 20
-98.3066443323
 11
27.524106158
 21
-98.2325381743
  0
LINE
  5
3AC
100
AcDbEntity
  8
IMPORT_IGES
100
AcDbLine
 62
250
  6
CONTINUOUS
 10
32.7649690387
 20
-97.8069376999
 11
32.857752801
 21
-97.7141539376
  0
LINE
  5
3AD
100
AcDbEntity
  8
DRAFT
100
AcDbLine
 62
7
  6
CONTINUOUS
 10
33.0102276196
 20
-98.3066443323
 11
33.0843337776
 21
-98.2325381743
  0
LINE
  5
3AE
100
AcDbEntity
  8
IMPORT_IGES
100
AcDbLine
 62
250
  6
CONTINUOUS
 10
44.8434680154
 20
88.7005778147
 11
45.3431634289
 21
88.7005778147
  0
LINE
  5
3AF
100
AcDbEntity
  8
IMPORT_IGES
100
AcDbLine
 62
7
  6
CONTINUOUS
 10
2.05
 20
89.3038314746
 11
-2.05
 21
89.3038314746
  0
LINE
  5
3B0
100
AcDbEntity
  8
IMPORT_IGES
100
AcDbLine
 62
250
  6
CONTINUOUS
 10
-2.05
 20
89.3966152573
 11
2.05
 21
89.3966152573
  0
LINE
  5
3B1
100
AcDbEntity
  8
IMPORT_IGES
100
AcDbLine
 62
250
  6
CONTINUOUS
 10
2.0500003126
 20
89.5964934227
 11
-2.0500003126
 21
89.5964934227
  0
LINE
  5
3B2
100
AcDbEntity
  8
DRAFT
100
AcDbLine
 62
7
  6
CONTINUOUS
 10
-2.23
 20
89.8619134324
 11
2.23
 21
89.8619134324
  0
LINE
  5
3B3
100
AcDbEntity
  8
DRAFT
100
AcDbLine
 62
7
  6
CONTINUOUS
 10
-44.8750818427
 20
90.1784597076
 11
-41.1530487132
 21
90.1784597076
  0
LINE
  5
3B4
100
AcDbEntity
  8
DRAFT
100
AcDbLine
 62
7
  6
CONTINUOUS
 10
44.8750818427
 20
90.1784597076
 11
41.1530487132
 21
90.1784597076
  0
LINE
  5
3B5
100
AcDbEntity
  8
DRAFT
100
AcDbLine
 62
7
  6
CONTINUOUS
 10
-45.0251954011
 20
90.7044582409
 11
-41.6790472465
 21
90.7044582409
  0
LINE
  5
3B6
100
AcDbEntity
  8
DRAFT
100
AcDbLine
 62
7
  6
CONTINUOUS
 10
45.0251954011
 20
90.7044582409
 11
41.6790472465
 21
90.7044582409
  0
LINE
  5
3B7
100
AcDbEntity
  8
DRAFT
100
AcDbLine
 62
7
  6
CONTINUOUS
 10
-2.23
 20
91.7619134324
 11
2.23
 21
91.7619134324
  0
LINE
  5
3B8
100
AcDbEntity
  8
DRAFT
100
AcDbLine
 62
7
  6
CONTINUOUS
 10
-2.23
 20
91.9006988167
 11
2.23
 21
91.9006988167
  0
LINE
  5
3B9
100
AcDbEntity
  8
IMPORT_IGES
100
AcDbLine
 62
250
  6
CONTINUOUS
 10
43.7428448113
 20
93.3120070361
 11
47.2500236376
 21
93.3120069239
  0
LINE
  5
3BA
100
AcDbEntity
  8
IMPORT_IGES
100
AcDbLine
 62
250
  6
CONTINUOUS
 10
6.2567404104
 20
93.676638506
 11
6.056862245
 21
93.676638506
  0
LINE
  5
3BB
100
AcDbEntity
  8
IMPORT_IGES
100
AcDbLine
 62
250
  6
CONTINUOUS
 10
-6.2567404104
 20
93.6766385137
 11
-6.056862245
 21
93.6766387577
  0
LINE
  5
3BC
100
AcDbEntity
  8
RACCORDO
100
AcDbLine
 62
7
  6
CONTINUOUS
 10
6.1996174483
 20
93.7033556677
 11
6.5
 21
93.7033556677
  0
LINE
  5
3BD
100
AcDbEntity
  8
RACCORDO
100
AcDbLine
 62
7
  6
CONTINUOUS
 10
-6.4214422353
 20
93.7819134324
 11
-6.1212684063
 21
93.7819134324
  0
LINE
  5
3BE
100
AcDbEntity
  8
RACCORDO
100
AcDbLine
 62
7
  6
CONTINUOUS
 10
6.1212684063
 20
93.7819134324
 11
6.4214422353
 21
93.7819134324
  0
LINE
  5
3BF
100
AcDbEntity
  8
IMPORT_IGES
100
AcDbLine
 62
250
  6
CONTINUOUS
 10
46.7160169061
 20
93.8119308837
 11
43.7771561293
 21
93.8119308837
  0
LINE
  5
3C0
100
AcDbEntity
  8
DRAFT
100
AcDbLine
 62
7
  6
CONTINUOUS
 10
45.0936192557
 20
93.9127037031
 11
47.6345113002
 21
93.9127037031
  0
LINE
  5
3C1
100
AcDbEntity
  8
IMPORT_IGES
100
AcDbLine
 62
250
  6
CONTINUOUS
 10
47.2156623301
 20
94.3120037118
 11
46.7154208025
 21
94.3121526923
  0
LINE
  5
3C2
100
AcDbEntity
  8
IMPORT_IGES
100
AcDbLine
 62
7
  6
CONTINUOUS
 10
2.05
 20
94.9033556677
 11
-2.05
 21
94.9033556677
  0
LINE
  5
3C3
100
AcDbEntity
  8
IMPORT_IGES
100
AcDbLine
 62
250
  6
CONTINUOUS
 10
-2.05
 20
94.9872009059
 11
2.05
 21
94.9872009059
  0
LINE
  5
3C4
100
AcDbEntity
  8
IMPORT_IGES
100
AcDbLine
 62
250
  6
CONTINUOUS
 10
-47.215116216
 20
95.048530888
 11
-43.2780568194
 21
95.048530888
  0
LINE
  5
3C5
100
AcDbEntity
  8
IMPORT_IGES
100
AcDbLine
 62
250
  6
CONTINUOUS
 10
43.7777522329
 20
95.048530888
 11
47.215116216
 21
95.048530888
  0
LINE
  5
3C6
100
AcDbEntity
  8
IMPORT_IGES
100
AcDbLine
 62
250
  6
CONTINUOUS
 10
2.0499999993
 20
95.187170445
 11
-2.0499999993
 21
95.187170445
  0
LINE
  5
3C7
100
AcDbEntity
  8
DRAFT
100
AcDbLine
 62
7
  6
CONTINUOUS
 10
2.23
 20
95.344797903
 11
-2.23
 21
95.344797903
  0
LINE
  5
3C8
100
AcDbEntity
  8
IMPORT_IGES
100
AcDbLine
 62
250
  6
CONTINUOUS
 10
-43.7777522329
 20
95.5475982872
 11
-46.7154208025
 21
95.5475982872
  0
LINE
  5
3C9
100
AcDbEntity
  8
IMPORT_IGES
100
AcDbLine
 62
250
  6
CONTINUOUS
 10
42.3785409628
 20
95.8013997825
 11
41.6901471589
 21
95.8013997825
  0
LINE
  5
3CA
100
AcDbEntity
  8
IMPORT_IGES
100
AcDbLine
 62
250
  6
CONTINUOUS
 10
-41.6901471589
 20
95.8013997825
 11
-42.3785329534
 21
95.8013997825
  0
LINE
  5
3CB
100
AcDbEntity
  8
IMPORT_IGES
100
AcDbLine
 62
250
  6
CONTINUOUS
 10
-47.1278583582
 20
96.2699695843
 11
-41.4226174488
 21
96.2699695843
  0
LINE
  5
3CC
100
AcDbEntity
  8
DRAFT
100
AcDbLine
 62
7
  6
CONTINUOUS
 10
47.8530487132
 20
96.6784597076
 11
41.1530487132
 21
96.6784597076
  0
LINE
  5
3CD
100
AcDbEntity
  8
DRAFT
100
AcDbLine
 62
7
  6
CONTINUOUS
 10
-41.1530487132
 20
96.6784597076
 11
-47.8530487132
 21
96.6784597076
  0
LINE
  5
3CE
100
AcDbEntity
  8
IMPORT_IGES
100
AcDbLine
 62
250
  6
CONTINUOUS
 10
-47.943137755
 20
97.0467980092
 11
-47.7432595896
 21
97.0467980092
  0
LINE
  5
3CF
100
AcDbEntity
  8
IMPORT_IGES
100
AcDbLine
 62
250
  6
CONTINUOUS
 10
47.7432595896
 20
97.0467980092
 11
47.943137755
 21
97.0467980092
  0
LINE
  5
3D0
100
AcDbEntity
  8
DRAFT
100
AcDbLine
 62
7
  6
CONTINUOUS
 10
2.23
 20
97.244797903
 11
-2.23
 21
97.244797903
  0
LINE
  5
3D1
100
AcDbEntity
  8
IMPORT_IGES
100
AcDbLine
 62
7
  6
CONTINUOUS
 10
-40.4171556126
 20
97.2538314746
 11
-6.6493414412
 21
97.2538314746
  0
LINE
  5
3D2
100
AcDbEntity
  8
IMPORT_IGES
100
AcDbLine
 62
7
  6
CONTINUOUS
 10
40.4171556126
 20
97.2538314746
 11
6.6493414412
 21
97.2538314746
  0
LINE
  5
3D3
100
AcDbEntity
  8
DRAFT
100
AcDbLine
 62
7
  6
CONTINUOUS
 10
2.23
 20
97.3233556677
 11
-2.23
 21
97.3233556677
  0
LINE
  5
3D4
100
AcDbEntity
  8
IMPORT_IGES
100
AcDbLine
 62
250
  6
CONTINUOUS
 10
-47.4434423415
 20
97.3466152573
 11
-6.5565576585
 21
97.3466152573
  0
LINE
  5
3D5
100
AcDbEntity
  8
IMPORT_IGES
100
AcDbLine
 62
250
  6
CONTINUOUS
 10
6.5565576586
 20
97.3466152573
 11
47.4434423415
 21
97.3466152573
  0
LINE
  5
3D6
100
AcDbEntity
  8
IMPORT_IGES
100
AcDbLine
 62
250
  6
CONTINUOUS
 10
47.4434255059
 20
97.5464934227
 11
6.5565612317
 21
97.5464934227
  0
LINE
  5
3D7
100
AcDbEntity
  8
IMPORT_IGES
100
AcDbLine
 62
250
  6
CONTINUOUS
 10
-6.5565601446
 20
97.5464934227
 11
-47.4434249783
 21
97.5464934227
  0
LINE
  5
3D8
100
AcDbEntity
  8
DRAFT
100
AcDbLine
 62
7
  6
CONTINUOUS
 10
-47.905413908
 20
97.8319134324
 11
-6.4214422353
 21
97.8319134324
  0
LINE
  5
3D9
100
AcDbEntity
  8
DRAFT
100
AcDbLine
 62
7
  6
CONTINUOUS
 10
6.4214422353
 20
97.8319134324
 11
47.905413908
 21
97.8319134324
  0
LINE
  5
3DA
100
AcDbEntity
  8
IMPORT_IGES
100
AcDbLine
 62
250
  6
CONTINUOUS
 10
4.7932595896
 20
98.4536239515
 11
4.925
 21
98.4536239515
  0
LINE
  5
3DB
100
AcDbEntity
  8
IMPORT_IGES
100
AcDbLine
 62
7
  6
CONTINUOUS
 10
4.925
 20
98.7998646547
 11
-5.0004758348
 21
98.7998646547
  0
LINE
  5
3DC
100
AcDbEntity
  8
0
100
AcDbLine
 62
7
  6
CONTINUOUS
 10
49.1452376915
 20
99.1985933592
 11
4.925
 21
99.1985933592
  0
LINE
  5
3DD
100
AcDbEntity
  8
DRAFT
100
AcDbLine
 62
7
  6
CONTINUOUS
 10
-5.0035577647
 20
99.1985933592
 11
-49.1452376915
 21
99.1985933592
  0
LINE
  5
3DE
100
AcDbEntity
  8
RACCORDO
100
AcDbLine
 62
7
  6
CONTINUOUS
 10
50.2505328112
 20
99.3033556677
 11
49.25
 21
99.3033556677
  0
LINE
  5
3DF
100
AcDbEntity
  8
0
100
AcDbLine
 62
7
  6
CONTINUOUS
 10
49.25
 20
99.3033556677
 11
4.925
 21
99.3033556677
  0
LINE
  5
3E0
100
AcDbEntity
  8
DRAFT
100
AcDbLine
 62
7
  6
CONTINUOUS
 10
4.925
 20
99.3033556677
 11
-49.25
 21
99.3033556677
  0
LINE
  5
3E1
100
AcDbEntity
  8
RACCORDO
100
AcDbLine
 62
7
  6
CONTINUOUS
 10
-49.25
 20
99.3033556677
 11
-50.2505328112
 21
99.3033556677
  0
LINE
  5
3E2
100
AcDbEntity
  8
IMPORT_IGES
100
AcDbLine
 62
250
  6
CONTINUOUS
 10
47.6434916531
 20
-100.6032745138
 11
47.7398893871
 21
-100.5068767798
  0
LINE
  5
3E3
100
AcDbEntity
  8
IMPORT_IGES
100
AcDbLine
 62
250
  6
CONTINUOUS
 10
44.5005530783
 20
-97.9216039168
 11
44.8783754371
 21
-97.7327502948
  0
LINE
  5
3E4
100
AcDbEntity
  8
IMPORT_IGES
100
AcDbLine
 62
250
  6
CONTINUOUS
 10
45.3780708505
 20
-98.2326741424
 11
45.0014670234
 21
-98.4209186842
  0
LINE
  5
3E5
100
AcDbEntity
  8
IMPORT_IGES
100
AcDbLine
 62
250
  6
CONTINUOUS
 10
46.7154208025
 20
93.8122288447
 11
46.7160169061
 21
93.8119308837
  0
ARC
  5
3E6
100
AcDbEntity
  8
IMPORT_IGES
100
AcDbCircle
 62
250
  6
CONTINUOUS
 10
-45.3785569104
 20
-97.7325086737
 40
0.5001744508
100
AcDbArc
 50
270.0556799103
 51
359.9723223048
  0
ARC
  5
3E7
100
AcDbEntity
  8
IMPORT_IGES
100
AcDbCircle
 62
250
  6
CONTINUOUS
 10
-46.7149347427
 20
-97.7325086735
 40
0.5001744508
100
AcDbArc
 50
180.0276777146
 51
269.9443200872
  0
ARC
  5
3E8
100
AcDbEntity
  8
IMPORT_IGES
100
AcDbCircle
 62
7
  6
CONTINUOUS
 10
-36.9500466948
 20
-105.396612733
 40
0.2000467474
100
AcDbArc
 50
287.4851744368
 51
0.0415385923
  0
ARC
  5
3E9
100
AcDbEntity
  8
IMPORT_IGES
100
AcDbCircle
 62
250
  6
CONTINUOUS
 10
-47.9399036947
 20
-100.5065594168
 40
0.2000145715
100
AcDbArc
 50
270.0909102606
 51
359.9090852923
  0
ARC
  5
3EA
100
AcDbEntity
  8
IMPORT_IGES
100
AcDbCircle
 62
7
  6
CONTINUOUS
 10
-27.849955542
 20
-105.3966991419
 40
0.1999555983
100
AcDbArc
 50
310.5556272825
 51
0.04298011
  0
ARC
  5
3EB
100
AcDbEntity
  8
RACCORDO
100
AcDbCircle
 62
250
  6
CONTINUOUS
 10
-24.0
 20
-71.6466443323
 40
4.05
100
AcDbArc
 50
180.0
 51
360.0
  0
ARC
  5
3EC
100
AcDbEntity
  8
RACCORDO
100
AcDbCircle
 62
7
  6
CONTINUOUS
 10
-24.0
 20
-71.6466443323
 40
3.6
100
AcDbArc
 50
179.9999999987
 51
360.0
  0
ARC
  5
3ED
100
AcDbEntity
  8
RACCORDO
100
AcDbCircle
 62
250
  6
CONTINUOUS
 10
-24.0
 20
-71.6466443323
 40
3.15
100
AcDbArc
 50
180.0
 51
360.0
  0
ARC
  5
3EE
100
AcDbEntity
  8
IMPORT_IGES
100
AcDbCircle
 62
7
  6
CONTINUOUS
 10
0.0
 20
-152.6966443323
 40
164.9999972898
100
AcDbArc
 50
86.3449664506
 51
93.6550335476
  0
CIRCLE
  5
3EF
100
AcDbEntity
  8
IMPORT_IGES
100
AcDbCircle
 62
7
  6
CONTINUOUS
 10
-0.0
 20
-93.9966443323
 40
4.7767125028
  0
CIRCLE
  5
3F0
100
AcDbEntity
  8
IMPORT_IGES
100
AcDbCircle
 62
250
  6
CONTINUOUS
 10
-0.0
 20
-93.9966443323
 40
4.25
  0
ARC
  5
3F1
100
AcDbEntity
  8
IMPORT_IGES
100
AcDbCircle
 62
250
  6
CONTINUOUS
 10
-12.1081870453
 20
-97.7135370487
 40
0.3004394376
100
AcDbArc
 50
270.117667364
 51
359.8823572257
  0
ARC
  5
3F2
100
AcDbEntity
  8
IMPORT_IGES
100
AcDbCircle
 62
250
  6
CONTINUOUS
 10
-5.8
 20
-34.1466443323
 40
6.5051451296
100
AcDbArc
 50
90.0
 51
180.0
  0
ARC
  5
3F3
100
AcDbEntity
  8
DRAFT
100
AcDbCircle
 62
7
  6
CONTINUOUS
 10
-5.95
 20
-34.2166443323
 40
6.5
100
AcDbArc
 50
90.0
 51
180.0
  0
ARC
  5
3F4
100
AcDbEntity
  8
DRAFT
100
AcDbCircle
 62
7
  6
CONTINUOUS
 10
-5.95
 20
-34.2166443323
 40
6.4214422353
100
AcDbArc
 50
90.0
 51
180.0
  0
ARC
  5
3F5
100
AcDbEntity
  8
DRAFT
100
AcDbCircle
 62
7
  6
CONTINUOUS
 10
-5.95
 20
-34.2166443323
 40
4.9785577647
100
AcDbArc
 50
90.0
 51
180.0
  0
ARC
  5
3F6
100
AcDbEntity
  8
DRAFT
100
AcDbCircle
 62
7
  6
CONTINUOUS
 10
-5.95
 20
-34.2166443323
 40
4.9
100
AcDbArc
 50
90.0
 51
180.0
  0
ARC
  5
3F7
100
AcDbEntity
  8
IMPORT_IGES
100
AcDbCircle
 62
250
  6
CONTINUOUS
 10
-3.9
 20
-53.9966443323
 40
4.0051451296
100
AcDbArc
 50
90.0
 51
270.0
  0
ARC
  5
3F8
100
AcDbEntity
  8
DRAFT
100
AcDbCircle
 62
7
  6
CONTINUOUS
 10
-4.0
 20
-54.1166443323
 40
4.0
100
AcDbArc
 50
90.0
 51
270.0
  0
ARC
  5
3F9
100
AcDbEntity
  8
DRAFT
100
AcDbCircle
 62
7
  6
CONTINUOUS
 10
-4.0
 20
-54.1166443323
 40
3.9214422353
100
AcDbArc
 50
90.0
 51
270.0
  0
ARC
  5
3FA
100
AcDbEntity
  8
IMPORT_IGES
100
AcDbCircle
 62
7
  6
CONTINUOUS
 10
-9.9
 20
-90.8466443323
 40
3.75
100
AcDbArc
 50
0.0
 51
180.0
  0
ARC
  5
3FB
100
AcDbEntity
  8
DRAFT
100
AcDbCircle
 62
7
  6
CONTINUOUS
 10
-9.8
 20
-91.0816443323
 40
3.675893842
100
AcDbArc
 50
0.0
 51
180.0
  0
ARC
  5
3FC
100
AcDbEntity
  8
IMPORT_IGES
100
AcDbCircle
 62
7
  6
CONTINUOUS
 10
-23.2
 20
-72.0466443323
 40
3.4999640645
100
AcDbArc
 50
270.0
 51
360.0
  0
ARC
  5
3FD
100
AcDbEntity
  8
IMPORT_IGES
100
AcDbCircle
 62
250
  6
CONTINUOUS
 10
-23.2
 20
-72.0466443323
 40
2.8085786438
100
AcDbArc
 50
270.0
 51
360.0
  0
ARC
  5
3FE
100
AcDbEntity
  8
IMPORT_IGES
100
AcDbCircle
 62
7
  6
CONTINUOUS
 10
-3.9
 20
-53.9966443323
 40
2.0
100
AcDbArc
 50
90.0
 51
270.0
  0
ARC
  5
3FF
100
AcDbEntity
  8
DRAFT
100
AcDbCircle
 62
7
  6
CONTINUOUS
 10
-4.0
 20
-54.1166443323
 40
1.9924077793
100
AcDbArc
 50
90.0
 51
270.0
  0
ARC
  5
400
100
AcDbEntity
  8
DRAFT
100
AcDbCircle
 62
7
  6
CONTINUOUS
 10
-4.0
 20
-54.1166443323
 40
1.94
100
AcDbArc
 50
90.0
 51
160.8753442209
  0
ARC
  5
401
100
AcDbEntity
  8
DRAFT
100
AcDbCircle
 62
7
  6
CONTINUOUS
 10
-9.8
 20
-91.0816443323
 40
1.8843337776
100
AcDbArc
 50
0.0
 51
180.0
  0
ARC
  5
402
100
AcDbEntity
  8
DRAFT
100
AcDbCircle
 62
7
  6
CONTINUOUS
 10
-9.8
 20
-91.0816443323
 40
1.75
100
AcDbArc
 50
27.1284259822
 51
180.0
  0
ARC
  5
403
100
AcDbEntity
  8
IMPORT_IGES
100
AcDbCircle
 62
250
  6
CONTINUOUS
 10
-9.6159509637
 20
-34.9414274927
 40
0.3002125186
100
AcDbArc
 50
90.0600118813
 51
179.9586707474
  0
ARC
  5
404
100
AcDbEntity
  8
IMPORT_IGES
100
AcDbCircle
 62
250
  6
CONTINUOUS
 10
-9.7764409015
 20
-34.7015780823
 40
0.2682037836
100
AcDbArc
 50
224.9923939841
 51
226.3585458605
  0
ARC
  5
405
100
AcDbEntity
  8
IMPORT_IGES
100
AcDbCircle
 62
250
  6
CONTINUOUS
 10
-9.4968732716
 20
-34.4046258041
 40
0.2583373571
100
AcDbArc
 50
227.7196781002
 51
229.0765936717
  0
CIRCLE
  5
406
100
AcDbEntity
  8
RACCORDO
100
AcDbCircle
 62
250
  6
CONTINUOUS
 10
0.0
 20
31.9833556677
 40
10.4948533162
  0
ARC
  5
407
100
AcDbEntity
  8
RACCORDO
100
AcDbCircle
 62
250
  6
CONTINUOUS
 10
0.0
 20
31.9833556677
 40
10.3449446922
100
AcDbArc
 50
0.0
 51
180.0
  0
CIRCLE
  5
408
100
AcDbEntity
  8
RACCORDO
100
AcDbCircle
 62
250
  6
CONTINUOUS
 10
0.0
 20
31.9833556677
 40
10.3117207387
  0
CIRCLE
  5
409
100
AcDbEntity
  8
RACCORDO
100
AcDbCircle
 62
250
  6
CONTINUOUS
 10
0.0
 20
31.9833556677
 40
9.5621776184
  0
ARC
  5
40A
100
AcDbEntity
  8
RACCORDO
100
AcDbCircle
 62
250
  6
CONTINUOUS
 10
-24.0
 20
78.1533556677
 40
4.05
100
AcDbArc
 50
0.0
 51
180.0
  0
ARC
  5
40B
100
AcDbEntity
  8
IMPORT_IGES
100
AcDbCircle
 62
7
  6
CONTINUOUS
 10
-2.05
 20
93.1033556677
 40
3.7995241206
100
AcDbArc
 50
183.2784214097
 51
270.0
  0
ARC
  5
40C
100
AcDbEntity
  8
RACCORDO
100
AcDbCircle
 62
7
  6
CONTINUOUS
 10
-2.23
 20
93.5533556677
 40
3.77
100
AcDbArc
 50
90.0
 51
120.9381369078
  0
ARC
  5
40D
100
AcDbEntity
  8
IMPORT_IGES
100
AcDbCircle
 62
250
  6
CONTINUOUS
 10
-2.05
 20
93.1033556677
 40
3.7067404104
100
AcDbArc
 50
182.5650631317
 51
270.0
  0
ARC
  5
40E
100
AcDbEntity
  8
RACCORDO
100
AcDbCircle
 62
7
  6
CONTINUOUS
 10
-2.23
 20
93.5533556677
 40
3.6914422353
100
AcDbArc
 50
179.5785084969
 51
270.0
  0
ARC
  5
40F
100
AcDbEntity
  8
RACCORDO
100
AcDbCircle
 62
7
  6
CONTINUOUS
 10
-2.23
 20
93.5533556677
 40
3.6914422353
100
AcDbArc
 50
90.0
 51
122.8534120342
  0
ARC
  5
410
100
AcDbEntity
  8
IMPORT_IGES
100
AcDbCircle
 62
250
  6
CONTINUOUS
 10
-3.75
 20
31.8033556677
 40
3.6157552569
100
AcDbArc
 50
89.9999989629
 51
269.9999999885
  0
ARC
  5
411
100
AcDbEntity
  8
RACCORDO
100
AcDbCircle
 62
7
  6
CONTINUOUS
 10
-24.0
 20
78.1533556677
 40
3.6
100
AcDbArc
 50
0.0
 51
180.000000002
  0
ARC
  5
412
100
AcDbEntity
  8
IMPORT_IGES
100
AcDbCircle
 62
250
  6
CONTINUOUS
 10
-3.75
 20
31.8033556677
 40
3.3158009483
100
AcDbArc
 50
212.2765371854
 51
270.0
  0
ARC
  5
413
100
AcDbEntity
  8
IMPORT_IGES
100
AcDbCircle
 62
250
  6
CONTINUOUS
 10
-3.75
 20
31.8033556677
 40
3.3051451296
100
AcDbArc
 50
214.4242834412
 51
270.0
  0
ARC
  5
414
100
AcDbEntity
  8
0
100
AcDbCircle
 62
7
  6
CONTINUOUS
 10
-4.005
 20
31.9833556677
 40
3.21
100
AcDbArc
 50
90.0
 51
270.0
  0
ARC
  5
415
100
AcDbEntity
  8
RACCORDO
100
AcDbCircle
 62
250
  6
CONTINUOUS
 10
-24.0
 20
78.1533556677
 40
3.15
100
AcDbArc
 50
0.0
 51
180.0
  0
ARC
  5
416
100
AcDbEntity
  8
IMPORT_IGES
100
AcDbCircle
 62
250
  6
CONTINUOUS
 10
-23.2
 20
78.1533556677
 40
2.8085786438
100
AcDbArc
 50
0.0
 51
90.0
  0
ARC
  5
417
100
AcDbEntity
  8
IMPORT_IGES
100
AcDbCircle
 62
250
  6
CONTINUOUS
 10
-2.05
 20
93.1033556677
 40
2.0838147773
100
AcDbArc
 50
89.9999999798
 51
180.0
  0
ARC
  5
418
100
AcDbEntity
  8
IMPORT_IGES
100
AcDbCircle
 62
7
  6
CONTINUOUS
 10
-3.75
 20
31.8033556677
 40
2.0
100
AcDbArc
 50
90.0
 51
218.7345886806
  0
ARC
  5
419
100
AcDbEntity
  8
DRAFT
100
AcDbCircle
 62
7
  6
CONTINUOUS
 10
-4.005
 20
31.9833556677
 40
1.9371106649
100
AcDbArc
 50
90.0
 51
270.0
  0
ARC
  5
41A
100
AcDbEntity
  8
DRAFT
100
AcDbCircle
 62
7
  6
CONTINUOUS
 10
-2.23
 20
93.5533556677
 40
1.7914422353
100
AcDbArc
 50
90.0
 51
270.0
  0
ARC
  5
41B
100
AcDbEntity
  8
DRAFT
100
AcDbCircle
 62
7
  6
CONTINUOUS
 10
-2.23
 20
93.5533556677
 40
1.652656851
100
AcDbArc
 50
191.9839372853
 51
270.0
  0
ARC
  5
41C
100
AcDbEntity
  8
RACCORDO
100
AcDbCircle
 62
250
  6
CONTINUOUS
 10
-19.9500014401
 20
4.1033589156
 40
0.8999971375
100
AcDbArc
 50
90.0203467727
 51
180.0004977349
  0
ARC
  5
41D
100
AcDbEntity
  8
IMPORT_IGES
100
AcDbCircle
 62
250
  6
CONTINUOUS
 10
-43.7786813218
 20
95.0469287551
 40
0.500651052
100
AcDbArc
 50
0.1833612637
 51
89.893676751
  0
ARC
  5
41E
100
AcDbEntity
  8
IMPORT_IGES
100
AcDbCircle
 62
250
  6
CONTINUOUS
 10
-46.7144917103
 20
95.0469287576
 40
0.5006510525
100
AcDbArc
 50
90.1063236291
 51
179.8166390229
  0
ARC
  5
41F
100
AcDbEntity
  8
IMPORT_IGES
100
AcDbCircle
 62
250
  6
CONTINUOUS
 10
-5.7566988039
 20
93.6768384383
 40
0.500041702
100
AcDbArc
 50
180.0229089148
 51
239.9771009858
  0
ARC
  5
420
100
AcDbEntity
  8
RACCORDO
100
AcDbCircle
 62
7
  6
CONTINUOUS
 10
-4.5038933356
 20
97.0739783775
 40
0.4996590212
100
AcDbArc
 50
179.9654206493
 51
302.8879909256
  0
ARC
  5
421
100
AcDbEntity
  8
RACCORDO
100
AcDbCircle
 62
7
  6
CONTINUOUS
 10
-19.95
 20
4.1033556677
 40
0.45
100
AcDbArc
 50
90.0000019649
 51
149.9999999996
  0
ARC
  5
422
100
AcDbEntity
  8
IMPORT_IGES
100
AcDbCircle
 62
250
  6
CONTINUOUS
 10
-5.093461972
 20
98.4533487999
 40
0.3002045514
100
AcDbArc
 50
0.0525157957
 51
89.9381195499
  0
ARC
  5
423
100
AcDbEntity
  8
IMPORT_IGES
100
AcDbCircle
 62
250
  6
CONTINUOUS
 10
-5.7570501546
 20
93.6766355283
 40
0.2998120905
100
AcDbArc
 50
179.9994783797
 51
240.000549026
  0
ARC
  5
424
100
AcDbEntity
  8
IMPORT_IGES
100
AcDbCircle
 62
250
  6
CONTINUOUS
 10
-47.4438401657
 20
97.0471958332
 40
0.2994181435
100
AcDbArc
 50
89.9238738409
 51
180.0761260782
  0
ARC
  5
425
100
AcDbEntity
  8
RACCORDO
100
AcDbCircle
 62
7
  6
CONTINUOUS
 10
-6.1212430404
 20
93.5820071474
 40
0.1999058453
100
AcDbArc
 50
359.5712382899
 51
90.0072702075
  0
ARC
  5
426
100
AcDbEntity
  8
IMPORT_IGES
100
AcDbCircle
 62
7
  6
CONTINUOUS
 10
5.8
 20
-34.1466443323
 40
6.549746935
100
AcDbArc
 50
0.0000000078
 51
89.9999999922
  0
ARC
  5
427
100
AcDbEntity
  8
DRAFT
100
AcDbCircle
 62
7
  6
CONTINUOUS
 10
5.95
 20
-34.2166443323
 40
6.4214422353
100
AcDbArc
 50
0.0
 51
90.0
  0
ARC
  5
428
100
AcDbEntity
  8
DRAFT
100
AcDbCircle
 62
7
  6
CONTINUOUS
 10
5.95
 20
-34.2166443323
 40
4.9785577647
100
AcDbArc
 50
0.0
 51
90.0
  0
ARC
  5
429
100
AcDbEntity
  8
IMPORT_IGES
100
AcDbCircle
 62
7
  6
CONTINUOUS
 10
5.8
 20
-34.1466443323
 40
4.950253065
100
AcDbArc
 50
0.0
 51
90.0000000096
  0
ARC
  5
42A
100
AcDbEntity
  8
IMPORT_IGES
100
AcDbCircle
 62
7
  6
CONTINUOUS
 10
3.9
 20
-53.9966443323
 40
4.049746935
100
AcDbArc
 50
270.0000000108
 51
89.9999999892
  0
ARC
  5
42B
100
AcDbEntity
  8
DRAFT
100
AcDbCircle
 62
7
  6
CONTINUOUS
 10
4.0
 20
-54.1166443323
 40
3.9214422353
100
AcDbArc
 50
270.0
 51
90.0
  0
ARC
  5
42C
100
AcDbEntity
  8
IMPORT_IGES
100
AcDbCircle
 62
7
  6
CONTINUOUS
 10
30.95
 20
-90.8466443323
 40
3.75
100
AcDbArc
 50
0.0
 51
180.0
  0
ARC
  5
42D
100
AcDbEntity
  8
DRAFT
100
AcDbCircle
 62
7
  6
CONTINUOUS
 10
31.2
 20
-91.0816443323
 40
3.675893842
100
AcDbArc
 50
0.0
 51
180.0
  0
ARC
  5
42E
100
AcDbEntity
  8
IMPORT_IGES
100
AcDbCircle
 62
250
  6
CONTINUOUS
 10
30.95
 20
-90.8466443323
 40
3.6605864226
100
AcDbArc
 50
0.0
 51
180.0
  0
ARC
  5
42F
100
AcDbEntity
  8
IMPORT_IGES
100
AcDbCircle
 62
7
  6
CONTINUOUS
 10
23.2
 20
-72.0466443323
 40
3.4999640645
100
AcDbArc
 50
180.0
 51
270.0
  0
ARC
  5
430
100
AcDbEntity
  8
IMPORT_IGES
100
AcDbCircle
 62
250
  6
CONTINUOUS
 10
30.95
 20
-90.8466443323
 40
3.3607691745
100
AcDbArc
 50
0.0000000037
 51
179.9999999975
  0
ARC
  5
431
100
AcDbEntity
  8
RACCORDO
100
AcDbCircle
 62
250
  6
CONTINUOUS
 10
24.0
 20
-71.6466443323
 40
3.15
100
AcDbArc
 50
180.0
 51
360.0
  0
ARC
  5
432
100
AcDbEntity
  8
IMPORT_IGES
100
AcDbCircle
 62
250
  6
CONTINUOUS
 10
23.2
 20
-72.0466443323
 40
2.8085786438
100
AcDbArc
 50
180.0
 51
270.0
  0
ARC
  5
433
100
AcDbEntity
  8
IMPORT_IGES
100
AcDbCircle
 62
250
  6
CONTINUOUS
 10
23.2
 20
-72.0466443323
 40
2.6671572875
100
AcDbArc
 50
180.000000009
 51
269.9999936796
  0
ARC
  5
434
100
AcDbEntity
  8
IMPORT_IGES
100
AcDbCircle
 62
250
  6
CONTINUOUS
 10
30.95
 20
-90.8466443323
 40
2.2143104799
100
AcDbArc
 50
0.0
 51
180.0
  0
ARC
  5
435
100
AcDbEntity
  8
IMPORT_IGES
100
AcDbCircle
 62
7
  6
CONTINUOUS
 10
3.9
 20
-53.9966443323
 40
2.0
100
AcDbArc
 50
270.0
 51
90.0
  0
ARC
  5
436
100
AcDbEntity
  8
DRAFT
100
AcDbCircle
 62
7
  6
CONTINUOUS
 10
4.0
 20
-54.1166443323
 40
1.9924077793
100
AcDbArc
 50
270.0
 51
90.0
  0
ARC
  5
437
100
AcDbEntity
  8
DRAFT
100
AcDbCircle
 62
7
  6
CONTINUOUS
 10
4.0
 20
-54.1166443323
 40
1.94
100
AcDbArc
 50
19.1051152226
 51
90.0
  0
ARC
  5
438
100
AcDbEntity
  8
IMPORT_IGES
100
AcDbCircle
 62
250
  6
CONTINUOUS
 10
30.95
 20
-90.8466443323
 40
1.9144932318
100
AcDbArc
 50
0.0
 51
180.0
  0
ARC
  5
439
100
AcDbEntity
  8
DRAFT
100
AcDbCircle
 62
7
  6
CONTINUOUS
 10
31.2
 20
-91.0816443323
 40
1.8843337776
100
AcDbArc
 50
0.0
 51
180.0
  0
ARC
  5
43A
100
AcDbEntity
  8
DRAFT
100
AcDbCircle
 62
7
  6
CONTINUOUS
 10
31.2
 20
-91.0816443323
 40
1.75
100
AcDbArc
 50
52.2956323493
 51
180.0
  0
ARC
  5
43B
100
AcDbEntity
  8
IMPORT_IGES
100
AcDbCircle
 62
250
  6
CONTINUOUS
 10
46.7149347425
 20
-97.7325086736
 40
0.5001744509
100
AcDbArc
 50
270.0556799325
 51
359.972322292
  0
ARC
  5
43C
100
AcDbEntity
  8
IMPORT_IGES
100
AcDbCircle
 62
250
  6
CONTINUOUS
 10
45.3785569103
 20
-97.7325086736
 40
0.5001744508
100
AcDbArc
 50
180.0276777099
 51
269.944320092
  0
ARC
  5
43D
100
AcDbEntity
  8
IMPORT_IGES
100
AcDbCircle
 62
250
  6
CONTINUOUS
 10
34.3168925968
 20
-97.7135368885
 40
0.3004394504
100
AcDbArc
 50
270.1176595239
 51
359.8823266848
  0
ARC
  5
43E
100
AcDbEntity
  8
IMPORT_IGES
100
AcDbCircle
 62
250
  6
CONTINUOUS
 10
33.1581870248
 20
-97.7135369605
 40
0.3004394366
100
AcDbArc
 50
180.1176632536
 51
269.8823378462
  0
ARC
  5
43F
100
AcDbEntity
  8
IMPORT_IGES
100
AcDbCircle
 62
250
  6
CONTINUOUS
 10
27.5831073704
 20
-97.7135369605
 40
0.3004394366
100
AcDbArc
 50
180.1176632512
 51
269.8823378393
  0
ARC
  5
440
100
AcDbEntity
  8
IMPORT_IGES
100
AcDbCircle
 62
250
  6
CONTINUOUS
 10
9.6159509996
 20
-34.9414275361
 40
0.3002125218
100
AcDbArc
 50
0.0413375454
 51
89.939994977
  0
ARC
  5
441
100
AcDbEntity
  8
IMPORT_IGES
100
AcDbCircle
 62
7
  6
CONTINUOUS
 10
9.4500196757
 20
-34.9966263314
 40
0.2999816058
100
AcDbArc
 50
0.0136625861
 51
90.0175217992
  0
ARC
  5
442
100
AcDbEntity
  8
IMPORT_IGES
100
AcDbCircle
 62
250
  6
CONTINUOUS
 10
9.7764409015
 20
-34.7015780823
 40
0.2682037836
100
AcDbArc
 50
313.6414541395
 51
315.0076060159
  0
ARC
  5
443
100
AcDbEntity
  8
IMPORT_IGES
100
AcDbCircle
 62
250
  6
CONTINUOUS
 10
9.4968732727
 20
-34.4046258051
 40
0.2583373557
100
AcDbArc
 50
310.9234060514
 51
312.2803219282
  0
ARC
  5
444
100
AcDbEntity
  8
IMPORT_IGES
100
AcDbCircle
 62
250
  6
CONTINUOUS
 10
47.9401788686
 20
-100.5064654708
 40
0.2002929723
100
AcDbArc
 50
180.1176651277
 51
269.8823387016
  0
ARC
  5
445
100
AcDbEntity
  8
IMPORT_IGES
100
AcDbCircle
 62
7
  6
CONTINUOUS
 10
47.8433209257
 20
-100.6033234067
 40
0.1998278251
100
AcDbArc
 50
179.9833972991
 51
270.0166049473
  0
ARC
  5
446
100
AcDbEntity
  8
IMPORT_IGES
100
AcDbCircle
 62
250
  6
CONTINUOUS
 10
3.75
 20
31.8033556677
 40
3.6157552568
100
AcDbArc
 50
270.0000000114
 51
90.0000010371
  0
ARC
  5
447
100
AcDbEntity
  8
IMPORT_IGES
100
AcDbCircle
 62
250
  6
CONTINUOUS
 10
3.75
 20
31.8033556677
 40
3.3158009483
100
AcDbArc
 50
270.0
 51
327.7234628145
  0
ARC
  5
448
100
AcDbEntity
  8
IMPORT_IGES
100
AcDbCircle
 62
250
  6
CONTINUOUS
 10
3.75
 20
31.8033556677
 40
3.3051451296
100
AcDbArc
 50
270.0
 51
325.5757165588
  0
ARC
  5
449
100
AcDbEntity
  8
0
100
AcDbCircle
 62
7
  6
CONTINUOUS
 10
4.005
 20
31.9833556677
 40
3.21
100
AcDbArc
 50
270.0
 51
90.0
  0
ARC
  5
44A
100
AcDbEntity
  8
IMPORT_IGES
100
AcDbCircle
 62
7
  6
CONTINUOUS
 10
3.75
 20
31.8033556677
 40
2.0
100
AcDbArc
 50
322.5305235382
 51
90.0
  0
ARC
  5
44B
100
AcDbEntity
  8
DRAFT
100
AcDbCircle
 62
7
  6
CONTINUOUS
 10
3.995
 20
31.9833556677
 40
1.9371106649
100
AcDbArc
 50
270.0
 51
90.0
  0
ARC
  5
44C
100
AcDbEntity
  8
RACCORDO
100
AcDbCircle
 62
250
  6
CONTINUOUS
 10
19.9499880519
 20
4.1033524919
 40
0.9000119486
100
AcDbArc
 50
359.9980809146
 51
89.9993713126
  0
ARC
  5
44D
100
AcDbEntity
  8
RACCORDO
100
AcDbCircle
 62
250
  6
CONTINUOUS
 10
19.95
 20
12.2033556677
 40
0.9
100
AcDbArc
 50
270.0203953262
 51
0.0000027699
  0
ARC
  5
44E
100
AcDbEntity
  8
RACCORDO
100
AcDbCircle
 62
7
  6
CONTINUOUS
 10
19.9499842925
 20
4.1033284615
 40
0.4500272065
100
AcDbArc
 50
30.001998837
 51
89.9980001807
  0
ARC
  5
44F
100
AcDbEntity
  8
RACCORDO
100
AcDbCircle
 62
250
  6
CONTINUOUS
 10
3.4764567294
 20
92.4557368832
 40
9.6561682751
100
AcDbArc
 50
150.4657445594
 51
151.425584003
  0
ARC
  5
450
100
AcDbEntity
  8
RACCORDO
100
AcDbCircle
 62
250
  6
CONTINUOUS
 10
3.6783308028
 20
92.8951775065
 40
8.7586616377
100
AcDbArc
 50
153.6191008754
 51
154.5832124507
  0
ARC
  5
451
100
AcDbEntity
  8
RACCORDO
100
AcDbCircle
 62
250
  6
CONTINUOUS
 10
24.0
 20
78.1533556677
 40
4.05
100
AcDbArc
 50
0.0
 51
180.0
  0
ARC
  5
452
100
AcDbEntity
  8
IMPORT_IGES
100
AcDbCircle
 62
7
  6
CONTINUOUS
 10
2.05
 20
93.1033556677
 40
3.7995241206
100
AcDbArc
 50
270.0
 51
356.7215785903
  0
ARC
  5
453
100
AcDbEntity
  8
RACCORDO
100
AcDbCircle
 62
7
  6
CONTINUOUS
 10
2.23
 20
93.5533556677
 40
3.77
100
AcDbArc
 50
59.0645436596
 51
90.0
  0
ARC
  5
454
100
AcDbEntity
  8
IMPORT_IGES
100
AcDbCircle
 62
250
  6
CONTINUOUS
 10
2.05
 20
93.1033556677
 40
3.7067404104
100
AcDbArc
 50
270.0
 51
357.434936868
  0
ARC
  5
455
100
AcDbEntity
  8
RACCORDO
100
AcDbCircle
 62
7
  6
CONTINUOUS
 10
2.23
 20
93.5533556677
 40
3.6914422353
100
AcDbArc
 50
58.4187265791
 51
90.0
  0
ARC
  5
456
100
AcDbEntity
  8
RACCORDO
100
AcDbCircle
 62
7
  6
CONTINUOUS
 10
2.23
 20
93.5533556677
 40
3.6914422353
100
AcDbArc
 50
270.0
 51
0.4214915031
  0
ARC
  5
457
100
AcDbEntity
  8
RACCORDO
100
AcDbCircle
 62
7
  6
CONTINUOUS
 10
24.0
 20
78.1533556677
 40
3.6
100
AcDbArc
 50
0.0
 51
180.000000002
  0
ARC
  5
458
100
AcDbEntity
  8
IMPORT_IGES
100
AcDbCircle
 62
250
  6
CONTINUOUS
 10
2.05
 20
93.1033556677
 40
3.506862245
100
AcDbArc
 50
270.0000051076
 51
357.4349542306
  0
ARC
  5
459
100
AcDbEntity
  8
IMPORT_IGES
100
AcDbCircle
 62
7
  6
CONTINUOUS
 10
23.2
 20
78.1533556677
 40
3.4999640645
100
AcDbArc
 50
90.7090200105
 51
180.0
  0
ARC
  5
45A
100
AcDbEntity
  8
RACCORDO
100
AcDbCircle
 62
250
  6
CONTINUOUS
 10
24.0
 20
78.1533556677
 40
3.15
100
AcDbArc
 50
0.0
 51
180.0
  0
ARC
  5
45B
100
AcDbEntity
  8
IMPORT_IGES
100
AcDbCircle
 62
250
  6
CONTINUOUS
 10
2.05
 20
93.1033556677
 40
2.0838147773
100
AcDbArc
 50
71.3274120864
 51
90.0000000202
  0
ARC
  5
45C
100
AcDbEntity
  8
IMPORT_IGES
100
AcDbCircle
 62
250
  6
CONTINUOUS
 10
2.05
 20
93.1033556677
 40
1.8838452382
100
AcDbArc
 50
270.0
 51
90.0
  0
ARC
  5
45D
100
AcDbEntity
  8
DRAFT
100
AcDbCircle
 62
7
  6
CONTINUOUS
 10
2.23
 20
93.5533556677
 40
1.7914422353
100
AcDbArc
 50
270.0
 51
90.0
  0
ARC
  5
45E
100
AcDbEntity
  8
DRAFT
100
AcDbCircle
 62
7
  6
CONTINUOUS
 10
2.23
 20
93.5533556677
 40
1.652656851
100
AcDbArc
 50
270.0
 51
348.0147220776
  0
ARC
  5
45F
100
AcDbEntity
  8
IMPORT_IGES
100
AcDbCircle
 62
250
  6
CONTINUOUS
 10
5.7566988039
 20
93.6768384383
 40
0.500041702
100
AcDbArc
 50
300.0228990115
 51
359.9770910852
  0
ARC
  5
460
100
AcDbEntity
  8
RACCORDO
100
AcDbCircle
 62
7
  6
CONTINUOUS
 10
4.4249846401
 20
97.1240813734
 40
0.4999959736
100
AcDbArc
 50
238.4316161507
 51
0.0243526428
  0
ARC
  5
461
100
AcDbEntity
  8
RACCORDO
100
AcDbCircle
 62
7
  6
CONTINUOUS
 10
4.424986604
 20
97.2159584833
 40
0.4999801672
100
AcDbArc
 50
239.0758942066
 51
356.0031886013
  0
ARC
  5
462
100
AcDbEntity
  8
IMPORT_IGES
100
AcDbCircle
 62
250
  6
CONTINUOUS
 10
5.0934306986
 20
98.4533589691
 40
0.3001712441
100
AcDbArc
 50
124.1280743755
 51
179.9494197914
  0
ARC
  5
463
100
AcDbEntity
  8
IMPORT_IGES
100
AcDbCircle
 62
250
  6
CONTINUOUS
 10
5.7570501496
 20
93.6766355312
 40
0.2998120955
100
AcDbArc
 50
299.9994515295
 51
0.0005210648
  0
ARC
  5
464
100
AcDbEntity
  8
RACCORDO
100
AcDbCircle
 62
7
  6
CONTINUOUS
 10
6.1212429454
 20
93.5820072417
 40
0.1999057293
100
AcDbArc
 50
89.9927025608
 51
180.4287889422
  0
ARC
  5
465
100
AcDbEntity
  8
IMPORT_IGES
100
AcDbCircle
 62
250
  6
CONTINUOUS
 10
41.3901997107
 20
86.3031028006
 40
2.9055062237
100
AcDbArc
 50
89.2904542716
 51
89.6027900033
  0
ARC
  5
466
100
AcDbEntity
  8
IMPORT_IGES
100
AcDbCircle
 62
250
  6
CONTINUOUS
 10
43.6438891887
 20
88.7004553238
 40
1.699274256
100
AcDbArc
 50
0.0078263033
 51
86.6615459781
  0
ARC
  5
467
100
AcDbEntity
  8
IMPORT_IGES
100
AcDbCircle
 62
250
  6
CONTINUOUS
 10
43.6436511213
 20
88.6999952194
 40
1.1998573141
100
AcDbArc
 50
0.0278242016
 51
86.6597756814
  0
ARC
  5
468
100
AcDbEntity
  8
IMPORT_IGES
100
AcDbCircle
 62
250
  6
CONTINUOUS
 10
46.7144917132
 20
95.0469287548
 40
0.5006510524
100
AcDbArc
 50
0.1833613094
 51
89.8936767087
  0
ARC
  5
469
100
AcDbEntity
  8
IMPORT_IGES
100
AcDbCircle
 62
250
  6
CONTINUOUS
 10
46.7149347427
 20
94.3123943133
 40
0.5001744507
100
AcDbArc
 50
270.0556799074
 51
359.9723223172
  0
ARC
  5
46A
100
AcDbEntity
  8
IMPORT_IGES
100
AcDbCircle
 62
250
  6
CONTINUOUS
 10
47.4438401657
 20
97.0471958332
 40
0.2994181435
100
AcDbArc
 50
359.9238739273
 51
90.0761261535
  0
SPLINE
  5
46B
100
AcDbEntity
  8
IMPORT_IGES
100
AcDbSpline
 62
250
  6
CONTINUOUS
 70
0
 71
3
 72
17
 73
13
 74
0
 42
0.0000001
 43
0.0000001
 44
0.0000000001
 40
0.0
 40
0.0
 40
0.0
 40
0.0
 40
0.0092669041
 40
0.0262917516
 40
0.0519036723
 40
0.086164195
 40
0.1797583867
 40
0.3037073174
 40
0.4536502484
 40
0.6239254116
 40
0.8083518558
 40
1.0
 40
1.0
 40
1.0
 40
1.0
 10
-46.7160206582
 20
93.8119308883
 30
0.0
 10
-46.717529722
 20
93.8115537479
 30
0.0
 10
-46.7204399613
 20
93.8075222584
 30
0.0
 10
-46.7233104376
 20
93.7995854634
 30
0.0
 10
-46.7265080094
 20
93.7869202787
 30
0.0
 10
-46.731024675
 20
93.7616269569
 30
0.0
 10
-46.7359574566
 20
93.7195687261
 30
0.0
 10
-46.7408947816
 20
93.6581039927
 30
0.0
 10
-46.7449652944
 20
93.5836440294
 30
0.0
 10
-46.748027425
 20
93.4989929236
 30
0.0
 10
-46.7499050618
 20
93.4073015183
 30
0.0
 10
-46.7503319059
 20
93.3441757379
 30
0.0
 10
-46.7503319054
 20
93.3120070361
 30
0.0
  0
SPLINE
  5
46C
100
AcDbEntity
  8
IMPORT_IGES
100
AcDbSpline
 62
250
  6
CONTINUOUS
 70
0
 71
3
 72
9
 73
5
 74
0
 42
0.0000001
 43
0.0000001
 44
0.0000000001
 40
0.0
 40
0.0
 40
0.0
 40
0.0
 40
0.4365139555
 40
1.0
 40
1.0
 40
1.0
 40
1.0
 10
-45.3625212561
 20
3.8644275655
 30
0.0
 10
-45.3548143798
 20
3.9595247953
 30
0.0
 10
-45.3460740699
 20
4.1780398388
 30
0.0
 10
-45.3431629136
 20
4.3965878606
 30
0.0
 10
-45.3431629139
 20
4.5197492042
 30
0.0
  0
SPLINE
  5
46D
100
AcDbEntity
  8
IMPORT_IGES
100
AcDbSpline
 62
250
  6
CONTINUOUS
 70
0
 71
3
 72
11
 73
7
 74
0
 42
0.0000001
 43
0.0000001
 44
0.0000000001
 40
0.0
 40
0.0
 40
0.0
 40
0.0
 40
0.2713389599
 40
0.5315598928
 40
0.7735048224
 40
1.0
 40
1.0
 40
1.0
 40
1.0
 10
-45.3625217826
 20
3.8644275194
 30
0.0
 10
-45.2985760441
 20
3.8633783365
 30
0.0
 10
-45.1726755159
 20
3.8415189182
 30
0.0
 10
-45.0094069564
 20
3.7529199485
 30
0.0
 10
-44.8946233519
 20
3.6191993142
 30
0.0
 10
-44.8641297368
 20
3.5082203409
 30
0.0
 10
-44.862826366
 20
3.4548515475
 30
0.0
  0
SPLINE
  5
46E
100
AcDbEntity
  8
IMPORT_IGES
100
AcDbSpline
 62
7
  6
CONTINUOUS
 70
0
 71
3
 72
11
 73
7
 74
0
 42
0.0000001
 43
0.0000001
 44
0.0000000001
 40
0.0
 40
0.0
 40
0.0
 40
0.0
 40
0.2944609501
 40
0.5546188524
 40
0.7852953591
 40
1.0
 40
1.0
 40
1.0
 40
1.0
 10
-7.7852137132
 20
-98.0964740063
 30
0.0
 10
-7.8298694844
 20
-98.0949585438
 30
0.0
 10
-7.9143167033
 20
-98.0732087323
 30
0.0
 10
-8.0116359904
 20
-97.9998253466
 30
0.0
 10
-8.069326014
 20
-97.907070068
 30
0.0
 10
-8.0838543565
 20
-97.8394957096
 30
0.0
 10
-8.0850309613
 20
-97.8069376999
 30
0.0
  0
LINE
  5
46F
100
AcDbEntity
  8
IMPORT_IGES
100
AcDbLine
 62
7
  6
CONTINUOUS
 10
-8.0844829282
 20
-98.2774722887
 11
-8.0555514615
 21
-98.3066117528
  0
SPLINE
  5
470
100
AcDbEntity
  8
IMPORT_IGES
100
AcDbSpline
 62
250
  6
CONTINUOUS
 70
0
 71
3
 72
14
 73
10
 74
0
 42
0.0000001
 43
0.0000001
 44
0.0000000001
 40
0.0
 40
0.0
 40
0.0
 40
0.0
 40
0.3743754129
 40
0.5442587507
 40
0.6942103505
 40
0.8186753528
 40
0.9131290591
 40
0.9741828768
 40
1.0
 40
1.0
 40
1.0
 40
1.0
 10
-11.8144932318
 20
-97.5142754747
 30
0.0
 10
-11.8144932344
 20
-97.5392579679
 30
0.0
 10
-11.8142762643
 20
-97.5755860405
 30
0.0
 10
-11.8134314048
 20
-97.6218847411
 30
0.0
 10
-11.8126867504
 20
-97.6515708355
 30
0.0
 10
-11.8115654029
 20
-97.6760331061
 30
0.0
 10
-11.8108727391
 20
-97.6950184615
 30
0.0
 10
-11.8090312425
 20
-97.7064258181
 30
0.0
 10
-11.8089710544
 20
-97.7129357139
 30
0.0
 10
-11.8077528319
 20
-97.7141539067
 30
0.0
  0
SPLINE
  5
471
100
AcDbEntity
  8
IMPORT_IGES
100
AcDbSpline
 62
7
  6
CONTINUOUS
 70
0
 71
3
 72
11
 73
7
 74
0
 42
0.0000001
 43
0.0000001
 44
0.0000000001
 40
0.0
 40
0.0
 40
0.0
 40
0.0
 40
0.2146999587
 40
0.4453849604
 40
0.7055723468
 40
1.0
 40
1.0
 40
1.0
 40
1.0
 10
-11.7149690387
 20
-97.8069376999
 30
0.0
 10
-11.716145618
 20
-97.8394950051
 30
0.0
 10
-11.7306731694
 20
-97.9070699219
 30
0.0
 10
-11.7883671008
 20
-97.9998302622
 30
0.0
 10
-11.8856891074
 20
-98.0732071649
 30
0.0
 10
-11.9701351901
 20
-98.0949695831
 30
0.0
 10
-12.0147862868
 20
-98.0964740063
 30
0.0
  0
SPLINE
  5
472
100
AcDbEntity
  8
IMPORT_IGES
100
AcDbSpline
 62
250
  6
CONTINUOUS
 70
0
 71
3
 72
11
 73
7
 74
0
 42
0.0000001
 43
0.0000001
 44
0.0000000001
 40
0.0
 40
0.0
 40
0.0
 40
0.0
 40
0.2264952292
 40
0.468440177
 40
0.7286610876
 40
1.0
 40
1.0
 40
1.0
 40
1.0
 10
47.2306652823
 20
3.4548514537
 30
0.0
 10
47.2293619075
 20
3.5082202665
 30
0.0
 10
47.1988682932
 20
3.6191992698
 30
0.0
 10
47.0840846955
 20
3.7529199556
 30
0.0
 10
46.9208161394
 20
3.8415189625
 30
0.0
 10
46.7949156102
 20
3.8633783905
 30
0.0
 10
46.7309698742
 20
3.8644275738
 30
0.0
  0
SPLINE
  5
473
100
AcDbEntity
  8
IMPORT_IGES
100
AcDbSpline
 62
250
  6
CONTINUOUS
 70
0
 71
3
 72
11
 73
7
 74
0
 42
0.0000001
 43
0.0000001
 44
0.0000000001
 40
0.0
 40
0.0
 40
0.0
 40
0.0
 40
0.2265020458
 40
0.4684152782
 40
0.7286405515
 40
1.0
 40
1.0
 40
1.0
 40
1.0
 10
47.215116216
 20
3.1430721424
 30
0.0
 10
47.2138126423
 20
3.1964491593
 30
0.0
 10
47.1833695677
 20
3.3074354524
 30
0.0
 10
47.0686560952
 20
3.441262529
 30
0.0
 10
46.9052936222
 20
3.529767312
 30
0.0
 10
46.779379284
 20
3.5515987725
 30
0.0
 10
46.7154208025
 20
3.5526481646
 30
0.0
  0
SPLINE
  5
474
100
AcDbEntity
  8
IMPORT_IGES
100
AcDbSpline
 62
250
  6
CONTINUOUS
 70
0
 71
3
 72
11
 73
7
 74
0
 42
0.0000001
 43
0.0000001
 44
0.0000000001
 40
0.0
 40
0.0
 40
0.0
 40
0.0
 40
0.2713594485
 40
0.5315847218
 40
0.7734979542
 40
1.0
 40
1.0
 40
1.0
 40
1.0
 10
45.3780708506
 20
3.5526481646
 30
0.0
 10
45.314112369
 20
3.5515987725
 30
0.0
 10
45.1881980308
 20
3.529767312
 30
0.0
 10
45.0248355578
 20
3.441262529
 30
0.0
 10
44.9101220854
 20
3.3074354524
 30
0.0
 10
44.8796790108
 20
3.1964491593
 30
0.0
 10
44.878375437
 20
3.1430721424
 30
0.0
  0
SPLINE
  5
475
100
AcDbEntity
  8
IMPORT_IGES
100
AcDbSpline
 62
250
  6
CONTINUOUS
 70
0
 71
3
 72
11
 73
7
 74
0
 42
0.0000001
 43
0.0000001
 44
0.0000000001
 40
0.0
 40
0.0
 40
0.0
 40
0.0
 40
0.2264951776
 40
0.4684401072
 40
0.7286610401
 40
1.0
 40
1.0
 40
1.0
 40
1.0
 10
44.862826366
 20
3.4548515475
 30
0.0
 10
44.8641297368
 20
3.5082203409
 30
0.0
 10
44.8946233519
 20
3.6191993142
 30
0.0
 10
45.0094069564
 20
3.7529199485
 30
0.0
 10
45.1726755159
 20
3.8415189182
 30
0.0
 10
45.2985760441
 20
3.8633783365
 30
0.0
 10
45.3625217826
 20
3.8644275194
 30
0.0
  0
SPLINE
  5
476
100
AcDbEntity
  8
IMPORT_IGES
100
AcDbSpline
 62
250
  6
CONTINUOUS
 70
0
 71
3
 72
17
 73
13
 74
0
 42
0.0000001
 43
0.0000001
 44
0.0000000001
 40
0.0
 40
0.0
 40
0.0
 40
0.0
 40
0.1916481442
 40
0.3760745884
 40
0.5463497516
 40
0.6962926826
 40
0.8202416133
 40
0.913835805
 40
0.9480963277
 40
0.9737082484
 40
0.9907330959
 40
1.0
 40
1.0
 40
1.0
 40
1.0
 10
46.7503319054
 20
93.3120070361
 30
0.0
 10
46.7503319058
 20
93.3441757379
 30
0.0
 10
46.7499050618
 20
93.4073015183
 30
0.0
 10
46.748027425
 20
93.4989929236
 30
0.0
 10
46.7449652944
 20
93.5836440294
 30
0.0
 10
46.7408947816
 20
93.6581039927
 30
0.0
 10
46.7359574566
 20
93.7195687261
 30
0.0
 10
46.731024675
 20
93.7616269569
 30
0.0
 10
46.7265080094
 20
93.7869202787
 30
0.0
 10
46.7233104376
 20
93.7995854634
 30
0.0
 10
46.7204399613
 20
93.8075222584
 30
0.0
 10
46.717529722
 20
93.8115537479
 30
0.0
 10
46.7160206581
 20
93.8119308883
 30
0.0
  0
SPLINE
  5
477
100
AcDbEntity
  8
IMPORT_IGES
100
AcDbSpline
 62
250
  6
CONTINUOUS
 70
0
 71
3
 72
9
 73
5
 74
0
 42
0.0000001
 43
0.0000001
 44
0.0000000001
 40
0.0
 40
0.0
 40
0.0
 40
0.0
 40
0.4365188841
 40
1.0
 40
1.0
 40
1.0
 40
1.0
 10
46.7309709494
 20
3.8644275182
 30
0.0
 10
46.7386779191
 20
3.959525828
 30
0.0
 10
46.7474181416
 20
4.1780408931
 30
0.0
 10
46.7503292968
 20
4.396588929
 30
0.0
 10
46.7503292975
 20
4.5197492042
 30
0.0
  0
SPLINE
  5
478
100
AcDbEntity
  8
IMPORT_IGES
100
AcDbSpline
 62
250
  6
CONTINUOUS
 70
0
 71
3
 72
9
 73
5
 74
0
 42
0.0000001
 43
0.0000001
 44
0.0000000001
 40
0.0
 40
0.0
 40
0.0
 40
0.0
 40
0.5634860445
 40
1.0
 40
1.0
 40
1.0
 40
1.0
 10
45.3431629139
 20
4.5197492042
 30
0.0
 10
45.3431629136
 20
4.3965878606
 30
0.0
 10
45.3460740699
 20
4.1780398388
 30
0.0
 10
45.3548143798
 20
3.9595247953
 30
0.0
 10
45.3625212561
 20
3.8644275655
 30
0.0
  0
SPLINE
  5
479
100
AcDbEntity
  8
IMPORT_IGES
100
AcDbSpline
 62
250
  6
CONTINUOUS
 70
0
 71
3
 72
9
 73
5
 74
0
 42
0.0000001
 43
0.0000001
 44
0.0000000001
 40
0.0
 40
0.0
 40
0.0
 40
0.0
 40
0.4363386159
 40
1.0
 40
1.0
 40
1.0
 40
1.0
 10
44.8628262026
 20
3.4548409277
 30
0.0
 10
44.8551102175
 20
3.6095561598
 30
0.0
 10
44.8463816195
 20
3.9645394217
 30
0.0
 10
44.8434681499
 20
4.3195422188
 30
0.0
 10
44.843467621
 20
4.5196514538
 30
0.0
  0
SPLINE
  5
47A
100
AcDbEntity
  8
IMPORT_IGES
100
AcDbSpline
 62
250
  6
CONTINUOUS
 70
0
 71
3
 72
11
 73
7
 74
0
 42
0.0000001
 43
0.0000001
 44
0.0000000001
 40
0.0
 40
0.0
 40
0.0
 40
0.0
 40
0.2503762096
 40
0.5003856798
 40
0.7501670633
 40
1.0
 40
1.0
 40
1.0
 40
1.0
 10
47.0920250168
 20
-98.4209186207
 30
0.0
 10
47.1572105053
 20
-98.4210371406
 30
0.0
 10
47.2889626289
 20
-98.395342535
 30
0.0
 10
47.4556850872
 20
-98.284413741
 30
0.0
 10
47.5671928581
 20
-98.1182142205
 30
0.0
 10
47.5930570642
 20
-97.9866481572
 30
0.0
 10
47.5929384454
 20
-97.9216041106
 30
0.0
  0
SPLINE
  5
47B
100
AcDbEntity
  8
IMPORT_IGES
100
AcDbSpline
 62
7
  6
CONTINUOUS
 70
0
 71
3
 72
11
 73
7
 74
0
 42
0.0000001
 43
0.0000001
 44
0.0000000001
 40
0.0
 40
0.0
 40
0.0
 40
0.0
 40
0.1760095649
 40
0.39764136
 40
0.6783270431
 40
1.0
 40
1.0
 40
1.0
 40
1.0
 10
47.5929385747
 20
-97.9216039168
 30
0.0
 10
47.5997103214
 20
-98.0341984336
 30
0.0
 10
47.614319377
 20
-98.2886223966
 30
0.0
 10
47.6303741814
 20
-98.7230709205
 30
0.0
 10
47.6409982091
 20
-99.2510461285
 30
0.0
 10
47.6434917198
 20
-99.6370812405
 30
0.0
 10
47.6434916531
 20
-99.8432294471
 30
0.0
  0
SPLINE
  5
47C
100
AcDbEntity
  8
IMPORT_IGES
100
AcDbSpline
 62
250
  6
CONTINUOUS
 70
0
 71
3
 72
9
 73
5
 74
0
 42
0.0000001
 43
0.0000001
 44
0.0000000001
 40
0.0
 40
0.0
 40
0.0
 40
0.0
 40
0.5636549639
 40
1.0
 40
1.0
 40
1.0
 40
1.0
 10
47.2500242722
 20
4.5197491624
 30
0.0
 10
47.2500242723
 20
4.3196230214
 30
0.0
 10
47.2471111742
 20
3.9645861849
 30
0.0
 10
47.2383824634
 20
3.6095688622
 30
0.0
 10
47.2306656563
 20
3.4548365185
 30
0.0
  0
SPLINE
  5
47D
100
AcDbEntity
  8
IMPORT_IGES
100
AcDbSpline
 62
250
  6
CONTINUOUS
 70
0
 71
3
 72
18
 73
14
 74
0
 42
0.0000001
 43
0.0000001
 44
0.0000000001
 40
0.0
 40
0.0
 40
0.0
 40
0.0
 40
0.0072336368
 40
0.0231400196
 40
0.0481618676
 40
0.0821066806
 40
0.1246571324
 40
0.1754395791
 40
0.2997424867
 40
0.4503661178
 40
0.6216670203
 40
0.8071947425
 40
1.0
 40
1.0
 40
1.0
 40
1.0
 10
47.2156623301
 20
94.3120037118
 30
0.0
 10
47.2177657681
 20
94.3108153309
 30
0.0
 10
47.2198963339
 20
94.3022382481
 30
0.0
 10
47.2232048965
 20
94.2873857714
 30
0.0
 10
47.2260986648
 20
94.2620551356
 30
0.0
 10
47.2292313839
 20
94.2284984444
 30
0.0
 10
47.2321745625
 20
94.186011754
 30
0.0
 10
47.2362429936
 20
94.1134725528
 30
0.0
 10
47.2405671382
 20
94.0047484916
 30
0.0
 10
47.2446628978
 20
93.8557786054
 30
0.0
 10
47.2477114311
 20
93.6863192945
 30
0.0
 10
47.2496016555
 20
93.5027590054
 30
0.0
 10
47.2500195135
 20
93.3764007715
 30
0.0
 10
47.2500236376
 20
93.3120067025
 30
0.0
  0
SPLINE
  5
47E
100
AcDbEntity
  8
IMPORT_IGES
100
AcDbSpline
 62
250
  6
CONTINUOUS
 70
0
 71
3
 72
11
 73
7
 74
0
 42
0.0000001
 43
0.0000001
 44
0.0000000001
 40
0.0
 40
0.0
 40
0.0
 40
0.0
 40
0.2500007446
 40
0.5000008808
 40
0.7500010682
 40
1.0
 40
1.0
 40
1.0
 40
1.0
 10
41.4103423259
 20
89.2085391185
 30
0.0
 10
41.2808804248
 20
89.2095913353
 30
0.0
 10
41.019473012
 20
89.2625568343
 30
0.0
 10
40.689574428
 20
89.4854557414
 30
0.0
 10
40.4687446746
 20
89.8167213995
 30
0.0
 10
40.4173534146
 20
90.0784578869
 30
0.0
 10
40.4171556126
 20
90.2079229741
 30
0.0
  0
SPLINE
  5
47F
100
AcDbEntity
  8
IMPORT_IGES
100
AcDbSpline
 62
250
  6
CONTINUOUS
 70
0
 71
3
 72
13
 73
9
 74
0
 42
0.0000001
 43
0.0000001
 44
0.0000000001
 40
0.0
 40
0.0
 40
0.0
 40
0.0
 40
0.1247591655
 40
0.2497134128
 40
0.3748085243
 40
0.4999719201
 40
0.7498605746
 40
1.0
 40
1.0
 40
1.0
 40
1.0
 10
42.4796641643
 20
88.5177693424
 30
0.0
 10
42.4796641643
 20
88.5751044651
 30
0.0
 10
42.4566404618
 20
88.690828244
 30
0.0
 10
42.3660813321
 20
88.8403111956
 30
0.0
 10
42.2405536176
 20
88.9606869207
 30
0.0
 10
42.0457534131
 20
89.0846983801
 30
0.0
 10
41.771206577
 20
89.1809388594
 30
0.0
 10
41.5411271814
 20
89.2069626965
 30
0.0
 10
41.4261803162
 20
89.2083862312
 30
0.0
  0
SPLINE
  5
480
100
AcDbEntity
  8
IMPORT_IGES
100
AcDbSpline
 62
250
  6
CONTINUOUS
 70
0
 71
3
 72
14
 73
10
 74
0
 42
0.0000001
 43
0.0000001
 44
0.0000000001
 40
0.0
 40
0.0
 40
0.0
 40
0.0
 40
0.1248355923
 40
0.2487024106
 40
0.3720868578
 40
0.4958907267
 40
0.6206585396
 40
0.7464627467
 40
1.0
 40
1.0
 40
1.0
 40
1.0
 10
40.1233069316
 20
-100.0662415253
 30
0.0
 10
40.3037751719
 20
-100.0662421332
 30
0.0
 10
40.6647274704
 20
-100.0343477342
 30
0.0
 10
41.1810619763
 20
-99.8640130821
 30
0.0
 10
41.6317210795
 20
-99.5598816152
 30
0.0
 10
41.9823725654
 20
-99.1443051024
 30
0.0
 10
42.2279098787
 20
-98.6576436091
 30
0.0
 10
42.4346101392
 20
-97.9560002729
 30
0.0
 10
42.4796413041
 20
-97.4035109821
 30
0.0
 10
42.479640118
 20
-97.0369855298
 30
0.0
  0
SPLINE
  5
481
100
AcDbEntity
  8
IMPORT_IGES
100
AcDbSpline
 62
250
  6
CONTINUOUS
 70
0
 71
3
 72
11
 73
7
 74
0
 42
0.0000001
 43
0.0000001
 44
0.0000000001
 40
0.0
 40
0.0
 40
0.0
 40
0.0
 40
0.2500053299
 40
0.5000001206
 40
0.7499948975
 40
1.0
 40
1.0
 40
1.0
 40
1.0
 10
47.4434255059
 20
97.5464934227
 30
0.0
 10
47.5084228003
 20
97.5462572773
 30
0.0
 10
47.6398610807
 20
97.520661487
 30
0.0
 10
47.8059201069
 20
97.4092851928
 30
0.0
 10
47.9173005169
 20
97.2432300626
 30
0.0
 10
47.9429026434
 20
97.1117921683
 30
0.0
 10
47.943137755
 20
97.0467949293
 30
0.0
  0
SPLINE
  5
482
100
AcDbEntity
  8
IMPORT_IGES
100
AcDbSpline
 62
250
  6
CONTINUOUS
 70
0
 71
3
 72
11
 73
7
 74
0
 42
0.0000001
 43
0.0000001
 44
0.0000000001
 40
0.0
 40
0.0
 40
0.0
 40
0.0
 40
0.2500704345
 40
0.5001762114
 40
0.7501773081
 40
1.0
 40
1.0
 40
1.0
 40
1.0
 10
-47.1278583582
 20
96.2699695843
 30
0.0
 10
-47.1929249404
 20
96.2701095603
 30
0.0
 10
-47.3245783453
 20
96.244265212
 30
0.0
 10
-47.4907383706
 20
96.132592403
 30
0.0
 10
-47.6013059888
 20
95.9658356341
 30
0.0
 10
-47.6267820986
 20
95.8343049584
 30
0.0
 10
-47.6266406266
 20
95.7693028406
 30
0.0
  0
SPLINE
  5
483
100
AcDbEntity
  8
IMPORT_IGES
100
AcDbSpline
 62
250
  6
CONTINUOUS
 70
0
 71
3
 72
11
 73
7
 74
0
 42
0.0000001
 43
0.0000001
 44
0.0000000001
 40
0.0
 40
0.0
 40
0.0
 40
0.0
 40
0.2503809725
 40
0.5003896042
 40
0.7501718575
 40
1.0
 40
1.0
 40
1.0
 40
1.0
 10
-45.0014666761
 20
-98.420918626
 30
0.0
 10
-44.9362799387
 20
-98.4210371539
 30
0.0
 10
-44.8045252163
 20
-98.3953487249
 30
0.0
 10
-44.6378042877
 20
-98.284411634
 30
0.0
 10
-44.526304932
 20
-98.1182103699
 30
0.0
 10
-44.500434571
 20
-97.9866468979
 30
0.0
 10
-44.5005531926
 20
-97.9216040905
 30
0.0
  0
SPLINE
  5
484
100
AcDbEntity
  8
IMPORT_IGES
100
AcDbSpline
 62
250
  6
CONTINUOUS
 70
0
 71
3
 72
11
 73
7
 74
0
 42
0.0000001
 43
0.0000001
 44
0.0000000001
 40
0.0
 40
0.0
 40
0.0
 40
0.0
 40
0.2265020458
 40
0.4684152782
 40
0.7286405515
 40
1.0
 40
1.0
 40
1.0
 40
1.0
 10
-44.878375437
 20
3.1430721424
 30
0.0
 10
-44.8796790108
 20
3.1964491593
 30
0.0
 10
-44.9101220854
 20
3.3074354524
 30
0.0
 10
-45.0248355578
 20
3.441262529
 30
0.0
 10
-45.1881980308
 20
3.529767312
 30
0.0
 10
-45.314112369
 20
3.5515987725
 30
0.0
 10
-45.3780708506
 20
3.5526481646
 30
0.0
  0
SPLINE
  5
485
100
AcDbEntity
  8
IMPORT_IGES
100
AcDbSpline
 62
250
  6
CONTINUOUS
 70
0
 71
3
 72
11
 73
7
 74
0
 42
0.0000001
 43
0.0000001
 44
0.0000000001
 40
0.0
 40
0.0
 40
0.0
 40
0.0
 40
0.2713594485
 40
0.5315847218
 40
0.7734979542
 40
1.0
 40
1.0
 40
1.0
 40
1.0
 10
-46.7154208025
 20
3.5526481646
 30
0.0
 10
-46.779379284
 20
3.5515987725
 30
0.0
 10
-46.9052936222
 20
3.529767312
 30
0.0
 10
-47.0686560952
 20
3.441262529
 30
0.0
 10
-47.1833695677
 20
3.3074354524
 30
0.0
 10
-47.2138126423
 20
3.1964491593
 30
0.0
 10
-47.215116216
 20
3.1430721424
 30
0.0
  0
SPLINE
  5
486
100
AcDbEntity
  8
IMPORT_IGES
100
AcDbSpline
 62
250
  6
CONTINUOUS
 70
0
 71
3
 72
11
 73
7
 74
0
 42
0.0000001
 43
0.0000001
 44
0.0000000001
 40
0.0
 40
0.0
 40
0.0
 40
0.0
 40
0.2493985386
 40
0.4993754585
 40
0.7497262663
 40
1.0
 40
1.0
 40
1.0
 40
1.0
 10
-47.0920246292
 20
-98.4209186841
 30
0.0
 10
-47.1569556687
 20
-98.4210337675
 30
0.0
 10
-47.2884315337
 20
-98.3955133121
 30
0.0
 10
-47.4552257512
 20
-98.2849010355
 30
0.0
 10
-47.5670943138
 20
-98.1186012679
 30
0.0
 10
-47.5930560228
 20
-97.9867628103
 30
0.0
 10
-47.5929385748
 20
-97.9216039169
 30
0.0
  0
SPLINE
  5
487
100
AcDbEntity
  8
IMPORT_IGES
100
AcDbSpline
 62
7
  6
CONTINUOUS
 70
0
 71
3
 72
11
 73
7
 74
0
 42
0.0000001
 43
0.0000001
 44
0.0000000001
 40
0.0
 40
0.0
 40
0.0
 40
0.0
 40
0.1760094121
 40
0.3976426573
 40
0.6783281202
 40
1.0
 40
1.0
 40
1.0
 40
1.0
 10
-47.5929385747
 20
-97.9216039168
 30
0.0
 10
-47.5997103156
 20
-98.0341983359
 30
0.0
 10
-47.6143194531
 20
-98.2886231273
 30
0.0
 10
-47.6303741708
 20
-98.7230723456
 30
0.0
 10
-47.6409982347
 20
-99.2510476498
 30
0.0
 10
-47.6434917198
 20
-99.6370819308
 30
0.0
 10
-47.6434916531
 20
-99.8432294471
 30
0.0
  0
SPLINE
  5
488
100
AcDbEntity
  8
IMPORT_IGES
100
AcDbSpline
 62
7
  6
CONTINUOUS
 70
0
 71
3
 72
9
 73
5
 74
0
 42
0.0000001
 43
0.0000001
 44
0.0000000001
 40
0.0
 40
0.0
 40
0.0
 40
0.0
 40
0.4467868221
 40
1.0
 40
1.0
 40
1.0
 40
1.0
 10
47.6266406262
 20
95.7693028398
 30
0.0
 10
47.6310787994
 20
95.8967807168
 30
0.0
 10
47.6402741929
 20
96.1821344775
 30
0.0
 10
47.6434947328
 20
96.4676442923
 30
0.0
 10
47.6434916531
 20
96.6255835268
 30
0.0
  0
SPLINE
  5
489
100
AcDbEntity
  8
IMPORT_IGES
100
AcDbSpline
 62
250
  6
CONTINUOUS
 70
0
 71
3
 72
11
 73
7
 74
0
 42
0.0000001
 43
0.0000001
 44
0.0000000001
 40
0.0
 40
0.0
 40
0.0
 40
0.0
 40
0.2498231487
 40
0.4998248876
 40
0.7499308613
 40
1.0
 40
1.0
 40
1.0
 40
1.0
 10
47.6266406266
 20
95.7693028406
 30
0.0
 10
47.6267821164
 20
95.8343050767
 30
0.0
 10
47.6013058712
 20
95.9658360418
 30
0.0
 10
47.4907378473
 20
96.1325929956
 30
0.0
 10
47.3245776983
 20
96.2442653657
 30
0.0
 10
47.1929246025
 20
96.2701096626
 30
0.0
 10
47.1278583581
 20
96.2699695843
 30
0.0
  0
SPLINE
  5
48A
100
AcDbEntity
  8
IMPORT_IGES
100
AcDbSpline
 62
250
  6
CONTINUOUS
 70
0
 71
3
 72
14
 73
10
 74
0
 42
0.0000001
 43
0.0000001
 44
0.0000000001
 40
0.0
 40
0.0
 40
0.0
 40
0.0
 40
0.0258246429
 40
0.0868856901
 40
0.181340524
 40
0.3058047134
 40
0.4557531947
 40
0.6256321744
 40
1.0
 40
1.0
 40
1.0
 40
1.0
 10
32.857752801
 20
-97.7141539376
 30
0.0
 10
32.8589713885
 20
-97.7129354078
 30
0.0
 10
32.8590306943
 20
-97.7064241476
 30
0.0
 10
32.8608727712
 20
-97.6950159931
 30
0.0
 10
32.8615652014
 20
-97.6760301143
 30
0.0
 10
32.8626866197
 20
-97.6515681323
 30
0.0
 10
32.8634312564
 20
-97.6218826754
 30
0.0
 10
32.8642761354
 20
-97.5755851273
 30
0.0
 10
32.8644932326
 20
-97.5392579638
 30
0.0
 10
32.8644932318
 20
-97.5142760542
 30
0.0
  0
SPLINE
  5
48B
100
AcDbEntity
  8
IMPORT_IGES
100
AcDbSpline
 62
250
  6
CONTINUOUS
 70
0
 71
3
 72
11
 73
7
 74
0
 42
0.0000001
 43
0.0000001
 44
0.0000000001
 40
0.0
 40
0.0
 40
0.0
 40
0.0
 40
0.2500049725
 40
0.5000044232
 40
0.7500013706
 40
1.0
 40
1.0
 40
1.0
 40
1.0
 10
-47.4434249783
 20
97.5464934227
 30
0.0
 10
-47.5084222363
 20
97.5463629984
 30
0.0
 10
-47.6398531799
 20
97.5206053636
 30
0.0
 10
-47.8059424655
 20
97.4092992525
 30
0.0
 10
-47.9172267291
 20
97.2432189058
 30
0.0
 10
-47.943043463
 20
97.1117900636
 30
0.0
 10
-47.943137755
 20
97.0467943923
 30
0.0
  0
SPLINE
  5
48C
100
AcDbEntity
  8
IMPORT_IGES
100
AcDbSpline
 62
7
  6
CONTINUOUS
 70
0
 71
3
 72
9
 73
5
 74
0
 42
0.0000001
 43
0.0000001
 44
0.0000000001
 40
0.0
 40
0.0
 40
0.0
 40
0.0
 40
0.4464661662
 40
1.0
 40
1.0
 40
1.0
 40
1.0
 10
-47.6266406266
 20
95.7693028406
 30
0.0
 10
-47.6310756169
 20
95.8966892481
 30
0.0
 10
-47.6402882734
 20
96.1820425706
 30
0.0
 10
-47.6434947346
 20
96.4675527214
 30
0.0
 10
-47.6434916531
 20
96.6255835268
 30
0.0
  0
SPLINE
  5
48D
100
AcDbEntity
  8
IMPORT_IGES
100
AcDbSpline
 62
250
  6
CONTINUOUS
 70
0
 71
3
 72
9
 73
5
 74
0
 42
0.0000001
 43
0.0000001
 44
0.0000000001
 40
0.0
 40
0.0
 40
0.0
 40
0.0
 40
0.4363450361
 40
1.0
 40
1.0
 40
1.0
 40
1.0
 10
-47.2306656563
 20
3.4548365185
 30
0.0
 10
-47.2383824634
 20
3.6095688622
 30
0.0
 10
-47.2471111742
 20
3.9645861849
 30
0.0
 10
-47.2500242723
 20
4.3196230214
 30
0.0
 10
-47.2500242722
 20
4.5197491624
 30
0.0
  0
SPLINE
  5
48E
100
AcDbEntity
  8
IMPORT_IGES
100
AcDbSpline
 62
250
  6
CONTINUOUS
 70
0
 71
3
 72
13
 73
9
 74
0
 42
0.0000001
 43
0.0000001
 44
0.0000000001
 40
0.0
 40
0.0
 40
0.0
 40
0.0
 40
0.374384685
 40
0.6941551675
 40
0.8186506439
 40
0.9131069489
 40
0.9741557356
 40
1.0
 40
1.0
 40
1.0
 40
1.0
 10
-47.7432595896
 20
-100.4069377065
 30
0.0
 10
-47.7432595895
 20
-100.41942918
 30
0.0
 10
-47.7430884851
 20
-100.442571501
 30
0.0
 10
-47.7426023412
 20
-100.4699413344
 30
0.0
 10
-47.7417968278
 20
-100.487813905
 30
0.0
 10
-47.7414500689
 20
-100.497306528
 30
0.0
 10
-47.7405269252
 20
-100.5030106472
 30
0.0
 10
-47.7404991345
 20
-100.506267047
 30
0.0
 10
-47.7398893871
 20
-100.5068767798
 30
0.0
  0
SPLINE
  5
48F
100
AcDbEntity
  8
IMPORT_IGES
100
AcDbSpline
 62
7
  6
CONTINUOUS
 70
0
 71
3
 72
11
 73
7
 74
0
 42
0.0000001
 43
0.0000001
 44
0.0000000001
 40
0.0
 40
0.0
 40
0.0
 40
0.0
 40
0.2944609501
 40
0.5546188524
 40
0.7852953591
 40
1.0
 40
1.0
 40
1.0
 40
1.0
 10
33.0647862868
 20
-98.0964740063
 30
0.0
 10
33.0201305156
 20
-98.0949585438
 30
0.0
 10
32.9356832966
 20
-98.0732087323
 30
0.0
 10
32.8383640095
 20
-97.9998253466
 30
0.0
 10
32.780673986
 20
-97.907070068
 30
0.0
 10
32.7661456434
 20
-97.8394957096
 30
0.0
 10
32.7649690387
 20
-97.8069376999
 30
0.0
  0
LINE
  5
490
100
AcDbEntity
  8
IMPORT_IGES
100
AcDbLine
 62
7
  6
CONTINUOUS
 10
32.7655170717
 20
-98.2774722887
 11
32.7944485385
 21
-98.3066117528
  0
SPLINE
  5
491
100
AcDbEntity
  8
IMPORT_IGES
100
AcDbSpline
 62
250
  6
CONTINUOUS
 70
0
 71
3
 72
16
 73
12
 74
0
 42
0.0000001
 43
0.0000001
 44
0.0000000001
 40
0.0
 40
0.0
 40
0.0
 40
0.0
 40
0.0080982296
 40
0.0252736436
 40
0.0513653821
 40
0.0861804722
 40
0.1807625278
 40
0.3053081669
 40
0.4553799919
 40
0.6253568876
 40
1.0
 40
1.0
 40
1.0
 40
1.0
 10
28.742429067
 20
-98.0139712511
 30
0.0
 10
28.7419279537
 20
-98.0127185032
 30
0.0
 10
28.7416921071
 20
-98.0084214843
 30
0.0
 10
28.7409056417
 20
-97.9999686476
 30
0.0
 10
28.7403957307
 20
-97.9869302595
 30
0.0
 10
28.7394437656
 20
-97.961063043
 30
0.0
 10
28.7385207612
 20
-97.918746518
 30
0.0
 10
28.7375313454
 20
-97.8572487948
 30
0.0
 10
28.7367404337
 20
-97.7831757029
 30
0.0
 10
28.735912764
 20
-97.6674361608
 30
0.0
 10
28.7356886804
 20
-97.5766955036
 30
0.0
 10
28.7356886821
 20
-97.5142757518
 30
0.0
  0
SPLINE
  5
492
100
AcDbEntity
  8
IMPORT_IGES
100
AcDbSpline
 62
250
  6
CONTINUOUS
 70
0
 71
3
 72
16
 73
12
 74
0
 42
0.0000001
 43
0.0000001
 44
0.0000000001
 40
0.0
 40
0.0
 40
0.0
 40
0.0
 40
0.37465524
 40
0.5446625204
 40
0.6947018114
 40
0.8192881969
 40
0.9138245656
 40
0.9486736187
 40
0.9747930462
 40
0.9919339348
 40
1.0
 40
1.0
 40
1.0
 40
1.0
 10
27.5892316567
 20
-97.5142757518
 30
0.0
 10
27.5892316564
 20
-97.5766975452
 30
0.0
 10
27.5890068748
 20
-97.6674453073
 30
0.0
 10
27.5881807229
 20
-97.7831865715
 30
0.0
 10
27.5873880327
 20
-97.8572660829
 30
0.0
 10
27.5864008496
 20
-97.918757655
 30
0.0
 10
27.5854754065
 20
-97.9610789022
 30
0.0
 10
27.5845245127
 20
-97.9869488998
 30
0.0
 10
27.5840149161
 20
-97.9999916992
 30
0.0
 10
27.5832307336
 20
-98.0084386306
 30
0.0
 10
27.5829903446
 20
-98.0127233847
 30
0.0
 10
27.5824912496
 20
-98.0139711686
 30
0.0
  0
SPLINE
  5
493
100
AcDbEntity
  8
IMPORT_IGES
100
AcDbSpline
 62
250
  6
CONTINUOUS
 70
0
 71
3
 72
14
 73
10
 74
0
 42
0.0000001
 43
0.0000001
 44
0.0000000001
 40
0.0
 40
0.0
 40
0.0
 40
0.0
 40
0.3743590544
 40
0.5442335493
 40
0.694179009
 40
0.8186426406
 40
0.913099012
 40
0.9741675687
 40
1.0
 40
1.0
 40
1.0
 40
1.0
 10
34.6105864226
 20
-97.514276084
 30
0.0
 10
34.6105864214
 20
-97.5392573928
 30
0.0
 10
34.6108036309
 20
-97.5755836486
 30
0.0
 10
34.6116485173
 20
-97.621880081
 30
0.0
 10
34.6123931339
 20
-97.6515649823
 30
0.0
 10
34.6135146031
 20
-97.6760268071
 30
0.0
 10
34.6142068315
 20
-97.6950132724
 30
0.0
 10
34.6160494162
 20
-97.7064224091
 30
0.0
 10
34.6161079246
 20
-97.7129349791
 30
0.0
 10
34.6173268352
 20
-97.7141539193
 30
0.0
  0
SPLINE
  5
494
100
AcDbEntity
  8
IMPORT_IGES
100
AcDbSpline
 62
250
  6
CONTINUOUS
 70
0
 71
3
 72
14
 73
10
 74
0
 42
0.0000001
 43
0.0000001
 44
0.0000000001
 40
0.0
 40
0.0
 40
0.0
 40
0.0
 40
0.0258246429
 40
0.0868856901
 40
0.181340524
 40
0.3058047134
 40
0.4557531947
 40
0.6256321744
 40
1.0
 40
1.0
 40
1.0
 40
1.0
 10
27.2826731466
 20
-97.7141539376
 30
0.0
 10
27.2838917341
 20
-97.7129354078
 30
0.0
 10
27.2839510399
 20
-97.7064241476
 30
0.0
 10
27.2857931168
 20
-97.6950159931
 30
0.0
 10
27.286485547
 20
-97.6760301143
 30
0.0
 10
27.2876069653
 20
-97.6515681323
 30
0.0
 10
27.288351602
 20
-97.6218826754
 30
0.0
 10
27.289196481
 20
-97.5755851273
 30
0.0
 10
27.2894135782
 20
-97.5392579638
 30
0.0
 10
27.2894135774
 20
-97.5142760542
 30
0.0
  0
SPLINE
  5
495
100
AcDbEntity
  8
IMPORT_IGES
100
AcDbSpline
 62
250
  6
CONTINUOUS
 70
0
 71
3
 72
11
 73
7
 74
0
 42
0.0000001
 43
0.0000001
 44
0.0000000001
 40
0.0
 40
0.0
 40
0.0
 40
0.0
 40
0.2490265571
 40
0.5000000015
 40
0.750973445
 40
1.0
 40
1.0
 40
1.0
 40
1.0
 10
-9.6706719083
 20
-34.595759849
 30
0.0
 10
-9.708591758
 20
-34.5969032724
 30
0.0
 10
-9.7850172266
 20
-34.614217394
 30
0.0
 10
-9.8815158762
 20
-34.6803582098
 30
0.0
 10
-9.9476566921
 20
-34.7768568589
 30
0.0
 10
-9.9649708135
 20
-34.8532823272
 30
0.0
 10
-9.9661142366
 20
-34.8912021765
 30
0.0
  0
SPLINE
  5
496
100
AcDbEntity
  8
IMPORT_IGES
100
AcDbSpline
 62
250
  6
CONTINUOUS
 70
0
 71
3
 72
11
 73
7
 74
0
 42
0.0000001
 43
0.0000001
 44
0.0000000001
 40
0.0
 40
0.0
 40
0.0
 40
0.0
 40
0.249222699
 40
0.5002176824
 40
0.7510867222
 40
1.0
 40
1.0
 40
1.0
 40
1.0
 10
-9.9615399485
 20
-34.895669845
 30
0.0
 10
-9.9604477166
 20
-34.8576779687
 30
0.0
 10
-9.9432258082
 20
-34.7811098364
 30
0.0
 10
-9.8771129846
 20
-34.6844075313
 30
0.0
 10
-9.7805433071
 20
-34.6181764569
 30
0.0
 10
-9.704042244
 20
-34.6009152452
 30
0.0
 10
-9.6660976226
 20
-34.5998213705
 30
0.0
  0
SPLINE
  5
497
100
AcDbEntity
  8
IMPORT_IGES
100
AcDbSpline
 62
250
  6
CONTINUOUS
 70
0
 71
3
 72
11
 73
7
 74
0
 42
0.0000001
 43
0.0000001
 44
0.0000000001
 40
0.0
 40
0.0
 40
0.0
 40
0.0
 40
0.249026555
 40
0.4999999985
 40
0.7509734429
 40
1.0
 40
1.0
 40
1.0
 40
1.0
 10
9.9661142366
 20
-34.8912021765
 30
0.0
 10
9.9649708135
 20
-34.8532823272
 30
0.0
 10
9.9476566921
 20
-34.7768568589
 30
0.0
 10
9.8815158762
 20
-34.6803582098
 30
0.0
 10
9.7850172266
 20
-34.614217394
 30
0.0
 10
9.7085917579
 20
-34.5969032724
 30
0.0
 10
9.6706719083
 20
-34.595759849
 30
0.0
  0
SPLINE
  5
498
100
AcDbEntity
  8
IMPORT_IGES
100
AcDbSpline
 62
250
  6
CONTINUOUS
 70
0
 71
3
 72
11
 73
7
 74
0
 42
0.0000001
 43
0.0000001
 44
0.0000000001
 40
0.0
 40
0.0
 40
0.0
 40
0.0
 40
0.2492226975
 40
0.5002176794
 40
0.7510867196
 40
1.0
 40
1.0
 40
1.0
 40
1.0
 10
9.9615398756
 20
-34.8956699311
 30
0.0
 10
9.9604476454
 20
-34.8576780537
 30
0.0
 10
9.9432257392
 20
-34.7811099185
 30
0.0
 10
9.8771129148
 20
-34.6844076095
 30
0.0
 10
9.7805432335
 20
-34.618176533
 30
0.0
 10
9.7040421669
 20
-34.6009153218
 30
0.0
 10
9.6660975439
 20
-34.5998214477
 30
0.0
  0
SPLINE
  5
499
100
AcDbEntity
  8
IMPORT_IGES
100
AcDbSpline
 62
250
  6
CONTINUOUS
 70
0
 71
3
 72
9
 73
5
 74
0
 42
0.0000001
 43
0.0000001
 44
0.0000000001
 40
0.0
 40
0.0
 40
0.0
 40
0.0
 40
0.6895860966
 40
1.0
 40
1.0
 40
1.0
 40
1.0
 10
9.9615398404
 20
-34.8956688404
 30
0.0
 10
9.9514814161
 20
-34.9062177123
 30
0.0
 10
9.9365672149
 20
-34.9211101096
 30
0.0
 10
9.9221910519
 20
-34.9367805442
 30
0.0
 10
9.9169912326
 20
-34.9407819067
 30
0.0
  0
SPLINE
  5
49A
100
AcDbEntity
  8
IMPORT_IGES
100
AcDbSpline
 62
250
  6
CONTINUOUS
 70
0
 71
3
 72
9
 73
5
 74
0
 42
0.0000001
 43
0.0000001
 44
0.0000000001
 40
0.0
 40
0.0
 40
0.0
 40
0.0
 40
0.2439398912
 40
1.0
 40
1.0
 40
1.0
 40
1.0
 10
9.9169914887
 20
-47.8394334685
 30
0.0
 10
9.9179652534
 20
-47.8539192788
 30
0.0
 10
9.9247666272
 20
-47.9131045705
 30
0.0
 10
9.9429834501
 20
-47.9707732879
 30
0.0
 10
9.9615399527
 20
-48.0117671401
 30
0.0
  0
SPLINE
  5
49B
100
AcDbEntity
  8
IMPORT_IGES
100
AcDbSpline
 62
250
  6
CONTINUOUS
 70
0
 71
3
 72
11
 73
7
 74
0
 42
0.0000001
 43
0.0000001
 44
0.0000000001
 40
0.0
 40
0.0
 40
0.0
 40
0.0
 40
0.2614391731
 40
0.5197475463
 40
0.7668780983
 40
1.0
 40
1.0
 40
1.0
 40
1.0
 10
9.8123629226
 20
-48.6283211715
 30
0.0
 10
9.8490805678
 20
-48.625489904
 30
0.0
 10
9.9216501283
 20
-48.6079926669
 30
0.0
 10
10.0152427711
 20
-48.5505713553
 30
0.0
 10
10.0828977429
 20
-48.4688611661
 30
0.0
 10
10.1045141162
 20
-48.4025048508
 30
0.0
 10
10.1078052774
 20
-48.3698323585
 30
0.0
  0
SPLINE
  5
49C
100
AcDbEntity
  8
IMPORT_IGES
100
AcDbSpline
 62
250
  6
CONTINUOUS
 70
0
 71
3
 72
11
 73
7
 74
0
 42
0.0000001
 43
0.0000001
 44
0.0000000001
 40
0.0
 40
0.0
 40
0.0
 40
0.0
 40
0.2434135122
 40
0.4932836826
 40
0.7469983308
 40
1.0
 40
1.0
 40
1.0
 40
1.0
 10
10.0067145465
 20
-48.1024916307
 30
0.0
 10
10.004537134
 20
-48.1384475441
 30
0.0
 10
9.9852784514
 20
-48.2110716705
 30
0.0
 10
9.9184790504
 20
-48.3020654882
 30
0.0
 10
9.823384719
 20
-48.3652698452
 30
0.0
 10
9.7486554204
 20
-48.3832099428
 30
0.0
 10
9.7112722206
 20
-48.3852840779
 30
0.0
  0
SPLINE
  5
49D
100
AcDbEntity
  8
IMPORT_IGES
100
AcDbSpline
 62
250
  6
CONTINUOUS
 70
0
 71
3
 72
9
 73
5
 74
0
 42
0.0000001
 43
0.0000001
 44
0.0000000001
 40
0.0
 40
0.0
 40
0.0
 40
0.0
 40
0.2171908714
 40
1.0
 40
1.0
 40
1.0
 40
1.0
 10
10.0067144769
 20
-48.1024927857
 30
0.0
 10
10.0159442938
 20
-48.121029082
 30
0.0
 10
10.0556927957
 20
-48.207743486
 30
0.0
 10
10.0864034699
 20
-48.2983379089
 30
0.0
 10
10.1078060964
 20
-48.3698367128
 30
0.0
  0
SPLINE
  5
49E
100
AcDbEntity
  8
IMPORT_IGES
100
AcDbSpline
 62
250
  6
CONTINUOUS
 70
0
 71
3
 72
9
 73
5
 74
0
 42
0.0000001
 43
0.0000001
 44
0.0000000001
 40
0.0
 40
0.0
 40
0.0
 40
0.0
 40
0.2819328851
 40
1.0
 40
1.0
 40
1.0
 40
1.0
 10
9.8123623149
 20
-48.6283212852
 30
0.0
 10
9.8046202548
 20
-48.6048090662
 30
0.0
 10
9.7758139588
 20
-48.5219062155
 30
0.0
 10
9.741558586
 20
-48.4405801202
 30
0.0
 10
9.7112715704
 20
-48.3852841175
 30
0.0
  0
SPLINE
  5
49F
100
AcDbEntity
  8
IMPORT_IGES
100
AcDbSpline
 62
250
  6
CONTINUOUS
 70
0
 71
3
 72
9
 73
5
 74
0
 42
0.0000001
 43
0.0000001
 44
0.0000000001
 40
0.0
 40
0.0
 40
0.0
 40
0.0
 40
0.2182993719
 40
1.0
 40
1.0
 40
1.0
 40
1.0
 10
-9.7112721291
 20
-48.3852840834
 30
0.0
 10
-9.7204808374
 20
-48.4020967261
 30
0.0
 10
-9.7600514776
 20
-48.4805453537
 30
0.0
 10
-9.7908941519
 20
-48.5631219134
 30
0.0
 10
-9.812362866
 20
-48.628321245
 30
0.0
  0
SPLINE
  5
4A0
100
AcDbEntity
  8
IMPORT_IGES
100
AcDbSpline
 62
250
  6
CONTINUOUS
 70
0
 71
3
 72
11
 73
7
 74
0
 42
0.0000001
 43
0.0000001
 44
0.0000000001
 40
0.0
 40
0.0
 40
0.0
 40
0.0
 40
0.2530016692
 40
0.5067163174
 40
0.7565864878
 40
1.0
 40
1.0
 40
1.0
 40
1.0
 10
-9.7112722206
 20
-48.385284078
 30
0.0
 10
-9.7486554204
 20
-48.3832099428
 30
0.0
 10
-9.823384719
 20
-48.3652698453
 30
0.0
 10
-9.9184790504
 20
-48.3020654882
 30
0.0
 10
-9.9852784514
 20
-48.2110716706
 30
0.0
 10
-10.004537134
 20
-48.1384475441
 30
0.0
 10
-10.0067145465
 20
-48.1024916307
 30
0.0
  0
SPLINE
  5
4A1
100
AcDbEntity
  8
IMPORT_IGES
100
AcDbSpline
 62
250
  6
CONTINUOUS
 70
0
 71
3
 72
11
 73
7
 74
0
 42
0.0000001
 43
0.0000001
 44
0.0000000001
 40
0.0
 40
0.0
 40
0.0
 40
0.0
 40
0.2614391731
 40
0.5197475463
 40
0.7668780983
 40
1.0
 40
1.0
 40
1.0
 40
1.0
 10
-9.8123629226
 20
-48.6283211715
 30
0.0
 10
-9.8490805679
 20
-48.625489904
 30
0.0
 10
-9.9216501284
 20
-48.6079926669
 30
0.0
 10
-10.0152427711
 20
-48.5505713553
 30
0.0
 10
-10.0828977429
 20
-48.468861166
 30
0.0
 10
-10.1045141162
 20
-48.4025048508
 30
0.0
 10
-10.1078052774
 20
-48.3698323585
 30
0.0
  0
SPLINE
  5
4A2
100
AcDbEntity
  8
IMPORT_IGES
100
AcDbSpline
 62
250
  6
CONTINUOUS
 70
0
 71
3
 72
9
 73
5
 74
0
 42
0.0000001
 43
0.0000001
 44
0.0000000001
 40
0.0
 40
0.0
 40
0.0
 40
0.0
 40
0.2829456683
 40
1.0
 40
1.0
 40
1.0
 40
1.0
 10
-10.1078060962
 20
-48.3698367122
 30
0.0
 10
-10.1000710156
 20
-48.343996472
 30
0.0
 10
-10.0713642033
 20
-48.25312977
 30
0.0
 10
-10.037183195
 20
-48.1636832941
 30
0.0
 10
-10.0067144769
 20
-48.1024927857
 30
0.0
  0
SPLINE
  5
4A3
100
AcDbEntity
  8
IMPORT_IGES
100
AcDbSpline
 62
250
  6
CONTINUOUS
 70
0
 71
3
 72
11
 73
7
 74
0
 42
0.0000001
 43
0.0000001
 44
0.0000000001
 40
0.0
 40
0.0
 40
0.0
 40
0.0
 40
0.2434135122
 40
0.4932836826
 40
0.7469983309
 40
1.0
 40
1.0
 40
1.0
 40
1.0
 10
-9.9615399486
 20
-48.0117672046
 30
0.0
 10
-9.959362536
 20
-48.0477231179
 30
0.0
 10
-9.9401038535
 20
-48.1203472444
 30
0.0
 10
-9.8733044525
 20
-48.2113410621
 30
0.0
 10
-9.7782101212
 20
-48.2745454192
 30
0.0
 10
-9.7034808225
 20
-48.2924855168
 30
0.0
 10
-9.6660976227
 20
-48.2945596519
 30
0.0
  0
SPLINE
  5
4A4
100
AcDbEntity
  8
IMPORT_IGES
100
AcDbSpline
 62
250
  6
CONTINUOUS
 70
0
 71
3
 72
11
 73
7
 74
0
 42
0.0000001
 43
0.0000001
 44
0.0000000001
 40
0.0
 40
0.0
 40
0.0
 40
0.0
 40
0.2563904836
 40
0.5094935234
 40
0.7570630033
 40
1.0
 40
1.0
 40
1.0
 40
1.0
 10
-9.6170940253
 20
-48.1222259257
 30
0.0
 10
-9.6558557198
 20
-48.1219065856
 30
0.0
 10
-9.7335197357
 20
-48.1069144622
 30
0.0
 10
-9.8325637194
 20
-48.0444444627
 30
0.0
 10
-9.9000974577
 20
-47.9510127301
 30
0.0
 10
-9.9166511461
 20
-47.8761609761
 30
0.0
 10
-9.9169914834
 20
-47.8394335407
 30
0.0
  0
SPLINE
  5
4A5
100
AcDbEntity
  8
IMPORT_IGES
100
AcDbSpline
 62
250
  6
CONTINUOUS
 70
0
 71
3
 72
9
 73
5
 74
0
 42
0.0000001
 43
0.0000001
 44
0.0000000001
 40
0.0
 40
0.0
 40
0.0
 40
0.0
 40
0.3104139034
 40
1.0
 40
1.0
 40
1.0
 40
1.0
 10
-9.9169912326
 20
-34.9407819067
 30
0.0
 10
-9.9221910519
 20
-34.9367805442
 30
0.0
 10
-9.9365672149
 20
-34.9211101096
 30
0.0
 10
-9.9514814161
 20
-34.9062177123
 30
0.0
 10
-9.9615398404
 20
-34.8956688404
 30
0.0
  0
SPLINE
  5
4A6
100
AcDbEntity
  8
IMPORT_IGES
100
AcDbSpline
 62
250
  6
CONTINUOUS
 70
0
 71
3
 72
9
 73
5
 74
0
 42
0.0000001
 43
0.0000001
 44
0.0000000001
 40
0.0
 40
0.0
 40
0.0
 40
0.0
 40
0.2587955384
 40
1.0
 40
1.0
 40
1.0
 40
1.0
 10
-9.9615399527
 20
-48.0117671401
 30
0.0
 10
-9.9551888856
 20
-47.9977367642
 30
0.0
 10
-9.932814929
 20
-47.9425850556
 30
0.0
 10
-9.9199499055
 20
-47.8834431379
 30
0.0
 10
-9.9169914887
 20
-47.8394334685
 30
0.0
  0
SPLINE
  5
4A7
100
AcDbEntity
  8
IMPORT_IGES
100
AcDbSpline
 62
250
  6
CONTINUOUS
 70
0
 71
3
 72
9
 73
5
 74
0
 42
0.0000001
 43
0.0000001
 44
0.0000000001
 40
0.0
 40
0.0
 40
0.0
 40
0.0
 40
0.3118792686
 40
1.0
 40
1.0
 40
1.0
 40
1.0
 10
9.6170951623
 20
-34.6408333555
 30
0.0
 10
9.6227014069
 20
-34.6372679734
 30
0.0
 10
9.6386474586
 20
-34.6229637063
 30
0.0
 10
9.6550208512
 20
-34.6094230978
 30
0.0
 10
9.6660980567
 20
-34.5998219911
 30
0.0
  0
SPLINE
  5
4A8
100
AcDbEntity
  8
IMPORT_IGES
100
AcDbSpline
 62
250
  6
CONTINUOUS
 70
0
 71
3
 72
9
 73
5
 74
0
 42
0.0000001
 43
0.0000001
 44
0.0000000001
 40
0.0
 40
0.0
 40
0.0
 40
0.0
 40
0.6881207318
 40
1.0
 40
1.0
 40
1.0
 40
1.0
 10
-9.6660980576
 20
-34.5998219903
 30
0.0
 10
-9.6550208519
 20
-34.6094230972
 30
0.0
 10
-9.638647459
 20
-34.6229637059
 30
0.0
 10
-9.622701407
 20
-34.6372679733
 30
0.0
 10
-9.6170951623
 20
-34.6408333555
 30
0.0
  0
SPLINE
  5
4A9
100
AcDbEntity
  8
IMPORT_IGES
100
AcDbSpline
 62
250
  6
CONTINUOUS
 70
0
 71
3
 72
11
 73
7
 74
0
 42
0.0000001
 43
0.0000001
 44
0.0000000001
 40
0.0
 40
0.0
 40
0.0
 40
0.0
 40
0.2530016691
 40
0.5067163174
 40
0.7565864878
 40
1.0
 40
1.0
 40
1.0
 40
1.0
 10
9.6660976227
 20
-48.2945596519
 30
0.0
 10
9.7034808225
 20
-48.2924855168
 30
0.0
 10
9.7782101212
 20
-48.2745454192
 30
0.0
 10
9.8733044525
 20
-48.2113410621
 30
0.0
 10
9.9401038535
 20
-48.1203472444
 30
0.0
 10
9.959362536
 20
-48.0477231179
 30
0.0
 10
9.9615399486
 20
-48.0117672046
 30
0.0
  0
SPLINE
  5
4AA
100
AcDbEntity
  8
IMPORT_IGES
100
AcDbSpline
 62
250
  6
CONTINUOUS
 70
0
 71
3
 72
11
 73
7
 74
0
 42
0.0000001
 43
0.0000001
 44
0.0000000001
 40
0.0
 40
0.0
 40
0.0
 40
0.0
 40
0.2429369967
 40
0.4905064766
 40
0.7436095164
 40
1.0
 40
1.0
 40
1.0
 40
1.0
 10
9.9169914834
 20
-47.8394335407
 30
0.0
 10
9.9166511461
 20
-47.8761609761
 30
0.0
 10
9.9000974577
 20
-47.9510127301
 30
0.0
 10
9.8325637194
 20
-48.0444444627
 30
0.0
 10
9.7335197357
 20
-48.1069144622
 30
0.0
 10
9.6558557198
 20
-48.1219065856
 30
0.0
 10
9.6170940253
 20
-48.1222259257
 30
0.0
  0
SPLINE
  5
4AB
100
AcDbEntity
  8
IMPORT_IGES
100
AcDbSpline
 62
250
  6
CONTINUOUS
 70
0
 71
3
 72
9
 73
5
 74
0
 42
0.0000001
 43
0.0000001
 44
0.0000000001
 40
0.0
 40
0.0
 40
0.0
 40
0.0
 40
0.2607312357
 40
1.0
 40
1.0
 40
1.0
 40
1.0
 10
9.6660961287
 20
-48.2945597344
 30
0.0
 10
9.6591310241
 20
-48.2805716797
 30
0.0
 10
9.6346853701
 20
-48.2258489747
 30
0.0
 10
9.6203592674
 20
-48.1664073121
 30
0.0
 10
9.6170924452
 20
-48.122221879
 30
0.0
  0
SPLINE
  5
4AC
100
AcDbEntity
  8
IMPORT_IGES
100
AcDbSpline
 62
250
  6
CONTINUOUS
 70
0
 71
3
 72
9
 73
5
 74
0
 42
0.0000001
 43
0.0000001
 44
0.0000000001
 40
0.0
 40
0.0
 40
0.0
 40
0.0
 40
0.2425448844
 40
1.0
 40
1.0
 40
1.0
 40
1.0
 10
-9.6170924452
 20
-48.122221879
 30
0.0
 10
-9.6181644279
 20
-48.136720991
 30
0.0
 10
-9.6256951758
 20
-48.1962649537
 30
0.0
 10
-9.6458582959
 20
-48.2539159925
 30
0.0
 10
-9.6660961287
 20
-48.2945597344
 30
0.0
  0
SPLINE
  5
4AD
100
AcDbEntity
  8
DRAFT
100
AcDbSpline
 62
250
  6
CONTINUOUS
 70
0
 71
3
 72
8
 73
4
 74
0
 42
0.0000001
 43
0.0000001
 44
0.0000000001
 40
0.0
 40
0.0
 40
0.0
 40
0.0
 40
1.0
 40
1.0
 40
1.0
 40
1.0
 10
3.0845173031
 20
92.139025794
 30
0.0
 10
1.028094349
 20
92.1370121642
 30
0.0
 10
-1.0283315627
 20
92.1370122858
 30
0.0
 10
-3.0847545166
 20
92.1390260163
 30
0.0
  0
LINE
  5
4AE
100
AcDbEntity
  8
RACCORDO
100
AcDbLine
 62
250
  6
CONTINUOUS
 10
4.1680520049
 20
96.7870616571
 11
4.1632359812
 21
96.6980884731
  0
ELLIPSE
  5
4AF
100
AcDbEntity
  8
IMPORT_IGES
100
AcDbEllipse
 62
7
  6
CONTINUOUS
 10
-32.9
 20
-104.9966443323
 30
0.0
 11
4.0
 21
0.0
 31
0.0
 40
0.0874886635
 41
0.3248124177
 42
2.8677237525
  0
ELLIPSE
  5
4B0
100
AcDbEntity
  8
IMPORT_IGES
100
AcDbEllipse
 62
7
  6
CONTINUOUS
 10
-9.4498971622
 20
-34.9966557558
 30
0.0
 11
0.2847191654
 21
-0.0948871136
 31
0.0
 40
0.9996192872
 41
1.8926001863
 42
3.463168079
  0
ELLIPSE
  5
4B1
100
AcDbEntity
  8
IMPORT_IGES
100
AcDbEllipse
 62
7
  6
CONTINUOUS
 10
-7.7852137132
 20
-98.2760089344
 30
0.0
 11
0.3
 21
-0.0
 31
0.0
 40
0.0699268119
 41
-3.1066860685
 42
-3.0717794835
  0
ELLIPSE
  5
4B2
100
AcDbEntity
  8
IMPORT_IGES
100
AcDbEllipse
 62
7
  6
CONTINUOUS
 10
-5.8492194209
 20
93.6234215775
 30
0.0
 11
0.4333645867
 21
0.2502031608
 31
0.0
 40
0.9991880166
 41
2.6183455486
 42
3.6648397559
  0
ELLIPSE
  5
4B3
100
AcDbEntity
  8
IMPORT_IGES
100
AcDbEllipse
 62
7
  6
CONTINUOUS
 10
-11.0502987633
 20
-60.646345569
 30
0.0
 11
0.2121966568
 21
-0.2121966568
 31
0.0
 40
0.9996954599
 41
-0.7852458702
 42
0.7852458702
  0
ELLIPSE
  5
4B4
100
AcDbEntity
  8
IMPORT_IGES
100
AcDbEllipse
 62
7
  6
CONTINUOUS
 10
-9.8915059189
 20
-34.6703681683
 30
0.0
 11
0.2186280137
 21
-0.2186280137
 31
0.0
 40
0.9702875252
 41
2.3712736208
 42
3.9119116864
  0
ELLIPSE
  5
4B5
100
AcDbEntity
  8
IMPORT_IGES
100
AcDbEllipse
 62
7
  6
CONTINUOUS
 10
-9.8915059189
 20
-48.6342205444
 30
0.0
 11
0.1009930626
 21
0.337381494
 31
0.0
 40
0.8518538912
 41
-4.3744650295
 42
-2.89191631
  0
ELLIPSE
  5
4B6
100
AcDbEntity
  8
IMPORT_IGES
100
AcDbEllipse
 62
7
  6
CONTINUOUS
 10
27.5001828633
 20
-97.796461469
 30
0.0
 11
0.2123905634
 21
0.2123905634
 31
0.0
 40
0.998782766
 41
-3.9263818295
 42
-2.3568034777
  0
ELLIPSE
  5
4B7
100
AcDbEntity
  8
IMPORT_IGES
100
AcDbEllipse
 62
7
  6
CONTINUOUS
 10
5.8492194209
 20
93.6234215775
 30
0.0
 11
0.4333645867
 21
-0.2502031608
 31
0.0
 40
0.9991880166
 41
-0.5232471023
 42
0.523247105
  0
ELLIPSE
  5
4B8
100
AcDbEntity
  8
IMPORT_IGES
100
AcDbEllipse
 62
7
  6
CONTINUOUS
 10
11.0502987633
 20
-60.646345569
 30
0.0
 11
-0.2121966568
 21
-0.2121966568
 31
0.0
 40
0.9996954599
 41
-0.7852458702
 42
0.7852458702
  0
ELLIPSE
  5
4B9
100
AcDbEntity
  8
IMPORT_IGES
100
AcDbEllipse
 62
7
  6
CONTINUOUS
 10
33.0647862868
 20
-98.2760089344
 30
0.0
 11
0.3
 21
0.0
 31
0.0
 40
0.0699268119
 41
-3.1066860685
 42
-3.0717794835
  0
ELLIPSE
  5
4BA
100
AcDbEntity
  8
IMPORT_IGES
100
AcDbEllipse
 62
7
  6
CONTINUOUS
 10
9.8915059189
 20
-34.6703681683
 30
0.0
 11
-0.2186280137
 21
-0.2186280137
 31
0.0
 40
0.9702875252
 41
2.3712736208
 42
3.9119116864
  0
ELLIPSE
  5
4BB
100
AcDbEntity
  8
IMPORT_IGES
100
AcDbEllipse
 62
7
  6
CONTINUOUS
 10
9.8915059189
 20
-48.6342205444
 30
0.0
 11
-0.1009930626
 21
0.337381494
 31
0.0
 40
0.8518538912
 41
2.89191631
 42
4.3744650295
  0
ELLIPSE
  5
4BC
100
AcDbEntity
  8
RACCORDO
100
AcDbEllipse
 62
7
  6
CONTINUOUS
 10
-50.2497866595
 20
98.9527016272
 30
0.0
 11
-0.1739687276
 21
0.3047007085
 31
0.0
 40
0.9975290257
 41
-0.5177203068
 42
1.0509454551
  0
ELLIPSE
  5
4BD
100
AcDbEntity
  8
RACCORDO
100
AcDbEllipse
 62
7
  6
CONTINUOUS
 10
50.2497866595
 20
98.9527016272
 30
0.0
 11
-0.1739687276
 21
-0.3047007085
 31
0.0
 40
0.9975290257
 41
2.0906471985
 42
3.6593129604
  0
ENDSEC
  0
SECTION
  2
OBJECTS
  0
DICTIONARY
  5
C
100
AcDbDictionary
280
0
281
1
  3
ACAD_GROUP
350
D
  3
ACAD_MLINESTYLE
350
17
  3
ACAD_LAYOUT
350
1A
  3
ACAD_PLOTSETTINGS
350
19
  3
ACAD_PLOTSTYLENAME
350
E
  0
DICTIONARY
  5
D
102
{ACAD_REACTORS
330
C
102
}
100
AcDbDictionary
280
0
281
1
  0
ACDBDICTIONARYWDFLT
  5
E
102
{ACAD_REACTORS
330
C
102
}
100
AcDbDictionary
281
1
  3
Normal
350
F
100
AcDbDictionaryWithDefault
340
F
  0
DICTIONARY
  5
17
102
{ACAD_REACTORS
330
C
102
}
100
AcDbDictionary
280
0
281
1
  3
Standard
350
18
  0
DICTIONARY
  5
19
102
{ACAD_REACTORS
330
C
102
}
100
AcDbDictionary
281
1
  0
DICTIONARY
  5
1A
102
{ACAD_REACTORS
330
C
102
}
100
AcDbDictionary
281
1
  3
Model
350
4BE
  3
Layout1
350
4BF
  0
ACDBPLACEHOLDER
  5
F
102
{ACAD_REACTORS
330
E
102
}
  0
MLINESTYLE
  5
18
102
{ACAD_REACTORS
330
17
102
}
100
AcDbMlineStyle
  2
STANDARD
 70
0
  3

 62
256
 51
90.0
 52
90.0
 71
2
 49
0.5
 62
256
  6
BYLAYER
 49
-0.5
 62
256
  6
BYLAYER
  0
LAYOUT
  5
4BE
102
{ACAD_REACTORS
330
1A
102
}
100
AcDbPlotSettings
  1

  2
none_device
  4
ANSI_C_(22.00_x_17.00_Inches)
  6

 40
0.0
 41
0.0
 42
0.0
 43
0.0
 44
558.8
 45
431.8
 46
0.0
 47
0.0
 48
0.0
 49
0.0
140
0.0
141
0.0
142
1.0
143
1.0
 70
1024
 72
1
 73
0
 74
0
  7

 75
0
147
1.0
148
0.0
149
0.0
100
AcDbLayout
  1
Model
 70
0
 71
0
 10
0.0
 20
0.0
 11
558.8
 21
431.8
 12
0.0
 22
0.0
 32
0.0
 14
0.0
 24
0.0
 34
0.0
 15
0.0
 25
0.0
 35
0.0
146
0.0
 13
0.0
 23
0.0
 33
0.0
 16
1.0
 26
0.0
 36
0.0
 17
0.0
 27
1.0
 37
0.0
 76
0
330
227
345
0
346
0
  0
LAYOUT
  5
4BF
102
{ACAD_REACTORS
330
1A
102
}
100
AcDbPlotSettings
  1

  2
none_device
  4
ANSI_C_(22.00_x_17.00_Inches)
  6

 40
0.0
 41
0.0
 42
0.0
 43
0.0
 44
558.8
 45
431.8
 46
0.0
 47
0.0
 48
0.0
 49
0.0
140
0.0
141
0.0
142
1.0
143
1.0
 70
0
 72
1
 73
0
 74
0
  7

 75
0
147
1.0
148
0.0
149
0.0
100
AcDbLayout
  1
Layout1
 70
0
 71
1
 10
0.0
 20
0.0
 11
558.8
 21
431.8
 12
0.0
 22
0.0
 32
0.0
 14
0.0
 24
0.0
 34
0.0
 15
0.0
 25
0.0
 35
0.0
146
0.0
 13
0.0
 23
0.0
 33
0.0
 16
1.0
 26
0.0
 36
0.0
 17
0.0
 27
1.0
 37
0.0
 76
0
330
228
345
0
346
0
  0
ENDSEC
  0
EOF
