  0
SECTION
  2
HEADER
  9
$ACADVER
  1
AC1015
  9
$DWGCODEPAGE
  3
ANSI_1252
  9
$EXTMAX
 10
297.0
 20
210.0
 30
0.0
  9
$EXTMIN
 10
0.0
 20
0.0
 30
0.0
  9
$LIMMIN
 10
0.0
 20
0.0
  9
$LIMMAX
 10
297.0
 20
210.0
  9
$VIEWCTR
 10
148.5
 20
105.0
  9
$VIEWSIZE
 40
210.0
  9
$CLAYER
  8
0
  9
$LTSCALE
 40
16.335
  9
$CELTYPE
  6
BYLAYER
  9
$DIMSCALE
 40
1.0
  9
$DIMASZ
 40
3.0
  9
$DIMEXO
 40
0.5
  9
$DIMDLI
 40
11.286
  9
$DIMEXE
 40
1.5
  9
$DIMCEN
 40
2.673
  9
$DIMLFAC
 40
1.0
  9
$DIMBLK
  1
_FILLED
  9
$DIMTXT
 40
3.0
  9
$DIMTOL
 70
1
  9
$DIMLIM
 70
0
  9
$DIMTFAC
 40
1.0
  9
$DIMTP
 40
0.01
  9
$DIMTM
 40
0.01
  9
$DIMGAP
 40
0.625
  9
$DIMDSEP
 70
44
  9
$PDMODE
 70
3
  9
$PDSIZE
 40
3.0
  9
$HANDSEED
  5
7A3
  9
$TILEMODE
 70
1
  9
$MEASUREMENT
 70
1
  9
$INSUNITS
 70
4
  0
ENDSEC
  0
SECTION
  2
CLASSES
  0
CLASS
  1
ACDBDICTIONARYWDFLT
  2
AcDbDictionaryWithDefault
  3
AutoCAD 2000
 90
0
280
0
281
0
  0
CLASS
  1
ACDBPLACEHOLDER
  2
AcDbPlaceHolder
  3
AutoCAD 2000
 90
0
280
0
281
0
  0
CLASS
  1
LAYOUT
  2
AcDbLayout
  3
AutoCAD 2000
 90
0
280
0
281
0
  0
ENDSEC
  0
SECTION
  2
TABLES
  0
TABLE
  2
VPORT
  5
8
100
AcDbSymbolTable
 70
2
  0
VPORT
  5
1F4
100
AcDbSymbolTableRecord
100
AcDbViewportTableRecord
  2
*ACTIVE
 70
0
 10
0.0
 20
0.0
 11
1.0
 21
1.0
 12
148.5
 22
105.0
 13
0.0
 23
0.0
 14
1.0
 24
1.0
 15
0.0
 25
0.0
 16
0.0
 26
0.0
 36
1.0
 17
0.0
 27
0.0
 37
0.0
 40
210.0
 41
1.4142857143
 42
50.0
 43
0.0
 44
0.0
 50
0.0
 51
0.0
 71
0
 72
100
 73
1
 74
1
 75
0
 76
0
 77
0
 78
0
  0
ENDTAB
  0
TABLE
  2
LTYPE
  5
5
100
AcDbSymbolTable
 70
6
  0
LTYPE
  5
14
100
AcDbSymbolTableRecord
100
AcDbLinetypeTableRecord
  2
BYBLOCK
 70
0
  3

 72
65
 73
0
 40
0.0
  0
LTYPE
  5
15
100
AcDbSymbolTableRecord
100
AcDbLinetypeTableRecord
  2
BYLAYER
 70
0
  3

 72
65
 73
0
 40
0.0
  0
LTYPE
  5
16
100
AcDbSymbolTableRecord
100
AcDbLinetypeTableRecord
  2
CONTINUOUS
 70
64
  3
Solid line
 72
65
 73
0
 40
0.0
  0
LTYPE
  5
1F5
100
AcDbSymbolTableRecord
100
AcDbLinetypeTableRecord
  2
CENTER
 70
64
  3
____ _ ____ _ ____ _ ____ _ ____ _ ____ _ ____
 72
65
 73
4
 40
0.6
 49
0.375
 74
0
 49
-0.075
 74
0
 49
0.075
 74
0
 49
-0.075
 74
0
  0
LTYPE
  5
1F6
100
AcDbSymbolTableRecord
100
AcDbLinetypeTableRecord
  2
HIDDEN
 70
64
  3
- - - - - - - - - - - - - - - - - - - -
 72
65
 73
2
 40
0.2
 49
0.1
 74
0
 49
-0.1
 74
0
  0
LTYPE
  5
1F7
100
AcDbSymbolTableRecord
100
AcDbLinetypeTableRecord
  2
PHANTOM
 70
64
  3
_____ _ _ _____ _ _ _____ _ _ _____
 72
65
 73
6
 40
0.8
 49
0.45
 74
0
 49
-0.05
 74
0
 49
0.1
 74
0
 49
-0.05
 74
0
 49
0.1
 74
0
 49
-0.05
 74
0
  0
LTYPE
  5
1F8
100
AcDbSymbolTableRecord
100
AcDbLinetypeTableRecord
  2
DOT
 70
64
  3
. . . . . . . . . . . . . . . . . . . .
 72
65
 73
2
 40
0.2
 49
0.1
 74
0
 49
-0.1
 74
0
  0
LTYPE
  5
1F9
100
AcDbSymbolTableRecord
100
AcDbLinetypeTableRecord
  2
DASHED
 70
64
  3
- - - - - - - - - - - - - - - - - - - -
 72
65
 73
2
 40
0.2
 49
0.1
 74
0
 49
-0.1
 74
0
  0
ENDTAB
  0
TABLE
  2
LAYER
  5
2
100
AcDbSymbolTable
 70
36
  0
LAYER
  5
10
100
AcDbSymbolTableRecord
100
AcDbLayerTableRecord
  2
0
 70
0
 62
7
  6
CONTINUOUS
370
-3
390
F
  0
LAYER
  5
1FA
100
AcDbSymbolTableRecord
100
AcDbLayerTableRecord
  2
DEFAULT_1
 70
0
 62
7
  6
CENTER
370
-3
390
F
  0
LAYER
  5
1FB
100
AcDbSymbolTableRecord
100
AcDbLayerTableRecord
  2
DEFAULT_2
 70
0
 62
7
  6
HIDDEN
370
-3
390
F
  0
LAYER
  5
1FC
100
AcDbSymbolTableRecord
100
AcDbLayerTableRecord
  2
DEFAULT_3
 70
0
 62
7
  6
PHANTOM
370
-3
390
F
  0
LAYER
  5
1FD
100
AcDbSymbolTableRecord
100
AcDbLayerTableRecord
  2
ASSI
 70
0
 62
7
  6
CONTINUOUS
370
-3
390
F
  0
LAYER
  5
1FE
100
AcDbSymbolTableRecord
100
AcDbLayerTableRecord
  2
COLOR5
 70
0
 62
7
  6
CONTINUOUS
370
-3
390
F
  0
LAYER
  5
1FF
100
AcDbSymbolTableRecord
100
AcDbLayerTableRecord
  2
COORDINATE
 70
0
 62
7
  6
CONTINUOUS
370
-3
390
F
  0
LAYER
  5
200
100
AcDbSymbolTableRecord
100
AcDbLayerTableRecord
  2
COORD_ORIGINE
 70
0
 62
7
  6
CONTINUOUS
370
-3
390
F
  0
LAYER
  5
201
100
AcDbSymbolTableRecord
100
AcDbLayerTableRecord
  2
COPY_PUBLISH
 70
0
 62
7
  6
CONTINUOUS
370
-3
390
F
  0
LAYER
  5
202
100
AcDbSymbolTableRecord
100
AcDbLayerTableRecord
  2
COSMETIC
 70
0
 62
7
  6
CONTINUOUS
370
-3
390
F
  0
LAYER
  5
203
100
AcDbSymbolTableRecord
100
AcDbLayerTableRecord
  2
COSMETICHE
 70
0
 62
7
  6
CONTINUOUS
370
-3
390
F
  0
LAYER
  5
204
100
AcDbSymbolTableRecord
100
AcDbLayerTableRecord
  2
CURVE
 70
0
 62
7
  6
CONTINUOUS
370
-3
390
F
  0
LAYER
  5
205
100
AcDbSymbolTableRecord
100
AcDbLayerTableRecord
  2
C_BASE
 70
0
 62
7
  6
CONTINUOUS
370
-3
390
F
  0
LAYER
  5
206
100
AcDbSymbolTableRecord
100
AcDbLayerTableRecord
  2
C_CALOTTA
 70
0
 62
7
  6
CONTINUOUS
370
-3
390
F
  0
LAYER
  5
207
100
AcDbSymbolTableRecord
100
AcDbLayerTableRecord
  2
C_CAVO
 70
0
 62
7
  6
CONTINUOUS
370
-3
390
F
  0
LAYER
  5
208
100
AcDbSymbolTableRecord
100
AcDbLayerTableRecord
  2
C_CONTATTI
 70
0
 62
7
  6
CONTINUOUS
370
-3
390
F
  0
LAYER
  5
209
100
AcDbSymbolTableRecord
100
AcDbLayerTableRecord
  2
C_OTTURATORI
 70
0
 62
7
  6
CONTINUOUS
370
-3
390
F
  0
LAYER
  5
20A
100
AcDbSymbolTableRecord
100
AcDbLayerTableRecord
  2
DRAFT
 70
0
 62
7
  6
CONTINUOUS
370
-3
390
F
  0
LAYER
  5
20B
100
AcDbSymbolTableRecord
100
AcDbLayerTableRecord
  2
IGES
 70
0
 62
7
  6
CONTINUOUS
370
-3
390
F
  0
LAYER
  5
20C
100
AcDbSymbolTableRecord
100
AcDbLayerTableRecord
  2
IMPORT_IGES
 70
0
 62
7
  6
CONTINUOUS
370
-3
390
F
  0
LAYER
  5
20D
100
AcDbSymbolTableRecord
100
AcDbLayerTableRecord
  2
INTFCLR_2
 70
0
 62
7
  6
CONTINUOUS
370
-3
390
F
  0
LAYER
  5
20E
100
AcDbSymbolTableRecord
100
AcDbLayerTableRecord
  2
INTF_YELLOW
 70
0
 62
7
  6
CONTINUOUS
370
-3
390
F
  0
LAYER
  5
20F
100
AcDbSymbolTableRecord
100
AcDbLayerTableRecord
  2
NOTE
 70
0
 62
7
  6
CONTINUOUS
370
-3
390
F
  0
LAYER
  5
210
100
AcDbSymbolTableRecord
100
AcDbLayerTableRecord
  2
PIANI
 70
0
 62
7
  6
CONTINUOUS
370
-3
390
F
  0
LAYER
  5
211
100
AcDbSymbolTableRecord
100
AcDbLayerTableRecord
  2
PIANI_ORIGINE
 70
0
 62
7
  6
CONTINUOUS
370
-3
390
F
  0
LAYER
  5
212
100
AcDbSymbolTableRecord
100
AcDbLayerTableRecord
  2
PUNTI
 70
0
 62
7
  6
CONTINUOUS
370
-3
390
F
  0
LAYER
  5
213
100
AcDbSymbolTableRecord
100
AcDbLayerTableRecord
  2
RACCORDO
 70
0
 62
7
  6
CONTINUOUS
370
-3
390
F
  0
LAYER
  5
214
100
AcDbSymbolTableRecord
100
AcDbLayerTableRecord
  2
SMUSSO
 70
0
 62
7
  6
CONTINUOUS
370
-3
390
F
  0
LAYER
  5
215
100
AcDbSymbolTableRecord
100
AcDbLayerTableRecord
  2
SNAPLINE
 70
0
 62
7
  6
CONTINUOUS
370
-3
390
F
  0
LAYER
  5
216
100
AcDbSymbolTableRecord
100
AcDbLayerTableRecord
  2
SUPERFICI
 70
0
 62
7
  6
CONTINUOUS
370
-3
390
F
  0
LAYER
  5
217
100
AcDbSymbolTableRecord
100
AcDbLayerTableRecord
  2
SUP_EST
 70
0
 62
7
  6
CONTINUOUS
370
-3
390
F
  0
LAYER
  5
218
100
AcDbSymbolTableRecord
100
AcDbLayerTableRecord
  2
TRASH
 70
0
 62
7
  6
CONTINUOUS
370
-3
390
F
  0
LAYER
  5
219
100
AcDbSymbolTableRecord
100
AcDbLayerTableRecord
  2
XSEC_DATUMS
 70
0
 62
7
  6
CONTINUOUS
370
-3
390
F
  0
ENDTAB
  0
TABLE
  2
STYLE
  5
3
100
AcDbSymbolTable
 70
1
  0
STYLE
  5
11
100
AcDbSymbolTableRecord
100
AcDbTextStyleTableRecord
  2
STANDARD
 70
0
 40
0.0
 41
0.8
 50
0.0
 71
0
 42
0.2
  3
txt
  4

  0
STYLE
  5
21A
100
AcDbSymbolTableRecord
100
AcDbTextStyleTableRecord
  2
TEXTSTYLE_1
 70
0
 40
0.0
 41
0.8
 50
0.0
 71
0
 42
0.2
  3
gdt
  4

  0
ENDTAB
  0
TABLE
  2
VIEW
  5
6
100
AcDbSymbolTable
 70
0
  0
ENDTAB
  0
TABLE
  2
UCS
  5
7
100
AcDbSymbolTable
 70
0
  0
ENDTAB
  0
TABLE
  2
APPID
  5
9
100
AcDbSymbolTable
 70
1
  0
APPID
  5
21B
100
AcDbSymbolTableRecord
100
AcDbRegAppTableRecord
  2
ACAD
 70
0
  0
ENDTAB
  0
TABLE
  2
BLOCK_RECORD
  5
1
100
AcDbSymbolTable
 70
0
  0
BLOCK_RECORD
  5
21C
100
AcDbSymbolTableRecord
100
AcDbBlockTableRecord
  2
*Model_Space
  0
BLOCK_RECORD
  5
21D
100
AcDbSymbolTableRecord
100
AcDbBlockTableRecord
  2
*Paper_Space
  0
ENDTAB
  0
TABLE
  2
DIMSTYLE
  5
A
100
AcDbSymbolTable
 70
1
100
AcDbDimStyleTable
 71
0
  0
DIMSTYLE
105
21E
100
AcDbSymbolTableRecord
100
AcDbDimStyleTableRecord
  2
STANDARD
 70
0
  3

  4

 40
1.0
 41
3.0
 42
0.5
 43
0.38
 44
1.5
 45
0.0
 46
0.0
 47
0.01
 48
0.01
140
3.0
141
0.09
142
0.0
143
25.4
144
1.0
145
0.0
146
1.0
147
0.625
 71
1.0
 72
0.0
 73
0
 74
0
 75
0
 76
0
 77
1
 78
8
170
0
171
2
172
0
173
0
174
0
175
0
176
0
177
0
178
0
270
2
271
2
272
2
273
2
274
2
275
0
280
0
281
0
282
0
283
1
284
8
285
0
286
0
287
3
288
0
340
11
278
44
  0
ENDTAB
  0
ENDSEC
  0
SECTION
  2
BLOCKS
  0
BLOCK
  5
20
100
AcDbEntity
  8
0
100
AcDbBlockBegin
  2
*Model_Space
 70
0
 10
0.0
 20
0.0
 30
0.0
  3
*Model_Space
  1

  0
ENDBLK
  5
21
100
AcDbEntity
  8
0
100
AcDbBlockEnd
  0
BLOCK
  5
1C
100
AcDbEntity
  8
0
100
AcDbBlockBegin
  2
*Paper_Space
 70
0
 10
0.0
 20
0.0
 30
0.0
  3
*Paper_Space
  1

  0
ENDBLK
  5
1D
100
AcDbEntity
  8
0
100
AcDbBlockEnd
  0
ENDSEC
  0
SECTION
  2
ENTITIES
  0
LINE
  5
21F
100
AcDbEntity
  8
0
100
AcDbLine
 62
7
  6
CONTINUOUS
 10
147.8488415275
 20
154.3480393079
 11
153.8488415275
 21
154.3480393079
  0
LWPOLYLINE
  5
220
100
AcDbEntity
  8
RACCORDO
100
AcDbPolyline
 62
7
  6
CONTINUOUS
 90
6
 70
0
 10
154.1490726691
 20
177.5377429298
 10
154.1780988529
 20
177.539392883
 10
154.2027638631
 20
177.5424594632
 10
154.2225495831
 20
177.5469426702
 10
154.2370266702
 20
177.5528425042
 10
154.2458648594
 20
177.5601589651
  0
LINE
  5
221
100
AcDbEntity
  8
RACCORDO
100
AcDbLine
 62
7
  6
CONTINUOUS
 10
155.1484345347
 20
177.5377429298
 11
154.2988415275
 21
177.5377429298
  0
LINE
  5
222
100
AcDbEntity
  8
0
100
AcDbLine
 62
7
  6
CONTINUOUS
 10
154.2988415275
 20
177.5377429298
 11
154.1490726691
 21
177.5377429298
  0
LINE
  5
223
100
AcDbEntity
  8
0
100
AcDbLine
 62
7
  6
CONTINUOUS
 10
147.5486103858
 20
177.5377429298
 11
147.3988415275
 21
177.5377429298
  0
LINE
  5
224
100
AcDbEntity
  8
RACCORDO
100
AcDbLine
 62
7
  6
CONTINUOUS
 10
154.1490726691
 20
177.5377429298
 11
147.5486103858
 21
177.5377429298
  0
LINE
  5
225
100
AcDbEntity
  8
RACCORDO
100
AcDbLine
 62
7
  6
CONTINUOUS
 10
147.3988415275
 20
177.5377429298
 11
146.5489017983
 21
177.5377429298
  0
LINE
  5
226
100
AcDbEntity
  8
RACCORDO
100
AcDbLine
 62
7
  6
CONTINUOUS
 10
147.5195437664
 20
177.539401538
 11
147.5486103858
 21
177.5377429298
  0
LINE
  5
227
100
AcDbEntity
  8
RACCORDO
100
AcDbLine
 62
7
  6
CONTINUOUS
 10
154.2988415275
 20
181.7877429298
 11
154.2488415275
 21
181.7824877181
  0
LINE
  5
228
100
AcDbEntity
  8
RACCORDO
100
AcDbLine
 62
7
  6
CONTINUOUS
 10
147.4488415275
 20
181.2929981416
 11
147.3988415275
 21
181.2877429298
  0
LINE
  5
229
100
AcDbEntity
  8
RACCORDO
100
AcDbLine
 62
253
  6
CONTINUOUS
 10
155.9488415221
 20
178.3377429298
 11
154.2988415275
 21
178.3377429298
  0
LINE
  5
22A
100
AcDbEntity
  8
RACCORDO
100
AcDbLine
 62
253
  6
CONTINUOUS
 10
154.2488415275
 20
178.3377429298
 11
147.4488415275
 21
178.3377429298
  0
LINE
  5
22B
100
AcDbEntity
  8
RACCORDO
100
AcDbLine
 62
253
  6
CONTINUOUS
 10
147.3988415275
 20
178.3377429298
 11
145.7488415322
 21
178.3377429298
  0
LINE
  5
22C
100
AcDbEntity
  8
0
100
AcDbLine
 62
7
  6
CONTINUOUS
 10
147.3988415275
 20
178.7377429298
 11
147.4488415275
 21
178.7377429298
  0
LINE
  5
22D
100
AcDbEntity
  8
0
100
AcDbLine
 62
7
  6
CONTINUOUS
 10
154.2488415275
 20
178.7377429298
 11
154.2988415275
 21
178.7377429298
  0
LINE
  5
22E
100
AcDbEntity
  8
RACCORDO
100
AcDbLine
 62
7
  6
CONTINUOUS
 10
156.0480889683
 20
179.0377429298
 11
154.2988415275
 21
179.0377429298
  0
LINE
  5
22F
100
AcDbEntity
  8
RACCORDO
100
AcDbLine
 62
7
  6
CONTINUOUS
 10
154.2488415275
 20
179.0377429298
 11
147.4488415275
 21
179.0377429298
  0
LINE
  5
230
100
AcDbEntity
  8
RACCORDO
100
AcDbLine
 62
7
  6
CONTINUOUS
 10
147.3988415275
 20
179.0377429298
 11
145.6488507253
 21
179.0377429298
  0
LINE
  5
231
100
AcDbEntity
  8
RACCORDO
100
AcDbLine
 62
253
  6
CONTINUOUS
 10
156.8488393417
 20
179.8377429298
 11
154.2988415275
 21
179.8377429298
  0
LINE
  5
232
100
AcDbEntity
  8
RACCORDO
100
AcDbLine
 62
253
  6
CONTINUOUS
 10
154.2488415275
 20
179.8377429298
 11
147.4488415275
 21
179.8377429298
  0
LINE
  5
233
100
AcDbEntity
  8
RACCORDO
100
AcDbLine
 62
253
  6
CONTINUOUS
 10
147.3988415275
 20
179.8377429298
 11
144.8488415344
 21
179.8377429298
  0
LINE
  5
234
100
AcDbEntity
  8
RACCORDO
100
AcDbLine
 62
7
  6
CONTINUOUS
 10
147.4488415275
 20
180.5377429298
 11
154.2488415275
 21
180.5377429298
  0
LINE
  5
235
100
AcDbEntity
  8
RACCORDO
100
AcDbLine
 62
253
  6
CONTINUOUS
 10
147.4488415275
 20
181.0377429298
 11
154.2488415275
 21
181.0377429298
  0
LINE
  5
236
100
AcDbEntity
  8
RACCORDO
100
AcDbLine
 62
7
  6
CONTINUOUS
 10
143.8088415275
 20
180.8197949374
 11
147.3988415275
 21
180.6053967767
  0
LINE
  5
237
100
AcDbEntity
  8
RACCORDO
100
AcDbLine
 62
7
  6
CONTINUOUS
 10
147.4488415275
 20
181.7824877181
 11
147.3988415275
 21
181.7877429298
  0
LINE
  5
238
100
AcDbEntity
  8
RACCORDO
100
AcDbLine
 62
7
  6
CONTINUOUS
 10
154.2988415275
 20
181.2877429298
 11
154.2488415275
 21
181.2929981416
  0
LINE
  5
239
100
AcDbEntity
  8
DRAFT
100
AcDbLine
 62
7
  6
CONTINUOUS
 10
143.1988415275
 20
227.7377429298
 11
143.177024358
 21
227.7159257603
  0
LINE
  5
23A
100
AcDbEntity
  8
RACCORDO
100
AcDbLine
 62
253
  6
CONTINUOUS
 10
140.8609319098
 20
182.6671986642
 11
140.3712732318
 21
182.6489126284
  0
LINE
  5
23B
100
AcDbEntity
  8
0
100
AcDbLine
 62
7
  6
CONTINUOUS
 10
159.9988415275
 20
182.6572679707
 11
154.2488415275
 21
182.4564735461
  0
LINE
  5
23C
100
AcDbEntity
  8
DRAFT
100
AcDbLine
 62
7
  6
CONTINUOUS
 10
154.2988415275
 20
182.3678506237
 11
154.2488415275
 21
182.3674142803
  0
LINE
  5
23D
100
AcDbEntity
  8
0
100
AcDbLine
 62
7
  6
CONTINUOUS
 10
160.7788415275
 20
182.424400727
 11
154.2988415275
 21
182.3678506237
  0
LINE
  5
23E
100
AcDbEntity
  8
ASSI
100
AcDbLine
 62
7
  6
CONTINUOUS
 10
160.2488415275
 20
183.1465699298
 11
160.0488415275
 21
183.1465699298
  0
LINE
  5
23F
100
AcDbEntity
  8
ASSI
100
AcDbLine
 62
7
  6
CONTINUOUS
 10
160.2488415275
 20
183.3461899298
 11
160.0488415275
 21
183.3461899298
  0
LINE
  5
240
100
AcDbEntity
  8
ASSI
100
AcDbLine
 62
7
  6
CONTINUOUS
 10
160.2488415275
 20
183.6632710255
 11
160.0488415275
 21
183.6632709298
  0
LINE
  5
241
100
AcDbEntity
  8
0
100
AcDbLine
 62
7
  6
CONTINUOUS
 10
161.4582476824
 20
185.5964949298
 11
161.4282307635
 21
185.5964949298
  0
LINE
  5
242
100
AcDbEntity
  8
0
100
AcDbLine
 62
7
  6
CONTINUOUS
 10
160.2488415275
 20
185.7377429298
 11
159.9988415275
 21
185.7377429298
  0
LINE
  5
243
100
AcDbEntity
  8
DRAFT
100
AcDbLine
 62
7
  6
CONTINUOUS
 10
147.3988415275
 20
182.3678506237
 11
141.4488415275
 21
182.4197754871
  0
LINE
  5
244
100
AcDbEntity
  8
0
100
AcDbLine
 62
7
  6
CONTINUOUS
 10
147.4488415275
 20
182.4564735461
 11
141.6988415275
 21
182.6572679707
  0
LINE
  5
245
100
AcDbEntity
  8
RACCORDO
100
AcDbLine
 62
253
  6
CONTINUOUS
 10
160.8367511452
 20
182.6671986642
 11
161.326409823
 21
182.6489126284
  0
LINE
  5
246
100
AcDbEntity
  8
0
100
AcDbLine
 62
7
  6
CONTINUOUS
 10
161.4819824897
 20
186.3173829298
 11
161.4519665211
 21
186.3173829298
  0
LINE
  5
247
100
AcDbEntity
  8
RACCORDO
100
AcDbLine
 62
7
  6
CONTINUOUS
 10
141.5996572398
 20
186.6794853603
 11
141.5600586939
 21
186.6794853603
  0
LINE
  5
248
100
AcDbEntity
  8
0
100
AcDbLine
 62
7
  6
CONTINUOUS
 10
160.2488415275
 20
186.7377429298
 11
159.9988415275
 21
186.7377429298
  0
LINE
  5
249
100
AcDbEntity
  8
ASSI
100
AcDbLine
 62
7
  6
CONTINUOUS
 10
160.2488415275
 20
186.9369286055
 11
160.0488415275
 21
186.9369286055
  0
LINE
  5
24A
100
AcDbEntity
  8
0
100
AcDbLine
 62
7
  6
CONTINUOUS
 10
161.4962689423
 20
186.9587669298
 11
161.4662533272
 21
186.9587669298
  0
LINE
  5
24B
100
AcDbEntity
  8
0
100
AcDbLine
 62
7
  6
CONTINUOUS
 10
140.2218274971
 20
187.0651989298
 11
140.1918124851
 21
187.0651989298
  0
LINE
  5
24C
100
AcDbEntity
  8
0
100
AcDbLine
 62
7
  6
CONTINUOUS
 10
161.5199544045
 20
187.5174389298
 11
161.4899399564
 21
187.5174389298
  0
LINE
  5
24D
100
AcDbEntity
  8
0
100
AcDbLine
 62
7
  6
CONTINUOUS
 10
160.0488415275
 20
187.5376116103
 11
160.2488415275
 21
187.5376116103
  0
LINE
  5
24E
100
AcDbEntity
  8
RACCORDO
100
AcDbLine
 62
7
  6
CONTINUOUS
 10
141.5966674505
 20
187.5960004993
 11
141.5600586939
 21
187.5960004993
  0
LINE
  5
24F
100
AcDbEntity
  8
0
100
AcDbLine
 62
7
  6
CONTINUOUS
 10
140.201974276
 20
187.7052469298
 11
140.1719600588
 21
187.7052469298
  0
LINE
  5
250
100
AcDbEntity
  8
0
100
AcDbLine
 62
7
  6
CONTINUOUS
 10
161.5394199064
 20
188.1574709298
 11
161.5094062377
 21
188.1574709298
  0
LINE
  5
251
100
AcDbEntity
  8
0
100
AcDbLine
 62
7
  6
CONTINUOUS
 10
161.5520928618
 20
188.5841509298
 11
161.5220797004
 21
188.5841509298
  0
LINE
  5
252
100
AcDbEntity
  8
0
100
AcDbLine
 62
7
  6
CONTINUOUS
 10
160.2488415275
 20
188.8426503616
 11
160.0488415275
 21
188.8426503616
  0
LINE
  5
253
100
AcDbEntity
  8
0
100
AcDbLine
 62
7
  6
CONTINUOUS
 10
160.2488415275
 20
189.0313709447
 11
160.0488415275
 21
189.0313709298
  0
LINE
  5
254
100
AcDbEntity
  8
0
100
AcDbLine
 62
7
  6
CONTINUOUS
 10
160.2488415275
 20
189.0505209307
 11
160.0488415275
 21
189.0505209298
  0
LINE
  5
255
100
AcDbEntity
  8
0
100
AcDbLine
 62
7
  6
CONTINUOUS
 10
140.158902255
 20
189.1593829298
 11
140.1288897621
 21
189.1593829298
  0
LINE
  5
256
100
AcDbEntity
  8
0
100
AcDbLine
 62
7
  6
CONTINUOUS
 10
161.5706468576
 20
189.2241829298
 11
161.540634439
 21
189.2241829298
  0
LINE
  5
257
100
AcDbEntity
  8
0
100
AcDbLine
 62
7
  6
CONTINUOUS
 10
161.5736918634
 20
189.4262309298
 11
161.5436794722
 21
189.4262309298
  0
LINE
  5
258
100
AcDbEntity
  8
0
100
AcDbLine
 62
7
  6
CONTINUOUS
 10
160.2488415275
 20
189.5374895494
 11
160.0488415275
 21
189.5374895494
  0
LINE
  5
259
100
AcDbEntity
  8
0
100
AcDbLine
 62
7
  6
CONTINUOUS
 10
140.1408392323
 20
189.7994069298
 11
140.1108274625
 21
189.7994069298
  0
LINE
  5
25A
100
AcDbEntity
  8
0
100
AcDbLine
 62
7
  6
CONTINUOUS
 10
161.6016081182
 20
190.4370389298
 11
161.5715968446
 21
190.4370389298
  0
LINE
  5
25B
100
AcDbEntity
  8
0
100
AcDbLine
 62
7
  6
CONTINUOUS
 10
140.1233234219
 20
190.4394149298
 11
140.0933123532
 21
190.4394149298
  0
LINE
  5
25C
100
AcDbEntity
  8
0
100
AcDbLine
 62
7
  6
CONTINUOUS
 10
161.6097234209
 20
190.6390949298
 11
161.5797125665
 21
190.6390949298
  0
LINE
  5
25D
100
AcDbEntity
  8
0
100
AcDbLine
 62
7
  6
CONTINUOUS
 10
140.1063539377
 20
191.0794389298
 11
140.0763435483
 21
191.0794389298
  0
LINE
  5
25E
100
AcDbEntity
  8
0
100
AcDbLine
 62
7
  6
CONTINUOUS
 10
161.6265216822
 20
191.2791189298
 11
161.5965115002
 21
191.2791189298
  0
LINE
  5
25F
100
AcDbEntity
  8
0
100
AcDbLine
 62
7
  6
CONTINUOUS
 10
140.0908131193
 20
191.6845429298
 11
140.060803352
 21
191.6845429298
  0
LINE
  5
260
100
AcDbEntity
  8
0
100
AcDbLine
 62
7
  6
CONTINUOUS
 10
161.6374167124
 20
191.7057989298
 11
161.6074069665
 21
191.7057989298
  0
LINE
  5
261
100
AcDbEntity
  8
0
100
AcDbLine
 62
7
  6
CONTINUOUS
 10
140.0749076584
 20
192.3245509298
 11
140.0448985276
 21
192.3245509298
  0
LINE
  5
262
100
AcDbEntity
  8
0
100
AcDbLine
 62
7
  6
CONTINUOUS
 10
161.6533038002
 20
192.3458229298
 11
161.6232946902
 21
192.3458229298
  0
LINE
  5
263
100
AcDbEntity
  8
RACCORDO
100
AcDbLine
 62
7
  6
CONTINUOUS
 10
160.137624361
 20
192.7794853603
 11
160.097339569
 21
192.7794853603
  0
LINE
  5
264
100
AcDbEntity
  8
0
100
AcDbLine
 62
7
  6
CONTINUOUS
 10
140.0603721206
 20
192.9296629298
 11
140.0303635716
 21
192.9296629298
  0
LINE
  5
265
100
AcDbEntity
  8
0
100
AcDbLine
 62
7
  6
CONTINUOUS
 10
161.6678215234
 20
192.9509349298
 11
161.6378129945
 21
192.9509349298
  0
LINE
  5
266
100
AcDbEntity
  8
0
100
AcDbLine
 62
7
  6
CONTINUOUS
 10
140.0455297069
 20
193.5696869298
 11
140.0155217519
 21
193.5696869298
  0
LINE
  5
267
100
AcDbEntity
  8
0
100
AcDbLine
 62
7
  6
CONTINUOUS
 10
161.6826448407
 20
193.5909429298
 11
161.652636905
 21
193.5909429298
  0
LINE
  5
268
100
AcDbEntity
  8
RACCORDO
100
AcDbLine
 62
7
  6
CONTINUOUS
 10
160.137624361
 20
193.6960004993
 11
160.094300984
 21
193.6960004993
  0
LINE
  5
269
100
AcDbEntity
  8
0
100
AcDbLine
 62
7
  6
CONTINUOUS
 10
141.6988415275
 20
193.7377429298
 11
141.4488415275
 21
193.7377429298
  0
LINE
  5
26A
100
AcDbEntity
  8
0
100
AcDbLine
 62
7
  6
CONTINUOUS
 10
140.0359384926
 20
193.9963669298
 11
140.0059309214
 21
193.9963669298
  0
LINE
  5
26B
100
AcDbEntity
  8
0
100
AcDbLine
 62
7
  6
CONTINUOUS
 10
161.6961570618
 20
194.1960469298
 11
161.6661496669
 21
194.1960469298
  0
LINE
  5
26C
100
AcDbEntity
  8
DRAFT
100
AcDbLine
 62
7
  6
CONTINUOUS
 10
143.177024358
 20
196.2595600993
 11
143.1988415275
 21
196.2377429298
  0
LWPOLYLINE
  5
26D
100
AcDbEntity
  8
0
100
AcDbPolyline
 62
7
  6
CONTINUOUS
 90
10
 70
0
 10
140.2488388231
 20
186.0377429298
 10
140.2411681115
 20
186.1519000229
 10
140.2338310099
 20
186.2660583663
 10
140.2268275182
 20
186.38021796
 10
140.2201576324
 20
186.4943789096
 10
140.2138213566
 20
186.6085411096
 10
140.2078187027
 20
186.7227042433
 10
140.2021496748
 20
186.8368682051
 10
140.1968142689
 20
186.9510331006
 10
140.1918124851
 20
187.0651989298
  0
LINE
  5
26E
100
AcDbEntity
  8
0
100
AcDbLine
 62
7
  6
CONTINUOUS
 10
140.0892998962
 20
191.0794389298
 11
140.0819627381
 21
191.2139040229
  0
LINE
  5
26F
100
AcDbEntity
  8
0
100
AcDbLine
 62
7
  6
CONTINUOUS
 10
140.0819627381
 20
191.2139040229
 11
140.0751996285
 21
191.3483706539
  0
LINE
  5
270
100
AcDbEntity
  8
0
100
AcDbLine
 62
7
  6
CONTINUOUS
 10
140.0751996285
 20
191.3483706539
 11
140.0690105705
 21
191.4828387341
  0
LWPOLYLINE
  5
271
100
AcDbEntity
  8
0
100
AcDbPolyline
 62
7
  6
CONTINUOUS
 90
3
 70
0
 10
140.0690105705
 20
191.4828387341
 10
140.063395576
 20
191.6173079094
 10
140.060803352
 20
191.6845429298
  0
LWPOLYLINE
  5
272
100
AcDbEntity
  8
0
100
AcDbPolyline
 62
7
  6
CONTINUOUS
 90
3
 70
0
 10
139.9697978976
 20
195.8492549298
 10
139.9641791278
 20
196.0176281266
 10
139.9631424323
 20
196.0513029298
  0
LINE
  5
273
100
AcDbEntity
  8
0
100
AcDbLine
 62
7
  6
CONTINUOUS
 10
139.9287446494
 20
198.3167189298
 11
139.9227555792
 21
198.5305118279
  0
LINE
  5
274
100
AcDbEntity
  8
0
100
AcDbLine
 62
7
  6
CONTINUOUS
 10
139.9227555792
 20
198.5305118279
 11
139.9172527741
 21
198.7443066069
  0
LINE
  5
275
100
AcDbEntity
  8
0
100
AcDbLine
 62
7
  6
CONTINUOUS
 10
139.9172527741
 20
198.7443066069
 11
139.9122362409
 21
198.9581029298
  0
LWPOLYLINE
  5
276
100
AcDbEntity
  8
0
100
AcDbPolyline
 62
7
  6
CONTINUOUS
 90
10
 70
0
 10
140.1719600588
 20
187.7052469298
 10
140.1698796233
 20
187.8194110065
 10
140.1681327916
 20
187.9335748099
 10
140.166719564
 20
188.0477383399
 10
140.1656399414
 20
188.1619017021
 10
140.1648939228
 20
188.276064791
 10
140.1644815047
 20
188.3902272899
 10
140.164402686
 20
188.5043890932
 10
140.1646574679
 20
188.6185503065
 10
140.1652458503
 20
188.7327109298
  0
LINE
  5
277
100
AcDbEntity
  8
0
100
AcDbLine
 62
7
  6
CONTINUOUS
 10
139.8774747253
 20
204.0848287633
 11
139.8774324507
 21
204.0890373259
  0
LINE
  5
278
100
AcDbEntity
  8
0
100
AcDbLine
 62
7
  6
CONTINUOUS
 10
140.0448985276
 20
192.3245509298
 11
140.0435430223
 21
192.4590194122
  0
LWPOLYLINE
  5
279
100
AcDbEntity
  8
0
100
AcDbPolyline
 62
7
  6
CONTINUOUS
 90
3
 70
0
 10
139.9920000747
 20
194.6363909298
 10
139.9906055909
 20
194.804770976
 10
139.990413757
 20
194.8384469298
  0
LINE
  5
27A
100
AcDbEntity
  8
0
100
AcDbLine
 62
7
  6
CONTINUOUS
 10
140.0435430223
 20
192.4590194122
 11
140.0427615576
 21
192.5934874957
  0
LINE
  5
27B
100
AcDbEntity
  8
0
100
AcDbLine
 62
7
  6
CONTINUOUS
 10
140.0427615576
 20
192.5934874957
 11
140.0425541329
 21
192.7279550917
  0
LINE
  5
27C
100
AcDbEntity
  8
0
100
AcDbLine
 62
7
  6
CONTINUOUS
 10
141.4488415275
 20
182.4197754871
 11
141.4488415275
 21
231.3377429298
  0
LINE
  5
27D
100
AcDbEntity
  8
0
100
AcDbLine
 62
7
  6
CONTINUOUS
 10
141.6988415275
 20
231.2377429298
 11
141.6988415275
 21
227.7377429298
  0
LINE
  5
27E
100
AcDbEntity
  8
0
100
AcDbLine
 62
7
  6
CONTINUOUS
 10
141.6988415275
 20
221.7377429298
 11
141.6988415275
 21
202.2377429298
  0
LINE
  5
27F
100
AcDbEntity
  8
0
100
AcDbLine
 62
7
  6
CONTINUOUS
 10
141.6988415275
 20
196.2377429298
 11
141.6988415275
 21
182.6572679707
  0
LINE
  5
280
100
AcDbEntity
  8
0
100
AcDbLine
 62
7
  6
CONTINUOUS
 10
141.8488415275
 20
196.2377429298
 11
141.8488415275
 21
196.3377429298
  0
LINE
  5
281
100
AcDbEntity
  8
0
100
AcDbLine
 62
7
  6
CONTINUOUS
 10
141.8488415275
 20
202.1377429298
 11
141.8488415275
 21
202.2377429298
  0
LINE
  5
282
100
AcDbEntity
  8
0
100
AcDbLine
 62
7
  6
CONTINUOUS
 10
141.8488415275
 20
221.7377429298
 11
141.8488415275
 21
221.8377429298
  0
LINE
  5
283
100
AcDbEntity
  8
0
100
AcDbLine
 62
7
  6
CONTINUOUS
 10
141.8488415275
 20
227.6377429298
 11
141.8488415275
 21
227.7377429298
  0
LINE
  5
284
100
AcDbEntity
  8
RACCORDO
100
AcDbLine
 62
253
  6
CONTINUOUS
 10
142.2988415275
 20
202.1377429298
 11
142.2988415275
 21
196.3377429298
  0
LINE
  5
285
100
AcDbEntity
  8
RACCORDO
100
AcDbLine
 62
253
  6
CONTINUOUS
 10
142.2988415275
 20
221.8377429298
 11
142.2988415275
 21
227.6377429298
  0
LINE
  5
286
100
AcDbEntity
  8
RACCORDO
100
AcDbLine
 62
7
  6
CONTINUOUS
 10
141.5965627166
 20
186.7880897074
 11
141.5967742357
 21
188.4197353999
  0
LWPOLYLINE
  5
287
100
AcDbEntity
  8
0
100
AcDbPolyline
 62
7
  6
CONTINUOUS
 90
3
 70
0
 10
140.0425541329
 20
192.7279550917
 10
140.0429207444
 20
192.8624218461
 10
140.0433193139
 20
192.9296549298
  0
LINE
  5
288
100
AcDbEntity
  8
0
100
AcDbLine
 62
7
  6
CONTINUOUS
 10
140.1302857381
 20
231.1825015074
 11
140.0944628376
 21
229.8307529939
  0
LINE
  5
289
100
AcDbEntity
  8
0
100
AcDbLine
 62
7
  6
CONTINUOUS
 10
140.0220070884
 20
194.6363909298
 11
139.9920000747
 21
194.6363909298
  0
LINE
  5
28A
100
AcDbEntity
  8
0
100
AcDbLine
 62
7
  6
CONTINUOUS
 10
141.6988415275
 20
194.7377429298
 11
141.4488415275
 21
194.7377429298
  0
LINE
  5
28B
100
AcDbEntity
  8
0
100
AcDbLine
 62
7
  6
CONTINUOUS
 10
161.7099174231
 20
194.8360709298
 11
161.6799105789
 21
194.8360709298
  0
LINE
  5
28C
100
AcDbEntity
  8
0
100
AcDbLine
 62
7
  6
CONTINUOUS
 10
140.0204208017
 20
194.8384469298
 11
139.990413757
 21
194.8384469298
  0
LINE
  5
28D
100
AcDbEntity
  8
ASSI
100
AcDbLine
 62
253
  6
CONTINUOUS
 10
141.6988415275
 20
195.2377429298
 11
141.4488415275
 21
195.2377429298
  0
LINE
  5
28E
100
AcDbEntity
  8
0
100
AcDbLine
 62
7
  6
CONTINUOUS
 10
161.7231309428
 20
195.4760789298
 11
161.6931246273
 21
195.4760789298
  0
LINE
  5
28F
100
AcDbEntity
  8
0
100
AcDbLine
 62
7
  6
CONTINUOUS
 10
139.9998041173
 20
195.8492549298
 11
139.9697978976
 21
195.8492549298
  0
LINE
  5
290
100
AcDbEntity
  8
ASSI
100
AcDbLine
 62
7
  6
CONTINUOUS
 10
160.2488415275
 20
196.0377429298
 11
159.9988415275
 21
196.0377429298
  0
LINE
  5
291
100
AcDbEntity
  8
0
100
AcDbLine
 62
7
  6
CONTINUOUS
 10
139.9931482912
 20
196.0513029298
 11
139.9631424323
 21
196.0513029298
  0
LINE
  5
292
100
AcDbEntity
  8
0
100
AcDbLine
 62
7
  6
CONTINUOUS
 10
161.7357983384
 20
196.1161029298
 11
161.7057925298
 21
196.1161029298
  0
LINE
  5
293
100
AcDbEntity
  8
0
100
AcDbLine
 62
7
  6
CONTINUOUS
 10
141.6988415275
 20
196.2377429298
 11
143.1988415275
 21
196.2377429298
  0
LINE
  5
294
100
AcDbEntity
  8
0
100
AcDbLine
 62
7
  6
CONTINUOUS
 10
158.4988415275
 20
196.2377429298
 11
159.9988415275
 21
196.2377429298
  0
LINE
  5
295
100
AcDbEntity
  8
DRAFT
100
AcDbLine
 62
7
  6
CONTINUOUS
 10
159.5040775365
 20
196.2595600993
 11
158.520658697
 21
196.2595600993
  0
LINE
  5
296
100
AcDbEntity
  8
DRAFT
100
AcDbLine
 62
7
  6
CONTINUOUS
 10
142.1936055185
 20
196.2595600993
 11
143.177024358
 21
196.2595600993
  0
LINE
  5
297
100
AcDbEntity
  8
RACCORDO
100
AcDbLine
 62
7
  6
CONTINUOUS
 10
142.6488414619
 20
196.3377429298
 11
141.4488415275
 21
196.3377429298
  0
LINE
  5
298
100
AcDbEntity
  8
RACCORDO
100
AcDbLine
 62
7
  6
CONTINUOUS
 10
159.0488424255
 20
196.3377429298
 11
160.5629843703
 21
196.3377429298
  0
LINE
  5
299
100
AcDbEntity
  8
0
100
AcDbLine
 62
7
  6
CONTINUOUS
 10
139.9809713953
 20
196.6913349298
 11
139.9509660236
 21
196.6913349298
  0
LINE
  5
29A
100
AcDbEntity
  8
0
100
AcDbLine
 62
7
  6
CONTINUOUS
 10
139.9731572534
 20
197.1180149298
 11
139.9431521944
 21
197.1180149298
  0
LINE
  5
29B
100
AcDbEntity
  8
0
100
AcDbLine
 62
7
  6
CONTINUOUS
 10
161.7625474434
 20
197.5702389298
 11
161.7325427052
 21
197.5702389298
  0
LINE
  5
29C
100
AcDbEntity
  8
0
100
AcDbLine
 62
7
  6
CONTINUOUS
 10
139.9618911532
 20
197.7580469298
 11
139.9318865449
 21
197.7580469298
  0
LINE
  5
29D
100
AcDbEntity
  8
0
100
AcDbLine
 62
7
  6
CONTINUOUS
 10
161.7734273098
 20
198.2102869298
 11
161.7434230069
 21
198.2102869298
  0
LINE
  5
29E
100
AcDbEntity
  8
0
100
AcDbLine
 62
7
  6
CONTINUOUS
 10
139.9587493505
 20
198.3167189298
 11
139.9287446494
 21
198.3167189298
  0
LWPOLYLINE
  5
29F
100
AcDbEntity
  8
RACCORDO
100
AcDbPolyline
 62
7
  6
CONTINUOUS
 90
6
 70
0
 10
147.4488415275
 20
177.568892053
 10
147.4518093915
 20
177.5601676201
 10
147.4606285246
 20
177.5528563522
 10
147.4750872879
 20
177.5469582492
 10
147.4948657824
 20
177.5424733111
 10
147.5195437664
 20
177.539401538
  0
LINE
  5
2A0
100
AcDbEntity
  8
RACCORDO
100
AcDbLine
 62
7
  6
CONTINUOUS
 10
142.6488415275
 20
202.1377429298
 11
142.6488415275
 21
196.3377429298
  0
LINE
  5
2A1
100
AcDbEntity
  8
RACCORDO
100
AcDbLine
 62
7
  6
CONTINUOUS
 10
142.6488415275
 20
221.8377429298
 11
142.6488415275
 21
227.6377429298
  0
LINE
  5
2A2
100
AcDbEntity
  8
DRAFT
100
AcDbLine
 62
7
  6
CONTINUOUS
 10
143.177024358
 20
196.2595600993
 11
143.177024358
 21
202.2159257603
  0
LINE
  5
2A3
100
AcDbEntity
  8
DRAFT
100
AcDbLine
 62
7
  6
CONTINUOUS
 10
143.177024358
 20
221.7595600993
 11
143.177024358
 21
227.7159257603
  0
LINE
  5
2A4
100
AcDbEntity
  8
DRAFT
100
AcDbLine
 62
7
  6
CONTINUOUS
 10
143.1988415275
 20
196.2377429298
 11
143.1988415275
 21
202.2377429298
  0
LINE
  5
2A5
100
AcDbEntity
  8
DRAFT
100
AcDbLine
 62
7
  6
CONTINUOUS
 10
143.1988415275
 20
221.7377429298
 11
143.1988415275
 21
227.7377429298
  0
LINE
  5
2A6
100
AcDbEntity
  8
ASSI
100
AcDbLine
 62
7
  6
CONTINUOUS
 10
144.8488415275
 20
180.7416643324
 11
144.8488415275
 21
179.8377429298
  0
LINE
  5
2A7
100
AcDbEntity
  8
ASSI
100
AcDbLine
 62
7
  6
CONTINUOUS
 10
145.7488415275
 20
179.0377429298
 11
145.7488415275
 21
178.3377429298
  0
LINE
  5
2A8
100
AcDbEntity
  8
RACCORDO
100
AcDbLine
 62
253
  6
CONTINUOUS
 10
143.8480415275
 20
181.3082244205
 11
143.8088415275
 21
180.8197949374
  0
LINE
  5
2A9
100
AcDbEntity
  8
DRAFT
100
AcDbLine
 62
7
  6
CONTINUOUS
 10
158.520658697
 20
221.7595600993
 11
158.4988415275
 21
221.7377429298
  0
LINE
  5
2AA
100
AcDbEntity
  8
0
100
AcDbLine
 62
7
  6
CONTINUOUS
 10
139.9422400629
 20
198.9581029298
 11
139.9122362409
 21
198.9581029298
  0
LINE
  5
2AB
100
AcDbEntity
  8
0
100
AcDbLine
 62
7
  6
CONTINUOUS
 10
139.9313589847
 20
199.6789909298
 11
139.901355598
 21
199.6789909298
  0
LINE
  5
2AC
100
AcDbEntity
  8
RACCORDO
100
AcDbLine
 62
7
  6
CONTINUOUS
 10
141.4488415275
 20
202.1377429298
 11
142.6488406295
 21
202.1377429298
  0
LINE
  5
2AD
100
AcDbEntity
  8
RACCORDO
100
AcDbLine
 62
7
  6
CONTINUOUS
 10
159.0488415931
 20
202.1377429298
 11
160.5629843703
 21
202.1377429298
  0
LINE
  5
2AE
100
AcDbEntity
  8
DRAFT
100
AcDbLine
 62
7
  6
CONTINUOUS
 10
143.177024358
 20
202.2159257603
 11
142.1936055185
 21
202.2159257603
  0
LINE
  5
2AF
100
AcDbEntity
  8
DRAFT
100
AcDbLine
 62
7
  6
CONTINUOUS
 10
158.520658697
 20
202.2159257603
 11
159.5040775365
 21
202.2159257603
  0
LINE
  5
2B0
100
AcDbEntity
  8
0
100
AcDbLine
 62
7
  6
CONTINUOUS
 10
159.9988415275
 20
202.2377429298
 11
158.4988415275
 21
202.2377429298
  0
LINE
  5
2B1
100
AcDbEntity
  8
0
100
AcDbLine
 62
7
  6
CONTINUOUS
 10
143.1988415275
 20
202.2377429298
 11
141.6988415275
 21
202.2377429298
  0
LINE
  5
2B2
100
AcDbEntity
  8
RACCORDO
100
AcDbLine
 62
253
  6
CONTINUOUS
 10
147.2554680109
 20
207.5377429298
 11
147.2554680109
 21
226.5377429298
  0
LINE
  5
2B3
100
AcDbEntity
  8
RACCORDO
100
AcDbLine
 62
7
  6
CONTINUOUS
 10
147.3988415275
 20
182.3678506237
 11
147.3988415275
 21
177.5377429298
  0
LINE
  5
2B4
100
AcDbEntity
  8
RACCORDO
100
AcDbLine
 62
7
  6
CONTINUOUS
 10
147.4488415275
 20
177.568892053
 11
147.4488415275
 21
182.4564735461
  0
LINE
  5
2B5
100
AcDbEntity
  8
RACCORDO
100
AcDbLine
 62
253
  6
CONTINUOUS
 10
147.5554223195
 20
207.5377429298
 11
147.5554223195
 21
226.5377429298
  0
LINE
  5
2B6
100
AcDbEntity
  8
0
100
AcDbLine
 62
7
  6
CONTINUOUS
 10
147.5738415275
 20
207.5377429298
 11
147.5738415275
 21
226.5377429298
  0
LINE
  5
2B7
100
AcDbEntity
  8
RACCORDO
100
AcDbLine
 62
7
  6
CONTINUOUS
 10
147.5988415275
 20
226.5377429298
 11
147.5988415275
 21
207.5377429298
  0
LINE
  5
2B8
100
AcDbEntity
  8
RACCORDO
100
AcDbLine
 62
253
  6
CONTINUOUS
 10
147.7488415275
 20
226.5377429298
 11
147.7488415275
 21
207.5377429298
  0
LINE
  5
2B9
100
AcDbEntity
  8
0
100
AcDbLine
 62
7
  6
CONTINUOUS
 10
147.8488415275
 20
177.5377429298
 11
147.8488415275
 21
154.3480393079
  0
LINE
  5
2BA
100
AcDbEntity
  8
RACCORDO
100
AcDbLine
 62
253
  6
CONTINUOUS
 10
160.6178432074
 20
231.8773899838
 11
160.8295462277
 21
232.3192970229
  0
LINE
  5
2BB
100
AcDbEntity
  8
DRAFT
100
AcDbLine
 62
7
  6
CONTINUOUS
 10
143.1988415275
 20
202.2377429298
 11
143.177024358
 21
202.2159257603
  0
LINE
  5
2BC
100
AcDbEntity
  8
RACCORDO
100
AcDbLine
 62
253
  6
CONTINUOUS
 10
160.3632204182
 20
181.9603595758
 11
160.5664222367
 21
181.5144795236
  0
LINE
  5
2BD
100
AcDbEntity
  8
RACCORDO
100
AcDbLine
 62
253
  6
CONTINUOUS
 10
145.3174415275
 20
233.1586288354
 11
145.2488415276
 21
233.6438030722
  0
LINE
  5
2BE
100
AcDbEntity
  8
RACCORDO
100
AcDbLine
 62
7
  6
CONTINUOUS
 10
150.8488415275
 20
234.0377429298
 11
150.8488415275
 21
232.2377429298
  0
LINE
  5
2BF
100
AcDbEntity
  8
0
100
AcDbLine
 62
7
  6
CONTINUOUS
 10
153.8488415275
 20
177.5377429298
 11
153.8488415275
 21
154.3480393079
  0
LINE
  5
2C0
100
AcDbEntity
  8
RACCORDO
100
AcDbLine
 62
253
  6
CONTINUOUS
 10
153.9488415275
 20
207.5377429298
 11
153.9488415275
 21
226.5377429298
  0
LINE
  5
2C1
100
AcDbEntity
  8
RACCORDO
100
AcDbLine
 62
7
  6
CONTINUOUS
 10
154.0988415275
 20
207.5377429298
 11
154.0988415275
 21
226.5377429298
  0
LINE
  5
2C2
100
AcDbEntity
  8
0
100
AcDbLine
 62
7
  6
CONTINUOUS
 10
154.1238415275
 20
207.5377429298
 11
154.1238415275
 21
226.5377429298
  0
LINE
  5
2C3
100
AcDbEntity
  8
RACCORDO
100
AcDbLine
 62
253
  6
CONTINUOUS
 10
154.1422607355
 20
226.5377429298
 11
154.1422607355
 21
207.5377429298
  0
LINE
  5
2C4
100
AcDbEntity
  8
RACCORDO
100
AcDbLine
 62
7
  6
CONTINUOUS
 10
154.2488415275
 20
177.568892053
 11
154.2488415275
 21
182.4564735461
  0
LINE
  5
2C5
100
AcDbEntity
  8
RACCORDO
100
AcDbLine
 62
7
  6
CONTINUOUS
 10
154.2988415275
 20
177.5377429298
 11
154.2988415275
 21
182.3678506237
  0
LINE
  5
2C6
100
AcDbEntity
  8
RACCORDO
100
AcDbLine
 62
253
  6
CONTINUOUS
 10
154.4422150441
 20
226.5377429298
 11
154.4422150441
 21
207.5377429298
  0
LINE
  5
2C7
100
AcDbEntity
  8
RACCORDO
100
AcDbLine
 62
253
  6
CONTINUOUS
 10
156.3802415275
 20
233.1586288354
 11
156.4488415275
 21
233.6438030722
  0
LINE
  5
2C8
100
AcDbEntity
  8
RACCORDO
100
AcDbLine
 62
253
  6
CONTINUOUS
 10
141.3344626368
 20
181.9603595758
 11
141.131260818
 21
181.5144795237
  0
LINE
  5
2C9
100
AcDbEntity
  8
RACCORDO
100
AcDbLine
 62
253
  6
CONTINUOUS
 10
147.7488415275
 20
207.5377429298
 11
147.5988415275
 21
207.5377429302
  0
LINE
  5
2CA
100
AcDbEntity
  8
RACCORDO
100
AcDbLine
 62
253
  6
CONTINUOUS
 10
147.2554680109
 20
207.5377429298
 11
147.5738415275
 21
207.5377429298
  0
LINE
  5
2CB
100
AcDbEntity
  8
RACCORDO
100
AcDbLine
 62
253
  6
CONTINUOUS
 10
153.9488415275
 20
207.5377429298
 11
154.0988415275
 21
207.5377429298
  0
LINE
  5
2CC
100
AcDbEntity
  8
RACCORDO
100
AcDbLine
 62
253
  6
CONTINUOUS
 10
154.4422150441
 20
207.5377429298
 11
154.1238415275
 21
207.5377429298
  0
LINE
  5
2CD
100
AcDbEntity
  8
0
100
AcDbLine
 62
7
  6
CONTINUOUS
 10
154.1238415275
 20
210.2877429298
 11
154.0988415275
 21
210.2877429298
  0
LINE
  5
2CE
100
AcDbEntity
  8
0
100
AcDbLine
 62
7
  6
CONTINUOUS
 10
147.5988415275
 20
210.2877429298
 11
147.5738415275
 21
210.2877429298
  0
LINE
  5
2CF
100
AcDbEntity
  8
DRAFT
100
AcDbLine
 62
7
  6
CONTINUOUS
 10
158.4988415275
 20
202.2377429298
 11
158.520658697
 21
202.2159257603
  0
LINE
  5
2D0
100
AcDbEntity
  8
RACCORDO
100
AcDbLine
 62
253
  6
CONTINUOUS
 10
141.0798398476
 20
231.8773899838
 11
140.8681368274
 21
232.3192970229
  0
LINE
  5
2D1
100
AcDbEntity
  8
RACCORDO
100
AcDbLine
 62
253
  6
CONTINUOUS
 10
157.8496415275
 20
181.3082244205
 11
157.888841527
 21
180.8197949374
  0
LINE
  5
2D2
100
AcDbEntity
  8
ASSI
100
AcDbLine
 62
7
  6
CONTINUOUS
 10
155.9488415275
 20
179.0377429298
 11
155.9488415275
 21
178.3377429298
  0
LINE
  5
2D3
100
AcDbEntity
  8
ASSI
100
AcDbLine
 62
7
  6
CONTINUOUS
 10
156.8488415275
 20
180.7422670674
 11
156.8488415275
 21
179.8377429298
  0
LINE
  5
2D4
100
AcDbEntity
  8
DRAFT
100
AcDbLine
 62
7
  6
CONTINUOUS
 10
158.4988415275
 20
196.2377429298
 11
158.4988415275
 21
202.2377429298
  0
LINE
  5
2D5
100
AcDbEntity
  8
DRAFT
100
AcDbLine
 62
7
  6
CONTINUOUS
 10
158.4988415275
 20
221.7377429298
 11
158.4988415275
 21
227.7377429298
  0
LINE
  5
2D6
100
AcDbEntity
  8
DRAFT
100
AcDbLine
 62
7
  6
CONTINUOUS
 10
158.520658697
 20
196.2595600993
 11
158.520658697
 21
202.2159257603
  0
LINE
  5
2D7
100
AcDbEntity
  8
DRAFT
100
AcDbLine
 62
7
  6
CONTINUOUS
 10
158.520658697
 20
221.7595600993
 11
158.520658697
 21
227.7159257603
  0
LINE
  5
2D8
100
AcDbEntity
  8
0
100
AcDbLine
 62
7
  6
CONTINUOUS
 10
154.1238415275
 20
214.2877429298
 11
154.0988415275
 21
214.2877429298
  0
LINE
  5
2D9
100
AcDbEntity
  8
0
100
AcDbLine
 62
7
  6
CONTINUOUS
 10
147.5988415275
 20
214.2877429298
 11
147.5738415275
 21
214.2877429298
  0
LINE
  5
2DA
100
AcDbEntity
  8
DRAFT
100
AcDbLine
 62
7
  6
CONTINUOUS
 10
143.177024358
 20
221.7595600993
 11
143.1988415275
 21
221.7377429298
  0
LINE
  5
2DB
100
AcDbEntity
  8
RACCORDO
100
AcDbLine
 62
7
  6
CONTINUOUS
 10
161.6032179451
 20
229.8308411733
 11
161.6031046634
 21
229.8350504685
  0
LINE
  5
2DC
100
AcDbEntity
  8
SUPERFICI
100
AcDbLine
 62
7
  6
CONTINUOUS
 10
161.5673973169
 20
231.1825015074
 11
161.6032202174
 21
229.8307529939
  0
LINE
  5
2DD
100
AcDbEntity
  8
DRAFT
100
AcDbLine
 62
7
  6
CONTINUOUS
 10
159.8964231346
 20
202.1377429298
 11
159.8953952787
 21
202.2292196365
  0
LINE
  5
2DE
100
AcDbEntity
  8
0
100
AcDbLine
 62
7
  6
CONTINUOUS
 10
161.6843078264
 20
193.9943471584
 11
161.6832020067
 21
194.1960469298
  0
LINE
  5
2DF
100
AcDbEntity
  8
RACCORDO
100
AcDbLine
 62
7
  6
CONTINUOUS
 10
159.0488415275
 20
196.3377429298
 11
159.0488415275
 21
202.1377429298
  0
LINE
  5
2E0
100
AcDbEntity
  8
RACCORDO
100
AcDbLine
 62
7
  6
CONTINUOUS
 10
159.0488415275
 20
221.8377429298
 11
159.0488415275
 21
227.6377429298
  0
LINE
  5
2E1
100
AcDbEntity
  8
RACCORDO
100
AcDbLine
 62
253
  6
CONTINUOUS
 10
159.3988415275
 20
196.3377429298
 11
159.3988415275
 21
202.1377429298
  0
LINE
  5
2E2
100
AcDbEntity
  8
RACCORDO
100
AcDbLine
 62
253
  6
CONTINUOUS
 10
159.3988415275
 20
221.8377429298
 11
159.3988415275
 21
227.6377429298
  0
LINE
  5
2E3
100
AcDbEntity
  8
0
100
AcDbLine
 62
7
  6
CONTINUOUS
 10
159.8488415275
 20
196.2377429298
 11
159.8488415275
 21
196.3377429298
  0
LINE
  5
2E4
100
AcDbEntity
  8
0
100
AcDbLine
 62
7
  6
CONTINUOUS
 10
159.8488415275
 20
202.1377429298
 11
159.8488415275
 21
202.2377429298
  0
LINE
  5
2E5
100
AcDbEntity
  8
0
100
AcDbLine
 62
7
  6
CONTINUOUS
 10
159.8488415275
 20
221.7377429298
 11
159.8488415275
 21
221.8377429298
  0
LINE
  5
2E6
100
AcDbEntity
  8
0
100
AcDbLine
 62
7
  6
CONTINUOUS
 10
159.8488415275
 20
227.6377429298
 11
159.8488415275
 21
227.7377429298
  0
LINE
  5
2E7
100
AcDbEntity
  8
0
100
AcDbLine
 62
7
  6
CONTINUOUS
 10
159.9988415275
 20
182.6572679707
 11
159.9988415275
 21
196.2377429298
  0
LINE
  5
2E8
100
AcDbEntity
  8
0
100
AcDbLine
 62
7
  6
CONTINUOUS
 10
159.9988415275
 20
202.2377429298
 11
159.9988415275
 21
221.7377429298
  0
LINE
  5
2E9
100
AcDbEntity
  8
0
100
AcDbLine
 62
7
  6
CONTINUOUS
 10
159.9988415275
 20
227.7377429298
 11
159.9988415275
 21
231.2377429298
  0
LINE
  5
2EA
100
AcDbEntity
  8
ASSI
100
AcDbLine
 62
7
  6
CONTINUOUS
 10
160.0488415275
 20
183.1465699298
 11
160.0488415275
 21
185.7377429298
  0
LINE
  5
2EB
100
AcDbEntity
  8
ASSI
100
AcDbLine
 62
7
  6
CONTINUOUS
 10
160.0488415275
 20
186.7377429298
 11
160.0488415275
 21
186.9362291919
  0
LINE
  5
2EC
100
AcDbEntity
  8
0
100
AcDbLine
 62
7
  6
CONTINUOUS
 10
160.0488415275
 20
187.5376414715
 11
160.0488415275
 21
188.8422784476
  0
LINE
  5
2ED
100
AcDbEntity
  8
0
100
AcDbLine
 62
7
  6
CONTINUOUS
 10
160.0488415275
 20
188.8426503616
 11
160.0488415275
 21
189.0313709298
  0
LINE
  5
2EE
100
AcDbEntity
  8
0
100
AcDbLine
 62
7
  6
CONTINUOUS
 10
160.0488415275
 20
189.0505209314
 11
160.0488415275
 21
189.5379258738
  0
LINE
  5
2EF
100
AcDbEntity
  8
0
100
AcDbLine
 62
7
  6
CONTINUOUS
 10
160.2488415275
 20
231.2377429298
 11
160.2488415275
 21
227.6377429298
  0
LINE
  5
2F0
100
AcDbEntity
  8
0
100
AcDbLine
 62
7
  6
CONTINUOUS
 10
160.2488415275
 20
221.8377429298
 11
160.2488415275
 21
202.1377429298
  0
LINE
  5
2F1
100
AcDbEntity
  8
DRAFT
100
AcDbLine
 62
7
  6
CONTINUOUS
 10
160.2488415275
 20
196.3377429298
 11
160.2488415275
 21
182.4197754871
  0
LINE
  5
2F2
100
AcDbEntity
  8
0
100
AcDbLine
 62
7
  6
CONTINUOUS
 10
160.5629843703
 20
227.6377429298
 11
160.5629843703
 21
221.8377429298
  0
LINE
  5
2F3
100
AcDbEntity
  8
0
100
AcDbLine
 62
7
  6
CONTINUOUS
 10
160.5629843703
 20
202.1377429298
 11
160.5629843703
 21
196.3377429298
  0
LINE
  5
2F4
100
AcDbEntity
  8
0
100
AcDbLine
 62
7
  6
CONTINUOUS
 10
160.7788415275
 20
231.3377429298
 11
160.7836500391
 21
182.4194642799
  0
LINE
  5
2F5
100
AcDbEntity
  8
RACCORDO
100
AcDbLine
 62
7
  6
CONTINUOUS
 10
160.0974440818
 20
193.5856913956
 11
160.0972325628
 21
191.9540457031
  0
LINE
  5
2F6
100
AcDbEntity
  8
0
100
AcDbLine
 62
7
  6
CONTINUOUS
 10
161.6841221075
 20
193.7926455669
 11
161.6843078264
 21
193.9943471584
  0
LWPOLYLINE
  5
2F7
100
AcDbEntity
  8
0
100
AcDbPolyline
 62
7
  6
CONTINUOUS
 90
10
 70
0
 10
161.7734273098
 20
198.2102869298
 10
161.7739078273
 20
198.3244507631
 10
161.7740548526
 20
198.4386141556
 10
161.7738683856
 20
198.5527771074
 10
161.7733484246
 20
198.6669397159
 10
161.7724949712
 20
198.7811018836
 10
161.7713080309
 20
198.8952633182
 10
161.7697876055
 20
199.0094239219
 10
161.7679336932
 20
199.1235837925
 10
161.7657462939
 20
199.2377429298
  0
LINE
  5
2F8
100
AcDbEntity
  8
0
100
AcDbLine
 62
7
  6
CONTINUOUS
 10
161.6826448407
 20
193.5909429298
 11
161.6841221075
 21
193.7926455669
  0
LINE
  5
2F9
100
AcDbEntity
  8
RACCORDO
100
AcDbLine
 62
7
  6
CONTINUOUS
 10
161.8202083297
 20
204.0848287633
 11
161.8202506043
 21
204.0890373259
  0
LINE
  5
2FA
100
AcDbEntity
  8
0
100
AcDbLine
 62
7
  6
CONTINUOUS
 10
161.5706468576
 20
189.2241829298
 11
161.5736918634
 21
189.4262309298
  0
LINE
  5
2FB
100
AcDbEntity
  8
0
100
AcDbLine
 62
7
  6
CONTINUOUS
 10
159.906656648
 20
196.2403787832
 11
159.9087893977
 21
196.3377429298
  0
LINE
  5
2FC
100
AcDbEntity
  8
0
100
AcDbLine
 62
7
  6
CONTINUOUS
 10
161.4872311248
 20
186.5311773339
 11
161.4962689423
 21
186.9587669298
  0
LINE
  5
2FD
100
AcDbEntity
  8
0
100
AcDbLine
 62
7
  6
CONTINUOUS
 10
161.4819824897
 20
186.3173829298
 11
161.4872311248
 21
186.5311773339
  0
LINE
  5
2FE
100
AcDbEntity
  8
0
100
AcDbLine
 62
7
  6
CONTINUOUS
 10
161.6599553144
 20
192.7492308009
 11
161.6678215234
 21
192.9509349298
  0
LINE
  5
2FF
100
AcDbEntity
  8
0
100
AcDbLine
 62
7
  6
CONTINUOUS
 10
161.6016081182
 20
190.4370389298
 11
161.6097234209
 21
190.6390949298
  0
LINE
  5
300
100
AcDbEntity
  8
0
100
AcDbLine
 62
7
  6
CONTINUOUS
 10
161.6507975314
 20
192.5475292094
 11
161.6599553144
 21
192.7492308009
  0
LWPOLYLINE
  5
301
100
AcDbEntity
  8
0
100
AcDbPolyline
 62
7
  6
CONTINUOUS
 90
10
 70
0
 10
161.7199344038
 20
196.5427749298
 10
161.7260031573
 20
196.6569335318
 10
161.7317384204
 20
196.7710932272
 10
161.7371401931
 20
196.8852540159
 10
161.7422084787
 20
196.999416001
 10
161.7469432738
 20
197.1135790794
 10
161.7513445688
 20
197.2277429424
 10
161.7554123604
 20
197.341907487
 10
161.759146652
 20
197.4560728162
 10
161.7625474434
 20
197.5702389298
  0
LINE
  5
302
100
AcDbEntity
  8
0
100
AcDbLine
 62
7
  6
CONTINUOUS
 10
161.6403481998
 20
192.3458309298
 11
161.6507975314
 21
192.5475292094
  0
LINE
  5
303
100
AcDbEntity
  8
ASSI
100
AcDbLine
 62
253
  6
CONTINUOUS
 10
141.6988415275
 20
218.7377429298
 11
141.4488415275
 21
218.7377429298
  0
LINE
  5
304
100
AcDbEntity
  8
ASSI
100
AcDbLine
 62
253
  6
CONTINUOUS
 10
159.9988415275
 20
218.7377429298
 11
160.2488415275
 21
218.7377429298
  0
LINE
  5
305
100
AcDbEntity
  8
RACCORDO
100
AcDbLine
 62
7
  6
CONTINUOUS
 10
154.2458648594
 20
177.5601589651
 11
154.2488415275
 21
177.568892053
  0
LINE
  5
306
100
AcDbEntity
  8
DRAFT
100
AcDbLine
 62
7
  6
CONTINUOUS
 10
158.520658697
 20
196.2595600993
 11
158.4988415275
 21
196.2377429298
  0
LINE
  5
307
100
AcDbEntity
  8
0
100
AcDbLine
 62
7
  6
CONTINUOUS
 10
154.1238415275
 20
219.7877429298
 11
154.0988415275
 21
219.7877429298
  0
LINE
  5
308
100
AcDbEntity
  8
0
100
AcDbLine
 62
7
  6
CONTINUOUS
 10
147.5988415275
 20
219.7877429298
 11
147.5738415275
 21
219.7877429298
  0
LINE
  5
309
100
AcDbEntity
  8
ASSI
100
AcDbLine
 62
7
  6
CONTINUOUS
 10
141.6988415275
 20
220.2377429298
 11
141.4488415275
 21
220.2377429298
  0
LINE
  5
30A
100
AcDbEntity
  8
ASSI
100
AcDbLine
 62
7
  6
CONTINUOUS
 10
159.9988415275
 20
220.2377429298
 11
160.2488415275
 21
220.2377429298
  0
LINE
  5
30B
100
AcDbEntity
  8
0
100
AcDbLine
 62
7
  6
CONTINUOUS
 10
141.6988415275
 20
221.7377429298
 11
143.1988415275
 21
221.7377429298
  0
LINE
  5
30C
100
AcDbEntity
  8
0
100
AcDbLine
 62
7
  6
CONTINUOUS
 10
158.4988415275
 20
221.7377429298
 11
159.9988415275
 21
221.7377429298
  0
LINE
  5
30D
100
AcDbEntity
  8
DRAFT
100
AcDbLine
 62
7
  6
CONTINUOUS
 10
143.177024358
 20
221.7595600993
 11
142.1936055185
 21
221.7595600993
  0
LINE
  5
30E
100
AcDbEntity
  8
DRAFT
100
AcDbLine
 62
7
  6
CONTINUOUS
 10
158.520658697
 20
221.7595600993
 11
159.4988415275
 21
221.7595600993
  0
LINE
  5
30F
100
AcDbEntity
  8
RACCORDO
100
AcDbLine
 62
7
  6
CONTINUOUS
 10
142.6488406295
 20
221.8377429298
 11
141.4488415275
 21
221.8377429298
  0
LINE
  5
310
100
AcDbEntity
  8
RACCORDO
100
AcDbLine
 62
7
  6
CONTINUOUS
 10
159.0488424255
 20
221.8377429298
 11
160.5629843703
 21
221.8377429298
  0
LWPOLYLINE
  5
311
100
AcDbEntity
  8
0
100
AcDbPolyline
 62
253
  6
CONTINUOUS
 90
10
 70
0
 10
160.7836500391
 20
182.4194642799
 10
160.7957712526
 20
182.4495506759
 10
160.8061369409
 20
182.4789142127
 10
160.8147471041
 20
182.5075548904
 10
160.8213347388
 20
182.5353623478
 10
160.8261668483
 20
182.562446946
 10
160.8300444427
 20
182.5891397685
 10
160.8332345254
 20
182.6155511762
 10
160.8354700928
 20
182.6415708081
 10
160.8367511452
 20
182.6671986642
  0
LINE
  5
312
100
AcDbEntity
  8
0
100
AcDbLine
 62
7
  6
CONTINUOUS
 10
154.1238415275
 20
223.7877429298
 11
154.0988415275
 21
223.7877429298
  0
LINE
  5
313
100
AcDbEntity
  8
0
100
AcDbLine
 62
7
  6
CONTINUOUS
 10
147.5988415275
 20
223.7877429298
 11
147.5738415275
 21
223.7877429298
  0
LINE
  5
314
100
AcDbEntity
  8
RACCORDO
100
AcDbLine
 62
253
  6
CONTINUOUS
 10
154.4422150441
 20
226.5377429298
 11
154.1238415275
 21
226.5377429298
  0
LINE
  5
315
100
AcDbEntity
  8
RACCORDO
100
AcDbLine
 62
253
  6
CONTINUOUS
 10
147.7488415275
 20
226.5377429298
 11
147.5988415275
 21
226.5377429298
  0
LINE
  5
316
100
AcDbEntity
  8
RACCORDO
100
AcDbLine
 62
253
  6
CONTINUOUS
 10
147.2554680109
 20
226.5377429298
 11
147.5738415275
 21
226.5377429298
  0
LINE
  5
317
100
AcDbEntity
  8
RACCORDO
100
AcDbLine
 62
253
  6
CONTINUOUS
 10
153.9488415275
 20
226.5377429298
 11
154.0988415275
 21
226.5377429294
  0
LINE
  5
318
100
AcDbEntity
  8
RACCORDO
100
AcDbLine
 62
253
  6
CONTINUOUS
 10
161.0775811938
 20
231.1690789318
 11
161.5673973169
 21
231.1825015074
  0
LINE
  5
319
100
AcDbEntity
  8
RACCORDO
100
AcDbLine
 62
7
  6
CONTINUOUS
 10
141.4488415275
 20
227.6377429298
 11
142.6488414619
 21
227.6377429298
  0
LINE
  5
31A
100
AcDbEntity
  8
RACCORDO
100
AcDbLine
 62
7
  6
CONTINUOUS
 10
159.0488415931
 20
227.6377429298
 11
160.5629843703
 21
227.6377429298
  0
LINE
  5
31B
100
AcDbEntity
  8
DRAFT
100
AcDbLine
 62
7
  6
CONTINUOUS
 10
143.177024358
 20
227.7159257603
 11
142.1936055185
 21
227.7159257603
  0
LINE
  5
31C
100
AcDbEntity
  8
DRAFT
100
AcDbLine
 62
7
  6
CONTINUOUS
 10
158.520658697
 20
227.7159257603
 11
159.5040775365
 21
227.7159257603
  0
LINE
  5
31D
100
AcDbEntity
  8
0
100
AcDbLine
 62
7
  6
CONTINUOUS
 10
159.9988415275
 20
227.7377429298
 11
158.4988415275
 21
227.7377429298
  0
LINE
  5
31E
100
AcDbEntity
  8
0
100
AcDbLine
 62
7
  6
CONTINUOUS
 10
143.1988415275
 20
227.7377429298
 11
141.6988415275
 21
227.7377429298
  0
LINE
  5
31F
100
AcDbEntity
  8
ASSI
100
AcDbLine
 62
7
  6
CONTINUOUS
 10
160.2488415275
 20
229.7377429298
 11
159.9988415275
 21
229.7377429298
  0
LINE
  5
320
100
AcDbEntity
  8
DRAFT
100
AcDbLine
 62
7
  6
CONTINUOUS
 10
141.6988415275
 20
229.7377444784
 11
141.4488415275
 21
229.7377429298
  0
LINE
  5
321
100
AcDbEntity
  8
RACCORDO
100
AcDbLine
 62
253
  6
CONTINUOUS
 10
140.6201018612
 20
231.1690789318
 11
140.1302857382
 21
231.1825015074
  0
LINE
  5
322
100
AcDbEntity
  8
DRAFT
100
AcDbLine
 62
7
  6
CONTINUOUS
 10
158.4988415275
 20
227.7377429298
 11
158.520658697
 21
227.7159257603
  0
LINE
  5
323
100
AcDbEntity
  8
RACCORDO
100
AcDbLine
 62
7
  6
CONTINUOUS
 10
150.8488415275
 20
234.0377429298
 11
145.2488415276
 21
233.6438030722
  0
LINE
  5
324
100
AcDbEntity
  8
0
100
AcDbLine
 62
7
  6
CONTINUOUS
 10
150.8488415275
 20
234.0377429298
 11
145.2488415275
 21
233.6438030722
  0
LINE
  5
325
100
AcDbEntity
  8
0
100
AcDbLine
 62
7
  6
CONTINUOUS
 10
160.7788415275
 20
231.2377429298
 11
159.5090955653
 21
231.2377429298
  0
LINE
  5
326
100
AcDbEntity
  8
0
100
AcDbLine
 62
7
  6
CONTINUOUS
 10
141.4488415275
 20
231.2377429298
 11
142.1885874897
 21
231.2377429298
  0
LINE
  5
327
100
AcDbEntity
  8
0
100
AcDbLine
 62
7
  6
CONTINUOUS
 10
141.4488415275
 20
231.3377429298
 11
143.2460919449
 21
231.3377429298
  0
LINE
  5
328
100
AcDbEntity
  8
0
100
AcDbLine
 62
7
  6
CONTINUOUS
 10
158.4515911101
 20
231.3377429298
 11
160.7788415275
 21
231.3377429298
  0
LINE
  5
329
100
AcDbEntity
  8
SUPERFICI
100
AcDbLine
 62
7
  6
CONTINUOUS
 10
156.4488415275
 20
233.6438030722
 11
150.8488415275
 21
234.0377429298
  0
LINE
  5
32A
100
AcDbEntity
  8
RACCORDO
100
AcDbLine
 62
7
  6
CONTINUOUS
 10
160.8291925612
 20
232.3194662703
 11
160.8295486712
 21
232.3192958308
  0
LWPOLYLINE
  5
32B
100
AcDbEntity
  8
RACCORDO
100
AcDbPolyline
 62
253
  6
CONTINUOUS
 90
10
 70
0
 10
169.1343678896
 20
-28.3391226198
 10
169.0922490809
 20
-28.3407482836
 10
169.0449958597
 20
-28.3287222486
 10
168.9929556711
 20
-28.3031328528
 10
168.9365111224
 20
-28.2641681342
 10
168.8760771691
 20
-28.2121144494
 10
168.8120980632
 20
-28.1473543679
 10
168.7450440892
 20
-28.0703638623
 10
168.6754081066
 20
-27.9817088104
 10
168.6037019256
 20
-27.8820408354
  0
LWPOLYLINE
  5
32C
100
AcDbEntity
  8
RACCORDO
100
AcDbPolyline
 62
253
  6
CONTINUOUS
 90
10
 70
0
 10
132.5632562014
 20
-28.3392705822
 10
132.6053722209
 20
-28.3408500673
 10
132.6526248907
 20
-28.3287826179
 10
132.7046669978
 20
-28.3031568972
 10
132.7611161371
 20
-28.264161191
 10
132.821557522
 20
-28.2120820238
 10
132.8855470329
 20
-28.1473020524
 10
132.952614479
 20
-28.0702972559
 10
133.0222670532
 20
-27.981633439
 10
133.0939929544
 20
-27.8819620736
  0
LWPOLYLINE
  5
32D
100
AcDbEntity
  8
RACCORDO
100
AcDbPolyline
 62
253
  6
CONTINUOUS
 90
7
 70
0
 10
133.319757504
 20
-27.943761864
 10
133.2815841313
 20
-27.9373671853
 10
133.2436263381
 20
-27.9294153732
 10
133.2058856328
 20
-27.9199066366
 10
133.168363525
 20
-27.9088411854
 10
133.1310615255
 20
-27.8962192307
 10
133.0939811463
 20
-27.8820409847
  0
LWPOLYLINE
  5
32E
100
AcDbEntity
  8
RACCORDO
100
AcDbPolyline
 62
253
  6
CONTINUOUS
 90
7
 70
0
 10
133.2338927409
 20
-28.5219894111
 10
133.1198694299
 20
-28.5026935054
 10
133.0065111574
 20
-28.4789193828
 10
132.8939923946
 20
-28.4506774942
 10
132.7824880559
 20
-28.4179852221
 10
132.6721732242
 20
-28.3808669429
 10
132.5632228715
 20
-28.3393540797
  0
LWPOLYLINE
  5
32F
100
AcDbEntity
  8
RACCORDO
100
AcDbPolyline
 62
7
  6
CONTINUOUS
 90
16
 70
0
 10
133.1549358324
 20
-28.5883599393
 10
132.8737037335
 20
-28.5323281147
 10
132.6030483149
 20
-28.4516577094
 10
132.3429695769
 20
-28.3463487236
 10
132.0909688609
 20
-28.2148127235
 10
131.8495448253
 20
-28.0586381429
 10
131.6261934452
 20
-27.8825902823
 10
131.4220159995
 20
-27.6866753998
 10
131.2359112093
 20
-27.4708872373
 10
131.0720712132
 20
-27.2399723215
 10
130.9306391191
 20
-26.992674141
 10
130.8114718192
 20
-26.7302492072
 10
130.7183321285
 20
-26.46121358
 10
130.6524743189
 20
-26.1884059461
 10
130.6126441185
 20
-25.9089876189
 10
130.5988415275
 20
-25.6229585984
  0
LINE
  5
330
100
AcDbEntity
  8
RACCORDO
100
AcDbLine
 62
253
  6
CONTINUOUS
 10
171.0215737737
 20
-25.556336745
 11
170.8885517308
 21
-25.5563758283
  0
LINE
  5
331
100
AcDbEntity
  8
RACCORDO
100
AcDbLine
 62
253
  6
CONTINUOUS
 10
130.6761092813
 20
-25.556336745
 11
131.2606773729
 21
-25.556336745
  0
LINE
  5
332
100
AcDbEntity
  8
RACCORDO
100
AcDbLine
 62
253
  6
CONTINUOUS
 10
167.5798656566
 20
-23.3226584475
 11
166.1656520943
 21
-23.3226584475
  0
LINE
  5
333
100
AcDbEntity
  8
RACCORDO
100
AcDbLine
 62
253
  6
CONTINUOUS
 10
134.1178173983
 20
-23.3226584472
 11
135.5320309607
 21
-23.3226584472
  0
LINE
  5
334
100
AcDbEntity
  8
RACCORDO
100
AcDbLine
 62
253
  6
CONTINUOUS
 10
170.8885517308
 20
-25.5563758283
 11
170.437005682
 21
-25.556336745
  0
LWPOLYLINE
  5
335
100
AcDbEntity
  8
RACCORDO
100
AcDbPolyline
 62
253
  6
CONTINUOUS
 90
16
 70
0
 10
136.1488033057
 20
-24.0239712625
 10
136.0804601312
 20
-24.0135948896
 10
136.0140629184
 20
-23.9971056988
 10
135.9496116674
 20
-23.9745036904
 10
135.8860871851
 20
-23.9457243867
 10
135.8245086646
 20
-23.9108322652
 10
135.7679336854
 20
-23.8700207588
 10
135.7168442785
 20
-23.8226413412
 10
135.670758413
 20
-23.7693425387
 10
135.6312875754
 20
-23.7122633632
 10
135.5991381931
 20
-23.6510805243
 10
135.5736038388
 20
-23.5861173125
 10
135.5541767179
 20
-23.5204826106
 10
135.5406875655
 20
-23.4552127129
 10
135.5333056464
 20
-23.3892713251
 10
135.5320309607
 20
-23.3226584472
  0
LWPOLYLINE
  5
336
100
AcDbEntity
  8
RACCORDO
100
AcDbPolyline
 62
253
  6
CONTINUOUS
 90
16
 70
0
 10
135.9681343966
 20
-25.4265969468
 10
135.8074288629
 20
-25.3577390458
 10
135.6455496293
 20
-25.2757458558
 10
135.4832281065
 20
-25.1801681984
 10
135.3197822131
 20
-25.069870149
 10
135.1577981091
 20
-24.9452472454
 10
135.0027887926
 20
-24.8088487919
 10
134.8559653997
 20
-24.6608641868
 10
134.7178039688
 20
-24.5021505077
 10
134.5919607585
 20
-24.3373032661
 10
134.4790436688
 20
-24.167124377
 10
134.3789792369
 20
-23.9927347853
 10
134.2932791153
 20
-23.8197536668
 10
134.2218401852
 20
-23.6507078741
 10
134.1635672258
 20
-23.4848019118
 10
134.1178173983
 20
-23.3226584472
  0
LWPOLYLINE
  5
337
100
AcDbEntity
  8
RACCORDO
100
AcDbPolyline
 62
253
  6
CONTINUOUS
 90
13
 70
0
 10
132.5632228715
 20
-28.3393540797
 10
132.3446813201
 20
-28.2407999931
 10
132.1347028592
 20
-28.1252155909
 10
131.9346148357
 20
-27.9933718542
 10
131.7457216223
 20
-27.846178382
 10
131.5691546452
 20
-27.6845737082
 10
131.4058965053
 20
-27.5094843943
 10
131.2569725598
 20
-27.3220040035
 10
131.1233530247
 20
-27.1233418274
 10
131.005848223
 20
-26.9146731388
 10
130.9052169838
 20
-26.6972860856
 10
130.8221397006
 20
-26.4725880221
 10
130.7571689965
 20
-26.2420082048
  0
LWPOLYLINE
  5
338
100
AcDbEntity
  8
RACCORDO
100
AcDbPolyline
 62
253
  6
CONTINUOUS
 90
13
 70
0
 10
133.0939811121
 20
-27.8820409855
 10
132.8957745082
 20
-27.766051969
 10
132.7026647172
 20
-27.6359962412
 10
132.5158277068
 20
-27.4927715433
 10
132.3364269864
 20
-27.3373969309
 10
132.1655430844
 20
-27.1708624049
 10
132.0041820011
 20
-26.9941024282
 10
131.8533849803
 20
-26.8082039409
 10
131.7140991734
 20
-26.614390341
 10
131.5871318391
 20
-26.4138489959
 10
131.4733024234
 20
-26.2078188157
 10
131.3734239364
 20
-25.9975897035
 10
131.2881993575
 20
-25.7844608691
  0
LINE
  5
339
100
AcDbEntity
  8
RACCORDO
100
AcDbLine
 62
253
  6
CONTINUOUS
 10
154.7488415275
 20
-20.9000045658
 11
153.2488415275
 21
-20.9000045658
  0
LINE
  5
33A
100
AcDbEntity
  8
RACCORDO
100
AcDbLine
 62
253
  6
CONTINUOUS
 10
146.9488415275
 20
-20.9000045658
 11
148.4488415275
 21
-20.9000045658
  0
LWPOLYLINE
  5
33B
100
AcDbEntity
  8
RACCORDO
100
AcDbPolyline
 62
253
  6
CONTINUOUS
 90
7
 70
0
 10
132.3894286232
 20
133.7902279884
 10
132.4887744594
 20
133.8355760467
 10
132.589600731
 20
133.8771701492
 10
132.6917671709
 20
133.9149710294
 10
132.7951327677
 20
133.9489447386
 10
132.8995559658
 20
133.9790626404
 10
133.0048948642
 20
134.0053013971
  0
LWPOLYLINE
  5
33C
100
AcDbEntity
  8
RACCORDO
100
AcDbPolyline
 62
253
  6
CONTINUOUS
 90
7
 70
0
 10
132.9268817284
 20
133.3625654214
 10
132.9609841793
 20
133.3781225776
 10
132.9953499405
 20
133.392318926
 10
133.0299771257
 20
133.4051541071
 10
133.064863854
 20
133.4166277643
 10
133.1000082499
 20
133.4267395439
 10
133.1354084433
 20
133.4354890951
  0
LINE
  5
33D
100
AcDbEntity
  8
0
100
AcDbLine
 62
7
  6
CONTINUOUS
 10
149.570016969
 20
129.4703373352
 11
149.5077525275
 21
129.4440438008
  0
LWPOLYLINE
  5
33E
100
AcDbEntity
  8
RACCORDO
100
AcDbPolyline
 62
253
  6
CONTINUOUS
 90
22
 70
0
 10
157.2532864444
 20
132.6497376951
 10
157.1402159303
 20
132.6052017758
 10
157.0238697681
 20
132.5581159002
 10
156.9042274155
 20
132.5084800685
 10
156.7812893089
 20
132.456328755
 10
156.655023879
 20
132.4016274853
 10
156.5253666889
 20
132.344272836
 10
156.3924739809
 20
132.2843325583
 10
156.2561809506
 20
132.221738901
 10
156.1159378576
 20
132.1561851865
 10
155.9718449681
 20
132.0877221492
 10
155.8238047483
 20
132.0162990549
 10
155.670958351
 20
131.9414570224
 10
155.5133017259
 20
131.863182523
 10
155.3508606544
 20
131.7814890855
 10
155.1828127902
 20
131.6959584158
 10
155.0091856199
 20
131.6065560883
 10
154.8300217006
 20
131.5133165286
 10
154.644525549
 20
131.4159247186
 10
154.4524811478
 20
131.3142756523
 10
154.254260917
 20
131.2084743357
 10
154.049975631
 20
131.0985207689
  0
LINE
  5
33F
100
AcDbEntity
  8
0
100
AcDbLine
 62
7
  6
CONTINUOUS
 10
150.2604115275
 20
-7.8061215658
 11
151.4426575275
 21
-7.8061215658
  0
LINE
  5
340
100
AcDbEntity
  8
0
100
AcDbLine
 62
7
  6
CONTINUOUS
 10
151.4426575275
 20
-7.3894565658
 11
151.0735455275
 21
-7.3894565658
  0
LINE
  5
341
100
AcDbEntity
  8
0
100
AcDbLine
 62
7
  6
CONTINUOUS
 10
150.6296665275
 20
-7.3894565658
 11
150.2604115275
 21
-7.3894565658
  0
LINE
  5
342
100
AcDbEntity
  8
0
100
AcDbLine
 62
7
  6
CONTINUOUS
 10
150.2740185275
 20
-4.4292585658
 11
150.6296665275
 21
-4.4292585658
  0
LINE
  5
343
100
AcDbEntity
  8
0
100
AcDbLine
 62
7
  6
CONTINUOUS
 10
151.0735455275
 20
-4.4292585658
 11
151.4290505275
 21
-4.4292585658
  0
LINE
  5
344
100
AcDbEntity
  8
0
100
AcDbLine
 62
7
  6
CONTINUOUS
 10
151.4290505275
 20
-4.0103015658
 11
150.2740185275
 21
-4.0103015658
  0
LWPOLYLINE
  5
345
100
AcDbEntity
  8
0
100
AcDbPolyline
 62
7
  6
CONTINUOUS
 90
7
 70
0
 10
149.5937169999
 20
129.7186187205
 10
149.673939145
 20
129.7654266133
 10
149.7484189629
 20
129.814949315
 10
149.8173535848
 20
129.8674503473
 10
149.8805458796
 20
129.9226661885
 10
149.937404453
 20
129.9798062743
 10
149.9877321738
 20
130.038607083
  0
LINE
  5
346
100
AcDbEntity
  8
0
100
AcDbLine
 62
7
  6
CONTINUOUS
 10
149.5077525275
 20
129.6745256366
 11
149.5937169999
 21
129.7186187205
  0
LWPOLYLINE
  5
347
100
AcDbEntity
  8
0
100
AcDbPolyline
 62
7
  6
CONTINUOUS
 90
15
 70
0
 10
151.0971033138
 20
125.4198126869
 10
151.017086397
 20
125.3848594424
 10
150.9314359955
 20
125.361587501
 10
150.8446580195
 20
125.3485564121
 10
150.7559344055
 20
125.3456498134
 10
150.6660832171
 20
125.3529840672
 10
150.5820645548
 20
125.3694678099
 10
150.5057077878
 20
125.3950774385
 10
150.435183547
 20
125.4298365559
 10
150.3719638252
 20
125.4727246069
 10
150.3163020193
 20
125.5237931461
 10
150.2679447325
 20
125.5829906189
 10
150.2276037672
 20
125.6491418066
 10
150.1955163908
 20
125.7218549695
 10
150.1714453359
 20
125.8015218473
  0
LINE
  5
348
100
AcDbEntity
  8
0
100
AcDbLine
 62
7
  6
CONTINUOUS
 10
148.4738414679
 20
-1.2766003148
 11
148.3488415871
 21
-1.3085152046
  0
LINE
  5
349
100
AcDbEntity
  8
0
100
AcDbLine
 62
7
  6
CONTINUOUS
 10
147.9738415871
 20
-0.2234087945
 11
148.0988414679
 21
-0.1914939047
  0
LINE
  5
34A
100
AcDbEntity
  8
0
100
AcDbLine
 62
7
  6
CONTINUOUS
 10
148.3488415871
 20
-1.5000045658
 11
148.5050915275
 21
-1.4680896732
  0
LINE
  5
34B
100
AcDbEntity
  8
0
100
AcDbLine
 62
7
  6
CONTINUOUS
 10
148.0988414679
 20
-0.0000045658
 11
147.9425915275
 21
-0.0319194556
  0
LINE
  5
34C
100
AcDbEntity
  8
0
100
AcDbLine
 62
7
  6
CONTINUOUS
 10
151.9113416467
 20
2.4999954342
 11
152.0675914083
 21
2.5319103268
  0
LINE
  5
34D
100
AcDbEntity
  8
0
100
AcDbLine
 62
7
  6
CONTINUOUS
 10
146.1613415275
 20
-1.5000045658
 11
146.3488415275
 21
-1.5000045658
  0
LINE
  5
34E
100
AcDbEntity
  8
0
100
AcDbLine
 62
7
  6
CONTINUOUS
 10
147.1300914977
 20
-1.5000045658
 11
147.3488415573
 21
-1.5000045658
  0
LINE
  5
34F
100
AcDbEntity
  8
0
100
AcDbLine
 62
7
  6
CONTINUOUS
 10
148.0988414679
 20
-1.5000045658
 11
148.3488415871
 21
-1.5000045658
  0
LINE
  5
350
100
AcDbEntity
  8
0
100
AcDbLine
 62
7
  6
CONTINUOUS
 10
149.0988415871
 20
-1.5000045658
 11
149.2863414083
 21
-1.5000045658
  0
LINE
  5
351
100
AcDbEntity
  8
0
100
AcDbLine
 62
7
  6
CONTINUOUS
 10
149.7238415275
 20
-1.5000045658
 11
149.9738416467
 21
-1.5000045658
  0
LINE
  5
352
100
AcDbEntity
  8
0
100
AcDbLine
 62
7
  6
CONTINUOUS
 10
150.4113414083
 20
-1.5000045658
 11
150.5988414083
 21
-1.5000045658
  0
LINE
  5
353
100
AcDbEntity
  8
0
100
AcDbLine
 62
7
  6
CONTINUOUS
 10
150.8488415275
 20
-1.5000045658
 11
151.0363415275
 21
-1.5000045658
  0
LINE
  5
354
100
AcDbEntity
  8
0
100
AcDbLine
 62
7
  6
CONTINUOUS
 10
151.9113414083
 20
-1.5000045658
 11
152.0988414083
 21
-1.5000045658
  0
LINE
  5
355
100
AcDbEntity
  8
0
100
AcDbLine
 62
7
  6
CONTINUOUS
 10
152.3488415275
 20
-1.5000045658
 11
152.5363415275
 21
-1.5000045658
  0
LINE
  5
356
100
AcDbEntity
  8
0
100
AcDbLine
 62
7
  6
CONTINUOUS
 10
153.3175917659
 20
-1.5000045658
 11
153.5988417659
 21
-1.5000045658
  0
LINE
  5
357
100
AcDbEntity
  8
0
100
AcDbLine
 62
7
  6
CONTINUOUS
 10
153.8488415275
 20
-1.5000045658
 11
154.0363415275
 21
-1.5000045658
  0
LINE
  5
358
100
AcDbEntity
  8
0
100
AcDbLine
 62
7
  6
CONTINUOUS
 10
154.2863412891
 20
-1.5000045658
 11
154.4738412891
 21
-1.5000045658
  0
LINE
  5
359
100
AcDbEntity
  8
0
100
AcDbLine
 62
7
  6
CONTINUOUS
 10
155.3488415275
 20
-1.5000045658
 11
155.5363415275
 21
-1.5000045658
  0
LINE
  5
35A
100
AcDbEntity
  8
0
100
AcDbLine
 62
7
  6
CONTINUOUS
 10
148.3488415871
 20
-1.3085152046
 11
148.0988414679
 21
-1.3085152046
  0
LINE
  5
35B
100
AcDbEntity
  8
0
100
AcDbLine
 62
7
  6
CONTINUOUS
 10
151.1613414083
 20
-1.1170258434
 11
151.7863415275
 21
-1.1170258434
  0
LINE
  5
35C
100
AcDbEntity
  8
0
100
AcDbLine
 62
7
  6
CONTINUOUS
 10
154.5988415275
 20
-1.1170258434
 11
155.2238412891
 21
-1.1170258434
  0
LINE
  5
35D
100
AcDbEntity
  8
0
100
AcDbLine
 62
7
  6
CONTINUOUS
 10
155.1925917659
 20
-0.9893662841
 11
154.6300917659
 21
-0.9893662841
  0
LINE
  5
35E
100
AcDbEntity
  8
0
100
AcDbLine
 62
7
  6
CONTINUOUS
 10
151.7550916467
 20
-0.9893662841
 11
151.1925916467
 21
-0.9893662841
  0
LINE
  5
35F
100
AcDbEntity
  8
0
100
AcDbLine
 62
7
  6
CONTINUOUS
 10
146.3488415275
 20
-0.8297917904
 11
146.8800915126
 21
-0.8297917904
  0
LINE
  5
360
100
AcDbEntity
  8
0
100
AcDbLine
 62
7
  6
CONTINUOUS
 10
146.9425914977
 20
-0.6383024515
 11
146.3488415275
 21
-0.6383024515
  0
LINE
  5
361
100
AcDbEntity
  8
0
100
AcDbLine
 62
7
  6
CONTINUOUS
 10
148.0988414679
 20
-0.1914939047
 11
148.3488415871
 21
-0.1914939047
  0
LINE
  5
362
100
AcDbEntity
  8
0
100
AcDbLine
 62
7
  6
CONTINUOUS
 10
146.3488415275
 20
-0.1595790149
 11
146.9425914977
 21
-0.1595790149
  0
LINE
  5
363
100
AcDbEntity
  8
0
100
AcDbLine
 62
7
  6
CONTINUOUS
 10
155.0363412891
 20
-0.0000045658
 11
154.7863415275
 21
-0.0000045658
  0
LINE
  5
364
100
AcDbEntity
  8
0
100
AcDbLine
 62
7
  6
CONTINUOUS
 10
154.0363415275
 20
-0.0000045658
 11
153.8488415275
 21
-0.0000045658
  0
LINE
  5
365
100
AcDbEntity
  8
0
100
AcDbLine
 62
7
  6
CONTINUOUS
 10
153.5988417659
 20
-0.0000045658
 11
153.4113417659
 21
-0.0000045658
  0
LINE
  5
366
100
AcDbEntity
  8
0
100
AcDbLine
 62
7
  6
CONTINUOUS
 10
152.6300915275
 20
-0.0000045658
 11
152.3488415275
 21
-0.0000045658
  0
LINE
  5
367
100
AcDbEntity
  8
0
100
AcDbLine
 62
7
  6
CONTINUOUS
 10
151.5988415275
 20
-0.0000045658
 11
151.3488414083
 21
-0.0000045658
  0
LINE
  5
368
100
AcDbEntity
  8
0
100
AcDbLine
 62
7
  6
CONTINUOUS
 10
150.5988414083
 20
-0.0000045658
 11
150.3175914083
 21
-0.0000045658
  0
LINE
  5
369
100
AcDbEntity
  8
0
100
AcDbLine
 62
7
  6
CONTINUOUS
 10
149.3800914083
 20
-0.0000045658
 11
149.0988415871
 21
-0.0000045658
  0
LINE
  5
36A
100
AcDbEntity
  8
0
100
AcDbLine
 62
7
  6
CONTINUOUS
 10
148.3488415871
 20
-0.0000045658
 11
148.0988414679
 21
-0.0000045658
  0
LINE
  5
36B
100
AcDbEntity
  8
0
100
AcDbLine
 62
7
  6
CONTINUOUS
 10
146.9113415275
 20
-0.0000045658
 11
146.1613415275
 21
-0.0000045658
  0
LINE
  5
36C
100
AcDbEntity
  8
0
100
AcDbLine
 62
7
  6
CONTINUOUS
 10
150.0050915275
 20
0.4999954342
 11
150.1925915275
 21
0.4999954342
  0
LINE
  5
36D
100
AcDbEntity
  8
0
100
AcDbLine
 62
7
  6
CONTINUOUS
 10
150.4425915126
 20
0.4999954342
 11
150.6300915126
 21
0.4999954342
  0
LINE
  5
36E
100
AcDbEntity
  8
0
100
AcDbLine
 62
7
  6
CONTINUOUS
 10
151.4113415275
 20
0.4999954342
 11
151.6925915275
 21
0.4999954342
  0
LINE
  5
36F
100
AcDbEntity
  8
0
100
AcDbLine
 62
7
  6
CONTINUOUS
 10
151.6925915275
 20
1.9999954342
 11
151.5050915275
 21
1.9999954342
  0
LINE
  5
370
100
AcDbEntity
  8
0
100
AcDbLine
 62
7
  6
CONTINUOUS
 10
150.7238415126
 20
1.9999954342
 11
150.4425915126
 21
1.9999954342
  0
LINE
  5
371
100
AcDbEntity
  8
0
100
AcDbLine
 62
7
  6
CONTINUOUS
 10
150.1925915275
 20
1.9999954342
 11
150.0050915275
 21
1.9999954342
  0
LINE
  5
372
100
AcDbEntity
  8
0
100
AcDbLine
 62
7
  6
CONTINUOUS
 10
147.9113415275
 20
2.4999954342
 11
148.0988415275
 21
2.4999954342
  0
LINE
  5
373
100
AcDbEntity
  8
0
100
AcDbLine
 62
7
  6
CONTINUOUS
 10
148.5363415126
 20
2.4999954342
 11
148.7863414977
 21
2.4999954342
  0
LINE
  5
374
100
AcDbEntity
  8
0
100
AcDbLine
 62
7
  6
CONTINUOUS
 10
149.2238415275
 20
2.4999954342
 11
149.4113415275
 21
2.4999954342
  0
LINE
  5
375
100
AcDbEntity
  8
0
100
AcDbLine
 62
7
  6
CONTINUOUS
 10
149.6613414679
 20
2.4999954342
 11
149.8488414679
 21
2.4999954342
  0
LINE
  5
376
100
AcDbEntity
  8
0
100
AcDbLine
 62
7
  6
CONTINUOUS
 10
150.7238415275
 20
2.4999954342
 11
150.9113415275
 21
2.4999954342
  0
LINE
  5
377
100
AcDbEntity
  8
0
100
AcDbLine
 62
7
  6
CONTINUOUS
 10
151.1613416467
 20
2.4999954342
 11
151.9113416467
 21
2.4999954342
  0
LINE
  5
378
100
AcDbEntity
  8
0
100
AcDbLine
 62
7
  6
CONTINUOUS
 10
152.6613416467
 20
2.4999954342
 11
153.7863416467
 21
2.4999954342
  0
LINE
  5
379
100
AcDbEntity
  8
0
100
AcDbLine
 62
7
  6
CONTINUOUS
 10
153.7863416467
 20
2.6914847954
 11
152.8488416467
 21
2.6914847954
  0
LINE
  5
37A
100
AcDbEntity
  8
0
100
AcDbLine
 62
7
  6
CONTINUOUS
 10
151.9113416467
 20
2.6914847954
 11
151.3488416467
 21
2.6914847954
  0
LINE
  5
37B
100
AcDbEntity
  8
0
100
AcDbLine
 62
7
  6
CONTINUOUS
 10
149.9738415275
 20
2.8829741566
 11
150.5988414679
 21
2.8829741566
  0
LINE
  5
37C
100
AcDbEntity
  8
0
100
AcDbLine
 62
7
  6
CONTINUOUS
 10
150.5675915871
 20
3.0106337159
 11
150.0050915871
 21
3.0106337159
  0
LINE
  5
37D
100
AcDbEntity
  8
0
100
AcDbLine
 62
7
  6
CONTINUOUS
 10
152.8488416467
 20
3.2021230994
 11
153.6613414083
 21
3.2021230994
  0
LINE
  5
37E
100
AcDbEntity
  8
0
100
AcDbLine
 62
7
  6
CONTINUOUS
 10
153.6613414083
 20
3.3936124383
 11
152.8488416467
 21
3.3936124383
  0
LINE
  5
37F
100
AcDbEntity
  8
0
100
AcDbLine
 62
7
  6
CONTINUOUS
 10
151.3488416467
 20
3.8085060953
 11
151.9113416467
 21
3.8085060953
  0
LINE
  5
380
100
AcDbEntity
  8
0
100
AcDbLine
 62
7
  6
CONTINUOUS
 10
152.8488416467
 20
3.8085060953
 11
153.7863416467
 21
3.8085060953
  0
LINE
  5
381
100
AcDbEntity
  8
0
100
AcDbLine
 62
7
  6
CONTINUOUS
 10
153.7863416467
 20
3.9999954342
 11
152.6613416467
 21
3.9999954342
  0
LINE
  5
382
100
AcDbEntity
  8
0
100
AcDbLine
 62
7
  6
CONTINUOUS
 10
151.9113416467
 20
3.9999954342
 11
151.1613416467
 21
3.9999954342
  0
LINE
  5
383
100
AcDbEntity
  8
0
100
AcDbLine
 62
7
  6
CONTINUOUS
 10
150.4113414679
 20
3.9999954342
 11
150.1613415275
 21
3.9999954342
  0
LINE
  5
384
100
AcDbEntity
  8
0
100
AcDbLine
 62
7
  6
CONTINUOUS
 10
149.4113415275
 20
3.9999954342
 11
149.1300915275
 21
3.9999954342
  0
LINE
  5
385
100
AcDbEntity
  8
0
100
AcDbLine
 62
7
  6
CONTINUOUS
 10
148.1925915275
 20
3.9999954342
 11
147.9113415275
 21
3.9999954342
  0
LINE
  5
386
100
AcDbEntity
  8
0
100
AcDbLine
 62
7
  6
CONTINUOUS
 10
147.9425915275
 20
-1.4680896732
 11
148.0988414679
 21
-1.5000045658
  0
LINE
  5
387
100
AcDbEntity
  8
0
100
AcDbLine
 62
7
  6
CONTINUOUS
 10
147.0675915573
 20
-0.0319194556
 11
146.9113415275
 21
-0.0000045658
  0
LINE
  5
388
100
AcDbEntity
  8
0
100
AcDbLine
 62
7
  6
CONTINUOUS
 10
148.5050915275
 20
-0.0319194556
 11
148.3488415871
 21
-0.0000045658
  0
LINE
  5
389
100
AcDbEntity
  8
0
100
AcDbLine
 62
7
  6
CONTINUOUS
 10
148.0988414679
 20
-1.3085152046
 11
147.9738415871
 21
-1.2766003148
  0
LINE
  5
38A
100
AcDbEntity
  8
0
100
AcDbLine
 62
7
  6
CONTINUOUS
 10
148.3488415871
 20
-0.1914939047
 11
148.4738414679
 21
-0.2234087945
  0
LINE
  5
38B
100
AcDbEntity
  8
0
100
AcDbLine
 62
7
  6
CONTINUOUS
 10
146.9425914977
 20
-0.1595790149
 11
147.0363414977
 21
-0.1914939047
  0
LWPOLYLINE
  5
38C
100
AcDbEntity
  8
C_CALOTTA
100
AcDbPolyline
 62
7
  6
CONTINUOUS
 90
15
 70
0
 10
154.722450815
 20
-14.2176825929
 10
154.6064464278
 20
-14.1456560382
 10
154.0629816389
 20
-13.864871751
 10
153.5050661604
 20
-13.6297484275
 10
152.9345802878
 20
-13.4416449036
 10
152.3496497133
 20
-13.2992023435
 10
151.7570978877
 20
-13.2040586479
 10
151.1541306806
 20
-13.1567597837
 10
150.5435523672
 20
-13.156759784
 10
149.94058516
 20
-13.2040586488
 10
149.3480333338
 20
-13.2992023453
 10
148.7631027585
 20
-13.4416449063
 10
148.1926168861
 20
-13.6297484307
 10
147.6347014094
 20
-13.8648717538
 10
147.0912366231
 20
-14.1456560402
  0
LWPOLYLINE
  5
38D
100
AcDbEntity
  8
RACCORDO
100
AcDbPolyline
 62
253
  6
CONTINUOUS
 90
10
 70
0
 10
141.2456928153
 20
135.0542100379
 10
141.2177507613
 20
135.0181963913
 10
141.1859353505
 20
134.9836541035
 10
141.1505745848
 20
134.9509392955
 10
141.1120330177
 20
134.9203892474
 10
141.0707079951
 20
134.8923189219
 10
141.0270255595
 20
134.8670177166
 10
140.9814360573
 20
134.8447464805
 10
140.9344094959
 20
134.8257348247
 10
140.8864306982
 20
134.8101787554
  0
LWPOLYLINE
  5
38E
100
AcDbEntity
  8
0
100
AcDbPolyline
 62
7
  6
CONTINUOUS
 90
9
 70
0
 10
149.9846115275
 20
129.7314837869
 10
149.9414983509
 20
129.6939787338
 10
149.895843504
 20
129.6578558794
 10
149.8476469869
 20
129.6231152235
 10
149.7968102914
 20
129.5897439387
 10
149.7434319258
 20
129.5577548524
 10
149.6878074141
 20
129.5271864473
 10
149.6300352645
 20
129.4980515507
 10
149.570016969
 20
129.4703373352
  0
LWPOLYLINE
  5
38F
100
AcDbEntity
  8
RACCORDO
100
AcDbPolyline
 62
253
  6
CONTINUOUS
 90
5
 70
0
 10
160.7692227731
 20
135.404656314
 10
160.7589550545
 20
135.3970226404
 10
160.7455786611
 20
135.383590665
 10
160.7290568018
 20
135.364933875
 10
160.7095912241
 20
135.3417034775
  0
LWPOLYLINE
  5
390
100
AcDbEntity
  8
0
100
AcDbPolyline
 62
7
  6
CONTINUOUS
 90
25
 70
0
 10
150.4725415777
 20
126.5441416881
 10
150.5519224679
 20
126.59207415
 10
150.632639263
 20
126.6280720595
 10
150.714691963
 20
126.6521354167
 10
150.79966834
 20
126.6639662605
 10
150.8859806218
 20
126.663862552
 10
150.968865492
 20
126.6527181743
 10
151.047798105
 20
126.630318626
 10
151.1233033064
 20
126.5968784085
 10
151.1921923167
 20
126.5539349091
 10
151.2543099966
 20
126.5013011227
 10
151.3098114853
 20
126.4391640544
 10
151.355973421
 20
126.3696221068
 10
151.3924142101
 20
126.2917860394
 10
151.4195154462
 20
126.2065450927
 10
151.435698548
 20
126.1186653903
 10
151.440493319
 20
126.0278580422
 10
151.4343699558
 20
125.9344119383
 10
151.4171604661
 20
125.8439598718
 10
151.3882035034
 20
125.7567340757
 10
151.3481604143
 20
125.6725023169
 10
151.298847246
 20
125.5962006893
 10
151.2396571496
 20
125.5282241667
 10
151.171196974
 20
125.4681777753
 10
151.0971033138
 20
125.4198126869
  0
LINE
  5
391
100
AcDbEntity
  8
0
100
AcDbLine
 62
7
  6
CONTINUOUS
 10
152.0363415275
 20
2.7233996852
 11
151.9113416467
 21
2.6914847954
  0
LINE
  5
392
100
AcDbEntity
  8
0
100
AcDbLine
 62
7
  6
CONTINUOUS
 10
154.1300915275
 20
5.7191443695
 11
153.8696746621
 21
5.6659528865
  0
LINE
  5
393
100
AcDbEntity
  8
0
100
AcDbLine
 62
7
  6
CONTINUOUS
 10
149.3384249602
 20
5.7191443695
 11
149.0780080948
 21
5.6659528865
  0
LINE
  5
394
100
AcDbEntity
  8
0
100
AcDbLine
 62
7
  6
CONTINUOUS
 10
147.0467581693
 20
5.7191443695
 11
146.7863415275
 21
5.6659528865
  0
LINE
  5
395
100
AcDbEntity
  8
0
100
AcDbLine
 62
7
  6
CONTINUOUS
 10
153.6092583928
 20
7.580846536
 11
153.8696746621
 21
7.6340380191
  0
LINE
  5
396
100
AcDbEntity
  8
0
100
AcDbLine
 62
7
  6
CONTINUOUS
 10
148.8175915275
 20
7.580846536
 11
149.0780080948
 21
7.6340380191
  0
LINE
  5
397
100
AcDbEntity
  8
0
100
AcDbLine
 62
7
  6
CONTINUOUS
 10
146.5259248857
 20
7.580846536
 11
146.7863415275
 21
7.6340380191
  0
LINE
  5
398
100
AcDbEntity
  8
0
100
AcDbLine
 62
7
  6
CONTINUOUS
 10
153.8696746621
 20
5.3999954342
 11
154.1821746621
 21
5.4531869218
  0
LINE
  5
399
100
AcDbEntity
  8
0
100
AcDbLine
 62
7
  6
CONTINUOUS
 10
149.0780080948
 20
5.3999954342
 11
149.3905080948
 21
5.4531869218
  0
LINE
  5
39A
100
AcDbEntity
  8
0
100
AcDbLine
 62
7
  6
CONTINUOUS
 10
146.7863415275
 20
5.3999954342
 11
147.0988415275
 21
5.4531869218
  0
LINE
  5
39B
100
AcDbEntity
  8
0
100
AcDbLine
 62
7
  6
CONTINUOUS
 10
153.8696746621
 20
7.8999954342
 11
153.5571746621
 21
7.8468039511
  0
LINE
  5
39C
100
AcDbEntity
  8
0
100
AcDbLine
 62
7
  6
CONTINUOUS
 10
149.0780080948
 20
7.8999954342
 11
148.7655080948
 21
7.8468039511
  0
LINE
  5
39D
100
AcDbEntity
  8
0
100
AcDbLine
 62
7
  6
CONTINUOUS
 10
146.7863415275
 20
7.8999954342
 11
146.4738415275
 21
7.8468039511
  0
LINE
  5
39E
100
AcDbEntity
  8
0
100
AcDbLine
 62
7
  6
CONTINUOUS
 10
151.6821746621
 20
5.3999954342
 11
151.9946746621
 21
5.3999954342
  0
LINE
  5
39F
100
AcDbEntity
  8
0
100
AcDbLine
 62
7
  6
CONTINUOUS
 10
155.5363415275
 20
5.3999954342
 11
155.8488415275
 21
5.3999954342
  0
LINE
  5
3A0
100
AcDbEntity
  8
0
100
AcDbLine
 62
7
  6
CONTINUOUS
 10
150.4321749602
 20
6.144676271
 11
151.6821746621
 21
6.144676271
  0
LINE
  5
3A1
100
AcDbEntity
  8
0
100
AcDbLine
 62
7
  6
CONTINUOUS
 10
151.9946746621
 20
6.144676271
 11
152.5155083928
 21
6.144676271
  0
LINE
  5
3A2
100
AcDbEntity
  8
0
100
AcDbLine
 62
7
  6
CONTINUOUS
 10
152.5155083928
 20
6.4638252436
 11
151.9946746621
 21
6.4638252436
  0
LINE
  5
3A3
100
AcDbEntity
  8
0
100
AcDbLine
 62
7
  6
CONTINUOUS
 10
151.6821746621
 20
6.4638252436
 11
150.7967580948
 21
6.4638252436
  0
LINE
  5
3A4
100
AcDbEntity
  8
0
100
AcDbLine
 62
7
  6
CONTINUOUS
 10
155.8488415275
 20
7.8999954342
 11
155.5363415275
 21
7.8999954342
  0
LINE
  5
3A5
100
AcDbEntity
  8
0
100
AcDbLine
 62
7
  6
CONTINUOUS
 10
151.9946746621
 20
7.8999954342
 11
151.6821746621
 21
7.8999954342
  0
LINE
  5
3A6
100
AcDbEntity
  8
0
100
AcDbLine
 62
7
  6
CONTINUOUS
 10
146.4738415275
 20
5.4531869218
 11
146.7863415275
 21
5.3999954342
  0
LINE
  5
3A7
100
AcDbEntity
  8
0
100
AcDbLine
 62
7
  6
CONTINUOUS
 10
148.7655080948
 20
5.4531869218
 11
149.0780080948
 21
5.3999954342
  0
LINE
  5
3A8
100
AcDbEntity
  8
0
100
AcDbLine
 62
7
  6
CONTINUOUS
 10
153.5571746621
 20
5.4531869218
 11
153.8696746621
 21
5.3999954342
  0
LINE
  5
3A9
100
AcDbEntity
  8
0
100
AcDbLine
 62
7
  6
CONTINUOUS
 10
147.0988415275
 20
7.8468039511
 11
146.7863415275
 21
7.8999954342
  0
LINE
  5
3AA
100
AcDbEntity
  8
0
100
AcDbLine
 62
7
  6
CONTINUOUS
 10
149.3905080948
 20
7.8468039511
 11
149.0780080948
 21
7.8999954342
  0
LINE
  5
3AB
100
AcDbEntity
  8
0
100
AcDbLine
 62
7
  6
CONTINUOUS
 10
154.1821746621
 20
7.8468039511
 11
153.8696746621
 21
7.8999954342
  0
LINE
  5
3AC
100
AcDbEntity
  8
0
100
AcDbLine
 62
7
  6
CONTINUOUS
 10
152.0675914083
 20
3.9680805444
 11
151.9113416467
 21
3.9999954342
  0
LINE
  5
3AD
100
AcDbEntity
  8
0
100
AcDbLine
 62
7
  6
CONTINUOUS
 10
146.7863415275
 20
5.6659528865
 11
146.5259248857
 21
5.7191443695
  0
LINE
  5
3AE
100
AcDbEntity
  8
0
100
AcDbLine
 62
7
  6
CONTINUOUS
 10
149.0780080948
 20
5.6659528865
 11
148.8175915275
 21
5.7191443695
  0
LINE
  5
3AF
100
AcDbEntity
  8
0
100
AcDbLine
 62
7
  6
CONTINUOUS
 10
153.8696746621
 20
5.6659528865
 11
153.6092583928
 21
5.7191443695
  0
LINE
  5
3B0
100
AcDbEntity
  8
0
100
AcDbLine
 62
7
  6
CONTINUOUS
 10
146.7863415275
 20
7.6340380191
 11
147.0467581693
 21
7.580846536
  0
LINE
  5
3B1
100
AcDbEntity
  8
0
100
AcDbLine
 62
7
  6
CONTINUOUS
 10
149.0780080948
 20
7.6340380191
 11
149.3384249602
 21
7.580846536
  0
LINE
  5
3B2
100
AcDbEntity
  8
0
100
AcDbLine
 62
7
  6
CONTINUOUS
 10
153.8696746621
 20
7.6340380191
 11
154.1300915275
 21
7.580846536
  0
LINE
  5
3B3
100
AcDbEntity
  8
0
100
AcDbLine
 62
7
  6
CONTINUOUS
 10
151.9113416467
 20
3.8085060953
 11
152.0363415275
 21
3.7765912055
  0
LINE
  5
3B4
100
AcDbEntity
  8
0
100
AcDbLine
 62
7
  6
CONTINUOUS
 10
147.8175914679
 20
-1.4042598852
 11
147.9425915275
 21
-1.4680896732
  0
LINE
  5
3B5
100
AcDbEntity
  8
0
100
AcDbLine
 62
7
  6
CONTINUOUS
 10
148.6300915871
 20
-0.0957492353
 11
148.5050915275
 21
-0.0319194556
  0
LINE
  5
3B6
100
AcDbEntity
  8
0
100
AcDbLine
 62
7
  6
CONTINUOUS
 10
147.9738415871
 20
-1.2766003148
 11
147.8800915871
 21
-1.2127705128
  0
LINE
  5
3B7
100
AcDbEntity
  8
0
100
AcDbLine
 62
7
  6
CONTINUOUS
 10
148.4738414679
 20
-0.2234087945
 11
148.5675914679
 21
-0.2872385741
  0
LINE
  5
3B8
100
AcDbEntity
  8
RACCORDO
100
AcDbLine
 62
253
  6
CONTINUOUS
 10
168.542747225
 20
-28.5883599389
 11
168.463790313
 21
-28.5219894113
  0
LINE
  5
3B9
100
AcDbEntity
  8
0
100
AcDbLine
 62
7
  6
CONTINUOUS
 10
149.5093055275
 20
-5.0638375658
 11
150.6296665275
 21
-6.0079735658
  0
LWPOLYLINE
  5
3BA
100
AcDbEntity
  8
RACCORDO
100
AcDbPolyline
 62
253
  6
CONTINUOUS
 90
10
 70
0
 10
168.6037019085
 20
-27.8820409846
 10
168.2809584714
 20
-27.6088674102
 10
167.9590695277
 20
-27.3357854743
 10
167.6380358176
 20
-27.0627957003
 10
167.3178687859
 20
-26.789906888
 10
166.9985583149
 20
-26.5171113906
 10
166.6800731699
 20
-26.2443848267
 10
166.3624038144
 20
-25.9717191807
 10
166.0455619652
 20
-25.6991230908
 10
165.7295486368
 20
-25.4265969239
  0
LWPOLYLINE
  5
3BB
100
AcDbEntity
  8
RACCORDO
100
AcDbPolyline
 62
253
  6
CONTINUOUS
 90
10
 70
0
 10
170.4094836951
 20
-25.7844608823
 10
170.0916320418
 20
-25.5105383637
 10
169.7746501574
 20
-25.2367189845
 10
169.4585380419
 20
-24.9630027448
 10
169.1433055041
 20
-24.6893975253
 10
168.8289427354
 20
-24.4158954452
 10
168.5154203089
 20
-24.1424728621
 10
168.2027284158
 20
-23.8691218952
 10
167.8908768651
 20
-23.5958504253
 10
167.5798656566
 20
-23.3226584524
  0
LINE
  5
3BC
100
AcDbEntity
  8
RACCORDO
100
AcDbLine
 62
253
  6
CONTINUOUS
 10
171.0988415275
 20
-25.6229585994
 11
171.0215737737
 21
-25.5563367444
  0
LWPOLYLINE
  5
3BD
100
AcDbEntity
  8
0
100
AcDbPolyline
 62
7
  6
CONTINUOUS
 90
21
 70
0
 10
153.4924865275
 20
127.7264319276
 10
153.5356696269
 20
127.7697238803
 10
153.5865099344
 20
127.806186069
 10
153.64500745
 20
127.8358184939
 10
153.7132997009
 20
127.8598050372
 10
153.7892491599
 20
127.8769618167
 10
153.8664432453
 20
127.8837371854
 10
153.9438527736
 20
127.8769655354
 10
154.0225069284
 20
127.8598124746
 10
154.0990806783
 20
127.8382231793
 10
154.1723598774
 20
127.8113119579
 10
154.2435586716
 20
127.779964502
 10
154.3129944671
 20
127.7527830626
 10
154.3808106984
 20
127.7301861586
 10
154.446863931
 20
127.7117552711
 10
154.5110412685
 20
127.7048370941
 10
154.5735987146
 20
127.7131153443
 10
154.6342802654
 20
127.7329063051
 10
154.6922050129
 20
127.7605055196
 10
154.7470793211
 20
127.7946781691
 10
154.799196826
 20
127.8366590723
  0
LWPOLYLINE
  5
3BE
100
AcDbEntity
  8
0
100
AcDbPolyline
 62
7
  6
CONTINUOUS
 90
32
 70
0
 10
148.8975992422
 20
125.9068082127
 10
148.9543568223
 20
125.9602880927
 10
149.0137061459
 20
126.0120955838
 10
149.0735281083
 20
126.0635509151
 10
149.133752642
 20
126.1149181196
 10
149.1944498144
 20
126.1659331642
 10
149.2537107237
 20
126.2171241781
 10
149.3115816316
 20
126.2685486743
 10
149.3680162763
 20
126.3201491397
 10
149.4209669705
 20
126.3722811645
 10
149.4706333251
 20
126.4250106067
 10
149.5168157292
 20
126.4782716082
 10
149.5568676622
 20
126.5322221844
 10
149.5906988774
 20
126.5870110365
 10
149.6183996214
 20
126.6424894632
 10
149.6375941141
 20
126.6983693761
 10
149.6477175129
 20
126.7554069362
 10
149.6493346604
 20
126.8128459823
 10
149.6417643034
 20
126.868129943
 10
149.6242449607
 20
126.9218614218
 10
149.5975381137
 20
126.9734378151
 10
149.563246953
 20
127.0184947399
 10
149.5208520728
 20
127.0561629316
 10
149.470872879
 20
127.0873116549
 10
149.4164707803
 20
127.1101843204
 10
149.3567175151
 20
127.1242754493
 10
149.2925413451
 20
127.1300905204
 10
149.2298884636
 20
127.127389382
 10
149.1690628798
 20
127.1160824535
 10
149.1097605847
 20
127.0962593154
 10
149.0570157447
 20
127.067948557
 10
149.0119856998
 20
127.0303239217
  0
LWPOLYLINE
  5
3BF
100
AcDbEntity
  8
RACCORDO
100
AcDbPolyline
 62
253
  6
CONTINUOUS
 90
7
 70
0
 10
160.4520138855
 20
135.0542104988
 10
160.4337559598
 20
135.0372888352
 10
160.4142998186
 20
135.0205425466
 10
160.3936622409
 20
135.0040012524
 10
160.3718605664
 20
134.9876926023
 10
160.3489125677
 20
134.971642302
 10
160.3248363341
 20
134.9558741442
  0
LWPOLYLINE
  5
3C0
100
AcDbEntity
  8
0
100
AcDbPolyline
 62
7
  6
CONTINUOUS
 90
21
 70
0
 10
154.8485575275
 20
127.6043855237
 10
154.7846355624
 20
127.5513284207
 10
154.7174341038
 20
127.509769483
 10
154.6469531518
 20
127.4797087107
 10
154.5717004155
 20
127.4618297215
 10
154.4931681858
 20
127.4554488975
 10
154.4158333351
 20
127.4585153855
 10
154.3408590701
 20
127.4728073391
 10
154.267082184
 20
127.4965466045
 10
154.1954899287
 20
127.5223478667
 10
154.1266894773
 20
127.5504476281
 10
154.0600736566
 20
127.5806093862
 10
153.994808199
 20
127.6047383196
 10
153.9303325354
 20
127.6212904366
 10
153.8672072348
 20
127.6318097289
 10
153.8062797371
 20
127.6328333496
 10
153.7476872245
 20
127.6223708131
 10
153.6912925147
 20
127.602412605
 10
153.6375315008
 20
127.5754673359
 10
153.5865494805
 20
127.5423712094
 10
153.5382011561
 20
127.5022880219
  0
LWPOLYLINE
  5
3C1
100
AcDbEntity
  8
RACCORDO
100
AcDbPolyline
 62
253
  6
CONTINUOUS
 90
10
 70
0
 10
165.8753291827
 20
131.0903396681
 10
166.1921888509
 20
131.3423449394
 10
166.5102491199
 20
131.5944539865
 10
166.8295077368
 20
131.846666234
 10
167.1499367907
 20
132.0989627551
 10
167.4715592082
 20
132.3513617181
 10
167.7944502063
 20
132.6039173456
 10
168.1186346168
 20
132.8566464638
 10
168.4440854338
 20
133.109529544
 10
168.7708013256
 20
133.362565421
  0
LINE
  5
3C2
100
AcDbEntity
  8
RACCORDO
100
AcDbLine
 62
253
  6
CONTINUOUS
 10
168.6927881878
 20
134.0053013978
 11
168.7723927776
 21
134.0663106644
  0
LINE
  5
3C3
100
AcDbEntity
  8
0
100
AcDbLine
 62
7
  6
CONTINUOUS
 10
152.1925916467
 20
3.9042507647
 11
152.0675914083
 21
3.9680805444
  0
LINE
  5
3C4
100
AcDbEntity
  8
0
100
AcDbLine
 62
7
  6
CONTINUOUS
 10
146.2134248484
 20
5.6127613849
 11
146.4738415275
 21
5.4531869218
  0
LINE
  5
3C5
100
AcDbEntity
  8
0
100
AcDbLine
 62
7
  6
CONTINUOUS
 10
148.5050915275
 20
5.6127613849
 11
148.7655080948
 21
5.4531869218
  0
LINE
  5
3C6
100
AcDbEntity
  8
0
100
AcDbLine
 62
7
  6
CONTINUOUS
 10
147.3592582438
 20
7.6872295021
 11
147.0988415275
 21
7.8468039511
  0
LINE
  5
3C7
100
AcDbEntity
  8
0
100
AcDbLine
 62
7
  6
CONTINUOUS
 10
149.6509249602
 20
7.6872295021
 11
149.3905080948
 21
7.8468039511
  0
LINE
  5
3C8
100
AcDbEntity
  8
0
100
AcDbLine
 62
7
  6
CONTINUOUS
 10
153.2967583928
 20
5.6127613849
 11
153.5571746621
 21
5.4531869218
  0
LINE
  5
3C9
100
AcDbEntity
  8
0
100
AcDbLine
 62
7
  6
CONTINUOUS
 10
146.5259248857
 20
5.7191443695
 11
146.3696748484
 21
5.8255273356
  0
LINE
  5
3CA
100
AcDbEntity
  8
0
100
AcDbLine
 62
7
  6
CONTINUOUS
 10
148.8175915275
 20
5.7191443695
 11
148.6613415275
 21
5.8255273356
  0
LINE
  5
3CB
100
AcDbEntity
  8
0
100
AcDbLine
 62
7
  6
CONTINUOUS
 10
152.0363415275
 20
3.7765912055
 11
152.1300915275
 21
3.7127614259
  0
LINE
  5
3CC
100
AcDbEntity
  8
0
100
AcDbLine
 62
7
  6
CONTINUOUS
 10
147.0467581693
 20
7.580846536
 11
147.2030082438
 21
7.47446357
  0
LINE
  5
3CD
100
AcDbEntity
  8
0
100
AcDbLine
 62
7
  6
CONTINUOUS
 10
149.3384249602
 20
7.580846536
 11
149.4946749602
 21
7.47446357
  0
LINE
  5
3CE
100
AcDbEntity
  8
0
100
AcDbLine
 62
7
  6
CONTINUOUS
 10
147.1925915275
 20
-0.1276641251
 11
147.0675915573
 21
-0.0319194556
  0
LINE
  5
3CF
100
AcDbEntity
  8
0
100
AcDbLine
 62
7
  6
CONTINUOUS
 10
150.6296665275
 20
-5.4916175658
 11
149.4575925275
 21
-4.5039045658
  0
LINE
  5
3D0
100
AcDbEntity
  8
0
100
AcDbLine
 62
7
  6
CONTINUOUS
 10
147.6925915871
 20
-1.2766003148
 11
147.8175914679
 21
-1.4042598852
  0
LINE
  5
3D1
100
AcDbEntity
  8
0
100
AcDbLine
 62
7
  6
CONTINUOUS
 10
147.0363414977
 20
-0.1914939047
 11
147.0988415275
 21
-0.2553236843
  0
LWPOLYLINE
  5
3D2
100
AcDbEntity
  8
RACCORDO
100
AcDbPolyline
 62
253
  6
CONTINUOUS
 90
13
 70
0
 10
131.2847103421
 20
131.2962613781
 10
131.3609329284
 20
131.5017869005
 10
131.4504473436
 20
131.7048372001
 10
131.552686037
 20
131.9042739641
 10
131.6669920274
 20
132.0989650218
 10
131.7926995964
 20
132.287820456
 10
131.9291485149
 20
132.4697935076
 10
132.0755660377
 20
132.6438052226
 10
132.2310994951
 20
132.8088862098
 10
132.3949180153
 20
132.9641934659
 10
132.5661302649
 20
133.1088370224
 10
132.7437766265
 20
133.241900331
 10
132.9268817439
 20
133.362565467
  0
LWPOLYLINE
  5
3D3
100
AcDbEntity
  8
RACCORDO
100
AcDbPolyline
 62
253
  6
CONTINUOUS
 90
10
 70
0
 10
141.3728630003
 20
134.9558772793
 10
141.3494355427
 20
134.9086600624
 10
141.3207803789
 20
134.8620944832
 10
141.2872929554
 20
134.8168231556
 10
141.2494354046
 20
134.7734708327
 10
141.2077301675
 20
134.732635785
 10
141.162752784
 20
134.6948815439
 10
141.1151239503
 20
134.6607291253
 10
141.0655009529
 20
134.6306498392
 10
141.0145685983
 20
134.6050587856
  0
LWPOLYLINE
  5
3D4
100
AcDbEntity
  8
0
100
AcDbPolyline
 62
7
  6
CONTINUOUS
 90
3
 70
0
 10
149.9877321738
 20
130.038607083
 10
150.0317261734
 20
130.0993321363
 10
150.0693864518
 20
130.1619814342
  0
LINE
  5
3D5
100
AcDbEntity
  8
0
100
AcDbLine
 62
7
  6
CONTINUOUS
 10
150.460788285
 20
126.315028265
 11
150.423892826
 21
126.265130391
  0
LWPOLYLINE
  5
3D6
100
AcDbEntity
  8
RACCORDO
100
AcDbPolyline
 62
253
  6
CONTINUOUS
 90
10
 70
0
 10
160.3248367333
 20
134.9558743546
 10
160.0309947246
 20
134.594619629
 10
159.7207127259
 20
134.2602431136
 10
159.3962284028
 20
133.9527448082
 10
159.0601134515
 20
133.6729565535
 10
158.7140855626
 20
133.4200465088
 10
158.3588142989
 20
133.1915191528
 10
157.9956003186
 20
132.986542645
 10
157.6265547218
 20
132.8059488257
 10
157.2532864444
 20
132.6497376951
  0
LWPOLYLINE
  5
3D7
100
AcDbEntity
  8
RACCORDO
100
AcDbPolyline
 62
253
  6
CONTINUOUS
 90
8
 70
0
 10
160.7095912241
 20
135.3417034775
 10
160.6617987508
 20
135.2837073032
 10
160.6334051839
 20
135.2498113393
 10
160.6023074459
 20
135.2134191922
 10
160.568334693
 20
135.1751485268
 10
160.531647404
 20
135.1355505013
 10
160.4927482981
 20
135.0950862929
 10
160.4520138855
 20
135.0542104988
  0
LWPOLYLINE
  5
3D8
100
AcDbEntity
  8
0
100
AcDbPolyline
 62
7
  6
CONTINUOUS
 90
6
 70
0
 10
149.0119856998
 20
127.0303239217
 10
148.9735131101
 20
126.9842116662
 10
148.9431601227
 20
126.9321191498
 10
148.9214474535
 20
126.874882159
 10
148.9078543867
 20
126.8116649073
 10
148.9023809222
 20
126.7424673947
  0
LWPOLYLINE
  5
3D9
100
AcDbEntity
  8
RACCORDO
100
AcDbPolyline
 62
253
  6
CONTINUOUS
 90
10
 70
0
 10
160.6831200747
 20
134.6050630005
 10
160.3680574668
 20
134.2436274221
 10
160.0401627783
 20
133.9093097604
 10
159.6993945296
 20
133.6019245067
 10
159.3437773245
 20
133.3218569992
 10
158.9751017332
 20
133.0683102287
 10
158.5988767606
 20
132.8393948397
 10
158.2167654676
 20
132.63442788
 10
157.8266327908
 20
132.4538418342
 10
157.4282120329
 20
132.2974949706
  0
LINE
  5
3DA
100
AcDbEntity
  8
0
100
AcDbLine
 62
7
  6
CONTINUOUS
 10
153.5382011561
 20
127.5022880219
 11
153.4924865275
 21
127.4552177734
  0
LINE
  5
3DB
100
AcDbEntity
  8
0
100
AcDbLine
 62
7
  6
CONTINUOUS
 10
154.799196826
 20
127.8366590723
 11
154.8485575275
 21
127.8864482294
  0
LWPOLYLINE
  5
3DC
100
AcDbEntity
  8
RACCORDO
100
AcDbPolyline
 62
253
  6
CONTINUOUS
 90
10
 70
0
 10
167.5798656566
 20
129.0103663455
 10
167.8896816655
 20
129.2638216763
 10
168.2007233235
 20
129.5173970655
 10
168.5129906308
 20
129.7710925132
 10
168.8264598984
 20
130.0248904275
 10
169.1411548152
 20
130.2788084003
 10
169.4571464479
 20
130.532899207
 10
169.7744584854
 20
130.7871804394
 10
170.0930672388
 20
131.0416345059
 10
170.4129727081
 20
131.2962614063
  0
LINE
  5
3DD
100
AcDbEntity
  8
RACCORDO
100
AcDbLine
 62
253
  6
CONTINUOUS
 10
171.0215737737
 20
131.0828094097
 11
171.0988415275
 21
131.1443549077
  0
LINE
  5
3DE
100
AcDbEntity
  8
0
100
AcDbLine
 62
7
  6
CONTINUOUS
 10
154.4425915275
 20
7.6872295021
 11
154.1821746621
 21
7.8468039511
  0
LINE
  5
3DF
100
AcDbEntity
  8
0
100
AcDbLine
 62
7
  6
CONTINUOUS
 10
153.6092583928
 20
5.7191443695
 11
153.4530083928
 21
5.8255273356
  0
LINE
  5
3E0
100
AcDbEntity
  8
0
100
AcDbLine
 62
7
  6
CONTINUOUS
 10
154.1300915275
 20
7.580846536
 11
154.2863415275
 21
7.47446357
  0
LINE
  5
3E1
100
AcDbEntity
  8
0
100
AcDbLine
 62
7
  6
CONTINUOUS
 10
148.7550914679
 20
-0.2234087945
 11
148.6300915871
 21
-0.0957492353
  0
LINE
  5
3E2
100
AcDbEntity
  8
0
100
AcDbLine
 62
7
  6
CONTINUOUS
 10
146.057174867
 20
5.7723358526
 11
146.2134248484
 21
5.6127613849
  0
LINE
  5
3E3
100
AcDbEntity
  8
0
100
AcDbLine
 62
7
  6
CONTINUOUS
 10
148.3488415275
 20
5.7723358526
 11
148.5050915275
 21
5.6127613849
  0
LINE
  5
3E4
100
AcDbEntity
  8
0
100
AcDbLine
 62
7
  6
CONTINUOUS
 10
147.5155082438
 20
7.527655053
 11
147.3592582438
 21
7.6872295021
  0
LINE
  5
3E5
100
AcDbEntity
  8
0
100
AcDbLine
 62
7
  6
CONTINUOUS
 10
152.3175915275
 20
3.7765912055
 11
152.1925916467
 21
3.9042507647
  0
LINE
  5
3E6
100
AcDbEntity
  8
0
100
AcDbLine
 62
7
  6
CONTINUOUS
 10
147.2863415275
 20
-0.2553236843
 11
147.1925915275
 21
-0.1276641251
  0
LWPOLYLINE
  5
3E7
100
AcDbEntity
  8
RACCORDO
100
AcDbPolyline
 62
253
  6
CONTINUOUS
 90
13
 70
0
 10
130.7468885424
 20
131.7242168747
 10
130.8047673335
 20
131.9443289311
 10
130.8790896899
 20
132.1594543802
 10
130.9694106209
 20
132.3683573751
 10
131.0751812105
 20
132.5698179436
 10
131.1957849834
 20
132.7627090768
 10
131.3305582198
 20
132.9459929534
 10
131.4787084419
 20
133.1186021499
 10
131.639395035
 20
133.2795626483
 10
131.8118038763
 20
133.4280374853
 10
131.9950001027
 20
133.5631765763
 10
132.1879083346
 20
133.6841471913
 10
132.3894286232
 20
133.7902279884
  0
LWPOLYLINE
  5
3E8
100
AcDbEntity
  8
RACCORDO
100
AcDbPolyline
 62
253
  6
CONTINUOUS
 90
13
 70
0
 10
134.1178173983
 20
129.0103658795
 10
134.174713451
 20
129.2166297461
 10
134.2493377668
 20
129.4236970132
 10
134.3421027234
 20
129.6303951316
 10
134.4542628131
 20
129.8369661211
 10
134.5851398854
 20
130.0402119886
 10
134.7312778618
 20
130.2339292561
 10
134.8919610617
 20
130.4169061564
 10
135.0660725192
 20
130.58773243
 10
135.2481051547
 20
130.7410567132
 10
135.4350047359
 20
130.8752692736
 10
135.6268361698
 20
130.9916885713
 10
135.8223546938
 20
131.0903399084
  0
LWPOLYLINE
  5
3E9
100
AcDbEntity
  8
0
100
AcDbPolyline
 62
7
  6
CONTINUOUS
 90
22
 70
0
 10
148.7209607978
 20
127.0067707378
 10
148.7601223399
 20
127.0775346076
 10
148.808253771
 20
127.1429753724
 10
148.8643624695
 20
127.1987570571
 10
148.9297927473
 20
127.2432200195
 10
149.0032002926
 20
127.2780239017
 10
149.0795595484
 20
127.3038116549
 10
149.1581063328
 20
127.3204472687
 10
149.2396048279
 20
127.3280667535
 10
149.3213220219
 20
127.3277210909
 10
149.4040721929
 20
127.3205565182
 10
149.4870410629
 20
127.3054267982
 10
149.5650527869
 20
127.2799442015
 10
149.6380241013
 20
127.2423572373
 10
149.7060382697
 20
127.1944173964
 10
149.7641692377
 20
127.1389914218
 10
149.8110805694
 20
127.0756175805
 10
149.8481087007
 20
127.0047576055
 10
149.8743368854
 20
126.9306634386
 10
149.8898920149
 20
126.8536962201
 10
149.8946471978
 20
126.7734948095
 10
149.8873050146
 20
126.693227728
  0
LINE
  5
3EA
100
AcDbEntity
  8
0
100
AcDbLine
 62
7
  6
CONTINUOUS
 10
149.2238420043
 20
100.6148890613
 11
148.9738415275
 21
100.4446763157
  0
LINE
  5
3EB
100
AcDbEntity
  8
0
100
AcDbLine
 62
7
  6
CONTINUOUS
 10
151.9738415275
 20
100.6148890613
 11
151.7238424812
 21
100.4446763157
  0
LINE
  5
3EC
100
AcDbEntity
  8
0
100
AcDbLine
 62
7
  6
CONTINUOUS
 10
152.9738420043
 20
99.0829741119
 11
152.5988420043
 21
98.9127613663
  0
LINE
  5
3ED
100
AcDbEntity
  8
0
100
AcDbLine
 62
7
  6
CONTINUOUS
 10
152.7238415275
 20
96.6999954342
 11
152.9738420043
 21
96.7851018145
  0
LINE
  5
3EE
100
AcDbEntity
  8
0
100
AcDbLine
 62
7
  6
CONTINUOUS
 10
149.8071749602
 20
7.527655053
 11
149.6509249602
 21
7.6872295021
  0
LINE
  5
3EF
100
AcDbEntity
  8
0
100
AcDbLine
 62
7
  6
CONTINUOUS
 10
153.1405083928
 20
5.7723358526
 11
153.2967583928
 21
5.6127613849
  0
LINE
  5
3F0
100
AcDbEntity
  8
0
100
AcDbLine
 62
7
  6
CONTINUOUS
 10
154.5988415275
 20
7.527655053
 11
154.4425915275
 21
7.6872295021
  0
LINE
  5
3F1
100
AcDbEntity
  8
0
100
AcDbLine
 62
7
  6
CONTINUOUS
 10
147.8800915871
 20
-1.2127705128
 11
147.8175914679
 21
-1.1170258434
  0
LINE
  5
3F2
100
AcDbEntity
  8
0
100
AcDbLine
 62
7
  6
CONTINUOUS
 10
148.5675914679
 20
-0.2872385741
 11
148.6300915871
 21
-0.382983333
  0
LINE
  5
3F3
100
AcDbEntity
  8
0
100
AcDbLine
 62
7
  6
CONTINUOUS
 10
146.3696748484
 20
5.8255273356
 11
146.1613415275
 21
6.144676271
  0
LINE
  5
3F4
100
AcDbEntity
  8
0
100
AcDbLine
 62
7
  6
CONTINUOUS
 10
147.2030082438
 20
7.47446357
 11
147.4113415275
 21
7.1553145229
  0
LINE
  5
3F5
100
AcDbEntity
  8
0
100
AcDbLine
 62
7
  6
CONTINUOUS
 10
151.6217205275
 20
-7.2770265658
 11
151.8135175275
 21
-7.6187455658
  0
LWPOLYLINE
  5
3F6
100
AcDbEntity
  8
RACCORDO
100
AcDbPolyline
 62
253
  6
CONTINUOUS
 90
7
 70
0
 10
131.2881993598
 20
-25.7844608823
 10
131.2797355625
 20
-25.7464278814
 10
131.272822485
 20
-25.708399805
 10
131.2674601272
 20
-25.6703766532
 10
131.2636484893
 20
-25.6323584259
 10
131.2613875712
 20
-25.5943451232
 10
131.2606773729
 20
-25.556336745
  0
LWPOLYLINE
  5
3F7
100
AcDbEntity
  8
RACCORDO
100
AcDbPolyline
 62
253
  6
CONTINUOUS
 90
7
 70
0
 10
130.7571689965
 20
-26.2420082048
 10
130.7324694879
 20
-26.1290318181
 10
130.7122361584
 20
-26.0153050758
 10
130.6964812648
 20
-25.9010004239
 10
130.6852103427
 20
-25.7862899634
 10
130.6784222603
 20
-25.6713451912
 10
130.6761092813
 20
-25.556336745
  0
LWPOLYLINE
  5
3F8
100
AcDbEntity
  8
RACCORDO
100
AcDbPolyline
 62
253
  6
CONTINUOUS
 90
10
 70
0
 10
144.4444267817
 20
132.6497376872
 10
144.4301430256
 20
132.6056874358
 10
144.4142079202
 20
132.5620184791
 10
144.3967592056
 20
132.5191082999
 10
144.3779477056
 20
132.4773278222
 10
144.3579360241
 20
132.4370382042
 10
144.3368971391
 20
132.3985877168
 10
144.3150129084
 20
132.3623087332
 10
144.2924724973
 20
132.3285148564
 10
144.2694707432
 20
132.2974982075
  0
LINE
  5
3F9
100
AcDbEntity
  8
0
100
AcDbLine
 62
7
  6
CONTINUOUS
 10
149.0988424812
 20
100.0191444515
 11
149.2863424812
 21
100.1893571972
  0
LINE
  5
3FA
100
AcDbEntity
  8
0
100
AcDbLine
 62
7
  6
CONTINUOUS
 10
151.8488420043
 20
100.0191444515
 11
152.0363420043
 21
100.1893571972
  0
LINE
  5
3FB
100
AcDbEntity
  8
0
100
AcDbLine
 62
7
  6
CONTINUOUS
 10
154.7238424812
 20
100.0191444515
 11
154.9113424812
 21
100.1893571972
  0
LINE
  5
3FC
100
AcDbEntity
  8
0
100
AcDbLine
 62
7
  6
CONTINUOUS
 10
154.8488420043
 20
100.6148890613
 11
154.5363424812
 21
100.3595699428
  0
LINE
  5
3FD
100
AcDbEntity
  8
0
100
AcDbLine
 62
7
  6
CONTINUOUS
 10
157.5988415275
 20
100.6148890613
 11
157.2863420043
 21
100.3595699428
  0
LINE
  5
3FE
100
AcDbEntity
  8
0
100
AcDbLine
 62
7
  6
CONTINUOUS
 10
153.0988415275
 20
97.2957401036
 11
152.9738420043
 21
97.2106337308
  0
LINE
  5
3FF
100
AcDbEntity
  8
0
100
AcDbLine
 62
7
  6
CONTINUOUS
 10
152.9738420043
 20
96.7851018145
 11
153.2238424812
 21
96.9553145825
  0
LINE
  5
400
100
AcDbEntity
  8
0
100
AcDbLine
 62
7
  6
CONTINUOUS
 10
148.6613415275
 20
5.8255273356
 11
148.4530080948
 21
6.144676271
  0
LINE
  5
401
100
AcDbEntity
  8
0
100
AcDbLine
 62
7
  6
CONTINUOUS
 10
149.4946749602
 20
7.47446357
 11
149.7030080948
 21
7.1553145229
  0
LINE
  5
402
100
AcDbEntity
  8
0
100
AcDbLine
 62
7
  6
CONTINUOUS
 10
152.1300915275
 20
3.7127614259
 11
152.1925916467
 21
3.617016667
  0
LINE
  5
403
100
AcDbEntity
  8
0
100
AcDbLine
 62
7
  6
CONTINUOUS
 10
153.4530083928
 20
5.8255273356
 11
153.2446746621
 21
6.144676271
  0
LINE
  5
404
100
AcDbEntity
  8
0
100
AcDbLine
 62
7
  6
CONTINUOUS
 10
154.2863415275
 20
7.47446357
 11
154.4946746621
 21
7.1553145229
  0
LINE
  5
405
100
AcDbEntity
  8
0
100
AcDbLine
 62
7
  6
CONTINUOUS
 10
151.5050915275
 20
0.7233996852
 11
150.7238415126
 21
1.9999954342
  0
LINE
  5
406
100
AcDbEntity
  8
0
100
AcDbLine
 62
7
  6
CONTINUOUS
 10
153.4113417659
 20
-1.2766003148
 11
152.6300915275
 21
-0.0000045658
  0
LINE
  5
407
100
AcDbEntity
  8
0
100
AcDbLine
 62
7
  6
CONTINUOUS
 10
150.6300915126
 20
1.8085060953
 11
151.4113415275
 21
0.4999954342
  0
LINE
  5
408
100
AcDbEntity
  8
0
100
AcDbLine
 62
7
  6
CONTINUOUS
 10
152.5363415275
 20
-0.1914939047
 11
153.3175917659
 21
-1.5000045658
  0
LINE
  5
409
100
AcDbEntity
  8
0
100
AcDbLine
 62
7
  6
CONTINUOUS
 10
147.6300915573
 20
-1.1489407332
 11
147.6925915871
 21
-1.2766003148
  0
LINE
  5
40A
100
AcDbEntity
  8
0
100
AcDbLine
 62
7
  6
CONTINUOUS
 10
148.8175915871
 20
-0.3510683538
 11
148.7550914679
 21
-0.2234087945
  0
LINE
  5
40B
100
AcDbEntity
  8
0
100
AcDbLine
 62
7
  6
CONTINUOUS
 10
145.9530081973
 20
5.9851018219
 11
146.057174867
 21
5.7723358526
  0
LINE
  5
40C
100
AcDbEntity
  8
0
100
AcDbLine
 62
7
  6
CONTINUOUS
 10
148.2446748112
 20
5.9851018219
 11
148.3488415275
 21
5.7723358526
  0
LINE
  5
40D
100
AcDbEntity
  8
0
100
AcDbLine
 62
7
  6
CONTINUOUS
 10
147.6196748112
 20
7.3148891209
 11
147.5155082438
 21
7.527655053
  0
LINE
  5
40E
100
AcDbEntity
  8
RACCORDO
100
AcDbLine
 62
7
  6
CONTINUOUS
 10
130.5988415275
 20
131.1443549077
 11
130.5988415275
 21
-25.6229585994
  0
LINE
  5
40F
100
AcDbEntity
  8
RACCORDO
100
AcDbLine
 62
253
  6
CONTINUOUS
 10
130.6761092813
 20
-25.5563367444
 11
130.6761092813
 21
131.0828094097
  0
LINE
  5
410
100
AcDbEntity
  8
RACCORDO
100
AcDbLine
 62
253
  6
CONTINUOUS
 10
131.2606773729
 20
-25.556336745
 11
131.2606773729
 21
131.0828094113
  0
LWPOLYLINE
  5
411
100
AcDbEntity
  8
RACCORDO
100
AcDbPolyline
 62
253
  6
CONTINUOUS
 90
7
 70
0
 10
131.2606773729
 20
131.0828094113
 10
131.2612965951
 20
131.1183045287
 10
131.2632703267
 20
131.1538317321
 10
131.2665985677
 20
131.1893910215
 10
131.271281318
 20
131.224982397
 10
131.2773185778
 20
131.2606058585
 10
131.2847103469
 20
131.2962614061
  0
LWPOLYLINE
  5
412
100
AcDbEntity
  8
RACCORDO
100
AcDbPolyline
 62
253
  6
CONTINUOUS
 90
7
 70
0
 10
130.6761092813
 20
131.0828094113
 10
130.6781271052
 20
131.1901986914
 10
130.6840476071
 20
131.2975791717
 10
130.6938811859
 20
131.4048116883
 10
130.7076332094
 20
131.511756142
 10
130.7253039526
 20
131.6182716788
 10
130.7468885424
 20
131.7242168747
  0
LWPOLYLINE
  5
413
100
AcDbEntity
  8
RACCORDO
100
AcDbPolyline
 62
7
  6
CONTINUOUS
 90
16
 70
0
 10
130.5988415275
 20
131.1443549058
 10
130.6111725567
 20
131.4146510224
 10
130.646834641
 20
131.6793135113
 10
130.7058277804
 20
131.9383423724
 10
130.7891507733
 20
132.1941386931
 10
130.8958048213
 20
132.444301386
 10
131.0227935292
 20
132.6816271895
 10
131.1702571053
 20
132.9051108245
 10
131.3380553412
 20
133.11575757
 10
131.522771216
 20
133.3093800015
 10
131.7252735932
 20
133.4860237356
 10
131.9446936093
 20
133.6456431556
 10
132.1750076532
 20
133.7839139883
 10
132.4142078545
 20
133.8993948089
 10
132.6643020837
 20
133.993527042
 10
132.9252903408
 20
134.0663106876
  0
LINE
  5
414
100
AcDbEntity
  8
0
100
AcDbLine
 62
7
  6
CONTINUOUS
 10
140.5988420043
 20
100.6999954342
 11
139.5988418851
 21
96.6999954342
  0
LINE
  5
415
100
AcDbEntity
  8
0
100
AcDbLine
 62
7
  6
CONTINUOUS
 10
138.5363420043
 20
100.6999954342
 11
137.5988420043
 21
97.1255273579
  0
LINE
  5
416
100
AcDbEntity
  8
0
100
AcDbLine
 62
7
  6
CONTINUOUS
 10
137.8488419447
 20
96.6999954342
 11
138.7238420043
 21
99.8489317058
  0
LINE
  5
417
100
AcDbEntity
  8
ASSI
100
AcDbLine
 62
7
  6
CONTINUOUS
 10
145.3385145275
 20
108.6000694342
 11
144.5205275275
 21
106.0523044342
  0
LINE
  5
418
100
AcDbEntity
  8
C_CALOTTA
100
AcDbLine
 62
253
  6
CONTINUOUS
 10
154.8714720842
 20
135.8613972255
 11
154.8965089197
 21
135.9245042866
  0
LWPOLYLINE
  5
419
100
AcDbEntity
  8
RACCORDO
100
AcDbPolyline
 62
253
  6
CONTINUOUS
 90
7
 70
0
 10
160.8112714058
 20
134.8101871652
 10
160.7942680976
 20
134.7748873141
 10
160.7755197322
 20
134.7400342519
 10
160.7550285622
 20
134.7056267208
 10
160.7327967953
 20
134.6716633472
 10
160.7088265937
 20
134.6381426419
 10
160.6831200747
 20
134.6050630005
  0
LINE
  5
41A
100
AcDbEntity
  8
0
100
AcDbLine
 62
7
  6
CONTINUOUS
 10
143.6613417659
 20
98.7425486206
 11
142.5988422428
 21
96.6999954342
  0
LINE
  5
41B
100
AcDbEntity
  8
0
100
AcDbLine
 62
7
  6
CONTINUOUS
 10
144.7238420043
 20
100.6999954342
 11
143.8488417659
 21
99.0829741119
  0
LINE
  5
41C
100
AcDbEntity
  8
0
100
AcDbLine
 62
7
  6
CONTINUOUS
 10
142.9738422428
 20
96.6999954342
 11
143.8488417659
 21
98.3170167564
  0
LINE
  5
41D
100
AcDbEntity
  8
0
100
AcDbLine
 62
7
  6
CONTINUOUS
 10
144.0363417659
 20
98.7425486206
 11
145.0988420043
 21
100.6999954342
  0
LINE
  5
41E
100
AcDbEntity
  8
0
100
AcDbLine
 62
7
  6
CONTINUOUS
 10
148.9738415275
 20
100.4446763157
 11
148.7238424812
 21
100.1042508243
  0
LINE
  5
41F
100
AcDbEntity
  8
0
100
AcDbLine
 62
7
  6
CONTINUOUS
 10
153.0988415275
 20
99.2531868576
 11
152.9738420043
 21
99.0829741119
  0
LINE
  5
420
100
AcDbEntity
  8
0
100
AcDbLine
 62
7
  6
CONTINUOUS
 10
154.5363424812
 20
100.3595699428
 11
154.3488424812
 21
100.1042508243
  0
LINE
  5
421
100
AcDbEntity
  8
0
100
AcDbLine
 62
7
  6
CONTINUOUS
 10
151.7238424812
 20
100.4446763157
 11
151.4738420043
 21
100.1042508243
  0
LINE
  5
422
100
AcDbEntity
  8
0
100
AcDbLine
 62
7
  6
CONTINUOUS
 10
153.2238424812
 20
97.4659529089
 11
153.0988415275
 21
97.2957401036
  0
LINE
  5
423
100
AcDbEntity
  8
0
100
AcDbLine
 62
7
  6
CONTINUOUS
 10
150.3488420043
 20
99.2531868576
 11
148.5988415275
 21
97.1255273579
  0
LINE
  5
424
100
AcDbEntity
  8
0
100
AcDbLine
 62
7
  6
CONTINUOUS
 10
149.0988424812
 20
97.1255273579
 11
150.6613415275
 21
98.9978677391
  0
LINE
  5
425
100
AcDbEntity
  8
0
100
AcDbLine
 62
7
  6
CONTINUOUS
 10
153.0988415275
 20
98.7425486206
 11
153.3488420043
 21
98.9978677391
  0
LINE
  5
426
100
AcDbEntity
  8
0
100
AcDbLine
 62
7
  6
CONTINUOUS
 10
153.2238424812
 20
96.9553145825
 11
153.4113424812
 21
97.1255273579
  0
LINE
  5
427
100
AcDbEntity
  8
0
100
AcDbLine
 62
7
  6
CONTINUOUS
 10
157.4738420043
 20
100.0191444515
 11
157.6613420043
 21
100.1893571972
  0
LINE
  5
428
100
AcDbEntity
  8
0
100
AcDbLine
 62
7
  6
CONTINUOUS
 10
155.7238415275
 20
97.3808464764
 11
155.5363415275
 21
97.2106337308
  0
LINE
  5
429
100
AcDbEntity
  8
0
100
AcDbLine
 62
7
  6
CONTINUOUS
 10
158.4738424812
 20
97.3808464764
 11
158.2863424812
 21
97.2106337308
  0
LINE
  5
42A
100
AcDbEntity
  8
0
100
AcDbLine
 62
7
  6
CONTINUOUS
 10
155.5988420043
 20
96.7851018145
 11
155.9113415275
 21
97.0404209553
  0
LINE
  5
42B
100
AcDbEntity
  8
0
100
AcDbLine
 62
7
  6
CONTINUOUS
 10
158.3488415275
 20
96.7851018145
 11
158.6613424812
 21
97.0404209553
  0
LINE
  5
42C
100
AcDbEntity
  8
0
100
AcDbLine
 62
7
  6
CONTINUOUS
 10
149.9113415275
 20
7.3148891209
 11
149.8071749602
 21
7.527655053
  0
LINE
  5
42D
100
AcDbEntity
  8
0
100
AcDbLine
 62
7
  6
CONTINUOUS
 10
152.3800916467
 20
3.6489316462
 11
152.3175915275
 21
3.7765912055
  0
LINE
  5
42E
100
AcDbEntity
  8
0
100
AcDbLine
 62
7
  6
CONTINUOUS
 10
153.0363415275
 20
5.9851018219
 11
153.1405083928
 21
5.7723358526
  0
LINE
  5
42F
100
AcDbEntity
  8
0
100
AcDbLine
 62
7
  6
CONTINUOUS
 10
154.7030083928
 20
7.3148891209
 11
154.5988415275
 21
7.527655053
  0
LINE
  5
430
100
AcDbEntity
  8
0
100
AcDbLine
 62
7
  6
CONTINUOUS
 10
147.3488415573
 20
-1.5000045658
 11
147.0675915573
 21
-0.7659620107
  0
LINE
  5
431
100
AcDbEntity
  8
0
100
AcDbLine
 62
7
  6
CONTINUOUS
 10
146.8800915126
 20
-0.8297917904
 11
147.1300914977
 21
-1.5000045658
  0
LINE
  5
432
100
AcDbEntity
  8
0
100
AcDbLine
 62
7
  6
CONTINUOUS
 10
149.2863414083
 20
-0.319153464
 11
149.7238415275
 21
-1.5000045658
  0
LINE
  5
433
100
AcDbEntity
  8
0
100
AcDbLine
 62
7
  6
CONTINUOUS
 10
148.0988415275
 20
3.680846536
 11
148.5363415126
 21
2.4999954342
  0
LINE
  5
434
100
AcDbEntity
  8
0
100
AcDbLine
 62
7
  6
CONTINUOUS
 10
149.8488414083
 20
-1.3404300944
 11
149.3800914083
 21
-0.0000045658
  0
LINE
  5
435
100
AcDbEntity
  8
0
100
AcDbLine
 62
7
  6
CONTINUOUS
 10
148.6613415275
 20
2.6595699056
 11
148.1925915275
 21
3.9999954342
  0
LINE
  5
436
100
AcDbEntity
  8
0
100
AcDbLine
 62
7
  6
CONTINUOUS
 10
147.0988415275
 20
-0.2553236843
 11
147.1300914977
 21
-0.3510683538
  0
LINE
  5
437
100
AcDbEntity
  8
0
100
AcDbLine
 62
7
  6
CONTINUOUS
 10
147.3175914977
 20
-0.3510683538
 11
147.2863415275
 21
-0.2553236843
  0
LINE
  5
438
100
AcDbEntity
  8
0
100
AcDbLine
 62
7
  6
CONTINUOUS
 10
145.9009248624
 20
6.144676271
 11
145.9530081973
 21
5.9851018219
  0
LINE
  5
439
100
AcDbEntity
  8
0
100
AcDbLine
 62
7
  6
CONTINUOUS
 10
147.6717582438
 20
7.1553145229
 11
147.6196748112
 21
7.3148891209
  0
LINE
  5
43A
100
AcDbEntity
  8
0
100
AcDbLine
 62
7
  6
CONTINUOUS
 10
148.1925915275
 20
6.144676271
 11
148.2446748112
 21
5.9851018219
  0
LINE
  5
43B
100
AcDbEntity
  8
RACCORDO
100
AcDbLine
 62
253
  6
CONTINUOUS
 10
134.1178173983
 20
-23.3226584542
 11
134.1178173983
 21
129.0103663498
  0
LINE
  5
43C
100
AcDbEntity
  8
RACCORDO
100
AcDbLine
 62
253
  6
CONTINUOUS
 10
135.5320309607
 20
-23.3226584472
 11
135.5320309607
 21
129.0103658795
  0
LINE
  5
43D
100
AcDbEntity
  8
0
100
AcDbLine
 62
7
  6
CONTINUOUS
 10
136.0988420043
 20
100.6999954342
 11
136.0988420043
 21
96.6999954342
  0
LINE
  5
43E
100
AcDbEntity
  8
0
100
AcDbLine
 62
7
  6
CONTINUOUS
 10
136.4738420043
 20
96.6999954342
 11
136.4738420043
 21
99.8489317058
  0
LWPOLYLINE
  5
43F
100
AcDbEntity
  8
RACCORDO
100
AcDbPolyline
 62
253
  6
CONTINUOUS
 90
13
 70
0
 10
135.5320309607
 20
129.0103658795
 10
135.534680341
 20
129.0927475412
 10
135.5461393512
 20
129.1724396732
 10
135.5664079912
 20
129.2494422752
 10
135.5956587476
 20
129.3250243425
 10
135.6337191338
 20
129.39791688
 10
135.6800716903
 20
129.4643129024
 10
135.7356949522
 20
129.5234974051
 10
135.7996103844
 20
129.5761853928
 10
135.8683649222
 20
129.620714894
 10
135.940807544
 20
129.6565319181
 10
136.0180892715
 20
129.6841904556
 10
136.1002101046
 20
129.7036905066
  0
LINE
  5
440
100
AcDbEntity
  8
0
100
AcDbLine
 62
7
  6
CONTINUOUS
 10
150.4725415777
 20
126.5441416881
 11
150.5761115275
 21
127.0679244342
  0
LINE
  5
441
100
AcDbEntity
  8
0
100
AcDbLine
 62
7
  6
CONTINUOUS
 10
140.2863421235
 20
98.0616975187
 11
140.8488421235
 21
100.3595699428
  0
LINE
  5
442
100
AcDbEntity
  8
0
100
AcDbLine
 62
7
  6
CONTINUOUS
 10
139.9738418851
 20
96.6999954342
 11
140.2238420043
 21
97.7212720274
  0
LWPOLYLINE
  5
443
100
AcDbEntity
  8
0
100
AcDbPolyline
 62
7
  6
CONTINUOUS
 90
16
 70
0
 10
149.8873050146
 20
126.693227728
 10
149.8667110162
 20
126.6132507804
 10
149.8340196517
 20
126.5332081618
 10
149.7913968485
 20
126.4552009782
 10
149.7379637261
 20
126.3802459488
 10
149.674599165
 20
126.3073263543
 10
149.6061057343
 20
126.2354931434
 10
149.5326591362
 20
126.1646161572
 10
149.4540836685
 20
126.0948255546
 10
149.3746547935
 20
126.0255627598
 10
149.2937391102
 20
125.9571554096
 10
149.2119700196
 20
125.8892758673
 10
149.135523187
 20
125.8203826472
 10
149.0664571674
 20
125.7499619207
 10
149.0027134058
 20
125.6785275163
 10
148.9442919022
 20
125.6060794342
  0
LINE
  5
444
100
AcDbEntity
  8
ASSI
100
AcDbLine
 62
7
  6
CONTINUOUS
 10
150.5525825275
 20
108.6000694342
 11
149.8616165275
 21
106.1903884342
  0
LINE
  5
445
100
AcDbEntity
  8
ASSI
100
AcDbLine
 62
7
  6
CONTINUOUS
 10
144.8905465275
 20
104.8999024342
 11
146.0785515275
 21
108.6000694342
  0
LINE
  5
446
100
AcDbEntity
  8
0
100
AcDbLine
 62
7
  6
CONTINUOUS
 10
150.4738415275
 20
99.5936123489
 11
150.3488420043
 21
99.2531868576
  0
LINE
  5
447
100
AcDbEntity
  8
0
100
AcDbLine
 62
7
  6
CONTINUOUS
 10
148.9738415275
 20
99.763825333
 11
149.0988424812
 21
100.0191444515
  0
LINE
  5
448
100
AcDbEntity
  8
0
100
AcDbLine
 62
7
  6
CONTINUOUS
 10
150.6613415275
 20
98.9978677391
 11
150.7863424812
 21
99.2531868576
  0
LINE
  5
449
100
AcDbEntity
  8
0
100
AcDbLine
 62
7
  6
CONTINUOUS
 10
151.7238424812
 20
99.763825333
 11
151.8488420043
 21
100.0191444515
  0
LINE
  5
44A
100
AcDbEntity
  8
0
100
AcDbLine
 62
7
  6
CONTINUOUS
 10
153.3488420043
 20
98.9978677391
 11
153.4738415275
 21
99.2531868576
  0
LINE
  5
44B
100
AcDbEntity
  8
0
100
AcDbLine
 62
7
  6
CONTINUOUS
 10
154.4738420043
 20
99.5085059761
 11
154.7238424812
 21
100.0191444515
  0
LINE
  5
44C
100
AcDbEntity
  8
0
100
AcDbLine
 62
7
  6
CONTINUOUS
 10
153.4113424812
 20
97.1255273579
 11
153.5363420043
 21
97.3808464764
  0
LINE
  5
44D
100
AcDbEntity
  8
0
100
AcDbLine
 62
7
  6
CONTINUOUS
 10
157.2863420043
 20
100.3595699428
 11
157.0988420043
 21
100.1042508243
  0
LINE
  5
44E
100
AcDbEntity
  8
0
100
AcDbLine
 62
7
  6
CONTINUOUS
 10
155.9113415275
 20
97.0404209553
 11
156.0988415275
 21
97.2957401036
  0
LINE
  5
44F
100
AcDbEntity
  8
0
100
AcDbLine
 62
7
  6
CONTINUOUS
 10
158.6613424812
 20
97.0404209553
 11
158.8488424812
 21
97.2957401036
  0
LINE
  5
450
100
AcDbEntity
  8
0
100
AcDbLine
 62
7
  6
CONTINUOUS
 10
155.3491275083
 20
91.2796830182
 11
155.239180474
 21
91.1697359839
  0
LINE
  5
451
100
AcDbEntity
  8
0
100
AcDbLine
 62
7
  6
CONTINUOUS
 10
162.3461139211
 20
91.2796830182
 11
161.0099841572
 21
89.9435532543
  0
LINE
  5
452
100
AcDbEntity
  8
0
100
AcDbLine
 62
7
  6
CONTINUOUS
 10
160.9322398637
 20
89.8658089608
 11
160.4733904035
 21
89.4069595005
  0
LINE
  5
453
100
AcDbEntity
  8
0
100
AcDbLine
 62
7
  6
CONTINUOUS
 10
160.387866793
 20
89.32143589
 11
160.285890144
 21
89.219459241
  0
LINE
  5
454
100
AcDbEntity
  8
0
100
AcDbLine
 62
7
  6
CONTINUOUS
 10
160.2081458505
 20
89.1417149475
 11
158.8476207147
 21
87.7811898117
  0
LINE
  5
455
100
AcDbEntity
  8
0
100
AcDbLine
 62
7
  6
CONTINUOUS
 10
158.7376736804
 20
87.6712427775
 11
157.525447275
 21
86.4590163721
  0
LINE
  5
456
100
AcDbEntity
  8
0
100
AcDbLine
 62
7
  6
CONTINUOUS
 10
157.4536844451
 20
86.3872535421
 11
155.239180474
 21
84.1727495711
  0
LINE
  5
457
100
AcDbEntity
  8
0
100
AcDbLine
 62
7
  6
CONTINUOUS
 10
155.3491275083
 20
84.0628025368
 11
157.4713749634
 21
86.185049992
  0
LINE
  5
458
100
AcDbEntity
  8
0
100
AcDbLine
 62
7
  6
CONTINUOUS
 10
157.5431377934
 20
86.2568128219
 11
158.8476207147
 21
87.5612957433
  0
LINE
  5
459
100
AcDbEntity
  8
0
100
AcDbLine
 62
7
  6
CONTINUOUS
 10
158.9575677489
 20
87.6712427775
 11
160.3667840542
 21
89.0804590828
  0
LINE
  5
45A
100
AcDbEntity
  8
0
100
AcDbLine
 62
7
  6
CONTINUOUS
 10
160.4524352909
 20
89.1661103195
 11
161.0633330787
 21
89.7770081073
  0
LINE
  5
45B
100
AcDbEntity
  8
0
100
AcDbLine
 62
7
  6
CONTINUOUS
 10
161.1410773722
 20
89.8547524008
 11
162.4560609553
 21
91.1697359839
  0
LINE
  5
45C
100
AcDbEntity
  8
0
100
AcDbLine
 62
7
  6
CONTINUOUS
 10
152.0988414083
 20
-1.5000045658
 11
151.5988415275
 21
-0.0000045658
  0
LINE
  5
45D
100
AcDbEntity
  8
0
100
AcDbLine
 62
7
  6
CONTINUOUS
 10
150.9113415275
 20
2.4999954342
 11
150.4113414679
 21
3.9999954342
  0
LINE
  5
45E
100
AcDbEntity
  8
0
100
AcDbLine
 62
7
  6
CONTINUOUS
 10
155.5363415275
 20
-1.5000045658
 11
155.0363412891
 21
-0.0000045658
  0
LINE
  5
45F
100
AcDbEntity
  8
0
100
AcDbLine
 62
7
  6
CONTINUOUS
 10
151.7863415275
 20
-1.1170258434
 11
151.9113414083
 21
-1.5000045658
  0
LINE
  5
460
100
AcDbEntity
  8
0
100
AcDbLine
 62
7
  6
CONTINUOUS
 10
151.4738416467
 20
-0.1276641251
 11
151.7550916467
 21
-0.9893662841
  0
LINE
  5
461
100
AcDbEntity
  8
0
100
AcDbLine
 62
7
  6
CONTINUOUS
 10
150.5988414679
 20
2.8829741566
 11
150.7238415275
 21
2.4999954342
  0
LINE
  5
462
100
AcDbEntity
  8
0
100
AcDbLine
 62
7
  6
CONTINUOUS
 10
150.2863415871
 20
3.8723358749
 11
150.5675915871
 21
3.0106337159
  0
LINE
  5
463
100
AcDbEntity
  8
0
100
AcDbLine
 62
7
  6
CONTINUOUS
 10
149.9634249602
 20
7.1553145229
 11
149.9113415275
 21
7.3148891209
  0
LINE
  5
464
100
AcDbEntity
  8
0
100
AcDbLine
 62
7
  6
CONTINUOUS
 10
155.2238412891
 20
-1.1170258434
 11
155.3488415275
 21
-1.5000045658
  0
LINE
  5
465
100
AcDbEntity
  8
0
100
AcDbLine
 62
7
  6
CONTINUOUS
 10
154.9113417659
 20
-0.1276641251
 11
155.1925917659
 21
-0.9893662841
  0
LINE
  5
466
100
AcDbEntity
  8
0
100
AcDbLine
 62
7
  6
CONTINUOUS
 10
152.9842583928
 20
6.144676271
 11
153.0363415275
 21
5.9851018219
  0
LINE
  5
467
100
AcDbEntity
  8
0
100
AcDbLine
 62
7
  6
CONTINUOUS
 10
154.7550915275
 20
7.1553145229
 11
154.7030083928
 21
7.3148891209
  0
LINE
  5
468
100
AcDbEntity
  8
0
100
AcDbLine
 62
7
  6
CONTINUOUS
 10
147.8175914679
 20
-1.1170258434
 11
147.7863415871
 21
-0.9893662841
  0
LINE
  5
469
100
AcDbEntity
  8
0
100
AcDbLine
 62
7
  6
CONTINUOUS
 10
148.6300915871
 20
-0.382983333
 11
148.6613414679
 21
-0.5106428922
  0
LINE
  5
46A
100
AcDbEntity
  8
0
100
AcDbLine
 62
7
  6
CONTINUOUS
 10
145.8488415275
 20
6.4106337606
 11
145.9009248624
 21
6.144676271
  0
LINE
  5
46B
100
AcDbEntity
  8
0
100
AcDbLine
 62
7
  6
CONTINUOUS
 10
147.5988414977
 20
-0.9893662841
 11
147.6300915573
 21
-1.1489407332
  0
LINE
  5
46C
100
AcDbEntity
  8
0
100
AcDbLine
 62
7
  6
CONTINUOUS
 10
148.8488414679
 20
-0.5106428922
 11
148.8175915871
 21
-0.3510683538
  0
LINE
  5
46D
100
AcDbEntity
  8
0
100
AcDbLine
 62
7
  6
CONTINUOUS
 10
147.7238415275
 20
6.8893571078
 11
147.6717582438
 21
7.1553145229
  0
LINE
  5
46E
100
AcDbEntity
  8
0
100
AcDbLine
 62
7
  6
CONTINUOUS
 10
148.1405082438
 20
6.4106337606
 11
148.1925915275
 21
6.144676271
  0
LINE
  5
46F
100
AcDbEntity
  8
0
100
AcDbLine
 62
7
  6
CONTINUOUS
 10
146.1613415275
 20
6.144676271
 11
146.109258188
 21
6.4638252436
  0
LINE
  5
470
100
AcDbEntity
  8
0
100
AcDbLine
 62
7
  6
CONTINUOUS
 10
138.7238420043
 20
99.8489317058
 11
138.7238420043
 21
96.6999954342
  0
LINE
  5
471
100
AcDbEntity
  8
0
100
AcDbLine
 62
7
  6
CONTINUOUS
 10
139.0988420043
 20
96.6999954342
 11
139.0988420043
 21
100.6999954342
  0
LINE
  5
472
100
AcDbEntity
  8
RACCORDO
100
AcDbLine
 62
253
  6
CONTINUOUS
 10
141.1488415275
 20
123.9999954342
 11
141.1488415275
 21
125.284518692
  0
LINE
  5
473
100
AcDbEntity
  8
0
100
AcDbLine
 62
7
  6
CONTINUOUS
 10
143.4465295275
 20
85.6819174215
 11
143.4465295275
 21
86.4179134241
  0
LINE
  5
474
100
AcDbEntity
  8
0
100
AcDbLine
 62
7
  6
CONTINUOUS
 10
143.4465295275
 20
89.9414014342
 11
143.4465295275
 21
90.6773974342
  0
LINE
  5
475
100
AcDbEntity
  8
RACCORDO
100
AcDbLine
 62
253
  6
CONTINUOUS
 10
141.1488934153
 20
127.427514061
 11
141.1488415275
 21
127.1154721763
  0
LWPOLYLINE
  5
476
100
AcDbEntity
  8
RACCORDO
100
AcDbPolyline
 62
253
  6
CONTINUOUS
 90
3
 70
0
 10
141.1488415275
 20
128.3999954342
 10
141.1489082401
 20
127.5808804646
 10
141.1488934153
 20
127.427514061
  0
LWPOLYLINE
  5
477
100
AcDbEntity
  8
RACCORDO
100
AcDbPolyline
 62
253
  6
CONTINUOUS
 90
10
 70
0
 10
130.7574206701
 20
-26.2419490646
 10
130.7620439363
 20
-26.1999859615
 10
130.780934852
 20
-26.154972409
 10
130.8139545684
 20
-26.1072395528
 10
130.8608603477
 20
-26.0571385015
 10
130.9213073481
 20
-26.0050377396
 10
130.9948511594
 20
-25.9513204169
 10
131.0809510698
 20
-25.8963815362
 10
131.1789740398
 20
-25.8406250465
 10
131.2881993575
 20
-25.7844608691
  0
LWPOLYLINE
  5
478
100
AcDbEntity
  8
0
100
AcDbPolyline
 62
7
  6
CONTINUOUS
 90
4
 70
0
 10
148.6582881257
 20
126.7668764743
 10
148.6702091276
 20
126.8521643337
 10
148.6911000182
 20
126.9321290882
 10
148.7209607978
 20
127.0067707378
  0
LINE
  5
479
100
AcDbEntity
  8
0
100
AcDbLine
 62
7
  6
CONTINUOUS
 10
148.7238424812
 20
100.1042508243
 11
148.6613420043
 21
99.763825333
  0
LINE
  5
47A
100
AcDbEntity
  8
0
100
AcDbLine
 62
7
  6
CONTINUOUS
 10
150.7863424812
 20
99.2531868576
 11
150.8488415275
 21
99.5936123489
  0
LINE
  5
47B
100
AcDbEntity
  8
0
100
AcDbLine
 62
7
  6
CONTINUOUS
 10
151.4738420043
 20
100.1042508243
 11
151.4113415275
 21
99.763825333
  0
LINE
  5
47C
100
AcDbEntity
  8
0
100
AcDbLine
 62
7
  6
CONTINUOUS
 10
150.3859225275
 20
127.2957444342
 11
150.1987845275
 21
126.2976754342
  0
LINE
  5
47D
100
AcDbEntity
  8
ASSI
100
AcDbLine
 62
7
  6
CONTINUOUS
 10
150.2316165275
 20
104.8999124342
 11
150.9312685275
 21
107.3399144342
  0
LINE
  5
47E
100
AcDbEntity
  8
ASSI
100
AcDbLine
 62
7
  6
CONTINUOUS
 10
153.3526405275
 20
108.6000784342
 11
152.1646545275
 21
104.8999024342
  0
LINE
  5
47F
100
AcDbEntity
  8
ASSI
100
AcDbLine
 62
7
  6
CONTINUOUS
 10
152.9046815275
 20
104.8999124342
 11
153.1383095275
 21
105.6275724342
  0
LINE
  5
480
100
AcDbEntity
  8
ASSI
100
AcDbLine
 62
7
  6
CONTINUOUS
 10
153.3640365275
 20
106.3306004342
 11
153.7226685275
 21
107.4476674342
  0
LINE
  5
481
100
AcDbEntity
  8
0
100
AcDbLine
 62
7
  6
CONTINUOUS
 10
153.2863415275
 20
97.6361656545
 11
153.2238424812
 21
97.4659529089
  0
LINE
  5
482
100
AcDbEntity
  8
0
100
AcDbLine
 62
7
  6
CONTINUOUS
 10
157.0988420043
 20
100.1042508243
 11
156.9738424812
 21
99.763825333
  0
LINE
  5
483
100
AcDbEntity
  8
0
100
AcDbLine
 62
7
  6
CONTINUOUS
 10
153.2238424812
 20
99.5936123489
 11
153.0988415275
 21
99.2531868576
  0
LINE
  5
484
100
AcDbEntity
  8
0
100
AcDbLine
 62
7
  6
CONTINUOUS
 10
154.3488424812
 20
100.1042508243
 11
154.2238415275
 21
99.763825333
  0
LINE
  5
485
100
AcDbEntity
  8
0
100
AcDbLine
 62
7
  6
CONTINUOUS
 10
156.0988415275
 20
97.2957401036
 11
156.2238424812
 21
97.6361656545
  0
LINE
  5
486
100
AcDbEntity
  8
0
100
AcDbLine
 62
7
  6
CONTINUOUS
 10
155.9738420043
 20
97.891484773
 11
155.7238415275
 21
97.3808464764
  0
LINE
  5
487
100
AcDbEntity
  8
0
100
AcDbLine
 62
7
  6
CONTINUOUS
 10
157.2238415275
 20
99.5085059761
 11
157.4738420043
 21
100.0191444515
  0
LINE
  5
488
100
AcDbEntity
  8
0
100
AcDbLine
 62
7
  6
CONTINUOUS
 10
158.7238415275
 20
97.891484773
 11
158.4738424812
 21
97.3808464764
  0
LINE
  5
489
100
AcDbEntity
  8
0
100
AcDbLine
 62
7
  6
CONTINUOUS
 10
162.3461139211
 20
84.0628025368
 11
162.4560609553
 21
84.1727495711
  0
LINE
  5
48A
100
AcDbEntity
  8
0
100
AcDbLine
 62
7
  6
CONTINUOUS
 10
152.1925916467
 20
3.617016667
 11
152.2238415275
 21
3.4893571078
  0
LINE
  5
48B
100
AcDbEntity
  8
0
100
AcDbLine
 62
7
  6
CONTINUOUS
 10
150.0155080948
 20
6.8893571078
 11
149.9634249602
 21
7.1553145229
  0
LINE
  5
48C
100
AcDbEntity
  8
0
100
AcDbLine
 62
7
  6
CONTINUOUS
 10
152.4113415275
 20
3.4893571078
 11
152.3800916467
 21
3.6489316462
  0
LINE
  5
48D
100
AcDbEntity
  8
0
100
AcDbLine
 62
7
  6
CONTINUOUS
 10
152.9321746621
 20
6.4106337606
 11
152.9842583928
 21
6.144676271
  0
LINE
  5
48E
100
AcDbEntity
  8
0
100
AcDbLine
 62
7
  6
CONTINUOUS
 10
154.8071746621
 20
6.8893571078
 11
154.7550915275
 21
7.1553145229
  0
LINE
  5
48F
100
AcDbEntity
  8
0
100
AcDbLine
 62
7
  6
CONTINUOUS
 10
147.4113415275
 20
7.1553145229
 11
147.4634248112
 21
6.8361656247
  0
LINE
  5
490
100
AcDbEntity
  8
0
100
AcDbLine
 62
7
  6
CONTINUOUS
 10
148.4530080948
 20
6.144676271
 11
148.4009249602
 21
6.4638252436
  0
LINE
  5
491
100
AcDbEntity
  8
0
100
AcDbLine
 62
7
  6
CONTINUOUS
 10
149.7030080948
 20
7.1553145229
 11
149.7550915275
 21
6.8361656247
  0
LINE
  5
492
100
AcDbEntity
  8
0
100
AcDbLine
 62
7
  6
CONTINUOUS
 10
153.2446746621
 20
6.144676271
 11
153.1925915275
 21
6.4638252436
  0
LWPOLYLINE
  5
493
100
AcDbEntity
  8
RACCORDO
100
AcDbPolyline
 62
253
  6
CONTINUOUS
 90
10
 70
0
 10
130.7469193428
 20
131.7242101324
 10
130.7526022093
 20
131.6849144697
 10
130.7724938261
 20
131.6427815102
 10
130.8064489795
 20
131.5981188404
 10
130.8542197888
 20
131.5512525203
 10
130.9154575133
 20
131.5025246855
 10
130.9897150997
 20
131.4522910495
 10
131.0764504481
 20
131.4009183302
 10
131.1750303687
 20
131.348781572
 10
131.2847352026
 20
131.2962613916
  0
LINE
  5
494
100
AcDbEntity
  8
RACCORDO
100
AcDbLine
 62
253
  6
CONTINUOUS
 10
147.647707424
 20
135.3080463321
 11
147.6275290799
 21
135.8073341657
  0
LINE
  5
495
100
AcDbEntity
  8
0
100
AcDbLine
 62
7
  6
CONTINUOUS
 10
145.8488415275
 20
6.8893571078
 11
145.8488415275
 21
6.4106337606
  0
LINE
  5
496
100
AcDbEntity
  8
0
100
AcDbLine
 62
7
  6
CONTINUOUS
 10
146.109258188
 20
6.4638252436
 11
146.109258188
 21
6.8361656247
  0
LINE
  5
497
100
AcDbEntity
  8
0
100
AcDbLine
 62
7
  6
CONTINUOUS
 10
146.1613415275
 20
-0.0000045658
 11
146.1613415275
 21
-1.5000045658
  0
LINE
  5
498
100
AcDbEntity
  8
0
100
AcDbLine
 62
7
  6
CONTINUOUS
 10
146.3488415275
 20
-1.5000045658
 11
146.3488415275
 21
-0.8297917904
  0
LINE
  5
499
100
AcDbEntity
  8
0
100
AcDbLine
 62
7
  6
CONTINUOUS
 10
146.3488415275
 20
-0.6383024515
 11
146.3488415275
 21
-0.1595790149
  0
LINE
  5
49A
100
AcDbEntity
  8
ASSI
100
AcDbLine
 62
7
  6
CONTINUOUS
 10
146.5719005275
 20
108.6000694342
 11
146.5718915275
 21
104.8998934342
  0
LINE
  5
49B
100
AcDbEntity
  8
RACCORDO
100
AcDbLine
 62
7
  6
CONTINUOUS
 10
146.9488415275
 20
-20.9000045637
 11
146.9488415275
 21
-16.0888240076
  0
LINE
  5
49C
100
AcDbEntity
  8
0
100
AcDbLine
 62
7
  6
CONTINUOUS
 10
147.1300914977
 20
-0.3510683538
 11
147.1300914977
 21
-0.4468131126
  0
LINE
  5
49D
100
AcDbEntity
  8
ASSI
100
AcDbLine
 62
7
  6
CONTINUOUS
 10
147.3119185275
 20
104.8999024342
 11
147.3119285275
 21
108.6000694342
  0
LINE
  5
49E
100
AcDbEntity
  8
0
100
AcDbLine
 62
7
  6
CONTINUOUS
 10
147.3175914977
 20
-0.4787280024
 11
147.3175914977
 21
-0.3510683538
  0
LINE
  5
49F
100
AcDbEntity
  8
0
100
AcDbLine
 62
7
  6
CONTINUOUS
 10
147.3529745275
 20
87.8120604342
 11
147.3529745275
 21
88.5472554342
  0
LINE
  5
4A0
100
AcDbEntity
  8
0
100
AcDbLine
 62
7
  6
CONTINUOUS
 10
147.4634248112
 20
6.8361656247
 11
147.4634248112
 21
6.4638252436
  0
LINE
  5
4A1
100
AcDbEntity
  8
0
100
AcDbLine
 62
7
  6
CONTINUOUS
 10
147.5988414977
 20
-0.5106428922
 11
147.5988414977
 21
-0.9893662841
  0
LINE
  5
4A2
100
AcDbEntity
  8
RACCORDO
100
AcDbLine
 62
253
  6
CONTINUOUS
 10
147.647707424
 20
135.3080463321
 11
147.647707424
 21
131.0985206765
  0
LINE
  5
4A3
100
AcDbEntity
  8
0
100
AcDbLine
 62
7
  6
CONTINUOUS
 10
147.7238415275
 20
6.4106337606
 11
147.7238415275
 21
6.8893571078
  0
LINE
  5
4A4
100
AcDbEntity
  8
0
100
AcDbLine
 62
7
  6
CONTINUOUS
 10
147.7450785275
 20
85.6819173045
 11
147.7450785275
 21
86.4179178585
  0
LINE
  5
4A5
100
AcDbEntity
  8
0
100
AcDbLine
 62
7
  6
CONTINUOUS
 10
147.7450785275
 20
89.9414014342
 11
147.7450785275
 21
90.677397067
  0
LINE
  5
4A6
100
AcDbEntity
  8
0
100
AcDbLine
 62
7
  6
CONTINUOUS
 10
147.7863415871
 20
-0.9893662841
 11
147.7863415871
 21
-0.5106428922
  0
LINE
  5
4A7
100
AcDbEntity
  8
0
100
AcDbLine
 62
7
  6
CONTINUOUS
 10
147.8488415275
 20
151.3478373079
 11
147.8488415275
 21
135.8961566397
  0
LINE
  5
4A8
100
AcDbEntity
  8
0
100
AcDbLine
 62
7
  6
CONTINUOUS
 10
147.9113415275
 20
3.9999954342
 11
147.9113415275
 21
2.4999954342
  0
LINE
  5
4A9
100
AcDbEntity
  8
ASSI
100
AcDbLine
 62
7
  6
CONTINUOUS
 10
148.0519285275
 20
108.6000694342
 11
148.0519285275
 21
104.8999024342
  0
LINE
  5
4AA
100
AcDbEntity
  8
0
100
AcDbLine
 62
7
  6
CONTINUOUS
 10
148.0988415275
 20
2.4999954342
 11
148.0988415275
 21
3.680846536
  0
LINE
  5
4AB
100
AcDbEntity
  8
0
100
AcDbLine
 62
7
  6
CONTINUOUS
 10
148.1405082438
 20
6.8893571078
 11
148.1405082438
 21
6.4106337606
  0
LINE
  5
4AC
100
AcDbEntity
  8
0
100
AcDbLine
 62
7
  6
CONTINUOUS
 10
148.4009249602
 20
6.4638252436
 11
148.4009249602
 21
6.8361656247
  0
LINE
  5
4AD
100
AcDbEntity
  8
RACCORDO
100
AcDbLine
 62
253
  6
CONTINUOUS
 10
148.4488415275
 20
-20.9000045658
 11
148.4488415275
 21
-18.4000045658
  0
LINE
  5
4AE
100
AcDbEntity
  8
0
100
AcDbLine
 62
7
  6
CONTINUOUS
 10
148.5988415275
 20
97.1255273579
 11
148.5988415275
 21
96.6999954342
  0
LINE
  5
4AF
100
AcDbEntity
  8
0
100
AcDbLine
 62
7
  6
CONTINUOUS
 10
148.5988415275
 20
-18.5071937047
 11
148.5988415275
 21
-20.9000045658
  0
LINE
  5
4B0
100
AcDbEntity
  8
0
100
AcDbLine
 62
7
  6
CONTINUOUS
 10
148.6613414679
 20
-0.5106428922
 11
148.6613414679
 21
-0.9893662841
  0
LINE
  5
4B1
100
AcDbEntity
  8
ASSI
100
AcDbLine
 62
7
  6
CONTINUOUS
 10
148.7919555275
 20
104.8999024342
 11
148.7919555275
 21
107.3399144342
  0
LINE
  5
4B2
100
AcDbEntity
  8
0
100
AcDbLine
 62
7
  6
CONTINUOUS
 10
148.8488414679
 20
-0.9893662841
 11
148.8488414679
 21
-0.5106428922
  0
LINE
  5
4B3
100
AcDbEntity
  8
0
100
AcDbLine
 62
7
  6
CONTINUOUS
 10
149.0988415871
 20
-0.0000045658
 11
149.0988415871
 21
-1.5000045658
  0
LINE
  5
4B4
100
AcDbEntity
  8
0
100
AcDbLine
 62
7
  6
CONTINUOUS
 10
149.2238415275
 20
3.680846536
 11
149.2238415275
 21
2.4999954342
  0
LINE
  5
4B5
100
AcDbEntity
  8
0
100
AcDbLine
 62
7
  6
CONTINUOUS
 10
149.2863414083
 20
-1.5000045658
 11
149.2863414083
 21
-0.319153464
  0
LINE
  5
4B6
100
AcDbEntity
  8
0
100
AcDbLine
 62
7
  6
CONTINUOUS
 10
149.4113415275
 20
2.4999954342
 11
149.4113415275
 21
3.9999954342
  0
LINE
  5
4B7
100
AcDbEntity
  8
0
100
AcDbLine
 62
7
  6
CONTINUOUS
 10
149.5077525275
 20
129.6745256366
 11
149.5077525275
 21
129.4440438008
  0
LINE
  5
4B8
100
AcDbEntity
  8
0
100
AcDbLine
 62
7
  6
CONTINUOUS
 10
149.7550915275
 20
6.8361656247
 11
149.7550915275
 21
6.4638252436
  0
LINE
  5
4B9
100
AcDbEntity
  8
0
100
AcDbLine
 62
7
  6
CONTINUOUS
 10
149.8977375275
 20
125.3782594342
 11
149.8977375275
 21
125.6060794342
  0
LINE
  5
4BA
100
AcDbEntity
  8
0
100
AcDbLine
 62
7
  6
CONTINUOUS
 10
149.9846115275
 20
129.7314837869
 11
149.9846115275
 21
128.2121584342
  0
LINE
  5
4BB
100
AcDbEntity
  8
0
100
AcDbLine
 62
7
  6
CONTINUOUS
 10
150.0050915275
 20
1.9999954342
 11
150.0050915275
 21
0.4999954342
  0
LINE
  5
4BC
100
AcDbEntity
  8
0
100
AcDbLine
 62
7
  6
CONTINUOUS
 10
150.0155080948
 20
6.4106337606
 11
150.0155080948
 21
6.8893571078
  0
LINE
  5
4BD
100
AcDbEntity
  8
0
100
AcDbLine
 62
7
  6
CONTINUOUS
 10
150.1925915275
 20
0.4999954342
 11
150.1925915275
 21
1.9999954342
  0
LINE
  5
4BE
100
AcDbEntity
  8
0
100
AcDbLine
 62
7
  6
CONTINUOUS
 10
150.2230415275
 20
128.2121584342
 11
150.2230415275
 21
130.1619814342
  0
LINE
  5
4BF
100
AcDbEntity
  8
0
100
AcDbLine
 62
7
  6
CONTINUOUS
 10
150.2604115275
 20
-7.3894565658
 11
150.2604115275
 21
-7.8061215658
  0
LINE
  5
4C0
100
AcDbEntity
  8
0
100
AcDbLine
 62
7
  6
CONTINUOUS
 10
150.2740185275
 20
-4.0103015658
 11
150.2740185275
 21
-4.4292585658
  0
LINE
  5
4C1
100
AcDbEntity
  8
0
100
AcDbLine
 62
7
  6
CONTINUOUS
 10
150.4113414083
 20
-0.319153464
 11
150.4113414083
 21
-1.5000045658
  0
LINE
  5
4C2
100
AcDbEntity
  8
0
100
AcDbLine
 62
7
  6
CONTINUOUS
 10
150.4321749602
 20
6.4638252436
 11
150.4321749602
 21
6.144676271
  0
LINE
  5
4C3
100
AcDbEntity
  8
0
100
AcDbLine
 62
7
  6
CONTINUOUS
 10
150.4425915126
 20
1.9999954342
 11
150.4425915126
 21
0.4999954342
  0
LINE
  5
4C4
100
AcDbEntity
  8
0
100
AcDbLine
 62
7
  6
CONTINUOUS
 10
150.4738415275
 20
99.763825333
 11
150.4738415275
 21
99.5936123489
  0
LINE
  5
4C5
100
AcDbEntity
  8
0
100
AcDbLine
 62
7
  6
CONTINUOUS
 10
150.5988414083
 20
-1.5000045658
 11
150.5988414083
 21
-0.0000045658
  0
LINE
  5
4C6
100
AcDbEntity
  8
0
100
AcDbLine
 62
7
  6
CONTINUOUS
 10
150.6296665275
 20
-4.4292585658
 11
150.6296665275
 21
-5.4916175658
  0
LINE
  5
4C7
100
AcDbEntity
  8
0
100
AcDbLine
 62
7
  6
CONTINUOUS
 10
150.6296665275
 20
-6.0079735658
 11
150.6296665275
 21
-7.3894565658
  0
LINE
  5
4C8
100
AcDbEntity
  8
0
100
AcDbLine
 62
7
  6
CONTINUOUS
 10
150.6300915126
 20
0.4999954342
 11
150.6300915126
 21
1.8085060953
  0
LINE
  5
4C9
100
AcDbEntity
  8
0
100
AcDbLine
 62
7
  6
CONTINUOUS
 10
148.6475095275
 20
127.8442824342
 11
148.6470395275
 21
127.6156724342
  0
LWPOLYLINE
  5
4CA
100
AcDbEntity
  8
0
100
AcDbPolyline
 62
7
  6
CONTINUOUS
 90
31
 70
0
 10
150.7186142032
 20
129.1929558376
 10
150.7196373879
 20
129.30709791
 10
150.7264990211
 20
129.4167169177
 10
150.7391991027
 20
129.5218128606
 10
150.7571373894
 20
129.6233400043
 10
150.7809141245
 20
129.7203440833
 10
150.8123300386
 20
129.8099623007
 10
150.8522671599
 20
129.892464891
 10
150.8998434603
 20
129.9675816198
 10
150.9542135855
 20
130.0316389872
 10
151.0162456889
 20
130.0831228271
 10
151.0850716172
 20
130.1235473056
 10
151.1572415563
 20
130.1537814208
 10
151.2332929782
 20
130.1738263654
 10
151.312688411
 20
130.1836809467
 10
151.390365624
 20
130.1842105845
 10
151.465709254
 20
130.1757839392
 10
151.5393346643
 20
130.1580323505
 10
151.608025714
 20
130.1307152573
 10
151.6709701079
 20
130.093478516
 10
151.7289801412
 20
130.0466762702
 10
151.7812765576
 20
129.99113039
 10
151.8278674132
 20
129.926269037
 10
151.868744652
 20
129.8526640496
 10
151.9031048501
 20
129.7728528125
 10
151.9302484926
 20
129.6869488841
 10
151.9508750944
 20
129.5948387059
 10
151.9662797762
 20
129.4987189879
 10
151.9768942451
 20
129.3993219666
 10
151.982286794
 20
129.2959154054
 10
151.982457423
 20
129.1884993044
  0
LWPOLYLINE
  5
4CB
100
AcDbEntity
  8
0
100
AcDbPolyline
 62
7
  6
CONTINUOUS
 90
10
 70
0
 10
148.6121817151
 20
125.3782594342
 10
148.6147377333
 20
125.4354198954
 10
148.6251256344
 20
125.4934998106
 10
148.6433454182
 20
125.5524991797
 10
148.6701205819
 20
125.6131215477
 10
148.7047276284
 20
125.6746633697
 10
148.7449960667
 20
125.7350140107
 10
148.7912256162
 20
125.7936303283
 10
148.8431165574
 20
125.8510554649
 10
148.8975992422
 20
125.9068082127
  0
LINE
  5
4CC
100
AcDbEntity
  8
0
100
AcDbLine
 62
7
  6
CONTINUOUS
 10
154.4113415275
 20
98.9978677391
 11
154.4738420043
 21
99.5085059761
  0
LINE
  5
4CD
100
AcDbEntity
  8
RACCORDO
100
AcDbLine
 62
253
  6
CONTINUOUS
 10
135.9681344057
 20
-25.4265969222
 11
136.1488033057
 21
-24.0239712625
  0
LINE
  5
4CE
100
AcDbEntity
  8
0
100
AcDbLine
 62
7
  6
CONTINUOUS
 10
154.1613424812
 20
99.5085059761
 11
154.0988420043
 21
99.0829741119
  0
LINE
  5
4CF
100
AcDbEntity
  8
RACCORDO
100
AcDbLine
 62
253
  6
CONTINUOUS
 10
133.2338927408
 20
-28.5219894111
 11
133.2455354596
 21
-28.4433440738
  0
LWPOLYLINE
  5
4D0
100
AcDbEntity
  8
RACCORDO
100
AcDbPolyline
 62
253
  6
CONTINUOUS
 90
3
 70
0
 10
133.2455354596
 20
-28.4433440738
 10
133.2631580927
 20
-28.3246438905
 10
133.2747640294
 20
-28.2465145643
  0
LWPOLYLINE
  5
4D1
100
AcDbEntity
  8
RACCORDO
100
AcDbPolyline
 62
253
  6
CONTINUOUS
 90
3
 70
0
 10
133.2747640294
 20
-28.2465145643
 10
133.3031623973
 20
-28.0554092207
 10
133.319757504
 20
-27.943761864
  0
LINE
  5
4D2
100
AcDbEntity
  8
0
100
AcDbLine
 62
7
  6
CONTINUOUS
 10
153.4738415275
 20
99.2531868576
 11
153.5363420043
 21
99.5936123489
  0
LINE
  5
4D3
100
AcDbEntity
  8
0
100
AcDbLine
 62
7
  6
CONTINUOUS
 10
153.5363420043
 20
97.3808464764
 11
153.5988424812
 21
97.6361656545
  0
LINE
  5
4D4
100
AcDbEntity
  8
0
100
AcDbLine
 62
7
  6
CONTINUOUS
 10
154.2238415275
 20
99.763825333
 11
154.1613424812
 21
99.5085059761
  0
LINE
  5
4D5
100
AcDbEntity
  8
0
100
AcDbLine
 62
7
  6
CONTINUOUS
 10
156.2238424812
 20
97.6361656545
 11
156.2863415275
 21
97.891484773
  0
LINE
  5
4D6
100
AcDbEntity
  8
0
100
AcDbLine
 62
7
  6
CONTINUOUS
 10
156.9738424812
 20
99.763825333
 11
156.9113420043
 21
99.5085059761
  0
LINE
  5
4D7
100
AcDbEntity
  8
0
100
AcDbLine
 62
7
  6
CONTINUOUS
 10
158.9738420043
 20
97.6361656545
 11
159.0363424812
 21
97.891484773
  0
LINE
  5
4D8
100
AcDbEntity
  8
0
100
AcDbLine
 62
7
  6
CONTINUOUS
 10
158.8488424812
 20
97.2957401036
 11
158.9738420043
 21
97.6361656545
  0
LINE
  5
4D9
100
AcDbEntity
  8
0
100
AcDbLine
 62
7
  6
CONTINUOUS
 10
136.4738420043
 20
99.8489317058
 11
137.3488419745
 21
96.6999954342
  0
LINE
  5
4DA
100
AcDbEntity
  8
0
100
AcDbLine
 62
7
  6
CONTINUOUS
 10
137.5988420043
 20
97.1255273579
 11
136.6613420043
 21
100.6999954342
  0
LINE
  5
4DB
100
AcDbEntity
  8
0
100
AcDbLine
 62
7
  6
CONTINUOUS
 10
141.4738418851
 20
97.7212720274
 11
141.7238420043
 21
96.6999954342
  0
LINE
  5
4DC
100
AcDbEntity
  8
0
100
AcDbLine
 62
7
  6
CONTINUOUS
 10
140.8488421235
 20
100.3595699428
 11
141.4113421235
 21
98.0616975187
  0
LINE
  5
4DD
100
AcDbEntity
  8
RACCORDO
100
AcDbLine
 62
253
  6
CONTINUOUS
 10
133.0048948639
 20
134.005301397
 11
133.1354084432
 21
133.4354890951
  0
LINE
  5
4DE
100
AcDbEntity
  8
RACCORDO
100
AcDbLine
 62
253
  6
CONTINUOUS
 10
135.8223547414
 20
131.0903398421
 11
136.1002101046
 21
129.7036905066
  0
LINE
  5
4DF
100
AcDbEntity
  8
0
100
AcDbLine
 62
7
  6
CONTINUOUS
 10
154.4946746621
 20
7.1553145229
 11
154.5467583928
 21
6.8361656247
  0
LWPOLYLINE
  5
4E0
100
AcDbEntity
  8
0
100
AcDbPolyline
 62
7
  6
CONTINUOUS
 90
31
 70
0
 10
150.9627069991
 20
129.1922777917
 10
150.9632807063
 20
129.1117117496
 10
150.9662386396
 20
129.0336443435
 10
150.9715807992
 20
128.9580755734
 10
150.978762246
 20
128.8847142449
 10
150.988327919
 20
128.8138515523
 10
151.0019126349
 20
128.7463610791
 10
151.019337866
 20
128.6814924074
 10
151.04078214
 20
128.6199959551
 10
151.0684158567
 20
128.564996559
 10
151.103858907
 20
128.5167952651
 10
151.1454914
 20
128.4750910275
 10
151.1906240625
 20
128.4421055454
 10
151.2394856284
 20
128.4184270058
 10
151.2918473638
 20
128.4034672217
 10
151.3443337934
 20
128.3976833318
 10
151.3969149077
 20
128.4013088181
 10
151.4496207162
 20
128.4141101986
 10
151.4991657721
 20
128.4358441665
 10
151.5453743331
 20
128.4670742913
 10
151.5884221416
 20
128.5072370035
 10
151.6255509779
 20
128.5543982878
 10
151.6554252612
 20
128.6090006745
 10
151.6793805723
 20
128.6706016333
 10
151.6986654337
 20
128.7359395574
 10
151.7129706196
 20
128.8043331844
 10
151.7226053557
 20
128.8764637767
 10
151.7297458419
 20
128.9511135156
 10
151.7351174781
 20
129.0278764615
 10
151.7379948643
 20
129.1071585539
 10
151.7383780006
 20
129.1889597929
  0
LWPOLYLINE
  5
4E1
100
AcDbEntity
  8
0
100
AcDbPolyline
 62
7
  6
CONTINUOUS
 90
31
 70
0
 10
151.9074344529
 20
126.3356458578
 10
151.90800816
 20
126.2550798157
 10
151.9109660934
 20
126.1770124097
 10
151.9163082529
 20
126.1014436396
 10
151.9234896997
 20
126.028082311
 10
151.9330553727
 20
125.9572196184
 10
151.9466400886
 20
125.8897291452
 10
151.9640653197
 20
125.8248604735
 10
151.9855095937
 20
125.7633640212
 10
152.0131433104
 20
125.7083646251
 10
152.0485863607
 20
125.6601633312
 10
152.0902188538
 20
125.6184590936
 10
152.1353515162
 20
125.5854736115
 10
152.1842130822
 20
125.5617950719
 10
152.2365748176
 20
125.5468352878
 10
152.2890612472
 20
125.541051398
 10
152.3416423615
 20
125.5446768842
 10
152.3943481699
 20
125.5574782647
 10
152.4438932258
 20
125.5792122326
 10
152.4901017869
 20
125.6104423574
 10
152.5331495953
 20
125.6506050697
 10
152.5702784316
 20
125.6977663539
 10
152.6001527149
 20
125.7523687406
 10
152.624108026
 20
125.8139696994
 10
152.6433928874
 20
125.8793076235
 10
152.6576980733
 20
125.9477012505
 10
152.6673328095
 20
126.0198318428
 10
152.6744732957
 20
126.0944815817
 10
152.6798449318
 20
126.1712445276
 10
152.6827223181
 20
126.25052662
 10
152.6831054543
 20
126.332327859
  0
LWPOLYLINE
  5
4E2
100
AcDbEntity
  8
0
100
AcDbPolyline
 62
7
  6
CONTINUOUS
 90
31
 70
0
 10
151.7383780006
 20
129.1889597929
 10
151.738128776
 20
129.2723380482
 10
151.7353284233
 20
129.3531323982
 10
151.7299769424
 20
129.4313428429
 10
151.7228429669
 20
129.5074159857
 10
151.7131578632
 20
129.5809052232
 10
151.6986157304
 20
129.6504707446
 10
151.6788714305
 20
129.7168110492
 10
151.6542701014
 20
129.7792276377
 10
151.6235412557
 20
129.8342852013
 10
151.5853342645
 20
129.881468043
 10
151.5409997568
 20
129.9212918598
 10
151.4933191323
 20
129.9518684343
 10
151.4420235443
 20
129.9728184344
 10
151.3873818395
 20
129.9845211922
 10
151.3329819578
 20
129.9862264867
 10
151.2786228974
 20
129.976992134
 10
151.2245056601
 20
129.957760318
 10
151.1748211912
 20
129.9306073694
 10
151.1302230158
 20
129.8954956464
 10
151.0900576087
 20
129.8524627909
 10
151.056555339
 20
129.8036980592
 10
151.03154296
 20
129.7490198419
 10
151.0131937185
 20
129.6886097485
 10
150.9982577242
 20
129.6252018629
 10
150.9860632793
 20
129.5595220387
 10
150.9772820816
 20
129.4908444224
 10
150.9706793344
 20
129.4197255372
 10
150.9658434388
 20
129.3463508909
 10
150.9631859937
 20
129.2705349758
 10
150.9627069991
 20
129.1922777917
  0
LWPOLYLINE
  5
4E3
100
AcDbEntity
  8
0
100
AcDbPolyline
 62
7
  6
CONTINUOUS
 90
31
 70
0
 10
152.6831054543
 20
126.332327859
 10
152.6828562298
 20
126.4157061144
 10
152.680055877
 20
126.4965004644
 10
152.6747043961
 20
126.574710909
 10
152.6675704206
 20
126.6507840519
 10
152.657885317
 20
126.7242732894
 10
152.6433431841
 20
126.7938388108
 10
152.6235988842
 20
126.8601791154
 10
152.5989975551
 20
126.9225957038
 10
152.5682687095
 20
126.9776532674
 10
152.5300617183
 20
127.0248361091
 10
152.4857272105
 20
127.0646599259
 10
152.438046586
 20
127.0952365005
 10
152.386750998
 20
127.1161865005
 10
152.3321092932
 20
127.1278892583
 10
152.2777094115
 20
127.1295945528
 10
152.2233503511
 20
127.1203602001
 10
152.1692331139
 20
127.1011283841
 10
152.1195486449
 20
127.0739754355
 10
152.0749504695
 20
127.0388637126
 10
152.0347850624
 20
126.995830857
 10
152.0012827927
 20
126.9470661253
 10
151.9762704137
 20
126.8923879081
 10
151.9579211722
 20
126.8319778146
 10
151.9429851779
 20
126.768569929
 10
151.930790733
 20
126.7028901049
 10
151.9220095353
 20
126.6342124886
 10
151.9154067881
 20
126.5630936034
 10
151.9105708925
 20
126.4897189571
 10
151.9079134475
 20
126.4139030419
 10
151.9074344529
 20
126.3356458578
  0
LINE
  5
4E4
100
AcDbEntity
  8
0
100
AcDbLine
 62
7
  6
CONTINUOUS
 10
150.8488415275
 20
96.6999954342
 11
150.8488415275
 21
97.1255273579
  0
LINE
  5
4E5
100
AcDbEntity
  8
0
100
AcDbLine
 62
7
  6
CONTINUOUS
 10
150.8488415275
 20
99.5936123489
 11
150.8488415275
 21
99.763825333
  0
LINE
  5
4E6
100
AcDbEntity
  8
ASSI
100
AcDbLine
 62
7
  6
CONTINUOUS
 10
150.9312685275
 20
107.3399144342
 11
150.9312775275
 21
104.8999024342
  0
LINE
  5
4E7
100
AcDbEntity
  8
0
100
AcDbLine
 62
7
  6
CONTINUOUS
 10
151.0735455275
 20
-7.3894565658
 11
151.0735455275
 21
-6.0033135658
  0
LINE
  5
4E8
100
AcDbEntity
  8
0
100
AcDbLine
 62
7
  6
CONTINUOUS
 10
151.0735455275
 20
-5.4916175658
 11
151.0735455275
 21
-4.4292585658
  0
LINE
  5
4E9
100
AcDbEntity
  8
0
100
AcDbLine
 62
7
  6
CONTINUOUS
 10
151.1613416467
 20
3.9999954342
 11
151.1613416467
 21
2.4999954342
  0
LINE
  5
4EA
100
AcDbEntity
  8
0
100
AcDbLine
 62
7
  6
CONTINUOUS
 10
151.3487335275
 20
127.0679244342
 11
151.3487335275
 21
127.2957444342
  0
LINE
  5
4EB
100
AcDbEntity
  8
0
100
AcDbLine
 62
7
  6
CONTINUOUS
 10
151.3488416467
 20
2.6914847954
 11
151.3488416467
 21
3.8085060953
  0
LINE
  5
4EC
100
AcDbEntity
  8
0
100
AcDbLine
 62
7
  6
CONTINUOUS
 10
151.4290505275
 20
-4.4292585658
 11
151.4290505275
 21
-4.0103015658
  0
LINE
  5
4ED
100
AcDbEntity
  8
0
100
AcDbLine
 62
7
  6
CONTINUOUS
 10
151.4426575275
 20
-7.8061215658
 11
151.4426575275
 21
-7.3894565658
  0
LINE
  5
4EE
100
AcDbEntity
  8
0
100
AcDbLine
 62
7
  6
CONTINUOUS
 10
151.5050915275
 20
1.9999954342
 11
151.5050915275
 21
0.7233996852
  0
LINE
  5
4EF
100
AcDbEntity
  8
ASSI
100
AcDbLine
 62
7
  6
CONTINUOUS
 10
151.6713055275
 20
104.8999024342
 11
151.6713055275
 21
108.6000694342
  0
LINE
  5
4F0
100
AcDbEntity
  8
0
100
AcDbLine
 62
7
  6
CONTINUOUS
 10
151.6821746621
 20
7.47446357
 11
151.6821746621
 21
6.4638252436
  0
LINE
  5
4F1
100
AcDbEntity
  8
0
100
AcDbLine
 62
7
  6
CONTINUOUS
 10
151.6821746621
 20
6.144676271
 11
151.6821746621
 21
5.3999954342
  0
LINE
  5
4F2
100
AcDbEntity
  8
0
100
AcDbLine
 62
7
  6
CONTINUOUS
 10
151.6925915275
 20
0.4999954342
 11
151.6925915275
 21
1.9999954342
  0
LINE
  5
4F3
100
AcDbEntity
  8
0
100
AcDbLine
 62
7
  6
CONTINUOUS
 10
151.9946746621
 20
5.3999954342
 11
151.9946746621
 21
6.144676271
  0
LINE
  5
4F4
100
AcDbEntity
  8
0
100
AcDbLine
 62
7
  6
CONTINUOUS
 10
151.9946746621
 20
6.4638252436
 11
151.9946746621
 21
7.8999954342
  0
LINE
  5
4F5
100
AcDbEntity
  8
0
100
AcDbLine
 62
7
  6
CONTINUOUS
 10
152.2238415275
 20
3.4893571078
 11
152.2238415275
 21
3.0106337159
  0
LINE
  5
4F6
100
AcDbEntity
  8
0
100
AcDbLine
 62
7
  6
CONTINUOUS
 10
152.3488415275
 20
98.9127613663
 11
152.3488415275
 21
98.5723358749
  0
LINE
  5
4F7
100
AcDbEntity
  8
0
100
AcDbLine
 62
7
  6
CONTINUOUS
 10
152.3488415275
 20
-0.0000045658
 11
152.3488415275
 21
-1.5000045658
  0
LINE
  5
4F8
100
AcDbEntity
  8
0
100
AcDbLine
 62
7
  6
CONTINUOUS
 10
152.4113415275
 20
3.0106337159
 11
152.4113415275
 21
3.4893571078
  0
LINE
  5
4F9
100
AcDbEntity
  8
0
100
AcDbLine
 62
7
  6
CONTINUOUS
 10
152.5155083928
 20
6.144676271
 11
152.5155083928
 21
6.4638252436
  0
LINE
  5
4FA
100
AcDbEntity
  8
0
100
AcDbLine
 62
7
  6
CONTINUOUS
 10
152.5363415275
 20
-1.5000045658
 11
152.5363415275
 21
-0.1914939047
  0
LINE
  5
4FB
100
AcDbEntity
  8
0
100
AcDbLine
 62
7
  6
CONTINUOUS
 10
152.6613416467
 20
3.9999954342
 11
152.6613416467
 21
2.4999954342
  0
LINE
  5
4FC
100
AcDbEntity
  8
0
100
AcDbLine
 62
7
  6
CONTINUOUS
 10
152.8488416467
 20
2.6914847954
 11
152.8488416467
 21
3.2021230994
  0
LINE
  5
4FD
100
AcDbEntity
  8
0
100
AcDbLine
 62
7
  6
CONTINUOUS
 10
152.8488416467
 20
3.3936124383
 11
152.8488416467
 21
3.8085060953
  0
LINE
  5
4FE
100
AcDbEntity
  8
0
100
AcDbLine
 62
7
  6
CONTINUOUS
 10
152.9321746621
 20
6.8893571078
 11
152.9321746621
 21
6.4106337606
  0
LINE
  5
4FF
100
AcDbEntity
  8
0
100
AcDbLine
 62
7
  6
CONTINUOUS
 10
153.0988415275
 20
-20.9000045658
 11
153.0988415275
 21
-18.5071937047
  0
LINE
  5
500
100
AcDbEntity
  8
0
100
AcDbLine
 62
7
  6
CONTINUOUS
 10
153.1925915275
 20
6.4638252436
 11
153.1925915275
 21
6.8361656247
  0
LINE
  5
501
100
AcDbEntity
  8
0
100
AcDbLine
 62
7
  6
CONTINUOUS
 10
153.2238424812
 20
99.763825333
 11
153.2238424812
 21
99.5936123489
  0
LINE
  5
502
100
AcDbEntity
  8
RACCORDO
100
AcDbLine
 62
253
  6
CONTINUOUS
 10
153.2488415275
 20
-18.4000045658
 11
153.2488415275
 21
-20.9000045658
  0
LINE
  5
503
100
AcDbEntity
  8
0
100
AcDbLine
 62
7
  6
CONTINUOUS
 10
153.2863415275
 20
97.9765911459
 11
153.2863415275
 21
97.6361656545
  0
LINE
  5
504
100
AcDbEntity
  8
0
100
AcDbLine
 62
7
  6
CONTINUOUS
 10
153.4113417659
 20
-0.0000045658
 11
153.4113417659
 21
-1.2766003148
  0
LINE
  5
505
100
AcDbEntity
  8
0
100
AcDbLine
 62
7
  6
CONTINUOUS
 10
153.4924865275
 20
127.7264319276
 11
153.4924865275
 21
127.4552177734
  0
LINE
  5
506
100
AcDbEntity
  8
0
100
AcDbLine
 62
7
  6
CONTINUOUS
 10
153.5363420043
 20
99.5936123489
 11
153.5363420043
 21
99.763825333
  0
LINE
  5
507
100
AcDbEntity
  8
0
100
AcDbLine
 62
7
  6
CONTINUOUS
 10
153.5988417659
 20
-1.5000045658
 11
153.5988417659
 21
-0.0000045658
  0
LINE
  5
508
100
AcDbEntity
  8
0
100
AcDbLine
 62
7
  6
CONTINUOUS
 10
153.5988424812
 20
97.6361656545
 11
153.5988424812
 21
97.9765911459
  0
LINE
  5
509
100
AcDbEntity
  8
0
100
AcDbLine
 62
7
  6
CONTINUOUS
 10
153.6613414083
 20
3.2021230994
 11
153.6613414083
 21
3.3936124383
  0
LINE
  5
50A
100
AcDbEntity
  8
0
100
AcDbLine
 62
7
  6
CONTINUOUS
 10
153.7863416467
 20
2.4999954342
 11
153.7863416467
 21
2.6914847954
  0
LINE
  5
50B
100
AcDbEntity
  8
0
100
AcDbLine
 62
7
  6
CONTINUOUS
 10
153.7863416467
 20
3.8085060953
 11
153.7863416467
 21
3.9999954342
  0
LINE
  5
50C
100
AcDbEntity
  8
0
100
AcDbLine
 62
7
  6
CONTINUOUS
 10
153.8488415275
 20
151.3478373079
 11
153.8488415275
 21
135.8961566394
  0
LINE
  5
50D
100
AcDbEntity
  8
0
100
AcDbLine
 62
7
  6
CONTINUOUS
 10
153.8488415275
 20
-0.0000045658
 11
153.8488415275
 21
-1.5000045658
  0
LINE
  5
50E
100
AcDbEntity
  8
0
100
AcDbLine
 62
7
  6
CONTINUOUS
 10
154.0363415275
 20
-1.5000045658
 11
154.0363415275
 21
-0.0000045658
  0
LINE
  5
50F
100
AcDbEntity
  8
RACCORDO
100
AcDbLine
 62
253
  6
CONTINUOUS
 10
154.049975631
 20
131.0985206767
 11
154.049975631
 21
135.3080463321
  0
LINE
  5
510
100
AcDbEntity
  8
0
100
AcDbLine
 62
7
  6
CONTINUOUS
 10
154.0988420043
 20
99.0829741119
 11
154.0988420043
 21
98.3170167564
  0
LINE
  5
511
100
AcDbEntity
  8
0
100
AcDbLine
 62
7
  6
CONTINUOUS
 10
154.4113415275
 20
98.4021231293
 11
154.4113415275
 21
98.9978677391
  0
LINE
  5
512
100
AcDbEntity
  8
0
100
AcDbLine
 62
7
  6
CONTINUOUS
 10
154.5467583928
 20
6.8361656247
 11
154.5467583928
 21
6.4638252436
  0
LINE
  5
513
100
AcDbEntity
  8
RACCORDO
100
AcDbLine
 62
7
  6
CONTINUOUS
 10
154.7488415275
 20
-16.0888240076
 11
154.7488415275
 21
-20.9000045637
  0
LINE
  5
514
100
AcDbEntity
  8
0
100
AcDbLine
 62
7
  6
CONTINUOUS
 10
154.8071746621
 20
6.4106337606
 11
154.8071746621
 21
6.8893571078
  0
LINE
  5
515
100
AcDbEntity
  8
0
100
AcDbLine
 62
7
  6
CONTINUOUS
 10
154.8485575275
 20
127.6043855237
 11
154.8485575275
 21
127.8864482294
  0
LINE
  5
516
100
AcDbEntity
  8
0
100
AcDbLine
 62
7
  6
CONTINUOUS
 10
155.2238415275
 20
7.527655053
 11
155.2238415275
 21
7.1021230398
  0
LINE
  5
517
100
AcDbEntity
  8
0
100
AcDbLine
 62
7
  6
CONTINUOUS
 10
155.3491275083
 20
83.0067906185
 11
155.3491275083
 21
81.7067906185
  0
LINE
  5
518
100
AcDbEntity
  8
0
100
AcDbLine
 62
7
  6
CONTINUOUS
 10
155.5363415275
 20
7.47446357
 11
155.5363415275
 21
5.3999954342
  0
LINE
  5
519
100
AcDbEntity
  8
ASSI
100
AcDbLine
 62
7
  6
CONTINUOUS
 10
155.7740595275
 20
108.6000784342
 11
155.7740595275
 21
104.8999124342
  0
LINE
  5
51A
100
AcDbEntity
  8
0
100
AcDbLine
 62
7
  6
CONTINUOUS
 10
155.8488415275
 20
5.3999954342
 11
155.8488415275
 21
7.8999954342
  0
LINE
  5
51B
100
AcDbEntity
  8
0
100
AcDbLine
 62
7
  6
CONTINUOUS
 10
156.0363424812
 20
98.9978677391
 11
156.0363424812
 21
98.4021231293
  0
LINE
  5
51C
100
AcDbEntity
  8
0
100
AcDbLine
 62
7
  6
CONTINUOUS
 10
156.3488420043
 20
98.3170167564
 11
156.3488420043
 21
99.0829741119
  0
LINE
  5
51D
100
AcDbEntity
  8
0
100
AcDbLine
 62
7
  6
CONTINUOUS
 10
156.4764197637
 20
90.5655076021
 11
156.4764197637
 21
90.2545304282
  0
LINE
  5
51E
100
AcDbEntity
  8
ASSI
100
AcDbLine
 62
7
  6
CONTINUOUS
 10
156.5038935275
 20
107.0151374342
 11
156.5038845275
 21
107.9155514342
  0
LINE
  5
51F
100
AcDbEntity
  8
0
100
AcDbLine
 62
7
  6
CONTINUOUS
 10
156.8488415275
 20
99.0829741119
 11
156.8488415275
 21
98.3170167564
  0
LINE
  5
520
100
AcDbEntity
  8
0
100
AcDbLine
 62
7
  6
CONTINUOUS
 10
157.1613424812
 20
98.4021231293
 11
157.1613424812
 21
98.9978677391
  0
LINE
  5
521
100
AcDbEntity
  8
ASSI
100
AcDbLine
 62
7
  6
CONTINUOUS
 10
156.5140965275
 20
104.8999124342
 11
156.5141795275
 21
106.3306094342
  0
LINE
  5
522
100
AcDbEntity
  8
0
100
AcDbLine
 62
7
  6
CONTINUOUS
 10
152.9199695275
 20
127.6068804342
 11
152.9204395275
 21
127.8354904342
  0
LWPOLYLINE
  5
523
100
AcDbEntity
  8
0
100
AcDbPolyline
 62
7
  6
CONTINUOUS
 90
31
 70
0
 10
151.982457423
 20
129.1884993044
 10
151.9815570552
 20
129.076232081
 10
151.9748834151
 20
128.9683791563
 10
151.9624365028
 20
128.8649405301
 10
151.9447184777
 20
128.764979597
 10
151.9212271803
 20
128.6694329626
 10
151.8904561326
 20
128.5811104434
 10
151.8516315524
 20
128.4999666594
 10
151.805527222
 20
128.4260469908
 10
151.7529580094
 20
128.3622973945
 10
151.69338075
 20
128.3095681703
 10
151.6273386085
 20
128.2670090184
 10
151.5572759473
 20
128.2350149971
 10
151.4823499639
 20
128.2142430589
 10
151.4034034607
 20
128.2040362513
 10
151.3254092078
 20
128.2028187747
 10
151.2487282971
 20
128.2098203543
 10
151.1729996366
 20
128.225811265
 10
151.1021127198
 20
128.2515265309
 10
151.0368273216
 20
128.2873966743
 10
150.976383667
 20
128.3329911729
 10
150.922391925
 20
128.3877534842
 10
150.8753784473
 20
128.4524558617
 10
150.834816882
 20
128.5263260518
 10
150.8007383422
 20
128.6064907508
 10
150.7736664823
 20
128.6927685308
 10
150.7530776478
 20
128.7853408198
 10
150.7374319878
 20
128.881878597
 10
150.7262162185
 20
128.9816055222
 10
150.7199436236
 20
129.0852979358
 10
150.7186142032
 20
129.1929558376
  0
LWPOLYLINE
  5
524
100
AcDbEntity
  8
0
100
AcDbPolyline
 62
7
  6
CONTINUOUS
 90
31
 70
0
 10
152.9271848767
 20
126.348408247
 10
152.9262845089
 20
126.2361410237
 10
152.9196108688
 20
126.1282880989
 10
152.9071639566
 20
126.0248494728
 10
152.8894459314
 20
125.9248885397
 10
152.865954634
 20
125.8293419052
 10
152.8351835863
 20
125.741019386
 10
152.7963590062
 20
125.6598756021
 10
152.7502546757
 20
125.5859559334
 10
152.6976854631
 20
125.5222063372
 10
152.6381082037
 20
125.4694771129
 10
152.5720660622
 20
125.4269179611
 10
152.502003401
 20
125.3949239398
 10
152.4270774176
 20
125.3741520016
 10
152.3481309145
 20
125.363945194
 10
152.2701366615
 20
125.3627277173
 10
152.1934557508
 20
125.369729297
 10
152.1177270903
 20
125.3857202076
 10
152.0468401735
 20
125.4114354735
 10
151.9815547753
 20
125.4473056169
 10
151.9211111208
 20
125.4929001156
 10
151.8671193787
 20
125.5476624269
 10
151.820105901
 20
125.6123648044
 10
151.7795443358
 20
125.6862349945
 10
151.7454657959
 20
125.7663996934
 10
151.7183939361
 20
125.8526774735
 10
151.6978051016
 20
125.9452497624
 10
151.6821594415
 20
126.0417875396
 10
151.6709436722
 20
126.1415144649
 10
151.6646710774
 20
126.2452068784
 10
151.6633416569
 20
126.3528647802
  0
LWPOLYLINE
  5
525
100
AcDbEntity
  8
0
100
AcDbPolyline
 62
7
  6
CONTINUOUS
 90
31
 70
0
 10
151.6633416569
 20
126.3528647802
 10
151.6643648416
 20
126.4670068527
 10
151.6712264748
 20
126.5766258604
 10
151.6839265565
 20
126.6817218033
 10
151.7018648431
 20
126.783248947
 10
151.7256415782
 20
126.8802530259
 10
151.7570574923
 20
126.9698712434
 10
151.7969946136
 20
127.0523738337
 10
151.844570914
 20
127.1274905624
 10
151.8989410392
 20
127.1915479298
 10
151.9609731426
 20
127.2430317697
 10
152.0297990709
 20
127.2834562482
 10
152.10196901
 20
127.3136903634
 10
152.178020432
 20
127.333735308
 10
152.2574158647
 20
127.3435898893
 10
152.3350930777
 20
127.3441195272
 10
152.4104367077
 20
127.3356928819
 10
152.4840621181
 20
127.3179412931
 10
152.5527531677
 20
127.2906241999
 10
152.6156975616
 20
127.2533874586
 10
152.6737075949
 20
127.2065852129
 10
152.7260040113
 20
127.1510393326
 10
152.7725948669
 20
127.0861779797
 10
152.8134721057
 20
127.0125729923
 10
152.8478323038
 20
126.9327617552
 10
152.8749759463
 20
126.8468578267
 10
152.8956025481
 20
126.7547476486
 10
152.91100723
 20
126.6586279305
 10
152.9216216988
 20
126.5592309092
 10
152.9270142477
 20
126.4558243481
 10
152.9271848767
 20
126.348408247
  0
LINE
  5
526
100
AcDbEntity
  8
RACCORDO
100
AcDbLine
 62
253
  6
CONTINUOUS
 10
154.049975631
 20
135.3080463321
 11
154.0701539751
 21
135.8073341656
  0
LINE
  5
527
100
AcDbEntity
  8
0
100
AcDbLine
 62
7
  6
CONTINUOUS
 10
156.0363424812
 20
98.4021231293
 11
155.9738420043
 21
97.891484773
  0
LINE
  5
528
100
AcDbEntity
  8
0
100
AcDbLine
 62
7
  6
CONTINUOUS
 10
157.1613424812
 20
98.9978677391
 11
157.2238415275
 21
99.5085059761
  0
LINE
  5
529
100
AcDbEntity
  8
0
100
AcDbLine
 62
7
  6
CONTINUOUS
 10
158.7863420043
 20
98.4021231293
 11
158.7238415275
 21
97.891484773
  0
LINE
  5
52A
100
AcDbEntity
  8
0
100
AcDbLine
 62
7
  6
CONTINUOUS
 10
156.2863415275
 20
97.891484773
 11
156.3488420043
 21
98.3170167564
  0
LINE
  5
52B
100
AcDbEntity
  8
0
100
AcDbLine
 62
7
  6
CONTINUOUS
 10
156.9113420043
 20
99.5085059761
 11
156.8488415275
 21
99.0829741119
  0
LINE
  5
52C
100
AcDbEntity
  8
0
100
AcDbLine
 62
7
  6
CONTINUOUS
 10
159.0363424812
 20
97.891484773
 11
159.0988415275
 21
98.3170167564
  0
LINE
  5
52D
100
AcDbEntity
  8
0
100
AcDbLine
 62
7
  6
CONTINUOUS
 10
146.109258188
 20
6.8361656247
 11
146.1613415275
 21
7.1553145229
  0
LINE
  5
52E
100
AcDbEntity
  8
0
100
AcDbLine
 62
7
  6
CONTINUOUS
 10
147.4634248112
 20
6.4638252436
 11
147.4113415275
 21
6.144676271
  0
LINE
  5
52F
100
AcDbEntity
  8
0
100
AcDbLine
 62
7
  6
CONTINUOUS
 10
148.4009249602
 20
6.8361656247
 11
148.4530080948
 21
7.1553145229
  0
LINE
  5
530
100
AcDbEntity
  8
0
100
AcDbLine
 62
7
  6
CONTINUOUS
 10
145.9009248624
 20
7.1553145229
 11
145.8488415275
 21
6.8893571078
  0
LINE
  5
531
100
AcDbEntity
  8
RACCORDO
100
AcDbLine
 62
253
  6
CONTINUOUS
 10
165.8753283132
 20
131.0903398423
 11
165.5974729501
 21
129.703690507
  0
LINE
  5
532
100
AcDbEntity
  8
RACCORDO
100
AcDbLine
 62
253
  6
CONTINUOUS
 10
168.6927881911
 20
134.005301397
 11
168.5622746118
 21
133.4354890951
  0
LINE
  5
533
100
AcDbEntity
  8
0
100
AcDbLine
 62
7
  6
CONTINUOUS
 10
142.0988420043
 20
96.6999954342
 11
141.0988418851
 21
100.6999954342
  0
LINE
  5
534
100
AcDbEntity
  8
RACCORDO
100
AcDbLine
 62
253
  6
CONTINUOUS
 10
168.4637903142
 20
-28.5219894111
 11
168.377925551
 21
-27.943761864
  0
LINE
  5
535
100
AcDbEntity
  8
RACCORDO
100
AcDbLine
 62
253
  6
CONTINUOUS
 10
165.7295486493
 20
-25.4265969222
 11
165.5488797492
 21
-24.0239712627
  0
LINE
  5
536
100
AcDbEntity
  8
0
100
AcDbLine
 62
7
  6
CONTINUOUS
 10
157.0645688825
 20
90.8348647739
 11
157.0881345815
 21
90.5655076021
  0
LINE
  5
537
100
AcDbEntity
  8
0
100
AcDbLine
 62
7
  6
CONTINUOUS
 10
157.1153415588
 20
90.2545304282
 11
157.1863921575
 21
89.4424183689
  0
LINE
  5
538
100
AcDbEntity
  8
0
100
AcDbLine
 62
7
  6
CONTINUOUS
 10
157.2074748963
 20
89.2014415615
 11
157.4536844451
 21
86.3872535421
  0
LINE
  5
539
100
AcDbEntity
  8
0
100
AcDbLine
 62
7
  6
CONTINUOUS
 10
157.4713749634
 20
86.185049992
 11
157.5744593013
 21
85.0067906185
  0
LINE
  5
53A
100
AcDbEntity
  8
0
100
AcDbLine
 62
7
  6
CONTINUOUS
 10
157.645698821
 20
85.084534912
 11
157.5431377934
 21
86.2568128219
  0
LINE
  5
53B
100
AcDbEntity
  8
0
100
AcDbLine
 62
7
  6
CONTINUOUS
 10
157.525447275
 20
86.4590163721
 11
157.2929985068
 21
89.1159179511
  0
LINE
  5
53C
100
AcDbEntity
  8
0
100
AcDbLine
 62
7
  6
CONTINUOUS
 10
157.271915768
 20
89.3568947584
 11
157.1933828229
 21
90.2545304282
  0
LINE
  5
53D
100
AcDbEntity
  8
0
100
AcDbLine
 62
7
  6
CONTINUOUS
 10
157.1661758455
 20
90.5655076021
 11
157.1470123085
 21
90.784547833
  0
LINE
  5
53E
100
AcDbEntity
  8
0
100
AcDbLine
 62
7
  6
CONTINUOUS
 10
157.2927348452
 20
91.2263340966
 11
157.2927348452
 21
90.9219771624
  0
LINE
  5
53F
100
AcDbEntity
  8
0
100
AcDbLine
 62
7
  6
CONTINUOUS
 10
157.2927348452
 20
90.8395657493
 11
157.2927348452
 21
90.5655076021
  0
LINE
  5
540
100
AcDbEntity
  8
0
100
AcDbLine
 62
7
  6
CONTINUOUS
 10
157.3704791386
 20
90.6432518956
 11
157.3704791386
 21
90.8663069066
  0
LINE
  5
541
100
AcDbEntity
  8
0
100
AcDbLine
 62
7
  6
CONTINUOUS
 10
157.3704791386
 20
90.9481505439
 11
157.3704791386
 21
91.1485898031
  0
LINE
  5
542
100
AcDbEntity
  8
0
100
AcDbLine
 62
7
  6
CONTINUOUS
 10
157.5744593013
 20
85.0067906185
 11
157.5744593013
 21
84.3848362707
  0
LINE
  5
543
100
AcDbEntity
  8
0
100
AcDbLine
 62
7
  6
CONTINUOUS
 10
157.6037120191
 20
91.1485898031
 11
157.6037120191
 21
91.016460851
  0
LINE
  5
544
100
AcDbEntity
  8
0
100
AcDbLine
 62
7
  6
CONTINUOUS
 10
157.6037120191
 20
90.9360624809
 11
157.6037120191
 21
90.6432518956
  0
LINE
  5
545
100
AcDbEntity
  8
0
100
AcDbLine
 62
7
  6
CONTINUOUS
 10
157.6814563125
 20
90.565507602
 11
157.6814563125
 21
90.9559293539
  0
LINE
  5
546
100
AcDbEntity
  8
0
100
AcDbLine
 62
7
  6
CONTINUOUS
 10
157.6814563125
 20
91.0359253005
 11
157.6814563125
 21
91.2263340966
  0
LINE
  5
547
100
AcDbEntity
  8
0
100
AcDbLine
 62
7
  6
CONTINUOUS
 10
157.6910757415
 20
84.5014527109
 11
157.6910757415
 21
84.9679184718
  0
LINE
  5
548
100
AcDbEntity
  8
0
100
AcDbLine
 62
7
  6
CONTINUOUS
 10
157.9243086219
 20
84.9679184718
 11
157.9243086219
 21
84.5014527109
  0
LINE
  5
549
100
AcDbEntity
  8
0
100
AcDbLine
 62
7
  6
CONTINUOUS
 10
158.0409250622
 20
84.3848362707
 11
158.0409250622
 21
85.0067906185
  0
LINE
  5
54A
100
AcDbEntity
  8
0
100
AcDbLine
 62
7
  6
CONTINUOUS
 10
158.3422828071
 20
89.088366026
 11
158.3422828071
 21
88.6996445587
  0
LINE
  5
54B
100
AcDbEntity
  8
0
100
AcDbLine
 62
7
  6
CONTINUOUS
 10
158.4200271006
 20
88.7773888521
 11
158.4200271006
 21
89.0106217326
  0
LINE
  5
54C
100
AcDbEntity
  8
0
100
AcDbLine
 62
7
  6
CONTINUOUS
 10
158.497771394
 20
91.3429505368
 11
158.497771394
 21
91.146321631
  0
LINE
  5
54D
100
AcDbEntity
  8
0
100
AcDbLine
 62
7
  6
CONTINUOUS
 10
158.497771394
 20
91.0685332702
 11
158.497771394
 21
90.876484776
  0
LINE
  5
54E
100
AcDbEntity
  8
0
100
AcDbLine
 62
7
  6
CONTINUOUS
 10
158.5755156875
 20
90.9542290695
 11
158.5755156875
 21
91.0704209127
  0
LINE
  5
54F
100
AcDbEntity
  8
0
100
AcDbLine
 62
7
  6
CONTINUOUS
 10
158.5755156875
 20
91.1481732946
 11
158.5755156875
 21
91.2652062434
  0
LINE
  5
550
100
AcDbEntity
  8
0
100
AcDbLine
 62
7
  6
CONTINUOUS
 10
158.7863420043
 20
98.9978677391
 11
158.7863420043
 21
98.4021231293
  0
LINE
  5
551
100
AcDbEntity
  8
0
100
AcDbLine
 62
7
  6
CONTINUOUS
 10
159.0988415275
 20
98.3170167564
 11
159.0988415275
 21
99.0829741119
  0
LINE
  5
552
100
AcDbEntity
  8
0
100
AcDbLine
 62
7
  6
CONTINUOUS
 10
159.4695750625
 20
91.2652062434
 11
159.4695750625
 21
91.0621086142
  0
LINE
  5
553
100
AcDbEntity
  8
0
100
AcDbLine
 62
7
  6
CONTINUOUS
 10
159.547319356
 20
90.876484776
 11
159.547319356
 21
90.9652434366
  0
LINE
  5
554
100
AcDbEntity
  8
0
100
AcDbLine
 62
7
  6
CONTINUOUS
 10
159.547319356
 20
91.045052087
 11
159.547319356
 21
91.3429505368
  0
LINE
  5
555
100
AcDbEntity
  8
0
100
AcDbLine
 62
7
  6
CONTINUOUS
 10
159.6250636494
 20
89.0106217326
 11
159.6250636494
 21
88.7773888521
  0
LINE
  5
556
100
AcDbEntity
  8
0
100
AcDbLine
 62
7
  6
CONTINUOUS
 10
159.7028079429
 20
88.6996445587
 11
159.7028079429
 21
89.088366026
  0
LINE
  5
557
100
AcDbEntity
  8
0
100
AcDbLine
 62
7
  6
CONTINUOUS
 10
160.2081458505
 20
89.9435532543
 11
160.2081458505
 21
89.1417149475
  0
LINE
  5
558
100
AcDbEntity
  8
0
100
AcDbLine
 62
7
  6
CONTINUOUS
 10
160.285890144
 20
89.219459241
 11
160.285890144
 21
89.8658089608
  0
LINE
  5
559
100
AcDbEntity
  8
0
100
AcDbLine
 62
7
  6
CONTINUOUS
 10
160.7912280516
 20
90.2545304282
 11
160.7912280516
 21
90.3523593857
  0
LINE
  5
55A
100
AcDbEntity
  8
0
100
AcDbLine
 62
7
  6
CONTINUOUS
 10
161.0633330787
 20
89.7770081073
 11
161.0633330787
 21
89.1661103195
  0
LINE
  5
55B
100
AcDbEntity
  8
0
100
AcDbLine
 62
7
  6
CONTINUOUS
 10
161.1410773722
 20
89.088366026
 11
161.1410773722
 21
89.8547524008
  0
LINE
  5
55C
100
AcDbEntity
  8
0
100
AcDbLine
 62
7
  6
CONTINUOUS
 10
162.3461139211
 20
81.7067906185
 11
162.3461139211
 21
83.0067906185
  0
LINE
  5
55D
100
AcDbEntity
  8
0
100
AcDbLine
 62
7
  6
CONTINUOUS
 10
160.4695019871
 20
90.2545304282
 11
160.4422950098
 21
89.9435532543
  0
LINE
  5
55E
100
AcDbEntity
  8
0
100
AcDbLine
 62
7
  6
CONTINUOUS
 10
160.4354932654
 20
89.8658089608
 11
160.387866793
 21
89.32143589
  0
LINE
  5
55F
100
AcDbEntity
  8
0
100
AcDbLine
 62
7
  6
CONTINUOUS
 10
160.3667840542
 20
89.0804590828
 11
160.1400406309
 21
86.4887698954
  0
LINE
  5
560
100
AcDbEntity
  8
0
100
AcDbLine
 62
7
  6
CONTINUOUS
 10
160.1223501126
 20
86.2865663454
 11
160.0730739062
 21
85.7233367287
  0
LINE
  5
561
100
AcDbEntity
  8
0
100
AcDbLine
 62
7
  6
CONTINUOUS
 10
160.1501338945
 20
85.712120695
 11
160.1941129426
 21
86.2148035153
  0
LINE
  5
562
100
AcDbEntity
  8
0
100
AcDbLine
 62
7
  6
CONTINUOUS
 10
160.2118034609
 20
86.4170070654
 11
160.4455170862
 21
89.088366026
  0
LINE
  5
563
100
AcDbEntity
  8
0
100
AcDbLine
 62
7
  6
CONTINUOUS
 10
160.4733904035
 20
89.4069595005
 11
160.5135345295
 21
89.8658089608
  0
LINE
  5
564
100
AcDbEntity
  8
0
100
AcDbLine
 62
7
  6
CONTINUOUS
 10
160.5203362739
 20
89.9435532543
 11
160.5475432512
 21
90.2545304282
  0
LINE
  5
565
100
AcDbEntity
  8
0
100
AcDbLine
 62
7
  6
CONTINUOUS
 10
165.2238410507
 20
100.6999954342
 11
164.8488410507
 21
97.6361656545
  0
LINE
  5
566
100
AcDbEntity
  8
0
100
AcDbLine
 62
7
  6
CONTINUOUS
 10
165.098842958
 20
96.6999954342
 11
165.5988410507
 21
100.6999954342
  0
LWPOLYLINE
  5
567
100
AcDbEntity
  8
RACCORDO
100
AcDbPolyline
 62
253
  6
CONTINUOUS
 90
10
 70
0
 10
170.9505362252
 20
131.7241599523
 10
170.944907414
 20
131.6848238565
 10
170.925063935
 20
131.6426607868
 10
170.8911506034
 20
131.5979790647
 10
170.8434149978
 20
131.5511053386
 10
170.782205656
 20
131.5023821776
 10
170.7079695274
 20
131.4521655721
 10
170.6212487085
 20
131.40082235
 10
170.5226764857
 20
131.3487274921
 10
170.4129727128
 20
131.2962613782
  0
LINE
  5
568
100
AcDbEntity
  8
0
100
AcDbLine
 62
7
  6
CONTINUOUS
 10
163.598842958
 20
96.6999954342
 11
164.0988410507
 21
99.9340380787
  0
LINE
  5
569
100
AcDbEntity
  8
0
100
AcDbLine
 62
7
  6
CONTINUOUS
 10
163.8488420043
 20
100.6999954342
 11
163.3488410507
 21
97.6361656545
  0
LINE
  5
56A
100
AcDbEntity
  8
0
100
AcDbLine
 62
7
  6
CONTINUOUS
 10
149.7550915275
 20
6.4638252436
 11
149.7030080948
 21
6.144676271
  0
LINE
  5
56B
100
AcDbEntity
  8
0
100
AcDbLine
 62
7
  6
CONTINUOUS
 10
153.1925915275
 20
6.8361656247
 11
153.2446746621
 21
7.1553145229
  0
LINE
  5
56C
100
AcDbEntity
  8
0
100
AcDbLine
 62
7
  6
CONTINUOUS
 10
154.5467583928
 20
6.4638252436
 11
154.4946746621
 21
6.144676271
  0
LINE
  5
56D
100
AcDbEntity
  8
0
100
AcDbLine
 62
7
  6
CONTINUOUS
 10
147.6717582438
 20
6.144676271
 11
147.7238415275
 21
6.4106337606
  0
LINE
  5
56E
100
AcDbEntity
  8
0
100
AcDbLine
 62
7
  6
CONTINUOUS
 10
148.1925915275
 20
7.1553145229
 11
148.1405082438
 21
6.8893571078
  0
LINE
  5
56F
100
AcDbEntity
  8
0
100
AcDbLine
 62
7
  6
CONTINUOUS
 10
147.6300915573
 20
-0.3510683538
 11
147.5988414977
 21
-0.5106428922
  0
LINE
  5
570
100
AcDbEntity
  8
0
100
AcDbLine
 62
7
  6
CONTINUOUS
 10
149.9634249602
 20
6.144676271
 11
150.0155080948
 21
6.4106337606
  0
LINE
  5
571
100
AcDbEntity
  8
0
100
AcDbLine
 62
7
  6
CONTINUOUS
 10
148.8175915871
 20
-1.1489407332
 11
148.8488414679
 21
-0.9893662841
  0
LINE
  5
572
100
AcDbEntity
  8
0
100
AcDbLine
 62
7
  6
CONTINUOUS
 10
152.9842583928
 20
7.1553145229
 11
152.9321746621
 21
6.8893571078
  0
LINE
  5
573
100
AcDbEntity
  8
0
100
AcDbLine
 62
7
  6
CONTINUOUS
 10
152.3800916467
 20
2.8510592668
 11
152.4113415275
 21
3.0106337159
  0
LINE
  5
574
100
AcDbEntity
  8
0
100
AcDbLine
 62
7
  6
CONTINUOUS
 10
147.7863415871
 20
-0.5106428922
 11
147.8175914679
 21
-0.382983333
  0
LINE
  5
575
100
AcDbEntity
  8
0
100
AcDbLine
 62
7
  6
CONTINUOUS
 10
148.6613414679
 20
-0.9893662841
 11
148.6300915871
 21
-1.1170258434
  0
LINE
  5
576
100
AcDbEntity
  8
0
100
AcDbLine
 62
7
  6
CONTINUOUS
 10
145.9530081973
 20
7.3148891209
 11
145.9009248624
 21
7.1553145229
  0
LINE
  5
577
100
AcDbEntity
  8
0
100
AcDbLine
 62
7
  6
CONTINUOUS
 10
142.5988422428
 20
100.6999954342
 11
143.6613417659
 21
98.7425486206
  0
LINE
  5
578
100
AcDbEntity
  8
0
100
AcDbLine
 62
7
  6
CONTINUOUS
 10
143.8488417659
 20
98.3170167564
 11
144.7238420043
 21
96.6999954342
  0
LINE
  5
579
100
AcDbEntity
  8
0
100
AcDbLine
 62
7
  6
CONTINUOUS
 10
143.8488417659
 20
99.0829741119
 11
142.9738422428
 21
100.6999954342
  0
LINE
  5
57A
100
AcDbEntity
  8
0
100
AcDbLine
 62
7
  6
CONTINUOUS
 10
145.0988420043
 20
96.6999954342
 11
144.0363417659
 21
98.7425486206
  0
LINE
  5
57B
100
AcDbEntity
  8
ASSI
100
AcDbLine
 62
7
  6
CONTINUOUS
 10
142.9624945275
 20
108.6000694342
 11
144.1504905275
 21
104.8998934342
  0
LINE
  5
57C
100
AcDbEntity
  8
ASSI
100
AcDbLine
 62
7
  6
CONTINUOUS
 10
144.5205275275
 20
106.0523044342
 11
143.7025315275
 21
108.6000694342
  0
LINE
  5
57D
100
AcDbEntity
  8
ASSI
100
AcDbLine
 62
7
  6
CONTINUOUS
 10
148.7919555275
 20
107.3399144342
 11
149.4916075275
 21
104.8999024342
  0
LINE
  5
57E
100
AcDbEntity
  8
ASSI
100
AcDbLine
 62
7
  6
CONTINUOUS
 10
149.8616165275
 20
106.1903884342
 11
149.1706505275
 21
108.6000694342
  0
LINE
  5
57F
100
AcDbEntity
  8
0
100
AcDbLine
 62
7
  6
CONTINUOUS
 10
151.3488424812
 20
97.6361656545
 11
151.4113415275
 21
97.3808464764
  0
LINE
  5
580
100
AcDbEntity
  8
0
100
AcDbLine
 62
7
  6
CONTINUOUS
 10
154.1613424812
 20
97.891484773
 11
154.2238415275
 21
97.6361656545
  0
LWPOLYLINE
  5
581
100
AcDbEntity
  8
0
100
AcDbPolyline
 62
7
  6
CONTINUOUS
 90
4
 70
0
 10
150.4049076789
 20
125.9071274457
 10
150.4168208733
 20
125.8460188248
 10
150.4339171457
 20
125.7898880798
 10
150.4561964961
 20
125.7387352107
  0
LINE
  5
582
100
AcDbEntity
  8
0
100
AcDbLine
 62
7
  6
CONTINUOUS
 10
150.1714453359
 20
125.8015218473
 11
150.1553906025
 21
125.8881424399
  0
LINE
  5
583
100
AcDbEntity
  8
0
100
AcDbLine
 62
7
  6
CONTINUOUS
 10
150.8488415275
 20
99.763825333
 11
150.7863424812
 21
100.1042508243
  0
LINE
  5
584
100
AcDbEntity
  8
0
100
AcDbLine
 62
7
  6
CONTINUOUS
 10
153.5988424812
 20
97.9765911459
 11
153.5363420043
 21
98.3170167564
  0
LINE
  5
585
100
AcDbEntity
  8
0
100
AcDbLine
 62
7
  6
CONTINUOUS
 10
153.5363420043
 20
99.763825333
 11
153.4738415275
 21
100.1042508243
  0
LINE
  5
586
100
AcDbEntity
  8
0
100
AcDbLine
 62
7
  6
CONTINUOUS
 10
154.0988420043
 20
98.3170167564
 11
154.1613424812
 21
97.891484773
  0
LINE
  5
587
100
AcDbEntity
  8
0
100
AcDbLine
 62
7
  6
CONTINUOUS
 10
156.3488420043
 20
99.0829741119
 11
156.2863415275
 21
99.5085059761
  0
LINE
  5
588
100
AcDbEntity
  8
0
100
AcDbLine
 62
7
  6
CONTINUOUS
 10
156.8488415275
 20
98.3170167564
 11
156.9113420043
 21
97.891484773
  0
LINE
  5
589
100
AcDbEntity
  8
0
100
AcDbLine
 62
7
  6
CONTINUOUS
 10
154.4738420043
 20
97.891484773
 11
154.4113415275
 21
98.4021231293
  0
LINE
  5
58A
100
AcDbEntity
  8
0
100
AcDbLine
 62
7
  6
CONTINUOUS
 10
155.9738420043
 20
99.5085059761
 11
156.0363424812
 21
98.9978677391
  0
LINE
  5
58B
100
AcDbEntity
  8
0
100
AcDbLine
 62
7
  6
CONTINUOUS
 10
157.2238415275
 20
97.891484773
 11
157.1613424812
 21
98.4021231293
  0
LINE
  5
58C
100
AcDbEntity
  8
0
100
AcDbLine
 62
7
  6
CONTINUOUS
 10
158.7238415275
 20
99.5085059761
 11
158.7863420043
 21
98.9978677391
  0
LWPOLYLINE
  5
58D
100
AcDbEntity
  8
RACCORDO
100
AcDbPolyline
 62
253
  6
CONTINUOUS
 90
10
 70
0
 10
170.9404722519
 20
-26.2419983868
 10
170.9358014513
 20
-26.2000489567
 10
170.9168676651
 20
-26.1550449108
 10
170.8838100556
 20
-26.1073170343
 10
170.8368715953
 20
-26.0572161342
 10
170.7763972805
 20
-26.0051104564
 10
170.7028315953
 20
-25.9513829791
 10
170.6167152446
 20
-25.8964286033
 10
170.5186811816
 20
-25.8406512504
 10
170.409449954
 20
-25.7844608893
  0
LINE
  5
58E
100
AcDbEntity
  8
RACCORDO
100
AcDbLine
 62
253
  6
CONTINUOUS
 10
166.1656520943
 20
129.0103658801
 11
166.1656520943
 21
-23.3226584475
  0
LINE
  5
58F
100
AcDbEntity
  8
RACCORDO
100
AcDbLine
 62
253
  6
CONTINUOUS
 10
167.5798656566
 20
129.0103663455
 11
167.5798656566
 21
-23.3226584524
  0
LWPOLYLINE
  5
590
100
AcDbEntity
  8
RACCORDO
100
AcDbPolyline
 62
253
  6
CONTINUOUS
 90
16
 70
0
 10
166.1656520943
 20
-23.3226584475
 10
166.1643775329
 20
-23.3892713621
 10
166.1569956754
 20
-23.4552127642
 10
166.1435065218
 20
-23.5204826538
 10
166.1240792897
 20
-23.5861173012
 10
166.0985447616
 20
-23.651080436
 10
166.0663952843
 20
-23.712263247
 10
166.0269245235
 20
-23.7693425063
 10
165.9808388136
 20
-23.8226414417
 10
165.9297495045
 20
-23.8700209258
 10
165.8731744909
 20
-23.9108323544
 10
165.811595878
 20
-23.9457243318
 10
165.7480713309
 20
-23.9745035428
 10
165.6836200712
 20
-23.9971055491
 10
165.6172228773
 20
-24.0135947891
 10
165.5488797492
 20
-24.0239712627
  0
LINE
  5
591
100
AcDbEntity
  8
0
100
AcDbLine
 62
7
  6
CONTINUOUS
 10
154.7550915275
 20
6.144676271
 11
154.8071746621
 21
6.4106337606
  0
LINE
  5
592
100
AcDbEntity
  8
0
100
AcDbLine
 62
7
  6
CONTINUOUS
 10
152.2238415275
 20
3.0106337159
 11
152.1925916467
 21
2.8829741566
  0
LINE
  5
593
100
AcDbEntity
  8
0
100
AcDbLine
 62
7
  6
CONTINUOUS
 10
147.6196748112
 20
5.9851018219
 11
147.6717582438
 21
6.144676271
  0
LINE
  5
594
100
AcDbEntity
  8
0
100
AcDbLine
 62
7
  6
CONTINUOUS
 10
148.2446748112
 20
7.3148891209
 11
148.1925915275
 21
7.1553145229
  0
LINE
  5
595
100
AcDbEntity
  8
0
100
AcDbLine
 62
7
  6
CONTINUOUS
 10
147.1300914977
 20
-0.4468131126
 11
147.0988415275
 21
-0.5425577821
  0
LINE
  5
596
100
AcDbEntity
  8
0
100
AcDbLine
 62
7
  6
CONTINUOUS
 10
147.2863415275
 20
-0.5744726719
 11
147.3175914977
 21
-0.4787280024
  0
LINE
  5
597
100
AcDbEntity
  8
0
100
AcDbLine
 62
7
  6
CONTINUOUS
 10
149.9113415275
 20
5.9851018219
 11
149.9634249602
 21
6.144676271
  0
LINE
  5
598
100
AcDbEntity
  8
0
100
AcDbLine
 62
7
  6
CONTINUOUS
 10
150.0050915871
 20
3.0106337159
 11
150.2863415871
 21
3.8723358749
  0
LINE
  5
599
100
AcDbEntity
  8
0
100
AcDbLine
 62
7
  6
CONTINUOUS
 10
149.8488414679
 20
2.4999954342
 11
149.9738415275
 21
2.8829741566
  0
LINE
  5
59A
100
AcDbEntity
  8
0
100
AcDbLine
 62
7
  6
CONTINUOUS
 10
153.0363415275
 20
7.3148891209
 11
152.9842583928
 21
7.1553145229
  0
LINE
  5
59B
100
AcDbEntity
  8
0
100
AcDbLine
 62
7
  6
CONTINUOUS
 10
150.1613415275
 20
3.9999954342
 11
149.6613414679
 21
2.4999954342
  0
LINE
  5
59C
100
AcDbEntity
  8
0
100
AcDbLine
 62
7
  6
CONTINUOUS
 10
149.1300915275
 20
3.9999954342
 11
148.6613415275
 21
2.6595699056
  0
LINE
  5
59D
100
AcDbEntity
  8
0
100
AcDbLine
 62
7
  6
CONTINUOUS
 10
148.7863414977
 20
2.4999954342
 11
149.2238415275
 21
3.680846536
  0
LINE
  5
59E
100
AcDbEntity
  8
0
100
AcDbLine
 62
7
  6
CONTINUOUS
 10
146.057174867
 20
7.527655053
 11
145.9530081973
 21
7.3148891209
  0
LINE
  5
59F
100
AcDbEntity
  8
0
100
AcDbLine
 62
7
  6
CONTINUOUS
 10
151.4113415275
 20
97.3808464764
 11
151.5363424812
 21
97.1255273579
  0
LINE
  5
5A0
100
AcDbEntity
  8
0
100
AcDbLine
 62
7
  6
CONTINUOUS
 10
150.3488420043
 20
100.0191444515
 11
150.4738415275
 21
99.763825333
  0
LINE
  5
5A1
100
AcDbEntity
  8
0
100
AcDbLine
 62
7
  6
CONTINUOUS
 10
153.5363420043
 20
98.3170167564
 11
153.4113424812
 21
98.5723358749
  0
LINE
  5
5A2
100
AcDbEntity
  8
0
100
AcDbLine
 62
7
  6
CONTINUOUS
 10
153.0988415275
 20
100.0191444515
 11
153.2238424812
 21
99.763825333
  0
LINE
  5
5A3
100
AcDbEntity
  8
0
100
AcDbLine
 62
7
  6
CONTINUOUS
 10
151.7238424812
 20
97.4659529089
 11
151.6613420043
 21
97.6361656545
  0
LINE
  5
5A4
100
AcDbEntity
  8
0
100
AcDbLine
 62
7
  6
CONTINUOUS
 10
153.1613420043
 20
98.3170167564
 11
153.2863415275
 21
97.9765911459
  0
LINE
  5
5A5
100
AcDbEntity
  8
0
100
AcDbLine
 62
7
  6
CONTINUOUS
 10
154.2238415275
 20
97.6361656545
 11
154.3488424812
 21
97.2957401036
  0
LINE
  5
5A6
100
AcDbEntity
  8
0
100
AcDbLine
 62
7
  6
CONTINUOUS
 10
156.9738424812
 20
97.6361656545
 11
157.0988420043
 21
97.2957401036
  0
LINE
  5
5A7
100
AcDbEntity
  8
0
100
AcDbLine
 62
7
  6
CONTINUOUS
 10
156.2238424812
 20
99.763825333
 11
156.0988415275
 21
100.1042508243
  0
LINE
  5
5A8
100
AcDbEntity
  8
ASSI
100
AcDbLine
 62
7
  6
CONTINUOUS
 10
154.3070555275
 20
105.6275724342
 11
154.5406735275
 21
104.8999124342
  0
LINE
  5
5A9
100
AcDbEntity
  8
ASSI
100
AcDbLine
 62
7
  6
CONTINUOUS
 10
153.7226685275
 20
107.4476674342
 11
154.0813185275
 21
106.3306004342
  0
LINE
  5
5AA
100
AcDbEntity
  8
ASSI
100
AcDbLine
 62
7
  6
CONTINUOUS
 10
155.2807105275
 20
104.8999024342
 11
154.0927055275
 21
108.6000784342
  0
LWPOLYLINE
  5
5AB
100
AcDbEntity
  8
0
100
AcDbPolyline
 62
7
  6
CONTINUOUS
 90
16
 70
0
 10
151.1781671321
 20
126.1260433074
 10
151.1628295578
 20
126.1863628958
 10
151.1414382651
 20
126.2409011594
 10
151.1135101559
 20
126.2906219694
 10
151.0782721692
 20
126.3343840983
 10
151.0347007975
 20
126.3724196855
 10
150.9838195483
 20
126.4044965916
 10
150.9279258824
 20
126.42877717
 10
150.8655588943
 20
126.4451874392
 10
150.7981794896
 20
126.4538013807
 10
150.7324678457
 20
126.4530032922
 10
150.6692687806
 20
126.4415953594
 10
150.6077374762
 20
126.4207753967
 10
150.5520196563
 20
126.3925211444
 10
150.5034972285
 20
126.3574918494
 10
150.460788285
 20
126.315028265
  0
LINE
  5
5AC
100
AcDbEntity
  8
0
100
AcDbLine
 62
7
  6
CONTINUOUS
 10
156.2863415275
 20
99.5085059761
 11
156.2238424812
 21
99.763825333
  0
LINE
  5
5AD
100
AcDbEntity
  8
0
100
AcDbLine
 62
7
  6
CONTINUOUS
 10
156.9113420043
 20
97.891484773
 11
156.9738424812
 21
97.6361656545
  0
LINE
  5
5AE
100
AcDbEntity
  8
0
100
AcDbLine
 62
7
  6
CONTINUOUS
 10
159.0363424812
 20
99.5085059761
 11
158.9738420043
 21
99.763825333
  0
LINE
  5
5AF
100
AcDbEntity
  8
0
100
AcDbLine
 62
7
  6
CONTINUOUS
 10
164.0988410507
 20
99.9340380787
 11
164.5988420043
 21
96.6999954342
  0
LINE
  5
5B0
100
AcDbEntity
  8
0
100
AcDbLine
 62
7
  6
CONTINUOUS
 10
159.0988415275
 20
99.0829741119
 11
159.0363424812
 21
99.5085059761
  0
LINE
  5
5B1
100
AcDbEntity
  8
0
100
AcDbLine
 62
7
  6
CONTINUOUS
 10
162.5988410507
 20
100.6999954342
 11
163.0988420043
 21
96.6999954342
  0
LINE
  5
5B2
100
AcDbEntity
  8
0
100
AcDbLine
 62
7
  6
CONTINUOUS
 10
163.3488410507
 20
97.6361656545
 11
162.9738410507
 21
100.6999954342
  0
LINE
  5
5B3
100
AcDbEntity
  8
RACCORDO
100
AcDbLine
 62
253
  6
CONTINUOUS
 10
170.437005682
 20
131.0828094113
 11
170.437005682
 21
-25.556336745
  0
LINE
  5
5B4
100
AcDbEntity
  8
RACCORDO
100
AcDbLine
 62
253
  6
CONTINUOUS
 10
171.0215737737
 20
131.0828094097
 11
171.0215737737
 21
-25.5563367444
  0
LINE
  5
5B5
100
AcDbEntity
  8
RACCORDO
100
AcDbLine
 62
7
  6
CONTINUOUS
 10
171.0988415275
 20
131.1443549058
 11
171.0988415275
 21
-25.6229585984
  0
LWPOLYLINE
  5
5B6
100
AcDbEntity
  8
RACCORDO
100
AcDbPolyline
 62
253
  6
CONTINUOUS
 90
7
 70
0
 10
170.437005682
 20
-25.556336745
 10
170.4362954941
 20
-25.5943451257
 10
170.4340345822
 20
-25.6323584299
 10
170.4302229464
 20
-25.6703766577
 10
170.4248605866
 20
-25.708399809
 10
170.4179475029
 20
-25.7464278838
 10
170.4094836951
 20
-25.7844608823
  0
LWPOLYLINE
  5
5B7
100
AcDbEntity
  8
RACCORDO
100
AcDbPolyline
 62
253
  6
CONTINUOUS
 90
7
 70
0
 10
171.0215737737
 20
-25.556336745
 10
171.0192607929
 20
-25.6713452258
 10
171.0124727073
 20
-25.7862900186
 10
171.0012017822
 20
-25.9010004857
 10
170.9854468873
 20
-26.0153051305
 10
170.96521356
 20
-26.1290318521
 10
170.9405140585
 20
-26.2420082049
  0
LWPOLYLINE
  5
5B8
100
AcDbEntity
  8
RACCORDO
100
AcDbPolyline
 62
7
  6
CONTINUOUS
 90
16
 70
0
 10
171.0988415275
 20
-25.6229585984
 10
171.0850389365
 20
-25.9089876189
 10
171.0452087361
 20
-26.1884059461
 10
170.9793509265
 20
-26.46121358
 10
170.8862112358
 20
-26.7302492072
 10
170.7670439359
 20
-26.992674141
 10
170.6256118418
 20
-27.2399723215
 10
170.4617718457
 20
-27.4708872373
 10
170.2756670555
 20
-27.6866753998
 10
170.0714896098
 20
-27.8825902823
 10
169.8481382321
 20
-28.0586381422
 10
169.6067141989
 20
-28.2148127221
 10
169.3547134781
 20
-28.3463487236
 10
169.0946347258
 20
-28.4516577137
 10
168.823979286
 20
-28.5323281252
 10
168.5427471586
 20
-28.5883599583
  0
LINE
  5
5B9
100
AcDbEntity
  8
0
100
AcDbLine
 62
7
  6
CONTINUOUS
 10
151.1925916467
 20
-0.9893662841
 11
151.4738416467
 21
-0.1276641251
  0
LINE
  5
5BA
100
AcDbEntity
  8
0
100
AcDbLine
 62
7
  6
CONTINUOUS
 10
151.0363415275
 20
-1.5000045658
 11
151.1613414083
 21
-1.1170258434
  0
LINE
  5
5BB
100
AcDbEntity
  8
0
100
AcDbLine
 62
7
  6
CONTINUOUS
 10
154.7030083928
 20
5.9851018219
 11
154.7550915275
 21
6.144676271
  0
LINE
  5
5BC
100
AcDbEntity
  8
0
100
AcDbLine
 62
7
  6
CONTINUOUS
 10
154.6300917659
 20
-0.9893662841
 11
154.9113417659
 21
-0.1276641251
  0
LINE
  5
5BD
100
AcDbEntity
  8
0
100
AcDbLine
 62
7
  6
CONTINUOUS
 10
154.4738412891
 20
-1.5000045658
 11
154.5988415275
 21
-1.1170258434
  0
LINE
  5
5BE
100
AcDbEntity
  8
0
100
AcDbLine
 62
7
  6
CONTINUOUS
 10
151.3488414083
 20
-0.0000045658
 11
150.8488415275
 21
-1.5000045658
  0
LINE
  5
5BF
100
AcDbEntity
  8
0
100
AcDbLine
 62
7
  6
CONTINUOUS
 10
154.7863415275
 20
-0.0000045658
 11
154.2863412891
 21
-1.5000045658
  0
LINE
  5
5C0
100
AcDbEntity
  8
0
100
AcDbLine
 62
7
  6
CONTINUOUS
 10
150.3175914083
 20
-0.0000045658
 11
149.8488414083
 21
-1.3404300944
  0
LINE
  5
5C1
100
AcDbEntity
  8
0
100
AcDbLine
 62
7
  6
CONTINUOUS
 10
149.9738416467
 20
-1.5000045658
 11
150.4113414083
 21
-0.319153464
  0
LINE
  5
5C2
100
AcDbEntity
  8
0
100
AcDbLine
 62
7
  6
CONTINUOUS
 10
148.3488415275
 20
7.527655053
 11
148.2446748112
 21
7.3148891209
  0
LINE
  5
5C3
100
AcDbEntity
  8
0
100
AcDbLine
 62
7
  6
CONTINUOUS
 10
147.5155082438
 20
5.7723358526
 11
147.6196748112
 21
5.9851018219
  0
LINE
  5
5C4
100
AcDbEntity
  8
0
100
AcDbLine
 62
7
  6
CONTINUOUS
 10
149.8071749602
 20
5.7723358526
 11
149.9113415275
 21
5.9851018219
  0
LINE
  5
5C5
100
AcDbEntity
  8
0
100
AcDbLine
 62
7
  6
CONTINUOUS
 10
147.6925915871
 20
-0.2234087945
 11
147.6300915573
 21
-0.3510683538
  0
LINE
  5
5C6
100
AcDbEntity
  8
0
100
AcDbLine
 62
7
  6
CONTINUOUS
 10
148.7550914679
 20
-1.2766003148
 11
148.8175915871
 21
-1.1489407332
  0
LINE
  5
5C7
100
AcDbEntity
  8
0
100
AcDbLine
 62
7
  6
CONTINUOUS
 10
153.1405083928
 20
7.527655053
 11
153.0363415275
 21
7.3148891209
  0
LINE
  5
5C8
100
AcDbEntity
  8
0
100
AcDbLine
 62
7
  6
CONTINUOUS
 10
146.1613415275
 20
7.1553145229
 11
146.3696748484
 21
7.47446357
  0
LINE
  5
5C9
100
AcDbEntity
  8
0
100
AcDbLine
 62
7
  6
CONTINUOUS
 10
155.3491275083
 20
81.7067906185
 11
162.3461139211
 21
81.7067906185
  0
LINE
  5
5CA
100
AcDbEntity
  8
0
100
AcDbLine
 62
7
  6
CONTINUOUS
 10
162.3461139211
 20
83.0067906185
 11
155.3491275083
 21
83.0067906185
  0
LINE
  5
5CB
100
AcDbEntity
  8
0
100
AcDbLine
 62
7
  6
CONTINUOUS
 10
157.5744593013
 20
84.3848362707
 11
158.0409250622
 21
84.3848362707
  0
LINE
  5
5CC
100
AcDbEntity
  8
0
100
AcDbLine
 62
7
  6
CONTINUOUS
 10
157.9243086219
 20
84.5014527109
 11
157.6910757415
 21
84.5014527109
  0
LINE
  5
5CD
100
AcDbEntity
  8
0
100
AcDbLine
 62
7
  6
CONTINUOUS
 10
157.6910757415
 20
84.9679184718
 11
157.9243086219
 21
84.9679184718
  0
LINE
  5
5CE
100
AcDbEntity
  8
0
100
AcDbLine
 62
7
  6
CONTINUOUS
 10
158.0409250622
 20
85.0067906185
 11
159.3346340898
 21
85.0067906185
  0
LINE
  5
5CF
100
AcDbEntity
  8
0
100
AcDbLine
 62
7
  6
CONTINUOUS
 10
159.3346340898
 20
85.084534912
 11
157.645698821
 21
85.084534912
  0
LINE
  5
5D0
100
AcDbEntity
  8
0
100
AcDbLine
 62
7
  6
CONTINUOUS
 10
155.239180474
 20
84.1727495711
 11
155.3491275083
 21
84.0628025368
  0
LINE
  5
5D1
100
AcDbEntity
  8
0
100
AcDbLine
 62
7
  6
CONTINUOUS
 10
155.239180474
 20
91.1697359839
 11
157.2074748963
 21
89.2014415615
  0
LINE
  5
5D2
100
AcDbEntity
  8
0
100
AcDbLine
 62
7
  6
CONTINUOUS
 10
157.2929985068
 20
89.1159179511
 11
158.7376736804
 21
87.6712427775
  0
LINE
  5
5D3
100
AcDbEntity
  8
0
100
AcDbLine
 62
7
  6
CONTINUOUS
 10
158.8476207147
 20
87.5612957433
 11
160.1223501126
 21
86.2865663454
  0
LINE
  5
5D4
100
AcDbEntity
  8
0
100
AcDbLine
 62
7
  6
CONTINUOUS
 10
160.1941129426
 20
86.2148035153
 11
162.3461139211
 21
84.0628025368
  0
LINE
  5
5D5
100
AcDbEntity
  8
0
100
AcDbLine
 62
7
  6
CONTINUOUS
 10
162.4560609553
 20
84.1727495711
 11
160.2118034609
 21
86.4170070654
  0
LINE
  5
5D6
100
AcDbEntity
  8
0
100
AcDbLine
 62
7
  6
CONTINUOUS
 10
160.1400406309
 20
86.4887698954
 11
158.9575677489
 21
87.6712427775
  0
LINE
  5
5D7
100
AcDbEntity
  8
0
100
AcDbLine
 62
7
  6
CONTINUOUS
 10
158.8476207147
 20
87.7811898117
 11
157.271915768
 21
89.3568947584
  0
LINE
  5
5D8
100
AcDbEntity
  8
0
100
AcDbLine
 62
7
  6
CONTINUOUS
 10
157.1863921575
 20
89.4424183689
 11
155.3491275083
 21
91.2796830182
  0
LINE
  5
5D9
100
AcDbEntity
  8
0
100
AcDbLine
 62
7
  6
CONTINUOUS
 10
151.8488420043
 20
97.2957401036
 11
151.7238424812
 21
97.4659529089
  0
LINE
  5
5DA
100
AcDbEntity
  8
0
100
AcDbLine
 62
7
  6
CONTINUOUS
 10
150.7863424812
 20
100.1042508243
 11
150.5363420043
 21
100.4446763157
  0
LINE
  5
5DB
100
AcDbEntity
  8
0
100
AcDbLine
 62
7
  6
CONTINUOUS
 10
154.3488424812
 20
97.2957401036
 11
154.5363424812
 21
97.0404209553
  0
LINE
  5
5DC
100
AcDbEntity
  8
0
100
AcDbLine
 62
7
  6
CONTINUOUS
 10
153.4738415275
 20
100.1042508243
 11
153.2238424812
 21
100.4446763157
  0
LWPOLYLINE
  5
5DD
100
AcDbEntity
  8
RACCORDO
100
AcDbPolyline
 62
253
  6
CONTINUOUS
 90
13
 70
0
 10
140.8864293506
 20
134.8101894057
 10
140.8533563101
 20
134.8770753263
 10
140.8265299934
 20
134.9434640917
 10
140.8060551871
 20
135.0086672144
 10
140.7920047982
 20
135.0720320984
 10
140.7845362585
 20
135.1326574687
 10
140.7838794965
 20
135.1894846322
 10
140.7902600159
 20
135.2414880145
 10
140.8036709408
 20
135.2881429786
 10
140.8240164685
 20
135.3289287234
 10
140.8513767877
 20
135.3627846554
 10
140.885970137
 20
135.3884012568
 10
140.9279371634
 20
135.4045904227
  0
LINE
  5
5DE
100
AcDbEntity
  8
0
100
AcDbLine
 62
7
  6
CONTINUOUS
 10
154.7238424812
 20
97.3808464764
 11
154.4738420043
 21
97.891484773
  0
LINE
  5
5DF
100
AcDbEntity
  8
0
100
AcDbLine
 62
7
  6
CONTINUOUS
 10
155.7238415275
 20
100.0191444515
 11
155.9738420043
 21
99.5085059761
  0
LINE
  5
5E0
100
AcDbEntity
  8
0
100
AcDbLine
 62
7
  6
CONTINUOUS
 10
157.4738420043
 20
97.3808464764
 11
157.2238415275
 21
97.891484773
  0
LINE
  5
5E1
100
AcDbEntity
  8
0
100
AcDbLine
 62
7
  6
CONTINUOUS
 10
158.4738424812
 20
100.0191444515
 11
158.7238415275
 21
99.5085059761
  0
LINE
  5
5E2
100
AcDbEntity
  8
C_CALOTTA
100
AcDbLine
 62
253
  6
CONTINUOUS
 10
146.8262110544
 20
135.8613970147
 11
146.8011741353
 21
135.9245042866
  0
LINE
  5
5E3
100
AcDbEntity
  8
0
100
AcDbLine
 62
7
  6
CONTINUOUS
 10
158.9738420043
 20
99.763825333
 11
158.8488424812
 21
100.1042508243
  0
LINE
  5
5E4
100
AcDbEntity
  8
0
100
AcDbLine
 62
7
  6
CONTINUOUS
 10
164.8488410507
 20
97.6361656545
 11
164.348842958
 21
100.6999954342
  0
LINE
  5
5E5
100
AcDbEntity
  8
0
100
AcDbLine
 62
7
  6
CONTINUOUS
 10
152.3175915275
 20
2.7233996852
 11
152.3800916467
 21
2.8510592668
  0
LINE
  5
5E6
100
AcDbEntity
  8
0
100
AcDbLine
 62
7
  6
CONTINUOUS
 10
154.5988415275
 20
5.7723358526
 11
154.7030083928
 21
5.9851018219
  0
LINE
  5
5E7
100
AcDbEntity
  8
0
100
AcDbLine
 62
7
  6
CONTINUOUS
 10
147.4113415275
 20
6.144676271
 11
147.2030082438
 21
5.8255273356
  0
LINE
  5
5E8
100
AcDbEntity
  8
0
100
AcDbLine
 62
7
  6
CONTINUOUS
 10
148.4530080948
 20
7.1553145229
 11
148.6613415275
 21
7.47446357
  0
LINE
  5
5E9
100
AcDbEntity
  8
0
100
AcDbLine
 62
7
  6
CONTINUOUS
 10
149.7030080948
 20
6.144676271
 11
149.4946749602
 21
5.8255273356
  0
LINE
  5
5EA
100
AcDbEntity
  8
0
100
AcDbLine
 62
7
  6
CONTINUOUS
 10
147.8175914679
 20
-0.382983333
 11
147.8800915871
 21
-0.2872385741
  0
LINE
  5
5EB
100
AcDbEntity
  8
0
100
AcDbLine
 62
7
  6
CONTINUOUS
 10
153.2446746621
 20
7.1553145229
 11
153.4530083928
 21
7.47446357
  0
LINE
  5
5EC
100
AcDbEntity
  8
0
100
AcDbLine
 62
7
  6
CONTINUOUS
 10
148.6300915871
 20
-1.1170258434
 11
148.5675914679
 21
-1.2127705128
  0
LINE
  5
5ED
100
AcDbEntity
  8
0
100
AcDbLine
 62
7
  6
CONTINUOUS
 10
159.4968707317
 20
90.9663137298
 11
158.5755156875
 21
90.9542290695
  0
LINE
  5
5EE
100
AcDbEntity
  8
0
100
AcDbLine
 62
7
  6
CONTINUOUS
 10
145.9213035275
 20
87.8120604342
 11
147.3529745275
 21
87.8120604342
  0
LINE
  5
5EF
100
AcDbEntity
  8
0
100
AcDbLine
 62
7
  6
CONTINUOUS
 10
147.3529745275
 20
88.5472554342
 11
145.921299802
 21
88.5472554342
  0
LINE
  5
5F0
100
AcDbEntity
  8
0
100
AcDbLine
 62
7
  6
CONTINUOUS
 10
158.3422828071
 20
88.6996445587
 11
159.7028079429
 21
88.6996445587
  0
LINE
  5
5F1
100
AcDbEntity
  8
0
100
AcDbLine
 62
7
  6
CONTINUOUS
 10
159.6250636494
 20
88.7773888521
 11
158.4200271006
 21
88.7773888521
  0
LINE
  5
5F2
100
AcDbEntity
  8
0
100
AcDbLine
 62
7
  6
CONTINUOUS
 10
158.4200271006
 20
89.0106217326
 11
159.6250636494
 21
89.0106217326
  0
LINE
  5
5F3
100
AcDbEntity
  8
0
100
AcDbLine
 62
7
  6
CONTINUOUS
 10
159.7028079429
 20
89.088366026
 11
158.3422828071
 21
89.088366026
  0
LINE
  5
5F4
100
AcDbEntity
  8
0
100
AcDbLine
 62
7
  6
CONTINUOUS
 10
160.4455170862
 20
89.088366026
 11
161.1410773722
 21
89.088366026
  0
LINE
  5
5F5
100
AcDbEntity
  8
0
100
AcDbLine
 62
7
  6
CONTINUOUS
 10
161.0633330787
 20
89.1661103195
 11
160.4524352909
 21
89.1661103195
  0
LINE
  5
5F6
100
AcDbEntity
  8
0
100
AcDbLine
 62
7
  6
CONTINUOUS
 10
160.285890144
 20
89.8658089608
 11
160.4354932654
 21
89.8658089608
  0
LINE
  5
5F7
100
AcDbEntity
  8
0
100
AcDbLine
 62
7
  6
CONTINUOUS
 10
160.5135345295
 20
89.8658089608
 11
160.9322398637
 21
89.8658089608
  0
LINE
  5
5F8
100
AcDbEntity
  8
0
100
AcDbLine
 62
7
  6
CONTINUOUS
 10
161.0099841572
 20
89.9435532543
 11
160.5203362739
 21
89.9435532543
  0
LINE
  5
5F9
100
AcDbEntity
  8
0
100
AcDbLine
 62
7
  6
CONTINUOUS
 10
160.4422950098
 20
89.9435532543
 11
160.2081458505
 21
89.9435532543
  0
LINE
  5
5FA
100
AcDbEntity
  8
0
100
AcDbLine
 62
7
  6
CONTINUOUS
 10
156.4764197637
 20
90.2545304282
 11
157.1153415588
 21
90.2545304282
  0
LINE
  5
5FB
100
AcDbEntity
  8
0
100
AcDbLine
 62
7
  6
CONTINUOUS
 10
157.1933828229
 20
90.2545304282
 11
160.4695019871
 21
90.2545304282
  0
LINE
  5
5FC
100
AcDbEntity
  8
0
100
AcDbLine
 62
7
  6
CONTINUOUS
 10
160.5475432512
 20
90.2545304282
 11
160.7912280516
 21
90.2545304282
  0
LINE
  5
5FD
100
AcDbEntity
  8
0
100
AcDbLine
 62
7
  6
CONTINUOUS
 10
160.2557656147
 20
90.5655076019
 11
157.6814563125
 21
90.565507602
  0
LINE
  5
5FE
100
AcDbEntity
  8
0
100
AcDbLine
 62
7
  6
CONTINUOUS
 10
157.2927348452
 20
90.5655076021
 11
157.1661758455
 21
90.5655076021
  0
LINE
  5
5FF
100
AcDbEntity
  8
0
100
AcDbLine
 62
7
  6
CONTINUOUS
 10
157.0881345815
 20
90.5655076021
 11
156.4764197637
 21
90.5655076021
  0
LINE
  5
600
100
AcDbEntity
  8
0
100
AcDbLine
 62
7
  6
CONTINUOUS
 10
157.6037120191
 20
90.6432518956
 11
157.3704791386
 21
90.6432518956
  0
LINE
  5
601
100
AcDbEntity
  8
0
100
AcDbLine
 62
7
  6
CONTINUOUS
 10
158.497771394
 20
90.876484776
 11
159.547319356
 21
90.876484776
  0
LINE
  5
602
100
AcDbEntity
  8
0
100
AcDbLine
 62
7
  6
CONTINUOUS
 10
157.3704791386
 20
91.1485898031
 11
157.6037120191
 21
91.1485898031
  0
LINE
  5
603
100
AcDbEntity
  8
0
100
AcDbLine
 62
7
  6
CONTINUOUS
 10
157.6814563125
 20
91.2263340966
 11
157.2927348452
 21
91.2263340966
  0
LINE
  5
604
100
AcDbEntity
  8
0
100
AcDbLine
 62
7
  6
CONTINUOUS
 10
158.5755156875
 20
91.2652062434
 11
159.4695750625
 21
91.2652062434
  0
LINE
  5
605
100
AcDbEntity
  8
0
100
AcDbLine
 62
7
  6
CONTINUOUS
 10
159.547319356
 20
91.3429505368
 11
158.497771394
 21
91.3429505368
  0
LINE
  5
606
100
AcDbEntity
  8
0
100
AcDbLine
 62
7
  6
CONTINUOUS
 10
151.7238424812
 20
96.9553145825
 11
151.9738415275
 21
96.7851018145
  0
LINE
  5
607
100
AcDbEntity
  8
0
100
AcDbLine
 62
7
  6
CONTINUOUS
 10
151.9738415275
 20
97.2106337308
 11
151.8488420043
 21
97.2957401036
  0
LINE
  5
608
100
AcDbEntity
  8
0
100
AcDbLine
 62
7
  6
CONTINUOUS
 10
154.5363424812
 20
97.0404209553
 11
154.8488420043
 21
96.7851018145
  0
LINE
  5
609
100
AcDbEntity
  8
0
100
AcDbLine
 62
7
  6
CONTINUOUS
 10
157.2863420043
 20
97.0404209553
 11
157.5988415275
 21
96.7851018145
  0
LINE
  5
60A
100
AcDbEntity
  8
0
100
AcDbLine
 62
7
  6
CONTINUOUS
 10
151.5363424812
 20
97.1255273579
 11
151.7238424812
 21
96.9553145825
  0
LINE
  5
60B
100
AcDbEntity
  8
0
100
AcDbLine
 62
7
  6
CONTINUOUS
 10
150.1613420043
 20
100.1893571972
 11
150.3488420043
 21
100.0191444515
  0
LINE
  5
60C
100
AcDbEntity
  8
0
100
AcDbLine
 62
7
  6
CONTINUOUS
 10
152.9738420043
 20
98.4872295021
 11
153.1613420043
 21
98.3170167564
  0
LINE
  5
60D
100
AcDbEntity
  8
0
100
AcDbLine
 62
7
  6
CONTINUOUS
 10
154.9113424812
 20
97.2106337308
 11
154.7238424812
 21
97.3808464764
  0
LINE
  5
60E
100
AcDbEntity
  8
0
100
AcDbLine
 62
7
  6
CONTINUOUS
 10
152.9113415275
 20
100.1893571972
 11
153.0988415275
 21
100.0191444515
  0
LINE
  5
60F
100
AcDbEntity
  8
0
100
AcDbLine
 62
7
  6
CONTINUOUS
 10
157.6613420043
 20
97.2106337308
 11
157.4738420043
 21
97.3808464764
  0
LINE
  5
610
100
AcDbEntity
  8
0
100
AcDbLine
 62
7
  6
CONTINUOUS
 10
162.4560609553
 20
91.1697359839
 11
162.3461139211
 21
91.2796830182
  0
LINE
  5
611
100
AcDbEntity
  8
0
100
AcDbLine
 62
7
  6
CONTINUOUS
 10
157.0988420043
 20
97.2957401036
 11
157.2863420043
 21
97.0404209553
  0
LINE
  5
612
100
AcDbEntity
  8
0
100
AcDbLine
 62
7
  6
CONTINUOUS
 10
156.0988415275
 20
100.1042508243
 11
155.9113415275
 21
100.3595699428
  0
LINE
  5
613
100
AcDbEntity
  8
0
100
AcDbLine
 62
7
  6
CONTINUOUS
 10
158.8488424812
 20
100.1042508243
 11
158.6613424812
 21
100.3595699428
  0
LINE
  5
614
100
AcDbEntity
  8
ASSI
100
AcDbLine
 62
7
  6
CONTINUOUS
 10
157.1600615275
 20
106.3306004342
 11
157.9016615275
 21
104.8999124342
  0
LINE
  5
615
100
AcDbEntity
  8
ASSI
100
AcDbLine
 62
7
  6
CONTINUOUS
 10
158.7351885275
 20
104.8999214342
 11
157.9474661389
 21
106.419597113
  0
LWPOLYLINE
  5
616
100
AcDbEntity
  8
RACCORDO
100
AcDbPolyline
 62
253
  6
CONTINUOUS
 90
10
 70
0
 10
157.2532863999
 20
132.6497376951
 10
157.2675667842
 20
132.6056903637
 10
157.2834983847
 20
132.5620237115
 10
157.300943514
 20
132.5191151229
 10
157.3197514042
 20
132.4773354308
 10
157.3397595102
 20
132.4370457115
 10
157.3607949143
 20
132.3985941641
 10
157.3826758204
 20
132.3623131019
 10
157.4052131249
 20
132.3285160801
 10
157.4282120515
 20
132.297495186
  0
LINE
  5
617
100
AcDbEntity
  8
0
100
AcDbLine
 62
7
  6
CONTINUOUS
 10
149.8841657038
 20
-7.6187452517
 11
150.0759624639
 21
-7.2770266791
  0
LINE
  5
618
100
AcDbEntity
  8
0
100
AcDbLine
 62
7
  6
CONTINUOUS
 10
152.1925916467
 20
2.8829741566
 11
152.1300915275
 21
2.7872294872
  0
LINE
  5
619
100
AcDbEntity
  8
0
100
AcDbLine
 62
7
  6
CONTINUOUS
 10
154.4946746621
 20
6.144676271
 11
154.2863415275
 21
5.8255273356
  0
LINE
  5
61A
100
AcDbEntity
  8
0
100
AcDbLine
 62
7
  6
CONTINUOUS
 10
147.1925915275
 20
-0.7021322311
 11
147.2863415275
 21
-0.5744726719
  0
LINE
  5
61B
100
AcDbEntity
  8
0
100
AcDbLine
 62
7
  6
CONTINUOUS
 10
155.5363415275
 20
7.8999954342
 11
155.2238415275
 21
7.527655053
  0
LINE
  5
61C
100
AcDbEntity
  8
0
100
AcDbLine
 62
7
  6
CONTINUOUS
 10
155.2238415275
 20
7.1021230398
 11
155.5363415275
 21
7.47446357
  0
LINE
  5
61D
100
AcDbEntity
  8
0
100
AcDbLine
 62
7
  6
CONTINUOUS
 10
151.6821746621
 20
7.8999954342
 11
150.4321749602
 21
6.4638252436
  0
LINE
  5
61E
100
AcDbEntity
  8
0
100
AcDbLine
 62
7
  6
CONTINUOUS
 10
150.7967580948
 20
6.4638252436
 11
151.6821746621
 21
7.47446357
  0
LINE
  5
61F
100
AcDbEntity
  8
0
100
AcDbLine
 62
7
  6
CONTINUOUS
 10
146.2134248484
 20
7.6872295021
 11
146.057174867
 21
7.527655053
  0
LINE
  5
620
100
AcDbEntity
  8
0
100
AcDbLine
 62
7
  6
CONTINUOUS
 10
148.5050915275
 20
7.6872295021
 11
148.3488415275
 21
7.527655053
  0
LINE
  5
621
100
AcDbEntity
  8
0
100
AcDbLine
 62
7
  6
CONTINUOUS
 10
147.3592582438
 20
5.6127613849
 11
147.5155082438
 21
5.7723358526
  0
LINE
  5
622
100
AcDbEntity
  8
0
100
AcDbLine
 62
7
  6
CONTINUOUS
 10
149.6509249602
 20
5.6127613849
 11
149.8071749602
 21
5.7723358526
  0
LINE
  5
623
100
AcDbEntity
  8
0
100
AcDbLine
 62
7
  6
CONTINUOUS
 10
158.2863424812
 20
97.2106337308
 11
157.9738415275
 21
97.1255273579
  0
LINE
  5
624
100
AcDbEntity
  8
0
100
AcDbLine
 62
7
  6
CONTINUOUS
 10
155.5363415275
 20
97.2106337308
 11
155.2238420043
 21
97.1255273579
  0
LINE
  5
625
100
AcDbEntity
  8
0
100
AcDbLine
 62
7
  6
CONTINUOUS
 10
152.9738420043
 20
97.2106337308
 11
152.6613424812
 21
97.1255273579
  0
LINE
  5
626
100
AcDbEntity
  8
0
100
AcDbLine
 62
7
  6
CONTINUOUS
 10
157.6613420043
 20
100.1893571972
 11
157.9738415275
 21
100.27446357
  0
LINE
  5
627
100
AcDbEntity
  8
0
100
AcDbLine
 62
7
  6
CONTINUOUS
 10
154.9113424812
 20
100.1893571972
 11
155.2238420043
 21
100.27446357
  0
LINE
  5
628
100
AcDbEntity
  8
0
100
AcDbLine
 62
7
  6
CONTINUOUS
 10
152.0363420043
 20
100.1893571972
 11
152.3488415275
 21
100.27446357
  0
LINE
  5
629
100
AcDbEntity
  8
0
100
AcDbLine
 62
7
  6
CONTINUOUS
 10
149.2863424812
 20
100.1893571972
 11
149.5988420043
 21
100.27446357
  0
LINE
  5
62A
100
AcDbEntity
  8
0
100
AcDbLine
 62
7
  6
CONTINUOUS
 10
157.9738415275
 20
96.6999954342
 11
158.3488415275
 21
96.7851018145
  0
LINE
  5
62B
100
AcDbEntity
  8
0
100
AcDbLine
 62
7
  6
CONTINUOUS
 10
155.2238420043
 20
96.6999954342
 11
155.5988420043
 21
96.7851018145
  0
LINE
  5
62C
100
AcDbEntity
  8
0
100
AcDbLine
 62
7
  6
CONTINUOUS
 10
157.9738415275
 20
100.6999954342
 11
157.5988415275
 21
100.6148890613
  0
LINE
  5
62D
100
AcDbEntity
  8
0
100
AcDbLine
 62
7
  6
CONTINUOUS
 10
155.2238420043
 20
100.6999954342
 11
154.8488420043
 21
100.6148890613
  0
LINE
  5
62E
100
AcDbEntity
  8
0
100
AcDbLine
 62
7
  6
CONTINUOUS
 10
152.4113420043
 20
100.6999954342
 11
151.9738415275
 21
100.6148890613
  0
LINE
  5
62F
100
AcDbEntity
  8
0
100
AcDbLine
 62
7
  6
CONTINUOUS
 10
149.6613424812
 20
100.6999954342
 11
149.2238420043
 21
100.6148890613
  0
LINE
  5
630
100
AcDbEntity
  8
0
100
AcDbLine
 62
7
  6
CONTINUOUS
 10
136.0988420043
 20
96.6999954342
 11
136.4738420043
 21
96.6999954342
  0
LINE
  5
631
100
AcDbEntity
  8
0
100
AcDbLine
 62
7
  6
CONTINUOUS
 10
137.3488419745
 20
96.6999954342
 11
137.8488419447
 21
96.6999954342
  0
LINE
  5
632
100
AcDbEntity
  8
0
100
AcDbLine
 62
7
  6
CONTINUOUS
 10
138.7238420043
 20
96.6999954342
 11
139.0988420043
 21
96.6999954342
  0
LINE
  5
633
100
AcDbEntity
  8
0
100
AcDbLine
 62
7
  6
CONTINUOUS
 10
139.5988418851
 20
96.6999954342
 11
139.9738418851
 21
96.6999954342
  0
LINE
  5
634
100
AcDbEntity
  8
0
100
AcDbLine
 62
7
  6
CONTINUOUS
 10
141.7238420043
 20
96.6999954342
 11
142.0988420043
 21
96.6999954342
  0
LINE
  5
635
100
AcDbEntity
  8
0
100
AcDbLine
 62
7
  6
CONTINUOUS
 10
142.5988422428
 20
96.6999954342
 11
142.9738422428
 21
96.6999954342
  0
LINE
  5
636
100
AcDbEntity
  8
0
100
AcDbLine
 62
7
  6
CONTINUOUS
 10
144.7238420043
 20
96.6999954342
 11
145.0988420043
 21
96.6999954342
  0
LINE
  5
637
100
AcDbEntity
  8
0
100
AcDbLine
 62
7
  6
CONTINUOUS
 10
148.5988415275
 20
96.6999954342
 11
150.8488415275
 21
96.6999954342
  0
LINE
  5
638
100
AcDbEntity
  8
0
100
AcDbLine
 62
7
  6
CONTINUOUS
 10
152.2238420043
 20
96.6999954342
 11
152.7238415275
 21
96.6999954342
  0
LINE
  5
639
100
AcDbEntity
  8
0
100
AcDbLine
 62
7
  6
CONTINUOUS
 10
163.0988420043
 20
96.6999954342
 11
163.598842958
 21
96.6999954342
  0
LINE
  5
63A
100
AcDbEntity
  8
0
100
AcDbLine
 62
7
  6
CONTINUOUS
 10
164.5988420043
 20
96.6999954342
 11
165.098842958
 21
96.6999954342
  0
LINE
  5
63B
100
AcDbEntity
  8
0
100
AcDbLine
 62
7
  6
CONTINUOUS
 10
152.6613424812
 20
97.1255273579
 11
152.2863424812
 21
97.1255273579
  0
LINE
  5
63C
100
AcDbEntity
  8
0
100
AcDbLine
 62
7
  6
CONTINUOUS
 10
150.8488415275
 20
97.1255273579
 11
149.0988424812
 21
97.1255273579
  0
LINE
  5
63D
100
AcDbEntity
  8
0
100
AcDbLine
 62
7
  6
CONTINUOUS
 10
151.6613420043
 20
97.6361656545
 11
151.3488424812
 21
97.6361656545
  0
LINE
  5
63E
100
AcDbEntity
  8
0
100
AcDbLine
 62
7
  6
CONTINUOUS
 10
140.2238420043
 20
97.7212720274
 11
141.4738418851
 21
97.7212720274
  0
LINE
  5
63F
100
AcDbEntity
  8
0
100
AcDbLine
 62
7
  6
CONTINUOUS
 10
141.4113421235
 20
98.0616975187
 11
140.2863421235
 21
98.0616975187
  0
LINE
  5
640
100
AcDbEntity
  8
0
100
AcDbLine
 62
7
  6
CONTINUOUS
 10
152.3488415275
 20
98.5723358749
 11
152.5988420043
 21
98.5723358749
  0
LINE
  5
641
100
AcDbEntity
  8
0
100
AcDbLine
 62
7
  6
CONTINUOUS
 10
152.5988420043
 20
98.9127613663
 11
152.3488415275
 21
98.9127613663
  0
LINE
  5
642
100
AcDbEntity
  8
0
100
AcDbLine
 62
7
  6
CONTINUOUS
 10
148.6613420043
 20
99.763825333
 11
148.9738415275
 21
99.763825333
  0
LINE
  5
643
100
AcDbEntity
  8
0
100
AcDbLine
 62
7
  6
CONTINUOUS
 10
151.4113415275
 20
99.763825333
 11
151.7238424812
 21
99.763825333
  0
LINE
  5
644
100
AcDbEntity
  8
0
100
AcDbLine
 62
7
  6
CONTINUOUS
 10
154.8488420043
 20
96.7851018145
 11
155.2238420043
 21
96.6999954342
  0
LINE
  5
645
100
AcDbEntity
  8
0
100
AcDbLine
 62
7
  6
CONTINUOUS
 10
157.5988415275
 20
96.7851018145
 11
157.9738415275
 21
96.6999954342
  0
LINE
  5
646
100
AcDbEntity
  8
0
100
AcDbLine
 62
7
  6
CONTINUOUS
 10
152.5988420043
 20
98.5723358749
 11
152.9738420043
 21
98.4872295021
  0
LINE
  5
647
100
AcDbEntity
  8
0
100
AcDbLine
 62
7
  6
CONTINUOUS
 10
150.2863415275
 20
100.6148890613
 11
149.9113415275
 21
100.6999954342
  0
LINE
  5
648
100
AcDbEntity
  8
0
100
AcDbLine
 62
7
  6
CONTINUOUS
 10
152.2863424812
 20
97.1255273579
 11
151.9738415275
 21
97.2106337308
  0
LINE
  5
649
100
AcDbEntity
  8
0
100
AcDbLine
 62
7
  6
CONTINUOUS
 10
155.2238420043
 20
97.1255273579
 11
154.9113424812
 21
97.2106337308
  0
LINE
  5
64A
100
AcDbEntity
  8
0
100
AcDbLine
 62
7
  6
CONTINUOUS
 10
157.9738415275
 20
97.1255273579
 11
157.6613420043
 21
97.2106337308
  0
LINE
  5
64B
100
AcDbEntity
  8
0
100
AcDbLine
 62
7
  6
CONTINUOUS
 10
149.8488424812
 20
100.27446357
 11
150.1613420043
 21
100.1893571972
  0
LINE
  5
64C
100
AcDbEntity
  8
0
100
AcDbLine
 62
7
  6
CONTINUOUS
 10
152.5988420043
 20
100.27446357
 11
152.9113415275
 21
100.1893571972
  0
LINE
  5
64D
100
AcDbEntity
  8
0
100
AcDbLine
 62
7
  6
CONTINUOUS
 10
151.9738415275
 20
96.7851018145
 11
152.2238420043
 21
96.6999954342
  0
LINE
  5
64E
100
AcDbEntity
  8
0
100
AcDbLine
 62
7
  6
CONTINUOUS
 10
153.4113424812
 20
98.5723358749
 11
153.0988415275
 21
98.7425486206
  0
LINE
  5
64F
100
AcDbEntity
  8
0
100
AcDbLine
 62
7
  6
CONTINUOUS
 10
150.5363420043
 20
100.4446763157
 11
150.2863415275
 21
100.6148890613
  0
LINE
  5
650
100
AcDbEntity
  8
0
100
AcDbLine
 62
7
  6
CONTINUOUS
 10
153.2238424812
 20
100.4446763157
 11
152.9738420043
 21
100.6148890613
  0
LINE
  5
651
100
AcDbEntity
  8
0
100
AcDbLine
 62
7
  6
CONTINUOUS
 10
155.9113415275
 20
100.3595699428
 11
155.5988420043
 21
100.6148890613
  0
LINE
  5
652
100
AcDbEntity
  8
0
100
AcDbLine
 62
7
  6
CONTINUOUS
 10
158.6613424812
 20
100.3595699428
 11
158.3488415275
 21
100.6148890613
  0
LINE
  5
653
100
AcDbEntity
  8
0
100
AcDbLine
 62
7
  6
CONTINUOUS
 10
155.5363415275
 20
100.1893571972
 11
155.7238415275
 21
100.0191444515
  0
LINE
  5
654
100
AcDbEntity
  8
0
100
AcDbLine
 62
7
  6
CONTINUOUS
 10
158.2863424812
 20
100.1893571972
 11
158.4738424812
 21
100.0191444515
  0
LWPOLYLINE
  5
655
100
AcDbEntity
  8
RACCORDO
100
AcDbPolyline
 62
253
  6
CONTINUOUS
 90
7
 70
0
 10
141.0145677552
 20
134.6050655175
 10
140.9889086119
 20
134.6380756698
 10
140.9649677513
 20
134.6715546846
 10
140.9427472477
 20
134.7055041484
 10
140.9222492238
 20
134.7399255352
 10
140.9034758514
 20
134.7748202052
 10
140.8864293506
 20
134.8101894057
  0
LWPOLYLINE
  5
656
100
AcDbEntity
  8
0
100
AcDbPolyline
 62
7
  6
CONTINUOUS
 90
21
 70
0
 10
150.4561964961
 20
125.7387352107
 10
150.4835514092
 20
125.6921101583
 10
150.5160894003
 20
125.6504629818
 10
150.5541330151
 20
125.6151438588
 10
150.5985185972
 20
125.5859968425
 10
150.648409803
 20
125.5631778797
 10
150.701620148
 20
125.548504989
 10
150.7590549889
 20
125.5422916643
 10
150.819808969
 20
125.5442244116
 10
150.8789795338
 20
125.5551807666
 10
150.9364725684
 20
125.576031942
 10
150.9923821877
 20
125.6059067251
 10
151.0420881811
 20
125.6430690136
 10
151.0845042556
 20
125.6877039415
 10
151.1207167042
 20
125.7396263748
 10
151.1493641959
 20
125.7965448088
 10
151.1698756511
 20
125.8596222798
 10
151.1828221495
 20
125.9276957516
 10
151.1885555985
 20
125.9949846104
 10
151.18696789
 20
126.0609062653
 10
151.1781671321
 20
126.1260433074
  0
LWPOLYLINE
  5
657
100
AcDbEntity
  8
RACCORDO
100
AcDbPolyline
 62
253
  6
CONTINUOUS
 90
7
 70
0
 10
170.4129727081
 20
131.2962614063
 10
170.4203644798
 20
131.2606058592
 10
170.4264017411
 20
131.224982398
 10
170.431084492
 20
131.1893910226
 10
170.4344127324
 20
131.153831733
 10
170.4363864624
 20
131.1183045293
 10
170.437005682
 20
131.0828094113
  0
LWPOLYLINE
  5
658
100
AcDbEntity
  8
RACCORDO
100
AcDbPolyline
 62
253
  6
CONTINUOUS
 90
7
 70
0
 10
170.9507945126
 20
131.7242168749
 10
170.9723791031
 20
131.6182716906
 10
170.9900498474
 20
131.5117561609
 10
171.0038018718
 20
131.4048117096
 10
171.0136354509
 20
131.2975791907
 10
171.019555952
 20
131.1901987032
 10
171.0215737737
 20
131.0828094113
  0
LWPOLYLINE
  5
659
100
AcDbEntity
  8
RACCORDO
100
AcDbPolyline
 62
253
  6
CONTINUOUS
 90
13
 70
0
 10
170.9405140585
 20
-26.2420082049
 10
170.8755434139
 20
-26.472587838
 10
170.7924661971
 20
-26.6972857817
 10
170.6918350169
 20
-26.9146727768
 10
170.5743302348
 20
-27.1233414953
 10
170.4407106816
 20
-27.3220037488
 10
170.2917867392
 20
-27.5094841742
 10
170.1285286952
 20
-27.6845734252
 10
169.9519618624
 20
-27.8461780186
 10
169.7630687216
 20
-27.9933714937
 10
169.5629806387
 20
-28.1252153238
 10
169.3530020132
 20
-28.2407998542
 10
169.1344601834
 20
-28.3393540798
  0
LWPOLYLINE
  5
65A
100
AcDbEntity
  8
RACCORDO
100
AcDbPolyline
 62
253
  6
CONTINUOUS
 90
16
 70
0
 10
167.5798656566
 20
-23.3226584475
 10
167.5341151285
 20
-23.4848042369
 10
167.4758414631
 20
-23.6507116744
 10
167.4044019169
 20
-23.8197580866
 10
167.3187013875
 20
-23.9927385544
 10
167.2186368575
 20
-24.1671266833
 10
167.1057199242
 20
-24.3373045782
 10
166.9798772012
 20
-24.5021518665
 10
166.8417164324
 20
-24.660866031
 10
166.6948933593
 20
-24.8088510292
 10
166.5398835741
 20
-24.9452496651
 10
166.3778986268
 20
-25.0698726078
 10
166.214452342
 20
-25.1801703787
 10
166.052131187
 20
-25.2757474601
 10
165.8902528211
 20
-25.3577399015
 10
165.7295486583
 20
-25.4265969469
  0
LINE
  5
65B
100
AcDbEntity
  8
0
100
AcDbLine
 62
7
  6
CONTINUOUS
 10
152.3577735275
 20
-9.1290225658
 11
152.5752015275
 21
-8.8207845658
  0
LINE
  5
65C
100
AcDbEntity
  8
0
100
AcDbLine
 62
7
  6
CONTINUOUS
 10
153.2967583928
 20
7.6872295021
 11
153.1405083928
 21
7.527655053
  0
LINE
  5
65D
100
AcDbEntity
  8
0
100
AcDbLine
 62
7
  6
CONTINUOUS
 10
147.0988415275
 20
-0.5425577821
 11
147.0363414977
 21
-0.6063875617
  0
LINE
  5
65E
100
AcDbEntity
  8
0
100
AcDbLine
 62
7
  6
CONTINUOUS
 10
147.8175914679
 20
-0.0957492353
 11
147.6925915871
 21
-0.2234087945
  0
LINE
  5
65F
100
AcDbEntity
  8
0
100
AcDbLine
 62
7
  6
CONTINUOUS
 10
154.4425915275
 20
5.6127613849
 11
154.5988415275
 21
5.7723358526
  0
LINE
  5
660
100
AcDbEntity
  8
0
100
AcDbLine
 62
7
  6
CONTINUOUS
 10
152.1925916467
 20
2.5957401148
 11
152.3175915275
 21
2.7233996852
  0
LINE
  5
661
100
AcDbEntity
  8
0
100
AcDbLine
 62
7
  6
CONTINUOUS
 10
148.6300915871
 20
-1.4042598852
 11
148.7550914679
 21
-1.2766003148
  0
LINE
  5
662
100
AcDbEntity
  8
0
100
AcDbLine
 62
7
  6
CONTINUOUS
 10
146.3696748484
 20
7.47446357
 11
146.5259248857
 21
7.580846536
  0
LINE
  5
663
100
AcDbEntity
  8
0
100
AcDbLine
 62
7
  6
CONTINUOUS
 10
148.6613415275
 20
7.47446357
 11
148.8175915275
 21
7.580846536
  0
LINE
  5
664
100
AcDbEntity
  8
0
100
AcDbLine
 62
7
  6
CONTINUOUS
 10
147.2030082438
 20
5.8255273356
 11
147.0467581693
 21
5.7191443695
  0
LINE
  5
665
100
AcDbEntity
  8
0
100
AcDbLine
 62
7
  6
CONTINUOUS
 10
149.4946749602
 20
5.8255273356
 11
149.3384249602
 21
5.7191443695
  0
LINE
  5
666
100
AcDbEntity
  8
0
100
AcDbLine
 62
7
  6
CONTINUOUS
 10
146.4738415275
 20
7.8468039511
 11
146.2134248484
 21
7.6872295021
  0
LINE
  5
667
100
AcDbEntity
  8
0
100
AcDbLine
 62
7
  6
CONTINUOUS
 10
148.7655080948
 20
7.8468039511
 11
148.5050915275
 21
7.6872295021
  0
LINE
  5
668
100
AcDbEntity
  8
0
100
AcDbLine
 62
7
  6
CONTINUOUS
 10
147.0988415275
 20
5.4531869218
 11
147.3592582438
 21
5.6127613849
  0
LINE
  5
669
100
AcDbEntity
  8
0
100
AcDbLine
 62
7
  6
CONTINUOUS
 10
149.5988420043
 20
100.27446357
 11
149.8488424812
 21
100.27446357
  0
LINE
  5
66A
100
AcDbEntity
  8
0
100
AcDbLine
 62
7
  6
CONTINUOUS
 10
152.3488415275
 20
100.27446357
 11
152.5988420043
 21
100.27446357
  0
LINE
  5
66B
100
AcDbEntity
  8
0
100
AcDbLine
 62
7
  6
CONTINUOUS
 10
165.5988410507
 20
100.6999954342
 11
165.2238410507
 21
100.6999954342
  0
LINE
  5
66C
100
AcDbEntity
  8
0
100
AcDbLine
 62
7
  6
CONTINUOUS
 10
164.348842958
 20
100.6999954342
 11
163.8488420043
 21
100.6999954342
  0
LINE
  5
66D
100
AcDbEntity
  8
0
100
AcDbLine
 62
7
  6
CONTINUOUS
 10
162.9738410507
 20
100.6999954342
 11
162.5988410507
 21
100.6999954342
  0
LINE
  5
66E
100
AcDbEntity
  8
0
100
AcDbLine
 62
7
  6
CONTINUOUS
 10
152.5363415275
 20
100.6999954342
 11
152.4113420043
 21
100.6999954342
  0
LINE
  5
66F
100
AcDbEntity
  8
0
100
AcDbLine
 62
7
  6
CONTINUOUS
 10
149.9113415275
 20
100.6999954342
 11
149.6613424812
 21
100.6999954342
  0
LINE
  5
670
100
AcDbEntity
  8
0
100
AcDbLine
 62
7
  6
CONTINUOUS
 10
145.0988420043
 20
100.6999954342
 11
144.7238420043
 21
100.6999954342
  0
LINE
  5
671
100
AcDbEntity
  8
0
100
AcDbLine
 62
7
  6
CONTINUOUS
 10
142.9738422428
 20
100.6999954342
 11
142.5988422428
 21
100.6999954342
  0
LINE
  5
672
100
AcDbEntity
  8
0
100
AcDbLine
 62
7
  6
CONTINUOUS
 10
141.0988418851
 20
100.6999954342
 11
140.5988420043
 21
100.6999954342
  0
LINE
  5
673
100
AcDbEntity
  8
0
100
AcDbLine
 62
7
  6
CONTINUOUS
 10
139.0988420043
 20
100.6999954342
 11
138.5363420043
 21
100.6999954342
  0
LINE
  5
674
100
AcDbEntity
  8
0
100
AcDbLine
 62
7
  6
CONTINUOUS
 10
136.6613420043
 20
100.6999954342
 11
136.0988420043
 21
100.6999954342
  0
LINE
  5
675
100
AcDbEntity
  8
ASSI
100
AcDbLine
 62
7
  6
CONTINUOUS
 10
157.9016615275
 20
104.8999124342
 11
158.7351885275
 21
104.8999214342
  0
LINE
  5
676
100
AcDbEntity
  8
ASSI
100
AcDbLine
 62
7
  6
CONTINUOUS
 10
152.1646545275
 20
104.8999024342
 11
152.9046815275
 21
104.8999124342
  0
LINE
  5
677
100
AcDbEntity
  8
ASSI
100
AcDbLine
 62
7
  6
CONTINUOUS
 10
148.0519285275
 20
104.8999024342
 11
148.7919555275
 21
104.8999024342
  0
LINE
  5
678
100
AcDbEntity
  8
ASSI
100
AcDbLine
 62
7
  6
CONTINUOUS
 10
150.9312775275
 20
104.8999024342
 11
151.6713055275
 21
104.8999024342
  0
LINE
  5
679
100
AcDbEntity
  8
ASSI
100
AcDbLine
 62
7
  6
CONTINUOUS
 10
149.4916075275
 20
104.8999024342
 11
150.2316165275
 21
104.8999124342
  0
LINE
  5
67A
100
AcDbEntity
  8
ASSI
100
AcDbLine
 62
7
  6
CONTINUOUS
 10
155.7740595275
 20
104.8999124342
 11
156.5140965275
 21
104.8999124342
  0
LINE
  5
67B
100
AcDbEntity
  8
ASSI
100
AcDbLine
 62
7
  6
CONTINUOUS
 10
146.5718915275
 20
104.8998934342
 11
147.3119185275
 21
104.8999024342
  0
LINE
  5
67C
100
AcDbEntity
  8
ASSI
100
AcDbLine
 62
7
  6
CONTINUOUS
 10
144.1504905275
 20
104.8998934342
 11
144.8905465275
 21
104.8999024342
  0
LINE
  5
67D
100
AcDbEntity
  8
ASSI
100
AcDbLine
 62
7
  6
CONTINUOUS
 10
154.5406735275
 20
104.8999124342
 11
155.2807105275
 21
104.8999024342
  0
LINE
  5
67E
100
AcDbEntity
  8
ASSI
100
AcDbLine
 62
7
  6
CONTINUOUS
 10
153.1383095275
 20
105.6275724342
 11
154.3070555275
 21
105.6275724342
  0
LINE
  5
67F
100
AcDbEntity
  8
ASSI
100
AcDbLine
 62
7
  6
CONTINUOUS
 10
154.0813185275
 20
106.3306004342
 11
153.3640365275
 21
106.3306004342
  0
LINE
  5
680
100
AcDbEntity
  8
ASSI
100
AcDbLine
 62
7
  6
CONTINUOUS
 10
156.5141795275
 20
106.3306094342
 11
157.1600615275
 21
106.3306004342
  0
LINE
  5
681
100
AcDbEntity
  8
0
100
AcDbLine
 62
7
  6
CONTINUOUS
 10
152.9738420043
 20
100.6148890613
 11
152.5363415275
 21
100.6999954342
  0
LINE
  5
682
100
AcDbEntity
  8
0
100
AcDbLine
 62
7
  6
CONTINUOUS
 10
155.5988420043
 20
100.6148890613
 11
155.2238420043
 21
100.6999954342
  0
LINE
  5
683
100
AcDbEntity
  8
0
100
AcDbLine
 62
7
  6
CONTINUOUS
 10
158.3488415275
 20
100.6148890613
 11
157.9738415275
 21
100.6999954342
  0
LINE
  5
684
100
AcDbEntity
  8
0
100
AcDbLine
 62
7
  6
CONTINUOUS
 10
155.2238420043
 20
100.27446357
 11
155.5363415275
 21
100.1893571972
  0
LINE
  5
685
100
AcDbEntity
  8
0
100
AcDbLine
 62
7
  6
CONTINUOUS
 10
157.9738415275
 20
100.27446357
 11
158.2863424812
 21
100.1893571972
  0
LWPOLYLINE
  5
686
100
AcDbEntity
  8
RACCORDO
100
AcDbPolyline
 62
253
  6
CONTINUOUS
 90
10
 70
0
 10
131.2847103469
 20
131.2962614061
 10
131.6046159902
 20
131.0416343651
 10
131.9232248307
 20
130.7871802285
 10
132.2405368682
 20
130.5328989962
 10
132.556528356
 20
130.2788083068
 10
132.8712230407
 20
130.0248905218
 10
133.1846921633
 20
129.7710927251
 10
133.4969594705
 20
129.5173972783
 10
133.8080012156
 20
129.2638218198
 10
134.1178173983
 20
129.0103663498
  0
LINE
  5
687
100
AcDbEntity
  8
RACCORDO
100
AcDbLine
 62
253
  6
CONTINUOUS
 10
130.5988415275
 20
131.1443549077
 11
130.6761092813
 21
131.0828094097
  0
LWPOLYLINE
  5
688
100
AcDbEntity
  8
RACCORDO
100
AcDbPolyline
 62
253
  6
CONTINUOUS
 90
6
 70
0
 10
141.0358919038
 20
135.2836870487
 10
140.9881011474
 20
135.3416953773
 10
140.9686370857
 20
135.3649313841
 10
140.9521148733
 20
135.3835912852
 10
140.9387333939
 20
135.3970238514
 10
140.9284575417
 20
135.4046562585
  0
LWPOLYLINE
  5
689
100
AcDbEntity
  8
RACCORDO
100
AcDbPolyline
 62
253
  6
CONTINUOUS
 90
10
 70
0
 10
160.324845627
 20
134.9558743472
 10
160.34827266
 20
134.9086588245
 10
160.3769268017
 20
134.8620949104
 10
160.4104126524
 20
134.8168251344
 10
160.4482681401
 20
134.7734741685
 10
160.4899708965
 20
134.7326402068
 10
160.5349454648
 20
134.6948867116
 10
160.5825712409
 20
134.6607346382
 10
160.6321910368
 20
134.6306552458
 10
160.6831201492
 20
134.6050635952
  0
LWPOLYLINE
  5
68A
100
AcDbEntity
  8
RACCORDO
100
AcDbPolyline
 62
253
  6
CONTINUOUS
 90
13
 70
0
 10
170.4094836975
 20
-25.7844608692
 10
170.3242592046
 20
-25.9975895518
 10
170.2243807937
 20
-26.2078185599
 10
170.1105514343
 20
-26.4138486843
 10
169.9835841066
 20
-26.6143900479
 10
169.8442982665
 20
-26.8082037089
 10
169.6935012365
 20
-26.9941022192
 10
169.5321402319
 20
-27.1708621243
 10
169.3612564482
 20
-27.3373965557
 10
169.1818557792
 20
-27.4927711551
 10
168.9950187081
 20
-27.635995939
 10
168.8019087739
 20
-27.766051802
 10
168.6037019425
 20
-27.8820409851
  0
LINE
  5
68B
100
AcDbEntity
  8
0
100
AcDbLine
 62
7
  6
CONTINUOUS
 10
152.2426209138
 20
-4.5064302403
 11
151.0735455275
 21
-5.4916175658
  0
LINE
  5
68C
100
AcDbEntity
  8
0
100
AcDbLine
 62
7
  6
CONTINUOUS
 10
151.0735455275
 20
-6.0033135658
 11
152.1883774242
 21
-5.0638376529
  0
LINE
  5
68D
100
AcDbEntity
  8
0
100
AcDbLine
 62
7
  6
CONTINUOUS
 10
153.4530083928
 20
7.47446357
 11
153.6092583928
 21
7.580846536
  0
LINE
  5
68E
100
AcDbEntity
  8
0
100
AcDbLine
 62
7
  6
CONTINUOUS
 10
154.2863415275
 20
5.8255273356
 11
154.1300915275
 21
5.7191443695
  0
LINE
  5
68F
100
AcDbEntity
  8
0
100
AcDbLine
 62
7
  6
CONTINUOUS
 10
152.1300915275
 20
2.7872294872
 11
152.0363415275
 21
2.7233996852
  0
LINE
  5
690
100
AcDbEntity
  8
0
100
AcDbLine
 62
7
  6
CONTINUOUS
 10
147.8800915871
 20
-0.2872385741
 11
147.9738415871
 21
-0.2234087945
  0
LINE
  5
691
100
AcDbEntity
  8
0
100
AcDbLine
 62
7
  6
CONTINUOUS
 10
148.5675914679
 20
-1.2127705128
 11
148.4738414679
 21
-1.2766003148
  0
LINE
  5
692
100
AcDbEntity
  8
0
100
AcDbLine
 62
7
  6
CONTINUOUS
 10
149.3905080948
 20
5.4531869218
 11
149.6509249602
 21
5.6127613849
  0
LINE
  5
693
100
AcDbEntity
  8
0
100
AcDbLine
 62
7
  6
CONTINUOUS
 10
153.5571746621
 20
7.8468039511
 11
153.2967583928
 21
7.6872295021
  0
LINE
  5
694
100
AcDbEntity
  8
0
100
AcDbLine
 62
7
  6
CONTINUOUS
 10
154.1821746621
 20
5.4531869218
 11
154.4425915275
 21
5.6127613849
  0
LINE
  5
695
100
AcDbEntity
  8
ASSI
100
AcDbLine
 62
7
  6
CONTINUOUS
 10
157.4042526714
 20
107.0151374342
 11
156.5038935275
 21
107.0151374342
  0
LINE
  5
696
100
AcDbEntity
  8
ASSI
100
AcDbLine
 62
7
  6
CONTINUOUS
 10
156.5038845275
 20
107.9155514342
 11
157.4042351462
 21
107.9155514342
  0
LINE
  5
697
100
AcDbEntity
  8
ASSI
100
AcDbLine
 62
7
  6
CONTINUOUS
 10
151.6713055275
 20
108.6000694342
 11
150.5525825275
 21
108.6000694342
  0
LINE
  5
698
100
AcDbEntity
  8
ASSI
100
AcDbLine
 62
7
  6
CONTINUOUS
 10
149.1706505275
 20
108.6000694342
 11
148.0519285275
 21
108.6000694342
  0
LINE
  5
699
100
AcDbEntity
  8
ASSI
100
AcDbLine
 62
7
  6
CONTINUOUS
 10
147.3119285275
 20
108.6000694342
 11
146.5719005275
 21
108.6000694342
  0
LINE
  5
69A
100
AcDbEntity
  8
ASSI
100
AcDbLine
 62
7
  6
CONTINUOUS
 10
146.0785515275
 20
108.6000694342
 11
145.3385145275
 21
108.6000694342
  0
LINE
  5
69B
100
AcDbEntity
  8
ASSI
100
AcDbLine
 62
7
  6
CONTINUOUS
 10
143.7025315275
 20
108.6000694342
 11
142.9624945275
 21
108.6000694342
  0
LINE
  5
69C
100
AcDbEntity
  8
ASSI
100
AcDbLine
 62
7
  6
CONTINUOUS
 10
157.5069738039
 20
108.6000784342
 11
155.7740595275
 21
108.6000784342
  0
LINE
  5
69D
100
AcDbEntity
  8
ASSI
100
AcDbLine
 62
7
  6
CONTINUOUS
 10
154.0927055275
 20
108.6000784342
 11
153.3526405275
 21
108.6000784342
  0
LINE
  5
69E
100
AcDbEntity
  8
RACCORDO
100
AcDbLine
 62
253
  6
CONTINUOUS
 10
132.9252902775
 20
134.0663106644
 11
133.0048948672
 21
134.0053013978
  0
LWPOLYLINE
  5
69F
100
AcDbEntity
  8
RACCORDO
100
AcDbPolyline
 62
253
  6
CONTINUOUS
 90
10
 70
0
 10
132.9268817284
 20
133.3625654214
 10
133.2535980226
 20
133.1095292348
 10
133.5790491475
 20
132.8566459131
 10
133.9032337732
 20
132.603916623
 10
134.2261249083
 20
132.3513608856
 10
134.5477473729
 20
132.0989618842
 10
134.8681763465
 20
131.8466654231
 10
135.187434745
 20
131.5944533442
 10
135.5054946726
 20
131.3423445673
 10
135.8223538788
 20
131.0903396693
  0
LWPOLYLINE
  5
6A0
100
AcDbEntity
  8
RACCORDO
100
AcDbPolyline
 62
253
  6
CONTINUOUS
 90
7
 70
0
 10
141.2456820945
 20
135.0542128731
 10
141.2049419714
 20
135.0950834809
 10
141.1660380812
 20
135.135542563
 10
141.1293474567
 20
135.1751358389
 10
141.0953758117
 20
135.2134017212
 10
141.0642823143
 20
135.2497904831
 10
141.0358919038
 20
135.2836870487
  0
LWPOLYLINE
  5
6A1
100
AcDbEntity
  8
RACCORDO
100
AcDbPolyline
 62
253
  6
CONTINUOUS
 90
10
 70
0
 10
134.1178173983
 20
-23.3226584542
 10
133.8068060939
 20
-23.5958505101
 10
133.4949544973
 20
-23.8691220194
 10
133.1822626088
 20
-24.1424729821
 10
132.8687402721
 20
-24.4158954869
 10
132.5543776433
 20
-24.6893974451
 10
132.2391451909
 20
-24.9630025903
 10
131.9230330709
 20
-25.2367188339
 10
131.6060511272
 20
-25.5105382645
 10
131.2881993598
 20
-25.7844608823
  0
LINE
  5
6A2
100
AcDbEntity
  8
RACCORDO
100
AcDbLine
 62
253
  6
CONTINUOUS
 10
130.6761092813
 20
-25.5563367444
 11
130.5988415275
 21
-25.6229585994
  0
LWPOLYLINE
  5
6A3
100
AcDbEntity
  8
RACCORDO
100
AcDbPolyline
 62
253
  6
CONTINUOUS
 90
10
 70
0
 10
135.9681344202
 20
-25.4265969241
 10
135.6521213122
 20
-25.6991228992
 10
135.3352796287
 20
-25.9717188467
 10
135.0176103836
 20
-26.2443843993
 10
134.6991252915
 20
-26.517110919
 10
134.3798148166
 20
-26.7899064204
 10
134.059647728
 20
-27.0627952824
 10
133.7386139088
 20
-27.335785151
 10
133.4167248017
 20
-27.6088672263
 10
133.0939811463
 20
-27.8820409847
  0
LINE
  5
6A4
100
AcDbEntity
  8
RACCORDO
100
AcDbLine
 62
253
  6
CONTINUOUS
 10
133.233892742
 20
-28.5219894113
 11
133.15493583
 21
-28.5883599389
  0
LINE
  5
6A5
100
AcDbEntity
  8
0
100
AcDbLine
 62
7
  6
CONTINUOUS
 10
152.0675914083
 20
2.5319103268
 11
152.1925916467
 21
2.5957401148
  0
LINE
  5
6A6
100
AcDbEntity
  8
0
100
AcDbLine
 62
7
  6
CONTINUOUS
 10
147.9425915275
 20
-0.0319194556
 11
147.8175914679
 21
-0.0957492353
  0
LINE
  5
6A7
100
AcDbEntity
  8
0
100
AcDbLine
 62
7
  6
CONTINUOUS
 10
147.0675915573
 20
-0.7659620107
 11
147.1925915275
 21
-0.7021322311
  0
LINE
  5
6A8
100
AcDbEntity
  8
0
100
AcDbLine
 62
7
  6
CONTINUOUS
 10
148.5050915275
 20
-1.4680896732
 11
148.6300915871
 21
-1.4042598852
  0
LINE
  5
6A9
100
AcDbEntity
  8
0
100
AcDbLine
 62
7
  6
CONTINUOUS
 10
147.0363414977
 20
-0.6063875617
 11
146.9425914977
 21
-0.6383024515
  0
LWPOLYLINE
  5
6AA
100
AcDbEntity
  8
RACCORDO
100
AcDbPolyline
 62
253
  6
CONTINUOUS
 90
7
 70
0
 10
141.3728653077
 20
134.9558772729
 10
141.3488316801
 20
134.9716162654
 10
141.3259069168
 20
134.9876490645
 10
141.3041105342
 20
135.0039519149
 10
141.2834617819
 20
135.0204990525
 10
141.2639795207
 20
135.0372626676
 10
141.2456820945
 20
135.0542128731
  0
LWPOLYLINE
  5
6AB
100
AcDbEntity
  8
RACCORDO
100
AcDbPolyline
 62
253
  6
CONTINUOUS
 90
10
 70
0
 10
160.4520172306
 20
135.0542113835
 10
160.4799597949
 20
135.0181981606
 10
160.5117751608
 20
134.9836562864
 10
160.5471353872
 20
134.9509418156
 10
160.585675993
 20
134.9203919663
 10
160.6269997147
 20
134.892321644
 10
160.6706806011
 20
134.8670201956
 10
160.7162684037
 20
134.8447484271
 10
160.7632932179
 20
134.8257359147
 10
160.8112703269
 20
134.8101786391
  0
LINE
  5
6AC
100
AcDbEntity
  8
C_CALOTTA
100
AcDbLine
 62
7
  6
CONTINUOUS
 10
147.0912366231
 20
-14.1456560402
 11
146.9752322401
 21
-14.2176825925
  0
LINE
  5
6AD
100
AcDbEntity
  8
0
100
AcDbLine
 62
7
  6
CONTINUOUS
 10
150.4049076789
 20
125.9071274457
 11
150.1553906025
 21
125.8881424399
  0
LINE
  5
6AE
100
AcDbEntity
  8
RACCORDO
100
AcDbLine
 62
7
  6
CONTINUOUS
 10
141.1488415226
 20
123.9999954342
 11
139.5205405841
 21
123.9999954342
  0
LINE
  5
6AF
100
AcDbEntity
  8
RACCORDO
100
AcDbLine
 62
253
  6
CONTINUOUS
 10
141.1488415275
 20
125.284518692
 11
141.1041766181
 21
125.284518692
  0
LINE
  5
6B0
100
AcDbEntity
  8
0
100
AcDbLine
 62
7
  6
CONTINUOUS
 10
148.6121817151
 20
125.3782594342
 11
149.8977375275
 21
125.3782594342
  0
LINE
  5
6B1
100
AcDbEntity
  8
0
100
AcDbLine
 62
7
  6
CONTINUOUS
 10
149.8977375275
 20
125.6060794342
 11
148.9442919022
 21
125.6060794342
  0
LINE
  5
6B2
100
AcDbEntity
  8
0
100
AcDbLine
 62
7
  6
CONTINUOUS
 10
150.1987845275
 20
126.2976754342
 11
150.423892826
 21
126.265130391
  0
LWPOLYLINE
  5
6B3
100
AcDbEntity
  8
RACCORDO
100
AcDbPolyline
 62
253
  6
CONTINUOUS
 90
10
 70
0
 10
144.2694710221
 20
132.2974949706
 10
143.8708927654
 20
132.4539310103
 10
143.4806595478
 20
132.634573419
 10
143.0985055364
 20
132.8395648495
 10
142.7223221142
 20
133.068461709
 10
142.3537481174
 20
133.3219600473
 10
141.9982162247
 20
133.6019852877
 10
141.6574908266
 20
133.9093457958
 10
141.3296219245
 20
134.2436441137
 10
141.0145677552
 20
134.6050655175
  0
LWPOLYLINE
  5
6B4
100
AcDbEntity
  8
RACCORDO
100
AcDbPolyline
 62
253
  6
CONTINUOUS
 90
22
 70
0
 10
147.6477073239
 20
131.0985206724
 10
147.4257159492
 20
131.1866944542
 10
147.2109885543
 20
131.2713998102
 10
147.0035888054
 20
131.3525185672
 10
146.8039031741
 20
131.4298305494
 10
146.6116662493
 20
131.5034301575
 10
146.425954192
 20
131.5737009733
 10
146.246834516
 20
131.6406380773
 10
146.0743310636
 20
131.7042405461
 10
145.9074404928
 20
131.7648861566
 10
145.7462045129
 20
131.8225946652
 10
145.5906487245
 20
131.8773976899
 10
145.4397345929
 20
131.9296600615
 10
145.2933583193
 20
131.9794514427
 10
145.1516721507
 20
132.0267642084
 10
145.014014347
 20
132.0718152388
 10
144.8802788685
 20
132.1146781294
 10
144.7506081081
 20
132.1553500509
 10
144.6247090265
 20
132.193917943
 10
144.5024930023
 20
132.230438902
 10
144.3840763251
 20
132.2649469976
 10
144.2694710221
 20
132.2974949706
  0
LWPOLYLINE
  5
6B5
100
AcDbEntity
  8
RACCORDO
100
AcDbPolyline
 62
253
  6
CONTINUOUS
 90
10
 70
0
 10
144.4443966105
 20
132.6497376951
 10
144.0709687105
 20
132.8060371469
 10
143.7018295945
 20
132.9866878816
 10
143.3385840796
 20
133.1916898994
 10
142.9833600029
 20
133.420198822
 10
142.6374275823
 20
133.6730590275
 10
142.3013883735
 20
133.9528036509
 10
141.976942204
 20
134.2602770704
 10
141.6666834403
 20
134.5946349076
 10
141.3728516718
 20
134.9558771626
  0
LWPOLYLINE
  5
6B6
100
AcDbEntity
  8
RACCORDO
100
AcDbPolyline
 62
253
  6
CONTINUOUS
 90
22
 70
0
 10
147.647707424
 20
131.0985207842
 10
147.4380728797
 20
131.2113388963
 10
147.2351240339
 20
131.319633129
 10
147.0389783288
 20
131.4234034822
 10
146.8500298454
 20
131.5225285215
 10
146.6680446733
 20
131.6171296813
 10
146.4921710492
 20
131.7075712653
 10
146.3224488514
 20
131.7938138643
 10
146.1589001488
 20
131.8758968874
 10
146.0006413017
 20
131.9543028661
 10
145.8476869346
 20
132.0290189531
 10
145.7000304166
 20
132.1000579958
 10
145.5567647614
 20
132.1679410672
 10
145.4177684976
 20
132.2327249181
 10
145.2831496978
 20
132.2943527978
 10
145.1523579705
 20
132.3531755268
 10
145.0252636213
 20
132.4092421815
 10
144.901968393
 20
132.4625036856
 10
144.7822745222
 20
132.5131636298
 10
144.6661020286
 20
132.561289878
 10
144.5534853576
 20
132.6068145664
 10
144.4443966105
 20
132.6497376951
  0
LWPOLYLINE
  5
6B7
100
AcDbEntity
  8
RACCORDO
100
AcDbPolyline
 62
253
  6
CONTINUOUS
 90
22
 70
0
 10
157.4282120329
 20
132.2974949706
 10
157.3094094335
 20
132.2637469875
 10
157.1870730978
 20
132.2280465596
 10
157.0612160396
 20
132.1903543659
 10
156.931903172
 20
132.1506395472
 10
156.7990988914
 20
132.1088682381
 10
156.6626673298
 20
132.0650010432
 10
156.5227960987
 20
132.0190742377
 10
156.3793338967
 20
131.9710164477
 10
156.2316398522
 20
131.920614374
 10
156.0798485904
 20
131.8678849351
 10
155.9238722923
 20
131.8127794933
 10
155.7627431109
 20
131.7549541993
 10
155.5964797938
 20
131.6943896439
 10
155.4251268659
 20
131.6310818774
 10
155.2477651459
 20
131.5646809421
 10
155.0644171283
 20
131.4951986862
 10
154.8751442944
 20
131.4226509775
 10
154.6790984542
 20
131.3466824229
 10
154.4760353664
 20
131.2672113341
 10
154.2663087136
 20
131.1844524566
 10
154.0499756239
 20
131.0985206771
  0
LINE
  5
6B8
100
AcDbEntity
  8
0
100
AcDbLine
 62
7
  6
CONTINUOUS
 10
150.5761115275
 20
127.0679244342
 11
151.3487335275
 21
127.0679244342
  0
LINE
  5
6B9
100
AcDbEntity
  8
RACCORDO
100
AcDbLine
 62
253
  6
CONTINUOUS
 10
141.1041766181
 20
127.1154721763
 11
141.1488415275
 21
127.1154721763
  0
LINE
  5
6BA
100
AcDbEntity
  8
0
100
AcDbLine
 62
7
  6
CONTINUOUS
 10
151.3487335275
 20
127.2957444342
 11
150.3859225275
 21
127.2957444342
  0
LINE
  5
6BB
100
AcDbEntity
  8
0
100
AcDbLine
 62
7
  6
CONTINUOUS
 10
149.9846115275
 20
128.2121584342
 11
150.2230415275
 21
128.2121584342
  0
LINE
  5
6BC
100
AcDbEntity
  8
RACCORDO
100
AcDbLine
 62
7
  6
CONTINUOUS
 10
139.5205405841
 20
128.3999954342
 11
141.1488415226
 21
128.3999954342
  0
LINE
  5
6BD
100
AcDbEntity
  8
RACCORDO
100
AcDbLine
 62
253
  6
CONTINUOUS
 10
167.5798656566
 20
129.0103658801
 11
166.1656520943
 21
129.0103658801
  0
LINE
  5
6BE
100
AcDbEntity
  8
RACCORDO
100
AcDbLine
 62
253
  6
CONTINUOUS
 10
134.1178173983
 20
129.0103658795
 11
135.5320309607
 21
129.0103658795
  0
LINE
  5
6BF
100
AcDbEntity
  8
0
100
AcDbLine
 62
7
  6
CONTINUOUS
 10
150.2230415275
 20
130.1619814342
 11
150.0693864518
 21
130.1619814342
  0
LINE
  5
6C0
100
AcDbEntity
  8
RACCORDO
100
AcDbLine
 62
253
  6
CONTINUOUS
 10
171.0215737737
 20
131.0828094113
 11
170.437005682
 21
131.0828094113
  0
LWPOLYLINE
  5
6C1
100
AcDbEntity
  8
RACCORDO
100
AcDbPolyline
 62
253
  6
CONTINUOUS
 90
3
 70
0
 10
130.6761092813
 20
131.0828094113
 10
130.9546090989
 20
131.0828580829
 10
131.2606773729
 20
131.0828094113
  0
LINE
  5
6C2
100
AcDbEntity
  8
0
100
AcDbLine
 62
7
  6
CONTINUOUS
 10
148.6470395275
 20
127.6156724342
 11
152.9199695275
 21
127.6068804342
  0
LINE
  5
6C3
100
AcDbEntity
  8
0
100
AcDbLine
 62
7
  6
CONTINUOUS
 10
152.9204395275
 20
127.8354904342
 11
148.6475095275
 21
127.8442824342
  0
LINE
  5
6C4
100
AcDbEntity
  8
0
100
AcDbLine
 62
7
  6
CONTINUOUS
 10
148.6582881257
 20
126.7668764743
 11
148.9023809222
 21
126.7424673947
  0
LWPOLYLINE
  5
6C5
100
AcDbEntity
  8
RACCORDO
100
AcDbPolyline
 62
253
  6
CONTINUOUS
 90
13
 70
0
 10
165.5974729501
 20
129.703690507
 10
165.6795938168
 20
129.6841905183
 10
165.7568755648
 20
129.6565320185
 10
165.8293181941
 20
129.6207150076
 10
165.8980727253
 20
129.5761854848
 10
165.9619881379
 20
129.523497451
 10
166.0176113704
 20
129.4643129088
 10
166.0639638753
 20
129.3979168629
 10
166.1020242003
 20
129.3250243087
 10
166.1312749265
 20
129.2494422344
 10
166.1515435811
 20
129.1724396363
 10
166.163002637
 20
129.0927475182
 10
166.1656520943
 20
129.0103658801
  0
LWPOLYLINE
  5
6C6
100
AcDbEntity
  8
RACCORDO
100
AcDbPolyline
 62
253
  6
CONTINUOUS
 90
13
 70
0
 10
165.875328361
 20
131.0903399088
 10
166.0708527718
 20
130.9916851737
 10
166.2626880433
 20
130.8752629125
 10
166.4495894506
 20
130.741048158
 10
166.6316211401
 20
130.5877234818
 10
166.805729965
 20
130.4168982634
 10
166.9664114229
 20
130.2339216728
 10
167.1125498073
 20
130.0402018706
 10
167.2434277042
 20
129.8369523583
 10
167.3555872722
 20
129.6303800949
 10
167.4483502596
 20
129.4236844039
 10
167.5229721294
 20
129.2166221595
 10
167.5798656566
 20
129.0103658801
  0
LWPOLYLINE
  5
6C7
100
AcDbEntity
  8
RACCORDO
100
AcDbPolyline
 62
253
  6
CONTINUOUS
 90
13
 70
0
 10
168.7708013097
 20
133.362565466
 10
168.9539062604
 20
133.2419004673
 10
169.1315525194
 20
133.1088372664
 10
169.3027647277
 20
132.9641937752
 10
169.4665832896
 20
132.8088865021
 10
169.6221168366
 20
132.6438054324
 10
169.7685344177
 20
132.4697936561
 10
169.9049833273
 20
132.2878206229
 10
170.0306908686
 20
132.0989652397
 10
170.1449968613
 20
131.9042741997
 10
170.2472355942
 20
131.7048373946
 10
170.3367500641
 20
131.5017870163
 10
170.4129727129
 20
131.2962613782
  0
LWPOLYLINE
  5
6C8
100
AcDbEntity
  8
0
100
AcDbPolyline
 62
7
  6
CONTINUOUS
 90
7
 70
0
 10
158.7939444152
 20
135.7044886497
 10
158.7820284888
 20
135.7033284684
 10
158.7691523028
 20
135.7022667814
 10
158.7553158939
 20
135.7013031227
 10
158.7405192949
 20
135.7004369914
 10
158.7247625353
 20
135.699667852
 10
158.7080456407
 20
135.698995134
  0
LWPOLYLINE
  5
6C9
100
AcDbEntity
  8
RACCORDO
100
AcDbPolyline
 62
253
  6
CONTINUOUS
 90
10
 70
0
 10
132.3895718362
 20
133.7899269799
 10
132.4290762562
 20
133.7932778624
 10
132.4745384614
 20
133.7834225769
 10
132.5256261918
 20
133.7604328903
 10
132.5819661768
 20
133.7244764833
 10
132.6431468793
 20
133.6758157339
 10
132.7087214993
 20
133.6148057994
 10
132.7782112188
 20
133.5418920197
 10
132.8511087034
 20
133.4576066703
 10
132.9268818201
 20
133.3625650801
  0
LINE
  5
6CA
100
AcDbEntity
  8
RACCORDO
100
AcDbLine
 62
253
  6
CONTINUOUS
 10
143.0401445228
 20
135.54540388
 11
142.2081073064
 21
135.4863841665
  0
LINE
  5
6CB
100
AcDbEntity
  8
RACCORDO
100
AcDbLine
 62
253
  6
CONTINUOUS
 10
143.3612104812
 20
135.5677941889
 11
143.0401445228
 21
135.54540388
  0
LWPOLYLINE
  5
6CC
100
AcDbEntity
  8
RACCORDO
100
AcDbPolyline
 62
253
  6
CONTINUOUS
 90
7
 70
0
 10
142.2081073064
 20
135.4863841665
 10
141.7541597776
 20
135.4547241505
 10
141.555692473
 20
135.4414671319
 10
141.3741106631
 20
135.4297594424
 10
141.2086880982
 20
135.4195923219
 10
141.0601387529
 20
135.411192763
 10
140.9284576409
 20
135.4046555321
  0
LINE
  5
6CD
100
AcDbEntity
  8
RACCORDO
100
AcDbLine
 62
253
  6
CONTINUOUS
 10
142.8486493692
 20
135.0527993005
 11
142.0320103892
 21
134.9987747374
  0
LWPOLYLINE
  5
6CE
100
AcDbEntity
  8
RACCORDO
100
AcDbPolyline
 62
253
  6
CONTINUOUS
 90
3
 70
0
 10
142.0320103892
 20
134.9987747374
 10
141.5757000805
 20
134.9689400222
 10
141.3728516718
 20
134.9558771626
  0
LINE
  5
6CF
100
AcDbEntity
  8
C_CALOTTA
100
AcDbLine
 62
7
  6
CONTINUOUS
 10
144.8437408389
 20
135.8160202067
 11
145.2978833116
 21
135.8427231839
  0
LINE
  5
6D0
100
AcDbEntity
  8
C_CALOTTA
100
AcDbLine
 62
7
  6
CONTINUOUS
 10
143.7273475829
 20
135.7493810654
 11
144.8437408389
 21
135.8160202067
  0
LINE
  5
6D1
100
AcDbEntity
  8
C_CALOTTA
100
AcDbLine
 62
7
  6
CONTINUOUS
 10
145.2978833116
 20
135.8427231839
 11
145.7795908118
 21
135.870113477
  0
LWPOLYLINE
  5
6D2
100
AcDbEntity
  8
C_CALOTTA
100
AcDbPolyline
 62
7
  6
CONTINUOUS
 90
4
 70
0
 10
145.7795908118
 20
135.870113477
 10
146.2814634237
 20
135.897503903
 10
146.5389890878
 20
135.9110679259
 10
146.8011746132
 20
135.9245043107
  0
LWPOLYLINE
  5
6D3
100
AcDbEntity
  8
C_CALOTTA
100
AcDbPolyline
 62
7
  6
CONTINUOUS
 90
3
 70
0
 10
143.343351152
 20
135.7285618403
 10
143.4572327292
 20
135.7343666252
 10
143.7273475829
 20
135.7493810654
  0
LINE
  5
6D4
100
AcDbEntity
  8
0
100
AcDbLine
 62
7
  6
CONTINUOUS
 10
145.6020621061
 20
135.8037884164
 11
144.5844575626
 21
135.7527928416
  0
LWPOLYLINE
  5
6D5
100
AcDbEntity
  8
0
100
AcDbPolyline
 62
7
  6
CONTINUOUS
 90
11
 70
0
 10
144.5844575626
 20
135.7527928416
 10
144.3585733905
 20
135.7416727479
 10
144.1459483345
 20
135.7315226624
 10
143.9463136923
 20
135.7224176771
 10
143.7616247652
 20
135.714528492
 10
143.5918391352
 20
135.7079585231
 10
143.4369877622
 20
135.7028036879
 10
143.2991374361
 20
135.6992376001
 10
143.1789753616
 20
135.6973784467
 10
143.0758089943
 20
135.6972755919
 10
142.9896373988
 20
135.6989951353
  0
LINE
  5
6D6
100
AcDbEntity
  8
C_CALOTTA
100
AcDbLine
 62
7
  6
CONTINUOUS
 10
143.2453915196
 20
135.7240540918
 11
143.343351152
 21
135.7285618403
  0
LWPOLYLINE
  5
6D7
100
AcDbEntity
  8
0
100
AcDbPolyline
 62
7
  6
CONTINUOUS
 90
6
 70
0
 10
147.3447560144
 20
135.8837478515
 10
147.0444259281
 20
135.8709963927
 10
146.7476808127
 20
135.8579424313
 10
146.4533933945
 20
135.8445774561
 10
146.1626814659
 20
135.8309805824
 10
145.6020621061
 20
135.8037884164
  0
LWPOLYLINE
  5
6D8
100
AcDbEntity
  8
RACCORDO
100
AcDbPolyline
 62
253
  6
CONTINUOUS
 90
11
 70
0
 10
147.6275290798
 20
135.8073341656
 10
147.1558080301
 20
135.787408326
 10
146.689726089
 20
135.7659978442
 10
146.2292768866
 20
135.7432002154
 10
145.7699565106
 20
135.7189023679
 10
145.3162562563
 20
135.6933574393
 10
144.8816526942
 20
135.6674397743
 10
144.469142195
 20
135.6417269465
 10
144.0756882584
 20
135.6162802195
 10
143.7057078489
 20
135.5914740171
 10
143.3612104812
 20
135.5677941889
  0
LINE
  5
6D9
100
AcDbEntity
  8
0
100
AcDbLine
 62
7
  6
CONTINUOUS
 10
147.6486758051
 20
135.8961566397
 11
147.3447560144
 21
135.8837478515
  0
LWPOLYLINE
  5
6DA
100
AcDbEntity
  8
RACCORDO
100
AcDbPolyline
 62
253
  6
CONTINUOUS
 90
12
 70
0
 10
147.647707424
 20
135.3080463321
 10
147.2018692722
 20
135.290304841
 10
146.7566451082
 20
135.2714445301
 10
146.3135087809
 20
135.2514653994
 10
145.8714526252
 20
135.2300677659
 10
145.4345236091
 20
135.2075513126
 10
145.0114408442
 20
135.1848150891
 10
144.6044543909
 20
135.1618914218
 10
144.2131400099
 20
135.1387479842
 10
143.841401923
 20
135.1161868463
 10
143.4906014807
 20
135.0943226874
 10
142.8486493692
 20
135.0527993005
  0
LINE
  5
6DB
100
AcDbEntity
  8
C_CALOTTA
100
AcDbLine
 62
7
  6
CONTINUOUS
 10
143.1639541783
 20
135.7209258466
 11
143.2453915196
 21
135.7240540918
  0
LWPOLYLINE
  5
6DC
100
AcDbEntity
  8
0
100
AcDbPolyline
 62
7
  6
CONTINUOUS
 90
3
 70
0
 10
158.7080456407
 20
135.698995134
 10
158.6218380898
 20
135.6972747695
 10
158.5186104038
 20
135.6973789734
  0
LWPOLYLINE
  5
6DD
100
AcDbEntity
  8
0
100
AcDbPolyline
 62
7
  6
CONTINUOUS
 90
8
 70
0
 10
158.5186104038
 20
135.6973789734
 10
158.3983616468
 20
135.6992415082
 10
158.2603927758
 20
135.7028130528
 10
158.1053974854
 20
135.707974976
 10
157.9354620407
 20
135.71455287
 10
157.750612907
 20
135.7224513211
 10
157.5508121334
 20
135.7315661364
 10
157.3380479433
 20
135.7417242754
  0
LWPOLYLINE
  5
6DE
100
AcDbEntity
  8
C_CALOTTA
100
AcDbPolyline
 62
7
  6
CONTINUOUS
 90
4
 70
0
 10
158.4523645217
 20
135.724050974
 10
158.533764743
 20
135.7209247828
 10
158.5992572692
 20
135.7191784729
 10
158.6488415275
 20
135.7188374252
  0
LWPOLYLINE
  5
6DF
100
AcDbEntity
  8
0
100
AcDbPolyline
 62
7
  6
CONTINUOUS
 90
7
 70
0
 10
142.9896373988
 20
135.6989951353
 10
142.9729205069
 20
135.6996678529
 10
142.9571637499
 20
135.7004369921
 10
142.9423671536
 20
135.7013031232
 10
142.9285307472
 20
135.7022667817
 10
142.9156545637
 20
135.7033284685
 10
142.9037386398
 20
135.7044886497
  0
LINE
  5
6E0
100
AcDbEntity
  8
0
100
AcDbLine
 62
7
  6
CONTINUOUS
 10
154.3527504359
 20
135.8837552602
 11
154.0490072585
 21
135.8961566394
  0
LINE
  5
6E1
100
AcDbEntity
  8
C_CALOTTA
100
AcDbLine
 62
7
  6
CONTINUOUS
 10
158.3544574171
 20
135.7285556092
 11
158.4523645217
 21
135.724050974
  0
LWPOLYLINE
  5
6E2
100
AcDbEntity
  8
0
100
AcDbPolyline
 62
7
  6
CONTINUOUS
 90
5
 70
0
 10
155.5340859042
 20
135.8310238128
 10
155.2435661275
 20
135.8446106757
 10
154.9494700624
 20
135.8579662156
 10
154.6529031284
 20
135.8710117344
 10
154.3527504359
 20
135.8837552602
  0
LWPOLYLINE
  5
6E3
100
AcDbEntity
  8
RACCORDO
100
AcDbPolyline
 62
253
  6
CONTINUOUS
 90
6
 70
0
 10
160.7692269804
 20
135.4046553361
 10
160.6459742051
 20
135.4106937342
 10
160.5049659822
 20
135.4186221469
 10
160.3461978756
 20
135.428345885
 10
160.1708197274
 20
135.4395807088
 10
159.9776706437
 20
135.4523913365
  0
LINE
  5
6E4
100
AcDbEntity
  8
0
100
AcDbLine
 62
7
  6
CONTINUOUS
 10
156.0944382201
 20
135.8038468866
 11
155.5340859042
 21
135.8310238128
  0
LWPOLYLINE
  5
6E5
100
AcDbEntity
  8
0
100
AcDbPolyline
 62
7
  6
CONTINUOUS
 90
3
 70
0
 10
157.3380479433
 20
135.7417242754
 10
156.8730844644
 20
135.7648051859
 10
156.0944382201
 20
135.8038468866
  0
LINE
  5
6E6
100
AcDbEntity
  8
C_CALOTTA
100
AcDbLine
 62
7
  6
CONTINUOUS
 10
158.2406411661
 20
135.7343564476
 11
158.3544574171
 21
135.7285556092
  0
LWPOLYLINE
  5
6E7
100
AcDbEntity
  8
C_CALOTTA
100
AcDbPolyline
 62
7
  6
CONTINUOUS
 90
3
 70
0
 10
154.8965084475
 20
135.9245043104
 10
155.1587922267
 20
135.9110628269
 10
155.4164132489
 20
135.8974935903
  0
LINE
  5
6E8
100
AcDbEntity
  8
C_CALOTTA
100
AcDbLine
 62
7
  6
CONTINUOUS
 10
155.4164132489
 20
135.8974935903
 11
155.9184736568
 21
135.8700922609
  0
LINE
  5
6E9
100
AcDbEntity
  8
C_CALOTTA
100
AcDbLine
 62
7
  6
CONTINUOUS
 10
157.9706746369
 20
135.7493614825
 11
158.2406411661
 21
135.7343564476
  0
LINE
  5
6EA
100
AcDbEntity
  8
C_CALOTTA
100
AcDbLine
 62
7
  6
CONTINUOUS
 10
155.9184736568
 20
135.8700922609
 11
156.4003459141
 21
135.84269154
  0
LINE
  5
6EB
100
AcDbEntity
  8
C_CALOTTA
100
AcDbLine
 62
7
  6
CONTINUOUS
 10
156.4003459141
 20
135.84269154
 11
156.8545633547
 21
135.8159832965
  0
LINE
  5
6EC
100
AcDbEntity
  8
C_CALOTTA
100
AcDbLine
 62
7
  6
CONTINUOUS
 10
157.6460180001
 20
135.7684605025
 11
157.9706746369
 21
135.7493614825
  0
LINE
  5
6ED
100
AcDbEntity
  8
C_CALOTTA
100
AcDbLine
 62
7
  6
CONTINUOUS
 10
156.8545633547
 20
135.8159832965
 11
157.6460180001
 21
135.7684605025
  0
LWPOLYLINE
  5
6EE
100
AcDbEntity
  8
RACCORDO
100
AcDbPolyline
 62
253
  6
CONTINUOUS
 90
11
 70
0
 10
158.1787946402
 20
135.096112561
 10
157.8211368093
 20
135.1183489815
 10
157.4447852723
 20
135.1411078489
 10
157.0507807364
 20
135.1643191169
 10
156.6441079722
 20
135.187142587
 10
156.2259420002
 20
135.209528301
 10
155.797297606
 20
135.231526217
 10
155.3635442261
 20
135.2524460105
 10
154.9274872889
 20
135.2720575735
 10
154.4891638493
 20
135.290591014
 10
154.049975631
 20
135.3080463321
  0
LINE
  5
6EF
100
AcDbEntity
  8
RACCORDO
100
AcDbLine
 62
253
  6
CONTINUOUS
 10
158.8364312994
 20
135.0536269825
 11
158.1787946402
 21
135.096112561
  0
LINE
  5
6F0
100
AcDbEntity
  8
RACCORDO
100
AcDbLine
 62
253
  6
CONTINUOUS
 10
160.3248367333
 20
134.9558743546
 11
159.9052137083
 21
134.9830332007
  0
LINE
  5
6F1
100
AcDbEntity
  8
RACCORDO
100
AcDbLine
 62
253
  6
CONTINUOUS
 10
159.9052137083
 20
134.9830332007
 11
158.8364312994
 21
135.0536269825
  0
LWPOLYLINE
  5
6F2
100
AcDbEntity
  8
RACCORDO
100
AcDbPolyline
 62
253
  6
CONTINUOUS
 90
11
 70
0
 10
158.3525310692
 20
135.5666949709
 10
157.9991567312
 20
135.5909862285
 10
157.6204387867
 20
135.616391764
 10
157.218545645
 20
135.6423811695
 10
156.8008938924
 20
135.6683600036
 10
156.3665379344
 20
135.6941956394
 10
155.916388968
 20
135.7195066019
 10
155.4606597915
 20
135.7435961539
 10
155.0027529739
 20
135.7662459501
 10
154.5392531246
 20
135.7875240464
 10
154.0701539751
 20
135.8073341656
  0
LINE
  5
6F3
100
AcDbEntity
  8
RACCORDO
100
AcDbLine
 62
253
  6
CONTINUOUS
 10
158.6827738692
 20
135.5436457063
 11
158.3525310692
 21
135.5666949709
  0
LINE
  5
6F4
100
AcDbEntity
  8
RACCORDO
100
AcDbLine
 62
253
  6
CONTINUOUS
 10
159.9776706437
 20
135.4523913365
 11
159.5273562636
 21
135.4837289761
  0
LINE
  5
6F5
100
AcDbEntity
  8
RACCORDO
100
AcDbLine
 62
253
  6
CONTINUOUS
 10
159.5273562636
 20
135.4837289761
 11
158.6827738692
 21
135.5436457063
  0
LWPOLYLINE
  5
6F6
100
AcDbEntity
  8
RACCORDO
100
AcDbPolyline
 62
253
  6
CONTINUOUS
 90
10
 70
0
 10
169.3082236816
 20
133.7901631738
 10
169.268740584
 20
133.7934422756
 10
169.223291842
 20
133.7835239646
 10
169.1722091193
 20
133.7604806136
 10
169.1158651979
 20
133.7244803712
 10
169.0546712421
 20
133.6757859399
 10
168.9890737983
 20
133.6147526578
 10
168.9195515558
 20
133.5418258991
 10
168.8466118547
 20
133.457537826
 10
168.7707869683
 20
133.3625035089
  0
LWPOLYLINE
  5
6F7
100
AcDbEntity
  8
RACCORDO
100
AcDbPolyline
 62
253
  6
CONTINUOUS
 90
7
 70
0
 10
168.5622746117
 20
133.4354890951
 10
168.5976748073
 20
133.4267395486
 10
168.6328192045
 20
133.4166277719
 10
168.6677059331
 20
133.4051541156
 10
168.7023331177
 20
133.3923189334
 10
168.7366988773
 20
133.3781225821
 10
168.7708013256
 20
133.362565421
  0
LWPOLYLINE
  5
6F8
100
AcDbEntity
  8
RACCORDO
100
AcDbPolyline
 62
253
  6
CONTINUOUS
 90
7
 70
0
 10
168.6927881908
 20
134.0053013971
 10
168.7981270913
 20
133.9790626392
 10
168.9025502906
 20
133.9489447366
 10
169.0059158877
 20
133.9149710269
 10
169.1080823271
 20
133.8771701468
 10
169.2089085974
 20
133.8355760452
 10
169.3082544315
 20
133.7902279886
  0
LWPOLYLINE
  5
6F9
100
AcDbEntity
  8
RACCORDO
100
AcDbPolyline
 62
7
  6
CONTINUOUS
 90
16
 70
0
 10
168.7723927728
 20
134.0663106655
 10
169.0333810038
 20
133.9935270297
 10
169.2834752135
 20
133.899394804
 10
169.5226754018
 20
133.7839139883
 10
169.7529894414
 20
133.6456431573
 10
169.9724094596
 20
133.4860237364
 10
170.1749118389
 20
133.3093800015
 10
170.3596277138
 20
133.11575757
 10
170.5274259497
 20
132.9051108245
 10
170.6748895258
 20
132.6816271895
 10
170.8018782336
 20
132.444301386
 10
170.9085322817
 20
132.1941386931
 10
170.9918552746
 20
131.9383423724
 10
171.050848414
 20
131.6793135113
 10
171.0865104983
 20
131.4146510224
 10
171.0988415275
 20
131.1443549058
  0
LWPOLYLINE
  5
6FA
100
AcDbEntity
  8
RACCORDO
100
AcDbPolyline
 62
253
  6
CONTINUOUS
 90
13
 70
0
 10
160.7697496354
 20
135.4045899544
 10
160.8116989652
 20
135.3884124883
 10
160.8462814002
 20
135.3628149674
 10
160.873636897
 20
135.3289799814
 10
160.893984019
 20
135.2882102788
 10
160.9074013017
 20
135.2415629414
 10
160.9137896928
 20
135.1895613947
 10
160.9131426663
 20
135.1327295777
 10
160.9056850632
 20
135.0720914482
 10
160.8916426299
 20
135.0087113735
 10
160.8711715535
 20
134.9434936004
 10
160.8443461925
 20
134.877089208
 10
160.8112714058
 20
134.8101871652
  0
LWPOLYLINE
  5
6FB
100
AcDbEntity
  8
RACCORDO
100
AcDbPolyline
 62
253
  6
CONTINUOUS
 90
13
 70
0
 10
169.3082544315
 20
133.7902279886
 10
169.5097745153
 20
133.6841473091
 10
169.7026826285
 20
133.5631767966
 10
169.8858788146
 20
133.4280377757
 10
170.0582877138
 20
133.2795629329
 10
170.2189744168
 20
133.1186023621
 10
170.3671247103
 20
132.9459931104
 10
170.5018979469
 20
132.7627092604
 10
170.6225017034
 20
132.5698181897
 10
170.7282723046
 20
132.3683576468
 10
170.8185932766
 20
132.159454609
 10
170.8929156796
 20
131.94432907
 10
170.9507945126
 20
131.7242168749
  0
LWPOLYLINE
  5
6FC
100
AcDbEntity
  8
RACCORDO
100
AcDbPolyline
 62
253
  6
CONTINUOUS
 90
7
 70
0
 10
168.6037019085
 20
-27.8820409846
 10
168.5666215242
 20
-27.8962192178
 10
168.5293195217
 20
-27.9088411649
 10
168.491797413
 20
-27.9199066136
 10
168.4540567087
 20
-27.9294153528
 10
168.4160989186
 20
-27.9373671725
 10
168.377925551
 20
-27.943761864
  0
LWPOLYLINE
  5
6FD
100
AcDbEntity
  8
RACCORDO
100
AcDbPolyline
 62
253
  6
CONTINUOUS
 90
7
 70
0
 10
169.1344601834
 20
-28.3393540798
 10
169.0255097691
 20
-28.3808669657
 10
168.9151948992
 20
-28.4179852546
 10
168.8036905468
 20
-28.4506775264
 10
168.6911717957
 20
-28.4789194074
 10
168.5778135609
 20
-28.5026935183
 10
168.4637903141
 20
-28.5219894111
  0
LINE
  5
6FE
100
AcDbEntity
  8
0
100
AcDbLine
 62
7
  6
CONTINUOUS
 10
153.8488415275
 20
151.3478373079
 11
147.8488415275
 21
151.3478373079
  0
ARC
  5
6FF
100
AcDbEntity
  8
0
100
AcDbCircle
 62
7
  6
CONTINUOUS
 10
-588.1511584725
 20
210.6377429298
 40
750.0275501622
100
AcDbArc
 50
358.8416978386
 51
358.8905998513
  0
ARC
  5
700
100
AcDbEntity
  8
0
100
AcDbCircle
 62
7
  6
CONTINUOUS
 10
-588.1511584725
 20
210.6377429298
 40
750.0275501622
100
AcDbArc
 50
359.0017023886
 51
359.0506037229
  0
ARC
  5
701
100
AcDbEntity
  8
0
100
AcDbCircle
 62
7
  6
CONTINUOUS
 10
-588.1511584725
 20
210.6377429298
 40
750.0275501482
100
AcDbArc
 50
358.7438924683
 51
358.7927962045
  0
ARC
  5
702
100
AcDbEntity
  8
0
100
AcDbCircle
 62
7
  6
CONTINUOUS
 10
-588.1511584725
 20
210.6377429298
 40
750.0275501482
100
AcDbArc
 50
358.5536055192
 51
358.6025130172
  0
ARC
  5
703
100
AcDbEntity
  8
0
100
AcDbCircle
 62
7
  6
CONTINUOUS
 10
-588.1511584725
 20
210.6377429298
 40
750.0275501342
100
AcDbArc
 50
358.4720908661
 51
358.5210001409
  0
ARC
  5
704
100
AcDbEntity
  8
0
100
AcDbCircle
 62
7
  6
CONTINUOUS
 10
-588.1511584725
 20
210.6377429298
 40
750.0275501342
100
AcDbArc
 50
358.3150487042
 51
358.3639622926
  0
ARC
  5
705
100
AcDbEntity
  8
0
100
AcDbCircle
 62
7
  6
CONTINUOUS
 10
-588.1511584725
 20
210.6377429298
 40
750.0275501342
100
AcDbArc
 50
358.648751774
 51
358.697656101
  0
ARC
  5
706
100
AcDbEntity
  8
0
100
AcDbCircle
 62
7
  6
CONTINUOUS
 10
-588.1511584725
 20
210.6377429298
 40
750.0275501202
100
AcDbArc
 50
358.2335239206
 51
358.2824395763
  0
ARC
  5
707
100
AcDbEntity
  8
0
100
AcDbCircle
 62
7
  6
CONTINUOUS
 10
-588.1511584725
 20
210.6377429298
 40
750.0275501062
100
AcDbArc
 50
358.0867042663
 51
358.1418038723
  0
ARC
  5
708
100
AcDbEntity
  8
0
100
AcDbCircle
 62
7
  6
CONTINUOUS
 10
-588.1511584725
 20
210.6377429298
 40
750.0248525566
100
AcDbArc
 50
358.3793974609
 51
358.4566443939
  0
ARC
  5
709
100
AcDbEntity
  8
0
100
AcDbCircle
 62
7
  6
CONTINUOUS
 10
-588.1511584725
 20
210.6377429298
 40
750.0213058937
100
AcDbArc
 50
358.1908102381
 51
358.2335037064
  0
ARC
  5
70A
100
AcDbEntity
  8
RACCORDO
100
AcDbCircle
 62
7
  6
CONTINUOUS
 10
-588.1511584725
 20
210.6377429298
 40
750.0
100
AcDbArc
 50
357.8613142585
 51
1.5697002964
  0
ARC
  5
70B
100
AcDbEntity
  8
SUPERFICI
100
AcDbCircle
 62
7
  6
CONTINUOUS
 10
-588.1511584725
 20
210.6377429298
 40
750.0
100
AcDbArc
 50
357.8613142585
 51
1.4663979702
  0
ARC
  5
70C
100
AcDbEntity
  8
RACCORDO
100
AcDbCircle
 62
253
  6
CONTINUOUS
 10
-588.1511584725
 20
210.6377429298
 40
749.5100000127
100
AcDbArc
 50
357.8613142585
 51
1.5697002964
  0
ARC
  5
70D
100
AcDbEntity
  8
0
100
AcDbCircle
 62
7
  6
CONTINUOUS
 10
-588.1511584725
 20
210.6377429298
 40
748.1967855219
100
AcDbArc
 50
359.3490688387
 51
359.3565615465
  0
ARC
  5
70E
100
AcDbEntity
  8
RACCORDO
100
AcDbCircle
 62
7
  6
CONTINUOUS
 10
141.6703678228
 20
182.6974263518
 40
1.3000000328
100
AcDbArc
 50
182.1386745496
 51
245.4997161866
  0
ARC
  5
70F
100
AcDbEntity
  8
RACCORDO
100
AcDbCircle
 62
253
  6
CONTINUOUS
 10
141.6703676836
 20
182.6974266009
 40
0.8099994655
100
AcDbArc
 50
182.1386857416
 51
245.4997263541
  0
ARC
  5
710
100
AcDbEntity
  8
RACCORDO
100
AcDbCircle
 62
7
  6
CONTINUOUS
 10
145.6488415275
 20
179.8377429298
 40
0.8
100
AcDbArc
 50
180.0
 51
270.0
  0
ARC
  5
711
100
AcDbEntity
  8
0
100
AcDbCircle
 62
7
  6
CONTINUOUS
 10
144.2716080665
 20
187.1377429298
 40
2.75
100
AcDbArc
 50
166.5915769964
 51
196.3376491378
  0
ARC
  5
712
100
AcDbEntity
  8
RACCORDO
100
AcDbCircle
 62
7
  6
CONTINUOUS
 10
144.0965626956
 20
186.787765619
 40
2.5
100
AcDbArc
 50
179.9925724392
 51
196.4121133836
  0
ARC
  5
713
100
AcDbEntity
  8
RACCORDO
100
AcDbCircle
 62
7
  6
CONTINUOUS
 10
144.0967742146
 20
188.4194113114
 40
2.5
100
AcDbArc
 50
163.5841752152
 51
179.9925724392
  0
ARC
  5
714
100
AcDbEntity
  8
0
100
AcDbCircle
 62
7
  6
CONTINUOUS
 10
144.4488415275
 20
188.7941538458
 40
8.0
100
AcDbArc
 50
248.5866794634
 51
265.4114342642
  0
ARC
  5
715
100
AcDbEntity
  8
RACCORDO
100
AcDbCircle
 62
7
  6
CONTINUOUS
 10
144.4488415275
 20
188.7941538458
 40
8.0
100
AcDbArc
 50
245.4991182651
 51
265.4114342642
  0
ARC
  5
716
100
AcDbEntity
  8
RACCORDO
100
AcDbCircle
 62
253
  6
CONTINUOUS
 10
144.4488415275
 20
188.7941538458
 40
7.5100022245
100
AcDbArc
 50
245.4997263541
 51
265.4114342642
  0
ARC
  5
717
100
AcDbEntity
  8
RACCORDO
100
AcDbCircle
 62
7
  6
CONTINUOUS
 10
146.5488415275
 20
178.3377429298
 40
0.8
100
AcDbArc
 50
180.0
 51
270.0
  0
ARC
  5
718
100
AcDbEntity
  8
0
100
AcDbCircle
 62
7
  6
CONTINUOUS
 10
150.8257483227
 20
194.0377499101
 40
38.2
100
AcDbArc
 50
76.8760643694
 51
89.9653627422
  0
ARC
  5
719
100
AcDbEntity
  8
RACCORDO
100
AcDbCircle
 62
7
  6
CONTINUOUS
 10
147.3488415275
 20
218.7915305188
 40
15.0
100
AcDbArc
 50
98.047846247
 51
115.5975369428
  0
ARC
  5
71A
100
AcDbEntity
  8
0
100
AcDbCircle
 62
7
  6
CONTINUOUS
 10
147.3488415275
 20
218.7915305188
 40
15.0
100
AcDbArc
 50
98.0478462473
 51
115.5960631695
  0
ARC
  5
71B
100
AcDbEntity
  8
RACCORDO
100
AcDbCircle
 62
253
  6
CONTINUOUS
 10
147.3488415275
 20
218.7915305188
 40
14.5100014466
100
AcDbArc
 50
98.0478462473
 51
115.5975369422
  0
ARC
  5
71C
100
AcDbEntity
  8
0
100
AcDbCircle
 62
7
  6
CONTINUOUS
 10
147.3488415275
 20
218.7915305188
 40
13.2
100
AcDbArc
 50
98.0478462473
 51
108.1083145896
  0
ARC
  5
71D
100
AcDbEntity
  8
RACCORDO
100
AcDbCircle
 62
7
  6
CONTINUOUS
 10
141.4297980281
 20
231.1468906533
 40
1.3
100
AcDbArc
 50
115.5975431557
 51
178.4303025221
  0
ARC
  5
71E
100
AcDbEntity
  8
RACCORDO
100
AcDbCircle
 62
253
  6
CONTINUOUS
 10
141.4297979014
 20
231.1468905926
 40
0.8099995712
100
AcDbArc
 50
115.5975369422
 51
178.4302997036
  0
ARC
  5
71F
100
AcDbEntity
  8
RACCORDO
100
AcDbCircle
 62
7
  6
CONTINUOUS
 10
155.1488415275
 20
178.3377429298
 40
0.8
100
AcDbArc
 50
270.0
 51
360.0
  0
ARC
  5
720
100
AcDbEntity
  8
RACCORDO
100
AcDbCircle
 62
7
  6
CONTINUOUS
 10
150.8488415275
 20
194.0377429298
 40
40.0
100
AcDbArc
 50
81.9521537527
 51
98.0478462473
  0
ARC
  5
721
100
AcDbEntity
  8
RACCORDO
100
AcDbCircle
 62
253
  6
CONTINUOUS
 10
150.8488415275
 20
194.0377429298
 40
39.51
100
AcDbArc
 50
81.9521537527
 51
98.0478462473
  0
ARC
  5
722
100
AcDbEntity
  8
0
100
AcDbCircle
 62
7
  6
CONTINUOUS
 10
150.8488415275
 20
194.0377429298
 40
38.2
100
AcDbArc
 50
81.9521537527
 51
98.0478462473
  0
ARC
  5
723
100
AcDbEntity
  8
0
100
AcDbCircle
 62
7
  6
CONTINUOUS
 10
150.8719347322
 20
194.0377499101
 40
38.2
100
AcDbArc
 50
90.0346372578
 51
103.1239356306
  0
ARC
  5
724
100
AcDbEntity
  8
RACCORDO
100
AcDbCircle
 62
7
  6
CONTINUOUS
 10
160.0273153714
 20
182.6974266009
 40
1.3
100
AcDbArc
 50
294.5002736459
 51
357.8613142583
  0
ARC
  5
725
100
AcDbEntity
  8
0
100
AcDbCircle
 62
253
  6
CONTINUOUS
 10
160.0273153714
 20
182.6974266009
 40
0.81
100
AcDbArc
 50
294.5002736459
 51
340.3088817807
  0
ARC
  5
726
100
AcDbEntity
  8
RACCORDO
100
AcDbCircle
 62
7
  6
CONTINUOUS
 10
156.0488415275
 20
179.8377429298
 40
0.8
100
AcDbArc
 50
270.0
 51
360.0
  0
ARC
  5
727
100
AcDbEntity
  8
RACCORDO
100
AcDbCircle
 62
7
  6
CONTINUOUS
 10
157.2488415275
 20
188.7941538458
 40
8.0
100
AcDbArc
 50
274.5885657358
 51
294.500919471
  0
ARC
  5
728
100
AcDbEntity
  8
RACCORDO
100
AcDbCircle
 62
253
  6
CONTINUOUS
 10
157.2488415275
 20
188.7941538458
 40
7.5100022245
100
AcDbArc
 50
274.5885657358
 51
294.5002736459
  0
ARC
  5
729
100
AcDbEntity
  8
0
100
AcDbCircle
 62
7
  6
CONTINUOUS
 10
157.4260749885
 20
193.2377429298
 40
2.75
100
AcDbArc
 50
346.2776411261
 51
17.1694637342
  0
ARC
  5
72A
100
AcDbEntity
  8
RACCORDO
100
AcDbCircle
 62
7
  6
CONTINUOUS
 10
157.5972325838
 20
191.9543697916
 40
2.5
100
AcDbArc
 50
343.898348791
 51
359.9925724392
  0
ARC
  5
72B
100
AcDbEntity
  8
RACCORDO
100
AcDbCircle
 62
7
  6
CONTINUOUS
 10
157.5974441028
 20
193.586015484
 40
2.5
100
AcDbArc
 50
359.9925724392
 51
16.0859869767
  0
ARC
  5
72C
100
AcDbEntity
  8
RACCORDO
100
AcDbCircle
 62
7
  6
CONTINUOUS
 10
154.3488415275
 20
218.7915305188
 40
15.0
100
AcDbArc
 50
64.40244832
 51
81.9521537527
  0
ARC
  5
72D
100
AcDbEntity
  8
SUPERFICI
100
AcDbCircle
 62
7
  6
CONTINUOUS
 10
154.3488415275
 20
218.7915305188
 40
15.0
100
AcDbArc
 50
64.4039368305
 51
81.9521537527
  0
ARC
  5
72E
100
AcDbEntity
  8
RACCORDO
100
AcDbCircle
 62
253
  6
CONTINUOUS
 10
154.3488415275
 20
218.7915305188
 40
14.5100014466
100
AcDbArc
 50
64.4024630578
 51
81.9521537527
  0
ARC
  5
72F
100
AcDbEntity
  8
0
100
AcDbCircle
 62
7
  6
CONTINUOUS
 10
154.3488415275
 20
218.7915305188
 40
13.2
100
AcDbArc
 50
71.8916854104
 51
81.9521537527
  0
ARC
  5
730
100
AcDbEntity
  8
RACCORDO
100
AcDbCircle
 62
253
  6
CONTINUOUS
 10
150.8488415275
 20
207.5377429298
 40
3.5933706608
100
AcDbArc
 50
180.0
 51
360.0
  0
ARC
  5
731
100
AcDbEntity
  8
RACCORDO
100
AcDbCircle
 62
253
  6
CONTINUOUS
 10
150.8488415275
 20
207.5377429298
 40
3.2934192071
100
AcDbArc
 50
180.0
 51
360.0
  0
ARC
  5
732
100
AcDbEntity
  8
DRAFT
100
AcDbCircle
 62
7
  6
CONTINUOUS
 10
150.8488415275
 20
207.5377429298
 40
3.275
100
AcDbArc
 50
180.0
 51
360.0
  0
ARC
  5
733
100
AcDbEntity
  8
RACCORDO
100
AcDbCircle
 62
7
  6
CONTINUOUS
 10
150.8488415275
 20
207.5377429298
 40
3.25
100
AcDbArc
 50
180.0
 51
360.0
  0
ARC
  5
734
100
AcDbEntity
  8
RACCORDO
100
AcDbCircle
 62
253
  6
CONTINUOUS
 10
150.8488415275
 20
207.5377429298
 40
3.0999967126
100
AcDbArc
 50
180.0
 51
360.0
  0
CIRCLE
  5
735
100
AcDbEntity
  8
0
100
AcDbCircle
 62
7
  6
CONTINUOUS
 10
150.8488415275
 20
207.5377429298
 40
2.0
  0
CIRCLE
  5
736
100
AcDbEntity
  8
0
100
AcDbCircle
 62
7
  6
CONTINUOUS
 10
150.8488415275
 20
217.0377429298
 40
2.0
  0
ARC
  5
737
100
AcDbEntity
  8
0
100
AcDbCircle
 62
7
  6
CONTINUOUS
 10
889.8488415275
 20
210.6377429298
 40
750.0275501622
100
AcDbArc
 50
181.752122366
 51
181.8010401508
  0
ARC
  5
738
100
AcDbEntity
  8
0
100
AcDbCircle
 62
7
  6
CONTINUOUS
 10
889.8488415275
 20
210.6377429298
 40
750.0275501622
100
AcDbArc
 50
181.592078002
 51
181.6409899056
  0
ARC
  5
739
100
AcDbEntity
  8
0
100
AcDbCircle
 62
7
  6
CONTINUOUS
 10
889.8488415275
 20
210.6377429298
 40
750.0275501482
100
AcDbArc
 50
181.3039680982
 51
181.3528736799
  0
ARC
  5
73A
100
AcDbEntity
  8
0
100
AcDbCircle
 62
7
  6
CONTINUOUS
 10
889.8488415275
 20
210.6377429298
 40
750.0275501482
100
AcDbArc
 50
181.4942588633
 51
181.5431684816
  0
ARC
  5
73B
100
AcDbEntity
  8
0
100
AcDbCircle
 62
7
  6
CONTINUOUS
 10
889.8488415275
 20
210.6377429298
 40
750.0275501342
100
AcDbArc
 50
181.3991124683
 51
181.4480187781
  0
ARC
  5
73C
100
AcDbEntity
  8
0
100
AcDbCircle
 62
7
  6
CONTINUOUS
 10
889.8488415275
 20
210.6377429298
 40
750.0275501342
100
AcDbArc
 50
181.0654493586
 51
181.1143512545
  0
ARC
  5
73D
100
AcDbEntity
  8
0
100
AcDbCircle
 62
7
  6
CONTINUOUS
 10
889.8488415275
 20
210.6377429298
 40
750.0275501342
100
AcDbArc
 50
181.222461093
 51
181.2713651109
  0
ARC
  5
73E
100
AcDbEntity
  8
0
100
AcDbCircle
 62
7
  6
CONTINUOUS
 10
889.8488415275
 20
210.6377429298
 40
750.0275501202
100
AcDbArc
 50
180.9839485173
 51
181.0328491393
  0
ARC
  5
73F
100
AcDbEntity
  8
0
100
AcDbCircle
 62
7
  6
CONTINUOUS
 10
889.8488415275
 20
210.6377429298
 40
750.0275501062
100
AcDbArc
 50
180.8371860224
 51
180.8922620605
  0
ARC
  5
740
100
AcDbEntity
  8
0
100
AcDbCircle
 62
7
  6
CONTINUOUS
 10
889.8488415275
 20
210.6377429298
 40
750.0248525566
100
AcDbArc
 50
181.1297930421
 51
181.2070265908
  0
ARC
  5
741
100
AcDbEntity
  8
0
100
AcDbCircle
 62
7
  6
CONTINUOUS
 10
889.8488415275
 20
210.6377429298
 40
750.0213058937
100
AcDbArc
 50
180.9412725002
 51
180.9839512089
  0
ARC
  5
742
100
AcDbEntity
  8
RACCORDO
100
AcDbCircle
 62
7
  6
CONTINUOUS
 10
889.8488415275
 20
210.6377429298
 40
750.0
100
AcDbArc
 50
178.4302997036
 51
182.1386857415
  0
ARC
  5
743
100
AcDbEntity
  8
0
100
AcDbCircle
 62
7
  6
CONTINUOUS
 10
889.8488415275
 20
210.6377429298
 40
750.0
100
AcDbArc
 50
178.5336020298
 51
182.1386857415
  0
ARC
  5
744
100
AcDbEntity
  8
RACCORDO
100
AcDbCircle
 62
253
  6
CONTINUOUS
 10
889.8488415275
 20
210.6377429298
 40
749.5100000127
100
AcDbArc
 50
178.4302997036
 51
182.1386857415
  0
ARC
  5
745
100
AcDbEntity
  8
0
100
AcDbCircle
 62
7
  6
CONTINUOUS
 10
889.8488415275
 20
210.6377429298
 40
748.1967855219
100
AcDbArc
 50
181.0951390778
 51
181.1025966006
  0
ARC
  5
746
100
AcDbEntity
  8
0
100
AcDbCircle
 62
7
  6
CONTINUOUS
 10
889.8488415275
 20
210.6377429298
 40
748.1967855219
100
AcDbArc
 50
180.6434384548
 51
180.6509311613
  0
ARC
  5
747
100
AcDbEntity
  8
RACCORDO
100
AcDbCircle
 62
7
  6
CONTINUOUS
 10
150.8488415275
 20
268.5377429298
 40
88.0
100
AcDbArc
 50
272.2468308049
 51
274.5885657358
  0
ARC
  5
748
100
AcDbEntity
  8
RACCORDO
100
AcDbCircle
 62
7
  6
CONTINUOUS
 10
150.8488415275
 20
268.5377429298
 40
88.0
100
AcDbArc
 50
265.4114342642
 51
267.7531691951
  0
ARC
  5
749
100
AcDbEntity
  8
0
100
AcDbCircle
 62
7
  6
CONTINUOUS
 10
150.8488415275
 20
268.5377429298
 40
88.0
100
AcDbArc
 50
265.9009943232
 51
266.139456227
  0
ARC
  5
74A
100
AcDbEntity
  8
0
100
AcDbCircle
 62
7
  6
CONTINUOUS
 10
150.8488415275
 20
268.5377429298
 40
88.0
100
AcDbArc
 50
265.4114342642
 51
265.7061043631
  0
ARC
  5
74B
100
AcDbEntity
  8
RACCORDO
100
AcDbCircle
 62
253
  6
CONTINUOUS
 10
150.8488415275
 20
268.5377429298
 40
87.51
100
AcDbArc
 50
272.2594181356
 51
274.5885657358
  0
ARC
  5
74C
100
AcDbEntity
  8
RACCORDO
100
AcDbCircle
 62
253
  6
CONTINUOUS
 10
150.8488415275
 20
268.5377429298
 40
87.51
100
AcDbArc
 50
265.4114342642
 51
267.7405818644
  0
ARC
  5
74D
100
AcDbEntity
  8
RACCORDO
100
AcDbCircle
 62
253
  6
CONTINUOUS
 10
150.8488415275
 20
226.5377429298
 40
3.5933706608
100
AcDbArc
 50
0.0
 51
180.0
  0
ARC
  5
74E
100
AcDbEntity
  8
RACCORDO
100
AcDbCircle
 62
253
  6
CONTINUOUS
 10
150.8488415275
 20
226.5377429298
 40
3.2934192071
100
AcDbArc
 50
0.0
 51
180.0
  0
ARC
  5
74F
100
AcDbEntity
  8
DRAFT
100
AcDbCircle
 62
7
  6
CONTINUOUS
 10
150.8488415275
 20
226.5377429298
 40
3.275
100
AcDbArc
 50
0.0
 51
180.0
  0
ARC
  5
750
100
AcDbEntity
  8
RACCORDO
100
AcDbCircle
 62
7
  6
CONTINUOUS
 10
150.8488415275
 20
226.5377429298
 40
3.25
100
AcDbArc
 50
0.0
 51
180.0
  0
ARC
  5
751
100
AcDbEntity
  8
RACCORDO
100
AcDbCircle
 62
253
  6
CONTINUOUS
 10
150.8488415275
 20
226.5377429298
 40
3.0999967126
100
AcDbArc
 50
0.0
 51
180.0
  0
CIRCLE
  5
752
100
AcDbEntity
  8
0
100
AcDbCircle
 62
7
  6
CONTINUOUS
 10
150.8488415275
 20
226.5377429298
 40
2.0
  0
ARC
  5
753
100
AcDbEntity
  8
RACCORDO
100
AcDbCircle
 62
7
  6
CONTINUOUS
 10
160.2678850269
 20
231.1468906533
 40
1.3
100
AcDbArc
 50
1.5696974765
 51
64.4024568473
  0
ARC
  5
754
100
AcDbEntity
  8
RACCORDO
100
AcDbCircle
 62
253
  6
CONTINUOUS
 10
160.2678851536
 20
231.1468905926
 40
0.8099994842
100
AcDbArc
 50
1.5697002964
 51
64.4024630578
  0
CIRCLE
  5
755
100
AcDbEntity
  8
RACCORDO
100
AcDbCircle
 62
7
  6
CONTINUOUS
 10
139.8488415275
 20
-18.1000045658
 40
4.0000005164
  0
CIRCLE
  5
756
100
AcDbEntity
  8
RACCORDO
100
AcDbCircle
 62
253
  6
CONTINUOUS
 10
139.8488415275
 20
-18.1000045658
 40
2.5717131156
  0
CIRCLE
  5
757
100
AcDbEntity
  8
ASSI
100
AcDbCircle
 62
7
  6
CONTINUOUS
 10
139.8488415275
 20
-18.1000045658
 40
2.5396850198
  0
CIRCLE
  5
758
100
AcDbEntity
  8
RACCORDO
100
AcDbCircle
 62
7
  6
CONTINUOUS
 10
139.8488415275
 20
117.5999954342
 40
4.0000005164
  0
CIRCLE
  5
759
100
AcDbEntity
  8
RACCORDO
100
AcDbCircle
 62
253
  6
CONTINUOUS
 10
139.8488415275
 20
117.5999954342
 40
2.5717131156
  0
CIRCLE
  5
75A
100
AcDbEntity
  8
ASSI
100
AcDbCircle
 62
7
  6
CONTINUOUS
 10
139.8488415275
 20
117.5999954342
 40
2.5396850198
  0
ARC
  5
75B
100
AcDbEntity
  8
0
100
AcDbCircle
 62
7
  6
CONTINUOUS
 10
147.6470525275
 20
88.1796574342
 40
2.4996629358
100
AcDbArc
 50
87.7525298882
 51
272.2474696652
  0
ARC
  5
75C
100
AcDbEntity
  8
0
100
AcDbCircle
 62
7
  6
CONTINUOUS
 10
143.3485035275
 20
88.1796574342
 40
2.4996628181
100
AcDbArc
 50
87.7525302182
 51
272.2474697704
  0
ARC
  5
75D
100
AcDbEntity
  8
0
100
AcDbCircle
 62
7
  6
CONTINUOUS
 10
139.0488415275
 20
126.1999954342
 40
2.25
100
AcDbArc
 50
90.0
 51
270.0
  0
ARC
  5
75E
100
AcDbEntity
  8
RACCORDO
100
AcDbCircle
 62
7
  6
CONTINUOUS
 10
139.0488415275
 20
126.1999954342
 40
2.25
100
AcDbArc
 50
270.0
 51
90.0
  0
ARC
  5
75F
100
AcDbEntity
  8
RACCORDO
100
AcDbCircle
 62
7
  6
CONTINUOUS
 10
141.1488415275
 20
126.1999954342
 40
2.2000008556
100
AcDbArc
 50
269.9999998732
 51
90.000000127
  0
ARC
  5
760
100
AcDbEntity
  8
0
100
AcDbCircle
 62
7
  6
CONTINUOUS
 10
147.6470525275
 20
88.1796574342
 40
1.7644690471
100
AcDbArc
 50
86.8152633552
 51
167.9752909541
  0
ARC
  5
761
100
AcDbEntity
  8
0
100
AcDbCircle
 62
7
  6
CONTINUOUS
 10
143.3485035275
 20
88.1796574342
 40
1.7644690471
100
AcDbArc
 50
86.8152633552
 51
273.1847366267
  0
ARC
  5
762
100
AcDbEntity
  8
0
100
AcDbCircle
 62
7
  6
CONTINUOUS
 10
147.6470525275
 20
88.1796574342
 40
1.7644651216
100
AcDbArc
 50
192.0247024894
 51
273.1847446263
  0
ARC
  5
763
100
AcDbEntity
  8
RACCORDO
100
AcDbCircle
 62
253
  6
CONTINUOUS
 10
141.1488415275
 20
126.1999954342
 40
0.9154753515
100
AcDbArc
 50
270.0
 51
90.0
  0
ARC
  5
764
100
AcDbEntity
  8
C_CALOTTA
100
AcDbCircle
 62
7
  6
CONTINUOUS
 10
150.8488415275
 20
-20.9000045658
 40
7.0
100
AcDbArc
 50
55.1546667628
 51
124.8453332372
  0
ARC
  5
765
100
AcDbEntity
  8
C_CALOTTA
100
AcDbCircle
 62
7
  6
CONTINUOUS
 10
150.8488415275
 20
-20.9000045658
 40
5.25
100
AcDbArc
 50
47.4011289478
 51
132.5988497194
  0
ARC
  5
766
100
AcDbEntity
  8
C_CALOTTA
100
AcDbCircle
 62
7
  6
CONTINUOUS
 10
150.8488415275
 20
-20.9000045658
 40
5.156584437
100
AcDbArc
 50
47.1370017942
 51
132.8629994969
  0
ARC
  5
767
100
AcDbEntity
  8
C_CALOTTA
100
AcDbCircle
 62
253
  6
CONTINUOUS
 10
150.8488415275
 20
-20.9000045658
 40
4.6566034754
100
AcDbArc
 50
45.9994291079
 51
134.0005927189
  0
ARC
  5
768
100
AcDbEntity
  8
RACCORDO
100
AcDbCircle
 62
7
  6
CONTINUOUS
 10
150.8488415275
 20
-15.2000045658
 40
4.0
100
AcDbArc
 50
304.2288663278
 51
235.7711336722
  0
ARC
  5
769
100
AcDbEntity
  8
RACCORDO
100
AcDbCircle
 62
7
  6
CONTINUOUS
 10
150.8488415275
 20
-20.9000045658
 40
3.9000005321
100
AcDbArc
 50
179.9999999681
 51
360.0
  0
ARC
  5
76A
100
AcDbEntity
  8
RACCORDO
100
AcDbCircle
 62
253
  6
CONTINUOUS
 10
150.8488415275
 20
-20.9000045658
 40
2.3999987961
100
AcDbArc
 50
180.0
 51
360.0
  0
ARC
  5
76B
100
AcDbEntity
  8
C_CALOTTA
100
AcDbCircle
 62
7
  6
CONTINUOUS
 10
150.8488415275
 20
-20.9000045658
 40
2.25
100
AcDbArc
 50
5.9778857643
 51
174.0221142357
  0
ARC
  5
76C
100
AcDbEntity
  8
0
100
AcDbCircle
 62
7
  6
CONTINUOUS
 10
150.8488415275
 20
-20.9000045658
 40
2.25
100
AcDbArc
 50
180.0
 51
360.0
  0
ARC
  5
76D
100
AcDbEntity
  8
0
100
AcDbCircle
 62
7
  6
CONTINUOUS
 10
150.8488415275
 20
-5.9000045658
 40
2.6237424326
100
AcDbArc
 50
292.0885381604
 51
273.429666492
  0
ARC
  5
76E
100
AcDbEntity
  8
0
100
AcDbCircle
 62
7
  6
CONTINUOUS
 10
150.7694845275
 20
-10.8460975658
 40
2.3390187052
100
AcDbArc
 50
47.2312712626
 51
84.2013543562
  0
ARC
  5
76F
100
AcDbEntity
  8
0
100
AcDbCircle
 62
7
  6
CONTINUOUS
 10
150.9535635275
 20
-10.4672285658
 40
2.3109495123
100
AcDbArc
 50
45.4348886633
 51
67.5658630123
  0
CIRCLE
  5
770
100
AcDbEntity
  8
0
100
AcDbCircle
 62
7
  6
CONTINUOUS
 10
150.8488415275
 20
-5.9000045658
 40
2.20376
  0
ARC
  5
771
100
AcDbEntity
  8
0
100
AcDbCircle
 62
7
  6
CONTINUOUS
 10
150.8488415275
 20
-5.9000045658
 40
1.9709567246
100
AcDbArc
 50
299.3041457634
 51
44.9957848492
  0
ARC
  5
772
100
AcDbEntity
  8
0
100
AcDbCircle
 62
7
  6
CONTINUOUS
 10
150.8488415275
 20
-5.9000045658
 40
1.9709563643
100
AcDbArc
 50
134.9002846268
 51
240.6958542366
  0
ARC
  5
773
100
AcDbEntity
  8
0
100
AcDbCircle
 62
7
  6
CONTINUOUS
 10
150.8488415275
 20
-5.9000045658
 40
1.5790921275
100
AcDbArc
 50
148.0267086216
 51
240.6958772397
  0
ARC
  5
774
100
AcDbEntity
  8
0
100
AcDbCircle
 62
7
  6
CONTINUOUS
 10
150.8488415275
 20
-5.9000045658
 40
1.5790919977
100
AcDbArc
 50
299.3041227603
 51
31.9732906835
  0
CIRCLE
  5
775
100
AcDbEntity
  8
RACCORDO
100
AcDbCircle
 62
7
  6
CONTINUOUS
 10
161.8488415275
 20
-18.1000045658
 40
4.0000005164
  0
CIRCLE
  5
776
100
AcDbEntity
  8
RACCORDO
100
AcDbCircle
 62
253
  6
CONTINUOUS
 10
161.8488415275
 20
-18.1000045658
 40
2.5717131156
  0
CIRCLE
  5
777
100
AcDbEntity
  8
ASSI
100
AcDbCircle
 62
7
  6
CONTINUOUS
 10
161.8488415275
 20
-18.1000045658
 40
2.5396850198
  0
ARC
  5
778
100
AcDbEntity
  8
RACCORDO
100
AcDbCircle
 62
7
  6
CONTINUOUS
 10
150.8488415275
 20
56.0999954342
 40
80.0
100
AcDbArc
 50
95.6996566104
 51
102.9466912194
  0
ARC
  5
779
100
AcDbEntity
  8
RACCORDO
100
AcDbCircle
 62
7
  6
CONTINUOUS
 10
150.8488415275
 20
56.0999954342
 40
80.0
100
AcDbArc
 50
77.0533087362
 51
84.3003433896
  0
ARC
  5
77A
100
AcDbEntity
  8
C_CALOTTA
100
AcDbCircle
 62
7
  6
CONTINUOUS
 10
150.8488415275
 20
56.0999954342
 40
79.927065658
100
AcDbArc
 50
87.0971851347
 51
87.848934139
  0
ARC
  5
77B
100
AcDbEntity
  8
C_CALOTTA
100
AcDbCircle
 62
7
  6
CONTINUOUS
 10
150.8488415275
 20
56.0999954342
 40
79.927065658
100
AcDbArc
 50
92.151065892
 51
92.9028148612
  0
ARC
  5
77C
100
AcDbEntity
  8
RACCORDO
100
AcDbCircle
 62
253
  6
CONTINUOUS
 10
150.8488415275
 20
56.0999954342
 40
79.9227322462
100
AcDbArc
 50
77.0991267127
 51
82.8697886595
  0
ARC
  5
77D
100
AcDbEntity
  8
RACCORDO
100
AcDbCircle
 62
253
  6
CONTINUOUS
 10
150.8488415275
 20
56.0999954342
 40
79.9227322462
100
AcDbArc
 50
97.1302102089
 51
102.9008732873
  0
ARC
  5
77E
100
AcDbEntity
  8
0
100
AcDbCircle
 62
7
  6
CONTINUOUS
 10
150.8488415275
 20
56.0999954342
 40
79.860315035
100
AcDbArc
 50
87.7034260568
 51
92.296573937
  0
ARC
  5
77F
100
AcDbEntity
  8
RACCORDO
100
AcDbCircle
 62
253
  6
CONTINUOUS
 10
150.8488415275
 20
56.0999954342
 40
79.7724056397
100
AcDbArc
 50
87.6856933934
 51
92.3143066066
  0
ARC
  5
780
100
AcDbEntity
  8
RACCORDO
100
AcDbCircle
 62
253
  6
CONTINUOUS
 10
150.8488415275
 20
56.0999954342
 40
79.3381641545
100
AcDbArc
 50
77.0991267104
 51
82.7863724034
  0
ARC
  5
781
100
AcDbEntity
  8
RACCORDO
100
AcDbCircle
 62
253
  6
CONTINUOUS
 10
150.8488415275
 20
56.0999954342
 40
79.3381641545
100
AcDbArc
 50
97.2136147112
 51
102.9008732896
  0
ARC
  5
782
100
AcDbEntity
  8
RACCORDO
100
AcDbCircle
 62
253
  6
CONTINUOUS
 10
150.8488415275
 20
56.0999954342
 40
79.2727102245
100
AcDbArc
 50
87.6856933934
 51
92.3143066066
  0
ARC
  5
783
100
AcDbEntity
  8
RACCORDO
100
AcDbCircle
 62
253
  6
CONTINUOUS
 10
150.8488415275
 20
56.0999954342
 40
76.4810241292
100
AcDbArc
 50
78.6691910042
 51
85.0649630687
  0
ARC
  5
784
100
AcDbEntity
  8
RACCORDO
100
AcDbCircle
 62
253
  6
CONTINUOUS
 10
150.8488415275
 20
56.0999954342
 40
76.4810241292
100
AcDbArc
 50
94.9350369313
 51
101.3308089908
  0
ARC
  5
785
100
AcDbEntity
  8
RACCORDO
100
AcDbCircle
 62
253
  6
CONTINUOUS
 10
150.8488415275
 20
56.0999954342
 40
75.0668105668
100
AcDbArc
 50
92.444050929
 51
101.3308083171
  0
ARC
  5
786
100
AcDbEntity
  8
RACCORDO
100
AcDbCircle
 62
253
  6
CONTINUOUS
 10
150.8488415275
 20
56.0999954342
 40
75.0668105668
100
AcDbArc
 50
78.6691916832
 51
87.555949071
  0
ARC
  5
787
100
AcDbEntity
  8
RACCORDO
100
AcDbCircle
 62
7
  6
CONTINUOUS
 10
150.8488415275
 20
90.0999954342
 40
120.0
100
AcDbArc
 50
261.5208664064
 51
278.4791335621
  0
ARC
  5
788
100
AcDbEntity
  8
RACCORDO
100
AcDbCircle
 62
253
  6
CONTINUOUS
 10
150.8488415275
 20
90.0999954342
 40
119.9227322503
100
AcDbArc
 50
261.5535018982
 51
278.4464981018
  0
ARC
  5
789
100
AcDbEntity
  8
RACCORDO
100
AcDbCircle
 62
253
  6
CONTINUOUS
 10
150.8488415275
 20
90.0999954342
 40
119.3381653361
100
AcDbArc
 50
261.5535018976
 51
278.4464981024
  0
ARC
  5
78A
100
AcDbEntity
  8
RACCORDO
100
AcDbCircle
 62
253
  6
CONTINUOUS
 10
150.8488415275
 20
90.0999954342
 40
116.4810276294
100
AcDbArc
 50
262.6602802041
 51
277.3397197969
  0
ARC
  5
78B
100
AcDbEntity
  8
RACCORDO
100
AcDbCircle
 62
253
  6
CONTINUOUS
 10
150.8488415275
 20
90.0999954342
 40
115.0668174066
100
AcDbArc
 50
262.6602802
 51
277.3397198
  0
ARC
  5
78C
100
AcDbEntity
  8
0
100
AcDbCircle
 62
7
  6
CONTINUOUS
 10
160.0137851168
 20
85.0456627653
 40
0.6802625679
100
AcDbArc
 50
85.0000000007
 51
176.7241710433
  0
ARC
  5
78D
100
AcDbEntity
  8
0
100
AcDbCircle
 62
7
  6
CONTINUOUS
 10
160.0137851168
 20
85.0456627653
 40
0.6802625679
100
AcDbArc
 50
183.2758289651
 51
78.4375721268
  0
CIRCLE
  5
78E
100
AcDbEntity
  8
0
100
AcDbCircle
 62
7
  6
CONTINUOUS
 10
160.0137851168
 20
85.0456627653
 40
0.3887214674
  0
CIRCLE
  5
78F
100
AcDbEntity
  8
0
100
AcDbCircle
 62
7
  6
CONTINUOUS
 10
160.0137851168
 20
85.0456627653
 40
0.2332328804
  0
ARC
  5
790
100
AcDbEntity
  8
0
100
AcDbCircle
 62
7
  6
CONTINUOUS
 10
158.6338239079
 20
87.0670143957
 40
4.0815754075
100
AcDbArc
 50
104.6184495315
 51
108.0305353973
  0
ARC
  5
791
100
AcDbEntity
  8
0
100
AcDbCircle
 62
7
  6
CONTINUOUS
 10
158.6338239079
 20
87.0670143957
 40
4.0815754075
100
AcDbArc
 50
78.1844384647
 51
90.8185389825
  0
ARC
  5
792
100
AcDbEntity
  8
0
100
AcDbCircle
 62
7
  6
CONTINUOUS
 10
158.6338239079
 20
87.0670143957
 40
4.0815754075
100
AcDbArc
 50
66.1507332733
 51
77.0671162417
  0
ARC
  5
793
100
AcDbEntity
  8
0
100
AcDbCircle
 62
7
  6
CONTINUOUS
 10
158.6338239079
 20
87.0670143957
 40
4.0815754075
100
AcDbArc
 50
91.9102131755
 51
103.4933988255
  0
ARC
  5
794
100
AcDbEntity
  8
0
100
AcDbCircle
 62
7
  6
CONTINUOUS
 10
158.6338239079
 20
87.0670143957
 40
4.0815754075
100
AcDbArc
 50
109.1820899458
 51
112.611019507
  0
ARC
  5
795
100
AcDbEntity
  8
0
100
AcDbCircle
 62
7
  6
CONTINUOUS
 10
158.6338239079
 20
87.0670143957
 40
4.003831114
100
AcDbArc
 50
77.9516018919
 51
90.8344340564
  0
ARC
  5
796
100
AcDbEntity
  8
0
100
AcDbCircle
 62
7
  6
CONTINUOUS
 10
158.6338239079
 20
87.0670143957
 40
4.003831114
100
AcDbArc
 50
66.0805437171
 51
76.8115068232
  0
ARC
  5
797
100
AcDbEntity
  8
0
100
AcDbCircle
 62
7
  6
CONTINUOUS
 10
158.6338239079
 20
87.0670143957
 40
4.003831114
100
AcDbArc
 50
91.9473188457
 51
103.7605107168
  0
ARC
  5
798
100
AcDbEntity
  8
0
100
AcDbCircle
 62
7
  6
CONTINUOUS
 10
158.6338239079
 20
87.0670143957
 40
4.003831114
100
AcDbArc
 50
109.5695860588
 51
111.7987285503
  0
ARC
  5
799
100
AcDbEntity
  8
0
100
AcDbCircle
 62
7
  6
CONTINUOUS
 10
158.6338239079
 20
87.0670143957
 40
4.003831114
100
AcDbArc
 50
104.9088200772
 51
108.3930527202
  0
CIRCLE
  5
79A
100
AcDbEntity
  8
RACCORDO
100
AcDbCircle
 62
7
  6
CONTINUOUS
 10
161.8488415275
 20
117.5999954342
 40
4.0000005164
  0
CIRCLE
  5
79B
100
AcDbEntity
  8
RACCORDO
100
AcDbCircle
 62
253
  6
CONTINUOUS
 10
161.8488415275
 20
117.5999954342
 40
2.5717131156
  0
CIRCLE
  5
79C
100
AcDbEntity
  8
ASSI
100
AcDbCircle
 62
7
  6
CONTINUOUS
 10
161.8488415275
 20
117.5999954342
 40
2.5396850198
  0
ARC
  5
79D
100
AcDbEntity
  8
ASSI
100
AcDbCircle
 62
7
  6
CONTINUOUS
 10
157.5069545275
 20
107.4653424342
 40
1.1347395105
100
AcDbArc
 50
292.8428585528
 51
89.999026683
  0
ARC
  5
79E
100
AcDbEntity
  8
ASSI
100
AcDbCircle
 62
7
  6
CONTINUOUS
 10
157.4042395275
 20
107.4653424342
 40
0.450208
100
AcDbArc
 50
270.001672766
 51
90.0005575837
  0
ARC
  5
79F
100
AcDbEntity
  8
0
100
AcDbCircle
 62
7
  6
CONTINUOUS
 10
160.5968673179
 20
90.6432518956
 40
0.3498493206
100
AcDbArc
 50
166.1529242237
 51
192.8395884443
  0
ARC
  5
7A0
100
AcDbEntity
  8
0
100
AcDbCircle
 62
7
  6
CONTINUOUS
 10
160.5968673179
 20
90.6432518956
 40
0.3498493206
100
AcDbArc
 50
303.7489886024
 51
153.3682175373
  0
ENDSEC
  0
SECTION
  2
OBJECTS
  0
DICTIONARY
  5
C
100
AcDbDictionary
280
0
281
1
  3
ACAD_GROUP
350
D
  3
ACAD_MLINESTYLE
350
17
  3
ACAD_LAYOUT
350
1A
  3
ACAD_PLOTSETTINGS
350
19
  3
ACAD_PLOTSTYLENAME
350
E
  0
DICTIONARY
  5
D
102
{ACAD_REACTORS
330
C
102
}
100
AcDbDictionary
280
0
281
1
  0
ACDBDICTIONARYWDFLT
  5
E
102
{ACAD_REACTORS
330
C
102
}
100
AcDbDictionary
281
1
  3
Normal
350
F
100
AcDbDictionaryWithDefault
340
F
  0
DICTIONARY
  5
17
102
{ACAD_REACTORS
330
C
102
}
100
AcDbDictionary
280
0
281
1
  3
Standard
350
18
  0
DICTIONARY
  5
19
102
{ACAD_REACTORS
330
C
102
}
100
AcDbDictionary
281
1
  0
DICTIONARY
  5
1A
102
{ACAD_REACTORS
330
C
102
}
100
AcDbDictionary
281
1
  3
Model
350
7A1
  3
Layout1
350
7A2
  0
ACDBPLACEHOLDER
  5
F
102
{ACAD_REACTORS
330
E
102
}
  0
MLINESTYLE
  5
18
102
{ACAD_REACTORS
330
17
102
}
100
AcDbMlineStyle
  2
STANDARD
 70
0
  3

 62
256
 51
90.0
 52
90.0
 71
2
 49
0.5
 62
256
  6
BYLAYER
 49
-0.5
 62
256
  6
BYLAYER
  0
LAYOUT
  5
7A1
102
{ACAD_REACTORS
330
1A
102
}
100
AcDbPlotSettings
  1

  2
none_device
  4
ISO_A4_(297.00_x_210.00_MM)
  6

 40
0.0
 41
0.0
 42
0.0
 43
0.0
 44
297.0
 45
210.0
 46
0.0
 47
0.0
 48
0.0
 49
0.0
140
0.0
141
0.0
142
1.0
143
1.0
 70
1024
 72
1
 73
0
 74
0
  7

 75
0
147
1.0
148
0.0
149
0.0
100
AcDbLayout
  1
Model
 70
0
 71
0
 10
0.0
 20
0.0
 11
297.0
 21
210.0
 12
0.0
 22
0.0
 32
0.0
 14
0.0
 24
0.0
 34
0.0
 15
0.0
 25
0.0
 35
0.0
146
0.0
 13
0.0
 23
0.0
 33
0.0
 16
1.0
 26
0.0
 36
0.0
 17
0.0
 27
1.0
 37
0.0
 76
0
330
21C
345
0
346
0
  0
LAYOUT
  5
7A2
102
{ACAD_REACTORS
330
1A
102
}
100
AcDbPlotSettings
  1

  2
none_device
  4
ISO_A4_(297.00_x_210.00_MM)
  6

 40
0.0
 41
0.0
 42
0.0
 43
0.0
 44
297.0
 45
210.0
 46
0.0
 47
0.0
 48
0.0
 49
0.0
140
0.0
141
0.0
142
1.0
143
1.0
 70
0
 72
1
 73
0
 74
0
  7

 75
0
147
1.0
148
0.0
149
0.0
100
AcDbLayout
  1
Layout1
 70
0
 71
1
 10
0.0
 20
0.0
 11
297.0
 21
210.0
 12
0.0
 22
0.0
 32
0.0
 14
0.0
 24
0.0
 34
0.0
 15
0.0
 25
0.0
 35
0.0
146
0.0
 13
0.0
 23
0.0
 33
0.0
 16
1.0
 26
0.0
 36
0.0
 17
0.0
 27
1.0
 37
0.0
 76
0
330
21D
345
0
346
0
  0
ENDSEC
  0
EOF
