  0
SECTION
  2
HEADER
  9
$ACADVER
  1
AC1024
  9
$DWGCODEPAGE
  3
ANSI_1252
  9
$EXTMAX
 10
297.0
 20
210.0
 30
0.0
  9
$EXTMIN
 10
0.0
 20
0.0
 30
0.0
  9
$LIMMIN
 10
0.0
 20
0.0
  9
$LIMMAX
 10
297.0
 20
210.0
  9
$VIEWCTR
 10
148.5
 20
105.0
  9
$VIEWSIZE
 40
210.0
  9
$CLAYER
  8
0
  9
$LTSCALE
 40
16.335
  9
$CELTYPE
  6
BYLAYER
  9
$DIMSCALE
 40
1.0
  9
$DIMASZ
 40
3.0
  9
$DIMEXO
 40
0.5
  9
$DIMDLI
 40
11.286
  9
$DIMEXE
 40
1.5
  9
$DIMCEN
 40
2.673
  9
$DIMLFAC
 40
1.0
  9
$DIMBLK
  1
_FILLED
  9
$DIMALT
 70
0
  9
$DIMALTF
 40
0.0393700787
  9
$DIMTXT
 40
3.0
  9
$DIMTOL
 70
1
  9
$DIMLIM
 70
0
  9
$DIMTFAC
 40
1.0
  9
$DIMTP
 40
0.01
  9
$DIMTM
 40
0.01
  9
$DIMGAP
 40
0.625
  9
$DIMDSEP
 70
44
  9
$AUNITS
 70
0
  9
$PDMODE
 70
3
  9
$PDSIZE
 40
3.0
  9
$HANDSEED
  5
62F
  9
$TILEMODE
 70
1
  9
$MEASUREMENT
 70
1
  9
$INSUNITS
 70
4
  0
ENDSEC
  0
SECTION
  2
CLASSES
  0
CLASS
  1
ACDBDICTIONARYWDFLT
  2
AcDbDictionaryWithDefault
  3
AutoCAD 2000
 90
0
 91
1
280
0
281
0
  0
CLASS
  1
ACDBPLACEHOLDER
  2
AcDbPlaceHolder
  3
AutoCAD 2000
 90
0
 91
1
280
0
281
0
  0
CLASS
  1
LAYOUT
  2
AcDbLayout
  3
AutoCAD 2000
 90
0
 91
0
280
0
281
0
  0
ENDSEC
  0
SECTION
  2
TABLES
  0
TABLE
  2
VPORT
  5
8
100
AcDbSymbolTable
 70
2
  0
VPORT
  5
1F4
100
AcDbSymbolTableRecord
100
AcDbViewportTableRecord
  2
*ACTIVE
 70
0
 10
0.0
 20
0.0
 11
1.0
 21
1.0
 12
148.5
 22
105.0
 13
0.0
 23
0.0
 14
1.0
 24
1.0
 15
0.0
 25
0.0
 16
0.0
 26
0.0
 36
1.0
 17
0.0
 27
0.0
 37
0.0
 40
210.0
 41
1.4142857143
 42
50.0
 43
0.0
 44
0.0
 50
0.0
 51
0.0
 71
0
 72
100
 73
1
 74
1
 75
0
 76
0
 77
0
 78
0
  0
ENDTAB
  0
TABLE
  2
LTYPE
  5
5
100
AcDbSymbolTable
 70
6
  0
LTYPE
  5
14
100
AcDbSymbolTableRecord
100
AcDbLinetypeTableRecord
  2
BYBLOCK
 70
0
  3

 72
65
 73
0
 40
0.0
  0
LTYPE
  5
15
100
AcDbSymbolTableRecord
100
AcDbLinetypeTableRecord
  2
BYLAYER
 70
0
  3

 72
65
 73
0
 40
0.0
  0
LTYPE
  5
16
100
AcDbSymbolTableRecord
100
AcDbLinetypeTableRecord
  2
CONTINUOUS
 70
64
  3
Solid line
 72
65
 73
0
 40
0.0
  0
LTYPE
  5
1F5
100
AcDbSymbolTableRecord
100
AcDbLinetypeTableRecord
  2
CENTER
 70
64
  3
____ _ ____ _ ____ _ ____ _ ____ _ ____ _ ____
 72
65
 73
4
 40
0.6
 49
0.375
 74
0
 49
-0.075
 74
0
 49
0.075
 74
0
 49
-0.075
 74
0
  0
LTYPE
  5
1F6
100
AcDbSymbolTableRecord
100
AcDbLinetypeTableRecord
  2
HIDDEN
 70
64
  3
- - - - - - - - - - - - - - - - - - - -
 72
65
 73
2
 40
0.2
 49
0.1
 74
0
 49
-0.1
 74
0
  0
LTYPE
  5
1F7
100
AcDbSymbolTableRecord
100
AcDbLinetypeTableRecord
  2
PHANTOM
 70
64
  3
_____ _ _ _____ _ _ _____ _ _ _____
 72
65
 73
6
 40
0.8
 49
0.45
 74
0
 49
-0.05
 74
0
 49
0.1
 74
0
 49
-0.05
 74
0
 49
0.1
 74
0
 49
-0.05
 74
0
  0
LTYPE
  5
1F8
100
AcDbSymbolTableRecord
100
AcDbLinetypeTableRecord
  2
DOT
 70
64
  3
. . . . . . . . . . . . . . . . . . . .
 72
65
 73
2
 40
0.2
 49
0.1
 74
0
 49
-0.1
 74
0
  0
LTYPE
  5
1F9
100
AcDbSymbolTableRecord
100
AcDbLinetypeTableRecord
  2
DASHED
 70
64
  3
- - - - - - - - - - - - - - - - - - - -
 72
65
 73
2
 40
0.2
 49
0.1
 74
0
 49
-0.1
 74
0
  0
ENDTAB
  0
TABLE
  2
LAYER
  5
2
100
AcDbSymbolTable
 70
36
  0
LAYER
  5
10
100
AcDbSymbolTableRecord
100
AcDbLayerTableRecord
  2
0
 70
0
 62
7
  6
CONTINUOUS
370
-3
390
F
  0
LAYER
  5
1FA
100
AcDbSymbolTableRecord
100
AcDbLayerTableRecord
  2
DEFAULT_1
 70
0
 62
7
  6
CENTER
370
-3
390
F
  0
LAYER
  5
1FB
100
AcDbSymbolTableRecord
100
AcDbLayerTableRecord
  2
DEFAULT_2
 70
0
 62
7
  6
HIDDEN
370
-3
390
F
  0
LAYER
  5
1FC
100
AcDbSymbolTableRecord
100
AcDbLayerTableRecord
  2
DEFAULT_3
 70
0
 62
7
  6
PHANTOM
370
-3
390
F
  0
LAYER
  5
1FD
100
AcDbSymbolTableRecord
100
AcDbLayerTableRecord
  2
ASSI
 70
0
 62
7
  6
CONTINUOUS
370
-3
390
F
  0
LAYER
  5
1FE
100
AcDbSymbolTableRecord
100
AcDbLayerTableRecord
  2
COORDINATE
 70
0
 62
7
  6
CONTINUOUS
370
-3
390
F
  0
LAYER
  5
1FF
100
AcDbSymbolTableRecord
100
AcDbLayerTableRecord
  2
COPY_PUBLISH
 70
0
 62
7
  6
CONTINUOUS
370
-3
390
F
  0
LAYER
  5
200
100
AcDbSymbolTableRecord
100
AcDbLayerTableRecord
  2
COSMETICI
 70
0
 62
7
  6
CONTINUOUS
370
-3
390
F
  0
LAYER
  5
201
100
AcDbSymbolTableRecord
100
AcDbLayerTableRecord
  2
CURVE
 70
0
 62
7
  6
CONTINUOUS
370
-3
390
F
  0
LAYER
  5
202
100
AcDbSymbolTableRecord
100
AcDbLayerTableRecord
  2
DRAFT
 70
0
 62
7
  6
CONTINUOUS
370
-3
390
F
  0
LAYER
  5
203
100
AcDbSymbolTableRecord
100
AcDbLayerTableRecord
  2
IMPORT_IGES
 70
0
 62
7
  6
CONTINUOUS
370
-3
390
F
  0
LAYER
  5
204
100
AcDbSymbolTableRecord
100
AcDbLayerTableRecord
  2
NOTE
 70
0
 62
7
  6
CONTINUOUS
370
-3
390
F
  0
LAYER
  5
205
100
AcDbSymbolTableRecord
100
AcDbLayerTableRecord
  2
PIANI
 70
0
 62
7
  6
CONTINUOUS
370
-3
390
F
  0
LAYER
  5
206
100
AcDbSymbolTableRecord
100
AcDbLayerTableRecord
  2
PUNTI
 70
0
 62
7
  6
CONTINUOUS
370
-3
390
F
  0
LAYER
  5
207
100
AcDbSymbolTableRecord
100
AcDbLayerTableRecord
  2
RACCORDO
 70
0
 62
7
  6
CONTINUOUS
370
-3
390
F
  0
LAYER
  5
208
100
AcDbSymbolTableRecord
100
AcDbLayerTableRecord
  2
SIMBOLI
 70
0
 62
7
  6
CONTINUOUS
370
-3
390
F
  0
LAYER
  5
209
100
AcDbSymbolTableRecord
100
AcDbLayerTableRecord
  2
SMUSSO
 70
0
 62
7
  6
CONTINUOUS
370
-3
390
F
  0
LAYER
  5
20A
100
AcDbSymbolTableRecord
100
AcDbLayerTableRecord
  2
SUPERFICI
 70
0
 62
7
  6
CONTINUOUS
370
-3
390
F
  0
LAYER
  5
20B
100
AcDbSymbolTableRecord
100
AcDbLayerTableRecord
  2
TRASH
 70
0
 62
7
  6
CONTINUOUS
370
-3
390
F
  0
ENDTAB
  0
TABLE
  2
STYLE
  5
3
100
AcDbSymbolTable
 70
1
  0
STYLE
  5
11
100
AcDbSymbolTableRecord
100
AcDbTextStyleTableRecord
  2
STANDARD
 70
0
 40
0.0
 41
0.8
 50
0.0
 71
0
 42
0.2
  3
txt
  4

  0
STYLE
  5
20C
100
AcDbSymbolTableRecord
100
AcDbTextStyleTableRecord
  2
TEXTSTYLE_1
 70
0
 40
0.0
 41
0.8
 50
0.0
 71
0
 42
0.2
  3
gdt
  4

  0
ENDTAB
  0
TABLE
  2
VIEW
  5
6
100
AcDbSymbolTable
 70
0
  0
ENDTAB
  0
TABLE
  2
UCS
  5
7
100
AcDbSymbolTable
 70
0
  0
ENDTAB
  0
TABLE
  2
APPID
  5
9
100
AcDbSymbolTable
 70
1
  0
APPID
  5
20D
100
AcDbSymbolTableRecord
100
AcDbRegAppTableRecord
  2
ACAD
 70
0
  0
ENDTAB
  0
TABLE
  2
BLOCK_RECORD
  5
1
100
AcDbSymbolTable
 70
0
  0
BLOCK_RECORD
  5
20E
100
AcDbSymbolTableRecord
100
AcDbBlockTableRecord
  2
*Model_Space
  0
BLOCK_RECORD
  5
20F
100
AcDbSymbolTableRecord
100
AcDbBlockTableRecord
  2
*Paper_Space
  0
BLOCK_RECORD
  5
210
100
AcDbSymbolTableRecord
100
AcDbBlockTableRecord
  2
_FILLED
  0
ENDTAB
  0
TABLE
  2
DIMSTYLE
  5
A
100
AcDbSymbolTable
 70
1
100
AcDbDimStyleTable
 71
0
  0
DIMSTYLE
105
211
100
AcDbSymbolTableRecord
100
AcDbDimStyleTableRecord
  2
STANDARD
 70
0
  3

  4

 40
1.0
 41
3.0
 42
0.5
 43
0.38
 44
1.5
 45
0.0
 46
0.0
 47
0.01
 48
0.01
140
3.0
141
0.09
142
0.0
143
25.4
144
1.0
145
0.0
146
1.0
147
0.625
 71
1.0
 72
0.0
 73
0
 74
0
 75
0
 76
0
 77
1
 78
8
 79
2
170
0
171
1
172
0
173
0
174
0
175
0
176
0
177
0
178
0
270
2
179
2
271
2
272
2
273
2
274
2
275
0
280
0
281
0
282
0
283
1
284
8
285
0
286
0
287
3
288
0
340
11
278
44
341
210
342
210
343
210
344
210
  0
ENDTAB
  0
ENDSEC
  0
SECTION
  2
BLOCKS
  0
BLOCK
  5
20
100
AcDbEntity
  8
0
100
AcDbBlockBegin
  2
*Model_Space
 70
0
 10
0.0
 20
0.0
 30
0.0
  3
*Model_Space
  1

  0
ENDBLK
  5
21
100
AcDbEntity
  8
0
100
AcDbBlockEnd
  0
BLOCK
  5
1C
100
AcDbEntity
  8
0
100
AcDbBlockBegin
  2
*Paper_Space
 70
0
 10
0.0
 20
0.0
 30
0.0
  3
*Paper_Space
  1

  0
ENDBLK
  5
1D
100
AcDbEntity
  8
0
100
AcDbBlockEnd
  0
BLOCK
  5
212
100
AcDbEntity
  8
0
100
AcDbBlockBegin
  2
_FILLED
 70
64
 10
0.0
 20
0.0
  3
_FILLED
  1

  0
SOLID
  5
213
100
AcDbEntity
  8
0
  6
BYBLOCK
 62
0
100
AcDbTrace
 10
0.0
 20
0.0
 11
-1.0
 21
0.3166666667
 12
-1.0
 22
-0.3166666667
 13
-1.0
 23
-0.3166666667
  0
ENDBLK
  5
214
100
AcDbEntity
  8
0
  6
BYBLOCK
 62
0
100
AcDbBlockEnd
  0
ENDSEC
  0
SECTION
  2
ENTITIES
  0
LINE
  5
215
100
AcDbEntity
  8
RACCORDO
100
AcDbLine
 62
7
  6
CONTINUOUS
 10
105.7418420632
 20
157.8121757928
 11
105.7276952315
 21
157.7980289611
  0
LINE
  5
216
100
AcDbEntity
  8
RACCORDO
100
AcDbLine
 62
250
  6
CONTINUOUS
 10
106.9271136194
 20
156.2735918702
 11
106.9412604511
 21
156.2877387019
  0
LINE
  5
217
100
AcDbEntity
  8
RACCORDO
100
AcDbLine
 62
250
  6
CONTINUOUS
 10
107.1770755432
 20
156.0236299464
 11
107.1912223749
 21
156.0377767781
  0
LINE
  5
218
100
AcDbEntity
  8
RACCORDO
100
AcDbLine
 62
7
  6
CONTINUOUS
 10
105.7418420632
 20
56.2735918702
 11
105.7276952315
 21
56.2877387019
  0
LINE
  5
219
100
AcDbEntity
  8
RACCORDO
100
AcDbLine
 62
250
  6
CONTINUOUS
 10
106.9412604511
 20
57.7980289611
 11
106.9271136194
 21
57.8121757928
  0
LINE
  5
21A
100
AcDbEntity
  8
RACCORDO
100
AcDbLine
 62
250
  6
CONTINUOUS
 10
107.1912223749
 20
58.0479908849
 11
107.1770755432
 21
58.0621377166
  0
LINE
  5
21B
100
AcDbEntity
  8
RACCORDO
100
AcDbLine
 62
7
  6
CONTINUOUS
 10
107.2223216446
 20
49.9928838315
 11
179.2227785592
 21
49.9928838315
  0
LINE
  5
21C
100
AcDbEntity
  8
RACCORDO
100
AcDbLine
 62
7
  6
CONTINUOUS
 10
107.2467587355
 20
50.0173209224
 11
179.1983414683
 21
50.0173209224
  0
LINE
  5
21D
100
AcDbEntity
  8
RACCORDO
100
AcDbLine
 62
250
  6
CONTINUOUS
 10
178.9689278736
 20
51.1965898275
 11
107.4761723302
 21
51.1965898275
  0
LINE
  5
21E
100
AcDbEntity
  8
RACCORDO
100
AcDbLine
 62
250
  6
CONTINUOUS
 10
178.9689278736
 20
51.4465517512
 11
107.4761723302
 21
51.4465517512
  0
LINE
  5
21F
100
AcDbEntity
  8
RACCORDO
100
AcDbLine
 62
250
  6
CONTINUOUS
 10
178.9260258798
 20
51.4894537451
 11
107.519074324
 21
51.4894537451
  0
LINE
  5
220
100
AcDbEntity
  8
RACCORDO
100
AcDbLine
 62
250
  6
CONTINUOUS
 10
178.9260258798
 20
51.6894232841
 11
107.519074324
 21
51.6894232841
  0
LINE
  5
221
100
AcDbEntity
  8
RACCORDO
100
AcDbLine
 62
250
  6
CONTINUOUS
 10
179.518844106
 20
51.7465060598
 11
179.2688821822
 21
51.7465060598
  0
LINE
  5
222
100
AcDbEntity
  8
RACCORDO
100
AcDbLine
 62
250
  6
CONTINUOUS
 10
106.9262560978
 20
51.7465060598
 11
107.1762180216
 21
51.7465060598
  0
LINE
  5
223
100
AcDbEntity
  8
RACCORDO
100
AcDbLine
 62
250
  6
CONTINUOUS
 10
107.4190895545
 20
51.7894080537
 11
107.2191200155
 21
51.7894080537
  0
LINE
  5
224
100
AcDbEntity
  8
RACCORDO
100
AcDbLine
 62
250
  6
CONTINUOUS
 10
179.0260106493
 20
51.7894080537
 11
179.2259801883
 21
51.7894080537
  0
LINE
  5
225
100
AcDbEntity
  8
RACCORDO
100
AcDbLine
 62
250
  6
CONTINUOUS
 10
176.2193484728
 20
52.9963443789
 11
110.225751731
 21
52.9963443789
  0
LINE
  5
226
100
AcDbEntity
  8
RACCORDO
100
AcDbLine
 62
250
  6
CONTINUOUS
 10
176.2193484728
 20
53.1963139179
 11
110.225751731
 21
53.1963139179
  0
LINE
  5
227
100
AcDbEntity
  8
RACCORDO
100
AcDbLine
 62
250
  6
CONTINUOUS
 10
110.2503106751
 20
53.220872862
 11
176.1947895287
 21
53.220872862
  0
LINE
  5
228
100
AcDbEntity
  8
RACCORDO
100
AcDbLine
 62
250
  6
CONTINUOUS
 10
110.2503106751
 20
53.420842401
 11
176.1947895287
 21
53.420842401
  0
LINE
  5
229
100
AcDbEntity
  8
RACCORDO
100
AcDbLine
 62
250
  6
CONTINUOUS
 10
180.698113011
 20
53.9736375617
 11
179.2688821822
 21
53.9736375617
  0
LINE
  5
22A
100
AcDbEntity
  8
0
100
AcDbLine
 62
7
  6
CONTINUOUS
 10
110.3225501019
 20
54.034115612
 11
110.4767957846
 21
54.0341096083
  0
LINE
  5
22B
100
AcDbEntity
  8
0
100
AcDbLine
 62
7
  6
CONTINUOUS
 10
175.9683044192
 20
54.0341096083
 11
176.1225501019
 21
54.034115612
  0
LINE
  5
22C
100
AcDbEntity
  8
0
100
AcDbLine
 62
250
  6
CONTINUOUS
 10
110.3225501019
 20
54.1569376635
 11
176.1225501019
 21
54.1569376635
  0
LINE
  5
22D
100
AcDbEntity
  8
RACCORDO
100
AcDbLine
 62
250
  6
CONTINUOUS
 10
180.7032581406
 20
54.2735918702
 11
179.5179865844
 21
54.2735918702
  0
LINE
  5
22E
100
AcDbEntity
  8
RACCORDO
100
AcDbLine
 62
250
  6
CONTINUOUS
 10
180.7174049723
 20
54.2877387019
 11
179.5038397527
 21
54.2877387019
  0
LINE
  5
22F
100
AcDbEntity
  8
0
100
AcDbLine
 62
250
  6
CONTINUOUS
 10
110.3225501019
 20
54.4288299996
 11
176.1225501019
 21
54.4288299996
  0
LINE
  5
230
100
AcDbEntity
  8
0
100
AcDbLine
 62
7
  6
CONTINUOUS
 10
110.3225501019
 20
54.551652051
 11
110.4767957846
 21
54.5516580548
  0
LINE
  5
231
100
AcDbEntity
  8
0
100
AcDbLine
 62
7
  6
CONTINUOUS
 10
175.9683044192
 20
54.5516580548
 11
176.1225501019
 21
54.551652051
  0
LINE
  5
232
100
AcDbEntity
  8
RACCORDO
100
AcDbLine
 62
250
  6
CONTINUOUS
 10
180.7225501019
 20
54.5876930105
 11
179.2444450913
 21
54.5876930105
  0
LINE
  5
233
100
AcDbEntity
  8
RACCORDO
100
AcDbLine
 62
7
  6
CONTINUOUS
 10
176.0539996797
 20
54.6614647147
 11
110.3911005241
 21
54.6614647147
  0
LINE
  5
234
100
AcDbEntity
  8
RACCORDO
100
AcDbLine
 62
250
  6
CONTINUOUS
 10
176.0260106493
 20
54.6894537451
 11
110.4190895545
 21
54.6894537451
  0
LINE
  5
235
100
AcDbEntity
  8
RACCORDO
100
AcDbLine
 62
250
  6
CONTINUOUS
 10
108.7259801883
 20
54.6960854607
 11
108.5260106493
 21
54.6960854607
  0
LINE
  5
236
100
AcDbEntity
  8
RACCORDO
100
AcDbLine
 62
250
  6
CONTINUOUS
 10
177.7191200155
 20
54.6960854607
 11
177.9190895545
 21
54.6960854607
  0
LINE
  5
237
100
AcDbEntity
  8
RACCORDO
100
AcDbLine
 62
250
  6
CONTINUOUS
 10
108.9505086714
 20
54.7206444047
 11
108.7505391324
 21
54.7206444047
  0
LINE
  5
238
100
AcDbEntity
  8
RACCORDO
100
AcDbLine
 62
250
  6
CONTINUOUS
 10
177.4945915324
 20
54.7206444047
 11
177.6945610714
 21
54.7206444047
  0
LINE
  5
239
100
AcDbEntity
  8
0
100
AcDbLine
 62
250
  6
CONTINUOUS
 10
110.0813183214
 20
54.7928838315
 11
109.5637818824
 21
54.7928838315
  0
LINE
  5
23A
100
AcDbEntity
  8
0
100
AcDbLine
 62
250
  6
CONTINUOUS
 10
176.3637818824
 20
54.7928838315
 11
176.8813183214
 21
54.7928838315
  0
LINE
  5
23B
100
AcDbEntity
  8
RACCORDO
100
AcDbLine
 62
250
  6
CONTINUOUS
 10
110.2191200155
 20
54.8894232841
 11
176.2259801883
 21
54.8894232841
  0
LINE
  5
23C
100
AcDbEntity
  8
RACCORDO
100
AcDbLine
 62
250
  6
CONTINUOUS
 10
179.2444450913
 20
55.4980746526
 11
180.7225501019
 21
55.4980746526
  0
LINE
  5
23D
100
AcDbEntity
  8
RACCORDO
100
AcDbLine
 62
250
  6
CONTINUOUS
 10
179.5038397527
 20
55.7980289611
 11
180.7174049723
 21
55.7980289611
  0
LINE
  5
23E
100
AcDbEntity
  8
RACCORDO
100
AcDbLine
 62
250
  6
CONTINUOUS
 10
179.5179865844
 20
55.8121757928
 11
180.7032581406
 21
55.8121757928
  0
LINE
  5
23F
100
AcDbEntity
  8
RACCORDO
100
AcDbLine
 62
250
  6
CONTINUOUS
 10
105.7469871928
 20
55.9736375617
 11
107.1762180216
 21
55.9736375617
  0
LINE
  5
240
100
AcDbEntity
  8
RACCORDO
100
AcDbLine
 62
250
  6
CONTINUOUS
 10
179.2688821822
 20
56.1121301014
 11
180.698113011
 21
56.1121301014
  0
LINE
  5
241
100
AcDbEntity
  8
RACCORDO
100
AcDbLine
 62
250
  6
CONTINUOUS
 10
106.9271136194
 20
56.2735918702
 11
105.7418420632
 21
56.2735918702
  0
LINE
  5
242
100
AcDbEntity
  8
RACCORDO
100
AcDbLine
 62
250
  6
CONTINUOUS
 10
106.9412604511
 20
56.2877387019
 11
105.7276952315
 21
56.2877387019
  0
LINE
  5
243
100
AcDbEntity
  8
RACCORDO
100
AcDbLine
 62
250
  6
CONTINUOUS
 10
105.7225501019
 20
56.5876930105
 11
107.2006551125
 21
56.5876930105
  0
LINE
  5
244
100
AcDbEntity
  8
RACCORDO
100
AcDbLine
 62
250
  6
CONTINUOUS
 10
105.7225501019
 20
57.4980746526
 11
107.2006551125
 21
57.4980746526
  0
LINE
  5
245
100
AcDbEntity
  8
RACCORDO
100
AcDbLine
 62
250
  6
CONTINUOUS
 10
105.7276952315
 20
57.7980289611
 11
106.9412604511
 21
57.7980289611
  0
LINE
  5
246
100
AcDbEntity
  8
RACCORDO
100
AcDbLine
 62
250
  6
CONTINUOUS
 10
105.7418420632
 20
57.8121757928
 11
106.9271136194
 21
57.8121757928
  0
LINE
  5
247
100
AcDbEntity
  8
RACCORDO
100
AcDbLine
 62
250
  6
CONTINUOUS
 10
105.7469871928
 20
58.1121301014
 11
107.1762180216
 21
58.1121301014
  0
LINE
  5
248
100
AcDbEntity
  8
DRAFT
100
AcDbLine
 62
7
  6
CONTINUOUS
 10
180.698113011
 20
64.5597645691
 11
179.7225501019
 21
64.5597645691
  0
LINE
  5
249
100
AcDbEntity
  8
DRAFT
100
AcDbLine
 62
7
  6
CONTINUOUS
 10
104.4465679595
 20
122.0449851218
 11
104.4465679595
 21
111.0407825413
  0
LINE
  5
24A
100
AcDbEntity
  8
DRAFT
100
AcDbLine
 62
7
  6
CONTINUOUS
 10
104.4465679595
 20
103.0449851218
 11
104.4465679595
 21
92.0407825413
  0
LINE
  5
24B
100
AcDbEntity
  8
RACCORDO
100
AcDbLine
 62
250
  6
CONTINUOUS
 10
104.4645031843
 20
92.1306778726
 11
104.4645031843
 21
102.9550897905
  0
LINE
  5
24C
100
AcDbEntity
  8
RACCORDO
100
AcDbLine
 62
250
  6
CONTINUOUS
 10
104.4645031843
 20
111.1306778726
 11
104.4645031843
 21
121.9550897905
  0
LINE
  5
24D
100
AcDbEntity
  8
RACCORDO
100
AcDbLine
 62
250
  6
CONTINUOUS
 10
104.6644727233
 20
92.1478702278
 11
104.6644727233
 21
102.9378974353
  0
LINE
  5
24E
100
AcDbEntity
  8
RACCORDO
100
AcDbLine
 62
250
  6
CONTINUOUS
 10
104.6644727233
 20
111.1478702278
 11
104.6644727233
 21
121.9378974353
  0
LINE
  5
24F
100
AcDbEntity
  8
RACCORDO
100
AcDbLine
 62
250
  6
CONTINUOUS
 10
105.1431377988
 20
92.1478702278
 11
105.1431377988
 21
102.9378974353
  0
LINE
  5
250
100
AcDbEntity
  8
RACCORDO
100
AcDbLine
 62
250
  6
CONTINUOUS
 10
105.1431377988
 20
111.1478702278
 11
105.1431377988
 21
121.9378974353
  0
LINE
  5
251
100
AcDbEntity
  8
RACCORDO
100
AcDbLine
 62
250
  6
CONTINUOUS
 10
105.3400993494
 20
92.1334109444
 11
105.3400993494
 21
102.9523567186
  0
LINE
  5
252
100
AcDbEntity
  8
RACCORDO
100
AcDbLine
 62
250
  6
CONTINUOUS
 10
105.3400993494
 20
111.1334109444
 11
105.3400993494
 21
121.9523567186
  0
LINE
  5
253
100
AcDbEntity
  8
DRAFT
100
AcDbLine
 62
7
  6
CONTINUOUS
 10
105.5225501019
 20
122.0428838315
 11
105.5225501019
 21
111.0428838315
  0
LINE
  5
254
100
AcDbEntity
  8
DRAFT
100
AcDbLine
 62
7
  6
CONTINUOUS
 10
105.5225501019
 20
103.0428838315
 11
105.5225501019
 21
92.0428838315
  0
LINE
  5
255
100
AcDbEntity
  8
RACCORDO
100
AcDbLine
 62
7
  6
CONTINUOUS
 10
105.7225501019
 20
51.4926553743
 11
105.7225501019
 21
91.9203997026
  0
LINE
  5
256
100
AcDbEntity
  8
DRAFT
100
AcDbLine
 62
7
  6
CONTINUOUS
 10
105.7225501019
 20
103.1653679605
 11
105.7225501019
 21
110.9203997026
  0
LINE
  5
257
100
AcDbEntity
  8
RACCORDO
100
AcDbLine
 62
7
  6
CONTINUOUS
 10
105.7225501019
 20
122.1653679605
 11
105.7225501019
 21
162.5931122888
  0
LINE
  5
258
100
AcDbEntity
  8
RACCORDO
100
AcDbLine
 62
7
  6
CONTINUOUS
 10
105.7469871928
 20
162.5686751979
 11
105.7469871928
 21
158.1121301014
  0
LINE
  5
259
100
AcDbEntity
  8
RACCORDO
100
AcDbLine
 62
7
  6
CONTINUOUS
 10
105.7469871928
 20
155.9736375617
 11
105.7469871928
 21
122.0428838315
  0
LINE
  5
25A
100
AcDbEntity
  8
RACCORDO
100
AcDbLine
 62
7
  6
CONTINUOUS
 10
105.7469871928
 20
92.0428838315
 11
105.7469871928
 21
58.1121301014
  0
LINE
  5
25B
100
AcDbEntity
  8
RACCORDO
100
AcDbLine
 62
7
  6
CONTINUOUS
 10
105.7469871928
 20
55.9736375617
 11
105.7469871928
 21
51.5170924652
  0
LINE
  5
25C
100
AcDbEntity
  8
DRAFT
100
AcDbLine
 62
7
  6
CONTINUOUS
 10
105.7469871928
 20
103.0428838315
 11
105.7469871928
 21
111.0428838315
  0
LINE
  5
25D
100
AcDbEntity
  8
RACCORDO
100
AcDbLine
 62
250
  6
CONTINUOUS
 10
106.9262560978
 20
51.7465060598
 11
106.9262560978
 21
55.9736375617
  0
LINE
  5
25E
100
AcDbEntity
  8
RACCORDO
100
AcDbLine
 62
250
  6
CONTINUOUS
 10
106.9262560978
 20
58.1121301014
 11
106.9262560978
 21
155.9736375617
  0
LINE
  5
25F
100
AcDbEntity
  8
RACCORDO
100
AcDbLine
 62
250
  6
CONTINUOUS
 10
106.9262560978
 20
158.1121301014
 11
106.9262560978
 21
162.3392616033
  0
LINE
  5
260
100
AcDbEntity
  8
RACCORDO
100
AcDbLine
 62
250
  6
CONTINUOUS
 10
106.9506931887
 20
56.5876930105
 11
106.9506931887
 21
57.4980746526
  0
LINE
  5
261
100
AcDbEntity
  8
RACCORDO
100
AcDbLine
 62
250
  6
CONTINUOUS
 10
106.9506931887
 20
156.5876930105
 11
106.9506931887
 21
157.4980746526
  0
LINE
  5
262
100
AcDbEntity
  8
RACCORDO
100
AcDbLine
 62
7
  6
CONTINUOUS
 10
104.4645031843
 20
111.1306778726
 11
104.4465679595
 21
111.0407825413
  0
LINE
  5
263
100
AcDbEntity
  8
DRAFT
100
AcDbLine
 62
7
  6
CONTINUOUS
 10
105.7225501019
 20
110.9203997026
 11
105.7469871928
 21
111.0428838315
  0
LINE
  5
264
100
AcDbEntity
  8
DRAFT
100
AcDbLine
 62
7
  6
CONTINUOUS
 10
180.698113011
 20
69.326003094
 11
179.7225501019
 21
69.326003094
  0
LINE
  5
265
100
AcDbEntity
  8
RACCORDO
100
AcDbLine
 62
7
  6
CONTINUOUS
 10
104.4645031843
 20
102.9550897905
 11
104.4465679595
 21
103.0449851218
  0
LINE
  5
266
100
AcDbEntity
  8
DRAFT
100
AcDbLine
 62
7
  6
CONTINUOUS
 10
105.7469871928
 20
103.0428838315
 11
105.7225501019
 21
103.1653679605
  0
LINE
  5
267
100
AcDbEntity
  8
0
100
AcDbLine
 62
7
  6
CONTINUOUS
 10
110.4730753824
 20
54.1569376635
 11
110.4746729339
 21
54.034115612
  0
LINE
  5
268
100
AcDbEntity
  8
RACCORDO
100
AcDbLine
 62
250
  6
CONTINUOUS
 10
107.1762180216
 20
51.7465060598
 11
107.1762180216
 21
55.9736375617
  0
LINE
  5
269
100
AcDbEntity
  8
RACCORDO
100
AcDbLine
 62
250
  6
CONTINUOUS
 10
107.1762180216
 20
58.1121301014
 11
107.1762180216
 21
155.9736375617
  0
LINE
  5
26A
100
AcDbEntity
  8
RACCORDO
100
AcDbLine
 62
250
  6
CONTINUOUS
 10
107.1762180216
 20
158.1121301014
 11
107.1762180216
 21
162.3392616033
  0
LINE
  5
26B
100
AcDbEntity
  8
RACCORDO
100
AcDbLine
 62
250
  6
CONTINUOUS
 10
107.2006551125
 20
56.5876930105
 11
107.2006551125
 21
57.4980746526
  0
LINE
  5
26C
100
AcDbEntity
  8
RACCORDO
100
AcDbLine
 62
250
  6
CONTINUOUS
 10
107.2006551125
 20
156.5876930105
 11
107.2006551125
 21
157.4980746526
  0
LINE
  5
26D
100
AcDbEntity
  8
RACCORDO
100
AcDbLine
 62
250
  6
CONTINUOUS
 10
107.2191200155
 20
51.7894080537
 11
107.2191200155
 21
162.2963596094
  0
LINE
  5
26E
100
AcDbEntity
  8
RACCORDO
100
AcDbLine
 62
250
  6
CONTINUOUS
 10
107.4190895545
 20
51.7894080537
 11
107.4190895545
 21
162.2963596094
  0
LINE
  5
26F
100
AcDbEntity
  8
RACCORDO
100
AcDbLine
 62
250
  6
CONTINUOUS
 10
107.4761723302
 20
162.8891778356
 11
107.4761723302
 21
162.6392159118
  0
LINE
  5
270
100
AcDbEntity
  8
RACCORDO
100
AcDbLine
 62
250
  6
CONTINUOUS
 10
107.4761723302
 20
51.1965898275
 11
107.4761723302
 21
51.4465517512
  0
LINE
  5
271
100
AcDbEntity
  8
RACCORDO
100
AcDbLine
 62
250
  6
CONTINUOUS
 10
107.519074324
 20
51.6894232841
 11
107.519074324
 21
51.4894537451
  0
LINE
  5
272
100
AcDbEntity
  8
RACCORDO
100
AcDbLine
 62
250
  6
CONTINUOUS
 10
107.519074324
 20
162.3963443789
 11
107.519074324
 21
162.5963139179
  0
LINE
  5
273
100
AcDbEntity
  8
RACCORDO
100
AcDbLine
 62
250
  6
CONTINUOUS
 10
108.5260106493
 20
54.6960854607
 11
108.5260106493
 21
159.3896822024
  0
LINE
  5
274
100
AcDbEntity
  8
RACCORDO
100
AcDbLine
 62
250
  6
CONTINUOUS
 10
108.7259801883
 20
54.6960854607
 11
108.7259801883
 21
159.3896822024
  0
LINE
  5
275
100
AcDbEntity
  8
RACCORDO
100
AcDbLine
 62
250
  6
CONTINUOUS
 10
108.7505391324
 20
159.3651232583
 11
108.7505391324
 21
54.7206444047
  0
LINE
  5
276
100
AcDbEntity
  8
RACCORDO
100
AcDbLine
 62
250
  6
CONTINUOUS
 10
108.9505086714
 20
159.3651232583
 11
108.9505086714
 21
54.7206444047
  0
LINE
  5
277
100
AcDbEntity
  8
0
100
AcDbLine
 62
7
  6
CONTINUOUS
 10
109.5637818824
 20
159.2928838315
 11
109.5637818824
 21
54.7928838315
  0
LINE
  5
278
100
AcDbEntity
  8
0
100
AcDbLine
 62
250
  6
CONTINUOUS
 10
109.6866039338
 20
159.2928838315
 11
109.6866039338
 21
54.7928838315
  0
LINE
  5
279
100
AcDbEntity
  8
0
100
AcDbLine
 62
250
  6
CONTINUOUS
 10
109.95849627
 20
159.2928838315
 11
109.95849627
 21
54.7928838315
  0
LINE
  5
27A
100
AcDbEntity
  8
0
100
AcDbLine
 62
7
  6
CONTINUOUS
 10
110.0813183214
 20
159.2928838315
 11
110.0813183214
 21
54.7928838315
  0
LINE
  5
27B
100
AcDbEntity
  8
RACCORDO
100
AcDbLine
 62
7
  6
CONTINUOUS
 10
110.191130985
 20
54.8614342537
 11
110.191130985
 21
159.2243334094
  0
LINE
  5
27C
100
AcDbEntity
  8
RACCORDO
100
AcDbLine
 62
250
  6
CONTINUOUS
 10
110.2191200155
 20
54.8894232841
 11
110.2191200205
 21
121.8331189791
  0
LINE
  5
27D
100
AcDbEntity
  8
RACCORDO
100
AcDbLine
 62
250
  6
CONTINUOUS
 10
110.2191200173
 20
125.5526490979
 11
110.2191200155
 21
159.1963443789
  0
LINE
  5
27E
100
AcDbEntity
  8
RACCORDO
100
AcDbLine
 62
250
  6
CONTINUOUS
 10
110.225751731
 20
53.1963139179
 11
110.225751731
 21
52.9963443789
  0
LINE
  5
27F
100
AcDbEntity
  8
RACCORDO
100
AcDbLine
 62
250
  6
CONTINUOUS
 10
110.225751731
 20
160.8894537451
 11
110.225751731
 21
161.0894232841
  0
LINE
  5
280
100
AcDbEntity
  8
RACCORDO
100
AcDbLine
 62
250
  6
CONTINUOUS
 10
110.2503106751
 20
53.420842401
 11
110.2503106751
 21
53.220872862
  0
LINE
  5
281
100
AcDbEntity
  8
RACCORDO
100
AcDbLine
 62
250
  6
CONTINUOUS
 10
110.2503106751
 20
160.664925262
 11
110.2503106751
 21
160.8648948011
  0
LINE
  5
282
100
AcDbEntity
  8
RACCORDO
100
AcDbLine
 62
250
  6
CONTINUOUS
 10
110.2802127427
 20
122.4504855504
 11
110.2802127427
 21
124.9352821126
  0
LINE
  5
283
100
AcDbEntity
  8
0
100
AcDbLine
 62
250
  6
CONTINUOUS
 10
110.3225501019
 20
54.551652051
 11
110.3225501019
 21
54.034115612
  0
LINE
  5
284
100
AcDbEntity
  8
0
100
AcDbLine
 62
250
  6
CONTINUOUS
 10
110.3225501019
 20
159.534115612
 11
110.3225501019
 21
160.051652051
  0
LINE
  5
285
100
AcDbEntity
  8
RACCORDO
100
AcDbLine
 62
250
  6
CONTINUOUS
 10
110.4190895545
 20
54.6894537451
 11
110.4190901081
 21
121.8331181641
  0
LINE
  5
286
100
AcDbEntity
  8
RACCORDO
100
AcDbLine
 62
250
  6
CONTINUOUS
 10
110.4190885082
 20
125.5526488003
 11
110.4190895545
 21
159.3963139179
  0
LINE
  5
287
100
AcDbEntity
  8
RACCORDO
100
AcDbLine
 62
250
  6
CONTINUOUS
 10
110.4801822818
 20
122.4504855504
 11
110.4801822818
 21
124.9352821126
  0
LINE
  5
288
100
AcDbEntity
  8
RACCORDO
100
AcDbLine
 62
250
  6
CONTINUOUS
 10
110.6259192664
 20
121.9963139179
 11
110.6259192664
 21
121.7963443789
  0
LINE
  5
289
100
AcDbEntity
  8
RACCORDO
100
AcDbLine
 62
250
  6
CONTINUOUS
 10
110.6259192664
 20
125.3894537451
 11
110.6259192664
 21
125.5894232841
  0
LINE
  5
28A
100
AcDbEntity
  8
RACCORDO
100
AcDbLine
 62
250
  6
CONTINUOUS
 10
110.6801518208
 20
122.2505160114
 11
110.6801518208
 21
122.0505464724
  0
LINE
  5
28B
100
AcDbEntity
  8
RACCORDO
100
AcDbLine
 62
250
  6
CONTINUOUS
 10
110.6801518208
 20
125.1352516516
 11
110.6801518208
 21
125.3352211907
  0
LINE
  5
28C
100
AcDbEntity
  8
RACCORDO
100
AcDbLine
 62
7
  6
CONTINUOUS
 10
110.8725501019
 20
157.6428838315
 11
110.8725501019
 21
124.0428838315
  0
LINE
  5
28D
100
AcDbEntity
  8
0
100
AcDbLine
 62
7
  6
CONTINUOUS
 10
110.474672934
 20
54.551652051
 11
110.4730753825
 21
54.4288299996
  0
LINE
  5
28E
100
AcDbEntity
  8
RACCORDO
100
AcDbLine
 62
7
  6
CONTINUOUS
 10
104.4645031843
 20
92.1306778726
 11
104.4465679595
 21
92.0407825413
  0
LINE
  5
28F
100
AcDbEntity
  8
DRAFT
100
AcDbLine
 62
7
  6
CONTINUOUS
 10
105.7225501019
 20
91.9203997026
 11
105.7469871928
 21
92.0428838315
  0
LINE
  5
290
100
AcDbEntity
  8
RACCORDO
100
AcDbLine
 62
250
  6
CONTINUOUS
 10
110.2259801883
 20
122.396252996
 11
110.2802127427
 21
122.4504855504
  0
LINE
  5
291
100
AcDbEntity
  8
RACCORDO
100
AcDbLine
 62
250
  6
CONTINUOUS
 10
110.6259192664
 20
121.9963139179
 11
110.6801518208
 21
122.0505464724
  0
LINE
  5
292
100
AcDbEntity
  8
RACCORDO
100
AcDbLine
 62
7
  6
CONTINUOUS
 10
104.4645031843
 20
121.9550897905
 11
104.4465679595
 21
122.0449851218
  0
LINE
  5
293
100
AcDbEntity
  8
DRAFT
100
AcDbLine
 62
7
  6
CONTINUOUS
 10
105.7469871928
 20
122.0428838315
 11
105.7225501019
 21
122.1653679605
  0
LINE
  5
294
100
AcDbEntity
  8
RACCORDO
100
AcDbLine
 62
250
  6
CONTINUOUS
 10
175.7986180562
 20
156.0250803568
 11
175.6206469989
 21
155.9339820941
  0
LINE
  5
295
100
AcDbEntity
  8
RACCORDO
100
AcDbLine
 62
7
  6
CONTINUOUS
 10
105.5225501019
 20
122.0428838315
 11
105.3400993494
 21
121.9523567186
  0
LINE
  5
296
100
AcDbEntity
  8
RACCORDO
100
AcDbLine
 62
7
  6
CONTINUOUS
 10
105.5225501019
 20
92.0428838315
 11
105.3400993494
 21
92.1334109444
  0
LINE
  5
297
100
AcDbEntity
  8
RACCORDO
100
AcDbLine
 62
250
  6
CONTINUOUS
 10
117.6613891457
 20
96.2261500663
 11
117.6613891457
 21
98.4465283157
  0
LINE
  5
298
100
AcDbEntity
  8
RACCORDO
100
AcDbLine
 62
250
  6
CONTINUOUS
 10
118.4067451382
 20
96.2261500663
 11
118.4067451382
 21
98.4465283157
  0
LINE
  5
299
100
AcDbEntity
  8
RACCORDO
100
AcDbLine
 62
250
  6
CONTINUOUS
 10
118.5558163367
 20
95.3317228753
 11
118.5558163367
 21
99.3409555067
  0
LINE
  5
29A
100
AcDbEntity
  8
RACCORDO
100
AcDbLine
 62
250
  6
CONTINUOUS
 10
119.764948383
 20
122.2505160114
 11
119.764948383
 21
122.0505464724
  0
LINE
  5
29B
100
AcDbEntity
  8
RACCORDO
100
AcDbLine
 62
250
  6
CONTINUOUS
 10
119.8191809374
 20
121.9963139179
 11
119.8191809374
 21
121.7963443789
  0
LINE
  5
29C
100
AcDbEntity
  8
RACCORDO
100
AcDbLine
 62
250
  6
CONTINUOUS
 10
119.964917922
 20
123.0428838315
 11
119.964917922
 21
122.4504855504
  0
LINE
  5
29D
100
AcDbEntity
  8
RACCORDO
100
AcDbLine
 62
250
  6
CONTINUOUS
 10
120.1648874611
 20
123.0428838315
 11
120.1648874611
 21
122.4504855504
  0
LINE
  5
29E
100
AcDbEntity
  8
RACCORDO
100
AcDbLine
 62
250
  6
CONTINUOUS
 10
120.2191200155
 20
122.396252996
 11
120.2191200155
 21
123.0428838315
  0
LINE
  5
29F
100
AcDbEntity
  8
RACCORDO
100
AcDbLine
 62
250
  6
CONTINUOUS
 10
120.4190895545
 20
122.396252996
 11
120.4190895545
 21
123.0428838315
  0
LINE
  5
2A0
100
AcDbEntity
  8
RACCORDO
100
AcDbLine
 62
250
  6
CONTINUOUS
 10
175.8564615934
 20
152.3847005049
 11
175.7689056506
 21
152.3364604327
  0
LINE
  5
2A1
100
AcDbEntity
  8
RACCORDO
100
AcDbLine
 62
250
  6
CONTINUOUS
 10
121.3736302217
 20
122.6418798642
 11
121.3736302217
 21
99.3409555067
  0
LINE
  5
2A2
100
AcDbEntity
  8
RACCORDO
100
AcDbLine
 62
250
  6
CONTINUOUS
 10
121.3736302217
 20
95.3317228753
 11
121.3736302217
 21
91.6938877989
  0
LINE
  5
2A3
100
AcDbEntity
  8
RACCORDO
100
AcDbLine
 62
250
  6
CONTINUOUS
 10
121.3806122477
 20
98.4465283157
 11
121.3806122477
 21
96.2261500663
  0
LINE
  5
2A4
100
AcDbEntity
  8
RACCORDO
100
AcDbLine
 62
250
  6
CONTINUOUS
 10
121.6735845302
 20
122.6418798642
 11
121.6735845302
 21
99.3409555067
  0
LINE
  5
2A5
100
AcDbEntity
  8
RACCORDO
100
AcDbLine
 62
250
  6
CONTINUOUS
 10
121.6735845302
 20
95.3317228753
 11
121.6735845302
 21
91.6938877989
  0
LINE
  5
2A6
100
AcDbEntity
  8
RACCORDO
100
AcDbLine
 62
250
  6
CONTINUOUS
 10
121.6805665562
 20
98.4465283157
 11
121.6805665562
 21
96.2261500663
  0
LINE
  5
2A7
100
AcDbEntity
  8
RACCORDO
100
AcDbLine
 62
250
  6
CONTINUOUS
 10
121.7191200155
 20
91.7394232841
 11
121.7191200155
 21
122.5963443789
  0
LINE
  5
2A8
100
AcDbEntity
  8
RACCORDO
100
AcDbLine
 62
250
  6
CONTINUOUS
 10
121.8735540693
 20
91.4939182599
 11
121.8735540693
 21
91.1939639513
  0
LINE
  5
2A9
100
AcDbEntity
  8
RACCORDO
100
AcDbLine
 62
250
  6
CONTINUOUS
 10
121.8735540693
 20
122.8418494032
 11
121.8735540688
 21
123.0428838315
  0
LINE
  5
2AA
100
AcDbEntity
  8
RACCORDO
100
AcDbLine
 62
250
  6
CONTINUOUS
 10
121.9190895545
 20
91.5394537451
 11
121.9190895544
 21
122.7963139179
  0
LINE
  5
2AB
100
AcDbEntity
  8
0
100
AcDbLine
 62
7
  6
CONTINUOUS
 10
121.9725501019
 20
114.8428838315
 11
121.9725501019
 21
91.6428838315
  0
LINE
  5
2AC
100
AcDbEntity
  8
DRAFT
100
AcDbLine
 62
7
  6
CONTINUOUS
 10
180.7208345406
 20
91.9289984768
 11
181.9985322443
 21
92.0407825413
  0
LINE
  5
2AD
100
AcDbEntity
  8
DRAFT
100
AcDbLine
 62
7
  6
CONTINUOUS
 10
104.4465679595
 20
92.0407825413
 11
105.7242656632
 21
91.9289984768
  0
LINE
  5
2AE
100
AcDbEntity
  8
RACCORDO
100
AcDbLine
 62
250
  6
CONTINUOUS
 10
134.9383053541
 20
122.8086238532
 11
134.9259954188
 21
122.7963139179
  0
LINE
  5
2AF
100
AcDbEntity
  8
RACCORDO
100
AcDbLine
 62
250
  6
CONTINUOUS
 10
135.0382901236
 20
122.7086390837
 11
135.0259801883
 21
122.6963291484
  0
LINE
  5
2B0
100
AcDbEntity
  8
RACCORDO
100
AcDbLine
 62
250
  6
CONTINUOUS
 10
179.1983414683
 20
164.0684467406
 11
179.2227785592
 21
164.0928838315
  0
LINE
  5
2B1
100
AcDbEntity
  8
RACCORDO
100
AcDbLine
 62
250
  6
CONTINUOUS
 10
176.2193484728
 20
160.8894537451
 11
176.1947895287
 21
160.8648948011
  0
LINE
  5
2B2
100
AcDbEntity
  8
RACCORDO
100
AcDbLine
 62
250
  6
CONTINUOUS
 10
178.9260258798
 20
162.5963139179
 11
178.9689278736
 21
162.6392159118
  0
LINE
  5
2B3
100
AcDbEntity
  8
RACCORDO
100
AcDbLine
 62
250
  6
CONTINUOUS
 10
176.0225805629
 20
159.3928838315
 11
176.0539996797
 21
159.4243029484
  0
LINE
  5
2B4
100
AcDbEntity
  8
RACCORDO
100
AcDbLine
 62
250
  6
CONTINUOUS
 10
179.2259801883
 20
162.2963596094
 11
179.2688821822
 21
162.3392616033
  0
LINE
  5
2B5
100
AcDbEntity
  8
RACCORDO
100
AcDbLine
 62
250
  6
CONTINUOUS
 10
176.2225501019
 20
159.1929142925
 11
176.2539692188
 21
159.2243334094
  0
LINE
  5
2B6
100
AcDbEntity
  8
RACCORDO
100
AcDbLine
 62
250
  6
CONTINUOUS
 10
121.8735540693
 20
91.1939639513
 11
164.5715461345
 21
91.1939639513
  0
LINE
  5
2B7
100
AcDbEntity
  8
RACCORDO
100
AcDbLine
 62
250
  6
CONTINUOUS
 10
121.8735540693
 20
91.4939182599
 11
164.5715461345
 21
91.4939182599
  0
LINE
  5
2B8
100
AcDbEntity
  8
RACCORDO
100
AcDbLine
 62
250
  6
CONTINUOUS
 10
164.5260106493
 20
91.5394537451
 11
121.9190895545
 21
91.5394537451
  0
LINE
  5
2B9
100
AcDbEntity
  8
0
100
AcDbLine
 62
7
  6
CONTINUOUS
 10
121.9725501019
 20
91.6428838315
 11
164.4725501019
 21
91.6428838315
  0
LINE
  5
2BA
100
AcDbEntity
  8
RACCORDO
100
AcDbLine
 62
250
  6
CONTINUOUS
 10
121.6735845302
 20
91.6938877989
 11
121.3736302217
 21
91.6938877989
  0
LINE
  5
2BB
100
AcDbEntity
  8
RACCORDO
100
AcDbLine
 62
250
  6
CONTINUOUS
 10
164.7715156736
 20
91.6938877989
 11
165.0714699821
 21
91.6938877989
  0
LINE
  5
2BC
100
AcDbEntity
  8
RACCORDO
100
AcDbLine
 62
250
  6
CONTINUOUS
 10
121.9725501019
 20
91.7394232841
 11
121.7191200155
 21
91.7394232841
  0
LINE
  5
2BD
100
AcDbEntity
  8
RACCORDO
100
AcDbLine
 62
250
  6
CONTINUOUS
 10
164.4725501019
 20
91.7394232841
 11
164.7259801883
 21
91.7394232841
  0
LINE
  5
2BE
100
AcDbEntity
  8
DRAFT
100
AcDbLine
 62
7
  6
CONTINUOUS
 10
180.9225501019
 20
92.0428838315
 11
180.698113011
 21
92.0428838315
  0
LINE
  5
2BF
100
AcDbEntity
  8
DRAFT
100
AcDbLine
 62
7
  6
CONTINUOUS
 10
105.7469871928
 20
92.0428838315
 11
105.5225501019
 21
92.0428838315
  0
LINE
  5
2C0
100
AcDbEntity
  8
RACCORDO
100
AcDbLine
 62
7
  6
CONTINUOUS
 10
181.7806274805
 20
92.1478702278
 11
181.301962405
 21
92.1478702278
  0
LINE
  5
2C1
100
AcDbEntity
  8
RACCORDO
100
AcDbLine
 62
7
  6
CONTINUOUS
 10
105.1431377988
 20
92.1478702278
 11
104.6644727233
 21
92.1478702278
  0
LINE
  5
2C2
100
AcDbEntity
  8
RACCORDO
100
AcDbLine
 62
250
  6
CONTINUOUS
 10
179.2227785592
 20
49.9928838315
 11
179.1983414683
 21
50.0173209224
  0
LINE
  5
2C3
100
AcDbEntity
  8
RACCORDO
100
AcDbLine
 62
250
  6
CONTINUOUS
 10
176.2193484728
 20
53.1963139179
 11
176.1947895287
 21
53.220872862
  0
LINE
  5
2C4
100
AcDbEntity
  8
RACCORDO
100
AcDbLine
 62
250
  6
CONTINUOUS
 10
178.9260258798
 20
51.4894537451
 11
178.9689278736
 21
51.4465517512
  0
LINE
  5
2C5
100
AcDbEntity
  8
RACCORDO
100
AcDbLine
 62
250
  6
CONTINUOUS
 10
176.0260106493
 20
54.6894537451
 11
176.0539996797
 21
54.6614647147
  0
LINE
  5
2C6
100
AcDbEntity
  8
RACCORDO
100
AcDbLine
 62
250
  6
CONTINUOUS
 10
179.2259801883
 20
51.7894080537
 11
179.2688821822
 21
51.7465060598
  0
LINE
  5
2C7
100
AcDbEntity
  8
RACCORDO
100
AcDbLine
 62
250
  6
CONTINUOUS
 10
176.2259801883
 20
54.8894232841
 11
176.2539692188
 21
54.8614342537
  0
LINE
  5
2C8
100
AcDbEntity
  8
RACCORDO
100
AcDbLine
 62
250
  6
CONTINUOUS
 10
131.8021015818
 20
159.1963443789
 11
131.8021015818
 21
159.3963139179
  0
LINE
  5
2C9
100
AcDbEntity
  8
RACCORDO
100
AcDbLine
 62
250
  6
CONTINUOUS
 10
180.698113011
 20
162.5686751979
 11
180.7225501019
 21
162.5931122888
  0
LINE
  5
2CA
100
AcDbEntity
  8
RACCORDO
100
AcDbLine
 62
250
  6
CONTINUOUS
 10
177.7191200155
 20
159.3896822024
 11
177.6945610714
 21
159.3651232583
  0
LINE
  5
2CB
100
AcDbEntity
  8
RACCORDO
100
AcDbLine
 62
250
  6
CONTINUOUS
 10
135.0382901236
 20
114.9586086228
 11
135.0242651451
 21
114.9445836442
  0
LINE
  5
2CC
100
AcDbEntity
  8
RACCORDO
100
AcDbLine
 62
250
  6
CONTINUOUS
 10
135.1382748931
 20
114.8586238532
 11
135.1242499146
 21
114.8445988747
  0
LINE
  5
2CD
100
AcDbEntity
  8
RACCORDO
100
AcDbLine
 62
7
  6
CONTINUOUS
 10
105.5225501019
 20
103.0428838315
 11
105.3400993494
 21
102.9523567186
  0
LINE
  5
2CE
100
AcDbEntity
  8
RACCORDO
100
AcDbLine
 62
250
  6
CONTINUOUS
 10
121.6735845302
 20
95.3317228753
 11
118.5558163367
 21
95.3317228753
  0
LINE
  5
2CF
100
AcDbEntity
  8
RACCORDO
100
AcDbLine
 62
250
  6
CONTINUOUS
 10
164.7715156736
 20
95.3317228753
 11
167.8892838671
 21
95.3317228753
  0
LINE
  5
2D0
100
AcDbEntity
  8
RACCORDO
100
AcDbLine
 62
250
  6
CONTINUOUS
 10
167.8892838671
 20
96.0770788678
 11
165.0673971336
 21
96.0770788678
  0
LINE
  5
2D1
100
AcDbEntity
  8
RACCORDO
100
AcDbLine
 62
250
  6
CONTINUOUS
 10
121.3777030702
 20
96.0770788678
 11
118.5558163367
 21
96.0770788678
  0
LINE
  5
2D2
100
AcDbEntity
  8
RACCORDO
100
AcDbLine
 62
250
  6
CONTINUOUS
 10
117.6613891457
 20
96.2261500663
 11
121.6805665562
 21
96.2261500663
  0
LINE
  5
2D3
100
AcDbEntity
  8
RACCORDO
100
AcDbLine
 62
250
  6
CONTINUOUS
 10
164.7645336476
 20
96.2261500663
 11
168.7837110581
 21
96.2261500663
  0
LINE
  5
2D4
100
AcDbEntity
  8
RACCORDO
100
AcDbLine
 62
250
  6
CONTINUOUS
 10
117.6613891457
 20
98.4465283157
 11
121.6805665562
 21
98.4465283157
  0
LINE
  5
2D5
100
AcDbEntity
  8
RACCORDO
100
AcDbLine
 62
250
  6
CONTINUOUS
 10
164.7645336476
 20
98.4465283157
 11
168.7837110581
 21
98.4465283157
  0
LINE
  5
2D6
100
AcDbEntity
  8
RACCORDO
100
AcDbLine
 62
7
  6
CONTINUOUS
 10
105.5225501019
 20
111.0428838315
 11
105.3400993494
 21
111.1334109444
  0
LINE
  5
2D7
100
AcDbEntity
  8
RACCORDO
100
AcDbLine
 62
250
  6
CONTINUOUS
 10
180.7225501019
 20
51.4926553743
 11
180.698113011
 21
51.5170924652
  0
LINE
  5
2D8
100
AcDbEntity
  8
RACCORDO
100
AcDbLine
 62
250
  6
CONTINUOUS
 10
177.7191200155
 20
54.6960854607
 11
177.6945610714
 21
54.7206444047
  0
LINE
  5
2D9
100
AcDbEntity
  8
RACCORDO
100
AcDbLine
 62
250
  6
CONTINUOUS
 10
179.2538778289
 20
54.0377767781
 11
179.2680246606
 21
54.0236299464
  0
LINE
  5
2DA
100
AcDbEntity
  8
RACCORDO
100
AcDbLine
 62
250
  6
CONTINUOUS
 10
179.5038397527
 20
54.2877387019
 11
179.5179865844
 21
54.2735918702
  0
LINE
  5
2DB
100
AcDbEntity
  8
RACCORDO
100
AcDbLine
 62
250
  6
CONTINUOUS
 10
110.2259801877
 20
124.9895146676
 11
110.2802127427
 21
124.9352821126
  0
LINE
  5
2DC
100
AcDbEntity
  8
RACCORDO
100
AcDbLine
 62
250
  6
CONTINUOUS
 10
110.6259192664
 20
125.3894537451
 11
110.6801518208
 21
125.3352211907
  0
LINE
  5
2DD
100
AcDbEntity
  8
RACCORDO
100
AcDbLine
 62
7
  6
CONTINUOUS
 10
180.7032581406
 20
55.8121757928
 11
180.7174049723
 21
55.7980289611
  0
LINE
  5
2DE
100
AcDbEntity
  8
RACCORDO
100
AcDbLine
 62
250
  6
CONTINUOUS
 10
134.9242803756
 20
122.5963443789
 11
134.9242803756
 21
114.9445836442
  0
LINE
  5
2DF
100
AcDbEntity
  8
RACCORDO
100
AcDbLine
 62
250
  6
CONTINUOUS
 10
135.0242651451
 20
122.5963443789
 11
135.0242651451
 21
114.9445836442
  0
LINE
  5
2E0
100
AcDbEntity
  8
RACCORDO
100
AcDbLine
 62
250
  6
CONTINUOUS
 10
135.0382901236
 20
122.7086390837
 11
135.0382901236
 21
114.9586086228
  0
LINE
  5
2E1
100
AcDbEntity
  8
RACCORDO
100
AcDbLine
 62
250
  6
CONTINUOUS
 10
135.1382748931
 20
114.8586238532
 11
135.1382748931
 21
122.8120539397
  0
LINE
  5
2E2
100
AcDbEntity
  8
RACCORDO
100
AcDbLine
 62
250
  6
CONTINUOUS
 10
136.1068253107
 20
114.8586238532
 11
136.1068253107
 21
122.8120539397
  0
LINE
  5
2E3
100
AcDbEntity
  8
RACCORDO
100
AcDbLine
 62
250
  6
CONTINUOUS
 10
136.2068100802
 20
114.9586086228
 11
136.2068100802
 21
122.7086390837
  0
LINE
  5
2E4
100
AcDbEntity
  8
RACCORDO
100
AcDbLine
 62
250
  6
CONTINUOUS
 10
136.2208350587
 20
114.9445836442
 11
136.2208350587
 21
122.5963443789
  0
LINE
  5
2E5
100
AcDbEntity
  8
RACCORDO
100
AcDbLine
 62
250
  6
CONTINUOUS
 10
136.3208198282
 20
114.9445837827
 11
136.3208198282
 21
122.5963443789
  0
LINE
  5
2E6
100
AcDbEntity
  8
RACCORDO
100
AcDbLine
 62
250
  6
CONTINUOUS
 10
150.1383053541
 20
122.8086238532
 11
150.1259954188
 21
122.7963139179
  0
LINE
  5
2E7
100
AcDbEntity
  8
RACCORDO
100
AcDbLine
 62
250
  6
CONTINUOUS
 10
150.2382901236
 20
122.7086390837
 11
150.2259801883
 21
122.6963291484
  0
LINE
  5
2E8
100
AcDbEntity
  8
RACCORDO
100
AcDbLine
 62
250
  6
CONTINUOUS
 10
121.6735845302
 20
91.6938877989
 11
121.7191200155
 21
91.7394232841
  0
LINE
  5
2E9
100
AcDbEntity
  8
RACCORDO
100
AcDbLine
 62
250
  6
CONTINUOUS
 10
121.8735540693
 20
91.4939182599
 11
121.9190895545
 21
91.5394537451
  0
LINE
  5
2EA
100
AcDbEntity
  8
RACCORDO
100
AcDbLine
 62
250
  6
CONTINUOUS
 10
118.5558163367
 20
98.5955995142
 11
121.3777030702
 21
98.5955995142
  0
LINE
  5
2EB
100
AcDbEntity
  8
RACCORDO
100
AcDbLine
 62
250
  6
CONTINUOUS
 10
165.0673971336
 20
98.5955995142
 11
167.8892838671
 21
98.5955995142
  0
LINE
  5
2EC
100
AcDbEntity
  8
RACCORDO
100
AcDbLine
 62
250
  6
CONTINUOUS
 10
118.5558163367
 20
99.3409555067
 11
121.6735845302
 21
99.3409555067
  0
LINE
  5
2ED
100
AcDbEntity
  8
RACCORDO
100
AcDbLine
 62
250
  6
CONTINUOUS
 10
164.7715156736
 20
99.3409555067
 11
167.8892838671
 21
99.3409555067
  0
LINE
  5
2EE
100
AcDbEntity
  8
RACCORDO
100
AcDbLine
 62
7
  6
CONTINUOUS
 10
105.1431377988
 20
102.9378974353
 11
104.6644727233
 21
102.9378974353
  0
LINE
  5
2EF
100
AcDbEntity
  8
DRAFT
100
AcDbLine
 62
7
  6
CONTINUOUS
 10
105.5225501019
 20
103.0428838315
 11
105.7469871928
 21
103.0428838315
  0
LINE
  5
2F0
100
AcDbEntity
  8
RACCORDO
100
AcDbLine
 62
250
  6
CONTINUOUS
 10
119.8191809374
 20
121.9963139179
 11
119.764948383
 21
122.0505464724
  0
LINE
  5
2F1
100
AcDbEntity
  8
RACCORDO
100
AcDbLine
 62
250
  6
CONTINUOUS
 10
120.2191200155
 20
122.396252996
 11
120.1648874611
 21
122.4504855504
  0
LINE
  5
2F2
100
AcDbEntity
  8
RACCORDO
100
AcDbLine
 62
250
  6
CONTINUOUS
 10
121.6735845302
 20
122.6418798642
 11
121.7191200155
 21
122.5963443789
  0
LINE
  5
2F3
100
AcDbEntity
  8
RACCORDO
100
AcDbLine
 62
250
  6
CONTINUOUS
 10
150.2382901236
 20
114.9586086228
 11
150.2242651451
 21
114.9445836442
  0
LINE
  5
2F4
100
AcDbEntity
  8
RACCORDO
100
AcDbLine
 62
250
  6
CONTINUOUS
 10
150.3382748931
 20
114.8586238532
 11
150.3242499146
 21
114.8445988747
  0
LINE
  5
2F5
100
AcDbEntity
  8
DRAFT
100
AcDbLine
 62
7
  6
CONTINUOUS
 10
104.4465679595
 20
103.0449851218
 11
105.7207735862
 21
103.1564636691
  0
LINE
  5
2F6
100
AcDbEntity
  8
DRAFT
100
AcDbLine
 62
7
  6
CONTINUOUS
 10
104.4465679595
 20
111.0407825413
 11
105.7207735862
 21
110.9293039939
  0
LINE
  5
2F7
100
AcDbEntity
  8
RACCORDO
100
AcDbLine
 62
250
  6
CONTINUOUS
 10
121.8735540693
 20
122.8418494032
 11
121.9190895545
 21
122.7963139179
  0
LINE
  5
2F8
100
AcDbEntity
  8
RACCORDO
100
AcDbLine
 62
250
  6
CONTINUOUS
 10
136.1068253107
 20
114.8586238532
 11
136.1208502892
 21
114.8445988747
  0
LINE
  5
2F9
100
AcDbEntity
  8
RACCORDO
100
AcDbLine
 62
250
  6
CONTINUOUS
 10
172.5447210366
 20
158.6428838315
 11
172.5738366959
 21
158.7062729667
  0
LINE
  5
2FA
100
AcDbEntity
  8
RACCORDO
100
AcDbLine
 62
250
  6
CONTINUOUS
 10
179.2680246606
 20
138.0621377166
 11
179.2538778289
 21
138.0479908849
  0
LINE
  5
2FB
100
AcDbEntity
  8
RACCORDO
100
AcDbLine
 62
250
  6
CONTINUOUS
 10
179.5179865844
 20
137.8121757928
 11
179.5038397527
 21
137.7980289611
  0
LINE
  5
2FC
100
AcDbEntity
  8
RACCORDO
100
AcDbLine
 62
250
  6
CONTINUOUS
 10
164.5715461345
 20
122.8418494032
 11
164.5260106493
 21
122.7963139179
  0
LINE
  5
2FD
100
AcDbEntity
  8
RACCORDO
100
AcDbLine
 62
250
  6
CONTINUOUS
 10
164.7715156736
 20
122.6418798642
 11
164.7259801883
 21
122.5963443789
  0
LINE
  5
2FE
100
AcDbEntity
  8
RACCORDO
100
AcDbLine
 62
250
  6
CONTINUOUS
 10
159.3306407218
 20
115.3740791751
 11
159.3114822449
 21
115.3689456767
  0
LINE
  5
2FF
100
AcDbEntity
  8
RACCORDO
100
AcDbLine
 62
250
  6
CONTINUOUS
 10
159.2940437562
 20
115.5106609103
 11
159.2748852792
 21
115.5055274118
  0
LINE
  5
300
100
AcDbEntity
  8
DRAFT
100
AcDbLine
 62
7
  6
CONTINUOUS
 10
105.5225501019
 20
111.0428838315
 11
105.7469871928
 21
111.0428838315
  0
LINE
  5
301
100
AcDbEntity
  8
RACCORDO
100
AcDbLine
 62
7
  6
CONTINUOUS
 10
105.1431377988
 20
111.1478702278
 11
104.6644727233
 21
111.1478702278
  0
LINE
  5
302
100
AcDbEntity
  8
RACCORDO
100
AcDbLine
 62
250
  6
CONTINUOUS
 10
136.2068100802
 20
114.9586086228
 11
136.2208350587
 21
114.9445836442
  0
LINE
  5
303
100
AcDbEntity
  8
RACCORDO
100
AcDbLine
 62
250
  6
CONTINUOUS
 10
164.5715461345
 20
91.4939182599
 11
164.5260106493
 21
91.5394537451
  0
LINE
  5
304
100
AcDbEntity
  8
RACCORDO
100
AcDbLine
 62
250
  6
CONTINUOUS
 10
164.7715156736
 20
91.6938877989
 11
164.7259801883
 21
91.7394232841
  0
LINE
  5
305
100
AcDbEntity
  8
RACCORDO
100
AcDbLine
 62
250
  6
CONTINUOUS
 10
150.1242803756
 20
122.5963443789
 11
150.1242803756
 21
114.9445836442
  0
LINE
  5
306
100
AcDbEntity
  8
RACCORDO
100
AcDbLine
 62
250
  6
CONTINUOUS
 10
150.2242651451
 20
122.5963443789
 11
150.2242651451
 21
114.9445836442
  0
LINE
  5
307
100
AcDbEntity
  8
RACCORDO
100
AcDbLine
 62
250
  6
CONTINUOUS
 10
150.2382901236
 20
122.7086390837
 11
150.2382901236
 21
114.9586086228
  0
LINE
  5
308
100
AcDbEntity
  8
RACCORDO
100
AcDbLine
 62
250
  6
CONTINUOUS
 10
150.3382748931
 20
114.8586238532
 11
150.3382748931
 21
122.8120539397
  0
LINE
  5
309
100
AcDbEntity
  8
RACCORDO
100
AcDbLine
 62
250
  6
CONTINUOUS
 10
151.3068253107
 20
114.8586238532
 11
151.3068253107
 21
122.8120539397
  0
LINE
  5
30A
100
AcDbEntity
  8
RACCORDO
100
AcDbLine
 62
250
  6
CONTINUOUS
 10
151.4068100802
 20
114.9586086228
 11
151.4068100802
 21
122.7086390837
  0
LINE
  5
30B
100
AcDbEntity
  8
RACCORDO
100
AcDbLine
 62
250
  6
CONTINUOUS
 10
151.4208350587
 20
114.9445836442
 11
151.4208350587
 21
122.5963443789
  0
LINE
  5
30C
100
AcDbEntity
  8
RACCORDO
100
AcDbLine
 62
250
  6
CONTINUOUS
 10
151.5208198282
 20
114.9445837827
 11
151.5208198282
 21
122.5963443789
  0
LINE
  5
30D
100
AcDbEntity
  8
RACCORDO
100
AcDbLine
 62
250
  6
CONTINUOUS
 10
159.6365960469
 20
116.3319983781
 11
159.1882959289
 21
115.5555197966
  0
LINE
  5
30E
100
AcDbEntity
  8
RACCORDO
100
AcDbLine
 62
250
  6
CONTINUOUS
 10
159.7231854665
 20
116.2820061133
 11
159.2748852792
 21
115.5055274118
  0
LINE
  5
30F
100
AcDbEntity
  8
RACCORDO
100
AcDbLine
 62
250
  6
CONTINUOUS
 10
159.728318965
 20
116.2628476363
 11
159.2940437562
 21
115.5106609103
  0
LINE
  5
310
100
AcDbEntity
  8
RACCORDO
100
AcDbLine
 62
250
  6
CONTINUOUS
 10
159.9097595864
 20
116.4051924293
 11
159.8597672017
 21
116.3186030789
  0
LINE
  5
311
100
AcDbEntity
  8
RACCORDO
100
AcDbLine
 62
250
  6
CONTINUOUS
 10
159.2614898601
 20
115.2823563263
 11
159.3114822449
 21
115.3689456767
  0
LINE
  5
312
100
AcDbEntity
  8
RACCORDO
100
AcDbLine
 62
250
  6
CONTINUOUS
 10
159.3306407218
 20
115.3740791751
 11
159.8649007001
 21
116.2994446019
  0
LINE
  5
313
100
AcDbEntity
  8
RACCORDO
100
AcDbLine
 62
250
  6
CONTINUOUS
 10
166.2259801883
 20
122.396252996
 11
166.2802127427
 21
122.4504855504
  0
LINE
  5
314
100
AcDbEntity
  8
RACCORDO
100
AcDbLine
 62
7
  6
CONTINUOUS
 10
180.7032581406
 20
136.2735918702
 11
180.7174049723
 21
136.2877387019
  0
LINE
  5
315
100
AcDbEntity
  8
RACCORDO
100
AcDbLine
 62
250
  6
CONTINUOUS
 10
166.6259192664
 20
121.9963139179
 11
166.6801518208
 21
122.0505464724
  0
LINE
  5
316
100
AcDbEntity
  8
RACCORDO
100
AcDbLine
 62
7
  6
CONTINUOUS
 10
105.7418420632
 20
57.8121757928
 11
105.7276952315
 21
57.7980289611
  0
LINE
  5
317
100
AcDbEntity
  8
RACCORDO
100
AcDbLine
 62
250
  6
CONTINUOUS
 10
164.6759878036
 20
112.2737273096
 11
164.6882977389
 21
112.2808344541
  0
LINE
  5
318
100
AcDbEntity
  8
RACCORDO
100
AcDbLine
 62
250
  6
CONTINUOUS
 10
164.7259801883
 20
112.1871379592
 11
164.7382901236
 21
112.1942451037
  0
LINE
  5
319
100
AcDbEntity
  8
RACCORDO
100
AcDbLine
 62
250
  6
CONTINUOUS
 10
164.74172021
 20
112.4231696768
 11
164.6417354405
 21
112.4231696768
  0
LINE
  5
31A
100
AcDbEntity
  8
RACCORDO
100
AcDbLine
 62
7
  6
CONTINUOUS
 10
162.9671649225
 20
113.1428838315
 11
162.9170364748
 21
113.1428838315
  0
LINE
  5
31B
100
AcDbEntity
  8
RACCORDO
100
AcDbLine
 62
250
  6
CONTINUOUS
 10
164.6417354405
 20
113.4260853115
 11
164.74172021
 21
113.4260853115
  0
LINE
  5
31C
100
AcDbEntity
  8
0
100
AcDbLine
 62
7
  6
CONTINUOUS
 10
159.9725501019
 20
114.8428838315
 11
121.9725501019
 21
114.8428838315
  0
LINE
  5
31D
100
AcDbEntity
  8
RACCORDO
100
AcDbLine
 62
250
  6
CONTINUOUS
 10
135.1382748931
 20
114.8586238532
 11
136.1068253107
 21
114.8586238532
  0
LINE
  5
31E
100
AcDbEntity
  8
RACCORDO
100
AcDbLine
 62
250
  6
CONTINUOUS
 10
150.3382748931
 20
114.8586238532
 11
151.3068253107
 21
114.8586238532
  0
LINE
  5
31F
100
AcDbEntity
  8
RACCORDO
100
AcDbLine
 62
250
  6
CONTINUOUS
 10
151.5208198282
 20
114.9445836442
 11
151.4208350587
 21
114.9445836442
  0
LINE
  5
320
100
AcDbEntity
  8
RACCORDO
100
AcDbLine
 62
250
  6
CONTINUOUS
 10
136.3208198282
 20
114.9445836442
 11
136.2208350587
 21
114.9445836442
  0
LINE
  5
321
100
AcDbEntity
  8
RACCORDO
100
AcDbLine
 62
250
  6
CONTINUOUS
 10
134.9242803756
 20
114.9445836442
 11
135.0242651451
 21
114.9445836442
  0
LINE
  5
322
100
AcDbEntity
  8
RACCORDO
100
AcDbLine
 62
250
  6
CONTINUOUS
 10
150.1242803756
 20
114.9445836442
 11
150.2242651451
 21
114.9445836442
  0
LINE
  5
323
100
AcDbEntity
  8
RACCORDO
100
AcDbLine
 62
250
  6
CONTINUOUS
 10
135.0382901236
 20
114.9586086228
 11
136.2068100802
 21
114.9586086228
  0
LINE
  5
324
100
AcDbEntity
  8
RACCORDO
100
AcDbLine
 62
250
  6
CONTINUOUS
 10
150.2382901236
 20
114.9586086228
 11
151.4068100802
 21
114.9586086228
  0
LINE
  5
325
100
AcDbEntity
  8
RACCORDO
100
AcDbLine
 62
250
  6
CONTINUOUS
 10
136.2191200155
 20
122.6963291484
 11
136.2068100802
 21
122.7086390837
  0
LINE
  5
326
100
AcDbEntity
  8
RACCORDO
100
AcDbLine
 62
250
  6
CONTINUOUS
 10
136.319104785
 20
122.7963139179
 11
136.3067948497
 21
122.8086238532
  0
LINE
  5
327
100
AcDbEntity
  8
RACCORDO
100
AcDbLine
 62
7
  6
CONTINUOUS
 10
105.7418420632
 20
156.2735918702
 11
105.7276952315
 21
156.2877387019
  0
LINE
  5
328
100
AcDbEntity
  8
RACCORDO
100
AcDbLine
 62
250
  6
CONTINUOUS
 10
175.8191809374
 20
125.3894537451
 11
175.764948383
 21
125.3352211907
  0
LINE
  5
329
100
AcDbEntity
  8
RACCORDO
100
AcDbLine
 62
250
  6
CONTINUOUS
 10
106.9271136194
 20
56.2735918702
 11
106.9412604511
 21
56.2877387019
  0
LINE
  5
32A
100
AcDbEntity
  8
RACCORDO
100
AcDbLine
 62
250
  6
CONTINUOUS
 10
107.1770755432
 20
56.0236299464
 11
107.1912223749
 21
56.0377767781
  0
LINE
  5
32B
100
AcDbEntity
  8
RACCORDO
100
AcDbLine
 62
250
  6
CONTINUOUS
 10
176.2191200155
 20
124.9895146671
 11
176.1648874611
 21
124.9352821126
  0
LINE
  5
32C
100
AcDbEntity
  8
RACCORDO
100
AcDbLine
 62
250
  6
CONTINUOUS
 10
108.7259801883
 20
54.6960854607
 11
108.7505391324
 21
54.7206444047
  0
LINE
  5
32D
100
AcDbEntity
  8
RACCORDO
100
AcDbLine
 62
250
  6
CONTINUOUS
 10
105.7469871928
 20
51.5170924652
 11
105.7225501019
 21
51.4926553743
  0
LINE
  5
32E
100
AcDbEntity
  8
RACCORDO
100
AcDbLine
 62
250
  6
CONTINUOUS
 10
110.2191200155
 20
54.8894232841
 11
110.191130985
 21
54.8614342537
  0
LINE
  5
32F
100
AcDbEntity
  8
RACCORDO
100
AcDbLine
 62
250
  6
CONTINUOUS
 10
107.2191200155
 20
51.7894080537
 11
107.1762180216
 21
51.7465060598
  0
LINE
  5
330
100
AcDbEntity
  8
RACCORDO
100
AcDbLine
 62
250
  6
CONTINUOUS
 10
110.4190895545
 20
54.6894537451
 11
110.3911005241
 21
54.6614647147
  0
LINE
  5
331
100
AcDbEntity
  8
RACCORDO
100
AcDbLine
 62
250
  6
CONTINUOUS
 10
107.519074324
 20
51.4894537451
 11
107.4761723302
 21
51.4465517512
  0
LINE
  5
332
100
AcDbEntity
  8
RACCORDO
100
AcDbLine
 62
250
  6
CONTINUOUS
 10
106.9412604511
 20
157.7980289611
 11
106.9271136194
 21
157.8121757928
  0
LINE
  5
333
100
AcDbEntity
  8
RACCORDO
100
AcDbLine
 62
250
  6
CONTINUOUS
 10
107.1912223749
 20
158.0479908849
 11
107.1770755432
 21
158.0621377166
  0
LINE
  5
334
100
AcDbEntity
  8
RACCORDO
100
AcDbLine
 62
250
  6
CONTINUOUS
 10
151.3068253107
 20
114.8586238532
 11
151.3208502892
 21
114.8445988747
  0
LINE
  5
335
100
AcDbEntity
  8
RACCORDO
100
AcDbLine
 62
250
  6
CONTINUOUS
 10
151.4068100802
 20
114.9586086228
 11
151.4208350587
 21
114.9445836442
  0
LINE
  5
336
100
AcDbEntity
  8
RACCORDO
100
AcDbLine
 62
250
  6
CONTINUOUS
 10
108.7259801883
 20
159.3896822024
 11
108.7505391324
 21
159.3651232583
  0
LINE
  5
337
100
AcDbEntity
  8
RACCORDO
100
AcDbLine
 62
250
  6
CONTINUOUS
 10
105.7225501019
 20
162.5931122888
 11
105.7469871928
 21
162.5686751979
  0
LINE
  5
338
100
AcDbEntity
  8
RACCORDO
100
AcDbLine
 62
250
  6
CONTINUOUS
 10
110.2191200155
 20
159.1963443789
 11
110.191130985
 21
159.2243334094
  0
LINE
  5
339
100
AcDbEntity
  8
RACCORDO
100
AcDbLine
 62
250
  6
CONTINUOUS
 10
107.2191200155
 20
162.2963596094
 11
107.1762180216
 21
162.3392616033
  0
LINE
  5
33A
100
AcDbEntity
  8
RACCORDO
100
AcDbLine
 62
250
  6
CONTINUOUS
 10
110.4190895545
 20
159.3963139179
 11
110.3911005241
 21
159.4243029484
  0
LINE
  5
33B
100
AcDbEntity
  8
RACCORDO
100
AcDbLine
 62
250
  6
CONTINUOUS
 10
107.519074324
 20
162.5963139179
 11
107.4761723302
 21
162.6392159118
  0
LINE
  5
33C
100
AcDbEntity
  8
RACCORDO
100
AcDbLine
 62
250
  6
CONTINUOUS
 10
162.1913111449
 20
152.6428142582
 11
162.1913111442
 21
152.5432282237
  0
LINE
  5
33D
100
AcDbEntity
  8
RACCORDO
100
AcDbLine
 62
250
  6
CONTINUOUS
 10
162.1294856857
 20
152.64558716
 11
162.1294504145
 21
152.545577313
  0
LINE
  5
33E
100
AcDbEntity
  8
RACCORDO
100
AcDbLine
 62
250
  6
CONTINUOUS
 10
164.5260106493
 20
113.7399986355
 11
164.4760182645
 21
113.6534092851
  0
LINE
  5
33F
100
AcDbEntity
  8
RACCORDO
100
AcDbLine
 62
250
  6
CONTINUOUS
 10
164.5260106493
 20
112.2428838315
 11
164.576003034
 21
112.3294731819
  0
LINE
  5
340
100
AcDbEntity
  8
RACCORDO
100
AcDbLine
 62
250
  6
CONTINUOUS
 10
110.225751731
 20
53.1963139179
 11
110.2503106751
 21
53.220872862
  0
LINE
  5
341
100
AcDbEntity
  8
RACCORDO
100
AcDbLine
 62
250
  6
CONTINUOUS
 10
107.2467587355
 20
50.0173209224
 11
107.2223216446
 21
49.9928838315
  0
LINE
  5
342
100
AcDbEntity
  8
DRAFT
100
AcDbLine
 62
7
  6
CONTINUOUS
 10
104.4465679595
 20
122.0449851218
 11
105.7242656632
 21
122.1567691863
  0
LINE
  5
343
100
AcDbEntity
  8
RACCORDO
100
AcDbLine
 62
250
  6
CONTINUOUS
 10
110.6259192664
 20
121.7963443789
 11
119.8191809374
 21
121.7963443789
  0
LINE
  5
344
100
AcDbEntity
  8
RACCORDO
100
AcDbLine
 62
250
  6
CONTINUOUS
 10
166.6259192664
 20
121.7963443789
 11
175.8191809374
 21
121.7963443789
  0
LINE
  5
345
100
AcDbEntity
  8
RACCORDO
100
AcDbLine
 62
250
  6
CONTINUOUS
 10
176.02601004
 20
121.8331191818
 11
176.2259801808
 21
121.8331194026
  0
LINE
  5
346
100
AcDbEntity
  8
RACCORDO
100
AcDbLine
 62
250
  6
CONTINUOUS
 10
110.4190901081
 20
121.8331187785
 11
110.2191200205
 21
121.8331189791
  0
LINE
  5
347
100
AcDbEntity
  8
RACCORDO
100
AcDbLine
 62
7
  6
CONTINUOUS
 10
181.7806274805
 20
121.9378974353
 11
181.301962405
 21
121.9378974353
  0
LINE
  5
348
100
AcDbEntity
  8
RACCORDO
100
AcDbLine
 62
7
  6
CONTINUOUS
 10
105.1431377988
 20
121.9378974353
 11
104.6644727233
 21
121.9378974353
  0
LINE
  5
349
100
AcDbEntity
  8
RACCORDO
100
AcDbLine
 62
250
  6
CONTINUOUS
 10
110.6259192664
 20
121.9963139179
 11
119.8191809374
 21
121.9963139179
  0
LINE
  5
34A
100
AcDbEntity
  8
RACCORDO
100
AcDbLine
 62
250
  6
CONTINUOUS
 10
166.6259192664
 20
121.9963139179
 11
175.8191809374
 21
121.9963139179
  0
LINE
  5
34B
100
AcDbEntity
  8
DRAFT
100
AcDbLine
 62
7
  6
CONTINUOUS
 10
180.9225501019
 20
122.0428838315
 11
180.698113011
 21
122.0428838315
  0
LINE
  5
34C
100
AcDbEntity
  8
DRAFT
100
AcDbLine
 62
7
  6
CONTINUOUS
 10
105.7469871928
 20
122.0428838315
 11
105.5225501019
 21
122.0428838315
  0
LINE
  5
34D
100
AcDbEntity
  8
RACCORDO
100
AcDbLine
 62
250
  6
CONTINUOUS
 10
175.764948383
 20
122.0505464724
 11
166.6801518208
 21
122.0505464724
  0
LINE
  5
34E
100
AcDbEntity
  8
RACCORDO
100
AcDbLine
 62
250
  6
CONTINUOUS
 10
119.764948383
 20
122.0505464724
 11
110.6801518208
 21
122.0505464724
  0
LINE
  5
34F
100
AcDbEntity
  8
RACCORDO
100
AcDbLine
 62
250
  6
CONTINUOUS
 10
175.764948383
 20
122.2505160114
 11
166.6801518208
 21
122.2505160114
  0
LINE
  5
350
100
AcDbEntity
  8
RACCORDO
100
AcDbLine
 62
250
  6
CONTINUOUS
 10
119.764948383
 20
122.2505160114
 11
110.6801518208
 21
122.2505160114
  0
LINE
  5
351
100
AcDbEntity
  8
RACCORDO
100
AcDbLine
 62
250
  6
CONTINUOUS
 10
166.2259801883
 20
122.396252996
 11
166.0260106493
 21
122.396252996
  0
LINE
  5
352
100
AcDbEntity
  8
RACCORDO
100
AcDbLine
 62
250
  6
CONTINUOUS
 10
120.2191200155
 20
122.396252996
 11
120.4190895545
 21
122.396252996
  0
LINE
  5
353
100
AcDbEntity
  8
RACCORDO
100
AcDbLine
 62
250
  6
CONTINUOUS
 10
166.4801822818
 20
122.4504855504
 11
166.2802127427
 21
122.4504855504
  0
LINE
  5
354
100
AcDbEntity
  8
RACCORDO
100
AcDbLine
 62
250
  6
CONTINUOUS
 10
110.4801822818
 20
122.4504855504
 11
110.2802127427
 21
122.4504855504
  0
LINE
  5
355
100
AcDbEntity
  8
RACCORDO
100
AcDbLine
 62
250
  6
CONTINUOUS
 10
119.964917922
 20
122.4504855504
 11
120.1648874611
 21
122.4504855504
  0
LINE
  5
356
100
AcDbEntity
  8
RACCORDO
100
AcDbLine
 62
250
  6
CONTINUOUS
 10
175.964917922
 20
122.4504855504
 11
176.1648874611
 21
122.4504855504
  0
LINE
  5
357
100
AcDbEntity
  8
RACCORDO
100
AcDbLine
 62
250
  6
CONTINUOUS
 10
121.7191200155
 20
122.5963443789
 11
135.0242651451
 21
122.5963443789
  0
LINE
  5
358
100
AcDbEntity
  8
RACCORDO
100
AcDbLine
 62
250
  6
CONTINUOUS
 10
136.2208350587
 20
122.5963443789
 11
150.2242651451
 21
122.5963443789
  0
LINE
  5
359
100
AcDbEntity
  8
RACCORDO
100
AcDbLine
 62
250
  6
CONTINUOUS
 10
151.4208350587
 20
122.5963443789
 11
164.7259801883
 21
122.596344379
  0
LINE
  5
35A
100
AcDbEntity
  8
RACCORDO
100
AcDbLine
 62
250
  6
CONTINUOUS
 10
121.6735845302
 20
122.6418798642
 11
121.3736302217
 21
122.6418798642
  0
LINE
  5
35B
100
AcDbEntity
  8
RACCORDO
100
AcDbLine
 62
250
  6
CONTINUOUS
 10
164.7715156736
 20
122.6418798642
 11
165.0714699821
 21
122.6418798642
  0
LINE
  5
35C
100
AcDbEntity
  8
RACCORDO
100
AcDbLine
 62
250
  6
CONTINUOUS
 10
151.3068253107
 20
122.7120691701
 11
150.3382748931
 21
122.7120691701
  0
LINE
  5
35D
100
AcDbEntity
  8
RACCORDO
100
AcDbLine
 62
250
  6
CONTINUOUS
 10
136.1068253107
 20
122.7120691701
 11
135.1382748931
 21
122.7120691701
  0
LINE
  5
35E
100
AcDbEntity
  8
RACCORDO
100
AcDbLine
 62
250
  6
CONTINUOUS
 10
121.9190895545
 20
122.7963139179
 11
134.9259954188
 21
122.7963139179
  0
LINE
  5
35F
100
AcDbEntity
  8
RACCORDO
100
AcDbLine
 62
250
  6
CONTINUOUS
 10
136.319104785
 20
122.7963139179
 11
150.1259954188
 21
122.7963139179
  0
LINE
  5
360
100
AcDbEntity
  8
RACCORDO
100
AcDbLine
 62
250
  6
CONTINUOUS
 10
151.519104785
 20
122.7963139179
 11
164.5260106493
 21
122.7963139179
  0
LINE
  5
361
100
AcDbEntity
  8
RACCORDO
100
AcDbLine
 62
250
  6
CONTINUOUS
 10
151.3068253107
 20
122.8120539397
 11
150.3382748931
 21
122.8120539397
  0
LINE
  5
362
100
AcDbEntity
  8
RACCORDO
100
AcDbLine
 62
250
  6
CONTINUOUS
 10
136.1068253107
 20
122.8120539397
 11
135.1382748931
 21
122.8120539397
  0
LINE
  5
363
100
AcDbEntity
  8
RACCORDO
100
AcDbLine
 62
250
  6
CONTINUOUS
 10
164.5715461345
 20
122.8418494032
 11
121.8735540693
 21
122.8418494032
  0
LINE
  5
364
100
AcDbEntity
  8
RACCORDO
100
AcDbLine
 62
7
  6
CONTINUOUS
 10
111.8725501019
 20
123.0428838315
 11
174.5725501019
 21
123.0428838315
  0
LINE
  5
365
100
AcDbEntity
  8
RACCORDO
100
AcDbLine
 62
250
  6
CONTINUOUS
 10
110.4801822818
 20
124.9352821126
 11
110.2802127427
 21
124.9352821126
  0
LINE
  5
366
100
AcDbEntity
  8
RACCORDO
100
AcDbLine
 62
250
  6
CONTINUOUS
 10
175.964917922
 20
124.9352821126
 11
176.1648874611
 21
124.9352821126
  0
LINE
  5
367
100
AcDbEntity
  8
RACCORDO
100
AcDbLine
 62
250
  6
CONTINUOUS
 10
110.6801518208
 20
125.1352516516
 11
110.8725501019
 21
125.1352516516
  0
LINE
  5
368
100
AcDbEntity
  8
RACCORDO
100
AcDbLine
 62
250
  6
CONTINUOUS
 10
175.5725501019
 20
125.1352516516
 11
175.764948383
 21
125.1352516516
  0
LINE
  5
369
100
AcDbEntity
  8
RACCORDO
100
AcDbLine
 62
250
  6
CONTINUOUS
 10
110.6801518208
 20
125.3352211907
 11
110.8725501019
 21
125.3352211907
  0
LINE
  5
36A
100
AcDbEntity
  8
RACCORDO
100
AcDbLine
 62
250
  6
CONTINUOUS
 10
175.5725501019
 20
125.3352211907
 11
175.764948383
 21
125.3352211907
  0
LINE
  5
36B
100
AcDbEntity
  8
RACCORDO
100
AcDbLine
 62
250
  6
CONTINUOUS
 10
175.8191809374
 20
125.3894537451
 11
175.5725501019
 21
125.3894537451
  0
LINE
  5
36C
100
AcDbEntity
  8
RACCORDO
100
AcDbLine
 62
250
  6
CONTINUOUS
 10
110.8725501019
 20
125.3894537451
 11
110.6259192664
 21
125.3894537451
  0
LINE
  5
36D
100
AcDbEntity
  8
RACCORDO
100
AcDbLine
 62
250
  6
CONTINUOUS
 10
110.4190885082
 20
125.5526487126
 11
110.2191200173
 21
125.5526490979
  0
LINE
  5
36E
100
AcDbEntity
  8
RACCORDO
100
AcDbLine
 62
250
  6
CONTINUOUS
 10
176.0260104293
 20
125.5526495093
 11
176.2259801878
 21
125.5526494286
  0
LINE
  5
36F
100
AcDbEntity
  8
RACCORDO
100
AcDbLine
 62
250
  6
CONTINUOUS
 10
175.8191809374
 20
125.5894232841
 11
175.5725501019
 21
125.5894232841
  0
LINE
  5
370
100
AcDbEntity
  8
RACCORDO
100
AcDbLine
 62
250
  6
CONTINUOUS
 10
110.8725501019
 20
125.5894232841
 11
110.6259192664
 21
125.5894232841
  0
LINE
  5
371
100
AcDbEntity
  8
DRAFT
100
AcDbLine
 62
7
  6
CONTINUOUS
 10
180.7208345406
 20
122.1567691863
 11
181.9985322443
 21
122.0449851218
  0
LINE
  5
372
100
AcDbEntity
  8
0
100
AcDbLine
 62
7
  6
CONTINUOUS
 10
159.9725501019
 20
114.8428838315
 11
164.4725501019
 21
112.2448076202
  0
LINE
  5
373
100
AcDbEntity
  8
RACCORDO
100
AcDbLine
 62
250
  6
CONTINUOUS
 10
159.26148998
 20
115.2823562571
 11
162.9671649225
 21
113.1428838315
  0
LINE
  5
374
100
AcDbEntity
  8
RACCORDO
100
AcDbLine
 62
250
  6
CONTINUOUS
 10
163.1020122096
 20
113.065029714
 11
164.5260106493
 21
112.2428838315
  0
LINE
  5
375
100
AcDbEntity
  8
RACCORDO
100
AcDbLine
 62
250
  6
CONTINUOUS
 10
159.3114822449
 20
115.3689456767
 11
164.576003034
 21
112.3294731819
  0
LINE
  5
376
100
AcDbEntity
  8
RACCORDO
100
AcDbLine
 62
250
  6
CONTINUOUS
 10
159.3306407218
 20
115.3740791751
 11
164.6882977389
 21
112.2808344541
  0
LINE
  5
377
100
AcDbEntity
  8
RACCORDO
100
AcDbLine
 62
250
  6
CONTINUOUS
 10
159.1882959289
 20
115.5555197966
 11
159.2748852792
 21
115.5055274118
  0
LINE
  5
378
100
AcDbEntity
  8
RACCORDO
100
AcDbLine
 62
250
  6
CONTINUOUS
 10
159.2940437562
 20
115.5106609103
 11
164.6417354405
 21
112.4231696768
  0
LINE
  5
379
100
AcDbEntity
  8
RACCORDO
100
AcDbLine
 62
250
  6
CONTINUOUS
 10
164.6417354405
 20
113.4260853115
 11
159.728318965
 21
116.2628476363
  0
LINE
  5
37A
100
AcDbEntity
  8
RACCORDO
100
AcDbLine
 62
250
  6
CONTINUOUS
 10
159.6365961161
 20
116.331998498
 11
159.7231854665
 21
116.2820061133
  0
LINE
  5
37B
100
AcDbEntity
  8
RACCORDO
100
AcDbLine
 62
250
  6
CONTINUOUS
 10
164.5883129694
 20
113.5723812568
 11
159.8649007001
 21
116.2994446019
  0
LINE
  5
37C
100
AcDbEntity
  8
RACCORDO
100
AcDbLine
 62
250
  6
CONTINUOUS
 10
164.4760182645
 20
113.6534092851
 11
159.8597672017
 21
116.3186030789
  0
LINE
  5
37D
100
AcDbEntity
  8
RACCORDO
100
AcDbLine
 62
250
  6
CONTINUOUS
 10
164.5260106493
 20
113.7399986355
 11
159.9097595864
 21
116.4051924293
  0
LINE
  5
37E
100
AcDbEntity
  8
RACCORDO
100
AcDbLine
 62
250
  6
CONTINUOUS
 10
110.225751731
 20
160.8894537451
 11
110.2503106751
 21
160.8648948011
  0
LINE
  5
37F
100
AcDbEntity
  8
RACCORDO
100
AcDbLine
 62
250
  6
CONTINUOUS
 10
107.2223216446
 20
164.0928838315
 11
107.2467587355
 21
164.0684467406
  0
LINE
  5
380
100
AcDbEntity
  8
RACCORDO
100
AcDbLine
 62
250
  6
CONTINUOUS
 10
151.4191200155
 20
122.6963291484
 11
151.4068100802
 21
122.7086390837
  0
LINE
  5
381
100
AcDbEntity
  8
RACCORDO
100
AcDbLine
 62
250
  6
CONTINUOUS
 10
151.519104785
 20
122.7963139179
 11
151.5067948497
 21
122.8086238532
  0
LINE
  5
382
100
AcDbEntity
  8
RACCORDO
100
AcDbLine
 62
250
  6
CONTINUOUS
 10
159.728318965
 20
116.2628476363
 11
159.7231854665
 21
116.2820061133
  0
LINE
  5
383
100
AcDbEntity
  8
RACCORDO
100
AcDbLine
 62
250
  6
CONTINUOUS
 10
159.8649007001
 20
116.2994446019
 11
159.8597672017
 21
116.3186030789
  0
LINE
  5
384
100
AcDbEntity
  8
RACCORDO
100
AcDbLine
 62
7
  6
CONTINUOUS
 10
163.1020122096
 20
113.0360880413
 11
163.1020122096
 21
113.065029714
  0
LINE
  5
385
100
AcDbEntity
  8
0
100
AcDbLine
 62
7
  6
CONTINUOUS
 10
164.4725501019
 20
91.6428838315
 11
164.4725501019
 21
112.2448076202
  0
LINE
  5
386
100
AcDbEntity
  8
RACCORDO
100
AcDbLine
 62
250
  6
CONTINUOUS
 10
164.5260106493
 20
112.2428838315
 11
164.5260106493
 21
91.5394537451
  0
LINE
  5
387
100
AcDbEntity
  8
RACCORDO
100
AcDbLine
 62
250
  6
CONTINUOUS
 10
164.5260106493
 20
113.7399986355
 11
164.5260106493
 21
122.7963139179
  0
LINE
  5
388
100
AcDbEntity
  8
RACCORDO
100
AcDbLine
 62
250
  6
CONTINUOUS
 10
164.5715461345
 20
91.4939182599
 11
164.5715461345
 21
91.1939639513
  0
LINE
  5
389
100
AcDbEntity
  8
RACCORDO
100
AcDbLine
 62
250
  6
CONTINUOUS
 10
164.5715461345
 20
122.8418494032
 11
164.5715461345
 21
123.0428838315
  0
LINE
  5
38A
100
AcDbEntity
  8
RACCORDO
100
AcDbLine
 62
250
  6
CONTINUOUS
 10
164.6417354405
 20
112.4231696768
 11
164.6417354405
 21
113.4260853115
  0
LINE
  5
38B
100
AcDbEntity
  8
RACCORDO
100
AcDbLine
 62
250
  6
CONTINUOUS
 10
164.7259801883
 20
122.5963443789
 11
164.7259801883
 21
113.6802920406
  0
LINE
  5
38C
100
AcDbEntity
  8
RACCORDO
100
AcDbLine
 62
250
  6
CONTINUOUS
 10
164.7259801883
 20
112.1871379592
 11
164.7259801883
 21
91.7394232841
  0
LINE
  5
38D
100
AcDbEntity
  8
RACCORDO
100
AcDbLine
 62
250
  6
CONTINUOUS
 10
164.74172021
 20
112.4231696768
 11
164.74172021
 21
113.4260853115
  0
LINE
  5
38E
100
AcDbEntity
  8
RACCORDO
100
AcDbLine
 62
250
  6
CONTINUOUS
 10
164.7645336476
 20
96.2261500663
 11
164.7645336476
 21
98.4465283157
  0
LINE
  5
38F
100
AcDbEntity
  8
RACCORDO
100
AcDbLine
 62
250
  6
CONTINUOUS
 10
164.7715156736
 20
91.6938877989
 11
164.7715156736
 21
95.3317228753
  0
LINE
  5
390
100
AcDbEntity
  8
RACCORDO
100
AcDbLine
 62
250
  6
CONTINUOUS
 10
164.7715156736
 20
99.3409555067
 11
164.7715156736
 21
122.6418798642
  0
LINE
  5
391
100
AcDbEntity
  8
RACCORDO
100
AcDbLine
 62
250
  6
CONTINUOUS
 10
165.0644879561
 20
96.2261500663
 11
165.0644879561
 21
98.4465283157
  0
LINE
  5
392
100
AcDbEntity
  8
RACCORDO
100
AcDbLine
 62
250
  6
CONTINUOUS
 10
165.0714699821
 20
91.6938877989
 11
165.0714699821
 21
95.3317228753
  0
LINE
  5
393
100
AcDbEntity
  8
RACCORDO
100
AcDbLine
 62
250
  6
CONTINUOUS
 10
165.0714699821
 20
99.3409555067
 11
165.0714699821
 21
122.6418798642
  0
LINE
  5
394
100
AcDbEntity
  8
RACCORDO
100
AcDbLine
 62
250
  6
CONTINUOUS
 10
166.0260106493
 20
123.0428838315
 11
166.0260106493
 21
122.396252996
  0
LINE
  5
395
100
AcDbEntity
  8
RACCORDO
100
AcDbLine
 62
250
  6
CONTINUOUS
 10
166.2259801883
 20
123.0428838315
 11
166.2259801883
 21
122.396252996
  0
LINE
  5
396
100
AcDbEntity
  8
RACCORDO
100
AcDbLine
 62
250
  6
CONTINUOUS
 10
166.2802127427
 20
122.4504855504
 11
166.2802127427
 21
123.0428838315
  0
LINE
  5
397
100
AcDbEntity
  8
RACCORDO
100
AcDbLine
 62
250
  6
CONTINUOUS
 10
166.4801822818
 20
122.4504855504
 11
166.4801822818
 21
123.0428838315
  0
LINE
  5
398
100
AcDbEntity
  8
RACCORDO
100
AcDbLine
 62
250
  6
CONTINUOUS
 10
166.6259192664
 20
121.9963139179
 11
166.6259192664
 21
121.7963443789
  0
LINE
  5
399
100
AcDbEntity
  8
RACCORDO
100
AcDbLine
 62
250
  6
CONTINUOUS
 10
166.6801518208
 20
122.2505160114
 11
166.6801518208
 21
122.0505464724
  0
LINE
  5
39A
100
AcDbEntity
  8
RACCORDO
100
AcDbLine
 62
250
  6
CONTINUOUS
 10
170.7985781769
 20
159.333919147
 11
170.8061841868
 21
159.3918600311
  0
LINE
  5
39B
100
AcDbEntity
  8
RACCORDO
100
AcDbLine
 62
250
  6
CONTINUOUS
 10
164.5883129694
 20
113.5723812568
 11
164.576003034
 21
113.5937026902
  0
LINE
  5
39C
100
AcDbEntity
  8
RACCORDO
100
AcDbLine
 62
250
  6
CONTINUOUS
 10
164.7382901236
 20
113.6589706072
 11
164.7259801883
 21
113.6802920406
  0
LINE
  5
39D
100
AcDbEntity
  8
RACCORDO
100
AcDbLine
 62
250
  6
CONTINUOUS
 10
167.8892838671
 20
95.3317228753
 11
167.8892838671
 21
99.3409555067
  0
LINE
  5
39E
100
AcDbEntity
  8
RACCORDO
100
AcDbLine
 62
250
  6
CONTINUOUS
 10
168.0383550656
 20
98.4465283157
 11
168.0383550656
 21
96.2261500663
  0
LINE
  5
39F
100
AcDbEntity
  8
RACCORDO
100
AcDbLine
 62
250
  6
CONTINUOUS
 10
168.7837110581
 20
98.4465283157
 11
168.7837110581
 21
96.2261500663
  0
LINE
  5
3A0
100
AcDbEntity
  8
RACCORDO
100
AcDbLine
 62
250
  6
CONTINUOUS
 10
169.2225501019
 20
159.1615707271
 11
169.2225501019
 21
158.6428838315
  0
LINE
  5
3A1
100
AcDbEntity
  8
RACCORDO
100
AcDbLine
 62
7
  6
CONTINUOUS
 10
169.3725501019
 20
159.1354126138
 11
169.3725501019
 21
158.6428838315
  0
LINE
  5
3A2
100
AcDbEntity
  8
RACCORDO
100
AcDbLine
 62
250
  6
CONTINUOUS
 10
169.5725501019
 20
159.1354126138
 11
169.5725501019
 21
158.6428838315
  0
LINE
  5
3A3
100
AcDbEntity
  8
RACCORDO
100
AcDbLine
 62
250
  6
CONTINUOUS
 10
170.3725501019
 20
158.6428838315
 11
170.3725501019
 21
159.1354126138
  0
LINE
  5
3A4
100
AcDbEntity
  8
RACCORDO
100
AcDbLine
 62
7
  6
CONTINUOUS
 10
170.5725501019
 20
158.6428838315
 11
170.5725501019
 21
159.1354126138
  0
LINE
  5
3A5
100
AcDbEntity
  8
RACCORDO
100
AcDbLine
 62
250
  6
CONTINUOUS
 10
170.7225501019
 20
158.6428838315
 11
170.7225501019
 21
159.1615707272
  0
LINE
  5
3A6
100
AcDbEntity
  8
DRAFT
100
AcDbLine
 62
7
  6
CONTINUOUS
 10
180.7225501019
 20
151.103518965
 11
180.6910010517
 21
150.9453881161
  0
LINE
  5
3A7
100
AcDbEntity
  8
RACCORDO
100
AcDbLine
 62
7
  6
CONTINUOUS
 10
129.2385413776
 20
132.4428838315
 11
132.818704659
 21
132.4428838315
  0
LINE
  5
3A8
100
AcDbEntity
  8
RACCORDO
100
AcDbLine
 62
7
  6
CONTINUOUS
 10
153.6263955448
 20
132.4428838315
 11
157.2065588262
 21
132.4428838315
  0
LINE
  5
3A9
100
AcDbEntity
  8
0
100
AcDbLine
 62
7
  6
CONTINUOUS
 10
175.9704272698
 20
54.551652051
 11
175.9720248214
 21
54.4288299996
  0
LINE
  5
3AA
100
AcDbEntity
  8
RACCORDO
100
AcDbLine
 62
7
  6
CONTINUOUS
 10
175.5725501019
 20
124.0428838315
 11
175.5725501019
 21
157.6428838315
  0
LINE
  5
3AB
100
AcDbEntity
  8
RACCORDO
100
AcDbLine
 62
250
  6
CONTINUOUS
 10
175.764948383
 20
122.2505160114
 11
175.764948383
 21
122.0505464724
  0
LINE
  5
3AC
100
AcDbEntity
  8
RACCORDO
100
AcDbLine
 62
250
  6
CONTINUOUS
 10
175.764948383
 20
125.1352516516
 11
175.764948383
 21
125.3352211907
  0
LINE
  5
3AD
100
AcDbEntity
  8
RACCORDO
100
AcDbLine
 62
250
  6
CONTINUOUS
 10
175.8191809374
 20
121.9963139179
 11
175.8191809374
 21
121.7963443789
  0
LINE
  5
3AE
100
AcDbEntity
  8
RACCORDO
100
AcDbLine
 62
250
  6
CONTINUOUS
 10
175.8191809374
 20
125.3894537451
 11
175.8191809374
 21
125.5894232841
  0
LINE
  5
3AF
100
AcDbEntity
  8
RACCORDO
100
AcDbLine
 62
250
  6
CONTINUOUS
 10
175.9526993766
 20
148.7428838315
 11
175.9526993766
 21
148.6428838315
  0
LINE
  5
3B0
100
AcDbEntity
  8
RACCORDO
100
AcDbLine
 62
250
  6
CONTINUOUS
 10
175.9526993766
 20
147.4428838315
 11
175.9526993766
 21
147.3428838315
  0
LINE
  5
3B1
100
AcDbEntity
  8
RACCORDO
100
AcDbLine
 62
250
  6
CONTINUOUS
 10
175.964917922
 20
124.9352821126
 11
175.964917922
 21
122.4504855504
  0
LINE
  5
3B2
100
AcDbEntity
  8
RACCORDO
100
AcDbLine
 62
250
  6
CONTINUOUS
 10
176.0190286233
 20
148.6428838315
 11
176.0190286233
 21
148.4428838315
  0
LINE
  5
3B3
100
AcDbEntity
  8
RACCORDO
100
AcDbLine
 62
250
  6
CONTINUOUS
 10
176.0190286233
 20
147.6428838315
 11
176.0190286233
 21
147.4428838315
  0
LINE
  5
3B4
100
AcDbEntity
  8
RACCORDO
100
AcDbLine
 62
250
  6
CONTINUOUS
 10
176.0260106493
 20
145.5544748322
 11
176.0260104293
 21
125.5526501762
  0
LINE
  5
3B5
100
AcDbEntity
  8
RACCORDO
100
AcDbLine
 62
250
  6
CONTINUOUS
 10
176.02601004
 20
121.8331189895
 11
176.0260106493
 21
54.6894537451
  0
LINE
  5
3B6
100
AcDbEntity
  8
DRAFT
100
AcDbLine
 62
7
  6
CONTINUOUS
 10
180.698113011
 20
146.4597645691
 11
180.7225501019
 21
146.582248698
  0
LINE
  5
3B7
100
AcDbEntity
  8
RACCORDO
100
AcDbLine
 62
7
  6
CONTINUOUS
 10
181.1050008544
 20
92.1334109444
 11
180.9225501019
 21
92.0428838315
  0
LINE
  5
3B8
100
AcDbEntity
  8
RACCORDO
100
AcDbLine
 62
250
  6
CONTINUOUS
 10
180.698113011
 20
135.9736375617
 11
179.2688821822
 21
135.9736375617
  0
LINE
  5
3B9
100
AcDbEntity
  8
RACCORDO
100
AcDbLine
 62
250
  6
CONTINUOUS
 10
180.7032581406
 20
136.2735918702
 11
179.5179865844
 21
136.2735918702
  0
LINE
  5
3BA
100
AcDbEntity
  8
RACCORDO
100
AcDbLine
 62
250
  6
CONTINUOUS
 10
180.7174049723
 20
136.2877387019
 11
179.5038397527
 21
136.2877387019
  0
LINE
  5
3BB
100
AcDbEntity
  8
RACCORDO
100
AcDbLine
 62
250
  6
CONTINUOUS
 10
180.7225501019
 20
136.5876930105
 11
179.2444450913
 21
136.5876930105
  0
LINE
  5
3BC
100
AcDbEntity
  8
RACCORDO
100
AcDbLine
 62
250
  6
CONTINUOUS
 10
179.2444450913
 20
137.4980746526
 11
180.7225501019
 21
137.4980746526
  0
LINE
  5
3BD
100
AcDbEntity
  8
RACCORDO
100
AcDbLine
 62
250
  6
CONTINUOUS
 10
179.5038397527
 20
137.7980289611
 11
180.7174049723
 21
137.7980289611
  0
LINE
  5
3BE
100
AcDbEntity
  8
RACCORDO
100
AcDbLine
 62
250
  6
CONTINUOUS
 10
179.5179865844
 20
137.8121757928
 11
180.7032581406
 21
137.8121757928
  0
LINE
  5
3BF
100
AcDbEntity
  8
RACCORDO
100
AcDbLine
 62
250
  6
CONTINUOUS
 10
179.2688821822
 20
138.1121301014
 11
180.698113011
 21
138.1121301014
  0
LINE
  5
3C0
100
AcDbEntity
  8
RACCORDO
100
AcDbLine
 62
7
  6
CONTINUOUS
 10
181.1050008544
 20
121.9523567186
 11
180.9225501019
 21
122.0428838315
  0
LINE
  5
3C1
100
AcDbEntity
  8
DRAFT
100
AcDbLine
 62
7
  6
CONTINUOUS
 10
180.7225501019
 20
64.682248698
 11
180.6910010517
 21
64.840379547
  0
LINE
  5
3C2
100
AcDbEntity
  8
DRAFT
100
AcDbLine
 62
7
  6
CONTINUOUS
 10
180.698113011
 20
69.326003094
 11
180.7225501019
 21
69.203518965
  0
LINE
  5
3C3
100
AcDbEntity
  8
RACCORDO
100
AcDbLine
 62
250
  6
CONTINUOUS
 10
169.1465220269
 20
159.333919147
 11
169.1389159568
 21
159.3918600277
  0
LINE
  5
3C4
100
AcDbEntity
  8
RACCORDO
100
AcDbLine
 62
250
  6
CONTINUOUS
 10
176.0439870769
 20
154.3428838315
 11
176.0439870769
 21
152.4330155593
  0
LINE
  5
3C5
100
AcDbEntity
  8
RACCORDO
100
AcDbLine
 62
250
  6
CONTINUOUS
 10
176.0527146094
 20
151.4690402068
 11
176.0527146094
 21
148.8428838315
  0
LINE
  5
3C6
100
AcDbEntity
  8
RACCORDO
100
AcDbLine
 62
250
  6
CONTINUOUS
 10
176.0527146094
 20
147.157496336
 11
176.0527146094
 21
147.2428838315
  0
LINE
  5
3C7
100
AcDbEntity
  8
0
100
AcDbLine
 62
250
  6
CONTINUOUS
 10
176.1225501019
 20
54.551652051
 11
176.1225501019
 21
54.034115612
  0
LINE
  5
3C8
100
AcDbEntity
  8
0
100
AcDbLine
 62
250
  6
CONTINUOUS
 10
176.1225501019
 20
159.534115612
 11
176.1225501019
 21
160.051652051
  0
LINE
  5
3C9
100
AcDbEntity
  8
RACCORDO
100
AcDbLine
 62
250
  6
CONTINUOUS
 10
176.1439718464
 20
154.4428838315
 11
176.1439718464
 21
152.4330155593
  0
LINE
  5
3CA
100
AcDbEntity
  8
RACCORDO
100
AcDbLine
 62
250
  6
CONTINUOUS
 10
176.1526993789
 20
151.4690403579
 11
176.1526993789
 21
148.8428838315
  0
LINE
  5
3CB
100
AcDbEntity
  8
RACCORDO
100
AcDbLine
 62
250
  6
CONTINUOUS
 10
176.1526993789
 20
147.1574930148
 11
176.1526993789
 21
147.2428838315
  0
LINE
  5
3CC
100
AcDbEntity
  8
RACCORDO
100
AcDbLine
 62
250
  6
CONTINUOUS
 10
176.1648874611
 20
124.9352821126
 11
176.1648874611
 21
122.4504855504
  0
LINE
  5
3CD
100
AcDbEntity
  8
RACCORDO
100
AcDbLine
 62
250
  6
CONTINUOUS
 10
176.1947895287
 20
53.420842401
 11
176.1947895287
 21
53.220872862
  0
LINE
  5
3CE
100
AcDbEntity
  8
RACCORDO
100
AcDbLine
 62
250
  6
CONTINUOUS
 10
176.1947895287
 20
160.664925262
 11
176.1947895287
 21
160.8648948011
  0
LINE
  5
3CF
100
AcDbEntity
  8
RACCORDO
100
AcDbLine
 62
250
  6
CONTINUOUS
 10
176.2193484728
 20
53.1963139179
 11
176.2193484728
 21
52.9963443789
  0
LINE
  5
3D0
100
AcDbEntity
  8
RACCORDO
100
AcDbLine
 62
250
  6
CONTINUOUS
 10
176.2193484728
 20
160.8894537451
 11
176.2193484728
 21
161.0894232841
  0
LINE
  5
3D1
100
AcDbEntity
  8
RACCORDO
100
AcDbLine
 62
7
  6
CONTINUOUS
 10
176.2225500873
 20
148.4985144247
 11
176.222550099
 21
147.5872547923
  0
LINE
  5
3D2
100
AcDbEntity
  8
RACCORDO
100
AcDbLine
 62
7
  6
CONTINUOUS
 10
176.2225501019
 20
154.6428838315
 11
176.2225501019
 21
159.1929142925
  0
LINE
  5
3D3
100
AcDbEntity
  8
RACCORDO
100
AcDbLine
 62
250
  6
CONTINUOUS
 10
176.2259801883
 20
145.5544748369
 11
176.2259801878
 21
125.5526494286
  0
LINE
  5
3D4
100
AcDbEntity
  8
RACCORDO
100
AcDbLine
 62
250
  6
CONTINUOUS
 10
176.2259801808
 20
121.8331194026
 11
176.2259801883
 21
54.8894232841
  0
LINE
  5
3D5
100
AcDbEntity
  8
RACCORDO
100
AcDbLine
 62
7
  6
CONTINUOUS
 10
176.2539692188
 20
159.2243334094
 11
176.2539692188
 21
54.8614342537
  0
LINE
  5
3D6
100
AcDbEntity
  8
0
100
AcDbLine
 62
7
  6
CONTINUOUS
 10
176.3637818824
 20
54.7928838315
 11
176.3637818824
 21
159.2928838315
  0
LINE
  5
3D7
100
AcDbEntity
  8
0
100
AcDbLine
 62
250
  6
CONTINUOUS
 10
176.4866039338
 20
54.7928838315
 11
176.4866039338
 21
159.2928838315
  0
LINE
  5
3D8
100
AcDbEntity
  8
0
100
AcDbLine
 62
250
  6
CONTINUOUS
 10
176.75849627
 20
54.7928838315
 11
176.75849627
 21
159.2928838315
  0
LINE
  5
3D9
100
AcDbEntity
  8
0
100
AcDbLine
 62
7
  6
CONTINUOUS
 10
176.8813183214
 20
54.7928838315
 11
176.8813183214
 21
159.2928838315
  0
LINE
  5
3DA
100
AcDbEntity
  8
RACCORDO
100
AcDbLine
 62
250
  6
CONTINUOUS
 10
177.4945915324
 20
54.7206444047
 11
177.4945915324
 21
159.3651232583
  0
LINE
  5
3DB
100
AcDbEntity
  8
RACCORDO
100
AcDbLine
 62
250
  6
CONTINUOUS
 10
177.6945610714
 20
54.7206444047
 11
177.6945610714
 21
159.3651232583
  0
LINE
  5
3DC
100
AcDbEntity
  8
RACCORDO
100
AcDbLine
 62
250
  6
CONTINUOUS
 10
177.7191200155
 20
159.3896822024
 11
177.7191200155
 21
54.6960854607
  0
LINE
  5
3DD
100
AcDbEntity
  8
RACCORDO
100
AcDbLine
 62
250
  6
CONTINUOUS
 10
177.9190895545
 20
159.3896822024
 11
177.9190895545
 21
54.6960854607
  0
LINE
  5
3DE
100
AcDbEntity
  8
RACCORDO
100
AcDbLine
 62
250
  6
CONTINUOUS
 10
178.9260258798
 20
51.6894232841
 11
178.9260258798
 21
51.4894537451
  0
LINE
  5
3DF
100
AcDbEntity
  8
RACCORDO
100
AcDbLine
 62
250
  6
CONTINUOUS
 10
178.9260258798
 20
162.3963443789
 11
178.9260258798
 21
162.5963139179
  0
LINE
  5
3E0
100
AcDbEntity
  8
RACCORDO
100
AcDbLine
 62
250
  6
CONTINUOUS
 10
178.9689278736
 20
162.8891778356
 11
178.9689278736
 21
162.6392159118
  0
LINE
  5
3E1
100
AcDbEntity
  8
RACCORDO
100
AcDbLine
 62
250
  6
CONTINUOUS
 10
178.9689278736
 20
51.1965898275
 11
178.9689278736
 21
51.4465517512
  0
LINE
  5
3E2
100
AcDbEntity
  8
RACCORDO
100
AcDbLine
 62
250
  6
CONTINUOUS
 10
179.0260106493
 20
162.2963596094
 11
179.0260106493
 21
51.7894080537
  0
LINE
  5
3E3
100
AcDbEntity
  8
RACCORDO
100
AcDbLine
 62
250
  6
CONTINUOUS
 10
179.2259801883
 20
162.2963596094
 11
179.2259801883
 21
51.7894080537
  0
LINE
  5
3E4
100
AcDbEntity
  8
RACCORDO
100
AcDbLine
 62
250
  6
CONTINUOUS
 10
179.2444450913
 20
137.4980746526
 11
179.2444450913
 21
136.5876930105
  0
LINE
  5
3E5
100
AcDbEntity
  8
RACCORDO
100
AcDbLine
 62
250
  6
CONTINUOUS
 10
179.2444450913
 20
55.4980746526
 11
179.2444450913
 21
54.5876930105
  0
LINE
  5
3E6
100
AcDbEntity
  8
RACCORDO
100
AcDbLine
 62
250
  6
CONTINUOUS
 10
179.2688821822
 20
162.3392616033
 11
179.2688821822
 21
138.1121301014
  0
LINE
  5
3E7
100
AcDbEntity
  8
RACCORDO
100
AcDbLine
 62
250
  6
CONTINUOUS
 10
179.2688821822
 20
135.9736375617
 11
179.2688821822
 21
56.1121301014
  0
LINE
  5
3E8
100
AcDbEntity
  8
RACCORDO
100
AcDbLine
 62
250
  6
CONTINUOUS
 10
179.2688821822
 20
53.9736375617
 11
179.2688821822
 21
51.7465060598
  0
LINE
  5
3E9
100
AcDbEntity
  8
RACCORDO
100
AcDbLine
 62
250
  6
CONTINUOUS
 10
179.4944070151
 20
137.4980746526
 11
179.4944070151
 21
136.5876930105
  0
LINE
  5
3EA
100
AcDbEntity
  8
RACCORDO
100
AcDbLine
 62
250
  6
CONTINUOUS
 10
179.4944070151
 20
55.4980746526
 11
179.4944070151
 21
54.5876930105
  0
LINE
  5
3EB
100
AcDbEntity
  8
RACCORDO
100
AcDbLine
 62
250
  6
CONTINUOUS
 10
179.518844106
 20
162.3392616033
 11
179.518844106
 21
138.1121301014
  0
LINE
  5
3EC
100
AcDbEntity
  8
RACCORDO
100
AcDbLine
 62
250
  6
CONTINUOUS
 10
179.518844106
 20
135.9736375617
 11
179.518844106
 21
56.1121301014
  0
LINE
  5
3ED
100
AcDbEntity
  8
RACCORDO
100
AcDbLine
 62
250
  6
CONTINUOUS
 10
179.518844106
 20
53.9736375617
 11
179.518844106
 21
51.7465060598
  0
LINE
  5
3EE
100
AcDbEntity
  8
DRAFT
100
AcDbLine
 62
7
  6
CONTINUOUS
 10
179.7225501019
 20
151.226003094
 11
179.7225501019
 21
146.4597645691
  0
LINE
  5
3EF
100
AcDbEntity
  8
DRAFT
100
AcDbLine
 62
7
  6
CONTINUOUS
 10
179.7225501019
 20
69.326003094
 11
179.7225501019
 21
64.5597645691
  0
LINE
  5
3F0
100
AcDbEntity
  8
0
100
AcDbLine
 62
7
  6
CONTINUOUS
 10
175.9720248214
 20
54.1569376635
 11
175.9704272698
 21
54.034115612
  0
LINE
  5
3F1
100
AcDbEntity
  8
DRAFT
100
AcDbLine
 62
7
  6
CONTINUOUS
 10
180.7225501019
 20
122.1653679605
 11
180.698113011
 21
122.0428838315
  0
LINE
  5
3F2
100
AcDbEntity
  8
RACCORDO
100
AcDbLine
 62
7
  6
CONTINUOUS
 10
181.9985322443
 20
122.0449851218
 11
181.9805970195
 21
121.9550897905
  0
LINE
  5
3F3
100
AcDbEntity
  8
RACCORDO
100
AcDbLine
 62
250
  6
CONTINUOUS
 10
175.8191809374
 20
121.9963139179
 11
175.764948383
 21
122.0505464724
  0
LINE
  5
3F4
100
AcDbEntity
  8
RACCORDO
100
AcDbLine
 62
250
  6
CONTINUOUS
 10
176.2191202872
 20
122.3962527243
 11
176.1648874611
 21
122.4504855504
  0
LINE
  5
3F5
100
AcDbEntity
  8
DRAFT
100
AcDbLine
 62
7
  6
CONTINUOUS
 10
180.698113011
 20
92.0428838315
 11
180.7225501019
 21
91.9203997026
  0
LINE
  5
3F6
100
AcDbEntity
  8
RACCORDO
100
AcDbLine
 62
7
  6
CONTINUOUS
 10
181.9985322443
 20
92.0407825413
 11
181.9805970195
 21
92.1306778726
  0
LINE
  5
3F7
100
AcDbEntity
  8
RACCORDO
100
AcDbLine
 62
7
  6
CONTINUOUS
 10
180.698113011
 20
51.5170924652
 11
180.698113011
 21
53.9736375617
  0
LINE
  5
3F8
100
AcDbEntity
  8
RACCORDO
100
AcDbLine
 62
7
  6
CONTINUOUS
 10
180.698113011
 20
56.1121301014
 11
180.698113011
 21
64.5597645691
  0
LINE
  5
3F9
100
AcDbEntity
  8
DRAFT
100
AcDbLine
 62
7
  6
CONTINUOUS
 10
180.698113011
 20
69.326003094
 11
180.698113011
 21
92.0428838315
  0
LINE
  5
3FA
100
AcDbEntity
  8
RACCORDO
100
AcDbLine
 62
7
  6
CONTINUOUS
 10
180.698113011
 20
122.0428838315
 11
180.698113011
 21
135.9736375617
  0
LINE
  5
3FB
100
AcDbEntity
  8
RACCORDO
100
AcDbLine
 62
7
  6
CONTINUOUS
 10
180.698113011
 20
138.1121301014
 11
180.698113011
 21
146.4597645691
  0
LINE
  5
3FC
100
AcDbEntity
  8
RACCORDO
100
AcDbLine
 62
7
  6
CONTINUOUS
 10
180.698113011
 20
151.226003094
 11
180.698113011
 21
162.5686751979
  0
LINE
  5
3FD
100
AcDbEntity
  8
RACCORDO
100
AcDbLine
 62
7
  6
CONTINUOUS
 10
180.7225501019
 20
162.5931122888
 11
180.7225501019
 21
151.103518965
  0
LINE
  5
3FE
100
AcDbEntity
  8
DRAFT
100
AcDbLine
 62
7
  6
CONTINUOUS
 10
180.7225501019
 20
150.9428838315
 11
180.7225501019
 21
146.7428838315
  0
LINE
  5
3FF
100
AcDbEntity
  8
RACCORDO
100
AcDbLine
 62
7
  6
CONTINUOUS
 10
180.7225501019
 20
146.582248698
 11
180.7225501019
 21
122.1653679605
  0
LINE
  5
400
100
AcDbEntity
  8
DRAFT
100
AcDbLine
 62
7
  6
CONTINUOUS
 10
180.7225501019
 20
91.9203997026
 11
180.7225501019
 21
69.203518965
  0
LINE
  5
401
100
AcDbEntity
  8
DRAFT
100
AcDbLine
 62
7
  6
CONTINUOUS
 10
180.7225501019
 20
69.0428838315
 11
180.7225501019
 21
64.8428838315
  0
LINE
  5
402
100
AcDbEntity
  8
RACCORDO
100
AcDbLine
 62
7
  6
CONTINUOUS
 10
180.7225501019
 20
51.4926553743
 11
180.7225501019
 21
64.682248698
  0
LINE
  5
403
100
AcDbEntity
  8
DRAFT
100
AcDbLine
 62
7
  6
CONTINUOUS
 10
180.9225501019
 20
122.0428838315
 11
180.9225501019
 21
92.0428838315
  0
LINE
  5
404
100
AcDbEntity
  8
RACCORDO
100
AcDbLine
 62
250
  6
CONTINUOUS
 10
181.1050008544
 20
92.1334109444
 11
181.1050008544
 21
121.9523567186
  0
LINE
  5
405
100
AcDbEntity
  8
RACCORDO
100
AcDbLine
 62
250
  6
CONTINUOUS
 10
181.301962405
 20
92.1478702278
 11
181.301962405
 21
121.9378974353
  0
LINE
  5
406
100
AcDbEntity
  8
RACCORDO
100
AcDbLine
 62
250
  6
CONTINUOUS
 10
181.7806274805
 20
92.1478702278
 11
181.7806274805
 21
121.9378974353
  0
LINE
  5
407
100
AcDbEntity
  8
RACCORDO
100
AcDbLine
 62
250
  6
CONTINUOUS
 10
181.9805970195
 20
92.1306778726
 11
181.9805970195
 21
121.9550897905
  0
LINE
  5
408
100
AcDbEntity
  8
DRAFT
100
AcDbLine
 62
7
  6
CONTINUOUS
 10
181.9985322443
 20
122.0449851218
 11
181.9985322443
 21
92.0407825413
  0
LINE
  5
409
100
AcDbEntity
  8
RACCORDO
100
AcDbLine
 62
250
  6
CONTINUOUS
 10
176.0260106493
 20
145.5544748369
 11
176.2259801883
 21
145.5544748369
  0
LINE
  5
40A
100
AcDbEntity
  8
DRAFT
100
AcDbLine
 62
7
  6
CONTINUOUS
 10
179.7225501019
 20
146.4597645691
 11
180.698113011
 21
146.4597645691
  0
LINE
  5
40B
100
AcDbEntity
  8
RACCORDO
100
AcDbLine
 62
250
  6
CONTINUOUS
 10
176.1526993789
 20
147.157496336
 11
176.0527146094
 21
147.157496336
  0
LINE
  5
40C
100
AcDbEntity
  8
RACCORDO
100
AcDbLine
 62
250
  6
CONTINUOUS
 10
176.0527146094
 20
147.2428838315
 11
176.2191200155
 21
147.2428838315
  0
LINE
  5
40D
100
AcDbEntity
  8
RACCORDO
100
AcDbLine
 62
250
  6
CONTINUOUS
 10
175.9526993766
 20
147.3428838315
 11
175.5725501019
 21
147.3428838315
  0
LINE
  5
40E
100
AcDbEntity
  8
RACCORDO
100
AcDbLine
 62
7
  6
CONTINUOUS
 10
175.5725501019
 20
147.4428838315
 11
176.0190286233
 21
147.4428838315
  0
LINE
  5
40F
100
AcDbEntity
  8
RACCORDO
100
AcDbLine
 62
250
  6
CONTINUOUS
 10
175.5725501019
 20
147.6428838315
 11
176.0190286233
 21
147.6428838315
  0
LINE
  5
410
100
AcDbEntity
  8
RACCORDO
100
AcDbLine
 62
250
  6
CONTINUOUS
 10
175.5725501019
 20
148.4428838315
 11
176.0190286233
 21
148.4428838315
  0
LINE
  5
411
100
AcDbEntity
  8
RACCORDO
100
AcDbLine
 62
7
  6
CONTINUOUS
 10
175.5725501019
 20
148.6428838315
 11
176.0190286233
 21
148.6428838315
  0
LINE
  5
412
100
AcDbEntity
  8
RACCORDO
100
AcDbLine
 62
250
  6
CONTINUOUS
 10
175.9526993766
 20
148.7428838315
 11
175.5725501019
 21
148.7428838315
  0
LINE
  5
413
100
AcDbEntity
  8
RACCORDO
100
AcDbLine
 62
250
  6
CONTINUOUS
 10
176.0527146094
 20
148.8428838315
 11
176.2191200155
 21
148.8428838315
  0
LINE
  5
414
100
AcDbEntity
  8
DRAFT
100
AcDbLine
 62
7
  6
CONTINUOUS
 10
180.7225501019
 20
69.203518965
 11
180.6910010517
 21
69.0453881161
  0
LINE
  5
415
100
AcDbEntity
  8
DRAFT
100
AcDbLine
 62
7
  6
CONTINUOUS
 10
180.698113011
 20
64.5597645691
 11
180.7225501019
 21
64.682248698
  0
LINE
  5
416
100
AcDbEntity
  8
DRAFT
100
AcDbLine
 62
7
  6
CONTINUOUS
 10
179.7225501019
 20
151.226003094
 11
180.698113011
 21
151.226003094
  0
LINE
  5
417
100
AcDbEntity
  8
RACCORDO
100
AcDbLine
 62
250
  6
CONTINUOUS
 10
176.0527146094
 20
151.4690403577
 11
176.1526993789
 21
151.4690403576
  0
LINE
  5
418
100
AcDbEntity
  8
RACCORDO
100
AcDbLine
 62
250
  6
CONTINUOUS
 10
176.0439870769
 20
152.4330155593
 11
176.1439718464
 21
152.4330155593
  0
LINE
  5
419
100
AcDbEntity
  8
RACCORDO
100
AcDbLine
 62
7
  6
CONTINUOUS
 10
157.2065588262
 20
153.6428838315
 11
153.6263955448
 21
153.6428838315
  0
LINE
  5
41A
100
AcDbEntity
  8
RACCORDO
100
AcDbLine
 62
7
  6
CONTINUOUS
 10
132.818704659
 20
153.6428838315
 11
129.2385413776
 21
153.6428838315
  0
LINE
  5
41B
100
AcDbEntity
  8
RACCORDO
100
AcDbLine
 62
250
  6
CONTINUOUS
 10
176.1505204086
 20
147.1281601605
 11
176.0516327278
 21
147.1428016852
  0
LINE
  5
41C
100
AcDbEntity
  8
RACCORDO
100
AcDbLine
 62
250
  6
CONTINUOUS
 10
179.2538778289
 20
136.0377767781
 11
179.2680246606
 21
136.0236299464
  0
LINE
  5
41D
100
AcDbEntity
  8
RACCORDO
100
AcDbLine
 62
250
  6
CONTINUOUS
 10
179.5038397527
 20
136.2877387019
 11
179.5179865844
 21
136.2735918702
  0
LINE
  5
41E
100
AcDbEntity
  8
RACCORDO
100
AcDbLine
 62
250
  6
CONTINUOUS
 10
167.4003791989
 20
158.6428838315
 11
167.3712635078
 21
158.7062729667
  0
LINE
  5
41F
100
AcDbEntity
  8
DRAFT
100
AcDbLine
 62
7
  6
CONTINUOUS
 10
180.7225501019
 20
146.582248698
 11
180.6910010517
 21
146.740379547
  0
LINE
  5
420
100
AcDbEntity
  8
DRAFT
100
AcDbLine
 62
7
  6
CONTINUOUS
 10
180.698113011
 20
151.226003094
 11
180.7225501019
 21
151.103518965
  0
LINE
  5
421
100
AcDbEntity
  8
RACCORDO
100
AcDbLine
 62
250
  6
CONTINUOUS
 10
175.5725501019
 20
154.3428838315
 11
176.0439870769
 21
154.3428838315
  0
LINE
  5
422
100
AcDbEntity
  8
RACCORDO
100
AcDbLine
 62
7
  6
CONTINUOUS
 10
176.2190590889
 20
154.4428838315
 11
175.5725501019
 21
154.4428838315
  0
LINE
  5
423
100
AcDbEntity
  8
RACCORDO
100
AcDbLine
 62
250
  6
CONTINUOUS
 10
176.2225501019
 20
154.6428838315
 11
175.5725501019
 21
154.6428838315
  0
LINE
  5
424
100
AcDbEntity
  8
RACCORDO
100
AcDbLine
 62
250
  6
CONTINUOUS
 10
105.7469871928
 20
155.9736375617
 11
107.1762180216
 21
155.9736375617
  0
LINE
  5
425
100
AcDbEntity
  8
RACCORDO
100
AcDbLine
 62
250
  6
CONTINUOUS
 10
106.9271136194
 20
156.2735918702
 11
105.7418420632
 21
156.2735918702
  0
LINE
  5
426
100
AcDbEntity
  8
RACCORDO
100
AcDbLine
 62
250
  6
CONTINUOUS
 10
106.9412604511
 20
156.2877387019
 11
105.7276952315
 21
156.2877387019
  0
LINE
  5
427
100
AcDbEntity
  8
RACCORDO
100
AcDbLine
 62
250
  6
CONTINUOUS
 10
105.7225501019
 20
156.5876930105
 11
107.2006551125
 21
156.5876930105
  0
LINE
  5
428
100
AcDbEntity
  8
RACCORDO
100
AcDbLine
 62
250
  6
CONTINUOUS
 10
105.7225501019
 20
157.4980746526
 11
107.2006551125
 21
157.4980746526
  0
LINE
  5
429
100
AcDbEntity
  8
RACCORDO
100
AcDbLine
 62
250
  6
CONTINUOUS
 10
105.7276952315
 20
157.7980289611
 11
106.9412604511
 21
157.7980289611
  0
LINE
  5
42A
100
AcDbEntity
  8
RACCORDO
100
AcDbLine
 62
250
  6
CONTINUOUS
 10
105.7418420632
 20
157.8121757928
 11
106.9271136194
 21
157.8121757928
  0
LINE
  5
42B
100
AcDbEntity
  8
RACCORDO
100
AcDbLine
 62
250
  6
CONTINUOUS
 10
105.7469871928
 20
158.1121301014
 11
107.1762180216
 21
158.1121301014
  0
LINE
  5
42C
100
AcDbEntity
  8
RACCORDO
100
AcDbLine
 62
250
  6
CONTINUOUS
 10
163.6108710293
 20
153.855860272
 11
163.678701045
 21
153.8471920878
  0
LINE
  5
42D
100
AcDbEntity
  8
RACCORDO
100
AcDbLine
 62
250
  6
CONTINUOUS
 10
163.5964406476
 20
154.3124440734
 11
163.7019123568
 21
154.2914342504
  0
LINE
  5
42E
100
AcDbEntity
  8
RACCORDO
100
AcDbLine
 62
7
  6
CONTINUOUS
 10
180.7032581406
 20
137.8121757928
 11
180.7174049723
 21
137.7980289611
  0
LINE
  5
42F
100
AcDbEntity
  8
RACCORDO
100
AcDbLine
 62
7
  6
CONTINUOUS
 10
174.5725501019
 20
158.6428838315
 11
111.8725501019
 21
158.6428838315
  0
LINE
  5
430
100
AcDbEntity
  8
RACCORDO
100
AcDbLine
 62
250
  6
CONTINUOUS
 10
169.5725501019
 20
159.1354126138
 11
169.3725501019
 21
159.1354126138
  0
LINE
  5
431
100
AcDbEntity
  8
RACCORDO
100
AcDbLine
 62
250
  6
CONTINUOUS
 10
170.3725501019
 20
159.1354126138
 11
170.5725501019
 21
159.1354126138
  0
LINE
  5
432
100
AcDbEntity
  8
RACCORDO
100
AcDbLine
 62
250
  6
CONTINUOUS
 10
110.2191200155
 20
159.1963443789
 11
131.8021015695
 21
159.1963443789
  0
LINE
  5
433
100
AcDbEntity
  8
0
100
AcDbLine
 62
250
  6
CONTINUOUS
 10
110.0813183214
 20
159.2928838315
 11
109.5637818824
 21
159.2928838315
  0
LINE
  5
434
100
AcDbEntity
  8
0
100
AcDbLine
 62
250
  6
CONTINUOUS
 10
176.3637818824
 20
159.2928838315
 11
176.8813183214
 21
159.2928838315
  0
LINE
  5
435
100
AcDbEntity
  8
RACCORDO
100
AcDbLine
 62
7
  6
CONTINUOUS
 10
133.2108255752
 20
159.3073540134
 11
136.5424732719
 21
159.3073540134
  0
LINE
  5
436
100
AcDbEntity
  8
RACCORDO
100
AcDbLine
 62
7
  6
CONTINUOUS
 10
149.9026269319
 20
159.3073540134
 11
153.2913819408
 21
159.3073540134
  0
LINE
  5
437
100
AcDbEntity
  8
RACCORDO
100
AcDbLine
 62
250
  6
CONTINUOUS
 10
108.9505086714
 20
159.3651232583
 11
108.7505391324
 21
159.3651232583
  0
LINE
  5
438
100
AcDbEntity
  8
RACCORDO
100
AcDbLine
 62
250
  6
CONTINUOUS
 10
177.4945915324
 20
159.3651232583
 11
177.6945610714
 21
159.3651232583
  0
LINE
  5
439
100
AcDbEntity
  8
RACCORDO
100
AcDbLine
 62
250
  6
CONTINUOUS
 10
108.7259801883
 20
159.3896822024
 11
108.5260106493
 21
159.3896822024
  0
LINE
  5
43A
100
AcDbEntity
  8
RACCORDO
100
AcDbLine
 62
250
  6
CONTINUOUS
 10
177.7191200155
 20
159.3896822024
 11
177.9190895545
 21
159.3896822024
  0
LINE
  5
43B
100
AcDbEntity
  8
RACCORDO
100
AcDbLine
 62
7
  6
CONTINUOUS
 10
154.3598043441
 20
159.3928838315
 11
168.3869701061
 21
159.3928838315
  0
LINE
  5
43C
100
AcDbEntity
  8
RACCORDO
100
AcDbLine
 62
7
  6
CONTINUOUS
 10
169.4787441432
 20
159.3928838039
 11
170.4663560643
 21
159.3928838093
  0
LINE
  5
43D
100
AcDbEntity
  8
RACCORDO
100
AcDbLine
 62
7
  6
CONTINUOUS
 10
171.5581300977
 20
159.3928838315
 11
176.0225805629
 21
159.3928838315
  0
LINE
  5
43E
100
AcDbEntity
  8
RACCORDO
100
AcDbLine
 62
250
  6
CONTINUOUS
 10
110.4190895545
 20
159.3963139179
 11
131.8021015818
 21
159.3963139179
  0
LINE
  5
43F
100
AcDbEntity
  8
RACCORDO
100
AcDbLine
 62
7
  6
CONTINUOUS
 10
110.3911005241
 20
159.4243029484
 11
176.0539996797
 21
159.4243029484
  0
LINE
  5
440
100
AcDbEntity
  8
0
100
AcDbLine
 62
7
  6
CONTINUOUS
 10
176.1225501019
 20
159.534115612
 11
110.3225501019
 21
159.534115612
  0
LINE
  5
441
100
AcDbEntity
  8
0
100
AcDbLine
 62
250
  6
CONTINUOUS
 10
176.1225501019
 20
159.6569376635
 11
110.3225501019
 21
159.6569376635
  0
LINE
  5
442
100
AcDbEntity
  8
0
100
AcDbLine
 62
250
  6
CONTINUOUS
 10
176.1225501019
 20
159.9288299996
 11
110.3225501019
 21
159.9288299996
  0
LINE
  5
443
100
AcDbEntity
  8
0
100
AcDbLine
 62
7
  6
CONTINUOUS
 10
176.1225501019
 20
160.051652051
 11
110.3225501019
 21
160.051652051
  0
LINE
  5
444
100
AcDbEntity
  8
RACCORDO
100
AcDbLine
 62
250
  6
CONTINUOUS
 10
176.1947895287
 20
160.664925262
 11
110.2503106751
 21
160.664925262
  0
LINE
  5
445
100
AcDbEntity
  8
RACCORDO
100
AcDbLine
 62
250
  6
CONTINUOUS
 10
176.1947895287
 20
160.8648948011
 11
110.2503106751
 21
160.8648948011
  0
LINE
  5
446
100
AcDbEntity
  8
RACCORDO
100
AcDbLine
 62
250
  6
CONTINUOUS
 10
110.225751731
 20
160.8894537451
 11
176.2193484728
 21
160.8894537451
  0
LINE
  5
447
100
AcDbEntity
  8
RACCORDO
100
AcDbLine
 62
250
  6
CONTINUOUS
 10
110.225751731
 20
161.0894232841
 11
176.2193484728
 21
161.0894232841
  0
LINE
  5
448
100
AcDbEntity
  8
RACCORDO
100
AcDbLine
 62
250
  6
CONTINUOUS
 10
107.4190895545
 20
162.2963596094
 11
107.2191200155
 21
162.2963596094
  0
LINE
  5
449
100
AcDbEntity
  8
RACCORDO
100
AcDbLine
 62
250
  6
CONTINUOUS
 10
179.0260106493
 20
162.2963596094
 11
179.2259801883
 21
162.2963596094
  0
LINE
  5
44A
100
AcDbEntity
  8
RACCORDO
100
AcDbLine
 62
250
  6
CONTINUOUS
 10
179.518844106
 20
162.3392616033
 11
179.2688821822
 21
162.3392616033
  0
LINE
  5
44B
100
AcDbEntity
  8
RACCORDO
100
AcDbLine
 62
250
  6
CONTINUOUS
 10
106.9262560978
 20
162.3392616033
 11
107.1762180216
 21
162.3392616033
  0
LINE
  5
44C
100
AcDbEntity
  8
RACCORDO
100
AcDbLine
 62
250
  6
CONTINUOUS
 10
107.519074324
 20
162.3963443789
 11
178.9260258798
 21
162.3963443789
  0
LINE
  5
44D
100
AcDbEntity
  8
RACCORDO
100
AcDbLine
 62
250
  6
CONTINUOUS
 10
107.519074324
 20
162.5963139179
 11
178.9260258798
 21
162.5963139179
  0
LINE
  5
44E
100
AcDbEntity
  8
RACCORDO
100
AcDbLine
 62
250
  6
CONTINUOUS
 10
107.4761723302
 20
162.6392159118
 11
178.9689278736
 21
162.6392159118
  0
LINE
  5
44F
100
AcDbEntity
  8
RACCORDO
100
AcDbLine
 62
250
  6
CONTINUOUS
 10
107.4761723302
 20
162.8891778356
 11
178.9689278736
 21
162.8891778356
  0
LINE
  5
450
100
AcDbEntity
  8
RACCORDO
100
AcDbLine
 62
7
  6
CONTINUOUS
 10
179.1983414683
 20
164.0684467406
 11
107.2467587355
 21
164.0684467406
  0
LINE
  5
451
100
AcDbEntity
  8
RACCORDO
100
AcDbLine
 62
7
  6
CONTINUOUS
 10
179.2227785592
 20
164.0928838315
 11
107.2223216446
 21
164.0928838315
  0
LINE
  5
452
100
AcDbEntity
  8
RACCORDO
100
AcDbLine
 62
250
  6
CONTINUOUS
 10
179.2680246606
 20
56.0621377166
 11
179.2538778289
 21
56.0479908849
  0
LINE
  5
453
100
AcDbEntity
  8
RACCORDO
100
AcDbLine
 62
250
  6
CONTINUOUS
 10
179.5179865844
 20
55.8121757928
 11
179.5038397527
 21
55.7980289611
  0
LINE
  5
454
100
AcDbEntity
  8
RACCORDO
100
AcDbLine
 62
7
  6
CONTINUOUS
 10
180.7032581406
 20
54.2735918702
 11
180.7174049723
 21
54.2877387019
  0
ARC
  5
455
100
AcDbEntity
  8
0
100
AcDbCircle
 62
7
  6
CONTINUOUS
 10
143.2225501019
 20
-5734.5374537011
 40
5789.1817235492
100
AcDbArc
 50
89.6759121386
 51
90.3240878614
  0
ARC
  5
456
100
AcDbEntity
  8
DRAFT
100
AcDbCircle
 62
7
  6
CONTINUOUS
 10
143.1388412411
 20
-1600.7195428568
 40
1760.0079403349
100
AcDbArc
 50
89.8283828653
 51
89.9972749189
  0
ARC
  5
457
100
AcDbEntity
  8
DRAFT
100
AcDbCircle
 62
7
  6
CONTINUOUS
 10
143.2425353499
 20
-1558.8353528047
 40
1718.1237484084
100
AcDbArc
 50
90.0006664656
 51
90.1736757503
  0
ARC
  5
458
100
AcDbEntity
  8
RACCORDO
100
AcDbCircle
 62
7
  6
CONTINUOUS
 10
107.2222305362
 20
51.4925642658
 40
1.4996769576
100
AcDbArc
 50
179.9965191715
 51
270.0034808285
  0
ARC
  5
459
100
AcDbEntity
  8
RACCORDO
100
AcDbCircle
 62
250
  6
CONTINUOUS
 10
107.4761438378
 20
51.7464775674
 40
0.5498877407
100
AcDbArc
 50
179.9970312237
 51
270.0029687763
  0
ARC
  5
45A
100
AcDbEntity
  8
RACCORDO
100
AcDbCircle
 62
250
  6
CONTINUOUS
 10
107.5191414566
 20
51.7894751863
 40
0.3000217828
100
AcDbArc
 50
180.0128204648
 51
269.9871795353
  0
ARC
  5
45B
100
AcDbEntity
  8
RACCORDO
100
AcDbCircle
 62
250
  6
CONTINUOUS
 10
107.476050234
 20
51.7463839636
 40
0.2998312542
100
AcDbArc
 50
179.9766682944
 51
270.023331706
  0
ARC
  5
45C
100
AcDbEntity
  8
RACCORDO
100
AcDbCircle
 62
250
  6
CONTINUOUS
 10
107.5190681028
 20
51.7894018324
 40
0.0999785485
100
AcDbArc
 50
179.996434724
 51
270.003565276
  0
ARC
  5
45D
100
AcDbEntity
  8
RACCORDO
100
AcDbCircle
 62
250
  6
CONTINUOUS
 10
110.2256582808
 20
54.6959920105
 40
1.6996443813
100
AcDbArc
 50
179.9968497601
 51
270.0031502423
  0
CIRCLE
  5
45E
100
AcDbEntity
  8
ASSI
100
AcDbCircle
 62
7
  6
CONTINUOUS
 10
115.5225501019
 20
143.0428838315
 40
1.5
  0
CIRCLE
  5
45F
100
AcDbEntity
  8
ASSI
100
AcDbCircle
 62
7
  6
CONTINUOUS
 10
115.5225501019
 20
135.0428838315
 40
1.5
  0
ARC
  5
460
100
AcDbEntity
  8
RACCORDO
100
AcDbCircle
 62
250
  6
CONTINUOUS
 10
110.2503137798
 20
54.7206475094
 40
1.4997727822
100
AcDbArc
 50
180.0001186067
 51
269.9998813929
  0
ARC
  5
461
100
AcDbEntity
  8
RACCORDO
100
AcDbCircle
 62
250
  6
CONTINUOUS
 10
110.2255841111
 20
54.6959178408
 40
1.4996001205
100
AcDbArc
 50
179.9935957009
 51
270.0064043022
  0
ARC
  5
462
100
AcDbEntity
  8
RACCORDO
100
AcDbCircle
 62
250
  6
CONTINUOUS
 10
110.2502395433
 20
54.720573273
 40
1.2997284671
100
AcDbArc
 50
179.9968643123
 51
270.0031356871
  0
ARC
  5
463
100
AcDbEntity
  8
RACCORDO
100
AcDbCircle
 62
7
  6
CONTINUOUS
 10
111.8725501019
 20
124.0428838315
 40
1.0
100
AcDbArc
 50
180.0
 51
270.0
  0
ARC
  5
464
100
AcDbEntity
  8
0
100
AcDbCircle
 62
7
  6
CONTINUOUS
 10
110.3225501019
 20
54.7928838315
 40
0.7587682195
100
AcDbArc
 50
180.0
 51
270.0
  0
ARC
  5
465
100
AcDbEntity
  8
0
100
AcDbCircle
 62
250
  6
CONTINUOUS
 10
110.3225501019
 20
54.7928838315
 40
0.6359461681
100
AcDbArc
 50
180.0
 51
270.0
  0
ARC
  5
466
100
AcDbEntity
  8
RACCORDO
100
AcDbCircle
 62
250
  6
CONTINUOUS
 10
110.6267567537
 20
122.4010828543
 40
0.6047390553
100
AcDbArc
 50
249.9159188724
 51
269.9206525439
  0
ARC
  5
467
100
AcDbEntity
  8
RACCORDO
100
AcDbCircle
 62
250
  6
CONTINUOUS
 10
110.6267534747
 20
124.9847050056
 40
0.6047188539
100
AcDbArc
 50
90.0790394276
 51
110.0846115748
  0
ARC
  5
468
100
AcDbEntity
  8
RACCORDO
100
AcDbCircle
 62
250
  6
CONTINUOUS
 10
110.680216238
 20
122.4505499676
 40
0.4000040526
100
AcDbArc
 50
180.0092269953
 51
269.9907730044
  0
ARC
  5
469
100
AcDbEntity
  8
RACCORDO
100
AcDbCircle
 62
250
  6
CONTINUOUS
 10
110.6802162379
 20
124.9352176955
 40
0.4000040526
100
AcDbArc
 50
90.0092269953
 51
179.9907730044
  0
ARC
  5
46A
100
AcDbEntity
  8
RACCORDO
100
AcDbCircle
 62
250
  6
CONTINUOUS
 10
110.6258099868
 20
124.9896239332
 40
0.3998284746
100
AcDbArc
 50
89.9843401869
 51
180.0156559512
  0
ARC
  5
46B
100
AcDbEntity
  8
RACCORDO
100
AcDbCircle
 62
250
  6
CONTINUOUS
 10
110.6258094487
 20
122.3961431783
 40
0.3998279076
100
AcDbArc
 50
179.9842630547
 51
270.015736945
  0
ARC
  5
46C
100
AcDbEntity
  8
0
100
AcDbCircle
 62
250
  6
CONTINUOUS
 10
110.3225501019
 20
54.7928838315
 40
0.3640538319
100
AcDbArc
 50
180.0
 51
270.0
  0
ARC
  5
46D
100
AcDbEntity
  8
RACCORDO
100
AcDbCircle
 62
250
  6
CONTINUOUS
 10
106.9411563841
 20
58.048094952
 40
0.2500674113
100
AcDbArc
 50
270.0238441153
 51
359.9761558847
  0
ARC
  5
46E
100
AcDbEntity
  8
RACCORDO
100
AcDbCircle
 62
250
  6
CONTINUOUS
 10
106.9411563841
 20
56.0376727111
 40
0.2500674113
100
AcDbArc
 50
0.0238441146
 51
89.9761558854
  0
ARC
  5
46F
100
AcDbEntity
  8
RACCORDO
100
AcDbCircle
 62
250
  6
CONTINUOUS
 10
106.9270095524
 20
56.0235258794
 40
0.2500674113
100
AcDbArc
 50
0.0238441153
 51
89.9761558847
  0
ARC
  5
470
100
AcDbEntity
  8
RACCORDO
100
AcDbCircle
 62
250
  6
CONTINUOUS
 10
106.9270095547
 20
58.0622417813
 40
0.250067409
100
AcDbArc
 50
270.0238435889
 51
359.9761564111
  0
ARC
  5
471
100
AcDbEntity
  8
0
100
AcDbCircle
 62
7
  6
CONTINUOUS
 10
110.3225501019
 20
54.7928838315
 40
0.2412317805
100
AcDbArc
 50
180.0
 51
270.0
  0
ARC
  5
472
100
AcDbEntity
  8
RACCORDO
100
AcDbCircle
 62
250
  6
CONTINUOUS
 10
110.4191728082
 20
54.8895065378
 40
0.2000539291
100
AcDbArc
 50
180.0238441273
 51
269.9761558727
  0
ARC
  5
473
100
AcDbEntity
  8
RACCORDO
100
AcDbCircle
 62
250
  6
CONTINUOUS
 10
110.6801412206
 20
122.4504749502
 40
0.1999589391
100
AcDbArc
 50
179.996962634
 51
270.003037366
  0
ARC
  5
474
100
AcDbEntity
  8
RACCORDO
100
AcDbCircle
 62
250
  6
CONTINUOUS
 10
110.6801412206
 20
124.9352927128
 40
0.1999589391
100
AcDbArc
 50
89.996962634
 51
180.003037366
  0
ARC
  5
475
100
AcDbEntity
  8
RACCORDO
100
AcDbCircle
 62
250
  6
CONTINUOUS
 10
110.2256582809
 20
159.3897756526
 40
1.6996443813
100
AcDbArc
 50
89.9968497601
 51
180.0031502423
  0
CIRCLE
  5
476
100
AcDbEntity
  8
ASSI
100
AcDbCircle
 62
7
  6
CONTINUOUS
 10
115.5225501019
 20
151.0428838315
 40
1.5
  0
ARC
  5
477
100
AcDbEntity
  8
RACCORDO
100
AcDbCircle
 62
250
  6
CONTINUOUS
 10
110.2503139169
 20
159.3651200165
 40
1.4997727822
100
AcDbArc
 50
90.0001238459
 51
179.9998761537
  0
ARC
  5
478
100
AcDbEntity
  8
RACCORDO
100
AcDbCircle
 62
7
  6
CONTINUOUS
 10
107.2222305362
 20
162.5932033973
 40
1.4996769576
100
AcDbArc
 50
89.9965191715
 51
180.0034808285
  0
ARC
  5
479
100
AcDbEntity
  8
RACCORDO
100
AcDbCircle
 62
250
  6
CONTINUOUS
 10
110.2255841112
 20
159.3898498223
 40
1.4996001205
100
AcDbArc
 50
89.9935957009
 51
180.0064043022
  0
ARC
  5
47A
100
AcDbEntity
  8
RACCORDO
100
AcDbCircle
 62
250
  6
CONTINUOUS
 10
110.2502396651
 20
159.3651942684
 40
1.2997284671
100
AcDbArc
 50
89.9968696785
 51
180.0031303209
  0
ARC
  5
47B
100
AcDbEntity
  8
RACCORDO
100
AcDbCircle
 62
7
  6
CONTINUOUS
 10
111.8725501019
 20
157.6428838315
 40
1.0
100
AcDbArc
 50
90.0
 51
180.0
  0
ARC
  5
47C
100
AcDbEntity
  8
0
100
AcDbCircle
 62
7
  6
CONTINUOUS
 10
110.3225501019
 20
159.2928838315
 40
0.7587682195
100
AcDbArc
 50
90.0
 51
180.0
  0
ARC
  5
47D
100
AcDbEntity
  8
0
100
AcDbCircle
 62
250
  6
CONTINUOUS
 10
110.3225501019
 20
159.2928838315
 40
0.6359461681
100
AcDbArc
 50
90.0
 51
180.0
  0
ARC
  5
47E
100
AcDbEntity
  8
RACCORDO
100
AcDbCircle
 62
250
  6
CONTINUOUS
 10
107.4761438378
 20
162.3392900956
 40
0.5498877407
100
AcDbArc
 50
89.9970312237
 51
180.0029687763
  0
ARC
  5
47F
100
AcDbEntity
  8
0
100
AcDbCircle
 62
250
  6
CONTINUOUS
 10
110.3225501019
 20
159.2928838315
 40
0.3640538319
100
AcDbArc
 50
90.0
 51
180.0
  0
ARC
  5
480
100
AcDbEntity
  8
RACCORDO
100
AcDbCircle
 62
250
  6
CONTINUOUS
 10
107.5191414566
 20
162.2962924768
 40
0.3000217828
100
AcDbArc
 50
90.0128204648
 51
179.9871795353
  0
ARC
  5
481
100
AcDbEntity
  8
RACCORDO
100
AcDbCircle
 62
250
  6
CONTINUOUS
 10
107.476050234
 20
162.3393836995
 40
0.2998312542
100
AcDbArc
 50
89.9766682944
 51
180.023331706
  0
ARC
  5
482
100
AcDbEntity
  8
RACCORDO
100
AcDbCircle
 62
250
  6
CONTINUOUS
 10
106.9411563841
 20
158.048094952
 40
0.2500674113
100
AcDbArc
 50
270.0238441153
 51
359.9761558847
  0
ARC
  5
483
100
AcDbEntity
  8
RACCORDO
100
AcDbCircle
 62
250
  6
CONTINUOUS
 10
106.941156384
 20
156.0376727111
 40
0.2500674113
100
AcDbArc
 50
0.0238441183
 51
89.9761558817
  0
ARC
  5
484
100
AcDbEntity
  8
RACCORDO
100
AcDbCircle
 62
250
  6
CONTINUOUS
 10
106.9270095524
 20
156.0235258794
 40
0.2500674113
100
AcDbArc
 50
0.0238441153
 51
89.9761558847
  0
ARC
  5
485
100
AcDbEntity
  8
RACCORDO
100
AcDbCircle
 62
250
  6
CONTINUOUS
 10
106.9270095547
 20
158.0622417813
 40
0.250067409
100
AcDbArc
 50
270.0238435857
 51
359.9761564142
  0
ARC
  5
486
100
AcDbEntity
  8
0
100
AcDbCircle
 62
7
  6
CONTINUOUS
 10
110.3225501019
 20
159.2928838315
 40
0.2412317805
100
AcDbArc
 50
90.0
 51
180.0
  0
ARC
  5
487
100
AcDbEntity
  8
RACCORDO
100
AcDbCircle
 62
250
  6
CONTINUOUS
 10
110.4191728082
 20
159.1962611252
 40
0.2000539291
100
AcDbArc
 50
90.0238441224
 51
179.9761558776
  0
ARC
  5
488
100
AcDbEntity
  8
RACCORDO
100
AcDbCircle
 62
250
  6
CONTINUOUS
 10
107.5190681028
 20
162.2963658306
 40
0.0999785485
100
AcDbArc
 50
89.996434724
 51
180.003565276
  0
CIRCLE
  5
489
100
AcDbEntity
  8
ASSI
100
AcDbCircle
 62
7
  6
CONTINUOUS
 10
124.2225501019
 20
129.0428838315
 40
1.500841871
  0
CIRCLE
  5
48A
100
AcDbEntity
  8
DRAFT
100
AcDbCircle
 62
7
  6
CONTINUOUS
 10
124.2225501019
 20
129.0428838315
 40
1.4
  0
CIRCLE
  5
48B
100
AcDbEntity
  8
RACCORDO
100
AcDbCircle
 62
250
  6
CONTINUOUS
 10
124.2225501019
 20
129.0428838315
 40
1.3868325431
  0
CIRCLE
  5
48C
100
AcDbEntity
  8
RACCORDO
100
AcDbCircle
 62
250
  6
CONTINUOUS
 10
124.2225501019
 20
129.0428838315
 40
1.1368706193
  0
ARC
  5
48D
100
AcDbEntity
  8
RACCORDO
100
AcDbCircle
 62
250
  6
CONTINUOUS
 10
118.5558163367
 20
98.4465283157
 40
0.894427191
100
AcDbArc
 50
90.0
 51
180.0
  0
ARC
  5
48E
100
AcDbEntity
  8
RACCORDO
100
AcDbCircle
 62
250
  6
CONTINUOUS
 10
118.5558163367
 20
96.2261500663
 40
0.894427191
100
AcDbArc
 50
180.0
 51
270.0
  0
ARC
  5
48F
100
AcDbEntity
  8
RACCORDO
100
AcDbCircle
 62
250
  6
CONTINUOUS
 10
119.8192122275
 20
122.3962217059
 40
0.5998773278
100
AcDbArc
 50
269.9970114049
 51
0.0029885951
  0
ARC
  5
490
100
AcDbEntity
  8
RACCORDO
100
AcDbCircle
 62
250
  6
CONTINUOUS
 10
121.8735306662
 20
122.6419058584
 40
0.4999004451
100
AcDbArc
 50
126.6261164956
 51
180.0029793183
  0
ARC
  5
491
100
AcDbEntity
  8
RACCORDO
100
AcDbCircle
 62
250
  6
CONTINUOUS
 10
121.8735267274
 20
91.693860457
 40
0.4998965064
100
AcDbArc
 50
179.9968662018
 51
270.0031337982
  0
ARC
  5
492
100
AcDbEntity
  8
RACCORDO
100
AcDbCircle
 62
250
  6
CONTINUOUS
 10
119.7648839843
 20
122.4505499492
 40
0.4000040526
100
AcDbArc
 50
270.0092243588
 51
359.9907756408
  0
ARC
  5
493
100
AcDbEntity
  8
RACCORDO
100
AcDbCircle
 62
250
  6
CONTINUOUS
 10
119.8192867781
 20
122.3961471554
 40
0.399832399
100
AcDbArc
 50
269.9848331248
 51
0.0151668753
  0
ARC
  5
494
100
AcDbEntity
  8
RACCORDO
100
AcDbCircle
 62
250
  6
CONTINUOUS
 10
121.9191728082
 20
91.7395065378
 40
0.200053929
100
AcDbArc
 50
180.0238441186
 51
269.9761558814
  0
ARC
  5
495
100
AcDbEntity
  8
RACCORDO
100
AcDbCircle
 62
250
  6
CONTINUOUS
 10
121.9191728082
 20
122.5962611252
 40
0.2000539291
100
AcDbArc
 50
90.0238441196
 51
179.9761558804
  0
ARC
  5
496
100
AcDbEntity
  8
RACCORDO
100
AcDbCircle
 62
250
  6
CONTINUOUS
 10
119.7649589832
 20
122.4504749502
 40
0.1999589391
100
AcDbArc
 50
269.996962634
 51
0.003037366
  0
ARC
  5
497
100
AcDbEntity
  8
RACCORDO
100
AcDbCircle
 62
250
  6
CONTINUOUS
 10
121.8734153075
 20
91.6937490371
 40
0.1998296253
100
AcDbArc
 50
179.9602140247
 51
270.0397859758
  0
ARC
  5
498
100
AcDbEntity
  8
RACCORDO
100
AcDbCircle
 62
250
  6
CONTINUOUS
 10
121.8734153075
 20
122.6420186259
 40
0.1998296253
100
AcDbArc
 50
89.9602140247
 51
180.0397859758
  0
ARC
  5
499
100
AcDbEntity
  8
RACCORDO
100
AcDbCircle
 62
250
  6
CONTINUOUS
 10
118.5558163367
 20
98.4465283157
 40
0.1490711985
100
AcDbArc
 50
90.0
 51
180.0
  0
ARC
  5
49A
100
AcDbEntity
  8
RACCORDO
100
AcDbCircle
 62
250
  6
CONTINUOUS
 10
118.5558163367
 20
96.2261500663
 40
0.1490711985
100
AcDbArc
 50
180.0
 51
270.0
  0
ARC
  5
49B
100
AcDbEntity
  8
RACCORDO
100
AcDbCircle
 62
7
  6
CONTINUOUS
 10
119.9313699502
 20
232.2128369564
 40
80.1754316681
100
AcDbArc
 50
294.5878336366
 51
294.7199319176
  0
CIRCLE
  5
49C
100
AcDbEntity
  8
ASSI
100
AcDbCircle
 62
7
  6
CONTINUOUS
 10
124.2225501019
 20
154.0428838315
 40
1.500841871
  0
CIRCLE
  5
49D
100
AcDbEntity
  8
DRAFT
100
AcDbCircle
 62
7
  6
CONTINUOUS
 10
124.2225501019
 20
154.0428838315
 40
1.4
  0
CIRCLE
  5
49E
100
AcDbEntity
  8
RACCORDO
100
AcDbCircle
 62
250
  6
CONTINUOUS
 10
124.2225501019
 20
154.0428838315
 40
1.3868325431
  0
CIRCLE
  5
49F
100
AcDbEntity
  8
RACCORDO
100
AcDbCircle
 62
250
  6
CONTINUOUS
 10
124.2225501019
 20
154.0428838315
 40
1.1368706193
  0
ARC
  5
4A0
100
AcDbEntity
  8
RACCORDO
100
AcDbCircle
 62
250
  6
CONTINUOUS
 10
130.9955460048
 20
121.8616267984
 40
20.7764455424
100
AcDbArc
 50
178.5254837659
 51
180.0786168276
  0
ARC
  5
4A1
100
AcDbEntity
  8
RACCORDO
100
AcDbCircle
 62
7
  6
CONTINUOUS
 10
135.1282144284
 20
114.2749244382
 40
8.5371354293
100
AcDbArc
 50
89.9324805949
 51
90.7917439122
  0
ARC
  5
4A2
100
AcDbEntity
  8
RACCORDO
100
AcDbCircle
 62
7
  6
CONTINUOUS
 10
129.2385413776
 20
132.9428838315
 40
0.5
100
AcDbArc
 50
215.8388327289
 51
270.0
  0
ARC
  5
4A3
100
AcDbEntity
  8
RACCORDO
100
AcDbCircle
 62
7
  6
CONTINUOUS
 10
132.818704659
 20
132.9428838315
 40
0.5
100
AcDbArc
 50
270.0
 51
44.1509989007
  0
ARC
  5
4A4
100
AcDbEntity
  8
RACCORDO
100
AcDbCircle
 62
250
  6
CONTINUOUS
 10
135.13831652
 20
114.9586502496
 40
0.1000269646
100
AcDbArc
 50
180.0238441365
 51
269.9761558635
  0
ARC
  5
4A5
100
AcDbEntity
  8
RACCORDO
100
AcDbCircle
 62
250
  6
CONTINUOUS
 10
136.1067836838
 20
114.9586502496
 40
0.1000269646
100
AcDbArc
 50
270.0238441404
 51
359.9761558596
  0
ARC
  5
4A6
100
AcDbEntity
  8
RACCORDO
100
AcDbCircle
 62
250
  6
CONTINUOUS
 10
134.9382707915
 20
122.7086063886
 40
0.1000174706
100
AcDbArc
 50
36.002564093
 51
89.980200536
  0
ARC
  5
4A7
100
AcDbEntity
  8
RACCORDO
100
AcDbCircle
 62
250
  6
CONTINUOUS
 10
134.9259647458
 20
122.696294905
 40
0.1000154483
100
AcDbArc
 50
0.0196170019
 51
89.9803830021
  0
ARC
  5
4A8
100
AcDbEntity
  8
RACCORDO
100
AcDbCircle
 62
250
  6
CONTINUOUS
 10
136.1208974073
 20
114.9445365254
 40
0.0999374746
100
AcDbArc
 50
269.9729844429
 51
0.0270164167
  0
ARC
  5
4A9
100
AcDbEntity
  8
RACCORDO
100
AcDbCircle
 62
250
  6
CONTINUOUS
 10
135.1242012559
 20
114.9445349862
 40
0.0999355807
100
AcDbArc
 50
179.9721011823
 51
270.0278996737
  0
ARC
  5
4AA
100
AcDbEntity
  8
RACCORDO
100
AcDbCircle
 62
7
  6
CONTINUOUS
 10
132.818704659
 20
153.1428838315
 40
0.5
100
AcDbArc
 50
315.8490010993
 51
90.0
  0
ARC
  5
4AB
100
AcDbEntity
  8
RACCORDO
100
AcDbCircle
 62
7
  6
CONTINUOUS
 10
129.2385413776
 20
153.1428838315
 40
0.5
100
AcDbArc
 50
90.0
 51
144.1611672711
  0
ARC
  5
4AC
100
AcDbEntity
  8
RACCORDO
100
AcDbCircle
 62
7
  6
CONTINUOUS
 10
133.2108086835
 20
159.1072421002
 40
0.2001119139
100
AcDbArc
 50
89.9951635753
 51
121.9295899223
  0
ARC
  5
4AD
100
AcDbEntity
  8
RACCORDO
100
AcDbCircle
 62
250
  6
CONTINUOUS
 10
133.0434093073
 20
159.1846590625
 40
0.1998627803
100
AcDbArc
 50
90.0402440779
 51
122.2867806051
  0
ARC
  5
4AE
100
AcDbEntity
  8
RACCORDO
100
AcDbCircle
 62
250
  6
CONTINUOUS
 10
136.3068327709
 20
122.7086021189
 40
0.1000226975
100
AcDbArc
 50
90.0829257409
 51
179.978825496
  0
ARC
  5
4AF
100
AcDbEntity
  8
RACCORDO
100
AcDbCircle
 62
250
  6
CONTINUOUS
 10
136.3191354571
 20
122.6962949061
 40
0.1000154475
100
AcDbArc
 50
90.0196163987
 51
179.9803836014
  0
ARC
  5
4B0
100
AcDbEntity
  8
RACCORDO
100
AcDbCircle
 62
250
  6
CONTINUOUS
 10
143.2225501019
 20
143.0428838315
 40
19.7828443874
100
AcDbArc
 50
125.2601970456
 51
127.9387545652
  0
ARC
  5
4B1
100
AcDbEntity
  8
RACCORDO
100
AcDbCircle
 62
250
  6
CONTINUOUS
 10
143.2225501019
 20
143.0428838315
 40
19.7828443874
100
AcDbArc
 50
52.0527052867
 51
55.7381844525
  0
ARC
  5
4B2
100
AcDbEntity
  8
RACCORDO
100
AcDbCircle
 62
250
  6
CONTINUOUS
 10
143.2225501019
 20
143.0428838315
 40
19.2831489739
100
AcDbArc
 50
54.0031440326
 51
57.935796637
  0
ARC
  5
4B3
100
AcDbEntity
  8
RACCORDO
100
AcDbCircle
 62
250
  6
CONTINUOUS
 10
143.2225501019
 20
143.0428838315
 40
19.2831489739
100
AcDbArc
 50
122.2364072378
 51
126.0019213081
  0
ARC
  5
4B4
100
AcDbEntity
  8
DRAFT
100
AcDbCircle
 62
7
  6
CONTINUOUS
 10
143.2225501019
 20
143.0428838315
 40
19.1288882295
100
AcDbArc
 50
54.6446608619
 51
58.2396277924
  0
ARC
  5
4B5
100
AcDbEntity
  8
RACCORDO
100
AcDbCircle
 62
7
  6
CONTINUOUS
 10
143.2225501019
 20
143.0428838315
 40
19.1288882295
100
AcDbArc
 50
121.9322457191
 51
125.3529633633
  0
ARC
  5
4B6
100
AcDbEntity
  8
RACCORDO
100
AcDbCircle
 62
7
  6
CONTINUOUS
 10
143.2225501019
 20
143.0428838315
 40
17.75
100
AcDbArc
 50
324.1611672711
 51
35.8388327289
  0
ARC
  5
4B7
100
AcDbEntity
  8
RACCORDO
100
AcDbCircle
 62
7
  6
CONTINUOUS
 10
143.2225501019
 20
143.0428838315
 40
17.75
100
AcDbArc
 50
144.1611672711
 51
215.8388327289
  0
ARC
  5
4B8
100
AcDbEntity
  8
RACCORDO
100
AcDbCircle
 62
250
  6
CONTINUOUS
 10
143.2225501019
 20
143.0428838315
 40
17.5828443874
100
AcDbArc
 50
322.926375161
 51
37.0733276846
  0
ARC
  5
4B9
100
AcDbEntity
  8
RACCORDO
100
AcDbCircle
 62
250
  6
CONTINUOUS
 10
143.2225501019
 20
143.0428838315
 40
17.5828443874
100
AcDbArc
 50
62.5407283999
 51
67.6712635119
  0
ARC
  5
4BA
100
AcDbEntity
  8
RACCORDO
100
AcDbCircle
 62
250
  6
CONTINUOUS
 10
143.2225501019
 20
143.0428838315
 40
17.5828443874
100
AcDbArc
 50
112.3287364881
 51
117.457869739
  0
ARC
  5
4BB
100
AcDbEntity
  8
RACCORDO
100
AcDbCircle
 62
250
  6
CONTINUOUS
 10
143.2225501019
 20
143.0428838315
 40
17.5828443874
100
AcDbArc
 50
142.9265496141
 51
217.0737330877
  0
ARC
  5
4BC
100
AcDbEntity
  8
RACCORDO
100
AcDbCircle
 62
250
  6
CONTINUOUS
 10
143.2225501019
 20
143.0428838315
 40
17.0831489739
100
AcDbArc
 50
107.9019829487
 51
114.0359778389
  0
ARC
  5
4BD
100
AcDbEntity
  8
RACCORDO
100
AcDbCircle
 62
250
  6
CONTINUOUS
 10
143.2225501019
 20
143.0428838315
 40
17.0831489739
100
AcDbArc
 50
141.6416022948
 51
218.3584240335
  0
ARC
  5
4BE
100
AcDbEntity
  8
RACCORDO
100
AcDbCircle
 62
250
  6
CONTINUOUS
 10
143.2225501019
 20
143.0428838315
 40
17.0831489739
100
AcDbArc
 50
321.6412495117
 51
38.3570917806
  0
ARC
  5
4BF
100
AcDbEntity
  8
RACCORDO
100
AcDbCircle
 62
250
  6
CONTINUOUS
 10
143.2225501019
 20
143.0428838315
 40
17.0831489739
100
AcDbArc
 50
65.9712759104
 51
72.0980170513
  0
ARC
  5
4C0
100
AcDbEntity
  8
DRAFT
100
AcDbCircle
 62
7
  6
CONTINUOUS
 10
143.2225501019
 20
143.0428838315
 40
17.0462802641
100
AcDbArc
 50
141.5459841709
 51
218.4540158291
  0
ARC
  5
4C1
100
AcDbEntity
  8
DRAFT
100
AcDbCircle
 62
7
  6
CONTINUOUS
 10
143.2225501019
 20
143.0428838315
 40
17.0462802641
100
AcDbArc
 50
107.7189623374
 51
113.7710087876
  0
ARC
  5
4C2
100
AcDbEntity
  8
DRAFT
100
AcDbCircle
 62
7
  6
CONTINUOUS
 10
143.2225501019
 20
143.0428838315
 40
17.0462802641
100
AcDbArc
 50
321.5459841709
 51
38.4540158291
  0
ARC
  5
4C3
100
AcDbEntity
  8
DRAFT
100
AcDbCircle
 62
7
  6
CONTINUOUS
 10
143.2225501019
 20
143.0428838315
 40
17.0462802641
100
AcDbArc
 50
66.2289912124
 51
72.2810376626
  0
ARC
  5
4C4
100
AcDbEntity
  8
DRAFT
100
AcDbCircle
 62
7
  6
CONTINUOUS
 10
143.2225501019
 20
143.0428838315
 40
14.8821550349
100
AcDbArc
 50
314.5710755745
 51
45.4289244255
  0
ARC
  5
4C5
100
AcDbEntity
  8
DRAFT
100
AcDbCircle
 62
7
  6
CONTINUOUS
 10
143.2225501019
 20
143.0428838315
 40
14.8821550349
100
AcDbArc
 50
134.5710755745
 51
225.4289244255
  0
ARC
  5
4C6
100
AcDbEntity
  8
RACCORDO
100
AcDbCircle
 62
250
  6
CONTINUOUS
 10
143.2225501019
 20
143.0428838315
 40
14.7168510261
100
AcDbArc
 50
314.0806697275
 51
45.9193302725
  0
ARC
  5
4C7
100
AcDbEntity
  8
RACCORDO
100
AcDbCircle
 62
250
  6
CONTINUOUS
 10
143.2225501019
 20
143.0428838315
 40
14.7168510261
100
AcDbArc
 50
134.0806697275
 51
225.9193302725
  0
ARC
  5
4C8
100
AcDbEntity
  8
RACCORDO
100
AcDbCircle
 62
250
  6
CONTINUOUS
 10
143.2225501019
 20
143.0428838315
 40
14.2171556126
100
AcDbArc
 50
314.2130506922
 51
45.7869494085
  0
ARC
  5
4C9
100
AcDbEntity
  8
RACCORDO
100
AcDbCircle
 62
250
  6
CONTINUOUS
 10
143.2225501019
 20
143.0428838315
 40
14.2171556126
100
AcDbArc
 50
134.2130506922
 51
225.7869494085
  0
ARC
  5
4CA
100
AcDbEntity
  8
RACCORDO
100
AcDbCircle
 62
7
  6
CONTINUOUS
 10
143.2225501019
 20
143.0428838315
 40
14.0
100
AcDbArc
 50
315.8490010993
 51
44.1509989007
  0
ARC
  5
4CB
100
AcDbEntity
  8
RACCORDO
100
AcDbCircle
 62
7
  6
CONTINUOUS
 10
143.2225501019
 20
143.0428838315
 40
14.0
100
AcDbArc
 50
135.8490010993
 51
224.1509989007
  0
CIRCLE
  5
4CC
100
AcDbEntity
  8
0
100
AcDbCircle
 62
7
  6
CONTINUOUS
 10
143.2225501019
 20
143.0428838315
 40
10.5
  0
CIRCLE
  5
4CD
100
AcDbEntity
  8
CURVE
100
AcDbCircle
 62
7
  6
CONTINUOUS
 10
143.2225501019
 20
143.0428838315
 40
10.25
  0
CIRCLE
  5
4CE
100
AcDbEntity
  8
DRAFT
100
AcDbCircle
 62
7
  6
CONTINUOUS
 10
143.2225501019
 20
143.0428838315
 40
9.7874174794
  0
CIRCLE
  5
4CF
100
AcDbEntity
  8
DRAFT
100
AcDbCircle
 62
7
  6
CONTINUOUS
 10
143.2225501019
 20
143.0428838315
 40
9.75
  0
CIRCLE
  5
4D0
100
AcDbEntity
  8
DRAFT
100
AcDbCircle
 62
7
  6
CONTINUOUS
 10
143.2225501019
 20
143.0428838315
 40
9.0
  0
CIRCLE
  5
4D1
100
AcDbEntity
  8
CURVE
100
AcDbCircle
 62
7
  6
CONTINUOUS
 10
143.2225501019
 20
143.0428838315
 40
8.0
  0
ARC
  5
4D2
100
AcDbEntity
  8
RACCORDO
100
AcDbCircle
 62
7
  6
CONTINUOUS
 10
140.8347596215
 20
185.3681653083
 40
27.1653983368
100
AcDbArc
 50
286.1931758839
 51
286.3319737036
  0
ARC
  5
4D3
100
AcDbEntity
  8
0
100
AcDbCircle
 62
7
  6
CONTINUOUS
 10
143.2225501019
 20
5843.1232213568
 40
5789.1817235418
100
AcDbArc
 50
269.6759121386
 51
270.3240878614
  0
ARC
  5
4D4
100
AcDbEntity
  8
RACCORDO
100
AcDbCircle
 62
7
  6
CONTINUOUS
 10
171.6762067557
 20
-203.4862084045
 40
362.8791114464
100
AcDbArc
 50
90.0186433831
 51
90.137369904
  0
ARC
  5
4D5
100
AcDbEntity
  8
RACCORDO
100
AcDbCircle
 62
7
  6
CONTINUOUS
 10
168.3481827528
 20
-145.2483109164
 40
304.6411972172
100
AcDbArc
 50
89.8512816841
 51
89.9927050193
  0
ARC
  5
4D6
100
AcDbEntity
  8
RACCORDO
100
AcDbCircle
 62
7
  6
CONTINUOUS
 10
179.2228695247
 20
51.4925644088
 40
1.4996769576
100
AcDbArc
 50
269.996524634
 51
0.003475366
  0
ARC
  5
4D7
100
AcDbEntity
  8
RACCORDO
100
AcDbCircle
 62
250
  6
CONTINUOUS
 10
178.968956366
 20
51.7464775674
 40
0.5498877407
100
AcDbArc
 50
269.9970312237
 51
0.0029687763
  0
ARC
  5
4D8
100
AcDbEntity
  8
RACCORDO
100
AcDbCircle
 62
250
  6
CONTINUOUS
 10
178.9259587472
 20
51.7894751863
 40
0.3000217828
100
AcDbArc
 50
270.0128204648
 51
359.9871795353
  0
ARC
  5
4D9
100
AcDbEntity
  8
RACCORDO
100
AcDbCircle
 62
250
  6
CONTINUOUS
 10
178.9690498343
 20
51.7463840991
 40
0.2998314209
100
AcDbArc
 50
269.9766941997
 51
0.0233058009
  0
ARC
  5
4DA
100
AcDbEntity
  8
RACCORDO
100
AcDbCircle
 62
250
  6
CONTINUOUS
 10
179.5039438197
 20
54.0376727111
 40
0.2500674113
100
AcDbArc
 50
90.0238441159
 51
179.9761558841
  0
ARC
  5
4DB
100
AcDbEntity
  8
RACCORDO
100
AcDbCircle
 62
250
  6
CONTINUOUS
 10
179.5180906491
 20
54.0235258817
 40
0.250067409
100
AcDbArc
 50
90.02384359
 51
179.97615641
  0
ARC
  5
4DC
100
AcDbEntity
  8
RACCORDO
100
AcDbCircle
 62
250
  6
CONTINUOUS
 10
178.926032101
 20
51.7894018324
 40
0.0999785485
100
AcDbArc
 50
269.996434724
 51
0.003565276
  0
ARC
  5
4DD
100
AcDbEntity
  8
RACCORDO
100
AcDbCircle
 62
250
  6
CONTINUOUS
 10
155.4477611059
 20
121.8616148341
 40
20.7782386143
100
AcDbArc
 50
359.9214241159
 51
1.4744212144
  0
ARC
  5
4DE
100
AcDbEntity
  8
RACCORDO
100
AcDbCircle
 62
250
  6
CONTINUOUS
 10
155.4492654444
 20
125.524144585
 40
20.7767342972
100
AcDbArc
 50
358.5254940003
 51
0.0786075291
  0
ARC
  5
4DF
100
AcDbEntity
  8
RACCORDO
100
AcDbCircle
 62
7
  6
CONTINUOUS
 10
150.3282144284
 20
114.2749244384
 40
8.5371354291
100
AcDbArc
 50
89.9324805949
 51
90.7917439122
  0
CIRCLE
  5
4E0
100
AcDbEntity
  8
ASSI
100
AcDbCircle
 62
7
  6
CONTINUOUS
 10
162.2225501019
 20
129.0428838315
 40
1.500841871
  0
CIRCLE
  5
4E1
100
AcDbEntity
  8
DRAFT
100
AcDbCircle
 62
7
  6
CONTINUOUS
 10
162.2225501019
 20
129.0428838315
 40
1.4
  0
CIRCLE
  5
4E2
100
AcDbEntity
  8
RACCORDO
100
AcDbCircle
 62
250
  6
CONTINUOUS
 10
162.2225501019
 20
129.0428838315
 40
1.3868325431
  0
CIRCLE
  5
4E3
100
AcDbEntity
  8
RACCORDO
100
AcDbCircle
 62
250
  6
CONTINUOUS
 10
162.2225501019
 20
129.0428838315
 40
1.1368706193
  0
ARC
  5
4E4
100
AcDbEntity
  8
RACCORDO
100
AcDbCircle
 62
7
  6
CONTINUOUS
 10
153.6263955448
 20
132.9428838315
 40
0.5
100
AcDbArc
 50
135.8490010993
 51
270.0
  0
ARC
  5
4E5
100
AcDbEntity
  8
RACCORDO
100
AcDbCircle
 62
7
  6
CONTINUOUS
 10
157.2065588262
 20
132.9428838315
 40
0.5
100
AcDbArc
 50
270.0
 51
324.1611672711
  0
ARC
  5
4E6
100
AcDbEntity
  8
RACCORDO
100
AcDbCircle
 62
250
  6
CONTINUOUS
 10
159.8097704348
 20
116.2320300829
 40
0.1999572228
100
AcDbArc
 50
59.9965694806
 51
150.0034701826
  0
ARC
  5
4E7
100
AcDbEntity
  8
RACCORDO
100
AcDbCircle
 62
250
  6
CONTINUOUS
 10
159.3614583706
 20
115.4555306705
 40
0.1999572228
100
AcDbArc
 50
149.9965894826
 51
240.0034501807
  0
ARC
  5
4E8
100
AcDbEntity
  8
RACCORDO
100
AcDbCircle
 62
250
  6
CONTINUOUS
 10
159.8149235518
 20
116.2127983882
 40
0.1000269646
100
AcDbArc
 50
60.0238441405
 51
149.9761558595
  0
ARC
  5
4E9
100
AcDbEntity
  8
RACCORDO
100
AcDbCircle
 62
250
  6
CONTINUOUS
 10
159.3806899699
 20
115.460683762
 40
0.1000269646
100
AcDbArc
 50
150.0238441421
 51
239.9761558579
  0
ARC
  5
4EA
100
AcDbEntity
  8
RACCORDO
100
AcDbCircle
 62
250
  6
CONTINUOUS
 10
150.33831652
 20
114.9586502496
 40
0.1000269646
100
AcDbArc
 50
180.0238441356
 51
269.9761558644
  0
ARC
  5
4EB
100
AcDbEntity
  8
RACCORDO
100
AcDbCircle
 62
250
  6
CONTINUOUS
 10
151.3067836838
 20
114.9586502496
 40
0.1000269646
100
AcDbArc
 50
270.023844143
 51
359.976155857
  0
ARC
  5
4EC
100
AcDbEntity
  8
RACCORDO
100
AcDbCircle
 62
250
  6
CONTINUOUS
 10
151.5068327709
 20
122.7086021189
 40
0.1000226975
100
AcDbArc
 50
90.0829257409
 51
179.9788254961
  0
ARC
  5
4ED
100
AcDbEntity
  8
RACCORDO
100
AcDbCircle
 62
250
  6
CONTINUOUS
 10
150.1382707915
 20
122.7086063886
 40
0.1000174706
100
AcDbArc
 50
36.002564093
 51
89.980200536
  0
ARC
  5
4EE
100
AcDbEntity
  8
RACCORDO
100
AcDbCircle
 62
250
  6
CONTINUOUS
 10
150.1259647458
 20
122.696294905
 40
0.1000154483
100
AcDbArc
 50
0.0196170019
 51
89.9803830021
  0
ARC
  5
4EF
100
AcDbEntity
  8
RACCORDO
100
AcDbCircle
 62
250
  6
CONTINUOUS
 10
151.5191354571
 20
122.6962949061
 40
0.1000154475
100
AcDbArc
 50
90.0196163987
 51
179.9803836014
  0
ARC
  5
4F0
100
AcDbEntity
  8
RACCORDO
100
AcDbCircle
 62
250
  6
CONTINUOUS
 10
159.8097575709
 20
116.2320780937
 40
0.0999374746
100
AcDbArc
 50
59.9729844434
 51
150.0270164161
  0
ARC
  5
4F1
100
AcDbEntity
  8
RACCORDO
100
AcDbCircle
 62
250
  6
CONTINUOUS
 10
151.3208974073
 20
114.9445365254
 40
0.0999374746
100
AcDbArc
 50
269.9729844423
 51
0.0270164174
  0
ARC
  5
4F2
100
AcDbEntity
  8
RACCORDO
100
AcDbCircle
 62
250
  6
CONTINUOUS
 10
159.3614081609
 20
115.4555172174
 40
0.0999355807
100
AcDbArc
 50
149.9721011823
 51
240.0278996736
  0
ARC
  5
4F3
100
AcDbEntity
  8
RACCORDO
100
AcDbCircle
 62
250
  6
CONTINUOUS
 10
150.3242012559
 20
114.9445349862
 40
0.0999355807
100
AcDbArc
 50
179.9721011823
 51
270.0278996737
  0
ARC
  5
4F4
100
AcDbEntity
  8
RACCORDO
100
AcDbCircle
 62
7
  6
CONTINUOUS
 10
145.6103405859
 20
185.3681653206
 40
27.1653983497
100
AcDbArc
 50
253.6680262965
 51
253.8068241161
  0
ARC
  5
4F5
100
AcDbEntity
  8
RACCORDO
100
AcDbCircle
 62
7
  6
CONTINUOUS
 10
156.3774141045
 20
148.4730491693
 40
19.8451523334
100
AcDbArc
 50
0.0735162443
 51
1.0678271273
  0
ARC
  5
4F6
100
AcDbEntity
  8
RACCORDO
100
AcDbCircle
 62
250
  6
CONTINUOUS
 10
160.2586407771
 20
150.5525576263
 40
14.7698044798
100
AcDbArc
 50
33.5079738419
 51
33.6420019859
  0
CIRCLE
  5
4F7
100
AcDbEntity
  8
ASSI
100
AcDbCircle
 62
7
  6
CONTINUOUS
 10
162.2225501019
 20
154.0428838315
 40
1.500841871
  0
ARC
  5
4F8
100
AcDbEntity
  8
RACCORDO
100
AcDbCircle
 62
250
  6
CONTINUOUS
 10
162.1913184297
 20
154.0372710648
 40
1.499475291
100
AcDbArc
 50
279.2382249412
 51
352.717401399
  0
ARC
  5
4F9
100
AcDbEntity
  8
RACCORDO
100
AcDbCircle
 62
7
  6
CONTINUOUS
 10
162.1889750055
 20
154.0337788938
 40
1.434786418
100
AcDbArc
 50
11.1992061196
 51
14.678851508
  0
ARC
  5
4FA
100
AcDbEntity
  8
RACCORDO
100
AcDbCircle
 62
7
  6
CONTINUOUS
 10
162.2164059077
 20
154.0392609771
 40
1.4068131257
100
AcDbArc
 50
0.1475494468
 51
11.1971680429
  0
ARC
  5
4FB
100
AcDbEntity
  8
RACCORDO
100
AcDbCircle
 62
7
  6
CONTINUOUS
 10
162.2228653321
 20
154.043026922
 40
1.4005681599
100
AcDbArc
 50
268.7090419616
 51
352.3202328666
  0
ARC
  5
4FC
100
AcDbEntity
  8
RACCORDO
100
AcDbCircle
 62
7
  6
CONTINUOUS
 10
162.2225501019
 20
154.0428838315
 40
1.4
100
AcDbArc
 50
14.6666994408
 51
257.3931440062
  0
ARC
  5
4FD
100
AcDbEntity
  8
RACCORDO
100
AcDbCircle
 62
7
  6
CONTINUOUS
 10
162.2225798943
 20
154.0306178026
 40
1.3881557594
100
AcDbArc
 50
266.1546739166
 51
268.7092810774
  0
CIRCLE
  5
4FE
100
AcDbEntity
  8
RACCORDO
100
AcDbCircle
 62
250
  6
CONTINUOUS
 10
162.2225501019
 20
154.0428838315
 40
1.3868325431
  0
ARC
  5
4FF
100
AcDbEntity
  8
RACCORDO
100
AcDbCircle
 62
7
  6
CONTINUOUS
 10
162.2424397143
 20
154.0400942633
 40
1.3807774721
100
AcDbArc
 50
352.3322875581
 51
0.1157540558
  0
CIRCLE
  5
500
100
AcDbEntity
  8
RACCORDO
100
AcDbCircle
 62
250
  6
CONTINUOUS
 10
162.2225501019
 20
154.0428838315
 40
1.1368706193
  0
ARC
  5
501
100
AcDbEntity
  8
RACCORDO
100
AcDbCircle
 62
7
  6
CONTINUOUS
 10
153.6263955448
 20
153.1428838315
 40
0.5
100
AcDbArc
 50
90.0
 51
224.1509989007
  0
ARC
  5
502
100
AcDbEntity
  8
RACCORDO
100
AcDbCircle
 62
7
  6
CONTINUOUS
 10
157.2065588262
 20
153.1428838315
 40
0.5
100
AcDbArc
 50
35.8388327289
 51
90.0
  0
ARC
  5
503
100
AcDbEntity
  8
RACCORDO
100
AcDbCircle
 62
250
  6
CONTINUOUS
 10
162.1310100766
 20
152.335743275
 40
0.4025085301
100
AcDbArc
 50
122.122210498
 51
139.5412587361
  0
ARC
  5
504
100
AcDbEntity
  8
RACCORDO
100
AcDbCircle
 62
250
  6
CONTINUOUS
 10
167.8892838671
 20
96.2261500663
 40
0.894427191
100
AcDbArc
 50
270.0
 51
360.0
  0
ARC
  5
505
100
AcDbEntity
  8
RACCORDO
100
AcDbCircle
 62
250
  6
CONTINUOUS
 10
164.5715734764
 20
91.693860457
 40
0.4998965064
100
AcDbArc
 50
269.9968662018
 51
0.0031337982
  0
ARC
  5
506
100
AcDbEntity
  8
RACCORDO
100
AcDbCircle
 62
250
  6
CONTINUOUS
 10
164.5259273956
 20
91.7395065378
 40
0.2000539291
100
AcDbArc
 50
270.0238441192
 51
359.9761558808
  0
ARC
  5
507
100
AcDbEntity
  8
RACCORDO
100
AcDbCircle
 62
250
  6
CONTINUOUS
 10
164.5716814122
 20
91.693752414
 40
0.1998338442
100
AcDbArc
 50
269.9612136434
 51
0.0388170711
  0
ARC
  5
508
100
AcDbEntity
  8
RACCORDO
100
AcDbCircle
 62
250
  6
CONTINUOUS
 10
167.8892838671
 20
96.2261500663
 40
0.1490711985
100
AcDbArc
 50
270.0
 51
360.0
  0
CIRCLE
  5
509
100
AcDbEntity
  8
ASSI
100
AcDbCircle
 62
7
  6
CONTINUOUS
 10
169.9725501019
 20
135.0428838315
 40
2.5
  0
ARC
  5
50A
100
AcDbEntity
  8
RACCORDO
100
AcDbCircle
 62
250
  6
CONTINUOUS
 10
167.8892838671
 20
98.4465283157
 40
0.894427191
100
AcDbArc
 50
0.0
 51
90.0
  0
ARC
  5
50B
100
AcDbEntity
  8
RACCORDO
100
AcDbCircle
 62
250
  6
CONTINUOUS
 10
166.6258879763
 20
122.3962217059
 40
0.5998773278
100
AcDbArc
 50
179.9970114049
 51
270.0029885951
  0
ARC
  5
50C
100
AcDbEntity
  8
RACCORDO
100
AcDbCircle
 62
250
  6
CONTINUOUS
 10
164.5715650826
 20
122.6419011172
 40
0.4999049
100
AcDbArc
 50
359.9975641197
 51
53.3666798427
  0
ARC
  5
50D
100
AcDbEntity
  8
RACCORDO
100
AcDbCircle
 62
250
  6
CONTINUOUS
 10
166.680216238
 20
122.4505499676
 40
0.4000040526
100
AcDbArc
 50
180.0092269953
 51
269.9907730043
  0
ARC
  5
50E
100
AcDbEntity
  8
RACCORDO
100
AcDbCircle
 62
250
  6
CONTINUOUS
 10
166.6258132632
 20
122.3961469928
 40
0.3998321991
100
AcDbArc
 50
179.9848098188
 51
270.0151901813
  0
ARC
  5
50F
100
AcDbEntity
  8
RACCORDO
100
AcDbCircle
 62
250
  6
CONTINUOUS
 10
164.5259273956
 20
122.5962611253
 40
0.200053929
100
AcDbArc
 50
0.023844114
 51
89.976155886
  0
ARC
  5
510
100
AcDbEntity
  8
RACCORDO
100
AcDbCircle
 62
250
  6
CONTINUOUS
 10
166.6801412206
 20
122.4504749502
 40
0.1999589391
100
AcDbArc
 50
179.996962634
 51
270.003037366
  0
ARC
  5
511
100
AcDbEntity
  8
RACCORDO
100
AcDbCircle
 62
250
  6
CONTINUOUS
 10
164.5716815318
 20
122.6420151434
 40
0.199833833
100
AcDbArc
 50
359.9612131823
 51
90.0388206098
  0
ARC
  5
512
100
AcDbEntity
  8
RACCORDO
100
AcDbCircle
 62
250
  6
CONTINUOUS
 10
167.8892838671
 20
98.4465283157
 40
0.1490711985
100
AcDbArc
 50
0.0
 51
90.0
  0
ARC
  5
513
100
AcDbEntity
  8
RACCORDO
100
AcDbCircle
 62
250
  6
CONTINUOUS
 10
164.6259441092
 20
113.6803809114
 40
0.1000380254
100
AcDbArc
 50
240.0509008677
 51
359.9490991323
  0
ARC
  5
514
100
AcDbEntity
  8
RACCORDO
100
AcDbCircle
 62
250
  6
CONTINUOUS
 10
164.6382604094
 20
113.6590484536
 40
0.1000304818
100
AcDbArc
 50
240.0445894771
 51
359.9554105229
  0
ARC
  5
515
100
AcDbEntity
  8
RACCORDO
100
AcDbCircle
 62
250
  6
CONTINUOUS
 10
164.6382936393
 20
112.1942383402
 40
0.0999964845
100
AcDbArc
 50
0.003875355
 51
59.996124645
  0
ARC
  5
516
100
AcDbEntity
  8
RACCORDO
100
AcDbCircle
 62
250
  6
CONTINUOUS
 10
164.6259837042
 20
112.1871311958
 40
0.0999964844
100
AcDbArc
 50
0.0038753036
 51
59.9961246964
  0
ARC
  5
517
100
AcDbEntity
  8
RACCORDO
100
AcDbCircle
 62
250
  6
CONTINUOUS
 10
176.2194417633
 20
54.69599217
 40
1.6996443813
100
AcDbArc
 50
269.9968551388
 51
0.0031448637
  0
ARC
  5
518
100
AcDbEntity
  8
RACCORDO
100
AcDbCircle
 62
250
  6
CONTINUOUS
 10
176.1947864241
 20
54.7206475094
 40
1.4997727822
100
AcDbArc
 50
270.0001186067
 51
359.9998813929
  0
ARC
  5
519
100
AcDbEntity
  8
RACCORDO
100
AcDbCircle
 62
250
  6
CONTINUOUS
 10
176.2195159485
 20
54.6959179849
 40
1.4996001205
100
AcDbArc
 50
269.9936012109
 51
0.0063987924
  0
ARC
  5
51A
100
AcDbEntity
  8
RACCORDO
100
AcDbCircle
 62
250
  6
CONTINUOUS
 10
176.1948606605
 20
54.720573273
 40
1.2997284671
100
AcDbArc
 50
269.9968643123
 51
0.0031356871
  0
ARC
  5
51B
100
AcDbEntity
  8
0
100
AcDbCircle
 62
7
  6
CONTINUOUS
 10
176.1225501019
 20
54.7928838315
 40
0.7587682195
100
AcDbArc
 50
270.0
 51
360.0
  0
ARC
  5
51C
100
AcDbEntity
  8
0
100
AcDbCircle
 62
250
  6
CONTINUOUS
 10
176.1225501019
 20
54.7928838315
 40
0.6359461681
100
AcDbArc
 50
270.0
 51
360.0
  0
ARC
  5
51D
100
AcDbEntity
  8
0
100
AcDbCircle
 62
250
  6
CONTINUOUS
 10
176.1225501019
 20
54.7928838315
 40
0.3640538319
100
AcDbArc
 50
270.0
 51
360.0
  0
ARC
  5
51E
100
AcDbEntity
  8
RACCORDO
100
AcDbCircle
 62
250
  6
CONTINUOUS
 10
179.5039438198
 20
56.048094952
 40
0.2500674113
100
AcDbArc
 50
180.0238441195
 51
269.9761558805
  0
ARC
  5
51F
100
AcDbEntity
  8
RACCORDO
100
AcDbCircle
 62
250
  6
CONTINUOUS
 10
179.5180906514
 20
56.0622417837
 40
0.2500674113
100
AcDbArc
 50
180.0238441184
 51
269.9761558816
  0
ARC
  5
520
100
AcDbEntity
  8
0
100
AcDbCircle
 62
7
  6
CONTINUOUS
 10
176.1225501019
 20
54.7928838315
 40
0.2412317805
100
AcDbArc
 50
270.0
 51
360.0
  0
ARC
  5
521
100
AcDbEntity
  8
RACCORDO
100
AcDbCircle
 62
250
  6
CONTINUOUS
 10
176.0259273956
 20
54.8895065378
 40
0.2000539291
100
AcDbArc
 50
270.0238441303
 51
359.9761558697
  0
ARC
  5
522
100
AcDbEntity
  8
RACCORDO
100
AcDbCircle
 62
7
  6
CONTINUOUS
 10
174.5725501019
 20
124.0428838315
 40
1.0
100
AcDbArc
 50
270.0
 51
360.0
  0
ARC
  5
523
100
AcDbEntity
  8
RACCORDO
100
AcDbCircle
 62
250
  6
CONTINUOUS
 10
175.8183468819
 20
124.9846917675
 40
0.6047320918
100
AcDbArc
 50
69.9159901906
 51
89.9209767792
  0
ARC
  5
524
100
AcDbEntity
  8
RACCORDO
100
AcDbCircle
 62
250
  6
CONTINUOUS
 10
175.8183450749
 20
122.4010606537
 40
0.6047168525
100
AcDbArc
 50
270.0791964175
 51
290.0846807666
  0
ARC
  5
525
100
AcDbEntity
  8
RACCORDO
100
AcDbCircle
 62
250
  6
CONTINUOUS
 10
175.7648839843
 20
122.4505499492
 40
0.4000040526
100
AcDbArc
 50
270.0092243588
 51
359.9907756408
  0
ARC
  5
526
100
AcDbEntity
  8
RACCORDO
100
AcDbCircle
 62
250
  6
CONTINUOUS
 10
175.7648839843
 20
124.9352177139
 40
0.4000040526
100
AcDbArc
 50
0.0092243588
 51
89.9907756408
  0
ARC
  5
527
100
AcDbEntity
  8
RACCORDO
100
AcDbCircle
 62
250
  6
CONTINUOUS
 10
175.8192848621
 20
124.9896185943
 40
0.3998347027
100
AcDbArc
 50
359.9851070013
 51
90.014892245
  0
ARC
  5
528
100
AcDbEntity
  8
RACCORDO
100
AcDbCircle
 62
250
  6
CONTINUOUS
 10
175.8192871113
 20
122.3961468231
 40
0.3998320727
100
AcDbArc
 50
269.9847853611
 51
0.0152143628
  0
ARC
  5
529
100
AcDbEntity
  8
RACCORDO
100
AcDbCircle
 62
250
  6
CONTINUOUS
 10
179.5039438197
 20
136.0376727111
 40
0.2500674113
100
AcDbArc
 50
90.0238441103
 51
179.9761558897
  0
ARC
  5
52A
100
AcDbEntity
  8
RACCORDO
100
AcDbCircle
 62
250
  6
CONTINUOUS
 10
179.5039438198
 20
138.048094952
 40
0.2500674113
100
AcDbArc
 50
180.0238441238
 51
269.9761558762
  0
ARC
  5
52B
100
AcDbEntity
  8
RACCORDO
100
AcDbCircle
 62
250
  6
CONTINUOUS
 10
179.5180906514
 20
138.0622417836
 40
0.2500674113
100
AcDbArc
 50
180.0238441158
 51
269.9761558842
  0
ARC
  5
52C
100
AcDbEntity
  8
RACCORDO
100
AcDbCircle
 62
250
  6
CONTINUOUS
 10
179.5180906491
 20
136.0235258817
 40
0.250067409
100
AcDbArc
 50
90.02384359
 51
179.97615641
  0
ARC
  5
52D
100
AcDbEntity
  8
RACCORDO
100
AcDbCircle
 62
250
  6
CONTINUOUS
 10
175.7649589832
 20
124.9352927128
 40
0.1999589391
100
AcDbArc
 50
359.996962634
 51
90.003037366
  0
ARC
  5
52E
100
AcDbEntity
  8
RACCORDO
100
AcDbCircle
 62
250
  6
CONTINUOUS
 10
175.7649589832
 20
122.4504749502
 40
0.1999589391
100
AcDbArc
 50
269.996962634
 51
0.003037366
  0
ARC
  5
52F
100
AcDbEntity
  8
RACCORDO
100
AcDbCircle
 62
250
  6
CONTINUOUS
 10
163.9480044492
 20
154.2414657632
 40
0.4024899969
100
AcDbArc
 50
138.2066821417
 51
157.2122401408
  0
ARC
  5
530
100
AcDbEntity
  8
RACCORDO
100
AcDbCircle
 62
250
  6
CONTINUOUS
 10
169.9725501019
 20
149.1428838315
 40
6.7178709263
100
AcDbArc
 50
28.8531316253
 51
33.522243261
  0
ARC
  5
531
100
AcDbEntity
  8
RACCORDO
100
AcDbCircle
 62
250
  6
CONTINUOUS
 10
169.9725501019
 20
149.1428838315
 40
6.6179051938
100
AcDbArc
 50
28.8531316254
 51
32.1841015791
  0
ARC
  5
532
100
AcDbEntity
  8
RACCORDO
100
AcDbCircle
 62
250
  6
CONTINUOUS
 10
169.9725501019
 20
149.1428838315
 40
6.6099123238
100
AcDbArc
 50
28.6374429206
 51
32.0734979492
  0
ARC
  5
533
100
AcDbEntity
  8
RACCORDO
100
AcDbCircle
 62
250
  6
CONTINUOUS
 10
169.9725501019
 20
153.0428838315
 40
6.5449647763
100
AcDbArc
 50
104.0199372582
 51
121.1532308334
  0
ARC
  5
534
100
AcDbEntity
  8
RACCORDO
100
AcDbCircle
 62
250
  6
CONTINUOUS
 10
169.9725501019
 20
153.0428838315
 40
6.5449647763
100
AcDbArc
 50
58.8478257969
 51
75.9800627418
  0
ARC
  5
535
100
AcDbEntity
  8
RACCORDO
100
AcDbCircle
 62
250
  6
CONTINUOUS
 10
169.9725501019
 20
153.0428838315
 40
6.5449647763
100
AcDbArc
 50
27.1066001847
 51
31.1524110961
  0
ARC
  5
536
100
AcDbEntity
  8
RACCORDO
100
AcDbCircle
 62
250
  6
CONTINUOUS
 10
169.9725501019
 20
148.0428838315
 40
6.5449647763
100
AcDbArc
 50
328.8426267272
 51
337.6538015922
  0
ARC
  5
537
100
AcDbEntity
  8
RACCORDO
100
AcDbCircle
 62
250
  6
CONTINUOUS
 10
169.9725501019
 20
149.1428838315
 40
6.5099465913
100
AcDbArc
 50
20.9359089251
 51
30.6409318587
  0
ARC
  5
538
100
AcDbEntity
  8
RACCORDO
100
AcDbCircle
 62
250
  6
CONTINUOUS
 10
169.9725501019
 20
153.0428838315
 40
6.3450333113
100
AcDbArc
 50
170.19363817
 51
172.7174873341
  0
ARC
  5
539
100
AcDbEntity
  8
RACCORDO
100
AcDbCircle
 62
250
  6
CONTINUOUS
 10
169.9725501019
 20
153.0428838315
 40
6.3450333113
100
AcDbArc
 50
97.4802820969
 51
118.0292500821
  0
ARC
  5
53A
100
AcDbEntity
  8
RACCORDO
100
AcDbCircle
 62
250
  6
CONTINUOUS
 10
169.9725501019
 20
153.0428838315
 40
6.3450333113
100
AcDbArc
 50
61.9566648796
 51
82.5197179031
  0
ARC
  5
53B
100
AcDbEntity
  8
RACCORDO
100
AcDbCircle
 62
250
  6
CONTINUOUS
 10
169.9725501019
 20
153.0428838315
 40
6.3450333113
100
AcDbArc
 50
27.1066001846
 51
28.024269178
  0
ARC
  5
53C
100
AcDbEntity
  8
RACCORDO
100
AcDbCircle
 62
250
  6
CONTINUOUS
 10
169.9725501019
 20
148.0428838315
 40
6.3450333113
100
AcDbArc
 50
331.9643629862
 51
349.7306823325
  0
ARC
  5
53D
100
AcDbEntity
  8
RACCORDO
100
AcDbCircle
 62
250
  6
CONTINUOUS
 10
169.9725501019
 20
148.0428838315
 40
6.2453211691
100
AcDbArc
 50
333.7464126939
 51
351.5778131773
  0
ARC
  5
53E
100
AcDbEntity
  8
RACCORDO
100
AcDbCircle
 62
250
  6
CONTINUOUS
 10
169.9725501019
 20
153.0428838315
 40
6.2322282083
100
AcDbArc
 50
114.6700871895
 51
116.0031198679
  0
ARC
  5
53F
100
AcDbEntity
  8
RACCORDO
100
AcDbCircle
 62
250
  6
CONTINUOUS
 10
169.9725501019
 20
153.0428838315
 40
6.2322282083
100
AcDbArc
 50
63.9968799422
 51
65.3299128106
  0
ARC
  5
540
100
AcDbEntity
  8
RACCORDO
100
AcDbCircle
 62
250
  6
CONTINUOUS
 10
169.9725501019
 20
148.0428838315
 40
6.1453554366
100
AcDbArc
 50
335.7111192061
 51
351.5778529671
  0
ARC
  5
541
100
AcDbEntity
  8
RACCORDO
100
AcDbCircle
 62
250
  6
CONTINUOUS
 10
169.97170364
 20
153.200810676
 40
6.1105710845
100
AcDbArc
 50
66.3026662072
 51
68.3424725606
  0
ARC
  5
542
100
AcDbEntity
  8
RACCORDO
100
AcDbCircle
 62
250
  6
CONTINUOUS
 10
169.9729934575
 20
153.2018139867
 40
6.1094903658
100
AcDbArc
 50
111.6589162555
 51
113.6976453309
  0
ARC
  5
543
100
AcDbEntity
  8
RACCORDO
100
AcDbCircle
 62
7
  6
CONTINUOUS
 10
169.9726213786
 20
153.2027618831
 40
6.1084720663
100
AcDbArc
 50
97.7755725307
 51
111.6589162555
  0
ARC
  5
544
100
AcDbEntity
  8
RACCORDO
100
AcDbCircle
 62
7
  6
CONTINUOUS
 10
169.9724923427
 20
153.2028220517
 40
6.1084106221
100
AcDbArc
 50
68.3423854344
 51
82.2244767397
  0
ARC
  5
545
100
AcDbEntity
  8
RACCORDO
100
AcDbCircle
 62
250
  6
CONTINUOUS
 10
169.9718292509
 20
153.3070411454
 40
5.9604305223
100
AcDbArc
 50
66.288320262
 51
68.4539080211
  0
ARC
  5
546
100
AcDbEntity
  8
RACCORDO
100
AcDbCircle
 62
250
  6
CONTINUOUS
 10
169.9726196355
 20
153.3087380916
 40
5.9586131213
100
AcDbArc
 50
97.9077381324
 51
113.7121025702
  0
ARC
  5
547
100
AcDbEntity
  8
RACCORDO
100
AcDbCircle
 62
250
  6
CONTINUOUS
 10
169.9725676977
 20
153.3093847141
 40
5.9579606896
100
AcDbArc
 50
68.4536193357
 51
82.0894724938
  0
ARC
  5
548
100
AcDbEntity
  8
RACCORDO
100
AcDbCircle
 62
250
  6
CONTINUOUS
 10
169.9730695869
 20
153.312963667
 40
5.9543467201
100
AcDbArc
 50
82.0895163193
 51
82.2196792162
  0
ARC
  5
549
100
AcDbEntity
  8
RACCORDO
100
AcDbCircle
 62
250
  6
CONTINUOUS
 10
169.9712477814
 20
153.3187409376
 40
5.9485166561
100
AcDbArc
 50
97.7803831084
 51
97.9079053989
  0
CIRCLE
  5
54A
100
AcDbEntity
  8
ASSI
100
AcDbCircle
 62
7
  6
CONTINUOUS
 10
169.9725501019
 20
151.0428838315
 40
1.5
  0
ARC
  5
54B
100
AcDbEntity
  8
0
100
AcDbCircle
 62
7
  6
CONTINUOUS
 10
169.9725501019
 20
149.1428838315
 40
1.0
100
AcDbArc
 50
38.4536938553
 51
141.5463061447
  0
ARC
  5
54C
100
AcDbEntity
  8
RACCORDO
100
AcDbCircle
 62
250
  6
CONTINUOUS
 10
169.1723554818
 20
159.1354314346
 40
0.4001946205
100
AcDbArc
 50
359.997305434
 51
40.0396754507
  0
ARC
  5
54D
100
AcDbEntity
  8
RACCORDO
100
AcDbCircle
 62
250
  6
CONTINUOUS
 10
170.7727204082
 20
159.1354402939
 40
0.4001703073
100
AcDbArc
 50
139.9590552381
 51
180.0039631953
  0
ARC
  5
54E
100
AcDbEntity
  8
RACCORDO
100
AcDbCircle
 62
7
  6
CONTINUOUS
 10
170.7753234492
 20
159.0552003802
 40
0.202869541
100
AcDbArc
 50
140.5296705927
 51
158.6316322768
  0
ARC
  5
54F
100
AcDbEntity
  8
RACCORDO
100
AcDbCircle
 62
7
  6
CONTINUOUS
 10
169.1697745004
 20
159.0554626206
 40
0.2027776514
100
AcDbArc
 50
8.6436700554
 51
20.5233384884
  0
ARC
  5
550
100
AcDbEntity
  8
RACCORDO
100
AcDbCircle
 62
7
  6
CONTINUOUS
 10
170.7736991842
 20
159.0562316123
 40
0.2009602903
100
AcDbArc
 50
133.2583743187
 51
140.4622572274
  0
ARC
  5
551
100
AcDbEntity
  8
RACCORDO
100
AcDbCircle
 62
250
  6
CONTINUOUS
 10
167.4546400723
 20
158.5244761501
 40
0.2000052449
100
AcDbArc
 50
36.3357150203
 51
114.6373744807
  0
ARC
  5
552
100
AcDbEntity
  8
RACCORDO
100
AcDbCircle
 62
250
  6
CONTINUOUS
 10
170.7725836027
 20
159.1356486967
 40
0.1999672207
100
AcDbArc
 50
82.5307441702
 51
154.1055453226
  0
ARC
  5
553
100
AcDbEntity
  8
RACCORDO
100
AcDbCircle
 62
250
  6
CONTINUOUS
 10
169.1725178106
 20
159.1356509871
 40
0.199965107
100
AcDbArc
 50
25.8950020845
 51
97.469684749
  0
ARC
  5
554
100
AcDbEntity
  8
RACCORDO
100
AcDbCircle
 62
7
  6
CONTINUOUS
 10
170.772586916
 20
159.0576603734
 40
0.1991576114
100
AcDbArc
 50
82.403900492
 51
133.3070177397
  0
ARC
  5
555
100
AcDbEntity
  8
RACCORDO
100
AcDbCircle
 62
250
  6
CONTINUOUS
 10
166.8202415763
 20
232.5049618025
 40
80.5449106311
100
AcDbArc
 50
245.206079047
 51
245.3373039509
  0
ARC
  5
556
100
AcDbEntity
  8
RACCORDO
100
AcDbCircle
 62
250
  6
CONTINUOUS
 10
165.4697454076
 20
230.6724281823
 40
78.3886127692
100
AcDbArc
 50
245.4792214082
 51
245.6143754111
  0
ARC
  5
557
100
AcDbEntity
  8
RACCORDO
100
AcDbCircle
 62
250
  6
CONTINUOUS
 10
175.0519289136
 20
166.1567945452
 40
16.7593742368
100
AcDbArc
 50
227.2641880604
 51
227.3947780219
  0
ARC
  5
558
100
AcDbEntity
  8
RACCORDO
100
AcDbCircle
 62
250
  6
CONTINUOUS
 10
179.6852997961
 20
150.5533273532
 40
14.7684126392
100
AcDbArc
 50
146.3579916971
 51
146.4920324725
  0
ARC
  5
559
100
AcDbEntity
  8
RACCORDO
100
AcDbCircle
 62
250
  6
CONTINUOUS
 10
180.3165471274
 20
148.2692874441
 40
4.3194866205
100
AcDbArc
 50
195.3183639448
 51
198.3178865453
  0
ARC
  5
55A
100
AcDbEntity
  8
RACCORDO
100
AcDbCircle
 62
250
  6
CONTINUOUS
 10
180.084016272
 20
148.2857184264
 40
4.0900055127
100
AcDbArc
 50
196.0126369839
 51
199.1004674266
  0
ARC
  5
55B
100
AcDbEntity
  8
RACCORDO
100
AcDbCircle
 62
250
  6
CONTINUOUS
 10
176.2194417634
 20
159.389775493
 40
1.6996443813
100
AcDbArc
 50
359.9968551388
 51
90.0031448637
  0
ARC
  5
55C
100
AcDbEntity
  8
RACCORDO
100
AcDbCircle
 62
250
  6
CONTINUOUS
 10
176.1947862869
 20
159.3651200165
 40
1.4997727822
100
AcDbArc
 50
0.0001238459
 51
89.9998761537
  0
ARC
  5
55D
100
AcDbEntity
  8
RACCORDO
100
AcDbCircle
 62
7
  6
CONTINUOUS
 10
179.2228695247
 20
162.5932032543
 40
1.4996769576
100
AcDbArc
 50
359.996524634
 51
90.003475366
  0
ARC
  5
55E
100
AcDbEntity
  8
RACCORDO
100
AcDbCircle
 62
250
  6
CONTINUOUS
 10
176.2195159485
 20
159.3898496781
 40
1.4996001205
100
AcDbArc
 50
359.9936012109
 51
90.0063987924
  0
ARC
  5
55F
100
AcDbEntity
  8
RACCORDO
100
AcDbCircle
 62
250
  6
CONTINUOUS
 10
176.1948605387
 20
159.3651942684
 40
1.2997284671
100
AcDbArc
 50
359.9968696785
 51
90.0031303208
  0
ARC
  5
560
100
AcDbEntity
  8
RACCORDO
100
AcDbCircle
 62
7
  6
CONTINUOUS
 10
174.5725501019
 20
157.6428838315
 40
1.0
100
AcDbArc
 50
0.0
 51
90.0
  0
ARC
  5
561
100
AcDbEntity
  8
0
100
AcDbCircle
 62
7
  6
CONTINUOUS
 10
176.1225501019
 20
159.2928838315
 40
0.7587682195
100
AcDbArc
 50
0.0
 51
90.0
  0
ARC
  5
562
100
AcDbEntity
  8
0
100
AcDbCircle
 62
250
  6
CONTINUOUS
 10
176.1225501019
 20
159.2928838315
 40
0.6359461681
100
AcDbArc
 50
0.0
 51
90.0
  0
ARC
  5
563
100
AcDbEntity
  8
RACCORDO
100
AcDbCircle
 62
250
  6
CONTINUOUS
 10
178.968956366
 20
162.3392900956
 40
0.5498877407
100
AcDbArc
 50
359.9970312237
 51
90.0029687763
  0
ARC
  5
564
100
AcDbEntity
  8
RACCORDO
100
AcDbCircle
 62
250
  6
CONTINUOUS
 10
176.0189941147
 20
147.2426465795
 40
0.4002372536
100
AcDbArc
 50
59.4301572271
 51
89.9950599336
  0
ARC
  5
565
100
AcDbEntity
  8
RACCORDO
100
AcDbCircle
 62
250
  6
CONTINUOUS
 10
176.0190067542
 20
148.8430651733
 40
0.4001813424
100
AcDbArc
 50
270.0031310982
 51
300.5724675706
  0
ARC
  5
566
100
AcDbEntity
  8
RACCORDO
100
AcDbCircle
 62
250
  6
CONTINUOUS
 10
175.4425810779
 20
155.8428898323
 40
0.3999501421
100
AcDbArc
 50
288.9724182345
 51
27.0996426454
  0
ARC
  5
567
100
AcDbEntity
  8
0
100
AcDbCircle
 62
250
  6
CONTINUOUS
 10
176.1225501019
 20
159.2928838315
 40
0.3640538319
100
AcDbArc
 50
0.0
 51
90.0
  0
ARC
  5
568
100
AcDbEntity
  8
RACCORDO
100
AcDbCircle
 62
250
  6
CONTINUOUS
 10
178.9259587472
 20
162.2962924768
 40
0.3000217828
100
AcDbArc
 50
0.0128204648
 51
89.9871795353
  0
ARC
  5
569
100
AcDbEntity
  8
RACCORDO
100
AcDbCircle
 62
250
  6
CONTINUOUS
 10
178.9690498343
 20
162.339383564
 40
0.2998314209
100
AcDbArc
 50
359.9766941996
 51
90.0233058009
  0
ARC
  5
56A
100
AcDbEntity
  8
0
100
AcDbCircle
 62
7
  6
CONTINUOUS
 10
176.1225501019
 20
159.2928838315
 40
0.2412317805
100
AcDbArc
 50
0.0
 51
90.0
  0
ARC
  5
56B
100
AcDbEntity
  8
RACCORDO
100
AcDbCircle
 62
7
  6
CONTINUOUS
 10
176.0187865577
 20
147.2412809612
 40
0.2016030157
100
AcDbArc
 50
70.75494148
 51
89.9312046961
  0
ARC
  5
56C
100
AcDbEntity
  8
RACCORDO
100
AcDbCircle
 62
7
  6
CONTINUOUS
 10
175.4423244489
 20
155.8432788102
 40
0.2004366745
100
AcDbArc
 50
310.55770728
 51
321.717324087
  0
ARC
  5
56D
100
AcDbEntity
  8
RACCORDO
100
AcDbCircle
 62
250
  6
CONTINUOUS
 10
175.9524312292
 20
147.1576224178
 40
0.2002681894
100
AcDbArc
 50
351.5402836926
 51
359.9639285969
  0
ARC
  5
56E
100
AcDbEntity
  8
RACCORDO
100
AcDbCircle
 62
250
  6
CONTINUOUS
 10
176.0191084895
 20
148.8429141144
 40
0.2000115283
100
AcDbArc
 50
291.1287859974
 51
359.9913250822
  0
ARC
  5
56F
100
AcDbEntity
  8
RACCORDO
100
AcDbCircle
 62
250
  6
CONTINUOUS
 10
176.0191088679
 20
147.2428546472
 40
0.2000111497
100
AcDbArc
 50
0.0083602274
 51
70.75494148
  0
ARC
  5
570
100
AcDbEntity
  8
RACCORDO
100
AcDbCircle
 62
7
  6
CONTINUOUS
 10
175.9526988879
 20
147.2428835218
 40
0.200000491
100
AcDbArc
 50
0.0000887173
 51
79.6235067326
  0
ARC
  5
571
100
AcDbEntity
  8
RACCORDO
100
AcDbCircle
 62
250
  6
CONTINUOUS
 10
175.9439721349
 20
152.4331642643
 40
0.1999997621
100
AcDbArc
 50
208.9155344616
 51
359.9574057664
  0
ARC
  5
572
100
AcDbEntity
  8
RACCORDO
100
AcDbCircle
 62
250
  6
CONTINUOUS
 10
172.4904553145
 20
158.5244834394
 40
0.1999997173
100
AcDbArc
 50
65.3605018083
 51
143.6847114668
  0
ARC
  5
573
100
AcDbEntity
  8
RACCORDO
100
AcDbCircle
 62
7
  6
CONTINUOUS
 10
175.9527219953
 20
148.842875387
 40
0.1999768693
100
AcDbArc
 50
282.3853064702
 51
0.0024194517
  0
ARC
  5
574
100
AcDbEntity
  8
RACCORDO
100
AcDbCircle
 62
250
  6
CONTINUOUS
 10
176.0192048436
 20
146.9475780703
 40
0.1999762015
100
AcDbArc
 50
349.6706331969
 51
359.9386333604
  0
ARC
  5
575
100
AcDbEntity
  8
RACCORDO
100
AcDbCircle
 62
250
  6
CONTINUOUS
 10
175.4428330779
 20
155.8428827904
 40
0.1997920684
100
AcDbArc
 50
321.717324087
 51
27.1274000167
  0
ARC
  5
576
100
AcDbEntity
  8
RACCORDO
100
AcDbCircle
 62
250
  6
CONTINUOUS
 10
175.9522556598
 20
147.1575053413
 40
0.10045895
100
AcDbArc
 50
351.583762092
 51
359.9948638832
  0
ARC
  5
577
100
AcDbEntity
  8
RACCORDO
100
AcDbCircle
 62
250
  6
CONTINUOUS
 10
175.9527026855
 20
148.8428967559
 40
0.100012966
100
AcDbArc
 50
269.998104347
 51
359.9925957625
  0
ARC
  5
578
100
AcDbEntity
  8
RACCORDO
100
AcDbCircle
 62
250
  6
CONTINUOUS
 10
175.952707492
 20
147.2428757061
 40
0.1000076217
100
AcDbArc
 50
0.0046551691
 51
90.0046494061
  0
ARC
  5
579
100
AcDbEntity
  8
RACCORDO
100
AcDbCircle
 62
250
  6
CONTINUOUS
 10
178.926032101
 20
162.2963658306
 40
0.0999785485
100
AcDbArc
 50
359.996434724
 51
90.003565276
  0
SPLINE
  5
57A
100
AcDbEntity
  8
RACCORDO
100
AcDbSpline
 62
7
  6
CONTINUOUS
 70
0
 71
3
 72
8
 73
4
 74
0
 42
0.0000001
 43
0.0000001
 44
0.0000000001
 40
0.0
 40
0.0
 40
0.0
 40
0.0
 40
1.0
 40
1.0
 40
1.0
 40
1.0
 10
169.3524055965
 20
159.2229804122
 30
0.0
 10
169.3654947077
 20
159.1960401554
 30
0.0
 10
169.3725483292
 20
159.1653642793
 30
0.0
 10
169.3725501019
 20
159.1354126138
 30
0.0
  0
SPLINE
  5
57B
100
AcDbEntity
  8
RACCORDO
100
AcDbSpline
 62
7
  6
CONTINUOUS
 70
0
 71
3
 72
8
 73
4
 74
0
 42
0.0000001
 43
0.0000001
 44
0.0000000001
 40
0.0
 40
0.0
 40
0.0
 40
0.0
 40
1.0
 40
1.0
 40
1.0
 40
1.0
 10
176.0190286233
 20
148.6428838315
 30
0.0
 10
176.0435027441
 20
148.6428850486
 30
0.0
 10
176.0683779629
 20
148.6475241664
 30
0.0
 10
176.0912057427
 20
148.656348851
 30
0.0
  0
SPLINE
  5
57C
100
AcDbEntity
  8
RACCORDO
100
AcDbSpline
 62
7
  6
CONTINUOUS
 70
0
 71
3
 72
8
 73
4
 74
0
 42
0.0000001
 43
0.0000001
 44
0.0000000001
 40
0.0
 40
0.0
 40
0.0
 40
0.0
 40
1.0
 40
1.0
 40
1.0
 40
1.0
 10
170.5725501019
 20
159.1354126138
 30
0.0
 10
170.5725516047
 20
159.1653631627
 30
0.0
 10
170.5796040227
 20
159.196038285
 30
0.0
 10
170.5926930808
 20
159.2229773262
 30
0.0
  0
SPLINE
  5
57D
100
AcDbEntity
  8
RACCORDO
100
AcDbSpline
 62
7
  6
CONTINUOUS
 70
0
 71
3
 72
11
 73
7
 74
0
 42
0.0000001
 43
0.0000001
 44
0.0000000001
 40
0.0
 40
0.0
 40
0.0
 40
0.0
 40
0.2520578417
 40
0.5032652087
 40
0.752623948
 40
1.0
 40
1.0
 40
1.0
 40
1.0
 10
169.14618686
 20
159.2550702833
 30
0.0
 10
169.1684866511
 20
159.2580548921
 30
0.0
 10
169.2144124692
 20
159.2563562421
 30
0.0
 10
169.2779963199
 20
159.2310415041
 30
0.0
 10
169.3293338159
 20
159.186479717
 30
0.0
 10
169.3519334601
 20
159.1472308449
 30
0.0
 10
169.3596817448
 20
159.1265542123
 30
0.0
  0
SPLINE
  5
57E
100
AcDbEntity
  8
RACCORDO
100
AcDbSpline
 62
7
  6
CONTINUOUS
 70
0
 71
3
 72
9
 73
5
 74
0
 42
0.0000001
 43
0.0000001
 44
0.0000000001
 40
0.0
 40
0.0
 40
0.0
 40
0.0
 40
0.2696480977
 40
1.0
 40
1.0
 40
1.0
 40
1.0
 10
151.3068253107
 20
122.8120539397
 30
0.0
 10
151.3183329514
 20
122.8120535404
 30
0.0
 10
151.3610093247
 20
122.8119858001
 30
0.0
 10
151.4036861823
 20
122.8116984903
 30
0.0
 10
151.4348517533
 20
122.811244803
 30
0.0
  0
SPLINE
  5
57F
100
AcDbEntity
  8
RACCORDO
100
AcDbSpline
 62
7
  6
CONTINUOUS
 70
0
 71
3
 72
9
 73
5
 74
0
 42
0.0000001
 43
0.0000001
 44
0.0000000001
 40
0.0
 40
0.0
 40
0.0
 40
0.0
 40
0.2696480977
 40
1.0
 40
1.0
 40
1.0
 40
1.0
 10
136.1068253107
 20
122.8120539397
 30
0.0
 10
136.1183329514
 20
122.8120535404
 30
0.0
 10
136.1610093247
 20
122.8119858001
 30
0.0
 10
136.2036861823
 20
122.8116984903
 30
0.0
 10
136.2348517533
 20
122.811244803
 30
0.0
  0
SPLINE
  5
580
100
AcDbEntity
  8
RACCORDO
100
AcDbSpline
 62
250
  6
CONTINUOUS
 70
0
 71
3
 72
14
 73
10
 74
0
 42
0.0000001
 43
0.0000001
 44
0.0000000001
 40
0.0
 40
0.0
 40
0.0
 40
0.0
 40
0.4136953058
 40
0.5838124117
 40
0.7267832372
 40
0.8410232752
 40
0.9250685534
 40
0.9781560844
 40
1.0
 40
1.0
 40
1.0
 40
1.0
 10
151.4348517533
 20
122.811244803
 30
0.0
 10
151.4447845719
 20
122.8111002077
 30
0.0
 10
151.4588051406
 20
122.8108646305
 30
0.0
 10
151.4762436492
 20
122.810424764
 30
0.0
 10
151.4865177569
 20
122.8101271497
 30
0.0
 10
151.4946580606
 20
122.8097359506
 30
0.0
 10
151.5007974866
 20
122.809539109
 30
0.0
 10
151.5043899613
 20
122.8089528589
 30
0.0
 10
151.5064219022
 20
122.8089926885
 30
0.0
 10
151.5067948497
 20
122.8086238532
 30
0.0
  0
SPLINE
  5
581
100
AcDbEntity
  8
RACCORDO
100
AcDbSpline
 62
250
  6
CONTINUOUS
 70
0
 71
3
 72
8
 73
4
 74
0
 42
0.0000001
 43
0.0000001
 44
0.0000000001
 40
0.0
 40
0.0
 40
0.0
 40
0.0
 40
1.0
 40
1.0
 40
1.0
 40
1.0
 10
134.9242803756
 20
114.9445836442
 30
0.0
 10
134.9242840246
 20
114.9094168964
 30
0.0
 10
134.9342073209
 20
114.8730898837
 30
0.0
 10
134.9521066774
 20
114.8428192179
 30
0.0
  0
SPLINE
  5
582
100
AcDbEntity
  8
RACCORDO
100
AcDbSpline
 62
250
  6
CONTINUOUS
 70
0
 71
3
 72
8
 73
4
 74
0
 42
0.0000001
 43
0.0000001
 44
0.0000000001
 40
0.0
 40
0.0
 40
0.0
 40
0.0
 40
1.0
 40
1.0
 40
1.0
 40
1.0
 10
136.2930138393
 20
114.8428524569
 30
0.0
 10
136.310898017
 20
114.8731176576
 30
0.0
 10
136.3208154198
 20
114.9094294634
 30
0.0
 10
136.3208198282
 20
114.9445837827
 30
0.0
  0
SPLINE
  5
583
100
AcDbEntity
  8
RACCORDO
100
AcDbSpline
 62
250
  6
CONTINUOUS
 70
0
 71
3
 72
8
 73
4
 74
0
 42
0.0000001
 43
0.0000001
 44
0.0000000001
 40
0.0
 40
0.0
 40
0.0
 40
0.0
 40
1.0
 40
1.0
 40
1.0
 40
1.0
 10
150.1242803756
 20
114.9445836442
 30
0.0
 10
150.1242840246
 20
114.9094168964
 30
0.0
 10
150.1342073209
 20
114.8730898837
 30
0.0
 10
150.1521066774
 20
114.8428192179
 30
0.0
  0
SPLINE
  5
584
100
AcDbEntity
  8
RACCORDO
100
AcDbSpline
 62
250
  6
CONTINUOUS
 70
0
 71
3
 72
8
 73
4
 74
0
 42
0.0000001
 43
0.0000001
 44
0.0000000001
 40
0.0
 40
0.0
 40
0.0
 40
0.0
 40
1.0
 40
1.0
 40
1.0
 40
1.0
 10
151.4930138393
 20
114.8428524569
 30
0.0
 10
151.510898017
 20
114.8731176576
 30
0.0
 10
151.5208154198
 20
114.9094294634
 30
0.0
 10
151.5208198282
 20
114.9445837827
 30
0.0
  0
SPLINE
  5
585
100
AcDbEntity
  8
0
100
AcDbSpline
 62
7
  6
CONTINUOUS
 70
0
 71
3
 72
9
 73
5
 74
0
 42
0.0000001
 43
0.0000001
 44
0.0000000001
 40
0.0
 40
0.0
 40
0.0
 40
0.0
 40
0.4999999995
 40
1.0
 40
1.0
 40
1.0
 40
1.0
 10
175.9720248183
 20
54.1569376635
 30
0.0
 10
175.9726141776
 20
54.2022495584
 30
0.0
 10
175.9724859866
 20
54.2928838315
 30
0.0
 10
175.9726141776
 20
54.3835181046
 30
0.0
 10
175.9720248183
 20
54.4288299996
 30
0.0
  0
SPLINE
  5
586
100
AcDbEntity
  8
0
100
AcDbSpline
 62
7
  6
CONTINUOUS
 70
0
 71
3
 72
9
 73
5
 74
0
 42
0.0000001
 43
0.0000001
 44
0.0000000001
 40
0.0
 40
0.0
 40
0.0
 40
0.0
 40
0.5000000005
 40
1.0
 40
1.0
 40
1.0
 40
1.0
 10
110.4730753854
 20
54.4288299996
 30
0.0
 10
110.4724860261
 20
54.3835181046
 30
0.0
 10
110.4726142172
 20
54.2928838315
 30
0.0
 10
110.4724860262
 20
54.2022495584
 30
0.0
 10
110.4730753855
 20
54.1569376635
 30
0.0
  0
LINE
  5
587
100
AcDbEntity
  8
RACCORDO
100
AcDbLine
 62
7
  6
CONTINUOUS
 10
176.1439718464
 20
154.4428838315
 11
176.0439870769
 21
154.3428838315
  0
SPLINE
  5
588
100
AcDbEntity
  8
RACCORDO
100
AcDbSpline
 62
7
  6
CONTINUOUS
 70
0
 71
3
 72
9
 73
5
 74
0
 42
0.0000001
 43
0.0000001
 44
0.0000000001
 40
0.0
 40
0.0
 40
0.0
 40
0.0
 40
0.2542308123
 40
1.0
 40
1.0
 40
1.0
 40
1.0
 10
169.1389159503
 20
159.391860077
 30
0.0
 10
169.1677142954
 20
159.3917934182
 30
0.0
 10
169.280991437
 20
159.3919290455
 30
0.0
 10
169.3942658633
 20
159.3928839749
 30
0.0
 10
169.4787441205
 20
159.3928838315
 30
0.0
  0
SPLINE
  5
589
100
AcDbEntity
  8
RACCORDO
100
AcDbSpline
 62
250
  6
CONTINUOUS
 70
0
 71
3
 72
23
 73
19
 74
0
 42
0.0000001
 43
0.0000001
 44
0.0000000001
 40
0.0
 40
0.0
 40
0.0
 40
0.0
 40
0.0028728168
 40
0.0082383953
 40
0.0214572921
 40
0.0358512102
 40
0.0507218493
 40
0.0811311659
 40
0.1119909563
 40
0.1430929044
 40
0.1743473844
 40
0.2371466326
 40
0.3001969862
 40
0.3634158915
 40
0.4902048875
 40
0.6173358936
 40
0.7447238162
 40
1.0
 40
1.0
 40
1.0
 40
1.0
 10
176.2159400837
 20
146.9117210417
 30
0.0
 10
176.2160561835
 20
146.910413241
 30
0.0
 10
176.2155793839
 20
146.9066434892
 30
0.0
 10
176.2150585172
 20
146.8968746276
 30
0.0
 10
176.2136766232
 20
146.8818472877
 30
0.0
 10
176.2120501613
 20
146.8625062696
 30
0.0
 10
176.2095945673
 20
146.8353422358
 30
0.0
 10
176.2063656645
 20
146.8006958649
 30
0.0
 10
176.2022630353
 20
146.7586794494
 30
0.0
 10
176.1979654248
 20
146.7162948107
 30
0.0
 10
176.191986845
 20
146.6594089257
 30
0.0
 10
176.1841031748
 20
146.5880422302
 30
0.0
 10
176.1740288795
 20
146.5022221471
 30
0.0
 10
176.1597779997
 20
146.3874492882
 30
0.0
 10
176.1405032889
 20
146.2437924119
 30
0.0
 10
176.115139085
 20
146.0713768025
 30
0.0
 10
176.0783961539
 20
145.8412999179
 30
0.0
 10
176.0477366116
 20
145.6691012026
 30
0.0
 10
176.0260106493
 20
145.5544748369
 30
0.0
  0
SPLINE
  5
58A
100
AcDbEntity
  8
RACCORDO
100
AcDbSpline
 62
7
  6
CONTINUOUS
 70
0
 71
3
 72
9
 73
5
 74
0
 42
0.0000001
 43
0.0000001
 44
0.0000000001
 40
0.0
 40
0.0
 40
0.0
 40
0.0
 40
0.290362177
 40
1.0
 40
1.0
 40
1.0
 40
1.0
 10
176.2225501019
 20
147.5872551772
 30
0.0
 10
176.2225500681
 20
147.553922397
 30
0.0
 10
176.2222114977
 20
147.4391246779
 30
0.0
 10
176.2205464565
 20
147.3243358146
 30
0.0
 10
176.2191200155
 20
147.2428838315
 30
0.0
  0
SPLINE
  5
58B
100
AcDbEntity
  8
RACCORDO
100
AcDbSpline
 62
250
  6
CONTINUOUS
 70
0
 71
3
 72
14
 73
10
 74
0
 42
0.0000001
 43
0.0000001
 44
0.0000000001
 40
0.0
 40
0.0
 40
0.0
 40
0.0
 40
0.4136953058
 40
0.5838124117
 40
0.7267832372
 40
0.8410232752
 40
0.9250685534
 40
0.9781560844
 40
1.0
 40
1.0
 40
1.0
 40
1.0
 10
136.2348517533
 20
122.811244803
 30
0.0
 10
136.2447845719
 20
122.8111002077
 30
0.0
 10
136.2588051406
 20
122.8108646305
 30
0.0
 10
136.2762436492
 20
122.810424764
 30
0.0
 10
136.2865177569
 20
122.8101271497
 30
0.0
 10
136.2946580606
 20
122.8097359506
 30
0.0
 10
136.3007974866
 20
122.809539109
 30
0.0
 10
136.3043899613
 20
122.8089528589
 30
0.0
 10
136.3064219022
 20
122.8089926885
 30
0.0
 10
136.3067948497
 20
122.8086238532
 30
0.0
  0
SPLINE
  5
58C
100
AcDbEntity
  8
RACCORDO
100
AcDbSpline
 62
250
  6
CONTINUOUS
 70
0
 71
3
 72
16
 73
12
 74
0
 42
0.0000001
 43
0.0000001
 44
0.0000000001
 40
0.0
 40
0.0
 40
0.0
 40
0.0
 40
0.0072284127
 40
0.0232972675
 40
0.0483948657
 40
0.0824125954
 40
0.1758240518
 40
0.300160972
 40
0.4506998908
 40
0.6218936887
 40
1.0
 40
1.0
 40
1.0
 40
1.0
 10
150.2382901236
 20
122.7086390837
 30
0.0
 10
150.2383990115
 20
122.7088545054
 30
0.0
 10
150.2392840838
 20
122.70905528
 30
0.0
 10
150.2407596837
 20
122.7093928877
 30
0.0
 10
150.2433108283
 20
122.7096809678
 30
0.0
 10
150.2483505151
 20
122.7101494705
 30
0.0
 10
150.2567687883
 20
122.7106301392
 30
0.0
 10
150.2690463219
 20
122.7111276197
 30
0.0
 10
150.283940567
 20
122.7115340763
 30
0.0
 10
150.3073049761
 20
122.7119540257
 30
0.0
 10
150.3256488406
 20
122.7120690723
 30
0.0
 10
150.3382748931
 20
122.7120691701
 30
0.0
  0
SPLINE
  5
58D
100
AcDbEntity
  8
RACCORDO
100
AcDbSpline
 62
250
  6
CONTINUOUS
 70
0
 71
3
 72
16
 73
12
 74
0
 42
0.0000001
 43
0.0000001
 44
0.0000000001
 40
0.0
 40
0.0
 40
0.0
 40
0.0
 40
0.3781064039
 40
0.5493000832
 40
0.6998389595
 40
0.8241758306
 40
0.9175872499
 40
0.9516050479
 40
0.9767028289
 40
0.9927718057
 40
1.0
 40
1.0
 40
1.0
 40
1.0
 10
151.3068253107
 20
122.7120691701
 30
0.0
 10
151.319451366
 20
122.7120690685
 30
0.0
 10
151.3377952293
 20
122.7119540267
 30
0.0
 10
151.3611596352
 20
122.7115340772
 30
0.0
 10
151.3760538738
 20
122.7111276183
 30
0.0
 10
151.3883314003
 20
122.7106301364
 30
0.0
 10
151.3967496786
 20
122.7101494799
 30
0.0
 10
151.4017893645
 20
122.7096809676
 30
0.0
 10
151.4043405341
 20
122.7093928843
 30
0.0
 10
151.4058161096
 20
122.7090552584
 30
0.0
 10
151.4067012095
 20
122.7088545059
 30
0.0
 10
151.4068100802
 20
122.7086390837
 30
0.0
  0
SPLINE
  5
58E
100
AcDbEntity
  8
RACCORDO
100
AcDbSpline
 62
7
  6
CONTINUOUS
 70
0
 71
3
 72
9
 73
5
 74
0
 42
0.0000001
 43
0.0000001
 44
0.0000000001
 40
0.0
 40
0.0
 40
0.0
 40
0.0
 40
0.2507138565
 40
1.0
 40
1.0
 40
1.0
 40
1.0
 10
162.1294857016
 20
152.6455871591
 30
0.0
 10
162.1115656953
 20
152.6467915872
 30
0.0
 10
162.040191332
 20
152.6530414545
 30
0.0
 10
161.9693341895
 20
152.664927842
 30
0.0
 10
161.9169518261
 20
152.6766445795
 30
0.0
  0
SPLINE
  5
58F
100
AcDbEntity
  8
RACCORDO
100
AcDbSpline
 62
250
  6
CONTINUOUS
 70
0
 71
3
 72
8
 73
4
 74
0
 42
0.0000001
 43
0.0000001
 44
0.0000000001
 40
0.0
 40
0.0
 40
0.0
 40
0.0
 40
1.0
 40
1.0
 40
1.0
 40
1.0
 10
150.219183994
 20
122.7673988039
 30
0.0
 10
150.2312951889
 20
122.7507400741
 30
0.0
 10
150.2382838504
 20
122.7292350611
 30
0.0
 10
150.2382901236
 20
122.7086390837
 30
0.0
  0
SPLINE
  5
590
100
AcDbEntity
  8
RACCORDO
100
AcDbSpline
 62
250
  6
CONTINUOUS
 70
0
 71
3
 72
16
 73
12
 74
0
 42
0.0000001
 43
0.0000001
 44
0.0000000001
 40
0.0
 40
0.0
 40
0.0
 40
0.0
 40
0.0072284127
 40
0.0232972675
 40
0.0483948657
 40
0.0824125954
 40
0.1758240518
 40
0.300160972
 40
0.4506998908
 40
0.6218936887
 40
1.0
 40
1.0
 40
1.0
 40
1.0
 10
135.0382901236
 20
122.7086390837
 30
0.0
 10
135.0383990115
 20
122.7088545054
 30
0.0
 10
135.0392840838
 20
122.70905528
 30
0.0
 10
135.0407596837
 20
122.7093928877
 30
0.0
 10
135.0433108283
 20
122.7096809678
 30
0.0
 10
135.0483505151
 20
122.7101494705
 30
0.0
 10
135.0567687883
 20
122.7106301392
 30
0.0
 10
135.0690463219
 20
122.7111276197
 30
0.0
 10
135.083940567
 20
122.7115340763
 30
0.0
 10
135.1073049761
 20
122.7119540257
 30
0.0
 10
135.1256488406
 20
122.7120690723
 30
0.0
 10
135.1382748931
 20
122.7120691701
 30
0.0
  0
SPLINE
  5
591
100
AcDbEntity
  8
RACCORDO
100
AcDbSpline
 62
250
  6
CONTINUOUS
 70
0
 71
3
 72
16
 73
12
 74
0
 42
0.0000001
 43
0.0000001
 44
0.0000000001
 40
0.0
 40
0.0
 40
0.0
 40
0.0
 40
0.3781064039
 40
0.5493000832
 40
0.6998389595
 40
0.8241758306
 40
0.9175872499
 40
0.9516050479
 40
0.9767028289
 40
0.9927718057
 40
1.0
 40
1.0
 40
1.0
 40
1.0
 10
136.1068253107
 20
122.7120691701
 30
0.0
 10
136.119451366
 20
122.7120690685
 30
0.0
 10
136.1377952293
 20
122.7119540267
 30
0.0
 10
136.1611596352
 20
122.7115340772
 30
0.0
 10
136.1760538738
 20
122.7111276183
 30
0.0
 10
136.1883314003
 20
122.7106301364
 30
0.0
 10
136.1967496786
 20
122.7101494799
 30
0.0
 10
136.2017893645
 20
122.7096809676
 30
0.0
 10
136.2043405341
 20
122.7093928843
 30
0.0
 10
136.2058161096
 20
122.7090552584
 30
0.0
 10
136.2067012095
 20
122.7088545059
 30
0.0
 10
136.2068100802
 20
122.7086390837
 30
0.0
  0
SPLINE
  5
592
100
AcDbEntity
  8
RACCORDO
100
AcDbSpline
 62
250
  6
CONTINUOUS
 70
0
 71
3
 72
15
 73
11
 74
0
 42
0.0000001
 43
0.0000001
 44
0.0000000001
 40
0.0
 40
0.0
 40
0.0
 40
0.0
 40
0.1248216103
 40
0.2497695155
 40
0.3748814057
 40
0.5000716361
 40
0.625245819
 40
0.7503162676
 40
0.8752148696
 40
1.0
 40
1.0
 40
1.0
 40
1.0
 10
175.7738715985
 20
152.3107868954
 30
0.0
 10
175.7843779766
 20
152.2916472965
 30
0.0
 10
175.811993664
 20
152.2565788386
 30
0.0
 10
175.8680895843
 20
152.2204511044
 30
0.0
 10
175.9329624081
 20
152.2043366403
 30
0.0
 10
175.9995862746
 20
152.2100608345
 30
0.0
 10
176.060799206
 20
152.2369603612
 30
0.0
 10
176.109995644
 20
152.2821882093
 30
0.0
 10
176.1418824115
 20
152.3407753478
 30
0.0
 10
176.1492820132
 20
152.3847799091
 30
0.0
 10
176.1493149789
 20
152.4066071522
 30
0.0
  0
SPLINE
  5
593
100
AcDbEntity
  8
RACCORDO
100
AcDbSpline
 62
250
  6
CONTINUOUS
 70
0
 71
3
 72
12
 73
8
 74
0
 42
0.0000001
 43
0.0000001
 44
0.0000000001
 40
0.0
 40
0.0
 40
0.0
 40
0.0
 40
0.1946913255
 40
0.4237379778
 40
0.7104521932
 40
0.8618992467
 40
1.0
 40
1.0
 40
1.0
 40
1.0
 10
167.6452182156
 20
158.6428865537
 30
0.0
 10
167.6369136782
 20
158.6605348363
 30
0.0
 10
167.6132386697
 20
158.6965967139
 30
0.0
 10
167.5559223667
 20
158.7413221647
 30
0.0
 10
167.4882360805
 20
158.7576328208
 30
0.0
 10
167.4304403577
 20
158.7508052646
 30
0.0
 10
167.4029189735
 20
158.7409072077
 30
0.0
 10
167.3903765562
 20
158.7350676572
 30
0.0
  0
SPLINE
  5
594
100
AcDbEntity
  8
RACCORDO
100
AcDbSpline
 62
250
  6
CONTINUOUS
 70
0
 71
3
 72
11
 73
7
 74
0
 42
0.0000001
 43
0.0000001
 44
0.0000000001
 40
0.0
 40
0.0
 40
0.0
 40
0.0
 40
0.2877208451
 40
0.5752495278
 40
0.804891784
 40
1.0
 40
1.0
 40
1.0
 40
1.0
 10
172.5547295837
 20
158.7350587372
 30
0.0
 10
172.5286890861
 20
158.7472958475
 30
0.0
 10
172.4705412293
 20
158.7611224439
 30
0.0
 10
172.3893137398
 20
158.7413391777
 30
0.0
 10
172.3318731151
 20
158.6966379042
 30
0.0
 10
172.3081949803
 20
158.6605477981
 30
0.0
 10
172.299885569
 20
158.6428945903
 30
0.0
  0
SPLINE
  5
595
100
AcDbEntity
  8
RACCORDO
100
AcDbSpline
 62
250
  6
CONTINUOUS
 70
0
 71
3
 72
16
 73
12
 74
0
 42
0.0000001
 43
0.0000001
 44
0.0000000001
 40
0.0
 40
0.0
 40
0.0
 40
0.0
 40
0.0066296108
 40
0.0224835268
 40
0.0475192659
 40
0.0815059491
 40
0.1749969046
 40
0.2994470462
 40
0.4501777954
 40
0.6215399211
 40
1.0
 40
1.0
 40
1.0
 40
1.0
 10
135.0259801883
 20
122.6963291484
 30
0.0
 10
135.0258240676
 20
122.6961726389
 30
0.0
 10
135.0258184158
 20
122.6953306572
 30
0.0
 10
135.0255729321
 20
122.6938372973
 30
0.0
 10
135.0254714809
 20
122.6913006996
 30
0.0
 10
135.0252132631
 20
122.6862456617
 30
0.0
 10
135.0249896217
 20
122.6778302663
 30
0.0
 10
135.0247331908
 20
122.6655476355
 30
0.0
 10
135.0245333476
 20
122.6506560912
 30
0.0
 10
135.0243220055
 20
122.6272984127
 30
0.0
 10
135.0242651477
 20
122.608964061
 30
0.0
 10
135.0242651451
 20
122.5963443789
 30
0.0
  0
SPLINE
  5
596
100
AcDbEntity
  8
RACCORDO
100
AcDbSpline
 62
250
  6
CONTINUOUS
 70
0
 71
3
 72
16
 73
12
 74
0
 42
0.0000001
 43
0.0000001
 44
0.0000000001
 40
0.0
 40
0.0
 40
0.0
 40
0.0
 40
0.378742224
 40
0.5501639303
 40
0.7008710134
 40
0.8252309209
 40
0.9186121562
 40
0.9525529839
 40
0.9775492574
 40
0.9933830413
 40
1.0
 40
1.0
 40
1.0
 40
1.0
 10
136.2208350587
 20
122.5963443789
 30
0.0
 10
136.2208350495
 20
122.6089734723
 30
0.0
 10
136.2207781233
 20
122.6273192255
 30
0.0
 10
136.2205665132
 20
122.6506875105
 30
0.0
 10
136.2203665207
 20
122.6655772509
 30
0.0
 10
136.2201100515
 20
122.6778524165
 30
0.0
 10
136.2198863993
 20
122.6862596261
 30
0.0
 10
136.2196283739
 20
122.6913081529
 30
0.0
 10
136.2195267994
 20
122.6938412336
 30
0.0
 10
136.2192818778
 20
122.6953321814
 30
0.0
 10
136.2192759746
 20
122.6961730736
 30
0.0
 10
136.2191200155
 20
122.6963291484
 30
0.0
  0
SPLINE
  5
597
100
AcDbEntity
  8
RACCORDO
100
AcDbSpline
 62
250
  6
CONTINUOUS
 70
0
 71
3
 72
16
 73
12
 74
0
 42
0.0000001
 43
0.0000001
 44
0.0000000001
 40
0.0
 40
0.0
 40
0.0
 40
0.0
 40
0.0066296108
 40
0.0224835268
 40
0.0475192659
 40
0.0815059491
 40
0.1749969046
 40
0.2994470462
 40
0.4501777954
 40
0.6215399211
 40
1.0
 40
1.0
 40
1.0
 40
1.0
 10
150.2259801883
 20
122.6963291484
 30
0.0
 10
150.2258240676
 20
122.6961726389
 30
0.0
 10
150.2258184158
 20
122.6953306572
 30
0.0
 10
150.2255729321
 20
122.6938372973
 30
0.0
 10
150.2254714809
 20
122.6913006996
 30
0.0
 10
150.2252132631
 20
122.6862456617
 30
0.0
 10
150.2249896217
 20
122.6778302663
 30
0.0
 10
150.2247331908
 20
122.6655476355
 30
0.0
 10
150.2245333476
 20
122.6506560912
 30
0.0
 10
150.2243220055
 20
122.6272984127
 30
0.0
 10
150.2242651477
 20
122.608964061
 30
0.0
 10
150.2242651451
 20
122.5963443789
 30
0.0
  0
SPLINE
  5
598
100
AcDbEntity
  8
RACCORDO
100
AcDbSpline
 62
250
  6
CONTINUOUS
 70
0
 71
3
 72
16
 73
12
 74
0
 42
0.0000001
 43
0.0000001
 44
0.0000000001
 40
0.0
 40
0.0
 40
0.0
 40
0.0
 40
0.378742224
 40
0.5501639303
 40
0.7008710134
 40
0.8252309209
 40
0.9186121562
 40
0.9525529839
 40
0.9775492574
 40
0.9933830413
 40
1.0
 40
1.0
 40
1.0
 40
1.0
 10
151.4208350587
 20
122.5963443789
 30
0.0
 10
151.4208350495
 20
122.6089734723
 30
0.0
 10
151.4207781233
 20
122.6273192255
 30
0.0
 10
151.4205665132
 20
122.6506875105
 30
0.0
 10
151.4203665207
 20
122.6655772509
 30
0.0
 10
151.4201100515
 20
122.6778524165
 30
0.0
 10
151.4198863993
 20
122.6862596261
 30
0.0
 10
151.4196283739
 20
122.6913081529
 30
0.0
 10
151.4195267994
 20
122.6938412336
 30
0.0
 10
151.4192818778
 20
122.6953321814
 30
0.0
 10
151.4192759746
 20
122.6961730736
 30
0.0
 10
151.4191200155
 20
122.6963291484
 30
0.0
  0
SPLINE
  5
599
100
AcDbEntity
  8
RACCORDO
100
AcDbSpline
 62
250
  6
CONTINUOUS
 70
0
 71
3
 72
16
 73
12
 74
0
 42
0.0000001
 43
0.0000001
 44
0.0000000001
 40
0.0
 40
0.0
 40
0.0
 40
0.0
 40
0.0083504139
 40
0.027304273
 40
0.0564643042
 40
0.0951398247
 40
0.1977446512
 40
0.3280704655
 40
0.4792241648
 40
0.645069122
 40
1.0
 40
1.0
 40
1.0
 40
1.0
 10
164.576003034
 20
113.5937026902
 30
0.0
 10
164.5758406891
 20
113.5939833439
 30
0.0
 10
164.5748841848
 20
113.5945569136
 30
0.0
 10
164.5731590344
 20
113.5958423992
 30
0.0
 10
164.5702796298
 20
113.5976380388
 30
0.0
 10
164.5646945083
 20
113.6011638185
 30
0.0
 10
164.5556697444
 20
113.6066378803
 30
0.0
 10
164.5428838386
 20
113.6143061401
 30
0.0
 10
164.5279363455
 20
113.6231541024
 30
0.0
 10
164.5054387523
 20
113.6363634311
 30
0.0
 10
164.4879530319
 20
113.6465187415
 30
0.0
 10
164.4760182645
 20
113.6534092851
 30
0.0
  0
SPLINE
  5
59A
100
AcDbEntity
  8
RACCORDO
100
AcDbSpline
 62
250
  6
CONTINUOUS
 70
0
 71
3
 72
17
 73
13
 74
0
 42
0.0000001
 43
0.0000001
 44
0.0000000001
 40
0.0
 40
0.0
 40
0.0
 40
0.0
 40
0.3589634794
 40
0.5265101909
 40
0.6787716614
 40
0.8092290837
 40
0.8640417023
 40
0.9106826314
 40
0.9482751835
 40
0.9760446947
 40
0.9933874922
 40
1.0
 40
1.0
 40
1.0
 40
1.0
 10
164.576003034
 20
112.3294731819
 30
0.0
 10
164.5878688433
 20
112.3226224622
 30
0.0
 10
164.6052988539
 20
112.3126193059
 30
0.0
 10
164.6278304821
 20
112.2998283173
 30
0.0
 10
164.6428088159
 20
112.2914045105
 30
0.0
 10
164.6540713323
 20
112.2851385282
 30
0.0
 10
164.6618332086
 20
112.2808991062
 30
0.0
 10
164.6665105334
 20
112.2783540199
 30
0.0
 10
164.6702711221
 20
112.2764210081
 30
0.0
 10
164.6731265749
 20
112.2748290837
 30
0.0
 10
164.6748259643
 20
112.2742657404
 30
0.0
 10
164.6757691297
 20
112.273601272
 30
0.0
 10
164.6759878036
 20
112.2737273096
 30
0.0
  0
SPLINE
  5
59B
100
AcDbEntity
  8
RACCORDO
100
AcDbSpline
 62
250
  6
CONTINUOUS
 70
0
 71
3
 72
8
 73
4
 74
0
 42
0.0000001
 43
0.0000001
 44
0.0000000001
 40
0.0
 40
0.0
 40
0.0
 40
0.0
 40
1.0
 40
1.0
 40
1.0
 40
1.0
 10
135.019183994
 20
122.7673988039
 30
0.0
 10
135.0312951889
 20
122.7507400741
 30
0.0
 10
135.0382838504
 20
122.7292350611
 30
0.0
 10
135.0382901236
 20
122.7086390837
 30
0.0
  0
SPLINE
  5
59C
100
AcDbEntity
  8
RACCORDO
100
AcDbSpline
 62
250
  6
CONTINUOUS
 70
0
 71
3
 72
9
 73
5
 74
0
 42
0.0000001
 43
0.0000001
 44
0.0000000001
 40
0.0
 40
0.0
 40
0.0
 40
0.0
 40
0.415360443
 40
1.0
 40
1.0
 40
1.0
 40
1.0
 10
110.2259801877
 20
124.9895146676
 30
0.0
 10
110.2241260324
 20
125.0674680665
 30
0.0
 10
110.2200383233
 20
125.2551571784
 30
0.0
 10
110.219120696
 20
125.4428949521
 30
0.0
 10
110.2191200173
 20
125.5526490979
 30
0.0
  0
SPLINE
  5
59D
100
AcDbEntity
  8
RACCORDO
100
AcDbSpline
 62
250
  6
CONTINUOUS
 70
0
 71
3
 72
22
 73
18
 74
0
 42
0.0000001
 43
0.0000001
 44
0.0000000001
 40
0.0
 40
0.0
 40
0.0
 40
0.0
 40
0.153891151
 40
0.3065029188
 40
0.4563761168
 40
0.6015413897
 40
0.6714323938
 40
0.738760658
 40
0.8026500082
 40
0.8618257195
 40
0.9143751357
 40
0.9373258321
 40
0.9574817585
 40
0.9743365813
 40
0.9873554811
 40
0.9960245891
 40
1.0
 40
1.0
 40
1.0
 40
1.0
 10
131.8021015818
 20
159.3963139179
 30
0.0
 10
131.8657795081
 20
159.3963138475
 30
0.0
 10
131.9926059926
 20
159.3962138478
 30
0.0
 10
132.1814473586
 20
159.3957653058
 30
0.0
 10
132.3666770878
 20
159.3950086258
 30
0.0
 10
132.5176769637
 20
159.3940923206
 30
0.0
 10
132.6345198836
 20
159.3931530566
 30
0.0
 10
132.7177318114
 20
159.3923517471
 30
0.0
 10
132.796508864
 20
159.3914371242
 30
0.0
 10
132.8691672614
 20
159.390395376
 30
0.0
 10
132.9248879188
 20
159.3893914984
 30
0.0
 10
132.964453896
 20
159.388461851
 30
0.0
 10
132.9892663669
 20
159.3877929673
 30
0.0
 10
133.0099246
 20
159.3870034801
 30
0.0
 10
133.0259348262
 20
159.3864404943
 30
0.0
 10
133.0363726932
 20
159.3853784579
 30
0.0
 10
133.0417767258
 20
159.3852140783
 30
0.0
 10
133.0432689253
 20
159.3845217936
 30
0.0
  0
SPLINE
  5
59E
100
AcDbEntity
  8
RACCORDO
100
AcDbSpline
 62
7
  6
CONTINUOUS
 70
0
 71
3
 72
9
 73
5
 74
0
 42
0.0000001
 43
0.0000001
 44
0.0000000001
 40
0.0
 40
0.0
 40
0.0
 40
0.0
 40
0.2535379662
 40
1.0
 40
1.0
 40
1.0
 40
1.0
 10
170.4663560824
 20
159.3928838315
 30
0.0
 10
170.4950759941
 20
159.3928838889
 30
0.0
 10
170.6083523605
 20
159.3926434746
 30
0.0
 10
170.7216277591
 20
159.3916643556
 30
0.0
 10
170.8061841928
 20
159.391860077
 30
0.0
  0
SPLINE
  5
59F
100
AcDbEntity
  8
RACCORDO
100
AcDbSpline
 62
250
  6
CONTINUOUS
 70
0
 71
3
 72
24
 73
20
 74
0
 42
0.0000001
 43
0.0000001
 44
0.0000000001
 40
0.0
 40
0.0
 40
0.0
 40
0.0
 40
0.003444016
 40
0.011087321
 40
0.0214112588
 40
0.0333651441
 40
0.0600181573
 40
0.0886852606
 40
0.1184702149
 40
0.1489611403
 40
0.2112769469
 40
0.2747317793
 40
0.3389399953
 40
0.4037030796
 40
0.4689051518
 40
0.6003495536
 40
0.7328800929
 40
0.8662056422
 40
1.0
 40
1.0
 40
1.0
 40
1.0
 10
176.2191809305
 20
146.9473638859
 30
0.0
 10
176.219704246
 20
146.9458528435
 30
0.0
 10
176.2193932239
 20
146.9405568888
 30
0.0
 10
176.2201331762
 20
146.930736774
 30
0.0
 10
176.2202361958
 20
146.916795988
 30
0.0
 10
176.2206986125
 20
146.8941020891
 30
0.0
 10
176.2210483346
 20
146.862856027
 30
0.0
 10
176.2214737288
 20
146.8233472534
 30
0.0
 10
176.2218346204
 20
146.7820503683
 30
0.0
 10
176.2222830449
 20
146.7251318196
 30
0.0
 10
176.222771594
 20
146.6525792016
 30
0.0
 10
176.2232850491
 20
146.5643714005
 30
0.0
 10
176.2237422022
 20
146.4750268883
 30
0.0
 10
176.2241520943
 20
146.384870901
 30
0.0
 10
176.2246429348
 20
146.2634964368
 30
0.0
 10
176.2251553986
 20
146.1106566188
 30
0.0
 10
176.2256140204
 20
145.9261859989
 30
0.0
 10
176.2259078137
 20
145.7406239282
 30
0.0
 10
176.2259801499
 20
145.6165970891
 30
0.0
 10
176.2259801883
 20
145.5544748369
 30
0.0
  0
SPLINE
  5
5A0
100
AcDbEntity
  8
RACCORDO
100
AcDbSpline
 62
250
  6
CONTINUOUS
 70
0
 71
3
 72
18
 73
14
 74
0
 42
0.0000001
 43
0.0000001
 44
0.0000000001
 40
0.0
 40
0.0
 40
0.0
 40
0.0
 40
0.1912960841
 40
0.4085489176
 40
0.5796556348
 40
0.7130952395
 40
0.8187704381
 40
0.8625349988
 40
0.9014675079
 40
0.936335679
 40
0.9660837979
 40
0.9886780701
 40
1.0
 40
1.0
 40
1.0
 40
1.0
 10
176.1526995792
 20
151.4690403579
 30
0.0
 10
176.1526995658
 20
151.5288277174
 30
0.0
 10
176.1526934942
 20
151.6565149277
 30
0.0
 10
176.1525670772
 20
151.8376794675
 30
0.0
 10
176.1523020358
 20
152.0007616471
 30
0.0
 10
176.1519885316
 20
152.128970877
 30
0.0
 10
176.1517440375
 20
152.2173819806
 30
0.0
 10
176.1515576483
 20
152.2762539556
 30
0.0
 10
176.1513952431
 20
152.3130003854
 30
0.0
 10
176.1510493275
 20
152.3453522116
 30
0.0
 10
176.1507991574
 20
152.3726348821
 30
0.0
 10
176.1499394424
 20
152.3924588671
 30
0.0
 10
176.1499985334
 20
152.403146285
 30
0.0
 10
176.1493091815
 20
152.4066170254
 30
0.0
  0
LINE
  5
5A1
100
AcDbEntity
  8
RACCORDO
100
AcDbLine
 62
250
  6
CONTINUOUS
 10
176.1493149787
 20
152.4066071529
 11
176.1439718464
 21
152.4330155593
  0
SPLINE
  5
5A2
100
AcDbEntity
  8
RACCORDO
100
AcDbSpline
 62
250
  6
CONTINUOUS
 70
0
 71
3
 72
16
 73
12
 74
0
 42
0.0000001
 43
0.0000001
 44
0.0000000001
 40
0.0
 40
0.0
 40
0.0
 40
0.0
 40
0.0123092356
 40
0.0385576777
 40
0.0767665553
 40
0.1246804603
 40
0.2418066042
 40
0.3778707112
 40
0.5255282001
 40
0.6802880307
 40
1.0
 40
1.0
 40
1.0
 40
1.0
 10
164.5883129694
 20
113.5723812568
 30
0.0
 10
164.5887558949
 20
113.5719203906
 30
0.0
 10
164.5895014841
 20
113.5699926421
 30
0.0
 10
164.5911578325
 20
113.5664177422
 30
0.0
 10
164.5932759265
 20
113.5609537135
 30
0.0
 10
164.5970954886
 20
113.5511277653
 30
0.0
 10
164.6025416677
 20
113.5364620998
 30
0.0
 10
164.6096785001
 20
113.5169115483
 30
0.0
 10
164.61737027
 20
113.4954791443
 30
0.0
 10
164.6281736503
 20
113.465032966
 30
0.0
 10
164.6363016525
 20
113.4417731533
 30
0.0
 10
164.6417354405
 20
113.4260853115
 30
0.0
  0
SPLINE
  5
5A3
100
AcDbEntity
  8
RACCORDO
100
AcDbSpline
 62
250
  6
CONTINUOUS
 70
0
 71
3
 72
17
 73
13
 74
0
 42
0.0000001
 43
0.0000001
 44
0.0000000001
 40
0.0
 40
0.0
 40
0.0
 40
0.0
 40
0.3258037372
 40
0.4835925666
 40
0.6337177157
 40
0.7714152532
 40
0.8329932954
 40
0.8880114772
 40
0.9343739454
 40
0.9697576346
 40
0.9921201415
 40
1.0
 40
1.0
 40
1.0
 40
1.0
 10
164.6417354405
 20
112.4231696768
 30
0.0
 10
164.6470599222
 20
112.4077949965
 30
0.0
 10
164.6549115805
 20
112.3849570899
 30
0.0
 10
164.6650415503
 20
112.3549722871
 30
0.0
 10
164.6720749979
 20
112.333864843
 30
0.0
 10
164.677529092
 20
112.3172743636
 30
0.0
 10
164.6813913367
 20
112.3052043122
 30
0.0
 10
164.6838814057
 20
112.2973878088
 30
0.0
 10
164.6857316869
 20
112.291007332
 30
0.0
 10
164.6875275111
 20
112.2856352645
 30
0.0
 10
164.6876920076
 20
112.2831689291
 30
0.0
 10
164.6886831914
 20
112.2809137183
 30
0.0
 10
164.6882977389
 20
112.2808344541
 30
0.0
  0
SPLINE
  5
5A4
100
AcDbEntity
  8
RACCORDO
100
AcDbSpline
 62
250
  6
CONTINUOUS
 70
0
 71
3
 72
11
 73
7
 74
0
 42
0.0000001
 43
0.0000001
 44
0.0000000001
 40
0.0
 40
0.0
 40
0.0
 40
0.0
 40
0.2581330186
 40
0.5051633028
 40
0.7518281826
 40
1.0
 40
1.0
 40
1.0
 40
1.0
 10
110.4191029782
 20
121.8331140512
 30
0.0
 10
110.4048129828
 20
121.8827005403
 30
0.0
 10
110.3676302134
 20
121.9772185925
 30
0.0
 10
110.2953664316
 20
122.1089597892
 30
0.0
 10
110.2393199076
 20
122.2471321451
 30
0.0
 10
110.2256725294
 20
122.3466406558
 30
0.0
 10
110.2259816331
 20
122.3962528005
 30
0.0
  0
SPLINE
  5
5A5
100
AcDbEntity
  8
RACCORDO
100
AcDbSpline
 62
250
  6
CONTINUOUS
 70
0
 71
3
 72
9
 73
5
 74
0
 42
0.0000001
 43
0.0000001
 44
0.0000000001
 40
0.0
 40
0.0
 40
0.0
 40
0.0
 40
0.2087035274
 40
1.0
 40
1.0
 40
1.0
 40
1.0
 10
164.7674428251
 20
98.819206312
 30
0.0
 10
164.7681509631
 20
98.855497782
 30
0.0
 10
164.770774707
 20
99.0294024384
 30
0.0
 10
164.7715154687
 20
99.2033307194
 30
0.0
 10
164.7715156736
 20
99.3409555067
 30
0.0
  0
SPLINE
  5
5A6
100
AcDbEntity
  8
RACCORDO
100
AcDbSpline
 62
250
  6
CONTINUOUS
 70
0
 71
3
 72
9
 73
5
 74
0
 42
0.0000001
 43
0.0000001
 44
0.0000000001
 40
0.0
 40
0.0
 40
0.0
 40
0.0
 40
0.2800171848
 40
1.0
 40
1.0
 40
1.0
 40
1.0
 10
164.7645336476
 20
98.4465283157
 30
0.0
 10
164.7645343586
 20
98.4813150306
 30
0.0
 10
164.7647825263
 20
98.6055446436
 30
0.0
 10
164.7657004942
 20
98.7297793555
 30
0.0
 10
164.7674428251
 20
98.819206312
 30
0.0
  0
SPLINE
  5
5A7
100
AcDbEntity
  8
RACCORDO
100
AcDbSpline
 62
250
  6
CONTINUOUS
 70
0
 71
3
 72
9
 73
5
 74
0
 42
0.0000001
 43
0.0000001
 44
0.0000000001
 40
0.0
 40
0.0
 40
0.0
 40
0.0
 40
0.2087221744
 40
1.0
 40
1.0
 40
1.0
 40
1.0
 10
164.7674428251
 20
95.8534720701
 30
0.0
 10
164.7669376563
 20
95.8793968782
 30
0.0
 10
164.7650613756
 20
96.0036144521
 30
0.0
 10
164.7645356858
 20
96.1278489633
 30
0.0
 10
164.7645336476
 20
96.2261500663
 30
0.0
  0
SPLINE
  5
5A8
100
AcDbEntity
  8
RACCORDO
100
AcDbSpline
 62
250
  6
CONTINUOUS
 70
0
 71
3
 72
9
 73
5
 74
0
 42
0.0000001
 43
0.0000001
 44
0.0000000001
 40
0.0
 40
0.0
 40
0.0
 40
0.0
 40
0.2800126722
 40
1.0
 40
1.0
 40
1.0
 40
1.0
 10
164.7715156736
 20
95.3317228753
 30
0.0
 10
164.7715156118
 20
95.3804234913
 30
0.0
 10
164.7711653323
 20
95.5543449358
 30
0.0
 10
164.7698856977
 20
95.7282736164
 30
0.0
 10
164.7674428251
 20
95.8534720701
 30
0.0
  0
SPLINE
  5
5A9
100
AcDbEntity
  8
RACCORDO
100
AcDbSpline
 62
250
  6
CONTINUOUS
 70
0
 71
3
 72
18
 73
14
 74
0
 42
0.0000001
 43
0.0000001
 44
0.0000000001
 40
0.0
 40
0.0
 40
0.0
 40
0.0
 40
0.1814938696
 40
0.3587850826
 40
0.5263448986
 40
0.678573591
 40
0.8091133211
 40
0.8639518333
 40
0.9106270849
 40
0.9482638553
 40
0.9760188937
 40
0.9933573097
 40
1.0
 40
1.0
 40
1.0
 40
1.0
 10
164.74172021
 20
112.4231696768
 30
0.0
 10
164.7417198059
 20
112.4093146326
 30
0.0
 10
164.7416826981
 20
112.3819252754
 30
0.0
 10
164.7415158914
 20
112.3417453195
 30
0.0
 10
164.7412397945
 20
112.3037985576
 30
0.0
 10
164.7408515005
 20
112.2694267954
 30
0.0
 10
164.7404424399
 20
112.2436478039
 30
0.0
 10
164.7400232427
 20
112.2259535744
 30
0.0
 10
164.7397540215
 20
112.2152991067
 30
0.0
 10
164.7393412015
 20
112.2068478376
 30
0.0
 10
164.7392441102
 20
112.2003080811
 30
0.0
 10
164.7385161071
 20
112.1968008888
 30
0.0
 10
164.7387290157
 20
112.1944991113
 30
0.0
 10
164.7382901236
 20
112.1942451037
 30
0.0
  0
SPLINE
  5
5AA
100
AcDbEntity
  8
RACCORDO
100
AcDbSpline
 62
250
  6
CONTINUOUS
 70
0
 71
3
 72
16
 73
12
 74
0
 42
0.0000001
 43
0.0000001
 44
0.0000000001
 40
0.0
 40
0.0
 40
0.0
 40
0.0
 40
0.0083231345
 40
0.0272452787
 40
0.0563452853
 40
0.0949603185
 40
0.1974568792
 40
0.3277368664
 40
0.4789165846
 40
0.6448420546
 40
1.0
 40
1.0
 40
1.0
 40
1.0
 10
164.7382901236
 20
113.6589706072
 30
0.0
 10
164.7386131434
 20
113.6584107812
 30
0.0
 10
164.7386514555
 20
113.6561853592
 30
0.0
 10
164.7391504889
 20
113.6519208509
 30
0.0
 10
164.73938206
 20
113.6451498661
 30
0.0
 10
164.7399031654
 20
113.6319681012
 30
0.0
 10
164.7403601124
 20
113.6108793657
 30
0.0
 10
164.7408561795
 20
113.5810752097
 30
0.0
 10
164.7412341955
 20
113.5463327063
 30
0.0
 10
164.7416163049
 20
113.4941304853
 30
0.0
 10
164.7417200773
 20
113.45366512
 30
0.0
 10
164.74172021
 20
113.4260853115
 30
0.0
  0
SPLINE
  5
5AB
100
AcDbEntity
  8
RACCORDO
100
AcDbSpline
 62
250
  6
CONTINUOUS
 70
0
 71
3
 72
14
 73
10
 74
0
 42
0.0000001
 43
0.0000001
 44
0.0000000001
 40
0.0
 40
0.0
 40
0.0
 40
0.0
 40
0.0218447853
 40
0.074931716
 40
0.1589762211
 40
0.2732160288
 40
0.4161869659
 40
0.5863043176
 40
1.0
 40
1.0
 40
1.0
 40
1.0
 10
134.9383053541
 20
122.8086238532
 30
0.0
 10
134.9386784098
 20
122.8089925984
 30
0.0
 10
134.940710137
 20
122.8089529079
 30
0.0
 10
134.9443027156
 20
122.8095390468
 30
0.0
 10
134.9504419276
 20
122.8097359678
 30
0.0
 10
134.9585821337
 20
122.8101271369
 30
0.0
 10
134.9688560874
 20
122.8104247562
 30
0.0
 10
134.9862943771
 20
122.8108646111
 30
0.0
 10
135.0003147624
 20
122.8111001934
 30
0.0
 10
135.0102474516
 20
122.8112447889
 30
0.0
  0
SPLINE
  5
5AC
100
AcDbEntity
  8
RACCORDO
100
AcDbSpline
 62
250
  6
CONTINUOUS
 70
0
 71
3
 72
14
 73
10
 74
0
 42
0.0000001
 43
0.0000001
 44
0.0000000001
 40
0.0
 40
0.0
 40
0.0
 40
0.0
 40
0.0218447853
 40
0.074931716
 40
0.1589762211
 40
0.2732160288
 40
0.4161869659
 40
0.5863043176
 40
1.0
 40
1.0
 40
1.0
 40
1.0
 10
150.1383053541
 20
122.8086238532
 30
0.0
 10
150.1386784098
 20
122.8089925984
 30
0.0
 10
150.140710137
 20
122.8089529079
 30
0.0
 10
150.1443027156
 20
122.8095390468
 30
0.0
 10
150.1504419276
 20
122.8097359678
 30
0.0
 10
150.1585821337
 20
122.8101271369
 30
0.0
 10
150.1688560874
 20
122.8104247562
 30
0.0
 10
150.1862943771
 20
122.8108646111
 30
0.0
 10
150.2003147624
 20
122.8111001934
 30
0.0
 10
150.2102474516
 20
122.8112447889
 30
0.0
  0
SPLINE
  5
5AD
100
AcDbEntity
  8
RACCORDO
100
AcDbSpline
 62
250
  6
CONTINUOUS
 70
0
 71
3
 72
9
 73
5
 74
0
 42
0.0000001
 43
0.0000001
 44
0.0000000001
 40
0.0
 40
0.0
 40
0.0
 40
0.0
 40
0.2087035274
 40
1.0
 40
1.0
 40
1.0
 40
1.0
 10
121.6776573787
 20
95.8534720701
 30
0.0
 10
121.6769492407
 20
95.8171806001
 30
0.0
 10
121.6743254968
 20
95.6432759437
 30
0.0
 10
121.6735847351
 20
95.4693476627
 30
0.0
 10
121.6735845302
 20
95.3317228753
 30
0.0
  0
SPLINE
  5
5AE
100
AcDbEntity
  8
RACCORDO
100
AcDbSpline
 62
250
  6
CONTINUOUS
 70
0
 71
3
 72
9
 73
5
 74
0
 42
0.0000001
 43
0.0000001
 44
0.0000000001
 40
0.0
 40
0.0
 40
0.0
 40
0.0
 40
0.2800171848
 40
1.0
 40
1.0
 40
1.0
 40
1.0
 10
121.6805665562
 20
96.2261500663
 30
0.0
 10
121.6805658452
 20
96.1913633514
 30
0.0
 10
121.6803176775
 20
96.0671337385
 30
0.0
 10
121.6793997096
 20
95.9428990265
 30
0.0
 10
121.6776573787
 20
95.8534720701
 30
0.0
  0
SPLINE
  5
5AF
100
AcDbEntity
  8
RACCORDO
100
AcDbSpline
 62
250
  6
CONTINUOUS
 70
0
 71
3
 72
9
 73
5
 74
0
 42
0.0000001
 43
0.0000001
 44
0.0000000001
 40
0.0
 40
0.0
 40
0.0
 40
0.0
 40
0.2087221744
 40
1.0
 40
1.0
 40
1.0
 40
1.0
 10
121.6776573787
 20
98.819206312
 30
0.0
 10
121.6781625475
 20
98.7932815039
 30
0.0
 10
121.6800388282
 20
98.6690639299
 30
0.0
 10
121.680564518
 20
98.5448294187
 30
0.0
 10
121.6805665562
 20
98.4465283157
 30
0.0
  0
SPLINE
  5
5B0
100
AcDbEntity
  8
RACCORDO
100
AcDbSpline
 62
250
  6
CONTINUOUS
 70
0
 71
3
 72
9
 73
5
 74
0
 42
0.0000001
 43
0.0000001
 44
0.0000000001
 40
0.0
 40
0.0
 40
0.0
 40
0.0
 40
0.2800126722
 40
1.0
 40
1.0
 40
1.0
 40
1.0
 10
121.6735845302
 20
99.3409555067
 30
0.0
 10
121.673584592
 20
99.2922548907
 30
0.0
 10
121.6739348716
 20
99.1183334463
 30
0.0
 10
121.6752145062
 20
98.9444047657
 30
0.0
 10
121.6776573787
 20
98.819206312
 30
0.0
  0
SPLINE
  5
5B1
100
AcDbEntity
  8
RACCORDO
100
AcDbSpline
 62
250
  6
CONTINUOUS
 70
0
 71
3
 72
11
 73
7
 74
0
 42
0.0000001
 43
0.0000001
 44
0.0000000001
 40
0.0
 40
0.0
 40
0.0
 40
0.0
 40
0.2483050373
 40
0.4949976346
 40
0.7419995577
 40
1.0
 40
1.0
 40
1.0
 40
1.0
 10
176.219118654
 20
122.396171556
 30
0.0
 10
176.219407428
 20
122.3465397763
 30
0.0
 10
176.2057552611
 20
122.2470159889
 30
0.0
 10
176.1496851108
 20
122.1088457653
 30
0.0
 10
176.0774367276
 20
121.9771520788
 30
0.0
 10
176.0402753091
 20
121.8826743741
 30
0.0
 10
176.0260052524
 20
121.8331174223
 30
0.0
  0
SPLINE
  5
5B2
100
AcDbEntity
  8
RACCORDO
100
AcDbSpline
 62
250
  6
CONTINUOUS
 70
0
 71
3
 72
11
 73
7
 74
0
 42
0.0000001
 43
0.0000001
 44
0.0000000001
 40
0.0
 40
0.0
 40
0.0
 40
0.0
 40
0.2581505368
 40
0.5051749835
 40
0.7518369421
 40
1.0
 40
1.0
 40
1.0
 40
1.0
 10
176.0259966877
 20
125.5526545602
 30
0.0
 10
176.0402807153
 20
125.503062615
 30
0.0
 10
176.0774872401
 20
125.4085502462
 30
0.0
 10
176.1497280056
 20
125.2767972931
 30
0.0
 10
176.2057885293
 20
125.1386326256
 30
0.0
 10
176.2194221565
 20
125.0391247441
 30
0.0
 10
176.2191174048
 20
124.9895142386
 30
0.0
  0
SPLINE
  5
5B3
100
AcDbEntity
  8
RACCORDO
100
AcDbSpline
 62
250
  6
CONTINUOUS
 70
0
 71
3
 72
11
 73
7
 74
0
 42
0.0000001
 43
0.0000001
 44
0.0000000001
 40
0.0
 40
0.0
 40
0.0
 40
0.0
 40
0.2482108842
 40
0.494947091
 40
0.7419673371
 40
1.0
 40
1.0
 40
1.0
 40
1.0
 10
110.2259824538
 20
124.989776049
 30
0.0
 10
110.2257150918
 20
125.0393740563
 30
0.0
 10
110.2393785361
 20
125.1388513232
 30
0.0
 10
110.2954367465
 20
125.276971048
 30
0.0
 10
110.3676678486
 20
125.4086419544
 30
0.0
 10
110.4048340495
 20
125.5030974313
 30
0.0
 10
110.4190893613
 20
125.5526490243
 30
0.0
  0
SPLINE
  5
5B4
100
AcDbEntity
  8
RACCORDO
100
AcDbSpline
 62
250
  6
CONTINUOUS
 70
0
 71
3
 72
16
 73
12
 74
0
 42
0.0000001
 43
0.0000001
 44
0.0000000001
 40
0.0
 40
0.0
 40
0.0
 40
0.0
 40
0.3788630764
 40
0.5503398028
 40
0.7010933131
 40
0.8254845587
 40
0.9188720718
 40
0.952800848
 40
0.9777686623
 40
0.9935439251
 40
1.0
 40
1.0
 40
1.0
 40
1.0
 10
151.5208198282
 20
122.5963443789
 30
0.0
 10
151.5208198287
 20
122.6216012284
 30
0.0
 10
151.5207633256
 20
122.6582900145
 30
0.0
 10
151.5205507175
 20
122.705026861
 30
0.0
 10
151.520353106
 20
122.7348025099
 30
0.0
 10
151.520090052
 20
122.7593628864
 30
0.0
 10
151.5198809719
 20
122.7761557522
 30
0.0
 10
151.5196025194
 20
122.7862849642
 30
0.0
 10
151.5195363922
 20
122.7912959458
 30
0.0
 10
151.5192253163
 20
122.7943722722
 30
0.0
 10
151.5192970158
 20
122.7959288391
 30
0.0
 10
151.519104785
 20
122.7963139179
 30
0.0
  0
SPLINE
  5
5B5
100
AcDbEntity
  8
RACCORDO
100
AcDbSpline
 62
250
  6
CONTINUOUS
 70
0
 71
3
 72
16
 73
12
 74
0
 42
0.0000001
 43
0.0000001
 44
0.0000000001
 40
0.0
 40
0.0
 40
0.0
 40
0.0
 40
0.0069626965
 40
0.0235982132
 40
0.0497165789
 40
0.0849710448
 40
0.1810608105
 40
0.3073644303
 40
0.4584562472
 40
0.6283967076
 40
1.0
 40
1.0
 40
1.0
 40
1.0
 10
164.7259801883
 20
113.6802920406
 30
0.0
 10
164.7256127163
 20
113.6806076501
 30
0.0
 10
164.7239579913
 20
113.6810372428
 30
0.0
 10
164.7207863407
 20
113.6822893116
 30
0.0
 10
164.7155693673
 20
113.6838891612
 30
0.0
 10
164.7051477174
 20
113.6872107567
 30
0.0
 10
164.6879827542
 20
113.6924169828
 30
0.0
 10
164.6631042678
 20
113.6998958012
 30
0.0
 10
164.6332626294
 20
113.708736321
 30
0.0
 10
164.5870302281
 20
113.7223197808
 30
0.0
 10
164.5508493678
 20
113.7328288462
 30
0.0
 10
164.5260106493
 20
113.7399986355
 30
0.0
  0
SPLINE
  5
5B6
100
AcDbEntity
  8
RACCORDO
100
AcDbSpline
 62
250
  6
CONTINUOUS
 70
0
 71
3
 72
16
 73
12
 74
0
 42
0.0000001
 43
0.0000001
 44
0.0000000001
 40
0.0
 40
0.0
 40
0.0
 40
0.0
 40
0.0064678792
 40
0.0222641812
 40
0.0472717747
 40
0.0812461373
 40
0.1747434761
 40
0.2992249561
 40
0.4500021057
 40
0.6214191967
 40
1.0
 40
1.0
 40
1.0
 40
1.0
 10
150.1259954188
 20
122.7963139179
 30
0.0
 10
150.1258030882
 20
122.7959280096
 30
0.0
 10
150.1258751237
 20
122.7943693098
 30
0.0
 10
150.1255631845
 20
122.791288105
 30
0.0
 10
150.1254972917
 20
122.7862700497
 30
0.0
 10
150.125218803
 20
122.7761278031
 30
0.0
 10
150.1250095408
 20
122.7593185832
 30
0.0
 10
150.1247466316
 20
122.7347432815
 30
0.0
 10
150.1245491244
 20
122.7049640252
 30
0.0
 10
150.1243368316
 20
122.6582483958
 30
0.0
 10
150.1242803752
 20
122.6215824083
 30
0.0
 10
150.1242803756
 20
122.5963443789
 30
0.0
  0
SPLINE
  5
5B7
100
AcDbEntity
  8
RACCORDO
100
AcDbSpline
 62
250
  6
CONTINUOUS
 70
0
 71
3
 72
16
 73
12
 74
0
 42
0.0000001
 43
0.0000001
 44
0.0000000001
 40
0.0
 40
0.0
 40
0.0
 40
0.0
 40
0.3788630764
 40
0.5503398028
 40
0.7010933131
 40
0.8254845587
 40
0.9188720718
 40
0.952800848
 40
0.9777686623
 40
0.9935439251
 40
1.0
 40
1.0
 40
1.0
 40
1.0
 10
136.3208198282
 20
122.5963443789
 30
0.0
 10
136.3208198287
 20
122.6216012284
 30
0.0
 10
136.3207633256
 20
122.6582900145
 30
0.0
 10
136.3205507175
 20
122.705026861
 30
0.0
 10
136.320353106
 20
122.7348025099
 30
0.0
 10
136.320090052
 20
122.7593628864
 30
0.0
 10
136.3198809719
 20
122.7761557522
 30
0.0
 10
136.3196025194
 20
122.7862849642
 30
0.0
 10
136.3195363922
 20
122.7912959458
 30
0.0
 10
136.3192253163
 20
122.7943722722
 30
0.0
 10
136.3192970158
 20
122.7959288391
 30
0.0
 10
136.319104785
 20
122.7963139179
 30
0.0
  0
SPLINE
  5
5B8
100
AcDbEntity
  8
RACCORDO
100
AcDbSpline
 62
250
  6
CONTINUOUS
 70
0
 71
3
 72
14
 73
10
 74
0
 42
0.0000001
 43
0.0000001
 44
0.0000000001
 40
0.0
 40
0.0
 40
0.0
 40
0.0
 40
0.3785914839
 40
0.5499833286
 40
0.7007577807
 40
0.8251886477
 40
0.9186245046
 40
0.9775918361
 40
1.0
 40
1.0
 40
1.0
 40
1.0
 10
107.1762180216
 20
55.9736375617
 30
0.0
 10
107.1762180343
 20
55.979949236
 30
0.0
 10
107.1762425527
 20
55.9891209695
 30
0.0
 10
107.1763577786
 20
56.0007967573
 30
0.0
 10
107.1764351323
 20
56.0082568654
 30
0.0
 10
107.1766266641
 20
56.0143585112
 30
0.0
 10
107.1765962894
 20
56.0190759986
 30
0.0
 10
107.1770463051
 20
56.0217915976
 30
0.0
 10
107.1768122547
 20
56.0233649203
 30
0.0
 10
107.1770755432
 20
56.0236299464
 30
0.0
  0
SPLINE
  5
5B9
100
AcDbEntity
  8
RACCORDO
100
AcDbSpline
 62
250
  6
CONTINUOUS
 70
0
 71
3
 72
21
 73
17
 74
0
 42
0.0000001
 43
0.0000001
 44
0.0000000001
 40
0.0
 40
0.0
 40
0.0
 40
0.0
 40
0.0021973831
 40
0.0066565019
 40
0.0134222653
 40
0.0224936462
 40
0.0475025455
 40
0.0814619906
 40
0.1240575923
 40
0.1749014285
 40
0.2335027148
 40
0.299329546
 40
0.4500728028
 40
0.6214313573
 40
0.8070926853
 40
1.0
 40
1.0
 40
1.0
 40
1.0
 10
107.1912223749
 20
56.0377767781
 30
0.0
 10
107.1915066984
 20
56.0380623898
 30
0.0
 10
107.1917879249
 20
56.039338357
 30
0.0
 10
107.1922578233
 20
56.0416909218
 30
0.0
 10
107.192670405
 20
56.045425384
 30
0.0
 10
107.1933498681
 20
56.0528667651
 30
0.0
 10
107.1940986913
 20
56.0653389565
 30
0.0
 10
107.1949465161
 20
56.0839400667
 30
0.0
 10
107.1957583796
 20
56.1072942504
 30
0.0
 10
107.1965373165
 20
56.1351672501
 30
0.0
 10
107.19726829
 20
56.1673047196
 30
0.0
 10
107.1982118071
 20
56.2177630528
 30
0.0
 10
107.1991836308
 20
56.2889040834
 30
0.0
 10
107.2000222592
 20
56.3820256578
 30
0.0
 10
107.2005390281
 20
56.4828827107
 30
0.0
 10
107.2006548215
 20
56.5523132842
 30
0.0
 10
107.2006551125
 20
56.5876930105
 30
0.0
  0
SPLINE
  5
5BA
100
AcDbEntity
  8
RACCORDO
100
AcDbSpline
 62
250
  6
CONTINUOUS
 70
0
 71
3
 72
21
 73
17
 74
0
 42
0.0000001
 43
0.0000001
 44
0.0000000001
 40
0.0
 40
0.0
 40
0.0
 40
0.0
 40
0.1928853502
 40
0.3785472196
 40
0.549931931
 40
0.7006784183
 40
0.7664972847
 40
0.8250910778
 40
0.8759287249
 40
0.9185224926
 40
0.9524869984
 40
0.9774993876
 40
0.9865728428
 40
0.9933408671
 40
0.9978018245
 40
1.0
 40
1.0
 40
1.0
 40
1.0
 10
107.2006551125
 20
57.4980746526
 30
0.0
 10
107.2006547556
 20
57.5334503473
 30
0.0
 10
107.2005391295
 20
57.6028769854
 30
0.0
 10
107.2000223054
 20
57.7037348974
 30
0.0
 10
107.1991836251
 20
57.7968619519
 30
0.0
 10
107.198211796
 20
57.8680069053
 30
0.0
 10
107.1972682729
 20
57.918462991
 30
0.0
 10
107.1965374316
 20
57.950596489
 30
0.0
 10
107.1957586302
 20
57.9784666437
 30
0.0
 10
107.1949467699
 20
58.0018202809
 30
0.0
 10
107.1940990859
 20
58.0204226278
 30
0.0
 10
107.193350067
 20
58.032896764
 30
0.0
 10
107.1926704698
 20
58.0403395648
 30
0.0
 10
107.1922578755
 20
58.0440751829
 30
0.0
 10
107.1917878686
 20
58.0464285989
 30
0.0
 10
107.1915067698
 20
58.0477051394
 30
0.0
 10
107.1912223749
 20
58.0479908849
 30
0.0
  0
SPLINE
  5
5BB
100
AcDbEntity
  8
RACCORDO
100
AcDbSpline
 62
250
  6
CONTINUOUS
 70
0
 71
3
 72
14
 73
10
 74
0
 42
0.0000001
 43
0.0000001
 44
0.0000000001
 40
0.0
 40
0.0
 40
0.0
 40
0.0
 40
0.0224076973
 40
0.0813743952
 40
0.174809496
 40
0.299239644
 40
0.4500137747
 40
0.6214057121
 40
1.0
 40
1.0
 40
1.0
 40
1.0
 10
107.1770755432
 20
58.0621377166
 30
0.0
 10
107.1768122577
 20
58.0624027348
 30
0.0
 10
107.1770463043
 20
58.0639760405
 30
0.0
 10
107.1765962928
 20
58.0666916062
 30
0.0
 10
107.1766266661
 20
58.0714090601
 30
0.0
 10
107.1764351343
 20
58.0775106751
 30
0.0
 10
107.17635778
 20
58.0849707678
 30
0.0
 10
107.1762425529
 20
58.0966465984
 30
0.0
 10
107.1762180343
 20
58.1058183803
 30
0.0
 10
107.1762180216
 20
58.1121301014
 30
0.0
  0
SPLINE
  5
5BC
100
AcDbEntity
  8
RACCORDO
100
AcDbSpline
 62
250
  6
CONTINUOUS
 70
0
 71
3
 72
14
 73
10
 74
0
 42
0.0000001
 43
0.0000001
 44
0.0000000001
 40
0.0
 40
0.0
 40
0.0
 40
0.0
 40
0.3785914839
 40
0.5499833286
 40
0.7007577807
 40
0.8251886477
 40
0.9186245046
 40
0.9775918361
 40
1.0
 40
1.0
 40
1.0
 40
1.0
 10
107.1762180216
 20
155.9736375617
 30
0.0
 10
107.1762180343
 20
155.979949236
 30
0.0
 10
107.1762425527
 20
155.9891209695
 30
0.0
 10
107.1763577786
 20
156.0007967573
 30
0.0
 10
107.1764351323
 20
156.0082568654
 30
0.0
 10
107.1766266641
 20
156.0143585112
 30
0.0
 10
107.1765962894
 20
156.0190759986
 30
0.0
 10
107.1770463051
 20
156.0217915976
 30
0.0
 10
107.1768122547
 20
156.0233649203
 30
0.0
 10
107.1770755432
 20
156.0236299464
 30
0.0
  0
SPLINE
  5
5BD
100
AcDbEntity
  8
RACCORDO
100
AcDbSpline
 62
250
  6
CONTINUOUS
 70
0
 71
3
 72
21
 73
17
 74
0
 42
0.0000001
 43
0.0000001
 44
0.0000000001
 40
0.0
 40
0.0
 40
0.0
 40
0.0
 40
0.0021973831
 40
0.0066565019
 40
0.0134222653
 40
0.0224936462
 40
0.0475025455
 40
0.0814619906
 40
0.1240575923
 40
0.1749014285
 40
0.2335027148
 40
0.299329546
 40
0.4500728028
 40
0.6214313573
 40
0.8070926853
 40
1.0
 40
1.0
 40
1.0
 40
1.0
 10
107.1912223749
 20
156.0377767781
 30
0.0
 10
107.1915066984
 20
156.0380623898
 30
0.0
 10
107.1917879249
 20
156.039338357
 30
0.0
 10
107.1922578233
 20
156.0416909218
 30
0.0
 10
107.192670405
 20
156.045425384
 30
0.0
 10
107.1933498681
 20
156.0528667651
 30
0.0
 10
107.1940986913
 20
156.0653389565
 30
0.0
 10
107.1949465161
 20
156.0839400667
 30
0.0
 10
107.1957583796
 20
156.1072942504
 30
0.0
 10
107.1965373165
 20
156.1351672501
 30
0.0
 10
107.19726829
 20
156.1673047196
 30
0.0
 10
107.1982118071
 20
156.2177630528
 30
0.0
 10
107.1991836308
 20
156.2889040834
 30
0.0
 10
107.2000222592
 20
156.3820256578
 30
0.0
 10
107.2005390281
 20
156.4828827107
 30
0.0
 10
107.2006548215
 20
156.5523132842
 30
0.0
 10
107.2006551125
 20
156.5876930105
 30
0.0
  0
SPLINE
  5
5BE
100
AcDbEntity
  8
RACCORDO
100
AcDbSpline
 62
250
  6
CONTINUOUS
 70
0
 71
3
 72
21
 73
17
 74
0
 42
0.0000001
 43
0.0000001
 44
0.0000000001
 40
0.0
 40
0.0
 40
0.0
 40
0.0
 40
0.1928853502
 40
0.3785472196
 40
0.549931931
 40
0.7006784183
 40
0.7664972847
 40
0.8250910778
 40
0.8759287249
 40
0.9185224926
 40
0.9524869984
 40
0.9774993876
 40
0.9865728428
 40
0.9933408671
 40
0.9978018245
 40
1.0
 40
1.0
 40
1.0
 40
1.0
 10
107.2006551125
 20
157.4980746526
 30
0.0
 10
107.2006547556
 20
157.5334503473
 30
0.0
 10
107.2005391295
 20
157.6028769854
 30
0.0
 10
107.2000223054
 20
157.7037348974
 30
0.0
 10
107.1991836251
 20
157.7968619519
 30
0.0
 10
107.198211796
 20
157.8680069053
 30
0.0
 10
107.1972682729
 20
157.918462991
 30
0.0
 10
107.1965374316
 20
157.950596489
 30
0.0
 10
107.1957586302
 20
157.9784666437
 30
0.0
 10
107.1949467699
 20
158.0018202809
 30
0.0
 10
107.1940990859
 20
158.0204226278
 30
0.0
 10
107.193350067
 20
158.032896764
 30
0.0
 10
107.1926704698
 20
158.0403395648
 30
0.0
 10
107.1922578755
 20
158.0440751829
 30
0.0
 10
107.1917878686
 20
158.0464285989
 30
0.0
 10
107.1915067698
 20
158.0477051394
 30
0.0
 10
107.1912223749
 20
158.0479908849
 30
0.0
  0
SPLINE
  5
5BF
100
AcDbEntity
  8
RACCORDO
100
AcDbSpline
 62
250
  6
CONTINUOUS
 70
0
 71
3
 72
14
 73
10
 74
0
 42
0.0000001
 43
0.0000001
 44
0.0000000001
 40
0.0
 40
0.0
 40
0.0
 40
0.0
 40
0.0224076973
 40
0.0813743952
 40
0.174809496
 40
0.299239644
 40
0.4500137747
 40
0.6214057121
 40
1.0
 40
1.0
 40
1.0
 40
1.0
 10
107.1770755432
 20
158.0621377166
 30
0.0
 10
107.1768122577
 20
158.0624027348
 30
0.0
 10
107.1770463043
 20
158.0639760405
 30
0.0
 10
107.1765962928
 20
158.0666916062
 30
0.0
 10
107.1766266661
 20
158.0714090601
 30
0.0
 10
107.1764351343
 20
158.0775106751
 30
0.0
 10
107.17635778
 20
158.0849707678
 30
0.0
 10
107.1762425529
 20
158.0966465984
 30
0.0
 10
107.1762180343
 20
158.1058183803
 30
0.0
 10
107.1762180216
 20
158.1121301014
 30
0.0
  0
SPLINE
  5
5C0
100
AcDbEntity
  8
RACCORDO
100
AcDbSpline
 62
250
  6
CONTINUOUS
 70
0
 71
3
 72
14
 73
10
 74
0
 42
0.0000001
 43
0.0000001
 44
0.0000000001
 40
0.0
 40
0.0
 40
0.0
 40
0.0
 40
0.3785914839
 40
0.5499833286
 40
0.7007577807
 40
0.8251886477
 40
0.9186245046
 40
0.9775918361
 40
1.0
 40
1.0
 40
1.0
 40
1.0
 10
179.2688821822
 20
138.1121301014
 30
0.0
 10
179.2688821695
 20
138.1058184271
 30
0.0
 10
179.2688576511
 20
138.0966466936
 30
0.0
 10
179.2687424252
 20
138.0849709057
 30
0.0
 10
179.2686650715
 20
138.0775107977
 30
0.0
 10
179.2684735397
 20
138.0714091519
 30
0.0
 10
179.2685039144
 20
138.0666916644
 30
0.0
 10
179.2680538987
 20
138.0639760655
 30
0.0
 10
179.2682879491
 20
138.0624027427
 30
0.0
 10
179.2680246606
 20
138.0621377166
 30
0.0
  0
SPLINE
  5
5C1
100
AcDbEntity
  8
RACCORDO
100
AcDbSpline
 62
250
  6
CONTINUOUS
 70
0
 71
3
 72
21
 73
17
 74
0
 42
0.0000001
 43
0.0000001
 44
0.0000000001
 40
0.0
 40
0.0
 40
0.0
 40
0.0
 40
0.0021973831
 40
0.0066565019
 40
0.0134222653
 40
0.0224936462
 40
0.0475025455
 40
0.0814619906
 40
0.1240575923
 40
0.1749014285
 40
0.2335027148
 40
0.299329546
 40
0.4500728028
 40
0.6214313573
 40
0.8070926853
 40
1.0
 40
1.0
 40
1.0
 40
1.0
 10
179.2538778289
 20
138.0479908849
 30
0.0
 10
179.2535935054
 20
138.0477052733
 30
0.0
 10
179.2533122789
 20
138.0464293061
 30
0.0
 10
179.2528423806
 20
138.0440767412
 30
0.0
 10
179.2524297988
 20
138.0403422791
 30
0.0
 10
179.2517503358
 20
138.0329008979
 30
0.0
 10
179.2510015125
 20
138.0204287065
 30
0.0
 10
179.2501536877
 20
138.0018275963
 30
0.0
 10
179.2493418242
 20
137.9784734127
 30
0.0
 10
179.2485628873
 20
137.9506004129
 30
0.0
 10
179.2478319138
 20
137.9184629435
 30
0.0
 10
179.2468883967
 20
137.8680046102
 30
0.0
 10
179.245916573
 20
137.7968635797
 30
0.0
 10
179.2450779446
 20
137.7037420053
 30
0.0
 10
179.2445611757
 20
137.6028849523
 30
0.0
 10
179.2444453823
 20
137.5334543789
 30
0.0
 10
179.2444450913
 20
137.4980746526
 30
0.0
  0
SPLINE
  5
5C2
100
AcDbEntity
  8
RACCORDO
100
AcDbSpline
 62
250
  6
CONTINUOUS
 70
0
 71
3
 72
21
 73
17
 74
0
 42
0.0000001
 43
0.0000001
 44
0.0000000001
 40
0.0
 40
0.0
 40
0.0
 40
0.0
 40
0.1928853502
 40
0.3785472196
 40
0.549931931
 40
0.7006784183
 40
0.7664972847
 40
0.8250910778
 40
0.8759287249
 40
0.9185224926
 40
0.9524869984
 40
0.9774993876
 40
0.9865728428
 40
0.9933408671
 40
0.9978018245
 40
1.0
 40
1.0
 40
1.0
 40
1.0
 10
179.2444450913
 20
136.5876930105
 30
0.0
 10
179.2444454482
 20
136.5523173157
 30
0.0
 10
179.2445610743
 20
136.4828906776
 30
0.0
 10
179.2450778984
 20
136.3820327656
 30
0.0
 10
179.2459165787
 20
136.2889057112
 30
0.0
 10
179.2468884078
 20
136.2177607577
 30
0.0
 10
179.247831931
 20
136.1673046721
 30
0.0
 10
179.2485627722
 20
136.135171174
 30
0.0
 10
179.2493415736
 20
136.1073010194
 30
0.0
 10
179.2501534339
 20
136.0839473821
 30
0.0
 10
179.2510011179
 20
136.0653450353
 30
0.0
 10
179.2517501368
 20
136.0528708991
 30
0.0
 10
179.252429734
 20
136.0454280982
 30
0.0
 10
179.2528423283
 20
136.0416924802
 30
0.0
 10
179.2533123352
 20
136.0393390641
 30
0.0
 10
179.253593434
 20
136.0380625237
 30
0.0
 10
179.2538778289
 20
136.0377767781
 30
0.0
  0
SPLINE
  5
5C3
100
AcDbEntity
  8
RACCORDO
100
AcDbSpline
 62
250
  6
CONTINUOUS
 70
0
 71
3
 72
14
 73
10
 74
0
 42
0.0000001
 43
0.0000001
 44
0.0000000001
 40
0.0
 40
0.0
 40
0.0
 40
0.0
 40
0.0224076973
 40
0.0813743952
 40
0.174809496
 40
0.299239644
 40
0.4500137747
 40
0.6214057121
 40
1.0
 40
1.0
 40
1.0
 40
1.0
 10
179.2680246606
 20
136.0236299464
 30
0.0
 10
179.2682879461
 20
136.0233649283
 30
0.0
 10
179.2680538995
 20
136.0217916226
 30
0.0
 10
179.268503911
 20
136.0190760569
 30
0.0
 10
179.2684735377
 20
136.0143586029
 30
0.0
 10
179.2686650695
 20
136.0082569879
 30
0.0
 10
179.2687424238
 20
136.0007968952
 30
0.0
 10
179.2688576509
 20
135.9891210647
 30
0.0
 10
179.2688821695
 20
135.9799492827
 30
0.0
 10
179.2688821822
 20
135.9736375617
 30
0.0
  0
SPLINE
  5
5C4
100
AcDbEntity
  8
RACCORDO
100
AcDbSpline
 62
250
  6
CONTINUOUS
 70
0
 71
3
 72
14
 73
10
 74
0
 42
0.0000001
 43
0.0000001
 44
0.0000000001
 40
0.0
 40
0.0
 40
0.0
 40
0.0
 40
0.3785914839
 40
0.5499833286
 40
0.7007577807
 40
0.8251886477
 40
0.9186245046
 40
0.9775918361
 40
1.0
 40
1.0
 40
1.0
 40
1.0
 10
179.2688821822
 20
56.1121301014
 30
0.0
 10
179.2688821695
 20
56.1058184271
 30
0.0
 10
179.2688576511
 20
56.0966466936
 30
0.0
 10
179.2687424252
 20
56.0849709057
 30
0.0
 10
179.2686650715
 20
56.0775107977
 30
0.0
 10
179.2684735397
 20
56.0714091519
 30
0.0
 10
179.2685039144
 20
56.0666916644
 30
0.0
 10
179.2680538987
 20
56.0639760655
 30
0.0
 10
179.2682879491
 20
56.0624027427
 30
0.0
 10
179.2680246606
 20
56.0621377166
 30
0.0
  0
SPLINE
  5
5C5
100
AcDbEntity
  8
RACCORDO
100
AcDbSpline
 62
250
  6
CONTINUOUS
 70
0
 71
3
 72
21
 73
17
 74
0
 42
0.0000001
 43
0.0000001
 44
0.0000000001
 40
0.0
 40
0.0
 40
0.0
 40
0.0
 40
0.0021973831
 40
0.0066565019
 40
0.0134222653
 40
0.0224936462
 40
0.0475025455
 40
0.0814619906
 40
0.1240575923
 40
0.1749014285
 40
0.2335027148
 40
0.299329546
 40
0.4500728028
 40
0.6214313573
 40
0.8070926853
 40
1.0
 40
1.0
 40
1.0
 40
1.0
 10
179.2538778289
 20
56.0479908849
 30
0.0
 10
179.2535935054
 20
56.0477052733
 30
0.0
 10
179.2533122789
 20
56.0464293061
 30
0.0
 10
179.2528423806
 20
56.0440767412
 30
0.0
 10
179.2524297988
 20
56.0403422791
 30
0.0
 10
179.2517503358
 20
56.0329008979
 30
0.0
 10
179.2510015125
 20
56.0204287065
 30
0.0
 10
179.2501536877
 20
56.0018275963
 30
0.0
 10
179.2493418242
 20
55.9784734127
 30
0.0
 10
179.2485628873
 20
55.9506004129
 30
0.0
 10
179.2478319138
 20
55.9184629435
 30
0.0
 10
179.2468883967
 20
55.8680046102
 30
0.0
 10
179.245916573
 20
55.7968635797
 30
0.0
 10
179.2450779446
 20
55.7037420053
 30
0.0
 10
179.2445611757
 20
55.6028849523
 30
0.0
 10
179.2444453823
 20
55.5334543789
 30
0.0
 10
179.2444450913
 20
55.4980746526
 30
0.0
  0
SPLINE
  5
5C6
100
AcDbEntity
  8
RACCORDO
100
AcDbSpline
 62
250
  6
CONTINUOUS
 70
0
 71
3
 72
21
 73
17
 74
0
 42
0.0000001
 43
0.0000001
 44
0.0000000001
 40
0.0
 40
0.0
 40
0.0
 40
0.0
 40
0.1928853502
 40
0.3785472196
 40
0.549931931
 40
0.7006784183
 40
0.7664972847
 40
0.8250910778
 40
0.8759287249
 40
0.9185224926
 40
0.9524869984
 40
0.9774993876
 40
0.9865728428
 40
0.9933408671
 40
0.9978018245
 40
1.0
 40
1.0
 40
1.0
 40
1.0
 10
179.2444450913
 20
54.5876930105
 30
0.0
 10
179.2444454482
 20
54.5523173157
 30
0.0
 10
179.2445610743
 20
54.4828906776
 30
0.0
 10
179.2450778984
 20
54.3820327656
 30
0.0
 10
179.2459165787
 20
54.2889057112
 30
0.0
 10
179.2468884078
 20
54.2177607577
 30
0.0
 10
179.247831931
 20
54.1673046721
 30
0.0
 10
179.2485627722
 20
54.135171174
 30
0.0
 10
179.2493415736
 20
54.1073010194
 30
0.0
 10
179.2501534339
 20
54.0839473821
 30
0.0
 10
179.2510011179
 20
54.0653450353
 30
0.0
 10
179.2517501368
 20
54.0528708991
 30
0.0
 10
179.252429734
 20
54.0454280982
 30
0.0
 10
179.2528423283
 20
54.0416924802
 30
0.0
 10
179.2533123352
 20
54.0393390641
 30
0.0
 10
179.253593434
 20
54.0380625237
 30
0.0
 10
179.2538778289
 20
54.0377767781
 30
0.0
  0
SPLINE
  5
5C7
100
AcDbEntity
  8
RACCORDO
100
AcDbSpline
 62
250
  6
CONTINUOUS
 70
0
 71
3
 72
14
 73
10
 74
0
 42
0.0000001
 43
0.0000001
 44
0.0000000001
 40
0.0
 40
0.0
 40
0.0
 40
0.0
 40
0.0224076973
 40
0.0813743952
 40
0.174809496
 40
0.299239644
 40
0.4500137747
 40
0.6214057121
 40
1.0
 40
1.0
 40
1.0
 40
1.0
 10
179.2680246606
 20
54.0236299464
 30
0.0
 10
179.2682879461
 20
54.0233649283
 30
0.0
 10
179.2680538995
 20
54.0217916226
 30
0.0
 10
179.268503911
 20
54.0190760569
 30
0.0
 10
179.2684735377
 20
54.0143586029
 30
0.0
 10
179.2686650695
 20
54.0082569879
 30
0.0
 10
179.2687424238
 20
54.0007968952
 30
0.0
 10
179.2688576509
 20
53.9891210647
 30
0.0
 10
179.2688821695
 20
53.9799492827
 30
0.0
 10
179.2688821822
 20
53.9736375617
 30
0.0
  0
SPLINE
  5
5C8
100
AcDbEntity
  8
RACCORDO
100
AcDbSpline
 62
250
  6
CONTINUOUS
 70
0
 71
3
 72
17
 73
13
 74
0
 42
0.0000001
 43
0.0000001
 44
0.0000000001
 40
0.0
 40
0.0
 40
0.0
 40
0.0
 40
0.3731506398
 40
0.5436772308
 40
0.6950660273
 40
0.8212791644
 40
0.8732094961
 40
0.9168726447
 40
0.9517505276
 40
0.9774174943
 40
0.993558386
 40
1.0
 40
1.0
 40
1.0
 40
1.0
 10
164.5260106493
 20
112.2428838315
 30
0.0
 10
164.5508216856
 20
112.2357220471
 30
0.0
 10
164.5869883701
 20
112.2253474503
 30
0.0
 10
164.6332654617
 20
112.2122211536
 30
0.0
 10
164.6631224652
 20
112.2038368555
 30
0.0
 10
164.685099035
 20
112.1977349518
 30
0.0
 10
164.6999061512
 20
112.1937031611
 30
0.0
 10
164.7086292933
 20
112.1913377578
 30
0.0
 10
164.7155943296
 20
112.1895586921
 30
0.0
 10
164.7207604023
 20
112.1881203975
 30
0.0
 10
164.7239691315
 20
112.1876017464
 30
0.0
 10
164.7255517922
 20
112.1870146352
 30
0.0
 10
164.7259801883
 20
112.1871379592
 30
0.0
  0
SPLINE
  5
5C9
100
AcDbEntity
  8
RACCORDO
100
AcDbSpline
 62
250
  6
CONTINUOUS
 70
0
 71
3
 72
16
 73
12
 74
0
 42
0.0000001
 43
0.0000001
 44
0.0000000001
 40
0.0
 40
0.0
 40
0.0
 40
0.0
 40
0.0064678792
 40
0.0222641812
 40
0.0472717747
 40
0.0812461373
 40
0.1747434761
 40
0.2992249561
 40
0.4500021057
 40
0.6214191967
 40
1.0
 40
1.0
 40
1.0
 40
1.0
 10
134.9259954188
 20
122.7963139179
 30
0.0
 10
134.9258030882
 20
122.7959280096
 30
0.0
 10
134.9258751237
 20
122.7943693098
 30
0.0
 10
134.9255631845
 20
122.791288105
 30
0.0
 10
134.9254972917
 20
122.7862700497
 30
0.0
 10
134.925218803
 20
122.7761278031
 30
0.0
 10
134.9250095408
 20
122.7593185832
 30
0.0
 10
134.9247466316
 20
122.7347432815
 30
0.0
 10
134.9245491244
 20
122.7049640252
 30
0.0
 10
134.9243368316
 20
122.6582483958
 30
0.0
 10
134.9242803752
 20
122.6215824083
 30
0.0
 10
134.9242803756
 20
122.5963443789
 30
0.0
  0
SPLINE
  5
5CA
100
AcDbEntity
  8
RACCORDO
100
AcDbSpline
 62
250
  6
CONTINUOUS
 70
0
 71
3
 72
11
 73
7
 74
0
 42
0.0000001
 43
0.0000001
 44
0.0000000001
 40
0.0
 40
0.0
 40
0.0
 40
0.0
 40
0.2156088199
 40
0.4533650781
 40
0.7181541756
 40
1.0
 40
1.0
 40
1.0
 40
1.0
 10
121.6776573787
 20
95.8534720701
 30
0.0
 10
121.6771982485
 20
95.882889298
 30
0.0
 10
121.6586616197
 20
95.9451969376
 30
0.0
 10
121.5891026292
 20
96.0180077012
 30
0.0
 10
121.491155564
 20
96.0654565632
 30
0.0
 10
121.4161607768
 20
96.0767453051
 30
0.0
 10
121.3777030702
 20
96.0770788675
 30
0.0
  0
SPLINE
  5
5CB
100
AcDbEntity
  8
RACCORDO
100
AcDbSpline
 62
250
  6
CONTINUOUS
 70
0
 71
3
 72
11
 73
7
 74
0
 42
0.0000001
 43
0.0000001
 44
0.0000000001
 40
0.0
 40
0.0
 40
0.0
 40
0.0
 40
0.2156088521
 40
0.4533651222
 40
0.7181542094
 40
1.0
 40
1.0
 40
1.0
 40
1.0
 10
121.6776573787
 20
98.8192063119
 30
0.0
 10
121.6771982484
 20
98.7897890796
 30
0.0
 10
121.6586616154
 20
98.7274814338
 30
0.0
 10
121.589102616
 20
98.6546706721
 30
0.0
 10
121.4911555532
 20
98.6072218169
 30
0.0
 10
121.4161607722
 20
98.5959330766
 30
0.0
 10
121.3777030702
 20
98.5955995142
 30
0.0
  0
SPLINE
  5
5CC
100
AcDbEntity
  8
RACCORDO
100
AcDbSpline
 62
250
  6
CONTINUOUS
 70
0
 71
3
 72
11
 73
7
 74
0
 42
0.0000001
 43
0.0000001
 44
0.0000000001
 40
0.0
 40
0.0
 40
0.0
 40
0.0
 40
0.2156088199
 40
0.4533650781
 40
0.7181541756
 40
1.0
 40
1.0
 40
1.0
 40
1.0
 10
164.7674428251
 20
98.819206312
 30
0.0
 10
164.7679019553
 20
98.7897890841
 30
0.0
 10
164.7864385841
 20
98.7274814445
 30
0.0
 10
164.8559975746
 20
98.6546706809
 30
0.0
 10
164.9539446398
 20
98.6072218189
 30
0.0
 10
165.028939427
 20
98.5959330769
 30
0.0
 10
165.0673971336
 20
98.5955995146
 30
0.0
  0
SPLINE
  5
5CD
100
AcDbEntity
  8
RACCORDO
100
AcDbSpline
 62
250
  6
CONTINUOUS
 70
0
 71
3
 72
11
 73
7
 74
0
 42
0.0000001
 43
0.0000001
 44
0.0000000001
 40
0.0
 40
0.0
 40
0.0
 40
0.0
 40
0.2156088521
 40
0.4533651222
 40
0.7181542094
 40
1.0
 40
1.0
 40
1.0
 40
1.0
 10
164.7674428251
 20
95.8534720701
 30
0.0
 10
164.7679019554
 20
95.8828893024
 30
0.0
 10
164.7864385884
 20
95.9451969483
 30
0.0
 10
164.8559975878
 20
96.0180077099
 30
0.0
 10
164.9539446506
 20
96.0654565652
 30
0.0
 10
165.0289394316
 20
96.0767453054
 30
0.0
 10
165.0673971336
 20
96.0770788679
 30
0.0
  0
SPLINE
  5
5CE
100
AcDbEntity
  8
RACCORDO
100
AcDbSpline
 62
250
  6
CONTINUOUS
 70
0
 71
3
 72
24
 73
20
 74
0
 42
0.0000001
 43
0.0000001
 44
0.0000000001
 40
0.0
 40
0.0
 40
0.0
 40
0.0
 40
0.1445191671
 40
0.2883905457
 40
0.4308664507
 40
0.5709297217
 40
0.6395585908
 40
0.7068121372
 40
0.7721647597
 40
0.8347458496
 40
0.8930470684
 40
0.9197859169
 40
0.944244433
 40
0.9656223297
 40
0.9828904434
 40
0.9895706254
 40
0.994733307
 40
0.9982488346
 40
1.0
 40
1.0
 40
1.0
 40
1.0
 10
131.8021015818
 20
159.1963443789
 30
0.0
 10
131.856682234
 20
159.2044713704
 30
0.0
 10
131.9656142507
 20
159.2205859002
 30
0.0
 10
132.1284054798
 20
159.2443713871
 30
0.0
 10
132.2895578961
 20
159.2676028426
 30
0.0
 10
132.4223149408
 20
159.286449684
 30
0.0
 10
132.5266632988
 20
159.3010553542
 30
0.0
 10
132.6027758733
 20
159.3115923384
 30
0.0
 10
132.6766190642
 20
159.3216817513
 30
0.0
 10
132.7470967771
 20
159.3311501208
 30
0.0
 10
132.802984421
 20
159.3384871839
 30
0.0
 10
132.8444590056
 20
159.3437726503
 30
0.0
 10
132.871960492
 20
159.3471878116
 30
0.0
 10
132.895885362
 20
159.350027954
 30
0.0
 10
132.9130917652
 20
159.351954285
 30
0.0
 10
132.9241478842
 20
159.3530122632
 30
0.0
 10
132.93000609
 20
159.3535380099
 30
0.0
 10
132.933953865
 20
159.3536800543
 30
0.0
 10
132.9360061174
 20
159.3537962714
 30
0.0
 10
132.9366511412
 20
159.3536200786
 30
0.0
  0
SPLINE
  5
5CF
100
AcDbEntity
  8
RACCORDO
100
AcDbSpline
 62
7
  6
CONTINUOUS
 70
0
 71
3
 72
22
 73
18
 74
0
 42
0.0000001
 43
0.0000001
 44
0.0000000001
 40
0.0
 40
0.0
 40
0.0
 40
0.0
 40
0.0040193897
 40
0.0127842308
 40
0.0259368927
 40
0.0429781931
 40
0.0633308696
 40
0.0864584619
 40
0.1393558052
 40
0.1987772405
 40
0.2628379626
 40
0.3302507096
 40
0.4001428461
 40
0.5451363357
 40
0.6946301218
 40
0.8467238412
 40
1.0
 40
1.0
 40
1.0
 40
1.0
 10
153.4593803602
 20
159.3844608855
 30
0.0
 10
153.4604763618
 20
159.3849654431
 30
0.0
 10
153.4644401798
 20
159.385074897
 30
0.0
 10
153.47209404
 20
159.3858501548
 30
0.0
 10
153.4838343089
 20
159.3862537933
 30
0.0
 10
153.4989763762
 20
159.3868233794
 30
0.0
 10
153.5171452382
 20
159.3873047544
 30
0.0
 10
153.5460656935
 20
159.3879726791
 30
0.0
 10
153.5867204661
 20
159.388691499
 30
0.0
 10
153.6396612608
 20
159.3894362275
 30
0.0
 10
153.6969617961
 20
159.3900877173
 30
0.0
 10
153.7574062177
 20
159.3906569462
 30
0.0
 10
153.8421456689
 20
159.3913225189
 30
0.0
 10
153.9515254462
 20
159.3919689644
 30
0.0
 10
154.0855818187
 20
159.3925006594
 30
0.0
 10
154.2221252138
 20
159.3928142423
 30
0.0
 10
154.3137929885
 20
159.3928838315
 30
0.0
 10
154.3598043441
 20
159.3928838315
 30
0.0
  0
SPLINE
  5
5D0
100
AcDbEntity
  8
RACCORDO
100
AcDbSpline
 62
250
  6
CONTINUOUS
 70
0
 71
3
 72
9
 73
5
 74
0
 42
0.0000001
 43
0.0000001
 44
0.0000000001
 40
0.0
 40
0.0
 40
0.0
 40
0.0
 40
0.2086988222
 40
1.0
 40
1.0
 40
1.0
 40
1.0
 10
121.3777030702
 20
96.0770788678
 30
0.0
 10
121.3769953209
 20
96.0252310702
 30
0.0
 10
121.3743700753
 20
95.7767873112
 30
0.0
 10
121.373630369
 20
95.5283269823
 30
0.0
 10
121.3736302217
 20
95.3317228753
 30
0.0
  0
SPLINE
  5
5D1
100
AcDbEntity
  8
RACCORDO
100
AcDbSpline
 62
250
  6
CONTINUOUS
 70
0
 71
3
 72
9
 73
5
 74
0
 42
0.0000001
 43
0.0000001
 44
0.0000000001
 40
0.0
 40
0.0
 40
0.0
 40
0.0
 40
0.323264856
 40
1.0
 40
1.0
 40
1.0
 40
1.0
 10
167.3903706201
 20
158.7350587372
 30
0.0
 10
167.4034402255
 20
158.7428308688
 30
0.0
 10
167.445518257
 20
158.7640006304
 30
0.0
 10
167.4883790008
 20
158.7833522474
 30
0.0
 10
167.5175272952
 20
158.7961466954
 30
0.0
  0
LINE
  5
5D2
100
AcDbEntity
  8
RACCORDO
100
AcDbLine
 62
250
  6
CONTINUOUS
 10
169.1465220269
 20
159.333919147
 11
169.14618686
 21
159.2550702832
  0
LINE
  5
5D3
100
AcDbEntity
  8
RACCORDO
100
AcDbLine
 62
250
  6
CONTINUOUS
 10
170.7989133438
 20
159.2550702832
 11
170.7985781769
 21
159.333919147
  0
LINE
  5
5D4
100
AcDbEntity
  8
RACCORDO
100
AcDbLine
 62
250
  6
CONTINUOUS
 10
175.6206469989
 20
155.9339820942
 11
175.5725503489
 21
155.934616294
  0
SPLINE
  5
5D5
100
AcDbEntity
  8
RACCORDO
100
AcDbSpline
 62
250
  6
CONTINUOUS
 70
0
 71
3
 72
9
 73
5
 74
0
 42
0.0000001
 43
0.0000001
 44
0.0000000001
 40
0.0
 40
0.0
 40
0.0
 40
0.0
 40
0.6768118415
 40
1.0
 40
1.0
 40
1.0
 40
1.0
 10
172.4275737303
 20
158.7961463297
 30
0.0
 10
172.4567253846
 20
158.7833510691
 30
0.0
 10
172.4995196378
 20
158.7638889783
 30
0.0
 10
172.5417260078
 20
158.7429336948
 30
0.0
 10
172.5547295837
 20
158.7350587372
 30
0.0
  0
SPLINE
  5
5D6
100
AcDbEntity
  8
RACCORDO
100
AcDbSpline
 62
250
  6
CONTINUOUS
 70
0
 71
3
 72
9
 73
5
 74
0
 42
0.0000001
 43
0.0000001
 44
0.0000000001
 40
0.0
 40
0.0
 40
0.0
 40
0.0
 40
0.2800136694
 40
1.0
 40
1.0
 40
1.0
 40
1.0
 10
121.3736302217
 20
99.3409555067
 30
0.0
 10
121.3736302636
 20
99.2713842768
 30
0.0
 10
121.3739803526
 20
99.0229287432
 30
0.0
 10
121.3752616312
 20
98.7744681719
 30
0.0
 10
121.3777030702
 20
98.5955995142
 30
0.0
  0
SPLINE
  5
5D7
100
AcDbEntity
  8
RACCORDO
100
AcDbSpline
 62
250
  6
CONTINUOUS
 70
0
 71
3
 72
9
 73
5
 74
0
 42
0.0000001
 43
0.0000001
 44
0.0000000001
 40
0.0
 40
0.0
 40
0.0
 40
0.0
 40
0.2086988222
 40
1.0
 40
1.0
 40
1.0
 40
1.0
 10
165.0673971336
 20
98.5955995142
 30
0.0
 10
165.068104883
 20
98.6474473118
 30
0.0
 10
165.0707301285
 20
98.8958910708
 30
0.0
 10
165.0714698348
 20
99.1443513998
 30
0.0
 10
165.0714699821
 20
99.3409555067
 30
0.0
  0
SPLINE
  5
5D8
100
AcDbEntity
  8
RACCORDO
100
AcDbSpline
 62
250
  6
CONTINUOUS
 70
0
 71
3
 72
9
 73
5
 74
0
 42
0.0000001
 43
0.0000001
 44
0.0000000001
 40
0.0
 40
0.0
 40
0.0
 40
0.0
 40
0.2800136694
 40
1.0
 40
1.0
 40
1.0
 40
1.0
 10
165.0714699821
 20
95.3317228753
 30
0.0
 10
165.0714699402
 20
95.4012941052
 30
0.0
 10
165.0711198512
 20
95.6497496389
 30
0.0
 10
165.0698385726
 20
95.8982102102
 30
0.0
 10
165.0673971336
 20
96.0770788678
 30
0.0
  0
SPLINE
  5
5D9
100
AcDbEntity
  8
RACCORDO
100
AcDbSpline
 62
250
  6
CONTINUOUS
 70
0
 71
3
 72
9
 73
5
 74
0
 42
0.0000001
 43
0.0000001
 44
0.0000000001
 40
0.0
 40
0.0
 40
0.0
 40
0.0
 40
0.2087710925
 40
1.0
 40
1.0
 40
1.0
 40
1.0
 10
121.3777030702
 20
98.5955995142
 30
0.0
 10
121.3782062779
 20
98.585235281
 30
0.0
 10
121.3800881617
 20
98.535566227
 30
0.0
 10
121.3806120666
 20
98.4858543582
 30
0.0
 10
121.3806122477
 20
98.4465283157
 30
0.0
  0
SPLINE
  5
5DA
100
AcDbEntity
  8
RACCORDO
100
AcDbSpline
 62
250
  6
CONTINUOUS
 70
0
 71
3
 72
9
 73
5
 74
0
 42
0.0000001
 43
0.0000001
 44
0.0000000001
 40
0.0
 40
0.0
 40
0.0
 40
0.0
 40
0.2800069524
 40
1.0
 40
1.0
 40
1.0
 40
1.0
 10
121.3806122477
 20
96.2261500663
 30
0.0
 10
121.380612188
 20
96.2122331586
 30
0.0
 10
121.3803632199
 20
96.1625336747
 30
0.0
 10
121.3794394376
 20
96.112821817
 30
0.0
 10
121.3777030702
 20
96.0770788678
 30
0.0
  0
LINE
  5
5DB
100
AcDbEntity
  8
RACCORDO
100
AcDbLine
 62
250
  6
CONTINUOUS
 10
175.7738715985
 20
152.3107868955
 11
175.7689056506
 21
152.3364604327
  0
SPLINE
  5
5DC
100
AcDbEntity
  8
RACCORDO
100
AcDbSpline
 62
250
  6
CONTINUOUS
 70
0
 71
3
 72
10
 73
6
 74
0
 42
0.0000001
 43
0.0000001
 44
0.0000000001
 40
0.0
 40
0.0
 40
0.0
 40
0.0
 40
0.4407225441
 40
0.703207272
 40
1.0
 40
1.0
 40
1.0
 40
1.0
 10
170.7225501019
 20
159.1615707272
 30
0.0
 10
170.7225502183
 20
159.1740436175
 30
0.0
 10
170.7304260914
 20
159.1948098263
 30
0.0
 10
170.7542403351
 20
159.211492232
 30
0.0
 10
170.7708186909
 20
159.2136340282
 30
0.0
 10
170.7791409124
 20
159.2124970283
 30
0.0
  0
SPLINE
  5
5DD
100
AcDbEntity
  8
RACCORDO
100
AcDbSpline
 62
250
  6
CONTINUOUS
 70
0
 71
3
 72
9
 73
5
 74
0
 42
0.0000001
 43
0.0000001
 44
0.0000000001
 40
0.0
 40
0.0
 40
0.0
 40
0.0
 40
0.5272810749
 40
1.0
 40
1.0
 40
1.0
 40
1.0
 10
172.3687235578
 20
158.7642959216
 30
0.0
 10
172.3374139739
 20
158.7522272497
 30
0.0
 10
172.2816756816
 20
158.718403846
 30
0.0
 10
172.2403218582
 20
158.6686268753
 30
0.0
 10
172.2247251701
 20
158.6429029329
 30
0.0
  0
SPLINE
  5
5DE
100
AcDbEntity
  8
RACCORDO
100
AcDbSpline
 62
250
  6
CONTINUOUS
 70
0
 71
3
 72
9
 73
5
 74
0
 42
0.0000001
 43
0.0000001
 44
0.0000000001
 40
0.0
 40
0.0
 40
0.0
 40
0.0
 40
0.4727737374
 40
1.0
 40
1.0
 40
1.0
 40
1.0
 10
167.7203794589
 20
158.642892528
 30
0.0
 10
167.704780294
 20
158.66862016
 30
0.0
 10
167.6634251724
 20
158.7183976117
 30
0.0
 10
167.607689447
 20
158.7522295318
 30
0.0
 10
167.576381965
 20
158.7642969068
 30
0.0
  0
SPLINE
  5
5DF
100
AcDbEntity
  8
RACCORDO
100
AcDbSpline
 62
250
  6
CONTINUOUS
 70
0
 71
3
 72
9
 73
5
 74
0
 42
0.0000001
 43
0.0000001
 44
0.0000000001
 40
0.0
 40
0.0
 40
0.0
 40
0.0
 40
0.257539945
 40
1.0
 40
1.0
 40
1.0
 40
1.0
 10
169.1659592914
 20
159.2124970283
 30
0.0
 10
169.168458694
 20
159.2128385109
 30
0.0
 10
169.178256181
 20
159.2134239137
 30
0.0
 10
169.1881931283
 20
159.210928916
 30
0.0
 10
169.1946792338
 20
159.2076396967
 30
0.0
  0
SPLINE
  5
5E0
100
AcDbEntity
  8
RACCORDO
100
AcDbSpline
 62
250
  6
CONTINUOUS
 70
0
 71
3
 72
9
 73
5
 74
0
 42
0.0000001
 43
0.0000001
 44
0.0000000001
 40
0.0
 40
0.0
 40
0.0
 40
0.0
 40
0.5313127637
 40
1.0
 40
1.0
 40
1.0
 40
1.0
 10
169.1946792338
 20
159.2076396967
 30
0.0
 10
169.203513816
 20
159.2031595233
 30
0.0
 10
169.2178324233
 20
159.1892494945
 30
0.0
 10
169.2225496347
 20
159.1703087992
 30
0.0
 10
169.2225501019
 20
159.1615707271
 30
0.0
  0
SPLINE
  5
5E1
100
AcDbEntity
  8
RACCORDO
100
AcDbSpline
 62
250
  6
CONTINUOUS
 70
0
 71
3
 72
9
 73
5
 74
0
 42
0.0000001
 43
0.0000001
 44
0.0000000001
 40
0.0
 40
0.0
 40
0.0
 40
0.0
 40
0.2087710925
 40
1.0
 40
1.0
 40
1.0
 40
1.0
 10
165.0673971336
 20
96.0770788678
 30
0.0
 10
165.0668939259
 20
96.087443101
 30
0.0
 10
165.0650120421
 20
96.1371121551
 30
0.0
 10
165.0644881372
 20
96.1868240239
 30
0.0
 10
165.0644879561
 20
96.2261500663
 30
0.0
  0
SPLINE
  5
5E2
100
AcDbEntity
  8
RACCORDO
100
AcDbSpline
 62
250
  6
CONTINUOUS
 70
0
 71
3
 72
9
 73
5
 74
0
 42
0.0000001
 43
0.0000001
 44
0.0000000001
 40
0.0
 40
0.0
 40
0.0
 40
0.0
 40
0.5389862791
 40
1.0
 40
1.0
 40
1.0
 40
1.0
 10
170.7225501019
 20
159.1615707272
 30
0.0
 10
170.6941357687
 20
159.1615707291
 30
0.0
 10
170.6408281151
 20
159.1515957953
 30
0.0
 10
170.5962385313
 20
159.1170732326
 30
0.0
 10
170.583968163
 20
159.0960944052
 30
0.0
  0
SPLINE
  5
5E3
100
AcDbEntity
  8
RACCORDO
100
AcDbSpline
 62
250
  6
CONTINUOUS
 70
0
 71
3
 72
9
 73
5
 74
0
 42
0.0000001
 43
0.0000001
 44
0.0000000001
 40
0.0
 40
0.0
 40
0.0
 40
0.0
 40
0.2566094338
 40
1.0
 40
1.0
 40
1.0
 40
1.0
 10
170.583968163
 20
159.0960944052
 30
0.0
 10
170.5827297878
 20
159.0939771371
 30
0.0
 10
170.5782394368
 20
159.0855363497
 30
0.0
 10
170.5751572596
 20
159.0763319124
 30
0.0
 10
170.5738485187
 20
159.0693476787
 30
0.0
  0
SPLINE
  5
5E4
100
AcDbEntity
  8
RACCORDO
100
AcDbSpline
 62
250
  6
CONTINUOUS
 70
0
 71
3
 72
11
 73
7
 74
0
 42
0.0000001
 43
0.0000001
 44
0.0000000001
 40
0.0
 40
0.0
 40
0.0
 40
0.0
 40
0.3908577237
 40
0.6906853964
 40
0.8915216656
 40
1.0
 40
1.0
 40
1.0
 40
1.0
 10
170.7791409124
 20
159.2124970283
 30
0.0
 10
170.780786118
 20
159.2185175943
 30
0.0
 10
170.7838758874
 20
159.2290588339
 30
0.0
 10
170.789023418
 20
159.2425371446
 30
0.0
 10
170.7932498608
 20
159.2509268633
 30
0.0
 10
170.7971841196
 20
159.2549686652
 30
0.0
 10
170.7989133437
 20
159.2550702833
 30
0.0
  0
SPLINE
  5
5E5
100
AcDbEntity
  8
RACCORDO
100
AcDbSpline
 62
250
  6
CONTINUOUS
 70
0
 71
3
 72
10
 73
6
 74
0
 42
0.0000001
 43
0.0000001
 44
0.0000000001
 40
0.0
 40
0.0
 40
0.0
 40
0.0
 40
0.3345472115
 40
0.6116279289
 40
1.0
 40
1.0
 40
1.0
 40
1.0
 10
172.3687253777
 20
158.7642971726
 30
0.0
 10
172.3738398264
 20
158.7701192547
 30
0.0
 10
172.3839281898
 20
158.7802915505
 30
0.0
 10
172.4021218585
 20
158.7940069746
 30
0.0
 10
172.4190875553
 20
158.7991325511
 30
0.0
 10
172.4275737793
 20
158.7961464446
 30
0.0
  0
SPLINE
  5
5E6
100
AcDbEntity
  8
RACCORDO
100
AcDbSpline
 62
250
  6
CONTINUOUS
 70
0
 71
3
 72
9
 73
5
 74
0
 42
0.0000001
 43
0.0000001
 44
0.0000000001
 40
0.0
 40
0.0
 40
0.0
 40
0.0
 40
0.538986273
 40
1.0
 40
1.0
 40
1.0
 40
1.0
 10
169.2225501019
 20
159.1615707271
 30
0.0
 10
169.2509644318
 20
159.1615707271
 30
0.0
 10
169.3042720784
 20
159.1515957928
 30
0.0
 10
169.3488616601
 20
159.1170732403
 30
0.0
 10
169.3611320318
 20
159.0960944175
 30
0.0
  0
SPLINE
  5
5E7
100
AcDbEntity
  8
RACCORDO
100
AcDbSpline
 62
250
  6
CONTINUOUS
 70
0
 71
3
 72
9
 73
5
 74
0
 42
0.0000001
 43
0.0000001
 44
0.0000000001
 40
0.0
 40
0.0
 40
0.0
 40
0.0
 40
0.2566094416
 40
1.0
 40
1.0
 40
1.0
 40
1.0
 10
169.3611320318
 20
159.0960944175
 30
0.0
 10
169.3623704079
 20
159.0939771489
 30
0.0
 10
169.366860762
 20
159.0855363598
 30
0.0
 10
169.3699429418
 20
159.0763319199
 30
0.0
 10
169.3712516838
 20
159.0693476841
 30
0.0
  0
SPLINE
  5
5E8
100
AcDbEntity
  8
RACCORDO
100
AcDbSpline
 62
250
  6
CONTINUOUS
 70
0
 71
3
 72
11
 73
7
 74
0
 42
0.0000001
 43
0.0000001
 44
0.0000000001
 40
0.0
 40
0.0
 40
0.0
 40
0.0
 40
0.3908576779
 40
0.6906853152
 40
0.8915215784
 40
1.0
 40
1.0
 40
1.0
 40
1.0
 10
169.1659592914
 20
159.2124970283
 30
0.0
 10
169.1643140864
 20
159.2185175943
 30
0.0
 10
169.1612243221
 20
159.2290588353
 30
0.0
 10
169.156076795
 20
159.2425371465
 30
0.0
 10
169.1518503504
 20
159.250926868
 30
0.0
 10
169.1479160855
 20
159.254968666
 30
0.0
 10
169.1461868598
 20
159.2550702832
 30
0.0
  0
SPLINE
  5
5E9
100
AcDbEntity
  8
RACCORDO
100
AcDbSpline
 62
250
  6
CONTINUOUS
 70
0
 71
3
 72
10
 73
6
 74
0
 42
0.0000001
 43
0.0000001
 44
0.0000000001
 40
0.0
 40
0.0
 40
0.0
 40
0.0
 40
0.3345448551
 40
0.6116248834
 40
1.0
 40
1.0
 40
1.0
 40
1.0
 10
167.5763791817
 20
158.7642957461
 30
0.0
 10
167.5712645067
 20
158.770118166
 30
0.0
 10
167.5611756484
 20
158.780291059
 30
0.0
 10
167.5429808901
 20
158.7940073212
 30
0.0
 10
167.5260140791
 20
158.7991330251
 30
0.0
 10
167.5175272975
 20
158.7961466896
 30
0.0
  0
SPLINE
  5
5EA
100
AcDbEntity
  8
RACCORDO
100
AcDbSpline
 62
250
  6
CONTINUOUS
 70
0
 71
3
 72
9
 73
5
 74
0
 42
0.0000001
 43
0.0000001
 44
0.0000000001
 40
0.0
 40
0.0
 40
0.0
 40
0.0
 40
0.2800069524
 40
1.0
 40
1.0
 40
1.0
 40
1.0
 10
165.0644879561
 20
98.4465283157
 30
0.0
 10
165.0644880158
 20
98.4604452235
 30
0.0
 10
165.0647369839
 20
98.5101447073
 30
0.0
 10
165.0656607662
 20
98.5598565651
 30
0.0
 10
165.0673971336
 20
98.5955995142
 30
0.0
  0
SPLINE
  5
5EB
100
AcDbEntity
  8
RACCORDO
100
AcDbSpline
 62
250
  6
CONTINUOUS
 70
0
 71
3
 72
11
 73
7
 74
0
 42
0.0000001
 43
0.0000001
 44
0.0000000001
 40
0.0
 40
0.0
 40
0.0
 40
0.0
 40
0.2294913887
 40
0.4770981745
 40
0.7330876355
 40
1.0
 40
1.0
 40
1.0
 40
1.0
 10
167.3929270041
 20
158.7362496021
 30
0.0
 10
167.4058596063
 20
158.7422880856
 30
0.0
 10
167.434215304
 20
158.7519158883
 30
0.0
 10
167.4795824617
 20
158.7577454647
 30
0.0
 10
167.5274249473
 20
158.7602469421
 30
0.0
 10
167.559841529
 20
158.7629411859
 30
0.0
 10
167.576386452
 20
158.7642952279
 30
0.0
  0
SPLINE
  5
5EC
100
AcDbEntity
  8
RACCORDO
100
AcDbSpline
 62
250
  6
CONTINUOUS
 70
0
 71
3
 72
14
 73
10
 74
0
 42
0.0000001
 43
0.0000001
 44
0.0000000001
 40
0.0
 40
0.0
 40
0.0
 40
0.0
 40
0.0221713449
 40
0.0810887757
 40
0.1745253711
 40
0.2989898108
 40
0.4498160009
 40
0.6212698148
 40
1.0
 40
1.0
 40
1.0
 40
1.0
 10
179.5179865844
 20
54.2735918702
 30
0.0
 10
179.5183364822
 20
54.2714028339
 30
0.0
 10
179.517904088
 20
54.2632368024
 30
0.0
 10
179.5185337606
 20
54.2458397733
 30
0.0
 10
179.5184055888
 20
54.2181340912
 30
0.0
 10
179.5186379801
 20
54.1812782982
 30
0.0
 10
179.5187010367
 20
54.1366060903
 30
0.0
 10
179.5188218375
 20
54.0665166928
 30
0.0
 10
179.5188441301
 20
54.011505276
 30
0.0
 10
179.518844106
 20
53.9736375617
 30
0.0
  0
SPLINE
  5
5ED
100
AcDbEntity
  8
RACCORDO
100
AcDbSpline
 62
250
  6
CONTINUOUS
 70
0
 71
3
 72
11
 73
7
 74
0
 42
0.0000001
 43
0.0000001
 44
0.0000000001
 40
0.0
 40
0.0
 40
0.0
 40
0.0
 40
0.267103514
 40
0.5230080602
 40
0.7706113836
 40
1.0
 40
1.0
 40
1.0
 40
1.0
 10
172.3687261802
 20
158.764297126
 30
0.0
 10
172.3854058554
 20
158.7629249681
 30
0.0
 10
172.4180731969
 20
158.7602330492
 30
0.0
 10
172.4662734771
 20
158.757671899
 30
0.0
 10
172.5119697996
 20
158.7517160863
 30
0.0
 10
172.5404580673
 20
158.7418001787
 30
0.0
 10
172.5534528514
 20
158.735658852
 30
0.0
  0
SPLINE
  5
5EE
100
AcDbEntity
  8
RACCORDO
100
AcDbSpline
 62
250
  6
CONTINUOUS
 70
0
 71
3
 72
16
 73
12
 74
0
 42
0.0000001
 43
0.0000001
 44
0.0000000001
 40
0.0
 40
0.0
 40
0.0
 40
0.0
 40
0.0214329268
 40
0.0506540884
 40
0.1127698762
 40
0.1759413737
 40
0.2392092974
 40
0.3657558021
 40
0.4923830758
 40
0.745968202
 40
1.0
 40
1.0
 40
1.0
 40
1.0
 10
175.7738715985
 20
152.3107868954
 30
0.0
 10
175.7763100314
 20
152.3049234094
 30
0.0
 10
175.7813087974
 20
152.2907626042
 30
0.0
 10
175.7934868839
 20
152.2596487869
 30
0.0
 10
175.8112541345
 20
152.217447436
 30
0.0
 10
175.8343566307
 20
152.1665800179
 30
0.0
 10
175.8642216243
 20
152.097826187
 30
0.0
 10
175.8992475734
 20
152.0108329979
 30
0.0
 10
175.9504745542
 20
151.8696692236
 30
0.0
 10
176.0057438805
 20
151.6899224934
 30
0.0
 10
176.039506032
 20
151.5431387561
 30
0.0
 10
176.0527146094
 20
151.4690403577
 30
0.0
  0
SPLINE
  5
5EF
100
AcDbEntity
  8
RACCORDO
100
AcDbSpline
 62
250
  6
CONTINUOUS
 70
0
 71
3
 72
14
 73
10
 74
0
 42
0.0000001
 43
0.0000001
 44
0.0000000001
 40
0.0
 40
0.0
 40
0.0
 40
0.0
 40
0.3787273796
 40
0.5501810996
 40
0.7010076129
 40
0.8254727697
 40
0.9189101144
 40
0.977828211
 40
1.0
 40
1.0
 40
1.0
 40
1.0
 10
179.518844106
 20
56.1121301014
 30
0.0
 10
179.5188441299
 20
56.0742626676
 30
0.0
 10
179.5188218382
 20
56.0192515409
 30
0.0
 10
179.5187010388
 20
55.9491624005
 30
0.0
 10
179.5186379789
 20
55.9044900994
 30
0.0
 10
179.5184055994
 20
55.8676341235
 30
0.0
 10
179.5185337398
 20
55.8399282378
 30
0.0
 10
179.5179041442
 20
55.8225310049
 30
0.0
 10
179.5183364302
 20
55.8143648824
 30
0.0
 10
179.5179865844
 20
55.8121757928
 30
0.0
  0
SPLINE
  5
5F0
100
AcDbEntity
  8
RACCORDO
100
AcDbSpline
 62
250
  6
CONTINUOUS
 70
0
 71
3
 72
14
 73
10
 74
0
 42
0.0000001
 43
0.0000001
 44
0.0000000001
 40
0.0
 40
0.0
 40
0.0
 40
0.0
 40
0.3787273796
 40
0.5501810996
 40
0.7010076129
 40
0.8254727697
 40
0.9189101144
 40
0.977828211
 40
1.0
 40
1.0
 40
1.0
 40
1.0
 10
106.9262560978
 20
55.9736375617
 30
0.0
 10
106.9262560739
 20
56.0115049955
 30
0.0
 10
106.9262783656
 20
56.0665161221
 30
0.0
 10
106.926399165
 20
56.1366052626
 30
0.0
 10
106.9264622249
 20
56.1812775636
 30
0.0
 10
106.9266946044
 20
56.2181335396
 30
0.0
 10
106.926566464
 20
56.2458394252
 30
0.0
 10
106.9271960596
 20
56.2632366582
 30
0.0
 10
106.9267637736
 20
56.2714027806
 30
0.0
 10
106.9271136194
 20
56.2735918702
 30
0.0
  0
SPLINE
  5
5F1
100
AcDbEntity
  8
RACCORDO
100
AcDbSpline
 62
250
  6
CONTINUOUS
 70
0
 71
3
 72
11
 73
7
 74
0
 42
0.0000001
 43
0.0000001
 44
0.0000000001
 40
0.0
 40
0.0
 40
0.0
 40
0.0
 40
0.2504798851
 40
0.5005161812
 40
0.7502779985
 40
1.0
 40
1.0
 40
1.0
 40
1.0
 10
176.0439870769
 20
152.4330155593
 30
0.0
 10
176.043982984
 20
152.4113682114
 30
0.0
 10
176.0290166887
 20
152.3667977702
 30
0.0
 10
175.970740937
 20
152.3286843101
 30
0.0
 10
175.9013894115
 20
152.3340335435
 30
0.0
 10
175.8668764631
 20
152.3657979466
 30
0.0
 10
175.8564615934
 20
152.3847005049
 30
0.0
  0
SPLINE
  5
5F2
100
AcDbEntity
  8
RACCORDO
100
AcDbSpline
 62
250
  6
CONTINUOUS
 70
0
 71
3
 72
14
 73
10
 74
0
 42
0.0000001
 43
0.0000001
 44
0.0000000001
 40
0.0
 40
0.0
 40
0.0
 40
0.0
 40
0.0221713449
 40
0.0810887757
 40
0.1745253711
 40
0.2989898108
 40
0.4498160009
 40
0.6212698148
 40
1.0
 40
1.0
 40
1.0
 40
1.0
 10
106.9271136194
 20
157.8121757928
 30
0.0
 10
106.9267637216
 20
157.8143648291
 30
0.0
 10
106.9271961158
 20
157.8225308607
 30
0.0
 10
106.9265664432
 20
157.8399278897
 30
0.0
 10
106.926694615
 20
157.8676335718
 30
0.0
 10
106.9264622237
 20
157.9044893649
 30
0.0
 10
106.9263991671
 20
157.9491615728
 30
0.0
 10
106.9262783663
 20
158.0192509702
 30
0.0
 10
106.9262560737
 20
158.074262387
 30
0.0
 10
106.9262560978
 20
158.1121301014
 30
0.0
  0
SPLINE
  5
5F3
100
AcDbEntity
  8
RACCORDO
100
AcDbSpline
 62
250
  6
CONTINUOUS
 70
0
 71
3
 72
14
 73
10
 74
0
 42
0.0000001
 43
0.0000001
 44
0.0000000001
 40
0.0
 40
0.0
 40
0.0
 40
0.0
 40
0.3787273796
 40
0.5501810996
 40
0.7010076129
 40
0.8254727697
 40
0.9189101144
 40
0.977828211
 40
1.0
 40
1.0
 40
1.0
 40
1.0
 10
106.9262560978
 20
155.9736375617
 30
0.0
 10
106.9262560739
 20
156.0115049955
 30
0.0
 10
106.9262783656
 20
156.0665161221
 30
0.0
 10
106.926399165
 20
156.1366052626
 30
0.0
 10
106.9264622249
 20
156.1812775636
 30
0.0
 10
106.9266946044
 20
156.2181335396
 30
0.0
 10
106.926566464
 20
156.2458394252
 30
0.0
 10
106.9271960596
 20
156.2632366582
 30
0.0
 10
106.9267637736
 20
156.2714027806
 30
0.0
 10
106.9271136194
 20
156.2735918702
 30
0.0
  0
SPLINE
  5
5F4
100
AcDbEntity
  8
RACCORDO
100
AcDbSpline
 62
250
  6
CONTINUOUS
 70
0
 71
3
 72
14
 73
10
 74
0
 42
0.0000001
 43
0.0000001
 44
0.0000000001
 40
0.0
 40
0.0
 40
0.0
 40
0.0
 40
0.0221713449
 40
0.0810887757
 40
0.1745253711
 40
0.2989898108
 40
0.4498160009
 40
0.6212698148
 40
1.0
 40
1.0
 40
1.0
 40
1.0
 10
106.9271136194
 20
57.8121757928
 30
0.0
 10
106.9267637216
 20
57.8143648291
 30
0.0
 10
106.9271961158
 20
57.8225308607
 30
0.0
 10
106.9265664432
 20
57.8399278897
 30
0.0
 10
106.926694615
 20
57.8676335718
 30
0.0
 10
106.9264622237
 20
57.9044893649
 30
0.0
 10
106.9263991671
 20
57.9491615728
 30
0.0
 10
106.9262783663
 20
58.0192509702
 30
0.0
 10
106.9262560737
 20
58.074262387
 30
0.0
 10
106.9262560978
 20
58.1121301014
 30
0.0
  0
SPLINE
  5
5F5
100
AcDbEntity
  8
RACCORDO
100
AcDbSpline
 62
250
  6
CONTINUOUS
 70
0
 71
3
 72
14
 73
10
 74
0
 42
0.0000001
 43
0.0000001
 44
0.0000000001
 40
0.0
 40
0.0
 40
0.0
 40
0.0
 40
0.3787273796
 40
0.5501810996
 40
0.7010076129
 40
0.8254727697
 40
0.9189101144
 40
0.977828211
 40
1.0
 40
1.0
 40
1.0
 40
1.0
 10
179.518844106
 20
138.1121301014
 30
0.0
 10
179.5188441299
 20
138.0742626676
 30
0.0
 10
179.5188218382
 20
138.0192515409
 30
0.0
 10
179.5187010388
 20
137.9491624005
 30
0.0
 10
179.5186379789
 20
137.9044900994
 30
0.0
 10
179.5184055994
 20
137.8676341235
 30
0.0
 10
179.5185337398
 20
137.8399282378
 30
0.0
 10
179.5179041442
 20
137.8225310049
 30
0.0
 10
179.5183364302
 20
137.8143648824
 30
0.0
 10
179.5179865844
 20
137.8121757928
 30
0.0
  0
SPLINE
  5
5F6
100
AcDbEntity
  8
RACCORDO
100
AcDbSpline
 62
250
  6
CONTINUOUS
 70
0
 71
3
 72
14
 73
10
 74
0
 42
0.0000001
 43
0.0000001
 44
0.0000000001
 40
0.0
 40
0.0
 40
0.0
 40
0.0
 40
0.0221713449
 40
0.0810887757
 40
0.1745253711
 40
0.2989898108
 40
0.4498160009
 40
0.6212698148
 40
1.0
 40
1.0
 40
1.0
 40
1.0
 10
179.5179865844
 20
136.2735918702
 30
0.0
 10
179.5183364822
 20
136.2714028339
 30
0.0
 10
179.517904088
 20
136.2632368024
 30
0.0
 10
179.5185337606
 20
136.2458397733
 30
0.0
 10
179.5184055888
 20
136.2181340912
 30
0.0
 10
179.5186379801
 20
136.1812782982
 30
0.0
 10
179.5187010367
 20
136.1366060903
 30
0.0
 10
179.5188218375
 20
136.0665166928
 30
0.0
 10
179.5188441301
 20
136.011505276
 30
0.0
 10
179.518844106
 20
135.9736375617
 30
0.0
  0
SPLINE
  5
5F7
100
AcDbEntity
  8
RACCORDO
100
AcDbSpline
 62
250
  6
CONTINUOUS
 70
0
 71
3
 72
18
 73
14
 74
0
 42
0.0000001
 43
0.0000001
 44
0.0000000001
 40
0.0
 40
0.0
 40
0.0
 40
0.0
 40
0.1927050024
 40
0.3781912947
 40
0.5494132064
 40
0.7000225263
 40
0.82434362
 40
0.8751622867
 40
0.9177616915
 40
0.9517658017
 40
0.9768695354
 40
0.9928943745
 40
1.0
 40
1.0
 40
1.0
 40
1.0
 10
106.9506931887
 20
157.4980746526
 30
0.0
 10
106.9506931365
 20
157.5173738853
 30
0.0
 10
106.9505770297
 20
157.5552495956
 30
0.0
 10
106.9500598864
 20
157.6102704399
 30
0.0
 10
106.9492225843
 20
157.6610725677
 30
0.0
 10
106.9480983262
 20
157.705737455
 30
0.0
 10
106.9469123547
 20
157.7383487214
 30
0.0
 10
106.9457932608
 20
157.7601141875
 30
0.0
 10
106.9449909908
 20
157.7728781948
 30
0.0
 10
106.9441181032
 20
157.7829543556
 30
0.0
 10
106.9433536044
 20
157.7906134125
 30
0.0
 10
106.9423845136
 20
157.7950319652
 30
0.0
 10
106.9418844563
 20
157.7976868742
 30
0.0
 10
106.9412604511
 20
157.7980289611
 30
0.0
  0
SPLINE
  5
5F8
100
AcDbEntity
  8
RACCORDO
100
AcDbSpline
 62
250
  6
CONTINUOUS
 70
0
 71
3
 72
18
 73
14
 74
0
 42
0.0000001
 43
0.0000001
 44
0.0000000001
 40
0.0
 40
0.0
 40
0.0
 40
0.0
 40
0.0071033917
 40
0.023123908
 40
0.0482239859
 40
0.0822229408
 40
0.1248241508
 40
0.1756490214
 40
0.2999855897
 40
0.4505916725
 40
0.6217873953
 40
0.8072730464
 40
1.0
 40
1.0
 40
1.0
 40
1.0
 10
106.9412604511
 20
156.2877387019
 30
0.0
 10
106.9418843103
 20
156.2880805901
 30
0.0
 10
106.9423848356
 20
156.2907345856
 30
0.0
 10
106.9433533345
 20
156.295152316
 30
0.0
 10
106.9441176389
 20
156.3028100198
 30
0.0
 10
106.944990628
 20
156.3128854862
 30
0.0
 10
106.9457929979
 20
156.3256497773
 30
0.0
 10
106.9469123211
 20
156.3474175913
 30
0.0
 10
106.9480983611
 20
156.3800307141
 30
0.0
 10
106.9492226055
 20
156.4246942163
 30
0.0
 10
106.9500598342
 20
156.475493348
 30
0.0
 10
106.9505769176
 20
156.5305137192
 30
0.0
 10
106.9506931394
 20
156.568391574
 30
0.0
 10
106.9506931887
 20
156.5876930105
 30
0.0
  0
SPLINE
  5
5F9
100
AcDbEntity
  8
RACCORDO
100
AcDbSpline
 62
250
  6
CONTINUOUS
 70
0
 71
3
 72
18
 73
14
 74
0
 42
0.0000001
 43
0.0000001
 44
0.0000000001
 40
0.0
 40
0.0
 40
0.0
 40
0.0
 40
0.0071033917
 40
0.023123908
 40
0.0482239859
 40
0.0822229408
 40
0.1248241508
 40
0.1756490214
 40
0.2999855897
 40
0.4505916725
 40
0.6217873953
 40
0.8072730464
 40
1.0
 40
1.0
 40
1.0
 40
1.0
 10
106.9412604511
 20
56.2877387019
 30
0.0
 10
106.9418843103
 20
56.2880805901
 30
0.0
 10
106.9423848356
 20
56.2907345856
 30
0.0
 10
106.9433533345
 20
56.295152316
 30
0.0
 10
106.9441176389
 20
56.3028100198
 30
0.0
 10
106.944990628
 20
56.3128854862
 30
0.0
 10
106.9457929979
 20
56.3256497773
 30
0.0
 10
106.9469123211
 20
56.3474175913
 30
0.0
 10
106.9480983611
 20
56.3800307141
 30
0.0
 10
106.9492226055
 20
56.4246942163
 30
0.0
 10
106.9500598342
 20
56.475493348
 30
0.0
 10
106.9505769176
 20
56.5305137192
 30
0.0
 10
106.9506931394
 20
56.568391574
 30
0.0
 10
106.9506931887
 20
56.5876930105
 30
0.0
  0
SPLINE
  5
5FA
100
AcDbEntity
  8
RACCORDO
100
AcDbSpline
 62
250
  6
CONTINUOUS
 70
0
 71
3
 72
18
 73
14
 74
0
 42
0.0000001
 43
0.0000001
 44
0.0000000001
 40
0.0
 40
0.0
 40
0.0
 40
0.0
 40
0.1927050024
 40
0.3781912947
 40
0.5494132064
 40
0.7000225263
 40
0.82434362
 40
0.8751622867
 40
0.9177616915
 40
0.9517658017
 40
0.9768695354
 40
0.9928943745
 40
1.0
 40
1.0
 40
1.0
 40
1.0
 10
179.4944070151
 20
54.5876930105
 30
0.0
 10
179.4944070673
 20
54.5683937778
 30
0.0
 10
179.4945231741
 20
54.5305180674
 30
0.0
 10
179.4950403174
 20
54.4754972232
 30
0.0
 10
179.4958776195
 20
54.4246950953
 30
0.0
 10
179.4970018776
 20
54.3800302081
 30
0.0
 10
179.4981878491
 20
54.3474189417
 30
0.0
 10
179.4993069431
 20
54.3256534756
 30
0.0
 10
179.500109213
 20
54.3128894682
 30
0.0
 10
179.5009821006
 20
54.3028133075
 30
0.0
 10
179.5017465994
 20
54.2951542505
 30
0.0
 10
179.5027156902
 20
54.2907356979
 30
0.0
 10
179.5032157475
 20
54.2880807888
 30
0.0
 10
179.5038397527
 20
54.2877387019
 30
0.0
  0
SPLINE
  5
5FB
100
AcDbEntity
  8
RACCORDO
100
AcDbSpline
 62
250
  6
CONTINUOUS
 70
0
 71
3
 72
18
 73
14
 74
0
 42
0.0000001
 43
0.0000001
 44
0.0000000001
 40
0.0
 40
0.0
 40
0.0
 40
0.0
 40
0.0071033917
 40
0.023123908
 40
0.0482239859
 40
0.0822229408
 40
0.1248241508
 40
0.1756490214
 40
0.2999855897
 40
0.4505916725
 40
0.6217873953
 40
0.8072730464
 40
1.0
 40
1.0
 40
1.0
 40
1.0
 10
179.5038397527
 20
55.7980289611
 30
0.0
 10
179.5032158935
 20
55.7976870729
 30
0.0
 10
179.5027153682
 20
55.7950330775
 30
0.0
 10
179.5017468693
 20
55.790615347
 30
0.0
 10
179.5009825649
 20
55.7829576433
 30
0.0
 10
179.5001095758
 20
55.7728821769
 30
0.0
 10
179.4993072059
 20
55.7601178857
 30
0.0
 10
179.4981878827
 20
55.7383500718
 30
0.0
 10
179.4970018427
 20
55.7057369489
 30
0.0
 10
179.4958775983
 20
55.6610734467
 30
0.0
 10
179.4950403696
 20
55.610274315
 30
0.0
 10
179.4945232862
 20
55.5552539438
 30
0.0
 10
179.4944070644
 20
55.517376089
 30
0.0
 10
179.4944070151
 20
55.4980746526
 30
0.0
  0
SPLINE
  5
5FC
100
AcDbEntity
  8
RACCORDO
100
AcDbSpline
 62
250
  6
CONTINUOUS
 70
0
 71
3
 72
18
 73
14
 74
0
 42
0.0000001
 43
0.0000001
 44
0.0000000001
 40
0.0
 40
0.0
 40
0.0
 40
0.0
 40
0.1927050024
 40
0.3781912947
 40
0.5494132064
 40
0.7000225263
 40
0.82434362
 40
0.8751622867
 40
0.9177616915
 40
0.9517658017
 40
0.9768695354
 40
0.9928943745
 40
1.0
 40
1.0
 40
1.0
 40
1.0
 10
106.9506931887
 20
57.4980746526
 30
0.0
 10
106.9506931365
 20
57.5173738853
 30
0.0
 10
106.9505770297
 20
57.5552495956
 30
0.0
 10
106.9500598864
 20
57.6102704399
 30
0.0
 10
106.9492225843
 20
57.6610725677
 30
0.0
 10
106.9480983262
 20
57.705737455
 30
0.0
 10
106.9469123547
 20
57.7383487214
 30
0.0
 10
106.9457932608
 20
57.7601141875
 30
0.0
 10
106.9449909908
 20
57.7728781948
 30
0.0
 10
106.9441181032
 20
57.7829543556
 30
0.0
 10
106.9433536044
 20
57.7906134125
 30
0.0
 10
106.9423845136
 20
57.7950319652
 30
0.0
 10
106.9418844563
 20
57.7976868742
 30
0.0
 10
106.9412604511
 20
57.7980289611
 30
0.0
  0
SPLINE
  5
5FD
100
AcDbEntity
  8
RACCORDO
100
AcDbSpline
 62
250
  6
CONTINUOUS
 70
0
 71
3
 72
18
 73
14
 74
0
 42
0.0000001
 43
0.0000001
 44
0.0000000001
 40
0.0
 40
0.0
 40
0.0
 40
0.0
 40
0.0071033917
 40
0.023123908
 40
0.0482239859
 40
0.0822229408
 40
0.1248241508
 40
0.1756490214
 40
0.2999855897
 40
0.4505916725
 40
0.6217873953
 40
0.8072730464
 40
1.0
 40
1.0
 40
1.0
 40
1.0
 10
179.5038397527
 20
137.7980289611
 30
0.0
 10
179.5032158935
 20
137.7976870729
 30
0.0
 10
179.5027153682
 20
137.7950330775
 30
0.0
 10
179.5017468693
 20
137.790615347
 30
0.0
 10
179.5009825649
 20
137.7829576433
 30
0.0
 10
179.5001095758
 20
137.7728821769
 30
0.0
 10
179.4993072059
 20
137.7601178857
 30
0.0
 10
179.4981878827
 20
137.7383500718
 30
0.0
 10
179.4970018427
 20
137.7057369489
 30
0.0
 10
179.4958775983
 20
137.6610734467
 30
0.0
 10
179.4950403696
 20
137.610274315
 30
0.0
 10
179.4945232862
 20
137.5552539438
 30
0.0
 10
179.4944070644
 20
137.517376089
 30
0.0
 10
179.4944070151
 20
137.4980746526
 30
0.0
  0
SPLINE
  5
5FE
100
AcDbEntity
  8
RACCORDO
100
AcDbSpline
 62
250
  6
CONTINUOUS
 70
0
 71
3
 72
18
 73
14
 74
0
 42
0.0000001
 43
0.0000001
 44
0.0000000001
 40
0.0
 40
0.0
 40
0.0
 40
0.0
 40
0.1927050024
 40
0.3781912947
 40
0.5494132064
 40
0.7000225263
 40
0.82434362
 40
0.8751622867
 40
0.9177616915
 40
0.9517658017
 40
0.9768695354
 40
0.9928943745
 40
1.0
 40
1.0
 40
1.0
 40
1.0
 10
179.4944070151
 20
136.5876930105
 30
0.0
 10
179.4944070673
 20
136.5683937778
 30
0.0
 10
179.4945231741
 20
136.5305180674
 30
0.0
 10
179.4950403174
 20
136.4754972232
 30
0.0
 10
179.4958776195
 20
136.4246950953
 30
0.0
 10
179.4970018776
 20
136.3800302081
 30
0.0
 10
179.4981878491
 20
136.3474189417
 30
0.0
 10
179.4993069431
 20
136.3256534756
 30
0.0
 10
179.500109213
 20
136.3128894682
 30
0.0
 10
179.5009821006
 20
136.3028133075
 30
0.0
 10
179.5017465994
 20
136.2951542505
 30
0.0
 10
179.5027156902
 20
136.2907356979
 30
0.0
 10
179.5032157475
 20
136.2880807888
 30
0.0
 10
179.5038397527
 20
136.2877387019
 30
0.0
  0
SPLINE
  5
5FF
100
AcDbEntity
  8
RACCORDO
100
AcDbSpline
 62
7
  6
CONTINUOUS
 70
0
 71
3
 72
24
 73
20
 74
0
 42
0.0000001
 43
0.0000001
 44
0.0000000001
 40
0.0
 40
0.0
 40
0.0
 40
0.0
 40
0.0024407311
 40
0.0074153652
 40
0.0145659404
 40
0.0235121516
 40
0.0453023257
 40
0.0706200743
 40
0.0981922601
 40
0.1272855869
 40
0.1884290061
 40
0.2520664753
 40
0.3172734897
 40
0.3835533569
 40
0.4506096943
 40
0.5863417276
 40
0.7235100798
 40
0.8615414917
 40
1.0
 40
1.0
 40
1.0
 40
1.0
 10
148.4737316003
 20
159.2989310674
 30
0.0
 10
148.4748472724
 20
159.2992579859
 30
0.0
 10
148.4784216669
 20
159.2993924051
 30
0.0
 10
148.4853103954
 20
159.2998894922
 30
0.0
 10
148.4953592897
 20
159.3001980976
 30
0.0
 10
148.5133896315
 20
159.3007360087
 30
0.0
 10
148.5400900239
 20
159.3012638336
 30
0.0
 10
148.5756553808
 20
159.3018389431
 30
0.0
 10
148.6147035069
 20
159.3023477779
 30
0.0
 10
148.6708152157
 20
159.3029758124
 30
0.0
 10
148.7441066601
 20
159.3036410453
 30
0.0
 10
148.8346003047
 20
159.3043118626
 30
0.0
 10
148.9275413255
 20
159.3048878592
 30
0.0
 10
149.0221112932
 20
159.3053856058
 30
0.0
 10
149.1502741725
 20
159.3059611848
 30
0.0
 10
149.3122034014
 20
159.3065281003
 30
0.0
 10
149.5079402999
 20
159.3070030962
 30
0.0
 10
149.7049762554
 20
159.3072887057
 30
0.0
 10
149.8366755635
 20
159.3073540134
 30
0.0
 10
149.9026269319
 20
159.3073540134
 30
0.0
  0
SPLINE
  5
600
100
AcDbEntity
  8
RACCORDO
100
AcDbSpline
 62
7
  6
CONTINUOUS
 70
0
 71
3
 72
24
 73
20
 74
0
 42
0.0000001
 43
0.0000001
 44
0.0000000001
 40
0.0
 40
0.0
 40
0.0
 40
0.0
 40
0.1384600004
 40
0.2764927368
 40
0.4136624525
 40
0.5493960297
 40
0.6164523117
 40
0.6827321262
 40
0.7479391017
 40
0.8115763786
 40
0.8727192272
 40
0.9018102166
 40
0.9293812519
 40
0.9546964866
 40
0.9764870209
 40
0.9854335246
 40
0.9925844029
 40
0.9975592061
 40
1.0
 40
1.0
 40
1.0
 40
1.0
 10
136.5424732719
 20
159.3073540134
 30
0.0
 10
136.6084253511
 20
159.3073540134
 30
0.0
 10
136.7401260007
 20
159.3072887029
 30
0.0
 10
136.9371639473
 20
159.3070031026
 30
0.0
 10
137.1329028615
 20
159.3065280586
 30
0.0
 10
137.294833449
 20
159.3059611772
 30
0.0
 10
137.4229970119
 20
159.3053855435
 30
0.0
 10
137.5175669095
 20
159.3048877816
 30
0.0
 10
137.610507795
 20
159.3043117784
 30
0.0
 10
137.7010010574
 20
159.3036409301
 30
0.0
 10
137.7742910256
 20
159.3029757499
 30
0.0
 10
137.8304008005
 20
159.3023476709
 30
0.0
 10
137.8694460688
 20
159.3018389335
 30
0.0
 10
137.9050098516
 20
159.3012638095
 30
0.0
 10
137.9317093583
 20
159.3007360401
 30
0.0
 10
137.949740155
 20
159.3001981194
 30
0.0
 10
137.9597894145
 20
159.2998895161
 30
0.0
 10
137.9666783965
 20
159.2993924186
 30
0.0
 10
137.9702529026
 20
159.2992579943
 30
0.0
 10
137.9713686035
 20
159.2989310674
 30
0.0
  0
ELLIPSE
  5
601
100
AcDbEntity
  8
RACCORDO
100
AcDbEllipse
 62
7
  6
CONTINUOUS
 10
163.0537674628
 20
113.0928838315
 30
0.0
 11
0.2179018026
 21
-0.0207769803
 31
0.0
 40
0.2087121525
 41
1.3721734631
 42
1.9993323007
  0
ELLIPSE
  5
602
100
AcDbEntity
  8
RACCORDO
100
AcDbEllipse
 62
7
  6
CONTINUOUS
 10
163.0967714316
 20
113.0680554786
 30
0.0
 11
-0.0001375646
 21
0.1155096903
 31
0.0
 40
0.0453552611
 41
-1.5970482365
 42
-0.9698893989
  0
ELLIPSE
  5
603
100
AcDbEntity
  8
RACCORDO
100
AcDbEllipse
 62
7
  6
CONTINUOUS
 10
176.0225196363
 20
159.1928533659
 30
0.0
 11
-0.1414644378
 21
-0.1414644378
 31
0.0
 40
0.9996954599
 41
2.3563467834
 42
3.9268385237
  0
ELLIPSE
  5
604
100
AcDbEntity
  8
RACCORDO
100
AcDbEllipse
 62
7
  6
CONTINUOUS
 10
180.7033495305
 20
135.9736375617
 30
0.0
 11
0.0
 21
0.3
 31
0.0
 40
0.0174550649
 41
0.0174532925
 42
1.5707963268
  0
ELLIPSE
  5
605
100
AcDbEntity
  8
RACCORDO
100
AcDbEllipse
 62
7
  6
CONTINUOUS
 10
180.7033495305
 20
138.1121301014
 30
0.0
 11
0.0
 21
0.3
 31
0.0
 40
0.0174550649
 41
-4.7123889804
 42
-3.1590459461
  0
ELLIPSE
  5
606
100
AcDbEntity
  8
RACCORDO
100
AcDbEllipse
 62
7
  6
CONTINUOUS
 10
180.7033495305
 20
56.1121301014
 30
0.0
 11
-0.0
 21
0.3
 31
0.0
 40
0.0174550649
 41
-4.7123889804
 42
-3.1590459461
  0
ELLIPSE
  5
607
100
AcDbEntity
  8
RACCORDO
100
AcDbEllipse
 62
7
  6
CONTINUOUS
 10
179.1978845189
 20
51.5175494145
 30
0.0
 11
-1.0609832838
 21
1.0609832838
 31
0.0
 40
0.9996954599
 41
2.3563467834
 42
3.9268385237
  0
ELLIPSE
  5
608
100
AcDbEntity
  8
RACCORDO
100
AcDbEllipse
 62
7
  6
CONTINUOUS
 10
107.2472156849
 20
51.5175494145
 30
0.0
 11
-1.0609832838
 21
-1.0609832838
 31
0.0
 40
0.9996954599
 41
-0.7852458701
 42
0.7852458701
  0
ELLIPSE
  5
609
100
AcDbEntity
  8
RACCORDO
100
AcDbEllipse
 62
7
  6
CONTINUOUS
 10
107.2472156849
 20
162.5682182486
 30
0.0
 11
1.0609832838
 21
-1.0609832838
 31
0.0
 40
0.9996954599
 41
2.3563467834
 42
3.9268385237
  0
ELLIPSE
  5
60A
100
AcDbEntity
  8
RACCORDO
100
AcDbEllipse
 62
7
  6
CONTINUOUS
 10
179.1978845189
 20
162.5682182486
 30
0.0
 11
1.0609832838
 21
1.0609832838
 31
0.0
 40
0.9996954599
 41
-0.7852458701
 42
0.7852458701
  0
ELLIPSE
  5
60B
100
AcDbEntity
  8
RACCORDO
100
AcDbEllipse
 62
7
  6
CONTINUOUS
 10
180.7033495305
 20
53.9736375617
 30
0.0
 11
-0.0
 21
0.3
 31
0.0
 40
0.0174550649
 41
0.0174532925
 42
1.5707963268
  0
ELLIPSE
  5
60C
100
AcDbEntity
  8
RACCORDO
100
AcDbEllipse
 62
7
  6
CONTINUOUS
 10
176.2190590889
 20
154.6428838315
 30
0.0
 11
-0.0
 21
0.2
 31
0.0
 40
0.0174550649
 41
-3.1415926536
 42
-1.5707963268
  0
ELLIPSE
  5
60D
100
AcDbEntity
  8
RACCORDO
100
AcDbEllipse
 62
7
  6
CONTINUOUS
 10
105.7417506733
 20
58.1121301014
 30
0.0
 11
-0.0
 21
0.3
 31
0.0
 40
0.0174550649
 41
-3.1241393611
 42
-1.5707963268
  0
ELLIPSE
  5
60E
100
AcDbEntity
  8
RACCORDO
100
AcDbEllipse
 62
7
  6
CONTINUOUS
 10
105.7417506733
 20
155.9736375617
 30
0.0
 11
0.0
 21
0.3
 31
0.0
 40
0.0174550649
 41
-1.5707963268
 42
-0.0174532925
  0
ELLIPSE
  5
60F
100
AcDbEntity
  8
RACCORDO
100
AcDbEllipse
 62
7
  6
CONTINUOUS
 10
105.7417506733
 20
158.1121301014
 30
0.0
 11
0.0
 21
0.3
 31
0.0
 40
0.0174550649
 41
-3.1241393611
 42
-1.5707963268
  0
ELLIPSE
  5
610
100
AcDbEntity
  8
RACCORDO
100
AcDbEllipse
 62
7
  6
CONTINUOUS
 10
105.7417506733
 20
55.9736375617
 30
0.0
 11
-0.0
 21
0.3
 31
0.0
 40
0.0174550649
 41
-1.5707963268
 42
-0.0174532925
  0
ELLIPSE
  5
611
100
AcDbEntity
  8
DRAFT
100
AcDbEllipse
 62
7
  6
CONTINUOUS
 10
182.7225501019
 20
69.2385144304
 30
0.0
 11
3.0
 21
0.0
 31
0.0
 40
0.0874886635
 41
-3.1415926536
 42
-2.300523983
  0
ELLIPSE
  5
612
100
AcDbEntity
  8
DRAFT
100
AcDbEllipse
 62
7
  6
CONTINUOUS
 10
182.7225501019
 20
64.6472532326
 30
0.0
 11
3.0
 21
0.0
 31
0.0
 40
0.0874886635
 41
8.5837092902
 42
9.4247779608
  0
ELLIPSE
  5
613
100
AcDbEntity
  8
DRAFT
100
AcDbEllipse
 62
7
  6
CONTINUOUS
 10
182.7225501019
 20
146.5472532326
 30
0.0
 11
3.0
 21
0.0
 31
0.0
 40
0.0874886635
 41
8.5837092902
 42
9.4247779608
  0
ELLIPSE
  5
614
100
AcDbEntity
  8
DRAFT
100
AcDbEllipse
 62
7
  6
CONTINUOUS
 10
182.7225501019
 20
151.1385144304
 30
0.0
 11
3.0
 21
-0.0
 31
0.0
 40
0.0874886635
 41
-3.1415926536
 42
-2.300523983
  0
ELLIPSE
  5
615
100
AcDbEntity
  8
RACCORDO
100
AcDbEllipse
 62
7
  6
CONTINUOUS
 10
181.7806274805
 20
121.955395168
 30
0.0
 11
0.2
 21
-0.0
 31
0.0
 40
0.0874886635
 41
-1.5707963268
 42
-0.0174532925
  0
ELLIPSE
  5
616
100
AcDbEntity
  8
RACCORDO
100
AcDbEllipse
 62
7
  6
CONTINUOUS
 10
181.301962405
 20
121.955395168
 30
0.0
 11
0.2
 21
0.0
 31
0.0
 40
0.0874886635
 41
-2.9670597284
 42
-1.5707963268
  0
ELLIPSE
  5
617
100
AcDbEntity
  8
RACCORDO
100
AcDbEllipse
 62
7
  6
CONTINUOUS
 10
105.1431377988
 20
121.955395168
 30
0.0
 11
0.2
 21
-0.0
 31
0.0
 40
0.0874886635
 41
-1.5707963268
 42
-0.1745329252
  0
ELLIPSE
  5
618
100
AcDbEntity
  8
RACCORDO
100
AcDbEllipse
 62
7
  6
CONTINUOUS
 10
104.6644727233
 20
121.955395168
 30
0.0
 11
0.2
 21
0.0
 31
0.0
 40
0.0874886635
 41
-3.1241393611
 42
-1.5707963268
  0
ELLIPSE
  5
619
100
AcDbEntity
  8
RACCORDO
100
AcDbEllipse
 62
7
  6
CONTINUOUS
 10
105.1431377988
 20
92.130372495
 30
0.0
 11
0.2
 21
-0.0
 31
0.0
 40
0.0874886635
 41
0.1745329252
 42
1.5707963268
  0
ELLIPSE
  5
61A
100
AcDbEntity
  8
RACCORDO
100
AcDbEllipse
 62
7
  6
CONTINUOUS
 10
104.6644727233
 20
92.130372495
 30
0.0
 11
0.2
 21
0.0
 31
0.0
 40
0.0874886635
 41
1.5707963268
 42
3.1241393611
  0
ELLIPSE
  5
61B
100
AcDbEntity
  8
RACCORDO
100
AcDbEllipse
 62
7
  6
CONTINUOUS
 10
181.7806274805
 20
92.130372495
 30
0.0
 11
0.2
 21
-0.0
 31
0.0
 40
0.0874886635
 41
0.0174532925
 42
1.5707963268
  0
ELLIPSE
  5
61C
100
AcDbEntity
  8
RACCORDO
100
AcDbEllipse
 62
7
  6
CONTINUOUS
 10
181.301962405
 20
92.130372495
 30
0.0
 11
0.2
 21
-0.0
 31
0.0
 40
0.0874886635
 41
1.5707963268
 42
2.9670597284
  0
ELLIPSE
  5
61D
100
AcDbEntity
  8
RACCORDO
100
AcDbEllipse
 62
7
  6
CONTINUOUS
 10
105.1431377988
 20
111.130372495
 30
0.0
 11
0.2
 21
-0.0
 31
0.0
 40
0.0874886635
 41
0.1745329252
 42
1.5707963268
  0
ELLIPSE
  5
61E
100
AcDbEntity
  8
RACCORDO
100
AcDbEllipse
 62
7
  6
CONTINUOUS
 10
104.6644727233
 20
111.130372495
 30
0.0
 11
0.2
 21
0.0
 31
0.0
 40
0.0874886635
 41
1.5707963268
 42
3.1241393611
  0
ELLIPSE
  5
61F
100
AcDbEntity
  8
RACCORDO
100
AcDbEllipse
 62
7
  6
CONTINUOUS
 10
105.1431377988
 20
102.955395168
 30
0.0
 11
0.2
 21
-0.0
 31
0.0
 40
0.0874886635
 41
-1.5707963268
 42
-0.1745329252
  0
ELLIPSE
  5
620
100
AcDbEntity
  8
RACCORDO
100
AcDbEllipse
 62
7
  6
CONTINUOUS
 10
104.6644727233
 20
102.955395168
 30
0.0
 11
0.2
 21
0.0
 31
0.0
 40
0.0874886635
 41
-3.1241393611
 42
-1.5707963268
  0
ELLIPSE
  5
621
100
AcDbEntity
  8
RACCORDO
100
AcDbEllipse
 62
7
  6
CONTINUOUS
 10
110.3911614506
 20
54.8614951803
 30
0.0
 11
0.1414644378
 21
0.1414644378
 31
0.0
 40
0.9996954599
 41
-3.9268385237
 42
-2.3563467834
  0
ELLIPSE
  5
622
100
AcDbEntity
  8
RACCORDO
100
AcDbEllipse
 62
7
  6
CONTINUOUS
 10
176.0539387532
 20
54.8614951803
 30
0.0
 11
-0.1414644378
 21
0.1414644378
 31
0.0
 40
0.9996954599
 41
-3.9268385237
 42
-2.3563467834
  0
ELLIPSE
  5
623
100
AcDbEntity
  8
RACCORDO
100
AcDbEllipse
 62
7
  6
CONTINUOUS
 10
176.0539387532
 20
159.2242724828
 30
0.0
 11
0.1414644378
 21
0.1414644378
 31
0.0
 40
0.9996954599
 41
-0.7852458701
 42
0.7852458701
  0
ELLIPSE
  5
624
100
AcDbEntity
  8
RACCORDO
100
AcDbEllipse
 62
7
  6
CONTINUOUS
 10
110.3911614506
 20
159.2242724828
 30
0.0
 11
0.1414644378
 21
-0.1414644378
 31
0.0
 40
0.9996954599
 41
2.3563467834
 42
3.9268385237
  0
ELLIPSE
  5
625
100
AcDbEntity
  8
RACCORDO
100
AcDbEllipse
 62
7
  6
CONTINUOUS
 10
105.7277866214
 20
157.4980746526
 30
0.0
 11
-0.0
 21
0.3
 31
0.0
 40
0.0174550649
 41
0.0174532925
 42
1.5707963268
  0
ELLIPSE
  5
626
100
AcDbEntity
  8
RACCORDO
100
AcDbEllipse
 62
7
  6
CONTINUOUS
 10
105.7277866214
 20
156.5876930105
 30
0.0
 11
-0.0
 21
0.3
 31
0.0
 40
0.0174550649
 41
-4.7123889804
 42
-3.1590459461
  0
ELLIPSE
  5
627
100
AcDbEntity
  8
RACCORDO
100
AcDbEllipse
 62
7
  6
CONTINUOUS
 10
105.7277866214
 20
56.5876930105
 30
0.0
 11
0.0
 21
0.3
 31
0.0
 40
0.0174550649
 41
1.5707963268
 42
3.1241393611
  0
ELLIPSE
  5
628
100
AcDbEntity
  8
RACCORDO
100
AcDbEllipse
 62
7
  6
CONTINUOUS
 10
180.7173135824
 20
54.5876930105
 30
0.0
 11
0.0
 21
0.3
 31
0.0
 40
0.0174550649
 41
-3.1241393611
 42
-1.5707963268
  0
ELLIPSE
  5
629
100
AcDbEntity
  8
RACCORDO
100
AcDbEllipse
 62
7
  6
CONTINUOUS
 10
180.7173135824
 20
55.4980746526
 30
0.0
 11
0.0
 21
0.3
 31
0.0
 40
0.0174550649
 41
-1.5707963268
 42
-0.0174532925
  0
ELLIPSE
  5
62A
100
AcDbEntity
  8
RACCORDO
100
AcDbEllipse
 62
7
  6
CONTINUOUS
 10
105.7277866214
 20
57.4980746526
 30
0.0
 11
0.0
 21
0.3
 31
0.0
 40
0.0174550649
 41
0.0174532925
 42
1.5707963268
  0
ELLIPSE
  5
62B
100
AcDbEntity
  8
RACCORDO
100
AcDbEllipse
 62
7
  6
CONTINUOUS
 10
180.7173135824
 20
137.4980746526
 30
0.0
 11
-0.0
 21
0.3
 31
0.0
 40
0.0174550649
 41
-1.5707963268
 42
-0.0174532925
  0
ELLIPSE
  5
62C
100
AcDbEntity
  8
RACCORDO
100
AcDbEllipse
 62
7
  6
CONTINUOUS
 10
180.7173135824
 20
136.5876930105
 30
0.0
 11
-0.0
 21
0.3
 31
0.0
 40
0.0174550649
 41
-3.1241393611
 42
-1.5707963268
  0
ENDSEC
  0
SECTION
  2
OBJECTS
  0
DICTIONARY
  5
C
100
AcDbDictionary
280
0
281
1
  3
ACAD_GROUP
350
D
  3
ACAD_MLINESTYLE
350
17
  3
ACAD_LAYOUT
350
1A
  3
ACAD_PLOTSETTINGS
350
19
  3
ACAD_PLOTSTYLENAME
350
E
  0
DICTIONARY
  5
D
102
{ACAD_REACTORS
330
C
102
}
100
AcDbDictionary
280
0
281
1
  0
ACDBDICTIONARYWDFLT
  5
E
102
{ACAD_REACTORS
330
C
102
}
100
AcDbDictionary
281
1
  3
Normal
350
F
100
AcDbDictionaryWithDefault
340
F
  0
DICTIONARY
  5
17
102
{ACAD_REACTORS
330
C
102
}
100
AcDbDictionary
280
0
281
1
  3
Standard
350
18
  0
DICTIONARY
  5
19
102
{ACAD_REACTORS
330
C
102
}
100
AcDbDictionary
281
1
  0
DICTIONARY
  5
1A
102
{ACAD_REACTORS
330
C
102
}
100
AcDbDictionary
281
1
  3
Model
350
62D
  3
Layout1
350
62E
  0
ACDBPLACEHOLDER
  5
F
102
{ACAD_REACTORS
330
E
102
}
  0
MLINESTYLE
  5
18
102
{ACAD_REACTORS
330
17
102
}
100
AcDbMlineStyle
  2
STANDARD
 70
0
  3

 62
256
 51
90.0
 52
90.0
 71
2
 49
0.5
 62
256
  6
BYLAYER
 49
-0.5
 62
256
  6
BYLAYER
  0
LAYOUT
  5
62D
102
{ACAD_REACTORS
330
1A
102
}
100
AcDbPlotSettings
  1

  2
none_device
  4
ISO_A4_(297.00_x_210.00_MM)
  6

 40
0.0
 41
0.0
 42
0.0
 43
0.0
 44
297.0
 45
210.0
 46
0.0
 47
0.0
 48
0.0
 49
0.0
140
0.0
141
0.0
142
1.0
143
1.0
 70
1024
 72
1
 73
0
 74
0
  7

 75
0
147
1.0
148
0.0
149
0.0
100
AcDbLayout
  1
Model
 70
0
 71
0
 10
0.0
 20
0.0
 11
297.0
 21
210.0
 12
0.0
 22
0.0
 32
0.0
 14
0.0
 24
0.0
 34
0.0
 15
0.0
 25
0.0
 35
0.0
146
0.0
 13
0.0
 23
0.0
 33
0.0
 16
1.0
 26
0.0
 36
0.0
 17
0.0
 27
1.0
 37
0.0
 76
0
330
20E
345
0
346
0
  0
LAYOUT
  5
62E
102
{ACAD_REACTORS
330
1A
102
}
100
AcDbPlotSettings
  1

  2
none_device
  4
ISO_A4_(297.00_x_210.00_MM)
  6

 40
0.0
 41
0.0
 42
0.0
 43
0.0
 44
297.0
 45
210.0
 46
0.0
 47
0.0
 48
0.0
 49
0.0
140
0.0
141
0.0
142
1.0
143
1.0
 70
0
 72
1
 73
0
 74
0
  7

 75
0
147
1.0
148
0.0
149
0.0
100
AcDbLayout
  1
Layout1
 70
0
 71
1
 10
0.0
 20
0.0
 11
297.0
 21
210.0
 12
0.0
 22
0.0
 32
0.0
 14
0.0
 24
0.0
 34
0.0
 15
0.0
 25
0.0
 35
0.0
146
0.0
 13
0.0
 23
0.0
 33
0.0
 16
1.0
 26
0.0
 36
0.0
 17
0.0
 27
1.0
 37
0.0
 76
0
330
20F
345
0
346
0
  0
ENDSEC
  0
EOF
