  0
SECTION
  2
HEADER
  9
$ACADVER
  1
AC1024
  9
$DWGCODEPAGE
  3
ANSI_1252
  9
$EXTMAX
 10
297.0
 20
210.0
 30
0.0
  9
$EXTMIN
 10
0.0
 20
0.0
 30
0.0
  9
$LIMMIN
 10
0.0
 20
0.0
  9
$LIMMAX
 10
297.0
 20
210.0
  9
$VIEWCTR
 10
148.5
 20
105.0
  9
$VIEWSIZE
 40
210.0
  9
$CLAYER
  8
0
  9
$LTSCALE
 40
16.335
  9
$CELTYPE
  6
BYLAYER
  9
$DIMSCALE
 40
1.0
  9
$DIMASZ
 40
3.0
  9
$DIMEXO
 40
0.5
  9
$DIMDLI
 40
11.286
  9
$DIMEXE
 40
1.5
  9
$DIMCEN
 40
2.673
  9
$DIMLFAC
 40
1.0
  9
$DIMBLK
  1
_FILLED
  9
$DIMALT
 70
0
  9
$DIMALTF
 40
0.0393700787
  9
$DIMTXT
 40
3.0
  9
$DIMTOL
 70
1
  9
$DIMLIM
 70
0
  9
$DIMTFAC
 40
1.0
  9
$DIMTP
 40
0.01
  9
$DIMTM
 40
0.01
  9
$DIMGAP
 40
0.625
  9
$DIMDSEP
 70
44
  9
$AUNITS
 70
0
  9
$PDMODE
 70
3
  9
$PDSIZE
 40
3.0
  9
$HANDSEED
  5
74A
  9
$TILEMODE
 70
1
  9
$MEASUREMENT
 70
1
  9
$INSUNITS
 70
4
  0
ENDSEC
  0
SECTION
  2
CLASSES
  0
CLASS
  1
ACDBDICTIONARYWDFLT
  2
AcDbDictionaryWithDefault
  3
AutoCAD 2000
 90
0
 91
1
280
0
281
0
  0
CLASS
  1
ACDBPLACEHOLDER
  2
AcDbPlaceHolder
  3
AutoCAD 2000
 90
0
 91
1
280
0
281
0
  0
CLASS
  1
LAYOUT
  2
AcDbLayout
  3
AutoCAD 2000
 90
0
 91
0
280
0
281
0
  0
ENDSEC
  0
SECTION
  2
TABLES
  0
TABLE
  2
VPORT
  5
8
100
AcDbSymbolTable
 70
2
  0
VPORT
  5
1F4
100
AcDbSymbolTableRecord
100
AcDbViewportTableRecord
  2
*ACTIVE
 70
0
 10
0.0
 20
0.0
 11
1.0
 21
1.0
 12
148.5
 22
105.0
 13
0.0
 23
0.0
 14
1.0
 24
1.0
 15
0.0
 25
0.0
 16
0.0
 26
0.0
 36
1.0
 17
0.0
 27
0.0
 37
0.0
 40
210.0
 41
1.4142857143
 42
50.0
 43
0.0
 44
0.0
 50
0.0
 51
0.0
 71
0
 72
100
 73
1
 74
1
 75
0
 76
0
 77
0
 78
0
  0
ENDTAB
  0
TABLE
  2
LTYPE
  5
5
100
AcDbSymbolTable
 70
6
  0
LTYPE
  5
14
100
AcDbSymbolTableRecord
100
AcDbLinetypeTableRecord
  2
BYBLOCK
 70
0
  3

 72
65
 73
0
 40
0.0
  0
LTYPE
  5
15
100
AcDbSymbolTableRecord
100
AcDbLinetypeTableRecord
  2
BYLAYER
 70
0
  3

 72
65
 73
0
 40
0.0
  0
LTYPE
  5
16
100
AcDbSymbolTableRecord
100
AcDbLinetypeTableRecord
  2
CONTINUOUS
 70
64
  3
Solid line
 72
65
 73
0
 40
0.0
  0
LTYPE
  5
1F5
100
AcDbSymbolTableRecord
100
AcDbLinetypeTableRecord
  2
CENTER
 70
64
  3
____ _ ____ _ ____ _ ____ _ ____ _ ____ _ ____
 72
65
 73
4
 40
0.6
 49
0.375
 74
0
 49
-0.075
 74
0
 49
0.075
 74
0
 49
-0.075
 74
0
  0
LTYPE
  5
1F6
100
AcDbSymbolTableRecord
100
AcDbLinetypeTableRecord
  2
HIDDEN
 70
64
  3
- - - - - - - - - - - - - - - - - - - -
 72
65
 73
2
 40
0.2
 49
0.1
 74
0
 49
-0.1
 74
0
  0
LTYPE
  5
1F7
100
AcDbSymbolTableRecord
100
AcDbLinetypeTableRecord
  2
PHANTOM
 70
64
  3
_____ _ _ _____ _ _ _____ _ _ _____
 72
65
 73
6
 40
0.8
 49
0.45
 74
0
 49
-0.05
 74
0
 49
0.1
 74
0
 49
-0.05
 74
0
 49
0.1
 74
0
 49
-0.05
 74
0
  0
LTYPE
  5
1F8
100
AcDbSymbolTableRecord
100
AcDbLinetypeTableRecord
  2
DOT
 70
64
  3
. . . . . . . . . . . . . . . . . . . .
 72
65
 73
2
 40
0.2
 49
0.1
 74
0
 49
-0.1
 74
0
  0
LTYPE
  5
1F9
100
AcDbSymbolTableRecord
100
AcDbLinetypeTableRecord
  2
DASHED
 70
64
  3
- - - - - - - - - - - - - - - - - - - -
 72
65
 73
2
 40
0.2
 49
0.1
 74
0
 49
-0.1
 74
0
  0
ENDTAB
  0
TABLE
  2
LAYER
  5
2
100
AcDbSymbolTable
 70
36
  0
LAYER
  5
10
100
AcDbSymbolTableRecord
100
AcDbLayerTableRecord
  2
0
 70
0
 62
7
  6
CONTINUOUS
370
-3
390
F
  0
LAYER
  5
1FA
100
AcDbSymbolTableRecord
100
AcDbLayerTableRecord
  2
DEFAULT_1
 70
0
 62
7
  6
CENTER
370
-3
390
F
  0
LAYER
  5
1FB
100
AcDbSymbolTableRecord
100
AcDbLayerTableRecord
  2
DEFAULT_2
 70
0
 62
7
  6
HIDDEN
370
-3
390
F
  0
LAYER
  5
1FC
100
AcDbSymbolTableRecord
100
AcDbLayerTableRecord
  2
DEFAULT_3
 70
0
 62
7
  6
PHANTOM
370
-3
390
F
  0
LAYER
  5
1FD
100
AcDbSymbolTableRecord
100
AcDbLayerTableRecord
  2
ASSI
 70
0
 62
7
  6
CONTINUOUS
370
-3
390
F
  0
LAYER
  5
1FE
100
AcDbSymbolTableRecord
100
AcDbLayerTableRecord
  2
COORDINATE
 70
0
 62
7
  6
CONTINUOUS
370
-3
390
F
  0
LAYER
  5
1FF
100
AcDbSymbolTableRecord
100
AcDbLayerTableRecord
  2
COPY_PUBLISH
 70
0
 62
7
  6
CONTINUOUS
370
-3
390
F
  0
LAYER
  5
200
100
AcDbSymbolTableRecord
100
AcDbLayerTableRecord
  2
COSMETICI
 70
0
 62
7
  6
CONTINUOUS
370
-3
390
F
  0
LAYER
  5
201
100
AcDbSymbolTableRecord
100
AcDbLayerTableRecord
  2
CURVE
 70
0
 62
7
  6
CONTINUOUS
370
-3
390
F
  0
LAYER
  5
202
100
AcDbSymbolTableRecord
100
AcDbLayerTableRecord
  2
DRAFT
 70
0
 62
7
  6
CONTINUOUS
370
-3
390
F
  0
LAYER
  5
203
100
AcDbSymbolTableRecord
100
AcDbLayerTableRecord
  2
IMPORT_IGES
 70
0
 62
7
  6
CONTINUOUS
370
-3
390
F
  0
LAYER
  5
204
100
AcDbSymbolTableRecord
100
AcDbLayerTableRecord
  2
NOTE
 70
0
 62
7
  6
CONTINUOUS
370
-3
390
F
  0
LAYER
  5
205
100
AcDbSymbolTableRecord
100
AcDbLayerTableRecord
  2
PIANI
 70
0
 62
7
  6
CONTINUOUS
370
-3
390
F
  0
LAYER
  5
206
100
AcDbSymbolTableRecord
100
AcDbLayerTableRecord
  2
PUNTI
 70
0
 62
7
  6
CONTINUOUS
370
-3
390
F
  0
LAYER
  5
207
100
AcDbSymbolTableRecord
100
AcDbLayerTableRecord
  2
RACCORDO
 70
0
 62
7
  6
CONTINUOUS
370
-3
390
F
  0
LAYER
  5
208
100
AcDbSymbolTableRecord
100
AcDbLayerTableRecord
  2
SIMBOLI
 70
0
 62
7
  6
CONTINUOUS
370
-3
390
F
  0
LAYER
  5
209
100
AcDbSymbolTableRecord
100
AcDbLayerTableRecord
  2
SMUSSO
 70
0
 62
7
  6
CONTINUOUS
370
-3
390
F
  0
LAYER
  5
20A
100
AcDbSymbolTableRecord
100
AcDbLayerTableRecord
  2
SUPERFICI
 70
0
 62
7
  6
CONTINUOUS
370
-3
390
F
  0
LAYER
  5
20B
100
AcDbSymbolTableRecord
100
AcDbLayerTableRecord
  2
TRASH
 70
0
 62
7
  6
CONTINUOUS
370
-3
390
F
  0
ENDTAB
  0
TABLE
  2
STYLE
  5
3
100
AcDbSymbolTable
 70
1
  0
STYLE
  5
11
100
AcDbSymbolTableRecord
100
AcDbTextStyleTableRecord
  2
STANDARD
 70
0
 40
0.0
 41
0.8
 50
0.0
 71
0
 42
0.2
  3
txt
  4

  0
STYLE
  5
20C
100
AcDbSymbolTableRecord
100
AcDbTextStyleTableRecord
  2
TEXTSTYLE_1
 70
0
 40
0.0
 41
0.8
 50
0.0
 71
0
 42
0.2
  3
gdt
  4

  0
ENDTAB
  0
TABLE
  2
VIEW
  5
6
100
AcDbSymbolTable
 70
0
  0
ENDTAB
  0
TABLE
  2
UCS
  5
7
100
AcDbSymbolTable
 70
0
  0
ENDTAB
  0
TABLE
  2
APPID
  5
9
100
AcDbSymbolTable
 70
1
  0
APPID
  5
20D
100
AcDbSymbolTableRecord
100
AcDbRegAppTableRecord
  2
ACAD
 70
0
  0
ENDTAB
  0
TABLE
  2
BLOCK_RECORD
  5
1
100
AcDbSymbolTable
 70
0
  0
BLOCK_RECORD
  5
20E
100
AcDbSymbolTableRecord
100
AcDbBlockTableRecord
  2
*Model_Space
  0
BLOCK_RECORD
  5
20F
100
AcDbSymbolTableRecord
100
AcDbBlockTableRecord
  2
*Paper_Space
  0
BLOCK_RECORD
  5
210
100
AcDbSymbolTableRecord
100
AcDbBlockTableRecord
  2
_FILLED
  0
ENDTAB
  0
TABLE
  2
DIMSTYLE
  5
A
100
AcDbSymbolTable
 70
1
100
AcDbDimStyleTable
 71
0
  0
DIMSTYLE
105
211
100
AcDbSymbolTableRecord
100
AcDbDimStyleTableRecord
  2
STANDARD
 70
0
  3

  4

 40
1.0
 41
3.0
 42
0.5
 43
0.38
 44
1.5
 45
0.0
 46
0.0
 47
0.01
 48
0.01
140
3.0
141
0.09
142
0.0
143
25.4
144
1.0
145
0.0
146
1.0
147
0.625
 71
1.0
 72
0.0
 73
0
 74
0
 75
0
 76
0
 77
1
 78
8
 79
2
170
0
171
1
172
0
173
0
174
0
175
0
176
0
177
0
178
0
270
2
179
2
271
2
272
2
273
2
274
2
275
0
280
0
281
0
282
0
283
1
284
8
285
0
286
0
287
3
288
0
340
11
278
44
341
210
342
210
343
210
344
210
  0
ENDTAB
  0
ENDSEC
  0
SECTION
  2
BLOCKS
  0
BLOCK
  5
20
100
AcDbEntity
  8
0
100
AcDbBlockBegin
  2
*Model_Space
 70
0
 10
0.0
 20
0.0
 30
0.0
  3
*Model_Space
  1

  0
ENDBLK
  5
21
100
AcDbEntity
  8
0
100
AcDbBlockEnd
  0
BLOCK
  5
1C
100
AcDbEntity
  8
0
100
AcDbBlockBegin
  2
*Paper_Space
 70
0
 10
0.0
 20
0.0
 30
0.0
  3
*Paper_Space
  1

  0
ENDBLK
  5
1D
100
AcDbEntity
  8
0
100
AcDbBlockEnd
  0
BLOCK
  5
212
100
AcDbEntity
  8
0
100
AcDbBlockBegin
  2
_FILLED
 70
64
 10
0.0
 20
0.0
  3
_FILLED
  1

  0
SOLID
  5
213
100
AcDbEntity
  8
0
  6
BYBLOCK
 62
0
100
AcDbTrace
 10
0.0
 20
0.0
 11
-1.0
 21
0.3166666667
 12
-1.0
 22
-0.3166666667
 13
-1.0
 23
-0.3166666667
  0
ENDBLK
  5
214
100
AcDbEntity
  8
0
  6
BYBLOCK
 62
0
100
AcDbBlockEnd
  0
ENDSEC
  0
SECTION
  2
ENTITIES
  0
LINE
  5
215
100
AcDbEntity
  8
RACCORDO
100
AcDbLine
 62
250
  6
CONTINUOUS
 10
121.0271339069
 20
44.1385110333
 11
120.9850247551
 21
44.1525360118
  0
LINE
  5
216
100
AcDbEntity
  8
RACCORDO
100
AcDbLine
 62
250
  6
CONTINUOUS
 10
121.2272254477
 20
44.3383587934
 11
121.184750662
 21
44.3525055509
  0
LINE
  5
217
100
AcDbEntity
  8
RACCORDO
100
AcDbLine
 62
250
  6
CONTINUOUS
 10
122.4272254477
 20
45.4491363122
 11
122.4697002334
 21
45.4349895547
  0
LINE
  5
218
100
AcDbEntity
  8
RACCORDO
100
AcDbLine
 62
7
  6
CONTINUOUS
 10
178.9273777525
 20
44.1315290074
 11
105.9270731428
 21
44.1315290074
  0
LINE
  5
219
100
AcDbEntity
  8
RACCORDO
100
AcDbLine
 62
7
  6
CONTINUOUS
 10
163.8273169885
 20
44.1385110333
 11
162.2271339069
 21
44.1385110333
  0
LINE
  5
21A
100
AcDbEntity
  8
RACCORDO
100
AcDbLine
 62
7
  6
CONTINUOUS
 10
122.6273169885
 20
44.1385110333
 11
121.0271339069
 21
44.1385110333
  0
LINE
  5
21B
100
AcDbEntity
  8
RACCORDO
100
AcDbLine
 62
250
  6
CONTINUOUS
 10
178.906370748
 20
44.1525360118
 11
163.8694261403
 21
44.1525360118
  0
LINE
  5
21C
100
AcDbEntity
  8
RACCORDO
100
AcDbLine
 62
250
  6
CONTINUOUS
 10
162.1850247551
 20
44.1525360118
 11
122.6694261403
 21
44.1525360118
  0
LINE
  5
21D
100
AcDbEntity
  8
RACCORDO
100
AcDbLine
 62
250
  6
CONTINUOUS
 10
120.9850247551
 20
44.1525360118
 11
105.9480801473
 21
44.1525360118
  0
LINE
  5
21E
100
AcDbEntity
  8
RACCORDO
100
AcDbLine
 62
250
  6
CONTINUOUS
 10
178.906370748
 20
44.3525055509
 11
163.6697002334
 21
44.3525055509
  0
LINE
  5
21F
100
AcDbEntity
  8
RACCORDO
100
AcDbLine
 62
250
  6
CONTINUOUS
 10
162.384750662
 20
44.3525055509
 11
122.4697002334
 21
44.3525055509
  0
LINE
  5
220
100
AcDbEntity
  8
RACCORDO
100
AcDbLine
 62
250
  6
CONTINUOUS
 10
121.184750662
 20
44.3525055509
 11
105.9480801473
 21
44.3525055509
  0
LINE
  5
221
100
AcDbEntity
  8
RACCORDO
100
AcDbLine
 62
250
  6
CONTINUOUS
 10
179.9062184432
 20
45.152383707
 11
179.7062489042
 21
45.152383707
  0
LINE
  5
222
100
AcDbEntity
  8
RACCORDO
100
AcDbLine
 62
250
  6
CONTINUOUS
 10
104.9482324522
 20
45.152383707
 11
105.1482019912
 21
45.152383707
  0
LINE
  5
223
100
AcDbEntity
  8
RACCORDO
100
AcDbLine
 62
250
  6
CONTINUOUS
 10
106.6306250731
 20
45.4349895547
 11
121.184750662
 21
45.4349895547
  0
LINE
  5
224
100
AcDbEntity
  8
RACCORDO
100
AcDbLine
 62
250
  6
CONTINUOUS
 10
122.4697002334
 20
45.4349895547
 11
162.384750662
 21
45.4349895547
  0
LINE
  5
225
100
AcDbEntity
  8
RACCORDO
100
AcDbLine
 62
250
  6
CONTINUOUS
 10
163.6697002334
 20
45.4349895547
 11
178.2238258223
 21
45.4349895547
  0
LINE
  5
226
100
AcDbEntity
  8
RACCORDO
100
AcDbLine
 62
250
  6
CONTINUOUS
 10
106.6306250731
 20
45.6349590938
 11
120.9850247551
 21
45.6349590938
  0
LINE
  5
227
100
AcDbEntity
  8
RACCORDO
100
AcDbLine
 62
250
  6
CONTINUOUS
 10
122.6694261403
 20
45.6349590938
 11
162.1850247551
 21
45.6349590938
  0
LINE
  5
228
100
AcDbEntity
  8
RACCORDO
100
AcDbLine
 62
250
  6
CONTINUOUS
 10
163.8694261403
 20
45.6349590938
 11
178.2238258223
 21
45.6349590938
  0
LINE
  5
229
100
AcDbEntity
  8
RACCORDO
100
AcDbLine
 62
7
  6
CONTINUOUS
 10
121.0271339069
 20
45.6489840723
 11
122.6273169885
 21
45.6489840723
  0
LINE
  5
22A
100
AcDbEntity
  8
RACCORDO
100
AcDbLine
 62
7
  6
CONTINUOUS
 10
162.2271339069
 20
45.6489840723
 11
163.8273169885
 21
45.6489840723
  0
LINE
  5
22B
100
AcDbEntity
  8
RACCORDO
100
AcDbLine
 62
250
  6
CONTINUOUS
 10
178.1486471899
 20
45.7101377261
 11
106.7058037055
 21
45.7101377261
  0
LINE
  5
22C
100
AcDbEntity
  8
RACCORDO
100
AcDbLine
 62
250
  6
CONTINUOUS
 10
106.4306555341
 20
45.8349286328
 11
106.2306859951
 21
45.8349286328
  0
LINE
  5
22D
100
AcDbEntity
  8
RACCORDO
100
AcDbLine
 62
250
  6
CONTINUOUS
 10
178.4237953613
 20
45.8349286328
 11
178.6237649003
 21
45.8349286328
  0
LINE
  5
22E
100
AcDbEntity
  8
RACCORDO
100
AcDbLine
 62
250
  6
CONTINUOUS
 10
106.5058341664
 20
45.9101072651
 11
178.3486167289
 21
45.9101072651
  0
LINE
  5
22F
100
AcDbEntity
  8
RACCORDO
100
AcDbLine
 62
250
  6
CONTINUOUS
 10
122.6273169885
 20
45.6489840723
 11
122.6694261403
 21
45.6349590938
  0
LINE
  5
230
100
AcDbEntity
  8
RACCORDO
100
AcDbLine
 62
250
  6
CONTINUOUS
 10
178.253450441
 20
57.0468133251
 11
178.4466061833
 21
57.0985692502
  0
LINE
  5
231
100
AcDbEntity
  8
RACCORDO
100
AcDbLine
 62
250
  6
CONTINUOUS
 10
178.1957268736
 20
57.0392138733
 11
178.0025711314
 21
56.9874579481
  0
LINE
  5
232
100
AcDbEntity
  8
RACCORDO
100
AcDbLine
 62
250
  6
CONTINUOUS
 10
178.0930752917
 20
57.6453415307
 11
178.2862310339
 21
57.6970974559
  0
LINE
  5
233
100
AcDbEntity
  8
RACCORDO
100
AcDbLine
 62
250
  6
CONTINUOUS
 10
178.0353517243
 20
57.6377420789
 11
177.842195982
 21
57.5859861538
  0
LINE
  5
234
100
AcDbEntity
  8
RACCORDO
100
AcDbLine
 62
250
  6
CONTINUOUS
 10
108.0677868394
 20
47.272151321
 11
176.786664056
 21
47.272151321
  0
LINE
  5
235
100
AcDbEntity
  8
RACCORDO
100
AcDbLine
 62
250
  6
CONTINUOUS
 10
108.0677868394
 20
47.47212086
 11
176.786664056
 21
47.47212086
  0
LINE
  5
236
100
AcDbEntity
  8
RACCORDO
100
AcDbLine
 62
250
  6
CONTINUOUS
 10
108.1237649003
 20
47.5280989209
 11
176.7306859951
 21
47.5280989209
  0
LINE
  5
237
100
AcDbEntity
  8
RACCORDO
100
AcDbLine
 62
250
  6
CONTINUOUS
 10
177.1866031341
 20
47.672090399
 11
176.986633595
 21
47.672090399
  0
LINE
  5
238
100
AcDbEntity
  8
RACCORDO
100
AcDbLine
 62
250
  6
CONTINUOUS
 10
107.6678477613
 20
47.672090399
 11
107.8678173004
 21
47.672090399
  0
LINE
  5
239
100
AcDbEntity
  8
RACCORDO
100
AcDbLine
 62
250
  6
CONTINUOUS
 10
107.9237953613
 20
47.72806846
 11
176.9306555341
 21
47.72806846
  0
LINE
  5
23A
100
AcDbEntity
  8
0
100
AcDbLine
 62
7
  6
CONTINUOUS
 10
109.1859936672
 20
48.0315290074
 11
108.6684572282
 21
48.0315290074
  0
LINE
  5
23B
100
AcDbEntity
  8
0
100
AcDbLine
 62
7
  6
CONTINUOUS
 10
175.6684572282
 20
48.0315290074
 11
176.1859936672
 21
48.0315290074
  0
LINE
  5
23C
100
AcDbEntity
  8
RACCORDO
100
AcDbLine
 62
250
  6
CONTINUOUS
 10
178.4237953613
 20
48.0508792914
 11
179.9062184432
 21
48.0508792914
  0
LINE
  5
23D
100
AcDbEntity
  8
RACCORDO
100
AcDbLine
 62
250
  6
CONTINUOUS
 10
106.4953611275
 20
48.1815290074
 11
107.8782903393
 21
48.1815290074
  0
LINE
  5
23E
100
AcDbEntity
  8
RACCORDO
100
AcDbLine
 62
250
  6
CONTINUOUS
 10
176.9761605561
 20
48.1815290074
 11
178.3590897679
 21
48.1815290074
  0
LINE
  5
23F
100
AcDbEntity
  8
RACCORDO
100
AcDbLine
 62
7
  6
CONTINUOUS
 10
106.6953306665
 20
48.3815290074
 11
107.6783208003
 21
48.3815290074
  0
LINE
  5
240
100
AcDbEntity
  8
RACCORDO
100
AcDbLine
 62
7
  6
CONTINUOUS
 10
177.1761300951
 20
48.3815290074
 11
178.1591202289
 21
48.3815290074
  0
LINE
  5
241
100
AcDbEntity
  8
RACCORDO
100
AcDbLine
 62
250
  6
CONTINUOUS
 10
179.7110290309
 20
48.5489766405
 11
178.6189847736
 21
48.5489766405
  0
LINE
  5
242
100
AcDbEntity
  8
RACCORDO
100
AcDbLine
 62
250
  6
CONTINUOUS
 10
106.4883791015
 20
48.5815290074
 11
107.8852723653
 21
48.5815290074
  0
LINE
  5
243
100
AcDbEntity
  8
RACCORDO
100
AcDbLine
 62
250
  6
CONTINUOUS
 10
176.9691785301
 20
48.5815290074
 11
178.3660717939
 21
48.5815290074
  0
LINE
  5
244
100
AcDbEntity
  8
RACCORDO
100
AcDbLine
 62
7
  6
CONTINUOUS
 10
178.6025145606
 20
48.6315290074
 11
179.7274992439
 21
48.6315290074
  0
LINE
  5
245
100
AcDbEntity
  8
RACCORDO
100
AcDbLine
 62
250
  6
CONTINUOUS
 10
175.2238258223
 20
48.8349895547
 11
109.6306250731
 21
48.8349895547
  0
LINE
  5
246
100
AcDbEntity
  8
RACCORDO
100
AcDbLine
 62
250
  6
CONTINUOUS
 10
175.2238258223
 20
49.0349590938
 11
109.6306250731
 21
49.0349590938
  0
LINE
  5
247
100
AcDbEntity
  8
RACCORDO
100
AcDbLine
 62
250
  6
CONTINUOUS
 10
109.6691480691
 20
49.0734820898
 11
175.1853028263
 21
49.0734820898
  0
LINE
  5
248
100
AcDbEntity
  8
RACCORDO
100
AcDbLine
 62
250
  6
CONTINUOUS
 10
175.6237649003
 20
49.2349286328
 11
175.4237953613
 21
49.2349286328
  0
LINE
  5
249
100
AcDbEntity
  8
RACCORDO
100
AcDbLine
 62
250
  6
CONTINUOUS
 10
109.2306859951
 20
49.2349286328
 11
109.4306555341
 21
49.2349286328
  0
LINE
  5
24A
100
AcDbEntity
  8
RACCORDO
100
AcDbLine
 62
250
  6
CONTINUOUS
 10
109.4691785301
 20
49.2734516288
 11
175.3852723653
 21
49.2734516288
  0
LINE
  5
24B
100
AcDbEntity
  8
RACCORDO
100
AcDbLine
 62
250
  6
CONTINUOUS
 10
104.9482324522
 20
50.0508792914
 11
106.4306555341
 21
50.0508792914
  0
LINE
  5
24C
100
AcDbEntity
  8
RACCORDO
100
AcDbLine
 62
7
  6
CONTINUOUS
 10
179.7274992439
 20
50.1315290074
 11
178.6025145606
 21
50.1315290074
  0
LINE
  5
24D
100
AcDbEntity
  8
RACCORDO
100
AcDbLine
 62
250
  6
CONTINUOUS
 10
178.6189847736
 20
50.2140813742
 11
179.7110290309
 21
50.2140813742
  0
LINE
  5
24E
100
AcDbEntity
  8
RACCORDO
100
AcDbLine
 62
250
  6
CONTINUOUS
 10
106.2354661218
 20
50.5489766405
 11
105.1434218645
 21
50.5489766405
  0
LINE
  5
24F
100
AcDbEntity
  8
RACCORDO
100
AcDbLine
 62
7
  6
CONTINUOUS
 10
105.1269516515
 20
50.6315290074
 11
106.2519363348
 21
50.6315290074
  0
LINE
  5
250
100
AcDbEntity
  8
RACCORDO
100
AcDbLine
 62
250
  6
CONTINUOUS
 10
178.4237953613
 20
50.7121787233
 11
179.9062184432
 21
50.7121787233
  0
LINE
  5
251
100
AcDbEntity
  8
RACCORDO
100
AcDbLine
 62
250
  6
CONTINUOUS
 10
104.9272254477
 20
152.3319875973
 11
104.9434523254
 21
152.4133203139
  0
LINE
  5
252
100
AcDbEntity
  8
RACCORDO
100
AcDbLine
 62
250
  6
CONTINUOUS
 10
105.1269516515
 20
152.1315290074
 11
105.1434218645
 21
152.2140813742
  0
LINE
  5
253
100
AcDbEntity
  8
RACCORDO
100
AcDbLine
 62
250
  6
CONTINUOUS
 10
178.3660717939
 20
55.7453157447
 11
178.4237953613
 21
55.7529151965
  0
LINE
  5
254
100
AcDbEntity
  8
RACCORDO
100
AcDbLine
 62
250
  6
CONTINUOUS
 10
178.1957268736
 20
57.0392138733
 11
178.253450441
 21
57.0468133251
  0
LINE
  5
255
100
AcDbEntity
  8
RACCORDO
100
AcDbLine
 62
250
  6
CONTINUOUS
 10
178.0930752917
 20
57.6453415307
 11
178.0353517243
 21
57.6377420789
  0
LINE
  5
256
100
AcDbEntity
  8
RACCORDO
100
AcDbLine
 62
250
  6
CONTINUOUS
 10
177.9227303714
 20
58.9392396593
 11
177.865006804
 21
58.9316402075
  0
LINE
  5
257
100
AcDbEntity
  8
RACCORDO
100
AcDbLine
 62
7
  6
CONTINUOUS
 10
106.2519363348
 20
52.1315290074
 11
105.1269516515
 21
52.1315290074
  0
LINE
  5
258
100
AcDbEntity
  8
RACCORDO
100
AcDbLine
 62
250
  6
CONTINUOUS
 10
105.1434218645
 20
52.2140813742
 11
106.2354661218
 21
52.2140813742
  0
LINE
  5
259
100
AcDbEntity
  8
RACCORDO
100
AcDbLine
 62
250
  6
CONTINUOUS
 10
104.9482324522
 20
52.7121787233
 11
106.4306555341
 21
52.7121787233
  0
LINE
  5
25A
100
AcDbEntity
  8
RACCORDO
100
AcDbLine
 62
250
  6
CONTINUOUS
 10
166.5239476661
 20
54.5849895547
 11
164.9305032293
 21
54.5849895547
  0
LINE
  5
25B
100
AcDbEntity
  8
RACCORDO
100
AcDbLine
 62
250
  6
CONTINUOUS
 10
143.2239476661
 20
54.5849895547
 11
141.6305032293
 21
54.5849895547
  0
LINE
  5
25C
100
AcDbEntity
  8
RACCORDO
100
AcDbLine
 62
250
  6
CONTINUOUS
 10
119.9239476661
 20
54.5849895547
 11
118.3305032293
 21
54.5849895547
  0
LINE
  5
25D
100
AcDbEntity
  8
RACCORDO
100
AcDbLine
 62
250
  6
CONTINUOUS
 10
166.5239476661
 20
54.7849590938
 11
164.9305032293
 21
54.7849590938
  0
LINE
  5
25E
100
AcDbEntity
  8
RACCORDO
100
AcDbLine
 62
250
  6
CONTINUOUS
 10
143.2239476661
 20
54.7849590938
 11
141.6305032293
 21
54.7849590938
  0
LINE
  5
25F
100
AcDbEntity
  8
RACCORDO
100
AcDbLine
 62
250
  6
CONTINUOUS
 10
119.9239476661
 20
54.7849590938
 11
118.3305032293
 21
54.7849590938
  0
LINE
  5
260
100
AcDbEntity
  8
RACCORDO
100
AcDbLine
 62
250
  6
CONTINUOUS
 10
118.3498256538
 20
54.8042815183
 11
119.9046252416
 21
54.8042815183
  0
LINE
  5
261
100
AcDbEntity
  8
RACCORDO
100
AcDbLine
 62
250
  6
CONTINUOUS
 10
141.6498256538
 20
54.8042815183
 11
143.2046252416
 21
54.8042815183
  0
LINE
  5
262
100
AcDbEntity
  8
RACCORDO
100
AcDbLine
 62
250
  6
CONTINUOUS
 10
164.9498256538
 20
54.8042815183
 11
166.5046252416
 21
54.8042815183
  0
LINE
  5
263
100
AcDbEntity
  8
RACCORDO
100
AcDbLine
 62
250
  6
CONTINUOUS
 10
118.3498256538
 20
55.0042510574
 11
119.9046252416
 21
55.0042510574
  0
LINE
  5
264
100
AcDbEntity
  8
RACCORDO
100
AcDbLine
 62
250
  6
CONTINUOUS
 10
141.6498256538
 20
55.0042510574
 11
143.2046252416
 21
55.0042510574
  0
LINE
  5
265
100
AcDbEntity
  8
RACCORDO
100
AcDbLine
 62
250
  6
CONTINUOUS
 10
164.9498256538
 20
55.0042510574
 11
166.5046252416
 21
55.0042510574
  0
LINE
  5
266
100
AcDbEntity
  8
RACCORDO
100
AcDbLine
 62
250
  6
CONTINUOUS
 10
178.3660717939
 20
55.7453157447
 11
178.1661022548
 21
55.7453157447
  0
LINE
  5
267
100
AcDbEntity
  8
RACCORDO
100
AcDbLine
 62
250
  6
CONTINUOUS
 10
178.4237953613
 20
55.7529151965
 11
178.6237649003
 21
55.7529151965
  0
LINE
  5
268
100
AcDbEntity
  8
RACCORDO
100
AcDbLine
 62
250
  6
CONTINUOUS
 10
163.9306555341
 20
55.7848067889
 11
163.7306859951
 21
55.7848067889
  0
LINE
  5
269
100
AcDbEntity
  8
RACCORDO
100
AcDbLine
 62
250
  6
CONTINUOUS
 10
140.6306555341
 20
55.7848067889
 11
140.4306859951
 21
55.7848067889
  0
LINE
  5
26A
100
AcDbEntity
  8
RACCORDO
100
AcDbLine
 62
250
  6
CONTINUOUS
 10
117.3306555341
 20
55.7848067889
 11
117.1306859951
 21
55.7848067889
  0
LINE
  5
26B
100
AcDbEntity
  8
RACCORDO
100
AcDbLine
 62
250
  6
CONTINUOUS
 10
120.9237953613
 20
55.7848067889
 11
121.1237649003
 21
55.7848067889
  0
LINE
  5
26C
100
AcDbEntity
  8
RACCORDO
100
AcDbLine
 62
250
  6
CONTINUOUS
 10
144.2237953613
 20
55.7848067889
 11
144.4237649003
 21
55.7848067889
  0
LINE
  5
26D
100
AcDbEntity
  8
RACCORDO
100
AcDbLine
 62
250
  6
CONTINUOUS
 10
167.5237953613
 20
55.7848067889
 11
167.7237649003
 21
55.7848067889
  0
LINE
  5
26E
100
AcDbEntity
  8
RACCORDO
100
AcDbLine
 62
250
  6
CONTINUOUS
 10
164.1499474977
 20
55.8041292135
 11
163.9499779587
 21
55.8041292135
  0
LINE
  5
26F
100
AcDbEntity
  8
RACCORDO
100
AcDbLine
 62
250
  6
CONTINUOUS
 10
140.8499474977
 20
55.8041292135
 11
140.6499779587
 21
55.8041292135
  0
LINE
  5
270
100
AcDbEntity
  8
RACCORDO
100
AcDbLine
 62
250
  6
CONTINUOUS
 10
117.5499474977
 20
55.8041292135
 11
117.3499779587
 21
55.8041292135
  0
LINE
  5
271
100
AcDbEntity
  8
RACCORDO
100
AcDbLine
 62
250
  6
CONTINUOUS
 10
120.7045033977
 20
55.8041292135
 11
120.9044729367
 21
55.8041292135
  0
LINE
  5
272
100
AcDbEntity
  8
RACCORDO
100
AcDbLine
 62
250
  6
CONTINUOUS
 10
144.0045033977
 20
55.8041292135
 11
144.2044729367
 21
55.8041292135
  0
LINE
  5
273
100
AcDbEntity
  8
RACCORDO
100
AcDbLine
 62
250
  6
CONTINUOUS
 10
167.3045033977
 20
55.8041292135
 11
167.5044729367
 21
55.8041292135
  0
LINE
  5
274
100
AcDbEntity
  8
RACCORDO
100
AcDbLine
 62
250
  6
CONTINUOUS
 10
162.2271339069
 20
44.1385110333
 11
162.1850247551
 21
44.1525360118
  0
LINE
  5
275
100
AcDbEntity
  8
RACCORDO
100
AcDbLine
 62
250
  6
CONTINUOUS
 10
162.4272254477
 20
44.3383587934
 11
162.384750662
 21
44.3525055509
  0
LINE
  5
276
100
AcDbEntity
  8
RACCORDO
100
AcDbLine
 62
250
  6
CONTINUOUS
 10
163.6272254477
 20
45.4491363122
 11
163.6697002334
 21
45.4349895547
  0
LINE
  5
277
100
AcDbEntity
  8
RACCORDO
100
AcDbLine
 62
250
  6
CONTINUOUS
 10
163.8273169885
 20
45.6489840723
 11
163.8694261403
 21
45.6349590938
  0
LINE
  5
278
100
AcDbEntity
  8
RACCORDO
100
AcDbLine
 62
250
  6
CONTINUOUS
 10
115.5499779587
 20
59.1589288012
 11
115.5306555341
 21
59.1782512258
  0
LINE
  5
279
100
AcDbEntity
  8
RACCORDO
100
AcDbLine
 62
250
  6
CONTINUOUS
 10
119.9046252416
 20
54.8042815183
 11
119.9239476661
 21
54.7849590938
  0
LINE
  5
27A
100
AcDbEntity
  8
SMUSSO
100
AcDbLine
 62
7
  6
CONTINUOUS
 10
118.4772254477
 20
57.3314413
 11
118.0771377403
 21
57.7315290074
  0
LINE
  5
27B
100
AcDbEntity
  8
RACCORDO
100
AcDbLine
 62
250
  6
CONTINUOUS
 10
116.5498256538
 20
60.1587764964
 11
116.5305032293
 21
60.1780989209
  0
LINE
  5
27C
100
AcDbEntity
  8
RACCORDO
100
AcDbLine
 62
250
  6
CONTINUOUS
 10
120.9044729367
 20
55.8041292135
 11
120.9237953613
 21
55.7848067889
  0
LINE
  5
27D
100
AcDbEntity
  8
RACCORDO
100
AcDbLine
 62
250
  6
CONTINUOUS
 10
117.0307012256
 20
60.1780989209
 11
117.0500236501
 21
60.1587764964
  0
LINE
  5
27E
100
AcDbEntity
  8
RACCORDO
100
AcDbLine
 62
250
  6
CONTINUOUS
 10
117.3306555341
 20
60.4780532295
 11
117.3499779587
 21
60.4587308049
  0
LINE
  5
27F
100
AcDbEntity
  8
RACCORDO
100
AcDbLine
 62
250
  6
CONTINUOUS
 10
117.3499779587
 20
60.9589288012
 11
117.3306555341
 21
60.9782512258
  0
LINE
  5
280
100
AcDbEntity
  8
RACCORDO
100
AcDbLine
 62
7
  6
CONTINUOUS
 10
119.7772254477
 20
59.4316167147
 11
120.1116296902
 21
59.097215118
  0
LINE
  5
281
100
AcDbEntity
  8
RACCORDO
100
AcDbLine
 62
250
  6
CONTINUOUS
 10
104.9434523254
 20
50.3497377008
 11
104.9272254477
 21
50.4310704174
  0
LINE
  5
282
100
AcDbEntity
  8
RACCORDO
100
AcDbLine
 62
250
  6
CONTINUOUS
 10
105.1434218645
 20
50.5489766405
 11
105.1269516515
 21
50.6315290074
  0
LINE
  5
283
100
AcDbEntity
  8
RACCORDO
100
AcDbLine
 62
250
  6
CONTINUOUS
 10
106.2519363348
 20
150.6315290074
 11
106.2354661218
 21
150.5489766405
  0
LINE
  5
284
100
AcDbEntity
  8
RACCORDO
100
AcDbLine
 62
250
  6
CONTINUOUS
 10
106.4516625386
 20
150.4310704174
 11
106.4354356608
 21
150.3497377008
  0
LINE
  5
285
100
AcDbEntity
  8
RACCORDO
100
AcDbLine
 62
7
  6
CONTINUOUS
 10
166.177269311
 20
55.9315290074
 11
165.2771815844
 21
55.9315290074
  0
LINE
  5
286
100
AcDbEntity
  8
RACCORDO
100
AcDbLine
 62
7
  6
CONTINUOUS
 10
142.877269311
 20
55.9315290074
 11
141.9771815844
 21
55.9315290074
  0
LINE
  5
287
100
AcDbEntity
  8
RACCORDO
100
AcDbLine
 62
7
  6
CONTINUOUS
 10
119.577269311
 20
55.9315290074
 11
118.6771815844
 21
55.9315290074
  0
LINE
  5
288
100
AcDbEntity
  8
RACCORDO
100
AcDbLine
 62
250
  6
CONTINUOUS
 10
120.9237953613
 20
55.9369096414
 11
121.1237649003
 21
55.9369096414
  0
LINE
  5
289
100
AcDbEntity
  8
RACCORDO
100
AcDbLine
 62
250
  6
CONTINUOUS
 10
144.2237953613
 20
55.9369096415
 11
144.4237649003
 21
55.9369096415
  0
LINE
  5
28A
100
AcDbEntity
  8
RACCORDO
100
AcDbLine
 62
250
  6
CONTINUOUS
 10
167.5237953613
 20
55.9369096415
 11
167.7237649003
 21
55.9369096415
  0
LINE
  5
28B
100
AcDbEntity
  8
RACCORDO
100
AcDbLine
 62
250
  6
CONTINUOUS
 10
120.7045033977
 20
55.9555552959
 11
120.9044729367
 21
55.9555552959
  0
LINE
  5
28C
100
AcDbEntity
  8
RACCORDO
100
AcDbLine
 62
250
  6
CONTINUOUS
 10
144.0045033977
 20
55.9555552959
 11
144.2044729367
 21
55.9555552959
  0
LINE
  5
28D
100
AcDbEntity
  8
RACCORDO
100
AcDbLine
 62
250
  6
CONTINUOUS
 10
167.3045033977
 20
55.9555552959
 11
167.5044729367
 21
55.9555552959
  0
LINE
  5
28E
100
AcDbEntity
  8
RACCORDO
100
AcDbLine
 62
250
  6
CONTINUOUS
 10
163.9306555341
 20
56.2850047852
 11
163.7306859951
 21
56.2850047852
  0
LINE
  5
28F
100
AcDbEntity
  8
RACCORDO
100
AcDbLine
 62
250
  6
CONTINUOUS
 10
140.6306555341
 20
56.2850047852
 11
140.4306859951
 21
56.2850047852
  0
LINE
  5
290
100
AcDbEntity
  8
RACCORDO
100
AcDbLine
 62
250
  6
CONTINUOUS
 10
117.3306555341
 20
56.2850047852
 11
117.1306859951
 21
56.2850047852
  0
LINE
  5
291
100
AcDbEntity
  8
RACCORDO
100
AcDbLine
 62
250
  6
CONTINUOUS
 10
164.1499474977
 20
56.3043272098
 11
163.9499779587
 21
56.3043272098
  0
LINE
  5
292
100
AcDbEntity
  8
RACCORDO
100
AcDbLine
 62
250
  6
CONTINUOUS
 10
140.8499474977
 20
56.3043272098
 11
140.6499779587
 21
56.3043272098
  0
LINE
  5
293
100
AcDbEntity
  8
RACCORDO
100
AcDbLine
 62
250
  6
CONTINUOUS
 10
117.5499474977
 20
56.3043272098
 11
117.3499779587
 21
56.3043272098
  0
LINE
  5
294
100
AcDbEntity
  8
RACCORDO
100
AcDbLine
 62
250
  6
CONTINUOUS
 10
163.6307012256
 20
56.3849895547
 11
163.1305032293
 21
56.3849895547
  0
LINE
  5
295
100
AcDbEntity
  8
RACCORDO
100
AcDbLine
 62
250
  6
CONTINUOUS
 10
140.3307012256
 20
56.3849895547
 11
139.8305032293
 21
56.3849895547
  0
LINE
  5
296
100
AcDbEntity
  8
RACCORDO
100
AcDbLine
 62
250
  6
CONTINUOUS
 10
117.0307012256
 20
56.3849895547
 11
116.5305032293
 21
56.3849895547
  0
LINE
  5
297
100
AcDbEntity
  8
RACCORDO
100
AcDbLine
 62
250
  6
CONTINUOUS
 10
163.6307012256
 20
56.5849590938
 11
163.1305032293
 21
56.5849590938
  0
LINE
  5
298
100
AcDbEntity
  8
RACCORDO
100
AcDbLine
 62
250
  6
CONTINUOUS
 10
140.3307012256
 20
56.5849590938
 11
139.8305032293
 21
56.5849590938
  0
LINE
  5
299
100
AcDbEntity
  8
RACCORDO
100
AcDbLine
 62
250
  6
CONTINUOUS
 10
117.0307012256
 20
56.5849590938
 11
116.5305032293
 21
56.5849590938
  0
LINE
  5
29A
100
AcDbEntity
  8
RACCORDO
100
AcDbLine
 62
250
  6
CONTINUOUS
 10
116.5498256538
 20
56.6042815183
 11
117.0500236501
 21
56.6042815183
  0
LINE
  5
29B
100
AcDbEntity
  8
RACCORDO
100
AcDbLine
 62
250
  6
CONTINUOUS
 10
139.8498256538
 20
56.6042815183
 11
140.3500236501
 21
56.6042815183
  0
LINE
  5
29C
100
AcDbEntity
  8
RACCORDO
100
AcDbLine
 62
250
  6
CONTINUOUS
 10
163.1498256538
 20
56.6042815183
 11
163.6500236501
 21
56.6042815183
  0
LINE
  5
29D
100
AcDbEntity
  8
RACCORDO
100
AcDbLine
 62
250
  6
CONTINUOUS
 10
116.5498256538
 20
56.8042510574
 11
117.0500236501
 21
56.8042510574
  0
LINE
  5
29E
100
AcDbEntity
  8
RACCORDO
100
AcDbLine
 62
250
  6
CONTINUOUS
 10
139.8498256538
 20
56.8042510574
 11
140.3500236501
 21
56.8042510574
  0
LINE
  5
29F
100
AcDbEntity
  8
RACCORDO
100
AcDbLine
 62
250
  6
CONTINUOUS
 10
163.1498256538
 20
56.8042510574
 11
163.6500236501
 21
56.8042510574
  0
LINE
  5
2A0
100
AcDbEntity
  8
RACCORDO
100
AcDbLine
 62
250
  6
CONTINUOUS
 10
162.1306555341
 20
57.5848067889
 11
161.9306859951
 21
57.5848067889
  0
LINE
  5
2A1
100
AcDbEntity
  8
RACCORDO
100
AcDbLine
 62
250
  6
CONTINUOUS
 10
138.8306555341
 20
57.5848067889
 11
138.6306859951
 21
57.5848067889
  0
LINE
  5
2A2
100
AcDbEntity
  8
RACCORDO
100
AcDbLine
 62
250
  6
CONTINUOUS
 10
115.5306555341
 20
57.5848067889
 11
115.3306859951
 21
57.5848067889
  0
LINE
  5
2A3
100
AcDbEntity
  8
RACCORDO
100
AcDbLine
 62
250
  6
CONTINUOUS
 10
162.3499474977
 20
57.6041292135
 11
162.1499779587
 21
57.6041292135
  0
LINE
  5
2A4
100
AcDbEntity
  8
RACCORDO
100
AcDbLine
 62
250
  6
CONTINUOUS
 10
139.0499474977
 20
57.6041292135
 11
138.8499779587
 21
57.6041292135
  0
LINE
  5
2A5
100
AcDbEntity
  8
RACCORDO
100
AcDbLine
 62
250
  6
CONTINUOUS
 10
115.7499474977
 20
57.6041292135
 11
115.5499779587
 21
57.6041292135
  0
LINE
  5
2A6
100
AcDbEntity
  8
RACCORDO
100
AcDbLine
 62
7
  6
CONTINUOUS
 10
164.6771377403
 20
57.7315290074
 11
163.4771815844
 21
57.7315290074
  0
LINE
  5
2A7
100
AcDbEntity
  8
RACCORDO
100
AcDbLine
 62
7
  6
CONTINUOUS
 10
141.3771377403
 20
57.7315290074
 11
140.1771815844
 21
57.7315290074
  0
LINE
  5
2A8
100
AcDbEntity
  8
RACCORDO
100
AcDbLine
 62
7
  6
CONTINUOUS
 10
118.0771377403
 20
57.7315290074
 11
116.8771815844
 21
57.7315290074
  0
LINE
  5
2A9
100
AcDbEntity
  8
RACCORDO
100
AcDbLine
 62
7
  6
CONTINUOUS
 10
179.7062489042
 20
58.8984097449
 11
178.9272254477
 21
58.8984097449
  0
LINE
  5
2AA
100
AcDbEntity
  8
RACCORDO
100
AcDbLine
 62
250
  6
CONTINUOUS
 10
177.865006804
 20
58.9316402075
 11
177.665037265
 21
58.9316402075
  0
LINE
  5
2AB
100
AcDbEntity
  8
RACCORDO
100
AcDbLine
 62
250
  6
CONTINUOUS
 10
177.9227303714
 20
58.9392396593
 11
178.1226999105
 21
58.9392396593
  0
LINE
  5
2AC
100
AcDbEntity
  8
RACCORDO
100
AcDbLine
 62
7
  6
CONTINUOUS
 10
116.8771815844
 20
59.0315290074
 11
118.0771377403
 21
59.0315290074
  0
LINE
  5
2AD
100
AcDbEntity
  8
RACCORDO
100
AcDbLine
 62
7
  6
CONTINUOUS
 10
140.1771815844
 20
59.0315290074
 11
141.3771377403
 21
59.0315290074
  0
LINE
  5
2AE
100
AcDbEntity
  8
RACCORDO
100
AcDbLine
 62
7
  6
CONTINUOUS
 10
163.4771815844
 20
59.0315290074
 11
164.6771377403
 21
59.0315290074
  0
LINE
  5
2AF
100
AcDbEntity
  8
RACCORDO
100
AcDbLine
 62
250
  6
CONTINUOUS
 10
162.3499474977
 20
59.1589288012
 11
162.1499779587
 21
59.1589288012
  0
LINE
  5
2B0
100
AcDbEntity
  8
RACCORDO
100
AcDbLine
 62
250
  6
CONTINUOUS
 10
139.0499474977
 20
59.1589288012
 11
138.8499779587
 21
59.1589288012
  0
LINE
  5
2B1
100
AcDbEntity
  8
RACCORDO
100
AcDbLine
 62
250
  6
CONTINUOUS
 10
115.7499474977
 20
59.1589288012
 11
115.5499779587
 21
59.1589288012
  0
LINE
  5
2B2
100
AcDbEntity
  8
RACCORDO
100
AcDbLine
 62
250
  6
CONTINUOUS
 10
162.1306555341
 20
59.1782512258
 11
161.9306859951
 21
59.1782512258
  0
LINE
  5
2B3
100
AcDbEntity
  8
RACCORDO
100
AcDbLine
 62
250
  6
CONTINUOUS
 10
138.8306555341
 20
59.1782512258
 11
138.6306859951
 21
59.1782512258
  0
LINE
  5
2B4
100
AcDbEntity
  8
RACCORDO
100
AcDbLine
 62
250
  6
CONTINUOUS
 10
115.5306555341
 20
59.1782512258
 11
115.3306859951
 21
59.1782512258
  0
LINE
  5
2B5
100
AcDbEntity
  8
RACCORDO
100
AcDbLine
 62
250
  6
CONTINUOUS
 10
163.6500236501
 20
59.9588069573
 11
163.1498256538
 21
59.9588069573
  0
LINE
  5
2B6
100
AcDbEntity
  8
RACCORDO
100
AcDbLine
 62
250
  6
CONTINUOUS
 10
140.3500236501
 20
59.9588069573
 11
139.8498256538
 21
59.9588069573
  0
LINE
  5
2B7
100
AcDbEntity
  8
RACCORDO
100
AcDbLine
 62
250
  6
CONTINUOUS
 10
117.0500236501
 20
59.9588069573
 11
116.5498256538
 21
59.9588069573
  0
LINE
  5
2B8
100
AcDbEntity
  8
RACCORDO
100
AcDbLine
 62
250
  6
CONTINUOUS
 10
163.6500236501
 20
60.1587764964
 11
163.1498256538
 21
60.1587764964
  0
LINE
  5
2B9
100
AcDbEntity
  8
RACCORDO
100
AcDbLine
 62
250
  6
CONTINUOUS
 10
140.3500236501
 20
60.1587764964
 11
139.8498256538
 21
60.1587764964
  0
LINE
  5
2BA
100
AcDbEntity
  8
RACCORDO
100
AcDbLine
 62
250
  6
CONTINUOUS
 10
117.0500236501
 20
60.1587764964
 11
116.5498256538
 21
60.1587764964
  0
LINE
  5
2BB
100
AcDbEntity
  8
RACCORDO
100
AcDbLine
 62
250
  6
CONTINUOUS
 10
116.5305032293
 20
60.1780989209
 11
117.0307012256
 21
60.1780989209
  0
LINE
  5
2BC
100
AcDbEntity
  8
RACCORDO
100
AcDbLine
 62
250
  6
CONTINUOUS
 10
139.8305032293
 20
60.1780989209
 11
140.3307012256
 21
60.1780989209
  0
LINE
  5
2BD
100
AcDbEntity
  8
RACCORDO
100
AcDbLine
 62
250
  6
CONTINUOUS
 10
163.1305032293
 20
60.1780989209
 11
163.6307012256
 21
60.1780989209
  0
LINE
  5
2BE
100
AcDbEntity
  8
RACCORDO
100
AcDbLine
 62
250
  6
CONTINUOUS
 10
116.5305032293
 20
60.37806846
 11
117.0307012256
 21
60.37806846
  0
LINE
  5
2BF
100
AcDbEntity
  8
RACCORDO
100
AcDbLine
 62
250
  6
CONTINUOUS
 10
139.8305032293
 20
60.37806846
 11
140.3307012256
 21
60.37806846
  0
LINE
  5
2C0
100
AcDbEntity
  8
RACCORDO
100
AcDbLine
 62
250
  6
CONTINUOUS
 10
163.1305032293
 20
60.37806846
 11
163.6307012256
 21
60.37806846
  0
LINE
  5
2C1
100
AcDbEntity
  8
RACCORDO
100
AcDbLine
 62
250
  6
CONTINUOUS
 10
164.1499474977
 20
60.4587308049
 11
163.9499779587
 21
60.4587308049
  0
LINE
  5
2C2
100
AcDbEntity
  8
RACCORDO
100
AcDbLine
 62
250
  6
CONTINUOUS
 10
140.8499474977
 20
60.4587308049
 11
140.6499779587
 21
60.4587308049
  0
LINE
  5
2C3
100
AcDbEntity
  8
RACCORDO
100
AcDbLine
 62
250
  6
CONTINUOUS
 10
117.5499474977
 20
60.4587308049
 11
117.3499779587
 21
60.4587308049
  0
LINE
  5
2C4
100
AcDbEntity
  8
RACCORDO
100
AcDbLine
 62
250
  6
CONTINUOUS
 10
163.9306555341
 20
60.4780532295
 11
163.7306859951
 21
60.4780532295
  0
LINE
  5
2C5
100
AcDbEntity
  8
RACCORDO
100
AcDbLine
 62
250
  6
CONTINUOUS
 10
140.6306555341
 20
60.4780532295
 11
140.4306859951
 21
60.4780532295
  0
LINE
  5
2C6
100
AcDbEntity
  8
RACCORDO
100
AcDbLine
 62
250
  6
CONTINUOUS
 10
117.3306555341
 20
60.4780532295
 11
117.1306859951
 21
60.4780532295
  0
LINE
  5
2C7
100
AcDbEntity
  8
RACCORDO
100
AcDbLine
 62
250
  6
CONTINUOUS
 10
118.3498256538
 20
61.9587764964
 11
118.3305032293
 21
61.9780989209
  0
LINE
  5
2C8
100
AcDbEntity
  8
RACCORDO
100
AcDbLine
 62
250
  6
CONTINUOUS
 10
106.2354661218
 20
52.2140813742
 11
106.2519363348
 21
52.1315290074
  0
LINE
  5
2C9
100
AcDbEntity
  8
RACCORDO
100
AcDbLine
 62
250
  6
CONTINUOUS
 10
106.4354356608
 20
52.4133203139
 11
106.4516625386
 21
52.3319875973
  0
LINE
  5
2CA
100
AcDbEntity
  8
RACCORDO
100
AcDbLine
 62
7
  6
CONTINUOUS
 10
103.6272254477
 20
86.5286749367
 11
103.6272254477
 21
97.234383078
  0
LINE
  5
2CB
100
AcDbEntity
  8
RACCORDO
100
AcDbLine
 62
7
  6
CONTINUOUS
 10
103.6272254477
 20
105.5286749367
 11
103.6272254477
 21
116.234383078
  0
LINE
  5
2CC
100
AcDbEntity
  8
RACCORDO
100
AcDbLine
 62
250
  6
CONTINUOUS
 10
103.8272254477
 20
86.654800019
 11
103.8272254477
 21
97.1082579957
  0
LINE
  5
2CD
100
AcDbEntity
  8
RACCORDO
100
AcDbLine
 62
250
  6
CONTINUOUS
 10
103.8272254477
 20
105.654800019
 11
103.8272254477
 21
116.1082579957
  0
LINE
  5
2CE
100
AcDbEntity
  8
RACCORDO
100
AcDbLine
 62
250
  6
CONTINUOUS
 10
104.3478131446
 20
86.654800019
 11
104.3478131446
 21
97.1082579957
  0
LINE
  5
2CF
100
AcDbEntity
  8
RACCORDO
100
AcDbLine
 62
250
  6
CONTINUOUS
 10
104.3478131446
 20
105.654800019
 11
104.3478131446
 21
116.1082579957
  0
LINE
  5
2D0
100
AcDbEntity
  8
RACCORDO
100
AcDbLine
 62
250
  6
CONTINUOUS
 10
104.5447746952
 20
86.6374294038
 11
104.5447746952
 21
97.1256286109
  0
LINE
  5
2D1
100
AcDbEntity
  8
RACCORDO
100
AcDbLine
 62
250
  6
CONTINUOUS
 10
104.5447746952
 20
105.6374294038
 11
104.5447746952
 21
116.1256286109
  0
LINE
  5
2D2
100
AcDbEntity
  8
DRAFT
100
AcDbLine
 62
7
  6
CONTINUOUS
 10
104.7272254477
 20
116.234383078
 11
104.7272254477
 21
105.5286749367
  0
LINE
  5
2D3
100
AcDbEntity
  8
DRAFT
100
AcDbLine
 62
7
  6
CONTINUOUS
 10
104.7272254477
 20
97.234383078
 11
104.7272254477
 21
86.5286749367
  0
LINE
  5
2D4
100
AcDbEntity
  8
DRAFT
100
AcDbLine
 62
7
  6
CONTINUOUS
 10
104.9272254477
 20
105.3815290074
 11
104.9272254477
 21
97.3815290074
  0
LINE
  5
2D5
100
AcDbEntity
  8
RACCORDO
100
AcDbLine
 62
7
  6
CONTINUOUS
 10
104.9272254477
 20
45.1313767025
 11
104.9272254477
 21
86.3815290074
  0
LINE
  5
2D6
100
AcDbEntity
  8
RACCORDO
100
AcDbLine
 62
7
  6
CONTINUOUS
 10
104.9272254477
 20
116.3815290074
 11
104.9272254477
 21
157.6316813122
  0
LINE
  5
2D7
100
AcDbEntity
  8
RACCORDO
100
AcDbLine
 62
250
  6
CONTINUOUS
 10
104.9482324522
 20
150.0508792914
 11
104.9482324522
 21
116.2550370607
  0
LINE
  5
2D8
100
AcDbEntity
  8
RACCORDO
100
AcDbLine
 62
250
  6
CONTINUOUS
 10
104.9482324522
 20
105.508020954
 11
104.9482324522
 21
97.2550370607
  0
LINE
  5
2D9
100
AcDbEntity
  8
RACCORDO
100
AcDbLine
 62
250
  6
CONTINUOUS
 10
104.9482324522
 20
86.508020954
 11
104.9482324522
 21
52.7121787233
  0
LINE
  5
2DA
100
AcDbEntity
  8
RACCORDO
100
AcDbLine
 62
250
  6
CONTINUOUS
 10
104.9482324522
 20
45.152383707
 11
104.9482324522
 21
50.0508792914
  0
LINE
  5
2DB
100
AcDbEntity
  8
RACCORDO
100
AcDbLine
 62
250
  6
CONTINUOUS
 10
104.9482324522
 20
152.7121787233
 11
104.9482324522
 21
157.6106743077
  0
LINE
  5
2DC
100
AcDbEntity
  8
RACCORDO
100
AcDbLine
 62
250
  6
CONTINUOUS
 10
105.1482019912
 20
150.0508792914
 11
105.1482019912
 21
116.234383078
  0
LINE
  5
2DD
100
AcDbEntity
  8
RACCORDO
100
AcDbLine
 62
250
  6
CONTINUOUS
 10
105.1482019912
 20
105.5286749367
 11
105.1482019912
 21
97.234383078
  0
LINE
  5
2DE
100
AcDbEntity
  8
RACCORDO
100
AcDbLine
 62
250
  6
CONTINUOUS
 10
105.1482019912
 20
86.5286749367
 11
105.1482019912
 21
52.7121787233
  0
LINE
  5
2DF
100
AcDbEntity
  8
RACCORDO
100
AcDbLine
 62
250
  6
CONTINUOUS
 10
105.1482019912
 20
45.152383707
 11
105.1482019912
 21
50.0508792914
  0
LINE
  5
2E0
100
AcDbEntity
  8
RACCORDO
100
AcDbLine
 62
250
  6
CONTINUOUS
 10
105.1482019912
 20
152.7121787233
 11
105.1482019912
 21
157.6106743077
  0
LINE
  5
2E1
100
AcDbEntity
  8
RACCORDO
100
AcDbLine
 62
250
  6
CONTINUOUS
 10
105.9480801473
 20
158.6105220029
 11
105.9480801473
 21
158.4105524638
  0
LINE
  5
2E2
100
AcDbEntity
  8
RACCORDO
100
AcDbLine
 62
250
  6
CONTINUOUS
 10
105.9480801473
 20
44.1525360118
 11
105.9480801473
 21
44.3525055509
  0
LINE
  5
2E3
100
AcDbEntity
  8
DRAFT
100
AcDbLine
 62
7
  6
CONTINUOUS
 10
104.9272254477
 20
116.3815290074
 11
104.925448932
 21
116.3708318645
  0
LINE
  5
2E4
100
AcDbEntity
  8
RACCORDO
100
AcDbLine
 62
7
  6
CONTINUOUS
 10
104.9482324522
 20
105.508020954
 11
104.928941009
 21
105.3918591181
  0
LINE
  5
2E5
100
AcDbEntity
  8
DRAFT
100
AcDbLine
 62
7
  6
CONTINUOUS
 10
104.9272254477
 20
97.3815290074
 11
104.925448932
 21
97.3708318645
  0
LINE
  5
2E6
100
AcDbEntity
  8
RACCORDO
100
AcDbLine
 62
250
  6
CONTINUOUS
 10
120.7045033977
 20
60.8075027188
 11
120.9044729367
 21
60.8075027188
  0
LINE
  5
2E7
100
AcDbEntity
  8
RACCORDO
100
AcDbLine
 62
250
  6
CONTINUOUS
 10
144.0045033977
 20
60.8075027188
 11
144.2044729367
 21
60.8075027188
  0
LINE
  5
2E8
100
AcDbEntity
  8
RACCORDO
100
AcDbLine
 62
250
  6
CONTINUOUS
 10
167.3045033977
 20
60.8075027188
 11
167.5044729367
 21
60.8075027188
  0
LINE
  5
2E9
100
AcDbEntity
  8
RACCORDO
100
AcDbLine
 62
250
  6
CONTINUOUS
 10
120.9237953613
 20
60.8261483733
 11
121.1237649003
 21
60.8261483733
  0
LINE
  5
2EA
100
AcDbEntity
  8
RACCORDO
100
AcDbLine
 62
250
  6
CONTINUOUS
 10
144.2237953613
 20
60.8261483733
 11
144.4237649003
 21
60.8261483733
  0
LINE
  5
2EB
100
AcDbEntity
  8
RACCORDO
100
AcDbLine
 62
250
  6
CONTINUOUS
 10
167.5237953613
 20
60.8261483732
 11
167.7237649003
 21
60.8261483732
  0
LINE
  5
2EC
100
AcDbEntity
  8
RACCORDO
100
AcDbLine
 62
7
  6
CONTINUOUS
 10
118.6771815844
 20
60.8315290074
 11
119.577269311
 21
60.8315290074
  0
LINE
  5
2ED
100
AcDbEntity
  8
RACCORDO
100
AcDbLine
 62
7
  6
CONTINUOUS
 10
141.9771815844
 20
60.8315290074
 11
142.877269311
 21
60.8315290074
  0
LINE
  5
2EE
100
AcDbEntity
  8
RACCORDO
100
AcDbLine
 62
7
  6
CONTINUOUS
 10
165.2771815844
 20
60.8315290074
 11
166.177269311
 21
60.8315290074
  0
LINE
  5
2EF
100
AcDbEntity
  8
RACCORDO
100
AcDbLine
 62
250
  6
CONTINUOUS
 10
164.1499474977
 20
60.9589288012
 11
163.9499779587
 21
60.9589288012
  0
LINE
  5
2F0
100
AcDbEntity
  8
RACCORDO
100
AcDbLine
 62
250
  6
CONTINUOUS
 10
140.8499474977
 20
60.9589288012
 11
140.6499779587
 21
60.9589288012
  0
LINE
  5
2F1
100
AcDbEntity
  8
RACCORDO
100
AcDbLine
 62
250
  6
CONTINUOUS
 10
117.5499474977
 20
60.9589288012
 11
117.3499779587
 21
60.9589288012
  0
LINE
  5
2F2
100
AcDbEntity
  8
RACCORDO
100
AcDbLine
 62
250
  6
CONTINUOUS
 10
120.7045033977
 20
60.9589288012
 11
120.9044729367
 21
60.9589288012
  0
LINE
  5
2F3
100
AcDbEntity
  8
RACCORDO
100
AcDbLine
 62
250
  6
CONTINUOUS
 10
144.0045033977
 20
60.9589288012
 11
144.2044729367
 21
60.9589288012
  0
LINE
  5
2F4
100
AcDbEntity
  8
RACCORDO
100
AcDbLine
 62
250
  6
CONTINUOUS
 10
167.3045033977
 20
60.9589288012
 11
167.5044729367
 21
60.9589288012
  0
LINE
  5
2F5
100
AcDbEntity
  8
RACCORDO
100
AcDbLine
 62
250
  6
CONTINUOUS
 10
163.9306555341
 20
60.9782512258
 11
163.7306859951
 21
60.9782512258
  0
LINE
  5
2F6
100
AcDbEntity
  8
RACCORDO
100
AcDbLine
 62
250
  6
CONTINUOUS
 10
140.6306555341
 20
60.9782512258
 11
140.4306859951
 21
60.9782512258
  0
LINE
  5
2F7
100
AcDbEntity
  8
RACCORDO
100
AcDbLine
 62
250
  6
CONTINUOUS
 10
117.3306555341
 20
60.9782512258
 11
117.1306859951
 21
60.9782512258
  0
LINE
  5
2F8
100
AcDbEntity
  8
RACCORDO
100
AcDbLine
 62
250
  6
CONTINUOUS
 10
120.9237953613
 20
60.9782512258
 11
121.1237649003
 21
60.9782512258
  0
LINE
  5
2F9
100
AcDbEntity
  8
RACCORDO
100
AcDbLine
 62
250
  6
CONTINUOUS
 10
144.2237953613
 20
60.9782512258
 11
144.4237649003
 21
60.9782512258
  0
LINE
  5
2FA
100
AcDbEntity
  8
RACCORDO
100
AcDbLine
 62
250
  6
CONTINUOUS
 10
167.5237953613
 20
60.9782512258
 11
167.7237649003
 21
60.9782512258
  0
LINE
  5
2FB
100
AcDbEntity
  8
RACCORDO
100
AcDbLine
 62
250
  6
CONTINUOUS
 10
166.5046252416
 20
61.7588069573
 11
164.9498256538
 21
61.7588069573
  0
LINE
  5
2FC
100
AcDbEntity
  8
RACCORDO
100
AcDbLine
 62
250
  6
CONTINUOUS
 10
143.2046252416
 20
61.7588069573
 11
141.6498256538
 21
61.7588069573
  0
LINE
  5
2FD
100
AcDbEntity
  8
RACCORDO
100
AcDbLine
 62
250
  6
CONTINUOUS
 10
119.9046252416
 20
61.7588069573
 11
118.3498256538
 21
61.7588069573
  0
LINE
  5
2FE
100
AcDbEntity
  8
RACCORDO
100
AcDbLine
 62
250
  6
CONTINUOUS
 10
166.5046252416
 20
61.9587764964
 11
164.9498256538
 21
61.9587764964
  0
LINE
  5
2FF
100
AcDbEntity
  8
RACCORDO
100
AcDbLine
 62
250
  6
CONTINUOUS
 10
143.2046252416
 20
61.9587764964
 11
141.6498256538
 21
61.9587764964
  0
LINE
  5
300
100
AcDbEntity
  8
RACCORDO
100
AcDbLine
 62
250
  6
CONTINUOUS
 10
119.9046252416
 20
61.9587764964
 11
118.3498256538
 21
61.9587764964
  0
LINE
  5
301
100
AcDbEntity
  8
RACCORDO
100
AcDbLine
 62
250
  6
CONTINUOUS
 10
118.3305032293
 20
61.9780989209
 11
119.9239476661
 21
61.9780989209
  0
LINE
  5
302
100
AcDbEntity
  8
RACCORDO
100
AcDbLine
 62
250
  6
CONTINUOUS
 10
141.6305032293
 20
61.9780989209
 11
143.2239476661
 21
61.9780989209
  0
LINE
  5
303
100
AcDbEntity
  8
RACCORDO
100
AcDbLine
 62
250
  6
CONTINUOUS
 10
164.9305032293
 20
61.9780989209
 11
166.5239476661
 21
61.9780989209
  0
LINE
  5
304
100
AcDbEntity
  8
RACCORDO
100
AcDbLine
 62
250
  6
CONTINUOUS
 10
118.3305032293
 20
62.17806846
 11
119.9239476661
 21
62.17806846
  0
LINE
  5
305
100
AcDbEntity
  8
RACCORDO
100
AcDbLine
 62
250
  6
CONTINUOUS
 10
141.6305032293
 20
62.17806846
 11
143.2239476661
 21
62.17806846
  0
LINE
  5
306
100
AcDbEntity
  8
RACCORDO
100
AcDbLine
 62
250
  6
CONTINUOUS
 10
164.9305032293
 20
62.17806846
 11
166.5239476661
 21
62.17806846
  0
LINE
  5
307
100
AcDbEntity
  8
RACCORDO
100
AcDbLine
 62
250
  6
CONTINUOUS
 10
177.9227303714
 20
63.6238183554
 11
178.1226999105
 21
63.6238183554
  0
LINE
  5
308
100
AcDbEntity
  8
RACCORDO
100
AcDbLine
 62
250
  6
CONTINUOUS
 10
177.865006804
 20
63.6314178072
 11
177.665037265
 21
63.6314178072
  0
LINE
  5
309
100
AcDbEntity
  8
RACCORDO
100
AcDbLine
 62
7
  6
CONTINUOUS
 10
179.7062489042
 20
63.6646482698
 11
178.9272254477
 21
63.6646482698
  0
LINE
  5
30A
100
AcDbEntity
  8
DRAFT
100
AcDbLine
 62
7
  6
CONTINUOUS
 10
104.925448932
 20
86.3922261502
 11
104.9272254477
 21
86.3815290074
  0
LINE
  5
30B
100
AcDbEntity
  8
RACCORDO
100
AcDbLine
 62
7
  6
CONTINUOUS
 10
104.928941009
 20
97.3711988966
 11
104.9482324522
 21
97.2550370607
  0
LINE
  5
30C
100
AcDbEntity
  8
DRAFT
100
AcDbLine
 62
7
  6
CONTINUOUS
 10
104.925448932
 20
105.3922261502
 11
104.9272254477
 21
105.3815290074
  0
LINE
  5
30D
100
AcDbEntity
  8
RACCORDO
100
AcDbLine
 62
250
  6
CONTINUOUS
 10
106.2306859951
 20
156.9281293819
 11
106.2306859951
 21
152.7121787233
  0
LINE
  5
30E
100
AcDbEntity
  8
RACCORDO
100
AcDbLine
 62
250
  6
CONTINUOUS
 10
106.2306859951
 20
150.0508792914
 11
106.2306859951
 21
52.7121787233
  0
LINE
  5
30F
100
AcDbEntity
  8
RACCORDO
100
AcDbLine
 62
250
  6
CONTINUOUS
 10
106.2306859951
 20
50.0508792914
 11
106.2306859951
 21
45.8349286328
  0
LINE
  5
310
100
AcDbEntity
  8
RACCORDO
100
AcDbLine
 62
250
  6
CONTINUOUS
 10
106.4306555341
 20
156.9281293819
 11
106.4306555341
 21
152.7121787233
  0
LINE
  5
311
100
AcDbEntity
  8
RACCORDO
100
AcDbLine
 62
250
  6
CONTINUOUS
 10
106.4306555341
 20
150.0508792914
 11
106.4306555341
 21
52.7121787233
  0
LINE
  5
312
100
AcDbEntity
  8
RACCORDO
100
AcDbLine
 62
250
  6
CONTINUOUS
 10
106.4306555341
 20
50.0508792914
 11
106.4306555341
 21
45.8349286328
  0
LINE
  5
313
100
AcDbEntity
  8
RACCORDO
100
AcDbLine
 62
7
  6
CONTINUOUS
 10
106.4516625386
 20
152.3319875973
 11
106.4516625386
 21
150.4310704174
  0
LINE
  5
314
100
AcDbEntity
  8
RACCORDO
100
AcDbLine
 62
7
  6
CONTINUOUS
 10
106.4516625386
 20
52.3319875973
 11
106.4516625386
 21
50.4310704174
  0
LINE
  5
315
100
AcDbEntity
  8
RACCORDO
100
AcDbLine
 62
250
  6
CONTINUOUS
 10
106.4883791015
 20
68.1815290074
 11
106.4883791015
 21
48.5815290074
  0
LINE
  5
316
100
AcDbEntity
  8
RACCORDO
100
AcDbLine
 62
250
  6
CONTINUOUS
 10
106.5058341664
 20
45.9101072651
 11
106.5058341664
 21
48.1815290074
  0
LINE
  5
317
100
AcDbEntity
  8
RACCORDO
100
AcDbLine
 62
250
  6
CONTINUOUS
 10
106.5058341664
 20
68.5815290074
 11
106.5058341664
 21
156.8529507496
  0
LINE
  5
318
100
AcDbEntity
  8
RACCORDO
100
AcDbLine
 62
250
  6
CONTINUOUS
 10
106.6306250731
 20
45.6349590938
 11
106.6306250731
 21
45.4349895547
  0
LINE
  5
319
100
AcDbEntity
  8
RACCORDO
100
AcDbLine
 62
250
  6
CONTINUOUS
 10
106.6306250731
 20
157.1280989209
 11
106.6306250731
 21
157.32806846
  0
LINE
  5
31A
100
AcDbEntity
  8
RACCORDO
100
AcDbLine
 62
250
  6
CONTINUOUS
 10
106.6883486405
 20
68.1815290074
 11
106.6883486405
 21
48.5815290074
  0
LINE
  5
31B
100
AcDbEntity
  8
RACCORDO
100
AcDbLine
 62
250
  6
CONTINUOUS
 10
106.7058037055
 20
45.7101377261
 11
106.7058037055
 21
48.3815290074
  0
LINE
  5
31C
100
AcDbEntity
  8
RACCORDO
100
AcDbLine
 62
250
  6
CONTINUOUS
 10
106.7058037055
 20
68.3815290074
 11
106.7058037055
 21
157.0529202886
  0
LINE
  5
31D
100
AcDbEntity
  8
RACCORDO
100
AcDbLine
 62
250
  6
CONTINUOUS
 10
107.6678477613
 20
155.0909676157
 11
107.6678477613
 21
68.3815290074
  0
LINE
  5
31E
100
AcDbEntity
  8
RACCORDO
100
AcDbLine
 62
250
  6
CONTINUOUS
 10
107.6678477613
 20
47.672090399
 11
107.6678477613
 21
48.3815290074
  0
LINE
  5
31F
100
AcDbEntity
  8
RACCORDO
100
AcDbLine
 62
250
  6
CONTINUOUS
 10
107.6853028263
 20
48.5815290074
 11
107.6853028263
 21
68.1815290074
  0
LINE
  5
320
100
AcDbEntity
  8
RACCORDO
100
AcDbLine
 62
250
  6
CONTINUOUS
 10
107.8678173004
 20
155.0909676157
 11
107.8678173004
 21
68.5815290074
  0
LINE
  5
321
100
AcDbEntity
  8
RACCORDO
100
AcDbLine
 62
250
  6
CONTINUOUS
 10
107.8678173004
 20
48.1815290074
 11
107.8678173004
 21
47.672090399
  0
LINE
  5
322
100
AcDbEntity
  8
RACCORDO
100
AcDbLine
 62
250
  6
CONTINUOUS
 10
107.8852723653
 20
48.5815290074
 11
107.8852723653
 21
68.1815290074
  0
LINE
  5
323
100
AcDbEntity
  8
RACCORDO
100
AcDbLine
 62
250
  6
CONTINUOUS
 10
107.9237953613
 20
155.0349895547
 11
107.9237953613
 21
47.72806846
  0
LINE
  5
324
100
AcDbEntity
  8
RACCORDO
100
AcDbLine
 62
250
  6
CONTINUOUS
 10
108.0677868394
 20
155.4909066937
 11
108.0677868394
 21
155.2909371547
  0
LINE
  5
325
100
AcDbEntity
  8
RACCORDO
100
AcDbLine
 62
250
  6
CONTINUOUS
 10
108.0677868394
 20
47.272151321
 11
108.0677868394
 21
47.47212086
  0
LINE
  5
326
100
AcDbEntity
  8
RACCORDO
100
AcDbLine
 62
250
  6
CONTINUOUS
 10
108.1237649003
 20
47.5280989209
 11
108.1237649003
 21
155.2349590938
  0
LINE
  5
327
100
AcDbEntity
  8
0
100
AcDbLine
 62
7
  6
CONTINUOUS
 10
108.6684572282
 20
153.7315290074
 11
108.6684572282
 21
48.0315290074
  0
LINE
  5
328
100
AcDbEntity
  8
0
100
AcDbLine
 62
250
  6
CONTINUOUS
 10
108.7912792796
 20
153.7315290074
 11
108.7912792796
 21
48.0315290074
  0
LINE
  5
329
100
AcDbEntity
  8
0
100
AcDbLine
 62
250
  6
CONTINUOUS
 10
109.0631716157
 20
153.7315290074
 11
109.0631716157
 21
48.0315290074
  0
LINE
  5
32A
100
AcDbEntity
  8
0
100
AcDbLine
 62
7
  6
CONTINUOUS
 10
109.1859936672
 20
153.7315290074
 11
109.1859936672
 21
48.0315290074
  0
LINE
  5
32B
100
AcDbEntity
  8
RACCORDO
100
AcDbLine
 62
250
  6
CONTINUOUS
 10
109.2306859951
 20
49.2349286328
 11
109.2306859951
 21
153.5281293819
  0
LINE
  5
32C
100
AcDbEntity
  8
0
100
AcDbLine
 62
250
  6
CONTINUOUS
 10
109.4272254477
 20
153.9727607879
 11
109.4272254477
 21
154.4902972268
  0
LINE
  5
32D
100
AcDbEntity
  8
RACCORDO
100
AcDbLine
 62
250
  6
CONTINUOUS
 10
109.4306555341
 20
49.2349286328
 11
109.4306555341
 21
153.5281293819
  0
LINE
  5
32E
100
AcDbEntity
  8
RACCORDO
100
AcDbLine
 62
250
  6
CONTINUOUS
 10
109.4691785301
 20
66.1883577874
 11
109.4691785301
 21
49.2734516288
  0
LINE
  5
32F
100
AcDbEntity
  8
RACCORDO
100
AcDbLine
 62
250
  6
CONTINUOUS
 10
109.4848880885
 20
153.4738968275
 11
109.4848880885
 21
68.5747002273
  0
LINE
  5
330
100
AcDbEntity
  8
RACCORDO
100
AcDbLine
 62
250
  6
CONTINUOUS
 10
109.6306250731
 20
153.92806846
 11
109.6306250731
 21
153.7280989209
  0
LINE
  5
331
100
AcDbEntity
  8
RACCORDO
100
AcDbLine
 62
250
  6
CONTINUOUS
 10
109.6306250731
 20
48.8349895547
 11
109.6306250731
 21
49.0349590938
  0
LINE
  5
332
100
AcDbEntity
  8
RACCORDO
100
AcDbLine
 62
250
  6
CONTINUOUS
 10
109.6691480691
 20
49.0734820898
 11
109.6691480691
 21
66.1883577874
  0
LINE
  5
333
100
AcDbEntity
  8
RACCORDO
100
AcDbLine
 62
250
  6
CONTINUOUS
 10
109.6848576276
 20
153.6738663665
 11
109.6848576276
 21
68.5747002273
  0
LINE
  5
334
100
AcDbEntity
  8
RACCORDO
100
AcDbLine
 62
250
  6
CONTINUOUS
 10
109.4838118974
 20
68.2874449532
 11
109.4708696875
 21
66.6397589325
  0
LINE
  5
335
100
AcDbEntity
  8
RACCORDO
100
AcDbLine
 62
250
  6
CONTINUOUS
 10
109.6837814365
 20
68.2053720177
 11
109.6708392266
 21
66.557685997
  0
LINE
  5
336
100
AcDbEntity
  8
RACCORDO
100
AcDbLine
 62
7
  6
CONTINUOUS
 10
104.9482324522
 20
86.508020954
 11
104.928941009
 21
86.3918591181
  0
LINE
  5
337
100
AcDbEntity
  8
RACCORDO
100
AcDbLine
 62
7
  6
CONTINUOUS
 10
104.7272254477
 20
116.234383078
 11
104.5447746952
 21
116.1256286109
  0
LINE
  5
338
100
AcDbEntity
  8
RACCORDO
100
AcDbLine
 62
250
  6
CONTINUOUS
 10
109.4691785301
 20
66.1883577874
 11
175.3852723653
 21
66.1883577874
  0
LINE
  5
339
100
AcDbEntity
  8
RACCORDO
100
AcDbLine
 62
250
  6
CONTINUOUS
 10
175.1836116688
 20
66.557685997
 11
109.6708392266
 21
66.557685997
  0
LINE
  5
33A
100
AcDbEntity
  8
RACCORDO
100
AcDbLine
 62
250
  6
CONTINUOUS
 10
178.4237953613
 20
66.8101428182
 11
178.6237649003
 21
66.8101428182
  0
LINE
  5
33B
100
AcDbEntity
  8
RACCORDO
100
AcDbLine
 62
250
  6
CONTINUOUS
 10
178.3660717939
 20
66.81774227
 11
178.1661022548
 21
66.81774227
  0
LINE
  5
33C
100
AcDbEntity
  8
RACCORDO
100
AcDbLine
 62
250
  6
CONTINUOUS
 10
106.4883791015
 20
68.1815290074
 11
107.8852723653
 21
68.1815290074
  0
LINE
  5
33D
100
AcDbEntity
  8
RACCORDO
100
AcDbLine
 62
250
  6
CONTINUOUS
 10
176.9691785301
 20
68.1815290074
 11
178.3660717939
 21
68.1815290074
  0
LINE
  5
33E
100
AcDbEntity
  8
RACCORDO
100
AcDbLine
 62
250
  6
CONTINUOUS
 10
175.1706694589
 20
68.2053720177
 11
109.6837814365
 21
68.2053720177
  0
LINE
  5
33F
100
AcDbEntity
  8
RACCORDO
100
AcDbLine
 62
7
  6
CONTINUOUS
 10
178.1591202289
 20
68.3815290074
 11
177.1761300951
 21
68.3815290074
  0
LINE
  5
340
100
AcDbEntity
  8
RACCORDO
100
AcDbLine
 62
7
  6
CONTINUOUS
 10
107.6783208003
 20
68.3815290074
 11
106.6953306665
 21
68.3815290074
  0
LINE
  5
341
100
AcDbEntity
  8
RACCORDO
100
AcDbLine
 62
250
  6
CONTINUOUS
 10
109.4848880885
 20
68.5747002273
 11
175.3695628069
 21
68.5747002273
  0
LINE
  5
342
100
AcDbEntity
  8
RACCORDO
100
AcDbLine
 62
250
  6
CONTINUOUS
 10
106.4953611275
 20
68.5815290074
 11
107.8782903393
 21
68.5815290074
  0
LINE
  5
343
100
AcDbEntity
  8
RACCORDO
100
AcDbLine
 62
250
  6
CONTINUOUS
 10
176.9761605561
 20
68.5815290074
 11
178.3590897679
 21
68.5815290074
  0
LINE
  5
344
100
AcDbEntity
  8
RACCORDO
100
AcDbLine
 62
250
  6
CONTINUOUS
 10
177.9227303714
 20
63.6238183554
 11
177.865006804
 21
63.6314178072
  0
LINE
  5
345
100
AcDbEntity
  8
RACCORDO
100
AcDbLine
 62
7
  6
CONTINUOUS
 10
104.7272254477
 20
86.5286749367
 11
104.5447746952
 21
86.6374294038
  0
LINE
  5
346
100
AcDbEntity
  8
RACCORDO
100
AcDbLine
 62
250
  6
CONTINUOUS
 10
138.8499779587
 20
59.1589288012
 11
138.8306555341
 21
59.1782512258
  0
LINE
  5
347
100
AcDbEntity
  8
RACCORDO
100
AcDbLine
 62
250
  6
CONTINUOUS
 10
143.2046252416
 20
54.8042815183
 11
143.2239476661
 21
54.7849590938
  0
LINE
  5
348
100
AcDbEntity
  8
RACCORDO
100
AcDbLine
 62
7
  6
CONTINUOUS
 10
104.928941009
 20
116.3711988966
 11
104.9482324522
 21
116.2550370607
  0
LINE
  5
349
100
AcDbEntity
  8
RACCORDO
100
AcDbLine
 62
7
  6
CONTINUOUS
 10
110.9272254477
 20
152.9315290074
 11
110.9272254477
 21
78.4315290074
  0
LINE
  5
34A
100
AcDbEntity
  8
RACCORDO
100
AcDbLine
 62
250
  6
CONTINUOUS
 10
115.3306859951
 20
57.5848067889
 11
115.3306859951
 21
59.1782512258
  0
LINE
  5
34B
100
AcDbEntity
  8
RACCORDO
100
AcDbLine
 62
250
  6
CONTINUOUS
 10
104.9434523254
 20
52.4133203139
 11
104.9272254477
 21
52.3319875973
  0
LINE
  5
34C
100
AcDbEntity
  8
RACCORDO
100
AcDbLine
 62
250
  6
CONTINUOUS
 10
178.0930752917
 20
64.917716484
 11
178.0353517243
 21
64.9253159358
  0
LINE
  5
34D
100
AcDbEntity
  8
RACCORDO
100
AcDbLine
 62
250
  6
CONTINUOUS
 10
178.253450441
 20
65.5162446896
 11
178.1957268736
 21
65.5238441414
  0
LINE
  5
34E
100
AcDbEntity
  8
RACCORDO
100
AcDbLine
 62
250
  6
CONTINUOUS
 10
178.4237953613
 20
66.8101428182
 11
178.3660717939
 21
66.81774227
  0
LINE
  5
34F
100
AcDbEntity
  8
SMUSSO
100
AcDbLine
 62
7
  6
CONTINUOUS
 10
141.7772254477
 20
57.3314413
 11
141.3771377403
 21
57.7315290074
  0
LINE
  5
350
100
AcDbEntity
  8
RACCORDO
100
AcDbLine
 62
250
  6
CONTINUOUS
 10
139.8498256538
 20
60.1587764964
 11
139.8305032293
 21
60.1780989209
  0
LINE
  5
351
100
AcDbEntity
  8
RACCORDO
100
AcDbLine
 62
250
  6
CONTINUOUS
 10
144.2044729367
 20
55.8041292135
 11
144.2237953613
 21
55.7848067889
  0
LINE
  5
352
100
AcDbEntity
  8
RACCORDO
100
AcDbLine
 62
250
  6
CONTINUOUS
 10
140.3307012256
 20
60.1780989209
 11
140.3500236501
 21
60.1587764964
  0
LINE
  5
353
100
AcDbEntity
  8
RACCORDO
100
AcDbLine
 62
250
  6
CONTINUOUS
 10
140.6306555341
 20
60.4780532295
 11
140.6499779587
 21
60.4587308049
  0
LINE
  5
354
100
AcDbEntity
  8
RACCORDO
100
AcDbLine
 62
250
  6
CONTINUOUS
 10
140.6499779587
 20
60.9589288012
 11
140.6306555341
 21
60.9782512258
  0
LINE
  5
355
100
AcDbEntity
  8
RACCORDO
100
AcDbLine
 62
7
  6
CONTINUOUS
 10
143.0772254477
 20
59.4316167147
 11
143.4116296875
 21
59.0972151207
  0
LINE
  5
356
100
AcDbEntity
  8
RACCORDO
100
AcDbLine
 62
250
  6
CONTINUOUS
 10
141.6498256538
 20
61.9587764964
 11
141.6305032293
 21
61.9780989209
  0
LINE
  5
357
100
AcDbEntity
  8
RACCORDO
100
AcDbLine
 62
250
  6
CONTINUOUS
 10
104.9272254477
 20
150.4310704174
 11
104.9434523254
 21
150.3497377008
  0
LINE
  5
358
100
AcDbEntity
  8
RACCORDO
100
AcDbLine
 62
250
  6
CONTINUOUS
 10
121.2119153883
 20
56.2366304065
 11
121.2198049093
 21
56.0368165631
  0
LINE
  5
359
100
AcDbEntity
  8
RACCORDO
100
AcDbLine
 62
250
  6
CONTINUOUS
 10
121.1885262107
 20
56.4552261981
 11
121.1948866245
 21
56.2553578372
  0
LINE
  5
35A
100
AcDbEntity
  8
RACCORDO
100
AcDbLine
 62
250
  6
CONTINUOUS
 10
115.5306555341
 20
57.5848067889
 11
115.5306555341
 21
59.1782512258
  0
LINE
  5
35B
100
AcDbEntity
  8
RACCORDO
100
AcDbLine
 62
250
  6
CONTINUOUS
 10
115.5499779587
 20
59.1589288012
 11
115.5499779587
 21
57.6041292135
  0
LINE
  5
35C
100
AcDbEntity
  8
RACCORDO
100
AcDbLine
 62
250
  6
CONTINUOUS
 10
115.7499474977
 20
59.1589288012
 11
115.7499474977
 21
57.6041292135
  0
LINE
  5
35D
100
AcDbEntity
  8
RACCORDO
100
AcDbLine
 62
250
  6
CONTINUOUS
 10
116.5305032293
 20
56.5849590938
 11
116.5305032293
 21
56.3849895547
  0
LINE
  5
35E
100
AcDbEntity
  8
RACCORDO
100
AcDbLine
 62
250
  6
CONTINUOUS
 10
116.5305032293
 20
60.1780989209
 11
116.5305032293
 21
60.37806846
  0
LINE
  5
35F
100
AcDbEntity
  8
RACCORDO
100
AcDbLine
 62
250
  6
CONTINUOUS
 10
116.5498256538
 20
56.8042510574
 11
116.5498256538
 21
56.6042815183
  0
LINE
  5
360
100
AcDbEntity
  8
RACCORDO
100
AcDbLine
 62
250
  6
CONTINUOUS
 10
116.5498256538
 20
59.9588069573
 11
116.5498256538
 21
60.1587764964
  0
LINE
  5
361
100
AcDbEntity
  8
RACCORDO
100
AcDbLine
 62
7
  6
CONTINUOUS
 10
116.6772254477
 20
57.931485144
 11
116.6772254477
 21
58.8315728707
  0
LINE
  5
362
100
AcDbEntity
  8
RACCORDO
100
AcDbLine
 62
250
  6
CONTINUOUS
 10
117.0307012256
 20
56.5849590938
 11
117.0307012256
 21
56.3849895547
  0
LINE
  5
363
100
AcDbEntity
  8
RACCORDO
100
AcDbLine
 62
250
  6
CONTINUOUS
 10
117.0307012256
 20
60.1780989209
 11
117.0307012256
 21
60.37806846
  0
LINE
  5
364
100
AcDbEntity
  8
RACCORDO
100
AcDbLine
 62
250
  6
CONTINUOUS
 10
117.0500236501
 20
56.8042510574
 11
117.0500236501
 21
56.6042815183
  0
LINE
  5
365
100
AcDbEntity
  8
RACCORDO
100
AcDbLine
 62
250
  6
CONTINUOUS
 10
117.0500236501
 20
59.9588069573
 11
117.0500236501
 21
60.1587764964
  0
LINE
  5
366
100
AcDbEntity
  8
RACCORDO
100
AcDbLine
 62
250
  6
CONTINUOUS
 10
117.1306859951
 20
55.7848067889
 11
117.1306859951
 21
56.2850047852
  0
LINE
  5
367
100
AcDbEntity
  8
RACCORDO
100
AcDbLine
 62
250
  6
CONTINUOUS
 10
117.1306859951
 20
60.4780532295
 11
117.1306859951
 21
60.9782512258
  0
LINE
  5
368
100
AcDbEntity
  8
RACCORDO
100
AcDbLine
 62
7
  6
CONTINUOUS
 10
117.1772254477
 20
148.4315290074
 11
117.1772254477
 21
82.9315290074
  0
LINE
  5
369
100
AcDbEntity
  8
RACCORDO
100
AcDbLine
 62
250
  6
CONTINUOUS
 10
117.1940303587
 20
148.0148611707
 11
117.1940303587
 21
83.498196844
  0
LINE
  5
36A
100
AcDbEntity
  8
RACCORDO
100
AcDbLine
 62
250
  6
CONTINUOUS
 10
117.3306555341
 20
55.7848067889
 11
117.3306555341
 21
56.2850047852
  0
LINE
  5
36B
100
AcDbEntity
  8
RACCORDO
100
AcDbLine
 62
250
  6
CONTINUOUS
 10
117.3306555341
 20
60.4780532295
 11
117.3306555341
 21
60.9782512258
  0
LINE
  5
36C
100
AcDbEntity
  8
RACCORDO
100
AcDbLine
 62
250
  6
CONTINUOUS
 10
117.3499779587
 20
60.9589288012
 11
117.3499779587
 21
60.4587308049
  0
LINE
  5
36D
100
AcDbEntity
  8
RACCORDO
100
AcDbLine
 62
250
  6
CONTINUOUS
 10
117.3499779587
 20
56.3043272098
 11
117.3499779587
 21
55.8041292135
  0
LINE
  5
36E
100
AcDbEntity
  8
RACCORDO
100
AcDbLine
 62
250
  6
CONTINUOUS
 10
117.3939998978
 20
148.0148611707
 11
117.3939998978
 21
83.498196844
  0
LINE
  5
36F
100
AcDbEntity
  8
RACCORDO
100
AcDbLine
 62
250
  6
CONTINUOUS
 10
117.4237953613
 20
147.9850657071
 11
117.4237953613
 21
83.5279923076
  0
LINE
  5
370
100
AcDbEntity
  8
RACCORDO
100
AcDbLine
 62
250
  6
CONTINUOUS
 10
117.5499474977
 20
60.9589288012
 11
117.5499474977
 21
60.4587308049
  0
LINE
  5
371
100
AcDbEntity
  8
RACCORDO
100
AcDbLine
 62
250
  6
CONTINUOUS
 10
117.5499474977
 20
56.3043272098
 11
117.5499474977
 21
55.8041292135
  0
LINE
  5
372
100
AcDbEntity
  8
RACCORDO
100
AcDbLine
 62
250
  6
CONTINUOUS
 10
117.6237649003
 20
147.9850657071
 11
117.6237649003
 21
83.5279923076
  0
LINE
  5
373
100
AcDbEntity
  8
RACCORDO
100
AcDbLine
 62
250
  6
CONTINUOUS
 10
118.0938932844
 20
148.9147240963
 11
118.0938932844
 21
148.7147545573
  0
LINE
  5
374
100
AcDbEntity
  8
RACCORDO
100
AcDbLine
 62
250
  6
CONTINUOUS
 10
118.0938932844
 20
82.5983339184
 11
118.0938932844
 21
82.7983034574
  0
LINE
  5
375
100
AcDbEntity
  8
RACCORDO
100
AcDbLine
 62
250
  6
CONTINUOUS
 10
118.1236887479
 20
83.02806846
 11
118.1236887479
 21
82.8280989209
  0
LINE
  5
376
100
AcDbEntity
  8
RACCORDO
100
AcDbLine
 62
250
  6
CONTINUOUS
 10
118.1236887479
 20
148.4849895547
 11
118.1236887479
 21
148.6849590938
  0
LINE
  5
377
100
AcDbEntity
  8
RACCORDO
100
AcDbLine
 62
250
  6
CONTINUOUS
 10
118.2306859951
 20
84.0849286328
 11
118.2306859951
 21
147.4281293819
  0
LINE
  5
378
100
AcDbEntity
  8
RACCORDO
100
AcDbLine
 62
250
  6
CONTINUOUS
 10
118.3305032293
 20
54.7849590938
 11
118.3305032293
 21
54.5849895547
  0
LINE
  5
379
100
AcDbEntity
  8
RACCORDO
100
AcDbLine
 62
250
  6
CONTINUOUS
 10
118.3305032293
 20
61.9780989209
 11
118.3305032293
 21
62.17806846
  0
LINE
  5
37A
100
AcDbEntity
  8
RACCORDO
100
AcDbLine
 62
250
  6
CONTINUOUS
 10
118.3498256538
 20
55.0042510574
 11
118.3498256538
 21
54.8042815183
  0
LINE
  5
37B
100
AcDbEntity
  8
RACCORDO
100
AcDbLine
 62
250
  6
CONTINUOUS
 10
118.3498256538
 20
61.7588069573
 11
118.3498256538
 21
61.9587764964
  0
LINE
  5
37C
100
AcDbEntity
  8
RACCORDO
100
AcDbLine
 62
250
  6
CONTINUOUS
 10
118.4306555341
 20
84.0849286328
 11
118.4306555341
 21
147.4281293819
  0
LINE
  5
37D
100
AcDbEntity
  8
RACCORDO
100
AcDbLine
 62
7
  6
CONTINUOUS
 10
118.4772254477
 20
56.131485144
 11
118.4772254477
 21
57.3314413
  0
LINE
  5
37E
100
AcDbEntity
  8
RACCORDO
100
AcDbLine
 62
7
  6
CONTINUOUS
 10
118.4772254477
 20
59.4316167147
 11
118.4772254477
 21
60.6315728707
  0
LINE
  5
37F
100
AcDbEntity
  8
RACCORDO
100
AcDbLine
 62
7
  6
CONTINUOUS
 10
118.5005367204
 20
147.3582481956
 11
118.5005367204
 21
84.1548098191
  0
LINE
  5
380
100
AcDbEntity
  8
RACCORDO
100
AcDbLine
 62
250
  6
CONTINUOUS
 10
118.6306250731
 20
147.82806846
 11
118.6306250731
 21
147.6280989209
  0
LINE
  5
381
100
AcDbEntity
  8
RACCORDO
100
AcDbLine
 62
250
  6
CONTINUOUS
 10
118.6306250731
 20
83.6849895547
 11
118.6306250731
 21
83.8849590938
  0
LINE
  5
382
100
AcDbEntity
  8
RACCORDO
100
AcDbLine
 62
7
  6
CONTINUOUS
 10
119.7772254477
 20
60.6315728707
 11
119.7772254477
 21
59.4316167147
  0
LINE
  5
383
100
AcDbEntity
  8
RACCORDO
100
AcDbLine
 62
7
  6
CONTINUOUS
 10
119.7772254477
 20
57.3314413
 11
119.7772254477
 21
56.131485144
  0
LINE
  5
384
100
AcDbEntity
  8
RACCORDO
100
AcDbLine
 62
250
  6
CONTINUOUS
 10
119.9046252416
 20
55.0042510574
 11
119.9046252416
 21
54.8042815183
  0
LINE
  5
385
100
AcDbEntity
  8
RACCORDO
100
AcDbLine
 62
250
  6
CONTINUOUS
 10
119.9046252416
 20
61.7588069573
 11
119.9046252416
 21
61.9587764964
  0
LINE
  5
386
100
AcDbEntity
  8
RACCORDO
100
AcDbLine
 62
250
  6
CONTINUOUS
 10
119.9239476661
 20
54.7849590938
 11
119.9239476661
 21
54.5849895547
  0
LINE
  5
387
100
AcDbEntity
  8
RACCORDO
100
AcDbLine
 62
250
  6
CONTINUOUS
 10
119.9239476661
 20
61.9780989209
 11
119.9239476661
 21
62.17806846
  0
LINE
  5
388
100
AcDbEntity
  8
RACCORDO
100
AcDbLine
 62
250
  6
CONTINUOUS
 10
105.1434218645
 20
52.2140813742
 11
105.1269516515
 21
52.1315290074
  0
LINE
  5
389
100
AcDbEntity
  8
RACCORDO
100
AcDbLine
 62
250
  6
CONTINUOUS
 10
106.2519363348
 20
50.6315290074
 11
106.2354661218
 21
50.5489766405
  0
LINE
  5
38A
100
AcDbEntity
  8
RACCORDO
100
AcDbLine
 62
250
  6
CONTINUOUS
 10
106.4516625386
 20
50.4310704174
 11
106.4354356608
 21
50.3497377008
  0
LINE
  5
38B
100
AcDbEntity
  8
RACCORDO
100
AcDbLine
 62
7
  6
CONTINUOUS
 10
111.4272254477
 20
77.9315290074
 11
173.4272254477
 21
77.9315290074
  0
LINE
  5
38C
100
AcDbEntity
  8
RACCORDO
100
AcDbLine
 62
250
  6
CONTINUOUS
 10
178.0353517243
 20
64.9253159358
 11
177.842195982
 21
64.9770718609
  0
LINE
  5
38D
100
AcDbEntity
  8
RACCORDO
100
AcDbLine
 62
250
  6
CONTINUOUS
 10
178.0930752917
 20
64.917716484
 11
178.2862310339
 21
64.8659605588
  0
LINE
  5
38E
100
AcDbEntity
  8
RACCORDO
100
AcDbLine
 62
250
  6
CONTINUOUS
 10
178.1957268736
 20
65.5238441414
 11
178.0025711314
 21
65.5756000666
  0
LINE
  5
38F
100
AcDbEntity
  8
RACCORDO
100
AcDbLine
 62
250
  6
CONTINUOUS
 10
178.253450441
 20
65.5162446896
 11
178.4466061833
 21
65.4644887645
  0
LINE
  5
390
100
AcDbEntity
  8
RACCORDO
100
AcDbLine
 62
250
  6
CONTINUOUS
 10
105.1269516515
 20
150.6315290074
 11
105.1434218645
 21
150.5489766405
  0
LINE
  5
391
100
AcDbEntity
  8
RACCORDO
100
AcDbLine
 62
250
  6
CONTINUOUS
 10
106.2354661218
 20
152.2140813742
 11
106.2519363348
 21
152.1315290074
  0
LINE
  5
392
100
AcDbEntity
  8
RACCORDO
100
AcDbLine
 62
250
  6
CONTINUOUS
 10
106.4354356608
 20
152.4133203139
 11
106.4516625386
 21
152.3319875973
  0
LINE
  5
393
100
AcDbEntity
  8
RACCORDO
100
AcDbLine
 62
250
  6
CONTINUOUS
 10
120.1819274006
 20
153.6738663666
 11
120.1819273879
 21
153.4738968272
  0
LINE
  5
394
100
AcDbEntity
  8
RACCORDO
100
AcDbLine
 62
250
  6
CONTINUOUS
 10
120.7045033977
 20
55.8041292135
 11
120.7045033977
 21
55.9555552959
  0
LINE
  5
395
100
AcDbEntity
  8
RACCORDO
100
AcDbLine
 62
250
  6
CONTINUOUS
 10
120.7045033977
 20
60.8075027188
 11
120.7045033977
 21
60.9589288012
  0
LINE
  5
396
100
AcDbEntity
  8
RACCORDO
100
AcDbLine
 62
250
  6
CONTINUOUS
 10
120.9044729367
 20
55.8041292135
 11
120.9044729367
 21
55.9555552959
  0
LINE
  5
397
100
AcDbEntity
  8
RACCORDO
100
AcDbLine
 62
250
  6
CONTINUOUS
 10
120.9044729367
 20
60.8075027188
 11
120.9044729367
 21
60.9589288012
  0
LINE
  5
398
100
AcDbEntity
  8
RACCORDO
100
AcDbLine
 62
250
  6
CONTINUOUS
 10
120.9237953613
 20
60.9782512258
 11
120.9237953613
 21
60.8261483733
  0
LINE
  5
399
100
AcDbEntity
  8
RACCORDO
100
AcDbLine
 62
250
  6
CONTINUOUS
 10
120.9237953613
 20
55.9369096414
 11
120.9237953613
 21
55.7848067889
  0
LINE
  5
39A
100
AcDbEntity
  8
RACCORDO
100
AcDbLine
 62
250
  6
CONTINUOUS
 10
120.9850247551
 20
44.1525360118
 11
120.9850247551
 21
45.6349590938
  0
LINE
  5
39B
100
AcDbEntity
  8
RACCORDO
100
AcDbLine
 62
250
  6
CONTINUOUS
 10
121.1237649003
 20
60.9782512258
 11
121.1237649003
 21
60.8261483733
  0
LINE
  5
39C
100
AcDbEntity
  8
RACCORDO
100
AcDbLine
 62
250
  6
CONTINUOUS
 10
121.1237649003
 20
55.9369096414
 11
121.1237649003
 21
55.7848067889
  0
LINE
  5
39D
100
AcDbEntity
  8
RACCORDO
100
AcDbLine
 62
250
  6
CONTINUOUS
 10
121.184750662
 20
44.3525055509
 11
121.184750662
 21
45.4349895547
  0
LINE
  5
39E
100
AcDbEntity
  8
RACCORDO
100
AcDbLine
 62
7
  6
CONTINUOUS
 10
121.2272254477
 20
45.4491363122
 11
121.2272254477
 21
44.3383587934
  0
LINE
  5
39F
100
AcDbEntity
  8
RACCORDO
100
AcDbLine
 62
7
  6
CONTINUOUS
 10
122.4272254477
 20
44.3383587934
 11
122.4272254477
 21
45.4491363122
  0
LINE
  5
3A0
100
AcDbEntity
  8
RACCORDO
100
AcDbLine
 62
250
  6
CONTINUOUS
 10
122.4697002334
 20
45.4349895547
 11
122.4697002334
 21
44.3525055509
  0
LINE
  5
3A1
100
AcDbEntity
  8
RACCORDO
100
AcDbLine
 62
250
  6
CONTINUOUS
 10
122.6694261403
 20
44.1525360118
 11
122.6694261403
 21
45.6349590938
  0
LINE
  5
3A2
100
AcDbEntity
  8
RACCORDO
100
AcDbLine
 62
250
  6
CONTINUOUS
 10
121.1885262107
 20
60.3078318166
 11
121.1948866245
 21
60.5077001775
  0
LINE
  5
3A3
100
AcDbEntity
  8
RACCORDO
100
AcDbLine
 62
250
  6
CONTINUOUS
 10
121.2119153883
 20
60.5264276082
 11
121.2198049093
 21
60.7262414516
  0
LINE
  5
3A4
100
AcDbEntity
  8
DRAFT
100
AcDbLine
 62
7
  6
CONTINUOUS
 10
179.9255098864
 20
86.3918591181
 11
181.2272254477
 21
86.5286749367
  0
LINE
  5
3A5
100
AcDbEntity
  8
RACCORDO
100
AcDbLine
 62
7
  6
CONTINUOUS
 10
117.6772254477
 20
82.4315290074
 11
167.1772254477
 21
82.4315290074
  0
LINE
  5
3A6
100
AcDbEntity
  8
RACCORDO
100
AcDbLine
 62
250
  6
CONTINUOUS
 10
118.0938932844
 20
82.5983339184
 11
166.760557611
 21
82.5983339184
  0
LINE
  5
3A7
100
AcDbEntity
  8
RACCORDO
100
AcDbLine
 62
250
  6
CONTINUOUS
 10
118.0938932844
 20
82.7983034574
 11
166.760557611
 21
82.7983034574
  0
LINE
  5
3A8
100
AcDbEntity
  8
RACCORDO
100
AcDbLine
 62
250
  6
CONTINUOUS
 10
118.1236887479
 20
82.8280989209
 11
166.7307621475
 21
82.8280989209
  0
LINE
  5
3A9
100
AcDbEntity
  8
RACCORDO
100
AcDbLine
 62
250
  6
CONTINUOUS
 10
118.1236887479
 20
83.02806846
 11
166.7307621475
 21
83.02806846
  0
LINE
  5
3AA
100
AcDbEntity
  8
RACCORDO
100
AcDbLine
 62
250
  6
CONTINUOUS
 10
167.6604205367
 20
83.498196844
 11
167.4604509976
 21
83.498196844
  0
LINE
  5
3AB
100
AcDbEntity
  8
RACCORDO
100
AcDbLine
 62
250
  6
CONTINUOUS
 10
117.1940303587
 20
83.498196844
 11
117.3939998978
 21
83.498196844
  0
LINE
  5
3AC
100
AcDbEntity
  8
RACCORDO
100
AcDbLine
 62
250
  6
CONTINUOUS
 10
117.6237649003
 20
83.5279923076
 11
117.4237953613
 21
83.5279923076
  0
LINE
  5
3AD
100
AcDbEntity
  8
RACCORDO
100
AcDbLine
 62
250
  6
CONTINUOUS
 10
167.2306859951
 20
83.5279923076
 11
167.4306555341
 21
83.5279923076
  0
LINE
  5
3AE
100
AcDbEntity
  8
DRAFT
100
AcDbLine
 62
7
  6
CONTINUOUS
 10
103.6272254477
 20
86.5286749367
 11
104.928941009
 21
86.3918591181
  0
LINE
  5
3AF
100
AcDbEntity
  8
RACCORDO
100
AcDbLine
 62
250
  6
CONTINUOUS
 10
166.7307621475
 20
148.6849590938
 11
166.760557611
 21
148.7147545573
  0
LINE
  5
3B0
100
AcDbEntity
  8
RACCORDO
100
AcDbLine
 62
250
  6
CONTINUOUS
 10
166.2238258223
 20
147.6280989209
 11
166.153944636
 21
147.5582177347
  0
LINE
  5
3B1
100
AcDbEntity
  8
RACCORDO
100
AcDbLine
 62
250
  6
CONTINUOUS
 10
166.4237953613
 20
147.4281293819
 11
166.353914175
 21
147.3582481956
  0
LINE
  5
3B2
100
AcDbEntity
  8
RACCORDO
100
AcDbLine
 62
250
  6
CONTINUOUS
 10
167.4306555341
 20
147.9850657071
 11
167.4604509976
 21
148.0148611707
  0
LINE
  5
3B3
100
AcDbEntity
  8
RACCORDO
100
AcDbLine
 62
250
  6
CONTINUOUS
 10
178.906370748
 20
158.6105220029
 11
178.9273777525
 21
158.6315290074
  0
LINE
  5
3B4
100
AcDbEntity
  8
RACCORDO
100
AcDbLine
 62
250
  6
CONTINUOUS
 10
178.2238258223
 20
157.1280989209
 11
178.1486471899
 21
157.0529202886
  0
LINE
  5
3B5
100
AcDbEntity
  8
RACCORDO
100
AcDbLine
 62
250
  6
CONTINUOUS
 10
178.4237953613
 20
156.9281293819
 11
178.3486167289
 21
156.8529507496
  0
LINE
  5
3B6
100
AcDbEntity
  8
RACCORDO
100
AcDbLine
 62
250
  6
CONTINUOUS
 10
175.2238258223
 20
153.7280989209
 11
175.1695932678
 21
153.6738663665
  0
LINE
  5
3B7
100
AcDbEntity
  8
RACCORDO
100
AcDbLine
 62
250
  6
CONTINUOUS
 10
176.7306859951
 20
155.2349590938
 11
176.786664056
 21
155.2909371547
  0
LINE
  5
3B8
100
AcDbEntity
  8
RACCORDO
100
AcDbLine
 62
250
  6
CONTINUOUS
 10
175.4237953613
 20
153.5281293819
 11
175.3695628069
 21
153.4738968275
  0
LINE
  5
3B9
100
AcDbEntity
  8
RACCORDO
100
AcDbLine
 62
250
  6
CONTINUOUS
 10
176.9306555341
 20
155.0349895547
 11
176.986633595
 21
155.0909676157
  0
LINE
  5
3BA
100
AcDbEntity
  8
RACCORDO
100
AcDbLine
 62
250
  6
CONTINUOUS
 10
179.9062184432
 20
157.6106743077
 11
179.9272254477
 21
157.6316813122
  0
LINE
  5
3BB
100
AcDbEntity
  8
RACCORDO
100
AcDbLine
 62
7
  6
CONTINUOUS
 10
104.7272254477
 20
97.234383078
 11
104.5447746952
 21
97.1256286109
  0
LINE
  5
3BC
100
AcDbEntity
  8
RACCORDO
100
AcDbLine
 62
250
  6
CONTINUOUS
 10
166.2238258223
 20
83.6849895547
 11
118.6306250731
 21
83.6849895547
  0
LINE
  5
3BD
100
AcDbEntity
  8
RACCORDO
100
AcDbLine
 62
250
  6
CONTINUOUS
 10
166.2238258223
 20
83.8849590938
 11
118.6306250731
 21
83.8849590938
  0
LINE
  5
3BE
100
AcDbEntity
  8
RACCORDO
100
AcDbLine
 62
7
  6
CONTINUOUS
 10
118.7005062594
 20
83.95484028
 11
166.153944636
 21
83.95484028
  0
LINE
  5
3BF
100
AcDbEntity
  8
RACCORDO
100
AcDbLine
 62
250
  6
CONTINUOUS
 10
166.6237649003
 20
84.0849286328
 11
166.4237953613
 21
84.0849286328
  0
LINE
  5
3C0
100
AcDbEntity
  8
RACCORDO
100
AcDbLine
 62
250
  6
CONTINUOUS
 10
118.2306859951
 20
84.0849286328
 11
118.4306555341
 21
84.0849286328
  0
LINE
  5
3C1
100
AcDbEntity
  8
RACCORDO
100
AcDbLine
 62
7
  6
CONTINUOUS
 10
104.7272254477
 20
86.5286749367
 11
105.1482019912
 21
86.5286749367
  0
LINE
  5
3C2
100
AcDbEntity
  8
RACCORDO
100
AcDbLine
 62
7
  6
CONTINUOUS
 10
179.7062489042
 20
86.5286749367
 11
180.1272254477
 21
86.5286749367
  0
LINE
  5
3C3
100
AcDbEntity
  8
RACCORDO
100
AcDbLine
 62
7
  6
CONTINUOUS
 10
181.0272254477
 20
86.654800019
 11
180.5066377508
 21
86.654800019
  0
LINE
  5
3C4
100
AcDbEntity
  8
RACCORDO
100
AcDbLine
 62
7
  6
CONTINUOUS
 10
104.3478131446
 20
86.654800019
 11
103.8272254477
 21
86.654800019
  0
LINE
  5
3C5
100
AcDbEntity
  8
RACCORDO
100
AcDbLine
 62
7
  6
CONTINUOUS
 10
104.7272254477
 20
105.5286749367
 11
104.5447746952
 21
105.6374294038
  0
LINE
  5
3C6
100
AcDbEntity
  8
RACCORDO
100
AcDbLine
 62
250
  6
CONTINUOUS
 10
162.1499779587
 20
59.1589288012
 11
162.1306555341
 21
59.1782512258
  0
LINE
  5
3C7
100
AcDbEntity
  8
RACCORDO
100
AcDbLine
 62
250
  6
CONTINUOUS
 10
166.5046252416
 20
54.8042815183
 11
166.5239476661
 21
54.7849590938
  0
LINE
  5
3C8
100
AcDbEntity
  8
SMUSSO
100
AcDbLine
 62
7
  6
CONTINUOUS
 10
165.0772254477
 20
57.3314413
 11
164.6771377403
 21
57.7315290074
  0
LINE
  5
3C9
100
AcDbEntity
  8
RACCORDO
100
AcDbLine
 62
250
  6
CONTINUOUS
 10
178.9273777525
 20
44.1315290074
 11
178.906370748
 21
44.1525360118
  0
LINE
  5
3CA
100
AcDbEntity
  8
RACCORDO
100
AcDbLine
 62
250
  6
CONTINUOUS
 10
163.1498256538
 20
60.1587764964
 11
163.1305032293
 21
60.1780989209
  0
LINE
  5
3CB
100
AcDbEntity
  8
RACCORDO
100
AcDbLine
 62
250
  6
CONTINUOUS
 10
167.5044729367
 20
55.8041292135
 11
167.5237953613
 21
55.7848067889
  0
LINE
  5
3CC
100
AcDbEntity
  8
RACCORDO
100
AcDbLine
 62
250
  6
CONTINUOUS
 10
163.6307012256
 20
60.1780989209
 11
163.6500236501
 21
60.1587764964
  0
LINE
  5
3CD
100
AcDbEntity
  8
RACCORDO
100
AcDbLine
 62
250
  6
CONTINUOUS
 10
178.2238258223
 20
45.6349590938
 11
178.1486471899
 21
45.7101377261
  0
LINE
  5
3CE
100
AcDbEntity
  8
RACCORDO
100
AcDbLine
 62
250
  6
CONTINUOUS
 10
178.4237953613
 20
45.8349286328
 11
178.3486167289
 21
45.9101072651
  0
LINE
  5
3CF
100
AcDbEntity
  8
RACCORDO
100
AcDbLine
 62
250
  6
CONTINUOUS
 10
175.2238258223
 20
49.0349590938
 11
175.1853028263
 21
49.0734820898
  0
LINE
  5
3D0
100
AcDbEntity
  8
RACCORDO
100
AcDbLine
 62
250
  6
CONTINUOUS
 10
176.7306859951
 20
47.5280989209
 11
176.786664056
 21
47.47212086
  0
LINE
  5
3D1
100
AcDbEntity
  8
RACCORDO
100
AcDbLine
 62
250
  6
CONTINUOUS
 10
163.9306555341
 20
60.4780532295
 11
163.9499779587
 21
60.4587308049
  0
LINE
  5
3D2
100
AcDbEntity
  8
RACCORDO
100
AcDbLine
 62
250
  6
CONTINUOUS
 10
175.4237953613
 20
49.2349286328
 11
175.3852723653
 21
49.2734516288
  0
LINE
  5
3D3
100
AcDbEntity
  8
RACCORDO
100
AcDbLine
 62
250
  6
CONTINUOUS
 10
176.9306555341
 20
47.72806846
 11
176.986633595
 21
47.672090399
  0
LINE
  5
3D4
100
AcDbEntity
  8
RACCORDO
100
AcDbLine
 62
250
  6
CONTINUOUS
 10
163.9499779587
 20
60.9589288012
 11
163.9306555341
 21
60.9782512258
  0
LINE
  5
3D5
100
AcDbEntity
  8
RACCORDO
100
AcDbLine
 62
250
  6
CONTINUOUS
 10
179.9272254477
 20
45.1313767025
 11
179.9062184432
 21
45.152383707
  0
LINE
  5
3D6
100
AcDbEntity
  8
RACCORDO
100
AcDbLine
 62
7
  6
CONTINUOUS
 10
166.3772254477
 20
59.4316167147
 11
166.7116296829
 21
59.0972151253
  0
LINE
  5
3D7
100
AcDbEntity
  8
RACCORDO
100
AcDbLine
 62
250
  6
CONTINUOUS
 10
164.9498256538
 20
61.9587764964
 11
164.9305032293
 21
61.9780989209
  0
LINE
  5
3D8
100
AcDbEntity
  8
RACCORDO
100
AcDbLine
 62
250
  6
CONTINUOUS
 10
117.4237953613
 20
83.5279923076
 11
117.3939998978
 21
83.498196844
  0
LINE
  5
3D9
100
AcDbEntity
  8
RACCORDO
100
AcDbLine
 62
250
  6
CONTINUOUS
 10
118.4306555341
 20
84.0849286328
 11
118.5005367204
 21
84.1548098191
  0
LINE
  5
3DA
100
AcDbEntity
  8
RACCORDO
100
AcDbLine
 62
250
  6
CONTINUOUS
 10
118.6306250731
 20
83.8849590938
 11
118.7005062594
 21
83.95484028
  0
LINE
  5
3DB
100
AcDbEntity
  8
RACCORDO
100
AcDbLine
 62
250
  6
CONTINUOUS
 10
118.1236887479
 20
82.8280989209
 11
118.0938932844
 21
82.7983034574
  0
LINE
  5
3DC
100
AcDbEntity
  8
RACCORDO
100
AcDbLine
 62
7
  6
CONTINUOUS
 10
104.3478131446
 20
97.1082579957
 11
103.8272254477
 21
97.1082579957
  0
LINE
  5
3DD
100
AcDbEntity
  8
RACCORDO
100
AcDbLine
 62
7
  6
CONTINUOUS
 10
105.1482019912
 20
97.234383078
 11
104.7272254477
 21
97.234383078
  0
LINE
  5
3DE
100
AcDbEntity
  8
RACCORDO
100
AcDbLine
 62
250
  6
CONTINUOUS
 10
144.5119153883
 20
56.2366304065
 11
144.5198049093
 21
56.0368165631
  0
LINE
  5
3DF
100
AcDbEntity
  8
RACCORDO
100
AcDbLine
 62
250
  6
CONTINUOUS
 10
138.6306859951
 20
57.5848067889
 11
138.6306859951
 21
59.1782512258
  0
LINE
  5
3E0
100
AcDbEntity
  8
RACCORDO
100
AcDbLine
 62
250
  6
CONTINUOUS
 10
138.8306555341
 20
57.5848067889
 11
138.8306555341
 21
59.1782512258
  0
LINE
  5
3E1
100
AcDbEntity
  8
RACCORDO
100
AcDbLine
 62
250
  6
CONTINUOUS
 10
138.8499779587
 20
59.1589288012
 11
138.8499779587
 21
57.6041292135
  0
LINE
  5
3E2
100
AcDbEntity
  8
RACCORDO
100
AcDbLine
 62
250
  6
CONTINUOUS
 10
139.0499474977
 20
59.1589288012
 11
139.0499474977
 21
57.6041292135
  0
LINE
  5
3E3
100
AcDbEntity
  8
RACCORDO
100
AcDbLine
 62
250
  6
CONTINUOUS
 10
139.8305032293
 20
56.5849590938
 11
139.8305032293
 21
56.3849895547
  0
LINE
  5
3E4
100
AcDbEntity
  8
RACCORDO
100
AcDbLine
 62
250
  6
CONTINUOUS
 10
139.8305032293
 20
60.1780989209
 11
139.8305032293
 21
60.37806846
  0
LINE
  5
3E5
100
AcDbEntity
  8
RACCORDO
100
AcDbLine
 62
250
  6
CONTINUOUS
 10
139.8498256538
 20
56.8042510574
 11
139.8498256538
 21
56.6042815183
  0
LINE
  5
3E6
100
AcDbEntity
  8
RACCORDO
100
AcDbLine
 62
250
  6
CONTINUOUS
 10
139.8498256538
 20
59.9588069573
 11
139.8498256538
 21
60.1587764964
  0
LINE
  5
3E7
100
AcDbEntity
  8
RACCORDO
100
AcDbLine
 62
7
  6
CONTINUOUS
 10
139.9772254477
 20
57.931485144
 11
139.9772254477
 21
58.8315728707
  0
LINE
  5
3E8
100
AcDbEntity
  8
RACCORDO
100
AcDbLine
 62
250
  6
CONTINUOUS
 10
140.3307012256
 20
56.5849590938
 11
140.3307012256
 21
56.3849895547
  0
LINE
  5
3E9
100
AcDbEntity
  8
RACCORDO
100
AcDbLine
 62
250
  6
CONTINUOUS
 10
140.3307012256
 20
60.1780989209
 11
140.3307012256
 21
60.37806846
  0
LINE
  5
3EA
100
AcDbEntity
  8
RACCORDO
100
AcDbLine
 62
250
  6
CONTINUOUS
 10
140.3500236501
 20
56.8042510574
 11
140.3500236501
 21
56.6042815183
  0
LINE
  5
3EB
100
AcDbEntity
  8
RACCORDO
100
AcDbLine
 62
250
  6
CONTINUOUS
 10
140.3500236501
 20
59.9588069573
 11
140.3500236501
 21
60.1587764964
  0
LINE
  5
3EC
100
AcDbEntity
  8
RACCORDO
100
AcDbLine
 62
250
  6
CONTINUOUS
 10
140.4306859951
 20
55.7848067889
 11
140.4306859951
 21
56.2850047852
  0
LINE
  5
3ED
100
AcDbEntity
  8
RACCORDO
100
AcDbLine
 62
250
  6
CONTINUOUS
 10
140.4306859951
 20
60.4780532295
 11
140.4306859951
 21
60.9782512258
  0
LINE
  5
3EE
100
AcDbEntity
  8
RACCORDO
100
AcDbLine
 62
250
  6
CONTINUOUS
 10
140.6306555341
 20
55.7848067889
 11
140.6306555341
 21
56.2850047852
  0
LINE
  5
3EF
100
AcDbEntity
  8
RACCORDO
100
AcDbLine
 62
250
  6
CONTINUOUS
 10
140.6306555341
 20
60.4780532295
 11
140.6306555341
 21
60.9782512258
  0
LINE
  5
3F0
100
AcDbEntity
  8
RACCORDO
100
AcDbLine
 62
250
  6
CONTINUOUS
 10
140.6499779587
 20
60.9589288012
 11
140.6499779587
 21
60.4587308049
  0
LINE
  5
3F1
100
AcDbEntity
  8
RACCORDO
100
AcDbLine
 62
250
  6
CONTINUOUS
 10
140.6499779587
 20
56.3043272098
 11
140.6499779587
 21
55.8041292135
  0
LINE
  5
3F2
100
AcDbEntity
  8
RACCORDO
100
AcDbLine
 62
250
  6
CONTINUOUS
 10
140.8499474977
 20
60.9589288012
 11
140.8499474977
 21
60.4587308049
  0
LINE
  5
3F3
100
AcDbEntity
  8
RACCORDO
100
AcDbLine
 62
250
  6
CONTINUOUS
 10
140.8499474977
 20
56.3043272098
 11
140.8499474977
 21
55.8041292135
  0
LINE
  5
3F4
100
AcDbEntity
  8
RACCORDO
100
AcDbLine
 62
250
  6
CONTINUOUS
 10
141.6305032293
 20
54.7849590938
 11
141.6305032293
 21
54.5849895547
  0
LINE
  5
3F5
100
AcDbEntity
  8
RACCORDO
100
AcDbLine
 62
250
  6
CONTINUOUS
 10
141.6305032293
 20
61.9780989209
 11
141.6305032293
 21
62.17806846
  0
LINE
  5
3F6
100
AcDbEntity
  8
RACCORDO
100
AcDbLine
 62
250
  6
CONTINUOUS
 10
141.6498256538
 20
55.0042510574
 11
141.6498256538
 21
54.8042815183
  0
LINE
  5
3F7
100
AcDbEntity
  8
RACCORDO
100
AcDbLine
 62
250
  6
CONTINUOUS
 10
141.6498256538
 20
61.7588069573
 11
141.6498256538
 21
61.9587764964
  0
LINE
  5
3F8
100
AcDbEntity
  8
RACCORDO
100
AcDbLine
 62
7
  6
CONTINUOUS
 10
141.7772254477
 20
56.131485144
 11
141.7772254477
 21
57.3314413
  0
LINE
  5
3F9
100
AcDbEntity
  8
RACCORDO
100
AcDbLine
 62
7
  6
CONTINUOUS
 10
141.7772254477
 20
59.4316167147
 11
141.7772254477
 21
60.6315728707
  0
LINE
  5
3FA
100
AcDbEntity
  8
DRAFT
100
AcDbLine
 62
7
  6
CONTINUOUS
 10
103.6272254477
 20
97.234383078
 11
104.925448932
 21
97.3708318645
  0
LINE
  5
3FB
100
AcDbEntity
  8
DRAFT
100
AcDbLine
 62
7
  6
CONTINUOUS
 10
103.6272254477
 20
105.5286749367
 11
104.925448932
 21
105.3922261502
  0
LINE
  5
3FC
100
AcDbEntity
  8
RACCORDO
100
AcDbLine
 62
250
  6
CONTINUOUS
 10
144.4885262107
 20
56.4552261981
 11
144.4948866245
 21
56.2553578372
  0
LINE
  5
3FD
100
AcDbEntity
  8
RACCORDO
100
AcDbLine
 62
7
  6
CONTINUOUS
 10
143.0772254477
 20
60.6315728707
 11
143.0772254477
 21
59.4316167147
  0
LINE
  5
3FE
100
AcDbEntity
  8
RACCORDO
100
AcDbLine
 62
7
  6
CONTINUOUS
 10
143.0772254477
 20
57.3314413
 11
143.0772254477
 21
56.131485144
  0
LINE
  5
3FF
100
AcDbEntity
  8
RACCORDO
100
AcDbLine
 62
250
  6
CONTINUOUS
 10
143.2046252416
 20
55.0042510574
 11
143.2046252416
 21
54.8042815183
  0
LINE
  5
400
100
AcDbEntity
  8
RACCORDO
100
AcDbLine
 62
250
  6
CONTINUOUS
 10
143.2046252416
 20
61.7588069573
 11
143.2046252416
 21
61.9587764964
  0
LINE
  5
401
100
AcDbEntity
  8
RACCORDO
100
AcDbLine
 62
250
  6
CONTINUOUS
 10
143.2239476661
 20
54.7849590938
 11
143.2239476661
 21
54.5849895547
  0
LINE
  5
402
100
AcDbEntity
  8
RACCORDO
100
AcDbLine
 62
250
  6
CONTINUOUS
 10
143.2239476661
 20
61.9780989209
 11
143.2239476661
 21
62.17806846
  0
LINE
  5
403
100
AcDbEntity
  8
RACCORDO
100
AcDbLine
 62
250
  6
CONTINUOUS
 10
144.0045033977
 20
55.8041292135
 11
144.0045033977
 21
55.9555552959
  0
LINE
  5
404
100
AcDbEntity
  8
RACCORDO
100
AcDbLine
 62
250
  6
CONTINUOUS
 10
144.0045033977
 20
60.8075027188
 11
144.0045033977
 21
60.9589288012
  0
LINE
  5
405
100
AcDbEntity
  8
RACCORDO
100
AcDbLine
 62
250
  6
CONTINUOUS
 10
144.2044729367
 20
55.8041292135
 11
144.2044729367
 21
55.9555552959
  0
LINE
  5
406
100
AcDbEntity
  8
RACCORDO
100
AcDbLine
 62
250
  6
CONTINUOUS
 10
144.2044729367
 20
60.8075027188
 11
144.2044729367
 21
60.9589288012
  0
LINE
  5
407
100
AcDbEntity
  8
RACCORDO
100
AcDbLine
 62
250
  6
CONTINUOUS
 10
144.2237953613
 20
60.9782512258
 11
144.2237953613
 21
60.8261483733
  0
LINE
  5
408
100
AcDbEntity
  8
RACCORDO
100
AcDbLine
 62
250
  6
CONTINUOUS
 10
144.2237953613
 20
55.9369096415
 11
144.2237953613
 21
55.7848067889
  0
LINE
  5
409
100
AcDbEntity
  8
RACCORDO
100
AcDbLine
 62
250
  6
CONTINUOUS
 10
144.4237649003
 20
60.9782512258
 11
144.4237649003
 21
60.8261483733
  0
LINE
  5
40A
100
AcDbEntity
  8
RACCORDO
100
AcDbLine
 62
250
  6
CONTINUOUS
 10
144.4237649003
 20
55.9369096415
 11
144.4237649003
 21
55.7848067889
  0
LINE
  5
40B
100
AcDbEntity
  8
RACCORDO
100
AcDbLine
 62
250
  6
CONTINUOUS
 10
144.4885262107
 20
60.3078318166
 11
144.4948866245
 21
60.5077001775
  0
LINE
  5
40C
100
AcDbEntity
  8
RACCORDO
100
AcDbLine
 62
250
  6
CONTINUOUS
 10
144.5119153883
 20
60.5264276082
 11
144.5198049093
 21
60.7262414516
  0
LINE
  5
40D
100
AcDbEntity
  8
RACCORDO
100
AcDbLine
 62
7
  6
CONTINUOUS
 10
104.7272254477
 20
105.5286749367
 11
105.1482019912
 21
105.5286749367
  0
LINE
  5
40E
100
AcDbEntity
  8
RACCORDO
100
AcDbLine
 62
7
  6
CONTINUOUS
 10
104.3478131446
 20
105.654800019
 11
103.8272254477
 21
105.654800019
  0
LINE
  5
40F
100
AcDbEntity
  8
RACCORDO
100
AcDbLine
 62
250
  6
CONTINUOUS
 10
166.7307621475
 20
82.8280989209
 11
166.760557611
 21
82.7983034574
  0
LINE
  5
410
100
AcDbEntity
  8
RACCORDO
100
AcDbLine
 62
250
  6
CONTINUOUS
 10
166.2238258223
 20
83.8849590938
 11
166.153944636
 21
83.95484028
  0
LINE
  5
411
100
AcDbEntity
  8
RACCORDO
100
AcDbLine
 62
250
  6
CONTINUOUS
 10
166.4237953613
 20
84.0849286328
 11
166.353914175
 21
84.1548098191
  0
LINE
  5
412
100
AcDbEntity
  8
RACCORDO
100
AcDbLine
 62
250
  6
CONTINUOUS
 10
167.4306555341
 20
83.5279923076
 11
167.4604509976
 21
83.498196844
  0
LINE
  5
413
100
AcDbEntity
  8
RACCORDO
100
AcDbLine
 62
250
  6
CONTINUOUS
 10
115.5499779587
 20
57.6041292135
 11
115.5306555341
 21
57.5848067889
  0
LINE
  5
414
100
AcDbEntity
  8
RACCORDO
100
AcDbLine
 62
250
  6
CONTINUOUS
 10
119.9046252416
 20
61.9587764964
 11
119.9239476661
 21
61.9780989209
  0
LINE
  5
415
100
AcDbEntity
  8
SMUSSO
100
AcDbLine
 62
7
  6
CONTINUOUS
 10
118.0771377403
 20
59.0315290074
 11
118.4772254477
 21
59.4316167147
  0
LINE
  5
416
100
AcDbEntity
  8
RACCORDO
100
AcDbLine
 62
250
  6
CONTINUOUS
 10
104.9272254477
 20
45.1313767025
 11
104.9482324522
 21
45.152383707
  0
LINE
  5
417
100
AcDbEntity
  8
RACCORDO
100
AcDbLine
 62
250
  6
CONTINUOUS
 10
116.5498256538
 20
56.6042815183
 11
116.5305032293
 21
56.5849590938
  0
LINE
  5
418
100
AcDbEntity
  8
RACCORDO
100
AcDbLine
 62
250
  6
CONTINUOUS
 10
120.9044729367
 20
60.9589288012
 11
120.9237953613
 21
60.9782512258
  0
LINE
  5
419
100
AcDbEntity
  8
RACCORDO
100
AcDbLine
 62
250
  6
CONTINUOUS
 10
107.9237953613
 20
47.72806846
 11
107.8678173004
 21
47.672090399
  0
LINE
  5
41A
100
AcDbEntity
  8
RACCORDO
100
AcDbLine
 62
250
  6
CONTINUOUS
 10
109.4306555341
 20
49.2349286328
 11
109.4691785301
 21
49.2734516288
  0
LINE
  5
41B
100
AcDbEntity
  8
RACCORDO
100
AcDbLine
 62
250
  6
CONTINUOUS
 10
117.0307012256
 20
56.5849590938
 11
117.0500236501
 21
56.6042815183
  0
LINE
  5
41C
100
AcDbEntity
  8
RACCORDO
100
AcDbLine
 62
250
  6
CONTINUOUS
 10
108.1237649003
 20
47.5280989209
 11
108.0677868394
 21
47.47212086
  0
LINE
  5
41D
100
AcDbEntity
  8
RACCORDO
100
AcDbLine
 62
250
  6
CONTINUOUS
 10
109.6306250731
 20
49.0349590938
 11
109.6691480691
 21
49.0734820898
  0
LINE
  5
41E
100
AcDbEntity
  8
RACCORDO
100
AcDbLine
 62
250
  6
CONTINUOUS
 10
106.4306555341
 20
45.8349286328
 11
106.5058341664
 21
45.9101072651
  0
LINE
  5
41F
100
AcDbEntity
  8
RACCORDO
100
AcDbLine
 62
250
  6
CONTINUOUS
 10
106.6306250731
 20
45.6349590938
 11
106.7058037055
 21
45.7101377261
  0
LINE
  5
420
100
AcDbEntity
  8
RACCORDO
100
AcDbLine
 62
250
  6
CONTINUOUS
 10
117.3306555341
 20
56.2850047852
 11
117.3499779587
 21
56.3043272098
  0
LINE
  5
421
100
AcDbEntity
  8
RACCORDO
100
AcDbLine
 62
250
  6
CONTINUOUS
 10
104.9272254477
 20
157.6316813122
 11
104.9482324522
 21
157.6106743077
  0
LINE
  5
422
100
AcDbEntity
  8
RACCORDO
100
AcDbLine
 62
250
  6
CONTINUOUS
 10
109.4306555341
 20
153.5281293819
 11
109.4848880885
 21
153.4738968275
  0
LINE
  5
423
100
AcDbEntity
  8
RACCORDO
100
AcDbLine
 62
250
  6
CONTINUOUS
 10
107.9237953613
 20
155.0349895547
 11
107.8678173004
 21
155.0909676157
  0
LINE
  5
424
100
AcDbEntity
  8
RACCORDO
100
AcDbLine
 62
250
  6
CONTINUOUS
 10
109.6306250731
 20
153.7280989209
 11
109.6848576276
 21
153.6738663665
  0
LINE
  5
425
100
AcDbEntity
  8
RACCORDO
100
AcDbLine
 62
250
  6
CONTINUOUS
 10
108.1237649003
 20
155.2349590938
 11
108.0677868394
 21
155.2909371547
  0
LINE
  5
426
100
AcDbEntity
  8
RACCORDO
100
AcDbLine
 62
250
  6
CONTINUOUS
 10
106.4306555341
 20
156.9281293819
 11
106.5058341664
 21
156.8529507496
  0
LINE
  5
427
100
AcDbEntity
  8
RACCORDO
100
AcDbLine
 62
250
  6
CONTINUOUS
 10
106.6306250731
 20
157.1280989209
 11
106.7058037055
 21
157.0529202886
  0
LINE
  5
428
100
AcDbEntity
  8
RACCORDO
100
AcDbLine
 62
250
  6
CONTINUOUS
 10
117.3499779587
 20
55.8041292135
 11
117.3306555341
 21
55.7848067889
  0
LINE
  5
429
100
AcDbEntity
  8
RACCORDO
100
AcDbLine
 62
250
  6
CONTINUOUS
 10
105.9270731428
 20
44.1315290074
 11
105.9480801473
 21
44.1525360118
  0
LINE
  5
42A
100
AcDbEntity
  8
RACCORDO
100
AcDbLine
 62
7
  6
CONTINUOUS
 10
120.1116290505
 20
57.6658423946
 11
119.7772254477
 21
57.3314413
  0
LINE
  5
42B
100
AcDbEntity
  8
RACCORDO
100
AcDbLine
 62
250
  6
CONTINUOUS
 10
118.3498256538
 20
54.8042815183
 11
118.3305032293
 21
54.7849590938
  0
LINE
  5
42C
100
AcDbEntity
  8
DRAFT
100
AcDbLine
 62
7
  6
CONTINUOUS
 10
103.6272254477
 20
116.234383078
 11
104.928941009
 21
116.3711988966
  0
LINE
  5
42D
100
AcDbEntity
  8
RACCORDO
100
AcDbLine
 62
7
  6
CONTINUOUS
 10
181.0272254477
 20
116.1082579957
 11
180.5066377508
 21
116.1082579957
  0
LINE
  5
42E
100
AcDbEntity
  8
RACCORDO
100
AcDbLine
 62
7
  6
CONTINUOUS
 10
104.3478131446
 20
116.1082579957
 11
103.8272254477
 21
116.1082579957
  0
LINE
  5
42F
100
AcDbEntity
  8
RACCORDO
100
AcDbLine
 62
7
  6
CONTINUOUS
 10
180.1272254477
 20
116.234383078
 11
179.7062489042
 21
116.234383078
  0
LINE
  5
430
100
AcDbEntity
  8
RACCORDO
100
AcDbLine
 62
7
  6
CONTINUOUS
 10
105.1482019912
 20
116.234383078
 11
104.7272254477
 21
116.234383078
  0
LINE
  5
431
100
AcDbEntity
  8
DRAFT
100
AcDbLine
 62
7
  6
CONTINUOUS
 10
179.9255098864
 20
116.3711988966
 11
181.2272254477
 21
116.234383078
  0
LINE
  5
432
100
AcDbEntity
  8
RACCORDO
100
AcDbLine
 62
250
  6
CONTINUOUS
 10
105.9270731428
 20
158.6315290074
 11
105.9480801473
 21
158.6105220029
  0
LINE
  5
433
100
AcDbEntity
  8
RACCORDO
100
AcDbLine
 62
250
  6
CONTINUOUS
 10
117.4237953613
 20
147.9850657071
 11
117.3939998978
 21
148.0148611707
  0
LINE
  5
434
100
AcDbEntity
  8
RACCORDO
100
AcDbLine
 62
250
  6
CONTINUOUS
 10
118.4306555341
 20
147.4281293819
 11
118.5005367204
 21
147.3582481956
  0
LINE
  5
435
100
AcDbEntity
  8
RACCORDO
100
AcDbLine
 62
250
  6
CONTINUOUS
 10
118.6306250731
 20
147.6280989209
 11
118.7005062594
 21
147.5582177347
  0
LINE
  5
436
100
AcDbEntity
  8
RACCORDO
100
AcDbLine
 62
250
  6
CONTINUOUS
 10
118.1236887479
 20
148.6849590938
 11
118.0938932844
 21
148.7147545573
  0
LINE
  5
437
100
AcDbEntity
  8
RACCORDO
100
AcDbLine
 62
250
  6
CONTINUOUS
 10
167.8119153883
 20
56.2366304065
 11
167.8198049093
 21
56.0368165631
  0
LINE
  5
438
100
AcDbEntity
  8
RACCORDO
100
AcDbLine
 62
250
  6
CONTINUOUS
 10
161.9306859951
 20
57.5848067889
 11
161.9306859951
 21
59.1782512258
  0
LINE
  5
439
100
AcDbEntity
  8
RACCORDO
100
AcDbLine
 62
250
  6
CONTINUOUS
 10
162.1306555341
 20
57.5848067889
 11
162.1306555341
 21
59.1782512258
  0
LINE
  5
43A
100
AcDbEntity
  8
RACCORDO
100
AcDbLine
 62
250
  6
CONTINUOUS
 10
162.1499779587
 20
59.1589288012
 11
162.1499779587
 21
57.6041292135
  0
LINE
  5
43B
100
AcDbEntity
  8
RACCORDO
100
AcDbLine
 62
250
  6
CONTINUOUS
 10
162.1850247551
 20
44.1525360118
 11
162.1850247551
 21
45.6349590938
  0
LINE
  5
43C
100
AcDbEntity
  8
RACCORDO
100
AcDbLine
 62
250
  6
CONTINUOUS
 10
162.3499474977
 20
59.1589288012
 11
162.3499474977
 21
57.6041292135
  0
LINE
  5
43D
100
AcDbEntity
  8
RACCORDO
100
AcDbLine
 62
250
  6
CONTINUOUS
 10
162.384750662
 20
44.3525055509
 11
162.384750662
 21
45.4349895547
  0
LINE
  5
43E
100
AcDbEntity
  8
RACCORDO
100
AcDbLine
 62
7
  6
CONTINUOUS
 10
162.4272254477
 20
45.4491363122
 11
162.4272254477
 21
44.3383587934
  0
LINE
  5
43F
100
AcDbEntity
  8
RACCORDO
100
AcDbLine
 62
250
  6
CONTINUOUS
 10
163.1305032293
 20
56.5849590938
 11
163.1305032293
 21
56.3849895547
  0
LINE
  5
440
100
AcDbEntity
  8
RACCORDO
100
AcDbLine
 62
250
  6
CONTINUOUS
 10
163.1305032293
 20
60.1780989209
 11
163.1305032293
 21
60.37806846
  0
LINE
  5
441
100
AcDbEntity
  8
RACCORDO
100
AcDbLine
 62
250
  6
CONTINUOUS
 10
163.1498256538
 20
56.8042510574
 11
163.1498256538
 21
56.6042815183
  0
LINE
  5
442
100
AcDbEntity
  8
RACCORDO
100
AcDbLine
 62
250
  6
CONTINUOUS
 10
163.1498256538
 20
59.9588069573
 11
163.1498256538
 21
60.1587764964
  0
LINE
  5
443
100
AcDbEntity
  8
RACCORDO
100
AcDbLine
 62
7
  6
CONTINUOUS
 10
163.2772254477
 20
57.931485144
 11
163.2772254477
 21
58.8315728707
  0
LINE
  5
444
100
AcDbEntity
  8
RACCORDO
100
AcDbLine
 62
7
  6
CONTINUOUS
 10
163.6272254477
 20
44.3383587934
 11
163.6272254477
 21
45.4491363122
  0
LINE
  5
445
100
AcDbEntity
  8
RACCORDO
100
AcDbLine
 62
250
  6
CONTINUOUS
 10
163.6307012256
 20
56.5849590938
 11
163.6307012256
 21
56.3849895547
  0
LINE
  5
446
100
AcDbEntity
  8
RACCORDO
100
AcDbLine
 62
250
  6
CONTINUOUS
 10
163.6307012256
 20
60.1780989209
 11
163.6307012256
 21
60.37806846
  0
LINE
  5
447
100
AcDbEntity
  8
RACCORDO
100
AcDbLine
 62
250
  6
CONTINUOUS
 10
163.6500236501
 20
56.8042510574
 11
163.6500236501
 21
56.6042815183
  0
LINE
  5
448
100
AcDbEntity
  8
RACCORDO
100
AcDbLine
 62
250
  6
CONTINUOUS
 10
163.6500236501
 20
59.9588069573
 11
163.6500236501
 21
60.1587764964
  0
LINE
  5
449
100
AcDbEntity
  8
RACCORDO
100
AcDbLine
 62
250
  6
CONTINUOUS
 10
163.6697002334
 20
45.4349895547
 11
163.6697002334
 21
44.3525055509
  0
LINE
  5
44A
100
AcDbEntity
  8
RACCORDO
100
AcDbLine
 62
250
  6
CONTINUOUS
 10
163.7306859951
 20
55.7848067889
 11
163.7306859951
 21
56.2850047852
  0
LINE
  5
44B
100
AcDbEntity
  8
RACCORDO
100
AcDbLine
 62
250
  6
CONTINUOUS
 10
163.7306859951
 20
60.4780532295
 11
163.7306859951
 21
60.9782512258
  0
LINE
  5
44C
100
AcDbEntity
  8
RACCORDO
100
AcDbLine
 62
250
  6
CONTINUOUS
 10
163.8694261403
 20
44.1525360118
 11
163.8694261403
 21
45.6349590938
  0
LINE
  5
44D
100
AcDbEntity
  8
RACCORDO
100
AcDbLine
 62
250
  6
CONTINUOUS
 10
163.9306555341
 20
55.7848067889
 11
163.9306555341
 21
56.2850047852
  0
LINE
  5
44E
100
AcDbEntity
  8
RACCORDO
100
AcDbLine
 62
250
  6
CONTINUOUS
 10
163.9306555341
 20
60.4780532295
 11
163.9306555341
 21
60.9782512258
  0
LINE
  5
44F
100
AcDbEntity
  8
RACCORDO
100
AcDbLine
 62
250
  6
CONTINUOUS
 10
163.9499779587
 20
60.9589288012
 11
163.9499779587
 21
60.4587308049
  0
LINE
  5
450
100
AcDbEntity
  8
RACCORDO
100
AcDbLine
 62
250
  6
CONTINUOUS
 10
163.9499779587
 20
56.3043272098
 11
163.9499779587
 21
55.8041292135
  0
LINE
  5
451
100
AcDbEntity
  8
RACCORDO
100
AcDbLine
 62
250
  6
CONTINUOUS
 10
164.1499474977
 20
60.9589288012
 11
164.1499474977
 21
60.4587308049
  0
LINE
  5
452
100
AcDbEntity
  8
RACCORDO
100
AcDbLine
 62
250
  6
CONTINUOUS
 10
164.1499474977
 20
56.3043272098
 11
164.1499474977
 21
55.8041292135
  0
LINE
  5
453
100
AcDbEntity
  8
RACCORDO
100
AcDbLine
 62
250
  6
CONTINUOUS
 10
164.6725270496
 20
153.6738663669
 11
164.672527034
 21
153.4738968283
  0
LINE
  5
454
100
AcDbEntity
  8
RACCORDO
100
AcDbLine
 62
250
  6
CONTINUOUS
 10
164.9305032293
 20
54.7849590938
 11
164.9305032293
 21
54.5849895547
  0
LINE
  5
455
100
AcDbEntity
  8
RACCORDO
100
AcDbLine
 62
250
  6
CONTINUOUS
 10
164.9305032293
 20
61.9780989209
 11
164.9305032293
 21
62.17806846
  0
LINE
  5
456
100
AcDbEntity
  8
RACCORDO
100
AcDbLine
 62
250
  6
CONTINUOUS
 10
164.9498256538
 20
55.0042510574
 11
164.9498256538
 21
54.8042815183
  0
LINE
  5
457
100
AcDbEntity
  8
RACCORDO
100
AcDbLine
 62
250
  6
CONTINUOUS
 10
164.9498256538
 20
61.7588069573
 11
164.9498256538
 21
61.9587764964
  0
LINE
  5
458
100
AcDbEntity
  8
RACCORDO
100
AcDbLine
 62
7
  6
CONTINUOUS
 10
165.0772254477
 20
56.131485144
 11
165.0772254477
 21
57.3314413
  0
LINE
  5
459
100
AcDbEntity
  8
RACCORDO
100
AcDbLine
 62
7
  6
CONTINUOUS
 10
165.0772254477
 20
59.4316167147
 11
165.0772254477
 21
60.6315728707
  0
LINE
  5
45A
100
AcDbEntity
  8
RACCORDO
100
AcDbLine
 62
250
  6
CONTINUOUS
 10
177.9851160665
 20
147.4778980695
 11
177.8247409171
 21
146.8793698638
  0
LINE
  5
45B
100
AcDbEntity
  8
RACCORDO
100
AcDbLine
 62
250
  6
CONTINUOUS
 10
178.1782718087
 20
147.4261421443
 11
178.0178966593
 21
146.8276139387
  0
LINE
  5
45C
100
AcDbEntity
  8
RACCORDO
100
AcDbLine
 62
250
  6
CONTINUOUS
 10
178.0930752917
 20
146.817716484
 11
178.253450441
 21
147.4162446896
  0
LINE
  5
45D
100
AcDbEntity
  8
RACCORDO
100
AcDbLine
 62
250
  6
CONTINUOUS
 10
178.2862310339
 20
146.7659605588
 11
178.4466061833
 21
147.3644887645
  0
LINE
  5
45E
100
AcDbEntity
  8
RACCORDO
100
AcDbLine
 62
250
  6
CONTINUOUS
 10
178.0025711314
 20
56.9874579481
 11
177.842195982
 21
57.5859861538
  0
LINE
  5
45F
100
AcDbEntity
  8
RACCORDO
100
AcDbLine
 62
250
  6
CONTINUOUS
 10
178.1957268736
 20
57.0392138733
 11
178.0353517243
 21
57.6377420789
  0
LINE
  5
460
100
AcDbEntity
  8
RACCORDO
100
AcDbLine
 62
250
  6
CONTINUOUS
 10
178.253450441
 20
57.0468133251
 11
178.0930752917
 21
57.6453415307
  0
LINE
  5
461
100
AcDbEntity
  8
RACCORDO
100
AcDbLine
 62
250
  6
CONTINUOUS
 10
178.4466061833
 20
57.0985692502
 11
178.2862310339
 21
57.6970974559
  0
LINE
  5
462
100
AcDbEntity
  8
RACCORDO
100
AcDbLine
 62
250
  6
CONTINUOUS
 10
167.7885262107
 20
56.4552261981
 11
167.7948866245
 21
56.2553578372
  0
LINE
  5
463
100
AcDbEntity
  8
RACCORDO
100
AcDbLine
 62
250
  6
CONTINUOUS
 10
166.2238258223
 20
147.82806846
 11
166.2238258223
 21
147.6280989209
  0
LINE
  5
464
100
AcDbEntity
  8
RACCORDO
100
AcDbLine
 62
250
  6
CONTINUOUS
 10
166.2238258223
 20
83.6849895547
 11
166.2238258223
 21
83.8849590938
  0
LINE
  5
465
100
AcDbEntity
  8
RACCORDO
100
AcDbLine
 62
7
  6
CONTINUOUS
 10
166.353914175
 20
84.1548098191
 11
166.353914175
 21
147.3582481956
  0
LINE
  5
466
100
AcDbEntity
  8
RACCORDO
100
AcDbLine
 62
7
  6
CONTINUOUS
 10
166.3772254477
 20
60.6315728707
 11
166.3772254477
 21
59.4316167147
  0
LINE
  5
467
100
AcDbEntity
  8
RACCORDO
100
AcDbLine
 62
7
  6
CONTINUOUS
 10
166.3772254477
 20
57.3314413
 11
166.3772254477
 21
56.131485144
  0
LINE
  5
468
100
AcDbEntity
  8
RACCORDO
100
AcDbLine
 62
250
  6
CONTINUOUS
 10
166.4237953613
 20
147.4281293819
 11
166.4237953613
 21
84.0849286328
  0
LINE
  5
469
100
AcDbEntity
  8
RACCORDO
100
AcDbLine
 62
250
  6
CONTINUOUS
 10
166.5046252416
 20
55.0042510574
 11
166.5046252416
 21
54.8042815183
  0
LINE
  5
46A
100
AcDbEntity
  8
RACCORDO
100
AcDbLine
 62
250
  6
CONTINUOUS
 10
166.5046252416
 20
61.7588069573
 11
166.5046252416
 21
61.9587764964
  0
LINE
  5
46B
100
AcDbEntity
  8
RACCORDO
100
AcDbLine
 62
250
  6
CONTINUOUS
 10
166.5239476661
 20
54.7849590938
 11
166.5239476661
 21
54.5849895547
  0
LINE
  5
46C
100
AcDbEntity
  8
RACCORDO
100
AcDbLine
 62
250
  6
CONTINUOUS
 10
166.5239476661
 20
61.9780989209
 11
166.5239476661
 21
62.17806846
  0
LINE
  5
46D
100
AcDbEntity
  8
RACCORDO
100
AcDbLine
 62
250
  6
CONTINUOUS
 10
166.6237649003
 20
147.4281293819
 11
166.6237649003
 21
84.0849286328
  0
LINE
  5
46E
100
AcDbEntity
  8
RACCORDO
100
AcDbLine
 62
250
  6
CONTINUOUS
 10
166.7307621475
 20
83.02806846
 11
166.7307621475
 21
82.8280989209
  0
LINE
  5
46F
100
AcDbEntity
  8
RACCORDO
100
AcDbLine
 62
250
  6
CONTINUOUS
 10
166.7307621475
 20
148.4849895547
 11
166.7307621475
 21
148.6849590938
  0
LINE
  5
470
100
AcDbEntity
  8
RACCORDO
100
AcDbLine
 62
250
  6
CONTINUOUS
 10
166.760557611
 20
148.9147240963
 11
166.760557611
 21
148.7147545573
  0
LINE
  5
471
100
AcDbEntity
  8
RACCORDO
100
AcDbLine
 62
250
  6
CONTINUOUS
 10
166.760557611
 20
82.5983339184
 11
166.760557611
 21
82.7983034574
  0
LINE
  5
472
100
AcDbEntity
  8
RACCORDO
100
AcDbLine
 62
250
  6
CONTINUOUS
 10
167.2306859951
 20
83.5279923076
 11
167.2306859951
 21
147.9850657071
  0
LINE
  5
473
100
AcDbEntity
  8
RACCORDO
100
AcDbLine
 62
250
  6
CONTINUOUS
 10
167.3045033977
 20
55.8041292135
 11
167.3045033977
 21
55.9555552959
  0
LINE
  5
474
100
AcDbEntity
  8
RACCORDO
100
AcDbLine
 62
250
  6
CONTINUOUS
 10
167.3045033977
 20
60.8075027188
 11
167.3045033977
 21
60.9589288012
  0
LINE
  5
475
100
AcDbEntity
  8
RACCORDO
100
AcDbLine
 62
250
  6
CONTINUOUS
 10
167.4306555341
 20
83.5279923076
 11
167.4306555341
 21
147.9850657071
  0
LINE
  5
476
100
AcDbEntity
  8
RACCORDO
100
AcDbLine
 62
250
  6
CONTINUOUS
 10
167.4604509976
 20
83.498196844
 11
167.4604509976
 21
148.0148611707
  0
LINE
  5
477
100
AcDbEntity
  8
RACCORDO
100
AcDbLine
 62
250
  6
CONTINUOUS
 10
167.5044729367
 20
55.8041292135
 11
167.5044729367
 21
55.9555552959
  0
LINE
  5
478
100
AcDbEntity
  8
RACCORDO
100
AcDbLine
 62
250
  6
CONTINUOUS
 10
167.5044729367
 20
60.8075027188
 11
167.5044729367
 21
60.9589288012
  0
LINE
  5
479
100
AcDbEntity
  8
RACCORDO
100
AcDbLine
 62
250
  6
CONTINUOUS
 10
167.5237953613
 20
60.9782512258
 11
167.5237953613
 21
60.8261483732
  0
LINE
  5
47A
100
AcDbEntity
  8
RACCORDO
100
AcDbLine
 62
250
  6
CONTINUOUS
 10
167.5237953613
 20
55.9369096415
 11
167.5237953613
 21
55.7848067889
  0
LINE
  5
47B
100
AcDbEntity
  8
RACCORDO
100
AcDbLine
 62
250
  6
CONTINUOUS
 10
167.6604205367
 20
83.498196844
 11
167.6604205367
 21
148.0148611707
  0
LINE
  5
47C
100
AcDbEntity
  8
RACCORDO
100
AcDbLine
 62
7
  6
CONTINUOUS
 10
167.6772254477
 20
82.9315290074
 11
167.6772254477
 21
148.4315290074
  0
LINE
  5
47D
100
AcDbEntity
  8
RACCORDO
100
AcDbLine
 62
250
  6
CONTINUOUS
 10
167.7237649003
 20
60.9782512258
 11
167.7237649003
 21
60.8261483732
  0
LINE
  5
47E
100
AcDbEntity
  8
RACCORDO
100
AcDbLine
 62
250
  6
CONTINUOUS
 10
167.7237649003
 20
55.9369096415
 11
167.7237649003
 21
55.7848067889
  0
LINE
  5
47F
100
AcDbEntity
  8
RACCORDO
100
AcDbLine
 62
250
  6
CONTINUOUS
 10
167.7885262107
 20
60.3078318166
 11
167.7948866245
 21
60.5077001775
  0
LINE
  5
480
100
AcDbEntity
  8
RACCORDO
100
AcDbLine
 62
250
  6
CONTINUOUS
 10
167.8119153883
 20
60.5264276082
 11
167.8198049093
 21
60.7262414516
  0
LINE
  5
481
100
AcDbEntity
  8
DRAFT
100
AcDbLine
 62
7
  6
CONTINUOUS
 10
179.9272254477
 20
145.4421641408
 11
179.8956763975
 21
145.2840332919
  0
LINE
  5
482
100
AcDbEntity
  8
RACCORDO
100
AcDbLine
 62
250
  6
CONTINUOUS
 10
178.253450441
 20
138.9468133251
 11
178.4466061833
 21
138.9985692502
  0
LINE
  5
483
100
AcDbEntity
  8
RACCORDO
100
AcDbLine
 62
250
  6
CONTINUOUS
 10
177.9851160665
 20
138.8851599452
 11
178.1782718087
 21
138.9369158704
  0
LINE
  5
484
100
AcDbEntity
  8
RACCORDO
100
AcDbLine
 62
250
  6
CONTINUOUS
 10
178.0930752917
 20
139.5453415307
 11
178.2862310339
 21
139.5970974559
  0
LINE
  5
485
100
AcDbEntity
  8
RACCORDO
100
AcDbLine
 62
250
  6
CONTINUOUS
 10
177.8247409171
 20
139.4836881509
 11
178.0178966593
 21
139.535444076
  0
LINE
  5
486
100
AcDbEntity
  8
RACCORDO
100
AcDbLine
 62
250
  6
CONTINUOUS
 10
178.4190152345
 20
48.3497377008
 11
178.4027883568
 21
48.4310704174
  0
LINE
  5
487
100
AcDbEntity
  8
RACCORDO
100
AcDbLine
 62
250
  6
CONTINUOUS
 10
178.6189847736
 20
48.5489766405
 11
178.6025145606
 21
48.6315290074
  0
LINE
  5
488
100
AcDbEntity
  8
RACCORDO
100
AcDbLine
 62
250
  6
CONTINUOUS
 10
179.7274992439
 20
50.1315290074
 11
179.7110290309
 21
50.2140813742
  0
LINE
  5
489
100
AcDbEntity
  8
RACCORDO
100
AcDbLine
 62
250
  6
CONTINUOUS
 10
179.9272254477
 20
50.3319875973
 11
179.9109985699
 21
50.4133203139
  0
LINE
  5
48A
100
AcDbEntity
  8
RACCORDO
100
AcDbLine
 62
250
  6
CONTINUOUS
 10
175.1836116688
 20
66.557685997
 11
175.1706694589
 21
68.2053720177
  0
LINE
  5
48B
100
AcDbEntity
  8
RACCORDO
100
AcDbLine
 62
250
  6
CONTINUOUS
 10
175.3835812079
 20
66.6397589325
 11
175.3706389979
 21
68.2874449532
  0
LINE
  5
48C
100
AcDbEntity
  8
RACCORDO
100
AcDbLine
 62
7
  6
CONTINUOUS
 10
173.9272254477
 20
78.4315290074
 11
173.9272254477
 21
152.9315290074
  0
LINE
  5
48D
100
AcDbEntity
  8
RACCORDO
100
AcDbLine
 62
250
  6
CONTINUOUS
 10
175.1695932678
 20
68.5747002273
 11
175.1695932678
 21
153.6738663665
  0
LINE
  5
48E
100
AcDbEntity
  8
RACCORDO
100
AcDbLine
 62
250
  6
CONTINUOUS
 10
175.1853028263
 20
49.0734820898
 11
175.1853028263
 21
66.1883577874
  0
LINE
  5
48F
100
AcDbEntity
  8
RACCORDO
100
AcDbLine
 62
250
  6
CONTINUOUS
 10
175.2238258223
 20
153.92806846
 11
175.2238258223
 21
153.7280989209
  0
LINE
  5
490
100
AcDbEntity
  8
RACCORDO
100
AcDbLine
 62
250
  6
CONTINUOUS
 10
175.2238258223
 20
48.8349895547
 11
175.2238258223
 21
49.0349590938
  0
LINE
  5
491
100
AcDbEntity
  8
RACCORDO
100
AcDbLine
 62
7
  6
CONTINUOUS
 10
179.9062184432
 20
140.8156021001
 11
179.9272254477
 21
140.9208938739
  0
LINE
  5
492
100
AcDbEntity
  8
RACCORDO
100
AcDbLine
 62
250
  6
CONTINUOUS
 10
178.4027883568
 20
132.3319875973
 11
178.4190152345
 21
132.4133203139
  0
LINE
  5
493
100
AcDbEntity
  8
RACCORDO
100
AcDbLine
 62
250
  6
CONTINUOUS
 10
178.6025145606
 20
132.1315290074
 11
178.6189847736
 21
132.2140813742
  0
LINE
  5
494
100
AcDbEntity
  8
RACCORDO
100
AcDbLine
 62
250
  6
CONTINUOUS
 10
179.7110290309
 20
130.5489766405
 11
179.7274992439
 21
130.6315290074
  0
LINE
  5
495
100
AcDbEntity
  8
RACCORDO
100
AcDbLine
 62
250
  6
CONTINUOUS
 10
179.9109985699
 20
130.3497377008
 11
179.9272254477
 21
130.4310704174
  0
LINE
  5
496
100
AcDbEntity
  8
RACCORDO
100
AcDbLine
 62
250
  6
CONTINUOUS
 10
138.8499779587
 20
57.6041292135
 11
138.8306555341
 21
57.5848067889
  0
LINE
  5
497
100
AcDbEntity
  8
RACCORDO
100
AcDbLine
 62
250
  6
CONTINUOUS
 10
143.2046252416
 20
61.9587764964
 11
143.2239476661
 21
61.9780989209
  0
LINE
  5
498
100
AcDbEntity
  8
SMUSSO
100
AcDbLine
 62
7
  6
CONTINUOUS
 10
141.3771377403
 20
59.0315290074
 11
141.7772254477
 21
59.4316167147
  0
LINE
  5
499
100
AcDbEntity
  8
RACCORDO
100
AcDbLine
 62
250
  6
CONTINUOUS
 10
139.8498256538
 20
56.6042815183
 11
139.8305032293
 21
56.5849590938
  0
LINE
  5
49A
100
AcDbEntity
  8
RACCORDO
100
AcDbLine
 62
250
  6
CONTINUOUS
 10
144.2044729367
 20
60.9589288012
 11
144.2237953613
 21
60.9782512258
  0
LINE
  5
49B
100
AcDbEntity
  8
RACCORDO
100
AcDbLine
 62
250
  6
CONTINUOUS
 10
140.3307012256
 20
56.5849590938
 11
140.3500236501
 21
56.6042815183
  0
LINE
  5
49C
100
AcDbEntity
  8
RACCORDO
100
AcDbLine
 62
250
  6
CONTINUOUS
 10
140.6306555341
 20
56.2850047852
 11
140.6499779587
 21
56.3043272098
  0
LINE
  5
49D
100
AcDbEntity
  8
RACCORDO
100
AcDbLine
 62
250
  6
CONTINUOUS
 10
140.6499779587
 20
55.8041292135
 11
140.6306555341
 21
55.7848067889
  0
LINE
  5
49E
100
AcDbEntity
  8
RACCORDO
100
AcDbLine
 62
7
  6
CONTINUOUS
 10
143.4116290489
 20
57.6658423931
 11
143.0772254477
 21
57.3314413
  0
LINE
  5
49F
100
AcDbEntity
  8
RACCORDO
100
AcDbLine
 62
250
  6
CONTINUOUS
 10
141.6498256538
 20
54.8042815183
 11
141.6305032293
 21
54.7849590938
  0
LINE
  5
4A0
100
AcDbEntity
  8
RACCORDO
100
AcDbLine
 62
7
  6
CONTINUOUS
 10
180.3096762002
 20
86.6374294038
 11
180.1272254477
 21
86.5286749367
  0
LINE
  5
4A1
100
AcDbEntity
  8
RACCORDO
100
AcDbLine
 62
250
  6
CONTINUOUS
 10
178.3486167289
 20
137.6430177418
 11
178.4237953613
 21
137.6529151965
  0
LINE
  5
4A2
100
AcDbEntity
  8
RACCORDO
100
AcDbLine
 62
250
  6
CONTINUOUS
 10
178.1782718087
 20
138.9369158704
 11
178.253450441
 21
138.9468133251
  0
LINE
  5
4A3
100
AcDbEntity
  8
RACCORDO
100
AcDbLine
 62
250
  6
CONTINUOUS
 10
178.4237953613
 20
130.0508792914
 11
179.9062184432
 21
130.0508792914
  0
LINE
  5
4A4
100
AcDbEntity
  8
RACCORDO
100
AcDbLine
 62
250
  6
CONTINUOUS
 10
179.7110290309
 20
130.5489766405
 11
178.6189847736
 21
130.5489766405
  0
LINE
  5
4A5
100
AcDbEntity
  8
RACCORDO
100
AcDbLine
 62
7
  6
CONTINUOUS
 10
178.6025145606
 20
130.6315290074
 11
179.7274992439
 21
130.6315290074
  0
LINE
  5
4A6
100
AcDbEntity
  8
RACCORDO
100
AcDbLine
 62
7
  6
CONTINUOUS
 10
179.7274992439
 20
132.1315290074
 11
178.6025145606
 21
132.1315290074
  0
LINE
  5
4A7
100
AcDbEntity
  8
RACCORDO
100
AcDbLine
 62
250
  6
CONTINUOUS
 10
178.6189847736
 20
132.2140813742
 11
179.7110290309
 21
132.2140813742
  0
LINE
  5
4A8
100
AcDbEntity
  8
RACCORDO
100
AcDbLine
 62
250
  6
CONTINUOUS
 10
178.4237953613
 20
132.7121787233
 11
179.9062184432
 21
132.7121787233
  0
LINE
  5
4A9
100
AcDbEntity
  8
RACCORDO
100
AcDbLine
 62
7
  6
CONTINUOUS
 10
180.3096762002
 20
116.1256286109
 11
180.1272254477
 21
116.234383078
  0
LINE
  5
4AA
100
AcDbEntity
  8
DRAFT
100
AcDbLine
 62
7
  6
CONTINUOUS
 10
179.9272254477
 20
59.0208938739
 11
179.8956763975
 21
59.1790247228
  0
LINE
  5
4AB
100
AcDbEntity
  8
RACCORDO
100
AcDbLine
 62
7
  6
CONTINUOUS
 10
179.9062184432
 20
63.6474559146
 11
179.9272254477
 21
63.5421641408
  0
LINE
  5
4AC
100
AcDbEntity
  8
RACCORDO
100
AcDbLine
 62
250
  6
CONTINUOUS
 10
175.3695628069
 20
68.5747002273
 11
175.3695628069
 21
153.4738968275
  0
LINE
  5
4AD
100
AcDbEntity
  8
RACCORDO
100
AcDbLine
 62
250
  6
CONTINUOUS
 10
175.3852723653
 20
49.2734516288
 11
175.3852723653
 21
66.1883577874
  0
LINE
  5
4AE
100
AcDbEntity
  8
RACCORDO
100
AcDbLine
 62
250
  6
CONTINUOUS
 10
175.4237953613
 20
153.5281293819
 11
175.4237953613
 21
49.2349286328
  0
LINE
  5
4AF
100
AcDbEntity
  8
0
100
AcDbLine
 62
250
  6
CONTINUOUS
 10
175.4272254477
 20
153.9727607879
 11
175.4272254477
 21
154.4902972268
  0
LINE
  5
4B0
100
AcDbEntity
  8
RACCORDO
100
AcDbLine
 62
250
  6
CONTINUOUS
 10
175.6237649003
 20
153.5281293819
 11
175.6237649003
 21
49.2349286328
  0
LINE
  5
4B1
100
AcDbEntity
  8
0
100
AcDbLine
 62
7
  6
CONTINUOUS
 10
175.6684572282
 20
48.0315290074
 11
175.6684572282
 21
153.7315290074
  0
LINE
  5
4B2
100
AcDbEntity
  8
0
100
AcDbLine
 62
250
  6
CONTINUOUS
 10
175.7912792796
 20
48.0315290074
 11
175.7912792796
 21
153.7315290074
  0
LINE
  5
4B3
100
AcDbEntity
  8
0
100
AcDbLine
 62
250
  6
CONTINUOUS
 10
176.0631716157
 20
48.0315290074
 11
176.0631716157
 21
153.7315290074
  0
LINE
  5
4B4
100
AcDbEntity
  8
0
100
AcDbLine
 62
7
  6
CONTINUOUS
 10
176.1859936672
 20
48.0315290074
 11
176.1859936672
 21
153.7315290074
  0
LINE
  5
4B5
100
AcDbEntity
  8
RACCORDO
100
AcDbLine
 62
250
  6
CONTINUOUS
 10
176.7306859951
 20
47.5280989209
 11
176.7306859951
 21
155.2349590938
  0
LINE
  5
4B6
100
AcDbEntity
  8
RACCORDO
100
AcDbLine
 62
250
  6
CONTINUOUS
 10
176.786664056
 20
155.4909066937
 11
176.786664056
 21
155.2909371547
  0
LINE
  5
4B7
100
AcDbEntity
  8
RACCORDO
100
AcDbLine
 62
250
  6
CONTINUOUS
 10
176.786664056
 20
47.272151321
 11
176.786664056
 21
47.47212086
  0
LINE
  5
4B8
100
AcDbEntity
  8
RACCORDO
100
AcDbLine
 62
250
  6
CONTINUOUS
 10
176.9306555341
 20
47.72806846
 11
176.9306555341
 21
155.0349895547
  0
LINE
  5
4B9
100
AcDbEntity
  8
RACCORDO
100
AcDbLine
 62
250
  6
CONTINUOUS
 10
176.9691785301
 20
68.1815290074
 11
176.9691785301
 21
48.5815290074
  0
LINE
  5
4BA
100
AcDbEntity
  8
RACCORDO
100
AcDbLine
 62
250
  6
CONTINUOUS
 10
176.986633595
 20
47.672090399
 11
176.986633595
 21
48.1815290074
  0
LINE
  5
4BB
100
AcDbEntity
  8
RACCORDO
100
AcDbLine
 62
250
  6
CONTINUOUS
 10
176.986633595
 20
68.5815290074
 11
176.986633595
 21
155.0909676157
  0
LINE
  5
4BC
100
AcDbEntity
  8
RACCORDO
100
AcDbLine
 62
250
  6
CONTINUOUS
 10
177.1691480691
 20
68.1815290074
 11
177.1691480691
 21
48.5815290074
  0
LINE
  5
4BD
100
AcDbEntity
  8
RACCORDO
100
AcDbLine
 62
250
  6
CONTINUOUS
 10
177.1866031341
 20
47.672090399
 11
177.1866031341
 21
48.3815290074
  0
LINE
  5
4BE
100
AcDbEntity
  8
RACCORDO
100
AcDbLine
 62
250
  6
CONTINUOUS
 10
177.1866031341
 20
68.3815290074
 11
177.1866031341
 21
155.0909676157
  0
LINE
  5
4BF
100
AcDbEntity
  8
RACCORDO
100
AcDbLine
 62
250
  6
CONTINUOUS
 10
177.6475822001
 20
145.5337158101
 11
177.6475822001
 21
140.8293422046
  0
LINE
  5
4C0
100
AcDbEntity
  8
RACCORDO
100
AcDbLine
 62
250
  6
CONTINUOUS
 10
177.665037265
 20
58.9316402075
 11
177.665037265
 21
63.6314178072
  0
LINE
  5
4C1
100
AcDbEntity
  8
RACCORDO
100
AcDbLine
 62
250
  6
CONTINUOUS
 10
177.8475517391
 20
145.5337158101
 11
177.8475517391
 21
140.8293422046
  0
LINE
  5
4C2
100
AcDbEntity
  8
RACCORDO
100
AcDbLine
 62
250
  6
CONTINUOUS
 10
177.865006804
 20
58.9316402075
 11
177.865006804
 21
63.6314178072
  0
LINE
  5
4C3
100
AcDbEntity
  8
RACCORDO
100
AcDbLine
 62
250
  6
CONTINUOUS
 10
177.9227303714
 20
58.9392396593
 11
177.9227303714
 21
63.6238183554
  0
LINE
  5
4C4
100
AcDbEntity
  8
RACCORDO
100
AcDbLine
 62
250
  6
CONTINUOUS
 10
177.9227303714
 20
140.8392396593
 11
177.9227303714
 21
145.5238183554
  0
LINE
  5
4C5
100
AcDbEntity
  8
RACCORDO
100
AcDbLine
 62
250
  6
CONTINUOUS
 10
178.1226999105
 20
58.9392396593
 11
178.1226999105
 21
63.6238183554
  0
LINE
  5
4C6
100
AcDbEntity
  8
RACCORDO
100
AcDbLine
 62
250
  6
CONTINUOUS
 10
178.1226999105
 20
140.8392396593
 11
178.1226999105
 21
145.5238183554
  0
LINE
  5
4C7
100
AcDbEntity
  8
RACCORDO
100
AcDbLine
 62
250
  6
CONTINUOUS
 10
178.1486471899
 20
137.6430177418
 11
178.1486471899
 21
68.3815290074
  0
LINE
  5
4C8
100
AcDbEntity
  8
RACCORDO
100
AcDbLine
 62
250
  6
CONTINUOUS
 10
178.1486471899
 20
45.7101377261
 11
178.1486471899
 21
48.3815290074
  0
LINE
  5
4C9
100
AcDbEntity
  8
RACCORDO
100
AcDbLine
 62
250
  6
CONTINUOUS
 10
178.1486471899
 20
148.7200402729
 11
178.1486471899
 21
157.0529202886
  0
LINE
  5
4CA
100
AcDbEntity
  8
RACCORDO
100
AcDbLine
 62
250
  6
CONTINUOUS
 10
178.1661022548
 20
48.5815290074
 11
178.1661022548
 21
55.7453157447
  0
LINE
  5
4CB
100
AcDbEntity
  8
RACCORDO
100
AcDbLine
 62
250
  6
CONTINUOUS
 10
178.1661022548
 20
66.81774227
 11
178.1661022548
 21
68.1815290074
  0
LINE
  5
4CC
100
AcDbEntity
  8
RACCORDO
100
AcDbLine
 62
250
  6
CONTINUOUS
 10
178.2238258223
 20
45.6349590938
 11
178.2238258223
 21
45.4349895547
  0
LINE
  5
4CD
100
AcDbEntity
  8
RACCORDO
100
AcDbLine
 62
250
  6
CONTINUOUS
 10
178.2238258223
 20
157.1280989209
 11
178.2238258223
 21
157.32806846
  0
LINE
  5
4CE
100
AcDbEntity
  8
RACCORDO
100
AcDbLine
 62
250
  6
CONTINUOUS
 10
178.3486167289
 20
156.8529507496
 11
178.3486167289
 21
148.7200402729
  0
LINE
  5
4CF
100
AcDbEntity
  8
RACCORDO
100
AcDbLine
 62
250
  6
CONTINUOUS
 10
178.3486167289
 20
137.6430177418
 11
178.3486167289
 21
68.5815290074
  0
LINE
  5
4D0
100
AcDbEntity
  8
RACCORDO
100
AcDbLine
 62
250
  6
CONTINUOUS
 10
178.3486167289
 20
48.1815290074
 11
178.3486167289
 21
45.9101072651
  0
LINE
  5
4D1
100
AcDbEntity
  8
RACCORDO
100
AcDbLine
 62
250
  6
CONTINUOUS
 10
178.3660717939
 20
48.5815290074
 11
178.3660717939
 21
55.7453157447
  0
LINE
  5
4D2
100
AcDbEntity
  8
RACCORDO
100
AcDbLine
 62
250
  6
CONTINUOUS
 10
178.3660717939
 20
66.81774227
 11
178.3660717939
 21
68.1815290074
  0
LINE
  5
4D3
100
AcDbEntity
  8
RACCORDO
100
AcDbLine
 62
7
  6
CONTINUOUS
 10
178.4027883568
 20
48.4310704174
 11
178.4027883568
 21
50.3319875973
  0
LINE
  5
4D4
100
AcDbEntity
  8
RACCORDO
100
AcDbLine
 62
7
  6
CONTINUOUS
 10
178.4027883568
 20
130.4310704174
 11
178.4027883568
 21
132.3319875973
  0
LINE
  5
4D5
100
AcDbEntity
  8
RACCORDO
100
AcDbLine
 62
250
  6
CONTINUOUS
 10
178.4237953613
 20
45.8349286328
 11
178.4237953613
 21
48.0508792914
  0
LINE
  5
4D6
100
AcDbEntity
  8
RACCORDO
100
AcDbLine
 62
250
  6
CONTINUOUS
 10
178.4237953613
 20
50.7121787233
 11
178.4237953613
 21
55.7529151965
  0
LINE
  5
4D7
100
AcDbEntity
  8
RACCORDO
100
AcDbLine
 62
250
  6
CONTINUOUS
 10
178.4237953613
 20
66.8101428182
 11
178.4237953613
 21
130.0508792914
  0
LINE
  5
4D8
100
AcDbEntity
  8
RACCORDO
100
AcDbLine
 62
250
  6
CONTINUOUS
 10
178.4237953613
 20
132.7121787233
 11
178.4237953613
 21
137.6529151965
  0
LINE
  5
4D9
100
AcDbEntity
  8
RACCORDO
100
AcDbLine
 62
250
  6
CONTINUOUS
 10
178.4237953613
 20
148.7101428182
 11
178.4237953613
 21
156.9281293819
  0
LINE
  5
4DA
100
AcDbEntity
  8
RACCORDO
100
AcDbLine
 62
250
  6
CONTINUOUS
 10
178.6237649003
 20
45.8349286328
 11
178.6237649003
 21
48.0508792914
  0
LINE
  5
4DB
100
AcDbEntity
  8
RACCORDO
100
AcDbLine
 62
250
  6
CONTINUOUS
 10
178.6237649003
 20
50.7121787233
 11
178.6237649003
 21
55.7529151965
  0
LINE
  5
4DC
100
AcDbEntity
  8
RACCORDO
100
AcDbLine
 62
250
  6
CONTINUOUS
 10
178.6237649003
 20
66.8101428182
 11
178.6237649003
 21
130.0508792914
  0
LINE
  5
4DD
100
AcDbEntity
  8
RACCORDO
100
AcDbLine
 62
250
  6
CONTINUOUS
 10
178.6237649003
 20
132.7121787233
 11
178.6237649003
 21
137.6529151965
  0
LINE
  5
4DE
100
AcDbEntity
  8
RACCORDO
100
AcDbLine
 62
250
  6
CONTINUOUS
 10
178.6237649003
 20
148.7101428182
 11
178.6237649003
 21
156.9281293819
  0
LINE
  5
4DF
100
AcDbEntity
  8
RACCORDO
100
AcDbLine
 62
250
  6
CONTINUOUS
 10
178.906370748
 20
158.6105220029
 11
178.906370748
 21
158.4105524638
  0
LINE
  5
4E0
100
AcDbEntity
  8
RACCORDO
100
AcDbLine
 62
250
  6
CONTINUOUS
 10
178.906370748
 20
44.1525360118
 11
178.906370748
 21
44.3525055509
  0
LINE
  5
4E1
100
AcDbEntity
  8
DRAFT
100
AcDbLine
 62
7
  6
CONTINUOUS
 10
178.9272254477
 20
145.5646482698
 11
178.9272254477
 21
140.7984097449
  0
LINE
  5
4E2
100
AcDbEntity
  8
DRAFT
100
AcDbLine
 62
7
  6
CONTINUOUS
 10
178.9272254477
 20
63.6646482698
 11
178.9272254477
 21
58.8984097449
  0
LINE
  5
4E3
100
AcDbEntity
  8
RACCORDO
100
AcDbLine
 62
250
  6
CONTINUOUS
 10
179.7062489042
 20
157.6106743077
 11
179.7062489042
 21
145.5646482698
  0
LINE
  5
4E4
100
AcDbEntity
  8
RACCORDO
100
AcDbLine
 62
250
  6
CONTINUOUS
 10
179.7062489042
 20
48.0508792914
 11
179.7062489042
 21
45.152383707
  0
LINE
  5
4E5
100
AcDbEntity
  8
RACCORDO
100
AcDbLine
 62
250
  6
CONTINUOUS
 10
179.7062489042
 20
50.7121787233
 11
179.7062489042
 21
58.8984097449
  0
LINE
  5
4E6
100
AcDbEntity
  8
RACCORDO
100
AcDbLine
 62
250
  6
CONTINUOUS
 10
179.7062489042
 20
63.6646482698
 11
179.7062489042
 21
86.5286749367
  0
LINE
  5
4E7
100
AcDbEntity
  8
RACCORDO
100
AcDbLine
 62
250
  6
CONTINUOUS
 10
179.7062489042
 20
116.234383078
 11
179.7062489042
 21
130.0508792914
  0
LINE
  5
4E8
100
AcDbEntity
  8
RACCORDO
100
AcDbLine
 62
250
  6
CONTINUOUS
 10
179.7062489042
 20
132.7121787233
 11
179.7062489042
 21
140.7984097449
  0
LINE
  5
4E9
100
AcDbEntity
  8
RACCORDO
100
AcDbLine
 62
250
  6
CONTINUOUS
 10
179.9062184432
 20
157.6106743077
 11
179.9062184432
 21
145.5474559146
  0
LINE
  5
4EA
100
AcDbEntity
  8
RACCORDO
100
AcDbLine
 62
250
  6
CONTINUOUS
 10
179.9062184432
 20
48.0508792914
 11
179.9062184432
 21
45.152383707
  0
LINE
  5
4EB
100
AcDbEntity
  8
RACCORDO
100
AcDbLine
 62
250
  6
CONTINUOUS
 10
179.9062184432
 20
50.7121787233
 11
179.9062184432
 21
58.9156021001
  0
LINE
  5
4EC
100
AcDbEntity
  8
RACCORDO
100
AcDbLine
 62
250
  6
CONTINUOUS
 10
179.9062184432
 20
63.6474559146
 11
179.9062184432
 21
86.508020954
  0
LINE
  5
4ED
100
AcDbEntity
  8
RACCORDO
100
AcDbLine
 62
250
  6
CONTINUOUS
 10
179.9062184432
 20
116.2550370607
 11
179.9062184432
 21
130.0508792914
  0
LINE
  5
4EE
100
AcDbEntity
  8
RACCORDO
100
AcDbLine
 62
250
  6
CONTINUOUS
 10
179.9062184432
 20
132.7121787233
 11
179.9062184432
 21
140.8156021001
  0
LINE
  5
4EF
100
AcDbEntity
  8
RACCORDO
100
AcDbLine
 62
7
  6
CONTINUOUS
 10
179.9272254477
 20
157.6316813122
 11
179.9272254477
 21
145.4421641408
  0
LINE
  5
4F0
100
AcDbEntity
  8
RACCORDO
100
AcDbLine
 62
7
  6
CONTINUOUS
 10
179.9272254477
 20
45.1313767025
 11
179.9272254477
 21
59.0208938739
  0
LINE
  5
4F1
100
AcDbEntity
  8
DRAFT
100
AcDbLine
 62
7
  6
CONTINUOUS
 10
179.9272254477
 20
59.1815290074
 11
179.9272254477
 21
63.3815290074
  0
LINE
  5
4F2
100
AcDbEntity
  8
DRAFT
100
AcDbLine
 62
7
  6
CONTINUOUS
 10
179.9272254477
 20
63.5421641408
 11
179.9272254477
 21
86.3815290074
  0
LINE
  5
4F3
100
AcDbEntity
  8
RACCORDO
100
AcDbLine
 62
7
  6
CONTINUOUS
 10
179.9272254477
 20
116.3815290074
 11
179.9272254477
 21
140.9208938739
  0
LINE
  5
4F4
100
AcDbEntity
  8
DRAFT
100
AcDbLine
 62
7
  6
CONTINUOUS
 10
179.9272254477
 20
141.0815290074
 11
179.9272254477
 21
145.2815290074
  0
LINE
  5
4F5
100
AcDbEntity
  8
RACCORDO
100
AcDbLine
 62
7
  6
CONTINUOUS
 10
179.9062184432
 20
116.2550370607
 11
179.9255098864
 21
116.3711988966
  0
LINE
  5
4F6
100
AcDbEntity
  8
RACCORDO
100
AcDbLine
 62
250
  6
CONTINUOUS
 10
178.0930752917
 20
139.5453415307
 11
178.0178966593
 21
139.535444076
  0
LINE
  5
4F7
100
AcDbEntity
  8
RACCORDO
100
AcDbLine
 62
250
  6
CONTINUOUS
 10
177.9227303714
 20
140.8392396593
 11
177.8475517391
 21
140.8293422046
  0
LINE
  5
4F8
100
AcDbEntity
  8
RACCORDO
100
AcDbLine
 62
250
  6
CONTINUOUS
 10
178.1486471899
 20
137.6430177418
 11
178.3486167289
 21
137.6430177418
  0
LINE
  5
4F9
100
AcDbEntity
  8
RACCORDO
100
AcDbLine
 62
250
  6
CONTINUOUS
 10
178.4237953613
 20
137.6529151965
 11
178.6237649003
 21
137.6529151965
  0
LINE
  5
4FA
100
AcDbEntity
  8
RACCORDO
100
AcDbLine
 62
7
  6
CONTINUOUS
 10
179.9255098864
 20
86.3918591181
 11
179.9062184432
 21
86.508020954
  0
LINE
  5
4FB
100
AcDbEntity
  8
DRAFT
100
AcDbLine
 62
7
  6
CONTINUOUS
 10
180.1272254477
 20
116.234383078
 11
180.1272254477
 21
86.5286749367
  0
LINE
  5
4FC
100
AcDbEntity
  8
RACCORDO
100
AcDbLine
 62
250
  6
CONTINUOUS
 10
180.3096762002
 20
86.6374294038
 11
180.3096762002
 21
116.1256286109
  0
LINE
  5
4FD
100
AcDbEntity
  8
RACCORDO
100
AcDbLine
 62
250
  6
CONTINUOUS
 10
180.5066377508
 20
86.654800019
 11
180.5066377508
 21
116.1082579957
  0
LINE
  5
4FE
100
AcDbEntity
  8
RACCORDO
100
AcDbLine
 62
250
  6
CONTINUOUS
 10
181.0272254477
 20
86.654800019
 11
181.0272254477
 21
116.1082579957
  0
LINE
  5
4FF
100
AcDbEntity
  8
RACCORDO
100
AcDbLine
 62
7
  6
CONTINUOUS
 10
181.2272254477
 20
86.5286749367
 11
181.2272254477
 21
116.234383078
  0
LINE
  5
500
100
AcDbEntity
  8
DRAFT
100
AcDbLine
 62
7
  6
CONTINUOUS
 10
179.9272254477
 20
86.3815290074
 11
179.9290019634
 21
86.3922261502
  0
LINE
  5
501
100
AcDbEntity
  8
RACCORDO
100
AcDbLine
 62
7
  6
CONTINUOUS
 10
178.9272254477
 20
140.7984097449
 11
179.7062489042
 21
140.7984097449
  0
LINE
  5
502
100
AcDbEntity
  8
RACCORDO
100
AcDbLine
 62
250
  6
CONTINUOUS
 10
177.6475822001
 20
140.8293422046
 11
177.8475517391
 21
140.8293422046
  0
LINE
  5
503
100
AcDbEntity
  8
RACCORDO
100
AcDbLine
 62
250
  6
CONTINUOUS
 10
177.9227303714
 20
140.8392396593
 11
178.1226999105
 21
140.8392396593
  0
LINE
  5
504
100
AcDbEntity
  8
RACCORDO
100
AcDbLine
 62
250
  6
CONTINUOUS
 10
178.4190152345
 20
130.3497377008
 11
178.4027883568
 21
130.4310704174
  0
LINE
  5
505
100
AcDbEntity
  8
RACCORDO
100
AcDbLine
 62
250
  6
CONTINUOUS
 10
178.6189847736
 20
130.5489766405
 11
178.6025145606
 21
130.6315290074
  0
LINE
  5
506
100
AcDbEntity
  8
DRAFT
100
AcDbLine
 62
7
  6
CONTINUOUS
 10
179.9290019634
 20
116.3708318645
 11
179.9272254477
 21
116.3815290074
  0
LINE
  5
507
100
AcDbEntity
  8
DRAFT
100
AcDbLine
 62
7
  6
CONTINUOUS
 10
179.9272254477
 20
63.5421641408
 11
179.8956763975
 21
63.3840332919
  0
LINE
  5
508
100
AcDbEntity
  8
RACCORDO
100
AcDbLine
 62
7
  6
CONTINUOUS
 10
179.9062184432
 20
58.9156021001
 11
179.9272254477
 21
59.0208938739
  0
LINE
  5
509
100
AcDbEntity
  8
RACCORDO
100
AcDbLine
 62
250
  6
CONTINUOUS
 10
178.4027883568
 20
50.3319875973
 11
178.4190152345
 21
50.4133203139
  0
LINE
  5
50A
100
AcDbEntity
  8
RACCORDO
100
AcDbLine
 62
250
  6
CONTINUOUS
 10
178.6025145606
 20
50.1315290074
 11
178.6189847736
 21
50.2140813742
  0
LINE
  5
50B
100
AcDbEntity
  8
RACCORDO
100
AcDbLine
 62
250
  6
CONTINUOUS
 10
177.842195982
 20
64.9770718609
 11
178.0025711314
 21
65.5756000666
  0
LINE
  5
50C
100
AcDbEntity
  8
RACCORDO
100
AcDbLine
 62
250
  6
CONTINUOUS
 10
178.0353517243
 20
64.9253159358
 11
178.1957268736
 21
65.5238441414
  0
LINE
  5
50D
100
AcDbEntity
  8
RACCORDO
100
AcDbLine
 62
250
  6
CONTINUOUS
 10
178.0930752917
 20
64.917716484
 11
178.253450441
 21
65.5162446896
  0
LINE
  5
50E
100
AcDbEntity
  8
RACCORDO
100
AcDbLine
 62
250
  6
CONTINUOUS
 10
178.2862310339
 20
64.8659605588
 11
178.4466061833
 21
65.4644887645
  0
LINE
  5
50F
100
AcDbEntity
  8
RACCORDO
100
AcDbLine
 62
250
  6
CONTINUOUS
 10
162.1499779587
 20
57.6041292135
 11
162.1306555341
 21
57.5848067889
  0
LINE
  5
510
100
AcDbEntity
  8
RACCORDO
100
AcDbLine
 62
250
  6
CONTINUOUS
 10
166.5046252416
 20
61.9587764964
 11
166.5239476661
 21
61.9780989209
  0
LINE
  5
511
100
AcDbEntity
  8
SMUSSO
100
AcDbLine
 62
7
  6
CONTINUOUS
 10
164.6771377403
 20
59.0315290074
 11
165.0772254477
 21
59.4316167147
  0
LINE
  5
512
100
AcDbEntity
  8
RACCORDO
100
AcDbLine
 62
250
  6
CONTINUOUS
 10
163.1498256538
 20
56.6042815183
 11
163.1305032293
 21
56.5849590938
  0
LINE
  5
513
100
AcDbEntity
  8
RACCORDO
100
AcDbLine
 62
250
  6
CONTINUOUS
 10
167.5044729367
 20
60.9589288012
 11
167.5237953613
 21
60.9782512258
  0
LINE
  5
514
100
AcDbEntity
  8
RACCORDO
100
AcDbLine
 62
250
  6
CONTINUOUS
 10
163.6307012256
 20
56.5849590938
 11
163.6500236501
 21
56.6042815183
  0
LINE
  5
515
100
AcDbEntity
  8
RACCORDO
100
AcDbLine
 62
250
  6
CONTINUOUS
 10
120.9850247551
 20
45.6349590938
 11
121.0271339069
 21
45.6489840723
  0
LINE
  5
516
100
AcDbEntity
  8
RACCORDO
100
AcDbLine
 62
250
  6
CONTINUOUS
 10
121.184750662
 20
45.4349895547
 11
121.2272254477
 21
45.4491363122
  0
LINE
  5
517
100
AcDbEntity
  8
RACCORDO
100
AcDbLine
 62
250
  6
CONTINUOUS
 10
177.9227303714
 20
145.5238183554
 11
178.1226999105
 21
145.5238183554
  0
LINE
  5
518
100
AcDbEntity
  8
RACCORDO
100
AcDbLine
 62
250
  6
CONTINUOUS
 10
177.6475822001
 20
145.5337158101
 11
177.8475517391
 21
145.5337158101
  0
LINE
  5
519
100
AcDbEntity
  8
RACCORDO
100
AcDbLine
 62
7
  6
CONTINUOUS
 10
178.9272254477
 20
145.5646482698
 11
179.7062489042
 21
145.5646482698
  0
LINE
  5
51A
100
AcDbEntity
  8
RACCORDO
100
AcDbLine
 62
250
  6
CONTINUOUS
 10
166.6237649003
 20
147.4281293819
 11
166.4237953613
 21
147.4281293819
  0
LINE
  5
51B
100
AcDbEntity
  8
RACCORDO
100
AcDbLine
 62
250
  6
CONTINUOUS
 10
118.2306859951
 20
147.4281293819
 11
118.4306555341
 21
147.4281293819
  0
LINE
  5
51C
100
AcDbEntity
  8
RACCORDO
100
AcDbLine
 62
7
  6
CONTINUOUS
 10
166.153944636
 20
147.5582177347
 11
118.7005062594
 21
147.5582177347
  0
LINE
  5
51D
100
AcDbEntity
  8
RACCORDO
100
AcDbLine
 62
250
  6
CONTINUOUS
 10
118.6306250731
 20
147.6280989209
 11
166.2238258223
 21
147.6280989209
  0
LINE
  5
51E
100
AcDbEntity
  8
RACCORDO
100
AcDbLine
 62
250
  6
CONTINUOUS
 10
118.6306250731
 20
147.82806846
 11
166.2238258223
 21
147.82806846
  0
LINE
  5
51F
100
AcDbEntity
  8
RACCORDO
100
AcDbLine
 62
250
  6
CONTINUOUS
 10
117.6237649003
 20
147.9850657071
 11
117.4237953613
 21
147.9850657071
  0
LINE
  5
520
100
AcDbEntity
  8
RACCORDO
100
AcDbLine
 62
250
  6
CONTINUOUS
 10
167.2306859951
 20
147.9850657071
 11
167.4306555341
 21
147.9850657071
  0
LINE
  5
521
100
AcDbEntity
  8
RACCORDO
100
AcDbLine
 62
250
  6
CONTINUOUS
 10
167.6604205367
 20
148.0148611707
 11
167.4604509976
 21
148.0148611707
  0
LINE
  5
522
100
AcDbEntity
  8
RACCORDO
100
AcDbLine
 62
250
  6
CONTINUOUS
 10
117.1940303587
 20
148.0148611707
 11
117.3939998978
 21
148.0148611707
  0
LINE
  5
523
100
AcDbEntity
  8
RACCORDO
100
AcDbLine
 62
250
  6
CONTINUOUS
 10
177.8247409171
 20
139.4836881509
 11
177.9851160665
 21
138.8851599452
  0
LINE
  5
524
100
AcDbEntity
  8
RACCORDO
100
AcDbLine
 62
250
  6
CONTINUOUS
 10
178.0178966593
 20
139.535444076
 11
178.1782718087
 21
138.9369158704
  0
LINE
  5
525
100
AcDbEntity
  8
RACCORDO
100
AcDbLine
 62
250
  6
CONTINUOUS
 10
178.253450441
 20
138.9468133251
 11
178.0930752917
 21
139.5453415307
  0
LINE
  5
526
100
AcDbEntity
  8
RACCORDO
100
AcDbLine
 62
250
  6
CONTINUOUS
 10
178.4466061833
 20
138.9985692502
 11
178.2862310339
 21
139.5970974559
  0
LINE
  5
527
100
AcDbEntity
  8
RACCORDO
100
AcDbLine
 62
250
  6
CONTINUOUS
 10
179.7274992439
 20
132.1315290074
 11
179.7110290309
 21
132.2140813742
  0
LINE
  5
528
100
AcDbEntity
  8
RACCORDO
100
AcDbLine
 62
250
  6
CONTINUOUS
 10
179.9272254477
 20
132.3319875973
 11
179.9109985699
 21
132.4133203139
  0
LINE
  5
529
100
AcDbEntity
  8
DRAFT
100
AcDbLine
 62
7
  6
CONTINUOUS
 10
179.9272254477
 20
140.9208938739
 11
179.8956763975
 21
141.0790247228
  0
LINE
  5
52A
100
AcDbEntity
  8
RACCORDO
100
AcDbLine
 62
7
  6
CONTINUOUS
 10
179.9062184432
 20
145.5474559146
 11
179.9272254477
 21
145.4421641408
  0
LINE
  5
52B
100
AcDbEntity
  8
RACCORDO
100
AcDbLine
 62
250
  6
CONTINUOUS
 10
179.7274992439
 20
48.6315290074
 11
179.7110290309
 21
48.5489766405
  0
LINE
  5
52C
100
AcDbEntity
  8
RACCORDO
100
AcDbLine
 62
250
  6
CONTINUOUS
 10
179.9272254477
 20
48.4310704174
 11
179.9109985699
 21
48.3497377008
  0
LINE
  5
52D
100
AcDbEntity
  8
RACCORDO
100
AcDbLine
 62
250
  6
CONTINUOUS
 10
163.9306555341
 20
56.2850047852
 11
163.9499779587
 21
56.3043272098
  0
LINE
  5
52E
100
AcDbEntity
  8
RACCORDO
100
AcDbLine
 62
250
  6
CONTINUOUS
 10
163.9499779587
 20
55.8041292135
 11
163.9306555341
 21
55.7848067889
  0
LINE
  5
52F
100
AcDbEntity
  8
RACCORDO
100
AcDbLine
 62
7
  6
CONTINUOUS
 10
166.7116290466
 20
57.6658423908
 11
166.3772254477
 21
57.3314413
  0
LINE
  5
530
100
AcDbEntity
  8
RACCORDO
100
AcDbLine
 62
250
  6
CONTINUOUS
 10
164.9498256538
 20
54.8042815183
 11
164.9305032293
 21
54.7849590938
  0
LINE
  5
531
100
AcDbEntity
  8
RACCORDO
100
AcDbLine
 62
250
  6
CONTINUOUS
 10
122.4697002334
 20
44.3525055509
 11
122.4272254477
 21
44.3383587934
  0
LINE
  5
532
100
AcDbEntity
  8
RACCORDO
100
AcDbLine
 62
250
  6
CONTINUOUS
 10
122.6694261403
 20
44.1525360118
 11
122.6273169885
 21
44.1385110333
  0
LINE
  5
533
100
AcDbEntity
  8
RACCORDO
100
AcDbLine
 62
250
  6
CONTINUOUS
 10
166.7307621475
 20
148.4849895547
 11
118.1236887479
 21
148.4849895547
  0
LINE
  5
534
100
AcDbEntity
  8
RACCORDO
100
AcDbLine
 62
250
  6
CONTINUOUS
 10
166.7307621475
 20
148.6849590938
 11
118.1236887479
 21
148.6849590938
  0
LINE
  5
535
100
AcDbEntity
  8
RACCORDO
100
AcDbLine
 62
250
  6
CONTINUOUS
 10
178.4237953613
 20
148.7101428182
 11
178.6237649003
 21
148.7101428182
  0
LINE
  5
536
100
AcDbEntity
  8
RACCORDO
100
AcDbLine
 62
250
  6
CONTINUOUS
 10
166.760557611
 20
148.7147545573
 11
118.0938932844
 21
148.7147545573
  0
LINE
  5
537
100
AcDbEntity
  8
RACCORDO
100
AcDbLine
 62
250
  6
CONTINUOUS
 10
178.1486471899
 20
148.7200402729
 11
178.3486167289
 21
148.7200402729
  0
LINE
  5
538
100
AcDbEntity
  8
RACCORDO
100
AcDbLine
 62
250
  6
CONTINUOUS
 10
166.760557611
 20
148.9147240963
 11
118.0938932844
 21
148.9147240963
  0
LINE
  5
539
100
AcDbEntity
  8
RACCORDO
100
AcDbLine
 62
7
  6
CONTINUOUS
 10
167.1772254477
 20
148.9315290074
 11
117.6772254477
 21
148.9315290074
  0
LINE
  5
53A
100
AcDbEntity
  8
RACCORDO
100
AcDbLine
 62
250
  6
CONTINUOUS
 10
106.4306555341
 20
150.0508792914
 11
104.9482324522
 21
150.0508792914
  0
LINE
  5
53B
100
AcDbEntity
  8
RACCORDO
100
AcDbLine
 62
250
  6
CONTINUOUS
 10
106.2354661218
 20
150.5489766405
 11
105.1434218645
 21
150.5489766405
  0
LINE
  5
53C
100
AcDbEntity
  8
RACCORDO
100
AcDbLine
 62
7
  6
CONTINUOUS
 10
105.1269516515
 20
150.6315290074
 11
106.2519363348
 21
150.6315290074
  0
LINE
  5
53D
100
AcDbEntity
  8
RACCORDO
100
AcDbLine
 62
7
  6
CONTINUOUS
 10
106.2519363348
 20
152.1315290074
 11
105.1269516515
 21
152.1315290074
  0
LINE
  5
53E
100
AcDbEntity
  8
RACCORDO
100
AcDbLine
 62
250
  6
CONTINUOUS
 10
105.1434218645
 20
152.2140813742
 11
106.2354661218
 21
152.2140813742
  0
LINE
  5
53F
100
AcDbEntity
  8
RACCORDO
100
AcDbLine
 62
250
  6
CONTINUOUS
 10
104.9482324522
 20
152.7121787233
 11
106.4306555341
 21
152.7121787233
  0
LINE
  5
540
100
AcDbEntity
  8
RACCORDO
100
AcDbLine
 62
250
  6
CONTINUOUS
 10
177.9227303714
 20
145.5238183554
 11
177.8475517391
 21
145.5337158101
  0
LINE
  5
541
100
AcDbEntity
  8
RACCORDO
100
AcDbLine
 62
250
  6
CONTINUOUS
 10
178.0930752917
 20
146.817716484
 11
178.0178966593
 21
146.8276139387
  0
LINE
  5
542
100
AcDbEntity
  8
RACCORDO
100
AcDbLine
 62
250
  6
CONTINUOUS
 10
178.253450441
 20
147.4162446896
 11
178.1782718087
 21
147.4261421443
  0
LINE
  5
543
100
AcDbEntity
  8
RACCORDO
100
AcDbLine
 62
7
  6
CONTINUOUS
 10
173.4272254477
 20
153.4315290074
 11
111.4272254477
 21
153.4315290074
  0
LINE
  5
544
100
AcDbEntity
  8
RACCORDO
100
AcDbLine
 62
250
  6
CONTINUOUS
 10
175.3695628069
 20
153.4738968275
 11
164.6725270341
 21
153.4738968283
  0
LINE
  5
545
100
AcDbEntity
  8
RACCORDO
100
AcDbLine
 62
250
  6
CONTINUOUS
 10
109.4848880885
 20
153.4738968275
 11
120.181927387
 21
153.4738968272
  0
LINE
  5
546
100
AcDbEntity
  8
RACCORDO
100
AcDbLine
 62
250
  6
CONTINUOUS
 10
175.6237649003
 20
153.5281293819
 11
175.4237953613
 21
153.5281293819
  0
LINE
  5
547
100
AcDbEntity
  8
RACCORDO
100
AcDbLine
 62
250
  6
CONTINUOUS
 10
109.2306859951
 20
153.5281293819
 11
109.4306555341
 21
153.5281293819
  0
LINE
  5
548
100
AcDbEntity
  8
RACCORDO
100
AcDbLine
 62
250
  6
CONTINUOUS
 10
175.1695932678
 20
153.6738663665
 11
164.5521994133
 21
153.6738661046
  0
LINE
  5
549
100
AcDbEntity
  8
RACCORDO
100
AcDbLine
 62
250
  6
CONTINUOUS
 10
120.3022567098
 20
153.6738657914
 11
109.6848576276
 21
153.6738663665
  0
LINE
  5
54A
100
AcDbEntity
  8
RACCORDO
100
AcDbLine
 62
250
  6
CONTINUOUS
 10
109.6306250731
 20
153.7280989209
 11
175.2238258223
 21
153.7280989209
  0
LINE
  5
54B
100
AcDbEntity
  8
0
100
AcDbLine
 62
250
  6
CONTINUOUS
 10
109.1859936672
 20
153.7315290074
 11
108.6684572282
 21
153.7315290074
  0
LINE
  5
54C
100
AcDbEntity
  8
0
100
AcDbLine
 62
250
  6
CONTINUOUS
 10
175.6684572282
 20
153.7315290074
 11
176.1859936672
 21
153.7315290074
  0
LINE
  5
54D
100
AcDbEntity
  8
RACCORDO
100
AcDbLine
 62
250
  6
CONTINUOUS
 10
109.6306250731
 20
153.92806846
 11
175.2238258223
 21
153.92806846
  0
LINE
  5
54E
100
AcDbEntity
  8
0
100
AcDbLine
 62
7
  6
CONTINUOUS
 10
109.4272254477
 20
153.9727607879
 11
175.4272254477
 21
153.9727607879
  0
LINE
  5
54F
100
AcDbEntity
  8
0
100
AcDbLine
 62
250
  6
CONTINUOUS
 10
175.4272254477
 20
154.0955828393
 11
109.4272254477
 21
154.0955828393
  0
LINE
  5
550
100
AcDbEntity
  8
0
100
AcDbLine
 62
250
  6
CONTINUOUS
 10
109.4272254477
 20
154.3674751754
 11
175.4272254477
 21
154.3674751754
  0
LINE
  5
551
100
AcDbEntity
  8
0
100
AcDbLine
 62
7
  6
CONTINUOUS
 10
175.4272254477
 20
154.4902972268
 11
109.4272254477
 21
154.4902972268
  0
LINE
  5
552
100
AcDbEntity
  8
RACCORDO
100
AcDbLine
 62
250
  6
CONTINUOUS
 10
107.9237953613
 20
155.0349895547
 11
176.9306555341
 21
155.0349895547
  0
LINE
  5
553
100
AcDbEntity
  8
RACCORDO
100
AcDbLine
 62
250
  6
CONTINUOUS
 10
177.1866031341
 20
155.0909676157
 11
176.986633595
 21
155.0909676157
  0
LINE
  5
554
100
AcDbEntity
  8
RACCORDO
100
AcDbLine
 62
250
  6
CONTINUOUS
 10
107.6678477613
 20
155.0909676157
 11
107.8678173004
 21
155.0909676157
  0
LINE
  5
555
100
AcDbEntity
  8
RACCORDO
100
AcDbLine
 62
250
  6
CONTINUOUS
 10
176.7306859951
 20
155.2349590938
 11
108.1237649003
 21
155.2349590938
  0
LINE
  5
556
100
AcDbEntity
  8
RACCORDO
100
AcDbLine
 62
250
  6
CONTINUOUS
 10
176.786664056
 20
155.2909371547
 11
108.0677868394
 21
155.2909371547
  0
LINE
  5
557
100
AcDbEntity
  8
RACCORDO
100
AcDbLine
 62
250
  6
CONTINUOUS
 10
176.786664056
 20
155.4909066937
 11
108.0677868394
 21
155.4909066937
  0
LINE
  5
558
100
AcDbEntity
  8
RACCORDO
100
AcDbLine
 62
250
  6
CONTINUOUS
 10
106.5058341664
 20
156.8529507496
 11
178.3486167289
 21
156.8529507496
  0
LINE
  5
559
100
AcDbEntity
  8
RACCORDO
100
AcDbLine
 62
250
  6
CONTINUOUS
 10
106.4306555341
 20
156.9281293819
 11
106.2306859951
 21
156.9281293819
  0
LINE
  5
55A
100
AcDbEntity
  8
RACCORDO
100
AcDbLine
 62
250
  6
CONTINUOUS
 10
178.4237953613
 20
156.9281293819
 11
178.6237649003
 21
156.9281293819
  0
LINE
  5
55B
100
AcDbEntity
  8
RACCORDO
100
AcDbLine
 62
250
  6
CONTINUOUS
 10
106.7058037055
 20
157.0529202886
 11
178.1486471899
 21
157.0529202886
  0
LINE
  5
55C
100
AcDbEntity
  8
RACCORDO
100
AcDbLine
 62
250
  6
CONTINUOUS
 10
178.2238258223
 20
157.1280989209
 11
106.6306250731
 21
157.1280989209
  0
LINE
  5
55D
100
AcDbEntity
  8
RACCORDO
100
AcDbLine
 62
250
  6
CONTINUOUS
 10
178.4237953613
 20
148.7101428182
 11
178.3486167289
 21
148.7200402729
  0
LINE
  5
55E
100
AcDbEntity
  8
RACCORDO
100
AcDbLine
 62
250
  6
CONTINUOUS
 10
177.8247409171
 20
146.8793698638
 11
178.0178966593
 21
146.8276139387
  0
LINE
  5
55F
100
AcDbEntity
  8
RACCORDO
100
AcDbLine
 62
250
  6
CONTINUOUS
 10
178.0930752917
 20
146.817716484
 11
178.2862310339
 21
146.7659605588
  0
LINE
  5
560
100
AcDbEntity
  8
RACCORDO
100
AcDbLine
 62
250
  6
CONTINUOUS
 10
177.9851160665
 20
147.4778980695
 11
178.1782718087
 21
147.4261421443
  0
LINE
  5
561
100
AcDbEntity
  8
RACCORDO
100
AcDbLine
 62
250
  6
CONTINUOUS
 10
178.253450441
 20
147.4162446896
 11
178.4466061833
 21
147.3644887645
  0
LINE
  5
562
100
AcDbEntity
  8
RACCORDO
100
AcDbLine
 62
250
  6
CONTINUOUS
 10
162.1850247551
 20
45.6349590938
 11
162.2271339069
 21
45.6489840723
  0
LINE
  5
563
100
AcDbEntity
  8
RACCORDO
100
AcDbLine
 62
250
  6
CONTINUOUS
 10
162.384750662
 20
45.4349895547
 11
162.4272254477
 21
45.4491363122
  0
LINE
  5
564
100
AcDbEntity
  8
RACCORDO
100
AcDbLine
 62
250
  6
CONTINUOUS
 10
178.2238258223
 20
157.32806846
 11
106.6306250731
 21
157.32806846
  0
LINE
  5
565
100
AcDbEntity
  8
RACCORDO
100
AcDbLine
 62
250
  6
CONTINUOUS
 10
179.9062184432
 20
157.6106743077
 11
179.7062489042
 21
157.6106743077
  0
LINE
  5
566
100
AcDbEntity
  8
RACCORDO
100
AcDbLine
 62
250
  6
CONTINUOUS
 10
104.9482324522
 20
157.6106743077
 11
105.1482019912
 21
157.6106743077
  0
LINE
  5
567
100
AcDbEntity
  8
RACCORDO
100
AcDbLine
 62
250
  6
CONTINUOUS
 10
105.9480801473
 20
158.4105524638
 11
178.906370748
 21
158.4105524638
  0
LINE
  5
568
100
AcDbEntity
  8
RACCORDO
100
AcDbLine
 62
250
  6
CONTINUOUS
 10
105.9480801473
 20
158.6105220029
 11
178.906370748
 21
158.6105220029
  0
LINE
  5
569
100
AcDbEntity
  8
RACCORDO
100
AcDbLine
 62
7
  6
CONTINUOUS
 10
105.9270731428
 20
158.6315290074
 11
178.9273777525
 21
158.6315290074
  0
LINE
  5
56A
100
AcDbEntity
  8
RACCORDO
100
AcDbLine
 62
250
  6
CONTINUOUS
 10
163.6697002334
 20
44.3525055509
 11
163.6272254477
 21
44.3383587934
  0
LINE
  5
56B
100
AcDbEntity
  8
RACCORDO
100
AcDbLine
 62
250
  6
CONTINUOUS
 10
163.8694261403
 20
44.1525360118
 11
163.8273169885
 21
44.1385110333
  0
ARC
  5
56C
100
AcDbEntity
  8
RACCORDO
100
AcDbCircle
 62
250
  6
CONTINUOUS
 10
126.4297955945
 20
-66.3856126831
 40
219.9482661429
100
AcDbArc
 50
91.6277674983
 51
91.9783047531
  0
ARC
  5
56D
100
AcDbEntity
  8
RACCORDO
100
AcDbCircle
 62
250
  6
CONTINUOUS
 10
105.9481042691
 20
45.1524078288
 40
0.9998707768
100
AcDbArc
 50
180.001382254
 51
269.998617746
  0
ARC
  5
56E
100
AcDbEntity
  8
RACCORDO
100
AcDbCircle
 62
7
  6
CONTINUOUS
 10
105.927012155
 20
45.1313157147
 40
0.9997846384
100
AcDbArc
 50
179.9965049109
 51
270.0034950891
  0
ARC
  5
56F
100
AcDbEntity
  8
RACCORDO
100
AcDbCircle
 62
250
  6
CONTINUOUS
 10
105.9480313777
 20
45.1523349374
 40
0.7998277314
100
AcDbArc
 50
179.9965063896
 51
270.0034936104
  0
ARC
  5
570
100
AcDbEntity
  8
RACCORDO
100
AcDbCircle
 62
250
  6
CONTINUOUS
 10
120.9846666445
 20
44.352602735
 40
0.2000768711
100
AcDbArc
 50
270.1025567998
 51
359.9721704818
  0
ARC
  5
571
100
AcDbEntity
  8
RACCORDO
100
AcDbCircle
 62
250
  6
CONTINUOUS
 10
122.6697842519
 20
45.4348923716
 40
0.2000768711
100
AcDbArc
 50
90.1025570953
 51
179.9721707858
  0
ARC
  5
572
100
AcDbEntity
  8
RACCORDO
100
AcDbCircle
 62
250
  6
CONTINUOUS
 10
122.6697842442
 20
44.3526027302
 40
0.2000768652
100
AcDbArc
 50
180.0278281399
 51
269.89744511
  0
ARC
  5
573
100
AcDbEntity
  8
RACCORDO
100
AcDbCircle
 62
250
  6
CONTINUOUS
 10
120.9846666499
 20
45.4348923766
 40
0.2000768651
100
AcDbArc
 50
0.0278277852
 51
89.8974447616
  0
ARC
  5
574
100
AcDbEntity
  8
RACCORDO
100
AcDbCircle
 62
250
  6
CONTINUOUS
 10
47.1979903523
 20
68.5721159883
 40
62.4868673287
100
AcDbArc
 50
359.6637213031
 51
0.0023695537
  0
ARC
  5
575
100
AcDbEntity
  8
RACCORDO
100
AcDbCircle
 62
250
  6
CONTINUOUS
 10
71.6848473294
 20
68.5726870068
 40
37.8000408128
100
AcDbArc
 50
359.5676374794
 51
0.0030515585
  0
ARC
  5
576
100
AcDbEntity
  8
RACCORDO
100
AcDbCircle
 62
7
  6
CONTINUOUS
 10
87.4074625777
 20
68.184390816
 40
20.4778099876
100
AcDbArc
 50
359.9919928176
 51
0.6077769511
  0
ARC
  5
577
100
AcDbEntity
  8
RACCORDO
100
AcDbCircle
 62
7
  6
CONTINUOUS
 10
89.1705976417
 20
48.5694248762
 40
18.7146786379
100
AcDbArc
 50
359.3645998499
 51
0.0370573117
  0
ARC
  5
578
100
AcDbEntity
  8
RACCORDO
100
AcDbCircle
 62
250
  6
CONTINUOUS
 10
109.6306045995
 20
49.2349081591
 40
0.3999186049
100
AcDbArc
 50
179.9970667661
 51
270.0029332339
  0
ARC
  5
579
100
AcDbEntity
  8
RACCORDO
100
AcDbCircle
 62
250
  6
CONTINUOUS
 10
108.067764432
 20
47.6720679917
 40
0.3999166713
100
AcDbArc
 50
179.9967897103
 51
270.0032102897
  0
ARC
  5
57A
100
AcDbEntity
  8
RACCORDO
100
AcDbCircle
 62
250
  6
CONTINUOUS
 10
106.630600946
 20
45.8349045056
 40
0.3999141233
100
AcDbArc
 50
179.9965433027
 51
270.0034566979
  0
ARC
  5
57B
100
AcDbEntity
  8
RACCORDO
100
AcDbCircle
 62
250
  6
CONTINUOUS
 10
106.7059263638
 20
48.1813508234
 40
0.2001810408
100
AcDbArc
 50
93.0299905581
 51
96.0286746997
  0
ARC
  5
57C
100
AcDbEntity
  8
RACCORDO
100
AcDbCircle
 62
250
  6
CONTINUOUS
 10
108.123848154
 20
47.7281517136
 40
0.200053929
100
AcDbArc
 50
180.0238441152
 51
269.9761558848
  0
ARC
  5
57D
100
AcDbEntity
  8
RACCORDO
100
AcDbCircle
 62
250
  6
CONTINUOUS
 10
106.7058869591
 20
45.9101905188
 40
0.200053929
100
AcDbArc
 50
180.0238441186
 51
269.9761558814
  0
ARC
  5
57E
100
AcDbEntity
  8
RACCORDO
100
AcDbCircle
 62
250
  6
CONTINUOUS
 10
109.6692313226
 20
49.2735348823
 40
0.2000539289
100
AcDbArc
 50
180.0238440736
 51
269.9761559264
  0
ARC
  5
57F
100
AcDbEntity
  8
RACCORDO
100
AcDbCircle
 62
250
  6
CONTINUOUS
 10
107.6678130353
 20
48.1815358926
 40
0.2000042652
100
AcDbArc
 50
359.9980275639
 51
83.9700558294
  0
ARC
  5
580
100
AcDbEntity
  8
RACCORDO
100
AcDbCircle
 62
250
  6
CONTINUOUS
 10
106.7058384312
 20
48.1815358927
 40
0.2000042648
100
AcDbArc
 50
120.0058194121
 51
180.0019724756
  0
ARC
  5
581
100
AcDbEntity
  8
RACCORDO
100
AcDbCircle
 62
250
  6
CONTINUOUS
 10
107.6782877721
 20
48.1815365868
 40
0.2000025674
100
AcDbArc
 50
359.9978286646
 51
61.1061732487
  0
ARC
  5
582
100
AcDbEntity
  8
RACCORDO
100
AcDbCircle
 62
250
  6
CONTINUOUS
 10
106.6953616056
 20
48.1815376243
 40
0.2000004783
100
AcDbArc
 50
116.8553552478
 51
180.002468576
  0
ARC
  5
583
100
AcDbEntity
  8
RACCORDO
100
AcDbCircle
 62
250
  6
CONTINUOUS
 10
109.6305294945
 20
49.2348330541
 40
0.1998732978
100
AcDbArc
 50
179.9726014642
 51
270.0273985377
  0
ARC
  5
584
100
AcDbEntity
  8
RACCORDO
100
AcDbCircle
 62
250
  6
CONTINUOUS
 10
108.067690456
 20
47.6719940157
 40
0.1998723127
100
AcDbArc
 50
179.9723706747
 51
270.0276293266
  0
ARC
  5
585
100
AcDbEntity
  8
RACCORDO
100
AcDbCircle
 62
250
  6
CONTINUOUS
 10
106.6305276389
 20
45.8348311986
 40
0.1998710261
100
AcDbArc
 50
179.9720693027
 51
270.0279306991
  0
ARC
  5
586
100
AcDbEntity
  8
RACCORDO
100
AcDbCircle
 62
250
  6
CONTINUOUS
 10
116.5304314297
 20
57.5847349894
 40
1.1997420899
100
AcDbArc
 50
179.9965710974
 51
270.0034289041
  0
ARC
  5
587
100
AcDbEntity
  8
RACCORDO
100
AcDbCircle
 62
250
  6
CONTINUOUS
 10
118.3304314297
 20
55.7847349894
 40
1.1997420899
100
AcDbArc
 50
179.9965710974
 51
270.0034289041
  0
ARC
  5
588
100
AcDbEntity
  8
RACCORDO
100
AcDbCircle
 62
250
  6
CONTINUOUS
 10
118.3498497377
 20
55.8041532974
 40
0.9998717793
100
AcDbArc
 50
180.001380081
 51
269.998619919
  0
ARC
  5
589
100
AcDbEntity
  8
RACCORDO
100
AcDbCircle
 62
250
  6
CONTINUOUS
 10
116.5498497377
 20
57.6041532974
 40
0.9998717793
100
AcDbArc
 50
180.001380081
 51
269.998619919
  0
ARC
  5
58A
100
AcDbEntity
  8
RACCORDO
100
AcDbCircle
 62
250
  6
CONTINUOUS
 10
118.3303569443
 20
55.7846605039
 40
0.999698989
100
AcDbArc
 50
179.9916159842
 51
270.0083840158
  0
ARC
  5
58B
100
AcDbEntity
  8
RACCORDO
100
AcDbCircle
 62
250
  6
CONTINUOUS
 10
116.5303569443
 20
57.5846605039
 40
0.999698989
100
AcDbArc
 50
179.9916159842
 51
270.0083840158
  0
ARC
  5
58C
100
AcDbEntity
  8
RACCORDO
100
AcDbCircle
 62
250
  6
CONTINUOUS
 10
118.349777684
 20
55.8040812437
 40
0.7998285311
100
AcDbArc
 50
179.9965636866
 51
270.0034363132
  0
ARC
  5
58D
100
AcDbEntity
  8
RACCORDO
100
AcDbCircle
 62
250
  6
CONTINUOUS
 10
116.549777684
 20
57.6040812437
 40
0.7998285311
100
AcDbArc
 50
179.9965636867
 51
270.0034363132
  0
ARC
  5
58E
100
AcDbEntity
  8
RACCORDO
100
AcDbCircle
 62
250
  6
CONTINUOUS
 10
117.0500497348
 20
56.3043532945
 40
0.4998977636
100
AcDbArc
 50
359.9970103013
 51
90.0029896987
  0
ARC
  5
58F
100
AcDbEntity
  8
RACCORDO
100
AcDbCircle
 62
250
  6
CONTINUOUS
 10
117.0306342835
 20
56.2849378431
 40
0.3000218793
100
AcDbArc
 50
0.0127840915
 51
89.9872159082
  0
ARC
  5
590
100
AcDbEntity
  8
RACCORDO
100
AcDbCircle
 62
250
  6
CONTINUOUS
 10
117.0501244045
 20
56.3044279642
 40
0.2998528053
100
AcDbArc
 50
359.9807479286
 51
90.0192520719
  0
ARC
  5
591
100
AcDbEntity
  8
RACCORDO
100
AcDbCircle
 62
250
  6
CONTINUOUS
 10
117.0307074136
 20
56.2850109733
 40
0.0999785816
100
AcDbArc
 50
359.9964537433
 51
90.0035462567
  0
ARC
  5
592
100
AcDbEntity
  8
RACCORDO
100
AcDbCircle
 62
250
  6
CONTINUOUS
 10
118.3304314297
 20
60.9783230254
 40
1.1997420899
100
AcDbArc
 50
89.9965710974
 51
180.0034289041
  0
ARC
  5
593
100
AcDbEntity
  8
RACCORDO
100
AcDbCircle
 62
250
  6
CONTINUOUS
 10
116.5304314297
 20
59.1783230254
 40
1.1997420899
100
AcDbArc
 50
89.9965710974
 51
180.0034289041
  0
ARC
  5
594
100
AcDbEntity
  8
RACCORDO
100
AcDbCircle
 62
250
  6
CONTINUOUS
 10
116.5498497377
 20
59.1589047173
 40
0.9998717793
100
AcDbArc
 50
90.001380081
 51
179.998619919
  0
ARC
  5
595
100
AcDbEntity
  8
RACCORDO
100
AcDbCircle
 62
250
  6
CONTINUOUS
 10
118.3498497377
 20
60.9589047173
 40
0.9998717793
100
AcDbArc
 50
90.001380081
 51
179.998619919
  0
ARC
  5
596
100
AcDbEntity
  8
RACCORDO
100
AcDbCircle
 62
250
  6
CONTINUOUS
 10
116.5303569443
 20
59.1783975108
 40
0.999698989
100
AcDbArc
 50
89.9916159842
 51
180.0083840158
  0
ARC
  5
597
100
AcDbEntity
  8
RACCORDO
100
AcDbCircle
 62
250
  6
CONTINUOUS
 10
118.3303569443
 20
60.9783975108
 40
0.999698989
100
AcDbArc
 50
89.9916159842
 51
180.0083840158
  0
ARC
  5
598
100
AcDbEntity
  8
RACCORDO
100
AcDbCircle
 62
250
  6
CONTINUOUS
 10
116.5497774233
 20
59.1589770318
 40
0.7998285311
100
AcDbArc
 50
89.9965450049
 51
180.003454995
  0
ARC
  5
599
100
AcDbEntity
  8
RACCORDO
100
AcDbCircle
 62
250
  6
CONTINUOUS
 10
118.3497774233
 20
60.9589770318
 40
0.7998285311
100
AcDbArc
 50
89.9965450049
 51
180.003454995
  0
ARC
  5
59A
100
AcDbEntity
  8
RACCORDO
100
AcDbCircle
 62
250
  6
CONTINUOUS
 10
117.0500497348
 20
60.4587047202
 40
0.4998977636
100
AcDbArc
 50
269.9970103013
 51
0.0029896987
  0
ARC
  5
59B
100
AcDbEntity
  8
RACCORDO
100
AcDbCircle
 62
250
  6
CONTINUOUS
 10
117.0306342835
 20
60.4781201716
 40
0.3000218793
100
AcDbArc
 50
270.0127840915
 51
359.9872159082
  0
ARC
  5
59C
100
AcDbEntity
  8
RACCORDO
100
AcDbCircle
 62
250
  6
CONTINUOUS
 10
117.0501244045
 20
60.4586300505
 40
0.2998528053
100
AcDbArc
 50
269.9807479286
 51
0.0192520719
  0
ARC
  5
59D
100
AcDbEntity
  8
RACCORDO
100
AcDbCircle
 62
250
  6
CONTINUOUS
 10
117.0307074136
 20
60.4780470414
 40
0.0999785816
100
AcDbArc
 50
269.9964537433
 51
0.0035462567
  0
ARC
  5
59E
100
AcDbEntity
  8
RACCORDO
100
AcDbCircle
 62
250
  6
CONTINUOUS
 10
119.9240192116
 20
55.7847352434
 40
1.1997420899
100
AcDbArc
 50
269.9965832311
 51
0.0034167705
  0
ARC
  5
59F
100
AcDbEntity
  8
RACCORDO
100
AcDbCircle
 62
250
  6
CONTINUOUS
 10
119.9046011577
 20
55.8041532974
 40
0.9998717793
100
AcDbArc
 50
270.001380081
 51
359.998619919
  0
ARC
  5
5A0
100
AcDbEntity
  8
RACCORDO
100
AcDbCircle
 62
250
  6
CONTINUOUS
 10
119.9240935447
 20
55.7846609104
 40
0.999699489
100
AcDbArc
 50
269.9916392816
 51
0.0083607184
  0
ARC
  5
5A1
100
AcDbEntity
  8
RACCORDO
100
AcDbCircle
 62
250
  6
CONTINUOUS
 10
119.9046732114
 20
55.8040812437
 40
0.7998285311
100
AcDbArc
 50
269.9965636866
 51
0.0034363132
  0
ARC
  5
5A2
100
AcDbEntity
  8
RACCORDO
100
AcDbCircle
 62
250
  6
CONTINUOUS
 10
121.2044025701
 20
55.9555791983
 40
0.499899173
100
AcDbArc
 50
91.8199697535
 51
180.0027395711
  0
ARC
  5
5A3
100
AcDbEntity
  8
RACCORDO
100
AcDbCircle
 62
250
  6
CONTINUOUS
 10
121.2238164859
 20
55.9368454115
 40
0.300021131
100
AcDbArc
 50
92.2733784987
 51
179.9877339455
  0
ARC
  5
5A4
100
AcDbEntity
  8
RACCORDO
100
AcDbCircle
 62
250
  6
CONTINUOUS
 10
121.2043284192
 20
55.9556510266
 40
0.2998547999
100
AcDbArc
 50
91.8044167181
 51
180.0182925087
  0
ARC
  5
5A5
100
AcDbEntity
  8
RACCORDO
100
AcDbCircle
 62
7
  6
CONTINUOUS
 10
120.2702069749
 20
57.5072419433
 40
0.2242780958
100
AcDbArc
 50
45.5766650764
 51
134.9959307043
  0
ARC
  5
5A6
100
AcDbEntity
  8
RACCORDO
100
AcDbCircle
 62
250
  6
CONTINUOUS
 10
121.2237439255
 20
55.9369151635
 40
0.09997888
100
AcDbArc
 50
92.257947892
 51
180.0031645405
  0
ARC
  5
5A7
100
AcDbEntity
  8
RACCORDO
100
AcDbCircle
 62
250
  6
CONTINUOUS
 10
121.1272254477
 20
58.3815290074
 40
2.3465394526
100
AcDbArc
 50
272.2611124271
 51
87.7388875729
  0
ARC
  5
5A8
100
AcDbEntity
  8
RACCORDO
100
AcDbCircle
 62
250
  6
CONTINUOUS
 10
121.1272254477
 20
58.3815290074
 40
2.1465699136
100
AcDbArc
 50
272.2611124271
 51
87.7388875729
  0
ARC
  5
5A9
100
AcDbEntity
  8
RACCORDO
100
AcDbCircle
 62
250
  6
CONTINUOUS
 10
121.1272254477
 20
58.3815290074
 40
2.127247489
100
AcDbArc
 50
271.8227093228
 51
88.1772906773
  0
ARC
  5
5AA
100
AcDbEntity
  8
RACCORDO
100
AcDbCircle
 62
250
  6
CONTINUOUS
 10
121.1272254477
 20
58.3815290074
 40
1.92727795
100
AcDbArc
 50
271.8227093226
 51
88.1772906774
  0
ARC
  5
5AB
100
AcDbEntity
  8
RACCORDO
100
AcDbCircle
 62
250
  6
CONTINUOUS
 10
119.9240192116
 20
60.9783227713
 40
1.1997420899
100
AcDbArc
 50
359.9965832311
 51
90.0034167705
  0
ARC
  5
5AC
100
AcDbEntity
  8
RACCORDO
100
AcDbCircle
 62
7
  6
CONTINUOUS
 10
121.1272254477
 20
58.3815290074
 40
1.0
100
AcDbArc
 50
225.5703016169
 51
134.4296992546
  0
ARC
  5
5AD
100
AcDbEntity
  8
RACCORDO
100
AcDbCircle
 62
250
  6
CONTINUOUS
 10
119.9046011577
 20
60.9589047173
 40
0.9998717793
100
AcDbArc
 50
0.001380081
 51
89.998619919
  0
ARC
  5
5AE
100
AcDbEntity
  8
RACCORDO
100
AcDbCircle
 62
250
  6
CONTINUOUS
 10
119.9240935447
 20
60.9783971043
 40
0.999699489
100
AcDbArc
 50
359.9916392816
 51
90.0083607184
  0
ARC
  5
5AF
100
AcDbEntity
  8
RACCORDO
100
AcDbCircle
 62
250
  6
CONTINUOUS
 10
119.9046734721
 20
60.9589770318
 40
0.7998285311
100
AcDbArc
 50
359.9965450049
 51
90.003454995
  0
ARC
  5
5B0
100
AcDbEntity
  8
RACCORDO
100
AcDbCircle
 62
250
  6
CONTINUOUS
 10
121.2044026159
 20
60.8074788608
 40
0.4998992188
100
AcDbArc
 50
179.9972655196
 51
268.1800251559
  0
ARC
  5
5B1
100
AcDbEntity
  8
RACCORDO
100
AcDbCircle
 62
250
  6
CONTINUOUS
 10
121.2238164874
 20
60.8262126047
 40
0.3000211325
100
AcDbArc
 50
180.0122663306
 51
267.7266212313
  0
ARC
  5
5B2
100
AcDbEntity
  8
RACCORDO
100
AcDbCircle
 62
250
  6
CONTINUOUS
 10
121.2043284419
 20
60.8074070093
 40
0.2998548275
100
AcDbArc
 50
179.981711459
 51
268.1955790003
  0
ARC
  5
5B3
100
AcDbEntity
  8
RACCORDO
100
AcDbCircle
 62
7
  6
CONTINUOUS
 10
120.2702070487
 20
59.2558170328
 40
0.2242786285
100
AcDbArc
 50
225.004435878
 51
314.4231456553
  0
ARC
  5
5B4
100
AcDbEntity
  8
RACCORDO
100
AcDbCircle
 62
250
  6
CONTINUOUS
 10
121.223743927
 20
60.8261428527
 40
0.0999788805
100
AcDbArc
 50
179.9968362797
 51
267.742051288
  0
ARC
  5
5B5
100
AcDbEntity
  8
RACCORDO
100
AcDbCircle
 62
250
  6
CONTINUOUS
 10
115.988380593
 20
66.1915333044
 40
59.3968918572
100
AcDbArc
 50
359.9969368141
 51
0.4323741479
  0
ARC
  5
5B6
100
AcDbEntity
  8
RACCORDO
100
AcDbCircle
 62
250
  6
CONTINUOUS
 10
118.0938389641
 20
83.4981425237
 40
0.8998067433
100
AcDbArc
 50
179.9965411282
 51
270.0034588718
  0
ARC
  5
5B7
100
AcDbEntity
  8
RACCORDO
100
AcDbCircle
 62
250
  6
CONTINUOUS
 10
118.1237373462
 20
83.5280409059
 40
0.6999419866
100
AcDbArc
 50
180.0039781561
 51
269.9960218439
  0
ARC
  5
5B8
100
AcDbEntity
  8
RACCORDO
100
AcDbCircle
 62
250
  6
CONTINUOUS
 10
118.093765396
 20
83.4980689557
 40
0.6997636089
100
AcDbArc
 50
179.9895286874
 51
270.0104713125
  0
ARC
  5
5B9
100
AcDbEntity
  8
RACCORDO
100
AcDbCircle
 62
7
  6
CONTINUOUS
 10
117.6772254477
 20
82.9315290074
 40
0.5
100
AcDbArc
 50
180.0
 51
270.0
  0
ARC
  5
5BA
100
AcDbEntity
  8
RACCORDO
100
AcDbCircle
 62
7
  6
CONTINUOUS
 10
111.4272254477
 20
78.4315290074
 40
0.5
100
AcDbArc
 50
180.0
 51
270.0
  0
ARC
  5
5BB
100
AcDbEntity
  8
RACCORDO
100
AcDbCircle
 62
250
  6
CONTINUOUS
 10
118.123661901
 20
83.5279654606
 40
0.4998970014
100
AcDbArc
 50
179.9969229372
 51
270.0030770628
  0
ARC
  5
5BC
100
AcDbEntity
  8
RACCORDO
100
AcDbCircle
 62
250
  6
CONTINUOUS
 10
118.6306045995
 20
84.0849081591
 40
0.3999186049
100
AcDbArc
 50
179.9970667656
 51
270.0029332344
  0
ARC
  5
5BD
100
AcDbEntity
  8
RACCORDO
100
AcDbCircle
 62
250
  6
CONTINUOUS
 10
107.667725103
 20
68.5817071913
 40
0.2001810409
100
AcDbArc
 50
273.0299905581
 51
276.0286746994
  0
ARC
  5
5BE
100
AcDbEntity
  8
RACCORDO
100
AcDbCircle
 62
250
  6
CONTINUOUS
 10
106.7058384315
 20
68.5815221221
 40
0.2000042652
100
AcDbArc
 50
179.9980275639
 51
263.9700558293
  0
ARC
  5
5BF
100
AcDbEntity
  8
RACCORDO
100
AcDbCircle
 62
250
  6
CONTINUOUS
 10
107.6678130356
 20
68.581522122
 40
0.2000042648
100
AcDbArc
 50
300.0058194121
 51
0.0019724755
  0
ARC
  5
5C0
100
AcDbEntity
  8
RACCORDO
100
AcDbCircle
 62
250
  6
CONTINUOUS
 10
106.6953636947
 20
68.5815214279
 40
0.2000025674
100
AcDbArc
 50
179.9978286647
 51
241.1061732485
  0
ARC
  5
5C1
100
AcDbEntity
  8
RACCORDO
100
AcDbCircle
 62
250
  6
CONTINUOUS
 10
107.6782898612
 20
68.5815203904
 40
0.2000004783
100
AcDbArc
 50
296.8553552479
 51
0.002468576
  0
ARC
  5
5C2
100
AcDbEntity
  8
RACCORDO
100
AcDbCircle
 62
250
  6
CONTINUOUS
 10
118.6305294945
 20
84.0848330541
 40
0.1998732978
100
AcDbArc
 50
179.9726014634
 51
270.0273985385
  0
ARC
  5
5C3
100
AcDbEntity
  8
RACCORDO
100
AcDbCircle
 62
7
  6
CONTINUOUS
 10
126.966188889
 20
48.5786671987
 40
20.4778099875
100
AcDbArc
 50
179.9919928176
 51
180.6077769511
  0
ARC
  5
5C4
100
AcDbEntity
  8
RACCORDO
100
AcDbCircle
 62
250
  6
CONTINUOUS
 10
125.7878119985
 20
55.7662507338
 40
7.0186339105
100
AcDbArc
 50
133.8692266755
 51
134.0884278693
  0
ARC
  5
5C5
100
AcDbEntity
  8
RACCORDO
100
AcDbCircle
 62
250
  6
CONTINUOUS
 10
125.7878118967
 20
60.9968071752
 40
7.0186337637
100
AcDbArc
 50
225.911572128
 51
226.1307733263
  0
ARC
  5
5C6
100
AcDbEntity
  8
RACCORDO
100
AcDbCircle
 62
250
  6
CONTINUOUS
 10
125.4356187004
 20
60.0943295743
 40
5.7202720685
100
AcDbArc
 50
222.153332785
 51
222.4068644008
  0
ARC
  5
5C7
100
AcDbEntity
  8
RACCORDO
100
AcDbCircle
 62
250
  6
CONTINUOUS
 10
125.4356186554
 20
56.6687284812
 40
5.7202720077
100
AcDbArc
 50
137.5931355964
 51
137.8466672149
  0
ARC
  5
5C8
100
AcDbEntity
  8
RACCORDO
100
AcDbCircle
 62
250
  6
CONTINUOUS
 10
139.8304314297
 20
59.1783230254
 40
1.1997420899
100
AcDbArc
 50
89.9965710974
 51
180.0034289041
  0
ARC
  5
5C9
100
AcDbEntity
  8
RACCORDO
100
AcDbCircle
 62
250
  6
CONTINUOUS
 10
139.8304314297
 20
57.5847349894
 40
1.1997420899
100
AcDbArc
 50
179.9965710974
 51
270.0034289041
  0
ARC
  5
5CA
100
AcDbEntity
  8
RACCORDO
100
AcDbCircle
 62
250
  6
CONTINUOUS
 10
139.8498497377
 20
59.1589047173
 40
0.9998717793
100
AcDbArc
 50
90.001380081
 51
179.998619919
  0
ARC
  5
5CB
100
AcDbEntity
  8
RACCORDO
100
AcDbCircle
 62
250
  6
CONTINUOUS
 10
139.8498497377
 20
57.6041532974
 40
0.9998717793
100
AcDbArc
 50
180.001380081
 51
269.998619919
  0
ARC
  5
5CC
100
AcDbEntity
  8
RACCORDO
100
AcDbCircle
 62
250
  6
CONTINUOUS
 10
139.8303569443
 20
59.1783975108
 40
0.999698989
100
AcDbArc
 50
89.9916159842
 51
180.0083840158
  0
ARC
  5
5CD
100
AcDbEntity
  8
RACCORDO
100
AcDbCircle
 62
250
  6
CONTINUOUS
 10
139.8303569443
 20
57.5846605039
 40
0.999698989
100
AcDbArc
 50
179.9916159842
 51
270.0083840158
  0
ARC
  5
5CE
100
AcDbEntity
  8
RACCORDO
100
AcDbCircle
 62
250
  6
CONTINUOUS
 10
139.849777684
 20
57.6040812437
 40
0.7998285311
100
AcDbArc
 50
179.9965636866
 51
270.0034363132
  0
ARC
  5
5CF
100
AcDbEntity
  8
RACCORDO
100
AcDbCircle
 62
250
  6
CONTINUOUS
 10
139.8497774233
 20
59.1589770318
 40
0.7998285311
100
AcDbArc
 50
89.9965450049
 51
180.003454995
  0
ARC
  5
5D0
100
AcDbEntity
  8
RACCORDO
100
AcDbCircle
 62
250
  6
CONTINUOUS
 10
140.3500497348
 20
56.3043532945
 40
0.4998977636
100
AcDbArc
 50
359.9970103013
 51
90.0029896987
  0
ARC
  5
5D1
100
AcDbEntity
  8
RACCORDO
100
AcDbCircle
 62
250
  6
CONTINUOUS
 10
140.3500497348
 20
60.4587047202
 40
0.4998977636
100
AcDbArc
 50
269.9970103013
 51
0.0029896987
  0
ARC
  5
5D2
100
AcDbEntity
  8
RACCORDO
100
AcDbCircle
 62
250
  6
CONTINUOUS
 10
140.3306342835
 20
56.2849378431
 40
0.3000218793
100
AcDbArc
 50
0.0127840915
 51
89.9872159082
  0
ARC
  5
5D3
100
AcDbEntity
  8
RACCORDO
100
AcDbCircle
 62
250
  6
CONTINUOUS
 10
140.3306342835
 20
60.4781201716
 40
0.3000218793
100
AcDbArc
 50
270.0127840915
 51
359.9872159082
  0
ARC
  5
5D4
100
AcDbEntity
  8
RACCORDO
100
AcDbCircle
 62
250
  6
CONTINUOUS
 10
140.3501244045
 20
56.3044279642
 40
0.2998528053
100
AcDbArc
 50
359.9807479288
 51
90.0192520717
  0
ARC
  5
5D5
100
AcDbEntity
  8
RACCORDO
100
AcDbCircle
 62
250
  6
CONTINUOUS
 10
140.3501244045
 20
60.4586300505
 40
0.2998528053
100
AcDbArc
 50
269.980747929
 51
0.0192520715
  0
ARC
  5
5D6
100
AcDbEntity
  8
RACCORDO
100
AcDbCircle
 62
250
  6
CONTINUOUS
 10
140.3307074136
 20
60.4780470414
 40
0.0999785816
100
AcDbArc
 50
269.9964537434
 51
0.0035462566
  0
ARC
  5
5D7
100
AcDbEntity
  8
RACCORDO
100
AcDbCircle
 62
250
  6
CONTINUOUS
 10
140.3307074136
 20
56.2850109733
 40
0.0999785816
100
AcDbArc
 50
359.9964537434
 51
90.0035462566
  0
ARC
  5
5D8
100
AcDbEntity
  8
RACCORDO
100
AcDbCircle
 62
250
  6
CONTINUOUS
 10
135.42051799
 20
66.1909424312
 40
39.7647849203
100
AcDbArc
 50
359.9962758712
 51
0.5284363145
  0
ARC
  5
5D9
100
AcDbEntity
  8
RACCORDO
100
AcDbCircle
 62
7
  6
CONTINUOUS
 10
125.2030538279
 20
68.1936331385
 40
18.7146786407
100
AcDbArc
 50
179.36459985
 51
180.0370573117
  0
ARC
  5
5DA
100
AcDbEntity
  8
RACCORDO
100
AcDbCircle
 62
250
  6
CONTINUOUS
 10
105.9481042691
 20
157.6106501859
 40
0.9998707768
100
AcDbArc
 50
90.001382254
 51
179.998617746
  0
ARC
  5
5DB
100
AcDbEntity
  8
RACCORDO
100
AcDbCircle
 62
7
  6
CONTINUOUS
 10
105.927012155
 20
157.6317423
 40
0.9997846384
100
AcDbArc
 50
89.9965049109
 51
180.0034950891
  0
ARC
  5
5DC
100
AcDbEntity
  8
RACCORDO
100
AcDbCircle
 62
250
  6
CONTINUOUS
 10
118.0937753631
 20
148.0149743281
 40
0.8997227425
100
AcDbArc
 50
89.9981966789
 51
180.0009393065
  0
ARC
  5
5DD
100
AcDbEntity
  8
RACCORDO
100
AcDbCircle
 62
250
  6
CONTINUOUS
 10
105.9480311855
 20
157.6107232695
 40
0.7998277314
100
AcDbArc
 50
89.9964926183
 51
180.0035073817
  0
ARC
  5
5DE
100
AcDbEntity
  8
0
100
AcDbCircle
 62
7
  6
CONTINUOUS
 10
109.4272254477
 20
153.7315290074
 40
0.7587682195
100
AcDbArc
 50
90.0
 51
180.0
  0
ARC
  5
5DF
100
AcDbEntity
  8
RACCORDO
100
AcDbCircle
 62
250
  6
CONTINUOUS
 10
118.1237373462
 20
147.9850171088
 40
0.6999419866
100
AcDbArc
 50
90.0039781561
 51
179.9960218439
  0
ARC
  5
5E0
100
AcDbEntity
  8
RACCORDO
100
AcDbCircle
 62
250
  6
CONTINUOUS
 10
118.0937657121
 20
148.0149887429
 40
0.6997639977
100
AcDbArc
 50
89.989554575
 51
180.0104454249
  0
ARC
  5
5E1
100
AcDbEntity
  8
0
100
AcDbCircle
 62
250
  6
CONTINUOUS
 10
109.4272254477
 20
153.7315290074
 40
0.6359461681
100
AcDbArc
 50
90.0
 51
180.0
  0
ARC
  5
5E2
100
AcDbEntity
  8
RACCORDO
100
AcDbCircle
 62
7
  6
CONTINUOUS
 10
117.6772254477
 20
148.4315290074
 40
0.5
100
AcDbArc
 50
90.0
 51
180.0
  0
ARC
  5
5E3
100
AcDbEntity
  8
RACCORDO
100
AcDbCircle
 62
7
  6
CONTINUOUS
 10
111.4272254477
 20
152.9315290074
 40
0.5
100
AcDbArc
 50
90.0
 51
180.0
  0
ARC
  5
5E4
100
AcDbEntity
  8
RACCORDO
100
AcDbCircle
 62
250
  6
CONTINUOUS
 10
118.123661901
 20
147.9850925541
 40
0.4998970014
100
AcDbArc
 50
89.9969229372
 51
180.0030770628
  0
ARC
  5
5E5
100
AcDbEntity
  8
RACCORDO
100
AcDbCircle
 62
250
  6
CONTINUOUS
 10
109.6306045995
 20
153.5281498556
 40
0.3999186049
100
AcDbArc
 50
89.9970667661
 51
180.0029332339
  0
ARC
  5
5E6
100
AcDbEntity
  8
RACCORDO
100
AcDbCircle
 62
250
  6
CONTINUOUS
 10
118.6306045995
 20
147.4281498556
 40
0.3999186049
100
AcDbArc
 50
89.9970667656
 51
180.0029332344
  0
ARC
  5
5E7
100
AcDbEntity
  8
RACCORDO
100
AcDbCircle
 62
250
  6
CONTINUOUS
 10
108.067764432
 20
155.090990023
 40
0.3999166713
100
AcDbArc
 50
89.9967897103
 51
180.0032102897
  0
ARC
  5
5E8
100
AcDbEntity
  8
RACCORDO
100
AcDbCircle
 62
250
  6
CONTINUOUS
 10
106.630600946
 20
156.9281535091
 40
0.3999141233
100
AcDbArc
 50
89.9965433027
 51
180.0034566979
  0
ARC
  5
5E9
100
AcDbEntity
  8
0
100
AcDbCircle
 62
250
  6
CONTINUOUS
 10
109.4272254477
 20
153.7315290074
 40
0.3640538319
100
AcDbArc
 50
90.0
 51
180.0
  0
ARC
  5
5EA
100
AcDbEntity
  8
0
100
AcDbCircle
 62
7
  6
CONTINUOUS
 10
109.4272254477
 20
153.7315290074
 40
0.2412317805
100
AcDbArc
 50
90.0
 51
180.0
  0
ARC
  5
5EB
100
AcDbEntity
  8
RACCORDO
100
AcDbCircle
 62
250
  6
CONTINUOUS
 10
108.123848154
 20
155.034906301
 40
0.2000539291
100
AcDbArc
 50
90.0238441277
 51
179.9761558723
  0
ARC
  5
5EC
100
AcDbEntity
  8
RACCORDO
100
AcDbCircle
 62
250
  6
CONTINUOUS
 10
106.7058869591
 20
156.8528674959
 40
0.2000539291
100
AcDbArc
 50
90.0238441186
 51
179.9761558815
  0
ARC
  5
5ED
100
AcDbEntity
  8
RACCORDO
100
AcDbCircle
 62
250
  6
CONTINUOUS
 10
109.684940881
 20
153.473813574
 40
0.2000539289
100
AcDbArc
 50
90.0238440714
 51
179.9761559286
  0
ARC
  5
5EE
100
AcDbEntity
  8
RACCORDO
100
AcDbCircle
 62
250
  6
CONTINUOUS
 10
109.6305294945
 20
153.5282249606
 40
0.1998732978
100
AcDbArc
 50
89.9726014642
 51
180.0273985377
  0
ARC
  5
5EF
100
AcDbEntity
  8
RACCORDO
100
AcDbCircle
 62
250
  6
CONTINUOUS
 10
118.6305294945
 20
147.4282249606
 40
0.1998732978
100
AcDbArc
 50
89.9726014634
 51
180.0273985385
  0
ARC
  5
5F0
100
AcDbEntity
  8
RACCORDO
100
AcDbCircle
 62
250
  6
CONTINUOUS
 10
108.067690456
 20
155.091063999
 40
0.1998723127
100
AcDbArc
 50
89.9723706747
 51
180.0276293266
  0
ARC
  5
5F1
100
AcDbEntity
  8
RACCORDO
100
AcDbCircle
 62
250
  6
CONTINUOUS
 10
106.6305276389
 20
156.9282268161
 40
0.1998710261
100
AcDbArc
 50
89.9720693027
 51
180.0279306991
  0
ARC
  5
5F2
100
AcDbEntity
  8
RACCORDO
100
AcDbCircle
 62
250
  6
CONTINUOUS
 10
158.4233134228
 20
-66.428268373
 40
219.9909428386
100
AcDbArc
 50
88.0217814002
 51
88.3721978156
  0
ARC
  5
5F3
100
AcDbEntity
  8
RACCORDO
100
AcDbCircle
 62
250
  6
CONTINUOUS
 10
178.9063466263
 20
45.1524078288
 40
0.9998707768
100
AcDbArc
 50
270.001382254
 51
359.998617746
  0
ARC
  5
5F4
100
AcDbEntity
  8
RACCORDO
100
AcDbCircle
 62
7
  6
CONTINUOUS
 10
178.9274387403
 20
45.1313157147
 40
0.9997846384
100
AcDbArc
 50
269.9965049109
 51
0.0034950891
  0
ARC
  5
5F5
100
AcDbEntity
  8
RACCORDO
100
AcDbCircle
 62
250
  6
CONTINUOUS
 10
178.9064195176
 20
45.1523349374
 40
0.7998277314
100
AcDbArc
 50
269.9965063896
 51
0.0034936104
  0
ARC
  5
5F6
100
AcDbEntity
  8
RACCORDO
100
AcDbCircle
 62
250
  6
CONTINUOUS
 10
162.1846666445
 20
44.3526027351
 40
0.2000768711
100
AcDbArc
 50
270.1025568055
 51
359.9721704761
  0
ARC
  5
5F7
100
AcDbEntity
  8
RACCORDO
100
AcDbCircle
 62
250
  6
CONTINUOUS
 10
163.8697842519
 20
45.4348923716
 40
0.2000768711
100
AcDbArc
 50
90.1025570952
 51
179.9721707858
  0
ARC
  5
5F8
100
AcDbEntity
  8
RACCORDO
100
AcDbCircle
 62
250
  6
CONTINUOUS
 10
163.8697842442
 20
44.3526027302
 40
0.2000768652
100
AcDbArc
 50
180.0278281399
 51
269.89744511
  0
ARC
  5
5F9
100
AcDbEntity
  8
RACCORDO
100
AcDbCircle
 62
250
  6
CONTINUOUS
 10
162.1846666499
 20
45.4348923766
 40
0.2000768651
100
AcDbArc
 50
0.0278277868
 51
89.89744476
  0
ARC
  5
5FA
100
AcDbEntity
  8
RACCORDO
100
AcDbCircle
 62
7
  6
CONTINUOUS
 10
159.6513970729
 20
48.5694248761
 40
18.7146786353
100
AcDbArc
 50
359.3645998499
 51
0.0370573118
  0
ARC
  5
5FB
100
AcDbEntity
  8
RACCORDO
100
AcDbCircle
 62
250
  6
CONTINUOUS
 10
149.0878119985
 20
55.7662507338
 40
7.0186339105
100
AcDbArc
 50
133.8692266755
 51
134.0884278693
  0
ARC
  5
5FC
100
AcDbEntity
  8
RACCORDO
100
AcDbCircle
 62
250
  6
CONTINUOUS
 10
149.0878076614
 20
60.9968027853
 40
7.0186276637
100
AcDbArc
 50
225.9115720275
 51
226.1307734163
  0
ARC
  5
5FD
100
AcDbEntity
  8
RACCORDO
100
AcDbCircle
 62
250
  6
CONTINUOUS
 10
148.7356186572
 20
56.6687284795
 40
5.7202720103
100
AcDbArc
 50
137.5931355964
 51
137.8466672148
  0
ARC
  5
5FE
100
AcDbEntity
  8
RACCORDO
100
AcDbCircle
 62
250
  6
CONTINUOUS
 10
148.7356177537
 20
60.0943287134
 40
5.7202707889
100
AcDbArc
 50
222.1533327567
 51
222.4068644292
  0
ARC
  5
5FF
100
AcDbEntity
  8
RACCORDO
100
AcDbCircle
 62
250
  6
CONTINUOUS
 10
144.4272254477
 20
58.3815290074
 40
2.3465394526
100
AcDbArc
 50
272.2611124271
 51
87.7388875729
  0
ARC
  5
600
100
AcDbEntity
  8
RACCORDO
100
AcDbCircle
 62
250
  6
CONTINUOUS
 10
144.4272254477
 20
58.3815290074
 40
2.1465699136
100
AcDbArc
 50
272.2611124271
 51
87.7388875729
  0
ARC
  5
601
100
AcDbEntity
  8
RACCORDO
100
AcDbCircle
 62
250
  6
CONTINUOUS
 10
144.4272254477
 20
58.3815290074
 40
2.127247489
100
AcDbArc
 50
271.8227093228
 51
88.1772906773
  0
ARC
  5
602
100
AcDbEntity
  8
RACCORDO
100
AcDbCircle
 62
250
  6
CONTINUOUS
 10
144.4272254477
 20
58.3815290074
 40
1.92727795
100
AcDbArc
 50
271.8227093226
 51
88.1772906774
  0
ARC
  5
603
100
AcDbEntity
  8
RACCORDO
100
AcDbCircle
 62
250
  6
CONTINUOUS
 10
143.2240192116
 20
60.9783227713
 40
1.1997420899
100
AcDbArc
 50
359.9965832311
 51
90.0034167705
  0
ARC
  5
604
100
AcDbEntity
  8
RACCORDO
100
AcDbCircle
 62
250
  6
CONTINUOUS
 10
141.6304314297
 20
60.9783230254
 40
1.1997420899
100
AcDbArc
 50
89.9965710974
 51
180.0034289041
  0
ARC
  5
605
100
AcDbEntity
  8
RACCORDO
100
AcDbCircle
 62
250
  6
CONTINUOUS
 10
141.6304314297
 20
55.7847349894
 40
1.1997420899
100
AcDbArc
 50
179.9965710974
 51
270.0034289041
  0
ARC
  5
606
100
AcDbEntity
  8
RACCORDO
100
AcDbCircle
 62
250
  6
CONTINUOUS
 10
143.2240192116
 20
55.7847352434
 40
1.1997420899
100
AcDbArc
 50
269.9965832311
 51
0.0034167705
  0
ARC
  5
607
100
AcDbEntity
  8
RACCORDO
100
AcDbCircle
 62
7
  6
CONTINUOUS
 10
144.4272254477
 20
58.3815290074
 40
1.0
100
AcDbArc
 50
225.5703016169
 51
134.4296992546
  0
ARC
  5
608
100
AcDbEntity
  8
RACCORDO
100
AcDbCircle
 62
250
  6
CONTINUOUS
 10
143.2046011577
 20
60.9589047173
 40
0.9998717793
100
AcDbArc
 50
0.001380081
 51
89.998619919
  0
ARC
  5
609
100
AcDbEntity
  8
RACCORDO
100
AcDbCircle
 62
250
  6
CONTINUOUS
 10
141.6498497377
 20
60.9589047173
 40
0.9998717793
100
AcDbArc
 50
90.001380081
 51
179.998619919
  0
ARC
  5
60A
100
AcDbEntity
  8
RACCORDO
100
AcDbCircle
 62
250
  6
CONTINUOUS
 10
141.6498497377
 20
55.8041532974
 40
0.9998717793
100
AcDbArc
 50
180.001380081
 51
269.998619919
  0
ARC
  5
60B
100
AcDbEntity
  8
RACCORDO
100
AcDbCircle
 62
250
  6
CONTINUOUS
 10
143.2046011577
 20
55.8041532974
 40
0.9998717793
100
AcDbArc
 50
270.001380081
 51
359.998619919
  0
ARC
  5
60C
100
AcDbEntity
  8
RACCORDO
100
AcDbCircle
 62
250
  6
CONTINUOUS
 10
143.2240935447
 20
60.9783971043
 40
0.999699489
100
AcDbArc
 50
359.9916392816
 51
90.0083607184
  0
ARC
  5
60D
100
AcDbEntity
  8
RACCORDO
100
AcDbCircle
 62
250
  6
CONTINUOUS
 10
143.2240935447
 20
55.7846609104
 40
0.999699489
100
AcDbArc
 50
269.9916392813
 51
0.0083607188
  0
ARC
  5
60E
100
AcDbEntity
  8
RACCORDO
100
AcDbCircle
 62
250
  6
CONTINUOUS
 10
141.6303569443
 20
60.9783975108
 40
0.999698989
100
AcDbArc
 50
89.9916159842
 51
180.0083840158
  0
ARC
  5
60F
100
AcDbEntity
  8
RACCORDO
100
AcDbCircle
 62
250
  6
CONTINUOUS
 10
141.6303569443
 20
55.7846605039
 40
0.999698989
100
AcDbArc
 50
179.9916159842
 51
270.0083840158
  0
ARC
  5
610
100
AcDbEntity
  8
RACCORDO
100
AcDbCircle
 62
250
  6
CONTINUOUS
 10
143.2046734721
 20
60.9589770318
 40
0.7998285311
100
AcDbArc
 50
359.9965450049
 51
90.003454995
  0
ARC
  5
611
100
AcDbEntity
  8
RACCORDO
100
AcDbCircle
 62
250
  6
CONTINUOUS
 10
143.2046732114
 20
55.8040812437
 40
0.7998285311
100
AcDbArc
 50
269.9965636866
 51
0.0034363132
  0
ARC
  5
612
100
AcDbEntity
  8
RACCORDO
100
AcDbCircle
 62
250
  6
CONTINUOUS
 10
141.649777684
 20
55.8040812437
 40
0.7998285311
100
AcDbArc
 50
179.9965636866
 51
270.0034363132
  0
ARC
  5
613
100
AcDbEntity
  8
RACCORDO
100
AcDbCircle
 62
250
  6
CONTINUOUS
 10
141.6497774233
 20
60.9589770318
 40
0.7998285311
100
AcDbArc
 50
89.9965450049
 51
180.003454995
  0
ARC
  5
614
100
AcDbEntity
  8
RACCORDO
100
AcDbCircle
 62
250
  6
CONTINUOUS
 10
144.5044026159
 20
60.8074788608
 40
0.4998992188
100
AcDbArc
 50
179.9972655196
 51
268.1800251559
  0
ARC
  5
615
100
AcDbEntity
  8
RACCORDO
100
AcDbCircle
 62
250
  6
CONTINUOUS
 10
144.5044025701
 20
55.9555791983
 40
0.499899173
100
AcDbArc
 50
91.8199697529
 51
180.0027395711
  0
ARC
  5
616
100
AcDbEntity
  8
RACCORDO
100
AcDbCircle
 62
250
  6
CONTINUOUS
 10
144.5238164874
 20
60.8262126047
 40
0.3000211325
100
AcDbArc
 50
180.0122663306
 51
267.7266212313
  0
ARC
  5
617
100
AcDbEntity
  8
RACCORDO
100
AcDbCircle
 62
250
  6
CONTINUOUS
 10
144.5238164859
 20
55.9368454115
 40
0.300021131
100
AcDbArc
 50
92.2733784987
 51
179.9877339454
  0
ARC
  5
618
100
AcDbEntity
  8
RACCORDO
100
AcDbCircle
 62
250
  6
CONTINUOUS
 10
144.5043284419
 20
60.8074070093
 40
0.2998548275
100
AcDbArc
 50
179.981711459
 51
268.1955790003
  0
ARC
  5
619
100
AcDbEntity
  8
RACCORDO
100
AcDbCircle
 62
250
  6
CONTINUOUS
 10
144.5043284192
 20
55.9556510266
 40
0.2998547999
100
AcDbArc
 50
91.804416718
 51
180.018292509
  0
ARC
  5
61A
100
AcDbEntity
  8
RACCORDO
100
AcDbCircle
 62
7
  6
CONTINUOUS
 10
143.570207044
 20
59.2558170445
 40
0.2242786357
100
AcDbArc
 50
225.0044378532
 51
314.4231444248
  0
ARC
  5
61B
100
AcDbEntity
  8
RACCORDO
100
AcDbCircle
 62
7
  6
CONTINUOUS
 10
143.5702069731
 20
57.5072419389
 40
0.2242780986
100
AcDbArc
 50
45.576665518
 51
134.9959301238
  0
ARC
  5
61C
100
AcDbEntity
  8
RACCORDO
100
AcDbCircle
 62
250
  6
CONTINUOUS
 10
144.523743927
 20
60.8261428527
 40
0.0999788805
100
AcDbArc
 50
179.9968362797
 51
267.742051288
  0
ARC
  5
61D
100
AcDbEntity
  8
RACCORDO
100
AcDbCircle
 62
250
  6
CONTINUOUS
 10
144.5237439255
 20
55.9369151635
 40
0.09997888
100
AcDbArc
 50
92.2579478902
 51
180.0031645404
  0
ARC
  5
61E
100
AcDbEntity
  8
RACCORDO
100
AcDbCircle
 62
250
  6
CONTINUOUS
 10
147.6472746788
 20
66.1991235564
 40
37.9781281356
100
AcDbArc
 50
179.459046015
 51
180.0162417993
  0
ARC
  5
61F
100
AcDbEntity
  8
RACCORDO
100
AcDbCircle
 62
7
  6
CONTINUOUS
 10
157.8882620082
 20
68.184390816
 40
20.4778099856
100
AcDbArc
 50
359.9919928176
 51
0.6077769511
  0
ARC
  5
620
100
AcDbEntity
  8
RACCORDO
100
AcDbCircle
 62
250
  6
CONTINUOUS
 10
163.1304314297
 20
57.5847349894
 40
1.1997420899
100
AcDbArc
 50
179.9965710974
 51
270.0034289041
  0
ARC
  5
621
100
AcDbEntity
  8
RACCORDO
100
AcDbCircle
 62
250
  6
CONTINUOUS
 10
164.9304314297
 20
55.7847349894
 40
1.1997420899
100
AcDbArc
 50
179.9965710974
 51
270.0034289041
  0
ARC
  5
622
100
AcDbEntity
  8
RACCORDO
100
AcDbCircle
 62
250
  6
CONTINUOUS
 10
166.5240192116
 20
55.7847352434
 40
1.1997420899
100
AcDbArc
 50
269.9965832311
 51
0.0034167705
  0
ARC
  5
623
100
AcDbEntity
  8
RACCORDO
100
AcDbCircle
 62
250
  6
CONTINUOUS
 10
163.1498497377
 20
57.6041532974
 40
0.9998717793
100
AcDbArc
 50
180.001380081
 51
269.998619919
  0
ARC
  5
624
100
AcDbEntity
  8
RACCORDO
100
AcDbCircle
 62
250
  6
CONTINUOUS
 10
164.9498497377
 20
55.8041532974
 40
0.9998717793
100
AcDbArc
 50
180.001380081
 51
269.998619919
  0
ARC
  5
625
100
AcDbEntity
  8
RACCORDO
100
AcDbCircle
 62
250
  6
CONTINUOUS
 10
166.5046011577
 20
55.8041532974
 40
0.9998717793
100
AcDbArc
 50
270.001380081
 51
359.998619919
  0
ARC
  5
626
100
AcDbEntity
  8
RACCORDO
100
AcDbCircle
 62
250
  6
CONTINUOUS
 10
166.5240935447
 20
55.7846609104
 40
0.999699489
100
AcDbArc
 50
269.9916392816
 51
0.0083607184
  0
ARC
  5
627
100
AcDbEntity
  8
RACCORDO
100
AcDbCircle
 62
250
  6
CONTINUOUS
 10
163.1303569443
 20
57.5846605039
 40
0.999698989
100
AcDbArc
 50
179.9916159842
 51
270.0083840158
  0
ARC
  5
628
100
AcDbEntity
  8
RACCORDO
100
AcDbCircle
 62
250
  6
CONTINUOUS
 10
164.9303569443
 20
55.7846605039
 40
0.999698989
100
AcDbArc
 50
179.9916159842
 51
270.0083840158
  0
ARC
  5
629
100
AcDbEntity
  8
RACCORDO
100
AcDbCircle
 62
250
  6
CONTINUOUS
 10
166.5046732114
 20
55.8040812437
 40
0.7998285311
100
AcDbArc
 50
269.9965636867
 51
0.0034363132
  0
ARC
  5
62A
100
AcDbEntity
  8
RACCORDO
100
AcDbCircle
 62
250
  6
CONTINUOUS
 10
164.949777684
 20
55.8040812437
 40
0.7998285311
100
AcDbArc
 50
179.9965636866
 51
270.0034363132
  0
ARC
  5
62B
100
AcDbEntity
  8
RACCORDO
100
AcDbCircle
 62
250
  6
CONTINUOUS
 10
163.149777684
 20
57.6040812437
 40
0.7998285311
100
AcDbArc
 50
179.9965636866
 51
270.0034363132
  0
ARC
  5
62C
100
AcDbEntity
  8
RACCORDO
100
AcDbCircle
 62
250
  6
CONTINUOUS
 10
163.6500497348
 20
56.3043532945
 40
0.4998977636
100
AcDbArc
 50
359.9970103013
 51
90.0029896987
  0
ARC
  5
62D
100
AcDbEntity
  8
RACCORDO
100
AcDbCircle
 62
250
  6
CONTINUOUS
 10
163.6306342835
 20
56.2849378431
 40
0.3000218793
100
AcDbArc
 50
0.0127840915
 51
89.9872159082
  0
ARC
  5
62E
100
AcDbEntity
  8
RACCORDO
100
AcDbCircle
 62
250
  6
CONTINUOUS
 10
163.6501244045
 20
56.3044279642
 40
0.2998528053
100
AcDbArc
 50
359.9807479289
 51
90.0192520717
  0
ARC
  5
62F
100
AcDbEntity
  8
RACCORDO
100
AcDbCircle
 62
7
  6
CONTINUOUS
 10
166.8702069698
 20
57.5072419269
 40
0.2242781064
100
AcDbArc
 50
45.5766670711
 51
134.9959282044
  0
ARC
  5
630
100
AcDbEntity
  8
RACCORDO
100
AcDbCircle
 62
250
  6
CONTINUOUS
 10
163.6307074136
 20
56.2850109733
 40
0.0999785816
100
AcDbArc
 50
359.9964537433
 51
90.0035462567
  0
ARC
  5
631
100
AcDbEntity
  8
RACCORDO
100
AcDbCircle
 62
250
  6
CONTINUOUS
 10
167.7272254477
 20
58.3815290074
 40
2.3465394526
100
AcDbArc
 50
272.2611124271
 51
87.7388875729
  0
ARC
  5
632
100
AcDbEntity
  8
RACCORDO
100
AcDbCircle
 62
250
  6
CONTINUOUS
 10
167.7272254477
 20
58.3815290074
 40
2.1465699136
100
AcDbArc
 50
272.2611124271
 51
87.7388875729
  0
ARC
  5
633
100
AcDbEntity
  8
RACCORDO
100
AcDbCircle
 62
250
  6
CONTINUOUS
 10
167.7272254477
 20
58.3815290074
 40
2.127247489
100
AcDbArc
 50
271.8227093228
 51
88.1772906773
  0
ARC
  5
634
100
AcDbEntity
  8
RACCORDO
100
AcDbCircle
 62
250
  6
CONTINUOUS
 10
167.7272254477
 20
58.3815290074
 40
1.92727795
100
AcDbArc
 50
271.8227093226
 51
88.1772906774
  0
ARC
  5
635
100
AcDbEntity
  8
RACCORDO
100
AcDbCircle
 62
250
  6
CONTINUOUS
 10
166.5240192116
 20
60.9783227713
 40
1.1997420899
100
AcDbArc
 50
359.9965832311
 51
90.0034167705
  0
ARC
  5
636
100
AcDbEntity
  8
RACCORDO
100
AcDbCircle
 62
250
  6
CONTINUOUS
 10
164.9304314297
 20
60.9783230254
 40
1.1997420899
100
AcDbArc
 50
89.9965710974
 51
180.0034289041
  0
ARC
  5
637
100
AcDbEntity
  8
RACCORDO
100
AcDbCircle
 62
250
  6
CONTINUOUS
 10
163.1304314297
 20
59.1783230254
 40
1.1997420899
100
AcDbArc
 50
89.9965710974
 51
180.0034289041
  0
ARC
  5
638
100
AcDbEntity
  8
RACCORDO
100
AcDbCircle
 62
7
  6
CONTINUOUS
 10
167.7272254477
 20
58.3815290074
 40
1.0
100
AcDbArc
 50
225.5703016169
 51
134.4296992546
  0
ARC
  5
639
100
AcDbEntity
  8
RACCORDO
100
AcDbCircle
 62
250
  6
CONTINUOUS
 10
164.9498497377
 20
60.9589047173
 40
0.9998717793
100
AcDbArc
 50
90.001380081
 51
179.998619919
  0
ARC
  5
63A
100
AcDbEntity
  8
RACCORDO
100
AcDbCircle
 62
250
  6
CONTINUOUS
 10
163.1498497377
 20
59.1589047173
 40
0.9998717793
100
AcDbArc
 50
90.001380081
 51
179.998619919
  0
ARC
  5
63B
100
AcDbEntity
  8
RACCORDO
100
AcDbCircle
 62
250
  6
CONTINUOUS
 10
166.5046011577
 20
60.9589047173
 40
0.9998717793
100
AcDbArc
 50
0.001380081
 51
89.998619919
  0
ARC
  5
63C
100
AcDbEntity
  8
RACCORDO
100
AcDbCircle
 62
250
  6
CONTINUOUS
 10
166.5240935447
 20
60.9783971043
 40
0.999699489
100
AcDbArc
 50
359.9916392816
 51
90.0083607184
  0
ARC
  5
63D
100
AcDbEntity
  8
RACCORDO
100
AcDbCircle
 62
250
  6
CONTINUOUS
 10
164.9303569443
 20
60.9783975108
 40
0.999698989
100
AcDbArc
 50
89.9916159842
 51
180.0083840158
  0
ARC
  5
63E
100
AcDbEntity
  8
RACCORDO
100
AcDbCircle
 62
250
  6
CONTINUOUS
 10
163.1303569443
 20
59.1783975108
 40
0.999698989
100
AcDbArc
 50
89.9916159842
 51
180.0083840158
  0
ARC
  5
63F
100
AcDbEntity
  8
RACCORDO
100
AcDbCircle
 62
250
  6
CONTINUOUS
 10
166.5046734721
 20
60.9589770318
 40
0.7998285311
100
AcDbArc
 50
359.9965450048
 51
90.003454995
  0
ARC
  5
640
100
AcDbEntity
  8
RACCORDO
100
AcDbCircle
 62
250
  6
CONTINUOUS
 10
163.1497774233
 20
59.1589770318
 40
0.7998285311
100
AcDbArc
 50
89.9965450049
 51
180.003454995
  0
ARC
  5
641
100
AcDbEntity
  8
RACCORDO
100
AcDbCircle
 62
250
  6
CONTINUOUS
 10
164.9497774233
 20
60.9589770318
 40
0.7998285311
100
AcDbArc
 50
89.9965450049
 51
180.003454995
  0
ARC
  5
642
100
AcDbEntity
  8
RACCORDO
100
AcDbCircle
 62
250
  6
CONTINUOUS
 10
163.6500497348
 20
60.4587047202
 40
0.4998977636
100
AcDbArc
 50
269.9970103013
 51
0.0029896987
  0
ARC
  5
643
100
AcDbEntity
  8
RACCORDO
100
AcDbCircle
 62
250
  6
CONTINUOUS
 10
163.6306342835
 20
60.4781201716
 40
0.3000218793
100
AcDbArc
 50
270.0127840915
 51
359.9872159082
  0
ARC
  5
644
100
AcDbEntity
  8
RACCORDO
100
AcDbCircle
 62
250
  6
CONTINUOUS
 10
163.6501244045
 20
60.4586300505
 40
0.2998528053
100
AcDbArc
 50
269.9807479286
 51
0.0192520719
  0
ARC
  5
645
100
AcDbEntity
  8
RACCORDO
100
AcDbCircle
 62
7
  6
CONTINUOUS
 10
166.8702070355
 20
59.2558170699
 40
0.2242786514
100
AcDbArc
 50
225.0044423339
 51
314.42314142
  0
ARC
  5
646
100
AcDbEntity
  8
RACCORDO
100
AcDbCircle
 62
250
  6
CONTINUOUS
 10
163.6307074136
 20
60.4780470414
 40
0.0999785816
100
AcDbArc
 50
269.9964537434
 51
0.0035462566
  0
ARC
  5
647
100
AcDbEntity
  8
RACCORDO
100
AcDbCircle
 62
250
  6
CONTINUOUS
 10
172.3878077834
 20
55.7662551029
 40
7.0186278395
100
AcDbArc
 50
133.869226586
 51
134.0884279693
  0
ARC
  5
648
100
AcDbEntity
  8
RACCORDO
100
AcDbCircle
 62
250
  6
CONTINUOUS
 10
172.035617716
 20
56.6687293354
 40
5.7202707381
100
AcDbArc
 50
137.5931355683
 51
137.846667243
  0
ARC
  5
649
100
AcDbEntity
  8
RACCORDO
100
AcDbCircle
 62
250
  6
CONTINUOUS
 10
167.8044025701
 20
55.9555791983
 40
0.499899173
100
AcDbArc
 50
91.8199697529
 51
180.0027395711
  0
ARC
  5
64A
100
AcDbEntity
  8
RACCORDO
100
AcDbCircle
 62
250
  6
CONTINUOUS
 10
167.8238164859
 20
55.9368454115
 40
0.300021131
100
AcDbArc
 50
92.2733784987
 51
179.9877339454
  0
ARC
  5
64B
100
AcDbEntity
  8
RACCORDO
100
AcDbCircle
 62
250
  6
CONTINUOUS
 10
167.8043284192
 20
55.9556510266
 40
0.2998547999
100
AcDbArc
 50
91.804416718
 51
180.018292509
  0
ARC
  5
64C
100
AcDbEntity
  8
RACCORDO
100
AcDbCircle
 62
250
  6
CONTINUOUS
 10
167.8237439255
 20
55.9369151635
 40
0.09997888
100
AcDbArc
 50
92.2579478902
 51
180.0031645404
  0
ARC
  5
64D
100
AcDbEntity
  8
RACCORDO
100
AcDbCircle
 62
250
  6
CONTINUOUS
 10
172.3878076636
 20
60.9968027876
 40
7.0186276669
100
AcDbArc
 50
225.9115720275
 51
226.1307734163
  0
ARC
  5
64E
100
AcDbEntity
  8
RACCORDO
100
AcDbCircle
 62
250
  6
CONTINUOUS
 10
172.0356177499
 20
60.09432871
 40
5.7202707838
100
AcDbArc
 50
222.1533327565
 51
222.4068644293
  0
ARC
  5
64F
100
AcDbEntity
  8
RACCORDO
100
AcDbCircle
 62
250
  6
CONTINUOUS
 10
167.8044026159
 20
60.8074788608
 40
0.4998992188
100
AcDbArc
 50
179.9972655196
 51
268.1800251564
  0
ARC
  5
650
100
AcDbEntity
  8
RACCORDO
100
AcDbCircle
 62
250
  6
CONTINUOUS
 10
167.8238164874
 20
60.8262126047
 40
0.3000211325
100
AcDbArc
 50
180.0122663307
 51
267.7266212313
  0
ARC
  5
651
100
AcDbEntity
  8
RACCORDO
100
AcDbCircle
 62
250
  6
CONTINUOUS
 10
167.8043284419
 20
60.8074070093
 40
0.2998548275
100
AcDbArc
 50
179.9817114587
 51
268.1955790003
  0
ARC
  5
652
100
AcDbEntity
  8
RACCORDO
100
AcDbCircle
 62
250
  6
CONTINUOUS
 10
167.823743927
 20
60.8261428527
 40
0.0999788805
100
AcDbArc
 50
179.9968362797
 51
267.7420512897
  0
ARC
  5
653
100
AcDbEntity
  8
RACCORDO
100
AcDbCircle
 62
250
  6
CONTINUOUS
 10
175.2238462959
 20
49.2349081591
 40
0.3999186049
100
AcDbArc
 50
269.9970667661
 51
0.0029332339
  0
ARC
  5
654
100
AcDbEntity
  8
RACCORDO
100
AcDbCircle
 62
250
  6
CONTINUOUS
 10
176.7866864634
 20
47.6720679917
 40
0.3999166713
100
AcDbArc
 50
269.9967897103
 51
0.0032102897
  0
ARC
  5
655
100
AcDbEntity
  8
RACCORDO
100
AcDbCircle
 62
250
  6
CONTINUOUS
 10
178.2238498168
 20
45.8349041939
 40
0.3999141233
100
AcDbArc
 50
269.9965623016
 51
0.0035013557
  0
ARC
  5
656
100
AcDbEntity
  8
RACCORDO
100
AcDbCircle
 62
250
  6
CONTINUOUS
 10
177.1867257924
 20
48.1813508234
 40
0.2001810408
100
AcDbArc
 50
93.0299905581
 51
96.0286746995
  0
ARC
  5
657
100
AcDbEntity
  8
RACCORDO
100
AcDbCircle
 62
250
  6
CONTINUOUS
 10
176.7306027414
 20
47.7281517137
 40
0.2000539291
100
AcDbArc
 50
270.0238441269
 51
359.9761558731
  0
ARC
  5
658
100
AcDbEntity
  8
RACCORDO
100
AcDbCircle
 62
250
  6
CONTINUOUS
 10
178.1485639363
 20
45.9101905188
 40
0.200053929
100
AcDbArc
 50
270.0238441159
 51
359.9761558841
  0
ARC
  5
659
100
AcDbEntity
  8
RACCORDO
100
AcDbCircle
 62
250
  6
CONTINUOUS
 10
175.1852195728
 20
49.2735348823
 40
0.2000539289
100
AcDbArc
 50
270.0238440684
 51
359.9761559316
  0
ARC
  5
65A
100
AcDbEntity
  8
RACCORDO
100
AcDbCircle
 62
250
  6
CONTINUOUS
 10
178.1486124639
 20
48.1815358926
 40
0.2000042652
100
AcDbArc
 50
359.9980275639
 51
83.9700558294
  0
ARC
  5
65B
100
AcDbEntity
  8
RACCORDO
100
AcDbCircle
 62
250
  6
CONTINUOUS
 10
177.1866378597
 20
48.1815358927
 40
0.2000042648
100
AcDbArc
 50
120.0058194121
 51
180.0019724756
  0
ARC
  5
65C
100
AcDbEntity
  8
RACCORDO
100
AcDbCircle
 62
250
  6
CONTINUOUS
 10
178.1590872007
 20
48.1815365868
 40
0.2000025674
100
AcDbArc
 50
359.9978286647
 51
61.1061732486
  0
ARC
  5
65D
100
AcDbEntity
  8
RACCORDO
100
AcDbCircle
 62
250
  6
CONTINUOUS
 10
177.1761610342
 20
48.1815376243
 40
0.2000004783
100
AcDbArc
 50
116.8553552478
 51
180.002468576
  0
ARC
  5
65E
100
AcDbEntity
  8
RACCORDO
100
AcDbCircle
 62
250
  6
CONTINUOUS
 10
175.2239194405
 20
49.2348350145
 40
0.199875709
100
AcDbArc
 50
269.9731637028
 51
0.0268363046
  0
ARC
  5
65F
100
AcDbEntity
  8
RACCORDO
100
AcDbCircle
 62
250
  6
CONTINUOUS
 10
176.7867578506
 20
47.6719963822
 40
0.19987536
100
AcDbArc
 50
269.9731130883
 51
0.0269505716
  0
ARC
  5
660
100
AcDbEntity
  8
RACCORDO
100
AcDbCircle
 62
250
  6
CONTINUOUS
 10
178.2239200217
 20
45.8348342706
 40
0.1998749045
100
AcDbArc
 50
269.9729970006
 51
0.0270496419
  0
ARC
  5
661
100
AcDbEntity
  8
RACCORDO
100
AcDbCircle
 62
250
  6
CONTINUOUS
 10
173.4247036202
 20
55.7529345145
 40
5.1990612801
100
AcDbArc
 50
359.9997871078
 51
15.0002128922
  0
ARC
  5
662
100
AcDbEntity
  8
RACCORDO
100
AcDbCircle
 62
250
  6
CONTINUOUS
 10
182.8640985451
 20
63.6314371252
 40
5.1990612801
100
AcDbArc
 50
164.9997871078
 51
180.0002128922
  0
ARC
  5
663
100
AcDbEntity
  8
RACCORDO
100
AcDbCircle
 62
250
  6
CONTINUOUS
 10
182.8640985451
 20
58.9316208895
 40
5.1990612801
100
AcDbArc
 50
179.9997871078
 51
195.0002128922
  0
ARC
  5
664
100
AcDbEntity
  8
RACCORDO
100
AcDbCircle
 62
250
  6
CONTINUOUS
 10
182.9218902885
 20
63.6238286979
 40
4.9991599171
100
AcDbArc
 50
164.9998814644
 51
180.0001185356
  0
ARC
  5
665
100
AcDbEntity
  8
RACCORDO
100
AcDbCircle
 62
250
  6
CONTINUOUS
 10
182.9218902885
 20
58.9392293168
 40
4.9991599171
100
AcDbArc
 50
179.9998814644
 51
195.0001185356
  0
ARC
  5
666
100
AcDbEntity
  8
RACCORDO
100
AcDbCircle
 62
250
  6
CONTINUOUS
 10
173.3669118768
 20
55.7453260872
 40
4.9991599171
100
AcDbArc
 50
359.9998814644
 51
15.0001185356
  0
ARC
  5
667
100
AcDbEntity
  8
RACCORDO
100
AcDbCircle
 62
250
  6
CONTINUOUS
 10
182.864043361
 20
63.6314443904
 40
4.999036557
100
AcDbArc
 50
164.9996953212
 51
180.0003046788
  0
ARC
  5
668
100
AcDbEntity
  8
RACCORDO
100
AcDbCircle
 62
250
  6
CONTINUOUS
 10
182.864043361
 20
58.9316136243
 40
4.999036557
100
AcDbArc
 50
179.9996953212
 51
195.0003046788
  0
ARC
  5
669
100
AcDbEntity
  8
RACCORDO
100
AcDbCircle
 62
250
  6
CONTINUOUS
 10
173.4247588043
 20
55.7529417797
 40
4.999036557
100
AcDbArc
 50
359.9996953212
 51
15.0003046788
  0
ARC
  5
66A
100
AcDbEntity
  8
RACCORDO
100
AcDbCircle
 62
250
  6
CONTINUOUS
 10
182.9218335614
 20
58.9392218486
 40
4.7991336509
100
AcDbArc
 50
179.9997873618
 51
195.0002126382
  0
ARC
  5
66B
100
AcDbEntity
  8
RACCORDO
100
AcDbCircle
 62
250
  6
CONTINUOUS
 10
182.9218335614
 20
63.6238361661
 40
4.7991336509
100
AcDbArc
 50
164.9997873618
 51
180.0002126382
  0
ARC
  5
66C
100
AcDbEntity
  8
RACCORDO
100
AcDbCircle
 62
250
  6
CONTINUOUS
 10
173.3669686039
 20
55.7453335554
 40
4.7991336509
100
AcDbArc
 50
359.9997873618
 51
15.0002126382
  0
ARC
  5
66D
100
AcDbEntity
  8
RACCORDO
100
AcDbCircle
 62
250
  6
CONTINUOUS
 10
166.1980825212
 20
66.2015288204
 40
56.7289055201
100
AcDbArc
 50
179.5573863909
 51
180.0133026471
  0
ARC
  5
66E
100
AcDbEntity
  8
RACCORDO
100
AcDbCircle
 62
250
  6
CONTINUOUS
 10
173.424704085
 20
66.810123439
 40
5.1990608154
100
AcDbArc
 50
344.9997864335
 51
0.0002135665
  0
ARC
  5
66F
100
AcDbEntity
  8
RACCORDO
100
AcDbCircle
 62
250
  6
CONTINUOUS
 10
173.3669123444
 20
66.817731866
 40
4.9991594495
100
AcDbArc
 50
344.9998807588
 51
0.0001192412
  0
ARC
  5
670
100
AcDbEntity
  8
RACCORDO
100
AcDbCircle
 62
250
  6
CONTINUOUS
 10
173.4247592713
 20
66.8101161736
 40
4.9990360901
100
AcDbArc
 50
344.9996946166
 51
0.0003053834
  0
ARC
  5
671
100
AcDbEntity
  8
RACCORDO
100
AcDbCircle
 62
250
  6
CONTINUOUS
 10
173.3669690337
 20
66.8177244027
 40
4.7991332212
100
AcDbArc
 50
344.9997866864
 51
0.0002133136
  0
ARC
  5
672
100
AcDbEntity
  8
RACCORDO
100
AcDbCircle
 62
250
  6
CONTINUOUS
 10
166.7606119313
 20
83.4981425237
 40
0.8998067433
100
AcDbArc
 50
269.9965411282
 51
0.0034588718
  0
ARC
  5
673
100
AcDbEntity
  8
RACCORDO
100
AcDbCircle
 62
250
  6
CONTINUOUS
 10
166.7307135492
 20
83.5280409059
 40
0.6999419866
100
AcDbArc
 50
270.0039781561
 51
359.9960218439
  0
ARC
  5
674
100
AcDbEntity
  8
RACCORDO
100
AcDbCircle
 62
250
  6
CONTINUOUS
 10
166.7606854994
 20
83.4980689557
 40
0.6997636089
100
AcDbArc
 50
269.9895286874
 51
0.0104713125
  0
ARC
  5
675
100
AcDbEntity
  8
RACCORDO
100
AcDbCircle
 62
7
  6
CONTINUOUS
 10
167.1772254477
 20
82.9315290074
 40
0.5
100
AcDbArc
 50
270.0
 51
360.0
  0
ARC
  5
676
100
AcDbEntity
  8
RACCORDO
100
AcDbCircle
 62
7
  6
CONTINUOUS
 10
173.4272254477
 20
78.4315290074
 40
0.5
100
AcDbArc
 50
270.0
 51
360.0
  0
ARC
  5
677
100
AcDbEntity
  8
RACCORDO
100
AcDbCircle
 62
250
  6
CONTINUOUS
 10
166.7307889944
 20
83.5279654606
 40
0.4998970014
100
AcDbArc
 50
269.9969229372
 51
0.0030770628
  0
ARC
  5
678
100
AcDbEntity
  8
RACCORDO
100
AcDbCircle
 62
250
  6
CONTINUOUS
 10
166.2238462959
 20
84.0849081591
 40
0.3999186049
100
AcDbArc
 50
269.9970667656
 51
0.0029332344
  0
ARC
  5
679
100
AcDbEntity
  8
RACCORDO
100
AcDbCircle
 62
250
  6
CONTINUOUS
 10
178.1485245316
 20
68.5817071913
 40
0.2001810408
100
AcDbArc
 50
273.029990558
 51
276.0286746995
  0
ARC
  5
67A
100
AcDbEntity
  8
RACCORDO
100
AcDbCircle
 62
250
  6
CONTINUOUS
 10
177.1866378601
 20
68.5815221221
 40
0.2000042652
100
AcDbArc
 50
179.9980275639
 51
263.9700558293
  0
ARC
  5
67B
100
AcDbEntity
  8
RACCORDO
100
AcDbCircle
 62
250
  6
CONTINUOUS
 10
178.1486124642
 20
68.581522122
 40
0.2000042648
100
AcDbArc
 50
300.0058194121
 51
0.0019724756
  0
ARC
  5
67C
100
AcDbEntity
  8
RACCORDO
100
AcDbCircle
 62
250
  6
CONTINUOUS
 10
177.1761631233
 20
68.5815214279
 40
0.2000025674
100
AcDbArc
 50
179.9978286646
 51
241.1061732485
  0
ARC
  5
67D
100
AcDbEntity
  8
RACCORDO
100
AcDbCircle
 62
250
  6
CONTINUOUS
 10
178.1590892898
 20
68.5815203904
 40
0.2000004783
100
AcDbArc
 50
296.8553552477
 51
0.002468576
  0
ARC
  5
67E
100
AcDbEntity
  8
RACCORDO
100
AcDbCircle
 62
250
  6
CONTINUOUS
 10
166.2239194405
 20
84.0848350145
 40
0.199875709
100
AcDbArc
 50
269.973163701
 51
0.0268363064
  0
ARC
  5
67F
100
AcDbEntity
  8
RACCORDO
100
AcDbCircle
 62
250
  6
CONTINUOUS
 10
173.4247036202
 20
137.6529345145
 40
5.1990612801
100
AcDbArc
 50
359.9997871078
 51
15.0002128922
  0
ARC
  5
680
100
AcDbEntity
  8
RACCORDO
100
AcDbCircle
 62
250
  6
CONTINUOUS
 10
173.3494555478
 20
137.6430279179
 40
4.9991611811
100
AcDbArc
 50
359.9998833717
 51
15.0001166283
  0
ARC
  5
681
100
AcDbEntity
  8
RACCORDO
100
AcDbCircle
 62
250
  6
CONTINUOUS
 10
173.4247588043
 20
137.6529417797
 40
4.999036557
100
AcDbArc
 50
359.9996953212
 51
15.0003046788
  0
ARC
  5
682
100
AcDbEntity
  8
RACCORDO
100
AcDbCircle
 62
250
  6
CONTINUOUS
 10
173.3495123774
 20
137.6430353996
 40
4.7991348125
100
AcDbArc
 50
359.9997891876
 51
15.0002108124
  0
ARC
  5
683
100
AcDbEntity
  8
RACCORDO
100
AcDbCircle
 62
250
  6
CONTINUOUS
 10
166.2238462959
 20
147.4281498556
 40
0.3999186049
100
AcDbArc
 50
359.9970667656
 51
90.0029332344
  0
ARC
  5
684
100
AcDbEntity
  8
RACCORDO
100
AcDbCircle
 62
250
  6
CONTINUOUS
 10
166.2239194405
 20
147.4282230002
 40
0.199875709
100
AcDbArc
 50
359.973163702
 51
90.0268363054
  0
ARC
  5
685
100
AcDbEntity
  8
RACCORDO
100
AcDbCircle
 62
250
  6
CONTINUOUS
 10
173.424704085
 20
148.710123439
 40
5.1990608154
100
AcDbArc
 50
344.9997864335
 51
0.0002135665
  0
ARC
  5
686
100
AcDbEntity
  8
RACCORDO
100
AcDbCircle
 62
250
  6
CONTINUOUS
 10
173.3494578121
 20
148.7200297987
 40
4.9991589168
100
AcDbArc
 50
344.999879955
 51
0.000120045
  0
ARC
  5
687
100
AcDbEntity
  8
RACCORDO
100
AcDbCircle
 62
250
  6
CONTINUOUS
 10
173.4247592713
 20
148.7101161736
 40
4.9990360901
100
AcDbArc
 50
344.9996946166
 51
0.0003053834
  0
ARC
  5
688
100
AcDbEntity
  8
RACCORDO
100
AcDbCircle
 62
250
  6
CONTINUOUS
 10
173.3495144582
 20
148.7200223411
 40
4.7991327317
100
AcDbArc
 50
344.999785917
 51
0.000214083
  0
ARC
  5
689
100
AcDbEntity
  8
RACCORDO
100
AcDbCircle
 62
250
  6
CONTINUOUS
 10
166.7606707685
 20
148.014979092
 40
0.8997227425
100
AcDbArc
 50
359.9981966789
 51
90.0009393064
  0
ARC
  5
68A
100
AcDbEntity
  8
RACCORDO
100
AcDbCircle
 62
250
  6
CONTINUOUS
 10
166.7307135492
 20
147.9850171088
 40
0.6999419866
100
AcDbArc
 50
0.0039781561
 51
89.9960218439
  0
ARC
  5
68B
100
AcDbEntity
  8
RACCORDO
100
AcDbCircle
 62
250
  6
CONTINUOUS
 10
166.7606851833
 20
148.0149887429
 40
0.6997639977
100
AcDbArc
 50
359.9895545757
 51
90.0104454242
  0
ARC
  5
68C
100
AcDbEntity
  8
RACCORDO
100
AcDbCircle
 62
7
  6
CONTINUOUS
 10
167.1772254477
 20
148.4315290074
 40
0.5
100
AcDbArc
 50
0.0
 51
90.0
  0
ARC
  5
68D
100
AcDbEntity
  8
RACCORDO
100
AcDbCircle
 62
7
  6
CONTINUOUS
 10
173.4272254477
 20
152.9315290074
 40
0.5
100
AcDbArc
 50
0.0
 51
90.0
  0
ARC
  5
68E
100
AcDbEntity
  8
RACCORDO
100
AcDbCircle
 62
250
  6
CONTINUOUS
 10
166.7307889944
 20
147.9850925541
 40
0.4998970014
100
AcDbArc
 50
359.9969229372
 51
90.0030770628
  0
ARC
  5
68F
100
AcDbEntity
  8
RACCORDO
100
AcDbCircle
 62
250
  6
CONTINUOUS
 10
182.8466447371
 20
145.5337349626
 40
5.1990625371
100
AcDbArc
 50
164.9997889316
 51
180.0002110684
  0
ARC
  5
690
100
AcDbEntity
  8
RACCORDO
100
AcDbCircle
 62
250
  6
CONTINUOUS
 10
182.8466447371
 20
140.8293230521
 40
5.1990625371
100
AcDbArc
 50
179.9997889316
 51
195.0002110684
  0
ARC
  5
691
100
AcDbEntity
  8
RACCORDO
100
AcDbCircle
 62
250
  6
CONTINUOUS
 10
182.9218902885
 20
145.5238286979
 40
4.9991599171
100
AcDbArc
 50
164.9998814644
 51
180.0001185356
  0
ARC
  5
692
100
AcDbEntity
  8
RACCORDO
100
AcDbCircle
 62
250
  6
CONTINUOUS
 10
182.9218902885
 20
140.8392293168
 40
4.9991599171
100
AcDbArc
 50
179.9998814644
 51
195.0001185356
  0
ARC
  5
693
100
AcDbEntity
  8
RACCORDO
100
AcDbCircle
 62
250
  6
CONTINUOUS
 10
182.8465895589
 20
145.533742227
 40
4.9990378198
100
AcDbArc
 50
164.9996972268
 51
180.0003027732
  0
ARC
  5
694
100
AcDbEntity
  8
RACCORDO
100
AcDbCircle
 62
250
  6
CONTINUOUS
 10
182.8465895589
 20
140.8293157877
 40
4.9990378198
100
AcDbArc
 50
179.9996972268
 51
195.0003027732
  0
ARC
  5
695
100
AcDbEntity
  8
RACCORDO
100
AcDbCircle
 62
250
  6
CONTINUOUS
 10
182.9218335614
 20
140.8392218486
 40
4.7991336509
100
AcDbArc
 50
179.9997873618
 51
195.0002126382
  0
ARC
  5
696
100
AcDbEntity
  8
RACCORDO
100
AcDbCircle
 62
250
  6
CONTINUOUS
 10
182.9218335614
 20
145.5238361661
 40
4.7991336509
100
AcDbArc
 50
164.9997873618
 51
180.0002126382
  0
ARC
  5
697
100
AcDbEntity
  8
RACCORDO
100
AcDbCircle
 62
250
  6
CONTINUOUS
 10
178.9063466243
 20
157.610650184
 40
0.9998707784
100
AcDbArc
 50
0.0013823646
 51
89.9986176354
  0
ARC
  5
698
100
AcDbEntity
  8
RACCORDO
100
AcDbCircle
 62
7
  6
CONTINUOUS
 10
178.9274389531
 20
157.6317425128
 40
0.9997846384
100
AcDbArc
 50
359.9964927153
 51
90.0035072847
  0
ARC
  5
699
100
AcDbEntity
  8
RACCORDO
100
AcDbCircle
 62
250
  6
CONTINUOUS
 10
178.9064197083
 20
157.610723268
 40
0.7998277327
100
AcDbArc
 50
359.9964927301
 51
90.0035072699
  0
ARC
  5
69A
100
AcDbEntity
  8
0
100
AcDbCircle
 62
7
  6
CONTINUOUS
 10
175.4272254477
 20
153.7315290074
 40
0.7587682195
100
AcDbArc
 50
0.0
 51
90.0
  0
ARC
  5
69B
100
AcDbEntity
  8
0
100
AcDbCircle
 62
250
  6
CONTINUOUS
 10
175.4272254477
 20
153.7315290074
 40
0.6359461681
100
AcDbArc
 50
0.0
 51
90.0
  0
ARC
  5
69C
100
AcDbEntity
  8
RACCORDO
100
AcDbCircle
 62
250
  6
CONTINUOUS
 10
175.2238462959
 20
153.5281498556
 40
0.3999186049
100
AcDbArc
 50
359.9970667661
 51
90.0029332339
  0
ARC
  5
69D
100
AcDbEntity
  8
RACCORDO
100
AcDbCircle
 62
250
  6
CONTINUOUS
 10
176.7866864634
 20
155.090990023
 40
0.3999166713
100
AcDbArc
 50
359.9967897103
 51
90.0032102897
  0
ARC
  5
69E
100
AcDbEntity
  8
RACCORDO
100
AcDbCircle
 62
250
  6
CONTINUOUS
 10
178.2238502611
 20
156.9281533765
 40
0.3999141233
100
AcDbArc
 50
359.9965623015
 51
90.0035013557
  0
ARC
  5
69F
100
AcDbEntity
  8
0
100
AcDbCircle
 62
250
  6
CONTINUOUS
 10
175.4272254477
 20
153.7315290074
 40
0.3640538319
100
AcDbArc
 50
0.0
 51
90.0
  0
ARC
  5
6A0
100
AcDbEntity
  8
0
100
AcDbCircle
 62
7
  6
CONTINUOUS
 10
175.4272254477
 20
153.7315290074
 40
0.2412317805
100
AcDbArc
 50
0.0
 51
90.0
  0
ARC
  5
6A1
100
AcDbEntity
  8
RACCORDO
100
AcDbCircle
 62
250
  6
CONTINUOUS
 10
176.7306027414
 20
155.034906301
 40
0.2000539291
100
AcDbArc
 50
0.0238441285
 51
89.9761558715
  0
ARC
  5
6A2
100
AcDbEntity
  8
RACCORDO
100
AcDbCircle
 62
250
  6
CONTINUOUS
 10
178.1485639362
 20
156.8528674959
 40
0.2000539291
100
AcDbArc
 50
0.0238441255
 51
89.9761558745
  0
ARC
  5
6A3
100
AcDbEntity
  8
RACCORDO
100
AcDbCircle
 62
250
  6
CONTINUOUS
 10
175.1695100143
 20
153.473813574
 40
0.2000539289
100
AcDbArc
 50
0.0238440685
 51
89.9761559315
  0
ARC
  5
6A4
100
AcDbEntity
  8
RACCORDO
100
AcDbCircle
 62
250
  6
CONTINUOUS
 10
175.2239194405
 20
153.5282230001
 40
0.199875709
100
AcDbArc
 50
359.9731637037
 51
90.0268363037
  0
ARC
  5
6A5
100
AcDbEntity
  8
RACCORDO
100
AcDbCircle
 62
250
  6
CONTINUOUS
 10
176.7867580728
 20
155.0910614103
 40
0.19987536
100
AcDbArc
 50
359.9731130859
 51
90.026950574
  0
ARC
  5
6A6
100
AcDbEntity
  8
RACCORDO
100
AcDbCircle
 62
250
  6
CONTINUOUS
 10
178.2239201845
 20
156.9282235813
 40
0.1998749045
100
AcDbArc
 50
359.9729970007
 51
90.0270496429
  0
ARC
  5
6A7
100
AcDbEntity
  8
RACCORDO
100
AcDbCircle
 62
250
  6
CONTINUOUS
 10
234.8475955441
 20
68.5639311938
 40
59.6780032479
100
AcDbArc
 50
179.9896608443
 51
180.3442482989
  0
ARC
  5
6A8
100
AcDbEntity
  8
RACCORDO
100
AcDbCircle
 62
250
  6
CONTINUOUS
 10
211.4714773972
 20
68.5663250409
 40
36.1019155618
100
AcDbArc
 50
179.986708106
 51
180.4426028561
  0
ARC
  5
6A9
100
AcDbEntity
  8
RACCORDO
100
AcDbCircle
 62
7
  6
CONTINUOUS
 10
197.4469883174
 20
48.5786671987
 40
20.4778099873
100
AcDbArc
 50
179.9919928176
 51
180.6077769511
  0
ARC
  5
6AA
100
AcDbEntity
  8
RACCORDO
100
AcDbCircle
 62
7
  6
CONTINUOUS
 10
195.6838532572
 20
68.1936331385
 40
18.7146786414
100
AcDbArc
 50
179.36459985
 51
180.0370573117
  0
SPLINE
  5
6AB
100
AcDbEntity
  8
RACCORDO
100
AcDbSpline
 62
7
  6
CONTINUOUS
 70
0
 71
3
 72
9
 73
5
 74
0
 42
0.0000001
 43
0.0000001
 44
0.0000000001
 40
0.0
 40
0.0
 40
0.0
 40
0.0
 40
0.4999999996
 40
1.0
 40
1.0
 40
1.0
 40
1.0
 10
164.5521994124
 20
153.6738662234
 30
0.0
 10
157.1772089675
 20
153.6738487668
 30
0.0
 10
142.4272280692
 20
153.6729826047
 30
0.0
 10
127.6772471709
 20
153.6738487036
 30
0.0
 10
120.3022567131
 20
153.6738662205
 30
0.0
  0
SPLINE
  5
6AC
100
AcDbEntity
  8
RACCORDO
100
AcDbSpline
 62
7
  6
CONTINUOUS
 70
0
 71
3
 72
8
 73
4
 74
0
 42
0.0000001
 43
0.0000001
 44
0.0000000001
 40
0.0
 40
0.0
 40
0.0
 40
0.0
 40
1.0
 40
1.0
 40
1.0
 40
1.0
 10
178.2557260521
 20
48.3566421531
 30
0.0
 10
178.2266113631
 20
48.3727081785
 30
0.0
 10
178.1923735338
 20
48.3815290074
 30
0.0
 10
178.1591202289
 20
48.3815290074
 30
0.0
  0
SPLINE
  5
6AD
100
AcDbEntity
  8
RACCORDO
100
AcDbSpline
 62
7
  6
CONTINUOUS
 70
0
 71
3
 72
8
 73
4
 74
0
 42
0.0000001
 43
0.0000001
 44
0.0000000001
 40
0.0
 40
0.0
 40
0.0
 40
0.0
 40
1.0
 40
1.0
 40
1.0
 40
1.0
 10
178.2494374429
 20
68.4030900047
 30
0.0
 10
178.2218238842
 20
68.3891078806
 30
0.0
 10
178.1900719399
 20
68.3815290074
 30
0.0
 10
178.1591202289
 20
68.3815290074
 30
0.0
  0
SPLINE
  5
6AE
100
AcDbEntity
  8
RACCORDO
100
AcDbSpline
 62
7
  6
CONTINUOUS
 70
0
 71
3
 72
8
 73
4
 74
0
 42
0.0000001
 43
0.0000001
 44
0.0000000001
 40
0.0
 40
0.0
 40
0.0
 40
0.0
 40
1.0
 40
1.0
 40
1.0
 40
1.0
 10
106.5987248432
 20
68.4064158616
 30
0.0
 10
106.6278395323
 20
68.3903498362
 30
0.0
 10
106.6620773616
 20
68.3815290074
 30
0.0
 10
106.6953306665
 20
68.3815290074
 30
0.0
  0
SPLINE
  5
6AF
100
AcDbEntity
  8
RACCORDO
100
AcDbSpline
 62
7
  6
CONTINUOUS
 70
0
 71
3
 72
8
 73
4
 74
0
 42
0.0000001
 43
0.0000001
 44
0.0000000001
 40
0.0
 40
0.0
 40
0.0
 40
0.0
 40
1.0
 40
1.0
 40
1.0
 40
1.0
 10
106.6050134525
 20
48.35996801
 30
0.0
 10
106.6326270112
 20
48.3739501341
 30
0.0
 10
106.6643789555
 20
48.3815290074
 30
0.0
 10
106.6953306665
 20
48.3815290074
 30
0.0
  0
SPLINE
  5
6B0
100
AcDbEntity
  8
RACCORDO
100
AcDbSpline
 62
7
  6
CONTINUOUS
 70
0
 71
3
 72
8
 73
4
 74
0
 42
0.0000001
 43
0.0000001
 44
0.0000000001
 40
0.0
 40
0.0
 40
0.0
 40
0.0
 40
1.0
 40
1.0
 40
1.0
 40
1.0
 10
107.7749266236
 20
48.3566421531
 30
0.0
 10
107.7458119345
 20
48.3727081785
 30
0.0
 10
107.7115741052
 20
48.3815290074
 30
0.0
 10
107.6783208003
 20
48.3815290074
 30
0.0
  0
SPLINE
  5
6B1
100
AcDbEntity
  8
RACCORDO
100
AcDbSpline
 62
7
  6
CONTINUOUS
 70
0
 71
3
 72
8
 73
4
 74
0
 42
0.0000001
 43
0.0000001
 44
0.0000000001
 40
0.0
 40
0.0
 40
0.0
 40
0.0
 40
1.0
 40
1.0
 40
1.0
 40
1.0
 10
107.7686380143
 20
68.4030900047
 30
0.0
 10
107.7410244556
 20
68.3891078806
 30
0.0
 10
107.7092725113
 20
68.3815290074
 30
0.0
 10
107.6783208003
 20
68.3815290074
 30
0.0
  0
SPLINE
  5
6B2
100
AcDbEntity
  8
RACCORDO
100
AcDbSpline
 62
7
  6
CONTINUOUS
 70
0
 71
3
 72
8
 73
4
 74
0
 42
0.0000001
 43
0.0000001
 44
0.0000000001
 40
0.0
 40
0.0
 40
0.0
 40
0.0
 40
1.0
 40
1.0
 40
1.0
 40
1.0
 10
177.0795242718
 20
68.4064158616
 30
0.0
 10
177.1086389608
 20
68.3903498362
 30
0.0
 10
177.1428767902
 20
68.3815290074
 30
0.0
 10
177.1761300951
 20
68.3815290074
 30
0.0
  0
SPLINE
  5
6B3
100
AcDbEntity
  8
RACCORDO
100
AcDbSpline
 62
7
  6
CONTINUOUS
 70
0
 71
3
 72
8
 73
4
 74
0
 42
0.0000001
 43
0.0000001
 44
0.0000000001
 40
0.0
 40
0.0
 40
0.0
 40
0.0
 40
1.0
 40
1.0
 40
1.0
 40
1.0
 10
177.0858128811
 20
48.35996801
 30
0.0
 10
177.1134264397
 20
48.3739501341
 30
0.0
 10
177.145178384
 20
48.3815290074
 30
0.0
 10
177.1761300951
 20
48.3815290074
 30
0.0
  0
SPLINE
  5
6B4
100
AcDbEntity
  8
RACCORDO
100
AcDbSpline
 62
250
  6
CONTINUOUS
 70
0
 71
3
 72
33
 73
29
 74
0
 42
0.0000001
 43
0.0000001
 44
0.0000000001
 40
0.0
 40
0.0
 40
0.0
 40
0.0
 40
0.0156241791
 40
0.0312489903
 40
0.046873947
 40
0.0624989549
 40
0.0937488577
 40
0.1249988808
 40
0.1562489494
 40
0.1874990398
 40
0.2499991546
 40
0.3124993425
 40
0.3749995567
 40
0.4374997799
 40
0.5000000055
 40
0.5625002312
 40
0.6250004544
 40
0.6875006685
 40
0.7500008558
 40
0.8125009715
 40
0.8437510637
 40
0.8750011347
 40
0.9062511582
 40
0.9375010591
 40
0.953126066
 40
0.9687510206
 40
0.9843758283
 40
1.0
 40
1.0
 40
1.0
 40
1.0
 10
172.2109960164
 20
77.9315151385
 30
0.0
 10
171.9032888318
 20
77.8906656651
 30
0.0
 10
171.2857771492
 20
77.8248666701
 30
0.0
 10
170.3576413388
 20
77.7485685363
 30
0.0
 10
169.4283948954
 20
77.6867632151
 30
0.0
 10
168.1886034769
 20
77.6178752556
 30
0.0
 10
166.6378865856
 20
77.5507683708
 30
0.0
 10
164.7763273219
 20
77.4897931138
 30
0.0
 10
162.9143605932
 20
77.4429200649
 30
0.0
 10
160.4314320761
 20
77.3945426212
 30
0.0
 10
157.3274244039
 20
77.354318373
 30
0.0
 10
153.6024356547
 20
77.3260184661
 30
0.0
 10
149.877373629
 20
77.3103896507
 30
0.0
 10
146.1522891821
 20
77.3027535726
 30
0.0
 10
142.4271979665
 20
77.3004912662
 30
0.0
 10
138.7021067513
 20
77.3027538097
 30
0.0
 10
134.9770223058
 20
77.3103900278
 30
0.0
 10
131.2519602922
 20
77.3260184131
 30
0.0
 10
127.526971546
 20
77.3543192758
 30
0.0
 10
124.4229638344
 20
77.3945436352
 30
0.0
 10
121.9400352163
 20
77.4429211566
 30
0.0
 10
120.0780684038
 20
77.4897945633
 30
0.0
 10
118.2165091459
 20
77.5507705771
 30
0.0
 10
116.6657923242
 20
77.6178779444
 30
0.0
 10
115.4260010399
 20
77.6867665091
 30
0.0
 10
114.4967547684
 20
77.7485724635
 30
0.0
 10
113.5686193202
 20
77.8248717802
 30
0.0
 10
112.9511079336
 20
77.8906717297
 30
0.0
 10
112.6434010487
 20
77.9315223523
 30
0.0
  0
SPLINE
  5
6B5
100
AcDbEntity
  8
RACCORDO
100
AcDbSpline
 62
250
  6
CONTINUOUS
 70
0
 71
3
 72
8
 73
4
 74
0
 42
0.0000001
 43
0.0000001
 44
0.0000000001
 40
0.0
 40
0.0
 40
0.0
 40
0.0
 40
1.0
 40
1.0
 40
1.0
 40
1.0
 10
106.6058187068
 20
48.3547345091
 30
0.0
 10
106.6298221452
 20
48.368593676
 30
0.0
 10
106.6573381416
 20
48.3775146067
 30
0.0
 10
106.6849021145
 20
48.3804247545
 30
0.0
  0
SPLINE
  5
6B6
100
AcDbEntity
  8
RACCORDO
100
AcDbSpline
 62
250
  6
CONTINUOUS
 70
0
 71
3
 72
8
 73
4
 74
0
 42
0.0000001
 43
0.0000001
 44
0.0000000001
 40
0.0
 40
0.0
 40
0.0
 40
0.0
 40
1.0
 40
1.0
 40
1.0
 40
1.0
 10
107.76783276
 20
68.4083235056
 30
0.0
 10
107.7438293216
 20
68.3944643387
 30
0.0
 10
107.7163133253
 20
68.385543408
 30
0.0
 10
107.6887493523
 20
68.3826332602
 30
0.0
  0
SPLINE
  5
6B7
100
AcDbEntity
  8
RACCORDO
100
AcDbSpline
 62
250
  6
CONTINUOUS
 70
0
 71
3
 72
8
 73
4
 74
0
 42
0.0000001
 43
0.0000001
 44
0.0000000001
 40
0.0
 40
0.0
 40
0.0
 40
0.0
 40
1.0
 40
1.0
 40
1.0
 40
1.0
 10
177.0866181354
 20
48.3547345091
 30
0.0
 10
177.1106215738
 20
48.368593676
 30
0.0
 10
177.1381375701
 20
48.3775146067
 30
0.0
 10
177.1657015431
 20
48.3804247545
 30
0.0
  0
SPLINE
  5
6B8
100
AcDbEntity
  8
RACCORDO
100
AcDbSpline
 62
250
  6
CONTINUOUS
 70
0
 71
3
 72
18
 73
14
 74
0
 42
0.0000001
 43
0.0000001
 44
0.0000000001
 40
0.0
 40
0.0
 40
0.0
 40
0.0
 40
0.1947014109
 40
0.3819557106
 40
0.5544773911
 40
0.7057278497
 40
0.8298740342
 40
0.8802677058
 40
0.9222159316
 40
0.9553394713
 40
0.9793494941
 40
0.9941025086
 40
1.0
 40
1.0
 40
1.0
 40
1.0
 10
106.6883486405
 20
48.5815290074
 30
0.0
 10
106.6883486819
 20
48.5685192582
 30
0.0
 10
106.6884350648
 20
48.5429971685
 30
0.0
 10
106.6888190543
 20
48.5059496975
 30
0.0
 10
106.6894412206
 20
48.471807173
 30
0.0
 10
106.6902736159
 20
48.4418933118
 30
0.0
 10
106.6911558132
 20
48.42013017
 30
0.0
 10
106.6919804486
 20
48.405705053
 30
0.0
 10
106.6925852927
 20
48.3973055442
 30
0.0
 10
106.693194927
 20
48.3908113221
 30
0.0
 10
106.6938331672
 20
48.3858193671
 30
0.0
 10
106.6943897048
 20
48.3833060847
 30
0.0
 10
106.6949366024
 20
48.3815293953
 30
0.0
 10
106.6953306665
 20
48.3815290074
 30
0.0
  0
SPLINE
  5
6B9
100
AcDbEntity
  8
RACCORDO
100
AcDbSpline
 62
250
  6
CONTINUOUS
 70
0
 71
3
 72
13
 73
9
 74
0
 42
0.0000001
 43
0.0000001
 44
0.0000000001
 40
0.0
 40
0.0
 40
0.0
 40
0.0
 40
0.0209972617
 40
0.0708292231
 40
0.1515145096
 40
0.2629757546
 40
0.5753449059
 40
1.0
 40
1.0
 40
1.0
 40
1.0
 10
107.6783208003
 20
48.3815290074
 30
0.0
 10
107.678618253
 20
48.381529294
 30
0.0
 10
107.679131442
 20
48.3827298622
 30
0.0
 10
107.6795671689
 20
48.3845850443
 30
0.0
 10
107.6801317738
 20
48.3881000479
 30
0.0
 10
107.6809095182
 20
48.3951285918
 30
0.0
 10
107.6818004528
 20
48.4071753667
 30
0.0
 10
107.6823343517
 20
48.4175827172
 30
0.0
 10
107.6826044794
 20
48.4235924277
 30
0.0
  0
SPLINE
  5
6BA
100
AcDbEntity
  8
RACCORDO
100
AcDbSpline
 62
250
  6
CONTINUOUS
 70
0
 71
3
 72
9
 73
5
 74
0
 42
0.0000001
 43
0.0000001
 44
0.0000000001
 40
0.0
 40
0.0
 40
0.0
 40
0.0
 40
0.2010722719
 40
1.0
 40
1.0
 40
1.0
 40
1.0
 10
107.6826044794
 20
48.4235924277
 30
0.0
 10
107.6830798949
 20
48.4341693095
 30
0.0
 10
107.6848467069
 20
48.4867975616
 30
0.0
 10
107.6853026698
 20
48.5394610683
 30
0.0
 10
107.6853028263
 20
48.5815290074
 30
0.0
  0
SPLINE
  5
6BB
100
AcDbEntity
  8
RACCORDO
100
AcDbSpline
 62
250
  6
CONTINUOUS
 70
0
 71
3
 72
18
 73
14
 74
0
 42
0.0000001
 43
0.0000001
 44
0.0000000001
 40
0.0
 40
0.0
 40
0.0
 40
0.0
 40
0.1947014109
 40
0.3819557106
 40
0.5544773911
 40
0.7057278497
 40
0.8298740342
 40
0.8802677058
 40
0.9222159316
 40
0.9553394713
 40
0.9793494941
 40
0.9941025086
 40
1.0
 40
1.0
 40
1.0
 40
1.0
 10
177.1691480691
 20
48.5815290074
 30
0.0
 10
177.1691481105
 20
48.5685192582
 30
0.0
 10
177.1692344934
 20
48.5429971685
 30
0.0
 10
177.1696184829
 20
48.5059496975
 30
0.0
 10
177.1702406492
 20
48.471807173
 30
0.0
 10
177.1710730445
 20
48.4418933118
 30
0.0
 10
177.1719552418
 20
48.42013017
 30
0.0
 10
177.1727798772
 20
48.405705053
 30
0.0
 10
177.1733847212
 20
48.3973055442
 30
0.0
 10
177.1739943555
 20
48.3908113221
 30
0.0
 10
177.1746325958
 20
48.3858193671
 30
0.0
 10
177.1751891334
 20
48.3833060847
 30
0.0
 10
177.1757360309
 20
48.3815293953
 30
0.0
 10
177.1761300951
 20
48.3815290074
 30
0.0
  0
SPLINE
  5
6BC
100
AcDbEntity
  8
RACCORDO
100
AcDbSpline
 62
250
  6
CONTINUOUS
 70
0
 71
3
 72
13
 73
9
 74
0
 42
0.0000001
 43
0.0000001
 44
0.0000000001
 40
0.0
 40
0.0
 40
0.0
 40
0.0
 40
0.0209972617
 40
0.0708292231
 40
0.1515145096
 40
0.2629757546
 40
0.5753449059
 40
1.0
 40
1.0
 40
1.0
 40
1.0
 10
178.1591202289
 20
48.3815290074
 30
0.0
 10
178.1594176816
 20
48.381529294
 30
0.0
 10
178.1599308706
 20
48.3827298622
 30
0.0
 10
178.1603665975
 20
48.3845850443
 30
0.0
 10
178.1609312023
 20
48.3881000479
 30
0.0
 10
178.1617089467
 20
48.3951285918
 30
0.0
 10
178.1625998814
 20
48.4071753667
 30
0.0
 10
178.1631337803
 20
48.4175827172
 30
0.0
 10
178.163403908
 20
48.4235924277
 30
0.0
  0
SPLINE
  5
6BD
100
AcDbEntity
  8
RACCORDO
100
AcDbSpline
 62
250
  6
CONTINUOUS
 70
0
 71
3
 72
9
 73
5
 74
0
 42
0.0000001
 43
0.0000001
 44
0.0000000001
 40
0.0
 40
0.0
 40
0.0
 40
0.0
 40
0.2010722719
 40
1.0
 40
1.0
 40
1.0
 40
1.0
 10
178.163403908
 20
48.4235924277
 30
0.0
 10
178.1638793235
 20
48.4341693095
 30
0.0
 10
178.1656461354
 20
48.4867975616
 30
0.0
 10
178.1661020984
 20
48.5394610683
 30
0.0
 10
178.1661022548
 20
48.5815290074
 30
0.0
  0
SPLINE
  5
6BE
100
AcDbEntity
  8
RACCORDO
100
AcDbSpline
 62
250
  6
CONTINUOUS
 70
0
 71
3
 72
18
 73
14
 74
0
 42
0.0000001
 43
0.0000001
 44
0.0000000001
 40
0.0
 40
0.0
 40
0.0
 40
0.0
 40
0.1947014109
 40
0.3819557106
 40
0.5544773911
 40
0.7057278497
 40
0.8298740342
 40
0.8802677058
 40
0.9222159316
 40
0.9553394713
 40
0.9793494941
 40
0.9941025086
 40
1.0
 40
1.0
 40
1.0
 40
1.0
 10
178.1661022548
 20
68.1815290074
 30
0.0
 10
178.1661022135
 20
68.1945387565
 30
0.0
 10
178.1660158306
 20
68.2200608462
 30
0.0
 10
178.1656318411
 20
68.2571083172
 30
0.0
 10
178.1650096748
 20
68.2912508417
 30
0.0
 10
178.1641772794
 20
68.3211647029
 30
0.0
 10
178.1632950822
 20
68.3429278447
 30
0.0
 10
178.1624704467
 20
68.3573529617
 30
0.0
 10
178.1618656027
 20
68.3657524705
 30
0.0
 10
178.1612559684
 20
68.3722466926
 30
0.0
 10
178.1606177281
 20
68.3772386476
 30
0.0
 10
178.1600611906
 20
68.37975193
 30
0.0
 10
178.159514293
 20
68.3815286194
 30
0.0
 10
178.1591202289
 20
68.3815290074
 30
0.0
  0
SPLINE
  5
6BF
100
AcDbEntity
  8
RACCORDO
100
AcDbSpline
 62
250
  6
CONTINUOUS
 70
0
 71
3
 72
13
 73
9
 74
0
 42
0.0000001
 43
0.0000001
 44
0.0000000001
 40
0.0
 40
0.0
 40
0.0
 40
0.0
 40
0.0209972617
 40
0.0708292231
 40
0.1515145096
 40
0.2629757546
 40
0.5753449059
 40
1.0
 40
1.0
 40
1.0
 40
1.0
 10
177.1761300951
 20
68.3815290074
 30
0.0
 10
177.1758326424
 20
68.3815287207
 30
0.0
 10
177.1753194533
 20
68.3803281525
 30
0.0
 10
177.1748837264
 20
68.3784729704
 30
0.0
 10
177.1743191216
 20
68.3749579668
 30
0.0
 10
177.1735413772
 20
68.3679294229
 30
0.0
 10
177.1726504426
 20
68.355882648
 30
0.0
 10
177.1721165437
 20
68.3454752975
 30
0.0
 10
177.1718464159
 20
68.339465587
 30
0.0
  0
SPLINE
  5
6C0
100
AcDbEntity
  8
RACCORDO
100
AcDbSpline
 62
250
  6
CONTINUOUS
 70
0
 71
3
 72
9
 73
5
 74
0
 42
0.0000001
 43
0.0000001
 44
0.0000000001
 40
0.0
 40
0.0
 40
0.0
 40
0.0
 40
0.2010722719
 40
1.0
 40
1.0
 40
1.0
 40
1.0
 10
177.1718464159
 20
68.339465587
 30
0.0
 10
177.1713710005
 20
68.3288887052
 30
0.0
 10
177.1696041885
 20
68.2762604531
 30
0.0
 10
177.1691482256
 20
68.2235969464
 30
0.0
 10
177.1691480691
 20
68.1815290074
 30
0.0
  0
SPLINE
  5
6C1
100
AcDbEntity
  8
RACCORDO
100
AcDbSpline
 62
250
  6
CONTINUOUS
 70
0
 71
3
 72
18
 73
14
 74
0
 42
0.0000001
 43
0.0000001
 44
0.0000000001
 40
0.0
 40
0.0
 40
0.0
 40
0.0
 40
0.1947014109
 40
0.3819557106
 40
0.5544773911
 40
0.7057278497
 40
0.8298740342
 40
0.8802677058
 40
0.9222159316
 40
0.9553394713
 40
0.9793494941
 40
0.9941025086
 40
1.0
 40
1.0
 40
1.0
 40
1.0
 10
107.6853028263
 20
68.1815290074
 30
0.0
 10
107.6853027849
 20
68.1945387565
 30
0.0
 10
107.685216402
 20
68.2200608462
 30
0.0
 10
107.6848324125
 20
68.2571083172
 30
0.0
 10
107.6842102462
 20
68.2912508417
 30
0.0
 10
107.6833778509
 20
68.3211647029
 30
0.0
 10
107.6824956536
 20
68.3429278447
 30
0.0
 10
107.6816710182
 20
68.3573529617
 30
0.0
 10
107.6810661742
 20
68.3657524705
 30
0.0
 10
107.6804565398
 20
68.3722466926
 30
0.0
 10
107.6798182996
 20
68.3772386476
 30
0.0
 10
107.679261762
 20
68.37975193
 30
0.0
 10
107.6787148644
 20
68.3815286194
 30
0.0
 10
107.6783208003
 20
68.3815290074
 30
0.0
  0
SPLINE
  5
6C2
100
AcDbEntity
  8
RACCORDO
100
AcDbSpline
 62
250
  6
CONTINUOUS
 70
0
 71
3
 72
13
 73
9
 74
0
 42
0.0000001
 43
0.0000001
 44
0.0000000001
 40
0.0
 40
0.0
 40
0.0
 40
0.0
 40
0.0209972617
 40
0.0708292231
 40
0.1515145096
 40
0.2629757546
 40
0.5753449059
 40
1.0
 40
1.0
 40
1.0
 40
1.0
 10
106.6953306665
 20
68.3815290074
 30
0.0
 10
106.6950332138
 20
68.3815287207
 30
0.0
 10
106.6945200248
 20
68.3803281525
 30
0.0
 10
106.6940842979
 20
68.3784729704
 30
0.0
 10
106.693519693
 20
68.3749579668
 30
0.0
 10
106.6927419486
 20
68.3679294229
 30
0.0
 10
106.691851014
 20
68.355882648
 30
0.0
 10
106.6913171151
 20
68.3454752975
 30
0.0
 10
106.6910469874
 20
68.339465587
 30
0.0
  0
SPLINE
  5
6C3
100
AcDbEntity
  8
RACCORDO
100
AcDbSpline
 62
250
  6
CONTINUOUS
 70
0
 71
3
 72
9
 73
5
 74
0
 42
0.0000001
 43
0.0000001
 44
0.0000000001
 40
0.0
 40
0.0
 40
0.0
 40
0.0
 40
0.2010722719
 40
1.0
 40
1.0
 40
1.0
 40
1.0
 10
106.6910469874
 20
68.339465587
 30
0.0
 10
106.6905715719
 20
68.3288887052
 30
0.0
 10
106.6888047599
 20
68.2762604531
 30
0.0
 10
106.688348797
 20
68.2235969464
 30
0.0
 10
106.6883486405
 20
68.1815290074
 30
0.0
  0
SPLINE
  5
6C4
100
AcDbEntity
  8
RACCORDO
100
AcDbSpline
 62
250
  6
CONTINUOUS
 70
0
 71
3
 72
11
 73
7
 74
0
 42
0.0000001
 43
0.0000001
 44
0.0000000001
 40
0.0
 40
0.0
 40
0.0
 40
0.0
 40
0.2504019069
 40
0.5005968419
 40
0.7504426219
 40
1.0
 40
1.0
 40
1.0
 40
1.0
 10
179.7110290309
 20
132.2140813742
 30
0.0
 10
179.7370192116
 20
132.2141207625
 30
0.0
 10
179.7895287943
 20
132.224537584
 30
0.0
 10
179.8559167749
 20
132.2688801278
 30
0.0
 10
179.9004773386
 20
132.335028135
 30
0.0
 10
179.9109590258
 20
132.3874177905
 30
0.0
 10
179.9109985699
 20
132.4133203139
 30
0.0
  0
SPLINE
  5
6C5
100
AcDbEntity
  8
RACCORDO
100
AcDbSpline
 62
250
  6
CONTINUOUS
 70
0
 71
3
 72
11
 73
7
 74
0
 42
0.0000001
 43
0.0000001
 44
0.0000000001
 40
0.0
 40
0.0
 40
0.0
 40
0.0
 40
0.2504018654
 40
0.5005967833
 40
0.7504425737
 40
1.0
 40
1.0
 40
1.0
 40
1.0
 10
179.7110290309
 20
130.5489766405
 30
0.0
 10
179.7370192072
 20
130.5489372518
 30
0.0
 10
179.7895287832
 20
130.5385204323
 30
0.0
 10
179.8559167625
 20
130.4941778973
 30
0.0
 10
179.9004773355
 20
130.428029891
 30
0.0
 10
179.9109590257
 20
130.3756402291
 30
0.0
 10
179.9109985699
 20
130.3497377008
 30
0.0
  0
SPLINE
  5
6C6
100
AcDbEntity
  8
RACCORDO
100
AcDbSpline
 62
250
  6
CONTINUOUS
 70
0
 71
3
 72
11
 73
7
 74
0
 42
0.0000001
 43
0.0000001
 44
0.0000000001
 40
0.0
 40
0.0
 40
0.0
 40
0.0
 40
0.2504019069
 40
0.5005968419
 40
0.7504426219
 40
1.0
 40
1.0
 40
1.0
 40
1.0
 10
179.7110290309
 20
50.2140813742
 30
0.0
 10
179.7370192116
 20
50.2141207625
 30
0.0
 10
179.7895287943
 20
50.224537584
 30
0.0
 10
179.8559167749
 20
50.2688801278
 30
0.0
 10
179.9004773386
 20
50.335028135
 30
0.0
 10
179.9109590258
 20
50.3874177905
 30
0.0
 10
179.9109985699
 20
50.4133203139
 30
0.0
  0
SPLINE
  5
6C7
100
AcDbEntity
  8
RACCORDO
100
AcDbSpline
 62
250
  6
CONTINUOUS
 70
0
 71
3
 72
11
 73
7
 74
0
 42
0.0000001
 43
0.0000001
 44
0.0000000001
 40
0.0
 40
0.0
 40
0.0
 40
0.0
 40
0.2495574226
 40
0.4994032122
 40
0.7495981313
 40
1.0
 40
1.0
 40
1.0
 40
1.0
 10
179.9109985699
 20
48.3497377008
 30
0.0
 10
179.9109590257
 20
48.3756402288
 30
0.0
 10
179.9004773358
 20
48.4280298902
 30
0.0
 10
179.8559167636
 20
48.4941778966
 30
0.0
 10
179.7895287841
 20
48.5385204324
 30
0.0
 10
179.7370192076
 20
48.5489372519
 30
0.0
 10
179.7110290309
 20
48.5489766404
 30
0.0
  0
SPLINE
  5
6C8
100
AcDbEntity
  8
RACCORDO
100
AcDbSpline
 62
250
  6
CONTINUOUS
 70
0
 71
3
 72
11
 73
7
 74
0
 42
0.0000001
 43
0.0000001
 44
0.0000000001
 40
0.0
 40
0.0
 40
0.0
 40
0.0
 40
0.2504018654
 40
0.5005967833
 40
0.7504425737
 40
1.0
 40
1.0
 40
1.0
 40
1.0
 10
105.1434218645
 20
52.2140813742
 30
0.0
 10
105.1174316881
 20
52.2141207629
 30
0.0
 10
105.0649221122
 20
52.2245375824
 30
0.0
 10
104.9985341329
 20
52.2688801174
 30
0.0
 10
104.9539735599
 20
52.3350281237
 30
0.0
 10
104.9434918697
 20
52.3874177856
 30
0.0
 10
104.9434523254
 20
52.4133203139
 30
0.0
  0
SPLINE
  5
6C9
100
AcDbEntity
  8
RACCORDO
100
AcDbSpline
 62
250
  6
CONTINUOUS
 70
0
 71
3
 72
11
 73
7
 74
0
 42
0.0000001
 43
0.0000001
 44
0.0000000001
 40
0.0
 40
0.0
 40
0.0
 40
0.0
 40
0.2504019069
 40
0.5005968419
 40
0.7504426219
 40
1.0
 40
1.0
 40
1.0
 40
1.0
 10
105.1434218645
 20
150.5489766405
 30
0.0
 10
105.1174316838
 20
150.5489372522
 30
0.0
 10
105.0649221011
 20
150.5385204307
 30
0.0
 10
104.9985341205
 20
150.4941778869
 30
0.0
 10
104.9539735567
 20
150.4280298797
 30
0.0
 10
104.9434918696
 20
150.3756402242
 30
0.0
 10
104.9434523254
 20
150.3497377008
 30
0.0
  0
SPLINE
  5
6CA
100
AcDbEntity
  8
RACCORDO
100
AcDbSpline
 62
250
  6
CONTINUOUS
 70
0
 71
3
 72
11
 73
7
 74
0
 42
0.0000001
 43
0.0000001
 44
0.0000000001
 40
0.0
 40
0.0
 40
0.0
 40
0.0
 40
0.2495574226
 40
0.4994032122
 40
0.7495981313
 40
1.0
 40
1.0
 40
1.0
 40
1.0
 10
104.9434523254
 20
152.4133203139
 30
0.0
 10
104.9434918697
 20
152.3874177859
 30
0.0
 10
104.9539735596
 20
152.3350281245
 30
0.0
 10
104.9985341318
 20
152.2688801181
 30
0.0
 10
105.0649221113
 20
152.2245375823
 30
0.0
 10
105.1174316878
 20
152.2141207628
 30
0.0
 10
105.1434218645
 20
152.2140813743
 30
0.0
  0
SPLINE
  5
6CB
100
AcDbEntity
  8
RACCORDO
100
AcDbSpline
 62
250
  6
CONTINUOUS
 70
0
 71
3
 72
11
 73
7
 74
0
 42
0.0000001
 43
0.0000001
 44
0.0000000001
 40
0.0
 40
0.0
 40
0.0
 40
0.0
 40
0.2495574263
 40
0.4994032168
 40
0.7495981346
 40
1.0
 40
1.0
 40
1.0
 40
1.0
 10
104.9434523254
 20
50.3497377008
 30
0.0
 10
104.9434918697
 20
50.3756402291
 30
0.0
 10
104.9539735599
 20
50.428029891
 30
0.0
 10
104.9985341329
 20
50.4941778973
 30
0.0
 10
105.0649221122
 20
50.5385204324
 30
0.0
 10
105.1174316881
 20
50.5489372518
 30
0.0
 10
105.1434218645
 20
50.5489766405
 30
0.0
  0
SPLINE
  5
6CC
100
AcDbEntity
  8
RACCORDO
100
AcDbSpline
 62
250
  6
CONTINUOUS
 70
0
 71
3
 72
11
 73
7
 74
0
 42
0.0000001
 43
0.0000001
 44
0.0000000001
 40
0.0
 40
0.0
 40
0.0
 40
0.0
 40
0.2495574263
 40
0.4994032168
 40
0.7495981346
 40
1.0
 40
1.0
 40
1.0
 40
1.0
 10
178.4190152345
 20
48.3497377008
 30
0.0
 10
178.4190547788
 20
48.3756402291
 30
0.0
 10
178.429536469
 20
48.428029891
 30
0.0
 10
178.474097042
 20
48.4941778973
 30
0.0
 10
178.5404850213
 20
48.5385204324
 30
0.0
 10
178.5929945972
 20
48.5489372518
 30
0.0
 10
178.6189847736
 20
48.5489766405
 30
0.0
  0
SPLINE
  5
6CD
100
AcDbEntity
  8
RACCORDO
100
AcDbSpline
 62
250
  6
CONTINUOUS
 70
0
 71
3
 72
11
 73
7
 74
0
 42
0.0000001
 43
0.0000001
 44
0.0000000001
 40
0.0
 40
0.0
 40
0.0
 40
0.0
 40
0.2495574226
 40
0.4994032122
 40
0.7495981313
 40
1.0
 40
1.0
 40
1.0
 40
1.0
 10
178.4190152345
 20
50.4133203139
 30
0.0
 10
178.4190547788
 20
50.3874177859
 30
0.0
 10
178.4295364687
 20
50.3350281245
 30
0.0
 10
178.4740970409
 20
50.2688801181
 30
0.0
 10
178.5404850204
 20
50.2245375823
 30
0.0
 10
178.5929945969
 20
50.2141207628
 30
0.0
 10
178.6189847736
 20
50.2140813743
 30
0.0
  0
SPLINE
  5
6CE
100
AcDbEntity
  8
RACCORDO
100
AcDbSpline
 62
250
  6
CONTINUOUS
 70
0
 71
3
 72
11
 73
7
 74
0
 42
0.0000001
 43
0.0000001
 44
0.0000000001
 40
0.0
 40
0.0
 40
0.0
 40
0.0
 40
0.2495574263
 40
0.4994032168
 40
0.7495981346
 40
1.0
 40
1.0
 40
1.0
 40
1.0
 10
178.4190152345
 20
130.3497377008
 30
0.0
 10
178.4190547788
 20
130.3756402291
 30
0.0
 10
178.429536469
 20
130.428029891
 30
0.0
 10
178.474097042
 20
130.4941778973
 30
0.0
 10
178.5404850213
 20
130.5385204324
 30
0.0
 10
178.5929945972
 20
130.5489372518
 30
0.0
 10
178.6189847736
 20
130.5489766405
 30
0.0
  0
SPLINE
  5
6CF
100
AcDbEntity
  8
RACCORDO
100
AcDbSpline
 62
250
  6
CONTINUOUS
 70
0
 71
3
 72
11
 73
7
 74
0
 42
0.0000001
 43
0.0000001
 44
0.0000000001
 40
0.0
 40
0.0
 40
0.0
 40
0.0
 40
0.2495574226
 40
0.4994032122
 40
0.7495981313
 40
1.0
 40
1.0
 40
1.0
 40
1.0
 10
106.4354356608
 20
50.3497377008
 30
0.0
 10
106.4353961166
 20
50.3756402288
 30
0.0
 10
106.4249144267
 20
50.4280298902
 30
0.0
 10
106.3803538545
 20
50.4941778966
 30
0.0
 10
106.313965875
 20
50.5385204324
 30
0.0
 10
106.2614562985
 20
50.5489372519
 30
0.0
 10
106.2354661218
 20
50.5489766404
 30
0.0
  0
SPLINE
  5
6D0
100
AcDbEntity
  8
RACCORDO
100
AcDbSpline
 62
250
  6
CONTINUOUS
 70
0
 71
3
 72
11
 73
7
 74
0
 42
0.0000001
 43
0.0000001
 44
0.0000000001
 40
0.0
 40
0.0
 40
0.0
 40
0.0
 40
0.2495574226
 40
0.4994032122
 40
0.7495981313
 40
1.0
 40
1.0
 40
1.0
 40
1.0
 10
106.4354356608
 20
150.3497377008
 30
0.0
 10
106.4353961166
 20
150.3756402288
 30
0.0
 10
106.4249144267
 20
150.4280298902
 30
0.0
 10
106.3803538545
 20
150.4941778966
 30
0.0
 10
106.313965875
 20
150.5385204324
 30
0.0
 10
106.2614562985
 20
150.5489372519
 30
0.0
 10
106.2354661218
 20
150.5489766404
 30
0.0
  0
SPLINE
  5
6D1
100
AcDbEntity
  8
RACCORDO
100
AcDbSpline
 62
250
  6
CONTINUOUS
 70
0
 71
3
 72
11
 73
7
 74
0
 42
0.0000001
 43
0.0000001
 44
0.0000000001
 40
0.0
 40
0.0
 40
0.0
 40
0.0
 40
0.2495574263
 40
0.4994032168
 40
0.7495981346
 40
1.0
 40
1.0
 40
1.0
 40
1.0
 10
106.4354356608
 20
52.4133203139
 30
0.0
 10
106.4353961166
 20
52.3874177856
 30
0.0
 10
106.4249144264
 20
52.3350281237
 30
0.0
 10
106.3803538534
 20
52.2688801174
 30
0.0
 10
106.3139658741
 20
52.2245375823
 30
0.0
 10
106.2614562981
 20
52.2141207629
 30
0.0
 10
106.2354661218
 20
52.2140813742
 30
0.0
  0
SPLINE
  5
6D2
100
AcDbEntity
  8
RACCORDO
100
AcDbSpline
 62
250
  6
CONTINUOUS
 70
0
 71
3
 72
13
 73
9
 74
0
 42
0.0000001
 43
0.0000001
 44
0.0000000001
 40
0.0
 40
0.0
 40
0.0
 40
0.0
 40
0.0714943039
 40
0.1552992061
 40
0.2570125592
 40
0.377949816
 40
0.668989271
 40
1.0
 40
1.0
 40
1.0
 40
1.0
 10
175.3835812079
 20
66.6397589325
 30
0.0
 10
175.3833689224
 20
66.6342844447
 30
0.0
 10
175.3797817557
 20
66.6224497226
 30
0.0
 10
175.367060807
 20
66.6070080001
 30
0.0
 10
175.3478998202
 20
66.5931408767
 30
0.0
 10
175.3123047139
 20
66.576002224
 30
0.0
 10
175.2566703022
 20
66.561804484
 30
0.0
 10
175.2089764503
 20
66.5578516808
 30
0.0
 10
175.1836116688
 20
66.557685997
 30
0.0
  0
SPLINE
  5
6D3
100
AcDbEntity
  8
RACCORDO
100
AcDbSpline
 62
250
  6
CONTINUOUS
 70
0
 71
3
 72
13
 73
9
 74
0
 42
0.0000001
 43
0.0000001
 44
0.0000000001
 40
0.0
 40
0.0
 40
0.0
 40
0.0
 40
0.0714942861
 40
0.1552991641
 40
0.2570124983
 40
0.3779497504
 40
0.6689892191
 40
1.0
 40
1.0
 40
1.0
 40
1.0
 10
175.3706389979
 20
68.2874449532
 30
0.0
 10
175.3704267126
 20
68.2819704669
 30
0.0
 10
175.3668395489
 20
68.2701357473
 30
0.0
 10
175.3541186011
 20
68.2546940302
 30
0.0
 10
175.3349576194
 20
68.2408269072
 30
0.0
 10
175.2993625147
 20
68.2236882535
 30
0.0
 10
175.2437281002
 20
68.2094905093
 30
0.0
 10
175.196034244
 20
68.2055377032
 30
0.0
 10
175.1706694589
 20
68.2053720177
 30
0.0
  0
SPLINE
  5
6D4
100
AcDbEntity
  8
RACCORDO
100
AcDbSpline
 62
250
  6
CONTINUOUS
 70
0
 71
3
 72
11
 73
7
 74
0
 42
0.0000001
 43
0.0000001
 44
0.0000000001
 40
0.0
 40
0.0
 40
0.0
 40
0.0
 40
0.2495574226
 40
0.4994032122
 40
0.7495981313
 40
1.0
 40
1.0
 40
1.0
 40
1.0
 10
178.4190152345
 20
132.4133203139
 30
0.0
 10
178.4190547788
 20
132.3874177859
 30
0.0
 10
178.4295364687
 20
132.3350281245
 30
0.0
 10
178.4740970409
 20
132.2688801181
 30
0.0
 10
178.5404850204
 20
132.2245375823
 30
0.0
 10
178.5929945969
 20
132.2141207628
 30
0.0
 10
178.6189847736
 20
132.2140813743
 30
0.0
  0
SPLINE
  5
6D5
100
AcDbEntity
  8
RACCORDO
100
AcDbSpline
 62
250
  6
CONTINUOUS
 70
0
 71
3
 72
11
 73
7
 74
0
 42
0.0000001
 43
0.0000001
 44
0.0000000001
 40
0.0
 40
0.0
 40
0.0
 40
0.0
 40
0.2495574263
 40
0.4994032168
 40
0.7495981346
 40
1.0
 40
1.0
 40
1.0
 40
1.0
 10
106.4354356608
 20
152.4133203139
 30
0.0
 10
106.4353961166
 20
152.3874177856
 30
0.0
 10
106.4249144264
 20
152.3350281237
 30
0.0
 10
106.3803538534
 20
152.2688801174
 30
0.0
 10
106.3139658741
 20
152.2245375823
 30
0.0
 10
106.2614562981
 20
152.2141207629
 30
0.0
 10
106.2354661218
 20
152.2140813742
 30
0.0
  0
SPLINE
  5
6D6
100
AcDbEntity
  8
RACCORDO
100
AcDbSpline
 62
250
  6
CONTINUOUS
 70
0
 71
3
 72
13
 73
9
 74
0
 42
0.0000001
 43
0.0000001
 44
0.0000000001
 40
0.0
 40
0.0
 40
0.0
 40
0.0
 40
0.0333196071
 40
0.099746996
 40
0.1970236429
 40
0.3218162048
 40
0.6360874145
 40
1.0
 40
1.0
 40
1.0
 40
1.0
 10
106.2354661218
 20
150.5489766405
 30
0.0
 10
106.2348095881
 20
150.5434829884
 30
0.0
 10
106.2343768244
 20
150.5268952288
 30
0.0
 10
106.233376666
 20
150.4942162622
 30
0.0
 10
106.2326981525
 20
150.4463040463
 30
0.0
 10
106.2316600422
 20
150.3572563598
 30
0.0
 10
106.2309062838
 20
150.2239187908
 30
0.0
 10
106.2306860128
 20
150.1113072235
 30
0.0
 10
106.2306859951
 20
150.0508792914
 30
0.0
  0
SPLINE
  5
6D7
100
AcDbEntity
  8
RACCORDO
100
AcDbSpline
 62
250
  6
CONTINUOUS
 70
0
 71
3
 72
13
 73
9
 74
0
 42
0.0000001
 43
0.0000001
 44
0.0000000001
 40
0.0
 40
0.0
 40
0.0
 40
0.0
 40
0.0333272374
 40
0.0997745313
 40
0.1970576466
 40
0.3218727643
 40
0.6361650231
 40
1.0
 40
1.0
 40
1.0
 40
1.0
 10
105.1434218645
 20
150.5489766405
 30
0.0
 10
105.1440780309
 20
150.5434816686
 30
0.0
 10
105.1445109152
 20
150.5268893959
 30
0.0
 10
105.1455121155
 20
150.4942047661
 30
0.0
 10
105.1461896438
 20
150.4462844266
 30
0.0
 10
105.1472285735
 20
150.3572284301
 30
0.0
 10
105.1479815353
 20
150.2238965076
 30
0.0
 10
105.148201963
 20
150.1112943352
 30
0.0
 10
105.1482019912
 20
150.0508792914
 30
0.0
  0
SPLINE
  5
6D8
100
AcDbEntity
  8
RACCORDO
100
AcDbSpline
 62
250
  6
CONTINUOUS
 70
0
 71
3
 72
13
 73
9
 74
0
 42
0.0000001
 43
0.0000001
 44
0.0000000001
 40
0.0
 40
0.0
 40
0.0
 40
0.0
 40
0.3637636234
 40
0.6780527867
 40
0.8028718113
 40
0.900180397
 40
0.9666540847
 40
1.0
 40
1.0
 40
1.0
 40
1.0
 10
106.2306859951
 20
152.7121787233
 30
0.0
 10
106.230686006
 20
152.6517755274
 30
0.0
 10
106.230906228
 20
152.5391857151
 30
0.0
 10
106.2316593365
 20
152.4058655079
 30
0.0
 10
106.2326976989
 20
152.316805141
 30
0.0
 10
106.2333756603
 20
152.2688755391
 30
0.0
 10
106.2343765622
 20
152.2361792086
 30
0.0
 10
106.2348094486
 20
152.2195794091
 30
0.0
 10
106.2354661218
 20
152.2140813742
 30
0.0
  0
SPLINE
  5
6D9
100
AcDbEntity
  8
RACCORDO
100
AcDbSpline
 62
250
  6
CONTINUOUS
 70
0
 71
3
 72
13
 73
9
 74
0
 42
0.0000001
 43
0.0000001
 44
0.0000000001
 40
0.0
 40
0.0
 40
0.0
 40
0.0
 40
0.0333196071
 40
0.099746996
 40
0.1970236429
 40
0.3218162048
 40
0.6360874145
 40
1.0
 40
1.0
 40
1.0
 40
1.0
 10
105.1434218645
 20
152.2140813742
 30
0.0
 10
105.1440783982
 20
152.2195750263
 30
0.0
 10
105.1445111619
 20
152.2361627859
 30
0.0
 10
105.1455113203
 20
152.2688417525
 30
0.0
 10
105.1461898338
 20
152.3167539684
 30
0.0
 10
105.147227944
 20
152.4058016549
 30
0.0
 10
105.1479817025
 20
152.5391392239
 30
0.0
 10
105.1482019735
 20
152.6517507912
 30
0.0
 10
105.1482019912
 20
152.7121787233
 30
0.0
  0
SPLINE
  5
6DA
100
AcDbEntity
  8
RACCORDO
100
AcDbSpline
 62
250
  6
CONTINUOUS
 70
0
 71
3
 72
13
 73
9
 74
0
 42
0.0000001
 43
0.0000001
 44
0.0000000001
 40
0.0
 40
0.0
 40
0.0
 40
0.0
 40
0.3637636234
 40
0.6780527867
 40
0.8028718113
 40
0.900180397
 40
0.9666540847
 40
1.0
 40
1.0
 40
1.0
 40
1.0
 10
178.6237649003
 20
130.0508792914
 30
0.0
 10
178.6237648894
 20
130.1112824873
 30
0.0
 10
178.6235446674
 20
130.2238722996
 30
0.0
 10
178.6227915588
 20
130.3571925068
 30
0.0
 10
178.6217531965
 20
130.4462528737
 30
0.0
 10
178.6210752351
 20
130.4941824756
 30
0.0
 10
178.6200743331
 20
130.5268788061
 30
0.0
 10
178.6196414468
 20
130.5434786056
 30
0.0
 10
178.6189847736
 20
130.5489766405
 30
0.0
  0
SPLINE
  5
6DB
100
AcDbEntity
  8
RACCORDO
100
AcDbSpline
 62
250
  6
CONTINUOUS
 70
0
 71
3
 72
13
 73
9
 74
0
 42
0.0000001
 43
0.0000001
 44
0.0000000001
 40
0.0
 40
0.0
 40
0.0
 40
0.0
 40
0.3638075121
 40
0.6780982199
 40
0.8029206307
 40
0.9002126333
 40
0.9666689336
 40
1.0
 40
1.0
 40
1.0
 40
1.0
 10
179.7062489042
 20
130.0508792914
 30
0.0
 10
179.7062489303
 20
130.1112897745
 30
0.0
 10
179.7064693234
 20
130.2238871287
 30
0.0
 10
179.7072222331
 20
130.3572154435
 30
0.0
 10
179.7082611142
 20
130.4462738697
 30
0.0
 10
179.7089385794
 20
130.4941983931
 30
0.0
 10
179.709939974
 20
130.5268866258
 30
0.0
 10
179.7103728362
 20
130.5434810317
 30
0.0
 10
179.7110290309
 20
130.5489766405
 30
0.0
  0
SPLINE
  5
6DC
100
AcDbEntity
  8
RACCORDO
100
AcDbSpline
 62
250
  6
CONTINUOUS
 70
0
 71
3
 72
13
 73
9
 74
0
 42
0.0000001
 43
0.0000001
 44
0.0000000001
 40
0.0
 40
0.0
 40
0.0
 40
0.0
 40
0.0333196071
 40
0.099746996
 40
0.1970236429
 40
0.3218162048
 40
0.6360874145
 40
1.0
 40
1.0
 40
1.0
 40
1.0
 10
178.6189847736
 20
132.2140813742
 30
0.0
 10
178.6196413073
 20
132.2195750263
 30
0.0
 10
178.620074071
 20
132.2361627859
 30
0.0
 10
178.6210742294
 20
132.2688417525
 30
0.0
 10
178.6217527429
 20
132.3167539684
 30
0.0
 10
178.6227908531
 20
132.4058016549
 30
0.0
 10
178.6235446116
 20
132.5391392239
 30
0.0
 10
178.6237648826
 20
132.6517507912
 30
0.0
 10
178.6237649003
 20
132.7121787233
 30
0.0
  0
SPLINE
  5
6DD
100
AcDbEntity
  8
RACCORDO
100
AcDbSpline
 62
250
  6
CONTINUOUS
 70
0
 71
3
 72
13
 73
9
 74
0
 42
0.0000001
 43
0.0000001
 44
0.0000000001
 40
0.0
 40
0.0
 40
0.0
 40
0.0
 40
0.0333272374
 40
0.0997745313
 40
0.1970576466
 40
0.3218727643
 40
0.6361650231
 40
1.0
 40
1.0
 40
1.0
 40
1.0
 10
179.7110290309
 20
132.2140813742
 30
0.0
 10
179.7103728645
 20
132.2195763461
 30
0.0
 10
179.7099399802
 20
132.2361686188
 30
0.0
 10
179.7089387799
 20
132.2688532486
 30
0.0
 10
179.7082612516
 20
132.3167735881
 30
0.0
 10
179.7072223219
 20
132.4058295846
 30
0.0
 10
179.7064693601
 20
132.5391615071
 30
0.0
 10
179.7062489324
 20
132.6517636795
 30
0.0
 10
179.7062489042
 20
132.7121787233
 30
0.0
  0
SPLINE
  5
6DE
100
AcDbEntity
  8
RACCORDO
100
AcDbSpline
 62
250
  6
CONTINUOUS
 70
0
 71
3
 72
13
 73
9
 74
0
 42
0.0000001
 43
0.0000001
 44
0.0000000001
 40
0.0
 40
0.0
 40
0.0
 40
0.0
 40
0.3637636234
 40
0.6780527867
 40
0.8028718113
 40
0.900180397
 40
0.9666540847
 40
1.0
 40
1.0
 40
1.0
 40
1.0
 10
178.6237649003
 20
48.0508792914
 30
0.0
 10
178.6237648894
 20
48.1112824873
 30
0.0
 10
178.6235446674
 20
48.2238722996
 30
0.0
 10
178.6227915588
 20
48.3571925068
 30
0.0
 10
178.6217531965
 20
48.4462528737
 30
0.0
 10
178.6210752351
 20
48.4941824756
 30
0.0
 10
178.6200743331
 20
48.5268788061
 30
0.0
 10
178.6196414468
 20
48.5434786056
 30
0.0
 10
178.6189847736
 20
48.5489766405
 30
0.0
  0
SPLINE
  5
6DF
100
AcDbEntity
  8
RACCORDO
100
AcDbSpline
 62
250
  6
CONTINUOUS
 70
0
 71
3
 72
13
 73
9
 74
0
 42
0.0000001
 43
0.0000001
 44
0.0000000001
 40
0.0
 40
0.0
 40
0.0
 40
0.0
 40
0.0333196071
 40
0.099746996
 40
0.1970236429
 40
0.3218162048
 40
0.6360874145
 40
1.0
 40
1.0
 40
1.0
 40
1.0
 10
179.7110290309
 20
48.5489766405
 30
0.0
 10
179.7103724972
 20
48.5434829884
 30
0.0
 10
179.7099397335
 20
48.5268952288
 30
0.0
 10
179.7089395751
 20
48.4942162622
 30
0.0
 10
179.7082610616
 20
48.4463040463
 30
0.0
 10
179.7072229513
 20
48.3572563598
 30
0.0
 10
179.7064691929
 20
48.2239187908
 30
0.0
 10
179.7062489219
 20
48.1113072235
 30
0.0
 10
179.7062489042
 20
48.0508792914
 30
0.0
  0
SPLINE
  5
6E0
100
AcDbEntity
  8
RACCORDO
100
AcDbSpline
 62
250
  6
CONTINUOUS
 70
0
 71
3
 72
13
 73
9
 74
0
 42
0.0000001
 43
0.0000001
 44
0.0000000001
 40
0.0
 40
0.0
 40
0.0
 40
0.0
 40
0.0333196071
 40
0.099746996
 40
0.1970236429
 40
0.3218162048
 40
0.6360874145
 40
1.0
 40
1.0
 40
1.0
 40
1.0
 10
178.6189847736
 20
50.2140813742
 30
0.0
 10
178.6196413073
 20
50.2195750263
 30
0.0
 10
178.620074071
 20
50.2361627859
 30
0.0
 10
178.6210742294
 20
50.2688417525
 30
0.0
 10
178.6217527429
 20
50.3167539684
 30
0.0
 10
178.6227908531
 20
50.4058016549
 30
0.0
 10
178.6235446116
 20
50.5391392239
 30
0.0
 10
178.6237648826
 20
50.6517507912
 30
0.0
 10
178.6237649003
 20
50.7121787233
 30
0.0
  0
SPLINE
  5
6E1
100
AcDbEntity
  8
RACCORDO
100
AcDbSpline
 62
250
  6
CONTINUOUS
 70
0
 71
3
 72
13
 73
9
 74
0
 42
0.0000001
 43
0.0000001
 44
0.0000000001
 40
0.0
 40
0.0
 40
0.0
 40
0.0
 40
0.0333272374
 40
0.0997745313
 40
0.1970576466
 40
0.3218727643
 40
0.6361650231
 40
1.0
 40
1.0
 40
1.0
 40
1.0
 10
179.7110290309
 20
50.2140813742
 30
0.0
 10
179.7103728645
 20
50.2195763461
 30
0.0
 10
179.7099399802
 20
50.2361686188
 30
0.0
 10
179.7089387799
 20
50.2688532486
 30
0.0
 10
179.7082612516
 20
50.3167735881
 30
0.0
 10
179.7072223219
 20
50.4058295846
 30
0.0
 10
179.7064693601
 20
50.5391615071
 30
0.0
 10
179.7062489324
 20
50.6517636795
 30
0.0
 10
179.7062489042
 20
50.7121787233
 30
0.0
  0
SPLINE
  5
6E2
100
AcDbEntity
  8
RACCORDO
100
AcDbSpline
 62
250
  6
CONTINUOUS
 70
0
 71
3
 72
13
 73
9
 74
0
 42
0.0000001
 43
0.0000001
 44
0.0000000001
 40
0.0
 40
0.0
 40
0.0
 40
0.0
 40
0.0333196071
 40
0.099746996
 40
0.1970236429
 40
0.3218162048
 40
0.6360874145
 40
1.0
 40
1.0
 40
1.0
 40
1.0
 10
106.2354661218
 20
50.5489766405
 30
0.0
 10
106.2348095881
 20
50.5434829884
 30
0.0
 10
106.2343768244
 20
50.5268952288
 30
0.0
 10
106.233376666
 20
50.4942162622
 30
0.0
 10
106.2326981525
 20
50.4463040463
 30
0.0
 10
106.2316600422
 20
50.3572563598
 30
0.0
 10
106.2309062838
 20
50.2239187908
 30
0.0
 10
106.2306860128
 20
50.1113072235
 30
0.0
 10
106.2306859951
 20
50.0508792914
 30
0.0
  0
SPLINE
  5
6E3
100
AcDbEntity
  8
RACCORDO
100
AcDbSpline
 62
250
  6
CONTINUOUS
 70
0
 71
3
 72
13
 73
9
 74
0
 42
0.0000001
 43
0.0000001
 44
0.0000000001
 40
0.0
 40
0.0
 40
0.0
 40
0.0
 40
0.3637636234
 40
0.6780527867
 40
0.8028718113
 40
0.900180397
 40
0.9666540847
 40
1.0
 40
1.0
 40
1.0
 40
1.0
 10
105.1482019912
 20
50.0508792914
 30
0.0
 10
105.1482019803
 20
50.1112824873
 30
0.0
 10
105.1479817583
 20
50.2238722996
 30
0.0
 10
105.1472286497
 20
50.3571925068
 30
0.0
 10
105.1461902874
 20
50.4462528737
 30
0.0
 10
105.145512326
 20
50.4941824756
 30
0.0
 10
105.144511424
 20
50.5268788061
 30
0.0
 10
105.1440785377
 20
50.5434786056
 30
0.0
 10
105.1434218645
 20
50.5489766405
 30
0.0
  0
SPLINE
  5
6E4
100
AcDbEntity
  8
RACCORDO
100
AcDbSpline
 62
250
  6
CONTINUOUS
 70
0
 71
3
 72
13
 73
9
 74
0
 42
0.0000001
 43
0.0000001
 44
0.0000000001
 40
0.0
 40
0.0
 40
0.0
 40
0.0
 40
0.3637636234
 40
0.6780527867
 40
0.8028718113
 40
0.900180397
 40
0.9666540847
 40
1.0
 40
1.0
 40
1.0
 40
1.0
 10
106.2306859951
 20
52.7121787233
 30
0.0
 10
106.230686006
 20
52.6517755274
 30
0.0
 10
106.230906228
 20
52.5391857151
 30
0.0
 10
106.2316593365
 20
52.4058655079
 30
0.0
 10
106.2326976989
 20
52.316805141
 30
0.0
 10
106.2333756603
 20
52.2688755391
 30
0.0
 10
106.2343765622
 20
52.2361792086
 30
0.0
 10
106.2348094486
 20
52.2195794091
 30
0.0
 10
106.2354661218
 20
52.2140813742
 30
0.0
  0
SPLINE
  5
6E5
100
AcDbEntity
  8
RACCORDO
100
AcDbSpline
 62
250
  6
CONTINUOUS
 70
0
 71
3
 72
13
 73
9
 74
0
 42
0.0000001
 43
0.0000001
 44
0.0000000001
 40
0.0
 40
0.0
 40
0.0
 40
0.0
 40
0.3638075121
 40
0.6780982199
 40
0.8029206307
 40
0.9002126333
 40
0.9666689336
 40
1.0
 40
1.0
 40
1.0
 40
1.0
 10
105.1482019912
 20
52.7121787233
 30
0.0
 10
105.1482019651
 20
52.6517682402
 30
0.0
 10
105.147981572
 20
52.539170886
 30
0.0
 10
105.1472286623
 20
52.4058425712
 30
0.0
 10
105.1461897812
 20
52.316784145
 30
0.0
 10
105.145512316
 20
52.2688596216
 30
0.0
 10
105.1445109214
 20
52.2361713889
 30
0.0
 10
105.1440780592
 20
52.219576983
 30
0.0
 10
105.1434218645
 20
52.2140813742
 30
0.0
  0
SPLINE
  5
6E6
100
AcDbEntity
  8
RACCORDO
100
AcDbSpline
 62
250
  6
CONTINUOUS
 70
0
 71
3
 72
13
 73
9
 74
0
 42
0.0000001
 43
0.0000001
 44
0.0000000001
 40
0.0
 40
0.0
 40
0.0
 40
0.0
 40
0.0714943039
 40
0.1552992061
 40
0.2570125592
 40
0.377949816
 40
0.668989271
 40
1.0
 40
1.0
 40
1.0
 40
1.0
 10
109.4838118974
 20
68.2874449532
 30
0.0
 10
109.4840241828
 20
68.2819704654
 30
0.0
 10
109.4876113496
 20
68.2701357433
 30
0.0
 10
109.5003322983
 20
68.2546940208
 30
0.0
 10
109.5194932851
 20
68.2408268974
 30
0.0
 10
109.5550883914
 20
68.2236882447
 30
0.0
 10
109.6107228031
 20
68.2094905047
 30
0.0
 10
109.658416655
 20
68.2055377015
 30
0.0
 10
109.6837814365
 20
68.2053720177
 30
0.0
  0
SPLINE
  5
6E7
100
AcDbEntity
  8
RACCORDO
100
AcDbSpline
 62
250
  6
CONTINUOUS
 70
0
 71
3
 72
13
 73
9
 74
0
 42
0.0000001
 43
0.0000001
 44
0.0000000001
 40
0.0
 40
0.0
 40
0.0
 40
0.0
 40
0.0714943193
 40
0.1552992513
 40
0.2570126304
 40
0.3779498951
 40
0.6689893374
 40
1.0
 40
1.0
 40
1.0
 40
1.0
 10
109.4708696875
 20
66.6397589325
 30
0.0
 10
109.471081973
 20
66.6342844436
 30
0.0
 10
109.4746691447
 20
66.6224497192
 30
0.0
 10
109.4873900947
 20
66.6070079913
 30
0.0
 10
109.506551089
 20
66.5931408689
 30
0.0
 10
109.5421461974
 20
66.5760022183
 30
0.0
 10
109.5977806046
 20
66.5618044826
 30
0.0
 10
109.6454744503
 20
66.5578516806
 30
0.0
 10
109.6708392266
 20
66.557685997
 30
0.0
  0
SPLINE
  5
6E8
100
AcDbEntity
  8
RACCORDO
100
AcDbSpline
 62
250
  6
CONTINUOUS
 70
0
 71
3
 72
18
 73
14
 74
0
 42
0.0000001
 43
0.0000001
 44
0.0000000001
 40
0.0
 40
0.0
 40
0.0
 40
0.0
 40
0.2191629436
 40
0.4163407578
 40
0.5885572357
 40
0.7331939794
 40
0.8480752667
 40
0.8938075157
 40
0.9314991831
 40
0.9609901313
 40
0.9822025768
 40
0.9951224848
 40
1.0
 40
1.0
 40
1.0
 40
1.0
 10
107.8841204588
 20
68.4016093898
 30
0.0
 10
107.8839691017
 20
68.4147711689
 30
0.0
 10
107.8836452235
 20
68.4397741715
 30
0.0
 10
107.8830577175
 20
68.4751168052
 30
0.0
 10
107.8824036615
 20
68.505983801
 30
0.0
 10
107.8816922389
 20
68.5318987478
 30
0.0
 10
107.8810309715
 20
68.5502317054
 30
0.0
 10
107.8804517956
 20
68.5621100802
 30
0.0
 10
107.8800521377
 20
68.5689175324
 30
0.0
 10
107.8796347284
 20
68.5741128958
 30
0.0
 10
107.8792636041
 20
68.5781389826
 30
0.0
 10
107.8788432859
 20
68.5800486114
 30
0.0
 10
107.8785832747
 20
68.5815279239
 30
0.0
 10
107.8782903393
 20
68.5815290074
 30
0.0
  0
SPLINE
  5
6E9
100
AcDbEntity
  8
RACCORDO
100
AcDbSpline
 62
250
  6
CONTINUOUS
 70
0
 71
3
 72
18
 73
14
 74
0
 42
0.0000001
 43
0.0000001
 44
0.0000000001
 40
0.0
 40
0.0
 40
0.0
 40
0.0
 40
0.2191629436
 40
0.4163407578
 40
0.5885572356
 40
0.7331939794
 40
0.8480752667
 40
0.8938075157
 40
0.9314991831
 40
0.9609901313
 40
0.9822025768
 40
0.9951224848
 40
1.0
 40
1.0
 40
1.0
 40
1.0
 10
178.3649198873
 20
68.4016093898
 30
0.0
 10
178.3647685303
 20
68.4147711689
 30
0.0
 10
178.3644446521
 20
68.4397741715
 30
0.0
 10
178.3638571461
 20
68.4751168052
 30
0.0
 10
178.3632030901
 20
68.505983801
 30
0.0
 10
178.3624916675
 20
68.5318987478
 30
0.0
 10
178.3618304001
 20
68.5502317054
 30
0.0
 10
178.3612512242
 20
68.5621100802
 30
0.0
 10
178.3608515663
 20
68.5689175324
 30
0.0
 10
178.360434157
 20
68.5741128958
 30
0.0
 10
178.3600630327
 20
68.5781389826
 30
0.0
 10
178.3596427145
 20
68.5800486114
 30
0.0
 10
178.3593827033
 20
68.5815279239
 30
0.0
 10
178.3590897679
 20
68.5815290074
 30
0.0
  0
SPLINE
  5
6EA
100
AcDbEntity
  8
RACCORDO
100
AcDbSpline
 62
250
  6
CONTINUOUS
 70
0
 71
3
 72
18
 73
14
 74
0
 42
0.0000001
 43
0.0000001
 44
0.0000000001
 40
0.0
 40
0.0
 40
0.0
 40
0.0
 40
0.2191629436
 40
0.4163407578
 40
0.5885572357
 40
0.7331939794
 40
0.8480752667
 40
0.8938075157
 40
0.9314991831
 40
0.9609901313
 40
0.9822025768
 40
0.9951224848
 40
1.0
 40
1.0
 40
1.0
 40
1.0
 10
106.4895310081
 20
48.3614486249
 30
0.0
 10
106.4896823651
 20
48.3482868458
 30
0.0
 10
106.4900062433
 20
48.3232838432
 30
0.0
 10
106.4905937493
 20
48.2879412095
 30
0.0
 10
106.4912478053
 20
48.2570742137
 30
0.0
 10
106.4919592279
 20
48.2311592669
 30
0.0
 10
106.4926204953
 20
48.2128263093
 30
0.0
 10
106.4931996712
 20
48.2009479345
 30
0.0
 10
106.4935993291
 20
48.1941404823
 30
0.0
 10
106.4940167384
 20
48.1889451189
 30
0.0
 10
106.4943878627
 20
48.1849190321
 30
0.0
 10
106.4948081809
 20
48.1830094033
 30
0.0
 10
106.4950681921
 20
48.1815300908
 30
0.0
 10
106.4953611275
 20
48.1815290074
 30
0.0
  0
SPLINE
  5
6EB
100
AcDbEntity
  8
RACCORDO
100
AcDbSpline
 62
250
  6
CONTINUOUS
 70
0
 71
3
 72
18
 73
14
 74
0
 42
0.0000001
 43
0.0000001
 44
0.0000000001
 40
0.0
 40
0.0
 40
0.0
 40
0.0
 40
0.2191629436
 40
0.4163407578
 40
0.5885572356
 40
0.7331939794
 40
0.8480752667
 40
0.8938075157
 40
0.9314991831
 40
0.9609901313
 40
0.9822025768
 40
0.9951224848
 40
1.0
 40
1.0
 40
1.0
 40
1.0
 10
176.9703304366
 20
48.3614486249
 30
0.0
 10
176.9704817937
 20
48.3482868458
 30
0.0
 10
176.9708056719
 20
48.3232838432
 30
0.0
 10
176.9713931778
 20
48.2879412095
 30
0.0
 10
176.9720472338
 20
48.2570742137
 30
0.0
 10
176.9727586565
 20
48.2311592669
 30
0.0
 10
176.9734199239
 20
48.2128263093
 30
0.0
 10
176.9739990998
 20
48.2009479345
 30
0.0
 10
176.9743987577
 20
48.1941404823
 30
0.0
 10
176.974816167
 20
48.1889451189
 30
0.0
 10
176.9751872913
 20
48.1849190321
 30
0.0
 10
176.9756076095
 20
48.1830094033
 30
0.0
 10
176.9758676207
 20
48.1815300908
 30
0.0
 10
176.9761605561
 20
48.1815290074
 30
0.0
  0
SPLINE
  5
6EC
100
AcDbEntity
  8
RACCORDO
100
AcDbSpline
 62
250
  6
CONTINUOUS
 70
0
 71
3
 72
8
 73
4
 74
0
 42
0.0000001
 43
0.0000001
 44
0.0000000001
 40
0.0
 40
0.0
 40
0.0
 40
0.0
 40
1.0
 40
1.0
 40
1.0
 40
1.0
 10
178.2486321886
 20
68.4083235056
 30
0.0
 10
178.2246287502
 20
68.3944643387
 30
0.0
 10
178.1971127538
 20
68.385543408
 30
0.0
 10
178.1695487809
 20
68.3826332602
 30
0.0
  0
SPLINE
  5
6ED
100
AcDbEntity
  8
RACCORDO
100
AcDbSpline
 62
250
  6
CONTINUOUS
 70
0
 71
3
 72
13
 73
9
 74
0
 42
0.0000001
 43
0.0000001
 44
0.0000000001
 40
0.0
 40
0.0
 40
0.0
 40
0.0
 40
0.1249999067
 40
0.2499998723
 40
0.4999999991
 40
0.7500001261
 40
0.8750000918
 40
1.0
 40
1.0
 40
1.0
 40
1.0
 10
164.672527019
 20
153.4738968288
 30
0.0
 10
162.8188057834
 20
153.4890037042
 30
0.0
 10
159.1112729648
 20
153.5079603908
 30
0.0
 10
151.6961555126
 20
153.5253326976
 30
0.0
 10
142.4272272329
 20
153.5285536317
 30
0.0
 10
133.1582989537
 20
153.525332617
 30
0.0
 10
125.7431814719
 20
153.5079605413
 30
0.0
 10
122.0356486365
 20
153.4890031596
 30
0.0
 10
120.181927375
 20
153.4738968268
 30
0.0
  0
SPLINE
  5
6EE
100
AcDbEntity
  8
RACCORDO
100
AcDbSpline
 62
250
  6
CONTINUOUS
 70
0
 71
3
 72
17
 73
13
 74
0
 42
0.0000001
 43
0.0000001
 44
0.0000000001
 40
0.0
 40
0.0
 40
0.0
 40
0.0
 40
0.0624925553
 40
0.1249881381
 40
0.2499864102
 40
0.3749915105
 40
0.4999999985
 40
0.6250084871
 40
0.7500135872
 40
0.8750118598
 40
0.9375074442
 40
1.0
 40
1.0
 40
1.0
 40
1.0
 10
167.3082835883
 20
77.9315281862
 30
0.0
 10
166.2719034702
 20
77.9095687381
 30
0.0
 10
164.1988734504
 20
77.8760182007
 30
0.0
 10
160.0523748492
 20
77.8323749129
 30
0.0
 10
154.8687513572
 20
77.8056832772
 30
0.0
 10
148.6481492486
 20
77.793357266
 30
0.0
 10
142.4273644751
 20
77.790402229
 30
0.0
 10
136.206579706
 20
77.7933570088
 30
0.0
 10
129.9859775798
 20
77.8056821835
 30
0.0
 10
124.8023540557
 20
77.8323731279
 30
0.0
 10
120.6558553906
 20
77.8760145225
 30
0.0
 10
118.5828253203
 20
77.9095638979
 30
0.0
 10
117.5464451723
 20
77.9315223242
 30
0.0
  0
SPLINE
  5
6EF
100
AcDbEntity
  8
RACCORDO
100
AcDbSpline
 62
250
  6
CONTINUOUS
 70
0
 71
3
 72
18
 73
14
 74
0
 42
0.0000001
 43
0.0000001
 44
0.0000000001
 40
0.0
 40
0.0
 40
0.0
 40
0.0
 40
0.0048733145
 40
0.0177871715
 40
0.0389970205
 40
0.0684936178
 40
0.1061904399
 40
0.1519283095
 40
0.2668436769
 40
0.4115148905
 40
0.5837357675
 40
0.7808842722
 40
1.0
 40
1.0
 40
1.0
 40
1.0
 10
176.9761605561
 20
68.5815290074
 30
0.0
 10
176.9758671612
 20
68.5815279536
 30
0.0
 10
176.9756068954
 20
68.5800457151
 30
0.0
 10
176.975185962
 20
68.5781321842
 30
0.0
 10
176.9748144925
 20
68.5740963258
 30
0.0
 10
176.9743967166
 20
68.5688878641
 30
0.0
 10
176.9739965727
 20
68.5620628115
 30
0.0
 10
176.9734165934
 20
68.5501528382
 30
0.0
 10
176.972754591
 20
68.5317707959
 30
0.0
 10
176.9720424544
 20
68.5057884232
 30
0.0
 10
176.9713880129
 20
68.4748457757
 30
0.0
 10
176.9708004313
 20
68.4394215313
 30
0.0
 10
176.9704766848
 20
68.4143623325
 30
0.0
 10
176.970325409
 20
68.4011713896
 30
0.0
  0
SPLINE
  5
6F0
100
AcDbEntity
  8
RACCORDO
100
AcDbSpline
 62
250
  6
CONTINUOUS
 70
0
 71
3
 72
18
 73
14
 74
0
 42
0.0000001
 43
0.0000001
 44
0.0000000001
 40
0.0
 40
0.0
 40
0.0
 40
0.0
 40
0.0048733145
 40
0.0177871715
 40
0.0389970205
 40
0.0684936178
 40
0.1061904399
 40
0.1519283095
 40
0.2668436769
 40
0.4115148905
 40
0.5837357675
 40
0.7808842722
 40
1.0
 40
1.0
 40
1.0
 40
1.0
 10
107.8782903393
 20
48.1815290074
 30
0.0
 10
107.8785837342
 20
48.1815300611
 30
0.0
 10
107.878844
 20
48.1830122996
 30
0.0
 10
107.8792649334
 20
48.1849258305
 30
0.0
 10
107.8796364028
 20
48.1889616889
 30
0.0
 10
107.8800541788
 20
48.1941701506
 30
0.0
 10
107.8804543227
 20
48.2009952032
 30
0.0
 10
107.881034302
 20
48.2129051765
 30
0.0
 10
107.8816963044
 20
48.2312872188
 30
0.0
 10
107.882408441
 20
48.2572695915
 30
0.0
 10
107.8830628824
 20
48.288212239
 30
0.0
 10
107.883650464
 20
48.3236364834
 30
0.0
 10
107.8839742106
 20
48.3486956822
 30
0.0
 10
107.8841254864
 20
48.3618866251
 30
0.0
  0
SPLINE
  5
6F1
100
AcDbEntity
  8
RACCORDO
100
AcDbSpline
 62
250
  6
CONTINUOUS
 70
0
 71
3
 72
13
 73
9
 74
0
 42
0.0000001
 43
0.0000001
 44
0.0000000001
 40
0.0
 40
0.0
 40
0.0
 40
0.0
 40
0.3637085087
 40
0.677950317
 40
0.8027557356
 40
0.9000656555
 40
0.9665645132
 40
1.0
 40
1.0
 40
1.0
 40
1.0
 10
178.4237953613
 20
130.0508792914
 30
0.0
 10
178.4237953265
 20
130.0871227798
 30
0.0
 10
178.4235755034
 20
130.154678284
 30
0.0
 10
178.4228209892
 20
130.2346772163
 30
0.0
 10
178.4217846363
 20
130.2881054149
 30
0.0
 10
178.4211029685
 20
130.3168771169
 30
0.0
 10
178.4201087355
 20
130.3364720985
 30
0.0
 10
178.4196665872
 20
130.3464701483
 30
0.0
 10
178.4190152345
 20
130.3497377008
 30
0.0
  0
SPLINE
  5
6F2
100
AcDbEntity
  8
RACCORDO
100
AcDbSpline
 62
250
  6
CONTINUOUS
 70
0
 71
3
 72
13
 73
9
 74
0
 42
0.0000001
 43
0.0000001
 44
0.0000000001
 40
0.0
 40
0.0
 40
0.0
 40
0.0
 40
0.0334085627
 40
0.0998620225
 40
0.1971396803
 40
0.3219187238
 40
0.6361425504
 40
1.0
 40
1.0
 40
1.0
 40
1.0
 10
178.4190152345
 20
132.4133203139
 30
0.0
 10
178.4196662188
 20
132.4165852042
 30
0.0
 10
178.420108544
 20
132.4265760003
 30
0.0
 10
178.4211021149
 20
132.4461605945
 30
0.0
 10
178.4217840438
 20
132.4749219159
 30
0.0
 10
178.4228204314
 20
132.5283424805
 30
0.0
 10
178.4235754117
 20
132.6083518351
 30
0.0
 10
178.4237953124
 20
132.6759203915
 30
0.0
 10
178.4237953613
 20
132.7121787233
 30
0.0
  0
SPLINE
  5
6F3
100
AcDbEntity
  8
RACCORDO
100
AcDbSpline
 62
250
  6
CONTINUOUS
 70
0
 71
3
 72
13
 73
9
 74
0
 42
0.0000001
 43
0.0000001
 44
0.0000000001
 40
0.0
 40
0.0
 40
0.0
 40
0.0
 40
0.3637085087
 40
0.677950317
 40
0.8027557356
 40
0.9000656555
 40
0.9665645132
 40
1.0
 40
1.0
 40
1.0
 40
1.0
 10
178.4237953613
 20
48.0508792914
 30
0.0
 10
178.4237953265
 20
48.0871227798
 30
0.0
 10
178.4235755034
 20
48.154678284
 30
0.0
 10
178.4228209892
 20
48.2346772163
 30
0.0
 10
178.4217846363
 20
48.2881054149
 30
0.0
 10
178.4211029685
 20
48.3168771169
 30
0.0
 10
178.4201087355
 20
48.3364720985
 30
0.0
 10
178.4196665872
 20
48.3464701483
 30
0.0
 10
178.4190152345
 20
48.3497377008
 30
0.0
  0
SPLINE
  5
6F4
100
AcDbEntity
  8
RACCORDO
100
AcDbSpline
 62
250
  6
CONTINUOUS
 70
0
 71
3
 72
13
 73
9
 74
0
 42
0.0000001
 43
0.0000001
 44
0.0000000001
 40
0.0
 40
0.0
 40
0.0
 40
0.0
 40
0.0334085627
 40
0.0998620225
 40
0.1971396803
 40
0.3219187238
 40
0.6361425504
 40
1.0
 40
1.0
 40
1.0
 40
1.0
 10
178.4190152345
 20
50.4133203139
 30
0.0
 10
178.4196662188
 20
50.4165852042
 30
0.0
 10
178.420108544
 20
50.4265760003
 30
0.0
 10
178.4211021149
 20
50.4461605945
 30
0.0
 10
178.4217840438
 20
50.4749219159
 30
0.0
 10
178.4228204314
 20
50.5283424805
 30
0.0
 10
178.4235754117
 20
50.6083518351
 30
0.0
 10
178.4237953124
 20
50.6759203915
 30
0.0
 10
178.4237953613
 20
50.7121787233
 30
0.0
  0
SPLINE
  5
6F5
100
AcDbEntity
  8
RACCORDO
100
AcDbSpline
 62
250
  6
CONTINUOUS
 70
0
 71
3
 72
18
 73
14
 74
0
 42
0.0000001
 43
0.0000001
 44
0.0000000001
 40
0.0
 40
0.0
 40
0.0
 40
0.0
 40
0.0048733145
 40
0.0177871715
 40
0.0389970205
 40
0.0684936178
 40
0.1061904399
 40
0.1519283095
 40
0.2668436769
 40
0.4115148905
 40
0.5837357675
 40
0.7808842722
 40
1.0
 40
1.0
 40
1.0
 40
1.0
 10
178.3590897679
 20
48.1815290074
 30
0.0
 10
178.3593831627
 20
48.1815300611
 30
0.0
 10
178.3596434286
 20
48.1830122996
 30
0.0
 10
178.360064362
 20
48.1849258305
 30
0.0
 10
178.3604358314
 20
48.1889616889
 30
0.0
 10
178.3608536074
 20
48.1941701506
 30
0.0
 10
178.3612537513
 20
48.2009952032
 30
0.0
 10
178.3618337305
 20
48.2129051765
 30
0.0
 10
178.362495733
 20
48.2312872188
 30
0.0
 10
178.3632078696
 20
48.2572695915
 30
0.0
 10
178.363862311
 20
48.288212239
 30
0.0
 10
178.3644498926
 20
48.3236364834
 30
0.0
 10
178.3647736392
 20
48.3486956822
 30
0.0
 10
178.364924915
 20
48.3618866251
 30
0.0
  0
SPLINE
  5
6F6
100
AcDbEntity
  8
RACCORDO
100
AcDbSpline
 62
250
  6
CONTINUOUS
 70
0
 71
3
 72
18
 73
14
 74
0
 42
0.0000001
 43
0.0000001
 44
0.0000000001
 40
0.0
 40
0.0
 40
0.0
 40
0.0
 40
0.0048733145
 40
0.0177871715
 40
0.0389970205
 40
0.0684936178
 40
0.1061904399
 40
0.1519283095
 40
0.2668436769
 40
0.4115148905
 40
0.5837357675
 40
0.7808842722
 40
1.0
 40
1.0
 40
1.0
 40
1.0
 10
106.4953611275
 20
68.5815290074
 30
0.0
 10
106.4950677326
 20
68.5815279536
 30
0.0
 10
106.4948074668
 20
68.5800457151
 30
0.0
 10
106.4943865334
 20
68.5781321842
 30
0.0
 10
106.494015064
 20
68.5740963258
 30
0.0
 10
106.493597288
 20
68.5688878641
 30
0.0
 10
106.4931971441
 20
68.5620628115
 30
0.0
 10
106.4926171648
 20
68.5501528382
 30
0.0
 10
106.4919551624
 20
68.5317707959
 30
0.0
 10
106.4912430258
 20
68.5057884232
 30
0.0
 10
106.4905885844
 20
68.4748457757
 30
0.0
 10
106.4900010028
 20
68.4394215313
 30
0.0
 10
106.4896772562
 20
68.4143623325
 30
0.0
 10
106.4895259804
 20
68.4011713896
 30
0.0
  0
SPLINE
  5
6F7
100
AcDbEntity
  8
RACCORDO
100
AcDbSpline
 62
250
  6
CONTINUOUS
 70
0
 71
3
 72
13
 73
9
 74
0
 42
0.0000001
 43
0.0000001
 44
0.0000000001
 40
0.0
 40
0.0
 40
0.0
 40
0.0
 40
0.3637085087
 40
0.677950317
 40
0.8027557356
 40
0.9000656555
 40
0.9665645132
 40
1.0
 40
1.0
 40
1.0
 40
1.0
 10
106.4306555341
 20
152.7121787233
 30
0.0
 10
106.4306555689
 20
152.6759352349
 30
0.0
 10
106.430875392
 20
152.6083797307
 30
0.0
 10
106.4316299062
 20
152.5283807984
 30
0.0
 10
106.4326662591
 20
152.4749525998
 30
0.0
 10
106.4333479269
 20
152.4461808978
 30
0.0
 10
106.4343421599
 20
152.4265859162
 30
0.0
 10
106.4347843082
 20
152.4165878664
 30
0.0
 10
106.4354356608
 20
152.4133203139
 30
0.0
  0
SPLINE
  5
6F8
100
AcDbEntity
  8
RACCORDO
100
AcDbSpline
 62
250
  6
CONTINUOUS
 70
0
 71
3
 72
13
 73
9
 74
0
 42
0.0000001
 43
0.0000001
 44
0.0000000001
 40
0.0
 40
0.0
 40
0.0
 40
0.0
 40
0.0334085627
 40
0.0998620225
 40
0.1971396803
 40
0.3219187238
 40
0.6361425504
 40
1.0
 40
1.0
 40
1.0
 40
1.0
 10
106.4354356608
 20
150.3497377008
 30
0.0
 10
106.4347846766
 20
150.3464728105
 30
0.0
 10
106.4343423514
 20
150.3364820144
 30
0.0
 10
106.4333487805
 20
150.3168974202
 30
0.0
 10
106.4326668515
 20
150.2881360988
 30
0.0
 10
106.431630464
 20
150.2347155342
 30
0.0
 10
106.4308754837
 20
150.1547061796
 30
0.0
 10
106.430655583
 20
150.0871376232
 30
0.0
 10
106.4306555341
 20
150.0508792914
 30
0.0
  0
SPLINE
  5
6F9
100
AcDbEntity
  8
RACCORDO
100
AcDbSpline
 62
250
  6
CONTINUOUS
 70
0
 71
3
 72
13
 73
9
 74
0
 42
0.0000001
 43
0.0000001
 44
0.0000000001
 40
0.0
 40
0.0
 40
0.0
 40
0.0
 40
0.3637085087
 40
0.677950317
 40
0.8027557356
 40
0.9000656555
 40
0.9665645132
 40
1.0
 40
1.0
 40
1.0
 40
1.0
 10
106.4306555341
 20
52.7121787233
 30
0.0
 10
106.4306555689
 20
52.6759352349
 30
0.0
 10
106.430875392
 20
52.6083797307
 30
0.0
 10
106.4316299062
 20
52.5283807984
 30
0.0
 10
106.4326662591
 20
52.4749525998
 30
0.0
 10
106.4333479269
 20
52.4461808978
 30
0.0
 10
106.4343421599
 20
52.4265859162
 30
0.0
 10
106.4347843082
 20
52.4165878664
 30
0.0
 10
106.4354356608
 20
52.4133203139
 30
0.0
  0
SPLINE
  5
6FA
100
AcDbEntity
  8
RACCORDO
100
AcDbSpline
 62
250
  6
CONTINUOUS
 70
0
 71
3
 72
13
 73
9
 74
0
 42
0.0000001
 43
0.0000001
 44
0.0000000001
 40
0.0
 40
0.0
 40
0.0
 40
0.0
 40
0.0334085627
 40
0.0998620225
 40
0.1971396803
 40
0.3219187238
 40
0.6361425504
 40
1.0
 40
1.0
 40
1.0
 40
1.0
 10
106.4354356608
 20
50.3497377008
 30
0.0
 10
106.4347846766
 20
50.3464728105
 30
0.0
 10
106.4343423514
 20
50.3364820144
 30
0.0
 10
106.4333487805
 20
50.3168974202
 30
0.0
 10
106.4326668515
 20
50.2881360988
 30
0.0
 10
106.431630464
 20
50.2347155342
 30
0.0
 10
106.4308754837
 20
50.1547061796
 30
0.0
 10
106.430655583
 20
50.0871376232
 30
0.0
 10
106.4306555341
 20
50.0508792914
 30
0.0
  0
SPLINE
  5
6FB
100
AcDbEntity
  8
RACCORDO
100
AcDbSpline
 62
250
  6
CONTINUOUS
 70
0
 71
3
 72
13
 73
9
 74
0
 42
0.0000001
 43
0.0000001
 44
0.0000000001
 40
0.0
 40
0.0
 40
0.0
 40
0.0
 40
0.033417461
 40
0.0998888719
 40
0.1971737719
 40
0.3219752246
 40
0.636220126
 40
1.0
 40
1.0
 40
1.0
 40
1.0
 10
104.9434523254
 20
150.3497377008
 30
0.0
 10
104.9441031546
 20
150.3464718756
 30
0.0
 10
104.9445455
 20
150.3364784518
 30
0.0
 10
104.9455395995
 20
150.3168904429
 30
0.0
 10
104.9462212803
 20
150.2881243878
 30
0.0
 10
104.9472578741
 20
150.2346987667
 30
0.0
 10
104.94801251
 20
150.1546928147
 30
0.0
 10
104.9482323863
 20
150.087129891
 30
0.0
 10
104.9482324522
 20
150.0508792914
 30
0.0
  0
SPLINE
  5
6FC
100
AcDbEntity
  8
RACCORDO
100
AcDbSpline
 62
250
  6
CONTINUOUS
 70
0
 71
3
 72
13
 73
9
 74
0
 42
0.0000001
 43
0.0000001
 44
0.0000000001
 40
0.0
 40
0.0
 40
0.0
 40
0.0
 40
0.3637524121
 40
0.6779957543
 40
0.8028045129
 40
0.9000983612
 40
0.9665785427
 40
1.0
 40
1.0
 40
1.0
 40
1.0
 10
104.9482324522
 20
52.7121787233
 30
0.0
 10
104.9482323895
 20
52.6759308605
 30
0.0
 10
104.9480125363
 20
52.6083708288
 30
0.0
 10
104.9472579666
 20
52.5283670417
 30
0.0
 10
104.9462214273
 20
52.4749399551
 30
0.0
 10
104.9455397568
 20
52.4461714049
 30
0.0
 10
104.9445455326
 20
52.426581237
 30
0.0
 10
104.9441031969
 20
52.4165865367
 30
0.0
 10
104.9434523254
 20
52.4133203139
 30
0.0
  0
SPLINE
  5
6FD
100
AcDbEntity
  8
RACCORDO
100
AcDbSpline
 62
250
  6
CONTINUOUS
 70
0
 71
3
 72
13
 73
9
 74
0
 42
0.0000001
 43
0.0000001
 44
0.0000000001
 40
0.0
 40
0.0
 40
0.0
 40
0.0
 40
0.0334085627
 40
0.0998620225
 40
0.1971396803
 40
0.3219187238
 40
0.6361425504
 40
1.0
 40
1.0
 40
1.0
 40
1.0
 10
104.9434523254
 20
152.4133203139
 30
0.0
 10
104.9441033097
 20
152.4165852042
 30
0.0
 10
104.9445456349
 20
152.4265760003
 30
0.0
 10
104.9455392058
 20
152.4461605945
 30
0.0
 10
104.9462211347
 20
152.4749219159
 30
0.0
 10
104.9472575223
 20
152.5283424805
 30
0.0
 10
104.9480125026
 20
152.6083518351
 30
0.0
 10
104.9482324033
 20
152.6759203915
 30
0.0
 10
104.9482324522
 20
152.7121787233
 30
0.0
  0
SPLINE
  5
6FE
100
AcDbEntity
  8
RACCORDO
100
AcDbSpline
 62
250
  6
CONTINUOUS
 70
0
 71
3
 72
13
 73
9
 74
0
 42
0.0000001
 43
0.0000001
 44
0.0000000001
 40
0.0
 40
0.0
 40
0.0
 40
0.0
 40
0.3637085087
 40
0.677950317
 40
0.8027557356
 40
0.9000656555
 40
0.9665645132
 40
1.0
 40
1.0
 40
1.0
 40
1.0
 10
104.9482324522
 20
50.0508792914
 30
0.0
 10
104.9482324174
 20
50.0871227798
 30
0.0
 10
104.9480125943
 20
50.154678284
 30
0.0
 10
104.9472580801
 20
50.2346772163
 30
0.0
 10
104.9462217272
 20
50.2881054149
 30
0.0
 10
104.9455400594
 20
50.3168771169
 30
0.0
 10
104.9445458264
 20
50.3364720985
 30
0.0
 10
104.9441036781
 20
50.3464701483
 30
0.0
 10
104.9434523254
 20
50.3497377008
 30
0.0
  0
SPLINE
  5
6FF
100
AcDbEntity
  8
RACCORDO
100
AcDbSpline
 62
250
  6
CONTINUOUS
 70
0
 71
3
 72
13
 73
9
 74
0
 42
0.0000001
 43
0.0000001
 44
0.0000000001
 40
0.0
 40
0.0
 40
0.0
 40
0.0
 40
0.0334085627
 40
0.0998620225
 40
0.1971396803
 40
0.3219187238
 40
0.6361425504
 40
1.0
 40
1.0
 40
1.0
 40
1.0
 10
179.9109985699
 20
48.3497377008
 30
0.0
 10
179.9103475857
 20
48.3464728105
 30
0.0
 10
179.9099052605
 20
48.3364820144
 30
0.0
 10
179.9089116896
 20
48.3168974202
 30
0.0
 10
179.9082297606
 20
48.2881360988
 30
0.0
 10
179.9071933731
 20
48.2347155342
 30
0.0
 10
179.9064383928
 20
48.1547061796
 30
0.0
 10
179.9062184921
 20
48.0871376232
 30
0.0
 10
179.9062184432
 20
48.0508792914
 30
0.0
  0
SPLINE
  5
700
100
AcDbEntity
  8
RACCORDO
100
AcDbSpline
 62
250
  6
CONTINUOUS
 70
0
 71
3
 72
13
 73
9
 74
0
 42
0.0000001
 43
0.0000001
 44
0.0000000001
 40
0.0
 40
0.0
 40
0.0
 40
0.0
 40
0.033417461
 40
0.0998888719
 40
0.1971737719
 40
0.3219752246
 40
0.636220126
 40
1.0
 40
1.0
 40
1.0
 40
1.0
 10
179.9109985699
 20
50.4133203139
 30
0.0
 10
179.9103477408
 20
50.4165861391
 30
0.0
 10
179.9099053954
 20
50.4265795629
 30
0.0
 10
179.9089112959
 20
50.4461675718
 30
0.0
 10
179.9082296151
 20
50.4749336269
 30
0.0
 10
179.9071930213
 20
50.528359248
 30
0.0
 10
179.9064383853
 20
50.6083652
 30
0.0
 10
179.9062185091
 20
50.6759281237
 30
0.0
 10
179.9062184432
 20
50.7121787233
 30
0.0
  0
SPLINE
  5
701
100
AcDbEntity
  8
RACCORDO
100
AcDbSpline
 62
250
  6
CONTINUOUS
 70
0
 71
3
 72
13
 73
9
 74
0
 42
0.0000001
 43
0.0000001
 44
0.0000000001
 40
0.0
 40
0.0
 40
0.0
 40
0.0
 40
0.3637524121
 40
0.6779957543
 40
0.8028045129
 40
0.9000983612
 40
0.9665785427
 40
1.0
 40
1.0
 40
1.0
 40
1.0
 10
179.9062184432
 20
130.0508792914
 30
0.0
 10
179.9062185059
 20
130.0871271542
 30
0.0
 10
179.9064383591
 20
130.1546871859
 30
0.0
 10
179.9071929288
 20
130.234690973
 30
0.0
 10
179.9082294681
 20
130.2881180596
 30
0.0
 10
179.9089111386
 20
130.3168866098
 30
0.0
 10
179.9099053628
 20
130.3364767777
 30
0.0
 10
179.9103476985
 20
130.346471478
 30
0.0
 10
179.9109985699
 20
130.3497377008
 30
0.0
  0
SPLINE
  5
702
100
AcDbEntity
  8
RACCORDO
100
AcDbSpline
 62
250
  6
CONTINUOUS
 70
0
 71
3
 72
13
 73
9
 74
0
 42
0.0000001
 43
0.0000001
 44
0.0000000001
 40
0.0
 40
0.0
 40
0.0
 40
0.0
 40
0.033417461
 40
0.0998888719
 40
0.1971737719
 40
0.3219752246
 40
0.636220126
 40
1.0
 40
1.0
 40
1.0
 40
1.0
 10
179.9109985699
 20
132.4133203139
 30
0.0
 10
179.9103477408
 20
132.4165861391
 30
0.0
 10
179.9099053954
 20
132.4265795629
 30
0.0
 10
179.9089112959
 20
132.4461675718
 30
0.0
 10
179.9082296151
 20
132.4749336269
 30
0.0
 10
179.9071930213
 20
132.528359248
 30
0.0
 10
179.9064383853
 20
132.6083652
 30
0.0
 10
179.9062185091
 20
132.6759281237
 30
0.0
 10
179.9062184432
 20
132.7121787233
 30
0.0
  0
ELLIPSE
  5
703
100
AcDbEntity
  8
RACCORDO
100
AcDbEllipse
 62
7
  6
CONTINUOUS
 10
166.1771815748
 20
60.6314851344
 30
0.0
 11
0.1414833951
 21
0.1414833951
 31
0.0
 40
0.9995615112
 41
-0.7851788709
 42
0.7851788709
  0
ELLIPSE
  5
704
100
AcDbEntity
  8
RACCORDO
100
AcDbEllipse
 62
7
  6
CONTINUOUS
 10
165.2772693206
 20
60.6314851344
 30
0.0
 11
-0.1414833951
 21
0.1414833951
 31
0.0
 40
0.9995615112
 41
-0.7851788709
 42
0.7851788709
  0
ELLIPSE
  5
705
100
AcDbEntity
  8
RACCORDO
100
AcDbEllipse
 62
7
  6
CONTINUOUS
 10
163.4772693206
 20
58.8314851344
 30
0.0
 11
-0.1414833951
 21
0.1414833951
 31
0.0
 40
0.9995615112
 41
-0.7851788709
 42
0.7851788709
  0
ELLIPSE
  5
706
100
AcDbEntity
  8
RACCORDO
100
AcDbEllipse
 62
7
  6
CONTINUOUS
 10
163.4772693206
 20
57.9315728803
 30
0.0
 11
0.1414833951
 21
0.1414833951
 31
0.0
 40
0.9995615112
 41
-3.9267715245
 42
-2.3564137827
  0
ELLIPSE
  5
707
100
AcDbEntity
  8
RACCORDO
100
AcDbEllipse
 62
7
  6
CONTINUOUS
 10
166.1771815748
 20
56.1315728803
 30
0.0
 11
-0.1414833951
 21
0.1414833951
 31
0.0
 40
0.9995615112
 41
-3.9267715245
 42
-2.3564137827
  0
ELLIPSE
  5
708
100
AcDbEntity
  8
RACCORDO
100
AcDbEllipse
 62
7
  6
CONTINUOUS
 10
165.2772693206
 20
56.1315728803
 30
0.0
 11
0.1414833951
 21
0.1414833951
 31
0.0
 40
0.9995615112
 41
-3.9267715245
 42
-2.3564137827
  0
ELLIPSE
  5
709
100
AcDbEntity
  8
RACCORDO
100
AcDbEllipse
 62
7
  6
CONTINUOUS
 10
142.8771815748
 20
60.6314851344
 30
0.0
 11
0.1414833951
 21
0.1414833951
 31
0.0
 40
0.9995615112
 41
-0.7851788709
 42
0.7851788709
  0
ELLIPSE
  5
70A
100
AcDbEntity
  8
RACCORDO
100
AcDbEllipse
 62
7
  6
CONTINUOUS
 10
141.9772693206
 20
60.6314851344
 30
0.0
 11
-0.1414833951
 21
0.1414833951
 31
0.0
 40
0.9995615112
 41
-0.7851788709
 42
0.7851788709
  0
ELLIPSE
  5
70B
100
AcDbEntity
  8
RACCORDO
100
AcDbEllipse
 62
7
  6
CONTINUOUS
 10
140.1772693206
 20
58.8314851344
 30
0.0
 11
-0.1414833951
 21
0.1414833951
 31
0.0
 40
0.9995615112
 41
-0.7851788709
 42
0.7851788709
  0
ELLIPSE
  5
70C
100
AcDbEntity
  8
RACCORDO
100
AcDbEllipse
 62
7
  6
CONTINUOUS
 10
140.1772693206
 20
57.9315728803
 30
0.0
 11
0.1414833951
 21
0.1414833951
 31
0.0
 40
0.9995615112
 41
-3.9267715245
 42
-2.3564137827
  0
ELLIPSE
  5
70D
100
AcDbEntity
  8
RACCORDO
100
AcDbEllipse
 62
7
  6
CONTINUOUS
 10
141.9772693206
 20
56.1315728803
 30
0.0
 11
0.1414833951
 21
0.1414833951
 31
0.0
 40
0.9995615112
 41
-3.9267715245
 42
-2.3564137827
  0
ELLIPSE
  5
70E
100
AcDbEntity
  8
RACCORDO
100
AcDbEllipse
 62
7
  6
CONTINUOUS
 10
142.8771815748
 20
56.1315728803
 30
0.0
 11
-0.1414833951
 21
0.1414833951
 31
0.0
 40
0.9995615112
 41
-3.9267715245
 42
-2.3564137827
  0
ELLIPSE
  5
70F
100
AcDbEntity
  8
RACCORDO
100
AcDbEllipse
 62
7
  6
CONTINUOUS
 10
119.5771815748
 20
60.6314851344
 30
0.0
 11
0.1414833951
 21
0.1414833951
 31
0.0
 40
0.9995615112
 41
-0.7851788709
 42
0.7851788709
  0
ELLIPSE
  5
710
100
AcDbEntity
  8
RACCORDO
100
AcDbEllipse
 62
7
  6
CONTINUOUS
 10
118.6772693206
 20
60.6314851344
 30
0.0
 11
-0.1414833951
 21
0.1414833951
 31
0.0
 40
0.9995615112
 41
-0.7851788709
 42
0.7851788709
  0
ELLIPSE
  5
711
100
AcDbEntity
  8
RACCORDO
100
AcDbEllipse
 62
7
  6
CONTINUOUS
 10
116.8772693206
 20
57.9315728803
 30
0.0
 11
0.1414833951
 21
0.1414833951
 31
0.0
 40
0.9995615112
 41
-3.9267715245
 42
-2.3564137827
  0
ELLIPSE
  5
712
100
AcDbEntity
  8
RACCORDO
100
AcDbEllipse
 62
7
  6
CONTINUOUS
 10
116.8772693206
 20
58.8314851344
 30
0.0
 11
-0.1414833951
 21
0.1414833951
 31
0.0
 40
0.9995615112
 41
-0.7851788709
 42
0.7851788709
  0
ELLIPSE
  5
713
100
AcDbEntity
  8
RACCORDO
100
AcDbEllipse
 62
7
  6
CONTINUOUS
 10
119.5771815748
 20
56.1315728803
 30
0.0
 11
-0.1414833951
 21
0.1414833951
 31
0.0
 40
0.9995615112
 41
-3.9267715245
 42
-2.3564137827
  0
ELLIPSE
  5
714
100
AcDbEntity
  8
RACCORDO
100
AcDbEllipse
 62
7
  6
CONTINUOUS
 10
118.6772693206
 20
56.1315728803
 30
0.0
 11
0.1414833951
 21
0.1414833951
 31
0.0
 40
0.9995615112
 41
-3.9267715245
 42
-2.3564137827
  0
ELLIPSE
  5
715
100
AcDbEntity
  8
RACCORDO
100
AcDbEllipse
 62
7
  6
CONTINUOUS
 10
166.1538837094
 20
84.1548707457
 30
0.0
 11
-0.1414644378
 21
0.1414644378
 31
0.0
 40
0.9996954599
 41
2.3563467834
 42
3.9268385237
  0
ELLIPSE
  5
716
100
AcDbEntity
  8
RACCORDO
100
AcDbEllipse
 62
7
  6
CONTINUOUS
 10
118.700567186
 20
84.1548707457
 30
0.0
 11
0.1414644378
 21
0.1414644378
 31
0.0
 40
0.9996954599
 41
2.3563467834
 42
3.9268385237
  0
ELLIPSE
  5
717
100
AcDbEntity
  8
RACCORDO
100
AcDbEllipse
 62
7
  6
CONTINUOUS
 10
118.700567186
 20
147.358187269
 30
0.0
 11
0.1414644378
 21
-0.1414644378
 31
0.0
 40
0.9996954599
 41
2.3563467834
 42
3.9268385237
  0
ELLIPSE
  5
718
100
AcDbEntity
  8
RACCORDO
100
AcDbEllipse
 62
7
  6
CONTINUOUS
 10
166.1538837094
 20
147.358187269
 30
0.0
 11
-0.1414644378
 21
-0.1414644378
 31
0.0
 40
0.9996954599
 41
2.3563467834
 42
3.9268385237
  0
ELLIPSE
  5
719
100
AcDbEntity
  8
RACCORDO
100
AcDbEllipse
 62
7
  6
CONTINUOUS
 10
179.7271949821
 20
132.3322929749
 30
0.0
 11
-0.039286661
 21
0.1969134736
 31
0.0
 40
0.9960441251
 41
-3.3377600849
 42
-1.7684848362
  0
ELLIPSE
  5
71A
100
AcDbEntity
  8
RACCORDO
100
AcDbEllipse
 62
7
  6
CONTINUOUS
 10
179.7062489042
 20
116.255403925
 30
0.0
 11
0.2
 21
0.0
 31
0.0
 40
0.1051042353
 41
-1.5707963268
 42
-0.0174532925
  0
ELLIPSE
  5
71B
100
AcDbEntity
  8
RACCORDO
100
AcDbEllipse
 62
7
  6
CONTINUOUS
 10
179.7271949821
 20
130.4307650398
 30
0.0
 11
0.039286661
 21
0.1969134736
 31
0.0
 40
0.9960441251
 41
-1.3731078174
 42
0.1961674313
  0
ELLIPSE
  5
71C
100
AcDbEntity
  8
RACCORDO
100
AcDbEllipse
 62
7
  6
CONTINUOUS
 10
179.7271949821
 20
50.3322929749
 30
0.0
 11
-0.039286661
 21
0.1969134736
 31
0.0
 40
0.9960441251
 41
-3.3377600849
 42
-1.7684848362
  0
ELLIPSE
  5
71D
100
AcDbEntity
  8
RACCORDO
100
AcDbEllipse
 62
7
  6
CONTINUOUS
 10
179.7271949821
 20
48.4307650398
 30
0.0
 11
0.039286661
 21
0.1969134736
 31
0.0
 40
0.9960441251
 41
-1.3731078174
 42
0.1961674313
  0
ELLIPSE
  5
71E
100
AcDbEntity
  8
RACCORDO
100
AcDbEllipse
 62
7
  6
CONTINUOUS
 10
163.8274999169
 20
44.3385414989
 30
0.0
 11
0.1900413429
 21
0.0632956409
 31
0.0
 40
0.9984778551
 41
2.8205423031
 42
4.3904252414
  0
ELLIPSE
  5
71F
100
AcDbEntity
  8
RACCORDO
100
AcDbEllipse
 62
7
  6
CONTINUOUS
 10
105.1482019912
 20
86.5076540897
 30
0.0
 11
0.2
 21
0.0
 31
0.0
 40
0.1051042353
 41
1.5707963268
 42
3.1241393611
  0
ELLIPSE
  5
720
100
AcDbEntity
  8
RACCORDO
100
AcDbEllipse
 62
7
  6
CONTINUOUS
 10
105.1272559133
 20
52.3322929749
 30
0.0
 11
0.039286661
 21
0.1969134736
 31
0.0
 40
0.9960441251
 41
-4.514700471
 42
-2.9454252223
  0
ELLIPSE
  5
721
100
AcDbEntity
  8
RACCORDO
100
AcDbEllipse
 62
7
  6
CONTINUOUS
 10
105.1482019912
 20
105.5076540897
 30
0.0
 11
0.2
 21
0.0
 31
0.0
 40
0.1051042353
 41
1.5707963268
 42
3.1241393611
  0
ELLIPSE
  5
722
100
AcDbEntity
  8
RACCORDO
100
AcDbEllipse
 62
7
  6
CONTINUOUS
 10
105.1272559133
 20
150.4307650398
 30
0.0
 11
-0.039286661
 21
0.1969134736
 31
0.0
 40
0.9960441251
 41
-0.1961674313
 42
1.3731078174
  0
ELLIPSE
  5
723
100
AcDbEntity
  8
RACCORDO
100
AcDbEllipse
 62
7
  6
CONTINUOUS
 10
105.1272559133
 20
152.3322929749
 30
0.0
 11
0.039286661
 21
0.1969134736
 31
0.0
 40
0.9960441251
 41
-4.514700471
 42
-2.9454252223
  0
ELLIPSE
  5
724
100
AcDbEntity
  8
RACCORDO
100
AcDbEllipse
 62
7
  6
CONTINUOUS
 10
105.1272559133
 20
50.4307650398
 30
0.0
 11
-0.039286661
 21
0.1969134736
 31
0.0
 40
0.9960441251
 41
-0.1961674313
 42
1.3731078174
  0
ELLIPSE
  5
725
100
AcDbEntity
  8
RACCORDO
100
AcDbEllipse
 62
7
  6
CONTINUOUS
 10
121.0269509785
 20
44.3385414989
 30
0.0
 11
0.1900413429
 21
-0.0632956409
 31
0.0
 40
0.9984778551
 41
-1.2488325878
 42
0.3210503505
  0
ELLIPSE
  5
726
100
AcDbEntity
  8
RACCORDO
100
AcDbEllipse
 62
7
  6
CONTINUOUS
 10
162.2269509785
 20
44.3385414989
 30
0.0
 11
0.1900413429
 21
-0.0632956409
 31
0.0
 40
0.9984778551
 41
-1.2488325878
 42
0.3210503505
  0
ELLIPSE
  5
727
100
AcDbEntity
  8
RACCORDO
100
AcDbEllipse
 62
7
  6
CONTINUOUS
 10
122.6274999169
 20
44.3385414989
 30
0.0
 11
0.1900413429
 21
0.0632956409
 31
0.0
 40
0.9984778551
 41
2.8205423031
 42
4.3904252414
  0
ELLIPSE
  5
728
100
AcDbEntity
  8
RACCORDO
100
AcDbEllipse
 62
7
  6
CONTINUOUS
 10
122.6274999169
 20
45.4489536067
 30
0.0
 11
0.1900413429
 21
-0.0632956409
 31
0.0
 40
0.9984778551
 41
1.8927600658
 42
3.4626430041
  0
ELLIPSE
  5
729
100
AcDbEntity
  8
RACCORDO
100
AcDbEllipse
 62
7
  6
CONTINUOUS
 10
162.2269509785
 20
45.4489536067
 30
0.0
 11
0.1900413429
 21
0.0632956409
 31
0.0
 40
0.9984778551
 41
-0.3210503505
 42
1.2488325878
  0
ELLIPSE
  5
72A
100
AcDbEntity
  8
RACCORDO
100
AcDbEllipse
 62
7
  6
CONTINUOUS
 10
178.6028188224
 20
48.4307650398
 30
0.0
 11
-0.039286661
 21
0.1969134736
 31
0.0
 40
0.9960441251
 41
-0.1961674313
 42
1.3731078174
  0
ELLIPSE
  5
72B
100
AcDbEntity
  8
RACCORDO
100
AcDbEllipse
 62
7
  6
CONTINUOUS
 10
163.8274999169
 20
45.4489536067
 30
0.0
 11
0.1900413429
 21
-0.0632956409
 31
0.0
 40
0.9984778551
 41
1.8927600658
 42
3.4626430041
  0
ELLIPSE
  5
72C
100
AcDbEntity
  8
RACCORDO
100
AcDbEllipse
 62
7
  6
CONTINUOUS
 10
178.6028188224
 20
50.3322929749
 30
0.0
 11
0.039286661
 21
0.1969134736
 31
0.0
 40
0.9960441251
 41
-4.514700471
 42
-2.9454252223
  0
ELLIPSE
  5
72D
100
AcDbEntity
  8
RACCORDO
100
AcDbEllipse
 62
7
  6
CONTINUOUS
 10
178.6028188224
 20
130.4307650398
 30
0.0
 11
-0.039286661
 21
0.1969134736
 31
0.0
 40
0.9960441251
 41
-0.1961674313
 42
1.3731078174
  0
ELLIPSE
  5
72E
100
AcDbEntity
  8
RACCORDO
100
AcDbEllipse
 62
7
  6
CONTINUOUS
 10
106.251632073
 20
50.4307650398
 30
0.0
 11
0.039286661
 21
0.1969134736
 31
0.0
 40
0.9960441251
 41
-1.3731078174
 42
0.1961674313
  0
ELLIPSE
  5
72F
100
AcDbEntity
  8
RACCORDO
100
AcDbEllipse
 62
7
  6
CONTINUOUS
 10
121.0269509785
 20
45.4489536067
 30
0.0
 11
0.1900413429
 21
0.0632956409
 31
0.0
 40
0.9984778551
 41
-0.3210503505
 42
1.2488325878
  0
ELLIPSE
  5
730
100
AcDbEntity
  8
RACCORDO
100
AcDbEllipse
 62
7
  6
CONTINUOUS
 10
106.251632073
 20
150.4307650398
 30
0.0
 11
0.039286661
 21
0.1969134736
 31
0.0
 40
0.9960441251
 41
-1.3731078174
 42
0.1961674313
  0
ELLIPSE
  5
731
100
AcDbEntity
  8
RACCORDO
100
AcDbEllipse
 62
7
  6
CONTINUOUS
 10
106.251632073
 20
52.3322929749
 30
0.0
 11
-0.039286661
 21
0.1969134736
 31
0.0
 40
0.9960441251
 41
-3.3377600849
 42
-1.7684848362
  0
ELLIPSE
  5
732
100
AcDbEntity
  8
RACCORDO
100
AcDbEllipse
 62
7
  6
CONTINUOUS
 10
178.6028188224
 20
132.3322929749
 30
0.0
 11
0.039286661
 21
0.1969134736
 31
0.0
 40
0.9960441251
 41
-4.514700471
 42
-2.9454252223
  0
ELLIPSE
  5
733
100
AcDbEntity
  8
RACCORDO
100
AcDbEllipse
 62
7
  6
CONTINUOUS
 10
106.251632073
 20
152.3322929749
 30
0.0
 11
-0.039286661
 21
0.1969134736
 31
0.0
 40
0.9960441251
 41
-3.3377600849
 42
-1.7684848362
  0
ELLIPSE
  5
734
100
AcDbEntity
  8
RACCORDO
100
AcDbEllipse
 62
7
  6
CONTINUOUS
 10
104.3478131446
 20
105.633779172
 30
0.0
 11
0.2
 21
0.0
 31
0.0
 40
0.1051042353
 41
0.1745329252
 42
1.5707963268
  0
ELLIPSE
  5
735
100
AcDbEntity
  8
RACCORDO
100
AcDbEllipse
 62
7
  6
CONTINUOUS
 10
103.8272254477
 20
105.633779172
 30
0.0
 11
0.2
 21
-0.0
 31
0.0
 40
0.1051042353
 41
1.5707963268
 42
3.1415926536
  0
ELLIPSE
  5
736
100
AcDbEntity
  8
RACCORDO
100
AcDbEllipse
 62
7
  6
CONTINUOUS
 10
103.8272254477
 20
97.1292788427
 30
0.0
 11
0.2
 21
-0.0
 31
0.0
 40
0.1051042353
 41
3.1415926536
 42
4.7123889804
  0
ELLIPSE
  5
737
100
AcDbEntity
  8
RACCORDO
100
AcDbEllipse
 62
7
  6
CONTINUOUS
 10
104.3478131446
 20
97.1292788427
 30
0.0
 11
0.2
 21
0.0
 31
0.0
 40
0.1051042353
 41
-1.5707963268
 42
-0.1745329252
  0
ELLIPSE
  5
738
100
AcDbEntity
  8
RACCORDO
100
AcDbEllipse
 62
7
  6
CONTINUOUS
 10
181.0272254477
 20
86.633779172
 30
0.0
 11
0.2
 21
-0.0
 31
0.0
 40
0.1051042353
 41
-0.0
 42
1.5707963268
  0
ELLIPSE
  5
739
100
AcDbEntity
  8
RACCORDO
100
AcDbEllipse
 62
7
  6
CONTINUOUS
 10
180.5066377508
 20
86.633779172
 30
0.0
 11
0.2
 21
-0.0
 31
0.0
 40
0.1051042353
 41
1.5707963268
 42
2.9670597284
  0
ELLIPSE
  5
73A
100
AcDbEntity
  8
RACCORDO
100
AcDbEllipse
 62
7
  6
CONTINUOUS
 10
104.3478131446
 20
86.633779172
 30
0.0
 11
0.2
 21
0.0
 31
0.0
 40
0.1051042353
 41
0.1745329252
 42
1.5707963268
  0
ELLIPSE
  5
73B
100
AcDbEntity
  8
RACCORDO
100
AcDbEllipse
 62
7
  6
CONTINUOUS
 10
103.8272254477
 20
86.633779172
 30
0.0
 11
0.2
 21
-0.0
 31
0.0
 40
0.1051042353
 41
1.5707963268
 42
3.1415926536
  0
ELLIPSE
  5
73C
100
AcDbEntity
  8
RACCORDO
100
AcDbEllipse
 62
7
  6
CONTINUOUS
 10
180.5066377508
 20
116.1292788427
 30
0.0
 11
0.2
 21
0.0
 31
0.0
 40
0.1051042353
 41
-2.9670597284
 42
-1.5707963268
  0
ELLIPSE
  5
73D
100
AcDbEntity
  8
RACCORDO
100
AcDbEllipse
 62
7
  6
CONTINUOUS
 10
181.0272254477
 20
116.1292788427
 30
0.0
 11
0.2
 21
0.0
 31
0.0
 40
0.1051042353
 41
-1.5707963268
 42
0.0
  0
ELLIPSE
  5
73E
100
AcDbEntity
  8
RACCORDO
100
AcDbEllipse
 62
7
  6
CONTINUOUS
 10
103.8272254477
 20
116.1292788427
 30
0.0
 11
0.2
 21
-0.0
 31
0.0
 40
0.1051042353
 41
3.1415926536
 42
4.7123889804
  0
ELLIPSE
  5
73F
100
AcDbEntity
  8
RACCORDO
100
AcDbEllipse
 62
7
  6
CONTINUOUS
 10
104.3478131446
 20
116.1292788427
 30
0.0
 11
0.2
 21
0.0
 31
0.0
 40
0.1051042353
 41
-1.5707963268
 42
-0.1745329252
  0
ELLIPSE
  5
740
100
AcDbEntity
  8
DRAFT
100
AcDbEllipse
 62
7
  6
CONTINUOUS
 10
181.9272254477
 20
145.4771596063
 30
0.0
 11
3.0
 21
0.0
 31
0.0
 40
0.0874886635
 41
3.1415926536
 42
3.9826613242
  0
ELLIPSE
  5
741
100
AcDbEntity
  8
RACCORDO
100
AcDbEllipse
 62
7
  6
CONTINUOUS
 10
179.7062489042
 20
145.5471505371
 30
0.0
 11
0.2
 21
0.0
 31
0.0
 40
0.0874886635
 41
0.0174532925
 42
1.5707963268
  0
ELLIPSE
  5
742
100
AcDbEntity
  8
DRAFT
100
AcDbEllipse
 62
7
  6
CONTINUOUS
 10
181.9272254477
 20
140.8858984084
 30
0.0
 11
3.0
 21
0.0
 31
0.0
 40
0.0874886635
 41
8.5837092902
 42
9.4247779608
  0
ELLIPSE
  5
743
100
AcDbEntity
  8
RACCORDO
100
AcDbEllipse
 62
7
  6
CONTINUOUS
 10
179.7062489042
 20
140.8159074776
 30
0.0
 11
0.2
 21
-0.0
 31
0.0
 40
0.0874886635
 41
-1.5707963268
 42
-0.0174532925
  0
ELLIPSE
  5
744
100
AcDbEntity
  8
DRAFT
100
AcDbEllipse
 62
7
  6
CONTINUOUS
 10
181.9272254477
 20
58.9858984084
 30
0.0
 11
3.0
 21
0.0
 31
0.0
 40
0.0874886635
 41
8.5837092902
 42
9.4247779608
  0
ELLIPSE
  5
745
100
AcDbEntity
  8
RACCORDO
100
AcDbEllipse
 62
7
  6
CONTINUOUS
 10
179.7062489042
 20
58.9159074776
 30
0.0
 11
0.2
 21
-0.0
 31
0.0
 40
0.0874886635
 41
-1.5707963268
 42
-0.0174532925
  0
ELLIPSE
  5
746
100
AcDbEntity
  8
DRAFT
100
AcDbEllipse
 62
7
  6
CONTINUOUS
 10
181.9272254477
 20
63.5771596063
 30
0.0
 11
3.0
 21
-0.0
 31
0.0
 40
0.0874886635
 41
3.1415926536
 42
3.9826613242
  0
ELLIPSE
  5
747
100
AcDbEntity
  8
RACCORDO
100
AcDbEllipse
 62
7
  6
CONTINUOUS
 10
179.7062489042
 20
63.6471505371
 30
0.0
 11
0.2
 21
-0.0
 31
0.0
 40
0.0874886635
 41
0.0174532925
 42
1.5707963268
  0
ENDSEC
  0
SECTION
  2
OBJECTS
  0
DICTIONARY
  5
C
100
AcDbDictionary
280
0
281
1
  3
ACAD_GROUP
350
D
  3
ACAD_MLINESTYLE
350
17
  3
ACAD_LAYOUT
350
1A
  3
ACAD_PLOTSETTINGS
350
19
  3
ACAD_PLOTSTYLENAME
350
E
  0
DICTIONARY
  5
D
102
{ACAD_REACTORS
330
C
102
}
100
AcDbDictionary
280
0
281
1
  0
ACDBDICTIONARYWDFLT
  5
E
102
{ACAD_REACTORS
330
C
102
}
100
AcDbDictionary
281
1
  3
Normal
350
F
100
AcDbDictionaryWithDefault
340
F
  0
DICTIONARY
  5
17
102
{ACAD_REACTORS
330
C
102
}
100
AcDbDictionary
280
0
281
1
  3
Standard
350
18
  0
DICTIONARY
  5
19
102
{ACAD_REACTORS
330
C
102
}
100
AcDbDictionary
281
1
  0
DICTIONARY
  5
1A
102
{ACAD_REACTORS
330
C
102
}
100
AcDbDictionary
281
1
  3
Model
350
748
  3
Layout1
350
749
  0
ACDBPLACEHOLDER
  5
F
102
{ACAD_REACTORS
330
E
102
}
  0
MLINESTYLE
  5
18
102
{ACAD_REACTORS
330
17
102
}
100
AcDbMlineStyle
  2
STANDARD
 70
0
  3

 62
256
 51
90.0
 52
90.0
 71
2
 49
0.5
 62
256
  6
BYLAYER
 49
-0.5
 62
256
  6
BYLAYER
  0
LAYOUT
  5
748
102
{ACAD_REACTORS
330
1A
102
}
100
AcDbPlotSettings
  1

  2
none_device
  4
ISO_A4_(297.00_x_210.00_MM)
  6

 40
0.0
 41
0.0
 42
0.0
 43
0.0
 44
297.0
 45
210.0
 46
0.0
 47
0.0
 48
0.0
 49
0.0
140
0.0
141
0.0
142
1.0
143
1.0
 70
1024
 72
1
 73
0
 74
0
  7

 75
0
147
1.0
148
0.0
149
0.0
100
AcDbLayout
  1
Model
 70
0
 71
0
 10
0.0
 20
0.0
 11
297.0
 21
210.0
 12
0.0
 22
0.0
 32
0.0
 14
0.0
 24
0.0
 34
0.0
 15
0.0
 25
0.0
 35
0.0
146
0.0
 13
0.0
 23
0.0
 33
0.0
 16
1.0
 26
0.0
 36
0.0
 17
0.0
 27
1.0
 37
0.0
 76
0
330
20E
345
0
346
0
  0
LAYOUT
  5
749
102
{ACAD_REACTORS
330
1A
102
}
100
AcDbPlotSettings
  1

  2
none_device
  4
ISO_A4_(297.00_x_210.00_MM)
  6

 40
0.0
 41
0.0
 42
0.0
 43
0.0
 44
297.0
 45
210.0
 46
0.0
 47
0.0
 48
0.0
 49
0.0
140
0.0
141
0.0
142
1.0
143
1.0
 70
0
 72
1
 73
0
 74
0
  7

 75
0
147
1.0
148
0.0
149
0.0
100
AcDbLayout
  1
Layout1
 70
0
 71
1
 10
0.0
 20
0.0
 11
297.0
 21
210.0
 12
0.0
 22
0.0
 32
0.0
 14
0.0
 24
0.0
 34
0.0
 15
0.0
 25
0.0
 35
0.0
146
0.0
 13
0.0
 23
0.0
 33
0.0
 16
1.0
 26
0.0
 36
0.0
 17
0.0
 27
1.0
 37
0.0
 76
0
330
20F
345
0
346
0
  0
ENDSEC
  0
EOF
