  0
SECTION
  2
HEADER
  9
$ACADVER
  1
AC1015
  9
$DWGCODEPAGE
  3
ANSI_1252
  9
$EXTMAX
 10
297.0
 20
210.0
 30
0.0
  9
$EXTMIN
 10
0.0
 20
0.0
 30
0.0
  9
$LIMMIN
 10
0.0
 20
0.0
  9
$LIMMAX
 10
297.0
 20
210.0
  9
$VIEWCTR
 10
148.5
 20
105.0
  9
$VIEWSIZE
 40
210.0
  9
$CLAYER
  8
0
  9
$LTSCALE
 40
16.335
  9
$CELTYPE
  6
BYLAYER
  9
$DIMSCALE
 40
1.0
  9
$DIMASZ
 40
3.0
  9
$DIMEXO
 40
1.85625
  9
$DIMDLI
 40
11.286
  9
$DIMEXE
 40
5.346
  9
$DIMCEN
 40
2.673
  9
$DIMLFAC
 40
1.0
  9
$DIMBLK
  1
_FILLED
  9
$DIMTXT
 40
3.0
  9
$DIMTOL
 70
1
  9
$DIMLIM
 70
0
  9
$DIMTFAC
 40
1.0
  9
$DIMTP
 40
0.01
  9
$DIMTM
 40
0.01
  9
$PDMODE
 70
3
  9
$PDSIZE
 40
3.0
  9
$HANDSEED
  5
3FF
  9
$TILEMODE
 70
1
  9
$MEASUREMENT
 70
1
  9
$INSUNITS
 70
4
  0
ENDSEC
  0
SECTION
  2
CLASSES
  0
CLASS
  1
ACDBDICTIONARYWDFLT
  2
AcDbDictionaryWithDefault
  3
AutoCAD 2000
 90
0
280
0
281
0
  0
CLASS
  1
ACDBPLACEHOLDER
  2
AcDbPlaceHolder
  3
AutoCAD 2000
 90
0
280
0
281
0
  0
CLASS
  1
LAYOUT
  2
AcDbLayout
  3
AutoCAD 2000
 90
0
280
0
281
0
  0
ENDSEC
  0
SECTION
  2
TABLES
  0
TABLE
  2
VPORT
  5
8
100
AcDbSymbolTable
 70
2
  0
VPORT
  5
1F4
100
AcDbSymbolTableRecord
100
AcDbViewportTableRecord
  2
*ACTIVE
 70
0
 10
0.0
 20
0.0
 11
1.0
 21
1.0
 12
148.5
 22
105.0
 13
0.0
 23
0.0
 14
1.0
 24
1.0
 15
0.0
 25
0.0
 16
0.0
 26
0.0
 36
1.0
 17
0.0
 27
0.0
 37
0.0
 40
210.0
 41
1.4142857143
 42
50.0
 43
0.0
 44
0.0
 50
0.0
 51
0.0
 71
0
 72
100
 73
1
 74
1
 75
0
 76
0
 77
0
 78
0
  0
ENDTAB
  0
TABLE
  2
LTYPE
  5
5
100
AcDbSymbolTable
 70
6
  0
LTYPE
  5
14
100
AcDbSymbolTableRecord
100
AcDbLinetypeTableRecord
  2
BYBLOCK
 70
0
  3

 72
65
 73
0
 40
0.0
  0
LTYPE
  5
15
100
AcDbSymbolTableRecord
100
AcDbLinetypeTableRecord
  2
BYLAYER
 70
0
  3

 72
65
 73
0
 40
0.0
  0
LTYPE
  5
16
100
AcDbSymbolTableRecord
100
AcDbLinetypeTableRecord
  2
CONTINUOUS
 70
64
  3
Solid line
 72
65
 73
0
 40
0.0
  0
LTYPE
  5
1F5
100
AcDbSymbolTableRecord
100
AcDbLinetypeTableRecord
  2
CENTER
 70
64
  3
____ _ ____ _ ____ _ ____ _ ____ _ ____ _ ____
 72
65
 73
4
 40
0.6
 49
0.375
 74
0
 49
-0.075
 74
0
 49
0.075
 74
0
 49
-0.075
 74
0
  0
LTYPE
  5
1F6
100
AcDbSymbolTableRecord
100
AcDbLinetypeTableRecord
  2
HIDDEN
 70
64
  3
- - - - - - - - - - - - - - - - - - - -
 72
65
 73
2
 40
0.2
 49
0.1
 74
0
 49
-0.1
 74
0
  0
LTYPE
  5
1F7
100
AcDbSymbolTableRecord
100
AcDbLinetypeTableRecord
  2
PHANTOM
 70
64
  3
_____ _ _ _____ _ _ _____ _ _ _____
 72
65
 73
6
 40
0.8
 49
0.45
 74
0
 49
-0.05
 74
0
 49
0.1
 74
0
 49
-0.05
 74
0
 49
0.1
 74
0
 49
-0.05
 74
0
  0
LTYPE
  5
1F8
100
AcDbSymbolTableRecord
100
AcDbLinetypeTableRecord
  2
DOT
 70
64
  3
. . . . . . . . . . . . . . . . . . . .
 72
65
 73
2
 40
0.2
 49
0.1
 74
0
 49
-0.1
 74
0
  0
LTYPE
  5
1F9
100
AcDbSymbolTableRecord
100
AcDbLinetypeTableRecord
  2
DASHED
 70
64
  3
- - - - - - - - - - - - - - - - - - - -
 72
65
 73
2
 40
0.2
 49
0.1
 74
0
 49
-0.1
 74
0
  0
ENDTAB
  0
TABLE
  2
LAYER
  5
2
100
AcDbSymbolTable
 70
36
  0
LAYER
  5
10
100
AcDbSymbolTableRecord
100
AcDbLayerTableRecord
  2
0
 70
0
 62
7
  6
CONTINUOUS
370
-3
390
F
  0
LAYER
  5
1FA
100
AcDbSymbolTableRecord
100
AcDbLayerTableRecord
  2
DEFAULT_1
 70
0
 62
7
  6
CENTER
370
-3
390
F
  0
LAYER
  5
1FB
100
AcDbSymbolTableRecord
100
AcDbLayerTableRecord
  2
DEFAULT_2
 70
0
 62
7
  6
HIDDEN
370
-3
390
F
  0
LAYER
  5
1FC
100
AcDbSymbolTableRecord
100
AcDbLayerTableRecord
  2
DEFAULT_3
 70
0
 62
7
  6
PHANTOM
370
-3
390
F
  0
LAYER
  5
1FD
100
AcDbSymbolTableRecord
100
AcDbLayerTableRecord
  2
ASSI
 70
0
 62
7
  6
CONTINUOUS
370
-3
390
F
  0
LAYER
  5
1FE
100
AcDbSymbolTableRecord
100
AcDbLayerTableRecord
  2
COORDINATE
 70
0
 62
7
  6
CONTINUOUS
370
-3
390
F
  0
LAYER
  5
1FF
100
AcDbSymbolTableRecord
100
AcDbLayerTableRecord
  2
COORD_ORIGINE
 70
0
 62
7
  6
CONTINUOUS
370
-3
390
F
  0
LAYER
  5
200
100
AcDbSymbolTableRecord
100
AcDbLayerTableRecord
  2
COPY-PUBBLISH
 70
0
 62
7
  6
CONTINUOUS
370
-3
390
F
  0
LAYER
  5
201
100
AcDbSymbolTableRecord
100
AcDbLayerTableRecord
  2
COPY_PUBLISH
 70
0
 62
7
  6
CONTINUOUS
370
-3
390
F
  0
LAYER
  5
202
100
AcDbSymbolTableRecord
100
AcDbLayerTableRecord
  2
COSMETIC
 70
0
 62
7
  6
CONTINUOUS
370
-3
390
F
  0
LAYER
  5
203
100
AcDbSymbolTableRecord
100
AcDbLayerTableRecord
  2
CURVE
 70
0
 62
7
  6
CONTINUOUS
370
-3
390
F
  0
LAYER
  5
204
100
AcDbSymbolTableRecord
100
AcDbLayerTableRecord
  2
DRAFT
 70
0
 62
7
  6
CONTINUOUS
370
-3
390
F
  0
LAYER
  5
205
100
AcDbSymbolTableRecord
100
AcDbLayerTableRecord
  2
IGES-SCRITTE
 70
0
 62
7
  6
CONTINUOUS
370
-3
390
F
  0
LAYER
  5
206
100
AcDbSymbolTableRecord
100
AcDbLayerTableRecord
  2
IMPORT_IGES
 70
0
 62
7
  6
CONTINUOUS
370
-3
390
F
  0
LAYER
  5
207
100
AcDbSymbolTableRecord
100
AcDbLayerTableRecord
  2
PIANI
 70
0
 62
7
  6
CONTINUOUS
370
-3
390
F
  0
LAYER
  5
208
100
AcDbSymbolTableRecord
100
AcDbLayerTableRecord
  2
PIANI-RIFERIMENTO
 70
0
 62
7
  6
CONTINUOUS
370
-3
390
F
  0
LAYER
  5
209
100
AcDbSymbolTableRecord
100
AcDbLayerTableRecord
  2
PIANI_ORIGINE
 70
0
 62
7
  6
CONTINUOUS
370
-3
390
F
  0
LAYER
  5
20A
100
AcDbSymbolTableRecord
100
AcDbLayerTableRecord
  2
PUNTI
 70
0
 62
7
  6
CONTINUOUS
370
-3
390
F
  0
LAYER
  5
20B
100
AcDbSymbolTableRecord
100
AcDbLayerTableRecord
  2
RACCORDO
 70
0
 62
7
  6
CONTINUOUS
370
-3
390
F
  0
LAYER
  5
20C
100
AcDbSymbolTableRecord
100
AcDbLayerTableRecord
  2
SMUSSO
 70
0
 62
7
  6
CONTINUOUS
370
-3
390
F
  0
LAYER
  5
20D
100
AcDbSymbolTableRecord
100
AcDbLayerTableRecord
  2
SNAPLINE
 70
0
 62
7
  6
CONTINUOUS
370
-3
390
F
  0
LAYER
  5
20E
100
AcDbSymbolTableRecord
100
AcDbLayerTableRecord
  2
TRASH
 70
0
 62
7
  6
CONTINUOUS
370
-3
390
F
  0
LAYER
  5
20F
100
AcDbSymbolTableRecord
100
AcDbLayerTableRecord
  2
XSEC_DATUMS
 70
0
 62
7
  6
CONTINUOUS
370
-3
390
F
  0
ENDTAB
  0
TABLE
  2
STYLE
  5
3
100
AcDbSymbolTable
 70
1
  0
STYLE
  5
11
100
AcDbSymbolTableRecord
100
AcDbTextStyleTableRecord
  2
STANDARD
 70
0
 40
0.0
 41
0.8
 50
0.0
 71
0
 42
0.2
  3
txt
  4

  0
STYLE
  5
210
100
AcDbSymbolTableRecord
100
AcDbTextStyleTableRecord
  2
TEXTSTYLE_1
 70
0
 40
0.0
 41
0.8
 50
0.0
 71
0
 42
0.2
  3
gdt
  4

  0
ENDTAB
  0
TABLE
  2
VIEW
  5
6
100
AcDbSymbolTable
 70
0
  0
ENDTAB
  0
TABLE
  2
UCS
  5
7
100
AcDbSymbolTable
 70
0
  0
ENDTAB
  0
TABLE
  2
APPID
  5
9
100
AcDbSymbolTable
 70
1
  0
APPID
  5
211
100
AcDbSymbolTableRecord
100
AcDbRegAppTableRecord
  2
ACAD
 70
0
  0
ENDTAB
  0
TABLE
  2
BLOCK_RECORD
  5
1
100
AcDbSymbolTable
 70
0
  0
BLOCK_RECORD
  5
212
100
AcDbSymbolTableRecord
100
AcDbBlockTableRecord
  2
*Model_Space
  0
BLOCK_RECORD
  5
213
100
AcDbSymbolTableRecord
100
AcDbBlockTableRecord
  2
*Paper_Space
  0
ENDTAB
  0
TABLE
  2
DIMSTYLE
  5
A
100
AcDbSymbolTable
 70
1
100
AcDbDimStyleTable
 71
0
  0
DIMSTYLE
105
214
100
AcDbSymbolTableRecord
100
AcDbDimStyleTableRecord
  2
STANDARD
 70
0
  3

  4

 40
1.0
 41
3.0
 42
0.0625
 43
0.38
 44
0.18
 45
0.0
 46
0.0
 47
0.01
 48
0.01
140
3.0
141
0.09
142
0.0
143
25.4
144
1.0
145
0.0
146
1.0
147
0.09
 71
1.0
 72
0.0
 73
0
 74
0
 75
0
 76
0
 77
1
 78
8
170
0
171
2
172
0
173
0
174
0
175
0
176
0
177
0
178
0
270
2
271
2
272
2
273
2
274
2
275
0
280
0
281
0
282
0
283
1
284
8
285
0
286
0
287
3
288
0
340
11
  0
ENDTAB
  0
ENDSEC
  0
SECTION
  2
BLOCKS
  0
BLOCK
  5
20
100
AcDbEntity
  8
0
100
AcDbBlockBegin
  2
*Model_Space
 70
0
 10
0.0
 20
0.0
 30
0.0
  3
*Model_Space
  1

  0
ENDBLK
  5
21
100
AcDbEntity
  8
0
100
AcDbBlockEnd
  0
BLOCK
  5
1C
100
AcDbEntity
  8
0
100
AcDbBlockBegin
  2
*Paper_Space
 70
0
 10
0.0
 20
0.0
 30
0.0
  3
*Paper_Space
  1

  0
ENDBLK
  5
1D
100
AcDbEntity
  8
0
100
AcDbBlockEnd
  0
ENDSEC
  0
SECTION
  2
ENTITIES
  0
LINE
  5
215
100
AcDbEntity
  8
RACCORDO
100
AcDbLine
 62
7
  6
CONTINUOUS
 10
-13.25
 20
-37.7688082292
 11
-11.6862160824
 21
-37.7688082292
  0
LINE
  5
216
100
AcDbEntity
  8
RACCORDO
100
AcDbLine
 62
7
  6
CONTINUOUS
 10
11.6862160824
 20
-37.7688082292
 11
13.25
 21
-37.7688082292
  0
LINE
  5
217
100
AcDbEntity
  8
RACCORDO
100
AcDbLine
 62
253
  6
CONTINUOUS
 10
-13.25
 20
-37.1830217916
 11
-11.6985626548
 21
-37.1830217916
  0
LINE
  5
218
100
AcDbEntity
  8
RACCORDO
100
AcDbLine
 62
253
  6
CONTINUOUS
 10
11.6985626548
 20
-37.1830217916
 11
13.25
 21
-37.1830217916
  0
LINE
  5
219
100
AcDbEntity
  8
RACCORDO
100
AcDbLine
 62
7
  6
CONTINUOUS
 10
9.9550242755
 20
-36.7927355168
 11
-9.9550242755
 21
-36.7927355168
  0
LINE
  5
21A
100
AcDbEntity
  8
RACCORDO
100
AcDbLine
 62
253
  6
CONTINUOUS
 10
9.9549509689
 20
-36.0652865366
 11
4.2107290949
 21
-36.0652865366
  0
LINE
  5
21B
100
AcDbEntity
  8
RACCORDO
100
AcDbLine
 62
253
  6
CONTINUOUS
 10
3.2892709051
 20
-36.0652865366
 11
-3.2892709051
 21
-36.0652865366
  0
LINE
  5
21C
100
AcDbEntity
  8
RACCORDO
100
AcDbLine
 62
253
  6
CONTINUOUS
 10
-4.2107290949
 20
-36.0652865366
 11
-9.9550242755
 21
-36.0652865366
  0
LINE
  5
21D
100
AcDbEntity
  8
RACCORDO
100
AcDbLine
 62
253
  6
CONTINUOUS
 10
9.9550242755
 20
-35.265773875
 11
4.2174669385
 21
-35.265773875
  0
LINE
  5
21E
100
AcDbEntity
  8
RACCORDO
100
AcDbLine
 62
253
  6
CONTINUOUS
 10
3.2825330615
 20
-35.265773875
 11
-3.2825330615
 21
-35.265773875
  0
LINE
  5
21F
100
AcDbEntity
  8
RACCORDO
100
AcDbLine
 62
253
  6
CONTINUOUS
 10
-4.2174669385
 20
-35.265773875
 11
-9.9550242755
 21
-35.265773875
  0
LINE
  5
220
100
AcDbEntity
  8
DRAFT
100
AcDbLine
 62
7
  6
CONTINUOUS
 10
-11.4027201863
 20
-35.1355920541
 11
-4.25
 21
-35.1355920541
  0
LINE
  5
221
100
AcDbEntity
  8
DRAFT
100
AcDbLine
 62
7
  6
CONTINUOUS
 10
-3.25
 20
-35.1355920541
 11
3.25
 21
-35.1355920541
  0
LINE
  5
222
100
AcDbEntity
  8
DRAFT
100
AcDbLine
 62
7
  6
CONTINUOUS
 10
4.25
 20
-35.1355920541
 11
11.4027201863
 21
-35.1355920541
  0
LINE
  5
223
100
AcDbEntity
  8
DRAFT
100
AcDbLine
 62
7
  6
CONTINUOUS
 10
-11.4027201863
 20
-32.0308297456
 11
-4.25
 21
-32.0308297456
  0
LINE
  5
224
100
AcDbEntity
  8
DRAFT
100
AcDbLine
 62
7
  6
CONTINUOUS
 10
-3.25
 20
-32.0308297456
 11
3.25
 21
-32.0308297456
  0
LINE
  5
225
100
AcDbEntity
  8
DRAFT
100
AcDbLine
 62
7
  6
CONTINUOUS
 10
4.25
 20
-32.0308297456
 11
11.4027201863
 21
-32.0308297456
  0
LINE
  5
226
100
AcDbEntity
  8
RACCORDO
100
AcDbLine
 62
253
  6
CONTINUOUS
 10
-5.3529336756
 20
-31.9006479246
 11
-4.2174669385
 21
-31.9006479246
  0
LINE
  5
227
100
AcDbEntity
  8
RACCORDO
100
AcDbLine
 62
253
  6
CONTINUOUS
 10
-3.2825330615
 20
-31.9006479246
 11
3.2825330615
 21
-31.9006479246
  0
LINE
  5
228
100
AcDbEntity
  8
RACCORDO
100
AcDbLine
 62
253
  6
CONTINUOUS
 10
4.2174669385
 20
-31.9006479246
 11
5.3529336756
 21
-31.9006479246
  0
LINE
  5
229
100
AcDbEntity
  8
RACCORDO
100
AcDbLine
 62
253
  6
CONTINUOUS
 10
-13.25
 20
-31.1689973374
 11
-11.7510462511
 21
-31.1689973374
  0
LINE
  5
22A
100
AcDbEntity
  8
RACCORDO
100
AcDbLine
 62
253
  6
CONTINUOUS
 10
11.7510462511
 20
-31.1689973374
 11
13.25
 21
-31.1689973374
  0
LINE
  5
22B
100
AcDbEntity
  8
RACCORDO
100
AcDbLine
 62
253
  6
CONTINUOUS
 10
-11.6276098151
 20
-31.1309285351
 11
-9.7922704094
 21
-31.1309285351
  0
LINE
  5
22C
100
AcDbEntity
  8
RACCORDO
100
AcDbLine
 62
253
  6
CONTINUOUS
 10
9.7922704094
 20
-31.1309285351
 11
11.6276098151
 21
-31.1309285351
  0
LINE
  5
22D
100
AcDbEntity
  8
RACCORDO
100
AcDbLine
 62
253
  6
CONTINUOUS
 10
-5.3529336756
 20
-31.101135263
 11
-4.2107290949
 21
-31.101135263
  0
LINE
  5
22E
100
AcDbEntity
  8
RACCORDO
100
AcDbLine
 62
253
  6
CONTINUOUS
 10
-3.2892709051
 20
-31.101135263
 11
3.2892709051
 21
-31.101135263
  0
LINE
  5
22F
100
AcDbEntity
  8
RACCORDO
100
AcDbLine
 62
253
  6
CONTINUOUS
 10
4.2107290949
 20
-31.101135263
 11
5.3529336756
 21
-31.101135263
  0
LINE
  5
230
100
AcDbEntity
  8
RACCORDO
100
AcDbLine
 62
7
  6
CONTINUOUS
 10
-5.3529336756
 20
-30.3736862829
 11
5.3529336756
 21
-30.3736862829
  0
LINE
  5
231
100
AcDbEntity
  8
RACCORDO
100
AcDbLine
 62
253
  6
CONTINUOUS
 10
-13.25
 20
-29.7547837751
 11
-11.7561583319
 21
-29.7547837751
  0
LINE
  5
232
100
AcDbEntity
  8
RACCORDO
100
AcDbLine
 62
253
  6
CONTINUOUS
 10
11.7561583319
 20
-29.7547837751
 11
13.25
 21
-29.7547837751
  0
LINE
  5
233
100
AcDbEntity
  8
RACCORDO
100
AcDbLine
 62
253
  6
CONTINUOUS
 10
9.0332002104
 20
-29.132146881
 11
11.6444544241
 21
-29.132146881
  0
LINE
  5
234
100
AcDbEntity
  8
RACCORDO
100
AcDbLine
 62
253
  6
CONTINUOUS
 10
-9.0332002104
 20
-29.132146881
 11
-11.6444544241
 21
-29.132146881
  0
LINE
  5
235
100
AcDbEntity
  8
RACCORDO
100
AcDbLine
 62
253
  6
CONTINUOUS
 10
-11.7026640414
 20
-27.9753081905
 11
-11.6531812919
 21
-27.9753081905
  0
LINE
  5
236
100
AcDbEntity
  8
RACCORDO
100
AcDbLine
 62
253
  6
CONTINUOUS
 10
11.6531812919
 20
-27.9753081905
 11
11.7026640414
 21
-27.9753081905
  0
LINE
  5
237
100
AcDbEntity
  8
RACCORDO
100
AcDbLine
 62
253
  6
CONTINUOUS
 10
11.7037971251
 20
-27.0832108998
 11
11.6531812919
 21
-27.0832108998
  0
LINE
  5
238
100
AcDbEntity
  8
RACCORDO
100
AcDbLine
 62
253
  6
CONTINUOUS
 10
9.0332002104
 20
-27.0832108998
 11
11.6444544241
 21
-27.0832108998
  0
LINE
  5
239
100
AcDbEntity
  8
RACCORDO
100
AcDbLine
 62
253
  6
CONTINUOUS
 10
-11.6531812919
 20
-27.0832108998
 11
-11.7037971251
 21
-27.0832108998
  0
LINE
  5
23A
100
AcDbEntity
  8
RACCORDO
100
AcDbLine
 62
253
  6
CONTINUOUS
 10
-9.0332002104
 20
-27.0832108998
 11
-11.6444544241
 21
-27.0832108998
  0
LINE
  5
23B
100
AcDbEntity
  8
RACCORDO
100
AcDbLine
 62
253
  6
CONTINUOUS
 10
-9.7922704094
 20
-31.1309285351
 11
-9.1506188183
 21
-31.7725801262
  0
LINE
  5
23C
100
AcDbEntity
  8
RACCORDO
100
AcDbLine
 62
253
  6
CONTINUOUS
 10
-8.9927577478
 20
-30.3314158735
 11
-8.3511173571
 21
-30.9730562641
  0
LINE
  5
23D
100
AcDbEntity
  8
RACCORDO
100
AcDbLine
 62
7
  6
CONTINUOUS
 10
-9.007780698
 20
-29.6159055849
 11
-8.3511061566
 21
-30.2725801262
  0
LINE
  5
23E
100
AcDbEntity
  8
COPY-PUBBLISH
100
AcDbLine
 62
7
  6
CONTINUOUS
 10
11.7037971251
 20
-25.5832108998
 11
11.5990747116
 21
-25.5832108998
  0
LINE
  5
23F
100
AcDbEntity
  8
RACCORDO
100
AcDbLine
 62
7
  6
CONTINUOUS
 10
-11.6078015794
 20
-25.5832108998
 11
-10.0631899507
 21
-25.5832108998
  0
LINE
  5
240
100
AcDbEntity
  8
COPY-PUBBLISH
100
AcDbLine
 62
7
  6
CONTINUOUS
 10
-11.7037971251
 20
-25.5832108998
 11
-11.5990747116
 21
-25.5832108998
  0
LINE
  5
241
100
AcDbEntity
  8
RACCORDO
100
AcDbLine
 62
7
  6
CONTINUOUS
 10
10.0631899507
 20
-25.5832108998
 11
11.6078015794
 21
-25.5832108998
  0
LINE
  5
242
100
AcDbEntity
  8
RACCORDO
100
AcDbLine
 62
7
  6
CONTINUOUS
 10
-11.1
 20
-24.8332108998
 11
11.1
 21
-24.8332108998
  0
LINE
  5
243
100
AcDbEntity
  8
RACCORDO
100
AcDbLine
 62
253
  6
CONTINUOUS
 10
-11.4
 20
-24.5332109003
 11
11.4
 21
-24.5332108998
  0
LINE
  5
244
100
AcDbEntity
  8
RACCORDO
100
AcDbLine
 62
7
  6
CONTINUOUS
 10
11.6078015794
 20
-23.6895662964
 11
11.4
 21
-23.6895662964
  0
LINE
  5
245
100
AcDbEntity
  8
RACCORDO
100
AcDbLine
 62
7
  6
CONTINUOUS
 10
-11.4
 20
-23.6895662964
 11
-11.6078015794
 21
-23.6895662964
  0
LINE
  5
246
100
AcDbEntity
  8
RACCORDO
100
AcDbLine
 62
7
  6
CONTINUOUS
 10
-11.6662629
 20
-29.4751325492
 11
-11.6667284386
 21
-29.474394431
  0
LINE
  5
247
100
AcDbEntity
  8
DRAFT
100
AcDbLine
 62
7
  6
CONTINUOUS
 10
-11.6863433895
 20
-23.6546455269
 11
-11.5990747116
 21
-23.6546455269
  0
LINE
  5
248
100
AcDbEntity
  8
DRAFT
100
AcDbLine
 62
7
  6
CONTINUOUS
 10
11.5990747116
 20
-23.6546455269
 11
11.6863433895
 21
-23.6546455269
  0
LINE
  5
249
100
AcDbEntity
  8
RACCORDO
100
AcDbLine
 62
7
  6
CONTINUOUS
 10
9.2357406735
 20
37.496182855
 11
8.4063469186
 21
36.6667891002
  0
LINE
  5
24A
100
AcDbEntity
  8
RACCORDO
100
AcDbLine
 62
7
  6
CONTINUOUS
 10
-11.6276098151
 20
-31.1309285351
 11
-11.4027201863
 21
-32.0308297456
  0
LINE
  5
24B
100
AcDbEntity
  8
RACCORDO
100
AcDbLine
 62
7
  6
CONTINUOUS
 10
-11.6667284386
 20
-29.474394431
 11
-11.6858205286
 21
-29.3979969776
  0
LINE
  5
24C
100
AcDbEntity
  8
RACCORDO
100
AcDbLine
 62
7
  6
CONTINUOUS
 10
-13.25
 20
-37.7685567176
 11
-13.25
 21
-11.4265865728
  0
LINE
  5
24D
100
AcDbEntity
  8
COPY-PUBBLISH
100
AcDbLine
 62
7
  6
CONTINUOUS
 10
-13.25
 20
-11.4265865728
 11
-13.25
 21
37.7675898832
  0
LINE
  5
24E
100
AcDbEntity
  8
RACCORDO
100
AcDbLine
 62
7
  6
CONTINUOUS
 10
-11.6985626548
 20
-37.1830217916
 11
-11.7510462511
 21
-31.1689973374
  0
LINE
  5
24F
100
AcDbEntity
  8
RACCORDO
100
AcDbLine
 62
7
  6
CONTINUOUS
 10
-11.6975530568
 20
-28.8134288859
 11
-11.6986850443
 21
-28.6837159632
  0
LINE
  5
250
100
AcDbEntity
  8
DRAFT
100
AcDbLine
 62
7
  6
CONTINUOUS
 10
-11.7212508607
 20
-11.5832108998
 11
-11.7244744706
 21
-9.9832108998
  0
LINE
  5
251
100
AcDbEntity
  8
COPY-PUBBLISH
100
AcDbLine
 62
7
  6
CONTINUOUS
 10
-12.45
 20
1.9167891002
 11
-12.45
 21
9.9167891002
  0
LINE
  5
252
100
AcDbEntity
  8
RACCORDO
100
AcDbLine
 62
7
  6
CONTINUOUS
 10
-11.7561583319
 20
-29.7547837751
 11
-11.7561583319
 21
-11.4265865728
  0
LINE
  5
253
100
AcDbEntity
  8
DRAFT
100
AcDbLine
 62
7
  6
CONTINUOUS
 10
-11.7561583319
 20
21.8167891002
 11
-11.7561583319
 21
37.7675898832
  0
LINE
  5
254
100
AcDbEntity
  8
COPY-PUBBLISH
100
AcDbLine
 62
7
  6
CONTINUOUS
 10
-11.7299777285
 20
0.2167891002
 11
-11.7299777285
 21
1.9167891002
  0
LINE
  5
255
100
AcDbEntity
  8
COPY-PUBBLISH
100
AcDbLine
 62
7
  6
CONTINUOUS
 10
-11.7299777285
 20
9.9167891002
 11
-11.7299777285
 21
11.6167891002
  0
LINE
  5
256
100
AcDbEntity
  8
COPY-PUBBLISH
100
AcDbLine
 62
7
  6
CONTINUOUS
 10
-11.723638871
 20
1.9167891002
 11
-11.723638871
 21
9.9167891002
  0
LINE
  5
257
100
AcDbEntity
  8
COPY-PUBBLISH
100
AcDbLine
 62
7
  6
CONTINUOUS
 10
-11.7125239929
 20
23.4167891002
 11
-11.7125239929
 21
12.2167891002
  0
LINE
  5
258
100
AcDbEntity
  8
COPY-PUBBLISH
100
AcDbLine
 62
7
  6
CONTINUOUS
 10
-11.7125239929
 20
-9.9832108998
 11
-11.7125239929
 21
-0.3832108998
  0
LINE
  5
259
100
AcDbEntity
  8
COPY-PUBBLISH
100
AcDbLine
 62
7
  6
CONTINUOUS
 10
-11.7125239929
 20
2.2167891002
 11
-11.7125239929
 21
9.6167891002
  0
LINE
  5
25A
100
AcDbEntity
  8
COPY-PUBBLISH
100
AcDbLine
 62
7
  6
CONTINUOUS
 10
-11.7037971251
 20
-11.8832108998
 11
-11.7037971251
 21
-27.2695024008
  0
LINE
  5
25B
100
AcDbEntity
  8
RACCORDO
100
AcDbLine
 62
253
  6
CONTINUOUS
 10
-11.7
 20
2.4667891002
 11
-11.7
 21
2.1667891002
  0
LINE
  5
25C
100
AcDbEntity
  8
RACCORDO
100
AcDbLine
 62
253
  6
CONTINUOUS
 10
-11.7
 20
9.3667891002
 11
-11.7
 21
9.6667891002
  0
LINE
  5
25D
100
AcDbEntity
  8
RACCORDO
100
AcDbLine
 62
7
  6
CONTINUOUS
 10
-11.6950702573
 20
36.2956955166
 11
-11.6950702573
 21
37.5231444968
  0
LINE
  5
25E
100
AcDbEntity
  8
COPY-PUBBLISH
100
AcDbLine
 62
7
  6
CONTINUOUS
 10
-11.6863433895
 20
-23.6546455269
 11
-11.6863433895
 21
-10.2832108998
  0
LINE
  5
25F
100
AcDbEntity
  8
RACCORDO
100
AcDbLine
 62
7
  6
CONTINUOUS
 10
-11.6531812919
 20
-27.0832108998
 11
-11.6531812919
 21
-27.9753081905
  0
LINE
  5
260
100
AcDbEntity
  8
RACCORDO
100
AcDbLine
 62
7
  6
CONTINUOUS
 10
-11.6444544241
 20
-29.132146881
 11
-11.6444544241
 21
-27.0832108998
  0
LINE
  5
261
100
AcDbEntity
  8
DRAFT
100
AcDbLine
 62
7
  6
CONTINUOUS
 10
-11.6327474072
 20
-4.3832108998
 11
-11.6327474072
 21
2.1667891002
  0
LINE
  5
262
100
AcDbEntity
  8
DRAFT
100
AcDbLine
 62
7
  6
CONTINUOUS
 10
-11.6327474072
 20
9.6667891002
 11
-11.6327474072
 21
16.2167891002
  0
LINE
  5
263
100
AcDbEntity
  8
DRAFT
100
AcDbLine
 62
7
  6
CONTINUOUS
 10
-11.6078015794
 20
-23.6895662964
 11
-11.6078015794
 21
-25.5832108998
  0
LINE
  5
264
100
AcDbEntity
  8
RACCORDO
100
AcDbLine
 62
253
  6
CONTINUOUS
 10
-11.4549684404
 20
-36.1450161356
 11
-11.4549671601
 21
-36.844659565
  0
LINE
  5
265
100
AcDbEntity
  8
DRAFT
100
AcDbLine
 62
7
  6
CONTINUOUS
 10
-11.4289007897
 20
-16.7996457923
 11
-11.4289007897
 21
-17.6919377676
  0
LINE
  5
266
100
AcDbEntity
  8
DRAFT
100
AcDbLine
 62
7
  6
CONTINUOUS
 10
-11.4289007897
 20
-18.7422967472
 11
-11.4289007897
 21
-19.8832108998
  0
LINE
  5
267
100
AcDbEntity
  8
DRAFT
100
AcDbLine
 62
7
  6
CONTINUOUS
 10
-11.4289007897
 20
28.6332239926
 11
-11.4289007897
 21
29.525515968
  0
LINE
  5
268
100
AcDbEntity
  8
DRAFT
100
AcDbLine
 62
7
  6
CONTINUOUS
 10
-11.4289007897
 20
30.5758749476
 11
-11.4289007897
 21
31.7167891002
  0
LINE
  5
269
100
AcDbEntity
  8
DRAFT
100
AcDbLine
 62
7
  6
CONTINUOUS
 10
-11.417209827
 20
9.9667891002
 11
-11.417209827
 21
9.8722738886
  0
LINE
  5
26A
100
AcDbEntity
  8
DRAFT
100
AcDbLine
 62
7
  6
CONTINUOUS
 10
-11.417209827
 20
1.9613043117
 11
-11.417209827
 21
1.8667891002
  0
LINE
  5
26B
100
AcDbEntity
  8
DRAFT
100
AcDbLine
 62
7
  6
CONTINUOUS
 10
-11.4027201863
 20
-32.0308297456
 11
-11.4027201863
 21
-35.1355920541
  0
LINE
  5
26C
100
AcDbEntity
  8
RACCORDO
100
AcDbLine
 62
7
  6
CONTINUOUS
 10
-11.4
 20
36.3667891002
 11
-11.4
 21
9.9667891002
  0
LINE
  5
26D
100
AcDbEntity
  8
RACCORDO
100
AcDbLine
 62
7
  6
CONTINUOUS
 10
-11.4
 20
1.8667891002
 11
-11.4
 21
-24.5332108998
  0
LINE
  5
26E
100
AcDbEntity
  8
RACCORDO
100
AcDbLine
 62
253
  6
CONTINUOUS
 10
-11.1
 20
1.8667891002
 11
-11.1
 21
-24.8332108998
  0
LINE
  5
26F
100
AcDbEntity
  8
RACCORDO
100
AcDbLine
 62
253
  6
CONTINUOUS
 10
-11.1
 20
9.9667891002
 11
-11.1000000005
 21
36.6667891002
  0
LINE
  5
270
100
AcDbEntity
  8
DRAFT
100
AcDbLine
 62
7
  6
CONTINUOUS
 10
-11.7244744706
 20
21.8167891002
 11
-11.7212508607
 21
23.4167891002
  0
LINE
  5
271
100
AcDbEntity
  8
DRAFT
100
AcDbLine
 62
7
  6
CONTINUOUS
 10
-11.7343411624
 20
-9.9832108998
 11
-11.7561583319
 21
-11.4265865728
  0
LINE
  5
272
100
AcDbEntity
  8
0
100
AcDbLine
 62
7
  6
CONTINUOUS
 10
-5.1216
 20
25.8939851002
 11
-5.867986
 21
23.2786431002
  0
LINE
  5
273
100
AcDbEntity
  8
0
100
AcDbLine
 62
7
  6
CONTINUOUS
 10
-5.550353
 20
22.0944431002
 11
-4.329028
 21
25.8939851002
  0
LINE
  5
274
100
AcDbEntity
  8
COPY-PUBBLISH
100
AcDbLine
 62
7
  6
CONTINUOUS
 10
11.7212508607
 20
-11.5832108998
 11
11.7064151855
 21
-11.5832108998
  0
LINE
  5
275
100
AcDbEntity
  8
COPY-PUBBLISH
100
AcDbLine
 62
7
  6
CONTINUOUS
 10
-11.7064151855
 20
-11.5832108998
 11
-11.7212508607
 21
-11.5832108998
  0
LINE
  5
276
100
AcDbEntity
  8
COPY-PUBBLISH
100
AcDbLine
 62
7
  6
CONTINUOUS
 10
13.25
 20
-11.4265865728
 11
11.7561583319
 21
-11.4265865728
  0
LINE
  5
277
100
AcDbEntity
  8
COPY-PUBBLISH
100
AcDbLine
 62
7
  6
CONTINUOUS
 10
-11.7561583319
 20
-11.4265865728
 11
-13.25
 21
-11.4265865728
  0
LINE
  5
278
100
AcDbEntity
  8
RACCORDO
100
AcDbLine
 62
7
  6
CONTINUOUS
 10
8.4063469186
 20
-24.8332108998
 11
9.007780698
 21
-25.4346446791
  0
LINE
  5
279
100
AcDbEntity
  8
RACCORDO
100
AcDbLine
 62
7
  6
CONTINUOUS
 10
11.6856118734
 20
-37.7675898832
 11
11.6862331447
 21
-37.7685566305
  0
LINE
  5
27A
100
AcDbEntity
  8
RACCORDO
100
AcDbLine
 62
7
  6
CONTINUOUS
 10
-4.25
 20
-35.1355920541
 11
-4.2174669385
 21
-35.265773875
  0
LINE
  5
27B
100
AcDbEntity
  8
RACCORDO
100
AcDbLine
 62
7
  6
CONTINUOUS
 10
-3.25
 20
-32.0308297456
 11
-3.2825330615
 21
-31.9006479246
  0
LINE
  5
27C
100
AcDbEntity
  8
RACCORDO
100
AcDbLine
 62
253
  6
CONTINUOUS
 10
-10.0352533351
 20
37.5231444968
 11
-10.0352533351
 21
36.6667891002
  0
LINE
  5
27D
100
AcDbEntity
  8
RACCORDO
100
AcDbLine
 62
253
  6
CONTINUOUS
 10
-9.955024274
 20
-35.265773875
 11
-9.9550242755
 21
-36.7927355168
  0
LINE
  5
27E
100
AcDbEntity
  8
RACCORDO
100
AcDbLine
 62
253
  6
CONTINUOUS
 10
-9.8327128721
 20
-27.0831588576
 11
-9.8327128721
 21
-29.132146881
  0
LINE
  5
27F
100
AcDbEntity
  8
RACCORDO
100
AcDbLine
 62
253
  6
CONTINUOUS
 10
-9.2357406735
 20
37.496182855
 11
-9.2357406735
 21
36.6667891002
  0
LINE
  5
280
100
AcDbEntity
  8
RACCORDO
100
AcDbLine
 62
253
  6
CONTINUOUS
 10
-9.0332002104
 20
-27.0832108998
 11
-9.0332002104
 21
-29.132146881
  0
LINE
  5
281
100
AcDbEntity
  8
DRAFT
100
AcDbLine
 62
7
  6
CONTINUOUS
 10
-9.007780698
 20
-25.4346446791
 11
-9.007780698
 21
-29.6159055849
  0
LINE
  5
282
100
AcDbEntity
  8
RACCORDO
100
AcDbLine
 62
253
  6
CONTINUOUS
 10
-8.3511173571
 20
-30.9730562641
 11
-8.3511061566
 21
-30.2725801262
  0
LINE
  5
283
100
AcDbEntity
  8
0
100
AcDbLine
 62
7
  6
CONTINUOUS
 10
-0.101245
 20
25.8939851002
 11
-0.894359
 21
23.7844681002
  0
LINE
  5
284
100
AcDbEntity
  8
0
100
AcDbLine
 62
7
  6
CONTINUOUS
 10
-0.843072
 20
22.0944431002
 11
0.09994
 21
24.5651301002
  0
LINE
  5
285
100
AcDbEntity
  8
DRAFT
100
AcDbLine
 62
7
  6
CONTINUOUS
 10
-11.4768985626
 20
-11.2280846248
 11
-11.5728941083
 21
-11.2364831468
  0
LINE
  5
286
100
AcDbEntity
  8
COPY-PUBBLISH
100
AcDbLine
 62
253
  6
CONTINUOUS
 10
-11.7238700437
 20
-10.2832108998
 11
-11.6863433895
 21
-10.2832108998
  0
LINE
  5
287
100
AcDbEntity
  8
COPY-PUBBLISH
100
AcDbLine
 62
253
  6
CONTINUOUS
 10
11.7238700437
 20
-10.2832108998
 11
11.6863433895
 21
-10.2832108998
  0
LINE
  5
288
100
AcDbEntity
  8
COPY-PUBBLISH
100
AcDbLine
 62
7
  6
CONTINUOUS
 10
11.6889614499
 20
-9.9832108998
 11
13.25
 21
-9.9832108998
  0
LINE
  5
289
100
AcDbEntity
  8
COPY-PUBBLISH
100
AcDbLine
 62
7
  6
CONTINUOUS
 10
-11.6889614499
 20
-9.9832108998
 11
-13.25
 21
-9.9832108998
  0
LINE
  5
28A
100
AcDbEntity
  8
DRAFT
100
AcDbLine
 62
7
  6
CONTINUOUS
 10
11.5728941083
 20
-11.2364831468
 11
11.4768985626
 21
-11.2280846248
  0
LINE
  5
28B
100
AcDbEntity
  8
ASSI
100
AcDbLine
 62
7
  6
CONTINUOUS
 10
-7.618001
 20
3.6235551002
 11
-7.618001
 21
4.2992901002
  0
LINE
  5
28C
100
AcDbEntity
  8
ASSI
100
AcDbLine
 62
7
  6
CONTINUOUS
 10
-7.618001
 20
7.5342861002
 11
-7.618001
 21
8.2100211002
  0
LINE
  5
28D
100
AcDbEntity
  8
RACCORDO
100
AcDbLine
 62
253
  6
CONTINUOUS
 10
-5.3529336756
 20
-30.3736862829
 11
-5.3529336756
 21
-31.9006479246
  0
LINE
  5
28E
100
AcDbEntity
  8
DRAFT
100
AcDbLine
 62
7
  6
CONTINUOUS
 10
-11.4
 20
-22.508835628
 11
-11.6863433895
 21
-23.6546455269
  0
LINE
  5
28F
100
AcDbEntity
  8
DRAFT
100
AcDbLine
 62
7
  6
CONTINUOUS
 10
-11.5990747116
 20
-23.6546455269
 11
-11.604204484
 21
-23.6751724334
  0
LINE
  5
290
100
AcDbEntity
  8
0
100
AcDbLine
 62
7
  6
CONTINUOUS
 10
2.355082
 20
25.8939851002
 11
1.163303
 21
22.0944431002
  0
LINE
  5
291
100
AcDbEntity
  8
RACCORDO
100
AcDbLine
 62
7
  6
CONTINUOUS
 10
3.25
 20
-35.1355920541
 11
3.2825330615
 21
-35.265773875
  0
LINE
  5
292
100
AcDbEntity
  8
DRAFT
100
AcDbLine
 62
7
  6
CONTINUOUS
 10
-4.25
 20
-32.0308297456
 11
-4.25
 21
-35.1355920541
  0
LINE
  5
293
100
AcDbEntity
  8
RACCORDO
100
AcDbLine
 62
7
  6
CONTINUOUS
 10
-4.2107290949
 20
-31.101135263
 11
-4.2107290949
 21
-36.0652865366
  0
LINE
  5
294
100
AcDbEntity
  8
0
100
AcDbLine
 62
7
  6
CONTINUOUS
 10
-4.034701
 20
25.8942131002
 11
-4.034701
 21
22.0944431002
  0
LINE
  5
295
100
AcDbEntity
  8
ASSI
100
AcDbLine
 62
7
  6
CONTINUOUS
 10
-4.031402
 20
5.5792881002
 11
-4.031402
 21
6.2542881002
  0
LINE
  5
296
100
AcDbEntity
  8
ASSI
100
AcDbLine
 62
7
  6
CONTINUOUS
 10
-3.671402
 20
3.6235550217
 11
-3.671402
 21
4.2992927458
  0
LINE
  5
297
100
AcDbEntity
  8
ASSI
100
AcDbLine
 62
7
  6
CONTINUOUS
 10
-3.671402
 20
7.5342861002
 11
-3.671402
 21
8.2100211787
  0
LINE
  5
298
100
AcDbEntity
  8
RACCORDO
100
AcDbLine
 62
7
  6
CONTINUOUS
 10
-3.2892709051
 20
-36.0652865366
 11
-3.2892709051
 21
-31.101135263
  0
LINE
  5
299
100
AcDbEntity
  8
DRAFT
100
AcDbLine
 62
7
  6
CONTINUOUS
 10
-3.25
 20
-32.0308297456
 11
-3.25
 21
-35.1355920541
  0
LINE
  5
29A
100
AcDbEntity
  8
0
100
AcDbLine
 62
7
  6
CONTINUOUS
 10
-3.241588
 20
22.0944431002
 11
-3.241588
 21
25.8942131002
  0
LINE
  5
29B
100
AcDbEntity
  8
0
100
AcDbLine
 62
7
  6
CONTINUOUS
 10
-2.055878
 20
22.0944431002
 11
-1.884725
 21
24.5754731002
  0
LINE
  5
29C
100
AcDbEntity
  8
0
100
AcDbLine
 62
7
  6
CONTINUOUS
 10
-2.471553
 20
25.8939851002
 11
-2.81463
 21
22.0944431002
  0
LINE
  5
29D
100
AcDbEntity
  8
RACCORDO
100
AcDbLine
 62
7
  6
CONTINUOUS
 10
-11.4399973866
 20
-35.2847576612
 11
-11.4027201863
 21
-35.1355920541
  0
LINE
  5
29E
100
AcDbEntity
  8
0
100
AcDbLine
 62
7
  6
CONTINUOUS
 10
2.328897
 20
23.4399091002
 11
2.723801
 21
24.8499681002
  0
LINE
  5
29F
100
AcDbEntity
  8
0
100
AcDbLine
 62
7
  6
CONTINUOUS
 10
1.947812
 20
22.0944431002
 11
2.166662
 21
22.8529671002
  0
LINE
  5
2A0
100
AcDbEntity
  8
COPY-PUBBLISH
100
AcDbLine
 62
253
  6
CONTINUOUS
 10
-11.6327474072
 20
-4.3832108998
 11
-11.417209827
 21
-4.3832108998
  0
LINE
  5
2A1
100
AcDbEntity
  8
COPY-PUBBLISH
100
AcDbLine
 62
253
  6
CONTINUOUS
 10
11.6327474072
 20
-4.3832108998
 11
11.417209827
 21
-4.3832108998
  0
LINE
  5
2A2
100
AcDbEntity
  8
RACCORDO
100
AcDbLine
 62
7
  6
CONTINUOUS
 10
4.25
 20
-32.0308297456
 11
4.2174669385
 21
-31.9006479246
  0
LINE
  5
2A3
100
AcDbEntity
  8
RACCORDO
100
AcDbLine
 62
7
  6
CONTINUOUS
 10
-11.6883324137
 20
35.496182855
 11
-11.4
 21
34.3424138284
  0
LINE
  5
2A4
100
AcDbEntity
  8
RACCORDO
100
AcDbLine
 62
7
  6
CONTINUOUS
 10
-11.6856118734
 20
-37.7675898832
 11
-11.4549671601
 21
-36.844659565
  0
LINE
  5
2A5
100
AcDbEntity
  8
COPY-PUBBLISH
100
AcDbLine
 62
253
  6
CONTINUOUS
 10
13.25
 20
-0.3832108998
 11
11.7125239929
 21
-0.3832108998
  0
LINE
  5
2A6
100
AcDbEntity
  8
COPY-PUBBLISH
100
AcDbLine
 62
253
  6
CONTINUOUS
 10
-11.7125239929
 20
-0.3832108998
 11
-13.25
 21
-0.3832108998
  0
LINE
  5
2A7
100
AcDbEntity
  8
COPY-PUBBLISH
100
AcDbLine
 62
7
  6
CONTINUOUS
 10
-13.25
 20
-0.0832108998
 11
-11.7273596682
 21
-0.0832108998
  0
LINE
  5
2A8
100
AcDbEntity
  8
COPY-PUBBLISH
100
AcDbLine
 62
7
  6
CONTINUOUS
 10
11.7273596682
 20
-0.0832108998
 11
13.25
 21
-0.0832108998
  0
LINE
  5
2A9
100
AcDbEntity
  8
COPY-PUBBLISH
100
AcDbLine
 62
253
  6
CONTINUOUS
 10
-13.25
 20
0.2167891002
 11
-11.7299777285
 21
0.2167891002
  0
LINE
  5
2AA
100
AcDbEntity
  8
COPY-PUBBLISH
100
AcDbLine
 62
253
  6
CONTINUOUS
 10
11.7299777285
 20
0.2167891002
 11
13.25
 21
0.2167891002
  0
LINE
  5
2AB
100
AcDbEntity
  8
DRAFT
100
AcDbLine
 62
7
  6
CONTINUOUS
 10
-11.7561583319
 20
37.7675898832
 11
-11.6950702573
 21
37.5231444968
  0
LINE
  5
2AC
100
AcDbEntity
  8
0
100
AcDbLine
 62
7
  6
CONTINUOUS
 10
0.09994
 20
24.5651301002
 11
0.262887
 21
22.0944431002
  0
LINE
  5
2AD
100
AcDbEntity
  8
0
100
AcDbLine
 62
7
  6
CONTINUOUS
 10
2.887252
 20
9.5020571002
 11
2.887252
 21
7.6525621002
  0
LINE
  5
2AE
100
AcDbEntity
  8
DRAFT
100
AcDbLine
 62
7
  6
CONTINUOUS
 10
11.7561583319
 20
37.7675898832
 11
11.6950702573
 21
37.5231444968
  0
LINE
  5
2AF
100
AcDbEntity
  8
RACCORDO
100
AcDbLine
 62
7
  6
CONTINUOUS
 10
11.6883324137
 20
35.496182855
 11
11.4
 21
34.3424138284
  0
LINE
  5
2B0
100
AcDbEntity
  8
0
100
AcDbLine
 62
7
  6
CONTINUOUS
 10
3.897442
 20
7.6525621002
 11
4.418024
 21
9.2057791002
  0
LINE
  5
2B1
100
AcDbEntity
  8
0
100
AcDbLine
 62
7
  6
CONTINUOUS
 10
4.3046
 20
9.5020571002
 11
3.776318
 21
7.9305951002
  0
LINE
  5
2B2
100
AcDbEntity
  8
0
100
AcDbLine
 62
7
  6
CONTINUOUS
 10
5.139566
 20
7.6525621002
 11
5.332896
 21
8.1912501002
  0
LINE
  5
2B3
100
AcDbEntity
  8
0
100
AcDbLine
 62
7
  6
CONTINUOUS
 10
5.410257
 20
8.4127101002
 11
5.709182
 21
9.2340001002
  0
LINE
  5
2B4
100
AcDbEntity
  8
0
100
AcDbLine
 62
7
  6
CONTINUOUS
 10
5.577699
 20
9.5020571002
 11
4.881894
 21
7.6525621002
  0
LINE
  5
2B5
100
AcDbEntity
  8
RACCORDO
100
AcDbLine
 62
253
  6
CONTINUOUS
 10
11.1
 20
1.8667891002
 11
11.4
 21
1.8667891002
  0
LINE
  5
2B6
100
AcDbEntity
  8
RACCORDO
100
AcDbLine
 62
253
  6
CONTINUOUS
 10
-11.1
 20
1.8667891002
 11
-11.4
 21
1.8667891002
  0
LINE
  5
2B7
100
AcDbEntity
  8
COPY-PUBBLISH
100
AcDbLine
 62
7
  6
CONTINUOUS
 10
12.45
 20
1.9167891002
 11
11.7299777285
 21
1.9167891002
  0
LINE
  5
2B8
100
AcDbEntity
  8
COPY-PUBBLISH
100
AcDbLine
 62
7
  6
CONTINUOUS
 10
-11.7299777285
 20
1.9167891002
 11
-12.45
 21
1.9167891002
  0
LINE
  5
2B9
100
AcDbEntity
  8
0
100
AcDbLine
 62
7
  6
CONTINUOUS
 10
3.268523
 20
2.3315211002
 11
3.518564
 21
2.3315211002
  0
LINE
  5
2BA
100
AcDbEntity
  8
0
100
AcDbLine
 62
7
  6
CONTINUOUS
 10
4.412936
 20
2.3315211002
 11
4.662828
 21
2.3315211002
  0
LINE
  5
2BB
100
AcDbEntity
  8
0
100
AcDbLine
 62
7
  6
CONTINUOUS
 10
5.361177
 20
2.3315211002
 11
5.618849
 21
2.3315211002
  0
LINE
  5
2BC
100
AcDbEntity
  8
0
100
AcDbLine
 62
7
  6
CONTINUOUS
 10
6.737375
 20
2.3315211002
 11
7.01046
 21
2.3315211002
  0
LINE
  5
2BD
100
AcDbEntity
  8
0
100
AcDbLine
 62
7
  6
CONTINUOUS
 10
7.239851
 20
2.3315211002
 11
8.427808
 21
2.3315211002
  0
LINE
  5
2BE
100
AcDbEntity
  8
0
100
AcDbLine
 62
7
  6
CONTINUOUS
 10
8.824791
 20
2.3315211002
 11
9.074683
 21
2.3315211002
  0
LINE
  5
2BF
100
AcDbEntity
  8
0
100
AcDbLine
 62
7
  6
CONTINUOUS
 10
8.427808
 20
2.5529811002
 11
7.489743
 21
2.5529811002
  0
LINE
  5
2C0
100
AcDbEntity
  8
0
100
AcDbLine
 62
7
  6
CONTINUOUS
 10
5.812178
 20
2.8702091002
 11
6.554371
 21
2.8702091002
  0
LINE
  5
2C1
100
AcDbEntity
  8
0
100
AcDbLine
 62
7
  6
CONTINUOUS
 10
-7.453814
 20
25.8939851002
 11
-6.249285
 21
22.0944431002
  0
LINE
  5
2C2
100
AcDbEntity
  8
0
100
AcDbLine
 62
7
  6
CONTINUOUS
 10
-5.867986
 20
23.2786431002
 11
-6.592247
 21
25.8939851002
  0
LINE
  5
2C3
100
AcDbEntity
  8
RACCORDO
100
AcDbLine
 62
7
  6
CONTINUOUS
 10
11.6856118734
 20
-37.7675898832
 11
11.4549671601
 21
-36.844659565
  0
LINE
  5
2C4
100
AcDbEntity
  8
RACCORDO
100
AcDbLine
 62
7
  6
CONTINUOUS
 10
11.4027201863
 20
-35.1355920541
 11
11.4399973864
 21
-35.2847576612
  0
LINE
  5
2C5
100
AcDbEntity
  8
0
100
AcDbLine
 62
7
  6
CONTINUOUS
 10
1.038763
 20
22.0944431002
 11
0.683463
 21
25.8939851002
  0
LINE
  5
2C6
100
AcDbEntity
  8
0
100
AcDbLine
 62
7
  6
CONTINUOUS
 10
3.129512
 20
7.6525621002
 11
3.129512
 21
9.2027861002
  0
LINE
  5
2C7
100
AcDbEntity
  8
DRAFT
100
AcDbLine
 62
7
  6
CONTINUOUS
 10
3.25
 20
-32.0308297456
 11
3.25
 21
-35.1355920541
  0
LINE
  5
2C8
100
AcDbEntity
  8
0
100
AcDbLine
 62
7
  6
CONTINUOUS
 10
3.268523
 20
4.1825131002
 11
3.268523
 21
2.3315211002
  0
LINE
  5
2C9
100
AcDbEntity
  8
RACCORDO
100
AcDbLine
 62
7
  6
CONTINUOUS
 10
3.2892709051
 20
-31.101135263
 11
3.2892709051
 21
-36.0652865366
  0
LINE
  5
2CA
100
AcDbEntity
  8
0
100
AcDbLine
 62
7
  6
CONTINUOUS
 10
3.518564
 20
2.3315211002
 11
3.518564
 21
4.1825131002
  0
LINE
  5
2CB
100
AcDbEntity
  8
0
100
AcDbLine
 62
7
  6
CONTINUOUS
 10
3.786711
 20
4.1825131002
 11
3.786711
 21
3.9610521002
  0
LINE
  5
2CC
100
AcDbEntity
  8
RACCORDO
100
AcDbLine
 62
7
  6
CONTINUOUS
 10
4.2107290949
 20
-36.0652865366
 11
4.2107290949
 21
-31.101135263
  0
LINE
  5
2CD
100
AcDbEntity
  8
DRAFT
100
AcDbLine
 62
7
  6
CONTINUOUS
 10
4.25
 20
-32.0308297456
 11
4.25
 21
-35.1355920541
  0
LINE
  5
2CE
100
AcDbEntity
  8
0
100
AcDbLine
 62
7
  6
CONTINUOUS
 10
4.412936
 20
3.9610521002
 11
4.412936
 21
2.3315211002
  0
LINE
  5
2CF
100
AcDbEntity
  8
0
100
AcDbLine
 62
7
  6
CONTINUOUS
 10
4.418024
 20
9.2057791002
 11
4.418024
 21
7.6525621002
  0
LINE
  5
2D0
100
AcDbEntity
  8
0
100
AcDbLine
 62
7
  6
CONTINUOUS
 10
4.5210141587
 20
25.8495942785
 11
4.5210141587
 21
22.0944431614
  0
LINE
  5
2D1
100
AcDbEntity
  8
0
100
AcDbLine
 62
7
  6
CONTINUOUS
 10
4.660284
 20
7.6525621002
 11
4.660284
 21
9.5020571002
  0
LINE
  5
2D2
100
AcDbEntity
  8
0
100
AcDbLine
 62
7
  6
CONTINUOUS
 10
4.662828
 20
2.3315211002
 11
4.662828
 21
3.9610521002
  0
LINE
  5
2D3
100
AcDbEntity
  8
0
100
AcDbLine
 62
7
  6
CONTINUOUS
 10
5.284638007
 20
24.2036473933
 11
5.284638007
 21
25.2466958557
  0
LINE
  5
2D4
100
AcDbEntity
  8
0
100
AcDbLine
 62
7
  6
CONTINUOUS
 10
5.289052
 20
3.9610521002
 11
5.289052
 21
4.1825131002
  0
LINE
  5
2D5
100
AcDbEntity
  8
0
100
AcDbLine
 62
7
  6
CONTINUOUS
 10
5.310936459
 20
22.0944431614
 11
5.310936459
 21
23.5813741629
  0
LINE
  5
2D6
100
AcDbEntity
  8
RACCORDO
100
AcDbLine
 62
253
  6
CONTINUOUS
 10
5.3529336756
 20
-30.3736862829
 11
5.3529336746
 21
-31.9006479246
  0
LINE
  5
2D7
100
AcDbEntity
  8
0
100
AcDbLine
 62
7
  6
CONTINUOUS
 10
5.367611
 20
6.8415371002
 11
5.367611
 21
4.9920411002
  0
LINE
  5
2D8
100
AcDbEntity
  8
0
100
AcDbLine
 62
7
  6
CONTINUOUS
 10
5.617652
 20
4.9920411002
 11
5.617652
 21
6.8415371002
  0
LINE
  5
2D9
100
AcDbEntity
  8
RACCORDO
100
AcDbLine
 62
7
  6
CONTINUOUS
 10
-4.25
 20
-32.0308297456
 11
-4.2174669385
 21
-31.9006479246
  0
LINE
  5
2DA
100
AcDbEntity
  8
RACCORDO
100
AcDbLine
 62
7
  6
CONTINUOUS
 10
-3.25
 20
-35.1355920541
 11
-3.2825330615
 21
-35.265773875
  0
LINE
  5
2DB
100
AcDbEntity
  8
0
100
AcDbLine
 62
7
  6
CONTINUOUS
 10
5.618849
 20
2.3315211002
 11
5.812178
 21
2.8702091002
  0
LINE
  5
2DC
100
AcDbEntity
  8
0
100
AcDbLine
 62
7
  6
CONTINUOUS
 10
5.88939
 20
3.0916691002
 11
6.188466
 21
3.9129571002
  0
LINE
  5
2DD
100
AcDbEntity
  8
0
100
AcDbLine
 62
7
  6
CONTINUOUS
 10
6.056982
 20
4.1825131002
 11
5.361177
 21
2.3315211002
  0
LINE
  5
2DE
100
AcDbEntity
  8
0
100
AcDbLine
 62
7
  6
CONTINUOUS
 10
6.464141
 20
3.0916691002
 11
5.88939
 21
3.0916691002
  0
LINE
  5
2DF
100
AcDbEntity
  8
0
100
AcDbLine
 62
7
  6
CONTINUOUS
 10
3.786711
 20
3.9610521002
 11
4.412936
 21
3.9610521002
  0
LINE
  5
2E0
100
AcDbEntity
  8
0
100
AcDbLine
 62
7
  6
CONTINUOUS
 10
4.662828
 20
3.9610521002
 11
5.289052
 21
3.9610521002
  0
LINE
  5
2E1
100
AcDbEntity
  8
0
100
AcDbLine
 62
7
  6
CONTINUOUS
 10
9.773032
 20
4.1825131002
 11
9.479297
 21
4.1825131002
  0
LINE
  5
2E2
100
AcDbEntity
  8
0
100
AcDbLine
 62
7
  6
CONTINUOUS
 10
8.417483
 20
4.1825131002
 11
8.126293
 21
4.1825131002
  0
LINE
  5
2E3
100
AcDbEntity
  8
0
100
AcDbLine
 62
7
  6
CONTINUOUS
 10
7.489743
 20
4.1825131002
 11
7.239851
 21
4.1825131002
  0
LINE
  5
2E4
100
AcDbEntity
  8
0
100
AcDbLine
 62
7
  6
CONTINUOUS
 10
6.340392
 20
4.1825131002
 11
6.056982
 21
4.1825131002
  0
LINE
  5
2E5
100
AcDbEntity
  8
0
100
AcDbLine
 62
7
  6
CONTINUOUS
 10
5.289052
 20
4.1825131002
 11
3.786711
 21
4.1825131002
  0
LINE
  5
2E6
100
AcDbEntity
  8
0
100
AcDbLine
 62
7
  6
CONTINUOUS
 10
3.518564
 20
4.1825131002
 11
3.268523
 21
4.1825131002
  0
LINE
  5
2E7
100
AcDbEntity
  8
0
100
AcDbLine
 62
7
  6
CONTINUOUS
 10
5.367611
 20
4.9920411002
 11
5.617652
 21
4.9920411002
  0
LINE
  5
2E8
100
AcDbEntity
  8
0
100
AcDbLine
 62
7
  6
CONTINUOUS
 10
6.045311
 20
4.9920411002
 11
6.28772
 21
4.9920411002
  0
LINE
  5
2E9
100
AcDbEntity
  8
0
100
AcDbLine
 62
7
  6
CONTINUOUS
 10
7.233417
 20
4.9920411002
 11
7.514283
 21
4.9920411002
  0
LINE
  5
2EA
100
AcDbEntity
  8
ASSI
100
AcDbLine
 62
7
  6
CONTINUOUS
 10
-5.345853
 20
5.5792881002
 11
-4.031402
 21
5.5792881002
  0
LINE
  5
2EB
100
AcDbEntity
  8
DRAFT
100
AcDbLine
 62
7
  6
CONTINUOUS
 10
11.5990747116
 20
-23.6546455269
 11
11.604204484
 21
-23.6751724334
  0
LINE
  5
2EC
100
AcDbEntity
  8
DRAFT
100
AcDbLine
 62
7
  6
CONTINUOUS
 10
11.4
 20
-22.508835628
 11
11.6863433895
 21
-23.6546455269
  0
LINE
  5
2ED
100
AcDbEntity
  8
0
100
AcDbLine
 62
7
  6
CONTINUOUS
 10
6.045311
 20
6.8415371002
 11
6.045311
 21
4.9920411002
  0
LINE
  5
2EE
100
AcDbEntity
  8
0
100
AcDbLine
 62
7
  6
CONTINUOUS
 10
6.28772
 20
4.9920411002
 11
6.28772
 21
6.4949861002
  0
LINE
  5
2EF
100
AcDbEntity
  8
0
100
AcDbLine
 62
7
  6
CONTINUOUS
 10
6.773437
 20
9.5020571002
 11
6.773437
 21
7.6525621002
  0
LINE
  5
2F0
100
AcDbEntity
  8
0
100
AcDbLine
 62
7
  6
CONTINUOUS
 10
7.023329
 20
7.8665411002
 11
7.023329
 21
9.2880791002
  0
LINE
  5
2F1
100
AcDbEntity
  8
0
100
AcDbLine
 62
7
  6
CONTINUOUS
 10
7.239851
 20
4.1825131002
 11
7.239851
 21
2.3315211002
  0
LINE
  5
2F2
100
AcDbEntity
  8
0
100
AcDbLine
 62
7
  6
CONTINUOUS
 10
7.272173
 20
6.8415371002
 11
7.272173
 21
5.3397201002
  0
LINE
  5
2F3
100
AcDbEntity
  8
0
100
AcDbLine
 62
7
  6
CONTINUOUS
 10
7.489743
 20
2.5529811002
 11
7.489743
 21
4.1825131002
  0
LINE
  5
2F4
100
AcDbEntity
  8
0
100
AcDbLine
 62
7
  6
CONTINUOUS
 10
7.514283
 20
4.9920411002
 11
7.514283
 21
6.8415371002
  0
LINE
  5
2F5
100
AcDbEntity
  8
RACCORDO
100
AcDbLine
 62
253
  6
CONTINUOUS
 10
8.3511061566
 20
-30.2725801262
 11
8.3511173656
 21
-30.9730562556
  0
LINE
  5
2F6
100
AcDbEntity
  8
0
100
AcDbLine
 62
7
  6
CONTINUOUS
 10
9.479297
 20
4.1825131002
 11
8.94839
 21
3.2936771002
  0
LINE
  5
2F7
100
AcDbEntity
  8
0
100
AcDbLine
 62
7
  6
CONTINUOUS
 10
9.074683
 20
3.0767061002
 11
9.773032
 21
4.1825131002
  0
LINE
  5
2F8
100
AcDbEntity
  8
ASSI
100
AcDbLine
 62
7
  6
CONTINUOUS
 10
-4.031402
 20
6.2542881002
 11
-5.3458557008
 21
6.2542881002
  0
LINE
  5
2F9
100
AcDbEntity
  8
0
100
AcDbLine
 62
7
  6
CONTINUOUS
 10
7.514283
 20
6.8415371002
 11
7.272173
 21
6.8415371002
  0
LINE
  5
2FA
100
AcDbEntity
  8
0
100
AcDbLine
 62
7
  6
CONTINUOUS
 10
6.341739
 20
6.8415371002
 11
6.045311
 21
6.8415371002
  0
LINE
  5
2FB
100
AcDbEntity
  8
0
100
AcDbLine
 62
7
  6
CONTINUOUS
 10
5.617652
 20
6.8415371002
 11
5.367611
 21
6.8415371002
  0
LINE
  5
2FC
100
AcDbEntity
  8
0
100
AcDbLine
 62
7
  6
CONTINUOUS
 10
2.887252
 20
7.6525621002
 11
3.129512
 21
7.6525621002
  0
LINE
  5
2FD
100
AcDbEntity
  8
0
100
AcDbLine
 62
7
  6
CONTINUOUS
 10
3.650094
 20
7.6525621002
 11
3.897442
 21
7.6525621002
  0
LINE
  5
2FE
100
AcDbEntity
  8
0
100
AcDbLine
 62
7
  6
CONTINUOUS
 10
4.418024
 20
7.6525621002
 11
4.660284
 21
7.6525621002
  0
LINE
  5
2FF
100
AcDbEntity
  8
0
100
AcDbLine
 62
7
  6
CONTINUOUS
 10
4.881894
 20
7.6525621002
 11
5.139566
 21
7.6525621002
  0
LINE
  5
300
100
AcDbEntity
  8
0
100
AcDbLine
 62
7
  6
CONTINUOUS
 10
6.258092
 20
7.6525621002
 11
6.531177
 21
7.6525621002
  0
LINE
  5
301
100
AcDbEntity
  8
0
100
AcDbLine
 62
7
  6
CONTINUOUS
 10
6.773437
 20
7.6525621002
 11
7.5232623157
 21
7.6525621002
  0
LINE
  5
302
100
AcDbEntity
  8
0
100
AcDbLine
 62
7
  6
CONTINUOUS
 10
8.646875
 20
7.6525621002
 11
10.012748
 21
7.6525621002
  0
LINE
  5
303
100
AcDbEntity
  8
0
100
AcDbLine
 62
7
  6
CONTINUOUS
 10
7.489744396
 20
7.8665411002
 11
7.023329
 21
7.8665411002
  0
LINE
  5
304
100
AcDbEntity
  8
0
100
AcDbLine
 62
7
  6
CONTINUOUS
 10
10.012748
 20
7.8740221002
 11
8.896916
 21
7.8740221002
  0
LINE
  5
305
100
AcDbEntity
  8
0
100
AcDbLine
 62
7
  6
CONTINUOUS
 10
5.332896
 20
8.1912501002
 11
6.075088
 21
8.1912501002
  0
LINE
  5
306
100
AcDbEntity
  8
0
100
AcDbLine
 62
7
  6
CONTINUOUS
 10
-1.884725
 20
24.5754731002
 11
-0.954306
 21
22.0944431002
  0
LINE
  5
307
100
AcDbEntity
  8
0
100
AcDbLine
 62
7
  6
CONTINUOUS
 10
-0.894359
 20
23.7844681002
 11
-1.679095
 21
25.8939851002
  0
LINE
  5
308
100
AcDbEntity
  8
0
100
AcDbLine
 62
7
  6
CONTINUOUS
 10
7.01046
 20
2.3315211002
 11
6.340392
 21
4.1825131002
  0
LINE
  5
309
100
AcDbEntity
  8
0
100
AcDbLine
 62
7
  6
CONTINUOUS
 10
6.554371
 20
2.8702091002
 11
6.737375
 21
2.3315211002
  0
LINE
  5
30A
100
AcDbEntity
  8
0
100
AcDbLine
 62
7
  6
CONTINUOUS
 10
3.776318
 20
7.9305951002
 11
3.245479
 21
9.5020571002
  0
LINE
  5
30B
100
AcDbEntity
  8
0
100
AcDbLine
 62
7
  6
CONTINUOUS
 10
3.129512
 20
9.2027861002
 11
3.650094
 21
7.6525621002
  0
LINE
  5
30C
100
AcDbEntity
  8
0
100
AcDbLine
 62
7
  6
CONTINUOUS
 10
6.188466
 20
3.9129571002
 11
6.464141
 21
3.0916691002
  0
LINE
  5
30D
100
AcDbEntity
  8
0
100
AcDbLine
 62
7
  6
CONTINUOUS
 10
5.709182
 20
9.2340001002
 11
5.984858
 21
8.4127101002
  0
LINE
  5
30E
100
AcDbEntity
  8
0
100
AcDbLine
 62
7
  6
CONTINUOUS
 10
8.427808
 20
2.3315211002
 11
8.427808
 21
2.5529811002
  0
LINE
  5
30F
100
AcDbEntity
  8
0
100
AcDbLine
 62
7
  6
CONTINUOUS
 10
8.646875
 20
9.5020571002
 11
8.646875
 21
7.6525621002
  0
LINE
  5
310
100
AcDbEntity
  8
0
100
AcDbLine
 62
7
  6
CONTINUOUS
 10
8.824791
 20
3.0767061002
 11
8.824791
 21
2.3315211002
  0
LINE
  5
311
100
AcDbEntity
  8
0
100
AcDbLine
 62
7
  6
CONTINUOUS
 10
8.896916
 20
7.8740221002
 11
8.896916
 21
8.4920171002
  0
LINE
  5
312
100
AcDbEntity
  8
0
100
AcDbLine
 62
7
  6
CONTINUOUS
 10
8.896916
 20
8.7134781002
 11
8.896916
 21
9.2805971002
  0
LINE
  5
313
100
AcDbEntity
  8
DRAFT
100
AcDbLine
 62
7
  6
CONTINUOUS
 10
9.007780698
 20
-25.4346446791
 11
9.007780698
 21
-29.6159055849
  0
LINE
  5
314
100
AcDbEntity
  8
RACCORDO
100
AcDbLine
 62
253
  6
CONTINUOUS
 10
9.0332002104
 20
-29.132146881
 11
9.0332002104
 21
-27.0832108998
  0
LINE
  5
315
100
AcDbEntity
  8
0
100
AcDbLine
 62
7
  6
CONTINUOUS
 10
9.074683
 20
2.3315211002
 11
9.074683
 21
3.0767061002
  0
LINE
  5
316
100
AcDbEntity
  8
RACCORDO
100
AcDbLine
 62
253
  6
CONTINUOUS
 10
9.2357406735
 20
36.6667891002
 11
9.2357406735
 21
37.496182855
  0
LINE
  5
317
100
AcDbEntity
  8
RACCORDO
100
AcDbLine
 62
253
  6
CONTINUOUS
 10
9.8327128721
 20
-29.132146881
 11
9.8327128721
 21
-27.0832108998
  0
LINE
  5
318
100
AcDbEntity
  8
0
100
AcDbLine
 62
7
  6
CONTINUOUS
 10
9.909649
 20
8.4920171002
 11
9.909649
 21
8.7134781002
  0
LINE
  5
319
100
AcDbEntity
  8
RACCORDO
100
AcDbLine
 62
253
  6
CONTINUOUS
 10
9.9550242755
 20
-36.7927355168
 11
9.9550242755
 21
-35.265773875
  0
LINE
  5
31A
100
AcDbEntity
  8
0
100
AcDbLine
 62
7
  6
CONTINUOUS
 10
9.994642
 20
9.2805971002
 11
9.994642
 21
9.5020571002
  0
LINE
  5
31B
100
AcDbEntity
  8
0
100
AcDbLine
 62
7
  6
CONTINUOUS
 10
10.012748
 20
7.6525621002
 11
10.012748
 21
7.8740221002
  0
LINE
  5
31C
100
AcDbEntity
  8
RACCORDO
100
AcDbLine
 62
253
  6
CONTINUOUS
 10
10.0352533351
 20
36.6667891002
 11
10.0352533351
 21
37.5231444968
  0
LINE
  5
31D
100
AcDbEntity
  8
RACCORDO
100
AcDbLine
 62
7
  6
CONTINUOUS
 10
3.25
 20
-32.0308297456
 11
3.2825330615
 21
-31.9006479246
  0
LINE
  5
31E
100
AcDbEntity
  8
RACCORDO
100
AcDbLine
 62
7
  6
CONTINUOUS
 10
-11.6862331447
 20
-37.7685566305
 11
-11.6856118734
 21
-37.7675898832
  0
LINE
  5
31F
100
AcDbEntity
  8
0
100
AcDbLine
 62
7
  6
CONTINUOUS
 10
5.984858
 20
8.4127101002
 11
5.410257
 21
8.4127101002
  0
LINE
  5
320
100
AcDbEntity
  8
0
100
AcDbLine
 62
7
  6
CONTINUOUS
 10
8.896916
 20
8.4920171002
 11
9.909649
 21
8.4920171002
  0
LINE
  5
321
100
AcDbEntity
  8
0
100
AcDbLine
 62
7
  6
CONTINUOUS
 10
9.909649
 20
8.7134781002
 11
8.896916
 21
8.7134781002
  0
LINE
  5
322
100
AcDbEntity
  8
0
100
AcDbLine
 62
7
  6
CONTINUOUS
 10
8.896916
 20
9.2805971002
 11
9.994642
 21
9.2805971002
  0
LINE
  5
323
100
AcDbEntity
  8
0
100
AcDbLine
 62
7
  6
CONTINUOUS
 10
7.023329
 20
9.2880791002
 11
7.4897410383
 21
9.2880791002
  0
LINE
  5
324
100
AcDbEntity
  8
0
100
AcDbLine
 62
7
  6
CONTINUOUS
 10
9.994642
 20
9.5020571002
 11
8.646875
 21
9.5020571002
  0
LINE
  5
325
100
AcDbEntity
  8
0
100
AcDbLine
 62
7
  6
CONTINUOUS
 10
7.5232624573
 20
9.5020571002
 11
6.773437
 21
9.5020571002
  0
LINE
  5
326
100
AcDbEntity
  8
0
100
AcDbLine
 62
7
  6
CONTINUOUS
 10
5.861109
 20
9.5020571002
 11
5.577699
 21
9.5020571002
  0
LINE
  5
327
100
AcDbEntity
  8
0
100
AcDbLine
 62
7
  6
CONTINUOUS
 10
4.660284
 20
9.5020571002
 11
4.3046
 21
9.5020571002
  0
LINE
  5
328
100
AcDbEntity
  8
0
100
AcDbLine
 62
7
  6
CONTINUOUS
 10
3.245479
 20
9.5020571002
 11
2.887252
 21
9.5020571002
  0
LINE
  5
329
100
AcDbEntity
  8
COPY-PUBBLISH
100
AcDbLine
 62
7
  6
CONTINUOUS
 10
12.45
 20
9.9167891002
 11
11.7299777285
 21
9.9167891002
  0
LINE
  5
32A
100
AcDbEntity
  8
COPY-PUBBLISH
100
AcDbLine
 62
7
  6
CONTINUOUS
 10
-11.7299777285
 20
9.9167891002
 11
-12.45
 21
9.9167891002
  0
LINE
  5
32B
100
AcDbEntity
  8
RACCORDO
100
AcDbLine
 62
253
  6
CONTINUOUS
 10
11.1
 20
9.9667891002
 11
11.4
 21
9.9667891002
  0
LINE
  5
32C
100
AcDbEntity
  8
RACCORDO
100
AcDbLine
 62
253
  6
CONTINUOUS
 10
-11.1
 20
9.9667891002
 11
-11.4
 21
9.9667891002
  0
LINE
  5
32D
100
AcDbEntity
  8
0
100
AcDbLine
 62
7
  6
CONTINUOUS
 10
8.126293
 20
4.1825131002
 11
8.824791
 21
3.0767061002
  0
LINE
  5
32E
100
AcDbEntity
  8
0
100
AcDbLine
 62
7
  6
CONTINUOUS
 10
6.28772
 20
6.4949861002
 11
7.233417
 21
4.9920411002
  0
LINE
  5
32F
100
AcDbEntity
  8
0
100
AcDbLine
 62
7
  6
CONTINUOUS
 10
7.272173
 20
5.3397201002
 11
6.341739
 21
6.8415371002
  0
LINE
  5
330
100
AcDbEntity
  8
0
100
AcDbLine
 62
7
  6
CONTINUOUS
 10
8.94839
 20
3.2936771002
 11
8.417483
 21
4.1825131002
  0
LINE
  5
331
100
AcDbEntity
  8
0
100
AcDbLine
 62
7
  6
CONTINUOUS
 10
6.531177
 20
7.6525621002
 11
5.861109
 21
9.5020571002
  0
LINE
  5
332
100
AcDbEntity
  8
0
100
AcDbLine
 62
7
  6
CONTINUOUS
 10
6.075088
 20
8.1912501002
 11
6.258092
 21
7.6525621002
  0
LINE
  5
333
100
AcDbEntity
  8
0
100
AcDbLine
 62
7
  6
CONTINUOUS
 10
4.288118
 20
22.0944431002
 11
3.122324
 21
25.8939851002
  0
LINE
  5
334
100
AcDbEntity
  8
0
100
AcDbLine
 62
7
  6
CONTINUOUS
 10
3.24675
 20
22.8529671002
 11
3.452209
 21
22.0944431002
  0
LINE
  5
335
100
AcDbEntity
  8
0
100
AcDbLine
 62
7
  6
CONTINUOUS
 10
2.723801
 20
24.8499681002
 11
3.088247
 21
23.4399091002
  0
LINE
  5
336
100
AcDbEntity
  8
DRAFT
100
AcDbLine
 62
7
  6
CONTINUOUS
 10
11.7343411624
 20
-9.9832108998
 11
11.7561583319
 21
-11.4265865728
  0
LINE
  5
337
100
AcDbEntity
  8
DRAFT
100
AcDbLine
 62
7
  6
CONTINUOUS
 10
11.7244744706
 20
21.8167891002
 11
11.7212508607
 21
23.4167891002
  0
LINE
  5
338
100
AcDbEntity
  8
RACCORDO
100
AcDbLine
 62
253
  6
CONTINUOUS
 10
11.1000000005
 20
-24.8332108998
 11
11.1
 21
1.8667891002
  0
LINE
  5
339
100
AcDbEntity
  8
RACCORDO
100
AcDbLine
 62
253
  6
CONTINUOUS
 10
11.1
 20
9.9667891002
 11
11.1
 21
36.6667891002
  0
LINE
  5
33A
100
AcDbEntity
  8
RACCORDO
100
AcDbLine
 62
7
  6
CONTINUOUS
 10
11.4
 20
-24.5332108998
 11
11.4
 21
1.8667891002
  0
LINE
  5
33B
100
AcDbEntity
  8
RACCORDO
100
AcDbLine
 62
7
  6
CONTINUOUS
 10
11.4
 20
9.9667891002
 11
11.4
 21
36.3667891002
  0
LINE
  5
33C
100
AcDbEntity
  8
DRAFT
100
AcDbLine
 62
7
  6
CONTINUOUS
 10
11.4027201863
 20
-32.0308297456
 11
11.4027201863
 21
-35.1355920541
  0
LINE
  5
33D
100
AcDbEntity
  8
DRAFT
100
AcDbLine
 62
7
  6
CONTINUOUS
 10
11.417209827
 20
1.8667891002
 11
11.417209827
 21
1.9613043117
  0
LINE
  5
33E
100
AcDbEntity
  8
DRAFT
100
AcDbLine
 62
7
  6
CONTINUOUS
 10
11.417209827
 20
9.8722738886
 11
11.417209827
 21
9.9667891002
  0
LINE
  5
33F
100
AcDbEntity
  8
DRAFT
100
AcDbLine
 62
7
  6
CONTINUOUS
 10
11.4289007897
 20
-16.7996457923
 11
11.4289007897
 21
-17.6919377676
  0
LINE
  5
340
100
AcDbEntity
  8
DRAFT
100
AcDbLine
 62
7
  6
CONTINUOUS
 10
11.4289007897
 20
-18.7422967472
 11
11.4289007897
 21
-19.8832108998
  0
LINE
  5
341
100
AcDbEntity
  8
DRAFT
100
AcDbLine
 62
7
  6
CONTINUOUS
 10
11.4289007897
 20
28.6332239926
 11
11.4289007897
 21
29.525515968
  0
LINE
  5
342
100
AcDbEntity
  8
DRAFT
100
AcDbLine
 62
7
  6
CONTINUOUS
 10
11.4289007897
 20
30.5758749476
 11
11.4289007897
 21
31.7167891002
  0
LINE
  5
343
100
AcDbEntity
  8
RACCORDO
100
AcDbLine
 62
253
  6
CONTINUOUS
 10
11.4549689865
 20
-36.1450642048
 11
11.4549671601
 21
-36.844659565
  0
LINE
  5
344
100
AcDbEntity
  8
DRAFT
100
AcDbLine
 62
7
  6
CONTINUOUS
 10
11.6078015794
 20
-25.5832108998
 11
11.6078015794
 21
-23.6895662964
  0
LINE
  5
345
100
AcDbEntity
  8
DRAFT
100
AcDbLine
 62
7
  6
CONTINUOUS
 10
11.6327474072
 20
16.2167891002
 11
11.6327474072
 21
9.6667891002
  0
LINE
  5
346
100
AcDbEntity
  8
DRAFT
100
AcDbLine
 62
7
  6
CONTINUOUS
 10
11.6327474072
 20
2.1667891002
 11
11.6327474072
 21
-4.3832108998
  0
LINE
  5
347
100
AcDbEntity
  8
RACCORDO
100
AcDbLine
 62
7
  6
CONTINUOUS
 10
11.6444544241
 20
-29.132146881
 11
11.6444544241
 21
-27.0832108998
  0
LINE
  5
348
100
AcDbEntity
  8
RACCORDO
100
AcDbLine
 62
7
  6
CONTINUOUS
 10
11.6531812919
 20
-27.9753081905
 11
11.6531812919
 21
-27.0832108998
  0
LINE
  5
349
100
AcDbEntity
  8
COPY-PUBBLISH
100
AcDbLine
 62
7
  6
CONTINUOUS
 10
11.6863433895
 20
-23.6546455269
 11
11.6863433895
 21
-10.2832108998
  0
LINE
  5
34A
100
AcDbEntity
  8
RACCORDO
100
AcDbLine
 62
7
  6
CONTINUOUS
 10
11.6950702573
 20
36.2956955166
 11
11.6950702573
 21
37.5231444968
  0
LINE
  5
34B
100
AcDbEntity
  8
RACCORDO
100
AcDbLine
 62
253
  6
CONTINUOUS
 10
11.7
 20
2.4667891002
 11
11.7
 21
2.1667891002
  0
LINE
  5
34C
100
AcDbEntity
  8
RACCORDO
100
AcDbLine
 62
253
  6
CONTINUOUS
 10
11.7
 20
9.3667891002
 11
11.7
 21
9.6667891002
  0
LINE
  5
34D
100
AcDbEntity
  8
COPY-PUBBLISH
100
AcDbLine
 62
7
  6
CONTINUOUS
 10
11.7037971251
 20
-27.2695024008
 11
11.7037971251
 21
-11.8832108998
  0
LINE
  5
34E
100
AcDbEntity
  8
COPY-PUBBLISH
100
AcDbLine
 62
7
  6
CONTINUOUS
 10
11.7125239929
 20
9.6167891002
 11
11.7125239929
 21
2.2167891002
  0
LINE
  5
34F
100
AcDbEntity
  8
COPY-PUBBLISH
100
AcDbLine
 62
7
  6
CONTINUOUS
 10
11.7125239929
 20
-9.9832108998
 11
11.7125239929
 21
-0.3832108998
  0
LINE
  5
350
100
AcDbEntity
  8
COPY-PUBBLISH
100
AcDbLine
 62
7
  6
CONTINUOUS
 10
11.7125239929
 20
12.2167891002
 11
11.7125239929
 21
23.4167891002
  0
LINE
  5
351
100
AcDbEntity
  8
COPY-PUBBLISH
100
AcDbLine
 62
7
  6
CONTINUOUS
 10
11.723638871
 20
1.9167891002
 11
11.723638871
 21
9.9167891002
  0
LINE
  5
352
100
AcDbEntity
  8
COPY-PUBBLISH
100
AcDbLine
 62
7
  6
CONTINUOUS
 10
11.7299777285
 20
0.2167891002
 11
11.7299777285
 21
1.9167891002
  0
LINE
  5
353
100
AcDbEntity
  8
COPY-PUBBLISH
100
AcDbLine
 62
7
  6
CONTINUOUS
 10
11.7299777285
 20
9.9167891002
 11
11.7299777285
 21
11.6167891002
  0
LINE
  5
354
100
AcDbEntity
  8
DRAFT
100
AcDbLine
 62
7
  6
CONTINUOUS
 10
11.7561583319
 20
37.7675898832
 11
11.7561583319
 21
21.8167891002
  0
LINE
  5
355
100
AcDbEntity
  8
RACCORDO
100
AcDbLine
 62
7
  6
CONTINUOUS
 10
11.7561583319
 20
-11.4265865728
 11
11.7561583319
 21
-29.7547837751
  0
LINE
  5
356
100
AcDbEntity
  8
COPY-PUBBLISH
100
AcDbLine
 62
7
  6
CONTINUOUS
 10
12.45
 20
1.9167891002
 11
12.45
 21
9.9167891002
  0
LINE
  5
357
100
AcDbEntity
  8
RACCORDO
100
AcDbLine
 62
7
  6
CONTINUOUS
 10
13.25
 20
-11.4265865728
 11
13.25
 21
-37.7685567176
  0
LINE
  5
358
100
AcDbEntity
  8
COPY-PUBBLISH
100
AcDbLine
 62
7
  6
CONTINUOUS
 10
13.25
 20
-11.4265865728
 11
13.25
 21
37.7675898832
  0
LINE
  5
359
100
AcDbEntity
  8
DRAFT
100
AcDbLine
 62
7
  6
CONTINUOUS
 10
11.7244744706
 20
-9.9832108998
 11
11.7212508607
 21
-11.5832108998
  0
LINE
  5
35A
100
AcDbEntity
  8
RACCORDO
100
AcDbLine
 62
7
  6
CONTINUOUS
 10
11.6986850443
 20
-28.6837159632
 11
11.6975530568
 21
-28.8134288859
  0
LINE
  5
35B
100
AcDbEntity
  8
RACCORDO
100
AcDbLine
 62
7
  6
CONTINUOUS
 10
11.6985626548
 20
-37.1830217916
 11
11.7510462511
 21
-31.1689973374
  0
LINE
  5
35C
100
AcDbEntity
  8
RACCORDO
100
AcDbLine
 62
7
  6
CONTINUOUS
 10
4.25
 20
-35.1355920541
 11
4.2174669385
 21
-35.265773875
  0
LINE
  5
35D
100
AcDbEntity
  8
RACCORDO
100
AcDbLine
 62
7
  6
CONTINUOUS
 10
-9.007780698
 20
-25.4346446791
 11
-8.4063469186
 21
-24.8332108998
  0
LINE
  5
35E
100
AcDbEntity
  8
COPY-PUBBLISH
100
AcDbLine
 62
253
  6
CONTINUOUS
 10
-13.25
 20
11.6167891002
 11
-11.7299777285
 21
11.6167891002
  0
LINE
  5
35F
100
AcDbEntity
  8
COPY-PUBBLISH
100
AcDbLine
 62
253
  6
CONTINUOUS
 10
11.7299777285
 20
11.6167891002
 11
13.25
 21
11.6167891002
  0
LINE
  5
360
100
AcDbEntity
  8
COPY-PUBBLISH
100
AcDbLine
 62
7
  6
CONTINUOUS
 10
-13.25
 20
11.9167891002
 11
-11.7273596682
 21
11.9167891002
  0
LINE
  5
361
100
AcDbEntity
  8
COPY-PUBBLISH
100
AcDbLine
 62
7
  6
CONTINUOUS
 10
11.7273596682
 20
11.9167891002
 11
13.25
 21
11.9167891002
  0
LINE
  5
362
100
AcDbEntity
  8
COPY-PUBBLISH
100
AcDbLine
 62
253
  6
CONTINUOUS
 10
13.25
 20
12.2167891002
 11
11.7125239929
 21
12.2167891002
  0
LINE
  5
363
100
AcDbEntity
  8
COPY-PUBBLISH
100
AcDbLine
 62
253
  6
CONTINUOUS
 10
-11.7125239929
 20
12.2167891002
 11
-13.25
 21
12.2167891002
  0
LINE
  5
364
100
AcDbEntity
  8
COPY-PUBBLISH
100
AcDbLine
 62
253
  6
CONTINUOUS
 10
-11.6327474072
 20
16.2167891002
 11
-11.417209827
 21
16.2167891002
  0
LINE
  5
365
100
AcDbEntity
  8
COPY-PUBBLISH
100
AcDbLine
 62
253
  6
CONTINUOUS
 10
11.6327474072
 20
16.2167891002
 11
11.417209827
 21
16.2167891002
  0
LINE
  5
366
100
AcDbEntity
  8
RACCORDO
100
AcDbLine
 62
7
  6
CONTINUOUS
 10
11.6858205286
 20
-29.3979969776
 11
11.6667284386
 21
-29.474394431
  0
LINE
  5
367
100
AcDbEntity
  8
RACCORDO
100
AcDbLine
 62
7
  6
CONTINUOUS
 10
11.4027201863
 20
-32.0308297456
 11
11.6276098151
 21
-31.1309285351
  0
LINE
  5
368
100
AcDbEntity
  8
RACCORDO
100
AcDbLine
 62
7
  6
CONTINUOUS
 10
-9.2357406735
 20
37.496182855
 11
-8.4063469186
 21
36.6667891002
  0
LINE
  5
369
100
AcDbEntity
  8
DRAFT
100
AcDbLine
 62
7
  6
CONTINUOUS
 10
11.4768985626
 20
23.0616628251
 11
11.57289411
 21
23.0700613473
  0
LINE
  5
36A
100
AcDbEntity
  8
COPY-PUBBLISH
100
AcDbLine
 62
7
  6
CONTINUOUS
 10
13.25
 20
21.8167891002
 11
11.7561583319
 21
21.8167891002
  0
LINE
  5
36B
100
AcDbEntity
  8
DRAFT
100
AcDbLine
 62
7
  6
CONTINUOUS
 10
11.7244744706
 20
21.8167891002
 11
11.7561583319
 21
21.8167891002
  0
LINE
  5
36C
100
AcDbEntity
  8
DRAFT
100
AcDbLine
 62
7
  6
CONTINUOUS
 10
-11.7244744706
 20
21.8167891002
 11
-11.7561583319
 21
21.8167891002
  0
LINE
  5
36D
100
AcDbEntity
  8
COPY-PUBBLISH
100
AcDbLine
 62
7
  6
CONTINUOUS
 10
-11.7561583319
 20
21.8167891002
 11
-13.25
 21
21.8167891002
  0
LINE
  5
36E
100
AcDbEntity
  8
0
100
AcDbLine
 62
7
  6
CONTINUOUS
 10
-6.249285
 20
22.0944431002
 11
-5.550353
 21
22.0944431002
  0
LINE
  5
36F
100
AcDbEntity
  8
0
100
AcDbLine
 62
7
  6
CONTINUOUS
 10
-4.034701
 20
22.0944431002
 11
-3.241588
 21
22.0944431002
  0
LINE
  5
370
100
AcDbEntity
  8
0
100
AcDbLine
 62
7
  6
CONTINUOUS
 10
-2.81463
 20
22.0944431002
 11
-2.055878
 21
22.0944431002
  0
LINE
  5
371
100
AcDbEntity
  8
0
100
AcDbLine
 62
7
  6
CONTINUOUS
 10
-0.954306
 20
22.0944431002
 11
-0.843072
 21
22.0944431002
  0
LINE
  5
372
100
AcDbEntity
  8
0
100
AcDbLine
 62
7
  6
CONTINUOUS
 10
0.262887
 20
22.0944431002
 11
1.038763
 21
22.0944431002
  0
LINE
  5
373
100
AcDbEntity
  8
0
100
AcDbLine
 62
7
  6
CONTINUOUS
 10
1.163303
 20
22.0944431002
 11
1.947812
 21
22.0944431002
  0
LINE
  5
374
100
AcDbEntity
  8
0
100
AcDbLine
 62
7
  6
CONTINUOUS
 10
3.452209
 20
22.0944431002
 11
4.288118
 21
22.0944431002
  0
LINE
  5
375
100
AcDbEntity
  8
0
100
AcDbLine
 62
7
  6
CONTINUOUS
 10
4.5210141587
 20
22.0944431614
 11
5.310936459
 21
22.0944431614
  0
LINE
  5
376
100
AcDbEntity
  8
0
100
AcDbLine
 62
7
  6
CONTINUOUS
 10
6.5254804604
 20
22.0944431614
 11
7.2883635073
 21
22.0944431614
  0
LINE
  5
377
100
AcDbEntity
  8
0
100
AcDbLine
 62
7
  6
CONTINUOUS
 10
2.166662
 20
22.8529671002
 11
3.24675
 21
22.8529671002
  0
LINE
  5
378
100
AcDbEntity
  8
DRAFT
100
AcDbLine
 62
7
  6
CONTINUOUS
 10
-11.7212508607
 20
23.4167891002
 11
-11.7125239929
 21
23.4167891002
  0
LINE
  5
379
100
AcDbEntity
  8
DRAFT
100
AcDbLine
 62
7
  6
CONTINUOUS
 10
11.7212508607
 20
23.4167891002
 11
11.7125239929
 21
23.4167891002
  0
LINE
  5
37A
100
AcDbEntity
  8
0
100
AcDbLine
 62
7
  6
CONTINUOUS
 10
3.088247
 20
23.4399091002
 11
2.328897
 21
23.4399091002
  0
LINE
  5
37B
100
AcDbEntity
  8
0
100
AcDbLine
 62
7
  6
CONTINUOUS
 10
5.310936459
 20
23.5813741629
 11
5.7361849921
 21
23.5813741629
  0
LINE
  5
37C
100
AcDbEntity
  8
0
100
AcDbLine
 62
7
  6
CONTINUOUS
 10
5.737894534
 20
24.2036473933
 11
5.284638007
 21
24.2036473933
  0
LINE
  5
37D
100
AcDbEntity
  8
DRAFT
100
AcDbLine
 62
7
  6
CONTINUOUS
 10
-11.5728941083
 20
23.0700613471
 11
-11.4768985626
 21
23.0616628251
  0
LINE
  5
37E
100
AcDbEntity
  8
RACCORDO
100
AcDbLine
 62
7
  6
CONTINUOUS
 10
11.6667284386
 20
-29.474394431
 11
11.6662629
 21
-29.4751325492
  0
LINE
  5
37F
100
AcDbEntity
  8
0
100
AcDbLine
 62
7
  6
CONTINUOUS
 10
3.122324
 20
25.8939851002
 11
2.355082
 21
25.8939851002
  0
LINE
  5
380
100
AcDbEntity
  8
0
100
AcDbLine
 62
7
  6
CONTINUOUS
 10
0.683463
 20
25.8939851002
 11
-0.101245
 21
25.8939851002
  0
LINE
  5
381
100
AcDbEntity
  8
0
100
AcDbLine
 62
7
  6
CONTINUOUS
 10
-1.679095
 20
25.8939851002
 11
-2.471553
 21
25.8939851002
  0
LINE
  5
382
100
AcDbEntity
  8
0
100
AcDbLine
 62
7
  6
CONTINUOUS
 10
-4.329028
 20
25.8939851002
 11
-5.1216
 21
25.8939851002
  0
LINE
  5
383
100
AcDbEntity
  8
0
100
AcDbLine
 62
7
  6
CONTINUOUS
 10
-6.592247
 20
25.8939851002
 11
-7.453814
 21
25.8939851002
  0
LINE
  5
384
100
AcDbEntity
  8
0
100
AcDbLine
 62
7
  6
CONTINUOUS
 10
-3.241588
 20
25.8942131002
 11
-4.034701
 21
25.8942131002
  0
LINE
  5
385
100
AcDbEntity
  8
RACCORDO
100
AcDbLine
 62
7
  6
CONTINUOUS
 10
9.007780698
 20
-29.6159055849
 11
8.3511061566
 21
-30.2725801262
  0
LINE
  5
386
100
AcDbEntity
  8
RACCORDO
100
AcDbLine
 62
253
  6
CONTINUOUS
 10
8.3511173656
 20
-30.9730562556
 11
8.9927577478
 21
-30.3314158735
  0
LINE
  5
387
100
AcDbEntity
  8
RACCORDO
100
AcDbLine
 62
253
  6
CONTINUOUS
 10
9.1506188183
 20
-31.7725801262
 11
9.7922704094
 21
-31.1309285351
  0
LINE
  5
388
100
AcDbEntity
  8
RACCORDO
100
AcDbLine
 62
253
  6
CONTINUOUS
 10
11.6883324137
 20
35.496182855
 11
11.4
 21
35.496182855
  0
LINE
  5
389
100
AcDbEntity
  8
RACCORDO
100
AcDbLine
 62
253
  6
CONTINUOUS
 10
-11.4
 20
35.496182855
 11
-11.6883324137
 21
35.496182855
  0
LINE
  5
38A
100
AcDbEntity
  8
RACCORDO
100
AcDbLine
 62
253
  6
CONTINUOUS
 10
11.6950702573
 20
36.2956955166
 11
11.4
 21
36.2956955166
  0
LINE
  5
38B
100
AcDbEntity
  8
RACCORDO
100
AcDbLine
 62
253
  6
CONTINUOUS
 10
-11.4
 20
36.2956955166
 11
-11.6950702573
 21
36.2956955166
  0
LINE
  5
38C
100
AcDbEntity
  8
RACCORDO
100
AcDbLine
 62
253
  6
CONTINUOUS
 10
11.4
 20
36.3667891006
 11
-11.4
 21
36.3667891002
  0
LINE
  5
38D
100
AcDbEntity
  8
RACCORDO
100
AcDbLine
 62
7
  6
CONTINUOUS
 10
11.1
 20
36.6667891002
 11
-11.1
 21
36.6667891002
  0
LINE
  5
38E
100
AcDbEntity
  8
RACCORDO
100
AcDbLine
 62
7
  6
CONTINUOUS
 10
-11.6950702573
 20
37.5231444968
 11
-10.0352533351
 21
37.5231444968
  0
LINE
  5
38F
100
AcDbEntity
  8
RACCORDO
100
AcDbLine
 62
7
  6
CONTINUOUS
 10
10.0352533351
 20
37.5231444968
 11
11.6950702573
 21
37.5231444968
  0
LINE
  5
390
100
AcDbEntity
  8
COPY-PUBBLISH
100
AcDbLine
 62
7
  6
CONTINUOUS
 10
13.25
 20
37.7675898832
 11
11.7561583319
 21
37.7675898832
  0
LINE
  5
391
100
AcDbEntity
  8
COPY-PUBBLISH
100
AcDbLine
 62
7
  6
CONTINUOUS
 10
-11.7561583319
 20
37.7675898832
 11
-13.25
 21
37.7675898832
  0
ARC
  5
392
100
AcDbEntity
  8
RACCORDO
100
AcDbCircle
 62
253
  6
CONTINUOUS
 10
-9.7934412536
 20
-30.3302450293
 40
0.8006900039
100
AcDbArc
 50
270.0837838931
 51
359.9162161069
  0
ARC
  5
393
100
AcDbEntity
  8
RACCORDO
100
AcDbCircle
 62
253
  6
CONTINUOUS
 10
-9.1517734313
 20
-30.9719128515
 40
0.8006700291
100
AcDbArc
 50
270.0826241263
 51
359.9173759011
  0
ARC
  5
394
100
AcDbEntity
  8
RACCORDO
100
AcDbCircle
 62
253
  6
CONTINUOUS
 10
-9.9132463575
 20
-24.783547643
 40
0.7996735429
100
AcDbArc
 50
270.0154559879
 51
356.43174399
  0
ARC
  5
395
100
AcDbEntity
  8
RACCORDO
100
AcDbCircle
 62
253
  6
CONTINUOUS
 10
-11.7
 20
1.8667891002
 40
0.5999957141
100
AcDbArc
 50
0.0
 51
90.0
  0
ARC
  5
396
100
AcDbEntity
  8
RACCORDO
100
AcDbCircle
 62
7
  6
CONTINUOUS
 10
-11.1
 20
-24.5332108998
 40
0.3
100
AcDbArc
 50
180.0
 51
270.0
  0
ARC
  5
397
100
AcDbEntity
  8
RACCORDO
100
AcDbCircle
 62
7
  6
CONTINUOUS
 10
-11.7
 20
1.8667891002
 40
0.3
100
AcDbArc
 50
0.0
 51
90.0
  0
ARC
  5
398
100
AcDbEntity
  8
ASSI
100
AcDbCircle
 62
7
  6
CONTINUOUS
 10
-3.761402
 20
5.9167881002
 40
2.2949984646
100
AcDbArc
 50
87.7525288774
 51
272.2474711226
  0
ARC
  5
399
100
AcDbEntity
  8
ASSI
100
AcDbCircle
 62
7
  6
CONTINUOUS
 10
-7.708001
 20
5.9167881002
 40
2.2949983861
100
AcDbArc
 50
87.7525288006
 51
272.2474711994
  0
ARC
  5
39A
100
AcDbEntity
  8
ASSI
100
AcDbCircle
 62
7
  6
CONTINUOUS
 10
-7.708001
 20
5.9167881002
 40
1.6199999321
100
AcDbArc
 50
86.8152613297
 51
273.1847386703
  0
ARC
  5
39B
100
AcDbEntity
  8
ASSI
100
AcDbCircle
 62
7
  6
CONTINUOUS
 10
-3.761402
 20
5.9167881002
 40
1.6199999321
100
AcDbArc
 50
86.8152613297
 51
167.9753003079
  0
ARC
  5
39C
100
AcDbEntity
  8
ASSI
100
AcDbCircle
 62
7
  6
CONTINUOUS
 10
-3.761402
 20
5.9167881002
 40
1.6199972906
100
AcDbArc
 50
192.0247195925
 51
273.1847438687
  0
ARC
  5
39D
100
AcDbEntity
  8
RACCORDO
100
AcDbCircle
 62
253
  6
CONTINUOUS
 10
-11.7
 20
9.9667891002
 40
0.5999965469
100
AcDbArc
 50
270.0
 51
360.0
  0
ARC
  5
39E
100
AcDbEntity
  8
RACCORDO
100
AcDbCircle
 62
7
  6
CONTINUOUS
 10
-11.7
 20
9.9667891002
 40
0.3
100
AcDbArc
 50
270.0
 51
360.0
  0
ARC
  5
39F
100
AcDbEntity
  8
RACCORDO
100
AcDbCircle
 62
7
  6
CONTINUOUS
 10
-11.1
 20
36.3667891002
 40
0.3
100
AcDbArc
 50
90.0
 51
180.0
  0
ARC
  5
3A0
100
AcDbEntity
  8
RACCORDO
100
AcDbCircle
 62
253
  6
CONTINUOUS
 10
9.1517734303
 20
-30.9719128525
 40
0.8006700281
100
AcDbArc
 50
180.0826240269
 51
269.9173759731
  0
ARC
  5
3A1
100
AcDbEntity
  8
RACCORDO
100
AcDbCircle
 62
253
  6
CONTINUOUS
 10
9.7934250187
 20
-30.3302612643
 40
0.8006700253
100
AcDbArc
 50
180.0826238171
 51
269.9173761659
  0
ARC
  5
3A2
100
AcDbEntity
  8
RACCORDO
100
AcDbCircle
 62
253
  6
CONTINUOUS
 10
9.9132463707
 20
-24.7835476323
 40
0.799673555
100
AcDbArc
 50
183.5682559933
 51
269.9845430595
  0
ARC
  5
3A3
100
AcDbEntity
  8
RACCORDO
100
AcDbCircle
 62
253
  6
CONTINUOUS
 10
11.7
 20
1.8667891002
 40
0.5999965469
100
AcDbArc
 50
90.0
 51
180.0
  0
ARC
  5
3A4
100
AcDbEntity
  8
RACCORDO
100
AcDbCircle
 62
7
  6
CONTINUOUS
 10
11.7
 20
1.8667891002
 40
0.3
100
AcDbArc
 50
90.0
 51
180.0
  0
ARC
  5
3A5
100
AcDbEntity
  8
RACCORDO
100
AcDbCircle
 62
7
  6
CONTINUOUS
 10
11.1
 20
-24.5332108998
 40
0.3
100
AcDbArc
 50
270.0
 51
360.0
  0
ARC
  5
3A6
100
AcDbEntity
  8
RACCORDO
100
AcDbCircle
 62
253
  6
CONTINUOUS
 10
11.7
 20
9.9667891002
 40
0.5999957141
100
AcDbArc
 50
180.0
 51
270.0
  0
ARC
  5
3A7
100
AcDbEntity
  8
RACCORDO
100
AcDbCircle
 62
7
  6
CONTINUOUS
 10
11.1
 20
36.3667891002
 40
0.3
100
AcDbArc
 50
0.0
 51
90.0
  0
ARC
  5
3A8
100
AcDbEntity
  8
RACCORDO
100
AcDbCircle
 62
7
  6
CONTINUOUS
 10
11.7
 20
9.9667891002
 40
0.3
100
AcDbArc
 50
180.0
 51
270.0
  0
SPLINE
  5
3A9
100
AcDbEntity
  8
0
100
AcDbSpline
 62
7
  6
CONTINUOUS
 70
0
 71
3
 72
9
 73
5
 74
3
 42
0.0000001
 43
0.0000001
 44
0.0000000001
 12
-0.2351807351
 22
0.8632699554
 32
0.0
 13
-0.854425844
 23
0.2951881697
 33
0.0
 40
0.0
 40
0.0
 40
0.0
 40
0.0
 40
0.9771287273
 40
1.0
 40
1.0
 40
1.0
 40
1.0
 10
7.0172301712
 20
23.1228180563
 30
0.0
 10
6.9406295538
 20
23.4039933472
 30
0.0
 10
6.8281943748
 20
23.7684310737
 30
0.0
 10
6.5473099362
 20
23.8729528922
 30
0.0
 10
6.5407960007
 20
23.8752033352
 30
0.0
 11
7.0172301712
 21
23.1228180563
 31
0.0
 11
6.5600701904
 21
23.8680358374
 31
0.0
 11
6.5407960007
 21
23.8752033352
 31
0.0
  0
SPLINE
  5
3AA
100
AcDbEntity
  8
0
100
AcDbSpline
 62
7
  6
CONTINUOUS
 70
0
 71
3
 72
14
 73
10
 74
8
 42
0.0000001
 43
0.0000001
 44
0.0000000001
 12
2.4104721626
 22
0.1397512259
 32
0.0
 13
-2.2338052693
 23
0.8058531411
 33
0.0
 40
0.0
 40
0.0
 40
0.0
 40
0.0
 40
0.0073588544
 40
0.1742502415
 40
0.3260178245
 40
0.5200728263
 40
0.6799607727
 40
0.8122782923
 40
1.0
 40
1.0
 40
1.0
 40
1.0
 10
6.5425360523
 20
23.8888509615
 30
0.0
 10
6.5484488235
 20
23.8891937645
 30
0.0
 10
6.6868334244
 20
23.9021843919
 30
0.0
 10
6.8754403562
 20
24.1329706805
 30
0.0
 10
7.0764268754
 20
24.4750762653
 30
0.0
 10
7.1192475148
 20
24.8903537647
 30
0.0
 10
7.0356625345
 20
25.2721909657
 30
0.0
 10
6.829635336
 20
25.5967588956
 30
0.0
 10
6.6180750189
 20
25.7591656235
 30
0.0
 10
6.4782971056
 20
25.8095909994
 30
0.0
 11
6.5425360523
 21
23.8888509615
 31
0.0
 11
6.5600701904
 21
23.8904878203
 31
0.0
 11
6.8678874452
 21
24.1401236677
 31
0.0
 11
7.0393803131
 21
24.4571127926
 31
0.0
 11
7.0948433708
 21
24.9145888606
 31
0.0
 11
7.0084046615
 21
25.284307557
 31
0.0
 11
6.8407413453
 21
25.5500540555
 31
0.0
 11
6.4782971056
 21
25.8095909994
 31
0.0
  0
SPLINE
  5
3AB
100
AcDbEntity
  8
0
100
AcDbSpline
 62
7
  6
CONTINUOUS
 70
0
 71
3
 72
9
 73
5
 74
3
 42
0.0000001
 43
0.0000001
 44
0.0000000001
 12
-1.8490833515
 22
0.6680315285
 32
0.0
 13
-1.9451189551
 23
-0.2861601197
 33
0.0
 40
0.0
 40
0.0
 40
0.0
 40
0.0
 40
0.108204615
 40
1.0
 40
1.0
 40
1.0
 40
1.0
 10
6.4782971056
 20
25.8095909994
 30
0.0
 10
6.4116039883
 20
25.8336856975
 30
0.0
 10
5.7793541574
 20
26.0139831796
 30
0.0
 10
5.0992301945
 20
25.9346597032
 30
0.0
 10
4.5210141587
 20
25.8495942785
 30
0.0
 11
6.4782971056
 21
25.8095909994
 31
0.0
 11
6.2742187675
 21
25.8696640326
 31
0.0
 11
4.5210141587
 21
25.8495942785
 31
0.0
  0
SPLINE
  5
3AC
100
AcDbEntity
  8
0
100
AcDbSpline
 62
7
  6
CONTINUOUS
 70
0
 71
3
 72
9
 73
5
 74
3
 42
0.0000001
 43
0.0000001
 44
0.0000000001
 12
0.5693427171
 22
0.0
 32
0.0
 13
0.2000440944
 23
-0.5330417336
 33
0.0
 40
0.0
 40
0.0
 40
0.0
 40
0.0
 40
0.1435863572
 40
1.0
 40
1.0
 40
1.0
 40
1.0
 10
5.7361849921
 20
23.5813741629
 30
0.0
 10
5.763434941
 20
23.5813741629
 30
0.0
 10
5.9537656504
 20
23.5679192082
 30
0.0
 10
6.121564575
 20
23.3987569565
 30
0.0
 10
6.1786714055
 20
23.2465888856
 30
0.0
 11
5.7361849921
 21
23.5813741629
 31
0.0
 11
5.8176281887
 21
23.5743000432
 31
0.0
 11
6.1786714055
 21
23.2465888856
 31
0.0
  0
SPLINE
  5
3AD
100
AcDbEntity
  8
0
100
AcDbSpline
 62
7
  6
CONTINUOUS
 70
0
 71
3
 72
9
 73
5
 74
3
 42
0.0000001
 43
0.0000001
 44
0.0000000001
 12
0.4231569679
 22
-1.1263576533
 32
0.0
 13
0.3324634843
 23
-1.1563785774
 33
0.0
 40
0.0
 40
0.0
 40
0.0
 40
0.0
 40
0.8657275665
 40
1.0
 40
1.0
 40
1.0
 40
1.0
 10
6.1786714055
 20
23.2465888856
 30
0.0
 10
6.3007842895
 20
22.9215492622
 30
0.0
 10
6.3978960756
 20
22.5310372493
 30
0.0
 10
6.5106002334
 20
22.1461997499
 30
0.0
 10
6.5254804604
 20
22.0944431614
 30
0.0
 11
6.1786714055
 21
23.2465888856
 31
0.0
 11
6.4806152265
 21
22.2496481913
 31
0.0
 11
6.5254804604
 21
22.0944431614
 31
0.0
  0
SPLINE
  5
3AE
100
AcDbEntity
  8
0
100
AcDbSpline
 62
7
  6
CONTINUOUS
 70
0
 71
3
 72
9
 73
5
 74
3
 42
0.0000001
 43
0.0000001
 44
0.0000000001
 12
-0.2787501557
 22
1.0263367552
 32
0.0
 13
-0.2795600015
 23
1.0261164602
 33
0.0
 40
0.0
 40
0.0
 40
0.0
 40
0.0
 40
0.1980141723
 40
1.0
 40
1.0
 40
1.0
 40
1.0
 10
7.2883635073
 20
22.0944431614
 30
0.0
 10
7.2699646802
 20
22.1621862357
 30
0.0
 10
7.1799106656
 20
22.5050674656
 30
0.0
 10
7.0919645576
 20
22.8485077701
 30
0.0
 10
7.0172301712
 20
23.1228180563
 30
0.0
 11
7.2883635073
 21
22.0944431614
 31
0.0
 11
7.2343833881
 21
22.2979988427
 31
0.0
 11
7.0172301712
 21
23.1228180563
 31
0.0
  0
SPLINE
  5
3AF
100
AcDbEntity
  8
0
100
AcDbSpline
 62
7
  6
CONTINUOUS
 70
0
 71
3
 72
9
 73
5
 74
3
 42
0.0000001
 43
0.0000001
 44
0.0000000001
 12
0.0146048291
 22
-0.9465029213
 32
0.0
 13
-0.9463795554
 23
-0.0211380768
 33
0.0
 40
0.0
 40
0.0
 40
0.0
 40
0.0
 40
0.5206208722
 40
1.0
 40
1.0
 40
1.0
 40
1.0
 10
6.3539849214
 20
24.7940946531
 30
0.0
 10
6.3565194477
 20
24.6298382609
 30
0.0
 10
6.2404802795
 20
24.2710217882
 30
0.0
 10
5.8891194026
 20
24.2070251109
 30
0.0
 10
5.737894534
 20
24.2036473933
 30
0.0
 11
6.3539849214
 21
24.7940946531
 31
0.0
 11
6.1719115921
 21
24.3361333245
 31
0.0
 11
5.737894534
 21
24.2036473933
 31
0.0
  0
SPLINE
  5
3B0
100
AcDbEntity
  8
0
100
AcDbSpline
 62
7
  6
CONTINUOUS
 70
0
 71
3
 72
11
 73
7
 74
5
 42
0.0000001
 43
0.0000001
 44
0.0000000001
 12
1.3049532435
 22
0.2226699674
 32
0.0
 13
0.0207025745
 23
-1.3236526302
 33
0.0
 40
0.0
 40
0.0
 40
0.0
 40
0.0
 40
0.2429387748
 40
0.4710498328
 40
0.7362395484
 40
1.0
 40
1.0
 40
1.0
 40
1.0
 10
5.284638007
 20
25.2466958557
 30
0.0
 10
5.3903125877
 20
25.2647275787
 30
0.0
 10
5.5976971039
 20
25.2876700438
 30
0.0
 10
5.9221539762
 20
25.2870637469
 30
0.0
 10
6.2569163959
 20
25.1570230755
 30
0.0
 10
6.3521647479
 20
24.9104703916
 30
0.0
 10
6.3539849214
 20
24.7940946531
 30
0.0
 11
5.284638007
 21
25.2466958557
 31
0.0
 11
5.6042795929
 21
25.2821866566
 31
0.0
 11
5.9059709894
 21
25.2690623614
 31
0.0
 11
6.222699231
 21
25.1176432544
 31
0.0
 11
6.3539849214
 21
24.7940946531
 31
0.0
  0
SPLINE
  5
3B1
100
AcDbEntity
  8
0
100
AcDbSpline
 62
7
  6
CONTINUOUS
 70
0
 71
3
 72
13
 73
9
 74
7
 42
0.0000001
 43
0.0000001
 44
0.0000000001
 12
1.3585840539
 22
0.0000017727
 32
0.0
 13
-0.0
 23
1.3585838532
 33
0.0
 40
0.0
 40
0.0
 40
0.0
 40
0.0
 40
0.2440843852
 40
0.3951671573
 40
0.5865946804
 40
0.7510176722
 40
0.8853895042
 40
1.0
 40
1.0
 40
1.0
 40
1.0
 10
7.5232623157
 20
7.6525617679
 30
0.0
 10
7.6337987002
 20
7.6525619121
 30
0.0
 10
7.816548639
 20
7.6860707428
 30
0.0
 10
8.0439043039
 20
7.8309204853
 30
0.0
 10
8.1858556369
 20
8.0182739825
 30
0.0
 10
8.2646521822
 20
8.2274341083
 30
0.0
 10
8.2997032452
 20
8.4123636533
 30
0.0
 10
8.3007338862
 20
8.5254069638
 30
0.0
 10
8.3007338862
 20
8.5773096202
 30
0.0
 11
7.5232623157
 21
7.6525617679
 31
0.0
 11
7.8482696287
 21
7.7184014208
 31
0.0
 11
8.0210987176
 21
7.8291317461
 31
0.0
 11
8.1811339649
 21
8.0341324836
 31
0.0
 11
8.2626105354
 21
8.2421259326
 31
0.0
 11
8.2955303618
 21
8.4216886224
 31
0.0
 11
8.3007338862
 21
8.5773096202
 31
0.0
  0
SPLINE
  5
3B2
100
AcDbEntity
  8
0
100
AcDbSpline
 62
7
  6
CONTINUOUS
 70
0
 71
3
 72
13
 73
9
 74
7
 42
0.0000001
 43
0.0000001
 44
0.0000000001
 12
0.0
 22
1.3585837115
 32
0.0
 13
-1.3585839369
 23
0.00000199
 33
0.0
 40
0.0
 40
0.0
 40
0.0
 40
0.0
 40
0.1146105078
 40
0.2489823538
 40
0.4134053627
 40
0.6048329057
 40
0.7559156936
 40
1.0
 40
1.0
 40
1.0
 40
1.0
 10
8.3007338862
 20
8.5773096202
 30
0.0
 10
8.3007338862
 20
8.6292122765
 30
0.0
 10
8.2997032451
 20
8.742255587
 30
0.0
 10
8.2646521822
 20
8.927185132
 30
0.0
 10
8.1858556369
 20
9.1363452578
 30
0.0
 10
8.0439043039
 20
9.323698755
 30
0.0
 10
7.8165486794
 20
9.4685484718
 30
0.0
 10
7.6337987966
 20
9.5020573105
 30
0.0
 10
7.5232624573
 20
9.5020574724
 30
0.0
 11
8.3007338862
 21
8.5773096202
 31
0.0
 11
8.2955303618
 21
8.732930618
 31
0.0
 11
8.2626105354
 21
8.9124933077
 31
0.0
 11
8.1811339649
 21
9.1204867567
 31
0.0
 11
8.0210987176
 21
9.3254874942
 31
0.0
 11
7.8482696287
 21
9.4362178195
 31
0.0
 11
7.5232624573
 21
9.5020574724
 31
0.0
  0
SPLINE
  5
3B3
100
AcDbEntity
  8
0
100
AcDbSpline
 62
7
  6
CONTINUOUS
 70
0
 71
3
 72
13
 73
9
 74
7
 42
0.0000001
 43
0.0000001
 44
0.0000000001
 12
0.0
 22
1.0196178473
 32
0.0
 13
-1.0196177158
 23
-0.0000024302
 33
0.0
 40
0.0
 40
0.0
 40
0.0
 40
0.0
 40
0.1705949819
 40
0.3141152315
 40
0.5170627027
 40
0.6977963457
 40
0.842688152
 40
1.0
 40
1.0
 40
1.0
 40
1.0
 10
8.0442483386
 20
8.5773096202
 30
0.0
 10
8.0442483386
 20
8.6352901829
 30
0.0
 10
8.036837617
 20
8.7420459397
 30
0.0
 10
8.0067572304
 20
8.9157626661
 30
0.0
 10
7.9306245304
 20
9.0817126722
 30
0.0
 10
7.8009268022
 20
9.2130189514
 30
0.0
 10
7.6465236004
 20
9.276880321
 30
0.0
 10
7.5432070207
 20
9.2880787279
 30
0.0
 10
7.4897410383
 20
9.2880786005
 30
0.0
 11
8.0442483386
 21
8.5773096202
 31
0.0
 11
8.0329947458
 21
8.7508868869
 31
0.0
 11
8.0050877111
 21
8.8945370387
 31
0.0
 11
7.9165782686
 21
9.0815815072
 31
0.0
 11
7.7846745094
 21
9.2102681016
 31
0.0
 11
7.6489550431
 21
9.2686259757
 31
0.0
 11
7.4897410383
 21
9.2880786005
 31
0.0
  0
SPLINE
  5
3B4
100
AcDbEntity
  8
0
100
AcDbSpline
 62
7
  6
CONTINUOUS
 70
0
 71
3
 72
13
 73
9
 74
7
 42
0.0000001
 43
0.0000001
 44
0.0000000001
 12
1.0196146099
 22
0.0000022241
 32
0.0
 13
0.0
 23
1.0196144896
 33
0.0
 40
0.0
 40
0.0
 40
0.0
 40
0.0
 40
0.157309073
 40
0.3022013564
 40
0.4829355946
 40
0.6858837341
 40
0.8294044563
 40
1.0
 40
1.0
 40
1.0
 40
1.0
 10
7.489744396
 20
7.8665406399
 30
0.0
 10
7.5432092724
 20
7.8665407565
 30
0.0
 10
7.6465246533
 20
7.8777393548
 30
0.0
 10
7.8009268022
 20
7.9416002889
 30
0.0
 10
7.9306245304
 20
8.0729065681
 30
0.0
 10
8.0067572304
 20
8.2388565742
 30
0.0
 10
8.036837617
 20
8.4125733006
 30
0.0
 10
8.0442483386
 20
8.5193290574
 30
0.0
 10
8.0442483386
 20
8.5773096202
 30
0.0
 11
7.489744396
 21
7.8665406399
 31
0.0
 11
7.6489550431
 21
7.8859932646
 31
0.0
 11
7.7846745094
 21
7.9443511387
 31
0.0
 11
7.9165782686
 21
8.0730377331
 31
0.0
 11
8.0050877111
 21
8.2600822016
 31
0.0
 11
8.0329947458
 21
8.4037323534
 31
0.0
 11
8.0442483386
 21
8.5773096202
 31
0.0
  0
SPLINE
  5
3B5
100
AcDbEntity
  8
RACCORDO
100
AcDbSpline
 62
253
  6
CONTINUOUS
 70
0
 71
3
 72
20
 73
16
 74
14
 42
0.0000001
 43
0.0000001
 44
0.0000000001
 12
0.0000166531
 22
-2.0000697471
 32
0.0
 13
1.0289233514
 23
-1.7151080813
 33
0.0
 40
0.0
 40
0.0
 40
0.0
 40
0.0
 40
0.1908049738
 40
0.3746404519
 40
0.5446680882
 40
0.6947041055
 40
0.7604644455
 40
0.8192195257
 40
0.8704463508
 40
0.9136639801
 40
0.9484844686
 40
0.9746002398
 40
0.9917815189
 40
0.9970005399
 40
1.0
 40
1.0
 40
1.0
 40
1.0
 10
-9.8327128721
 20
-29.132146881
 30
0.0
 10
-9.8327118129
 20
-29.259354633
 30
0.0
 10
-9.8322177101
 20
-29.50912394
 30
0.0
 10
-9.830009861
 20
-29.8722430486
 30
0.0
 10
-9.8264238349
 20
-30.2081696883
 30
0.0
 10
-9.8222660052
 20
-30.4653628817
 30
0.0
 10
-9.8182331461
 20
-30.6483601107
 30
0.0
 10
-9.815097458
 20
-30.7654831101
 30
0.0
 10
-9.8117657004
 20
-30.8675695945
 30
0.0
 10
-9.808246881
 20
-30.9536686637
 30
0.0
 10
-9.8046757174
 20
-31.0230436435
 30
0.0
 10
-9.8009187137
 20
-31.0749307614
 30
0.0
 10
-9.7977964161
 20
-31.1072460772
 30
0.0
 10
-9.7947145528
 20
-31.1238091296
 30
0.0
 10
-9.7932991476
 20
-31.1292137357
 30
0.0
 10
-9.7922704094
 20
-31.1309285351
 30
0.0
 11
-9.8327128721
 21
-29.132146881
 31
0.0
 11
-9.8319427679
 21
-29.5137693598
 31
0.0
 11
-9.8296613612
 21
-29.8814460601
 31
0.0
 11
-9.8259509836
 21
-30.2214929496
 31
0.0
 11
-9.8209496859
 21
-30.521533769
 31
0.0
 11
-9.8180207206
 21
-30.6530264187
 31
0.0
 11
-9.8148405538
 21
-30.7704976384
 31
0.0
 11
-9.8114394218
 21
-30.8728983945
 31
0.0
 11
-9.8078491877
 21
-30.9592620747
 31
0.0
 11
-9.8041025363
 21
-31.0288046267
 31
0.0
 11
-9.8002328548
 21
-31.0808944518
 31
0.0
 11
-9.7962756991
 21
-31.1150296051
 31
0.0
 11
-9.7942765881
 21
-31.125274793
 31
0.0
 11
-9.7922704094
 21
-31.1309285351
 31
0.0
  0
SPLINE
  5
3B6
100
AcDbEntity
  8
RACCORDO
100
AcDbSpline
 62
253
  6
CONTINUOUS
 70
0
 71
3
 72
20
 73
16
 74
14
 42
0.0000001
 43
0.0000001
 44
0.0000000001
 12
1.0289233592
 22
1.7151080767
 32
0.0
 13
0.000016653
 23
2.0000697471
 33
0.0
 40
0.0
 40
0.0
 40
0.0
 40
0.0
 40
0.0029994601
 40
0.008218481
 40
0.0253997602
 40
0.0515155314
 40
0.0863360199
 40
0.1295536492
 40
0.1807804743
 40
0.2395355545
 40
0.3052958945
 40
0.4553319118
 40
0.625359548
 40
0.8091950262
 40
1.0
 40
1.0
 40
1.0
 40
1.0
 10
9.7922704094
 20
-31.1309285351
 30
0.0
 10
9.7932991476
 20
-31.1292137357
 30
0.0
 10
9.7947145528
 20
-31.1238091296
 30
0.0
 10
9.7977964161
 20
-31.1072460772
 30
0.0
 10
9.8009187137
 20
-31.0749307614
 30
0.0
 10
9.8046757174
 20
-31.0230436435
 30
0.0
 10
9.808246881
 20
-30.9536686637
 30
0.0
 10
9.8117657004
 20
-30.8675695945
 30
0.0
 10
9.815097458
 20
-30.7654831101
 30
0.0
 10
9.8182331461
 20
-30.6483601107
 30
0.0
 10
9.8222660052
 20
-30.4653628817
 30
0.0
 10
9.8264238349
 20
-30.2081696883
 30
0.0
 10
9.830009861
 20
-29.8722430486
 30
0.0
 10
9.8322177101
 20
-29.50912394
 30
0.0
 10
9.8327118129
 20
-29.259354633
 30
0.0
 10
9.8327128721
 20
-29.132146881
 30
0.0
 11
9.7922704094
 21
-31.1309285351
 31
0.0
 11
9.7942765881
 21
-31.125274793
 31
0.0
 11
9.796275699
 21
-31.1150296051
 31
0.0
 11
9.8002328548
 21
-31.0808944518
 31
0.0
 11
9.8041025363
 21
-31.0288046267
 31
0.0
 11
9.8078491877
 21
-30.9592620747
 31
0.0
 11
9.8114394218
 21
-30.8728983945
 31
0.0
 11
9.8148405538
 21
-30.7704976384
 31
0.0
 11
9.8180207206
 21
-30.6530264187
 31
0.0
 11
9.8209496859
 21
-30.521533769
 31
0.0
 11
9.8259509836
 21
-30.2214929496
 31
0.0
 11
9.8296613612
 21
-29.8814460601
 31
0.0
 11
9.8319427679
 21
-29.5137693598
 31
0.0
 11
9.8327128721
 21
-29.132146881
 31
0.0
  0
SPLINE
  5
3B7
100
AcDbEntity
  8
RACCORDO
100
AcDbSpline
 62
253
  6
CONTINUOUS
 70
0
 71
3
 72
18
 73
14
 74
12
 42
0.0000001
 43
0.0000001
 44
0.0000000001
 12
0.0000144105
 22
1.5076468473
 32
0.0
 13
1.5076467724
 23
-0.0004755186
 33
0.0
 40
0.0
 40
0.0
 40
0.0
 40
0.0
 40
0.1942130641
 40
0.3810038165
 40
0.5531068746
 40
0.7040008413
 40
0.8279255842
 40
0.87828196
 40
0.9202501327
 40
0.953471273
 40
0.9777069105
 40
0.992917741
 40
1.0
 40
1.0
 40
1.0
 40
1.0
 10
9.8327128721
 20
-27.0832108998
 30
0.0
 10
9.832713805
 20
-26.9856093285
 30
0.0
 10
9.8337046229
 20
-26.7941342097
 30
0.0
 10
9.8381280015
 20
-26.5162024203
 30
0.0
 10
9.8452891473
 20
-26.2600956824
 30
0.0
 10
9.8548637775
 20
-26.0357081399
 30
0.0
 10
9.8650348683
 20
-25.8725481879
 30
0.0
 10
9.8744874065
 20
-25.7643405863
 30
0.0
 10
9.8815165025
 20
-25.7014942161
 30
0.0
 10
9.8883856809
 20
-25.6523645939
 30
0.0
 10
9.8961416803
 20
-25.6157322766
 30
0.0
 10
9.901940475
 20
-25.5948374825
 30
0.0
 10
9.9094687394
 20
-25.5832097781
 30
0.0
 10
9.913027921
 20
-25.5832109007
 30
0.0
 11
9.8327128721
 21
-27.0832108998
 31
0.0
 11
9.8342581972
 21
-26.7904102638
 31
0.0
 11
9.8388336279
 21
-26.5088329462
 31
0.0
 11
9.8462634896
 21
-26.249468711
 31
0.0
 11
9.8562580744
 21
-26.0221935511
 31
0.0
 11
9.8684315284
 21
-25.8357558134
 31
0.0
 11
9.8751912643
 21
-25.7601377178
 31
0.0
 11
9.8823131221
 21
-25.6972666206
 31
0.0
 11
9.8897295463
 21
-25.6477330082
 31
0.0
 11
9.8973713919
 21
-25.6120022817
 31
0.0
 11
9.9051648428
 21
-25.59043461
 31
0.0
 11
9.913027921
 21
-25.5832109007
 31
0.0
  0
SPLINE
  5
3B8
100
AcDbEntity
  8
RACCORDO
100
AcDbSpline
 62
253
  6
CONTINUOUS
 70
0
 71
3
 72
20
 73
16
 74
14
 42
0.0000001
 43
0.0000001
 44
0.0000000001
 12
3.0065411689
 22
0.0000310357
 32
0.0
 13
1.8647136414
 23
2.3584174432
 33
0.0
 40
0.0
 40
0.0
 40
0.0
 40
0.0
 40
0.1904770654
 40
0.3739948769
 40
0.5437254059
 40
0.6935075492
 40
0.7591695829
 40
0.817852774
 40
0.8690430391
 40
0.9122715574
 40
0.947166226
 40
0.9734473847
 40
0.990958256
 40
0.9964791926
 40
1.0
 40
1.0
 40
1.0
 40
1.0
 10
5.3529336756
 20
-31.101135263
 30
0.0
 10
5.5438260552
 20
-31.1011332925
 30
0.0
 10
5.9186383442
 20
-31.099565929
 30
0.0
 10
6.4635118009
 20
-31.092566457
 30
0.0
 10
6.9675193711
 20
-31.0812051695
 30
0.0
 10
7.353322549
 20
-31.0680335755
 30
0.0
 10
7.6277550073
 20
-31.0552581737
 30
0.0
 10
7.8033936785
 20
-31.0453305397
 30
0.0
 10
7.9564789773
 20
-31.0347669157
 30
0.0
 10
8.0855812587
 20
-31.0236539693
 30
0.0
 10
8.1896679781
 20
-31.0122461226
 30
0.0
 10
8.2675295055
 20
-31.0005297849
 30
0.0
 10
8.316195367
 20
-30.9901748549
 30
0.0
 10
8.3409476232
 20
-30.9807514208
 30
0.0
 10
8.3489289159
 20
-30.9758212779
 30
0.0
 10
8.3511173484
 20
-30.9730534333
 30
0.0
 11
5.3529336756
 21
-31.101135263
 31
0.0
 11
5.925605613
 21
-31.098694487
 31
0.0
 11
6.4773120771
 21
-31.0914629778
 31
0.0
 11
6.9874784865
 21
-31.0797077548
 31
0.0
 11
7.4375258998
 21
-31.0638649508
 31
0.0
 11
7.6347234085
 21
-31.0545878469
 31
0.0
 11
7.8108691716
 21
-31.0445168338
 31
0.0
 11
7.9643975581
 21
-31.0337474131
 31
0.0
 11
8.0938677898
 21
-31.0223797702
 31
0.0
 11
8.1981071082
 21
-31.0105161159
 31
0.0
 11
8.276166251
 21
-30.9982604477
 31
0.0
 11
8.3272999768
 21
-30.985727887
 31
0.0
 11
8.3426453324
 21
-30.9793998298
 31
0.0
 11
8.3511173484
 21
-30.9730534333
 31
0.0
  0
SPLINE
  5
3B9
100
AcDbEntity
  8
RACCORDO
100
AcDbSpline
 62
7
  6
CONTINUOUS
 70
0
 71
3
 72
16
 73
12
 74
10
 42
0.0000001
 43
0.0000001
 44
0.0000000001
 12
0.2083813854
 22
-0.8348968481
 32
0.0
 13
0.0096701321
 23
-0.8604545527
 33
0.0
 40
0.0
 40
0.0
 40
0.0
 40
0.0
 40
0.0110527298
 40
0.033364048
 40
0.0658034365
 40
0.1072823515
 40
0.2133745122
 40
0.3441702656
 40
0.4933130703
 40
0.6554138664
 40
1.0
 40
1.0
 40
1.0
 40
1.0
 10
11.439997387
 20
-35.2847576612
 30
0.0
 10
11.4407651148
 20
-35.2878336243
 30
0.0
 10
11.4411745762
 20
-35.2974766238
 30
0.0
 10
11.4423847161
 20
-35.3162544797
 30
0.0
 10
11.4432377059
 20
-35.3438746922
 30
0.0
 10
11.4447376564
 20
-35.3954705445
 30
0.0
 10
11.4463307345
 20
-35.4753120283
 30
0.0
 10
11.4481674553
 20
-35.5860198335
 30
0.0
 10
11.4499249685
 20
-35.7128022341
 30
0.0
 10
11.4522612427
 20
-35.9009029284
 30
0.0
 10
11.4538582553
 20
-36.0462306357
 30
0.0
 10
11.4549689865
 20
-36.1450642048
 30
0.0
 11
11.439997387
 21
-35.2847576612
 31
0.0
 11
11.4410588048
 21
-35.2942092212
 31
0.0
 11
11.4421118469
 21
-35.3133794082
 31
0.0
 11
11.4431500115
 21
-35.3412744785
 31
0.0
 11
11.4441688366
 21
-35.3769529098
 31
0.0
 11
11.4461435069
 21
-35.4682247987
 31
0.0
 11
11.4480323685
 21
-35.5807598564
 31
0.0
 11
11.4498438898
 21
-35.70908578
 31
0.0
 11
11.4515898863
 21
-35.8485640282
 31
0.0
 11
11.4549689865
 21
-36.1450642048
 31
0.0
  0
SPLINE
  5
3BA
100
AcDbEntity
  8
RACCORDO
100
AcDbSpline
 62
7
  6
CONTINUOUS
 70
0
 71
3
 72
16
 73
12
 74
10
 42
0.0000001
 43
0.0000001
 44
0.0000000001
 12
0.0096478165
 22
0.8604067249
 32
0.0
 13
0.208373674
 23
0.8348492226
 33
0.0
 40
0.0
 40
0.0
 40
0.0
 40
0.0
 40
0.3445903097
 40
0.5066891217
 40
0.6558285393
 40
0.7866203846
 40
0.8927133589
 40
0.934192226
 40
0.9666339264
 40
0.9889467893
 40
1.0
 40
1.0
 40
1.0
 40
1.0
 10
-11.4549684404
 20
-36.1450161356
 30
0.0
 10
-11.4538602591
 20
-36.0461868624
 30
0.0
 10
-11.4522603314
 20
-35.9008666789
 30
0.0
 10
-11.4499243949
 20
-35.712776835
 30
0.0
 10
-11.4481673849
 20
-35.5860041732
 30
0.0
 10
-11.4463305732
 20
-35.4753044157
 30
0.0
 10
-11.4447376254
 20
-35.3954682924
 30
0.0
 10
-11.4432376662
 20
-35.3438744436
 30
0.0
 10
-11.442384676
 20
-35.316254678
 30
0.0
 10
-11.4411745064
 20
-35.2974766413
 30
0.0
 10
-11.4407651197
 20
-35.2878335827
 30
0.0
 10
-11.439997387
 20
-35.2847576612
 30
0.0
 11
-11.4549684404
 21
-36.1450161356
 31
0.0
 11
-11.4515893704
 21
-35.8485289322
 31
0.0
 11
-11.4498433641
 21
-35.7090601852
 31
0.0
 11
-11.4480322078
 21
-35.580744342
 31
0.0
 11
-11.4461434154
 21
-35.4682189353
 31
0.0
 11
-11.4441688011
 21
-35.3769514467
 31
0.0
 11
-11.4431499986
 21
-35.3412750508
 31
0.0
 11
-11.4421117983
 21
-35.3133795518
 31
0.0
 11
-11.4410587643
 21
-35.2942091074
 31
0.0
 11
-11.439997387
 21
-35.2847576612
 31
0.0
  0
SPLINE
  5
3BB
100
AcDbEntity
  8
RACCORDO
100
AcDbSpline
 62
253
  6
CONTINUOUS
 70
0
 71
3
 72
20
 73
16
 74
14
 42
0.0000001
 43
0.0000001
 44
0.0000000001
 12
1.8647132273
 22
-2.3584177548
 32
0.0
 13
3.0065411564
 23
-0.0000310503
 33
0.0
 40
0.0
 40
0.0
 40
0.0
 40
0.0
 40
0.0035208067
 40
0.0090417458
 40
0.0265526266
 40
0.0528337925
 40
0.0877284645
 40
0.1309569848
 40
0.1821472518
 40
0.2408304439
 40
0.3064924775
 40
0.4562746177
 40
0.6260051408
 40
0.8095229441
 40
1.0
 40
1.0
 40
1.0
 40
1.0
 10
-8.3511173399
 20
-30.973053444
 30
0.0
 10
-8.3489289083
 20
-30.9758212884
 30
0.0
 10
-8.3409476109
 20
-30.9807514287
 30
0.0
 10
-8.3161953435
 20
-30.9901748615
 30
0.0
 10
-8.2675294621
 20
-31.0005297931
 30
0.0
 10
-8.1896679153
 20
-31.0122461317
 30
0.0
 10
-8.0855811833
 20
-31.0236539762
 30
0.0
 10
-7.956478895
 20
-31.034766921
 30
0.0
 10
-7.8033935918
 20
-31.0453305447
 30
0.0
 10
-7.6277549186
 20
-31.0552581785
 30
0.0
 10
-7.3533224635
 20
-31.0680335791
 30
0.0
 10
-6.9675192963
 20
-31.0812051714
 30
0.0
 10
-6.4635117455
 20
-31.092566458
 30
0.0
 10
-5.9186383146
 20
-31.0995659291
 30
0.0
 10
-5.5438260449
 20
-31.1011332916
 30
0.0
 10
-5.3529336756
 20
-31.101135263
 30
0.0
 11
-8.3511173399
 21
-30.973053444
 31
0.0
 11
-8.3426453241
 21
-30.9793998371
 31
0.0
 11
-8.32729996
 21
-30.9857278936
 31
0.0
 11
-8.2761662058
 21
-30.9982604567
 31
0.0
 11
-8.1981070414
 21
-31.0105161255
 31
0.0
 11
-8.093867713
 21
-31.0223797778
 31
0.0
 11
-7.9643974757
 21
-31.0337474188
 31
0.0
 11
-7.8108690841
 21
-31.0445168389
 31
0.0
 11
-7.6347233185
 21
-31.0545878517
 31
0.0
 11
-7.4375258109
 21
-31.0638649549
 31
0.0
 11
-6.9874784089
 21
-31.0797077571
 31
0.0
 11
-6.4773120192
 21
-31.0914629788
 31
0.0
 11
-5.9256055822
 21
-31.098694487
 31
0.0
 11
-5.3529336756
 21
-31.101135263
 31
0.0
  0
SPLINE
  5
3BC
100
AcDbEntity
  8
RACCORDO
100
AcDbSpline
 62
253
  6
CONTINUOUS
 70
0
 71
3
 72
18
 73
14
 74
12
 42
0.0000001
 43
0.0000001
 44
0.0000000001
 12
-1.5070602227
 22
-0.0000132098
 32
0.0
 13
-0.2422110634
 23
-1.4874690974
 33
0.0
 40
0.0
 40
0.0
 40
0.0
 40
0.0
 40
0.193239443
 40
0.379173206
 40
0.5506489036
 40
0.7012393233
 40
0.8252565237
 40
0.8758232975
 40
0.9181160836
 40
0.9517738703
 40
0.9765496543
 40
0.9923827666
 40
1.0
 40
1.0
 40
1.0
 40
1.0
 10
-9.9550242755
 20
-36.0652865366
 30
0.0
 10
-10.0520987682
 20
-36.0652873875
 30
0.0
 10
-10.2425797051
 20
-36.0662677468
 30
0.0
 10
-10.5191691994
 20
-36.0706461728
 30
0.0
 10
-10.7742790175
 20
-36.0777334678
 30
0.0
 10
-10.9981627983
 20
-36.0872220813
 30
0.0
 10
-11.161260145
 20
-36.0972881511
 30
0.0
 10
-11.269754617
 20
-36.1066718721
 30
0.0
 10
-11.3330619106
 20
-36.1136022841
 30
0.0
 10
-11.3828640981
 20
-36.1205478885
 30
0.0
 10
-11.4202529661
 20
-36.12799375
 30
0.0
 10
-11.4420915655
 20
-36.1343058639
 30
0.0
 10
-11.4543534407
 20
-36.1411343949
 30
0.0
 10
-11.4549684335
 20
-36.1449111946
 30
0.0
 11
-9.9550242755
 21
-36.0652865366
 31
0.0
 11
-10.2462437421
 21
-36.0668150743
 31
0.0
 11
-10.5264205591
 21
-36.0713414982
 31
0.0
 11
-10.7847401724
 21
-36.0786931067
 31
0.0
 11
-11.0114732328
 21
-36.0885871167
 31
0.0
 11
-11.1979851653
 21
-36.1006464882
 31
0.0
 11
-11.2738972111
 21
-36.1073468314
 31
0.0
 11
-11.3372425144
 21
-36.1144091677
 31
0.0
 11
-11.3874303099
 21
-36.1217672221
 31
0.0
 11
-11.4239901588
 21
-36.1293532875
 31
0.0
 11
-11.4465608599
 21
-36.1370948913
 31
0.0
 11
-11.4549684335
 21
-36.1449111946
 31
0.0
  0
SPLINE
  5
3BD
100
AcDbEntity
  8
RACCORDO
100
AcDbSpline
 62
253
  6
CONTINUOUS
 70
0
 71
3
 72
18
 73
14
 74
12
 42
0.0000001
 43
0.0000001
 44
0.0000000001
 12
-0.2422365303
 22
1.4875415897
 32
0.0
 13
-1.5071358657
 23
0.0000085517
 33
0.0
 40
0.0
 40
0.0
 40
0.0
 40
0.0
 40
0.0076155653
 40
0.0234446714
 40
0.0482173603
 40
0.0818736055
 40
0.1241655896
 40
0.1747318444
 40
0.2987494794
 40
0.4493421517
 40
0.6208208356
 40
0.8067578913
 40
1.0
 40
1.0
 40
1.0
 40
1.0
 10
11.4549689723
 20
-36.1449145152
 30
0.0
 10
11.4543540496
 20
-36.1411383585
 30
0.0
 10
11.4420974011
 20
-36.1343083046
 30
0.0
 10
11.420260636
 20
-36.1279957295
 30
0.0
 10
11.3828750868
 20
-36.120549338
 30
0.0
 10
11.3330728342
 20
-36.113603601
 30
0.0
 10
11.2697639352
 20
-36.1066726634
 30
0.0
 10
11.1612644583
 20
-36.0972879858
 30
0.0
 10
10.9981578657
 20
-36.0872212353
 30
0.0
 10
10.7742599613
 20
-36.0777326388
 30
0.0
 10
10.5191330385
 20
-36.0706455895
 30
0.0
 10
10.2425251652
 20
-36.0662672076
 30
0.0
 10
10.0520316731
 20
-36.0652866526
 30
0.0
 10
9.9549509689
 20
-36.0652861017
 30
0.0
 11
11.4549689723
 21
-36.1449145152
 31
0.0
 11
11.4465642992
 21
-36.1370979383
 31
0.0
 11
11.4239989288
 21
-36.129355712
 31
0.0
 11
11.3874420469
 21
-36.1217690829
 31
0.0
 11
11.3372540949
 21
-36.1144105609
 31
0.0
 11
11.2739068481
 21
-36.1073476931
 31
0.0
 11
11.1979918018
 21
-36.1006467371
 31
0.0
 11
11.0114698682
 21
-36.0885864985
 31
0.0
 11
10.7847220151
 21
-36.0786923227
 31
0.0
 11
10.5263849185
 21
-36.0713408754
 31
0.0
 11
10.2461890713
 21
-36.0668144758
 31
0.0
 11
9.9549509689
 21
-36.0652861017
 31
0.0
  0
SPLINE
  5
3BE
100
AcDbEntity
  8
RACCORDO
100
AcDbSpline
 62
253
  6
CONTINUOUS
 70
0
 71
3
 72
18
 73
14
 74
12
 42
0.0000001
 43
0.0000001
 44
0.0000000001
 12
1.5075911222
 22
-0.0032043128
 32
0.0
 13
-0.0000060713
 23
-1.5075945275
 33
0.0
 40
0.0
 40
0.0
 40
0.0
 40
0.0
 40
0.0070840256
 40
0.0222875745
 40
0.0465178498
 40
0.0797376334
 40
0.1217053814
 40
0.1720604138
 40
0.2959834336
 40
0.4468784197
 40
0.6189835174
 40
0.8057791084
 40
1.0
 40
1.0
 40
1.0
 40
1.0
 10
-9.9130306055
 20
-25.5832109128
 30
0.0
 10
-9.9094706674
 20
-25.5832184792
 30
0.0
 10
-9.9019490095
 20
-25.5948304077
 30
0.0
 10
-9.8961409737
 20
-25.6157274496
 30
0.0
 10
-9.8883894139
 20
-25.6523467744
 30
0.0
 10
-9.8815189769
 20
-25.7014729904
 30
0.0
 10
-9.8744898732
 20
-25.764314785
 30
0.0
 10
-9.8650350465
 20
-25.872516995
 30
0.0
 10
-9.8548633046
 20
-26.035670008
 30
0.0
 10
-9.8452903403
 20
-26.2600505823
 30
0.0
 10
-9.8381304495
 20
-26.5161523952
 30
0.0
 10
-9.8337053746
 20
-26.7940818948
 30
0.0
 10
-9.8327127899
 20
-26.9855567398
 30
0.0
 10
-9.8327131829
 20
-27.0831588576
 30
0.0
 11
-9.9130306055
 21
-25.5832109128
 31
0.0
 11
-9.9051679591
 21
-25.5904384806
 31
0.0
 11
-9.8973744869
 21
-25.6119936255
 31
0.0
 11
-9.8897326227
 21
-25.6477147845
 31
0.0
 11
-9.8823160413
 21
-25.6972445477
 31
0.0
 11
-9.8751935039
 21
-25.7601127137
 31
0.0
 11
-9.8684326462
 21
-25.8357260304
 31
0.0
 11
-9.8562580675
 21
-26.0221545939
 31
0.0
 11
-9.8462645478
 21
-26.2494234365
 31
0.0
 11
-9.8388356215
 21
-26.5087817666
 31
0.0
 11
-9.8342588479
 21
-26.790356584
 31
0.0
 11
-9.8327131829
 21
-27.0831588576
 31
0.0
  0
SPLINE
  5
3BF
100
AcDbEntity
  8
RACCORDO
100
AcDbSpline
 62
253
  6
CONTINUOUS
 70
0
 71
3
 72
18
 73
14
 74
12
 42
0.0000001
 43
0.0000001
 44
0.0000000001
 12
0.0000087564
 22
-1.2013202384
 32
0.0
 13
0.8484513962
 23
-0.8504707777
 33
0.0
 40
0.0
 40
0.0
 40
0.0
 40
0.0
 40
0.1906372306
 40
0.3743081609
 40
0.5441850343
 40
0.6940952801
 40
0.8185229646
 40
0.8697312441
 40
0.9129584743
 40
0.947824357
 40
0.9740326662
 40
0.9913900493
 40
1.0
 40
1.0
 40
1.0
 40
1.0
 10
-9.0332002104
 20
-29.132146881
 30
0.0
 10
-9.033199654
 20
-29.2084856688
 30
0.0
 10
-9.0327053574
 20
-29.3583743159
 30
0.0
 10
-9.0304939214
 20
-29.5762777542
 30
0.0
 10
-9.0269138168
 20
-29.7778550443
 30
0.0
 10
-9.0221035803
 20
-29.9556685903
 30
0.0
 10
-9.017017084
 20
-30.0859501721
 30
0.0
 10
-9.012238856
 20
-30.1734429401
 30
0.0
 10
-9.0087674285
 20
-30.2251507779
 30
0.0
 10
-9.0050638606
 20
-30.2666362193
 30
0.0
 10
-9.0016200081
 20
-30.298148755
 30
0.0
 10
-8.997632555
 20
-30.3181224498
 30
0.0
 10
-8.9951927893
 20
-30.3289750363
 30
0.0
 10
-8.9927577478
 20
-30.3314158735
 30
0.0
 11
-9.0332002104
 21
-29.132146881
 31
0.0
 11
-9.0324298139
 21
-29.3611619486
 31
0.0
 11
-9.0301470995
 21
-29.5817977461
 31
0.0
 11
-9.0264363509
 21
-29.7858405329
 31
0.0
 11
-9.0214347732
 21
-29.9658612782
 31
0.0
 11
-9.0153258757
 21
-30.1152138914
 31
0.0
 11
-9.011925342
 21
-30.1766373757
 31
0.0
 11
-9.0083357143
 21
-30.2284429076
 31
0.0
 11
-9.0045892362
 21
-30.2701601068
 31
0.0
 11
-9.0007187328
 21
-30.3014058665
 31
0.0
 11
-8.9967606395
 21
-30.3218785322
 31
0.0
 11
-8.9927577478
 21
-30.3314158735
 31
0.0
  0
SPLINE
  5
3C0
100
AcDbEntity
  8
RACCORDO
100
AcDbSpline
 62
253
  6
CONTINUOUS
 70
0
 71
3
 72
13
 73
9
 74
7
 42
0.0000001
 43
0.0000001
 44
0.0000000001
 12
0.3707009616
 22
-2.2220992102
 32
0.0
 13
-0.0000446028
 23
-2.2528080479
 33
0.0
 40
0.0
 40
0.0
 40
0.0
 40
0.0
 40
0.0503662816
 40
0.1281030109
 40
0.2310372472
 40
0.3562424746
 40
0.6584382936
 40
1.0
 40
1.0
 40
1.0
 40
1.0
 10
-9.0970379774
 20
-24.8321567108
 30
0.0
 10
-9.0908143678
 20
-24.8694630024
 30
0.0
 10
-9.0815064513
 20
-24.9653341019
 30
0.0
 10
-9.0698924892
 20
-25.138395083
 30
0.0
 10
-9.0594770206
 20
-25.3678885332
 30
0.0
 10
-9.0464059607
 20
-25.765916225
 30
0.0
 10
-9.0359909054
 20
-26.3432993031
 30
0.0
 10
-9.0331951322
 20
-26.8267199128
 30
0.0
 10
-9.0332002104
 20
-27.0832108998
 30
0.0
 11
-9.0970379774
 21
-24.8321567108
 31
0.0
 11
-9.0839385727
 21
-24.9448635871
 31
0.0
 11
-9.0717015738
 21
-25.1195614605
 31
0.0
 11
-9.0606721467
 21
-25.3511900918
 31
0.0
 11
-9.0511754306
 21
-25.6330935193
 31
0.0
 11
-9.0378293819
 21
-26.3137518634
 31
0.0
 11
-9.0332002104
 21
-27.0832108998
 31
0.0
  0
SPLINE
  5
3C1
100
AcDbEntity
  8
RACCORDO
100
AcDbSpline
 62
253
  6
CONTINUOUS
 70
0
 71
3
 72
13
 73
9
 74
7
 42
0.0000001
 43
0.0000001
 44
0.0000000001
 12
0.0001312067
 22
2.252876342
 32
0.0
 13
0.3706013741
 23
2.2221850623
 33
0.0
 40
0.0
 40
0.0
 40
0.0
 40
0.0
 40
0.3415868338
 40
0.6437975069
 40
0.7690011818
 40
0.871925812
 40
0.9496468108
 40
1.0
 40
1.0
 40
1.0
 40
1.0
 10
9.0332002104
 20
-27.0832108998
 30
0.0
 10
9.0332151499
 20
-26.8266932676
 30
0.0
 10
9.0359790841
 20
-26.3432279369
 30
0.0
 10
9.0464090669
 20
-25.7657985894
 30
0.0
 10
9.0594822133
 20
-25.3677560964
 30
0.0
 10
9.0698989648
 20
-25.1382760428
 30
0.0
 10
9.0815154232
 20
-24.9652385708
 30
0.0
 10
9.0908288021
 20
-24.8693872013
 30
0.0
 10
9.0970491225
 20
-24.8320891664
 30
0.0
 11
9.0332002104
 21
-27.0832108998
 31
0.0
 11
9.0378281966
 21
-26.3136719181
 31
0.0
 11
9.0511790353
 21
-25.6329595538
 31
0.0
 11
9.0606778727
 21
-25.3510511415
 31
0.0
 11
9.0717090976
 21
-25.1194372235
 31
0.0
 11
9.0839496255
 21
-24.9447698007
 31
0.0
 11
9.0970491225
 21
-24.8320891664
 31
0.0
  0
SPLINE
  5
3C2
100
AcDbEntity
  8
RACCORDO
100
AcDbSpline
 62
253
  6
CONTINUOUS
 70
0
 71
3
 72
18
 73
14
 74
12
 42
0.0000001
 43
0.0000001
 44
0.0000000001
 12
0.8484514109
 22
0.8504707629
 32
0.0
 13
0.0000087564
 23
1.2013202384
 33
0.0
 40
0.0
 40
0.0
 40
0.0
 40
0.0
 40
0.0086099506
 40
0.0259673338
 40
0.0521756431
 40
0.0870415257
 40
0.1302687558
 40
0.1814770354
 40
0.3059047199
 40
0.4558149657
 40
0.6256918391
 40
0.8093627694
 40
1.0
 40
1.0
 40
1.0
 40
1.0
 10
8.9927577478
 20
-30.3314158735
 30
0.0
 10
8.9951927894
 20
-30.3289750364
 30
0.0
 10
8.9976325549
 20
-30.3181224498
 30
0.0
 10
9.0016200081
 20
-30.2981487549
 30
0.0
 10
9.0050638606
 20
-30.2666362193
 30
0.0
 10
9.0087674285
 20
-30.2251507779
 30
0.0
 10
9.012238856
 20
-30.1734429401
 30
0.0
 10
9.017017084
 20
-30.0859501721
 30
0.0
 10
9.0221035803
 20
-29.9556685903
 30
0.0
 10
9.0269138168
 20
-29.7778550443
 30
0.0
 10
9.0304939214
 20
-29.5762777542
 30
0.0
 10
9.0327053574
 20
-29.3583743159
 30
0.0
 10
9.033199654
 20
-29.2084856688
 30
0.0
 10
9.0332002104
 20
-29.132146881
 30
0.0
 11
8.9927577478
 21
-30.3314158735
 31
0.0
 11
8.9967606395
 21
-30.3218785323
 31
0.0
 11
9.0007187328
 21
-30.3014058664
 31
0.0
 11
9.0045892362
 21
-30.2701601067
 31
0.0
 11
9.0083357143
 21
-30.2284429076
 31
0.0
 11
9.011925342
 21
-30.1766373757
 31
0.0
 11
9.0153258757
 21
-30.1152138914
 31
0.0
 11
9.0214347732
 21
-29.9658612782
 31
0.0
 11
9.0264363509
 21
-29.7858405329
 31
0.0
 11
9.0301470995
 21
-29.5817977461
 31
0.0
 11
9.0324298139
 21
-29.3611619486
 31
0.0
 11
9.0332002104
 21
-29.132146881
 31
0.0
  0
SPLINE
  5
3C3
100
AcDbEntity
  8
RACCORDO
100
AcDbSpline
 62
253
  6
CONTINUOUS
 70
0
 71
3
 72
21
 73
17
 74
15
 42
0.0000001
 43
0.0000001
 44
0.0000000001
 12
2.6995454234
 22
-2.6806399364
 32
0.0
 13
3.8043890349
 23
-0.0001825164
 33
0.0
 40
0.0
 40
0.0
 40
0.0
 40
0.0
 40
0.0032823508
 40
0.0086609842
 40
0.0162324043
 40
0.026018735
 40
0.0522218918
 40
0.0870847907
 40
0.1303105972
 40
0.1815180805
 40
0.2402345026
 40
0.3059428641
 40
0.4558446148
 40
0.6257131807
 40
0.8093752697
 40
1.0
 40
1.0
 40
1.0
 40
1.0
 10
-9.1506188183
 20
-31.7725801262
 30
0.0
 10
-9.1476651999
 20
-31.7755130597
 30
0.0
 10
-9.1374021644
 20
-31.7803185408
 30
0.0
 10
-9.1178504937
 20
-31.7862826728
 30
0.0
 10
-9.0895577496
 20
-31.7923282459
 30
0.0
 10
-9.035090525
 20
-31.8013498426
 30
0.0
 10
-8.9457727766
 20
-31.8117228084
 30
0.0
 10
-8.8140284583
 20
-31.82321451
 30
0.0
 10
-8.6504234291
 20
-31.8342900448
 30
0.0
 10
-8.4564967483
 20
-31.8448633589
 30
0.0
 10
-8.2339895373
 20
-31.8547854576
 30
0.0
 10
-7.8863402325
 20
-31.8675601996
 30
0.0
 10
-7.3976692225
 20
-31.8807250984
 30
0.0
 10
-6.7593464449
 20
-31.8920837504
 30
0.0
 10
-6.0693162851
 20
-31.89908106
 30
0.0
 10
-5.5946705535
 20
-31.9006363273
 30
0.0
 10
-5.3529336756
 20
-31.9006479246
 30
0.0
 11
-9.1506188183
 21
-31.7725801262
 31
0.0
 11
-9.1398619333
 21
-31.7789222921
 31
0.0
 11
-9.1204025404
 21
-31.7852502
 31
0.0
 11
-9.0922941695
 21
-31.7915451237
 31
0.0
 11
-9.0555903504
 21
-31.7977883365
 31
0.0
 11
-8.9566600536
 21
-31.8100478164
 31
0.0
 11
-8.8245596586
 21
-31.8219112539
 31
0.0
 11
-8.6605051464
 21
-31.8332774654
 31
0.0
 11
-8.4659897898
 21
-31.8440456797
 31
0.0
 11
-8.2428367595
 21
-31.8541154251
 31
0.0
 11
-7.9930287306
 21
-31.8633908897
 31
0.0
 11
-7.4229641196
 21
-31.8792287745
 31
0.0
 11
-6.7768248692
 21
-31.8909805403
 31
0.0
 11
-6.0781402028
 21
-31.8982071215
 31
0.0
 11
-5.3529336756
 21
-31.9006479246
 31
0.0
  0
SPLINE
  5
3C4
100
AcDbEntity
  8
RACCORDO
100
AcDbSpline
 62
253
  6
CONTINUOUS
 70
0
 71
3
 72
21
 73
17
 74
15
 42
0.0000001
 43
0.0000001
 44
0.0000000001
 12
3.8043890327
 22
0.0001825841
 32
0.0
 13
2.6995510606
 23
2.6806342565
 33
0.0
 40
0.0
 40
0.0
 40
0.0
 40
0.0
 40
0.1906247311
 40
0.374286819
 40
0.5441553855
 40
0.6940571367
 40
0.759765498
 40
0.8184819205
 40
0.8696894047
 40
0.9129152115
 40
0.9477781094
 40
0.9739812625
 40
0.9837675908
 40
0.9913390097
 40
0.9967176445
 40
1.0
 40
1.0
 40
1.0
 40
1.0
 10
5.3529336756
 20
-31.9006479246
 30
0.0
 10
5.5946705544
 20
-31.900636323
 30
0.0
 10
6.0693162853
 20
-31.8990810614
 30
0.0
 10
6.7593464451
 20
-31.8920837505
 30
0.0
 10
7.3976692222
 20
-31.8807250979
 30
0.0
 10
7.8863402331
 20
-31.8675601998
 30
0.0
 10
8.2339895387
 20
-31.8547854574
 30
0.0
 10
8.456496751
 20
-31.8448633589
 30
0.0
 10
8.6504234338
 20
-31.8342900451
 30
0.0
 10
8.8140284629
 20
-31.8232145101
 30
0.0
 10
8.9457727759
 20
-31.8117228082
 30
0.0
 10
9.0350905148
 20
-31.8013498429
 30
0.0
 10
9.0895577307
 20
-31.7923282469
 30
0.0
 10
9.1178504707
 20
-31.7862826736
 30
0.0
 10
9.1374021498
 20
-31.7803185403
 30
0.0
 10
9.1476651895
 20
-31.7755130578
 30
0.0
 10
9.1506188183
 20
-31.7725801262
 30
0.0
 11
5.3529336756
 21
-31.9006479246
 31
0.0
 11
6.0781402054
 21
-31.8982071213
 31
0.0
 11
6.7768248673
 21
-31.8909805405
 31
0.0
 11
7.4229641196
 21
-31.8792287743
 31
0.0
 11
7.993028732
 21
-31.8633908897
 31
0.0
 11
8.2428367601
 21
-31.854115425
 31
0.0
 11
8.4659897921
 21
-31.8440456798
 31
0.0
 11
8.6605051515
 21
-31.8332774655
 31
0.0
 11
8.8245596651
 21
-31.8219112536
 31
0.0
 11
8.9566600561
 21
-31.8100478158
 31
0.0
 11
9.0555903388
 21
-31.7977883369
 31
0.0
 11
9.0922941488
 21
-31.7915451249
 31
0.0
 11
9.1204025152
 21
-31.7852502018
 31
0.0
 11
9.1398619132
 21
-31.7789222936
 31
0.0
 11
9.1506188183
 21
-31.7725801262
 31
0.0
  0
SPLINE
  5
3C5
100
AcDbEntity
  8
RACCORDO
100
AcDbSpline
 62
253
  6
CONTINUOUS
 70
0
 71
3
 72
9
 73
5
 74
3
 42
0.0000001
 43
0.0000001
 44
0.0000000001
 12
-1.4851203503
 22
-0.0000794102
 32
0.0
 13
-1.4844710971
 23
-0.0439092597
 33
0.0
 40
0.0
 40
0.0
 40
0.0
 40
0.0
 40
0.2703046511
 40
1.0
 40
1.0
 40
1.0
 40
1.0
 10
-9.9550242755
 20
-35.265773875
 30
0.0
 10
-10.0888359216
 20
-35.26578103
 30
0.0
 10
-10.5838692375
 20
-35.2673596809
 30
0.0
 10
-11.0789268349
 20
-35.2740775337
 30
0.0
 10
-11.4399973866
 20
-35.2847576612
 30
0.0
 11
-9.9550242755
 21
-35.265773875
 31
0.0
 11
-10.3564573112
 21
-35.2670099571
 31
0.0
 11
-11.4399973866
 21
-35.2847576612
 31
0.0
  0
SPLINE
  5
3C6
100
AcDbEntity
  8
RACCORDO
100
AcDbSpline
 62
253
  6
CONTINUOUS
 70
0
 71
3
 72
9
 73
5
 74
3
 42
0.0000001
 43
0.0000001
 44
0.0000000001
 12
-1.4844817881
 22
0.0439144034
 32
0.0
 13
-1.4851311897
 23
0.0000579065
 33
0.0
 40
0.0
 40
0.0
 40
0.0
 40
0.0
 40
0.4675713658
 40
1.0
 40
1.0
 40
1.0
 40
1.0
 10
11.4399973864
 20
-35.2847576612
 30
0.0
 10
11.2086303273
 20
-35.2779132887
 30
0.0
 10
10.7136454003
 20
-35.2686904902
 30
0.0
 10
10.2185997325
 20
-35.265784152
 30
0.0
 10
9.9550242755
 20
-35.265773875
 30
0.0
 11
11.4399973864
 21
-35.2847576612
 31
0.0
 11
10.7457354912
 21
-35.2706695791
 31
0.0
 11
9.9550242755
 21
-35.265773875
 31
0.0
  0
ELLIPSE
  5
3C7
100
AcDbEntity
  8
COPY-PUBBLISH
100
AcDbEllipse
 62
7
  6
CONTINUOUS
 10
11.7064151855
 20
-11.8832108998
 30
0.0
 11
0.0
 21
0.3
 31
0.0
 40
0.0087268678
 41
-0.0
 42
1.5707963268
  0
ELLIPSE
  5
3C8
100
AcDbEntity
  8
COPY-PUBBLISH
100
AcDbEllipse
 62
7
  6
CONTINUOUS
 10
11.7099059326
 20
9.6167891002
 30
0.0
 11
0.0
 21
0.3
 31
0.0
 40
0.0087268678
 41
-1.5707963268
 42
0.0
  0
ELLIPSE
  5
3C9
100
AcDbEntity
  8
COPY-PUBBLISH
100
AcDbEllipse
 62
7
  6
CONTINUOUS
 10
-11.7099059326
 20
2.2167891002
 30
0.0
 11
0.0
 21
0.3
 31
0.0
 40
0.0087268678
 41
-4.7123889804
 42
-3.1415926536
  0
ELLIPSE
  5
3CA
100
AcDbEntity
  8
DRAFT
100
AcDbEllipse
 62
7
  6
CONTINUOUS
 10
-11.5729397715
 20
-4.3832108998
 30
0.0
 11
0.0
 21
6.8532742444
 31
0.0
 40
0.0087268703
 41
-4.7123889804
 42
-3.1408291515
  0
ELLIPSE
  5
3CB
100
AcDbEntity
  8
RACCORDO
100
AcDbEllipse
 62
7
  6
CONTINUOUS
 10
-10.0352533351
 20
37.4952078812
 30
0.0
 11
0.8
 21
-0.0
 31
0.0
 40
0.0349207695
 41
0.034906585
 42
1.5707963268
  0
ELLIPSE
  5
3CC
100
AcDbEntity
  8
RACCORDO
100
AcDbEllipse
 62
7
  6
CONTINUOUS
 10
10.0352533351
 20
37.4952078812
 30
0.0
 11
0.8
 21
0.0
 31
0.0
 40
0.0349207695
 41
1.5707963268
 42
3.1066860685
  0
ELLIPSE
  5
3CD
100
AcDbEntity
  8
COPY-PUBBLISH
100
AcDbEllipse
 62
7
  6
CONTINUOUS
 10
-11.7064151855
 20
-11.8832108998
 30
0.0
 11
0.0
 21
0.3
 31
0.0
 40
0.0087268678
 41
-1.5707963268
 42
-0.0
  0
ELLIPSE
  5
3CE
100
AcDbEntity
  8
COPY-PUBBLISH
100
AcDbEllipse
 62
7
  6
CONTINUOUS
 10
11.7099059326
 20
2.2167891002
 30
0.0
 11
-0.0
 21
0.3
 31
0.0
 40
0.0087268678
 41
-3.1415926536
 42
-1.5707963268
  0
ELLIPSE
  5
3CF
100
AcDbEntity
  8
COPY-PUBBLISH
100
AcDbEllipse
 62
7
  6
CONTINUOUS
 10
-11.7099059326
 20
9.6167891002
 30
0.0
 11
0.0
 21
0.3
 31
0.0
 40
0.0087268678
 41
0.0
 42
1.5707963268
  0
ELLIPSE
  5
3D0
100
AcDbEntity
  8
RACCORDO
100
AcDbEllipse
 62
7
  6
CONTINUOUS
 10
-11.685211402
 20
-27.3992153236
 30
0.0
 11
-0.0
 21
2.0
 31
0.0
 40
0.0087268678
 41
-3.926990817
 42
-3.1764992386
  0
ELLIPSE
  5
3D1
100
AcDbEntity
  8
RACCORDO
100
AcDbEllipse
 62
7
  6
CONTINUOUS
 10
-11.6863433895
 20
-27.2695024008
 30
0.0
 11
-0.0
 21
2.0
 31
0.0
 40
0.0087268678
 41
-4.7123889804
 42
-3.926990817
  0
ELLIPSE
  5
3D2
100
AcDbEntity
  8
RACCORDO
100
AcDbEllipse
 62
7
  6
CONTINUOUS
 10
11.685211402
 20
-27.3992153236
 30
0.0
 11
0.0
 21
2.0
 31
0.0
 40
0.0087268678
 41
-3.1066860685
 42
-2.3561944902
  0
ELLIPSE
  5
3D3
100
AcDbEntity
  8
RACCORDO
100
AcDbEllipse
 62
7
  6
CONTINUOUS
 10
11.6863433895
 20
-27.2695024008
 30
0.0
 11
0.0
 21
2.0
 31
0.0
 40
0.0087268678
 41
-2.3561944902
 42
-1.5707963268
  0
ELLIPSE
  5
3D4
100
AcDbEntity
  8
RACCORDO
100
AcDbEllipse
 62
7
  6
CONTINUOUS
 10
5.3529336756
 20
-30.2689239744
 30
0.0
 11
3.0
 21
0.0
 31
0.0
 40
0.0349207695
 41
-1.5707963268
 42
-0.034906585
  0
ELLIPSE
  5
3D5
100
AcDbEntity
  8
RACCORDO
100
AcDbEllipse
 62
7
  6
CONTINUOUS
 10
-5.3529336756
 20
-30.2689239744
 30
0.0
 11
3.0
 21
-0.0
 31
0.0
 40
0.0349207695
 41
-3.1066860685
 42
-1.5707963268
  0
ELLIPSE
  5
3D6
100
AcDbEntity
  8
RACCORDO
100
AcDbEllipse
 62
7
  6
CONTINUOUS
 10
-9.9550242755
 20
-36.845116671
 30
0.0
 11
1.5
 21
-0.0
 31
0.0
 40
0.0349207695
 41
1.5707963268
 42
3.1328660073
  0
ELLIPSE
  5
3D7
100
AcDbEntity
  8
RACCORDO
100
AcDbEllipse
 62
7
  6
CONTINUOUS
 10
9.9550242755
 20
-36.845116671
 30
0.0
 11
1.5
 21
0.0
 31
0.0
 40
0.0349207695
 41
0.0087266463
 42
1.5707963268
  0
ELLIPSE
  5
3D8
100
AcDbEntity
  8
DRAFT
100
AcDbEllipse
 62
7
  6
CONTINUOUS
 10
-11.5729397715
 20
16.2167891002
 30
0.0
 11
0.0
 21
6.8532742444
 31
0.0
 40
0.0087268703
 41
-0.0007635021
 42
1.5707963268
  0
ELLIPSE
  5
3D9
100
AcDbEntity
  8
DRAFT
100
AcDbEllipse
 62
7
  6
CONTINUOUS
 10
11.5729397715
 20
-4.3832108998
 30
0.0
 11
0.0
 21
6.8532742444
 31
0.0
 40
0.0087268703
 41
-3.1423561557
 42
-1.5707963268
  0
ELLIPSE
  5
3DA
100
AcDbEntity
  8
DRAFT
100
AcDbEllipse
 62
7
  6
CONTINUOUS
 10
11.5729397715
 20
16.2167891002
 30
0.0
 11
0.0
 21
6.8532742444
 31
0.0
 40
0.0087268703
 41
-1.5707963268
 42
0.0007634734
  0
ELLIPSE
  5
3DB
100
AcDbEntity
  8
RACCORDO
100
AcDbEllipse
 62
7
  6
CONTINUOUS
 10
11.7387045963
 20
-29.7547837751
 30
0.0
 11
0.0
 21
2.0
 31
0.0
 40
0.0087268678
 41
-2.3561944902
 42
-1.5707963268
  0
ELLIPSE
  5
3DC
100
AcDbEntity
  8
RACCORDO
100
AcDbEllipse
 62
7
  6
CONTINUOUS
 10
-11.7387045963
 20
-29.7547837751
 30
0.0
 11
0.0
 21
2.0
 31
0.0
 40
0.0087268678
 41
-4.7123889804
 42
-3.926990817
  0
ELLIPSE
  5
3DD
100
AcDbEntity
  8
RACCORDO
100
AcDbEllipse
 62
7
  6
CONTINUOUS
 10
-11.686221
 20
-35.7688082292
 30
0.0
 11
0.0
 21
2.0
 31
0.0
 40
0.0087268678
 41
-3.926990817
 42
-3.1422885632
  0
ELLIPSE
  5
3DE
100
AcDbEntity
  8
RACCORDO
100
AcDbEllipse
 62
7
  6
CONTINUOUS
 10
-11.6270006886
 20
-29.132146881
 30
0.0
 11
-0.0
 21
2.0
 31
0.0
 40
0.0087268678
 41
-4.7123889804
 42
-3.1764992386
  0
ELLIPSE
  5
3DF
100
AcDbEntity
  8
RACCORDO
100
AcDbEllipse
 62
7
  6
CONTINUOUS
 10
11.6270006886
 20
-29.132146881
 30
0.0
 11
0.0
 21
2.0
 31
0.0
 40
0.0087268678
 41
-3.1066860685
 42
-1.5707963268
  0
ELLIPSE
  5
3E0
100
AcDbEntity
  8
RACCORDO
100
AcDbEllipse
 62
7
  6
CONTINUOUS
 10
-11.6662715936
 20
-27.9753081905
 30
0.0
 11
-0.0
 21
1.5
 31
0.0
 40
0.0087268678
 41
-3.1409284474
 42
-1.5707963268
  0
ELLIPSE
  5
3E1
100
AcDbEntity
  8
RACCORDO
100
AcDbEllipse
 62
7
  6
CONTINUOUS
 10
11.6662715936
 20
-27.0832108998
 30
0.0
 11
-0.0
 21
1.5
 31
0.0
 40
0.0087268678
 41
0.0883625014
 42
1.5707963268
  0
ELLIPSE
  5
3E2
100
AcDbEntity
  8
COPY-PUBBLISH
100
AcDbEllipse
 62
7
  6
CONTINUOUS
 10
-11.7151420532
 20
-0.3832108998
 30
0.0
 11
-0.0
 21
0.3
 31
0.0
 40
0.0087268678
 41
-1.5707963268
 42
-0.0
  0
ELLIPSE
  5
3E3
100
AcDbEntity
  8
RACCORDO
100
AcDbEllipse
 62
7
  6
CONTINUOUS
 10
11.686221
 20
-35.7688082292
 30
0.0
 11
0.0
 21
2.0
 31
0.0
 40
0.0087268678
 41
-3.140896744
 42
-2.3561944902
  0
ELLIPSE
  5
3E4
100
AcDbEntity
  8
RACCORDO
100
AcDbEllipse
 62
7
  6
CONTINUOUS
 10
4.2177105892
 20
-36.0652865366
 30
0.0
 11
0.0
 21
0.8
 31
0.0
 40
0.0087268678
 41
0.034906585
 42
1.5707963268
  0
ELLIPSE
  5
3E5
100
AcDbEntity
  8
RACCORDO
100
AcDbEllipse
 62
7
  6
CONTINUOUS
 10
-4.2177105892
 20
-36.0652865366
 30
0.0
 11
0.0
 21
0.8
 31
0.0
 40
0.0087268678
 41
-1.5707963268
 42
-0.034906585
  0
ELLIPSE
  5
3E6
100
AcDbEntity
  8
RACCORDO
100
AcDbEllipse
 62
7
  6
CONTINUOUS
 10
4.2177105892
 20
-31.101135263
 30
0.0
 11
0.0
 21
0.8
 31
0.0
 40
0.0087268678
 41
1.5707963268
 42
3.1066860686
  0
ELLIPSE
  5
3E7
100
AcDbEntity
  8
RACCORDO
100
AcDbEllipse
 62
7
  6
CONTINUOUS
 10
-4.2177105892
 20
-31.101135263
 30
0.0
 11
0.0
 21
0.8
 31
0.0
 40
0.0087268678
 41
-3.1066860685
 42
-1.5707963268
  0
ELLIPSE
  5
3E8
100
AcDbEntity
  8
RACCORDO
100
AcDbEllipse
 62
7
  6
CONTINUOUS
 10
11.6880887631
 20
36.2956955166
 30
0.0
 11
0.0
 21
0.8
 31
0.0
 40
0.0087268678
 41
-3.1066860685
 42
-1.5707963268
  0
ELLIPSE
  5
3E9
100
AcDbEntity
  8
RACCORDO
100
AcDbEllipse
 62
7
  6
CONTINUOUS
 10
-11.6880887631
 20
36.2956955166
 30
0.0
 11
0.0
 21
0.8
 31
0.0
 40
0.0087268678
 41
-4.7123889804
 42
-3.1764992386
  0
ELLIPSE
  5
3EA
100
AcDbEntity
  8
COPY-PUBBLISH
100
AcDbEllipse
 62
7
  6
CONTINUOUS
 10
11.7273596682
 20
11.6167891002
 30
0.0
 11
-0.0
 21
0.3
 31
0.0
 40
0.0087268678
 41
-1.5707963268
 42
-0.0
  0
ELLIPSE
  5
3EB
100
AcDbEntity
  8
COPY-PUBBLISH
100
AcDbEllipse
 62
7
  6
CONTINUOUS
 10
-11.7273596682
 20
0.2167891002
 30
0.0
 11
0.0
 21
0.3
 31
0.0
 40
0.0087268678
 41
-4.7123889804
 42
-3.1415926536
  0
ELLIPSE
  5
3EC
100
AcDbEntity
  8
COPY-PUBBLISH
100
AcDbEllipse
 62
7
  6
CONTINUOUS
 10
11.6976883177
 20
9.6167891002
 30
0.0
 11
0.0
 21
0.3
 31
0.0
 40
0.0087268678
 41
0.0
 42
1.4007821537
  0
ELLIPSE
  5
3ED
100
AcDbEntity
  8
COPY-PUBBLISH
100
AcDbEllipse
 62
7
  6
CONTINUOUS
 10
11.6976883177
 20
2.2167891002
 30
0.0
 11
0.0
 21
0.3
 31
0.0
 40
0.0087268678
 41
-4.5778554526
 42
-3.1415926536
  0
ELLIPSE
  5
3EE
100
AcDbEntity
  8
COPY-PUBBLISH
100
AcDbEllipse
 62
7
  6
CONTINUOUS
 10
-11.6976883177
 20
9.6167891002
 30
0.0
 11
0.0
 21
0.3
 31
0.0
 40
0.0087268678
 41
-1.436262799
 42
0.0
  0
ELLIPSE
  5
3EF
100
AcDbEntity
  8
RACCORDO
100
AcDbEllipse
 62
7
  6
CONTINUOUS
 10
-10.0631899507
 20
-24.7832108998
 30
0.0
 11
-0.8004876354
 21
0.0
 31
0.0
 40
0.999390827
 41
1.5707963268
 42
3.0789547211
  0
ELLIPSE
  5
3F0
100
AcDbEntity
  8
COPY-PUBBLISH
100
AcDbEllipse
 62
7
  6
CONTINUOUS
 10
11.7273596682
 20
0.2167891002
 30
0.0
 11
0.0
 21
0.3
 31
0.0
 40
0.0087268678
 41
-3.1415926536
 42
-1.5707963268
  0
ELLIPSE
  5
3F1
100
AcDbEntity
  8
COPY-PUBBLISH
100
AcDbEllipse
 62
7
  6
CONTINUOUS
 10
-11.6976883177
 20
2.2167891002
 30
0.0
 11
0.0
 21
0.3
 31
0.0
 40
0.0087268678
 41
-3.1415926536
 42
-1.7408104999
  0
ELLIPSE
  5
3F2
100
AcDbEntity
  8
COPY-PUBBLISH
100
AcDbEllipse
 62
7
  6
CONTINUOUS
 10
-11.6889614499
 20
-10.2832108998
 30
0.0
 11
-0.0
 21
0.3
 31
0.0
 40
0.0087268678
 41
-1.5707963268
 42
0.0
  0
ELLIPSE
  5
3F3
100
AcDbEntity
  8
COPY-PUBBLISH
100
AcDbEllipse
 62
7
  6
CONTINUOUS
 10
11.6889614499
 20
-10.2832108998
 30
0.0
 11
-0.0
 21
0.3
 31
0.0
 40
0.0087268678
 41
-0.0
 42
1.5707963268
  0
ELLIPSE
  5
3F4
100
AcDbEntity
  8
COPY-PUBBLISH
100
AcDbEllipse
 62
7
  6
CONTINUOUS
 10
11.7151420532
 20
-0.3832108998
 30
0.0
 11
-0.0
 21
0.3
 31
0.0
 40
0.0087268678
 41
-0.0
 42
1.5707963268
  0
ELLIPSE
  5
3F5
100
AcDbEntity
  8
COPY-PUBBLISH
100
AcDbEllipse
 62
7
  6
CONTINUOUS
 10
11.7151420532
 20
12.2167891002
 30
0.0
 11
-0.0
 21
0.3
 31
0.0
 40
0.0087268678
 41
-4.7123889804
 42
-3.1415926536
  0
ELLIPSE
  5
3F6
100
AcDbEntity
  8
RACCORDO
100
AcDbEllipse
 62
7
  6
CONTINUOUS
 10
-11.6662715936
 20
-27.0832108998
 30
0.0
 11
0.0
 21
1.5
 31
0.0
 40
0.0087268678
 41
-1.5707963268
 42
-0.0
  0
ELLIPSE
  5
3F7
100
AcDbEntity
  8
COPY-PUBBLISH
100
AcDbEllipse
 62
7
  6
CONTINUOUS
 10
-11.7273596682
 20
11.6167891002
 30
0.0
 11
0.0
 21
0.3
 31
0.0
 40
0.0087268678
 41
0.0
 42
1.5707963268
  0
ELLIPSE
  5
3F8
100
AcDbEntity
  8
RACCORDO
100
AcDbEllipse
 62
7
  6
CONTINUOUS
 10
10.0631899507
 20
-24.7832108998
 30
0.0
 11
-0.8004876354
 21
0.0
 31
0.0
 40
0.999390827
 41
0.0626379325
 42
1.5707963268
  0
ELLIPSE
  5
3F9
100
AcDbEntity
  8
COPY-PUBBLISH
100
AcDbEllipse
 62
7
  6
CONTINUOUS
 10
-11.7151420532
 20
12.2167891002
 30
0.0
 11
-0.0
 21
0.3
 31
0.0
 40
0.0087268678
 41
-3.1415926536
 42
-1.5707963268
  0
ELLIPSE
  5
3FA
100
AcDbEntity
  8
RACCORDO
100
AcDbEllipse
 62
7
  6
CONTINUOUS
 10
11.6662715936
 20
-27.9753081905
 30
0.0
 11
-0.0
 21
1.5
 31
0.0
 40
0.0087268678
 41
1.5707963268
 42
3.1409284474
  0
ELLIPSE
  5
3FB
100
AcDbEntity
  8
DRAFT
100
AcDbEllipse
 62
7
  6
CONTINUOUS
 10
11.4769441698
 20
-4.3832108998
 30
0.0
 11
0.0
 21
6.84487572
 31
0.0
 40
0.0087268703
 41
-4.7123889804
 42
-3.1423561557
  0
ELLIPSE
  5
3FC
100
AcDbEntity
  8
DRAFT
100
AcDbEllipse
 62
7
  6
CONTINUOUS
 10
-11.4769441698
 20
16.2167891002
 30
0.0
 11
0.0
 21
6.84487572
 31
0.0
 40
0.0087268703
 41
-1.5707963268
 42
-0.0007635021
  0
ENDSEC
  0
SECTION
  2
OBJECTS
  0
DICTIONARY
  5
C
100
AcDbDictionary
280
0
281
1
  3
ACAD_GROUP
350
D
  3
ACAD_MLINESTYLE
350
17
  3
ACAD_LAYOUT
350
1A
  3
ACAD_PLOTSETTINGS
350
19
  3
ACAD_PLOTSTYLENAME
350
E
  0
DICTIONARY
  5
D
102
{ACAD_REACTORS
330
C
102
}
100
AcDbDictionary
280
0
281
1
  0
ACDBDICTIONARYWDFLT
  5
E
102
{ACAD_REACTORS
330
C
102
}
100
AcDbDictionary
281
1
  3
Normal
350
F
100
AcDbDictionaryWithDefault
340
F
  0
DICTIONARY
  5
17
102
{ACAD_REACTORS
330
C
102
}
100
AcDbDictionary
280
0
281
1
  3
Standard
350
18
  0
DICTIONARY
  5
19
102
{ACAD_REACTORS
330
C
102
}
100
AcDbDictionary
281
1
  0
DICTIONARY
  5
1A
102
{ACAD_REACTORS
330
C
102
}
100
AcDbDictionary
281
1
  3
Model
350
3FD
  3
Layout1
350
3FE
  0
ACDBPLACEHOLDER
  5
F
102
{ACAD_REACTORS
330
E
102
}
  0
MLINESTYLE
  5
18
102
{ACAD_REACTORS
330
17
102
}
100
AcDbMlineStyle
  2
STANDARD
 70
0
  3

 62
256
 51
90.0
 52
90.0
 71
2
 49
0.5
 62
256
  6
BYLAYER
 49
-0.5
 62
256
  6
BYLAYER
  0
LAYOUT
  5
3FD
102
{ACAD_REACTORS
330
1A
102
}
100
AcDbPlotSettings
  1

  2
none_device
  4
ISO_A4_(297.00_x_210.00_MM)
  6

 40
0.0
 41
0.0
 42
0.0
 43
0.0
 44
297.0
 45
210.0
 46
0.0
 47
0.0
 48
0.0
 49
0.0
140
0.0
141
0.0
142
1.0
143
1.0
 70
1024
 72
1
 73
0
 74
0
  7

 75
0
147
1.0
148
0.0
149
0.0
100
AcDbLayout
  1
Model
 70
0
 71
0
 10
0.0
 20
0.0
 11
297.0
 21
210.0
 12
0.0
 22
0.0
 32
0.0
 14
0.0
 24
0.0
 34
0.0
 15
0.0
 25
0.0
 35
0.0
146
0.0
 13
0.0
 23
0.0
 33
0.0
 16
1.0
 26
0.0
 36
0.0
 17
0.0
 27
1.0
 37
0.0
 76
0
330
212
345
0
346
0
  0
LAYOUT
  5
3FE
102
{ACAD_REACTORS
330
1A
102
}
100
AcDbPlotSettings
  1

  2
none_device
  4
ISO_A4_(297.00_x_210.00_MM)
  6

 40
0.0
 41
0.0
 42
0.0
 43
0.0
 44
297.0
 45
210.0
 46
0.0
 47
0.0
 48
0.0
 49
0.0
140
0.0
141
0.0
142
1.0
143
1.0
 70
0
 72
1
 73
0
 74
0
  7

 75
0
147
1.0
148
0.0
149
0.0
100
AcDbLayout
  1
Layout1
 70
0
 71
1
 10
0.0
 20
0.0
 11
297.0
 21
210.0
 12
0.0
 22
0.0
 32
0.0
 14
0.0
 24
0.0
 34
0.0
 15
0.0
 25
0.0
 35
0.0
146
0.0
 13
0.0
 23
0.0
 33
0.0
 16
1.0
 26
0.0
 36
0.0
 17
0.0
 27
1.0
 37
0.0
 76
0
330
213
345
0
346
0
  0
ENDSEC
  0
EOF
