  0
SECTION
  2
HEADER
  9
$ACADVER
  1
AC1015
  9
$DWGCODEPAGE
  3
ANSI_1252
  9
$EXTMAX
 10
297.0
 20
210.0
 30
0.0
  9
$EXTMIN
 10
0.0
 20
0.0
 30
0.0
  9
$LIMMIN
 10
0.0
 20
0.0
  9
$LIMMAX
 10
297.0
 20
210.0
  9
$VIEWCTR
 10
148.5
 20
105.0
  9
$VIEWSIZE
 40
210.0
  9
$CLAYER
  8
0
  9
$LTSCALE
 40
16.335
  9
$CELTYPE
  6
BYLAYER
  9
$DIMSCALE
 40
1.0
  9
$DIMASZ
 40
3.0
  9
$DIMEXO
 40
1.85625
  9
$DIMDLI
 40
11.286
  9
$DIMEXE
 40
5.346
  9
$DIMCEN
 40
2.673
  9
$DIMLFAC
 40
1.0
  9
$DIMBLK
  1
_FILLED
  9
$DIMTXT
 40
3.0
  9
$DIMTOL
 70
1
  9
$DIMLIM
 70
0
  9
$DIMTFAC
 40
1.0
  9
$DIMTP
 40
0.01
  9
$DIMTM
 40
0.01
  9
$PDMODE
 70
3
  9
$PDSIZE
 40
3.0
  9
$HANDSEED
  5
417
  9
$TILEMODE
 70
1
  9
$MEASUREMENT
 70
1
  9
$INSUNITS
 70
4
  0
ENDSEC
  0
SECTION
  2
CLASSES
  0
CLASS
  1
ACDBDICTIONARYWDFLT
  2
AcDbDictionaryWithDefault
  3
AutoCAD 2000
 90
0
280
0
281
0
  0
CLASS
  1
ACDBPLACEHOLDER
  2
AcDbPlaceHolder
  3
AutoCAD 2000
 90
0
280
0
281
0
  0
CLASS
  1
LAYOUT
  2
AcDbLayout
  3
AutoCAD 2000
 90
0
280
0
281
0
  0
ENDSEC
  0
SECTION
  2
TABLES
  0
TABLE
  2
VPORT
  5
8
100
AcDbSymbolTable
 70
2
  0
VPORT
  5
1F4
100
AcDbSymbolTableRecord
100
AcDbViewportTableRecord
  2
*ACTIVE
 70
0
 10
0.0
 20
0.0
 11
1.0
 21
1.0
 12
148.5
 22
105.0
 13
0.0
 23
0.0
 14
1.0
 24
1.0
 15
0.0
 25
0.0
 16
0.0
 26
0.0
 36
1.0
 17
0.0
 27
0.0
 37
0.0
 40
210.0
 41
1.4142857143
 42
50.0
 43
0.0
 44
0.0
 50
0.0
 51
0.0
 71
0
 72
100
 73
1
 74
1
 75
0
 76
0
 77
0
 78
0
  0
ENDTAB
  0
TABLE
  2
LTYPE
  5
5
100
AcDbSymbolTable
 70
6
  0
LTYPE
  5
14
100
AcDbSymbolTableRecord
100
AcDbLinetypeTableRecord
  2
BYBLOCK
 70
0
  3

 72
65
 73
0
 40
0.0
  0
LTYPE
  5
15
100
AcDbSymbolTableRecord
100
AcDbLinetypeTableRecord
  2
BYLAYER
 70
0
  3

 72
65
 73
0
 40
0.0
  0
LTYPE
  5
16
100
AcDbSymbolTableRecord
100
AcDbLinetypeTableRecord
  2
CONTINUOUS
 70
64
  3
Solid line
 72
65
 73
0
 40
0.0
  0
LTYPE
  5
1F5
100
AcDbSymbolTableRecord
100
AcDbLinetypeTableRecord
  2
CENTER
 70
64
  3
____ _ ____ _ ____ _ ____ _ ____ _ ____ _ ____
 72
65
 73
4
 40
0.6
 49
0.375
 74
0
 49
-0.075
 74
0
 49
0.075
 74
0
 49
-0.075
 74
0
  0
LTYPE
  5
1F6
100
AcDbSymbolTableRecord
100
AcDbLinetypeTableRecord
  2
HIDDEN
 70
64
  3
- - - - - - - - - - - - - - - - - - - -
 72
65
 73
2
 40
0.2
 49
0.1
 74
0
 49
-0.1
 74
0
  0
LTYPE
  5
1F7
100
AcDbSymbolTableRecord
100
AcDbLinetypeTableRecord
  2
PHANTOM
 70
64
  3
_____ _ _ _____ _ _ _____ _ _ _____
 72
65
 73
6
 40
0.8
 49
0.45
 74
0
 49
-0.05
 74
0
 49
0.1
 74
0
 49
-0.05
 74
0
 49
0.1
 74
0
 49
-0.05
 74
0
  0
LTYPE
  5
1F8
100
AcDbSymbolTableRecord
100
AcDbLinetypeTableRecord
  2
DOT
 70
64
  3
. . . . . . . . . . . . . . . . . . . .
 72
65
 73
2
 40
0.2
 49
0.1
 74
0
 49
-0.1
 74
0
  0
LTYPE
  5
1F9
100
AcDbSymbolTableRecord
100
AcDbLinetypeTableRecord
  2
DASHED
 70
64
  3
- - - - - - - - - - - - - - - - - - - -
 72
65
 73
2
 40
0.2
 49
0.1
 74
0
 49
-0.1
 74
0
  0
ENDTAB
  0
TABLE
  2
LAYER
  5
2
100
AcDbSymbolTable
 70
36
  0
LAYER
  5
10
100
AcDbSymbolTableRecord
100
AcDbLayerTableRecord
  2
0
 70
0
 62
7
  6
CONTINUOUS
370
-3
390
F
  0
LAYER
  5
1FA
100
AcDbSymbolTableRecord
100
AcDbLayerTableRecord
  2
DEFAULT_1
 70
0
 62
7
  6
CENTER
370
-3
390
F
  0
LAYER
  5
1FB
100
AcDbSymbolTableRecord
100
AcDbLayerTableRecord
  2
DEFAULT_2
 70
0
 62
7
  6
HIDDEN
370
-3
390
F
  0
LAYER
  5
1FC
100
AcDbSymbolTableRecord
100
AcDbLayerTableRecord
  2
DEFAULT_3
 70
0
 62
7
  6
PHANTOM
370
-3
390
F
  0
LAYER
  5
1FD
100
AcDbSymbolTableRecord
100
AcDbLayerTableRecord
  2
ASSI
 70
0
 62
7
  6
CONTINUOUS
370
-3
390
F
  0
LAYER
  5
1FE
100
AcDbSymbolTableRecord
100
AcDbLayerTableRecord
  2
COORDINATE
 70
0
 62
7
  6
CONTINUOUS
370
-3
390
F
  0
LAYER
  5
1FF
100
AcDbSymbolTableRecord
100
AcDbLayerTableRecord
  2
COORD_ORIGINE
 70
0
 62
7
  6
CONTINUOUS
370
-3
390
F
  0
LAYER
  5
200
100
AcDbSymbolTableRecord
100
AcDbLayerTableRecord
  2
COPY-PUBBLISH
 70
0
 62
7
  6
CONTINUOUS
370
-3
390
F
  0
LAYER
  5
201
100
AcDbSymbolTableRecord
100
AcDbLayerTableRecord
  2
COPY_PUBLISH
 70
0
 62
7
  6
CONTINUOUS
370
-3
390
F
  0
LAYER
  5
202
100
AcDbSymbolTableRecord
100
AcDbLayerTableRecord
  2
COSMETIC
 70
0
 62
7
  6
CONTINUOUS
370
-3
390
F
  0
LAYER
  5
203
100
AcDbSymbolTableRecord
100
AcDbLayerTableRecord
  2
CURVE
 70
0
 62
7
  6
CONTINUOUS
370
-3
390
F
  0
LAYER
  5
204
100
AcDbSymbolTableRecord
100
AcDbLayerTableRecord
  2
DRAFT
 70
0
 62
7
  6
CONTINUOUS
370
-3
390
F
  0
LAYER
  5
205
100
AcDbSymbolTableRecord
100
AcDbLayerTableRecord
  2
IGES-SCRITTE
 70
0
 62
7
  6
CONTINUOUS
370
-3
390
F
  0
LAYER
  5
206
100
AcDbSymbolTableRecord
100
AcDbLayerTableRecord
  2
IMPORT_IGES
 70
0
 62
7
  6
CONTINUOUS
370
-3
390
F
  0
LAYER
  5
207
100
AcDbSymbolTableRecord
100
AcDbLayerTableRecord
  2
PIANI
 70
0
 62
7
  6
CONTINUOUS
370
-3
390
F
  0
LAYER
  5
208
100
AcDbSymbolTableRecord
100
AcDbLayerTableRecord
  2
PIANI-RIFERIMENTO
 70
0
 62
7
  6
CONTINUOUS
370
-3
390
F
  0
LAYER
  5
209
100
AcDbSymbolTableRecord
100
AcDbLayerTableRecord
  2
PIANI_ORIGINE
 70
0
 62
7
  6
CONTINUOUS
370
-3
390
F
  0
LAYER
  5
20A
100
AcDbSymbolTableRecord
100
AcDbLayerTableRecord
  2
PUNTI
 70
0
 62
7
  6
CONTINUOUS
370
-3
390
F
  0
LAYER
  5
20B
100
AcDbSymbolTableRecord
100
AcDbLayerTableRecord
  2
RACCORDO
 70
0
 62
7
  6
CONTINUOUS
370
-3
390
F
  0
LAYER
  5
20C
100
AcDbSymbolTableRecord
100
AcDbLayerTableRecord
  2
SMUSSO
 70
0
 62
7
  6
CONTINUOUS
370
-3
390
F
  0
LAYER
  5
20D
100
AcDbSymbolTableRecord
100
AcDbLayerTableRecord
  2
SNAPLINE
 70
0
 62
7
  6
CONTINUOUS
370
-3
390
F
  0
LAYER
  5
20E
100
AcDbSymbolTableRecord
100
AcDbLayerTableRecord
  2
TRASH
 70
0
 62
7
  6
CONTINUOUS
370
-3
390
F
  0
LAYER
  5
20F
100
AcDbSymbolTableRecord
100
AcDbLayerTableRecord
  2
XSEC_DATUMS
 70
0
 62
7
  6
CONTINUOUS
370
-3
390
F
  0
ENDTAB
  0
TABLE
  2
STYLE
  5
3
100
AcDbSymbolTable
 70
1
  0
STYLE
  5
11
100
AcDbSymbolTableRecord
100
AcDbTextStyleTableRecord
  2
STANDARD
 70
0
 40
0.0
 41
0.8
 50
0.0
 71
0
 42
0.2
  3
txt
  4

  0
STYLE
  5
210
100
AcDbSymbolTableRecord
100
AcDbTextStyleTableRecord
  2
TEXTSTYLE_1
 70
0
 40
0.0
 41
0.8
 50
0.0
 71
0
 42
0.2
  3
gdt
  4

  0
ENDTAB
  0
TABLE
  2
VIEW
  5
6
100
AcDbSymbolTable
 70
0
  0
ENDTAB
  0
TABLE
  2
UCS
  5
7
100
AcDbSymbolTable
 70
0
  0
ENDTAB
  0
TABLE
  2
APPID
  5
9
100
AcDbSymbolTable
 70
1
  0
APPID
  5
211
100
AcDbSymbolTableRecord
100
AcDbRegAppTableRecord
  2
ACAD
 70
0
  0
ENDTAB
  0
TABLE
  2
BLOCK_RECORD
  5
1
100
AcDbSymbolTable
 70
0
  0
BLOCK_RECORD
  5
212
100
AcDbSymbolTableRecord
100
AcDbBlockTableRecord
  2
*Model_Space
  0
BLOCK_RECORD
  5
213
100
AcDbSymbolTableRecord
100
AcDbBlockTableRecord
  2
*Paper_Space
  0
ENDTAB
  0
TABLE
  2
DIMSTYLE
  5
A
100
AcDbSymbolTable
 70
1
100
AcDbDimStyleTable
 71
0
  0
DIMSTYLE
105
214
100
AcDbSymbolTableRecord
100
AcDbDimStyleTableRecord
  2
STANDARD
 70
0
  3

  4

 40
1.0
 41
3.0
 42
0.0625
 43
0.38
 44
0.18
 45
0.0
 46
0.0
 47
0.01
 48
0.01
140
3.0
141
0.09
142
0.0
143
25.4
144
1.0
145
0.0
146
1.0
147
0.09
 71
1.0
 72
0.0
 73
0
 74
0
 75
0
 76
0
 77
1
 78
8
170
0
171
2
172
0
173
0
174
0
175
0
176
0
177
0
178
0
270
2
271
2
272
2
273
2
274
2
275
0
280
0
281
0
282
0
283
1
284
8
285
0
286
0
287
3
288
0
340
11
  0
ENDTAB
  0
ENDSEC
  0
SECTION
  2
BLOCKS
  0
BLOCK
  5
20
100
AcDbEntity
  8
0
100
AcDbBlockBegin
  2
*Model_Space
 70
0
 10
0.0
 20
0.0
 30
0.0
  3
*Model_Space
  1

  0
ENDBLK
  5
21
100
AcDbEntity
  8
0
100
AcDbBlockEnd
  0
BLOCK
  5
1C
100
AcDbEntity
  8
0
100
AcDbBlockBegin
  2
*Paper_Space
 70
0
 10
0.0
 20
0.0
 30
0.0
  3
*Paper_Space
  1

  0
ENDBLK
  5
1D
100
AcDbEntity
  8
0
100
AcDbBlockEnd
  0
ENDSEC
  0
SECTION
  2
ENTITIES
  0
LINE
  5
215
100
AcDbEntity
  8
RACCORDO
100
AcDbLine
 62
7
  6
CONTINUOUS
 10
-26.5
 20
-37.7688082292
 11
-24.6687623468
 21
-37.7688082292
  0
LINE
  5
216
100
AcDbEntity
  8
RACCORDO
100
AcDbLine
 62
7
  6
CONTINUOUS
 10
24.6687623468
 20
-37.7688082292
 11
26.5
 21
-37.7688082292
  0
LINE
  5
217
100
AcDbEntity
  8
RACCORDO
100
AcDbLine
 62
253
  6
CONTINUOUS
 10
-26.5
 20
-37.1830217916
 11
-24.6811089192
 21
-37.1830217916
  0
LINE
  5
218
100
AcDbEntity
  8
RACCORDO
100
AcDbLine
 62
253
  6
CONTINUOUS
 10
24.6811089192
 20
-37.1830217916
 11
26.5
 21
-37.1830217916
  0
LINE
  5
219
100
AcDbEntity
  8
RACCORDO
100
AcDbLine
 62
7
  6
CONTINUOUS
 10
22.9375705399
 20
-36.7927355168
 11
-22.9375705399
 21
-36.7927355168
  0
LINE
  5
21A
100
AcDbEntity
  8
RACCORDO
100
AcDbLine
 62
253
  6
CONTINUOUS
 10
-23.0422704094
 20
-31.1309285351
 11
-22.4006188183
 21
-31.7725801262
  0
LINE
  5
21B
100
AcDbEntity
  8
RACCORDO
100
AcDbLine
 62
253
  6
CONTINUOUS
 10
-22.2427577478
 20
-30.3314158735
 11
-21.6011173836
 21
-30.9730562376
  0
LINE
  5
21C
100
AcDbEntity
  8
RACCORDO
100
AcDbLine
 62
7
  6
CONTINUOUS
 10
-22.257780698
 20
-29.6159055849
 11
-21.6011061566
 21
-30.2725801262
  0
LINE
  5
21D
100
AcDbEntity
  8
RACCORDO
100
AcDbLine
 62
7
  6
CONTINUOUS
 10
-24.6488091644
 20
-29.4751325492
 11
-24.649274703
 21
-29.474394431
  0
LINE
  5
21E
100
AcDbEntity
  8
RACCORDO
100
AcDbLine
 62
253
  6
CONTINUOUS
 10
22.9375310998
 20
-36.0652865366
 11
15.0107290949
 21
-36.0652865366
  0
LINE
  5
21F
100
AcDbEntity
  8
RACCORDO
100
AcDbLine
 62
253
  6
CONTINUOUS
 10
14.0892709051
 20
-36.0652865366
 11
5.3107290949
 21
-36.0652865366
  0
LINE
  5
220
100
AcDbEntity
  8
RACCORDO
100
AcDbLine
 62
253
  6
CONTINUOUS
 10
4.3892709051
 20
-36.0652865366
 11
-4.3892709051
 21
-36.0652865366
  0
LINE
  5
221
100
AcDbEntity
  8
RACCORDO
100
AcDbLine
 62
253
  6
CONTINUOUS
 10
-5.3107290949
 20
-36.0652865366
 11
-14.0892709051
 21
-36.0652865366
  0
LINE
  5
222
100
AcDbEntity
  8
RACCORDO
100
AcDbLine
 62
253
  6
CONTINUOUS
 10
-15.0107290949
 20
-36.0652865366
 11
-22.9375705399
 21
-36.0652865366
  0
LINE
  5
223
100
AcDbEntity
  8
RACCORDO
100
AcDbLine
 62
253
  6
CONTINUOUS
 10
22.9375705399
 20
-35.265773875
 11
15.0174669385
 21
-35.265773875
  0
LINE
  5
224
100
AcDbEntity
  8
RACCORDO
100
AcDbLine
 62
253
  6
CONTINUOUS
 10
14.0825330615
 20
-35.265773875
 11
5.3174669385
 21
-35.265773875
  0
LINE
  5
225
100
AcDbEntity
  8
RACCORDO
100
AcDbLine
 62
253
  6
CONTINUOUS
 10
4.3825330615
 20
-35.265773875
 11
-4.3825330615
 21
-35.265773875
  0
LINE
  5
226
100
AcDbEntity
  8
RACCORDO
100
AcDbLine
 62
253
  6
CONTINUOUS
 10
-5.3174669385
 20
-35.265773875
 11
-14.0825330615
 21
-35.265773875
  0
LINE
  5
227
100
AcDbEntity
  8
RACCORDO
100
AcDbLine
 62
253
  6
CONTINUOUS
 10
-15.0174669385
 20
-35.265773875
 11
-22.9375705399
 21
-35.265773875
  0
LINE
  5
228
100
AcDbEntity
  8
DRAFT
100
AcDbLine
 62
7
  6
CONTINUOUS
 10
-24.3852664508
 20
-35.1355920541
 11
-15.05
 21
-35.1355920541
  0
LINE
  5
229
100
AcDbEntity
  8
DRAFT
100
AcDbLine
 62
7
  6
CONTINUOUS
 10
-14.05
 20
-35.1355920541
 11
-5.35
 21
-35.1355920541
  0
LINE
  5
22A
100
AcDbEntity
  8
DRAFT
100
AcDbLine
 62
7
  6
CONTINUOUS
 10
-4.35
 20
-35.1355920541
 11
4.35
 21
-35.1355920541
  0
LINE
  5
22B
100
AcDbEntity
  8
DRAFT
100
AcDbLine
 62
7
  6
CONTINUOUS
 10
5.35
 20
-35.1355920541
 11
14.05
 21
-35.1355920541
  0
LINE
  5
22C
100
AcDbEntity
  8
DRAFT
100
AcDbLine
 62
7
  6
CONTINUOUS
 10
15.05
 20
-35.1355920541
 11
24.3852664508
 21
-35.1355920541
  0
LINE
  5
22D
100
AcDbEntity
  8
DRAFT
100
AcDbLine
 62
7
  6
CONTINUOUS
 10
-24.3852664508
 20
-32.0308297456
 11
-15.05
 21
-32.0308297456
  0
LINE
  5
22E
100
AcDbEntity
  8
DRAFT
100
AcDbLine
 62
7
  6
CONTINUOUS
 10
-14.05
 20
-32.0308297456
 11
-5.35
 21
-32.0308297456
  0
LINE
  5
22F
100
AcDbEntity
  8
DRAFT
100
AcDbLine
 62
7
  6
CONTINUOUS
 10
-4.35
 20
-32.0308297456
 11
4.35
 21
-32.0308297456
  0
LINE
  5
230
100
AcDbEntity
  8
DRAFT
100
AcDbLine
 62
7
  6
CONTINUOUS
 10
5.35
 20
-32.0308297456
 11
14.05
 21
-32.0308297456
  0
LINE
  5
231
100
AcDbEntity
  8
DRAFT
100
AcDbLine
 62
7
  6
CONTINUOUS
 10
15.05
 20
-32.0308297456
 11
24.3852664508
 21
-32.0308297456
  0
LINE
  5
232
100
AcDbEntity
  8
RACCORDO
100
AcDbLine
 62
253
  6
CONTINUOUS
 10
-18.6029336756
 20
-31.9006479246
 11
-15.0174669385
 21
-31.9006479246
  0
LINE
  5
233
100
AcDbEntity
  8
RACCORDO
100
AcDbLine
 62
253
  6
CONTINUOUS
 10
-14.0825330615
 20
-31.9006479246
 11
-5.3174669385
 21
-31.9006479246
  0
LINE
  5
234
100
AcDbEntity
  8
RACCORDO
100
AcDbLine
 62
253
  6
CONTINUOUS
 10
-4.3825330615
 20
-31.9006479246
 11
4.3825330615
 21
-31.9006479246
  0
LINE
  5
235
100
AcDbEntity
  8
RACCORDO
100
AcDbLine
 62
253
  6
CONTINUOUS
 10
5.3174669385
 20
-31.9006479246
 11
14.0825330615
 21
-31.9006479246
  0
LINE
  5
236
100
AcDbEntity
  8
RACCORDO
100
AcDbLine
 62
253
  6
CONTINUOUS
 10
15.0174669385
 20
-31.9006479246
 11
18.6029336756
 21
-31.9006479246
  0
LINE
  5
237
100
AcDbEntity
  8
RACCORDO
100
AcDbLine
 62
253
  6
CONTINUOUS
 10
-26.5
 20
-31.1689973374
 11
-24.7335925155
 21
-31.1689973374
  0
LINE
  5
238
100
AcDbEntity
  8
RACCORDO
100
AcDbLine
 62
253
  6
CONTINUOUS
 10
24.7335925155
 20
-31.1689973374
 11
26.5
 21
-31.1689973374
  0
LINE
  5
239
100
AcDbEntity
  8
RACCORDO
100
AcDbLine
 62
253
  6
CONTINUOUS
 10
-24.6101560796
 20
-31.1309285351
 11
-23.0422704094
 21
-31.1309285351
  0
LINE
  5
23A
100
AcDbEntity
  8
RACCORDO
100
AcDbLine
 62
253
  6
CONTINUOUS
 10
23.0422704094
 20
-31.1309285351
 11
24.6101560796
 21
-31.1309285351
  0
LINE
  5
23B
100
AcDbEntity
  8
RACCORDO
100
AcDbLine
 62
253
  6
CONTINUOUS
 10
-18.6029336756
 20
-31.101135263
 11
-15.0107290949
 21
-31.101135263
  0
LINE
  5
23C
100
AcDbEntity
  8
RACCORDO
100
AcDbLine
 62
253
  6
CONTINUOUS
 10
-14.0892709051
 20
-31.101135263
 11
-5.3107290949
 21
-31.101135263
  0
LINE
  5
23D
100
AcDbEntity
  8
RACCORDO
100
AcDbLine
 62
253
  6
CONTINUOUS
 10
-4.3892709051
 20
-31.101135263
 11
4.3892709051
 21
-31.101135263
  0
LINE
  5
23E
100
AcDbEntity
  8
RACCORDO
100
AcDbLine
 62
253
  6
CONTINUOUS
 10
5.3107290949
 20
-31.101135263
 11
14.0892709051
 21
-31.101135263
  0
LINE
  5
23F
100
AcDbEntity
  8
RACCORDO
100
AcDbLine
 62
253
  6
CONTINUOUS
 10
15.0107290949
 20
-31.101135263
 11
18.6029336756
 21
-31.101135263
  0
LINE
  5
240
100
AcDbEntity
  8
RACCORDO
100
AcDbLine
 62
7
  6
CONTINUOUS
 10
-18.6029336756
 20
-30.3736862829
 11
18.6029336756
 21
-30.3736862829
  0
LINE
  5
241
100
AcDbEntity
  8
RACCORDO
100
AcDbLine
 62
7
  6
CONTINUOUS
 10
-24.6101560796
 20
-31.1309285351
 11
-24.3852664508
 21
-32.0308297456
  0
LINE
  5
242
100
AcDbEntity
  8
RACCORDO
100
AcDbLine
 62
7
  6
CONTINUOUS
 10
-24.649274703
 20
-29.474394431
 11
-24.668366793
 21
-29.3979969776
  0
LINE
  5
243
100
AcDbEntity
  8
RACCORDO
100
AcDbLine
 62
253
  6
CONTINUOUS
 10
-26.5
 20
-29.7547837751
 11
-24.7387045963
 21
-29.7547837751
  0
LINE
  5
244
100
AcDbEntity
  8
RACCORDO
100
AcDbLine
 62
253
  6
CONTINUOUS
 10
24.7387045963
 20
-29.7547837751
 11
26.5
 21
-29.7547837751
  0
LINE
  5
245
100
AcDbEntity
  8
RACCORDO
100
AcDbLine
 62
253
  6
CONTINUOUS
 10
22.2832002104
 20
-29.132146881
 11
24.6270006886
 21
-29.132146881
  0
LINE
  5
246
100
AcDbEntity
  8
RACCORDO
100
AcDbLine
 62
253
  6
CONTINUOUS
 10
-22.2832002104
 20
-29.132146881
 11
-24.6270006886
 21
-29.132146881
  0
LINE
  5
247
100
AcDbEntity
  8
RACCORDO
100
AcDbLine
 62
253
  6
CONTINUOUS
 10
-24.6852103058
 20
-27.9753081905
 11
-24.6357275564
 21
-27.9753081905
  0
LINE
  5
248
100
AcDbEntity
  8
RACCORDO
100
AcDbLine
 62
253
  6
CONTINUOUS
 10
24.6357275564
 20
-27.9753081905
 11
24.6852103058
 21
-27.9753081905
  0
LINE
  5
249
100
AcDbEntity
  8
RACCORDO
100
AcDbLine
 62
7
  6
CONTINUOUS
 10
-24.6811089192
 20
-37.1830217916
 11
-24.7335925155
 21
-31.1689973374
  0
LINE
  5
24A
100
AcDbEntity
  8
RACCORDO
100
AcDbLine
 62
7
  6
CONTINUOUS
 10
-24.6800993212
 20
-28.8134288859
 11
-24.6812313087
 21
-28.6837159632
  0
LINE
  5
24B
100
AcDbEntity
  8
DRAFT
100
AcDbLine
 62
7
  6
CONTINUOUS
 10
-24.7037971251
 20
-11.5832108998
 11
-24.707020735
 21
-9.9832108998
  0
LINE
  5
24C
100
AcDbEntity
  8
RACCORDO
100
AcDbLine
 62
7
  6
CONTINUOUS
 10
-26.5
 20
-37.7685567176
 11
-26.5
 21
-11.4265865728
  0
LINE
  5
24D
100
AcDbEntity
  8
COPY-PUBBLISH
100
AcDbLine
 62
7
  6
CONTINUOUS
 10
-26.5
 20
-11.4265865728
 11
-26.5
 21
37.7675898832
  0
LINE
  5
24E
100
AcDbEntity
  8
COPY-PUBBLISH
100
AcDbLine
 62
7
  6
CONTINUOUS
 10
-25.7
 20
1.9167891002
 11
-25.7
 21
9.9167891002
  0
LINE
  5
24F
100
AcDbEntity
  8
RACCORDO
100
AcDbLine
 62
7
  6
CONTINUOUS
 10
-24.7387045963
 20
-29.7547837751
 11
-24.7387045963
 21
-11.4265865728
  0
LINE
  5
250
100
AcDbEntity
  8
DRAFT
100
AcDbLine
 62
7
  6
CONTINUOUS
 10
-24.7387045963
 20
21.8167891002
 11
-24.7387045963
 21
37.7675898832
  0
LINE
  5
251
100
AcDbEntity
  8
COPY-PUBBLISH
100
AcDbLine
 62
7
  6
CONTINUOUS
 10
-24.7125239929
 20
0.2167891002
 11
-24.7125239929
 21
1.9167891002
  0
LINE
  5
252
100
AcDbEntity
  8
COPY-PUBBLISH
100
AcDbLine
 62
7
  6
CONTINUOUS
 10
-24.7125239929
 20
9.9167891002
 11
-24.7125239929
 21
11.6167891002
  0
LINE
  5
253
100
AcDbEntity
  8
COPY-PUBBLISH
100
AcDbLine
 62
7
  6
CONTINUOUS
 10
-24.7038305539
 20
1.9167891002
 11
-24.7038305539
 21
9.9167891002
  0
LINE
  5
254
100
AcDbEntity
  8
COPY-PUBBLISH
100
AcDbLine
 62
7
  6
CONTINUOUS
 10
-24.6950702573
 20
23.4167891002
 11
-24.6950702573
 21
12.2167891002
  0
LINE
  5
255
100
AcDbEntity
  8
COPY-PUBBLISH
100
AcDbLine
 62
7
  6
CONTINUOUS
 10
-24.6950702573
 20
-9.9832108998
 11
-24.6950702573
 21
-0.3832108998
  0
LINE
  5
256
100
AcDbEntity
  8
COPY-PUBBLISH
100
AcDbLine
 62
7
  6
CONTINUOUS
 10
-24.6950702573
 20
2.2167891002
 11
-24.6950702573
 21
9.6167891002
  0
LINE
  5
257
100
AcDbEntity
  8
COPY-PUBBLISH
100
AcDbLine
 62
7
  6
CONTINUOUS
 10
-24.6863433895
 20
-11.8832108998
 11
-24.6863433895
 21
-27.2695024008
  0
LINE
  5
258
100
AcDbEntity
  8
RACCORDO
100
AcDbLine
 62
7
  6
CONTINUOUS
 10
-24.6776165217
 20
36.0456955166
 11
-24.6776165217
 21
37.5231444968
  0
LINE
  5
259
100
AcDbEntity
  8
COPY-PUBBLISH
100
AcDbLine
 62
7
  6
CONTINUOUS
 10
-24.668889654
 20
-23.4046455269
 11
-24.668889654
 21
-10.2832108998
  0
LINE
  5
25A
100
AcDbEntity
  8
RACCORDO
100
AcDbLine
 62
7
  6
CONTINUOUS
 10
-24.6357275564
 20
-27.0832108998
 11
-24.6357275564
 21
-27.9753081905
  0
LINE
  5
25B
100
AcDbEntity
  8
RACCORDO
100
AcDbLine
 62
7
  6
CONTINUOUS
 10
-24.6270006886
 20
-29.132146881
 11
-24.6270006886
 21
-27.0832108998
  0
LINE
  5
25C
100
AcDbEntity
  8
DRAFT
100
AcDbLine
 62
7
  6
CONTINUOUS
 10
-24.625255315
 20
-23.4395662964
 11
-24.625255315
 21
-25.5832108998
  0
LINE
  5
25D
100
AcDbEntity
  8
DRAFT
100
AcDbLine
 62
7
  6
CONTINUOUS
 10
-24.6150893141
 20
-4.3832108998
 11
-24.6150893141
 21
2.153557598
  0
LINE
  5
25E
100
AcDbEntity
  8
DRAFT
100
AcDbLine
 62
7
  6
CONTINUOUS
 10
-24.6150893141
 20
9.6800206024
 11
-24.6150893141
 21
16.2167891002
  0
LINE
  5
25F
100
AcDbEntity
  8
RACCORDO
100
AcDbLine
 62
253
  6
CONTINUOUS
 10
-24.4375141192
 20
-36.1449652239
 11
-24.4375134245
 21
-36.844659565
  0
LINE
  5
260
100
AcDbEntity
  8
RACCORDO
100
AcDbLine
 62
7
  6
CONTINUOUS
 10
-24.4
 20
36.3667891002
 11
-24.4
 21
9.9667891002
  0
LINE
  5
261
100
AcDbEntity
  8
RACCORDO
100
AcDbLine
 62
7
  6
CONTINUOUS
 10
-24.4
 20
1.8667891002
 11
-24.4
 21
-24.5332108983
  0
LINE
  5
262
100
AcDbEntity
  8
DRAFT
100
AcDbLine
 62
7
  6
CONTINUOUS
 10
-24.3852664508
 20
-32.0308297456
 11
-24.3852664508
 21
-35.1355920541
  0
LINE
  5
263
100
AcDbEntity
  8
DRAFT
100
AcDbLine
 62
7
  6
CONTINUOUS
 10
-24.707020735
 20
21.8167891002
 11
-24.7037971251
 21
23.4167891002
  0
LINE
  5
264
100
AcDbEntity
  8
DRAFT
100
AcDbLine
 62
7
  6
CONTINUOUS
 10
-24.7168874268
 20
-9.9832108998
 11
-24.7387045963
 21
-11.4265865728
  0
LINE
  5
265
100
AcDbEntity
  8
RACCORDO
100
AcDbLine
 62
253
  6
CONTINUOUS
 10
24.6863433895
 20
-27.0832108998
 11
24.6357275564
 21
-27.0832108998
  0
LINE
  5
266
100
AcDbEntity
  8
RACCORDO
100
AcDbLine
 62
253
  6
CONTINUOUS
 10
22.2832002104
 20
-27.0832108998
 11
24.6270006886
 21
-27.0832108998
  0
LINE
  5
267
100
AcDbEntity
  8
RACCORDO
100
AcDbLine
 62
253
  6
CONTINUOUS
 10
-24.6357275564
 20
-27.0832108998
 11
-24.6863433895
 21
-27.0832108998
  0
LINE
  5
268
100
AcDbEntity
  8
RACCORDO
100
AcDbLine
 62
253
  6
CONTINUOUS
 10
-22.2832002104
 20
-27.0832108998
 11
-24.6270006886
 21
-27.0832108998
  0
LINE
  5
269
100
AcDbEntity
  8
COPY-PUBBLISH
100
AcDbLine
 62
7
  6
CONTINUOUS
 10
-24.6863433895
 20
-25.5832108998
 11
-24.6165284472
 21
-25.5832108998
  0
LINE
  5
26A
100
AcDbEntity
  8
COPY-PUBBLISH
100
AcDbLine
 62
7
  6
CONTINUOUS
 10
24.6863433895
 20
-25.5832108998
 11
24.6165284472
 21
-25.5832108998
  0
LINE
  5
26B
100
AcDbEntity
  8
RACCORDO
100
AcDbLine
 62
7
  6
CONTINUOUS
 10
-24.625255315
 20
-25.5832108998
 11
-23.3131899507
 21
-25.5832108998
  0
LINE
  5
26C
100
AcDbEntity
  8
RACCORDO
100
AcDbLine
 62
7
  6
CONTINUOUS
 10
23.3131899507
 20
-25.5832108998
 11
24.625255315
 21
-25.5832108998
  0
LINE
  5
26D
100
AcDbEntity
  8
RACCORDO
100
AcDbLine
 62
7
  6
CONTINUOUS
 10
-24.1
 20
-24.8332108998
 11
24.1
 21
-24.8332108998
  0
LINE
  5
26E
100
AcDbEntity
  8
RACCORDO
100
AcDbLine
 62
253
  6
CONTINUOUS
 10
-24.4
 20
-24.5332108983
 11
24.4
 21
-24.5332108998
  0
LINE
  5
26F
100
AcDbEntity
  8
RACCORDO
100
AcDbLine
 62
253
  6
CONTINUOUS
 10
-24.1
 20
1.8667891002
 11
-24.1
 21
-24.8332108998
  0
LINE
  5
270
100
AcDbEntity
  8
RACCORDO
100
AcDbLine
 62
253
  6
CONTINUOUS
 10
-24.1
 20
9.9667891002
 11
-24.0999999985
 21
36.6667891002
  0
LINE
  5
271
100
AcDbEntity
  8
RACCORDO
100
AcDbLine
 62
253
  6
CONTINUOUS
 10
-23.2852533351
 20
37.5231444968
 11
-23.2852533351
 21
36.6667891002
  0
LINE
  5
272
100
AcDbEntity
  8
RACCORDO
100
AcDbLine
 62
253
  6
CONTINUOUS
 10
-23.0827128721
 20
-27.083106566
 11
-23.0827128721
 21
-29.132146881
  0
LINE
  5
273
100
AcDbEntity
  8
RACCORDO
100
AcDbLine
 62
253
  6
CONTINUOUS
 10
-22.9375705386
 20
-35.2657738751
 11
-22.9375705399
 21
-36.7927355168
  0
LINE
  5
274
100
AcDbEntity
  8
RACCORDO
100
AcDbLine
 62
253
  6
CONTINUOUS
 10
-22.4857406735
 20
37.496182855
 11
-22.4857406735
 21
36.6667891002
  0
LINE
  5
275
100
AcDbEntity
  8
RACCORDO
100
AcDbLine
 62
253
  6
CONTINUOUS
 10
-22.2832002104
 20
-27.0832108998
 11
-22.2832002104
 21
-29.132146881
  0
LINE
  5
276
100
AcDbEntity
  8
DRAFT
100
AcDbLine
 62
7
  6
CONTINUOUS
 10
-22.257780698
 20
-25.4346446791
 11
-22.257780698
 21
-29.6159055849
  0
LINE
  5
277
100
AcDbEntity
  8
RACCORDO
100
AcDbLine
 62
253
  6
CONTINUOUS
 10
-21.6011173836
 20
-30.9730562376
 11
-21.6011061566
 21
-30.2725801262
  0
LINE
  5
278
100
AcDbEntity
  8
RACCORDO
100
AcDbLine
 62
7
  6
CONTINUOUS
 10
24.625255315
 20
-23.4395662964
 11
24.4
 21
-23.4395662964
  0
LINE
  5
279
100
AcDbEntity
  8
RACCORDO
100
AcDbLine
 62
7
  6
CONTINUOUS
 10
-24.4
 20
-23.4395662964
 11
-24.625255315
 21
-23.4395662964
  0
LINE
  5
27A
100
AcDbEntity
  8
DRAFT
100
AcDbLine
 62
7
  6
CONTINUOUS
 10
-24.668889654
 20
-23.4046455269
 11
-24.6165284472
 21
-23.4046455269
  0
LINE
  5
27B
100
AcDbEntity
  8
DRAFT
100
AcDbLine
 62
7
  6
CONTINUOUS
 10
24.6165284472
 20
-23.4046455269
 11
24.668889654
 21
-23.4046455269
  0
LINE
  5
27C
100
AcDbEntity
  8
RACCORDO
100
AcDbLine
 62
7
  6
CONTINUOUS
 10
-15.05
 20
-35.1355920541
 11
-15.0174669385
 21
-35.265773875
  0
LINE
  5
27D
100
AcDbEntity
  8
RACCORDO
100
AcDbLine
 62
7
  6
CONTINUOUS
 10
-14.05
 20
-32.0308297456
 11
-14.0825330615
 21
-31.9006479246
  0
LINE
  5
27E
100
AcDbEntity
  8
ASSI
100
AcDbLine
 62
7
  6
CONTINUOUS
 10
-19.368001
 20
3.6235551002
 11
-19.368001
 21
4.2992901002
  0
LINE
  5
27F
100
AcDbEntity
  8
ASSI
100
AcDbLine
 62
7
  6
CONTINUOUS
 10
-19.368001
 20
7.5342861002
 11
-19.368001
 21
8.2100211002
  0
LINE
  5
280
100
AcDbEntity
  8
RACCORDO
100
AcDbLine
 62
253
  6
CONTINUOUS
 10
-18.6029336756
 20
-30.3736862829
 11
-18.6029336756
 21
-31.9006479246
  0
LINE
  5
281
100
AcDbEntity
  8
DRAFT
100
AcDbLine
 62
7
  6
CONTINUOUS
 10
-24.4
 20
-22.328677167
 11
-24.668889654
 21
-23.4046455269
  0
LINE
  5
282
100
AcDbEntity
  8
DRAFT
100
AcDbLine
 62
7
  6
CONTINUOUS
 10
-24.6165284472
 20
-23.4046455269
 11
-24.625255315
 21
-23.4395662964
  0
LINE
  5
283
100
AcDbEntity
  8
ASSI
100
AcDbLine
 62
7
  6
CONTINUOUS
 10
-15.781402
 20
5.5792881002
 11
-15.781402
 21
6.2542881002
  0
LINE
  5
284
100
AcDbEntity
  8
ASSI
100
AcDbLine
 62
7
  6
CONTINUOUS
 10
-15.421402
 20
3.6235550217
 11
-15.421402
 21
4.2992927458
  0
LINE
  5
285
100
AcDbEntity
  8
ASSI
100
AcDbLine
 62
7
  6
CONTINUOUS
 10
-15.421402
 20
7.5342861002
 11
-15.421402
 21
8.2100211787
  0
LINE
  5
286
100
AcDbEntity
  8
DRAFT
100
AcDbLine
 62
7
  6
CONTINUOUS
 10
-15.05
 20
-32.0308297456
 11
-15.05
 21
-35.1355920541
  0
LINE
  5
287
100
AcDbEntity
  8
RACCORDO
100
AcDbLine
 62
7
  6
CONTINUOUS
 10
-15.0107290949
 20
-31.101135263
 11
-15.0107290949
 21
-36.0652865366
  0
LINE
  5
288
100
AcDbEntity
  8
RACCORDO
100
AcDbLine
 62
7
  6
CONTINUOUS
 10
-24.4225436509
 20
-35.2847576612
 11
-24.3852664508
 21
-35.1355920541
  0
LINE
  5
289
100
AcDbEntity
  8
RACCORDO
100
AcDbLine
 62
7
  6
CONTINUOUS
 10
-24.6708786781
 20
35.246182855
 11
-24.4
 21
34.1622553673
  0
LINE
  5
28A
100
AcDbEntity
  8
RACCORDO
100
AcDbLine
 62
7
  6
CONTINUOUS
 10
-14.0892709051
 20
-36.0652865366
 11
-14.0892709051
 21
-31.101135263
  0
LINE
  5
28B
100
AcDbEntity
  8
DRAFT
100
AcDbLine
 62
7
  6
CONTINUOUS
 10
-14.05
 20
-32.0308297456
 11
-14.05
 21
-35.1355920541
  0
LINE
  5
28C
100
AcDbEntity
  8
RACCORDO
100
AcDbLine
 62
7
  6
CONTINUOUS
 10
-24.6681581378
 20
-37.7675898832
 11
-24.4375134245
 21
-36.844659565
  0
LINE
  5
28D
100
AcDbEntity
  8
0
100
AcDbLine
 62
7
  6
CONTINUOUS
 10
-5.1216
 20
25.8939851002
 11
-5.867986
 21
23.2786431002
  0
LINE
  5
28E
100
AcDbEntity
  8
0
100
AcDbLine
 62
7
  6
CONTINUOUS
 10
-5.550353
 20
22.0944431002
 11
-4.329028
 21
25.8939851002
  0
LINE
  5
28F
100
AcDbEntity
  8
DRAFT
100
AcDbLine
 62
7
  6
CONTINUOUS
 10
-24.7387045963
 20
37.7675898832
 11
-24.6776165217
 21
37.5231444968
  0
LINE
  5
290
100
AcDbEntity
  8
RACCORDO
100
AcDbLine
 62
7
  6
CONTINUOUS
 10
-5.35
 20
-35.1355920541
 11
-5.3174669385
 21
-35.265773875
  0
LINE
  5
291
100
AcDbEntity
  8
RACCORDO
100
AcDbLine
 62
7
  6
CONTINUOUS
 10
-4.35
 20
-32.0308297456
 11
-4.3825330615
 21
-31.9006479246
  0
LINE
  5
292
100
AcDbEntity
  8
0
100
AcDbLine
 62
7
  6
CONTINUOUS
 10
-0.101245
 20
25.8939851002
 11
-0.894359
 21
23.7844681002
  0
LINE
  5
293
100
AcDbEntity
  8
RACCORDO
100
AcDbLine
 62
7
  6
CONTINUOUS
 10
22.4857406735
 20
37.496182855
 11
21.6563469186
 21
36.6667891002
  0
LINE
  5
294
100
AcDbEntity
  8
DRAFT
100
AcDbLine
 62
7
  6
CONTINUOUS
 10
-24.459444827
 20
-11.2046854549
 11
-24.5554403727
 21
-11.2130839769
  0
LINE
  5
295
100
AcDbEntity
  8
COPY-PUBBLISH
100
AcDbLine
 62
7
  6
CONTINUOUS
 10
24.7037971251
 20
-11.5832108998
 11
24.6889614499
 21
-11.5832108998
  0
LINE
  5
296
100
AcDbEntity
  8
COPY-PUBBLISH
100
AcDbLine
 62
7
  6
CONTINUOUS
 10
-24.6889614499
 20
-11.5832108998
 11
-24.7037971251
 21
-11.5832108998
  0
LINE
  5
297
100
AcDbEntity
  8
COPY-PUBBLISH
100
AcDbLine
 62
7
  6
CONTINUOUS
 10
26.5
 20
-11.4265865728
 11
24.7387045963
 21
-11.4265865728
  0
LINE
  5
298
100
AcDbEntity
  8
COPY-PUBBLISH
100
AcDbLine
 62
7
  6
CONTINUOUS
 10
-24.7387045963
 20
-11.4265865728
 11
-26.5
 21
-11.4265865728
  0
LINE
  5
299
100
AcDbEntity
  8
COPY-PUBBLISH
100
AcDbLine
 62
253
  6
CONTINUOUS
 10
-24.7064163082
 20
-10.2832108998
 11
-24.668889654
 21
-10.2832108998
  0
LINE
  5
29A
100
AcDbEntity
  8
COPY-PUBBLISH
100
AcDbLine
 62
253
  6
CONTINUOUS
 10
24.7064163082
 20
-10.2832108998
 11
24.668889654
 21
-10.2832108998
  0
LINE
  5
29B
100
AcDbEntity
  8
COPY-PUBBLISH
100
AcDbLine
 62
7
  6
CONTINUOUS
 10
24.6715077143
 20
-9.9832108998
 11
26.5
 21
-9.9832108998
  0
LINE
  5
29C
100
AcDbEntity
  8
COPY-PUBBLISH
100
AcDbLine
 62
7
  6
CONTINUOUS
 10
-24.6715077143
 20
-9.9832108998
 11
-26.5
 21
-9.9832108998
  0
LINE
  5
29D
100
AcDbEntity
  8
DRAFT
100
AcDbLine
 62
7
  6
CONTINUOUS
 10
24.5554403727
 20
-11.2130839769
 11
24.459444827
 21
-11.2046854549
  0
LINE
  5
29E
100
AcDbEntity
  8
RACCORDO
100
AcDbLine
 62
7
  6
CONTINUOUS
 10
-15.05
 20
-32.0308297456
 11
-15.0174669385
 21
-31.9006479246
  0
LINE
  5
29F
100
AcDbEntity
  8
0
100
AcDbLine
 62
7
  6
CONTINUOUS
 10
-0.843072
 20
22.0944431002
 11
0.09994
 21
24.5651301002
  0
LINE
  5
2A0
100
AcDbEntity
  8
DRAFT
100
AcDbLine
 62
7
  6
CONTINUOUS
 10
-5.35
 20
-32.0308297456
 11
-5.35
 21
-35.1355920541
  0
LINE
  5
2A1
100
AcDbEntity
  8
RACCORDO
100
AcDbLine
 62
7
  6
CONTINUOUS
 10
-5.3107290949
 20
-31.101135263
 11
-5.3107290949
 21
-36.0652865366
  0
LINE
  5
2A2
100
AcDbEntity
  8
RACCORDO
100
AcDbLine
 62
7
  6
CONTINUOUS
 10
-4.3892709051
 20
-36.0652865366
 11
-4.3892709051
 21
-31.101135263
  0
LINE
  5
2A3
100
AcDbEntity
  8
DRAFT
100
AcDbLine
 62
7
  6
CONTINUOUS
 10
-4.35
 20
-32.0308297456
 11
-4.35
 21
-35.1355920541
  0
LINE
  5
2A4
100
AcDbEntity
  8
0
100
AcDbLine
 62
7
  6
CONTINUOUS
 10
-4.034701
 20
25.8942131002
 11
-4.034701
 21
22.0944431002
  0
LINE
  5
2A5
100
AcDbEntity
  8
0
100
AcDbLine
 62
7
  6
CONTINUOUS
 10
-3.241588
 20
22.0944431002
 11
-3.241588
 21
25.8942131002
  0
LINE
  5
2A6
100
AcDbEntity
  8
0
100
AcDbLine
 62
7
  6
CONTINUOUS
 10
-2.055878
 20
22.0944431002
 11
-1.884725
 21
24.5754731002
  0
LINE
  5
2A7
100
AcDbEntity
  8
0
100
AcDbLine
 62
7
  6
CONTINUOUS
 10
-2.471553
 20
25.8939851002
 11
-2.81463
 21
22.0944431002
  0
LINE
  5
2A8
100
AcDbEntity
  8
RACCORDO
100
AcDbLine
 62
7
  6
CONTINUOUS
 10
-14.05
 20
-35.1355920541
 11
-14.0825330615
 21
-35.265773875
  0
LINE
  5
2A9
100
AcDbEntity
  8
0
100
AcDbLine
 62
7
  6
CONTINUOUS
 10
2.328897
 20
23.4399091002
 11
2.723801
 21
24.8499681002
  0
LINE
  5
2AA
100
AcDbEntity
  8
0
100
AcDbLine
 62
7
  6
CONTINUOUS
 10
1.947812
 20
22.0944431002
 11
2.166662
 21
22.8529671002
  0
LINE
  5
2AB
100
AcDbEntity
  8
0
100
AcDbLine
 62
7
  6
CONTINUOUS
 10
2.355082
 20
25.8939851002
 11
1.163303
 21
22.0944431002
  0
LINE
  5
2AC
100
AcDbEntity
  8
COPY-PUBBLISH
100
AcDbLine
 62
253
  6
CONTINUOUS
 10
24.6150893141
 20
-4.3832108998
 11
24.3999601371
 21
-4.3832108998
  0
LINE
  5
2AD
100
AcDbEntity
  8
COPY-PUBBLISH
100
AcDbLine
 62
253
  6
CONTINUOUS
 10
-24.6150893141
 20
-4.3832108998
 11
-24.3999601371
 21
-4.3832108998
  0
LINE
  5
2AE
100
AcDbEntity
  8
RACCORDO
100
AcDbLine
 62
7
  6
CONTINUOUS
 10
4.35
 20
-35.1355920541
 11
4.3825330615
 21
-35.265773875
  0
LINE
  5
2AF
100
AcDbEntity
  8
RACCORDO
100
AcDbLine
 62
7
  6
CONTINUOUS
 10
-24.6687794091
 20
-37.7685566305
 11
-24.6681581378
 21
-37.7675898832
  0
LINE
  5
2B0
100
AcDbEntity
  8
COPY-PUBBLISH
100
AcDbLine
 62
253
  6
CONTINUOUS
 10
26.5
 20
-0.3832108998
 11
24.6950702573
 21
-0.3832108998
  0
LINE
  5
2B1
100
AcDbEntity
  8
COPY-PUBBLISH
100
AcDbLine
 62
253
  6
CONTINUOUS
 10
-24.6950702573
 20
-0.3832108998
 11
-26.5
 21
-0.3832108998
  0
LINE
  5
2B2
100
AcDbEntity
  8
COPY-PUBBLISH
100
AcDbLine
 62
7
  6
CONTINUOUS
 10
-26.5
 20
-0.0832108998
 11
-24.7099059326
 21
-0.0832108998
  0
LINE
  5
2B3
100
AcDbEntity
  8
COPY-PUBBLISH
100
AcDbLine
 62
7
  6
CONTINUOUS
 10
24.7099059326
 20
-0.0832108998
 11
26.5
 21
-0.0832108998
  0
LINE
  5
2B4
100
AcDbEntity
  8
COPY-PUBBLISH
100
AcDbLine
 62
253
  6
CONTINUOUS
 10
-26.5
 20
0.2167891002
 11
-24.7125239929
 21
0.2167891002
  0
LINE
  5
2B5
100
AcDbEntity
  8
COPY-PUBBLISH
100
AcDbLine
 62
253
  6
CONTINUOUS
 10
24.7125239929
 20
0.2167891002
 11
26.5
 21
0.2167891002
  0
LINE
  5
2B6
100
AcDbEntity
  8
RACCORDO
100
AcDbLine
 62
7
  6
CONTINUOUS
 10
21.6563469186
 20
-24.8332108998
 11
22.257780698
 21
-25.4346446791
  0
LINE
  5
2B7
100
AcDbEntity
  8
RACCORDO
100
AcDbLine
 62
7
  6
CONTINUOUS
 10
24.6681581378
 20
-37.7675898832
 11
24.6687794091
 21
-37.7685566305
  0
LINE
  5
2B8
100
AcDbEntity
  8
RACCORDO
100
AcDbLine
 62
7
  6
CONTINUOUS
 10
5.35
 20
-32.0308297456
 11
5.3174669385
 21
-31.9006479246
  0
LINE
  5
2B9
100
AcDbEntity
  8
0
100
AcDbLine
 62
7
  6
CONTINUOUS
 10
1.038763
 20
22.0944431002
 11
0.683463
 21
25.8939851002
  0
LINE
  5
2BA
100
AcDbEntity
  8
0
100
AcDbLine
 62
7
  6
CONTINUOUS
 10
0.09994
 20
24.5651301002
 11
0.262887
 21
22.0944431002
  0
LINE
  5
2BB
100
AcDbEntity
  8
RACCORDO
100
AcDbLine
 62
7
  6
CONTINUOUS
 10
-5.35
 20
-32.0308297456
 11
-5.3174669385
 21
-31.9006479246
  0
LINE
  5
2BC
100
AcDbEntity
  8
RACCORDO
100
AcDbLine
 62
7
  6
CONTINUOUS
 10
-22.257780698
 20
-25.4346446791
 11
-21.6563469186
 21
-24.8332108998
  0
LINE
  5
2BD
100
AcDbEntity
  8
RACCORDO
100
AcDbLine
 62
253
  6
CONTINUOUS
 10
24.1
 20
1.8667891002
 11
24.4
 21
1.8667891002
  0
LINE
  5
2BE
100
AcDbEntity
  8
RACCORDO
100
AcDbLine
 62
253
  6
CONTINUOUS
 10
-24.1
 20
1.8667891002
 11
-24.4
 21
1.8667891002
  0
LINE
  5
2BF
100
AcDbEntity
  8
COPY-PUBBLISH
100
AcDbLine
 62
7
  6
CONTINUOUS
 10
25.7
 20
1.9167891002
 11
24.7125239929
 21
1.9167891002
  0
LINE
  5
2C0
100
AcDbEntity
  8
COPY-PUBBLISH
100
AcDbLine
 62
7
  6
CONTINUOUS
 10
-24.7125239929
 20
1.9167891002
 11
-25.7
 21
1.9167891002
  0
LINE
  5
2C1
100
AcDbEntity
  8
0
100
AcDbLine
 62
7
  6
CONTINUOUS
 10
15.018523
 20
2.3315211002
 11
15.268564
 21
2.3315211002
  0
LINE
  5
2C2
100
AcDbEntity
  8
0
100
AcDbLine
 62
7
  6
CONTINUOUS
 10
16.162936
 20
2.3315211002
 11
16.412828
 21
2.3315211002
  0
LINE
  5
2C3
100
AcDbEntity
  8
0
100
AcDbLine
 62
7
  6
CONTINUOUS
 10
17.111177
 20
2.3315211002
 11
17.368849
 21
2.3315211002
  0
LINE
  5
2C4
100
AcDbEntity
  8
0
100
AcDbLine
 62
7
  6
CONTINUOUS
 10
18.487375
 20
2.3315211002
 11
18.76046
 21
2.3315211002
  0
LINE
  5
2C5
100
AcDbEntity
  8
0
100
AcDbLine
 62
7
  6
CONTINUOUS
 10
18.989851
 20
2.3315211002
 11
20.177808
 21
2.3315211002
  0
LINE
  5
2C6
100
AcDbEntity
  8
0
100
AcDbLine
 62
7
  6
CONTINUOUS
 10
20.574791
 20
2.3315211002
 11
20.824683
 21
2.3315211002
  0
LINE
  5
2C7
100
AcDbEntity
  8
0
100
AcDbLine
 62
7
  6
CONTINUOUS
 10
20.177808
 20
2.5529811002
 11
19.239743
 21
2.5529811002
  0
LINE
  5
2C8
100
AcDbEntity
  8
0
100
AcDbLine
 62
7
  6
CONTINUOUS
 10
17.562178
 20
2.8702091002
 11
18.304371
 21
2.8702091002
  0
LINE
  5
2C9
100
AcDbEntity
  8
0
100
AcDbLine
 62
7
  6
CONTINUOUS
 10
18.214141
 20
3.0916691002
 11
17.63939
 21
3.0916691002
  0
LINE
  5
2CA
100
AcDbEntity
  8
0
100
AcDbLine
 62
7
  6
CONTINUOUS
 10
-7.453814
 20
25.8939851002
 11
-6.249285
 21
22.0944431002
  0
LINE
  5
2CB
100
AcDbEntity
  8
0
100
AcDbLine
 62
7
  6
CONTINUOUS
 10
-5.867986
 20
23.2786431002
 11
-6.592247
 21
25.8939851002
  0
LINE
  5
2CC
100
AcDbEntity
  8
DRAFT
100
AcDbLine
 62
7
  6
CONTINUOUS
 10
4.35
 20
-32.0308297456
 11
4.35
 21
-35.1355920541
  0
LINE
  5
2CD
100
AcDbEntity
  8
RACCORDO
100
AcDbLine
 62
7
  6
CONTINUOUS
 10
4.3892709051
 20
-31.101135263
 11
4.3892709051
 21
-36.0652865366
  0
LINE
  5
2CE
100
AcDbEntity
  8
0
100
AcDbLine
 62
7
  6
CONTINUOUS
 10
4.5210141587
 20
25.8495942785
 11
4.5210141587
 21
22.0944431614
  0
LINE
  5
2CF
100
AcDbEntity
  8
0
100
AcDbLine
 62
7
  6
CONTINUOUS
 10
5.284638007
 20
24.2036473933
 11
5.284638007
 21
25.2466958557
  0
LINE
  5
2D0
100
AcDbEntity
  8
RACCORDO
100
AcDbLine
 62
7
  6
CONTINUOUS
 10
5.3107290949
 20
-36.0652865366
 11
5.3107290949
 21
-31.101135263
  0
LINE
  5
2D1
100
AcDbEntity
  8
0
100
AcDbLine
 62
7
  6
CONTINUOUS
 10
5.310936459
 20
22.0944431614
 11
5.310936459
 21
23.5813741629
  0
LINE
  5
2D2
100
AcDbEntity
  8
DRAFT
100
AcDbLine
 62
7
  6
CONTINUOUS
 10
5.35
 20
-32.0308297456
 11
5.35
 21
-35.1355920541
  0
LINE
  5
2D3
100
AcDbEntity
  8
RACCORDO
100
AcDbLine
 62
7
  6
CONTINUOUS
 10
-4.35
 20
-35.1355920541
 11
-4.3825330615
 21
-35.265773875
  0
LINE
  5
2D4
100
AcDbEntity
  8
0
100
AcDbLine
 62
7
  6
CONTINUOUS
 10
15.536711
 20
3.9610521002
 11
16.162936
 21
3.9610521002
  0
LINE
  5
2D5
100
AcDbEntity
  8
0
100
AcDbLine
 62
7
  6
CONTINUOUS
 10
16.412828
 20
3.9610521002
 11
17.039052
 21
3.9610521002
  0
LINE
  5
2D6
100
AcDbEntity
  8
0
100
AcDbLine
 62
7
  6
CONTINUOUS
 10
21.523032
 20
4.1825131002
 11
21.229297
 21
4.1825131002
  0
LINE
  5
2D7
100
AcDbEntity
  8
0
100
AcDbLine
 62
7
  6
CONTINUOUS
 10
20.167483
 20
4.1825131002
 11
19.876293
 21
4.1825131002
  0
LINE
  5
2D8
100
AcDbEntity
  8
0
100
AcDbLine
 62
7
  6
CONTINUOUS
 10
19.239743
 20
4.1825131002
 11
18.989851
 21
4.1825131002
  0
LINE
  5
2D9
100
AcDbEntity
  8
0
100
AcDbLine
 62
7
  6
CONTINUOUS
 10
18.090392
 20
4.1825131002
 11
17.806982
 21
4.1825131002
  0
LINE
  5
2DA
100
AcDbEntity
  8
0
100
AcDbLine
 62
7
  6
CONTINUOUS
 10
17.039052
 20
4.1825131002
 11
15.536711
 21
4.1825131002
  0
LINE
  5
2DB
100
AcDbEntity
  8
0
100
AcDbLine
 62
7
  6
CONTINUOUS
 10
15.268564
 20
4.1825131002
 11
15.018523
 21
4.1825131002
  0
LINE
  5
2DC
100
AcDbEntity
  8
0
100
AcDbLine
 62
7
  6
CONTINUOUS
 10
17.117611
 20
4.9920411002
 11
17.367652
 21
4.9920411002
  0
LINE
  5
2DD
100
AcDbEntity
  8
0
100
AcDbLine
 62
7
  6
CONTINUOUS
 10
17.795311
 20
4.9920411002
 11
18.03772
 21
4.9920411002
  0
LINE
  5
2DE
100
AcDbEntity
  8
0
100
AcDbLine
 62
7
  6
CONTINUOUS
 10
18.983417
 20
4.9920411002
 11
19.264283
 21
4.9920411002
  0
LINE
  5
2DF
100
AcDbEntity
  8
ASSI
100
AcDbLine
 62
7
  6
CONTINUOUS
 10
-17.095853
 20
5.5792881002
 11
-15.781402
 21
5.5792881002
  0
LINE
  5
2E0
100
AcDbEntity
  8
ASSI
100
AcDbLine
 62
7
  6
CONTINUOUS
 10
-15.781402
 20
6.2542881002
 11
-17.0958557008
 21
6.2542881002
  0
LINE
  5
2E1
100
AcDbEntity
  8
RACCORDO
100
AcDbLine
 62
7
  6
CONTINUOUS
 10
14.05
 20
-35.1355920541
 11
14.0825330615
 21
-35.265773875
  0
LINE
  5
2E2
100
AcDbEntity
  8
0
100
AcDbLine
 62
7
  6
CONTINUOUS
 10
19.264283
 20
6.8415371002
 11
19.022173
 21
6.8415371002
  0
LINE
  5
2E3
100
AcDbEntity
  8
0
100
AcDbLine
 62
7
  6
CONTINUOUS
 10
18.091739
 20
6.8415371002
 11
17.795311
 21
6.8415371002
  0
LINE
  5
2E4
100
AcDbEntity
  8
0
100
AcDbLine
 62
7
  6
CONTINUOUS
 10
17.367652
 20
6.8415371002
 11
17.117611
 21
6.8415371002
  0
LINE
  5
2E5
100
AcDbEntity
  8
0
100
AcDbLine
 62
7
  6
CONTINUOUS
 10
14.637252
 20
7.6525621002
 11
14.879512
 21
7.6525621002
  0
LINE
  5
2E6
100
AcDbEntity
  8
0
100
AcDbLine
 62
7
  6
CONTINUOUS
 10
15.400094
 20
7.6525621002
 11
15.647442
 21
7.6525621002
  0
LINE
  5
2E7
100
AcDbEntity
  8
0
100
AcDbLine
 62
7
  6
CONTINUOUS
 10
16.168024
 20
7.6525621002
 11
16.410284
 21
7.6525621002
  0
LINE
  5
2E8
100
AcDbEntity
  8
0
100
AcDbLine
 62
7
  6
CONTINUOUS
 10
16.631894
 20
7.6525621002
 11
16.889566
 21
7.6525621002
  0
LINE
  5
2E9
100
AcDbEntity
  8
0
100
AcDbLine
 62
7
  6
CONTINUOUS
 10
18.008092
 20
7.6525621002
 11
18.281177
 21
7.6525621002
  0
LINE
  5
2EA
100
AcDbEntity
  8
0
100
AcDbLine
 62
7
  6
CONTINUOUS
 10
18.523437
 20
7.6525621002
 11
19.2732623155
 21
7.6525621002
  0
LINE
  5
2EB
100
AcDbEntity
  8
0
100
AcDbLine
 62
7
  6
CONTINUOUS
 10
20.396875
 20
7.6525621002
 11
21.762748
 21
7.6525621002
  0
LINE
  5
2EC
100
AcDbEntity
  8
0
100
AcDbLine
 62
7
  6
CONTINUOUS
 10
19.2397443921
 20
7.8665411002
 11
18.773329
 21
7.8665411002
  0
LINE
  5
2ED
100
AcDbEntity
  8
0
100
AcDbLine
 62
7
  6
CONTINUOUS
 10
21.762748
 20
7.8740221002
 11
20.646916
 21
7.8740221002
  0
LINE
  5
2EE
100
AcDbEntity
  8
0
100
AcDbLine
 62
7
  6
CONTINUOUS
 10
17.082896
 20
8.1912501002
 11
17.825088
 21
8.1912501002
  0
LINE
  5
2EF
100
AcDbEntity
  8
0
100
AcDbLine
 62
7
  6
CONTINUOUS
 10
17.734858
 20
8.4127101002
 11
17.160257
 21
8.4127101002
  0
LINE
  5
2F0
100
AcDbEntity
  8
0
100
AcDbLine
 62
7
  6
CONTINUOUS
 10
20.646916
 20
8.4920171002
 11
21.659649
 21
8.4920171002
  0
LINE
  5
2F1
100
AcDbEntity
  8
0
100
AcDbLine
 62
7
  6
CONTINUOUS
 10
21.659649
 20
8.7134781002
 11
20.646916
 21
8.7134781002
  0
LINE
  5
2F2
100
AcDbEntity
  8
0
100
AcDbLine
 62
7
  6
CONTINUOUS
 10
20.646916
 20
9.2805971002
 11
21.744642
 21
9.2805971002
  0
LINE
  5
2F3
100
AcDbEntity
  8
0
100
AcDbLine
 62
7
  6
CONTINUOUS
 10
18.773329
 20
9.2880791002
 11
19.2397410426
 21
9.2880791002
  0
LINE
  5
2F4
100
AcDbEntity
  8
0
100
AcDbLine
 62
7
  6
CONTINUOUS
 10
21.744642
 20
9.5020571002
 11
20.396875
 21
9.5020571002
  0
LINE
  5
2F5
100
AcDbEntity
  8
0
100
AcDbLine
 62
7
  6
CONTINUOUS
 10
19.2732624542
 20
9.5020571002
 11
18.523437
 21
9.5020571002
  0
LINE
  5
2F6
100
AcDbEntity
  8
0
100
AcDbLine
 62
7
  6
CONTINUOUS
 10
17.611109
 20
9.5020571002
 11
17.327699
 21
9.5020571002
  0
LINE
  5
2F7
100
AcDbEntity
  8
0
100
AcDbLine
 62
7
  6
CONTINUOUS
 10
16.410284
 20
9.5020571002
 11
16.0546
 21
9.5020571002
  0
LINE
  5
2F8
100
AcDbEntity
  8
0
100
AcDbLine
 62
7
  6
CONTINUOUS
 10
14.995479
 20
9.5020571002
 11
14.637252
 21
9.5020571002
  0
LINE
  5
2F9
100
AcDbEntity
  8
0
100
AcDbLine
 62
7
  6
CONTINUOUS
 10
-1.884725
 20
24.5754731002
 11
-0.954306
 21
22.0944431002
  0
LINE
  5
2FA
100
AcDbEntity
  8
0
100
AcDbLine
 62
7
  6
CONTINUOUS
 10
-0.894359
 20
23.7844681002
 11
-1.679095
 21
25.8939851002
  0
LINE
  5
2FB
100
AcDbEntity
  8
0
100
AcDbLine
 62
7
  6
CONTINUOUS
 10
3.24675
 20
22.8529671002
 11
3.452209
 21
22.0944431002
  0
LINE
  5
2FC
100
AcDbEntity
  8
0
100
AcDbLine
 62
7
  6
CONTINUOUS
 10
2.723801
 20
24.8499681002
 11
3.088247
 21
23.4399091002
  0
LINE
  5
2FD
100
AcDbEntity
  8
RACCORDO
100
AcDbLine
 62
7
  6
CONTINUOUS
 10
15.05
 20
-32.0308297456
 11
15.0174669385
 21
-31.9006479246
  0
LINE
  5
2FE
100
AcDbEntity
  8
RACCORDO
100
AcDbLine
 62
7
  6
CONTINUOUS
 10
4.35
 20
-32.0308297456
 11
4.3825330615
 21
-31.9006479246
  0
LINE
  5
2FF
100
AcDbEntity
  8
0
100
AcDbLine
 62
7
  6
CONTINUOUS
 10
15.647442
 20
7.6525621002
 11
16.168024
 21
9.2057791002
  0
LINE
  5
300
100
AcDbEntity
  8
0
100
AcDbLine
 62
7
  6
CONTINUOUS
 10
16.0546
 20
9.5020571002
 11
15.526318
 21
7.9305951002
  0
LINE
  5
301
100
AcDbEntity
  8
COPY-PUBBLISH
100
AcDbLine
 62
7
  6
CONTINUOUS
 10
25.7
 20
9.9167891002
 11
24.7125239929
 21
9.9167891002
  0
LINE
  5
302
100
AcDbEntity
  8
COPY-PUBBLISH
100
AcDbLine
 62
7
  6
CONTINUOUS
 10
-24.7125239929
 20
9.9167891002
 11
-25.7
 21
9.9167891002
  0
LINE
  5
303
100
AcDbEntity
  8
RACCORDO
100
AcDbLine
 62
253
  6
CONTINUOUS
 10
24.1
 20
9.9667891002
 11
24.4
 21
9.9667891002
  0
LINE
  5
304
100
AcDbEntity
  8
RACCORDO
100
AcDbLine
 62
253
  6
CONTINUOUS
 10
-24.1
 20
9.9667891002
 11
-24.4
 21
9.9667891002
  0
LINE
  5
305
100
AcDbEntity
  8
COPY-PUBBLISH
100
AcDbLine
 62
253
  6
CONTINUOUS
 10
-26.5
 20
11.6167891002
 11
-24.7125239929
 21
11.6167891002
  0
LINE
  5
306
100
AcDbEntity
  8
COPY-PUBBLISH
100
AcDbLine
 62
253
  6
CONTINUOUS
 10
24.7125239929
 20
11.6167891002
 11
26.5
 21
11.6167891002
  0
LINE
  5
307
100
AcDbEntity
  8
COPY-PUBBLISH
100
AcDbLine
 62
7
  6
CONTINUOUS
 10
-26.5
 20
11.9167891002
 11
-24.7099059326
 21
11.9167891002
  0
LINE
  5
308
100
AcDbEntity
  8
COPY-PUBBLISH
100
AcDbLine
 62
7
  6
CONTINUOUS
 10
24.7099059326
 20
11.9167891002
 11
26.5
 21
11.9167891002
  0
LINE
  5
309
100
AcDbEntity
  8
COPY-PUBBLISH
100
AcDbLine
 62
253
  6
CONTINUOUS
 10
26.5
 20
12.2167891002
 11
24.6950702573
 21
12.2167891002
  0
LINE
  5
30A
100
AcDbEntity
  8
COPY-PUBBLISH
100
AcDbLine
 62
253
  6
CONTINUOUS
 10
-24.6950702573
 20
12.2167891002
 11
-26.5
 21
12.2167891002
  0
LINE
  5
30B
100
AcDbEntity
  8
RACCORDO
100
AcDbLine
 62
7
  6
CONTINUOUS
 10
-22.4857406735
 20
37.496182855
 11
-21.6563469186
 21
36.6667891002
  0
LINE
  5
30C
100
AcDbEntity
  8
0
100
AcDbLine
 62
7
  6
CONTINUOUS
 10
4.288118
 20
22.0944431002
 11
3.122324
 21
25.8939851002
  0
LINE
  5
30D
100
AcDbEntity
  8
DRAFT
100
AcDbLine
 62
7
  6
CONTINUOUS
 10
14.05
 20
-32.0308297456
 11
14.05
 21
-35.1355920541
  0
LINE
  5
30E
100
AcDbEntity
  8
RACCORDO
100
AcDbLine
 62
7
  6
CONTINUOUS
 10
14.0892709051
 20
-31.101135263
 11
14.0892709051
 21
-36.0652865366
  0
LINE
  5
30F
100
AcDbEntity
  8
0
100
AcDbLine
 62
7
  6
CONTINUOUS
 10
14.637252
 20
9.5020571002
 11
14.637252
 21
7.6525621002
  0
LINE
  5
310
100
AcDbEntity
  8
0
100
AcDbLine
 62
7
  6
CONTINUOUS
 10
14.879512
 20
7.6525621002
 11
14.879512
 21
9.2027861002
  0
LINE
  5
311
100
AcDbEntity
  8
RACCORDO
100
AcDbLine
 62
7
  6
CONTINUOUS
 10
15.0107290949
 20
-36.0652865366
 11
15.0107290949
 21
-31.101135263
  0
LINE
  5
312
100
AcDbEntity
  8
0
100
AcDbLine
 62
7
  6
CONTINUOUS
 10
15.018523
 20
4.1825131002
 11
15.018523
 21
2.3315211002
  0
LINE
  5
313
100
AcDbEntity
  8
DRAFT
100
AcDbLine
 62
7
  6
CONTINUOUS
 10
15.05
 20
-32.0308297456
 11
15.05
 21
-35.1355920541
  0
LINE
  5
314
100
AcDbEntity
  8
0
100
AcDbLine
 62
7
  6
CONTINUOUS
 10
15.268564
 20
2.3315211002
 11
15.268564
 21
4.1825131002
  0
LINE
  5
315
100
AcDbEntity
  8
0
100
AcDbLine
 62
7
  6
CONTINUOUS
 10
15.536711
 20
4.1825131002
 11
15.536711
 21
3.9610521002
  0
LINE
  5
316
100
AcDbEntity
  8
RACCORDO
100
AcDbLine
 62
7
  6
CONTINUOUS
 10
5.35
 20
-35.1355920541
 11
5.3174669385
 21
-35.265773875
  0
LINE
  5
317
100
AcDbEntity
  8
DRAFT
100
AcDbLine
 62
7
  6
CONTINUOUS
 10
24.7387045963
 20
37.7675898832
 11
24.6776165217
 21
37.5231444968
  0
LINE
  5
318
100
AcDbEntity
  8
RACCORDO
100
AcDbLine
 62
7
  6
CONTINUOUS
 10
24.6708786781
 20
35.246182855
 11
24.4
 21
34.1622553673
  0
LINE
  5
319
100
AcDbEntity
  8
0
100
AcDbLine
 62
7
  6
CONTINUOUS
 10
16.889566
 20
7.6525621002
 11
17.082896
 21
8.1912501002
  0
LINE
  5
31A
100
AcDbEntity
  8
0
100
AcDbLine
 62
7
  6
CONTINUOUS
 10
17.368849
 20
2.3315211002
 11
17.562178
 21
2.8702091002
  0
LINE
  5
31B
100
AcDbEntity
  8
0
100
AcDbLine
 62
7
  6
CONTINUOUS
 10
17.160257
 20
8.4127101002
 11
17.459182
 21
9.2340001002
  0
LINE
  5
31C
100
AcDbEntity
  8
0
100
AcDbLine
 62
7
  6
CONTINUOUS
 10
17.63939
 20
3.0916691002
 11
17.938466
 21
3.9129571002
  0
LINE
  5
31D
100
AcDbEntity
  8
0
100
AcDbLine
 62
7
  6
CONTINUOUS
 10
17.806982
 20
4.1825131002
 11
17.111177
 21
2.3315211002
  0
LINE
  5
31E
100
AcDbEntity
  8
0
100
AcDbLine
 62
7
  6
CONTINUOUS
 10
17.327699
 20
9.5020571002
 11
16.631894
 21
7.6525621002
  0
LINE
  5
31F
100
AcDbEntity
  8
RACCORDO
100
AcDbLine
 62
7
  6
CONTINUOUS
 10
24.6681581378
 20
-37.7675898832
 11
24.4375134245
 21
-36.844659565
  0
LINE
  5
320
100
AcDbEntity
  8
RACCORDO
100
AcDbLine
 62
7
  6
CONTINUOUS
 10
24.3852664508
 20
-35.1355920541
 11
24.4225436507
 21
-35.2847576612
  0
LINE
  5
321
100
AcDbEntity
  8
0
100
AcDbLine
 62
7
  6
CONTINUOUS
 10
16.162936
 20
3.9610521002
 11
16.162936
 21
2.3315211002
  0
LINE
  5
322
100
AcDbEntity
  8
0
100
AcDbLine
 62
7
  6
CONTINUOUS
 10
16.168024
 20
9.2057791002
 11
16.168024
 21
7.6525621002
  0
LINE
  5
323
100
AcDbEntity
  8
0
100
AcDbLine
 62
7
  6
CONTINUOUS
 10
16.410284
 20
7.6525621002
 11
16.410284
 21
9.5020571002
  0
LINE
  5
324
100
AcDbEntity
  8
0
100
AcDbLine
 62
7
  6
CONTINUOUS
 10
16.412828
 20
2.3315211002
 11
16.412828
 21
3.9610521002
  0
LINE
  5
325
100
AcDbEntity
  8
0
100
AcDbLine
 62
7
  6
CONTINUOUS
 10
17.039052
 20
3.9610521002
 11
17.039052
 21
4.1825131002
  0
LINE
  5
326
100
AcDbEntity
  8
0
100
AcDbLine
 62
7
  6
CONTINUOUS
 10
17.117611
 20
6.8415371002
 11
17.117611
 21
4.9920411002
  0
LINE
  5
327
100
AcDbEntity
  8
0
100
AcDbLine
 62
7
  6
CONTINUOUS
 10
17.367652
 20
4.9920411002
 11
17.367652
 21
6.8415371002
  0
LINE
  5
328
100
AcDbEntity
  8
0
100
AcDbLine
 62
7
  6
CONTINUOUS
 10
17.795311
 20
6.8415371002
 11
17.795311
 21
4.9920411002
  0
LINE
  5
329
100
AcDbEntity
  8
0
100
AcDbLine
 62
7
  6
CONTINUOUS
 10
18.03772
 20
4.9920411002
 11
18.03772
 21
6.4949861002
  0
LINE
  5
32A
100
AcDbEntity
  8
0
100
AcDbLine
 62
7
  6
CONTINUOUS
 10
18.523437
 20
9.5020571002
 11
18.523437
 21
7.6525621002
  0
LINE
  5
32B
100
AcDbEntity
  8
RACCORDO
100
AcDbLine
 62
253
  6
CONTINUOUS
 10
18.6029336756
 20
-30.3736862829
 11
18.6029336744
 21
-31.9006479246
  0
LINE
  5
32C
100
AcDbEntity
  8
0
100
AcDbLine
 62
7
  6
CONTINUOUS
 10
18.773329
 20
7.8665411002
 11
18.773329
 21
9.2880791002
  0
LINE
  5
32D
100
AcDbEntity
  8
0
100
AcDbLine
 62
7
  6
CONTINUOUS
 10
21.229297
 20
4.1825131002
 11
20.69839
 21
3.2936771002
  0
LINE
  5
32E
100
AcDbEntity
  8
0
100
AcDbLine
 62
7
  6
CONTINUOUS
 10
20.824683
 20
3.0767061002
 11
21.523032
 21
4.1825131002
  0
LINE
  5
32F
100
AcDbEntity
  8
COPY-PUBBLISH
100
AcDbLine
 62
253
  6
CONTINUOUS
 10
24.6150893141
 20
16.2167891002
 11
24.3999601371
 21
16.2167891002
  0
LINE
  5
330
100
AcDbEntity
  8
COPY-PUBBLISH
100
AcDbLine
 62
253
  6
CONTINUOUS
 10
-24.6150893141
 20
16.2167891002
 11
-24.3999601371
 21
16.2167891002
  0
LINE
  5
331
100
AcDbEntity
  8
0
100
AcDbLine
 62
7
  6
CONTINUOUS
 10
18.03772
 20
6.4949861002
 11
18.983417
 21
4.9920411002
  0
LINE
  5
332
100
AcDbEntity
  8
0
100
AcDbLine
 62
7
  6
CONTINUOUS
 10
18.76046
 20
2.3315211002
 11
18.090392
 21
4.1825131002
  0
LINE
  5
333
100
AcDbEntity
  8
0
100
AcDbLine
 62
7
  6
CONTINUOUS
 10
18.304371
 20
2.8702091002
 11
18.487375
 21
2.3315211002
  0
LINE
  5
334
100
AcDbEntity
  8
0
100
AcDbLine
 62
7
  6
CONTINUOUS
 10
15.526318
 20
7.9305951002
 11
14.995479
 21
9.5020571002
  0
LINE
  5
335
100
AcDbEntity
  8
0
100
AcDbLine
 62
7
  6
CONTINUOUS
 10
14.879512
 20
9.2027861002
 11
15.400094
 21
7.6525621002
  0
LINE
  5
336
100
AcDbEntity
  8
0
100
AcDbLine
 62
7
  6
CONTINUOUS
 10
17.938466
 20
3.9129571002
 11
18.214141
 21
3.0916691002
  0
LINE
  5
337
100
AcDbEntity
  8
DRAFT
100
AcDbLine
 62
7
  6
CONTINUOUS
 10
24.6165284472
 20
-23.4046455269
 11
24.625255315
 21
-23.4395662964
  0
LINE
  5
338
100
AcDbEntity
  8
DRAFT
100
AcDbLine
 62
7
  6
CONTINUOUS
 10
24.4
 20
-22.328677167
 11
24.668889654
 21
-23.4046455269
  0
LINE
  5
339
100
AcDbEntity
  8
0
100
AcDbLine
 62
7
  6
CONTINUOUS
 10
18.989851
 20
4.1825131002
 11
18.989851
 21
2.3315211002
  0
LINE
  5
33A
100
AcDbEntity
  8
0
100
AcDbLine
 62
7
  6
CONTINUOUS
 10
19.022173
 20
6.8415371002
 11
19.022173
 21
5.3397201002
  0
LINE
  5
33B
100
AcDbEntity
  8
0
100
AcDbLine
 62
7
  6
CONTINUOUS
 10
19.239743
 20
2.5529811002
 11
19.239743
 21
4.1825131002
  0
LINE
  5
33C
100
AcDbEntity
  8
0
100
AcDbLine
 62
7
  6
CONTINUOUS
 10
19.264283
 20
4.9920411002
 11
19.264283
 21
6.8415371002
  0
LINE
  5
33D
100
AcDbEntity
  8
0
100
AcDbLine
 62
7
  6
CONTINUOUS
 10
20.177808
 20
2.3315211002
 11
20.177808
 21
2.5529811002
  0
LINE
  5
33E
100
AcDbEntity
  8
0
100
AcDbLine
 62
7
  6
CONTINUOUS
 10
20.396875
 20
9.5020571002
 11
20.396875
 21
7.6525621002
  0
LINE
  5
33F
100
AcDbEntity
  8
0
100
AcDbLine
 62
7
  6
CONTINUOUS
 10
20.574791
 20
3.0767061002
 11
20.574791
 21
2.3315211002
  0
LINE
  5
340
100
AcDbEntity
  8
0
100
AcDbLine
 62
7
  6
CONTINUOUS
 10
20.646916
 20
7.8740221002
 11
20.646916
 21
8.4920171002
  0
LINE
  5
341
100
AcDbEntity
  8
0
100
AcDbLine
 62
7
  6
CONTINUOUS
 10
20.646916
 20
8.7134781002
 11
20.646916
 21
9.2805971002
  0
LINE
  5
342
100
AcDbEntity
  8
0
100
AcDbLine
 62
7
  6
CONTINUOUS
 10
20.824683
 20
2.3315211002
 11
20.824683
 21
3.0767061002
  0
LINE
  5
343
100
AcDbEntity
  8
RACCORDO
100
AcDbLine
 62
253
  6
CONTINUOUS
 10
21.6011061566
 20
-30.2725801262
 11
21.6011173891
 21
-30.9730562321
  0
LINE
  5
344
100
AcDbEntity
  8
0
100
AcDbLine
 62
7
  6
CONTINUOUS
 10
21.659649
 20
8.4920171002
 11
21.659649
 21
8.7134781002
  0
LINE
  5
345
100
AcDbEntity
  8
0
100
AcDbLine
 62
7
  6
CONTINUOUS
 10
21.744642
 20
9.2805971002
 11
21.744642
 21
9.5020571002
  0
LINE
  5
346
100
AcDbEntity
  8
0
100
AcDbLine
 62
7
  6
CONTINUOUS
 10
21.762748
 20
7.6525621002
 11
21.762748
 21
7.8740221002
  0
LINE
  5
347
100
AcDbEntity
  8
RACCORDO
100
AcDbLine
 62
7
  6
CONTINUOUS
 10
14.05
 20
-32.0308297456
 11
14.0825330615
 21
-31.9006479246
  0
LINE
  5
348
100
AcDbEntity
  8
DRAFT
100
AcDbLine
 62
7
  6
CONTINUOUS
 10
24.459444827
 20
23.0382636552
 11
24.5554403742
 21
23.0466621774
  0
LINE
  5
349
100
AcDbEntity
  8
COPY-PUBBLISH
100
AcDbLine
 62
7
  6
CONTINUOUS
 10
26.5
 20
21.8167891002
 11
24.7387045963
 21
21.8167891002
  0
LINE
  5
34A
100
AcDbEntity
  8
DRAFT
100
AcDbLine
 62
7
  6
CONTINUOUS
 10
24.707020735
 20
21.8167891002
 11
24.7387045963
 21
21.8167891002
  0
LINE
  5
34B
100
AcDbEntity
  8
DRAFT
100
AcDbLine
 62
7
  6
CONTINUOUS
 10
-24.707020735
 20
21.8167891002
 11
-24.7387045963
 21
21.8167891002
  0
LINE
  5
34C
100
AcDbEntity
  8
COPY-PUBBLISH
100
AcDbLine
 62
7
  6
CONTINUOUS
 10
-24.7387045963
 20
21.8167891002
 11
-26.5
 21
21.8167891002
  0
LINE
  5
34D
100
AcDbEntity
  8
DRAFT
100
AcDbLine
 62
7
  6
CONTINUOUS
 10
-24.5554403727
 20
23.0466621772
 11
-24.459444827
 21
23.0382636552
  0
LINE
  5
34E
100
AcDbEntity
  8
0
100
AcDbLine
 62
7
  6
CONTINUOUS
 10
19.876293
 20
4.1825131002
 11
20.574791
 21
3.0767061002
  0
LINE
  5
34F
100
AcDbEntity
  8
0
100
AcDbLine
 62
7
  6
CONTINUOUS
 10
19.022173
 20
5.3397201002
 11
18.091739
 21
6.8415371002
  0
LINE
  5
350
100
AcDbEntity
  8
0
100
AcDbLine
 62
7
  6
CONTINUOUS
 10
20.69839
 20
3.2936771002
 11
20.167483
 21
4.1825131002
  0
LINE
  5
351
100
AcDbEntity
  8
0
100
AcDbLine
 62
7
  6
CONTINUOUS
 10
18.281177
 20
7.6525621002
 11
17.611109
 21
9.5020571002
  0
LINE
  5
352
100
AcDbEntity
  8
0
100
AcDbLine
 62
7
  6
CONTINUOUS
 10
17.825088
 20
8.1912501002
 11
18.008092
 21
7.6525621002
  0
LINE
  5
353
100
AcDbEntity
  8
0
100
AcDbLine
 62
7
  6
CONTINUOUS
 10
17.459182
 20
9.2340001002
 11
17.734858
 21
8.4127101002
  0
LINE
  5
354
100
AcDbEntity
  8
DRAFT
100
AcDbLine
 62
7
  6
CONTINUOUS
 10
24.7168874268
 20
-9.9832108998
 11
24.7387045963
 21
-11.4265865728
  0
LINE
  5
355
100
AcDbEntity
  8
DRAFT
100
AcDbLine
 62
7
  6
CONTINUOUS
 10
24.707020735
 20
21.8167891002
 11
24.7037971251
 21
23.4167891002
  0
LINE
  5
356
100
AcDbEntity
  8
DRAFT
100
AcDbLine
 62
7
  6
CONTINUOUS
 10
22.257780698
 20
-25.4346446791
 11
22.257780698
 21
-29.6159055849
  0
LINE
  5
357
100
AcDbEntity
  8
RACCORDO
100
AcDbLine
 62
253
  6
CONTINUOUS
 10
22.2832002104
 20
-29.132146881
 11
22.2832002104
 21
-27.0832108998
  0
LINE
  5
358
100
AcDbEntity
  8
RACCORDO
100
AcDbLine
 62
253
  6
CONTINUOUS
 10
22.4857406735
 20
36.6667891002
 11
22.4857406735
 21
37.496182855
  0
LINE
  5
359
100
AcDbEntity
  8
RACCORDO
100
AcDbLine
 62
253
  6
CONTINUOUS
 10
22.9375705399
 20
-36.7927355168
 11
22.9375705399
 21
-35.265773875
  0
LINE
  5
35A
100
AcDbEntity
  8
RACCORDO
100
AcDbLine
 62
253
  6
CONTINUOUS
 10
23.0827128721
 20
-29.132146881
 11
23.0827128721
 21
-27.0832108998
  0
LINE
  5
35B
100
AcDbEntity
  8
RACCORDO
100
AcDbLine
 62
253
  6
CONTINUOUS
 10
23.2852533351
 20
36.6667891002
 11
23.2852533351
 21
37.5231444968
  0
LINE
  5
35C
100
AcDbEntity
  8
RACCORDO
100
AcDbLine
 62
253
  6
CONTINUOUS
 10
24.1
 20
9.9667891002
 11
24.1
 21
36.6667891002
  0
LINE
  5
35D
100
AcDbEntity
  8
RACCORDO
100
AcDbLine
 62
253
  6
CONTINUOUS
 10
24.1
 20
1.8667891002
 11
24.0999999985
 21
-24.8332108998
  0
LINE
  5
35E
100
AcDbEntity
  8
DRAFT
100
AcDbLine
 62
7
  6
CONTINUOUS
 10
24.3852664508
 20
-32.0308297456
 11
24.3852664508
 21
-35.1355920541
  0
LINE
  5
35F
100
AcDbEntity
  8
RACCORDO
100
AcDbLine
 62
7
  6
CONTINUOUS
 10
24.4
 20
-24.5332108998
 11
24.4
 21
1.8667891002
  0
LINE
  5
360
100
AcDbEntity
  8
RACCORDO
100
AcDbLine
 62
7
  6
CONTINUOUS
 10
24.4
 20
9.9667891002
 11
24.4
 21
36.3667890986
  0
LINE
  5
361
100
AcDbEntity
  8
RACCORDO
100
AcDbLine
 62
253
  6
CONTINUOUS
 10
24.4375147719
 20
-36.1450220529
 11
24.4375134245
 21
-36.844659565
  0
LINE
  5
362
100
AcDbEntity
  8
DRAFT
100
AcDbLine
 62
7
  6
CONTINUOUS
 10
24.6150893141
 20
16.2167891002
 11
24.6150893141
 21
9.6800206024
  0
LINE
  5
363
100
AcDbEntity
  8
DRAFT
100
AcDbLine
 62
7
  6
CONTINUOUS
 10
24.6150893141
 20
2.153557598
 11
24.6150893141
 21
-4.3832108998
  0
LINE
  5
364
100
AcDbEntity
  8
DRAFT
100
AcDbLine
 62
7
  6
CONTINUOUS
 10
24.625255315
 20
-25.5832108998
 11
24.625255315
 21
-23.4395662964
  0
LINE
  5
365
100
AcDbEntity
  8
RACCORDO
100
AcDbLine
 62
7
  6
CONTINUOUS
 10
24.6270006886
 20
-29.132146881
 11
24.6270006886
 21
-27.0832108998
  0
LINE
  5
366
100
AcDbEntity
  8
RACCORDO
100
AcDbLine
 62
7
  6
CONTINUOUS
 10
24.6357275564
 20
-27.9753081905
 11
24.6357275564
 21
-27.0832108998
  0
LINE
  5
367
100
AcDbEntity
  8
COPY-PUBBLISH
100
AcDbLine
 62
7
  6
CONTINUOUS
 10
24.668889654
 20
-23.4046455269
 11
24.668889654
 21
-10.2832108998
  0
LINE
  5
368
100
AcDbEntity
  8
RACCORDO
100
AcDbLine
 62
7
  6
CONTINUOUS
 10
24.6776165217
 20
36.0456955166
 11
24.6776165217
 21
37.5231444968
  0
LINE
  5
369
100
AcDbEntity
  8
COPY-PUBBLISH
100
AcDbLine
 62
7
  6
CONTINUOUS
 10
24.6863433895
 20
-27.2695024008
 11
24.6863433895
 21
-11.8832108998
  0
LINE
  5
36A
100
AcDbEntity
  8
COPY-PUBBLISH
100
AcDbLine
 62
7
  6
CONTINUOUS
 10
24.6950702573
 20
9.6167891002
 11
24.6950702573
 21
2.2167891002
  0
LINE
  5
36B
100
AcDbEntity
  8
COPY-PUBBLISH
100
AcDbLine
 62
7
  6
CONTINUOUS
 10
24.6950702573
 20
-9.9832108998
 11
24.6950702573
 21
-0.3832108998
  0
LINE
  5
36C
100
AcDbEntity
  8
COPY-PUBBLISH
100
AcDbLine
 62
7
  6
CONTINUOUS
 10
24.6950702573
 20
12.2167891002
 11
24.6950702573
 21
23.4167891002
  0
LINE
  5
36D
100
AcDbEntity
  8
COPY-PUBBLISH
100
AcDbLine
 62
7
  6
CONTINUOUS
 10
24.7038305539
 20
1.9167891002
 11
24.7038305539
 21
9.9167891002
  0
LINE
  5
36E
100
AcDbEntity
  8
COPY-PUBBLISH
100
AcDbLine
 62
7
  6
CONTINUOUS
 10
24.7125239929
 20
0.2167891002
 11
24.7125239929
 21
1.9167891002
  0
LINE
  5
36F
100
AcDbEntity
  8
COPY-PUBBLISH
100
AcDbLine
 62
7
  6
CONTINUOUS
 10
24.7125239929
 20
9.9167891002
 11
24.7125239929
 21
11.6167891002
  0
LINE
  5
370
100
AcDbEntity
  8
DRAFT
100
AcDbLine
 62
7
  6
CONTINUOUS
 10
24.7387045963
 20
37.7675898832
 11
24.7387045963
 21
21.8167891002
  0
LINE
  5
371
100
AcDbEntity
  8
RACCORDO
100
AcDbLine
 62
7
  6
CONTINUOUS
 10
24.7387045963
 20
-11.4265865728
 11
24.7387045963
 21
-29.7547837751
  0
LINE
  5
372
100
AcDbEntity
  8
DRAFT
100
AcDbLine
 62
7
  6
CONTINUOUS
 10
24.707020735
 20
-9.9832108998
 11
24.7037971251
 21
-11.5832108998
  0
LINE
  5
373
100
AcDbEntity
  8
RACCORDO
100
AcDbLine
 62
7
  6
CONTINUOUS
 10
24.6812313087
 20
-28.6837159632
 11
24.6800993212
 21
-28.8134288859
  0
LINE
  5
374
100
AcDbEntity
  8
RACCORDO
100
AcDbLine
 62
7
  6
CONTINUOUS
 10
24.6811089192
 20
-37.1830217916
 11
24.7335925155
 21
-31.1689973374
  0
LINE
  5
375
100
AcDbEntity
  8
RACCORDO
100
AcDbLine
 62
7
  6
CONTINUOUS
 10
15.05
 20
-35.1355920541
 11
15.0174669385
 21
-35.265773875
  0
LINE
  5
376
100
AcDbEntity
  8
0
100
AcDbLine
 62
7
  6
CONTINUOUS
 10
-6.249285
 20
22.0944431002
 11
-5.550353
 21
22.0944431002
  0
LINE
  5
377
100
AcDbEntity
  8
0
100
AcDbLine
 62
7
  6
CONTINUOUS
 10
-4.034701
 20
22.0944431002
 11
-3.241588
 21
22.0944431002
  0
LINE
  5
378
100
AcDbEntity
  8
0
100
AcDbLine
 62
7
  6
CONTINUOUS
 10
-2.81463
 20
22.0944431002
 11
-2.055878
 21
22.0944431002
  0
LINE
  5
379
100
AcDbEntity
  8
0
100
AcDbLine
 62
7
  6
CONTINUOUS
 10
-0.954306
 20
22.0944431002
 11
-0.843072
 21
22.0944431002
  0
LINE
  5
37A
100
AcDbEntity
  8
0
100
AcDbLine
 62
7
  6
CONTINUOUS
 10
0.262887
 20
22.0944431002
 11
1.038763
 21
22.0944431002
  0
LINE
  5
37B
100
AcDbEntity
  8
0
100
AcDbLine
 62
7
  6
CONTINUOUS
 10
1.163303
 20
22.0944431002
 11
1.947812
 21
22.0944431002
  0
LINE
  5
37C
100
AcDbEntity
  8
0
100
AcDbLine
 62
7
  6
CONTINUOUS
 10
3.452209
 20
22.0944431002
 11
4.288118
 21
22.0944431002
  0
LINE
  5
37D
100
AcDbEntity
  8
0
100
AcDbLine
 62
7
  6
CONTINUOUS
 10
4.5210141587
 20
22.0944431614
 11
5.310936459
 21
22.0944431614
  0
LINE
  5
37E
100
AcDbEntity
  8
0
100
AcDbLine
 62
7
  6
CONTINUOUS
 10
6.5254804604
 20
22.0944431614
 11
7.2883635073
 21
22.0944431614
  0
LINE
  5
37F
100
AcDbEntity
  8
0
100
AcDbLine
 62
7
  6
CONTINUOUS
 10
2.166662
 20
22.8529671002
 11
3.24675
 21
22.8529671002
  0
LINE
  5
380
100
AcDbEntity
  8
DRAFT
100
AcDbLine
 62
7
  6
CONTINUOUS
 10
-24.7037971251
 20
23.4167891002
 11
-24.6950702573
 21
23.4167891002
  0
LINE
  5
381
100
AcDbEntity
  8
DRAFT
100
AcDbLine
 62
7
  6
CONTINUOUS
 10
24.7037971251
 20
23.4167891002
 11
24.6950702573
 21
23.4167891002
  0
LINE
  5
382
100
AcDbEntity
  8
0
100
AcDbLine
 62
7
  6
CONTINUOUS
 10
3.088247
 20
23.4399091002
 11
2.328897
 21
23.4399091002
  0
LINE
  5
383
100
AcDbEntity
  8
0
100
AcDbLine
 62
7
  6
CONTINUOUS
 10
5.310936459
 20
23.5813741629
 11
5.7361849921
 21
23.5813741629
  0
LINE
  5
384
100
AcDbEntity
  8
0
100
AcDbLine
 62
7
  6
CONTINUOUS
 10
5.737894534
 20
24.2036473933
 11
5.284638007
 21
24.2036473933
  0
LINE
  5
385
100
AcDbEntity
  8
COPY-PUBBLISH
100
AcDbLine
 62
7
  6
CONTINUOUS
 10
25.7
 20
1.9167891002
 11
25.7
 21
9.9167891002
  0
LINE
  5
386
100
AcDbEntity
  8
RACCORDO
100
AcDbLine
 62
7
  6
CONTINUOUS
 10
26.5
 20
-11.4265865728
 11
26.5
 21
-37.7685567176
  0
LINE
  5
387
100
AcDbEntity
  8
COPY-PUBBLISH
100
AcDbLine
 62
7
  6
CONTINUOUS
 10
26.5
 20
-11.4265865728
 11
26.5
 21
37.7675898832
  0
LINE
  5
388
100
AcDbEntity
  8
0
100
AcDbLine
 62
7
  6
CONTINUOUS
 10
3.122324
 20
25.8939851002
 11
2.355082
 21
25.8939851002
  0
LINE
  5
389
100
AcDbEntity
  8
0
100
AcDbLine
 62
7
  6
CONTINUOUS
 10
0.683463
 20
25.8939851002
 11
-0.101245
 21
25.8939851002
  0
LINE
  5
38A
100
AcDbEntity
  8
0
100
AcDbLine
 62
7
  6
CONTINUOUS
 10
-1.679095
 20
25.8939851002
 11
-2.471553
 21
25.8939851002
  0
LINE
  5
38B
100
AcDbEntity
  8
0
100
AcDbLine
 62
7
  6
CONTINUOUS
 10
-4.329028
 20
25.8939851002
 11
-5.1216
 21
25.8939851002
  0
LINE
  5
38C
100
AcDbEntity
  8
0
100
AcDbLine
 62
7
  6
CONTINUOUS
 10
-6.592247
 20
25.8939851002
 11
-7.453814
 21
25.8939851002
  0
LINE
  5
38D
100
AcDbEntity
  8
0
100
AcDbLine
 62
7
  6
CONTINUOUS
 10
-3.241588
 20
25.8942131002
 11
-4.034701
 21
25.8942131002
  0
LINE
  5
38E
100
AcDbEntity
  8
RACCORDO
100
AcDbLine
 62
7
  6
CONTINUOUS
 10
24.668366793
 20
-29.3979969776
 11
24.649274703
 21
-29.474394431
  0
LINE
  5
38F
100
AcDbEntity
  8
RACCORDO
100
AcDbLine
 62
7
  6
CONTINUOUS
 10
24.3852664508
 20
-32.0308297456
 11
24.6101560796
 21
-31.1309285351
  0
LINE
  5
390
100
AcDbEntity
  8
RACCORDO
100
AcDbLine
 62
7
  6
CONTINUOUS
 10
24.649274703
 20
-29.474394431
 11
24.6488091644
 21
-29.4751325492
  0
LINE
  5
391
100
AcDbEntity
  8
RACCORDO
100
AcDbLine
 62
7
  6
CONTINUOUS
 10
22.257780698
 20
-29.6159055849
 11
21.6011061566
 21
-30.2725801262
  0
LINE
  5
392
100
AcDbEntity
  8
RACCORDO
100
AcDbLine
 62
253
  6
CONTINUOUS
 10
21.6011173891
 20
-30.9730562321
 11
22.2427577478
 21
-30.3314158735
  0
LINE
  5
393
100
AcDbEntity
  8
RACCORDO
100
AcDbLine
 62
253
  6
CONTINUOUS
 10
24.6708786781
 20
35.246182855
 11
24.4
 21
35.246182855
  0
LINE
  5
394
100
AcDbEntity
  8
RACCORDO
100
AcDbLine
 62
253
  6
CONTINUOUS
 10
-24.4
 20
35.246182855
 11
-24.6708786781
 21
35.246182855
  0
LINE
  5
395
100
AcDbEntity
  8
RACCORDO
100
AcDbLine
 62
253
  6
CONTINUOUS
 10
24.6776165217
 20
36.0456955166
 11
24.4
 21
36.0456955166
  0
LINE
  5
396
100
AcDbEntity
  8
RACCORDO
100
AcDbLine
 62
253
  6
CONTINUOUS
 10
-24.4
 20
36.0456955166
 11
-24.6776165217
 21
36.0456955166
  0
LINE
  5
397
100
AcDbEntity
  8
RACCORDO
100
AcDbLine
 62
253
  6
CONTINUOUS
 10
-24.4
 20
36.3667891002
 11
24.4
 21
36.3667890986
  0
LINE
  5
398
100
AcDbEntity
  8
RACCORDO
100
AcDbLine
 62
7
  6
CONTINUOUS
 10
24.1
 20
36.6667891002
 11
-24.1
 21
36.6667891002
  0
LINE
  5
399
100
AcDbEntity
  8
RACCORDO
100
AcDbLine
 62
253
  6
CONTINUOUS
 10
22.4006188183
 20
-31.7725801262
 11
23.0422704094
 21
-31.1309285351
  0
LINE
  5
39A
100
AcDbEntity
  8
RACCORDO
100
AcDbLine
 62
7
  6
CONTINUOUS
 10
-24.6776165217
 20
37.5231444968
 11
-23.2852533351
 21
37.5231444968
  0
LINE
  5
39B
100
AcDbEntity
  8
RACCORDO
100
AcDbLine
 62
7
  6
CONTINUOUS
 10
23.2852533351
 20
37.5231444968
 11
24.6776165217
 21
37.5231444968
  0
LINE
  5
39C
100
AcDbEntity
  8
COPY-PUBBLISH
100
AcDbLine
 62
7
  6
CONTINUOUS
 10
26.5
 20
37.7675898832
 11
24.7387045963
 21
37.7675898832
  0
LINE
  5
39D
100
AcDbEntity
  8
COPY-PUBBLISH
100
AcDbLine
 62
7
  6
CONTINUOUS
 10
-24.7387045963
 20
37.7675898832
 11
-26.5
 21
37.7675898832
  0
ARC
  5
39E
100
AcDbEntity
  8
RACCORDO
100
AcDbCircle
 62
253
  6
CONTINUOUS
 10
-23.0434412536
 20
-30.3302450293
 40
0.8006900039
100
AcDbArc
 50
270.083783896
 51
359.916216104
  0
ARC
  5
39F
100
AcDbEntity
  8
RACCORDO
100
AcDbCircle
 62
253
  6
CONTINUOUS
 10
-22.4017734315
 20
-30.9719128514
 40
0.8006700292
100
AcDbArc
 50
270.0826241467
 51
359.9173758903
  0
ARC
  5
3A0
100
AcDbEntity
  8
RACCORDO
100
AcDbCircle
 62
253
  6
CONTINUOUS
 10
-23.1632463564
 20
-24.7835476447
 40
0.7996735414
100
AcDbArc
 50
270.0154559114
 51
356.4317440246
  0
ARC
  5
3A1
100
AcDbEntity
  8
RACCORDO
100
AcDbCircle
 62
253
  6
CONTINUOUS
 10
-24.7
 20
1.8667891002
 40
0.5999888995
100
AcDbArc
 50
0.0
 51
90.0
  0
ARC
  5
3A2
100
AcDbEntity
  8
RACCORDO
100
AcDbCircle
 62
7
  6
CONTINUOUS
 10
-24.1
 20
-24.5332108998
 40
0.3
100
AcDbArc
 50
180.0
 51
270.0
  0
ARC
  5
3A3
100
AcDbEntity
  8
RACCORDO
100
AcDbCircle
 62
7
  6
CONTINUOUS
 10
-24.7
 20
1.8667891002
 40
0.3
100
AcDbArc
 50
0.0
 51
90.0
  0
ARC
  5
3A4
100
AcDbEntity
  8
ASSI
100
AcDbCircle
 62
7
  6
CONTINUOUS
 10
-15.511402
 20
5.9167881002
 40
2.2949984646
100
AcDbArc
 50
87.7525288774
 51
272.2474711226
  0
ARC
  5
3A5
100
AcDbEntity
  8
ASSI
100
AcDbCircle
 62
7
  6
CONTINUOUS
 10
-19.458001
 20
5.9167881002
 40
2.2949983861
100
AcDbArc
 50
87.7525288006
 51
272.2474711994
  0
ARC
  5
3A6
100
AcDbEntity
  8
ASSI
100
AcDbCircle
 62
7
  6
CONTINUOUS
 10
-19.458001
 20
5.9167881002
 40
1.6199999321
100
AcDbArc
 50
86.8152613297
 51
273.1847386703
  0
ARC
  5
3A7
100
AcDbEntity
  8
ASSI
100
AcDbCircle
 62
7
  6
CONTINUOUS
 10
-15.511402
 20
5.9167881002
 40
1.6199999321
100
AcDbArc
 50
86.8152613297
 51
167.9753003079
  0
ARC
  5
3A8
100
AcDbEntity
  8
ASSI
100
AcDbCircle
 62
7
  6
CONTINUOUS
 10
-15.511402
 20
5.9167881002
 40
1.6199972906
100
AcDbArc
 50
192.0247195925
 51
273.1847438687
  0
ARC
  5
3A9
100
AcDbEntity
  8
RACCORDO
100
AcDbCircle
 62
253
  6
CONTINUOUS
 10
-24.7
 20
9.9667891002
 40
0.5999970255
100
AcDbArc
 50
270.0
 51
360.0
  0
ARC
  5
3AA
100
AcDbEntity
  8
RACCORDO
100
AcDbCircle
 62
7
  6
CONTINUOUS
 10
-24.7
 20
9.9667891002
 40
0.3
100
AcDbArc
 50
270.0
 51
360.0
  0
ARC
  5
3AB
100
AcDbEntity
  8
RACCORDO
100
AcDbCircle
 62
7
  6
CONTINUOUS
 10
-24.1
 20
36.3667891002
 40
0.3
100
AcDbArc
 50
90.0
 51
180.0
  0
ARC
  5
3AC
100
AcDbEntity
  8
RACCORDO
100
AcDbCircle
 62
253
  6
CONTINUOUS
 10
22.4017734305
 20
-30.9719128524
 40
0.8006700283
100
AcDbArc
 50
180.0826240348
 51
269.9173759652
  0
ARC
  5
3AD
100
AcDbEntity
  8
RACCORDO
100
AcDbCircle
 62
253
  6
CONTINUOUS
 10
23.0434250172
 20
-30.3302612657
 40
0.8006700239
100
AcDbArc
 50
180.0826237177
 51
269.9173762725
  0
ARC
  5
3AE
100
AcDbEntity
  8
RACCORDO
100
AcDbCircle
 62
253
  6
CONTINUOUS
 10
23.1632463706
 20
-24.7835476323
 40
0.799673555
100
AcDbArc
 50
183.5682559922
 51
269.9845430604
  0
ARC
  5
3AF
100
AcDbEntity
  8
RACCORDO
100
AcDbCircle
 62
253
  6
CONTINUOUS
 10
24.7
 20
1.8667891002
 40
0.5999970255
100
AcDbArc
 50
90.0
 51
180.0
  0
ARC
  5
3B0
100
AcDbEntity
  8
RACCORDO
100
AcDbCircle
 62
7
  6
CONTINUOUS
 10
24.7
 20
1.8667891002
 40
0.3
100
AcDbArc
 50
90.0
 51
180.0
  0
ARC
  5
3B1
100
AcDbEntity
  8
RACCORDO
100
AcDbCircle
 62
7
  6
CONTINUOUS
 10
24.1
 20
-24.5332108998
 40
0.3
100
AcDbArc
 50
270.0
 51
360.0
  0
ARC
  5
3B2
100
AcDbEntity
  8
RACCORDO
100
AcDbCircle
 62
253
  6
CONTINUOUS
 10
24.7
 20
9.9667891002
 40
0.5999888995
100
AcDbArc
 50
180.0
 51
270.0
  0
ARC
  5
3B3
100
AcDbEntity
  8
RACCORDO
100
AcDbCircle
 62
7
  6
CONTINUOUS
 10
24.1
 20
36.3667891002
 40
0.3
100
AcDbArc
 50
0.0
 51
90.0
  0
ARC
  5
3B4
100
AcDbEntity
  8
RACCORDO
100
AcDbCircle
 62
7
  6
CONTINUOUS
 10
24.7
 20
9.9667891002
 40
0.3
100
AcDbArc
 50
180.0
 51
270.0
  0
SPLINE
  5
3B5
100
AcDbEntity
  8
0
100
AcDbSpline
 62
7
  6
CONTINUOUS
 70
0
 71
3
 72
9
 73
5
 74
3
 42
0.0000001
 43
0.0000001
 44
0.0000000001
 12
-0.2351603999
 22
0.8631953115
 32
0.0
 13
-0.8542629619
 23
0.2953015792
 33
0.0
 40
0.0
 40
0.0
 40
0.0
 40
0.0
 40
0.9772132234
 40
1.0
 40
1.0
 40
1.0
 40
1.0
 10
7.0172301712
 20
23.1228180563
 30
0.0
 10
6.9406295538
 20
23.4039933472
 30
0.0
 10
6.8282040967
 20
23.7683995621
 30
0.0
 10
6.5473585091
 20
23.872934815
 30
0.0
 10
6.540869876
 20
23.8751778054
 30
0.0
 11
7.0172301712
 21
23.1228180563
 31
0.0
 11
6.5600701904
 21
23.8680358374
 31
0.0
 11
6.540869876
 21
23.8751778054
 31
0.0
  0
SPLINE
  5
3B6
100
AcDbEntity
  8
0
100
AcDbSpline
 62
7
  6
CONTINUOUS
 70
0
 71
3
 72
14
 73
10
 74
8
 42
0.0000001
 43
0.0000001
 44
0.0000000001
 12
2.4101828561
 22
0.1404062894
 32
0.0
 13
-2.2337406966
 23
0.8058298463
 33
0.0
 40
0.0
 40
0.0
 40
0.0
 40
0.0
 40
0.0073301592
 40
0.1742263709
 40
0.3259983411
 40
0.5200589526
 40
0.6799515211
 40
0.8122728657
 40
1.0
 40
1.0
 40
1.0
 40
1.0
 10
6.5426057288
 20
23.8888550108
 30
0.0
 10
6.5484947368
 20
23.8891980776
 30
0.0
 10
6.6868501476
 20
23.902204855
 30
0.0
 10
6.8754403562
 20
24.1329706805
 30
0.0
 10
7.0764268754
 20
24.4750762653
 30
0.0
 10
7.1192475148
 20
24.8903537647
 30
0.0
 10
7.0356625345
 20
25.2721909657
 30
0.0
 10
6.829635336
 20
25.5967588956
 30
0.0
 10
6.6180750189
 20
25.7591656235
 30
0.0
 10
6.4782971056
 20
25.8095909994
 30
0.0
 11
6.5426057288
 21
23.8888550108
 31
0.0
 11
6.5600701904
 21
23.8904878203
 31
0.0
 11
6.8678874452
 21
24.1401236677
 31
0.0
 11
7.0393803131
 21
24.4571127926
 31
0.0
 11
7.0948433708
 21
24.9145888606
 31
0.0
 11
7.0084046615
 21
25.284307557
 31
0.0
 11
6.8407413453
 21
25.5500540555
 31
0.0
 11
6.4782971056
 21
25.8095909994
 31
0.0
  0
SPLINE
  5
3B7
100
AcDbEntity
  8
0
100
AcDbSpline
 62
7
  6
CONTINUOUS
 70
0
 71
3
 72
9
 73
5
 74
3
 42
0.0000001
 43
0.0000001
 44
0.0000000001
 12
-1.8490833515
 22
0.6680315285
 32
0.0
 13
-1.9451189551
 23
-0.2861601197
 33
0.0
 40
0.0
 40
0.0
 40
0.0
 40
0.0
 40
0.108204615
 40
1.0
 40
1.0
 40
1.0
 40
1.0
 10
6.4782971056
 20
25.8095909994
 30
0.0
 10
6.4116039883
 20
25.8336856975
 30
0.0
 10
5.7793541574
 20
26.0139831796
 30
0.0
 10
5.0992301945
 20
25.9346597032
 30
0.0
 10
4.5210141587
 20
25.8495942785
 30
0.0
 11
6.4782971056
 21
25.8095909994
 31
0.0
 11
6.2742187675
 21
25.8696640326
 31
0.0
 11
4.5210141587
 21
25.8495942785
 31
0.0
  0
SPLINE
  5
3B8
100
AcDbEntity
  8
0
100
AcDbSpline
 62
7
  6
CONTINUOUS
 70
0
 71
3
 72
9
 73
5
 74
3
 42
0.0000001
 43
0.0000001
 44
0.0000000001
 12
0.5693427171
 22
0.0
 32
0.0
 13
0.2000440944
 23
-0.5330417336
 33
0.0
 40
0.0
 40
0.0
 40
0.0
 40
0.0
 40
0.1435863572
 40
1.0
 40
1.0
 40
1.0
 40
1.0
 10
5.7361849921
 20
23.5813741629
 30
0.0
 10
5.763434941
 20
23.5813741629
 30
0.0
 10
5.9537656504
 20
23.5679192082
 30
0.0
 10
6.121564575
 20
23.3987569565
 30
0.0
 10
6.1786714055
 20
23.2465888856
 30
0.0
 11
5.7361849921
 21
23.5813741629
 31
0.0
 11
5.8176281887
 21
23.5743000432
 31
0.0
 11
6.1786714055
 21
23.2465888856
 31
0.0
  0
SPLINE
  5
3B9
100
AcDbEntity
  8
0
100
AcDbSpline
 62
7
  6
CONTINUOUS
 70
0
 71
3
 72
9
 73
5
 74
3
 42
0.0000001
 43
0.0000001
 44
0.0000000001
 12
0.4231569679
 22
-1.1263576533
 32
0.0
 13
0.3324634843
 23
-1.1563785774
 33
0.0
 40
0.0
 40
0.0
 40
0.0
 40
0.0
 40
0.8657275665
 40
1.0
 40
1.0
 40
1.0
 40
1.0
 10
6.1786714055
 20
23.2465888856
 30
0.0
 10
6.3007842895
 20
22.9215492622
 30
0.0
 10
6.3978960756
 20
22.5310372493
 30
0.0
 10
6.5106002334
 20
22.1461997499
 30
0.0
 10
6.5254804604
 20
22.0944431614
 30
0.0
 11
6.1786714055
 21
23.2465888856
 31
0.0
 11
6.4806152265
 21
22.2496481913
 31
0.0
 11
6.5254804604
 21
22.0944431614
 31
0.0
  0
SPLINE
  5
3BA
100
AcDbEntity
  8
0
100
AcDbSpline
 62
7
  6
CONTINUOUS
 70
0
 71
3
 72
9
 73
5
 74
3
 42
0.0000001
 43
0.0000001
 44
0.0000000001
 12
-0.2787501557
 22
1.0263367552
 32
0.0
 13
-0.2795600015
 23
1.0261164602
 33
0.0
 40
0.0
 40
0.0
 40
0.0
 40
0.0
 40
0.1980141723
 40
1.0
 40
1.0
 40
1.0
 40
1.0
 10
7.2883635073
 20
22.0944431614
 30
0.0
 10
7.2699646802
 20
22.1621862357
 30
0.0
 10
7.1799106656
 20
22.5050674656
 30
0.0
 10
7.0919645576
 20
22.8485077701
 30
0.0
 10
7.0172301712
 20
23.1228180563
 30
0.0
 11
7.2883635073
 21
22.0944431614
 31
0.0
 11
7.2343833881
 21
22.2979988427
 31
0.0
 11
7.0172301712
 21
23.1228180563
 31
0.0
  0
SPLINE
  5
3BB
100
AcDbEntity
  8
0
100
AcDbSpline
 62
7
  6
CONTINUOUS
 70
0
 71
3
 72
9
 73
5
 74
3
 42
0.0000001
 43
0.0000001
 44
0.0000000001
 12
0.0146048291
 22
-0.9465029213
 32
0.0
 13
-0.9463795554
 23
-0.0211380768
 33
0.0
 40
0.0
 40
0.0
 40
0.0
 40
0.0
 40
0.5206208722
 40
1.0
 40
1.0
 40
1.0
 40
1.0
 10
6.3539849214
 20
24.7940946531
 30
0.0
 10
6.3565194477
 20
24.6298382609
 30
0.0
 10
6.2404802795
 20
24.2710217882
 30
0.0
 10
5.8891194026
 20
24.2070251109
 30
0.0
 10
5.737894534
 20
24.2036473933
 30
0.0
 11
6.3539849214
 21
24.7940946531
 31
0.0
 11
6.1719115921
 21
24.3361333245
 31
0.0
 11
5.737894534
 21
24.2036473933
 31
0.0
  0
SPLINE
  5
3BC
100
AcDbEntity
  8
0
100
AcDbSpline
 62
7
  6
CONTINUOUS
 70
0
 71
3
 72
11
 73
7
 74
5
 42
0.0000001
 43
0.0000001
 44
0.0000000001
 12
1.3049532435
 22
0.2226699674
 32
0.0
 13
0.0207025745
 23
-1.3236526302
 33
0.0
 40
0.0
 40
0.0
 40
0.0
 40
0.0
 40
0.2429387748
 40
0.4710498328
 40
0.7362395484
 40
1.0
 40
1.0
 40
1.0
 40
1.0
 10
5.284638007
 20
25.2466958557
 30
0.0
 10
5.3903125877
 20
25.2647275787
 30
0.0
 10
5.5976971039
 20
25.2876700438
 30
0.0
 10
5.9221539762
 20
25.2870637469
 30
0.0
 10
6.2569163959
 20
25.1570230755
 30
0.0
 10
6.3521647479
 20
24.9104703916
 30
0.0
 10
6.3539849214
 20
24.7940946531
 30
0.0
 11
5.284638007
 21
25.2466958557
 31
0.0
 11
5.6042795929
 21
25.2821866566
 31
0.0
 11
5.9059709894
 21
25.2690623614
 31
0.0
 11
6.222699231
 21
25.1176432544
 31
0.0
 11
6.3539849214
 21
24.7940946531
 31
0.0
  0
SPLINE
  5
3BD
100
AcDbEntity
  8
0
100
AcDbSpline
 62
7
  6
CONTINUOUS
 70
0
 71
3
 72
13
 73
9
 74
7
 42
0.0000001
 43
0.0000001
 44
0.0000000001
 12
1.3585840541
 22
0.0000017724
 32
0.0
 13
-0.0
 23
1.3585838534
 33
0.0
 40
0.0
 40
0.0
 40
0.0
 40
0.0
 40
0.2440843853
 40
0.3951671574
 40
0.5865946804
 40
0.7510176722
 40
0.8853895042
 40
1.0
 40
1.0
 40
1.0
 40
1.0
 10
19.2732623155
 20
7.6525617679
 30
0.0
 10
19.3837987
 20
7.6525619121
 30
0.0
 10
19.5665486389
 20
7.6860707427
 30
0.0
 10
19.7939043039
 20
7.8309204853
 30
0.0
 10
19.9358556369
 20
8.0182739825
 30
0.0
 10
20.0146521822
 20
8.2274341083
 30
0.0
 10
20.0497032451
 20
8.4123636533
 30
0.0
 10
20.0507338862
 20
8.5254069638
 30
0.0
 10
20.0507338862
 20
8.5773096202
 30
0.0
 11
19.2732623155
 21
7.6525617679
 31
0.0
 11
19.5982696287
 21
7.7184014208
 31
0.0
 11
19.7710987176
 21
7.8291317461
 31
0.0
 11
19.9311339649
 21
8.0341324836
 31
0.0
 11
20.0126105354
 21
8.2421259326
 31
0.0
 11
20.0455303618
 21
8.4216886224
 31
0.0
 11
20.0507338862
 21
8.5773096202
 31
0.0
  0
SPLINE
  5
3BE
100
AcDbEntity
  8
0
100
AcDbSpline
 62
7
  6
CONTINUOUS
 70
0
 71
3
 72
13
 73
9
 74
7
 42
0.0000001
 43
0.0000001
 44
0.0000000001
 12
0.0
 22
1.3585837147
 32
0.0
 13
-1.3585839394
 23
0.0000019852
 33
0.0
 40
0.0
 40
0.0
 40
0.0
 40
0.0
 40
0.1146105075
 40
0.2489823532
 40
0.4134053618
 40
0.6048329044
 40
0.7559156919
 40
1.0
 40
1.0
 40
1.0
 40
1.0
 10
20.0507338862
 20
8.5773096202
 30
0.0
 10
20.0507338862
 20
8.6292122765
 30
0.0
 10
20.0497032451
 20
8.742255587
 30
0.0
 10
20.0146521822
 20
8.927185132
 30
0.0
 10
19.9358556369
 20
9.1363452578
 30
0.0
 10
19.7939043039
 20
9.323698755
 30
0.0
 10
19.5665486785
 20
9.4685484724
 30
0.0
 10
19.3837987945
 20
9.5020573109
 30
0.0
 10
19.2732624542
 20
9.5020574724
 30
0.0
 11
20.0507338862
 21
8.5773096202
 31
0.0
 11
20.0455303618
 21
8.732930618
 31
0.0
 11
20.0126105354
 21
8.9124933077
 31
0.0
 11
19.9311339649
 21
9.1204867567
 31
0.0
 11
19.7710987176
 21
9.3254874942
 31
0.0
 11
19.5982696287
 21
9.4362178195
 31
0.0
 11
19.2732624542
 21
9.5020574724
 31
0.0
  0
SPLINE
  5
3BF
100
AcDbEntity
  8
0
100
AcDbSpline
 62
7
  6
CONTINUOUS
 70
0
 71
3
 72
13
 73
9
 74
7
 42
0.0000001
 43
0.0000001
 44
0.0000000001
 12
0.0
 22
1.019617843
 32
0.0
 13
-1.0196177119
 23
-0.0000024243
 33
0.0
 40
0.0
 40
0.0
 40
0.0
 40
0.0
 40
0.1705949826
 40
0.3141152329
 40
0.5170627049
 40
0.6977963486
 40
0.8426881556
 40
1.0
 40
1.0
 40
1.0
 40
1.0
 10
19.7942483386
 20
8.5773096202
 30
0.0
 10
19.7942483386
 20
8.6352901829
 30
0.0
 10
19.786837617
 20
8.7420459397
 30
0.0
 10
19.7567572304
 20
8.9157626661
 30
0.0
 10
19.6806245304
 20
9.0817126722
 30
0.0
 10
19.5509268022
 20
9.2130189514
 30
0.0
 10
19.3965236018
 20
9.2768803204
 30
0.0
 10
19.2932070236
 20
9.2880787276
 30
0.0
 10
19.2397410426
 20
9.2880786005
 30
0.0
 11
19.7942483386
 21
8.5773096202
 31
0.0
 11
19.7829947458
 21
8.7508868869
 31
0.0
 11
19.7550877111
 21
8.8945370387
 31
0.0
 11
19.6665782686
 21
9.0815815072
 31
0.0
 11
19.5346745094
 21
9.2102681016
 31
0.0
 11
19.3989550431
 21
9.2686259757
 31
0.0
 11
19.2397410426
 21
9.2880786005
 31
0.0
  0
SPLINE
  5
3C0
100
AcDbEntity
  8
0
100
AcDbSpline
 62
7
  6
CONTINUOUS
 70
0
 71
3
 72
13
 73
9
 74
7
 42
0.0000001
 43
0.0000001
 44
0.0000000001
 12
1.0196146136
 22
0.0000022186
 32
0.0
 13
-0.0
 23
1.0196144936
 33
0.0
 40
0.0
 40
0.0
 40
0.0
 40
0.0
 40
0.1573090762
 40
0.3022013591
 40
0.4829355966
 40
0.6858837353
 40
0.829404457
 40
1.0
 40
1.0
 40
1.0
 40
1.0
 10
19.2397443921
 20
7.8665406399
 30
0.0
 10
19.2932092697
 20
7.8665407562
 30
0.0
 10
19.396524652
 20
7.8777393543
 30
0.0
 10
19.5509268022
 20
7.9416002889
 30
0.0
 10
19.6806245304
 20
8.0729065681
 30
0.0
 10
19.7567572304
 20
8.2388565742
 30
0.0
 10
19.786837617
 20
8.4125733006
 30
0.0
 10
19.7942483386
 20
8.5193290574
 30
0.0
 10
19.7942483386
 20
8.5773096202
 30
0.0
 11
19.2397443921
 21
7.8665406399
 31
0.0
 11
19.3989550431
 21
7.8859932646
 31
0.0
 11
19.5346745094
 21
7.9443511387
 31
0.0
 11
19.6665782686
 21
8.0730377331
 31
0.0
 11
19.7550877111
 21
8.2600822016
 31
0.0
 11
19.7829947458
 21
8.4037323534
 31
0.0
 11
19.7942483386
 21
8.5773096202
 31
0.0
  0
SPLINE
  5
3C1
100
AcDbEntity
  8
RACCORDO
100
AcDbSpline
 62
253
  6
CONTINUOUS
 70
0
 71
3
 72
20
 73
16
 74
14
 42
0.0000001
 43
0.0000001
 44
0.0000000001
 12
0.000015668
 22
-2.0000698439
 32
0.0
 13
1.0294431519
 23
-1.7147962496
 33
0.0
 40
0.0
 40
0.0
 40
0.0
 40
0.0
 40
0.1908049808
 40
0.3746404326
 40
0.5446680407
 40
0.6947040177
 40
0.7604643582
 40
0.8192194792
 40
0.8704463052
 40
0.9136637845
 40
0.9484841819
 40
0.9746003356
 40
0.9917822074
 40
0.9970011337
 40
1.0
 40
1.0
 40
1.0
 40
1.0
 10
-23.0827128721
 20
-29.132146881
 30
0.0
 10
-23.0827118755
 20
-29.2593546437
 30
0.0
 10
-23.0822176995
 20
-29.50912395
 30
0.0
 10
-23.0800098542
 20
-29.8722430443
 30
0.0
 10
-23.0764238522
 20
-30.2081696376
 30
0.0
 10
-23.0722659577
 20
-30.4653627967
 30
0.0
 10
-23.068233056
 20
-30.648360035
 30
0.0
 10
-23.0650973802
 20
-30.7654830663
 30
0.0
 10
-23.061765669
 20
-30.8675694915
 30
0.0
 10
-23.0582468317
 20
-30.9536683855
 30
0.0
 10
-23.0546756849
 20
-31.023043514
 30
0.0
 10
-23.0509185855
 20
-31.0749310966
 30
0.0
 10
-23.0477967367
 20
-31.1072472678
 30
0.0
 10
-23.0447147248
 20
-31.1238100012
 30
0.0
 10
-23.0432994635
 20
-31.1292143868
 30
0.0
 10
-23.0422704094
 20
-31.1309285351
 30
0.0
 11
-23.0827128721
 21
-29.132146881
 31
0.0
 11
-23.0819427756
 21
-29.5137693921
 31
0.0
 11
-23.0796613584
 21
-29.8814460577
 31
0.0
 11
-23.0759509823
 21
-30.2214929072
 31
0.0
 11
-23.0709496262
 21
-30.5215336595
 31
0.0
 11
-23.068020638
 21
-30.6530263161
 31
0.0
 11
-23.0648404825
 21
-30.7704976234
 31
0.0
 11
-23.061439376
 21
-30.8728983872
 31
0.0
 11
-23.0578491485
 21
-30.9592617715
 31
0.0
 11
-23.0541025069
 21
-31.0288041451
 31
0.0
 11
-23.0502329038
 21
-31.0808947457
 31
0.0
 11
-23.0462758445
 21
-31.1150311051
 31
0.0
 11
-23.0442767087
 21
-31.1252760956
 31
0.0
 11
-23.0422704094
 21
-31.1309285351
 31
0.0
  0
SPLINE
  5
3C2
100
AcDbEntity
  8
RACCORDO
100
AcDbSpline
 62
253
  6
CONTINUOUS
 70
0
 71
3
 72
20
 73
16
 74
14
 42
0.0000001
 43
0.0000001
 44
0.0000000001
 12
1.0294431565
 22
1.7147962468
 32
0.0
 13
0.0000156679
 23
2.0000698439
 33
0.0
 40
0.0
 40
0.0
 40
0.0
 40
0.0
 40
0.0029988663
 40
0.0082177926
 40
0.0253996644
 40
0.0515158181
 40
0.0863362155
 40
0.1295536948
 40
0.1807805208
 40
0.2395356418
 40
0.3052959823
 40
0.4553319593
 40
0.6253595674
 40
0.8091950192
 40
1.0
 40
1.0
 40
1.0
 40
1.0
 10
23.0422704094
 20
-31.1309285351
 30
0.0
 10
23.0432994635
 20
-31.1292143869
 30
0.0
 10
23.0447147248
 20
-31.1238100012
 30
0.0
 10
23.0477967367
 20
-31.1072472678
 30
0.0
 10
23.0509185855
 20
-31.0749310966
 30
0.0
 10
23.0546756849
 20
-31.023043514
 30
0.0
 10
23.0582468317
 20
-30.9536683855
 30
0.0
 10
23.061765669
 20
-30.8675694915
 30
0.0
 10
23.0650973802
 20
-30.7654830663
 30
0.0
 10
23.068233056
 20
-30.648360035
 30
0.0
 10
23.0722659577
 20
-30.4653627967
 30
0.0
 10
23.0764238523
 20
-30.2081696376
 30
0.0
 10
23.0800098542
 20
-29.8722430443
 30
0.0
 10
23.0822176995
 20
-29.50912395
 30
0.0
 10
23.0827118756
 20
-29.2593546437
 30
0.0
 10
23.0827128721
 20
-29.132146881
 30
0.0
 11
23.0422704094
 21
-31.1309285351
 31
0.0
 11
23.0442767087
 21
-31.1252760956
 31
0.0
 11
23.0462758445
 21
-31.1150311051
 31
0.0
 11
23.0502329038
 21
-31.0808947457
 31
0.0
 11
23.0541025069
 21
-31.0288041451
 31
0.0
 11
23.0578491485
 21
-30.9592617715
 31
0.0
 11
23.061439376
 21
-30.8728983872
 31
0.0
 11
23.0648404825
 21
-30.7704976234
 31
0.0
 11
23.068020638
 21
-30.6530263161
 31
0.0
 11
23.0709496262
 21
-30.5215336595
 31
0.0
 11
23.0759509823
 21
-30.2214929072
 31
0.0
 11
23.0796613584
 21
-29.8814460577
 31
0.0
 11
23.0819427755
 21
-29.5137693921
 31
0.0
 11
23.0827128721
 21
-29.132146881
 31
0.0
  0
SPLINE
  5
3C3
100
AcDbEntity
  8
RACCORDO
100
AcDbSpline
 62
253
  6
CONTINUOUS
 70
0
 71
3
 72
18
 73
14
 74
12
 42
0.0000001
 43
0.0000001
 44
0.0000000001
 12
0.0000107677
 22
1.5076424569
 32
0.0
 13
1.5076421523
 23
-0.0009584671
 33
0.0
 40
0.0
 40
0.0
 40
0.0
 40
0.0
 40
0.1941655985
 40
0.3810131243
 40
0.5530926373
 40
0.7039944611
 40
0.8279174549
 40
0.8782721816
 40
0.9202337476
 40
0.953467971
 40
0.9777004079
 40
0.9929161551
 40
1.0
 40
1.0
 40
1.0
 40
1.0
 10
23.0827128721
 20
-27.0832108998
 30
0.0
 10
23.082713569
 20
-26.9856334665
 30
0.0
 10
23.0837066659
 20
-26.7941542447
 30
0.0
 10
23.0881280887
 20
-26.5162303848
 30
0.0
 10
23.0952910146
 20
-26.2601038068
 30
0.0
 10
23.1048598921
 20
-26.0357254515
 30
0.0
 10
23.115033558
 20
-25.8725638084
 30
0.0
 10
23.1244805227
 20
-25.7643613106
 30
0.0
 10
23.1315138858
 20
-25.7015125546
 30
0.0
 10
23.1383780664
 20
-25.6523825745
 30
0.0
 10
23.1461409828
 20
-25.6157396211
 30
0.0
 10
23.1519450959
 20
-25.5948534012
 30
0.0
 10
23.1594652092
 20
-25.5832086402
 30
0.0
 10
23.163025177
 20
-25.5832109034
 30
0.0
 11
23.0827128721
 21
-27.0832108998
 31
0.0
 11
23.0842588232
 21
-26.790482682
 31
0.0
 11
23.0888351649
 21
-26.508820594
 31
0.0
 11
23.0962634938
 21
-26.249492583
 31
0.0
 11
23.106255755
 21
-26.0222061269
 31
0.0
 11
23.1184280034
 21
-25.8357714984
 31
0.0
 11
23.1251859327
 21
-25.7601559594
 31
0.0
 11
23.1323075821
 21
-25.6972950482
 31
0.0
 11
23.1397254503
 21
-25.6477418552
 31
0.0
 11
23.1473708848
 21
-25.6120169398
 31
0.0
 11
23.1551656087
 21
-25.5904419175
 31
0.0
 11
23.163025177
 21
-25.5832109034
 31
0.0
  0
SPLINE
  5
3C4
100
AcDbEntity
  8
RACCORDO
100
AcDbSpline
 62
253
  6
CONTINUOUS
 70
0
 71
3
 72
20
 73
16
 74
14
 42
0.0000001
 43
0.0000001
 44
0.0000000001
 12
3.0065412318
 22
0.0000306757
 32
0.0
 13
1.864683117
 23
2.3584416577
 33
0.0
 40
0.0
 40
0.0
 40
0.0
 40
0.0
 40
0.190477144
 40
0.3739949986
 40
0.5437254994
 40
0.6935076242
 40
0.7591696498
 40
0.8178528287
 40
0.8690430794
 40
0.9122715872
 40
0.9471662527
 40
0.9734473936
 40
0.9909582379
 40
0.996479171
 40
1.0
 40
1.0
 40
1.0
 40
1.0
 10
18.6029336756
 20
-31.101135263
 30
0.0
 10
18.7938261379
 20
-31.1011333153
 30
0.0
 10
19.1686385571
 20
-31.0995659424
 30
0.0
 10
19.7135121179
 20
-31.0925664097
 30
0.0
 10
20.2175196957
 20
-31.0812051668
 30
0.0
 10
20.6033228275
 20
-31.0680335843
 30
0.0
 10
20.8777552514
 20
-31.0552581502
 30
0.0
 10
21.0533938908
 20
-31.0453305062
 30
0.0
 10
21.206479155
 20
-31.034766872
 30
0.0
 10
21.335581407
 20
-31.0236538807
 30
0.0
 10
21.4396680931
 20
-31.0122459919
 30
0.0
 10
21.5175295762
 20
-31.0005297031
 30
0.0
 10
21.5661954234
 20
-30.9901749296
 30
0.0
 10
21.5909476831
 20
-30.9807515201
 30
0.0
 10
21.5989289617
 20
-30.975821294
 30
0.0
 10
21.6011173718
 20
-30.973053404
 30
0.0
 11
18.6029336756
 21
-31.101135263
 31
0.0
 11
19.1756058614
 21
-31.0986944914
 31
0.0
 11
19.7273124662
 21
-31.0914629466
 31
0.0
 11
20.2374788018
 21
-31.0797077486
 31
0.0
 11
20.6875261689
 21
-31.0638649466
 31
0.0
 11
20.8847236568
 21
-31.0545878243
 31
0.0
 11
21.0608693863
 21
-31.0445167993
 31
0.0
 11
21.2143977313
 21
-31.0337473613
 31
0.0
 11
21.3438679302
 21
-31.0223796777
 31
0.0
 11
21.448107239
 21
-31.0105159989
 31
0.0
 11
21.5261663412
 21
-30.9982604079
 31
0.0
 11
21.5773000163
 21
-30.9857279768
 31
0.0
 11
21.5926453576
 21
-30.9793999116
 31
0.0
 11
21.6011173718
 21
-30.973053404
 31
0.0
  0
SPLINE
  5
3C5
100
AcDbEntity
  8
RACCORDO
100
AcDbSpline
 62
253
  6
CONTINUOUS
 70
0
 71
3
 72
20
 73
16
 74
14
 42
0.0000001
 43
0.0000001
 44
0.0000000001
 12
1.8646831295
 22
-2.3584416372
 32
0.0
 13
3.0065412234
 23
-0.0000306813
 33
0.0
 40
0.0
 40
0.0
 40
0.0
 40
0.0
 40
0.0035208284
 40
0.0090417631
 40
0.0265526136
 40
0.0528337591
 40
0.0877284268
 40
0.1309569359
 40
0.1821471877
 40
0.2408303673
 40
0.3064923929
 40
0.4562745157
 40
0.6260050126
 40
0.809522862
 40
1.0
 40
1.0
 40
1.0
 40
1.0
 10
-21.6011173663
 20
-30.9730534109
 30
0.0
 10
-21.5989289566
 20
-30.9758213003
 30
0.0
 10
-21.5909476749
 20
-30.980751524
 30
0.0
 10
-21.5661954082
 20
-30.9901749329
 30
0.0
 10
-21.5175295484
 20
-31.0005297088
 30
0.0
 10
-21.4396680527
 20
-31.0122459982
 30
0.0
 10
-21.3355813584
 20
-31.0236538851
 30
0.0
 10
-21.206479102
 20
-31.034766875
 30
0.0
 10
-21.053393835
 20
-31.0453305093
 30
0.0
 10
-20.8777551943
 20
-31.0552581535
 30
0.0
 10
-20.6033227725
 20
-31.0680335866
 30
0.0
 10
-20.2175196477
 20
-31.081205168
 30
0.0
 10
-19.7135120824
 20
-31.0925664104
 30
0.0
 10
-19.1686385382
 20
-31.0995659422
 30
0.0
 10
-18.7938261314
 20
-31.101133315
 30
0.0
 10
-18.6029336756
 20
-31.101135263
 30
0.0
 11
-21.6011173663
 21
-30.9730534109
 31
0.0
 11
-21.5926453522
 21
-30.9793999154
 31
0.0
 11
-21.5773000054
 21
-30.9857279801
 31
0.0
 11
-21.5261663121
 21
-30.9982604137
 31
0.0
 11
-21.4481071961
 21
-31.0105160055
 31
0.0
 11
-21.3438678809
 21
-31.0223796826
 31
0.0
 11
-21.2143976782
 21
-31.0337473647
 31
0.0
 11
-21.0608693301
 21
-31.0445168024
 31
0.0
 11
-20.8847235989
 21
-31.0545878275
 31
0.0
 11
-20.6875261118
 21
-31.0638649494
 31
0.0
 11
-20.237478752
 21
-31.07970775
 31
0.0
 11
-19.7273124291
 21
-31.0914629472
 31
0.0
 11
-19.1756058417
 21
-31.0986944913
 31
0.0
 11
-18.6029336756
 21
-31.101135263
 31
0.0
  0
SPLINE
  5
3C6
100
AcDbEntity
  8
RACCORDO
100
AcDbSpline
 62
253
  6
CONTINUOUS
 70
0
 71
3
 72
18
 73
14
 74
12
 42
0.0000001
 43
0.0000001
 44
0.0000000001
 12
-1.5070577075
 22
-0.0000097236
 32
0.0
 13
-0.2421982196
 23
-1.4874686404
 33
0.0
 40
0.0
 40
0.0
 40
0.0
 40
0.0
 40
0.1932344737
 40
0.3791637
 40
0.550635999
 40
0.7012246883
 40
0.8252423619
 40
0.8758101984
 40
0.9181043154
 40
0.9517641117
 40
0.9765434747
 40
0.9923810155
 40
1.0
 40
1.0
 40
1.0
 40
1.0
 10
-22.9375705399
 20
-36.0652865366
 30
0.0
 10
-23.0346423742
 20
-36.0652871629
 30
0.0
 10
-23.2251182188
 20
-36.0662677477
 30
0.0
 10
-23.5017007667
 20
-36.070645973
 30
0.0
 10
-23.7568053205
 20
-36.0777327175
 30
0.0
 10
-23.9806863893
 20
-36.0872209646
 30
0.0
 10
-24.1437834161
 20
-36.0972866647
 30
0.0
 10
-24.2522791401
 20
-36.1066698617
 30
0.0
 10
-24.3155887076
 20
-36.1135999608
 30
0.0
 10
-24.365393976
 20
-36.1205455859
 30
0.0
 10
-24.402788837
 20
-36.1279910371
 30
0.0
 10
-24.4246306548
 20
-36.1343028921
 30
0.0
 10
-24.4368990156
 20
-36.1411299667
 30
0.0
 10
-24.4375141171
 20
-36.1449076336
 30
0.0
 11
-22.9375705399
 21
-36.0652865366
 31
0.0
 11
-23.2287820317
 21
-36.0668149825
 31
0.0
 11
-23.5089515465
 21
-36.0713412093
 31
0.0
 11
-23.7672656183
 21
-36.0786923202
 31
0.0
 11
-23.9939957089
 21
-36.0885858795
 31
0.0
 11
-24.180508077
 21
-36.1006447355
 31
0.0
 11
-24.2564216316
 21
-36.1073447515
 31
0.0
 11
-24.3197688812
 21
-36.1144067721
 31
0.0
 11
-24.3699596994
 21
-36.1217645041
 31
0.0
 11
-24.4065250766
 21
-36.1293501681
 31
0.0
 11
-24.4291029283
 21
-36.1370913715
 31
0.0
 11
-24.4375141171
 21
-36.1449076336
 31
0.0
  0
SPLINE
  5
3C7
100
AcDbEntity
  8
RACCORDO
100
AcDbSpline
 62
253
  6
CONTINUOUS
 70
0
 71
3
 72
18
 73
14
 74
12
 42
0.0000001
 43
0.0000001
 44
0.0000000001
 12
-0.2422126994
 22
1.4875091014
 32
0.0
 13
-1.5070999696
 23
0.0000046001
 33
0.0
 40
0.0
 40
0.0
 40
0.0
 40
0.0
 40
0.0076170426
 40
0.0234496871
 40
0.0482251708
 40
0.0818828886
 40
0.1241757553
 40
0.1747426512
 40
0.2987602165
 40
0.4493511501
 40
0.6208270322
 40
0.8067608174
 40
1.0
 40
1.0
 40
1.0
 40
1.0
 10
24.4375147642
 20
-36.1449116026
 30
0.0
 10
24.4368997827
 20
-36.1411347959
 30
0.0
 10
24.4246382531
 20
-36.1343059155
 30
0.0
 10
24.4027993223
 20
-36.1279938407
 30
0.0
 10
24.3654099682
 20
-36.1205478809
 30
0.0
 10
24.3156065642
 20
-36.1136022038
 30
0.0
 10
24.2522975534
 20
-36.1066715511
 30
0.0
 10
24.1437999484
 20
-36.097287348
 30
0.0
 10
23.9806978015
 20
-36.0872209138
 30
0.0
 10
23.756807552
 20
-36.0777326481
 30
0.0
 10
23.5016906218
 20
-36.0706460124
 30
0.0
 10
23.2250938652
 20
-36.0662675238
 30
0.0
 10
23.0346080219
 20
-36.0652865989
 30
0.0
 10
22.9375310998
 20
-36.0652863026
 30
0.0
 11
24.4375147642
 21
-36.1449116026
 31
0.0
 11
24.4291073589
 21
-36.1370950958
 31
0.0
 11
24.406536768
 21
-36.1293534045
 31
0.0
 11
24.3699763899
 21
-36.1217672697
 31
0.0
 11
24.3197873655
 21
-36.1144090909
 31
0.0
 11
24.2564402744
 21
-36.1073465232
 31
0.0
 11
24.1805260539
 21
-36.1006458668
 31
0.0
 11
23.9940086571
 21
-36.0885860864
 31
0.0
 11
23.7672688206
 21
-36.0786922993
 31
0.0
 11
23.5089420963
 21
-36.0713411994
 31
0.0
 11
23.2287578554
 21
-36.0668147246
 31
0.0
 11
22.9375310998
 21
-36.0652863026
 31
0.0
  0
SPLINE
  5
3C8
100
AcDbEntity
  8
RACCORDO
100
AcDbSpline
 62
253
  6
CONTINUOUS
 70
0
 71
3
 72
18
 73
14
 74
12
 42
0.0000001
 43
0.0000001
 44
0.0000000001
 12
1.5075369757
 22
-0.0024058258
 32
0.0
 13
-0.000012173
 23
-1.5075388953
 33
0.0
 40
0.0
 40
0.0
 40
0.0
 40
0.0
 40
0.0070850989
 40
0.0222910579
 40
0.0465133711
 40
0.0797427521
 40
0.1217025023
 40
0.1720557204
 40
0.2959756055
 40
0.4468792575
 40
0.6189627453
 40
0.8058202753
 40
1.0
 40
1.0
 40
1.0
 40
1.0
 10
-23.1630305953
 20
-25.5832109071
 30
0.0
 10
-23.1594702457
 20
-25.5832165889
 30
0.0
 10
-23.1519558861
 20
-25.5948427576
 30
0.0
 10
-23.1461439796
 20
-25.6157272259
 30
0.0
 10
-23.1383851596
 20
-25.6523500328
 30
0.0
 10
-23.1315205135
 20
-25.70147024
 30
0.0
 10
-23.1244878182
 20
-25.7643097579
 30
0.0
 10
-23.1150399565
 20
-25.8725018053
 30
0.0
 10
-23.1048648532
 20
-26.0356504864
 30
0.0
 10
-23.0952952605
 20
-26.2600148243
 30
0.0
 10
-23.0881314569
 20
-26.5161316845
 30
0.0
 10
-23.0837075092
 20
-26.7940505336
 30
0.0
 10
-23.0827128112
 20
-26.9855287368
 30
0.0
 10
-23.0827135991
 20
-27.083106566
 30
0.0
 11
-23.1630305953
 21
-25.5832109071
 31
0.0
 11
-23.1551711994
 21
-25.590443817
 31
0.0
 11
-23.1473771126
 21
-25.6120017038
 31
0.0
 11
-23.1397323346
 21
-25.6477085858
 31
0.0
 11
-23.1323147871
 21
-25.6972509653
 31
0.0
 11
-23.1251930836
 21
-25.760104742
 31
0.0
 11
-23.1184347378
 21
-25.8357127246
 31
0.0
 11
-23.1062611517
 21
-26.0221297084
 31
0.0
 11
-23.0962678331
 21
-26.2494032341
 31
0.0
 11
-23.0888384034
 21
-26.5087193801
 31
0.0
 11
-23.0842597627
 21
-26.7903771617
 31
0.0
 11
-23.0827135991
 21
-27.083106566
 31
0.0
  0
SPLINE
  5
3C9
100
AcDbEntity
  8
RACCORDO
100
AcDbSpline
 62
7
  6
CONTINUOUS
 70
0
 71
3
 72
16
 73
12
 74
10
 42
0.0000001
 43
0.0000001
 44
0.0000000001
 12
0.2083632611
 22
-0.8348579222
 32
0.0
 13
0.0096512216
 23
-0.8604126061
 33
0.0
 40
0.0
 40
0.0
 40
0.0
 40
0.0
 40
0.0110529926
 40
0.0333646114
 40
0.0658042855
 40
0.1072826978
 40
0.2133743878
 40
0.3441685463
 40
0.4933089048
 40
0.6554087661
 40
1.0
 40
1.0
 40
1.0
 40
1.0
 10
24.4225436515
 20
-35.2847576612
 30
0.0
 10
24.4233113306
 20
-35.2878335541
 30
0.0
 10
24.4237208151
 20
-35.2974762321
 30
0.0
 10
24.4249308959
 20
-35.3162534186
 30
0.0
 10
24.4257838835
 20
-35.3438722968
 30
0.0
 10
24.4272837846
 20
-35.3954654257
 30
0.0
 10
24.4288768182
 20
-35.475302259
 30
0.0
 10
24.430713599
 20
-35.5860033447
 30
0.0
 10
24.4324707232
 20
-35.7127781112
 30
0.0
 10
24.4348067265
 20
-35.9008700847
 30
0.0
 10
24.4364061965
 20
-36.046191839
 30
0.0
 10
24.4375147719
 20
-36.1450220529
 30
0.0
 11
24.4225436515
 21
-35.2847576612
 31
0.0
 11
24.4236050325
 21
-35.294208984
 31
0.0
 11
24.4246580472
 21
-35.3133784895
 31
0.0
 11
24.4256961932
 21
-35.341272438
 31
0.0
 11
24.4267149823
 21
-35.3769486883
 31
0.0
 11
24.4286896148
 21
-35.4682156994
 31
0.0
 11
24.4305784489
 21
-35.5807438704
 31
0.0
 11
24.4323896794
 21
-35.7090614051
 31
0.0
 11
24.4341356981
 21
-35.8485320145
 31
0.0
 11
24.4375147719
 21
-36.1450220529
 31
0.0
  0
SPLINE
  5
3CA
100
AcDbEntity
  8
RACCORDO
100
AcDbSpline
 62
7
  6
CONTINUOUS
 70
0
 71
3
 72
16
 73
12
 74
10
 42
0.0000001
 43
0.0000001
 44
0.0000000001
 12
0.0096237589
 22
0.8603560968
 32
0.0
 13
0.2083518712
 23
0.8348022088
 33
0.0
 40
0.0
 40
0.0
 40
0.0
 40
0.0
 40
0.3446839887
 40
0.5067836044
 40
0.6559386562
 40
0.7867090578
 40
0.8927491568
 40
0.9342213818
 40
0.9666440986
 40
0.9889470546
 40
1.0
 40
1.0
 40
1.0
 40
1.0
 10
-24.4375141192
 20
-36.1449652239
 30
0.0
 10
-24.4364084006
 20
-36.0461149002
 30
0.0
 10
-24.4348056642
 20
-35.9007762434
 30
0.0
 10
-24.4324677353
 20
-35.7126659686
 30
0.0
 10
-24.4307128284
 20
-35.5859022138
 30
0.0
 10
-24.4288756324
 20
-35.4752258389
 30
0.0
 10
-24.4272820429
 20
-35.3954176903
 30
0.0
 10
-24.4257830207
 20
-35.3438493801
 30
0.0
 10
-24.4249307186
 20
-35.3162414566
 30
0.0
 10
-24.4237211199
 20
-35.2974728096
 30
0.0
 10
-24.4233112854
 20
-35.2878333356
 30
0.0
 10
-24.4225436515
 20
-35.2847576612
 30
0.0
 11
-24.4375141192
 21
-36.1449652239
 31
0.0
 11
-24.434134061
 21
-35.8484149631
 31
0.0
 11
-24.4323873311
 21
-35.708953784
 31
0.0
 11
-24.430577065
 21
-35.5806320662
 31
0.0
 11
-24.428688121
 21
-35.4681317726
 31
0.0
 11
-24.4267137675
 21
-35.3769151841
 31
0.0
 11
-24.4256953179
 21
-35.3412466073
 31
0.0
 11
-24.4246580139
 21
-35.3133690721
 31
0.0
 11
-24.4236052439
 21
-35.2942082874
 31
0.0
 11
-24.4225436515
 21
-35.2847576612
 31
0.0
  0
SPLINE
  5
3CB
100
AcDbEntity
  8
RACCORDO
100
AcDbSpline
 62
253
  6
CONTINUOUS
 70
0
 71
3
 72
18
 73
14
 74
12
 42
0.0000001
 43
0.0000001
 44
0.0000000001
 12
0.0000080915
 22
-1.2013203399
 32
0.0
 13
0.8489997803
 23
-0.849923486
 33
0.0
 40
0.0
 40
0.0
 40
0.0
 40
0.0
 40
0.1906371425
 40
0.3743078345
 40
0.5441847907
 40
0.6940951068
 40
0.818522362
 40
0.8697302734
 40
0.9129571424
 40
0.9478231023
 40
0.9740325799
 40
0.9913914657
 40
1.0
 40
1.0
 40
1.0
 40
1.0
 10
-22.2832002104
 20
-29.132146881
 30
0.0
 10
-22.2831996963
 20
-29.20848564
 30
0.0
 10
-22.2827053525
 20
-29.3583741695
 30
0.0
 10
-22.2804938945
 20
-29.5762775267
 30
0.0
 10
-22.2769138163
 20
-29.777854805
 30
0.0
 10
-22.272103592
 20
-29.9556682408
 30
0.0
 10
-22.267017105
 20
-30.0859495797
 30
0.0
 10
-22.2622388223
 20
-30.1734418286
 30
0.0
 10
-22.2587674604
 20
-30.2251495437
 30
0.0
 10
-22.2550636306
 20
-30.2666349686
 30
0.0
 10
-22.2516202912
 20
-30.2981495301
 30
0.0
 10
-22.2476319992
 20
-30.3181218989
 30
0.0
 10
-22.2451939624
 20
-30.3289770083
 30
0.0
 10
-22.2427577478
 20
-30.3314158735
 30
0.0
 11
-22.2832002104
 21
-29.132146881
 31
0.0
 11
-22.2824298161
 21
-29.3611618621
 31
0.0
 11
-22.280147083
 21
-29.5817973918
 31
0.0
 11
-22.2764363484
 21
-29.7858402955
 31
0.0
 11
-22.271434777
 21
-29.9658611408
 31
0.0
 11
-22.2653258668
 21
-30.1152132499
 31
0.0
 11
-22.2619253269
 21
-30.1766362961
 31
0.0
 11
-22.258335702
 21
-30.2284413976
 31
0.0
 11
-22.2545892333
 21
-30.2701586944
 31
0.0
 11
-22.2507187359
 21
-30.3014058718
 31
0.0
 11
-22.2467606429
 21
-30.321880378
 31
0.0
 11
-22.2427577478
 21
-30.3314158735
 31
0.0
  0
SPLINE
  5
3CC
100
AcDbEntity
  8
RACCORDO
100
AcDbSpline
 62
253
  6
CONTINUOUS
 70
0
 71
3
 72
13
 73
9
 74
7
 42
0.0000001
 43
0.0000001
 44
0.0000000001
 12
0.3743106552
 22
-2.2223390687
 32
0.0
 13
-0.0001008018
 23
-2.253641363
 33
0.0
 40
0.0
 40
0.0
 40
0.0
 40
0.0
 40
0.0501409365
 40
0.1277188747
 40
0.2305838914
 40
0.3557919872
 40
0.6581222713
 40
1.0
 40
1.0
 40
1.0
 40
1.0
 10
-22.3471830165
 20
-24.8313348543
 30
0.0
 10
-22.3409269209
 20
-24.8684782417
 30
0.0
 10
-22.331610115
 20
-24.9640979332
 30
0.0
 10
-22.3199720385
 20
-25.1368781921
 30
0.0
 10
-22.3095419153
 20
-25.3662878379
 30
0.0
 10
-22.2964366103
 20
-25.7645125043
 30
0.0
 10
-22.2860008295
 20
-26.3424499129
 30
0.0
 10
-22.2831887231
 20
-26.8263876363
 30
0.0
 10
-22.2832002104
 20
-27.0832108998
 30
0.0
 11
-22.3471830165
 21
-24.8313348543
 31
0.0
 11
-22.3340540085
 21
-24.9435692465
 31
0.0
 11
-22.3217935872
 21
-25.1179716768
 31
0.0
 11
-22.3107412069
 21
-25.3495289148
 31
0.0
 11
-22.3012216429
 21
-25.6315424346
 31
0.0
 11
-22.2878422862
 21
-26.3127550928
 31
0.0
 11
-22.2832002104
 21
-27.0832108998
 31
0.0
  0
SPLINE
  5
3CD
100
AcDbEntity
  8
RACCORDO
100
AcDbSpline
 62
253
  6
CONTINUOUS
 70
0
 71
3
 72
13
 73
9
 74
7
 42
0.0000001
 43
0.0000001
 44
0.0000000001
 12
0.0001018493
 22
2.2537001377
 32
0.0
 13
0.3740675164
 23
2.2224396086
 33
0.0
 40
0.0
 40
0.0
 40
0.0
 40
0.0
 40
0.3418905722
 40
0.644232911
 40
0.7694415159
 40
0.8723029193
 40
0.9498676583
 40
1.0
 40
1.0
 40
1.0
 40
1.0
 10
22.2832002104
 20
-27.0832108998
 30
0.0
 10
22.2832118175
 20
-26.82637129
 30
0.0
 10
22.2859861484
 20
-26.3424021768
 30
0.0
 10
22.2964412337
 20
-25.7644307703
 30
0.0
 10
22.3095451843
 20
-25.3661889563
 30
0.0
 10
22.3199750827
 20
-25.1367856146
 30
0.0
 10
22.3316195027
 20
-24.9640200917
 30
0.0
 10
22.340937332
 20
-24.8684149333
 30
0.0
 10
22.3471882922
 20
-24.8312762327
 30
0.0
 11
22.2832002104
 21
-27.0832108998
 31
0.0
 11
22.2878404842
 21
-26.3127060421
 31
0.0
 11
22.3012250043
 21
-25.6314485394
 31
0.0
 11
22.3107448042
 21
-25.3494265163
 31
0.0
 11
22.3217988839
 21
-25.1178714592
 31
0.0
 11
22.3340632973
 21
-24.9434945591
 31
0.0
 11
22.3471882922
 21
-24.8312762327
 31
0.0
  0
SPLINE
  5
3CE
100
AcDbEntity
  8
RACCORDO
100
AcDbSpline
 62
253
  6
CONTINUOUS
 70
0
 71
3
 72
18
 73
14
 74
12
 42
0.0000001
 43
0.0000001
 44
0.0000000001
 12
0.8489997937
 22
0.8499234726
 32
0.0
 13
0.0000080914
 23
1.2013203399
 33
0.0
 40
0.0
 40
0.0
 40
0.0
 40
0.0
 40
0.0086085343
 40
0.0259674201
 40
0.0521768977
 40
0.0870428576
 40
0.1302697265
 40
0.1814776379
 40
0.3059048932
 40
0.4558152093
 40
0.6256921655
 40
0.8093628575
 40
1.0
 40
1.0
 40
1.0
 40
1.0
 10
22.2427577478
 20
-30.3314158735
 30
0.0
 10
22.2451939624
 20
-30.3289770083
 30
0.0
 10
22.2476319992
 20
-30.3181218988
 30
0.0
 10
22.2516202912
 20
-30.29814953
 30
0.0
 10
22.2550636306
 20
-30.2666349686
 30
0.0
 10
22.2587674604
 20
-30.2251495437
 30
0.0
 10
22.2622388223
 20
-30.1734418287
 30
0.0
 10
22.267017105
 20
-30.0859495797
 30
0.0
 10
22.272103592
 20
-29.9556682408
 30
0.0
 10
22.2769138163
 20
-29.777854805
 30
0.0
 10
22.2804938945
 20
-29.5762775267
 30
0.0
 10
22.2827053525
 20
-29.3583741695
 30
0.0
 10
22.2831996963
 20
-29.20848564
 30
0.0
 10
22.2832002104
 20
-29.132146881
 30
0.0
 11
22.2427577478
 21
-30.3314158735
 31
0.0
 11
22.2467606429
 21
-30.321880378
 31
0.0
 11
22.2507187359
 21
-30.3014058717
 31
0.0
 11
22.2545892333
 21
-30.2701586943
 31
0.0
 11
22.258335702
 21
-30.2284413976
 31
0.0
 11
22.2619253269
 21
-30.1766362961
 31
0.0
 11
22.2653258668
 21
-30.11521325
 31
0.0
 11
22.271434777
 21
-29.9658611407
 31
0.0
 11
22.2764363484
 21
-29.7858402955
 31
0.0
 11
22.2801470829
 21
-29.5817973918
 31
0.0
 11
22.2824298161
 21
-29.3611618621
 31
0.0
 11
22.2832002104
 21
-29.132146881
 31
0.0
  0
SPLINE
  5
3CF
100
AcDbEntity
  8
RACCORDO
100
AcDbSpline
 62
253
  6
CONTINUOUS
 70
0
 71
3
 72
21
 73
17
 74
15
 42
0.0000001
 43
0.0000001
 44
0.0000000001
 12
2.6995766948
 22
-2.680608402
 32
0.0
 13
3.8043890052
 23
-0.00018224
 33
0.0
 40
0.0
 40
0.0
 40
0.0
 40
0.0
 40
0.0032823446
 40
0.0086609724
 40
0.0162323911
 40
0.0260187335
 40
0.0522219807
 40
0.087084992
 40
0.1303108021
 40
0.1815181646
 40
0.2402344675
 40
0.3059428001
 40
0.4558446682
 40
0.6257132769
 40
0.8093752558
 40
1.0
 40
1.0
 40
1.0
 40
1.0
 10
-22.4006188183
 20
-31.7725801262
 30
0.0
 10
-22.3976651712
 20
-31.7755130198
 30
0.0
 10
-22.3874021516
 20
-31.7803184564
 30
0.0
 10
-22.3678504922
 20
-31.7862825947
 30
0.0
 10
-22.3395577522
 20
-31.7923281965
 30
0.0
 10
-22.2850904074
 20
-31.801349861
 30
0.0
 10
-22.195772385
 20
-31.8117228245
 30
0.0
 10
-22.0640278013
 20
-31.8232144805
 30
0.0
 10
-21.9004227794
 20
-31.8342900051
 30
0.0
 10
-21.706496402
 20
-31.8448633483
 30
0.0
 10
-21.4839895348
 20
-31.8547854673
 30
0.0
 10
-21.1363402719
 20
-31.8675602177
 30
0.0
 10
-20.6476690977
 20
-31.8807250687
 30
0.0
 10
-20.0093462613
 20
-31.8920836892
 30
0.0
 10
-19.3193161753
 20
-31.8990810629
 30
0.0
 10
-18.8446705692
 20
-31.9006363448
 30
0.0
 10
-18.6029336756
 20
-31.9006479246
 30
0.0
 11
-22.4006188183
 21
-31.7725801262
 31
0.0
 11
-22.38986192
 21
-31.7789222234
 31
0.0
 11
-22.3704025465
 21
-31.7852501203
 31
0.0
 11
-22.3422941865
 21
-31.7915450679
 31
0.0
 11
-22.3055903285
 21
-31.7977883169
 31
0.0
 11
-22.2066596901
 21
-31.8100478299
 31
0.0
 11
-22.0745588653
 21
-31.8219112489
 31
0.0
 11
-21.9105043394
 21
-31.8332774439
 31
0.0
 11
-21.7159894453
 21
-31.8440456653
 31
0.0
 11
-21.4928368711
 21
-31.8541154245
 31
0.0
 11
-21.2430289543
 21
-31.8633908949
 31
0.0
 11
-20.6729639006
 21
-31.8792287542
 31
0.0
 11
-20.0268244918
 21
-31.8909804978
 31
0.0
 11
-19.3281402498
 21
-31.8982071156
 31
0.0
 11
-18.6029336756
 21
-31.9006479246
 31
0.0
  0
SPLINE
  5
3D0
100
AcDbEntity
  8
RACCORDO
100
AcDbSpline
 62
253
  6
CONTINUOUS
 70
0
 71
3
 72
21
 73
17
 74
15
 42
0.0000001
 43
0.0000001
 44
0.0000000001
 12
3.8043890042
 22
0.0001823424
 32
0.0
 13
2.6995799066
 23
2.680605166
 33
0.0
 40
0.0
 40
0.0
 40
0.0
 40
0.0
 40
0.1906247448
 40
0.3742867223
 40
0.5441553317
 40
0.6940572002
 40
0.7597655327
 40
0.8184818363
 40
0.8696891997
 40
0.9129150096
 40
0.9477780193
 40
0.9739812638
 40
0.9837676048
 40
0.9913390231
 40
0.996717652
 40
1.0
 40
1.0
 40
1.0
 40
1.0
 10
18.6029336756
 20
-31.9006479246
 30
0.0
 10
18.8446705699
 20
-31.9006363383
 30
0.0
 10
19.3193161749
 20
-31.8990810647
 30
0.0
 10
20.0093462606
 20
-31.8920836894
 30
0.0
 10
20.6476690964
 20
-31.880725068
 30
0.0
 10
21.1363402717
 20
-31.867560218
 30
0.0
 10
21.4839895357
 20
-31.8547854671
 30
0.0
 10
21.7064964047
 20
-31.8448633484
 30
0.0
 10
21.9004227839
 20
-31.8342900057
 30
0.0
 10
22.0640278047
 20
-31.8232144806
 30
0.0
 10
22.1957723828
 20
-31.8117228238
 30
0.0
 10
22.2850903977
 20
-31.8013498609
 30
0.0
 10
22.3395577372
 20
-31.7923281982
 30
0.0
 10
22.3678504756
 20
-31.7862825968
 30
0.0
 10
22.3874021416
 20
-31.7803184577
 30
0.0
 10
22.3976651647
 20
-31.7755130193
 30
0.0
 10
22.4006188183
 20
-31.7725801262
 30
0.0
 11
18.6029336756
 21
-31.9006479246
 31
0.0
 11
19.3281402519
 21
-31.8982071151
 31
0.0
 11
20.0268244885
 21
-31.8909804982
 31
0.0
 11
20.6729638996
 21
-31.8792287539
 31
0.0
 11
21.2430289547
 21
-31.863390895
 31
0.0
 11
21.4928368709
 21
-31.8541154244
 31
0.0
 11
21.7159894478
 21
-31.8440456654
 31
0.0
 11
21.9105043452
 21
-31.8332774441
 31
0.0
 11
22.0745588705
 21
-31.8219112486
 31
0.0
 11
22.2066596893
 21
-31.8100478292
 31
0.0
 11
22.3055903173
 21
-31.7977883175
 31
0.0
 11
22.3422941701
 21
-31.7915450698
 31
0.0
 11
22.3704025285
 21
-31.7852501231
 31
0.0
 11
22.3898619065
 21
-31.7789222258
 31
0.0
 11
22.4006188183
 21
-31.7725801262
 31
0.0
  0
SPLINE
  5
3D1
100
AcDbEntity
  8
RACCORDO
100
AcDbSpline
 62
253
  6
CONTINUOUS
 70
0
 71
3
 72
9
 73
5
 74
3
 42
0.0000001
 43
0.0000001
 44
0.0000000001
 12
-1.4851203583
 22
-0.0000607879
 32
0.0
 13
-1.4844710016
 23
-0.0439127297
 33
0.0
 40
0.0
 40
0.0
 40
0.0
 40
0.0
 40
0.2703047536
 40
1.0
 40
1.0
 40
1.0
 40
1.0
 10
-22.9375705399
 20
-35.265773875
 30
0.0
 10
-23.0713822374
 20
-35.2657793521
 30
0.0
 10
-23.5664155564
 20
-35.267360747
 30
0.0
 10
-24.0614731732
 20
-35.2740766912
 30
0.0
 10
-24.4225436509
 20
-35.2847576612
 30
0.0
 11
-22.9375705399
 21
-35.265773875
 31
0.0
 11
-23.3390037314
 21
-35.2670094233
 31
0.0
 11
-24.4225436509
 21
-35.2847576612
 31
0.0
  0
SPLINE
  5
3D2
100
AcDbEntity
  8
RACCORDO
100
AcDbSpline
 62
253
  6
CONTINUOUS
 70
0
 71
3
 72
9
 73
5
 74
3
 42
0.0000001
 43
0.0000001
 44
0.0000000001
 12
-1.4844745856
 22
0.043917754
 32
0.0
 13
-1.4851240901
 23
0.0000347075
 33
0.0
 40
0.0
 40
0.0
 40
0.0
 40
0.0
 40
0.2218081685
 40
1.0
 40
1.0
 40
1.0
 40
1.0
 10
24.4225436507
 20
-35.2847576612
 30
0.0
 10
24.3127874544
 20
-35.2815105557
 30
0.0
 10
23.8178814332
 20
-35.2696699858
 30
0.0
 10
23.3228076851
 20
-35.265782878
 30
0.0
 10
22.9375705399
 20
-35.265773875
 30
0.0
 11
24.4225436507
 21
-35.2847576612
 31
0.0
 11
24.0932308061
 21
-35.2766491867
 31
0.0
 11
22.9375705399
 21
-35.265773875
 31
0.0
  0
ELLIPSE
  5
3D3
100
AcDbEntity
  8
COPY-PUBBLISH
100
AcDbEllipse
 62
7
  6
CONTINUOUS
 10
24.6889614499
 20
-11.8832108998
 30
0.0
 11
0.0
 21
0.3
 31
0.0
 40
0.0087268678
 41
-0.0
 42
1.5707963268
  0
ELLIPSE
  5
3D4
100
AcDbEntity
  8
COPY-PUBBLISH
100
AcDbEllipse
 62
7
  6
CONTINUOUS
 10
24.692452197
 20
9.6167891002
 30
0.0
 11
0.0
 21
0.3
 31
0.0
 40
0.0087268678
 41
-1.5707963268
 42
0.0
  0
ELLIPSE
  5
3D5
100
AcDbEntity
  8
COPY-PUBBLISH
100
AcDbEllipse
 62
7
  6
CONTINUOUS
 10
-24.692452197
 20
2.2167891002
 30
0.0
 11
-0.0
 21
0.3
 31
0.0
 40
0.0087268678
 41
-4.7123889804
 42
-3.1415926536
  0
ELLIPSE
  5
3D6
100
AcDbEntity
  8
DRAFT
100
AcDbEllipse
 62
7
  6
CONTINUOUS
 10
-24.55548588
 20
-4.3832108998
 30
0.0
 11
0.0
 21
6.8298750677
 31
0.0
 40
0.0087268703
 41
1.5707963268
 42
3.1423561557
  0
ELLIPSE
  5
3D7
100
AcDbEntity
  8
RACCORDO
100
AcDbEllipse
 62
7
  6
CONTINUOUS
 10
-23.2852533351
 20
37.4952078812
 30
0.0
 11
0.8
 21
-0.0
 31
0.0
 40
0.0349207695
 41
0.034906585
 42
1.5707963268
  0
ELLIPSE
  5
3D8
100
AcDbEntity
  8
RACCORDO
100
AcDbEllipse
 62
7
  6
CONTINUOUS
 10
23.2852533351
 20
37.4952078812
 30
0.0
 11
0.8
 21
-0.0
 31
0.0
 40
0.0349207695
 41
1.5707963268
 42
3.1066860685
  0
ELLIPSE
  5
3D9
100
AcDbEntity
  8
COPY-PUBBLISH
100
AcDbEllipse
 62
7
  6
CONTINUOUS
 10
-24.6889614499
 20
-11.8832108998
 30
0.0
 11
-0.0
 21
0.3
 31
0.0
 40
0.0087268678
 41
-1.5707963268
 42
-0.0
  0
ELLIPSE
  5
3DA
100
AcDbEntity
  8
COPY-PUBBLISH
100
AcDbEllipse
 62
7
  6
CONTINUOUS
 10
24.692452197
 20
2.2167891002
 30
0.0
 11
0.0
 21
0.3
 31
0.0
 40
0.0087268678
 41
-3.1415926536
 42
-1.7408619476
  0
ELLIPSE
  5
3DB
100
AcDbEntity
  8
COPY-PUBBLISH
100
AcDbEllipse
 62
7
  6
CONTINUOUS
 10
-24.692452197
 20
9.6167891002
 30
0.0
 11
0.0
 21
0.3
 31
0.0
 40
0.0087268678
 41
0.0
 42
1.400730706
  0
ELLIPSE
  5
3DC
100
AcDbEntity
  8
RACCORDO
100
AcDbEllipse
 62
7
  6
CONTINUOUS
 10
-24.6677576664
 20
-27.3992153236
 30
0.0
 11
0.0
 21
2.0
 31
0.0
 40
0.0087268678
 41
-3.926990817
 42
-3.1764992386
  0
ELLIPSE
  5
3DD
100
AcDbEntity
  8
RACCORDO
100
AcDbEllipse
 62
7
  6
CONTINUOUS
 10
-24.668889654
 20
-27.2695024008
 30
0.0
 11
-0.0
 21
2.0
 31
0.0
 40
0.0087268678
 41
-4.7123889804
 42
-3.926990817
  0
ELLIPSE
  5
3DE
100
AcDbEntity
  8
RACCORDO
100
AcDbEllipse
 62
7
  6
CONTINUOUS
 10
24.6677576664
 20
-27.3992153236
 30
0.0
 11
0.0
 21
2.0
 31
0.0
 40
0.0087268678
 41
-3.1066860685
 42
-2.3561944902
  0
ELLIPSE
  5
3DF
100
AcDbEntity
  8
RACCORDO
100
AcDbEllipse
 62
7
  6
CONTINUOUS
 10
24.668889654
 20
-27.2695024008
 30
0.0
 11
0.0
 21
2.0
 31
0.0
 40
0.0087268678
 41
-2.3561944902
 42
-1.5707963268
  0
ELLIPSE
  5
3E0
100
AcDbEntity
  8
RACCORDO
100
AcDbEllipse
 62
7
  6
CONTINUOUS
 10
18.6029336756
 20
-30.2689239744
 30
0.0
 11
3.0
 21
0.0
 31
0.0
 40
0.0349207695
 41
-1.5707963268
 42
-0.034906585
  0
ELLIPSE
  5
3E1
100
AcDbEntity
  8
RACCORDO
100
AcDbEllipse
 62
7
  6
CONTINUOUS
 10
-18.6029336756
 20
-30.2689239744
 30
0.0
 11
3.0
 21
-0.0
 31
0.0
 40
0.0349207695
 41
-3.1066860685
 42
-1.5707963268
  0
ELLIPSE
  5
3E2
100
AcDbEntity
  8
RACCORDO
100
AcDbEllipse
 62
7
  6
CONTINUOUS
 10
-22.9375705399
 20
-36.845116671
 30
0.0
 11
1.5
 21
0.0
 31
0.0
 40
0.0349207695
 41
1.5707963268
 42
3.1328660073
  0
ELLIPSE
  5
3E3
100
AcDbEntity
  8
RACCORDO
100
AcDbEllipse
 62
7
  6
CONTINUOUS
 10
22.9375705399
 20
-36.845116671
 30
0.0
 11
1.5
 21
0.0
 31
0.0
 40
0.0349207695
 41
0.0087266463
 42
1.5707963268
  0
ELLIPSE
  5
3E4
100
AcDbEntity
  8
DRAFT
100
AcDbEllipse
 62
7
  6
CONTINUOUS
 10
-24.55548588
 20
16.2167891002
 30
0.0
 11
0.0
 21
6.8298750677
 31
0.0
 40
0.0087268703
 41
-0.0007635021
 42
1.5707963268
  0
ELLIPSE
  5
3E5
100
AcDbEntity
  8
DRAFT
100
AcDbEllipse
 62
7
  6
CONTINUOUS
 10
24.55548588
 20
-4.3832108998
 30
0.0
 11
0.0
 21
6.8298750677
 31
0.0
 40
0.0087268703
 41
-3.1423561557
 42
-1.5707963268
  0
ELLIPSE
  5
3E6
100
AcDbEntity
  8
DRAFT
100
AcDbEllipse
 62
7
  6
CONTINUOUS
 10
24.55548588
 20
16.2167891002
 30
0.0
 11
0.0
 21
6.8298750677
 31
0.0
 40
0.0087268703
 41
-1.5707963268
 42
0.0007634766
  0
ELLIPSE
  5
3E7
100
AcDbEntity
  8
RACCORDO
100
AcDbEllipse
 62
7
  6
CONTINUOUS
 10
24.6687672644
 20
-35.7688082292
 30
0.0
 11
0.0
 21
2.0
 31
0.0
 40
0.0087268678
 41
-3.140896744
 42
-2.3561944902
  0
ELLIPSE
  5
3E8
100
AcDbEntity
  8
DRAFT
100
AcDbEllipse
 62
7
  6
CONTINUOUS
 10
-24.4594902784
 20
16.2167891002
 30
0.0
 11
0.0
 21
6.8214765433
 31
0.0
 40
0.0087268703
 41
-0.1319749579
 42
-0.0007635021
  0
ELLIPSE
  5
3E9
100
AcDbEntity
  8
RACCORDO
100
AcDbEllipse
 62
7
  6
CONTINUOUS
 10
24.7212508607
 20
-29.7547837751
 30
0.0
 11
-0.0
 21
2.0
 31
0.0
 40
0.0087268678
 41
-2.3561944902
 42
-1.5707963268
  0
ELLIPSE
  5
3EA
100
AcDbEntity
  8
RACCORDO
100
AcDbEllipse
 62
7
  6
CONTINUOUS
 10
-24.7212508607
 20
-29.7547837751
 30
0.0
 11
0.0
 21
2.0
 31
0.0
 40
0.0087268678
 41
-4.7123889804
 42
-3.926990817
  0
ELLIPSE
  5
3EB
100
AcDbEntity
  8
RACCORDO
100
AcDbEllipse
 62
7
  6
CONTINUOUS
 10
-24.6687672644
 20
-35.7688082292
 30
0.0
 11
0.0
 21
2.0
 31
0.0
 40
0.0087268678
 41
-3.926990817
 42
-3.1422885632
  0
ELLIPSE
  5
3EC
100
AcDbEntity
  8
RACCORDO
100
AcDbEllipse
 62
7
  6
CONTINUOUS
 10
-24.609546953
 20
-29.132146881
 30
0.0
 11
0.0
 21
2.0
 31
0.0
 40
0.0087268678
 41
1.5707963268
 42
3.1066860686
  0
ELLIPSE
  5
3ED
100
AcDbEntity
  8
RACCORDO
100
AcDbEllipse
 62
7
  6
CONTINUOUS
 10
24.609546953
 20
-29.132146881
 30
0.0
 11
-0.0
 21
2.0
 31
0.0
 40
0.0087268678
 41
-3.1066860685
 42
-1.5707963268
  0
ELLIPSE
  5
3EE
100
AcDbEntity
  8
COPY-PUBBLISH
100
AcDbEllipse
 62
7
  6
CONTINUOUS
 10
-24.7099059326
 20
11.6167891002
 30
0.0
 11
0.0
 21
0.3
 31
0.0
 40
0.0087268678
 41
0.0
 42
1.5707963268
  0
ELLIPSE
  5
3EF
100
AcDbEntity
  8
RACCORDO
100
AcDbEllipse
 62
7
  6
CONTINUOUS
 10
-24.648817858
 20
-27.9753081905
 30
0.0
 11
-0.0
 21
1.5
 31
0.0
 40
0.0087268678
 41
-3.1409284474
 42
-1.5707963268
  0
ELLIPSE
  5
3F0
100
AcDbEntity
  8
RACCORDO
100
AcDbEllipse
 62
7
  6
CONTINUOUS
 10
24.648817858
 20
-27.0832108998
 30
0.0
 11
0.0
 21
1.5
 31
0.0
 40
0.0087268678
 41
0.0864161393
 42
1.5707963268
  0
ELLIPSE
  5
3F1
100
AcDbEntity
  8
RACCORDO
100
AcDbEllipse
 62
7
  6
CONTINUOUS
 10
14.0822894108
 20
-31.101135263
 30
0.0
 11
0.0
 21
0.8
 31
0.0
 40
0.0087268678
 41
-3.1066860686
 42
-1.5707963268
  0
ELLIPSE
  5
3F2
100
AcDbEntity
  8
RACCORDO
100
AcDbEllipse
 62
7
  6
CONTINUOUS
 10
5.3177105892
 20
-31.101135263
 30
0.0
 11
0.0
 21
0.8
 31
0.0
 40
0.0087268678
 41
-4.7123889804
 42
-3.1764992386
  0
ELLIPSE
  5
3F3
100
AcDbEntity
  8
RACCORDO
100
AcDbEllipse
 62
7
  6
CONTINUOUS
 10
23.3131899507
 20
-24.7832108998
 30
0.0
 11
-0.8004876354
 21
0.0
 31
0.0
 40
0.999390827
 41
0.0626379325
 42
1.5707963268
  0
ELLIPSE
  5
3F4
100
AcDbEntity
  8
RACCORDO
100
AcDbEllipse
 62
7
  6
CONTINUOUS
 10
-5.3177105892
 20
-31.101135263
 30
0.0
 11
0.0
 21
0.8
 31
0.0
 40
0.0087268678
 41
-3.1066860685
 42
-1.5707963268
  0
ELLIPSE
  5
3F5
100
AcDbEntity
  8
COPY-PUBBLISH
100
AcDbEllipse
 62
7
  6
CONTINUOUS
 10
24.6802345821
 20
2.2167891002
 30
0.0
 11
0.0
 21
0.3
 31
0.0
 40
0.0087268678
 41
-4.5775545281
 42
-3.1415926536
  0
ELLIPSE
  5
3F6
100
AcDbEntity
  8
RACCORDO
100
AcDbEllipse
 62
7
  6
CONTINUOUS
 10
-14.0822894108
 20
-31.101135263
 30
0.0
 11
-0.0
 21
0.8
 31
0.0
 40
0.0087268678
 41
-4.7123889804
 42
-3.1764992386
  0
ELLIPSE
  5
3F7
100
AcDbEntity
  8
RACCORDO
100
AcDbEllipse
 62
7
  6
CONTINUOUS
 10
4.3822894108
 20
-31.101135263
 30
0.0
 11
0.0
 21
0.8
 31
0.0
 40
0.0087268678
 41
-3.1066860685
 42
-1.5707963268
  0
ELLIPSE
  5
3F8
100
AcDbEntity
  8
RACCORDO
100
AcDbEllipse
 62
7
  6
CONTINUOUS
 10
-23.3131899507
 20
-24.7832108998
 30
0.0
 11
-0.8004876354
 21
0.0
 31
0.0
 40
0.999390827
 41
7.853981634
 42
9.3621400283
  0
ELLIPSE
  5
3F9
100
AcDbEntity
  8
COPY-PUBBLISH
100
AcDbEllipse
 62
7
  6
CONTINUOUS
 10
24.6976883177
 20
12.2167891002
 30
0.0
 11
0.0
 21
0.3
 31
0.0
 40
0.0087268678
 41
-4.7123889804
 42
-3.1415926536
  0
ELLIPSE
  5
3FA
100
AcDbEntity
  8
COPY-PUBBLISH
100
AcDbEllipse
 62
7
  6
CONTINUOUS
 10
-24.6802345821
 20
9.6167891002
 30
0.0
 11
0.0
 21
0.3
 31
0.0
 40
0.0087268678
 41
-1.4359618745
 42
0.0
  0
ELLIPSE
  5
3FB
100
AcDbEntity
  8
COPY-PUBBLISH
100
AcDbEllipse
 62
7
  6
CONTINUOUS
 10
-24.6976883177
 20
-0.3832108998
 30
0.0
 11
-0.0
 21
0.3
 31
0.0
 40
0.0087268678
 41
-1.5707963268
 42
0.0
  0
ELLIPSE
  5
3FC
100
AcDbEntity
  8
RACCORDO
100
AcDbEllipse
 62
7
  6
CONTINUOUS
 10
-4.3822894108
 20
-31.101135263
 30
0.0
 11
0.0
 21
0.8
 31
0.0
 40
0.0087268678
 41
-4.7123889804
 42
-3.1764992386
  0
ELLIPSE
  5
3FD
100
AcDbEntity
  8
RACCORDO
100
AcDbEllipse
 62
7
  6
CONTINUOUS
 10
15.0177105892
 20
-31.101135263
 30
0.0
 11
-0.0
 21
0.8
 31
0.0
 40
0.0087268678
 41
-4.7123889804
 42
-3.1764992386
  0
ELLIPSE
  5
3FE
100
AcDbEntity
  8
RACCORDO
100
AcDbEllipse
 62
7
  6
CONTINUOUS
 10
-15.0177105892
 20
-31.101135263
 30
0.0
 11
-0.0
 21
0.8
 31
0.0
 40
0.0087268678
 41
-3.1066860686
 42
-1.5707963268
  0
ELLIPSE
  5
3FF
100
AcDbEntity
  8
RACCORDO
100
AcDbEllipse
 62
7
  6
CONTINUOUS
 10
5.3177105892
 20
-36.0652865366
 30
0.0
 11
0.0
 21
0.8
 31
0.0
 40
0.0087268678
 41
0.034906585
 42
1.5707963268
  0
ELLIPSE
  5
400
100
AcDbEntity
  8
RACCORDO
100
AcDbEllipse
 62
7
  6
CONTINUOUS
 10
14.0822894108
 20
-36.0652865366
 30
0.0
 11
0.0
 21
0.8
 31
0.0
 40
0.0087268678
 41
-1.5707963268
 42
-0.034906585
  0
ELLIPSE
  5
401
100
AcDbEntity
  8
RACCORDO
100
AcDbEllipse
 62
7
  6
CONTINUOUS
 10
-4.3822894108
 20
-36.0652865366
 30
0.0
 11
0.0
 21
0.8
 31
0.0
 40
0.0087268678
 41
0.034906585
 42
1.5707963268
  0
ELLIPSE
  5
402
100
AcDbEntity
  8
RACCORDO
100
AcDbEllipse
 62
7
  6
CONTINUOUS
 10
4.3822894108
 20
-36.0652865366
 30
0.0
 11
0.0
 21
0.8
 31
0.0
 40
0.0087268678
 41
-1.5707963268
 42
-0.034906585
  0
ELLIPSE
  5
403
100
AcDbEntity
  8
RACCORDO
100
AcDbEllipse
 62
7
  6
CONTINUOUS
 10
-14.0822894108
 20
-36.0652865366
 30
0.0
 11
-0.0
 21
0.8
 31
0.0
 40
0.0087268678
 41
0.034906585
 42
1.5707963268
  0
ELLIPSE
  5
404
100
AcDbEntity
  8
RACCORDO
100
AcDbEllipse
 62
7
  6
CONTINUOUS
 10
-5.3177105892
 20
-36.0652865366
 30
0.0
 11
0.0
 21
0.8
 31
0.0
 40
0.0087268678
 41
-1.5707963268
 42
-0.034906585
  0
ELLIPSE
  5
405
100
AcDbEntity
  8
RACCORDO
100
AcDbEllipse
 62
7
  6
CONTINUOUS
 10
15.0177105892
 20
-36.0652865366
 30
0.0
 11
-0.0
 21
0.8
 31
0.0
 40
0.0087268678
 41
0.034906585
 42
1.5707963268
  0
ELLIPSE
  5
406
100
AcDbEntity
  8
RACCORDO
100
AcDbEllipse
 62
7
  6
CONTINUOUS
 10
-15.0177105892
 20
-36.0652865366
 30
0.0
 11
0.0
 21
0.8
 31
0.0
 40
0.0087268678
 41
-1.5707963268
 42
-0.034906585
  0
ELLIPSE
  5
407
100
AcDbEntity
  8
RACCORDO
100
AcDbEllipse
 62
7
  6
CONTINUOUS
 10
24.6706350275
 20
36.0456955166
 30
0.0
 11
-0.0
 21
0.8
 31
0.0
 40
0.0087268678
 41
-3.1066860685
 42
-1.5707963268
  0
ELLIPSE
  5
408
100
AcDbEntity
  8
RACCORDO
100
AcDbEllipse
 62
7
  6
CONTINUOUS
 10
-24.6706350275
 20
36.0456955166
 30
0.0
 11
0.0
 21
0.8
 31
0.0
 40
0.0087268678
 41
-4.7123889804
 42
-3.1764992386
  0
ELLIPSE
  5
409
100
AcDbEntity
  8
RACCORDO
100
AcDbEllipse
 62
7
  6
CONTINUOUS
 10
-24.648817858
 20
-27.0832108998
 30
0.0
 11
0.0
 21
1.5
 31
0.0
 40
0.0087268678
 41
-1.5707963268
 42
0.0
  0
ELLIPSE
  5
40A
100
AcDbEntity
  8
RACCORDO
100
AcDbEllipse
 62
7
  6
CONTINUOUS
 10
24.648817858
 20
-27.9753081905
 30
0.0
 11
0.0
 21
1.5
 31
0.0
 40
0.0087268678
 41
-4.7123889804
 42
-3.1422568598
  0
ELLIPSE
  5
40B
100
AcDbEntity
  8
COPY-PUBBLISH
100
AcDbEllipse
 62
7
  6
CONTINUOUS
 10
24.7099059326
 20
0.2167891002
 30
0.0
 11
0.0
 21
0.3
 31
0.0
 40
0.0087268678
 41
-3.1415926536
 42
-1.5707963268
  0
ELLIPSE
  5
40C
100
AcDbEntity
  8
COPY-PUBBLISH
100
AcDbEllipse
 62
7
  6
CONTINUOUS
 10
24.7099059326
 20
11.6167891002
 30
0.0
 11
-0.0
 21
0.3
 31
0.0
 40
0.0087268678
 41
-1.5707963268
 42
-0.0
  0
ELLIPSE
  5
40D
100
AcDbEntity
  8
COPY-PUBBLISH
100
AcDbEllipse
 62
7
  6
CONTINUOUS
 10
-24.7099059326
 20
0.2167891002
 30
0.0
 11
0.0
 21
0.3
 31
0.0
 40
0.0087268678
 41
-4.7123889804
 42
-3.1415926536
  0
ELLIPSE
  5
40E
100
AcDbEntity
  8
COPY-PUBBLISH
100
AcDbEllipse
 62
7
  6
CONTINUOUS
 10
24.6802345821
 20
9.6167891002
 30
0.0
 11
0.0
 21
0.3
 31
0.0
 40
0.0087268678
 41
0.0
 42
1.3929447881
  0
ELLIPSE
  5
40F
100
AcDbEntity
  8
COPY-PUBBLISH
100
AcDbEllipse
 62
7
  6
CONTINUOUS
 10
-24.6802345821
 20
2.2167891002
 30
0.0
 11
0.0
 21
0.3
 31
0.0
 40
0.0087268678
 41
-3.1415926536
 42
-1.7486478655
  0
ELLIPSE
  5
410
100
AcDbEntity
  8
COPY-PUBBLISH
100
AcDbEllipse
 62
7
  6
CONTINUOUS
 10
-24.6715077143
 20
-10.2832108998
 30
0.0
 11
-0.0
 21
0.3
 31
0.0
 40
0.0087268678
 41
-1.5707963268
 42
0.0
  0
ELLIPSE
  5
411
100
AcDbEntity
  8
COPY-PUBBLISH
100
AcDbEllipse
 62
7
  6
CONTINUOUS
 10
24.6715077143
 20
-10.2832108998
 30
0.0
 11
0.0
 21
0.3
 31
0.0
 40
0.0087268678
 41
-0.0
 42
1.5707963268
  0
ELLIPSE
  5
412
100
AcDbEntity
  8
COPY-PUBBLISH
100
AcDbEllipse
 62
7
  6
CONTINUOUS
 10
24.6976883177
 20
-0.3832108998
 30
0.0
 11
-0.0
 21
0.3
 31
0.0
 40
0.0087268678
 41
-0.0
 42
1.5707963268
  0
ELLIPSE
  5
413
100
AcDbEntity
  8
DRAFT
100
AcDbEllipse
 62
7
  6
CONTINUOUS
 10
24.4594902784
 20
-4.3832108998
 30
0.0
 11
0.0
 21
6.8214765433
 31
0.0
 40
0.0087268703
 41
-3.2735676115
 42
-3.1423561557
  0
ELLIPSE
  5
414
100
AcDbEntity
  8
COPY-PUBBLISH
100
AcDbEllipse
 62
7
  6
CONTINUOUS
 10
-24.6976883177
 20
12.2167891002
 30
0.0
 11
0.0
 21
0.3
 31
0.0
 40
0.0087268678
 41
-3.1415926536
 42
-1.5707963268
  0
ENDSEC
  0
SECTION
  2
OBJECTS
  0
DICTIONARY
  5
C
100
AcDbDictionary
280
0
281
1
  3
ACAD_GROUP
350
D
  3
ACAD_MLINESTYLE
350
17
  3
ACAD_LAYOUT
350
1A
  3
ACAD_PLOTSETTINGS
350
19
  3
ACAD_PLOTSTYLENAME
350
E
  0
DICTIONARY
  5
D
102
{ACAD_REACTORS
330
C
102
}
100
AcDbDictionary
280
0
281
1
  0
ACDBDICTIONARYWDFLT
  5
E
102
{ACAD_REACTORS
330
C
102
}
100
AcDbDictionary
281
1
  3
Normal
350
F
100
AcDbDictionaryWithDefault
340
F
  0
DICTIONARY
  5
17
102
{ACAD_REACTORS
330
C
102
}
100
AcDbDictionary
280
0
281
1
  3
Standard
350
18
  0
DICTIONARY
  5
19
102
{ACAD_REACTORS
330
C
102
}
100
AcDbDictionary
281
1
  0
DICTIONARY
  5
1A
102
{ACAD_REACTORS
330
C
102
}
100
AcDbDictionary
281
1
  3
Model
350
415
  3
Layout1
350
416
  0
ACDBPLACEHOLDER
  5
F
102
{ACAD_REACTORS
330
E
102
}
  0
MLINESTYLE
  5
18
102
{ACAD_REACTORS
330
17
102
}
100
AcDbMlineStyle
  2
STANDARD
 70
0
  3

 62
256
 51
90.0
 52
90.0
 71
2
 49
0.5
 62
256
  6
BYLAYER
 49
-0.5
 62
256
  6
BYLAYER
  0
LAYOUT
  5
415
102
{ACAD_REACTORS
330
1A
102
}
100
AcDbPlotSettings
  1

  2
none_device
  4
ISO_A4_(297.00_x_210.00_MM)
  6

 40
0.0
 41
0.0
 42
0.0
 43
0.0
 44
297.0
 45
210.0
 46
0.0
 47
0.0
 48
0.0
 49
0.0
140
0.0
141
0.0
142
1.0
143
1.0
 70
1024
 72
1
 73
0
 74
0
  7

 75
0
147
1.0
148
0.0
149
0.0
100
AcDbLayout
  1
Model
 70
0
 71
0
 10
0.0
 20
0.0
 11
297.0
 21
210.0
 12
0.0
 22
0.0
 32
0.0
 14
0.0
 24
0.0
 34
0.0
 15
0.0
 25
0.0
 35
0.0
146
0.0
 13
0.0
 23
0.0
 33
0.0
 16
1.0
 26
0.0
 36
0.0
 17
0.0
 27
1.0
 37
0.0
 76
0
330
212
345
0
346
0
  0
LAYOUT
  5
416
102
{ACAD_REACTORS
330
1A
102
}
100
AcDbPlotSettings
  1

  2
none_device
  4
ISO_A4_(297.00_x_210.00_MM)
  6

 40
0.0
 41
0.0
 42
0.0
 43
0.0
 44
297.0
 45
210.0
 46
0.0
 47
0.0
 48
0.0
 49
0.0
140
0.0
141
0.0
142
1.0
143
1.0
 70
0
 72
1
 73
0
 74
0
  7

 75
0
147
1.0
148
0.0
149
0.0
100
AcDbLayout
  1
Layout1
 70
0
 71
1
 10
0.0
 20
0.0
 11
297.0
 21
210.0
 12
0.0
 22
0.0
 32
0.0
 14
0.0
 24
0.0
 34
0.0
 15
0.0
 25
0.0
 35
0.0
146
0.0
 13
0.0
 23
0.0
 33
0.0
 16
1.0
 26
0.0
 36
0.0
 17
0.0
 27
1.0
 37
0.0
 76
0
330
213
345
0
346
0
  0
ENDSEC
  0
EOF
