  0
SECTION
  2
HEADER
  9
$ACADVER
  1
AC1015
  9
$DWGCODEPAGE
  3
ANSI_1252
  9
$EXTMAX
 10
297.0
 20
210.0
 30
0.0
  9
$EXTMIN
 10
0.0
 20
0.0
 30
0.0
  9
$LIMMIN
 10
0.0
 20
0.0
  9
$LIMMAX
 10
297.0
 20
210.0
  9
$VIEWCTR
 10
148.5
 20
105.0
  9
$VIEWSIZE
 40
210.0
  9
$CLAYER
  8
0
  9
$LTSCALE
 40
16.335
  9
$CELTYPE
  6
BYLAYER
  9
$DIMSCALE
 40
1.0
  9
$DIMASZ
 40
3.0
  9
$DIMEXO
 40
1.85625
  9
$DIMDLI
 40
11.286
  9
$DIMEXE
 40
5.346
  9
$DIMCEN
 40
2.673
  9
$DIMLFAC
 40
1.0
  9
$DIMBLK
  1
_FILLED
  9
$DIMTXT
 40
3.0
  9
$DIMTOL
 70
1
  9
$DIMLIM
 70
0
  9
$DIMTFAC
 40
1.0
  9
$DIMTP
 40
0.01
  9
$DIMTM
 40
0.01
  9
$PDMODE
 70
3
  9
$PDSIZE
 40
3.0
  9
$HANDSEED
  5
475
  9
$TILEMODE
 70
1
  9
$MEASUREMENT
 70
1
  9
$INSUNITS
 70
4
  0
ENDSEC
  0
SECTION
  2
CLASSES
  0
CLASS
  1
ACDBDICTIONARYWDFLT
  2
AcDbDictionaryWithDefault
  3
AutoCAD 2000
 90
0
280
0
281
0
  0
CLASS
  1
ACDBPLACEHOLDER
  2
AcDbPlaceHolder
  3
AutoCAD 2000
 90
0
280
0
281
0
  0
CLASS
  1
LAYOUT
  2
AcDbLayout
  3
AutoCAD 2000
 90
0
280
0
281
0
  0
ENDSEC
  0
SECTION
  2
TABLES
  0
TABLE
  2
VPORT
  5
8
100
AcDbSymbolTable
 70
2
  0
VPORT
  5
1F4
100
AcDbSymbolTableRecord
100
AcDbViewportTableRecord
  2
*ACTIVE
 70
0
 10
0.0
 20
0.0
 11
1.0
 21
1.0
 12
148.5
 22
105.0
 13
0.0
 23
0.0
 14
1.0
 24
1.0
 15
0.0
 25
0.0
 16
0.0
 26
0.0
 36
1.0
 17
0.0
 27
0.0
 37
0.0
 40
210.0
 41
1.4142857143
 42
50.0
 43
0.0
 44
0.0
 50
0.0
 51
0.0
 71
0
 72
100
 73
1
 74
1
 75
0
 76
0
 77
0
 78
0
  0
ENDTAB
  0
TABLE
  2
LTYPE
  5
5
100
AcDbSymbolTable
 70
6
  0
LTYPE
  5
14
100
AcDbSymbolTableRecord
100
AcDbLinetypeTableRecord
  2
BYBLOCK
 70
0
  3

 72
65
 73
0
 40
0.0
  0
LTYPE
  5
15
100
AcDbSymbolTableRecord
100
AcDbLinetypeTableRecord
  2
BYLAYER
 70
0
  3

 72
65
 73
0
 40
0.0
  0
LTYPE
  5
16
100
AcDbSymbolTableRecord
100
AcDbLinetypeTableRecord
  2
CONTINUOUS
 70
64
  3
Solid line
 72
65
 73
0
 40
0.0
  0
LTYPE
  5
1F5
100
AcDbSymbolTableRecord
100
AcDbLinetypeTableRecord
  2
CENTER
 70
64
  3
____ _ ____ _ ____ _ ____ _ ____ _ ____ _ ____
 72
65
 73
4
 40
0.6
 49
0.375
 74
0
 49
-0.075
 74
0
 49
0.075
 74
0
 49
-0.075
 74
0
  0
LTYPE
  5
1F6
100
AcDbSymbolTableRecord
100
AcDbLinetypeTableRecord
  2
HIDDEN
 70
64
  3
- - - - - - - - - - - - - - - - - - - -
 72
65
 73
2
 40
0.2
 49
0.1
 74
0
 49
-0.1
 74
0
  0
LTYPE
  5
1F7
100
AcDbSymbolTableRecord
100
AcDbLinetypeTableRecord
  2
PHANTOM
 70
64
  3
_____ _ _ _____ _ _ _____ _ _ _____
 72
65
 73
6
 40
0.8
 49
0.45
 74
0
 49
-0.05
 74
0
 49
0.1
 74
0
 49
-0.05
 74
0
 49
0.1
 74
0
 49
-0.05
 74
0
  0
LTYPE
  5
1F8
100
AcDbSymbolTableRecord
100
AcDbLinetypeTableRecord
  2
DOT
 70
64
  3
. . . . . . . . . . . . . . . . . . . .
 72
65
 73
2
 40
0.2
 49
0.1
 74
0
 49
-0.1
 74
0
  0
LTYPE
  5
1F9
100
AcDbSymbolTableRecord
100
AcDbLinetypeTableRecord
  2
DASHED
 70
64
  3
- - - - - - - - - - - - - - - - - - - -
 72
65
 73
2
 40
0.2
 49
0.1
 74
0
 49
-0.1
 74
0
  0
ENDTAB
  0
TABLE
  2
LAYER
  5
2
100
AcDbSymbolTable
 70
36
  0
LAYER
  5
10
100
AcDbSymbolTableRecord
100
AcDbLayerTableRecord
  2
0
 70
0
 62
7
  6
CONTINUOUS
370
-3
390
F
  0
LAYER
  5
1FA
100
AcDbSymbolTableRecord
100
AcDbLayerTableRecord
  2
DEFAULT_1
 70
0
 62
7
  6
CENTER
370
-3
390
F
  0
LAYER
  5
1FB
100
AcDbSymbolTableRecord
100
AcDbLayerTableRecord
  2
DEFAULT_2
 70
0
 62
7
  6
HIDDEN
370
-3
390
F
  0
LAYER
  5
1FC
100
AcDbSymbolTableRecord
100
AcDbLayerTableRecord
  2
DEFAULT_3
 70
0
 62
7
  6
PHANTOM
370
-3
390
F
  0
LAYER
  5
1FD
100
AcDbSymbolTableRecord
100
AcDbLayerTableRecord
  2
ASSI
 70
0
 62
7
  6
CONTINUOUS
370
-3
390
F
  0
LAYER
  5
1FE
100
AcDbSymbolTableRecord
100
AcDbLayerTableRecord
  2
COORDINATE
 70
0
 62
7
  6
CONTINUOUS
370
-3
390
F
  0
LAYER
  5
1FF
100
AcDbSymbolTableRecord
100
AcDbLayerTableRecord
  2
COORD_ORIGINE
 70
0
 62
7
  6
CONTINUOUS
370
-3
390
F
  0
LAYER
  5
200
100
AcDbSymbolTableRecord
100
AcDbLayerTableRecord
  2
COPY-PUBBLISH
 70
0
 62
7
  6
CONTINUOUS
370
-3
390
F
  0
LAYER
  5
201
100
AcDbSymbolTableRecord
100
AcDbLayerTableRecord
  2
COPY_PUBLISH
 70
0
 62
7
  6
CONTINUOUS
370
-3
390
F
  0
LAYER
  5
202
100
AcDbSymbolTableRecord
100
AcDbLayerTableRecord
  2
COSMETIC
 70
0
 62
7
  6
CONTINUOUS
370
-3
390
F
  0
LAYER
  5
203
100
AcDbSymbolTableRecord
100
AcDbLayerTableRecord
  2
COSMETICI
 70
0
 62
7
  6
CONTINUOUS
370
-3
390
F
  0
LAYER
  5
204
100
AcDbSymbolTableRecord
100
AcDbLayerTableRecord
  2
CURVE
 70
0
 62
7
  6
CONTINUOUS
370
-3
390
F
  0
LAYER
  5
205
100
AcDbSymbolTableRecord
100
AcDbLayerTableRecord
  2
DRAFT
 70
0
 62
7
  6
CONTINUOUS
370
-3
390
F
  0
LAYER
  5
206
100
AcDbSymbolTableRecord
100
AcDbLayerTableRecord
  2
IGES-SCRITTE
 70
0
 62
7
  6
CONTINUOUS
370
-3
390
F
  0
LAYER
  5
207
100
AcDbSymbolTableRecord
100
AcDbLayerTableRecord
  2
IMPORT_IGES
 70
0
 62
7
  6
CONTINUOUS
370
-3
390
F
  0
LAYER
  5
208
100
AcDbSymbolTableRecord
100
AcDbLayerTableRecord
  2
NOTE
 70
0
 62
7
  6
CONTINUOUS
370
-3
390
F
  0
LAYER
  5
209
100
AcDbSymbolTableRecord
100
AcDbLayerTableRecord
  2
PIANI
 70
0
 62
7
  6
CONTINUOUS
370
-3
390
F
  0
LAYER
  5
20A
100
AcDbSymbolTableRecord
100
AcDbLayerTableRecord
  2
PIANI-RIFERIMENTO
 70
0
 62
7
  6
CONTINUOUS
370
-3
390
F
  0
LAYER
  5
20B
100
AcDbSymbolTableRecord
100
AcDbLayerTableRecord
  2
PIANI_ORIGINE
 70
0
 62
7
  6
CONTINUOUS
370
-3
390
F
  0
LAYER
  5
20C
100
AcDbSymbolTableRecord
100
AcDbLayerTableRecord
  2
PUNTI
 70
0
 62
7
  6
CONTINUOUS
370
-3
390
F
  0
LAYER
  5
20D
100
AcDbSymbolTableRecord
100
AcDbLayerTableRecord
  2
RACCORDO
 70
0
 62
7
  6
CONTINUOUS
370
-3
390
F
  0
LAYER
  5
20E
100
AcDbSymbolTableRecord
100
AcDbLayerTableRecord
  2
SIMBOLI
 70
0
 62
7
  6
CONTINUOUS
370
-3
390
F
  0
LAYER
  5
20F
100
AcDbSymbolTableRecord
100
AcDbLayerTableRecord
  2
SMUSSO
 70
0
 62
7
  6
CONTINUOUS
370
-3
390
F
  0
LAYER
  5
210
100
AcDbSymbolTableRecord
100
AcDbLayerTableRecord
  2
SNAPLINE
 70
0
 62
7
  6
CONTINUOUS
370
-3
390
F
  0
LAYER
  5
211
100
AcDbSymbolTableRecord
100
AcDbLayerTableRecord
  2
SUPERFICI
 70
0
 62
7
  6
CONTINUOUS
370
-3
390
F
  0
LAYER
  5
212
100
AcDbSymbolTableRecord
100
AcDbLayerTableRecord
  2
TRASH
 70
0
 62
7
  6
CONTINUOUS
370
-3
390
F
  0
LAYER
  5
213
100
AcDbSymbolTableRecord
100
AcDbLayerTableRecord
  2
XSEC_DATUMS
 70
0
 62
7
  6
CONTINUOUS
370
-3
390
F
  0
ENDTAB
  0
TABLE
  2
STYLE
  5
3
100
AcDbSymbolTable
 70
1
  0
STYLE
  5
11
100
AcDbSymbolTableRecord
100
AcDbTextStyleTableRecord
  2
STANDARD
 70
0
 40
0.0
 41
0.8
 50
0.0
 71
0
 42
0.2
  3
txt
  4

  0
STYLE
  5
214
100
AcDbSymbolTableRecord
100
AcDbTextStyleTableRecord
  2
TEXTSTYLE_1
 70
0
 40
0.0
 41
0.8
 50
0.0
 71
0
 42
0.2
  3
gdt
  4

  0
ENDTAB
  0
TABLE
  2
VIEW
  5
6
100
AcDbSymbolTable
 70
0
  0
ENDTAB
  0
TABLE
  2
UCS
  5
7
100
AcDbSymbolTable
 70
0
  0
ENDTAB
  0
TABLE
  2
APPID
  5
9
100
AcDbSymbolTable
 70
1
  0
APPID
  5
215
100
AcDbSymbolTableRecord
100
AcDbRegAppTableRecord
  2
ACAD
 70
0
  0
ENDTAB
  0
TABLE
  2
BLOCK_RECORD
  5
1
100
AcDbSymbolTable
 70
0
  0
BLOCK_RECORD
  5
216
100
AcDbSymbolTableRecord
100
AcDbBlockTableRecord
  2
*Model_Space
  0
BLOCK_RECORD
  5
217
100
AcDbSymbolTableRecord
100
AcDbBlockTableRecord
  2
*Paper_Space
  0
ENDTAB
  0
TABLE
  2
DIMSTYLE
  5
A
100
AcDbSymbolTable
 70
1
100
AcDbDimStyleTable
 71
0
  0
DIMSTYLE
105
218
100
AcDbSymbolTableRecord
100
AcDbDimStyleTableRecord
  2
STANDARD
 70
0
  3

  4

 40
1.0
 41
3.0
 42
0.0625
 43
0.38
 44
0.18
 45
0.0
 46
0.0
 47
0.01
 48
0.01
140
3.0
141
0.09
142
0.0
143
25.4
144
1.0
145
0.0
146
1.0
147
0.09
 71
1.0
 72
0.0
 73
0
 74
0
 75
0
 76
0
 77
1
 78
8
170
0
171
2
172
0
173
0
174
0
175
0
176
0
177
0
178
0
270
2
271
2
272
2
273
2
274
2
275
0
280
0
281
0
282
0
283
1
284
8
285
0
286
0
287
3
288
0
340
11
  0
ENDTAB
  0
ENDSEC
  0
SECTION
  2
BLOCKS
  0
BLOCK
  5
20
100
AcDbEntity
  8
0
100
AcDbBlockBegin
  2
*Model_Space
 70
0
 10
0.0
 20
0.0
 30
0.0
  3
*Model_Space
  1

  0
ENDBLK
  5
21
100
AcDbEntity
  8
0
100
AcDbBlockEnd
  0
BLOCK
  5
1C
100
AcDbEntity
  8
0
100
AcDbBlockBegin
  2
*Paper_Space
 70
0
 10
0.0
 20
0.0
 30
0.0
  3
*Paper_Space
  1

  0
ENDBLK
  5
1D
100
AcDbEntity
  8
0
100
AcDbBlockEnd
  0
ENDSEC
  0
SECTION
  2
ENTITIES
  0
LINE
  5
219
100
AcDbEntity
  8
DRAFT
100
AcDbLine
 62
7
  6
CONTINUOUS
 10
-33.7674537356
 20
31.8346018154
 11
-33.8852664508
 21
31.7167891002
  0
LINE
  5
21A
100
AcDbEntity
  8
RACCORDO
100
AcDbLine
 62
253
  6
CONTINUOUS
 10
-32.5422704094
 20
-31.1309285351
 11
-31.9006188183
 21
-31.7725801262
  0
LINE
  5
21B
100
AcDbEntity
  8
RACCORDO
100
AcDbLine
 62
253
  6
CONTINUOUS
 10
-31.7427577478
 20
-30.3314158735
 11
-31.1011094237
 21
-30.9730641976
  0
LINE
  5
21C
100
AcDbEntity
  8
RACCORDO
100
AcDbLine
 62
7
  6
CONTINUOUS
 10
-31.757780698
 20
-29.6159055849
 11
-31.1011061566
 21
-30.2725801262
  0
LINE
  5
21D
100
AcDbEntity
  8
RACCORDO
100
AcDbLine
 62
7
  6
CONTINUOUS
 10
-34.1226326731
 20
-29.4752425616
 11
-34.1230940996
 21
-29.474394431
  0
LINE
  5
21E
100
AcDbEntity
  8
RACCORDO
100
AcDbLine
 62
7
  6
CONTINUOUS
 10
-35.8
 20
-37.7688082292
 11
-34.1425864364
 21
-37.7688082292
  0
LINE
  5
21F
100
AcDbEntity
  8
RACCORDO
100
AcDbLine
 62
7
  6
CONTINUOUS
 10
34.1425864364
 20
-37.7688082292
 11
35.8
 21
-37.7688082292
  0
LINE
  5
220
100
AcDbEntity
  8
DRAFT
100
AcDbLine
 62
7
  6
CONTINUOUS
 10
-33.7674537356
 20
-20.001023615
 11
-33.8852664508
 21
-19.8832108998
  0
LINE
  5
221
100
AcDbEntity
  8
RACCORDO
100
AcDbLine
 62
7
  6
CONTINUOUS
 10
-34.0839754762
 20
-31.1309285351
 11
-33.8590858474
 21
-32.0308297456
  0
LINE
  5
222
100
AcDbEntity
  8
RACCORDO
100
AcDbLine
 62
7
  6
CONTINUOUS
 10
-34.1230940996
 20
-29.474394431
 11
-34.1421861896
 21
-29.3979969776
  0
LINE
  5
223
100
AcDbEntity
  8
RACCORDO
100
AcDbLine
 62
7
  6
CONTINUOUS
 10
-34.1549283158
 20
-37.1830217916
 11
-34.2074119121
 21
-31.1689973374
  0
LINE
  5
224
100
AcDbEntity
  8
RACCORDO
100
AcDbLine
 62
7
  6
CONTINUOUS
 10
-34.1539187178
 20
-28.8134288859
 11
-34.1550507054
 21
-28.6837159632
  0
LINE
  5
225
100
AcDbEntity
  8
RACCORDO
100
AcDbLine
 62
7
  6
CONTINUOUS
 10
-35.8
 20
-37.7688014442
 11
-35.8
 21
-11.4265865728
  0
LINE
  5
226
100
AcDbEntity
  8
COPY-PUBBLISH
100
AcDbLine
 62
7
  6
CONTINUOUS
 10
-35.8
 20
-11.4265865728
 11
-35.8
 21
37.7675898832
  0
LINE
  5
227
100
AcDbEntity
  8
COPY-PUBBLISH
100
AcDbLine
 62
7
  6
CONTINUOUS
 10
-35.0
 20
1.9167891002
 11
-35.0
 21
9.9167891002
  0
LINE
  5
228
100
AcDbEntity
  8
RACCORDO
100
AcDbLine
 62
253
  6
CONTINUOUS
 10
-35.8
 20
-37.1830217916
 11
-34.1549283158
 21
-37.1830217916
  0
LINE
  5
229
100
AcDbEntity
  8
RACCORDO
100
AcDbLine
 62
253
  6
CONTINUOUS
 10
34.1549283158
 20
-37.1830217916
 11
35.8
 21
-37.1830217916
  0
LINE
  5
22A
100
AcDbEntity
  8
RACCORDO
100
AcDbLine
 62
7
  6
CONTINUOUS
 10
32.4113899366
 20
-36.7927355168
 11
-32.4113899366
 21
-36.7927355168
  0
LINE
  5
22B
100
AcDbEntity
  8
RACCORDO
100
AcDbLine
 62
253
  6
CONTINUOUS
 10
32.4113508312
 20
-36.0652865366
 11
22.4607290949
 21
-36.0652865366
  0
LINE
  5
22C
100
AcDbEntity
  8
RACCORDO
100
AcDbLine
 62
253
  6
CONTINUOUS
 10
21.5392709051
 20
-36.0652865366
 11
11.2107290949
 21
-36.0652865366
  0
LINE
  5
22D
100
AcDbEntity
  8
RACCORDO
100
AcDbLine
 62
253
  6
CONTINUOUS
 10
10.2892709051
 20
-36.0652865366
 11
-0.0392709051
 21
-36.0652865366
  0
LINE
  5
22E
100
AcDbEntity
  8
RACCORDO
100
AcDbLine
 62
253
  6
CONTINUOUS
 10
-0.9607290949
 20
-36.0652865366
 11
-11.2892709051
 21
-36.0652865366
  0
LINE
  5
22F
100
AcDbEntity
  8
RACCORDO
100
AcDbLine
 62
253
  6
CONTINUOUS
 10
-12.2107290949
 20
-36.0652865366
 11
-22.5392709051
 21
-36.0652865366
  0
LINE
  5
230
100
AcDbEntity
  8
RACCORDO
100
AcDbLine
 62
253
  6
CONTINUOUS
 10
-23.4607290949
 20
-36.0652865366
 11
-32.4113457465
 21
-36.0652865366
  0
LINE
  5
231
100
AcDbEntity
  8
RACCORDO
100
AcDbLine
 62
253
  6
CONTINUOUS
 10
32.4113899366
 20
-35.265773875
 11
22.4674669385
 21
-35.265773875
  0
LINE
  5
232
100
AcDbEntity
  8
RACCORDO
100
AcDbLine
 62
253
  6
CONTINUOUS
 10
21.5325330615
 20
-35.265773875
 11
11.2174669385
 21
-35.265773875
  0
LINE
  5
233
100
AcDbEntity
  8
RACCORDO
100
AcDbLine
 62
253
  6
CONTINUOUS
 10
10.2825330615
 20
-35.265773875
 11
-0.0325330615
 21
-35.265773875
  0
LINE
  5
234
100
AcDbEntity
  8
RACCORDO
100
AcDbLine
 62
253
  6
CONTINUOUS
 10
-0.9674669385
 20
-35.265773875
 11
-11.2825330615
 21
-35.265773875
  0
LINE
  5
235
100
AcDbEntity
  8
RACCORDO
100
AcDbLine
 62
253
  6
CONTINUOUS
 10
-12.2174669385
 20
-35.265773875
 11
-22.5325330615
 21
-35.265773875
  0
LINE
  5
236
100
AcDbEntity
  8
RACCORDO
100
AcDbLine
 62
253
  6
CONTINUOUS
 10
-23.4674669385
 20
-35.265773875
 11
-32.4113899366
 21
-35.265773875
  0
LINE
  5
237
100
AcDbEntity
  8
DRAFT
100
AcDbLine
 62
7
  6
CONTINUOUS
 10
-33.8590858474
 20
-35.1355920541
 11
-23.5
 21
-35.1355920541
  0
LINE
  5
238
100
AcDbEntity
  8
DRAFT
100
AcDbLine
 62
7
  6
CONTINUOUS
 10
-22.5
 20
-35.1355920541
 11
-12.25
 21
-35.1355920541
  0
LINE
  5
239
100
AcDbEntity
  8
DRAFT
100
AcDbLine
 62
7
  6
CONTINUOUS
 10
-11.25
 20
-35.1355920541
 11
-1.0
 21
-35.1355920541
  0
LINE
  5
23A
100
AcDbEntity
  8
DRAFT
100
AcDbLine
 62
7
  6
CONTINUOUS
 10
0.0
 20
-35.1355920541
 11
10.25
 21
-35.1355920541
  0
LINE
  5
23B
100
AcDbEntity
  8
DRAFT
100
AcDbLine
 62
7
  6
CONTINUOUS
 10
11.25
 20
-35.1355920541
 11
21.5
 21
-35.1355920541
  0
LINE
  5
23C
100
AcDbEntity
  8
DRAFT
100
AcDbLine
 62
7
  6
CONTINUOUS
 10
22.5
 20
-35.1355920541
 11
33.8590858474
 21
-35.1355920541
  0
LINE
  5
23D
100
AcDbEntity
  8
DRAFT
100
AcDbLine
 62
7
  6
CONTINUOUS
 10
-34.1776165217
 20
-11.5832108998
 11
-34.1808401316
 21
-9.9832108998
  0
LINE
  5
23E
100
AcDbEntity
  8
RACCORDO
100
AcDbLine
 62
7
  6
CONTINUOUS
 10
-34.2125239929
 20
-29.7547837751
 11
-34.2125239929
 21
-11.4265865728
  0
LINE
  5
23F
100
AcDbEntity
  8
DRAFT
100
AcDbLine
 62
7
  6
CONTINUOUS
 10
-34.2125239929
 20
21.8167891002
 11
-34.2125239929
 21
37.7675898832
  0
LINE
  5
240
100
AcDbEntity
  8
COPY-PUBBLISH
100
AcDbLine
 62
7
  6
CONTINUOUS
 10
-34.1863433895
 20
0.2167891002
 11
-34.1863433895
 21
1.9167891002
  0
LINE
  5
241
100
AcDbEntity
  8
COPY-PUBBLISH
100
AcDbLine
 62
7
  6
CONTINUOUS
 10
-34.1863433895
 20
9.9167891002
 11
-34.1863433895
 21
11.6167891002
  0
LINE
  5
242
100
AcDbEntity
  8
COPY-PUBBLISH
100
AcDbLine
 62
7
  6
CONTINUOUS
 10
-34.1791802037
 20
1.9167891002
 11
-34.1791802037
 21
9.9167891002
  0
LINE
  5
243
100
AcDbEntity
  8
COPY-PUBBLISH
100
AcDbLine
 62
7
  6
CONTINUOUS
 10
-34.168889654
 20
23.4167891002
 11
-34.168889654
 21
12.2167891002
  0
LINE
  5
244
100
AcDbEntity
  8
COPY-PUBBLISH
100
AcDbLine
 62
7
  6
CONTINUOUS
 10
-34.168889654
 20
-9.9832108998
 11
-34.168889654
 21
-0.3832108998
  0
LINE
  5
245
100
AcDbEntity
  8
COPY-PUBBLISH
100
AcDbLine
 62
7
  6
CONTINUOUS
 10
-34.168889654
 20
2.2167891002
 11
-34.168889654
 21
9.6167891002
  0
LINE
  5
246
100
AcDbEntity
  8
COPY-PUBBLISH
100
AcDbLine
 62
7
  6
CONTINUOUS
 10
-34.1601627862
 20
-11.8832108998
 11
-34.1601627862
 21
-27.2695024008
  0
LINE
  5
247
100
AcDbEntity
  8
0
100
AcDbLine
 62
7
  6
CONTINUOUS
 10
-34.1514359184
 20
-24.2121173163
 11
-34.1514359184
 21
-24.7832108998
  0
LINE
  5
248
100
AcDbEntity
  8
RACCORDO
100
AcDbLine
 62
7
  6
CONTINUOUS
 10
-34.1514359184
 20
36.0456955166
 11
-34.1514359184
 21
37.5231444968
  0
LINE
  5
249
100
AcDbEntity
  8
COPY-PUBBLISH
100
AcDbLine
 62
7
  6
CONTINUOUS
 10
-34.1427090506
 20
-23.4046455269
 11
-34.1427090506
 21
-10.2832108998
  0
LINE
  5
24A
100
AcDbEntity
  8
RACCORDO
100
AcDbLine
 62
7
  6
CONTINUOUS
 10
-34.109546953
 20
-27.0832108998
 11
-34.109546953
 21
-27.9753081905
  0
LINE
  5
24B
100
AcDbEntity
  8
RACCORDO
100
AcDbLine
 62
7
  6
CONTINUOUS
 10
-34.1008200852
 20
-29.132146881
 11
-34.1008200852
 21
-27.0832108998
  0
LINE
  5
24C
100
AcDbEntity
  8
DRAFT
100
AcDbLine
 62
7
  6
CONTINUOUS
 10
-34.0890415236
 20
-4.3832108998
 11
-34.0890415236
 21
2.1667891002
  0
LINE
  5
24D
100
AcDbEntity
  8
DRAFT
100
AcDbLine
 62
7
  6
CONTINUOUS
 10
-34.0890415236
 20
9.6667891002
 11
-34.0890415236
 21
16.2167891002
  0
LINE
  5
24E
100
AcDbEntity
  8
RACCORDO
100
AcDbLine
 62
253
  6
CONTINUOUS
 10
-33.95
 20
2.4667891002
 11
-33.95
 21
2.1667891002
  0
LINE
  5
24F
100
AcDbEntity
  8
RACCORDO
100
AcDbLine
 62
253
  6
CONTINUOUS
 10
-33.95
 20
9.3667891002
 11
-33.95
 21
9.6667891002
  0
LINE
  5
250
100
AcDbEntity
  8
RACCORDO
100
AcDbLine
 62
253
  6
CONTINUOUS
 10
-33.9113335019
 20
-36.1449640785
 11
-33.9113328211
 21
-36.844659565
  0
LINE
  5
251
100
AcDbEntity
  8
DRAFT
100
AcDbLine
 62
7
  6
CONTINUOUS
 10
-33.8852664508
 20
-16.7184773506
 11
-33.8852664508
 21
-19.8832108998
  0
LINE
  5
252
100
AcDbEntity
  8
DRAFT
100
AcDbLine
 62
7
  6
CONTINUOUS
 10
-33.8852664508
 20
28.5520555509
 11
-33.8852664508
 21
31.7167891002
  0
LINE
  5
253
100
AcDbEntity
  8
DRAFT
100
AcDbLine
 62
7
  6
CONTINUOUS
 10
-33.8736469235
 20
16.2167891002
 11
-33.8736469235
 21
9.6770906343
  0
LINE
  5
254
100
AcDbEntity
  8
DRAFT
100
AcDbLine
 62
7
  6
CONTINUOUS
 10
-33.8736469235
 20
2.1564875661
 11
-33.8736469235
 21
-4.3832108998
  0
LINE
  5
255
100
AcDbEntity
  8
DRAFT
100
AcDbLine
 62
7
  6
CONTINUOUS
 10
-33.8590858474
 20
-32.0308297456
 11
-33.8590858474
 21
-35.1355920541
  0
LINE
  5
256
100
AcDbEntity
  8
DRAFT
100
AcDbLine
 62
7
  6
CONTINUOUS
 10
-33.7674537356
 20
33.7366306392
 11
-33.7674537356
 21
31.8346018154
  0
LINE
  5
257
100
AcDbEntity
  8
DRAFT
100
AcDbLine
 62
7
  6
CONTINUOUS
 10
-33.7674537356
 20
-20.001023615
 11
-33.7674537356
 21
-21.9030524388
  0
LINE
  5
258
100
AcDbEntity
  8
DRAFT
100
AcDbLine
 62
7
  6
CONTINUOUS
 10
-33.75
 20
28.4167891002
 11
-33.75
 21
9.7432470748
  0
LINE
  5
259
100
AcDbEntity
  8
DRAFT
100
AcDbLine
 62
7
  6
CONTINUOUS
 10
-33.75
 20
2.0903311255
 11
-33.75
 21
-16.5832108998
  0
LINE
  5
25A
100
AcDbEntity
  8
RACCORDO
100
AcDbLine
 62
7
  6
CONTINUOUS
 10
-33.65
 20
36.3667891002
 11
-33.65
 21
9.9667891002
  0
LINE
  5
25B
100
AcDbEntity
  8
RACCORDO
100
AcDbLine
 62
7
  6
CONTINUOUS
 10
-33.65
 20
1.8667891002
 11
-33.65
 21
-24.5332108998
  0
LINE
  5
25C
100
AcDbEntity
  8
RACCORDO
100
AcDbLine
 62
253
  6
CONTINUOUS
 10
-33.35
 20
1.8667891002
 11
-33.35
 21
-24.8332108998
  0
LINE
  5
25D
100
AcDbEntity
  8
RACCORDO
100
AcDbLine
 62
253
  6
CONTINUOUS
 10
-33.35
 20
9.9667891002
 11
-33.3500000029
 21
36.6667891002
  0
LINE
  5
25E
100
AcDbEntity
  8
RACCORDO
100
AcDbLine
 62
253
  6
CONTINUOUS
 10
-32.7852533351
 20
37.5231444968
 11
-32.7852533351
 21
36.6667891002
  0
LINE
  5
25F
100
AcDbEntity
  8
0
100
AcDbLine
 62
253
  6
CONTINUOUS
 10
-32.7852533351
 20
-24.8332108998
 11
-32.7852533346
 21
-25.5832108998
  0
LINE
  5
260
100
AcDbEntity
  8
RACCORDO
100
AcDbLine
 62
253
  6
CONTINUOUS
 10
-32.5827128721
 20
-27.0832287781
 11
-32.5827128721
 21
-29.132146881
  0
LINE
  5
261
100
AcDbEntity
  8
RACCORDO
100
AcDbLine
 62
253
  6
CONTINUOUS
 10
-31.9857406735
 20
37.496182855
 11
-31.9857406735
 21
36.6667891002
  0
LINE
  5
262
100
AcDbEntity
  8
RACCORDO
100
AcDbLine
 62
253
  6
CONTINUOUS
 10
-31.7832002104
 20
-27.0832108998
 11
-31.7832002104
 21
-29.132146881
  0
LINE
  5
263
100
AcDbEntity
  8
DRAFT
100
AcDbLine
 62
7
  6
CONTINUOUS
 10
-31.757780698
 20
-25.4346446791
 11
-31.757780698
 21
-29.6159055849
  0
LINE
  5
264
100
AcDbEntity
  8
RACCORDO
100
AcDbLine
 62
253
  6
CONTINUOUS
 10
-31.1011094237
 20
-30.9730641976
 11
-31.1011061566
 21
-30.2725801262
  0
LINE
  5
265
100
AcDbEntity
  8
RACCORDO
100
AcDbLine
 62
253
  6
CONTINUOUS
 10
-32.4113899364
 20
-35.265773875
 11
-32.4113899366
 21
-36.7927355168
  0
LINE
  5
266
100
AcDbEntity
  8
DRAFT
100
AcDbLine
 62
7
  6
CONTINUOUS
 10
-34.1808401316
 20
21.8167891002
 11
-34.1776165217
 21
23.4167891002
  0
LINE
  5
267
100
AcDbEntity
  8
DRAFT
100
AcDbLine
 62
7
  6
CONTINUOUS
 10
-34.1907068234
 20
-9.9832108998
 11
-34.2125239929
 21
-11.4265865728
  0
LINE
  5
268
100
AcDbEntity
  8
DRAFT
100
AcDbLine
 62
7
  6
CONTINUOUS
 10
-33.8590858474
 20
-32.0308297456
 11
-23.5
 21
-32.0308297456
  0
LINE
  5
269
100
AcDbEntity
  8
DRAFT
100
AcDbLine
 62
7
  6
CONTINUOUS
 10
-22.5
 20
-32.0308297456
 11
-12.25
 21
-32.0308297456
  0
LINE
  5
26A
100
AcDbEntity
  8
DRAFT
100
AcDbLine
 62
7
  6
CONTINUOUS
 10
-11.25
 20
-32.0308297456
 11
-1.0
 21
-32.0308297456
  0
LINE
  5
26B
100
AcDbEntity
  8
DRAFT
100
AcDbLine
 62
7
  6
CONTINUOUS
 10
0.0
 20
-32.0308297456
 11
10.25
 21
-32.0308297456
  0
LINE
  5
26C
100
AcDbEntity
  8
DRAFT
100
AcDbLine
 62
7
  6
CONTINUOUS
 10
11.25
 20
-32.0308297456
 11
21.5
 21
-32.0308297456
  0
LINE
  5
26D
100
AcDbEntity
  8
DRAFT
100
AcDbLine
 62
7
  6
CONTINUOUS
 10
22.5
 20
-32.0308297456
 11
33.8590858474
 21
-32.0308297456
  0
LINE
  5
26E
100
AcDbEntity
  8
RACCORDO
100
AcDbLine
 62
253
  6
CONTINUOUS
 10
-28.1029336756
 20
-31.9006479246
 11
-23.4674669385
 21
-31.9006479246
  0
LINE
  5
26F
100
AcDbEntity
  8
RACCORDO
100
AcDbLine
 62
253
  6
CONTINUOUS
 10
-22.5325330615
 20
-31.9006479246
 11
-12.2174669385
 21
-31.9006479246
  0
LINE
  5
270
100
AcDbEntity
  8
RACCORDO
100
AcDbLine
 62
253
  6
CONTINUOUS
 10
-11.2825330615
 20
-31.9006479246
 11
-0.9674669385
 21
-31.9006479246
  0
LINE
  5
271
100
AcDbEntity
  8
RACCORDO
100
AcDbLine
 62
253
  6
CONTINUOUS
 10
-0.0325330615
 20
-31.9006479246
 11
10.2825330615
 21
-31.9006479246
  0
LINE
  5
272
100
AcDbEntity
  8
RACCORDO
100
AcDbLine
 62
253
  6
CONTINUOUS
 10
11.2174669385
 20
-31.9006479246
 11
21.5325330615
 21
-31.9006479246
  0
LINE
  5
273
100
AcDbEntity
  8
RACCORDO
100
AcDbLine
 62
253
  6
CONTINUOUS
 10
22.4674669385
 20
-31.9006479246
 11
28.1029336756
 21
-31.9006479246
  0
LINE
  5
274
100
AcDbEntity
  8
RACCORDO
100
AcDbLine
 62
253
  6
CONTINUOUS
 10
-35.8
 20
-31.1689973374
 11
-34.2074119121
 21
-31.1689973374
  0
LINE
  5
275
100
AcDbEntity
  8
RACCORDO
100
AcDbLine
 62
253
  6
CONTINUOUS
 10
34.2074119121
 20
-31.1689973374
 11
35.8
 21
-31.1689973374
  0
LINE
  5
276
100
AcDbEntity
  8
RACCORDO
100
AcDbLine
 62
253
  6
CONTINUOUS
 10
-34.0839754762
 20
-31.1309285351
 11
-32.5422704094
 21
-31.1309285351
  0
LINE
  5
277
100
AcDbEntity
  8
RACCORDO
100
AcDbLine
 62
253
  6
CONTINUOUS
 10
32.5422704094
 20
-31.1309285351
 11
34.0839754762
 21
-31.1309285351
  0
LINE
  5
278
100
AcDbEntity
  8
RACCORDO
100
AcDbLine
 62
253
  6
CONTINUOUS
 10
-28.1028386891
 20
-31.101135263
 11
-23.4607290949
 21
-31.101135263
  0
LINE
  5
279
100
AcDbEntity
  8
RACCORDO
100
AcDbLine
 62
253
  6
CONTINUOUS
 10
-22.5392709051
 20
-31.101135263
 11
-12.2107290949
 21
-31.101135263
  0
LINE
  5
27A
100
AcDbEntity
  8
RACCORDO
100
AcDbLine
 62
253
  6
CONTINUOUS
 10
-11.2892709051
 20
-31.101135263
 11
-0.9607290949
 21
-31.101135263
  0
LINE
  5
27B
100
AcDbEntity
  8
RACCORDO
100
AcDbLine
 62
253
  6
CONTINUOUS
 10
-0.0392709051
 20
-31.101135263
 11
10.2892709051
 21
-31.101135263
  0
LINE
  5
27C
100
AcDbEntity
  8
RACCORDO
100
AcDbLine
 62
253
  6
CONTINUOUS
 10
11.2107290949
 20
-31.101135263
 11
21.5392709051
 21
-31.101135263
  0
LINE
  5
27D
100
AcDbEntity
  8
RACCORDO
100
AcDbLine
 62
253
  6
CONTINUOUS
 10
22.4607290949
 20
-31.101135263
 11
28.1028388252
 21
-31.101135263
  0
LINE
  5
27E
100
AcDbEntity
  8
RACCORDO
100
AcDbLine
 62
7
  6
CONTINUOUS
 10
-23.5
 20
-35.1355920541
 11
-23.4674669385
 21
-35.265773875
  0
LINE
  5
27F
100
AcDbEntity
  8
ASSI
100
AcDbLine
 62
7
  6
CONTINUOUS
 10
-28.618001
 20
3.6235551002
 11
-28.618001
 21
4.2992901002
  0
LINE
  5
280
100
AcDbEntity
  8
ASSI
100
AcDbLine
 62
7
  6
CONTINUOUS
 10
-28.618001
 20
7.5342861002
 11
-28.618001
 21
8.2100211002
  0
LINE
  5
281
100
AcDbEntity
  8
RACCORDO
100
AcDbLine
 62
253
  6
CONTINUOUS
 10
-28.1029336756
 20
-30.3736862829
 11
-28.1029336756
 21
-31.9006479246
  0
LINE
  5
282
100
AcDbEntity
  8
DRAFT
100
AcDbLine
 62
7
  6
CONTINUOUS
 10
-33.7674537356
 20
-21.9030524388
 11
-34.1427090506
 21
-23.4046455269
  0
LINE
  5
283
100
AcDbEntity
  8
0
100
AcDbLine
 62
7
  6
CONTINUOUS
 10
-34.1427090506
 20
-23.4046455269
 11
-34.1446980748
 21
-23.4126046547
  0
LINE
  5
284
100
AcDbEntity
  8
RACCORDO
100
AcDbLine
 62
7
  6
CONTINUOUS
 10
-28.1029336756
 20
-30.3736862829
 11
28.1029336756
 21
-30.3736862829
  0
LINE
  5
285
100
AcDbEntity
  8
RACCORDO
100
AcDbLine
 62
253
  6
CONTINUOUS
 10
-35.8
 20
-29.7547837751
 11
-34.2125239929
 21
-29.7547837751
  0
LINE
  5
286
100
AcDbEntity
  8
RACCORDO
100
AcDbLine
 62
253
  6
CONTINUOUS
 10
34.2125239929
 20
-29.7547837751
 11
35.8
 21
-29.7547837751
  0
LINE
  5
287
100
AcDbEntity
  8
RACCORDO
100
AcDbLine
 62
253
  6
CONTINUOUS
 10
31.7832002104
 20
-29.132146881
 11
34.1008200852
 21
-29.132146881
  0
LINE
  5
288
100
AcDbEntity
  8
RACCORDO
100
AcDbLine
 62
253
  6
CONTINUOUS
 10
-31.7832002104
 20
-29.132146881
 11
-34.1008200852
 21
-29.132146881
  0
LINE
  5
289
100
AcDbEntity
  8
RACCORDO
100
AcDbLine
 62
253
  6
CONTINUOUS
 10
-34.1590395748
 20
-27.9753081905
 11
-34.109546953
 21
-27.9753081905
  0
LINE
  5
28A
100
AcDbEntity
  8
RACCORDO
100
AcDbLine
 62
253
  6
CONTINUOUS
 10
34.109546953
 20
-27.9753081905
 11
34.1590395748
 21
-27.9753081905
  0
LINE
  5
28B
100
AcDbEntity
  8
RACCORDO
100
AcDbLine
 62
7
  6
CONTINUOUS
 10
-22.5
 20
-32.0308297456
 11
-22.5325330615
 21
-31.9006479246
  0
LINE
  5
28C
100
AcDbEntity
  8
ASSI
100
AcDbLine
 62
7
  6
CONTINUOUS
 10
-25.031402
 20
5.5792881002
 11
-25.031402
 21
6.2542881002
  0
LINE
  5
28D
100
AcDbEntity
  8
ASSI
100
AcDbLine
 62
7
  6
CONTINUOUS
 10
-24.671402
 20
3.6235550217
 11
-24.671402
 21
4.2992927458
  0
LINE
  5
28E
100
AcDbEntity
  8
ASSI
100
AcDbLine
 62
7
  6
CONTINUOUS
 10
-24.671402
 20
7.5342861002
 11
-24.671402
 21
8.2100211787
  0
LINE
  5
28F
100
AcDbEntity
  8
RACCORDO
100
AcDbLine
 62
7
  6
CONTINUOUS
 10
-33.8963630476
 20
-35.2847576612
 11
-33.8590858474
 21
-35.1355920541
  0
LINE
  5
290
100
AcDbEntity
  8
RACCORDO
100
AcDbLine
 62
7
  6
CONTINUOUS
 10
-34.1419775344
 20
-37.7675898832
 11
-33.9113328211
 21
-36.844659565
  0
LINE
  5
291
100
AcDbEntity
  8
RACCORDO
100
AcDbLine
 62
253
  6
CONTINUOUS
 10
34.1601627862
 20
-27.0832108998
 11
34.109546953
 21
-27.0832108998
  0
LINE
  5
292
100
AcDbEntity
  8
RACCORDO
100
AcDbLine
 62
253
  6
CONTINUOUS
 10
31.7832002104
 20
-27.0832108998
 11
34.1008200852
 21
-27.0832108998
  0
LINE
  5
293
100
AcDbEntity
  8
RACCORDO
100
AcDbLine
 62
253
  6
CONTINUOUS
 10
-31.7832002104
 20
-27.0832108998
 11
-34.1008200852
 21
-27.0832108998
  0
LINE
  5
294
100
AcDbEntity
  8
RACCORDO
100
AcDbLine
 62
253
  6
CONTINUOUS
 10
-34.109546953
 20
-27.0832108998
 11
-34.1601627862
 21
-27.0832108998
  0
LINE
  5
295
100
AcDbEntity
  8
COPY-PUBBLISH
100
AcDbLine
 62
7
  6
CONTINUOUS
 10
-34.1601627862
 20
-25.5832108998
 11
-34.1427090506
 21
-25.5832108998
  0
LINE
  5
296
100
AcDbEntity
  8
COPY-PUBBLISH
100
AcDbLine
 62
7
  6
CONTINUOUS
 10
34.1601627862
 20
-25.5832108998
 11
34.1427090506
 21
-25.5832108998
  0
LINE
  5
297
100
AcDbEntity
  8
0
100
AcDbLine
 62
7
  6
CONTINUOUS
 10
-34.1444544241
 20
-25.5832108998
 11
-32.6630322618
 21
-25.5832108998
  0
LINE
  5
298
100
AcDbEntity
  8
RACCORDO
100
AcDbLine
 62
7
  6
CONTINUOUS
 10
32.6630306419
 20
-25.5832108998
 11
32.7852533351
 21
-25.5832108998
  0
LINE
  5
299
100
AcDbEntity
  8
0
100
AcDbLine
 62
7
  6
CONTINUOUS
 10
32.6630312674
 20
-25.5832108998
 11
34.1444544241
 21
-25.5832108998
  0
LINE
  5
29A
100
AcDbEntity
  8
RACCORDO
100
AcDbLine
 62
7
  6
CONTINUOUS
 10
-33.35
 20
-24.8332108998
 11
33.35
 21
-24.8332108998
  0
LINE
  5
29B
100
AcDbEntity
  8
0
100
AcDbLine
 62
253
  6
CONTINUOUS
 10
-34.1514359184
 20
-24.7832108998
 11
-33.5151024122
 21
-24.7832108998
  0
LINE
  5
29C
100
AcDbEntity
  8
0
100
AcDbLine
 62
253
  6
CONTINUOUS
 10
33.5151024121
 20
-24.7832108998
 11
34.1514359184
 21
-24.7832108998
  0
LINE
  5
29D
100
AcDbEntity
  8
RACCORDO
100
AcDbLine
 62
253
  6
CONTINUOUS
 10
33.65
 20
-24.5332108998
 11
-33.65
 21
-24.5332109027
  0
LINE
  5
29E
100
AcDbEntity
  8
0
100
AcDbLine
 62
253
  6
CONTINUOUS
 10
34.1514359184
 20
-24.2121173163
 11
33.65
 21
-24.2121173163
  0
LINE
  5
29F
100
AcDbEntity
  8
0
100
AcDbLine
 62
253
  6
CONTINUOUS
 10
-33.65
 20
-24.2121173163
 11
-34.1514359184
 21
-24.2121173163
  0
LINE
  5
2A0
100
AcDbEntity
  8
RACCORDO
100
AcDbLine
 62
7
  6
CONTINUOUS
 10
-34.1446980748
 20
35.246182855
 11
-33.7674537356
 21
33.7366306392
  0
LINE
  5
2A1
100
AcDbEntity
  8
DRAFT
100
AcDbLine
 62
7
  6
CONTINUOUS
 10
-34.2125239929
 20
37.7675898832
 11
-34.1514359184
 21
37.5231444968
  0
LINE
  5
2A2
100
AcDbEntity
  8
DRAFT
100
AcDbLine
 62
7
  6
CONTINUOUS
 10
-23.5
 20
-32.0308297456
 11
-23.5
 21
-35.1355920541
  0
LINE
  5
2A3
100
AcDbEntity
  8
RACCORDO
100
AcDbLine
 62
7
  6
CONTINUOUS
 10
-23.4607290949
 20
-31.101135263
 11
-23.4607290949
 21
-36.0652865366
  0
LINE
  5
2A4
100
AcDbEntity
  8
RACCORDO
100
AcDbLine
 62
7
  6
CONTINUOUS
 10
-22.5392709051
 20
-36.0652865366
 11
-22.5392709051
 21
-31.101135263
  0
LINE
  5
2A5
100
AcDbEntity
  8
DRAFT
100
AcDbLine
 62
7
  6
CONTINUOUS
 10
-22.5
 20
-32.0308297456
 11
-22.5
 21
-35.1355920541
  0
LINE
  5
2A6
100
AcDbEntity
  8
0
100
AcDbLine
 62
253
  6
CONTINUOUS
 10
34.1446980748
 20
-23.4126046547
 11
33.65
 21
-23.4126046547
  0
LINE
  5
2A7
100
AcDbEntity
  8
0
100
AcDbLine
 62
253
  6
CONTINUOUS
 10
-33.65
 20
-23.4126046547
 11
-34.1446980748
 21
-23.4126046547
  0
LINE
  5
2A8
100
AcDbEntity
  8
0
100
AcDbLine
 62
7
  6
CONTINUOUS
 10
-33.7674537356
 20
-21.9030524388
 11
-33.65
 21
-21.9030524388
  0
LINE
  5
2A9
100
AcDbEntity
  8
0
100
AcDbLine
 62
7
  6
CONTINUOUS
 10
33.65
 20
-21.9030524388
 11
33.7674537356
 21
-21.9030524388
  0
LINE
  5
2AA
100
AcDbEntity
  8
RACCORDO
100
AcDbLine
 62
7
  6
CONTINUOUS
 10
-12.25
 20
-35.1355920541
 11
-12.2174669385
 21
-35.265773875
  0
LINE
  5
2AB
100
AcDbEntity
  8
DRAFT
100
AcDbLine
 62
7
  6
CONTINUOUS
 10
-33.7674537356
 20
-20.001023615
 11
-33.65
 21
-20.001023615
  0
LINE
  5
2AC
100
AcDbEntity
  8
DRAFT
100
AcDbLine
 62
7
  6
CONTINUOUS
 10
33.7674537356
 20
-20.001023615
 11
33.65
 21
-20.001023615
  0
LINE
  5
2AD
100
AcDbEntity
  8
DRAFT
100
AcDbLine
 62
7
  6
CONTINUOUS
 10
-33.8852664508
 20
-19.8832108998
 11
-33.65
 21
-19.8832108998
  0
LINE
  5
2AE
100
AcDbEntity
  8
DRAFT
100
AcDbLine
 62
7
  6
CONTINUOUS
 10
33.8852664508
 20
-19.8832108998
 11
33.65
 21
-19.8832108998
  0
LINE
  5
2AF
100
AcDbEntity
  8
RACCORDO
100
AcDbLine
 62
7
  6
CONTINUOUS
 10
-11.25
 20
-32.0308297456
 11
-11.2825330615
 21
-31.9006479246
  0
LINE
  5
2B0
100
AcDbEntity
  8
RACCORDO
100
AcDbLine
 62
7
  6
CONTINUOUS
 10
-23.5
 20
-32.0308297456
 11
-23.4674669385
 21
-31.9006479246
  0
LINE
  5
2B1
100
AcDbEntity
  8
RACCORDO
100
AcDbLine
 62
7
  6
CONTINUOUS
 10
-34.1425878274
 20
-37.7688014449
 11
-34.1419775344
 21
-37.7675898832
  0
LINE
  5
2B2
100
AcDbEntity
  8
DRAFT
100
AcDbLine
 62
7
  6
CONTINUOUS
 10
33.8852664508
 20
-16.7184773506
 11
33.65
 21
-16.7184773506
  0
LINE
  5
2B3
100
AcDbEntity
  8
DRAFT
100
AcDbLine
 62
7
  6
CONTINUOUS
 10
-33.65
 20
-16.7184773506
 11
-33.8852664508
 21
-16.7184773506
  0
LINE
  5
2B4
100
AcDbEntity
  8
DRAFT
100
AcDbLine
 62
7
  6
CONTINUOUS
 10
33.75
 20
-16.5832108998
 11
33.65
 21
-16.5832108998
  0
LINE
  5
2B5
100
AcDbEntity
  8
DRAFT
100
AcDbLine
 62
7
  6
CONTINUOUS
 10
-33.65
 20
-16.5832108998
 11
-33.75
 21
-16.5832108998
  0
LINE
  5
2B6
100
AcDbEntity
  8
DRAFT
100
AcDbLine
 62
7
  6
CONTINUOUS
 10
-12.25
 20
-32.0308297456
 11
-12.25
 21
-35.1355920541
  0
LINE
  5
2B7
100
AcDbEntity
  8
RACCORDO
100
AcDbLine
 62
7
  6
CONTINUOUS
 10
-12.2107290949
 20
-31.101135263
 11
-12.2107290949
 21
-36.0652865366
  0
LINE
  5
2B8
100
AcDbEntity
  8
RACCORDO
100
AcDbLine
 62
7
  6
CONTINUOUS
 10
-11.2892709051
 20
-36.0652865366
 11
-11.2892709051
 21
-31.101135263
  0
LINE
  5
2B9
100
AcDbEntity
  8
DRAFT
100
AcDbLine
 62
7
  6
CONTINUOUS
 10
-11.25
 20
-32.0308297456
 11
-11.25
 21
-35.1355920541
  0
LINE
  5
2BA
100
AcDbEntity
  8
RACCORDO
100
AcDbLine
 62
7
  6
CONTINUOUS
 10
-22.5
 20
-35.1355920541
 11
-22.5325330615
 21
-35.265773875
  0
LINE
  5
2BB
100
AcDbEntity
  8
0
100
AcDbLine
 62
7
  6
CONTINUOUS
 10
-5.1216
 20
25.8939851002
 11
-5.867986
 21
23.2786431002
  0
LINE
  5
2BC
100
AcDbEntity
  8
0
100
AcDbLine
 62
7
  6
CONTINUOUS
 10
-5.550353
 20
22.0944431002
 11
-4.329028
 21
25.8939851002
  0
LINE
  5
2BD
100
AcDbEntity
  8
DRAFT
100
AcDbLine
 62
7
  6
CONTINUOUS
 10
-33.8852664508
 20
-16.7184773506
 11
-33.75
 21
-16.5832108998
  0
LINE
  5
2BE
100
AcDbEntity
  8
COPY-PUBBLISH
100
AcDbLine
 62
7
  6
CONTINUOUS
 10
34.1776165217
 20
-11.5832108998
 11
34.1627808465
 21
-11.5832108998
  0
LINE
  5
2BF
100
AcDbEntity
  8
COPY-PUBBLISH
100
AcDbLine
 62
7
  6
CONTINUOUS
 10
-34.1627808465
 20
-11.5832108998
 11
-34.1776165217
 21
-11.5832108998
  0
LINE
  5
2C0
100
AcDbEntity
  8
COPY-PUBBLISH
100
AcDbLine
 62
7
  6
CONTINUOUS
 10
35.8
 20
-11.4265865728
 11
34.2125239929
 21
-11.4265865728
  0
LINE
  5
2C1
100
AcDbEntity
  8
COPY-PUBBLISH
100
AcDbLine
 62
7
  6
CONTINUOUS
 10
-34.2125239929
 20
-11.4265865728
 11
-35.8
 21
-11.4265865728
  0
LINE
  5
2C2
100
AcDbEntity
  8
COPY-PUBBLISH
100
AcDbLine
 62
253
  6
CONTINUOUS
 10
-34.1802357048
 20
-10.2832108998
 11
-34.1427090506
 21
-10.2832108998
  0
LINE
  5
2C3
100
AcDbEntity
  8
COPY-PUBBLISH
100
AcDbLine
 62
253
  6
CONTINUOUS
 10
34.1802357048
 20
-10.2832108998
 11
34.1427090506
 21
-10.2832108998
  0
LINE
  5
2C4
100
AcDbEntity
  8
COPY-PUBBLISH
100
AcDbLine
 62
7
  6
CONTINUOUS
 10
35.8
 20
-9.9832108998
 11
34.1907068234
 21
-9.9832108998
  0
LINE
  5
2C5
100
AcDbEntity
  8
DRAFT
100
AcDbLine
 62
7
  6
CONTINUOUS
 10
34.1907068234
 20
-9.9832108998
 11
34.1808401316
 21
-9.9832108998
  0
LINE
  5
2C6
100
AcDbEntity
  8
DRAFT
100
AcDbLine
 62
7
  6
CONTINUOUS
 10
-34.1907068234
 20
-9.9832108998
 11
-34.1808401316
 21
-9.9832108998
  0
LINE
  5
2C7
100
AcDbEntity
  8
COPY-PUBBLISH
100
AcDbLine
 62
7
  6
CONTINUOUS
 10
34.1453271109
 20
-9.9832108998
 11
34.1808401316
 21
-9.9832108998
  0
LINE
  5
2C8
100
AcDbEntity
  8
COPY-PUBBLISH
100
AcDbLine
 62
7
  6
CONTINUOUS
 10
-34.1453271109
 20
-9.9832108998
 11
-34.1808401316
 21
-9.9832108998
  0
LINE
  5
2C9
100
AcDbEntity
  8
COPY-PUBBLISH
100
AcDbLine
 62
7
  6
CONTINUOUS
 10
-34.1907068234
 20
-9.9832108998
 11
-35.8
 21
-9.9832108998
  0
LINE
  5
2CA
100
AcDbEntity
  8
0
100
AcDbLine
 62
7
  6
CONTINUOUS
 10
-0.101245
 20
25.8939851002
 11
-0.894359
 21
23.7844681002
  0
LINE
  5
2CB
100
AcDbEntity
  8
0
100
AcDbLine
 62
7
  6
CONTINUOUS
 10
-0.843072
 20
22.0944431002
 11
0.09994
 21
24.5651301002
  0
LINE
  5
2CC
100
AcDbEntity
  8
DRAFT
100
AcDbLine
 62
7
  6
CONTINUOUS
 10
-33.9332642236
 20
-11.2198926816
 11
-34.0292597693
 21
-11.2282912036
  0
LINE
  5
2CD
100
AcDbEntity
  8
DRAFT
100
AcDbLine
 62
7
  6
CONTINUOUS
 10
34.0292597693
 20
-11.2282912036
 11
33.9332642236
 21
-11.2198926816
  0
LINE
  5
2CE
100
AcDbEntity
  8
RACCORDO
100
AcDbLine
 62
7
  6
CONTINUOUS
 10
-1.0
 20
-35.1355920541
 11
-0.9674669385
 21
-35.265773875
  0
LINE
  5
2CF
100
AcDbEntity
  8
RACCORDO
100
AcDbLine
 62
7
  6
CONTINUOUS
 10
0.0
 20
-32.0308297456
 11
-0.0325330615
 21
-31.9006479246
  0
LINE
  5
2D0
100
AcDbEntity
  8
0
100
AcDbLine
 62
7
  6
CONTINUOUS
 10
-4.034701
 20
25.8942131002
 11
-4.034701
 21
22.0944431002
  0
LINE
  5
2D1
100
AcDbEntity
  8
0
100
AcDbLine
 62
7
  6
CONTINUOUS
 10
-3.241588
 20
22.0944431002
 11
-3.241588
 21
25.8942131002
  0
LINE
  5
2D2
100
AcDbEntity
  8
0
100
AcDbLine
 62
7
  6
CONTINUOUS
 10
-2.055878
 20
22.0944431002
 11
-1.884725
 21
24.5754731002
  0
LINE
  5
2D3
100
AcDbEntity
  8
0
100
AcDbLine
 62
7
  6
CONTINUOUS
 10
-2.471553
 20
25.8939851002
 11
-2.81463
 21
22.0944431002
  0
LINE
  5
2D4
100
AcDbEntity
  8
RACCORDO
100
AcDbLine
 62
7
  6
CONTINUOUS
 10
-12.25
 20
-32.0308297456
 11
-12.2174669385
 21
-31.9006479246
  0
LINE
  5
2D5
100
AcDbEntity
  8
0
100
AcDbLine
 62
7
  6
CONTINUOUS
 10
2.328897
 20
23.4399091002
 11
2.723801
 21
24.8499681002
  0
LINE
  5
2D6
100
AcDbEntity
  8
0
100
AcDbLine
 62
7
  6
CONTINUOUS
 10
1.947812
 20
22.0944431002
 11
2.166662
 21
22.8529671002
  0
LINE
  5
2D7
100
AcDbEntity
  8
0
100
AcDbLine
 62
7
  6
CONTINUOUS
 10
2.355082
 20
25.8939851002
 11
1.163303
 21
22.0944431002
  0
LINE
  5
2D8
100
AcDbEntity
  8
RACCORDO
100
AcDbLine
 62
7
  6
CONTINUOUS
 10
-31.757780698
 20
-25.4346446791
 11
-31.1563469186
 21
-24.8332108998
  0
LINE
  5
2D9
100
AcDbEntity
  8
RACCORDO
100
AcDbLine
 62
7
  6
CONTINUOUS
 10
31.9857406735
 20
37.496182855
 11
31.1563469186
 21
36.6667891002
  0
LINE
  5
2DA
100
AcDbEntity
  8
COPY-PUBBLISH
100
AcDbLine
 62
253
  6
CONTINUOUS
 10
-34.0890415236
 20
-4.3832108998
 11
-33.8736469235
 21
-4.3832108998
  0
LINE
  5
2DB
100
AcDbEntity
  8
COPY-PUBBLISH
100
AcDbLine
 62
253
  6
CONTINUOUS
 10
34.0890415236
 20
-4.3832108998
 11
33.8736469235
 21
-4.3832108998
  0
LINE
  5
2DC
100
AcDbEntity
  8
DRAFT
100
AcDbLine
 62
7
  6
CONTINUOUS
 10
-33.75
 20
28.4167891002
 11
-33.8852664508
 21
28.5520555509
  0
LINE
  5
2DD
100
AcDbEntity
  8
DRAFT
100
AcDbLine
 62
7
  6
CONTINUOUS
 10
-1.0
 20
-32.0308297456
 11
-1.0
 21
-35.1355920541
  0
LINE
  5
2DE
100
AcDbEntity
  8
RACCORDO
100
AcDbLine
 62
7
  6
CONTINUOUS
 10
-0.9607290949
 20
-31.101135263
 11
-0.9607290949
 21
-36.0652865366
  0
LINE
  5
2DF
100
AcDbEntity
  8
RACCORDO
100
AcDbLine
 62
7
  6
CONTINUOUS
 10
-0.0392709051
 20
-36.0652865366
 11
-0.0392709051
 21
-31.101135263
  0
LINE
  5
2E0
100
AcDbEntity
  8
DRAFT
100
AcDbLine
 62
7
  6
CONTINUOUS
 10
0.0
 20
-32.0308297456
 11
0.0
 21
-35.1355920541
  0
LINE
  5
2E1
100
AcDbEntity
  8
RACCORDO
100
AcDbLine
 62
7
  6
CONTINUOUS
 10
-11.25
 20
-35.1355920541
 11
-11.2825330615
 21
-35.265773875
  0
LINE
  5
2E2
100
AcDbEntity
  8
COPY-PUBBLISH
100
AcDbLine
 62
253
  6
CONTINUOUS
 10
35.8
 20
-0.3832108998
 11
34.168889654
 21
-0.3832108998
  0
LINE
  5
2E3
100
AcDbEntity
  8
COPY-PUBBLISH
100
AcDbLine
 62
253
  6
CONTINUOUS
 10
-34.168889654
 20
-0.3832108998
 11
-35.8
 21
-0.3832108998
  0
LINE
  5
2E4
100
AcDbEntity
  8
COPY-PUBBLISH
100
AcDbLine
 62
7
  6
CONTINUOUS
 10
-34.1715077143
 20
-0.0832108998
 11
-35.8
 21
-0.0832108998
  0
LINE
  5
2E5
100
AcDbEntity
  8
COPY-PUBBLISH
100
AcDbLine
 62
7
  6
CONTINUOUS
 10
34.1715077143
 20
-0.0832108998
 11
35.8
 21
-0.0832108998
  0
LINE
  5
2E6
100
AcDbEntity
  8
COPY-PUBBLISH
100
AcDbLine
 62
253
  6
CONTINUOUS
 10
-35.8
 20
0.2167891002
 11
-34.1863433895
 21
0.2167891002
  0
LINE
  5
2E7
100
AcDbEntity
  8
COPY-PUBBLISH
100
AcDbLine
 62
253
  6
CONTINUOUS
 10
34.1863433895
 20
0.2167891002
 11
35.8
 21
0.2167891002
  0
LINE
  5
2E8
100
AcDbEntity
  8
0
100
AcDbLine
 62
7
  6
CONTINUOUS
 10
1.038763
 20
22.0944431002
 11
0.683463
 21
25.8939851002
  0
LINE
  5
2E9
100
AcDbEntity
  8
0
100
AcDbLine
 62
7
  6
CONTINUOUS
 10
0.09994
 20
24.5651301002
 11
0.262887
 21
22.0944431002
  0
LINE
  5
2EA
100
AcDbEntity
  8
DRAFT
100
AcDbLine
 62
7
  6
CONTINUOUS
 10
33.8852664508
 20
28.5520555509
 11
33.75
 21
28.4167891002
  0
LINE
  5
2EB
100
AcDbEntity
  8
RACCORDO
100
AcDbLine
 62
253
  6
CONTINUOUS
 10
33.35
 20
1.8667891002
 11
33.65
 21
1.8667891002
  0
LINE
  5
2EC
100
AcDbEntity
  8
RACCORDO
100
AcDbLine
 62
253
  6
CONTINUOUS
 10
-33.35
 20
1.8667891002
 11
-33.65
 21
1.8667891002
  0
LINE
  5
2ED
100
AcDbEntity
  8
COPY-PUBBLISH
100
AcDbLine
 62
7
  6
CONTINUOUS
 10
35.0
 20
1.9167891002
 11
34.1863433895
 21
1.9167891002
  0
LINE
  5
2EE
100
AcDbEntity
  8
COPY-PUBBLISH
100
AcDbLine
 62
7
  6
CONTINUOUS
 10
34.1662715936
 20
1.9167891002
 11
34.1540539787
 21
1.9167891002
  0
LINE
  5
2EF
100
AcDbEntity
  8
COPY-PUBBLISH
100
AcDbLine
 62
7
  6
CONTINUOUS
 10
-34.1540539787
 20
1.9167891002
 11
-34.1662715936
 21
1.9167891002
  0
LINE
  5
2F0
100
AcDbEntity
  8
COPY-PUBBLISH
100
AcDbLine
 62
7
  6
CONTINUOUS
 10
-34.1863433895
 20
1.9167891002
 11
-35.0
 21
1.9167891002
  0
LINE
  5
2F1
100
AcDbEntity
  8
0
100
AcDbLine
 62
7
  6
CONTINUOUS
 10
23.92458
 20
1.9439241002
 11
24.201652
 21
1.9439241002
  0
LINE
  5
2F2
100
AcDbEntity
  8
0
100
AcDbLine
 62
7
  6
CONTINUOUS
 10
25.192713
 20
1.9439241002
 11
25.46962
 21
1.9439241002
  0
LINE
  5
2F3
100
AcDbEntity
  8
0
100
AcDbLine
 62
7
  6
CONTINUOUS
 10
26.243466
 20
1.9439241002
 11
26.528995
 21
1.9439241002
  0
LINE
  5
2F4
100
AcDbEntity
  8
0
100
AcDbLine
 62
7
  6
CONTINUOUS
 10
27.768443
 20
1.9439241002
 11
28.07105
 21
1.9439241002
  0
LINE
  5
2F5
100
AcDbEntity
  8
0
100
AcDbLine
 62
7
  6
CONTINUOUS
 10
28.325241
 20
1.9439241002
 11
29.641625
 21
1.9439241002
  0
LINE
  5
2F6
100
AcDbEntity
  8
0
100
AcDbLine
 62
7
  6
CONTINUOUS
 10
30.081526
 20
1.9439241002
 11
30.358432
 21
1.9439241002
  0
LINE
  5
2F7
100
AcDbEntity
  8
RACCORDO
100
AcDbLine
 62
7
  6
CONTINUOUS
 10
-34.168889654
 20
2.1667891002
 11
-33.95
 21
2.1667891002
  0
LINE
  5
2F8
100
AcDbEntity
  8
RACCORDO
100
AcDbLine
 62
7
  6
CONTINUOUS
 10
33.95
 20
2.1667891002
 11
34.168889654
 21
2.1667891002
  0
LINE
  5
2F9
100
AcDbEntity
  8
0
100
AcDbLine
 62
7
  6
CONTINUOUS
 10
29.641625
 20
2.1893261002
 11
28.602147
 21
2.1893261002
  0
LINE
  5
2FA
100
AcDbEntity
  8
RACCORDO
100
AcDbLine
 62
253
  6
CONTINUOUS
 10
-34.168889654
 20
2.4667891002
 11
-33.95
 21
2.4667891002
  0
LINE
  5
2FB
100
AcDbEntity
  8
RACCORDO
100
AcDbLine
 62
253
  6
CONTINUOUS
 10
33.95
 20
2.4667891002
 11
34.168889654
 21
2.4667891002
  0
LINE
  5
2FC
100
AcDbEntity
  8
0
100
AcDbLine
 62
7
  6
CONTINUOUS
 10
26.743225
 20
2.5408491002
 11
27.565654
 21
2.5408491002
  0
LINE
  5
2FD
100
AcDbEntity
  8
0
100
AcDbLine
 62
7
  6
CONTINUOUS
 10
27.465669
 20
2.7862511002
 11
26.828784
 21
2.7862511002
  0
LINE
  5
2FE
100
AcDbEntity
  8
0
100
AcDbLine
 62
7
  6
CONTINUOUS
 10
24.498788
 20
3.7496211002
 11
25.192713
 21
3.7496211002
  0
LINE
  5
2FF
100
AcDbEntity
  8
0
100
AcDbLine
 62
7
  6
CONTINUOUS
 10
25.46962
 20
3.7496211002
 11
26.163545
 21
3.7496211002
  0
LINE
  5
300
100
AcDbEntity
  8
RACCORDO
100
AcDbLine
 62
7
  6
CONTINUOUS
 10
-31.9857406735
 20
37.496182855
 11
-31.1563469186
 21
36.6667891002
  0
LINE
  5
301
100
AcDbEntity
  8
0
100
AcDbLine
 62
7
  6
CONTINUOUS
 10
-7.453814
 20
25.8939851002
 11
-6.249285
 21
22.0944431002
  0
LINE
  5
302
100
AcDbEntity
  8
0
100
AcDbLine
 62
7
  6
CONTINUOUS
 10
-5.867986
 20
23.2786431002
 11
-6.592247
 21
25.8939851002
  0
LINE
  5
303
100
AcDbEntity
  8
RACCORDO
100
AcDbLine
 62
7
  6
CONTINUOUS
 10
10.25
 20
-35.1355920541
 11
10.2825330615
 21
-35.265773875
  0
LINE
  5
304
100
AcDbEntity
  8
RACCORDO
100
AcDbLine
 62
7
  6
CONTINUOUS
 10
11.25
 20
-32.0308297456
 11
11.2174669385
 21
-31.9006479246
  0
LINE
  5
305
100
AcDbEntity
  8
0
100
AcDbLine
 62
7
  6
CONTINUOUS
 10
4.5210141587
 20
25.8495942785
 11
4.5210141587
 21
22.0944431614
  0
LINE
  5
306
100
AcDbEntity
  8
0
100
AcDbLine
 62
7
  6
CONTINUOUS
 10
5.284638007
 20
24.2036473933
 11
5.284638007
 21
25.2466958557
  0
LINE
  5
307
100
AcDbEntity
  8
0
100
AcDbLine
 62
7
  6
CONTINUOUS
 10
5.310936459
 20
22.0944431614
 11
5.310936459
 21
23.5813741629
  0
LINE
  5
308
100
AcDbEntity
  8
0
100
AcDbLine
 62
7
  6
CONTINUOUS
 10
6.5600701904
 20
23.8680358374
 11
6.5600701904
 21
23.8904878203
  0
LINE
  5
309
100
AcDbEntity
  8
RACCORDO
100
AcDbLine
 62
7
  6
CONTINUOUS
 10
-1.0
 20
-32.0308297456
 11
-0.9674669385
 21
-31.9006479246
  0
LINE
  5
30A
100
AcDbEntity
  8
ASSI
100
AcDbLine
 62
7
  6
CONTINUOUS
 10
-28.7285676582
 20
4.2970035598
 11
-28.618001
 21
4.2992901002
  0
LINE
  5
30B
100
AcDbEntity
  8
0
100
AcDbLine
 62
7
  6
CONTINUOUS
 10
31.132279
 20
3.9950231002
 11
30.806789
 21
3.9950231002
  0
LINE
  5
30C
100
AcDbEntity
  8
0
100
AcDbLine
 62
7
  6
CONTINUOUS
 10
29.630184
 20
3.9950231002
 11
29.307513
 21
3.9950231002
  0
LINE
  5
30D
100
AcDbEntity
  8
0
100
AcDbLine
 62
7
  6
CONTINUOUS
 10
28.602147
 20
3.9950231002
 11
28.325241
 21
3.9950231002
  0
LINE
  5
30E
100
AcDbEntity
  8
0
100
AcDbLine
 62
7
  6
CONTINUOUS
 10
27.328542
 20
3.9950231002
 11
27.014494
 21
3.9950231002
  0
LINE
  5
30F
100
AcDbEntity
  8
0
100
AcDbLine
 62
7
  6
CONTINUOUS
 10
26.163545
 20
3.9950231002
 11
24.498788
 21
3.9950231002
  0
LINE
  5
310
100
AcDbEntity
  8
0
100
AcDbLine
 62
7
  6
CONTINUOUS
 10
24.201652
 20
3.9950231002
 11
23.92458
 21
3.9950231002
  0
LINE
  5
311
100
AcDbEntity
  8
0
100
AcDbLine
 62
7
  6
CONTINUOUS
 10
26.250596
 20
4.8920681002
 11
26.527669
 21
4.8920681002
  0
LINE
  5
312
100
AcDbEntity
  8
0
100
AcDbLine
 62
7
  6
CONTINUOUS
 10
27.00156
 20
4.8920681002
 11
27.270176
 21
4.8920681002
  0
LINE
  5
313
100
AcDbEntity
  8
0
100
AcDbLine
 62
7
  6
CONTINUOUS
 10
28.318111
 20
4.8920681002
 11
28.629341
 21
4.8920681002
  0
LINE
  5
314
100
AcDbEntity
  8
ASSI
100
AcDbLine
 62
7
  6
CONTINUOUS
 10
-26.345853
 20
5.5792881002
 11
-25.031402
 21
5.5792881002
  0
LINE
  5
315
100
AcDbEntity
  8
ASSI
100
AcDbLine
 62
7
  6
CONTINUOUS
 10
-25.031402
 20
6.2542881002
 11
-26.3458557008
 21
6.2542881002
  0
LINE
  5
316
100
AcDbEntity
  8
0
100
AcDbLine
 62
7
  6
CONTINUOUS
 10
28.629341
 20
6.9415101002
 11
28.361056
 21
6.9415101002
  0
LINE
  5
317
100
AcDbEntity
  8
0
100
AcDbLine
 62
7
  6
CONTINUOUS
 10
27.330035
 20
6.9415101002
 11
27.00156
 21
6.9415101002
  0
LINE
  5
318
100
AcDbEntity
  8
0
100
AcDbLine
 62
7
  6
CONTINUOUS
 10
26.527669
 20
6.9415101002
 11
26.250596
 21
6.9415101002
  0
LINE
  5
319
100
AcDbEntity
  8
RACCORDO
100
AcDbLine
 62
7
  6
CONTINUOUS
 10
31.1563469186
 20
-24.8332108998
 11
31.757780698
 21
-25.4346446791
  0
LINE
  5
31A
100
AcDbEntity
  8
0
100
AcDbLine
 62
7
  6
CONTINUOUS
 10
-1.884725
 20
24.5754731002
 11
-0.954306
 21
22.0944431002
  0
LINE
  5
31B
100
AcDbEntity
  8
DRAFT
100
AcDbLine
 62
7
  6
CONTINUOUS
 10
10.25
 20
-32.0308297456
 11
10.25
 21
-35.1355920541
  0
LINE
  5
31C
100
AcDbEntity
  8
RACCORDO
100
AcDbLine
 62
7
  6
CONTINUOUS
 10
10.2892709051
 20
-31.101135263
 11
10.2892709051
 21
-36.0652865366
  0
LINE
  5
31D
100
AcDbEntity
  8
RACCORDO
100
AcDbLine
 62
7
  6
CONTINUOUS
 10
0.0
 20
-35.1355920541
 11
-0.0325330615
 21
-35.265773875
  0
LINE
  5
31E
100
AcDbEntity
  8
0
100
AcDbLine
 62
7
  6
CONTINUOUS
 10
23.50209
 20
7.8402131002
 11
23.77054
 21
7.8402131002
  0
LINE
  5
31F
100
AcDbEntity
  8
0
100
AcDbLine
 62
7
  6
CONTINUOUS
 10
24.347401
 20
7.8402131002
 11
24.621489
 21
7.8402131002
  0
LINE
  5
320
100
AcDbEntity
  8
0
100
AcDbLine
 62
7
  6
CONTINUOUS
 10
25.198351
 20
7.8402131002
 11
25.466801
 21
7.8402131002
  0
LINE
  5
321
100
AcDbEntity
  8
0
100
AcDbLine
 62
7
  6
CONTINUOUS
 10
25.712369
 20
7.8402131002
 11
25.997898
 21
7.8402131002
  0
LINE
  5
322
100
AcDbEntity
  8
0
100
AcDbLine
 62
7
  6
CONTINUOUS
 10
27.237346
 20
7.8402131002
 11
27.539953
 21
7.8402131002
  0
LINE
  5
323
100
AcDbEntity
  8
0
100
AcDbLine
 62
7
  6
CONTINUOUS
 10
27.808403
 20
7.8402131002
 11
28.639291461
 21
7.8402131002
  0
LINE
  5
324
100
AcDbEntity
  8
0
100
AcDbLine
 62
7
  6
CONTINUOUS
 10
29.884375
 20
7.8402131002
 11
31.39791
 21
7.8402131002
  0
LINE
  5
325
100
AcDbEntity
  8
0
100
AcDbLine
 62
7
  6
CONTINUOUS
 10
28.6021427702
 20
8.0773241002
 11
28.08531
 21
8.0773241002
  0
LINE
  5
326
100
AcDbEntity
  8
0
100
AcDbLine
 62
7
  6
CONTINUOUS
 10
31.39791
 20
8.0856151002
 11
30.161447
 21
8.0856151002
  0
LINE
  5
327
100
AcDbEntity
  8
0
100
AcDbLine
 62
7
  6
CONTINUOUS
 10
26.212128
 20
8.4371371002
 11
27.034557
 21
8.4371371002
  0
LINE
  5
328
100
AcDbEntity
  8
0
100
AcDbLine
 62
7
  6
CONTINUOUS
 10
26.934572
 20
8.6825401002
 11
26.297853
 21
8.6825401002
  0
LINE
  5
329
100
AcDbEntity
  8
0
100
AcDbLine
 62
7
  6
CONTINUOUS
 10
30.161447
 20
8.7704201002
 11
31.283665
 21
8.7704201002
  0
LINE
  5
32A
100
AcDbEntity
  8
0
100
AcDbLine
 62
7
  6
CONTINUOUS
 10
31.283665
 20
9.0158231002
 11
30.161447
 21
9.0158231002
  0
LINE
  5
32B
100
AcDbEntity
  8
RACCORDO
100
AcDbLine
 62
253
  6
CONTINUOUS
 10
34.168889654
 20
9.3667891002
 11
33.95
 21
9.3667891002
  0
LINE
  5
32C
100
AcDbEntity
  8
RACCORDO
100
AcDbLine
 62
253
  6
CONTINUOUS
 10
-33.95
 20
9.3667891002
 11
-34.168889654
 21
9.3667891002
  0
LINE
  5
32D
100
AcDbEntity
  8
0
100
AcDbLine
 62
7
  6
CONTINUOUS
 10
30.161447
 20
9.6442521002
 11
31.377847
 21
9.6442521002
  0
LINE
  5
32E
100
AcDbEntity
  8
0
100
AcDbLine
 62
7
  6
CONTINUOUS
 10
28.08531
 20
9.6525421002
 11
28.6021495845
 21
9.6525421002
  0
LINE
  5
32F
100
AcDbEntity
  8
RACCORDO
100
AcDbLine
 62
7
  6
CONTINUOUS
 10
34.168889654
 20
9.6667891002
 11
33.95
 21
9.6667891002
  0
LINE
  5
330
100
AcDbEntity
  8
RACCORDO
100
AcDbLine
 62
7
  6
CONTINUOUS
 10
-33.95
 20
9.6667891002
 11
-34.168889654
 21
9.6667891002
  0
LINE
  5
331
100
AcDbEntity
  8
0
100
AcDbLine
 62
7
  6
CONTINUOUS
 10
31.377847
 20
9.8896541002
 11
29.884375
 21
9.8896541002
  0
LINE
  5
332
100
AcDbEntity
  8
0
100
AcDbLine
 62
7
  6
CONTINUOUS
 10
28.6392889761
 20
9.8896541002
 11
27.808403
 21
9.8896541002
  0
LINE
  5
333
100
AcDbEntity
  8
0
100
AcDbLine
 62
7
  6
CONTINUOUS
 10
26.797445
 20
9.8896541002
 11
26.483397
 21
9.8896541002
  0
LINE
  5
334
100
AcDbEntity
  8
0
100
AcDbLine
 62
7
  6
CONTINUOUS
 10
25.466801
 20
9.8896541002
 11
25.072665
 21
9.8896541002
  0
LINE
  5
335
100
AcDbEntity
  8
0
100
AcDbLine
 62
7
  6
CONTINUOUS
 10
23.899045
 20
9.8896541002
 11
23.50209
 21
9.8896541002
  0
LINE
  5
336
100
AcDbEntity
  8
COPY-PUBBLISH
100
AcDbLine
 62
7
  6
CONTINUOUS
 10
35.0
 20
9.9167891002
 11
34.1863433895
 21
9.9167891002
  0
LINE
  5
337
100
AcDbEntity
  8
COPY-PUBBLISH
100
AcDbLine
 62
7
  6
CONTINUOUS
 10
-34.1662715936
 20
9.9167891002
 11
-34.1540539787
 21
9.9167891002
  0
LINE
  5
338
100
AcDbEntity
  8
COPY-PUBBLISH
100
AcDbLine
 62
7
  6
CONTINUOUS
 10
34.1540539787
 20
9.9167891002
 11
34.1662715936
 21
9.9167891002
  0
LINE
  5
339
100
AcDbEntity
  8
COPY-PUBBLISH
100
AcDbLine
 62
7
  6
CONTINUOUS
 10
-34.1863433895
 20
9.9167891002
 11
-35.0
 21
9.9167891002
  0
LINE
  5
33A
100
AcDbEntity
  8
RACCORDO
100
AcDbLine
 62
253
  6
CONTINUOUS
 10
33.35
 20
9.9667891002
 11
33.65
 21
9.9667891002
  0
LINE
  5
33B
100
AcDbEntity
  8
RACCORDO
100
AcDbLine
 62
253
  6
CONTINUOUS
 10
-33.35
 20
9.9667891002
 11
-33.65
 21
9.9667891002
  0
LINE
  5
33C
100
AcDbEntity
  8
0
100
AcDbLine
 62
7
  6
CONTINUOUS
 10
-0.894359
 20
23.7844681002
 11
-1.679095
 21
25.8939851002
  0
LINE
  5
33D
100
AcDbEntity
  8
0
100
AcDbLine
 62
7
  6
CONTINUOUS
 10
4.288118
 20
22.0944431002
 11
3.122324
 21
25.8939851002
  0
LINE
  5
33E
100
AcDbEntity
  8
0
100
AcDbLine
 62
7
  6
CONTINUOUS
 10
3.24675
 20
22.8529671002
 11
3.452209
 21
22.0944431002
  0
LINE
  5
33F
100
AcDbEntity
  8
0
100
AcDbLine
 62
7
  6
CONTINUOUS
 10
2.723801
 20
24.8499681002
 11
3.088247
 21
23.4399091002
  0
LINE
  5
340
100
AcDbEntity
  8
RACCORDO
100
AcDbLine
 62
7
  6
CONTINUOUS
 10
11.2107290949
 20
-36.0652865366
 11
11.2107290949
 21
-31.101135263
  0
LINE
  5
341
100
AcDbEntity
  8
DRAFT
100
AcDbLine
 62
7
  6
CONTINUOUS
 10
11.25
 20
-32.0308297456
 11
11.25
 21
-35.1355920541
  0
LINE
  5
342
100
AcDbEntity
  8
COPY-PUBBLISH
100
AcDbLine
 62
253
  6
CONTINUOUS
 10
-35.8
 20
11.6167891002
 11
-34.1863433895
 21
11.6167891002
  0
LINE
  5
343
100
AcDbEntity
  8
COPY-PUBBLISH
100
AcDbLine
 62
253
  6
CONTINUOUS
 10
34.1863433895
 20
11.6167891002
 11
35.8
 21
11.6167891002
  0
LINE
  5
344
100
AcDbEntity
  8
COPY-PUBBLISH
100
AcDbLine
 62
7
  6
CONTINUOUS
 10
-35.8
 20
11.9167891002
 11
-34.1715077143
 21
11.9167891002
  0
LINE
  5
345
100
AcDbEntity
  8
COPY-PUBBLISH
100
AcDbLine
 62
7
  6
CONTINUOUS
 10
34.1715077143
 20
11.9167891002
 11
35.8
 21
11.9167891002
  0
LINE
  5
346
100
AcDbEntity
  8
COPY-PUBBLISH
100
AcDbLine
 62
253
  6
CONTINUOUS
 10
35.8
 20
12.2167891002
 11
34.168889654
 21
12.2167891002
  0
LINE
  5
347
100
AcDbEntity
  8
COPY-PUBBLISH
100
AcDbLine
 62
253
  6
CONTINUOUS
 10
-34.168889654
 20
12.2167891002
 11
-35.8
 21
12.2167891002
  0
LINE
  5
348
100
AcDbEntity
  8
DRAFT
100
AcDbLine
 62
7
  6
CONTINUOUS
 10
33.75
 20
-16.5832108998
 11
33.8852664508
 21
-16.7184773506
  0
LINE
  5
349
100
AcDbEntity
  8
RACCORDO
100
AcDbLine
 62
7
  6
CONTINUOUS
 10
34.1419775344
 20
-37.7675898832
 11
34.1425878274
 21
-37.7688014451
  0
LINE
  5
34A
100
AcDbEntity
  8
RACCORDO
100
AcDbLine
 62
7
  6
CONTINUOUS
 10
21.5
 20
-35.1355920541
 11
21.5325330615
 21
-35.265773875
  0
LINE
  5
34B
100
AcDbEntity
  8
RACCORDO
100
AcDbLine
 62
7
  6
CONTINUOUS
 10
22.5
 20
-32.0308297456
 11
22.4674669385
 21
-31.9006479246
  0
LINE
  5
34C
100
AcDbEntity
  8
RACCORDO
100
AcDbLine
 62
7
  6
CONTINUOUS
 10
10.25
 20
-32.0308297456
 11
10.2825330615
 21
-31.9006479246
  0
LINE
  5
34D
100
AcDbEntity
  8
COPY-PUBBLISH
100
AcDbLine
 62
253
  6
CONTINUOUS
 10
-34.0890415236
 20
16.2167891002
 11
-33.8736469235
 21
16.2167891002
  0
LINE
  5
34E
100
AcDbEntity
  8
COPY-PUBBLISH
100
AcDbLine
 62
253
  6
CONTINUOUS
 10
34.0890415236
 20
16.2167891002
 11
33.8736469235
 21
16.2167891002
  0
LINE
  5
34F
100
AcDbEntity
  8
RACCORDO
100
AcDbLine
 62
7
  6
CONTINUOUS
 10
11.25
 20
-35.1355920541
 11
11.2174669385
 21
-35.265773875
  0
LINE
  5
350
100
AcDbEntity
  8
0
100
AcDbLine
 62
7
  6
CONTINUOUS
 10
24.621489
 20
7.8402131002
 11
25.198351
 21
9.5613451002
  0
LINE
  5
351
100
AcDbEntity
  8
0
100
AcDbLine
 62
7
  6
CONTINUOUS
 10
25.072665
 20
9.8896541002
 11
24.487271
 21
8.1483041002
  0
LINE
  5
352
100
AcDbEntity
  8
DRAFT
100
AcDbLine
 62
7
  6
CONTINUOUS
 10
33.9332642236
 20
23.053470882
 11
34.0292597693
 21
23.0618694039
  0
LINE
  5
353
100
AcDbEntity
  8
DRAFT
100
AcDbLine
 62
7
  6
CONTINUOUS
 10
-34.0292597693
 20
23.0618694039
 11
-33.9332642236
 21
23.053470882
  0
LINE
  5
354
100
AcDbEntity
  8
DRAFT
100
AcDbLine
 62
7
  6
CONTINUOUS
 10
21.5
 20
-32.0308297456
 11
21.5
 21
-35.1355920541
  0
LINE
  5
355
100
AcDbEntity
  8
RACCORDO
100
AcDbLine
 62
7
  6
CONTINUOUS
 10
21.5392709051
 20
-31.101135263
 11
21.5392709051
 21
-36.0652865366
  0
LINE
  5
356
100
AcDbEntity
  8
RACCORDO
100
AcDbLine
 62
7
  6
CONTINUOUS
 10
22.4607290949
 20
-36.0652865366
 11
22.4607290949
 21
-31.101135263
  0
LINE
  5
357
100
AcDbEntity
  8
DRAFT
100
AcDbLine
 62
7
  6
CONTINUOUS
 10
22.5
 20
-32.0308297456
 11
22.5
 21
-35.1355920541
  0
LINE
  5
358
100
AcDbEntity
  8
0
100
AcDbLine
 62
7
  6
CONTINUOUS
 10
23.50209
 20
9.8896541002
 11
23.50209
 21
7.8402131002
  0
LINE
  5
359
100
AcDbEntity
  8
0
100
AcDbLine
 62
7
  6
CONTINUOUS
 10
23.77054
 20
7.8402131002
 11
23.77054
 21
9.5580291002
  0
LINE
  5
35A
100
AcDbEntity
  8
0
100
AcDbLine
 62
7
  6
CONTINUOUS
 10
23.92458
 20
3.9950231002
 11
23.92458
 21
1.9439241002
  0
LINE
  5
35B
100
AcDbEntity
  8
0
100
AcDbLine
 62
7
  6
CONTINUOUS
 10
24.201652
 20
1.9439241002
 11
24.201652
 21
3.9950231002
  0
LINE
  5
35C
100
AcDbEntity
  8
0
100
AcDbLine
 62
7
  6
CONTINUOUS
 10
24.498788
 20
3.9950231002
 11
24.498788
 21
3.7496211002
  0
LINE
  5
35D
100
AcDbEntity
  8
DRAFT
100
AcDbLine
 62
7
  6
CONTINUOUS
 10
34.2125239929
 20
37.7675898832
 11
34.1514359184
 21
37.5231444968
  0
LINE
  5
35E
100
AcDbEntity
  8
RACCORDO
100
AcDbLine
 62
7
  6
CONTINUOUS
 10
34.1446980748
 20
35.246182855
 11
33.7674537356
 21
33.7366306392
  0
LINE
  5
35F
100
AcDbEntity
  8
0
100
AcDbLine
 62
7
  6
CONTINUOUS
 10
25.997898
 20
7.8402131002
 11
26.212128
 21
8.4371371002
  0
LINE
  5
360
100
AcDbEntity
  8
0
100
AcDbLine
 62
7
  6
CONTINUOUS
 10
26.528995
 20
1.9439241002
 11
26.743225
 21
2.5408491002
  0
LINE
  5
361
100
AcDbEntity
  8
0
100
AcDbLine
 62
7
  6
CONTINUOUS
 10
26.297853
 20
8.6825401002
 11
26.629094
 21
9.5926171002
  0
LINE
  5
362
100
AcDbEntity
  8
0
100
AcDbLine
 62
7
  6
CONTINUOUS
 10
26.828784
 20
2.7862511002
 11
27.160192
 21
3.6963261002
  0
LINE
  5
363
100
AcDbEntity
  8
0
100
AcDbLine
 62
7
  6
CONTINUOUS
 10
27.014494
 20
3.9950231002
 11
26.243466
 21
1.9439241002
  0
LINE
  5
364
100
AcDbEntity
  8
0
100
AcDbLine
 62
7
  6
CONTINUOUS
 10
26.483397
 20
9.8896541002
 11
25.712369
 21
7.8402131002
  0
LINE
  5
365
100
AcDbEntity
  8
0
100
AcDbLine
 62
7
  6
CONTINUOUS
 10
30.806789
 20
3.9950231002
 11
30.218487
 21
3.0100981002
  0
LINE
  5
366
100
AcDbEntity
  8
0
100
AcDbLine
 62
7
  6
CONTINUOUS
 10
30.358432
 20
2.7696701002
 11
31.132279
 21
3.9950231002
  0
LINE
  5
367
100
AcDbEntity
  8
COPY-PUBBLISH
100
AcDbLine
 62
7
  6
CONTINUOUS
 10
35.8
 20
21.8167891002
 11
34.2125239929
 21
21.8167891002
  0
LINE
  5
368
100
AcDbEntity
  8
DRAFT
100
AcDbLine
 62
7
  6
CONTINUOUS
 10
34.1808401316
 20
21.8167891002
 11
34.2125239929
 21
21.8167891002
  0
LINE
  5
369
100
AcDbEntity
  8
DRAFT
100
AcDbLine
 62
7
  6
CONTINUOUS
 10
-34.1808401316
 20
21.8167891002
 11
-34.2125239929
 21
21.8167891002
  0
LINE
  5
36A
100
AcDbEntity
  8
COPY-PUBBLISH
100
AcDbLine
 62
7
  6
CONTINUOUS
 10
-34.2125239929
 20
21.8167891002
 11
-35.8
 21
21.8167891002
  0
LINE
  5
36B
100
AcDbEntity
  8
0
100
AcDbLine
 62
7
  6
CONTINUOUS
 10
-6.249285
 20
22.0944431002
 11
-5.550353
 21
22.0944431002
  0
LINE
  5
36C
100
AcDbEntity
  8
0
100
AcDbLine
 62
7
  6
CONTINUOUS
 10
-4.034701
 20
22.0944431002
 11
-3.241588
 21
22.0944431002
  0
LINE
  5
36D
100
AcDbEntity
  8
0
100
AcDbLine
 62
7
  6
CONTINUOUS
 10
-2.81463
 20
22.0944431002
 11
-2.055878
 21
22.0944431002
  0
LINE
  5
36E
100
AcDbEntity
  8
0
100
AcDbLine
 62
7
  6
CONTINUOUS
 10
-0.954306
 20
22.0944431002
 11
-0.843072
 21
22.0944431002
  0
LINE
  5
36F
100
AcDbEntity
  8
0
100
AcDbLine
 62
7
  6
CONTINUOUS
 10
0.262887
 20
22.0944431002
 11
1.038763
 21
22.0944431002
  0
LINE
  5
370
100
AcDbEntity
  8
0
100
AcDbLine
 62
7
  6
CONTINUOUS
 10
1.163303
 20
22.0944431002
 11
1.947812
 21
22.0944431002
  0
LINE
  5
371
100
AcDbEntity
  8
0
100
AcDbLine
 62
7
  6
CONTINUOUS
 10
3.452209
 20
22.0944431002
 11
4.288118
 21
22.0944431002
  0
LINE
  5
372
100
AcDbEntity
  8
0
100
AcDbLine
 62
7
  6
CONTINUOUS
 10
4.5210141587
 20
22.0944431614
 11
5.310936459
 21
22.0944431614
  0
LINE
  5
373
100
AcDbEntity
  8
0
100
AcDbLine
 62
7
  6
CONTINUOUS
 10
6.5254804604
 20
22.0944431614
 11
7.2883635073
 21
22.0944431614
  0
LINE
  5
374
100
AcDbEntity
  8
0
100
AcDbLine
 62
7
  6
CONTINUOUS
 10
2.166662
 20
22.8529671002
 11
3.24675
 21
22.8529671002
  0
LINE
  5
375
100
AcDbEntity
  8
DRAFT
100
AcDbLine
 62
7
  6
CONTINUOUS
 10
-34.1776165217
 20
23.4167891002
 11
-34.168889654
 21
23.4167891002
  0
LINE
  5
376
100
AcDbEntity
  8
DRAFT
100
AcDbLine
 62
7
  6
CONTINUOUS
 10
34.1776165217
 20
23.4167891002
 11
34.168889654
 21
23.4167891002
  0
LINE
  5
377
100
AcDbEntity
  8
0
100
AcDbLine
 62
7
  6
CONTINUOUS
 10
3.088247
 20
23.4399091002
 11
2.328897
 21
23.4399091002
  0
LINE
  5
378
100
AcDbEntity
  8
0
100
AcDbLine
 62
7
  6
CONTINUOUS
 10
5.310936459
 20
23.5813741629
 11
5.7361849921
 21
23.5813741629
  0
LINE
  5
379
100
AcDbEntity
  8
0
100
AcDbLine
 62
7
  6
CONTINUOUS
 10
5.737894534
 20
24.2036473933
 11
5.284638007
 21
24.2036473933
  0
LINE
  5
37A
100
AcDbEntity
  8
RACCORDO
100
AcDbLine
 62
7
  6
CONTINUOUS
 10
34.1419775344
 20
-37.7675898832
 11
33.9113328211
 21
-36.844659565
  0
LINE
  5
37B
100
AcDbEntity
  8
RACCORDO
100
AcDbLine
 62
7
  6
CONTINUOUS
 10
33.8590858474
 20
-35.1355920541
 11
33.8963630476
 21
-35.2847576612
  0
LINE
  5
37C
100
AcDbEntity
  8
0
100
AcDbLine
 62
7
  6
CONTINUOUS
 10
25.192713
 20
3.7496211002
 11
25.192713
 21
1.9439241002
  0
LINE
  5
37D
100
AcDbEntity
  8
0
100
AcDbLine
 62
7
  6
CONTINUOUS
 10
25.198351
 20
9.5613451002
 11
25.198351
 21
7.8402131002
  0
LINE
  5
37E
100
AcDbEntity
  8
0
100
AcDbLine
 62
7
  6
CONTINUOUS
 10
25.466801
 20
7.8402131002
 11
25.466801
 21
9.8896541002
  0
LINE
  5
37F
100
AcDbEntity
  8
0
100
AcDbLine
 62
7
  6
CONTINUOUS
 10
25.46962
 20
1.9439241002
 11
25.46962
 21
3.7496211002
  0
LINE
  5
380
100
AcDbEntity
  8
0
100
AcDbLine
 62
7
  6
CONTINUOUS
 10
26.163545
 20
3.7496211002
 11
26.163545
 21
3.9950231002
  0
LINE
  5
381
100
AcDbEntity
  8
0
100
AcDbLine
 62
7
  6
CONTINUOUS
 10
26.250596
 20
6.9415101002
 11
26.250596
 21
4.8920681002
  0
LINE
  5
382
100
AcDbEntity
  8
0
100
AcDbLine
 62
7
  6
CONTINUOUS
 10
26.527669
 20
4.8920681002
 11
26.527669
 21
6.9415101002
  0
LINE
  5
383
100
AcDbEntity
  8
0
100
AcDbLine
 62
7
  6
CONTINUOUS
 10
27.00156
 20
6.9415101002
 11
27.00156
 21
4.8920681002
  0
LINE
  5
384
100
AcDbEntity
  8
0
100
AcDbLine
 62
7
  6
CONTINUOUS
 10
27.270176
 20
4.8920681002
 11
27.270176
 21
6.5574941002
  0
LINE
  5
385
100
AcDbEntity
  8
0
100
AcDbLine
 62
7
  6
CONTINUOUS
 10
27.808403
 20
9.8896541002
 11
27.808403
 21
7.8402131002
  0
LINE
  5
386
100
AcDbEntity
  8
0
100
AcDbLine
 62
7
  6
CONTINUOUS
 10
28.08531
 20
8.0773241002
 11
28.08531
 21
9.6525421002
  0
LINE
  5
387
100
AcDbEntity
  8
RACCORDO
100
AcDbLine
 62
253
  6
CONTINUOUS
 10
28.1029336756
 20
-30.3736862829
 11
28.1029336755
 21
-31.9006479246
  0
LINE
  5
388
100
AcDbEntity
  8
0
100
AcDbLine
 62
7
  6
CONTINUOUS
 10
3.122324
 20
25.8939851002
 11
2.355082
 21
25.8939851002
  0
LINE
  5
389
100
AcDbEntity
  8
0
100
AcDbLine
 62
7
  6
CONTINUOUS
 10
0.683463
 20
25.8939851002
 11
-0.101245
 21
25.8939851002
  0
LINE
  5
38A
100
AcDbEntity
  8
0
100
AcDbLine
 62
7
  6
CONTINUOUS
 10
-1.679095
 20
25.8939851002
 11
-2.471553
 21
25.8939851002
  0
LINE
  5
38B
100
AcDbEntity
  8
0
100
AcDbLine
 62
7
  6
CONTINUOUS
 10
-4.329028
 20
25.8939851002
 11
-5.1216
 21
25.8939851002
  0
LINE
  5
38C
100
AcDbEntity
  8
0
100
AcDbLine
 62
7
  6
CONTINUOUS
 10
-6.592247
 20
25.8939851002
 11
-7.453814
 21
25.8939851002
  0
LINE
  5
38D
100
AcDbEntity
  8
0
100
AcDbLine
 62
7
  6
CONTINUOUS
 10
-3.241588
 20
25.8942131002
 11
-4.034701
 21
25.8942131002
  0
LINE
  5
38E
100
AcDbEntity
  8
0
100
AcDbLine
 62
7
  6
CONTINUOUS
 10
29.307513
 20
3.9950231002
 11
30.081526
 21
2.7696701002
  0
LINE
  5
38F
100
AcDbEntity
  8
0
100
AcDbLine
 62
7
  6
CONTINUOUS
 10
27.270176
 20
6.5574941002
 11
28.318111
 21
4.8920681002
  0
LINE
  5
390
100
AcDbEntity
  8
0
100
AcDbLine
 62
7
  6
CONTINUOUS
 10
28.361056
 20
5.2773351002
 11
27.330035
 21
6.9415101002
  0
LINE
  5
391
100
AcDbEntity
  8
0
100
AcDbLine
 62
7
  6
CONTINUOUS
 10
30.218487
 20
3.0100981002
 11
29.630184
 21
3.9950231002
  0
LINE
  5
392
100
AcDbEntity
  8
0
100
AcDbLine
 62
7
  6
CONTINUOUS
 10
28.07105
 20
1.9439241002
 11
27.328542
 21
3.9950231002
  0
LINE
  5
393
100
AcDbEntity
  8
0
100
AcDbLine
 62
7
  6
CONTINUOUS
 10
27.565654
 20
2.5408491002
 11
27.768443
 21
1.9439241002
  0
LINE
  5
394
100
AcDbEntity
  8
0
100
AcDbLine
 62
7
  6
CONTINUOUS
 10
24.487271
 20
8.1483041002
 11
23.899045
 21
9.8896541002
  0
LINE
  5
395
100
AcDbEntity
  8
0
100
AcDbLine
 62
7
  6
CONTINUOUS
 10
23.77054
 20
9.5580291002
 11
24.347401
 21
7.8402131002
  0
LINE
  5
396
100
AcDbEntity
  8
0
100
AcDbLine
 62
7
  6
CONTINUOUS
 10
27.160192
 20
3.6963261002
 11
27.465669
 21
2.7862511002
  0
LINE
  5
397
100
AcDbEntity
  8
DRAFT
100
AcDbLine
 62
7
  6
CONTINUOUS
 10
33.7674537356
 20
-21.9030524388
 11
34.1427090506
 21
-23.4046455269
  0
LINE
  5
398
100
AcDbEntity
  8
0
100
AcDbLine
 62
7
  6
CONTINUOUS
 10
34.1427090506
 20
-23.4046455269
 11
34.1446980748
 21
-23.4126046547
  0
LINE
  5
399
100
AcDbEntity
  8
0
100
AcDbLine
 62
7
  6
CONTINUOUS
 10
28.325241
 20
3.9950231002
 11
28.325241
 21
1.9439241002
  0
LINE
  5
39A
100
AcDbEntity
  8
0
100
AcDbLine
 62
7
  6
CONTINUOUS
 10
28.361056
 20
6.9415101002
 11
28.361056
 21
5.2773351002
  0
LINE
  5
39B
100
AcDbEntity
  8
0
100
AcDbLine
 62
7
  6
CONTINUOUS
 10
28.602147
 20
2.1893261002
 11
28.602147
 21
3.9950231002
  0
LINE
  5
39C
100
AcDbEntity
  8
0
100
AcDbLine
 62
7
  6
CONTINUOUS
 10
28.629341
 20
4.8920681002
 11
28.629341
 21
6.9415101002
  0
LINE
  5
39D
100
AcDbEntity
  8
0
100
AcDbLine
 62
7
  6
CONTINUOUS
 10
29.641625
 20
1.9439241002
 11
29.641625
 21
2.1893261002
  0
LINE
  5
39E
100
AcDbEntity
  8
0
100
AcDbLine
 62
7
  6
CONTINUOUS
 10
29.884375
 20
9.8896541002
 11
29.884375
 21
7.8402131002
  0
LINE
  5
39F
100
AcDbEntity
  8
0
100
AcDbLine
 62
7
  6
CONTINUOUS
 10
30.081526
 20
2.7696701002
 11
30.081526
 21
1.9439241002
  0
LINE
  5
3A0
100
AcDbEntity
  8
0
100
AcDbLine
 62
7
  6
CONTINUOUS
 10
30.161447
 20
8.0856151002
 11
30.161447
 21
8.7704201002
  0
LINE
  5
3A1
100
AcDbEntity
  8
0
100
AcDbLine
 62
7
  6
CONTINUOUS
 10
30.161447
 20
9.0158231002
 11
30.161447
 21
9.6442521002
  0
LINE
  5
3A2
100
AcDbEntity
  8
0
100
AcDbLine
 62
7
  6
CONTINUOUS
 10
30.358432
 20
1.9439241002
 11
30.358432
 21
2.7696701002
  0
LINE
  5
3A3
100
AcDbEntity
  8
RACCORDO
100
AcDbLine
 62
253
  6
CONTINUOUS
 10
31.1011061566
 20
-30.2725801262
 11
31.1011094299
 21
-30.9730641913
  0
LINE
  5
3A4
100
AcDbEntity
  8
0
100
AcDbLine
 62
7
  6
CONTINUOUS
 10
31.283665
 20
8.7704201002
 11
31.283665
 21
9.0158231002
  0
LINE
  5
3A5
100
AcDbEntity
  8
0
100
AcDbLine
 62
7
  6
CONTINUOUS
 10
31.377847
 20
9.6442521002
 11
31.377847
 21
9.8896541002
  0
LINE
  5
3A6
100
AcDbEntity
  8
0
100
AcDbLine
 62
7
  6
CONTINUOUS
 10
31.39791
 20
7.8402131002
 11
31.39791
 21
8.0856151002
  0
LINE
  5
3A7
100
AcDbEntity
  8
RACCORDO
100
AcDbLine
 62
7
  6
CONTINUOUS
 10
21.5
 20
-32.0308297456
 11
21.5325330615
 21
-31.9006479246
  0
LINE
  5
3A8
100
AcDbEntity
  8
RACCORDO
100
AcDbLine
 62
7
  6
CONTINUOUS
 10
22.5
 20
-35.1355920541
 11
22.4674669385
 21
-35.265773875
  0
LINE
  5
3A9
100
AcDbEntity
  8
DRAFT
100
AcDbLine
 62
7
  6
CONTINUOUS
 10
-33.75
 20
28.4167891002
 11
-33.65
 21
28.4167891002
  0
LINE
  5
3AA
100
AcDbEntity
  8
DRAFT
100
AcDbLine
 62
7
  6
CONTINUOUS
 10
33.65
 20
28.4167891002
 11
33.75
 21
28.4167891002
  0
LINE
  5
3AB
100
AcDbEntity
  8
DRAFT
100
AcDbLine
 62
7
  6
CONTINUOUS
 10
-33.8852664508
 20
28.5520555509
 11
-33.65
 21
28.5520555509
  0
LINE
  5
3AC
100
AcDbEntity
  8
DRAFT
100
AcDbLine
 62
7
  6
CONTINUOUS
 10
33.8852664508
 20
28.5520555509
 11
33.65
 21
28.5520555509
  0
LINE
  5
3AD
100
AcDbEntity
  8
0
100
AcDbLine
 62
7
  6
CONTINUOUS
 10
27.539953
 20
7.8402131002
 11
26.797445
 21
9.8896541002
  0
LINE
  5
3AE
100
AcDbEntity
  8
0
100
AcDbLine
 62
7
  6
CONTINUOUS
 10
27.034557
 20
8.4371371002
 11
27.237346
 21
7.8402131002
  0
LINE
  5
3AF
100
AcDbEntity
  8
0
100
AcDbLine
 62
7
  6
CONTINUOUS
 10
26.629094
 20
9.5926171002
 11
26.934572
 21
8.6825401002
  0
LINE
  5
3B0
100
AcDbEntity
  8
DRAFT
100
AcDbLine
 62
7
  6
CONTINUOUS
 10
34.1907068234
 20
-9.9832108998
 11
34.2125239929
 21
-11.4265865728
  0
LINE
  5
3B1
100
AcDbEntity
  8
DRAFT
100
AcDbLine
 62
7
  6
CONTINUOUS
 10
34.1808401316
 20
21.8167891002
 11
34.1776165217
 21
23.4167891002
  0
LINE
  5
3B2
100
AcDbEntity
  8
DRAFT
100
AcDbLine
 62
7
  6
CONTINUOUS
 10
31.757780698
 20
-25.4346446791
 11
31.757780698
 21
-29.6159055849
  0
LINE
  5
3B3
100
AcDbEntity
  8
RACCORDO
100
AcDbLine
 62
253
  6
CONTINUOUS
 10
31.7832002104
 20
-29.132146881
 11
31.7832002104
 21
-27.0832108998
  0
LINE
  5
3B4
100
AcDbEntity
  8
RACCORDO
100
AcDbLine
 62
253
  6
CONTINUOUS
 10
31.9857406735
 20
36.6667891002
 11
31.9857406735
 21
37.496182855
  0
LINE
  5
3B5
100
AcDbEntity
  8
RACCORDO
100
AcDbLine
 62
253
  6
CONTINUOUS
 10
32.4113899366
 20
-36.7927355168
 11
32.4113899366
 21
-35.265773875
  0
LINE
  5
3B6
100
AcDbEntity
  8
RACCORDO
100
AcDbLine
 62
253
  6
CONTINUOUS
 10
32.5827128721
 20
-29.132146881
 11
32.5827128721
 21
-27.0832574528
  0
LINE
  5
3B7
100
AcDbEntity
  8
0
100
AcDbLine
 62
253
  6
CONTINUOUS
 10
32.7852533351
 20
-24.8332108998
 11
32.7852533351
 21
-25.5832108998
  0
LINE
  5
3B8
100
AcDbEntity
  8
RACCORDO
100
AcDbLine
 62
253
  6
CONTINUOUS
 10
32.7852533351
 20
36.6667891002
 11
32.7852533351
 21
37.5231444968
  0
LINE
  5
3B9
100
AcDbEntity
  8
RACCORDO
100
AcDbLine
 62
253
  6
CONTINUOUS
 10
33.3500000029
 20
-24.8332108998
 11
33.35
 21
1.8667891002
  0
LINE
  5
3BA
100
AcDbEntity
  8
RACCORDO
100
AcDbLine
 62
253
  6
CONTINUOUS
 10
33.35
 20
9.9667891002
 11
33.35
 21
36.6667891002
  0
LINE
  5
3BB
100
AcDbEntity
  8
RACCORDO
100
AcDbLine
 62
7
  6
CONTINUOUS
 10
33.65
 20
-24.5332108998
 11
33.65
 21
1.8667891002
  0
LINE
  5
3BC
100
AcDbEntity
  8
RACCORDO
100
AcDbLine
 62
7
  6
CONTINUOUS
 10
33.65
 20
9.9667891002
 11
33.65
 21
36.3667891002
  0
LINE
  5
3BD
100
AcDbEntity
  8
DRAFT
100
AcDbLine
 62
7
  6
CONTINUOUS
 10
33.75
 20
28.4167891002
 11
33.75
 21
9.7432470748
  0
LINE
  5
3BE
100
AcDbEntity
  8
DRAFT
100
AcDbLine
 62
7
  6
CONTINUOUS
 10
33.75
 20
2.0903311255
 11
33.75
 21
-16.5832108998
  0
LINE
  5
3BF
100
AcDbEntity
  8
DRAFT
100
AcDbLine
 62
7
  6
CONTINUOUS
 10
33.7674537356
 20
33.7366306392
 11
33.7674537356
 21
31.8346018154
  0
LINE
  5
3C0
100
AcDbEntity
  8
DRAFT
100
AcDbLine
 62
7
  6
CONTINUOUS
 10
33.7674537356
 20
-20.001023615
 11
33.7674537356
 21
-21.9030524388
  0
LINE
  5
3C1
100
AcDbEntity
  8
DRAFT
100
AcDbLine
 62
7
  6
CONTINUOUS
 10
33.8590858474
 20
-32.0308297456
 11
33.8590858474
 21
-35.1355920541
  0
LINE
  5
3C2
100
AcDbEntity
  8
DRAFT
100
AcDbLine
 62
7
  6
CONTINUOUS
 10
33.8736469235
 20
-4.3832108998
 11
33.8736469235
 21
2.1564875661
  0
LINE
  5
3C3
100
AcDbEntity
  8
DRAFT
100
AcDbLine
 62
7
  6
CONTINUOUS
 10
33.8736469235
 20
9.6770906343
 11
33.8736469235
 21
16.2167891002
  0
LINE
  5
3C4
100
AcDbEntity
  8
DRAFT
100
AcDbLine
 62
7
  6
CONTINUOUS
 10
33.8852664508
 20
-16.7184773506
 11
33.8852664508
 21
-19.8832108998
  0
LINE
  5
3C5
100
AcDbEntity
  8
DRAFT
100
AcDbLine
 62
7
  6
CONTINUOUS
 10
33.8852664508
 20
28.5520555509
 11
33.8852664508
 21
31.7167891002
  0
LINE
  5
3C6
100
AcDbEntity
  8
RACCORDO
100
AcDbLine
 62
253
  6
CONTINUOUS
 10
33.91133359
 20
-36.1449713969
 11
33.9113328211
 21
-36.844659565
  0
LINE
  5
3C7
100
AcDbEntity
  8
RACCORDO
100
AcDbLine
 62
253
  6
CONTINUOUS
 10
33.95
 20
2.4667891002
 11
33.95
 21
2.1667891002
  0
LINE
  5
3C8
100
AcDbEntity
  8
RACCORDO
100
AcDbLine
 62
253
  6
CONTINUOUS
 10
33.95
 20
9.3667891002
 11
33.95
 21
9.6667891002
  0
LINE
  5
3C9
100
AcDbEntity
  8
DRAFT
100
AcDbLine
 62
7
  6
CONTINUOUS
 10
34.0890415236
 20
16.2167891002
 11
34.0890415236
 21
9.6667891002
  0
LINE
  5
3CA
100
AcDbEntity
  8
DRAFT
100
AcDbLine
 62
7
  6
CONTINUOUS
 10
34.0890415236
 20
2.1667891002
 11
34.0890415236
 21
-4.3832108998
  0
LINE
  5
3CB
100
AcDbEntity
  8
RACCORDO
100
AcDbLine
 62
7
  6
CONTINUOUS
 10
34.1008200852
 20
-29.132146881
 11
34.1008200852
 21
-27.0832108998
  0
LINE
  5
3CC
100
AcDbEntity
  8
RACCORDO
100
AcDbLine
 62
7
  6
CONTINUOUS
 10
34.109546953
 20
-27.9753081905
 11
34.109546953
 21
-27.0832108998
  0
LINE
  5
3CD
100
AcDbEntity
  8
COPY-PUBBLISH
100
AcDbLine
 62
7
  6
CONTINUOUS
 10
34.1427090506
 20
-23.4046455269
 11
34.1427090506
 21
-10.2832108998
  0
LINE
  5
3CE
100
AcDbEntity
  8
0
100
AcDbLine
 62
7
  6
CONTINUOUS
 10
34.1514359184
 20
-24.7832108998
 11
34.1514359184
 21
-24.2121173163
  0
LINE
  5
3CF
100
AcDbEntity
  8
RACCORDO
100
AcDbLine
 62
7
  6
CONTINUOUS
 10
34.1514359184
 20
36.0456955166
 11
34.1514359184
 21
37.5231444968
  0
LINE
  5
3D0
100
AcDbEntity
  8
COPY-PUBBLISH
100
AcDbLine
 62
7
  6
CONTINUOUS
 10
34.1601627862
 20
-27.2695024008
 11
34.1601627862
 21
-11.8832108998
  0
LINE
  5
3D1
100
AcDbEntity
  8
COPY-PUBBLISH
100
AcDbLine
 62
7
  6
CONTINUOUS
 10
34.168889654
 20
9.6167891002
 11
34.168889654
 21
2.2167891002
  0
LINE
  5
3D2
100
AcDbEntity
  8
COPY-PUBBLISH
100
AcDbLine
 62
7
  6
CONTINUOUS
 10
34.168889654
 20
-9.9832108998
 11
34.168889654
 21
-0.3832108998
  0
LINE
  5
3D3
100
AcDbEntity
  8
COPY-PUBBLISH
100
AcDbLine
 62
7
  6
CONTINUOUS
 10
34.168889654
 20
12.2167891002
 11
34.168889654
 21
23.4167891002
  0
LINE
  5
3D4
100
AcDbEntity
  8
COPY-PUBBLISH
100
AcDbLine
 62
7
  6
CONTINUOUS
 10
34.1791802037
 20
1.9167891002
 11
34.1791802037
 21
9.9167891002
  0
LINE
  5
3D5
100
AcDbEntity
  8
COPY-PUBBLISH
100
AcDbLine
 62
7
  6
CONTINUOUS
 10
34.1863433895
 20
0.2167891002
 11
34.1863433895
 21
1.9167891002
  0
LINE
  5
3D6
100
AcDbEntity
  8
COPY-PUBBLISH
100
AcDbLine
 62
7
  6
CONTINUOUS
 10
34.1863433895
 20
9.9167891002
 11
34.1863433895
 21
11.6167891002
  0
LINE
  5
3D7
100
AcDbEntity
  8
DRAFT
100
AcDbLine
 62
7
  6
CONTINUOUS
 10
34.2125239929
 20
37.7675898832
 11
34.2125239929
 21
21.8167891002
  0
LINE
  5
3D8
100
AcDbEntity
  8
RACCORDO
100
AcDbLine
 62
7
  6
CONTINUOUS
 10
34.2125239929
 20
-11.4265865728
 11
34.2125239929
 21
-29.7547837751
  0
LINE
  5
3D9
100
AcDbEntity
  8
COPY-PUBBLISH
100
AcDbLine
 62
7
  6
CONTINUOUS
 10
35.0
 20
1.9167891002
 11
35.0
 21
9.9167891002
  0
LINE
  5
3DA
100
AcDbEntity
  8
DRAFT
100
AcDbLine
 62
7
  6
CONTINUOUS
 10
34.1808401316
 20
-9.9832108998
 11
34.1776165217
 21
-11.5832108998
  0
LINE
  5
3DB
100
AcDbEntity
  8
RACCORDO
100
AcDbLine
 62
7
  6
CONTINUOUS
 10
34.1550507054
 20
-28.6837159632
 11
34.1539187178
 21
-28.8134288859
  0
LINE
  5
3DC
100
AcDbEntity
  8
RACCORDO
100
AcDbLine
 62
7
  6
CONTINUOUS
 10
34.1549283158
 20
-37.1830217916
 11
34.2074119121
 21
-31.1689973374
  0
LINE
  5
3DD
100
AcDbEntity
  8
DRAFT
100
AcDbLine
 62
7
  6
CONTINUOUS
 10
-33.8852664508
 20
31.7167891002
 11
-33.65
 21
31.7167891002
  0
LINE
  5
3DE
100
AcDbEntity
  8
DRAFT
100
AcDbLine
 62
7
  6
CONTINUOUS
 10
33.8852664508
 20
31.7167891002
 11
33.65
 21
31.7167891002
  0
LINE
  5
3DF
100
AcDbEntity
  8
DRAFT
100
AcDbLine
 62
7
  6
CONTINUOUS
 10
-33.7674537356
 20
31.8346018154
 11
-33.65
 21
31.8346018154
  0
LINE
  5
3E0
100
AcDbEntity
  8
DRAFT
100
AcDbLine
 62
7
  6
CONTINUOUS
 10
33.7674537356
 20
31.8346018154
 11
33.65
 21
31.8346018154
  0
LINE
  5
3E1
100
AcDbEntity
  8
0
100
AcDbLine
 62
7
  6
CONTINUOUS
 10
-33.7674537356
 20
33.7366306392
 11
-33.65
 21
33.7366306392
  0
LINE
  5
3E2
100
AcDbEntity
  8
0
100
AcDbLine
 62
7
  6
CONTINUOUS
 10
33.65
 20
33.7366306392
 11
33.7674537356
 21
33.7366306392
  0
LINE
  5
3E3
100
AcDbEntity
  8
RACCORDO
100
AcDbLine
 62
7
  6
CONTINUOUS
 10
35.8
 20
-11.4265865728
 11
35.8
 21
-37.7688014442
  0
LINE
  5
3E4
100
AcDbEntity
  8
COPY-PUBBLISH
100
AcDbLine
 62
7
  6
CONTINUOUS
 10
35.8
 20
-11.4265865728
 11
35.8
 21
37.7675898832
  0
LINE
  5
3E5
100
AcDbEntity
  8
DRAFT
100
AcDbLine
 62
7
  6
CONTINUOUS
 10
33.7674537356
 20
-20.001023615
 11
33.8852664508
 21
-19.8832108998
  0
LINE
  5
3E6
100
AcDbEntity
  8
RACCORDO
100
AcDbLine
 62
253
  6
CONTINUOUS
 10
34.1446980748
 20
35.246182855
 11
33.65
 21
35.246182855
  0
LINE
  5
3E7
100
AcDbEntity
  8
RACCORDO
100
AcDbLine
 62
253
  6
CONTINUOUS
 10
-33.65
 20
35.246182855
 11
-34.1446980748
 21
35.246182855
  0
LINE
  5
3E8
100
AcDbEntity
  8
RACCORDO
100
AcDbLine
 62
253
  6
CONTINUOUS
 10
34.1514359184
 20
36.0456955166
 11
33.65
 21
36.0456955166
  0
LINE
  5
3E9
100
AcDbEntity
  8
RACCORDO
100
AcDbLine
 62
253
  6
CONTINUOUS
 10
-33.65
 20
36.0456955166
 11
-34.1514359184
 21
36.0456955166
  0
LINE
  5
3EA
100
AcDbEntity
  8
RACCORDO
100
AcDbLine
 62
253
  6
CONTINUOUS
 10
33.65
 20
36.3667891031
 11
-33.65
 21
36.3667891002
  0
LINE
  5
3EB
100
AcDbEntity
  8
RACCORDO
100
AcDbLine
 62
7
  6
CONTINUOUS
 10
33.35
 20
36.6667891002
 11
-33.35
 21
36.6667891002
  0
LINE
  5
3EC
100
AcDbEntity
  8
RACCORDO
100
AcDbLine
 62
7
  6
CONTINUOUS
 10
-34.1514359184
 20
37.5231444968
 11
-32.7852533351
 21
37.5231444968
  0
LINE
  5
3ED
100
AcDbEntity
  8
RACCORDO
100
AcDbLine
 62
7
  6
CONTINUOUS
 10
32.7852533351
 20
37.5231444968
 11
34.1514359184
 21
37.5231444968
  0
LINE
  5
3EE
100
AcDbEntity
  8
COPY-PUBBLISH
100
AcDbLine
 62
7
  6
CONTINUOUS
 10
35.8
 20
37.7675898832
 11
34.2125239929
 21
37.7675898832
  0
LINE
  5
3EF
100
AcDbEntity
  8
COPY-PUBBLISH
100
AcDbLine
 62
7
  6
CONTINUOUS
 10
-34.2125239929
 20
37.7675898832
 11
-35.8
 21
37.7675898832
  0
LINE
  5
3F0
100
AcDbEntity
  8
RACCORDO
100
AcDbLine
 62
7
  6
CONTINUOUS
 10
34.1421861896
 20
-29.3979969776
 11
34.1230940996
 21
-29.474394431
  0
LINE
  5
3F1
100
AcDbEntity
  8
RACCORDO
100
AcDbLine
 62
7
  6
CONTINUOUS
 10
33.8590858474
 20
-32.0308297456
 11
34.0839754762
 21
-31.1309285351
  0
LINE
  5
3F2
100
AcDbEntity
  8
RACCORDO
100
AcDbLine
 62
7
  6
CONTINUOUS
 10
34.1230940996
 20
-29.474394431
 11
34.1226326731
 21
-29.4752425616
  0
LINE
  5
3F3
100
AcDbEntity
  8
RACCORDO
100
AcDbLine
 62
7
  6
CONTINUOUS
 10
31.757780698
 20
-29.6159055849
 11
31.1011061566
 21
-30.2725801262
  0
LINE
  5
3F4
100
AcDbEntity
  8
RACCORDO
100
AcDbLine
 62
253
  6
CONTINUOUS
 10
31.1011094299
 20
-30.9730641913
 11
31.7427577478
 21
-30.3314158735
  0
LINE
  5
3F5
100
AcDbEntity
  8
RACCORDO
100
AcDbLine
 62
253
  6
CONTINUOUS
 10
31.9006188183
 20
-31.7725801262
 11
32.5422704094
 21
-31.1309285351
  0
LINE
  5
3F6
100
AcDbEntity
  8
DRAFT
100
AcDbLine
 62
7
  6
CONTINUOUS
 10
33.7674537356
 20
31.8346018154
 11
33.8852664508
 21
31.7167891002
  0
ARC
  5
3F7
100
AcDbEntity
  8
RACCORDO
100
AcDbCircle
 62
253
  6
CONTINUOUS
 10
-32.5434491909
 20
-30.330237092
 40
0.8006990323
100
AcDbArc
 50
270.0843510401
 51
359.9156489599
  0
ARC
  5
3F8
100
AcDbEntity
  8
RACCORDO
100
AcDbCircle
 62
253
  6
CONTINUOUS
 10
-31.9017782606
 20
-30.9719080222
 40
0.8006752328
100
AcDbArc
 50
270.0829691808
 51
359.9170308196
  0
ARC
  5
3F9
100
AcDbEntity
  8
0
100
AcDbCircle
 62
253
  6
CONTINUOUS
 10
-32.7854922435
 20
-24.7835121703
 40
0.7997139424
100
AcDbArc
 50
270.0171170004
 51
356.4357337999
  0
ARC
  5
3FA
100
AcDbEntity
  8
RACCORDO
100
AcDbCircle
 62
253
  6
CONTINUOUS
 10
-32.6632695505
 20
-24.7835121702
 40
0.7997139424
100
AcDbArc
 50
270.0171170172
 51
356.4357337302
  0
ARC
  5
3FB
100
AcDbEntity
  8
RACCORDO
100
AcDbCircle
 62
253
  6
CONTINUOUS
 10
-33.95
 20
1.8667891002
 40
0.5999971519
100
AcDbArc
 50
0.0
 51
90.0
  0
ARC
  5
3FC
100
AcDbEntity
  8
RACCORDO
100
AcDbCircle
 62
7
  6
CONTINUOUS
 10
-33.95
 20
1.8667891002
 40
0.3
100
AcDbArc
 50
0.0
 51
90.0
  0
ARC
  5
3FD
100
AcDbEntity
  8
RACCORDO
100
AcDbCircle
 62
7
  6
CONTINUOUS
 10
-33.35
 20
-24.5332108998
 40
0.3
100
AcDbArc
 50
180.0
 51
270.0
  0
ARC
  5
3FE
100
AcDbEntity
  8
ASSI
100
AcDbCircle
 62
7
  6
CONTINUOUS
 10
-24.761402
 20
5.9167881002
 40
2.2949984646
100
AcDbArc
 50
87.7525288774
 51
272.2474711226
  0
ARC
  5
3FF
100
AcDbEntity
  8
ASSI
100
AcDbCircle
 62
7
  6
CONTINUOUS
 10
-28.708001
 20
5.9167881002
 40
2.2949983861
100
AcDbArc
 50
87.7525288006
 51
272.2474711994
  0
ARC
  5
400
100
AcDbEntity
  8
ASSI
100
AcDbCircle
 62
7
  6
CONTINUOUS
 10
-28.708001
 20
5.9167881002
 40
1.6199999321
100
AcDbArc
 50
86.8152613297
 51
269.2725455975
  0
ARC
  5
401
100
AcDbEntity
  8
ASSI
100
AcDbCircle
 62
7
  6
CONTINUOUS
 10
-24.761402
 20
5.9167881002
 40
1.6199999321
100
AcDbArc
 50
86.8152613297
 51
167.9753003079
  0
ARC
  5
402
100
AcDbEntity
  8
ASSI
100
AcDbCircle
 62
7
  6
CONTINUOUS
 10
-24.761402
 20
5.9167881002
 40
1.6199972906
100
AcDbArc
 50
192.0247195925
 51
273.1847438687
  0
ARC
  5
403
100
AcDbEntity
  8
RACCORDO
100
AcDbCircle
 62
253
  6
CONTINUOUS
 10
-33.95
 20
9.9667891002
 40
0.5999971522
100
AcDbArc
 50
270.0
 51
360.0
  0
ARC
  5
404
100
AcDbEntity
  8
RACCORDO
100
AcDbCircle
 62
7
  6
CONTINUOUS
 10
-33.35
 20
36.3667891002
 40
0.3
100
AcDbArc
 50
90.0
 51
180.0
  0
ARC
  5
405
100
AcDbEntity
  8
RACCORDO
100
AcDbCircle
 62
7
  6
CONTINUOUS
 10
-33.95
 20
9.9667891002
 40
0.3
100
AcDbArc
 50
270.0
 51
360.0
  0
ARC
  5
406
100
AcDbEntity
  8
RACCORDO
100
AcDbCircle
 62
253
  6
CONTINUOUS
 10
32.5434298523
 20
-30.3302564306
 40
0.8006752333
100
AcDbArc
 50
180.0829692147
 51
269.917030782
  0
ARC
  5
407
100
AcDbEntity
  8
RACCORDO
100
AcDbCircle
 62
253
  6
CONTINUOUS
 10
31.9017782606
 20
-30.9719080223
 40
0.8006752327
100
AcDbArc
 50
180.0829691758
 51
269.9170308242
  0
ARC
  5
408
100
AcDbEntity
  8
0
100
AcDbCircle
 62
253
  6
CONTINUOUS
 10
32.785517439
 20
-24.7834926848
 40
0.7997424841
100
AcDbArc
 50
183.5655472659
 51
265.696510434
  0
ARC
  5
409
100
AcDbEntity
  8
RACCORDO
100
AcDbCircle
 62
253
  6
CONTINUOUS
 10
32.6632695544
 20
-24.783512174
 40
0.7997139424
100
AcDbArc
 50
183.5642659239
 51
269.9828827025
  0
ARC
  5
40A
100
AcDbEntity
  8
0
100
AcDbCircle
 62
253
  6
CONTINUOUS
 10
32.7853179821
 20
-24.7856432037
 40
0.7975676987
100
AcDbArc
 50
265.6992058522
 51
269.9953558801
  0
ARC
  5
40B
100
AcDbEntity
  8
RACCORDO
100
AcDbCircle
 62
253
  6
CONTINUOUS
 10
33.95
 20
1.8667891002
 40
0.5999971522
100
AcDbArc
 50
90.0
 51
180.0
  0
ARC
  5
40C
100
AcDbEntity
  8
RACCORDO
100
AcDbCircle
 62
7
  6
CONTINUOUS
 10
33.35
 20
-24.5332108998
 40
0.3
100
AcDbArc
 50
270.0
 51
360.0
  0
ARC
  5
40D
100
AcDbEntity
  8
RACCORDO
100
AcDbCircle
 62
7
  6
CONTINUOUS
 10
33.95
 20
1.8667891002
 40
0.3
100
AcDbArc
 50
90.0
 51
180.0
  0
ARC
  5
40E
100
AcDbEntity
  8
RACCORDO
100
AcDbCircle
 62
253
  6
CONTINUOUS
 10
33.95
 20
9.9667891002
 40
0.5999971519
100
AcDbArc
 50
180.0
 51
270.0
  0
ARC
  5
40F
100
AcDbEntity
  8
RACCORDO
100
AcDbCircle
 62
7
  6
CONTINUOUS
 10
33.95
 20
9.9667891002
 40
0.3
100
AcDbArc
 50
180.0
 51
270.0
  0
ARC
  5
410
100
AcDbEntity
  8
RACCORDO
100
AcDbCircle
 62
7
  6
CONTINUOUS
 10
33.35
 20
36.3667891002
 40
0.3
100
AcDbArc
 50
0.0
 51
90.0
  0
SPLINE
  5
411
100
AcDbEntity
  8
0
100
AcDbSpline
 62
7
  6
CONTINUOUS
 70
0
 71
3
 72
8
 73
4
 74
2
 42
0.0000001
 43
0.0000001
 44
0.0000000001
 12
-0.2298018524
 22
0.8435258728
 32
0.0
 13
-0.8120871601
 23
0.3238197551
 33
0.0
 40
0.0
 40
0.0
 40
0.0
 40
0.0
 40
1.0
 40
1.0
 40
1.0
 40
1.0
 10
7.0172301712
 20
23.1228180563
 30
0.0
 10
6.9406295538
 20
23.4039933472
 30
0.0
 10
6.8307659104
 20
23.7600959191
 30
0.0
 10
6.5600701904
 20
23.8680358374
 30
0.0
 11
7.0172301712
 21
23.1228180563
 31
0.0
 11
6.5600701904
 21
23.8680358374
 31
0.0
  0
SPLINE
  5
412
100
AcDbEntity
  8
0
100
AcDbSpline
 62
7
  6
CONTINUOUS
 70
0
 71
3
 72
13
 73
9
 74
7
 42
0.0000001
 43
0.0000001
 44
0.0000000001
 12
2.3378611664
 22
0.3016595053
 32
0.0
 13
-2.2173670215
 23
0.7999229852
 33
0.0
 40
0.0
 40
0.0
 40
0.0
 40
0.0
 40
0.1681286212
 40
0.3210213193
 40
0.5165149301
 40
0.6775881912
 40
0.8108866346
 40
1.0
 40
1.0
 40
1.0
 40
1.0
 10
6.5600701904
 20
23.8904878203
 30
0.0
 10
6.6910906485
 20
23.9073936858
 30
0.0
 10
6.8754403562
 20
24.1329706805
 30
0.0
 10
7.0764268754
 20
24.4750762653
 30
0.0
 10
7.1192475148
 20
24.8903537647
 30
0.0
 10
7.0356625345
 20
25.2721909657
 30
0.0
 10
6.829635336
 20
25.5967588956
 30
0.0
 10
6.6180750189
 20
25.7591656235
 30
0.0
 10
6.4782971056
 20
25.8095909994
 30
0.0
 11
6.5600701904
 21
23.8904878203
 31
0.0
 11
6.8678874452
 21
24.1401236677
 31
0.0
 11
7.0393803131
 21
24.4571127926
 31
0.0
 11
7.0948433708
 21
24.9145888606
 31
0.0
 11
7.0084046615
 21
25.284307557
 31
0.0
 11
6.8407413453
 21
25.5500540555
 31
0.0
 11
6.4782971056
 21
25.8095909994
 31
0.0
  0
SPLINE
  5
413
100
AcDbEntity
  8
0
100
AcDbSpline
 62
7
  6
CONTINUOUS
 70
0
 71
3
 72
9
 73
5
 74
3
 42
0.0000001
 43
0.0000001
 44
0.0000000001
 12
-1.8490833515
 22
0.6680315285
 32
0.0
 13
-1.9451189551
 23
-0.2861601197
 33
0.0
 40
0.0
 40
0.0
 40
0.0
 40
0.0
 40
0.108204615
 40
1.0
 40
1.0
 40
1.0
 40
1.0
 10
6.4782971056
 20
25.8095909994
 30
0.0
 10
6.4116039883
 20
25.8336856975
 30
0.0
 10
5.7793541574
 20
26.0139831796
 30
0.0
 10
5.0992301945
 20
25.9346597032
 30
0.0
 10
4.5210141587
 20
25.8495942785
 30
0.0
 11
6.4782971056
 21
25.8095909994
 31
0.0
 11
6.2742187675
 21
25.8696640326
 31
0.0
 11
4.5210141587
 21
25.8495942785
 31
0.0
  0
SPLINE
  5
414
100
AcDbEntity
  8
0
100
AcDbSpline
 62
7
  6
CONTINUOUS
 70
0
 71
3
 72
9
 73
5
 74
3
 42
0.0000001
 43
0.0000001
 44
0.0000000001
 12
0.5693427171
 22
0.0
 32
0.0
 13
0.2000440944
 23
-0.5330417336
 33
0.0
 40
0.0
 40
0.0
 40
0.0
 40
0.0
 40
0.1435863572
 40
1.0
 40
1.0
 40
1.0
 40
1.0
 10
5.7361849921
 20
23.5813741629
 30
0.0
 10
5.763434941
 20
23.5813741629
 30
0.0
 10
5.9537656504
 20
23.5679192082
 30
0.0
 10
6.121564575
 20
23.3987569565
 30
0.0
 10
6.1786714055
 20
23.2465888856
 30
0.0
 11
5.7361849921
 21
23.5813741629
 31
0.0
 11
5.8176281887
 21
23.5743000432
 31
0.0
 11
6.1786714055
 21
23.2465888856
 31
0.0
  0
SPLINE
  5
415
100
AcDbEntity
  8
0
100
AcDbSpline
 62
7
  6
CONTINUOUS
 70
0
 71
3
 72
9
 73
5
 74
3
 42
0.0000001
 43
0.0000001
 44
0.0000000001
 12
0.4231569679
 22
-1.1263576533
 32
0.0
 13
0.3324634843
 23
-1.1563785774
 33
0.0
 40
0.0
 40
0.0
 40
0.0
 40
0.0
 40
0.8657275665
 40
1.0
 40
1.0
 40
1.0
 40
1.0
 10
6.1786714055
 20
23.2465888856
 30
0.0
 10
6.3007842895
 20
22.9215492622
 30
0.0
 10
6.3978960756
 20
22.5310372493
 30
0.0
 10
6.5106002334
 20
22.1461997499
 30
0.0
 10
6.5254804604
 20
22.0944431614
 30
0.0
 11
6.1786714055
 21
23.2465888856
 31
0.0
 11
6.4806152265
 21
22.2496481913
 31
0.0
 11
6.5254804604
 21
22.0944431614
 31
0.0
  0
SPLINE
  5
416
100
AcDbEntity
  8
0
100
AcDbSpline
 62
7
  6
CONTINUOUS
 70
0
 71
3
 72
9
 73
5
 74
3
 42
0.0000001
 43
0.0000001
 44
0.0000000001
 12
-0.2787501557
 22
1.0263367552
 32
0.0
 13
-0.2795600015
 23
1.0261164602
 33
0.0
 40
0.0
 40
0.0
 40
0.0
 40
0.0
 40
0.1980141723
 40
1.0
 40
1.0
 40
1.0
 40
1.0
 10
7.2883635073
 20
22.0944431614
 30
0.0
 10
7.2699646802
 20
22.1621862357
 30
0.0
 10
7.1799106656
 20
22.5050674656
 30
0.0
 10
7.0919645576
 20
22.8485077701
 30
0.0
 10
7.0172301712
 20
23.1228180563
 30
0.0
 11
7.2883635073
 21
22.0944431614
 31
0.0
 11
7.2343833881
 21
22.2979988427
 31
0.0
 11
7.0172301712
 21
23.1228180563
 31
0.0
  0
SPLINE
  5
417
100
AcDbEntity
  8
0
100
AcDbSpline
 62
7
  6
CONTINUOUS
 70
0
 71
3
 72
9
 73
5
 74
3
 42
0.0000001
 43
0.0000001
 44
0.0000000001
 12
0.0146048291
 22
-0.9465029213
 32
0.0
 13
-0.9463795554
 23
-0.0211380768
 33
0.0
 40
0.0
 40
0.0
 40
0.0
 40
0.0
 40
0.5206208722
 40
1.0
 40
1.0
 40
1.0
 40
1.0
 10
6.3539849214
 20
24.7940946531
 30
0.0
 10
6.3565194477
 20
24.6298382609
 30
0.0
 10
6.2404802795
 20
24.2710217882
 30
0.0
 10
5.8891194026
 20
24.2070251109
 30
0.0
 10
5.737894534
 20
24.2036473933
 30
0.0
 11
6.3539849214
 21
24.7940946531
 31
0.0
 11
6.1719115921
 21
24.3361333245
 31
0.0
 11
5.737894534
 21
24.2036473933
 31
0.0
  0
SPLINE
  5
418
100
AcDbEntity
  8
0
100
AcDbSpline
 62
7
  6
CONTINUOUS
 70
0
 71
3
 72
11
 73
7
 74
5
 42
0.0000001
 43
0.0000001
 44
0.0000000001
 12
1.3049532435
 22
0.2226699674
 32
0.0
 13
0.0207025745
 23
-1.3236526302
 33
0.0
 40
0.0
 40
0.0
 40
0.0
 40
0.0
 40
0.2429387748
 40
0.4710498328
 40
0.7362395484
 40
1.0
 40
1.0
 40
1.0
 40
1.0
 10
5.284638007
 20
25.2466958557
 30
0.0
 10
5.3903125877
 20
25.2647275787
 30
0.0
 10
5.5976971039
 20
25.2876700438
 30
0.0
 10
5.9221539762
 20
25.2870637469
 30
0.0
 10
6.2569163959
 20
25.1570230755
 30
0.0
 10
6.3521647479
 20
24.9104703916
 30
0.0
 10
6.3539849214
 20
24.7940946531
 30
0.0
 11
5.284638007
 21
25.2466958557
 31
0.0
 11
5.6042795929
 21
25.2821866566
 31
0.0
 11
5.9059709894
 21
25.2690623614
 31
0.0
 11
6.222699231
 21
25.1176432544
 31
0.0
 11
6.3539849214
 21
24.7940946531
 31
0.0
  0
SPLINE
  5
419
100
AcDbEntity
  8
0
100
AcDbSpline
 62
7
  6
CONTINUOUS
 70
0
 71
3
 72
13
 73
9
 74
7
 42
0.0000001
 43
0.0000001
 44
0.0000000001
 12
1.5054573555
 22
0.0000031715
 32
0.0
 13
0.0
 23
1.5054569964
 33
0.0
 40
0.0
 40
0.0
 40
0.0
 40
0.0
 40
0.2440839901
 40
0.3951668412
 40
0.5865944643
 40
0.7510175421
 40
0.8853894443
 40
1.0
 40
1.0
 40
1.0
 40
1.0
 10
28.639291461
 20
7.8402128671
 30
0.0
 10
28.7617774737
 20
7.8402131251
 30
0.0
 10
28.9642838515
 20
7.8773445769
 30
0.0
 10
29.2162182827
 20
8.037853608
 30
0.0
 10
29.3735157058
 20
8.2454615374
 30
0.0
 10
29.4608307965
 20
8.4772335687
 30
0.0
 10
29.4996711635
 20
8.6821554969
 30
0.0
 10
29.5008132253
 20
8.8074197058
 30
0.0
 10
29.5008132253
 20
8.8649334602
 30
0.0
 11
28.639291461
 21
7.8402128671
 31
0.0
 11
28.9994339129
 21
7.9131703203
 31
0.0
 11
29.1909472276
 21
8.0358714917
 31
0.0
 11
29.3682835827
 21
8.263034471
 31
0.0
 11
29.4585684311
 21
8.4935136983
 31
0.0
 11
29.4950471577
 21
8.6924885707
 31
0.0
 11
29.5008132253
 21
8.8649334602
 31
0.0
  0
SPLINE
  5
41A
100
AcDbEntity
  8
0
100
AcDbSpline
 62
7
  6
CONTINUOUS
 70
0
 71
3
 72
13
 73
9
 74
7
 42
0.0000001
 43
0.0000001
 44
0.0000000001
 12
0.0
 22
1.5054594812
 32
0.0
 13
-1.5054594087
 23
-0.0000006408
 33
0.0
 40
0.0
 40
0.0
 40
0.0
 40
0.0
 40
0.1146103666
 40
0.248982047
 40
0.4134048534
 40
0.6048321605
 40
0.7559147622
 40
1.0
 40
1.0
 40
1.0
 40
1.0
 10
29.5008132253
 20
8.8649334602
 30
0.0
 10
29.5008132253
 20
8.9224472145
 30
0.0
 10
29.4996711635
 20
9.0477114234
 30
0.0
 10
29.4608307965
 20
9.2526333517
 30
0.0
 10
29.3735157058
 20
9.4844053829
 30
0.0
 10
29.2162182827
 20
9.6920133123
 30
0.0
 10
28.9642831426
 20
9.8525227951
 30
0.0
 10
28.761775782
 20
9.8896541054
 30
0.0
 10
28.6392889761
 20
9.8896540532
 30
0.0
 11
29.5008132253
 21
8.8649334602
 31
0.0
 11
29.4950471577
 21
9.0373783496
 31
0.0
 11
29.4585684311
 21
9.236353222
 31
0.0
 11
29.3682835827
 21
9.4668324493
 31
0.0
 11
29.1909472276
 21
9.6939954286
 31
0.0
 11
28.9994339129
 21
9.8166966
 31
0.0
 11
28.6392889761
 21
9.8896540532
 31
0.0
  0
SPLINE
  5
41B
100
AcDbEntity
  8
0
100
AcDbSpline
 62
7
  6
CONTINUOUS
 70
0
 71
3
 72
13
 73
9
 74
7
 42
0.0000001
 43
0.0000001
 44
0.0000000001
 12
1.1298428566
 22
-0.0000030037
 32
0.0
 13
-0.0
 23
-1.1298426942
 33
0.0
 40
0.0
 40
0.0
 40
0.0
 40
0.0
 40
0.1573087829
 40
0.3022011162
 40
0.4829354166
 40
0.6858836259
 40
0.8294043976
 40
1.0
 40
1.0
 40
1.0
 40
1.0
 10
28.6021495845
 20
9.6525423302
 30
0.0
 10
28.6613943194
 20
9.6525421727
 30
0.0
 10
28.7758787918
 20
9.6401328929
 30
0.0
 10
28.946972943
 20
9.5693681245
 30
0.0
 10
29.0906920472
 20
9.4238665719
 30
0.0
 10
29.1750553093
 20
9.2399760246
 30
0.0
 10
29.2083876296
 20
9.0474791116
 30
0.0
 10
29.2165995104
 20
8.9291821918
 30
0.0
 10
29.2165995104
 20
8.8649334602
 30
0.0
 11
28.6021495845
 21
9.6525423302
 31
0.0
 11
28.7785718045
 21
9.630986719
 31
0.0
 11
28.9289636456
 21
9.5663198855
 31
0.0
 11
29.0751272706
 21
9.4237212269
 31
0.0
 11
29.1732053015
 21
9.2164557348
 31
0.0
 11
29.2041293129
 21
9.0572758368
 31
0.0
 11
29.2165995104
 21
8.8649334602
 31
0.0
  0
SPLINE
  5
41C
100
AcDbEntity
  8
0
100
AcDbSpline
 62
7
  6
CONTINUOUS
 70
0
 71
3
 72
13
 73
9
 74
7
 42
0.0000001
 43
0.0000001
 44
0.0000000001
 12
0.0
 22
-1.1298495084
 32
0.0
 13
-1.1298491599
 23
0.0000064421
 33
0.0
 40
0.0
 40
0.0
 40
0.0
 40
0.0
 40
0.1705945735
 40
0.3141144796
 40
0.5170614649
 40
0.6977946753
 40
0.8426861348
 40
1.0
 40
1.0
 40
1.0
 40
1.0
 10
29.2165995104
 20
8.8649334602
 30
0.0
 10
29.2165995104
 20
8.8006847285
 30
0.0
 10
29.2083876296
 20
8.6823878087
 30
0.0
 10
29.1750553093
 20
8.4898908957
 30
0.0
 10
29.0906920472
 20
8.3060003484
 30
0.0
 10
28.946972943
 20
8.1604987958
 30
0.0
 10
28.7758766551
 20
8.0897331436
 30
0.0
 10
28.6613897497
 20
8.0773242523
 30
0.0
 10
28.6021427702
 20
8.0773245901
 30
0.0
 11
29.2165995104
 21
8.8649334602
 31
0.0
 11
29.2041293129
 21
8.6725910835
 31
0.0
 11
29.1732053015
 21
8.5134111855
 31
0.0
 11
29.0751272706
 21
8.3061456934
 31
0.0
 11
28.9289636456
 21
8.1635470348
 31
0.0
 11
28.7785718045
 21
8.0988802013
 31
0.0
 11
28.6021427702
 21
8.0773245901
 31
0.0
  0
SPLINE
  5
41D
100
AcDbEntity
  8
RACCORDO
100
AcDbSpline
 62
7
  6
CONTINUOUS
 70
0
 71
3
 72
18
 73
14
 74
12
 42
0.0000001
 43
0.0000001
 44
0.0000000001
 12
0.208653649
 22
-0.8347333856
 32
0.0
 13
0.0096092544
 23
-0.8603626169
 33
0.0
 40
0.0
 40
0.0
 40
0.0
 40
0.0
 40
0.0110422767
 40
0.0333318631
 40
0.0657484608
 40
0.1072231307
 40
0.1567124686
 40
0.2132655891
 40
0.3440510845
 40
0.4932225995
 40
0.6553246983
 40
0.8256838614
 40
1.0
 40
1.0
 40
1.0
 40
1.0
 10
33.8963630481
 20
-35.2847576612
 30
0.0
 10
33.8971310519
 20
-35.2878301136
 30
0.0
 10
33.8975401609
 20
-35.297463051
 30
0.0
 10
33.8987502907
 20
-35.3162229066
 30
0.0
 10
33.8996005909
 20
-35.3438265522
 30
0.0
 10
33.9006354788
 20
-35.3791854907
 30
0.0
 10
33.9015943969
 20
-35.4214878387
 30
0.0
 10
33.9029498083
 20
-35.4893960674
 30
0.0
 10
33.9045239221
 20
-35.5858974974
 30
0.0
 10
33.9062898328
 20
-35.7126697705
 30
0.0
 10
33.9080034088
 20
-35.8507942048
 30
0.0
 10
33.9096762073
 20
-35.996131054
 30
0.0
 10
33.9107752406
 20
-36.0949797006
 30
0.0
 10
33.91133359
 20
-36.1449713969
 30
0.0
 11
33.8963630481
 21
-35.2847576612
 31
0.0
 11
33.8974245438
 21
-35.2941991318
 31
0.0
 11
33.8984770337
 21
-35.3133485531
 31
0.0
 11
33.8995140713
 21
-35.3412210358
 31
0.0
 11
33.9005325628
 21
-35.3768919796
 31
0.0
 11
33.9015305292
 21
-35.4194617154
 31
0.0
 11
33.9025071147
 21
-35.4681111399
 31
0.0
 11
33.9043961854
 21
-35.5806252516
 31
0.0
 11
33.9062069463
 21
-35.7089620775
 31
0.0
 11
33.9079537192
 21
-35.8484264233
 31
0.0
 11
33.9096536943
 21
-35.994996362
 31
0.0
 11
33.91133359
 21
-36.1449713969
 31
0.0
  0
SPLINE
  5
41E
100
AcDbEntity
  8
RACCORDO
100
AcDbSpline
 62
7
  6
CONTINUOUS
 70
0
 71
3
 72
18
 73
14
 74
12
 42
0.0000001
 43
0.0000001
 44
0.0000000001
 12
0.0096064122
 22
0.8603553323
 32
0.0
 13
0.2086383158
 23
0.8347296773
 33
0.0
 40
0.0
 40
0.0
 40
0.0
 40
0.0
 40
0.1743513395
 40
0.3447134589
 40
0.506825801
 40
0.6559805344
 40
0.7867487993
 40
0.8432969876
 40
0.8927808365
 40
0.9342499989
 40
0.9666672123
 40
0.9889565658
 40
1.0
 40
1.0
 40
1.0
 40
1.0
 10
-33.9113335019
 20
-36.1449640785
 30
0.0
 10
-33.910775205
 20
-36.0949627103
 30
0.0
 10
-33.9096779365
 20
-35.99610394
 30
0.0
 10
-33.9080019829
 20
-35.8507544807
 30
0.0
 10
-33.9062893486
 20
-35.7126322375
 30
0.0
 10
-33.9045235056
 20
-35.5858678585
 30
0.0
 10
-33.9029494713
 20
-35.4893784194
 30
0.0
 10
-33.9015941729
 20
-35.4214786975
 30
0.0
 10
-33.9006353449
 20
-35.3791812786
 30
0.0
 10
-33.8996004396
 20
-35.3438256148
 30
0.0
 10
-33.8987503463
 20
-35.3162236783
 30
0.0
 10
-33.8975403506
 20
-35.297463515
 30
0.0
 10
-33.8971310759
 20
-35.287830422
 30
0.0
 10
-33.8963630481
 20
-35.2847576612
 30
0.0
 11
-33.9113335019
 21
-36.1449640785
 31
0.0
 11
-33.9096543358
 21
-35.9949600216
 31
0.0
 11
-33.907952953
 21
-35.8483888018
 31
0.0
 11
-33.9062062174
 21
-35.7089168275
 31
0.0
 11
-33.9043957522
 21
-35.5805955293
 31
0.0
 11
-33.9025068368
 21
-35.4680971993
 31
0.0
 11
-33.9015303055
 21
-35.4194524321
 31
0.0
 11
-33.9005324128
 21
-35.3768877809
 31
0.0
 11
-33.8995140246
 21
-35.3412218782
 31
0.0
 11
-33.8984771083
 21
-35.3133490982
 31
0.0
 11
-33.8974246766
 21
-35.2942000377
 31
0.0
 11
-33.8963630481
 21
-35.2847576612
 31
0.0
  0
SPLINE
  5
41F
100
AcDbEntity
  8
RACCORDO
100
AcDbSpline
 62
253
  6
CONTINUOUS
 70
0
 71
3
 72
21
 73
17
 74
15
 42
0.0000001
 43
0.0000001
 44
0.0000000001
 12
0.000007574
 22
-2.0000743136
 32
0.0
 13
1.0283906838
 23
-1.7154328497
 33
0.0
 40
0.0
 40
0.0
 40
0.0
 40
0.0
 40
0.1908272224
 40
0.3746281489
 40
0.5446732409
 40
0.6947038571
 40
0.7604626693
 40
0.8192210657
 40
0.8704454351
 40
0.9136641363
 40
0.9484850459
 40
0.9745985896
 40
0.9843168246
 40
0.9917841934
 40
0.9970010759
 40
1.0
 40
1.0
 40
1.0
 40
1.0
 10
-32.5827128721
 20
-29.132146881
 30
0.0
 10
-32.5827123903
 20
-29.2593697563
 30
0.0
 10
-32.5822183109
 20
-29.5091314259
 30
0.0
 10
-32.5800085911
 20
-29.8722548251
 30
0.0
 10
-32.5764244207
 20
-30.2081671167
 30
0.0
 10
-32.5722669922
 20
-30.4653682806
 30
0.0
 10
-32.5682324446
 20
-30.6483628726
 30
0.0
 10
-32.5651007351
 20
-30.7654872875
 30
0.0
 10
-32.5617612498
 20
-30.8675705483
 30
0.0
 10
-32.5582647165
 20
-30.9536829001
 30
0.0
 10
-32.5546312563
 20
-31.0230204065
 30
0.0
 10
-32.5513691096
 20
-31.070030819
 30
0.0
 10
-32.5485085422
 20
-31.0987403102
 30
0.0
 10
-32.5466359194
 20
-31.1135941058
 30
0.0
 10
-32.5447128092
 20
-31.1238104699
 30
0.0
 10
-32.5432984313
 20
-31.1292137174
 30
0.0
 10
-32.5422704094
 20
-31.1309285351
 30
0.0
 11
-32.5827128721
 21
-29.132146881
 31
0.0
 11
-32.5819428913
 21
-29.5138147303
 31
0.0
 11
-32.5796609967
 21
-29.88142316
 31
0.0
 11
-32.5759512352
 21
-30.2215057474
 31
0.0
 11
-32.5709500425
 21
-30.5215364498
 31
0.0
 11
-32.5680210567
 21
-30.6530263429
 31
0.0
 11
-32.5648416017
 21
-30.7705044853
 31
0.0
 11
-32.5614408369
 21
-30.8729005735
 31
0.0
 11
-32.5578500031
 21
-30.9592665719
 31
0.0
 11
-32.5541029236
 21
-31.0288101035
 31
0.0
 11
-32.5502335152
 21
-31.0808956011
 31
0.0
 11
-32.5482635305
 21
-31.1002327052
 31
0.0
 11
-32.5462762092
 21
-31.1150351888
 31
0.0
 11
-32.5442767609
 21
-31.1252759771
 31
0.0
 11
-32.5422704094
 21
-31.1309285351
 31
0.0
  0
SPLINE
  5
420
100
AcDbEntity
  8
RACCORDO
100
AcDbSpline
 62
253
  6
CONTINUOUS
 70
0
 71
3
 72
21
 73
17
 74
15
 42
0.0000001
 43
0.0000001
 44
0.0000000001
 12
1.0283907338
 22
1.7154328196
 32
0.0
 13
0.0000075741
 23
2.0000743136
 33
0.0
 40
0.0
 40
0.0
 40
0.0
 40
0.0
 40
0.0029989241
 40
0.0082158065
 40
0.0156831754
 40
0.0254014104
 40
0.0515149542
 40
0.0863358637
 40
0.1295545649
 40
0.1807789343
 40
0.2395373307
 40
0.3052961429
 40
0.4553267591
 40
0.6253718511
 40
0.8091727776
 40
1.0
 40
1.0
 40
1.0
 40
1.0
 10
32.5422704094
 20
-31.1309285351
 30
0.0
 10
32.5432984313
 20
-31.1292137175
 30
0.0
 10
32.5447128092
 20
-31.1238104699
 30
0.0
 10
32.5466359194
 20
-31.1135941059
 30
0.0
 10
32.5485085422
 20
-31.0987403102
 30
0.0
 10
32.5513691096
 20
-31.070030819
 30
0.0
 10
32.5546312563
 20
-31.0230204065
 30
0.0
 10
32.5582647166
 20
-30.9536829001
 30
0.0
 10
32.5617612498
 20
-30.8675705483
 30
0.0
 10
32.5651007351
 20
-30.7654872875
 30
0.0
 10
32.5682324447
 20
-30.6483628726
 30
0.0
 10
32.5722669922
 20
-30.4653682806
 30
0.0
 10
32.5764244207
 20
-30.2081671167
 30
0.0
 10
32.5800085911
 20
-29.8722548251
 30
0.0
 10
32.5822183109
 20
-29.5091314259
 30
0.0
 10
32.5827123903
 20
-29.2593697563
 30
0.0
 10
32.5827128721
 20
-29.132146881
 30
0.0
 11
32.5422704094
 21
-31.1309285351
 31
0.0
 11
32.5442767609
 21
-31.1252759772
 31
0.0
 11
32.5462762093
 21
-31.1150351889
 31
0.0
 11
32.5482635304
 21
-31.1002327052
 31
0.0
 11
32.5502335152
 21
-31.0808956011
 31
0.0
 11
32.5541029236
 21
-31.0288101035
 31
0.0
 11
32.5578500031
 21
-30.9592665719
 31
0.0
 11
32.5614408369
 21
-30.8729005735
 31
0.0
 11
32.5648416017
 21
-30.7705044853
 31
0.0
 11
32.5680210567
 21
-30.6530263429
 31
0.0
 11
32.5709500425
 21
-30.5215364498
 31
0.0
 11
32.5759512351
 21
-30.2215057474
 31
0.0
 11
32.5796609967
 21
-29.88142316
 31
0.0
 11
32.5819428913
 21
-29.5138147303
 31
0.0
 11
32.5827128721
 21
-29.132146881
 31
0.0
  0
SPLINE
  5
421
100
AcDbEntity
  8
RACCORDO
100
AcDbSpline
 62
253
  6
CONTINUOUS
 70
0
 71
3
 72
20
 73
16
 74
14
 42
0.0000001
 43
0.0000001
 44
0.0000000001
 12
0.0000054429
 22
1.5077373038
 32
0.0
 13
1.5077372946
 23
0.0001673821
 33
0.0
 40
0.0
 40
0.0
 40
0.0
 40
0.0
 40
0.1942315097
 40
0.3809859083
 40
0.5531090489
 40
0.7039978667
 40
0.7696486205
 40
0.8279228605
 40
0.8782752586
 40
0.9202422092
 40
0.9534628964
 40
0.9776897928
 40
0.986415362
 40
0.9929216197
 40
1.0
 40
1.0
 40
1.0
 40
1.0
 10
32.5827126806
 20
-27.0832574528
 30
0.0
 10
32.582713033
 20
-26.9856407552
 30
0.0
 10
32.5837038665
 20
-26.7941636484
 30
0.0
 10
32.5881277041
 20
-26.5162119506
 30
0.0
 10
32.595294337
 20
-26.2601076195
 30
0.0
 10
32.6035978736
 20
-26.0649398694
 30
0.0
 10
32.6116607698
 20
-25.9270551791
 30
0.0
 10
32.6178876262
 20
-25.8396898083
 30
0.0
 10
32.6245213983
 20
-25.7642786298
 30
0.0
 10
32.6314226212
 20
-25.7015930484
 30
0.0
 10
32.6386312628
 20
-25.6520383556
 30
0.0
 10
32.6449753139
 20
-25.6195872253
 30
0.0
 10
32.6507782442
 20
-25.6002482738
 30
0.0
 10
32.6547314183
 20
-25.5904741123
 30
0.0
 10
32.6594741512
 20
-25.5832112949
 30
0.0
 10
32.6630315972
 20
-25.5832108999
 30
0.0
 11
32.5827126806
 21
-27.0832574528
 31
0.0
 11
32.5842577741
 21
-26.7904114361
 31
0.0
 11
32.5888337145
 21
-26.5088720471
 31
0.0
 11
32.596262937
 21
-26.2494619279
 31
0.0
 11
32.6062574519
 21
-26.022180873
 31
0.0
 11
32.6120994354
 21
-25.9233693282
 31
0.0
 11
32.6184308094
 21
-25.8357354997
 31
0.0
 11
32.62519072
 21
-25.7601188677
 31
0.0
 11
32.6323142557
 21
-25.6972459945
 31
0.0
 11
32.6397321662
 21
-25.6477102569
 31
0.0
 11
32.6473732696
 21
-25.6119906072
 31
0.0
 11
32.6512552167
 21
-25.5994205116
 31
0.0
 11
32.6551658088
 21
-25.5904239555
 31
0.0
 11
32.6630315972
 21
-25.5832108999
 31
0.0
  0
SPLINE
  5
422
100
AcDbEntity
  8
RACCORDO
100
AcDbSpline
 62
253
  6
CONTINUOUS
 70
0
 71
3
 72
22
 73
18
 74
16
 42
0.0000001
 43
0.0000001
 44
0.0000000001
 12
3.0066582703
 22
0.0000088536
 32
0.0
 13
1.8635974751
 23
2.3594487503
 33
0.0
 40
0.0
 40
0.0
 40
0.0
 40
0.0
 40
0.190484193
 40
0.3739587918
 40
0.543701468
 40
0.6214459825
 40
0.6934771583
 40
0.7591342746
 40
0.8178234835
 40
0.8690135302
 40
0.9122446475
 40
0.9471443902
 40
0.9734273456
 40
0.983288497
 40
0.9909582453
 40
0.9964790662
 40
1.0
 40
1.0
 40
1.0
 40
1.0
 10
28.1028388251
 20
-31.1011355784
 30
0.0
 10
28.2937457832
 20
-31.1011350162
 30
0.0
 10
28.6685367605
 20
-31.0995694112
 30
0.0
 10
29.2134063946
 20
-31.0925614511
 30
0.0
 10
29.6452250021
 20
-31.0828498484
 30
0.0
 10
29.9652944483
 20
-31.0727271988
 30
0.0
 10
30.1810476476
 20
-31.0644209451
 30
0.0
 10
30.3776499436
 20
-31.0552600092
 30
0.0
 10
30.5533005326
 20
-31.0453419032
 30
0.0
 10
30.7063884887
 20
-31.0347678441
 30
0.0
 10
30.8355372926
 20
-31.0236823898
 30
0.0
 10
30.9395450292
 20
-31.0121924804
 30
0.0
 10
31.0100513666
 20
-31.0017980012
 30
0.0
 10
31.0530173975
 20
-30.9928125372
 30
0.0
 10
31.0753867655
 20
-30.9867248227
 30
0.0
 10
31.0909400451
 20
-30.9807638869
 30
0.0
 10
31.0989222274
 20
-30.9758324993
 30
0.0
 10
31.1011094285
 20
-30.973063345
 30
0.0
 11
28.1028388251
 21
-31.1011355784
 31
0.0
 11
28.6755545022
 21
-31.0986956572
 31
0.0
 11
29.2271525349
 21
-31.0914652161
 31
0.0
 11
29.7373754013
 21
-31.0797118856
 31
0.0
 11
29.971008056
 21
-31.0722687471
 31
0.0
 11
30.1874182804
 21
-31.0638701998
 31
0.0
 11
30.3846087001
 21
-31.0545934051
 31
0.0
 11
30.5607795878
 21
-31.0445244662
 31
0.0
 11
30.7143133825
 21
-31.0337558632
 31
0.0
 11
30.8437963837
 21
-31.0223864368
 31
0.0
 11
30.9480551091
 21
-31.0105222536
 31
0.0
 11
31.0261236934
 21
-30.9982720528
 31
0.0
 11
31.0551095379
 21
-30.9920358137
 31
0.0
 11
31.0772950085
 21
-30.9857443202
 31
0.0
 11
31.0926399254
 21
-30.9794144154
 31
0.0
 11
31.1011094285
 21
-30.973063345
 31
0.0
  0
SPLINE
  5
423
100
AcDbEntity
  8
RACCORDO
100
AcDbSpline
 62
253
  6
CONTINUOUS
 70
0
 71
3
 72
22
 73
18
 74
16
 42
0.0000001
 43
0.0000001
 44
0.0000000001
 12
1.8635974372
 22
-2.3594489416
 32
0.0
 13
3.006658397
 23
-0.0000088662
 33
0.0
 40
0.0
 40
0.0
 40
0.0
 40
0.0
 40
0.0035209336
 40
0.0090417576
 40
0.0167115097
 40
0.0265726641
 40
0.0528556228
 40
0.0877553684
 40
0.1309864885
 40
0.182176537
 40
0.2408657469
 40
0.3065228635
 40
0.3785540389
 40
0.4562985523
 40
0.6260412242
 40
0.809515816
 40
1.0
 40
1.0
 40
1.0
 40
1.0
 10
-31.1011094222
 20
-30.9730633529
 30
0.0
 10
-31.0989222212
 20
-30.9758325073
 30
0.0
 10
-31.090940033
 20
-30.9807638929
 30
0.0
 10
-31.0753867466
 20
-30.9867248293
 30
0.0
 10
-31.0530173675
 20
-30.9928125451
 30
0.0
 10
-31.0100513243
 20
-31.0017980093
 30
0.0
 10
-30.9395449741
 20
-31.0121924865
 30
0.0
 10
-30.8355372242
 20
-31.023682396
 30
0.0
 10
-30.7063884073
 20
-31.0347678509
 30
0.0
 10
-30.5533004391
 20
-31.045341909
 30
0.0
 10
-30.3776498395
 20
-31.0552600143
 30
0.0
 10
-30.1810475343
 20
-31.06442095
 30
0.0
 10
-29.9652943271
 20
-31.072727203
 30
0.0
 10
-29.6452248733
 20
-31.0828498517
 30
0.0
 10
-29.2134062599
 20
-31.0925614536
 30
0.0
 10
-28.6685366232
 20
-31.0995694124
 30
0.0
 10
-28.2937456461
 20
-31.1011350159
 30
0.0
 10
-28.102838689
 20
-31.1011355788
 30
0.0
 11
-31.1011094222
 21
-30.9730633529
 31
0.0
 11
-31.0926399174
 21
-30.979414421
 31
0.0
 11
-31.0772949903
 21
-30.9857443266
 31
0.0
 11
-31.0551095072
 21
-30.9920358218
 31
0.0
 11
-31.0261236524
 21
-30.9982720614
 31
0.0
 11
-30.9480550542
 21
-31.0105222605
 31
0.0
 11
-30.8437963154
 21
-31.0223864433
 31
0.0
 11
-30.7143133004
 21
-31.0337558699
 31
0.0
 11
-30.5607794938
 21
-31.0445244722
 31
0.0
 11
-30.3846085956
 21
-31.0545934104
 31
0.0
 11
-30.1874181665
 21
-31.0638702047
 31
0.0
 11
-29.9710079343
 21
-31.0722687514
 31
0.0
 11
-29.7373752731
 21
-31.0797118892
 31
0.0
 11
-29.2271523983
 21
-31.0914652186
 31
0.0
 11
-28.6755543629
 21
-31.0986956583
 31
0.0
 11
-28.102838689
 21
-31.1011355788
 31
0.0
  0
SPLINE
  5
424
100
AcDbEntity
  8
RACCORDO
100
AcDbSpline
 62
253
  6
CONTINUOUS
 70
0
 71
3
 72
20
 73
16
 74
14
 42
0.0000001
 43
0.0000001
 44
0.0000000001
 12
-1.5073764031
 22
-0.0000051655
 32
0.0
 13
-0.2424076372
 23
-1.4877574258
 33
0.0
 40
0.0
 40
0.0
 40
0.0
 40
0.0
 40
0.1932169216
 40
0.3790771286
 40
0.5505391264
 40
0.7010975823
 40
0.7667314796
 40
0.825097295
 40
0.8756543987
 40
0.9179417277
 40
0.9515979277
 40
0.9763694976
 40
0.9922079379
 40
0.9969465873
 40
1.0
 40
1.0
 40
1.0
 40
1.0
 10
-32.4113457464
 20
-36.0652863556
 30
0.0
 10
-32.5084292892
 20
-36.0652866883
 30
0.0
 10
-32.6989014454
 20
-36.0662670436
 30
0.0
 10
-32.9754958243
 20
-36.0706447296
 30
0.0
 10
-33.2305927222
 20
-36.0777382535
 30
0.0
 10
-33.4252101856
 20
-36.0859599179
 30
0.0
 10
-33.5629370303
 20
-36.0939394767
 30
0.0
 10
-33.650427766
 20
-36.1001144853
 30
0.0
 10
-33.726131197
 20
-36.1066797694
 30
0.0
 10
-33.7893074533
 20
-36.1135643526
 30
0.0
 10
-33.8394771154
 20
-36.1206323568
 30
0.0
 10
-33.8760157218
 20
-36.1277906681
 30
0.0
 10
-33.8981310878
 20
-36.1342532728
 30
0.0
 10
-33.908465403
 20
-36.1400512124
 30
0.0
 10
-33.9110867764
 20
-36.1433933228
 30
0.0
 10
-33.9113334999
 20
-36.1449075686
 30
0.0
 11
-32.4113457464
 21
-36.0652863556
 31
0.0
 11
-32.7025923659
 21
-36.0668144788
 31
0.0
 11
-32.9827170908
 21
-36.0713407439
 31
0.0
 11
-33.2410703121
 21
-36.0786913632
 31
0.0
 11
-33.4678028375
 21
-36.0885846112
 31
0.0
 11
-33.5665685259
 21
-36.0943699955
 31
0.0
 11
-33.6543239108
 21
-36.1006422632
 31
0.0
 11
-33.7302374449
 21
-36.1073417995
 31
0.0
 11
-33.793587823
 21
-36.1144050626
 31
0.0
 11
-33.8437838306
 21
-36.1217639781
 31
0.0
 11
-33.8803454863
 21
-36.1293486274
 31
0.0
 11
-33.9029304148
 21
-36.1370889327
 31
0.0
 11
-33.9089115986
 21
-36.1409936562
 31
0.0
 11
-33.9113334999
 21
-36.1449075686
 31
0.0
  0
SPLINE
  5
425
100
AcDbEntity
  8
RACCORDO
100
AcDbSpline
 62
253
  6
CONTINUOUS
 70
0
 71
3
 72
20
 73
16
 74
14
 42
0.0000001
 43
0.0000001
 44
0.0000000001
 12
-0.2424164485
 22
1.4877512469
 32
0.0
 13
-1.5073717216
 23
0.0000045705
 33
0.0
 40
0.0
 40
0.0
 40
0.0
 40
0.0
 40
0.0030533006
 40
0.0077916707
 40
0.0236294401
 40
0.0484005506
 40
0.0820563717
 40
0.124343387
 40
0.1749002821
 40
0.2332659982
 40
0.2988998605
 40
0.4494584328
 40
0.6209208601
 40
0.8067818937
 40
1.0
 40
1.0
 40
1.0
 40
1.0
 10
33.9113335874
 20
-36.1449081064
 30
0.0
 10
33.911086864
 20
-36.1433939225
 30
0.0
 10
33.9084658485
 20
-36.1400518921
 30
0.0
 10
33.8981322624
 20
-36.134253682
 30
0.0
 10
33.8760176944
 20
-36.1277910756
 30
0.0
 10
33.8394799658
 20
-36.120632853
 30
0.0
 10
33.7893110562
 20
-36.1135647748
 30
0.0
 10
33.7261354638
 20
-36.1066800983
 30
0.0
 10
33.6504325856
 20
-36.1001147792
 30
0.0
 10
33.5629423002
 20
-36.0939397098
 30
0.0
 10
33.4252158983
 20
-36.0859600652
 30
0.0
 10
33.2305987812
 20
-36.0777384419
 30
0.0
 10
32.9755019881
 20
-36.0706448628
 30
0.0
 10
32.6989072427
 20
-36.0662671393
 30
0.0
 10
32.5084346677
 20
-36.0652866707
 30
0.0
 10
32.4113508311
 20
-36.0652863763
 30
0.0
 11
33.9113335874
 21
-36.1449081064
 31
0.0
 11
33.9089119204
 21
-36.1409942647
 31
0.0
 11
33.9029312883
 21
-36.1370895069
 31
0.0
 11
33.8803475378
 21
-36.1293491116
 31
0.0
 11
33.8437867054
 21
-36.1217644745
 31
0.0
 11
33.7935914421
 21
-36.1144055056
 31
0.0
 11
33.7302417487
 21
-36.1073421553
 31
0.0
 11
33.6543287727
 21
-36.1006425638
 31
0.0
 11
33.566573816
 21
-36.0943702364
 31
0.0
 11
33.4678084915
 21
-36.0885847983
 31
0.0
 11
33.2410764965
 21
-36.078691541
 31
0.0
 11
32.9827234314
 21
-36.0713408876
 31
0.0
 11
32.7025983315
 21
-36.0668145563
 31
0.0
 11
32.4113508311
 21
-36.0652863763
 31
0.0
  0
SPLINE
  5
426
100
AcDbEntity
  8
RACCORDO
100
AcDbSpline
 62
253
  6
CONTINUOUS
 70
0
 71
3
 72
20
 73
16
 74
14
 42
0.0000001
 43
0.0000001
 44
0.0000000001
 12
1.5077070837
 22
-0.0012985341
 32
0.0
 13
0.0000020894
 23
-1.5077076429
 33
0.0
 40
0.0
 40
0.0
 40
0.0
 40
0.0
 40
0.0070792714
 40
0.0135854814
 40
0.0223111323
 40
0.0465385495
 40
0.0797596097
 40
0.1217266827
 40
0.1720791089
 40
0.2303533111
 40
0.2960037998
 40
0.4468916094
 40
0.6190135746
 40
0.8057675675
 40
1.0
 40
1.0
 40
1.0
 40
1.0
 10
-32.6630306561
 20
-25.5832109019
 30
0.0
 10
-32.6594728335
 20
-25.5832139662
 30
0.0
 10
-32.6547316542
 20
-25.5904752456
 30
0.0
 10
-32.6507773472
 20
-25.6002502698
 30
0.0
 10
-32.6449749816
 20
-25.6195888024
 30
0.0
 10
-32.638631105
 20
-25.6520401082
 30
0.0
 10
-32.6314224712
 20
-25.7015941732
 30
0.0
 10
-32.6245210418
 20
-25.7642788049
 30
0.0
 10
-32.6178873586
 20
-25.8396885351
 30
0.0
 10
-32.6116605321
 20
-25.9270520478
 30
0.0
 10
-32.6035977124
 20
-26.064933359
 30
0.0
 10
-32.5952946407
 20
-26.2600960532
 30
0.0
 10
-32.5881281715
 20
-26.5161940431
 30
0.0
 10
-32.5837043401
 20
-26.7941399381
 30
0.0
 10
-32.5827129335
 20
-26.9856135371
 30
0.0
 10
-32.5827127983
 20
-27.0832287781
 30
0.0
 11
-32.6630306561
 21
-25.5832109019
 31
0.0
 11
-32.6551652531
 21
-25.5904260549
 31
0.0
 11
-32.6512546038
 21
-25.5994222974
 31
0.0
 11
-32.6473727196
 21
-25.6119922703
 31
0.0
 11
-32.6397319313
 21
-25.6477120556
 31
0.0
 11
-32.6323140516
 21
-25.6972473702
 31
0.0
 11
-32.6251904099
 21
-25.7601191643
 31
0.0
 11
-32.6184305223
 21
-25.8357343414
 31
0.0
 11
-32.6120991896
 21
-25.9233663828
 31
0.0
 11
-32.6062572751
 21
-26.0221755807
 31
0.0
 11
-32.5962631539
 21
-26.2494506513
 31
0.0
 11
-32.588834164
 21
-26.5088538971
 31
0.0
 11
-32.584258118
 21
-26.7903871324
 31
0.0
 11
-32.5827127983
 21
-27.0832287781
 31
0.0
  0
SPLINE
  5
427
100
AcDbEntity
  8
RACCORDO
100
AcDbSpline
 62
253
  6
CONTINUOUS
 70
0
 71
3
 72
20
 73
16
 74
14
 42
0.0000001
 43
0.0000001
 44
0.0000000001
 12
0.0000042496
 22
-1.2013808897
 32
0.0
 13
0.8484656904
 23
-0.8505421884
 33
0.0
 40
0.0
 40
0.0
 40
0.0
 40
0.0
 40
0.190650583
 40
0.3742793882
 40
0.5441651175
 40
0.6940607794
 40
0.759767796
 40
0.8184891874
 40
0.8696948247
 40
0.9129191513
 40
0.9477808722
 40
0.9739850422
 40
0.9913436249
 40
0.9967200676
 40
1.0
 40
1.0
 40
1.0
 40
1.0
 10
-31.7832002104
 20
-29.132146881
 30
0.0
 10
-31.7831999404
 20
-29.20849487
 30
0.0
 10
-31.782705332
 20
-29.3583793997
 30
0.0
 10
-31.7804947441
 20
-29.5762865597
 30
0.0
 10
-31.7769098541
 20
-29.7778525825
 30
0.0
 10
-31.7727512062
 20
-29.9321726301
 30
0.0
 10
-31.7687173214
 20
-30.0419557264
 30
0.0
 10
-31.7655835812
 20
-30.1122201856
 30
0.0
 10
-31.762249233
 20
-30.1734649768
 30
0.0
 10
-31.7587368739
 20
-30.2251149137
 30
0.0
 10
-31.7551438067
 20
-30.2667517974
 30
0.0
 10
-31.7514302081
 20
-30.2978881361
 30
0.0
 10
-31.748207291
 20
-30.3173386194
 30
0.0
 10
-31.7452069793
 20
-30.3272485606
 30
0.0
 10
-31.7436853845
 20
-30.3304859665
 30
0.0
 10
-31.7427577478
 20
-30.3314158735
 30
0.0
 11
-31.7832002104
 21
-29.132146881
 31
0.0
 11
-31.7824298785
 21
-29.3611895526
 31
0.0
 11
-31.7801471492
 21
-29.5817858795
 31
0.0
 11
-31.7764365629
 21
-29.7858496152
 31
0.0
 11
-31.771434794
 21
-29.9658619235
 31
0.0
 11
-31.7685057298
 21
-30.0447467168
 31
0.0
 11
-31.7653262319
 21
-30.1152217889
 31
0.0
 11
-31.7619256771
 21
-30.1766452034
 31
0.0
 11
-31.758335354
 21
-30.2284498186
 31
0.0
 11
-31.7545887953
 21
-30.2701641137
 31
0.0
 11
-31.7507196933
 21
-30.3014066378
 31
0.0
 11
-31.7467624838
 21
-30.3218820145
 31
0.0
 11
-31.7447633378
 21
-30.3280240097
 31
0.0
 11
-31.7427577478
 21
-30.3314158735
 31
0.0
  0
SPLINE
  5
428
100
AcDbEntity
  8
RACCORDO
100
AcDbSpline
 62
253
  6
CONTINUOUS
 70
0
 71
3
 72
14
 73
10
 74
8
 42
0.0000001
 43
0.0000001
 44
0.0000000001
 12
0.3668645166
 22
-2.2218983793
 32
0.0
 13
0.0000218982
 23
-2.2519817896
 33
0.0
 40
0.0
 40
0.0
 40
0.0
 40
0.0
 40
0.0505827901
 40
0.128465314
 40
0.2314818336
 40
0.3566905339
 40
0.500494067
 40
0.6587491995
 40
1.0
 40
1.0
 40
1.0
 40
1.0
 10
-31.8468999344
 20
-24.8329774562
 30
0.0
 10
-31.8407142574
 20
-24.8704407293
 30
0.0
 10
-31.8314022922
 20
-24.9665449454
 30
0.0
 10
-31.8198124971
 20
-25.1398809604
 30
0.0
 10
-31.809421133
 20
-25.3694639339
 30
0.0
 10
-31.8002505262
 20
-25.6485762646
 30
0.0
 10
-31.7928177458
 20
-25.9692301771
 30
0.0
 10
-31.7853045646
 20
-26.4520805017
 30
0.0
 10
-31.7832027014
 20
-26.8270473704
 30
0.0
 10
-31.7832002104
 20
-27.0832108998
 30
0.0
 11
-31.8468999344
 21
-24.8329774562
 31
0.0
 11
-31.8338276494
 21
-24.9461364162
 31
0.0
 11
-31.8216114546
 21
-25.1211004858
 31
0.0
 11
-31.8106067694
 21
-25.3528306572
 31
0.0
 11
-31.8011316451
 21
-25.6346391261
 31
0.0
 11
-31.7934605519
 21
-25.958391196
 31
0.0
 11
-31.7878163538
 21
-26.3147341756
 31
0.0
 11
-31.7832002104
 21
-27.0832108998
 31
0.0
  0
SPLINE
  5
429
100
AcDbEntity
  8
RACCORDO
100
AcDbSpline
 62
253
  6
CONTINUOUS
 70
0
 71
3
 72
14
 73
10
 74
8
 42
0.0000001
 43
0.0000001
 44
0.0000000001
 12
0.0000509487
 22
2.2519438579
 32
0.0
 13
0.3667147959
 23
2.2218846505
 33
0.0
 40
0.0
 40
0.0
 40
0.0
 40
0.0
 40
0.341237539
 40
0.4994885947
 40
0.6432903175
 40
0.768499154
 40
0.8715186536
 40
0.9494073988
 40
1.0
 40
1.0
 40
1.0
 40
1.0
 10
31.7832002104
 20
-27.0832108998
 30
0.0
 10
31.7832060056
 20
-26.8270616398
 30
0.0
 10
31.7853036367
 20
-26.4521141047
 30
0.0
 10
31.7928167256
 20
-25.9692862738
 30
0.0
 10
31.8002487219
 20
-25.6486420765
 30
0.0
 10
31.8094184391
 20
-25.3695334204
 30
0.0
 10
31.8198093037
 20
-25.1399473414
 30
0.0
 10
31.8313975776
 20
-24.9665997476
 30
0.0
 10
31.8407099401
 20
-24.8704852719
 30
0.0
 10
31.8468942919
 20
-24.8330149639
 30
0.0
 11
31.7832002104
 21
-27.0832108998
 31
0.0
 11
31.7878157774
 21
-26.3147769811
 31
0.0
 11
31.7934593434
 21
-25.958449177
 31
0.0
 11
31.8011296993
 21
-25.6347066237
 31
0.0
 11
31.8106039301
 21
-25.35290257
 31
0.0
 11
31.8216076206
 21
-25.1211695448
 31
0.0
 11
31.8338227238
 21
-24.9461943163
 31
0.0
 11
31.8468942919
 21
-24.8330149639
 31
0.0
  0
SPLINE
  5
42A
100
AcDbEntity
  8
RACCORDO
100
AcDbSpline
 62
253
  6
CONTINUOUS
 70
0
 71
3
 72
20
 73
16
 74
14
 42
0.0000001
 43
0.0000001
 44
0.0000000001
 12
0.8484657075
 22
0.8505421714
 32
0.0
 13
0.0000042495
 23
1.2013808897
 33
0.0
 40
0.0
 40
0.0
 40
0.0
 40
0.0
 40
0.0032799324
 40
0.0086563751
 40
0.0260149578
 40
0.0522191278
 40
0.0870808486
 40
0.1303051753
 40
0.1815108126
 40
0.240232204
 40
0.3059392206
 40
0.4558348825
 40
0.6257206118
 40
0.809349417
 40
1.0
 40
1.0
 40
1.0
 40
1.0
 10
31.7427577478
 20
-30.3314158735
 30
0.0
 10
31.7436853845
 20
-30.3304859665
 30
0.0
 10
31.7452069793
 20
-30.3272485606
 30
0.0
 10
31.748207291
 20
-30.3173386194
 30
0.0
 10
31.7514302081
 20
-30.2978881361
 30
0.0
 10
31.7551438067
 20
-30.2667517974
 30
0.0
 10
31.7587368739
 20
-30.2251149137
 30
0.0
 10
31.762249233
 20
-30.1734649768
 30
0.0
 10
31.7655835811
 20
-30.1122201856
 30
0.0
 10
31.7687173214
 20
-30.0419557264
 30
0.0
 10
31.7727512062
 20
-29.9321726301
 30
0.0
 10
31.7769098541
 20
-29.7778525825
 30
0.0
 10
31.7804947441
 20
-29.5762865597
 30
0.0
 10
31.782705332
 20
-29.3583793997
 30
0.0
 10
31.7831999404
 20
-29.20849487
 30
0.0
 10
31.7832002104
 20
-29.132146881
 30
0.0
 11
31.7427577478
 21
-30.3314158735
 31
0.0
 11
31.7447633378
 21
-30.3280240098
 31
0.0
 11
31.7467624838
 21
-30.3218820145
 31
0.0
 11
31.7507196933
 21
-30.3014066378
 31
0.0
 11
31.7545887953
 21
-30.2701641137
 31
0.0
 11
31.758335354
 21
-30.2284498186
 31
0.0
 11
31.7619256771
 21
-30.1766452034
 31
0.0
 11
31.7653262319
 21
-30.1152217889
 31
0.0
 11
31.7685057298
 21
-30.0447467168
 31
0.0
 11
31.771434794
 21
-29.9658619235
 31
0.0
 11
31.7764365629
 21
-29.7858496152
 31
0.0
 11
31.7801471492
 21
-29.5817858795
 31
0.0
 11
31.7824298785
 21
-29.3611895526
 31
0.0
 11
31.7832002104
 21
-29.132146881
 31
0.0
  0
SPLINE
  5
42B
100
AcDbEntity
  8
RACCORDO
100
AcDbSpline
 62
253
  6
CONTINUOUS
 70
0
 71
3
 72
23
 73
19
 74
17
 42
0.0000001
 43
0.0000001
 44
0.0000000001
 12
2.6928692386
 22
-2.6873675159
 32
0.0
 13
3.8044038822
 23
-0.0000527948
 33
0.0
 40
0.0
 40
0.0
 40
0.0
 40
0.0
 40
0.0032789801
 40
0.008654578
 40
0.0162270806
 40
0.0260199628
 40
0.0380251657
 40
0.0522226024
 40
0.087085134
 40
0.1303095229
 40
0.1815158586
 40
0.2402386798
 40
0.3059426124
 40
0.3780307543
 40
0.4558397816
 40
0.6257267132
 40
0.8093563335
 40
1.0
 40
1.0
 40
1.0
 40
1.0
 10
-31.9006188183
 20
-31.7725801262
 30
0.0
 10
-31.8976755301
 20
-31.7755174011
 30
0.0
 10
-31.8874225652
 20
-31.7803317343
 30
0.0
 10
-31.8678793941
 20
-31.786297475
 30
0.0
 10
-31.8395782232
 20
-31.7923381021
 30
0.0
 10
-31.8028578003
 20
-31.7984217051
 30
0.0
 10
-31.7575972168
 20
-31.8044793054
 30
0.0
 10
-31.6806392497
 20
-31.8130854957
 30
0.0
 10
-31.5640292206
 20
-31.8231920299
 30
0.0
 10
-31.4004416657
 20
-31.8342991542
 30
0.0
 10
-31.2065044834
 20
-31.8448636847
 30
0.0
 10
-30.9839967388
 20
-31.8547832295
 30
0.0
 10
-30.7349555838
 20
-31.8639419116
 30
0.0
 10
-30.4616689881
 20
-31.8722468256
 30
0.0
 10
-30.0562644047
 20
-31.8823673499
 30
0.0
 10
-29.5093641736
 20
-31.8920754203
 30
0.0
 10
-28.8193261729
 20
-31.8990838528
 30
0.0
 10
-28.3446955106
 20
-31.9006445696
 30
0.0
 10
-28.1029336756
 20
-31.9006479246
 30
0.0
 11
-31.9006188183
 21
-31.7725801262
 31
0.0
 11
-31.8898819664
 21
-31.7789310924
 31
0.0
 11
-31.8704356531
 21
-31.7852621327
 31
0.0
 11
-31.84232252
 21
-31.7915551508
 31
0.0
 11
-31.8055922857
 21
-31.7977925638
 31
0.0
 11
-31.760337963
 21
-31.8039599268
 31
0.0
 11
-31.7066689309
 21
-31.8100439813
 31
0.0
 11
-31.574569545
 21
-31.8219088187
 31
0.0
 11
-31.4105200396
 21
-31.8332785572
 31
0.0
 11
-31.2160083081
 21
-31.8440470123
 31
0.0
 11
-30.9928299708
 21
-31.8541153168
 31
0.0
 11
-30.7430378367
 21
-31.8633910475
 31
0.0
 11
-30.468914014
 21
-31.8717882229
 31
0.0
 11
-30.1729906016
 21
-31.8792298557
 31
0.0
 11
-29.5267789188
 21
-31.8909800497
 31
0.0
 11
-28.8282150794
 21
-31.8982088537
 31
0.0
 11
-28.1029336756
 21
-31.9006479246
 31
0.0
  0
SPLINE
  5
42C
100
AcDbEntity
  8
RACCORDO
100
AcDbSpline
 62
253
  6
CONTINUOUS
 70
0
 71
3
 72
23
 73
19
 74
17
 42
0.0000001
 43
0.0000001
 44
0.0000000001
 12
3.8044038809
 22
0.0000528321
 32
0.0
 13
2.6928735183
 23
2.6873632255
 33
0.0
 40
0.0
 40
0.0
 40
0.0
 40
0.0
 40
0.1906436667
 40
0.3742732868
 40
0.5441602187
 40
0.6219692458
 40
0.6940573879
 40
0.7597613207
 40
0.8184841416
 40
0.869690477
 40
0.9129148669
 40
0.9477773991
 40
0.9619748352
 40
0.9739800371
 40
0.9837729179
 40
0.991345419
 40
0.9967210169
 40
1.0
 40
1.0
 40
1.0
 40
1.0
 10
28.1029336756
 20
-31.9006479246
 30
0.0
 10
28.3446955108
 20
-31.9006445673
 30
0.0
 10
28.8193261729
 20
-31.8990838547
 30
0.0
 10
29.5093641738
 20
-31.8920754194
 30
0.0
 10
30.0562644045
 20
-31.8823673501
 30
0.0
 10
30.4616689882
 20
-31.8722468255
 30
0.0
 10
30.734955584
 20
-31.8639419116
 30
0.0
 10
30.983996739
 20
-31.8547832295
 30
0.0
 10
31.2065044831
 20
-31.8448636847
 30
0.0
 10
31.4004416657
 20
-31.834299154
 30
0.0
 10
31.5640292222
 20
-31.8231920299
 30
0.0
 10
31.6806392525
 20
-31.8130854961
 30
0.0
 10
31.7575972185
 20
-31.8044793054
 30
0.0
 10
31.802857798
 20
-31.7984217049
 30
0.0
 10
31.8395782162
 20
-31.7923381023
 30
0.0
 10
31.8678793822
 20
-31.7862974751
 30
0.0
 10
31.8874225571
 20
-31.7803317336
 30
0.0
 10
31.8976755226
 20
-31.7755173991
 30
0.0
 10
31.9006188183
 20
-31.7725801262
 30
0.0
 11
28.1029336756
 21
-31.9006479246
 31
0.0
 11
28.82821508
 21
-31.8982088541
 31
0.0
 11
29.5267789183
 21
-31.8909800496
 31
0.0
 11
30.1729906019
 21
-31.8792298558
 31
0.0
 11
30.4689140137
 21
-31.8717882228
 31
0.0
 11
30.7430378369
 21
-31.8633910475
 31
0.0
 11
30.9928299715
 21
-31.8541153168
 31
0.0
 11
31.2160083079
 21
-31.8440470123
 31
0.0
 11
31.4105200383
 21
-31.8332785571
 31
0.0
 11
31.5745695469
 21
-31.8219088188
 31
0.0
 11
31.706668935
 21
-31.8100439813
 31
0.0
 11
31.7603379653
 21
-31.8039599266
 31
0.0
 11
31.8055922842
 21
-31.7977925635
 31
0.0
 11
31.8423225128
 21
-31.7915551508
 31
0.0
 11
31.8704356399
 21
-31.7852621333
 31
0.0
 11
31.8898819533
 21
-31.7789310933
 31
0.0
 11
31.9006188183
 21
-31.7725801262
 31
0.0
  0
SPLINE
  5
42D
100
AcDbEntity
  8
RACCORDO
100
AcDbSpline
 62
253
  6
CONTINUOUS
 70
0
 71
3
 72
9
 73
5
 74
3
 42
0.0000001
 43
0.0000001
 44
0.0000000001
 12
-1.4851311885
 22
-0.0000319279
 32
0.0
 13
-1.4844843781
 23
-0.0438266987
 33
0.0
 40
0.0
 40
0.0
 40
0.0
 40
0.0
 40
0.532431301
 40
1.0
 40
1.0
 40
1.0
 40
1.0
 10
-32.4113899366
 20
-35.265773875
 30
0.0
 10
-32.6749667135
 20
-35.2657795415
 30
0.0
 10
-33.1700126077
 20
-35.2686850459
 30
0.0
 10
-33.6649969045
 20
-35.2779269971
 30
0.0
 10
-33.8963630476
 20
-35.2847576612
 30
0.0
 11
-32.4113899366
 21
-35.265773875
 31
0.0
 11
-33.2021051107
 21
-35.27066978
 31
0.0
 11
-33.8963630476
 21
-35.2847576612
 31
0.0
  0
SPLINE
  5
42E
100
AcDbEntity
  8
RACCORDO
100
AcDbSpline
 62
253
  6
CONTINUOUS
 70
0
 71
3
 72
9
 73
5
 74
3
 42
0.0000001
 43
0.0000001
 44
0.0000000001
 12
-1.4844844993
 22
0.0438225938
 32
0.0
 13
-1.4851311887
 23
0.000028643
 33
0.0
 40
0.0
 40
0.0
 40
0.0
 40
0.0
 40
0.4675683653
 40
1.0
 40
1.0
 40
1.0
 40
1.0
 10
33.8963630476
 20
-35.2847576612
 30
0.0
 10
33.6649970507
 20
-35.2779276417
 30
0.0
 10
33.1700127838
 20
-35.2686849276
 30
0.0
 10
32.6749668787
 20
-35.2657789585
 30
0.0
 10
32.4113899366
 20
-35.265773875
 30
0.0
 11
33.8963630476
 21
-35.2847576612
 31
0.0
 11
33.2021056063
 21
-35.2706697806
 31
0.0
 11
32.4113899366
 21
-35.265773875
 31
0.0
  0
ELLIPSE
  5
42F
100
AcDbEntity
  8
COPY-PUBBLISH
100
AcDbEllipse
 62
7
  6
CONTINUOUS
 10
34.1662715936
 20
9.6167891002
 30
0.0
 11
0.0
 21
0.3
 31
0.0
 40
0.0087268678
 41
-1.5707963268
 42
-0.5236840814
  0
ELLIPSE
  5
430
100
AcDbEntity
  8
COPY-PUBBLISH
100
AcDbEllipse
 62
7
  6
CONTINUOUS
 10
-34.1662715936
 20
2.2167891002
 30
0.0
 11
-0.0
 21
0.3
 31
0.0
 40
0.0087268678
 41
-4.7123889804
 42
-3.665276735
  0
ELLIPSE
  5
431
100
AcDbEntity
  8
DRAFT
100
AcDbEllipse
 62
7
  6
CONTINUOUS
 10
34.029305378
 20
16.2167891002
 30
0.0
 11
-0.0
 21
6.8450822989
 31
0.0
 40
0.0087268703
 41
-1.5707963268
 42
0.0007635021
  0
ELLIPSE
  5
432
100
AcDbEntity
  8
DRAFT
100
AcDbEllipse
 62
7
  6
CONTINUOUS
 10
-34.029305378
 20
-4.3832108998
 30
0.0
 11
-0.0
 21
6.8450822989
 31
0.0
 40
0.0087268703
 41
1.5707963268
 42
3.1423561557
  0
ELLIPSE
  5
433
100
AcDbEntity
  8
RACCORDO
100
AcDbEllipse
 62
7
  6
CONTINUOUS
 10
-32.7852533351
 20
37.4952078812
 30
0.0
 11
0.8
 21
-0.0
 31
0.0
 40
0.0349207695
 41
0.034906585
 42
1.5707963268
  0
ELLIPSE
  5
434
100
AcDbEntity
  8
RACCORDO
100
AcDbEllipse
 62
7
  6
CONTINUOUS
 10
32.7852533351
 20
37.4952078812
 30
0.0
 11
0.8
 21
-0.0
 31
0.0
 40
0.0349207695
 41
1.5707963268
 42
3.1066860685
  0
ELLIPSE
  5
435
100
AcDbEntity
  8
COPY-PUBBLISH
100
AcDbEllipse
 62
7
  6
CONTINUOUS
 10
-34.1627808465
 20
-11.8832108998
 30
0.0
 11
0.0
 21
0.3
 31
0.0
 40
0.0087268678
 41
-1.5707963268
 42
0.0
  0
ELLIPSE
  5
436
100
AcDbEntity
  8
COPY-PUBBLISH
100
AcDbEllipse
 62
7
  6
CONTINUOUS
 10
34.1627808465
 20
-11.8832108998
 30
0.0
 11
0.0
 21
0.3
 31
0.0
 40
0.0087268678
 41
0.0
 42
1.5707963268
  0
ELLIPSE
  5
437
100
AcDbEntity
  8
COPY-PUBBLISH
100
AcDbEllipse
 62
7
  6
CONTINUOUS
 10
34.1662715936
 20
2.2167891002
 30
0.0
 11
-0.0
 21
0.3
 31
0.0
 40
0.0087268678
 41
-3.1415926536
 42
-1.5707963268
  0
ELLIPSE
  5
438
100
AcDbEntity
  8
COPY-PUBBLISH
100
AcDbEllipse
 62
7
  6
CONTINUOUS
 10
-34.1662715936
 20
9.6167891002
 30
0.0
 11
0.0
 21
0.3
 31
0.0
 40
0.0087268678
 41
-0.0
 42
1.5707963268
  0
ELLIPSE
  5
439
100
AcDbEntity
  8
RACCORDO
100
AcDbEllipse
 62
7
  6
CONTINUOUS
 10
-34.1415770631
 20
-27.3992153236
 30
0.0
 11
0.0
 21
2.0
 31
0.0
 40
0.0087268678
 41
-3.926990817
 42
-3.1764992386
  0
ELLIPSE
  5
43A
100
AcDbEntity
  8
RACCORDO
100
AcDbEllipse
 62
7
  6
CONTINUOUS
 10
-34.1427090506
 20
-27.2695024008
 30
0.0
 11
0.0
 21
2.0
 31
0.0
 40
0.0087268678
 41
-4.7123889804
 42
-3.926990817
  0
ELLIPSE
  5
43B
100
AcDbEntity
  8
RACCORDO
100
AcDbEllipse
 62
7
  6
CONTINUOUS
 10
34.1415770631
 20
-27.3992153236
 30
0.0
 11
0.0
 21
2.0
 31
0.0
 40
0.0087268678
 41
-3.1066860685
 42
-2.3561944902
  0
ELLIPSE
  5
43C
100
AcDbEntity
  8
RACCORDO
100
AcDbEllipse
 62
7
  6
CONTINUOUS
 10
34.1427090506
 20
-27.2695024008
 30
0.0
 11
0.0
 21
2.0
 31
0.0
 40
0.0087268678
 41
-2.3561944902
 42
-1.5707963268
  0
ELLIPSE
  5
43D
100
AcDbEntity
  8
RACCORDO
100
AcDbEllipse
 62
7
  6
CONTINUOUS
 10
28.1029336756
 20
-30.2689239744
 30
0.0
 11
3.0
 21
0.0
 31
0.0
 40
0.0349207695
 41
-1.5707963268
 42
-0.034906585
  0
ELLIPSE
  5
43E
100
AcDbEntity
  8
RACCORDO
100
AcDbEllipse
 62
7
  6
CONTINUOUS
 10
-28.1029336756
 20
-30.2689239744
 30
0.0
 11
3.0
 21
-0.0
 31
0.0
 40
0.0349207695
 41
-3.1066860685
 42
-1.5707963268
  0
ELLIPSE
  5
43F
100
AcDbEntity
  8
RACCORDO
100
AcDbEllipse
 62
7
  6
CONTINUOUS
 10
-32.4113899366
 20
-36.845116671
 30
0.0
 11
1.5
 21
0.0
 31
0.0
 40
0.0349207695
 41
1.5707963268
 42
3.1328660073
  0
ELLIPSE
  5
440
100
AcDbEntity
  8
RACCORDO
100
AcDbEllipse
 62
7
  6
CONTINUOUS
 10
32.4113899366
 20
-36.845116671
 30
0.0
 11
1.5
 21
-0.0
 31
0.0
 40
0.0349207695
 41
0.0087266463
 42
1.5707963268
  0
ELLIPSE
  5
441
100
AcDbEntity
  8
DRAFT
100
AcDbEllipse
 62
7
  6
CONTINUOUS
 10
-34.029305378
 20
16.2167891002
 30
0.0
 11
-0.0
 21
6.8450822989
 31
0.0
 40
0.0087268703
 41
-0.0007635021
 42
1.5707963268
  0
ELLIPSE
  5
442
100
AcDbEntity
  8
DRAFT
100
AcDbEllipse
 62
7
  6
CONTINUOUS
 10
34.029305378
 20
-4.3832108998
 30
0.0
 11
0.0
 21
6.8450822989
 31
0.0
 40
0.0087268703
 41
-3.1423561557
 42
-1.5707963268
  0
ELLIPSE
  5
443
100
AcDbEntity
  8
0
100
AcDbEllipse
 62
7
  6
CONTINUOUS
 10
-34.1444544241
 20
-24.2121173163
 30
0.0
 11
0.0
 21
0.8
 31
0.0
 40
0.0087268678
 41
0.034906585
 42
1.5707963268
  0
ELLIPSE
  5
444
100
AcDbEntity
  8
0
100
AcDbEllipse
 62
7
  6
CONTINUOUS
 10
-34.1444544241
 20
-24.7832108998
 30
0.0
 11
-0.0
 21
0.8
 31
0.0
 40
0.0087268678
 41
1.5707963268
 42
3.1415926536
  0
ELLIPSE
  5
445
100
AcDbEntity
  8
0
100
AcDbEllipse
 62
7
  6
CONTINUOUS
 10
34.1444544241
 20
-24.7832108998
 30
0.0
 11
0.0
 21
0.8
 31
0.0
 40
0.0087268678
 41
-3.1415926536
 42
-1.5707963268
  0
ELLIPSE
  5
446
100
AcDbEntity
  8
0
100
AcDbEllipse
 62
7
  6
CONTINUOUS
 10
34.1444544241
 20
-24.2121173163
 30
0.0
 11
0.0
 21
0.8
 31
0.0
 40
0.0087268678
 41
-1.5707963268
 42
-0.034906585
  0
ELLIPSE
  5
447
100
AcDbEntity
  8
RACCORDO
100
AcDbEllipse
 62
7
  6
CONTINUOUS
 10
22.4677105892
 20
-36.0652865366
 30
0.0
 11
0.0
 21
0.8
 31
0.0
 40
0.0087268678
 41
0.034906585
 42
1.5707963268
  0
ELLIPSE
  5
448
100
AcDbEntity
  8
RACCORDO
100
AcDbEllipse
 62
7
  6
CONTINUOUS
 10
-23.4677105892
 20
-36.0652865366
 30
0.0
 11
-0.0
 21
0.8
 31
0.0
 40
0.0087268678
 41
-1.5707963268
 42
-0.034906585
  0
ELLIPSE
  5
449
100
AcDbEntity
  8
RACCORDO
100
AcDbEllipse
 62
7
  6
CONTINUOUS
 10
34.1444544241
 20
36.0456955166
 30
0.0
 11
0.0
 21
0.8
 31
0.0
 40
0.0087268678
 41
-3.1066860686
 42
-1.5707963268
  0
ELLIPSE
  5
44A
100
AcDbEntity
  8
RACCORDO
100
AcDbEllipse
 62
7
  6
CONTINUOUS
 10
-34.1444544241
 20
36.0456955166
 30
0.0
 11
0.0
 21
0.8
 31
0.0
 40
0.0087268678
 41
-4.7123889804
 42
-3.1764992386
  0
ELLIPSE
  5
44B
100
AcDbEntity
  8
COPY-PUBBLISH
100
AcDbEllipse
 62
7
  6
CONTINUOUS
 10
34.1837253292
 20
0.2167891002
 30
0.0
 11
-0.0
 21
0.3
 31
0.0
 40
0.0087268678
 41
-3.1415926536
 42
-1.5707963268
  0
ELLIPSE
  5
44C
100
AcDbEntity
  8
COPY-PUBBLISH
100
AcDbEllipse
 62
7
  6
CONTINUOUS
 10
34.1837253292
 20
11.6167891002
 30
0.0
 11
0.0
 21
0.3
 31
0.0
 40
0.0087268678
 41
-1.5707963268
 42
-0.0
  0
ELLIPSE
  5
44D
100
AcDbEntity
  8
COPY-PUBBLISH
100
AcDbEllipse
 62
7
  6
CONTINUOUS
 10
-34.1837253292
 20
0.2167891002
 30
0.0
 11
-0.0
 21
0.3
 31
0.0
 40
0.0087268678
 41
-4.7123889804
 42
-3.1415926536
  0
ELLIPSE
  5
44E
100
AcDbEntity
  8
COPY-PUBBLISH
100
AcDbEllipse
 62
7
  6
CONTINUOUS
 10
34.1540539787
 20
9.6167891002
 30
0.0
 11
-0.0
 21
0.3
 31
0.0
 40
0.0087268678
 41
0.0
 42
1.403258522
  0
ELLIPSE
  5
44F
100
AcDbEntity
  8
COPY-PUBBLISH
100
AcDbEllipse
 62
7
  6
CONTINUOUS
 10
-34.1540539787
 20
2.2167891002
 30
0.0
 11
-0.0
 21
0.3
 31
0.0
 40
0.0087268678
 41
-3.1415926536
 42
-1.7383341316
  0
ELLIPSE
  5
450
100
AcDbEntity
  8
COPY-PUBBLISH
100
AcDbEllipse
 62
7
  6
CONTINUOUS
 10
-34.1453271109
 20
-10.2832108998
 30
0.0
 11
0.0
 21
0.3
 31
0.0
 40
0.0087268678
 41
-1.5707963268
 42
-0.5236840814
  0
ELLIPSE
  5
451
100
AcDbEntity
  8
COPY-PUBBLISH
100
AcDbEllipse
 62
7
  6
CONTINUOUS
 10
34.1453271109
 20
-10.2832108998
 30
0.0
 11
-0.0
 21
0.3
 31
0.0
 40
0.0087268678
 41
-0.0
 42
1.5707963268
  0
ELLIPSE
  5
452
100
AcDbEntity
  8
COPY-PUBBLISH
100
AcDbEllipse
 62
7
  6
CONTINUOUS
 10
34.1715077143
 20
-0.3832108998
 30
0.0
 11
-0.0
 21
0.3
 31
0.0
 40
0.0087268678
 41
-0.0
 42
1.5707963268
  0
ELLIPSE
  5
453
100
AcDbEntity
  8
COPY-PUBBLISH
100
AcDbEllipse
 62
7
  6
CONTINUOUS
 10
34.1715077143
 20
12.2167891002
 30
0.0
 11
-0.0
 21
0.3
 31
0.0
 40
0.0087268678
 41
-4.7123889804
 42
-3.665276735
  0
ELLIPSE
  5
454
100
AcDbEntity
  8
COPY-PUBBLISH
100
AcDbEllipse
 62
7
  6
CONTINUOUS
 10
-34.1715077143
 20
12.2167891002
 30
0.0
 11
-0.0
 21
0.3
 31
0.0
 40
0.0087268678
 41
-3.1415926536
 42
-1.5707963268
  0
ELLIPSE
  5
455
100
AcDbEntity
  8
RACCORDO
100
AcDbEllipse
 62
7
  6
CONTINUOUS
 10
34.1950702573
 20
-29.7547837751
 30
0.0
 11
0.0
 21
2.0
 31
0.0
 40
0.0087268678
 41
-2.3561944902
 42
-1.5707963268
  0
ELLIPSE
  5
456
100
AcDbEntity
  8
RACCORDO
100
AcDbEllipse
 62
7
  6
CONTINUOUS
 10
-34.1950702573
 20
-29.7547837751
 30
0.0
 11
0.0
 21
2.0
 31
0.0
 40
0.0087268678
 41
-4.7123889804
 42
-3.926990817
  0
ELLIPSE
  5
457
100
AcDbEntity
  8
RACCORDO
100
AcDbEllipse
 62
7
  6
CONTINUOUS
 10
-34.142586661
 20
-35.7688082292
 30
0.0
 11
-0.0
 21
2.0
 31
0.0
 40
0.0087268678
 41
-3.926990817
 42
-3.1416594796
  0
ELLIPSE
  5
458
100
AcDbEntity
  8
RACCORDO
100
AcDbEllipse
 62
7
  6
CONTINUOUS
 10
-34.0833663496
 20
-29.132146881
 30
0.0
 11
-0.0
 21
2.0
 31
0.0
 40
0.0087268678
 41
-4.7123889804
 42
-3.1764992386
  0
ELLIPSE
  5
459
100
AcDbEntity
  8
RACCORDO
100
AcDbEllipse
 62
7
  6
CONTINUOUS
 10
34.0833663496
 20
-29.132146881
 30
0.0
 11
-0.0
 21
2.0
 31
0.0
 40
0.0087268678
 41
-3.1066860685
 42
-1.5707963268
  0
ELLIPSE
  5
45A
100
AcDbEntity
  8
RACCORDO
100
AcDbEllipse
 62
7
  6
CONTINUOUS
 10
-34.1226372547
 20
-27.9753081905
 30
0.0
 11
-0.0
 21
1.5
 31
0.0
 40
0.0087268678
 41
-3.1412426437
 42
-1.5707963268
  0
ELLIPSE
  5
45B
100
AcDbEntity
  8
RACCORDO
100
AcDbEllipse
 62
7
  6
CONTINUOUS
 10
-34.1226372547
 20
-27.0832108998
 30
0.0
 11
-0.0
 21
1.5
 31
0.0
 40
0.0087268678
 41
-1.5707963268
 42
-0.0
  0
ELLIPSE
  5
45C
100
AcDbEntity
  8
RACCORDO
100
AcDbEllipse
 62
7
  6
CONTINUOUS
 10
34.1226372547
 20
-27.0832108998
 30
0.0
 11
-0.0
 21
1.5
 31
0.0
 40
0.0087268678
 41
0.0420194953
 42
1.5707963268
  0
ELLIPSE
  5
45D
100
AcDbEntity
  8
COPY-PUBBLISH
100
AcDbEllipse
 62
7
  6
CONTINUOUS
 10
-34.1837253292
 20
11.6167891002
 30
0.0
 11
-0.0
 21
0.3
 31
0.0
 40
0.0087268678
 41
0.0
 42
1.5707963268
  0
ELLIPSE
  5
45E
100
AcDbEntity
  8
COPY-PUBBLISH
100
AcDbEllipse
 62
7
  6
CONTINUOUS
 10
34.1540539787
 20
2.2167891002
 30
0.0
 11
0.0
 21
0.3
 31
0.0
 40
0.0087268678
 41
-4.5448511755
 42
-3.665276735
  0
ELLIPSE
  5
45F
100
AcDbEntity
  8
COPY-PUBBLISH
100
AcDbEllipse
 62
7
  6
CONTINUOUS
 10
-34.1540539787
 20
9.6167891002
 30
0.0
 11
0.0
 21
0.3
 31
0.0
 40
0.0087268678
 41
-1.4032585219
 42
-0.5236840814
  0
ELLIPSE
  5
460
100
AcDbEntity
  8
COPY-PUBBLISH
100
AcDbEllipse
 62
7
  6
CONTINUOUS
 10
-34.1715077143
 20
-0.3832108998
 30
0.0
 11
-0.0
 21
0.3
 31
0.0
 40
0.0087268678
 41
-1.5707963268
 42
-0.5236840814
  0
ELLIPSE
  5
461
100
AcDbEntity
  8
RACCORDO
100
AcDbEllipse
 62
7
  6
CONTINUOUS
 10
34.142586661
 20
-35.7688082292
 30
0.0
 11
0.0
 21
2.0
 31
0.0
 40
0.0087268678
 41
-3.141525828
 42
-2.3561944902
  0
ELLIPSE
  5
462
100
AcDbEntity
  8
DRAFT
100
AcDbEllipse
 62
7
  6
CONTINUOUS
 10
-33.9333097763
 20
-4.3832108998
 30
0.0
 11
0.0
 21
6.8366837744
 31
0.0
 40
0.0087268703
 41
-3.1408291515
 42
-1.5707963268
  0
ELLIPSE
  5
463
100
AcDbEntity
  8
RACCORDO
100
AcDbEllipse
 62
7
  6
CONTINUOUS
 10
34.1226372547
 20
-27.9753081905
 30
0.0
 11
0.0
 21
1.5
 31
0.0
 40
0.0087268678
 41
1.5707963268
 42
3.1412426437
  0
ELLIPSE
  5
464
100
AcDbEntity
  8
RACCORDO
100
AcDbEllipse
 62
7
  6
CONTINUOUS
 10
-34.1139103869
 20
-27.0832108998
 30
0.0
 11
-0.0
 21
1.5
 31
0.0
 40
0.0087268678
 41
-1.5707963268
 42
0.0
  0
ELLIPSE
  5
465
100
AcDbEntity
  8
DRAFT
100
AcDbEllipse
 62
7
  6
CONTINUOUS
 10
33.9333097763
 20
16.2167891002
 30
0.0
 11
-0.0
 21
6.8366837744
 31
0.0
 40
0.0087268703
 41
0.0007635021
 42
1.5707963268
  0
ELLIPSE
  5
466
100
AcDbEntity
  8
DRAFT
100
AcDbEllipse
 62
7
  6
CONTINUOUS
 10
33.9333097763
 20
-4.3832108998
 30
0.0
 11
0.0
 21
6.8366837744
 31
0.0
 40
0.0087268703
 41
-4.7123889804
 42
-3.1423561557
  0
ELLIPSE
  5
467
100
AcDbEntity
  8
RACCORDO
100
AcDbEllipse
 62
7
  6
CONTINUOUS
 10
34.1139103869
 20
-27.0832108998
 30
0.0
 11
0.0
 21
1.5
 31
0.0
 40
0.0087268678
 41
6.2831853072
 42
7.853981634
  0
ELLIPSE
  5
468
100
AcDbEntity
  8
DRAFT
100
AcDbEllipse
 62
7
  6
CONTINUOUS
 10
-33.9333097763
 20
16.2167891002
 30
0.0
 11
-0.0
 21
6.8366837744
 31
0.0
 40
0.0087268703
 41
-1.5707963268
 42
-0.0007635021
  0
ELLIPSE
  5
469
100
AcDbEntity
  8
RACCORDO
100
AcDbEllipse
 62
7
  6
CONTINUOUS
 10
-12.2177105892
 20
-31.101135263
 30
0.0
 11
-0.0
 21
0.8
 31
0.0
 40
0.0087268678
 41
-3.1066860685
 42
-1.5707963268
  0
ELLIPSE
  5
46A
100
AcDbEntity
  8
RACCORDO
100
AcDbEllipse
 62
7
  6
CONTINUOUS
 10
-22.5322894108
 20
-31.101135263
 30
0.0
 11
-0.0
 21
0.8
 31
0.0
 40
0.0087268678
 41
-4.7123889804
 42
-3.1764992386
  0
ELLIPSE
  5
46B
100
AcDbEntity
  8
RACCORDO
100
AcDbEllipse
 62
7
  6
CONTINUOUS
 10
21.5322894108
 20
-31.101135263
 30
0.0
 11
-0.0
 21
0.8
 31
0.0
 40
0.0087268678
 41
-3.1066860685
 42
-1.5707963268
  0
ELLIPSE
  5
46C
100
AcDbEntity
  8
RACCORDO
100
AcDbEllipse
 62
7
  6
CONTINUOUS
 10
11.2177105892
 20
-31.101135263
 30
0.0
 11
-0.0
 21
0.8
 31
0.0
 40
0.0087268678
 41
-4.7123889804
 42
-3.1764992386
  0
ELLIPSE
  5
46D
100
AcDbEntity
  8
RACCORDO
100
AcDbEllipse
 62
7
  6
CONTINUOUS
 10
-0.9677105892
 20
-31.101135263
 30
0.0
 11
-0.0
 21
0.8
 31
0.0
 40
0.0087268678
 41
-3.1066860685
 42
-1.5707963268
  0
ELLIPSE
  5
46E
100
AcDbEntity
  8
RACCORDO
100
AcDbEllipse
 62
7
  6
CONTINUOUS
 10
-11.2822894108
 20
-31.101135263
 30
0.0
 11
0.0
 21
0.8
 31
0.0
 40
0.0087268678
 41
-4.7123889804
 42
-3.1764992386
  0
ELLIPSE
  5
46F
100
AcDbEntity
  8
RACCORDO
100
AcDbEllipse
 62
7
  6
CONTINUOUS
 10
10.2822894108
 20
-31.101135263
 30
0.0
 11
-0.0
 21
0.8
 31
0.0
 40
0.0087268678
 41
-3.1066860685
 42
-1.5707963268
  0
ELLIPSE
  5
470
100
AcDbEntity
  8
RACCORDO
100
AcDbEllipse
 62
7
  6
CONTINUOUS
 10
-0.0322894108
 20
-31.101135263
 30
0.0
 11
-0.0
 21
0.8
 31
0.0
 40
0.0087268678
 41
-4.7123889804
 42
-3.1764992386
  0
ELLIPSE
  5
471
100
AcDbEntity
  8
RACCORDO
100
AcDbEllipse
 62
7
  6
CONTINUOUS
 10
22.4677105892
 20
-31.101135263
 30
0.0
 11
0.0
 21
0.8
 31
0.0
 40
0.0087268678
 41
-4.7123889804
 42
-3.1764992386
  0
ELLIPSE
  5
472
100
AcDbEntity
  8
RACCORDO
100
AcDbEllipse
 62
7
  6
CONTINUOUS
 10
-23.4677105892
 20
-31.101135263
 30
0.0
 11
0.0
 21
0.8
 31
0.0
 40
0.0087268678
 41
-3.1066860685
 42
-1.5707963268
  0
ENDSEC
  0
SECTION
  2
OBJECTS
  0
DICTIONARY
  5
C
100
AcDbDictionary
280
0
281
1
  3
ACAD_GROUP
350
D
  3
ACAD_MLINESTYLE
350
17
  3
ACAD_LAYOUT
350
1A
  3
ACAD_PLOTSETTINGS
350
19
  3
ACAD_PLOTSTYLENAME
350
E
  0
DICTIONARY
  5
D
102
{ACAD_REACTORS
330
C
102
}
100
AcDbDictionary
280
0
281
1
  0
ACDBDICTIONARYWDFLT
  5
E
102
{ACAD_REACTORS
330
C
102
}
100
AcDbDictionary
281
1
  3
Normal
350
F
100
AcDbDictionaryWithDefault
340
F
  0
DICTIONARY
  5
17
102
{ACAD_REACTORS
330
C
102
}
100
AcDbDictionary
280
0
281
1
  3
Standard
350
18
  0
DICTIONARY
  5
19
102
{ACAD_REACTORS
330
C
102
}
100
AcDbDictionary
281
1
  0
DICTIONARY
  5
1A
102
{ACAD_REACTORS
330
C
102
}
100
AcDbDictionary
281
1
  3
Model
350
473
  3
Layout1
350
474
  0
ACDBPLACEHOLDER
  5
F
102
{ACAD_REACTORS
330
E
102
}
  0
MLINESTYLE
  5
18
102
{ACAD_REACTORS
330
17
102
}
100
AcDbMlineStyle
  2
STANDARD
 70
0
  3

 62
256
 51
90.0
 52
90.0
 71
2
 49
0.5
 62
256
  6
BYLAYER
 49
-0.5
 62
256
  6
BYLAYER
  0
LAYOUT
  5
473
102
{ACAD_REACTORS
330
1A
102
}
100
AcDbPlotSettings
  1

  2
none_device
  4
ISO_A4_(297.00_x_210.00_MM)
  6

 40
0.0
 41
0.0
 42
0.0
 43
0.0
 44
297.0
 45
210.0
 46
0.0
 47
0.0
 48
0.0
 49
0.0
140
0.0
141
0.0
142
1.0
143
1.0
 70
1024
 72
1
 73
0
 74
0
  7

 75
0
147
1.0
148
0.0
149
0.0
100
AcDbLayout
  1
Model
 70
0
 71
0
 10
0.0
 20
0.0
 11
297.0
 21
210.0
 12
0.0
 22
0.0
 32
0.0
 14
0.0
 24
0.0
 34
0.0
 15
0.0
 25
0.0
 35
0.0
146
0.0
 13
0.0
 23
0.0
 33
0.0
 16
1.0
 26
0.0
 36
0.0
 17
0.0
 27
1.0
 37
0.0
 76
0
330
216
345
0
346
0
  0
LAYOUT
  5
474
102
{ACAD_REACTORS
330
1A
102
}
100
AcDbPlotSettings
  1

  2
none_device
  4
ISO_A4_(297.00_x_210.00_MM)
  6

 40
0.0
 41
0.0
 42
0.0
 43
0.0
 44
297.0
 45
210.0
 46
0.0
 47
0.0
 48
0.0
 49
0.0
140
0.0
141
0.0
142
1.0
143
1.0
 70
0
 72
1
 73
0
 74
0
  7

 75
0
147
1.0
148
0.0
149
0.0
100
AcDbLayout
  1
Layout1
 70
0
 71
1
 10
0.0
 20
0.0
 11
297.0
 21
210.0
 12
0.0
 22
0.0
 32
0.0
 14
0.0
 24
0.0
 34
0.0
 15
0.0
 25
0.0
 35
0.0
146
0.0
 13
0.0
 23
0.0
 33
0.0
 16
1.0
 26
0.0
 36
0.0
 17
0.0
 27
1.0
 37
0.0
 76
0
330
217
345
0
346
0
  0
ENDSEC
  0
EOF
