  0
SECTION
  2
HEADER
  9
$ACADVER
  1
AC1024
  9
$DWGCODEPAGE
  3
ANSI_1252
  9
$EXTMAX
 10
841.0
 20
594.0
 30
0.0
  9
$EXTMIN
 10
0.0
 20
0.0
 30
0.0
  9
$LIMMIN
 10
0.0
 20
0.0
  9
$LIMMAX
 10
841.0
 20
594.0
  9
$VIEWCTR
 10
420.5
 20
297.0
  9
$VIEWSIZE
 40
594.0
  9
$CLAYER
  8
0
  9
$LTSCALE
 40
46.255
  9
$CELTYPE
  6
BYLAYER
  9
$DIMSCALE
 40
1.0
  9
$DIMASZ
 40
3.0
  9
$DIMEXO
 40
0.5
  9
$DIMDLI
 40
31.958
  9
$DIMEXE
 40
1.5
  9
$DIMCEN
 40
7.569
  9
$DIMLFAC
 40
1.0
  9
$DIMBLK
  1
_FILLED
  9
$DIMALT
 70
0
  9
$DIMALTF
 40
0.0393700787
  9
$DIMTXT
 40
3.0
  9
$DIMTOL
 70
1
  9
$DIMLIM
 70
0
  9
$DIMTFAC
 40
1.0
  9
$DIMTP
 40
0.01
  9
$DIMTM
 40
0.01
  9
$DIMGAP
 40
0.625
  9
$DIMDSEP
 70
44
  9
$AUNITS
 70
0
  9
$PDMODE
 70
3
  9
$PDSIZE
 40
3.0
  9
$HANDSEED
  5
40C
  9
$TILEMODE
 70
1
  9
$MEASUREMENT
 70
1
  9
$INSUNITS
 70
4
  0
ENDSEC
  0
SECTION
  2
CLASSES
  0
CLASS
  1
ACDBDICTIONARYWDFLT
  2
AcDbDictionaryWithDefault
  3
AutoCAD 2000
 90
0
 91
1
280
0
281
0
  0
CLASS
  1
ACDBPLACEHOLDER
  2
AcDbPlaceHolder
  3
AutoCAD 2000
 90
0
 91
1
280
0
281
0
  0
CLASS
  1
LAYOUT
  2
AcDbLayout
  3
AutoCAD 2000
 90
0
 91
0
280
0
281
0
  0
ENDSEC
  0
SECTION
  2
TABLES
  0
TABLE
  2
VPORT
  5
8
100
AcDbSymbolTable
 70
2
  0
VPORT
  5
1F4
100
AcDbSymbolTableRecord
100
AcDbViewportTableRecord
  2
*ACTIVE
 70
0
 10
0.0
 20
0.0
 11
1.0
 21
1.0
 12
420.5
 22
297.0
 13
0.0
 23
0.0
 14
1.0
 24
1.0
 15
0.0
 25
0.0
 16
0.0
 26
0.0
 36
1.0
 17
0.0
 27
0.0
 37
0.0
 40
594.0
 41
1.4158249158
 42
50.0
 43
0.0
 44
0.0
 50
0.0
 51
0.0
 71
0
 72
100
 73
1
 74
1
 75
0
 76
0
 77
0
 78
0
  0
ENDTAB
  0
TABLE
  2
LTYPE
  5
5
100
AcDbSymbolTable
 70
6
  0
LTYPE
  5
14
100
AcDbSymbolTableRecord
100
AcDbLinetypeTableRecord
  2
BYBLOCK
 70
0
  3

 72
65
 73
0
 40
0.0
  0
LTYPE
  5
15
100
AcDbSymbolTableRecord
100
AcDbLinetypeTableRecord
  2
BYLAYER
 70
0
  3

 72
65
 73
0
 40
0.0
  0
LTYPE
  5
16
100
AcDbSymbolTableRecord
100
AcDbLinetypeTableRecord
  2
CONTINUOUS
 70
64
  3
Solid line
 72
65
 73
0
 40
0.0
  0
LTYPE
  5
1F5
100
AcDbSymbolTableRecord
100
AcDbLinetypeTableRecord
  2
CENTER
 70
64
  3
____ _ ____ _ ____ _ ____ _ ____ _ ____ _ ____
 72
65
 73
4
 40
0.6
 49
0.375
 74
0
 49
-0.075
 74
0
 49
0.075
 74
0
 49
-0.075
 74
0
  0
LTYPE
  5
1F6
100
AcDbSymbolTableRecord
100
AcDbLinetypeTableRecord
  2
HIDDEN
 70
64
  3
- - - - - - - - - - - - - - - - - - - -
 72
65
 73
2
 40
0.2
 49
0.1
 74
0
 49
-0.1
 74
0
  0
LTYPE
  5
1F7
100
AcDbSymbolTableRecord
100
AcDbLinetypeTableRecord
  2
PHANTOM
 70
64
  3
_____ _ _ _____ _ _ _____ _ _ _____
 72
65
 73
6
 40
0.8
 49
0.45
 74
0
 49
-0.05
 74
0
 49
0.1
 74
0
 49
-0.05
 74
0
 49
0.1
 74
0
 49
-0.05
 74
0
  0
LTYPE
  5
1F8
100
AcDbSymbolTableRecord
100
AcDbLinetypeTableRecord
  2
DOT
 70
64
  3
. . . . . . . . . . . . . . . . . . . .
 72
65
 73
2
 40
0.2
 49
0.1
 74
0
 49
-0.1
 74
0
  0
LTYPE
  5
1F9
100
AcDbSymbolTableRecord
100
AcDbLinetypeTableRecord
  2
DASHED
 70
64
  3
- - - - - - - - - - - - - - - - - - - -
 72
65
 73
2
 40
0.2
 49
0.1
 74
0
 49
-0.1
 74
0
  0
ENDTAB
  0
TABLE
  2
LAYER
  5
2
100
AcDbSymbolTable
 70
36
  0
LAYER
  5
10
100
AcDbSymbolTableRecord
100
AcDbLayerTableRecord
  2
0
 70
0
 62
7
  6
CONTINUOUS
370
-3
390
F
  0
LAYER
  5
1FA
100
AcDbSymbolTableRecord
100
AcDbLayerTableRecord
  2
DEFAULT_1
 70
0
 62
7
  6
CENTER
370
-3
390
F
  0
LAYER
  5
1FB
100
AcDbSymbolTableRecord
100
AcDbLayerTableRecord
  2
DEFAULT_2
 70
0
 62
7
  6
HIDDEN
370
-3
390
F
  0
LAYER
  5
1FC
100
AcDbSymbolTableRecord
100
AcDbLayerTableRecord
  2
DEFAULT_3
 70
0
 62
7
  6
PHANTOM
370
-3
390
F
  0
LAYER
  5
1FD
100
AcDbSymbolTableRecord
100
AcDbLayerTableRecord
  2
ASSI
 70
0
 62
7
  6
CONTINUOUS
370
-3
390
F
  0
LAYER
  5
1FE
100
AcDbSymbolTableRecord
100
AcDbLayerTableRecord
  2
CLOSED_SHELL
 70
0
 62
7
  6
CONTINUOUS
370
-3
390
F
  0
LAYER
  5
1FF
100
AcDbSymbolTableRecord
100
AcDbLayerTableRecord
  2
COORDINATE
 70
0
 62
7
  6
CONTINUOUS
370
-3
390
F
  0
LAYER
  5
200
100
AcDbSymbolTableRecord
100
AcDbLayerTableRecord
  2
COPY_PUBLISH
 70
0
 62
7
  6
CONTINUOUS
370
-3
390
F
  0
LAYER
  5
201
100
AcDbSymbolTableRecord
100
AcDbLayerTableRecord
  2
COSMETICI
 70
0
 62
7
  6
CONTINUOUS
370
-3
390
F
  0
LAYER
  5
202
100
AcDbSymbolTableRecord
100
AcDbLayerTableRecord
  2
CURVE
 70
0
 62
7
  6
CONTINUOUS
370
-3
390
F
  0
LAYER
  5
203
100
AcDbSymbolTableRecord
100
AcDbLayerTableRecord
  2
DRAFT
 70
0
 62
7
  6
CONTINUOUS
370
-3
390
F
  0
LAYER
  5
204
100
AcDbSymbolTableRecord
100
AcDbLayerTableRecord
  2
GENERAL
 70
0
 62
7
  6
CONTINUOUS
370
-3
390
F
  0
LAYER
  5
205
100
AcDbSymbolTableRecord
100
AcDbLayerTableRecord
  2
IMPORT_IGES
 70
0
 62
7
  6
CONTINUOUS
370
-3
390
F
  0
LAYER
  5
206
100
AcDbSymbolTableRecord
100
AcDbLayerTableRecord
  2
NOTE
 70
0
 62
7
  6
CONTINUOUS
370
-3
390
F
  0
LAYER
  5
207
100
AcDbSymbolTableRecord
100
AcDbLayerTableRecord
  2
PIANI
 70
0
 62
7
  6
CONTINUOUS
370
-3
390
F
  0
LAYER
  5
208
100
AcDbSymbolTableRecord
100
AcDbLayerTableRecord
  2
PUNTI
 70
0
 62
7
  6
CONTINUOUS
370
-3
390
F
  0
LAYER
  5
209
100
AcDbSymbolTableRecord
100
AcDbLayerTableRecord
  2
RACCORDO
 70
0
 62
7
  6
CONTINUOUS
370
-3
390
F
  0
LAYER
  5
20A
100
AcDbSymbolTableRecord
100
AcDbLayerTableRecord
  2
SIMBOLI
 70
0
 62
7
  6
CONTINUOUS
370
-3
390
F
  0
LAYER
  5
20B
100
AcDbSymbolTableRecord
100
AcDbLayerTableRecord
  2
SMUSSO
 70
0
 62
7
  6
CONTINUOUS
370
-3
390
F
  0
LAYER
  5
20C
100
AcDbSymbolTableRecord
100
AcDbLayerTableRecord
  2
SUPERFICI
 70
0
 62
7
  6
CONTINUOUS
370
-3
390
F
  0
LAYER
  5
20D
100
AcDbSymbolTableRecord
100
AcDbLayerTableRecord
  2
TRASH
 70
0
 62
7
  6
CONTINUOUS
370
-3
390
F
  0
ENDTAB
  0
TABLE
  2
STYLE
  5
3
100
AcDbSymbolTable
 70
1
  0
STYLE
  5
11
100
AcDbSymbolTableRecord
100
AcDbTextStyleTableRecord
  2
STANDARD
 70
0
 40
0.0
 41
0.8
 50
0.0
 71
0
 42
0.2
  3
txt
  4

  0
STYLE
  5
20E
100
AcDbSymbolTableRecord
100
AcDbTextStyleTableRecord
  2
TEXTSTYLE_1
 70
0
 40
0.0
 41
0.8
 50
0.0
 71
0
 42
0.2
  3
gdt
  4

  0
ENDTAB
  0
TABLE
  2
VIEW
  5
6
100
AcDbSymbolTable
 70
0
  0
ENDTAB
  0
TABLE
  2
UCS
  5
7
100
AcDbSymbolTable
 70
0
  0
ENDTAB
  0
TABLE
  2
APPID
  5
9
100
AcDbSymbolTable
 70
1
  0
APPID
  5
20F
100
AcDbSymbolTableRecord
100
AcDbRegAppTableRecord
  2
ACAD
 70
0
  0
ENDTAB
  0
TABLE
  2
BLOCK_RECORD
  5
1
100
AcDbSymbolTable
 70
0
  0
BLOCK_RECORD
  5
210
100
AcDbSymbolTableRecord
100
AcDbBlockTableRecord
  2
*Model_Space
  0
BLOCK_RECORD
  5
211
100
AcDbSymbolTableRecord
100
AcDbBlockTableRecord
  2
*Paper_Space
  0
BLOCK_RECORD
  5
212
100
AcDbSymbolTableRecord
100
AcDbBlockTableRecord
  2
_FILLED
  0
ENDTAB
  0
TABLE
  2
DIMSTYLE
  5
A
100
AcDbSymbolTable
 70
1
100
AcDbDimStyleTable
 71
0
  0
DIMSTYLE
105
213
100
AcDbSymbolTableRecord
100
AcDbDimStyleTableRecord
  2
STANDARD
 70
0
  3

  4

 40
1.0
 41
3.0
 42
0.5
 43
0.38
 44
1.5
 45
0.0
 46
0.0
 47
0.01
 48
0.01
140
3.0
141
0.09
142
0.0
143
25.4
144
1.0
145
0.0
146
1.0
147
0.625
 71
1
 72
0
 73
0
 74
0
 75
0
 76
0
 77
1
 78
8
 79
2
170
0
171
1
172
0
173
0
174
0
175
0
176
0
177
0
178
0
270
2
179
2
271
2
272
2
273
2
274
2
275
0
280
0
281
0
282
0
283
1
284
8
285
0
286
0
287
3
288
0
340
11
278
44
341
212
342
212
343
212
344
212
  0
ENDTAB
  0
ENDSEC
  0
SECTION
  2
BLOCKS
  0
BLOCK
  5
20
100
AcDbEntity
  8
0
100
AcDbBlockBegin
  2
*Model_Space
 70
0
 10
0.0
 20
0.0
 30
0.0
  3
*Model_Space
  1

  0
ENDBLK
  5
21
100
AcDbEntity
  8
0
100
AcDbBlockEnd
  0
BLOCK
  5
1C
100
AcDbEntity
  8
0
100
AcDbBlockBegin
  2
*Paper_Space
 70
0
 10
0.0
 20
0.0
 30
0.0
  3
*Paper_Space
  1

  0
ENDBLK
  5
1D
100
AcDbEntity
  8
0
100
AcDbBlockEnd
  0
BLOCK
  5
214
100
AcDbEntity
  8
0
100
AcDbBlockBegin
  2
_FILLED
 70
64
 10
0.0
 20
0.0
  3
_FILLED
  1

  0
SOLID
  5
215
100
AcDbEntity
  8
0
  6
BYBLOCK
 62
0
100
AcDbTrace
 10
0.0
 20
0.0
 11
-1.0
 21
0.3166666667
 12
-1.0
 22
-0.3166666667
 13
-1.0
 23
-0.3166666667
  0
ENDBLK
  5
216
100
AcDbEntity
  8
0
  6
BYBLOCK
 62
0
100
AcDbBlockEnd
  0
ENDSEC
  0
SECTION
  2
ENTITIES
  0
LWPOLYLINE
  5
217
100
AcDbEntity
  8
0
100
AcDbPolyline
 62
7
  6
CONTINUOUS
 90
16
 70
0
 10
274.2806673077
 20
153.4067555494
 10
274.2799780513
 20
153.4073155381
 10
274.2790275038
 20
153.4099281783
 10
274.2776582796
 20
153.4174671236
 10
274.2758423873
 20
153.4344620609
 10
274.2735943588
 20
153.4669835784
 10
274.2709686869
 20
153.5222753064
 10
274.2680677964
 20
153.6080143032
 10
274.2675639599
 20
153.6259146848
 10
274.2645388698
 20
153.7561653701
 10
274.2626183648
 20
153.8643166125
 10
274.2603097161
 20
154.0338647366
 10
274.2585158381
 20
154.2170680706
 10
274.2572407252
 20
154.4094029158
 10
274.2564813262
 20
154.6069881998
 10
274.2562302161
 20
154.8067555494
  0
LWPOLYLINE
  5
218
100
AcDbEntity
  8
0
100
AcDbPolyline
 62
7
  6
CONTINUOUS
 90
16
 70
0
 10
274.2806662959
 20
415.1979495973
 10
274.2799750811
 20
415.1973881241
 10
274.2790219768
 20
415.1947738272
 10
274.2776487908
 20
415.1872307902
 10
274.275825655
 20
415.1702011449
 10
274.2736314858
 20
415.1386737863
 10
274.270993359
 20
415.0835818266
 10
274.2680670001
 20
414.9974772616
 10
274.2650097544
 20
414.8727571801
 10
274.2639065669
 20
414.8166660486
 10
274.2613316481
 20
414.6538922677
 10
274.259319683
 20
414.4791235489
 10
274.257721723
 20
414.2794007429
 10
274.256688791
 20
414.067817684
 10
274.2562468433
 20
413.8495878672
 10
274.2562301801
 20
411.8979556994
  0
LWPOLYLINE
  5
219
100
AcDbEntity
  8
0
100
AcDbPolyline
 62
7
  6
CONTINUOUS
 90
16
 70
0
 10
274.2806683181
 20
410.4979621005
 10
274.2813595329
 20
410.4985235731
 10
274.282312637
 20
410.5011378686
 10
274.2836858228
 20
410.5086809023
 10
274.2855089583
 20
410.5257105418
 10
274.2877031284
 20
410.5572379103
 10
274.2903412552
 20
410.6123298704
 10
274.2932676141
 20
410.6984344362
 10
274.2963248599
 20
410.8231545206
 10
274.2974280474
 20
410.8792456495
 10
274.3000029662
 20
411.0420194307
 10
274.3020149312
 20
411.2167881467
 10
274.3036128913
 20
411.4165109542
 10
274.3046458232
 20
411.6280940146
 10
274.3050877709
 20
411.8463238312
 10
274.3051041801
 20
413.7979556994
  0
LWPOLYLINE
  5
21A
100
AcDbEntity
  8
0
100
AcDbPolyline
 62
7
  6
CONTINUOUS
 90
16
 70
0
 10
274.2806673079
 20
158.1067555494
 10
274.2813565644
 20
158.1061955608
 10
274.2823071119
 20
158.1035829206
 10
274.2836763362
 20
158.0960439759
 10
274.2854922284
 20
158.0790490401
 10
274.2877402569
 20
158.0465275258
 10
274.2903659287
 20
157.9912358038
 10
274.293266819
 20
157.9054968166
 10
274.2937706561
 20
157.8875964144
 10
274.2967957459
 20
157.7573457354
 10
274.2987162507
 20
157.6491944867
 10
274.3010248991
 20
157.4796463626
 10
274.3028187766
 20
157.2964430285
 10
274.3040938892
 20
157.1041081832
 10
274.3048532879
 20
156.9065228991
 10
274.3051043979
 20
156.7067555494
  0
LWPOLYLINE
  5
21B
100
AcDbEntity
  8
0
100
AcDbPolyline
 62
7
  6
CONTINUOUS
 90
16
 70
0
 10
274.2562302162
 20
411.89795585
 10
274.256503274
 20
411.6893192665
 10
274.2573712902
 20
411.4753238421
 10
274.2588131939
 20
411.2717452342
 10
274.2607928318
 20
411.083591493
 10
274.2614336209
 20
411.0345668467
 10
274.2640279118
 20
410.8727847598
 10
274.2670317559
 20
410.7362273512
 10
274.2700229162
 20
410.6377605076
 10
274.2727729369
 20
410.5730207527
 10
274.27357024
 20
410.5582977672
 10
274.2758304648
 20
410.5256558068
 10
274.2776526412
 20
410.5086547646
 10
274.2790248559
 20
410.5011276781
 10
274.2799771023
 20
410.4985207225
 10
274.2806683181
 20
410.4979621005
  0
LWPOLYLINE
  5
21C
100
AcDbEntity
  8
0
100
AcDbPolyline
 62
7
  6
CONTINUOUS
 90
16
 70
0
 10
274.305104398
 20
413.7979558503
 10
274.3048313402
 20
414.006592424
 10
274.3039633241
 20
414.2205878517
 10
274.3025214203
 20
414.4241664629
 10
274.3005417824
 20
414.6123202054
 10
274.2999009933
 20
414.6613448494
 10
274.2973067025
 20
414.8231269375
 10
274.2943028583
 20
414.9596843476
 10
274.2913116981
 20
415.058151191
 10
274.2885616774
 20
415.1228909457
 10
274.2877643732
 20
415.1376139493
 10
274.2855041486
 20
415.1702559015
 10
274.2836819723
 20
415.1872569384
 10
274.2823097579
 20
415.1947840217
 10
274.2813575117
 20
415.1973909759
 10
274.2806662959
 20
415.1979495973
  0
LINE
  5
21D
100
AcDbEntity
  8
0
100
AcDbLine
 62
7
  6
CONTINUOUS
 10
261.4115801801
 20
139.6023556994
 11
261.4115801801
 21
429.0023556994
  0
LINE
  5
21E
100
AcDbEntity
  8
0
100
AcDbLine
 62
7
  6
CONTINUOUS
 10
274.2457571801
 20
144.4365326994
 11
274.2457571801
 21
424.1681786994
  0
LINE
  5
21F
100
AcDbEntity
  8
0
100
AcDbLine
 62
7
  6
CONTINUOUS
 10
274.4115801801
 20
144.6023556994
 11
274.4115801801
 21
424.0023556994
  0
LINE
  5
220
100
AcDbEntity
  8
0
100
AcDbLine
 62
7
  6
CONTINUOUS
 10
274.6384961801
 20
423.7754396994
 11
274.6384961801
 21
144.8292716994
  0
LINE
  5
221
100
AcDbEntity
  8
0
100
AcDbLine
 62
7
  6
CONTINUOUS
 10
274.8881031801
 20
145.0788786994
 11
274.8881031801
 21
423.5258326994
  0
LINE
  5
222
100
AcDbEntity
  8
0
100
AcDbLine
 62
7
  6
CONTINUOUS
 10
275.6350571801
 20
422.7788786994
 11
275.6350571801
 21
145.8258326994
  0
LINE
  5
223
100
AcDbEntity
  8
0
100
AcDbLine
 62
7
  6
CONTINUOUS
 10
275.8178921801
 20
246.3167626994
 11
275.8178921801
 21
322.2879486994
  0
LINE
  5
224
100
AcDbEntity
  8
0
100
AcDbLine
 62
7
  6
CONTINUOUS
 10
275.8322991801
 20
246.3023556994
 11
275.8322991801
 21
235.3023556994
  0
LINE
  5
225
100
AcDbEntity
  8
0
100
AcDbLine
 62
7
  6
CONTINUOUS
 10
275.8322991801
 20
322.3023556994
 11
275.8322991801
 21
333.3023556994
  0
LINE
  5
226
100
AcDbEntity
  8
0
100
AcDbLine
 62
7
  6
CONTINUOUS
 10
275.8846641801
 20
235.2499906994
 11
275.8846641801
 21
146.0754396994
  0
LINE
  5
227
100
AcDbEntity
  8
0
100
AcDbLine
 62
7
  6
CONTINUOUS
 10
275.8846641801
 20
333.3547206994
 11
275.8846641801
 21
422.5292716994
  0
LWPOLYLINE
  5
228
100
AcDbEntity
  8
0
100
AcDbPolyline
 62
7
  6
CONTINUOUS
 90
16
 70
0
 10
274.2562301801
 20
154.8067556994
 10
274.2562839141
 20
156.7993496686
 10
274.2567692783
 20
156.9981097113
 10
274.2577689503
 20
157.1937944183
 10
274.259290062
 20
157.3828834297
 10
274.2613322917
 20
157.5609484819
 10
274.2638850039
 20
157.7229288698
 10
274.2669006035
 20
157.8624757045
 10
274.2698713615
 20
157.9620817356
 10
274.2709688867
 20
157.9912451664
 10
274.2735941618
 20
158.0465295956
 10
274.2758421741
 20
158.079049479
 10
274.2776581742
 20
158.0960441437
 10
274.2790274749
 20
158.1035829799
 10
274.2799780504
 20
158.1061955727
 10
274.2806673079
 20
158.1067555494
  0
LWPOLYLINE
  5
229
100
AcDbEntity
  8
0
100
AcDbPolyline
 62
7
  6
CONTINUOUS
 90
16
 70
0
 10
274.3051041801
 20
156.7067556994
 10
274.305050699
 20
154.7141614515
 10
274.3045653349
 20
154.5154014087
 10
274.3035656631
 20
154.3197167014
 10
274.3020445515
 20
154.1306276891
 10
274.3000023221
 20
153.9525626356
 10
274.2974496102
 20
153.7905822457
 10
274.2944340109
 20
153.6510354002
 10
274.2914632531
 20
153.5514293634
 10
274.2903657285
 20
153.5222659436
 10
274.2877404534
 20
153.4669815084
 10
274.2854924413
 20
153.4344616219
 10
274.2836764412
 20
153.4174669558
 10
274.2823071406
 20
153.409928119
 10
274.2813565651
 20
153.4073155261
 10
274.2806673077
 20
153.4067555494
  0
LINE
  5
22A
100
AcDbEntity
  8
0
100
AcDbLine
 62
7
  6
CONTINUOUS
 10
413.6179601801
 20
152.0023556994
 11
415.6179601801
 21
152.0241856994
  0
LINE
  5
22B
100
AcDbEntity
  8
0
100
AcDbLine
 62
7
  6
CONTINUOUS
 10
563.8139801801
 20
131.6023556994
 11
269.4115801801
 21
131.6023556994
  0
LINE
  5
22C
100
AcDbEntity
  8
0
100
AcDbLine
 62
7
  6
CONTINUOUS
 10
558.9798031801
 20
144.4365326994
 11
274.2457571801
 21
144.4365326994
  0
LINE
  5
22D
100
AcDbEntity
  8
0
100
AcDbLine
 62
7
  6
CONTINUOUS
 10
558.8139801801
 20
144.6023556994
 11
274.4115801801
 21
144.6023556994
  0
LINE
  5
22E
100
AcDbEntity
  8
0
100
AcDbLine
 62
7
  6
CONTINUOUS
 10
274.6384961801
 20
144.8292716994
 11
558.5870641801
 21
144.8292716994
  0
LINE
  5
22F
100
AcDbEntity
  8
0
100
AcDbLine
 62
7
  6
CONTINUOUS
 10
274.8881031801
 20
145.0788786994
 11
558.3374571801
 21
145.0788786994
  0
LINE
  5
230
100
AcDbEntity
  8
0
100
AcDbLine
 62
7
  6
CONTINUOUS
 10
275.6350571801
 20
145.8258326994
 11
557.5905031801
 21
145.8258326994
  0
LINE
  5
231
100
AcDbEntity
  8
0
100
AcDbLine
 62
7
  6
CONTINUOUS
 10
275.8846641801
 20
146.0754396994
 11
557.3408961801
 21
146.0754396994
  0
LINE
  5
232
100
AcDbEntity
  8
0
100
AcDbLine
 62
7
  6
CONTINUOUS
 10
393.6127801801
 20
151.1920136994
 11
380.6127801801
 21
151.1920136994
  0
LINE
  5
233
100
AcDbEntity
  8
0
100
AcDbLine
 62
7
  6
CONTINUOUS
 10
439.6127801801
 20
151.1920136994
 11
452.6127801801
 21
151.1920136994
  0
LINE
  5
234
100
AcDbEntity
  8
0
100
AcDbLine
 62
7
  6
CONTINUOUS
 10
413.0002221801
 20
151.9324146994
 11
420.2256901801
 21
151.9324146994
  0
LINE
  5
235
100
AcDbEntity
  8
0
100
AcDbLine
 62
7
  6
CONTINUOUS
 10
413.0254781801
 20
152.0023556994
 11
413.6179601801
 21
152.0023556994
  0
LINE
  5
236
100
AcDbEntity
  8
0
100
AcDbLine
 62
7
  6
CONTINUOUS
 10
419.6079521801
 20
152.0023556994
 11
420.2004341801
 21
152.0023556994
  0
LINE
  5
237
100
AcDbEntity
  8
0
100
AcDbLine
 62
7
  6
CONTINUOUS
 10
415.6179601801
 20
152.0241856994
 11
419.6079521801
 21
152.0241856994
  0
LINE
  5
238
100
AcDbEntity
  8
0
100
AcDbLine
 62
7
  6
CONTINUOUS
 10
482.6127801801
 20
152.3023556994
 11
475.6127801801
 21
152.3023556994
  0
LINE
  5
239
100
AcDbEntity
  8
0
100
AcDbLine
 62
7
  6
CONTINUOUS
 10
357.6127801801
 20
152.3023556994
 11
350.6127801801
 21
152.3023556994
  0
LINE
  5
23A
100
AcDbEntity
  8
0
100
AcDbLine
 62
7
  6
CONTINUOUS
 10
454.9466631801
 20
152.3070586994
 11
437.2789131801
 21
152.3070586994
  0
LINE
  5
23B
100
AcDbEntity
  8
0
100
AcDbLine
 62
7
  6
CONTINUOUS
 10
378.2789131801
 20
152.3070586994
 11
395.9466631801
 21
152.3070586994
  0
LINE
  5
23C
100
AcDbEntity
  8
0
100
AcDbLine
 62
7
  6
CONTINUOUS
 10
377.8708741801
 20
152.9746616994
 11
396.3546901801
 21
152.9746616994
  0
LINE
  5
23D
100
AcDbEntity
  8
0
100
AcDbLine
 62
7
  6
CONTINUOUS
 10
436.8708751801
 20
152.9746616994
 11
455.3546901801
 21
152.9746616994
  0
LINE
  5
23E
100
AcDbEntity
  8
0
100
AcDbLine
 62
7
  6
CONTINUOUS
 10
419.6079521801
 20
153.4805256994
 11
415.6179601801
 21
153.4805256994
  0
LINE
  5
23F
100
AcDbEntity
  8
0
100
AcDbLine
 62
7
  6
CONTINUOUS
 10
413.6179601801
 20
153.5023556994
 11
419.6079521801
 21
153.5023556994
  0
LINE
  5
240
100
AcDbEntity
  8
0
100
AcDbLine
 62
7
  6
CONTINUOUS
 10
419.4072421801
 20
153.7572276994
 11
413.8183181801
 21
153.7572276994
  0
LINE
  5
241
100
AcDbEntity
  8
0
100
AcDbLine
 62
7
  6
CONTINUOUS
 10
413.6179601801
 20
153.5023556994
 11
415.6179601801
 21
153.4805256994
  0
LINE
  5
242
100
AcDbEntity
  8
0
100
AcDbLine
 62
7
  6
CONTINUOUS
 10
275.8846641801
 20
235.2499906994
 11
275.8322991801
 21
235.3023556994
  0
LINE
  5
243
100
AcDbEntity
  8
0
100
AcDbLine
 62
7
  6
CONTINUOUS
 10
291.1480091801
 20
346.3023556994
 11
290.0220141801
 21
357.3023556994
  0
LINE
  5
244
100
AcDbEntity
  8
0
100
AcDbLine
 62
7
  6
CONTINUOUS
 10
294.6492091801
 20
346.3023556994
 11
293.5232141801
 21
357.3023556994
  0
LINE
  5
245
100
AcDbEntity
  8
0
100
AcDbLine
 62
7
  6
CONTINUOUS
 10
288.7519971801
 20
399.3023556994
 11
288.7519971801
 21
333.3547206994
  0
LINE
  5
246
100
AcDbEntity
  8
0
100
AcDbLine
 62
7
  6
CONTINUOUS
 10
288.7519971801
 20
169.3023556994
 11
288.7519971801
 21
235.2499906994
  0
LINE
  5
247
100
AcDbEntity
  8
0
100
AcDbLine
 62
7
  6
CONTINUOUS
 10
288.8305551801
 20
246.3023556994
 11
288.8305551801
 21
235.3023556994
  0
LINE
  5
248
100
AcDbEntity
  8
0
100
AcDbLine
 62
7
  6
CONTINUOUS
 10
288.8305551801
 20
322.3023556994
 11
288.8305551801
 21
333.3023556994
  0
LINE
  5
249
100
AcDbEntity
  8
0
100
AcDbLine
 62
7
  6
CONTINUOUS
 10
289.8518061801
 20
321.6216076994
 11
289.8518061801
 21
246.9831036994
  0
LINE
  5
24A
100
AcDbEntity
  8
0
100
AcDbLine
 62
7
  6
CONTINUOUS
 10
290.0220141801
 20
211.3023556994
 11
290.0220141801
 21
176.3023556994
  0
LINE
  5
24B
100
AcDbEntity
  8
0
100
AcDbLine
 62
7
  6
CONTINUOUS
 10
290.0220141801
 20
357.3023556994
 11
290.0220141801
 21
392.3023556994
  0
LINE
  5
24C
100
AcDbEntity
  8
0
100
AcDbLine
 62
7
  6
CONTINUOUS
 10
291.1480091801
 20
222.3023556994
 11
291.1480091801
 21
346.3023556994
  0
LINE
  5
24D
100
AcDbEntity
  8
0
100
AcDbLine
 62
7
  6
CONTINUOUS
 10
292.2531971801
 20
169.3023556994
 11
292.2531971801
 21
158.9427726994
  0
LINE
  5
24E
100
AcDbEntity
  8
0
100
AcDbLine
 62
7
  6
CONTINUOUS
 10
292.2531971801
 20
399.3023556994
 11
292.2531971801
 21
409.6619386994
  0
LINE
  5
24F
100
AcDbEntity
  8
0
100
AcDbLine
 62
7
  6
CONTINUOUS
 10
293.5232141801
 20
211.3023556994
 11
293.5232141801
 21
176.3023556994
  0
LINE
  5
250
100
AcDbEntity
  8
0
100
AcDbLine
 62
7
  6
CONTINUOUS
 10
293.5232141801
 20
357.3023556994
 11
293.5232141801
 21
392.3023556994
  0
LINE
  5
251
100
AcDbEntity
  8
0
100
AcDbLine
 62
7
  6
CONTINUOUS
 10
294.6492091801
 20
222.3023556994
 11
294.6492091801
 21
161.3387846994
  0
LINE
  5
252
100
AcDbEntity
  8
0
100
AcDbLine
 62
7
  6
CONTINUOUS
 10
294.6492091801
 20
346.3023556994
 11
294.6492091801
 21
407.2659266994
  0
LINE
  5
253
100
AcDbEntity
  8
0
100
AcDbLine
 62
7
  6
CONTINUOUS
 10
291.1480091801
 20
222.3023556994
 11
290.0220141801
 21
211.3023556994
  0
LINE
  5
254
100
AcDbEntity
  8
0
100
AcDbLine
 62
7
  6
CONTINUOUS
 10
294.6492091801
 20
222.3023556994
 11
293.5232141801
 21
211.3023556994
  0
LINE
  5
255
100
AcDbEntity
  8
0
100
AcDbLine
 62
7
  6
CONTINUOUS
 10
275.8846641801
 20
333.3547206994
 11
275.8322991801
 21
333.3023556994
  0
LINE
  5
256
100
AcDbEntity
  8
0
100
AcDbLine
 62
7
  6
CONTINUOUS
 10
275.8322991801
 20
322.3023556994
 11
275.8178921801
 21
322.2879486994
  0
LINE
  5
257
100
AcDbEntity
  8
0
100
AcDbLine
 62
7
  6
CONTINUOUS
 10
419.6079521801
 20
160.6023556994
 11
417.6079521801
 21
160.5805256994
  0
LINE
  5
258
100
AcDbEntity
  8
0
100
AcDbLine
 62
7
  6
CONTINUOUS
 10
358.6127881801
 20
154.2572276994
 11
349.6127881801
 21
154.2572276994
  0
LINE
  5
259
100
AcDbEntity
  8
0
100
AcDbLine
 62
7
  6
CONTINUOUS
 10
474.6127881801
 20
154.2572276994
 11
483.6127881801
 21
154.2572276994
  0
LINE
  5
25A
100
AcDbEntity
  8
0
100
AcDbLine
 62
7
  6
CONTINUOUS
 10
377.6127741801
 20
154.4689536994
 11
396.6127291801
 21
154.4689536994
  0
LINE
  5
25B
100
AcDbEntity
  8
0
100
AcDbLine
 62
7
  6
CONTINUOUS
 10
436.6127811801
 20
154.4689536994
 11
455.6127811801
 21
154.4689536994
  0
LINE
  5
25C
100
AcDbEntity
  8
DEFAULT_1
100
AcDbLine
 62
7
  6
CENTER
 10
274.2478501801
 20
154.8067506994
 11
274.2562301801
 21
154.8067556994
  0
LINE
  5
25D
100
AcDbEntity
  8
DEFAULT_1
100
AcDbLine
 62
7
  6
CENTER
 10
274.3051061801
 20
154.8067556994
 11
274.3140581801
 21
154.8067506994
  0
LINE
  5
25E
100
AcDbEntity
  8
DEFAULT_1
100
AcDbLine
 62
7
  6
CENTER
 10
558.9115011801
 20
154.8067506994
 11
558.9204581801
 21
154.8067556994
  0
LINE
  5
25F
100
AcDbEntity
  8
DEFAULT_1
100
AcDbLine
 62
7
  6
CENTER
 10
558.9693301801
 20
154.8067556994
 11
558.9777091801
 21
154.8067506994
  0
LINE
  5
260
100
AcDbEntity
  8
0
100
AcDbLine
 62
7
  6
CONTINUOUS
 10
274.2562301801
 20
154.8067556994
 11
274.3051061801
 21
154.8067556994
  0
LINE
  5
261
100
AcDbEntity
  8
0
100
AcDbLine
 62
7
  6
CONTINUOUS
 10
558.9204581801
 20
154.8067556994
 11
558.9693301801
 21
154.8067556994
  0
LINE
  5
262
100
AcDbEntity
  8
0
100
AcDbLine
 62
7
  6
CONTINUOUS
 10
377.6127811801
 20
155.1468866994
 11
396.6127811801
 21
155.1468866994
  0
LINE
  5
263
100
AcDbEntity
  8
0
100
AcDbLine
 62
7
  6
CONTINUOUS
 10
436.6127811801
 20
155.1468866994
 11
455.6127811801
 21
155.1468866994
  0
LINE
  5
264
100
AcDbEntity
  8
0
100
AcDbLine
 62
7
  6
CONTINUOUS
 10
394.5555021801
 20
155.4801496994
 11
390.7559751801
 21
155.4801496994
  0
LINE
  5
265
100
AcDbEntity
  8
0
100
AcDbLine
 62
7
  6
CONTINUOUS
 10
381.7548831801
 20
155.4801496994
 11
390.7548831801
 21
155.4801496994
  0
LINE
  5
266
100
AcDbEntity
  8
0
100
AcDbLine
 62
7
  6
CONTINUOUS
 10
412.7169311801
 20
155.4801496994
 11
420.5086501801
 21
155.4801496994
  0
LINE
  5
267
100
AcDbEntity
  8
0
100
AcDbLine
 62
7
  6
CONTINUOUS
 10
438.6707841801
 20
155.4801496994
 11
451.5548831801
 21
155.4801496994
  0
LINE
  5
268
100
AcDbEntity
  8
0
100
AcDbLine
 62
7
  6
CONTINUOUS
 10
483.6127821801
 20
155.6256096994
 11
474.6127821801
 21
155.6256096994
  0
LINE
  5
269
100
AcDbEntity
  8
0
100
AcDbLine
 62
7
  6
CONTINUOUS
 10
358.6127821801
 20
155.6256096994
 11
349.6127821801
 21
155.6256096994
  0
LINE
  5
26A
100
AcDbEntity
  8
0
100
AcDbLine
 62
7
  6
CONTINUOUS
 10
483.6127801801
 20
156.3023556994
 11
474.6127801801
 21
156.3023556994
  0
LINE
  5
26B
100
AcDbEntity
  8
0
100
AcDbLine
 62
7
  6
CONTINUOUS
 10
358.6127801801
 20
156.3023556994
 11
349.6127801801
 21
156.3023556994
  0
LINE
  5
26C
100
AcDbEntity
  8
DEFAULT_1
100
AcDbLine
 62
7
  6
CENTER
 10
274.2472711801
 20
156.7067516994
 11
274.2562301801
 21
156.7067556994
  0
LINE
  5
26D
100
AcDbEntity
  8
DEFAULT_1
100
AcDbLine
 62
7
  6
CENTER
 10
274.3051061801
 20
156.7067556994
 11
274.3134781801
 21
156.7067516994
  0
LINE
  5
26E
100
AcDbEntity
  8
DEFAULT_1
100
AcDbLine
 62
7
  6
CENTER
 10
558.9120811801
 20
156.7067516994
 11
558.9204581801
 21
156.7067556994
  0
LINE
  5
26F
100
AcDbEntity
  8
DEFAULT_1
100
AcDbLine
 62
7
  6
CENTER
 10
558.9693301801
 20
156.7067556994
 11
558.9782891801
 21
156.7067516994
  0
LINE
  5
270
100
AcDbEntity
  8
0
100
AcDbLine
 62
7
  6
CONTINUOUS
 10
274.2562301801
 20
156.7067556994
 11
274.3051061801
 21
156.7067556994
  0
LINE
  5
271
100
AcDbEntity
  8
0
100
AcDbLine
 62
7
  6
CONTINUOUS
 10
558.9204581801
 20
156.7067556994
 11
558.9693301801
 21
156.7067556994
  0
LINE
  5
272
100
AcDbEntity
  8
DEFAULT_1
100
AcDbLine
 62
7
  6
CENTER
 10
381.2548811801
 20
156.7301516994
 11
387.2548831801
 21
156.7301516994
  0
LINE
  5
273
100
AcDbEntity
  8
0
100
AcDbLine
 62
7
  6
CONTINUOUS
 10
497.6964491801
 20
156.8023556994
 11
488.5291111801
 21
156.8023556994
  0
LINE
  5
274
100
AcDbEntity
  8
0
100
AcDbLine
 62
7
  6
CONTINUOUS
 10
469.6964491801
 20
156.8023556994
 11
460.5291111801
 21
156.8023556994
  0
LINE
  5
275
100
AcDbEntity
  8
0
100
AcDbLine
 62
7
  6
CONTINUOUS
 10
372.6964491801
 20
156.8023556994
 11
363.5291111801
 21
156.8023556994
  0
LINE
  5
276
100
AcDbEntity
  8
0
100
AcDbLine
 62
7
  6
CONTINUOUS
 10
344.6964491801
 20
156.8023556994
 11
335.5291111801
 21
156.8023556994
  0
LINE
  5
277
100
AcDbEntity
  8
0
100
AcDbLine
 62
7
  6
CONTINUOUS
 10
334.8145071801
 20
157.1028266994
 11
345.4110551801
 21
157.1028266994
  0
LINE
  5
278
100
AcDbEntity
  8
0
100
AcDbLine
 62
7
  6
CONTINUOUS
 10
362.8145071801
 20
157.1028266994
 11
373.4110551801
 21
157.1028266994
  0
LINE
  5
279
100
AcDbEntity
  8
0
100
AcDbLine
 62
7
  6
CONTINUOUS
 10
459.8145071801
 20
157.1028266994
 11
470.4110551801
 21
157.1028266994
  0
LINE
  5
27A
100
AcDbEntity
  8
0
100
AcDbLine
 62
7
  6
CONTINUOUS
 10
487.8145071801
 20
157.1028266994
 11
498.4110551801
 21
157.1028266994
  0
LINE
  5
27B
100
AcDbEntity
  8
0
100
AcDbLine
 62
7
  6
CONTINUOUS
 10
372.6234061801
 20
157.1377476994
 11
373.0778591801
 21
157.1377476994
  0
LINE
  5
27C
100
AcDbEntity
  8
0
100
AcDbLine
 62
7
  6
CONTINUOUS
 10
460.1477011801
 20
157.1377476994
 11
460.6021541801
 21
157.1377476994
  0
LINE
  5
27D
100
AcDbEntity
  8
0
100
AcDbLine
 62
7
  6
CONTINUOUS
 10
334.6137841801
 20
157.3996526994
 11
345.6117901801
 21
157.3996526994
  0
LINE
  5
27E
100
AcDbEntity
  8
0
100
AcDbLine
 62
7
  6
CONTINUOUS
 10
362.6137841801
 20
157.3996526994
 11
372.3615001801
 21
157.3996526994
  0
LINE
  5
27F
100
AcDbEntity
  8
0
100
AcDbLine
 62
7
  6
CONTINUOUS
 10
460.8640601801
 20
157.3996526994
 11
470.6117901801
 21
157.3996526994
  0
LINE
  5
280
100
AcDbEntity
  8
0
100
AcDbLine
 62
7
  6
CONTINUOUS
 10
487.6137841801
 20
157.3996526994
 11
498.6117901801
 21
157.3996526994
  0
LINE
  5
281
100
AcDbEntity
  8
0
100
AcDbLine
 62
7
  6
CONTINUOUS
 10
381.7548831801
 20
157.9801496994
 11
394.3001001801
 21
157.9801496994
  0
LINE
  5
282
100
AcDbEntity
  8
0
100
AcDbLine
 62
7
  6
CONTINUOUS
 10
412.8719921801
 20
157.9801496994
 11
420.3539561801
 21
157.9801496994
  0
LINE
  5
283
100
AcDbEntity
  8
0
100
AcDbLine
 62
7
  6
CONTINUOUS
 10
438.9254601801
 20
157.9801496994
 11
451.5548831801
 21
157.9801496994
  0
LINE
  5
284
100
AcDbEntity
  8
0
100
AcDbLine
 62
7
  6
CONTINUOUS
 10
445.1127801801
 20
158.1468866994
 11
439.6127801801
 21
158.1468866994
  0
LINE
  5
285
100
AcDbEntity
  8
0
100
AcDbLine
 62
7
  6
CONTINUOUS
 10
393.6127801801
 20
158.1468866994
 11
388.1127801801
 21
158.1468866994
  0
LINE
  5
286
100
AcDbEntity
  8
0
100
AcDbLine
 62
7
  6
CONTINUOUS
 10
292.2531971801
 20
158.9427726994
 11
334.4255181801
 21
158.9427726994
  0
LINE
  5
287
100
AcDbEntity
  8
0
100
AcDbLine
 62
7
  6
CONTINUOUS
 10
345.8000421801
 20
158.9427726994
 11
362.4255181801
 21
158.9427726994
  0
LINE
  5
288
100
AcDbEntity
  8
0
100
AcDbLine
 62
7
  6
CONTINUOUS
 10
373.8000421801
 20
158.9427726994
 11
409.7000551801
 21
158.9427726994
  0
LINE
  5
289
100
AcDbEntity
  8
0
100
AcDbLine
 62
7
  6
CONTINUOUS
 10
423.5258571801
 20
158.9427726994
 11
459.4255181801
 21
158.9427726994
  0
LINE
  5
28A
100
AcDbEntity
  8
0
100
AcDbLine
 62
7
  6
CONTINUOUS
 10
470.8000421801
 20
158.9427726994
 11
487.4255181801
 21
158.9427726994
  0
LINE
  5
28B
100
AcDbEntity
  8
0
100
AcDbLine
 62
7
  6
CONTINUOUS
 10
498.8000421801
 20
158.9427726994
 11
540.9723631801
 21
158.9427726994
  0
LINE
  5
28C
100
AcDbEntity
  8
0
100
AcDbLine
 62
7
  6
CONTINUOUS
 10
498.8023331801
 20
158.9689586994
 11
487.4232271801
 21
158.9689586994
  0
LINE
  5
28D
100
AcDbEntity
  8
0
100
AcDbLine
 62
7
  6
CONTINUOUS
 10
470.8023331801
 20
158.9689586994
 11
459.4232271801
 21
158.9689586994
  0
LINE
  5
28E
100
AcDbEntity
  8
0
100
AcDbLine
 62
7
  6
CONTINUOUS
 10
373.8023331801
 20
158.9689586994
 11
362.4232271801
 21
158.9689586994
  0
LINE
  5
28F
100
AcDbEntity
  8
0
100
AcDbLine
 62
7
  6
CONTINUOUS
 10
345.8023331801
 20
158.9689586994
 11
334.4232271801
 21
158.9689586994
  0
LINE
  5
290
100
AcDbEntity
  8
0
100
AcDbLine
 62
7
  6
CONTINUOUS
 10
409.7514991801
 20
159.0737106994
 11
411.4189431801
 21
159.0737106994
  0
LINE
  5
291
100
AcDbEntity
  8
0
100
AcDbLine
 62
7
  6
CONTINUOUS
 10
421.8469171801
 20
159.0737106994
 11
423.4744131801
 21
159.0737106994
  0
LINE
  5
292
100
AcDbEntity
  8
0
100
AcDbLine
 62
7
  6
CONTINUOUS
 10
419.6079521801
 20
159.1023556994
 11
413.6179601801
 21
159.1023556994
  0
LINE
  5
293
100
AcDbEntity
  8
0
100
AcDbLine
 62
7
  6
CONTINUOUS
 10
413.6179601801
 20
159.1241856994
 11
417.6079521801
 21
159.1241856994
  0
LINE
  5
294
100
AcDbEntity
  8
0
100
AcDbLine
 62
7
  6
CONTINUOUS
 10
417.6079521801
 20
160.5805256994
 11
413.6179601801
 21
160.5805256994
  0
LINE
  5
295
100
AcDbEntity
  8
0
100
AcDbLine
 62
7
  6
CONTINUOUS
 10
420.2004341801
 20
160.6023556994
 11
419.6079521801
 21
160.6023556994
  0
LINE
  5
296
100
AcDbEntity
  8
0
100
AcDbLine
 62
7
  6
CONTINUOUS
 10
413.6179601801
 20
160.6023556994
 11
413.0254781801
 21
160.6023556994
  0
LINE
  5
297
100
AcDbEntity
  8
0
100
AcDbLine
 62
7
  6
CONTINUOUS
 10
420.2256901801
 20
160.6722966994
 11
413.0002221801
 21
160.6722966994
  0
LINE
  5
298
100
AcDbEntity
  8
0
100
AcDbLine
 62
7
  6
CONTINUOUS
 10
294.6492091801
 20
161.3387846994
 11
409.1538691801
 21
161.3387846994
  0
LINE
  5
299
100
AcDbEntity
  8
0
100
AcDbLine
 62
7
  6
CONTINUOUS
 10
424.1119901801
 20
161.3387846994
 11
538.5763511801
 21
161.3387846994
  0
LINE
  5
29A
100
AcDbEntity
  8
0
100
AcDbLine
 62
7
  6
CONTINUOUS
 10
411.4168861801
 20
162.0747396994
 11
421.8489731801
 21
162.0747396994
  0
LINE
  5
29B
100
AcDbEntity
  8
0
100
AcDbLine
 62
7
  6
CONTINUOUS
 10
423.9045591801
 20
164.1303256994
 11
409.3613001801
 21
164.1303256994
  0
LINE
  5
29C
100
AcDbEntity
  8
0
100
AcDbLine
 62
7
  6
CONTINUOUS
 10
288.7519971801
 20
169.3023556994
 11
292.2531971801
 21
169.3023556994
  0
LINE
  5
29D
100
AcDbEntity
  8
0
100
AcDbLine
 62
7
  6
CONTINUOUS
 10
540.9723631801
 20
169.3023556994
 11
544.4735631801
 21
169.3023556994
  0
LINE
  5
29E
100
AcDbEntity
  8
0
100
AcDbLine
 62
7
  6
CONTINUOUS
 10
290.0220141801
 20
176.3023556994
 11
293.5232141801
 21
176.3023556994
  0
LINE
  5
29F
100
AcDbEntity
  8
0
100
AcDbLine
 62
7
  6
CONTINUOUS
 10
539.7023461801
 20
176.3023556994
 11
543.2035461801
 21
176.3023556994
  0
LINE
  5
2A0
100
AcDbEntity
  8
0
100
AcDbLine
 62
7
  6
CONTINUOUS
 10
419.6079521801
 20
159.1023556994
 11
417.6079521801
 21
159.1241856994
  0
LINE
  5
2A1
100
AcDbEntity
  8
0
100
AcDbLine
 62
7
  6
CONTINUOUS
 10
275.8322991801
 20
246.3023556994
 11
275.8178921801
 21
246.3167626994
  0
LINE
  5
2A2
100
AcDbEntity
  8
0
100
AcDbLine
 62
7
  6
CONTINUOUS
 10
370.7921981801
 20
158.9689556994
 11
372.6234061801
 21
157.1377476994
  0
LINE
  5
2A3
100
AcDbEntity
  8
0
100
AcDbLine
 62
7
  6
CONTINUOUS
 10
373.1127801801
 20
157.1028266994
 11
373.0778591801
 21
157.1377476994
  0
LINE
  5
2A4
100
AcDbEntity
  8
0
100
AcDbLine
 62
7
  6
CONTINUOUS
 10
372.2064111801
 20
158.9689556994
 11
373.0778591801
 21
158.0975076994
  0
LINE
  5
2A5
100
AcDbEntity
  8
0
100
AcDbLine
 62
7
  6
CONTINUOUS
 10
334.5329161801
 20
157.7151996994
 11
334.4232271801
 21
158.9689586994
  0
LINE
  5
2A6
100
AcDbEntity
  8
0
100
AcDbLine
 62
7
  6
CONTINUOUS
 10
334.5329161801
 20
410.8895116994
 11
334.4232271801
 21
409.6357526994
  0
LINE
  5
2A7
100
AcDbEntity
  8
0
100
AcDbLine
 62
7
  6
CONTINUOUS
 10
290.0220141801
 20
176.3023556994
 11
288.7519971801
 21
169.3023556994
  0
LINE
  5
2A8
100
AcDbEntity
  8
0
100
AcDbLine
 62
7
  6
CONTINUOUS
 10
293.5232141801
 20
176.3023556994
 11
292.2531971801
 21
169.3023556994
  0
LINE
  5
2A9
100
AcDbEntity
  8
0
100
AcDbLine
 62
7
  6
CONTINUOUS
 10
411.3786431801
 20
409.5310006994
 11
409.1135701801
 21
407.2659266994
  0
LINE
  5
2AA
100
AcDbEntity
  8
0
100
AcDbLine
 62
7
  6
CONTINUOUS
 10
290.0220141801
 20
211.3023556994
 11
293.5232141801
 21
211.3023556994
  0
LINE
  5
2AB
100
AcDbEntity
  8
0
100
AcDbLine
 62
7
  6
CONTINUOUS
 10
539.7023461801
 20
211.3023556994
 11
543.2035461801
 21
211.3023556994
  0
LINE
  5
2AC
100
AcDbEntity
  8
0
100
AcDbLine
 62
7
  6
CONTINUOUS
 10
411.4189431801
 20
159.0737106994
 11
409.1538691801
 21
161.3387846994
  0
LINE
  5
2AD
100
AcDbEntity
  8
0
100
AcDbLine
 62
7
  6
CONTINUOUS
 10
411.4168861801
 20
162.0747396994
 11
409.3613001801
 21
164.1303256994
  0
LINE
  5
2AE
100
AcDbEntity
  8
0
100
AcDbLine
 62
7
  6
CONTINUOUS
 10
290.0220141801
 20
392.3023556994
 11
288.7519971801
 21
399.3023556994
  0
LINE
  5
2AF
100
AcDbEntity
  8
0
100
AcDbLine
 62
7
  6
CONTINUOUS
 10
293.5232141801
 20
392.3023556994
 11
292.2531971801
 21
399.3023556994
  0
LINE
  5
2B0
100
AcDbEntity
  8
0
100
AcDbLine
 62
7
  6
CONTINUOUS
 10
362.5329161801
 20
157.7151996994
 11
362.4232271801
 21
158.9689586994
  0
LINE
  5
2B1
100
AcDbEntity
  8
0
100
AcDbLine
 62
7
  6
CONTINUOUS
 10
345.8023331801
 20
409.6357526994
 11
345.6926441801
 21
410.8895116994
  0
LINE
  5
2B2
100
AcDbEntity
  8
0
100
AcDbLine
 62
7
  6
CONTINUOUS
 10
349.6127801801
 20
415.3023556994
 11
349.6127801801
 21
412.3023556994
  0
LINE
  5
2B3
100
AcDbEntity
  8
0
100
AcDbLine
 62
7
  6
CONTINUOUS
 10
349.6127801801
 20
153.3023556994
 11
349.6127801801
 21
156.3023556994
  0
LINE
  5
2B4
100
AcDbEntity
  8
0
100
AcDbLine
 62
7
  6
CONTINUOUS
 10
358.6127801801
 20
415.3023556994
 11
358.6127801801
 21
412.3023556994
  0
LINE
  5
2B5
100
AcDbEntity
  8
0
100
AcDbLine
 62
7
  6
CONTINUOUS
 10
358.6127801801
 20
153.3023556994
 11
358.6127801801
 21
156.3023556994
  0
LINE
  5
2B6
100
AcDbEntity
  8
0
100
AcDbLine
 62
7
  6
CONTINUOUS
 10
362.5329161801
 20
410.8895116994
 11
362.4232271801
 21
409.6357526994
  0
LINE
  5
2B7
100
AcDbEntity
  8
0
100
AcDbLine
 62
7
  6
CONTINUOUS
 10
345.8023331801
 20
158.9689586994
 11
345.6926441801
 21
157.7151996994
  0
LINE
  5
2B8
100
AcDbEntity
  8
0
100
AcDbLine
 62
7
  6
CONTINUOUS
 10
409.3210011801
 20
404.4743856994
 11
411.3765871801
 21
406.5299716994
  0
LINE
  5
2B9
100
AcDbEntity
  8
0
100
AcDbLine
 62
7
  6
CONTINUOUS
 10
409.3232111801
 20
219.7154126994
 11
423.9426481801
 21
219.7154126994
  0
LINE
  5
2BA
100
AcDbEntity
  8
0
100
AcDbLine
 62
7
  6
CONTINUOUS
 10
424.1529591801
 20
221.1260286994
 11
409.1129011801
 21
221.1260286994
  0
LINE
  5
2BB
100
AcDbEntity
  8
0
100
AcDbLine
 62
7
  6
CONTINUOUS
 10
291.1480091801
 20
222.3023556994
 11
294.6492091801
 21
222.3023556994
  0
LINE
  5
2BC
100
AcDbEntity
  8
0
100
AcDbLine
 62
7
  6
CONTINUOUS
 10
538.5763511801
 20
222.3023556994
 11
542.0775511801
 21
222.3023556994
  0
LINE
  5
2BD
100
AcDbEntity
  8
0
100
AcDbLine
 62
7
  6
CONTINUOUS
 10
275.8846641801
 20
235.2499906994
 11
288.7519971801
 21
235.2499906994
  0
LINE
  5
2BE
100
AcDbEntity
  8
0
100
AcDbLine
 62
7
  6
CONTINUOUS
 10
544.4735631801
 20
235.2499906994
 11
557.3408961801
 21
235.2499906994
  0
LINE
  5
2BF
100
AcDbEntity
  8
0
100
AcDbLine
 62
7
  6
CONTINUOUS
 10
288.8305551801
 20
235.3023556994
 11
275.8322991801
 21
235.3023556994
  0
LINE
  5
2C0
100
AcDbEntity
  8
0
100
AcDbLine
 62
7
  6
CONTINUOUS
 10
544.3950051801
 20
235.3023556994
 11
557.3932611801
 21
235.3023556994
  0
LINE
  5
2C1
100
AcDbEntity
  8
0
100
AcDbLine
 62
7
  6
CONTINUOUS
 10
373.8023331801
 20
409.6357526994
 11
373.6926441801
 21
410.8895116994
  0
LINE
  5
2C2
100
AcDbEntity
  8
0
100
AcDbLine
 62
7
  6
CONTINUOUS
 10
372.8159531801
 20
158.9689506994
 11
372.8159531801
 21
158.3594136994
  0
LINE
  5
2C3
100
AcDbEntity
  8
0
100
AcDbLine
 62
7
  6
CONTINUOUS
 10
373.0778591801
 20
158.0975076994
 11
373.0778591801
 21
157.1377476994
  0
LINE
  5
2C4
100
AcDbEntity
  8
0
100
AcDbLine
 62
7
  6
CONTINUOUS
 10
373.1127801801
 20
158.9689566994
 11
373.1127801801
 21
157.1028266994
  0
LINE
  5
2C5
100
AcDbEntity
  8
0
100
AcDbLine
 62
7
  6
CONTINUOUS
 10
377.6127801801
 20
155.9427726994
 11
377.6127801801
 21
154.1920136994
  0
LINE
  5
2C6
100
AcDbEntity
  8
0
100
AcDbLine
 62
7
  6
CONTINUOUS
 10
377.6127801801
 20
412.6619386994
 11
377.6127801801
 21
414.4126976994
  0
LINE
  5
2C7
100
AcDbEntity
  8
0
100
AcDbLine
 62
7
  6
CONTINUOUS
 10
381.7548831801
 20
155.4801496994
 11
381.7548831801
 21
157.9801496994
  0
LINE
  5
2C8
100
AcDbEntity
  8
0
100
AcDbLine
 62
7
  6
CONTINUOUS
 10
385.1127801801
 20
155.4801336994
 11
385.1127801801
 21
155.1468866994
  0
LINE
  5
2C9
100
AcDbEntity
  8
DEFAULT_1
100
AcDbLine
 62
7
  6
CENTER
 10
386.7548831801
 20
158.2301976994
 11
386.7548831801
 21
157.9801496994
  0
LINE
  5
2CA
100
AcDbEntity
  8
DEFAULT_1
100
AcDbLine
 62
7
  6
CENTER
 10
386.7548831801
 20
155.4801496994
 11
386.7548831801
 21
155.2296016994
  0
LINE
  5
2CB
100
AcDbEntity
  8
0
100
AcDbLine
 62
7
  6
CONTINUOUS
 10
386.7548831801
 20
157.9801496994
 11
386.7548831801
 21
155.4801496994
  0
LINE
  5
2CC
100
AcDbEntity
  8
DEFAULT_1
100
AcDbLine
 62
7
  6
CENTER
 10
394.7548831801
 20
158.2301516994
 11
394.7548831801
 21
157.6199016994
  0
LINE
  5
2CD
100
AcDbEntity
  8
DEFAULT_1
100
AcDbLine
 62
7
  6
CENTER
 10
394.7548831801
 20
155.6744716994
 11
394.7548831801
 21
155.2301516994
  0
LINE
  5
2CE
100
AcDbEntity
  8
0
100
AcDbLine
 62
7
  6
CONTINUOUS
 10
394.7548831801
 20
155.6744716994
 11
394.7548831801
 21
157.6199016994
  0
LINE
  5
2CF
100
AcDbEntity
  8
0
100
AcDbLine
 62
7
  6
CONTINUOUS
 10
373.8023331801
 20
158.9689586994
 11
373.6926441801
 21
157.7151996994
  0
LINE
  5
2D0
100
AcDbEntity
  8
0
100
AcDbLine
 62
7
  6
CONTINUOUS
 10
413.0251261801
 20
408.0023556994
 11
412.9998701801
 21
407.9324146994
  0
LINE
  5
2D1
100
AcDbEntity
  8
0
100
AcDbLine
 62
7
  6
CONTINUOUS
 10
420.2000821801
 20
416.6023556994
 11
420.2253381801
 21
416.6722966994
  0
LINE
  5
2D2
100
AcDbEntity
  8
0
100
AcDbLine
 62
7
  6
CONTINUOUS
 10
288.8305551801
 20
246.3023556994
 11
289.8518061801
 21
246.9831036994
  0
LINE
  5
2D3
100
AcDbEntity
  8
0
100
AcDbLine
 62
7
  6
CONTINUOUS
 10
289.8518061801
 20
246.9831036994
 11
275.8178921801
 21
246.3167626994
  0
LINE
  5
2D4
100
AcDbEntity
  8
0
100
AcDbLine
 62
7
  6
CONTINUOUS
 10
288.8305551801
 20
246.3023556994
 11
275.8322991801
 21
246.3023556994
  0
LINE
  5
2D5
100
AcDbEntity
  8
0
100
AcDbLine
 62
7
  6
CONTINUOUS
 10
544.3950051801
 20
246.3023556994
 11
557.3932611801
 21
246.3023556994
  0
LINE
  5
2D6
100
AcDbEntity
  8
0
100
AcDbLine
 62
7
  6
CONTINUOUS
 10
543.3737541801
 20
246.9831036994
 11
557.4076681801
 21
246.3167626994
  0
LINE
  5
2D7
100
AcDbEntity
  8
0
100
AcDbLine
 62
7
  6
CONTINUOUS
 10
288.8305551801
 20
322.3023556994
 11
289.8518061801
 21
321.6216076994
  0
LINE
  5
2D8
100
AcDbEntity
  8
0
100
AcDbLine
 62
7
  6
CONTINUOUS
 10
288.7519971801
 20
333.3547206994
 11
288.8305551801
 21
333.3023556994
  0
LINE
  5
2D9
100
AcDbEntity
  8
0
100
AcDbLine
 62
7
  6
CONTINUOUS
 10
413.0254781801
 20
160.6023556994
 11
413.0002221801
 21
160.6722966994
  0
LINE
  5
2DA
100
AcDbEntity
  8
0
100
AcDbLine
 62
7
  6
CONTINUOUS
 10
420.2004341801
 20
152.0023556994
 11
420.2256901801
 21
151.9324146994
  0
LINE
  5
2DB
100
AcDbEntity
  8
0
100
AcDbLine
 62
7
  6
CONTINUOUS
 10
409.1129011801
 20
221.1260286994
 11
409.1538691801
 21
161.3387846994
  0
LINE
  5
2DC
100
AcDbEntity
  8
0
100
AcDbLine
 62
7
  6
CONTINUOUS
 10
409.3232111801
 20
219.7154126994
 11
409.3613001801
 21
164.1303256994
  0
LINE
  5
2DD
100
AcDbEntity
  8
0
100
AcDbLine
 62
7
  6
CONTINUOUS
 10
411.4189431801
 20
159.0737106994
 11
411.4168861801
 21
162.0747396994
  0
LINE
  5
2DE
100
AcDbEntity
  8
0
100
AcDbLine
 62
7
  6
CONTINUOUS
 10
421.8066171801
 20
409.5310006994
 11
421.8086741801
 21
406.5299716994
  0
LINE
  5
2DF
100
AcDbEntity
  8
0
100
AcDbLine
 62
7
  6
CONTINUOUS
 10
423.9023491801
 20
348.8892986994
 11
423.8642601801
 21
404.4743856994
  0
LINE
  5
2E0
100
AcDbEntity
  8
0
100
AcDbLine
 62
7
  6
CONTINUOUS
 10
424.1126591801
 20
347.4786826994
 11
424.0716911801
 21
407.2659266994
  0
LINE
  5
2E1
100
AcDbEntity
  8
0
100
AcDbLine
 62
7
  6
CONTINUOUS
 10
396.6127801801
 20
155.9427726994
 11
396.6127801801
 21
154.1920136994
  0
LINE
  5
2E2
100
AcDbEntity
  8
0
100
AcDbLine
 62
7
  6
CONTINUOUS
 10
396.6127801801
 20
412.6619386994
 11
396.6127801801
 21
414.4126976994
  0
LINE
  5
2E3
100
AcDbEntity
  8
0
100
AcDbLine
 62
7
  6
CONTINUOUS
 10
413.6176081801
 20
409.5023556994
 11
413.6176081801
 21
408.0023556994
  0
LINE
  5
2E4
100
AcDbEntity
  8
0
100
AcDbLine
 62
7
  6
CONTINUOUS
 10
413.6176081801
 20
415.1023556994
 11
413.6176081801
 21
416.6023556994
  0
LINE
  5
2E5
100
AcDbEntity
  8
0
100
AcDbLine
 62
7
  6
CONTINUOUS
 10
413.6179601801
 20
153.5023556994
 11
413.6179601801
 21
152.0023556994
  0
LINE
  5
2E6
100
AcDbEntity
  8
0
100
AcDbLine
 62
7
  6
CONTINUOUS
 10
413.6179601801
 20
159.1023556994
 11
413.6179601801
 21
160.6023556994
  0
LINE
  5
2E7
100
AcDbEntity
  8
0
100
AcDbLine
 62
7
  6
CONTINUOUS
 10
415.6176081801
 20
408.0241856994
 11
415.6176081801
 21
409.4805256994
  0
LINE
  5
2E8
100
AcDbEntity
  8
0
100
AcDbLine
 62
7
  6
CONTINUOUS
 10
415.6179601801
 20
152.0241856994
 11
415.6179601801
 21
153.4805256994
  0
LINE
  5
2E9
100
AcDbEntity
  8
0
100
AcDbLine
 62
7
  6
CONTINUOUS
 10
417.6076001801
 20
416.5805256994
 11
417.6076001801
 21
415.1241856994
  0
LINE
  5
2EA
100
AcDbEntity
  8
0
100
AcDbLine
 62
7
  6
CONTINUOUS
 10
417.6079521801
 20
160.5805256994
 11
417.6079521801
 21
159.1241856994
  0
LINE
  5
2EB
100
AcDbEntity
  8
0
100
AcDbLine
 62
7
  6
CONTINUOUS
 10
419.6076001801
 20
408.0023556994
 11
419.6076001801
 21
409.5023556994
  0
LINE
  5
2EC
100
AcDbEntity
  8
0
100
AcDbLine
 62
7
  6
CONTINUOUS
 10
419.6076001801
 20
415.1023556994
 11
419.6076001801
 21
416.6023556994
  0
LINE
  5
2ED
100
AcDbEntity
  8
0
100
AcDbLine
 62
7
  6
CONTINUOUS
 10
419.6079521801
 20
152.0023556994
 11
419.6079521801
 21
153.5023556994
  0
LINE
  5
2EE
100
AcDbEntity
  8
0
100
AcDbLine
 62
7
  6
CONTINUOUS
 10
419.6079521801
 20
159.1023556994
 11
419.6079521801
 21
160.6023556994
  0
LINE
  5
2EF
100
AcDbEntity
  8
0
100
AcDbLine
 62
7
  6
CONTINUOUS
 10
409.0726011801
 20
347.4786826994
 11
409.1135701801
 21
407.2659266994
  0
LINE
  5
2F0
100
AcDbEntity
  8
0
100
AcDbLine
 62
7
  6
CONTINUOUS
 10
409.2829121801
 20
348.8892986994
 11
409.3210011801
 21
404.4743856994
  0
LINE
  5
2F1
100
AcDbEntity
  8
0
100
AcDbLine
 62
7
  6
CONTINUOUS
 10
411.3765871801
 20
406.5299716994
 11
411.3786431801
 21
409.5310006994
  0
LINE
  5
2F2
100
AcDbEntity
  8
0
100
AcDbLine
 62
7
  6
CONTINUOUS
 10
421.8489731801
 20
162.0747396994
 11
421.8469171801
 21
159.0737106994
  0
LINE
  5
2F3
100
AcDbEntity
  8
0
100
AcDbLine
 62
7
  6
CONTINUOUS
 10
423.9426481801
 20
219.7154126994
 11
423.9045591801
 21
164.1303256994
  0
LINE
  5
2F4
100
AcDbEntity
  8
0
100
AcDbLine
 62
7
  6
CONTINUOUS
 10
424.1529591801
 20
221.1260286994
 11
424.1119901801
 21
161.3387846994
  0
LINE
  5
2F5
100
AcDbEntity
  8
0
100
AcDbLine
 62
7
  6
CONTINUOUS
 10
409.0726011801
 20
347.4786826994
 11
409.2829121801
 21
348.8892986994
  0
LINE
  5
2F6
100
AcDbEntity
  8
0
100
AcDbLine
 62
7
  6
CONTINUOUS
 10
288.7519971801
 20
235.2499906994
 11
288.8305551801
 21
235.3023556994
  0
LINE
  5
2F7
100
AcDbEntity
  8
0
100
AcDbLine
 62
7
  6
CONTINUOUS
 10
274.2457571801
 20
424.1681786994
 11
274.4115801801
 21
424.0023556994
  0
LINE
  5
2F8
100
AcDbEntity
  8
0
100
AcDbLine
 62
7
  6
CONTINUOUS
 10
274.6384961801
 20
423.7754396994
 11
274.8881031801
 21
423.5258326994
  0
LINE
  5
2F9
100
AcDbEntity
  8
0
100
AcDbLine
 62
7
  6
CONTINUOUS
 10
275.8846641801
 20
422.5292716994
 11
275.6350571801
 21
422.7788786994
  0
LINE
  5
2FA
100
AcDbEntity
  8
0
100
AcDbLine
 62
7
  6
CONTINUOUS
 10
540.9723631801
 20
158.9427726994
 11
538.5763511801
 21
161.3387846994
  0
LINE
  5
2FB
100
AcDbEntity
  8
0
100
AcDbLine
 62
7
  6
CONTINUOUS
 10
292.2531971801
 20
409.6619386994
 11
294.6492091801
 21
407.2659266994
  0
LINE
  5
2FC
100
AcDbEntity
  8
0
100
AcDbLine
 62
7
  6
CONTINUOUS
 10
558.9798031801
 20
144.4365326994
 11
558.8139801801
 21
144.6023556994
  0
LINE
  5
2FD
100
AcDbEntity
  8
0
100
AcDbLine
 62
7
  6
CONTINUOUS
 10
558.5870641801
 20
144.8292716994
 11
558.3374571801
 21
145.0788786994
  0
LINE
  5
2FE
100
AcDbEntity
  8
0
100
AcDbLine
 62
7
  6
CONTINUOUS
 10
557.3408961801
 20
146.0754396994
 11
557.5905031801
 21
145.8258326994
  0
LINE
  5
2FF
100
AcDbEntity
  8
0
100
AcDbLine
 62
7
  6
CONTINUOUS
 10
409.1129011801
 20
221.1260286994
 11
409.3232111801
 21
219.7154126994
  0
LINE
  5
300
100
AcDbEntity
  8
0
100
AcDbLine
 62
7
  6
CONTINUOUS
 10
459.5329161801
 20
157.7151996994
 11
459.4232271801
 21
158.9689586994
  0
LINE
  5
301
100
AcDbEntity
  8
0
100
AcDbLine
 62
7
  6
CONTINUOUS
 10
436.6127801801
 20
155.9427726994
 11
436.6127801801
 21
154.1920136994
  0
LINE
  5
302
100
AcDbEntity
  8
0
100
AcDbLine
 62
7
  6
CONTINUOUS
 10
436.6127801801
 20
412.6619386994
 11
436.6127801801
 21
414.4126976994
  0
LINE
  5
303
100
AcDbEntity
  8
DEFAULT_1
100
AcDbLine
 62
7
  6
CENTER
 10
438.5548821801
 20
157.9230306994
 11
438.5548831801
 21
157.7102986994
  0
LINE
  5
304
100
AcDbEntity
  8
DEFAULT_1
100
AcDbLine
 62
7
  6
CENTER
 10
438.5548831801
 20
155.5834746994
 11
438.5548821801
 21
155.3702426994
  0
LINE
  5
305
100
AcDbEntity
  8
0
100
AcDbLine
 62
7
  6
CONTINUOUS
 10
438.5548831801
 20
155.5834746994
 11
438.5548831801
 21
157.7102986994
  0
LINE
  5
306
100
AcDbEntity
  8
DEFAULT_1
100
AcDbLine
 62
7
  6
CENTER
 10
446.5548821801
 20
158.2301976994
 11
446.5548831801
 21
157.9801496994
  0
LINE
  5
307
100
AcDbEntity
  8
DEFAULT_1
100
AcDbLine
 62
7
  6
CENTER
 10
446.5548831801
 20
155.4801496994
 11
446.5548821801
 21
155.2296016994
  0
LINE
  5
308
100
AcDbEntity
  8
0
100
AcDbLine
 62
7
  6
CONTINUOUS
 10
446.5548831801
 20
155.4801496994
 11
446.5548831801
 21
157.9801496994
  0
LINE
  5
309
100
AcDbEntity
  8
0
100
AcDbLine
 62
7
  6
CONTINUOUS
 10
448.1127801801
 20
155.4801336994
 11
448.1127801801
 21
155.1468866994
  0
LINE
  5
30A
100
AcDbEntity
  8
0
100
AcDbLine
 62
7
  6
CONTINUOUS
 10
451.5548831801
 20
155.4801496994
 11
451.5548831801
 21
157.9801496994
  0
LINE
  5
30B
100
AcDbEntity
  8
0
100
AcDbLine
 62
7
  6
CONTINUOUS
 10
459.5329161801
 20
410.8895116994
 11
459.4232271801
 21
409.6357526994
  0
LINE
  5
30C
100
AcDbEntity
  8
0
100
AcDbLine
 62
7
  6
CONTINUOUS
 10
424.1529591801
 20
221.1260286994
 11
423.9426481801
 21
219.7154126994
  0
LINE
  5
30D
100
AcDbEntity
  8
0
100
AcDbLine
 62
7
  6
CONTINUOUS
 10
275.8846641801
 20
146.0754396994
 11
275.6350571801
 21
145.8258326994
  0
LINE
  5
30E
100
AcDbEntity
  8
0
100
AcDbLine
 62
7
  6
CONTINUOUS
 10
274.2457571801
 20
144.4365326994
 11
274.4115801801
 21
144.6023556994
  0
LINE
  5
30F
100
AcDbEntity
  8
0
100
AcDbLine
 62
7
  6
CONTINUOUS
 10
274.6384961801
 20
144.8292716994
 11
274.8881031801
 21
145.0788786994
  0
LINE
  5
310
100
AcDbEntity
  8
0
100
AcDbLine
 62
7
  6
CONTINUOUS
 10
540.9723631801
 20
409.6619386994
 11
538.5763511801
 21
407.2659266994
  0
LINE
  5
311
100
AcDbEntity
  8
0
100
AcDbLine
 62
7
  6
CONTINUOUS
 10
292.2531971801
 20
158.9427726994
 11
294.6492091801
 21
161.3387846994
  0
LINE
  5
312
100
AcDbEntity
  8
0
100
AcDbLine
 62
7
  6
CONTINUOUS
 10
558.9798031801
 20
424.1681786994
 11
558.8139801801
 21
424.0023556994
  0
LINE
  5
313
100
AcDbEntity
  8
0
100
AcDbLine
 62
7
  6
CONTINUOUS
 10
558.5870641801
 20
423.7754396994
 11
558.3374571801
 21
423.5258326994
  0
LINE
  5
314
100
AcDbEntity
  8
0
100
AcDbLine
 62
7
  6
CONTINUOUS
 10
557.3408961801
 20
422.5292716994
 11
557.5905031801
 21
422.7788786994
  0
LINE
  5
315
100
AcDbEntity
  8
0
100
AcDbLine
 62
7
  6
CONTINUOUS
 10
543.3737541801
 20
321.6216076994
 11
557.4076681801
 21
322.2879486994
  0
LINE
  5
316
100
AcDbEntity
  8
0
100
AcDbLine
 62
7
  6
CONTINUOUS
 10
557.3932611801
 20
322.3023556994
 11
544.3950051801
 21
322.3023556994
  0
LINE
  5
317
100
AcDbEntity
  8
0
100
AcDbLine
 62
7
  6
CONTINUOUS
 10
288.8305551801
 20
322.3023556994
 11
275.8322991801
 21
322.3023556994
  0
LINE
  5
318
100
AcDbEntity
  8
0
100
AcDbLine
 62
7
  6
CONTINUOUS
 10
289.8518061801
 20
321.6216076994
 11
275.8178921801
 21
322.2879486994
  0
LINE
  5
319
100
AcDbEntity
  8
0
100
AcDbLine
 62
7
  6
CONTINUOUS
 10
544.4735631801
 20
235.2499906994
 11
544.3950051801
 21
235.3023556994
  0
LINE
  5
31A
100
AcDbEntity
  8
0
100
AcDbLine
 62
7
  6
CONTINUOUS
 10
544.3950051801
 20
246.3023556994
 11
543.3737541801
 21
246.9831036994
  0
LINE
  5
31B
100
AcDbEntity
  8
0
100
AcDbLine
 62
7
  6
CONTINUOUS
 10
424.1126591801
 20
347.4786826994
 11
423.9023491801
 21
348.8892986994
  0
LINE
  5
31C
100
AcDbEntity
  8
0
100
AcDbLine
 62
7
  6
CONTINUOUS
 10
487.5329161801
 20
157.7151996994
 11
487.4232271801
 21
158.9689586994
  0
LINE
  5
31D
100
AcDbEntity
  8
0
100
AcDbLine
 62
7
  6
CONTINUOUS
 10
470.8023331801
 20
409.6357526994
 11
470.6926441801
 21
410.8895116994
  0
LINE
  5
31E
100
AcDbEntity
  8
0
100
AcDbLine
 62
7
  6
CONTINUOUS
 10
455.6127801801
 20
155.9427726994
 11
455.6127801801
 21
154.1920136994
  0
LINE
  5
31F
100
AcDbEntity
  8
0
100
AcDbLine
 62
7
  6
CONTINUOUS
 10
455.6127801801
 20
412.6619386994
 11
455.6127801801
 21
414.4126976994
  0
LINE
  5
320
100
AcDbEntity
  8
0
100
AcDbLine
 62
7
  6
CONTINUOUS
 10
460.1127801801
 20
158.9689566994
 11
460.1127801801
 21
157.1028266994
  0
LINE
  5
321
100
AcDbEntity
  8
0
100
AcDbLine
 62
7
  6
CONTINUOUS
 10
460.1477011801
 20
158.0975076994
 11
460.1477011801
 21
157.1377476994
  0
LINE
  5
322
100
AcDbEntity
  8
0
100
AcDbLine
 62
7
  6
CONTINUOUS
 10
460.4096071801
 20
158.3594136994
 11
460.4096071801
 21
158.9689506994
  0
LINE
  5
323
100
AcDbEntity
  8
0
100
AcDbLine
 62
7
  6
CONTINUOUS
 10
474.6127801801
 20
415.3023556994
 11
474.6127801801
 21
412.3023556994
  0
LINE
  5
324
100
AcDbEntity
  8
0
100
AcDbLine
 62
7
  6
CONTINUOUS
 10
474.6127801801
 20
153.3023556994
 11
474.6127801801
 21
156.3023556994
  0
LINE
  5
325
100
AcDbEntity
  8
0
100
AcDbLine
 62
7
  6
CONTINUOUS
 10
487.5329161801
 20
410.8895116994
 11
487.4232271801
 21
409.6357526994
  0
LINE
  5
326
100
AcDbEntity
  8
0
100
AcDbLine
 62
7
  6
CONTINUOUS
 10
470.8023331801
 20
158.9689586994
 11
470.6926441801
 21
157.7151996994
  0
LINE
  5
327
100
AcDbEntity
  8
0
100
AcDbLine
 62
7
  6
CONTINUOUS
 10
413.0254781801
 20
152.0023556994
 11
413.0002221801
 21
151.9324146994
  0
LINE
  5
328
100
AcDbEntity
  8
0
100
AcDbLine
 62
7
  6
CONTINUOUS
 10
420.2004341801
 20
160.6023556994
 11
420.2256901801
 21
160.6722966994
  0
LINE
  5
329
100
AcDbEntity
  8
0
100
AcDbLine
 62
7
  6
CONTINUOUS
 10
544.4735631801
 20
333.3547206994
 11
544.3950051801
 21
333.3023556994
  0
LINE
  5
32A
100
AcDbEntity
  8
0
100
AcDbLine
 62
7
  6
CONTINUOUS
 10
544.3950051801
 20
322.3023556994
 11
543.3737541801
 21
321.6216076994
  0
LINE
  5
32B
100
AcDbEntity
  8
0
100
AcDbLine
 62
7
  6
CONTINUOUS
 10
288.8305551801
 20
333.3023556994
 11
275.8322991801
 21
333.3023556994
  0
LINE
  5
32C
100
AcDbEntity
  8
0
100
AcDbLine
 62
7
  6
CONTINUOUS
 10
544.3950051801
 20
333.3023556994
 11
557.3932611801
 21
333.3023556994
  0
LINE
  5
32D
100
AcDbEntity
  8
0
100
AcDbLine
 62
7
  6
CONTINUOUS
 10
557.3408961801
 20
333.3547206994
 11
544.4735631801
 21
333.3547206994
  0
LINE
  5
32E
100
AcDbEntity
  8
0
100
AcDbLine
 62
7
  6
CONTINUOUS
 10
288.7519971801
 20
333.3547206994
 11
275.8846641801
 21
333.3547206994
  0
LINE
  5
32F
100
AcDbEntity
  8
0
100
AcDbLine
 62
7
  6
CONTINUOUS
 10
542.0775511801
 20
346.3023556994
 11
538.5763511801
 21
346.3023556994
  0
LINE
  5
330
100
AcDbEntity
  8
0
100
AcDbLine
 62
7
  6
CONTINUOUS
 10
294.6492091801
 20
346.3023556994
 11
291.1480091801
 21
346.3023556994
  0
LINE
  5
331
100
AcDbEntity
  8
0
100
AcDbLine
 62
7
  6
CONTINUOUS
 10
409.0726011801
 20
347.4786826994
 11
424.1126591801
 21
347.4786826994
  0
LINE
  5
332
100
AcDbEntity
  8
0
100
AcDbLine
 62
7
  6
CONTINUOUS
 10
423.9023491801
 20
348.8892986994
 11
409.2829121801
 21
348.8892986994
  0
LINE
  5
333
100
AcDbEntity
  8
0
100
AcDbLine
 62
7
  6
CONTINUOUS
 10
543.2035461801
 20
357.3023556994
 11
539.7023461801
 21
357.3023556994
  0
LINE
  5
334
100
AcDbEntity
  8
0
100
AcDbLine
 62
7
  6
CONTINUOUS
 10
293.5232141801
 20
357.3023556994
 11
290.0220141801
 21
357.3023556994
  0
LINE
  5
335
100
AcDbEntity
  8
0
100
AcDbLine
 62
7
  6
CONTINUOUS
 10
413.0251261801
 20
416.6023556994
 11
412.9998701801
 21
416.6722966994
  0
LINE
  5
336
100
AcDbEntity
  8
0
100
AcDbLine
 62
7
  6
CONTINUOUS
 10
420.2000821801
 20
408.0023556994
 11
420.2253381801
 21
407.9324146994
  0
LINE
  5
337
100
AcDbEntity
  8
0
100
AcDbLine
 62
7
  6
CONTINUOUS
 10
498.8023331801
 20
409.6357526994
 11
498.6926441801
 21
410.8895116994
  0
LINE
  5
338
100
AcDbEntity
  8
0
100
AcDbLine
 62
7
  6
CONTINUOUS
 10
483.6127801801
 20
415.3023556994
 11
483.6127801801
 21
412.3023556994
  0
LINE
  5
339
100
AcDbEntity
  8
0
100
AcDbLine
 62
7
  6
CONTINUOUS
 10
483.6127801801
 20
153.3023556994
 11
483.6127801801
 21
156.3023556994
  0
LINE
  5
33A
100
AcDbEntity
  8
0
100
AcDbLine
 62
7
  6
CONTINUOUS
 10
498.8023331801
 20
158.9689586994
 11
498.6926441801
 21
157.7151996994
  0
LINE
  5
33B
100
AcDbEntity
  8
0
100
AcDbLine
 62
7
  6
CONTINUOUS
 10
421.8086741801
 20
406.5299716994
 11
423.8642601801
 21
404.4743856994
  0
LINE
  5
33C
100
AcDbEntity
  8
0
100
AcDbLine
 62
7
  6
CONTINUOUS
 10
421.8066171801
 20
409.5310006994
 11
424.0716911801
 21
407.2659266994
  0
LINE
  5
33D
100
AcDbEntity
  8
0
100
AcDbLine
 62
7
  6
CONTINUOUS
 10
538.5763511801
 20
222.3023556994
 11
539.7023461801
 21
211.3023556994
  0
LINE
  5
33E
100
AcDbEntity
  8
0
100
AcDbLine
 62
7
  6
CONTINUOUS
 10
542.0775511801
 20
222.3023556994
 11
543.2035461801
 21
211.3023556994
  0
LINE
  5
33F
100
AcDbEntity
  8
0
100
AcDbLine
 62
7
  6
CONTINUOUS
 10
538.5763511801
 20
222.3023556994
 11
538.5763511801
 21
161.3387846994
  0
LINE
  5
340
100
AcDbEntity
  8
0
100
AcDbLine
 62
7
  6
CONTINUOUS
 10
538.5763511801
 20
346.3023556994
 11
538.5763511801
 21
407.2659266994
  0
LINE
  5
341
100
AcDbEntity
  8
0
100
AcDbLine
 62
7
  6
CONTINUOUS
 10
539.7023461801
 20
211.3023556994
 11
539.7023461801
 21
176.3023556994
  0
LINE
  5
342
100
AcDbEntity
  8
0
100
AcDbLine
 62
7
  6
CONTINUOUS
 10
539.7023461801
 20
357.3023556994
 11
539.7023461801
 21
392.3023556994
  0
LINE
  5
343
100
AcDbEntity
  8
0
100
AcDbLine
 62
7
  6
CONTINUOUS
 10
540.9723631801
 20
169.3023556994
 11
540.9723631801
 21
158.9427726994
  0
LINE
  5
344
100
AcDbEntity
  8
0
100
AcDbLine
 62
7
  6
CONTINUOUS
 10
540.9723631801
 20
399.3023556994
 11
540.9723631801
 21
409.6619386994
  0
LINE
  5
345
100
AcDbEntity
  8
0
100
AcDbLine
 62
7
  6
CONTINUOUS
 10
538.5763511801
 20
346.3023556994
 11
539.7023461801
 21
357.3023556994
  0
LINE
  5
346
100
AcDbEntity
  8
0
100
AcDbLine
 62
7
  6
CONTINUOUS
 10
542.0775511801
 20
346.3023556994
 11
543.2035461801
 21
357.3023556994
  0
LINE
  5
347
100
AcDbEntity
  8
0
100
AcDbLine
 62
7
  6
CONTINUOUS
 10
539.7023461801
 20
392.3023556994
 11
540.9723631801
 21
399.3023556994
  0
LINE
  5
348
100
AcDbEntity
  8
0
100
AcDbLine
 62
7
  6
CONTINUOUS
 10
543.2035461801
 20
392.3023556994
 11
544.4735631801
 21
399.3023556994
  0
LINE
  5
349
100
AcDbEntity
  8
0
100
AcDbLine
 62
7
  6
CONTINUOUS
 10
423.9045591801
 20
164.1303256994
 11
421.8489731801
 21
162.0747396994
  0
LINE
  5
34A
100
AcDbEntity
  8
0
100
AcDbLine
 62
7
  6
CONTINUOUS
 10
421.8469171801
 20
159.0737106994
 11
424.1119901801
 21
161.3387846994
  0
LINE
  5
34B
100
AcDbEntity
  8
0
100
AcDbLine
 62
7
  6
CONTINUOUS
 10
413.6176081801
 20
408.0023556994
 11
415.6176081801
 21
408.0241856994
  0
LINE
  5
34C
100
AcDbEntity
  8
0
100
AcDbLine
 62
7
  6
CONTINUOUS
 10
419.6076001801
 20
416.6023556994
 11
417.6076001801
 21
416.5805256994
  0
LINE
  5
34D
100
AcDbEntity
  8
0
100
AcDbLine
 62
7
  6
CONTINUOUS
 10
543.2035461801
 20
392.3023556994
 11
539.7023461801
 21
392.3023556994
  0
LINE
  5
34E
100
AcDbEntity
  8
0
100
AcDbLine
 62
7
  6
CONTINUOUS
 10
293.5232141801
 20
392.3023556994
 11
290.0220141801
 21
392.3023556994
  0
LINE
  5
34F
100
AcDbEntity
  8
0
100
AcDbLine
 62
7
  6
CONTINUOUS
 10
544.4735631801
 20
399.3023556994
 11
540.9723631801
 21
399.3023556994
  0
LINE
  5
350
100
AcDbEntity
  8
0
100
AcDbLine
 62
7
  6
CONTINUOUS
 10
292.2531971801
 20
399.3023556994
 11
288.7519971801
 21
399.3023556994
  0
LINE
  5
351
100
AcDbEntity
  8
0
100
AcDbLine
 62
7
  6
CONTINUOUS
 10
409.3210011801
 20
404.4743856994
 11
423.8642601801
 21
404.4743856994
  0
LINE
  5
352
100
AcDbEntity
  8
0
100
AcDbLine
 62
7
  6
CONTINUOUS
 10
421.8086741801
 20
406.5299716994
 11
411.3765871801
 21
406.5299716994
  0
LINE
  5
353
100
AcDbEntity
  8
0
100
AcDbLine
 62
7
  6
CONTINUOUS
 10
538.5763511801
 20
407.2659266994
 11
424.0716911801
 21
407.2659266994
  0
LINE
  5
354
100
AcDbEntity
  8
0
100
AcDbLine
 62
7
  6
CONTINUOUS
 10
409.1135701801
 20
407.2659266994
 11
294.6492091801
 21
407.2659266994
  0
LINE
  5
355
100
AcDbEntity
  8
0
100
AcDbLine
 62
7
  6
CONTINUOUS
 10
412.9998701801
 20
407.9324146994
 11
420.2253381801
 21
407.9324146994
  0
LINE
  5
356
100
AcDbEntity
  8
0
100
AcDbLine
 62
7
  6
CONTINUOUS
 10
413.0251261801
 20
408.0023556994
 11
413.6176081801
 21
408.0023556994
  0
LINE
  5
357
100
AcDbEntity
  8
0
100
AcDbLine
 62
7
  6
CONTINUOUS
 10
419.6076001801
 20
408.0023556994
 11
420.2000821801
 21
408.0023556994
  0
LINE
  5
358
100
AcDbEntity
  8
0
100
AcDbLine
 62
7
  6
CONTINUOUS
 10
415.6176081801
 20
408.0241856994
 11
419.6076001801
 21
408.0241856994
  0
LINE
  5
359
100
AcDbEntity
  8
0
100
AcDbLine
 62
7
  6
CONTINUOUS
 10
419.6076001801
 20
409.4805256994
 11
415.6176081801
 21
409.4805256994
  0
LINE
  5
35A
100
AcDbEntity
  8
0
100
AcDbLine
 62
7
  6
CONTINUOUS
 10
413.6176081801
 20
409.5023556994
 11
419.6076001801
 21
409.5023556994
  0
LINE
  5
35B
100
AcDbEntity
  8
0
100
AcDbLine
 62
7
  6
CONTINUOUS
 10
423.4740611801
 20
409.5310006994
 11
421.8066171801
 21
409.5310006994
  0
LINE
  5
35C
100
AcDbEntity
  8
0
100
AcDbLine
 62
7
  6
CONTINUOUS
 10
411.3786431801
 20
409.5310006994
 11
409.7511471801
 21
409.5310006994
  0
LINE
  5
35D
100
AcDbEntity
  8
0
100
AcDbLine
 62
7
  6
CONTINUOUS
 10
334.4232271801
 20
409.6357526994
 11
345.8023331801
 21
409.6357526994
  0
LINE
  5
35E
100
AcDbEntity
  8
0
100
AcDbLine
 62
7
  6
CONTINUOUS
 10
362.4232271801
 20
409.6357526994
 11
373.8023331801
 21
409.6357526994
  0
LINE
  5
35F
100
AcDbEntity
  8
0
100
AcDbLine
 62
7
  6
CONTINUOUS
 10
459.4232271801
 20
409.6357526994
 11
470.8023331801
 21
409.6357526994
  0
LINE
  5
360
100
AcDbEntity
  8
0
100
AcDbLine
 62
7
  6
CONTINUOUS
 10
487.4232271801
 20
409.6357526994
 11
498.8023331801
 21
409.6357526994
  0
LINE
  5
361
100
AcDbEntity
  8
0
100
AcDbLine
 62
7
  6
CONTINUOUS
 10
540.9723631801
 20
409.6619386994
 11
498.8000421801
 21
409.6619386994
  0
LINE
  5
362
100
AcDbEntity
  8
0
100
AcDbLine
 62
7
  6
CONTINUOUS
 10
487.4255181801
 20
409.6619386994
 11
470.8000421801
 21
409.6619386994
  0
LINE
  5
363
100
AcDbEntity
  8
0
100
AcDbLine
 62
7
  6
CONTINUOUS
 10
459.4255181801
 20
409.6619386994
 11
423.5255051801
 21
409.6619386994
  0
LINE
  5
364
100
AcDbEntity
  8
0
100
AcDbLine
 62
7
  6
CONTINUOUS
 10
362.4255181801
 20
409.6619386994
 11
345.8000421801
 21
409.6619386994
  0
LINE
  5
365
100
AcDbEntity
  8
0
100
AcDbLine
 62
7
  6
CONTINUOUS
 10
334.4255181801
 20
409.6619386994
 11
292.2531971801
 21
409.6619386994
  0
LINE
  5
366
100
AcDbEntity
  8
0
100
AcDbLine
 62
7
  6
CONTINUOUS
 10
373.8000421801
 20
409.6619386994
 11
409.6997031801
 21
409.6619386994
  0
LINE
  5
367
100
AcDbEntity
  8
0
100
AcDbLine
 62
7
  6
CONTINUOUS
 10
335.5291111801
 20
411.8023556994
 11
344.6964491801
 21
411.8023556994
  0
LINE
  5
368
100
AcDbEntity
  8
0
100
AcDbLine
 62
7
  6
CONTINUOUS
 10
363.5291111801
 20
411.8023556994
 11
372.6964491801
 21
411.8023556994
  0
LINE
  5
369
100
AcDbEntity
  8
0
100
AcDbLine
 62
7
  6
CONTINUOUS
 10
460.5291111801
 20
411.8023556994
 11
469.6964491801
 21
411.8023556994
  0
LINE
  5
36A
100
AcDbEntity
  8
0
100
AcDbLine
 62
7
  6
CONTINUOUS
 10
488.5291111801
 20
411.8023556994
 11
497.6964491801
 21
411.8023556994
  0
LINE
  5
36B
100
AcDbEntity
  8
DEFAULT_1
100
AcDbLine
 62
7
  6
CENTER
 10
558.9754661801
 20
411.8979596994
 11
558.9693301801
 21
411.8979556994
  0
LINE
  5
36C
100
AcDbEntity
  8
0
100
AcDbLine
 62
7
  6
CONTINUOUS
 10
558.9693301801
 20
411.8979556994
 11
558.9204581801
 21
411.8979556994
  0
LINE
  5
36D
100
AcDbEntity
  8
DEFAULT_1
100
AcDbLine
 62
7
  6
CENTER
 10
558.9204581801
 20
411.8979556994
 11
558.9154531801
 21
411.8979596994
  0
LINE
  5
36E
100
AcDbEntity
  8
DEFAULT_1
100
AcDbLine
 62
7
  6
CENTER
 10
274.3101061801
 20
411.8979596994
 11
274.3051061801
 21
411.8979556994
  0
LINE
  5
36F
100
AcDbEntity
  8
0
100
AcDbLine
 62
7
  6
CONTINUOUS
 10
274.3051061801
 20
411.8979556994
 11
274.2562301801
 21
411.8979556994
  0
LINE
  5
370
100
AcDbEntity
  8
DEFAULT_1
100
AcDbLine
 62
7
  6
CENTER
 10
274.2562301801
 20
411.8979556994
 11
274.2500931801
 21
411.8979596994
  0
LINE
  5
371
100
AcDbEntity
  8
0
100
AcDbLine
 62
7
  6
CONTINUOUS
 10
349.6127801801
 20
412.3023556994
 11
358.6127801801
 21
412.3023556994
  0
LINE
  5
372
100
AcDbEntity
  8
0
100
AcDbLine
 62
7
  6
CONTINUOUS
 10
474.6127801801
 20
412.3023556994
 11
483.6127801801
 21
412.3023556994
  0
LINE
  5
373
100
AcDbEntity
  8
0
100
AcDbLine
 62
7
  6
CONTINUOUS
 10
483.6127811801
 20
412.4116296994
 11
474.6127811801
 21
412.4116296994
  0
LINE
  5
374
100
AcDbEntity
  8
0
100
AcDbLine
 62
7
  6
CONTINUOUS
 10
455.6023211801
 20
412.4116296994
 11
436.6232421801
 21
412.4116296994
  0
LINE
  5
375
100
AcDbEntity
  8
0
100
AcDbLine
 62
7
  6
CONTINUOUS
 10
420.7111571801
 20
412.4116296994
 11
412.5140711801
 21
412.4116296994
  0
LINE
  5
376
100
AcDbEntity
  8
0
100
AcDbLine
 62
7
  6
CONTINUOUS
 10
396.6023211801
 20
412.4116296994
 11
377.6232421801
 21
412.4116296994
  0
LINE
  5
377
100
AcDbEntity
  8
0
100
AcDbLine
 62
7
  6
CONTINUOUS
 10
358.6127811801
 20
412.4116296994
 11
349.6127811801
 21
412.4116296994
  0
LINE
  5
378
100
AcDbEntity
  8
DEFAULT_1
100
AcDbLine
 62
7
  6
CENTER
 10
558.9743371801
 20
413.7979616994
 11
558.9693301801
 21
413.7979556994
  0
LINE
  5
379
100
AcDbEntity
  8
0
100
AcDbLine
 62
7
  6
CONTINUOUS
 10
558.9693301801
 20
413.7979556994
 11
558.9204581801
 21
413.7979556994
  0
LINE
  5
37A
100
AcDbEntity
  8
DEFAULT_1
100
AcDbLine
 62
7
  6
CENTER
 10
558.9204581801
 20
413.7979556994
 11
558.9143241801
 21
413.7979616994
  0
LINE
  5
37B
100
AcDbEntity
  8
DEFAULT_1
100
AcDbLine
 62
7
  6
CENTER
 10
274.3112351801
 20
413.7979616994
 11
274.3051061801
 21
413.7979556994
  0
LINE
  5
37C
100
AcDbEntity
  8
0
100
AcDbLine
 62
7
  6
CONTINUOUS
 10
274.3051061801
 20
413.7979556994
 11
274.2562301801
 21
413.7979556994
  0
LINE
  5
37D
100
AcDbEntity
  8
DEFAULT_1
100
AcDbLine
 62
7
  6
CENTER
 10
274.2562301801
 20
413.7979556994
 11
274.2512231801
 21
413.7979616994
  0
LINE
  5
37E
100
AcDbEntity
  8
0
100
AcDbLine
 62
7
  6
CONTINUOUS
 10
483.6127821801
 20
413.8888466994
 11
474.6127821801
 21
413.8888466994
  0
LINE
  5
37F
100
AcDbEntity
  8
0
100
AcDbLine
 62
7
  6
CONTINUOUS
 10
455.6127821801
 20
413.8888466994
 11
436.6127821801
 21
413.8888466994
  0
LINE
  5
380
100
AcDbEntity
  8
0
100
AcDbLine
 62
7
  6
CONTINUOUS
 10
420.3932251801
 20
413.8888466994
 11
412.8320051801
 21
413.8888466994
  0
LINE
  5
381
100
AcDbEntity
  8
0
100
AcDbLine
 62
7
  6
CONTINUOUS
 10
396.6127821801
 20
413.8888466994
 11
377.6127821801
 21
413.8888466994
  0
LINE
  5
382
100
AcDbEntity
  8
0
100
AcDbLine
 62
7
  6
CONTINUOUS
 10
358.6127821801
 20
413.8888466994
 11
349.6127821801
 21
413.8888466994
  0
LINE
  5
383
100
AcDbEntity
  8
0
100
AcDbLine
 62
7
  6
CONTINUOUS
 10
419.6076001801
 20
415.1023556994
 11
413.6176081801
 21
415.1023556994
  0
LINE
  5
384
100
AcDbEntity
  8
0
100
AcDbLine
 62
7
  6
CONTINUOUS
 10
413.6176081801
 20
415.1241856994
 11
417.6076001801
 21
415.1241856994
  0
LINE
  5
385
100
AcDbEntity
  8
0
100
AcDbLine
 62
7
  6
CONTINUOUS
 10
483.6127881801
 20
415.2572276994
 11
474.6127881801
 21
415.2572276994
  0
LINE
  5
386
100
AcDbEntity
  8
0
100
AcDbLine
 62
7
  6
CONTINUOUS
 10
455.4914601801
 20
415.2572276994
 11
436.7341151801
 21
415.2572276994
  0
LINE
  5
387
100
AcDbEntity
  8
0
100
AcDbLine
 62
7
  6
CONTINUOUS
 10
349.6127881801
 20
415.2572276994
 11
358.6127881801
 21
415.2572276994
  0
LINE
  5
388
100
AcDbEntity
  8
0
100
AcDbLine
 62
7
  6
CONTINUOUS
 10
377.7341151801
 20
415.2572276994
 11
396.4914601801
 21
415.2572276994
  0
LINE
  5
389
100
AcDbEntity
  8
0
100
AcDbLine
 62
7
  6
CONTINUOUS
 10
350.6127801801
 20
416.3023556994
 11
357.6127801801
 21
416.3023556994
  0
LINE
  5
38A
100
AcDbEntity
  8
0
100
AcDbLine
 62
7
  6
CONTINUOUS
 10
475.6127801801
 20
416.3023556994
 11
482.6127801801
 21
416.3023556994
  0
LINE
  5
38B
100
AcDbEntity
  8
0
100
AcDbLine
 62
7
  6
CONTINUOUS
 10
417.6076001801
 20
416.5805256994
 11
413.6176081801
 21
416.5805256994
  0
LINE
  5
38C
100
AcDbEntity
  8
0
100
AcDbLine
 62
7
  6
CONTINUOUS
 10
420.2000821801
 20
416.6023556994
 11
419.6076001801
 21
416.6023556994
  0
LINE
  5
38D
100
AcDbEntity
  8
0
100
AcDbLine
 62
7
  6
CONTINUOUS
 10
413.6176081801
 20
416.6023556994
 11
413.0251261801
 21
416.6023556994
  0
LINE
  5
38E
100
AcDbEntity
  8
0
100
AcDbLine
 62
7
  6
CONTINUOUS
 10
420.2253381801
 20
416.6722966994
 11
412.9998701801
 21
416.6722966994
  0
LINE
  5
38F
100
AcDbEntity
  8
0
100
AcDbLine
 62
7
  6
CONTINUOUS
 10
393.6127801801
 20
417.4126976994
 11
380.6127801801
 21
417.4126976994
  0
LINE
  5
390
100
AcDbEntity
  8
0
100
AcDbLine
 62
7
  6
CONTINUOUS
 10
439.6127801801
 20
417.4126976994
 11
452.6127801801
 21
417.4126976994
  0
LINE
  5
391
100
AcDbEntity
  8
0
100
AcDbLine
 62
7
  6
CONTINUOUS
 10
413.6176081801
 20
409.5023556994
 11
415.6176081801
 21
409.4805256994
  0
LINE
  5
392
100
AcDbEntity
  8
0
100
AcDbLine
 62
7
  6
CONTINUOUS
 10
419.6076001801
 20
415.1023556994
 11
417.6076001801
 21
415.1241856994
  0
LINE
  5
393
100
AcDbEntity
  8
0
100
AcDbLine
 62
7
  6
CONTINUOUS
 10
557.3932611801
 20
322.3023556994
 11
557.4076681801
 21
322.2879486994
  0
LINE
  5
394
100
AcDbEntity
  8
0
100
AcDbLine
 62
7
  6
CONTINUOUS
 10
539.7023461801
 20
176.3023556994
 11
540.9723631801
 21
169.3023556994
  0
LINE
  5
395
100
AcDbEntity
  8
0
100
AcDbLine
 62
7
  6
CONTINUOUS
 10
543.2035461801
 20
176.3023556994
 11
544.4735631801
 21
169.3023556994
  0
LWPOLYLINE
  5
396
100
AcDbEntity
  8
0
100
AcDbPolyline
 62
7
  6
CONTINUOUS
 90
15
 70
0
 10
558.9205096601
 20
154.714161447
 10
558.9209950242
 20
154.5154014042
 10
558.9219946961
 20
154.3197166969
 10
558.9235158076
 20
154.1306276847
 10
558.9255580371
 20
153.9525626314
 10
558.928110749
 20
153.7905822419
 10
558.9311263484
 20
153.6510353986
 10
558.9340971062
 20
153.5514293633
 10
558.9351946309
 20
153.5222659406
 10
558.937819906
 20
153.466981507
 10
558.9400679182
 20
153.4344616214
 10
558.9418839182
 20
153.4174669556
 10
558.9432532189
 20
153.409928119
 10
558.9442037944
 20
153.4073155261
 10
558.9448930518
 20
153.4067555494
  0
LWPOLYLINE
  5
397
100
AcDbEntity
  8
0
100
AcDbPolyline
 62
7
  6
CONTINUOUS
 90
15
 70
0
 10
558.9692764449
 20
156.7993496686
 10
558.9687910808
 20
156.9981097113
 10
558.9677914088
 20
157.1937944182
 10
558.966270297
 20
157.3828834297
 10
558.9642280674
 20
157.5609484818
 10
558.9616753551
 20
157.7229288698
 10
558.9586597556
 20
157.8624757045
 10
558.9556889976
 20
157.9620817356
 10
558.9545914724
 20
157.9912451663
 10
558.9519661972
 20
158.0465295955
 10
558.949718185
 20
158.0790494789
 10
558.9479021849
 20
158.0960441436
 10
558.9465328841
 20
158.1035829799
 10
558.9455823086
 20
158.1061955727
 10
558.9448930512
 20
158.1067555494
  0
LINE
  5
398
100
AcDbEntity
  8
0
100
AcDbLine
 62
7
  6
CONTINUOUS
 10
542.0775511801
 20
222.3023556994
 11
542.0775511801
 21
346.3023556994
  0
LINE
  5
399
100
AcDbEntity
  8
0
100
AcDbLine
 62
7
  6
CONTINUOUS
 10
543.2035461801
 20
211.3023556994
 11
543.2035461801
 21
176.3023556994
  0
LINE
  5
39A
100
AcDbEntity
  8
0
100
AcDbLine
 62
7
  6
CONTINUOUS
 10
543.2035461801
 20
357.3023556994
 11
543.2035461801
 21
392.3023556994
  0
LINE
  5
39B
100
AcDbEntity
  8
0
100
AcDbLine
 62
7
  6
CONTINUOUS
 10
543.3737541801
 20
246.9831036994
 11
543.3737541801
 21
321.6216076994
  0
LINE
  5
39C
100
AcDbEntity
  8
0
100
AcDbLine
 62
7
  6
CONTINUOUS
 10
544.3950051801
 20
246.3023556994
 11
544.3950051801
 21
235.3023556994
  0
LINE
  5
39D
100
AcDbEntity
  8
0
100
AcDbLine
 62
7
  6
CONTINUOUS
 10
544.3950051801
 20
322.3023556994
 11
544.3950051801
 21
333.3023556994
  0
LINE
  5
39E
100
AcDbEntity
  8
0
100
AcDbLine
 62
7
  6
CONTINUOUS
 10
544.4735631801
 20
399.3023556994
 11
544.4735631801
 21
333.3547206994
  0
LINE
  5
39F
100
AcDbEntity
  8
0
100
AcDbLine
 62
7
  6
CONTINUOUS
 10
544.4735631801
 20
169.3023556994
 11
544.4735631801
 21
235.2499906994
  0
LINE
  5
3A0
100
AcDbEntity
  8
0
100
AcDbLine
 62
7
  6
CONTINUOUS
 10
557.3408961801
 20
235.2499906994
 11
557.3408961801
 21
146.0754396994
  0
LINE
  5
3A1
100
AcDbEntity
  8
0
100
AcDbLine
 62
7
  6
CONTINUOUS
 10
557.3408961801
 20
333.3547206994
 11
557.3408961801
 21
422.5292716994
  0
LINE
  5
3A2
100
AcDbEntity
  8
0
100
AcDbLine
 62
7
  6
CONTINUOUS
 10
557.3932611801
 20
246.3023556994
 11
557.3932611801
 21
235.3023556994
  0
LINE
  5
3A3
100
AcDbEntity
  8
0
100
AcDbLine
 62
7
  6
CONTINUOUS
 10
557.3932611801
 20
322.3023556994
 11
557.3932611801
 21
333.3023556994
  0
LINE
  5
3A4
100
AcDbEntity
  8
0
100
AcDbLine
 62
7
  6
CONTINUOUS
 10
557.4076681801
 20
322.2879486994
 11
557.4076681801
 21
246.3167626994
  0
LINE
  5
3A5
100
AcDbEntity
  8
0
100
AcDbLine
 62
7
  6
CONTINUOUS
 10
557.5905031801
 20
422.7788786994
 11
557.5905031801
 21
145.8258326994
  0
LINE
  5
3A6
100
AcDbEntity
  8
0
100
AcDbLine
 62
7
  6
CONTINUOUS
 10
558.3374571801
 20
145.0788786994
 11
558.3374571801
 21
423.5258326994
  0
LINE
  5
3A7
100
AcDbEntity
  8
0
100
AcDbLine
 62
7
  6
CONTINUOUS
 10
558.5870641801
 20
423.7754396994
 11
558.5870641801
 21
144.8292716994
  0
LINE
  5
3A8
100
AcDbEntity
  8
0
100
AcDbLine
 62
7
  6
CONTINUOUS
 10
558.8139801801
 20
144.6023556994
 11
558.8139801801
 21
424.0023556994
  0
LINE
  5
3A9
100
AcDbEntity
  8
0
100
AcDbLine
 62
7
  6
CONTINUOUS
 10
558.9204561801
 20
413.7979556994
 11
558.9204725893
 21
411.8463238312
  0
LINE
  5
3AA
100
AcDbEntity
  8
0
100
AcDbLine
 62
7
  6
CONTINUOUS
 10
558.9205096601
 20
154.714161447
 11
558.9204561801
 21
156.7067556994
  0
LINE
  5
3AB
100
AcDbEntity
  8
0
100
AcDbLine
 62
7
  6
CONTINUOUS
 10
558.9693135169
 20
413.8495878672
 11
558.9693301801
 21
411.8979556994
  0
LINE
  5
3AC
100
AcDbEntity
  8
0
100
AcDbLine
 62
7
  6
CONTINUOUS
 10
558.9693301801
 20
154.8067556994
 11
558.9692764449
 21
156.7993496686
  0
LINE
  5
3AD
100
AcDbEntity
  8
0
100
AcDbLine
 62
7
  6
CONTINUOUS
 10
558.9798031801
 20
144.4365326994
 11
558.9798031801
 21
424.1681786994
  0
LWPOLYLINE
  5
3AE
100
AcDbEntity
  8
0
100
AcDbPolyline
 62
7
  6
CONTINUOUS
 90
16
 70
0
 10
558.9204559622
 20
413.7979558503
 10
558.92072902
 20
414.0065924241
 10
558.9215970361
 20
414.2205878518
 10
558.9230389399
 20
414.4241664629
 10
558.9250185778
 20
414.6123202054
 10
558.9256593669
 20
414.6613448495
 10
558.9282536577
 20
414.8231269376
 10
558.9312575019
 20
414.9596843476
 10
558.9342486621
 20
415.058151191
 10
558.9369986828
 20
415.1228909457
 10
558.937795987
 20
415.1376139484
 10
558.9400562116
 20
415.1702559011
 10
558.9418783878
 20
415.1872569382
 10
558.9432506023
 20
415.1947840216
 10
558.9442028485
 20
415.1973909759
 10
558.9448940643
 20
415.1979495973
  0
LWPOLYLINE
  5
3AF
100
AcDbEntity
  8
0
100
AcDbPolyline
 62
7
  6
CONTINUOUS
 90
16
 70
0
 10
558.969330144
 20
411.89795585
 10
558.9690570862
 20
411.6893192664
 10
558.96818907
 20
411.4753238421
 10
558.9667471663
 20
411.2717452342
 10
558.9647675284
 20
411.083591493
 10
558.9641267393
 20
411.0345668467
 10
558.9615324484
 20
410.8727847598
 10
558.9585286043
 20
410.7362273512
 10
558.955537444
 20
410.6377605076
 10
558.9527874233
 20
410.5730207527
 10
558.9519901202
 20
410.5582977672
 10
558.9497298954
 20
410.5256558069
 10
558.947907719
 20
410.5086547646
 10
558.9465355043
 20
410.5011276782
 10
558.9455832579
 20
410.4985207225
 10
558.9448920421
 20
410.4979621006
  0
LINE
  5
3B0
100
AcDbEntity
  8
0
100
AcDbLine
 62
7
  6
CONTINUOUS
 10
461.0191491801
 20
158.9689556994
 11
460.1477011801
 21
158.0975076994
  0
LINE
  5
3B1
100
AcDbEntity
  8
0
100
AcDbLine
 62
7
  6
CONTINUOUS
 10
460.1127801801
 20
157.1028266994
 11
460.1477011801
 21
157.1377476994
  0
LINE
  5
3B2
100
AcDbEntity
  8
0
100
AcDbLine
 62
7
  6
CONTINUOUS
 10
462.4333621801
 20
158.9689556994
 11
460.6021541801
 21
157.1377476994
  0
LINE
  5
3B3
100
AcDbEntity
  8
0
100
AcDbLine
 62
7
  6
CONTINUOUS
 10
557.3932611801
 20
246.3023556994
 11
557.4076681801
 21
246.3167626994
  0
LINE
  5
3B4
100
AcDbEntity
  8
0
100
AcDbLine
 62
7
  6
CONTINUOUS
 10
557.3408961801
 20
235.2499906994
 11
557.3932611801
 21
235.3023556994
  0
LINE
  5
3B5
100
AcDbEntity
  8
0
100
AcDbLine
 62
7
  6
CONTINUOUS
 10
557.3408961801
 20
422.5292716994
 11
275.8846641801
 21
422.5292716994
  0
LINE
  5
3B6
100
AcDbEntity
  8
0
100
AcDbLine
 62
7
  6
CONTINUOUS
 10
557.5905031801
 20
422.7788786994
 11
275.6350571801
 21
422.7788786994
  0
LINE
  5
3B7
100
AcDbEntity
  8
0
100
AcDbLine
 62
7
  6
CONTINUOUS
 10
558.3374571801
 20
423.5258326994
 11
274.8881031801
 21
423.5258326994
  0
LINE
  5
3B8
100
AcDbEntity
  8
0
100
AcDbLine
 62
7
  6
CONTINUOUS
 10
558.5870641801
 20
423.7754396994
 11
274.6384961801
 21
423.7754396994
  0
LINE
  5
3B9
100
AcDbEntity
  8
0
100
AcDbLine
 62
7
  6
CONTINUOUS
 10
274.4115801801
 20
424.0023556994
 11
558.8139801801
 21
424.0023556994
  0
LINE
  5
3BA
100
AcDbEntity
  8
0
100
AcDbLine
 62
7
  6
CONTINUOUS
 10
274.2457571801
 20
424.1681786994
 11
558.9798031801
 21
424.1681786994
  0
LINE
  5
3BB
100
AcDbEntity
  8
0
100
AcDbLine
 62
7
  6
CONTINUOUS
 10
269.4115801801
 20
437.0023556994
 11
563.8139801801
 21
437.0023556994
  0
LINE
  5
3BC
100
AcDbEntity
  8
0
100
AcDbLine
 62
7
  6
CONTINUOUS
 10
557.3408961801
 20
333.3547206994
 11
557.3932611801
 21
333.3023556994
  0
LINE
  5
3BD
100
AcDbEntity
  8
0
100
AcDbLine
 62
7
  6
CONTINUOUS
 10
571.8139801801
 20
429.0023556994
 11
571.8139801801
 21
139.6023556994
  0
LWPOLYLINE
  5
3BE
100
AcDbEntity
  8
0
100
AcDbPolyline
 62
7
  6
CONTINUOUS
 90
15
 70
0
 10
558.9448920421
 20
410.4979621006
 10
558.9442008273
 20
410.4985235731
 10
558.9432477231
 20
410.5011378686
 10
558.9418745374
 20
410.5086809023
 10
558.9400514019
 20
410.5257105418
 10
558.9378572318
 20
410.5572379103
 10
558.935219105
 20
410.6123298705
 10
558.9322927461
 20
410.6984344362
 10
558.9292355003
 20
410.8231545206
 10
558.9281323128
 20
410.8792456495
 10
558.925557394
 20
411.0420194307
 10
558.923545429
 20
411.2167881468
 10
558.9219474689
 20
411.4165109543
 10
558.920914537
 20
411.6280940146
 10
558.9204725893
 20
411.8463238312
  0
LWPOLYLINE
  5
3BF
100
AcDbEntity
  8
0
100
AcDbPolyline
 62
7
  6
CONTINUOUS
 90
15
 70
0
 10
558.9448940643
 20
415.1979495973
 10
558.9455852791
 20
415.1973881242
 10
558.9465383834
 20
415.1947738273
 10
558.9479115693
 20
415.1872307904
 10
558.9497347051
 20
415.1702011453
 10
558.9519288744
 20
415.1386737863
 10
558.9545670012
 20
415.0835818266
 10
558.9574933601
 20
414.9974772616
 10
558.9605506058
 20
414.8727571801
 10
558.9616537933
 20
414.8166660486
 10
558.9642287121
 20
414.6538922677
 10
558.9662406772
 20
414.4791235498
 10
558.9678386372
 20
414.2794007434
 10
558.9688715692
 20
414.0678176841
 10
558.9693135169
 20
413.8495878672
  0
LWPOLYLINE
  5
3C0
100
AcDbEntity
  8
0
100
AcDbPolyline
 62
7
  6
CONTINUOUS
 90
16
 70
0
 10
558.9448930512
 20
158.1067555494
 10
558.9442037947
 20
158.1061955608
 10
558.9432532472
 20
158.1035829206
 10
558.9418840229
 20
158.0960439759
 10
558.9400681307
 20
158.0790490401
 10
558.9378201022
 20
158.0465275259
 10
558.9351944304
 20
157.9912358039
 10
558.9322935401
 20
157.9054968168
 10
558.931789703
 20
157.8875964144
 10
558.9287646132
 20
157.7573457354
 10
558.9268441084
 20
157.6491944867
 10
558.92453546
 20
157.4796463626
 10
558.9227415824
 20
157.2964430285
 10
558.9214664698
 20
157.1041081832
 10
558.9207070712
 20
156.9065228991
 10
558.9204559612
 20
156.7067555494
  0
LWPOLYLINE
  5
3C1
100
AcDbEntity
  8
0
100
AcDbPolyline
 62
7
  6
CONTINUOUS
 90
16
 70
0
 10
558.9448930518
 20
153.4067555494
 10
558.9455823082
 20
153.4073155381
 10
558.9465328557
 20
153.4099281783
 10
558.94790208
 20
153.4174671234
 10
558.9497179722
 20
153.4344620602
 10
558.9519660008
 20
153.4669835768
 10
558.9545916727
 20
153.5222753032
 10
558.9574925632
 20
153.6080142973
 10
558.9579963999
 20
153.6259146845
 10
558.96102149
 20
153.7561653681
 10
558.962941995
 20
153.8643166122
 10
558.9652506438
 20
154.0338647363
 10
558.9670445218
 20
154.2170680704
 10
558.9683196348
 20
154.4094029157
 10
558.9690790337
 20
154.6069881997
 10
558.9693301438
 20
154.8067555494
  0
ARC
  5
3C2
100
AcDbEntity
  8
0
100
AcDbCircle
 62
7
  6
CONTINUOUS
 10
269.4115801801
 20
139.6023556994
 40
8.0
100
AcDbArc
 50
180.0
 51
270.0
  0
ARC
  5
3C3
100
AcDbEntity
  8
0
100
AcDbCircle
 62
7
  6
CONTINUOUS
 10
416.6126041801
 20
156.7572276994
 40
4.1
100
AcDbArc
 50
312.970291
 51
356.86531
  0
ARC
  5
3C4
100
AcDbEntity
  8
0
100
AcDbCircle
 62
7
  6
CONTINUOUS
 10
393.6127801801
 20
155.9427726994
 40
3.0
100
AcDbArc
 50
0.0
 51
90.0
  0
ARC
  5
3C5
100
AcDbEntity
  8
0
100
AcDbCircle
 62
7
  6
CONTINUOUS
 10
380.6127801801
 20
155.9427726994
 40
3.0
100
AcDbArc
 50
90.0
 51
180.0
  0
ARC
  5
3C6
100
AcDbEntity
  8
0
100
AcDbCircle
 62
7
  6
CONTINUOUS
 10
380.6127801801
 20
154.1920136994
 40
3.0
100
AcDbArc
 50
180.0
 51
270.0
  0
ARC
  5
3C7
100
AcDbEntity
  8
0
100
AcDbCircle
 62
7
  6
CONTINUOUS
 10
393.6127801801
 20
154.1920136994
 40
3.0
100
AcDbArc
 50
270.0
 51
360.0
  0
ARC
  5
3C8
100
AcDbEntity
  8
0
100
AcDbCircle
 62
7
  6
CONTINUOUS
 10
388.1127801801
 20
156.6468866994
 40
3.0
100
AcDbArc
 50
130.066904
 51
153.614029
  0
ARC
  5
3C9
100
AcDbEntity
  8
0
100
AcDbCircle
 62
7
  6
CONTINUOUS
 10
388.1127801801
 20
156.6468866994
 40
1.5
100
AcDbArc
 50
90.0
 51
117.27189
  0
ARC
  5
3CA
100
AcDbEntity
  8
0
100
AcDbCircle
 62
7
  6
CONTINUOUS
 10
388.1127801801
 20
156.6468866994
 40
1.5
100
AcDbArc
 50
231.061833
 51
270.0
  0
ARC
  5
3CB
100
AcDbEntity
  8
0
100
AcDbCircle
 62
7
  6
CONTINUOUS
 10
393.6127801801
 20
156.6468866994
 40
1.5
100
AcDbArc
 50
270.0
 51
90.0
  0
ARC
  5
3CC
100
AcDbEntity
  8
0
100
AcDbCircle
 62
7
  6
CONTINUOUS
 10
390.7548831801
 20
156.7301496994
 40
1.25
100
AcDbArc
 50
270.0
 51
90.0
  0
ARC
  5
3CD
100
AcDbEntity
  8
0
100
AcDbCircle
 62
7
  6
CONTINUOUS
 10
335.5291111801
 20
157.8023556994
 40
1.0
100
AcDbArc
 50
185.0
 51
270.0
  0
ARC
  5
3CE
100
AcDbEntity
  8
0
100
AcDbCircle
 62
7
  6
CONTINUOUS
 10
344.6964491801
 20
157.8023556994
 40
1.0
100
AcDbArc
 50
270.0
 51
355.0
  0
ARC
  5
3CF
100
AcDbEntity
  8
0
100
AcDbCircle
 62
7
  6
CONTINUOUS
 10
363.5291111801
 20
157.8023556994
 40
1.0
100
AcDbArc
 50
185.0
 51
270.0
  0
ARC
  5
3D0
100
AcDbEntity
  8
0
100
AcDbCircle
 62
7
  6
CONTINUOUS
 10
372.6964491801
 20
157.8023556994
 40
1.0
100
AcDbArc
 50
270.0
 51
355.0
  0
ARC
  5
3D1
100
AcDbEntity
  8
0
100
AcDbCircle
 62
7
  6
CONTINUOUS
 10
350.6127801801
 20
153.3023556994
 40
1.0
100
AcDbArc
 50
180.0
 51
270.0
  0
ARC
  5
3D2
100
AcDbEntity
  8
0
100
AcDbCircle
 62
7
  6
CONTINUOUS
 10
357.6127801801
 20
153.3023556994
 40
1.0
100
AcDbArc
 50
270.0
 51
360.0
  0
ARC
  5
3D3
100
AcDbEntity
  8
0
100
AcDbCircle
 62
7
  6
CONTINUOUS
 10
269.4115801801
 20
429.0023556994
 40
8.0
100
AcDbArc
 50
90.0
 51
180.0
  0
ARC
  5
3D4
100
AcDbEntity
  8
0
100
AcDbCircle
 62
7
  6
CONTINUOUS
 10
416.6126041801
 20
412.3023556994
 40
7.4
100
AcDbArc
 50
338.006125
 51
201.993875
  0
CIRCLE
  5
3D5
100
AcDbEntity
  8
0
100
AcDbCircle
 62
7
  6
CONTINUOUS
 10
416.6126041801
 20
412.3023556994
 40
5.757179
  0
ARC
  5
3D6
100
AcDbEntity
  8
0
100
AcDbCircle
 62
7
  6
CONTINUOUS
 10
416.6126041801
 20
412.3023556994
 40
5.6
100
AcDbArc
 50
309.83815
 51
50.16185
  0
ARC
  5
3D7
100
AcDbEntity
  8
0
100
AcDbCircle
 62
7
  6
CONTINUOUS
 10
416.6126041801
 20
412.3023556994
 40
5.6
100
AcDbArc
 50
129.83815
 51
230.16185
  0
ARC
  5
3D8
100
AcDbEntity
  8
0
100
AcDbCircle
 62
7
  6
CONTINUOUS
 10
416.6122451801
 20
412.5397546994
 40
5.489266
100
AcDbArc
 50
48.836707
 51
131.155799
  0
ARC
  5
3D9
100
AcDbEntity
  8
0
100
AcDbCircle
 62
7
  6
CONTINUOUS
 10
416.6122451801
 20
412.0649566994
 40
5.489266
100
AcDbArc
 50
228.836707
 51
311.155799
  0
ARC
  5
3DA
100
AcDbEntity
  8
0
100
AcDbCircle
 62
7
  6
CONTINUOUS
 10
416.6126041801
 20
412.3023556994
 40
4.1
100
AcDbArc
 50
316.927219
 51
43.072781
  0
ARC
  5
3DB
100
AcDbEntity
  8
0
100
AcDbCircle
 62
7
  6
CONTINUOUS
 10
416.6126041801
 20
412.3023556994
 40
4.1
100
AcDbArc
 50
136.927219
 51
223.072781
  0
ARC
  5
3DC
100
AcDbEntity
  8
0
100
AcDbCircle
 62
7
  6
CONTINUOUS
 10
393.6127801801
 20
414.4126976994
 40
3.0
100
AcDbArc
 50
0.0
 51
90.0
  0
ARC
  5
3DD
100
AcDbEntity
  8
0
100
AcDbCircle
 62
7
  6
CONTINUOUS
 10
380.6127801801
 20
414.4126976994
 40
3.0
100
AcDbArc
 50
90.0
 51
180.0
  0
ARC
  5
3DE
100
AcDbEntity
  8
0
100
AcDbCircle
 62
7
  6
CONTINUOUS
 10
380.6127801801
 20
412.6619386994
 40
3.0
100
AcDbArc
 50
180.0
 51
270.0
  0
ARC
  5
3DF
100
AcDbEntity
  8
0
100
AcDbCircle
 62
7
  6
CONTINUOUS
 10
393.6127801801
 20
412.6619386994
 40
3.0
100
AcDbArc
 50
270.0
 51
360.0
  0
ARC
  5
3E0
100
AcDbEntity
  8
0
100
AcDbCircle
 62
7
  6
CONTINUOUS
 10
372.6964491801
 20
410.8023556994
 40
1.0
100
AcDbArc
 50
5.0
 51
90.0
  0
ARC
  5
3E1
100
AcDbEntity
  8
0
100
AcDbCircle
 62
7
  6
CONTINUOUS
 10
363.5291111801
 20
410.8023556994
 40
1.0
100
AcDbArc
 50
90.0
 51
175.0
  0
ARC
  5
3E2
100
AcDbEntity
  8
0
100
AcDbCircle
 62
7
  6
CONTINUOUS
 10
344.6964491801
 20
410.8023556994
 40
1.0
100
AcDbArc
 50
5.0
 51
90.0
  0
ARC
  5
3E3
100
AcDbEntity
  8
0
100
AcDbCircle
 62
7
  6
CONTINUOUS
 10
335.5291111801
 20
410.8023556994
 40
1.0
100
AcDbArc
 50
90.0
 51
175.0
  0
ARC
  5
3E4
100
AcDbEntity
  8
0
100
AcDbCircle
 62
7
  6
CONTINUOUS
 10
357.6127801801
 20
415.3023556994
 40
1.0
100
AcDbArc
 50
0.0
 51
90.0
  0
ARC
  5
3E5
100
AcDbEntity
  8
0
100
AcDbCircle
 62
7
  6
CONTINUOUS
 10
350.6127801801
 20
415.3023556994
 40
1.0
100
AcDbArc
 50
90.0
 51
180.0
  0
ARC
  5
3E6
100
AcDbEntity
  8
0
100
AcDbCircle
 62
7
  6
CONTINUOUS
 10
563.8139801801
 20
139.6023556994
 40
8.0
100
AcDbArc
 50
270.0
 51
360.0
  0
ARC
  5
3E7
100
AcDbEntity
  8
0
100
AcDbCircle
 62
7
  6
CONTINUOUS
 10
416.6129561801
 20
156.3023556994
 40
7.4
100
AcDbArc
 50
158.006125
 51
21.993875
  0
CIRCLE
  5
3E8
100
AcDbEntity
  8
0
100
AcDbCircle
 62
7
  6
CONTINUOUS
 10
416.6129561801
 20
156.3023556994
 40
5.757179
  0
ARC
  5
3E9
100
AcDbEntity
  8
0
100
AcDbCircle
 62
7
  6
CONTINUOUS
 10
416.6129561801
 20
156.3023556994
 40
5.6
100
AcDbArc
 50
129.83815
 51
230.16185
  0
ARC
  5
3EA
100
AcDbEntity
  8
0
100
AcDbCircle
 62
7
  6
CONTINUOUS
 10
416.6129561801
 20
156.3023556994
 40
5.6
100
AcDbArc
 50
309.83815
 51
50.16185
  0
ARC
  5
3EB
100
AcDbEntity
  8
0
100
AcDbCircle
 62
7
  6
CONTINUOUS
 10
416.6133151801
 20
156.0649566994
 40
5.489266
100
AcDbArc
 50
228.836707
 51
311.155799
  0
ARC
  5
3EC
100
AcDbEntity
  8
0
100
AcDbCircle
 62
7
  6
CONTINUOUS
 10
416.6133151801
 20
156.5397546994
 40
5.489266
100
AcDbArc
 50
48.836707
 51
131.155799
  0
ARC
  5
3ED
100
AcDbEntity
  8
0
100
AcDbCircle
 62
7
  6
CONTINUOUS
 10
416.6129561801
 20
156.3023556994
 40
4.1
100
AcDbArc
 50
136.927219
 51
223.072781
  0
ARC
  5
3EE
100
AcDbEntity
  8
0
100
AcDbCircle
 62
7
  6
CONTINUOUS
 10
416.6129561801
 20
156.3023556994
 40
4.1
100
AcDbArc
 50
316.927219
 51
43.072781
  0
ARC
  5
3EF
100
AcDbEntity
  8
0
100
AcDbCircle
 62
7
  6
CONTINUOUS
 10
416.6129561801
 20
156.7572276994
 40
4.1
100
AcDbArc
 50
183.180965
 51
227.029709
  0
ARC
  5
3F0
100
AcDbEntity
  8
0
100
AcDbCircle
 62
7
  6
CONTINUOUS
 10
439.6127801801
 20
154.1920136994
 40
3.0
100
AcDbArc
 50
180.0
 51
270.0
  0
ARC
  5
3F1
100
AcDbEntity
  8
0
100
AcDbCircle
 62
7
  6
CONTINUOUS
 10
452.6127801801
 20
154.1920136994
 40
3.0
100
AcDbArc
 50
270.0
 51
360.0
  0
ARC
  5
3F2
100
AcDbEntity
  8
0
100
AcDbCircle
 62
7
  6
CONTINUOUS
 10
452.6127801801
 20
155.9427726994
 40
3.0
100
AcDbArc
 50
0.0
 51
90.0
  0
ARC
  5
3F3
100
AcDbEntity
  8
0
100
AcDbCircle
 62
7
  6
CONTINUOUS
 10
439.6127801801
 20
155.9427726994
 40
3.0
100
AcDbArc
 50
90.0
 51
180.0
  0
ARC
  5
3F4
100
AcDbEntity
  8
0
100
AcDbCircle
 62
7
  6
CONTINUOUS
 10
445.1127801801
 20
156.6468866994
 40
3.0
100
AcDbArc
 50
26.385971
 51
49.933096
  0
ARC
  5
3F5
100
AcDbEntity
  8
0
100
AcDbCircle
 62
7
  6
CONTINUOUS
 10
445.1127801801
 20
156.6468866994
 40
1.5
100
AcDbArc
 50
62.726808
 51
90.0
  0
ARC
  5
3F6
100
AcDbEntity
  8
0
100
AcDbCircle
 62
7
  6
CONTINUOUS
 10
445.1127801801
 20
156.6468866994
 40
1.5
100
AcDbArc
 50
270.0
 51
308.938167
  0
ARC
  5
3F7
100
AcDbEntity
  8
0
100
AcDbCircle
 62
7
  6
CONTINUOUS
 10
439.6127801801
 20
156.6468866994
 40
1.5
100
AcDbArc
 50
90.0
 51
270.0
  0
ARC
  5
3F8
100
AcDbEntity
  8
0
100
AcDbCircle
 62
7
  6
CONTINUOUS
 10
442.5548831801
 20
156.7301496994
 40
1.25
100
AcDbArc
 50
90.0
 51
270.0
  0
ARC
  5
3F9
100
AcDbEntity
  8
0
100
AcDbCircle
 62
7
  6
CONTINUOUS
 10
460.5291111801
 20
157.8023556994
 40
1.0
100
AcDbArc
 50
185.0
 51
270.0
  0
ARC
  5
3FA
100
AcDbEntity
  8
0
100
AcDbCircle
 62
7
  6
CONTINUOUS
 10
469.6964491801
 20
157.8023556994
 40
1.0
100
AcDbArc
 50
270.0
 51
355.0
  0
ARC
  5
3FB
100
AcDbEntity
  8
0
100
AcDbCircle
 62
7
  6
CONTINUOUS
 10
488.5291111801
 20
157.8023556994
 40
1.0
100
AcDbArc
 50
185.0
 51
270.0
  0
ARC
  5
3FC
100
AcDbEntity
  8
0
100
AcDbCircle
 62
7
  6
CONTINUOUS
 10
497.6964491801
 20
157.8023556994
 40
1.0
100
AcDbArc
 50
270.0
 51
355.0
  0
ARC
  5
3FD
100
AcDbEntity
  8
0
100
AcDbCircle
 62
7
  6
CONTINUOUS
 10
475.6127801801
 20
153.3023556994
 40
1.0
100
AcDbArc
 50
180.0
 51
270.0
  0
ARC
  5
3FE
100
AcDbEntity
  8
0
100
AcDbCircle
 62
7
  6
CONTINUOUS
 10
482.6127801801
 20
153.3023556994
 40
1.0
100
AcDbArc
 50
270.0
 51
360.0
  0
ARC
  5
3FF
100
AcDbEntity
  8
0
100
AcDbCircle
 62
7
  6
CONTINUOUS
 10
563.8139801801
 20
429.0023556994
 40
8.0
100
AcDbArc
 50
0.0
 51
90.0
  0
ARC
  5
400
100
AcDbEntity
  8
0
100
AcDbCircle
 62
7
  6
CONTINUOUS
 10
439.6127801801
 20
412.6619386994
 40
3.0
100
AcDbArc
 50
180.0
 51
270.0
  0
ARC
  5
401
100
AcDbEntity
  8
0
100
AcDbCircle
 62
7
  6
CONTINUOUS
 10
452.6127801801
 20
412.6619386994
 40
3.0
100
AcDbArc
 50
270.0
 51
360.0
  0
ARC
  5
402
100
AcDbEntity
  8
0
100
AcDbCircle
 62
7
  6
CONTINUOUS
 10
452.6127801801
 20
414.4126976994
 40
3.0
100
AcDbArc
 50
0.0
 51
90.0
  0
ARC
  5
403
100
AcDbEntity
  8
0
100
AcDbCircle
 62
7
  6
CONTINUOUS
 10
439.6127801801
 20
414.4126976994
 40
3.0
100
AcDbArc
 50
90.0
 51
180.0
  0
ARC
  5
404
100
AcDbEntity
  8
0
100
AcDbCircle
 62
7
  6
CONTINUOUS
 10
497.6964491801
 20
410.8023556994
 40
1.0
100
AcDbArc
 50
5.0
 51
90.0
  0
ARC
  5
405
100
AcDbEntity
  8
0
100
AcDbCircle
 62
7
  6
CONTINUOUS
 10
488.5291111801
 20
410.8023556994
 40
1.0
100
AcDbArc
 50
90.0
 51
175.0
  0
ARC
  5
406
100
AcDbEntity
  8
0
100
AcDbCircle
 62
7
  6
CONTINUOUS
 10
469.6964491801
 20
410.8023556994
 40
1.0
100
AcDbArc
 50
5.0
 51
90.0
  0
ARC
  5
407
100
AcDbEntity
  8
0
100
AcDbCircle
 62
7
  6
CONTINUOUS
 10
460.5291111801
 20
410.8023556994
 40
1.0
100
AcDbArc
 50
90.0
 51
175.0
  0
ARC
  5
408
100
AcDbEntity
  8
0
100
AcDbCircle
 62
7
  6
CONTINUOUS
 10
482.6127801801
 20
415.3023556994
 40
1.0
100
AcDbArc
 50
0.0
 51
90.0
  0
ARC
  5
409
100
AcDbEntity
  8
0
100
AcDbCircle
 62
7
  6
CONTINUOUS
 10
475.6127801801
 20
415.3023556994
 40
1.0
100
AcDbArc
 50
90.0
 51
180.0
  0
ENDSEC
  0
SECTION
  2
OBJECTS
  0
DICTIONARY
  5
C
100
AcDbDictionary
280
0
281
1
  3
ACAD_GROUP
350
D
  3
ACAD_MLINESTYLE
350
17
  3
ACAD_LAYOUT
350
1A
  3
ACAD_PLOTSETTINGS
350
19
  3
ACAD_PLOTSTYLENAME
350
E
  0
DICTIONARY
  5
D
102
{ACAD_REACTORS
330
C
102
}
100
AcDbDictionary
280
0
281
1
  0
ACDBDICTIONARYWDFLT
  5
E
102
{ACAD_REACTORS
330
C
102
}
100
AcDbDictionary
281
1
  3
Normal
350
F
100
AcDbDictionaryWithDefault
340
F
  0
DICTIONARY
  5
17
102
{ACAD_REACTORS
330
C
102
}
100
AcDbDictionary
280
0
281
1
  3
Standard
350
18
  0
DICTIONARY
  5
19
102
{ACAD_REACTORS
330
C
102
}
100
AcDbDictionary
281
1
  0
DICTIONARY
  5
1A
102
{ACAD_REACTORS
330
C
102
}
100
AcDbDictionary
281
1
  3
Model
350
40A
  3
Layout1
350
40B
  0
ACDBPLACEHOLDER
  5
F
102
{ACAD_REACTORS
330
E
102
}
  0
MLINESTYLE
  5
18
102
{ACAD_REACTORS
330
17
102
}
100
AcDbMlineStyle
  2
STANDARD
 70
0
  3

 62
256
 51
90.0
 52
90.0
 71
2
 49
0.5
 62
256
  6
BYLAYER
 49
-0.5
 62
256
  6
BYLAYER
  0
LAYOUT
  5
40A
102
{ACAD_REACTORS
330
1A
102
}
100
AcDbPlotSettings
  1

  2
none_device
  4
ISO_A1_(594.00_x_841.00_MM)
  6

 40
0.0
 41
0.0
 42
0.0
 43
0.0
 44
841.0
 45
594.0
 46
0.0
 47
0.0
 48
0.0
 49
0.0
140
0.0
141
0.0
142
1.0
143
1.0
 70
1024
 72
1
 73
0
 74
0
  7

 75
0
147
1.0
148
0.0
149
0.0
100
AcDbLayout
  1
Model
 70
0
 71
0
 10
0.0
 20
0.0
 11
841.0
 21
594.0
 12
0.0
 22
0.0
 32
0.0
 14
0.0
 24
0.0
 34
0.0
 15
0.0
 25
0.0
 35
0.0
146
0.0
 13
0.0
 23
0.0
 33
0.0
 16
1.0
 26
0.0
 36
0.0
 17
0.0
 27
1.0
 37
0.0
 76
0
330
210
345
0
346
0
  0
LAYOUT
  5
40B
102
{ACAD_REACTORS
330
1A
102
}
100
AcDbPlotSettings
  1

  2
none_device
  4
ISO_A1_(594.00_x_841.00_MM)
  6

 40
0.0
 41
0.0
 42
0.0
 43
0.0
 44
841.0
 45
594.0
 46
0.0
 47
0.0
 48
0.0
 49
0.0
140
0.0
141
0.0
142
1.0
143
1.0
 70
0
 72
1
 73
0
 74
0
  7

 75
0
147
1.0
148
0.0
149
0.0
100
AcDbLayout
  1
Layout1
 70
0
 71
1
 10
0.0
 20
0.0
 11
841.0
 21
594.0
 12
0.0
 22
0.0
 32
0.0
 14
0.0
 24
0.0
 34
0.0
 15
0.0
 25
0.0
 35
0.0
146
0.0
 13
0.0
 23
0.0
 33
0.0
 16
1.0
 26
0.0
 36
0.0
 17
0.0
 27
1.0
 37
0.0
 76
0
330
211
345
0
346
0
  0
ENDSEC
  0
EOF
