  0
SECTION
  2
HEADER
  9
$ACADVER
  1
AC1024
  9
$DWGCODEPAGE
  3
ANSI_1252
  9
$EXTMAX
 10
841.0
 20
594.0
 30
0.0
  9
$EXTMIN
 10
0.0
 20
0.0
 30
0.0
  9
$LIMMIN
 10
0.0
 20
0.0
  9
$LIMMAX
 10
841.0
 20
594.0
  9
$VIEWCTR
 10
420.5
 20
297.0
  9
$VIEWSIZE
 40
594.0
  9
$CLAYER
  8
0
  9
$LTSCALE
 40
46.255
  9
$CELTYPE
  6
BYLAYER
  9
$DIMSCALE
 40
1.0
  9
$DIMASZ
 40
3.0
  9
$DIMEXO
 40
0.5
  9
$DIMDLI
 40
31.958
  9
$DIMEXE
 40
1.5
  9
$DIMCEN
 40
7.569
  9
$DIMLFAC
 40
1.0
  9
$DIMBLK
  1
_FILLED
  9
$DIMALT
 70
0
  9
$DIMALTF
 40
0.0393700787
  9
$DIMTXT
 40
3.0
  9
$DIMTOL
 70
1
  9
$DIMLIM
 70
0
  9
$DIMTFAC
 40
1.0
  9
$DIMTP
 40
0.01
  9
$DIMTM
 40
0.01
  9
$DIMGAP
 40
0.625
  9
$DIMDSEP
 70
44
  9
$AUNITS
 70
0
  9
$PDMODE
 70
3
  9
$PDSIZE
 40
3.0
  9
$HANDSEED
  5
40C
  9
$TILEMODE
 70
1
  9
$MEASUREMENT
 70
1
  9
$INSUNITS
 70
4
  0
ENDSEC
  0
SECTION
  2
CLASSES
  0
CLASS
  1
ACDBDICTIONARYWDFLT
  2
AcDbDictionaryWithDefault
  3
AutoCAD 2000
 90
0
 91
1
280
0
281
0
  0
CLASS
  1
ACDBPLACEHOLDER
  2
AcDbPlaceHolder
  3
AutoCAD 2000
 90
0
 91
1
280
0
281
0
  0
CLASS
  1
LAYOUT
  2
AcDbLayout
  3
AutoCAD 2000
 90
0
 91
0
280
0
281
0
  0
ENDSEC
  0
SECTION
  2
TABLES
  0
TABLE
  2
VPORT
  5
8
100
AcDbSymbolTable
 70
2
  0
VPORT
  5
1F4
100
AcDbSymbolTableRecord
100
AcDbViewportTableRecord
  2
*ACTIVE
 70
0
 10
0.0
 20
0.0
 11
1.0
 21
1.0
 12
420.5
 22
297.0
 13
0.0
 23
0.0
 14
1.0
 24
1.0
 15
0.0
 25
0.0
 16
0.0
 26
0.0
 36
1.0
 17
0.0
 27
0.0
 37
0.0
 40
594.0
 41
1.4158249158
 42
50.0
 43
0.0
 44
0.0
 50
0.0
 51
0.0
 71
0
 72
100
 73
1
 74
1
 75
0
 76
0
 77
0
 78
0
  0
ENDTAB
  0
TABLE
  2
LTYPE
  5
5
100
AcDbSymbolTable
 70
6
  0
LTYPE
  5
14
100
AcDbSymbolTableRecord
100
AcDbLinetypeTableRecord
  2
BYBLOCK
 70
0
  3

 72
65
 73
0
 40
0.0
  0
LTYPE
  5
15
100
AcDbSymbolTableRecord
100
AcDbLinetypeTableRecord
  2
BYLAYER
 70
0
  3

 72
65
 73
0
 40
0.0
  0
LTYPE
  5
16
100
AcDbSymbolTableRecord
100
AcDbLinetypeTableRecord
  2
CONTINUOUS
 70
64
  3
Solid line
 72
65
 73
0
 40
0.0
  0
LTYPE
  5
1F5
100
AcDbSymbolTableRecord
100
AcDbLinetypeTableRecord
  2
CENTER
 70
64
  3
____ _ ____ _ ____ _ ____ _ ____ _ ____ _ ____
 72
65
 73
4
 40
0.6
 49
0.375
 74
0
 49
-0.075
 74
0
 49
0.075
 74
0
 49
-0.075
 74
0
  0
LTYPE
  5
1F6
100
AcDbSymbolTableRecord
100
AcDbLinetypeTableRecord
  2
HIDDEN
 70
64
  3
- - - - - - - - - - - - - - - - - - - -
 72
65
 73
2
 40
0.2
 49
0.1
 74
0
 49
-0.1
 74
0
  0
LTYPE
  5
1F7
100
AcDbSymbolTableRecord
100
AcDbLinetypeTableRecord
  2
PHANTOM
 70
64
  3
_____ _ _ _____ _ _ _____ _ _ _____
 72
65
 73
6
 40
0.8
 49
0.45
 74
0
 49
-0.05
 74
0
 49
0.1
 74
0
 49
-0.05
 74
0
 49
0.1
 74
0
 49
-0.05
 74
0
  0
LTYPE
  5
1F8
100
AcDbSymbolTableRecord
100
AcDbLinetypeTableRecord
  2
DOT
 70
64
  3
. . . . . . . . . . . . . . . . . . . .
 72
65
 73
2
 40
0.2
 49
0.1
 74
0
 49
-0.1
 74
0
  0
LTYPE
  5
1F9
100
AcDbSymbolTableRecord
100
AcDbLinetypeTableRecord
  2
DASHED
 70
64
  3
- - - - - - - - - - - - - - - - - - - -
 72
65
 73
2
 40
0.2
 49
0.1
 74
0
 49
-0.1
 74
0
  0
ENDTAB
  0
TABLE
  2
LAYER
  5
2
100
AcDbSymbolTable
 70
36
  0
LAYER
  5
10
100
AcDbSymbolTableRecord
100
AcDbLayerTableRecord
  2
0
 70
0
 62
7
  6
CONTINUOUS
370
-3
390
F
  0
LAYER
  5
1FA
100
AcDbSymbolTableRecord
100
AcDbLayerTableRecord
  2
DEFAULT_1
 70
0
 62
7
  6
CENTER
370
-3
390
F
  0
LAYER
  5
1FB
100
AcDbSymbolTableRecord
100
AcDbLayerTableRecord
  2
DEFAULT_2
 70
0
 62
7
  6
HIDDEN
370
-3
390
F
  0
LAYER
  5
1FC
100
AcDbSymbolTableRecord
100
AcDbLayerTableRecord
  2
DEFAULT_3
 70
0
 62
7
  6
PHANTOM
370
-3
390
F
  0
LAYER
  5
1FD
100
AcDbSymbolTableRecord
100
AcDbLayerTableRecord
  2
ASSI
 70
0
 62
7
  6
CONTINUOUS
370
-3
390
F
  0
LAYER
  5
1FE
100
AcDbSymbolTableRecord
100
AcDbLayerTableRecord
  2
CLOSED_SHELL
 70
0
 62
7
  6
CONTINUOUS
370
-3
390
F
  0
LAYER
  5
1FF
100
AcDbSymbolTableRecord
100
AcDbLayerTableRecord
  2
COORDINATE
 70
0
 62
7
  6
CONTINUOUS
370
-3
390
F
  0
LAYER
  5
200
100
AcDbSymbolTableRecord
100
AcDbLayerTableRecord
  2
COPY_PUBLISH
 70
0
 62
7
  6
CONTINUOUS
370
-3
390
F
  0
LAYER
  5
201
100
AcDbSymbolTableRecord
100
AcDbLayerTableRecord
  2
COSMETICI
 70
0
 62
7
  6
CONTINUOUS
370
-3
390
F
  0
LAYER
  5
202
100
AcDbSymbolTableRecord
100
AcDbLayerTableRecord
  2
CURVE
 70
0
 62
7
  6
CONTINUOUS
370
-3
390
F
  0
LAYER
  5
203
100
AcDbSymbolTableRecord
100
AcDbLayerTableRecord
  2
DRAFT
 70
0
 62
7
  6
CONTINUOUS
370
-3
390
F
  0
LAYER
  5
204
100
AcDbSymbolTableRecord
100
AcDbLayerTableRecord
  2
GENERAL
 70
0
 62
7
  6
CONTINUOUS
370
-3
390
F
  0
LAYER
  5
205
100
AcDbSymbolTableRecord
100
AcDbLayerTableRecord
  2
IMPORT_IGES
 70
0
 62
7
  6
CONTINUOUS
370
-3
390
F
  0
LAYER
  5
206
100
AcDbSymbolTableRecord
100
AcDbLayerTableRecord
  2
NOTE
 70
0
 62
7
  6
CONTINUOUS
370
-3
390
F
  0
LAYER
  5
207
100
AcDbSymbolTableRecord
100
AcDbLayerTableRecord
  2
PIANI
 70
0
 62
7
  6
CONTINUOUS
370
-3
390
F
  0
LAYER
  5
208
100
AcDbSymbolTableRecord
100
AcDbLayerTableRecord
  2
PUNTI
 70
0
 62
7
  6
CONTINUOUS
370
-3
390
F
  0
LAYER
  5
209
100
AcDbSymbolTableRecord
100
AcDbLayerTableRecord
  2
RACCORDO
 70
0
 62
7
  6
CONTINUOUS
370
-3
390
F
  0
LAYER
  5
20A
100
AcDbSymbolTableRecord
100
AcDbLayerTableRecord
  2
SIMBOLI
 70
0
 62
7
  6
CONTINUOUS
370
-3
390
F
  0
LAYER
  5
20B
100
AcDbSymbolTableRecord
100
AcDbLayerTableRecord
  2
SMUSSO
 70
0
 62
7
  6
CONTINUOUS
370
-3
390
F
  0
LAYER
  5
20C
100
AcDbSymbolTableRecord
100
AcDbLayerTableRecord
  2
SUPERFICI
 70
0
 62
7
  6
CONTINUOUS
370
-3
390
F
  0
LAYER
  5
20D
100
AcDbSymbolTableRecord
100
AcDbLayerTableRecord
  2
TRASH
 70
0
 62
7
  6
CONTINUOUS
370
-3
390
F
  0
ENDTAB
  0
TABLE
  2
STYLE
  5
3
100
AcDbSymbolTable
 70
1
  0
STYLE
  5
11
100
AcDbSymbolTableRecord
100
AcDbTextStyleTableRecord
  2
STANDARD
 70
0
 40
0.0
 41
0.8
 50
0.0
 71
0
 42
0.2
  3
txt
  4

  0
STYLE
  5
20E
100
AcDbSymbolTableRecord
100
AcDbTextStyleTableRecord
  2
TEXTSTYLE_1
 70
0
 40
0.0
 41
0.8
 50
0.0
 71
0
 42
0.2
  3
gdt
  4

  0
ENDTAB
  0
TABLE
  2
VIEW
  5
6
100
AcDbSymbolTable
 70
0
  0
ENDTAB
  0
TABLE
  2
UCS
  5
7
100
AcDbSymbolTable
 70
0
  0
ENDTAB
  0
TABLE
  2
APPID
  5
9
100
AcDbSymbolTable
 70
1
  0
APPID
  5
20F
100
AcDbSymbolTableRecord
100
AcDbRegAppTableRecord
  2
ACAD
 70
0
  0
ENDTAB
  0
TABLE
  2
BLOCK_RECORD
  5
1
100
AcDbSymbolTable
 70
0
  0
BLOCK_RECORD
  5
210
100
AcDbSymbolTableRecord
100
AcDbBlockTableRecord
  2
*Model_Space
  0
BLOCK_RECORD
  5
211
100
AcDbSymbolTableRecord
100
AcDbBlockTableRecord
  2
*Paper_Space
  0
BLOCK_RECORD
  5
212
100
AcDbSymbolTableRecord
100
AcDbBlockTableRecord
  2
_FILLED
  0
ENDTAB
  0
TABLE
  2
DIMSTYLE
  5
A
100
AcDbSymbolTable
 70
1
100
AcDbDimStyleTable
 71
0
  0
DIMSTYLE
105
213
100
AcDbSymbolTableRecord
100
AcDbDimStyleTableRecord
  2
STANDARD
 70
0
  3

  4

 40
1.0
 41
3.0
 42
0.5
 43
0.38
 44
1.5
 45
0.0
 46
0.0
 47
0.01
 48
0.01
140
3.0
141
0.09
142
0.0
143
25.4
144
1.0
145
0.0
146
1.0
147
0.625
 71
1
 72
0
 73
0
 74
0
 75
0
 76
0
 77
1
 78
8
 79
2
170
0
171
1
172
0
173
0
174
0
175
0
176
0
177
0
178
0
270
2
179
2
271
2
272
2
273
2
274
2
275
0
280
0
281
0
282
0
283
1
284
8
285
0
286
0
287
3
288
0
340
11
278
44
341
212
342
212
343
212
344
212
  0
ENDTAB
  0
ENDSEC
  0
SECTION
  2
BLOCKS
  0
BLOCK
  5
20
100
AcDbEntity
  8
0
100
AcDbBlockBegin
  2
*Model_Space
 70
0
 10
0.0
 20
0.0
 30
0.0
  3
*Model_Space
  1

  0
ENDBLK
  5
21
100
AcDbEntity
  8
0
100
AcDbBlockEnd
  0
BLOCK
  5
1C
100
AcDbEntity
  8
0
100
AcDbBlockBegin
  2
*Paper_Space
 70
0
 10
0.0
 20
0.0
 30
0.0
  3
*Paper_Space
  1

  0
ENDBLK
  5
1D
100
AcDbEntity
  8
0
100
AcDbBlockEnd
  0
BLOCK
  5
214
100
AcDbEntity
  8
0
100
AcDbBlockBegin
  2
_FILLED
 70
64
 10
0.0
 20
0.0
  3
_FILLED
  1

  0
SOLID
  5
215
100
AcDbEntity
  8
0
  6
BYBLOCK
 62
0
100
AcDbTrace
 10
0.0
 20
0.0
 11
-1.0
 21
0.3166666667
 12
-1.0
 22
-0.3166666667
 13
-1.0
 23
-0.3166666667
  0
ENDBLK
  5
216
100
AcDbEntity
  8
0
  6
BYBLOCK
 62
0
100
AcDbBlockEnd
  0
ENDSEC
  0
SECTION
  2
ENTITIES
  0
LWPOLYLINE
  5
217
100
AcDbEntity
  8
0
100
AcDbPolyline
 62
7
  6
CONTINUOUS
 90
16
 70
0
 10
264.0685851898
 20
427.5983337975
 10
264.067893975
 20
427.5977723244
 10
264.0669408707
 20
427.5951580274
 10
264.0655676847
 20
427.5876149904
 10
264.063744549
 20
427.5705853451
 10
264.0615503797
 20
427.5390579865
 10
264.0589122529
 20
427.4839660269
 10
264.055985894
 20
427.3978614619
 10
264.0529286483
 20
427.2731413804
 10
264.0518254608
 20
427.2170502488
 10
264.049250542
 20
427.0542764679
 10
264.0472385769
 20
426.8795077491
 10
264.0456406169
 20
426.6797849431
 10
264.0446076849
 20
426.4682018843
 10
264.0441657372
 20
426.2499720675
 10
264.044149074
 20
424.2983398997
  0
LWPOLYLINE
  5
218
100
AcDbEntity
  8
0
100
AcDbPolyline
 62
7
  6
CONTINUOUS
 90
16
 70
0
 10
264.068587212
 20
422.8983463008
 10
264.0692784268
 20
422.8989077733
 10
264.070231531
 20
422.9015220688
 10
264.0716047167
 20
422.9090651026
 10
264.0734278523
 20
422.9260947421
 10
264.0756220224
 20
422.9576221105
 10
264.0782601491
 20
423.0127140707
 10
264.0811865081
 20
423.0988186364
 10
264.0842437538
 20
423.2235387208
 10
264.0853469413
 20
423.2796298497
 10
264.0879218601
 20
423.442403631
 10
264.0899338251
 20
423.617172347
 10
264.0915317852
 20
423.8168951544
 10
264.0925647172
 20
424.0284782148
 10
264.0930066648
 20
424.2467080314
 10
264.093023074
 20
426.1983398997
  0
LWPOLYLINE
  5
219
100
AcDbEntity
  8
0
100
AcDbPolyline
 62
7
  6
CONTINUOUS
 90
16
 70
0
 10
264.0685862016
 20
165.8071397497
 10
264.0678969452
 20
165.8076997383
 10
264.0669463977
 20
165.8103123786
 10
264.0655771735
 20
165.8178513238
 10
264.0637612812
 20
165.8348462611
 10
264.0615132527
 20
165.8673677786
 10
264.0588875808
 20
165.9226595066
 10
264.0559866903
 20
166.0083985034
 10
264.0554828538
 20
166.026298885
 10
264.0524577637
 20
166.1565495704
 10
264.0505372588
 20
166.2647008128
 10
264.04822861
 20
166.4342489369
 10
264.046434732
 20
166.6174522708
 10
264.0451596191
 20
166.8097871161
 10
264.0444002201
 20
167.0073724
 10
264.04414911
 20
167.2071397497
  0
LWPOLYLINE
  5
21A
100
AcDbEntity
  8
0
100
AcDbPolyline
 62
7
  6
CONTINUOUS
 90
16
 70
0
 10
264.0685862018
 20
170.5071397497
 10
264.0692754583
 20
170.506579761
 10
264.0702260058
 20
170.5039671209
 10
264.0715952301
 20
170.4964281761
 10
264.0734111223
 20
170.4794332403
 10
264.0756591508
 20
170.4469117261
 10
264.0782848226
 20
170.391620004
 10
264.0811857129
 20
170.3058810169
 10
264.08168955
 20
170.2879806146
 10
264.0847146398
 20
170.1577299356
 10
264.0866351446
 20
170.0495786869
 10
264.088943793
 20
169.8800305628
 10
264.0907376706
 20
169.6968272288
 10
264.0920127832
 20
169.5044923834
 10
264.0927721818
 20
169.3069070994
 10
264.0930232918
 20
169.1071397497
  0
LWPOLYLINE
  5
21B
100
AcDbEntity
  8
0
100
AcDbPolyline
 62
7
  6
CONTINUOUS
 90
16
 70
0
 10
264.0441491101
 20
424.2983400502
 10
264.044422168
 20
424.0897034668
 10
264.0452901841
 20
423.8757080424
 10
264.0467320879
 20
423.6721294345
 10
264.0487117257
 20
423.4839756933
 10
264.0493525149
 20
423.4349510469
 10
264.0519468057
 20
423.27316896
 10
264.0549506498
 20
423.1366115514
 10
264.0579418101
 20
423.0381447079
 10
264.0606918308
 20
422.9734049529
 10
264.0614891339
 20
422.9586819674
 10
264.0637493587
 20
422.9260400071
 10
264.0655715352
 20
422.9090389648
 10
264.0669437498
 20
422.9015118784
 10
264.0678959962
 20
422.8989049227
 10
264.068587212
 20
422.8983463008
  0
LWPOLYLINE
  5
21C
100
AcDbEntity
  8
0
100
AcDbPolyline
 62
7
  6
CONTINUOUS
 90
16
 70
0
 10
264.0930232919
 20
426.1983400506
 10
264.0927502341
 20
426.4069766243
 10
264.091882218
 20
426.6209720519
 10
264.0904403142
 20
426.8245506631
 10
264.0884606763
 20
427.0127044056
 10
264.0878198873
 20
427.0617290496
 10
264.0852255964
 20
427.2235111377
 10
264.0822217523
 20
427.3600685478
 10
264.079230592
 20
427.4585353912
 10
264.0764805713
 20
427.523275146
 10
264.0756832671
 20
427.5379981495
 10
264.0734230425
 20
427.5706401017
 10
264.0716008663
 20
427.5876411386
 10
264.0702286518
 20
427.5951682219
 10
264.0692764056
 20
427.5977751761
 10
264.0685851898
 20
427.5983337975
  0
LINE
  5
21D
100
AcDbEntity
  8
0
100
AcDbLine
 62
7
  6
CONTINUOUS
 10
251.199499074
 20
152.0027398997
 11
251.199499074
 21
441.4027398997
  0
LINE
  5
21E
100
AcDbEntity
  8
0
100
AcDbLine
 62
7
  6
CONTINUOUS
 10
264.033676074
 20
156.8369168997
 11
264.033676074
 21
436.5685628997
  0
LINE
  5
21F
100
AcDbEntity
  8
0
100
AcDbLine
 62
7
  6
CONTINUOUS
 10
264.199499074
 20
157.0027398997
 11
264.199499074
 21
436.4027398997
  0
LINE
  5
220
100
AcDbEntity
  8
0
100
AcDbLine
 62
7
  6
CONTINUOUS
 10
264.426415074
 20
436.1758238997
 11
264.426415074
 21
157.2296558997
  0
LINE
  5
221
100
AcDbEntity
  8
0
100
AcDbLine
 62
7
  6
CONTINUOUS
 10
264.676022074
 20
157.4792628997
 11
264.676022074
 21
435.9262168997
  0
LINE
  5
222
100
AcDbEntity
  8
0
100
AcDbLine
 62
7
  6
CONTINUOUS
 10
265.422976074
 20
435.1792628997
 11
265.422976074
 21
158.2262168997
  0
LINE
  5
223
100
AcDbEntity
  8
0
100
AcDbLine
 62
7
  6
CONTINUOUS
 10
265.605811074
 20
258.7171468997
 11
265.605811074
 21
334.6883328997
  0
LINE
  5
224
100
AcDbEntity
  8
0
100
AcDbLine
 62
7
  6
CONTINUOUS
 10
265.620218074
 20
258.7027398997
 11
265.620218074
 21
247.7027398997
  0
LINE
  5
225
100
AcDbEntity
  8
0
100
AcDbLine
 62
7
  6
CONTINUOUS
 10
265.620218074
 20
334.7027398997
 11
265.620218074
 21
345.7027398997
  0
LINE
  5
226
100
AcDbEntity
  8
0
100
AcDbLine
 62
7
  6
CONTINUOUS
 10
265.672583074
 20
247.6503748997
 11
265.672583074
 21
158.4758238997
  0
LINE
  5
227
100
AcDbEntity
  8
0
100
AcDbLine
 62
7
  6
CONTINUOUS
 10
265.672583074
 20
345.7551048997
 11
265.672583074
 21
434.9296558997
  0
LWPOLYLINE
  5
228
100
AcDbEntity
  8
0
100
AcDbPolyline
 62
7
  6
CONTINUOUS
 90
16
 70
0
 10
264.044149074
 20
167.2071398997
 10
264.0442028081
 20
169.1997338689
 10
264.0446881722
 20
169.3984939116
 10
264.0456878442
 20
169.5941786185
 10
264.047208956
 20
169.78326763
 10
264.0492511856
 20
169.9613326821
 10
264.0518038979
 20
170.1233130701
 10
264.0548194974
 20
170.2628599048
 10
264.0577902554
 20
170.3624659359
 10
264.0588877806
 20
170.3916293666
 10
264.0615130558
 20
170.4469137958
 10
264.063761068
 20
170.4794336792
 10
264.0655770681
 20
170.4964283439
 10
264.0669463688
 20
170.5039671802
 10
264.0678969444
 20
170.506579773
 10
264.0685862018
 20
170.5071397497
  0
LWPOLYLINE
  5
229
100
AcDbEntity
  8
0
100
AcDbPolyline
 62
7
  6
CONTINUOUS
 90
16
 70
0
 10
264.093023074
 20
169.1071398997
 10
264.0929695929
 20
167.1145456518
 10
264.0924842288
 20
166.915785609
 10
264.091484557
 20
166.7201009016
 10
264.0899634454
 20
166.5310118894
 10
264.087921216
 20
166.3529468359
 10
264.0853685041
 20
166.1909664459
 10
264.0823529048
 20
166.0514196004
 10
264.079382147
 20
165.9518135637
 10
264.0782846224
 20
165.9226501438
 10
264.0756593473
 20
165.8673657087
 10
264.0734113352
 20
165.8348458221
 10
264.0715953351
 20
165.817851156
 10
264.0702260345
 20
165.8103123193
 10
264.069275459
 20
165.8076997264
 10
264.0685862016
 20
165.8071397497
  0
LINE
  5
22A
100
AcDbEntity
  8
0
100
AcDbLine
 62
7
  6
CONTINUOUS
 10
265.672583074
 20
345.7551048997
 11
265.620218074
 21
345.7027398997
  0
LINE
  5
22B
100
AcDbEntity
  8
0
100
AcDbLine
 62
7
  6
CONTINUOUS
 10
553.601899074
 20
144.0027398997
 11
259.199499074
 21
144.0027398997
  0
LINE
  5
22C
100
AcDbEntity
  8
0
100
AcDbLine
 62
7
  6
CONTINUOUS
 10
265.672583074
 20
247.6503748997
 11
265.620218074
 21
247.7027398997
  0
LINE
  5
22D
100
AcDbEntity
  8
0
100
AcDbLine
 62
7
  6
CONTINUOUS
 10
280.935928074
 20
358.7027398997
 11
279.809933074
 21
369.7027398997
  0
LINE
  5
22E
100
AcDbEntity
  8
0
100
AcDbLine
 62
7
  6
CONTINUOUS
 10
284.437128074
 20
358.7027398997
 11
283.311133074
 21
369.7027398997
  0
LINE
  5
22F
100
AcDbEntity
  8
0
100
AcDbLine
 62
7
  6
CONTINUOUS
 10
278.539916074
 20
411.7027398997
 11
278.539916074
 21
345.7551048997
  0
LINE
  5
230
100
AcDbEntity
  8
0
100
AcDbLine
 62
7
  6
CONTINUOUS
 10
278.539916074
 20
181.7027398997
 11
278.539916074
 21
247.6503748997
  0
LINE
  5
231
100
AcDbEntity
  8
0
100
AcDbLine
 62
7
  6
CONTINUOUS
 10
278.618474074
 20
258.7027398997
 11
278.618474074
 21
247.7027398997
  0
LINE
  5
232
100
AcDbEntity
  8
0
100
AcDbLine
 62
7
  6
CONTINUOUS
 10
278.618474074
 20
334.7027398997
 11
278.618474074
 21
345.7027398997
  0
LINE
  5
233
100
AcDbEntity
  8
0
100
AcDbLine
 62
7
  6
CONTINUOUS
 10
279.639725074
 20
334.0219918997
 11
279.639725074
 21
259.3834878997
  0
LINE
  5
234
100
AcDbEntity
  8
0
100
AcDbLine
 62
7
  6
CONTINUOUS
 10
279.809933074
 20
223.7027398997
 11
279.809933074
 21
188.7027398997
  0
LINE
  5
235
100
AcDbEntity
  8
0
100
AcDbLine
 62
7
  6
CONTINUOUS
 10
279.809933074
 20
369.7027398997
 11
279.809933074
 21
404.7027398997
  0
LINE
  5
236
100
AcDbEntity
  8
0
100
AcDbLine
 62
7
  6
CONTINUOUS
 10
280.935928074
 20
234.7027398997
 11
280.935928074
 21
358.7027398997
  0
LINE
  5
237
100
AcDbEntity
  8
0
100
AcDbLine
 62
7
  6
CONTINUOUS
 10
282.041116074
 20
181.7027398997
 11
282.041116074
 21
171.3431568997
  0
LINE
  5
238
100
AcDbEntity
  8
0
100
AcDbLine
 62
7
  6
CONTINUOUS
 10
282.041116074
 20
411.7027398997
 11
282.041116074
 21
422.0623228997
  0
LINE
  5
239
100
AcDbEntity
  8
0
100
AcDbLine
 62
7
  6
CONTINUOUS
 10
283.311133074
 20
223.7027398997
 11
283.311133074
 21
188.7027398997
  0
LINE
  5
23A
100
AcDbEntity
  8
0
100
AcDbLine
 62
7
  6
CONTINUOUS
 10
283.311133074
 20
369.7027398997
 11
283.311133074
 21
404.7027398997
  0
LINE
  5
23B
100
AcDbEntity
  8
0
100
AcDbLine
 62
7
  6
CONTINUOUS
 10
284.437128074
 20
234.7027398997
 11
284.437128074
 21
173.7391688997
  0
LINE
  5
23C
100
AcDbEntity
  8
0
100
AcDbLine
 62
7
  6
CONTINUOUS
 10
284.437128074
 20
358.7027398997
 11
284.437128074
 21
419.6663108997
  0
LINE
  5
23D
100
AcDbEntity
  8
0
100
AcDbLine
 62
7
  6
CONTINUOUS
 10
280.935928074
 20
234.7027398997
 11
279.809933074
 21
223.7027398997
  0
LINE
  5
23E
100
AcDbEntity
  8
0
100
AcDbLine
 62
7
  6
CONTINUOUS
 10
284.437128074
 20
234.7027398997
 11
283.311133074
 21
223.7027398997
  0
LINE
  5
23F
100
AcDbEntity
  8
0
100
AcDbLine
 62
7
  6
CONTINUOUS
 10
279.809933074
 20
188.7027398997
 11
278.539916074
 21
181.7027398997
  0
LINE
  5
240
100
AcDbEntity
  8
0
100
AcDbLine
 62
7
  6
CONTINUOUS
 10
283.311133074
 20
188.7027398997
 11
282.041116074
 21
181.7027398997
  0
LINE
  5
241
100
AcDbEntity
  8
0
100
AcDbLine
 62
7
  6
CONTINUOUS
 10
265.620218074
 20
334.7027398997
 11
265.605811074
 21
334.6883328997
  0
LINE
  5
242
100
AcDbEntity
  8
0
100
AcDbLine
 62
7
  6
CONTINUOUS
 10
403.405879074
 20
164.4027398997
 11
405.405879074
 21
164.4245698997
  0
LINE
  5
243
100
AcDbEntity
  8
0
100
AcDbLine
 62
7
  6
CONTINUOUS
 10
409.395871074
 20
173.0027398997
 11
407.395871074
 21
172.9809098997
  0
LINE
  5
244
100
AcDbEntity
  8
0
100
AcDbLine
 62
7
  6
CONTINUOUS
 10
548.767722074
 20
156.8369168997
 11
264.033676074
 21
156.8369168997
  0
LINE
  5
245
100
AcDbEntity
  8
0
100
AcDbLine
 62
7
  6
CONTINUOUS
 10
548.601899074
 20
157.0027398997
 11
264.199499074
 21
157.0027398997
  0
LINE
  5
246
100
AcDbEntity
  8
0
100
AcDbLine
 62
7
  6
CONTINUOUS
 10
264.426415074
 20
157.2296558997
 11
548.374983074
 21
157.2296558997
  0
LINE
  5
247
100
AcDbEntity
  8
0
100
AcDbLine
 62
7
  6
CONTINUOUS
 10
264.676022074
 20
157.4792628997
 11
548.125376074
 21
157.4792628997
  0
LINE
  5
248
100
AcDbEntity
  8
0
100
AcDbLine
 62
7
  6
CONTINUOUS
 10
265.422976074
 20
158.2262168997
 11
547.378422074
 21
158.2262168997
  0
LINE
  5
249
100
AcDbEntity
  8
0
100
AcDbLine
 62
7
  6
CONTINUOUS
 10
265.672583074
 20
158.4758238997
 11
547.128815074
 21
158.4758238997
  0
LINE
  5
24A
100
AcDbEntity
  8
0
100
AcDbLine
 62
7
  6
CONTINUOUS
 10
383.400699074
 20
163.5923978997
 11
370.400699074
 21
163.5923978997
  0
LINE
  5
24B
100
AcDbEntity
  8
0
100
AcDbLine
 62
7
  6
CONTINUOUS
 10
429.400699074
 20
163.5923978997
 11
442.400699074
 21
163.5923978997
  0
LINE
  5
24C
100
AcDbEntity
  8
0
100
AcDbLine
 62
7
  6
CONTINUOUS
 10
402.788141074
 20
164.3327988997
 11
410.013609074
 21
164.3327988997
  0
LINE
  5
24D
100
AcDbEntity
  8
0
100
AcDbLine
 62
7
  6
CONTINUOUS
 10
402.813397074
 20
164.4027398997
 11
403.405879074
 21
164.4027398997
  0
LINE
  5
24E
100
AcDbEntity
  8
0
100
AcDbLine
 62
7
  6
CONTINUOUS
 10
409.395871074
 20
164.4027398997
 11
409.988353074
 21
164.4027398997
  0
LINE
  5
24F
100
AcDbEntity
  8
0
100
AcDbLine
 62
7
  6
CONTINUOUS
 10
405.405879074
 20
164.4245698997
 11
409.395871074
 21
164.4245698997
  0
LINE
  5
250
100
AcDbEntity
  8
0
100
AcDbLine
 62
7
  6
CONTINUOUS
 10
472.400699074
 20
164.7027398997
 11
465.400699074
 21
164.7027398997
  0
LINE
  5
251
100
AcDbEntity
  8
0
100
AcDbLine
 62
7
  6
CONTINUOUS
 10
347.400699074
 20
164.7027398997
 11
340.400699074
 21
164.7027398997
  0
LINE
  5
252
100
AcDbEntity
  8
0
100
AcDbLine
 62
7
  6
CONTINUOUS
 10
444.734582074
 20
164.7074428997
 11
427.066832074
 21
164.7074428997
  0
LINE
  5
253
100
AcDbEntity
  8
0
100
AcDbLine
 62
7
  6
CONTINUOUS
 10
368.066832074
 20
164.7074428997
 11
385.734582074
 21
164.7074428997
  0
LINE
  5
254
100
AcDbEntity
  8
0
100
AcDbLine
 62
7
  6
CONTINUOUS
 10
367.658793074
 20
165.3750458997
 11
386.142609074
 21
165.3750458997
  0
LINE
  5
255
100
AcDbEntity
  8
0
100
AcDbLine
 62
7
  6
CONTINUOUS
 10
426.658794074
 20
165.3750458997
 11
445.142609074
 21
165.3750458997
  0
LINE
  5
256
100
AcDbEntity
  8
0
100
AcDbLine
 62
7
  6
CONTINUOUS
 10
409.395871074
 20
165.8809098997
 11
405.405879074
 21
165.8809098997
  0
LINE
  5
257
100
AcDbEntity
  8
0
100
AcDbLine
 62
7
  6
CONTINUOUS
 10
403.405879074
 20
165.9027398997
 11
409.395871074
 21
165.9027398997
  0
LINE
  5
258
100
AcDbEntity
  8
0
100
AcDbLine
 62
7
  6
CONTINUOUS
 10
409.195161074
 20
166.1576118997
 11
403.606237074
 21
166.1576118997
  0
LINE
  5
259
100
AcDbEntity
  8
0
100
AcDbLine
 62
7
  6
CONTINUOUS
 10
348.400707074
 20
166.6576118997
 11
339.400707074
 21
166.6576118997
  0
LINE
  5
25A
100
AcDbEntity
  8
0
100
AcDbLine
 62
7
  6
CONTINUOUS
 10
464.400707074
 20
166.6576118997
 11
473.400707074
 21
166.6576118997
  0
LINE
  5
25B
100
AcDbEntity
  8
0
100
AcDbLine
 62
7
  6
CONTINUOUS
 10
367.400693074
 20
166.8693378997
 11
386.400648074
 21
166.8693378997
  0
LINE
  5
25C
100
AcDbEntity
  8
0
100
AcDbLine
 62
7
  6
CONTINUOUS
 10
426.400700074
 20
166.8693378997
 11
445.400700074
 21
166.8693378997
  0
LINE
  5
25D
100
AcDbEntity
  8
DEFAULT_1
100
AcDbLine
 62
7
  6
CENTER
 10
264.035769074
 20
167.2071348997
 11
264.044149074
 21
167.2071398997
  0
LINE
  5
25E
100
AcDbEntity
  8
0
100
AcDbLine
 62
7
  6
CONTINUOUS
 10
264.044149074
 20
167.2071398997
 11
264.093025074
 21
167.2071398997
  0
LINE
  5
25F
100
AcDbEntity
  8
DEFAULT_1
100
AcDbLine
 62
7
  6
CENTER
 10
264.093025074
 20
167.2071398997
 11
264.101977074
 21
167.2071348997
  0
LINE
  5
260
100
AcDbEntity
  8
DEFAULT_1
100
AcDbLine
 62
7
  6
CENTER
 10
548.699420074
 20
167.2071348997
 11
548.708377074
 21
167.2071398997
  0
LINE
  5
261
100
AcDbEntity
  8
0
100
AcDbLine
 62
7
  6
CONTINUOUS
 10
548.708377074
 20
167.2071398997
 11
548.757249074
 21
167.2071398997
  0
LINE
  5
262
100
AcDbEntity
  8
DEFAULT_1
100
AcDbLine
 62
7
  6
CENTER
 10
548.757249074
 20
167.2071398997
 11
548.765628074
 21
167.2071348997
  0
LINE
  5
263
100
AcDbEntity
  8
0
100
AcDbLine
 62
7
  6
CONTINUOUS
 10
367.400700074
 20
167.5472708997
 11
386.400700074
 21
167.5472708997
  0
LINE
  5
264
100
AcDbEntity
  8
0
100
AcDbLine
 62
7
  6
CONTINUOUS
 10
426.400700074
 20
167.5472708997
 11
445.400700074
 21
167.5472708997
  0
LINE
  5
265
100
AcDbEntity
  8
0
100
AcDbLine
 62
7
  6
CONTINUOUS
 10
384.343421074
 20
167.8805338997
 11
380.543894074
 21
167.8805338997
  0
LINE
  5
266
100
AcDbEntity
  8
0
100
AcDbLine
 62
7
  6
CONTINUOUS
 10
371.542802074
 20
167.8805338997
 11
380.542802074
 21
167.8805338997
  0
LINE
  5
267
100
AcDbEntity
  8
0
100
AcDbLine
 62
7
  6
CONTINUOUS
 10
402.504850074
 20
167.8805338997
 11
410.296569074
 21
167.8805338997
  0
LINE
  5
268
100
AcDbEntity
  8
0
100
AcDbLine
 62
7
  6
CONTINUOUS
 10
428.458703074
 20
167.8805338997
 11
441.342802074
 21
167.8805338997
  0
LINE
  5
269
100
AcDbEntity
  8
0
100
AcDbLine
 62
7
  6
CONTINUOUS
 10
473.400701074
 20
168.0259938997
 11
464.400701074
 21
168.0259938997
  0
LINE
  5
26A
100
AcDbEntity
  8
0
100
AcDbLine
 62
7
  6
CONTINUOUS
 10
348.400701074
 20
168.0259938997
 11
339.400701074
 21
168.0259938997
  0
LINE
  5
26B
100
AcDbEntity
  8
0
100
AcDbLine
 62
7
  6
CONTINUOUS
 10
473.400699074
 20
168.7027398997
 11
464.400699074
 21
168.7027398997
  0
LINE
  5
26C
100
AcDbEntity
  8
0
100
AcDbLine
 62
7
  6
CONTINUOUS
 10
348.400699074
 20
168.7027398997
 11
339.400699074
 21
168.7027398997
  0
LINE
  5
26D
100
AcDbEntity
  8
DEFAULT_1
100
AcDbLine
 62
7
  6
CENTER
 10
264.035190074
 20
169.1071358997
 11
264.044149074
 21
169.1071398997
  0
LINE
  5
26E
100
AcDbEntity
  8
0
100
AcDbLine
 62
7
  6
CONTINUOUS
 10
264.044149074
 20
169.1071398997
 11
264.093025074
 21
169.1071398997
  0
LINE
  5
26F
100
AcDbEntity
  8
DEFAULT_1
100
AcDbLine
 62
7
  6
CENTER
 10
264.093025074
 20
169.1071398997
 11
264.101397074
 21
169.1071358997
  0
LINE
  5
270
100
AcDbEntity
  8
DEFAULT_1
100
AcDbLine
 62
7
  6
CENTER
 10
548.700000074
 20
169.1071358997
 11
548.708377074
 21
169.1071398997
  0
LINE
  5
271
100
AcDbEntity
  8
0
100
AcDbLine
 62
7
  6
CONTINUOUS
 10
548.708377074
 20
169.1071398997
 11
548.757249074
 21
169.1071398997
  0
LINE
  5
272
100
AcDbEntity
  8
DEFAULT_1
100
AcDbLine
 62
7
  6
CENTER
 10
548.757249074
 20
169.1071398997
 11
548.766208074
 21
169.1071358997
  0
LINE
  5
273
100
AcDbEntity
  8
DEFAULT_1
100
AcDbLine
 62
7
  6
CENTER
 10
371.042800074
 20
169.1305358997
 11
377.042802074
 21
169.1305358997
  0
LINE
  5
274
100
AcDbEntity
  8
0
100
AcDbLine
 62
7
  6
CONTINUOUS
 10
487.484368074
 20
169.2027398997
 11
478.317030074
 21
169.2027398997
  0
LINE
  5
275
100
AcDbEntity
  8
0
100
AcDbLine
 62
7
  6
CONTINUOUS
 10
459.484368074
 20
169.2027398997
 11
450.317030074
 21
169.2027398997
  0
LINE
  5
276
100
AcDbEntity
  8
0
100
AcDbLine
 62
7
  6
CONTINUOUS
 10
362.484368074
 20
169.2027398997
 11
353.317030074
 21
169.2027398997
  0
LINE
  5
277
100
AcDbEntity
  8
0
100
AcDbLine
 62
7
  6
CONTINUOUS
 10
334.484368074
 20
169.2027398997
 11
325.317030074
 21
169.2027398997
  0
LINE
  5
278
100
AcDbEntity
  8
0
100
AcDbLine
 62
7
  6
CONTINUOUS
 10
324.602426074
 20
169.5032108997
 11
335.198974074
 21
169.5032108997
  0
LINE
  5
279
100
AcDbEntity
  8
0
100
AcDbLine
 62
7
  6
CONTINUOUS
 10
352.602426074
 20
169.5032108997
 11
363.198974074
 21
169.5032108997
  0
LINE
  5
27A
100
AcDbEntity
  8
0
100
AcDbLine
 62
7
  6
CONTINUOUS
 10
449.602426074
 20
169.5032108997
 11
460.198974074
 21
169.5032108997
  0
LINE
  5
27B
100
AcDbEntity
  8
0
100
AcDbLine
 62
7
  6
CONTINUOUS
 10
477.602426074
 20
169.5032108997
 11
488.198974074
 21
169.5032108997
  0
LINE
  5
27C
100
AcDbEntity
  8
0
100
AcDbLine
 62
7
  6
CONTINUOUS
 10
362.411325074
 20
169.5381318997
 11
362.865778074
 21
169.5381318997
  0
LINE
  5
27D
100
AcDbEntity
  8
0
100
AcDbLine
 62
7
  6
CONTINUOUS
 10
449.935620074
 20
169.5381318997
 11
450.390073074
 21
169.5381318997
  0
LINE
  5
27E
100
AcDbEntity
  8
0
100
AcDbLine
 62
7
  6
CONTINUOUS
 10
324.401703074
 20
169.8000368997
 11
335.399709074
 21
169.8000368997
  0
LINE
  5
27F
100
AcDbEntity
  8
0
100
AcDbLine
 62
7
  6
CONTINUOUS
 10
352.401703074
 20
169.8000368997
 11
362.149419074
 21
169.8000368997
  0
LINE
  5
280
100
AcDbEntity
  8
0
100
AcDbLine
 62
7
  6
CONTINUOUS
 10
450.651979074
 20
169.8000368997
 11
460.399709074
 21
169.8000368997
  0
LINE
  5
281
100
AcDbEntity
  8
0
100
AcDbLine
 62
7
  6
CONTINUOUS
 10
477.401703074
 20
169.8000368997
 11
488.399709074
 21
169.8000368997
  0
LINE
  5
282
100
AcDbEntity
  8
0
100
AcDbLine
 62
7
  6
CONTINUOUS
 10
371.542802074
 20
170.3805338997
 11
384.088019074
 21
170.3805338997
  0
LINE
  5
283
100
AcDbEntity
  8
0
100
AcDbLine
 62
7
  6
CONTINUOUS
 10
402.659911074
 20
170.3805338997
 11
410.141875074
 21
170.3805338997
  0
LINE
  5
284
100
AcDbEntity
  8
0
100
AcDbLine
 62
7
  6
CONTINUOUS
 10
428.713379074
 20
170.3805338997
 11
441.342802074
 21
170.3805338997
  0
LINE
  5
285
100
AcDbEntity
  8
0
100
AcDbLine
 62
7
  6
CONTINUOUS
 10
434.900699074
 20
170.5472708997
 11
429.400699074
 21
170.5472708997
  0
LINE
  5
286
100
AcDbEntity
  8
0
100
AcDbLine
 62
7
  6
CONTINUOUS
 10
383.400699074
 20
170.5472708997
 11
377.900699074
 21
170.5472708997
  0
LINE
  5
287
100
AcDbEntity
  8
0
100
AcDbLine
 62
7
  6
CONTINUOUS
 10
282.041116074
 20
171.3431568997
 11
324.213437074
 21
171.3431568997
  0
LINE
  5
288
100
AcDbEntity
  8
0
100
AcDbLine
 62
7
  6
CONTINUOUS
 10
335.587961074
 20
171.3431568997
 11
352.213437074
 21
171.3431568997
  0
LINE
  5
289
100
AcDbEntity
  8
0
100
AcDbLine
 62
7
  6
CONTINUOUS
 10
363.587961074
 20
171.3431568997
 11
399.487974074
 21
171.3431568997
  0
LINE
  5
28A
100
AcDbEntity
  8
0
100
AcDbLine
 62
7
  6
CONTINUOUS
 10
413.313776074
 20
171.3431568997
 11
449.213437074
 21
171.3431568997
  0
LINE
  5
28B
100
AcDbEntity
  8
0
100
AcDbLine
 62
7
  6
CONTINUOUS
 10
460.587961074
 20
171.3431568997
 11
477.213437074
 21
171.3431568997
  0
LINE
  5
28C
100
AcDbEntity
  8
0
100
AcDbLine
 62
7
  6
CONTINUOUS
 10
488.587961074
 20
171.3431568997
 11
530.760282074
 21
171.3431568997
  0
LINE
  5
28D
100
AcDbEntity
  8
0
100
AcDbLine
 62
7
  6
CONTINUOUS
 10
488.590252074
 20
171.3693428997
 11
477.211146074
 21
171.3693428997
  0
LINE
  5
28E
100
AcDbEntity
  8
0
100
AcDbLine
 62
7
  6
CONTINUOUS
 10
460.590252074
 20
171.3693428997
 11
449.211146074
 21
171.3693428997
  0
LINE
  5
28F
100
AcDbEntity
  8
0
100
AcDbLine
 62
7
  6
CONTINUOUS
 10
363.590252074
 20
171.3693428997
 11
352.211146074
 21
171.3693428997
  0
LINE
  5
290
100
AcDbEntity
  8
0
100
AcDbLine
 62
7
  6
CONTINUOUS
 10
335.590252074
 20
171.3693428997
 11
324.211146074
 21
171.3693428997
  0
LINE
  5
291
100
AcDbEntity
  8
0
100
AcDbLine
 62
7
  6
CONTINUOUS
 10
399.539418074
 20
171.4740948997
 11
401.206862074
 21
171.4740948997
  0
LINE
  5
292
100
AcDbEntity
  8
0
100
AcDbLine
 62
7
  6
CONTINUOUS
 10
411.634836074
 20
171.4740948997
 11
413.262332074
 21
171.4740948997
  0
LINE
  5
293
100
AcDbEntity
  8
0
100
AcDbLine
 62
7
  6
CONTINUOUS
 10
409.395871074
 20
171.5027398997
 11
403.405879074
 21
171.5027398997
  0
LINE
  5
294
100
AcDbEntity
  8
0
100
AcDbLine
 62
7
  6
CONTINUOUS
 10
403.405879074
 20
171.5245698997
 11
407.395871074
 21
171.5245698997
  0
LINE
  5
295
100
AcDbEntity
  8
0
100
AcDbLine
 62
7
  6
CONTINUOUS
 10
407.395871074
 20
172.9809098997
 11
403.405879074
 21
172.9809098997
  0
LINE
  5
296
100
AcDbEntity
  8
0
100
AcDbLine
 62
7
  6
CONTINUOUS
 10
409.988353074
 20
173.0027398997
 11
409.395871074
 21
173.0027398997
  0
LINE
  5
297
100
AcDbEntity
  8
0
100
AcDbLine
 62
7
  6
CONTINUOUS
 10
403.405879074
 20
173.0027398997
 11
402.813397074
 21
173.0027398997
  0
LINE
  5
298
100
AcDbEntity
  8
0
100
AcDbLine
 62
7
  6
CONTINUOUS
 10
410.013609074
 20
173.0726808997
 11
402.788141074
 21
173.0726808997
  0
LINE
  5
299
100
AcDbEntity
  8
0
100
AcDbLine
 62
7
  6
CONTINUOUS
 10
284.437128074
 20
173.7391688997
 11
398.941788074
 21
173.7391688997
  0
LINE
  5
29A
100
AcDbEntity
  8
0
100
AcDbLine
 62
7
  6
CONTINUOUS
 10
413.899909074
 20
173.7391688997
 11
528.364270074
 21
173.7391688997
  0
LINE
  5
29B
100
AcDbEntity
  8
0
100
AcDbLine
 62
7
  6
CONTINUOUS
 10
401.204805074
 20
174.4751238997
 11
411.636892074
 21
174.4751238997
  0
LINE
  5
29C
100
AcDbEntity
  8
0
100
AcDbLine
 62
7
  6
CONTINUOUS
 10
413.692478074
 20
176.5307098997
 11
399.149219074
 21
176.5307098997
  0
LINE
  5
29D
100
AcDbEntity
  8
0
100
AcDbLine
 62
7
  6
CONTINUOUS
 10
278.539916074
 20
181.7027398997
 11
282.041116074
 21
181.7027398997
  0
LINE
  5
29E
100
AcDbEntity
  8
0
100
AcDbLine
 62
7
  6
CONTINUOUS
 10
530.760282074
 20
181.7027398997
 11
534.261482074
 21
181.7027398997
  0
LINE
  5
29F
100
AcDbEntity
  8
0
100
AcDbLine
 62
7
  6
CONTINUOUS
 10
403.405879074
 20
165.9027398997
 11
405.405879074
 21
165.8809098997
  0
LINE
  5
2A0
100
AcDbEntity
  8
0
100
AcDbLine
 62
7
  6
CONTINUOUS
 10
409.395871074
 20
171.5027398997
 11
407.395871074
 21
171.5245698997
  0
LINE
  5
2A1
100
AcDbEntity
  8
0
100
AcDbLine
 62
7
  6
CONTINUOUS
 10
265.620218074
 20
258.7027398997
 11
265.605811074
 21
258.7171468997
  0
LINE
  5
2A2
100
AcDbEntity
  8
0
100
AcDbLine
 62
7
  6
CONTINUOUS
 10
360.580117074
 20
171.3693398997
 11
362.411325074
 21
169.5381318997
  0
LINE
  5
2A3
100
AcDbEntity
  8
0
100
AcDbLine
 62
7
  6
CONTINUOUS
 10
362.900699074
 20
169.5032108997
 11
362.865778074
 21
169.5381318997
  0
LINE
  5
2A4
100
AcDbEntity
  8
0
100
AcDbLine
 62
7
  6
CONTINUOUS
 10
361.994330074
 20
171.3693398997
 11
362.865778074
 21
170.4978918997
  0
LINE
  5
2A5
100
AcDbEntity
  8
0
100
AcDbLine
 62
7
  6
CONTINUOUS
 10
279.809933074
 20
404.7027398997
 11
278.539916074
 21
411.7027398997
  0
LINE
  5
2A6
100
AcDbEntity
  8
0
100
AcDbLine
 62
7
  6
CONTINUOUS
 10
283.311133074
 20
404.7027398997
 11
282.041116074
 21
411.7027398997
  0
LINE
  5
2A7
100
AcDbEntity
  8
0
100
AcDbLine
 62
7
  6
CONTINUOUS
 10
324.320835074
 20
170.1155838997
 11
324.211146074
 21
171.3693428997
  0
LINE
  5
2A8
100
AcDbEntity
  8
0
100
AcDbLine
 62
7
  6
CONTINUOUS
 10
324.320835074
 20
423.2898958997
 11
324.211146074
 21
422.0361368997
  0
LINE
  5
2A9
100
AcDbEntity
  8
0
100
AcDbLine
 62
7
  6
CONTINUOUS
 10
401.166562074
 20
421.9313848997
 11
398.901489074
 21
419.6663108997
  0
LINE
  5
2AA
100
AcDbEntity
  8
0
100
AcDbLine
 62
7
  6
CONTINUOUS
 10
399.108920074
 20
416.8747698997
 11
401.164506074
 21
418.9303558997
  0
LINE
  5
2AB
100
AcDbEntity
  8
0
100
AcDbLine
 62
7
  6
CONTINUOUS
 10
279.809933074
 20
188.7027398997
 11
283.311133074
 21
188.7027398997
  0
LINE
  5
2AC
100
AcDbEntity
  8
0
100
AcDbLine
 62
7
  6
CONTINUOUS
 10
529.490265074
 20
188.7027398997
 11
532.991465074
 21
188.7027398997
  0
LINE
  5
2AD
100
AcDbEntity
  8
0
100
AcDbLine
 62
7
  6
CONTINUOUS
 10
401.206862074
 20
171.4740948997
 11
398.941788074
 21
173.7391688997
  0
LINE
  5
2AE
100
AcDbEntity
  8
0
100
AcDbLine
 62
7
  6
CONTINUOUS
 10
401.204805074
 20
174.4751238997
 11
399.149219074
 21
176.5307098997
  0
LINE
  5
2AF
100
AcDbEntity
  8
0
100
AcDbLine
 62
7
  6
CONTINUOUS
 10
352.320835074
 20
170.1155838997
 11
352.211146074
 21
171.3693428997
  0
LINE
  5
2B0
100
AcDbEntity
  8
0
100
AcDbLine
 62
7
  6
CONTINUOUS
 10
335.590252074
 20
422.0361368997
 11
335.480563074
 21
423.2898958997
  0
LINE
  5
2B1
100
AcDbEntity
  8
0
100
AcDbLine
 62
7
  6
CONTINUOUS
 10
339.400699074
 20
427.7027398997
 11
339.400699074
 21
424.7027398997
  0
LINE
  5
2B2
100
AcDbEntity
  8
0
100
AcDbLine
 62
7
  6
CONTINUOUS
 10
339.400699074
 20
165.7027398997
 11
339.400699074
 21
168.7027398997
  0
LINE
  5
2B3
100
AcDbEntity
  8
0
100
AcDbLine
 62
7
  6
CONTINUOUS
 10
348.400699074
 20
427.7027398997
 11
348.400699074
 21
424.7027398997
  0
LINE
  5
2B4
100
AcDbEntity
  8
0
100
AcDbLine
 62
7
  6
CONTINUOUS
 10
348.400699074
 20
165.7027398997
 11
348.400699074
 21
168.7027398997
  0
LINE
  5
2B5
100
AcDbEntity
  8
0
100
AcDbLine
 62
7
  6
CONTINUOUS
 10
362.603872074
 20
171.3693348997
 11
362.603872074
 21
170.7597978997
  0
LINE
  5
2B6
100
AcDbEntity
  8
0
100
AcDbLine
 62
7
  6
CONTINUOUS
 10
362.865778074
 20
170.4978918997
 11
362.865778074
 21
169.5381318997
  0
LINE
  5
2B7
100
AcDbEntity
  8
0
100
AcDbLine
 62
7
  6
CONTINUOUS
 10
362.900699074
 20
171.3693408997
 11
362.900699074
 21
169.5032108997
  0
LINE
  5
2B8
100
AcDbEntity
  8
0
100
AcDbLine
 62
7
  6
CONTINUOUS
 10
352.320835074
 20
423.2898958997
 11
352.211146074
 21
422.0361368997
  0
LINE
  5
2B9
100
AcDbEntity
  8
0
100
AcDbLine
 62
7
  6
CONTINUOUS
 10
335.590252074
 20
171.3693428997
 11
335.480563074
 21
170.1155838997
  0
LINE
  5
2BA
100
AcDbEntity
  8
0
100
AcDbLine
 62
7
  6
CONTINUOUS
 10
402.813045074
 20
420.4027398997
 11
402.787789074
 21
420.3327988997
  0
LINE
  5
2BB
100
AcDbEntity
  8
0
100
AcDbLine
 62
7
  6
CONTINUOUS
 10
279.809933074
 20
223.7027398997
 11
283.311133074
 21
223.7027398997
  0
LINE
  5
2BC
100
AcDbEntity
  8
0
100
AcDbLine
 62
7
  6
CONTINUOUS
 10
529.490265074
 20
223.7027398997
 11
532.991465074
 21
223.7027398997
  0
LINE
  5
2BD
100
AcDbEntity
  8
0
100
AcDbLine
 62
7
  6
CONTINUOUS
 10
399.111130074
 20
232.1157968997
 11
413.730567074
 21
232.1157968997
  0
LINE
  5
2BE
100
AcDbEntity
  8
0
100
AcDbLine
 62
7
  6
CONTINUOUS
 10
413.940878074
 20
233.5264128997
 11
398.900820074
 21
233.5264128997
  0
LINE
  5
2BF
100
AcDbEntity
  8
0
100
AcDbLine
 62
7
  6
CONTINUOUS
 10
280.935928074
 20
234.7027398997
 11
284.437128074
 21
234.7027398997
  0
LINE
  5
2C0
100
AcDbEntity
  8
0
100
AcDbLine
 62
7
  6
CONTINUOUS
 10
528.364270074
 20
234.7027398997
 11
531.865470074
 21
234.7027398997
  0
LINE
  5
2C1
100
AcDbEntity
  8
0
100
AcDbLine
 62
7
  6
CONTINUOUS
 10
402.813397074
 20
173.0027398997
 11
402.788141074
 21
173.0726808997
  0
LINE
  5
2C2
100
AcDbEntity
  8
0
100
AcDbLine
 62
7
  6
CONTINUOUS
 10
409.988353074
 20
164.4027398997
 11
410.013609074
 21
164.3327988997
  0
LINE
  5
2C3
100
AcDbEntity
  8
0
100
AcDbLine
 62
7
  6
CONTINUOUS
 10
363.590252074
 20
422.0361368997
 11
363.480563074
 21
423.2898958997
  0
LINE
  5
2C4
100
AcDbEntity
  8
0
100
AcDbLine
 62
7
  6
CONTINUOUS
 10
367.400699074
 20
168.3431568997
 11
367.400699074
 21
166.5923978997
  0
LINE
  5
2C5
100
AcDbEntity
  8
0
100
AcDbLine
 62
7
  6
CONTINUOUS
 10
367.400699074
 20
425.0623228997
 11
367.400699074
 21
426.8130818997
  0
LINE
  5
2C6
100
AcDbEntity
  8
0
100
AcDbLine
 62
7
  6
CONTINUOUS
 10
371.542802074
 20
167.8805338997
 11
371.542802074
 21
170.3805338997
  0
LINE
  5
2C7
100
AcDbEntity
  8
0
100
AcDbLine
 62
7
  6
CONTINUOUS
 10
374.900699074
 20
167.8805178997
 11
374.900699074
 21
167.5472708997
  0
LINE
  5
2C8
100
AcDbEntity
  8
DEFAULT_1
100
AcDbLine
 62
7
  6
CENTER
 10
376.542802074
 20
170.6305818997
 11
376.542802074
 21
170.3805338997
  0
LINE
  5
2C9
100
AcDbEntity
  8
DEFAULT_1
100
AcDbLine
 62
7
  6
CENTER
 10
376.542802074
 20
167.8805338997
 11
376.542802074
 21
167.6299858997
  0
LINE
  5
2CA
100
AcDbEntity
  8
0
100
AcDbLine
 62
7
  6
CONTINUOUS
 10
376.542802074
 20
170.3805338997
 11
376.542802074
 21
167.8805338997
  0
LINE
  5
2CB
100
AcDbEntity
  8
DEFAULT_1
100
AcDbLine
 62
7
  6
CENTER
 10
384.542802074
 20
170.6305358997
 11
384.542802074
 21
170.0202858997
  0
LINE
  5
2CC
100
AcDbEntity
  8
DEFAULT_1
100
AcDbLine
 62
7
  6
CENTER
 10
384.542802074
 20
168.0748558997
 11
384.542802074
 21
167.6305358997
  0
LINE
  5
2CD
100
AcDbEntity
  8
0
100
AcDbLine
 62
7
  6
CONTINUOUS
 10
384.542802074
 20
168.0748558997
 11
384.542802074
 21
170.0202858997
  0
LINE
  5
2CE
100
AcDbEntity
  8
0
100
AcDbLine
 62
7
  6
CONTINUOUS
 10
386.400699074
 20
168.3431568997
 11
386.400699074
 21
166.5923978997
  0
LINE
  5
2CF
100
AcDbEntity
  8
0
100
AcDbLine
 62
7
  6
CONTINUOUS
 10
386.400699074
 20
425.0623228997
 11
386.400699074
 21
426.8130818997
  0
LINE
  5
2D0
100
AcDbEntity
  8
0
100
AcDbLine
 62
7
  6
CONTINUOUS
 10
363.590252074
 20
171.3693428997
 11
363.480563074
 21
170.1155838997
  0
LINE
  5
2D1
100
AcDbEntity
  8
0
100
AcDbLine
 62
7
  6
CONTINUOUS
 10
398.860520074
 20
359.8790668997
 11
399.070831074
 21
361.2896828997
  0
LINE
  5
2D2
100
AcDbEntity
  8
0
100
AcDbLine
 62
7
  6
CONTINUOUS
 10
409.988001074
 20
429.0027398997
 11
410.013257074
 21
429.0726808997
  0
LINE
  5
2D3
100
AcDbEntity
  8
0
100
AcDbLine
 62
7
  6
CONTINUOUS
 10
278.618474074
 20
258.7027398997
 11
279.639725074
 21
259.3834878997
  0
LINE
  5
2D4
100
AcDbEntity
  8
0
100
AcDbLine
 62
7
  6
CONTINUOUS
 10
278.539916074
 20
247.6503748997
 11
278.618474074
 21
247.7027398997
  0
LINE
  5
2D5
100
AcDbEntity
  8
0
100
AcDbLine
 62
7
  6
CONTINUOUS
 10
279.639725074
 20
259.3834878997
 11
265.605811074
 21
258.7171468997
  0
LINE
  5
2D6
100
AcDbEntity
  8
0
100
AcDbLine
 62
7
  6
CONTINUOUS
 10
265.672583074
 20
247.6503748997
 11
278.539916074
 21
247.6503748997
  0
LINE
  5
2D7
100
AcDbEntity
  8
0
100
AcDbLine
 62
7
  6
CONTINUOUS
 10
534.261482074
 20
247.6503748997
 11
547.128815074
 21
247.6503748997
  0
LINE
  5
2D8
100
AcDbEntity
  8
0
100
AcDbLine
 62
7
  6
CONTINUOUS
 10
278.618474074
 20
247.7027398997
 11
265.620218074
 21
247.7027398997
  0
LINE
  5
2D9
100
AcDbEntity
  8
0
100
AcDbLine
 62
7
  6
CONTINUOUS
 10
534.182924074
 20
247.7027398997
 11
547.181180074
 21
247.7027398997
  0
LINE
  5
2DA
100
AcDbEntity
  8
0
100
AcDbLine
 62
7
  6
CONTINUOUS
 10
278.618474074
 20
258.7027398997
 11
265.620218074
 21
258.7027398997
  0
LINE
  5
2DB
100
AcDbEntity
  8
0
100
AcDbLine
 62
7
  6
CONTINUOUS
 10
534.182924074
 20
258.7027398997
 11
547.181180074
 21
258.7027398997
  0
LINE
  5
2DC
100
AcDbEntity
  8
0
100
AcDbLine
 62
7
  6
CONTINUOUS
 10
533.161673074
 20
259.3834878997
 11
547.195587074
 21
258.7171468997
  0
LINE
  5
2DD
100
AcDbEntity
  8
0
100
AcDbLine
 62
7
  6
CONTINUOUS
 10
278.618474074
 20
334.7027398997
 11
279.639725074
 21
334.0219918997
  0
LINE
  5
2DE
100
AcDbEntity
  8
0
100
AcDbLine
 62
7
  6
CONTINUOUS
 10
278.539916074
 20
345.7551048997
 11
278.618474074
 21
345.7027398997
  0
LINE
  5
2DF
100
AcDbEntity
  8
0
100
AcDbLine
 62
7
  6
CONTINUOUS
 10
398.900820074
 20
233.5264128997
 11
399.111130074
 21
232.1157968997
  0
LINE
  5
2E0
100
AcDbEntity
  8
0
100
AcDbLine
 62
7
  6
CONTINUOUS
 10
398.900820074
 20
233.5264128997
 11
398.941788074
 21
173.7391688997
  0
LINE
  5
2E1
100
AcDbEntity
  8
0
100
AcDbLine
 62
7
  6
CONTINUOUS
 10
399.111130074
 20
232.1157968997
 11
399.149219074
 21
176.5307098997
  0
LINE
  5
2E2
100
AcDbEntity
  8
0
100
AcDbLine
 62
7
  6
CONTINUOUS
 10
401.206862074
 20
171.4740948997
 11
401.204805074
 21
174.4751238997
  0
LINE
  5
2E3
100
AcDbEntity
  8
0
100
AcDbLine
 62
7
  6
CONTINUOUS
 10
411.594536074
 20
421.9313848997
 11
411.596593074
 21
418.9303558997
  0
LINE
  5
2E4
100
AcDbEntity
  8
0
100
AcDbLine
 62
7
  6
CONTINUOUS
 10
413.690268074
 20
361.2896828997
 11
413.652179074
 21
416.8747698997
  0
LINE
  5
2E5
100
AcDbEntity
  8
0
100
AcDbLine
 62
7
  6
CONTINUOUS
 10
413.900578074
 20
359.8790668997
 11
413.859610074
 21
419.6663108997
  0
LINE
  5
2E6
100
AcDbEntity
  8
0
100
AcDbLine
 62
7
  6
CONTINUOUS
 10
403.405527074
 20
421.9027398997
 11
403.405527074
 21
420.4027398997
  0
LINE
  5
2E7
100
AcDbEntity
  8
0
100
AcDbLine
 62
7
  6
CONTINUOUS
 10
403.405527074
 20
427.5027398997
 11
403.405527074
 21
429.0027398997
  0
LINE
  5
2E8
100
AcDbEntity
  8
0
100
AcDbLine
 62
7
  6
CONTINUOUS
 10
403.405879074
 20
165.9027398997
 11
403.405879074
 21
164.4027398997
  0
LINE
  5
2E9
100
AcDbEntity
  8
0
100
AcDbLine
 62
7
  6
CONTINUOUS
 10
403.405879074
 20
171.5027398997
 11
403.405879074
 21
173.0027398997
  0
LINE
  5
2EA
100
AcDbEntity
  8
0
100
AcDbLine
 62
7
  6
CONTINUOUS
 10
405.405527074
 20
420.4245698997
 11
405.405527074
 21
421.8809098997
  0
LINE
  5
2EB
100
AcDbEntity
  8
0
100
AcDbLine
 62
7
  6
CONTINUOUS
 10
405.405879074
 20
164.4245698997
 11
405.405879074
 21
165.8809098997
  0
LINE
  5
2EC
100
AcDbEntity
  8
0
100
AcDbLine
 62
7
  6
CONTINUOUS
 10
407.395519074
 20
428.9809098997
 11
407.395519074
 21
427.5245698997
  0
LINE
  5
2ED
100
AcDbEntity
  8
0
100
AcDbLine
 62
7
  6
CONTINUOUS
 10
407.395871074
 20
172.9809098997
 11
407.395871074
 21
171.5245698997
  0
LINE
  5
2EE
100
AcDbEntity
  8
0
100
AcDbLine
 62
7
  6
CONTINUOUS
 10
409.395519074
 20
420.4027398997
 11
409.395519074
 21
421.9027398997
  0
LINE
  5
2EF
100
AcDbEntity
  8
0
100
AcDbLine
 62
7
  6
CONTINUOUS
 10
409.395519074
 20
427.5027398997
 11
409.395519074
 21
429.0027398997
  0
LINE
  5
2F0
100
AcDbEntity
  8
0
100
AcDbLine
 62
7
  6
CONTINUOUS
 10
409.395871074
 20
164.4027398997
 11
409.395871074
 21
165.9027398997
  0
LINE
  5
2F1
100
AcDbEntity
  8
0
100
AcDbLine
 62
7
  6
CONTINUOUS
 10
409.395871074
 20
171.5027398997
 11
409.395871074
 21
173.0027398997
  0
LINE
  5
2F2
100
AcDbEntity
  8
0
100
AcDbLine
 62
7
  6
CONTINUOUS
 10
398.860520074
 20
359.8790668997
 11
398.901489074
 21
419.6663108997
  0
LINE
  5
2F3
100
AcDbEntity
  8
0
100
AcDbLine
 62
7
  6
CONTINUOUS
 10
399.070831074
 20
361.2896828997
 11
399.108920074
 21
416.8747698997
  0
LINE
  5
2F4
100
AcDbEntity
  8
0
100
AcDbLine
 62
7
  6
CONTINUOUS
 10
401.164506074
 20
418.9303558997
 11
401.166562074
 21
421.9313848997
  0
LINE
  5
2F5
100
AcDbEntity
  8
0
100
AcDbLine
 62
7
  6
CONTINUOUS
 10
411.636892074
 20
174.4751238997
 11
411.634836074
 21
171.4740948997
  0
LINE
  5
2F6
100
AcDbEntity
  8
0
100
AcDbLine
 62
7
  6
CONTINUOUS
 10
413.730567074
 20
232.1157968997
 11
413.692478074
 21
176.5307098997
  0
LINE
  5
2F7
100
AcDbEntity
  8
0
100
AcDbLine
 62
7
  6
CONTINUOUS
 10
413.940878074
 20
233.5264128997
 11
413.899909074
 21
173.7391688997
  0
LINE
  5
2F8
100
AcDbEntity
  8
0
100
AcDbLine
 62
7
  6
CONTINUOUS
 10
413.940878074
 20
233.5264128997
 11
413.730567074
 21
232.1157968997
  0
LINE
  5
2F9
100
AcDbEntity
  8
0
100
AcDbLine
 62
7
  6
CONTINUOUS
 10
265.672583074
 20
158.4758238997
 11
265.422976074
 21
158.2262168997
  0
LINE
  5
2FA
100
AcDbEntity
  8
0
100
AcDbLine
 62
7
  6
CONTINUOUS
 10
264.033676074
 20
156.8369168997
 11
264.199499074
 21
157.0027398997
  0
LINE
  5
2FB
100
AcDbEntity
  8
0
100
AcDbLine
 62
7
  6
CONTINUOUS
 10
264.426415074
 20
157.2296558997
 11
264.676022074
 21
157.4792628997
  0
LINE
  5
2FC
100
AcDbEntity
  8
0
100
AcDbLine
 62
7
  6
CONTINUOUS
 10
530.760282074
 20
422.0623228997
 11
528.364270074
 21
419.6663108997
  0
LINE
  5
2FD
100
AcDbEntity
  8
0
100
AcDbLine
 62
7
  6
CONTINUOUS
 10
282.041116074
 20
171.3431568997
 11
284.437128074
 21
173.7391688997
  0
LINE
  5
2FE
100
AcDbEntity
  8
0
100
AcDbLine
 62
7
  6
CONTINUOUS
 10
548.767722074
 20
436.5685628997
 11
548.601899074
 21
436.4027398997
  0
LINE
  5
2FF
100
AcDbEntity
  8
0
100
AcDbLine
 62
7
  6
CONTINUOUS
 10
548.374983074
 20
436.1758238997
 11
548.125376074
 21
435.9262168997
  0
LINE
  5
300
100
AcDbEntity
  8
0
100
AcDbLine
 62
7
  6
CONTINUOUS
 10
547.128815074
 20
434.9296558997
 11
547.378422074
 21
435.1792628997
  0
LINE
  5
301
100
AcDbEntity
  8
0
100
AcDbLine
 62
7
  6
CONTINUOUS
 10
264.033676074
 20
436.5685628997
 11
264.199499074
 21
436.4027398997
  0
LINE
  5
302
100
AcDbEntity
  8
0
100
AcDbLine
 62
7
  6
CONTINUOUS
 10
264.426415074
 20
436.1758238997
 11
264.676022074
 21
435.9262168997
  0
LINE
  5
303
100
AcDbEntity
  8
0
100
AcDbLine
 62
7
  6
CONTINUOUS
 10
265.672583074
 20
434.9296558997
 11
265.422976074
 21
435.1792628997
  0
LINE
  5
304
100
AcDbEntity
  8
0
100
AcDbLine
 62
7
  6
CONTINUOUS
 10
530.760282074
 20
171.3431568997
 11
528.364270074
 21
173.7391688997
  0
LINE
  5
305
100
AcDbEntity
  8
0
100
AcDbLine
 62
7
  6
CONTINUOUS
 10
282.041116074
 20
422.0623228997
 11
284.437128074
 21
419.6663108997
  0
LINE
  5
306
100
AcDbEntity
  8
0
100
AcDbLine
 62
7
  6
CONTINUOUS
 10
548.767722074
 20
156.8369168997
 11
548.601899074
 21
157.0027398997
  0
LINE
  5
307
100
AcDbEntity
  8
0
100
AcDbLine
 62
7
  6
CONTINUOUS
 10
548.374983074
 20
157.2296558997
 11
548.125376074
 21
157.4792628997
  0
LINE
  5
308
100
AcDbEntity
  8
0
100
AcDbLine
 62
7
  6
CONTINUOUS
 10
547.128815074
 20
158.4758238997
 11
547.378422074
 21
158.2262168997
  0
LINE
  5
309
100
AcDbEntity
  8
0
100
AcDbLine
 62
7
  6
CONTINUOUS
 10
413.900578074
 20
359.8790668997
 11
413.690268074
 21
361.2896828997
  0
LINE
  5
30A
100
AcDbEntity
  8
0
100
AcDbLine
 62
7
  6
CONTINUOUS
 10
449.320835074
 20
170.1155838997
 11
449.211146074
 21
171.3693428997
  0
LINE
  5
30B
100
AcDbEntity
  8
0
100
AcDbLine
 62
7
  6
CONTINUOUS
 10
426.400699074
 20
168.3431568997
 11
426.400699074
 21
166.5923978997
  0
LINE
  5
30C
100
AcDbEntity
  8
0
100
AcDbLine
 62
7
  6
CONTINUOUS
 10
426.400699074
 20
425.0623228997
 11
426.400699074
 21
426.8130818997
  0
LINE
  5
30D
100
AcDbEntity
  8
DEFAULT_1
100
AcDbLine
 62
7
  6
CENTER
 10
428.342801074
 20
170.3234148997
 11
428.342802074
 21
170.1106828997
  0
LINE
  5
30E
100
AcDbEntity
  8
DEFAULT_1
100
AcDbLine
 62
7
  6
CENTER
 10
428.342802074
 20
167.9838588997
 11
428.342801074
 21
167.7706268997
  0
LINE
  5
30F
100
AcDbEntity
  8
0
100
AcDbLine
 62
7
  6
CONTINUOUS
 10
428.342802074
 20
167.9838588997
 11
428.342802074
 21
170.1106828997
  0
LINE
  5
310
100
AcDbEntity
  8
DEFAULT_1
100
AcDbLine
 62
7
  6
CENTER
 10
436.342801074
 20
170.6305818997
 11
436.342802074
 21
170.3805338997
  0
LINE
  5
311
100
AcDbEntity
  8
DEFAULT_1
100
AcDbLine
 62
7
  6
CENTER
 10
436.342802074
 20
167.8805338997
 11
436.342801074
 21
167.6299858997
  0
LINE
  5
312
100
AcDbEntity
  8
0
100
AcDbLine
 62
7
  6
CONTINUOUS
 10
436.342802074
 20
167.8805338997
 11
436.342802074
 21
170.3805338997
  0
LINE
  5
313
100
AcDbEntity
  8
0
100
AcDbLine
 62
7
  6
CONTINUOUS
 10
437.900699074
 20
167.8805178997
 11
437.900699074
 21
167.5472708997
  0
LINE
  5
314
100
AcDbEntity
  8
0
100
AcDbLine
 62
7
  6
CONTINUOUS
 10
441.342802074
 20
167.8805338997
 11
441.342802074
 21
170.3805338997
  0
LINE
  5
315
100
AcDbEntity
  8
0
100
AcDbLine
 62
7
  6
CONTINUOUS
 10
445.400699074
 20
168.3431568997
 11
445.400699074
 21
166.5923978997
  0
LINE
  5
316
100
AcDbEntity
  8
0
100
AcDbLine
 62
7
  6
CONTINUOUS
 10
445.400699074
 20
425.0623228997
 11
445.400699074
 21
426.8130818997
  0
LINE
  5
317
100
AcDbEntity
  8
0
100
AcDbLine
 62
7
  6
CONTINUOUS
 10
449.900699074
 20
171.3693408997
 11
449.900699074
 21
169.5032108997
  0
LINE
  5
318
100
AcDbEntity
  8
0
100
AcDbLine
 62
7
  6
CONTINUOUS
 10
449.935620074
 20
170.4978918997
 11
449.935620074
 21
169.5381318997
  0
LINE
  5
319
100
AcDbEntity
  8
0
100
AcDbLine
 62
7
  6
CONTINUOUS
 10
450.197526074
 20
170.7597978997
 11
450.197526074
 21
171.3693348997
  0
LINE
  5
31A
100
AcDbEntity
  8
0
100
AcDbLine
 62
7
  6
CONTINUOUS
 10
449.320835074
 20
423.2898958997
 11
449.211146074
 21
422.0361368997
  0
LINE
  5
31B
100
AcDbEntity
  8
0
100
AcDbLine
 62
7
  6
CONTINUOUS
 10
402.813397074
 20
164.4027398997
 11
402.788141074
 21
164.3327988997
  0
LINE
  5
31C
100
AcDbEntity
  8
0
100
AcDbLine
 62
7
  6
CONTINUOUS
 10
409.988353074
 20
173.0027398997
 11
410.013609074
 21
173.0726808997
  0
LINE
  5
31D
100
AcDbEntity
  8
0
100
AcDbLine
 62
7
  6
CONTINUOUS
 10
534.261482074
 20
345.7551048997
 11
534.182924074
 21
345.7027398997
  0
LINE
  5
31E
100
AcDbEntity
  8
0
100
AcDbLine
 62
7
  6
CONTINUOUS
 10
534.182924074
 20
334.7027398997
 11
533.161673074
 21
334.0219918997
  0
LINE
  5
31F
100
AcDbEntity
  8
0
100
AcDbLine
 62
7
  6
CONTINUOUS
 10
533.161673074
 20
334.0219918997
 11
547.195587074
 21
334.6883328997
  0
LINE
  5
320
100
AcDbEntity
  8
0
100
AcDbLine
 62
7
  6
CONTINUOUS
 10
279.639725074
 20
334.0219918997
 11
265.605811074
 21
334.6883328997
  0
LINE
  5
321
100
AcDbEntity
  8
0
100
AcDbLine
 62
7
  6
CONTINUOUS
 10
534.261482074
 20
247.6503748997
 11
534.182924074
 21
247.7027398997
  0
LINE
  5
322
100
AcDbEntity
  8
0
100
AcDbLine
 62
7
  6
CONTINUOUS
 10
534.182924074
 20
258.7027398997
 11
533.161673074
 21
259.3834878997
  0
LINE
  5
323
100
AcDbEntity
  8
0
100
AcDbLine
 62
7
  6
CONTINUOUS
 10
402.813045074
 20
429.0027398997
 11
402.787789074
 21
429.0726808997
  0
LINE
  5
324
100
AcDbEntity
  8
0
100
AcDbLine
 62
7
  6
CONTINUOUS
 10
409.988001074
 20
420.4027398997
 11
410.013257074
 21
420.3327988997
  0
LINE
  5
325
100
AcDbEntity
  8
0
100
AcDbLine
 62
7
  6
CONTINUOUS
 10
477.320835074
 20
170.1155838997
 11
477.211146074
 21
171.3693428997
  0
LINE
  5
326
100
AcDbEntity
  8
0
100
AcDbLine
 62
7
  6
CONTINUOUS
 10
460.590252074
 20
422.0361368997
 11
460.480563074
 21
423.2898958997
  0
LINE
  5
327
100
AcDbEntity
  8
0
100
AcDbLine
 62
7
  6
CONTINUOUS
 10
464.400699074
 20
427.7027398997
 11
464.400699074
 21
424.7027398997
  0
LINE
  5
328
100
AcDbEntity
  8
0
100
AcDbLine
 62
7
  6
CONTINUOUS
 10
464.400699074
 20
165.7027398997
 11
464.400699074
 21
168.7027398997
  0
LINE
  5
329
100
AcDbEntity
  8
0
100
AcDbLine
 62
7
  6
CONTINUOUS
 10
473.400699074
 20
427.7027398997
 11
473.400699074
 21
424.7027398997
  0
LINE
  5
32A
100
AcDbEntity
  8
0
100
AcDbLine
 62
7
  6
CONTINUOUS
 10
473.400699074
 20
165.7027398997
 11
473.400699074
 21
168.7027398997
  0
LINE
  5
32B
100
AcDbEntity
  8
0
100
AcDbLine
 62
7
  6
CONTINUOUS
 10
477.320835074
 20
423.2898958997
 11
477.211146074
 21
422.0361368997
  0
LINE
  5
32C
100
AcDbEntity
  8
0
100
AcDbLine
 62
7
  6
CONTINUOUS
 10
460.590252074
 20
171.3693428997
 11
460.480563074
 21
170.1155838997
  0
LINE
  5
32D
100
AcDbEntity
  8
0
100
AcDbLine
 62
7
  6
CONTINUOUS
 10
547.181180074
 20
334.7027398997
 11
534.182924074
 21
334.7027398997
  0
LINE
  5
32E
100
AcDbEntity
  8
0
100
AcDbLine
 62
7
  6
CONTINUOUS
 10
278.618474074
 20
334.7027398997
 11
265.620218074
 21
334.7027398997
  0
LINE
  5
32F
100
AcDbEntity
  8
0
100
AcDbLine
 62
7
  6
CONTINUOUS
 10
278.618474074
 20
345.7027398997
 11
265.620218074
 21
345.7027398997
  0
LINE
  5
330
100
AcDbEntity
  8
0
100
AcDbLine
 62
7
  6
CONTINUOUS
 10
534.182924074
 20
345.7027398997
 11
547.181180074
 21
345.7027398997
  0
LINE
  5
331
100
AcDbEntity
  8
0
100
AcDbLine
 62
7
  6
CONTINUOUS
 10
547.128815074
 20
345.7551048997
 11
534.261482074
 21
345.7551048997
  0
LINE
  5
332
100
AcDbEntity
  8
0
100
AcDbLine
 62
7
  6
CONTINUOUS
 10
278.539916074
 20
345.7551048997
 11
265.672583074
 21
345.7551048997
  0
LINE
  5
333
100
AcDbEntity
  8
0
100
AcDbLine
 62
7
  6
CONTINUOUS
 10
531.865470074
 20
358.7027398997
 11
528.364270074
 21
358.7027398997
  0
LINE
  5
334
100
AcDbEntity
  8
0
100
AcDbLine
 62
7
  6
CONTINUOUS
 10
284.437128074
 20
358.7027398997
 11
280.935928074
 21
358.7027398997
  0
LINE
  5
335
100
AcDbEntity
  8
0
100
AcDbLine
 62
7
  6
CONTINUOUS
 10
488.590252074
 20
422.0361368997
 11
488.480563074
 21
423.2898958997
  0
LINE
  5
336
100
AcDbEntity
  8
0
100
AcDbLine
 62
7
  6
CONTINUOUS
 10
488.590252074
 20
171.3693428997
 11
488.480563074
 21
170.1155838997
  0
LINE
  5
337
100
AcDbEntity
  8
0
100
AcDbLine
 62
7
  6
CONTINUOUS
 10
529.490265074
 20
404.7027398997
 11
530.760282074
 21
411.7027398997
  0
LINE
  5
338
100
AcDbEntity
  8
0
100
AcDbLine
 62
7
  6
CONTINUOUS
 10
532.991465074
 20
404.7027398997
 11
534.261482074
 21
411.7027398997
  0
LINE
  5
339
100
AcDbEntity
  8
0
100
AcDbLine
 62
7
  6
CONTINUOUS
 10
413.692478074
 20
176.5307098997
 11
411.636892074
 21
174.4751238997
  0
LINE
  5
33A
100
AcDbEntity
  8
0
100
AcDbLine
 62
7
  6
CONTINUOUS
 10
411.634836074
 20
171.4740948997
 11
413.899909074
 21
173.7391688997
  0
LINE
  5
33B
100
AcDbEntity
  8
0
100
AcDbLine
 62
7
  6
CONTINUOUS
 10
398.860520074
 20
359.8790668997
 11
413.900578074
 21
359.8790668997
  0
LINE
  5
33C
100
AcDbEntity
  8
0
100
AcDbLine
 62
7
  6
CONTINUOUS
 10
413.690268074
 20
361.2896828997
 11
399.070831074
 21
361.2896828997
  0
LINE
  5
33D
100
AcDbEntity
  8
0
100
AcDbLine
 62
7
  6
CONTINUOUS
 10
532.991465074
 20
369.7027398997
 11
529.490265074
 21
369.7027398997
  0
LINE
  5
33E
100
AcDbEntity
  8
0
100
AcDbLine
 62
7
  6
CONTINUOUS
 10
283.311133074
 20
369.7027398997
 11
279.809933074
 21
369.7027398997
  0
LINE
  5
33F
100
AcDbEntity
  8
0
100
AcDbLine
 62
7
  6
CONTINUOUS
 10
411.596593074
 20
418.9303558997
 11
413.652179074
 21
416.8747698997
  0
LINE
  5
340
100
AcDbEntity
  8
0
100
AcDbLine
 62
7
  6
CONTINUOUS
 10
411.594536074
 20
421.9313848997
 11
413.859610074
 21
419.6663108997
  0
LINE
  5
341
100
AcDbEntity
  8
0
100
AcDbLine
 62
7
  6
CONTINUOUS
 10
529.490265074
 20
188.7027398997
 11
530.760282074
 21
181.7027398997
  0
LINE
  5
342
100
AcDbEntity
  8
0
100
AcDbLine
 62
7
  6
CONTINUOUS
 10
532.991465074
 20
188.7027398997
 11
534.261482074
 21
181.7027398997
  0
LINE
  5
343
100
AcDbEntity
  8
0
100
AcDbLine
 62
7
  6
CONTINUOUS
 10
528.364270074
 20
234.7027398997
 11
529.490265074
 21
223.7027398997
  0
LINE
  5
344
100
AcDbEntity
  8
0
100
AcDbLine
 62
7
  6
CONTINUOUS
 10
531.865470074
 20
234.7027398997
 11
532.991465074
 21
223.7027398997
  0
LINE
  5
345
100
AcDbEntity
  8
0
100
AcDbLine
 62
7
  6
CONTINUOUS
 10
528.364270074
 20
234.7027398997
 11
528.364270074
 21
173.7391688997
  0
LINE
  5
346
100
AcDbEntity
  8
0
100
AcDbLine
 62
7
  6
CONTINUOUS
 10
528.364270074
 20
358.7027398997
 11
528.364270074
 21
419.6663108997
  0
LINE
  5
347
100
AcDbEntity
  8
0
100
AcDbLine
 62
7
  6
CONTINUOUS
 10
529.490265074
 20
223.7027398997
 11
529.490265074
 21
188.7027398997
  0
LINE
  5
348
100
AcDbEntity
  8
0
100
AcDbLine
 62
7
  6
CONTINUOUS
 10
529.490265074
 20
369.7027398997
 11
529.490265074
 21
404.7027398997
  0
LINE
  5
349
100
AcDbEntity
  8
0
100
AcDbLine
 62
7
  6
CONTINUOUS
 10
530.760282074
 20
181.7027398997
 11
530.760282074
 21
171.3431568997
  0
LINE
  5
34A
100
AcDbEntity
  8
0
100
AcDbLine
 62
7
  6
CONTINUOUS
 10
530.760282074
 20
411.7027398997
 11
530.760282074
 21
422.0623228997
  0
LINE
  5
34B
100
AcDbEntity
  8
0
100
AcDbLine
 62
7
  6
CONTINUOUS
 10
531.865470074
 20
234.7027398997
 11
531.865470074
 21
358.7027398997
  0
LINE
  5
34C
100
AcDbEntity
  8
0
100
AcDbLine
 62
7
  6
CONTINUOUS
 10
532.991465074
 20
223.7027398997
 11
532.991465074
 21
188.7027398997
  0
LINE
  5
34D
100
AcDbEntity
  8
0
100
AcDbLine
 62
7
  6
CONTINUOUS
 10
532.991465074
 20
369.7027398997
 11
532.991465074
 21
404.7027398997
  0
LINE
  5
34E
100
AcDbEntity
  8
0
100
AcDbLine
 62
7
  6
CONTINUOUS
 10
533.161673074
 20
259.3834878997
 11
533.161673074
 21
334.0219918997
  0
LINE
  5
34F
100
AcDbEntity
  8
0
100
AcDbLine
 62
7
  6
CONTINUOUS
 10
534.182924074
 20
258.7027398997
 11
534.182924074
 21
247.7027398997
  0
LINE
  5
350
100
AcDbEntity
  8
0
100
AcDbLine
 62
7
  6
CONTINUOUS
 10
534.182924074
 20
334.7027398997
 11
534.182924074
 21
345.7027398997
  0
LINE
  5
351
100
AcDbEntity
  8
0
100
AcDbLine
 62
7
  6
CONTINUOUS
 10
534.261482074
 20
411.7027398997
 11
534.261482074
 21
345.7551048997
  0
LINE
  5
352
100
AcDbEntity
  8
0
100
AcDbLine
 62
7
  6
CONTINUOUS
 10
534.261482074
 20
181.7027398997
 11
534.261482074
 21
247.6503748997
  0
LINE
  5
353
100
AcDbEntity
  8
0
100
AcDbLine
 62
7
  6
CONTINUOUS
 10
528.364270074
 20
358.7027398997
 11
529.490265074
 21
369.7027398997
  0
LINE
  5
354
100
AcDbEntity
  8
0
100
AcDbLine
 62
7
  6
CONTINUOUS
 10
531.865470074
 20
358.7027398997
 11
532.991465074
 21
369.7027398997
  0
LINE
  5
355
100
AcDbEntity
  8
0
100
AcDbLine
 62
7
  6
CONTINUOUS
 10
450.807068074
 20
171.3693398997
 11
449.935620074
 21
170.4978918997
  0
LINE
  5
356
100
AcDbEntity
  8
0
100
AcDbLine
 62
7
  6
CONTINUOUS
 10
449.900699074
 20
169.5032108997
 11
449.935620074
 21
169.5381318997
  0
LINE
  5
357
100
AcDbEntity
  8
0
100
AcDbLine
 62
7
  6
CONTINUOUS
 10
452.221281074
 20
171.3693398997
 11
450.390073074
 21
169.5381318997
  0
LINE
  5
358
100
AcDbEntity
  8
0
100
AcDbLine
 62
7
  6
CONTINUOUS
 10
547.181180074
 20
258.7027398997
 11
547.195587074
 21
258.7171468997
  0
LINE
  5
359
100
AcDbEntity
  8
0
100
AcDbLine
 62
7
  6
CONTINUOUS
 10
532.991465074
 20
404.7027398997
 11
529.490265074
 21
404.7027398997
  0
LINE
  5
35A
100
AcDbEntity
  8
0
100
AcDbLine
 62
7
  6
CONTINUOUS
 10
283.311133074
 20
404.7027398997
 11
279.809933074
 21
404.7027398997
  0
LINE
  5
35B
100
AcDbEntity
  8
0
100
AcDbLine
 62
7
  6
CONTINUOUS
 10
534.261482074
 20
411.7027398997
 11
530.760282074
 21
411.7027398997
  0
LINE
  5
35C
100
AcDbEntity
  8
0
100
AcDbLine
 62
7
  6
CONTINUOUS
 10
282.041116074
 20
411.7027398997
 11
278.539916074
 21
411.7027398997
  0
LINE
  5
35D
100
AcDbEntity
  8
0
100
AcDbLine
 62
7
  6
CONTINUOUS
 10
399.108920074
 20
416.8747698997
 11
413.652179074
 21
416.8747698997
  0
LINE
  5
35E
100
AcDbEntity
  8
0
100
AcDbLine
 62
7
  6
CONTINUOUS
 10
547.181180074
 20
334.7027398997
 11
547.195587074
 21
334.6883328997
  0
LWPOLYLINE
  5
35F
100
AcDbEntity
  8
0
100
AcDbPolyline
 62
7
  6
CONTINUOUS
 90
15
 70
0
 10
548.708428554
 20
167.1145456473
 10
548.7089139181
 20
166.9157856045
 10
548.70991359
 20
166.7201008971
 10
548.7114347016
 20
166.5310118849
 10
548.713476931
 20
166.3529468317
 10
548.7160296429
 20
166.1909664421
 10
548.7190452423
 20
166.0514195989
 10
548.7220160001
 20
165.9518135635
 10
548.7231135249
 20
165.9226501409
 10
548.7257387999
 20
165.8673657073
 10
548.7279868121
 20
165.8348458216
 10
548.7298028121
 20
165.8178511559
 10
548.7311721128
 20
165.8103123192
 10
548.7321226883
 20
165.8076997264
 10
548.7328119457
 20
165.8071397497
  0
LWPOLYLINE
  5
360
100
AcDbEntity
  8
0
100
AcDbPolyline
 62
7
  6
CONTINUOUS
 90
15
 70
0
 10
548.7571953388
 20
169.1997338688
 10
548.7567099747
 20
169.3984939115
 10
548.7557103027
 20
169.5941786185
 10
548.7541891909
 20
169.7832676299
 10
548.7521469613
 20
169.9613326821
 10
548.7495942491
 20
170.12331307
 10
548.7465786495
 20
170.2628599047
 10
548.7436078915
 20
170.3624659358
 10
548.7425103663
 20
170.3916293665
 10
548.7398850912
 20
170.4469137958
 10
548.7376370789
 20
170.4794336792
 10
548.7358210788
 20
170.4964283439
 10
548.7344517781
 20
170.5039671802
 10
548.7335012025
 20
170.506579773
 10
548.7328119451
 20
170.5071397497
  0
LINE
  5
361
100
AcDbEntity
  8
0
100
AcDbLine
 62
7
  6
CONTINUOUS
 10
547.128815074
 20
247.6503748997
 11
547.128815074
 21
158.4758238997
  0
LINE
  5
362
100
AcDbEntity
  8
0
100
AcDbLine
 62
7
  6
CONTINUOUS
 10
547.128815074
 20
345.7551048997
 11
547.128815074
 21
434.9296558997
  0
LINE
  5
363
100
AcDbEntity
  8
0
100
AcDbLine
 62
7
  6
CONTINUOUS
 10
547.181180074
 20
258.7027398997
 11
547.181180074
 21
247.7027398997
  0
LINE
  5
364
100
AcDbEntity
  8
0
100
AcDbLine
 62
7
  6
CONTINUOUS
 10
547.181180074
 20
334.7027398997
 11
547.181180074
 21
345.7027398997
  0
LINE
  5
365
100
AcDbEntity
  8
0
100
AcDbLine
 62
7
  6
CONTINUOUS
 10
547.195587074
 20
334.6883328997
 11
547.195587074
 21
258.7171468997
  0
LINE
  5
366
100
AcDbEntity
  8
0
100
AcDbLine
 62
7
  6
CONTINUOUS
 10
547.378422074
 20
435.1792628997
 11
547.378422074
 21
158.2262168997
  0
LINE
  5
367
100
AcDbEntity
  8
0
100
AcDbLine
 62
7
  6
CONTINUOUS
 10
548.125376074
 20
157.4792628997
 11
548.125376074
 21
435.9262168997
  0
LINE
  5
368
100
AcDbEntity
  8
0
100
AcDbLine
 62
7
  6
CONTINUOUS
 10
548.374983074
 20
436.1758238997
 11
548.374983074
 21
157.2296558997
  0
LINE
  5
369
100
AcDbEntity
  8
0
100
AcDbLine
 62
7
  6
CONTINUOUS
 10
548.601899074
 20
157.0027398997
 11
548.601899074
 21
436.4027398997
  0
LINE
  5
36A
100
AcDbEntity
  8
0
100
AcDbLine
 62
7
  6
CONTINUOUS
 10
548.708375074
 20
426.1983398997
 11
548.7083914832
 21
424.2467080314
  0
LINE
  5
36B
100
AcDbEntity
  8
0
100
AcDbLine
 62
7
  6
CONTINUOUS
 10
548.708428554
 20
167.1145456473
 11
548.708375074
 21
169.1071398997
  0
LINE
  5
36C
100
AcDbEntity
  8
0
100
AcDbLine
 62
7
  6
CONTINUOUS
 10
548.7572324108
 20
426.2499720675
 11
548.757249074
 21
424.2983398997
  0
LINE
  5
36D
100
AcDbEntity
  8
0
100
AcDbLine
 62
7
  6
CONTINUOUS
 10
548.757249074
 20
167.2071398997
 11
548.7571953388
 21
169.1997338688
  0
LINE
  5
36E
100
AcDbEntity
  8
0
100
AcDbLine
 62
7
  6
CONTINUOUS
 10
548.767722074
 20
156.8369168997
 11
548.767722074
 21
436.5685628997
  0
LINE
  5
36F
100
AcDbEntity
  8
0
100
AcDbLine
 62
7
  6
CONTINUOUS
 10
561.601899074
 20
441.4027398997
 11
561.601899074
 21
152.0027398997
  0
LWPOLYLINE
  5
370
100
AcDbEntity
  8
0
100
AcDbPolyline
 62
7
  6
CONTINUOUS
 90
16
 70
0
 10
548.7083748561
 20
426.1983400506
 10
548.7086479139
 20
426.4069766244
 10
548.70951593
 20
426.620972052
 10
548.7109578338
 20
426.8245506631
 10
548.7129374717
 20
427.0127044056
 10
548.7135782608
 20
427.0617290498
 10
548.7161725516
 20
427.2235111378
 10
548.7191763958
 20
427.3600685479
 10
548.7221675561
 20
427.4585353913
 10
548.7249175768
 20
427.523275146
 10
548.7257148809
 20
427.5379981487
 10
548.7279751055
 20
427.5706401013
 10
548.7297972817
 20
427.5876411384
 10
548.7311694962
 20
427.5951682219
 10
548.7321217424
 20
427.5977751761
 10
548.7328129582
 20
427.5983337975
  0
LWPOLYLINE
  5
371
100
AcDbEntity
  8
0
100
AcDbPolyline
 62
7
  6
CONTINUOUS
 90
16
 70
0
 10
548.7572490379
 20
424.2983400502
 10
548.7569759801
 20
424.0897034667
 10
548.7561079639
 20
423.8757080423
 10
548.7546660602
 20
423.6721294345
 10
548.7526864223
 20
423.4839756933
 10
548.7520456332
 20
423.4349510469
 10
548.7494513423
 20
423.27316896
 10
548.7464474982
 20
423.1366115515
 10
548.7434563379
 20
423.0381447079
 10
548.7407063172
 20
422.9734049529
 10
548.7399090141
 20
422.9586819675
 10
548.7376487893
 20
422.9260400071
 10
548.7358266129
 20
422.9090389649
 10
548.7344543982
 20
422.9015118784
 10
548.7335021518
 20
422.8989049228
 10
548.732810936
 20
422.8983463008
  0
LINE
  5
372
100
AcDbEntity
  8
0
100
AcDbLine
 62
7
  6
CONTINUOUS
 10
547.128815074
 20
247.6503748997
 11
547.181180074
 21
247.7027398997
  0
LINE
  5
373
100
AcDbEntity
  8
0
100
AcDbLine
 62
7
  6
CONTINUOUS
 10
403.405527074
 20
420.4027398997
 11
405.405527074
 21
420.4245698997
  0
LINE
  5
374
100
AcDbEntity
  8
0
100
AcDbLine
 62
7
  6
CONTINUOUS
 10
409.395519074
 20
429.0027398997
 11
407.395519074
 21
428.9809098997
  0
LINE
  5
375
100
AcDbEntity
  8
0
100
AcDbLine
 62
7
  6
CONTINUOUS
 10
411.596593074
 20
418.9303558997
 11
401.164506074
 21
418.9303558997
  0
LINE
  5
376
100
AcDbEntity
  8
0
100
AcDbLine
 62
7
  6
CONTINUOUS
 10
528.364270074
 20
419.6663108997
 11
413.859610074
 21
419.6663108997
  0
LINE
  5
377
100
AcDbEntity
  8
0
100
AcDbLine
 62
7
  6
CONTINUOUS
 10
398.901489074
 20
419.6663108997
 11
284.437128074
 21
419.6663108997
  0
LINE
  5
378
100
AcDbEntity
  8
0
100
AcDbLine
 62
7
  6
CONTINUOUS
 10
402.787789074
 20
420.3327988997
 11
410.013257074
 21
420.3327988997
  0
LINE
  5
379
100
AcDbEntity
  8
0
100
AcDbLine
 62
7
  6
CONTINUOUS
 10
402.813045074
 20
420.4027398997
 11
403.405527074
 21
420.4027398997
  0
LINE
  5
37A
100
AcDbEntity
  8
0
100
AcDbLine
 62
7
  6
CONTINUOUS
 10
409.395519074
 20
420.4027398997
 11
409.988001074
 21
420.4027398997
  0
LINE
  5
37B
100
AcDbEntity
  8
0
100
AcDbLine
 62
7
  6
CONTINUOUS
 10
405.405527074
 20
420.4245698997
 11
409.395519074
 21
420.4245698997
  0
LINE
  5
37C
100
AcDbEntity
  8
0
100
AcDbLine
 62
7
  6
CONTINUOUS
 10
409.395519074
 20
421.8809098997
 11
405.405527074
 21
421.8809098997
  0
LINE
  5
37D
100
AcDbEntity
  8
0
100
AcDbLine
 62
7
  6
CONTINUOUS
 10
403.405527074
 20
421.9027398997
 11
409.395519074
 21
421.9027398997
  0
LINE
  5
37E
100
AcDbEntity
  8
0
100
AcDbLine
 62
7
  6
CONTINUOUS
 10
413.261980074
 20
421.9313848997
 11
411.594536074
 21
421.9313848997
  0
LINE
  5
37F
100
AcDbEntity
  8
0
100
AcDbLine
 62
7
  6
CONTINUOUS
 10
401.166562074
 20
421.9313848997
 11
399.539066074
 21
421.9313848997
  0
LINE
  5
380
100
AcDbEntity
  8
0
100
AcDbLine
 62
7
  6
CONTINUOUS
 10
324.211146074
 20
422.0361368997
 11
335.590252074
 21
422.0361368997
  0
LINE
  5
381
100
AcDbEntity
  8
0
100
AcDbLine
 62
7
  6
CONTINUOUS
 10
352.211146074
 20
422.0361368997
 11
363.590252074
 21
422.0361368997
  0
LINE
  5
382
100
AcDbEntity
  8
0
100
AcDbLine
 62
7
  6
CONTINUOUS
 10
449.211146074
 20
422.0361368997
 11
460.590252074
 21
422.0361368997
  0
LINE
  5
383
100
AcDbEntity
  8
0
100
AcDbLine
 62
7
  6
CONTINUOUS
 10
477.211146074
 20
422.0361368997
 11
488.590252074
 21
422.0361368997
  0
LINE
  5
384
100
AcDbEntity
  8
0
100
AcDbLine
 62
7
  6
CONTINUOUS
 10
530.760282074
 20
422.0623228997
 11
488.587961074
 21
422.0623228997
  0
LINE
  5
385
100
AcDbEntity
  8
0
100
AcDbLine
 62
7
  6
CONTINUOUS
 10
477.213437074
 20
422.0623228997
 11
460.587961074
 21
422.0623228997
  0
LINE
  5
386
100
AcDbEntity
  8
0
100
AcDbLine
 62
7
  6
CONTINUOUS
 10
449.213437074
 20
422.0623228997
 11
413.313424074
 21
422.0623228997
  0
LINE
  5
387
100
AcDbEntity
  8
0
100
AcDbLine
 62
7
  6
CONTINUOUS
 10
352.213437074
 20
422.0623228997
 11
335.587961074
 21
422.0623228997
  0
LINE
  5
388
100
AcDbEntity
  8
0
100
AcDbLine
 62
7
  6
CONTINUOUS
 10
324.213437074
 20
422.0623228997
 11
282.041116074
 21
422.0623228997
  0
LINE
  5
389
100
AcDbEntity
  8
0
100
AcDbLine
 62
7
  6
CONTINUOUS
 10
363.587961074
 20
422.0623228997
 11
399.487622074
 21
422.0623228997
  0
LINE
  5
38A
100
AcDbEntity
  8
0
100
AcDbLine
 62
7
  6
CONTINUOUS
 10
325.317030074
 20
424.2027398997
 11
334.484368074
 21
424.2027398997
  0
LINE
  5
38B
100
AcDbEntity
  8
0
100
AcDbLine
 62
7
  6
CONTINUOUS
 10
353.317030074
 20
424.2027398997
 11
362.484368074
 21
424.2027398997
  0
LINE
  5
38C
100
AcDbEntity
  8
0
100
AcDbLine
 62
7
  6
CONTINUOUS
 10
450.317030074
 20
424.2027398997
 11
459.484368074
 21
424.2027398997
  0
LINE
  5
38D
100
AcDbEntity
  8
0
100
AcDbLine
 62
7
  6
CONTINUOUS
 10
478.317030074
 20
424.2027398997
 11
487.484368074
 21
424.2027398997
  0
LINE
  5
38E
100
AcDbEntity
  8
DEFAULT_1
100
AcDbLine
 62
7
  6
CENTER
 10
548.763385074
 20
424.2983438997
 11
548.757249074
 21
424.2983398997
  0
LINE
  5
38F
100
AcDbEntity
  8
0
100
AcDbLine
 62
7
  6
CONTINUOUS
 10
548.757249074
 20
424.2983398997
 11
548.708377074
 21
424.2983398997
  0
LINE
  5
390
100
AcDbEntity
  8
DEFAULT_1
100
AcDbLine
 62
7
  6
CENTER
 10
548.708377074
 20
424.2983398997
 11
548.703372074
 21
424.2983438997
  0
LINE
  5
391
100
AcDbEntity
  8
DEFAULT_1
100
AcDbLine
 62
7
  6
CENTER
 10
264.098025074
 20
424.2983438997
 11
264.093025074
 21
424.2983398997
  0
LINE
  5
392
100
AcDbEntity
  8
0
100
AcDbLine
 62
7
  6
CONTINUOUS
 10
264.093025074
 20
424.2983398997
 11
264.044149074
 21
424.2983398997
  0
LINE
  5
393
100
AcDbEntity
  8
DEFAULT_1
100
AcDbLine
 62
7
  6
CENTER
 10
264.044149074
 20
424.2983398997
 11
264.038012074
 21
424.2983438997
  0
LINE
  5
394
100
AcDbEntity
  8
0
100
AcDbLine
 62
7
  6
CONTINUOUS
 10
339.400699074
 20
424.7027398997
 11
348.400699074
 21
424.7027398997
  0
LINE
  5
395
100
AcDbEntity
  8
0
100
AcDbLine
 62
7
  6
CONTINUOUS
 10
464.400699074
 20
424.7027398997
 11
473.400699074
 21
424.7027398997
  0
LINE
  5
396
100
AcDbEntity
  8
0
100
AcDbLine
 62
7
  6
CONTINUOUS
 10
473.400700074
 20
424.8120138997
 11
464.400700074
 21
424.8120138997
  0
LINE
  5
397
100
AcDbEntity
  8
0
100
AcDbLine
 62
7
  6
CONTINUOUS
 10
445.390240074
 20
424.8120138997
 11
426.411161074
 21
424.8120138997
  0
LINE
  5
398
100
AcDbEntity
  8
0
100
AcDbLine
 62
7
  6
CONTINUOUS
 10
410.499076074
 20
424.8120138997
 11
402.301990074
 21
424.8120138997
  0
LINE
  5
399
100
AcDbEntity
  8
0
100
AcDbLine
 62
7
  6
CONTINUOUS
 10
386.390240074
 20
424.8120138997
 11
367.411161074
 21
424.8120138997
  0
LINE
  5
39A
100
AcDbEntity
  8
0
100
AcDbLine
 62
7
  6
CONTINUOUS
 10
348.400700074
 20
424.8120138997
 11
339.400700074
 21
424.8120138997
  0
LINE
  5
39B
100
AcDbEntity
  8
DEFAULT_1
100
AcDbLine
 62
7
  6
CENTER
 10
548.762256074
 20
426.1983458997
 11
548.757249074
 21
426.1983398997
  0
LINE
  5
39C
100
AcDbEntity
  8
0
100
AcDbLine
 62
7
  6
CONTINUOUS
 10
548.757249074
 20
426.1983398997
 11
548.708377074
 21
426.1983398997
  0
LINE
  5
39D
100
AcDbEntity
  8
DEFAULT_1
100
AcDbLine
 62
7
  6
CENTER
 10
548.708377074
 20
426.1983398997
 11
548.702243074
 21
426.1983458997
  0
LINE
  5
39E
100
AcDbEntity
  8
DEFAULT_1
100
AcDbLine
 62
7
  6
CENTER
 10
264.099154074
 20
426.1983458997
 11
264.093025074
 21
426.1983398997
  0
LINE
  5
39F
100
AcDbEntity
  8
0
100
AcDbLine
 62
7
  6
CONTINUOUS
 10
264.093025074
 20
426.1983398997
 11
264.044149074
 21
426.1983398997
  0
LINE
  5
3A0
100
AcDbEntity
  8
DEFAULT_1
100
AcDbLine
 62
7
  6
CENTER
 10
264.044149074
 20
426.1983398997
 11
264.039142074
 21
426.1983458997
  0
LINE
  5
3A1
100
AcDbEntity
  8
0
100
AcDbLine
 62
7
  6
CONTINUOUS
 10
473.400701074
 20
426.2892308997
 11
464.400701074
 21
426.2892308997
  0
LINE
  5
3A2
100
AcDbEntity
  8
0
100
AcDbLine
 62
7
  6
CONTINUOUS
 10
445.400701074
 20
426.2892308997
 11
426.400701074
 21
426.2892308997
  0
LINE
  5
3A3
100
AcDbEntity
  8
0
100
AcDbLine
 62
7
  6
CONTINUOUS
 10
410.181144074
 20
426.2892308997
 11
402.619924074
 21
426.2892308997
  0
LINE
  5
3A4
100
AcDbEntity
  8
0
100
AcDbLine
 62
7
  6
CONTINUOUS
 10
386.400701074
 20
426.2892308997
 11
367.400701074
 21
426.2892308997
  0
LINE
  5
3A5
100
AcDbEntity
  8
0
100
AcDbLine
 62
7
  6
CONTINUOUS
 10
348.400701074
 20
426.2892308997
 11
339.400701074
 21
426.2892308997
  0
LINE
  5
3A6
100
AcDbEntity
  8
0
100
AcDbLine
 62
7
  6
CONTINUOUS
 10
409.395519074
 20
427.5027398997
 11
403.405527074
 21
427.5027398997
  0
LINE
  5
3A7
100
AcDbEntity
  8
0
100
AcDbLine
 62
7
  6
CONTINUOUS
 10
403.405527074
 20
427.5245698997
 11
407.395519074
 21
427.5245698997
  0
LINE
  5
3A8
100
AcDbEntity
  8
0
100
AcDbLine
 62
7
  6
CONTINUOUS
 10
473.400707074
 20
427.6576118997
 11
464.400707074
 21
427.6576118997
  0
LINE
  5
3A9
100
AcDbEntity
  8
0
100
AcDbLine
 62
7
  6
CONTINUOUS
 10
445.279379074
 20
427.6576118997
 11
426.522034074
 21
427.6576118997
  0
LINE
  5
3AA
100
AcDbEntity
  8
0
100
AcDbLine
 62
7
  6
CONTINUOUS
 10
339.400707074
 20
427.6576118997
 11
348.400707074
 21
427.6576118997
  0
LINE
  5
3AB
100
AcDbEntity
  8
0
100
AcDbLine
 62
7
  6
CONTINUOUS
 10
367.522034074
 20
427.6576118997
 11
386.279379074
 21
427.6576118997
  0
LINE
  5
3AC
100
AcDbEntity
  8
0
100
AcDbLine
 62
7
  6
CONTINUOUS
 10
340.400699074
 20
428.7027398997
 11
347.400699074
 21
428.7027398997
  0
LINE
  5
3AD
100
AcDbEntity
  8
0
100
AcDbLine
 62
7
  6
CONTINUOUS
 10
465.400699074
 20
428.7027398997
 11
472.400699074
 21
428.7027398997
  0
LINE
  5
3AE
100
AcDbEntity
  8
0
100
AcDbLine
 62
7
  6
CONTINUOUS
 10
407.395519074
 20
428.9809098997
 11
403.405527074
 21
428.9809098997
  0
LINE
  5
3AF
100
AcDbEntity
  8
0
100
AcDbLine
 62
7
  6
CONTINUOUS
 10
409.988001074
 20
429.0027398997
 11
409.395519074
 21
429.0027398997
  0
LINE
  5
3B0
100
AcDbEntity
  8
0
100
AcDbLine
 62
7
  6
CONTINUOUS
 10
403.405527074
 20
429.0027398997
 11
402.813045074
 21
429.0027398997
  0
LINE
  5
3B1
100
AcDbEntity
  8
0
100
AcDbLine
 62
7
  6
CONTINUOUS
 10
410.013257074
 20
429.0726808997
 11
402.787789074
 21
429.0726808997
  0
LINE
  5
3B2
100
AcDbEntity
  8
0
100
AcDbLine
 62
7
  6
CONTINUOUS
 10
383.400699074
 20
429.8130818997
 11
370.400699074
 21
429.8130818997
  0
LINE
  5
3B3
100
AcDbEntity
  8
0
100
AcDbLine
 62
7
  6
CONTINUOUS
 10
429.400699074
 20
429.8130818997
 11
442.400699074
 21
429.8130818997
  0
LINE
  5
3B4
100
AcDbEntity
  8
0
100
AcDbLine
 62
7
  6
CONTINUOUS
 10
547.128815074
 20
434.9296558997
 11
265.672583074
 21
434.9296558997
  0
LINE
  5
3B5
100
AcDbEntity
  8
0
100
AcDbLine
 62
7
  6
CONTINUOUS
 10
547.378422074
 20
435.1792628997
 11
265.422976074
 21
435.1792628997
  0
LINE
  5
3B6
100
AcDbEntity
  8
0
100
AcDbLine
 62
7
  6
CONTINUOUS
 10
548.125376074
 20
435.9262168997
 11
264.676022074
 21
435.9262168997
  0
LINE
  5
3B7
100
AcDbEntity
  8
0
100
AcDbLine
 62
7
  6
CONTINUOUS
 10
548.374983074
 20
436.1758238997
 11
264.426415074
 21
436.1758238997
  0
LINE
  5
3B8
100
AcDbEntity
  8
0
100
AcDbLine
 62
7
  6
CONTINUOUS
 10
264.199499074
 20
436.4027398997
 11
548.601899074
 21
436.4027398997
  0
LINE
  5
3B9
100
AcDbEntity
  8
0
100
AcDbLine
 62
7
  6
CONTINUOUS
 10
264.033676074
 20
436.5685628997
 11
548.767722074
 21
436.5685628997
  0
LINE
  5
3BA
100
AcDbEntity
  8
0
100
AcDbLine
 62
7
  6
CONTINUOUS
 10
403.405527074
 20
421.9027398997
 11
405.405527074
 21
421.8809098997
  0
LINE
  5
3BB
100
AcDbEntity
  8
0
100
AcDbLine
 62
7
  6
CONTINUOUS
 10
409.395519074
 20
427.5027398997
 11
407.395519074
 21
427.5245698997
  0
LINE
  5
3BC
100
AcDbEntity
  8
0
100
AcDbLine
 62
7
  6
CONTINUOUS
 10
547.128815074
 20
345.7551048997
 11
547.181180074
 21
345.7027398997
  0
LWPOLYLINE
  5
3BD
100
AcDbEntity
  8
0
100
AcDbPolyline
 62
7
  6
CONTINUOUS
 90
16
 70
0
 10
548.7328119451
 20
170.5071397497
 10
548.7321226886
 20
170.506579761
 10
548.7311721411
 20
170.5039671209
 10
548.7298029168
 20
170.4964281762
 10
548.7279870246
 20
170.4794332404
 10
548.7257389961
 20
170.4469117261
 10
548.7231133243
 20
170.3916200041
 10
548.720212434
 20
170.305881017
 10
548.7197085969
 20
170.2879806146
 10
548.7166835071
 20
170.1577299356
 10
548.7147630023
 20
170.049578687
 10
548.7124543539
 20
169.8800305629
 10
548.7106604763
 20
169.6968272288
 10
548.7093853638
 20
169.5044923834
 10
548.7086259651
 20
169.3069070994
 10
548.7083748551
 20
169.1071397497
  0
LINE
  5
3BE
100
AcDbEntity
  8
0
100
AcDbLine
 62
7
  6
CONTINUOUS
 10
259.199499074
 20
449.4027398997
 11
553.601899074
 21
449.4027398997
  0
LWPOLYLINE
  5
3BF
100
AcDbEntity
  8
0
100
AcDbPolyline
 62
7
  6
CONTINUOUS
 90
15
 70
0
 10
548.732810936
 20
422.8983463008
 10
548.7321197212
 20
422.8989077734
 10
548.7311666171
 20
422.9015220688
 10
548.7297934313
 20
422.9090651026
 10
548.7279702958
 20
422.9260947421
 10
548.7257761257
 20
422.9576221105
 10
548.7231379989
 20
423.0127140707
 10
548.72021164
 20
423.0988186365
 10
548.7171543942
 20
423.2235387209
 10
548.7160512067
 20
423.2796298497
 10
548.7134762879
 20
423.442403631
 10
548.7114643229
 20
423.6171723471
 10
548.7098663628
 20
423.8168951545
 10
548.7088334309
 20
424.0284782149
 10
548.7083914832
 20
424.2467080314
  0
LWPOLYLINE
  5
3C0
100
AcDbEntity
  8
0
100
AcDbPolyline
 62
7
  6
CONTINUOUS
 90
16
 70
0
 10
548.7328119457
 20
165.8071397497
 10
548.7335012022
 20
165.8076997383
 10
548.7344517496
 20
165.8103123785
 10
548.7358209739
 20
165.8178513236
 10
548.7376368662
 20
165.8348462605
 10
548.7398848947
 20
165.8673677771
 10
548.7425105666
 20
165.9226595034
 10
548.7454114572
 20
166.0083984976
 10
548.7459152938
 20
166.0262988847
 10
548.7489403839
 20
166.1565495683
 10
548.7508608889
 20
166.2647008125
 10
548.7531695377
 20
166.4342489366
 10
548.7549634157
 20
166.6174522706
 10
548.7562385287
 20
166.8097871159
 10
548.7569979277
 20
167.0073724
 10
548.7572490377
 20
167.2071397497
  0
LWPOLYLINE
  5
3C1
100
AcDbEntity
  8
0
100
AcDbPolyline
 62
7
  6
CONTINUOUS
 90
15
 70
0
 10
548.7328129582
 20
427.5983337975
 10
548.733504173
 20
427.5977723244
 10
548.7344572773
 20
427.5951580275
 10
548.7358304633
 20
427.5876149907
 10
548.737653599
 20
427.5705853455
 10
548.7398477683
 20
427.5390579865
 10
548.7424858951
 20
427.4839660269
 10
548.745412254
 20
427.3978614619
 10
548.7484694998
 20
427.2731413804
 10
548.7495726873
 20
427.2170502488
 10
548.752147606
 20
427.0542764679
 10
548.7541595711
 20
426.87950775
 10
548.7557575312
 20
426.6797849436
 10
548.7567904631
 20
426.4682018843
 10
548.7572324108
 20
426.2499720675
  0
ARC
  5
3C2
100
AcDbEntity
  8
0
100
AcDbCircle
 62
7
  6
CONTINUOUS
 10
259.199499074
 20
152.0027398997
 40
8.0
100
AcDbArc
 50
180.0
 51
270.0
  0
ARC
  5
3C3
100
AcDbEntity
  8
0
100
AcDbCircle
 62
7
  6
CONTINUOUS
 10
406.400523074
 20
169.1576118997
 40
4.1
100
AcDbArc
 50
312.970291
 51
356.86531
  0
ARC
  5
3C4
100
AcDbEntity
  8
0
100
AcDbCircle
 62
7
  6
CONTINUOUS
 10
383.400699074
 20
168.3431568997
 40
3.0
100
AcDbArc
 50
0.0
 51
90.0
  0
ARC
  5
3C5
100
AcDbEntity
  8
0
100
AcDbCircle
 62
7
  6
CONTINUOUS
 10
370.400699074
 20
168.3431568997
 40
3.0
100
AcDbArc
 50
90.0
 51
180.0
  0
ARC
  5
3C6
100
AcDbEntity
  8
0
100
AcDbCircle
 62
7
  6
CONTINUOUS
 10
370.400699074
 20
166.5923978997
 40
3.0
100
AcDbArc
 50
180.0
 51
270.0
  0
ARC
  5
3C7
100
AcDbEntity
  8
0
100
AcDbCircle
 62
7
  6
CONTINUOUS
 10
383.400699074
 20
166.5923978997
 40
3.0
100
AcDbArc
 50
270.0
 51
360.0
  0
ARC
  5
3C8
100
AcDbEntity
  8
0
100
AcDbCircle
 62
7
  6
CONTINUOUS
 10
377.900699074
 20
169.0472708997
 40
3.0
100
AcDbArc
 50
130.066904
 51
153.614029
  0
ARC
  5
3C9
100
AcDbEntity
  8
0
100
AcDbCircle
 62
7
  6
CONTINUOUS
 10
377.900699074
 20
169.0472708997
 40
1.5
100
AcDbArc
 50
90.0
 51
117.27189
  0
ARC
  5
3CA
100
AcDbEntity
  8
0
100
AcDbCircle
 62
7
  6
CONTINUOUS
 10
377.900699074
 20
169.0472708997
 40
1.5
100
AcDbArc
 50
231.061833
 51
270.0
  0
ARC
  5
3CB
100
AcDbEntity
  8
0
100
AcDbCircle
 62
7
  6
CONTINUOUS
 10
383.400699074
 20
169.0472708997
 40
1.5
100
AcDbArc
 50
270.0
 51
90.0
  0
ARC
  5
3CC
100
AcDbEntity
  8
0
100
AcDbCircle
 62
7
  6
CONTINUOUS
 10
380.542802074
 20
169.1305338997
 40
1.25
100
AcDbArc
 50
270.0
 51
90.0
  0
ARC
  5
3CD
100
AcDbEntity
  8
0
100
AcDbCircle
 62
7
  6
CONTINUOUS
 10
325.317030074
 20
170.2027398997
 40
1.0
100
AcDbArc
 50
185.0
 51
270.0
  0
ARC
  5
3CE
100
AcDbEntity
  8
0
100
AcDbCircle
 62
7
  6
CONTINUOUS
 10
334.484368074
 20
170.2027398997
 40
1.0
100
AcDbArc
 50
270.0
 51
355.0
  0
ARC
  5
3CF
100
AcDbEntity
  8
0
100
AcDbCircle
 62
7
  6
CONTINUOUS
 10
353.317030074
 20
170.2027398997
 40
1.0
100
AcDbArc
 50
185.0
 51
270.0
  0
ARC
  5
3D0
100
AcDbEntity
  8
0
100
AcDbCircle
 62
7
  6
CONTINUOUS
 10
362.484368074
 20
170.2027398997
 40
1.0
100
AcDbArc
 50
270.0
 51
355.0
  0
ARC
  5
3D1
100
AcDbEntity
  8
0
100
AcDbCircle
 62
7
  6
CONTINUOUS
 10
340.400699074
 20
165.7027398997
 40
1.0
100
AcDbArc
 50
180.0
 51
270.0
  0
ARC
  5
3D2
100
AcDbEntity
  8
0
100
AcDbCircle
 62
7
  6
CONTINUOUS
 10
347.400699074
 20
165.7027398997
 40
1.0
100
AcDbArc
 50
270.0
 51
360.0
  0
ARC
  5
3D3
100
AcDbEntity
  8
0
100
AcDbCircle
 62
7
  6
CONTINUOUS
 10
259.199499074
 20
441.4027398997
 40
8.0
100
AcDbArc
 50
90.0
 51
180.0
  0
ARC
  5
3D4
100
AcDbEntity
  8
0
100
AcDbCircle
 62
7
  6
CONTINUOUS
 10
406.400523074
 20
424.7027398997
 40
7.4
100
AcDbArc
 50
338.006125
 51
201.993875
  0
CIRCLE
  5
3D5
100
AcDbEntity
  8
0
100
AcDbCircle
 62
7
  6
CONTINUOUS
 10
406.400523074
 20
424.7027398997
 40
5.757179
  0
ARC
  5
3D6
100
AcDbEntity
  8
0
100
AcDbCircle
 62
7
  6
CONTINUOUS
 10
406.400523074
 20
424.7027398997
 40
5.6
100
AcDbArc
 50
309.83815
 51
50.16185
  0
ARC
  5
3D7
100
AcDbEntity
  8
0
100
AcDbCircle
 62
7
  6
CONTINUOUS
 10
406.400523074
 20
424.7027398997
 40
5.6
100
AcDbArc
 50
129.83815
 51
230.16185
  0
ARC
  5
3D8
100
AcDbEntity
  8
0
100
AcDbCircle
 62
7
  6
CONTINUOUS
 10
406.400164074
 20
424.9401388997
 40
5.489266
100
AcDbArc
 50
48.836707
 51
131.155799
  0
ARC
  5
3D9
100
AcDbEntity
  8
0
100
AcDbCircle
 62
7
  6
CONTINUOUS
 10
406.400164074
 20
424.4653408997
 40
5.489266
100
AcDbArc
 50
228.836707
 51
311.155799
  0
ARC
  5
3DA
100
AcDbEntity
  8
0
100
AcDbCircle
 62
7
  6
CONTINUOUS
 10
406.400523074
 20
424.7027398997
 40
4.1
100
AcDbArc
 50
316.927219
 51
43.072781
  0
ARC
  5
3DB
100
AcDbEntity
  8
0
100
AcDbCircle
 62
7
  6
CONTINUOUS
 10
406.400523074
 20
424.7027398997
 40
4.1
100
AcDbArc
 50
136.927219
 51
223.072781
  0
ARC
  5
3DC
100
AcDbEntity
  8
0
100
AcDbCircle
 62
7
  6
CONTINUOUS
 10
383.400699074
 20
426.8130818997
 40
3.0
100
AcDbArc
 50
0.0
 51
90.0
  0
ARC
  5
3DD
100
AcDbEntity
  8
0
100
AcDbCircle
 62
7
  6
CONTINUOUS
 10
370.400699074
 20
426.8130818997
 40
3.0
100
AcDbArc
 50
90.0
 51
180.0
  0
ARC
  5
3DE
100
AcDbEntity
  8
0
100
AcDbCircle
 62
7
  6
CONTINUOUS
 10
370.400699074
 20
425.0623228997
 40
3.0
100
AcDbArc
 50
180.0
 51
270.0
  0
ARC
  5
3DF
100
AcDbEntity
  8
0
100
AcDbCircle
 62
7
  6
CONTINUOUS
 10
383.400699074
 20
425.0623228997
 40
3.0
100
AcDbArc
 50
270.0
 51
360.0
  0
ARC
  5
3E0
100
AcDbEntity
  8
0
100
AcDbCircle
 62
7
  6
CONTINUOUS
 10
362.484368074
 20
423.2027398997
 40
1.0
100
AcDbArc
 50
5.0
 51
90.0
  0
ARC
  5
3E1
100
AcDbEntity
  8
0
100
AcDbCircle
 62
7
  6
CONTINUOUS
 10
353.317030074
 20
423.2027398997
 40
1.0
100
AcDbArc
 50
90.0
 51
175.0
  0
ARC
  5
3E2
100
AcDbEntity
  8
0
100
AcDbCircle
 62
7
  6
CONTINUOUS
 10
334.484368074
 20
423.2027398997
 40
1.0
100
AcDbArc
 50
5.0
 51
90.0
  0
ARC
  5
3E3
100
AcDbEntity
  8
0
100
AcDbCircle
 62
7
  6
CONTINUOUS
 10
325.317030074
 20
423.2027398997
 40
1.0
100
AcDbArc
 50
90.0
 51
175.0
  0
ARC
  5
3E4
100
AcDbEntity
  8
0
100
AcDbCircle
 62
7
  6
CONTINUOUS
 10
347.400699074
 20
427.7027398997
 40
1.0
100
AcDbArc
 50
0.0
 51
90.0
  0
ARC
  5
3E5
100
AcDbEntity
  8
0
100
AcDbCircle
 62
7
  6
CONTINUOUS
 10
340.400699074
 20
427.7027398997
 40
1.0
100
AcDbArc
 50
90.0
 51
180.0
  0
ARC
  5
3E6
100
AcDbEntity
  8
0
100
AcDbCircle
 62
7
  6
CONTINUOUS
 10
553.601899074
 20
152.0027398997
 40
8.0
100
AcDbArc
 50
270.0
 51
360.0
  0
ARC
  5
3E7
100
AcDbEntity
  8
0
100
AcDbCircle
 62
7
  6
CONTINUOUS
 10
406.400875074
 20
168.7027398997
 40
7.4
100
AcDbArc
 50
158.006125
 51
21.993875
  0
CIRCLE
  5
3E8
100
AcDbEntity
  8
0
100
AcDbCircle
 62
7
  6
CONTINUOUS
 10
406.400875074
 20
168.7027398997
 40
5.757179
  0
ARC
  5
3E9
100
AcDbEntity
  8
0
100
AcDbCircle
 62
7
  6
CONTINUOUS
 10
406.400875074
 20
168.7027398997
 40
5.6
100
AcDbArc
 50
129.83815
 51
230.16185
  0
ARC
  5
3EA
100
AcDbEntity
  8
0
100
AcDbCircle
 62
7
  6
CONTINUOUS
 10
406.400875074
 20
168.7027398997
 40
5.6
100
AcDbArc
 50
309.83815
 51
50.16185
  0
ARC
  5
3EB
100
AcDbEntity
  8
0
100
AcDbCircle
 62
7
  6
CONTINUOUS
 10
406.401234074
 20
168.4653408997
 40
5.489266
100
AcDbArc
 50
228.836707
 51
311.155799
  0
ARC
  5
3EC
100
AcDbEntity
  8
0
100
AcDbCircle
 62
7
  6
CONTINUOUS
 10
406.401234074
 20
168.9401388997
 40
5.489266
100
AcDbArc
 50
48.836707
 51
131.155799
  0
ARC
  5
3ED
100
AcDbEntity
  8
0
100
AcDbCircle
 62
7
  6
CONTINUOUS
 10
406.400875074
 20
168.7027398997
 40
4.1
100
AcDbArc
 50
136.927219
 51
223.072781
  0
ARC
  5
3EE
100
AcDbEntity
  8
0
100
AcDbCircle
 62
7
  6
CONTINUOUS
 10
406.400875074
 20
168.7027398997
 40
4.1
100
AcDbArc
 50
316.927219
 51
43.072781
  0
ARC
  5
3EF
100
AcDbEntity
  8
0
100
AcDbCircle
 62
7
  6
CONTINUOUS
 10
406.400875074
 20
169.1576118997
 40
4.1
100
AcDbArc
 50
183.180965
 51
227.029709
  0
ARC
  5
3F0
100
AcDbEntity
  8
0
100
AcDbCircle
 62
7
  6
CONTINUOUS
 10
429.400699074
 20
166.5923978997
 40
3.0
100
AcDbArc
 50
180.0
 51
270.0
  0
ARC
  5
3F1
100
AcDbEntity
  8
0
100
AcDbCircle
 62
7
  6
CONTINUOUS
 10
442.400699074
 20
166.5923978997
 40
3.0
100
AcDbArc
 50
270.0
 51
360.0
  0
ARC
  5
3F2
100
AcDbEntity
  8
0
100
AcDbCircle
 62
7
  6
CONTINUOUS
 10
442.400699074
 20
168.3431568997
 40
3.0
100
AcDbArc
 50
0.0
 51
90.0
  0
ARC
  5
3F3
100
AcDbEntity
  8
0
100
AcDbCircle
 62
7
  6
CONTINUOUS
 10
429.400699074
 20
168.3431568997
 40
3.0
100
AcDbArc
 50
90.0
 51
180.0
  0
ARC
  5
3F4
100
AcDbEntity
  8
0
100
AcDbCircle
 62
7
  6
CONTINUOUS
 10
434.900699074
 20
169.0472708997
 40
3.0
100
AcDbArc
 50
26.385971
 51
49.933096
  0
ARC
  5
3F5
100
AcDbEntity
  8
0
100
AcDbCircle
 62
7
  6
CONTINUOUS
 10
434.900699074
 20
169.0472708997
 40
1.5
100
AcDbArc
 50
62.726808
 51
90.0
  0
ARC
  5
3F6
100
AcDbEntity
  8
0
100
AcDbCircle
 62
7
  6
CONTINUOUS
 10
434.900699074
 20
169.0472708997
 40
1.5
100
AcDbArc
 50
270.0
 51
308.938167
  0
ARC
  5
3F7
100
AcDbEntity
  8
0
100
AcDbCircle
 62
7
  6
CONTINUOUS
 10
429.400699074
 20
169.0472708997
 40
1.5
100
AcDbArc
 50
90.0
 51
270.0
  0
ARC
  5
3F8
100
AcDbEntity
  8
0
100
AcDbCircle
 62
7
  6
CONTINUOUS
 10
432.342802074
 20
169.1305338997
 40
1.25
100
AcDbArc
 50
90.0
 51
270.0
  0
ARC
  5
3F9
100
AcDbEntity
  8
0
100
AcDbCircle
 62
7
  6
CONTINUOUS
 10
450.317030074
 20
170.2027398997
 40
1.0
100
AcDbArc
 50
185.0
 51
270.0
  0
ARC
  5
3FA
100
AcDbEntity
  8
0
100
AcDbCircle
 62
7
  6
CONTINUOUS
 10
459.484368074
 20
170.2027398997
 40
1.0
100
AcDbArc
 50
270.0
 51
355.0
  0
ARC
  5
3FB
100
AcDbEntity
  8
0
100
AcDbCircle
 62
7
  6
CONTINUOUS
 10
478.317030074
 20
170.2027398997
 40
1.0
100
AcDbArc
 50
185.0
 51
270.0
  0
ARC
  5
3FC
100
AcDbEntity
  8
0
100
AcDbCircle
 62
7
  6
CONTINUOUS
 10
487.484368074
 20
170.2027398997
 40
1.0
100
AcDbArc
 50
270.0
 51
355.0
  0
ARC
  5
3FD
100
AcDbEntity
  8
0
100
AcDbCircle
 62
7
  6
CONTINUOUS
 10
465.400699074
 20
165.7027398997
 40
1.0
100
AcDbArc
 50
180.0
 51
270.0
  0
ARC
  5
3FE
100
AcDbEntity
  8
0
100
AcDbCircle
 62
7
  6
CONTINUOUS
 10
472.400699074
 20
165.7027398997
 40
1.0
100
AcDbArc
 50
270.0
 51
360.0
  0
ARC
  5
3FF
100
AcDbEntity
  8
0
100
AcDbCircle
 62
7
  6
CONTINUOUS
 10
553.601899074
 20
441.4027398997
 40
8.0
100
AcDbArc
 50
0.0
 51
90.0
  0
ARC
  5
400
100
AcDbEntity
  8
0
100
AcDbCircle
 62
7
  6
CONTINUOUS
 10
429.400699074
 20
425.0623228997
 40
3.0
100
AcDbArc
 50
180.0
 51
270.0
  0
ARC
  5
401
100
AcDbEntity
  8
0
100
AcDbCircle
 62
7
  6
CONTINUOUS
 10
442.400699074
 20
425.0623228997
 40
3.0
100
AcDbArc
 50
270.0
 51
360.0
  0
ARC
  5
402
100
AcDbEntity
  8
0
100
AcDbCircle
 62
7
  6
CONTINUOUS
 10
442.400699074
 20
426.8130818997
 40
3.0
100
AcDbArc
 50
0.0
 51
90.0
  0
ARC
  5
403
100
AcDbEntity
  8
0
100
AcDbCircle
 62
7
  6
CONTINUOUS
 10
429.400699074
 20
426.8130818997
 40
3.0
100
AcDbArc
 50
90.0
 51
180.0
  0
ARC
  5
404
100
AcDbEntity
  8
0
100
AcDbCircle
 62
7
  6
CONTINUOUS
 10
487.484368074
 20
423.2027398997
 40
1.0
100
AcDbArc
 50
5.0
 51
90.0
  0
ARC
  5
405
100
AcDbEntity
  8
0
100
AcDbCircle
 62
7
  6
CONTINUOUS
 10
478.317030074
 20
423.2027398997
 40
1.0
100
AcDbArc
 50
90.0
 51
175.0
  0
ARC
  5
406
100
AcDbEntity
  8
0
100
AcDbCircle
 62
7
  6
CONTINUOUS
 10
459.484368074
 20
423.2027398997
 40
1.0
100
AcDbArc
 50
5.0
 51
90.0
  0
ARC
  5
407
100
AcDbEntity
  8
0
100
AcDbCircle
 62
7
  6
CONTINUOUS
 10
450.317030074
 20
423.2027398997
 40
1.0
100
AcDbArc
 50
90.0
 51
175.0
  0
ARC
  5
408
100
AcDbEntity
  8
0
100
AcDbCircle
 62
7
  6
CONTINUOUS
 10
472.400699074
 20
427.7027398997
 40
1.0
100
AcDbArc
 50
0.0
 51
90.0
  0
ARC
  5
409
100
AcDbEntity
  8
0
100
AcDbCircle
 62
7
  6
CONTINUOUS
 10
465.400699074
 20
427.7027398997
 40
1.0
100
AcDbArc
 50
90.0
 51
180.0
  0
ENDSEC
  0
SECTION
  2
OBJECTS
  0
DICTIONARY
  5
C
100
AcDbDictionary
280
0
281
1
  3
ACAD_GROUP
350
D
  3
ACAD_MLINESTYLE
350
17
  3
ACAD_LAYOUT
350
1A
  3
ACAD_PLOTSETTINGS
350
19
  3
ACAD_PLOTSTYLENAME
350
E
  0
DICTIONARY
  5
D
102
{ACAD_REACTORS
330
C
102
}
100
AcDbDictionary
280
0
281
1
  0
ACDBDICTIONARYWDFLT
  5
E
102
{ACAD_REACTORS
330
C
102
}
100
AcDbDictionary
281
1
  3
Normal
350
F
100
AcDbDictionaryWithDefault
340
F
  0
DICTIONARY
  5
17
102
{ACAD_REACTORS
330
C
102
}
100
AcDbDictionary
280
0
281
1
  3
Standard
350
18
  0
DICTIONARY
  5
19
102
{ACAD_REACTORS
330
C
102
}
100
AcDbDictionary
281
1
  0
DICTIONARY
  5
1A
102
{ACAD_REACTORS
330
C
102
}
100
AcDbDictionary
281
1
  3
Model
350
40A
  3
Layout1
350
40B
  0
ACDBPLACEHOLDER
  5
F
102
{ACAD_REACTORS
330
E
102
}
  0
MLINESTYLE
  5
18
102
{ACAD_REACTORS
330
17
102
}
100
AcDbMlineStyle
  2
STANDARD
 70
0
  3

 62
256
 51
90.0
 52
90.0
 71
2
 49
0.5
 62
256
  6
BYLAYER
 49
-0.5
 62
256
  6
BYLAYER
  0
LAYOUT
  5
40A
102
{ACAD_REACTORS
330
1A
102
}
100
AcDbPlotSettings
  1

  2
none_device
  4
ISO_A1_(594.00_x_841.00_MM)
  6

 40
0.0
 41
0.0
 42
0.0
 43
0.0
 44
841.0
 45
594.0
 46
0.0
 47
0.0
 48
0.0
 49
0.0
140
0.0
141
0.0
142
1.0
143
1.0
 70
1024
 72
1
 73
0
 74
0
  7

 75
0
147
1.0
148
0.0
149
0.0
100
AcDbLayout
  1
Model
 70
0
 71
0
 10
0.0
 20
0.0
 11
841.0
 21
594.0
 12
0.0
 22
0.0
 32
0.0
 14
0.0
 24
0.0
 34
0.0
 15
0.0
 25
0.0
 35
0.0
146
0.0
 13
0.0
 23
0.0
 33
0.0
 16
1.0
 26
0.0
 36
0.0
 17
0.0
 27
1.0
 37
0.0
 76
0
330
210
345
0
346
0
  0
LAYOUT
  5
40B
102
{ACAD_REACTORS
330
1A
102
}
100
AcDbPlotSettings
  1

  2
none_device
  4
ISO_A1_(594.00_x_841.00_MM)
  6

 40
0.0
 41
0.0
 42
0.0
 43
0.0
 44
841.0
 45
594.0
 46
0.0
 47
0.0
 48
0.0
 49
0.0
140
0.0
141
0.0
142
1.0
143
1.0
 70
0
 72
1
 73
0
 74
0
  7

 75
0
147
1.0
148
0.0
149
0.0
100
AcDbLayout
  1
Layout1
 70
0
 71
1
 10
0.0
 20
0.0
 11
841.0
 21
594.0
 12
0.0
 22
0.0
 32
0.0
 14
0.0
 24
0.0
 34
0.0
 15
0.0
 25
0.0
 35
0.0
146
0.0
 13
0.0
 23
0.0
 33
0.0
 16
1.0
 26
0.0
 36
0.0
 17
0.0
 27
1.0
 37
0.0
 76
0
330
211
345
0
346
0
  0
ENDSEC
  0
EOF
