  0
SECTION
  2
HEADER
  9
$ACADVER
  1
AC1015
  9
$DWGCODEPAGE
  3
ANSI_1252
  9
$EXTMAX
 10
297.0
 20
210.0
 30
0.0
  9
$EXTMIN
 10
0.0
 20
0.0
 30
0.0
  9
$LIMMIN
 10
0.0
 20
0.0
  9
$LIMMAX
 10
297.0
 20
210.0
  9
$VIEWCTR
 10
148.5
 20
105.0
  9
$VIEWSIZE
 40
210.0
  9
$CLAYER
  8
0
  9
$LTSCALE
 40
16.335
  9
$CELTYPE
  6
BYLAYER
  9
$DIMSCALE
 40
1.0
  9
$DIMASZ
 40
3.0
  9
$DIMEXO
 40
1.85625
  9
$DIMDLI
 40
11.286
  9
$DIMEXE
 40
5.346
  9
$DIMCEN
 40
2.673
  9
$DIMLFAC
 40
1.0
  9
$DIMBLK
  1
_FILLED
  9
$DIMTXT
 40
3.0
  9
$DIMTOL
 70
1
  9
$DIMLIM
 70
0
  9
$DIMTFAC
 40
1.0
  9
$DIMTP
 40
0.01
  9
$DIMTM
 40
0.01
  9
$PDMODE
 70
3
  9
$PDSIZE
 40
3.0
  9
$HANDSEED
  5
5FE
  9
$TILEMODE
 70
1
  9
$MEASUREMENT
 70
1
  9
$INSUNITS
 70
4
  0
ENDSEC
  0
SECTION
  2
CLASSES
  0
CLASS
  1
ACDBDICTIONARYWDFLT
  2
AcDbDictionaryWithDefault
  3
AutoCAD 2000
 90
0
280
0
281
0
  0
CLASS
  1
ACDBPLACEHOLDER
  2
AcDbPlaceHolder
  3
AutoCAD 2000
 90
0
280
0
281
0
  0
CLASS
  1
LAYOUT
  2
AcDbLayout
  3
AutoCAD 2000
 90
0
280
0
281
0
  0
ENDSEC
  0
SECTION
  2
TABLES
  0
TABLE
  2
VPORT
  5
8
100
AcDbSymbolTable
 70
2
  0
VPORT
  5
1F4
100
AcDbSymbolTableRecord
100
AcDbViewportTableRecord
  2
*ACTIVE
 70
0
 10
0.0
 20
0.0
 11
1.0
 21
1.0
 12
148.5
 22
105.0
 13
0.0
 23
0.0
 14
1.0
 24
1.0
 15
0.0
 25
0.0
 16
0.0
 26
0.0
 36
1.0
 17
0.0
 27
0.0
 37
0.0
 40
210.0
 41
1.4142857143
 42
50.0
 43
0.0
 44
0.0
 50
0.0
 51
0.0
 71
0
 72
100
 73
1
 74
1
 75
0
 76
0
 77
0
 78
0
  0
ENDTAB
  0
TABLE
  2
LTYPE
  5
5
100
AcDbSymbolTable
 70
6
  0
LTYPE
  5
14
100
AcDbSymbolTableRecord
100
AcDbLinetypeTableRecord
  2
BYBLOCK
 70
0
  3

 72
65
 73
0
 40
0.0
  0
LTYPE
  5
15
100
AcDbSymbolTableRecord
100
AcDbLinetypeTableRecord
  2
BYLAYER
 70
0
  3

 72
65
 73
0
 40
0.0
  0
LTYPE
  5
16
100
AcDbSymbolTableRecord
100
AcDbLinetypeTableRecord
  2
CONTINUOUS
 70
64
  3
Solid line
 72
65
 73
0
 40
0.0
  0
LTYPE
  5
1F5
100
AcDbSymbolTableRecord
100
AcDbLinetypeTableRecord
  2
CENTER
 70
64
  3
____ _ ____ _ ____ _ ____ _ ____ _ ____ _ ____
 72
65
 73
4
 40
0.6
 49
0.375
 74
0
 49
-0.075
 74
0
 49
0.075
 74
0
 49
-0.075
 74
0
  0
LTYPE
  5
1F6
100
AcDbSymbolTableRecord
100
AcDbLinetypeTableRecord
  2
HIDDEN
 70
64
  3
- - - - - - - - - - - - - - - - - - - -
 72
65
 73
2
 40
0.2
 49
0.1
 74
0
 49
-0.1
 74
0
  0
LTYPE
  5
1F7
100
AcDbSymbolTableRecord
100
AcDbLinetypeTableRecord
  2
PHANTOM
 70
64
  3
_____ _ _ _____ _ _ _____ _ _ _____
 72
65
 73
6
 40
0.8
 49
0.45
 74
0
 49
-0.05
 74
0
 49
0.1
 74
0
 49
-0.05
 74
0
 49
0.1
 74
0
 49
-0.05
 74
0
  0
LTYPE
  5
1F8
100
AcDbSymbolTableRecord
100
AcDbLinetypeTableRecord
  2
DOT
 70
64
  3
. . . . . . . . . . . . . . . . . . . .
 72
65
 73
2
 40
0.2
 49
0.1
 74
0
 49
-0.1
 74
0
  0
LTYPE
  5
1F9
100
AcDbSymbolTableRecord
100
AcDbLinetypeTableRecord
  2
DASHED
 70
64
  3
- - - - - - - - - - - - - - - - - - - -
 72
65
 73
2
 40
0.2
 49
0.1
 74
0
 49
-0.1
 74
0
  0
ENDTAB
  0
TABLE
  2
LAYER
  5
2
100
AcDbSymbolTable
 70
36
  0
LAYER
  5
10
100
AcDbSymbolTableRecord
100
AcDbLayerTableRecord
  2
0
 70
0
 62
7
  6
CONTINUOUS
370
-3
390
F
  0
LAYER
  5
1FA
100
AcDbSymbolTableRecord
100
AcDbLayerTableRecord
  2
DEFAULT_1
 70
0
 62
7
  6
CENTER
370
-3
390
F
  0
LAYER
  5
1FB
100
AcDbSymbolTableRecord
100
AcDbLayerTableRecord
  2
DEFAULT_2
 70
0
 62
7
  6
HIDDEN
370
-3
390
F
  0
LAYER
  5
1FC
100
AcDbSymbolTableRecord
100
AcDbLayerTableRecord
  2
DEFAULT_3
 70
0
 62
7
  6
PHANTOM
370
-3
390
F
  0
LAYER
  5
1FD
100
AcDbSymbolTableRecord
100
AcDbLayerTableRecord
  2
ASSI
 70
0
 62
7
  6
CONTINUOUS
370
-3
390
F
  0
LAYER
  5
1FE
100
AcDbSymbolTableRecord
100
AcDbLayerTableRecord
  2
COORDINATE
 70
0
 62
7
  6
CONTINUOUS
370
-3
390
F
  0
LAYER
  5
1FF
100
AcDbSymbolTableRecord
100
AcDbLayerTableRecord
  2
COORD_ORIGINE
 70
0
 62
7
  6
CONTINUOUS
370
-3
390
F
  0
LAYER
  5
200
100
AcDbSymbolTableRecord
100
AcDbLayerTableRecord
  2
COPY_PUBLISH
 70
0
 62
7
  6
CONTINUOUS
370
-3
390
F
  0
LAYER
  5
201
100
AcDbSymbolTableRecord
100
AcDbLayerTableRecord
  2
COSMETIC
 70
0
 62
7
  6
CONTINUOUS
370
-3
390
F
  0
LAYER
  5
202
100
AcDbSymbolTableRecord
100
AcDbLayerTableRecord
  2
CURVA_ASSE
 70
0
 62
7
  6
CONTINUOUS
370
-3
390
F
  0
LAYER
  5
203
100
AcDbSymbolTableRecord
100
AcDbLayerTableRecord
  2
CURVE
 70
0
 62
7
  6
CONTINUOUS
370
-3
390
F
  0
LAYER
  5
204
100
AcDbSymbolTableRecord
100
AcDbLayerTableRecord
  2
CURVE_GUIDA
 70
0
 62
7
  6
CONTINUOUS
370
-3
390
F
  0
LAYER
  5
205
100
AcDbSymbolTableRecord
100
AcDbLayerTableRecord
  2
CURVE_INC_PUNZONI
 70
0
 62
7
  6
CONTINUOUS
370
-3
390
F
  0
LAYER
  5
206
100
AcDbSymbolTableRecord
100
AcDbLayerTableRecord
  2
DRAFT
 70
0
 62
7
  6
CONTINUOUS
370
-3
390
F
  0
LAYER
  5
207
100
AcDbSymbolTableRecord
100
AcDbLayerTableRecord
  2
IMPORT_IGES
 70
0
 62
7
  6
CONTINUOUS
370
-3
390
F
  0
LAYER
  5
208
100
AcDbSymbolTableRecord
100
AcDbLayerTableRecord
  2
NOTE
 70
0
 62
7
  6
CONTINUOUS
370
-3
390
F
  0
LAYER
  5
209
100
AcDbSymbolTableRecord
100
AcDbLayerTableRecord
  2
PIANI
 70
0
 62
7
  6
CONTINUOUS
370
-3
390
F
  0
LAYER
  5
20A
100
AcDbSymbolTableRecord
100
AcDbLayerTableRecord
  2
PIANI_ORIGINE
 70
0
 62
7
  6
CONTINUOUS
370
-3
390
F
  0
LAYER
  5
20B
100
AcDbSymbolTableRecord
100
AcDbLayerTableRecord
  2
PUNTI
 70
0
 62
7
  6
CONTINUOUS
370
-3
390
F
  0
LAYER
  5
20C
100
AcDbSymbolTableRecord
100
AcDbLayerTableRecord
  2
RACCORDO
 70
0
 62
7
  6
CONTINUOUS
370
-3
390
F
  0
LAYER
  5
20D
100
AcDbSymbolTableRecord
100
AcDbLayerTableRecord
  2
SMUSSO
 70
0
 62
7
  6
CONTINUOUS
370
-3
390
F
  0
LAYER
  5
20E
100
AcDbSymbolTableRecord
100
AcDbLayerTableRecord
  2
SNAPLINE
 70
0
 62
7
  6
CONTINUOUS
370
-3
390
F
  0
LAYER
  5
20F
100
AcDbSymbolTableRecord
100
AcDbLayerTableRecord
  2
SUPERFICI
 70
0
 62
7
  6
CONTINUOUS
370
-3
390
F
  0
LAYER
  5
210
100
AcDbSymbolTableRecord
100
AcDbLayerTableRecord
  2
TRASH
 70
0
 62
7
  6
CONTINUOUS
370
-3
390
F
  0
LAYER
  5
211
100
AcDbSymbolTableRecord
100
AcDbLayerTableRecord
  2
XSEC_DATUMS
 70
0
 62
7
  6
CONTINUOUS
370
-3
390
F
  0
ENDTAB
  0
TABLE
  2
STYLE
  5
3
100
AcDbSymbolTable
 70
1
  0
STYLE
  5
11
100
AcDbSymbolTableRecord
100
AcDbTextStyleTableRecord
  2
STANDARD
 70
0
 40
0.0
 41
0.8
 50
0.0
 71
0
 42
0.2
  3
txt
  4

  0
STYLE
  5
212
100
AcDbSymbolTableRecord
100
AcDbTextStyleTableRecord
  2
TEXTSTYLE_1
 70
0
 40
0.0
 41
0.8
 50
0.0
 71
0
 42
0.2
  3
gdt
  4

  0
ENDTAB
  0
TABLE
  2
VIEW
  5
6
100
AcDbSymbolTable
 70
0
  0
ENDTAB
  0
TABLE
  2
UCS
  5
7
100
AcDbSymbolTable
 70
0
  0
ENDTAB
  0
TABLE
  2
APPID
  5
9
100
AcDbSymbolTable
 70
1
  0
APPID
  5
213
100
AcDbSymbolTableRecord
100
AcDbRegAppTableRecord
  2
ACAD
 70
0
  0
ENDTAB
  0
TABLE
  2
BLOCK_RECORD
  5
1
100
AcDbSymbolTable
 70
0
  0
BLOCK_RECORD
  5
214
100
AcDbSymbolTableRecord
100
AcDbBlockTableRecord
  2
*Model_Space
  0
BLOCK_RECORD
  5
215
100
AcDbSymbolTableRecord
100
AcDbBlockTableRecord
  2
*Paper_Space
  0
ENDTAB
  0
TABLE
  2
DIMSTYLE
  5
A
100
AcDbSymbolTable
 70
1
100
AcDbDimStyleTable
 71
0
  0
DIMSTYLE
105
216
100
AcDbSymbolTableRecord
100
AcDbDimStyleTableRecord
  2
STANDARD
 70
0
  3

  4

 40
1.0
 41
3.0
 42
0.0625
 43
0.38
 44
0.18
 45
0.0
 46
0.0
 47
0.01
 48
0.01
140
3.0
141
0.09
142
0.0
143
25.4
144
1.0
145
0.0
146
1.0
147
0.09
 71
1.0
 72
0.0
 73
0
 74
0
 75
0
 76
0
 77
1
 78
8
170
0
171
2
172
0
173
0
174
0
175
0
176
0
177
0
178
0
270
2
271
2
272
2
273
2
274
2
275
0
280
0
281
0
282
0
283
1
284
8
285
0
286
0
287
3
288
0
340
11
  0
ENDTAB
  0
ENDSEC
  0
SECTION
  2
BLOCKS
  0
BLOCK
  5
20
100
AcDbEntity
  8
0
100
AcDbBlockBegin
  2
*Model_Space
 70
0
 10
0.0
 20
0.0
 30
0.0
  3
*Model_Space
  1

  0
ENDBLK
  5
21
100
AcDbEntity
  8
0
100
AcDbBlockEnd
  0
BLOCK
  5
1C
100
AcDbEntity
  8
0
100
AcDbBlockBegin
  2
*Paper_Space
 70
0
 10
0.0
 20
0.0
 30
0.0
  3
*Paper_Space
  1

  0
ENDBLK
  5
1D
100
AcDbEntity
  8
0
100
AcDbBlockEnd
  0
ENDSEC
  0
SECTION
  2
ENTITIES
  0
LINE
  5
217
100
AcDbEntity
  8
0
100
AcDbLine
 62
7
  6
CONTINUOUS
 10
-36.3633162496
 20
-70.5679804175
 11
-36.3633162496
 21
27.4320195825
  0
LINE
  5
218
100
AcDbEntity
  8
0
100
AcDbLine
 62
7
  6
CONTINUOUS
 10
-33.3633162496
 20
27.4320195825
 11
-33.3633162496
 21
-70.5679804175
  0
LINE
  5
219
100
AcDbEntity
  8
DRAFT
100
AcDbLine
 62
7
  6
CONTINUOUS
 10
-21.5840352108
 20
17.5439025161
 11
-19.7720793172
 21
19.3558584096
  0
LINE
  5
21A
100
AcDbEntity
  8
DRAFT
100
AcDbLine
 62
7
  6
CONTINUOUS
 10
-18.2871550767
 20
20.8407826501
 11
-16.4751991832
 21
22.6527385436
  0
LINE
  5
21B
100
AcDbEntity
  8
DRAFT
100
AcDbLine
 62
7
  6
CONTINUOUS
 10
-21.042928198
 20
17.3197686527
 11
-19.5807545284
 21
18.7819423223
  0
LINE
  5
21C
100
AcDbEntity
  8
DRAFT
100
AcDbLine
 62
7
  6
CONTINUOUS
 10
-17.7132389895
 20
20.6494578612
 11
-16.2510653198
 21
22.1116315309
  0
LINE
  5
21D
100
AcDbEntity
  8
DRAFT
100
AcDbLine
 62
7
  6
CONTINUOUS
 10
-19.8338491511
 20
16.823120897
 11
-18.7278911271
 21
17.9290789211
  0
LINE
  5
21E
100
AcDbEntity
  8
DRAFT
100
AcDbLine
 62
7
  6
CONTINUOUS
 10
-16.8603755882
 20
19.7965944599
 11
-15.7544175641
 21
20.902552484
  0
LINE
  5
21F
100
AcDbEntity
  8
DRAFT
100
AcDbLine
 62
7
  6
CONTINUOUS
 10
-19.5633162496
 20
16.7110625001
 11
-18.3452998287
 21
17.9290789211
  0
LINE
  5
220
100
AcDbEntity
  8
DRAFT
100
AcDbLine
 62
7
  6
CONTINUOUS
 10
-16.8603755882
 20
19.4140031615
 11
-15.6423591673
 21
20.6320195825
  0
LINE
  5
221
100
AcDbEntity
  8
DRAFT
100
AcDbLine
 62
7
  6
CONTINUOUS
 10
-19.5633162496
 20
14.1920195825
 11
-19.8338491511
 21
13.921486681
  0
LINE
  5
222
100
AcDbEntity
  8
DRAFT
100
AcDbLine
 62
7
  6
CONTINUOUS
 10
-13.1233162496
 20
20.6320195825
 11
-12.8527833481
 21
20.902552484
  0
LINE
  5
223
100
AcDbEntity
  8
0
100
AcDbLine
 62
7
  6
CONTINUOUS
 10
71.6366837504
 20
-80.5679804175
 11
-26.3633162496
 21
-80.5679804175
  0
LINE
  5
224
100
AcDbEntity
  8
0
100
AcDbLine
 62
7
  6
CONTINUOUS
 10
-26.3633162496
 20
-77.5679804175
 11
71.6366837504
 21
-77.5679804175
  0
LINE
  5
225
100
AcDbEntity
  8
DRAFT
100
AcDbLine
 62
7
  6
CONTINUOUS
 10
-16.4751991832
 20
-65.7886993787
 11
-18.2871550767
 21
-63.9767434851
  0
LINE
  5
226
100
AcDbEntity
  8
DRAFT
100
AcDbLine
 62
7
  6
CONTINUOUS
 10
-19.7720793172
 20
-62.4918192446
 11
-21.5840352108
 21
-60.6798633511
  0
LINE
  5
227
100
AcDbEntity
  8
DRAFT
100
AcDbLine
 62
7
  6
CONTINUOUS
 10
-16.2510653198
 20
-65.2475923659
 11
-17.7132389895
 21
-63.7854186962
  0
LINE
  5
228
100
AcDbEntity
  8
DRAFT
100
AcDbLine
 62
7
  6
CONTINUOUS
 10
-19.5807545284
 20
-61.9179031574
 11
-21.042928198
 21
-60.4557294877
  0
LINE
  5
229
100
AcDbEntity
  8
DRAFT
100
AcDbLine
 62
7
  6
CONTINUOUS
 10
-15.7544175641
 20
-64.038513319
 11
-16.8603755882
 21
-62.932555295
  0
LINE
  5
22A
100
AcDbEntity
  8
DRAFT
100
AcDbLine
 62
7
  6
CONTINUOUS
 10
-18.7278911271
 20
-61.0650397561
 11
-19.8338491511
 21
-59.959081732
  0
LINE
  5
22B
100
AcDbEntity
  8
DRAFT
100
AcDbLine
 62
7
  6
CONTINUOUS
 10
-15.6423591673
 20
-63.7679804175
 11
-16.8603755882
 21
-62.5499639966
  0
LINE
  5
22C
100
AcDbEntity
  8
DRAFT
100
AcDbLine
 62
7
  6
CONTINUOUS
 10
-18.3452998287
 20
-61.0650397561
 11
-19.5633162496
 21
-59.8470233351
  0
LINE
  5
22D
100
AcDbEntity
  8
DRAFT
100
AcDbLine
 62
7
  6
CONTINUOUS
 10
-19.5633162496
 20
-57.3279804175
 11
-19.8338491511
 21
-57.057447516
  0
LINE
  5
22E
100
AcDbEntity
  8
DRAFT
100
AcDbLine
 62
7
  6
CONTINUOUS
 10
-13.1233162496
 20
-63.7679804175
 11
-12.8527833481
 21
-64.038513319
  0
LINE
  5
22F
100
AcDbEntity
  8
DRAFT
100
AcDbLine
 62
7
  6
CONTINUOUS
 10
-30.3633162496
 20
-52.5679804175
 11
-30.3633162496
 21
9.4320195825
  0
LINE
  5
230
100
AcDbEntity
  8
RACCORDO
100
AcDbLine
 62
253
  6
CONTINUOUS
 10
-30.3106464219
 20
9.4320195825
 11
-30.3106464219
 21
-52.5679804175
  0
LINE
  5
231
100
AcDbEntity
  8
RACCORDO
100
AcDbLine
 62
253
  6
CONTINUOUS
 10
-29.3107987268
 20
9.4320195825
 11
-29.3107987268
 21
-52.5679804175
  0
LINE
  5
232
100
AcDbEntity
  8
0
100
AcDbLine
 62
7
  6
CONTINUOUS
 10
-16.8861598563
 20
16.5795909562
 11
-17.1475816596
 21
16.153376643
  0
LINE
  5
233
100
AcDbEntity
  8
0
100
AcDbLine
 62
7
  6
CONTINUOUS
 10
-15.8404726429
 20
18.2844482088
 11
-15.5790508396
 21
18.710662522
  0
LINE
  5
234
100
AcDbEntity
  8
DRAFT
100
AcDbLine
 62
7
  6
CONTINUOUS
 10
-13.1233162496
 20
18.7670004568
 11
-14.7036999056
 21
17.1866168008
  0
LINE
  5
235
100
AcDbEntity
  8
DRAFT
100
AcDbLine
 62
7
  6
CONTINUOUS
 10
-16.1179134679
 20
15.7724032384
 11
-17.6982971239
 21
14.1920195825
  0
LINE
  5
236
100
AcDbEntity
  8
RACCORDO
100
AcDbLine
 62
7
  6
CONTINUOUS
 10
-12.830928101
 20
18.6458893201
 11
-14.7484126089
 21
16.7284048122
  0
LINE
  5
237
100
AcDbEntity
  8
RACCORDO
100
AcDbLine
 62
7
  6
CONTINUOUS
 10
-15.6597014793
 20
15.8171159418
 11
-17.5771859872
 21
13.8996314338
  0
LINE
  5
238
100
AcDbEntity
  8
RACCORDO
100
AcDbLine
 62
253
  6
CONTINUOUS
 10
-12.3309471394
 20
18.4387904249
 11
-14.3948726805
 21
16.3748648838
  0
LINE
  5
239
100
AcDbEntity
  8
RACCORDO
100
AcDbLine
 62
253
  6
CONTINUOUS
 10
-15.306161551
 20
15.4635760134
 11
-17.3700870921
 21
13.3996504723
  0
LINE
  5
23A
100
AcDbEntity
  8
DRAFT
100
AcDbLine
 62
7
  6
CONTINUOUS
 10
14.5484456245
 20
-75.0679804175
 11
30.7249218763
 21
-75.0679804175
  0
LINE
  5
23B
100
AcDbEntity
  8
RACCORDO
100
AcDbLine
 62
7
  6
CONTINUOUS
 10
-8.3633162496
 20
-74.5679804175
 11
53.6366837504
 21
-74.5679804175
  0
LINE
  5
23C
100
AcDbEntity
  8
RACCORDO
100
AcDbLine
 62
253
  6
CONTINUOUS
 10
-8.3633162496
 20
-74.5153105898
 11
53.6366837504
 21
-74.5153105898
  0
LINE
  5
23D
100
AcDbEntity
  8
RACCORDO
100
AcDbLine
 62
253
  6
CONTINUOUS
 10
-8.3633162496
 20
-73.5154628947
 11
53.6366837504
 21
-73.5154628947
  0
LINE
  5
23E
100
AcDbEntity
  8
DRAFT
100
AcDbLine
 62
7
  6
CONTINUOUS
 10
36.1897821918
 20
-73.0679804175
 11
9.0835853089
 21
-73.0679804175
  0
LINE
  5
23F
100
AcDbEntity
  8
RACCORDO
100
AcDbLine
 62
7
  6
CONTINUOUS
 10
36.04141414
 20
-72.9196123656
 11
9.2319533608
 21
-72.9196123656
  0
LINE
  5
240
100
AcDbEntity
  8
DRAFT
100
AcDbLine
 62
7
  6
CONTINUOUS
 10
35.9366837504
 20
-72.3946803845
 11
31.6979235155
 21
-72.3946803845
  0
LINE
  5
241
100
AcDbEntity
  8
DRAFT
100
AcDbLine
 62
7
  6
CONTINUOUS
 10
13.5754439852
 20
-72.3946803845
 11
9.3366837504
 21
-72.3946803845
  0
LINE
  5
242
100
AcDbEntity
  8
DRAFT
100
AcDbLine
 62
7
  6
CONTINUOUS
 10
-17.6982971239
 20
-57.3279804175
 11
-16.1179134679
 21
-58.9083640735
  0
LINE
  5
243
100
AcDbEntity
  8
DRAFT
100
AcDbLine
 62
7
  6
CONTINUOUS
 10
-14.7036999056
 20
-60.3225776358
 11
-13.1233162496
 21
-61.9029612918
  0
LINE
  5
244
100
AcDbEntity
  8
RACCORDO
100
AcDbLine
 62
7
  6
CONTINUOUS
 10
-17.5771859872
 20
-57.0355922689
 11
-15.6597014793
 21
-58.9530767768
  0
LINE
  5
245
100
AcDbEntity
  8
RACCORDO
100
AcDbLine
 62
7
  6
CONTINUOUS
 10
-14.7484126089
 20
-59.8643656472
 11
-12.830928101
 21
-61.7818501551
  0
LINE
  5
246
100
AcDbEntity
  8
RACCORDO
100
AcDbLine
 62
253
  6
CONTINUOUS
 10
-17.3700870921
 20
-56.5356113073
 11
-15.306161551
 21
-58.5995368484
  0
LINE
  5
247
100
AcDbEntity
  8
RACCORDO
100
AcDbLine
 62
253
  6
CONTINUOUS
 10
-14.3948726805
 20
-59.5108257189
 11
-12.3309471394
 21
-61.5747512599
  0
LINE
  5
248
100
AcDbEntity
  8
SMUSSO
100
AcDbLine
 62
7
  6
CONTINUOUS
 10
-21.5753090075
 20
-39.5232159009
 11
-21.5561071069
 21
-39.8179804175
  0
LINE
  5
249
100
AcDbEntity
  8
SMUSSO
100
AcDbLine
 62
7
  6
CONTINUOUS
 10
-22.0840352108
 20
-3.7466991254
 11
-22.0840352108
 21
-6.8892617096
  0
LINE
  5
24A
100
AcDbEntity
  8
SMUSSO
100
AcDbLine
 62
7
  6
CONTINUOUS
 10
-22.0840352108
 20
-36.2466991254
 11
-22.0840352108
 21
-39.3892617096
  0
LINE
  5
24B
100
AcDbEntity
  8
DRAFT
100
AcDbLine
 62
7
  6
CONTINUOUS
 10
-21.5840352108
 20
-60.6798633511
 11
-21.5840352108
 21
-55.4405065472
  0
LINE
  5
24C
100
AcDbEntity
  8
SMUSSO
100
AcDbLine
 62
7
  6
CONTINUOUS
 10
-21.5840352108
 20
-55.4405065472
 11
-21.5840352108
 21
-39.5232159009
  0
LINE
  5
24D
100
AcDbEntity
  8
SMUSSO
100
AcDbLine
 62
7
  6
CONTINUOUS
 10
-21.5840352108
 20
-36.1127449342
 11
-21.5840352108
 21
-7.0232159009
  0
LINE
  5
24E
100
AcDbEntity
  8
SMUSSO
100
AcDbLine
 62
7
  6
CONTINUOUS
 10
-21.5840352108
 20
-3.6127449342
 11
-21.5840352108
 21
12.3045457121
  0
LINE
  5
24F
100
AcDbEntity
  8
DRAFT
100
AcDbLine
 62
7
  6
CONTINUOUS
 10
-21.5840352108
 20
12.3045457121
 11
-21.5840352108
 21
17.5439025161
  0
LINE
  5
250
100
AcDbEntity
  8
SMUSSO
100
AcDbLine
 62
7
  6
CONTINUOUS
 10
-21.5753090075
 20
-3.6127449342
 11
-21.5753090075
 21
-7.0232159009
  0
LINE
  5
251
100
AcDbEntity
  8
SMUSSO
100
AcDbLine
 62
7
  6
CONTINUOUS
 10
-21.5753090075
 20
-36.1127449342
 11
-21.5753090075
 21
-39.5232159009
  0
LINE
  5
252
100
AcDbEntity
  8
RACCORDO
100
AcDbLine
 62
7
  6
CONTINUOUS
 10
-21.5561071069
 20
8.3727744915
 11
-21.5561071069
 21
-3.3179804175
  0
LINE
  5
253
100
AcDbEntity
  8
RACCORDO
100
AcDbLine
 62
7
  6
CONTINUOUS
 10
-21.5561071069
 20
-7.3179804175
 11
-21.5561071069
 21
-19.0087353265
  0
LINE
  5
254
100
AcDbEntity
  8
RACCORDO
100
AcDbLine
 62
7
  6
CONTINUOUS
 10
-21.5561071069
 20
-24.1272255085
 11
-21.5561071069
 21
-35.8179804175
  0
LINE
  5
255
100
AcDbEntity
  8
RACCORDO
100
AcDbLine
 62
7
  6
CONTINUOUS
 10
-21.5561071069
 20
-39.8179804175
 11
-21.5561071069
 21
-51.5087353265
  0
LINE
  5
256
100
AcDbEntity
  8
SMUSSO
100
AcDbLine
 62
7
  6
CONTINUOUS
 10
-21.5753090075
 20
-3.6127449342
 11
-21.5561071069
 21
-3.3179804175
  0
LINE
  5
257
100
AcDbEntity
  8
RACCORDO
100
AcDbLine
 62
7
  6
CONTINUOUS
 10
-8.8040140432
 20
22.5988563257
 11
-9.0480648021
 21
22.1107176322
  0
LINE
  5
258
100
AcDbEntity
  8
RACCORDO
100
AcDbLine
 62
7
  6
CONTINUOUS
 10
-21.0420142993
 20
10.116768135
 11
-21.5301529929
 21
9.8727173761
  0
LINE
  5
259
100
AcDbEntity
  8
RACCORDO
100
AcDbLine
 62
253
  6
CONTINUOUS
 10
-15.2164438146
 20
16.5525419327
 11
-14.7484126089
 21
16.7284048121
  0
LINE
  5
25A
100
AcDbEntity
  8
SMUSSO
100
AcDbLine
 62
7
  6
CONTINUOUS
 10
40.5919192337
 20
-65.7799731754
 11
40.8866837504
 21
-65.7607712748
  0
LINE
  5
25B
100
AcDbEntity
  8
DRAFT
100
AcDbLine
 62
7
  6
CONTINUOUS
 10
35.49141414
 20
-68.3460108401
 11
33.1715187181
 21
-68.3460108401
  0
LINE
  5
25C
100
AcDbEntity
  8
DRAFT
100
AcDbLine
 62
7
  6
CONTINUOUS
 10
12.1018487827
 20
-68.3460108401
 11
9.7819533608
 21
-68.3460108401
  0
LINE
  5
25D
100
AcDbEntity
  8
DRAFT
100
AcDbLine
 62
7
  6
CONTINUOUS
 10
35.9366837504
 20
-68.2412804506
 11
35.49141414
 21
-68.2412804506
  0
LINE
  5
25E
100
AcDbEntity
  8
DRAFT
100
AcDbLine
 62
7
  6
CONTINUOUS
 10
9.7819533608
 20
-68.2412804506
 11
9.3366837504
 21
-68.2412804506
  0
LINE
  5
25F
100
AcDbEntity
  8
RACCORDO
100
AcDbLine
 62
7
  6
CONTINUOUS
 10
9.2319533608
 20
-67.7163484694
 11
36.04141414
 21
-67.7163484694
  0
LINE
  5
260
100
AcDbEntity
  8
DRAFT
100
AcDbLine
 62
7
  6
CONTINUOUS
 10
36.1897821918
 20
-67.5679804175
 11
9.0835853089
 21
-67.5679804175
  0
LINE
  5
261
100
AcDbEntity
  8
SMUSSO
100
AcDbLine
 62
7
  6
CONTINUOUS
 10
4.8154024583
 20
-66.2886993787
 11
7.9579650425
 21
-66.2886993787
  0
LINE
  5
262
100
AcDbEntity
  8
SMUSSO
100
AcDbLine
 62
7
  6
CONTINUOUS
 10
37.3154024583
 20
-66.2886993787
 11
40.4579650425
 21
-66.2886993787
  0
LINE
  5
263
100
AcDbEntity
  8
DRAFT
100
AcDbLine
 62
7
  6
CONTINUOUS
 10
61.748566684
 20
-65.7886993787
 11
56.50920988
 21
-65.7886993787
  0
LINE
  5
264
100
AcDbEntity
  8
SMUSSO
100
AcDbLine
 62
7
  6
CONTINUOUS
 10
56.50920988
 20
-65.7886993787
 11
40.5919192337
 21
-65.7886993787
  0
LINE
  5
265
100
AcDbEntity
  8
SMUSSO
100
AcDbLine
 62
7
  6
CONTINUOUS
 10
37.181448267
 20
-65.7886993787
 11
8.0919192337
 21
-65.7886993787
  0
LINE
  5
266
100
AcDbEntity
  8
SMUSSO
100
AcDbLine
 62
7
  6
CONTINUOUS
 10
4.681448267
 20
-65.7886993787
 11
-11.2358423793
 21
-65.7886993787
  0
LINE
  5
267
100
AcDbEntity
  8
DRAFT
100
AcDbLine
 62
7
  6
CONTINUOUS
 10
-11.2358423793
 20
-65.7886993787
 11
-16.4751991832
 21
-65.7886993787
  0
LINE
  5
268
100
AcDbEntity
  8
SMUSSO
100
AcDbLine
 62
7
  6
CONTINUOUS
 10
4.681448267
 20
-65.7799731754
 11
8.0919192337
 21
-65.7799731754
  0
LINE
  5
269
100
AcDbEntity
  8
SMUSSO
100
AcDbLine
 62
7
  6
CONTINUOUS
 10
37.181448267
 20
-65.7799731754
 11
40.5919192337
 21
-65.7799731754
  0
LINE
  5
26A
100
AcDbEntity
  8
RACCORDO
100
AcDbLine
 62
7
  6
CONTINUOUS
 10
52.5774386594
 20
-65.7607712748
 11
40.8866837504
 21
-65.7607712748
  0
LINE
  5
26B
100
AcDbEntity
  8
RACCORDO
100
AcDbLine
 62
7
  6
CONTINUOUS
 10
36.8866837504
 20
-65.7607712748
 11
25.1959288413
 21
-65.7607712748
  0
LINE
  5
26C
100
AcDbEntity
  8
RACCORDO
100
AcDbLine
 62
7
  6
CONTINUOUS
 10
20.0774386594
 20
-65.7607712748
 11
8.3866837504
 21
-65.7607712748
  0
LINE
  5
26D
100
AcDbEntity
  8
RACCORDO
100
AcDbLine
 62
7
  6
CONTINUOUS
 10
4.3866837504
 20
-65.7607712748
 11
-7.3040711587
 21
-65.7607712748
  0
LINE
  5
26E
100
AcDbEntity
  8
SMUSSO
100
AcDbLine
 62
7
  6
CONTINUOUS
 10
4.681448267
 20
-65.7799731754
 11
4.3866837504
 21
-65.7607712748
  0
LINE
  5
26F
100
AcDbEntity
  8
RACCORDO
100
AcDbLine
 62
7
  6
CONTINUOUS
 10
-21.0420142993
 20
-53.25272897
 11
-21.5301529929
 21
-53.0086782111
  0
LINE
  5
270
100
AcDbEntity
  8
RACCORDO
100
AcDbLine
 62
7
  6
CONTINUOUS
 10
-8.8040140432
 20
-65.7348171607
 11
-9.0480648021
 21
-65.2466784672
  0
LINE
  5
271
100
AcDbEntity
  8
RACCORDO
100
AcDbLine
 62
253
  6
CONTINUOUS
 10
-15.4838385999
 20
-59.4211079825
 11
-15.6597014793
 21
-58.9530767768
  0
LINE
  5
272
100
AcDbEntity
  8
SMUSSO
100
AcDbLine
 62
7
  6
CONTINUOUS
 10
-21.5753090075
 20
-7.0232159009
 11
-21.5561071069
 21
-7.3179804175
  0
LINE
  5
273
100
AcDbEntity
  8
RACCORDO
100
AcDbLine
 62
7
  6
CONTINUOUS
 10
-21.042928198
 20
-60.4557294877
 11
-21.042928198
 21
-56.5575046292
  0
LINE
  5
274
100
AcDbEntity
  8
RACCORDO
100
AcDbLine
 62
7
  6
CONTINUOUS
 10
-21.042928198
 20
13.4215437942
 11
-21.042928198
 21
17.3197686527
  0
LINE
  5
275
100
AcDbEntity
  8
RACCORDO
100
AcDbLine
 62
253
  6
CONTINUOUS
 10
-21.0420142993
 20
13.4210868797
 11
-21.0420142993
 21
11.7625248007
  0
LINE
  5
276
100
AcDbEntity
  8
RACCORDO
100
AcDbLine
 62
253
  6
CONTINUOUS
 10
-21.0420142993
 20
10.116768135
 11
-21.0420142993
 21
-20.75272897
  0
LINE
  5
277
100
AcDbEntity
  8
RACCORDO
100
AcDbLine
 62
253
  6
CONTINUOUS
 10
-21.0420142993
 20
-22.383231865
 11
-21.0420142993
 21
-53.25272897
  0
LINE
  5
278
100
AcDbEntity
  8
RACCORDO
100
AcDbLine
 62
253
  6
CONTINUOUS
 10
-21.0420142993
 20
-54.8984856357
 11
-21.0420142993
 21
-56.5570477147
  0
LINE
  5
279
100
AcDbEntity
  8
RACCORDO
100
AcDbLine
 62
7
  6
CONTINUOUS
 10
-20.8633162496
 20
-54.8984856357
 11
-20.8633162496
 21
-53.25272897
  0
LINE
  5
27A
100
AcDbEntity
  8
RACCORDO
100
AcDbLine
 62
7
  6
CONTINUOUS
 10
-20.8633162496
 20
-22.383231865
 11
-20.8633162496
 21
-20.75272897
  0
LINE
  5
27B
100
AcDbEntity
  8
RACCORDO
100
AcDbLine
 62
7
  6
CONTINUOUS
 10
-20.8633162496
 20
10.116768135
 11
-20.8633162496
 21
11.7625248007
  0
LINE
  5
27C
100
AcDbEntity
  8
RACCORDO
100
AcDbLine
 62
7
  6
CONTINUOUS
 10
-20.4424712139
 20
-54.8679804175
 11
-20.4424712139
 21
-53.2679804175
  0
LINE
  5
27D
100
AcDbEntity
  8
RACCORDO
100
AcDbLine
 62
7
  6
CONTINUOUS
 10
-20.4424712139
 20
-22.3679804175
 11
-20.4424712139
 21
-20.7679804175
  0
LINE
  5
27E
100
AcDbEntity
  8
RACCORDO
100
AcDbLine
 62
7
  6
CONTINUOUS
 10
-20.4424712139
 20
10.1320195825
 11
-20.4424712139
 21
11.7320195825
  0
LINE
  5
27F
100
AcDbEntity
  8
DRAFT
100
AcDbLine
 62
7
  6
CONTINUOUS
 10
-19.8338491511
 20
-59.959081732
 11
-19.8338491511
 21
-57.057447516
  0
LINE
  5
280
100
AcDbEntity
  8
DRAFT
100
AcDbLine
 62
7
  6
CONTINUOUS
 10
-19.8338491511
 20
13.921486681
 11
-19.8338491511
 21
16.823120897
  0
LINE
  5
281
100
AcDbEntity
  8
DRAFT
100
AcDbLine
 62
7
  6
CONTINUOUS
 10
-19.5633162496
 20
-59.8470233351
 11
-19.5633162496
 21
-57.3279804175
  0
LINE
  5
282
100
AcDbEntity
  8
DRAFT
100
AcDbLine
 62
7
  6
CONTINUOUS
 10
-19.5633162496
 20
14.1920195825
 11
-19.5633162496
 21
16.7110625001
  0
LINE
  5
283
100
AcDbEntity
  8
RACCORDO
100
AcDbLine
 62
253
  6
CONTINUOUS
 10
-18.0424712139
 20
-57.0355922689
 11
-18.0424712139
 21
13.8996314338
  0
LINE
  5
284
100
AcDbEntity
  8
DRAFT
100
AcDbLine
 62
7
  6
CONTINUOUS
 10
-16.8603755882
 20
19.4140031615
 11
-16.8603755882
 21
19.7965944599
  0
LINE
  5
285
100
AcDbEntity
  8
DRAFT
100
AcDbLine
 62
7
  6
CONTINUOUS
 10
-16.8603755882
 20
-62.5499639966
 11
-16.8603755882
 21
-62.932555295
  0
LINE
  5
286
100
AcDbEntity
  8
SMUSSO
100
AcDbLine
 62
7
  6
CONTINUOUS
 10
-21.5753090075
 20
-36.1127449342
 11
-21.5561071069
 21
-35.8179804175
  0
LINE
  5
287
100
AcDbEntity
  8
DRAFT
100
AcDbLine
 62
7
  6
CONTINUOUS
 10
9.2319533608
 20
24.5803876344
 11
9.0835853089
 21
24.4320195825
  0
LINE
  5
288
100
AcDbEntity
  8
SMUSSO
100
AcDbLine
 62
7
  6
CONTINUOUS
 10
8.0919192337
 20
-65.7799731754
 11
8.3866837504
 21
-65.7607712748
  0
LINE
  5
289
100
AcDbEntity
  8
RACCORDO
100
AcDbLine
 62
7
  6
CONTINUOUS
 10
61.5244328206
 20
-65.2475923659
 11
57.6262079621
 21
-65.2475923659
  0
LINE
  5
28A
100
AcDbEntity
  8
RACCORDO
100
AcDbLine
 62
7
  6
CONTINUOUS
 10
-12.3528404613
 20
-65.2475923659
 11
-16.2510653198
 21
-65.2475923659
  0
LINE
  5
28B
100
AcDbEntity
  8
RACCORDO
100
AcDbLine
 62
253
  6
CONTINUOUS
 10
-12.3523835468
 20
-65.2466784672
 11
-10.6938214678
 21
-65.2466784672
  0
LINE
  5
28C
100
AcDbEntity
  8
RACCORDO
100
AcDbLine
 62
253
  6
CONTINUOUS
 10
-9.0480648021
 20
-65.2466784672
 11
21.8214323029
 21
-65.2466784672
  0
LINE
  5
28D
100
AcDbEntity
  8
RACCORDO
100
AcDbLine
 62
253
  6
CONTINUOUS
 10
23.4519351979
 20
-65.2466784672
 11
54.3214323029
 21
-65.2466784672
  0
LINE
  5
28E
100
AcDbEntity
  8
RACCORDO
100
AcDbLine
 62
253
  6
CONTINUOUS
 10
55.9671889686
 20
-65.2466784672
 11
57.6257510476
 21
-65.2466784672
  0
LINE
  5
28F
100
AcDbEntity
  8
RACCORDO
100
AcDbLine
 62
7
  6
CONTINUOUS
 10
55.9366837504
 20
-64.6471353818
 11
54.3366837504
 21
-64.6471353818
  0
LINE
  5
290
100
AcDbEntity
  8
RACCORDO
100
AcDbLine
 62
7
  6
CONTINUOUS
 10
23.4366837504
 20
-64.6471353818
 11
21.8366837504
 21
-64.6471353818
  0
LINE
  5
291
100
AcDbEntity
  8
RACCORDO
100
AcDbLine
 62
7
  6
CONTINUOUS
 10
-9.0633162496
 20
-64.6471353818
 11
-10.6633162496
 21
-64.6471353818
  0
LINE
  5
292
100
AcDbEntity
  8
DRAFT
100
AcDbLine
 62
7
  6
CONTINUOUS
 10
61.0277850649
 20
-64.038513319
 11
58.1261508489
 21
-64.038513319
  0
LINE
  5
293
100
AcDbEntity
  8
DRAFT
100
AcDbLine
 62
7
  6
CONTINUOUS
 10
-12.8527833481
 20
-64.038513319
 11
-15.7544175641
 21
-64.038513319
  0
LINE
  5
294
100
AcDbEntity
  8
DRAFT
100
AcDbLine
 62
7
  6
CONTINUOUS
 10
60.915726668
 20
-63.7679804175
 11
58.3966837504
 21
-63.7679804175
  0
LINE
  5
295
100
AcDbEntity
  8
DRAFT
100
AcDbLine
 62
7
  6
CONTINUOUS
 10
-13.1233162496
 20
-63.7679804175
 11
-15.6423591673
 21
-63.7679804175
  0
LINE
  5
296
100
AcDbEntity
  8
RACCORDO
100
AcDbLine
 62
253
  6
CONTINUOUS
 10
58.1042956017
 20
-62.2471353818
 11
-12.830928101
 21
-62.2471353818
  0
LINE
  5
297
100
AcDbEntity
  8
DRAFT
100
AcDbLine
 62
7
  6
CONTINUOUS
 10
-18.3452998287
 20
-61.0650397561
 11
-18.7278911271
 21
-61.0650397561
  0
LINE
  5
298
100
AcDbEntity
  8
DRAFT
100
AcDbLine
 62
7
  6
CONTINUOUS
 10
63.6186673294
 20
-61.0650397561
 11
64.0012586278
 21
-61.0650397561
  0
LINE
  5
299
100
AcDbEntity
  8
SMUSSO
100
AcDbLine
 62
7
  6
CONTINUOUS
 10
37.181448267
 20
-65.7799731754
 11
36.8866837504
 21
-65.7607712748
  0
LINE
  5
29A
100
AcDbEntity
  8
DRAFT
100
AcDbLine
 62
7
  6
CONTINUOUS
 10
9.0835853089
 20
-67.5679804175
 11
9.2319533608
 21
-67.7163484694
  0
LINE
  5
29B
100
AcDbEntity
  8
DRAFT
100
AcDbLine
 62
7
  6
CONTINUOUS
 10
-13.1233162496
 20
20.6320195825
 11
-13.1233162496
 21
18.7670004568
  0
LINE
  5
29C
100
AcDbEntity
  8
DRAFT
100
AcDbLine
 62
7
  6
CONTINUOUS
 10
-13.1233162496
 20
-61.9029612918
 11
-13.1233162496
 21
-63.7679804175
  0
LINE
  5
29D
100
AcDbEntity
  8
RACCORDO
100
AcDbLine
 62
7
  6
CONTINUOUS
 10
-12.8527833481
 20
-64.747592363
 11
-12.8527833481
 21
-64.038513319
  0
LINE
  5
29E
100
AcDbEntity
  8
RACCORDO
100
AcDbLine
 62
7
  6
CONTINUOUS
 10
-12.8527833481
 20
20.902552484
 11
-12.8527833481
 21
21.611631528
  0
LINE
  5
29F
100
AcDbEntity
  8
RACCORDO
100
AcDbLine
 62
7
  6
CONTINUOUS
 10
-12.830928101
 20
-62.2471353818
 11
-12.830928101
 21
-61.7818501551
  0
LINE
  5
2A0
100
AcDbEntity
  8
RACCORDO
100
AcDbLine
 62
7
  6
CONTINUOUS
 10
-12.830928101
 20
18.6458893201
 11
-12.830928101
 21
19.1111745467
  0
LINE
  5
2A1
100
AcDbEntity
  8
RACCORDO
100
AcDbLine
 62
253
  6
CONTINUOUS
 10
-12.3309471394
 20
-62.2471353818
 11
-12.3309471394
 21
-61.5747512599
  0
LINE
  5
2A2
100
AcDbEntity
  8
RACCORDO
100
AcDbLine
 62
253
  6
CONTINUOUS
 10
-12.3309471394
 20
18.4387904249
 11
-12.3309471394
 21
19.1111745467
  0
LINE
  5
2A3
100
AcDbEntity
  8
DRAFT
100
AcDbLine
 62
7
  6
CONTINUOUS
 10
-19.5633162496
 20
-57.3279804175
 11
-17.6982971239
 21
-57.3279804175
  0
LINE
  5
2A4
100
AcDbEntity
  8
DRAFT
100
AcDbLine
 62
7
  6
CONTINUOUS
 10
62.9716646247
 20
-57.3279804175
 11
64.8366837504
 21
-57.3279804175
  0
LINE
  5
2A5
100
AcDbEntity
  8
RACCORDO
100
AcDbLine
 62
7
  6
CONTINUOUS
 10
65.8162956959
 20
-57.057447516
 11
65.1072166519
 21
-57.057447516
  0
LINE
  5
2A6
100
AcDbEntity
  8
RACCORDO
100
AcDbLine
 62
7
  6
CONTINUOUS
 10
-19.8338491511
 20
-57.057447516
 11
-20.5429281951
 21
-57.057447516
  0
LINE
  5
2A7
100
AcDbEntity
  8
RACCORDO
100
AcDbLine
 62
7
  6
CONTINUOUS
 10
63.3158387146
 20
-57.0355922689
 11
62.850553488
 21
-57.0355922689
  0
LINE
  5
2A8
100
AcDbEntity
  8
RACCORDO
100
AcDbLine
 62
7
  6
CONTINUOUS
 10
-17.5771859872
 20
-57.0355922689
 11
-18.0424712139
 21
-57.0355922689
  0
LINE
  5
2A9
100
AcDbEntity
  8
RACCORDO
100
AcDbLine
 62
253
  6
CONTINUOUS
 10
63.3158387146
 20
-56.5356113073
 11
62.6434545928
 21
-56.5356113073
  0
LINE
  5
2AA
100
AcDbEntity
  8
RACCORDO
100
AcDbLine
 62
253
  6
CONTINUOUS
 10
-17.3700870921
 20
-56.5356113073
 11
-18.0424712139
 21
-56.5356113073
  0
LINE
  5
2AB
100
AcDbEntity
  8
ASSI
100
AcDbLine
 62
7
  6
CONTINUOUS
 10
38.6366837504
 20
-55.0679804175
 11
38.5366837504
 21
-55.0679804175
  0
LINE
  5
2AC
100
AcDbEntity
  8
RACCORDO
100
AcDbLine
 62
253
  6
CONTINUOUS
 10
-8.3633162496
 20
30.3795020597
 11
-8.3633162496
 21
31.4320195825
  0
LINE
  5
2AD
100
AcDbEntity
  8
RACCORDO
100
AcDbLine
 62
253
  6
CONTINUOUS
 10
-8.3633162496
 20
-73.5154628947
 11
-8.3633162496
 21
-74.5679804175
  0
LINE
  5
2AE
100
AcDbEntity
  8
SMUSSO
100
AcDbLine
 62
7
  6
CONTINUOUS
 10
4.681448267
 20
22.6440123404
 11
4.8154024583
 21
23.1527385436
  0
LINE
  5
2AF
100
AcDbEntity
  8
DRAFT
100
AcDbLine
 62
7
  6
CONTINUOUS
 10
0.6366837504
 20
15.9016886745
 11
0.3628116583
 21
14.879584112
  0
LINE
  5
2B0
100
AcDbEntity
  8
DRAFT
100
AcDbLine
 62
7
  6
CONTINUOUS
 10
0.8698783791
 20
16.0907077388
 11
0.5008674828
 21
14.7135403251
  0
LINE
  5
2B1
100
AcDbEntity
  8
DRAFT
100
AcDbLine
 62
7
  6
CONTINUOUS
 10
0.8866837504
 20
12.9111701492
 11
0.6130721775
 21
11.8900378578
  0
LINE
  5
2B2
100
AcDbEntity
  8
DRAFT
100
AcDbLine
 62
7
  6
CONTINUOUS
 10
1.1194423625
 20
13.0985619773
 11
0.7510843339
 21
11.7238310991
  0
LINE
  5
2B3
100
AcDbEntity
  8
DRAFT
100
AcDbLine
 62
7
  6
CONTINUOUS
 10
1.1366837504
 20
9.9201080642
 11
0.863481106
 21
8.9005019144
  0
LINE
  5
2B4
100
AcDbEntity
  8
DRAFT
100
AcDbLine
 62
7
  6
CONTINUOUS
 10
1.3224671265
 20
10.0684409525
 11
0.9738697288
 21
8.7674577531
  0
LINE
  5
2B5
100
AcDbEntity
  8
DRAFT
100
AcDbLine
 62
7
  6
CONTINUOUS
 10
-19.5807545284
 20
-61.9179031574
 11
-19.7720793172
 21
-62.4918192446
  0
LINE
  5
2B6
100
AcDbEntity
  8
DRAFT
100
AcDbLine
 62
7
  6
CONTINUOUS
 10
62.9866064902
 20
20.6494578612
 11
63.5605225775
 21
20.8407826501
  0
LINE
  5
2B7
100
AcDbEntity
  8
DRAFT
100
AcDbLine
 62
7
  6
CONTINUOUS
 10
59.0842482799
 20
-43.8418525096
 11
60.1063528424
 21
-43.5679804175
  0
LINE
  5
2B8
100
AcDbEntity
  8
DRAFT
100
AcDbLine
 62
7
  6
CONTINUOUS
 10
58.918204493
 20
-43.7037966851
 11
60.2953719067
 21
-43.3347857888
  0
LINE
  5
2B9
100
AcDbEntity
  8
DRAFT
100
AcDbLine
 62
7
  6
CONTINUOUS
 10
56.0947020257
 20
-43.5915919904
 11
57.1158343171
 21
-43.3179804175
  0
LINE
  5
2BA
100
AcDbEntity
  8
DRAFT
100
AcDbLine
 62
7
  6
CONTINUOUS
 10
55.928495267
 20
-43.453579834
 11
57.3032261452
 21
-43.0852218054
  0
LINE
  5
2BB
100
AcDbEntity
  8
DRAFT
100
AcDbLine
 62
7
  6
CONTINUOUS
 10
53.1051660823
 20
-43.3411830619
 11
54.1247722321
 21
-43.0679804175
  0
LINE
  5
2BC
100
AcDbEntity
  8
DRAFT
100
AcDbLine
 62
7
  6
CONTINUOUS
 10
52.972121921
 20
-43.2307944391
 11
54.2731051204
 21
-42.8821970414
  0
LINE
  5
2BD
100
AcDbEntity
  8
SMUSSO
100
AcDbLine
 62
7
  6
CONTINUOUS
 10
67.3574027115
 20
-39.3892617096
 11
66.8486765083
 21
-39.5232159009
  0
LINE
  5
2BE
100
AcDbEntity
  8
0
100
AcDbLine
 62
7
  6
CONTINUOUS
 10
26.1366837504
 20
-54.0179804175
 11
23.6366837504
 21
-54.0179804175
  0
LINE
  5
2BF
100
AcDbEntity
  8
0
100
AcDbLine
 62
7
  6
CONTINUOUS
 10
21.6366837504
 20
-54.0179804175
 11
19.1366837504
 21
-54.0179804175
  0
LINE
  5
2C0
100
AcDbEntity
  8
RACCORDO
100
AcDbLine
 62
253
  6
CONTINUOUS
 10
-29.3107987268
 20
-52.5679804175
 11
-30.3633162496
 21
-52.5679804175
  0
LINE
  5
2C1
100
AcDbEntity
  8
RACCORDO
100
AcDbLine
 62
253
  6
CONTINUOUS
 10
74.5841662276
 20
-52.5679804175
 11
75.6366837504
 21
-52.5679804175
  0
LINE
  5
2C2
100
AcDbEntity
  8
SMUSSO
100
AcDbLine
 62
7
  6
CONTINUOUS
 10
-21.5753090075
 20
-39.5232159009
 11
-22.0840352108
 21
-39.3892617096
  0
LINE
  5
2C3
100
AcDbEntity
  8
DRAFT
100
AcDbLine
 62
7
  6
CONTINUOUS
 10
62.9866064902
 20
-63.7854186962
 11
63.5605225775
 21
-63.9767434851
  0
LINE
  5
2C4
100
AcDbEntity
  8
DRAFT
100
AcDbLine
 62
7
  6
CONTINUOUS
 10
-19.5807545284
 20
18.7819423223
 11
-19.7720793172
 21
19.3558584096
  0
LINE
  5
2C5
100
AcDbEntity
  8
SMUSSO
100
AcDbLine
 62
7
  6
CONTINUOUS
 10
4.8154024583
 20
-66.2886993787
 11
4.681448267
 21
-65.7799731754
  0
LINE
  5
2C6
100
AcDbEntity
  8
RACCORDO
100
AcDbLine
 62
7
  6
CONTINUOUS
 10
9.6281085344
 20
29.7406706427
 11
9.5319533608
 21
29.2587195494
  0
LINE
  5
2C7
100
AcDbEntity
  8
DRAFT
100
AcDbLine
 62
7
  6
CONTINUOUS
 10
9.3366837504
 20
25.1053196155
 11
9.2319533608
 21
24.5803876344
  0
LINE
  5
2C8
100
AcDbEntity
  8
DRAFT
100
AcDbLine
 62
7
  6
CONTINUOUS
 10
1.9509003743
 20
-11.2044017875
 11
2.2994977719
 21
-9.9034185881
  0
LINE
  5
2C9
100
AcDbEntity
  8
DRAFT
100
AcDbLine
 62
7
  6
CONTINUOUS
 10
2.1366837504
 20
-11.0560688992
 11
2.4098863948
 21
-10.0364627495
  0
LINE
  5
2CA
100
AcDbEntity
  8
DRAFT
100
AcDbLine
 62
7
  6
CONTINUOUS
 10
2.1539251383
 20
-14.2345228124
 11
2.5222831669
 21
-12.8597919341
  0
LINE
  5
2CB
100
AcDbEntity
  8
DRAFT
100
AcDbLine
 62
7
  6
CONTINUOUS
 10
2.3866837504
 20
-14.0471309842
 11
2.6602953232
 21
-13.0259986928
  0
LINE
  5
2CC
100
AcDbEntity
  8
DRAFT
100
AcDbLine
 62
7
  6
CONTINUOUS
 10
11.8726704221
 20
24.5803876344
 11
13.7665036014
 21
29.7836515306
  0
LINE
  5
2CD
100
AcDbEntity
  8
DRAFT
100
AcDbLine
 62
7
  6
CONTINUOUS
 10
14.3664605074
 20
31.4320195825
 11
14.5484456245
 21
31.9320195825
  0
LINE
  5
2CE
100
AcDbEntity
  8
RACCORDO
100
AcDbLine
 62
7
  6
CONTINUOUS
 10
-17.6982971239
 20
-57.3279804175
 11
-17.5771859872
 21
-57.0355922689
  0
LINE
  5
2CF
100
AcDbEntity
  8
DRAFT
100
AcDbLine
 62
7
  6
CONTINUOUS
 10
36.1897821918
 20
29.9320195825
 11
36.04141414
 21
29.7836515306
  0
LINE
  5
2D0
100
AcDbEntity
  8
RACCORDO
100
AcDbLine
 62
7
  6
CONTINUOUS
 10
58.3966837504
 20
18.7670004568
 11
58.1042956017
 21
18.6458893201
  0
LINE
  5
2D1
100
AcDbEntity
  8
DRAFT
100
AcDbLine
 62
7
  6
CONTINUOUS
 10
34.3012455798
 20
-41.905166396
 11
33.0002623804
 21
-42.2537637936
  0
LINE
  5
2D2
100
AcDbEntity
  8
DRAFT
100
AcDbLine
 62
7
  6
CONTINUOUS
 10
34.1682014184
 20
-41.7947777731
 11
33.1485952687
 21
-42.0679804175
  0
LINE
  5
2D3
100
AcDbEntity
  8
DRAFT
100
AcDbLine
 62
7
  6
CONTINUOUS
 10
31.3448722338
 20
-41.682381001
 11
29.9701413555
 21
-42.0507390296
  0
LINE
  5
2D4
100
AcDbEntity
  8
DRAFT
100
AcDbLine
 62
7
  6
CONTINUOUS
 10
31.1786654751
 20
-41.5443688447
 11
30.1575331837
 21
-41.8179804175
  0
LINE
  5
2D5
100
AcDbEntity
  8
DRAFT
100
AcDbLine
 62
7
  6
CONTINUOUS
 10
19.1366837504
 20
-46.0389264954
 11
21.6366837504
 21
-46.0389264954
  0
LINE
  5
2D6
100
AcDbEntity
  8
DRAFT
100
AcDbLine
 62
7
  6
CONTINUOUS
 10
23.6366837504
 20
-46.0389264954
 11
26.1366837504
 21
-46.0389264954
  0
LINE
  5
2D7
100
AcDbEntity
  8
RACCORDO
100
AcDbLine
 62
7
  6
CONTINUOUS
 10
58.3966837504
 20
-61.9029612918
 11
58.1042956017
 21
-61.7818501551
  0
LINE
  5
2D8
100
AcDbEntity
  8
DRAFT
100
AcDbLine
 62
7
  6
CONTINUOUS
 10
36.04141414
 20
-72.9196123656
 11
36.1897821918
 21
-73.0679804175
  0
LINE
  5
2D9
100
AcDbEntity
  8
RACCORDO
100
AcDbLine
 62
7
  6
CONTINUOUS
 10
-17.6982971239
 20
14.1920195825
 11
-17.5771859872
 21
13.8996314338
  0
LINE
  5
2DA
100
AcDbEntity
  8
DRAFT
100
AcDbLine
 62
7
  6
CONTINUOUS
 10
11.8726704221
 20
-67.7163484694
 11
13.7665036014
 21
-72.9196123656
  0
LINE
  5
2DB
100
AcDbEntity
  8
DRAFT
100
AcDbLine
 62
7
  6
CONTINUOUS
 10
14.3664605074
 20
-74.5679804175
 11
14.5484456245
 21
-75.0679804175
  0
LINE
  5
2DC
100
AcDbEntity
  8
RACCORDO
100
AcDbLine
 62
7
  6
CONTINUOUS
 10
9.5319533608
 20
-72.3946803845
 11
9.6281085344
 21
-72.8766314777
  0
LINE
  5
2DD
100
AcDbEntity
  8
DRAFT
100
AcDbLine
 62
7
  6
CONTINUOUS
 10
9.2319533608
 20
-67.7163484694
 11
9.3366837504
 21
-68.2412804506
  0
LINE
  5
2DE
100
AcDbEntity
  8
ASSI
100
AcDbLine
 62
7
  6
CONTINUOUS
 10
6.6366837504
 20
7.5085017124
 11
6.6366837504
 21
8.6600742044
  0
LINE
  5
2DF
100
AcDbEntity
  8
ASSI
100
AcDbLine
 62
7
  6
CONTINUOUS
 10
6.6366837504
 20
10.8828854778
 11
6.6366837504
 21
11.9320195825
  0
LINE
  5
2E0
100
AcDbEntity
  8
DRAFT
100
AcDbLine
 62
7
  6
CONTINUOUS
 10
2.4034891216
 20
-17.2266685739
 11
2.772500018
 21
-15.8495011602
  0
LINE
  5
2E1
100
AcDbEntity
  8
DRAFT
100
AcDbLine
 62
7
  6
CONTINUOUS
 10
2.6366837504
 20
-17.0376495095
 11
2.9105558425
 21
-16.015544947
  0
LINE
  5
2E2
100
AcDbEntity
  8
DRAFT
100
AcDbLine
 62
7
  6
CONTINUOUS
 10
-15.6423591673
 20
-63.7679804175
 11
-15.7544175641
 21
-64.038513319
  0
LINE
  5
2E3
100
AcDbEntity
  8
DRAFT
100
AcDbLine
 62
7
  6
CONTINUOUS
 10
-16.4751991832
 20
-65.7886993787
 11
-16.2510653198
 21
-65.2475923659
  0
LINE
  5
2E4
100
AcDbEntity
  8
RACCORDO
100
AcDbLine
 62
7
  6
CONTINUOUS
 10
23.6959859568
 20
22.5988563257
 11
23.4519351979
 21
22.1107176322
  0
LINE
  5
2E5
100
AcDbEntity
  8
RACCORDO
100
AcDbLine
 62
7
  6
CONTINUOUS
 10
-21.0420142993
 20
-22.383231865
 11
-21.5301529929
 21
-22.6272826239
  0
LINE
  5
2E6
100
AcDbEntity
  8
DRAFT
100
AcDbLine
 62
7
  6
CONTINUOUS
 10
64.8366837504
 20
16.7110625001
 11
65.1072166519
 21
16.823120897
  0
LINE
  5
2E7
100
AcDbEntity
  8
DRAFT
100
AcDbLine
 62
7
  6
CONTINUOUS
 10
66.8574027115
 20
17.5439025161
 11
66.3162956988
 21
17.3197686527
  0
LINE
  5
2E8
100
AcDbEntity
  8
DRAFT
100
AcDbLine
 62
7
  6
CONTINUOUS
 10
28.3551630077
 20
-41.4321641499
 11
26.977995594
 21
-41.8011750462
  0
LINE
  5
2E9
100
AcDbEntity
  8
DRAFT
100
AcDbLine
 62
7
  6
CONTINUOUS
 10
28.1891192209
 20
-41.2941083254
 11
27.1670146584
 21
-41.5679804175
  0
LINE
  5
2EA
100
AcDbEntity
  8
DRAFT
100
AcDbLine
 62
7
  6
CONTINUOUS
 10
27.1670146584
 20
-43.5679804175
 11
28.1891192209
 21
-43.8418525096
  0
LINE
  5
2EB
100
AcDbEntity
  8
DRAFT
100
AcDbLine
 62
7
  6
CONTINUOUS
 10
26.977995594
 20
-43.3347857888
 11
28.3551630077
 21
-43.7037966851
  0
LINE
  5
2EC
100
AcDbEntity
  8
DRAFT
100
AcDbLine
 62
7
  6
CONTINUOUS
 10
30.1575331837
 20
-43.3179804175
 11
31.1786654751
 21
-43.5915919904
  0
LINE
  5
2ED
100
AcDbEntity
  8
DRAFT
100
AcDbLine
 62
7
  6
CONTINUOUS
 10
29.9701413555
 20
-43.0852218054
 11
31.3448722338
 21
-43.453579834
  0
LINE
  5
2EE
100
AcDbEntity
  8
DRAFT
100
AcDbLine
 62
7
  6
CONTINUOUS
 10
33.1485952687
 20
-43.0679804175
 11
34.1682014184
 21
-43.3411830619
  0
LINE
  5
2EF
100
AcDbEntity
  8
DRAFT
100
AcDbLine
 62
7
  6
CONTINUOUS
 10
33.0002623804
 20
-42.8821970414
 11
34.3012455798
 21
-43.2307944391
  0
LINE
  5
2F0
100
AcDbEntity
  8
DRAFT
100
AcDbLine
 62
7
  6
CONTINUOUS
 10
64.8366837504
 20
-59.8470233351
 11
65.1072166519
 21
-59.959081732
  0
LINE
  5
2F1
100
AcDbEntity
  8
DRAFT
100
AcDbLine
 62
7
  6
CONTINUOUS
 10
66.8574027115
 20
-60.6798633511
 11
66.3162956988
 21
-60.4557294877
  0
LINE
  5
2F2
100
AcDbEntity
  8
RACCORDO
100
AcDbLine
 62
7
  6
CONTINUOUS
 10
-21.0420142993
 20
-20.75272897
 11
-21.5301529929
 21
-20.5086782111
  0
LINE
  5
2F3
100
AcDbEntity
  8
RACCORDO
100
AcDbLine
 62
7
  6
CONTINUOUS
 10
23.6959859568
 20
-65.7348171607
 11
23.4519351979
 21
-65.2466784672
  0
LINE
  5
2F4
100
AcDbEntity
  8
DRAFT
100
AcDbLine
 62
7
  6
CONTINUOUS
 10
-15.6423591673
 20
20.6320195825
 11
-15.7544175641
 21
20.902552484
  0
LINE
  5
2F5
100
AcDbEntity
  8
DRAFT
100
AcDbLine
 62
7
  6
CONTINUOUS
 10
-16.4751991832
 20
22.6527385436
 11
-16.2510653198
 21
22.1116315309
  0
LINE
  5
2F6
100
AcDbEntity
  8
DRAFT
100
AcDbLine
 62
7
  6
CONTINUOUS
 10
0.3628116583
 20
-16.015544947
 11
0.6366837504
 21
-17.0376495095
  0
LINE
  5
2F7
100
AcDbEntity
  8
DRAFT
100
AcDbLine
 62
7
  6
CONTINUOUS
 10
0.5008674828
 20
-15.8495011602
 11
0.8698783791
 21
-17.2266685739
  0
LINE
  5
2F8
100
AcDbEntity
  8
DRAFT
100
AcDbLine
 62
7
  6
CONTINUOUS
 10
0.6130721775
 20
-13.0259986928
 11
0.8866837504
 21
-14.0471309842
  0
LINE
  5
2F9
100
AcDbEntity
  8
DRAFT
100
AcDbLine
 62
7
  6
CONTINUOUS
 10
0.7510843339
 20
-12.8597919341
 11
1.1194423625
 21
-14.2345228124
  0
LINE
  5
2FA
100
AcDbEntity
  8
DRAFT
100
AcDbLine
 62
7
  6
CONTINUOUS
 10
0.863481106
 20
-10.0364627495
 11
1.1366837504
 21
-11.0560688992
  0
LINE
  5
2FB
100
AcDbEntity
  8
DRAFT
100
AcDbLine
 62
7
  6
CONTINUOUS
 10
0.9738697288
 20
-9.9034185881
 11
1.3224671265
 21
-11.2044017875
  0
LINE
  5
2FC
100
AcDbEntity
  8
ASSI
100
AcDbLine
 62
7
  6
CONTINUOUS
 10
6.7366837504
 20
11.9320195825
 11
6.7366837504
 21
10.8401205443
  0
LINE
  5
2FD
100
AcDbEntity
  8
ASSI
100
AcDbLine
 62
7
  6
CONTINUOUS
 10
6.7366837504
 20
8.6043039344
 11
6.7366837504
 21
7.4430105588
  0
LINE
  5
2FE
100
AcDbEntity
  8
DRAFT
100
AcDbLine
 62
7
  6
CONTINUOUS
 10
9.0835853089
 20
-73.0679804175
 11
9.0835853089
 21
-67.5679804175
  0
LINE
  5
2FF
100
AcDbEntity
  8
DRAFT
100
AcDbLine
 62
7
  6
CONTINUOUS
 10
9.0835853089
 20
24.4320195825
 11
9.0835853089
 21
29.9320195825
  0
LINE
  5
300
100
AcDbEntity
  8
DRAFT
100
AcDbLine
 62
7
  6
CONTINUOUS
 10
9.3366837504
 20
29.2587195494
 11
9.3366837504
 21
25.1053196155
  0
LINE
  5
301
100
AcDbEntity
  8
DRAFT
100
AcDbLine
 62
7
  6
CONTINUOUS
 10
9.3366837504
 20
-68.2412804506
 11
9.3366837504
 21
-72.3946803845
  0
LINE
  5
302
100
AcDbEntity
  8
DRAFT
100
AcDbLine
 62
7
  6
CONTINUOUS
 10
9.7819533608
 20
25.2100500051
 11
9.7819533608
 21
25.1053196155
  0
LINE
  5
303
100
AcDbEntity
  8
DRAFT
100
AcDbLine
 62
7
  6
CONTINUOUS
 10
9.7819533608
 20
-68.2412804506
 11
9.7819533608
 21
-68.3460108401
  0
LINE
  5
304
100
AcDbEntity
  8
RACCORDO
100
AcDbLine
 62
253
  6
CONTINUOUS
 10
-12.8527833481
 20
-64.747592363
 11
-12.8523645083
 21
-64.7467546196
  0
LINE
  5
305
100
AcDbEntity
  8
RACCORDO
100
AcDbLine
 62
253
  6
CONTINUOUS
 10
-12.3528404613
 20
-65.2475923659
 11
-12.3523835468
 21
-65.2466784672
  0
LINE
  5
306
100
AcDbEntity
  8
0
100
AcDbLine
 62
7
  6
CONTINUOUS
 10
-16.8861598563
 20
-61.4204090438
 11
-17.1475816596
 21
-61.846623357
  0
LINE
  5
307
100
AcDbEntity
  8
RACCORDO
100
AcDbLine
 62
253
  6
CONTINUOUS
 10
65.8154579525
 20
13.9210678412
 11
65.8162956959
 21
13.921486681
  0
LINE
  5
308
100
AcDbEntity
  8
RACCORDO
100
AcDbLine
 62
253
  6
CONTINUOUS
 10
66.3153818001
 20
13.4210868797
 11
66.3162956988
 21
13.4215437942
  0
LINE
  5
309
100
AcDbEntity
  8
DRAFT
100
AcDbLine
 62
7
  6
CONTINUOUS
 10
54.2731051204
 20
-42.2537637936
 11
52.972121921
 21
-41.905166396
  0
LINE
  5
30A
100
AcDbEntity
  8
DRAFT
100
AcDbLine
 62
7
  6
CONTINUOUS
 10
54.1247722321
 20
-42.0679804175
 11
53.1051660823
 21
-41.7947777731
  0
LINE
  5
30B
100
AcDbEntity
  8
DRAFT
100
AcDbLine
 62
7
  6
CONTINUOUS
 10
57.3032261452
 20
-42.0507390296
 11
55.928495267
 21
-41.682381001
  0
LINE
  5
30C
100
AcDbEntity
  8
DRAFT
100
AcDbLine
 62
7
  6
CONTINUOUS
 10
57.1158343171
 20
-41.8179804175
 11
56.0947020257
 21
-41.5443688447
  0
LINE
  5
30D
100
AcDbEntity
  8
RACCORDO
100
AcDbLine
 62
253
  6
CONTINUOUS
 10
65.8162956959
 20
-57.057447516
 11
65.8154579525
 21
-57.0570286762
  0
LINE
  5
30E
100
AcDbEntity
  8
RACCORDO
100
AcDbLine
 62
253
  6
CONTINUOUS
 10
66.3162956988
 20
-56.5575046292
 11
66.3153818001
 21
-56.5570477147
  0
LINE
  5
30F
100
AcDbEntity
  8
RACCORDO
100
AcDbLine
 62
253
  6
CONTINUOUS
 10
-12.8523645083
 20
21.6107937846
 11
-12.8527833481
 21
21.611631528
  0
LINE
  5
310
100
AcDbEntity
  8
RACCORDO
100
AcDbLine
 62
253
  6
CONTINUOUS
 10
-12.3523835468
 20
22.1107176322
 11
-12.3528404613
 21
22.1116315309
  0
LINE
  5
311
100
AcDbEntity
  8
DRAFT
100
AcDbLine
 62
7
  6
CONTINUOUS
 10
2.2994977719
 20
8.7674577531
 11
1.9509003743
 21
10.0684409525
  0
LINE
  5
312
100
AcDbEntity
  8
DRAFT
100
AcDbLine
 62
7
  6
CONTINUOUS
 10
2.4098863948
 20
8.9005019144
 11
2.1366837504
 21
9.9201080642
  0
LINE
  5
313
100
AcDbEntity
  8
DRAFT
100
AcDbLine
 62
7
  6
CONTINUOUS
 10
2.5222831669
 20
11.7238310991
 11
2.1539251383
 21
13.0985619773
  0
LINE
  5
314
100
AcDbEntity
  8
DRAFT
100
AcDbLine
 62
7
  6
CONTINUOUS
 10
2.6602953232
 20
11.8900378578
 11
2.3866837504
 21
12.9111701492
  0
LINE
  5
315
100
AcDbEntity
  8
RACCORDO
100
AcDbLine
 62
7
  6
CONTINUOUS
 10
-21.0420142993
 20
-54.8984856357
 11
-21.5840352108
 21
-55.4405065472
  0
LINE
  5
316
100
AcDbEntity
  8
RACCORDO
100
AcDbLine
 62
7
  6
CONTINUOUS
 10
55.9671889686
 20
22.1107176322
 11
56.50920988
 21
22.6527385436
  0
LINE
  5
317
100
AcDbEntity
  8
DRAFT
100
AcDbLine
 62
7
  6
CONTINUOUS
 10
60.2953719067
 20
-41.8011750462
 11
58.918204493
 21
-41.4321641499
  0
LINE
  5
318
100
AcDbEntity
  8
DRAFT
100
AcDbLine
 62
7
  6
CONTINUOUS
 10
60.1063528424
 20
-41.5679804175
 11
59.0842482799
 21
-41.2941083254
  0
LINE
  5
319
100
AcDbEntity
  8
RACCORDO
100
AcDbLine
 62
7
  6
CONTINUOUS
 10
-21.0420142993
 20
11.7625248007
 11
-21.5840352108
 21
12.3045457121
  0
LINE
  5
31A
100
AcDbEntity
  8
RACCORDO
100
AcDbLine
 62
7
  6
CONTINUOUS
 10
55.9671889686
 20
-65.2466784672
 11
56.50920988
 21
-65.7886993787
  0
LINE
  5
31B
100
AcDbEntity
  8
DRAFT
100
AcDbLine
 62
7
  6
CONTINUOUS
 10
2.772500018
 20
14.7135403251
 11
2.4034891216
 21
16.0907077388
  0
LINE
  5
31C
100
AcDbEntity
  8
DRAFT
100
AcDbLine
 62
7
  6
CONTINUOUS
 10
2.9105558425
 20
14.879584112
 11
2.6366837504
 21
15.9016886745
  0
LINE
  5
31D
100
AcDbEntity
  8
DRAFT
100
AcDbLine
 62
7
  6
CONTINUOUS
 10
19.1366837504
 20
-54.0179804175
 11
19.1366837504
 21
-46.0389264954
  0
LINE
  5
31E
100
AcDbEntity
  8
DRAFT
100
AcDbLine
 62
7
  6
CONTINUOUS
 10
19.1366837504
 20
2.9029656604
 11
19.1366837504
 21
10.8820195825
  0
LINE
  5
31F
100
AcDbEntity
  8
DRAFT
100
AcDbLine
 62
7
  6
CONTINUOUS
 10
19.9303214127
 20
-46.0389264954
 11
19.9303214127
 21
-54.0179804175
  0
LINE
  5
320
100
AcDbEntity
  8
DRAFT
100
AcDbLine
 62
7
  6
CONTINUOUS
 10
19.9303214127
 20
2.9029656604
 11
19.9303214127
 21
10.8820195825
  0
LINE
  5
321
100
AcDbEntity
  8
DRAFT
100
AcDbLine
 62
7
  6
CONTINUOUS
 10
21.5930460881
 20
-46.0389264954
 11
21.5930460881
 21
-54.0179804175
  0
LINE
  5
322
100
AcDbEntity
  8
DRAFT
100
AcDbLine
 62
7
  6
CONTINUOUS
 10
21.5930460881
 20
2.9029656604
 11
21.5930460881
 21
10.8820195825
  0
LINE
  5
323
100
AcDbEntity
  8
DRAFT
100
AcDbLine
 62
7
  6
CONTINUOUS
 10
21.6366837504
 20
10.8820195825
 11
21.6366837504
 21
2.9029656604
  0
LINE
  5
324
100
AcDbEntity
  8
DRAFT
100
AcDbLine
 62
7
  6
CONTINUOUS
 10
21.6366837504
 20
-46.0389264954
 11
21.6366837504
 21
-54.0179804175
  0
LINE
  5
325
100
AcDbEntity
  8
RACCORDO
100
AcDbLine
 62
7
  6
CONTINUOUS
 10
9.8781085344
 20
-67.7593293573
 11
9.7819533608
 21
-68.2412804506
  0
LINE
  5
326
100
AcDbEntity
  8
DRAFT
100
AcDbLine
 62
7
  6
CONTINUOUS
 10
9.3366837504
 20
-72.3946803845
 11
9.2319533608
 21
-72.9196123656
  0
LINE
  5
327
100
AcDbEntity
  8
SMUSSO
100
AcDbLine
 62
7
  6
CONTINUOUS
 10
8.0919192337
 20
-65.7799731754
 11
7.9579650425
 21
-66.2886993787
  0
LINE
  5
328
100
AcDbEntity
  8
DRAFT
100
AcDbLine
 62
7
  6
CONTINUOUS
 10
-19.5807545284
 20
-61.9179031574
 11
-18.7278911271
 21
-61.0650397561
  0
LINE
  5
329
100
AcDbEntity
  8
DRAFT
100
AcDbLine
 62
7
  6
CONTINUOUS
 10
62.133743089
 20
19.7965944599
 11
62.9866064902
 21
20.6494578612
  0
LINE
  5
32A
100
AcDbEntity
  8
DRAFT
100
AcDbLine
 62
7
  6
CONTINUOUS
 10
-19.7720793172
 20
-62.4918192446
 11
-18.3452998287
 21
-61.0650397561
  0
LINE
  5
32B
100
AcDbEntity
  8
DRAFT
100
AcDbLine
 62
7
  6
CONTINUOUS
 10
62.133743089
 20
19.4140031615
 11
63.5605225775
 21
20.8407826501
  0
LINE
  5
32C
100
AcDbEntity
  8
RACCORDO
100
AcDbLine
 62
253
  6
CONTINUOUS
 10
-15.306161551
 20
-58.5995368484
 11
-15.6597014793
 21
-58.9530767768
  0
LINE
  5
32D
100
AcDbEntity
  8
RACCORDO
100
AcDbLine
 62
253
  6
CONTINUOUS
 10
59.6682401813
 20
16.3748648838
 11
60.0217801097
 21
16.7284048122
  0
LINE
  5
32E
100
AcDbEntity
  8
RACCORDO
100
AcDbLine
 62
253
  6
CONTINUOUS
 10
-14.3948726805
 20
-59.5108257189
 11
-14.7484126089
 21
-59.8643656472
  0
LINE
  5
32F
100
AcDbEntity
  8
RACCORDO
100
AcDbLine
 62
253
  6
CONTINUOUS
 10
60.5795290517
 20
15.4635760134
 11
60.9330689801
 21
15.8171159418
  0
LINE
  5
330
100
AcDbEntity
  8
SMUSSO
100
AcDbLine
 62
7
  6
CONTINUOUS
 10
-22.0840352108
 20
-36.2466991254
 11
-21.5753090075
 21
-36.1127449342
  0
LINE
  5
331
100
AcDbEntity
  8
SMUSSO
100
AcDbLine
 62
7
  6
CONTINUOUS
 10
66.8486765083
 20
-36.1127449342
 11
67.3574027115
 21
-36.2466991254
  0
LINE
  5
332
100
AcDbEntity
  8
DRAFT
100
AcDbLine
 62
7
  6
CONTINUOUS
 10
62.9866064902
 20
-63.7854186962
 11
62.133743089
 21
-62.932555295
  0
LINE
  5
333
100
AcDbEntity
  8
DRAFT
100
AcDbLine
 62
7
  6
CONTINUOUS
 10
-18.7278911271
 20
17.9290789211
 11
-19.5807545284
 21
18.7819423223
  0
LINE
  5
334
100
AcDbEntity
  8
DRAFT
100
AcDbLine
 62
7
  6
CONTINUOUS
 10
63.5605225775
 20
-63.9767434851
 11
62.133743089
 21
-62.5499639966
  0
LINE
  5
335
100
AcDbEntity
  8
DRAFT
100
AcDbLine
 62
7
  6
CONTINUOUS
 10
-18.3452998287
 20
17.9290789211
 11
-19.7720793172
 21
19.3558584096
  0
LINE
  5
336
100
AcDbEntity
  8
RACCORDO
100
AcDbLine
 62
253
  6
CONTINUOUS
 10
-15.306161551
 20
15.4635760134
 11
-15.6597014793
 21
15.8171159418
  0
LINE
  5
337
100
AcDbEntity
  8
RACCORDO
100
AcDbLine
 62
253
  6
CONTINUOUS
 10
59.6682401813
 20
-59.5108257189
 11
60.0217801097
 21
-59.8643656472
  0
LINE
  5
338
100
AcDbEntity
  8
RACCORDO
100
AcDbLine
 62
253
  6
CONTINUOUS
 10
-14.3948726805
 20
16.3748648838
 11
-14.7484126089
 21
16.7284048122
  0
LINE
  5
339
100
AcDbEntity
  8
RACCORDO
100
AcDbLine
 62
253
  6
CONTINUOUS
 10
60.5795290517
 20
-58.5995368484
 11
60.9330689801
 21
-58.9530767768
  0
LINE
  5
33A
100
AcDbEntity
  8
SMUSSO
100
AcDbLine
 62
7
  6
CONTINUOUS
 10
7.9579650425
 20
23.1527385436
 11
8.0919192337
 21
22.6440123404
  0
LINE
  5
33B
100
AcDbEntity
  8
RACCORDO
100
AcDbLine
 62
7
  6
CONTINUOUS
 10
9.7819533608
 20
25.1053196155
 11
9.8781085344
 21
24.6233685223
  0
LINE
  5
33C
100
AcDbEntity
  8
DRAFT
100
AcDbLine
 62
7
  6
CONTINUOUS
 10
9.2319533608
 20
29.7836515306
 11
9.3366837504
 21
29.2587195494
  0
LINE
  5
33D
100
AcDbEntity
  8
DRAFT
100
AcDbLine
 62
7
  6
CONTINUOUS
 10
23.6366837504
 20
-54.0179804175
 11
23.6366837504
 21
-46.0389264954
  0
LINE
  5
33E
100
AcDbEntity
  8
DRAFT
100
AcDbLine
 62
7
  6
CONTINUOUS
 10
23.6366837504
 20
2.9029656604
 11
23.6366837504
 21
10.8820195825
  0
LINE
  5
33F
100
AcDbEntity
  8
DRAFT
100
AcDbLine
 62
7
  6
CONTINUOUS
 10
23.6803214127
 20
-46.0389264954
 11
23.6803214127
 21
-54.0179804175
  0
LINE
  5
340
100
AcDbEntity
  8
DRAFT
100
AcDbLine
 62
7
  6
CONTINUOUS
 10
23.6803214127
 20
2.9029656604
 11
23.6803214127
 21
10.8820195825
  0
LINE
  5
341
100
AcDbEntity
  8
DRAFT
100
AcDbLine
 62
7
  6
CONTINUOUS
 10
25.3430460881
 20
-46.0389264954
 11
25.3430460881
 21
-54.0179804175
  0
LINE
  5
342
100
AcDbEntity
  8
DRAFT
100
AcDbLine
 62
7
  6
CONTINUOUS
 10
25.3430460881
 20
2.9029656604
 11
25.3430460881
 21
10.8820195825
  0
LINE
  5
343
100
AcDbEntity
  8
DRAFT
100
AcDbLine
 62
7
  6
CONTINUOUS
 10
26.1366837504
 20
10.8820195825
 11
26.1366837504
 21
2.9029656604
  0
LINE
  5
344
100
AcDbEntity
  8
DRAFT
100
AcDbLine
 62
7
  6
CONTINUOUS
 10
26.1366837504
 20
-46.0389264954
 11
26.1366837504
 21
-54.0179804175
  0
LINE
  5
345
100
AcDbEntity
  8
DRAFT
100
AcDbLine
 62
7
  6
CONTINUOUS
 10
36.04141414
 20
29.7836515306
 11
35.9366837504
 21
29.2587195494
  0
LINE
  5
346
100
AcDbEntity
  8
RACCORDO
100
AcDbLine
 62
7
  6
CONTINUOUS
 10
35.49141414
 20
25.1053196155
 11
35.3952589664
 21
24.6233685223
  0
LINE
  5
347
100
AcDbEntity
  8
SMUSSO
100
AcDbLine
 62
7
  6
CONTINUOUS
 10
37.181448267
 20
22.6440123404
 11
37.3154024583
 21
23.1527385436
  0
LINE
  5
348
100
AcDbEntity
  8
DRAFT
100
AcDbLine
 62
7
  6
CONTINUOUS
 10
65.045446818
 20
19.3558584096
 11
63.6186673294
 21
17.9290789211
  0
LINE
  5
349
100
AcDbEntity
  8
DRAFT
100
AcDbLine
 62
7
  6
CONTINUOUS
 10
-16.8603755882
 20
-62.5499639966
 11
-18.2871550767
 21
-63.9767434851
  0
LINE
  5
34A
100
AcDbEntity
  8
DRAFT
100
AcDbLine
 62
7
  6
CONTINUOUS
 10
64.8541220291
 20
18.7819423223
 11
64.0012586278
 21
17.9290789211
  0
LINE
  5
34B
100
AcDbEntity
  8
DRAFT
100
AcDbLine
 62
7
  6
CONTINUOUS
 10
-16.8603755882
 20
-62.932555295
 11
-17.7132389895
 21
-63.7854186962
  0
LINE
  5
34C
100
AcDbEntity
  8
SMUSSO
100
AcDbLine
 62
7
  6
CONTINUOUS
 10
67.3574027115
 20
-6.8892617096
 11
66.8486765083
 21
-7.0232159009
  0
LINE
  5
34D
100
AcDbEntity
  8
SMUSSO
100
AcDbLine
 62
7
  6
CONTINUOUS
 10
-21.5753090075
 20
-7.0232159009
 11
-22.0840352108
 21
-6.8892617096
  0
LINE
  5
34E
100
AcDbEntity
  8
DRAFT
100
AcDbLine
 62
7
  6
CONTINUOUS
 10
-18.2871550767
 20
20.8407826501
 11
-16.8603755882
 21
19.4140031615
  0
LINE
  5
34F
100
AcDbEntity
  8
DRAFT
100
AcDbLine
 62
7
  6
CONTINUOUS
 10
63.6186673294
 20
-61.0650397561
 11
65.045446818
 21
-62.4918192446
  0
LINE
  5
350
100
AcDbEntity
  8
DRAFT
100
AcDbLine
 62
7
  6
CONTINUOUS
 10
-17.7132389895
 20
20.6494578612
 11
-16.8603755882
 21
19.7965944599
  0
LINE
  5
351
100
AcDbEntity
  8
DRAFT
100
AcDbLine
 62
7
  6
CONTINUOUS
 10
64.0012586278
 20
-61.0650397561
 11
64.8541220291
 21
-61.9179031574
  0
LINE
  5
352
100
AcDbEntity
  8
SMUSSO
100
AcDbLine
 62
7
  6
CONTINUOUS
 10
37.3154024583
 20
-66.2886993787
 11
37.181448267
 21
-65.7799731754
  0
LINE
  5
353
100
AcDbEntity
  8
DRAFT
100
AcDbLine
 62
7
  6
CONTINUOUS
 10
35.9366837504
 20
-72.3946803845
 11
36.04141414
 21
-72.9196123656
  0
LINE
  5
354
100
AcDbEntity
  8
RACCORDO
100
AcDbLine
 62
7
  6
CONTINUOUS
 10
35.3952589664
 20
-67.7593293573
 11
35.49141414
 21
-68.2412804506
  0
LINE
  5
355
100
AcDbEntity
  8
RACCORDO
100
AcDbLine
 62
253
  6
CONTINUOUS
 10
57.6262079621
 20
22.1116315309
 11
57.6257510476
 21
22.1107176322
  0
LINE
  5
356
100
AcDbEntity
  8
RACCORDO
100
AcDbLine
 62
7
  6
CONTINUOUS
 10
-10.6938214678
 20
-65.2466784672
 11
-11.2358423793
 21
-65.7886993787
  0
LINE
  5
357
100
AcDbEntity
  8
RACCORDO
100
AcDbLine
 62
7
  6
CONTINUOUS
 10
66.3153818001
 20
11.7625248007
 11
66.8574027115
 21
12.3045457121
  0
LINE
  5
358
100
AcDbEntity
  8
RACCORDO
100
AcDbLine
 62
253
  6
CONTINUOUS
 10
-21.0420142993
 20
-56.5570477147
 11
-21.042928198
 21
-56.5575046292
  0
LINE
  5
359
100
AcDbEntity
  8
DRAFT
100
AcDbLine
 62
7
  6
CONTINUOUS
 10
-14.8329853416
 20
-1.5679804175
 11
-13.8108807791
 21
-1.8418525096
  0
LINE
  5
35A
100
AcDbEntity
  8
DRAFT
100
AcDbLine
 62
7
  6
CONTINUOUS
 10
-15.022004406
 20
-1.3347857888
 11
-13.6448369923
 21
-1.7037966851
  0
LINE
  5
35B
100
AcDbEntity
  8
DRAFT
100
AcDbLine
 62
7
  6
CONTINUOUS
 10
-11.8424668163
 20
-1.3179804175
 11
-10.8213345249
 21
-1.5915919904
  0
LINE
  5
35C
100
AcDbEntity
  8
DRAFT
100
AcDbLine
 62
7
  6
CONTINUOUS
 10
-12.0298586445
 20
-1.0852218054
 11
-10.6551277662
 21
-1.453579834
  0
LINE
  5
35D
100
AcDbEntity
  8
DRAFT
100
AcDbLine
 62
7
  6
CONTINUOUS
 10
-8.8514047313
 20
-1.0679804175
 11
-7.8317985816
 21
-1.3411830619
  0
LINE
  5
35E
100
AcDbEntity
  8
DRAFT
100
AcDbLine
 62
7
  6
CONTINUOUS
 10
-8.9997376196
 20
-0.8821970414
 11
-7.6987544202
 21
-1.2307944391
  0
LINE
  5
35F
100
AcDbEntity
  8
RACCORDO
100
AcDbLine
 62
253
  6
CONTINUOUS
 10
-21.042928198
 20
13.4215437942
 11
-21.0420142993
 21
13.4210868797
  0
LINE
  5
360
100
AcDbEntity
  8
RACCORDO
100
AcDbLine
 62
7
  6
CONTINUOUS
 10
-10.6938214678
 20
22.1107176322
 11
-11.2358423793
 21
22.6527385436
  0
LINE
  5
361
100
AcDbEntity
  8
RACCORDO
100
AcDbLine
 62
7
  6
CONTINUOUS
 10
66.3153818001
 20
-54.8984856357
 11
66.8574027115
 21
-55.4405065472
  0
LINE
  5
362
100
AcDbEntity
  8
RACCORDO
100
AcDbLine
 62
253
  6
CONTINUOUS
 10
57.6257510476
 20
-65.2466784672
 11
57.6262079621
 21
-65.2475923659
  0
LINE
  5
363
100
AcDbEntity
  8
DRAFT
100
AcDbLine
 62
7
  6
CONTINUOUS
 10
42.3628116583
 20
-58.015544947
 11
42.6366837504
 21
-59.0376495095
  0
LINE
  5
364
100
AcDbEntity
  8
DRAFT
100
AcDbLine
 62
7
  6
CONTINUOUS
 10
42.5008674828
 20
-57.8495011602
 11
42.8698783791
 21
-59.2266685739
  0
LINE
  5
365
100
AcDbEntity
  8
DRAFT
100
AcDbLine
 62
7
  6
CONTINUOUS
 10
42.6130721775
 20
-55.0259986928
 11
42.8866837504
 21
-56.0471309842
  0
LINE
  5
366
100
AcDbEntity
  8
DRAFT
100
AcDbLine
 62
7
  6
CONTINUOUS
 10
42.7510843339
 20
-54.8597919341
 11
43.1194423625
 21
-56.2345228124
  0
LINE
  5
367
100
AcDbEntity
  8
DRAFT
100
AcDbLine
 62
7
  6
CONTINUOUS
 10
42.863481106
 20
-52.0364627495
 11
43.1366837504
 21
-53.0560688992
  0
LINE
  5
368
100
AcDbEntity
  8
DRAFT
100
AcDbLine
 62
7
  6
CONTINUOUS
 10
42.9738697288
 20
-51.9034185881
 11
43.3224671265
 21
-53.2044017875
  0
LINE
  5
369
100
AcDbEntity
  8
DRAFT
100
AcDbLine
 62
7
  6
CONTINUOUS
 10
35.49141414
 20
25.2100500051
 11
35.49141414
 21
25.1053196155
  0
LINE
  5
36A
100
AcDbEntity
  8
DRAFT
100
AcDbLine
 62
7
  6
CONTINUOUS
 10
35.49141414
 20
-68.2412804506
 11
35.49141414
 21
-68.3460108401
  0
LINE
  5
36B
100
AcDbEntity
  8
DRAFT
100
AcDbLine
 62
7
  6
CONTINUOUS
 10
35.9366837504
 20
29.2587195494
 11
35.9366837504
 21
25.1053196155
  0
LINE
  5
36C
100
AcDbEntity
  8
DRAFT
100
AcDbLine
 62
7
  6
CONTINUOUS
 10
35.9366837504
 20
-68.2412804506
 11
35.9366837504
 21
-72.3946803845
  0
LINE
  5
36D
100
AcDbEntity
  8
DRAFT
100
AcDbLine
 62
7
  6
CONTINUOUS
 10
36.1897821918
 20
-73.0679804175
 11
36.1897821918
 21
-67.5679804175
  0
LINE
  5
36E
100
AcDbEntity
  8
DRAFT
100
AcDbLine
 62
7
  6
CONTINUOUS
 10
36.1897821918
 20
24.4320195825
 11
36.1897821918
 21
29.9320195825
  0
LINE
  5
36F
100
AcDbEntity
  8
ASSI
100
AcDbLine
 62
7
  6
CONTINUOUS
 10
38.5366837504
 20
-55.0679804175
 11
38.5366837504
 21
-53.9760813793
  0
LINE
  5
370
100
AcDbEntity
  8
ASSI
100
AcDbLine
 62
7
  6
CONTINUOUS
 10
38.5366837504
 20
-51.7402647695
 11
38.5366837504
 21
-50.5789713939
  0
LINE
  5
371
100
AcDbEntity
  8
ASSI
100
AcDbLine
 62
7
  6
CONTINUOUS
 10
38.6366837504
 20
-50.6444625474
 11
38.6366837504
 21
-51.7960350394
  0
LINE
  5
372
100
AcDbEntity
  8
ASSI
100
AcDbLine
 62
7
  6
CONTINUOUS
 10
38.6366837504
 20
-54.0188463129
 11
38.6366837504
 21
-55.0679804175
  0
LINE
  5
373
100
AcDbEntity
  8
RACCORDO
100
AcDbLine
 62
253
  6
CONTINUOUS
 10
58.1261508489
 20
21.611631528
 11
58.1257320091
 21
21.6107937846
  0
LINE
  5
374
100
AcDbEntity
  8
0
100
AcDbLine
 62
7
  6
CONTINUOUS
 10
62.1595273571
 20
18.2844482088
 11
62.4209491604
 21
18.710662522
  0
LINE
  5
375
100
AcDbEntity
  8
RACCORDO
100
AcDbLine
 62
253
  6
CONTINUOUS
 10
-20.5420904517
 20
-57.0570286762
 11
-20.5429281951
 21
-57.057447516
  0
LINE
  5
376
100
AcDbEntity
  8
RACCORDO
100
AcDbLine
 62
253
  6
CONTINUOUS
 10
-20.5429281951
 20
13.921486681
 11
-20.5420904517
 21
13.9210678412
  0
LINE
  5
377
100
AcDbEntity
  8
RACCORDO
100
AcDbLine
 62
253
  6
CONTINUOUS
 10
58.1257320091
 20
-64.7467546196
 11
58.1261508489
 21
-64.747592363
  0
LINE
  5
378
100
AcDbEntity
  8
DRAFT
100
AcDbLine
 62
7
  6
CONTINUOUS
 10
36.04141414
 20
-67.7163484694
 11
35.9366837504
 21
-68.2412804506
  0
LINE
  5
379
100
AcDbEntity
  8
RACCORDO
100
AcDbLine
 62
7
  6
CONTINUOUS
 10
35.74141414
 20
-72.3946803845
 11
35.6452589664
 21
-72.8766314777
  0
LINE
  5
37A
100
AcDbEntity
  8
DRAFT
100
AcDbLine
 62
7
  6
CONTINUOUS
 10
42.6366837504
 20
-26.0983113255
 11
42.3628116583
 21
-27.120415888
  0
LINE
  5
37B
100
AcDbEntity
  8
DRAFT
100
AcDbLine
 62
7
  6
CONTINUOUS
 10
42.8698783791
 20
-25.9092922612
 11
42.5008674828
 21
-27.2864596749
  0
LINE
  5
37C
100
AcDbEntity
  8
DRAFT
100
AcDbLine
 62
7
  6
CONTINUOUS
 10
42.8866837504
 20
-29.0888298508
 11
42.6130721775
 21
-30.1099621422
  0
LINE
  5
37D
100
AcDbEntity
  8
DRAFT
100
AcDbLine
 62
7
  6
CONTINUOUS
 10
43.1194423625
 20
-28.9014380227
 11
42.7510843339
 21
-30.2761689009
  0
LINE
  5
37E
100
AcDbEntity
  8
DRAFT
100
AcDbLine
 62
7
  6
CONTINUOUS
 10
43.1366837504
 20
-32.0798919358
 11
42.863481106
 21
-33.0994980856
  0
LINE
  5
37F
100
AcDbEntity
  8
DRAFT
100
AcDbLine
 62
7
  6
CONTINUOUS
 10
43.3224671265
 20
-31.9315590475
 11
42.9738697288
 21
-33.2325422469
  0
LINE
  5
380
100
AcDbEntity
  8
DRAFT
100
AcDbLine
 62
7
  6
CONTINUOUS
 10
61.748566684
 20
22.6527385436
 11
61.5244328206
 21
22.1116315309
  0
LINE
  5
381
100
AcDbEntity
  8
DRAFT
100
AcDbLine
 62
7
  6
CONTINUOUS
 10
60.915726668
 20
20.6320195825
 11
61.0277850649
 21
20.902552484
  0
LINE
  5
382
100
AcDbEntity
  8
RACCORDO
100
AcDbLine
 62
7
  6
CONTINUOUS
 10
21.577381544
 20
-65.7348171607
 11
21.8214323029
 21
-65.2466784672
  0
LINE
  5
383
100
AcDbEntity
  8
RACCORDO
100
AcDbLine
 62
7
  6
CONTINUOUS
 10
66.3153818001
 20
-20.75272897
 11
66.8035204936
 21
-20.5086782111
  0
LINE
  5
384
100
AcDbEntity
  8
DRAFT
100
AcDbLine
 62
7
  6
CONTINUOUS
 10
-21.5840352108
 20
-60.6798633511
 11
-21.042928198
 21
-60.4557294877
  0
LINE
  5
385
100
AcDbEntity
  8
DRAFT
100
AcDbLine
 62
7
  6
CONTINUOUS
 10
-19.5633162496
 20
-59.8470233351
 11
-19.8338491511
 21
-59.959081732
  0
LINE
  5
386
100
AcDbEntity
  8
DRAFT
100
AcDbLine
 62
7
  6
CONTINUOUS
 10
17.0842482799
 20
-1.8418525096
 11
18.1063528424
 21
-1.5679804175
  0
LINE
  5
387
100
AcDbEntity
  8
DRAFT
100
AcDbLine
 62
7
  6
CONTINUOUS
 10
16.918204493
 20
-1.7037966851
 11
18.2953719067
 21
-1.3347857888
  0
LINE
  5
388
100
AcDbEntity
  8
DRAFT
100
AcDbLine
 62
7
  6
CONTINUOUS
 10
14.0947020257
 20
-1.5915919904
 11
15.1158343171
 21
-1.3179804175
  0
LINE
  5
389
100
AcDbEntity
  8
DRAFT
100
AcDbLine
 62
7
  6
CONTINUOUS
 10
13.928495267
 20
-1.453579834
 11
15.3032261452
 21
-1.0852218054
  0
LINE
  5
38A
100
AcDbEntity
  8
DRAFT
100
AcDbLine
 62
7
  6
CONTINUOUS
 10
11.1051660823
 20
-1.3411830619
 11
12.1247722321
 21
-1.0679804175
  0
LINE
  5
38B
100
AcDbEntity
  8
DRAFT
100
AcDbLine
 62
7
  6
CONTINUOUS
 10
10.972121921
 20
-1.2307944391
 11
12.2731051204
 21
-0.8821970414
  0
LINE
  5
38C
100
AcDbEntity
  8
DRAFT
100
AcDbLine
 62
7
  6
CONTINUOUS
 10
12.2731051204
 20
-0.2537637936
 11
10.972121921
 21
0.094833604
  0
LINE
  5
38D
100
AcDbEntity
  8
DRAFT
100
AcDbLine
 62
7
  6
CONTINUOUS
 10
12.1247722321
 20
-0.0679804175
 11
11.1051660823
 21
0.2052222269
  0
LINE
  5
38E
100
AcDbEntity
  8
DRAFT
100
AcDbLine
 62
7
  6
CONTINUOUS
 10
15.3032261452
 20
-0.0507390296
 11
13.928495267
 21
0.317618999
  0
LINE
  5
38F
100
AcDbEntity
  8
DRAFT
100
AcDbLine
 62
7
  6
CONTINUOUS
 10
15.1158343171
 20
0.1820195825
 11
14.0947020257
 21
0.4556311553
  0
LINE
  5
390
100
AcDbEntity
  8
DRAFT
100
AcDbLine
 62
7
  6
CONTINUOUS
 10
18.2953719067
 20
0.1988249538
 11
16.918204493
 21
0.5678358501
  0
LINE
  5
391
100
AcDbEntity
  8
DRAFT
100
AcDbLine
 62
7
  6
CONTINUOUS
 10
18.1063528424
 20
0.4320195825
 11
17.0842482799
 21
0.7058916746
  0
LINE
  5
392
100
AcDbEntity
  8
DRAFT
100
AcDbLine
 62
7
  6
CONTINUOUS
 10
-21.5840352108
 20
17.5439025161
 11
-21.042928198
 21
17.3197686527
  0
LINE
  5
393
100
AcDbEntity
  8
DRAFT
100
AcDbLine
 62
7
  6
CONTINUOUS
 10
-19.5633162496
 20
16.7110625001
 11
-19.8338491511
 21
16.823120897
  0
LINE
  5
394
100
AcDbEntity
  8
RACCORDO
100
AcDbLine
 62
7
  6
CONTINUOUS
 10
66.3153818001
 20
-22.383231865
 11
66.8035204936
 21
-22.6272826239
  0
LINE
  5
395
100
AcDbEntity
  8
RACCORDO
100
AcDbLine
 62
7
  6
CONTINUOUS
 10
21.577381544
 20
22.5988563257
 11
21.8214323029
 21
22.1107176322
  0
LINE
  5
396
100
AcDbEntity
  8
DRAFT
100
AcDbLine
 62
7
  6
CONTINUOUS
 10
61.748566684
 20
-65.7886993787
 11
61.5244328206
 21
-65.2475923659
  0
LINE
  5
397
100
AcDbEntity
  8
DRAFT
100
AcDbLine
 62
7
  6
CONTINUOUS
 10
60.915726668
 20
-63.7679804175
 11
61.0277850649
 21
-64.038513319
  0
LINE
  5
398
100
AcDbEntity
  8
DRAFT
100
AcDbLine
 62
7
  6
CONTINUOUS
 10
44.2994977719
 20
-33.2325422469
 11
43.9509003743
 21
-31.9315590475
  0
LINE
  5
399
100
AcDbEntity
  8
DRAFT
100
AcDbLine
 62
7
  6
CONTINUOUS
 10
44.4098863948
 20
-33.0994980856
 11
44.1366837504
 21
-32.0798919358
  0
LINE
  5
39A
100
AcDbEntity
  8
DRAFT
100
AcDbLine
 62
7
  6
CONTINUOUS
 10
44.5222831669
 20
-30.2761689009
 11
44.1539251383
 21
-28.9014380227
  0
LINE
  5
39B
100
AcDbEntity
  8
DRAFT
100
AcDbLine
 62
7
  6
CONTINUOUS
 10
44.6602953232
 20
-30.1099621422
 11
44.3866837504
 21
-29.0888298508
  0
LINE
  5
39C
100
AcDbEntity
  8
DRAFT
100
AcDbLine
 62
7
  6
CONTINUOUS
 10
44.772500018
 20
-27.2864596749
 11
44.4034891216
 21
-25.9092922612
  0
LINE
  5
39D
100
AcDbEntity
  8
DRAFT
100
AcDbLine
 62
7
  6
CONTINUOUS
 10
44.9105558425
 20
-27.120415888
 11
44.6366837504
 21
-26.0983113255
  0
LINE
  5
39E
100
AcDbEntity
  8
DRAFT
100
AcDbLine
 62
7
  6
CONTINUOUS
 10
35.9366837504
 20
25.1053196155
 11
36.04141414
 21
24.5803876344
  0
LINE
  5
39F
100
AcDbEntity
  8
RACCORDO
100
AcDbLine
 62
7
  6
CONTINUOUS
 10
35.6452589664
 20
29.7406706427
 11
35.74141414
 21
29.2587195494
  0
LINE
  5
3A0
100
AcDbEntity
  8
DRAFT
100
AcDbLine
 62
7
  6
CONTINUOUS
 10
64.8541220291
 20
18.7819423223
 11
65.045446818
 21
19.3558584096
  0
LINE
  5
3A1
100
AcDbEntity
  8
DRAFT
100
AcDbLine
 62
7
  6
CONTINUOUS
 10
33.4006970786
 20
-67.7163484694
 11
31.5068638994
 21
-72.9196123656
  0
LINE
  5
3A2
100
AcDbEntity
  8
DRAFT
100
AcDbLine
 62
7
  6
CONTINUOUS
 10
30.9069069934
 20
-74.5679804175
 11
30.7249218763
 21
-75.0679804175
  0
LINE
  5
3A3
100
AcDbEntity
  8
RACCORDO
100
AcDbLine
 62
7
  6
CONTINUOUS
 10
62.9716646247
 20
14.1920195825
 11
62.850553488
 21
13.8996314338
  0
LINE
  5
3A4
100
AcDbEntity
  8
DRAFT
100
AcDbLine
 62
7
  6
CONTINUOUS
 10
9.2319533608
 20
-72.9196123656
 11
9.0835853089
 21
-73.0679804175
  0
LINE
  5
3A5
100
AcDbEntity
  8
RACCORDO
100
AcDbLine
 62
7
  6
CONTINUOUS
 10
-13.1233162496
 20
-61.9029612918
 11
-12.830928101
 21
-61.7818501551
  0
LINE
  5
3A6
100
AcDbEntity
  8
DRAFT
100
AcDbLine
 62
7
  6
CONTINUOUS
 10
-17.7132389895
 20
-63.7854186962
 11
-18.2871550767
 21
-63.9767434851
  0
LINE
  5
3A7
100
AcDbEntity
  8
DRAFT
100
AcDbLine
 62
7
  6
CONTINUOUS
 10
26.1366837504
 20
2.9029656604
 11
23.6366837504
 21
2.9029656604
  0
LINE
  5
3A8
100
AcDbEntity
  8
DRAFT
100
AcDbLine
 62
7
  6
CONTINUOUS
 10
21.6366837504
 20
2.9029656604
 11
19.1366837504
 21
2.9029656604
  0
LINE
  5
3A9
100
AcDbEntity
  8
DRAFT
100
AcDbLine
 62
7
  6
CONTINUOUS
 10
-17.7132389895
 20
20.6494578612
 11
-18.2871550767
 21
20.8407826501
  0
LINE
  5
3AA
100
AcDbEntity
  8
RACCORDO
100
AcDbLine
 62
7
  6
CONTINUOUS
 10
-13.1233162496
 20
18.7670004568
 11
-12.830928101
 21
18.6458893201
  0
LINE
  5
3AB
100
AcDbEntity
  8
DRAFT
100
AcDbLine
 62
7
  6
CONTINUOUS
 10
9.0835853089
 20
29.9320195825
 11
9.2319533608
 21
29.7836515306
  0
LINE
  5
3AC
100
AcDbEntity
  8
RACCORDO
100
AcDbLine
 62
7
  6
CONTINUOUS
 10
62.9716646247
 20
-57.3279804175
 11
62.850553488
 21
-57.0355922689
  0
LINE
  5
3AD
100
AcDbEntity
  8
DRAFT
100
AcDbLine
 62
7
  6
CONTINUOUS
 10
33.4006970786
 20
24.5803876344
 11
31.5068638994
 21
29.7836515306
  0
LINE
  5
3AE
100
AcDbEntity
  8
DRAFT
100
AcDbLine
 62
7
  6
CONTINUOUS
 10
30.9069069934
 20
31.4320195825
 11
30.7249218763
 21
31.9320195825
  0
LINE
  5
3AF
100
AcDbEntity
  8
DRAFT
100
AcDbLine
 62
7
  6
CONTINUOUS
 10
64.8541220291
 20
-61.9179031574
 11
65.045446818
 21
-62.4918192446
  0
LINE
  5
3B0
100
AcDbEntity
  8
RACCORDO
100
AcDbLine
 62
253
  6
CONTINUOUS
 10
53.6366837504
 20
30.3795020597
 11
53.6366837504
 21
31.4320195825
  0
LINE
  5
3B1
100
AcDbEntity
  8
RACCORDO
100
AcDbLine
 62
253
  6
CONTINUOUS
 10
53.6366837504
 20
-73.5154628947
 11
53.6366837504
 21
-74.5679804175
  0
LINE
  5
3B2
100
AcDbEntity
  8
SMUSSO
100
AcDbLine
 62
7
  6
CONTINUOUS
 10
40.5919192337
 20
-65.7799731754
 11
40.4579650425
 21
-66.2886993787
  0
LINE
  5
3B3
100
AcDbEntity
  8
DRAFT
100
AcDbLine
 62
7
  6
CONTINUOUS
 10
43.9509003743
 20
-53.2044017875
 11
44.2994977719
 21
-51.9034185881
  0
LINE
  5
3B4
100
AcDbEntity
  8
DRAFT
100
AcDbLine
 62
7
  6
CONTINUOUS
 10
44.1366837504
 20
-53.0560688992
 11
44.4098863948
 21
-52.0364627495
  0
LINE
  5
3B5
100
AcDbEntity
  8
DRAFT
100
AcDbLine
 62
7
  6
CONTINUOUS
 10
44.1539251383
 20
-56.2345228124
 11
44.5222831669
 21
-54.8597919341
  0
LINE
  5
3B6
100
AcDbEntity
  8
DRAFT
100
AcDbLine
 62
7
  6
CONTINUOUS
 10
44.3866837504
 20
-56.0471309842
 11
44.6602953232
 21
-55.0259986928
  0
LINE
  5
3B7
100
AcDbEntity
  8
DRAFT
100
AcDbLine
 62
7
  6
CONTINUOUS
 10
44.4034891216
 20
-59.2266685739
 11
44.772500018
 21
-57.8495011602
  0
LINE
  5
3B8
100
AcDbEntity
  8
DRAFT
100
AcDbLine
 62
7
  6
CONTINUOUS
 10
44.6366837504
 20
-59.0376495095
 11
44.9105558425
 21
-58.015544947
  0
LINE
  5
3B9
100
AcDbEntity
  8
DRAFT
100
AcDbLine
 62
7
  6
CONTINUOUS
 10
-7.6987544202
 20
0.094833604
 11
-8.9997376196
 21
-0.2537637936
  0
LINE
  5
3BA
100
AcDbEntity
  8
DRAFT
100
AcDbLine
 62
7
  6
CONTINUOUS
 10
-7.8317985816
 20
0.2052222269
 11
-8.8514047313
 21
-0.0679804175
  0
LINE
  5
3BB
100
AcDbEntity
  8
DRAFT
100
AcDbLine
 62
7
  6
CONTINUOUS
 10
-10.6551277662
 20
0.317618999
 11
-12.0298586445
 21
-0.0507390296
  0
LINE
  5
3BC
100
AcDbEntity
  8
DRAFT
100
AcDbLine
 62
7
  6
CONTINUOUS
 10
-10.8213345249
 20
0.4556311553
 11
-11.8424668163
 21
0.1820195825
  0
LINE
  5
3BD
100
AcDbEntity
  8
DRAFT
100
AcDbLine
 62
7
  6
CONTINUOUS
 10
-13.6448369923
 20
0.5678358501
 11
-15.022004406
 21
0.1988249538
  0
LINE
  5
3BE
100
AcDbEntity
  8
DRAFT
100
AcDbLine
 62
7
  6
CONTINUOUS
 10
-13.8108807791
 20
0.7058916746
 11
-14.8329853416
 21
0.4320195825
  0
LINE
  5
3BF
100
AcDbEntity
  8
SMUSSO
100
AcDbLine
 62
7
  6
CONTINUOUS
 10
-22.0840352108
 20
-3.7466991254
 11
-21.5753090075
 21
-3.6127449342
  0
LINE
  5
3C0
100
AcDbEntity
  8
RACCORDO
100
AcDbLine
 62
253
  6
CONTINUOUS
 10
-29.3107987268
 20
9.4320195825
 11
-30.3633162496
 21
9.4320195825
  0
LINE
  5
3C1
100
AcDbEntity
  8
RACCORDO
100
AcDbLine
 62
253
  6
CONTINUOUS
 10
74.5841662276
 20
9.4320195825
 11
75.6366837504
 21
9.4320195825
  0
LINE
  5
3C2
100
AcDbEntity
  8
0
100
AcDbLine
 62
7
  6
CONTINUOUS
 10
19.1366837504
 20
10.8820195825
 11
21.6366837504
 21
10.8820195825
  0
LINE
  5
3C3
100
AcDbEntity
  8
0
100
AcDbLine
 62
7
  6
CONTINUOUS
 10
23.6366837504
 20
10.8820195825
 11
26.1366837504
 21
10.8820195825
  0
LINE
  5
3C4
100
AcDbEntity
  8
ASSI
100
AcDbLine
 62
7
  6
CONTINUOUS
 10
6.6366837504
 20
11.9320195825
 11
6.7366837504
 21
11.9320195825
  0
LINE
  5
3C5
100
AcDbEntity
  8
SMUSSO
100
AcDbLine
 62
7
  6
CONTINUOUS
 10
66.8486765083
 20
-3.6127449342
 11
67.3574027115
 21
-3.7466991254
  0
LINE
  5
3C6
100
AcDbEntity
  8
SMUSSO
100
AcDbLine
 62
7
  6
CONTINUOUS
 10
40.4579650425
 20
23.1527385436
 11
40.5919192337
 21
22.6440123404
  0
LINE
  5
3C7
100
AcDbEntity
  8
RACCORDO
100
AcDbLine
 62
253
  6
CONTINUOUS
 10
57.6043146402
 20
19.1111745467
 11
57.6043146402
 21
18.4387904249
  0
LINE
  5
3C8
100
AcDbEntity
  8
RACCORDO
100
AcDbLine
 62
253
  6
CONTINUOUS
 10
57.6043146402
 20
-61.5747512599
 11
57.6043146402
 21
-62.2471353818
  0
LINE
  5
3C9
100
AcDbEntity
  8
RACCORDO
100
AcDbLine
 62
7
  6
CONTINUOUS
 10
58.1042956017
 20
19.1111745467
 11
58.1042956017
 21
18.6458893201
  0
LINE
  5
3CA
100
AcDbEntity
  8
RACCORDO
100
AcDbLine
 62
7
  6
CONTINUOUS
 10
58.1042956017
 20
-61.7818501551
 11
58.1042956017
 21
-62.2471353818
  0
LINE
  5
3CB
100
AcDbEntity
  8
RACCORDO
100
AcDbLine
 62
7
  6
CONTINUOUS
 10
58.1261508489
 20
21.611631528
 11
58.1261508489
 21
20.902552484
  0
LINE
  5
3CC
100
AcDbEntity
  8
RACCORDO
100
AcDbLine
 62
7
  6
CONTINUOUS
 10
58.1261508489
 20
-64.038513319
 11
58.1261508489
 21
-64.747592363
  0
LINE
  5
3CD
100
AcDbEntity
  8
DRAFT
100
AcDbLine
 62
7
  6
CONTINUOUS
 10
58.3966837504
 20
-63.7679804175
 11
58.3966837504
 21
-61.9029612918
  0
LINE
  5
3CE
100
AcDbEntity
  8
DRAFT
100
AcDbLine
 62
7
  6
CONTINUOUS
 10
58.3966837504
 20
18.7670004568
 11
58.3966837504
 21
20.6320195825
  0
LINE
  5
3CF
100
AcDbEntity
  8
DRAFT
100
AcDbLine
 62
7
  6
CONTINUOUS
 10
62.133743089
 20
19.4140031615
 11
62.133743089
 21
19.7965944599
  0
LINE
  5
3D0
100
AcDbEntity
  8
DRAFT
100
AcDbLine
 62
7
  6
CONTINUOUS
 10
62.133743089
 20
-62.5499639966
 11
62.133743089
 21
-62.932555295
  0
LINE
  5
3D1
100
AcDbEntity
  8
RACCORDO
100
AcDbLine
 62
253
  6
CONTINUOUS
 10
-18.0424712139
 20
13.3996504723
 11
-17.3700870921
 21
13.3996504723
  0
LINE
  5
3D2
100
AcDbEntity
  8
RACCORDO
100
AcDbLine
 62
253
  6
CONTINUOUS
 10
62.6434545928
 20
13.3996504723
 11
63.3158387146
 21
13.3996504723
  0
LINE
  5
3D3
100
AcDbEntity
  8
RACCORDO
100
AcDbLine
 62
7
  6
CONTINUOUS
 10
-18.0424712139
 20
13.8996314338
 11
-17.5771859872
 21
13.8996314338
  0
LINE
  5
3D4
100
AcDbEntity
  8
RACCORDO
100
AcDbLine
 62
7
  6
CONTINUOUS
 10
62.850553488
 20
13.8996314338
 11
63.3158387146
 21
13.8996314338
  0
LINE
  5
3D5
100
AcDbEntity
  8
RACCORDO
100
AcDbLine
 62
7
  6
CONTINUOUS
 10
-20.5429281951
 20
13.921486681
 11
-19.8338491511
 21
13.921486681
  0
LINE
  5
3D6
100
AcDbEntity
  8
RACCORDO
100
AcDbLine
 62
7
  6
CONTINUOUS
 10
65.1072166519
 20
13.921486681
 11
65.8162956959
 21
13.921486681
  0
LINE
  5
3D7
100
AcDbEntity
  8
DRAFT
100
AcDbLine
 62
7
  6
CONTINUOUS
 10
64.8366837504
 20
14.1920195825
 11
62.9716646247
 21
14.1920195825
  0
LINE
  5
3D8
100
AcDbEntity
  8
DRAFT
100
AcDbLine
 62
7
  6
CONTINUOUS
 10
-17.6982971239
 20
14.1920195825
 11
-19.5633162496
 21
14.1920195825
  0
LINE
  5
3D9
100
AcDbEntity
  8
DRAFT
100
AcDbLine
 62
7
  6
CONTINUOUS
 10
-18.3452998287
 20
17.9290789211
 11
-18.7278911271
 21
17.9290789211
  0
LINE
  5
3DA
100
AcDbEntity
  8
DRAFT
100
AcDbLine
 62
7
  6
CONTINUOUS
 10
63.6186673294
 20
17.9290789211
 11
64.0012586278
 21
17.9290789211
  0
LINE
  5
3DB
100
AcDbEntity
  8
SMUSSO
100
AcDbLine
 62
7
  6
CONTINUOUS
 10
66.8486765083
 20
-36.1127449342
 11
66.8294746076
 21
-35.8179804175
  0
LINE
  5
3DC
100
AcDbEntity
  8
RACCORDO
100
AcDbLine
 62
253
  6
CONTINUOUS
 10
63.3158387146
 20
-57.0355922689
 11
63.3158387146
 21
13.8996314338
  0
LINE
  5
3DD
100
AcDbEntity
  8
DRAFT
100
AcDbLine
 62
7
  6
CONTINUOUS
 10
64.8366837504
 20
16.7110625001
 11
64.8366837504
 21
14.1920195825
  0
LINE
  5
3DE
100
AcDbEntity
  8
DRAFT
100
AcDbLine
 62
7
  6
CONTINUOUS
 10
64.8366837504
 20
-57.3279804175
 11
64.8366837504
 21
-59.8470233351
  0
LINE
  5
3DF
100
AcDbEntity
  8
DRAFT
100
AcDbLine
 62
7
  6
CONTINUOUS
 10
65.1072166519
 20
16.823120897
 11
65.1072166519
 21
13.921486681
  0
LINE
  5
3E0
100
AcDbEntity
  8
DRAFT
100
AcDbLine
 62
7
  6
CONTINUOUS
 10
65.1072166519
 20
-57.057447516
 11
65.1072166519
 21
-59.959081732
  0
LINE
  5
3E1
100
AcDbEntity
  8
RACCORDO
100
AcDbLine
 62
7
  6
CONTINUOUS
 10
65.7158387146
 20
11.7320195825
 11
65.7158387146
 21
10.1320195825
  0
LINE
  5
3E2
100
AcDbEntity
  8
RACCORDO
100
AcDbLine
 62
7
  6
CONTINUOUS
 10
65.7158387146
 20
-20.7679804175
 11
65.7158387146
 21
-22.3679804175
  0
LINE
  5
3E3
100
AcDbEntity
  8
RACCORDO
100
AcDbLine
 62
7
  6
CONTINUOUS
 10
65.7158387146
 20
-53.2679804175
 11
65.7158387146
 21
-54.8679804175
  0
LINE
  5
3E4
100
AcDbEntity
  8
RACCORDO
100
AcDbLine
 62
7
  6
CONTINUOUS
 10
66.1366837504
 20
11.7625248007
 11
66.1366837504
 21
10.116768135
  0
LINE
  5
3E5
100
AcDbEntity
  8
RACCORDO
100
AcDbLine
 62
7
  6
CONTINUOUS
 10
66.1366837504
 20
-20.75272897
 11
66.1366837504
 21
-22.383231865
  0
LINE
  5
3E6
100
AcDbEntity
  8
RACCORDO
100
AcDbLine
 62
7
  6
CONTINUOUS
 10
66.1366837504
 20
-53.25272897
 11
66.1366837504
 21
-54.8984856357
  0
LINE
  5
3E7
100
AcDbEntity
  8
RACCORDO
100
AcDbLine
 62
253
  6
CONTINUOUS
 10
66.3153818001
 20
-56.5570477147
 11
66.3153818001
 21
-54.8984856357
  0
LINE
  5
3E8
100
AcDbEntity
  8
RACCORDO
100
AcDbLine
 62
253
  6
CONTINUOUS
 10
66.3153818001
 20
-53.25272897
 11
66.3153818001
 21
-22.383231865
  0
LINE
  5
3E9
100
AcDbEntity
  8
RACCORDO
100
AcDbLine
 62
253
  6
CONTINUOUS
 10
66.3153818001
 20
-20.75272897
 11
66.3153818001
 21
10.116768135
  0
LINE
  5
3EA
100
AcDbEntity
  8
RACCORDO
100
AcDbLine
 62
253
  6
CONTINUOUS
 10
66.3153818001
 20
11.7625248007
 11
66.3153818001
 21
13.4210868797
  0
LINE
  5
3EB
100
AcDbEntity
  8
RACCORDO
100
AcDbLine
 62
7
  6
CONTINUOUS
 10
66.3162956988
 20
17.3197686527
 11
66.3162956988
 21
13.4215437942
  0
LINE
  5
3EC
100
AcDbEntity
  8
RACCORDO
100
AcDbLine
 62
7
  6
CONTINUOUS
 10
66.3162956988
 20
-56.5575046292
 11
66.3162956988
 21
-60.4557294877
  0
LINE
  5
3ED
100
AcDbEntity
  8
RACCORDO
100
AcDbLine
 62
7
  6
CONTINUOUS
 10
66.8294746076
 20
8.3727744915
 11
66.8294746076
 21
-3.3179804175
  0
LINE
  5
3EE
100
AcDbEntity
  8
RACCORDO
100
AcDbLine
 62
7
  6
CONTINUOUS
 10
66.8294746076
 20
-7.3179804175
 11
66.8294746076
 21
-19.0087353265
  0
LINE
  5
3EF
100
AcDbEntity
  8
RACCORDO
100
AcDbLine
 62
7
  6
CONTINUOUS
 10
66.8294746076
 20
-24.1272255085
 11
66.8294746076
 21
-35.8179804175
  0
LINE
  5
3F0
100
AcDbEntity
  8
RACCORDO
100
AcDbLine
 62
7
  6
CONTINUOUS
 10
66.8294746076
 20
-39.8179804175
 11
66.8294746076
 21
-51.5087353265
  0
LINE
  5
3F1
100
AcDbEntity
  8
SMUSSO
100
AcDbLine
 62
7
  6
CONTINUOUS
 10
66.8486765083
 20
-39.5232159009
 11
66.8486765083
 21
-36.1127449342
  0
LINE
  5
3F2
100
AcDbEntity
  8
SMUSSO
100
AcDbLine
 62
7
  6
CONTINUOUS
 10
66.8486765083
 20
-7.0232159009
 11
66.8486765083
 21
-3.6127449342
  0
LINE
  5
3F3
100
AcDbEntity
  8
DRAFT
100
AcDbLine
 62
7
  6
CONTINUOUS
 10
66.8574027115
 20
17.5439025161
 11
66.8574027115
 21
12.3045457121
  0
LINE
  5
3F4
100
AcDbEntity
  8
SMUSSO
100
AcDbLine
 62
7
  6
CONTINUOUS
 10
66.8574027115
 20
12.3045457121
 11
66.8574027115
 21
-3.6127449342
  0
LINE
  5
3F5
100
AcDbEntity
  8
SMUSSO
100
AcDbLine
 62
7
  6
CONTINUOUS
 10
66.8574027115
 20
-7.0232159009
 11
66.8574027115
 21
-36.1127449342
  0
LINE
  5
3F6
100
AcDbEntity
  8
SMUSSO
100
AcDbLine
 62
7
  6
CONTINUOUS
 10
66.8574027115
 20
-39.5232159009
 11
66.8574027115
 21
-55.4405065472
  0
LINE
  5
3F7
100
AcDbEntity
  8
DRAFT
100
AcDbLine
 62
7
  6
CONTINUOUS
 10
66.8574027115
 20
-55.4405065472
 11
66.8574027115
 21
-60.6798633511
  0
LINE
  5
3F8
100
AcDbEntity
  8
SMUSSO
100
AcDbLine
 62
7
  6
CONTINUOUS
 10
67.3574027115
 20
-39.3892617096
 11
67.3574027115
 21
-36.2466991254
  0
LINE
  5
3F9
100
AcDbEntity
  8
SMUSSO
100
AcDbLine
 62
7
  6
CONTINUOUS
 10
67.3574027115
 20
-6.8892617096
 11
67.3574027115
 21
-3.7466991254
  0
LINE
  5
3FA
100
AcDbEntity
  8
SMUSSO
100
AcDbLine
 62
7
  6
CONTINUOUS
 10
66.8486765083
 20
-7.0232159009
 11
66.8294746076
 21
-7.3179804175
  0
LINE
  5
3FB
100
AcDbEntity
  8
DRAFT
100
AcDbLine
 62
7
  6
CONTINUOUS
 10
36.1897821918
 20
-67.5679804175
 11
36.04141414
 21
-67.7163484694
  0
LINE
  5
3FC
100
AcDbEntity
  8
SMUSSO
100
AcDbLine
 62
7
  6
CONTINUOUS
 10
37.181448267
 20
22.6440123404
 11
36.8866837504
 21
22.6248104398
  0
LINE
  5
3FD
100
AcDbEntity
  8
RACCORDO
100
AcDbLine
 62
253
  6
CONTINUOUS
 10
58.1042956017
 20
19.1111745467
 11
-12.830928101
 21
19.1111745467
  0
LINE
  5
3FE
100
AcDbEntity
  8
DRAFT
100
AcDbLine
 62
7
  6
CONTINUOUS
 10
-15.6423591673
 20
20.6320195825
 11
-13.1233162496
 21
20.6320195825
  0
LINE
  5
3FF
100
AcDbEntity
  8
DRAFT
100
AcDbLine
 62
7
  6
CONTINUOUS
 10
58.3966837504
 20
20.6320195825
 11
60.915726668
 21
20.6320195825
  0
LINE
  5
400
100
AcDbEntity
  8
DRAFT
100
AcDbLine
 62
7
  6
CONTINUOUS
 10
-15.7544175641
 20
20.902552484
 11
-12.8527833481
 21
20.902552484
  0
LINE
  5
401
100
AcDbEntity
  8
DRAFT
100
AcDbLine
 62
7
  6
CONTINUOUS
 10
58.1261508489
 20
20.902552484
 11
61.0277850649
 21
20.902552484
  0
LINE
  5
402
100
AcDbEntity
  8
RACCORDO
100
AcDbLine
 62
7
  6
CONTINUOUS
 10
-10.6633162496
 20
21.5111745467
 11
-9.0633162496
 21
21.5111745467
  0
LINE
  5
403
100
AcDbEntity
  8
RACCORDO
100
AcDbLine
 62
7
  6
CONTINUOUS
 10
21.8366837504
 20
21.5111745467
 11
23.4366837504
 21
21.5111745467
  0
LINE
  5
404
100
AcDbEntity
  8
RACCORDO
100
AcDbLine
 62
7
  6
CONTINUOUS
 10
54.3366837504
 20
21.5111745467
 11
55.9366837504
 21
21.5111745467
  0
LINE
  5
405
100
AcDbEntity
  8
RACCORDO
100
AcDbLine
 62
253
  6
CONTINUOUS
 10
57.6257510476
 20
22.1107176322
 11
55.9671889686
 21
22.1107176322
  0
LINE
  5
406
100
AcDbEntity
  8
RACCORDO
100
AcDbLine
 62
253
  6
CONTINUOUS
 10
54.3214323029
 20
22.1107176322
 11
23.4519351979
 21
22.1107176322
  0
LINE
  5
407
100
AcDbEntity
  8
RACCORDO
100
AcDbLine
 62
253
  6
CONTINUOUS
 10
21.8214323029
 20
22.1107176322
 11
-9.0480648021
 21
22.1107176322
  0
LINE
  5
408
100
AcDbEntity
  8
RACCORDO
100
AcDbLine
 62
253
  6
CONTINUOUS
 10
-10.6938214678
 20
22.1107176322
 11
-12.3523835468
 21
22.1107176322
  0
LINE
  5
409
100
AcDbEntity
  8
RACCORDO
100
AcDbLine
 62
7
  6
CONTINUOUS
 10
-16.2510653198
 20
22.1116315309
 11
-12.3528404613
 21
22.1116315309
  0
LINE
  5
40A
100
AcDbEntity
  8
RACCORDO
100
AcDbLine
 62
7
  6
CONTINUOUS
 10
57.6262079621
 20
22.1116315309
 11
61.5244328206
 21
22.1116315309
  0
LINE
  5
40B
100
AcDbEntity
  8
RACCORDO
100
AcDbLine
 62
7
  6
CONTINUOUS
 10
52.5774386594
 20
22.6248104398
 11
40.8866837504
 21
22.6248104398
  0
LINE
  5
40C
100
AcDbEntity
  8
RACCORDO
100
AcDbLine
 62
7
  6
CONTINUOUS
 10
36.8866837504
 20
22.6248104398
 11
25.1959288413
 21
22.6248104398
  0
LINE
  5
40D
100
AcDbEntity
  8
RACCORDO
100
AcDbLine
 62
7
  6
CONTINUOUS
 10
20.0774386594
 20
22.6248104398
 11
8.3866837504
 21
22.6248104398
  0
LINE
  5
40E
100
AcDbEntity
  8
RACCORDO
100
AcDbLine
 62
7
  6
CONTINUOUS
 10
4.3866837504
 20
22.6248104398
 11
-7.3040711587
 21
22.6248104398
  0
LINE
  5
40F
100
AcDbEntity
  8
SMUSSO
100
AcDbLine
 62
7
  6
CONTINUOUS
 10
40.5919192337
 20
22.6440123404
 11
37.181448267
 21
22.6440123404
  0
LINE
  5
410
100
AcDbEntity
  8
SMUSSO
100
AcDbLine
 62
7
  6
CONTINUOUS
 10
8.0919192337
 20
22.6440123404
 11
4.681448267
 21
22.6440123404
  0
LINE
  5
411
100
AcDbEntity
  8
DRAFT
100
AcDbLine
 62
7
  6
CONTINUOUS
 10
-16.4751991832
 20
22.6527385436
 11
-11.2358423793
 21
22.6527385436
  0
LINE
  5
412
100
AcDbEntity
  8
SMUSSO
100
AcDbLine
 62
7
  6
CONTINUOUS
 10
-11.2358423793
 20
22.6527385436
 11
4.681448267
 21
22.6527385436
  0
LINE
  5
413
100
AcDbEntity
  8
SMUSSO
100
AcDbLine
 62
7
  6
CONTINUOUS
 10
8.0919192337
 20
22.6527385436
 11
37.181448267
 21
22.6527385436
  0
LINE
  5
414
100
AcDbEntity
  8
SMUSSO
100
AcDbLine
 62
7
  6
CONTINUOUS
 10
40.5919192337
 20
22.6527385436
 11
56.50920988
 21
22.6527385436
  0
LINE
  5
415
100
AcDbEntity
  8
DRAFT
100
AcDbLine
 62
7
  6
CONTINUOUS
 10
56.50920988
 20
22.6527385436
 11
61.748566684
 21
22.6527385436
  0
LINE
  5
416
100
AcDbEntity
  8
SMUSSO
100
AcDbLine
 62
7
  6
CONTINUOUS
 10
40.4579650425
 20
23.1527385436
 11
37.3154024583
 21
23.1527385436
  0
LINE
  5
417
100
AcDbEntity
  8
SMUSSO
100
AcDbLine
 62
7
  6
CONTINUOUS
 10
7.9579650425
 20
23.1527385436
 11
4.8154024583
 21
23.1527385436
  0
LINE
  5
418
100
AcDbEntity
  8
SMUSSO
100
AcDbLine
 62
7
  6
CONTINUOUS
 10
8.0919192337
 20
22.6440123404
 11
8.3866837504
 21
22.6248104398
  0
LINE
  5
419
100
AcDbEntity
  8
DRAFT
100
AcDbLine
 62
7
  6
CONTINUOUS
 10
36.04141414
 20
24.5803876344
 11
36.1897821918
 21
24.4320195825
  0
LINE
  5
41A
100
AcDbEntity
  8
SMUSSO
100
AcDbLine
 62
7
  6
CONTINUOUS
 10
66.8486765083
 20
-3.6127449342
 11
66.8294746076
 21
-3.3179804175
  0
LINE
  5
41B
100
AcDbEntity
  8
SMUSSO
100
AcDbLine
 62
7
  6
CONTINUOUS
 10
66.8486765083
 20
-39.5232159009
 11
66.8294746076
 21
-39.8179804175
  0
LINE
  5
41C
100
AcDbEntity
  8
RACCORDO
100
AcDbLine
 62
253
  6
CONTINUOUS
 10
60.7572061006
 20
-59.4211079825
 11
60.9330689797
 21
-58.9530767766
  0
LINE
  5
41D
100
AcDbEntity
  8
RACCORDO
100
AcDbLine
 62
7
  6
CONTINUOUS
 10
54.077381544
 20
-65.7348171607
 11
54.3214323029
 21
-65.2466784672
  0
LINE
  5
41E
100
AcDbEntity
  8
RACCORDO
100
AcDbLine
 62
7
  6
CONTINUOUS
 10
66.3153818001
 20
-53.25272897
 11
66.8035204936
 21
-53.0086782111
  0
LINE
  5
41F
100
AcDbEntity
  8
RACCORDO
100
AcDbLine
 62
253
  6
CONTINUOUS
 10
60.4898113154
 20
-59.6885027678
 11
60.0217801096
 21
-59.864365647
  0
LINE
  5
420
100
AcDbEntity
  8
SMUSSO
100
AcDbLine
 62
7
  6
CONTINUOUS
 10
4.681448267
 20
22.6440123404
 11
4.3866837504
 21
22.6248104398
  0
LINE
  5
421
100
AcDbEntity
  8
DRAFT
100
AcDbLine
 62
7
  6
CONTINUOUS
 10
36.1897821918
 20
24.4320195825
 11
9.0835853089
 21
24.4320195825
  0
LINE
  5
422
100
AcDbEntity
  8
RACCORDO
100
AcDbLine
 62
7
  6
CONTINUOUS
 10
36.04141414
 20
24.5803876344
 11
9.2319533608
 21
24.5803876344
  0
LINE
  5
423
100
AcDbEntity
  8
DRAFT
100
AcDbLine
 62
7
  6
CONTINUOUS
 10
35.9366837504
 20
25.1053196155
 11
35.49141414
 21
25.1053196155
  0
LINE
  5
424
100
AcDbEntity
  8
DRAFT
100
AcDbLine
 62
7
  6
CONTINUOUS
 10
9.7819533608
 20
25.1053196155
 11
9.3366837504
 21
25.1053196155
  0
LINE
  5
425
100
AcDbEntity
  8
DRAFT
100
AcDbLine
 62
7
  6
CONTINUOUS
 10
35.49141414
 20
25.2100500051
 11
33.1715187181
 21
25.2100500051
  0
LINE
  5
426
100
AcDbEntity
  8
DRAFT
100
AcDbLine
 62
7
  6
CONTINUOUS
 10
12.1018487827
 20
25.2100500051
 11
9.7819533608
 21
25.2100500051
  0
LINE
  5
427
100
AcDbEntity
  8
SMUSSO
100
AcDbLine
 62
7
  6
CONTINUOUS
 10
40.5919192337
 20
22.6440123404
 11
40.8866837504
 21
22.6248104398
  0
LINE
  5
428
100
AcDbEntity
  8
RACCORDO
100
AcDbLine
 62
7
  6
CONTINUOUS
 10
66.3153818001
 20
10.116768135
 11
66.8035204936
 21
9.8727173761
  0
LINE
  5
429
100
AcDbEntity
  8
RACCORDO
100
AcDbLine
 62
7
  6
CONTINUOUS
 10
54.077381544
 20
22.5988563257
 11
54.3214323029
 21
22.1107176322
  0
LINE
  5
42A
100
AcDbEntity
  8
RACCORDO
100
AcDbLine
 62
253
  6
CONTINUOUS
 10
60.7572061006
 20
16.2851471475
 11
60.93306898
 21
15.8171159417
  0
LINE
  5
42B
100
AcDbEntity
  8
RACCORDO
100
AcDbLine
 62
253
  6
CONTINUOUS
 10
74.5841662276
 20
-52.5679804175
 11
74.5841662276
 21
9.4320195825
  0
LINE
  5
42C
100
AcDbEntity
  8
RACCORDO
100
AcDbLine
 62
253
  6
CONTINUOUS
 10
75.5840139227
 20
-52.5679804175
 11
75.5840139227
 21
9.4320195825
  0
LINE
  5
42D
100
AcDbEntity
  8
DRAFT
100
AcDbLine
 62
7
  6
CONTINUOUS
 10
75.6366837504
 20
9.4320195825
 11
75.6366837504
 21
-52.5679804175
  0
LINE
  5
42E
100
AcDbEntity
  8
0
100
AcDbLine
 62
7
  6
CONTINUOUS
 10
78.6366837504
 20
-70.5679804175
 11
78.6366837504
 21
27.4320195825
  0
LINE
  5
42F
100
AcDbEntity
  8
0
100
AcDbLine
 62
7
  6
CONTINUOUS
 10
62.1595273571
 20
-59.7155517912
 11
62.4209491604
 21
-59.289337478
  0
LINE
  5
430
100
AcDbEntity
  8
0
100
AcDbLine
 62
7
  6
CONTINUOUS
 10
61.1138401437
 20
-61.4204090438
 11
60.8524183404
 21
-61.846623357
  0
LINE
  5
431
100
AcDbEntity
  8
RACCORDO
100
AcDbLine
 62
253
  6
CONTINUOUS
 10
57.6043146402
 20
-61.5747512599
 11
59.6682401813
 21
-59.5108257189
  0
LINE
  5
432
100
AcDbEntity
  8
RACCORDO
100
AcDbLine
 62
253
  6
CONTINUOUS
 10
60.5795290517
 20
-58.5995368484
 11
62.6434545928
 21
-56.5356113073
  0
LINE
  5
433
100
AcDbEntity
  8
RACCORDO
100
AcDbLine
 62
7
  6
CONTINUOUS
 10
58.1042956017
 20
-61.7818501551
 11
60.0217801097
 21
-59.8643656472
  0
LINE
  5
434
100
AcDbEntity
  8
RACCORDO
100
AcDbLine
 62
7
  6
CONTINUOUS
 10
60.9330689801
 20
-58.9530767768
 11
62.850553488
 21
-57.0355922689
  0
LINE
  5
435
100
AcDbEntity
  8
DRAFT
100
AcDbLine
 62
7
  6
CONTINUOUS
 10
58.3966837504
 20
-61.9029612918
 11
59.9770674063
 21
-60.3225776358
  0
LINE
  5
436
100
AcDbEntity
  8
DRAFT
100
AcDbLine
 62
7
  6
CONTINUOUS
 10
61.3912809687
 20
-58.9083640735
 11
62.9716646247
 21
-57.3279804175
  0
LINE
  5
437
100
AcDbEntity
  8
DRAFT
100
AcDbLine
 62
7
  6
CONTINUOUS
 10
58.3966837504
 20
-63.7679804175
 11
58.1261508489
 21
-64.038513319
  0
LINE
  5
438
100
AcDbEntity
  8
DRAFT
100
AcDbLine
 62
7
  6
CONTINUOUS
 10
64.8366837504
 20
-57.3279804175
 11
65.1072166519
 21
-57.057447516
  0
LINE
  5
439
100
AcDbEntity
  8
DRAFT
100
AcDbLine
 62
7
  6
CONTINUOUS
 10
35.9366837504
 20
29.2587195494
 11
31.6979235155
 21
29.2587195494
  0
LINE
  5
43A
100
AcDbEntity
  8
DRAFT
100
AcDbLine
 62
7
  6
CONTINUOUS
 10
13.5754439852
 20
29.2587195494
 11
9.3366837504
 21
29.2587195494
  0
LINE
  5
43B
100
AcDbEntity
  8
RACCORDO
100
AcDbLine
 62
7
  6
CONTINUOUS
 10
9.2319533608
 20
29.7836515306
 11
36.04141414
 21
29.7836515306
  0
LINE
  5
43C
100
AcDbEntity
  8
DRAFT
100
AcDbLine
 62
7
  6
CONTINUOUS
 10
36.1897821918
 20
29.9320195825
 11
9.0835853089
 21
29.9320195825
  0
LINE
  5
43D
100
AcDbEntity
  8
RACCORDO
100
AcDbLine
 62
253
  6
CONTINUOUS
 10
53.6366837504
 20
30.3795020597
 11
-8.3633162496
 21
30.3795020597
  0
LINE
  5
43E
100
AcDbEntity
  8
RACCORDO
100
AcDbLine
 62
253
  6
CONTINUOUS
 10
53.6366837504
 20
31.3793497548
 11
-8.3633162496
 21
31.3793497548
  0
LINE
  5
43F
100
AcDbEntity
  8
RACCORDO
100
AcDbLine
 62
7
  6
CONTINUOUS
 10
53.6366837504
 20
31.4320195825
 11
-8.3633162496
 21
31.4320195825
  0
LINE
  5
440
100
AcDbEntity
  8
DRAFT
100
AcDbLine
 62
7
  6
CONTINUOUS
 10
30.7249218763
 20
31.9320195825
 11
14.5484456245
 21
31.9320195825
  0
LINE
  5
441
100
AcDbEntity
  8
0
100
AcDbLine
 62
7
  6
CONTINUOUS
 10
71.6366837504
 20
34.4320195825
 11
-26.3633162496
 21
34.4320195825
  0
LINE
  5
442
100
AcDbEntity
  8
RACCORDO
100
AcDbLine
 62
253
  6
CONTINUOUS
 10
62.6434545928
 20
13.3996504723
 11
60.5795290517
 21
15.4635760134
  0
LINE
  5
443
100
AcDbEntity
  8
RACCORDO
100
AcDbLine
 62
253
  6
CONTINUOUS
 10
59.6682401813
 20
16.3748648838
 11
57.6043146402
 21
18.4387904249
  0
LINE
  5
444
100
AcDbEntity
  8
RACCORDO
100
AcDbLine
 62
7
  6
CONTINUOUS
 10
62.850553488
 20
13.8996314338
 11
60.9330689801
 21
15.8171159418
  0
LINE
  5
445
100
AcDbEntity
  8
RACCORDO
100
AcDbLine
 62
7
  6
CONTINUOUS
 10
60.0217801097
 20
16.7284048122
 11
58.1042956017
 21
18.6458893201
  0
LINE
  5
446
100
AcDbEntity
  8
DRAFT
100
AcDbLine
 62
7
  6
CONTINUOUS
 10
62.9716646247
 20
14.1920195825
 11
61.3912809687
 21
15.7724032384
  0
LINE
  5
447
100
AcDbEntity
  8
DRAFT
100
AcDbLine
 62
7
  6
CONTINUOUS
 10
59.9770674063
 20
17.1866168008
 11
58.3966837504
 21
18.7670004568
  0
LINE
  5
448
100
AcDbEntity
  8
DRAFT
100
AcDbLine
 62
7
  6
CONTINUOUS
 10
58.3966837504
 20
20.6320195825
 11
58.1261508489
 21
20.902552484
  0
LINE
  5
449
100
AcDbEntity
  8
DRAFT
100
AcDbLine
 62
7
  6
CONTINUOUS
 10
64.8366837504
 20
14.1920195825
 11
65.1072166519
 21
13.921486681
  0
LINE
  5
44A
100
AcDbEntity
  8
0
100
AcDbLine
 62
7
  6
CONTINUOUS
 10
81.6366837504
 20
27.4320195825
 11
81.6366837504
 21
-70.5679804175
  0
LINE
  5
44B
100
AcDbEntity
  8
DRAFT
100
AcDbLine
 62
7
  6
CONTINUOUS
 10
64.8366837504
 20
-59.8470233351
 11
63.6186673294
 21
-61.0650397561
  0
LINE
  5
44C
100
AcDbEntity
  8
DRAFT
100
AcDbLine
 62
7
  6
CONTINUOUS
 10
62.133743089
 20
-62.5499639966
 11
60.915726668
 21
-63.7679804175
  0
LINE
  5
44D
100
AcDbEntity
  8
DRAFT
100
AcDbLine
 62
7
  6
CONTINUOUS
 10
65.1072166519
 20
-59.959081732
 11
64.0012586278
 21
-61.0650397561
  0
LINE
  5
44E
100
AcDbEntity
  8
DRAFT
100
AcDbLine
 62
7
  6
CONTINUOUS
 10
62.133743089
 20
-62.932555295
 11
61.0277850649
 21
-64.038513319
  0
LINE
  5
44F
100
AcDbEntity
  8
DRAFT
100
AcDbLine
 62
7
  6
CONTINUOUS
 10
66.3162956988
 20
-60.4557294877
 11
64.8541220291
 21
-61.9179031574
  0
LINE
  5
450
100
AcDbEntity
  8
DRAFT
100
AcDbLine
 62
7
  6
CONTINUOUS
 10
62.9866064902
 20
-63.7854186962
 11
61.5244328206
 21
-65.2475923659
  0
LINE
  5
451
100
AcDbEntity
  8
DRAFT
100
AcDbLine
 62
7
  6
CONTINUOUS
 10
66.8574027115
 20
-60.6798633511
 11
65.045446818
 21
-62.4918192446
  0
LINE
  5
452
100
AcDbEntity
  8
DRAFT
100
AcDbLine
 62
7
  6
CONTINUOUS
 10
63.5605225775
 20
-63.9767434851
 11
61.748566684
 21
-65.7886993787
  0
LINE
  5
453
100
AcDbEntity
  8
0
100
AcDbLine
 62
7
  6
CONTINUOUS
 10
-26.3633162496
 20
37.4320195825
 11
71.6366837504
 21
37.4320195825
  0
LINE
  5
454
100
AcDbEntity
  8
DRAFT
100
AcDbLine
 62
7
  6
CONTINUOUS
 10
60.915726668
 20
20.6320195825
 11
62.133743089
 21
19.4140031615
  0
LINE
  5
455
100
AcDbEntity
  8
DRAFT
100
AcDbLine
 62
7
  6
CONTINUOUS
 10
63.6186673294
 20
17.9290789211
 11
64.8366837504
 21
16.7110625001
  0
LINE
  5
456
100
AcDbEntity
  8
DRAFT
100
AcDbLine
 62
7
  6
CONTINUOUS
 10
61.0277850649
 20
20.902552484
 11
62.133743089
 21
19.7965944599
  0
LINE
  5
457
100
AcDbEntity
  8
DRAFT
100
AcDbLine
 62
7
  6
CONTINUOUS
 10
64.0012586278
 20
17.9290789211
 11
65.1072166519
 21
16.823120897
  0
LINE
  5
458
100
AcDbEntity
  8
DRAFT
100
AcDbLine
 62
7
  6
CONTINUOUS
 10
61.5244328206
 20
22.1116315309
 11
62.9866064902
 21
20.6494578612
  0
LINE
  5
459
100
AcDbEntity
  8
DRAFT
100
AcDbLine
 62
7
  6
CONTINUOUS
 10
64.8541220291
 20
18.7819423223
 11
66.3162956988
 21
17.3197686527
  0
LINE
  5
45A
100
AcDbEntity
  8
DRAFT
100
AcDbLine
 62
7
  6
CONTINUOUS
 10
61.748566684
 20
22.6527385436
 11
63.5605225775
 21
20.8407826501
  0
LINE
  5
45B
100
AcDbEntity
  8
DRAFT
100
AcDbLine
 62
7
  6
CONTINUOUS
 10
65.045446818
 20
19.3558584096
 11
66.8574027115
 21
17.5439025161
  0
ARC
  5
45C
100
AcDbEntity
  8
0
100
AcDbCircle
 62
7
  6
CONTINUOUS
 10
-26.3633162496
 20
-70.5679804175
 40
10.0
100
AcDbArc
 50
180.0
 51
270.0
  0
ARC
  5
45D
100
AcDbEntity
  8
0
100
AcDbCircle
 62
7
  6
CONTINUOUS
 10
-26.3633162496
 20
-70.5679804175
 40
7.0
100
AcDbArc
 50
180.0
 51
270.0
  0
ARC
  5
45E
100
AcDbEntity
  8
RACCORDO
100
AcDbCircle
 62
253
  6
CONTINUOUS
 10
-20.541961718
 20
-56.5569789516
 40
0.5000529587
100
AcDbArc
 50
180.007878839
 51
269.9852496616
  0
ARC
  5
45F
100
AcDbEntity
  8
RACCORDO
100
AcDbCircle
 62
253
  6
CONTINUOUS
 10
-12.3523147955
 20
-64.7466258965
 40
0.5000529468
100
AcDbArc
 50
180.0147491189
 51
269.9921225953
  0
ARC
  5
460
100
AcDbEntity
  8
DRAFT
100
AcDbCircle
 62
7
  6
CONTINUOUS
 10
-8.3633162496
 20
-52.5679804175
 40
22.0
100
AcDbArc
 50
180.0
 51
270.0
  0
ARC
  5
461
100
AcDbEntity
  8
RACCORDO
100
AcDbCircle
 62
253
  6
CONTINUOUS
 10
-8.3633162496
 20
-52.5679804175
 40
21.9473301734
100
AcDbArc
 50
180.0
 51
270.0
  0
ARC
  5
462
100
AcDbEntity
  8
RACCORDO
100
AcDbCircle
 62
253
  6
CONTINUOUS
 10
-8.3633162496
 20
-52.5679804175
 40
20.9474860488
100
AcDbArc
 50
180.0
 51
270.0
  0
CIRCLE
  5
463
100
AcDbEntity
  8
0
100
AcDbCircle
 62
7
  6
CONTINUOUS
 10
-16.3633157007
 20
-60.5679809506
 40
1.4999996177
  0
ARC
  5
464
100
AcDbEntity
  8
0
100
AcDbCircle
 62
7
  6
CONTINUOUS
 10
-16.3633162496
 20
-60.5679804175
 40
1.0
100
AcDbArc
 50
307.6774584221
 51
360.0
  0
ARC
  5
465
100
AcDbEntity
  8
0
100
AcDbCircle
 62
7
  6
CONTINUOUS
 10
-16.3633162496
 20
-60.5679804175
 40
1.0
100
AcDbArc
 50
127.6774584221
 51
255.84228485
  0
ARC
  5
466
100
AcDbEntity
  8
DRAFT
100
AcDbCircle
 62
7
  6
CONTINUOUS
 10
-15.4108066868
 20
-59.6154708547
 40
1.0
100
AcDbArc
 50
135.0
 51
147.142928721
  0
ARC
  5
467
100
AcDbEntity
  8
DRAFT
100
AcDbCircle
 62
7
  6
CONTINUOUS
 10
-15.4108066868
 20
-59.6154708547
 40
1.0
100
AcDbArc
 50
302.8767056881
 51
315.0
  0
ARC
  5
468
100
AcDbEntity
  8
0
100
AcDbCircle
 62
7
  6
CONTINUOUS
 10
-16.466654509
 20
-60.9297801777
 40
0.8320718012
100
AcDbArc
 50
344.7743839811
 51
349.517352529
  0
ARC
  5
469
100
AcDbEntity
  8
0
100
AcDbCircle
 62
7
  6
CONTINUOUS
 10
-16.2599779902
 20
-60.2061806573
 40
0.8320718012
100
AcDbArc
 50
164.7743839811
 51
169.517352529
  0
ARC
  5
46A
100
AcDbEntity
  8
0
100
AcDbCircle
 62
7
  6
CONTINUOUS
 10
-16.3073639295
 20
-60.4402202023
 40
0.813765055
100
AcDbArc
 50
150.6304078959
 51
164.4190814713
  0
ARC
  5
46B
100
AcDbEntity
  8
0
100
AcDbCircle
 62
7
  6
CONTINUOUS
 10
-16.4192685697
 20
-60.6957406327
 40
0.813765055
100
AcDbArc
 50
330.6304078959
 51
344.4190814713
  0
ARC
  5
46C
100
AcDbEntity
  8
RACCORDO
100
AcDbCircle
 62
7
  6
CONTINUOUS
 10
-15.4108066868
 20
-59.6154708547
 40
0.7076118513
100
AcDbArc
 50
110.5937263736
 51
339.4062736264
  0
ARC
  5
46D
100
AcDbEntity
  8
RACCORDO
100
AcDbCircle
 62
253
  6
CONTINUOUS
 10
-15.6596302838
 20
-58.9530878832
 40
0.4999330473
100
AcDbArc
 50
290.5865361874
 51
45.0010148497
  0
ARC
  5
46E
100
AcDbEntity
  8
RACCORDO
100
AcDbCircle
 62
253
  6
CONTINUOUS
 10
-14.7484328387
 20
-59.8642542142
 40
0.4999073747
100
AcDbArc
 50
44.9893297841
 51
159.4091561976
  0
ARC
  5
46F
100
AcDbEntity
  8
RACCORDO
100
AcDbCircle
 62
253
  6
CONTINUOUS
 10
-15.4108066868
 20
-59.6154708547
 40
0.2076308898
100
AcDbArc
 50
110.5937263736
 51
339.4062736264
  0
ARC
  5
470
100
AcDbEntity
  8
DRAFT
100
AcDbCircle
 62
7
  6
CONTINUOUS
 10
-17.1683532268
 20
-42.8695580949
 40
53.4463594414
100
AcDbArc
 50
50.1426712723
 51
50.3741639583
  0
ARC
  5
471
100
AcDbEntity
  8
DRAFT
100
AcDbCircle
 62
7
  6
CONTINUOUS
 10
-13.4669467131
 20
-34.6147162884
 40
43.0136167052
100
AcDbArc
 50
50.1510629914
 51
50.438833
  0
ARC
  5
472
100
AcDbEntity
  8
DRAFT
100
AcDbCircle
 62
7
  6
CONTINUOUS
 10
-13.6165932243
 20
-25.4746244582
 40
40.9572888392
100
AcDbArc
 50
38.8169756116
 51
39.2369027444
  0
ARC
  5
473
100
AcDbEntity
  8
DRAFT
100
AcDbCircle
 62
7
  6
CONTINUOUS
 10
-9.8175032758
 20
-26.4225115747
 40
32.6623810322
100
AcDbArc
 50
50.1653715911
 51
50.4686294605
  0
ARC
  5
474
100
AcDbEntity
  8
DRAFT
100
AcDbCircle
 62
7
  6
CONTINUOUS
 10
1.3351060669
 20
-61.3730173849
 40
53.4463594399
100
AcDbArc
 50
39.6258360293
 51
39.8573287154
  0
ARC
  5
475
100
AcDbEntity
  8
DRAFT
100
AcDbCircle
 62
7
  6
CONTINUOUS
 10
9.58994787
 20
-57.6716108711
 40
43.0136167062
100
AcDbArc
 50
39.5611669819
 51
39.8489369906
  0
ARC
  5
476
100
AcDbEntity
  8
DRAFT
100
AcDbCircle
 62
7
  6
CONTINUOUS
 10
18.6843087633
 20
-57.8776761143
 40
41.0299135759
100
AcDbArc
 50
50.7634688709
 51
51.1826527133
  0
ARC
  5
477
100
AcDbEntity
  8
DRAFT
100
AcDbCircle
 62
7
  6
CONTINUOUS
 10
17.7821525886
 20
-54.0221674373
 40
32.6623810316
100
AcDbArc
 50
39.5313705257
 51
39.8346283951
  0
ARC
  5
478
100
AcDbEntity
  8
DRAFT
100
AcDbCircle
 62
7
  6
CONTINUOUS
 10
20.4417207371
 20
-42.8695580876
 40
53.4463594419
100
AcDbArc
 50
129.6258360545
 51
129.8573287405
  0
ARC
  5
479
100
AcDbEntity
  8
DRAFT
100
AcDbCircle
 62
7
  6
CONTINUOUS
 10
1.3351060763
 20
-23.7629434425
 40
53.4463594375
100
AcDbArc
 50
320.1426712718
 51
320.3741639579
  0
ARC
  5
47A
100
AcDbEntity
  8
DRAFT
100
AcDbCircle
 62
7
  6
CONTINUOUS
 10
16.7403142235
 20
-34.6147162812
 40
43.0136167058
100
AcDbArc
 50
129.5611670161
 51
129.8489370247
  0
ARC
  5
47B
100
AcDbEntity
  8
DRAFT
100
AcDbCircle
 62
7
  6
CONTINUOUS
 10
9.5899478781
 20
-27.4643499549
 40
43.0136167057
100
AcDbArc
 50
320.1510629933
 51
320.4388330019
  0
ARC
  5
47C
100
AcDbEntity
  8
DRAFT
100
AcDbCircle
 62
7
  6
CONTINUOUS
 10
18.7300397186
 20
-27.3147034352
 40
40.9572888396
100
AcDbArc
 50
308.8169755951
 51
309.236902728
  0
ARC
  5
47D
100
AcDbEntity
  8
DRAFT
100
AcDbCircle
 62
7
  6
CONTINUOUS
 10
16.8899607251
 20
-25.4746244583
 40
40.9572888393
100
AcDbArc
 50
140.7630972556
 51
141.1830243885
  0
ARC
  5
47E
100
AcDbEntity
  8
DRAFT
100
AcDbCircle
 62
7
  6
CONTINUOUS
 10
13.0908707835
 20
-26.422511568
 40
32.6623810314
100
AcDbArc
 50
129.5313705563
 51
129.8346284257
  0
ARC
  5
47F
100
AcDbEntity
  8
DRAFT
100
AcDbCircle
 62
7
  6
CONTINUOUS
 10
17.7821525958
 20
-31.1137933912
 40
32.6623810303
100
AcDbArc
 50
320.165371588
 51
320.4686294575
  0
ARC
  5
480
100
AcDbEntity
  8
DRAFT
100
AcDbCircle
 62
7
  6
CONTINUOUS
 10
-40.6648939373
 20
-19.3730173883
 40
53.4463594452
100
AcDbArc
 50
39.6258360293
 51
39.8573287154
  0
ARC
  5
481
100
AcDbEntity
  8
DRAFT
100
AcDbCircle
 62
7
  6
CONTINUOUS
 10
-32.4100521276
 20
-15.6716108692
 40
43.0136167031
100
AcDbArc
 50
39.5611669819
 51
39.8489369906
  0
ARC
  5
482
100
AcDbEntity
  8
DRAFT
100
AcDbCircle
 62
7
  6
CONTINUOUS
 10
-23.2699602811
 20
-15.8212573994
 40
40.957288839
100
AcDbArc
 50
50.763097272
 51
51.1830244049
  0
ARC
  5
483
100
AcDbEntity
  8
DRAFT
100
AcDbCircle
 62
7
  6
CONTINUOUS
 10
-10.9812383768
 20
-21.0202801775
 40
33.6243173019
100
AcDbArc
 50
38.5825929391
 51
39.0917801805
  0
ARC
  5
484
100
AcDbEntity
  8
DRAFT
100
AcDbCircle
 62
7
  6
CONTINUOUS
 10
-18.815615991
 20
-13.18590256
 40
33.6243173022
100
AcDbArc
 50
50.9082198606
 51
51.4174071019
  0
ARC
  5
485
100
AcDbEntity
  8
DRAFT
100
AcDbCircle
 62
7
  6
CONTINUOUS
 10
-24.2178474111
 20
-12.0221674371
 40
32.6623810313
100
AcDbArc
 50
39.5313705257
 51
39.8346283951
  0
ARC
  5
486
100
AcDbEntity
  8
DRAFT
100
AcDbCircle
 62
7
  6
CONTINUOUS
 10
-14.3247349831
 20
-10.5069403167
 40
26.2343783897
100
AcDbArc
 50
51.1359167255
 51
51.6551316263
  0
ARC
  5
487
100
AcDbEntity
  8
DRAFT
100
AcDbCircle
 62
7
  6
CONTINUOUS
 10
-14.324734983
 20
9.3709794814
 40
26.2343783895
100
AcDbArc
 50
308.3448683737
 51
308.8640832745
  0
ARC
  5
488
100
AcDbEntity
  8
DRAFT
100
AcDbCircle
 62
7
  6
CONTINUOUS
 10
-40.6648939273
 20
18.2370565606
 40
53.4463594423
100
AcDbArc
 50
320.1426712718
 51
320.3741639579
  0
ARC
  5
489
100
AcDbEntity
  8
DRAFT
100
AcDbCircle
 62
7
  6
CONTINUOUS
 10
-32.4100521214
 20
14.5356500448
 40
43.0136167052
100
AcDbArc
 50
320.1510629933
 51
320.4388330019
  0
ARC
  5
48A
100
AcDbEntity
  8
0
100
AcDbCircle
 62
7
  6
CONTINUOUS
 10
-26.3633162496
 20
27.4320195825
 40
10.0
100
AcDbArc
 50
90.0
 51
180.0
  0
ARC
  5
48B
100
AcDbEntity
  8
0
100
AcDbCircle
 62
7
  6
CONTINUOUS
 10
-26.3633162496
 20
27.4320195825
 40
7.0
100
AcDbArc
 50
90.0
 51
180.0
  0
ARC
  5
48C
100
AcDbEntity
  8
DRAFT
100
AcDbCircle
 62
7
  6
CONTINUOUS
 10
-23.2699602813
 20
14.6852965647
 40
40.9572888394
100
AcDbArc
 50
308.8169755951
 51
309.236902728
  0
ARC
  5
48D
100
AcDbEntity
  8
DRAFT
100
AcDbCircle
 62
7
  6
CONTINUOUS
 10
-18.8156159906
 20
12.0499417245
 40
33.6243173016
100
AcDbArc
 50
308.582592898
 51
309.0917801394
  0
ARC
  5
48E
100
AcDbEntity
  8
DRAFT
100
AcDbCircle
 62
7
  6
CONTINUOUS
 10
-24.217847405
 20
10.8862066094
 40
32.6623810313
100
AcDbArc
 50
320.165371588
 51
320.4686294574
  0
ARC
  5
48F
100
AcDbEntity
  8
RACCORDO
100
AcDbCircle
 62
253
  6
CONTINUOUS
 10
-20.5419617286
 20
13.4210181284
 40
0.5000529468
100
AcDbArc
 50
90.0147491189
 51
179.9921225953
  0
CIRCLE
  5
490
100
AcDbEntity
  8
0
100
AcDbCircle
 62
7
  6
CONTINUOUS
 10
-16.363315993
 20
17.4320190978
 40
1.4999997118
  0
ARC
  5
491
100
AcDbEntity
  8
0
100
AcDbCircle
 62
7
  6
CONTINUOUS
 10
-16.3633162496
 20
17.4320195825
 40
1.0
100
AcDbArc
 50
0.0
 51
75.84228485
  0
ARC
  5
492
100
AcDbEntity
  8
0
100
AcDbCircle
 62
7
  6
CONTINUOUS
 10
-16.3633162496
 20
17.4320195825
 40
1.0
100
AcDbArc
 50
127.6774584221
 51
255.84228485
  0
ARC
  5
493
100
AcDbEntity
  8
DRAFT
100
AcDbCircle
 62
7
  6
CONTINUOUS
 10
-15.4108066868
 20
16.4795100196
 40
1.0
100
AcDbArc
 50
45.0
 51
57.1309290166
  0
ARC
  5
494
100
AcDbEntity
  8
DRAFT
100
AcDbCircle
 62
7
  6
CONTINUOUS
 10
-15.4108066868
 20
16.4795100196
 40
1.0
100
AcDbArc
 50
212.8594552409
 51
225.0
  0
ARC
  5
495
100
AcDbEntity
  8
0
100
AcDbCircle
 62
7
  6
CONTINUOUS
 10
-16.2599779902
 20
17.7938193427
 40
0.8320718012
100
AcDbArc
 50
164.7743839811
 51
169.517352529
  0
ARC
  5
496
100
AcDbEntity
  8
0
100
AcDbCircle
 62
7
  6
CONTINUOUS
 10
-16.3073639295
 20
17.5597797977
 40
0.813765055
100
AcDbArc
 50
150.6304078959
 51
164.4190814713
  0
ARC
  5
497
100
AcDbEntity
  8
RACCORDO
100
AcDbCircle
 62
7
  6
CONTINUOUS
 10
-15.4108066868
 20
16.4795100196
 40
0.7076118513
100
AcDbArc
 50
20.5937263736
 51
249.4062736264
  0
ARC
  5
498
100
AcDbEntity
  8
RACCORDO
100
AcDbCircle
 62
253
  6
CONTINUOUS
 10
-14.7484237099
 20
16.728333618
 40
0.499933046
100
AcDbArc
 50
200.5865361101
 51
315.0010154482
  0
ARC
  5
499
100
AcDbEntity
  8
RACCORDO
100
AcDbCircle
 62
253
  6
CONTINUOUS
 10
-15.659590082
 20
15.8171361359
 40
0.4999074234
100
AcDbArc
 50
314.9893355692
 51
69.4091592407
  0
ARC
  5
49A
100
AcDbEntity
  8
RACCORDO
100
AcDbCircle
 62
253
  6
CONTINUOUS
 10
-15.4108066868
 20
16.4795100196
 40
0.2076308898
100
AcDbArc
 50
20.5937263736
 51
249.4062736264
  0
ARC
  5
49B
100
AcDbEntity
  8
DRAFT
100
AcDbCircle
 62
7
  6
CONTINUOUS
 10
-13.6165932147
 20
24.3386636354
 40
40.9572888395
100
AcDbArc
 50
320.7630972338
 51
321.1830243667
  0
ARC
  5
49C
100
AcDbEntity
  8
DRAFT
100
AcDbCircle
 62
7
  6
CONTINUOUS
 10
-10.9812383672
 20
19.8843193541
 40
33.6243173017
100
AcDbArc
 50
320.9082197938
 51
321.4174070352
  0
ARC
  5
49D
100
AcDbEntity
  8
DRAFT
100
AcDbCircle
 62
7
  6
CONTINUOUS
 10
-9.8175032754
 20
25.2865507393
 40
32.6623810317
100
AcDbArc
 50
309.5313705395
 51
309.8346284089
  0
ARC
  5
49E
100
AcDbEntity
  8
RACCORDO
100
AcDbCircle
 62
253
  6
CONTINUOUS
 10
-12.3523231576
 20
21.6106734258
 40
0.5000429418
100
AcDbArc
 50
90.0069194762
 51
179.9862090382
  0
ARC
  5
49F
100
AcDbEntity
  8
DRAFT
100
AcDbCircle
 62
7
  6
CONTINUOUS
 10
-17.1683532266
 20
41.7335972596
 40
53.4463594411
100
AcDbArc
 50
309.6258360417
 51
309.8573287277
  0
ARC
  5
4A0
100
AcDbEntity
  8
DRAFT
100
AcDbCircle
 62
7
  6
CONTINUOUS
 10
-13.466946713
 20
33.4787554534
 40
43.0136167051
100
AcDbArc
 50
309.561167
 51
309.8489370086
  0
ARC
  5
4A1
100
AcDbEntity
  8
DRAFT
100
AcDbCircle
 62
7
  6
CONTINUOUS
 10
-8.3022761321
 20
-16.5293991716
 40
26.2343783895
100
AcDbArc
 50
38.3448684315
 51
38.8640833323
  0
ARC
  5
4A2
100
AcDbEntity
  8
DRAFT
100
AcDbCircle
 62
7
  6
CONTINUOUS
 10
-8.3633162496
 20
9.4320195825
 40
22.0
100
AcDbArc
 50
90.0
 51
180.0
  0
ARC
  5
4A3
100
AcDbEntity
  8
RACCORDO
100
AcDbCircle
 62
253
  6
CONTINUOUS
 10
-8.3633162496
 20
9.4320195825
 40
21.9473301734
100
AcDbArc
 50
90.0
 51
180.0
  0
ARC
  5
4A4
100
AcDbEntity
  8
RACCORDO
100
AcDbCircle
 62
253
  6
CONTINUOUS
 10
-8.3633162496
 20
9.4320195825
 40
20.9474860488
100
AcDbArc
 50
90.0
 51
180.0
  0
CIRCLE
  5
4A5
100
AcDbEntity
  8
DRAFT
100
AcDbCircle
 62
7
  6
CONTINUOUS
 10
1.6366837504
 20
-0.5679804175
 40
16.7115923769
  0
ARC
  5
4A6
100
AcDbEntity
  8
DRAFT
100
AcDbCircle
 62
7
  6
CONTINUOUS
 10
1.6366837504
 20
-0.5679804175
 40
16.6763269807
100
AcDbArc
 50
87.3645150851
 51
92.6354849149
  0
ARC
  5
4A7
100
AcDbEntity
  8
DRAFT
100
AcDbCircle
 62
7
  6
CONTINUOUS
 10
1.6366837504
 20
-0.5679804175
 40
16.6763269807
100
AcDbArc
 50
267.3645150851
 51
272.6354849149
  0
ARC
  5
4A8
100
AcDbEntity
  8
DRAFT
100
AcDbCircle
 62
7
  6
CONTINUOUS
 10
1.6366837504
 20
-0.5679804175
 40
16.6763269807
100
AcDbArc
 50
357.3645150851
 51
2.6354849149
  0
ARC
  5
4A9
100
AcDbEntity
  8
DRAFT
100
AcDbCircle
 62
7
  6
CONTINUOUS
 10
1.6366837504
 20
-0.5679804175
 40
16.6763269807
100
AcDbArc
 50
177.3645150851
 51
182.6354849149
  0
ARC
  5
4AA
100
AcDbEntity
  8
DRAFT
100
AcDbCircle
 62
7
  6
CONTINUOUS
 10
1.6366837504
 20
-0.5679804175
 40
16.5
100
AcDbArc
 50
273.4746007931
 51
356.5253992069
  0
ARC
  5
4AB
100
AcDbEntity
  8
DRAFT
100
AcDbCircle
 62
7
  6
CONTINUOUS
 10
1.6366837504
 20
-0.5679804175
 40
16.5
100
AcDbArc
 50
183.4746007931
 51
266.5253992069
  0
ARC
  5
4AC
100
AcDbEntity
  8
DRAFT
100
AcDbCircle
 62
7
  6
CONTINUOUS
 10
1.6366837504
 20
-0.5679804175
 40
16.5
100
AcDbArc
 50
93.4746007931
 51
176.5253992069
  0
ARC
  5
4AD
100
AcDbEntity
  8
DRAFT
100
AcDbCircle
 62
7
  6
CONTINUOUS
 10
1.6366837504
 20
-0.5679804175
 40
16.5
100
AcDbArc
 50
3.4746007931
 51
86.5253992069
  0
ARC
  5
4AE
100
AcDbEntity
  8
DRAFT
100
AcDbCircle
 62
7
  6
CONTINUOUS
 10
1.6366837504
 20
-0.5679804175
 40
15.5
100
AcDbArc
 50
274.7141877419
 51
355.2858122581
  0
ARC
  5
4AF
100
AcDbEntity
  8
DRAFT
100
AcDbCircle
 62
7
  6
CONTINUOUS
 10
1.6366837504
 20
-0.5679804175
 40
15.5
100
AcDbArc
 50
184.7141877419
 51
265.2858122581
  0
ARC
  5
4B0
100
AcDbEntity
  8
DRAFT
100
AcDbCircle
 62
7
  6
CONTINUOUS
 10
1.6366837504
 20
-0.5679804175
 40
15.5
100
AcDbArc
 50
94.7141877419
 51
175.2858122581
  0
ARC
  5
4B1
100
AcDbEntity
  8
DRAFT
100
AcDbCircle
 62
7
  6
CONTINUOUS
 10
1.6366837504
 20
-0.5679804175
 40
15.5
100
AcDbArc
 50
4.7141877419
 51
85.2858122581
  0
ARC
  5
4B2
100
AcDbEntity
  8
DRAFT
100
AcDbCircle
 62
7
  6
CONTINUOUS
 10
1.6366837504
 20
-0.5679804175
 40
15.3236730193
100
AcDbArc
 50
4.2507573531
 51
85.7492426469
  0
ARC
  5
4B3
100
AcDbEntity
  8
DRAFT
100
AcDbCircle
 62
7
  6
CONTINUOUS
 10
1.6366837504
 20
-0.5679804175
 40
15.3236730193
100
AcDbArc
 50
94.2507573531
 51
175.7492426469
  0
ARC
  5
4B4
100
AcDbEntity
  8
DRAFT
100
AcDbCircle
 62
7
  6
CONTINUOUS
 10
1.6366837504
 20
-0.5679804175
 40
15.3236730193
100
AcDbArc
 50
184.2507573531
 51
265.7492426469
  0
ARC
  5
4B5
100
AcDbEntity
  8
DRAFT
100
AcDbCircle
 62
7
  6
CONTINUOUS
 10
1.6366837504
 20
-0.5679804175
 40
15.3236730193
100
AcDbArc
 50
274.2507573531
 51
355.7492426469
  0
ARC
  5
4B6
100
AcDbEntity
  8
DRAFT
100
AcDbCircle
 62
7
  6
CONTINUOUS
 10
1.6366837504
 20
-0.5679804175
 40
13.6763269807
100
AcDbArc
 50
2.1674546178
 51
87.8325453822
  0
ARC
  5
4B7
100
AcDbEntity
  8
DRAFT
100
AcDbCircle
 62
7
  6
CONTINUOUS
 10
1.6366837504
 20
-0.5679804175
 40
13.6763269807
100
AcDbArc
 50
92.1674546178
 51
177.8325453822
  0
ARC
  5
4B8
100
AcDbEntity
  8
DRAFT
100
AcDbCircle
 62
7
  6
CONTINUOUS
 10
1.6366837504
 20
-0.5679804175
 40
13.6763269807
100
AcDbArc
 50
182.1674546178
 51
267.8325453822
  0
ARC
  5
4B9
100
AcDbEntity
  8
DRAFT
100
AcDbCircle
 62
7
  6
CONTINUOUS
 10
1.6366837504
 20
-0.5679804175
 40
13.6763269807
100
AcDbArc
 50
272.1674546178
 51
357.8325453822
  0
ARC
  5
4BA
100
AcDbEntity
  8
DRAFT
100
AcDbCircle
 62
7
  6
CONTINUOUS
 10
1.6366837504
 20
-0.5679804175
 40
13.5
100
AcDbArc
 50
273.1847385367
 51
356.8152614633
  0
ARC
  5
4BB
100
AcDbEntity
  8
DRAFT
100
AcDbCircle
 62
7
  6
CONTINUOUS
 10
1.6366837504
 20
-0.5679804175
 40
13.5
100
AcDbArc
 50
183.1847385367
 51
266.8152614633
  0
ARC
  5
4BC
100
AcDbEntity
  8
DRAFT
100
AcDbCircle
 62
7
  6
CONTINUOUS
 10
1.6366837504
 20
-0.5679804175
 40
13.5
100
AcDbArc
 50
93.1847385367
 51
176.8152614633
  0
ARC
  5
4BD
100
AcDbEntity
  8
DRAFT
100
AcDbCircle
 62
7
  6
CONTINUOUS
 10
1.6366837504
 20
-0.5679804175
 40
13.5
100
AcDbArc
 50
3.1847385367
 51
86.8152614633
  0
ARC
  5
4BE
100
AcDbEntity
  8
DRAFT
100
AcDbCircle
 62
7
  6
CONTINUOUS
 10
1.6366837504
 20
-0.5679804175
 40
12.5
100
AcDbArc
 50
274.6971495355
 51
355.3028504645
  0
ARC
  5
4BF
100
AcDbEntity
  8
DRAFT
100
AcDbCircle
 62
7
  6
CONTINUOUS
 10
1.6366837504
 20
-0.5679804175
 40
12.5
100
AcDbArc
 50
184.6971495355
 51
265.3028504645
  0
ARC
  5
4C0
100
AcDbEntity
  8
DRAFT
100
AcDbCircle
 62
7
  6
CONTINUOUS
 10
1.6366837504
 20
-0.5679804175
 40
12.5
100
AcDbArc
 50
94.6971495355
 51
175.3028504645
  0
ARC
  5
4C1
100
AcDbEntity
  8
DRAFT
100
AcDbCircle
 62
7
  6
CONTINUOUS
 10
1.6366837504
 20
-0.5679804175
 40
12.5
100
AcDbArc
 50
4.6971495355
 51
85.3028504645
  0
ARC
  5
4C2
100
AcDbEntity
  8
DRAFT
100
AcDbCircle
 62
7
  6
CONTINUOUS
 10
1.6366837504
 20
-0.5679804175
 40
12.3236730193
100
AcDbArc
 50
4.1209209803
 51
85.8790790197
  0
ARC
  5
4C3
100
AcDbEntity
  8
DRAFT
100
AcDbCircle
 62
7
  6
CONTINUOUS
 10
1.6366837504
 20
-0.5679804175
 40
12.3236730193
100
AcDbArc
 50
94.1209209803
 51
175.8790790197
  0
ARC
  5
4C4
100
AcDbEntity
  8
DRAFT
100
AcDbCircle
 62
7
  6
CONTINUOUS
 10
1.6366837504
 20
-0.5679804175
 40
12.3236730193
100
AcDbArc
 50
184.1209209803
 51
265.8790790197
  0
ARC
  5
4C5
100
AcDbEntity
  8
DRAFT
100
AcDbCircle
 62
7
  6
CONTINUOUS
 10
1.6366837504
 20
-0.5679804175
 40
12.3236730193
100
AcDbArc
 50
274.1209209803
 51
355.8790790197
  0
CIRCLE
  5
4C6
100
AcDbEntity
  8
DRAFT
100
AcDbCircle
 62
7
  6
CONTINUOUS
 10
1.6366837504
 20
-0.5679804175
 40
10.6763269807
  0
ARC
  5
4C7
100
AcDbEntity
  8
DRAFT
100
AcDbCircle
 62
7
  6
CONTINUOUS
 10
1.6366837504
 20
-0.5679804175
 40
10.6410615846
100
AcDbArc
 50
88.3078846415
 51
91.6921153585
  0
ARC
  5
4C8
100
AcDbEntity
  8
DRAFT
100
AcDbCircle
 62
7
  6
CONTINUOUS
 10
1.6366837504
 20
-0.5679804175
 40
10.6410615846
100
AcDbArc
 50
268.3078846415
 51
271.6921153585
  0
ARC
  5
4C9
100
AcDbEntity
  8
DRAFT
100
AcDbCircle
 62
7
  6
CONTINUOUS
 10
1.6366837504
 20
-0.5679804175
 40
10.6410615846
100
AcDbArc
 50
178.3078846415
 51
181.6921153585
  0
ARC
  5
4CA
100
AcDbEntity
  8
DRAFT
100
AcDbCircle
 62
7
  6
CONTINUOUS
 10
1.6366837504
 20
-0.5679804175
 40
10.6410615846
100
AcDbArc
 50
358.3078846415
 51
1.6921153585
  0
ARC
  5
4CB
100
AcDbEntity
  8
DRAFT
100
AcDbCircle
 62
7
  6
CONTINUOUS
 10
1.6366837504
 20
-0.5679804175
 40
10.5
100
AcDbArc
 50
272.7294026368
 51
357.2705973632
  0
ARC
  5
4CC
100
AcDbEntity
  8
DRAFT
100
AcDbCircle
 62
7
  6
CONTINUOUS
 10
1.6366837504
 20
-0.5679804175
 40
10.5
100
AcDbArc
 50
182.7294026368
 51
267.2705973632
  0
ARC
  5
4CD
100
AcDbEntity
  8
DRAFT
100
AcDbCircle
 62
7
  6
CONTINUOUS
 10
1.6366837504
 20
-0.5679804175
 40
10.5
100
AcDbArc
 50
92.7294026368
 51
177.2705973632
  0
ARC
  5
4CE
100
AcDbEntity
  8
DRAFT
100
AcDbCircle
 62
7
  6
CONTINUOUS
 10
1.6366837504
 20
-0.5679804175
 40
10.5
100
AcDbArc
 50
2.7294026368
 51
87.2705973632
  0
ARC
  5
4CF
100
AcDbEntity
  8
DRAFT
100
AcDbCircle
 62
7
  6
CONTINUOUS
 10
1.6366837504
 20
-0.5679804175
 40
9.5
100
AcDbArc
 50
274.668453194
 51
355.331546806
  0
ARC
  5
4D0
100
AcDbEntity
  8
DRAFT
100
AcDbCircle
 62
7
  6
CONTINUOUS
 10
1.6366837504
 20
-0.5679804175
 40
9.5
100
AcDbArc
 50
184.668453194
 51
265.331546806
  0
ARC
  5
4D1
100
AcDbEntity
  8
DRAFT
100
AcDbCircle
 62
7
  6
CONTINUOUS
 10
1.6366837504
 20
-0.5679804175
 40
9.5
100
AcDbArc
 50
94.668453194
 51
175.331546806
  0
ARC
  5
4D2
100
AcDbEntity
  8
DRAFT
100
AcDbCircle
 62
7
  6
CONTINUOUS
 10
1.6366837504
 20
-0.5679804175
 40
9.5
100
AcDbArc
 50
4.668453194
 51
85.331546806
  0
ARC
  5
4D3
100
AcDbEntity
  8
DRAFT
100
AcDbCircle
 62
7
  6
CONTINUOUS
 10
1.6366837504
 20
-0.5679804175
 40
9.3589384154
100
AcDbArc
 50
4.0611725955
 51
85.9388274045
  0
ARC
  5
4D4
100
AcDbEntity
  8
DRAFT
100
AcDbCircle
 62
7
  6
CONTINUOUS
 10
1.6366837504
 20
-0.5679804175
 40
9.3589384154
100
AcDbArc
 50
94.0611725955
 51
175.9388274045
  0
ARC
  5
4D5
100
AcDbEntity
  8
DRAFT
100
AcDbCircle
 62
7
  6
CONTINUOUS
 10
1.6366837504
 20
-0.5679804175
 40
9.3589384154
100
AcDbArc
 50
184.0611725955
 51
265.9388274045
  0
ARC
  5
4D6
100
AcDbEntity
  8
DRAFT
100
AcDbCircle
 62
7
  6
CONTINUOUS
 10
1.6366837504
 20
-0.5679804175
 40
9.3589384154
100
AcDbArc
 50
274.0611725955
 51
355.9388274045
  0
ARC
  5
4D7
100
AcDbEntity
  8
DRAFT
100
AcDbCircle
 62
7
  6
CONTINUOUS
 10
22.088983503
 20
-13.18590255
 40
33.6243173015
100
AcDbArc
 50
128.5825929237
 51
129.0917801651
  0
ARC
  5
4D8
100
AcDbEntity
  8
DRAFT
100
AcDbCircle
 62
7
  6
CONTINUOUS
 10
14.2546058769
 20
-21.020280177
 40
33.6243173011
100
AcDbArc
 50
140.9082198195
 51
141.4174070609
  0
ARC
  5
4D9
100
AcDbEntity
  8
DRAFT
100
AcDbCircle
 62
7
  6
CONTINUOUS
 10
11.5756436335
 20
-16.5293991721
 40
26.2343783903
100
AcDbArc
 50
141.1359166677
 51
141.6551315685
  0
ARC
  5
4DA
100
AcDbEntity
  8
DRAFT
100
AcDbCircle
 62
7
  6
CONTINUOUS
 10
17.598102493
 20
-10.5069403093
 40
26.2343783897
100
AcDbArc
 50
128.3448683993
 51
128.8640833001
  0
ARC
  5
4DB
100
AcDbEntity
  8
DRAFT
100
AcDbCircle
 62
7
  6
CONTINUOUS
 10
17.634549322
 20
9.4166281938
 40
26.2927918992
100
AcDbArc
 50
231.1364932958
 51
231.6545546776
  0
ARC
  5
4DC
100
AcDbEntity
  8
DRAFT
100
AcDbCircle
 62
7
  6
CONTINUOUS
 10
20.4417207381
 20
41.7335972538
 40
53.4463594435
100
AcDbArc
 50
230.1426712595
 51
230.3741639455
  0
ARC
  5
4DD
100
AcDbEntity
  8
DRAFT
100
AcDbCircle
 62
7
  6
CONTINUOUS
 10
16.7403142237
 20
33.4787554464
 40
43.0136167061
100
AcDbArc
 50
230.1510629753
 51
230.4388329839
  0
ARC
  5
4DE
100
AcDbEntity
  8
DRAFT
100
AcDbCircle
 62
7
  6
CONTINUOUS
 10
16.889960715
 20
24.3386636351
 40
40.9572888389
100
AcDbArc
 50
218.8169756333
 51
219.2369027662
  0
ARC
  5
4DF
100
AcDbEntity
  8
DRAFT
100
AcDbCircle
 62
7
  6
CONTINUOUS
 10
14.2546058679
 20
19.884319354
 40
33.6243173017
100
AcDbArc
 50
218.5825929648
 51
219.0917802062
  0
ARC
  5
4E0
100
AcDbEntity
  8
DRAFT
100
AcDbCircle
 62
7
  6
CONTINUOUS
 10
22.0889835032
 20
12.0499417152
 40
33.6243173018
100
AcDbArc
 50
230.9082198349
 51
231.4174070763
  0
ARC
  5
4E1
100
AcDbEntity
  8
DRAFT
100
AcDbCircle
 62
7
  6
CONTINUOUS
 10
13.0908707848
 20
25.2865507346
 40
32.6623810336
100
AcDbArc
 50
230.1653715743
 51
230.4686294437
  0
ARC
  5
4E2
100
AcDbEntity
  8
DRAFT
100
AcDbCircle
 62
7
  6
CONTINUOUS
 10
11.5756436256
 20
15.3934383457
 40
26.2343783895
100
AcDbArc
 50
218.3448684571
 51
218.8640833579
  0
ARC
  5
4E3
100
AcDbEntity
  8
DRAFT
100
AcDbCircle
 62
7
  6
CONTINUOUS
 10
-8.3022761247
 20
15.3934383456
 40
26.2343783894
100
AcDbArc
 50
321.1359166421
 51
321.6551315429
  0
ARC
  5
4E4
100
AcDbEntity
  8
DRAFT
100
AcDbCircle
 62
7
  6
CONTINUOUS
 10
24.8316467728
 20
-84.8695580953
 40
53.446359442
100
AcDbArc
 50
50.1426712723
 51
50.3741639583
  0
ARC
  5
4E5
100
AcDbEntity
  8
DRAFT
100
AcDbCircle
 62
7
  6
CONTINUOUS
 10
28.5330532861
 20
-76.6147162895
 40
43.0136167066
100
AcDbArc
 50
50.1510629914
 51
50.438833
  0
ARC
  5
4E6
100
AcDbEntity
  8
DRAFT
100
AcDbCircle
 62
7
  6
CONTINUOUS
 10
28.3834067737
 20
-67.4746244598
 40
40.9572888418
100
AcDbArc
 50
38.8169756116
 51
39.2369027444
  0
ARC
  5
4E7
100
AcDbEntity
  8
DRAFT
100
AcDbCircle
 62
7
  6
CONTINUOUS
 10
23.1843840094
 20
-55.1859025595
 40
33.6243173016
100
AcDbArc
 50
50.9082198606
 51
51.417407102
  0
ARC
  5
4E8
100
AcDbEntity
  8
DRAFT
100
AcDbCircle
 62
7
  6
CONTINUOUS
 10
31.0187616241
 20
-63.0202801768
 40
33.6243173008
100
AcDbArc
 50
38.5825929391
 51
39.0917801805
  0
ARC
  5
4E9
100
AcDbEntity
  8
DRAFT
100
AcDbCircle
 62
7
  6
CONTINUOUS
 10
32.1824967244
 20
-68.4225115745
 40
32.662381032
100
AcDbArc
 50
50.1653715911
 51
50.4686294605
  0
ARC
  5
4EA
100
AcDbEntity
  8
DRAFT
100
AcDbCircle
 62
7
  6
CONTINUOUS
 10
53.5756436328
 20
-58.5293991716
 40
26.2343783895
100
AcDbArc
 50
141.1359166677
 51
141.6551315685
  0
ARC
  5
4EB
100
AcDbEntity
  8
DRAFT
100
AcDbCircle
 62
7
  6
CONTINUOUS
 10
33.6977238684
 20
-58.5293991712
 40
26.2343783888
100
AcDbArc
 50
38.3448684315
 51
38.8640833324
  0
ARC
  5
4EC
100
AcDbEntity
  8
DRAFT
100
AcDbCircle
 62
7
  6
CONTINUOUS
 10
27.6388181881
 20
-52.552589036
 40
26.2927918991
100
AcDbArc
 50
51.1364933214
 51
51.6545547033
  0
ARC
  5
4ED
100
AcDbEntity
  8
ASSI
100
AcDbCircle
 62
7
  6
CONTINUOUS
 10
22.6366837504
 20
-45.0679804175
 40
16.0
100
AcDbArc
 50
53.6145983187
 51
57.2356451688
  0
ARC
  5
4EE
100
AcDbEntity
  8
ASSI
100
AcDbCircle
 62
7
  6
CONTINUOUS
 10
22.6366837504
 20
-45.0679804175
 40
16.0
100
AcDbArc
 50
42.8561846401
 51
46.4225103224
  0
ARC
  5
4EF
100
AcDbEntity
  8
ASSI
100
AcDbCircle
 62
7
  6
CONTINUOUS
 10
22.6366837504
 20
-45.0679804175
 40
16.0
100
AcDbArc
 50
31.8229652241
 51
35.5720435966
  0
ARC
  5
4F0
100
AcDbEntity
  8
ASSI
100
AcDbCircle
 62
7
  6
CONTINUOUS
 10
22.6366837504
 20
-45.0679804175
 40
15.9
100
AcDbArc
 50
53.65721328
 51
57.2912861246
  0
ARC
  5
4F1
100
AcDbEntity
  8
ASSI
100
AcDbCircle
 62
7
  6
CONTINUOUS
 10
22.6366837504
 20
-45.0679804175
 40
15.9
100
AcDbArc
 50
42.8293242983
 51
46.4204465063
  0
ARC
  5
4F2
100
AcDbEntity
  8
ASSI
100
AcDbCircle
 62
7
  6
CONTINUOUS
 10
22.6366837504
 20
-45.0679804175
 40
15.9
100
AcDbArc
 50
31.6953198923
 51
35.4782623085
  0
ARC
  5
4F3
100
AcDbEntity
  8
DRAFT
100
AcDbCircle
 62
7
  6
CONTINUOUS
 10
23.1843840092
 20
-29.9500582752
 40
33.6243173019
100
AcDbArc
 50
308.582592898
 51
309.0917801394
  0
ARC
  5
4F4
100
AcDbEntity
  8
DRAFT
100
AcDbCircle
 62
7
  6
CONTINUOUS
 10
31.0187616333
 20
-22.1156806463
 40
33.6243173011
100
AcDbArc
 50
320.9082197938
 51
321.4174070352
  0
ARC
  5
4F5
100
AcDbEntity
  8
DRAFT
100
AcDbCircle
 62
7
  6
CONTINUOUS
 10
33.6977238748
 20
-26.606561654
 40
26.23437839
100
AcDbArc
 50
321.1359166421
 51
321.6551315429
  0
ARC
  5
4F6
100
AcDbEntity
  8
DRAFT
100
AcDbCircle
 62
7
  6
CONTINUOUS
 10
27.6752650169
 20
-32.6290205185
 40
26.2343783896
100
AcDbArc
 50
308.3448683737
 51
308.8640832745
  0
CIRCLE
  5
4F7
100
AcDbEntity
  8
DRAFT
100
AcDbCircle
 62
7
  6
CONTINUOUS
 10
43.6366837504
 20
-42.5679804175
 40
16.7115923769
  0
ARC
  5
4F8
100
AcDbEntity
  8
DRAFT
100
AcDbCircle
 62
7
  6
CONTINUOUS
 10
43.6366837504
 20
-42.5679804175
 40
16.6763269807
100
AcDbArc
 50
267.3645150851
 51
272.6354849149
  0
ARC
  5
4F9
100
AcDbEntity
  8
DRAFT
100
AcDbCircle
 62
7
  6
CONTINUOUS
 10
43.6366837504
 20
-42.5679804175
 40
16.6763269807
100
AcDbArc
 50
87.3645150851
 51
92.6354849149
  0
ARC
  5
4FA
100
AcDbEntity
  8
DRAFT
100
AcDbCircle
 62
7
  6
CONTINUOUS
 10
43.6366837504
 20
-42.5679804175
 40
16.6763269807
100
AcDbArc
 50
357.3645150851
 51
2.6354849149
  0
ARC
  5
4FB
100
AcDbEntity
  8
DRAFT
100
AcDbCircle
 62
7
  6
CONTINUOUS
 10
43.6366837504
 20
-42.5679804175
 40
16.6763269807
100
AcDbArc
 50
177.3645150851
 51
182.6354849149
  0
ARC
  5
4FC
100
AcDbEntity
  8
DRAFT
100
AcDbCircle
 62
7
  6
CONTINUOUS
 10
43.6366837504
 20
-42.5679804175
 40
16.5
100
AcDbArc
 50
93.4746007931
 51
176.5253992069
  0
ARC
  5
4FD
100
AcDbEntity
  8
DRAFT
100
AcDbCircle
 62
7
  6
CONTINUOUS
 10
43.6366837504
 20
-42.5679804175
 40
16.5
100
AcDbArc
 50
3.4746007931
 51
86.5253992069
  0
ARC
  5
4FE
100
AcDbEntity
  8
DRAFT
100
AcDbCircle
 62
7
  6
CONTINUOUS
 10
43.6366837504
 20
-42.5679804175
 40
16.5
100
AcDbArc
 50
273.4746007931
 51
356.5253992069
  0
ARC
  5
4FF
100
AcDbEntity
  8
DRAFT
100
AcDbCircle
 62
7
  6
CONTINUOUS
 10
43.6366837504
 20
-42.5679804175
 40
16.5
100
AcDbArc
 50
183.4746007931
 51
266.5253992069
  0
ARC
  5
500
100
AcDbEntity
  8
DRAFT
100
AcDbCircle
 62
7
  6
CONTINUOUS
 10
43.6366837504
 20
-42.5679804175
 40
15.5
100
AcDbArc
 50
94.7141877419
 51
175.2858122581
  0
ARC
  5
501
100
AcDbEntity
  8
DRAFT
100
AcDbCircle
 62
7
  6
CONTINUOUS
 10
43.6366837504
 20
-42.5679804175
 40
15.5
100
AcDbArc
 50
4.7141877419
 51
85.2858122581
  0
ARC
  5
502
100
AcDbEntity
  8
DRAFT
100
AcDbCircle
 62
7
  6
CONTINUOUS
 10
43.6366837504
 20
-42.5679804175
 40
15.5
100
AcDbArc
 50
274.7141877419
 51
355.2858122581
  0
ARC
  5
503
100
AcDbEntity
  8
DRAFT
100
AcDbCircle
 62
7
  6
CONTINUOUS
 10
43.6366837504
 20
-42.5679804175
 40
15.5
100
AcDbArc
 50
184.7141877419
 51
265.2858122581
  0
ARC
  5
504
100
AcDbEntity
  8
DRAFT
100
AcDbCircle
 62
7
  6
CONTINUOUS
 10
43.6366837504
 20
-42.5679804175
 40
15.3236730193
100
AcDbArc
 50
184.2507573531
 51
265.7492426469
  0
ARC
  5
505
100
AcDbEntity
  8
DRAFT
100
AcDbCircle
 62
7
  6
CONTINUOUS
 10
43.6366837504
 20
-42.5679804175
 40
15.3236730193
100
AcDbArc
 50
274.2507573531
 51
355.7492426469
  0
ARC
  5
506
100
AcDbEntity
  8
DRAFT
100
AcDbCircle
 62
7
  6
CONTINUOUS
 10
43.6366837504
 20
-42.5679804175
 40
15.3236730193
100
AcDbArc
 50
4.2507573531
 51
85.7492426469
  0
ARC
  5
507
100
AcDbEntity
  8
DRAFT
100
AcDbCircle
 62
7
  6
CONTINUOUS
 10
43.6366837504
 20
-42.5679804175
 40
15.3236730193
100
AcDbArc
 50
94.2507573531
 51
175.7492426469
  0
ARC
  5
508
100
AcDbEntity
  8
DRAFT
100
AcDbCircle
 62
7
  6
CONTINUOUS
 10
43.6366837504
 20
-42.5679804175
 40
13.6763269807
100
AcDbArc
 50
182.1674546178
 51
267.8325453822
  0
ARC
  5
509
100
AcDbEntity
  8
DRAFT
100
AcDbCircle
 62
7
  6
CONTINUOUS
 10
43.6366837504
 20
-42.5679804175
 40
13.6763269807
100
AcDbArc
 50
272.1674546178
 51
357.8325453822
  0
ARC
  5
50A
100
AcDbEntity
  8
DRAFT
100
AcDbCircle
 62
7
  6
CONTINUOUS
 10
43.6366837504
 20
-42.5679804175
 40
13.6763269807
100
AcDbArc
 50
2.1674546178
 51
87.8325453822
  0
ARC
  5
50B
100
AcDbEntity
  8
DRAFT
100
AcDbCircle
 62
7
  6
CONTINUOUS
 10
43.6366837504
 20
-42.5679804175
 40
13.6763269807
100
AcDbArc
 50
92.1674546178
 51
177.8325453822
  0
ARC
  5
50C
100
AcDbEntity
  8
DRAFT
100
AcDbCircle
 62
7
  6
CONTINUOUS
 10
43.6366837504
 20
-42.5679804175
 40
13.5
100
AcDbArc
 50
93.1847385367
 51
176.8152614633
  0
ARC
  5
50D
100
AcDbEntity
  8
DRAFT
100
AcDbCircle
 62
7
  6
CONTINUOUS
 10
43.6366837504
 20
-42.5679804175
 40
13.5
100
AcDbArc
 50
3.1847385367
 51
86.8152614633
  0
ARC
  5
50E
100
AcDbEntity
  8
DRAFT
100
AcDbCircle
 62
7
  6
CONTINUOUS
 10
43.6366837504
 20
-42.5679804175
 40
13.5
100
AcDbArc
 50
273.1847385367
 51
356.8152614633
  0
ARC
  5
50F
100
AcDbEntity
  8
DRAFT
100
AcDbCircle
 62
7
  6
CONTINUOUS
 10
43.6366837504
 20
-42.5679804175
 40
13.5
100
AcDbArc
 50
183.1847385367
 51
266.8152614633
  0
ARC
  5
510
100
AcDbEntity
  8
DRAFT
100
AcDbCircle
 62
7
  6
CONTINUOUS
 10
43.6366837504
 20
-42.5679804175
 40
12.5
100
AcDbArc
 50
94.6971495355
 51
175.3028504645
  0
ARC
  5
511
100
AcDbEntity
  8
DRAFT
100
AcDbCircle
 62
7
  6
CONTINUOUS
 10
43.6366837504
 20
-42.5679804175
 40
12.5
100
AcDbArc
 50
4.6971495355
 51
85.3028504645
  0
ARC
  5
512
100
AcDbEntity
  8
DRAFT
100
AcDbCircle
 62
7
  6
CONTINUOUS
 10
43.6366837504
 20
-42.5679804175
 40
12.5
100
AcDbArc
 50
274.6971495355
 51
355.3028504645
  0
ARC
  5
513
100
AcDbEntity
  8
DRAFT
100
AcDbCircle
 62
7
  6
CONTINUOUS
 10
43.6366837504
 20
-42.5679804175
 40
12.5
100
AcDbArc
 50
184.6971495355
 51
265.3028504645
  0
ARC
  5
514
100
AcDbEntity
  8
DRAFT
100
AcDbCircle
 62
7
  6
CONTINUOUS
 10
43.6366837504
 20
-42.5679804175
 40
12.3236730193
100
AcDbArc
 50
184.1209209803
 51
265.8790790197
  0
ARC
  5
515
100
AcDbEntity
  8
DRAFT
100
AcDbCircle
 62
7
  6
CONTINUOUS
 10
43.6366837504
 20
-42.5679804175
 40
12.3236730193
100
AcDbArc
 50
274.1209209803
 51
355.8790790197
  0
ARC
  5
516
100
AcDbEntity
  8
DRAFT
100
AcDbCircle
 62
7
  6
CONTINUOUS
 10
43.6366837504
 20
-42.5679804175
 40
12.3236730193
100
AcDbArc
 50
4.1209209803
 51
85.8790790197
  0
ARC
  5
517
100
AcDbEntity
  8
DRAFT
100
AcDbCircle
 62
7
  6
CONTINUOUS
 10
43.6366837504
 20
-42.5679804175
 40
12.3236730193
100
AcDbArc
 50
94.1209209803
 51
175.8790790197
  0
CIRCLE
  5
518
100
AcDbEntity
  8
DRAFT
100
AcDbCircle
 62
7
  6
CONTINUOUS
 10
43.6366837504
 20
-42.5679804175
 40
10.6763269807
  0
ARC
  5
519
100
AcDbEntity
  8
DRAFT
100
AcDbCircle
 62
7
  6
CONTINUOUS
 10
43.6366837504
 20
-42.5679804175
 40
10.6410615846
100
AcDbArc
 50
268.3078846415
 51
271.6921153585
  0
ARC
  5
51A
100
AcDbEntity
  8
DRAFT
100
AcDbCircle
 62
7
  6
CONTINUOUS
 10
43.6366837504
 20
-42.5679804175
 40
10.6410615846
100
AcDbArc
 50
88.3078846415
 51
91.6921153585
  0
ARC
  5
51B
100
AcDbEntity
  8
DRAFT
100
AcDbCircle
 62
7
  6
CONTINUOUS
 10
43.6366837504
 20
-42.5679804175
 40
10.6410615846
100
AcDbArc
 50
358.3078846415
 51
1.6921153585
  0
ARC
  5
51C
100
AcDbEntity
  8
DRAFT
100
AcDbCircle
 62
7
  6
CONTINUOUS
 10
43.6366837504
 20
-42.5679804175
 40
10.6410615846
100
AcDbArc
 50
178.3078846415
 51
181.6921153585
  0
ARC
  5
51D
100
AcDbEntity
  8
DRAFT
100
AcDbCircle
 62
7
  6
CONTINUOUS
 10
43.6366837504
 20
-42.5679804175
 40
10.5
100
AcDbArc
 50
92.7294026368
 51
177.2705973632
  0
ARC
  5
51E
100
AcDbEntity
  8
DRAFT
100
AcDbCircle
 62
7
  6
CONTINUOUS
 10
43.6366837504
 20
-42.5679804175
 40
10.5
100
AcDbArc
 50
2.7294026368
 51
87.2705973632
  0
ARC
  5
51F
100
AcDbEntity
  8
DRAFT
100
AcDbCircle
 62
7
  6
CONTINUOUS
 10
43.6366837504
 20
-42.5679804175
 40
10.5
100
AcDbArc
 50
272.7294026368
 51
357.2705973632
  0
ARC
  5
520
100
AcDbEntity
  8
DRAFT
100
AcDbCircle
 62
7
  6
CONTINUOUS
 10
43.6366837504
 20
-42.5679804175
 40
10.5
100
AcDbArc
 50
182.7294026368
 51
267.2705973632
  0
ARC
  5
521
100
AcDbEntity
  8
DRAFT
100
AcDbCircle
 62
7
  6
CONTINUOUS
 10
43.6366837504
 20
-42.5679804175
 40
9.5
100
AcDbArc
 50
94.668453194
 51
175.331546806
  0
ARC
  5
522
100
AcDbEntity
  8
DRAFT
100
AcDbCircle
 62
7
  6
CONTINUOUS
 10
43.6366837504
 20
-42.5679804175
 40
9.5
100
AcDbArc
 50
4.668453194
 51
85.331546806
  0
ARC
  5
523
100
AcDbEntity
  8
DRAFT
100
AcDbCircle
 62
7
  6
CONTINUOUS
 10
43.6366837504
 20
-42.5679804175
 40
9.5
100
AcDbArc
 50
274.668453194
 51
355.331546806
  0
ARC
  5
524
100
AcDbEntity
  8
DRAFT
100
AcDbCircle
 62
7
  6
CONTINUOUS
 10
43.6366837504
 20
-42.5679804175
 40
9.5
100
AcDbArc
 50
184.668453194
 51
265.331546806
  0
ARC
  5
525
100
AcDbEntity
  8
DRAFT
100
AcDbCircle
 62
7
  6
CONTINUOUS
 10
43.6366837504
 20
-42.5679804175
 40
9.3589384154
100
AcDbArc
 50
184.0611725955
 51
265.9388274045
  0
ARC
  5
526
100
AcDbEntity
  8
DRAFT
100
AcDbCircle
 62
7
  6
CONTINUOUS
 10
43.6366837504
 20
-42.5679804175
 40
9.3589384154
100
AcDbArc
 50
274.0611725955
 51
355.9388274045
  0
ARC
  5
527
100
AcDbEntity
  8
DRAFT
100
AcDbCircle
 62
7
  6
CONTINUOUS
 10
43.6366837504
 20
-42.5679804175
 40
9.3589384154
100
AcDbArc
 50
4.0611725955
 51
85.9388274045
  0
ARC
  5
528
100
AcDbEntity
  8
DRAFT
100
AcDbCircle
 62
7
  6
CONTINUOUS
 10
43.6366837504
 20
-42.5679804175
 40
9.3589384154
100
AcDbArc
 50
94.0611725955
 51
175.9388274045
  0
ARC
  5
529
100
AcDbEntity
  8
DRAFT
100
AcDbCircle
 62
7
  6
CONTINUOUS
 10
53.6366837504
 20
-52.5679804175
 40
22.0
100
AcDbArc
 50
270.0
 51
360.0
  0
ARC
  5
52A
100
AcDbEntity
  8
RACCORDO
100
AcDbCircle
 62
253
  6
CONTINUOUS
 10
53.6366837504
 20
-52.5679804175
 40
21.9473301734
100
AcDbArc
 50
270.0
 51
360.0
  0
ARC
  5
52B
100
AcDbEntity
  8
RACCORDO
100
AcDbCircle
 62
253
  6
CONTINUOUS
 10
53.6366837504
 20
-52.5679804175
 40
20.9474860488
100
AcDbArc
 50
270.0
 51
360.0
  0
ARC
  5
52C
100
AcDbEntity
  8
DRAFT
100
AcDbCircle
 62
7
  6
CONTINUOUS
 10
53.5756436254
 20
-26.6065616544
 40
26.2343783893
100
AcDbArc
 50
218.3448684571
 51
218.8640833579
  0
ARC
  5
52D
100
AcDbEntity
  8
DRAFT
100
AcDbCircle
 62
7
  6
CONTINUOUS
 10
62.4417207366
 20
-84.869558087
 40
53.4463594411
100
AcDbArc
 50
129.6258360545
 51
129.8573287405
  0
ARC
  5
52E
100
AcDbEntity
  8
DRAFT
100
AcDbCircle
 62
7
  6
CONTINUOUS
 10
58.7403142231
 20
-76.6147162807
 40
43.0136167052
100
AcDbArc
 50
129.5611670161
 51
129.8489370247
  0
ARC
  5
52F
100
AcDbEntity
  8
DRAFT
100
AcDbCircle
 62
7
  6
CONTINUOUS
 10
58.8899607256
 20
-67.4746244587
 40
40.95728884
100
AcDbArc
 50
140.7630972556
 51
141.1830243884
  0
ARC
  5
530
100
AcDbEntity
  8
DRAFT
100
AcDbCircle
 62
7
  6
CONTINUOUS
 10
56.2546058773
 20
-63.0202801773
 40
33.6243173015
100
AcDbArc
 50
140.9082198195
 51
141.4174070609
  0
ARC
  5
531
100
AcDbEntity
  8
DRAFT
100
AcDbCircle
 62
7
  6
CONTINUOUS
 10
55.0908707838
 20
-68.4225115684
 40
32.662381032
100
AcDbArc
 50
129.5313705563
 51
129.8346284257
  0
ARC
  5
532
100
AcDbEntity
  8
RACCORDO
100
AcDbCircle
 62
253
  6
CONTINUOUS
 10
57.6256822845
 20
-64.7466258859
 40
0.5000529587
100
AcDbArc
 50
270.007878839
 51
359.9852496616
  0
CIRCLE
  5
533
100
AcDbEntity
  8
0
100
AcDbCircle
 62
7
  6
CONTINUOUS
 10
61.6366833884
 20
-60.5679799138
 40
1.4999997395
  0
ARC
  5
534
100
AcDbEntity
  8
0
100
AcDbCircle
 62
7
  6
CONTINUOUS
 10
61.6366837504
 20
-60.5679804175
 40
1.0
100
AcDbArc
 50
307.6774584221
 51
75.84228485
  0
ARC
  5
535
100
AcDbEntity
  8
0
100
AcDbCircle
 62
7
  6
CONTINUOUS
 10
61.6366837504
 20
-60.5679804175
 40
1.0
100
AcDbArc
 50
180.0
 51
255.84228485
  0
ARC
  5
536
100
AcDbEntity
  8
DRAFT
100
AcDbCircle
 62
7
  6
CONTINUOUS
 10
60.6841741875
 20
-59.6154708547
 40
1.0
100
AcDbArc
 50
225.0
 51
237.1309290166
  0
ARC
  5
537
100
AcDbEntity
  8
DRAFT
100
AcDbCircle
 62
7
  6
CONTINUOUS
 10
60.6841741875
 20
-59.6154708547
 40
1.0
100
AcDbArc
 50
32.8594552409
 51
45.0
  0
ARC
  5
538
100
AcDbEntity
  8
0
100
AcDbCircle
 62
7
  6
CONTINUOUS
 10
61.533345491
 20
-60.9297801777
 40
0.8320718012
100
AcDbArc
 50
344.7743839811
 51
349.517352529
  0
ARC
  5
539
100
AcDbEntity
  8
0
100
AcDbCircle
 62
7
  6
CONTINUOUS
 10
61.5807314303
 20
-60.6957406327
 40
0.813765055
100
AcDbArc
 50
330.6304078959
 51
344.4190814713
  0
ARC
  5
53A
100
AcDbEntity
  8
RACCORDO
100
AcDbCircle
 62
7
  6
CONTINUOUS
 10
60.6841741875
 20
-59.6154708547
 40
0.7076118513
100
AcDbArc
 50
200.5937263736
 51
69.4062736264
  0
ARC
  5
53B
100
AcDbEntity
  8
RACCORDO
100
AcDbCircle
 62
253
  6
CONTINUOUS
 10
60.0217911929
 20
-59.8642944163
 40
0.4999330186
100
AcDbArc
 50
20.5865314517
 51
135.0010141967
  0
ARC
  5
53C
100
AcDbEntity
  8
RACCORDO
100
AcDbCircle
 62
253
  6
CONTINUOUS
 10
60.9329575858
 20
-58.9530970488
 40
0.499907455
100
AcDbArc
 50
134.9893295007
 51
249.4091604944
  0
ARC
  5
53D
100
AcDbEntity
  8
RACCORDO
100
AcDbCircle
 62
253
  6
CONTINUOUS
 10
60.6841741875
 20
-59.6154708547
 40
0.2076308898
100
AcDbArc
 50
200.5937263736
 51
69.4062736264
  0
ARC
  5
53E
100
AcDbEntity
  8
DRAFT
100
AcDbCircle
 62
7
  6
CONTINUOUS
 10
68.5433277938
 20
-57.8212573895
 40
40.9572888388
100
AcDbArc
 50
128.8169756169
 51
129.2369027498
  0
ARC
  5
53F
100
AcDbEntity
  8
DRAFT
100
AcDbCircle
 62
7
  6
CONTINUOUS
 10
64.0889835033
 20
-55.1859025503
 40
33.6243173019
100
AcDbArc
 50
128.5825929237
 51
129.0917801651
  0
ARC
  5
540
100
AcDbEntity
  8
DRAFT
100
AcDbCircle
 62
7
  6
CONTINUOUS
 10
69.4912149127
 20
-54.0221674377
 40
32.6623810324
100
AcDbArc
 50
140.1653716049
 51
140.4686294743
  0
ARC
  5
541
100
AcDbEntity
  8
RACCORDO
100
AcDbCircle
 62
253
  6
CONTINUOUS
 10
65.8153376017
 20
-56.5569873344
 40
0.500042933
100
AcDbArc
 50
270.0137900467
 51
359.9930816248
  0
ARC
  5
542
100
AcDbEntity
  8
0
100
AcDbCircle
 62
7
  6
CONTINUOUS
 10
71.6366837504
 20
-70.5679804175
 40
10.0
100
AcDbArc
 50
270.0
 51
360.0
  0
ARC
  5
543
100
AcDbEntity
  8
0
100
AcDbCircle
 62
7
  6
CONTINUOUS
 10
71.6366837504
 20
-70.5679804175
 40
7.0
100
AcDbArc
 50
270.0
 51
360.0
  0
ARC
  5
544
100
AcDbEntity
  8
DRAFT
100
AcDbCircle
 62
7
  6
CONTINUOUS
 10
85.9382614344
 20
-61.3730173853
 40
53.4463594405
100
AcDbArc
 50
140.1426712846
 51
140.3741639707
  0
ARC
  5
545
100
AcDbEntity
  8
DRAFT
100
AcDbCircle
 62
7
  6
CONTINUOUS
 10
77.68341963
 20
-57.6716108705
 40
43.0136167052
100
AcDbArc
 50
140.1510630094
 51
140.4388330181
  0
ARC
  5
546
100
AcDbEntity
  8
DRAFT
100
AcDbCircle
 62
7
  6
CONTINUOUS
 10
85.9382614275
 20
-23.76294344
 40
53.4463594415
100
AcDbArc
 50
219.6258360421
 51
219.8573287282
  0
ARC
  5
547
100
AcDbEntity
  8
DRAFT
100
AcDbCircle
 62
7
  6
CONTINUOUS
 10
77.683419622
 20
-27.4643499554
 40
43.0136167049
100
AcDbArc
 50
219.5611669981
 51
219.8489370067
  0
ARC
  5
548
100
AcDbEntity
  8
DRAFT
100
AcDbCircle
 62
7
  6
CONTINUOUS
 10
68.5433277942
 20
-27.3147034451
 40
40.9572888394
100
AcDbArc
 50
230.7630972502
 51
231.1830243831
  0
ARC
  5
549
100
AcDbEntity
  8
DRAFT
100
AcDbCircle
 62
7
  6
CONTINUOUS
 10
56.2546058678
 20
-22.1156806461
 40
33.6243173015
100
AcDbArc
 50
218.5825929648
 51
219.0917802062
  0
ARC
  5
54A
100
AcDbEntity
  8
DRAFT
100
AcDbCircle
 62
7
  6
CONTINUOUS
 10
64.0889835031
 20
-29.9500582849
 40
33.6243173017
100
AcDbArc
 50
230.9082198349
 51
231.4174070763
  0
ARC
  5
54B
100
AcDbEntity
  8
DRAFT
100
AcDbCircle
 62
7
  6
CONTINUOUS
 10
69.491214905
 20
-31.1137933912
 40
32.6623810303
100
AcDbArc
 50
219.5313705425
 51
219.834628412
  0
ARC
  5
54C
100
AcDbEntity
  8
DRAFT
100
AcDbCircle
 62
7
  6
CONTINUOUS
 10
59.5981024932
 20
-32.6290205255
 40
26.2343783899
100
AcDbArc
 50
231.1359166999
 51
231.6551316007
  0
ARC
  5
54D
100
AcDbEntity
  8
DRAFT
100
AcDbCircle
 62
7
  6
CONTINUOUS
 10
59.5981024931
 20
-52.5069403095
 40
26.2343783899
100
AcDbArc
 50
128.3448683993
 51
128.8640833001
  0
ARC
  5
54E
100
AcDbEntity
  8
DRAFT
100
AcDbCircle
 62
7
  6
CONTINUOUS
 10
24.8316467736
 20
-0.2664027407
 40
53.4463594408
100
AcDbArc
 50
309.6258360417
 51
309.8573287277
  0
ARC
  5
54F
100
AcDbEntity
  8
DRAFT
100
AcDbCircle
 62
7
  6
CONTINUOUS
 10
43.9382614334
 20
-19.3730173845
 40
53.4463594393
100
AcDbArc
 50
140.1426712846
 51
140.3741639707
  0
ARC
  5
550
100
AcDbEntity
  8
DRAFT
100
AcDbCircle
 62
7
  6
CONTINUOUS
 10
28.5330532866
 20
-8.5212445461
 40
43.0136167058
100
AcDbArc
 50
309.561167
 51
309.8489370086
  0
ARC
  5
551
100
AcDbEntity
  8
DRAFT
100
AcDbCircle
 62
7
  6
CONTINUOUS
 10
35.6834196291
 20
-15.6716108698
 40
43.0136167041
100
AcDbArc
 50
140.1510630094
 51
140.4388330181
  0
ARC
  5
552
100
AcDbEntity
  8
DRAFT
100
AcDbCircle
 62
7
  6
CONTINUOUS
 10
26.5433277946
 20
-15.8212573905
 40
40.9572888401
100
AcDbArc
 50
128.8169756169
 51
129.2369027498
  0
ARC
  5
553
100
AcDbEntity
  8
DRAFT
100
AcDbCircle
 62
7
  6
CONTINUOUS
 10
28.3834067846
 20
-17.661336364
 40
40.9572888403
100
AcDbArc
 50
320.7630972339
 51
321.1830243667
  0
ARC
  5
554
100
AcDbEntity
  8
DRAFT
100
AcDbCircle
 62
7
  6
CONTINUOUS
 10
27.4912149122
 20
-12.0221674373
 40
32.6623810317
100
AcDbArc
 50
140.1653716049
 51
140.4686294743
  0
ARC
  5
555
100
AcDbEntity
  8
DRAFT
100
AcDbCircle
 62
7
  6
CONTINUOUS
 10
32.1824967255
 20
-16.7134492619
 40
32.6623810302
100
AcDbArc
 50
309.5313705395
 51
309.8346284089
  0
ARC
  5
556
100
AcDbEntity
  8
ASSI
100
AcDbCircle
 62
7
  6
CONTINUOUS
 10
22.6366837504
 20
1.9320195825
 40
16.0
100
AcDbArc
 50
233.6145983187
 51
237.2356451688
  0
ARC
  5
557
100
AcDbEntity
  8
ASSI
100
AcDbCircle
 62
7
  6
CONTINUOUS
 10
22.6366837504
 20
1.9320195825
 40
16.0
100
AcDbArc
 50
222.8561846401
 51
226.4225103224
  0
ARC
  5
558
100
AcDbEntity
  8
ASSI
100
AcDbCircle
 62
7
  6
CONTINUOUS
 10
22.6366837504
 20
1.9320195825
 40
16.0
100
AcDbArc
 50
211.8229652241
 51
215.5720435966
  0
ARC
  5
559
100
AcDbEntity
  8
ASSI
100
AcDbCircle
 62
7
  6
CONTINUOUS
 10
22.6366837504
 20
1.9320195825
 40
15.9
100
AcDbArc
 50
233.65721328
 51
237.2912861246
  0
ARC
  5
55A
100
AcDbEntity
  8
ASSI
100
AcDbCircle
 62
7
  6
CONTINUOUS
 10
22.6366837504
 20
1.9320195825
 40
15.9
100
AcDbArc
 50
222.8293242983
 51
226.4204465063
  0
ARC
  5
55B
100
AcDbEntity
  8
ASSI
100
AcDbCircle
 62
7
  6
CONTINUOUS
 10
22.6366837504
 20
1.9320195825
 40
15.9
100
AcDbArc
 50
211.6953198923
 51
215.4782623085
  0
CIRCLE
  5
55C
100
AcDbEntity
  8
0
100
AcDbCircle
 62
7
  6
CONTINUOUS
 10
22.6366837504
 20
-21.5679804175
 40
7.386474125
  0
ARC
  5
55D
100
AcDbEntity
  8
DRAFT
100
AcDbCircle
 62
7
  6
CONTINUOUS
 10
43.9382614276
 20
18.2370565602
 40
53.4463594416
100
AcDbArc
 50
219.6258360421
 51
219.8573287282
  0
ARC
  5
55E
100
AcDbEntity
  8
DRAFT
100
AcDbCircle
 62
7
  6
CONTINUOUS
 10
35.6834196219
 20
14.5356500445
 40
43.0136167047
100
AcDbArc
 50
219.5611669981
 51
219.8489370067
  0
ARC
  5
55F
100
AcDbEntity
  8
DRAFT
100
AcDbCircle
 62
7
  6
CONTINUOUS
 10
26.5890587502
 20
14.7417152702
 40
41.0299135769
100
AcDbArc
 50
230.7634688491
 51
231.1826526916
  0
ARC
  5
560
100
AcDbEntity
  8
DRAFT
100
AcDbCircle
 62
7
  6
CONTINUOUS
 10
27.4912149061
 20
10.8862066097
 40
32.6623810317
100
AcDbArc
 50
219.5313705426
 51
219.834628412
  0
ARC
  5
561
100
AcDbEntity
  8
DRAFT
100
AcDbCircle
 62
7
  6
CONTINUOUS
 10
62.4417207376
 20
-0.2664027468
 40
53.4463594428
100
AcDbArc
 50
230.1426712595
 51
230.3741639455
  0
ARC
  5
562
100
AcDbEntity
  8
DRAFT
100
AcDbCircle
 62
7
  6
CONTINUOUS
 10
58.740314223
 20
-8.5212445544
 40
43.013616705
100
AcDbArc
 50
230.1510629753
 51
230.4388329839
  0
ARC
  5
563
100
AcDbEntity
  8
DRAFT
100
AcDbCircle
 62
7
  6
CONTINUOUS
 10
58.8899607155
 20
-17.6613363646
 40
40.9572888395
100
AcDbArc
 50
218.8169756333
 51
219.2369027662
  0
ARC
  5
564
100
AcDbEntity
  8
DRAFT
100
AcDbCircle
 62
7
  6
CONTINUOUS
 10
55.0908707829
 20
-16.7134492678
 40
32.6623810305
100
AcDbArc
 50
230.1653715743
 51
230.4686294437
  0
ARC
  5
565
100
AcDbEntity
  8
DRAFT
100
AcDbCircle
 62
7
  6
CONTINUOUS
 10
53.6366837504
 20
9.4320195825
 40
22.0
100
AcDbArc
 50
0.0
 51
90.0
  0
ARC
  5
566
100
AcDbEntity
  8
RACCORDO
100
AcDbCircle
 62
253
  6
CONTINUOUS
 10
53.6366837504
 20
9.4320195825
 40
21.9473301734
100
AcDbArc
 50
0.0
 51
90.0
  0
ARC
  5
567
100
AcDbEntity
  8
RACCORDO
100
AcDbCircle
 62
253
  6
CONTINUOUS
 10
53.6366837504
 20
9.4320195825
 40
20.9474860488
100
AcDbArc
 50
0.0
 51
90.0
  0
CIRCLE
  5
568
100
AcDbEntity
  8
0
100
AcDbCircle
 62
7
  6
CONTINUOUS
 10
61.6366842993
 20
17.4320190494
 40
1.4999996177
  0
ARC
  5
569
100
AcDbEntity
  8
0
100
AcDbCircle
 62
7
  6
CONTINUOUS
 10
61.6366837504
 20
17.4320195825
 40
1.0
100
AcDbArc
 50
307.6774584221
 51
75.84228485
  0
ARC
  5
56A
100
AcDbEntity
  8
0
100
AcDbCircle
 62
7
  6
CONTINUOUS
 10
61.6366837504
 20
17.4320195825
 40
1.0
100
AcDbArc
 50
127.6774584221
 51
180.0
  0
ARC
  5
56B
100
AcDbEntity
  8
DRAFT
100
AcDbCircle
 62
7
  6
CONTINUOUS
 10
60.6841741875
 20
16.4795100196
 40
1.0
100
AcDbArc
 50
315.0
 51
327.142928721
  0
ARC
  5
56C
100
AcDbEntity
  8
DRAFT
100
AcDbCircle
 62
7
  6
CONTINUOUS
 10
60.6841741875
 20
16.4795100196
 40
1.0
100
AcDbArc
 50
122.8767056881
 51
135.0
  0
ARC
  5
56D
100
AcDbEntity
  8
0
100
AcDbCircle
 62
7
  6
CONTINUOUS
 10
61.533345491
 20
17.0702198223
 40
0.8320718012
100
AcDbArc
 50
344.774383981
 51
349.517352529
  0
ARC
  5
56E
100
AcDbEntity
  8
0
100
AcDbCircle
 62
7
  6
CONTINUOUS
 10
61.7400220098
 20
17.7938193427
 40
0.8320718012
100
AcDbArc
 50
164.774383981
 51
169.5173525291
  0
ARC
  5
56F
100
AcDbEntity
  8
0
100
AcDbCircle
 62
7
  6
CONTINUOUS
 10
61.6926360705
 20
17.5597797977
 40
0.813765055
100
AcDbArc
 50
150.6304078959
 51
164.4190814713
  0
ARC
  5
570
100
AcDbEntity
  8
0
100
AcDbCircle
 62
7
  6
CONTINUOUS
 10
61.5807314303
 20
17.3042593673
 40
0.813765055
100
AcDbArc
 50
330.6304078959
 51
344.4190814713
  0
ARC
  5
571
100
AcDbEntity
  8
RACCORDO
100
AcDbCircle
 62
7
  6
CONTINUOUS
 10
60.6841741875
 20
16.4795100196
 40
0.7076118513
100
AcDbArc
 50
290.5937263736
 51
159.4062736264
  0
ARC
  5
572
100
AcDbEntity
  8
RACCORDO
100
AcDbCircle
 62
253
  6
CONTINUOUS
 10
60.9329975738
 20
15.8171270827
 40
0.4999328101
100
AcDbArc
 50
110.5865149634
 51
225.0010111552
  0
ARC
  5
573
100
AcDbEntity
  8
RACCORDO
100
AcDbCircle
 62
253
  6
CONTINUOUS
 10
60.0218003036
 20
16.7282934063
 40
0.4999074035
100
AcDbArc
 50
224.989334889
 51
339.409159895
  0
ARC
  5
574
100
AcDbEntity
  8
RACCORDO
100
AcDbCircle
 62
253
  6
CONTINUOUS
 10
60.6841741875
 20
16.4795100196
 40
0.2076308898
100
AcDbArc
 50
290.5937263735
 51
159.4062736264
  0
ARC
  5
575
100
AcDbEntity
  8
RACCORDO
100
AcDbCircle
 62
253
  6
CONTINUOUS
 10
57.6256906673
 20
21.6106734338
 40
0.500042933
100
AcDbArc
 50
0.0137900464
 51
89.9930816252
  0
ARC
  5
576
100
AcDbEntity
  8
RACCORDO
100
AcDbCircle
 62
253
  6
CONTINUOUS
 10
65.8153375937
 20
13.4210264905
 40
0.5000429418
100
AcDbArc
 50
0.0069194754
 51
89.986209039
  0
ARC
  5
577
100
AcDbEntity
  8
0
100
AcDbCircle
 62
7
  6
CONTINUOUS
 10
71.6366837504
 20
27.4320195825
 40
10.0
100
AcDbArc
 50
0.0
 51
90.0
  0
ARC
  5
578
100
AcDbEntity
  8
0
100
AcDbCircle
 62
7
  6
CONTINUOUS
 10
71.6366837504
 20
27.4320195825
 40
7.0
100
AcDbArc
 50
0.0
 51
90.0
  0
SPLINE
  5
579
100
AcDbEntity
  8
0
100
AcDbSpline
 62
7
  6
CONTINUOUS
 70
0
 71
3
 72
10
 73
6
 74
4
 42
0.0000001
 43
0.0000001
 44
0.0000000001
 12
0.7747030451
 22
-0.223616519
 32
0.0
 13
0.7657101211
 23
0.2571966064
 33
0.0
 40
0.0
 40
0.0
 40
0.0
 40
0.0
 40
0.3503929776
 40
0.6837004221
 40
1.0
 40
1.0
 40
1.0
 40
1.0
 10
-17.1475816596
 20
16.153376643
 30
0.0
 10
-17.0570981574
 20
16.127258757
 30
0.0
 10
-16.8750024488
 20
16.0934024423
 30
0.0
 10
-16.6045228115
 20
16.0980214225
 30
0.0
 10
-16.432912257
 20
16.1362508239
 30
0.0
 10
-16.3521809943
 20
16.1633678833
 30
0.0
 11
-17.1475816596
 21
16.153376643
 31
0.0
 11
-16.8697082619
 21
16.1022782271
 31
0.0
 11
-16.6010005671
 21
16.1073744159
 31
0.0
 11
-16.3521809943
 21
16.1633678833
 31
0.0
  0
SPLINE
  5
57A
100
AcDbEntity
  8
0
100
AcDbSpline
 62
7
  6
CONTINUOUS
 70
0
 71
3
 72
14
 73
10
 74
8
 42
0.0000001
 43
0.0000001
 44
0.0000000001
 12
-1.5265164876
 22
0.440625999
 32
0.0
 13
-0.7919061665
 23
-1.38096161
 33
0.0
 40
0.0
 40
0.0
 40
0.0
 40
0.0
 40
0.1778235013
 40
0.3469761403
 40
0.5074973323
 40
0.6594332102
 40
0.8028381927
 40
0.9377770198
 40
1.0
 40
1.0
 40
1.0
 40
1.0
 10
-15.5790508396
 20
18.710662522
 30
0.0
 10
-15.6695343418
 20
18.7367804079
 30
0.0
 10
-15.8516300504
 20
18.7706367227
 30
0.0
 10
-16.1221096877
 20
18.7660177425
 30
0.0
 10
-16.3728099297
 20
18.7101696613
 30
0.0
 10
-16.5944773345
 20
18.6103047203
 30
0.0
 10
-16.7800151081
 20
18.4751886083
 30
0.0
 10
-16.9015539833
 20
18.3401268974
 30
0.0
 10
-16.9583578237
 20
18.2520813871
 30
0.0
 10
-16.9747827442
 20
18.2234388715
 30
0.0
 11
-15.5790508396
 21
18.710662522
 31
0.0
 11
-15.8569242374
 21
18.7617609379
 31
0.0
 11
-16.1256319321
 21
18.7566647491
 31
0.0
 11
-16.3744515049
 21
18.7006712817
 31
0.0
 11
-16.594322178
 21
18.6010142912
 31
0.0
 11
-16.778173957
 21
18.466430262
 31
0.0
 11
-16.9211536381
 21
18.3066729906
 31
0.0
 11
-16.9747827442
 21
18.2234388715
 31
0.0
  0
SPLINE
  5
57B
100
AcDbEntity
  8
0
100
AcDbSpline
 62
7
  6
CONTINUOUS
 70
0
 71
3
 72
9
 73
5
 74
3
 42
0.0000001
 43
0.0000001
 44
0.0000000001
 12
-0.1141041339
 22
-0.1989799236
 32
0.0
 13
-0.0601421282
 23
-0.2213573269
 33
0.0
 40
0.0
 40
0.0
 40
0.0
 40
0.0
 40
0.4464455663
 40
1.0
 40
1.0
 40
1.0
 40
1.0
 10
-16.9747827442
 20
18.2234388715
 30
0.0
 10
-16.9917631725
 20
18.1938276366
 30
0.0
 10
-17.0262021097
 20
18.1254519155
 30
0.0
 10
-17.0517460729
 20
18.0531829781
 30
0.0
 10
-17.0628433868
 20
18.0123385348
 30
0.0
 11
-16.9747827442
 21
18.2234388715
 31
0.0
 11
-17.0207405045
 21
18.1319995904
 31
0.0
 11
-17.0628433868
 21
18.0123385348
 31
0.0
  0
SPLINE
  5
57C
100
AcDbEntity
  8
0
100
AcDbSpline
 62
7
  6
CONTINUOUS
 70
0
 71
3
 72
8
 73
4
 74
2
 42
0.0000001
 43
0.0000001
 44
0.0000000001
 12
-0.0305187141
 22
-0.1649907312
 32
0.0
 13
0.0050465324
 23
-0.1672594158
 33
0.0
 40
0.0
 40
0.0
 40
0.0
 40
0.0
 40
1.0
 40
1.0
 40
1.0
 40
1.0
 10
-17.0781625581
 20
17.9452045972
 30
0.0
 10
-17.0883354628
 20
17.8902076868
 30
0.0
 10
-17.0929069831
 20
17.8341094483
 30
0.0
 10
-17.0912248057
 20
17.7783563097
 30
0.0
 11
-17.0781625581
 21
17.9452045972
 31
0.0
 11
-17.0912248057
 21
17.7783563097
 31
0.0
  0
SPLINE
  5
57D
100
AcDbEntity
  8
0
100
AcDbSpline
 62
7
  6
CONTINUOUS
 70
0
 71
3
 72
10
 73
6
 74
4
 42
0.0000001
 43
0.0000001
 44
0.0000000001
 12
0.2526038827
 22
0.4495512038
 32
0.0
 13
0.4603379694
 23
0.2315080305
 33
0.0
 40
0.0
 40
0.0
 40
0.0
 40
0.0
 40
0.3915193347
 40
0.7940496483
 40
1.0
 40
1.0
 40
1.0
 40
1.0
 10
-17.016539196
 20
17.958883802
 30
0.0
 10
-16.9835727613
 20
18.0175531314
 30
0.0
 10
-16.9022279278
 20
18.1281755699
 30
0.0
 10
-16.7698785841
 20
18.2395611252
 30
0.0
 10
-16.6792386352
 20
18.2919445353
 30
0.0
 10
-16.6476363797
 20
18.3078375888
 30
0.0
 11
-17.016539196
 21
17.958883802
 31
0.0
 11
-16.897582654
 21
18.1212500843
 31
0.0
 11
-16.7394378562
 21
18.254721107
 31
0.0
 11
-16.6476363797
 21
18.3078375888
 31
0.0
  0
SPLINE
  5
57E
100
AcDbEntity
  8
0
100
AcDbSpline
 62
7
  6
CONTINUOUS
 70
0
 71
3
 72
10
 73
6
 74
4
 42
0.0000001
 43
0.0000001
 44
0.0000000001
 12
0.4865658941
 22
0.2446982855
 32
0.0
 13
0.5402886881
 23
-0.0579693842
 33
0.0
 40
0.0
 40
0.0
 40
0.0
 40
0.0
 40
0.1945428616
 40
0.5924002923
 40
1.0
 40
1.0
 40
1.0
 40
1.0
 10
-16.6476363797
 20
18.3078375888
 30
0.0
 10
-16.6160837392
 20
18.3237056903
 30
0.0
 10
-16.5171993301
 20
18.3664492562
 30
0.0
 10
-16.3395154694
 20
18.4087924434
 30
0.0
 10
-16.1921315611
 20
18.409521809
 30
0.0
 10
-16.1187243907
 20
18.4016457076
 30
0.0
 11
-16.6476363797
 21
18.3078375888
 31
0.0
 11
-16.5504493522
 21
18.3498749796
 31
0.0
 11
-16.3402053716
 21
18.400236488
 31
0.0
 11
-16.1187243907
 21
18.4016457076
 31
0.0
  0
SPLINE
  5
57F
100
AcDbEntity
  8
0
100
AcDbSpline
 62
7
  6
CONTINUOUS
 70
0
 71
3
 72
14
 73
10
 74
8
 42
0.0000001
 43
0.0000001
 44
0.0000000001
 12
1.5265164876
 22
-0.440625999
 32
0.0
 13
0.7919061665
 23
1.38096161
 33
0.0
 40
0.0
 40
0.0
 40
0.0
 40
0.0
 40
0.1778235013
 40
0.3469761403
 40
0.5074973323
 40
0.6594332102
 40
0.8028381927
 40
0.9377770198
 40
1.0
 40
1.0
 40
1.0
 40
1.0
 10
-17.1475816596
 20
-61.846623357
 30
0.0
 10
-17.0570981574
 20
-61.872741243
 30
0.0
 10
-16.8750024488
 20
-61.9065975577
 30
0.0
 10
-16.6045228115
 20
-61.9019785775
 30
0.0
 10
-16.3538225696
 20
-61.8461304963
 30
0.0
 10
-16.1321551648
 20
-61.7462655553
 30
0.0
 10
-15.9466173912
 20
-61.6111494433
 30
0.0
 10
-15.8250785159
 20
-61.4760877325
 30
0.0
 10
-15.7682746756
 20
-61.3880422222
 30
0.0
 10
-15.751849755
 20
-61.3593997065
 30
0.0
 11
-17.1475816596
 21
-61.846623357
 31
0.0
 11
-16.8697082619
 21
-61.8977217729
 31
0.0
 11
-16.6010005671
 21
-61.8926255841
 31
0.0
 11
-16.3521809943
 21
-61.8366321167
 31
0.0
 11
-16.1323103213
 21
-61.7369751263
 31
0.0
 11
-15.9484585422
 21
-61.602391097
 31
0.0
 11
-15.8054788611
 21
-61.4426338256
 31
0.0
 11
-15.751849755
 21
-61.3593997065
 31
0.0
  0
SPLINE
  5
580
100
AcDbEntity
  8
0
100
AcDbSpline
 62
7
  6
CONTINUOUS
 70
0
 71
3
 72
9
 73
5
 74
3
 42
0.0000001
 43
0.0000001
 44
0.0000000001
 12
0.1141041339
 22
0.1989799236
 32
0.0
 13
0.0601421282
 23
0.2213573269
 33
0.0
 40
0.0
 40
0.0
 40
0.0
 40
0.0
 40
0.4464455663
 40
1.0
 40
1.0
 40
1.0
 40
1.0
 10
-15.751849755
 20
-61.3593997065
 30
0.0
 10
-15.7348693268
 20
-61.3297884716
 30
0.0
 10
-15.7004303895
 20
-61.2614127505
 30
0.0
 10
-15.6748864263
 20
-61.1891438131
 30
0.0
 10
-15.6637891124
 20
-61.1482993698
 30
0.0
 11
-15.751849755
 21
-61.3593997065
 31
0.0
 11
-15.7058919948
 21
-61.2679604254
 31
0.0
 11
-15.6637891124
 21
-61.1482993698
 31
0.0
  0
SPLINE
  5
581
100
AcDbEntity
  8
0
100
AcDbSpline
 62
7
  6
CONTINUOUS
 70
0
 71
3
 72
8
 73
4
 74
2
 42
0.0000001
 43
0.0000001
 44
0.0000000001
 12
0.0305187141
 22
0.1649907312
 32
0.0
 13
-0.0050465324
 23
0.1672594158
 33
0.0
 40
0.0
 40
0.0
 40
0.0
 40
0.0
 40
1.0
 40
1.0
 40
1.0
 40
1.0
 10
-15.6484699411
 20
-61.0811654322
 30
0.0
 10
-15.6382970364
 20
-61.0261685218
 30
0.0
 10
-15.6337255161
 20
-60.9700702834
 30
0.0
 10
-15.6354076936
 20
-60.9143171448
 30
0.0
 11
-15.6484699411
 21
-61.0811654322
 31
0.0
 11
-15.6354076936
 21
-60.9143171448
 31
0.0
  0
SPLINE
  5
582
100
AcDbEntity
  8
0
100
AcDbSpline
 62
7
  6
CONTINUOUS
 70
0
 71
3
 72
13
 73
9
 74
7
 42
0.0000001
 43
0.0000001
 44
0.0000000001
 12
-1.157524719
 22
-0.0350525846
 32
0.0
 13
-0.5762875385
 23
-1.0049561435
 33
0.0
 40
0.0
 40
0.0
 40
0.0
 40
0.0
 40
0.1026465318
 40
0.3232269076
 40
0.5320097644
 40
0.7290698817
 40
0.9144962221
 40
1.0
 40
1.0
 40
1.0
 40
1.0
 10
-16.0071451523
 20
-59.2343935923
 30
0.0
 10
-16.0467504516
 20
-59.2355929344
 30
0.0
 10
-16.1712776456
 20
-59.2449353228
 30
0.0
 10
-16.3728099297
 20
-59.2898303387
 30
0.0
 10
-16.5944773345
 20
-59.3896952797
 30
0.0
 10
-16.7800151081
 20
-59.5248113917
 30
0.0
 10
-16.9015539833
 20
-59.6598731026
 30
0.0
 10
-16.9583578237
 20
-59.7479186129
 30
0.0
 10
-16.9747827442
 20
-59.7765611285
 30
0.0
 11
-16.0071451523
 21
-59.2343935923
 31
0.0
 11
-16.1256319321
 21
-59.2433352509
 31
0.0
 11
-16.3744515049
 21
-59.2993287183
 31
0.0
 11
-16.594322178
 21
-59.3989857088
 31
0.0
 11
-16.778173957
 21
-59.533569738
 31
0.0
 11
-16.9211536381
 21
-59.6933270094
 31
0.0
 11
-16.9747827442
 21
-59.7765611285
 31
0.0
  0
SPLINE
  5
583
100
AcDbEntity
  8
0
100
AcDbSpline
 62
7
  6
CONTINUOUS
 70
0
 71
3
 72
9
 73
5
 74
3
 42
0.0000001
 43
0.0000001
 44
0.0000000001
 12
-0.1141041339
 22
-0.1989799236
 32
0.0
 13
-0.0601421282
 23
-0.2213573269
 33
0.0
 40
0.0
 40
0.0
 40
0.0
 40
0.0
 40
0.4464455663
 40
1.0
 40
1.0
 40
1.0
 40
1.0
 10
-16.9747827442
 20
-59.7765611285
 30
0.0
 10
-16.9917631725
 20
-59.8061723634
 30
0.0
 10
-17.0262021097
 20
-59.8745480845
 30
0.0
 10
-17.0517460729
 20
-59.9468170219
 30
0.0
 10
-17.0628433868
 20
-59.9876614652
 30
0.0
 11
-16.9747827442
 21
-59.7765611285
 31
0.0
 11
-17.0207405045
 21
-59.8680004096
 31
0.0
 11
-17.0628433868
 21
-59.9876614652
 31
0.0
  0
SPLINE
  5
584
100
AcDbEntity
  8
0
100
AcDbSpline
 62
7
  6
CONTINUOUS
 70
0
 71
3
 72
8
 73
4
 74
2
 42
0.0000001
 43
0.0000001
 44
0.0000000001
 12
-0.0305187141
 22
-0.1649907312
 32
0.0
 13
0.0050465324
 23
-0.1672594158
 33
0.0
 40
0.0
 40
0.0
 40
0.0
 40
0.0
 40
1.0
 40
1.0
 40
1.0
 40
1.0
 10
-17.0781625581
 20
-60.0547954028
 30
0.0
 10
-17.0883354628
 20
-60.1097923132
 30
0.0
 10
-17.0929069831
 20
-60.1658905517
 30
0.0
 10
-17.0912248057
 20
-60.2216436903
 30
0.0
 11
-17.0781625581
 21
-60.0547954028
 31
0.0
 11
-17.0912248057
 21
-60.2216436903
 31
0.0
  0
SPLINE
  5
585
100
AcDbEntity
  8
0
100
AcDbSpline
 62
7
  6
CONTINUOUS
 70
0
 71
3
 72
10
 73
6
 74
4
 42
0.0000001
 43
0.0000001
 44
0.0000000001
 12
0.2526038827
 22
0.4495512038
 32
0.0
 13
0.4603379694
 23
0.2315080305
 33
0.0
 40
0.0
 40
0.0
 40
0.0
 40
0.0
 40
0.3915193347
 40
0.7940496483
 40
1.0
 40
1.0
 40
1.0
 40
1.0
 10
-17.016539196
 20
-60.041116198
 30
0.0
 10
-16.9835727613
 20
-59.9824468686
 30
0.0
 10
-16.9022279278
 20
-59.8718244301
 30
0.0
 10
-16.7698785841
 20
-59.7604388748
 30
0.0
 10
-16.6792386352
 20
-59.7080554647
 30
0.0
 10
-16.6476363797
 20
-59.6921624112
 30
0.0
 11
-17.016539196
 21
-60.041116198
 31
0.0
 11
-16.897582654
 21
-59.8787499157
 31
0.0
 11
-16.7394378562
 21
-59.745278893
 31
0.0
 11
-16.6476363797
 21
-59.6921624112
 31
0.0
  0
SPLINE
  5
586
100
AcDbEntity
  8
0
100
AcDbSpline
 62
7
  6
CONTINUOUS
 70
0
 71
3
 72
10
 73
6
 74
4
 42
0.0000001
 43
0.0000001
 44
0.0000000001
 12
0.4865658941
 22
0.2446982855
 32
0.0
 13
0.5402886881
 23
-0.0579693842
 33
0.0
 40
0.0
 40
0.0
 40
0.0
 40
0.0
 40
0.1945428616
 40
0.5924002923
 40
1.0
 40
1.0
 40
1.0
 40
1.0
 10
-16.6476363797
 20
-59.6921624112
 30
0.0
 10
-16.6160837392
 20
-59.6762943097
 30
0.0
 10
-16.5171993301
 20
-59.6335507438
 30
0.0
 10
-16.3395154694
 20
-59.5912075566
 30
0.0
 10
-16.1921315611
 20
-59.590478191
 30
0.0
 10
-16.1187243907
 20
-59.5983542924
 30
0.0
 11
-16.6476363797
 21
-59.6921624112
 31
0.0
 11
-16.5504493522
 21
-59.6501250204
 31
0.0
 11
-16.3402053716
 21
-59.599763512
 31
0.0
 11
-16.1187243907
 21
-59.5983542924
 31
0.0
  0
SPLINE
  5
587
100
AcDbEntity
  8
0
100
AcDbSpline
 62
7
  6
CONTINUOUS
 70
0
 71
3
 72
10
 73
6
 74
4
 42
0.0000001
 43
0.0000001
 44
0.0000000001
 12
-0.2526038827
 22
-0.4495512038
 32
0.0
 13
-0.4603379694
 23
-0.2315080305
 33
0.0
 40
0.0
 40
0.0
 40
0.0
 40
0.0
 40
0.3915193347
 40
0.7940496483
 40
1.0
 40
1.0
 40
1.0
 40
1.0
 10
-15.7100933033
 20
-61.094844637
 30
0.0
 10
-15.743059738
 20
-61.1535139664
 30
0.0
 10
-15.8244045714
 20
-61.2641364049
 30
0.0
 10
-15.9567539151
 20
-61.3755219602
 30
0.0
 10
-16.047393864
 20
-61.4279053704
 30
0.0
 10
-16.0789961196
 20
-61.4437984238
 30
0.0
 11
-15.7100933033
 21
-61.094844637
 31
0.0
 11
-15.8290498453
 21
-61.2572109193
 31
0.0
 11
-15.9871946431
 21
-61.3906819421
 31
0.0
 11
-16.0789961196
 21
-61.4437984238
 31
0.0
  0
SPLINE
  5
588
100
AcDbEntity
  8
0
100
AcDbSpline
 62
7
  6
CONTINUOUS
 70
0
 71
3
 72
10
 73
6
 74
4
 42
0.0000001
 43
0.0000001
 44
0.0000000001
 12
-0.4865658941
 22
-0.2446982855
 32
0.0
 13
-0.5402886881
 23
0.0579693842
 33
0.0
 40
0.0
 40
0.0
 40
0.0
 40
0.0
 40
0.1945428616
 40
0.5924002923
 40
1.0
 40
1.0
 40
1.0
 40
1.0
 10
-16.0789961196
 20
-61.4437984238
 30
0.0
 10
-16.11054876
 20
-61.4596665254
 30
0.0
 10
-16.2094331692
 20
-61.5024100912
 30
0.0
 10
-16.3871170298
 20
-61.5447532784
 30
0.0
 10
-16.5345009381
 20
-61.545482644
 30
0.0
 10
-16.6079081085
 20
-61.5376065427
 30
0.0
 11
-16.0789961196
 21
-61.4437984238
 31
0.0
 11
-16.176183147
 21
-61.4858358146
 31
0.0
 11
-16.3864271276
 21
-61.536197323
 31
0.0
 11
-16.6079081085
 21
-61.5376065427
 31
0.0
  0
SPLINE
  5
589
100
AcDbEntity
  8
0
100
AcDbSpline
 62
7
  6
CONTINUOUS
 70
0
 71
3
 72
13
 73
9
 74
7
 42
0.0000001
 43
0.0000001
 44
0.0000000001
 12
1.157524719
 22
0.0350525846
 32
0.0
 13
0.5762875385
 23
1.0049561435
 33
0.0
 40
0.0
 40
0.0
 40
0.0
 40
0.0
 40
0.1026465318
 40
0.3232269076
 40
0.5320097644
 40
0.7290698817
 40
0.9144962221
 40
1.0
 40
1.0
 40
1.0
 40
1.0
 10
61.280512653
 20
16.0984327573
 30
0.0
 10
61.3201179523
 20
16.0996320994
 30
0.0
 10
61.4446451464
 20
16.1089744877
 30
0.0
 10
61.6461774304
 20
16.1538695037
 30
0.0
 10
61.8678448352
 20
16.2537344447
 30
0.0
 10
62.0533826088
 20
16.3888505567
 30
0.0
 10
62.1749214841
 20
16.5239122675
 30
0.0
 10
62.2317253244
 20
16.6119577778
 30
0.0
 10
62.248150245
 20
16.6406002935
 30
0.0
 11
61.280512653
 21
16.0984327573
 31
0.0
 11
61.3989994329
 21
16.1073744159
 31
0.0
 11
61.6478190057
 21
16.1633678833
 31
0.0
 11
61.8676896787
 21
16.2630248737
 31
0.0
 11
62.0515414578
 21
16.397608903
 31
0.0
 11
62.1945211389
 21
16.5573661744
 31
0.0
 11
62.248150245
 21
16.6406002935
 31
0.0
  0
SPLINE
  5
58A
100
AcDbEntity
  8
0
100
AcDbSpline
 62
7
  6
CONTINUOUS
 70
0
 71
3
 72
9
 73
5
 74
3
 42
0.0000001
 43
0.0000001
 44
0.0000000001
 12
0.1141041339
 22
0.1989799236
 32
0.0
 13
0.0601421282
 23
0.2213573269
 33
0.0
 40
0.0
 40
0.0
 40
0.0
 40
0.0
 40
0.4464455663
 40
1.0
 40
1.0
 40
1.0
 40
1.0
 10
62.248150245
 20
16.6406002935
 30
0.0
 10
62.2651306732
 20
16.6702115284
 30
0.0
 10
62.2995696105
 20
16.7385872495
 30
0.0
 10
62.3251135737
 20
16.8108561869
 30
0.0
 10
62.3362108876
 20
16.8517006302
 30
0.0
 11
62.248150245
 21
16.6406002935
 31
0.0
 11
62.2941080052
 21
16.7320395746
 31
0.0
 11
62.3362108876
 21
16.8517006302
 31
0.0
  0
SPLINE
  5
58B
100
AcDbEntity
  8
0
100
AcDbSpline
 62
7
  6
CONTINUOUS
 70
0
 71
3
 72
8
 73
4
 74
2
 42
0.0000001
 43
0.0000001
 44
0.0000000001
 12
0.0305187141
 22
0.1649907312
 32
0.0
 13
-0.0050465324
 23
0.1672594158
 33
0.0
 40
0.0
 40
0.0
 40
0.0
 40
0.0
 40
1.0
 40
1.0
 40
1.0
 40
1.0
 10
62.3515300589
 20
16.9188345678
 30
0.0
 10
62.3617029636
 20
16.9738314782
 30
0.0
 10
62.3662744839
 20
17.0299297166
 30
0.0
 10
62.3645923064
 20
17.0856828552
 30
0.0
 11
62.3515300589
 21
16.9188345678
 31
0.0
 11
62.3645923064
 21
17.0856828552
 31
0.0
  0
SPLINE
  5
58C
100
AcDbEntity
  8
0
100
AcDbSpline
 62
7
  6
CONTINUOUS
 70
0
 71
3
 72
14
 73
10
 74
8
 42
0.0000001
 43
0.0000001
 44
0.0000000001
 12
-1.5265164876
 22
0.440625999
 32
0.0
 13
-0.7919061665
 23
-1.38096161
 33
0.0
 40
0.0
 40
0.0
 40
0.0
 40
0.0
 40
0.1778235013
 40
0.3469761403
 40
0.5074973323
 40
0.6594332102
 40
0.8028381927
 40
0.9377770198
 40
1.0
 40
1.0
 40
1.0
 40
1.0
 10
62.4209491604
 20
18.710662522
 30
0.0
 10
62.3304656582
 20
18.7367804079
 30
0.0
 10
62.1483699496
 20
18.7706367227
 30
0.0
 10
61.8778903123
 20
18.7660177425
 30
0.0
 10
61.6271900703
 20
18.7101696613
 30
0.0
 10
61.4055226655
 20
18.6103047203
 30
0.0
 10
61.2199848919
 20
18.4751886083
 30
0.0
 10
61.0984460167
 20
18.3401268974
 30
0.0
 10
61.0416421763
 20
18.2520813871
 30
0.0
 10
61.0252172558
 20
18.2234388715
 30
0.0
 11
62.4209491604
 21
18.710662522
 31
0.0
 11
62.1430757626
 21
18.7617609379
 31
0.0
 11
61.8743680679
 21
18.7566647491
 31
0.0
 11
61.6255484951
 21
18.7006712817
 31
0.0
 11
61.405677822
 21
18.6010142912
 31
0.0
 11
61.221826043
 21
18.466430262
 31
0.0
 11
61.0788463619
 21
18.3066729906
 31
0.0
 11
61.0252172558
 21
18.2234388715
 31
0.0
  0
SPLINE
  5
58D
100
AcDbEntity
  8
0
100
AcDbSpline
 62
7
  6
CONTINUOUS
 70
0
 71
3
 72
9
 73
5
 74
3
 42
0.0000001
 43
0.0000001
 44
0.0000000001
 12
-0.1141041339
 22
-0.1989799236
 32
0.0
 13
-0.0601421282
 23
-0.2213573269
 33
0.0
 40
0.0
 40
0.0
 40
0.0
 40
0.0
 40
0.4464455663
 40
1.0
 40
1.0
 40
1.0
 40
1.0
 10
61.0252172558
 20
18.2234388715
 30
0.0
 10
61.0082368275
 20
18.1938276366
 30
0.0
 10
60.9737978903
 20
18.1254519155
 30
0.0
 10
60.9482539271
 20
18.0531829781
 30
0.0
 10
60.9371566132
 20
18.0123385348
 30
0.0
 11
61.0252172558
 21
18.2234388715
 31
0.0
 11
60.9792594955
 21
18.1319995904
 31
0.0
 11
60.9371566132
 21
18.0123385348
 31
0.0
  0
SPLINE
  5
58E
100
AcDbEntity
  8
0
100
AcDbSpline
 62
7
  6
CONTINUOUS
 70
0
 71
3
 72
8
 73
4
 74
2
 42
0.0000001
 43
0.0000001
 44
0.0000000001
 12
-0.0305187141
 22
-0.1649907312
 32
0.0
 13
0.0050465324
 23
-0.1672594158
 33
0.0
 40
0.0
 40
0.0
 40
0.0
 40
0.0
 40
1.0
 40
1.0
 40
1.0
 40
1.0
 10
60.9218374419
 20
17.9452045972
 30
0.0
 10
60.9116645372
 20
17.8902076868
 30
0.0
 10
60.9070930169
 20
17.8341094483
 30
0.0
 10
60.9087751943
 20
17.7783563097
 30
0.0
 11
60.9218374419
 21
17.9452045972
 31
0.0
 11
60.9087751943
 21
17.7783563097
 31
0.0
  0
SPLINE
  5
58F
100
AcDbEntity
  8
0
100
AcDbSpline
 62
7
  6
CONTINUOUS
 70
0
 71
3
 72
10
 73
6
 74
4
 42
0.0000001
 43
0.0000001
 44
0.0000000001
 12
0.2526038827
 22
0.4495512038
 32
0.0
 13
0.4603379694
 23
0.2315080305
 33
0.0
 40
0.0
 40
0.0
 40
0.0
 40
0.0
 40
0.3915193347
 40
0.7940496483
 40
1.0
 40
1.0
 40
1.0
 40
1.0
 10
60.983460804
 20
17.958883802
 30
0.0
 10
61.0164272387
 20
18.0175531314
 30
0.0
 10
61.0977720722
 20
18.1281755699
 30
0.0
 10
61.2301214159
 20
18.2395611252
 30
0.0
 10
61.3207613648
 20
18.2919445353
 30
0.0
 10
61.3523636203
 20
18.3078375888
 30
0.0
 11
60.983460804
 21
17.958883802
 31
0.0
 11
61.102417346
 21
18.1212500843
 31
0.0
 11
61.2605621438
 21
18.254721107
 31
0.0
 11
61.3523636203
 21
18.3078375888
 31
0.0
  0
SPLINE
  5
590
100
AcDbEntity
  8
0
100
AcDbSpline
 62
7
  6
CONTINUOUS
 70
0
 71
3
 72
10
 73
6
 74
4
 42
0.0000001
 43
0.0000001
 44
0.0000000001
 12
0.4865658941
 22
0.2446982855
 32
0.0
 13
0.5402886881
 23
-0.0579693842
 33
0.0
 40
0.0
 40
0.0
 40
0.0
 40
0.0
 40
0.1945428616
 40
0.5924002923
 40
1.0
 40
1.0
 40
1.0
 40
1.0
 10
61.3523636203
 20
18.3078375888
 30
0.0
 10
61.3839162608
 20
18.3237056903
 30
0.0
 10
61.4828006699
 20
18.3664492562
 30
0.0
 10
61.6604845306
 20
18.4087924434
 30
0.0
 10
61.8078684389
 20
18.409521809
 30
0.0
 10
61.8812756093
 20
18.4016457076
 30
0.0
 11
61.3523636203
 21
18.3078375888
 31
0.0
 11
61.4495506478
 21
18.3498749796
 31
0.0
 11
61.6597946284
 21
18.400236488
 31
0.0
 11
61.8812756093
 21
18.4016457076
 31
0.0
  0
SPLINE
  5
591
100
AcDbEntity
  8
0
100
AcDbSpline
 62
7
  6
CONTINUOUS
 70
0
 71
3
 72
10
 73
6
 74
4
 42
0.0000001
 43
0.0000001
 44
0.0000000001
 12
-0.2526038827
 22
-0.4495512038
 32
0.0
 13
-0.4603379694
 23
-0.2315080305
 33
0.0
 40
0.0
 40
0.0
 40
0.0
 40
0.0
 40
0.3915193347
 40
0.7940496483
 40
1.0
 40
1.0
 40
1.0
 40
1.0
 10
62.2899066967
 20
16.905155363
 30
0.0
 10
62.256940262
 20
16.8464860336
 30
0.0
 10
62.1755954286
 20
16.7358635951
 30
0.0
 10
62.0432460849
 20
16.6244780398
 30
0.0
 10
61.952606136
 20
16.5720946296
 30
0.0
 10
61.9210038804
 20
16.5562015762
 30
0.0
 11
62.2899066967
 21
16.905155363
 31
0.0
 11
62.1709501547
 21
16.7427890807
 31
0.0
 11
62.0128053569
 21
16.6093180579
 31
0.0
 11
61.9210038804
 21
16.5562015762
 31
0.0
  0
SPLINE
  5
592
100
AcDbEntity
  8
0
100
AcDbSpline
 62
7
  6
CONTINUOUS
 70
0
 71
3
 72
10
 73
6
 74
4
 42
0.0000001
 43
0.0000001
 44
0.0000000001
 12
-0.4865658941
 22
-0.2446982855
 32
0.0
 13
-0.5402886881
 23
0.0579693842
 33
0.0
 40
0.0
 40
0.0
 40
0.0
 40
0.0
 40
0.1945428616
 40
0.5924002923
 40
1.0
 40
1.0
 40
1.0
 40
1.0
 10
61.9210038804
 20
16.5562015762
 30
0.0
 10
61.88945124
 20
16.5403334746
 30
0.0
 10
61.7905668308
 20
16.4975899088
 30
0.0
 10
61.6128829702
 20
16.4552467216
 30
0.0
 10
61.4654990619
 20
16.454517356
 30
0.0
 10
61.3920918915
 20
16.4623934573
 30
0.0
 11
61.9210038804
 21
16.5562015762
 31
0.0
 11
61.823816853
 21
16.5141641854
 31
0.0
 11
61.6135728724
 21
16.463802677
 31
0.0
 11
61.3920918915
 21
16.4623934573
 31
0.0
  0
SPLINE
  5
593
100
AcDbEntity
  8
0
100
AcDbSpline
 62
7
  6
CONTINUOUS
 70
0
 71
3
 72
14
 73
10
 74
8
 42
0.0000001
 43
0.0000001
 44
0.0000000001
 12
1.5265164876
 22
-0.440625999
 32
0.0
 13
0.7919061665
 23
1.38096161
 33
0.0
 40
0.0
 40
0.0
 40
0.0
 40
0.0
 40
0.1778235013
 40
0.3469761403
 40
0.5074973323
 40
0.6594332102
 40
0.8028381927
 40
0.9377770198
 40
1.0
 40
1.0
 40
1.0
 40
1.0
 10
60.8524183404
 20
-61.846623357
 30
0.0
 10
60.9429018426
 20
-61.872741243
 30
0.0
 10
61.1249975512
 20
-61.9065975577
 30
0.0
 10
61.3954771885
 20
-61.9019785775
 30
0.0
 10
61.6461774304
 20
-61.8461304963
 30
0.0
 10
61.8678448352
 20
-61.7462655553
 30
0.0
 10
62.0533826088
 20
-61.6111494433
 30
0.0
 10
62.1749214841
 20
-61.4760877325
 30
0.0
 10
62.2317253244
 20
-61.3880422222
 30
0.0
 10
62.248150245
 20
-61.3593997065
 30
0.0
 11
60.8524183404
 21
-61.846623357
 31
0.0
 11
61.1302917381
 21
-61.8977217729
 31
0.0
 11
61.3989994329
 21
-61.8926255841
 31
0.0
 11
61.6478190057
 21
-61.8366321167
 31
0.0
 11
61.8676896787
 21
-61.7369751263
 31
0.0
 11
62.0515414578
 21
-61.602391097
 31
0.0
 11
62.1945211389
 21
-61.4426338256
 31
0.0
 11
62.248150245
 21
-61.3593997065
 31
0.0
  0
SPLINE
  5
594
100
AcDbEntity
  8
0
100
AcDbSpline
 62
7
  6
CONTINUOUS
 70
0
 71
3
 72
9
 73
5
 74
3
 42
0.0000001
 43
0.0000001
 44
0.0000000001
 12
0.1141041339
 22
0.1989799236
 32
0.0
 13
0.0601421282
 23
0.2213573269
 33
0.0
 40
0.0
 40
0.0
 40
0.0
 40
0.0
 40
0.4464455663
 40
1.0
 40
1.0
 40
1.0
 40
1.0
 10
62.248150245
 20
-61.3593997065
 30
0.0
 10
62.2651306732
 20
-61.3297884716
 30
0.0
 10
62.2995696105
 20
-61.2614127505
 30
0.0
 10
62.3251135737
 20
-61.1891438131
 30
0.0
 10
62.3362108876
 20
-61.1482993698
 30
0.0
 11
62.248150245
 21
-61.3593997065
 31
0.0
 11
62.2941080052
 21
-61.2679604254
 31
0.0
 11
62.3362108876
 21
-61.1482993698
 31
0.0
  0
SPLINE
  5
595
100
AcDbEntity
  8
0
100
AcDbSpline
 62
7
  6
CONTINUOUS
 70
0
 71
3
 72
8
 73
4
 74
2
 42
0.0000001
 43
0.0000001
 44
0.0000000001
 12
0.0305187141
 22
0.1649907312
 32
0.0
 13
-0.0050465324
 23
0.1672594158
 33
0.0
 40
0.0
 40
0.0
 40
0.0
 40
0.0
 40
1.0
 40
1.0
 40
1.0
 40
1.0
 10
62.3515300589
 20
-61.0811654322
 30
0.0
 10
62.3617029636
 20
-61.0261685218
 30
0.0
 10
62.3662744839
 20
-60.9700702834
 30
0.0
 10
62.3645923064
 20
-60.9143171448
 30
0.0
 11
62.3515300589
 21
-61.0811654322
 31
0.0
 11
62.3645923064
 21
-60.9143171448
 31
0.0
  0
SPLINE
  5
596
100
AcDbEntity
  8
0
100
AcDbSpline
 62
7
  6
CONTINUOUS
 70
0
 71
3
 72
10
 73
6
 74
4
 42
0.0000001
 43
0.0000001
 44
0.0000000001
 12
-0.7747030451
 22
0.223616519
 32
0.0
 13
-0.7657101211
 23
-0.2571966064
 33
0.0
 40
0.0
 40
0.0
 40
0.0
 40
0.0
 40
0.3503929776
 40
0.6837004221
 40
1.0
 40
1.0
 40
1.0
 40
1.0
 10
62.4209491604
 20
-59.289337478
 30
0.0
 10
62.3304656582
 20
-59.2632195921
 30
0.0
 10
62.1483699496
 20
-59.2293632773
 30
0.0
 10
61.8778903123
 20
-59.2339822575
 30
0.0
 10
61.7062797578
 20
-59.2722116589
 30
0.0
 10
61.6255484951
 20
-59.2993287183
 30
0.0
 11
62.4209491604
 21
-59.289337478
 31
0.0
 11
62.1430757626
 21
-59.2382390621
 31
0.0
 11
61.8743680679
 21
-59.2433352509
 31
0.0
 11
61.6255484951
 21
-59.2993287183
 31
0.0
  0
SPLINE
  5
597
100
AcDbEntity
  8
0
100
AcDbSpline
 62
7
  6
CONTINUOUS
 70
0
 71
3
 72
10
 73
6
 74
4
 42
0.0000001
 43
0.0000001
 44
0.0000000001
 12
-0.2526038827
 22
-0.4495512038
 32
0.0
 13
-0.4603379694
 23
-0.2315080305
 33
0.0
 40
0.0
 40
0.0
 40
0.0
 40
0.0
 40
0.3915193347
 40
0.7940496483
 40
1.0
 40
1.0
 40
1.0
 40
1.0
 10
62.2899066967
 20
-61.094844637
 30
0.0
 10
62.256940262
 20
-61.1535139664
 30
0.0
 10
62.1755954286
 20
-61.2641364049
 30
0.0
 10
62.0432460849
 20
-61.3755219602
 30
0.0
 10
61.952606136
 20
-61.4279053704
 30
0.0
 10
61.9210038804
 20
-61.4437984238
 30
0.0
 11
62.2899066967
 21
-61.094844637
 31
0.0
 11
62.1709501547
 21
-61.2572109193
 31
0.0
 11
62.0128053569
 21
-61.3906819421
 31
0.0
 11
61.9210038804
 21
-61.4437984238
 31
0.0
  0
SPLINE
  5
598
100
AcDbEntity
  8
0
100
AcDbSpline
 62
7
  6
CONTINUOUS
 70
0
 71
3
 72
10
 73
6
 74
4
 42
0.0000001
 43
0.0000001
 44
0.0000000001
 12
-0.4865658941
 22
-0.2446982855
 32
0.0
 13
-0.5402886881
 23
0.0579693842
 33
0.0
 40
0.0
 40
0.0
 40
0.0
 40
0.0
 40
0.1945428616
 40
0.5924002923
 40
1.0
 40
1.0
 40
1.0
 40
1.0
 10
61.9210038804
 20
-61.4437984238
 30
0.0
 10
61.88945124
 20
-61.4596665254
 30
0.0
 10
61.7905668308
 20
-61.5024100912
 30
0.0
 10
61.6128829702
 20
-61.5447532784
 30
0.0
 10
61.4654990619
 20
-61.545482644
 30
0.0
 10
61.3920918915
 20
-61.5376065427
 30
0.0
 11
61.9210038804
 21
-61.4437984238
 31
0.0
 11
61.823816853
 21
-61.4858358146
 31
0.0
 11
61.6135728724
 21
-61.536197323
 31
0.0
 11
61.3920918915
 21
-61.5376065427
 31
0.0
  0
SPLINE
  5
599
100
AcDbEntity
  8
RACCORDO
100
AcDbSpline
 62
7
  6
CONTINUOUS
 70
0
 71
3
 72
10
 73
6
 74
4
 42
0.0000001
 43
0.0000001
 44
0.0000000001
 12
0.5039042092
 22
0.0
 32
0.0
 13
0.0985920027
 23
-0.4941650221
 33
0.0
 40
0.0
 40
0.0
 40
0.0
 40
0.0
 40
0.4905273144
 40
0.8545171167
 40
1.0
 40
1.0
 40
1.0
 40
1.0
 10
34.8953407695
 20
-67.7163484694
 30
0.0
 10
34.9777336957
 20
-67.7163484694
 30
0.0
 10
35.1318835584
 20
-67.7131499861
 30
0.0
 10
35.268749622
 20
-67.7427481729
 30
0.0
 10
35.3904778168
 20
-67.7353651732
 30
0.0
 10
35.3952589664
 20
-67.7593293573
 30
0.0
 11
34.8953407695
 21
-67.7163484694
 31
0.0
 11
35.1424534437
 21
-67.7220646548
 31
0.0
 11
35.3251975133
 21
-67.7377500529
 31
0.0
 11
35.3952589664
 21
-67.7593293573
 31
0.0
  0
SPLINE
  5
59A
100
AcDbEntity
  8
RACCORDO
100
AcDbSpline
 62
7
  6
CONTINUOUS
 70
0
 71
3
 72
10
 73
6
 74
4
 42
0.0000001
 43
0.0000001
 44
0.0000000001
 12
0.0985917317
 22
0.4941636642
 32
0.0
 13
0.5039028245
 23
0.0
 33
0.0
 40
0.0
 40
0.0
 40
0.0
 40
0.0
 40
0.1454828682
 40
0.5094726773
 40
1.0
 40
1.0
 40
1.0
 40
1.0
 10
9.8781085344
 20
-67.7593293573
 30
0.0
 10
9.8828896703
 20
-67.7353652416
 30
0.0
 10
10.0046175076
 20
-67.7427481571
 30
0.0
 10
10.1414832061
 20
-67.7131500601
 30
0.0
 10
10.2956326427
 20
-67.7163484694
 30
0.0
 10
10.3780253439
 20
-67.7163484694
 30
0.0
 11
9.8781085344
 21
-67.7593293573
 31
0.0
 11
9.9481697782
 21
-67.7377500837
 31
0.0
 11
10.1309133457
 21
-67.7220646902
 31
0.0
 11
10.3780253439
 21
-67.7163484694
 31
0.0
  0
SPLINE
  5
59B
100
AcDbEntity
  8
RACCORDO
100
AcDbSpline
 62
7
  6
CONTINUOUS
 70
0
 71
3
 72
10
 73
6
 74
4
 42
0.0000001
 43
0.0000001
 44
0.0000000001
 12
0.098591732
 22
0.4941636656
 32
0.0
 13
0.503902826
 23
-0.0
 33
0.0
 40
0.0
 40
0.0
 40
0.0
 40
0.0
 40
0.1454828682
 40
0.5094726773
 40
1.0
 40
1.0
 40
1.0
 40
1.0
 10
9.6281085344
 20
29.7406706427
 30
0.0
 10
9.6328896703
 20
29.7646347585
 30
0.0
 10
9.754617508
 20
29.7572518429
 30
0.0
 10
9.8914832069
 20
29.78684994
 30
0.0
 10
10.045632644
 20
29.7836515306
 30
0.0
 10
10.1280253453
 20
29.7836515306
 30
0.0
 11
9.6281085344
 21
29.7406706427
 31
0.0
 11
9.6981697784
 21
29.7622499163
 31
0.0
 11
9.8809133465
 21
29.7779353098
 31
0.0
 11
10.1280253453
 21
29.7836515306
 31
0.0
  0
SPLINE
  5
59C
100
AcDbEntity
  8
RACCORDO
100
AcDbSpline
 62
7
  6
CONTINUOUS
 70
0
 71
3
 72
10
 73
6
 74
4
 42
0.0000001
 43
0.0000001
 44
0.0000000001
 12
0.5039042092
 22
0.0
 32
0.0
 13
0.0985920027
 23
-0.4941650221
 33
0.0
 40
0.0
 40
0.0
 40
0.0
 40
0.0
 40
0.4905273144
 40
0.8545171167
 40
1.0
 40
1.0
 40
1.0
 40
1.0
 10
35.1453407695
 20
29.7836515306
 30
0.0
 10
35.2277336957
 20
29.7836515306
 30
0.0
 10
35.3818835584
 20
29.7868500139
 30
0.0
 10
35.518749622
 20
29.7572518271
 30
0.0
 10
35.6404778168
 20
29.7646348268
 30
0.0
 10
35.6452589664
 20
29.7406706427
 30
0.0
 11
35.1453407695
 21
29.7836515306
 31
0.0
 11
35.3924534437
 21
29.7779353452
 31
0.0
 11
35.5751975133
 21
29.7622499471
 31
0.0
 11
35.6452589664
 21
29.7406706427
 31
0.0
  0
SPLINE
  5
59D
100
AcDbEntity
  8
RACCORDO
100
AcDbSpline
 62
7
  6
CONTINUOUS
 70
0
 71
3
 72
10
 73
6
 74
4
 42
0.0000001
 43
0.0000001
 44
0.0000000001
 12
-0.5039042092
 22
0.0
 32
0.0
 13
-0.0985920027
 23
0.4941650221
 33
0.0
 40
0.0
 40
0.0
 40
0.0
 40
0.0
 40
0.4905273144
 40
0.8545171167
 40
1.0
 40
1.0
 40
1.0
 40
1.0
 10
10.3780267312
 20
24.5803876344
 30
0.0
 10
10.2956338051
 20
24.5803876344
 30
0.0
 10
10.1414839423
 20
24.5771891511
 30
0.0
 10
10.0046178788
 20
24.6067873379
 30
0.0
 10
9.882889684
 20
24.5994043382
 30
0.0
 10
9.8781085344
 20
24.6233685223
 30
0.0
 11
10.3780267312
 21
24.5803876344
 31
0.0
 11
10.130914057
 21
24.5861038198
 31
0.0
 11
9.9481699875
 21
24.6017892179
 31
0.0
 11
9.8781085344
 21
24.6233685223
 31
0.0
  0
SPLINE
  5
59E
100
AcDbEntity
  8
RACCORDO
100
AcDbSpline
 62
7
  6
CONTINUOUS
 70
0
 71
3
 72
10
 73
6
 74
4
 42
0.0000001
 43
0.0000001
 44
0.0000000001
 12
-0.0985917318
 22
-0.4941636645
 32
0.0
 13
-0.5039028249
 23
0.0
 33
0.0
 40
0.0
 40
0.0
 40
0.0
 40
0.0
 40
0.1454828682
 40
0.5094726773
 40
1.0
 40
1.0
 40
1.0
 40
1.0
 10
35.3952589664
 20
24.6233685223
 30
0.0
 10
35.3904778304
 20
24.5994044065
 30
0.0
 10
35.268749993
 20
24.606787322
 30
0.0
 10
35.1318842945
 20
24.577189225
 30
0.0
 10
34.9777348577
 20
24.5803876344
 30
0.0
 10
34.8953421565
 20
24.5803876344
 30
0.0
 11
35.3952589664
 21
24.6233685223
 31
0.0
 11
35.3251977225
 21
24.6017892487
 31
0.0
 11
35.1424541548
 21
24.5861038552
 31
0.0
 11
34.8953421565
 21
24.5803876344
 31
0.0
  0
SPLINE
  5
59F
100
AcDbEntity
  8
RACCORDO
100
AcDbSpline
 62
7
  6
CONTINUOUS
 70
0
 71
3
 72
10
 73
6
 74
4
 42
0.0000001
 43
0.0000001
 44
0.0000000001
 12
-0.5039042092
 22
0.0
 32
0.0
 13
-0.0985920027
 23
0.4941650221
 33
0.0
 40
0.0
 40
0.0
 40
0.0
 40
0.0
 40
0.4905273144
 40
0.8545171167
 40
1.0
 40
1.0
 40
1.0
 40
1.0
 10
10.1280267312
 20
-72.9196123656
 30
0.0
 10
10.0456338051
 20
-72.9196123656
 30
0.0
 10
9.8914839423
 20
-72.9228108489
 30
0.0
 10
9.7546178788
 20
-72.8932126621
 30
0.0
 10
9.632889684
 20
-72.9005956618
 30
0.0
 10
9.6281085344
 20
-72.8766314777
 30
0.0
 11
10.1280267312
 21
-72.9196123656
 31
0.0
 11
9.880914057
 21
-72.9138961802
 31
0.0
 11
9.6981699875
 21
-72.8982107821
 31
0.0
 11
9.6281085344
 21
-72.8766314777
 31
0.0
  0
SPLINE
  5
5A0
100
AcDbEntity
  8
RACCORDO
100
AcDbSpline
 62
7
  6
CONTINUOUS
 70
0
 71
3
 72
10
 73
6
 74
4
 42
0.0000001
 43
0.0000001
 44
0.0000000001
 12
-0.098591732
 22
-0.4941636654
 32
0.0
 13
-0.5039028258
 23
0.0
 33
0.0
 40
0.0
 40
0.0
 40
0.0
 40
0.0
 40
0.1454828682
 40
0.5094726773
 40
1.0
 40
1.0
 40
1.0
 40
1.0
 10
35.6452589664
 20
-72.8766314777
 30
0.0
 10
35.6404778304
 20
-72.9005955935
 30
0.0
 10
35.5187499928
 20
-72.8932126779
 30
0.0
 10
35.381884294
 20
-72.922810775
 30
0.0
 10
35.227734857
 20
-72.9196123656
 30
0.0
 10
35.1453421556
 20
-72.9196123656
 30
0.0
 11
35.6452589664
 21
-72.8766314777
 31
0.0
 11
35.5751977224
 21
-72.8982107513
 31
0.0
 11
35.3924541544
 21
-72.9138961449
 31
0.0
 11
35.1453421556
 21
-72.9196123656
 31
0.0
  0
SPLINE
  5
5A1
100
AcDbEntity
  8
RACCORDO
100
AcDbSpline
 62
253
  6
CONTINUOUS
 70
0
 71
3
 72
10
 73
6
 74
4
 42
0.0000001
 43
0.0000001
 44
0.0000000001
 12
-0.356414644
 22
-0.3505769643
 32
0.0
 13
-0.4982237179
 23
0.0413368271
 33
0.0
 40
0.0
 40
0.0
 40
0.0
 40
0.0
 40
0.4961355368
 40
0.8615707121
 40
1.0
 40
1.0
 40
1.0
 40
1.0
 10
-15.3032049341
 20
16.1677024658
 30
0.0
 10
-15.3621482577
 20
16.109724569
 30
0.0
 10
-15.4600725763
 20
15.996799256
 30
0.0
 10
-15.5916065908
 20
15.9150837139
 30
0.0
 10
-15.6366194716
 20
15.8152073976
 30
0.0
 10
-15.6596090564
 20
15.8171148068
 30
0.0
 11
-15.3032049341
 21
16.1677024658
 31
0.0
 11
-15.4800349049
 21
15.9937687754
 31
0.0
 11
-15.6102813528
 21
15.8656556209
 31
0.0
 11
-15.6596090564
 21
15.8171148068
 31
0.0
  0
SPLINE
  5
5A2
100
AcDbEntity
  8
RACCORDO
100
AcDbSpline
 62
253
  6
CONTINUOUS
 70
0
 71
3
 72
10
 73
6
 74
4
 42
0.0000001
 43
0.0000001
 44
0.0000000001
 12
-0.1719625327
 22
0.4694318883
 32
0.0
 13
0.224382942
 23
0.446754637
 33
0.0
 40
0.0
 40
0.0
 40
0.0
 40
0.0
 40
0.4961303696
 40
0.861563653
 40
1.0
 40
1.0
 40
1.0
 40
1.0
 10
-14.5764643822
 20
16.2589075711
 30
0.0
 10
-14.6049029938
 20
16.3365407098
 30
0.0
 10
-14.6666698113
 20
16.4720611277
 30
0.0
 10
-14.6884500197
 20
16.626513942
 30
0.0
 10
-14.7587921139
 20
16.7077197548
 30
0.0
 10
-14.7484378623
 20
16.7283354481
 30
0.0
 11
-14.5764643822
 21
16.2589075711
 31
0.0
 11
-14.6617802171
 21
16.4918069873
 31
0.0
 11
-14.7246210501
 21
16.6633530236
 31
0.0
 11
-14.7484378623
 21
16.7283354481
 31
0.0
  0
LINE
  5
5A3
100
AcDbEntity
  8
RACCORDO
100
AcDbLine
 62
7
  6
CONTINUOUS
 10
-12.830928101
 20
18.6458893201
 11
-12.3309471394
 21
18.4387904249
  0
SPLINE
  5
5A4
100
AcDbEntity
  8
RACCORDO
100
AcDbSpline
 62
253
  6
CONTINUOUS
 70
0
 71
3
 72
11
 73
7
 74
5
 42
0.0000001
 43
0.0000001
 44
0.0000000001
 12
-0.1758655802
 22
-0.4680324439
 32
0.0
 13
0.0155321439
 23
-0.4997417566
 33
0.0
 40
0.0
 40
0.0
 40
0.0
 40
0.0
 40
0.3281201295
 40
0.6470966043
 40
0.8964223952
 40
1.0
 40
1.0
 40
1.0
 40
1.0
 10
-15.4838385999
 20
16.2851471475
 30
0.0
 10
-15.5030736122
 20
16.2339568588
 30
0.0
 10
-15.5399863059
 20
16.1328602143
 30
0.0
 10
-15.5967066257
 20
15.9935919359
 30
0.0
 10
-15.6262014995
 20
15.8873905725
 30
0.0
 10
-15.6602377388
 20
15.8343699593
 30
0.0
 10
-15.659701478
 20
15.8171159413
 30
0.0
 11
-15.4838385999
 21
16.2851471475
 31
0.0
 11
-15.541544519
 21
16.1315766128
 31
0.0
 11
-15.5976448944
 21
15.9822865486
 31
0.0
 11
-15.6418558246
 21
15.8657310735
 31
0.0
 11
-15.659701478
 21
15.8171159413
 31
0.0
  0
LINE
  5
5A5
100
AcDbEntity
  8
RACCORDO
100
AcDbLine
 62
7
  6
CONTINUOUS
 10
-17.5771859872
 20
13.8996314338
 11
-17.3700870921
 21
13.3996504723
  0
SPLINE
  5
5A6
100
AcDbEntity
  8
RACCORDO
100
AcDbSpline
 62
253
  6
CONTINUOUS
 70
0
 71
3
 72
10
 73
6
 74
4
 42
0.0000001
 43
0.0000001
 44
0.0000000001
 12
0.3505769643
 22
-0.356414644
 32
0.0
 13
-0.0413368271
 23
-0.498223718
 33
0.0
 40
0.0
 40
0.0
 40
0.0
 40
0.0
 40
0.4961355368
 40
0.8615707121
 40
1.0
 40
1.0
 40
1.0
 40
1.0
 10
-15.0989991329
 20
-59.507869102
 30
0.0
 10
-15.0410212361
 20
-59.5668124256
 30
0.0
 10
-14.9280959232
 20
-59.6647367442
 30
0.0
 10
-14.846380381
 20
-59.7962707587
 30
0.0
 10
-14.7465040647
 20
-59.8412836395
 30
0.0
 10
-14.7484114739
 20
-59.8642732243
 30
0.0
 11
-15.0989991329
 21
-59.507869102
 31
0.0
 11
-14.9250654425
 21
-59.6846990727
 31
0.0
 11
-14.796952288
 21
-59.8149455207
 31
0.0
 11
-14.7484114739
 21
-59.8642732243
 31
0.0
  0
SPLINE
  5
5A7
100
AcDbEntity
  8
RACCORDO
100
AcDbSpline
 62
253
  6
CONTINUOUS
 70
0
 71
3
 72
10
 73
6
 74
4
 42
0.0000001
 43
0.0000001
 44
0.0000000001
 12
-0.4694318883
 22
-0.1719625327
 32
0.0
 13
-0.446754637
 23
0.2243829421
 33
0.0
 40
0.0
 40
0.0
 40
0.0
 40
0.0
 40
0.4961303696
 40
0.861563653
 40
1.0
 40
1.0
 40
1.0
 40
1.0
 10
-15.1902042382
 20
-58.7811285501
 30
0.0
 10
-15.267837377
 20
-58.8095671617
 30
0.0
 10
-15.4033577948
 20
-58.8713339792
 30
0.0
 10
-15.5578106091
 20
-58.8931141876
 30
0.0
 10
-15.6390164219
 20
-58.9634562818
 30
0.0
 10
-15.6596321152
 20
-58.9531020302
 30
0.0
 11
-15.1902042382
 21
-58.7811285501
 31
0.0
 11
-15.4231036545
 21
-58.866444385
 31
0.0
 11
-15.5946496907
 21
-58.929285218
 31
0.0
 11
-15.6596321152
 21
-58.9531020302
 31
0.0
  0
LINE
  5
5A8
100
AcDbEntity
  8
RACCORDO
100
AcDbLine
 62
7
  6
CONTINUOUS
 10
-17.5771859872
 20
-57.0355922689
 11
-17.3700870921
 21
-56.5356113073
  0
SPLINE
  5
5A9
100
AcDbEntity
  8
RACCORDO
100
AcDbSpline
 62
253
  6
CONTINUOUS
 70
0
 71
3
 72
11
 73
7
 74
5
 42
0.0000001
 43
0.0000001
 44
0.0000000001
 12
0.4680324439
 22
-0.1758655802
 32
0.0
 13
0.4997417566
 23
0.0155321438
 33
0.0
 40
0.0
 40
0.0
 40
0.0
 40
0.0
 40
0.3281201294
 40
0.6470966041
 40
0.896422395
 40
1.0
 40
1.0
 40
1.0
 40
1.0
 10
-15.2164438146
 20
-59.6885027678
 30
0.0
 10
-15.1652535259
 20
-59.7077377801
 30
0.0
 10
-15.0641568814
 20
-59.7446504738
 30
0.0
 10
-14.9248886031
 20
-59.8013707936
 30
0.0
 10
-14.8186872397
 20
-59.8308656674
 30
0.0
 10
-14.7656666265
 20
-59.8649019066
 30
0.0
 10
-14.7484126084
 20
-59.8643656459
 30
0.0
 11
-15.2164438146
 21
-59.6885027678
 31
0.0
 11
-15.06287328
 21
-59.7462086869
 31
0.0
 11
-14.9135832159
 21
-59.8023090623
 31
0.0
 11
-14.7970277407
 21
-59.8465199924
 31
0.0
 11
-14.7484126084
 21
-59.8643656459
 31
0.0
  0
LINE
  5
5AA
100
AcDbEntity
  8
RACCORDO
100
AcDbLine
 62
7
  6
CONTINUOUS
 10
-12.830928101
 20
-61.7818501551
 11
-12.3309471394
 21
-61.5747512599
  0
SPLINE
  5
5AB
100
AcDbEntity
  8
RACCORDO
100
AcDbSpline
 62
253
  6
CONTINUOUS
 70
0
 71
3
 72
10
 73
6
 74
4
 42
0.0000001
 43
0.0000001
 44
0.0000000001
 12
0.1719625327
 22
-0.4694318883
 32
0.0
 13
-0.2243825665
 23
-0.4467548257
 33
0.0
 40
0.0
 40
0.0
 40
0.0
 40
0.0
 40
0.4961303696
 40
0.8615636529
 40
1.0
 40
1.0
 40
1.0
 40
1.0
 10
59.849831883
 20
-59.3948684061
 30
0.0
 10
59.8782704946
 20
-59.4725015449
 30
0.0
 10
59.9400373003
 20
-59.6080219568
 30
0.0
 10
59.9618175425
 20
-59.762474788
 30
0.0
 10
60.0321595973
 20
-59.8436805811
 30
0.0
 10
60.021805363
 20
-59.8642962832
 30
0.0
 11
59.849831883
 21
-59.3948684061
 31
0.0
 11
59.9351477179
 21
-59.6277678223
 31
0.0
 11
59.9979885508
 21
-59.7993138586
 31
0.0
 11
60.021805363
 21
-59.8642962832
 31
0.0
  0
SPLINE
  5
5AC
100
AcDbEntity
  8
RACCORDO
100
AcDbSpline
 62
253
  6
CONTINUOUS
 70
0
 71
3
 72
10
 73
6
 74
4
 42
0.0000001
 43
0.0000001
 44
0.0000000001
 12
0.356414644
 22
0.3505769643
 32
0.0
 13
0.498223718
 23
-0.041336827
 33
0.0
 40
0.0
 40
0.0
 40
0.0
 40
0.0
 40
0.4961355368
 40
0.8615707121
 40
1.0
 40
1.0
 40
1.0
 40
1.0
 10
60.5765724349
 20
-59.3036633008
 30
0.0
 10
60.6355157585
 20
-59.245685404
 30
0.0
 10
60.7334400771
 20
-59.1327600911
 30
0.0
 10
60.8649740916
 20
-59.0510445489
 30
0.0
 10
60.9099869724
 20
-58.9511682326
 30
0.0
 10
60.9329765572
 20
-58.9530756418
 30
0.0
 11
60.5765724349
 21
-59.3036633008
 31
0.0
 11
60.7534024056
 21
-59.1297296104
 31
0.0
 11
60.8836488536
 21
-59.0016164559
 31
0.0
 11
60.9329765572
 21
-58.9530756418
 31
0.0
  0
LINE
  5
5AD
100
AcDbEntity
  8
RACCORDO
100
AcDbLine
 62
7
  6
CONTINUOUS
 10
62.850553488
 20
-57.0355922689
 11
62.6434545928
 21
-56.5356113073
  0
LINE
  5
5AE
100
AcDbEntity
  8
RACCORDO
100
AcDbLine
 62
7
  6
CONTINUOUS
 10
58.1042956017
 20
-61.7818501551
 11
57.6043146402
 21
-61.5747512599
  0
SPLINE
  5
5AF
100
AcDbEntity
  8
RACCORDO
100
AcDbSpline
 62
253
  6
CONTINUOUS
 70
0
 71
3
 72
10
 73
6
 74
4
 42
0.0000001
 43
0.0000001
 44
0.0000000001
 12
0.4694318883
 22
0.1719625327
 32
0.0
 13
0.446754637
 23
-0.2243829421
 33
0.0
 40
0.0
 40
0.0
 40
0.0
 40
0.0
 40
0.4961303696
 40
0.861563653
 40
1.0
 40
1.0
 40
1.0
 40
1.0
 10
60.463571739
 20
15.6451677151
 30
0.0
 10
60.5412048777
 20
15.6736063267
 30
0.0
 10
60.6767252956
 20
15.7353731442
 30
0.0
 10
60.8311781099
 20
15.7571533526
 30
0.0
 10
60.9123839227
 20
15.8274954468
 30
0.0
 10
60.932999616
 20
15.8171411952
 30
0.0
 11
60.463571739
 21
15.6451677151
 31
0.0
 11
60.6964711552
 21
15.73048355
 31
0.0
 11
60.8680171915
 21
15.793324383
 31
0.0
 11
60.932999616
 21
15.8171411952
 31
0.0
  0
SPLINE
  5
5B0
100
AcDbEntity
  8
RACCORDO
100
AcDbSpline
 62
253
  6
CONTINUOUS
 70
0
 71
3
 72
10
 73
6
 74
4
 42
0.0000001
 43
0.0000001
 44
0.0000000001
 12
-0.3505769643
 22
0.356414644
 32
0.0
 13
0.041336827
 23
0.498223718
 33
0.0
 40
0.0
 40
0.0
 40
0.0
 40
0.0
 40
0.4961355368
 40
0.8615707121
 40
1.0
 40
1.0
 40
1.0
 40
1.0
 10
60.3723666336
 20
16.371908267
 30
0.0
 10
60.3143887369
 20
16.4308515906
 30
0.0
 10
60.2014634239
 20
16.5287759092
 30
0.0
 10
60.1197478818
 20
16.6603099237
 30
0.0
 10
60.0198715655
 20
16.7053228045
 30
0.0
 10
60.0217789747
 20
16.7283123893
 30
0.0
 11
60.3723666336
 21
16.371908267
 31
0.0
 11
60.1984329433
 21
16.5487382377
 31
0.0
 11
60.0703197888
 21
16.6789846857
 31
0.0
 11
60.0217789747
 21
16.7283123893
 31
0.0
  0
LINE
  5
5B1
100
AcDbEntity
  8
RACCORDO
100
AcDbLine
 62
7
  6
CONTINUOUS
 10
58.1042956017
 20
18.6458893201
 11
57.6043146402
 21
18.4387904249
  0
SPLINE
  5
5B2
100
AcDbEntity
  8
RACCORDO
100
AcDbSpline
 62
253
  6
CONTINUOUS
 70
0
 71
3
 72
11
 73
7
 74
5
 42
0.0000001
 43
0.0000001
 44
0.0000000001
 12
-0.4680324439
 22
0.1758655802
 32
0.0
 13
-0.4997417566
 23
-0.0155321439
 33
0.0
 40
0.0
 40
0.0
 40
0.0
 40
0.0
 40
0.3281201295
 40
0.6470966043
 40
0.8964223952
 40
1.0
 40
1.0
 40
1.0
 40
1.0
 10
60.4898113154
 20
16.5525419327
 30
0.0
 10
60.4386210267
 20
16.5717769451
 30
0.0
 10
60.3375243822
 20
16.6086896388
 30
0.0
 10
60.1982561038
 20
16.6654099586
 30
0.0
 10
60.0920547404
 20
16.6949048324
 30
0.0
 10
60.0390341272
 20
16.7289410716
 30
0.0
 10
60.0217801092
 20
16.7284048109
 30
0.0
 11
60.4898113154
 21
16.5525419327
 31
0.0
 11
60.3362407807
 21
16.6102478519
 31
0.0
 11
60.1869507165
 21
16.6663482273
 31
0.0
 11
60.0703952414
 21
16.7105591574
 31
0.0
 11
60.0217801092
 21
16.7284048109
 31
0.0
  0
LINE
  5
5B3
100
AcDbEntity
  8
RACCORDO
100
AcDbLine
 62
7
  6
CONTINUOUS
 10
62.850553488
 20
13.8996314338
 11
62.6434545928
 21
13.3996504723
  0
SPLINE
  5
5B4
100
AcDbEntity
  8
RACCORDO
100
AcDbSpline
 62
253
  6
CONTINUOUS
 70
0
 71
3
 72
12
 73
8
 74
6
 42
0.0000001
 43
0.0000001
 44
0.0000000001
 12
1.1607561412
 22
2.7660659377
 32
0.0
 13
0.0000140986
 23
2.999745921
 33
0.0
 40
0.0
 40
0.0
 40
0.0
 40
0.0
 40
0.0534053412
 40
0.1974229093
 40
0.4182562376
 40
0.6947741956
 40
1.0
 40
1.0
 40
1.0
 40
1.0
 10
-12.3523835468
 20
-65.2466784672
 30
0.0
 10
-12.3317200209
 20
-65.1974375688
 30
0.0
 10
-12.364454912
 20
-64.9908289411
 30
0.0
 10
-12.3264878427
 20
-64.5808279206
 30
0.0
 10
-12.3392038696
 20
-63.9353319667
 30
0.0
 10
-12.3298903007
 20
-63.134447991
 30
0.0
 10
-12.3309485738
 20
-62.5523353357
 30
0.0
 10
-12.3309471394
 20
-62.2471353818
 30
0.0
 11
-12.3523835468
 21
-65.2466784672
 31
0.0
 11
-12.3457235642
 21
-65.086614508
 31
0.0
 11
-12.3397482209
 21
-64.6546397208
 31
0.0
 11
-12.335017908
 21
-63.9922127341
 31
0.0
 11
-12.3319878055
 21
-63.1627346522
 31
0.0
 11
-12.3309471394
 21
-62.2471353818
 31
0.0
  0
SPLINE
  5
5B5
100
AcDbEntity
  8
RACCORDO
100
AcDbSpline
 62
253
  6
CONTINUOUS
 70
0
 71
3
 72
12
 73
8
 74
6
 42
0.0000001
 43
0.0000001
 44
0.0000000001
 12
0.0000142386
 22
-2.9997459704
 32
0.0
 13
1.1608290236
 23
-2.7660354056
 33
0.0
 40
0.0
 40
0.0
 40
0.0
 40
0.0
 40
0.3055027854
 40
0.5820204047
 40
0.8027752829
 40
0.9466810199
 40
1.0
 40
1.0
 40
1.0
 40
1.0
 10
57.6043146402
 20
-62.2471353818
 30
0.0
 10
57.6043160902
 20
-62.5526122982
 30
0.0
 10
57.6032564023
 20
-63.1350022251
 30
0.0
 10
57.6125760196
 20
-63.9360832111
 30
0.0
 10
57.5998636531
 20
-64.5813889273
 30
0.0
 10
57.6378085973
 20
-64.9911169449
 30
0.0
 10
57.605119641
 20
-65.1975177383
 30
0.0
 10
57.6257510476
 20
-65.2466784672
 30
0.0
 11
57.6043146402
 21
-62.2471353818
 31
0.0
 11
57.6053572369
 21
-63.1635655381
 31
0.0
 11
57.6083897245
 21
-63.9930426092
 31
0.0
 11
57.613121542
 21
-64.6552342596
 31
0.0
 11
57.6190965952
 21
-65.0868735609
 31
0.0
 11
57.6257510476
 21
-65.2466784672
 31
0.0
  0
SPLINE
  5
5B6
100
AcDbEntity
  8
RACCORDO
100
AcDbSpline
 62
253
  6
CONTINUOUS
 70
0
 71
3
 72
12
 73
8
 74
6
 42
0.0000001
 43
0.0000001
 44
0.0000000001
 12
2.7660659377
 22
-1.1607561412
 32
0.0
 13
2.999745921
 23
-0.0000140986
 33
0.0
 40
0.0
 40
0.0
 40
0.0
 40
0.0
 40
0.0534053412
 40
0.1974229093
 40
0.4182562376
 40
0.6947741956
 40
1.0
 40
1.0
 40
1.0
 40
1.0
 10
-21.0420142993
 20
13.4210868797
 30
0.0
 10
-20.9927734009
 20
13.4004233537
 30
0.0
 10
-20.7861647732
 20
13.4331582449
 30
0.0
 10
-20.3761637527
 20
13.3951911756
 30
0.0
 10
-19.7306677988
 20
13.4079072025
 30
0.0
 10
-18.9297838231
 20
13.3985936336
 30
0.0
 10
-18.3476711678
 20
13.3996519067
 30
0.0
 10
-18.0424712139
 20
13.3996504723
 30
0.0
 11
-21.0420142993
 21
13.4210868797
 31
0.0
 11
-20.8819503401
 21
13.414426897
 31
0.0
 11
-20.449975553
 21
13.4084515538
 31
0.0
 11
-19.7875485662
 21
13.4037212408
 31
0.0
 11
-18.9580704843
 21
13.4006911383
 31
0.0
 11
-18.0424712139
 21
13.3996504723
 31
0.0
  0
SPLINE
  5
5B7
100
AcDbEntity
  8
RACCORDO
100
AcDbSpline
 62
253
  6
CONTINUOUS
 70
0
 71
3
 72
12
 73
8
 74
6
 42
0.0000001
 43
0.0000001
 44
0.0000000001
 12
-2.9997459704
 22
-0.0000142386
 32
0.0
 13
-2.7660354056
 23
-1.1608290236
 33
0.0
 40
0.0
 40
0.0
 40
0.0
 40
0.0
 40
0.3055027854
 40
0.5820204047
 40
0.8027752829
 40
0.9466810199
 40
1.0
 40
1.0
 40
1.0
 40
1.0
 10
-18.0424712139
 20
-56.5356113073
 30
0.0
 10
-18.3479481303
 20
-56.5356127573
 30
0.0
 10
-18.9303380572
 20
-56.5345530695
 30
0.0
 10
-19.7314190432
 20
-56.5438726868
 30
0.0
 10
-20.3767247594
 20
-56.5311603203
 30
0.0
 10
-20.786452777
 20
-56.5691052644
 30
0.0
 10
-20.9928535704
 20
-56.5364163082
 30
0.0
 10
-21.0420142993
 20
-56.5570477147
 30
0.0
 11
-18.0424712139
 21
-56.5356113073
 31
0.0
 11
-18.9589013702
 21
-56.536653904
 31
0.0
 11
-19.7883784413
 21
-56.5396863917
 31
0.0
 11
-20.4505700917
 21
-56.5444182091
 31
0.0
 11
-20.882209393
 21
-56.5503932623
 31
0.0
 11
-21.0420142993
 21
-56.5570477147
 31
0.0
  0
SPLINE
  5
5B8
100
AcDbEntity
  8
RACCORDO
100
AcDbSpline
 62
253
  6
CONTINUOUS
 70
0
 71
3
 72
12
 73
8
 74
6
 42
0.0000001
 43
0.0000001
 44
0.0000000001
 12
-2.7660659377
 22
1.1607561412
 32
0.0
 13
-2.999745921
 23
0.0000140986
 33
0.0
 40
0.0
 40
0.0
 40
0.0
 40
0.0
 40
0.0534053412
 40
0.1974229093
 40
0.4182562376
 40
0.6947741956
 40
1.0
 40
1.0
 40
1.0
 40
1.0
 10
66.3153818001
 20
-56.5570477147
 30
0.0
 10
66.2661409017
 20
-56.5363841888
 30
0.0
 10
66.059532274
 20
-56.5691190799
 30
0.0
 10
65.6495312535
 20
-56.5311520106
 30
0.0
 10
65.0040352996
 20
-56.5438680375
 30
0.0
 10
64.2031513238
 20
-56.5345544686
 30
0.0
 10
63.6210386686
 20
-56.5356127417
 30
0.0
 10
63.3158387146
 20
-56.5356113073
 30
0.0
 11
66.3153818001
 21
-56.5570477147
 31
0.0
 11
66.1553178408
 21
-56.5503877321
 31
0.0
 11
65.7233430537
 21
-56.5444123888
 31
0.0
 11
65.060916067
 21
-56.5396820759
 31
0.0
 11
64.2314379851
 21
-56.5366519734
 31
0.0
 11
63.3158387146
 21
-56.5356113073
 31
0.0
  0
SPLINE
  5
5B9
100
AcDbEntity
  8
RACCORDO
100
AcDbSpline
 62
253
  6
CONTINUOUS
 70
0
 71
3
 72
12
 73
8
 74
6
 42
0.0000001
 43
0.0000001
 44
0.0000000001
 12
2.9997459704
 22
0.0000142386
 32
0.0
 13
2.7660354056
 23
1.1608290236
 33
0.0
 40
0.0
 40
0.0
 40
0.0
 40
0.0
 40
0.3055027854
 40
0.5820204047
 40
0.8027752829
 40
0.9466810199
 40
1.0
 40
1.0
 40
1.0
 40
1.0
 10
63.3158387146
 20
13.3996504723
 30
0.0
 10
63.6213156311
 20
13.3996519223
 30
0.0
 10
64.2037055579
 20
13.3985922345
 30
0.0
 10
65.004786544
 20
13.4079118517
 30
0.0
 10
65.6500922601
 20
13.3951994852
 30
0.0
 10
66.0598202778
 20
13.4331444294
 30
0.0
 10
66.2662210712
 20
13.4004554731
 30
0.0
 10
66.3153818001
 20
13.4210868797
 30
0.0
 11
63.3158387146
 21
13.3996504723
 31
0.0
 11
64.232268871
 21
13.400693069
 31
0.0
 11
65.0617459421
 21
13.4037255566
 31
0.0
 11
65.7239375924
 21
13.4084573741
 31
0.0
 11
66.1555768937
 21
13.4144324273
 31
0.0
 11
66.3153818001
 21
13.4210868797
 31
0.0
  0
SPLINE
  5
5BA
100
AcDbEntity
  8
RACCORDO
100
AcDbSpline
 62
253
  6
CONTINUOUS
 70
0
 71
3
 72
12
 73
8
 74
6
 42
0.0000001
 43
0.0000001
 44
0.0000000001
 12
-0.0000142386
 22
2.9997459704
 32
0.0
 13
-1.1608290236
 23
2.7660354056
 33
0.0
 40
0.0
 40
0.0
 40
0.0
 40
0.0
 40
0.3055027854
 40
0.5820204047
 40
0.8027752829
 40
0.9466810199
 40
1.0
 40
1.0
 40
1.0
 40
1.0
 10
-12.3309471394
 20
19.1111745467
 30
0.0
 10
-12.3309485894
 20
19.4166514632
 30
0.0
 10
-12.3298889016
 20
19.99904139
 30
0.0
 10
-12.3392085189
 20
20.8001223761
 30
0.0
 10
-12.3264961524
 20
21.4454280922
 30
0.0
 10
-12.3644410965
 20
21.8551561099
 30
0.0
 10
-12.3317521403
 20
22.0615569033
 30
0.0
 10
-12.3523835468
 20
22.1107176322
 30
0.0
 11
-12.3309471394
 21
19.1111745467
 31
0.0
 11
-12.3319897361
 21
20.0276047031
 31
0.0
 11
-12.3350222238
 21
20.8570817742
 31
0.0
 11
-12.3397540412
 21
21.5192734245
 31
0.0
 11
-12.3457290944
 21
21.9509127258
 31
0.0
 11
-12.3523835468
 21
22.1107176322
 31
0.0
  0
SPLINE
  5
5BB
100
AcDbEntity
  8
RACCORDO
100
AcDbSpline
 62
253
  6
CONTINUOUS
 70
0
 71
3
 72
12
 73
8
 74
6
 42
0.0000001
 43
0.0000001
 44
0.0000000001
 12
-1.1607561412
 22
-2.7660659377
 32
0.0
 13
-0.0000140986
 23
-2.999745921
 33
0.0
 40
0.0
 40
0.0
 40
0.0
 40
0.0
 40
0.0534053412
 40
0.1974229093
 40
0.4182562376
 40
0.6947741956
 40
1.0
 40
1.0
 40
1.0
 40
1.0
 10
57.6257510476
 20
22.1107176322
 30
0.0
 10
57.6050875216
 20
22.0614767338
 30
0.0
 10
57.6378224128
 20
21.8548681061
 30
0.0
 10
57.5998553435
 20
21.4448670856
 30
0.0
 10
57.6125713704
 20
20.7993711317
 30
0.0
 10
57.6032578015
 20
19.9984871559
 30
0.0
 10
57.6043160746
 20
19.4163745007
 30
0.0
 10
57.6043146402
 20
19.1111745467
 30
0.0
 11
57.6257510476
 21
22.1107176322
 31
0.0
 11
57.6190910649
 21
21.9506536729
 31
0.0
 11
57.6131157217
 21
21.5186788858
 31
0.0
 11
57.6083854087
 21
20.8562518991
 31
0.0
 11
57.6053553062
 21
20.0267738172
 31
0.0
 11
57.6043146402
 21
19.1111745467
 31
0.0
  0
SPLINE
  5
5BC
100
AcDbEntity
  8
RACCORDO
100
AcDbSpline
 62
253
  6
CONTINUOUS
 70
0
 71
3
 72
12
 73
8
 74
6
 42
0.0000001
 43
0.0000001
 44
0.0000000001
 12
2.2292559692
 22
-1.1312521737
 32
0.0
 13
2.4998627276
 23
-0.0000107652
 33
0.0
 40
0.0
 40
0.0
 40
0.0
 40
0.0
 40
0.0532421321
 40
0.1969353928
 40
0.4183627641
 40
0.6956566982
 40
1.0
 40
1.0
 40
1.0
 40
1.0
 10
-20.5420904517
 20
13.9210678412
 30
0.0
 10
-20.5025270048
 20
13.900991082
 30
0.0
 10
-20.3278087315
 20
13.932422321
 30
0.0
 10
-19.9886985231
 20
13.895530791
 30
0.0
 10
-19.4485282575
 20
13.9077501525
 30
0.0
 10
-18.7812310144
 20
13.8986293816
 30
0.0
 10
-18.296076706
 20
13.8996325259
 30
0.0
 10
-18.0424712139
 20
13.8996314338
 30
0.0
 11
-20.5420904517
 21
13.9210678412
 31
0.0
 11
-20.409158577
 21
13.9144195327
 31
0.0
 11
-20.0499947929
 21
13.908447751
 31
0.0
 11
-19.4964771138
 21
13.903700962
 31
0.0
 11
-18.8032869869
 21
13.9006660418
 31
0.0
 11
-18.0424712139
 21
13.8996314338
 31
0.0
  0
SPLINE
  5
5BD
100
AcDbEntity
  8
RACCORDO
100
AcDbSpline
 62
7
  6
CONTINUOUS
 70
0
 71
3
 72
10
 73
6
 74
4
 42
0.0000001
 43
0.0000001
 44
0.0000000001
 12
0.4611518061
 22
0.0
 32
0.0
 13
0.4507317689
 23
0.0974774882
 33
0.0
 40
0.0
 40
0.0
 40
0.0
 40
0.0
 40
0.3131648206
 40
0.642577042
 40
1.0
 40
1.0
 40
1.0
 40
1.0
 10
-16.1179134679
 20
15.7724032384
 30
0.0
 10
-16.0697746271
 20
15.7724032384
 30
0.0
 10
-15.9709717892
 20
15.7749199329
 30
0.0
 10
-15.8177305537
 20
15.7882198576
 30
0.0
 10
-15.7134021067
 20
15.8055023777
 30
0.0
 10
-15.6597014793
 20
15.8171159418
 30
0.0
 11
-16.1179134679
 21
15.7724032384
 31
0.0
 11
-15.9735492155
 21
15.7762884179
 31
0.0
 11
-15.8222352719
 21
15.7897214803
 31
0.0
 11
-15.6597014793
 21
15.8171159418
 31
0.0
  0
SPLINE
  5
5BE
100
AcDbEntity
  8
RACCORDO
100
AcDbSpline
 62
7
  6
CONTINUOUS
 70
0
 71
3
 72
10
 73
6
 74
4
 42
0.0000001
 43
0.0000001
 44
0.0000000001
 12
0.0
 22
-0.4611518061
 32
0.0
 13
-0.0974774882
 23
-0.4507317689
 33
0.0
 40
0.0
 40
0.0
 40
0.0
 40
0.0
 40
0.3131648206
 40
0.642577042
 40
1.0
 40
1.0
 40
1.0
 40
1.0
 10
-14.7036999056
 20
17.1866168008
 30
0.0
 10
-14.7036999056
 20
17.1384779599
 30
0.0
 10
-14.7062166
 20
17.0396751221
 30
0.0
 10
-14.7195165247
 20
16.8864338865
 30
0.0
 10
-14.7367990448
 20
16.7821054396
 30
0.0
 10
-14.7484126089
 20
16.7284048122
 30
0.0
 11
-14.7036999056
 21
17.1866168008
 31
0.0
 11
-14.707585085
 21
17.0422525484
 31
0.0
 11
-14.7210181474
 21
16.8909386048
 31
0.0
 11
-14.7484126089
 21
16.7284048122
 31
0.0
  0
SPLINE
  5
5BF
100
AcDbEntity
  8
RACCORDO
100
AcDbSpline
 62
253
  6
CONTINUOUS
 70
0
 71
3
 72
12
 73
8
 74
6
 42
0.0000001
 43
0.0000001
 44
0.0000000001
 12
-0.0000108755
 22
2.4998627841
 32
0.0
 13
-1.1313872299
 23
2.2291874923
 33
0.0
 40
0.0
 40
0.0
 40
0.0
 40
0.0
 40
0.3046167961
 40
0.5819193341
 40
0.8032622757
 40
0.9468409393
 40
1.0
 40
1.0
 40
1.0
 40
1.0
 10
-12.830928101
 20
19.1111745467
 30
0.0
 10
-12.8309292052
 20
19.3650079441
 30
0.0
 10
-12.8299246127
 20
19.8503981338
 30
0.0
 10
-12.8390518677
 20
20.5178584832
 30
0.0
 10
-12.8268353612
 20
21.0578709735
 30
0.0
 10
-12.8637068537
 20
21.3967493934
 30
0.0
 10
-12.8323166809
 20
21.5712932802
 30
0.0
 10
-12.8523645083
 20
21.6107937846
 30
0.0
 11
-12.830928101
 21
19.1111745467
 31
0.0
 11
-12.8319646102
 21
19.8726740333
 31
0.0
 11
-12.8350020282
 21
20.5658856735
 31
0.0
 11
-12.8397502378
 21
21.1191922829
 31
0.0
 11
-12.8457215487
 21
21.4780695661
 31
0.0
 11
-12.8523645083
 21
21.6107937846
 31
0.0
  0
SPLINE
  5
5C0
100
AcDbEntity
  8
RACCORDO
100
AcDbSpline
 62
253
  6
CONTINUOUS
 70
0
 71
3
 72
12
 73
8
 74
6
 42
0.0000001
 43
0.0000001
 44
0.0000000001
 12
0.0000108755
 22
-2.4998627841
 32
0.0
 13
1.1313872299
 23
-2.2291874923
 33
0.0
 40
0.0
 40
0.0
 40
0.0
 40
0.0
 40
0.3046167961
 40
0.5819193341
 40
0.8032622757
 40
0.9468409393
 40
1.0
 40
1.0
 40
1.0
 40
1.0
 10
58.1042956017
 20
-62.2471353818
 30
0.0
 10
58.104296706
 20
-62.5009687791
 30
0.0
 10
58.1032921135
 20
-62.9863589689
 30
0.0
 10
58.1124193685
 20
-63.6538193183
 30
0.0
 10
58.1002028619
 20
-64.1938318085
 30
0.0
 10
58.1370743545
 20
-64.5327102285
 30
0.0
 10
58.1056841816
 20
-64.7072541152
 30
0.0
 10
58.1257320091
 20
-64.7467546196
 30
0.0
 11
58.1042956017
 21
-62.2471353818
 31
0.0
 11
58.1053321109
 21
-63.0086348683
 31
0.0
 11
58.108369529
 21
-63.7018465086
 31
0.0
 11
58.1131177386
 21
-64.2551531179
 31
0.0
 11
58.1190890494
 21
-64.6140304011
 31
0.0
 11
58.1257320091
 21
-64.7467546196
 31
0.0
  0
SPLINE
  5
5C1
100
AcDbEntity
  8
RACCORDO
100
AcDbSpline
 62
7
  6
CONTINUOUS
 70
0
 71
3
 72
10
 73
6
 74
4
 42
0.0000001
 43
0.0000001
 44
0.0000000001
 12
-0.4611518061
 22
0.0
 32
0.0
 13
-0.4507317689
 23
-0.0974774882
 33
0.0
 40
0.0
 40
0.0
 40
0.0
 40
0.0
 40
0.3131648206
 40
0.642577042
 40
1.0
 40
1.0
 40
1.0
 40
1.0
 10
61.3912809687
 20
-58.9083640735
 30
0.0
 10
61.3431421278
 20
-58.9083640735
 30
0.0
 10
61.24433929
 20
-58.9108807679
 30
0.0
 10
61.0910980544
 20
-58.9241806926
 30
0.0
 10
60.9867696075
 20
-58.9414632127
 30
0.0
 10
60.9330689801
 20
-58.9530767768
 30
0.0
 11
61.3912809687
 21
-58.9083640735
 31
0.0
 11
61.2469167163
 21
-58.9122492529
 31
0.0
 11
61.0956027727
 21
-58.9256823153
 31
0.0
 11
60.9330689801
 21
-58.9530767768
 31
0.0
  0
SPLINE
  5
5C2
100
AcDbEntity
  8
RACCORDO
100
AcDbSpline
 62
253
  6
CONTINUOUS
 70
0
 71
3
 72
12
 73
8
 74
6
 42
0.0000001
 43
0.0000001
 44
0.0000000001
 12
-2.2292559692
 22
1.1312521737
 32
0.0
 13
-2.4998627276
 23
0.0000107652
 33
0.0
 40
0.0
 40
0.0
 40
0.0
 40
0.0
 40
0.0532421321
 40
0.1969353928
 40
0.4183627641
 40
0.6956566982
 40
1.0
 40
1.0
 40
1.0
 40
1.0
 10
65.8154579525
 20
-57.0570286762
 30
0.0
 10
65.7758945056
 20
-57.036951917
 30
0.0
 10
65.6011762323
 20
-57.0683831561
 30
0.0
 10
65.2620660239
 20
-57.0314916261
 30
0.0
 10
64.7218957582
 20
-57.0437109876
 30
0.0
 10
64.0545985152
 20
-57.0345902166
 30
0.0
 10
63.5694442068
 20
-57.035593361
 30
0.0
 10
63.3158387146
 20
-57.0355922689
 30
0.0
 11
65.8154579525
 21
-57.0570286762
 31
0.0
 11
65.6825260777
 21
-57.0503803677
 31
0.0
 11
65.3233622937
 21
-57.044408586
 31
0.0
 11
64.7698446146
 21
-57.039661797
 31
0.0
 11
64.0766544876
 21
-57.0366268768
 31
0.0
 11
63.3158387146
 21
-57.0355922689
 31
0.0
  0
SPLINE
  5
5C3
100
AcDbEntity
  8
RACCORDO
100
AcDbSpline
 62
7
  6
CONTINUOUS
 70
0
 71
3
 72
10
 73
6
 74
4
 42
0.0000001
 43
0.0000001
 44
0.0000000001
 12
0.0
 22
0.4611518061
 32
0.0
 13
0.0974774882
 23
0.4507317689
 33
0.0
 40
0.0
 40
0.0
 40
0.0
 40
0.0
 40
0.3131648206
 40
0.642577042
 40
1.0
 40
1.0
 40
1.0
 40
1.0
 10
59.9770674063
 20
-60.3225776358
 30
0.0
 10
59.9770674063
 20
-60.274438795
 30
0.0
 10
59.9795841008
 20
-60.1756359571
 30
0.0
 10
59.9928840255
 20
-60.0223947215
 30
0.0
 10
60.0101665456
 20
-59.9180662746
 30
0.0
 10
60.0217801097
 20
-59.8643656472
 30
0.0
 11
59.9770674063
 21
-60.3225776358
 31
0.0
 11
59.9809525858
 21
-60.1782133834
 31
0.0
 11
59.9943856482
 21
-60.0268994398
 31
0.0
 11
60.0217801097
 21
-59.8643656472
 31
0.0
  0
SPLINE
  5
5C4
100
AcDbEntity
  8
RACCORDO
100
AcDbSpline
 62
253
  6
CONTINUOUS
 70
0
 71
3
 72
12
 73
8
 74
6
 42
0.0000001
 43
0.0000001
 44
0.0000000001
 12
-2.4998627841
 22
-0.0000108755
 32
0.0
 13
-2.2291874923
 23
-1.1313872299
 33
0.0
 40
0.0
 40
0.0
 40
0.0
 40
0.0
 40
0.3046167961
 40
0.5819193341
 40
0.8032622757
 40
0.9468409393
 40
1.0
 40
1.0
 40
1.0
 40
1.0
 10
-18.0424712139
 20
-57.0355922689
 30
0.0
 10
-18.2963046112
 20
-57.0355933731
 30
0.0
 10
-18.781694801
 20
-57.0345887806
 30
0.0
 10
-19.4491551504
 20
-57.0437160356
 30
0.0
 10
-19.9891676406
 20
-57.031499529
 30
0.0
 10
-20.3280460606
 20
-57.0683710216
 30
0.0
 10
-20.5025899474
 20
-57.0369808488
 30
0.0
 10
-20.5420904517
 20
-57.0570286762
 30
0.0
 11
-18.0424712139
 21
-57.0355922689
 31
0.0
 11
-18.8039707004
 21
-57.0366287781
 31
0.0
 11
-19.4971823407
 21
-57.0396661961
 31
0.0
 11
-20.05048895
 21
-57.0444144057
 31
0.0
 11
-20.4093662332
 21
-57.0503857166
 31
0.0
 11
-20.5420904517
 21
-57.0570286762
 31
0.0
  0
SPLINE
  5
5C5
100
AcDbEntity
  8
RACCORDO
100
AcDbSpline
 62
7
  6
CONTINUOUS
 70
0
 71
3
 72
10
 73
6
 74
4
 42
0.0000001
 43
0.0000001
 44
0.0000000001
 12
0.4611518061
 22
0.0
 32
0.0
 13
0.4507317689
 23
-0.0974774882
 33
0.0
 40
0.0
 40
0.0
 40
0.0
 40
0.0
 40
0.3131648206
 40
0.642577042
 40
1.0
 40
1.0
 40
1.0
 40
1.0
 10
-16.1179134679
 20
-58.9083640735
 30
0.0
 10
-16.0697746271
 20
-58.9083640735
 30
0.0
 10
-15.9709717892
 20
-58.9108807679
 30
0.0
 10
-15.8177305537
 20
-58.9241806926
 30
0.0
 10
-15.7134021067
 20
-58.9414632127
 30
0.0
 10
-15.6597014793
 20
-58.9530767768
 30
0.0
 11
-16.1179134679
 21
-58.9083640735
 31
0.0
 11
-15.9735492155
 21
-58.9122492529
 31
0.0
 11
-15.8222352719
 21
-58.9256823153
 31
0.0
 11
-15.6597014793
 21
-58.9530767768
 31
0.0
  0
SPLINE
  5
5C6
100
AcDbEntity
  8
RACCORDO
100
AcDbSpline
 62
7
  6
CONTINUOUS
 70
0
 71
3
 72
10
 73
6
 74
4
 42
0.0000001
 43
0.0000001
 44
0.0000000001
 12
0.0
 22
0.4611518061
 32
0.0
 13
-0.0974774882
 23
0.4507317689
 33
0.0
 40
0.0
 40
0.0
 40
0.0
 40
0.0
 40
0.3131648206
 40
0.642577042
 40
1.0
 40
1.0
 40
1.0
 40
1.0
 10
-14.7036999056
 20
-60.3225776358
 30
0.0
 10
-14.7036999056
 20
-60.274438795
 30
0.0
 10
-14.7062166
 20
-60.1756359571
 30
0.0
 10
-14.7195165247
 20
-60.0223947215
 30
0.0
 10
-14.7367990448
 20
-59.9180662746
 30
0.0
 10
-14.7484126089
 20
-59.8643656472
 30
0.0
 11
-14.7036999056
 21
-60.3225776358
 31
0.0
 11
-14.707585085
 21
-60.1782133834
 31
0.0
 11
-14.7210181474
 21
-60.0268994398
 31
0.0
 11
-14.7484126089
 21
-59.8643656472
 31
0.0
  0
SPLINE
  5
5C7
100
AcDbEntity
  8
RACCORDO
100
AcDbSpline
 62
253
  6
CONTINUOUS
 70
0
 71
3
 72
12
 73
8
 74
6
 42
0.0000001
 43
0.0000001
 44
0.0000000001
 12
1.1312521737
 22
2.2292559692
 32
0.0
 13
0.0000107652
 23
2.4998627276
 33
0.0
 40
0.0
 40
0.0
 40
0.0
 40
0.0
 40
0.0532421321
 40
0.1969353928
 40
0.4183627641
 40
0.6956566982
 40
1.0
 40
1.0
 40
1.0
 40
1.0
 10
-12.8523645083
 20
-64.7467546196
 30
0.0
 10
-12.8322877491
 20
-64.7071911727
 30
0.0
 10
-12.8637189882
 20
-64.5324728994
 30
0.0
 10
-12.8268274582
 20
-64.193362691
 30
0.0
 10
-12.8390468197
 20
-63.6531924254
 30
0.0
 10
-12.8299260487
 20
-62.9858951823
 30
0.0
 10
-12.8309291931
 20
-62.5007408739
 30
0.0
 10
-12.830928101
 20
-62.2471353818
 30
0.0
 11
-12.8523645083
 21
-64.7467546196
 31
0.0
 11
-12.8457161998
 21
-64.6138227449
 31
0.0
 11
-12.8397444181
 21
-64.2546589608
 31
0.0
 11
-12.8349976291
 21
-63.7011412817
 31
0.0
 11
-12.8319627089
 21
-63.0079511548
 31
0.0
 11
-12.830928101
 21
-62.2471353818
 31
0.0
  0
SPLINE
  5
5C8
100
AcDbEntity
  8
RACCORDO
100
AcDbSpline
 62
253
  6
CONTINUOUS
 70
0
 71
3
 72
12
 73
8
 74
6
 42
0.0000001
 43
0.0000001
 44
0.0000000001
 12
2.4998627841
 22
0.0000108755
 32
0.0
 13
2.2291874923
 23
1.1313872299
 33
0.0
 40
0.0
 40
0.0
 40
0.0
 40
0.0
 40
0.3046167961
 40
0.5819193341
 40
0.8032622757
 40
0.9468409393
 40
1.0
 40
1.0
 40
1.0
 40
1.0
 10
63.3158387146
 20
13.8996314338
 30
0.0
 10
63.569672112
 20
13.8996325381
 30
0.0
 10
64.0550623017
 20
13.8986279456
 30
0.0
 10
64.7225226511
 20
13.9077552006
 30
0.0
 10
65.2625351414
 20
13.895538694
 30
0.0
 10
65.6014135613
 20
13.9324101866
 30
0.0
 10
65.7759574481
 20
13.9010200137
 30
0.0
 10
65.8154579525
 20
13.9210678412
 30
0.0
 11
63.3158387146
 21
13.8996314338
 31
0.0
 11
64.0773382012
 21
13.900667943
 31
0.0
 11
64.7705498414
 21
13.9037053611
 31
0.0
 11
65.3238564508
 21
13.9084535707
 31
0.0
 11
65.682733734
 21
13.9144248815
 31
0.0
 11
65.8154579525
 21
13.9210678412
 31
0.0
  0
SPLINE
  5
5C9
100
AcDbEntity
  8
RACCORDO
100
AcDbSpline
 62
7
  6
CONTINUOUS
 70
0
 71
3
 72
10
 73
6
 74
4
 42
0.0000001
 43
0.0000001
 44
0.0000000001
 12
-0.4611518061
 22
0.0
 32
0.0
 13
-0.4507317689
 23
0.0974774882
 33
0.0
 40
0.0
 40
0.0
 40
0.0
 40
0.0
 40
0.3131648206
 40
0.642577042
 40
1.0
 40
1.0
 40
1.0
 40
1.0
 10
61.3912809687
 20
15.7724032384
 30
0.0
 10
61.3431421278
 20
15.7724032384
 30
0.0
 10
61.24433929
 20
15.7749199329
 30
0.0
 10
61.0910980544
 20
15.7882198576
 30
0.0
 10
60.9867696075
 20
15.8055023777
 30
0.0
 10
60.9330689801
 20
15.8171159418
 30
0.0
 11
61.3912809687
 21
15.7724032384
 31
0.0
 11
61.2469167163
 21
15.7762884179
 31
0.0
 11
61.0956027727
 21
15.7897214803
 31
0.0
 11
60.9330689801
 21
15.8171159418
 31
0.0
  0
SPLINE
  5
5CA
100
AcDbEntity
  8
RACCORDO
100
AcDbSpline
 62
7
  6
CONTINUOUS
 70
0
 71
3
 72
10
 73
6
 74
4
 42
0.0000001
 43
0.0000001
 44
0.0000000001
 12
0.0
 22
-0.4611518061
 32
0.0
 13
0.0974774882
 23
-0.4507317689
 33
0.0
 40
0.0
 40
0.0
 40
0.0
 40
0.0
 40
0.3131648206
 40
0.642577042
 40
1.0
 40
1.0
 40
1.0
 40
1.0
 10
59.9770674063
 20
17.1866168008
 30
0.0
 10
59.9770674063
 20
17.1384779599
 30
0.0
 10
59.9795841008
 20
17.0396751221
 30
0.0
 10
59.9928840255
 20
16.8864338865
 30
0.0
 10
60.0101665456
 20
16.7821054396
 30
0.0
 10
60.0217801097
 20
16.7284048122
 30
0.0
 11
59.9770674063
 21
17.1866168008
 31
0.0
 11
59.9809525858
 21
17.0422525484
 31
0.0
 11
59.9943856482
 21
16.8909386048
 31
0.0
 11
60.0217801097
 21
16.7284048122
 31
0.0
  0
SPLINE
  5
5CB
100
AcDbEntity
  8
RACCORDO
100
AcDbSpline
 62
253
  6
CONTINUOUS
 70
0
 71
3
 72
12
 73
8
 74
6
 42
0.0000001
 43
0.0000001
 44
0.0000000001
 12
-1.1312521737
 22
-2.2292559692
 32
0.0
 13
-0.0000107652
 23
-2.4998627276
 33
0.0
 40
0.0
 40
0.0
 40
0.0
 40
0.0
 40
0.0532421321
 40
0.1969353928
 40
0.4183627641
 40
0.6956566982
 40
1.0
 40
1.0
 40
1.0
 40
1.0
 10
58.1257320091
 20
21.6107937846
 30
0.0
 10
58.1056552499
 20
21.5712303377
 30
0.0
 10
58.1370864889
 20
21.3965120644
 30
0.0
 10
58.1001949589
 20
21.057401856
 30
0.0
 10
58.1124143204
 20
20.5172315903
 30
0.0
 10
58.1032935495
 20
19.8499343473
 30
0.0
 10
58.1042966938
 20
19.3647800389
 30
0.0
 10
58.1042956017
 20
19.1111745467
 30
0.0
 11
58.1257320091
 21
21.6107937846
 31
0.0
 11
58.1190837006
 21
21.4778619098
 31
0.0
 11
58.1131119189
 21
21.1186981258
 31
0.0
 11
58.1083651299
 21
20.5651804467
 31
0.0
 11
58.1053302097
 21
19.8719903198
 31
0.0
 11
58.1042956017
 21
19.1111745467
 31
0.0
  0
ELLIPSE
  5
5CC
100
AcDbEntity
  8
RACCORDO
100
AcDbEllipse
 62
7
  6
CONTINUOUS
 10
-18.0424712139
 20
-53.2522720555
 30
0.0
 11
3.0
 21
-0.0
 31
0.0
 40
0.0087268678
 41
-3.1241393611
 42
-2.4980915448
  0
ELLIPSE
  5
5CD
100
AcDbEntity
  8
RACCORDO
100
AcDbEllipse
 62
7
  6
CONTINUOUS
 10
63.3158387146
 20
-53.2522720555
 30
0.0
 11
3.0
 21
0.0
 31
0.0
 40
0.0087268678
 41
-0.6435011088
 42
-0.0174532925
  0
ELLIPSE
  5
5CE
100
AcDbEntity
  8
RACCORDO
100
AcDbEllipse
 62
7
  6
CONTINUOUS
 10
-18.0424712139
 20
-22.3836887795
 30
0.0
 11
3.0
 21
0.0
 31
0.0
 40
0.0087268678
 41
2.4980915448
 42
3.1241393611
  0
ELLIPSE
  5
5CF
100
AcDbEntity
  8
RACCORDO
100
AcDbEllipse
 62
7
  6
CONTINUOUS
 10
63.3158387146
 20
-22.3836887795
 30
0.0
 11
3.0
 21
0.0
 31
0.0
 40
0.0087268678
 41
0.0174532925
 42
0.6435011088
  0
ELLIPSE
  5
5D0
100
AcDbEntity
  8
RACCORDO
100
AcDbEllipse
 62
7
  6
CONTINUOUS
 10
-9.0476078876
 20
19.1111745467
 30
0.0
 11
-0.0
 21
3.0
 31
0.0
 40
0.0087268678
 41
0.0174532925
 42
0.6435011088
  0
ELLIPSE
  5
5D1
100
AcDbEntity
  8
RACCORDO
100
AcDbEllipse
 62
7
  6
CONTINUOUS
 10
-9.0476078876
 20
-62.2471353818
 30
0.0
 11
-0.0
 21
3.0
 31
0.0
 40
0.0087268678
 41
-3.7850937624
 42
-3.1590459461
  0
ELLIPSE
  5
5D2
100
AcDbEntity
  8
RACCORDO
100
AcDbEllipse
 62
7
  6
CONTINUOUS
 10
21.8209753884
 20
19.1111745467
 30
0.0
 11
-0.0
 21
3.0
 31
0.0
 40
0.0087268678
 41
-0.6435011088
 42
-0.0174532925
  0
ELLIPSE
  5
5D3
100
AcDbEntity
  8
RACCORDO
100
AcDbEllipse
 62
7
  6
CONTINUOUS
 10
21.8209753884
 20
-62.2471353818
 30
0.0
 11
-0.0
 21
3.0
 31
0.0
 40
0.0087268678
 41
-3.1241393611
 42
-2.4980915448
  0
ELLIPSE
  5
5D4
100
AcDbEntity
  8
RACCORDO
100
AcDbEllipse
 62
7
  6
CONTINUOUS
 10
-21.5299245095
 20
-19.0087353265
 30
0.0
 11
0.0
 21
1.5
 31
0.0
 40
0.0174550649
 41
-4.7123889804
 42
-3.1503192998
  0
ELLIPSE
  5
5D5
100
AcDbEntity
  8
RACCORDO
100
AcDbEllipse
 62
7
  6
CONTINUOUS
 10
-21.5299245095
 20
8.3727744915
 30
0.0
 11
0.0
 21
1.5
 31
0.0
 40
0.0174550649
 41
0.0087266463
 42
1.5707963268
  0
ELLIPSE
  5
5D6
100
AcDbEntity
  8
RACCORDO
100
AcDbEllipse
 62
7
  6
CONTINUOUS
 10
-21.5299245095
 20
-51.5087353265
 30
0.0
 11
0.0
 21
1.5
 31
0.0
 40
0.0174550649
 41
-4.7123889804
 42
-3.1503192998
  0
ELLIPSE
  5
5D7
100
AcDbEntity
  8
RACCORDO
100
AcDbEllipse
 62
7
  6
CONTINUOUS
 10
-21.5299245095
 20
-24.1272255085
 30
0.0
 11
-0.0
 21
1.5
 31
0.0
 40
0.0174550649
 41
0.0087266463
 42
1.5707963268
  0
ELLIPSE
  5
5D8
100
AcDbEntity
  8
RACCORDO
100
AcDbEllipse
 62
7
  6
CONTINUOUS
 10
-7.3040711587
 20
22.5986278424
 30
0.0
 11
1.5
 21
-0.0
 31
0.0
 40
0.0174550649
 41
1.5707963268
 42
3.1328660073
  0
ELLIPSE
  5
5D9
100
AcDbEntity
  8
RACCORDO
100
AcDbEllipse
 62
7
  6
CONTINUOUS
 10
20.0774386594
 20
22.5986278424
 30
0.0
 11
1.5
 21
0.0
 31
0.0
 40
0.0174550649
 41
0.0087266463
 42
1.5707963268
  0
ELLIPSE
  5
5DA
100
AcDbEntity
  8
RACCORDO
100
AcDbEllipse
 62
7
  6
CONTINUOUS
 10
25.1959288413
 20
22.5986278424
 30
0.0
 11
1.5
 21
0.0
 31
0.0
 40
0.0174550649
 41
1.5707963268
 42
3.1328660073
  0
ELLIPSE
  5
5DB
100
AcDbEntity
  8
RACCORDO
100
AcDbEllipse
 62
7
  6
CONTINUOUS
 10
52.5774386594
 20
22.5986278424
 30
0.0
 11
1.5
 21
0.0
 31
0.0
 40
0.0174550649
 41
0.0087266463
 42
1.5707963268
  0
ELLIPSE
  5
5DC
100
AcDbEntity
  8
RACCORDO
100
AcDbEllipse
 62
7
  6
CONTINUOUS
 10
52.5774386594
 20
-65.7345886774
 30
0.0
 11
1.5
 21
-0.0
 31
0.0
 40
0.0174550649
 41
-1.5707963268
 42
-0.0087266463
  0
ELLIPSE
  5
5DD
100
AcDbEntity
  8
RACCORDO
100
AcDbEllipse
 62
7
  6
CONTINUOUS
 10
25.1959288413
 20
-65.7345886774
 30
0.0
 11
1.5
 21
0.0
 31
0.0
 40
0.0174550649
 41
-3.1328660073
 42
-1.5707963268
  0
ELLIPSE
  5
5DE
100
AcDbEntity
  8
RACCORDO
100
AcDbEllipse
 62
7
  6
CONTINUOUS
 10
20.0774386594
 20
-65.7345886774
 30
0.0
 11
1.5
 21
-0.0
 31
0.0
 40
0.0174550649
 41
-1.5707963268
 42
-0.0087266463
  0
ELLIPSE
  5
5DF
100
AcDbEntity
  8
RACCORDO
100
AcDbEllipse
 62
7
  6
CONTINUOUS
 10
-7.3040711587
 20
-65.7345886774
 30
0.0
 11
1.5
 21
0.0
 31
0.0
 40
0.0174550649
 41
-3.1328660073
 42
-1.5707963268
  0
ELLIPSE
  5
5E0
100
AcDbEntity
  8
RACCORDO
100
AcDbEllipse
 62
7
  6
CONTINUOUS
 10
66.8032920103
 20
8.3727744915
 30
0.0
 11
0.0
 21
1.5
 31
0.0
 40
0.0174550649
 41
-1.5707963268
 42
-0.0087266463
  0
ELLIPSE
  5
5E1
100
AcDbEntity
  8
RACCORDO
100
AcDbEllipse
 62
7
  6
CONTINUOUS
 10
66.8032920103
 20
-19.0087353265
 30
0.0
 11
0.0
 21
1.5
 31
0.0
 40
0.0174550649
 41
-3.1328660073
 42
-1.5707963268
  0
ELLIPSE
  5
5E2
100
AcDbEntity
  8
RACCORDO
100
AcDbEllipse
 62
7
  6
CONTINUOUS
 10
66.8032920103
 20
-24.1272255085
 30
0.0
 11
-0.0
 21
1.5
 31
0.0
 40
0.0174550649
 41
-1.5707963268
 42
-0.0087266463
  0
ELLIPSE
  5
5E3
100
AcDbEntity
  8
RACCORDO
100
AcDbEllipse
 62
7
  6
CONTINUOUS
 10
66.8032920103
 20
-51.5087353265
 30
0.0
 11
-0.0
 21
1.5
 31
0.0
 40
0.0174550649
 41
-3.1328660073
 42
-1.5707963268
  0
ELLIPSE
  5
5E4
100
AcDbEntity
  8
RACCORDO
100
AcDbEllipse
 62
7
  6
CONTINUOUS
 10
-18.0424712139
 20
-20.7522720555
 30
0.0
 11
3.0
 21
0.0
 31
0.0
 40
0.0087268678
 41
-3.1241393611
 42
-2.4980915448
  0
ELLIPSE
  5
5E5
100
AcDbEntity
  8
RACCORDO
100
AcDbEllipse
 62
7
  6
CONTINUOUS
 10
63.3158387146
 20
-20.7522720555
 30
0.0
 11
3.0
 21
0.0
 31
0.0
 40
0.0087268678
 41
-0.6435011088
 42
-0.0174532925
  0
ELLIPSE
  5
5E6
100
AcDbEntity
  8
RACCORDO
100
AcDbEllipse
 62
7
  6
CONTINUOUS
 10
-18.0424712139
 20
10.1163112205
 30
0.0
 11
3.0
 21
-0.0
 31
0.0
 40
0.0087268678
 41
2.4980915448
 42
3.1241393611
  0
ELLIPSE
  5
5E7
100
AcDbEntity
  8
RACCORDO
100
AcDbEllipse
 62
7
  6
CONTINUOUS
 10
63.3158387146
 20
10.1163112205
 30
0.0
 11
3.0
 21
-0.0
 31
0.0
 40
0.0087268678
 41
0.0174532925
 42
0.6435011088
  0
ELLIPSE
  5
5E8
100
AcDbEntity
  8
RACCORDO
100
AcDbEllipse
 62
7
  6
CONTINUOUS
 10
23.4523921124
 20
19.1111745467
 30
0.0
 11
-0.0
 21
3.0
 31
0.0
 40
0.0087268678
 41
0.0174532925
 42
0.6435011088
  0
ELLIPSE
  5
5E9
100
AcDbEntity
  8
RACCORDO
100
AcDbEllipse
 62
7
  6
CONTINUOUS
 10
23.4523921124
 20
-62.2471353818
 30
0.0
 11
-0.0
 21
3.0
 31
0.0
 40
0.0087268678
 41
-3.7850937624
 42
-3.1590459461
  0
ELLIPSE
  5
5EA
100
AcDbEntity
  8
RACCORDO
100
AcDbEllipse
 62
7
  6
CONTINUOUS
 10
54.3209753884
 20
19.1111745467
 30
0.0
 11
-0.0
 21
3.0
 31
0.0
 40
0.0087268678
 41
-0.6435011088
 42
-0.0174532925
  0
ELLIPSE
  5
5EB
100
AcDbEntity
  8
RACCORDO
100
AcDbEllipse
 62
7
  6
CONTINUOUS
 10
54.3209753884
 20
-62.2471353818
 30
0.0
 11
0.0
 21
3.0
 31
0.0
 40
0.0087268678
 41
-3.1241393611
 42
-2.4980915448
  0
ELLIPSE
  5
5EC
100
AcDbEntity
  8
RACCORDO
100
AcDbEllipse
 62
7
  6
CONTINUOUS
 10
55.9681028673
 20
-62.2471353818
 30
0.0
 11
0.0
 21
3.0
 31
0.0
 40
0.0174550649
 41
-3.7850937624
 42
-3.1590459461
  0
ELLIPSE
  5
5ED
100
AcDbEntity
  8
RACCORDO
100
AcDbEllipse
 62
7
  6
CONTINUOUS
 10
63.3158387146
 20
-54.8993995344
 30
0.0
 11
3.0
 21
-0.0
 31
0.0
 40
0.0174550649
 41
0.0174532925
 42
0.6435011088
  0
ELLIPSE
  5
5EE
100
AcDbEntity
  8
RACCORDO
100
AcDbEllipse
 62
7
  6
CONTINUOUS
 10
63.3158387146
 20
11.7634386994
 30
0.0
 11
3.0
 21
0.0
 31
0.0
 40
0.0174550649
 41
-0.6435011088
 42
-0.0174532925
  0
ELLIPSE
  5
5EF
100
AcDbEntity
  8
RACCORDO
100
AcDbEllipse
 62
7
  6
CONTINUOUS
 10
55.9681028673
 20
19.1111745467
 30
0.0
 11
0.0
 21
3.0
 31
0.0
 40
0.0174550649
 41
0.0174532925
 42
0.6435011088
  0
ELLIPSE
  5
5F0
100
AcDbEntity
  8
RACCORDO
100
AcDbEllipse
 62
7
  6
CONTINUOUS
 10
-18.0424712139
 20
-54.8993995344
 30
0.0
 11
3.0
 21
0.0
 31
0.0
 40
0.0174550649
 41
2.4980915448
 42
3.1241393611
  0
ELLIPSE
  5
5F1
100
AcDbEntity
  8
RACCORDO
100
AcDbEllipse
 62
7
  6
CONTINUOUS
 10
-10.6947353665
 20
-62.2471353818
 30
0.0
 11
-0.0
 21
3.0
 31
0.0
 40
0.0174550649
 41
-3.1241393611
 42
-2.4980915448
  0
ELLIPSE
  5
5F2
100
AcDbEntity
  8
RACCORDO
100
AcDbEllipse
 62
7
  6
CONTINUOUS
 10
-10.6947353665
 20
19.1111745467
 30
0.0
 11
-0.0
 21
3.0
 31
0.0
 40
0.0174550649
 41
-0.6435011088
 42
-0.0174532925
  0
ELLIPSE
  5
5F3
100
AcDbEntity
  8
RACCORDO
100
AcDbEllipse
 62
7
  6
CONTINUOUS
 10
-18.0424712139
 20
11.7634386994
 30
0.0
 11
3.0
 21
-0.0
 31
0.0
 40
0.0174550649
 41
-3.1241393611
 42
-2.4980915448
  0
ELLIPSE
  5
5F4
100
AcDbEntity
  8
RACCORDO
100
AcDbEllipse
 62
7
  6
CONTINUOUS
 10
-12.3527643089
 20
21.6115553668
 30
0.0
 11
-0.2236357461
 21
0.4473055582
 31
0.0
 40
0.9998096356
 41
-0.4635410001
 42
1.1071030277
  0
ELLIPSE
  5
5F5
100
AcDbEntity
  8
RACCORDO
100
AcDbEllipse
 62
7
  6
CONTINUOUS
 10
-20.542852034
 20
13.4214676418
 30
0.0
 11
0.4473055582
 21
-0.2236357461
 31
0.0
 40
0.9998096356
 41
2.0344896259
 42
3.6051336537
  0
ELLIPSE
  5
5F6
100
AcDbEntity
  8
RACCORDO
100
AcDbEllipse
 62
7
  6
CONTINUOUS
 10
-20.542852034
 20
-56.5574284768
 30
0.0
 11
0.4473055582
 21
0.2236357461
 31
0.0
 40
0.9998096356
 41
2.6780516535
 42
4.2486956813
  0
ELLIPSE
  5
5F7
100
AcDbEntity
  8
RACCORDO
100
AcDbEllipse
 62
7
  6
CONTINUOUS
 10
-12.3527643089
 20
-64.7475162019
 30
0.0
 11
0.2236357461
 21
0.4473055582
 31
0.0
 40
0.9998096356
 41
-4.2486956813
 42
-2.6780516535
  0
ELLIPSE
  5
5F8
100
AcDbEntity
  8
RACCORDO
100
AcDbEllipse
 62
7
  6
CONTINUOUS
 10
65.8162195347
 20
-56.5574284768
 30
0.0
 11
0.4473055582
 21
-0.2236357461
 31
0.0
 40
0.9998096356
 41
-1.1071030277
 42
0.4635410001
  0
ELLIPSE
  5
5F9
100
AcDbEntity
  8
RACCORDO
100
AcDbEllipse
 62
7
  6
CONTINUOUS
 10
57.6261318097
 20
-64.7475162019
 30
0.0
 11
-0.2236357461
 21
0.4473055582
 31
0.0
 40
0.9998096356
 41
-3.6051336537
 42
-2.0344896259
  0
ELLIPSE
  5
5FA
100
AcDbEntity
  8
RACCORDO
100
AcDbEllipse
 62
7
  6
CONTINUOUS
 10
57.6261318097
 20
21.6115553668
 30
0.0
 11
0.2236357461
 21
0.4473055583
 31
0.0
 40
0.9998096356
 41
-1.1071030277
 42
0.463541
  0
ELLIPSE
  5
5FB
100
AcDbEntity
  8
RACCORDO
100
AcDbEllipse
 62
7
  6
CONTINUOUS
 10
65.8162195347
 20
13.4214676418
 30
0.0
 11
0.4473055582
 21
0.2236357461
 31
0.0
 40
0.9998096356
 41
-0.4635410001
 42
1.1071030276
  0
ENDSEC
  0
SECTION
  2
OBJECTS
  0
DICTIONARY
  5
C
100
AcDbDictionary
280
0
281
1
  3
ACAD_GROUP
350
D
  3
ACAD_MLINESTYLE
350
17
  3
ACAD_LAYOUT
350
1A
  3
ACAD_PLOTSETTINGS
350
19
  3
ACAD_PLOTSTYLENAME
350
E
  0
DICTIONARY
  5
D
102
{ACAD_REACTORS
330
C
102
}
100
AcDbDictionary
280
0
281
1
  0
ACDBDICTIONARYWDFLT
  5
E
102
{ACAD_REACTORS
330
C
102
}
100
AcDbDictionary
281
1
  3
Normal
350
F
100
AcDbDictionaryWithDefault
340
F
  0
DICTIONARY
  5
17
102
{ACAD_REACTORS
330
C
102
}
100
AcDbDictionary
280
0
281
1
  3
Standard
350
18
  0
DICTIONARY
  5
19
102
{ACAD_REACTORS
330
C
102
}
100
AcDbDictionary
281
1
  0
DICTIONARY
  5
1A
102
{ACAD_REACTORS
330
C
102
}
100
AcDbDictionary
281
1
  3
Model
350
5FC
  3
Layout1
350
5FD
  0
ACDBPLACEHOLDER
  5
F
102
{ACAD_REACTORS
330
E
102
}
  0
MLINESTYLE
  5
18
102
{ACAD_REACTORS
330
17
102
}
100
AcDbMlineStyle
  2
STANDARD
 70
0
  3

 62
256
 51
90.0
 52
90.0
 71
2
 49
0.5
 62
256
  6
BYLAYER
 49
-0.5
 62
256
  6
BYLAYER
  0
LAYOUT
  5
5FC
102
{ACAD_REACTORS
330
1A
102
}
100
AcDbPlotSettings
  1

  2
none_device
  4
ISO_A4_(297.00_x_210.00_MM)
  6

 40
0.0
 41
0.0
 42
0.0
 43
0.0
 44
297.0
 45
210.0
 46
0.0
 47
0.0
 48
0.0
 49
0.0
140
0.0
141
0.0
142
1.0
143
1.0
 70
1024
 72
1
 73
0
 74
0
  7

 75
0
147
1.0
148
0.0
149
0.0
100
AcDbLayout
  1
Model
 70
0
 71
0
 10
0.0
 20
0.0
 11
297.0
 21
210.0
 12
0.0
 22
0.0
 32
0.0
 14
0.0
 24
0.0
 34
0.0
 15
0.0
 25
0.0
 35
0.0
146
0.0
 13
0.0
 23
0.0
 33
0.0
 16
1.0
 26
0.0
 36
0.0
 17
0.0
 27
1.0
 37
0.0
 76
0
330
214
345
0
346
0
  0
LAYOUT
  5
5FD
102
{ACAD_REACTORS
330
1A
102
}
100
AcDbPlotSettings
  1

  2
none_device
  4
ISO_A4_(297.00_x_210.00_MM)
  6

 40
0.0
 41
0.0
 42
0.0
 43
0.0
 44
297.0
 45
210.0
 46
0.0
 47
0.0
 48
0.0
 49
0.0
140
0.0
141
0.0
142
1.0
143
1.0
 70
0
 72
1
 73
0
 74
0
  7

 75
0
147
1.0
148
0.0
149
0.0
100
AcDbLayout
  1
Layout1
 70
0
 71
1
 10
0.0
 20
0.0
 11
297.0
 21
210.0
 12
0.0
 22
0.0
 32
0.0
 14
0.0
 24
0.0
 34
0.0
 15
0.0
 25
0.0
 35
0.0
146
0.0
 13
0.0
 23
0.0
 33
0.0
 16
1.0
 26
0.0
 36
0.0
 17
0.0
 27
1.0
 37
0.0
 76
0
330
215
345
0
346
0
  0
ENDSEC
  0
EOF
