  0
SECTION
  2
HEADER
  9
$ACADVER
  1
AC1015
  9
$DWGCODEPAGE
  3
ANSI_1252
  9
$EXTMAX
 10
297.0
 20
210.0
 30
0.0
  9
$EXTMIN
 10
0.0
 20
0.0
 30
0.0
  9
$LIMMIN
 10
0.0
 20
0.0
  9
$LIMMAX
 10
297.0
 20
210.0
  9
$VIEWCTR
 10
148.5
 20
105.0
  9
$VIEWSIZE
 40
210.0
  9
$CLAYER
  8
0
  9
$LTSCALE
 40
16.335
  9
$CELTYPE
  6
BYLAYER
  9
$DIMSCALE
 40
1.0
  9
$DIMASZ
 40
3.0
  9
$DIMEXO
 40
1.85625
  9
$DIMDLI
 40
11.286
  9
$DIMEXE
 40
5.346
  9
$DIMCEN
 40
2.673
  9
$DIMLFAC
 40
1.0
  9
$DIMBLK
  1
_FILLED
  9
$DIMTXT
 40
3.0
  9
$DIMTOL
 70
1
  9
$DIMLIM
 70
0
  9
$DIMTFAC
 40
1.0
  9
$DIMTP
 40
0.01
  9
$DIMTM
 40
0.01
  9
$PDMODE
 70
3
  9
$PDSIZE
 40
3.0
  9
$HANDSEED
  5
612
  9
$TILEMODE
 70
1
  9
$MEASUREMENT
 70
1
  9
$INSUNITS
 70
4
  0
ENDSEC
  0
SECTION
  2
CLASSES
  0
CLASS
  1
ACDBDICTIONARYWDFLT
  2
AcDbDictionaryWithDefault
  3
AutoCAD 2000
 90
0
280
0
281
0
  0
CLASS
  1
ACDBPLACEHOLDER
  2
AcDbPlaceHolder
  3
AutoCAD 2000
 90
0
280
0
281
0
  0
CLASS
  1
LAYOUT
  2
AcDbLayout
  3
AutoCAD 2000
 90
0
280
0
281
0
  0
ENDSEC
  0
SECTION
  2
TABLES
  0
TABLE
  2
VPORT
  5
8
100
AcDbSymbolTable
 70
2
  0
VPORT
  5
1F4
100
AcDbSymbolTableRecord
100
AcDbViewportTableRecord
  2
*ACTIVE
 70
0
 10
0.0
 20
0.0
 11
1.0
 21
1.0
 12
148.5
 22
105.0
 13
0.0
 23
0.0
 14
1.0
 24
1.0
 15
0.0
 25
0.0
 16
0.0
 26
0.0
 36
1.0
 17
0.0
 27
0.0
 37
0.0
 40
210.0
 41
1.4142857143
 42
50.0
 43
0.0
 44
0.0
 50
0.0
 51
0.0
 71
0
 72
100
 73
1
 74
1
 75
0
 76
0
 77
0
 78
0
  0
ENDTAB
  0
TABLE
  2
LTYPE
  5
5
100
AcDbSymbolTable
 70
6
  0
LTYPE
  5
14
100
AcDbSymbolTableRecord
100
AcDbLinetypeTableRecord
  2
BYBLOCK
 70
0
  3

 72
65
 73
0
 40
0.0
  0
LTYPE
  5
15
100
AcDbSymbolTableRecord
100
AcDbLinetypeTableRecord
  2
BYLAYER
 70
0
  3

 72
65
 73
0
 40
0.0
  0
LTYPE
  5
16
100
AcDbSymbolTableRecord
100
AcDbLinetypeTableRecord
  2
CONTINUOUS
 70
64
  3
Solid line
 72
65
 73
0
 40
0.0
  0
LTYPE
  5
1F5
100
AcDbSymbolTableRecord
100
AcDbLinetypeTableRecord
  2
CENTER
 70
64
  3
____ _ ____ _ ____ _ ____ _ ____ _ ____ _ ____
 72
65
 73
4
 40
0.6
 49
0.375
 74
0
 49
-0.075
 74
0
 49
0.075
 74
0
 49
-0.075
 74
0
  0
LTYPE
  5
1F6
100
AcDbSymbolTableRecord
100
AcDbLinetypeTableRecord
  2
HIDDEN
 70
64
  3
- - - - - - - - - - - - - - - - - - - -
 72
65
 73
2
 40
0.2
 49
0.1
 74
0
 49
-0.1
 74
0
  0
LTYPE
  5
1F7
100
AcDbSymbolTableRecord
100
AcDbLinetypeTableRecord
  2
PHANTOM
 70
64
  3
_____ _ _ _____ _ _ _____ _ _ _____
 72
65
 73
6
 40
0.8
 49
0.45
 74
0
 49
-0.05
 74
0
 49
0.1
 74
0
 49
-0.05
 74
0
 49
0.1
 74
0
 49
-0.05
 74
0
  0
LTYPE
  5
1F8
100
AcDbSymbolTableRecord
100
AcDbLinetypeTableRecord
  2
DOT
 70
64
  3
. . . . . . . . . . . . . . . . . . . .
 72
65
 73
2
 40
0.2
 49
0.1
 74
0
 49
-0.1
 74
0
  0
LTYPE
  5
1F9
100
AcDbSymbolTableRecord
100
AcDbLinetypeTableRecord
  2
DASHED
 70
64
  3
- - - - - - - - - - - - - - - - - - - -
 72
65
 73
2
 40
0.2
 49
0.1
 74
0
 49
-0.1
 74
0
  0
ENDTAB
  0
TABLE
  2
LAYER
  5
2
100
AcDbSymbolTable
 70
36
  0
LAYER
  5
10
100
AcDbSymbolTableRecord
100
AcDbLayerTableRecord
  2
0
 70
0
 62
7
  6
CONTINUOUS
370
-3
390
F
  0
LAYER
  5
1FA
100
AcDbSymbolTableRecord
100
AcDbLayerTableRecord
  2
DEFAULT_1
 70
0
 62
7
  6
CENTER
370
-3
390
F
  0
LAYER
  5
1FB
100
AcDbSymbolTableRecord
100
AcDbLayerTableRecord
  2
DEFAULT_2
 70
0
 62
7
  6
HIDDEN
370
-3
390
F
  0
LAYER
  5
1FC
100
AcDbSymbolTableRecord
100
AcDbLayerTableRecord
  2
DEFAULT_3
 70
0
 62
7
  6
PHANTOM
370
-3
390
F
  0
LAYER
  5
1FD
100
AcDbSymbolTableRecord
100
AcDbLayerTableRecord
  2
ASSI
 70
0
 62
7
  6
CONTINUOUS
370
-3
390
F
  0
LAYER
  5
1FE
100
AcDbSymbolTableRecord
100
AcDbLayerTableRecord
  2
COORDINATE
 70
0
 62
7
  6
CONTINUOUS
370
-3
390
F
  0
LAYER
  5
1FF
100
AcDbSymbolTableRecord
100
AcDbLayerTableRecord
  2
COORD_ORIGINE
 70
0
 62
7
  6
CONTINUOUS
370
-3
390
F
  0
LAYER
  5
200
100
AcDbSymbolTableRecord
100
AcDbLayerTableRecord
  2
COPY_PUBLISH
 70
0
 62
7
  6
CONTINUOUS
370
-3
390
F
  0
LAYER
  5
201
100
AcDbSymbolTableRecord
100
AcDbLayerTableRecord
  2
COSMETIC
 70
0
 62
7
  6
CONTINUOUS
370
-3
390
F
  0
LAYER
  5
202
100
AcDbSymbolTableRecord
100
AcDbLayerTableRecord
  2
CURVA_ASSE
 70
0
 62
7
  6
CONTINUOUS
370
-3
390
F
  0
LAYER
  5
203
100
AcDbSymbolTableRecord
100
AcDbLayerTableRecord
  2
CURVE
 70
0
 62
7
  6
CONTINUOUS
370
-3
390
F
  0
LAYER
  5
204
100
AcDbSymbolTableRecord
100
AcDbLayerTableRecord
  2
CURVE_GUIDA
 70
0
 62
7
  6
CONTINUOUS
370
-3
390
F
  0
LAYER
  5
205
100
AcDbSymbolTableRecord
100
AcDbLayerTableRecord
  2
CURVE_INC_PUNZONI
 70
0
 62
7
  6
CONTINUOUS
370
-3
390
F
  0
LAYER
  5
206
100
AcDbSymbolTableRecord
100
AcDbLayerTableRecord
  2
DRAFT
 70
0
 62
7
  6
CONTINUOUS
370
-3
390
F
  0
LAYER
  5
207
100
AcDbSymbolTableRecord
100
AcDbLayerTableRecord
  2
IMPORT_IGES
 70
0
 62
7
  6
CONTINUOUS
370
-3
390
F
  0
LAYER
  5
208
100
AcDbSymbolTableRecord
100
AcDbLayerTableRecord
  2
NOTE
 70
0
 62
7
  6
CONTINUOUS
370
-3
390
F
  0
LAYER
  5
209
100
AcDbSymbolTableRecord
100
AcDbLayerTableRecord
  2
PIANI
 70
0
 62
7
  6
CONTINUOUS
370
-3
390
F
  0
LAYER
  5
20A
100
AcDbSymbolTableRecord
100
AcDbLayerTableRecord
  2
PIANI_ORIGINE
 70
0
 62
7
  6
CONTINUOUS
370
-3
390
F
  0
LAYER
  5
20B
100
AcDbSymbolTableRecord
100
AcDbLayerTableRecord
  2
PUNTI
 70
0
 62
7
  6
CONTINUOUS
370
-3
390
F
  0
LAYER
  5
20C
100
AcDbSymbolTableRecord
100
AcDbLayerTableRecord
  2
RACCORDO
 70
0
 62
7
  6
CONTINUOUS
370
-3
390
F
  0
LAYER
  5
20D
100
AcDbSymbolTableRecord
100
AcDbLayerTableRecord
  2
SMUSSO
 70
0
 62
7
  6
CONTINUOUS
370
-3
390
F
  0
LAYER
  5
20E
100
AcDbSymbolTableRecord
100
AcDbLayerTableRecord
  2
SNAPLINE
 70
0
 62
7
  6
CONTINUOUS
370
-3
390
F
  0
LAYER
  5
20F
100
AcDbSymbolTableRecord
100
AcDbLayerTableRecord
  2
SUPERFICI
 70
0
 62
7
  6
CONTINUOUS
370
-3
390
F
  0
LAYER
  5
210
100
AcDbSymbolTableRecord
100
AcDbLayerTableRecord
  2
TRASH
 70
0
 62
7
  6
CONTINUOUS
370
-3
390
F
  0
LAYER
  5
211
100
AcDbSymbolTableRecord
100
AcDbLayerTableRecord
  2
XSEC_DATUMS
 70
0
 62
7
  6
CONTINUOUS
370
-3
390
F
  0
ENDTAB
  0
TABLE
  2
STYLE
  5
3
100
AcDbSymbolTable
 70
1
  0
STYLE
  5
11
100
AcDbSymbolTableRecord
100
AcDbTextStyleTableRecord
  2
STANDARD
 70
0
 40
0.0
 41
0.8
 50
0.0
 71
0
 42
0.2
  3
txt
  4

  0
STYLE
  5
212
100
AcDbSymbolTableRecord
100
AcDbTextStyleTableRecord
  2
TEXTSTYLE_1
 70
0
 40
0.0
 41
0.8
 50
0.0
 71
0
 42
0.2
  3
gdt
  4

  0
ENDTAB
  0
TABLE
  2
VIEW
  5
6
100
AcDbSymbolTable
 70
0
  0
ENDTAB
  0
TABLE
  2
UCS
  5
7
100
AcDbSymbolTable
 70
0
  0
ENDTAB
  0
TABLE
  2
APPID
  5
9
100
AcDbSymbolTable
 70
1
  0
APPID
  5
213
100
AcDbSymbolTableRecord
100
AcDbRegAppTableRecord
  2
ACAD
 70
0
  0
ENDTAB
  0
TABLE
  2
BLOCK_RECORD
  5
1
100
AcDbSymbolTable
 70
0
  0
BLOCK_RECORD
  5
214
100
AcDbSymbolTableRecord
100
AcDbBlockTableRecord
  2
*Model_Space
  0
BLOCK_RECORD
  5
215
100
AcDbSymbolTableRecord
100
AcDbBlockTableRecord
  2
*Paper_Space
  0
ENDTAB
  0
TABLE
  2
DIMSTYLE
  5
A
100
AcDbSymbolTable
 70
1
100
AcDbDimStyleTable
 71
0
  0
DIMSTYLE
105
216
100
AcDbSymbolTableRecord
100
AcDbDimStyleTableRecord
  2
STANDARD
 70
0
  3

  4

 40
1.0
 41
3.0
 42
0.0625
 43
0.38
 44
0.18
 45
0.0
 46
0.0
 47
0.01
 48
0.01
140
3.0
141
0.09
142
0.0
143
25.4
144
1.0
145
0.0
146
1.0
147
0.09
 71
1.0
 72
0.0
 73
0
 74
0
 75
0
 76
0
 77
1
 78
8
170
0
171
2
172
0
173
0
174
0
175
0
176
0
177
0
178
0
270
2
271
2
272
2
273
2
274
2
275
0
280
0
281
0
282
0
283
1
284
8
285
0
286
0
287
3
288
0
340
11
  0
ENDTAB
  0
ENDSEC
  0
SECTION
  2
BLOCKS
  0
BLOCK
  5
20
100
AcDbEntity
  8
0
100
AcDbBlockBegin
  2
*Model_Space
 70
0
 10
0.0
 20
0.0
 30
0.0
  3
*Model_Space
  1

  0
ENDBLK
  5
21
100
AcDbEntity
  8
0
100
AcDbBlockEnd
  0
BLOCK
  5
1C
100
AcDbEntity
  8
0
100
AcDbBlockBegin
  2
*Paper_Space
 70
0
 10
0.0
 20
0.0
 30
0.0
  3
*Paper_Space
  1

  0
ENDBLK
  5
1D
100
AcDbEntity
  8
0
100
AcDbBlockEnd
  0
ENDSEC
  0
SECTION
  2
ENTITIES
  0
LINE
  5
217
100
AcDbEntity
  8
0
100
AcDbLine
 62
7
  6
CONTINUOUS
 10
-61.5379267861
 20
-67.1692583864
 11
-61.5379267861
 21
30.8307416136
  0
LINE
  5
218
100
AcDbEntity
  8
0
100
AcDbLine
 62
7
  6
CONTINUOUS
 10
-58.5379267861
 20
30.8307416136
 11
-58.5379267861
 21
-67.1692583864
  0
LINE
  5
219
100
AcDbEntity
  8
DRAFT
100
AcDbLine
 62
7
  6
CONTINUOUS
 10
-46.7586457472
 20
20.9426245472
 11
-44.9466898537
 21
22.7545804407
  0
LINE
  5
21A
100
AcDbEntity
  8
DRAFT
100
AcDbLine
 62
7
  6
CONTINUOUS
 10
-43.4617656132
 20
24.2395046812
 11
-41.6498097197
 21
26.0514605748
  0
LINE
  5
21B
100
AcDbEntity
  8
DRAFT
100
AcDbLine
 62
7
  6
CONTINUOUS
 10
-41.6498097197
 20
-62.3899773475
 11
-43.4617656132
 21
-60.578021454
  0
LINE
  5
21C
100
AcDbEntity
  8
DRAFT
100
AcDbLine
 62
7
  6
CONTINUOUS
 10
-44.9466898537
 20
-59.0930972135
 11
-46.7586457472
 21
-57.28114132
  0
LINE
  5
21D
100
AcDbEntity
  8
DRAFT
100
AcDbLine
 62
7
  6
CONTINUOUS
 10
-55.5379267861
 20
-49.1692583864
 11
-55.5379267861
 21
12.8307416136
  0
LINE
  5
21E
100
AcDbEntity
  8
RACCORDO
100
AcDbLine
 62
253
  6
CONTINUOUS
 10
-55.4852569584
 20
12.8307416136
 11
-55.4852569584
 21
-49.1692583864
  0
LINE
  5
21F
100
AcDbEntity
  8
RACCORDO
100
AcDbLine
 62
253
  6
CONTINUOUS
 10
-54.4854092633
 20
12.8307416136
 11
-54.4854092633
 21
-49.1692583864
  0
LINE
  5
220
100
AcDbEntity
  8
0
100
AcDbLine
 62
7
  6
CONTINUOUS
 10
-42.0607703928
 20
19.9783129873
 11
-42.3221921961
 21
19.5520986741
  0
LINE
  5
221
100
AcDbEntity
  8
0
100
AcDbLine
 62
7
  6
CONTINUOUS
 10
-41.0150831794
 20
21.6831702399
 11
-40.7536613761
 21
22.1093845531
  0
LINE
  5
222
100
AcDbEntity
  8
RACCORDO
100
AcDbLine
 62
253
  6
CONTINUOUS
 10
-40.7155089692
 20
19.3617703272
 11
-41.0530531296
 21
18.9929276756
  0
LINE
  5
223
100
AcDbEntity
  8
DRAFT
100
AcDbLine
 62
7
  6
CONTINUOUS
 10
-46.2175387345
 20
20.7184906838
 11
-44.7553650648
 21
22.1806643535
  0
LINE
  5
224
100
AcDbEntity
  8
DRAFT
100
AcDbLine
 62
7
  6
CONTINUOUS
 10
-42.887849526
 20
24.0481798923
 11
-41.4256758563
 21
25.510353562
  0
LINE
  5
225
100
AcDbEntity
  8
DRAFT
100
AcDbLine
 62
7
  6
CONTINUOUS
 10
-45.0084596876
 20
20.2176737446
 11
-43.9004170718
 21
21.3257163604
  0
LINE
  5
226
100
AcDbEntity
  8
DRAFT
100
AcDbLine
 62
7
  6
CONTINUOUS
 10
-42.0329015329
 20
23.1932318993
 11
-40.9248589171
 21
24.3012745151
  0
LINE
  5
227
100
AcDbEntity
  8
DRAFT
100
AcDbLine
 62
7
  6
CONTINUOUS
 10
-44.7379267861
 20
20.1056153478
 11
-43.5178257734
 21
21.3257163604
  0
LINE
  5
228
100
AcDbEntity
  8
DRAFT
100
AcDbLine
 62
7
  6
CONTINUOUS
 10
-42.0329015329
 20
22.8106406009
 11
-40.8128005203
 21
24.0307416136
  0
LINE
  5
229
100
AcDbEntity
  8
DRAFT
100
AcDbLine
 62
7
  6
CONTINUOUS
 10
-38.2979267861
 20
24.0307416136
 11
-38.0273938846
 21
24.3012745151
  0
LINE
  5
22A
100
AcDbEntity
  8
DRAFT
100
AcDbLine
 62
7
  6
CONTINUOUS
 10
-44.7379267861
 20
17.5907416136
 11
-45.0084596876
 21
17.3202087121
  0
LINE
  5
22B
100
AcDbEntity
  8
DRAFT
100
AcDbLine
 62
7
  6
CONTINUOUS
 10
-38.2979267861
 20
22.1615533044
 11
-39.7173072277
 21
20.7421728628
  0
LINE
  5
22C
100
AcDbEntity
  8
DRAFT
100
AcDbLine
 62
7
  6
CONTINUOUS
 10
-41.4493580353
 20
19.0101220552
 11
-42.8687384769
 21
17.5907416136
  0
LINE
  5
22D
100
AcDbEntity
  8
RACCORDO
100
AcDbLine
 62
7
  6
CONTINUOUS
 10
-38.0055386374
 20
22.0404421678
 11
-39.7001128481
 21
20.3458679571
  0
LINE
  5
22E
100
AcDbEntity
  8
RACCORDO
100
AcDbLine
 62
7
  6
CONTINUOUS
 10
-41.0530531296
 20
18.9929276756
 11
-42.7476273402
 21
17.298353465
  0
LINE
  5
22F
100
AcDbEntity
  8
RACCORDO
100
AcDbLine
 62
7
  6
CONTINUOUS
 10
-33.7690544084
 20
25.9978068228
 11
-34.2574215679
 21
25.5094396633
  0
LINE
  5
230
100
AcDbEntity
  8
RACCORDO
100
AcDbLine
 62
7
  6
CONTINUOUS
 10
-46.2166248358
 20
13.5002363954
 11
-46.7049919953
 21
13.0118692359
  0
LINE
  5
231
100
AcDbEntity
  8
RACCORDO
100
AcDbLine
 62
253
  6
CONTINUOUS
 10
-37.5055576759
 20
21.8333432726
 11
-39.3465729197
 21
19.9923280288
  0
LINE
  5
232
100
AcDbEntity
  8
RACCORDO
100
AcDbLine
 62
253
  6
CONTINUOUS
 10
-40.6995132013
 20
18.6393877472
 11
-42.5405284451
 21
16.7983725034
  0
LINE
  5
233
100
AcDbEntity
  8
RACCORDO
100
AcDbLine
 62
253
  6
CONTINUOUS
 10
-40.0689554997
 20
20.0083237967
 11
-39.7001128477
 21
20.3458679567
  0
LINE
  5
234
100
AcDbEntity
  8
RACCORDO
100
AcDbLine
 62
253
  6
CONTINUOUS
 10
-40.0689554997
 20
-56.3468405695
 11
-39.7001128481
 21
-56.6843847299
  0
LINE
  5
235
100
AcDbEntity
  8
DRAFT
100
AcDbLine
 62
7
  6
CONTINUOUS
 10
-41.4256758563
 20
-61.8488703348
 11
-42.887849526
 21
-60.3866966651
  0
LINE
  5
236
100
AcDbEntity
  8
DRAFT
100
AcDbLine
 62
7
  6
CONTINUOUS
 10
-44.7553650648
 20
-58.5191811263
 11
-46.2175387345
 21
-57.0570074566
  0
LINE
  5
237
100
AcDbEntity
  8
DRAFT
100
AcDbLine
 62
7
  6
CONTINUOUS
 10
-40.9248589171
 20
-60.6397912879
 11
-42.0329015329
 21
-59.5317486721
  0
LINE
  5
238
100
AcDbEntity
  8
DRAFT
100
AcDbLine
 62
7
  6
CONTINUOUS
 10
-43.9004170718
 20
-57.6642331332
 11
-45.0084596876
 21
-56.5561905174
  0
LINE
  5
239
100
AcDbEntity
  8
DRAFT
100
AcDbLine
 62
7
  6
CONTINUOUS
 10
-40.8128005203
 20
-60.3692583864
 11
-42.0329015329
 21
-59.1491573737
  0
LINE
  5
23A
100
AcDbEntity
  8
DRAFT
100
AcDbLine
 62
7
  6
CONTINUOUS
 10
-43.5178257734
 20
-57.6642331332
 11
-44.7379267861
 21
-56.4441321205
  0
LINE
  5
23B
100
AcDbEntity
  8
DRAFT
100
AcDbLine
 62
7
  6
CONTINUOUS
 10
-38.2979267861
 20
-60.3692583864
 11
-38.0273938846
 21
-60.6397912879
  0
LINE
  5
23C
100
AcDbEntity
  8
DRAFT
100
AcDbLine
 62
7
  6
CONTINUOUS
 10
-44.7379267861
 20
-53.9292583864
 11
-45.0084596876
 21
-53.6587254849
  0
LINE
  5
23D
100
AcDbEntity
  8
DRAFT
100
AcDbLine
 62
7
  6
CONTINUOUS
 10
-42.8687384769
 20
-53.9292583864
 11
-41.4493580353
 21
-55.348638828
  0
LINE
  5
23E
100
AcDbEntity
  8
DRAFT
100
AcDbLine
 62
7
  6
CONTINUOUS
 10
-39.7173072277
 20
-57.0806896356
 11
-38.2979267861
 21
-58.5000700772
  0
LINE
  5
23F
100
AcDbEntity
  8
RACCORDO
100
AcDbLine
 62
7
  6
CONTINUOUS
 10
-42.7476273402
 20
-53.6368702377
 11
-41.0530531296
 21
-55.3314444484
  0
LINE
  5
240
100
AcDbEntity
  8
RACCORDO
100
AcDbLine
 62
7
  6
CONTINUOUS
 10
-39.7001128481
 20
-56.6843847299
 11
-38.0055386374
 21
-58.3789589405
  0
LINE
  5
241
100
AcDbEntity
  8
RACCORDO
100
AcDbLine
 62
7
  6
CONTINUOUS
 10
-33.7690544084
 20
-62.3363235956
 11
-34.2574215679
 21
-61.8479564361
  0
LINE
  5
242
100
AcDbEntity
  8
RACCORDO
100
AcDbLine
 62
7
  6
CONTINUOUS
 10
-46.2166248358
 20
-49.8387531682
 11
-46.7049919953
 21
-49.3503860087
  0
LINE
  5
243
100
AcDbEntity
  8
RACCORDO
100
AcDbLine
 62
253
  6
CONTINUOUS
 10
-42.5405284451
 20
-53.1368892762
 11
-40.6995132013
 21
-54.97790452
  0
LINE
  5
244
100
AcDbEntity
  8
RACCORDO
100
AcDbLine
 62
253
  6
CONTINUOUS
 10
-39.3465729197
 20
-56.3308448015
 11
-37.5055576759
 21
-58.1718600453
  0
LINE
  5
245
100
AcDbEntity
  8
RACCORDO
100
AcDbLine
 62
253
  6
CONTINUOUS
 10
-40.7155089692
 20
-55.7002871
 11
-41.0530531292
 21
-55.331444448
  0
LINE
  5
246
100
AcDbEntity
  8
SMUSSO
100
AcDbLine
 62
7
  6
CONTINUOUS
 10
-46.749919544
 20
-36.1244938697
 11
-46.7307176434
 21
-36.4192583864
  0
LINE
  5
247
100
AcDbEntity
  8
SMUSSO
100
AcDbLine
 62
7
  6
CONTINUOUS
 10
-46.749919544
 20
-3.6244938697
 11
-46.7307176434
 21
-3.9192583864
  0
LINE
  5
248
100
AcDbEntity
  8
SMUSSO
100
AcDbLine
 62
7
  6
CONTINUOUS
 10
-47.2586457472
 20
-0.3479770943
 11
-47.2586457472
 21
-3.4905396785
  0
LINE
  5
249
100
AcDbEntity
  8
SMUSSO
100
AcDbLine
 62
7
  6
CONTINUOUS
 10
-47.2586457472
 20
-32.8479770943
 11
-47.2586457472
 21
-35.9905396785
  0
LINE
  5
24A
100
AcDbEntity
  8
DRAFT
100
AcDbLine
 62
7
  6
CONTINUOUS
 10
-46.7586457472
 20
-57.28114132
 11
-46.7586457472
 21
-52.091784516
  0
LINE
  5
24B
100
AcDbEntity
  8
SMUSSO
100
AcDbLine
 62
7
  6
CONTINUOUS
 10
-46.7586457472
 20
-52.091784516
 11
-46.7586457472
 21
-36.1244938697
  0
LINE
  5
24C
100
AcDbEntity
  8
SMUSSO
100
AcDbLine
 62
7
  6
CONTINUOUS
 10
-46.7586457472
 20
-32.7140229031
 11
-46.7586457472
 21
-3.6244938697
  0
LINE
  5
24D
100
AcDbEntity
  8
SMUSSO
100
AcDbLine
 62
7
  6
CONTINUOUS
 10
-46.7586457472
 20
-0.2140229031
 11
-46.7586457472
 21
15.7532677432
  0
LINE
  5
24E
100
AcDbEntity
  8
DRAFT
100
AcDbLine
 62
7
  6
CONTINUOUS
 10
-46.7586457472
 20
15.7532677432
 11
-46.7586457472
 21
20.9426245472
  0
LINE
  5
24F
100
AcDbEntity
  8
SMUSSO
100
AcDbLine
 62
7
  6
CONTINUOUS
 10
-46.749919544
 20
-0.2140229031
 11
-46.749919544
 21
-3.6244938697
  0
LINE
  5
250
100
AcDbEntity
  8
SMUSSO
100
AcDbLine
 62
7
  6
CONTINUOUS
 10
-46.749919544
 20
-32.7140229031
 11
-46.749919544
 21
-36.1244938697
  0
LINE
  5
251
100
AcDbEntity
  8
RACCORDO
100
AcDbLine
 62
7
  6
CONTINUOUS
 10
-46.7307176434
 20
11.5120976932
 11
-46.7307176434
 21
0.0807416136
  0
LINE
  5
252
100
AcDbEntity
  8
RACCORDO
100
AcDbLine
 62
7
  6
CONTINUOUS
 10
-46.7307176434
 20
-3.9192583864
 11
-46.7307176434
 21
-15.350614466
  0
LINE
  5
253
100
AcDbEntity
  8
RACCORDO
100
AcDbLine
 62
7
  6
CONTINUOUS
 10
-46.7307176434
 20
-20.9879023068
 11
-46.7307176434
 21
-32.4192583864
  0
LINE
  5
254
100
AcDbEntity
  8
RACCORDO
100
AcDbLine
 62
7
  6
CONTINUOUS
 10
-46.7307176434
 20
-36.4192583864
 11
-46.7307176434
 21
-47.850614466
  0
LINE
  5
255
100
AcDbEntity
  8
RACCORDO
100
AcDbLine
 62
7
  6
CONTINUOUS
 10
-46.2175387345
 20
-57.0570074566
 11
-46.2175387345
 21
-53.1587825981
  0
LINE
  5
256
100
AcDbEntity
  8
RACCORDO
100
AcDbLine
 62
7
  6
CONTINUOUS
 10
-46.2175387345
 20
16.8202658253
 11
-46.2175387345
 21
20.7184906838
  0
LINE
  5
257
100
AcDbEntity
  8
RACCORDO
100
AcDbLine
 62
253
  6
CONTINUOUS
 10
-46.2166248358
 20
16.8198089108
 11
-46.2166248358
 21
15.2112468318
  0
LINE
  5
258
100
AcDbEntity
  8
RACCORDO
100
AcDbLine
 62
253
  6
CONTINUOUS
 10
-46.2166248358
 20
13.5002363954
 11
-46.2166248358
 21
-17.3387531682
  0
LINE
  5
259
100
AcDbEntity
  8
RACCORDO
100
AcDbLine
 62
253
  6
CONTINUOUS
 10
-46.2166248358
 20
-18.9997636046
 11
-46.2166248358
 21
-49.8387531682
  0
LINE
  5
25A
100
AcDbEntity
  8
RACCORDO
100
AcDbLine
 62
253
  6
CONTINUOUS
 10
-46.2166248358
 20
-51.5497636046
 11
-46.2166248358
 21
-53.1583256836
  0
LINE
  5
25B
100
AcDbEntity
  8
RACCORDO
100
AcDbLine
 62
7
  6
CONTINUOUS
 10
-46.0379267861
 20
-51.5497636046
 11
-46.0379267861
 21
-49.8387531682
  0
LINE
  5
25C
100
AcDbEntity
  8
RACCORDO
100
AcDbLine
 62
7
  6
CONTINUOUS
 10
-46.0379267861
 20
-18.9997636046
 11
-46.0379267861
 21
-17.3387531682
  0
LINE
  5
25D
100
AcDbEntity
  8
RACCORDO
100
AcDbLine
 62
7
  6
CONTINUOUS
 10
-46.0379267861
 20
13.5002363954
 11
-46.0379267861
 21
15.2112468318
  0
LINE
  5
25E
100
AcDbEntity
  8
RACCORDO
100
AcDbLine
 62
7
  6
CONTINUOUS
 10
-45.6170817503
 20
-51.5192583864
 11
-45.6170817503
 21
-49.8692583864
  0
LINE
  5
25F
100
AcDbEntity
  8
RACCORDO
100
AcDbLine
 62
7
  6
CONTINUOUS
 10
-45.6170817503
 20
-18.9692583864
 11
-45.6170817503
 21
-17.3692583864
  0
LINE
  5
260
100
AcDbEntity
  8
RACCORDO
100
AcDbLine
 62
7
  6
CONTINUOUS
 10
-45.6170817503
 20
13.5307416136
 11
-45.6170817503
 21
15.1807416136
  0
LINE
  5
261
100
AcDbEntity
  8
SMUSSO
100
AcDbLine
 62
7
  6
CONTINUOUS
 10
-46.749919544
 20
-0.2140229031
 11
-46.7307176434
 21
0.0807416136
  0
LINE
  5
262
100
AcDbEntity
  8
SMUSSO
100
AcDbLine
 62
7
  6
CONTINUOUS
 10
-46.749919544
 20
-32.7140229031
 11
-46.7307176434
 21
-32.4192583864
  0
LINE
  5
263
100
AcDbEntity
  8
0
100
AcDbLine
 62
7
  6
CONTINUOUS
 10
70.4620732139
 20
-77.1692583864
 11
-51.5379267861
 21
-77.1692583864
  0
LINE
  5
264
100
AcDbEntity
  8
0
100
AcDbLine
 62
7
  6
CONTINUOUS
 10
-51.5379267861
 20
-74.1692583864
 11
70.4620732139
 21
-74.1692583864
  0
LINE
  5
265
100
AcDbEntity
  8
DRAFT
100
AcDbLine
 62
7
  6
CONTINUOUS
 10
-45.0084596876
 20
-56.5561905174
 11
-45.0084596876
 21
-53.6587254849
  0
LINE
  5
266
100
AcDbEntity
  8
DRAFT
100
AcDbLine
 62
7
  6
CONTINUOUS
 10
-45.0084596876
 20
17.3202087121
 11
-45.0084596876
 21
20.2176737446
  0
LINE
  5
267
100
AcDbEntity
  8
DRAFT
100
AcDbLine
 62
7
  6
CONTINUOUS
 10
-44.7379267861
 20
-56.4441321205
 11
-44.7379267861
 21
-53.9292583864
  0
LINE
  5
268
100
AcDbEntity
  8
DRAFT
100
AcDbLine
 62
7
  6
CONTINUOUS
 10
-44.7379267861
 20
17.5907416136
 11
-44.7379267861
 21
20.1056153478
  0
LINE
  5
269
100
AcDbEntity
  8
RACCORDO
100
AcDbLine
 62
253
  6
CONTINUOUS
 10
-43.2170817503
 20
-53.6368702377
 11
-43.2170817503
 21
17.298353465
  0
LINE
  5
26A
100
AcDbEntity
  8
DRAFT
100
AcDbLine
 62
7
  6
CONTINUOUS
 10
-42.0329015329
 20
-59.1491573737
 11
-42.0329015329
 21
-59.5317486721
  0
LINE
  5
26B
100
AcDbEntity
  8
DRAFT
100
AcDbLine
 62
7
  6
CONTINUOUS
 10
-42.0329015329
 20
22.8106406009
 11
-42.0329015329
 21
23.1932318993
  0
LINE
  5
26C
100
AcDbEntity
  8
DRAFT
100
AcDbLine
 62
7
  6
CONTINUOUS
 10
1.373835088
 20
-71.6692583864
 11
17.5503113398
 21
-71.6692583864
  0
LINE
  5
26D
100
AcDbEntity
  8
RACCORDO
100
AcDbLine
 62
7
  6
CONTINUOUS
 10
-33.5379267861
 20
-71.1692583864
 11
52.4620732139
 21
-71.1692583864
  0
LINE
  5
26E
100
AcDbEntity
  8
RACCORDO
100
AcDbLine
 62
253
  6
CONTINUOUS
 10
-33.5379267861
 20
-71.1165885587
 11
52.4620732139
 21
-71.1165885587
  0
LINE
  5
26F
100
AcDbEntity
  8
RACCORDO
100
AcDbLine
 62
253
  6
CONTINUOUS
 10
-33.5379267861
 20
-70.1167408636
 11
52.4620732139
 21
-70.1167408636
  0
LINE
  5
270
100
AcDbEntity
  8
DRAFT
100
AcDbLine
 62
7
  6
CONTINUOUS
 10
23.0151716554
 20
-69.6692583864
 11
-4.0910252276
 21
-69.6692583864
  0
LINE
  5
271
100
AcDbEntity
  8
RACCORDO
100
AcDbLine
 62
7
  6
CONTINUOUS
 10
22.8668036035
 20
-69.5208903345
 11
-3.9426571757
 21
-69.5208903345
  0
LINE
  5
272
100
AcDbEntity
  8
DRAFT
100
AcDbLine
 62
7
  6
CONTINUOUS
 10
0.4008334487
 20
-68.9959583534
 11
-3.8379267861
 21
-68.9959583534
  0
LINE
  5
273
100
AcDbEntity
  8
DRAFT
100
AcDbLine
 62
7
  6
CONTINUOUS
 10
18.5233129791
 20
-68.9959583534
 11
22.7620732139
 21
-68.9959583534
  0
LINE
  5
274
100
AcDbEntity
  8
DRAFT
100
AcDbLine
 62
7
  6
CONTINUOUS
 10
-38.2979267861
 20
24.0307416136
 11
-38.2979267861
 21
22.1615533044
  0
LINE
  5
275
100
AcDbEntity
  8
DRAFT
100
AcDbLine
 62
7
  6
CONTINUOUS
 10
-38.2979267861
 20
-58.5000700772
 11
-38.2979267861
 21
-60.3692583864
  0
LINE
  5
276
100
AcDbEntity
  8
RACCORDO
100
AcDbLine
 62
7
  6
CONTINUOUS
 10
-38.0273938846
 20
-61.3488703319
 11
-38.0273938846
 21
-60.6397912879
  0
LINE
  5
277
100
AcDbEntity
  8
RACCORDO
100
AcDbLine
 62
7
  6
CONTINUOUS
 10
-38.0273938846
 20
24.3012745151
 11
-38.0273938846
 21
25.0103535591
  0
LINE
  5
278
100
AcDbEntity
  8
RACCORDO
100
AcDbLine
 62
7
  6
CONTINUOUS
 10
-38.0055386374
 20
-58.8484133506
 11
-38.0055386374
 21
-58.3789589405
  0
LINE
  5
279
100
AcDbEntity
  8
RACCORDO
100
AcDbLine
 62
7
  6
CONTINUOUS
 10
-38.0055386374
 20
22.0404421678
 11
-38.0055386374
 21
22.5098965778
  0
LINE
  5
27A
100
AcDbEntity
  8
RACCORDO
100
AcDbLine
 62
253
  6
CONTINUOUS
 10
-37.5055576759
 20
-58.8484133506
 11
-37.5055576759
 21
-58.1718600453
  0
LINE
  5
27B
100
AcDbEntity
  8
RACCORDO
100
AcDbLine
 62
253
  6
CONTINUOUS
 10
-37.5055576759
 20
21.8333432726
 11
-37.5055576759
 21
22.5098965778
  0
LINE
  5
27C
100
AcDbEntity
  8
RACCORDO
100
AcDbLine
 62
253
  6
CONTINUOUS
 10
-33.5379267861
 20
-70.1167408636
 11
-33.5379267861
 21
-71.1692583864
  0
LINE
  5
27D
100
AcDbEntity
  8
RACCORDO
100
AcDbLine
 62
253
  6
CONTINUOUS
 10
-33.5379267861
 20
33.7782240908
 11
-33.5379267861
 21
34.8307416136
  0
LINE
  5
27E
100
AcDbEntity
  8
SMUSSO
100
AcDbLine
 62
7
  6
CONTINUOUS
 10
40.8673086972
 20
-62.3812511443
 11
41.1620732139
 21
-62.3620492437
  0
LINE
  5
27F
100
AcDbEntity
  8
SMUSSO
100
AcDbLine
 62
7
  6
CONTINUOUS
 10
11.1673086972
 20
-62.3812511443
 11
11.4620732139
 21
-62.3620492437
  0
LINE
  5
280
100
AcDbEntity
  8
SMUSSO
100
AcDbLine
 62
7
  6
CONTINUOUS
 10
-18.5326913028
 20
-62.3812511443
 11
-18.2379267861
 21
-62.3620492437
  0
LINE
  5
281
100
AcDbEntity
  8
DRAFT
100
AcDbLine
 62
7
  6
CONTINUOUS
 10
22.3168036035
 20
-64.947288809
 11
19.9969081816
 21
-64.947288809
  0
LINE
  5
282
100
AcDbEntity
  8
DRAFT
100
AcDbLine
 62
7
  6
CONTINUOUS
 10
-1.0727617538
 20
-64.947288809
 11
-3.3926571757
 21
-64.947288809
  0
LINE
  5
283
100
AcDbEntity
  8
DRAFT
100
AcDbLine
 62
7
  6
CONTINUOUS
 10
-3.8379267861
 20
-64.8425584194
 11
-3.3926571757
 21
-64.8425584194
  0
LINE
  5
284
100
AcDbEntity
  8
DRAFT
100
AcDbLine
 62
7
  6
CONTINUOUS
 10
22.3168036035
 20
-64.8425584194
 11
22.7620732139
 21
-64.8425584194
  0
LINE
  5
285
100
AcDbEntity
  8
RACCORDO
100
AcDbLine
 62
7
  6
CONTINUOUS
 10
-3.9426571757
 20
-64.3176264383
 11
22.8668036035
 21
-64.3176264383
  0
LINE
  5
286
100
AcDbEntity
  8
DRAFT
100
AcDbLine
 62
7
  6
CONTINUOUS
 10
23.0151716554
 20
-64.1692583864
 11
-4.0910252276
 21
-64.1692583864
  0
LINE
  5
287
100
AcDbEntity
  8
SMUSSO
100
AcDbLine
 62
7
  6
CONTINUOUS
 10
-21.8092080782
 20
-62.8899773475
 11
-18.666645494
 21
-62.8899773475
  0
LINE
  5
288
100
AcDbEntity
  8
SMUSSO
100
AcDbLine
 62
7
  6
CONTINUOUS
 10
7.8907919218
 20
-62.8899773475
 11
11.033354506
 21
-62.8899773475
  0
LINE
  5
289
100
AcDbEntity
  8
SMUSSO
100
AcDbLine
 62
7
  6
CONTINUOUS
 10
37.5907919218
 20
-62.8899773475
 11
40.733354506
 21
-62.8899773475
  0
LINE
  5
28A
100
AcDbEntity
  8
DRAFT
100
AcDbLine
 62
7
  6
CONTINUOUS
 10
60.5739561475
 20
-62.3899773475
 11
55.3845993435
 21
-62.3899773475
  0
LINE
  5
28B
100
AcDbEntity
  8
SMUSSO
100
AcDbLine
 62
7
  6
CONTINUOUS
 10
55.3845993435
 20
-62.3899773475
 11
40.8673086972
 21
-62.3899773475
  0
LINE
  5
28C
100
AcDbEntity
  8
SMUSSO
100
AcDbLine
 62
7
  6
CONTINUOUS
 10
37.4568377306
 20
-62.3899773475
 11
11.1673086972
 21
-62.3899773475
  0
LINE
  5
28D
100
AcDbEntity
  8
SMUSSO
100
AcDbLine
 62
7
  6
CONTINUOUS
 10
7.7568377306
 20
-62.3899773475
 11
-18.5326913028
 21
-62.3899773475
  0
LINE
  5
28E
100
AcDbEntity
  8
SMUSSO
100
AcDbLine
 62
7
  6
CONTINUOUS
 10
-21.9431622694
 20
-62.3899773475
 11
-36.4604529157
 21
-62.3899773475
  0
LINE
  5
28F
100
AcDbEntity
  8
DRAFT
100
AcDbLine
 62
7
  6
CONTINUOUS
 10
-36.4604529157
 20
-62.3899773475
 11
-41.6498097197
 21
-62.3899773475
  0
LINE
  5
290
100
AcDbEntity
  8
SMUSSO
100
AcDbLine
 62
7
  6
CONTINUOUS
 10
-21.9431622694
 20
-62.3812511443
 11
-18.5326913028
 21
-62.3812511443
  0
LINE
  5
291
100
AcDbEntity
  8
SMUSSO
100
AcDbLine
 62
7
  6
CONTINUOUS
 10
7.7568377306
 20
-62.3812511443
 11
11.1673086972
 21
-62.3812511443
  0
LINE
  5
292
100
AcDbEntity
  8
SMUSSO
100
AcDbLine
 62
7
  6
CONTINUOUS
 10
37.4568377306
 20
-62.3812511443
 11
40.8673086972
 21
-62.3812511443
  0
LINE
  5
293
100
AcDbEntity
  8
RACCORDO
100
AcDbLine
 62
7
  6
CONTINUOUS
 10
51.1934292935
 20
-62.3620492437
 11
41.1620732139
 21
-62.3620492437
  0
LINE
  5
294
100
AcDbEntity
  8
RACCORDO
100
AcDbLine
 62
7
  6
CONTINUOUS
 10
37.1620732139
 20
-62.3620492437
 11
27.1307171343
 21
-62.3620492437
  0
LINE
  5
295
100
AcDbEntity
  8
RACCORDO
100
AcDbLine
 62
7
  6
CONTINUOUS
 10
21.4934292935
 20
-62.3620492437
 11
11.4620732139
 21
-62.3620492437
  0
LINE
  5
296
100
AcDbEntity
  8
RACCORDO
100
AcDbLine
 62
7
  6
CONTINUOUS
 10
7.4620732139
 20
-62.3620492437
 11
-2.5692828657
 21
-62.3620492437
  0
LINE
  5
297
100
AcDbEntity
  8
RACCORDO
100
AcDbLine
 62
7
  6
CONTINUOUS
 10
-8.2065707065
 20
-62.3620492437
 11
-18.2379267861
 21
-62.3620492437
  0
LINE
  5
298
100
AcDbEntity
  8
RACCORDO
100
AcDbLine
 62
7
  6
CONTINUOUS
 10
-22.2379267861
 20
-62.3620492437
 11
-32.2692828657
 21
-62.3620492437
  0
LINE
  5
299
100
AcDbEntity
  8
RACCORDO
100
AcDbLine
 62
7
  6
CONTINUOUS
 10
60.3498222841
 20
-61.8488703348
 11
56.4515974256
 21
-61.8488703348
  0
LINE
  5
29A
100
AcDbEntity
  8
RACCORDO
100
AcDbLine
 62
7
  6
CONTINUOUS
 10
-37.5274509978
 20
-61.8488703348
 11
-41.4256758563
 21
-61.8488703348
  0
LINE
  5
29B
100
AcDbEntity
  8
RACCORDO
100
AcDbLine
 62
253
  6
CONTINUOUS
 10
-37.5269940833
 20
-61.8479564361
 11
-35.9184320043
 21
-61.8479564361
  0
LINE
  5
29C
100
AcDbEntity
  8
RACCORDO
100
AcDbLine
 62
253
  6
CONTINUOUS
 10
-34.2574215679
 20
-61.8479564361
 11
-6.2184320043
 21
-61.8479564361
  0
LINE
  5
29D
100
AcDbEntity
  8
RACCORDO
100
AcDbLine
 62
253
  6
CONTINUOUS
 10
-4.5574215679
 20
-61.8479564361
 11
23.4815679957
 21
-61.8479564361
  0
LINE
  5
29E
100
AcDbEntity
  8
RACCORDO
100
AcDbLine
 62
253
  6
CONTINUOUS
 10
25.1425784321
 20
-61.8479564361
 11
53.1815679957
 21
-61.8479564361
  0
LINE
  5
29F
100
AcDbEntity
  8
RACCORDO
100
AcDbLine
 62
253
  6
CONTINUOUS
 10
54.8425784321
 20
-61.8479564361
 11
56.4511405111
 21
-61.8479564361
  0
LINE
  5
2A0
100
AcDbEntity
  8
RACCORDO
100
AcDbLine
 62
7
  6
CONTINUOUS
 10
54.8120732139
 20
-61.2484133506
 11
53.2120732139
 21
-61.2484133506
  0
LINE
  5
2A1
100
AcDbEntity
  8
RACCORDO
100
AcDbLine
 62
7
  6
CONTINUOUS
 10
25.1120732139
 20
-61.2484133506
 11
23.5120732139
 21
-61.2484133506
  0
LINE
  5
2A2
100
AcDbEntity
  8
RACCORDO
100
AcDbLine
 62
7
  6
CONTINUOUS
 10
-4.5879267861
 20
-61.2484133506
 11
-6.1879267861
 21
-61.2484133506
  0
LINE
  5
2A3
100
AcDbEntity
  8
RACCORDO
100
AcDbLine
 62
7
  6
CONTINUOUS
 10
-34.2879267861
 20
-61.2484133506
 11
-35.8879267861
 21
-61.2484133506
  0
LINE
  5
2A4
100
AcDbEntity
  8
DRAFT
100
AcDbLine
 62
7
  6
CONTINUOUS
 10
59.8490053449
 20
-60.6397912879
 11
56.9515403124
 21
-60.6397912879
  0
LINE
  5
2A5
100
AcDbEntity
  8
DRAFT
100
AcDbLine
 62
7
  6
CONTINUOUS
 10
-38.0273938846
 20
-60.6397912879
 11
-40.9248589171
 21
-60.6397912879
  0
LINE
  5
2A6
100
AcDbEntity
  8
SMUSSO
100
AcDbLine
 62
7
  6
CONTINUOUS
 10
-21.9431622694
 20
-62.3812511443
 11
-22.2379267861
 21
-62.3620492437
  0
LINE
  5
2A7
100
AcDbEntity
  8
SMUSSO
100
AcDbLine
 62
7
  6
CONTINUOUS
 10
7.7568377306
 20
-62.3812511443
 11
7.4620732139
 21
-62.3620492437
  0
LINE
  5
2A8
100
AcDbEntity
  8
SMUSSO
100
AcDbLine
 62
7
  6
CONTINUOUS
 10
37.4568377306
 20
-62.3812511443
 11
37.1620732139
 21
-62.3620492437
  0
LINE
  5
2A9
100
AcDbEntity
  8
SMUSSO
100
AcDbLine
 62
7
  6
CONTINUOUS
 10
-21.9431622694
 20
26.0427343715
 11
-21.8092080782
 21
26.5514605748
  0
LINE
  5
2AA
100
AcDbEntity
  8
DRAFT
100
AcDbLine
 62
7
  6
CONTINUOUS
 10
-18.5379267861
 20
19.3004107056
 11
-18.8117988782
 21
18.2783061431
  0
LINE
  5
2AB
100
AcDbEntity
  8
DRAFT
100
AcDbLine
 62
7
  6
CONTINUOUS
 10
-18.3047321574
 20
19.4894297699
 11
-18.6737430537
 21
18.1122623563
  0
LINE
  5
2AC
100
AcDbEntity
  8
DRAFT
100
AcDbLine
 62
7
  6
CONTINUOUS
 10
-44.7553650648
 20
-58.5191811263
 11
-44.9466898537
 21
-59.0930972135
  0
LINE
  5
2AD
100
AcDbEntity
  8
DRAFT
100
AcDbLine
 62
7
  6
CONTINUOUS
 10
-3.9426571757
 20
27.9791096655
 11
-4.0910252276
 21
27.8307416136
  0
LINE
  5
2AE
100
AcDbEntity
  8
RACCORDO
100
AcDbLine
 62
7
  6
CONTINUOUS
 10
-4.0690544084
 20
25.9978068228
 11
-4.5574215679
 21
25.5094396633
  0
LINE
  5
2AF
100
AcDbEntity
  8
RACCORDO
100
AcDbLine
 62
7
  6
CONTINUOUS
 10
-46.2166248358
 20
-18.9997636046
 11
-46.7049919953
 21
-19.4881307641
  0
LINE
  5
2B0
100
AcDbEntity
  8
DRAFT
100
AcDbLine
 62
7
  6
CONTINUOUS
 10
59.7369469481
 20
-60.3692583864
 11
57.2220732139
 21
-60.3692583864
  0
LINE
  5
2B1
100
AcDbEntity
  8
DRAFT
100
AcDbLine
 62
7
  6
CONTINUOUS
 10
-38.2979267861
 20
-60.3692583864
 11
-40.8128005203
 21
-60.3692583864
  0
LINE
  5
2B2
100
AcDbEntity
  8
RACCORDO
100
AcDbLine
 62
253
  6
CONTINUOUS
 10
56.9296850652
 20
-58.8484133506
 11
-38.0055386374
 21
-58.8484133506
  0
LINE
  5
2B3
100
AcDbEntity
  8
DRAFT
100
AcDbLine
 62
7
  6
CONTINUOUS
 10
-43.5178257734
 20
-57.6642331332
 11
-43.9004170718
 21
-57.6642331332
  0
LINE
  5
2B4
100
AcDbEntity
  8
DRAFT
100
AcDbLine
 62
7
  6
CONTINUOUS
 10
62.4419722012
 20
-57.6642331332
 11
62.8245634996
 21
-57.6642331332
  0
LINE
  5
2B5
100
AcDbEntity
  8
DRAFT
100
AcDbLine
 62
7
  6
CONTINUOUS
 10
-4.0910252276
 20
-64.1692583864
 11
-3.9426571757
 21
-64.3176264383
  0
LINE
  5
2B6
100
AcDbEntity
  8
RACCORDO
100
AcDbLine
 62
7
  6
CONTINUOUS
 10
-4.0690544084
 20
-62.3363235956
 11
-4.5574215679
 21
-61.8479564361
  0
LINE
  5
2B7
100
AcDbEntity
  8
RACCORDO
100
AcDbLine
 62
7
  6
CONTINUOUS
 10
-46.2166248358
 20
-17.3387531682
 11
-46.7049919953
 21
-16.8503860087
  0
LINE
  5
2B8
100
AcDbEntity
  8
DRAFT
100
AcDbLine
 62
7
  6
CONTINUOUS
 10
-44.7553650648
 20
22.1806643535
 11
-44.9466898537
 21
22.7545804407
  0
LINE
  5
2B9
100
AcDbEntity
  8
SMUSSO
100
AcDbLine
 62
7
  6
CONTINUOUS
 10
-21.8092080782
 20
-62.8899773475
 11
-21.9431622694
 21
-62.3812511443
  0
LINE
  5
2BA
100
AcDbEntity
  8
DRAFT
100
AcDbLine
 62
7
  6
CONTINUOUS
 10
-18.2879267861
 20
16.3098921803
 11
-18.5615383589
 21
15.2887598889
  0
LINE
  5
2BB
100
AcDbEntity
  8
DRAFT
100
AcDbLine
 62
7
  6
CONTINUOUS
 10
-18.055168174
 20
16.4972840084
 11
-18.4235262026
 21
15.1225531302
  0
LINE
  5
2BC
100
AcDbEntity
  8
DRAFT
100
AcDbLine
 62
7
  6
CONTINUOUS
 10
-18.0379267861
 20
13.3188300953
 11
-18.3111294305
 21
12.2992239456
  0
LINE
  5
2BD
100
AcDbEntity
  8
DRAFT
100
AcDbLine
 62
7
  6
CONTINUOUS
 10
-17.85214341
 20
13.4671629836
 11
-18.2007408076
 21
12.1661797842
  0
LINE
  5
2BE
100
AcDbEntity
  8
RACCORDO
100
AcDbLine
 62
7
  6
CONTINUOUS
 10
-42.8687384769
 20
-53.9292583864
 11
-42.7476273402
 21
-53.6368702377
  0
LINE
  5
2BF
100
AcDbEntity
  8
DRAFT
100
AcDbLine
 62
7
  6
CONTINUOUS
 10
-41.6498097197
 20
-62.3899773475
 11
-41.4256758563
 21
-61.8488703348
  0
LINE
  5
2C0
100
AcDbEntity
  8
DRAFT
100
AcDbLine
 62
7
  6
CONTINUOUS
 10
-40.8128005203
 20
-60.3692583864
 11
-40.9248589171
 21
-60.6397912879
  0
LINE
  5
2C1
100
AcDbEntity
  8
DRAFT
100
AcDbLine
 62
7
  6
CONTINUOUS
 10
51.9096377434
 20
-40.4431304785
 11
52.9317423059
 21
-40.1692583864
  0
LINE
  5
2C2
100
AcDbEntity
  8
DRAFT
100
AcDbLine
 62
7
  6
CONTINUOUS
 10
51.7435939566
 20
-40.305074654
 11
53.1207613702
 21
-39.9360637577
  0
LINE
  5
2C3
100
AcDbEntity
  8
DRAFT
100
AcDbLine
 62
7
  6
CONTINUOUS
 10
48.9200914892
 20
-40.1928699592
 11
49.9412237806
 21
-39.9192583864
  0
LINE
  5
2C4
100
AcDbEntity
  8
DRAFT
100
AcDbLine
 62
7
  6
CONTINUOUS
 10
48.7538847305
 20
-40.0548578029
 11
50.1286156087
 21
-39.6864997743
  0
LINE
  5
2C5
100
AcDbEntity
  8
DRAFT
100
AcDbLine
 62
7
  6
CONTINUOUS
 10
45.9305555459
 20
-39.9424610308
 11
46.9501616956
 21
-39.6692583864
  0
LINE
  5
2C6
100
AcDbEntity
  8
DRAFT
100
AcDbLine
 62
7
  6
CONTINUOUS
 10
45.7975113845
 20
-39.8320724079
 11
47.0984945839
 21
-39.4834750103
  0
LINE
  5
2C7
100
AcDbEntity
  8
SMUSSO
100
AcDbLine
 62
7
  6
CONTINUOUS
 10
66.182792175
 20
-35.9905396785
 11
65.6740659718
 21
-36.1244938697
  0
LINE
  5
2C8
100
AcDbEntity
  8
DRAFT
100
AcDbLine
 62
7
  6
CONTINUOUS
 10
-44.7379267861
 20
-53.9292583864
 11
-42.8687384769
 21
-53.9292583864
  0
LINE
  5
2C9
100
AcDbEntity
  8
DRAFT
100
AcDbLine
 62
7
  6
CONTINUOUS
 10
61.7928849047
 20
-53.9292583864
 11
63.6620732139
 21
-53.9292583864
  0
LINE
  5
2CA
100
AcDbEntity
  8
RACCORDO
100
AcDbLine
 62
7
  6
CONTINUOUS
 10
64.6416851594
 20
-53.6587254849
 11
63.9326061154
 21
-53.6587254849
  0
LINE
  5
2CB
100
AcDbEntity
  8
RACCORDO
100
AcDbLine
 62
7
  6
CONTINUOUS
 10
-45.0084596876
 20
-53.6587254849
 11
-45.7175387316
 21
-53.6587254849
  0
LINE
  5
2CC
100
AcDbEntity
  8
RACCORDO
100
AcDbLine
 62
7
  6
CONTINUOUS
 10
62.1412281781
 20
-53.6368702377
 11
61.671773768
 21
-53.6368702377
  0
LINE
  5
2CD
100
AcDbEntity
  8
RACCORDO
100
AcDbLine
 62
7
  6
CONTINUOUS
 10
-42.7476273402
 20
-53.6368702377
 11
-43.2170817503
 21
-53.6368702377
  0
LINE
  5
2CE
100
AcDbEntity
  8
RACCORDO
100
AcDbLine
 62
253
  6
CONTINUOUS
 10
62.1412281781
 20
-53.1368892762
 11
61.4646748729
 21
-53.1368892762
  0
LINE
  5
2CF
100
AcDbEntity
  8
RACCORDO
100
AcDbLine
 62
253
  6
CONTINUOUS
 10
-42.5405284451
 20
-53.1368892762
 11
-43.2170817503
 21
-53.1368892762
  0
LINE
  5
2D0
100
AcDbEntity
  8
RACCORDO
100
AcDbLine
 62
253
  6
CONTINUOUS
 10
-54.4854092633
 20
-49.1692583864
 11
-55.5379267861
 21
-49.1692583864
  0
LINE
  5
2D1
100
AcDbEntity
  8
RACCORDO
100
AcDbLine
 62
253
  6
CONTINUOUS
 10
73.4095556911
 20
-49.1692583864
 11
74.4620732139
 21
-49.1692583864
  0
LINE
  5
2D2
100
AcDbEntity
  8
SMUSSO
100
AcDbLine
 62
7
  6
CONTINUOUS
 10
-46.749919544
 20
-36.1244938697
 11
-47.2586457472
 21
-35.9905396785
  0
LINE
  5
2D3
100
AcDbEntity
  8
RACCORDO
100
AcDbLine
 62
7
  6
CONTINUOUS
 10
-42.8687384769
 20
17.5907416136
 11
-42.7476273402
 21
17.298353465
  0
LINE
  5
2D4
100
AcDbEntity
  8
DRAFT
100
AcDbLine
 62
7
  6
CONTINUOUS
 10
-41.6498097197
 20
26.0514605748
 11
-41.4256758563
 21
25.510353562
  0
LINE
  5
2D5
100
AcDbEntity
  8
DRAFT
100
AcDbLine
 62
7
  6
CONTINUOUS
 10
-40.8128005203
 20
24.0307416136
 11
-40.9248589171
 21
24.3012745151
  0
LINE
  5
2D6
100
AcDbEntity
  8
DRAFT
100
AcDbLine
 62
7
  6
CONTINUOUS
 10
-17.2237101622
 20
-7.8056797564
 11
-16.8751127646
 21
-6.504696557
  0
LINE
  5
2D7
100
AcDbEntity
  8
DRAFT
100
AcDbLine
 62
7
  6
CONTINUOUS
 10
-17.0379267861
 20
-7.6573468681
 11
-16.7647241417
 21
-6.6377407184
  0
LINE
  5
2D8
100
AcDbEntity
  8
DRAFT
100
AcDbLine
 62
7
  6
CONTINUOUS
 10
-17.0206853982
 20
-10.8358007812
 11
-16.6523273696
 21
-9.461069903
  0
LINE
  5
2D9
100
AcDbEntity
  8
DRAFT
100
AcDbLine
 62
7
  6
CONTINUOUS
 10
-16.7879267861
 20
-10.6484089531
 11
-16.5143152133
 21
-9.6272766617
  0
LINE
  5
2DA
100
AcDbEntity
  8
DRAFT
100
AcDbLine
 62
7
  6
CONTINUOUS
 10
-16.7711214148
 20
-13.8279465427
 11
-16.4021105185
 21
-12.4507791291
  0
LINE
  5
2DB
100
AcDbEntity
  8
DRAFT
100
AcDbLine
 62
7
  6
CONTINUOUS
 10
-16.5379267861
 20
-13.6389274784
 11
-16.264054694
 21
-12.6168229159
  0
LINE
  5
2DC
100
AcDbEntity
  8
DRAFT
100
AcDbLine
 62
7
  6
CONTINUOUS
 10
-1.3019401144
 20
27.9791096655
 11
0.5918930649
 21
33.1823735617
  0
LINE
  5
2DD
100
AcDbEntity
  8
DRAFT
100
AcDbLine
 62
7
  6
CONTINUOUS
 10
1.1918499709
 20
34.8307416136
 11
1.373835088
 21
35.3307416136
  0
LINE
  5
2DE
100
AcDbEntity
  8
DRAFT
100
AcDbLine
 62
7
  6
CONTINUOUS
 10
23.0151716554
 20
33.3307416136
 11
22.8668036035
 21
33.1823735617
  0
LINE
  5
2DF
100
AcDbEntity
  8
DRAFT
100
AcDbLine
 62
7
  6
CONTINUOUS
 10
27.1266350433
 20
-38.5064443648
 11
25.8256518439
 21
-38.8550417625
  0
LINE
  5
2E0
100
AcDbEntity
  8
DRAFT
100
AcDbLine
 62
7
  6
CONTINUOUS
 10
26.9935908819
 20
-38.396055742
 11
25.9739847322
 21
-38.6692583864
  0
LINE
  5
2E1
100
AcDbEntity
  8
DRAFT
100
AcDbLine
 62
7
  6
CONTINUOUS
 10
22.8668036035
 20
-69.5208903345
 11
23.0151716554
 21
-69.6692583864
  0
LINE
  5
2E2
100
AcDbEntity
  8
DRAFT
100
AcDbLine
 62
7
  6
CONTINUOUS
 10
-1.3019401144
 20
-64.3176264383
 11
0.5918930649
 21
-69.5208903345
  0
LINE
  5
2E3
100
AcDbEntity
  8
DRAFT
100
AcDbLine
 62
7
  6
CONTINUOUS
 10
1.1918499709
 20
-71.1692583864
 11
1.373835088
 21
-71.6692583864
  0
LINE
  5
2E4
100
AcDbEntity
  8
DRAFT
100
AcDbLine
 62
7
  6
CONTINUOUS
 10
-18.8117988782
 20
-12.6168229159
 11
-18.5379267861
 21
-13.6389274784
  0
LINE
  5
2E5
100
AcDbEntity
  8
DRAFT
100
AcDbLine
 62
7
  6
CONTINUOUS
 10
-18.6737430537
 20
-12.4507791291
 11
-18.3047321574
 21
-13.8279465427
  0
LINE
  5
2E6
100
AcDbEntity
  8
DRAFT
100
AcDbLine
 62
7
  6
CONTINUOUS
 10
-18.5615383589
 20
-9.6272766617
 11
-18.2879267861
 21
-10.6484089531
  0
LINE
  5
2E7
100
AcDbEntity
  8
DRAFT
100
AcDbLine
 62
7
  6
CONTINUOUS
 10
-18.4235262026
 20
-9.461069903
 11
-18.055168174
 21
-10.8358007812
  0
LINE
  5
2E8
100
AcDbEntity
  8
DRAFT
100
AcDbLine
 62
7
  6
CONTINUOUS
 10
-18.3111294305
 20
-6.6377407184
 11
-18.0379267861
 21
-7.6573468681
  0
LINE
  5
2E9
100
AcDbEntity
  8
RACCORDO
100
AcDbLine
 62
7
  6
CONTINUOUS
 10
-3.5465020021
 20
33.1393926738
 11
-3.6426571757
 21
32.6574415806
  0
LINE
  5
2EA
100
AcDbEntity
  8
DRAFT
100
AcDbLine
 62
7
  6
CONTINUOUS
 10
-3.9426571757
 20
27.9791096655
 11
-3.8379267861
 21
28.5040416466
  0
LINE
  5
2EB
100
AcDbEntity
  8
RACCORDO
100
AcDbLine
 62
253
  6
CONTINUOUS
 10
-38.0273938846
 20
-61.3488703319
 11
-38.0269750448
 21
-61.3480325885
  0
LINE
  5
2EC
100
AcDbEntity
  8
RACCORDO
100
AcDbLine
 62
253
  6
CONTINUOUS
 10
-37.5274509978
 20
-61.8488703348
 11
-37.5269940833
 21
-61.8479564361
  0
LINE
  5
2ED
100
AcDbEntity
  8
0
100
AcDbLine
 62
7
  6
CONTINUOUS
 10
-42.0607703928
 20
-58.0216870127
 11
-42.3221921961
 21
-58.4479013259
  0
LINE
  5
2EE
100
AcDbEntity
  8
RACCORDO
100
AcDbLine
 62
7
  6
CONTINUOUS
 10
25.6309455916
 20
25.9978068228
 11
25.1425784321
 21
25.5094396633
  0
LINE
  5
2EF
100
AcDbEntity
  8
RACCORDO
100
AcDbLine
 62
7
  6
CONTINUOUS
 10
57.2220732139
 20
22.1615533044
 11
56.9296850652
 21
22.0404421678
  0
LINE
  5
2F0
100
AcDbEntity
  8
DRAFT
100
AcDbLine
 62
7
  6
CONTINUOUS
 10
61.8119959538
 20
24.0481798923
 11
62.385912041
 21
24.2395046812
  0
LINE
  5
2F1
100
AcDbEntity
  8
DRAFT
100
AcDbLine
 62
7
  6
CONTINUOUS
 10
24.1702616973
 20
-38.2836589699
 11
22.7955308191
 21
-38.6520169985
  0
LINE
  5
2F2
100
AcDbEntity
  8
DRAFT
100
AcDbLine
 62
7
  6
CONTINUOUS
 10
24.0040549386
 20
-38.1456468136
 11
22.9829226472
 21
-38.4192583864
  0
LINE
  5
2F3
100
AcDbEntity
  8
DRAFT
100
AcDbLine
 62
7
  6
CONTINUOUS
 10
21.1805524712
 20
-38.0334421188
 11
19.8033850576
 21
-38.4024530151
  0
LINE
  5
2F4
100
AcDbEntity
  8
DRAFT
100
AcDbLine
 62
7
  6
CONTINUOUS
 10
21.0145086844
 20
-37.8953862943
 11
19.9924041219
 21
-38.1692583864
  0
LINE
  5
2F5
100
AcDbEntity
  8
DRAFT
100
AcDbLine
 62
7
  6
CONTINUOUS
 10
12.9620732139
 20
-41.5983123085
 11
10.4620732139
 21
-41.5983123085
  0
LINE
  5
2F6
100
AcDbEntity
  8
DRAFT
100
AcDbLine
 62
7
  6
CONTINUOUS
 10
8.4620732139
 20
-41.5983123085
 11
5.9620732139
 21
-41.5983123085
  0
LINE
  5
2F7
100
AcDbEntity
  8
DRAFT
100
AcDbLine
 62
7
  6
CONTINUOUS
 10
19.9924041219
 20
-40.1692583864
 11
21.0145086844
 21
-40.4431304785
  0
LINE
  5
2F8
100
AcDbEntity
  8
DRAFT
100
AcDbLine
 62
7
  6
CONTINUOUS
 10
19.8033850576
 20
-39.9360637577
 11
21.1805524712
 21
-40.305074654
  0
LINE
  5
2F9
100
AcDbEntity
  8
DRAFT
100
AcDbLine
 62
7
  6
CONTINUOUS
 10
61.8119959538
 20
-60.3866966651
 11
62.385912041
 21
-60.578021454
  0
LINE
  5
2FA
100
AcDbEntity
  8
RACCORDO
100
AcDbLine
 62
7
  6
CONTINUOUS
 10
57.2220732139
 20
-58.5000700772
 11
56.9296850652
 21
-58.3789589405
  0
LINE
  5
2FB
100
AcDbEntity
  8
RACCORDO
100
AcDbLine
 62
7
  6
CONTINUOUS
 10
25.6309455916
 20
-62.3363235956
 11
25.1425784321
 21
-61.8479564361
  0
LINE
  5
2FC
100
AcDbEntity
  8
RACCORDO
100
AcDbLine
 62
253
  6
CONTINUOUS
 10
-38.0269750448
 20
25.0095158157
 11
-38.0273938846
 21
25.0103535591
  0
LINE
  5
2FD
100
AcDbEntity
  8
RACCORDO
100
AcDbLine
 62
253
  6
CONTINUOUS
 10
-37.5269940833
 20
25.5094396633
 11
-37.5274509978
 21
25.510353562
  0
LINE
  5
2FE
100
AcDbEntity
  8
DRAFT
100
AcDbLine
 62
7
  6
CONTINUOUS
 10
-18.2007408076
 20
-6.504696557
 11
-17.85214341
 21
-7.8056797564
  0
LINE
  5
2FF
100
AcDbEntity
  8
RACCORDO
100
AcDbLine
 62
7
  6
CONTINUOUS
 10
-3.6426571757
 20
-68.9959583534
 11
-3.5465020021
 21
-69.4779094466
  0
LINE
  5
300
100
AcDbEntity
  8
DRAFT
100
AcDbLine
 62
7
  6
CONTINUOUS
 10
-3.8379267861
 20
-64.8425584194
 11
-3.9426571757
 21
-64.3176264383
  0
LINE
  5
301
100
AcDbEntity
  8
ASSI
100
AcDbLine
 62
7
  6
CONTINUOUS
 10
-6.5379267861
 20
8.7655758897
 11
-6.5379267861
 21
10.6511445712
  0
LINE
  5
302
100
AcDbEntity
  8
ASSI
100
AcDbLine
 62
7
  6
CONTINUOUS
 10
-6.5379267861
 20
13.7477559746
 11
-6.5379267861
 21
15.1247980927
  0
LINE
  5
303
100
AcDbEntity
  8
ASSI
100
AcDbLine
 62
7
  6
CONTINUOUS
 10
-6.4379267861
 20
15.0362024324
 11
-6.4379267861
 21
13.6394842599
  0
LINE
  5
304
100
AcDbEntity
  8
ASSI
100
AcDbLine
 62
7
  6
CONTINUOUS
 10
-6.4379267861
 20
10.4996315766
 11
-6.4379267861
 21
8.5695125601
  0
LINE
  5
305
100
AcDbEntity
  8
DRAFT
100
AcDbLine
 62
7
  6
CONTINUOUS
 10
-4.0910252276
 20
-69.6692583864
 11
-4.0910252276
 21
-64.1692583864
  0
LINE
  5
306
100
AcDbEntity
  8
DRAFT
100
AcDbLine
 62
7
  6
CONTINUOUS
 10
-4.0910252276
 20
27.8307416136
 11
-4.0910252276
 21
33.3307416136
  0
LINE
  5
307
100
AcDbEntity
  8
DRAFT
100
AcDbLine
 62
7
  6
CONTINUOUS
 10
-3.8379267861
 20
-68.9959583534
 11
-3.8379267861
 21
-64.8425584194
  0
LINE
  5
308
100
AcDbEntity
  8
DRAFT
100
AcDbLine
 62
7
  6
CONTINUOUS
 10
-3.8379267861
 20
28.5040416466
 11
-3.8379267861
 21
32.6574415806
  0
LINE
  5
309
100
AcDbEntity
  8
DRAFT
100
AcDbLine
 62
7
  6
CONTINUOUS
 10
-3.3926571757
 20
28.6087720362
 11
-3.3926571757
 21
28.5040416466
  0
LINE
  5
30A
100
AcDbEntity
  8
DRAFT
100
AcDbLine
 62
7
  6
CONTINUOUS
 10
-3.3926571757
 20
-64.8425584194
 11
-3.3926571757
 21
-64.947288809
  0
LINE
  5
30B
100
AcDbEntity
  8
SMUSSO
100
AcDbLine
 62
7
  6
CONTINUOUS
 10
-18.5326913028
 20
-62.3812511443
 11
-18.666645494
 21
-62.8899773475
  0
LINE
  5
30C
100
AcDbEntity
  8
SMUSSO
100
AcDbLine
 62
7
  6
CONTINUOUS
 10
7.7568377306
 20
26.0427343715
 11
7.8907919218
 21
26.5514605748
  0
LINE
  5
30D
100
AcDbEntity
  8
RACCORDO
100
AcDbLine
 62
7
  6
CONTINUOUS
 10
-46.2166248358
 20
-51.5497636046
 11
-46.7586457472
 21
-52.091784516
  0
LINE
  5
30E
100
AcDbEntity
  8
DRAFT
100
AcDbLine
 62
7
  6
CONTINUOUS
 10
65.682792175
 20
20.9426245472
 11
65.1416851623
 21
20.7184906838
  0
LINE
  5
30F
100
AcDbEntity
  8
DRAFT
100
AcDbLine
 62
7
  6
CONTINUOUS
 10
63.6620732139
 20
20.1056153478
 11
63.9326061154
 21
20.2176737446
  0
LINE
  5
310
100
AcDbEntity
  8
0
100
AcDbLine
 62
7
  6
CONTINUOUS
 10
5.9620732139
 20
-33.6192583864
 11
8.4620732139
 21
-33.6192583864
  0
LINE
  5
311
100
AcDbEntity
  8
0
100
AcDbLine
 62
7
  6
CONTINUOUS
 10
10.4620732139
 20
-33.6192583864
 11
12.9620732139
 21
-33.6192583864
  0
LINE
  5
312
100
AcDbEntity
  8
DRAFT
100
AcDbLine
 62
7
  6
CONTINUOUS
 10
22.9829226472
 20
-39.9192583864
 11
24.0040549386
 21
-40.1928699592
  0
LINE
  5
313
100
AcDbEntity
  8
DRAFT
100
AcDbLine
 62
7
  6
CONTINUOUS
 10
22.7955308191
 20
-39.6864997743
 11
24.1702616973
 21
-40.0548578029
  0
LINE
  5
314
100
AcDbEntity
  8
DRAFT
100
AcDbLine
 62
7
  6
CONTINUOUS
 10
25.9739847322
 20
-39.6692583864
 11
26.9935908819
 21
-39.9424610308
  0
LINE
  5
315
100
AcDbEntity
  8
DRAFT
100
AcDbLine
 62
7
  6
CONTINUOUS
 10
25.8256518439
 20
-39.4834750103
 11
27.1266350433
 21
-39.8320724079
  0
LINE
  5
316
100
AcDbEntity
  8
DRAFT
100
AcDbLine
 62
7
  6
CONTINUOUS
 10
65.682792175
 20
-57.28114132
 11
65.1416851623
 21
-57.0570074566
  0
LINE
  5
317
100
AcDbEntity
  8
DRAFT
100
AcDbLine
 62
7
  6
CONTINUOUS
 10
63.6620732139
 20
-56.4441321205
 11
63.9326061154
 21
-56.5561905174
  0
LINE
  5
318
100
AcDbEntity
  8
RACCORDO
100
AcDbLine
 62
7
  6
CONTINUOUS
 10
-46.2166248358
 20
15.2112468318
 11
-46.7586457472
 21
15.7532677432
  0
LINE
  5
319
100
AcDbEntity
  8
DRAFT
100
AcDbLine
 62
7
  6
CONTINUOUS
 10
-16.8751127646
 20
12.1661797842
 11
-17.2237101622
 21
13.4671629836
  0
LINE
  5
31A
100
AcDbEntity
  8
DRAFT
100
AcDbLine
 62
7
  6
CONTINUOUS
 10
-16.7647241417
 20
12.2992239456
 11
-17.0379267861
 21
13.3188300953
  0
LINE
  5
31B
100
AcDbEntity
  8
DRAFT
100
AcDbLine
 62
7
  6
CONTINUOUS
 10
-16.6523273696
 20
15.1225531302
 11
-17.0206853982
 21
16.4972840084
  0
LINE
  5
31C
100
AcDbEntity
  8
DRAFT
100
AcDbLine
 62
7
  6
CONTINUOUS
 10
-16.5143152133
 20
15.2887598889
 11
-16.7879267861
 21
16.3098921803
  0
LINE
  5
31D
100
AcDbEntity
  8
DRAFT
100
AcDbLine
 62
7
  6
CONTINUOUS
 10
-16.4021105185
 20
18.1122623563
 11
-16.7711214148
 21
19.4894297699
  0
LINE
  5
31E
100
AcDbEntity
  8
DRAFT
100
AcDbLine
 62
7
  6
CONTINUOUS
 10
-16.264054694
 20
18.2783061431
 11
-16.5379267861
 21
19.3004107056
  0
LINE
  5
31F
100
AcDbEntity
  8
SMUSSO
100
AcDbLine
 62
7
  6
CONTINUOUS
 10
-18.666645494
 20
26.5514605748
 11
-18.5326913028
 21
26.0427343715
  0
LINE
  5
320
100
AcDbEntity
  8
SMUSSO
100
AcDbLine
 62
7
  6
CONTINUOUS
 10
7.8907919218
 20
-62.8899773475
 11
7.7568377306
 21
-62.3812511443
  0
LINE
  5
321
100
AcDbEntity
  8
DRAFT
100
AcDbLine
 62
7
  6
CONTINUOUS
 10
-44.7553650648
 20
-58.5191811263
 11
-43.9004170718
 21
-57.6642331332
  0
LINE
  5
322
100
AcDbEntity
  8
DRAFT
100
AcDbLine
 62
7
  6
CONTINUOUS
 10
-44.9466898537
 20
-59.0930972135
 11
-43.5178257734
 21
-57.6642331332
  0
LINE
  5
323
100
AcDbEntity
  8
RACCORDO
100
AcDbLine
 62
253
  6
CONTINUOUS
 10
-40.6995132013
 20
-54.97790452
 11
-41.0530531296
 21
-55.3314444484
  0
LINE
  5
324
100
AcDbEntity
  8
RACCORDO
100
AcDbLine
 62
253
  6
CONTINUOUS
 10
-39.3465729197
 20
-56.3308448015
 11
-39.7001128481
 21
-56.6843847299
  0
LINE
  5
325
100
AcDbEntity
  8
DRAFT
100
AcDbLine
 62
7
  6
CONTINUOUS
 10
-42.0329015329
 20
-59.1491573737
 11
-43.4617656132
 21
-60.578021454
  0
LINE
  5
326
100
AcDbEntity
  8
DRAFT
100
AcDbLine
 62
7
  6
CONTINUOUS
 10
-42.0329015329
 20
-59.5317486721
 11
-42.887849526
 21
-60.3866966651
  0
LINE
  5
327
100
AcDbEntity
  8
RACCORDO
100
AcDbLine
 62
253
  6
CONTINUOUS
 10
64.640847416
 20
17.3197898723
 11
64.6416851594
 21
17.3202087121
  0
LINE
  5
328
100
AcDbEntity
  8
RACCORDO
100
AcDbLine
 62
253
  6
CONTINUOUS
 10
65.1407712636
 20
16.8198089108
 11
65.1416851623
 21
16.8202658253
  0
LINE
  5
329
100
AcDbEntity
  8
DRAFT
100
AcDbLine
 62
7
  6
CONTINUOUS
 10
47.0984945839
 20
-38.8550417625
 11
45.7975113845
 21
-38.5064443648
  0
LINE
  5
32A
100
AcDbEntity
  8
DRAFT
100
AcDbLine
 62
7
  6
CONTINUOUS
 10
46.9501616956
 20
-38.6692583864
 11
45.9305555459
 21
-38.396055742
  0
LINE
  5
32B
100
AcDbEntity
  8
DRAFT
100
AcDbLine
 62
7
  6
CONTINUOUS
 10
50.1286156087
 20
-38.6520169985
 11
48.7538847305
 21
-38.2836589699
  0
LINE
  5
32C
100
AcDbEntity
  8
DRAFT
100
AcDbLine
 62
7
  6
CONTINUOUS
 10
49.9412237806
 20
-38.4192583864
 11
48.9200914892
 21
-38.1456468136
  0
LINE
  5
32D
100
AcDbEntity
  8
DRAFT
100
AcDbLine
 62
7
  6
CONTINUOUS
 10
53.1207613702
 20
-38.4024530151
 11
51.7435939566
 21
-38.0334421188
  0
LINE
  5
32E
100
AcDbEntity
  8
DRAFT
100
AcDbLine
 62
7
  6
CONTINUOUS
 10
52.9317423059
 20
-38.1692583864
 11
51.9096377434
 21
-37.8953862943
  0
LINE
  5
32F
100
AcDbEntity
  8
RACCORDO
100
AcDbLine
 62
253
  6
CONTINUOUS
 10
64.6416851594
 20
-53.6587254849
 11
64.640847416
 21
-53.6583066451
  0
LINE
  5
330
100
AcDbEntity
  8
RACCORDO
100
AcDbLine
 62
253
  6
CONTINUOUS
 10
65.1416851623
 20
-53.1587825981
 11
65.1407712636
 21
-53.1583256836
  0
LINE
  5
331
100
AcDbEntity
  8
DRAFT
100
AcDbLine
 62
7
  6
CONTINUOUS
 10
-43.9004170718
 20
21.3257163604
 11
-44.7553650648
 21
22.1806643535
  0
LINE
  5
332
100
AcDbEntity
  8
DRAFT
100
AcDbLine
 62
7
  6
CONTINUOUS
 10
-43.5178257734
 20
21.3257163604
 11
-44.9466898537
 21
22.7545804407
  0
LINE
  5
333
100
AcDbEntity
  8
RACCORDO
100
AcDbLine
 62
253
  6
CONTINUOUS
 10
-40.6995132013
 20
18.6393877472
 11
-41.0530531296
 21
18.9929276756
  0
LINE
  5
334
100
AcDbEntity
  8
RACCORDO
100
AcDbLine
 62
253
  6
CONTINUOUS
 10
-39.3465729197
 20
19.9923280288
 11
-39.7001128481
 21
20.3458679571
  0
LINE
  5
335
100
AcDbEntity
  8
DRAFT
100
AcDbLine
 62
7
  6
CONTINUOUS
 10
-43.4617656132
 20
24.2395046812
 11
-42.0329015329
 21
22.8106406009
  0
LINE
  5
336
100
AcDbEntity
  8
DRAFT
100
AcDbLine
 62
7
  6
CONTINUOUS
 10
-42.887849526
 20
24.0481798923
 11
-42.0329015329
 21
23.1932318993
  0
LINE
  5
337
100
AcDbEntity
  8
DRAFT
100
AcDbLine
 62
7
  6
CONTINUOUS
 10
5.9620732139
 20
-41.5983123085
 11
5.9620732139
 21
-33.6192583864
  0
LINE
  5
338
100
AcDbEntity
  8
DRAFT
100
AcDbLine
 62
7
  6
CONTINUOUS
 10
5.9620732139
 20
-2.7192583864
 11
5.9620732139
 21
5.2597955357
  0
LINE
  5
339
100
AcDbEntity
  8
DRAFT
100
AcDbLine
 62
7
  6
CONTINUOUS
 10
6.7557108762
 20
-33.6192583864
 11
6.7557108762
 21
-41.5983123085
  0
LINE
  5
33A
100
AcDbEntity
  8
DRAFT
100
AcDbLine
 62
7
  6
CONTINUOUS
 10
6.7557108762
 20
-2.7192583864
 11
6.7557108762
 21
5.2597955357
  0
LINE
  5
33B
100
AcDbEntity
  8
DRAFT
100
AcDbLine
 62
7
  6
CONTINUOUS
 10
8.4184355516
 20
-41.5983123085
 11
8.4184355516
 21
-33.6192583864
  0
LINE
  5
33C
100
AcDbEntity
  8
DRAFT
100
AcDbLine
 62
7
  6
CONTINUOUS
 10
8.4184355516
 20
-2.7192583864
 11
8.4184355516
 21
5.2597955357
  0
LINE
  5
33D
100
AcDbEntity
  8
DRAFT
100
AcDbLine
 62
7
  6
CONTINUOUS
 10
8.4620732139
 20
5.2597955357
 11
8.4620732139
 21
-2.7192583864
  0
LINE
  5
33E
100
AcDbEntity
  8
DRAFT
100
AcDbLine
 62
7
  6
CONTINUOUS
 10
8.4620732139
 20
-33.6192583864
 11
8.4620732139
 21
-41.5983123085
  0
LINE
  5
33F
100
AcDbEntity
  8
RACCORDO
100
AcDbLine
 62
7
  6
CONTINUOUS
 10
-3.2965020021
 20
-64.3606073262
 11
-3.3926571757
 21
-64.8425584194
  0
LINE
  5
340
100
AcDbEntity
  8
DRAFT
100
AcDbLine
 62
7
  6
CONTINUOUS
 10
-3.9426571757
 20
-69.5208903345
 11
-3.8379267861
 21
-68.9959583534
  0
LINE
  5
341
100
AcDbEntity
  8
RACCORDO
100
AcDbLine
 62
7
  6
CONTINUOUS
 10
-35.9184320043
 20
-61.8479564361
 11
-36.4604529157
 21
-62.3899773475
  0
LINE
  5
342
100
AcDbEntity
  8
SMUSSO
100
AcDbLine
 62
7
  6
CONTINUOUS
 10
66.182792175
 20
-3.4905396785
 11
65.6740659718
 21
-3.6244938697
  0
LINE
  5
343
100
AcDbEntity
  8
SMUSSO
100
AcDbLine
 62
7
  6
CONTINUOUS
 10
-47.2586457472
 20
-32.8479770943
 11
-46.749919544
 21
-32.7140229031
  0
LINE
  5
344
100
AcDbEntity
  8
SMUSSO
100
AcDbLine
 62
7
  6
CONTINUOUS
 10
-46.749919544
 20
-3.6244938697
 11
-47.2586457472
 21
-3.4905396785
  0
LINE
  5
345
100
AcDbEntity
  8
SMUSSO
100
AcDbLine
 62
7
  6
CONTINUOUS
 10
65.6740659718
 20
-32.7140229031
 11
66.182792175
 21
-32.8479770943
  0
LINE
  5
346
100
AcDbEntity
  8
RACCORDO
100
AcDbLine
 62
7
  6
CONTINUOUS
 10
-35.9184320043
 20
25.5094396633
 11
-36.4604529157
 21
26.0514605748
  0
LINE
  5
347
100
AcDbEntity
  8
RACCORDO
100
AcDbLine
 62
7
  6
CONTINUOUS
 10
-3.3926571757
 20
28.5040416466
 11
-3.2965020021
 21
28.0220905534
  0
LINE
  5
348
100
AcDbEntity
  8
DRAFT
100
AcDbLine
 62
7
  6
CONTINUOUS
 10
-3.8379267861
 20
32.6574415806
 11
-3.9426571757
 21
33.1823735617
  0
LINE
  5
349
100
AcDbEntity
  8
DRAFT
100
AcDbLine
 62
7
  6
CONTINUOUS
 10
10.4620732139
 20
-41.5983123085
 11
10.4620732139
 21
-33.6192583864
  0
LINE
  5
34A
100
AcDbEntity
  8
DRAFT
100
AcDbLine
 62
7
  6
CONTINUOUS
 10
10.4620732139
 20
-2.7192583864
 11
10.4620732139
 21
5.2597955357
  0
LINE
  5
34B
100
AcDbEntity
  8
DRAFT
100
AcDbLine
 62
7
  6
CONTINUOUS
 10
10.5057108762
 20
5.2597955357
 11
10.5057108762
 21
-2.7192583864
  0
LINE
  5
34C
100
AcDbEntity
  8
DRAFT
100
AcDbLine
 62
7
  6
CONTINUOUS
 10
10.5057108762
 20
-33.6192583864
 11
10.5057108762
 21
-41.5983123085
  0
LINE
  5
34D
100
AcDbEntity
  8
DRAFT
100
AcDbLine
 62
7
  6
CONTINUOUS
 10
12.1684355516
 20
-33.6192583864
 11
12.1684355516
 21
-41.5983123085
  0
LINE
  5
34E
100
AcDbEntity
  8
DRAFT
100
AcDbLine
 62
7
  6
CONTINUOUS
 10
12.1684355516
 20
-2.7192583864
 11
12.1684355516
 21
5.2597955357
  0
LINE
  5
34F
100
AcDbEntity
  8
DRAFT
100
AcDbLine
 62
7
  6
CONTINUOUS
 10
12.9620732139
 20
5.2597955357
 11
12.9620732139
 21
-2.7192583864
  0
LINE
  5
350
100
AcDbEntity
  8
DRAFT
100
AcDbLine
 62
7
  6
CONTINUOUS
 10
12.9620732139
 20
-33.6192583864
 11
12.9620732139
 21
-41.5983123085
  0
LINE
  5
351
100
AcDbEntity
  8
DRAFT
100
AcDbLine
 62
7
  6
CONTINUOUS
 10
22.7620732139
 20
32.6574415806
 11
22.8668036035
 21
33.1823735617
  0
LINE
  5
352
100
AcDbEntity
  8
RACCORDO
100
AcDbLine
 62
7
  6
CONTINUOUS
 10
22.3168036035
 20
28.5040416466
 11
22.2206484299
 21
28.0220905534
  0
LINE
  5
353
100
AcDbEntity
  8
RACCORDO
100
AcDbLine
 62
7
  6
CONTINUOUS
 10
54.8425784321
 20
25.5094396633
 11
55.3845993435
 21
26.0514605748
  0
LINE
  5
354
100
AcDbEntity
  8
RACCORDO
100
AcDbLine
 62
253
  6
CONTINUOUS
 10
-46.2166248358
 20
-53.1583256836
 11
-46.2175387345
 21
-53.1587825981
  0
LINE
  5
355
100
AcDbEntity
  8
RACCORDO
100
AcDbLine
 62
253
  6
CONTINUOUS
 10
-46.2175387345
 20
16.8202658253
 11
-46.2166248358
 21
16.8198089108
  0
LINE
  5
356
100
AcDbEntity
  8
RACCORDO
100
AcDbLine
 62
7
  6
CONTINUOUS
 10
54.8425784321
 20
-61.8479564361
 11
55.3845993435
 21
-62.3899773475
  0
LINE
  5
357
100
AcDbEntity
  8
DRAFT
100
AcDbLine
 62
7
  6
CONTINUOUS
 10
22.8668036035
 20
-69.5208903345
 11
22.7620732139
 21
-68.9959583534
  0
LINE
  5
358
100
AcDbEntity
  8
RACCORDO
100
AcDbLine
 62
7
  6
CONTINUOUS
 10
22.2206484299
 20
-64.3606073262
 11
22.3168036035
 21
-64.8425584194
  0
LINE
  5
359
100
AcDbEntity
  8
DRAFT
100
AcDbLine
 62
7
  6
CONTINUOUS
 10
22.3168036035
 20
28.6087720362
 11
22.3168036035
 21
28.5040416466
  0
LINE
  5
35A
100
AcDbEntity
  8
DRAFT
100
AcDbLine
 62
7
  6
CONTINUOUS
 10
22.3168036035
 20
-64.8425584194
 11
22.3168036035
 21
-64.947288809
  0
LINE
  5
35B
100
AcDbEntity
  8
SMUSSO
100
AcDbLine
 62
7
  6
CONTINUOUS
 10
11.1673086972
 20
-62.3812511443
 11
11.033354506
 21
-62.8899773475
  0
LINE
  5
35C
100
AcDbEntity
  8
DRAFT
100
AcDbLine
 62
7
  6
CONTINUOUS
 10
60.9570479607
 20
23.1932318993
 11
61.8119959538
 21
24.0481798923
  0
LINE
  5
35D
100
AcDbEntity
  8
DRAFT
100
AcDbLine
 62
7
  6
CONTINUOUS
 10
60.9570479607
 20
22.8106406009
 11
62.385912041
 21
24.2395046812
  0
LINE
  5
35E
100
AcDbEntity
  8
RACCORDO
100
AcDbLine
 62
253
  6
CONTINUOUS
 10
58.2707193475
 20
19.9923280288
 11
58.6242592759
 21
20.3458679571
  0
LINE
  5
35F
100
AcDbEntity
  8
RACCORDO
100
AcDbLine
 62
253
  6
CONTINUOUS
 10
59.6236596291
 20
18.6393877472
 11
59.9771995574
 21
18.9929276756
  0
LINE
  5
360
100
AcDbEntity
  8
DRAFT
100
AcDbLine
 62
7
  6
CONTINUOUS
 10
63.8708362815
 20
22.7545804407
 11
62.4419722012
 21
21.3257163604
  0
LINE
  5
361
100
AcDbEntity
  8
DRAFT
100
AcDbLine
 62
7
  6
CONTINUOUS
 10
63.6795114926
 20
22.1806643535
 11
62.8245634996
 21
21.3257163604
  0
LINE
  5
362
100
AcDbEntity
  8
RACCORDO
100
AcDbLine
 62
253
  6
CONTINUOUS
 10
-45.7167009882
 20
-53.6583066451
 11
-45.7175387316
 21
-53.6587254849
  0
LINE
  5
363
100
AcDbEntity
  8
DRAFT
100
AcDbLine
 62
7
  6
CONTINUOUS
 10
-34.0075958781
 20
1.8307416136
 11
-32.9854913156
 21
1.5568695215
  0
LINE
  5
364
100
AcDbEntity
  8
DRAFT
100
AcDbLine
 62
7
  6
CONTINUOUS
 10
-34.1966149424
 20
2.0639362423
 11
-32.8194475288
 21
1.694925346
  0
LINE
  5
365
100
AcDbEntity
  8
DRAFT
100
AcDbLine
 62
7
  6
CONTINUOUS
 10
-31.0170773528
 20
2.0807416136
 11
-29.9959450614
 21
1.8071300408
  0
LINE
  5
366
100
AcDbEntity
  8
DRAFT
100
AcDbLine
 62
7
  6
CONTINUOUS
 10
-31.2044691809
 20
2.3135002257
 11
-29.8297383027
 21
1.9451421971
  0
LINE
  5
367
100
AcDbEntity
  8
DRAFT
100
AcDbLine
 62
7
  6
CONTINUOUS
 10
-28.0260152678
 20
2.3307416136
 11
-27.0064091181
 21
2.0575389692
  0
LINE
  5
368
100
AcDbEntity
  8
DRAFT
100
AcDbLine
 62
7
  6
CONTINUOUS
 10
-28.1743481561
 20
2.5165249897
 11
-26.8733649567
 21
2.1679275921
  0
LINE
  5
369
100
AcDbEntity
  8
RACCORDO
100
AcDbLine
 62
253
  6
CONTINUOUS
 10
-45.7175387316
 20
17.3202087121
 11
-45.7167009882
 21
17.3197898723
  0
LINE
  5
36A
100
AcDbEntity
  8
DRAFT
100
AcDbLine
 62
7
  6
CONTINUOUS
 10
61.8119959538
 20
-60.3866966651
 11
60.9570479607
 21
-59.5317486721
  0
LINE
  5
36B
100
AcDbEntity
  8
DRAFT
100
AcDbLine
 62
7
  6
CONTINUOUS
 10
62.385912041
 20
-60.578021454
 11
60.9570479607
 21
-59.1491573737
  0
LINE
  5
36C
100
AcDbEntity
  8
RACCORDO
100
AcDbLine
 62
253
  6
CONTINUOUS
 10
58.2707193475
 20
-56.3308448015
 11
58.6242592759
 21
-56.6843847299
  0
LINE
  5
36D
100
AcDbEntity
  8
RACCORDO
100
AcDbLine
 62
253
  6
CONTINUOUS
 10
59.6236596291
 20
-54.97790452
 11
59.9771995574
 21
-55.3314444484
  0
LINE
  5
36E
100
AcDbEntity
  8
DRAFT
100
AcDbLine
 62
7
  6
CONTINUOUS
 10
62.4419722012
 20
-57.6642331332
 11
63.8708362815
 21
-59.0930972135
  0
LINE
  5
36F
100
AcDbEntity
  8
DRAFT
100
AcDbLine
 62
7
  6
CONTINUOUS
 10
62.8245634996
 20
-57.6642331332
 11
63.6795114926
 21
-58.5191811263
  0
LINE
  5
370
100
AcDbEntity
  8
SMUSSO
100
AcDbLine
 62
7
  6
CONTINUOUS
 10
11.033354506
 20
26.5514605748
 11
11.1673086972
 21
26.0427343715
  0
LINE
  5
371
100
AcDbEntity
  8
DRAFT
100
AcDbLine
 62
7
  6
CONTINUOUS
 10
22.7620732139
 20
-68.9959583534
 11
22.7620732139
 21
-64.8425584194
  0
LINE
  5
372
100
AcDbEntity
  8
DRAFT
100
AcDbLine
 62
7
  6
CONTINUOUS
 10
22.7620732139
 20
28.5040416466
 11
22.7620732139
 21
32.6574415806
  0
LINE
  5
373
100
AcDbEntity
  8
DRAFT
100
AcDbLine
 62
7
  6
CONTINUOUS
 10
23.0151716554
 20
-69.6692583864
 11
23.0151716554
 21
-64.1692583864
  0
LINE
  5
374
100
AcDbEntity
  8
DRAFT
100
AcDbLine
 62
7
  6
CONTINUOUS
 10
23.0151716554
 20
27.8307416136
 11
23.0151716554
 21
33.3307416136
  0
LINE
  5
375
100
AcDbEntity
  8
ASSI
100
AcDbLine
 62
7
  6
CONTINUOUS
 10
25.3620732139
 20
-51.3747192052
 11
25.3620732139
 21
-49.9780010327
  0
LINE
  5
376
100
AcDbEntity
  8
ASSI
100
AcDbLine
 62
7
  6
CONTINUOUS
 10
25.3620732139
 20
-46.8381483494
 11
25.3620732139
 21
-44.9080293329
  0
LINE
  5
377
100
AcDbEntity
  8
ASSI
100
AcDbLine
 62
7
  6
CONTINUOUS
 10
25.4620732139
 20
-45.1040926625
 11
25.4620732139
 21
-46.989661344
  0
LINE
  5
378
100
AcDbEntity
  8
ASSI
100
AcDbLine
 62
7
  6
CONTINUOUS
 10
25.4620732139
 20
-50.0862727474
 11
25.4620732139
 21
-51.4633148655
  0
LINE
  5
379
100
AcDbEntity
  8
SMUSSO
100
AcDbLine
 62
7
  6
CONTINUOUS
 10
37.4568377306
 20
26.0427343715
 11
37.5907919218
 21
26.5514605748
  0
LINE
  5
37A
100
AcDbEntity
  8
RACCORDO
100
AcDbLine
 62
7
  6
CONTINUOUS
 10
65.1407712636
 20
15.2112468318
 11
65.682792175
 21
15.7532677432
  0
LINE
  5
37B
100
AcDbEntity
  8
DRAFT
100
AcDbLine
 62
7
  6
CONTINUOUS
 10
-46.7586457472
 20
-57.28114132
 11
-46.2175387345
 21
-57.0570074566
  0
LINE
  5
37C
100
AcDbEntity
  8
DRAFT
100
AcDbLine
 62
7
  6
CONTINUOUS
 10
-44.7379267861
 20
-56.4441321205
 11
-45.0084596876
 21
-56.5561905174
  0
LINE
  5
37D
100
AcDbEntity
  8
RACCORDO
100
AcDbLine
 62
7
  6
CONTINUOUS
 10
-38.2979267861
 20
-58.5000700772
 11
-38.0055386374
 21
-58.3789589405
  0
LINE
  5
37E
100
AcDbEntity
  8
0
100
AcDbLine
 62
7
  6
CONTINUOUS
 10
12.9620732139
 20
-2.7192583864
 11
10.4620732139
 21
-2.7192583864
  0
LINE
  5
37F
100
AcDbEntity
  8
0
100
AcDbLine
 62
7
  6
CONTINUOUS
 10
8.4620732139
 20
-2.7192583864
 11
5.9620732139
 21
-2.7192583864
  0
LINE
  5
380
100
AcDbEntity
  8
DRAFT
100
AcDbLine
 62
7
  6
CONTINUOUS
 10
-6.9015054161
 20
3.1449582375
 11
-8.2024886155
 21
3.4935556352
  0
LINE
  5
381
100
AcDbEntity
  8
DRAFT
100
AcDbLine
 62
7
  6
CONTINUOUS
 10
-7.0498383044
 20
3.3307416136
 11
-8.0694444541
 21
3.603944258
  0
LINE
  5
382
100
AcDbEntity
  8
DRAFT
100
AcDbLine
 62
7
  6
CONTINUOUS
 10
-3.8713843913
 20
3.3479830015
 11
-5.2461152695
 21
3.7163410301
  0
LINE
  5
383
100
AcDbEntity
  8
DRAFT
100
AcDbLine
 62
7
  6
CONTINUOUS
 10
-4.0587762194
 20
3.5807416136
 11
-5.0799085108
 21
3.8543531864
  0
LINE
  5
384
100
AcDbEntity
  8
DRAFT
100
AcDbLine
 62
7
  6
CONTINUOUS
 10
-0.8792386298
 20
3.5975469849
 11
-2.2564060434
 21
3.9665578812
  0
LINE
  5
385
100
AcDbEntity
  8
DRAFT
100
AcDbLine
 62
7
  6
CONTINUOUS
 10
-1.0682576941
 20
3.8307416136
 11
-2.0903622566
 21
4.1046137057
  0
LINE
  5
386
100
AcDbEntity
  8
DRAFT
100
AcDbLine
 62
7
  6
CONTINUOUS
 10
-46.7586457472
 20
20.9426245472
 11
-46.2175387345
 21
20.7184906838
  0
LINE
  5
387
100
AcDbEntity
  8
DRAFT
100
AcDbLine
 62
7
  6
CONTINUOUS
 10
-44.7379267861
 20
20.1056153478
 11
-45.0084596876
 21
20.2176737446
  0
LINE
  5
388
100
AcDbEntity
  8
RACCORDO
100
AcDbLine
 62
7
  6
CONTINUOUS
 10
-38.2979267861
 20
22.1615533044
 11
-38.0055386374
 21
22.0404421678
  0
LINE
  5
389
100
AcDbEntity
  8
RACCORDO
100
AcDbLine
 62
7
  6
CONTINUOUS
 10
65.1407712636
 20
-51.5497636046
 11
65.682792175
 21
-52.091784516
  0
LINE
  5
38A
100
AcDbEntity
  8
DRAFT
100
AcDbLine
 62
7
  6
CONTINUOUS
 10
35.1882011218
 20
-54.6168229159
 11
35.4620732139
 21
-55.6389274784
  0
LINE
  5
38B
100
AcDbEntity
  8
DRAFT
100
AcDbLine
 62
7
  6
CONTINUOUS
 10
35.3262569463
 20
-54.4507791291
 11
35.6952678426
 21
-55.8279465427
  0
LINE
  5
38C
100
AcDbEntity
  8
DRAFT
100
AcDbLine
 62
7
  6
CONTINUOUS
 10
35.4384616411
 20
-51.6272766617
 11
35.7120732139
 21
-52.6484089531
  0
LINE
  5
38D
100
AcDbEntity
  8
DRAFT
100
AcDbLine
 62
7
  6
CONTINUOUS
 10
35.5764737974
 20
-51.461069903
 11
35.944831826
 21
-52.8358007812
  0
LINE
  5
38E
100
AcDbEntity
  8
DRAFT
100
AcDbLine
 62
7
  6
CONTINUOUS
 10
35.6888705695
 20
-48.6377407184
 11
35.9620732139
 21
-49.6573468681
  0
LINE
  5
38F
100
AcDbEntity
  8
DRAFT
100
AcDbLine
 62
7
  6
CONTINUOUS
 10
35.7992591924
 20
-48.504696557
 11
36.14785659
 21
-49.8056797564
  0
LINE
  5
390
100
AcDbEntity
  8
SMUSSO
100
AcDbLine
 62
7
  6
CONTINUOUS
 10
37.5907919218
 20
-62.8899773475
 11
37.4568377306
 21
-62.3812511443
  0
LINE
  5
391
100
AcDbEntity
  8
DRAFT
100
AcDbLine
 62
7
  6
CONTINUOUS
 10
22.7620732139
 20
-64.8425584194
 11
22.8668036035
 21
-64.3176264383
  0
LINE
  5
392
100
AcDbEntity
  8
RACCORDO
100
AcDbLine
 62
7
  6
CONTINUOUS
 10
22.5668036035
 20
-68.9959583534
 11
22.4706484299
 21
-69.4779094466
  0
LINE
  5
393
100
AcDbEntity
  8
RACCORDO
100
AcDbLine
 62
253
  6
CONTINUOUS
 10
56.4515974256
 20
25.510353562
 11
56.4511405111
 21
25.5094396633
  0
LINE
  5
394
100
AcDbEntity
  8
RACCORDO
100
AcDbLine
 62
253
  6
CONTINUOUS
 10
56.9515403124
 20
25.0103535591
 11
56.9511214726
 21
25.0095158157
  0
LINE
  5
395
100
AcDbEntity
  8
0
100
AcDbLine
 62
7
  6
CONTINUOUS
 10
60.9849168206
 20
21.6831702399
 11
61.2463386239
 21
22.1093845531
  0
LINE
  5
396
100
AcDbEntity
  8
RACCORDO
100
AcDbLine
 62
7
  6
CONTINUOUS
 10
-6.7067991638
 20
-62.3363235956
 11
-6.2184320043
 21
-61.8479564361
  0
LINE
  5
397
100
AcDbEntity
  8
DRAFT
100
AcDbLine
 62
7
  6
CONTINUOUS
 10
-42.887849526
 20
-60.3866966651
 11
-43.4617656132
 21
-60.578021454
  0
LINE
  5
398
100
AcDbEntity
  8
DRAFT
100
AcDbLine
 62
7
  6
CONTINUOUS
 10
-2.0903622566
 20
1.5568695215
 11
-1.0682576941
 21
1.8307416136
  0
LINE
  5
399
100
AcDbEntity
  8
DRAFT
100
AcDbLine
 62
7
  6
CONTINUOUS
 10
-2.2564060434
 20
1.694925346
 11
-0.8792386298
 21
2.0639362423
  0
LINE
  5
39A
100
AcDbEntity
  8
DRAFT
100
AcDbLine
 62
7
  6
CONTINUOUS
 10
-5.0799085108
 20
1.8071300408
 11
-4.0587762194
 21
2.0807416136
  0
LINE
  5
39B
100
AcDbEntity
  8
DRAFT
100
AcDbLine
 62
7
  6
CONTINUOUS
 10
-5.2461152695
 20
1.9451421971
 11
-3.8713843913
 21
2.3135002257
  0
LINE
  5
39C
100
AcDbEntity
  8
DRAFT
100
AcDbLine
 62
7
  6
CONTINUOUS
 10
-8.0694444541
 20
2.0575389692
 11
-7.0498383044
 21
2.3307416136
  0
LINE
  5
39D
100
AcDbEntity
  8
DRAFT
100
AcDbLine
 62
7
  6
CONTINUOUS
 10
-8.2024886155
 20
2.1679275921
 11
-6.9015054161
 21
2.5165249897
  0
LINE
  5
39E
100
AcDbEntity
  8
DRAFT
100
AcDbLine
 62
7
  6
CONTINUOUS
 10
5.9620732139
 20
5.2597955357
 11
8.4620732139
 21
5.2597955357
  0
LINE
  5
39F
100
AcDbEntity
  8
DRAFT
100
AcDbLine
 62
7
  6
CONTINUOUS
 10
10.4620732139
 20
5.2597955357
 11
12.9620732139
 21
5.2597955357
  0
LINE
  5
3A0
100
AcDbEntity
  8
DRAFT
100
AcDbLine
 62
7
  6
CONTINUOUS
 10
-42.887849526
 20
24.0481798923
 11
-43.4617656132
 21
24.2395046812
  0
LINE
  5
3A1
100
AcDbEntity
  8
RACCORDO
100
AcDbLine
 62
7
  6
CONTINUOUS
 10
-6.7067991638
 20
25.9978068228
 11
-6.2184320043
 21
25.5094396633
  0
LINE
  5
3A2
100
AcDbEntity
  8
RACCORDO
100
AcDbLine
 62
253
  6
CONTINUOUS
 10
56.4511405111
 20
-61.8479564361
 11
56.4515974256
 21
-61.8488703348
  0
LINE
  5
3A3
100
AcDbEntity
  8
RACCORDO
100
AcDbLine
 62
253
  6
CONTINUOUS
 10
56.9511214726
 20
-61.3480325885
 11
56.9515403124
 21
-61.3488703319
  0
LINE
  5
3A4
100
AcDbEntity
  8
DRAFT
100
AcDbLine
 62
7
  6
CONTINUOUS
 10
37.1248872354
 20
-29.8338202158
 11
36.7762898378
 21
-28.5328370164
  0
LINE
  5
3A5
100
AcDbEntity
  8
DRAFT
100
AcDbLine
 62
7
  6
CONTINUOUS
 10
37.2352758583
 20
-29.7007760544
 11
36.9620732139
 21
-28.6811699047
  0
LINE
  5
3A6
100
AcDbEntity
  8
DRAFT
100
AcDbLine
 62
7
  6
CONTINUOUS
 10
37.3476726304
 20
-26.8774468698
 11
36.9793146018
 21
-25.5027159916
  0
LINE
  5
3A7
100
AcDbEntity
  8
DRAFT
100
AcDbLine
 62
7
  6
CONTINUOUS
 10
37.4856847867
 20
-26.7112401111
 11
37.2120732139
 21
-25.6901078197
  0
LINE
  5
3A8
100
AcDbEntity
  8
DRAFT
100
AcDbLine
 62
7
  6
CONTINUOUS
 10
22.8668036035
 20
27.9791096655
 11
22.7620732139
 21
28.5040416466
  0
LINE
  5
3A9
100
AcDbEntity
  8
RACCORDO
100
AcDbLine
 62
7
  6
CONTINUOUS
 10
22.4706484299
 20
33.1393926738
 11
22.5668036035
 21
32.6574415806
  0
LINE
  5
3AA
100
AcDbEntity
  8
DRAFT
100
AcDbLine
 62
7
  6
CONTINUOUS
 10
35.4620732139
 20
-22.6995892944
 11
35.1882011218
 21
-23.7216938569
  0
LINE
  5
3AB
100
AcDbEntity
  8
DRAFT
100
AcDbLine
 62
7
  6
CONTINUOUS
 10
35.6952678426
 20
-22.5105702301
 11
35.3262569463
 21
-23.8877376437
  0
LINE
  5
3AC
100
AcDbEntity
  8
DRAFT
100
AcDbLine
 62
7
  6
CONTINUOUS
 10
35.7120732139
 20
-25.6901078197
 11
35.4384616411
 21
-26.7112401111
  0
LINE
  5
3AD
100
AcDbEntity
  8
DRAFT
100
AcDbLine
 62
7
  6
CONTINUOUS
 10
35.944831826
 20
-25.5027159916
 11
35.5764737974
 21
-26.8774468698
  0
LINE
  5
3AE
100
AcDbEntity
  8
DRAFT
100
AcDbLine
 62
7
  6
CONTINUOUS
 10
35.9620732139
 20
-28.6811699047
 11
35.6888705695
 21
-29.7007760544
  0
LINE
  5
3AF
100
AcDbEntity
  8
DRAFT
100
AcDbLine
 62
7
  6
CONTINUOUS
 10
36.14785659
 20
-28.5328370164
 11
35.7992591924
 21
-29.8338202158
  0
LINE
  5
3B0
100
AcDbEntity
  8
DRAFT
100
AcDbLine
 62
7
  6
CONTINUOUS
 10
20.2260865422
 20
-64.3176264383
 11
18.3322533629
 21
-69.5208903345
  0
LINE
  5
3B1
100
AcDbEntity
  8
DRAFT
100
AcDbLine
 62
7
  6
CONTINUOUS
 10
17.7322964569
 20
-71.1692583864
 11
17.5503113398
 21
-71.6692583864
  0
LINE
  5
3B2
100
AcDbEntity
  8
DRAFT
100
AcDbLine
 62
7
  6
CONTINUOUS
 10
60.5739561475
 20
26.0514605748
 11
60.3498222841
 21
25.510353562
  0
LINE
  5
3B3
100
AcDbEntity
  8
DRAFT
100
AcDbLine
 62
7
  6
CONTINUOUS
 10
59.7369469481
 20
24.0307416136
 11
59.8490053449
 21
24.3012745151
  0
LINE
  5
3B4
100
AcDbEntity
  8
DRAFT
100
AcDbLine
 62
7
  6
CONTINUOUS
 10
-3.9426571757
 20
-69.5208903345
 11
-4.0910252276
 21
-69.6692583864
  0
LINE
  5
3B5
100
AcDbEntity
  8
DRAFT
100
AcDbLine
 62
7
  6
CONTINUOUS
 10
-26.8733649567
 20
3.4935556352
 11
-28.1743481561
 21
3.1449582375
  0
LINE
  5
3B6
100
AcDbEntity
  8
DRAFT
100
AcDbLine
 62
7
  6
CONTINUOUS
 10
-27.0064091181
 20
3.603944258
 11
-28.0260152678
 21
3.3307416136
  0
LINE
  5
3B7
100
AcDbEntity
  8
DRAFT
100
AcDbLine
 62
7
  6
CONTINUOUS
 10
-29.8297383027
 20
3.7163410301
 11
-31.2044691809
 21
3.3479830015
  0
LINE
  5
3B8
100
AcDbEntity
  8
DRAFT
100
AcDbLine
 62
7
  6
CONTINUOUS
 10
-29.9959450614
 20
3.8543531864
 11
-31.0170773528
 21
3.5807416136
  0
LINE
  5
3B9
100
AcDbEntity
  8
RACCORDO
100
AcDbLine
 62
253
  6
CONTINUOUS
 10
-54.4854092633
 20
12.8307416136
 11
-55.5379267861
 21
12.8307416136
  0
LINE
  5
3BA
100
AcDbEntity
  8
RACCORDO
100
AcDbLine
 62
253
  6
CONTINUOUS
 10
73.4095556911
 20
12.8307416136
 11
74.4620732139
 21
12.8307416136
  0
LINE
  5
3BB
100
AcDbEntity
  8
DRAFT
100
AcDbLine
 62
7
  6
CONTINUOUS
 10
-4.0910252276
 20
33.3307416136
 11
-3.9426571757
 21
33.1823735617
  0
LINE
  5
3BC
100
AcDbEntity
  8
DRAFT
100
AcDbLine
 62
7
  6
CONTINUOUS
 10
60.5739561475
 20
-62.3899773475
 11
60.3498222841
 21
-61.8488703348
  0
LINE
  5
3BD
100
AcDbEntity
  8
DRAFT
100
AcDbLine
 62
7
  6
CONTINUOUS
 10
59.7369469481
 20
-60.3692583864
 11
59.8490053449
 21
-60.6397912879
  0
LINE
  5
3BE
100
AcDbEntity
  8
DRAFT
100
AcDbLine
 62
7
  6
CONTINUOUS
 10
20.2260865422
 20
27.9791096655
 11
18.3322533629
 21
33.1823735617
  0
LINE
  5
3BF
100
AcDbEntity
  8
DRAFT
100
AcDbLine
 62
7
  6
CONTINUOUS
 10
17.7322964569
 20
34.8307416136
 11
17.5503113398
 21
35.3307416136
  0
LINE
  5
3C0
100
AcDbEntity
  8
DRAFT
100
AcDbLine
 62
7
  6
CONTINUOUS
 10
37.5978894815
 20
-23.8877376437
 11
37.2288785852
 21
-22.5105702301
  0
LINE
  5
3C1
100
AcDbEntity
  8
DRAFT
100
AcDbLine
 62
7
  6
CONTINUOUS
 10
37.735945306
 20
-23.7216938569
 11
37.4620732139
 21
-22.6995892944
  0
LINE
  5
3C2
100
AcDbEntity
  8
DRAFT
100
AcDbLine
 62
7
  6
CONTINUOUS
 10
36.7762898378
 20
-49.8056797564
 11
37.1248872354
 21
-48.504696557
  0
LINE
  5
3C3
100
AcDbEntity
  8
DRAFT
100
AcDbLine
 62
7
  6
CONTINUOUS
 10
36.9620732139
 20
-49.6573468681
 11
37.2352758583
 21
-48.6377407184
  0
LINE
  5
3C4
100
AcDbEntity
  8
DRAFT
100
AcDbLine
 62
7
  6
CONTINUOUS
 10
36.9793146018
 20
-52.8358007812
 11
37.3476726304
 21
-51.461069903
  0
LINE
  5
3C5
100
AcDbEntity
  8
DRAFT
100
AcDbLine
 62
7
  6
CONTINUOUS
 10
37.2120732139
 20
-52.6484089531
 11
37.4856847867
 21
-51.6272766617
  0
LINE
  5
3C6
100
AcDbEntity
  8
DRAFT
100
AcDbLine
 62
7
  6
CONTINUOUS
 10
37.2288785852
 20
-55.8279465427
 11
37.5978894815
 21
-54.4507791291
  0
LINE
  5
3C7
100
AcDbEntity
  8
DRAFT
100
AcDbLine
 62
7
  6
CONTINUOUS
 10
37.4620732139
 20
-55.6389274784
 11
37.735945306
 21
-54.6168229159
  0
LINE
  5
3C8
100
AcDbEntity
  8
RACCORDO
100
AcDbLine
 62
7
  6
CONTINUOUS
 10
61.7928849047
 20
17.5907416136
 11
61.671773768
 21
17.298353465
  0
LINE
  5
3C9
100
AcDbEntity
  8
DRAFT
100
AcDbLine
 62
7
  6
CONTINUOUS
 10
-32.8194475288
 20
3.9665578812
 11
-34.1966149424
 21
3.5975469849
  0
LINE
  5
3CA
100
AcDbEntity
  8
DRAFT
100
AcDbLine
 62
7
  6
CONTINUOUS
 10
-32.9854913156
 20
4.1046137057
 11
-34.0075958781
 21
3.8307416136
  0
LINE
  5
3CB
100
AcDbEntity
  8
SMUSSO
100
AcDbLine
 62
7
  6
CONTINUOUS
 10
-47.2586457472
 20
-0.3479770943
 11
-46.749919544
 21
-0.2140229031
  0
LINE
  5
3CC
100
AcDbEntity
  8
RACCORDO
100
AcDbLine
 62
253
  6
CONTINUOUS
 10
-43.2170817503
 20
16.7983725034
 11
-42.5405284451
 21
16.7983725034
  0
LINE
  5
3CD
100
AcDbEntity
  8
RACCORDO
100
AcDbLine
 62
253
  6
CONTINUOUS
 10
61.4646748729
 20
16.7983725034
 11
62.1412281781
 21
16.7983725034
  0
LINE
  5
3CE
100
AcDbEntity
  8
RACCORDO
100
AcDbLine
 62
7
  6
CONTINUOUS
 10
-43.2170817503
 20
17.298353465
 11
-42.7476273402
 21
17.298353465
  0
LINE
  5
3CF
100
AcDbEntity
  8
RACCORDO
100
AcDbLine
 62
7
  6
CONTINUOUS
 10
61.671773768
 20
17.298353465
 11
62.1412281781
 21
17.298353465
  0
LINE
  5
3D0
100
AcDbEntity
  8
RACCORDO
100
AcDbLine
 62
7
  6
CONTINUOUS
 10
-45.7175387316
 20
17.3202087121
 11
-45.0084596876
 21
17.3202087121
  0
LINE
  5
3D1
100
AcDbEntity
  8
RACCORDO
100
AcDbLine
 62
7
  6
CONTINUOUS
 10
63.9326061154
 20
17.3202087121
 11
64.6416851594
 21
17.3202087121
  0
LINE
  5
3D2
100
AcDbEntity
  8
DRAFT
100
AcDbLine
 62
7
  6
CONTINUOUS
 10
63.6620732139
 20
17.5907416136
 11
61.7928849047
 21
17.5907416136
  0
LINE
  5
3D3
100
AcDbEntity
  8
DRAFT
100
AcDbLine
 62
7
  6
CONTINUOUS
 10
-42.8687384769
 20
17.5907416136
 11
-44.7379267861
 21
17.5907416136
  0
LINE
  5
3D4
100
AcDbEntity
  8
SMUSSO
100
AcDbLine
 62
7
  6
CONTINUOUS
 10
65.6740659718
 20
-0.2140229031
 11
66.182792175
 21
-0.3479770943
  0
LINE
  5
3D5
100
AcDbEntity
  8
RACCORDO
100
AcDbLine
 62
7
  6
CONTINUOUS
 10
61.7928849047
 20
-53.9292583864
 11
61.671773768
 21
-53.6368702377
  0
LINE
  5
3D6
100
AcDbEntity
  8
RACCORDO
100
AcDbLine
 62
253
  6
CONTINUOUS
 10
52.4620732139
 20
-70.1167408636
 11
52.4620732139
 21
-71.1692583864
  0
LINE
  5
3D7
100
AcDbEntity
  8
RACCORDO
100
AcDbLine
 62
253
  6
CONTINUOUS
 10
52.4620732139
 20
33.7782240908
 11
52.4620732139
 21
34.8307416136
  0
LINE
  5
3D8
100
AcDbEntity
  8
SMUSSO
100
AcDbLine
 62
7
  6
CONTINUOUS
 10
40.8673086972
 20
-62.3812511443
 11
40.733354506
 21
-62.8899773475
  0
LINE
  5
3D9
100
AcDbEntity
  8
DRAFT
100
AcDbLine
 62
7
  6
CONTINUOUS
 10
63.6795114926
 20
22.1806643535
 11
63.8708362815
 21
22.7545804407
  0
LINE
  5
3DA
100
AcDbEntity
  8
RACCORDO
100
AcDbLine
 62
7
  6
CONTINUOUS
 10
65.1407712636
 20
-17.3387531682
 11
65.6291384231
 21
-16.8503860087
  0
LINE
  5
3DB
100
AcDbEntity
  8
RACCORDO
100
AcDbLine
 62
7
  6
CONTINUOUS
 10
22.9932008362
 20
-62.3363235956
 11
23.4815679957
 21
-61.8479564361
  0
LINE
  5
3DC
100
AcDbEntity
  8
DRAFT
100
AcDbLine
 62
7
  6
CONTINUOUS
 10
23.0151716554
 20
-64.1692583864
 11
22.8668036035
 21
-64.3176264383
  0
LINE
  5
3DD
100
AcDbEntity
  8
SMUSSO
100
AcDbLine
 62
7
  6
CONTINUOUS
 10
37.4568377306
 20
26.0427343715
 11
37.1620732139
 21
26.0235324709
  0
LINE
  5
3DE
100
AcDbEntity
  8
DRAFT
100
AcDbLine
 62
7
  6
CONTINUOUS
 10
-43.5178257734
 20
21.3257163604
 11
-43.9004170718
 21
21.3257163604
  0
LINE
  5
3DF
100
AcDbEntity
  8
DRAFT
100
AcDbLine
 62
7
  6
CONTINUOUS
 10
62.4419722012
 20
21.3257163604
 11
62.8245634996
 21
21.3257163604
  0
LINE
  5
3E0
100
AcDbEntity
  8
RACCORDO
100
AcDbLine
 62
253
  6
CONTINUOUS
 10
56.9296850652
 20
22.5098965778
 11
-38.0055386374
 21
22.5098965778
  0
LINE
  5
3E1
100
AcDbEntity
  8
DRAFT
100
AcDbLine
 62
7
  6
CONTINUOUS
 10
-40.8128005203
 20
24.0307416136
 11
-38.2979267861
 21
24.0307416136
  0
LINE
  5
3E2
100
AcDbEntity
  8
DRAFT
100
AcDbLine
 62
7
  6
CONTINUOUS
 10
57.2220732139
 20
24.0307416136
 11
59.7369469481
 21
24.0307416136
  0
LINE
  5
3E3
100
AcDbEntity
  8
DRAFT
100
AcDbLine
 62
7
  6
CONTINUOUS
 10
-40.9248589171
 20
24.3012745151
 11
-38.0273938846
 21
24.3012745151
  0
LINE
  5
3E4
100
AcDbEntity
  8
DRAFT
100
AcDbLine
 62
7
  6
CONTINUOUS
 10
56.9515403124
 20
24.3012745151
 11
59.8490053449
 21
24.3012745151
  0
LINE
  5
3E5
100
AcDbEntity
  8
RACCORDO
100
AcDbLine
 62
7
  6
CONTINUOUS
 10
-35.8879267861
 20
24.9098965778
 11
-34.2879267861
 21
24.9098965778
  0
LINE
  5
3E6
100
AcDbEntity
  8
RACCORDO
100
AcDbLine
 62
7
  6
CONTINUOUS
 10
-6.1879267861
 20
24.9098965778
 11
-4.5879267861
 21
24.9098965778
  0
LINE
  5
3E7
100
AcDbEntity
  8
RACCORDO
100
AcDbLine
 62
7
  6
CONTINUOUS
 10
23.5120732139
 20
24.9098965778
 11
25.1120732139
 21
24.9098965778
  0
LINE
  5
3E8
100
AcDbEntity
  8
RACCORDO
100
AcDbLine
 62
7
  6
CONTINUOUS
 10
53.2120732139
 20
24.9098965778
 11
54.8120732139
 21
24.9098965778
  0
LINE
  5
3E9
100
AcDbEntity
  8
RACCORDO
100
AcDbLine
 62
253
  6
CONTINUOUS
 10
56.4511405111
 20
25.5094396633
 11
54.8425784321
 21
25.5094396633
  0
LINE
  5
3EA
100
AcDbEntity
  8
RACCORDO
100
AcDbLine
 62
253
  6
CONTINUOUS
 10
53.1815679957
 20
25.5094396633
 11
25.1425784321
 21
25.5094396633
  0
LINE
  5
3EB
100
AcDbEntity
  8
RACCORDO
100
AcDbLine
 62
253
  6
CONTINUOUS
 10
23.4815679957
 20
25.5094396633
 11
-4.5574215679
 21
25.5094396633
  0
LINE
  5
3EC
100
AcDbEntity
  8
RACCORDO
100
AcDbLine
 62
253
  6
CONTINUOUS
 10
-6.2184320043
 20
25.5094396633
 11
-34.2574215679
 21
25.5094396633
  0
LINE
  5
3ED
100
AcDbEntity
  8
RACCORDO
100
AcDbLine
 62
253
  6
CONTINUOUS
 10
-35.9184320043
 20
25.5094396633
 11
-37.5269940833
 21
25.5094396633
  0
LINE
  5
3EE
100
AcDbEntity
  8
RACCORDO
100
AcDbLine
 62
7
  6
CONTINUOUS
 10
-41.4256758563
 20
25.510353562
 11
-37.5274509978
 21
25.510353562
  0
LINE
  5
3EF
100
AcDbEntity
  8
RACCORDO
100
AcDbLine
 62
7
  6
CONTINUOUS
 10
56.4515974256
 20
25.510353562
 11
60.3498222841
 21
25.510353562
  0
LINE
  5
3F0
100
AcDbEntity
  8
SMUSSO
100
AcDbLine
 62
7
  6
CONTINUOUS
 10
-18.5326913028
 20
26.0427343715
 11
-18.2379267861
 21
26.0235324709
  0
LINE
  5
3F1
100
AcDbEntity
  8
RACCORDO
100
AcDbLine
 62
7
  6
CONTINUOUS
 10
65.1407712636
 20
-18.9997636046
 11
65.6291384231
 21
-19.4881307641
  0
LINE
  5
3F2
100
AcDbEntity
  8
RACCORDO
100
AcDbLine
 62
7
  6
CONTINUOUS
 10
22.9932008362
 20
25.9978068228
 11
23.4815679957
 21
25.5094396633
  0
LINE
  5
3F3
100
AcDbEntity
  8
DRAFT
100
AcDbLine
 62
7
  6
CONTINUOUS
 10
22.8668036035
 20
27.9791096655
 11
23.0151716554
 21
27.8307416136
  0
LINE
  5
3F4
100
AcDbEntity
  8
DRAFT
100
AcDbLine
 62
7
  6
CONTINUOUS
 10
63.6795114926
 20
-58.5191811263
 11
63.8708362815
 21
-59.0930972135
  0
LINE
  5
3F5
100
AcDbEntity
  8
SMUSSO
100
AcDbLine
 62
7
  6
CONTINUOUS
 10
40.733354506
 20
26.5514605748
 11
40.8673086972
 21
26.0427343715
  0
LINE
  5
3F6
100
AcDbEntity
  8
RACCORDO
100
AcDbLine
 62
253
  6
CONTINUOUS
 10
56.4297041037
 20
22.5098965778
 11
56.4297041037
 21
21.8333432726
  0
LINE
  5
3F7
100
AcDbEntity
  8
RACCORDO
100
AcDbLine
 62
253
  6
CONTINUOUS
 10
56.4297041037
 20
-58.1718600453
 11
56.4297041037
 21
-58.8484133506
  0
LINE
  5
3F8
100
AcDbEntity
  8
RACCORDO
100
AcDbLine
 62
7
  6
CONTINUOUS
 10
56.9296850652
 20
22.5098965778
 11
56.9296850652
 21
22.0404421678
  0
LINE
  5
3F9
100
AcDbEntity
  8
RACCORDO
100
AcDbLine
 62
7
  6
CONTINUOUS
 10
56.9296850652
 20
-58.3789589405
 11
56.9296850652
 21
-58.8484133506
  0
LINE
  5
3FA
100
AcDbEntity
  8
RACCORDO
100
AcDbLine
 62
7
  6
CONTINUOUS
 10
56.9515403124
 20
25.0103535591
 11
56.9515403124
 21
24.3012745151
  0
LINE
  5
3FB
100
AcDbEntity
  8
RACCORDO
100
AcDbLine
 62
7
  6
CONTINUOUS
 10
56.9515403124
 20
-60.6397912879
 11
56.9515403124
 21
-61.3488703319
  0
LINE
  5
3FC
100
AcDbEntity
  8
DRAFT
100
AcDbLine
 62
7
  6
CONTINUOUS
 10
57.2220732139
 20
-60.3692583864
 11
57.2220732139
 21
-58.5000700772
  0
LINE
  5
3FD
100
AcDbEntity
  8
DRAFT
100
AcDbLine
 62
7
  6
CONTINUOUS
 10
57.2220732139
 20
22.1615533044
 11
57.2220732139
 21
24.0307416136
  0
LINE
  5
3FE
100
AcDbEntity
  8
SMUSSO
100
AcDbLine
 62
7
  6
CONTINUOUS
 10
7.7568377306
 20
26.0427343715
 11
7.4620732139
 21
26.0235324709
  0
LINE
  5
3FF
100
AcDbEntity
  8
SMUSSO
100
AcDbLine
 62
7
  6
CONTINUOUS
 10
-21.9431622694
 20
26.0427343715
 11
-22.2379267861
 21
26.0235324709
  0
LINE
  5
400
100
AcDbEntity
  8
RACCORDO
100
AcDbLine
 62
7
  6
CONTINUOUS
 10
51.1934292935
 20
26.0235324709
 11
41.1620732139
 21
26.0235324709
  0
LINE
  5
401
100
AcDbEntity
  8
RACCORDO
100
AcDbLine
 62
7
  6
CONTINUOUS
 10
37.1620732139
 20
26.0235324709
 11
27.1307171343
 21
26.0235324709
  0
LINE
  5
402
100
AcDbEntity
  8
RACCORDO
100
AcDbLine
 62
7
  6
CONTINUOUS
 10
21.4934292935
 20
26.0235324709
 11
11.4620732139
 21
26.0235324709
  0
LINE
  5
403
100
AcDbEntity
  8
RACCORDO
100
AcDbLine
 62
7
  6
CONTINUOUS
 10
7.4620732139
 20
26.0235324709
 11
-2.5692828657
 21
26.0235324709
  0
LINE
  5
404
100
AcDbEntity
  8
RACCORDO
100
AcDbLine
 62
7
  6
CONTINUOUS
 10
-8.2065707065
 20
26.0235324709
 11
-18.2379267861
 21
26.0235324709
  0
LINE
  5
405
100
AcDbEntity
  8
RACCORDO
100
AcDbLine
 62
7
  6
CONTINUOUS
 10
-22.2379267861
 20
26.0235324709
 11
-32.2692828657
 21
26.0235324709
  0
LINE
  5
406
100
AcDbEntity
  8
SMUSSO
100
AcDbLine
 62
7
  6
CONTINUOUS
 10
40.8673086972
 20
26.0427343715
 11
37.4568377306
 21
26.0427343715
  0
LINE
  5
407
100
AcDbEntity
  8
SMUSSO
100
AcDbLine
 62
7
  6
CONTINUOUS
 10
11.1673086972
 20
26.0427343715
 11
7.7568377306
 21
26.0427343715
  0
LINE
  5
408
100
AcDbEntity
  8
SMUSSO
100
AcDbLine
 62
7
  6
CONTINUOUS
 10
-18.5326913028
 20
26.0427343715
 11
-21.9431622694
 21
26.0427343715
  0
LINE
  5
409
100
AcDbEntity
  8
DRAFT
100
AcDbLine
 62
7
  6
CONTINUOUS
 10
-41.6498097197
 20
26.0514605748
 11
-36.4604529157
 21
26.0514605748
  0
LINE
  5
40A
100
AcDbEntity
  8
SMUSSO
100
AcDbLine
 62
7
  6
CONTINUOUS
 10
-36.4604529157
 20
26.0514605748
 11
-21.9431622694
 21
26.0514605748
  0
LINE
  5
40B
100
AcDbEntity
  8
SMUSSO
100
AcDbLine
 62
7
  6
CONTINUOUS
 10
-18.5326913028
 20
26.0514605748
 11
7.7568377306
 21
26.0514605748
  0
LINE
  5
40C
100
AcDbEntity
  8
SMUSSO
100
AcDbLine
 62
7
  6
CONTINUOUS
 10
11.1673086972
 20
26.0514605748
 11
37.4568377306
 21
26.0514605748
  0
LINE
  5
40D
100
AcDbEntity
  8
SMUSSO
100
AcDbLine
 62
7
  6
CONTINUOUS
 10
40.8673086972
 20
26.0514605748
 11
55.3845993435
 21
26.0514605748
  0
LINE
  5
40E
100
AcDbEntity
  8
DRAFT
100
AcDbLine
 62
7
  6
CONTINUOUS
 10
55.3845993435
 20
26.0514605748
 11
60.5739561475
 21
26.0514605748
  0
LINE
  5
40F
100
AcDbEntity
  8
SMUSSO
100
AcDbLine
 62
7
  6
CONTINUOUS
 10
40.733354506
 20
26.5514605748
 11
37.5907919218
 21
26.5514605748
  0
LINE
  5
410
100
AcDbEntity
  8
SMUSSO
100
AcDbLine
 62
7
  6
CONTINUOUS
 10
11.033354506
 20
26.5514605748
 11
7.8907919218
 21
26.5514605748
  0
LINE
  5
411
100
AcDbEntity
  8
SMUSSO
100
AcDbLine
 62
7
  6
CONTINUOUS
 10
-18.666645494
 20
26.5514605748
 11
-21.8092080782
 21
26.5514605748
  0
LINE
  5
412
100
AcDbEntity
  8
DRAFT
100
AcDbLine
 62
7
  6
CONTINUOUS
 10
23.0151716554
 20
27.8307416136
 11
-4.0910252276
 21
27.8307416136
  0
LINE
  5
413
100
AcDbEntity
  8
RACCORDO
100
AcDbLine
 62
7
  6
CONTINUOUS
 10
22.8668036035
 20
27.9791096655
 11
-3.9426571757
 21
27.9791096655
  0
LINE
  5
414
100
AcDbEntity
  8
DRAFT
100
AcDbLine
 62
7
  6
CONTINUOUS
 10
-3.8379267861
 20
28.5040416466
 11
-3.3926571757
 21
28.5040416466
  0
LINE
  5
415
100
AcDbEntity
  8
DRAFT
100
AcDbLine
 62
7
  6
CONTINUOUS
 10
22.3168036035
 20
28.5040416466
 11
22.7620732139
 21
28.5040416466
  0
LINE
  5
416
100
AcDbEntity
  8
DRAFT
100
AcDbLine
 62
7
  6
CONTINUOUS
 10
22.3168036035
 20
28.6087720362
 11
19.9969081816
 21
28.6087720362
  0
LINE
  5
417
100
AcDbEntity
  8
DRAFT
100
AcDbLine
 62
7
  6
CONTINUOUS
 10
-1.0727617538
 20
28.6087720362
 11
-3.3926571757
 21
28.6087720362
  0
LINE
  5
418
100
AcDbEntity
  8
SMUSSO
100
AcDbLine
 62
7
  6
CONTINUOUS
 10
11.1673086972
 20
26.0427343715
 11
11.4620732139
 21
26.0235324709
  0
LINE
  5
419
100
AcDbEntity
  8
SMUSSO
100
AcDbLine
 62
7
  6
CONTINUOUS
 10
40.8673086972
 20
26.0427343715
 11
41.1620732139
 21
26.0235324709
  0
LINE
  5
41A
100
AcDbEntity
  8
SMUSSO
100
AcDbLine
 62
7
  6
CONTINUOUS
 10
65.6740659718
 20
-32.7140229031
 11
65.6548640712
 21
-32.4192583864
  0
LINE
  5
41B
100
AcDbEntity
  8
DRAFT
100
AcDbLine
 62
7
  6
CONTINUOUS
 10
60.9570479607
 20
-59.1491573737
 11
60.9570479607
 21
-59.5317486721
  0
LINE
  5
41C
100
AcDbEntity
  8
DRAFT
100
AcDbLine
 62
7
  6
CONTINUOUS
 10
60.9570479607
 20
22.8106406009
 11
60.9570479607
 21
23.1932318993
  0
LINE
  5
41D
100
AcDbEntity
  8
RACCORDO
100
AcDbLine
 62
253
  6
CONTINUOUS
 10
62.1412281781
 20
-53.6368702377
 11
62.1412281781
 21
17.298353465
  0
LINE
  5
41E
100
AcDbEntity
  8
DRAFT
100
AcDbLine
 62
7
  6
CONTINUOUS
 10
63.6620732139
 20
20.1056153478
 11
63.6620732139
 21
17.5907416136
  0
LINE
  5
41F
100
AcDbEntity
  8
DRAFT
100
AcDbLine
 62
7
  6
CONTINUOUS
 10
63.6620732139
 20
-53.9292583864
 11
63.6620732139
 21
-56.4441321205
  0
LINE
  5
420
100
AcDbEntity
  8
DRAFT
100
AcDbLine
 62
7
  6
CONTINUOUS
 10
63.9326061154
 20
20.2176737446
 11
63.9326061154
 21
17.3202087121
  0
LINE
  5
421
100
AcDbEntity
  8
DRAFT
100
AcDbLine
 62
7
  6
CONTINUOUS
 10
63.9326061154
 20
-53.6587254849
 11
63.9326061154
 21
-56.5561905174
  0
LINE
  5
422
100
AcDbEntity
  8
RACCORDO
100
AcDbLine
 62
7
  6
CONTINUOUS
 10
64.5412281781
 20
15.1807416136
 11
64.5412281781
 21
13.5307416136
  0
LINE
  5
423
100
AcDbEntity
  8
RACCORDO
100
AcDbLine
 62
7
  6
CONTINUOUS
 10
64.5412281781
 20
-17.3692583864
 11
64.5412281781
 21
-18.9692583864
  0
LINE
  5
424
100
AcDbEntity
  8
RACCORDO
100
AcDbLine
 62
7
  6
CONTINUOUS
 10
64.5412281781
 20
-49.8692583864
 11
64.5412281781
 21
-51.5192583864
  0
LINE
  5
425
100
AcDbEntity
  8
RACCORDO
100
AcDbLine
 62
7
  6
CONTINUOUS
 10
64.9620732139
 20
15.2112468318
 11
64.9620732139
 21
13.5002363954
  0
LINE
  5
426
100
AcDbEntity
  8
RACCORDO
100
AcDbLine
 62
7
  6
CONTINUOUS
 10
64.9620732139
 20
-17.3387531682
 11
64.9620732139
 21
-18.9997636046
  0
LINE
  5
427
100
AcDbEntity
  8
RACCORDO
100
AcDbLine
 62
7
  6
CONTINUOUS
 10
64.9620732139
 20
-49.8387531682
 11
64.9620732139
 21
-51.5497636046
  0
LINE
  5
428
100
AcDbEntity
  8
RACCORDO
100
AcDbLine
 62
253
  6
CONTINUOUS
 10
65.1407712636
 20
-53.1583256836
 11
65.1407712636
 21
-51.5497636046
  0
LINE
  5
429
100
AcDbEntity
  8
RACCORDO
100
AcDbLine
 62
253
  6
CONTINUOUS
 10
65.1407712636
 20
-49.8387531682
 11
65.1407712636
 21
-18.9997636046
  0
LINE
  5
42A
100
AcDbEntity
  8
RACCORDO
100
AcDbLine
 62
253
  6
CONTINUOUS
 10
65.1407712636
 20
-17.3387531682
 11
65.1407712636
 21
13.5002363954
  0
LINE
  5
42B
100
AcDbEntity
  8
RACCORDO
100
AcDbLine
 62
253
  6
CONTINUOUS
 10
65.1407712636
 20
15.2112468318
 11
65.1407712636
 21
16.8198089108
  0
LINE
  5
42C
100
AcDbEntity
  8
RACCORDO
100
AcDbLine
 62
7
  6
CONTINUOUS
 10
65.1416851623
 20
20.7184906838
 11
65.1416851623
 21
16.8202658253
  0
LINE
  5
42D
100
AcDbEntity
  8
RACCORDO
100
AcDbLine
 62
7
  6
CONTINUOUS
 10
65.1416851623
 20
-53.1587825981
 11
65.1416851623
 21
-57.0570074566
  0
LINE
  5
42E
100
AcDbEntity
  8
RACCORDO
100
AcDbLine
 62
7
  6
CONTINUOUS
 10
65.6548640712
 20
11.5120976932
 11
65.6548640712
 21
0.0807416136
  0
LINE
  5
42F
100
AcDbEntity
  8
RACCORDO
100
AcDbLine
 62
7
  6
CONTINUOUS
 10
65.6548640712
 20
-3.9192583864
 11
65.6548640712
 21
-15.350614466
  0
LINE
  5
430
100
AcDbEntity
  8
RACCORDO
100
AcDbLine
 62
7
  6
CONTINUOUS
 10
65.6548640712
 20
-20.9879023068
 11
65.6548640712
 21
-32.4192583864
  0
LINE
  5
431
100
AcDbEntity
  8
RACCORDO
100
AcDbLine
 62
7
  6
CONTINUOUS
 10
65.6548640712
 20
-36.4192583864
 11
65.6548640712
 21
-47.850614466
  0
LINE
  5
432
100
AcDbEntity
  8
SMUSSO
100
AcDbLine
 62
7
  6
CONTINUOUS
 10
65.6740659718
 20
-36.1244938697
 11
65.6740659718
 21
-32.7140229031
  0
LINE
  5
433
100
AcDbEntity
  8
SMUSSO
100
AcDbLine
 62
7
  6
CONTINUOUS
 10
65.6740659718
 20
-3.6244938697
 11
65.6740659718
 21
-0.2140229031
  0
LINE
  5
434
100
AcDbEntity
  8
SMUSSO
100
AcDbLine
 62
7
  6
CONTINUOUS
 10
65.6740659718
 20
-3.6244938697
 11
65.6548640712
 21
-3.9192583864
  0
LINE
  5
435
100
AcDbEntity
  8
DRAFT
100
AcDbLine
 62
7
  6
CONTINUOUS
 10
0.4008334487
 20
32.6574415806
 11
-3.8379267861
 21
32.6574415806
  0
LINE
  5
436
100
AcDbEntity
  8
DRAFT
100
AcDbLine
 62
7
  6
CONTINUOUS
 10
18.5233129791
 20
32.6574415806
 11
22.7620732139
 21
32.6574415806
  0
LINE
  5
437
100
AcDbEntity
  8
RACCORDO
100
AcDbLine
 62
7
  6
CONTINUOUS
 10
-3.9426571757
 20
33.1823735617
 11
22.8668036035
 21
33.1823735617
  0
LINE
  5
438
100
AcDbEntity
  8
DRAFT
100
AcDbLine
 62
7
  6
CONTINUOUS
 10
23.0151716554
 20
33.3307416136
 11
-4.0910252276
 21
33.3307416136
  0
LINE
  5
439
100
AcDbEntity
  8
RACCORDO
100
AcDbLine
 62
253
  6
CONTINUOUS
 10
52.4620732139
 20
33.7782240908
 11
-33.5379267861
 21
33.7782240908
  0
LINE
  5
43A
100
AcDbEntity
  8
RACCORDO
100
AcDbLine
 62
253
  6
CONTINUOUS
 10
52.4620732139
 20
34.7780717859
 11
-33.5379267861
 21
34.7780717859
  0
LINE
  5
43B
100
AcDbEntity
  8
RACCORDO
100
AcDbLine
 62
7
  6
CONTINUOUS
 10
52.4620732139
 20
34.8307416136
 11
-33.5379267861
 21
34.8307416136
  0
LINE
  5
43C
100
AcDbEntity
  8
DRAFT
100
AcDbLine
 62
7
  6
CONTINUOUS
 10
17.5503113398
 20
35.3307416136
 11
1.373835088
 21
35.3307416136
  0
LINE
  5
43D
100
AcDbEntity
  8
0
100
AcDbLine
 62
7
  6
CONTINUOUS
 10
70.4620732139
 20
37.8307416136
 11
-51.5379267861
 21
37.8307416136
  0
LINE
  5
43E
100
AcDbEntity
  8
SMUSSO
100
AcDbLine
 62
7
  6
CONTINUOUS
 10
65.6740659718
 20
-0.2140229031
 11
65.6548640712
 21
0.0807416136
  0
LINE
  5
43F
100
AcDbEntity
  8
DRAFT
100
AcDbLine
 62
7
  6
CONTINUOUS
 10
65.682792175
 20
20.9426245472
 11
65.682792175
 21
15.7532677432
  0
LINE
  5
440
100
AcDbEntity
  8
SMUSSO
100
AcDbLine
 62
7
  6
CONTINUOUS
 10
65.682792175
 20
15.7532677432
 11
65.682792175
 21
-0.2140229031
  0
LINE
  5
441
100
AcDbEntity
  8
SMUSSO
100
AcDbLine
 62
7
  6
CONTINUOUS
 10
65.682792175
 20
-3.6244938697
 11
65.682792175
 21
-32.7140229031
  0
LINE
  5
442
100
AcDbEntity
  8
SMUSSO
100
AcDbLine
 62
7
  6
CONTINUOUS
 10
65.682792175
 20
-36.1244938697
 11
65.682792175
 21
-52.091784516
  0
LINE
  5
443
100
AcDbEntity
  8
DRAFT
100
AcDbLine
 62
7
  6
CONTINUOUS
 10
65.682792175
 20
-52.091784516
 11
65.682792175
 21
-57.28114132
  0
LINE
  5
444
100
AcDbEntity
  8
SMUSSO
100
AcDbLine
 62
7
  6
CONTINUOUS
 10
66.182792175
 20
-35.9905396785
 11
66.182792175
 21
-32.8479770943
  0
LINE
  5
445
100
AcDbEntity
  8
SMUSSO
100
AcDbLine
 62
7
  6
CONTINUOUS
 10
66.182792175
 20
-3.4905396785
 11
66.182792175
 21
-0.3479770943
  0
LINE
  5
446
100
AcDbEntity
  8
SMUSSO
100
AcDbLine
 62
7
  6
CONTINUOUS
 10
65.6740659718
 20
-36.1244938697
 11
65.6548640712
 21
-36.4192583864
  0
LINE
  5
447
100
AcDbEntity
  8
RACCORDO
100
AcDbLine
 62
253
  6
CONTINUOUS
 10
59.639655397
 20
-55.7002871
 11
59.9771995574
 21
-55.3314444484
  0
LINE
  5
448
100
AcDbEntity
  8
RACCORDO
100
AcDbLine
 62
253
  6
CONTINUOUS
 10
56.4297041037
 20
-58.1718600453
 11
58.2707193475
 21
-56.3308448015
  0
LINE
  5
449
100
AcDbEntity
  8
RACCORDO
100
AcDbLine
 62
253
  6
CONTINUOUS
 10
59.6236596291
 20
-54.97790452
 11
61.4646748729
 21
-53.1368892762
  0
LINE
  5
44A
100
AcDbEntity
  8
RACCORDO
100
AcDbLine
 62
7
  6
CONTINUOUS
 10
65.1407712636
 20
-49.8387531682
 11
65.6291384231
 21
-49.3503860087
  0
LINE
  5
44B
100
AcDbEntity
  8
RACCORDO
100
AcDbLine
 62
7
  6
CONTINUOUS
 10
52.6932008362
 20
-62.3363235956
 11
53.1815679957
 21
-61.8479564361
  0
LINE
  5
44C
100
AcDbEntity
  8
RACCORDO
100
AcDbLine
 62
7
  6
CONTINUOUS
 10
56.9296850652
 20
-58.3789589405
 11
58.6242592759
 21
-56.6843847299
  0
LINE
  5
44D
100
AcDbEntity
  8
RACCORDO
100
AcDbLine
 62
7
  6
CONTINUOUS
 10
59.9771995574
 20
-55.3314444484
 11
61.671773768
 21
-53.6368702377
  0
LINE
  5
44E
100
AcDbEntity
  8
DRAFT
100
AcDbLine
 62
7
  6
CONTINUOUS
 10
57.2220732139
 20
-58.5000700772
 11
58.6414536555
 21
-57.0806896356
  0
LINE
  5
44F
100
AcDbEntity
  8
DRAFT
100
AcDbLine
 62
7
  6
CONTINUOUS
 10
60.3735044631
 20
-55.348638828
 11
61.7928849047
 21
-53.9292583864
  0
LINE
  5
450
100
AcDbEntity
  8
RACCORDO
100
AcDbLine
 62
253
  6
CONTINUOUS
 10
58.9931019275
 20
-56.3468405695
 11
58.6242592755
 21
-56.6843847295
  0
LINE
  5
451
100
AcDbEntity
  8
0
100
AcDbLine
 62
7
  6
CONTINUOUS
 10
-51.5379267861
 20
40.8307416136
 11
70.4620732139
 21
40.8307416136
  0
LINE
  5
452
100
AcDbEntity
  8
RACCORDO
100
AcDbLine
 62
253
  6
CONTINUOUS
 10
58.9931019275
 20
20.0083237967
 11
58.6242592759
 21
20.3458679571
  0
LINE
  5
453
100
AcDbEntity
  8
RACCORDO
100
AcDbLine
 62
253
  6
CONTINUOUS
 10
61.4646748729
 20
16.7983725034
 11
59.6236596291
 21
18.6393877472
  0
LINE
  5
454
100
AcDbEntity
  8
RACCORDO
100
AcDbLine
 62
253
  6
CONTINUOUS
 10
58.2707193475
 20
19.9923280288
 11
56.4297041037
 21
21.8333432726
  0
LINE
  5
455
100
AcDbEntity
  8
RACCORDO
100
AcDbLine
 62
7
  6
CONTINUOUS
 10
65.1407712636
 20
13.5002363954
 11
65.6291384231
 21
13.0118692359
  0
LINE
  5
456
100
AcDbEntity
  8
RACCORDO
100
AcDbLine
 62
7
  6
CONTINUOUS
 10
52.6932008362
 20
25.9978068228
 11
53.1815679957
 21
25.5094396633
  0
LINE
  5
457
100
AcDbEntity
  8
RACCORDO
100
AcDbLine
 62
7
  6
CONTINUOUS
 10
61.671773768
 20
17.298353465
 11
59.9771995574
 21
18.9929276756
  0
LINE
  5
458
100
AcDbEntity
  8
RACCORDO
100
AcDbLine
 62
7
  6
CONTINUOUS
 10
58.6242592759
 20
20.3458679571
 11
56.9296850652
 21
22.0404421678
  0
LINE
  5
459
100
AcDbEntity
  8
DRAFT
100
AcDbLine
 62
7
  6
CONTINUOUS
 10
61.7928849047
 20
17.5907416136
 11
60.3735044631
 21
19.0101220552
  0
LINE
  5
45A
100
AcDbEntity
  8
DRAFT
100
AcDbLine
 62
7
  6
CONTINUOUS
 10
58.6414536555
 20
20.7421728628
 11
57.2220732139
 21
22.1615533044
  0
LINE
  5
45B
100
AcDbEntity
  8
RACCORDO
100
AcDbLine
 62
253
  6
CONTINUOUS
 10
59.639655397
 20
19.3617703272
 11
59.977199557
 21
18.9929276752
  0
LINE
  5
45C
100
AcDbEntity
  8
RACCORDO
100
AcDbLine
 62
253
  6
CONTINUOUS
 10
73.4095556911
 20
-49.1692583864
 11
73.4095556911
 21
12.8307416136
  0
LINE
  5
45D
100
AcDbEntity
  8
RACCORDO
100
AcDbLine
 62
253
  6
CONTINUOUS
 10
74.4094033862
 20
-49.1692583864
 11
74.4094033862
 21
12.8307416136
  0
LINE
  5
45E
100
AcDbEntity
  8
DRAFT
100
AcDbLine
 62
7
  6
CONTINUOUS
 10
74.4620732139
 20
12.8307416136
 11
74.4620732139
 21
-49.1692583864
  0
LINE
  5
45F
100
AcDbEntity
  8
0
100
AcDbLine
 62
7
  6
CONTINUOUS
 10
77.4620732139
 20
-67.1692583864
 11
77.4620732139
 21
30.8307416136
  0
LINE
  5
460
100
AcDbEntity
  8
0
100
AcDbLine
 62
7
  6
CONTINUOUS
 10
59.9392296072
 20
-58.0216870127
 11
59.6778078039
 21
-58.4479013259
  0
LINE
  5
461
100
AcDbEntity
  8
0
100
AcDbLine
 62
7
  6
CONTINUOUS
 10
60.9849168206
 20
-56.3168297601
 11
61.2463386239
 21
-55.8906154469
  0
LINE
  5
462
100
AcDbEntity
  8
DRAFT
100
AcDbLine
 62
7
  6
CONTINUOUS
 10
57.2220732139
 20
-60.3692583864
 11
56.9515403124
 21
-60.6397912879
  0
LINE
  5
463
100
AcDbEntity
  8
DRAFT
100
AcDbLine
 62
7
  6
CONTINUOUS
 10
63.6620732139
 20
-53.9292583864
 11
63.9326061154
 21
-53.6587254849
  0
LINE
  5
464
100
AcDbEntity
  8
DRAFT
100
AcDbLine
 62
7
  6
CONTINUOUS
 10
63.6620732139
 20
-56.4441321205
 11
62.4419722012
 21
-57.6642331332
  0
LINE
  5
465
100
AcDbEntity
  8
DRAFT
100
AcDbLine
 62
7
  6
CONTINUOUS
 10
60.9570479607
 20
-59.1491573737
 11
59.7369469481
 21
-60.3692583864
  0
LINE
  5
466
100
AcDbEntity
  8
DRAFT
100
AcDbLine
 62
7
  6
CONTINUOUS
 10
63.9326061154
 20
-56.5561905174
 11
62.8245634996
 21
-57.6642331332
  0
LINE
  5
467
100
AcDbEntity
  8
DRAFT
100
AcDbLine
 62
7
  6
CONTINUOUS
 10
60.9570479607
 20
-59.5317486721
 11
59.8490053449
 21
-60.6397912879
  0
LINE
  5
468
100
AcDbEntity
  8
DRAFT
100
AcDbLine
 62
7
  6
CONTINUOUS
 10
65.1416851623
 20
-57.0570074566
 11
63.6795114926
 21
-58.5191811263
  0
LINE
  5
469
100
AcDbEntity
  8
DRAFT
100
AcDbLine
 62
7
  6
CONTINUOUS
 10
61.8119959538
 20
-60.3866966651
 11
60.3498222841
 21
-61.8488703348
  0
LINE
  5
46A
100
AcDbEntity
  8
DRAFT
100
AcDbLine
 62
7
  6
CONTINUOUS
 10
65.682792175
 20
-57.28114132
 11
63.8708362815
 21
-59.0930972135
  0
LINE
  5
46B
100
AcDbEntity
  8
DRAFT
100
AcDbLine
 62
7
  6
CONTINUOUS
 10
62.385912041
 20
-60.578021454
 11
60.5739561475
 21
-62.3899773475
  0
LINE
  5
46C
100
AcDbEntity
  8
DRAFT
100
AcDbLine
 62
7
  6
CONTINUOUS
 10
57.2220732139
 20
24.0307416136
 11
56.9515403124
 21
24.3012745151
  0
LINE
  5
46D
100
AcDbEntity
  8
DRAFT
100
AcDbLine
 62
7
  6
CONTINUOUS
 10
63.6620732139
 20
17.5907416136
 11
63.9326061154
 21
17.3202087121
  0
LINE
  5
46E
100
AcDbEntity
  8
DRAFT
100
AcDbLine
 62
7
  6
CONTINUOUS
 10
59.7369469481
 20
24.0307416136
 11
60.9570479607
 21
22.8106406009
  0
LINE
  5
46F
100
AcDbEntity
  8
DRAFT
100
AcDbLine
 62
7
  6
CONTINUOUS
 10
62.4419722012
 20
21.3257163604
 11
63.6620732139
 21
20.1056153478
  0
LINE
  5
470
100
AcDbEntity
  8
DRAFT
100
AcDbLine
 62
7
  6
CONTINUOUS
 10
59.8490053449
 20
24.3012745151
 11
60.9570479607
 21
23.1932318993
  0
LINE
  5
471
100
AcDbEntity
  8
DRAFT
100
AcDbLine
 62
7
  6
CONTINUOUS
 10
62.8245634996
 20
21.3257163604
 11
63.9326061154
 21
20.2176737446
  0
LINE
  5
472
100
AcDbEntity
  8
DRAFT
100
AcDbLine
 62
7
  6
CONTINUOUS
 10
60.3498222841
 20
25.510353562
 11
61.8119959538
 21
24.0481798923
  0
LINE
  5
473
100
AcDbEntity
  8
DRAFT
100
AcDbLine
 62
7
  6
CONTINUOUS
 10
63.6795114926
 20
22.1806643535
 11
65.1416851623
 21
20.7184906838
  0
LINE
  5
474
100
AcDbEntity
  8
DRAFT
100
AcDbLine
 62
7
  6
CONTINUOUS
 10
60.5739561475
 20
26.0514605748
 11
62.385912041
 21
24.2395046812
  0
LINE
  5
475
100
AcDbEntity
  8
DRAFT
100
AcDbLine
 62
7
  6
CONTINUOUS
 10
63.8708362815
 20
22.7545804407
 11
65.682792175
 21
20.9426245472
  0
LINE
  5
476
100
AcDbEntity
  8
0
100
AcDbLine
 62
7
  6
CONTINUOUS
 10
80.4620732139
 20
30.8307416136
 11
80.4620732139
 21
-67.1692583864
  0
ARC
  5
477
100
AcDbEntity
  8
DRAFT
100
AcDbCircle
 62
7
  6
CONTINUOUS
 10
-33.5379267861
 20
-49.1692583864
 40
22.0
100
AcDbArc
 50
180.0
 51
270.0
  0
ARC
  5
478
100
AcDbEntity
  8
RACCORDO
100
AcDbCircle
 62
253
  6
CONTINUOUS
 10
-33.5379267861
 20
-49.1692583864
 40
21.9473301734
100
AcDbArc
 50
180.0
 51
270.0
  0
ARC
  5
479
100
AcDbEntity
  8
RACCORDO
100
AcDbCircle
 62
253
  6
CONTINUOUS
 10
-33.5379267861
 20
-49.1692583864
 40
20.9474860453
100
AcDbArc
 50
180.0
 51
270.0
  0
ARC
  5
47A
100
AcDbEntity
  8
0
100
AcDbCircle
 62
7
  6
CONTINUOUS
 10
-51.5379267861
 20
-67.1692583864
 40
10.0
100
AcDbArc
 50
180.0
 51
270.0
  0
ARC
  5
47B
100
AcDbEntity
  8
0
100
AcDbCircle
 62
7
  6
CONTINUOUS
 10
-51.5379267861
 20
-67.1692583864
 40
7.0
100
AcDbArc
 50
180.0
 51
270.0
  0
CIRCLE
  5
47C
100
AcDbEntity
  8
0
100
AcDbCircle
 62
7
  6
CONTINUOUS
 10
-41.5379262372
 20
-57.1692589195
 40
1.4999996177
  0
ARC
  5
47D
100
AcDbEntity
  8
DRAFT
100
AcDbCircle
 62
7
  6
CONTINUOUS
 10
-40.4065559362
 20
-56.0378875365
 40
1.25
100
AcDbArc
 50
146.5369590328
 51
162.8912417693
  0
ARC
  5
47E
100
AcDbEntity
  8
DRAFT
100
AcDbCircle
 62
7
  6
CONTINUOUS
 10
-40.4065559362
 20
-56.0378875365
 40
1.25
100
AcDbArc
 50
287.0723114058
 51
303.4630409672
  0
ARC
  5
47F
100
AcDbEntity
  8
0
100
AcDbCircle
 62
7
  6
CONTINUOUS
 10
-41.5379267861
 20
-57.1692583864
 40
1.0
100
AcDbArc
 50
307.6774584221
 51
360.0
  0
ARC
  5
480
100
AcDbEntity
  8
0
100
AcDbCircle
 62
7
  6
CONTINUOUS
 10
-41.5379267861
 20
-57.1692583864
 40
1.0
100
AcDbArc
 50
127.6774584221
 51
255.84228485
  0
ARC
  5
481
100
AcDbEntity
  8
RACCORDO
100
AcDbCircle
 62
7
  6
CONTINUOUS
 10
-40.4065559362
 20
-56.0378875365
 40
0.9576118513
100
AcDbArc
 50
132.4630056931
 51
317.5369943069
  0
ARC
  5
482
100
AcDbEntity
  8
0
100
AcDbCircle
 62
7
  6
CONTINUOUS
 10
-41.6412650455
 20
-57.5310581466
 40
0.8320718012
100
AcDbArc
 50
344.7743839811
 51
349.517352529
  0
ARC
  5
483
100
AcDbEntity
  8
0
100
AcDbCircle
 62
7
  6
CONTINUOUS
 10
-41.4345885267
 20
-56.8074586262
 40
0.8320718012
100
AcDbArc
 50
164.774383981
 51
169.517352529
  0
ARC
  5
484
100
AcDbEntity
  8
0
100
AcDbCircle
 62
7
  6
CONTINUOUS
 10
-41.481974466
 20
-57.0414981712
 40
0.813765055
100
AcDbArc
 50
150.6304078959
 51
164.4190814713
  0
ARC
  5
485
100
AcDbEntity
  8
0
100
AcDbCircle
 62
7
  6
CONTINUOUS
 10
-41.5938791062
 20
-57.2970186016
 40
0.813765055
100
AcDbArc
 50
330.6304078959
 51
344.4190814713
  0
ARC
  5
486
100
AcDbEntity
  8
RACCORDO
100
AcDbCircle
 62
253
  6
CONTINUOUS
 10
-45.716572255
 20
-53.1582569211
 40
0.5000529581
100
AcDbArc
 50
180.0078787762
 51
269.9852497244
  0
ARC
  5
487
100
AcDbEntity
  8
RACCORDO
100
AcDbCircle
 62
253
  6
CONTINUOUS
 10
-37.5269253286
 20
-61.3479038623
 40
0.5000529501
100
AcDbArc
 50
180.014749475
 51
269.9921221875
  0
ARC
  5
488
100
AcDbEntity
  8
RACCORDO
100
AcDbCircle
 62
253
  6
CONTINUOUS
 10
-41.0529699417
 20
-55.3314481569
 40
0.499921424
100
AcDbArc
 50
312.4562591932
 51
45.0070421407
  0
ARC
  5
489
100
AcDbEntity
  8
RACCORDO
100
AcDbCircle
 62
253
  6
CONTINUOUS
 10
-39.7001037417
 20
-56.6842131431
 40
0.4998635341
100
AcDbArc
 50
44.986830592
 51
137.5522079168
  0
ARC
  5
48A
100
AcDbEntity
  8
RACCORDO
100
AcDbCircle
 62
253
  6
CONTINUOUS
 10
-40.4065559362
 20
-56.0378875365
 40
0.4576308898
100
AcDbArc
 50
132.4630056931
 51
317.5369943069
  0
ARC
  5
48B
100
AcDbEntity
  8
DRAFT
100
AcDbCircle
 62
7
  6
CONTINUOUS
 10
-36.2778695719
 20
-39.3925454635
 40
53.3445427026
100
AcDbArc
 50
50.1424503864
 51
50.3743849141
  0
ARC
  5
48C
100
AcDbEntity
  8
DRAFT
100
AcDbCircle
 62
7
  6
CONTINUOUS
 10
-32.5765717629
 20
-31.1377329622
 40
42.9118920403
100
AcDbArc
 50
50.1507219561
 51
50.4391741376
  0
ARC
  5
48D
100
AcDbEntity
  8
DRAFT
100
AcDbCircle
 62
7
  6
CONTINUOUS
 10
-32.7912037607
 20
-22.075902427
 40
40.957288839
100
AcDbArc
 50
38.8169756115
 51
39.2369027444
  0
ARC
  5
48E
100
AcDbEntity
  8
DRAFT
100
AcDbCircle
 62
7
  6
CONTINUOUS
 10
-28.9401777985
 20
-22.961194566
 40
32.5810455852
100
AcDbArc
 50
50.1649931027
 51
50.4690080268
  0
ARC
  5
48F
100
AcDbEntity
  8
DRAFT
100
AcDbCircle
 62
7
  6
CONTINUOUS
 10
-5.8395044715
 20
-57.9742953554
 40
53.4463594424
100
AcDbArc
 50
39.6258360293
 51
39.8573287154
  0
ARC
  5
490
100
AcDbEntity
  8
DRAFT
100
AcDbCircle
 62
7
  6
CONTINUOUS
 10
2.4153373337
 20
-54.2728888399
 40
43.0136167059
100
AcDbArc
 50
39.5611669819
 51
39.8489369906
  0
ARC
  5
491
100
AcDbEntity
  8
DRAFT
100
AcDbCircle
 62
7
  6
CONTINUOUS
 10
-5.8395044643
 20
-20.3642214079
 40
53.4463594429
100
AcDbArc
 50
320.1426712718
 51
320.3741639579
  0
ARC
  5
492
100
AcDbEntity
  8
DRAFT
100
AcDbCircle
 62
7
  6
CONTINUOUS
 10
1.2020160064
 20
-39.3925454529
 40
53.3445426988
100
AcDbArc
 50
129.6256150987
 51
129.8575496265
  0
ARC
  5
493
100
AcDbEntity
  8
DRAFT
100
AcDbCircle
 62
7
  6
CONTINUOUS
 10
2.4153373422
 20
-24.0656279242
 40
43.013616705
100
AcDbArc
 50
320.1510629933
 51
320.4388330019
  0
ARC
  5
494
100
AcDbEntity
  8
DRAFT
100
AcDbCircle
 62
7
  6
CONTINUOUS
 10
-2.4992817997
 20
-31.1377329548
 40
42.9118920407
100
AcDbArc
 50
129.5608258787
 51
129.8492780601
  0
ARC
  5
495
100
AcDbEntity
  8
DRAFT
100
AcDbCircle
 62
7
  6
CONTINUOUS
 10
-2.2282310807
 20
-22.1216333655
 40
41.0299135776
100
AcDbArc
 50
140.7634688872
 51
141.1826527296
  0
ARC
  5
496
100
AcDbEntity
  8
DRAFT
100
AcDbCircle
 62
7
  6
CONTINUOUS
 10
-6.1356757658
 20
-22.9611945604
 40
32.5810455859
100
AcDbArc
 50
129.5309919902
 51
129.8350069143
  0
ARC
  5
497
100
AcDbEntity
  8
ASSI
100
AcDbCircle
 62
7
  6
CONTINUOUS
 10
9.4620732139
 20
-41.6692583864
 40
16.0
100
AcDbArc
 50
35.278982146
 51
39.3055484535
  0
ARC
  5
498
100
AcDbEntity
  8
ASSI
100
AcDbCircle
 62
7
  6
CONTINUOUS
 10
9.4620732139
 20
-41.6692583864
 40
16.0
100
AcDbArc
 50
20.9930488593
 51
26.4003305563
  0
ARC
  5
499
100
AcDbEntity
  8
ASSI
100
AcDbCircle
 62
7
  6
CONTINUOUS
 10
9.4620732139
 20
-41.6692583864
 40
15.9
100
AcDbArc
 50
35.0706799252
 51
39.152431681
  0
ARC
  5
49A
100
AcDbEntity
  8
ASSI
100
AcDbCircle
 62
7
  6
CONTINUOUS
 10
9.4620732139
 20
-41.6692583864
 40
15.9
100
AcDbArc
 50
20.4731693942
 51
26.0453656692
  0
ARC
  5
49B
100
AcDbEntity
  8
DRAFT
100
AcDbCircle
 62
7
  6
CONTINUOUS
 10
-59.7612138602
 20
-15.9092011846
 40
53.3445427083
100
AcDbArc
 50
39.6256150982
 51
39.8575496259
  0
ARC
  5
49C
100
AcDbEntity
  8
DRAFT
100
AcDbCircle
 62
7
  6
CONTINUOUS
 10
-51.5064013534
 20
-12.2079033736
 40
42.9118920404
100
AcDbArc
 50
39.5608258804
 51
39.8492780619
  0
ARC
  5
49D
100
AcDbEntity
  8
DRAFT
100
AcDbCircle
 62
7
  6
CONTINUOUS
 10
-42.4903017736
 20
-12.4789540836
 40
41.0299135765
100
AcDbArc
 50
50.7634688709
 51
51.1826527133
  0
ARC
  5
49E
100
AcDbEntity
  8
DRAFT
100
AcDbCircle
 62
7
  6
CONTINUOUS
 10
-30.2125550776
 20
-17.6672117262
 40
33.6971168927
100
AcDbArc
 50
38.5831430011
 51
39.0912301868
  0
ARC
  5
49F
100
AcDbEntity
  8
DRAFT
100
AcDbCircle
 62
7
  6
CONTINUOUS
 10
-38.0358801443
 20
-9.8438866625
 40
33.6971168922
100
AcDbArc
 50
50.9087697723
 51
51.4168569581
  0
ARC
  5
4A0
100
AcDbEntity
  8
DRAFT
100
AcDbCircle
 62
7
  6
CONTINUOUS
 10
-43.3298629605
 20
-8.5715094047
 40
32.581045585
100
AcDbArc
 50
39.5309919869
 51
39.835006911
  0
ARC
  5
4A1
100
AcDbEntity
  8
DRAFT
100
AcDbCircle
 62
7
  6
CONTINUOUS
 10
-33.5357923486
 20
-7.1538670051
 40
26.2927918994
100
AcDbArc
 50
51.1364933214
 51
51.6545547033
  0
ARC
  5
4A2
100
AcDbEntity
  8
DRAFT
100
AcDbCircle
 62
7
  6
CONTINUOUS
 10
-33.5357923484
 20
12.8153502321
 40
26.2927918992
100
AcDbArc
 50
308.3454452967
 51
308.8635066786
  0
ARC
  5
4A3
100
AcDbEntity
  8
DRAFT
100
AcDbCircle
 62
7
  6
CONTINUOUS
 10
-27.4768866686
 20
-13.1306771405
 40
26.2343783896
100
AcDbArc
 50
38.3448684315
 51
38.8640833323
  0
ARC
  5
4A4
100
AcDbEntity
  8
DRAFT
100
AcDbCircle
 62
7
  6
CONTINUOUS
 10
-33.5379267861
 20
12.8307416136
 40
22.0
100
AcDbArc
 50
90.0
 51
180.0
  0
ARC
  5
4A5
100
AcDbEntity
  8
RACCORDO
100
AcDbCircle
 62
253
  6
CONTINUOUS
 10
-33.5379267861
 20
12.8307416136
 40
21.9473301734
100
AcDbArc
 50
90.0
 51
180.0
  0
ARC
  5
4A6
100
AcDbEntity
  8
RACCORDO
100
AcDbCircle
 62
253
  6
CONTINUOUS
 10
-33.5379267861
 20
12.8307416136
 40
20.9474860453
100
AcDbArc
 50
90.0
 51
180.0
  0
ARC
  5
4A7
100
AcDbEntity
  8
DRAFT
100
AcDbCircle
 62
7
  6
CONTINUOUS
 10
-36.277869574
 20
45.0540286933
 40
53.344542706
100
AcDbArc
 50
309.6256150859
 51
309.8575496136
  0
ARC
  5
4A8
100
AcDbEntity
  8
DRAFT
100
AcDbCircle
 62
7
  6
CONTINUOUS
 10
-59.7612138488
 20
21.5706844179
 40
53.3445427034
100
AcDbArc
 50
320.1424503612
 51
320.3743848889
  0
ARC
  5
4A9
100
AcDbEntity
  8
DRAFT
100
AcDbCircle
 62
7
  6
CONTINUOUS
 10
-32.576571764
 20
36.7992161907
 40
42.911892042
100
AcDbArc
 50
309.5608258624
 51
309.8492780439
  0
ARC
  5
4AA
100
AcDbEntity
  8
DRAFT
100
AcDbCircle
 62
7
  6
CONTINUOUS
 10
-51.5064013461
 20
17.8693866106
 40
42.911892041
100
AcDbArc
 50
320.1507219219
 51
320.4391741034
  0
ARC
  5
4AB
100
AcDbEntity
  8
DRAFT
100
AcDbCircle
 62
7
  6
CONTINUOUS
 10
-42.4903017739
 20
18.1404373112
 40
41.029913577
100
AcDbArc
 50
308.8173472867
 51
309.2365311291
  0
ARC
  5
4AC
100
AcDbEntity
  8
DRAFT
100
AcDbCircle
 62
7
  6
CONTINUOUS
 10
-32.8476224805
 20
27.7831166038
 40
41.029913576
100
AcDbArc
 50
320.7634688654
 51
321.1826527078
  0
ARC
  5
4AD
100
AcDbEntity
  8
DRAFT
100
AcDbCircle
 62
7
  6
CONTINUOUS
 10
-30.2125550685
 20
23.3286949655
 40
33.6971168932
100
AcDbArc
 50
320.9087697875
 51
321.4168569732
  0
ARC
  5
4AE
100
AcDbEntity
  8
DRAFT
100
AcDbCircle
 62
7
  6
CONTINUOUS
 10
-38.0358801447
 20
15.5053698901
 40
33.6971168928
100
AcDbArc
 50
308.5831430419
 51
309.0912302277
  0
ARC
  5
4AF
100
AcDbEntity
  8
DRAFT
100
AcDbCircle
 62
7
  6
CONTINUOUS
 10
-43.3298629541
 20
14.2329926391
 40
32.5810455847
100
AcDbArc
 50
320.1649930721
 51
320.4690079962
  0
ARC
  5
4B0
100
AcDbEntity
  8
DRAFT
100
AcDbCircle
 62
7
  6
CONTINUOUS
 10
-28.9401777975
 20
28.6226777919
 40
32.5810455836
100
AcDbArc
 50
309.5309919732
 51
309.8350068973
  0
ARC
  5
4B1
100
AcDbEntity
  8
DRAFT
100
AcDbCircle
 62
7
  6
CONTINUOUS
 10
-27.5225354139
 20
18.8286071646
 40
26.2927918993
100
AcDbArc
 50
321.1364933534
 51
321.6545547352
  0
ARC
  5
4B2
100
AcDbEntity
  8
0
100
AcDbCircle
 62
7
  6
CONTINUOUS
 10
-51.5379267861
 20
30.8307416136
 40
10.0
100
AcDbArc
 50
90.0
 51
180.0
  0
ARC
  5
4B3
100
AcDbEntity
  8
0
100
AcDbCircle
 62
7
  6
CONTINUOUS
 10
-51.5379267861
 20
30.8307416136
 40
7.0
100
AcDbArc
 50
90.0
 51
180.0
  0
CIRCLE
  5
4B4
100
AcDbEntity
  8
0
100
AcDbCircle
 62
7
  6
CONTINUOUS
 10
-41.5379262372
 20
20.8307410805
 40
1.4999996177
  0
ARC
  5
4B5
100
AcDbEntity
  8
DRAFT
100
AcDbCircle
 62
7
  6
CONTINUOUS
 10
-40.4065559362
 20
19.6993707637
 40
1.25
100
AcDbArc
 50
56.5369590328
 51
72.9189719944
  0
ARC
  5
4B6
100
AcDbEntity
  8
DRAFT
100
AcDbCircle
 62
7
  6
CONTINUOUS
 10
-40.4065559362
 20
19.6993707637
 40
1.25
100
AcDbArc
 50
197.0953201704
 51
213.4630409672
  0
ARC
  5
4B7
100
AcDbEntity
  8
0
100
AcDbCircle
 62
7
  6
CONTINUOUS
 10
-41.5379267861
 20
20.8307416136
 40
1.0
100
AcDbArc
 50
0.0
 51
75.84228485
  0
ARC
  5
4B8
100
AcDbEntity
  8
0
100
AcDbCircle
 62
7
  6
CONTINUOUS
 10
-41.5379267861
 20
20.8307416136
 40
1.0
100
AcDbArc
 50
127.6774584221
 51
255.84228485
  0
ARC
  5
4B9
100
AcDbEntity
  8
RACCORDO
100
AcDbCircle
 62
7
  6
CONTINUOUS
 10
-40.4065559362
 20
19.6993707637
 40
0.9576118513
100
AcDbArc
 50
42.4630056931
 51
227.5369943069
  0
ARC
  5
4BA
100
AcDbEntity
  8
0
100
AcDbCircle
 62
7
  6
CONTINUOUS
 10
-41.4345885267
 20
21.1925413738
 40
0.8320718012
100
AcDbArc
 50
164.774383981
 51
169.517352529
  0
ARC
  5
4BB
100
AcDbEntity
  8
0
100
AcDbCircle
 62
7
  6
CONTINUOUS
 10
-41.481974466
 20
20.9585018288
 40
0.813765055
100
AcDbArc
 50
150.6304078959
 51
164.4190814713
  0
ARC
  5
4BC
100
AcDbEntity
  8
RACCORDO
100
AcDbCircle
 62
253
  6
CONTINUOUS
 10
-45.716572262
 20
16.8197401562
 40
0.5000529501
100
AcDbArc
 50
90.014749475
 51
179.9921221875
  0
ARC
  5
4BD
100
AcDbEntity
  8
RACCORDO
100
AcDbCircle
 62
253
  6
CONTINUOUS
 10
-37.5269336945
 20
25.0093954573
 40
0.5000429414
100
AcDbArc
 50
90.0069194334
 51
179.9862090809
  0
ARC
  5
4BE
100
AcDbEntity
  8
RACCORDO
100
AcDbCircle
 62
253
  6
CONTINUOUS
 10
-39.7001166147
 20
20.3457848201
 40
0.4999214772
100
AcDbArc
 50
222.4562679903
 51
315.0070427227
  0
ARC
  5
4BF
100
AcDbEntity
  8
RACCORDO
100
AcDbCircle
 62
253
  6
CONTINUOUS
 10
-41.0528814366
 20
18.992918496
 40
0.4998634752
100
AcDbArc
 50
314.9868279158
 51
47.5522225615
  0
ARC
  5
4C0
100
AcDbEntity
  8
RACCORDO
100
AcDbCircle
 62
253
  6
CONTINUOUS
 10
-40.4065559362
 20
19.6993707637
 40
0.4576308898
100
AcDbArc
 50
42.4630056931
 51
227.5369943069
  0
ARC
  5
4C1
100
AcDbEntity
  8
DRAFT
100
AcDbCircle
 62
7
  6
CONTINUOUS
 10
-4.8632984943
 20
-17.6672117265
 40
33.6971168931
100
AcDbArc
 50
140.9087698132
 51
141.4168569989
  0
ARC
  5
4C2
100
AcDbEntity
  8
DRAFT
100
AcDbCircle
 62
7
  6
CONTINUOUS
 10
-7.5533181513
 20
-13.1671239278
 40
26.2927918988
100
AcDbArc
 50
141.136493379
 51
141.6545547609
  0
CIRCLE
  5
4C3
100
AcDbEntity
  8
DRAFT
100
AcDbCircle
 62
7
  6
CONTINUOUS
 10
-17.5379267861
 20
2.8307416136
 40
16.7115923769
  0
ARC
  5
4C4
100
AcDbEntity
  8
DRAFT
100
AcDbCircle
 62
7
  6
CONTINUOUS
 10
-17.5379267861
 20
2.8307416136
 40
16.6763269807
100
AcDbArc
 50
177.3645150851
 51
182.6354849149
  0
ARC
  5
4C5
100
AcDbEntity
  8
DRAFT
100
AcDbCircle
 62
7
  6
CONTINUOUS
 10
-17.5379267861
 20
2.8307416136
 40
16.6763269807
100
AcDbArc
 50
357.3645150851
 51
2.6354849149
  0
ARC
  5
4C6
100
AcDbEntity
  8
DRAFT
100
AcDbCircle
 62
7
  6
CONTINUOUS
 10
-17.5379267861
 20
2.8307416136
 40
16.6763269807
100
AcDbArc
 50
87.3645150851
 51
92.6354849149
  0
ARC
  5
4C7
100
AcDbEntity
  8
DRAFT
100
AcDbCircle
 62
7
  6
CONTINUOUS
 10
-17.5379267861
 20
2.8307416136
 40
16.6763269807
100
AcDbArc
 50
267.3645150851
 51
272.6354849149
  0
ARC
  5
4C8
100
AcDbEntity
  8
DRAFT
100
AcDbCircle
 62
7
  6
CONTINUOUS
 10
-17.5379267861
 20
2.8307416136
 40
16.5
100
AcDbArc
 50
273.4746007931
 51
356.5253992069
  0
ARC
  5
4C9
100
AcDbEntity
  8
DRAFT
100
AcDbCircle
 62
7
  6
CONTINUOUS
 10
-17.5379267861
 20
2.8307416136
 40
16.5
100
AcDbArc
 50
3.4746007931
 51
86.5253992069
  0
ARC
  5
4CA
100
AcDbEntity
  8
DRAFT
100
AcDbCircle
 62
7
  6
CONTINUOUS
 10
-17.5379267861
 20
2.8307416136
 40
16.5
100
AcDbArc
 50
183.4746007931
 51
266.5253992069
  0
ARC
  5
4CB
100
AcDbEntity
  8
DRAFT
100
AcDbCircle
 62
7
  6
CONTINUOUS
 10
-17.5379267861
 20
2.8307416136
 40
16.5
100
AcDbArc
 50
93.4746007931
 51
176.5253992069
  0
ARC
  5
4CC
100
AcDbEntity
  8
DRAFT
100
AcDbCircle
 62
7
  6
CONTINUOUS
 10
-17.5379267861
 20
2.8307416136
 40
15.5
100
AcDbArc
 50
274.7141877419
 51
355.2858122581
  0
ARC
  5
4CD
100
AcDbEntity
  8
DRAFT
100
AcDbCircle
 62
7
  6
CONTINUOUS
 10
-17.5379267861
 20
2.8307416136
 40
15.5
100
AcDbArc
 50
4.7141877419
 51
85.2858122581
  0
ARC
  5
4CE
100
AcDbEntity
  8
DRAFT
100
AcDbCircle
 62
7
  6
CONTINUOUS
 10
-17.5379267861
 20
2.8307416136
 40
15.5
100
AcDbArc
 50
184.7141877419
 51
265.2858122581
  0
ARC
  5
4CF
100
AcDbEntity
  8
DRAFT
100
AcDbCircle
 62
7
  6
CONTINUOUS
 10
-17.5379267861
 20
2.8307416136
 40
15.5
100
AcDbArc
 50
94.7141877419
 51
175.2858122581
  0
ARC
  5
4D0
100
AcDbEntity
  8
DRAFT
100
AcDbCircle
 62
7
  6
CONTINUOUS
 10
-17.5379267861
 20
2.8307416136
 40
15.3236730193
100
AcDbArc
 50
94.2507573531
 51
175.7492426469
  0
ARC
  5
4D1
100
AcDbEntity
  8
DRAFT
100
AcDbCircle
 62
7
  6
CONTINUOUS
 10
-17.5379267861
 20
2.8307416136
 40
15.3236730193
100
AcDbArc
 50
184.2507573531
 51
265.7492426469
  0
ARC
  5
4D2
100
AcDbEntity
  8
DRAFT
100
AcDbCircle
 62
7
  6
CONTINUOUS
 10
-17.5379267861
 20
2.8307416136
 40
15.3236730193
100
AcDbArc
 50
4.2507573531
 51
85.7492426469
  0
ARC
  5
4D3
100
AcDbEntity
  8
DRAFT
100
AcDbCircle
 62
7
  6
CONTINUOUS
 10
-17.5379267861
 20
2.8307416136
 40
15.3236730193
100
AcDbArc
 50
274.2507573531
 51
355.7492426469
  0
ARC
  5
4D4
100
AcDbEntity
  8
DRAFT
100
AcDbCircle
 62
7
  6
CONTINUOUS
 10
-17.5379267861
 20
2.8307416136
 40
13.6763269807
100
AcDbArc
 50
182.1674546178
 51
267.8325453822
  0
ARC
  5
4D5
100
AcDbEntity
  8
DRAFT
100
AcDbCircle
 62
7
  6
CONTINUOUS
 10
-17.5379267861
 20
2.8307416136
 40
13.6763269807
100
AcDbArc
 50
272.1674546178
 51
357.8325453822
  0
ARC
  5
4D6
100
AcDbEntity
  8
DRAFT
100
AcDbCircle
 62
7
  6
CONTINUOUS
 10
-17.5379267861
 20
2.8307416136
 40
13.6763269807
100
AcDbArc
 50
92.1674546178
 51
177.8325453822
  0
ARC
  5
4D7
100
AcDbEntity
  8
DRAFT
100
AcDbCircle
 62
7
  6
CONTINUOUS
 10
-17.5379267861
 20
2.8307416136
 40
13.6763269807
100
AcDbArc
 50
2.1674546178
 51
87.8325453822
  0
ARC
  5
4D8
100
AcDbEntity
  8
DRAFT
100
AcDbCircle
 62
7
  6
CONTINUOUS
 10
-17.5379267861
 20
2.8307416136
 40
13.5
100
AcDbArc
 50
273.1847385367
 51
356.8152614633
  0
ARC
  5
4D9
100
AcDbEntity
  8
DRAFT
100
AcDbCircle
 62
7
  6
CONTINUOUS
 10
-17.5379267861
 20
2.8307416136
 40
13.5
100
AcDbArc
 50
3.1847385367
 51
86.8152614633
  0
ARC
  5
4DA
100
AcDbEntity
  8
DRAFT
100
AcDbCircle
 62
7
  6
CONTINUOUS
 10
-17.5379267861
 20
2.8307416136
 40
13.5
100
AcDbArc
 50
183.1847385367
 51
266.8152614633
  0
ARC
  5
4DB
100
AcDbEntity
  8
DRAFT
100
AcDbCircle
 62
7
  6
CONTINUOUS
 10
-17.5379267861
 20
2.8307416136
 40
13.5
100
AcDbArc
 50
93.1847385367
 51
176.8152614633
  0
ARC
  5
4DC
100
AcDbEntity
  8
DRAFT
100
AcDbCircle
 62
7
  6
CONTINUOUS
 10
-17.5379267861
 20
2.8307416136
 40
12.5
100
AcDbArc
 50
274.6971495355
 51
355.3028504645
  0
ARC
  5
4DD
100
AcDbEntity
  8
DRAFT
100
AcDbCircle
 62
7
  6
CONTINUOUS
 10
-17.5379267861
 20
2.8307416136
 40
12.5
100
AcDbArc
 50
4.6971495355
 51
85.3028504645
  0
ARC
  5
4DE
100
AcDbEntity
  8
DRAFT
100
AcDbCircle
 62
7
  6
CONTINUOUS
 10
-17.5379267861
 20
2.8307416136
 40
12.5
100
AcDbArc
 50
184.6971495355
 51
265.3028504645
  0
ARC
  5
4DF
100
AcDbEntity
  8
DRAFT
100
AcDbCircle
 62
7
  6
CONTINUOUS
 10
-17.5379267861
 20
2.8307416136
 40
12.5
100
AcDbArc
 50
94.6971495355
 51
175.3028504645
  0
ARC
  5
4E0
100
AcDbEntity
  8
DRAFT
100
AcDbCircle
 62
7
  6
CONTINUOUS
 10
-17.5379267861
 20
2.8307416136
 40
12.3236730193
100
AcDbArc
 50
94.1209209803
 51
175.8790790197
  0
ARC
  5
4E1
100
AcDbEntity
  8
DRAFT
100
AcDbCircle
 62
7
  6
CONTINUOUS
 10
-17.5379267861
 20
2.8307416136
 40
12.3236730193
100
AcDbArc
 50
184.1209209803
 51
265.8790790197
  0
ARC
  5
4E2
100
AcDbEntity
  8
DRAFT
100
AcDbCircle
 62
7
  6
CONTINUOUS
 10
-17.5379267861
 20
2.8307416136
 40
12.3236730193
100
AcDbArc
 50
4.1209209803
 51
85.8790790197
  0
ARC
  5
4E3
100
AcDbEntity
  8
DRAFT
100
AcDbCircle
 62
7
  6
CONTINUOUS
 10
-17.5379267861
 20
2.8307416136
 40
12.3236730193
100
AcDbArc
 50
274.1209209803
 51
355.8790790197
  0
CIRCLE
  5
4E4
100
AcDbEntity
  8
DRAFT
100
AcDbCircle
 62
7
  6
CONTINUOUS
 10
-17.5379267861
 20
2.8307416136
 40
10.6763269807
  0
ARC
  5
4E5
100
AcDbEntity
  8
DRAFT
100
AcDbCircle
 62
7
  6
CONTINUOUS
 10
-17.5379267861
 20
2.8307416136
 40
10.6410615846
100
AcDbArc
 50
358.3078846415
 51
1.6921153585
  0
ARC
  5
4E6
100
AcDbEntity
  8
DRAFT
100
AcDbCircle
 62
7
  6
CONTINUOUS
 10
-17.5379267861
 20
2.8307416136
 40
10.6410615846
100
AcDbArc
 50
178.3078846415
 51
181.6921153585
  0
ARC
  5
4E7
100
AcDbEntity
  8
DRAFT
100
AcDbCircle
 62
7
  6
CONTINUOUS
 10
-17.5379267861
 20
2.8307416136
 40
10.6410615846
100
AcDbArc
 50
88.3078846415
 51
91.6921153585
  0
ARC
  5
4E8
100
AcDbEntity
  8
DRAFT
100
AcDbCircle
 62
7
  6
CONTINUOUS
 10
-17.5379267861
 20
2.8307416136
 40
10.6410615846
100
AcDbArc
 50
268.3078846415
 51
271.6921153585
  0
ARC
  5
4E9
100
AcDbEntity
  8
DRAFT
100
AcDbCircle
 62
7
  6
CONTINUOUS
 10
-17.5379267861
 20
2.8307416136
 40
10.5
100
AcDbArc
 50
272.7294026368
 51
357.2705973632
  0
ARC
  5
4EA
100
AcDbEntity
  8
DRAFT
100
AcDbCircle
 62
7
  6
CONTINUOUS
 10
-17.5379267861
 20
2.8307416136
 40
10.5
100
AcDbArc
 50
2.7294026368
 51
87.2705973632
  0
ARC
  5
4EB
100
AcDbEntity
  8
DRAFT
100
AcDbCircle
 62
7
  6
CONTINUOUS
 10
-17.5379267861
 20
2.8307416136
 40
10.5
100
AcDbArc
 50
182.7294026368
 51
267.2705973632
  0
ARC
  5
4EC
100
AcDbEntity
  8
DRAFT
100
AcDbCircle
 62
7
  6
CONTINUOUS
 10
-17.5379267861
 20
2.8307416136
 40
10.5
100
AcDbArc
 50
92.7294026368
 51
177.2705973632
  0
ARC
  5
4ED
100
AcDbEntity
  8
DRAFT
100
AcDbCircle
 62
7
  6
CONTINUOUS
 10
-17.5379267861
 20
2.8307416136
 40
9.5
100
AcDbArc
 50
274.668453194
 51
355.331546806
  0
ARC
  5
4EE
100
AcDbEntity
  8
DRAFT
100
AcDbCircle
 62
7
  6
CONTINUOUS
 10
-17.5379267861
 20
2.8307416136
 40
9.5
100
AcDbArc
 50
4.668453194
 51
85.331546806
  0
ARC
  5
4EF
100
AcDbEntity
  8
DRAFT
100
AcDbCircle
 62
7
  6
CONTINUOUS
 10
-17.5379267861
 20
2.8307416136
 40
9.5
100
AcDbArc
 50
184.668453194
 51
265.331546806
  0
ARC
  5
4F0
100
AcDbEntity
  8
DRAFT
100
AcDbCircle
 62
7
  6
CONTINUOUS
 10
-17.5379267861
 20
2.8307416136
 40
9.5
100
AcDbArc
 50
94.668453194
 51
175.331546806
  0
ARC
  5
4F1
100
AcDbEntity
  8
DRAFT
100
AcDbCircle
 62
7
  6
CONTINUOUS
 10
-17.5379267861
 20
2.8307416136
 40
9.3589384154
100
AcDbArc
 50
94.0611725955
 51
175.9388274045
  0
ARC
  5
4F2
100
AcDbEntity
  8
DRAFT
100
AcDbCircle
 62
7
  6
CONTINUOUS
 10
-17.5379267861
 20
2.8307416136
 40
9.3589384154
100
AcDbArc
 50
184.0611725955
 51
265.9388274045
  0
ARC
  5
4F3
100
AcDbEntity
  8
DRAFT
100
AcDbCircle
 62
7
  6
CONTINUOUS
 10
-17.5379267861
 20
2.8307416136
 40
9.3589384154
100
AcDbArc
 50
4.0611725955
 51
85.9388274045
  0
ARC
  5
4F4
100
AcDbEntity
  8
DRAFT
100
AcDbCircle
 62
7
  6
CONTINUOUS
 10
-17.5379267861
 20
2.8307416136
 40
9.3589384154
100
AcDbArc
 50
274.0611725955
 51
355.9388274045
  0
ARC
  5
4F5
100
AcDbEntity
  8
DRAFT
100
AcDbCircle
 62
7
  6
CONTINUOUS
 10
7.4144482139
 20
-12.4789540744
 40
41.0299135772
100
AcDbArc
 50
128.8173473084
 51
129.2365311509
  0
ARC
  5
4F6
100
AcDbEntity
  8
DRAFT
100
AcDbCircle
 62
7
  6
CONTINUOUS
 10
2.9600265839
 20
-9.843886653
 40
33.6971168922
100
AcDbArc
 50
128.5831430676
 51
129.0912302534
  0
ARC
  5
4F7
100
AcDbEntity
  8
DRAFT
100
AcDbCircle
 62
7
  6
CONTINUOUS
 10
8.2540093874
 20
-8.5715094039
 40
32.5810455838
100
AcDbArc
 50
140.164993089
 51
140.4690080131
  0
ARC
  5
4F8
100
AcDbEntity
  8
DRAFT
100
AcDbCircle
 62
7
  6
CONTINUOUS
 10
-1.5400612146
 20
-7.1538669975
 40
26.2927918991
100
AcDbArc
 50
128.3454453224
 51
128.8635067042
  0
CIRCLE
  5
4F9
100
AcDbEntity
  8
0
100
AcDbCircle
 62
7
  6
CONTINUOUS
 10
9.4620732139
 20
-18.1692583864
 40
6.742217736
  0
ARC
  5
4FA
100
AcDbEntity
  8
DRAFT
100
AcDbCircle
 62
7
  6
CONTINUOUS
 10
-1.5400612145
 20
12.815350225
 40
26.2927918993
100
AcDbArc
 50
231.1364932958
 51
231.6545546776
  0
ARC
  5
4FB
100
AcDbEntity
  8
ASSI
100
AcDbCircle
 62
7
  6
CONTINUOUS
 10
9.4620732139
 20
5.3307416136
 40
16.0
100
AcDbArc
 50
215.278982146
 51
219.3055484535
  0
ARC
  5
4FC
100
AcDbEntity
  8
ASSI
100
AcDbCircle
 62
7
  6
CONTINUOUS
 10
9.4620732139
 20
5.3307416136
 40
16.0
100
AcDbArc
 50
200.9930488593
 51
206.4003305563
  0
ARC
  5
4FD
100
AcDbEntity
  8
ASSI
100
AcDbCircle
 62
7
  6
CONTINUOUS
 10
9.4620732139
 20
5.3307416136
 40
15.9
100
AcDbArc
 50
215.0706799252
 51
219.152431681
  0
ARC
  5
4FE
100
AcDbEntity
  8
ASSI
100
AcDbCircle
 62
7
  6
CONTINUOUS
 10
9.4620732139
 20
5.3307416136
 40
15.9
100
AcDbArc
 50
200.4731693942
 51
206.0453656692
  0
ARC
  5
4FF
100
AcDbEntity
  8
DRAFT
100
AcDbCircle
 62
7
  6
CONTINUOUS
 10
1.2020160087
 20
45.0540286828
 40
53.3445427024
100
AcDbArc
 50
230.1424503735
 51
230.3743849012
  0
ARC
  5
500
100
AcDbEntity
  8
DRAFT
100
AcDbCircle
 62
7
  6
CONTINUOUS
 10
-2.4992817976
 20
36.7992161845
 40
42.911892044
100
AcDbArc
 50
230.1507219399
 51
230.4391741213
  0
ARC
  5
501
100
AcDbEntity
  8
DRAFT
100
AcDbCircle
 62
7
  6
CONTINUOUS
 10
-2.2282310906
 20
27.7831166047
 40
41.0299135774
100
AcDbArc
 50
218.8173472922
 51
219.2365311346
  0
ARC
  5
502
100
AcDbEntity
  8
DRAFT
100
AcDbCircle
 62
7
  6
CONTINUOUS
 10
7.4144482135
 20
18.140437301
 40
41.0299135765
100
AcDbArc
 50
230.7634688491
 51
231.1826526916
  0
ARC
  5
503
100
AcDbEntity
  8
DRAFT
100
AcDbCircle
 62
7
  6
CONTINUOUS
 10
-4.863298504
 20
23.3286949653
 40
33.6971168928
100
AcDbArc
 50
218.5831430268
 51
219.0912302125
  0
ARC
  5
504
100
AcDbEntity
  8
DRAFT
100
AcDbCircle
 62
7
  6
CONTINUOUS
 10
2.9600265843
 20
15.5053698807
 40
33.6971168929
100
AcDbArc
 50
230.9087697466
 51
231.4168569324
  0
ARC
  5
505
100
AcDbEntity
  8
DRAFT
100
AcDbCircle
 62
7
  6
CONTINUOUS
 10
-6.1356757671
 20
28.622677786
 40
32.5810455838
100
AcDbArc
 50
230.1649930857
 51
230.4690080099
  0
ARC
  5
506
100
AcDbEntity
  8
DRAFT
100
AcDbCircle
 62
7
  6
CONTINUOUS
 10
8.2540093813
 20
14.2329926385
 40
32.5810455838
100
AcDbArc
 50
219.5309920038
 51
219.8350069279
  0
ARC
  5
507
100
AcDbEntity
  8
DRAFT
100
AcDbCircle
 62
7
  6
CONTINUOUS
 10
-7.5533181587
 20
18.8286071642
 40
26.2927918987
100
AcDbArc
 50
218.3454452648
 51
218.8635066467
  0
ARC
  5
508
100
AcDbEntity
  8
DRAFT
100
AcDbCircle
 62
7
  6
CONTINUOUS
 10
17.6570362371
 20
-81.4708360632
 40
53.4463594408
100
AcDbArc
 50
50.1426712723
 51
50.3741639583
  0
ARC
  5
509
100
AcDbEntity
  8
DRAFT
100
AcDbCircle
 62
7
  6
CONTINUOUS
 10
21.3584427501
 20
-73.2159942578
 40
43.0136167058
100
AcDbArc
 50
50.1510629914
 51
50.438833
  0
ARC
  5
50A
100
AcDbEntity
  8
DRAFT
100
AcDbCircle
 62
7
  6
CONTINUOUS
 10
21.2087962393
 20
-64.075902427
 40
40.9572888391
100
AcDbArc
 50
38.8169756115
 51
39.2369027444
  0
ARC
  5
50B
100
AcDbEntity
  8
DRAFT
100
AcDbCircle
 62
7
  6
CONTINUOUS
 10
11.5554291823
 20
-54.4225353684
 40
40.9572888392
100
AcDbArc
 50
50.763097272
 51
51.1830244049
  0
ARC
  5
50C
100
AcDbEntity
  8
DRAFT
100
AcDbCircle
 62
7
  6
CONTINUOUS
 10
23.8441510869
 20
-59.6215581462
 40
33.6243173017
100
AcDbArc
 50
38.5825929391
 51
39.0917801805
  0
ARC
  5
50D
100
AcDbEntity
  8
DRAFT
100
AcDbCircle
 62
7
  6
CONTINUOUS
 10
16.0097734729
 20
-51.7871805285
 40
33.6243173017
100
AcDbArc
 50
50.9082198606
 51
51.417407102
  0
ARC
  5
50E
100
AcDbEntity
  8
DRAFT
100
AcDbCircle
 62
7
  6
CONTINUOUS
 10
25.0078861869
 20
-65.0237895446
 40
32.6623810336
100
AcDbArc
 50
50.1653715911
 51
50.4686294605
  0
ARC
  5
50F
100
AcDbEntity
  8
DRAFT
100
AcDbCircle
 62
7
  6
CONTINUOUS
 10
10.6075420528
 20
-50.6234454056
 40
32.6623810308
100
AcDbArc
 50
39.5313705257
 51
39.8346283951
  0
ARC
  5
510
100
AcDbEntity
  8
DRAFT
100
AcDbCircle
 62
7
  6
CONTINUOUS
 10
26.5231133314
 20
-55.1306771405
 40
26.2343783896
100
AcDbArc
 50
38.3448684315
 51
38.8640833323
  0
ARC
  5
511
100
AcDbEntity
  8
DRAFT
100
AcDbCircle
 62
7
  6
CONTINUOUS
 10
20.5006544806
 20
-49.1082182853
 40
26.2343783894
100
AcDbArc
 50
51.1359167255
 51
51.6551316263
  0
ARC
  5
512
100
AcDbEntity
  8
DRAFT
100
AcDbCircle
 62
7
  6
CONTINUOUS
 10
11.5554291823
 20
-23.9159814043
 40
40.9572888392
100
AcDbArc
 50
308.8169755951
 51
309.236902728
  0
ARC
  5
513
100
AcDbEntity
  8
DRAFT
100
AcDbCircle
 62
7
  6
CONTINUOUS
 10
16.009773473
 20
-26.5513362445
 40
33.6243173015
100
AcDbArc
 50
308.582592898
 51
309.0917801394
  0
ARC
  5
514
100
AcDbEntity
  8
DRAFT
100
AcDbCircle
 62
7
  6
CONTINUOUS
 10
10.607542058
 20
-27.715071359
 40
32.662381032
100
AcDbArc
 50
320.165371588
 51
320.4686294574
  0
ARC
  5
515
100
AcDbEntity
  8
DRAFT
100
AcDbCircle
 62
7
  6
CONTINUOUS
 10
20.5006544806
 20
-29.2302984875
 40
26.2343783894
100
AcDbArc
 50
308.3448683737
 51
308.8640832745
  0
CIRCLE
  5
516
100
AcDbEntity
  8
DRAFT
100
AcDbCircle
 62
7
  6
CONTINUOUS
 10
36.4620732139
 20
-39.1692583864
 40
16.7115923769
  0
ARC
  5
517
100
AcDbEntity
  8
DRAFT
100
AcDbCircle
 62
7
  6
CONTINUOUS
 10
36.4620732139
 20
-39.1692583864
 40
16.6763269807
100
AcDbArc
 50
357.3645150851
 51
2.6354849149
  0
ARC
  5
518
100
AcDbEntity
  8
DRAFT
100
AcDbCircle
 62
7
  6
CONTINUOUS
 10
36.4620732139
 20
-39.1692583864
 40
16.6763269807
100
AcDbArc
 50
177.3645150851
 51
182.6354849149
  0
ARC
  5
519
100
AcDbEntity
  8
DRAFT
100
AcDbCircle
 62
7
  6
CONTINUOUS
 10
36.4620732139
 20
-39.1692583864
 40
16.6763269807
100
AcDbArc
 50
267.3645150851
 51
272.6354849149
  0
ARC
  5
51A
100
AcDbEntity
  8
DRAFT
100
AcDbCircle
 62
7
  6
CONTINUOUS
 10
36.4620732139
 20
-39.1692583864
 40
16.6763269807
100
AcDbArc
 50
87.3645150851
 51
92.6354849149
  0
ARC
  5
51B
100
AcDbEntity
  8
DRAFT
100
AcDbCircle
 62
7
  6
CONTINUOUS
 10
36.4620732139
 20
-39.1692583864
 40
16.5
100
AcDbArc
 50
93.4746007931
 51
176.5253992069
  0
ARC
  5
51C
100
AcDbEntity
  8
DRAFT
100
AcDbCircle
 62
7
  6
CONTINUOUS
 10
36.4620732139
 20
-39.1692583864
 40
16.5
100
AcDbArc
 50
183.4746007931
 51
266.5253992069
  0
ARC
  5
51D
100
AcDbEntity
  8
DRAFT
100
AcDbCircle
 62
7
  6
CONTINUOUS
 10
36.4620732139
 20
-39.1692583864
 40
16.5
100
AcDbArc
 50
3.4746007931
 51
86.5253992069
  0
ARC
  5
51E
100
AcDbEntity
  8
DRAFT
100
AcDbCircle
 62
7
  6
CONTINUOUS
 10
36.4620732139
 20
-39.1692583864
 40
16.5
100
AcDbArc
 50
273.4746007931
 51
356.5253992069
  0
ARC
  5
51F
100
AcDbEntity
  8
DRAFT
100
AcDbCircle
 62
7
  6
CONTINUOUS
 10
36.4620732139
 20
-39.1692583864
 40
15.5
100
AcDbArc
 50
94.7141877419
 51
175.2858122581
  0
ARC
  5
520
100
AcDbEntity
  8
DRAFT
100
AcDbCircle
 62
7
  6
CONTINUOUS
 10
36.4620732139
 20
-39.1692583864
 40
15.5
100
AcDbArc
 50
184.7141877419
 51
265.2858122581
  0
ARC
  5
521
100
AcDbEntity
  8
DRAFT
100
AcDbCircle
 62
7
  6
CONTINUOUS
 10
36.4620732139
 20
-39.1692583864
 40
15.5
100
AcDbArc
 50
4.7141877419
 51
85.2858122581
  0
ARC
  5
522
100
AcDbEntity
  8
DRAFT
100
AcDbCircle
 62
7
  6
CONTINUOUS
 10
36.4620732139
 20
-39.1692583864
 40
15.5
100
AcDbArc
 50
274.7141877419
 51
355.2858122581
  0
ARC
  5
523
100
AcDbEntity
  8
DRAFT
100
AcDbCircle
 62
7
  6
CONTINUOUS
 10
36.4620732139
 20
-39.1692583864
 40
15.3236730193
100
AcDbArc
 50
274.2507573531
 51
355.7492426469
  0
ARC
  5
524
100
AcDbEntity
  8
DRAFT
100
AcDbCircle
 62
7
  6
CONTINUOUS
 10
36.4620732139
 20
-39.1692583864
 40
15.3236730193
100
AcDbArc
 50
4.2507573531
 51
85.7492426469
  0
ARC
  5
525
100
AcDbEntity
  8
DRAFT
100
AcDbCircle
 62
7
  6
CONTINUOUS
 10
36.4620732139
 20
-39.1692583864
 40
15.3236730193
100
AcDbArc
 50
184.2507573531
 51
265.7492426469
  0
ARC
  5
526
100
AcDbEntity
  8
DRAFT
100
AcDbCircle
 62
7
  6
CONTINUOUS
 10
36.4620732139
 20
-39.1692583864
 40
15.3236730193
100
AcDbArc
 50
94.2507573531
 51
175.7492426469
  0
ARC
  5
527
100
AcDbEntity
  8
DRAFT
100
AcDbCircle
 62
7
  6
CONTINUOUS
 10
36.4620732139
 20
-39.1692583864
 40
13.6763269807
100
AcDbArc
 50
2.1674546178
 51
87.8325453822
  0
ARC
  5
528
100
AcDbEntity
  8
DRAFT
100
AcDbCircle
 62
7
  6
CONTINUOUS
 10
36.4620732139
 20
-39.1692583864
 40
13.6763269807
100
AcDbArc
 50
92.1674546178
 51
177.8325453822
  0
ARC
  5
529
100
AcDbEntity
  8
DRAFT
100
AcDbCircle
 62
7
  6
CONTINUOUS
 10
36.4620732139
 20
-39.1692583864
 40
13.6763269807
100
AcDbArc
 50
272.1674546178
 51
357.8325453822
  0
ARC
  5
52A
100
AcDbEntity
  8
DRAFT
100
AcDbCircle
 62
7
  6
CONTINUOUS
 10
36.4620732139
 20
-39.1692583864
 40
13.6763269807
100
AcDbArc
 50
182.1674546178
 51
267.8325453822
  0
ARC
  5
52B
100
AcDbEntity
  8
DRAFT
100
AcDbCircle
 62
7
  6
CONTINUOUS
 10
36.4620732139
 20
-39.1692583864
 40
13.5
100
AcDbArc
 50
93.1847385367
 51
176.8152614633
  0
ARC
  5
52C
100
AcDbEntity
  8
DRAFT
100
AcDbCircle
 62
7
  6
CONTINUOUS
 10
36.4620732139
 20
-39.1692583864
 40
13.5
100
AcDbArc
 50
183.1847385367
 51
266.8152614633
  0
ARC
  5
52D
100
AcDbEntity
  8
DRAFT
100
AcDbCircle
 62
7
  6
CONTINUOUS
 10
36.4620732139
 20
-39.1692583864
 40
13.5
100
AcDbArc
 50
3.1847385367
 51
86.8152614633
  0
ARC
  5
52E
100
AcDbEntity
  8
DRAFT
100
AcDbCircle
 62
7
  6
CONTINUOUS
 10
36.4620732139
 20
-39.1692583864
 40
13.5
100
AcDbArc
 50
273.1847385367
 51
356.8152614633
  0
ARC
  5
52F
100
AcDbEntity
  8
DRAFT
100
AcDbCircle
 62
7
  6
CONTINUOUS
 10
36.4620732139
 20
-39.1692583864
 40
12.5
100
AcDbArc
 50
94.6971495355
 51
175.3028504645
  0
ARC
  5
530
100
AcDbEntity
  8
DRAFT
100
AcDbCircle
 62
7
  6
CONTINUOUS
 10
36.4620732139
 20
-39.1692583864
 40
12.5
100
AcDbArc
 50
184.6971495355
 51
265.3028504645
  0
ARC
  5
531
100
AcDbEntity
  8
DRAFT
100
AcDbCircle
 62
7
  6
CONTINUOUS
 10
36.4620732139
 20
-39.1692583864
 40
12.5
100
AcDbArc
 50
4.6971495355
 51
85.3028504645
  0
ARC
  5
532
100
AcDbEntity
  8
DRAFT
100
AcDbCircle
 62
7
  6
CONTINUOUS
 10
36.4620732139
 20
-39.1692583864
 40
12.5
100
AcDbArc
 50
274.6971495355
 51
355.3028504645
  0
ARC
  5
533
100
AcDbEntity
  8
DRAFT
100
AcDbCircle
 62
7
  6
CONTINUOUS
 10
36.4620732139
 20
-39.1692583864
 40
12.3236730193
100
AcDbArc
 50
274.1209209803
 51
355.8790790197
  0
ARC
  5
534
100
AcDbEntity
  8
DRAFT
100
AcDbCircle
 62
7
  6
CONTINUOUS
 10
36.4620732139
 20
-39.1692583864
 40
12.3236730193
100
AcDbArc
 50
4.1209209803
 51
85.8790790197
  0
ARC
  5
535
100
AcDbEntity
  8
DRAFT
100
AcDbCircle
 62
7
  6
CONTINUOUS
 10
36.4620732139
 20
-39.1692583864
 40
12.3236730193
100
AcDbArc
 50
184.1209209803
 51
265.8790790197
  0
ARC
  5
536
100
AcDbEntity
  8
DRAFT
100
AcDbCircle
 62
7
  6
CONTINUOUS
 10
36.4620732139
 20
-39.1692583864
 40
12.3236730193
100
AcDbArc
 50
94.1209209803
 51
175.8790790197
  0
CIRCLE
  5
537
100
AcDbEntity
  8
DRAFT
100
AcDbCircle
 62
7
  6
CONTINUOUS
 10
36.4620732139
 20
-39.1692583864
 40
10.6763269807
  0
ARC
  5
538
100
AcDbEntity
  8
DRAFT
100
AcDbCircle
 62
7
  6
CONTINUOUS
 10
36.4620732139
 20
-39.1692583864
 40
10.6410615846
100
AcDbArc
 50
358.3078846415
 51
1.6921153585
  0
ARC
  5
539
100
AcDbEntity
  8
DRAFT
100
AcDbCircle
 62
7
  6
CONTINUOUS
 10
36.4620732139
 20
-39.1692583864
 40
10.6410615846
100
AcDbArc
 50
178.3078846415
 51
181.6921153585
  0
ARC
  5
53A
100
AcDbEntity
  8
DRAFT
100
AcDbCircle
 62
7
  6
CONTINUOUS
 10
36.4620732139
 20
-39.1692583864
 40
10.6410615846
100
AcDbArc
 50
268.3078846415
 51
271.6921153585
  0
ARC
  5
53B
100
AcDbEntity
  8
DRAFT
100
AcDbCircle
 62
7
  6
CONTINUOUS
 10
36.4620732139
 20
-39.1692583864
 40
10.6410615846
100
AcDbArc
 50
88.3078846415
 51
91.6921153585
  0
ARC
  5
53C
100
AcDbEntity
  8
DRAFT
100
AcDbCircle
 62
7
  6
CONTINUOUS
 10
36.4620732139
 20
-39.1692583864
 40
10.5
100
AcDbArc
 50
92.7294026368
 51
177.2705973632
  0
ARC
  5
53D
100
AcDbEntity
  8
DRAFT
100
AcDbCircle
 62
7
  6
CONTINUOUS
 10
36.4620732139
 20
-39.1692583864
 40
10.5
100
AcDbArc
 50
182.7294026368
 51
267.2705973632
  0
ARC
  5
53E
100
AcDbEntity
  8
DRAFT
100
AcDbCircle
 62
7
  6
CONTINUOUS
 10
36.4620732139
 20
-39.1692583864
 40
10.5
100
AcDbArc
 50
2.7294026368
 51
87.2705973632
  0
ARC
  5
53F
100
AcDbEntity
  8
DRAFT
100
AcDbCircle
 62
7
  6
CONTINUOUS
 10
36.4620732139
 20
-39.1692583864
 40
10.5
100
AcDbArc
 50
272.7294026368
 51
357.2705973632
  0
ARC
  5
540
100
AcDbEntity
  8
DRAFT
100
AcDbCircle
 62
7
  6
CONTINUOUS
 10
36.4620732139
 20
-39.1692583864
 40
9.5
100
AcDbArc
 50
94.668453194
 51
175.331546806
  0
ARC
  5
541
100
AcDbEntity
  8
DRAFT
100
AcDbCircle
 62
7
  6
CONTINUOUS
 10
36.4620732139
 20
-39.1692583864
 40
9.5
100
AcDbArc
 50
184.668453194
 51
265.331546806
  0
ARC
  5
542
100
AcDbEntity
  8
DRAFT
100
AcDbCircle
 62
7
  6
CONTINUOUS
 10
36.4620732139
 20
-39.1692583864
 40
9.5
100
AcDbArc
 50
4.668453194
 51
85.331546806
  0
ARC
  5
543
100
AcDbEntity
  8
DRAFT
100
AcDbCircle
 62
7
  6
CONTINUOUS
 10
36.4620732139
 20
-39.1692583864
 40
9.5
100
AcDbArc
 50
274.668453194
 51
355.331546806
  0
ARC
  5
544
100
AcDbEntity
  8
DRAFT
100
AcDbCircle
 62
7
  6
CONTINUOUS
 10
36.4620732139
 20
-39.1692583864
 40
9.3589384154
100
AcDbArc
 50
274.0611725955
 51
355.9388274045
  0
ARC
  5
545
100
AcDbEntity
  8
DRAFT
100
AcDbCircle
 62
7
  6
CONTINUOUS
 10
36.4620732139
 20
-39.1692583864
 40
9.3589384154
100
AcDbArc
 50
4.0611725955
 51
85.9388274045
  0
ARC
  5
546
100
AcDbEntity
  8
DRAFT
100
AcDbCircle
 62
7
  6
CONTINUOUS
 10
36.4620732139
 20
-39.1692583864
 40
9.3589384154
100
AcDbArc
 50
184.0611725955
 51
265.9388274045
  0
ARC
  5
547
100
AcDbEntity
  8
DRAFT
100
AcDbCircle
 62
7
  6
CONTINUOUS
 10
36.4620732139
 20
-39.1692583864
 40
9.3589384154
100
AcDbArc
 50
94.0611725955
 51
175.9388274045
  0
ARC
  5
548
100
AcDbEntity
  8
DRAFT
100
AcDbCircle
 62
7
  6
CONTINUOUS
 10
23.8441510956
 20
-18.7169586142
 40
33.6243173027
100
AcDbArc
 50
320.9082197939
 51
321.4174070352
  0
ARC
  5
549
100
AcDbEntity
  8
DRAFT
100
AcDbCircle
 62
7
  6
CONTINUOUS
 10
26.5231133388
 20
-23.2078396232
 40
26.2343783894
100
AcDbArc
 50
321.1359166421
 51
321.6551315429
  0
ARC
  5
54A
100
AcDbEntity
  8
DRAFT
100
AcDbCircle
 62
7
  6
CONTINUOUS
 10
55.267110202
 20
-81.4708360581
 40
53.4463594441
100
AcDbArc
 50
129.6258360545
 51
129.8573287405
  0
ARC
  5
54B
100
AcDbEntity
  8
DRAFT
100
AcDbCircle
 62
7
  6
CONTINUOUS
 10
78.7636508996
 20
-57.9742953556
 40
53.4463594427
100
AcDbArc
 50
140.1426712846
 51
140.3741639707
  0
ARC
  5
54C
100
AcDbEntity
  8
DRAFT
100
AcDbCircle
 62
7
  6
CONTINUOUS
 10
70.5088090939
 20
-54.2728888398
 40
43.0136167058
100
AcDbArc
 50
140.1510630094
 51
140.4388330181
  0
ARC
  5
54D
100
AcDbEntity
  8
DRAFT
100
AcDbCircle
 62
7
  6
CONTINUOUS
 10
51.5657036859
 20
-73.2159942487
 40
43.0136167041
100
AcDbArc
 50
129.5611670161
 51
129.8489370247
  0
ARC
  5
54E
100
AcDbEntity
  8
DRAFT
100
AcDbCircle
 62
7
  6
CONTINUOUS
 10
61.3687172582
 20
-54.4225353595
 40
40.9572888402
100
AcDbArc
 50
128.8169756169
 51
129.2369027498
  0
ARC
  5
54F
100
AcDbEntity
  8
DRAFT
100
AcDbCircle
 62
7
  6
CONTINUOUS
 10
51.7153501887
 20
-64.0759024272
 40
40.9572888394
100
AcDbArc
 50
140.7630972556
 51
141.1830243885
  0
ARC
  5
550
100
AcDbEntity
  8
DRAFT
100
AcDbCircle
 62
7
  6
CONTINUOUS
 10
49.0799953411
 20
-59.6215581464
 40
33.624317302
100
AcDbArc
 50
140.9082198195
 51
141.4174070609
  0
ARC
  5
551
100
AcDbEntity
  8
DRAFT
100
AcDbCircle
 62
7
  6
CONTINUOUS
 10
56.9143729666
 20
-51.7871805189
 40
33.6243173016
100
AcDbArc
 50
128.5825929237
 51
129.0917801651
  0
ARC
  5
552
100
AcDbEntity
  8
DRAFT
100
AcDbCircle
 62
7
  6
CONTINUOUS
 10
47.9162602476
 20
-65.0237895376
 40
32.6623810324
100
AcDbArc
 50
129.5313705563
 51
129.8346284257
  0
ARC
  5
553
100
AcDbEntity
  8
DRAFT
100
AcDbCircle
 62
7
  6
CONTINUOUS
 10
62.3166043758
 20
-50.6234454063
 40
32.6623810319
100
AcDbArc
 50
140.1653716049
 51
140.4686294743
  0
ARC
  5
554
100
AcDbEntity
  8
DRAFT
100
AcDbCircle
 62
7
  6
CONTINUOUS
 10
46.4010330962
 20
-55.1306771403
 40
26.2343783893
100
AcDbArc
 50
141.1359166676
 51
141.6551315685
  0
ARC
  5
555
100
AcDbEntity
  8
0
100
AcDbCircle
 62
7
  6
CONTINUOUS
 10
70.4620732139
 20
-67.1692583864
 40
10.0
100
AcDbArc
 50
270.0
 51
360.0
  0
ARC
  5
556
100
AcDbEntity
  8
0
100
AcDbCircle
 62
7
  6
CONTINUOUS
 10
70.4620732139
 20
-67.1692583864
 40
7.0
100
AcDbArc
 50
270.0
 51
360.0
  0
CIRCLE
  5
557
100
AcDbEntity
  8
0
100
AcDbCircle
 62
7
  6
CONTINUOUS
 10
60.4620726746
 20
-57.1692578627
 40
1.4999996177
  0
ARC
  5
558
100
AcDbEntity
  8
DRAFT
100
AcDbCircle
 62
7
  6
CONTINUOUS
 10
59.330702364
 20
-56.0378875365
 40
1.25
100
AcDbArc
 50
236.5369590328
 51
252.9189719944
  0
ARC
  5
559
100
AcDbEntity
  8
DRAFT
100
AcDbCircle
 62
7
  6
CONTINUOUS
 10
59.330702364
 20
-56.0378875365
 40
1.25
100
AcDbArc
 50
17.0953201704
 51
33.4630409672
  0
ARC
  5
55A
100
AcDbEntity
  8
0
100
AcDbCircle
 62
7
  6
CONTINUOUS
 10
60.4620732139
 20
-57.1692583864
 40
1.0
100
AcDbArc
 50
307.6774584221
 51
75.84228485
  0
ARC
  5
55B
100
AcDbEntity
  8
0
100
AcDbCircle
 62
7
  6
CONTINUOUS
 10
60.4620732139
 20
-57.1692583864
 40
1.0
100
AcDbArc
 50
180.0
 51
255.84228485
  0
ARC
  5
55C
100
AcDbEntity
  8
RACCORDO
100
AcDbCircle
 62
7
  6
CONTINUOUS
 10
59.330702364
 20
-56.0378875365
 40
0.9576118513
100
AcDbArc
 50
222.4630056931
 51
47.5369943069
  0
ARC
  5
55D
100
AcDbEntity
  8
0
100
AcDbCircle
 62
7
  6
CONTINUOUS
 10
60.3587349545
 20
-57.5310581466
 40
0.8320718012
100
AcDbArc
 50
344.7743839811
 51
349.517352529
  0
ARC
  5
55E
100
AcDbEntity
  8
0
100
AcDbCircle
 62
7
  6
CONTINUOUS
 10
60.4061208938
 20
-57.2970186016
 40
0.813765055
100
AcDbArc
 50
330.6304078959
 51
344.4190814713
  0
ARC
  5
55F
100
AcDbEntity
  8
RACCORDO
100
AcDbCircle
 62
253
  6
CONTINUOUS
 10
56.4510717486
 20
-61.3479038553
 40
0.5000529581
100
AcDbArc
 50
270.0078787762
 51
359.9852497244
  0
ARC
  5
560
100
AcDbEntity
  8
RACCORDO
100
AcDbCircle
 62
253
  6
CONTINUOUS
 10
64.6407270634
 20
-53.1582653014
 40
0.5000429348
100
AcDbArc
 50
270.0137902559
 51
359.9930813812
  0
ARC
  5
561
100
AcDbEntity
  8
RACCORDO
100
AcDbCircle
 62
253
  6
CONTINUOUS
 10
58.6242630425
 20
-56.684301593
 40
0.4999214773
100
AcDbArc
 50
42.4562679932
 51
135.0070427205
  0
ARC
  5
562
100
AcDbEntity
  8
RACCORDO
100
AcDbCircle
 62
253
  6
CONTINUOUS
 10
59.9770279724
 20
-55.3314353809
 40
0.4998635308
100
AcDbArc
 50
134.9868275857
 51
227.5522047541
  0
ARC
  5
563
100
AcDbEntity
  8
RACCORDO
100
AcDbCircle
 62
253
  6
CONTINUOUS
 10
59.330702364
 20
-56.0378875365
 40
0.4576308898
100
AcDbArc
 50
222.4630056931
 51
47.5369943069
  0
ARC
  5
564
100
AcDbEntity
  8
DRAFT
100
AcDbCircle
 62
7
  6
CONTINUOUS
 10
78.7636508921
 20
-20.3642214079
 40
53.4463594429
100
AcDbArc
 50
219.6258360421
 51
219.8573287282
  0
ARC
  5
565
100
AcDbEntity
  8
DRAFT
100
AcDbCircle
 62
7
  6
CONTINUOUS
 10
70.5088090859
 20
-24.065627924
 40
43.0136167054
100
AcDbArc
 50
219.5611669981
 51
219.8489370067
  0
ARC
  5
566
100
AcDbEntity
  8
DRAFT
100
AcDbCircle
 62
7
  6
CONTINUOUS
 10
61.3687172577
 20
-23.9159814139
 40
40.9572888395
100
AcDbArc
 50
230.7630972502
 51
231.1830243831
  0
ARC
  5
567
100
AcDbEntity
  8
DRAFT
100
AcDbCircle
 62
7
  6
CONTINUOUS
 10
49.0799953314
 20
-18.7169586149
 40
33.6243173016
100
AcDbArc
 50
218.5825929648
 51
219.0917802062
  0
ARC
  5
568
100
AcDbEntity
  8
DRAFT
100
AcDbCircle
 62
7
  6
CONTINUOUS
 10
56.9143729665
 20
-26.551336254
 40
33.6243173014
100
AcDbArc
 50
230.9082198349
 51
231.4174070763
  0
ARC
  5
569
100
AcDbEntity
  8
DRAFT
100
AcDbCircle
 62
7
  6
CONTINUOUS
 10
62.3166043691
 20
-27.7150713596
 40
32.662381031
100
AcDbArc
 50
219.5313705426
 51
219.834628412
  0
ARC
  5
56A
100
AcDbEntity
  8
DRAFT
100
AcDbCircle
 62
7
  6
CONTINUOUS
 10
46.401033089
 20
-23.2078396233
 40
26.2343783894
100
AcDbArc
 50
218.3448684571
 51
218.8640833579
  0
ARC
  5
56B
100
AcDbEntity
  8
DRAFT
100
AcDbCircle
 62
7
  6
CONTINUOUS
 10
52.4234919565
 20
-49.1082182781
 40
26.2343783896
100
AcDbArc
 50
128.3448683993
 51
128.8640833001
  0
ARC
  5
56C
100
AcDbEntity
  8
DRAFT
100
AcDbCircle
 62
7
  6
CONTINUOUS
 10
52.4234919564
 20
-29.2302984948
 40
26.2343783894
100
AcDbArc
 50
231.1359166999
 51
231.6551316007
  0
ARC
  5
56D
100
AcDbEntity
  8
DRAFT
100
AcDbCircle
 62
7
  6
CONTINUOUS
 10
52.4620732139
 20
-49.1692583864
 40
22.0
100
AcDbArc
 50
270.0
 51
360.0
  0
ARC
  5
56E
100
AcDbEntity
  8
RACCORDO
100
AcDbCircle
 62
253
  6
CONTINUOUS
 10
52.4620732139
 20
-49.1692583864
 40
21.9473301734
100
AcDbArc
 50
270.0
 51
360.0
  0
ARC
  5
56F
100
AcDbEntity
  8
RACCORDO
100
AcDbCircle
 62
253
  6
CONTINUOUS
 10
52.4620732139
 20
-49.1692583864
 40
20.9474860453
100
AcDbArc
 50
270.0
 51
360.0
  0
ARC
  5
570
100
AcDbEntity
  8
DRAFT
100
AcDbCircle
 62
7
  6
CONTINUOUS
 10
17.6570362348
 20
3.1323192932
 40
53.4463594444
100
AcDbArc
 50
309.6258360417
 51
309.8573287277
  0
ARC
  5
571
100
AcDbEntity
  8
DRAFT
100
AcDbCircle
 62
7
  6
CONTINUOUS
 10
24.6853602865
 20
-15.9092011833
 40
53.3445427063
100
AcDbArc
 50
140.1424503741
 51
140.3743849018
  0
ARC
  5
572
100
AcDbEntity
  8
DRAFT
100
AcDbCircle
 62
7
  6
CONTINUOUS
 10
21.3584427494
 20
-5.1225225142
 40
43.0136167068
100
AcDbArc
 50
309.561167
 51
309.8489370086
  0
ARC
  5
573
100
AcDbEntity
  8
DRAFT
100
AcDbCircle
 62
7
  6
CONTINUOUS
 10
16.4305477818
 20
-12.2079033741
 40
42.9118920412
100
AcDbArc
 50
140.1507219381
 51
140.4391741196
  0
ARC
  5
574
100
AcDbEntity
  8
DRAFT
100
AcDbCircle
 62
7
  6
CONTINUOUS
 10
21.2087962487
 20
-14.2626143334
 40
40.9572888396
100
AcDbArc
 50
320.7630972338
 51
321.1830243667
  0
ARC
  5
575
100
AcDbEntity
  8
DRAFT
100
AcDbCircle
 62
7
  6
CONTINUOUS
 10
25.0078861871
 20
-13.3147272284
 40
32.6623810332
100
AcDbArc
 50
309.5313705395
 51
309.8346284089
  0
ARC
  5
576
100
AcDbEntity
  8
DRAFT
100
AcDbCircle
 62
7
  6
CONTINUOUS
 10
24.6853602759
 20
21.5706844173
 40
53.3445427025
100
AcDbArc
 50
219.6256151111
 51
219.8575496388
  0
ARC
  5
577
100
AcDbEntity
  8
DRAFT
100
AcDbCircle
 62
7
  6
CONTINUOUS
 10
16.4305477738
 20
17.8693866105
 40
42.9118920409
100
AcDbArc
 50
219.5608258966
 51
219.8492780781
  0
ARC
  5
578
100
AcDbEntity
  8
DRAFT
100
AcDbCircle
 62
7
  6
CONTINUOUS
 10
55.2671102017
 20
3.132319285
 40
53.4463594437
100
AcDbArc
 50
230.1426712595
 51
230.3741639455
  0
ARC
  5
579
100
AcDbEntity
  8
DRAFT
100
AcDbCircle
 62
7
  6
CONTINUOUS
 10
51.565703687
 20
-5.1225225227
 40
43.0136167058
100
AcDbArc
 50
230.1510629753
 51
230.4388329839
  0
ARC
  5
57A
100
AcDbEntity
  8
DRAFT
100
AcDbCircle
 62
7
  6
CONTINUOUS
 10
51.7153501788
 20
-14.2626143336
 40
40.9572888392
100
AcDbArc
 50
218.8169756333
 51
219.2369027662
  0
ARC
  5
57B
100
AcDbEntity
  8
DRAFT
100
AcDbCircle
 62
7
  6
CONTINUOUS
 10
47.9162602469
 20
-13.314727236
 40
32.6623810313
100
AcDbArc
 50
230.1653715743
 51
230.4686294437
  0
ARC
  5
57C
100
AcDbEntity
  8
DRAFT
100
AcDbCircle
 62
7
  6
CONTINUOUS
 10
52.4620732139
 20
12.8307416136
 40
22.0
100
AcDbArc
 50
0.0
 51
90.0
  0
ARC
  5
57D
100
AcDbEntity
  8
RACCORDO
100
AcDbCircle
 62
253
  6
CONTINUOUS
 10
52.4620732139
 20
12.8307416136
 40
21.9473301734
100
AcDbArc
 50
0.0
 51
90.0
  0
ARC
  5
57E
100
AcDbEntity
  8
RACCORDO
100
AcDbCircle
 62
253
  6
CONTINUOUS
 10
52.4620732139
 20
12.8307416136
 40
20.9474860453
100
AcDbArc
 50
0.0
 51
90.0
  0
ARC
  5
57F
100
AcDbEntity
  8
0
100
AcDbCircle
 62
7
  6
CONTINUOUS
 10
70.4620732139
 20
30.8307416136
 40
10.0
100
AcDbArc
 50
0.0
 51
90.0
  0
ARC
  5
580
100
AcDbEntity
  8
0
100
AcDbCircle
 62
7
  6
CONTINUOUS
 10
70.4620732139
 20
30.8307416136
 40
7.0
100
AcDbArc
 50
0.0
 51
90.0
  0
CIRCLE
  5
581
100
AcDbEntity
  8
0
100
AcDbCircle
 62
7
  6
CONTINUOUS
 10
60.4620737628
 20
20.8307410805
 40
1.4999996177
  0
ARC
  5
582
100
AcDbEntity
  8
DRAFT
100
AcDbCircle
 62
7
  6
CONTINUOUS
 10
59.330702364
 20
19.6993707637
 40
1.25
100
AcDbArc
 50
326.5369590328
 51
342.8912417693
  0
ARC
  5
583
100
AcDbEntity
  8
DRAFT
100
AcDbCircle
 62
7
  6
CONTINUOUS
 10
59.330702364
 20
19.6993707637
 40
1.25
100
AcDbArc
 50
107.0723114058
 51
123.4630409672
  0
ARC
  5
584
100
AcDbEntity
  8
0
100
AcDbCircle
 62
7
  6
CONTINUOUS
 10
60.4620732139
 20
20.8307416136
 40
1.0
100
AcDbArc
 50
307.6774584221
 51
75.84228485
  0
ARC
  5
585
100
AcDbEntity
  8
0
100
AcDbCircle
 62
7
  6
CONTINUOUS
 10
60.4620732139
 20
20.8307416136
 40
1.0
100
AcDbArc
 50
127.6774584221
 51
180.0
  0
ARC
  5
586
100
AcDbEntity
  8
RACCORDO
100
AcDbCircle
 62
7
  6
CONTINUOUS
 10
59.330702364
 20
19.6993707637
 40
0.9576118513
100
AcDbArc
 50
312.4630056931
 51
137.5369943069
  0
ARC
  5
587
100
AcDbEntity
  8
0
100
AcDbCircle
 62
7
  6
CONTINUOUS
 10
60.3587349545
 20
20.4689418534
 40
0.8320718012
100
AcDbArc
 50
344.774383981
 51
349.517352529
  0
ARC
  5
588
100
AcDbEntity
  8
0
100
AcDbCircle
 62
7
  6
CONTINUOUS
 10
60.5654114733
 20
21.1925413738
 40
0.8320718012
100
AcDbArc
 50
164.7743839811
 51
169.5173525289
  0
ARC
  5
589
100
AcDbEntity
  8
0
100
AcDbCircle
 62
7
  6
CONTINUOUS
 10
60.518025534
 20
20.9585018288
 40
0.813765055
100
AcDbArc
 50
150.6304078959
 51
164.4190814713
  0
ARC
  5
58A
100
AcDbEntity
  8
0
100
AcDbCircle
 62
7
  6
CONTINUOUS
 10
60.4061208938
 20
20.7029813984
 40
0.813765055
100
AcDbArc
 50
330.6304078959
 51
344.4190814713
  0
ARC
  5
58B
100
AcDbEntity
  8
RACCORDO
100
AcDbCircle
 62
253
  6
CONTINUOUS
 10
64.6407270576
 20
16.819748522
 40
0.5000429414
100
AcDbArc
 50
0.0069194335
 51
89.9862090808
  0
ARC
  5
58C
100
AcDbEntity
  8
RACCORDO
100
AcDbCircle
 62
253
  6
CONTINUOUS
 10
56.4510801289
 20
25.0093954631
 40
0.5000429348
100
AcDbArc
 50
0.0137902565
 51
89.9930813806
  0
ARC
  5
58D
100
AcDbEntity
  8
RACCORDO
100
AcDbCircle
 62
253
  6
CONTINUOUS
 10
59.9771164196
 20
18.9929314426
 40
0.4999214764
100
AcDbArc
 50
132.4562679512
 51
225.0070428178
  0
ARC
  5
58E
100
AcDbEntity
  8
RACCORDO
100
AcDbCircle
 62
253
  6
CONTINUOUS
 10
58.6242501606
 20
20.3456963585
 40
0.4998635241
100
AcDbArc
 50
224.986830361
 51
317.5522096001
  0
ARC
  5
58F
100
AcDbEntity
  8
RACCORDO
100
AcDbCircle
 62
253
  6
CONTINUOUS
 10
59.330702364
 20
19.6993707637
 40
0.4576308898
100
AcDbArc
 50
312.4630056932
 51
137.5369943069
  0
SPLINE
  5
590
100
AcDbEntity
  8
0
100
AcDbSpline
 62
7
  6
CONTINUOUS
 70
0
 71
3
 72
14
 73
10
 74
8
 42
0.0000001
 43
0.0000001
 44
0.0000000001
 12
1.5265164876
 22
-0.440625999
 32
0.0
 13
0.7919061665
 23
1.38096161
 33
0.0
 40
0.0
 40
0.0
 40
0.0
 40
0.0
 40
0.1778235013
 40
0.3469761403
 40
0.5074973323
 40
0.6594332102
 40
0.8028381927
 40
0.9377770198
 40
1.0
 40
1.0
 40
1.0
 40
1.0
 10
-42.3221921961
 20
-58.4479013259
 30
0.0
 10
-42.2317086939
 20
-58.4740192118
 30
0.0
 10
-42.0496129853
 20
-58.5078755266
 30
0.0
 10
-41.779133348
 20
-58.5032565464
 30
0.0
 10
-41.528433106
 20
-58.4474084652
 30
0.0
 10
-41.3067657013
 20
-58.3475435242
 30
0.0
 10
-41.1212279276
 20
-58.2124274122
 30
0.0
 10
-40.9996890524
 20
-58.0773657013
 30
0.0
 10
-40.9428852121
 20
-57.989320191
 30
0.0
 10
-40.9264602915
 20
-57.9606776754
 30
0.0
 11
-42.3221921961
 21
-58.4479013259
 31
0.0
 11
-42.0443187983
 21
-58.4989997418
 31
0.0
 11
-41.7756111036
 21
-58.493903553
 31
0.0
 11
-41.5267915308
 21
-58.4379100856
 31
0.0
 11
-41.3069208577
 21
-58.3382530951
 31
0.0
 11
-41.1230690787
 21
-58.2036690659
 31
0.0
 11
-40.9800893976
 21
-58.0439117945
 31
0.0
 11
-40.9264602915
 21
-57.9606776754
 31
0.0
  0
SPLINE
  5
591
100
AcDbEntity
  8
0
100
AcDbSpline
 62
7
  6
CONTINUOUS
 70
0
 71
3
 72
9
 73
5
 74
3
 42
0.0000001
 43
0.0000001
 44
0.0000000001
 12
0.1141041339
 22
0.1989799236
 32
0.0
 13
0.0601421282
 23
0.2213573269
 33
0.0
 40
0.0
 40
0.0
 40
0.0
 40
0.0
 40
0.4464455663
 40
1.0
 40
1.0
 40
1.0
 40
1.0
 10
-40.9264602915
 20
-57.9606776754
 30
0.0
 10
-40.9094798633
 20
-57.9310664405
 30
0.0
 10
-40.875040926
 20
-57.8626907194
 30
0.0
 10
-40.8494969628
 20
-57.790421782
 30
0.0
 10
-40.8383996489
 20
-57.7495773387
 30
0.0
 11
-40.9264602915
 21
-57.9606776754
 31
0.0
 11
-40.8805025313
 21
-57.8692383943
 31
0.0
 11
-40.8383996489
 21
-57.7495773387
 31
0.0
  0
SPLINE
  5
592
100
AcDbEntity
  8
0
100
AcDbSpline
 62
7
  6
CONTINUOUS
 70
0
 71
3
 72
8
 73
4
 74
2
 42
0.0000001
 43
0.0000001
 44
0.0000000001
 12
0.0305187141
 22
0.1649907312
 32
0.0
 13
-0.0050465324
 23
0.1672594158
 33
0.0
 40
0.0
 40
0.0
 40
0.0
 40
0.0
 40
1.0
 40
1.0
 40
1.0
 40
1.0
 10
-40.8230804776
 20
-57.6824434011
 30
0.0
 10
-40.8129075729
 20
-57.6274464907
 30
0.0
 10
-40.8083360526
 20
-57.5713482522
 30
0.0
 10
-40.8100182301
 20
-57.5155951136
 30
0.0
 11
-40.8230804776
 21
-57.6824434011
 31
0.0
 11
-40.8100182301
 21
-57.5155951136
 31
0.0
  0
SPLINE
  5
593
100
AcDbEntity
  8
0
100
AcDbSpline
 62
7
  6
CONTINUOUS
 70
0
 71
3
 72
12
 73
8
 74
6
 42
0.0000001
 43
0.0000001
 44
0.0000000001
 12
-0.9815368961
 22
-0.1546524621
 32
0.0
 13
-0.4943985357
 23
-0.8621544152
 33
0.0
 40
0.0
 40
0.0
 40
0.0
 40
0.0
 40
0.2111305528
 40
0.454494863
 40
0.6841947544
 40
0.9003339247
 40
1.0
 40
1.0
 40
1.0
 40
1.0
 10
-41.345493185
 20
-55.8509217537
 30
0.0
 10
-41.4145706608
 20
-55.861805707
 30
0.0
 10
-41.5613806541
 20
-55.89739761
 30
0.0
 10
-41.7690878709
 20
-55.9909732486
 30
0.0
 10
-41.9546256446
 20
-56.1260893606
 30
0.0
 10
-42.0761645198
 20
-56.2611510715
 30
0.0
 10
-42.1329683601
 20
-56.3491965817
 30
0.0
 10
-42.1493932807
 20
-56.3778390974
 30
0.0
 11
-41.345493185
 21
-55.8509217537
 31
0.0
 11
-41.5490620414
 21
-55.9006066872
 31
0.0
 11
-41.7689327145
 21
-56.0002636776
 31
0.0
 11
-41.9527844935
 21
-56.1348477069
 31
0.0
 11
-42.0957641746
 21
-56.2946049783
 31
0.0
 11
-42.1493932807
 21
-56.3778390974
 31
0.0
  0
SPLINE
  5
594
100
AcDbEntity
  8
0
100
AcDbSpline
 62
7
  6
CONTINUOUS
 70
0
 71
3
 72
9
 73
5
 74
3
 42
0.0000001
 43
0.0000001
 44
0.0000000001
 12
-0.1141041339
 22
-0.1989799236
 32
0.0
 13
-0.0601421282
 23
-0.2213573269
 33
0.0
 40
0.0
 40
0.0
 40
0.0
 40
0.0
 40
0.4464455663
 40
1.0
 40
1.0
 40
1.0
 40
1.0
 10
-42.1493932807
 20
-56.3778390974
 30
0.0
 10
-42.1663737089
 20
-56.4074503323
 30
0.0
 10
-42.2008126462
 20
-56.4758260534
 30
0.0
 10
-42.2263566094
 20
-56.5480949908
 30
0.0
 10
-42.2374539233
 20
-56.5889394341
 30
0.0
 11
-42.1493932807
 21
-56.3778390974
 31
0.0
 11
-42.1953510409
 21
-56.4692783785
 31
0.0
 11
-42.2374539233
 21
-56.5889394341
 31
0.0
  0
SPLINE
  5
595
100
AcDbEntity
  8
0
100
AcDbSpline
 62
7
  6
CONTINUOUS
 70
0
 71
3
 72
8
 73
4
 74
2
 42
0.0000001
 43
0.0000001
 44
0.0000000001
 12
-0.0305187141
 22
-0.1649907312
 32
0.0
 13
0.0050465324
 23
-0.1672594158
 33
0.0
 40
0.0
 40
0.0
 40
0.0
 40
0.0
 40
1.0
 40
1.0
 40
1.0
 40
1.0
 10
-42.2527730946
 20
-56.6560733717
 30
0.0
 10
-42.2629459993
 20
-56.7110702821
 30
0.0
 10
-42.2675175196
 20
-56.7671685205
 30
0.0
 10
-42.2658353421
 20
-56.8229216592
 30
0.0
 11
-42.2527730946
 21
-56.6560733717
 31
0.0
 11
-42.2658353421
 21
-56.8229216592
 31
0.0
  0
SPLINE
  5
596
100
AcDbEntity
  8
0
100
AcDbSpline
 62
7
  6
CONTINUOUS
 70
0
 71
3
 72
10
 73
6
 74
4
 42
0.0000001
 43
0.0000001
 44
0.0000000001
 12
0.2526038827
 22
0.4495512038
 32
0.0
 13
0.4603379694
 23
0.2315080305
 33
0.0
 40
0.0
 40
0.0
 40
0.0
 40
0.0
 40
0.3915193347
 40
0.7940496483
 40
1.0
 40
1.0
 40
1.0
 40
1.0
 10
-42.1911497324
 20
-56.6423941669
 30
0.0
 10
-42.1581832977
 20
-56.5837248375
 30
0.0
 10
-42.0768384643
 20
-56.473102399
 30
0.0
 10
-41.9444891206
 20
-56.3617168437
 30
0.0
 10
-41.8538491717
 20
-56.3093334335
 30
0.0
 10
-41.8222469161
 20
-56.2934403801
 30
0.0
 11
-42.1911497324
 21
-56.6423941669
 31
0.0
 11
-42.0721931904
 21
-56.4800278846
 31
0.0
 11
-41.9140483926
 21
-56.3465568619
 31
0.0
 11
-41.8222469161
 21
-56.2934403801
 31
0.0
  0
SPLINE
  5
597
100
AcDbEntity
  8
0
100
AcDbSpline
 62
7
  6
CONTINUOUS
 70
0
 71
3
 72
10
 73
6
 74
4
 42
0.0000001
 43
0.0000001
 44
0.0000000001
 12
0.4351636324
 22
0.2188476341
 32
0.0
 13
0.4862208509
 23
-0.0235775222
 33
0.0
 40
0.0
 40
0.0
 40
0.0
 40
0.0
 40
0.2175225923
 40
0.6623756133
 40
1.0
 40
1.0
 40
1.0
 40
1.0
 10
-41.8222469161
 20
-56.2934403801
 30
0.0
 10
-41.7906942757
 20
-56.2775722785
 30
0.0
 10
-41.6918098665
 20
-56.2348287127
 30
0.0
 10
-41.5328970551
 20
-56.1969587852
 30
0.0
 10
-41.4053301458
 20
-56.1925216469
 30
0.0
 10
-41.3506101403
 20
-56.1951750957
 30
0.0
 11
-41.8222469161
 21
-56.2934403801
 31
0.0
 11
-41.7250598887
 21
-56.2514029893
 31
0.0
 11
-41.5148159081
 21
-56.2010414809
 31
0.0
 11
-41.3506101403
 21
-56.1951750957
 31
0.0
  0
SPLINE
  5
598
100
AcDbEntity
  8
0
100
AcDbSpline
 62
7
  6
CONTINUOUS
 70
0
 71
3
 72
10
 73
6
 74
4
 42
0.0000001
 43
0.0000001
 44
0.0000000001
 12
-0.2526038827
 22
-0.4495512038
 32
0.0
 13
-0.4603379694
 23
-0.2315080305
 33
0.0
 40
0.0
 40
0.0
 40
0.0
 40
0.0
 40
0.3915193347
 40
0.7940496483
 40
1.0
 40
1.0
 40
1.0
 40
1.0
 10
-40.8847038398
 20
-57.6961226059
 30
0.0
 10
-40.9176702745
 20
-57.7547919353
 30
0.0
 10
-40.9990151079
 20
-57.8654143738
 30
0.0
 10
-41.1313644516
 20
-57.9767999291
 30
0.0
 10
-41.2220044005
 20
-58.0291833392
 30
0.0
 10
-41.2536066561
 20
-58.0450763927
 30
0.0
 11
-40.8847038398
 21
-57.6961226059
 31
0.0
 11
-41.0036603818
 21
-57.8584888882
 31
0.0
 11
-41.1618051796
 21
-57.9919599109
 31
0.0
 11
-41.2536066561
 21
-58.0450763927
 31
0.0
  0
SPLINE
  5
599
100
AcDbEntity
  8
0
100
AcDbSpline
 62
7
  6
CONTINUOUS
 70
0
 71
3
 72
10
 73
6
 74
4
 42
0.0000001
 43
0.0000001
 44
0.0000000001
 12
-0.4865658941
 22
-0.2446982855
 32
0.0
 13
-0.5402886881
 23
0.0579693842
 33
0.0
 40
0.0
 40
0.0
 40
0.0
 40
0.0
 40
0.1945428616
 40
0.5924002923
 40
1.0
 40
1.0
 40
1.0
 40
1.0
 10
-41.2536066561
 20
-58.0450763927
 30
0.0
 10
-41.2851592965
 20
-58.0609444942
 30
0.0
 10
-41.3840437057
 20
-58.1036880601
 30
0.0
 10
-41.5617275663
 20
-58.1460312473
 30
0.0
 10
-41.7091114746
 20
-58.1467606129
 30
0.0
 10
-41.782518645
 20
-58.1388845115
 30
0.0
 11
-41.2536066561
 21
-58.0450763927
 31
0.0
 11
-41.3507936835
 21
-58.0871137835
 31
0.0
 11
-41.5610376641
 21
-58.1374752919
 31
0.0
 11
-41.782518645
 21
-58.1388845115
 31
0.0
  0
SPLINE
  5
59A
100
AcDbEntity
  8
0
100
AcDbSpline
 62
7
  6
CONTINUOUS
 70
0
 71
3
 72
14
 73
10
 74
8
 42
0.0000001
 43
0.0000001
 44
0.0000000001
 12
1.5265164876
 22
-0.440625999
 32
0.0
 13
0.7919061665
 23
1.38096161
 33
0.0
 40
0.0
 40
0.0
 40
0.0
 40
0.0
 40
0.1778235013
 40
0.3469761403
 40
0.5074973323
 40
0.6594332102
 40
0.8028381927
 40
0.9377770198
 40
1.0
 40
1.0
 40
1.0
 40
1.0
 10
59.6778078039
 20
-58.4479013259
 30
0.0
 10
59.7682913061
 20
-58.4740192118
 30
0.0
 10
59.9503870147
 20
-58.5078755266
 30
0.0
 10
60.220866652
 20
-58.5032565464
 30
0.0
 10
60.471566894
 20
-58.4474084652
 30
0.0
 10
60.6932342987
 20
-58.3475435242
 30
0.0
 10
60.8787720724
 20
-58.2124274122
 30
0.0
 10
61.0003109476
 20
-58.0773657013
 30
0.0
 10
61.0571147879
 20
-57.989320191
 30
0.0
 10
61.0735397085
 20
-57.9606776754
 30
0.0
 11
59.6778078039
 21
-58.4479013259
 31
0.0
 11
59.9556812017
 21
-58.4989997418
 31
0.0
 11
60.2243888964
 21
-58.493903553
 31
0.0
 11
60.4732084692
 21
-58.4379100856
 31
0.0
 11
60.6930791423
 21
-58.3382530951
 31
0.0
 11
60.8769309213
 21
-58.2036690659
 31
0.0
 11
61.0199106024
 21
-58.0439117945
 31
0.0
 11
61.0735397085
 21
-57.9606776754
 31
0.0
  0
SPLINE
  5
59B
100
AcDbEntity
  8
0
100
AcDbSpline
 62
7
  6
CONTINUOUS
 70
0
 71
3
 72
9
 73
5
 74
3
 42
0.0000001
 43
0.0000001
 44
0.0000000001
 12
0.1141041339
 22
0.1989799236
 32
0.0
 13
0.0601421282
 23
0.2213573269
 33
0.0
 40
0.0
 40
0.0
 40
0.0
 40
0.0
 40
0.4464455663
 40
1.0
 40
1.0
 40
1.0
 40
1.0
 10
61.0735397085
 20
-57.9606776754
 30
0.0
 10
61.0905201367
 20
-57.9310664405
 30
0.0
 10
61.124959074
 20
-57.8626907194
 30
0.0
 10
61.1505030372
 20
-57.790421782
 30
0.0
 10
61.1616003511
 20
-57.7495773387
 30
0.0
 11
61.0735397085
 21
-57.9606776754
 31
0.0
 11
61.1194974687
 21
-57.8692383943
 31
0.0
 11
61.1616003511
 21
-57.7495773387
 31
0.0
  0
SPLINE
  5
59C
100
AcDbEntity
  8
0
100
AcDbSpline
 62
7
  6
CONTINUOUS
 70
0
 71
3
 72
8
 73
4
 74
2
 42
0.0000001
 43
0.0000001
 44
0.0000000001
 12
0.0305187141
 22
0.1649907312
 32
0.0
 13
-0.0050465324
 23
0.1672594158
 33
0.0
 40
0.0
 40
0.0
 40
0.0
 40
0.0
 40
1.0
 40
1.0
 40
1.0
 40
1.0
 10
61.1769195224
 20
-57.6824434011
 30
0.0
 10
61.1870924271
 20
-57.6274464907
 30
0.0
 10
61.1916639474
 20
-57.5713482522
 30
0.0
 10
61.1899817699
 20
-57.5155951136
 30
0.0
 11
61.1769195224
 21
-57.6824434011
 31
0.0
 11
61.1899817699
 21
-57.5155951136
 31
0.0
  0
SPLINE
  5
59D
100
AcDbEntity
  8
0
100
AcDbSpline
 62
7
  6
CONTINUOUS
 70
0
 71
3
 72
11
 73
7
 74
5
 42
0.0000001
 43
0.0000001
 44
0.0000000001
 12
-0.9472436553
 22
0.2734200287
 32
0.0
 13
-0.878065918
 23
-0.4520168626
 33
0.0
 40
0.0
 40
0.0
 40
0.0
 40
0.0
 40
0.2865688307
 40
0.5591642615
 40
0.8178498117
 40
1.0
 40
1.0
 40
1.0
 40
1.0
 10
61.2463386239
 20
-55.8906154469
 30
0.0
 10
61.1558551217
 20
-55.864497561
 30
0.0
 10
60.9737594131
 20
-55.8306412462
 30
0.0
 10
60.7032797758
 20
-55.8352602264
 30
0.0
 10
60.4728323799
 20
-55.8865966144
 30
0.0
 10
60.3386480364
 20
-55.9430107395
 30
0.0
 10
60.2853347457
 20
-55.970455725
 30
0.0
 11
61.2463386239
 21
-55.8906154469
 31
0.0
 11
60.9684652261
 21
-55.839517031
 31
0.0
 11
60.6997575314
 21
-55.8446132198
 31
0.0
 11
60.4509379586
 21
-55.9006066872
 31
0.0
 11
60.2853347457
 21
-55.970455725
 31
0.0
  0
SPLINE
  5
59E
100
AcDbEntity
  8
0
100
AcDbSpline
 62
7
  6
CONTINUOUS
 70
0
 71
3
 72
10
 73
6
 74
4
 42
0.0000001
 43
0.0000001
 44
0.0000000001
 12
-0.2526038827
 22
-0.4495512038
 32
0.0
 13
-0.4603379694
 23
-0.2315080305
 33
0.0
 40
0.0
 40
0.0
 40
0.0
 40
0.0
 40
0.3915193347
 40
0.7940496483
 40
1.0
 40
1.0
 40
1.0
 40
1.0
 10
61.1152961602
 20
-57.6961226059
 30
0.0
 10
61.0823297255
 20
-57.7547919353
 30
0.0
 10
61.0009848921
 20
-57.8654143738
 30
0.0
 10
60.8686355484
 20
-57.9767999291
 30
0.0
 10
60.7779955995
 20
-58.0291833392
 30
0.0
 10
60.7463933439
 20
-58.0450763927
 30
0.0
 11
61.1152961602
 21
-57.6961226059
 31
0.0
 11
60.9963396182
 21
-57.8584888882
 31
0.0
 11
60.8381948204
 21
-57.9919599109
 31
0.0
 11
60.7463933439
 21
-58.0450763927
 31
0.0
  0
SPLINE
  5
59F
100
AcDbEntity
  8
0
100
AcDbSpline
 62
7
  6
CONTINUOUS
 70
0
 71
3
 72
10
 73
6
 74
4
 42
0.0000001
 43
0.0000001
 44
0.0000000001
 12
-0.4865658941
 22
-0.2446982855
 32
0.0
 13
-0.5402886881
 23
0.0579693842
 33
0.0
 40
0.0
 40
0.0
 40
0.0
 40
0.0
 40
0.1945428616
 40
0.5924002923
 40
1.0
 40
1.0
 40
1.0
 40
1.0
 10
60.7463933439
 20
-58.0450763927
 30
0.0
 10
60.7148407035
 20
-58.0609444942
 30
0.0
 10
60.6159562943
 20
-58.1036880601
 30
0.0
 10
60.4382724337
 20
-58.1460312473
 30
0.0
 10
60.2908885254
 20
-58.1467606129
 30
0.0
 10
60.217481355
 20
-58.1388845115
 30
0.0
 11
60.7463933439
 21
-58.0450763927
 31
0.0
 11
60.6492063165
 21
-58.0871137835
 31
0.0
 11
60.4389623359
 21
-58.1374752919
 31
0.0
 11
60.217481355
 21
-58.1388845115
 31
0.0
  0
SPLINE
  5
5A0
100
AcDbEntity
  8
0
100
AcDbSpline
 62
7
  6
CONTINUOUS
 70
0
 71
3
 72
11
 73
7
 74
5
 42
0.0000001
 43
0.0000001
 44
0.0000000001
 12
0.9471736236
 22
-0.2733998142
 32
0.0
 13
0.878029484
 23
0.4519281628
 33
0.0
 40
0.0
 40
0.0
 40
0.0
 40
0.0
 40
0.2865900189
 40
0.5592056048
 40
0.8179102815
 40
1.0
 40
1.0
 40
1.0
 40
1.0
 10
-42.3221921961
 20
19.5520986741
 30
0.0
 10
-42.2317086939
 20
19.5259807882
 30
0.0
 10
-42.0496129853
 20
19.4921244734
 30
0.0
 10
-41.779133348
 20
19.4967434536
 30
0.0
 10
-41.5487098331
 20
19.5480745216
 30
0.0
 10
-41.4145466167
 20
19.6044750451
 30
0.0
 10
-41.3612532362
 20
19.6319055357
 30
0.0
 11
-42.3221921961
 21
19.5520986741
 31
0.0
 11
-42.0443187983
 21
19.5010002582
 31
0.0
 11
-41.7756111036
 21
19.506096447
 31
0.0
 11
-41.5267915308
 21
19.5620899144
 31
0.0
 11
-41.3612532362
 21
19.6319055357
 31
0.0
  0
SPLINE
  5
5A1
100
AcDbEntity
  8
0
100
AcDbSpline
 62
7
  6
CONTINUOUS
 70
0
 71
3
 72
14
 73
10
 74
8
 42
0.0000001
 43
0.0000001
 44
0.0000000001
 12
-1.5265164876
 22
0.440625999
 32
0.0
 13
-0.7919061665
 23
-1.38096161
 33
0.0
 40
0.0
 40
0.0
 40
0.0
 40
0.0
 40
0.1778235013
 40
0.3469761403
 40
0.5074973323
 40
0.6594332102
 40
0.8028381927
 40
0.9377770198
 40
1.0
 40
1.0
 40
1.0
 40
1.0
 10
-40.7536613761
 20
22.1093845531
 30
0.0
 10
-40.8441448783
 20
22.135502439
 30
0.0
 10
-41.0262405869
 20
22.1693587538
 30
0.0
 10
-41.2967202242
 20
22.1647397736
 30
0.0
 10
-41.5474204662
 20
22.1088916924
 30
0.0
 10
-41.7690878709
 20
22.0090267514
 30
0.0
 10
-41.9546256446
 20
21.8739106394
 30
0.0
 10
-42.0761645198
 20
21.7388489285
 30
0.0
 10
-42.1329683601
 20
21.6508034183
 30
0.0
 10
-42.1493932807
 20
21.6221609026
 30
0.0
 11
-40.7536613761
 21
22.1093845531
 31
0.0
 11
-41.0315347739
 21
22.160482969
 31
0.0
 11
-41.3002424686
 21
22.1553867802
 31
0.0
 11
-41.5490620414
 21
22.0993933128
 31
0.0
 11
-41.7689327145
 21
21.9997363224
 31
0.0
 11
-41.9527844935
 21
21.8651522931
 31
0.0
 11
-42.0957641746
 21
21.7053950217
 31
0.0
 11
-42.1493932807
 21
21.6221609026
 31
0.0
  0
SPLINE
  5
5A2
100
AcDbEntity
  8
0
100
AcDbSpline
 62
7
  6
CONTINUOUS
 70
0
 71
3
 72
9
 73
5
 74
3
 42
0.0000001
 43
0.0000001
 44
0.0000000001
 12
-0.1141041339
 22
-0.1989799236
 32
0.0
 13
-0.0601421282
 23
-0.2213573269
 33
0.0
 40
0.0
 40
0.0
 40
0.0
 40
0.0
 40
0.4464455663
 40
1.0
 40
1.0
 40
1.0
 40
1.0
 10
-42.1493932807
 20
21.6221609026
 30
0.0
 10
-42.1663737089
 20
21.5925496677
 30
0.0
 10
-42.2008126462
 20
21.5241739466
 30
0.0
 10
-42.2263566094
 20
21.4519050092
 30
0.0
 10
-42.2374539233
 20
21.4110605659
 30
0.0
 11
-42.1493932807
 21
21.6221609026
 31
0.0
 11
-42.1953510409
 21
21.5307216215
 31
0.0
 11
-42.2374539233
 21
21.4110605659
 31
0.0
  0
SPLINE
  5
5A3
100
AcDbEntity
  8
0
100
AcDbSpline
 62
7
  6
CONTINUOUS
 70
0
 71
3
 72
8
 73
4
 74
2
 42
0.0000001
 43
0.0000001
 44
0.0000000001
 12
-0.0305187141
 22
-0.1649907312
 32
0.0
 13
0.0050465324
 23
-0.1672594158
 33
0.0
 40
0.0
 40
0.0
 40
0.0
 40
0.0
 40
1.0
 40
1.0
 40
1.0
 40
1.0
 10
-42.2527730946
 20
21.3439266283
 30
0.0
 10
-42.2629459993
 20
21.2889297179
 30
0.0
 10
-42.2675175196
 20
21.2328314795
 30
0.0
 10
-42.2658353421
 20
21.1770783408
 30
0.0
 11
-42.2527730946
 21
21.3439266283
 31
0.0
 11
-42.2658353421
 21
21.1770783408
 31
0.0
  0
SPLINE
  5
5A4
100
AcDbEntity
  8
0
100
AcDbSpline
 62
7
  6
CONTINUOUS
 70
0
 71
3
 72
10
 73
6
 74
4
 42
0.0000001
 43
0.0000001
 44
0.0000000001
 12
0.2526038827
 22
0.4495512038
 32
0.0
 13
0.4603379694
 23
0.2315080305
 33
0.0
 40
0.0
 40
0.0
 40
0.0
 40
0.0
 40
0.3915193347
 40
0.7940496483
 40
1.0
 40
1.0
 40
1.0
 40
1.0
 10
-42.1911497324
 20
21.3576058331
 30
0.0
 10
-42.1581832977
 20
21.4162751625
 30
0.0
 10
-42.0768384643
 20
21.526897601
 30
0.0
 10
-41.9444891206
 20
21.6382831563
 30
0.0
 10
-41.8538491717
 20
21.6906665665
 30
0.0
 10
-41.8222469161
 20
21.7065596199
 30
0.0
 11
-42.1911497324
 21
21.3576058331
 31
0.0
 11
-42.0721931904
 21
21.5199721154
 31
0.0
 11
-41.9140483926
 21
21.6534431381
 31
0.0
 11
-41.8222469161
 21
21.7065596199
 31
0.0
  0
SPLINE
  5
5A5
100
AcDbEntity
  8
0
100
AcDbSpline
 62
7
  6
CONTINUOUS
 70
0
 71
3
 72
10
 73
6
 74
4
 42
0.0000001
 43
0.0000001
 44
0.0000000001
 12
0.4865658941
 22
0.2446982855
 32
0.0
 13
0.5402886881
 23
-0.0579693842
 33
0.0
 40
0.0
 40
0.0
 40
0.0
 40
0.0
 40
0.1945428616
 40
0.5924002923
 40
1.0
 40
1.0
 40
1.0
 40
1.0
 10
-41.8222469161
 20
21.7065596199
 30
0.0
 10
-41.7906942757
 20
21.7224277215
 30
0.0
 10
-41.6918098665
 20
21.7651712873
 30
0.0
 10
-41.5141260059
 20
21.8075144745
 30
0.0
 10
-41.3667420976
 20
21.8082438401
 30
0.0
 10
-41.2933349272
 20
21.8003677387
 30
0.0
 11
-41.8222469161
 21
21.7065596199
 31
0.0
 11
-41.7250598887
 21
21.7485970107
 31
0.0
 11
-41.5148159081
 21
21.7989585191
 31
0.0
 11
-41.2933349272
 21
21.8003677387
 31
0.0
  0
SPLINE
  5
5A6
100
AcDbEntity
  8
0
100
AcDbSpline
 62
7
  6
CONTINUOUS
 70
0
 71
3
 72
12
 73
8
 74
6
 42
0.0000001
 43
0.0000001
 44
0.0000000001
 12
0.9815368961
 22
0.1546524621
 32
0.0
 13
0.4943985357
 23
0.8621544153
 33
0.0
 40
0.0
 40
0.0
 40
0.0
 40
0.0
 40
0.2111305528
 40
0.454494863
 40
0.6841947544
 40
0.9003339247
 40
1.0
 40
1.0
 40
1.0
 40
1.0
 10
60.2696396128
 20
19.5124049809
 30
0.0
 10
60.3387170886
 20
19.5232889342
 30
0.0
 10
60.4855270819
 20
19.5588808373
 30
0.0
 10
60.6932342987
 20
19.6524564758
 30
0.0
 10
60.8787720724
 20
19.7875725878
 30
0.0
 10
61.0003109476
 20
19.9226342987
 30
0.0
 10
61.0571147879
 20
20.010679809
 30
0.0
 10
61.0735397085
 20
20.0393223246
 30
0.0
 11
60.2696396128
 21
19.5124049809
 31
0.0
 11
60.4732084692
 21
19.5620899144
 31
0.0
 11
60.6930791423
 21
19.6617469049
 31
0.0
 11
60.8769309213
 21
19.7963309341
 31
0.0
 11
61.0199106024
 21
19.9560882055
 31
0.0
 11
61.0735397085
 21
20.0393223246
 31
0.0
  0
SPLINE
  5
5A7
100
AcDbEntity
  8
0
100
AcDbSpline
 62
7
  6
CONTINUOUS
 70
0
 71
3
 72
9
 73
5
 74
3
 42
0.0000001
 43
0.0000001
 44
0.0000000001
 12
0.1141041339
 22
0.1989799236
 32
0.0
 13
0.0601421282
 23
0.2213573269
 33
0.0
 40
0.0
 40
0.0
 40
0.0
 40
0.0
 40
0.4464455663
 40
1.0
 40
1.0
 40
1.0
 40
1.0
 10
61.0735397085
 20
20.0393223246
 30
0.0
 10
61.0905201367
 20
20.0689335595
 30
0.0
 10
61.124959074
 20
20.1373092806
 30
0.0
 10
61.1505030372
 20
20.209578218
 30
0.0
 10
61.1616003511
 20
20.2504226613
 30
0.0
 11
61.0735397085
 21
20.0393223246
 31
0.0
 11
61.1194974687
 21
20.1307616057
 31
0.0
 11
61.1616003511
 21
20.2504226613
 31
0.0
  0
SPLINE
  5
5A8
100
AcDbEntity
  8
0
100
AcDbSpline
 62
7
  6
CONTINUOUS
 70
0
 71
3
 72
8
 73
4
 74
2
 42
0.0000001
 43
0.0000001
 44
0.0000000001
 12
0.0305187141
 22
0.1649907312
 32
0.0
 13
-0.0050465324
 23
0.1672594158
 33
0.0
 40
0.0
 40
0.0
 40
0.0
 40
0.0
 40
1.0
 40
1.0
 40
1.0
 40
1.0
 10
61.1769195224
 20
20.3175565989
 30
0.0
 10
61.1870924271
 20
20.3725535093
 30
0.0
 10
61.1916639474
 20
20.4286517478
 30
0.0
 10
61.1899817699
 20
20.4844048864
 30
0.0
 11
61.1769195224
 21
20.3175565989
 31
0.0
 11
61.1899817699
 21
20.4844048864
 31
0.0
  0
SPLINE
  5
5A9
100
AcDbEntity
  8
0
100
AcDbSpline
 62
7
  6
CONTINUOUS
 70
0
 71
3
 72
14
 73
10
 74
8
 42
0.0000001
 43
0.0000001
 44
0.0000000001
 12
-1.5265164876
 22
0.440625999
 32
0.0
 13
-0.7919061665
 23
-1.38096161
 33
0.0
 40
0.0
 40
0.0
 40
0.0
 40
0.0
 40
0.1778235013
 40
0.3469761403
 40
0.5074973323
 40
0.6594332102
 40
0.8028381927
 40
0.9377770198
 40
1.0
 40
1.0
 40
1.0
 40
1.0
 10
61.2463386239
 20
22.1093845531
 30
0.0
 10
61.1558551217
 20
22.135502439
 30
0.0
 10
60.9737594131
 20
22.1693587538
 30
0.0
 10
60.7032797758
 20
22.1647397736
 30
0.0
 10
60.4525795338
 20
22.1088916924
 30
0.0
 10
60.2309121291
 20
22.0090267514
 30
0.0
 10
60.0453743554
 20
21.8739106394
 30
0.0
 10
59.9238354802
 20
21.7388489285
 30
0.0
 10
59.8670316399
 20
21.6508034183
 30
0.0
 10
59.8506067193
 20
21.6221609026
 30
0.0
 11
61.2463386239
 21
22.1093845531
 31
0.0
 11
60.9684652261
 21
22.160482969
 31
0.0
 11
60.6997575314
 21
22.1553867802
 31
0.0
 11
60.4509379586
 21
22.0993933128
 31
0.0
 11
60.2310672855
 21
21.9997363224
 31
0.0
 11
60.0472155065
 21
21.8651522931
 31
0.0
 11
59.9042358254
 21
21.7053950217
 31
0.0
 11
59.8506067193
 21
21.6221609026
 31
0.0
  0
SPLINE
  5
5AA
100
AcDbEntity
  8
0
100
AcDbSpline
 62
7
  6
CONTINUOUS
 70
0
 71
3
 72
9
 73
5
 74
3
 42
0.0000001
 43
0.0000001
 44
0.0000000001
 12
-0.1141041339
 22
-0.1989799236
 32
0.0
 13
-0.0601421282
 23
-0.2213573269
 33
0.0
 40
0.0
 40
0.0
 40
0.0
 40
0.0
 40
0.4464455663
 40
1.0
 40
1.0
 40
1.0
 40
1.0
 10
59.8506067193
 20
21.6221609026
 30
0.0
 10
59.8336262911
 20
21.5925496677
 30
0.0
 10
59.7991873538
 20
21.5241739466
 30
0.0
 10
59.7736433906
 20
21.4519050092
 30
0.0
 10
59.7625460767
 20
21.4110605659
 30
0.0
 11
59.8506067193
 21
21.6221609026
 31
0.0
 11
59.8046489591
 21
21.5307216215
 31
0.0
 11
59.7625460767
 21
21.4110605659
 31
0.0
  0
SPLINE
  5
5AB
100
AcDbEntity
  8
0
100
AcDbSpline
 62
7
  6
CONTINUOUS
 70
0
 71
3
 72
8
 73
4
 74
2
 42
0.0000001
 43
0.0000001
 44
0.0000000001
 12
-0.0305187141
 22
-0.1649907312
 32
0.0
 13
0.0050465324
 23
-0.1672594158
 33
0.0
 40
0.0
 40
0.0
 40
0.0
 40
0.0
 40
1.0
 40
1.0
 40
1.0
 40
1.0
 10
59.7472269054
 20
21.3439266283
 30
0.0
 10
59.7370540007
 20
21.2889297179
 30
0.0
 10
59.7324824804
 20
21.2328314795
 30
0.0
 10
59.7341646579
 20
21.1770783408
 30
0.0
 11
59.7472269054
 21
21.3439266283
 31
0.0
 11
59.7341646579
 21
21.1770783408
 31
0.0
  0
SPLINE
  5
5AC
100
AcDbEntity
  8
0
100
AcDbSpline
 62
7
  6
CONTINUOUS
 70
0
 71
3
 72
10
 73
6
 74
4
 42
0.0000001
 43
0.0000001
 44
0.0000000001
 12
0.2526038827
 22
0.4495512038
 32
0.0
 13
0.4603379694
 23
0.2315080305
 33
0.0
 40
0.0
 40
0.0
 40
0.0
 40
0.0
 40
0.3915193347
 40
0.7940496483
 40
1.0
 40
1.0
 40
1.0
 40
1.0
 10
59.8088502676
 20
21.3576058331
 30
0.0
 10
59.8418167023
 20
21.4162751625
 30
0.0
 10
59.9231615357
 20
21.526897601
 30
0.0
 10
60.0555108794
 20
21.6382831563
 30
0.0
 10
60.1461508283
 20
21.6906665665
 30
0.0
 10
60.1777530839
 20
21.7065596199
 30
0.0
 11
59.8088502676
 21
21.3576058331
 31
0.0
 11
59.9278068096
 21
21.5199721154
 31
0.0
 11
60.0859516074
 21
21.6534431381
 31
0.0
 11
60.1777530839
 21
21.7065596199
 31
0.0
  0
SPLINE
  5
5AD
100
AcDbEntity
  8
0
100
AcDbSpline
 62
7
  6
CONTINUOUS
 70
0
 71
3
 72
10
 73
6
 74
4
 42
0.0000001
 43
0.0000001
 44
0.0000000001
 12
0.4865658941
 22
0.2446982855
 32
0.0
 13
0.5402886881
 23
-0.0579693842
 33
0.0
 40
0.0
 40
0.0
 40
0.0
 40
0.0
 40
0.1945428616
 40
0.5924002923
 40
1.0
 40
1.0
 40
1.0
 40
1.0
 10
60.1777530839
 20
21.7065596199
 30
0.0
 10
60.2093057243
 20
21.7224277215
 30
0.0
 10
60.3081901335
 20
21.7651712873
 30
0.0
 10
60.4858739941
 20
21.8075144745
 30
0.0
 10
60.6332579024
 20
21.8082438401
 30
0.0
 10
60.7066650728
 20
21.8003677387
 30
0.0
 11
60.1777530839
 21
21.7065596199
 31
0.0
 11
60.2749401113
 21
21.7485970107
 31
0.0
 11
60.4851840919
 21
21.7989585191
 31
0.0
 11
60.7066650728
 21
21.8003677387
 31
0.0
  0
SPLINE
  5
5AE
100
AcDbEntity
  8
0
100
AcDbSpline
 62
7
  6
CONTINUOUS
 70
0
 71
3
 72
10
 73
6
 74
4
 42
0.0000001
 43
0.0000001
 44
0.0000000001
 12
-0.2526038827
 22
-0.4495512038
 32
0.0
 13
-0.4603379694
 23
-0.2315080305
 33
0.0
 40
0.0
 40
0.0
 40
0.0
 40
0.0
 40
0.3915193347
 40
0.7940496483
 40
1.0
 40
1.0
 40
1.0
 40
1.0
 10
61.1152961602
 20
20.3038773941
 30
0.0
 10
61.0823297255
 20
20.2452080647
 30
0.0
 10
61.0009848921
 20
20.1345856262
 30
0.0
 10
60.8686355484
 20
20.0232000709
 30
0.0
 10
60.7779955995
 20
19.9708166608
 30
0.0
 10
60.7463933439
 20
19.9549236073
 30
0.0
 11
61.1152961602
 21
20.3038773941
 31
0.0
 11
60.9963396182
 21
20.1415111118
 31
0.0
 11
60.8381948204
 21
20.0080400891
 31
0.0
 11
60.7463933439
 21
19.9549236073
 31
0.0
  0
SPLINE
  5
5AF
100
AcDbEntity
  8
0
100
AcDbSpline
 62
7
  6
CONTINUOUS
 70
0
 71
3
 72
10
 73
6
 74
4
 42
0.0000001
 43
0.0000001
 44
0.0000000001
 12
-0.4351636324
 22
-0.2188476341
 32
0.0
 13
-0.4862208509
 23
0.0235775222
 33
0.0
 40
0.0
 40
0.0
 40
0.0
 40
0.0
 40
0.2175225923
 40
0.6623756133
 40
1.0
 40
1.0
 40
1.0
 40
1.0
 10
60.7463933439
 20
19.9549236073
 30
0.0
 10
60.7148407035
 20
19.9390555058
 30
0.0
 10
60.6159562943
 20
19.8963119399
 30
0.0
 10
60.4570434829
 20
19.8584420124
 30
0.0
 10
60.3294765736
 20
19.8540048741
 30
0.0
 10
60.2747565681
 20
19.8566583229
 30
0.0
 11
60.7463933439
 21
19.9549236073
 31
0.0
 11
60.6492063165
 21
19.9128862165
 31
0.0
 11
60.4389623359
 21
19.8625247081
 31
0.0
 11
60.2747565681
 21
19.8566583229
 31
0.0
  0
SPLINE
  5
5B0
100
AcDbEntity
  8
RACCORDO
100
AcDbSpline
 62
7
  6
CONTINUOUS
 70
0
 71
3
 72
10
 73
6
 74
4
 42
0.0000001
 43
0.0000001
 44
0.0000000001
 12
-0.5039042092
 22
0.0
 32
0.0
 13
-0.0985920027
 23
0.4941650221
 33
0.0
 40
0.0
 40
0.0
 40
0.0
 40
0.0
 40
0.4905273144
 40
0.8545171167
 40
1.0
 40
1.0
 40
1.0
 40
1.0
 10
-3.0465838052
 20
-69.5208903345
 30
0.0
 10
-3.1289767314
 20
-69.5208903345
 30
0.0
 10
-3.2831265942
 20
-69.5240888178
 30
0.0
 10
-3.4199926577
 20
-69.494490631
 30
0.0
 10
-3.5417208525
 20
-69.5018736307
 30
0.0
 10
-3.5465020021
 20
-69.4779094466
 30
0.0
 11
-3.0465838052
 21
-69.5208903345
 31
0.0
 11
-3.2936964795
 21
-69.5151741491
 31
0.0
 11
-3.476440549
 21
-69.499488751
 31
0.0
 11
-3.5465020021
 21
-69.4779094466
 31
0.0
  0
SPLINE
  5
5B1
100
AcDbEntity
  8
RACCORDO
100
AcDbSpline
 62
7
  6
CONTINUOUS
 70
0
 71
3
 72
10
 73
6
 74
4
 42
0.0000001
 43
0.0000001
 44
0.0000000001
 12
-0.098591732
 22
-0.4941636656
 32
0.0
 13
-0.503902826
 23
0.0
 33
0.0
 40
0.0
 40
0.0
 40
0.0
 40
0.0
 40
0.1454828682
 40
0.5094726773
 40
1.0
 40
1.0
 40
1.0
 40
1.0
 10
22.4706484299
 20
-69.4779094466
 30
0.0
 10
22.4658672939
 20
-69.5018735624
 30
0.0
 10
22.3441394563
 20
-69.4944906468
 30
0.0
 10
22.2072737574
 20
-69.5240887439
 30
0.0
 10
22.0531243203
 20
-69.5208903345
 30
0.0
 10
21.9707316189
 20
-69.5208903345
 30
0.0
 11
22.4706484299
 21
-69.4779094466
 31
0.0
 11
22.4005871858
 21
-69.4994887202
 31
0.0
 11
22.2178436178
 21
-69.5151741137
 31
0.0
 11
21.9707316189
 21
-69.5208903345
 31
0.0
  0
SPLINE
  5
5B2
100
AcDbEntity
  8
RACCORDO
100
AcDbSpline
 62
7
  6
CONTINUOUS
 70
0
 71
3
 72
10
 73
6
 74
4
 42
0.0000001
 43
0.0000001
 44
0.0000000001
 12
0.098591732
 22
0.4941636658
 32
0.0
 13
0.5039028262
 23
-0.0
 33
0.0
 40
0.0
 40
0.0
 40
0.0
 40
0.0
 40
0.1454828682
 40
0.5094726773
 40
1.0
 40
1.0
 40
1.0
 40
1.0
 10
-3.5465020021
 20
33.1393926738
 30
0.0
 10
-3.5417208661
 20
33.1633567896
 30
0.0
 10
-3.4199930284
 20
33.155973874
 30
0.0
 10
-3.2831273295
 20
33.1855719712
 30
0.0
 10
-3.1289778924
 20
33.1823735617
 30
0.0
 10
-3.046585191
 20
33.1823735617
 30
0.0
 11
-3.5465020021
 21
33.1393926738
 31
0.0
 11
-3.476440758
 21
33.1609719474
 31
0.0
 11
-3.2936971899
 21
33.176657341
 31
0.0
 11
-3.046585191
 21
33.1823735617
 31
0.0
  0
SPLINE
  5
5B3
100
AcDbEntity
  8
RACCORDO
100
AcDbSpline
 62
7
  6
CONTINUOUS
 70
0
 71
3
 72
10
 73
6
 74
4
 42
0.0000001
 43
0.0000001
 44
0.0000000001
 12
0.5039042092
 22
0.0
 32
0.0
 13
0.0985920027
 23
-0.4941650221
 33
0.0
 40
0.0
 40
0.0
 40
0.0
 40
0.0
 40
0.4905273144
 40
0.8545171167
 40
1.0
 40
1.0
 40
1.0
 40
1.0
 10
21.970730233
 20
33.1823735617
 30
0.0
 10
22.0531231592
 20
33.1823735617
 30
0.0
 10
22.207273022
 20
33.185572045
 30
0.0
 10
22.3441390855
 20
33.1559738582
 30
0.0
 10
22.4658672803
 20
33.1633568579
 30
0.0
 10
22.4706484299
 20
33.1393926738
 30
0.0
 11
21.970730233
 21
33.1823735617
 31
0.0
 11
22.2178429073
 21
33.1766573763
 31
0.0
 11
22.4005869768
 21
33.1609719782
 31
0.0
 11
22.4706484299
 21
33.1393926738
 31
0.0
  0
SPLINE
  5
5B4
100
AcDbEntity
  8
RACCORDO
100
AcDbSpline
 62
7
  6
CONTINUOUS
 70
0
 71
3
 72
10
 73
6
 74
4
 42
0.0000001
 43
0.0000001
 44
0.0000000001
 12
0.0985917318
 22
0.4941636644
 32
0.0
 13
0.5039028247
 23
-0.0
 33
0.0
 40
0.0
 40
0.0
 40
0.0
 40
0.0
 40
0.1454828682
 40
0.5094726773
 40
1.0
 40
1.0
 40
1.0
 40
1.0
 10
-3.2965020021
 20
-64.3606073262
 30
0.0
 10
-3.2917208661
 20
-64.3366432104
 30
0.0
 10
-3.1699930288
 20
-64.344026126
 30
0.0
 10
-3.0331273302
 20
-64.3144280289
 30
0.0
 10
-2.8789778936
 20
-64.3176264383
 30
0.0
 10
-2.7965851924
 20
-64.3176264383
 30
0.0
 11
-3.2965020021
 21
-64.3606073262
 31
0.0
 11
-3.2264407582
 21
-64.3390280526
 31
0.0
 11
-3.0436971906
 21
-64.3233426591
 31
0.0
 11
-2.7965851924
 21
-64.3176264383
 31
0.0
  0
SPLINE
  5
5B5
100
AcDbEntity
  8
RACCORDO
100
AcDbSpline
 62
7
  6
CONTINUOUS
 70
0
 71
3
 72
10
 73
6
 74
4
 42
0.0000001
 43
0.0000001
 44
0.0000000001
 12
0.5039042092
 22
0.0
 32
0.0
 13
0.0985920027
 23
-0.4941650221
 33
0.0
 40
0.0
 40
0.0
 40
0.0
 40
0.0
 40
0.4905273144
 40
0.8545171167
 40
1.0
 40
1.0
 40
1.0
 40
1.0
 10
21.720730233
 20
-64.3176264383
 30
0.0
 10
21.8031231592
 20
-64.3176264383
 30
0.0
 10
21.957273022
 20
-64.314427955
 30
0.0
 10
22.0941390855
 20
-64.3440261418
 30
0.0
 10
22.2158672803
 20
-64.3366431421
 30
0.0
 10
22.2206484299
 20
-64.3606073262
 30
0.0
 11
21.720730233
 21
-64.3176264383
 31
0.0
 11
21.9678429073
 21
-64.3233426237
 31
0.0
 11
22.1505869768
 21
-64.3390280218
 31
0.0
 11
22.2206484299
 21
-64.3606073262
 31
0.0
  0
SPLINE
  5
5B6
100
AcDbEntity
  8
RACCORDO
100
AcDbSpline
 62
7
  6
CONTINUOUS
 70
0
 71
3
 72
10
 73
6
 74
4
 42
0.0000001
 43
0.0000001
 44
0.0000000001
 12
-0.5039042092
 22
0.0
 32
0.0
 13
-0.0985920027
 23
0.4941650221
 33
0.0
 40
0.0
 40
0.0
 40
0.0
 40
0.0
 40
0.4905273144
 40
0.8545171167
 40
1.0
 40
1.0
 40
1.0
 40
1.0
 10
-2.7965838052
 20
27.9791096655
 30
0.0
 10
-2.8789767314
 20
27.9791096655
 30
0.0
 10
-3.0331265942
 20
27.9759111822
 30
0.0
 10
-3.1699926577
 20
28.005509369
 30
0.0
 10
-3.2917208525
 20
27.9981263693
 30
0.0
 10
-3.2965020021
 20
28.0220905534
 30
0.0
 11
-2.7965838052
 21
27.9791096655
 31
0.0
 11
-3.0436964795
 21
27.9848258509
 31
0.0
 11
-3.226440549
 21
28.000511249
 31
0.0
 11
-3.2965020021
 21
28.0220905534
 31
0.0
  0
SPLINE
  5
5B7
100
AcDbEntity
  8
RACCORDO
100
AcDbSpline
 62
7
  6
CONTINUOUS
 70
0
 71
3
 72
10
 73
6
 74
4
 42
0.0000001
 43
0.0000001
 44
0.0000000001
 12
-0.0985917318
 22
-0.4941636647
 32
0.0
 13
-0.5039028251
 23
-0.0
 33
0.0
 40
0.0
 40
0.0
 40
0.0
 40
0.0
 40
0.1454828682
 40
0.5094726773
 40
1.0
 40
1.0
 40
1.0
 40
1.0
 10
22.2206484299
 20
28.0220905534
 30
0.0
 10
22.2158672939
 20
27.9981264376
 30
0.0
 10
22.0941394565
 20
28.0055093532
 30
0.0
 10
21.9572737579
 20
27.9759112561
 30
0.0
 10
21.8031243211
 20
27.9791096655
 30
0.0
 10
21.7207316199
 20
27.9791096655
 30
0.0
 11
22.2206484299
 21
28.0220905534
 31
0.0
 11
22.150587186
 21
28.0005112798
 31
0.0
 11
21.9678436183
 21
27.9848258863
 31
0.0
 11
21.7207316199
 21
27.9791096655
 31
0.0
  0
SPLINE
  5
5B8
100
AcDbEntity
  8
RACCORDO
100
AcDbSpline
 62
253
  6
CONTINUOUS
 70
0
 71
3
 72
12
 73
8
 74
6
 42
0.0000001
 43
0.0000001
 44
0.0000000001
 12
2.2249254715
 22
-1.1397452096
 32
0.0
 13
2.4998624955
 23
-0.0000016936
 33
0.0
 40
0.0
 40
0.0
 40
0.0
 40
0.0
 40
0.0535736433
 40
0.1976686328
 40
0.4183891157
 40
0.6946631167
 40
1.0
 40
1.0
 40
1.0
 40
1.0
 10
-45.7167009882
 20
17.3197898723
 30
0.0
 10
-45.6769685337
 20
17.2994364379
 30
0.0
 10
-45.5014148895
 20
17.3313952374
 30
0.0
 10
-45.1624421938
 20
17.294174062
 30
0.0
 10
-44.6233201977
 20
17.3064933604
 30
0.0
 10
-43.9566556256
 20
17.2973363605
 30
0.0
 10
-43.471515158
 20
17.2983536373
 30
0.0
 10
-43.2170817503
 20
17.298353465
 30
0.0
 11
-45.7167009882
 21
17.3197898723
 31
0.0
 11
-45.5829404092
 21
17.3131205666
 31
0.0
 11
-45.2227722684
 21
17.3071478907
 31
0.0
 11
-44.6710216377
 21
17.3024234295
 31
0.0
 11
-43.9803812623
 21
17.2993953689
 31
0.0
 11
-43.2170817503
 21
17.298353465
 31
0.0
  0
SPLINE
  5
5B9
100
AcDbEntity
  8
RACCORDO
100
AcDbSpline
 62
7
  6
CONTINUOUS
 70
0
 71
3
 72
10
 73
6
 74
4
 42
0.0000001
 43
0.0000001
 44
0.0000000001
 12
0.3948878465
 22
-0.0398917734
 32
0.0
 13
0.3968004088
 23
0.0087863792
 33
0.0
 40
0.0
 40
0.0
 40
0.0
 40
0.0
 40
0.3255975934
 40
0.6579495051
 40
1.0
 40
1.0
 40
1.0
 40
1.0
 10
-41.4493580353
 20
19.0101220552
 30
0.0
 10
-41.4064998578
 20
19.0057925001
 30
0.0
 10
-41.3197424649
 20
18.9984561135
 30
0.0
 10
-41.1875585826
 20
18.9922306114
 30
0.0
 10
-41.098295055
 20
18.9919258805
 30
0.0
 10
-41.0530531296
 20
18.9929276756
 30
0.0
 11
-41.4493580353
 21
19.0101220552
 31
0.0
 11
-41.3205809466
 21
18.9993249601
 31
0.0
 11
-41.1888118244
 21
18.9932366338
 31
0.0
 11
-41.0530531296
 21
18.9929276756
 31
0.0
  0
SPLINE
  5
5BA
100
AcDbEntity
  8
RACCORDO
100
AcDbSpline
 62
7
  6
CONTINUOUS
 70
0
 71
3
 72
10
 73
6
 74
4
 42
0.0000001
 43
0.0000001
 44
0.0000000001
 12
0.0398917734
 22
-0.3948878465
 32
0.0
 13
-0.0087863792
 23
-0.3968004088
 33
0.0
 40
0.0
 40
0.0
 40
0.0
 40
0.0
 40
0.3255975934
 40
0.6579495051
 40
1.0
 40
1.0
 40
1.0
 40
1.0
 10
-39.7173072277
 20
20.7421728628
 30
0.0
 10
-39.7129776726
 20
20.6993146853
 30
0.0
 10
-39.705641286
 20
20.6125572924
 30
0.0
 10
-39.6994157839
 20
20.4803734101
 30
0.0
 10
-39.699111053
 20
20.3911098825
 30
0.0
 10
-39.7001128481
 20
20.3458679571
 30
0.0
 11
-39.7173072277
 21
20.7421728628
 31
0.0
 11
-39.7065101326
 21
20.6133957741
 31
0.0
 11
-39.7004218063
 21
20.4816266519
 31
0.0
 11
-39.7001128481
 21
20.3458679571
 31
0.0
  0
SPLINE
  5
5BB
100
AcDbEntity
  8
RACCORDO
100
AcDbSpline
 62
253
  6
CONTINUOUS
 70
0
 71
3
 72
12
 73
8
 74
6
 42
0.0000001
 43
0.0000001
 44
0.0000000001
 12
-0.0000017258
 22
2.4998625653
 32
0.0
 13
-1.1397472707
 23
2.2249244941
 33
0.0
 40
0.0
 40
0.0
 40
0.0
 40
0.0
 40
0.3056059234
 40
0.5820070747
 40
0.8026308257
 40
0.9465261164
 40
1.0
 40
1.0
 40
1.0
 40
1.0
 10
-38.0055386374
 20
22.5098965778
 30
0.0
 10
-38.0055388133
 20
22.7645541804
 30
0.0
 10
-38.0045199877
 20
23.2500256408
 30
0.0
 10
-38.0136864219
 20
23.9169376121
 30
0.0
 10
-38.0013725314
 20
24.4559186416
 30
0.0
 10
-38.0385540036
 20
24.7945711737
 30
0.0
 10
-38.0066594739
 20
24.9698573646
 30
0.0
 10
-38.0269750448
 20
25.0095158157
 30
0.0
 11
-38.0055386374
 21
22.5098965778
 31
0.0
 11
-38.0065824248
 21
23.2738686725
 31
0.0
 11
-38.0096147862
 21
23.9648269095
 31
0.0
 11
-38.0143418447
 21
24.516335708
 31
0.0
 11
-38.0203121119
 21
24.8760046108
 31
0.0
 11
-38.0269750448
 21
25.0095158157
 31
0.0
  0
SPLINE
  5
5BC
100
AcDbEntity
  8
RACCORDO
100
AcDbSpline
 62
253
  6
CONTINUOUS
 70
0
 71
3
 72
12
 73
8
 74
6
 42
0.0000001
 43
0.0000001
 44
0.0000000001
 12
-1.1397452096
 22
-2.2249254715
 32
0.0
 13
-0.0000016936
 23
-2.4998624955
 33
0.0
 40
0.0
 40
0.0
 40
0.0
 40
0.0
 40
0.0535736433
 40
0.1976686328
 40
0.4183891157
 40
0.6946631167
 40
1.0
 40
1.0
 40
1.0
 40
1.0
 10
56.9511214726
 20
25.0095158157
 30
0.0
 10
56.9307680382
 20
24.9697833612
 30
0.0
 10
56.9627268377
 20
24.794229717
 30
0.0
 10
56.9255056623
 20
24.4552570213
 30
0.0
 10
56.9378249607
 20
23.9161350252
 30
0.0
 10
56.9286679608
 20
23.2494704531
 30
0.0
 10
56.9296852376
 20
22.7643299855
 30
0.0
 10
56.9296850652
 20
22.5098965778
 30
0.0
 11
56.9511214726
 21
25.0095158157
 31
0.0
 11
56.9444521669
 21
24.8757552367
 31
0.0
 11
56.938479491
 21
24.5155870959
 31
0.0
 11
56.9337550298
 21
23.9638364652
 31
0.0
 11
56.9307269692
 21
23.2731960898
 31
0.0
 11
56.9296850652
 21
22.5098965778
 31
0.0
  0
SPLINE
  5
5BD
100
AcDbEntity
  8
RACCORDO
100
AcDbSpline
 62
7
  6
CONTINUOUS
 70
0
 71
3
 72
10
 73
6
 74
4
 42
0.0000001
 43
0.0000001
 44
0.0000000001
 12
-0.0398917734
 22
-0.3948878465
 32
0.0
 13
0.0087863792
 23
-0.3968004088
 33
0.0
 40
0.0
 40
0.0
 40
0.0
 40
0.0
 40
0.3255975934
 40
0.6579495051
 40
1.0
 40
1.0
 40
1.0
 40
1.0
 10
58.6414536555
 20
20.7421728628
 30
0.0
 10
58.6371241004
 20
20.6993146853
 30
0.0
 10
58.6297877138
 20
20.6125572924
 30
0.0
 10
58.6235622117
 20
20.4803734101
 30
0.0
 10
58.6232574808
 20
20.3911098825
 30
0.0
 10
58.6242592759
 20
20.3458679571
 30
0.0
 11
58.6414536555
 21
20.7421728628
 31
0.0
 11
58.6306565604
 21
20.6133957741
 31
0.0
 11
58.6245682341
 21
20.4816266519
 31
0.0
 11
58.6242592759
 21
20.3458679571
 31
0.0
  0
SPLINE
  5
5BE
100
AcDbEntity
  8
RACCORDO
100
AcDbSpline
 62
7
  6
CONTINUOUS
 70
0
 71
3
 72
10
 73
6
 74
4
 42
0.0000001
 43
0.0000001
 44
0.0000000001
 12
-0.3948878465
 22
-0.0398917734
 32
0.0
 13
-0.3968004088
 23
0.0087863792
 33
0.0
 40
0.0
 40
0.0
 40
0.0
 40
0.0
 40
0.3255975934
 40
0.6579495051
 40
1.0
 40
1.0
 40
1.0
 40
1.0
 10
60.3735044631
 20
19.0101220552
 30
0.0
 10
60.3306462856
 20
19.0057925001
 30
0.0
 10
60.2438888927
 20
18.9984561135
 30
0.0
 10
60.1117050104
 20
18.9922306114
 30
0.0
 10
60.0224414828
 20
18.9919258805
 30
0.0
 10
59.9771995574
 20
18.9929276756
 30
0.0
 11
60.3735044631
 21
19.0101220552
 31
0.0
 11
60.2447273744
 21
18.9993249601
 31
0.0
 11
60.1129582522
 21
18.9932366338
 31
0.0
 11
59.9771995574
 21
18.9929276756
 31
0.0
  0
SPLINE
  5
5BF
100
AcDbEntity
  8
RACCORDO
100
AcDbSpline
 62
253
  6
CONTINUOUS
 70
0
 71
3
 72
12
 73
8
 74
6
 42
0.0000001
 43
0.0000001
 44
0.0000000001
 12
2.4998625653
 22
0.0000017258
 32
0.0
 13
2.2249244941
 23
1.1397472707
 33
0.0
 40
0.0
 40
0.0
 40
0.0
 40
0.0
 40
0.3056059234
 40
0.5820070747
 40
0.8026308257
 40
0.9465261164
 40
1.0
 40
1.0
 40
1.0
 40
1.0
 10
62.1412281781
 20
17.298353465
 30
0.0
 10
62.3958857807
 20
17.2983536408
 30
0.0
 10
62.8813572411
 20
17.2973348152
 30
0.0
 10
63.5482692124
 20
17.3065012494
 30
0.0
 10
64.0872502419
 20
17.2941873589
 30
0.0
 10
64.425902774
 20
17.3313688311
 30
0.0
 10
64.6011889649
 20
17.2994743014
 30
0.0
 10
64.640847416
 20
17.3197898723
 30
0.0
 11
62.1412281781
 21
17.298353465
 31
0.0
 11
62.9052002728
 21
17.2993972523
 31
0.0
 11
63.5961585098
 21
17.3024296137
 31
0.0
 11
64.1476673083
 21
17.3071566722
 31
0.0
 11
64.5073362111
 21
17.3131269394
 31
0.0
 11
64.640847416
 21
17.3197898723
 31
0.0
  0
SPLINE
  5
5C0
100
AcDbEntity
  8
RACCORDO
100
AcDbSpline
 62
253
  6
CONTINUOUS
 70
0
 71
3
 72
12
 73
8
 74
6
 42
0.0000001
 43
0.0000001
 44
0.0000000001
 12
1.1397452096
 22
2.2249254715
 32
0.0
 13
0.0000016936
 23
2.4998624955
 33
0.0
 40
0.0
 40
0.0
 40
0.0
 40
0.0
 40
0.0535736433
 40
0.1976686328
 40
0.4183891157
 40
0.6946631167
 40
1.0
 40
1.0
 40
1.0
 40
1.0
 10
-38.0269750448
 20
-61.3480325885
 30
0.0
 10
-38.0066216104
 20
-61.308300134
 30
0.0
 10
-38.0385804099
 20
-61.1327464898
 30
0.0
 10
-38.0013592345
 20
-60.7937737941
 30
0.0
 10
-38.0136785329
 20
-60.2546517979
 30
0.0
 10
-38.004521533
 20
-59.5879872259
 30
0.0
 10
-38.0055388098
 20
-59.1028467583
 30
0.0
 10
-38.0055386374
 20
-58.8484133506
 30
0.0
 11
-38.0269750448
 21
-61.3480325885
 31
0.0
 11
-38.0203057391
 21
-61.2142720095
 31
0.0
 11
-38.0143330632
 21
-60.8541038687
 31
0.0
 11
-38.009608602
 21
-60.302353238
 31
0.0
 11
-38.0065805414
 21
-59.6117128626
 31
0.0
 11
-38.0055386374
 21
-58.8484133506
 31
0.0
  0
SPLINE
  5
5C1
100
AcDbEntity
  8
RACCORDO
100
AcDbSpline
 62
7
  6
CONTINUOUS
 70
0
 71
3
 72
10
 73
6
 74
4
 42
0.0000001
 43
0.0000001
 44
0.0000000001
 12
0.0398917734
 22
0.3948878465
 32
0.0
 13
-0.0087863792
 23
0.3968004088
 33
0.0
 40
0.0
 40
0.0
 40
0.0
 40
0.0
 40
0.3255975934
 40
0.6579495051
 40
1.0
 40
1.0
 40
1.0
 40
1.0
 10
-39.7173072277
 20
-57.0806896356
 30
0.0
 10
-39.7129776726
 20
-57.0378314581
 30
0.0
 10
-39.705641286
 20
-56.9510740652
 30
0.0
 10
-39.6994157839
 20
-56.8188901829
 30
0.0
 10
-39.699111053
 20
-56.7296266553
 30
0.0
 10
-39.7001128481
 20
-56.6843847299
 30
0.0
 11
-39.7173072277
 21
-57.0806896356
 31
0.0
 11
-39.7065101326
 21
-56.9519125469
 31
0.0
 11
-39.7004218063
 21
-56.8201434247
 31
0.0
 11
-39.7001128481
 21
-56.6843847299
 31
0.0
  0
SPLINE
  5
5C2
100
AcDbEntity
  8
RACCORDO
100
AcDbSpline
 62
7
  6
CONTINUOUS
 70
0
 71
3
 72
10
 73
6
 74
4
 42
0.0000001
 43
0.0000001
 44
0.0000000001
 12
0.3948878465
 22
0.0398917734
 32
0.0
 13
0.3968004088
 23
-0.0087863792
 33
0.0
 40
0.0
 40
0.0
 40
0.0
 40
0.0
 40
0.3255975934
 40
0.6579495051
 40
1.0
 40
1.0
 40
1.0
 40
1.0
 10
-41.4493580353
 20
-55.348638828
 30
0.0
 10
-41.4064998578
 20
-55.3443092729
 30
0.0
 10
-41.3197424649
 20
-55.3369728863
 30
0.0
 10
-41.1875585826
 20
-55.3307473842
 30
0.0
 10
-41.098295055
 20
-55.3304426533
 30
0.0
 10
-41.0530531296
 20
-55.3314444484
 30
0.0
 11
-41.4493580353
 21
-55.348638828
 31
0.0
 11
-41.3205809466
 21
-55.3378417329
 31
0.0
 11
-41.1888118244
 21
-55.3317534066
 31
0.0
 11
-41.0530531296
 21
-55.3314444484
 31
0.0
  0
SPLINE
  5
5C3
100
AcDbEntity
  8
RACCORDO
100
AcDbSpline
 62
253
  6
CONTINUOUS
 70
0
 71
3
 72
12
 73
8
 74
6
 42
0.0000001
 43
0.0000001
 44
0.0000000001
 12
-2.4998625653
 22
-0.0000017258
 32
0.0
 13
-2.2249244941
 23
-1.1397472707
 33
0.0
 40
0.0
 40
0.0
 40
0.0
 40
0.0
 40
0.3056059234
 40
0.5820070747
 40
0.8026308257
 40
0.9465261164
 40
1.0
 40
1.0
 40
1.0
 40
1.0
 10
-43.2170817503
 20
-53.6368702377
 30
0.0
 10
-43.4717393529
 20
-53.6368704135
 30
0.0
 10
-43.9572108133
 20
-53.635851588
 30
0.0
 10
-44.6241227846
 20
-53.6450180222
 30
0.0
 10
-45.1631038141
 20
-53.6327041317
 30
0.0
 10
-45.5017563462
 20
-53.6698856039
 30
0.0
 10
-45.6770425371
 20
-53.6379910742
 30
0.0
 10
-45.7167009882
 20
-53.6583066451
 30
0.0
 11
-43.2170817503
 21
-53.6368702377
 31
0.0
 11
-43.981053845
 21
-53.6379140251
 31
0.0
 11
-44.672012082
 21
-53.6409463865
 31
0.0
 11
-45.2235208805
 21
-53.645673445
 31
0.0
 11
-45.5831897833
 21
-53.6516437122
 31
0.0
 11
-45.7167009882
 21
-53.6583066451
 31
0.0
  0
SPLINE
  5
5C4
100
AcDbEntity
  8
RACCORDO
100
AcDbSpline
 62
7
  6
CONTINUOUS
 70
0
 71
3
 72
10
 73
6
 74
4
 42
0.0000001
 43
0.0000001
 44
0.0000000001
 12
-0.0398917734
 22
0.3948878465
 32
0.0
 13
0.0087863792
 23
0.3968004088
 33
0.0
 40
0.0
 40
0.0
 40
0.0
 40
0.0
 40
0.3255975934
 40
0.6579495051
 40
1.0
 40
1.0
 40
1.0
 40
1.0
 10
58.6414536555
 20
-57.0806896356
 30
0.0
 10
58.6371241004
 20
-57.0378314581
 30
0.0
 10
58.6297877138
 20
-56.9510740652
 30
0.0
 10
58.6235622117
 20
-56.8188901829
 30
0.0
 10
58.6232574808
 20
-56.7296266553
 30
0.0
 10
58.6242592759
 20
-56.6843847299
 30
0.0
 11
58.6414536555
 21
-57.0806896356
 31
0.0
 11
58.6306565604
 21
-56.9519125469
 31
0.0
 11
58.6245682341
 21
-56.8201434247
 31
0.0
 11
58.6242592759
 21
-56.6843847299
 31
0.0
  0
SPLINE
  5
5C5
100
AcDbEntity
  8
RACCORDO
100
AcDbSpline
 62
253
  6
CONTINUOUS
 70
0
 71
3
 72
12
 73
8
 74
6
 42
0.0000001
 43
0.0000001
 44
0.0000000001
 12
-2.2249254715
 22
1.1397452096
 32
0.0
 13
-2.4998624955
 23
0.0000016936
 33
0.0
 40
0.0
 40
0.0
 40
0.0
 40
0.0
 40
0.0535736433
 40
0.1976686328
 40
0.4183891157
 40
0.6946631167
 40
1.0
 40
1.0
 40
1.0
 40
1.0
 10
64.640847416
 20
-53.6583066451
 30
0.0
 10
64.6011149615
 20
-53.6379532107
 30
0.0
 10
64.4255613173
 20
-53.6699120102
 30
0.0
 10
64.0865886216
 20
-53.6326908348
 30
0.0
 10
63.5474666254
 20
-53.6450101332
 30
0.0
 10
62.8808020534
 20
-53.6358531333
 30
0.0
 10
62.3956615858
 20
-53.6368704101
 30
0.0
 10
62.1412281781
 20
-53.6368702377
 30
0.0
 11
64.640847416
 21
-53.6583066451
 31
0.0
 11
64.507086837
 21
-53.6516373394
 31
0.0
 11
64.1469186962
 21
-53.6456646635
 31
0.0
 11
63.5951680655
 21
-53.6409402023
 31
0.0
 11
62.9045276901
 21
-53.6379121417
 31
0.0
 11
62.1412281781
 21
-53.6368702377
 31
0.0
  0
SPLINE
  5
5C6
100
AcDbEntity
  8
RACCORDO
100
AcDbSpline
 62
7
  6
CONTINUOUS
 70
0
 71
3
 72
10
 73
6
 74
4
 42
0.0000001
 43
0.0000001
 44
0.0000000001
 12
-0.3948878465
 22
0.0398917734
 32
0.0
 13
-0.3968004088
 23
-0.0087863792
 33
0.0
 40
0.0
 40
0.0
 40
0.0
 40
0.0
 40
0.3255975934
 40
0.6579495051
 40
1.0
 40
1.0
 40
1.0
 40
1.0
 10
60.3735044631
 20
-55.348638828
 30
0.0
 10
60.3306462856
 20
-55.3443092729
 30
0.0
 10
60.2438888927
 20
-55.3369728863
 30
0.0
 10
60.1117050104
 20
-55.3307473842
 30
0.0
 10
60.0224414828
 20
-55.3304426533
 30
0.0
 10
59.9771995574
 20
-55.3314444484
 30
0.0
 11
60.3735044631
 21
-55.348638828
 31
0.0
 11
60.2447273744
 21
-55.3378417329
 31
0.0
 11
60.1129582522
 21
-55.3317534066
 31
0.0
 11
59.9771995574
 21
-55.3314444484
 31
0.0
  0
SPLINE
  5
5C7
100
AcDbEntity
  8
RACCORDO
100
AcDbSpline
 62
253
  6
CONTINUOUS
 70
0
 71
3
 72
12
 73
8
 74
6
 42
0.0000001
 43
0.0000001
 44
0.0000000001
 12
0.0000017258
 22
-2.4998625653
 32
0.0
 13
1.1397472707
 23
-2.2249244941
 33
0.0
 40
0.0
 40
0.0
 40
0.0
 40
0.0
 40
0.3056059234
 40
0.5820070747
 40
0.8026308257
 40
0.9465261164
 40
1.0
 40
1.0
 40
1.0
 40
1.0
 10
56.9296850652
 20
-58.8484133506
 30
0.0
 10
56.929685241
 20
-59.1030709532
 30
0.0
 10
56.9286664155
 20
-59.5885424136
 30
0.0
 10
56.9378328497
 20
-60.2554543849
 30
0.0
 10
56.9255189592
 20
-60.7944354144
 30
0.0
 10
56.9627004314
 20
-61.1330879465
 30
0.0
 10
56.9308059017
 20
-61.3083741374
 30
0.0
 10
56.9511214726
 20
-61.3480325885
 30
0.0
 11
56.9296850652
 21
-58.8484133506
 31
0.0
 11
56.9307288526
 21
-59.6123854453
 31
0.0
 11
56.933761214
 21
-60.3033436823
 31
0.0
 11
56.9384882725
 21
-60.8548524808
 31
0.0
 11
56.9444585397
 21
-61.2145213836
 31
0.0
 11
56.9511214726
 21
-61.3480325885
 31
0.0
  0
LINE
  5
5C8
100
AcDbEntity
  8
RACCORDO
100
AcDbLine
 62
7
  6
CONTINUOUS
 10
61.671773768
 20
-53.6368702377
 11
61.4646748729
 21
-53.1368892762
  0
LINE
  5
5C9
100
AcDbEntity
  8
RACCORDO
100
AcDbLine
 62
7
  6
CONTINUOUS
 10
-38.0055386374
 20
-58.3789589405
 11
-37.5055576759
 21
-58.1718600453
  0
LINE
  5
5CA
100
AcDbEntity
  8
RACCORDO
100
AcDbLine
 62
7
  6
CONTINUOUS
 10
-42.7476273402
 20
-53.6368702377
 11
-42.5405284451
 21
-53.1368892762
  0
LINE
  5
5CB
100
AcDbEntity
  8
RACCORDO
100
AcDbLine
 62
7
  6
CONTINUOUS
 10
56.9296850652
 20
22.0404421678
 11
56.4297041037
 21
21.8333432726
  0
LINE
  5
5CC
100
AcDbEntity
  8
RACCORDO
100
AcDbLine
 62
7
  6
CONTINUOUS
 10
61.671773768
 20
17.298353465
 11
61.4646748729
 21
16.7983725034
  0
LINE
  5
5CD
100
AcDbEntity
  8
RACCORDO
100
AcDbLine
 62
7
  6
CONTINUOUS
 10
-42.7476273402
 20
17.298353465
 11
-42.5405284451
 21
16.7983725034
  0
LINE
  5
5CE
100
AcDbEntity
  8
RACCORDO
100
AcDbLine
 62
7
  6
CONTINUOUS
 10
-38.0055386374
 20
22.0404421678
 11
-37.5055576759
 21
21.8333432726
  0
SPLINE
  5
5CF
100
AcDbEntity
  8
RACCORDO
100
AcDbSpline
 62
253
  6
CONTINUOUS
 70
0
 71
3
 72
12
 73
8
 74
6
 42
0.0000001
 43
0.0000001
 44
0.0000000001
 12
-2.999745973
 22
-0.0000026135
 32
0.0
 13
-2.7641481793
 23
-1.1653157276
 33
0.0
 40
0.0
 40
0.0
 40
0.0
 40
0.0
 40
0.3057585062
 40
0.5822325277
 40
0.8028596457
 40
0.9466729036
 40
1.0
 40
1.0
 40
1.0
 40
1.0
 10
-43.2170817503
 20
-53.1368892762
 30
0.0
 10
-43.5228143662
 20
-53.1368895426
 30
0.0
 10
-44.1054202558
 20
-53.1358225627
 30
0.0
 10
-44.9065721136
 20
-53.1451775979
 30
0.0
 10
-45.5516461622
 20
-53.1323897615
 30
0.0
 10
-45.9610998433
 20
-53.1704738038
 30
0.0
 10
-46.1674901703
 20
-53.1376113822
 30
0.0
 10
-46.2166248358
 20
-53.1583256836
 30
0.0
 11
-43.2170817503
 21
-53.1368892762
 31
0.0
 11
-44.1342790028
 21
-53.1379341179
 31
0.0
 11
-44.9636252841
 21
-53.1409685763
 31
0.0
 11
-45.625433695
 21
-53.1456979414
 31
0.0
 11
-46.0567955899
 21
-53.1516705449
 31
0.0
 11
-46.2166248358
 21
-53.1583256836
 31
0.0
  0
SPLINE
  5
5D0
100
AcDbEntity
  8
RACCORDO
100
AcDbSpline
 62
253
  6
CONTINUOUS
 70
0
 71
3
 72
12
 73
8
 74
6
 42
0.0000001
 43
0.0000001
 44
0.0000000001
 12
2.7641485822
 22
-1.1653146213
 32
0.0
 13
2.9997459145
 23
-0.0000025722
 33
0.0
 40
0.0
 40
0.0
 40
0.0
 40
0.0
 40
0.0534272309
 40
0.1974418537
 40
0.4181672182
 40
0.6945135626
 40
1.0
 40
1.0
 40
1.0
 40
1.0
 10
-46.2166248358
 20
16.8198089108
 30
0.0
 10
-46.167397901
 20
16.799055733
 30
0.0
 10
-45.960690637
 20
16.8319844925
 30
0.0
 10
-45.5508458904
 20
16.7938594115
 30
0.0
 10
-44.9055999816
 20
16.8066527577
 30
0.0
 10
-44.1047477545
 20
16.7973074301
 30
0.0
 10
-43.5225423145
 20
16.7983727653
 30
0.0
 10
-43.2170817503
 20
16.7983725034
 30
0.0
 11
-46.2166248358
 21
16.8198089108
 31
0.0
 11
-46.0564952217
 21
16.8131473647
 31
0.0
 11
-45.6245292673
 21
16.8071723206
 31
0.0
 11
-44.9624261289
 21
16.8024455619
 31
0.0
 11
-44.1334628494
 21
16.7994154395
 31
0.0
 11
-43.2170817503
 21
16.7983725034
 31
0.0
  0
SPLINE
  5
5D1
100
AcDbEntity
  8
RACCORDO
100
AcDbSpline
 62
253
  6
CONTINUOUS
 70
0
 71
3
 72
12
 73
8
 74
6
 42
0.0000001
 43
0.0000001
 44
0.0000000001
 12
0.0000026135
 22
-2.999745973
 32
0.0
 13
1.1653157276
 23
-2.7641481793
 33
0.0
 40
0.0
 40
0.0
 40
0.0
 40
0.0
 40
0.3057585062
 40
0.5822325277
 40
0.8028596457
 40
0.9466729036
 40
1.0
 40
1.0
 40
1.0
 40
1.0
 10
56.4297041037
 20
-58.8484133506
 30
0.0
 10
56.4297043701
 20
-59.1541459665
 30
0.0
 10
56.4286373902
 20
-59.736751856
 30
0.0
 10
56.4379924254
 20
-60.5379037139
 30
0.0
 10
56.425204589
 20
-61.1829777625
 30
0.0
 10
56.4632886313
 20
-61.5924314436
 30
0.0
 10
56.4304262097
 20
-61.7988217706
 30
0.0
 10
56.4511405111
 20
-61.8479564361
 30
0.0
 11
56.4297041037
 21
-58.8484133506
 31
0.0
 11
56.4307489454
 21
-59.7656106031
 31
0.0
 11
56.4337834038
 21
-60.5949568844
 31
0.0
 11
56.4385127689
 21
-61.2567652953
 31
0.0
 11
56.4444853725
 21
-61.6881271902
 31
0.0
 11
56.4511405111
 21
-61.8479564361
 31
0.0
  0
SPLINE
  5
5D2
100
AcDbEntity
  8
RACCORDO
100
AcDbSpline
 62
253
  6
CONTINUOUS
 70
0
 71
3
 72
12
 73
8
 74
6
 42
0.0000001
 43
0.0000001
 44
0.0000000001
 12
1.1653146213
 22
2.7641485822
 32
0.0
 13
0.0000025722
 23
2.9997459145
 33
0.0
 40
0.0
 40
0.0
 40
0.0
 40
0.0
 40
0.0534272309
 40
0.1974418537
 40
0.4181672182
 40
0.6945135626
 40
1.0
 40
1.0
 40
1.0
 40
1.0
 10
-37.5269940833
 20
-61.8479564361
 30
0.0
 10
-37.5062409055
 20
-61.7987295013
 30
0.0
 10
-37.539169665
 20
-61.5920222373
 30
0.0
 10
-37.501044584
 20
-61.1821774907
 30
0.0
 10
-37.5138379302
 20
-60.5369315819
 30
0.0
 10
-37.5044926026
 20
-59.7360793548
 30
0.0
 10
-37.5055579378
 20
-59.1538739148
 30
0.0
 10
-37.5055576759
 20
-58.8484133506
 30
0.0
 11
-37.5269940833
 21
-61.8479564361
 31
0.0
 11
-37.5203325371
 21
-61.687826822
 31
0.0
 11
-37.5143574931
 21
-61.2558608676
 31
0.0
 11
-37.5096307344
 21
-60.5937577292
 31
0.0
 11
-37.506600612
 21
-59.7647944497
 31
0.0
 11
-37.5055576759
 21
-58.8484133506
 31
0.0
  0
SPLINE
  5
5D3
100
AcDbEntity
  8
RACCORDO
100
AcDbSpline
 62
253
  6
CONTINUOUS
 70
0
 71
3
 72
12
 73
8
 74
6
 42
0.0000001
 43
0.0000001
 44
0.0000000001
 12
-2.7641485822
 22
1.1653146213
 32
0.0
 13
-2.9997459145
 23
0.0000025722
 33
0.0
 40
0.0
 40
0.0
 40
0.0
 40
0.0
 40
0.0534272309
 40
0.1974418537
 40
0.4181672182
 40
0.6945135626
 40
1.0
 40
1.0
 40
1.0
 40
1.0
 10
65.1407712636
 20
-53.1583256836
 30
0.0
 10
65.0915443288
 20
-53.1375725058
 30
0.0
 10
64.8848370648
 20
-53.1705012653
 30
0.0
 10
64.4749923182
 20
-53.1323761843
 30
0.0
 10
63.8297464094
 20
-53.1451695305
 30
0.0
 10
63.0288941823
 20
-53.1358242029
 30
0.0
 10
62.4466887423
 20
-53.1368895381
 30
0.0
 10
62.1412281781
 20
-53.1368892762
 30
0.0
 11
65.1407712636
 21
-53.1583256836
 31
0.0
 11
64.9806416495
 21
-53.1516641374
 31
0.0
 11
64.5486756951
 21
-53.1456890934
 31
0.0
 11
63.8865725567
 21
-53.1409623347
 31
0.0
 11
63.0576092772
 21
-53.1379322123
 31
0.0
 11
62.1412281781
 21
-53.1368892762
 31
0.0
  0
SPLINE
  5
5D4
100
AcDbEntity
  8
RACCORDO
100
AcDbSpline
 62
253
  6
CONTINUOUS
 70
0
 71
3
 72
12
 73
8
 74
6
 42
0.0000001
 43
0.0000001
 44
0.0000000001
 12
2.999745973
 22
0.0000026135
 32
0.0
 13
2.7641481793
 23
1.1653157276
 33
0.0
 40
0.0
 40
0.0
 40
0.0
 40
0.0
 40
0.3057585062
 40
0.5822325277
 40
0.8028596457
 40
0.9466729036
 40
1.0
 40
1.0
 40
1.0
 40
1.0
 10
62.1412281781
 20
16.7983725034
 30
0.0
 10
62.446960794
 20
16.7983727698
 30
0.0
 10
63.0295666836
 20
16.7973057899
 30
0.0
 10
63.8307185414
 20
16.8066608251
 30
0.0
 10
64.47579259
 20
16.7938729887
 30
0.0
 10
64.8852462711
 20
16.831957031
 30
0.0
 10
65.0916365981
 20
16.7990946094
 30
0.0
 10
65.1407712636
 20
16.8198089108
 30
0.0
 11
62.1412281781
 21
16.7983725034
 31
0.0
 11
63.0584254306
 21
16.7994173451
 31
0.0
 11
63.8877717119
 21
16.8024518035
 31
0.0
 11
64.5495801228
 21
16.8071811686
 31
0.0
 11
64.9809420177
 21
16.8131537722
 31
0.0
 11
65.1407712636
 21
16.8198089108
 31
0.0
  0
SPLINE
  5
5D5
100
AcDbEntity
  8
RACCORDO
100
AcDbSpline
 62
253
  6
CONTINUOUS
 70
0
 71
3
 72
12
 73
8
 74
6
 42
0.0000001
 43
0.0000001
 44
0.0000000001
 12
-1.1653146213
 22
-2.7641485822
 32
0.0
 13
-0.0000025722
 23
-2.9997459145
 33
0.0
 40
0.0
 40
0.0
 40
0.0
 40
0.0
 40
0.0534272309
 40
0.1974418537
 40
0.4181672182
 40
0.6945135626
 40
1.0
 40
1.0
 40
1.0
 40
1.0
 10
56.4511405111
 20
25.5094396633
 30
0.0
 10
56.4303873333
 20
25.4602127285
 30
0.0
 10
56.4633160928
 20
25.2535054645
 30
0.0
 10
56.4251910118
 20
24.8436607179
 30
0.0
 10
56.437984358
 20
24.1984148091
 30
0.0
 10
56.4286390304
 20
23.397562582
 30
0.0
 10
56.4297043656
 20
22.815357142
 30
0.0
 10
56.4297041037
 20
22.5098965778
 30
0.0
 11
56.4511405111
 21
25.5094396633
 31
0.0
 11
56.4444789649
 21
25.3493100492
 31
0.0
 11
56.4385039209
 21
24.9173440948
 31
0.0
 11
56.4337771622
 21
24.2552409564
 31
0.0
 11
56.4307470398
 21
23.4262776769
 31
0.0
 11
56.4297041037
 21
22.5098965778
 31
0.0
  0
SPLINE
  5
5D6
100
AcDbEntity
  8
RACCORDO
100
AcDbSpline
 62
253
  6
CONTINUOUS
 70
0
 71
3
 72
12
 73
8
 74
6
 42
0.0000001
 43
0.0000001
 44
0.0000000001
 12
-0.0000026135
 22
2.999745973
 32
0.0
 13
-1.1653157276
 23
2.7641481793
 33
0.0
 40
0.0
 40
0.0
 40
0.0
 40
0.0
 40
0.3057585062
 40
0.5822325277
 40
0.8028596457
 40
0.9466729036
 40
1.0
 40
1.0
 40
1.0
 40
1.0
 10
-37.5055576759
 20
22.5098965778
 30
0.0
 10
-37.5055579423
 20
22.8156291937
 30
0.0
 10
-37.5044909624
 20
23.3982350833
 30
0.0
 10
-37.5138459976
 20
24.1993869411
 30
0.0
 10
-37.5010581612
 20
24.8444609897
 30
0.0
 10
-37.5391422035
 20
25.2539146708
 30
0.0
 10
-37.5062797819
 20
25.4603049978
 30
0.0
 10
-37.5269940833
 20
25.5094396633
 30
0.0
 11
-37.5055576759
 21
22.5098965778
 31
0.0
 11
-37.5066025176
 21
23.4270938303
 31
0.0
 11
-37.509636976
 21
24.2564401116
 31
0.0
 11
-37.5143663411
 21
24.9182485225
 31
0.0
 11
-37.5203389447
 21
25.3496104174
 31
0.0
 11
-37.5269940833
 21
25.5094396633
 31
0.0
  0
LINE
  5
5D7
100
AcDbEntity
  8
RACCORDO
100
AcDbLine
 62
7
  6
CONTINUOUS
 10
56.9296850652
 20
-58.3789589405
 11
56.4297041037
 21
-58.1718600453
  0
ELLIPSE
  5
5D8
100
AcDbEntity
  8
RACCORDO
100
AcDbEllipse
 62
7
  6
CONTINUOUS
 10
-43.2170817503
 20
-17.3378392695
 30
0.0
 11
3.0
 21
0.0
 31
0.0
 40
0.0174550649
 41
-3.1241393611
 42
-2.4980915448
  0
ELLIPSE
  5
5D9
100
AcDbEntity
  8
RACCORDO
100
AcDbEllipse
 62
7
  6
CONTINUOUS
 10
62.1412281781
 20
-17.3378392695
 30
0.0
 11
3.0
 21
-0.0
 31
0.0
 40
0.0174550649
 41
-0.6435011088
 42
-0.0174532925
  0
ELLIPSE
  5
5DA
100
AcDbEntity
  8
RACCORDO
100
AcDbEllipse
 62
7
  6
CONTINUOUS
 10
-43.2170817503
 20
13.4993224967
 30
0.0
 11
3.0
 21
-0.0
 31
0.0
 40
0.0174550649
 41
2.4980915448
 42
3.1241393611
  0
ELLIPSE
  5
5DB
100
AcDbEntity
  8
RACCORDO
100
AcDbEllipse
 62
7
  6
CONTINUOUS
 10
62.1412281781
 20
13.4993224967
 30
0.0
 11
3.0
 21
-0.0
 31
0.0
 40
0.0174550649
 41
0.0174532925
 42
0.6435011088
  0
ELLIPSE
  5
5DC
100
AcDbEntity
  8
RACCORDO
100
AcDbEllipse
 62
7
  6
CONTINUOUS
 10
-43.2170817503
 20
-49.8378392695
 30
0.0
 11
3.0
 21
-0.0
 31
0.0
 40
0.0174550649
 41
-3.1241393611
 42
-2.4980915448
  0
ELLIPSE
  5
5DD
100
AcDbEntity
  8
RACCORDO
100
AcDbEllipse
 62
7
  6
CONTINUOUS
 10
62.1412281781
 20
-49.8378392695
 30
0.0
 11
3.0
 21
0.0
 31
0.0
 40
0.0174550649
 41
-0.6435011088
 42
-0.0174532925
  0
ELLIPSE
  5
5DE
100
AcDbEntity
  8
RACCORDO
100
AcDbEllipse
 62
7
  6
CONTINUOUS
 10
-43.2170817503
 20
-19.0006775033
 30
0.0
 11
3.0
 21
-0.0
 31
0.0
 40
0.0174550649
 41
2.4980915448
 42
3.1241393611
  0
ELLIPSE
  5
5DF
100
AcDbEntity
  8
RACCORDO
100
AcDbEllipse
 62
7
  6
CONTINUOUS
 10
62.1412281781
 20
-19.0006775033
 30
0.0
 11
3.0
 21
-0.0
 31
0.0
 40
0.0174550649
 41
0.0174532925
 42
0.6435011088
  0
ELLIPSE
  5
5E0
100
AcDbEntity
  8
RACCORDO
100
AcDbEllipse
 62
7
  6
CONTINUOUS
 10
25.1434923308
 20
-58.8484133506
 30
0.0
 11
-0.0
 21
3.0
 31
0.0
 40
0.0174550649
 41
-3.7850937624
 42
-3.1590459461
  0
ELLIPSE
  5
5E1
100
AcDbEntity
  8
RACCORDO
100
AcDbEllipse
 62
7
  6
CONTINUOUS
 10
25.1434923308
 20
22.5098965778
 30
0.0
 11
0.0
 21
3.0
 31
0.0
 40
0.0174550649
 41
0.0174532925
 42
0.6435011088
  0
ELLIPSE
  5
5E2
100
AcDbEntity
  8
RACCORDO
100
AcDbEllipse
 62
7
  6
CONTINUOUS
 10
53.180654097
 20
-58.8484133506
 30
0.0
 11
0.0
 21
3.0
 31
0.0
 40
0.0174550649
 41
-3.1241393611
 42
-2.4980915448
  0
ELLIPSE
  5
5E3
100
AcDbEntity
  8
RACCORDO
100
AcDbEllipse
 62
7
  6
CONTINUOUS
 10
53.180654097
 20
22.5098965778
 30
0.0
 11
-0.0
 21
3.0
 31
0.0
 40
0.0174550649
 41
-0.6435011088
 42
-0.0174532925
  0
ELLIPSE
  5
5E4
100
AcDbEntity
  8
RACCORDO
100
AcDbEllipse
 62
7
  6
CONTINUOUS
 10
-4.5565076692
 20
-58.8484133506
 30
0.0
 11
0.0
 21
3.0
 31
0.0
 40
0.0174550649
 41
-3.7850937624
 42
-3.1590459461
  0
ELLIPSE
  5
5E5
100
AcDbEntity
  8
RACCORDO
100
AcDbEllipse
 62
7
  6
CONTINUOUS
 10
-4.5565076692
 20
22.5098965778
 30
0.0
 11
0.0
 21
3.0
 31
0.0
 40
0.0174550649
 41
0.0174532925
 42
0.6435011088
  0
ELLIPSE
  5
5E6
100
AcDbEntity
  8
RACCORDO
100
AcDbEllipse
 62
7
  6
CONTINUOUS
 10
23.480654097
 20
-58.8484133506
 30
0.0
 11
0.0
 21
3.0
 31
0.0
 40
0.0174550649
 41
-3.1241393611
 42
-2.4980915448
  0
ELLIPSE
  5
5E7
100
AcDbEntity
  8
RACCORDO
100
AcDbEllipse
 62
7
  6
CONTINUOUS
 10
23.480654097
 20
22.5098965778
 30
0.0
 11
0.0
 21
3.0
 31
0.0
 40
0.0174550649
 41
-0.6435011088
 42
-0.0174532925
  0
ELLIPSE
  5
5E8
100
AcDbEntity
  8
RACCORDO
100
AcDbEllipse
 62
7
  6
CONTINUOUS
 10
-34.2565076692
 20
-58.8484133506
 30
0.0
 11
-0.0
 21
3.0
 31
0.0
 40
0.0174550649
 41
-3.7850937624
 42
-3.1590459461
  0
ELLIPSE
  5
5E9
100
AcDbEntity
  8
RACCORDO
100
AcDbEllipse
 62
7
  6
CONTINUOUS
 10
-34.2565076692
 20
22.5098965778
 30
0.0
 11
-0.0
 21
3.0
 31
0.0
 40
0.0174550649
 41
0.0174532925
 42
0.6435011088
  0
ELLIPSE
  5
5EA
100
AcDbEntity
  8
RACCORDO
100
AcDbEllipse
 62
7
  6
CONTINUOUS
 10
-6.219345903
 20
-58.8484133506
 30
0.0
 11
0.0
 21
3.0
 31
0.0
 40
0.0174550649
 41
-3.1241393611
 42
-2.4980915448
  0
ELLIPSE
  5
5EB
100
AcDbEntity
  8
RACCORDO
100
AcDbEllipse
 62
7
  6
CONTINUOUS
 10
-6.219345903
 20
22.5098965778
 30
0.0
 11
0.0
 21
3.0
 31
0.0
 40
0.0174550649
 41
-0.6435011088
 42
-0.0174532925
  0
ELLIPSE
  5
5EC
100
AcDbEntity
  8
RACCORDO
100
AcDbEllipse
 62
7
  6
CONTINUOUS
 10
-46.704535046
 20
-47.850614466
 30
0.0
 11
0.0
 21
1.5
 31
0.0
 40
0.0174550649
 41
1.5707963268
 42
3.1241393611
  0
ELLIPSE
  5
5ED
100
AcDbEntity
  8
RACCORDO
100
AcDbEllipse
 62
7
  6
CONTINUOUS
 10
-46.704535046
 20
-20.9879023068
 30
0.0
 11
0.0
 21
1.5
 31
0.0
 40
0.0174550649
 41
0.0174532925
 42
1.5707963268
  0
ELLIPSE
  5
5EE
100
AcDbEntity
  8
RACCORDO
100
AcDbEllipse
 62
7
  6
CONTINUOUS
 10
-46.704535046
 20
-15.350614466
 30
0.0
 11
-0.0
 21
1.5
 31
0.0
 40
0.0174550649
 41
-4.7123889804
 42
-3.1590459461
  0
ELLIPSE
  5
5EF
100
AcDbEntity
  8
RACCORDO
100
AcDbEllipse
 62
7
  6
CONTINUOUS
 10
-46.704535046
 20
11.5120976932
 30
0.0
 11
-0.0
 21
1.5
 31
0.0
 40
0.0174550649
 41
0.0174532925
 42
1.5707963268
  0
ELLIPSE
  5
5F0
100
AcDbEntity
  8
RACCORDO
100
AcDbEllipse
 62
7
  6
CONTINUOUS
 10
-32.2692828657
 20
25.9973498735
 30
0.0
 11
1.5
 21
0.0
 31
0.0
 40
0.0174550649
 41
1.5707963268
 42
3.1241393611
  0
ELLIPSE
  5
5F1
100
AcDbEntity
  8
RACCORDO
100
AcDbEllipse
 62
7
  6
CONTINUOUS
 10
-8.2065707065
 20
25.9973498735
 30
0.0
 11
1.5
 21
-0.0
 31
0.0
 40
0.0174550649
 41
0.0174532925
 42
1.5707963268
  0
ELLIPSE
  5
5F2
100
AcDbEntity
  8
RACCORDO
100
AcDbEllipse
 62
7
  6
CONTINUOUS
 10
-2.5692828657
 20
25.9973498735
 30
0.0
 11
1.5
 21
0.0
 31
0.0
 40
0.0174550649
 41
1.5707963268
 42
3.1241393611
  0
ELLIPSE
  5
5F3
100
AcDbEntity
  8
RACCORDO
100
AcDbEllipse
 62
7
  6
CONTINUOUS
 10
21.4934292935
 20
25.9973498735
 30
0.0
 11
1.5
 21
-0.0
 31
0.0
 40
0.0174550649
 41
0.0174532925
 42
1.5707963268
  0
ELLIPSE
  5
5F4
100
AcDbEntity
  8
RACCORDO
100
AcDbEllipse
 62
7
  6
CONTINUOUS
 10
27.1307171343
 20
25.9973498735
 30
0.0
 11
1.5
 21
0.0
 31
0.0
 40
0.0174550649
 41
1.5707963268
 42
3.1241393611
  0
ELLIPSE
  5
5F5
100
AcDbEntity
  8
RACCORDO
100
AcDbEllipse
 62
7
  6
CONTINUOUS
 10
51.1934292935
 20
25.9973498735
 30
0.0
 11
1.5
 21
0.0
 31
0.0
 40
0.0174550649
 41
0.0174532925
 42
1.5707963268
  0
ELLIPSE
  5
5F6
100
AcDbEntity
  8
RACCORDO
100
AcDbEllipse
 62
7
  6
CONTINUOUS
 10
51.1934292935
 20
-62.3358666463
 30
0.0
 11
1.5
 21
-0.0
 31
0.0
 40
0.0174550649
 41
-1.5707963268
 42
-0.0174532925
  0
ELLIPSE
  5
5F7
100
AcDbEntity
  8
RACCORDO
100
AcDbEllipse
 62
7
  6
CONTINUOUS
 10
27.1307171343
 20
-62.3358666463
 30
0.0
 11
1.5
 21
-0.0
 31
0.0
 40
0.0174550649
 41
-3.1241393611
 42
-1.5707963268
  0
ELLIPSE
  5
5F8
100
AcDbEntity
  8
RACCORDO
100
AcDbEllipse
 62
7
  6
CONTINUOUS
 10
21.4934292935
 20
-62.3358666463
 30
0.0
 11
1.5
 21
0.0
 31
0.0
 40
0.0174550649
 41
-1.5707963268
 42
-0.0174532925
  0
ELLIPSE
  5
5F9
100
AcDbEntity
  8
RACCORDO
100
AcDbEllipse
 62
7
  6
CONTINUOUS
 10
-2.5692828657
 20
-62.3358666463
 30
0.0
 11
1.5
 21
-0.0
 31
0.0
 40
0.0174550649
 41
-3.1241393611
 42
-1.5707963268
  0
ELLIPSE
  5
5FA
100
AcDbEntity
  8
RACCORDO
100
AcDbEllipse
 62
7
  6
CONTINUOUS
 10
-8.2065707065
 20
-62.3358666463
 30
0.0
 11
1.5
 21
-0.0
 31
0.0
 40
0.0174550649
 41
-1.5707963268
 42
-0.0174532925
  0
ELLIPSE
  5
5FB
100
AcDbEntity
  8
RACCORDO
100
AcDbEllipse
 62
7
  6
CONTINUOUS
 10
-32.2692828657
 20
-62.3358666463
 30
0.0
 11
1.5
 21
-0.0
 31
0.0
 40
0.0174550649
 41
-3.1241393611
 42
-1.5707963268
  0
ELLIPSE
  5
5FC
100
AcDbEntity
  8
RACCORDO
100
AcDbEllipse
 62
7
  6
CONTINUOUS
 10
54.8434923308
 20
-58.8484133506
 30
0.0
 11
-0.0
 21
3.0
 31
0.0
 40
0.0174550649
 41
-3.7850937624
 42
-3.1590459461
  0
ELLIPSE
  5
5FD
100
AcDbEntity
  8
RACCORDO
100
AcDbEllipse
 62
7
  6
CONTINUOUS
 10
65.6286814738
 20
-20.9879023068
 30
0.0
 11
0.0
 21
1.5
 31
0.0
 40
0.0174550649
 41
-1.5707963268
 42
-0.0174532925
  0
ELLIPSE
  5
5FE
100
AcDbEntity
  8
RACCORDO
100
AcDbEllipse
 62
7
  6
CONTINUOUS
 10
65.6286814738
 20
-47.850614466
 30
0.0
 11
-0.0
 21
1.5
 31
0.0
 40
0.0174550649
 41
-3.1241393611
 42
-1.5707963268
  0
ELLIPSE
  5
5FF
100
AcDbEntity
  8
RACCORDO
100
AcDbEllipse
 62
7
  6
CONTINUOUS
 10
62.1412281781
 20
-51.5506775033
 30
0.0
 11
3.0
 21
0.0
 31
0.0
 40
0.0174550649
 41
0.0174532925
 42
0.6435011088
  0
ELLIPSE
  5
600
100
AcDbEntity
  8
RACCORDO
100
AcDbEllipse
 62
7
  6
CONTINUOUS
 10
65.6286814738
 20
11.5120976932
 30
0.0
 11
-0.0
 21
1.5
 31
0.0
 40
0.0174550649
 41
-1.5707963268
 42
-0.0174532925
  0
ELLIPSE
  5
601
100
AcDbEntity
  8
RACCORDO
100
AcDbEllipse
 62
7
  6
CONTINUOUS
 10
65.6286814738
 20
-15.350614466
 30
0.0
 11
-0.0
 21
1.5
 31
0.0
 40
0.0174550649
 41
-3.1241393611
 42
-1.5707963268
  0
ELLIPSE
  5
602
100
AcDbEntity
  8
RACCORDO
100
AcDbEllipse
 62
7
  6
CONTINUOUS
 10
62.1412281781
 20
15.2121607305
 30
0.0
 11
3.0
 21
0.0
 31
0.0
 40
0.0174550649
 41
-0.6435011088
 42
-0.0174532925
  0
ELLIPSE
  5
603
100
AcDbEntity
  8
RACCORDO
100
AcDbEllipse
 62
7
  6
CONTINUOUS
 10
54.8434923308
 20
22.5098965778
 30
0.0
 11
0.0
 21
3.0
 31
0.0
 40
0.0174550649
 41
0.0174532925
 42
0.6435011088
  0
ELLIPSE
  5
604
100
AcDbEntity
  8
RACCORDO
100
AcDbEllipse
 62
7
  6
CONTINUOUS
 10
-43.2170817503
 20
-51.5506775033
 30
0.0
 11
3.0
 21
-0.0
 31
0.0
 40
0.0174550649
 41
2.4980915448
 42
3.1241393611
  0
ELLIPSE
  5
605
100
AcDbEntity
  8
RACCORDO
100
AcDbEllipse
 62
7
  6
CONTINUOUS
 10
-35.919345903
 20
-58.8484133506
 30
0.0
 11
-0.0
 21
3.0
 31
0.0
 40
0.0174550649
 41
-3.1241393611
 42
-2.4980915448
  0
ELLIPSE
  5
606
100
AcDbEntity
  8
RACCORDO
100
AcDbEllipse
 62
7
  6
CONTINUOUS
 10
-35.919345903
 20
22.5098965778
 30
0.0
 11
-0.0
 21
3.0
 31
0.0
 40
0.0174550649
 41
-0.6435011088
 42
-0.0174532925
  0
ELLIPSE
  5
607
100
AcDbEntity
  8
RACCORDO
100
AcDbEllipse
 62
7
  6
CONTINUOUS
 10
-43.2170817503
 20
15.2121607305
 30
0.0
 11
3.0
 21
0.0
 31
0.0
 40
0.0174550649
 41
-3.1241393611
 42
-2.4980915448
  0
ELLIPSE
  5
608
100
AcDbEntity
  8
RACCORDO
100
AcDbEllipse
 62
7
  6
CONTINUOUS
 10
56.4515212732
 20
-61.3487941707
 30
0.0
 11
-0.2236357461
 21
0.4473055582
 31
0.0
 40
0.9998096356
 41
-3.6051336537
 42
-2.0344896259
  0
ELLIPSE
  5
609
100
AcDbEntity
  8
RACCORDO
100
AcDbEllipse
 62
7
  6
CONTINUOUS
 10
64.6416089983
 20
-53.1587064457
 30
0.0
 11
0.4473055582
 21
-0.2236357461
 31
0.0
 40
0.9998096356
 41
-1.1071030276
 42
0.4635410001
  0
ELLIPSE
  5
60A
100
AcDbEntity
  8
RACCORDO
100
AcDbEllipse
 62
7
  6
CONTINUOUS
 10
-37.5273748454
 20
-61.3487941707
 30
0.0
 11
0.2236357461
 21
0.4473055582
 31
0.0
 40
0.9998096356
 41
-4.2486956813
 42
-2.6780516535
  0
ELLIPSE
  5
60B
100
AcDbEntity
  8
RACCORDO
100
AcDbEllipse
 62
7
  6
CONTINUOUS
 10
-45.7174625705
 20
-53.1587064457
 30
0.0
 11
0.4473055582
 21
0.2236357461
 31
0.0
 40
0.9998096356
 41
2.6780516535
 42
4.2486956813
  0
ELLIPSE
  5
60C
100
AcDbEntity
  8
RACCORDO
100
AcDbEllipse
 62
7
  6
CONTINUOUS
 10
56.4515212732
 20
25.010277398
 30
0.0
 11
0.2236357461
 21
0.4473055582
 31
0.0
 40
0.9998096356
 41
-1.1071030277
 42
0.4635410001
  0
ELLIPSE
  5
60D
100
AcDbEntity
  8
RACCORDO
100
AcDbEllipse
 62
7
  6
CONTINUOUS
 10
64.6416089983
 20
16.8201896729
 30
0.0
 11
0.4473055582
 21
0.2236357461
 31
0.0
 40
0.9998096356
 41
-0.4635410001
 42
1.1071030277
  0
ELLIPSE
  5
60E
100
AcDbEntity
  8
RACCORDO
100
AcDbEllipse
 62
7
  6
CONTINUOUS
 10
-45.7174625705
 20
16.8201896729
 30
0.0
 11
0.4473055582
 21
-0.2236357461
 31
0.0
 40
0.9998096356
 41
2.0344896259
 42
3.6051336537
  0
ELLIPSE
  5
60F
100
AcDbEntity
  8
RACCORDO
100
AcDbEllipse
 62
7
  6
CONTINUOUS
 10
-37.5273748454
 20
25.010277398
 30
0.0
 11
-0.2236357461
 21
0.4473055582
 31
0.0
 40
0.9998096356
 41
-0.4635410001
 42
1.1071030276
  0
ENDSEC
  0
SECTION
  2
OBJECTS
  0
DICTIONARY
  5
C
100
AcDbDictionary
280
0
281
1
  3
ACAD_GROUP
350
D
  3
ACAD_MLINESTYLE
350
17
  3
ACAD_LAYOUT
350
1A
  3
ACAD_PLOTSETTINGS
350
19
  3
ACAD_PLOTSTYLENAME
350
E
  0
DICTIONARY
  5
D
102
{ACAD_REACTORS
330
C
102
}
100
AcDbDictionary
280
0
281
1
  0
ACDBDICTIONARYWDFLT
  5
E
102
{ACAD_REACTORS
330
C
102
}
100
AcDbDictionary
281
1
  3
Normal
350
F
100
AcDbDictionaryWithDefault
340
F
  0
DICTIONARY
  5
17
102
{ACAD_REACTORS
330
C
102
}
100
AcDbDictionary
280
0
281
1
  3
Standard
350
18
  0
DICTIONARY
  5
19
102
{ACAD_REACTORS
330
C
102
}
100
AcDbDictionary
281
1
  0
DICTIONARY
  5
1A
102
{ACAD_REACTORS
330
C
102
}
100
AcDbDictionary
281
1
  3
Model
350
610
  3
Layout1
350
611
  0
ACDBPLACEHOLDER
  5
F
102
{ACAD_REACTORS
330
E
102
}
  0
MLINESTYLE
  5
18
102
{ACAD_REACTORS
330
17
102
}
100
AcDbMlineStyle
  2
STANDARD
 70
0
  3

 62
256
 51
90.0
 52
90.0
 71
2
 49
0.5
 62
256
  6
BYLAYER
 49
-0.5
 62
256
  6
BYLAYER
  0
LAYOUT
  5
610
102
{ACAD_REACTORS
330
1A
102
}
100
AcDbPlotSettings
  1

  2
none_device
  4
ISO_A4_(297.00_x_210.00_MM)
  6

 40
0.0
 41
0.0
 42
0.0
 43
0.0
 44
297.0
 45
210.0
 46
0.0
 47
0.0
 48
0.0
 49
0.0
140
0.0
141
0.0
142
1.0
143
1.0
 70
1024
 72
1
 73
0
 74
0
  7

 75
0
147
1.0
148
0.0
149
0.0
100
AcDbLayout
  1
Model
 70
0
 71
0
 10
0.0
 20
0.0
 11
297.0
 21
210.0
 12
0.0
 22
0.0
 32
0.0
 14
0.0
 24
0.0
 34
0.0
 15
0.0
 25
0.0
 35
0.0
146
0.0
 13
0.0
 23
0.0
 33
0.0
 16
1.0
 26
0.0
 36
0.0
 17
0.0
 27
1.0
 37
0.0
 76
0
330
214
345
0
346
0
  0
LAYOUT
  5
611
102
{ACAD_REACTORS
330
1A
102
}
100
AcDbPlotSettings
  1

  2
none_device
  4
ISO_A4_(297.00_x_210.00_MM)
  6

 40
0.0
 41
0.0
 42
0.0
 43
0.0
 44
297.0
 45
210.0
 46
0.0
 47
0.0
 48
0.0
 49
0.0
140
0.0
141
0.0
142
1.0
143
1.0
 70
0
 72
1
 73
0
 74
0
  7

 75
0
147
1.0
148
0.0
149
0.0
100
AcDbLayout
  1
Layout1
 70
0
 71
1
 10
0.0
 20
0.0
 11
297.0
 21
210.0
 12
0.0
 22
0.0
 32
0.0
 14
0.0
 24
0.0
 34
0.0
 15
0.0
 25
0.0
 35
0.0
146
0.0
 13
0.0
 23
0.0
 33
0.0
 16
1.0
 26
0.0
 36
0.0
 17
0.0
 27
1.0
 37
0.0
 76
0
330
215
345
0
346
0
  0
ENDSEC
  0
EOF
