  0
SECTION
  2
HEADER
  9
$ACADVER
  1
AC1015
  9
$DWGCODEPAGE
  3
ANSI_1252
  9
$EXTMAX
 10
297.0
 20
210.0
 30
0.0
  9
$EXTMIN
 10
0.0
 20
0.0
 30
0.0
  9
$LIMMIN
 10
0.0
 20
0.0
  9
$LIMMAX
 10
297.0
 20
210.0
  9
$VIEWCTR
 10
148.5
 20
105.0
  9
$VIEWSIZE
 40
210.0
  9
$CLAYER
  8
0
  9
$LTSCALE
 40
16.335
  9
$CELTYPE
  6
BYLAYER
  9
$DIMSCALE
 40
1.0
  9
$DIMASZ
 40
3.0
  9
$DIMEXO
 40
1.85625
  9
$DIMDLI
 40
11.286
  9
$DIMEXE
 40
5.346
  9
$DIMCEN
 40
2.673
  9
$DIMLFAC
 40
1.0
  9
$DIMBLK
  1
_FILLED
  9
$DIMTXT
 40
3.0
  9
$DIMTOL
 70
1
  9
$DIMLIM
 70
0
  9
$DIMTFAC
 40
1.0
  9
$DIMTP
 40
0.01
  9
$DIMTM
 40
0.01
  9
$PDMODE
 70
3
  9
$PDSIZE
 40
3.0
  9
$HANDSEED
  5
61D
  9
$TILEMODE
 70
1
  9
$MEASUREMENT
 70
1
  9
$INSUNITS
 70
4
  0
ENDSEC
  0
SECTION
  2
CLASSES
  0
CLASS
  1
ACDBDICTIONARYWDFLT
  2
AcDbDictionaryWithDefault
  3
AutoCAD 2000
 90
0
280
0
281
0
  0
CLASS
  1
ACDBPLACEHOLDER
  2
AcDbPlaceHolder
  3
AutoCAD 2000
 90
0
280
0
281
0
  0
CLASS
  1
LAYOUT
  2
AcDbLayout
  3
AutoCAD 2000
 90
0
280
0
281
0
  0
ENDSEC
  0
SECTION
  2
TABLES
  0
TABLE
  2
VPORT
  5
8
100
AcDbSymbolTable
 70
2
  0
VPORT
  5
1F4
100
AcDbSymbolTableRecord
100
AcDbViewportTableRecord
  2
*ACTIVE
 70
0
 10
0.0
 20
0.0
 11
1.0
 21
1.0
 12
148.5
 22
105.0
 13
0.0
 23
0.0
 14
1.0
 24
1.0
 15
0.0
 25
0.0
 16
0.0
 26
0.0
 36
1.0
 17
0.0
 27
0.0
 37
0.0
 40
210.0
 41
1.4142857143
 42
50.0
 43
0.0
 44
0.0
 50
0.0
 51
0.0
 71
0
 72
100
 73
1
 74
1
 75
0
 76
0
 77
0
 78
0
  0
ENDTAB
  0
TABLE
  2
LTYPE
  5
5
100
AcDbSymbolTable
 70
6
  0
LTYPE
  5
14
100
AcDbSymbolTableRecord
100
AcDbLinetypeTableRecord
  2
BYBLOCK
 70
0
  3

 72
65
 73
0
 40
0.0
  0
LTYPE
  5
15
100
AcDbSymbolTableRecord
100
AcDbLinetypeTableRecord
  2
BYLAYER
 70
0
  3

 72
65
 73
0
 40
0.0
  0
LTYPE
  5
16
100
AcDbSymbolTableRecord
100
AcDbLinetypeTableRecord
  2
CONTINUOUS
 70
64
  3
Solid line
 72
65
 73
0
 40
0.0
  0
LTYPE
  5
1F5
100
AcDbSymbolTableRecord
100
AcDbLinetypeTableRecord
  2
CENTER
 70
64
  3
____ _ ____ _ ____ _ ____ _ ____ _ ____ _ ____
 72
65
 73
4
 40
0.6
 49
0.375
 74
0
 49
-0.075
 74
0
 49
0.075
 74
0
 49
-0.075
 74
0
  0
LTYPE
  5
1F6
100
AcDbSymbolTableRecord
100
AcDbLinetypeTableRecord
  2
HIDDEN
 70
64
  3
- - - - - - - - - - - - - - - - - - - -
 72
65
 73
2
 40
0.2
 49
0.1
 74
0
 49
-0.1
 74
0
  0
LTYPE
  5
1F7
100
AcDbSymbolTableRecord
100
AcDbLinetypeTableRecord
  2
PHANTOM
 70
64
  3
_____ _ _ _____ _ _ _____ _ _ _____
 72
65
 73
6
 40
0.8
 49
0.45
 74
0
 49
-0.05
 74
0
 49
0.1
 74
0
 49
-0.05
 74
0
 49
0.1
 74
0
 49
-0.05
 74
0
  0
LTYPE
  5
1F8
100
AcDbSymbolTableRecord
100
AcDbLinetypeTableRecord
  2
DOT
 70
64
  3
. . . . . . . . . . . . . . . . . . . .
 72
65
 73
2
 40
0.2
 49
0.1
 74
0
 49
-0.1
 74
0
  0
LTYPE
  5
1F9
100
AcDbSymbolTableRecord
100
AcDbLinetypeTableRecord
  2
DASHED
 70
64
  3
- - - - - - - - - - - - - - - - - - - -
 72
65
 73
2
 40
0.2
 49
0.1
 74
0
 49
-0.1
 74
0
  0
ENDTAB
  0
TABLE
  2
LAYER
  5
2
100
AcDbSymbolTable
 70
36
  0
LAYER
  5
10
100
AcDbSymbolTableRecord
100
AcDbLayerTableRecord
  2
0
 70
0
 62
7
  6
CONTINUOUS
370
-3
390
F
  0
LAYER
  5
1FA
100
AcDbSymbolTableRecord
100
AcDbLayerTableRecord
  2
DEFAULT_1
 70
0
 62
7
  6
CENTER
370
-3
390
F
  0
LAYER
  5
1FB
100
AcDbSymbolTableRecord
100
AcDbLayerTableRecord
  2
DEFAULT_2
 70
0
 62
7
  6
HIDDEN
370
-3
390
F
  0
LAYER
  5
1FC
100
AcDbSymbolTableRecord
100
AcDbLayerTableRecord
  2
DEFAULT_3
 70
0
 62
7
  6
PHANTOM
370
-3
390
F
  0
LAYER
  5
1FD
100
AcDbSymbolTableRecord
100
AcDbLayerTableRecord
  2
ASSI
 70
0
 62
7
  6
CONTINUOUS
370
-3
390
F
  0
LAYER
  5
1FE
100
AcDbSymbolTableRecord
100
AcDbLayerTableRecord
  2
COORDINATE
 70
0
 62
7
  6
CONTINUOUS
370
-3
390
F
  0
LAYER
  5
1FF
100
AcDbSymbolTableRecord
100
AcDbLayerTableRecord
  2
COORD_ORIGINE
 70
0
 62
7
  6
CONTINUOUS
370
-3
390
F
  0
LAYER
  5
200
100
AcDbSymbolTableRecord
100
AcDbLayerTableRecord
  2
COPY_PUBLISH
 70
0
 62
7
  6
CONTINUOUS
370
-3
390
F
  0
LAYER
  5
201
100
AcDbSymbolTableRecord
100
AcDbLayerTableRecord
  2
COSMETIC
 70
0
 62
7
  6
CONTINUOUS
370
-3
390
F
  0
LAYER
  5
202
100
AcDbSymbolTableRecord
100
AcDbLayerTableRecord
  2
CURVA_ASSE
 70
0
 62
7
  6
CONTINUOUS
370
-3
390
F
  0
LAYER
  5
203
100
AcDbSymbolTableRecord
100
AcDbLayerTableRecord
  2
CURVE
 70
0
 62
7
  6
CONTINUOUS
370
-3
390
F
  0
LAYER
  5
204
100
AcDbSymbolTableRecord
100
AcDbLayerTableRecord
  2
CURVE_GUIDA
 70
0
 62
7
  6
CONTINUOUS
370
-3
390
F
  0
LAYER
  5
205
100
AcDbSymbolTableRecord
100
AcDbLayerTableRecord
  2
CURVE_INC_PUNZONI
 70
0
 62
7
  6
CONTINUOUS
370
-3
390
F
  0
LAYER
  5
206
100
AcDbSymbolTableRecord
100
AcDbLayerTableRecord
  2
DRAFT
 70
0
 62
7
  6
CONTINUOUS
370
-3
390
F
  0
LAYER
  5
207
100
AcDbSymbolTableRecord
100
AcDbLayerTableRecord
  2
IMPORT_IGES
 70
0
 62
7
  6
CONTINUOUS
370
-3
390
F
  0
LAYER
  5
208
100
AcDbSymbolTableRecord
100
AcDbLayerTableRecord
  2
NOTE
 70
0
 62
7
  6
CONTINUOUS
370
-3
390
F
  0
LAYER
  5
209
100
AcDbSymbolTableRecord
100
AcDbLayerTableRecord
  2
PIANI
 70
0
 62
7
  6
CONTINUOUS
370
-3
390
F
  0
LAYER
  5
20A
100
AcDbSymbolTableRecord
100
AcDbLayerTableRecord
  2
PIANI_ORIGINE
 70
0
 62
7
  6
CONTINUOUS
370
-3
390
F
  0
LAYER
  5
20B
100
AcDbSymbolTableRecord
100
AcDbLayerTableRecord
  2
PUNTI
 70
0
 62
7
  6
CONTINUOUS
370
-3
390
F
  0
LAYER
  5
20C
100
AcDbSymbolTableRecord
100
AcDbLayerTableRecord
  2
RACCORDO
 70
0
 62
7
  6
CONTINUOUS
370
-3
390
F
  0
LAYER
  5
20D
100
AcDbSymbolTableRecord
100
AcDbLayerTableRecord
  2
SMUSSO
 70
0
 62
7
  6
CONTINUOUS
370
-3
390
F
  0
LAYER
  5
20E
100
AcDbSymbolTableRecord
100
AcDbLayerTableRecord
  2
SNAPLINE
 70
0
 62
7
  6
CONTINUOUS
370
-3
390
F
  0
LAYER
  5
20F
100
AcDbSymbolTableRecord
100
AcDbLayerTableRecord
  2
SUPERFICI
 70
0
 62
7
  6
CONTINUOUS
370
-3
390
F
  0
LAYER
  5
210
100
AcDbSymbolTableRecord
100
AcDbLayerTableRecord
  2
TRASH
 70
0
 62
7
  6
CONTINUOUS
370
-3
390
F
  0
LAYER
  5
211
100
AcDbSymbolTableRecord
100
AcDbLayerTableRecord
  2
XSEC_DATUMS
 70
0
 62
7
  6
CONTINUOUS
370
-3
390
F
  0
ENDTAB
  0
TABLE
  2
STYLE
  5
3
100
AcDbSymbolTable
 70
1
  0
STYLE
  5
11
100
AcDbSymbolTableRecord
100
AcDbTextStyleTableRecord
  2
STANDARD
 70
0
 40
0.0
 41
0.8
 50
0.0
 71
0
 42
0.2
  3
txt
  4

  0
STYLE
  5
212
100
AcDbSymbolTableRecord
100
AcDbTextStyleTableRecord
  2
TEXTSTYLE_1
 70
0
 40
0.0
 41
0.8
 50
0.0
 71
0
 42
0.2
  3
gdt
  4

  0
ENDTAB
  0
TABLE
  2
VIEW
  5
6
100
AcDbSymbolTable
 70
0
  0
ENDTAB
  0
TABLE
  2
UCS
  5
7
100
AcDbSymbolTable
 70
0
  0
ENDTAB
  0
TABLE
  2
APPID
  5
9
100
AcDbSymbolTable
 70
1
  0
APPID
  5
213
100
AcDbSymbolTableRecord
100
AcDbRegAppTableRecord
  2
ACAD
 70
0
  0
ENDTAB
  0
TABLE
  2
BLOCK_RECORD
  5
1
100
AcDbSymbolTable
 70
0
  0
BLOCK_RECORD
  5
214
100
AcDbSymbolTableRecord
100
AcDbBlockTableRecord
  2
*Model_Space
  0
BLOCK_RECORD
  5
215
100
AcDbSymbolTableRecord
100
AcDbBlockTableRecord
  2
*Paper_Space
  0
ENDTAB
  0
TABLE
  2
DIMSTYLE
  5
A
100
AcDbSymbolTable
 70
1
100
AcDbDimStyleTable
 71
0
  0
DIMSTYLE
105
216
100
AcDbSymbolTableRecord
100
AcDbDimStyleTableRecord
  2
STANDARD
 70
0
  3

  4

 40
1.0
 41
3.0
 42
0.0625
 43
0.38
 44
0.18
 45
0.0
 46
0.0
 47
0.01
 48
0.01
140
3.0
141
0.09
142
0.0
143
25.4
144
1.0
145
0.0
146
1.0
147
0.09
 71
1.0
 72
0.0
 73
0
 74
0
 75
0
 76
0
 77
1
 78
8
170
0
171
2
172
0
173
0
174
0
175
0
176
0
177
0
178
0
270
2
271
2
272
2
273
2
274
2
275
0
280
0
281
0
282
0
283
1
284
8
285
0
286
0
287
3
288
0
340
11
  0
ENDTAB
  0
ENDSEC
  0
SECTION
  2
BLOCKS
  0
BLOCK
  5
20
100
AcDbEntity
  8
0
100
AcDbBlockBegin
  2
*Model_Space
 70
0
 10
0.0
 20
0.0
 30
0.0
  3
*Model_Space
  1

  0
ENDBLK
  5
21
100
AcDbEntity
  8
0
100
AcDbBlockEnd
  0
BLOCK
  5
1C
100
AcDbEntity
  8
0
100
AcDbBlockBegin
  2
*Paper_Space
 70
0
 10
0.0
 20
0.0
 30
0.0
  3
*Paper_Space
  1

  0
ENDBLK
  5
1D
100
AcDbEntity
  8
0
100
AcDbBlockEnd
  0
ENDSEC
  0
SECTION
  2
ENTITIES
  0
LINE
  5
217
100
AcDbEntity
  8
0
100
AcDbLine
 62
7
  6
CONTINUOUS
 10
-71.0
 20
-49.0
 11
-71.0
 21
49.0
  0
LINE
  5
218
100
AcDbEntity
  8
0
100
AcDbLine
 62
7
  6
CONTINUOUS
 10
-68.0
 20
49.0
 11
-68.0
 21
-49.0
  0
LINE
  5
219
100
AcDbEntity
  8
DRAFT
100
AcDbLine
 62
7
  6
CONTINUOUS
 10
-56.2207189611
 20
39.1265761787
 11
-54.4161096901
 21
40.9311854497
  0
LINE
  5
21A
100
AcDbEntity
  8
DRAFT
100
AcDbLine
 62
7
  6
CONTINUOUS
 10
-52.9311854497
 20
42.4161096901
 11
-51.1265761787
 21
44.2207189611
  0
LINE
  5
21B
100
AcDbEntity
  8
DRAFT
100
AcDbLine
 62
7
  6
CONTINUOUS
 10
-51.1265761787
 20
-44.2207189611
 11
-52.9311854497
 21
-42.4161096901
  0
LINE
  5
21C
100
AcDbEntity
  8
DRAFT
100
AcDbLine
 62
7
  6
CONTINUOUS
 10
-54.4161096901
 20
-40.9311854497
 11
-56.2207189611
 21
-39.1265761787
  0
LINE
  5
21D
100
AcDbEntity
  8
DRAFT
100
AcDbLine
 62
7
  6
CONTINUOUS
 10
-65.0
 20
-31.0
 11
-65.0
 21
31.0
  0
LINE
  5
21E
100
AcDbEntity
  8
RACCORDO
100
AcDbLine
 62
253
  6
CONTINUOUS
 10
-64.9473301723
 20
31.0
 11
-64.9473301723
 21
-31.0
  0
LINE
  5
21F
100
AcDbEntity
  8
RACCORDO
100
AcDbLine
 62
253
  6
CONTINUOUS
 10
-63.9474824772
 20
31.0
 11
-63.9474824772
 21
-31.0
  0
LINE
  5
220
100
AcDbEntity
  8
0
100
AcDbLine
 62
7
  6
CONTINUOUS
 10
-51.5228436067
 20
38.1475713737
 11
-51.78426541
 21
37.7213570605
  0
LINE
  5
221
100
AcDbEntity
  8
0
100
AcDbLine
 62
7
  6
CONTINUOUS
 10
-50.4771563933
 20
39.8524286263
 11
-50.21573459
 21
40.2786429395
  0
LINE
  5
222
100
AcDbEntity
  8
DRAFT
100
AcDbLine
 62
7
  6
CONTINUOUS
 10
-55.3305106498
 20
38.7578398228
 11
-53.975461607
 21
40.1128888656
  0
LINE
  5
223
100
AcDbEntity
  8
DRAFT
100
AcDbLine
 62
7
  6
CONTINUOUS
 10
-52.1128888656
 20
41.975461607
 11
-50.7578398228
 21
43.3305106498
  0
LINE
  5
224
100
AcDbEntity
  8
DRAFT
100
AcDbLine
 62
7
  6
CONTINUOUS
 10
-54.3670378159
 20
38.358756308
 11
-53.2941834326
 21
39.4316106912
  0
LINE
  5
225
100
AcDbEntity
  8
DRAFT
100
AcDbLine
 62
7
  6
CONTINUOUS
 10
-51.4316106912
 20
41.2941834326
 11
-50.358756308
 21
42.3670378159
  0
LINE
  5
226
100
AcDbEntity
  8
DRAFT
100
AcDbLine
 62
7
  6
CONTINUOUS
 10
-50.248145623
 20
42.1
 11
-51.4316106912
 21
40.9165349317
  0
LINE
  5
227
100
AcDbEntity
  8
DRAFT
100
AcDbLine
 62
7
  6
CONTINUOUS
 10
-52.9165349317
 20
39.4316106912
 11
-54.1
 21
38.248145623
  0
LINE
  5
228
100
AcDbEntity
  8
DRAFT
100
AcDbLine
 62
7
  6
CONTINUOUS
 10
-54.1
 20
35.75
 11
-54.3670378159
 21
35.4829621841
  0
LINE
  5
229
100
AcDbEntity
  8
DRAFT
100
AcDbLine
 62
7
  6
CONTINUOUS
 10
-47.75
 20
42.1
 11
-47.4829621841
 21
42.3670378159
  0
LINE
  5
22A
100
AcDbEntity
  8
DRAFT
100
AcDbLine
 62
7
  6
CONTINUOUS
 10
-52.3408116908
 20
35.75
 11
-50.8960423246
 21
37.1947693662
  0
LINE
  5
22B
100
AcDbEntity
  8
DRAFT
100
AcDbLine
 62
7
  6
CONTINUOUS
 10
-49.1947693662
 20
38.8960423246
 11
-47.75
 21
40.3408116908
  0
LINE
  5
22C
100
AcDbEntity
  8
RACCORDO
100
AcDbLine
 62
7
  6
CONTINUOUS
 10
-47.4698583872
 20
40.2247732354
 11
-49.1628127924
 21
38.5318188302
  0
LINE
  5
22D
100
AcDbEntity
  8
RACCORDO
100
AcDbLine
 62
7
  6
CONTINUOUS
 10
-50.5318188302
 20
37.1628127924
 11
-52.2247732354
 21
35.4698583872
  0
LINE
  5
22E
100
AcDbEntity
  8
RACCORDO
100
AcDbLine
 62
7
  6
CONTINUOUS
 10
-42.8820263237
 20
44.1670652092
 11
-43.7194947818
 21
43.3295967511
  0
LINE
  5
22F
100
AcDbEntity
  8
RACCORDO
100
AcDbLine
 62
7
  6
CONTINUOUS
 10
-55.3295967511
 20
31.6694947818
 11
-56.1670652092
 21
30.8320263237
  0
LINE
  5
230
100
AcDbEntity
  8
RACCORDO
100
AcDbLine
 62
253
  6
CONTINUOUS
 10
-46.9698652411
 20
40.0176692932
 11
-49.3782000747
 21
37.6093344596
  0
LINE
  5
231
100
AcDbEntity
  8
RACCORDO
100
AcDbLine
 62
253
  6
CONTINUOUS
 10
-49.6093344596
 20
37.3782000747
 11
-52.0176692932
 21
34.9698652411
  0
LINE
  5
232
100
AcDbEntity
  8
DRAFT
100
AcDbLine
 62
7
  6
CONTINUOUS
 10
-50.7578398228
 20
-43.3305106498
 11
-52.1128888656
 21
-41.975461607
  0
LINE
  5
233
100
AcDbEntity
  8
DRAFT
100
AcDbLine
 62
7
  6
CONTINUOUS
 10
-53.975461607
 20
-40.1128888656
 11
-55.3305106498
 21
-38.7578398228
  0
LINE
  5
234
100
AcDbEntity
  8
DRAFT
100
AcDbLine
 62
7
  6
CONTINUOUS
 10
-50.358756308
 20
-42.3670378159
 11
-51.4316106912
 21
-41.2941834326
  0
LINE
  5
235
100
AcDbEntity
  8
DRAFT
100
AcDbLine
 62
7
  6
CONTINUOUS
 10
-53.2941834326
 20
-39.4316106912
 11
-54.3670378159
 21
-38.358756308
  0
LINE
  5
236
100
AcDbEntity
  8
DRAFT
100
AcDbLine
 62
7
  6
CONTINUOUS
 10
-54.1
 20
-38.248145623
 11
-52.9165349317
 21
-39.4316106912
  0
LINE
  5
237
100
AcDbEntity
  8
DRAFT
100
AcDbLine
 62
7
  6
CONTINUOUS
 10
-51.4316106912
 20
-40.9165349317
 11
-50.248145623
 21
-42.1
  0
LINE
  5
238
100
AcDbEntity
  8
DRAFT
100
AcDbLine
 62
7
  6
CONTINUOUS
 10
-47.75
 20
-42.1
 11
-47.4829621841
 21
-42.3670378159
  0
LINE
  5
239
100
AcDbEntity
  8
DRAFT
100
AcDbLine
 62
7
  6
CONTINUOUS
 10
-54.1
 20
-35.75
 11
-54.3670378159
 21
-35.4829621841
  0
LINE
  5
23A
100
AcDbEntity
  8
DRAFT
100
AcDbLine
 62
7
  6
CONTINUOUS
 10
-47.75
 20
-40.3408116908
 11
-49.1947693662
 21
-38.8960423246
  0
LINE
  5
23B
100
AcDbEntity
  8
DRAFT
100
AcDbLine
 62
7
  6
CONTINUOUS
 10
-50.8960423246
 20
-37.1947693662
 11
-52.3408116908
 21
-35.75
  0
LINE
  5
23C
100
AcDbEntity
  8
RACCORDO
100
AcDbLine
 62
7
  6
CONTINUOUS
 10
-52.2247732354
 20
-35.4698583872
 11
-50.5318188302
 21
-37.1628127924
  0
LINE
  5
23D
100
AcDbEntity
  8
RACCORDO
100
AcDbLine
 62
7
  6
CONTINUOUS
 10
-49.1628127924
 20
-38.5318188302
 11
-47.4698583872
 21
-40.2247732354
  0
LINE
  5
23E
100
AcDbEntity
  8
RACCORDO
100
AcDbLine
 62
7
  6
CONTINUOUS
 10
-42.8820263237
 20
-44.1670652092
 11
-43.7194947818
 21
-43.3295967511
  0
LINE
  5
23F
100
AcDbEntity
  8
RACCORDO
100
AcDbLine
 62
7
  6
CONTINUOUS
 10
-55.3295967511
 20
-31.6694947818
 11
-56.1670652092
 21
-30.8320263237
  0
LINE
  5
240
100
AcDbEntity
  8
RACCORDO
100
AcDbLine
 62
253
  6
CONTINUOUS
 10
-52.0176692932
 20
-34.9698652411
 11
-49.6093344596
 21
-37.3782000747
  0
LINE
  5
241
100
AcDbEntity
  8
RACCORDO
100
AcDbLine
 62
253
  6
CONTINUOUS
 10
-49.3782000747
 20
-37.6093344596
 11
-46.9698652411
 21
-40.0176692932
  0
LINE
  5
242
100
AcDbEntity
  8
SMUSSO
100
AcDbLine
 62
7
  6
CONTINUOUS
 10
-56.1927908573
 20
-18.25
 11
-56.2119927579
 21
-17.9552354833
  0
LINE
  5
243
100
AcDbEntity
  8
SMUSSO
100
AcDbLine
 62
7
  6
CONTINUOUS
 10
-56.1927908573
 20
14.25
 11
-56.2119927579
 21
14.5447645167
  0
LINE
  5
244
100
AcDbEntity
  8
SMUSSO
100
AcDbLine
 62
7
  6
CONTINUOUS
 10
-56.7207189611
 20
17.8212812921
 11
-56.7207189611
 21
14.6787187079
  0
LINE
  5
245
100
AcDbEntity
  8
SMUSSO
100
AcDbLine
 62
7
  6
CONTINUOUS
 10
-56.7207189611
 20
-14.6787187079
 11
-56.7207189611
 21
-17.8212812921
  0
LINE
  5
246
100
AcDbEntity
  8
SMUSSO
100
AcDbLine
 62
7
  6
CONTINUOUS
 10
-56.2207189611
 20
34.2716274282
 11
-56.2207189611
 21
17.9552354833
  0
LINE
  5
247
100
AcDbEntity
  8
DRAFT
100
AcDbLine
 62
7
  6
CONTINUOUS
 10
-56.2207189611
 20
-39.1265761787
 11
-56.2207189611
 21
-34.2716274282
  0
LINE
  5
248
100
AcDbEntity
  8
SMUSSO
100
AcDbLine
 62
7
  6
CONTINUOUS
 10
-56.2207189611
 20
14.5447645167
 11
-56.2207189611
 21
-14.5447645167
  0
LINE
  5
249
100
AcDbEntity
  8
SMUSSO
100
AcDbLine
 62
7
  6
CONTINUOUS
 10
-56.2207189611
 20
-17.9552354833
 11
-56.2207189611
 21
-34.2716274282
  0
LINE
  5
24A
100
AcDbEntity
  8
DRAFT
100
AcDbLine
 62
7
  6
CONTINUOUS
 10
-56.2207189611
 20
34.2716274282
 11
-56.2207189611
 21
39.1265761787
  0
LINE
  5
24B
100
AcDbEntity
  8
SMUSSO
100
AcDbLine
 62
7
  6
CONTINUOUS
 10
-56.2119927579
 20
17.9552354833
 11
-56.2119927579
 21
14.5447645167
  0
LINE
  5
24C
100
AcDbEntity
  8
SMUSSO
100
AcDbLine
 62
7
  6
CONTINUOUS
 10
-56.2119927579
 20
-14.5447645167
 11
-56.2119927579
 21
-17.9552354833
  0
LINE
  5
24D
100
AcDbEntity
  8
RACCORDO
100
AcDbLine
 62
7
  6
CONTINUOUS
 10
-56.1927908573
 20
29.332254781
 11
-56.1927908573
 21
18.25
  0
LINE
  5
24E
100
AcDbEntity
  8
RACCORDO
100
AcDbLine
 62
7
  6
CONTINUOUS
 10
-56.1927908573
 20
14.25
 11
-56.1927908573
 21
3.167745219
  0
LINE
  5
24F
100
AcDbEntity
  8
RACCORDO
100
AcDbLine
 62
7
  6
CONTINUOUS
 10
-56.1927908573
 20
-3.167745219
 11
-56.1927908573
 21
-14.25
  0
LINE
  5
250
100
AcDbEntity
  8
RACCORDO
100
AcDbLine
 62
7
  6
CONTINUOUS
 10
-56.1927908573
 20
-18.25
 11
-56.1927908573
 21
-29.332254781
  0
LINE
  5
251
100
AcDbEntity
  8
RACCORDO
100
AcDbLine
 62
7
  6
CONTINUOUS
 10
-55.5
 20
-33.5509084671
 11
-55.5
 21
-31.4990915329
  0
LINE
  5
252
100
AcDbEntity
  8
RACCORDO
100
AcDbLine
 62
7
  6
CONTINUOUS
 10
-55.5
 20
-1.0009084671
 11
-55.5
 21
1.0009084671
  0
LINE
  5
253
100
AcDbEntity
  8
RACCORDO
100
AcDbLine
 62
7
  6
CONTINUOUS
 10
-55.5
 20
31.4990915329
 11
-55.5
 21
33.5509084671
  0
LINE
  5
254
100
AcDbEntity
  8
RACCORDO
100
AcDbLine
 62
7
  6
CONTINUOUS
 10
-55.3305106498
 20
-38.7578398228
 11
-55.3305106498
 21
-34.9830010208
  0
LINE
  5
255
100
AcDbEntity
  8
RACCORDO
100
AcDbLine
 62
7
  6
CONTINUOUS
 10
-55.3305106498
 20
34.9830010208
 11
-55.3305106498
 21
38.7578398228
  0
LINE
  5
256
100
AcDbEntity
  8
RACCORDO
100
AcDbLine
 62
253
  6
CONTINUOUS
 10
-55.3295967511
 20
34.9827268766
 11
-55.3295967511
 21
33.3805052182
  0
LINE
  5
257
100
AcDbEntity
  8
RACCORDO
100
AcDbLine
 62
253
  6
CONTINUOUS
 10
-55.3295967511
 20
31.6694947818
 11
-55.3295967511
 21
0.8305052182
  0
LINE
  5
258
100
AcDbEntity
  8
RACCORDO
100
AcDbLine
 62
253
  6
CONTINUOUS
 10
-55.3295967511
 20
-0.8305052182
 11
-55.3295967511
 21
-31.6694947818
  0
LINE
  5
259
100
AcDbEntity
  8
RACCORDO
100
AcDbLine
 62
253
  6
CONTINUOUS
 10
-55.3295967511
 20
-33.3805052182
 11
-55.3295967511
 21
-34.9827268766
  0
LINE
  5
25A
100
AcDbEntity
  8
RACCORDO
100
AcDbLine
 62
7
  6
CONTINUOUS
 10
-54.7300536657
 20
-33.35
 11
-54.7300536657
 21
-31.7
  0
LINE
  5
25B
100
AcDbEntity
  8
RACCORDO
100
AcDbLine
 62
7
  6
CONTINUOUS
 10
-54.7300536657
 20
-0.8
 11
-54.7300536657
 21
0.8
  0
LINE
  5
25C
100
AcDbEntity
  8
RACCORDO
100
AcDbLine
 62
7
  6
CONTINUOUS
 10
-54.7300536657
 20
31.7
 11
-54.7300536657
 21
33.35
  0
LINE
  5
25D
100
AcDbEntity
  8
SMUSSO
100
AcDbLine
 62
7
  6
CONTINUOUS
 10
-56.1927908573
 20
18.25
 11
-56.2119927579
 21
17.9552354833
  0
LINE
  5
25E
100
AcDbEntity
  8
SMUSSO
100
AcDbLine
 62
7
  6
CONTINUOUS
 10
-56.1927908573
 20
-14.25
 11
-56.2119927579
 21
-14.5447645167
  0
LINE
  5
25F
100
AcDbEntity
  8
0
100
AcDbLine
 62
7
  6
CONTINUOUS
 10
61.0
 20
-59.0
 11
-61.0
 21
-59.0
  0
LINE
  5
260
100
AcDbEntity
  8
0
100
AcDbLine
 62
7
  6
CONTINUOUS
 10
-61.0
 20
-56.0
 11
61.0
 21
-56.0
  0
LINE
  5
261
100
AcDbEntity
  8
DRAFT
100
AcDbLine
 62
7
  6
CONTINUOUS
 10
-54.3670378159
 20
-38.358756308
 11
-54.3670378159
 21
-35.4829621841
  0
LINE
  5
262
100
AcDbEntity
  8
DRAFT
100
AcDbLine
 62
7
  6
CONTINUOUS
 10
-54.3670378159
 20
35.4829621841
 11
-54.3670378159
 21
38.358756308
  0
LINE
  5
263
100
AcDbEntity
  8
DRAFT
100
AcDbLine
 62
7
  6
CONTINUOUS
 10
-54.1
 20
38.248145623
 11
-54.1
 21
35.75
  0
LINE
  5
264
100
AcDbEntity
  8
DRAFT
100
AcDbLine
 62
7
  6
CONTINUOUS
 10
-54.1
 20
-35.75
 11
-54.1
 21
-38.248145623
  0
LINE
  5
265
100
AcDbEntity
  8
RACCORDO
100
AcDbLine
 62
253
  6
CONTINUOUS
 10
-52.3300536657
 20
-35.4698583872
 11
-52.3300536657
 21
35.4698583872
  0
LINE
  5
266
100
AcDbEntity
  8
DRAFT
100
AcDbLine
 62
7
  6
CONTINUOUS
 10
-51.4316106912
 20
-40.9165349317
 11
-51.4316106912
 21
-41.2941834326
  0
LINE
  5
267
100
AcDbEntity
  8
DRAFT
100
AcDbLine
 62
7
  6
CONTINUOUS
 10
-51.4316106912
 20
40.9165349317
 11
-51.4316106912
 21
41.2941834326
  0
LINE
  5
268
100
AcDbEntity
  8
DRAFT
100
AcDbLine
 62
7
  6
CONTINUOUS
 10
-8.0882381259
 20
-53.5
 11
8.0882381259
 21
-53.5
  0
LINE
  5
269
100
AcDbEntity
  8
RACCORDO
100
AcDbLine
 62
7
  6
CONTINUOUS
 10
-43.0
 20
-53.0
 11
43.0
 21
-53.0
  0
LINE
  5
26A
100
AcDbEntity
  8
RACCORDO
100
AcDbLine
 62
253
  6
CONTINUOUS
 10
-43.0
 20
-52.9473301723
 11
43.0
 21
-52.9473301723
  0
LINE
  5
26B
100
AcDbEntity
  8
RACCORDO
100
AcDbLine
 62
253
  6
CONTINUOUS
 10
-43.0
 20
-51.9474824772
 11
43.0
 21
-51.9474824772
  0
LINE
  5
26C
100
AcDbEntity
  8
DRAFT
100
AcDbLine
 62
7
  6
CONTINUOUS
 10
13.5496074285
 20
-51.5
 11
-13.5496074285
 21
-51.5
  0
LINE
  5
26D
100
AcDbEntity
  8
RACCORDO
100
AcDbLine
 62
7
  6
CONTINUOUS
 10
13.4047303896
 20
-51.3551229611
 11
-13.4047303896
 21
-51.3551229611
  0
LINE
  5
26E
100
AcDbEntity
  8
DRAFT
100
AcDbLine
 62
7
  6
CONTINUOUS
 10
13.3
 20
-50.8301909799
 11
9.0599691403
 21
-50.8301909799
  0
LINE
  5
26F
100
AcDbEntity
  8
DRAFT
100
AcDbLine
 62
7
  6
CONTINUOUS
 10
-9.0599691403
 20
-50.8301909799
 11
-13.3
 21
-50.8301909799
  0
LINE
  5
270
100
AcDbEntity
  8
RACCORDO
100
AcDbLine
 62
7
  6
CONTINUOUS
 10
-49.1947693662
 20
38.8960423246
 11
-49.1628127924
 21
38.5318188302
  0
LINE
  5
271
100
AcDbEntity
  8
DRAFT
100
AcDbLine
 62
7
  6
CONTINUOUS
 10
-47.75
 20
-42.1
 11
-47.75
 21
-40.3408116908
  0
LINE
  5
272
100
AcDbEntity
  8
DRAFT
100
AcDbLine
 62
7
  6
CONTINUOUS
 10
-47.75
 20
40.3408116908
 11
-47.75
 21
42.1
  0
LINE
  5
273
100
AcDbEntity
  8
RACCORDO
100
AcDbLine
 62
7
  6
CONTINUOUS
 10
-47.4829621841
 20
-42.8304801828
 11
-47.4829621841
 21
-42.3670378159
  0
LINE
  5
274
100
AcDbEntity
  8
RACCORDO
100
AcDbLine
 62
7
  6
CONTINUOUS
 10
-47.4829621841
 20
42.3670378159
 11
-47.4829621841
 21
42.8304801828
  0
LINE
  5
275
100
AcDbEntity
  8
RACCORDO
100
AcDbLine
 62
7
  6
CONTINUOUS
 10
-47.4698583872
 20
-40.3300536657
 11
-47.4698583872
 21
-40.2247732354
  0
LINE
  5
276
100
AcDbEntity
  8
RACCORDO
100
AcDbLine
 62
7
  6
CONTINUOUS
 10
-47.4698583872
 20
40.2247732354
 11
-47.4698583872
 21
40.3300536657
  0
LINE
  5
277
100
AcDbEntity
  8
RACCORDO
100
AcDbLine
 62
253
  6
CONTINUOUS
 10
-46.9698652411
 20
-40.3300536657
 11
-46.9698652411
 21
-40.0176692932
  0
LINE
  5
278
100
AcDbEntity
  8
RACCORDO
100
AcDbLine
 62
253
  6
CONTINUOUS
 10
-46.9698652411
 20
40.0176692932
 11
-46.9698652411
 21
40.3300536657
  0
LINE
  5
279
100
AcDbEntity
  8
RACCORDO
100
AcDbLine
 62
253
  6
CONTINUOUS
 10
-43.0
 20
-51.9474824772
 11
-43.0
 21
-53.0
  0
LINE
  5
27A
100
AcDbEntity
  8
RACCORDO
100
AcDbLine
 62
253
  6
CONTINUOUS
 10
-43.0
 20
51.9474824772
 11
-43.0
 21
53.0
  0
LINE
  5
27B
100
AcDbEntity
  8
RACCORDO
100
AcDbLine
 62
7
  6
CONTINUOUS
 10
-49.1947693662
 20
-38.8960423246
 11
-49.1628127924
 21
-38.5318188302
  0
LINE
  5
27C
100
AcDbEntity
  8
SMUSSO
100
AcDbLine
 62
7
  6
CONTINUOUS
 10
31.7
 20
-44.1927908573
 11
31.4052354833
 21
-44.2119927579
  0
LINE
  5
27D
100
AcDbEntity
  8
SMUSSO
100
AcDbLine
 62
7
  6
CONTINUOUS
 10
2.0
 20
-44.1927908573
 11
1.7052354833
 21
-44.2119927579
  0
LINE
  5
27E
100
AcDbEntity
  8
SMUSSO
100
AcDbLine
 62
7
  6
CONTINUOUS
 10
-27.7
 20
-44.1927908573
 11
-27.9947645167
 21
-44.2119927579
  0
LINE
  5
27F
100
AcDbEntity
  8
DRAFT
100
AcDbLine
 62
7
  6
CONTINUOUS
 10
13.3
 20
-46.6698090201
 11
10.5742243369
 21
-46.6698090201
  0
LINE
  5
280
100
AcDbEntity
  8
DRAFT
100
AcDbLine
 62
7
  6
CONTINUOUS
 10
-10.5742243369
 20
-46.6698090201
 11
-13.3
 21
-46.6698090201
  0
LINE
  5
281
100
AcDbEntity
  8
RACCORDO
100
AcDbLine
 62
7
  6
CONTINUOUS
 10
-13.4047303896
 20
-46.1448770389
 11
13.4047303896
 21
-46.1448770389
  0
LINE
  5
282
100
AcDbEntity
  8
DRAFT
100
AcDbLine
 62
7
  6
CONTINUOUS
 10
13.5496074285
 20
-46.0
 11
-13.5496074285
 21
-46.0
  0
LINE
  5
283
100
AcDbEntity
  8
SMUSSO
100
AcDbLine
 62
7
  6
CONTINUOUS
 10
-31.2712812921
 20
-44.7207189611
 11
-28.1287187079
 21
-44.7207189611
  0
LINE
  5
284
100
AcDbEntity
  8
SMUSSO
100
AcDbLine
 62
7
  6
CONTINUOUS
 10
-1.5712812921
 20
-44.7207189611
 11
1.5712812921
 21
-44.7207189611
  0
LINE
  5
285
100
AcDbEntity
  8
SMUSSO
100
AcDbLine
 62
7
  6
CONTINUOUS
 10
28.1287187079
 20
-44.7207189611
 11
31.2712812921
 21
-44.7207189611
  0
LINE
  5
286
100
AcDbEntity
  8
DRAFT
100
AcDbLine
 62
7
  6
CONTINUOUS
 10
51.1265761787
 20
-44.2207189611
 11
46.2716274282
 21
-44.2207189611
  0
LINE
  5
287
100
AcDbEntity
  8
SMUSSO
100
AcDbLine
 62
7
  6
CONTINUOUS
 10
-27.9947645167
 20
-44.2207189611
 11
-1.7052354833
 21
-44.2207189611
  0
LINE
  5
288
100
AcDbEntity
  8
SMUSSO
100
AcDbLine
 62
7
  6
CONTINUOUS
 10
1.7052354833
 20
-44.2207189611
 11
27.9947645167
 21
-44.2207189611
  0
LINE
  5
289
100
AcDbEntity
  8
SMUSSO
100
AcDbLine
 62
7
  6
CONTINUOUS
 10
31.4052354833
 20
-44.2207189611
 11
46.2716274282
 21
-44.2207189611
  0
LINE
  5
28A
100
AcDbEntity
  8
SMUSSO
100
AcDbLine
 62
7
  6
CONTINUOUS
 10
-31.4052354833
 20
-44.2207189611
 11
-46.2716274282
 21
-44.2207189611
  0
LINE
  5
28B
100
AcDbEntity
  8
DRAFT
100
AcDbLine
 62
7
  6
CONTINUOUS
 10
-46.2716274282
 20
-44.2207189611
 11
-51.1265761787
 21
-44.2207189611
  0
LINE
  5
28C
100
AcDbEntity
  8
SMUSSO
100
AcDbLine
 62
7
  6
CONTINUOUS
 10
-31.4052354833
 20
-44.2119927579
 11
-27.9947645167
 21
-44.2119927579
  0
LINE
  5
28D
100
AcDbEntity
  8
SMUSSO
100
AcDbLine
 62
7
  6
CONTINUOUS
 10
-1.7052354833
 20
-44.2119927579
 11
1.7052354833
 21
-44.2119927579
  0
LINE
  5
28E
100
AcDbEntity
  8
SMUSSO
100
AcDbLine
 62
7
  6
CONTINUOUS
 10
27.9947645167
 20
-44.2119927579
 11
31.4052354833
 21
-44.2119927579
  0
LINE
  5
28F
100
AcDbEntity
  8
RACCORDO
100
AcDbLine
 62
7
  6
CONTINUOUS
 10
41.382254781
 20
-44.1927908573
 11
31.7
 21
-44.1927908573
  0
LINE
  5
290
100
AcDbEntity
  8
RACCORDO
100
AcDbLine
 62
7
  6
CONTINUOUS
 10
27.7
 20
-44.1927908573
 11
18.017745219
 21
-44.1927908573
  0
LINE
  5
291
100
AcDbEntity
  8
RACCORDO
100
AcDbLine
 62
7
  6
CONTINUOUS
 10
11.682254781
 20
-44.1927908573
 11
2.0
 21
-44.1927908573
  0
LINE
  5
292
100
AcDbEntity
  8
RACCORDO
100
AcDbLine
 62
7
  6
CONTINUOUS
 10
-2.0
 20
-44.1927908573
 11
-11.682254781
 21
-44.1927908573
  0
LINE
  5
293
100
AcDbEntity
  8
RACCORDO
100
AcDbLine
 62
7
  6
CONTINUOUS
 10
-18.017745219
 20
-44.1927908573
 11
-27.7
 21
-44.1927908573
  0
LINE
  5
294
100
AcDbEntity
  8
RACCORDO
100
AcDbLine
 62
7
  6
CONTINUOUS
 10
-31.7
 20
-44.1927908573
 11
-41.382254781
 21
-44.1927908573
  0
LINE
  5
295
100
AcDbEntity
  8
RACCORDO
100
AcDbLine
 62
7
  6
CONTINUOUS
 10
50.7578398228
 20
-43.3305106498
 11
46.9830010208
 21
-43.3305106498
  0
LINE
  5
296
100
AcDbEntity
  8
RACCORDO
100
AcDbLine
 62
7
  6
CONTINUOUS
 10
-46.9830010208
 20
-43.3305106498
 11
-50.7578398228
 21
-43.3305106498
  0
LINE
  5
297
100
AcDbEntity
  8
RACCORDO
100
AcDbLine
 62
253
  6
CONTINUOUS
 10
-46.9827268766
 20
-43.3295967511
 11
-45.3805052182
 21
-43.3295967511
  0
LINE
  5
298
100
AcDbEntity
  8
RACCORDO
100
AcDbLine
 62
253
  6
CONTINUOUS
 10
-43.7194947818
 20
-43.3295967511
 11
-15.6805052182
 21
-43.3295967511
  0
LINE
  5
299
100
AcDbEntity
  8
RACCORDO
100
AcDbLine
 62
253
  6
CONTINUOUS
 10
-14.0194947818
 20
-43.3295967511
 11
14.0194947818
 21
-43.3295967511
  0
LINE
  5
29A
100
AcDbEntity
  8
RACCORDO
100
AcDbLine
 62
253
  6
CONTINUOUS
 10
15.6805052182
 20
-43.3295967511
 11
43.7194947818
 21
-43.3295967511
  0
LINE
  5
29B
100
AcDbEntity
  8
RACCORDO
100
AcDbLine
 62
253
  6
CONTINUOUS
 10
45.3805052182
 20
-43.3295967511
 11
46.9827268766
 21
-43.3295967511
  0
LINE
  5
29C
100
AcDbEntity
  8
RACCORDO
100
AcDbLine
 62
7
  6
CONTINUOUS
 10
45.35
 20
-42.7300536657
 11
43.75
 21
-42.7300536657
  0
LINE
  5
29D
100
AcDbEntity
  8
RACCORDO
100
AcDbLine
 62
7
  6
CONTINUOUS
 10
15.65
 20
-42.7300536657
 11
14.05
 21
-42.7300536657
  0
LINE
  5
29E
100
AcDbEntity
  8
RACCORDO
100
AcDbLine
 62
7
  6
CONTINUOUS
 10
-14.05
 20
-42.7300536657
 11
-15.65
 21
-42.7300536657
  0
LINE
  5
29F
100
AcDbEntity
  8
RACCORDO
100
AcDbLine
 62
7
  6
CONTINUOUS
 10
-43.75
 20
-42.7300536657
 11
-45.35
 21
-42.7300536657
  0
LINE
  5
2A0
100
AcDbEntity
  8
DRAFT
100
AcDbLine
 62
7
  6
CONTINUOUS
 10
50.358756308
 20
-42.3670378159
 11
47.4829621841
 21
-42.3670378159
  0
LINE
  5
2A1
100
AcDbEntity
  8
DRAFT
100
AcDbLine
 62
7
  6
CONTINUOUS
 10
-47.4829621841
 20
-42.3670378159
 11
-50.358756308
 21
-42.3670378159
  0
LINE
  5
2A2
100
AcDbEntity
  8
SMUSSO
100
AcDbLine
 62
7
  6
CONTINUOUS
 10
-31.7
 20
-44.1927908573
 11
-31.4052354833
 21
-44.2119927579
  0
LINE
  5
2A3
100
AcDbEntity
  8
SMUSSO
100
AcDbLine
 62
7
  6
CONTINUOUS
 10
-2.0
 20
-44.1927908573
 11
-1.7052354833
 21
-44.2119927579
  0
LINE
  5
2A4
100
AcDbEntity
  8
SMUSSO
100
AcDbLine
 62
7
  6
CONTINUOUS
 10
27.7
 20
-44.1927908573
 11
27.9947645167
 21
-44.2119927579
  0
LINE
  5
2A5
100
AcDbEntity
  8
SMUSSO
100
AcDbLine
 62
7
  6
CONTINUOUS
 10
-31.4052354833
 20
44.2119927579
 11
-31.2712812921
 21
44.7207189611
  0
LINE
  5
2A6
100
AcDbEntity
  8
DRAFT
100
AcDbLine
 62
7
  6
CONTINUOUS
 10
-28.0
 20
37.469669092
 11
-28.2738720921
 21
36.4475645295
  0
LINE
  5
2A7
100
AcDbEntity
  8
DRAFT
100
AcDbLine
 62
7
  6
CONTINUOUS
 10
-27.7668053713
 20
37.6586881563
 11
-28.1358162676
 21
36.2815207427
  0
LINE
  5
2A8
100
AcDbEntity
  8
DRAFT
100
AcDbLine
 62
7
  6
CONTINUOUS
 10
-13.4047303896
 20
46.1448770389
 11
-13.5496074285
 21
46.0
  0
LINE
  5
2A9
100
AcDbEntity
  8
RACCORDO
100
AcDbLine
 62
7
  6
CONTINUOUS
 10
-13.1820263237
 20
44.1670652092
 11
-14.0194947818
 21
43.3295967511
  0
LINE
  5
2AA
100
AcDbEntity
  8
RACCORDO
100
AcDbLine
 62
7
  6
CONTINUOUS
 10
-55.3295967511
 20
-0.8305052182
 11
-56.1670652092
 21
-1.6679736763
  0
LINE
  5
2AB
100
AcDbEntity
  8
DRAFT
100
AcDbLine
 62
7
  6
CONTINUOUS
 10
-50.248145623
 20
-42.1
 11
-47.75
 21
-42.1
  0
LINE
  5
2AC
100
AcDbEntity
  8
DRAFT
100
AcDbLine
 62
7
  6
CONTINUOUS
 10
50.248145623
 20
-42.1
 11
47.75
 21
-42.1
  0
LINE
  5
2AD
100
AcDbEntity
  8
RACCORDO
100
AcDbLine
 62
253
  6
CONTINUOUS
 10
47.4698583872
 20
-40.3300536657
 11
-47.4698583872
 21
-40.3300536657
  0
LINE
  5
2AE
100
AcDbEntity
  8
DRAFT
100
AcDbLine
 62
7
  6
CONTINUOUS
 10
52.9165349317
 20
-39.4316106912
 11
53.2941834326
 21
-39.4316106912
  0
LINE
  5
2AF
100
AcDbEntity
  8
DRAFT
100
AcDbLine
 62
7
  6
CONTINUOUS
 10
-52.9165349317
 20
-39.4316106912
 11
-53.2941834326
 21
-39.4316106912
  0
LINE
  5
2B0
100
AcDbEntity
  8
DRAFT
100
AcDbLine
 62
7
  6
CONTINUOUS
 10
-13.5496074285
 20
-46.0
 11
-13.4047303896
 21
-46.1448770389
  0
LINE
  5
2B1
100
AcDbEntity
  8
RACCORDO
100
AcDbLine
 62
7
  6
CONTINUOUS
 10
-13.1820263237
 20
-44.1670652092
 11
-14.0194947818
 21
-43.3295967511
  0
LINE
  5
2B2
100
AcDbEntity
  8
RACCORDO
100
AcDbLine
 62
7
  6
CONTINUOUS
 10
-55.3295967511
 20
0.8305052182
 11
-56.1670652092
 21
1.6679736763
  0
LINE
  5
2B3
100
AcDbEntity
  8
SMUSSO
100
AcDbLine
 62
7
  6
CONTINUOUS
 10
-31.2712812921
 20
-44.7207189611
 11
-31.4052354833
 21
-44.2119927579
  0
LINE
  5
2B4
100
AcDbEntity
  8
DRAFT
100
AcDbLine
 62
7
  6
CONTINUOUS
 10
-27.75
 20
34.4791505667
 11
-28.0236115728
 21
33.4580182753
  0
LINE
  5
2B5
100
AcDbEntity
  8
DRAFT
100
AcDbLine
 62
7
  6
CONTINUOUS
 10
-27.5172413879
 20
34.6665423948
 11
-27.8855994165
 21
33.2918115166
  0
LINE
  5
2B6
100
AcDbEntity
  8
DRAFT
100
AcDbLine
 62
7
  6
CONTINUOUS
 10
-27.5
 20
31.4880884817
 11
-27.7732026444
 21
30.468482332
  0
LINE
  5
2B7
100
AcDbEntity
  8
DRAFT
100
AcDbLine
 62
7
  6
CONTINUOUS
 10
-27.3142166239
 20
31.63642137
 11
-27.6628140215
 21
30.3354381706
  0
LINE
  5
2B8
100
AcDbEntity
  8
RACCORDO
100
AcDbLine
 62
253
  6
CONTINUOUS
 10
-47.4829621841
 20
-42.8304801828
 11
-47.4827200227
 21
-42.8296729036
  0
LINE
  5
2B9
100
AcDbEntity
  8
RACCORDO
100
AcDbLine
 62
253
  6
CONTINUOUS
 10
-46.9830010208
 20
-43.3305106498
 11
-46.9827268766
 21
-43.3295967511
  0
LINE
  5
2BA
100
AcDbEntity
  8
RACCORDO
100
AcDbLine
 62
7
  6
CONTINUOUS
 10
-52.3408116908
 20
-35.75
 11
-52.2247732354
 21
-35.4698583872
  0
LINE
  5
2BB
100
AcDbEntity
  8
DRAFT
100
AcDbLine
 62
7
  6
CONTINUOUS
 10
-51.1265761787
 20
-44.2207189611
 11
-50.7578398228
 21
-43.3305106498
  0
LINE
  5
2BC
100
AcDbEntity
  8
DRAFT
100
AcDbLine
 62
7
  6
CONTINUOUS
 10
-50.248145623
 20
-42.1
 11
-50.358756308
 21
-42.3670378159
  0
LINE
  5
2BD
100
AcDbEntity
  8
DRAFT
100
AcDbLine
 62
7
  6
CONTINUOUS
 10
42.4475645295
 20
-22.2738720921
 11
43.469669092
 21
-22.0
  0
LINE
  5
2BE
100
AcDbEntity
  8
DRAFT
100
AcDbLine
 62
7
  6
CONTINUOUS
 10
42.2815207427
 20
-22.1358162676
 11
43.6586881563
 21
-21.7668053713
  0
LINE
  5
2BF
100
AcDbEntity
  8
DRAFT
100
AcDbLine
 62
7
  6
CONTINUOUS
 10
39.4580182753
 20
-22.0236115728
 11
40.4791505667
 21
-21.75
  0
LINE
  5
2C0
100
AcDbEntity
  8
DRAFT
100
AcDbLine
 62
7
  6
CONTINUOUS
 10
39.2918115166
 20
-21.8855994165
 11
40.6665423948
 21
-21.5172413879
  0
LINE
  5
2C1
100
AcDbEntity
  8
DRAFT
100
AcDbLine
 62
7
  6
CONTINUOUS
 10
36.468482332
 20
-21.7732026444
 11
37.4880884817
 21
-21.5
  0
LINE
  5
2C2
100
AcDbEntity
  8
DRAFT
100
AcDbLine
 62
7
  6
CONTINUOUS
 10
36.3354381706
 20
-21.6628140215
 11
37.63642137
 21
-21.3142166239
  0
LINE
  5
2C3
100
AcDbEntity
  8
SMUSSO
100
AcDbLine
 62
7
  6
CONTINUOUS
 10
56.7207189611
 20
-17.8212812921
 11
56.2119927579
 21
-17.9552354833
  0
LINE
  5
2C4
100
AcDbEntity
  8
RACCORDO
100
AcDbLine
 62
7
  6
CONTINUOUS
 10
-50.8960423246
 20
-37.1947693662
 11
-50.5318188302
 21
-37.1628127924
  0
LINE
  5
2C5
100
AcDbEntity
  8
DRAFT
100
AcDbLine
 62
7
  6
CONTINUOUS
 10
52.3408116908
 20
-35.75
 11
54.1
 21
-35.75
  0
LINE
  5
2C6
100
AcDbEntity
  8
DRAFT
100
AcDbLine
 62
7
  6
CONTINUOUS
 10
-52.3408116908
 20
-35.75
 11
-54.1
 21
-35.75
  0
LINE
  5
2C7
100
AcDbEntity
  8
RACCORDO
100
AcDbLine
 62
7
  6
CONTINUOUS
 10
54.8304801828
 20
-35.4829621841
 11
54.3670378159
 21
-35.4829621841
  0
LINE
  5
2C8
100
AcDbEntity
  8
RACCORDO
100
AcDbLine
 62
7
  6
CONTINUOUS
 10
-54.3670378159
 20
-35.4829621841
 11
-54.8304801828
 21
-35.4829621841
  0
LINE
  5
2C9
100
AcDbEntity
  8
RACCORDO
100
AcDbLine
 62
7
  6
CONTINUOUS
 10
52.3300536657
 20
-35.4698583872
 11
52.2247732354
 21
-35.4698583872
  0
LINE
  5
2CA
100
AcDbEntity
  8
RACCORDO
100
AcDbLine
 62
7
  6
CONTINUOUS
 10
-52.2247732354
 20
-35.4698583872
 11
-52.3300536657
 21
-35.4698583872
  0
LINE
  5
2CB
100
AcDbEntity
  8
RACCORDO
100
AcDbLine
 62
253
  6
CONTINUOUS
 10
52.3300536657
 20
-34.9698652411
 11
52.0176692932
 21
-34.9698652411
  0
LINE
  5
2CC
100
AcDbEntity
  8
RACCORDO
100
AcDbLine
 62
253
  6
CONTINUOUS
 10
-52.0176692932
 20
-34.9698652411
 11
-52.3300536657
 21
-34.9698652411
  0
LINE
  5
2CD
100
AcDbEntity
  8
RACCORDO
100
AcDbLine
 62
253
  6
CONTINUOUS
 10
63.9474824772
 20
-31.0
 11
65.0
 21
-31.0
  0
LINE
  5
2CE
100
AcDbEntity
  8
RACCORDO
100
AcDbLine
 62
253
  6
CONTINUOUS
 10
-63.9474824772
 20
-31.0
 11
-65.0
 21
-31.0
  0
LINE
  5
2CF
100
AcDbEntity
  8
RACCORDO
100
AcDbLine
 62
7
  6
CONTINUOUS
 10
50.8960423246
 20
-37.1947693662
 11
50.5318188302
 21
-37.1628127924
  0
LINE
  5
2D0
100
AcDbEntity
  8
SMUSSO
100
AcDbLine
 62
7
  6
CONTINUOUS
 10
-56.2119927579
 20
-17.9552354833
 11
-56.7207189611
 21
-17.8212812921
  0
LINE
  5
2D1
100
AcDbEntity
  8
RACCORDO
100
AcDbLine
 62
7
  6
CONTINUOUS
 10
-52.3408116908
 20
35.75
 11
-52.2247732354
 21
35.4698583872
  0
LINE
  5
2D2
100
AcDbEntity
  8
DRAFT
100
AcDbLine
 62
7
  6
CONTINUOUS
 10
-51.1265761787
 20
44.2207189611
 11
-50.7578398228
 21
43.3305106498
  0
LINE
  5
2D3
100
AcDbEntity
  8
DRAFT
100
AcDbLine
 62
7
  6
CONTINUOUS
 10
-50.248145623
 20
42.1
 11
-50.358756308
 21
42.3670378159
  0
LINE
  5
2D4
100
AcDbEntity
  8
RACCORDO
100
AcDbLine
 62
253
  6
CONTINUOUS
 10
-47.4827200227
 20
42.8296729036
 11
-47.4829621841
 21
42.8304801828
  0
LINE
  5
2D5
100
AcDbEntity
  8
RACCORDO
100
AcDbLine
 62
253
  6
CONTINUOUS
 10
-46.9827268766
 20
43.3295967511
 11
-46.9830010208
 21
43.3305106498
  0
LINE
  5
2D6
100
AcDbEntity
  8
DRAFT
100
AcDbLine
 62
7
  6
CONTINUOUS
 10
-26.6857833761
 20
10.36357863
 11
-26.3371859785
 21
11.6645618294
  0
LINE
  5
2D7
100
AcDbEntity
  8
DRAFT
100
AcDbLine
 62
7
  6
CONTINUOUS
 10
-26.5
 20
10.5119115183
 11
-26.2267973556
 21
11.531517668
  0
LINE
  5
2D8
100
AcDbEntity
  8
DRAFT
100
AcDbLine
 62
7
  6
CONTINUOUS
 10
-26.4827586121
 20
7.3334576052
 11
-26.1144005835
 21
8.7081884834
  0
LINE
  5
2D9
100
AcDbEntity
  8
DRAFT
100
AcDbLine
 62
7
  6
CONTINUOUS
 10
-26.25
 20
7.5208494333
 11
-25.9763884272
 21
8.5419817247
  0
LINE
  5
2DA
100
AcDbEntity
  8
DRAFT
100
AcDbLine
 62
7
  6
CONTINUOUS
 10
-26.2331946287
 20
4.3413118437
 11
-25.8641837324
 21
5.7184792573
  0
LINE
  5
2DB
100
AcDbEntity
  8
DRAFT
100
AcDbLine
 62
7
  6
CONTINUOUS
 10
-26.0
 20
4.530330908
 11
-25.7261279079
 21
5.5524354705
  0
LINE
  5
2DC
100
AcDbEntity
  8
DRAFT
100
AcDbLine
 62
7
  6
CONTINUOUS
 10
-10.7652839531
 20
46.1448770389
 11
-8.8689095242
 21
51.3551229611
  0
LINE
  5
2DD
100
AcDbEntity
  8
DRAFT
100
AcDbLine
 62
7
  6
CONTINUOUS
 10
-8.270223243
 20
53.0
 11
-8.0882381259
 21
53.5
  0
LINE
  5
2DE
100
AcDbEntity
  8
DRAFT
100
AcDbLine
 62
7
  6
CONTINUOUS
 10
-54.4161096901
 20
-40.9311854497
 11
-53.975461607
 21
-40.1128888656
  0
LINE
  5
2DF
100
AcDbEntity
  8
DRAFT
100
AcDbLine
 62
7
  6
CONTINUOUS
 10
13.5496074285
 20
51.5
 11
13.4047303896
 21
51.3551229611
  0
LINE
  5
2E0
100
AcDbEntity
  8
DRAFT
100
AcDbLine
 62
7
  6
CONTINUOUS
 10
17.6645618294
 20
-20.3371859785
 11
16.36357863
 21
-20.6857833761
  0
LINE
  5
2E1
100
AcDbEntity
  8
DRAFT
100
AcDbLine
 62
7
  6
CONTINUOUS
 10
17.531517668
 20
-20.2267973556
 11
16.5119115183
 21
-20.5
  0
LINE
  5
2E2
100
AcDbEntity
  8
DRAFT
100
AcDbLine
 62
7
  6
CONTINUOUS
 10
3.5
 20
-23.85
 11
1.0
 21
-23.85
  0
LINE
  5
2E3
100
AcDbEntity
  8
DRAFT
100
AcDbLine
 62
7
  6
CONTINUOUS
 10
-1.0
 20
-23.85
 11
-3.5
 21
-23.85
  0
LINE
  5
2E4
100
AcDbEntity
  8
DRAFT
100
AcDbLine
 62
7
  6
CONTINUOUS
 10
13.4047303896
 20
-51.3551229611
 11
13.5496074285
 21
-51.5
  0
LINE
  5
2E5
100
AcDbEntity
  8
DRAFT
100
AcDbLine
 62
7
  6
CONTINUOUS
 10
-53.975461607
 20
40.1128888656
 11
-54.4161096901
 21
40.9311854497
  0
LINE
  5
2E6
100
AcDbEntity
  8
DRAFT
100
AcDbLine
 62
7
  6
CONTINUOUS
 10
-10.7652839531
 20
-46.1448770389
 11
-8.8689095242
 21
-51.3551229611
  0
LINE
  5
2E7
100
AcDbEntity
  8
DRAFT
100
AcDbLine
 62
7
  6
CONTINUOUS
 10
-8.270223243
 20
-53.0
 11
-8.0882381259
 21
-53.5
  0
LINE
  5
2E8
100
AcDbEntity
  8
DRAFT
100
AcDbLine
 62
7
  6
CONTINUOUS
 10
-28.2738720921
 20
5.5524354705
 11
-28.0
 21
4.530330908
  0
LINE
  5
2E9
100
AcDbEntity
  8
DRAFT
100
AcDbLine
 62
7
  6
CONTINUOUS
 10
-28.1358162676
 20
5.7184792573
 11
-27.7668053713
 21
4.3413118437
  0
LINE
  5
2EA
100
AcDbEntity
  8
DRAFT
100
AcDbLine
 62
7
  6
CONTINUOUS
 10
-28.0236115728
 20
8.5419817247
 11
-27.75
 21
7.5208494333
  0
LINE
  5
2EB
100
AcDbEntity
  8
DRAFT
100
AcDbLine
 62
7
  6
CONTINUOUS
 10
-27.8855994165
 20
8.7081884834
 11
-27.5172413879
 21
7.3334576052
  0
LINE
  5
2EC
100
AcDbEntity
  8
DRAFT
100
AcDbLine
 62
7
  6
CONTINUOUS
 10
-27.7732026444
 20
11.531517668
 11
-27.5
 21
10.5119115183
  0
LINE
  5
2ED
100
AcDbEntity
  8
RACCORDO
100
AcDbLine
 62
7
  6
CONTINUOUS
 10
-13.008575216
 20
51.3121420732
 11
-13.1047303896
 21
50.8301909799
  0
LINE
  5
2EE
100
AcDbEntity
  8
DRAFT
100
AcDbLine
 62
7
  6
CONTINUOUS
 10
-13.3
 20
46.6698090201
 11
-13.4047303896
 21
46.1448770389
  0
LINE
  5
2EF
100
AcDbEntity
  8
0
100
AcDbLine
 62
7
  6
CONTINUOUS
 10
-51.5228436067
 20
-39.8524286263
 11
-51.78426541
 21
-40.2786429395
  0
LINE
  5
2F0
100
AcDbEntity
  8
RACCORDO
100
AcDbLine
 62
7
  6
CONTINUOUS
 10
16.5179736763
 20
44.1670652092
 11
15.6805052182
 21
43.3295967511
  0
LINE
  5
2F1
100
AcDbEntity
  8
RACCORDO
100
AcDbLine
 62
7
  6
CONTINUOUS
 10
47.75
 20
40.3408116908
 11
47.4698583872
 21
40.2247732354
  0
LINE
  5
2F2
100
AcDbEntity
  8
RACCORDO
100
AcDbLine
 62
253
  6
CONTINUOUS
 10
54.8296729036
 20
35.4827200227
 11
54.8304801828
 21
35.4829621841
  0
LINE
  5
2F3
100
AcDbEntity
  8
DRAFT
100
AcDbLine
 62
7
  6
CONTINUOUS
 10
14.7081884834
 20
-20.1144005835
 11
13.3334576052
 21
-20.4827586121
  0
LINE
  5
2F4
100
AcDbEntity
  8
DRAFT
100
AcDbLine
 62
7
  6
CONTINUOUS
 10
14.5419817247
 20
-19.9763884272
 11
13.5208494333
 21
-20.25
  0
LINE
  5
2F5
100
AcDbEntity
  8
DRAFT
100
AcDbLine
 62
7
  6
CONTINUOUS
 10
11.7184792573
 20
-19.8641837324
 11
10.3413118437
 21
-20.2331946287
  0
LINE
  5
2F6
100
AcDbEntity
  8
DRAFT
100
AcDbLine
 62
7
  6
CONTINUOUS
 10
11.5524354705
 20
-19.7261279079
 11
10.530330908
 21
-20.0
  0
LINE
  5
2F7
100
AcDbEntity
  8
DRAFT
100
AcDbLine
 62
7
  6
CONTINUOUS
 10
-2.7063623377
 20
-23.7854162598
 11
-1.0436376623
 21
-23.7854162598
  0
LINE
  5
2F8
100
AcDbEntity
  8
DRAFT
100
AcDbLine
 62
7
  6
CONTINUOUS
 10
2.7063623377
 20
-23.7854162598
 11
1.0436376623
 21
-23.7854162598
  0
LINE
  5
2F9
100
AcDbEntity
  8
DRAFT
100
AcDbLine
 62
7
  6
CONTINUOUS
 10
10.530330908
 20
-22.0
 11
11.5524354705
 21
-22.2738720921
  0
LINE
  5
2FA
100
AcDbEntity
  8
DRAFT
100
AcDbLine
 62
7
  6
CONTINUOUS
 10
10.3413118437
 20
-21.7668053713
 11
11.7184792573
 21
-22.1358162676
  0
LINE
  5
2FB
100
AcDbEntity
  8
RACCORDO
100
AcDbLine
 62
253
  6
CONTINUOUS
 10
54.8304801828
 20
-35.4829621841
 11
54.8296729036
 21
-35.4827200227
  0
LINE
  5
2FC
100
AcDbEntity
  8
RACCORDO
100
AcDbLine
 62
7
  6
CONTINUOUS
 10
47.75
 20
-40.3408116908
 11
47.4698583872
 21
-40.2247732354
  0
LINE
  5
2FD
100
AcDbEntity
  8
RACCORDO
100
AcDbLine
 62
7
  6
CONTINUOUS
 10
16.5179736763
 20
-44.1670652092
 11
15.6805052182
 21
-43.3295967511
  0
LINE
  5
2FE
100
AcDbEntity
  8
DRAFT
100
AcDbLine
 62
7
  6
CONTINUOUS
 10
-27.6628140215
 20
11.6645618294
 11
-27.3142166239
 21
10.36357863
  0
LINE
  5
2FF
100
AcDbEntity
  8
RACCORDO
100
AcDbLine
 62
7
  6
CONTINUOUS
 10
-13.1047303896
 20
-50.8301909799
 11
-13.008575216
 21
-51.3121420732
  0
LINE
  5
300
100
AcDbEntity
  8
DRAFT
100
AcDbLine
 62
7
  6
CONTINUOUS
 10
-13.4047303896
 20
-46.1448770389
 11
-13.3
 21
-46.6698090201
  0
LINE
  5
301
100
AcDbEntity
  8
ASSI
100
AcDbLine
 62
7
  6
CONTINUOUS
 10
-16.0
 20
26.9348342761
 11
-16.0
 21
28.8204029576
  0
LINE
  5
302
100
AcDbEntity
  8
ASSI
100
AcDbLine
 62
7
  6
CONTINUOUS
 10
-16.0
 20
31.917014361
 11
-16.0
 21
33.2940564791
  0
LINE
  5
303
100
AcDbEntity
  8
ASSI
100
AcDbLine
 62
7
  6
CONTINUOUS
 10
-15.9
 20
33.2054608188
 11
-15.9
 21
31.8087426463
  0
LINE
  5
304
100
AcDbEntity
  8
ASSI
100
AcDbLine
 62
7
  6
CONTINUOUS
 10
-15.9
 20
28.668889963
 11
-15.9
 21
26.7387709465
  0
LINE
  5
305
100
AcDbEntity
  8
DRAFT
100
AcDbLine
 62
7
  6
CONTINUOUS
 10
-13.5496074285
 20
51.5
 11
-13.5496074285
 21
46.0
  0
LINE
  5
306
100
AcDbEntity
  8
DRAFT
100
AcDbLine
 62
7
  6
CONTINUOUS
 10
-13.5496074285
 20
-46.0
 11
-13.5496074285
 21
-51.5
  0
LINE
  5
307
100
AcDbEntity
  8
DRAFT
100
AcDbLine
 62
7
  6
CONTINUOUS
 10
-13.3
 20
50.8301909799
 11
-13.3
 21
46.6698090201
  0
LINE
  5
308
100
AcDbEntity
  8
DRAFT
100
AcDbLine
 62
7
  6
CONTINUOUS
 10
-13.3
 20
-46.6698090201
 11
-13.3
 21
-50.8301909799
  0
LINE
  5
309
100
AcDbEntity
  8
SMUSSO
100
AcDbLine
 62
7
  6
CONTINUOUS
 10
-27.9947645167
 20
-44.2119927579
 11
-28.1287187079
 21
-44.7207189611
  0
LINE
  5
30A
100
AcDbEntity
  8
SMUSSO
100
AcDbLine
 62
7
  6
CONTINUOUS
 10
-1.7052354833
 20
44.2119927579
 11
-1.5712812921
 21
44.7207189611
  0
LINE
  5
30B
100
AcDbEntity
  8
DRAFT
100
AcDbLine
 62
7
  6
CONTINUOUS
 10
-1.0209460779
 20
23.829060302
 11
-1.0436376623
 21
23.7854162598
  0
LINE
  5
30C
100
AcDbEntity
  8
RACCORDO
100
AcDbLine
 62
7
  6
CONTINUOUS
 10
-55.3295967511
 20
-33.3805052182
 11
-56.2207189611
 21
-34.2716274282
  0
LINE
  5
30D
100
AcDbEntity
  8
DRAFT
100
AcDbLine
 62
7
  6
CONTINUOUS
 10
2.75
 20
23.8290539221
 11
2.7063623377
 21
23.7854162598
  0
LINE
  5
30E
100
AcDbEntity
  8
DRAFT
100
AcDbLine
 62
7
  6
CONTINUOUS
 10
3.4790539221
 20
23.8290539221
 11
3.5
 21
23.85
  0
LINE
  5
30F
100
AcDbEntity
  8
DRAFT
100
AcDbLine
 62
7
  6
CONTINUOUS
 10
-3.4790539221
 20
15.8709460779
 11
-3.5
 21
15.85
  0
LINE
  5
310
100
AcDbEntity
  8
DRAFT
100
AcDbLine
 62
7
  6
CONTINUOUS
 10
-2.75
 20
15.8709460779
 11
-2.7063623377
 21
15.9145837402
  0
LINE
  5
311
100
AcDbEntity
  8
DRAFT
100
AcDbLine
 62
7
  6
CONTINUOUS
 10
52.1128888656
 20
41.975461607
 11
52.9311854497
 21
42.4161096901
  0
LINE
  5
312
100
AcDbEntity
  8
DRAFT
100
AcDbLine
 62
7
  6
CONTINUOUS
 10
56.2207189611
 20
39.1265761787
 11
55.3305106498
 21
38.7578398228
  0
LINE
  5
313
100
AcDbEntity
  8
DRAFT
100
AcDbLine
 62
7
  6
CONTINUOUS
 10
54.1
 20
38.248145623
 11
54.3670378159
 21
38.358756308
  0
LINE
  5
314
100
AcDbEntity
  8
RACCORDO
100
AcDbLine
 62
253
  6
CONTINUOUS
 10
55.3295967511
 20
34.9827268766
 11
55.3305106498
 21
34.9830010208
  0
LINE
  5
315
100
AcDbEntity
  8
DRAFT
100
AcDbLine
 62
7
  6
CONTINUOUS
 10
-2.7063623377
 20
-15.9145837402
 11
-1.0436376623
 21
-15.9145837402
  0
LINE
  5
316
100
AcDbEntity
  8
DRAFT
100
AcDbLine
 62
7
  6
CONTINUOUS
 10
1.0436376623
 20
-15.9145837402
 11
2.7063623377
 21
-15.9145837402
  0
LINE
  5
317
100
AcDbEntity
  8
DRAFT
100
AcDbLine
 62
7
  6
CONTINUOUS
 10
-3.5
 20
-15.85
 11
-1.0
 21
-15.85
  0
LINE
  5
318
100
AcDbEntity
  8
DRAFT
100
AcDbLine
 62
7
  6
CONTINUOUS
 10
1.0
 20
-15.85
 11
3.5
 21
-15.85
  0
LINE
  5
319
100
AcDbEntity
  8
DRAFT
100
AcDbLine
 62
7
  6
CONTINUOUS
 10
13.5208494333
 20
-21.75
 11
14.5419817247
 21
-22.0236115728
  0
LINE
  5
31A
100
AcDbEntity
  8
DRAFT
100
AcDbLine
 62
7
  6
CONTINUOUS
 10
13.3334576052
 20
-21.5172413879
 11
14.7081884834
 21
-21.8855994165
  0
LINE
  5
31B
100
AcDbEntity
  8
DRAFT
100
AcDbLine
 62
7
  6
CONTINUOUS
 10
16.5119115183
 20
-21.5
 11
17.531517668
 21
-21.7732026444
  0
LINE
  5
31C
100
AcDbEntity
  8
DRAFT
100
AcDbLine
 62
7
  6
CONTINUOUS
 10
16.36357863
 20
-21.3142166239
 11
17.6645618294
 21
-21.6628140215
  0
LINE
  5
31D
100
AcDbEntity
  8
RACCORDO
100
AcDbLine
 62
253
  6
CONTINUOUS
 10
55.3305106498
 20
-34.9830010208
 11
55.3295967511
 21
-34.9827268766
  0
LINE
  5
31E
100
AcDbEntity
  8
DRAFT
100
AcDbLine
 62
7
  6
CONTINUOUS
 10
56.2207189611
 20
-39.1265761787
 11
55.3305106498
 21
-38.7578398228
  0
LINE
  5
31F
100
AcDbEntity
  8
DRAFT
100
AcDbLine
 62
7
  6
CONTINUOUS
 10
54.1
 20
-38.248145623
 11
54.3670378159
 21
-38.358756308
  0
LINE
  5
320
100
AcDbEntity
  8
DRAFT
100
AcDbLine
 62
7
  6
CONTINUOUS
 10
52.1128888656
 20
-41.975461607
 11
52.9311854497
 21
-42.4161096901
  0
LINE
  5
321
100
AcDbEntity
  8
RACCORDO
100
AcDbLine
 62
7
  6
CONTINUOUS
 10
-55.3295967511
 20
33.3805052182
 11
-56.2207189611
 21
34.2716274282
  0
LINE
  5
322
100
AcDbEntity
  8
DRAFT
100
AcDbLine
 62
7
  6
CONTINUOUS
 10
2.75
 20
-23.8290539221
 11
2.7063623377
 21
-23.7854162598
  0
LINE
  5
323
100
AcDbEntity
  8
DRAFT
100
AcDbLine
 62
7
  6
CONTINUOUS
 10
3.4790539221
 20
-23.8290539221
 11
3.5
 21
-23.85
  0
LINE
  5
324
100
AcDbEntity
  8
DRAFT
100
AcDbLine
 62
7
  6
CONTINUOUS
 10
-3.4790539221
 20
-15.8709460779
 11
-3.5
 21
-15.85
  0
LINE
  5
325
100
AcDbEntity
  8
DRAFT
100
AcDbLine
 62
7
  6
CONTINUOUS
 10
-2.75
 20
-15.8709460779
 11
-2.7063623377
 21
-15.9145837402
  0
LINE
  5
326
100
AcDbEntity
  8
DRAFT
100
AcDbLine
 62
7
  6
CONTINUOUS
 10
-26.3371859785
 20
30.3354381706
 11
-26.6857833761
 21
31.63642137
  0
LINE
  5
327
100
AcDbEntity
  8
DRAFT
100
AcDbLine
 62
7
  6
CONTINUOUS
 10
-26.2267973556
 20
30.468482332
 11
-26.5
 21
31.4880884817
  0
LINE
  5
328
100
AcDbEntity
  8
DRAFT
100
AcDbLine
 62
7
  6
CONTINUOUS
 10
-26.1144005835
 20
33.2918115166
 11
-26.4827586121
 21
34.6665423948
  0
LINE
  5
329
100
AcDbEntity
  8
DRAFT
100
AcDbLine
 62
7
  6
CONTINUOUS
 10
-25.9763884272
 20
33.4580182753
 11
-26.25
 21
34.4791505667
  0
LINE
  5
32A
100
AcDbEntity
  8
DRAFT
100
AcDbLine
 62
7
  6
CONTINUOUS
 10
-25.8641837324
 20
36.2815207427
 11
-26.2331946287
 21
37.6586881563
  0
LINE
  5
32B
100
AcDbEntity
  8
DRAFT
100
AcDbLine
 62
7
  6
CONTINUOUS
 10
-25.7261279079
 20
36.4475645295
 11
-26.0
 21
37.469669092
  0
LINE
  5
32C
100
AcDbEntity
  8
SMUSSO
100
AcDbLine
 62
7
  6
CONTINUOUS
 10
-28.1287187079
 20
44.7207189611
 11
-27.9947645167
 21
44.2119927579
  0
LINE
  5
32D
100
AcDbEntity
  8
SMUSSO
100
AcDbLine
 62
7
  6
CONTINUOUS
 10
-1.5712812921
 20
-44.7207189611
 11
-1.7052354833
 21
-44.2119927579
  0
LINE
  5
32E
100
AcDbEntity
  8
DRAFT
100
AcDbLine
 62
7
  6
CONTINUOUS
 10
1.0104793691
 20
15.8814230233
 11
1.0436376623
 21
15.9145837402
  0
LINE
  5
32F
100
AcDbEntity
  8
DRAFT
100
AcDbLine
 62
7
  6
CONTINUOUS
 10
1.0209354469
 20
15.8709386368
 11
1.0
 21
15.85
  0
LINE
  5
330
100
AcDbEntity
  8
DRAFT
100
AcDbLine
 62
7
  6
CONTINUOUS
 10
-53.975461607
 20
-40.1128888656
 11
-53.2941834326
 21
-39.4316106912
  0
LINE
  5
331
100
AcDbEntity
  8
DRAFT
100
AcDbLine
 62
7
  6
CONTINUOUS
 10
-52.9165349317
 20
-39.4316106912
 11
-54.4161096901
 21
-40.9311854497
  0
LINE
  5
332
100
AcDbEntity
  8
DRAFT
100
AcDbLine
 62
7
  6
CONTINUOUS
 10
-52.9311854497
 20
-42.4161096901
 11
-51.4316106912
 21
-40.9165349317
  0
LINE
  5
333
100
AcDbEntity
  8
DRAFT
100
AcDbLine
 62
7
  6
CONTINUOUS
 10
-51.4316106912
 20
-41.2941834326
 11
-52.1128888656
 21
-41.975461607
  0
LINE
  5
334
100
AcDbEntity
  8
DRAFT
100
AcDbLine
 62
7
  6
CONTINUOUS
 10
37.63642137
 20
-20.6857833761
 11
36.3354381706
 21
-20.3371859785
  0
LINE
  5
335
100
AcDbEntity
  8
DRAFT
100
AcDbLine
 62
7
  6
CONTINUOUS
 10
37.4880884817
 20
-20.5
 11
36.468482332
 21
-20.2267973556
  0
LINE
  5
336
100
AcDbEntity
  8
DRAFT
100
AcDbLine
 62
7
  6
CONTINUOUS
 10
40.6665423948
 20
-20.4827586121
 11
39.2918115166
 21
-20.1144005835
  0
LINE
  5
337
100
AcDbEntity
  8
DRAFT
100
AcDbLine
 62
7
  6
CONTINUOUS
 10
40.4791505667
 20
-20.25
 11
39.4580182753
 21
-19.9763884272
  0
LINE
  5
338
100
AcDbEntity
  8
DRAFT
100
AcDbLine
 62
7
  6
CONTINUOUS
 10
43.6586881563
 20
-20.2331946287
 11
42.2815207427
 21
-19.8641837324
  0
LINE
  5
339
100
AcDbEntity
  8
DRAFT
100
AcDbLine
 62
7
  6
CONTINUOUS
 10
43.469669092
 20
-20.0
 11
42.4475645295
 21
-19.7261279079
  0
LINE
  5
33A
100
AcDbEntity
  8
DRAFT
100
AcDbLine
 62
7
  6
CONTINUOUS
 10
1.0104518823
 20
-15.8813955345
 11
1.0436376623
 21
-15.9145837402
  0
LINE
  5
33B
100
AcDbEntity
  8
DRAFT
100
AcDbLine
 62
7
  6
CONTINUOUS
 10
-53.2941834326
 20
39.4316106912
 11
-53.975461607
 21
40.1128888656
  0
LINE
  5
33C
100
AcDbEntity
  8
DRAFT
100
AcDbLine
 62
7
  6
CONTINUOUS
 10
-54.4161096901
 20
40.9311854497
 11
-52.9165349317
 21
39.4316106912
  0
LINE
  5
33D
100
AcDbEntity
  8
DRAFT
100
AcDbLine
 62
7
  6
CONTINUOUS
 10
-51.4316106912
 20
40.9165349317
 11
-52.9311854497
 21
42.4161096901
  0
LINE
  5
33E
100
AcDbEntity
  8
DRAFT
100
AcDbLine
 62
7
  6
CONTINUOUS
 10
-52.1128888656
 20
41.975461607
 11
-51.4316106912
 21
41.2941834326
  0
LINE
  5
33F
100
AcDbEntity
  8
DRAFT
100
AcDbLine
 62
7
  6
CONTINUOUS
 10
1.0104655979
 20
-15.8709386368
 11
1.0
 21
-15.85
  0
LINE
  5
340
100
AcDbEntity
  8
DRAFT
100
AcDbLine
 62
7
  6
CONTINUOUS
 10
-3.5
 20
-23.85
 11
-3.5
 21
-15.85
  0
LINE
  5
341
100
AcDbEntity
  8
DRAFT
100
AcDbLine
 62
7
  6
CONTINUOUS
 10
-3.5
 20
15.85
 11
-3.5
 21
23.85
  0
LINE
  5
342
100
AcDbEntity
  8
DRAFT
100
AcDbLine
 62
7
  6
CONTINUOUS
 10
-2.7063623377
 20
-15.9145837402
 11
-2.7063623377
 21
-23.7854162598
  0
LINE
  5
343
100
AcDbEntity
  8
DRAFT
100
AcDbLine
 62
7
  6
CONTINUOUS
 10
-2.7063623377
 20
15.9145837402
 11
-2.7063623377
 21
23.7854162598
  0
LINE
  5
344
100
AcDbEntity
  8
DRAFT
100
AcDbLine
 62
7
  6
CONTINUOUS
 10
-1.0436376623
 20
-23.7854162598
 11
-1.0436376623
 21
-15.9145837402
  0
LINE
  5
345
100
AcDbEntity
  8
DRAFT
100
AcDbLine
 62
7
  6
CONTINUOUS
 10
-1.0436376623
 20
15.9145837402
 11
-1.0436376623
 21
23.7854162598
  0
LINE
  5
346
100
AcDbEntity
  8
DRAFT
100
AcDbLine
 62
7
  6
CONTINUOUS
 10
-1.0
 20
23.85
 11
-1.0
 21
15.85
  0
LINE
  5
347
100
AcDbEntity
  8
DRAFT
100
AcDbLine
 62
7
  6
CONTINUOUS
 10
-1.0
 20
-15.85
 11
-1.0
 21
-23.85
  0
LINE
  5
348
100
AcDbEntity
  8
RACCORDO
100
AcDbLine
 62
7
  6
CONTINUOUS
 10
-12.758575216
 20
-46.1878579268
 11
-12.8547303896
 21
-46.6698090201
  0
LINE
  5
349
100
AcDbEntity
  8
DRAFT
100
AcDbLine
 62
7
  6
CONTINUOUS
 10
-13.3
 20
-50.8301909799
 11
-13.4047303896
 21
-51.3551229611
  0
LINE
  5
34A
100
AcDbEntity
  8
RACCORDO
100
AcDbLine
 62
7
  6
CONTINUOUS
 10
-45.3805052182
 20
-43.3295967511
 11
-46.2716274282
 21
-44.2207189611
  0
LINE
  5
34B
100
AcDbEntity
  8
SMUSSO
100
AcDbLine
 62
7
  6
CONTINUOUS
 10
56.7207189611
 20
14.6787187079
 11
56.2119927579
 21
14.5447645167
  0
LINE
  5
34C
100
AcDbEntity
  8
SMUSSO
100
AcDbLine
 62
7
  6
CONTINUOUS
 10
-56.7207189611
 20
-14.6787187079
 11
-56.2119927579
 21
-14.5447645167
  0
LINE
  5
34D
100
AcDbEntity
  8
SMUSSO
100
AcDbLine
 62
7
  6
CONTINUOUS
 10
-56.2119927579
 20
14.5447645167
 11
-56.7207189611
 21
14.6787187079
  0
LINE
  5
34E
100
AcDbEntity
  8
SMUSSO
100
AcDbLine
 62
7
  6
CONTINUOUS
 10
56.2119927579
 20
-14.5447645167
 11
56.7207189611
 21
-14.6787187079
  0
LINE
  5
34F
100
AcDbEntity
  8
RACCORDO
100
AcDbLine
 62
7
  6
CONTINUOUS
 10
-45.3805052182
 20
43.3295967511
 11
-46.2716274282
 21
44.2207189611
  0
LINE
  5
350
100
AcDbEntity
  8
RACCORDO
100
AcDbLine
 62
7
  6
CONTINUOUS
 10
-12.8547303896
 20
46.6698090201
 11
-12.758575216
 21
46.1878579268
  0
LINE
  5
351
100
AcDbEntity
  8
DRAFT
100
AcDbLine
 62
7
  6
CONTINUOUS
 10
-13.4047303896
 20
51.3551229611
 11
-13.3
 21
50.8301909799
  0
LINE
  5
352
100
AcDbEntity
  8
DRAFT
100
AcDbLine
 62
7
  6
CONTINUOUS
 10
1.0
 20
-23.85
 11
1.0
 21
-15.85
  0
LINE
  5
353
100
AcDbEntity
  8
DRAFT
100
AcDbLine
 62
7
  6
CONTINUOUS
 10
1.0
 20
15.85
 11
1.0
 21
23.85
  0
LINE
  5
354
100
AcDbEntity
  8
DRAFT
100
AcDbLine
 62
7
  6
CONTINUOUS
 10
1.0436376623
 20
23.7854162598
 11
1.0436376623
 21
15.9145837402
  0
LINE
  5
355
100
AcDbEntity
  8
DRAFT
100
AcDbLine
 62
7
  6
CONTINUOUS
 10
1.0436376623
 20
-15.9145837402
 11
1.0436376623
 21
-23.7854162598
  0
LINE
  5
356
100
AcDbEntity
  8
DRAFT
100
AcDbLine
 62
7
  6
CONTINUOUS
 10
2.7063623377
 20
-15.9145837402
 11
2.7063623377
 21
-23.7854162598
  0
LINE
  5
357
100
AcDbEntity
  8
DRAFT
100
AcDbLine
 62
7
  6
CONTINUOUS
 10
2.7063623377
 20
15.9145837402
 11
2.7063623377
 21
23.7854162598
  0
LINE
  5
358
100
AcDbEntity
  8
DRAFT
100
AcDbLine
 62
7
  6
CONTINUOUS
 10
3.5
 20
23.85
 11
3.5
 21
15.85
  0
LINE
  5
359
100
AcDbEntity
  8
DRAFT
100
AcDbLine
 62
7
  6
CONTINUOUS
 10
3.5
 20
-15.85
 11
3.5
 21
-23.85
  0
LINE
  5
35A
100
AcDbEntity
  8
DRAFT
100
AcDbLine
 62
7
  6
CONTINUOUS
 10
13.4047303896
 20
51.3551229611
 11
13.3
 21
50.8301909799
  0
LINE
  5
35B
100
AcDbEntity
  8
RACCORDO
100
AcDbLine
 62
7
  6
CONTINUOUS
 10
12.8547303896
 20
46.6698090201
 11
12.758575216
 21
46.1878579268
  0
LINE
  5
35C
100
AcDbEntity
  8
RACCORDO
100
AcDbLine
 62
7
  6
CONTINUOUS
 10
45.3805052182
 20
43.3295967511
 11
46.2716274282
 21
44.2207189611
  0
LINE
  5
35D
100
AcDbEntity
  8
RACCORDO
100
AcDbLine
 62
7
  6
CONTINUOUS
 10
45.3805052182
 20
-43.3295967511
 11
46.2716274282
 21
-44.2207189611
  0
LINE
  5
35E
100
AcDbEntity
  8
DRAFT
100
AcDbLine
 62
7
  6
CONTINUOUS
 10
-1.0104655979
 20
15.8709386368
 11
-1.0
 21
15.85
  0
LINE
  5
35F
100
AcDbEntity
  8
DRAFT
100
AcDbLine
 62
7
  6
CONTINUOUS
 10
13.3
 20
-50.8301909799
 11
13.4047303896
 21
-51.3551229611
  0
LINE
  5
360
100
AcDbEntity
  8
RACCORDO
100
AcDbLine
 62
7
  6
CONTINUOUS
 10
12.758575216
 20
-46.1878579268
 11
12.8547303896
 21
-46.6698090201
  0
LINE
  5
361
100
AcDbEntity
  8
SMUSSO
100
AcDbLine
 62
7
  6
CONTINUOUS
 10
1.7052354833
 20
-44.2119927579
 11
1.5712812921
 21
-44.7207189611
  0
LINE
  5
362
100
AcDbEntity
  8
DRAFT
100
AcDbLine
 62
7
  6
CONTINUOUS
 10
51.4316106912
 20
41.2941834326
 11
52.1128888656
 21
41.975461607
  0
LINE
  5
363
100
AcDbEntity
  8
DRAFT
100
AcDbLine
 62
7
  6
CONTINUOUS
 10
52.9311854497
 20
42.4161096901
 11
51.4316106912
 21
40.9165349317
  0
LINE
  5
364
100
AcDbEntity
  8
DRAFT
100
AcDbLine
 62
7
  6
CONTINUOUS
 10
52.9165349317
 20
39.4316106912
 11
54.4161096901
 21
40.9311854497
  0
LINE
  5
365
100
AcDbEntity
  8
DRAFT
100
AcDbLine
 62
7
  6
CONTINUOUS
 10
53.975461607
 20
40.1128888656
 11
53.2941834326
 21
39.4316106912
  0
LINE
  5
366
100
AcDbEntity
  8
DRAFT
100
AcDbLine
 62
7
  6
CONTINUOUS
 10
-1.0209354469
 20
-15.8709386368
 11
-1.0
 21
-15.85
  0
LINE
  5
367
100
AcDbEntity
  8
DRAFT
100
AcDbLine
 62
7
  6
CONTINUOUS
 10
-1.0104518823
 20
-15.8813955345
 11
-1.0436376623
 21
-15.9145837402
  0
LINE
  5
368
100
AcDbEntity
  8
DRAFT
100
AcDbLine
 62
7
  6
CONTINUOUS
 10
-52.1128888656
 20
-41.975461607
 11
-52.9311854497
 21
-42.4161096901
  0
LINE
  5
369
100
AcDbEntity
  8
DRAFT
100
AcDbLine
 62
7
  6
CONTINUOUS
 10
-43.469669092
 20
20.0
 11
-42.4475645295
 21
19.7261279079
  0
LINE
  5
36A
100
AcDbEntity
  8
DRAFT
100
AcDbLine
 62
7
  6
CONTINUOUS
 10
-43.6586881563
 20
20.2331946287
 11
-42.2815207427
 21
19.8641837324
  0
LINE
  5
36B
100
AcDbEntity
  8
DRAFT
100
AcDbLine
 62
7
  6
CONTINUOUS
 10
-40.4791505667
 20
20.25
 11
-39.4580182753
 21
19.9763884272
  0
LINE
  5
36C
100
AcDbEntity
  8
DRAFT
100
AcDbLine
 62
7
  6
CONTINUOUS
 10
-40.6665423948
 20
20.4827586121
 11
-39.2918115166
 21
20.1144005835
  0
LINE
  5
36D
100
AcDbEntity
  8
DRAFT
100
AcDbLine
 62
7
  6
CONTINUOUS
 10
-37.4880884817
 20
20.5
 11
-36.468482332
 21
20.2267973556
  0
LINE
  5
36E
100
AcDbEntity
  8
DRAFT
100
AcDbLine
 62
7
  6
CONTINUOUS
 10
-37.63642137
 20
20.6857833761
 11
-36.3354381706
 21
20.3371859785
  0
LINE
  5
36F
100
AcDbEntity
  8
DRAFT
100
AcDbLine
 62
7
  6
CONTINUOUS
 10
-52.9311854497
 20
42.4161096901
 11
-52.1128888656
 21
41.975461607
  0
LINE
  5
370
100
AcDbEntity
  8
DRAFT
100
AcDbLine
 62
7
  6
CONTINUOUS
 10
52.1128888656
 20
-41.975461607
 11
51.4316106912
 21
-41.2941834326
  0
LINE
  5
371
100
AcDbEntity
  8
DRAFT
100
AcDbLine
 62
7
  6
CONTINUOUS
 10
52.9311854497
 20
-42.4161096901
 11
51.4316106912
 21
-40.9165349317
  0
LINE
  5
372
100
AcDbEntity
  8
DRAFT
100
AcDbLine
 62
7
  6
CONTINUOUS
 10
52.9165349317
 20
-39.4316106912
 11
54.4161096901
 21
-40.9311854497
  0
LINE
  5
373
100
AcDbEntity
  8
DRAFT
100
AcDbLine
 62
7
  6
CONTINUOUS
 10
53.2941834326
 20
-39.4316106912
 11
53.975461607
 21
-40.1128888656
  0
LINE
  5
374
100
AcDbEntity
  8
DRAFT
100
AcDbLine
 62
7
  6
CONTINUOUS
 10
-1.0104793691
 20
15.8814230234
 11
-1.0436376623
 21
15.9145837402
  0
LINE
  5
375
100
AcDbEntity
  8
DRAFT
100
AcDbLine
 62
7
  6
CONTINUOUS
 10
1.0436376623
 20
23.7854162598
 11
1.0209460779
 21
23.829060302
  0
LINE
  5
376
100
AcDbEntity
  8
SMUSSO
100
AcDbLine
 62
7
  6
CONTINUOUS
 10
1.5712812921
 20
44.7207189611
 11
1.7052354833
 21
44.2119927579
  0
LINE
  5
377
100
AcDbEntity
  8
DRAFT
100
AcDbLine
 62
7
  6
CONTINUOUS
 10
13.3
 20
50.8301909799
 11
13.3
 21
46.6698090201
  0
LINE
  5
378
100
AcDbEntity
  8
DRAFT
100
AcDbLine
 62
7
  6
CONTINUOUS
 10
13.3
 20
-46.6698090201
 11
13.3
 21
-50.8301909799
  0
LINE
  5
379
100
AcDbEntity
  8
DRAFT
100
AcDbLine
 62
7
  6
CONTINUOUS
 10
13.5496074285
 20
51.5
 11
13.5496074285
 21
46.0
  0
LINE
  5
37A
100
AcDbEntity
  8
DRAFT
100
AcDbLine
 62
7
  6
CONTINUOUS
 10
13.5496074285
 20
-46.0
 11
13.5496074285
 21
-51.5
  0
LINE
  5
37B
100
AcDbEntity
  8
ASSI
100
AcDbLine
 62
7
  6
CONTINUOUS
 10
15.9
 20
-33.2054608188
 11
15.9
 21
-31.8087426463
  0
LINE
  5
37C
100
AcDbEntity
  8
ASSI
100
AcDbLine
 62
7
  6
CONTINUOUS
 10
15.9
 20
-28.668889963
 11
15.9
 21
-26.7387709465
  0
LINE
  5
37D
100
AcDbEntity
  8
ASSI
100
AcDbLine
 62
7
  6
CONTINUOUS
 10
16.0
 20
-26.9348342761
 11
16.0
 21
-28.8204029576
  0
LINE
  5
37E
100
AcDbEntity
  8
ASSI
100
AcDbLine
 62
7
  6
CONTINUOUS
 10
16.0
 20
-31.917014361
 11
16.0
 21
-33.2940564791
  0
LINE
  5
37F
100
AcDbEntity
  8
SMUSSO
100
AcDbLine
 62
7
  6
CONTINUOUS
 10
27.9947645167
 20
44.2119927579
 11
28.1287187079
 21
44.7207189611
  0
LINE
  5
380
100
AcDbEntity
  8
DRAFT
100
AcDbLine
 62
7
  6
CONTINUOUS
 10
2.75
 20
-15.8709460779
 11
2.7063623377
 21
-15.9145837402
  0
LINE
  5
381
100
AcDbEntity
  8
DRAFT
100
AcDbLine
 62
7
  6
CONTINUOUS
 10
3.4790539221
 20
-15.8709460779
 11
3.5
 21
-15.85
  0
LINE
  5
382
100
AcDbEntity
  8
DRAFT
100
AcDbLine
 62
7
  6
CONTINUOUS
 10
-3.4790539221
 20
-23.8290539221
 11
-3.5
 21
-23.85
  0
LINE
  5
383
100
AcDbEntity
  8
DRAFT
100
AcDbLine
 62
7
  6
CONTINUOUS
 10
-2.75
 20
-23.8290539221
 11
-2.7063623377
 21
-23.7854162598
  0
LINE
  5
384
100
AcDbEntity
  8
RACCORDO
100
AcDbLine
 62
7
  6
CONTINUOUS
 10
55.3295967511
 20
33.3805052182
 11
56.2207189611
 21
34.2716274282
  0
LINE
  5
385
100
AcDbEntity
  8
DRAFT
100
AcDbLine
 62
7
  6
CONTINUOUS
 10
-56.2207189611
 20
-39.1265761787
 11
-55.3305106498
 21
-38.7578398228
  0
LINE
  5
386
100
AcDbEntity
  8
DRAFT
100
AcDbLine
 62
7
  6
CONTINUOUS
 10
-54.1
 20
-38.248145623
 11
-54.3670378159
 21
-38.358756308
  0
LINE
  5
387
100
AcDbEntity
  8
RACCORDO
100
AcDbLine
 62
7
  6
CONTINUOUS
 10
-47.75
 20
-40.3408116908
 11
-47.4698583872
 21
-40.2247732354
  0
LINE
  5
388
100
AcDbEntity
  8
RACCORDO
100
AcDbLine
 62
253
  6
CONTINUOUS
 10
-55.3295967511
 20
-34.9827268766
 11
-55.3305106498
 21
-34.9830010208
  0
LINE
  5
389
100
AcDbEntity
  8
RACCORDO
100
AcDbLine
 62
253
  6
CONTINUOUS
 10
-54.8296729036
 20
-35.4827200227
 11
-54.8304801828
 21
-35.4829621841
  0
LINE
  5
38A
100
AcDbEntity
  8
DRAFT
100
AcDbLine
 62
7
  6
CONTINUOUS
 10
3.5
 20
15.85
 11
1.0
 21
15.85
  0
LINE
  5
38B
100
AcDbEntity
  8
DRAFT
100
AcDbLine
 62
7
  6
CONTINUOUS
 10
-1.0
 20
15.85
 11
-3.5
 21
15.85
  0
LINE
  5
38C
100
AcDbEntity
  8
DRAFT
100
AcDbLine
 62
7
  6
CONTINUOUS
 10
2.7063623377
 20
15.9145837402
 11
1.0436376623
 21
15.9145837402
  0
LINE
  5
38D
100
AcDbEntity
  8
DRAFT
100
AcDbLine
 62
7
  6
CONTINUOUS
 10
-1.0436376623
 20
15.9145837402
 11
-2.7063623377
 21
15.9145837402
  0
LINE
  5
38E
100
AcDbEntity
  8
DRAFT
100
AcDbLine
 62
7
  6
CONTINUOUS
 10
-16.36357863
 20
21.3142166239
 11
-17.6645618294
 21
21.6628140215
  0
LINE
  5
38F
100
AcDbEntity
  8
DRAFT
100
AcDbLine
 62
7
  6
CONTINUOUS
 10
-16.5119115183
 20
21.5
 11
-17.531517668
 21
21.7732026444
  0
LINE
  5
390
100
AcDbEntity
  8
DRAFT
100
AcDbLine
 62
7
  6
CONTINUOUS
 10
-13.3334576052
 20
21.5172413879
 11
-14.7081884834
 21
21.8855994165
  0
LINE
  5
391
100
AcDbEntity
  8
DRAFT
100
AcDbLine
 62
7
  6
CONTINUOUS
 10
-13.5208494333
 20
21.75
 11
-14.5419817247
 21
22.0236115728
  0
LINE
  5
392
100
AcDbEntity
  8
DRAFT
100
AcDbLine
 62
7
  6
CONTINUOUS
 10
-10.3413118437
 20
21.7668053713
 11
-11.7184792573
 21
22.1358162676
  0
LINE
  5
393
100
AcDbEntity
  8
DRAFT
100
AcDbLine
 62
7
  6
CONTINUOUS
 10
-10.530330908
 20
22.0
 11
-11.5524354705
 21
22.2738720921
  0
LINE
  5
394
100
AcDbEntity
  8
RACCORDO
100
AcDbLine
 62
253
  6
CONTINUOUS
 10
-55.3305106498
 20
34.9830010208
 11
-55.3295967511
 21
34.9827268766
  0
LINE
  5
395
100
AcDbEntity
  8
RACCORDO
100
AcDbLine
 62
253
  6
CONTINUOUS
 10
-54.8304801828
 20
35.4829621841
 11
-54.8296729036
 21
35.4827200227
  0
LINE
  5
396
100
AcDbEntity
  8
DRAFT
100
AcDbLine
 62
7
  6
CONTINUOUS
 10
-56.2207189611
 20
39.1265761787
 11
-55.3305106498
 21
38.7578398228
  0
LINE
  5
397
100
AcDbEntity
  8
DRAFT
100
AcDbLine
 62
7
  6
CONTINUOUS
 10
-54.1
 20
38.248145623
 11
-54.3670378159
 21
38.358756308
  0
LINE
  5
398
100
AcDbEntity
  8
RACCORDO
100
AcDbLine
 62
7
  6
CONTINUOUS
 10
-47.75
 20
40.3408116908
 11
-47.4698583872
 21
40.2247732354
  0
LINE
  5
399
100
AcDbEntity
  8
DRAFT
100
AcDbLine
 62
7
  6
CONTINUOUS
 10
1.0209460779
 20
23.829060302
 11
1.0
 21
23.85
  0
LINE
  5
39A
100
AcDbEntity
  8
DRAFT
100
AcDbLine
 62
7
  6
CONTINUOUS
 10
2.75
 20
15.8709460779
 11
2.7063623377
 21
15.9145837402
  0
LINE
  5
39B
100
AcDbEntity
  8
DRAFT
100
AcDbLine
 62
7
  6
CONTINUOUS
 10
3.4790539221
 20
15.8709460779
 11
3.5
 21
15.85
  0
LINE
  5
39C
100
AcDbEntity
  8
DRAFT
100
AcDbLine
 62
7
  6
CONTINUOUS
 10
-3.4790539221
 20
23.8290539221
 11
-3.5
 21
23.85
  0
LINE
  5
39D
100
AcDbEntity
  8
DRAFT
100
AcDbLine
 62
7
  6
CONTINUOUS
 10
-2.75
 20
23.8290539221
 11
-2.7063623377
 21
23.7854162598
  0
LINE
  5
39E
100
AcDbEntity
  8
RACCORDO
100
AcDbLine
 62
7
  6
CONTINUOUS
 10
55.3295967511
 20
-33.3805052182
 11
56.2207189611
 21
-34.2716274282
  0
LINE
  5
39F
100
AcDbEntity
  8
DRAFT
100
AcDbLine
 62
7
  6
CONTINUOUS
 10
25.7261279079
 20
-36.4475645295
 11
26.0
 21
-37.469669092
  0
LINE
  5
3A0
100
AcDbEntity
  8
DRAFT
100
AcDbLine
 62
7
  6
CONTINUOUS
 10
25.8641837324
 20
-36.2815207427
 11
26.2331946287
 21
-37.6586881563
  0
LINE
  5
3A1
100
AcDbEntity
  8
DRAFT
100
AcDbLine
 62
7
  6
CONTINUOUS
 10
25.9763884272
 20
-33.4580182753
 11
26.25
 21
-34.4791505667
  0
LINE
  5
3A2
100
AcDbEntity
  8
DRAFT
100
AcDbLine
 62
7
  6
CONTINUOUS
 10
26.1144005835
 20
-33.2918115166
 11
26.4827586121
 21
-34.6665423948
  0
LINE
  5
3A3
100
AcDbEntity
  8
DRAFT
100
AcDbLine
 62
7
  6
CONTINUOUS
 10
26.2267973556
 20
-30.468482332
 11
26.5
 21
-31.4880884817
  0
LINE
  5
3A4
100
AcDbEntity
  8
DRAFT
100
AcDbLine
 62
7
  6
CONTINUOUS
 10
26.3371859785
 20
-30.3354381706
 11
26.6857833761
 21
-31.63642137
  0
LINE
  5
3A5
100
AcDbEntity
  8
SMUSSO
100
AcDbLine
 62
7
  6
CONTINUOUS
 10
28.1287187079
 20
-44.7207189611
 11
27.9947645167
 21
-44.2119927579
  0
LINE
  5
3A6
100
AcDbEntity
  8
DRAFT
100
AcDbLine
 62
7
  6
CONTINUOUS
 10
13.4047303896
 20
-46.1448770389
 11
13.3
 21
-46.6698090201
  0
LINE
  5
3A7
100
AcDbEntity
  8
RACCORDO
100
AcDbLine
 62
7
  6
CONTINUOUS
 10
13.1047303896
 20
-50.8301909799
 11
13.008575216
 21
-51.3121420732
  0
LINE
  5
3A8
100
AcDbEntity
  8
0
100
AcDbLine
 62
7
  6
CONTINUOUS
 10
51.5228436067
 20
39.8524286263
 11
51.78426541
 21
40.2786429395
  0
LINE
  5
3A9
100
AcDbEntity
  8
RACCORDO
100
AcDbLine
 62
7
  6
CONTINUOUS
 10
-16.5179736763
 20
-44.1670652092
 11
-15.6805052182
 21
-43.3295967511
  0
LINE
  5
3AA
100
AcDbEntity
  8
DRAFT
100
AcDbLine
 62
7
  6
CONTINUOUS
 10
-11.5524354705
 20
19.7261279079
 11
-10.530330908
 21
20.0
  0
LINE
  5
3AB
100
AcDbEntity
  8
DRAFT
100
AcDbLine
 62
7
  6
CONTINUOUS
 10
-11.7184792573
 20
19.8641837324
 11
-10.3413118437
 21
20.2331946287
  0
LINE
  5
3AC
100
AcDbEntity
  8
DRAFT
100
AcDbLine
 62
7
  6
CONTINUOUS
 10
-14.5419817247
 20
19.9763884272
 11
-13.5208494333
 21
20.25
  0
LINE
  5
3AD
100
AcDbEntity
  8
DRAFT
100
AcDbLine
 62
7
  6
CONTINUOUS
 10
-14.7081884834
 20
20.1144005835
 11
-13.3334576052
 21
20.4827586121
  0
LINE
  5
3AE
100
AcDbEntity
  8
DRAFT
100
AcDbLine
 62
7
  6
CONTINUOUS
 10
-17.531517668
 20
20.2267973556
 11
-16.5119115183
 21
20.5
  0
LINE
  5
3AF
100
AcDbEntity
  8
DRAFT
100
AcDbLine
 62
7
  6
CONTINUOUS
 10
-17.6645618294
 20
20.3371859785
 11
-16.36357863
 21
20.6857833761
  0
LINE
  5
3B0
100
AcDbEntity
  8
DRAFT
100
AcDbLine
 62
7
  6
CONTINUOUS
 10
-2.7063623377
 20
23.7854162598
 11
-1.0436376623
 21
23.7854162598
  0
LINE
  5
3B1
100
AcDbEntity
  8
DRAFT
100
AcDbLine
 62
7
  6
CONTINUOUS
 10
2.7063623377
 20
23.7854162598
 11
1.0436376623
 21
23.7854162598
  0
LINE
  5
3B2
100
AcDbEntity
  8
DRAFT
100
AcDbLine
 62
7
  6
CONTINUOUS
 10
-3.5
 20
23.85
 11
-1.0
 21
23.85
  0
LINE
  5
3B3
100
AcDbEntity
  8
DRAFT
100
AcDbLine
 62
7
  6
CONTINUOUS
 10
1.0
 20
23.85
 11
3.5
 21
23.85
  0
LINE
  5
3B4
100
AcDbEntity
  8
RACCORDO
100
AcDbLine
 62
7
  6
CONTINUOUS
 10
-16.5179736763
 20
44.1670652092
 11
-15.6805052182
 21
43.3295967511
  0
LINE
  5
3B5
100
AcDbEntity
  8
DRAFT
100
AcDbLine
 62
7
  6
CONTINUOUS
 10
27.6628140215
 20
-11.6645618294
 11
27.3142166239
 21
-10.36357863
  0
LINE
  5
3B6
100
AcDbEntity
  8
DRAFT
100
AcDbLine
 62
7
  6
CONTINUOUS
 10
27.7732026444
 20
-11.531517668
 11
27.5
 21
-10.5119115183
  0
LINE
  5
3B7
100
AcDbEntity
  8
DRAFT
100
AcDbLine
 62
7
  6
CONTINUOUS
 10
27.8855994165
 20
-8.7081884834
 11
27.5172413879
 21
-7.3334576052
  0
LINE
  5
3B8
100
AcDbEntity
  8
DRAFT
100
AcDbLine
 62
7
  6
CONTINUOUS
 10
28.0236115728
 20
-8.5419817247
 11
27.75
 21
-7.5208494333
  0
LINE
  5
3B9
100
AcDbEntity
  8
DRAFT
100
AcDbLine
 62
7
  6
CONTINUOUS
 10
13.3
 20
46.6698090201
 11
13.4047303896
 21
46.1448770389
  0
LINE
  5
3BA
100
AcDbEntity
  8
RACCORDO
100
AcDbLine
 62
7
  6
CONTINUOUS
 10
13.008575216
 20
51.3121420732
 11
13.1047303896
 21
50.8301909799
  0
LINE
  5
3BB
100
AcDbEntity
  8
DRAFT
100
AcDbLine
 62
7
  6
CONTINUOUS
 10
26.0
 20
-4.530330908
 11
25.7261279079
 21
-5.5524354705
  0
LINE
  5
3BC
100
AcDbEntity
  8
DRAFT
100
AcDbLine
 62
7
  6
CONTINUOUS
 10
26.2331946287
 20
-4.3413118437
 11
25.8641837324
 21
-5.7184792573
  0
LINE
  5
3BD
100
AcDbEntity
  8
DRAFT
100
AcDbLine
 62
7
  6
CONTINUOUS
 10
26.25
 20
-7.5208494333
 11
25.9763884272
 21
-8.5419817247
  0
LINE
  5
3BE
100
AcDbEntity
  8
DRAFT
100
AcDbLine
 62
7
  6
CONTINUOUS
 10
26.4827586121
 20
-7.3334576052
 11
26.1144005835
 21
-8.7081884834
  0
LINE
  5
3BF
100
AcDbEntity
  8
DRAFT
100
AcDbLine
 62
7
  6
CONTINUOUS
 10
26.5
 20
-10.5119115183
 11
26.2267973556
 21
-11.531517668
  0
LINE
  5
3C0
100
AcDbEntity
  8
DRAFT
100
AcDbLine
 62
7
  6
CONTINUOUS
 10
26.6857833761
 20
-10.36357863
 11
26.3371859785
 21
-11.6645618294
  0
LINE
  5
3C1
100
AcDbEntity
  8
DRAFT
100
AcDbLine
 62
7
  6
CONTINUOUS
 10
10.7652839531
 20
-46.1448770389
 11
8.8689095242
 21
-51.3551229611
  0
LINE
  5
3C2
100
AcDbEntity
  8
DRAFT
100
AcDbLine
 62
7
  6
CONTINUOUS
 10
8.270223243
 20
-53.0
 11
8.0882381259
 21
-53.5
  0
LINE
  5
3C3
100
AcDbEntity
  8
DRAFT
100
AcDbLine
 62
7
  6
CONTINUOUS
 10
51.1265761787
 20
44.2207189611
 11
50.7578398228
 21
43.3305106498
  0
LINE
  5
3C4
100
AcDbEntity
  8
DRAFT
100
AcDbLine
 62
7
  6
CONTINUOUS
 10
50.248145623
 20
42.1
 11
50.358756308
 21
42.3670378159
  0
LINE
  5
3C5
100
AcDbEntity
  8
DRAFT
100
AcDbLine
 62
7
  6
CONTINUOUS
 10
54.4161096901
 20
40.9311854497
 11
53.975461607
 21
40.1128888656
  0
LINE
  5
3C6
100
AcDbEntity
  8
DRAFT
100
AcDbLine
 62
7
  6
CONTINUOUS
 10
-13.4047303896
 20
-51.3551229611
 11
-13.5496074285
 21
-51.5
  0
LINE
  5
3C7
100
AcDbEntity
  8
DRAFT
100
AcDbLine
 62
7
  6
CONTINUOUS
 10
-36.3354381706
 20
21.6628140215
 11
-37.63642137
 21
21.3142166239
  0
LINE
  5
3C8
100
AcDbEntity
  8
DRAFT
100
AcDbLine
 62
7
  6
CONTINUOUS
 10
-36.468482332
 20
21.7732026444
 11
-37.4880884817
 21
21.5
  0
LINE
  5
3C9
100
AcDbEntity
  8
DRAFT
100
AcDbLine
 62
7
  6
CONTINUOUS
 10
-39.2918115166
 20
21.8855994165
 11
-40.6665423948
 21
21.5172413879
  0
LINE
  5
3CA
100
AcDbEntity
  8
DRAFT
100
AcDbLine
 62
7
  6
CONTINUOUS
 10
-39.4580182753
 20
22.0236115728
 11
-40.4791505667
 21
21.75
  0
LINE
  5
3CB
100
AcDbEntity
  8
RACCORDO
100
AcDbLine
 62
253
  6
CONTINUOUS
 10
63.9474824772
 20
31.0
 11
65.0
 21
31.0
  0
LINE
  5
3CC
100
AcDbEntity
  8
RACCORDO
100
AcDbLine
 62
253
  6
CONTINUOUS
 10
-63.9474824772
 20
31.0
 11
-65.0
 21
31.0
  0
LINE
  5
3CD
100
AcDbEntity
  8
DRAFT
100
AcDbLine
 62
7
  6
CONTINUOUS
 10
-13.5496074285
 20
51.5
 11
-13.4047303896
 21
51.3551229611
  0
LINE
  5
3CE
100
AcDbEntity
  8
DRAFT
100
AcDbLine
 62
7
  6
CONTINUOUS
 10
53.975461607
 20
-40.1128888656
 11
54.4161096901
 21
-40.9311854497
  0
LINE
  5
3CF
100
AcDbEntity
  8
DRAFT
100
AcDbLine
 62
7
  6
CONTINUOUS
 10
51.1265761787
 20
-44.2207189611
 11
50.7578398228
 21
-43.3305106498
  0
LINE
  5
3D0
100
AcDbEntity
  8
DRAFT
100
AcDbLine
 62
7
  6
CONTINUOUS
 10
50.248145623
 20
-42.1
 11
50.358756308
 21
-42.3670378159
  0
LINE
  5
3D1
100
AcDbEntity
  8
DRAFT
100
AcDbLine
 62
7
  6
CONTINUOUS
 10
10.7652839531
 20
46.1448770389
 11
8.8689095242
 21
51.3551229611
  0
LINE
  5
3D2
100
AcDbEntity
  8
DRAFT
100
AcDbLine
 62
7
  6
CONTINUOUS
 10
8.270223243
 20
53.0
 11
8.0882381259
 21
53.5
  0
LINE
  5
3D3
100
AcDbEntity
  8
DRAFT
100
AcDbLine
 62
7
  6
CONTINUOUS
 10
28.1358162676
 20
-5.7184792573
 11
27.7668053713
 21
-4.3413118437
  0
LINE
  5
3D4
100
AcDbEntity
  8
DRAFT
100
AcDbLine
 62
7
  6
CONTINUOUS
 10
28.2738720921
 20
-5.5524354705
 11
28.0
 21
-4.530330908
  0
LINE
  5
3D5
100
AcDbEntity
  8
DRAFT
100
AcDbLine
 62
7
  6
CONTINUOUS
 10
27.3142166239
 20
-31.63642137
 11
27.6628140215
 21
-30.3354381706
  0
LINE
  5
3D6
100
AcDbEntity
  8
DRAFT
100
AcDbLine
 62
7
  6
CONTINUOUS
 10
27.5
 20
-31.4880884817
 11
27.7732026444
 21
-30.468482332
  0
LINE
  5
3D7
100
AcDbEntity
  8
DRAFT
100
AcDbLine
 62
7
  6
CONTINUOUS
 10
27.5172413879
 20
-34.6665423948
 11
27.8855994165
 21
-33.2918115166
  0
LINE
  5
3D8
100
AcDbEntity
  8
DRAFT
100
AcDbLine
 62
7
  6
CONTINUOUS
 10
27.75
 20
-34.4791505667
 11
28.0236115728
 21
-33.4580182753
  0
LINE
  5
3D9
100
AcDbEntity
  8
DRAFT
100
AcDbLine
 62
7
  6
CONTINUOUS
 10
27.7668053713
 20
-37.6586881563
 11
28.1358162676
 21
-36.2815207427
  0
LINE
  5
3DA
100
AcDbEntity
  8
DRAFT
100
AcDbLine
 62
7
  6
CONTINUOUS
 10
28.0
 20
-37.469669092
 11
28.2738720921
 21
-36.4475645295
  0
LINE
  5
3DB
100
AcDbEntity
  8
RACCORDO
100
AcDbLine
 62
253
  6
CONTINUOUS
 10
46.9830010208
 20
43.3305106498
 11
46.9827268766
 21
43.3295967511
  0
LINE
  5
3DC
100
AcDbEntity
  8
RACCORDO
100
AcDbLine
 62
253
  6
CONTINUOUS
 10
47.4829621841
 20
42.8304801828
 11
47.4827200227
 21
42.8296729036
  0
LINE
  5
3DD
100
AcDbEntity
  8
RACCORDO
100
AcDbLine
 62
7
  6
CONTINUOUS
 10
52.3408116908
 20
35.75
 11
52.2247732354
 21
35.4698583872
  0
LINE
  5
3DE
100
AcDbEntity
  8
DRAFT
100
AcDbLine
 62
7
  6
CONTINUOUS
 10
-42.2815207427
 20
22.1358162676
 11
-43.6586881563
 21
21.7668053713
  0
LINE
  5
3DF
100
AcDbEntity
  8
DRAFT
100
AcDbLine
 62
7
  6
CONTINUOUS
 10
-42.4475645295
 20
22.2738720921
 11
-43.469669092
 21
22.0
  0
LINE
  5
3E0
100
AcDbEntity
  8
SMUSSO
100
AcDbLine
 62
7
  6
CONTINUOUS
 10
-56.7207189611
 20
17.8212812921
 11
-56.2119927579
 21
17.9552354833
  0
LINE
  5
3E1
100
AcDbEntity
  8
RACCORDO
100
AcDbLine
 62
7
  6
CONTINUOUS
 10
50.8960423246
 20
37.1947693662
 11
50.5318188302
 21
37.1628127924
  0
LINE
  5
3E2
100
AcDbEntity
  8
RACCORDO
100
AcDbLine
 62
253
  6
CONTINUOUS
 10
-52.3300536657
 20
34.9698652411
 11
-52.0176692932
 21
34.9698652411
  0
LINE
  5
3E3
100
AcDbEntity
  8
RACCORDO
100
AcDbLine
 62
253
  6
CONTINUOUS
 10
52.0176692932
 20
34.9698652411
 11
52.3300536657
 21
34.9698652411
  0
LINE
  5
3E4
100
AcDbEntity
  8
RACCORDO
100
AcDbLine
 62
7
  6
CONTINUOUS
 10
-52.3300536657
 20
35.4698583872
 11
-52.2247732354
 21
35.4698583872
  0
LINE
  5
3E5
100
AcDbEntity
  8
RACCORDO
100
AcDbLine
 62
7
  6
CONTINUOUS
 10
52.2247732354
 20
35.4698583872
 11
52.3300536657
 21
35.4698583872
  0
LINE
  5
3E6
100
AcDbEntity
  8
RACCORDO
100
AcDbLine
 62
7
  6
CONTINUOUS
 10
-54.8304801828
 20
35.4829621841
 11
-54.3670378159
 21
35.4829621841
  0
LINE
  5
3E7
100
AcDbEntity
  8
RACCORDO
100
AcDbLine
 62
7
  6
CONTINUOUS
 10
54.3670378159
 20
35.4829621841
 11
54.8304801828
 21
35.4829621841
  0
LINE
  5
3E8
100
AcDbEntity
  8
DRAFT
100
AcDbLine
 62
7
  6
CONTINUOUS
 10
-54.1
 20
35.75
 11
-52.3408116908
 21
35.75
  0
LINE
  5
3E9
100
AcDbEntity
  8
DRAFT
100
AcDbLine
 62
7
  6
CONTINUOUS
 10
52.3408116908
 20
35.75
 11
54.1
 21
35.75
  0
LINE
  5
3EA
100
AcDbEntity
  8
RACCORDO
100
AcDbLine
 62
7
  6
CONTINUOUS
 10
-50.8960423246
 20
37.1947693662
 11
-50.5318188302
 21
37.1628127924
  0
LINE
  5
3EB
100
AcDbEntity
  8
SMUSSO
100
AcDbLine
 62
7
  6
CONTINUOUS
 10
56.2119927579
 20
17.9552354833
 11
56.7207189611
 21
17.8212812921
  0
LINE
  5
3EC
100
AcDbEntity
  8
RACCORDO
100
AcDbLine
 62
7
  6
CONTINUOUS
 10
52.3408116908
 20
-35.75
 11
52.2247732354
 21
-35.4698583872
  0
LINE
  5
3ED
100
AcDbEntity
  8
RACCORDO
100
AcDbLine
 62
253
  6
CONTINUOUS
 10
46.9827268766
 20
-43.3295967511
 11
46.9830010208
 21
-43.3305106498
  0
LINE
  5
3EE
100
AcDbEntity
  8
RACCORDO
100
AcDbLine
 62
253
  6
CONTINUOUS
 10
47.4827200227
 20
-42.8296729036
 11
47.4829621841
 21
-42.8304801828
  0
LINE
  5
3EF
100
AcDbEntity
  8
RACCORDO
100
AcDbLine
 62
253
  6
CONTINUOUS
 10
43.0
 20
-51.9474824772
 11
43.0
 21
-53.0
  0
LINE
  5
3F0
100
AcDbEntity
  8
RACCORDO
100
AcDbLine
 62
253
  6
CONTINUOUS
 10
43.0
 20
51.9474824772
 11
43.0
 21
53.0
  0
LINE
  5
3F1
100
AcDbEntity
  8
SMUSSO
100
AcDbLine
 62
7
  6
CONTINUOUS
 10
31.4052354833
 20
-44.2119927579
 11
31.2712812921
 21
-44.7207189611
  0
LINE
  5
3F2
100
AcDbEntity
  8
RACCORDO
100
AcDbLine
 62
7
  6
CONTINUOUS
 10
55.3295967511
 20
0.8305052182
 11
56.1670652092
 21
1.6679736763
  0
LINE
  5
3F3
100
AcDbEntity
  8
RACCORDO
100
AcDbLine
 62
7
  6
CONTINUOUS
 10
13.1820263237
 20
-44.1670652092
 11
14.0194947818
 21
-43.3295967511
  0
LINE
  5
3F4
100
AcDbEntity
  8
DRAFT
100
AcDbLine
 62
7
  6
CONTINUOUS
 10
13.5496074285
 20
-46.0
 11
13.4047303896
 21
-46.1448770389
  0
LINE
  5
3F5
100
AcDbEntity
  8
SMUSSO
100
AcDbLine
 62
7
  6
CONTINUOUS
 10
27.7
 20
44.1927908573
 11
27.9947645167
 21
44.2119927579
  0
LINE
  5
3F6
100
AcDbEntity
  8
DRAFT
100
AcDbLine
 62
7
  6
CONTINUOUS
 10
52.9165349317
 20
39.4316106912
 11
53.2941834326
 21
39.4316106912
  0
LINE
  5
3F7
100
AcDbEntity
  8
DRAFT
100
AcDbLine
 62
7
  6
CONTINUOUS
 10
-52.9165349317
 20
39.4316106912
 11
-53.2941834326
 21
39.4316106912
  0
LINE
  5
3F8
100
AcDbEntity
  8
RACCORDO
100
AcDbLine
 62
253
  6
CONTINUOUS
 10
-47.4698583872
 20
40.3300536657
 11
47.4698583872
 21
40.3300536657
  0
LINE
  5
3F9
100
AcDbEntity
  8
DRAFT
100
AcDbLine
 62
7
  6
CONTINUOUS
 10
50.248145623
 20
42.1
 11
47.75
 21
42.1
  0
LINE
  5
3FA
100
AcDbEntity
  8
DRAFT
100
AcDbLine
 62
7
  6
CONTINUOUS
 10
-47.75
 20
42.1
 11
-50.248145623
 21
42.1
  0
LINE
  5
3FB
100
AcDbEntity
  8
DRAFT
100
AcDbLine
 62
7
  6
CONTINUOUS
 10
-50.358756308
 20
42.3670378159
 11
-47.4829621841
 21
42.3670378159
  0
LINE
  5
3FC
100
AcDbEntity
  8
DRAFT
100
AcDbLine
 62
7
  6
CONTINUOUS
 10
47.4829621841
 20
42.3670378159
 11
50.358756308
 21
42.3670378159
  0
LINE
  5
3FD
100
AcDbEntity
  8
RACCORDO
100
AcDbLine
 62
7
  6
CONTINUOUS
 10
-45.35
 20
42.7300536657
 11
-43.75
 21
42.7300536657
  0
LINE
  5
3FE
100
AcDbEntity
  8
RACCORDO
100
AcDbLine
 62
7
  6
CONTINUOUS
 10
-15.65
 20
42.7300536657
 11
-14.05
 21
42.7300536657
  0
LINE
  5
3FF
100
AcDbEntity
  8
RACCORDO
100
AcDbLine
 62
7
  6
CONTINUOUS
 10
14.05
 20
42.7300536657
 11
15.65
 21
42.7300536657
  0
LINE
  5
400
100
AcDbEntity
  8
RACCORDO
100
AcDbLine
 62
7
  6
CONTINUOUS
 10
43.75
 20
42.7300536657
 11
45.35
 21
42.7300536657
  0
LINE
  5
401
100
AcDbEntity
  8
RACCORDO
100
AcDbLine
 62
253
  6
CONTINUOUS
 10
46.9827268766
 20
43.3295967511
 11
45.3805052182
 21
43.3295967511
  0
LINE
  5
402
100
AcDbEntity
  8
RACCORDO
100
AcDbLine
 62
253
  6
CONTINUOUS
 10
43.7194947818
 20
43.3295967511
 11
15.6805052182
 21
43.3295967511
  0
LINE
  5
403
100
AcDbEntity
  8
RACCORDO
100
AcDbLine
 62
253
  6
CONTINUOUS
 10
14.0194947818
 20
43.3295967511
 11
-14.0194947818
 21
43.3295967511
  0
LINE
  5
404
100
AcDbEntity
  8
RACCORDO
100
AcDbLine
 62
253
  6
CONTINUOUS
 10
-15.6805052182
 20
43.3295967511
 11
-43.7194947818
 21
43.3295967511
  0
LINE
  5
405
100
AcDbEntity
  8
RACCORDO
100
AcDbLine
 62
253
  6
CONTINUOUS
 10
-45.3805052182
 20
43.3295967511
 11
-46.9827268766
 21
43.3295967511
  0
LINE
  5
406
100
AcDbEntity
  8
RACCORDO
100
AcDbLine
 62
7
  6
CONTINUOUS
 10
-50.7578398228
 20
43.3305106498
 11
-46.9830010208
 21
43.3305106498
  0
LINE
  5
407
100
AcDbEntity
  8
RACCORDO
100
AcDbLine
 62
7
  6
CONTINUOUS
 10
46.9830010208
 20
43.3305106498
 11
50.7578398228
 21
43.3305106498
  0
LINE
  5
408
100
AcDbEntity
  8
SMUSSO
100
AcDbLine
 62
7
  6
CONTINUOUS
 10
-27.7
 20
44.1927908573
 11
-27.9947645167
 21
44.2119927579
  0
LINE
  5
409
100
AcDbEntity
  8
RACCORDO
100
AcDbLine
 62
7
  6
CONTINUOUS
 10
55.3295967511
 20
-0.8305052182
 11
56.1670652092
 21
-1.6679736763
  0
LINE
  5
40A
100
AcDbEntity
  8
RACCORDO
100
AcDbLine
 62
7
  6
CONTINUOUS
 10
13.1820263237
 20
44.1670652092
 11
14.0194947818
 21
43.3295967511
  0
LINE
  5
40B
100
AcDbEntity
  8
DRAFT
100
AcDbLine
 62
7
  6
CONTINUOUS
 10
13.4047303896
 20
46.1448770389
 11
13.5496074285
 21
46.0
  0
LINE
  5
40C
100
AcDbEntity
  8
SMUSSO
100
AcDbLine
 62
7
  6
CONTINUOUS
 10
31.2712812921
 20
44.7207189611
 11
31.4052354833
 21
44.2119927579
  0
LINE
  5
40D
100
AcDbEntity
  8
RACCORDO
100
AcDbLine
 62
7
  6
CONTINUOUS
 10
49.1947693662
 20
-38.8960423246
 11
49.1628127924
 21
-38.5318188302
  0
LINE
  5
40E
100
AcDbEntity
  8
RACCORDO
100
AcDbLine
 62
253
  6
CONTINUOUS
 10
46.9698652411
 20
40.3300536657
 11
46.9698652411
 21
40.0176692932
  0
LINE
  5
40F
100
AcDbEntity
  8
RACCORDO
100
AcDbLine
 62
253
  6
CONTINUOUS
 10
46.9698652411
 20
-40.0176692932
 11
46.9698652411
 21
-40.3300536657
  0
LINE
  5
410
100
AcDbEntity
  8
RACCORDO
100
AcDbLine
 62
7
  6
CONTINUOUS
 10
47.4698583872
 20
40.3300536657
 11
47.4698583872
 21
40.2247732354
  0
LINE
  5
411
100
AcDbEntity
  8
RACCORDO
100
AcDbLine
 62
7
  6
CONTINUOUS
 10
47.4698583872
 20
-40.2247732354
 11
47.4698583872
 21
-40.3300536657
  0
LINE
  5
412
100
AcDbEntity
  8
RACCORDO
100
AcDbLine
 62
7
  6
CONTINUOUS
 10
47.4829621841
 20
42.8304801828
 11
47.4829621841
 21
42.3670378159
  0
LINE
  5
413
100
AcDbEntity
  8
RACCORDO
100
AcDbLine
 62
7
  6
CONTINUOUS
 10
47.4829621841
 20
-42.3670378159
 11
47.4829621841
 21
-42.8304801828
  0
LINE
  5
414
100
AcDbEntity
  8
DRAFT
100
AcDbLine
 62
7
  6
CONTINUOUS
 10
47.75
 20
42.1
 11
47.75
 21
40.3408116908
  0
LINE
  5
415
100
AcDbEntity
  8
DRAFT
100
AcDbLine
 62
7
  6
CONTINUOUS
 10
47.75
 20
-42.1
 11
47.75
 21
-40.3408116908
  0
LINE
  5
416
100
AcDbEntity
  8
RACCORDO
100
AcDbLine
 62
7
  6
CONTINUOUS
 10
49.1947693662
 20
38.8960423246
 11
49.1628127924
 21
38.5318188302
  0
LINE
  5
417
100
AcDbEntity
  8
SMUSSO
100
AcDbLine
 62
7
  6
CONTINUOUS
 10
-2.0
 20
44.1927908573
 11
-1.7052354833
 21
44.2119927579
  0
LINE
  5
418
100
AcDbEntity
  8
SMUSSO
100
AcDbLine
 62
7
  6
CONTINUOUS
 10
-31.7
 20
44.1927908573
 11
-31.4052354833
 21
44.2119927579
  0
LINE
  5
419
100
AcDbEntity
  8
RACCORDO
100
AcDbLine
 62
7
  6
CONTINUOUS
 10
41.382254781
 20
44.1927908573
 11
31.7
 21
44.1927908573
  0
LINE
  5
41A
100
AcDbEntity
  8
RACCORDO
100
AcDbLine
 62
7
  6
CONTINUOUS
 10
27.7
 20
44.1927908573
 11
18.017745219
 21
44.1927908573
  0
LINE
  5
41B
100
AcDbEntity
  8
RACCORDO
100
AcDbLine
 62
7
  6
CONTINUOUS
 10
11.682254781
 20
44.1927908573
 11
2.0
 21
44.1927908573
  0
LINE
  5
41C
100
AcDbEntity
  8
RACCORDO
100
AcDbLine
 62
7
  6
CONTINUOUS
 10
-2.0
 20
44.1927908573
 11
-11.682254781
 21
44.1927908573
  0
LINE
  5
41D
100
AcDbEntity
  8
RACCORDO
100
AcDbLine
 62
7
  6
CONTINUOUS
 10
-18.017745219
 20
44.1927908573
 11
-27.7
 21
44.1927908573
  0
LINE
  5
41E
100
AcDbEntity
  8
RACCORDO
100
AcDbLine
 62
7
  6
CONTINUOUS
 10
-31.7
 20
44.1927908573
 11
-41.382254781
 21
44.1927908573
  0
LINE
  5
41F
100
AcDbEntity
  8
SMUSSO
100
AcDbLine
 62
7
  6
CONTINUOUS
 10
31.4052354833
 20
44.2119927579
 11
27.9947645167
 21
44.2119927579
  0
LINE
  5
420
100
AcDbEntity
  8
SMUSSO
100
AcDbLine
 62
7
  6
CONTINUOUS
 10
1.7052354833
 20
44.2119927579
 11
-1.7052354833
 21
44.2119927579
  0
LINE
  5
421
100
AcDbEntity
  8
SMUSSO
100
AcDbLine
 62
7
  6
CONTINUOUS
 10
-27.9947645167
 20
44.2119927579
 11
-31.4052354833
 21
44.2119927579
  0
LINE
  5
422
100
AcDbEntity
  8
DRAFT
100
AcDbLine
 62
7
  6
CONTINUOUS
 10
-51.1265761787
 20
44.2207189611
 11
-46.2716274282
 21
44.2207189611
  0
LINE
  5
423
100
AcDbEntity
  8
SMUSSO
100
AcDbLine
 62
7
  6
CONTINUOUS
 10
-46.2716274282
 20
44.2207189611
 11
-31.4052354833
 21
44.2207189611
  0
LINE
  5
424
100
AcDbEntity
  8
SMUSSO
100
AcDbLine
 62
7
  6
CONTINUOUS
 10
-27.9947645167
 20
44.2207189611
 11
-1.7052354833
 21
44.2207189611
  0
LINE
  5
425
100
AcDbEntity
  8
SMUSSO
100
AcDbLine
 62
7
  6
CONTINUOUS
 10
1.7052354833
 20
44.2207189611
 11
27.9947645167
 21
44.2207189611
  0
LINE
  5
426
100
AcDbEntity
  8
SMUSSO
100
AcDbLine
 62
7
  6
CONTINUOUS
 10
31.4052354833
 20
44.2207189611
 11
46.2716274282
 21
44.2207189611
  0
LINE
  5
427
100
AcDbEntity
  8
DRAFT
100
AcDbLine
 62
7
  6
CONTINUOUS
 10
46.2716274282
 20
44.2207189611
 11
51.1265761787
 21
44.2207189611
  0
LINE
  5
428
100
AcDbEntity
  8
SMUSSO
100
AcDbLine
 62
7
  6
CONTINUOUS
 10
31.2712812921
 20
44.7207189611
 11
28.1287187079
 21
44.7207189611
  0
LINE
  5
429
100
AcDbEntity
  8
SMUSSO
100
AcDbLine
 62
7
  6
CONTINUOUS
 10
1.5712812921
 20
44.7207189611
 11
-1.5712812921
 21
44.7207189611
  0
LINE
  5
42A
100
AcDbEntity
  8
SMUSSO
100
AcDbLine
 62
7
  6
CONTINUOUS
 10
-28.1287187079
 20
44.7207189611
 11
-31.2712812921
 21
44.7207189611
  0
LINE
  5
42B
100
AcDbEntity
  8
DRAFT
100
AcDbLine
 62
7
  6
CONTINUOUS
 10
13.5496074285
 20
46.0
 11
-13.5496074285
 21
46.0
  0
LINE
  5
42C
100
AcDbEntity
  8
RACCORDO
100
AcDbLine
 62
7
  6
CONTINUOUS
 10
13.4047303896
 20
46.1448770389
 11
-13.4047303896
 21
46.1448770389
  0
LINE
  5
42D
100
AcDbEntity
  8
DRAFT
100
AcDbLine
 62
7
  6
CONTINUOUS
 10
13.3
 20
46.6698090201
 11
10.5742243369
 21
46.6698090201
  0
LINE
  5
42E
100
AcDbEntity
  8
DRAFT
100
AcDbLine
 62
7
  6
CONTINUOUS
 10
-10.5742243369
 20
46.6698090201
 11
-13.3
 21
46.6698090201
  0
LINE
  5
42F
100
AcDbEntity
  8
SMUSSO
100
AcDbLine
 62
7
  6
CONTINUOUS
 10
2.0
 20
44.1927908573
 11
1.7052354833
 21
44.2119927579
  0
LINE
  5
430
100
AcDbEntity
  8
SMUSSO
100
AcDbLine
 62
7
  6
CONTINUOUS
 10
31.7
 20
44.1927908573
 11
31.4052354833
 21
44.2119927579
  0
LINE
  5
431
100
AcDbEntity
  8
SMUSSO
100
AcDbLine
 62
7
  6
CONTINUOUS
 10
56.1927908573
 20
-14.25
 11
56.2119927579
 21
-14.5447645167
  0
LINE
  5
432
100
AcDbEntity
  8
DRAFT
100
AcDbLine
 62
7
  6
CONTINUOUS
 10
51.4316106912
 20
-40.9165349317
 11
51.4316106912
 21
-41.2941834326
  0
LINE
  5
433
100
AcDbEntity
  8
DRAFT
100
AcDbLine
 62
7
  6
CONTINUOUS
 10
51.4316106912
 20
40.9165349317
 11
51.4316106912
 21
41.2941834326
  0
LINE
  5
434
100
AcDbEntity
  8
RACCORDO
100
AcDbLine
 62
253
  6
CONTINUOUS
 10
52.3300536657
 20
35.4698583872
 11
52.3300536657
 21
-35.4698583872
  0
LINE
  5
435
100
AcDbEntity
  8
DRAFT
100
AcDbLine
 62
7
  6
CONTINUOUS
 10
54.1
 20
-35.75
 11
54.1
 21
-38.248145623
  0
LINE
  5
436
100
AcDbEntity
  8
DRAFT
100
AcDbLine
 62
7
  6
CONTINUOUS
 10
54.1
 20
35.75
 11
54.1
 21
38.248145623
  0
LINE
  5
437
100
AcDbEntity
  8
DRAFT
100
AcDbLine
 62
7
  6
CONTINUOUS
 10
54.3670378159
 20
38.358756308
 11
54.3670378159
 21
35.4829621841
  0
LINE
  5
438
100
AcDbEntity
  8
DRAFT
100
AcDbLine
 62
7
  6
CONTINUOUS
 10
54.3670378159
 20
-35.4829621841
 11
54.3670378159
 21
-38.358756308
  0
LINE
  5
439
100
AcDbEntity
  8
RACCORDO
100
AcDbLine
 62
7
  6
CONTINUOUS
 10
54.7300536657
 20
33.35
 11
54.7300536657
 21
31.7
  0
LINE
  5
43A
100
AcDbEntity
  8
RACCORDO
100
AcDbLine
 62
7
  6
CONTINUOUS
 10
54.7300536657
 20
0.8
 11
54.7300536657
 21
-0.8
  0
LINE
  5
43B
100
AcDbEntity
  8
RACCORDO
100
AcDbLine
 62
7
  6
CONTINUOUS
 10
54.7300536657
 20
-31.7
 11
54.7300536657
 21
-33.35
  0
LINE
  5
43C
100
AcDbEntity
  8
RACCORDO
100
AcDbLine
 62
253
  6
CONTINUOUS
 10
55.3295967511
 20
-34.9827268766
 11
55.3295967511
 21
-33.3805052182
  0
LINE
  5
43D
100
AcDbEntity
  8
RACCORDO
100
AcDbLine
 62
253
  6
CONTINUOUS
 10
55.3295967511
 20
-31.6694947818
 11
55.3295967511
 21
-0.8305052182
  0
LINE
  5
43E
100
AcDbEntity
  8
RACCORDO
100
AcDbLine
 62
253
  6
CONTINUOUS
 10
55.3295967511
 20
0.8305052182
 11
55.3295967511
 21
31.6694947818
  0
LINE
  5
43F
100
AcDbEntity
  8
RACCORDO
100
AcDbLine
 62
253
  6
CONTINUOUS
 10
55.3295967511
 20
33.3805052182
 11
55.3295967511
 21
34.9827268766
  0
LINE
  5
440
100
AcDbEntity
  8
RACCORDO
100
AcDbLine
 62
7
  6
CONTINUOUS
 10
55.3305106498
 20
38.7578398228
 11
55.3305106498
 21
34.9830010208
  0
LINE
  5
441
100
AcDbEntity
  8
RACCORDO
100
AcDbLine
 62
7
  6
CONTINUOUS
 10
55.3305106498
 20
-34.9830010208
 11
55.3305106498
 21
-38.7578398228
  0
LINE
  5
442
100
AcDbEntity
  8
RACCORDO
100
AcDbLine
 62
7
  6
CONTINUOUS
 10
55.5
 20
33.5509084671
 11
55.5
 21
31.4990915329
  0
LINE
  5
443
100
AcDbEntity
  8
RACCORDO
100
AcDbLine
 62
7
  6
CONTINUOUS
 10
55.5
 20
1.0009084671
 11
55.5
 21
-1.0009084671
  0
LINE
  5
444
100
AcDbEntity
  8
RACCORDO
100
AcDbLine
 62
7
  6
CONTINUOUS
 10
55.5
 20
-31.4990915329
 11
55.5
 21
-33.5509084671
  0
LINE
  5
445
100
AcDbEntity
  8
RACCORDO
100
AcDbLine
 62
7
  6
CONTINUOUS
 10
56.1927908573
 20
29.332254781
 11
56.1927908573
 21
18.25
  0
LINE
  5
446
100
AcDbEntity
  8
RACCORDO
100
AcDbLine
 62
7
  6
CONTINUOUS
 10
56.1927908573
 20
14.25
 11
56.1927908573
 21
3.167745219
  0
LINE
  5
447
100
AcDbEntity
  8
RACCORDO
100
AcDbLine
 62
7
  6
CONTINUOUS
 10
56.1927908573
 20
-3.167745219
 11
56.1927908573
 21
-14.25
  0
LINE
  5
448
100
AcDbEntity
  8
RACCORDO
100
AcDbLine
 62
7
  6
CONTINUOUS
 10
56.1927908573
 20
-18.25
 11
56.1927908573
 21
-29.332254781
  0
LINE
  5
449
100
AcDbEntity
  8
SMUSSO
100
AcDbLine
 62
7
  6
CONTINUOUS
 10
56.2119927579
 20
-17.9552354833
 11
56.2119927579
 21
-14.5447645167
  0
LINE
  5
44A
100
AcDbEntity
  8
SMUSSO
100
AcDbLine
 62
7
  6
CONTINUOUS
 10
56.2119927579
 20
14.5447645167
 11
56.2119927579
 21
17.9552354833
  0
LINE
  5
44B
100
AcDbEntity
  8
SMUSSO
100
AcDbLine
 62
7
  6
CONTINUOUS
 10
56.1927908573
 20
14.25
 11
56.2119927579
 21
14.5447645167
  0
LINE
  5
44C
100
AcDbEntity
  8
DRAFT
100
AcDbLine
 62
7
  6
CONTINUOUS
 10
13.3
 20
50.8301909799
 11
9.0599691403
 21
50.8301909799
  0
LINE
  5
44D
100
AcDbEntity
  8
DRAFT
100
AcDbLine
 62
7
  6
CONTINUOUS
 10
-9.0599691403
 20
50.8301909799
 11
-13.3
 21
50.8301909799
  0
LINE
  5
44E
100
AcDbEntity
  8
RACCORDO
100
AcDbLine
 62
7
  6
CONTINUOUS
 10
-13.4047303896
 20
51.3551229611
 11
13.4047303896
 21
51.3551229611
  0
LINE
  5
44F
100
AcDbEntity
  8
DRAFT
100
AcDbLine
 62
7
  6
CONTINUOUS
 10
13.5496074285
 20
51.5
 11
-13.5496074285
 21
51.5
  0
LINE
  5
450
100
AcDbEntity
  8
RACCORDO
100
AcDbLine
 62
253
  6
CONTINUOUS
 10
43.0
 20
51.9474824772
 11
-43.0
 21
51.9474824772
  0
LINE
  5
451
100
AcDbEntity
  8
RACCORDO
100
AcDbLine
 62
253
  6
CONTINUOUS
 10
43.0
 20
52.9473301723
 11
-43.0
 21
52.9473301723
  0
LINE
  5
452
100
AcDbEntity
  8
RACCORDO
100
AcDbLine
 62
7
  6
CONTINUOUS
 10
43.0
 20
53.0
 11
-43.0
 21
53.0
  0
LINE
  5
453
100
AcDbEntity
  8
DRAFT
100
AcDbLine
 62
7
  6
CONTINUOUS
 10
8.0882381259
 20
53.5
 11
-8.0882381259
 21
53.5
  0
LINE
  5
454
100
AcDbEntity
  8
0
100
AcDbLine
 62
7
  6
CONTINUOUS
 10
61.0
 20
56.0
 11
-61.0
 21
56.0
  0
LINE
  5
455
100
AcDbEntity
  8
SMUSSO
100
AcDbLine
 62
7
  6
CONTINUOUS
 10
56.1927908573
 20
18.25
 11
56.2119927579
 21
17.9552354833
  0
LINE
  5
456
100
AcDbEntity
  8
DRAFT
100
AcDbLine
 62
7
  6
CONTINUOUS
 10
56.2207189611
 20
39.1265761787
 11
56.2207189611
 21
34.2716274282
  0
LINE
  5
457
100
AcDbEntity
  8
SMUSSO
100
AcDbLine
 62
7
  6
CONTINUOUS
 10
56.2207189611
 20
34.2716274282
 11
56.2207189611
 21
17.9552354833
  0
LINE
  5
458
100
AcDbEntity
  8
SMUSSO
100
AcDbLine
 62
7
  6
CONTINUOUS
 10
56.2207189611
 20
14.5447645167
 11
56.2207189611
 21
-14.5447645167
  0
LINE
  5
459
100
AcDbEntity
  8
SMUSSO
100
AcDbLine
 62
7
  6
CONTINUOUS
 10
56.2207189611
 20
-17.9552354833
 11
56.2207189611
 21
-34.2716274282
  0
LINE
  5
45A
100
AcDbEntity
  8
DRAFT
100
AcDbLine
 62
7
  6
CONTINUOUS
 10
56.2207189611
 20
-34.2716274282
 11
56.2207189611
 21
-39.1265761787
  0
LINE
  5
45B
100
AcDbEntity
  8
SMUSSO
100
AcDbLine
 62
7
  6
CONTINUOUS
 10
56.7207189611
 20
-17.8212812921
 11
56.7207189611
 21
-14.6787187079
  0
LINE
  5
45C
100
AcDbEntity
  8
SMUSSO
100
AcDbLine
 62
7
  6
CONTINUOUS
 10
56.7207189611
 20
14.6787187079
 11
56.7207189611
 21
17.8212812921
  0
LINE
  5
45D
100
AcDbEntity
  8
SMUSSO
100
AcDbLine
 62
7
  6
CONTINUOUS
 10
56.1927908573
 20
-18.25
 11
56.2119927579
 21
-17.9552354833
  0
LINE
  5
45E
100
AcDbEntity
  8
RACCORDO
100
AcDbLine
 62
253
  6
CONTINUOUS
 10
46.9698652411
 20
-40.0176692932
 11
49.3782000747
 21
-37.6093344596
  0
LINE
  5
45F
100
AcDbEntity
  8
RACCORDO
100
AcDbLine
 62
253
  6
CONTINUOUS
 10
49.6093344596
 20
-37.3782000747
 11
52.0176692932
 21
-34.9698652411
  0
LINE
  5
460
100
AcDbEntity
  8
RACCORDO
100
AcDbLine
 62
7
  6
CONTINUOUS
 10
55.3295967511
 20
-31.6694947818
 11
56.1670652092
 21
-30.8320263237
  0
LINE
  5
461
100
AcDbEntity
  8
RACCORDO
100
AcDbLine
 62
7
  6
CONTINUOUS
 10
42.8820263237
 20
-44.1670652092
 11
43.7194947818
 21
-43.3295967511
  0
LINE
  5
462
100
AcDbEntity
  8
RACCORDO
100
AcDbLine
 62
7
  6
CONTINUOUS
 10
47.4698583872
 20
-40.2247732354
 11
49.1628127924
 21
-38.5318188302
  0
LINE
  5
463
100
AcDbEntity
  8
RACCORDO
100
AcDbLine
 62
7
  6
CONTINUOUS
 10
50.5318188302
 20
-37.1628127924
 11
52.2247732354
 21
-35.4698583872
  0
LINE
  5
464
100
AcDbEntity
  8
DRAFT
100
AcDbLine
 62
7
  6
CONTINUOUS
 10
52.3408116908
 20
-35.75
 11
50.8960423246
 21
-37.1947693662
  0
LINE
  5
465
100
AcDbEntity
  8
DRAFT
100
AcDbLine
 62
7
  6
CONTINUOUS
 10
49.1947693662
 20
-38.8960423246
 11
47.75
 21
-40.3408116908
  0
LINE
  5
466
100
AcDbEntity
  8
0
100
AcDbLine
 62
7
  6
CONTINUOUS
 10
-61.0
 20
59.0
 11
61.0
 21
59.0
  0
LINE
  5
467
100
AcDbEntity
  8
RACCORDO
100
AcDbLine
 62
253
  6
CONTINUOUS
 10
52.0176692932
 20
34.9698652411
 11
49.6093344596
 21
37.3782000747
  0
LINE
  5
468
100
AcDbEntity
  8
RACCORDO
100
AcDbLine
 62
253
  6
CONTINUOUS
 10
49.3782000747
 20
37.6093344596
 11
46.9698652411
 21
40.0176692932
  0
LINE
  5
469
100
AcDbEntity
  8
RACCORDO
100
AcDbLine
 62
7
  6
CONTINUOUS
 10
55.3295967511
 20
31.6694947818
 11
56.1670652092
 21
30.8320263237
  0
LINE
  5
46A
100
AcDbEntity
  8
RACCORDO
100
AcDbLine
 62
7
  6
CONTINUOUS
 10
42.8820263237
 20
44.1670652092
 11
43.7194947818
 21
43.3295967511
  0
LINE
  5
46B
100
AcDbEntity
  8
RACCORDO
100
AcDbLine
 62
7
  6
CONTINUOUS
 10
52.2247732354
 20
35.4698583872
 11
50.5318188302
 21
37.1628127924
  0
LINE
  5
46C
100
AcDbEntity
  8
RACCORDO
100
AcDbLine
 62
7
  6
CONTINUOUS
 10
49.1628127924
 20
38.5318188302
 11
47.4698583872
 21
40.2247732354
  0
LINE
  5
46D
100
AcDbEntity
  8
DRAFT
100
AcDbLine
 62
7
  6
CONTINUOUS
 10
47.75
 20
40.3408116908
 11
49.1947693662
 21
38.8960423246
  0
LINE
  5
46E
100
AcDbEntity
  8
DRAFT
100
AcDbLine
 62
7
  6
CONTINUOUS
 10
50.8960423246
 20
37.1947693662
 11
52.3408116908
 21
35.75
  0
LINE
  5
46F
100
AcDbEntity
  8
RACCORDO
100
AcDbLine
 62
253
  6
CONTINUOUS
 10
63.9474824772
 20
-31.0
 11
63.9474824772
 21
31.0
  0
LINE
  5
470
100
AcDbEntity
  8
RACCORDO
100
AcDbLine
 62
253
  6
CONTINUOUS
 10
64.9473301723
 20
-31.0
 11
64.9473301723
 21
31.0
  0
LINE
  5
471
100
AcDbEntity
  8
DRAFT
100
AcDbLine
 62
7
  6
CONTINUOUS
 10
65.0
 20
31.0
 11
65.0
 21
-31.0
  0
LINE
  5
472
100
AcDbEntity
  8
0
100
AcDbLine
 62
7
  6
CONTINUOUS
 10
68.0
 20
-49.0
 11
68.0
 21
49.0
  0
LINE
  5
473
100
AcDbEntity
  8
0
100
AcDbLine
 62
7
  6
CONTINUOUS
 10
50.4771563933
 20
-39.8524286263
 11
50.21573459
 21
-40.2786429395
  0
LINE
  5
474
100
AcDbEntity
  8
0
100
AcDbLine
 62
7
  6
CONTINUOUS
 10
51.5228436067
 20
-38.1475713737
 11
51.78426541
 21
-37.7213570605
  0
LINE
  5
475
100
AcDbEntity
  8
DRAFT
100
AcDbLine
 62
7
  6
CONTINUOUS
 10
47.75
 20
-42.1
 11
47.4829621841
 21
-42.3670378159
  0
LINE
  5
476
100
AcDbEntity
  8
DRAFT
100
AcDbLine
 62
7
  6
CONTINUOUS
 10
54.1
 20
-35.75
 11
54.3670378159
 21
-35.4829621841
  0
LINE
  5
477
100
AcDbEntity
  8
DRAFT
100
AcDbLine
 62
7
  6
CONTINUOUS
 10
54.1
 20
-38.248145623
 11
52.9165349317
 21
-39.4316106912
  0
LINE
  5
478
100
AcDbEntity
  8
DRAFT
100
AcDbLine
 62
7
  6
CONTINUOUS
 10
51.4316106912
 20
-40.9165349317
 11
50.248145623
 21
-42.1
  0
LINE
  5
479
100
AcDbEntity
  8
DRAFT
100
AcDbLine
 62
7
  6
CONTINUOUS
 10
54.3670378159
 20
-38.358756308
 11
53.2941834326
 21
-39.4316106912
  0
LINE
  5
47A
100
AcDbEntity
  8
DRAFT
100
AcDbLine
 62
7
  6
CONTINUOUS
 10
51.4316106912
 20
-41.2941834326
 11
50.358756308
 21
-42.3670378159
  0
LINE
  5
47B
100
AcDbEntity
  8
DRAFT
100
AcDbLine
 62
7
  6
CONTINUOUS
 10
55.3305106498
 20
-38.7578398228
 11
53.975461607
 21
-40.1128888656
  0
LINE
  5
47C
100
AcDbEntity
  8
DRAFT
100
AcDbLine
 62
7
  6
CONTINUOUS
 10
52.1128888656
 20
-41.975461607
 11
50.7578398228
 21
-43.3305106498
  0
LINE
  5
47D
100
AcDbEntity
  8
DRAFT
100
AcDbLine
 62
7
  6
CONTINUOUS
 10
56.2207189611
 20
-39.1265761787
 11
54.4161096901
 21
-40.9311854497
  0
LINE
  5
47E
100
AcDbEntity
  8
DRAFT
100
AcDbLine
 62
7
  6
CONTINUOUS
 10
52.9311854497
 20
-42.4161096901
 11
51.1265761787
 21
-44.2207189611
  0
LINE
  5
47F
100
AcDbEntity
  8
DRAFT
100
AcDbLine
 62
7
  6
CONTINUOUS
 10
54.1
 20
35.75
 11
54.3670378159
 21
35.4829621841
  0
LINE
  5
480
100
AcDbEntity
  8
DRAFT
100
AcDbLine
 62
7
  6
CONTINUOUS
 10
47.75
 20
42.1
 11
47.4829621841
 21
42.3670378159
  0
LINE
  5
481
100
AcDbEntity
  8
DRAFT
100
AcDbLine
 62
7
  6
CONTINUOUS
 10
54.1
 20
38.248145623
 11
52.9165349317
 21
39.4316106912
  0
LINE
  5
482
100
AcDbEntity
  8
DRAFT
100
AcDbLine
 62
7
  6
CONTINUOUS
 10
51.4316106912
 20
40.9165349317
 11
50.248145623
 21
42.1
  0
LINE
  5
483
100
AcDbEntity
  8
DRAFT
100
AcDbLine
 62
7
  6
CONTINUOUS
 10
50.358756308
 20
42.3670378159
 11
51.4316106912
 21
41.2941834326
  0
LINE
  5
484
100
AcDbEntity
  8
DRAFT
100
AcDbLine
 62
7
  6
CONTINUOUS
 10
53.2941834326
 20
39.4316106912
 11
54.3670378159
 21
38.358756308
  0
LINE
  5
485
100
AcDbEntity
  8
DRAFT
100
AcDbLine
 62
7
  6
CONTINUOUS
 10
50.7578398228
 20
43.3305106498
 11
52.1128888656
 21
41.975461607
  0
LINE
  5
486
100
AcDbEntity
  8
DRAFT
100
AcDbLine
 62
7
  6
CONTINUOUS
 10
53.975461607
 20
40.1128888656
 11
55.3305106498
 21
38.7578398228
  0
LINE
  5
487
100
AcDbEntity
  8
DRAFT
100
AcDbLine
 62
7
  6
CONTINUOUS
 10
51.1265761787
 20
44.2207189611
 11
52.9311854497
 21
42.4161096901
  0
LINE
  5
488
100
AcDbEntity
  8
DRAFT
100
AcDbLine
 62
7
  6
CONTINUOUS
 10
54.4161096901
 20
40.9311854497
 11
56.2207189611
 21
39.1265761787
  0
LINE
  5
489
100
AcDbEntity
  8
0
100
AcDbLine
 62
7
  6
CONTINUOUS
 10
71.0
 20
49.0
 11
71.0
 21
-49.0
  0
ARC
  5
48A
100
AcDbEntity
  8
DRAFT
100
AcDbCircle
 62
7
  6
CONTINUOUS
 10
-43.0
 20
-31.0
 40
22.0
100
AcDbArc
 50
180.0
 51
270.0
  0
ARC
  5
48B
100
AcDbEntity
  8
RACCORDO
100
AcDbCircle
 62
253
  6
CONTINUOUS
 10
-43.0
 20
-31.0
 40
21.9473301725
100
AcDbArc
 50
180.0
 51
270.0
  0
ARC
  5
48C
100
AcDbEntity
  8
RACCORDO
100
AcDbCircle
 62
253
  6
CONTINUOUS
 10
-43.0
 20
-31.0
 40
20.9474831801
100
AcDbArc
 50
180.0
 51
270.0
  0
ARC
  5
48D
100
AcDbEntity
  8
0
100
AcDbCircle
 62
7
  6
CONTINUOUS
 10
-61.0
 20
-49.0
 40
10.0
100
AcDbArc
 50
180.0
 51
270.0
  0
ARC
  5
48E
100
AcDbEntity
  8
0
100
AcDbCircle
 62
7
  6
CONTINUOUS
 10
-61.0
 20
-49.0
 40
7.0
100
AcDbArc
 50
180.0
 51
270.0
  0
CIRCLE
  5
48F
100
AcDbEntity
  8
0
100
AcDbCircle
 62
7
  6
CONTINUOUS
 10
-50.9999994511
 20
-39.0000005331
 40
1.4999996177
  0
ARC
  5
490
100
AcDbEntity
  8
DRAFT
100
AcDbCircle
 62
7
  6
CONTINUOUS
 10
-49.8052650945
 20
-37.8052650945
 40
1.25
100
AcDbArc
 50
284.1218642896
 51
299.2352479832
  0
ARC
  5
491
100
AcDbEntity
  8
DRAFT
100
AcDbCircle
 62
7
  6
CONTINUOUS
 10
-49.8052650945
 20
-37.8052650945
 40
1.25
100
AcDbArc
 50
150.7647520168
 51
165.905371424
  0
ARC
  5
492
100
AcDbEntity
  8
0
100
AcDbCircle
 62
7
  6
CONTINUOUS
 10
-51.0
 20
-39.0
 40
1.0
100
AcDbArc
 50
307.6774584221
 51
360.0
  0
ARC
  5
493
100
AcDbEntity
  8
0
100
AcDbCircle
 62
7
  6
CONTINUOUS
 10
-51.0
 20
-39.0
 40
1.0
100
AcDbArc
 50
127.6774584221
 51
255.84228485
  0
ARC
  5
494
100
AcDbEntity
  8
RACCORDO
100
AcDbCircle
 62
7
  6
CONTINUOUS
 10
-49.8052650945
 20
-37.8052650945
 40
0.9698583872
100
AcDbArc
 50
138.515403852
 51
311.484596148
  0
ARC
  5
495
100
AcDbEntity
  8
0
100
AcDbCircle
 62
7
  6
CONTINUOUS
 10
-51.1033382594
 20
-39.3617997602
 40
0.8320718012
100
AcDbArc
 50
344.7743839811
 51
349.517352529
  0
ARC
  5
496
100
AcDbEntity
  8
0
100
AcDbCircle
 62
7
  6
CONTINUOUS
 10
-50.8966617406
 20
-38.6382002398
 40
0.8320718013
100
AcDbArc
 50
164.7743839811
 51
169.5173525289
  0
ARC
  5
497
100
AcDbEntity
  8
0
100
AcDbCircle
 62
7
  6
CONTINUOUS
 10
-50.9440476799
 20
-38.8722397848
 40
0.813765055
100
AcDbArc
 50
150.6304078959
 51
164.4190814713
  0
ARC
  5
498
100
AcDbEntity
  8
0
100
AcDbCircle
 62
7
  6
CONTINUOUS
 10
-51.0559523201
 20
-39.1277602152
 40
0.813765055
100
AcDbArc
 50
330.6304078959
 51
344.4190814713
  0
ARC
  5
499
100
AcDbEntity
  8
RACCORDO
100
AcDbCircle
 62
253
  6
CONTINUOUS
 10
-54.8295827138
 20
-34.9827089578
 40
0.5000125554
100
AcDbArc
 50
180.0020532818
 51
269.9896652382
  0
ARC
  5
49A
100
AcDbEntity
  8
RACCORDO
100
AcDbCircle
 62
253
  6
CONTINUOUS
 10
-46.9827089639
 20
-42.8295827188
 40
0.5000125495
100
AcDbArc
 50
180.0103341844
 51
269.9979474463
  0
ARC
  5
49B
100
AcDbEntity
  8
RACCORDO
100
AcDbCircle
 62
253
  6
CONTINUOUS
 10
-49.8052650945
 20
-37.8052650945
 40
0.4698652411
100
AcDbArc
 50
65.3550960774
 51
24.6449039227
  0
ARC
  5
49C
100
AcDbEntity
  8
DRAFT
100
AcDbCircle
 62
7
  6
CONTINUOUS
 10
-45.8050369787
 20
-21.3015776792
 40
53.4463594438
100
AcDbArc
 50
50.1426712723
 51
50.3741639583
  0
ARC
  5
49D
100
AcDbEntity
  8
DRAFT
100
AcDbCircle
 62
7
  6
CONTINUOUS
 10
-42.1036304637
 20
-13.0467358712
 40
43.0136167055
100
AcDbArc
 50
50.1510629914
 51
50.438833
  0
ARC
  5
49E
100
AcDbEntity
  8
DRAFT
100
AcDbCircle
 62
7
  6
CONTINUOUS
 10
-42.2532769746
 20
-3.9066440407
 40
40.9572888392
100
AcDbArc
 50
38.8169756115
 51
39.2369027444
  0
ARC
  5
49F
100
AcDbEntity
  8
DRAFT
100
AcDbCircle
 62
7
  6
CONTINUOUS
 10
-38.4541870266
 20
-4.8545311577
 40
32.6623810329
100
AcDbArc
 50
50.1653715911
 51
50.4686294605
  0
ARC
  5
4A0
100
AcDbEntity
  8
DRAFT
100
AcDbCircle
 62
7
  6
CONTINUOUS
 10
-15.3015776865
 20
-39.8050369699
 40
53.4463594438
100
AcDbArc
 50
39.6258360293
 51
39.8573287154
  0
ARC
  5
4A1
100
AcDbEntity
  8
DRAFT
100
AcDbCircle
 62
7
  6
CONTINUOUS
 10
-7.0467358799
 20
-36.1036304532
 40
43.0136167055
100
AcDbArc
 50
39.5611669819
 51
39.8489369906
  0
ARC
  5
4A2
100
AcDbEntity
  8
DRAFT
100
AcDbCircle
 62
7
  6
CONTINUOUS
 10
-15.3015776753
 20
-2.194963024
 40
53.4463594391
100
AcDbArc
 50
320.1426712718
 51
320.3741639579
  0
ARC
  5
4A3
100
AcDbEntity
  8
DRAFT
100
AcDbCircle
 62
7
  6
CONTINUOUS
 10
-8.1949630152
 20
-21.3015776678
 40
53.446359439
100
AcDbArc
 50
129.6258360545
 51
129.8573287405
  0
ARC
  5
4A4
100
AcDbEntity
  8
DRAFT
100
AcDbCircle
 62
7
  6
CONTINUOUS
 10
-7.0467358739
 20
-5.896369536
 40
43.0136167078
100
AcDbArc
 50
320.1510629933
 51
320.4388330019
  0
ARC
  5
4A5
100
AcDbEntity
  8
DRAFT
100
AcDbCircle
 62
7
  6
CONTINUOUS
 10
-11.8963695275
 20
-13.0467358629
 40
43.0136167048
100
AcDbArc
 50
129.5611670161
 51
129.8489370247
  0
ARC
  5
4A6
100
AcDbEntity
  8
DRAFT
100
AcDbCircle
 62
7
  6
CONTINUOUS
 10
-11.7467230253
 20
-3.9066440408
 40
40.9572888393
100
AcDbArc
 50
140.7630972556
 51
141.1830243885
  0
ARC
  5
4A7
100
AcDbEntity
  8
DRAFT
100
AcDbCircle
 62
7
  6
CONTINUOUS
 10
-15.5458129657
 20
-4.8545311519
 40
32.6623810333
100
AcDbArc
 50
129.5313705563
 51
129.8346284257
  0
ARC
  5
4A8
100
AcDbEntity
  8
DRAFT
100
AcDbCircle
 62
7
  6
CONTINUOUS
 10
-69.3015776865
 20
2.1949630302
 40
53.4463594438
100
AcDbArc
 50
39.6258360293
 51
39.8573287154
  0
ARC
  5
4A9
100
AcDbEntity
  8
DRAFT
100
AcDbCircle
 62
7
  6
CONTINUOUS
 10
-61.0467358795
 20
5.8963695471
 40
43.013616705
100
AcDbArc
 50
39.5611669819
 51
39.8489369906
  0
ARC
  5
4AA
100
AcDbEntity
  8
DRAFT
100
AcDbCircle
 62
7
  6
CONTINUOUS
 10
-51.9066440322
 20
5.7467230171
 40
40.9572888403
100
AcDbArc
 50
50.763097272
 51
51.1830244049
  0
ARC
  5
4AB
100
AcDbEntity
  8
DRAFT
100
AcDbCircle
 62
7
  6
CONTINUOUS
 10
-39.617922127
 20
0.5477002401
 40
33.6243173017
100
AcDbArc
 50
38.5825929391
 51
39.0917801805
  0
ARC
  5
4AC
100
AcDbEntity
  8
DRAFT
100
AcDbCircle
 62
7
  6
CONTINUOUS
 10
-47.4522997407
 20
8.3820778583
 40
33.6243173011
100
AcDbArc
 50
50.9082198605
 51
51.417407102
  0
ARC
  5
4AD
100
AcDbEntity
  8
DRAFT
100
AcDbCircle
 62
7
  6
CONTINUOUS
 10
-52.8545311604
 20
9.5458129814
 40
32.6623810299
100
AcDbArc
 50
39.5313705257
 51
39.8346283951
  0
ARC
  5
4AE
100
AcDbEntity
  8
DRAFT
100
AcDbCircle
 62
7
  6
CONTINUOUS
 10
-42.9614187336
 20
11.0610401007
 40
26.23437839
100
AcDbArc
 50
51.1359167255
 51
51.6551316263
  0
ARC
  5
4AF
100
AcDbEntity
  8
DRAFT
100
AcDbCircle
 62
7
  6
CONTINUOUS
 10
-36.9389598824
 20
5.038581246
 40
26.2343783894
100
AcDbArc
 50
38.3448684315
 51
38.8640833323
  0
ARC
  5
4B0
100
AcDbEntity
  8
DRAFT
100
AcDbCircle
 62
7
  6
CONTINUOUS
 10
-42.9614187333
 20
30.9389598989
 40
26.2343783895
100
AcDbArc
 50
308.3448683737
 51
308.8640832745
  0
ARC
  5
4B1
100
AcDbEntity
  8
DRAFT
100
AcDbCircle
 62
7
  6
CONTINUOUS
 10
-43.0
 20
31.0
 40
22.0
100
AcDbArc
 50
90.0
 51
180.0
  0
ARC
  5
4B2
100
AcDbEntity
  8
RACCORDO
100
AcDbCircle
 62
253
  6
CONTINUOUS
 10
-43.0
 20
31.0
 40
21.9473301725
100
AcDbArc
 50
90.0
 51
180.0
  0
ARC
  5
4B3
100
AcDbEntity
  8
RACCORDO
100
AcDbCircle
 62
253
  6
CONTINUOUS
 10
-43.0
 20
31.0
 40
20.9474831801
100
AcDbArc
 50
90.0
 51
180.0
  0
ARC
  5
4B4
100
AcDbEntity
  8
DRAFT
100
AcDbCircle
 62
7
  6
CONTINUOUS
 10
-69.3015776795
 20
39.8050369796
 40
53.4463594447
100
AcDbArc
 50
320.1426712718
 51
320.3741639579
  0
ARC
  5
4B5
100
AcDbEntity
  8
DRAFT
100
AcDbCircle
 62
7
  6
CONTINUOUS
 10
-45.8050369784
 20
63.3015776788
 40
53.4463594433
100
AcDbArc
 50
309.6258360417
 51
309.8573287277
  0
ARC
  5
4B6
100
AcDbEntity
  8
DRAFT
100
AcDbCircle
 62
7
  6
CONTINUOUS
 10
-61.0467358734
 20
36.1036304635
 40
43.0136167071
100
AcDbArc
 50
320.1510629933
 51
320.4388330019
  0
ARC
  5
4B7
100
AcDbEntity
  8
DRAFT
100
AcDbCircle
 62
7
  6
CONTINUOUS
 10
-42.1036304636
 20
55.0467358711
 40
43.0136167054
100
AcDbArc
 50
309.561167
 51
309.8489370086
  0
ARC
  5
4B8
100
AcDbEntity
  8
DRAFT
100
AcDbCircle
 62
7
  6
CONTINUOUS
 10
-42.2532769657
 20
45.9066440534
 40
40.9572888402
100
AcDbArc
 50
320.7630972339
 51
321.1830243667
  0
ARC
  5
4B9
100
AcDbEntity
  8
DRAFT
100
AcDbCircle
 62
7
  6
CONTINUOUS
 10
-51.9066440317
 20
36.2532769822
 40
40.9572888394
100
AcDbArc
 50
308.8169755951
 51
309.236902728
  0
ARC
  5
4BA
100
AcDbEntity
  8
DRAFT
100
AcDbCircle
 62
7
  6
CONTINUOUS
 10
-47.4522997411
 20
33.6179221421
 40
33.6243173018
100
AcDbArc
 50
308.5825928981
 51
309.0917801394
  0
ARC
  5
4BB
100
AcDbEntity
  8
DRAFT
100
AcDbCircle
 62
7
  6
CONTINUOUS
 10
-39.6179221173
 20
41.4522997714
 40
33.6243173014
100
AcDbArc
 50
320.9082197938
 51
321.4174070352
  0
ARC
  5
4BC
100
AcDbEntity
  8
DRAFT
100
AcDbCircle
 62
7
  6
CONTINUOUS
 10
-52.8545311562
 20
32.4541870276
 40
32.6623810324
100
AcDbArc
 50
320.165371588
 51
320.4686294574
  0
ARC
  5
4BD
100
AcDbEntity
  8
DRAFT
100
AcDbCircle
 62
7
  6
CONTINUOUS
 10
-38.4541870264
 20
46.8545311574
 40
32.6623810325
100
AcDbArc
 50
309.5313705395
 51
309.8346284089
  0
ARC
  5
4BE
100
AcDbEntity
  8
DRAFT
100
AcDbCircle
 62
7
  6
CONTINUOUS
 10
-36.9389598751
 20
36.9614187632
 40
26.2343783894
100
AcDbArc
 50
321.1359166421
 51
321.6551315429
  0
ARC
  5
4BF
100
AcDbEntity
  8
0
100
AcDbCircle
 62
7
  6
CONTINUOUS
 10
-61.0
 20
49.0
 40
10.0
100
AcDbArc
 50
90.0
 51
180.0
  0
ARC
  5
4C0
100
AcDbEntity
  8
0
100
AcDbCircle
 62
7
  6
CONTINUOUS
 10
-61.0
 20
49.0
 40
7.0
100
AcDbArc
 50
90.0
 51
180.0
  0
CIRCLE
  5
4C1
100
AcDbEntity
  8
0
100
AcDbCircle
 62
7
  6
CONTINUOUS
 10
-50.9999994511
 20
38.9999994669
 40
1.4999996177
  0
ARC
  5
4C2
100
AcDbEntity
  8
DRAFT
100
AcDbCircle
 62
7
  6
CONTINUOUS
 10
-49.8052650945
 20
37.8052650945
 40
1.25
100
AcDbArc
 50
194.1023265643
 51
209.2352479832
  0
ARC
  5
4C3
100
AcDbEntity
  8
DRAFT
100
AcDbCircle
 62
7
  6
CONTINUOUS
 10
-49.8052650945
 20
37.8052650945
 40
1.25
100
AcDbArc
 50
60.7647520168
 51
75.9035878702
  0
ARC
  5
4C4
100
AcDbEntity
  8
0
100
AcDbCircle
 62
7
  6
CONTINUOUS
 10
-51.0
 20
39.0
 40
1.0
100
AcDbArc
 50
0.0
 51
75.84228485
  0
ARC
  5
4C5
100
AcDbEntity
  8
0
100
AcDbCircle
 62
7
  6
CONTINUOUS
 10
-51.0
 20
39.0
 40
1.0
100
AcDbArc
 50
127.6774584221
 51
255.84228485
  0
ARC
  5
4C6
100
AcDbEntity
  8
RACCORDO
100
AcDbCircle
 62
7
  6
CONTINUOUS
 10
-49.8052650945
 20
37.8052650945
 40
0.9698583872
100
AcDbArc
 50
48.515403852
 51
221.484596148
  0
ARC
  5
4C7
100
AcDbEntity
  8
0
100
AcDbCircle
 62
7
  6
CONTINUOUS
 10
-50.8966617406
 20
39.3617997602
 40
0.8320718012
100
AcDbArc
 50
164.7743839811
 51
169.5173525289
  0
ARC
  5
4C8
100
AcDbEntity
  8
0
100
AcDbCircle
 62
7
  6
CONTINUOUS
 10
-50.9440476799
 20
39.1277602152
 40
0.813765055
100
AcDbArc
 50
150.6304078959
 51
164.4190814713
  0
ARC
  5
4C9
100
AcDbEntity
  8
RACCORDO
100
AcDbCircle
 62
253
  6
CONTINUOUS
 10
-46.9827085738
 20
42.8295823297
 40
0.5000131482
100
AcDbArc
 50
90.0020972796
 51
179.9896212401
  0
ARC
  5
4CA
100
AcDbEntity
  8
RACCORDO
100
AcDbCircle
 62
253
  6
CONTINUOUS
 10
-54.8295826902
 20
34.9827089925
 40
0.5000125495
100
AcDbArc
 50
90.0103374624
 51
179.9979507244
  0
ARC
  5
4CB
100
AcDbEntity
  8
RACCORDO
100
AcDbCircle
 62
253
  6
CONTINUOUS
 10
-49.8052650945
 20
37.8052650945
 40
0.4698652411
100
AcDbArc
 50
335.3550960774
 51
294.6449039227
  0
ARC
  5
4CC
100
AcDbEntity
  8
DRAFT
100
AcDbCircle
 62
7
  6
CONTINUOUS
 10
-14.382077873
 20
0.5477002402
 40
33.6243173017
100
AcDbArc
 50
140.9082198195
 51
141.4174070609
  0
ARC
  5
4CD
100
AcDbEntity
  8
DRAFT
100
AcDbCircle
 62
7
  6
CONTINUOUS
 10
-17.0610401173
 20
5.0385812457
 40
26.2343783899
100
AcDbArc
 50
141.1359166677
 51
141.6551315685
  0
CIRCLE
  5
4CE
100
AcDbEntity
  8
DRAFT
100
AcDbCircle
 62
7
  6
CONTINUOUS
 10
-27.0
 20
21.0
 40
16.7115923769
  0
ARC
  5
4CF
100
AcDbEntity
  8
DRAFT
100
AcDbCircle
 62
7
  6
CONTINUOUS
 10
-27.0
 20
21.0
 40
16.6763269807
100
AcDbArc
 50
357.3645150851
 51
2.6354849149
  0
ARC
  5
4D0
100
AcDbEntity
  8
DRAFT
100
AcDbCircle
 62
7
  6
CONTINUOUS
 10
-27.0
 20
21.0
 40
16.6763269807
100
AcDbArc
 50
87.3645150851
 51
92.6354849149
  0
ARC
  5
4D1
100
AcDbEntity
  8
DRAFT
100
AcDbCircle
 62
7
  6
CONTINUOUS
 10
-27.0
 20
21.0
 40
16.6763269807
100
AcDbArc
 50
177.3645150851
 51
182.6354849149
  0
ARC
  5
4D2
100
AcDbEntity
  8
DRAFT
100
AcDbCircle
 62
7
  6
CONTINUOUS
 10
-27.0
 20
21.0
 40
16.6763269807
100
AcDbArc
 50
267.3645150851
 51
272.6354849149
  0
ARC
  5
4D3
100
AcDbEntity
  8
DRAFT
100
AcDbCircle
 62
7
  6
CONTINUOUS
 10
-27.0
 20
21.0
 40
16.5
100
AcDbArc
 50
273.4746007931
 51
356.5253992069
  0
ARC
  5
4D4
100
AcDbEntity
  8
DRAFT
100
AcDbCircle
 62
7
  6
CONTINUOUS
 10
-27.0
 20
21.0
 40
16.5
100
AcDbArc
 50
3.4746007931
 51
86.5253992069
  0
ARC
  5
4D5
100
AcDbEntity
  8
DRAFT
100
AcDbCircle
 62
7
  6
CONTINUOUS
 10
-27.0
 20
21.0
 40
16.5
100
AcDbArc
 50
183.4746007931
 51
266.5253992069
  0
ARC
  5
4D6
100
AcDbEntity
  8
DRAFT
100
AcDbCircle
 62
7
  6
CONTINUOUS
 10
-27.0
 20
21.0
 40
16.5
100
AcDbArc
 50
93.4746007931
 51
176.5253992069
  0
ARC
  5
4D7
100
AcDbEntity
  8
DRAFT
100
AcDbCircle
 62
7
  6
CONTINUOUS
 10
-27.0
 20
21.0
 40
15.5
100
AcDbArc
 50
274.7141877419
 51
355.2858122581
  0
ARC
  5
4D8
100
AcDbEntity
  8
DRAFT
100
AcDbCircle
 62
7
  6
CONTINUOUS
 10
-27.0
 20
21.0
 40
15.5
100
AcDbArc
 50
4.7141877419
 51
85.2858122581
  0
ARC
  5
4D9
100
AcDbEntity
  8
DRAFT
100
AcDbCircle
 62
7
  6
CONTINUOUS
 10
-27.0
 20
21.0
 40
15.5
100
AcDbArc
 50
184.7141877419
 51
265.2858122581
  0
ARC
  5
4DA
100
AcDbEntity
  8
DRAFT
100
AcDbCircle
 62
7
  6
CONTINUOUS
 10
-27.0
 20
21.0
 40
15.5
100
AcDbArc
 50
94.7141877419
 51
175.2858122581
  0
ARC
  5
4DB
100
AcDbEntity
  8
DRAFT
100
AcDbCircle
 62
7
  6
CONTINUOUS
 10
-27.0
 20
21.0
 40
15.3236730193
100
AcDbArc
 50
274.2507573531
 51
355.7492426469
  0
ARC
  5
4DC
100
AcDbEntity
  8
DRAFT
100
AcDbCircle
 62
7
  6
CONTINUOUS
 10
-27.0
 20
21.0
 40
15.3236730193
100
AcDbArc
 50
4.2507573531
 51
85.7492426469
  0
ARC
  5
4DD
100
AcDbEntity
  8
DRAFT
100
AcDbCircle
 62
7
  6
CONTINUOUS
 10
-27.0
 20
21.0
 40
15.3236730193
100
AcDbArc
 50
94.2507573531
 51
175.7492426469
  0
ARC
  5
4DE
100
AcDbEntity
  8
DRAFT
100
AcDbCircle
 62
7
  6
CONTINUOUS
 10
-27.0
 20
21.0
 40
15.3236730193
100
AcDbArc
 50
184.2507573531
 51
265.7492426469
  0
ARC
  5
4DF
100
AcDbEntity
  8
DRAFT
100
AcDbCircle
 62
7
  6
CONTINUOUS
 10
-27.0
 20
21.0
 40
13.6763269807
100
AcDbArc
 50
92.1674546178
 51
177.8325453822
  0
ARC
  5
4E0
100
AcDbEntity
  8
DRAFT
100
AcDbCircle
 62
7
  6
CONTINUOUS
 10
-27.0
 20
21.0
 40
13.6763269807
100
AcDbArc
 50
182.1674546178
 51
267.8325453822
  0
ARC
  5
4E1
100
AcDbEntity
  8
DRAFT
100
AcDbCircle
 62
7
  6
CONTINUOUS
 10
-27.0
 20
21.0
 40
13.6763269807
100
AcDbArc
 50
2.1674546178
 51
87.8325453822
  0
ARC
  5
4E2
100
AcDbEntity
  8
DRAFT
100
AcDbCircle
 62
7
  6
CONTINUOUS
 10
-27.0
 20
21.0
 40
13.6763269807
100
AcDbArc
 50
272.1674546178
 51
357.8325453822
  0
ARC
  5
4E3
100
AcDbEntity
  8
DRAFT
100
AcDbCircle
 62
7
  6
CONTINUOUS
 10
-27.0
 20
21.0
 40
13.5
100
AcDbArc
 50
273.1847385367
 51
356.8152614633
  0
ARC
  5
4E4
100
AcDbEntity
  8
DRAFT
100
AcDbCircle
 62
7
  6
CONTINUOUS
 10
-27.0
 20
21.0
 40
13.5
100
AcDbArc
 50
3.1847385367
 51
86.8152614633
  0
ARC
  5
4E5
100
AcDbEntity
  8
DRAFT
100
AcDbCircle
 62
7
  6
CONTINUOUS
 10
-27.0
 20
21.0
 40
13.5
100
AcDbArc
 50
183.1847385367
 51
266.8152614633
  0
ARC
  5
4E6
100
AcDbEntity
  8
DRAFT
100
AcDbCircle
 62
7
  6
CONTINUOUS
 10
-27.0
 20
21.0
 40
13.5
100
AcDbArc
 50
93.1847385367
 51
176.8152614633
  0
ARC
  5
4E7
100
AcDbEntity
  8
DRAFT
100
AcDbCircle
 62
7
  6
CONTINUOUS
 10
-27.0
 20
21.0
 40
12.5
100
AcDbArc
 50
274.6971495355
 51
355.3028504645
  0
ARC
  5
4E8
100
AcDbEntity
  8
DRAFT
100
AcDbCircle
 62
7
  6
CONTINUOUS
 10
-27.0
 20
21.0
 40
12.5
100
AcDbArc
 50
4.6971495355
 51
85.3028504645
  0
ARC
  5
4E9
100
AcDbEntity
  8
DRAFT
100
AcDbCircle
 62
7
  6
CONTINUOUS
 10
-27.0
 20
21.0
 40
12.5
100
AcDbArc
 50
184.6971495355
 51
265.3028504645
  0
ARC
  5
4EA
100
AcDbEntity
  8
DRAFT
100
AcDbCircle
 62
7
  6
CONTINUOUS
 10
-27.0
 20
21.0
 40
12.5
100
AcDbArc
 50
94.6971495355
 51
175.3028504645
  0
ARC
  5
4EB
100
AcDbEntity
  8
DRAFT
100
AcDbCircle
 62
7
  6
CONTINUOUS
 10
-27.0
 20
21.0
 40
12.3236730193
100
AcDbArc
 50
94.1209209803
 51
175.8790790197
  0
ARC
  5
4EC
100
AcDbEntity
  8
DRAFT
100
AcDbCircle
 62
7
  6
CONTINUOUS
 10
-27.0
 20
21.0
 40
12.3236730193
100
AcDbArc
 50
184.1209209803
 51
265.8790790197
  0
ARC
  5
4ED
100
AcDbEntity
  8
DRAFT
100
AcDbCircle
 62
7
  6
CONTINUOUS
 10
-27.0
 20
21.0
 40
12.3236730193
100
AcDbArc
 50
4.1209209803
 51
85.8790790197
  0
ARC
  5
4EE
100
AcDbEntity
  8
DRAFT
100
AcDbCircle
 62
7
  6
CONTINUOUS
 10
-27.0
 20
21.0
 40
12.3236730193
100
AcDbArc
 50
274.1209209803
 51
355.8790790197
  0
CIRCLE
  5
4EF
100
AcDbEntity
  8
DRAFT
100
AcDbCircle
 62
7
  6
CONTINUOUS
 10
-27.0
 20
21.0
 40
10.6763269807
  0
ARC
  5
4F0
100
AcDbEntity
  8
DRAFT
100
AcDbCircle
 62
7
  6
CONTINUOUS
 10
-27.0
 20
21.0
 40
10.6410615846
100
AcDbArc
 50
358.3078846415
 51
1.6921153585
  0
ARC
  5
4F1
100
AcDbEntity
  8
DRAFT
100
AcDbCircle
 62
7
  6
CONTINUOUS
 10
-27.0
 20
21.0
 40
10.6410615846
100
AcDbArc
 50
88.3078846415
 51
91.6921153585
  0
ARC
  5
4F2
100
AcDbEntity
  8
DRAFT
100
AcDbCircle
 62
7
  6
CONTINUOUS
 10
-27.0
 20
21.0
 40
10.6410615846
100
AcDbArc
 50
178.3078846415
 51
181.6921153585
  0
ARC
  5
4F3
100
AcDbEntity
  8
DRAFT
100
AcDbCircle
 62
7
  6
CONTINUOUS
 10
-27.0
 20
21.0
 40
10.6410615846
100
AcDbArc
 50
268.3078846415
 51
271.6921153585
  0
ARC
  5
4F4
100
AcDbEntity
  8
DRAFT
100
AcDbCircle
 62
7
  6
CONTINUOUS
 10
-27.0
 20
21.0
 40
10.5
100
AcDbArc
 50
272.7294026368
 51
357.2705973632
  0
ARC
  5
4F5
100
AcDbEntity
  8
DRAFT
100
AcDbCircle
 62
7
  6
CONTINUOUS
 10
-27.0
 20
21.0
 40
10.5
100
AcDbArc
 50
2.7294026368
 51
87.2705973632
  0
ARC
  5
4F6
100
AcDbEntity
  8
DRAFT
100
AcDbCircle
 62
7
  6
CONTINUOUS
 10
-27.0
 20
21.0
 40
10.5
100
AcDbArc
 50
182.7294026368
 51
267.2705973632
  0
ARC
  5
4F7
100
AcDbEntity
  8
DRAFT
100
AcDbCircle
 62
7
  6
CONTINUOUS
 10
-27.0
 20
21.0
 40
10.5
100
AcDbArc
 50
92.7294026368
 51
177.2705973632
  0
ARC
  5
4F8
100
AcDbEntity
  8
DRAFT
100
AcDbCircle
 62
7
  6
CONTINUOUS
 10
-27.0
 20
21.0
 40
9.5
100
AcDbArc
 50
274.668453194
 51
355.331546806
  0
ARC
  5
4F9
100
AcDbEntity
  8
DRAFT
100
AcDbCircle
 62
7
  6
CONTINUOUS
 10
-27.0
 20
21.0
 40
9.5
100
AcDbArc
 50
4.668453194
 51
85.331546806
  0
ARC
  5
4FA
100
AcDbEntity
  8
DRAFT
100
AcDbCircle
 62
7
  6
CONTINUOUS
 10
-27.0
 20
21.0
 40
9.5
100
AcDbArc
 50
184.668453194
 51
265.331546806
  0
ARC
  5
4FB
100
AcDbEntity
  8
DRAFT
100
AcDbCircle
 62
7
  6
CONTINUOUS
 10
-27.0
 20
21.0
 40
9.5
100
AcDbArc
 50
94.668453194
 51
175.331546806
  0
ARC
  5
4FC
100
AcDbEntity
  8
DRAFT
100
AcDbCircle
 62
7
  6
CONTINUOUS
 10
-27.0
 20
21.0
 40
9.3589384154
100
AcDbArc
 50
274.0611725955
 51
355.9388274045
  0
ARC
  5
4FD
100
AcDbEntity
  8
DRAFT
100
AcDbCircle
 62
7
  6
CONTINUOUS
 10
-27.0
 20
21.0
 40
9.3589384154
100
AcDbArc
 50
4.0611725955
 51
85.9388274045
  0
ARC
  5
4FE
100
AcDbEntity
  8
DRAFT
100
AcDbCircle
 62
7
  6
CONTINUOUS
 10
-27.0
 20
21.0
 40
9.3589384154
100
AcDbArc
 50
94.0611725955
 51
175.9388274045
  0
ARC
  5
4FF
100
AcDbEntity
  8
DRAFT
100
AcDbCircle
 62
7
  6
CONTINUOUS
 10
-27.0
 20
21.0
 40
9.3589384154
100
AcDbArc
 50
184.0611725955
 51
265.9388274045
  0
ARC
  5
500
100
AcDbEntity
  8
DRAFT
100
AcDbCircle
 62
7
  6
CONTINUOUS
 10
-2.0933559561
 20
5.7467230275
 40
40.9572888395
100
AcDbArc
 50
128.8169756169
 51
129.2369027498
  0
ARC
  5
501
100
AcDbEntity
  8
DRAFT
100
AcDbCircle
 62
7
  6
CONTINUOUS
 10
-6.547700247
 20
8.382077867
 40
33.6243173021
100
AcDbArc
 50
128.5825929237
 51
129.0917801651
  0
ARC
  5
502
100
AcDbEntity
  8
DRAFT
100
AcDbCircle
 62
7
  6
CONTINUOUS
 10
-1.1454688388
 20
9.5458129807
 40
32.6623810309
100
AcDbArc
 50
140.1653716049
 51
140.4686294743
  0
ARC
  5
503
100
AcDbEntity
  8
DRAFT
100
AcDbCircle
 62
7
  6
CONTINUOUS
 10
-11.0385812576
 20
11.0610401085
 40
26.2343783893
100
AcDbArc
 50
128.3448683993
 51
128.8640833001
  0
ARC
  5
504
100
AcDbEntity
  8
DRAFT
100
AcDbCircle
 62
7
  6
CONTINUOUS
 10
-11.0385812575
 20
30.9389598916
 40
26.2343783895
100
AcDbArc
 50
231.1359166999
 51
231.6551316007
  0
ARC
  5
505
100
AcDbEntity
  8
DRAFT
100
AcDbCircle
 62
7
  6
CONTINUOUS
 10
-8.1949630138
 20
63.3015776695
 40
53.4463594412
100
AcDbArc
 50
230.1426712595
 51
230.3741639455
  0
ARC
  5
506
100
AcDbEntity
  8
DRAFT
100
AcDbCircle
 62
7
  6
CONTINUOUS
 10
-11.8963695271
 20
55.0467358634
 40
43.0136167054
100
AcDbArc
 50
230.1510629753
 51
230.4388329839
  0
ARC
  5
507
100
AcDbEntity
  8
DRAFT
100
AcDbCircle
 62
7
  6
CONTINUOUS
 10
-11.7467230338
 20
45.9066440538
 40
40.9572888409
100
AcDbArc
 50
218.8169756333
 51
219.2369027661
  0
ARC
  5
508
100
AcDbEntity
  8
DRAFT
100
AcDbCircle
 62
7
  6
CONTINUOUS
 10
-2.0933559562
 20
36.2532769725
 40
40.9572888394
100
AcDbArc
 50
230.7630972502
 51
231.1830243831
  0
ARC
  5
509
100
AcDbEntity
  8
DRAFT
100
AcDbCircle
 62
7
  6
CONTINUOUS
 10
-14.3820778824
 20
41.4522997716
 40
33.6243173017
100
AcDbArc
 50
218.5825929648
 51
219.0917802062
  0
ARC
  5
50A
100
AcDbEntity
  8
DRAFT
100
AcDbCircle
 62
7
  6
CONTINUOUS
 10
-6.5477002474
 20
33.6179221325
 40
33.6243173014
100
AcDbArc
 50
230.9082198349
 51
231.4174070763
  0
ARC
  5
50B
100
AcDbEntity
  8
DRAFT
100
AcDbCircle
 62
7
  6
CONTINUOUS
 10
-1.1454688444
 20
32.4541870272
 40
32.6623810317
100
AcDbArc
 50
219.5313705426
 51
219.834628412
  0
ARC
  5
50C
100
AcDbEntity
  8
DRAFT
100
AcDbCircle
 62
7
  6
CONTINUOUS
 10
-15.5458129679
 20
46.8545311494
 40
32.66238103
100
AcDbArc
 50
230.1653715743
 51
230.4686294437
  0
ARC
  5
50D
100
AcDbEntity
  8
DRAFT
100
AcDbCircle
 62
7
  6
CONTINUOUS
 10
-17.0610401245
 20
36.9614187634
 40
26.2343783899
100
AcDbArc
 50
218.3448684571
 51
218.8640833579
  0
ARC
  5
50E
100
AcDbEntity
  8
DRAFT
100
AcDbCircle
 62
7
  6
CONTINUOUS
 10
8.1949630209
 20
-63.3015776796
 40
53.4463594444
100
AcDbArc
 50
50.1426712723
 51
50.3741639583
  0
ARC
  5
50F
100
AcDbEntity
  8
DRAFT
100
AcDbCircle
 62
7
  6
CONTINUOUS
 10
11.896369536
 20
-55.0467358716
 40
43.013616706
100
AcDbArc
 50
50.1510629914
 51
50.438833
  0
ARC
  5
510
100
AcDbEntity
  8
DRAFT
100
AcDbCircle
 62
7
  6
CONTINUOUS
 10
11.746723025
 20
-45.906644041
 40
40.9572888396
100
AcDbArc
 50
38.8169756115
 51
39.2369027444
  0
ARC
  5
511
100
AcDbEntity
  8
DRAFT
100
AcDbCircle
 62
7
  6
CONTINUOUS
 10
2.0933559683
 20
-36.2532769822
 40
40.9572888394
100
AcDbArc
 50
50.763097272
 51
51.1830244049
  0
ARC
  5
512
100
AcDbEntity
  8
DRAFT
100
AcDbCircle
 62
7
  6
CONTINUOUS
 10
14.382077873
 20
-41.4522997598
 40
33.6243173017
100
AcDbArc
 50
38.5825929391
 51
39.0917801805
  0
ARC
  5
513
100
AcDbEntity
  8
DRAFT
100
AcDbCircle
 62
7
  6
CONTINUOUS
 10
6.5477002588
 20
-33.6179221422
 40
33.6243173019
100
AcDbArc
 50
50.9082198606
 51
51.4174071019
  0
ARC
  5
514
100
AcDbEntity
  8
DRAFT
100
AcDbCircle
 62
7
  6
CONTINUOUS
 10
15.5458129739
 20
-46.854531157
 40
32.662381032
100
AcDbArc
 50
50.1653715911
 51
50.4686294605
  0
ARC
  5
515
100
AcDbEntity
  8
DRAFT
100
AcDbCircle
 62
7
  6
CONTINUOUS
 10
1.1454688384
 20
-32.4541870196
 40
32.6623810314
100
AcDbArc
 50
39.5313705257
 51
39.8346283951
  0
ARC
  5
516
100
AcDbEntity
  8
DRAFT
100
AcDbCircle
 62
7
  6
CONTINUOUS
 10
17.0610401177
 20
-36.9614187539
 40
26.2343783892
100
AcDbArc
 50
38.3448684315
 51
38.8640833324
  0
ARC
  5
517
100
AcDbEntity
  8
DRAFT
100
AcDbCircle
 62
7
  6
CONTINUOUS
 10
11.0385812665
 20
-30.9389598991
 40
26.2343783897
100
AcDbArc
 50
51.1359167255
 51
51.6551316263
  0
ARC
  5
518
100
AcDbEntity
  8
ASSI
100
AcDbCircle
 62
7
  6
CONTINUOUS
 10
-0.0
 20
-23.5
 40
16.0
100
AcDbArc
 50
35.278982146
 51
39.3055484535
  0
ARC
  5
519
100
AcDbEntity
  8
ASSI
100
AcDbCircle
 62
7
  6
CONTINUOUS
 10
-0.0
 20
-23.5
 40
16.0
100
AcDbArc
 50
20.9930488593
 51
26.4003305563
  0
ARC
  5
51A
100
AcDbEntity
  8
ASSI
100
AcDbCircle
 62
7
  6
CONTINUOUS
 10
-0.0
 20
-23.5
 40
15.9
100
AcDbArc
 50
35.0706799252
 51
39.152431681
  0
ARC
  5
51B
100
AcDbEntity
  8
ASSI
100
AcDbCircle
 62
7
  6
CONTINUOUS
 10
-0.0
 20
-23.5
 40
15.9
100
AcDbArc
 50
20.4731693942
 51
26.0453656692
  0
ARC
  5
51C
100
AcDbEntity
  8
DRAFT
100
AcDbCircle
 62
7
  6
CONTINUOUS
 10
2.0933559681
 20
-5.7467230175
 40
40.9572888397
100
AcDbArc
 50
308.8169755951
 51
309.236902728
  0
ARC
  5
51D
100
AcDbEntity
  8
DRAFT
100
AcDbCircle
 62
7
  6
CONTINUOUS
 10
6.5477002593
 20
-8.3820778583
 40
33.6243173012
100
AcDbArc
 50
308.582592898
 51
309.0917801395
  0
ARC
  5
51E
100
AcDbEntity
  8
DRAFT
100
AcDbCircle
 62
7
  6
CONTINUOUS
 10
1.1454688432
 20
-9.5458129718
 40
32.6623810332
100
AcDbArc
 50
320.165371588
 51
320.4686294574
  0
ARC
  5
51F
100
AcDbEntity
  8
DRAFT
100
AcDbCircle
 62
7
  6
CONTINUOUS
 10
11.0385812666
 20
-11.061040101
 40
26.2343783896
100
AcDbArc
 50
308.3448683737
 51
308.8640832745
  0
CIRCLE
  5
520
100
AcDbEntity
  8
DRAFT
100
AcDbCircle
 62
7
  6
CONTINUOUS
 10
27.0
 20
-21.0
 40
16.7115923769
  0
ARC
  5
521
100
AcDbEntity
  8
DRAFT
100
AcDbCircle
 62
7
  6
CONTINUOUS
 10
27.0
 20
-21.0
 40
16.6763269807
100
AcDbArc
 50
177.3645150851
 51
182.6354849149
  0
ARC
  5
522
100
AcDbEntity
  8
DRAFT
100
AcDbCircle
 62
7
  6
CONTINUOUS
 10
27.0
 20
-21.0
 40
16.6763269807
100
AcDbArc
 50
267.3645150851
 51
272.6354849149
  0
ARC
  5
523
100
AcDbEntity
  8
DRAFT
100
AcDbCircle
 62
7
  6
CONTINUOUS
 10
27.0
 20
-21.0
 40
16.6763269807
100
AcDbArc
 50
357.3645150851
 51
2.6354849149
  0
ARC
  5
524
100
AcDbEntity
  8
DRAFT
100
AcDbCircle
 62
7
  6
CONTINUOUS
 10
27.0
 20
-21.0
 40
16.6763269807
100
AcDbArc
 50
87.3645150851
 51
92.6354849149
  0
ARC
  5
525
100
AcDbEntity
  8
DRAFT
100
AcDbCircle
 62
7
  6
CONTINUOUS
 10
27.0
 20
-21.0
 40
16.5
100
AcDbArc
 50
93.4746007931
 51
176.5253992069
  0
ARC
  5
526
100
AcDbEntity
  8
DRAFT
100
AcDbCircle
 62
7
  6
CONTINUOUS
 10
27.0
 20
-21.0
 40
16.5
100
AcDbArc
 50
183.4746007931
 51
266.5253992069
  0
ARC
  5
527
100
AcDbEntity
  8
DRAFT
100
AcDbCircle
 62
7
  6
CONTINUOUS
 10
27.0
 20
-21.0
 40
16.5
100
AcDbArc
 50
3.4746007931
 51
86.5253992069
  0
ARC
  5
528
100
AcDbEntity
  8
DRAFT
100
AcDbCircle
 62
7
  6
CONTINUOUS
 10
27.0
 20
-21.0
 40
16.5
100
AcDbArc
 50
273.4746007931
 51
356.5253992069
  0
ARC
  5
529
100
AcDbEntity
  8
DRAFT
100
AcDbCircle
 62
7
  6
CONTINUOUS
 10
27.0
 20
-21.0
 40
15.5
100
AcDbArc
 50
94.7141877419
 51
175.2858122581
  0
ARC
  5
52A
100
AcDbEntity
  8
DRAFT
100
AcDbCircle
 62
7
  6
CONTINUOUS
 10
27.0
 20
-21.0
 40
15.5
100
AcDbArc
 50
184.7141877419
 51
265.2858122581
  0
ARC
  5
52B
100
AcDbEntity
  8
DRAFT
100
AcDbCircle
 62
7
  6
CONTINUOUS
 10
27.0
 20
-21.0
 40
15.5
100
AcDbArc
 50
4.7141877419
 51
85.2858122581
  0
ARC
  5
52C
100
AcDbEntity
  8
DRAFT
100
AcDbCircle
 62
7
  6
CONTINUOUS
 10
27.0
 20
-21.0
 40
15.5
100
AcDbArc
 50
274.7141877419
 51
355.2858122581
  0
ARC
  5
52D
100
AcDbEntity
  8
DRAFT
100
AcDbCircle
 62
7
  6
CONTINUOUS
 10
27.0
 20
-21.0
 40
15.3236730193
100
AcDbArc
 50
94.2507573531
 51
175.7492426469
  0
ARC
  5
52E
100
AcDbEntity
  8
DRAFT
100
AcDbCircle
 62
7
  6
CONTINUOUS
 10
27.0
 20
-21.0
 40
15.3236730193
100
AcDbArc
 50
184.2507573531
 51
265.7492426469
  0
ARC
  5
52F
100
AcDbEntity
  8
DRAFT
100
AcDbCircle
 62
7
  6
CONTINUOUS
 10
27.0
 20
-21.0
 40
15.3236730193
100
AcDbArc
 50
274.2507573531
 51
355.7492426469
  0
ARC
  5
530
100
AcDbEntity
  8
DRAFT
100
AcDbCircle
 62
7
  6
CONTINUOUS
 10
27.0
 20
-21.0
 40
15.3236730193
100
AcDbArc
 50
4.2507573531
 51
85.7492426469
  0
ARC
  5
531
100
AcDbEntity
  8
DRAFT
100
AcDbCircle
 62
7
  6
CONTINUOUS
 10
27.0
 20
-21.0
 40
13.6763269807
100
AcDbArc
 50
272.1674546178
 51
357.8325453822
  0
ARC
  5
532
100
AcDbEntity
  8
DRAFT
100
AcDbCircle
 62
7
  6
CONTINUOUS
 10
27.0
 20
-21.0
 40
13.6763269807
100
AcDbArc
 50
2.1674546178
 51
87.8325453822
  0
ARC
  5
533
100
AcDbEntity
  8
DRAFT
100
AcDbCircle
 62
7
  6
CONTINUOUS
 10
27.0
 20
-21.0
 40
13.6763269807
100
AcDbArc
 50
182.1674546178
 51
267.8325453822
  0
ARC
  5
534
100
AcDbEntity
  8
DRAFT
100
AcDbCircle
 62
7
  6
CONTINUOUS
 10
27.0
 20
-21.0
 40
13.6763269807
100
AcDbArc
 50
92.1674546178
 51
177.8325453822
  0
ARC
  5
535
100
AcDbEntity
  8
DRAFT
100
AcDbCircle
 62
7
  6
CONTINUOUS
 10
27.0
 20
-21.0
 40
13.5
100
AcDbArc
 50
93.1847385367
 51
176.8152614633
  0
ARC
  5
536
100
AcDbEntity
  8
DRAFT
100
AcDbCircle
 62
7
  6
CONTINUOUS
 10
27.0
 20
-21.0
 40
13.5
100
AcDbArc
 50
183.1847385367
 51
266.8152614633
  0
ARC
  5
537
100
AcDbEntity
  8
DRAFT
100
AcDbCircle
 62
7
  6
CONTINUOUS
 10
27.0
 20
-21.0
 40
13.5
100
AcDbArc
 50
3.1847385367
 51
86.8152614633
  0
ARC
  5
538
100
AcDbEntity
  8
DRAFT
100
AcDbCircle
 62
7
  6
CONTINUOUS
 10
27.0
 20
-21.0
 40
13.5
100
AcDbArc
 50
273.1847385367
 51
356.8152614633
  0
ARC
  5
539
100
AcDbEntity
  8
DRAFT
100
AcDbCircle
 62
7
  6
CONTINUOUS
 10
27.0
 20
-21.0
 40
12.5
100
AcDbArc
 50
94.6971495355
 51
175.3028504645
  0
ARC
  5
53A
100
AcDbEntity
  8
DRAFT
100
AcDbCircle
 62
7
  6
CONTINUOUS
 10
27.0
 20
-21.0
 40
12.5
100
AcDbArc
 50
184.6971495355
 51
265.3028504645
  0
ARC
  5
53B
100
AcDbEntity
  8
DRAFT
100
AcDbCircle
 62
7
  6
CONTINUOUS
 10
27.0
 20
-21.0
 40
12.5
100
AcDbArc
 50
4.6971495355
 51
85.3028504645
  0
ARC
  5
53C
100
AcDbEntity
  8
DRAFT
100
AcDbCircle
 62
7
  6
CONTINUOUS
 10
27.0
 20
-21.0
 40
12.5
100
AcDbArc
 50
274.6971495355
 51
355.3028504645
  0
ARC
  5
53D
100
AcDbEntity
  8
DRAFT
100
AcDbCircle
 62
7
  6
CONTINUOUS
 10
27.0
 20
-21.0
 40
12.3236730193
100
AcDbArc
 50
274.1209209803
 51
355.8790790197
  0
ARC
  5
53E
100
AcDbEntity
  8
DRAFT
100
AcDbCircle
 62
7
  6
CONTINUOUS
 10
27.0
 20
-21.0
 40
12.3236730193
100
AcDbArc
 50
4.1209209803
 51
85.8790790197
  0
ARC
  5
53F
100
AcDbEntity
  8
DRAFT
100
AcDbCircle
 62
7
  6
CONTINUOUS
 10
27.0
 20
-21.0
 40
12.3236730193
100
AcDbArc
 50
184.1209209803
 51
265.8790790197
  0
ARC
  5
540
100
AcDbEntity
  8
DRAFT
100
AcDbCircle
 62
7
  6
CONTINUOUS
 10
27.0
 20
-21.0
 40
12.3236730193
100
AcDbArc
 50
94.1209209803
 51
175.8790790197
  0
CIRCLE
  5
541
100
AcDbEntity
  8
DRAFT
100
AcDbCircle
 62
7
  6
CONTINUOUS
 10
27.0
 20
-21.0
 40
10.6763269807
  0
ARC
  5
542
100
AcDbEntity
  8
DRAFT
100
AcDbCircle
 62
7
  6
CONTINUOUS
 10
27.0
 20
-21.0
 40
10.6410615846
100
AcDbArc
 50
178.3078846415
 51
181.6921153585
  0
ARC
  5
543
100
AcDbEntity
  8
DRAFT
100
AcDbCircle
 62
7
  6
CONTINUOUS
 10
27.0
 20
-21.0
 40
10.6410615846
100
AcDbArc
 50
268.3078846415
 51
271.6921153585
  0
ARC
  5
544
100
AcDbEntity
  8
DRAFT
100
AcDbCircle
 62
7
  6
CONTINUOUS
 10
27.0
 20
-21.0
 40
10.6410615846
100
AcDbArc
 50
358.3078846415
 51
1.6921153585
  0
ARC
  5
545
100
AcDbEntity
  8
DRAFT
100
AcDbCircle
 62
7
  6
CONTINUOUS
 10
27.0
 20
-21.0
 40
10.6410615846
100
AcDbArc
 50
88.3078846415
 51
91.6921153585
  0
ARC
  5
546
100
AcDbEntity
  8
DRAFT
100
AcDbCircle
 62
7
  6
CONTINUOUS
 10
27.0
 20
-21.0
 40
10.5
100
AcDbArc
 50
92.7294026368
 51
177.2705973632
  0
ARC
  5
547
100
AcDbEntity
  8
DRAFT
100
AcDbCircle
 62
7
  6
CONTINUOUS
 10
27.0
 20
-21.0
 40
10.5
100
AcDbArc
 50
182.7294026368
 51
267.2705973632
  0
ARC
  5
548
100
AcDbEntity
  8
DRAFT
100
AcDbCircle
 62
7
  6
CONTINUOUS
 10
27.0
 20
-21.0
 40
10.5
100
AcDbArc
 50
2.7294026368
 51
87.2705973632
  0
ARC
  5
549
100
AcDbEntity
  8
DRAFT
100
AcDbCircle
 62
7
  6
CONTINUOUS
 10
27.0
 20
-21.0
 40
10.5
100
AcDbArc
 50
272.7294026368
 51
357.2705973632
  0
ARC
  5
54A
100
AcDbEntity
  8
DRAFT
100
AcDbCircle
 62
7
  6
CONTINUOUS
 10
27.0
 20
-21.0
 40
9.5
100
AcDbArc
 50
94.668453194
 51
175.331546806
  0
ARC
  5
54B
100
AcDbEntity
  8
DRAFT
100
AcDbCircle
 62
7
  6
CONTINUOUS
 10
27.0
 20
-21.0
 40
9.5
100
AcDbArc
 50
184.668453194
 51
265.331546806
  0
ARC
  5
54C
100
AcDbEntity
  8
DRAFT
100
AcDbCircle
 62
7
  6
CONTINUOUS
 10
27.0
 20
-21.0
 40
9.5
100
AcDbArc
 50
4.668453194
 51
85.331546806
  0
ARC
  5
54D
100
AcDbEntity
  8
DRAFT
100
AcDbCircle
 62
7
  6
CONTINUOUS
 10
27.0
 20
-21.0
 40
9.5
100
AcDbArc
 50
274.668453194
 51
355.331546806
  0
ARC
  5
54E
100
AcDbEntity
  8
DRAFT
100
AcDbCircle
 62
7
  6
CONTINUOUS
 10
27.0
 20
-21.0
 40
9.3589384154
100
AcDbArc
 50
94.0611725955
 51
175.9388274045
  0
ARC
  5
54F
100
AcDbEntity
  8
DRAFT
100
AcDbCircle
 62
7
  6
CONTINUOUS
 10
27.0
 20
-21.0
 40
9.3589384154
100
AcDbArc
 50
184.0611725955
 51
265.9388274045
  0
ARC
  5
550
100
AcDbEntity
  8
DRAFT
100
AcDbCircle
 62
7
  6
CONTINUOUS
 10
27.0
 20
-21.0
 40
9.3589384154
100
AcDbArc
 50
274.0611725955
 51
355.9388274045
  0
ARC
  5
551
100
AcDbEntity
  8
DRAFT
100
AcDbCircle
 62
7
  6
CONTINUOUS
 10
27.0
 20
-21.0
 40
9.3589384154
100
AcDbArc
 50
4.0611725955
 51
85.9388274045
  0
ARC
  5
552
100
AcDbEntity
  8
DRAFT
100
AcDbCircle
 62
7
  6
CONTINUOUS
 10
14.3820778825
 20
-0.5477002285
 40
33.6243173016
100
AcDbArc
 50
320.9082197938
 51
321.4174070352
  0
ARC
  5
553
100
AcDbEntity
  8
DRAFT
100
AcDbCircle
 62
7
  6
CONTINUOUS
 10
17.0610401245
 20
-5.0385812366
 40
26.2343783899
100
AcDbArc
 50
321.1359166421
 51
321.6551315429
  0
ARC
  5
554
100
AcDbEntity
  8
DRAFT
100
AcDbCircle
 62
7
  6
CONTINUOUS
 10
45.8050369882
 20
-63.3015776719
 40
53.4463594443
100
AcDbArc
 50
129.6258360545
 51
129.8573287405
  0
ARC
  5
555
100
AcDbEntity
  8
DRAFT
100
AcDbCircle
 62
7
  6
CONTINUOUS
 10
69.301577686
 20
-39.8050369694
 40
53.4463594431
100
AcDbArc
 50
140.1426712846
 51
140.3741639707
  0
ARC
  5
556
100
AcDbEntity
  8
DRAFT
100
AcDbCircle
 62
7
  6
CONTINUOUS
 10
61.0467358807
 20
-36.1036304539
 40
43.0136167067
100
AcDbArc
 50
140.1510630094
 51
140.4388330181
  0
ARC
  5
557
100
AcDbEntity
  8
DRAFT
100
AcDbCircle
 62
7
  6
CONTINUOUS
 10
42.1036304726
 20
-55.046735863
 40
43.0136167049
100
AcDbArc
 50
129.5611670161
 51
129.8489370247
  0
ARC
  5
558
100
AcDbEntity
  8
DRAFT
100
AcDbCircle
 62
7
  6
CONTINUOUS
 10
42.2532769747
 20
-45.9066440408
 40
40.9572888393
100
AcDbArc
 50
140.7630972556
 51
141.1830243885
  0
ARC
  5
559
100
AcDbEntity
  8
DRAFT
100
AcDbCircle
 62
7
  6
CONTINUOUS
 10
51.9066440438
 20
-36.2532769725
 40
40.9572888395
100
AcDbArc
 50
128.8169756169
 51
129.2369027498
  0
ARC
  5
55A
100
AcDbEntity
  8
DRAFT
100
AcDbCircle
 62
7
  6
CONTINUOUS
 10
39.6179221272
 20
-41.45229976
 40
33.624317302
100
AcDbArc
 50
140.9082198195
 51
141.4174070609
  0
ARC
  5
55B
100
AcDbEntity
  8
DRAFT
100
AcDbCircle
 62
7
  6
CONTINUOUS
 10
47.4522997529
 20
-33.6179221328
 40
33.6243173018
100
AcDbArc
 50
128.5825929237
 51
129.0917801651
  0
ARC
  5
55C
100
AcDbEntity
  8
DRAFT
100
AcDbCircle
 62
7
  6
CONTINUOUS
 10
52.8545311623
 20
-32.4541870202
 40
32.6623810323
100
AcDbArc
 50
140.1653716049
 51
140.4686294743
  0
ARC
  5
55D
100
AcDbEntity
  8
DRAFT
100
AcDbCircle
 62
7
  6
CONTINUOUS
 10
38.4541870337
 20
-46.8545311512
 40
32.6623810324
100
AcDbArc
 50
129.5313705563
 51
129.8346284257
  0
ARC
  5
55E
100
AcDbEntity
  8
DRAFT
100
AcDbCircle
 62
7
  6
CONTINUOUS
 10
36.9389598827
 20
-36.9614187543
 40
26.2343783898
100
AcDbArc
 50
141.1359166677
 51
141.6551315685
  0
ARC
  5
55F
100
AcDbEntity
  8
0
100
AcDbCircle
 62
7
  6
CONTINUOUS
 10
61.0
 20
-49.0
 40
10.0
100
AcDbArc
 50
270.0
 51
360.0
  0
ARC
  5
560
100
AcDbEntity
  8
0
100
AcDbCircle
 62
7
  6
CONTINUOUS
 10
61.0
 20
-49.0
 40
7.0
100
AcDbArc
 50
270.0
 51
360.0
  0
CIRCLE
  5
561
100
AcDbEntity
  8
0
100
AcDbCircle
 62
7
  6
CONTINUOUS
 10
50.9999994607
 20
-38.9999994763
 40
1.4999996177
  0
ARC
  5
562
100
AcDbEntity
  8
DRAFT
100
AcDbCircle
 62
7
  6
CONTINUOUS
 10
49.8052650945
 20
-37.8052650945
 40
1.25
100
AcDbArc
 50
14.1023265643
 51
29.2352479832
  0
ARC
  5
563
100
AcDbEntity
  8
DRAFT
100
AcDbCircle
 62
7
  6
CONTINUOUS
 10
49.8052650945
 20
-37.8052650945
 40
1.25
100
AcDbArc
 50
240.7647520168
 51
255.9035878702
  0
ARC
  5
564
100
AcDbEntity
  8
0
100
AcDbCircle
 62
7
  6
CONTINUOUS
 10
51.0
 20
-39.0
 40
1.0
100
AcDbArc
 50
307.6774584221
 51
75.84228485
  0
ARC
  5
565
100
AcDbEntity
  8
0
100
AcDbCircle
 62
7
  6
CONTINUOUS
 10
51.0
 20
-39.0
 40
1.0
100
AcDbArc
 50
180.0
 51
255.84228485
  0
ARC
  5
566
100
AcDbEntity
  8
RACCORDO
100
AcDbCircle
 62
7
  6
CONTINUOUS
 10
49.8052650945
 20
-37.8052650945
 40
0.9698583872
100
AcDbArc
 50
228.515403852
 51
41.484596148
  0
ARC
  5
567
100
AcDbEntity
  8
0
100
AcDbCircle
 62
7
  6
CONTINUOUS
 10
50.8966617406
 20
-39.3617997602
 40
0.8320718012
100
AcDbArc
 50
344.7743839811
 51
349.517352529
  0
ARC
  5
568
100
AcDbEntity
  8
0
100
AcDbCircle
 62
7
  6
CONTINUOUS
 10
50.9440476799
 20
-39.1277602152
 40
0.813765055
100
AcDbArc
 50
330.6304078959
 51
344.4190814713
  0
ARC
  5
569
100
AcDbEntity
  8
RACCORDO
100
AcDbCircle
 62
253
  6
CONTINUOUS
 10
54.8295823348
 20
-34.98270858
 40
0.5000131421
100
AcDbArc
 50
270.0103781776
 51
359.997903467
  0
ARC
  5
56A
100
AcDbEntity
  8
RACCORDO
100
AcDbCircle
 62
253
  6
CONTINUOUS
 10
46.9827089863
 20
-42.8295826852
 40
0.5000125554
100
AcDbArc
 50
270.0020500133
 51
359.9896619694
  0
ARC
  5
56B
100
AcDbEntity
  8
RACCORDO
100
AcDbCircle
 62
253
  6
CONTINUOUS
 10
49.8052650945
 20
-37.8052650945
 40
0.4698652411
100
AcDbArc
 50
155.3550960774
 51
114.6449039227
  0
ARC
  5
56C
100
AcDbEntity
  8
DRAFT
100
AcDbCircle
 62
7
  6
CONTINUOUS
 10
69.3015776745
 20
-2.1949630246
 40
53.4463594381
100
AcDbArc
 50
219.6258360421
 51
219.8573287282
  0
ARC
  5
56D
100
AcDbEntity
  8
DRAFT
100
AcDbCircle
 62
7
  6
CONTINUOUS
 10
61.0467358722
 20
-5.8963695374
 40
43.0136167057
100
AcDbArc
 50
219.5611669981
 51
219.8489370067
  0
ARC
  5
56E
100
AcDbEntity
  8
DRAFT
100
AcDbCircle
 62
7
  6
CONTINUOUS
 10
51.906644044
 20
-5.7467230273
 40
40.9572888397
100
AcDbArc
 50
230.7630972502
 51
231.1830243831
  0
ARC
  5
56F
100
AcDbEntity
  8
DRAFT
100
AcDbCircle
 62
7
  6
CONTINUOUS
 10
39.6179221176
 20
-0.5477002284
 40
33.6243173017
100
AcDbArc
 50
218.5825929648
 51
219.0917802062
  0
ARC
  5
570
100
AcDbEntity
  8
DRAFT
100
AcDbCircle
 62
7
  6
CONTINUOUS
 10
47.4522997522
 20
-8.382077868
 40
33.6243173008
100
AcDbArc
 50
230.9082198349
 51
231.4174070763
  0
ARC
  5
571
100
AcDbEntity
  8
DRAFT
100
AcDbCircle
 62
7
  6
CONTINUOUS
 10
52.8545311552
 20
-9.5458129732
 40
32.6623810311
100
AcDbArc
 50
219.5313705426
 51
219.834628412
  0
ARC
  5
572
100
AcDbEntity
  8
DRAFT
100
AcDbCircle
 62
7
  6
CONTINUOUS
 10
36.9389598751
 20
-5.0385812368
 40
26.2343783894
100
AcDbArc
 50
218.3448684571
 51
218.8640833579
  0
ARC
  5
573
100
AcDbEntity
  8
DRAFT
100
AcDbCircle
 62
7
  6
CONTINUOUS
 10
42.9614187425
 20
-11.0610401083
 40
26.2343783895
100
AcDbArc
 50
231.1359166999
 51
231.6551316007
  0
ARC
  5
574
100
AcDbEntity
  8
DRAFT
100
AcDbCircle
 62
7
  6
CONTINUOUS
 10
42.9614187425
 20
-30.9389598917
 40
26.2343783895
100
AcDbArc
 50
128.3448683993
 51
128.8640833001
  0
ARC
  5
575
100
AcDbEntity
  8
DRAFT
100
AcDbCircle
 62
7
  6
CONTINUOUS
 10
43.0
 20
-31.0
 40
22.0
100
AcDbArc
 50
270.0
 51
360.0
  0
ARC
  5
576
100
AcDbEntity
  8
RACCORDO
100
AcDbCircle
 62
253
  6
CONTINUOUS
 10
43.0
 20
-31.0
 40
21.9473301725
100
AcDbArc
 50
270.0
 51
360.0
  0
ARC
  5
577
100
AcDbEntity
  8
RACCORDO
100
AcDbCircle
 62
253
  6
CONTINUOUS
 10
43.0
 20
-31.0
 40
20.9474831801
100
AcDbArc
 50
270.0
 51
360.0
  0
ARC
  5
578
100
AcDbEntity
  8
DRAFT
100
AcDbCircle
 62
7
  6
CONTINUOUS
 10
8.1949630205
 20
21.30157768
 40
53.4463594449
100
AcDbArc
 50
309.6258360417
 51
309.8573287277
  0
ARC
  5
579
100
AcDbEntity
  8
DRAFT
100
AcDbCircle
 62
7
  6
CONTINUOUS
 10
15.3015776842
 20
2.1949630321
 40
53.4463594408
100
AcDbArc
 50
140.1426712846
 51
140.3741639707
  0
ARC
  5
57A
100
AcDbEntity
  8
DRAFT
100
AcDbCircle
 62
7
  6
CONTINUOUS
 10
7.0467358806
 20
5.8963695461
 40
43.0136167066
100
AcDbArc
 50
140.1510630094
 51
140.4388330181
  0
ARC
  5
57B
100
AcDbEntity
  8
DRAFT
100
AcDbCircle
 62
7
  6
CONTINUOUS
 10
11.8963695366
 20
13.0467358709
 40
43.0136167052
100
AcDbArc
 50
309.561167
 51
309.8489370086
  0
ARC
  5
57C
100
AcDbEntity
  8
DRAFT
100
AcDbCircle
 62
7
  6
CONTINUOUS
 10
11.7467230343
 20
3.9066440534
 40
40.9572888403
100
AcDbArc
 50
320.7630972339
 51
321.1830243667
  0
ARC
  5
57D
100
AcDbEntity
  8
DRAFT
100
AcDbCircle
 62
7
  6
CONTINUOUS
 10
15.5458129735
 20
4.8545311575
 40
32.6623810326
100
AcDbArc
 50
309.5313705395
 51
309.8346284089
  0
ARC
  5
57E
100
AcDbEntity
  8
ASSI
100
AcDbCircle
 62
7
  6
CONTINUOUS
 10
-0.0
 20
23.5
 40
16.0
100
AcDbArc
 50
215.278982146
 51
219.3055484535
  0
ARC
  5
57F
100
AcDbEntity
  8
ASSI
100
AcDbCircle
 62
7
  6
CONTINUOUS
 10
-0.0
 20
23.5
 40
16.0
100
AcDbArc
 50
200.9930488593
 51
206.4003305563
  0
ARC
  5
580
100
AcDbEntity
  8
ASSI
100
AcDbCircle
 62
7
  6
CONTINUOUS
 10
-0.0
 20
23.5
 40
15.9
100
AcDbArc
 50
215.0706799252
 51
219.152431681
  0
ARC
  5
581
100
AcDbEntity
  8
ASSI
100
AcDbCircle
 62
7
  6
CONTINUOUS
 10
-0.0
 20
23.5
 40
15.9
100
AcDbArc
 50
200.4731693942
 51
206.0453656692
  0
CIRCLE
  5
582
100
AcDbEntity
  8
0
100
AcDbCircle
 62
7
  6
CONTINUOUS
 10
-0.0
 20
-0.0
 40
6.9713700232
  0
ARC
  5
583
100
AcDbEntity
  8
DRAFT
100
AcDbCircle
 62
7
  6
CONTINUOUS
 10
15.3015776791
 20
39.8050369792
 40
53.4463594441
100
AcDbArc
 50
219.6258360421
 51
219.8573287282
  0
ARC
  5
584
100
AcDbEntity
  8
DRAFT
100
AcDbCircle
 62
7
  6
CONTINUOUS
 10
7.0467358726
 20
36.1036304629
 40
43.0136167062
100
AcDbArc
 50
219.5611669981
 51
219.8489370067
  0
ARC
  5
585
100
AcDbEntity
  8
DRAFT
100
AcDbCircle
 62
7
  6
CONTINUOUS
 10
45.8050369884
 20
21.3015776721
 40
53.4463594446
100
AcDbArc
 50
230.1426712595
 51
230.3741639455
  0
ARC
  5
586
100
AcDbEntity
  8
DRAFT
100
AcDbCircle
 62
7
  6
CONTINUOUS
 10
42.1036304718
 20
13.0467358621
 40
43.0136167037
100
AcDbArc
 50
230.1510629752
 51
230.4388329839
  0
ARC
  5
587
100
AcDbEntity
  8
DRAFT
100
AcDbCircle
 62
7
  6
CONTINUOUS
 10
42.2532769648
 20
3.9066440527
 40
40.9572888391
100
AcDbArc
 50
218.8169756333
 51
219.2369027662
  0
ARC
  5
588
100
AcDbEntity
  8
DRAFT
100
AcDbCircle
 62
7
  6
CONTINUOUS
 10
38.4541870333
 20
4.8545311507
 40
32.6623810318
100
AcDbArc
 50
230.1653715743
 51
230.4686294437
  0
ARC
  5
589
100
AcDbEntity
  8
DRAFT
100
AcDbCircle
 62
7
  6
CONTINUOUS
 10
43.0
 20
31.0
 40
22.0
100
AcDbArc
 50
0.0
 51
90.0
  0
ARC
  5
58A
100
AcDbEntity
  8
RACCORDO
100
AcDbCircle
 62
253
  6
CONTINUOUS
 10
43.0
 20
31.0
 40
21.9473301725
100
AcDbArc
 50
0.0
 51
90.0
  0
ARC
  5
58B
100
AcDbEntity
  8
RACCORDO
100
AcDbCircle
 62
253
  6
CONTINUOUS
 10
43.0
 20
31.0
 40
20.9474831801
100
AcDbArc
 50
0.0
 51
90.0
  0
ARC
  5
58C
100
AcDbEntity
  8
0
100
AcDbCircle
 62
7
  6
CONTINUOUS
 10
61.0
 20
49.0
 40
10.0
100
AcDbArc
 50
0.0
 51
90.0
  0
ARC
  5
58D
100
AcDbEntity
  8
0
100
AcDbCircle
 62
7
  6
CONTINUOUS
 10
61.0
 20
49.0
 40
7.0
100
AcDbArc
 50
0.0
 51
90.0
  0
CIRCLE
  5
58E
100
AcDbEntity
  8
0
100
AcDbCircle
 62
7
  6
CONTINUOUS
 10
51.0000005489
 20
38.9999994669
 40
1.4999996177
  0
ARC
  5
58F
100
AcDbEntity
  8
DRAFT
100
AcDbCircle
 62
7
  6
CONTINUOUS
 10
49.8052650945
 20
37.8052650945
 40
1.25
100
AcDbArc
 50
104.1218642896
 51
119.2352479832
  0
ARC
  5
590
100
AcDbEntity
  8
DRAFT
100
AcDbCircle
 62
7
  6
CONTINUOUS
 10
49.8052650945
 20
37.8052650945
 40
1.25
100
AcDbArc
 50
330.7647520168
 51
345.905371424
  0
ARC
  5
591
100
AcDbEntity
  8
0
100
AcDbCircle
 62
7
  6
CONTINUOUS
 10
51.0
 20
39.0
 40
1.0
100
AcDbArc
 50
307.6774584221
 51
75.84228485
  0
ARC
  5
592
100
AcDbEntity
  8
0
100
AcDbCircle
 62
7
  6
CONTINUOUS
 10
51.0
 20
39.0
 40
1.0
100
AcDbArc
 50
127.6774584221
 51
180.0
  0
ARC
  5
593
100
AcDbEntity
  8
RACCORDO
100
AcDbCircle
 62
7
  6
CONTINUOUS
 10
49.8052650945
 20
37.8052650945
 40
0.9698583872
100
AcDbArc
 50
318.515403852
 51
131.484596148
  0
ARC
  5
594
100
AcDbEntity
  8
0
100
AcDbCircle
 62
7
  6
CONTINUOUS
 10
50.8966617406
 20
38.6382002398
 40
0.8320718012
100
AcDbArc
 50
344.7743839811
 51
349.517352529
  0
ARC
  5
595
100
AcDbEntity
  8
0
100
AcDbCircle
 62
7
  6
CONTINUOUS
 10
51.1033382594
 20
39.3617997602
 40
0.8320718012
100
AcDbArc
 50
164.7743839811
 51
169.517352529
  0
ARC
  5
596
100
AcDbEntity
  8
0
100
AcDbCircle
 62
7
  6
CONTINUOUS
 10
51.0559523201
 20
39.1277602152
 40
0.813765055
100
AcDbArc
 50
150.6304078959
 51
164.4190814713
  0
ARC
  5
597
100
AcDbEntity
  8
0
100
AcDbCircle
 62
7
  6
CONTINUOUS
 10
50.9440476799
 20
38.8722397848
 40
0.813765055
100
AcDbArc
 50
330.6304078959
 51
344.4190814713
  0
ARC
  5
598
100
AcDbEntity
  8
RACCORDO
100
AcDbCircle
 62
253
  6
CONTINUOUS
 10
54.8295823012
 20
34.9827086024
 40
0.5000131481
100
AcDbArc
 50
0.0020940077
 51
89.9896179693
  0
ARC
  5
599
100
AcDbEntity
  8
RACCORDO
100
AcDbCircle
 62
253
  6
CONTINUOUS
 10
46.9827086086
 20
42.8295823063
 40
0.5000131422
100
AcDbArc
 50
0.0103814506
 51
89.9979067365
  0
ARC
  5
59A
100
AcDbEntity
  8
RACCORDO
100
AcDbCircle
 62
253
  6
CONTINUOUS
 10
49.8052650945
 20
37.8052650945
 40
0.4698652411
100
AcDbArc
 50
245.3550960774
 51
204.6449039227
  0
SPLINE
  5
59B
100
AcDbEntity
  8
0
100
AcDbSpline
 62
7
  6
CONTINUOUS
 70
0
 71
3
 72
14
 73
10
 74
8
 42
0.0000001
 43
0.0000001
 44
0.0000000001
 12
1.5265164876
 22
-0.440625999
 32
0.0
 13
0.7919061665
 23
1.38096161
 33
0.0
 40
0.0
 40
0.0
 40
0.0
 40
0.0
 40
0.1778235013
 40
0.3469761403
 40
0.5074973323
 40
0.6594332102
 40
0.8028381927
 40
0.9377770198
 40
1.0
 40
1.0
 40
1.0
 40
1.0
 10
50.21573459
 20
-40.2786429395
 30
0.0
 10
50.3062180922
 20
-40.3047608254
 30
0.0
 10
50.4883138008
 20
-40.3386171402
 30
0.0
 10
50.7587934381
 20
-40.33399816
 30
0.0
 10
51.0094936801
 20
-40.2781500788
 30
0.0
 10
51.2311610848
 20
-40.1782851378
 30
0.0
 10
51.4166988585
 20
-40.0431690258
 30
0.0
 10
51.5382377337
 20
-39.9081073149
 30
0.0
 10
51.595041574
 20
-39.8200618046
 30
0.0
 10
51.6114664946
 20
-39.791419289
 30
0.0
 11
50.21573459
 21
-40.2786429395
 31
0.0
 11
50.4936079878
 21
-40.3297413554
 31
0.0
 11
50.7623156825
 21
-40.3246451666
 31
0.0
 11
51.0111352553
 21
-40.2686516992
 31
0.0
 11
51.2310059284
 21
-40.1689947087
 31
0.0
 11
51.4148577074
 21
-40.0344106795
 31
0.0
 11
51.5578373885
 21
-39.8746534081
 31
0.0
 11
51.6114664946
 21
-39.791419289
 31
0.0
  0
SPLINE
  5
59C
100
AcDbEntity
  8
0
100
AcDbSpline
 62
7
  6
CONTINUOUS
 70
0
 71
3
 72
9
 73
5
 74
3
 42
0.0000001
 43
0.0000001
 44
0.0000000001
 12
0.1141041339
 22
0.1989799236
 32
0.0
 13
0.0601421282
 23
0.2213573269
 33
0.0
 40
0.0
 40
0.0
 40
0.0
 40
0.0
 40
0.4464455663
 40
1.0
 40
1.0
 40
1.0
 40
1.0
 10
51.6114664946
 20
-39.791419289
 30
0.0
 10
51.6284469228
 20
-39.7618080541
 30
0.0
 10
51.6628858601
 20
-39.693432333
 30
0.0
 10
51.6884298233
 20
-39.6211633956
 30
0.0
 10
51.6995271372
 20
-39.5803189523
 30
0.0
 11
51.6114664946
 21
-39.791419289
 31
0.0
 11
51.6574242548
 21
-39.6999800079
 31
0.0
 11
51.6995271372
 21
-39.5803189523
 31
0.0
  0
SPLINE
  5
59D
100
AcDbEntity
  8
0
100
AcDbSpline
 62
7
  6
CONTINUOUS
 70
0
 71
3
 72
8
 73
4
 74
2
 42
0.0000001
 43
0.0000001
 44
0.0000000001
 12
0.0305187141
 22
0.1649907312
 32
0.0
 13
-0.0050465324
 23
0.1672594158
 33
0.0
 40
0.0
 40
0.0
 40
0.0
 40
0.0
 40
1.0
 40
1.0
 40
1.0
 40
1.0
 10
51.7148463085
 20
-39.5131850147
 30
0.0
 10
51.7250192132
 20
-39.4581881043
 30
0.0
 10
51.7295907335
 20
-39.4020898658
 30
0.0
 10
51.727908556
 20
-39.3463367272
 30
0.0
 11
51.7148463085
 21
-39.5131850147
 31
0.0
 11
51.727908556
 21
-39.3463367272
 31
0.0
  0
SPLINE
  5
59E
100
AcDbEntity
  8
0
100
AcDbSpline
 62
7
  6
CONTINUOUS
 70
0
 71
3
 72
11
 73
7
 74
5
 42
0.0000001
 43
0.0000001
 44
0.0000000001
 12
-1.0009910253
 22
0.288934102
 32
0.0
 13
-0.9035534016
 23
-0.5223656095
 33
0.0
 40
0.0
 40
0.0
 40
0.0
 40
0.0
 40
0.2711817587
 40
0.5291404074
 40
0.7739360549
 40
1.0
 40
1.0
 40
1.0
 40
1.0
 10
51.78426541
 20
-37.7213570605
 30
0.0
 10
51.6937819078
 20
-37.6952391746
 30
0.0
 10
51.5116861992
 20
-37.6613828598
 30
0.0
 10
51.2412065619
 20
-37.66600184
 30
0.0
 10
50.9924311592
 20
-37.721421128
 30
0.0
 10
50.8421686112
 20
-37.7886837732
 30
0.0
 10
50.7740816624
 20
-37.82804645
 30
0.0
 11
51.78426541
 21
-37.7213570605
 31
0.0
 11
51.5063920122
 21
-37.6702586446
 31
0.0
 11
51.2376843175
 21
-37.6753548334
 31
0.0
 11
50.9888647447
 21
-37.7313483008
 31
0.0
 11
50.7740816624
 21
-37.82804645
 31
0.0
  0
SPLINE
  5
59F
100
AcDbEntity
  8
0
100
AcDbSpline
 62
7
  6
CONTINUOUS
 70
0
 71
3
 72
10
 73
6
 74
4
 42
0.0000001
 43
0.0000001
 44
0.0000000001
 12
-0.2526038827
 22
-0.4495512038
 32
0.0
 13
-0.4603379694
 23
-0.2315080305
 33
0.0
 40
0.0
 40
0.0
 40
0.0
 40
0.0
 40
0.3915193347
 40
0.7940496483
 40
1.0
 40
1.0
 40
1.0
 40
1.0
 10
51.6532229463
 20
-39.5268642195
 30
0.0
 10
51.6202565116
 20
-39.5855335489
 30
0.0
 10
51.5389116782
 20
-39.6961559874
 30
0.0
 10
51.4065623345
 20
-39.8075415427
 30
0.0
 10
51.3159223856
 20
-39.8599249529
 30
0.0
 10
51.28432013
 20
-39.8758180063
 30
0.0
 11
51.6532229463
 21
-39.5268642195
 31
0.0
 11
51.5342664043
 21
-39.6892305018
 31
0.0
 11
51.3761216065
 21
-39.8227015245
 31
0.0
 11
51.28432013
 21
-39.8758180063
 31
0.0
  0
SPLINE
  5
5A0
100
AcDbEntity
  8
0
100
AcDbSpline
 62
7
  6
CONTINUOUS
 70
0
 71
3
 72
10
 73
6
 74
4
 42
0.0000001
 43
0.0000001
 44
0.0000000001
 12
-0.4865658941
 22
-0.2446982855
 32
0.0
 13
-0.5402886881
 23
0.0579693842
 33
0.0
 40
0.0
 40
0.0
 40
0.0
 40
0.0
 40
0.1945428616
 40
0.5924002923
 40
1.0
 40
1.0
 40
1.0
 40
1.0
 10
51.28432013
 20
-39.8758180063
 30
0.0
 10
51.2527674896
 20
-39.8916861079
 30
0.0
 10
51.1538830804
 20
-39.9344296737
 30
0.0
 10
50.9761992198
 20
-39.9767728609
 30
0.0
 10
50.8288153115
 20
-39.9775022265
 30
0.0
 10
50.7554081411
 20
-39.9696261251
 30
0.0
 11
51.28432013
 21
-39.8758180063
 31
0.0
 11
51.1871331026
 21
-39.9178553971
 31
0.0
 11
50.976889122
 21
-39.9682169055
 31
0.0
 11
50.7554081411
 21
-39.9696261251
 31
0.0
  0
SPLINE
  5
5A1
100
AcDbEntity
  8
0
100
AcDbSpline
 62
7
  6
CONTINUOUS
 70
0
 71
3
 72
14
 73
10
 74
8
 42
0.0000001
 43
0.0000001
 44
0.0000000001
 12
1.5265164876
 22
-0.440625999
 32
0.0
 13
0.7919061665
 23
1.38096161
 33
0.0
 40
0.0
 40
0.0
 40
0.0
 40
0.0
 40
0.1778235013
 40
0.3469761403
 40
0.5074973323
 40
0.6594332102
 40
0.8028381927
 40
0.9377770198
 40
1.0
 40
1.0
 40
1.0
 40
1.0
 10
-51.78426541
 20
-40.2786429395
 30
0.0
 10
-51.6937819078
 20
-40.3047608254
 30
0.0
 10
-51.5116861992
 20
-40.3386171402
 30
0.0
 10
-51.2412065619
 20
-40.33399816
 30
0.0
 10
-50.9905063199
 20
-40.2781500788
 30
0.0
 10
-50.7688389152
 20
-40.1782851378
 30
0.0
 10
-50.5833011415
 20
-40.0431690258
 30
0.0
 10
-50.4617622663
 20
-39.9081073149
 30
0.0
 10
-50.404958426
 20
-39.8200618046
 30
0.0
 10
-50.3885335054
 20
-39.791419289
 30
0.0
 11
-51.78426541
 21
-40.2786429395
 31
0.0
 11
-51.5063920122
 21
-40.3297413554
 31
0.0
 11
-51.2376843175
 21
-40.3246451666
 31
0.0
 11
-50.9888647447
 21
-40.2686516992
 31
0.0
 11
-50.7689940716
 21
-40.1689947087
 31
0.0
 11
-50.5851422926
 21
-40.0344106795
 31
0.0
 11
-50.4421626115
 21
-39.8746534081
 31
0.0
 11
-50.3885335054
 21
-39.791419289
 31
0.0
  0
SPLINE
  5
5A2
100
AcDbEntity
  8
0
100
AcDbSpline
 62
7
  6
CONTINUOUS
 70
0
 71
3
 72
9
 73
5
 74
3
 42
0.0000001
 43
0.0000001
 44
0.0000000001
 12
0.1141041339
 22
0.1989799236
 32
0.0
 13
0.0601421282
 23
0.2213573269
 33
0.0
 40
0.0
 40
0.0
 40
0.0
 40
0.0
 40
0.4464455663
 40
1.0
 40
1.0
 40
1.0
 40
1.0
 10
-50.3885335054
 20
-39.791419289
 30
0.0
 10
-50.3715530772
 20
-39.7618080541
 30
0.0
 10
-50.3371141399
 20
-39.693432333
 30
0.0
 10
-50.3115701767
 20
-39.6211633956
 30
0.0
 10
-50.3004728628
 20
-39.5803189523
 30
0.0
 11
-50.3885335054
 21
-39.791419289
 31
0.0
 11
-50.3425757452
 21
-39.6999800079
 31
0.0
 11
-50.3004728628
 21
-39.5803189523
 31
0.0
  0
SPLINE
  5
5A3
100
AcDbEntity
  8
0
100
AcDbSpline
 62
7
  6
CONTINUOUS
 70
0
 71
3
 72
8
 73
4
 74
2
 42
0.0000001
 43
0.0000001
 44
0.0000000001
 12
0.0305187141
 22
0.1649907312
 32
0.0
 13
-0.0050465324
 23
0.1672594158
 33
0.0
 40
0.0
 40
0.0
 40
0.0
 40
0.0
 40
1.0
 40
1.0
 40
1.0
 40
1.0
 10
-50.2851536915
 20
-39.5131850147
 30
0.0
 10
-50.2749807868
 20
-39.4581881043
 30
0.0
 10
-50.2704092665
 20
-39.4020898658
 30
0.0
 10
-50.272091444
 20
-39.3463367272
 30
0.0
 11
-50.2851536915
 21
-39.5131850147
 31
0.0
 11
-50.272091444
 21
-39.3463367272
 31
0.0
  0
SPLINE
  5
5A4
100
AcDbEntity
  8
0
100
AcDbSpline
 62
7
  6
CONTINUOUS
 70
0
 71
3
 72
12
 73
8
 74
6
 42
0.0000001
 43
0.0000001
 44
0.0000000001
 12
-1.0277107464
 22
-0.1276824623
 32
0.0
 13
-0.5153355854
 23
-0.8986653846
 33
0.0
 40
0.0
 40
0.0
 40
0.0
 40
0.0
 40
0.2431807337
 40
0.4766576409
 40
0.6970252872
 40
0.9043831571
 40
1.0
 40
1.0
 40
1.0
 40
1.0
 10
-50.7659020187
 20
-37.6757953111
 30
0.0
 10
-50.8492085031
 20
-37.6861452827
 30
0.0
 10
-51.010597741
 20
-37.7223473195
 30
0.0
 10
-51.2311610848
 20
-37.8217148622
 30
0.0
 10
-51.4166988585
 20
-37.9568309742
 30
0.0
 10
-51.5382377337
 20
-38.0918926851
 30
0.0
 10
-51.595041574
 20
-38.1799381954
 30
0.0
 10
-51.6114664946
 20
-38.208580711
 30
0.0
 11
-50.7659020187
 21
-37.6757953111
 31
0.0
 11
-51.0111352553
 21
-37.7313483008
 31
0.0
 11
-51.2310059284
 21
-37.8310052913
 31
0.0
 11
-51.4148577074
 21
-37.9655893205
 31
0.0
 11
-51.5578373885
 21
-38.1253465919
 31
0.0
 11
-51.6114664946
 21
-38.208580711
 31
0.0
  0
SPLINE
  5
5A5
100
AcDbEntity
  8
0
100
AcDbSpline
 62
7
  6
CONTINUOUS
 70
0
 71
3
 72
9
 73
5
 74
3
 42
0.0000001
 43
0.0000001
 44
0.0000000001
 12
-0.1141041339
 22
-0.1989799236
 32
0.0
 13
-0.0601421282
 23
-0.2213573269
 33
0.0
 40
0.0
 40
0.0
 40
0.0
 40
0.0
 40
0.4464455663
 40
1.0
 40
1.0
 40
1.0
 40
1.0
 10
-51.6114664946
 20
-38.208580711
 30
0.0
 10
-51.6284469228
 20
-38.2381919459
 30
0.0
 10
-51.6628858601
 20
-38.306567667
 30
0.0
 10
-51.6884298233
 20
-38.3788366044
 30
0.0
 10
-51.6995271372
 20
-38.4196810477
 30
0.0
 11
-51.6114664946
 21
-38.208580711
 31
0.0
 11
-51.6574242548
 21
-38.3000199921
 31
0.0
 11
-51.6995271372
 21
-38.4196810477
 31
0.0
  0
SPLINE
  5
5A6
100
AcDbEntity
  8
0
100
AcDbSpline
 62
7
  6
CONTINUOUS
 70
0
 71
3
 72
8
 73
4
 74
2
 42
0.0000001
 43
0.0000001
 44
0.0000000001
 12
-0.0305187141
 22
-0.1649907312
 32
0.0
 13
0.0050465324
 23
-0.1672594158
 33
0.0
 40
0.0
 40
0.0
 40
0.0
 40
0.0
 40
1.0
 40
1.0
 40
1.0
 40
1.0
 10
-51.7148463085
 20
-38.4868149853
 30
0.0
 10
-51.7250192132
 20
-38.5418118957
 30
0.0
 10
-51.7295907335
 20
-38.5979101342
 30
0.0
 10
-51.727908556
 20
-38.6536632728
 30
0.0
 11
-51.7148463085
 21
-38.4868149853
 31
0.0
 11
-51.727908556
 21
-38.6536632728
 31
0.0
  0
SPLINE
  5
5A7
100
AcDbEntity
  8
0
100
AcDbSpline
 62
7
  6
CONTINUOUS
 70
0
 71
3
 72
10
 73
6
 74
4
 42
0.0000001
 43
0.0000001
 44
0.0000000001
 12
0.2526038827
 22
0.4495512038
 32
0.0
 13
0.4603379694
 23
0.2315080305
 33
0.0
 40
0.0
 40
0.0
 40
0.0
 40
0.0
 40
0.3915193347
 40
0.7940496483
 40
1.0
 40
1.0
 40
1.0
 40
1.0
 10
-51.6532229463
 20
-38.4731357805
 30
0.0
 10
-51.6202565116
 20
-38.4144664511
 30
0.0
 10
-51.5389116782
 20
-38.3038440126
 30
0.0
 10
-51.4065623345
 20
-38.1924584573
 30
0.0
 10
-51.3159223856
 20
-38.1400750471
 30
0.0
 10
-51.28432013
 20
-38.1241819937
 30
0.0
 11
-51.6532229463
 21
-38.4731357805
 31
0.0
 11
-51.5342664043
 21
-38.3107694982
 31
0.0
 11
-51.3761216065
 21
-38.1772984755
 31
0.0
 11
-51.28432013
 21
-38.1241819937
 31
0.0
  0
SPLINE
  5
5A8
100
AcDbEntity
  8
0
100
AcDbSpline
 62
7
  6
CONTINUOUS
 70
0
 71
3
 72
10
 73
6
 74
4
 42
0.0000001
 43
0.0000001
 44
0.0000000001
 12
0.4865658941
 22
0.2446982855
 32
0.0
 13
0.5402886881
 23
-0.0579693842
 33
0.0
 40
0.0
 40
0.0
 40
0.0
 40
0.0
 40
0.1945428616
 40
0.5924002923
 40
1.0
 40
1.0
 40
1.0
 40
1.0
 10
-51.28432013
 20
-38.1241819937
 30
0.0
 10
-51.2527674896
 20
-38.1083138921
 30
0.0
 10
-51.1538830804
 20
-38.0655703263
 30
0.0
 10
-50.9761992198
 20
-38.0232271391
 30
0.0
 10
-50.8288153115
 20
-38.0224977735
 30
0.0
 10
-50.7554081411
 20
-38.0303738749
 30
0.0
 11
-51.28432013
 21
-38.1241819937
 31
0.0
 11
-51.1871331026
 21
-38.0821446029
 31
0.0
 11
-50.976889122
 21
-38.0317830945
 31
0.0
 11
-50.7554081411
 21
-38.0303738749
 31
0.0
  0
SPLINE
  5
5A9
100
AcDbEntity
  8
0
100
AcDbSpline
 62
7
  6
CONTINUOUS
 70
0
 71
3
 72
10
 73
6
 74
4
 42
0.0000001
 43
0.0000001
 44
0.0000000001
 12
-0.2526038827
 22
-0.4495512038
 32
0.0
 13
-0.4603379694
 23
-0.2315080305
 33
0.0
 40
0.0
 40
0.0
 40
0.0
 40
0.0
 40
0.3915193347
 40
0.7940496483
 40
1.0
 40
1.0
 40
1.0
 40
1.0
 10
-50.3467770537
 20
-39.5268642195
 30
0.0
 10
-50.3797434884
 20
-39.5855335489
 30
0.0
 10
-50.4610883218
 20
-39.6961559874
 30
0.0
 10
-50.5934376655
 20
-39.8075415427
 30
0.0
 10
-50.6840776144
 20
-39.8599249529
 30
0.0
 10
-50.71567987
 20
-39.8758180063
 30
0.0
 11
-50.3467770537
 21
-39.5268642195
 31
0.0
 11
-50.4657335957
 21
-39.6892305018
 31
0.0
 11
-50.6238783935
 21
-39.8227015245
 31
0.0
 11
-50.71567987
 21
-39.8758180063
 31
0.0
  0
SPLINE
  5
5AA
100
AcDbEntity
  8
0
100
AcDbSpline
 62
7
  6
CONTINUOUS
 70
0
 71
3
 72
10
 73
6
 74
4
 42
0.0000001
 43
0.0000001
 44
0.0000000001
 12
-0.4865658941
 22
-0.2446982855
 32
0.0
 13
-0.5402886881
 23
0.0579693842
 33
0.0
 40
0.0
 40
0.0
 40
0.0
 40
0.0
 40
0.1945428616
 40
0.5924002923
 40
1.0
 40
1.0
 40
1.0
 40
1.0
 10
-50.71567987
 20
-39.8758180063
 30
0.0
 10
-50.7472325104
 20
-39.8916861079
 30
0.0
 10
-50.8461169196
 20
-39.9344296737
 30
0.0
 10
-51.0238007802
 20
-39.9767728609
 30
0.0
 10
-51.1711846885
 20
-39.9775022265
 30
0.0
 10
-51.2445918589
 20
-39.9696261251
 30
0.0
 11
-50.71567987
 21
-39.8758180063
 31
0.0
 11
-50.8128668974
 21
-39.9178553971
 31
0.0
 11
-51.023110878
 21
-39.9682169055
 31
0.0
 11
-51.2445918589
 21
-39.9696261251
 31
0.0
  0
SPLINE
  5
5AB
100
AcDbEntity
  8
0
100
AcDbSpline
 62
7
  6
CONTINUOUS
 70
0
 71
3
 72
12
 73
8
 74
6
 42
0.0000001
 43
0.0000001
 44
0.0000000001
 12
1.0277107464
 22
0.1276824623
 32
0.0
 13
0.5153355854
 23
0.8986653846
 33
0.0
 40
0.0
 40
0.0
 40
0.0
 40
0.0
 40
0.2431807337
 40
0.4766576409
 40
0.6970252872
 40
0.9043831571
 40
1.0
 40
1.0
 40
1.0
 40
1.0
 10
50.7659020187
 20
37.6757953111
 30
0.0
 10
50.8492085031
 20
37.6861452827
 30
0.0
 10
51.010597741
 20
37.7223473195
 30
0.0
 10
51.2311610848
 20
37.8217148622
 30
0.0
 10
51.4166988585
 20
37.9568309742
 30
0.0
 10
51.5382377337
 20
38.0918926851
 30
0.0
 10
51.595041574
 20
38.1799381954
 30
0.0
 10
51.6114664946
 20
38.208580711
 30
0.0
 11
50.7659020187
 21
37.6757953111
 31
0.0
 11
51.0111352553
 21
37.7313483008
 31
0.0
 11
51.2310059284
 21
37.8310052913
 31
0.0
 11
51.4148577074
 21
37.9655893205
 31
0.0
 11
51.5578373885
 21
38.1253465919
 31
0.0
 11
51.6114664946
 21
38.208580711
 31
0.0
  0
SPLINE
  5
5AC
100
AcDbEntity
  8
0
100
AcDbSpline
 62
7
  6
CONTINUOUS
 70
0
 71
3
 72
9
 73
5
 74
3
 42
0.0000001
 43
0.0000001
 44
0.0000000001
 12
0.1141041339
 22
0.1989799236
 32
0.0
 13
0.0601421282
 23
0.2213573269
 33
0.0
 40
0.0
 40
0.0
 40
0.0
 40
0.0
 40
0.4464455663
 40
1.0
 40
1.0
 40
1.0
 40
1.0
 10
51.6114664946
 20
38.208580711
 30
0.0
 10
51.6284469228
 20
38.2381919459
 30
0.0
 10
51.6628858601
 20
38.306567667
 30
0.0
 10
51.6884298233
 20
38.3788366044
 30
0.0
 10
51.6995271372
 20
38.4196810477
 30
0.0
 11
51.6114664946
 21
38.208580711
 31
0.0
 11
51.6574242548
 21
38.3000199921
 31
0.0
 11
51.6995271372
 21
38.4196810477
 31
0.0
  0
SPLINE
  5
5AD
100
AcDbEntity
  8
0
100
AcDbSpline
 62
7
  6
CONTINUOUS
 70
0
 71
3
 72
8
 73
4
 74
2
 42
0.0000001
 43
0.0000001
 44
0.0000000001
 12
0.0305187141
 22
0.1649907312
 32
0.0
 13
-0.0050465324
 23
0.1672594158
 33
0.0
 40
0.0
 40
0.0
 40
0.0
 40
0.0
 40
1.0
 40
1.0
 40
1.0
 40
1.0
 10
51.7148463085
 20
38.4868149853
 30
0.0
 10
51.7250192132
 20
38.5418118957
 30
0.0
 10
51.7295907335
 20
38.5979101342
 30
0.0
 10
51.727908556
 20
38.6536632728
 30
0.0
 11
51.7148463085
 21
38.4868149853
 31
0.0
 11
51.727908556
 21
38.6536632728
 31
0.0
  0
SPLINE
  5
5AE
100
AcDbEntity
  8
0
100
AcDbSpline
 62
7
  6
CONTINUOUS
 70
0
 71
3
 72
14
 73
10
 74
8
 42
0.0000001
 43
0.0000001
 44
0.0000000001
 12
-1.5265164876
 22
0.440625999
 32
0.0
 13
-0.7919061665
 23
-1.38096161
 33
0.0
 40
0.0
 40
0.0
 40
0.0
 40
0.0
 40
0.1778235013
 40
0.3469761403
 40
0.5074973323
 40
0.6594332102
 40
0.8028381927
 40
0.9377770198
 40
1.0
 40
1.0
 40
1.0
 40
1.0
 10
51.78426541
 20
40.2786429395
 30
0.0
 10
51.6937819078
 20
40.3047608254
 30
0.0
 10
51.5116861992
 20
40.3386171402
 30
0.0
 10
51.2412065619
 20
40.33399816
 30
0.0
 10
50.9905063199
 20
40.2781500788
 30
0.0
 10
50.7688389152
 20
40.1782851378
 30
0.0
 10
50.5833011415
 20
40.0431690258
 30
0.0
 10
50.4617622663
 20
39.9081073149
 30
0.0
 10
50.404958426
 20
39.8200618046
 30
0.0
 10
50.3885335054
 20
39.791419289
 30
0.0
 11
51.78426541
 21
40.2786429395
 31
0.0
 11
51.5063920122
 21
40.3297413554
 31
0.0
 11
51.2376843175
 21
40.3246451666
 31
0.0
 11
50.9888647447
 21
40.2686516992
 31
0.0
 11
50.7689940716
 21
40.1689947087
 31
0.0
 11
50.5851422926
 21
40.0344106795
 31
0.0
 11
50.4421626115
 21
39.8746534081
 31
0.0
 11
50.3885335054
 21
39.791419289
 31
0.0
  0
SPLINE
  5
5AF
100
AcDbEntity
  8
0
100
AcDbSpline
 62
7
  6
CONTINUOUS
 70
0
 71
3
 72
9
 73
5
 74
3
 42
0.0000001
 43
0.0000001
 44
0.0000000001
 12
-0.1141041339
 22
-0.1989799236
 32
0.0
 13
-0.0601421282
 23
-0.2213573269
 33
0.0
 40
0.0
 40
0.0
 40
0.0
 40
0.0
 40
0.4464455663
 40
1.0
 40
1.0
 40
1.0
 40
1.0
 10
50.3885335054
 20
39.791419289
 30
0.0
 10
50.3715530772
 20
39.7618080541
 30
0.0
 10
50.3371141399
 20
39.693432333
 30
0.0
 10
50.3115701767
 20
39.6211633956
 30
0.0
 10
50.3004728628
 20
39.5803189523
 30
0.0
 11
50.3885335054
 21
39.791419289
 31
0.0
 11
50.3425757452
 21
39.6999800079
 31
0.0
 11
50.3004728628
 21
39.5803189523
 31
0.0
  0
SPLINE
  5
5B0
100
AcDbEntity
  8
0
100
AcDbSpline
 62
7
  6
CONTINUOUS
 70
0
 71
3
 72
8
 73
4
 74
2
 42
0.0000001
 43
0.0000001
 44
0.0000000001
 12
-0.0305187141
 22
-0.1649907312
 32
0.0
 13
0.0050465324
 23
-0.1672594158
 33
0.0
 40
0.0
 40
0.0
 40
0.0
 40
0.0
 40
1.0
 40
1.0
 40
1.0
 40
1.0
 10
50.2851536915
 20
39.5131850147
 30
0.0
 10
50.2749807868
 20
39.4581881043
 30
0.0
 10
50.2704092665
 20
39.4020898658
 30
0.0
 10
50.272091444
 20
39.3463367272
 30
0.0
 11
50.2851536915
 21
39.5131850147
 31
0.0
 11
50.272091444
 21
39.3463367272
 31
0.0
  0
SPLINE
  5
5B1
100
AcDbEntity
  8
0
100
AcDbSpline
 62
7
  6
CONTINUOUS
 70
0
 71
3
 72
10
 73
6
 74
4
 42
0.0000001
 43
0.0000001
 44
0.0000000001
 12
0.2526038827
 22
0.4495512038
 32
0.0
 13
0.4603379694
 23
0.2315080305
 33
0.0
 40
0.0
 40
0.0
 40
0.0
 40
0.0
 40
0.3915193347
 40
0.7940496483
 40
1.0
 40
1.0
 40
1.0
 40
1.0
 10
50.3467770537
 20
39.5268642195
 30
0.0
 10
50.3797434884
 20
39.5855335489
 30
0.0
 10
50.4610883218
 20
39.6961559874
 30
0.0
 10
50.5934376655
 20
39.8075415427
 30
0.0
 10
50.6840776144
 20
39.8599249529
 30
0.0
 10
50.71567987
 20
39.8758180063
 30
0.0
 11
50.3467770537
 21
39.5268642195
 31
0.0
 11
50.4657335957
 21
39.6892305018
 31
0.0
 11
50.6238783935
 21
39.8227015245
 31
0.0
 11
50.71567987
 21
39.8758180063
 31
0.0
  0
SPLINE
  5
5B2
100
AcDbEntity
  8
0
100
AcDbSpline
 62
7
  6
CONTINUOUS
 70
0
 71
3
 72
10
 73
6
 74
4
 42
0.0000001
 43
0.0000001
 44
0.0000000001
 12
0.4865658941
 22
0.2446982855
 32
0.0
 13
0.5402886881
 23
-0.0579693842
 33
0.0
 40
0.0
 40
0.0
 40
0.0
 40
0.0
 40
0.1945428616
 40
0.5924002923
 40
1.0
 40
1.0
 40
1.0
 40
1.0
 10
50.71567987
 20
39.8758180063
 30
0.0
 10
50.7472325104
 20
39.8916861079
 30
0.0
 10
50.8461169196
 20
39.9344296737
 30
0.0
 10
51.0238007802
 20
39.9767728609
 30
0.0
 10
51.1711846885
 20
39.9775022265
 30
0.0
 10
51.2445918589
 20
39.9696261251
 30
0.0
 11
50.71567987
 21
39.8758180063
 31
0.0
 11
50.8128668974
 21
39.9178553971
 31
0.0
 11
51.023110878
 21
39.9682169055
 31
0.0
 11
51.2445918589
 21
39.9696261251
 31
0.0
  0
SPLINE
  5
5B3
100
AcDbEntity
  8
0
100
AcDbSpline
 62
7
  6
CONTINUOUS
 70
0
 71
3
 72
10
 73
6
 74
4
 42
0.0000001
 43
0.0000001
 44
0.0000000001
 12
-0.2526038827
 22
-0.4495512038
 32
0.0
 13
-0.4603379694
 23
-0.2315080305
 33
0.0
 40
0.0
 40
0.0
 40
0.0
 40
0.0
 40
0.3915193347
 40
0.7940496483
 40
1.0
 40
1.0
 40
1.0
 40
1.0
 10
51.6532229463
 20
38.4731357805
 30
0.0
 10
51.6202565116
 20
38.4144664511
 30
0.0
 10
51.5389116782
 20
38.3038440126
 30
0.0
 10
51.4065623345
 20
38.1924584573
 30
0.0
 10
51.3159223856
 20
38.1400750471
 30
0.0
 10
51.28432013
 20
38.1241819937
 30
0.0
 11
51.6532229463
 21
38.4731357805
 31
0.0
 11
51.5342664043
 21
38.3107694982
 31
0.0
 11
51.3761216065
 21
38.1772984755
 31
0.0
 11
51.28432013
 21
38.1241819937
 31
0.0
  0
SPLINE
  5
5B4
100
AcDbEntity
  8
0
100
AcDbSpline
 62
7
  6
CONTINUOUS
 70
0
 71
3
 72
10
 73
6
 74
4
 42
0.0000001
 43
0.0000001
 44
0.0000000001
 12
-0.4865658941
 22
-0.2446982855
 32
0.0
 13
-0.5402886881
 23
0.0579693842
 33
0.0
 40
0.0
 40
0.0
 40
0.0
 40
0.0
 40
0.1945428616
 40
0.5924002923
 40
1.0
 40
1.0
 40
1.0
 40
1.0
 10
51.28432013
 20
38.1241819937
 30
0.0
 10
51.2527674896
 20
38.1083138921
 30
0.0
 10
51.1538830804
 20
38.0655703263
 30
0.0
 10
50.9761992198
 20
38.0232271391
 30
0.0
 10
50.8288153115
 20
38.0224977735
 30
0.0
 10
50.7554081411
 20
38.0303738749
 30
0.0
 11
51.28432013
 21
38.1241819937
 31
0.0
 11
51.1871331026
 21
38.0821446029
 31
0.0
 11
50.976889122
 21
38.0317830945
 31
0.0
 11
50.7554081411
 21
38.0303738749
 31
0.0
  0
SPLINE
  5
5B5
100
AcDbEntity
  8
0
100
AcDbSpline
 62
7
  6
CONTINUOUS
 70
0
 71
3
 72
11
 73
7
 74
5
 42
0.0000001
 43
0.0000001
 44
0.0000000001
 12
1.0010009278
 22
-0.2889369603
 32
0.0
 13
0.9035576299
 23
0.5223789879
 33
0.0
 40
0.0
 40
0.0
 40
0.0
 40
0.0
 40
0.271179076
 40
0.5291351728
 40
0.7739283986
 40
1.0
 40
1.0
 40
1.0
 40
1.0
 10
-51.78426541
 20
37.7213570605
 30
0.0
 10
-51.6937819078
 20
37.6952391746
 30
0.0
 10
-51.5116861992
 20
37.6613828598
 30
0.0
 10
-51.2412065619
 20
37.66600184
 30
0.0
 10
-50.9924277824
 20
37.7214218802
 30
0.0
 10
-50.8421622972
 20
37.7886865996
 30
0.0
 10
-50.7740727238
 20
37.8280516177
 30
0.0
 11
-51.78426541
 21
37.7213570605
 31
0.0
 11
-51.5063920122
 21
37.6702586446
 31
0.0
 11
-51.2376843175
 21
37.6753548334
 31
0.0
 11
-50.9888647447
 21
37.7313483008
 31
0.0
 11
-50.7740727238
 21
37.8280516177
 31
0.0
  0
SPLINE
  5
5B6
100
AcDbEntity
  8
0
100
AcDbSpline
 62
7
  6
CONTINUOUS
 70
0
 71
3
 72
14
 73
10
 74
8
 42
0.0000001
 43
0.0000001
 44
0.0000000001
 12
-1.5265164876
 22
0.440625999
 32
0.0
 13
-0.7919061665
 23
-1.38096161
 33
0.0
 40
0.0
 40
0.0
 40
0.0
 40
0.0
 40
0.1778235013
 40
0.3469761403
 40
0.5074973323
 40
0.6594332102
 40
0.8028381927
 40
0.9377770198
 40
1.0
 40
1.0
 40
1.0
 40
1.0
 10
-50.21573459
 20
40.2786429395
 30
0.0
 10
-50.3062180922
 20
40.3047608254
 30
0.0
 10
-50.4883138008
 20
40.3386171402
 30
0.0
 10
-50.7587934381
 20
40.33399816
 30
0.0
 10
-51.0094936801
 20
40.2781500788
 30
0.0
 10
-51.2311610848
 20
40.1782851378
 30
0.0
 10
-51.4166988585
 20
40.0431690258
 30
0.0
 10
-51.5382377337
 20
39.9081073149
 30
0.0
 10
-51.595041574
 20
39.8200618046
 30
0.0
 10
-51.6114664946
 20
39.791419289
 30
0.0
 11
-50.21573459
 21
40.2786429395
 31
0.0
 11
-50.4936079878
 21
40.3297413554
 31
0.0
 11
-50.7623156825
 21
40.3246451666
 31
0.0
 11
-51.0111352553
 21
40.2686516992
 31
0.0
 11
-51.2310059284
 21
40.1689947087
 31
0.0
 11
-51.4148577074
 21
40.0344106795
 31
0.0
 11
-51.5578373885
 21
39.8746534081
 31
0.0
 11
-51.6114664946
 21
39.791419289
 31
0.0
  0
SPLINE
  5
5B7
100
AcDbEntity
  8
0
100
AcDbSpline
 62
7
  6
CONTINUOUS
 70
0
 71
3
 72
9
 73
5
 74
3
 42
0.0000001
 43
0.0000001
 44
0.0000000001
 12
-0.1141041339
 22
-0.1989799236
 32
0.0
 13
-0.0601421282
 23
-0.2213573269
 33
0.0
 40
0.0
 40
0.0
 40
0.0
 40
0.0
 40
0.4464455663
 40
1.0
 40
1.0
 40
1.0
 40
1.0
 10
-51.6114664946
 20
39.791419289
 30
0.0
 10
-51.6284469228
 20
39.7618080541
 30
0.0
 10
-51.6628858601
 20
39.693432333
 30
0.0
 10
-51.6884298233
 20
39.6211633956
 30
0.0
 10
-51.6995271372
 20
39.5803189523
 30
0.0
 11
-51.6114664946
 21
39.791419289
 31
0.0
 11
-51.6574242548
 21
39.6999800079
 31
0.0
 11
-51.6995271372
 21
39.5803189523
 31
0.0
  0
SPLINE
  5
5B8
100
AcDbEntity
  8
0
100
AcDbSpline
 62
7
  6
CONTINUOUS
 70
0
 71
3
 72
8
 73
4
 74
2
 42
0.0000001
 43
0.0000001
 44
0.0000000001
 12
-0.0305187141
 22
-0.1649907312
 32
0.0
 13
0.0050465324
 23
-0.1672594158
 33
0.0
 40
0.0
 40
0.0
 40
0.0
 40
0.0
 40
1.0
 40
1.0
 40
1.0
 40
1.0
 10
-51.7148463085
 20
39.5131850147
 30
0.0
 10
-51.7250192132
 20
39.4581881043
 30
0.0
 10
-51.7295907335
 20
39.4020898658
 30
0.0
 10
-51.727908556
 20
39.3463367272
 30
0.0
 11
-51.7148463085
 21
39.5131850147
 31
0.0
 11
-51.727908556
 21
39.3463367272
 31
0.0
  0
SPLINE
  5
5B9
100
AcDbEntity
  8
0
100
AcDbSpline
 62
7
  6
CONTINUOUS
 70
0
 71
3
 72
10
 73
6
 74
4
 42
0.0000001
 43
0.0000001
 44
0.0000000001
 12
0.2526038827
 22
0.4495512038
 32
0.0
 13
0.4603379694
 23
0.2315080305
 33
0.0
 40
0.0
 40
0.0
 40
0.0
 40
0.0
 40
0.3915193347
 40
0.7940496483
 40
1.0
 40
1.0
 40
1.0
 40
1.0
 10
-51.6532229463
 20
39.5268642195
 30
0.0
 10
-51.6202565116
 20
39.5855335489
 30
0.0
 10
-51.5389116782
 20
39.6961559874
 30
0.0
 10
-51.4065623345
 20
39.8075415427
 30
0.0
 10
-51.3159223856
 20
39.8599249529
 30
0.0
 10
-51.28432013
 20
39.8758180063
 30
0.0
 11
-51.6532229463
 21
39.5268642195
 31
0.0
 11
-51.5342664043
 21
39.6892305018
 31
0.0
 11
-51.3761216065
 21
39.8227015245
 31
0.0
 11
-51.28432013
 21
39.8758180063
 31
0.0
  0
SPLINE
  5
5BA
100
AcDbEntity
  8
0
100
AcDbSpline
 62
7
  6
CONTINUOUS
 70
0
 71
3
 72
10
 73
6
 74
4
 42
0.0000001
 43
0.0000001
 44
0.0000000001
 12
0.4865658941
 22
0.2446982855
 32
0.0
 13
0.5402886881
 23
-0.0579693842
 33
0.0
 40
0.0
 40
0.0
 40
0.0
 40
0.0
 40
0.1945428616
 40
0.5924002923
 40
1.0
 40
1.0
 40
1.0
 40
1.0
 10
-51.28432013
 20
39.8758180063
 30
0.0
 10
-51.2527674896
 20
39.8916861079
 30
0.0
 10
-51.1538830804
 20
39.9344296737
 30
0.0
 10
-50.9761992198
 20
39.9767728609
 30
0.0
 10
-50.8288153115
 20
39.9775022265
 30
0.0
 10
-50.7554081411
 20
39.9696261251
 30
0.0
 11
-51.28432013
 21
39.8758180063
 31
0.0
 11
-51.1871331026
 21
39.9178553971
 31
0.0
 11
-50.976889122
 21
39.9682169055
 31
0.0
 11
-50.7554081411
 21
39.9696261251
 31
0.0
  0
SPLINE
  5
5BB
100
AcDbEntity
  8
RACCORDO
100
AcDbSpline
 62
7
  6
CONTINUOUS
 70
0
 71
3
 72
10
 73
6
 74
4
 42
0.0000001
 43
0.0000001
 44
0.0000000001
 12
0.0985917321
 22
0.494163666
 32
0.0
 13
0.5039028263
 23
-0.0
 33
0.0
 40
0.0
 40
0.0
 40
0.0
 40
0.0
 40
0.1454828682
 40
0.5094726773
 40
1.0
 40
1.0
 40
1.0
 40
1.0
 10
-13.008575216
 20
51.3121420732
 30
0.0
 10
-13.00379408
 20
51.336106189
 30
0.0
 10
-12.8820662423
 20
51.3287232734
 30
0.0
 10
-12.7452005433
 20
51.3583213705
 30
0.0
 10
-12.5910511061
 20
51.3551229611
 30
0.0
 10
-12.5086584047
 20
51.3551229611
 30
0.0
 11
-13.008575216
 21
51.3121420732
 31
0.0
 11
-12.9385139719
 21
51.3337213468
 31
0.0
 11
-12.7557704037
 21
51.3494067403
 31
0.0
 11
-12.5086584047
 21
51.3551229611
 31
0.0
  0
SPLINE
  5
5BC
100
AcDbEntity
  8
RACCORDO
100
AcDbSpline
 62
7
  6
CONTINUOUS
 70
0
 71
3
 72
10
 73
6
 74
4
 42
0.0000001
 43
0.0000001
 44
0.0000000001
 12
0.5039042092
 22
0.0
 32
0.0
 13
0.0985920027
 23
-0.4941650221
 33
0.0
 40
0.0
 40
0.0
 40
0.0
 40
0.0
 40
0.4905273144
 40
0.8545171167
 40
1.0
 40
1.0
 40
1.0
 40
1.0
 10
12.5086570191
 20
51.3551229611
 30
0.0
 10
12.5910499453
 20
51.3551229611
 30
0.0
 10
12.7451998081
 20
51.3583214444
 30
0.0
 10
12.8820658716
 20
51.3287232576
 30
0.0
 10
13.0037940664
 20
51.3361062573
 30
0.0
 10
13.008575216
 20
51.3121420732
 30
0.0
 11
12.5086570191
 21
51.3551229611
 31
0.0
 11
12.7557696934
 21
51.3494067757
 31
0.0
 11
12.9385137629
 21
51.3337213776
 31
0.0
 11
13.008575216
 21
51.3121420732
 31
0.0
  0
SPLINE
  5
5BD
100
AcDbEntity
  8
RACCORDO
100
AcDbSpline
 62
7
  6
CONTINUOUS
 70
0
 71
3
 72
10
 73
6
 74
4
 42
0.0000001
 43
0.0000001
 44
0.0000000001
 12
-0.5039042092
 22
0.0
 32
0.0
 13
-0.0985920027
 23
0.4941650221
 33
0.0
 40
0.0
 40
0.0
 40
0.0
 40
0.0
 40
0.4905273144
 40
0.8545171167
 40
1.0
 40
1.0
 40
1.0
 40
1.0
 10
-12.5086570191
 20
-51.3551229611
 30
0.0
 10
-12.5910499453
 20
-51.3551229611
 30
0.0
 10
-12.7451998081
 20
-51.3583214444
 30
0.0
 10
-12.8820658716
 20
-51.3287232576
 30
0.0
 10
-13.0037940664
 20
-51.3361062573
 30
0.0
 10
-13.008575216
 20
-51.3121420732
 30
0.0
 11
-12.5086570191
 21
-51.3551229611
 31
0.0
 11
-12.7557696934
 21
-51.3494067757
 31
0.0
 11
-12.9385137629
 21
-51.3337213776
 31
0.0
 11
-13.008575216
 21
-51.3121420732
 31
0.0
  0
SPLINE
  5
5BE
100
AcDbEntity
  8
RACCORDO
100
AcDbSpline
 62
7
  6
CONTINUOUS
 70
0
 71
3
 72
10
 73
6
 74
4
 42
0.0000001
 43
0.0000001
 44
0.0000000001
 12
-0.098591732
 22
-0.4941636656
 32
0.0
 13
-0.503902826
 23
-0.0
 33
0.0
 40
0.0
 40
0.0
 40
0.0
 40
0.0
 40
0.1454828682
 40
0.5094726773
 40
1.0
 40
1.0
 40
1.0
 40
1.0
 10
13.008575216
 20
-51.3121420732
 30
0.0
 10
13.00379408
 20
-51.336106189
 30
0.0
 10
12.8820662424
 20
-51.3287232734
 30
0.0
 10
12.7452005435
 20
-51.3583213705
 30
0.0
 10
12.5910511064
 20
-51.3551229611
 30
0.0
 10
12.508658405
 20
-51.3551229611
 30
0.0
 11
13.008575216
 21
-51.3121420732
 31
0.0
 11
12.9385139719
 21
-51.3337213468
 31
0.0
 11
12.7557704039
 21
-51.3494067403
 31
0.0
 11
12.508658405
 21
-51.3551229611
 31
0.0
  0
SPLINE
  5
5BF
100
AcDbEntity
  8
RACCORDO
100
AcDbSpline
 62
7
  6
CONTINUOUS
 70
0
 71
3
 72
10
 73
6
 74
4
 42
0.0000001
 43
0.0000001
 44
0.0000000001
 12
-0.0985917319
 22
-0.494163665
 32
0.0
 13
-0.5039028254
 23
-0.0
 33
0.0
 40
0.0
 40
0.0
 40
0.0
 40
0.0
 40
0.1454828682
 40
0.5094726773
 40
1.0
 40
1.0
 40
1.0
 40
1.0
 10
12.758575216
 20
46.1878579268
 30
0.0
 10
12.75379408
 20
46.163893811
 30
0.0
 10
12.6320662425
 20
46.1712767266
 30
0.0
 10
12.4952005438
 20
46.1416786295
 30
0.0
 10
12.3410511069
 20
46.1448770389
 30
0.0
 10
12.2586584057
 20
46.1448770389
 30
0.0
 11
12.758575216
 21
46.1878579268
 31
0.0
 11
12.688513972
 21
46.1662786532
 31
0.0
 11
12.5057704042
 21
46.1505932597
 31
0.0
 11
12.2586584057
 21
46.1448770389
 31
0.0
  0
SPLINE
  5
5C0
100
AcDbEntity
  8
RACCORDO
100
AcDbSpline
 62
7
  6
CONTINUOUS
 70
0
 71
3
 72
10
 73
6
 74
4
 42
0.0000001
 43
0.0000001
 44
0.0000000001
 12
-0.5039042092
 22
0.0
 32
0.0
 13
-0.0985920027
 23
0.4941650221
 33
0.0
 40
0.0
 40
0.0
 40
0.0
 40
0.0
 40
0.4905273144
 40
0.8545171167
 40
1.0
 40
1.0
 40
1.0
 40
1.0
 10
-12.2586570191
 20
46.1448770389
 30
0.0
 10
-12.3410499453
 20
46.1448770389
 30
0.0
 10
-12.4951998081
 20
46.1416785556
 30
0.0
 10
-12.6320658716
 20
46.1712767424
 30
0.0
 10
-12.7537940664
 20
46.1638937427
 30
0.0
 10
-12.758575216
 20
46.1878579268
 30
0.0
 11
-12.2586570191
 21
46.1448770389
 31
0.0
 11
-12.5057696934
 21
46.1505932243
 31
0.0
 11
-12.6885137629
 21
46.1662786224
 31
0.0
 11
-12.758575216
 21
46.1878579268
 31
0.0
  0
SPLINE
  5
5C1
100
AcDbEntity
  8
RACCORDO
100
AcDbSpline
 62
7
  6
CONTINUOUS
 70
0
 71
3
 72
10
 73
6
 74
4
 42
0.0000001
 43
0.0000001
 44
0.0000000001
 12
0.0985917318
 22
0.4941636644
 32
0.0
 13
0.5039028247
 23
0.0
 33
0.0
 40
0.0
 40
0.0
 40
0.0
 40
0.0
 40
0.1454828682
 40
0.5094726773
 40
1.0
 40
1.0
 40
1.0
 40
1.0
 10
-12.758575216
 20
-46.1878579268
 30
0.0
 10
-12.75379408
 20
-46.1638938111
 30
0.0
 10
-12.6320662427
 20
-46.1712767266
 30
0.0
 10
-12.4952005441
 20
-46.1416786295
 30
0.0
 10
-12.3410511074
 20
-46.1448770389
 30
0.0
 10
-12.2586584063
 20
-46.1448770389
 30
0.0
 11
-12.758575216
 21
-46.1878579268
 31
0.0
 11
-12.6885139721
 21
-46.1662786532
 31
0.0
 11
-12.5057704045
 21
-46.1505932597
 31
0.0
 11
-12.2586584063
 21
-46.1448770389
 31
0.0
  0
SPLINE
  5
5C2
100
AcDbEntity
  8
RACCORDO
100
AcDbSpline
 62
7
  6
CONTINUOUS
 70
0
 71
3
 72
10
 73
6
 74
4
 42
0.0000001
 43
0.0000001
 44
0.0000000001
 12
0.5039042092
 22
0.0
 32
0.0
 13
0.0985920027
 23
-0.4941650221
 33
0.0
 40
0.0
 40
0.0
 40
0.0
 40
0.0
 40
0.4905273144
 40
0.8545171167
 40
1.0
 40
1.0
 40
1.0
 40
1.0
 10
12.2586570191
 20
-46.1448770389
 30
0.0
 10
12.3410499453
 20
-46.1448770389
 30
0.0
 10
12.4951998081
 20
-46.1416785556
 30
0.0
 10
12.6320658716
 20
-46.1712767424
 30
0.0
 10
12.7537940664
 20
-46.1638937427
 30
0.0
 10
12.758575216
 20
-46.1878579268
 30
0.0
 11
12.2586570191
 21
-46.1448770389
 31
0.0
 11
12.5057696934
 21
-46.1505932243
 31
0.0
 11
12.6885137629
 21
-46.1662786224
 31
0.0
 11
12.758575216
 21
-46.1878579268
 31
0.0
  0
SPLINE
  5
5C3
100
AcDbEntity
  8
RACCORDO
100
AcDbSpline
 62
253
  6
CONTINUOUS
 70
0
 71
3
 72
12
 73
8
 74
6
 42
0.0000001
 43
0.0000001
 44
0.0000000001
 12
2.3893949727
 22
-0.7343881221
 32
0.0
 13
2.4997068327
 23
-0.0000010162
 33
0.0
 40
0.0
 40
0.0
 40
0.0
 40
0.0
 40
0.0535335345
 40
0.1976230052
 40
0.418351051
 40
0.6946416155
 40
1.0
 40
1.0
 40
1.0
 40
1.0
 10
-54.8296729036
 20
35.4827200227
 30
0.0
 10
-54.7870353175
 20
35.4696152254
 30
0.0
 10
-54.618006196
 20
35.4908376808
 30
0.0
 10
-54.2733098635
 20
35.4666864956
 30
0.0
 10
-53.7371387621
 20
35.4750095066
 30
0.0
 10
-53.0693375514
 20
35.4691551874
 30
0.0
 10
-52.5844891458
 20
35.4698584907
 30
0.0
 10
-52.3300536657
 20
35.4698583872
 30
0.0
 11
-54.8296729036
 21
35.4827200227
 31
0.0
 11
-54.695914602
 21
35.4787185394
 31
0.0
 11
-54.3357509947
 21
35.4751350049
 31
0.0
 11
-53.7840028719
 21
35.4723003612
 31
0.0
 11
-53.0933598499
 21
35.4704835306
 31
0.0
 11
-52.3300536657
 21
35.4698583872
 31
0.0
  0
SPLINE
  5
5C4
100
AcDbEntity
  8
RACCORDO
100
AcDbSpline
 62
253
  6
CONTINUOUS
 70
0
 71
3
 72
12
 73
8
 74
6
 42
0.0000001
 43
0.0000001
 44
0.0000000001
 12
-0.0000010355
 22
2.4997068578
 32
0.0
 13
-0.7343896435
 23
2.3893945314
 33
0.0
 40
0.0
 40
0.0
 40
0.0
 40
0.0
 40
0.3056276734
 40
0.5820452254
 40
0.8026765247
 40
0.9465662303
 40
1.0
 40
1.0
 40
1.0
 40
1.0
 10
-47.4698583872
 20
40.3300536657
 30
0.0
 10
-47.4698584927
 20
40.5847135294
 30
0.0
 10
-47.4691540968
 20
41.0698924705
 30
0.0
 10
-47.4750144991
 20
41.7379423956
 30
0.0
 10
-47.4666946713
 20
42.2739722927
 30
0.0
 10
-47.4908202258
 20
42.6183424277
 30
0.0
 10
-47.4696396203
 20
42.7871147845
 30
0.0
 10
-47.4827200227
 20
42.8296729036
 30
0.0
 11
-47.4698583872
 21
40.3300536657
 31
0.0
 11
-47.4704846616
 21
41.0940330001
 31
0.0
 11
-47.4723040722
 21
41.784993455
 31
0.0
 11
-47.4751402747
 21
42.3364997342
 31
0.0
 11
-47.4787223631
 21
42.6961639806
 31
0.0
 11
-47.4827200227
 21
42.8296729036
 31
0.0
  0
SPLINE
  5
5C5
100
AcDbEntity
  8
RACCORDO
100
AcDbSpline
 62
253
  6
CONTINUOUS
 70
0
 71
3
 72
12
 73
8
 74
6
 42
0.0000001
 43
0.0000001
 44
0.0000000001
 12
0.7343881221
 22
2.3893949727
 32
0.0
 13
0.0000010162
 23
2.4997068327
 33
0.0
 40
0.0
 40
0.0
 40
0.0
 40
0.0
 40
0.0535335345
 40
0.1976230052
 40
0.418351051
 40
0.6946416155
 40
1.0
 40
1.0
 40
1.0
 40
1.0
 10
-47.4827200227
 20
-42.8296729036
 30
0.0
 10
-47.4696152254
 20
-42.7870353175
 30
0.0
 10
-47.4908376808
 20
-42.618006196
 30
0.0
 10
-47.4666864956
 20
-42.2733098635
 30
0.0
 10
-47.4750095066
 20
-41.7371387621
 30
0.0
 10
-47.4691551874
 20
-41.0693375514
 30
0.0
 10
-47.4698584907
 20
-40.5844891458
 30
0.0
 10
-47.4698583872
 20
-40.3300536657
 30
0.0
 11
-47.4827200227
 21
-42.8296729036
 31
0.0
 11
-47.4787185394
 21
-42.695914602
 31
0.0
 11
-47.4751350049
 21
-42.3357509947
 31
0.0
 11
-47.4723003612
 21
-41.7840028719
 31
0.0
 11
-47.4704835306
 21
-41.0933598499
 31
0.0
 11
-47.4698583872
 21
-40.3300536657
 31
0.0
  0
SPLINE
  5
5C6
100
AcDbEntity
  8
RACCORDO
100
AcDbSpline
 62
253
  6
CONTINUOUS
 70
0
 71
3
 72
12
 73
8
 74
6
 42
0.0000001
 43
0.0000001
 44
0.0000000001
 12
-2.4997068578
 22
-0.0000010355
 32
0.0
 13
-2.3893945314
 23
-0.7343896435
 33
0.0
 40
0.0
 40
0.0
 40
0.0
 40
0.0
 40
0.3056276734
 40
0.5820452254
 40
0.8026765247
 40
0.9465662303
 40
1.0
 40
1.0
 40
1.0
 40
1.0
 10
-52.3300536657
 20
-35.4698583872
 30
0.0
 10
-52.5847135294
 20
-35.4698584927
 30
0.0
 10
-53.0698924705
 20
-35.4691540968
 30
0.0
 10
-53.7379423956
 20
-35.4750144991
 30
0.0
 10
-54.2739722927
 20
-35.4666946713
 30
0.0
 10
-54.6183424277
 20
-35.4908202258
 30
0.0
 10
-54.7871147845
 20
-35.4696396203
 30
0.0
 10
-54.8296729036
 20
-35.4827200227
 30
0.0
 11
-52.3300536657
 21
-35.4698583872
 31
0.0
 11
-53.0940330001
 21
-35.4704846616
 31
0.0
 11
-53.784993455
 21
-35.4723040722
 31
0.0
 11
-54.3364997342
 21
-35.4751402747
 31
0.0
 11
-54.6961639806
 21
-35.4787223631
 31
0.0
 11
-54.8296729036
 21
-35.4827200227
 31
0.0
  0
SPLINE
  5
5C7
100
AcDbEntity
  8
RACCORDO
100
AcDbSpline
 62
253
  6
CONTINUOUS
 70
0
 71
3
 72
12
 73
8
 74
6
 42
0.0000001
 43
0.0000001
 44
0.0000000001
 12
-0.7343881221
 22
-2.3893949727
 32
0.0
 13
-0.0000010162
 23
-2.4997068327
 33
0.0
 40
0.0
 40
0.0
 40
0.0
 40
0.0
 40
0.0535335345
 40
0.1976230052
 40
0.418351051
 40
0.6946416155
 40
1.0
 40
1.0
 40
1.0
 40
1.0
 10
47.4827200227
 20
42.8296729036
 30
0.0
 10
47.4696152254
 20
42.7870353175
 30
0.0
 10
47.4908376808
 20
42.618006196
 30
0.0
 10
47.4666864956
 20
42.2733098635
 30
0.0
 10
47.4750095066
 20
41.7371387621
 30
0.0
 10
47.4691551874
 20
41.0693375514
 30
0.0
 10
47.4698584907
 20
40.5844891458
 30
0.0
 10
47.4698583872
 20
40.3300536657
 30
0.0
 11
47.4827200227
 21
42.8296729036
 31
0.0
 11
47.4787185394
 21
42.695914602
 31
0.0
 11
47.4751350049
 21
42.3357509947
 31
0.0
 11
47.4723003612
 21
41.7840028719
 31
0.0
 11
47.4704835306
 21
41.0933598499
 31
0.0
 11
47.4698583872
 21
40.3300536657
 31
0.0
  0
SPLINE
  5
5C8
100
AcDbEntity
  8
RACCORDO
100
AcDbSpline
 62
253
  6
CONTINUOUS
 70
0
 71
3
 72
12
 73
8
 74
6
 42
0.0000001
 43
0.0000001
 44
0.0000000001
 12
2.4997068578
 22
0.0000010355
 32
0.0
 13
2.3893945314
 23
0.7343896435
 33
0.0
 40
0.0
 40
0.0
 40
0.0
 40
0.0
 40
0.3056276734
 40
0.5820452254
 40
0.8026765247
 40
0.9465662303
 40
1.0
 40
1.0
 40
1.0
 40
1.0
 10
52.3300536657
 20
35.4698583872
 30
0.0
 10
52.5847135294
 20
35.4698584927
 30
0.0
 10
53.0698924705
 20
35.4691540968
 30
0.0
 10
53.7379423956
 20
35.4750144991
 30
0.0
 10
54.2739722927
 20
35.4666946713
 30
0.0
 10
54.6183424277
 20
35.4908202258
 30
0.0
 10
54.7871147845
 20
35.4696396203
 30
0.0
 10
54.8296729036
 20
35.4827200227
 30
0.0
 11
52.3300536657
 21
35.4698583872
 31
0.0
 11
53.0940330001
 21
35.4704846616
 31
0.0
 11
53.784993455
 21
35.4723040722
 31
0.0
 11
54.3364997342
 21
35.4751402747
 31
0.0
 11
54.6961639806
 21
35.4787223631
 31
0.0
 11
54.8296729036
 21
35.4827200227
 31
0.0
  0
SPLINE
  5
5C9
100
AcDbEntity
  8
RACCORDO
100
AcDbSpline
 62
253
  6
CONTINUOUS
 70
0
 71
3
 72
12
 73
8
 74
6
 42
0.0000001
 43
0.0000001
 44
0.0000000001
 12
-2.3893949727
 22
0.7343881221
 32
0.0
 13
-2.4997068327
 23
0.0000010162
 33
0.0
 40
0.0
 40
0.0
 40
0.0
 40
0.0
 40
0.0535335345
 40
0.1976230052
 40
0.418351051
 40
0.6946416155
 40
1.0
 40
1.0
 40
1.0
 40
1.0
 10
54.8296729036
 20
-35.4827200227
 30
0.0
 10
54.7870353175
 20
-35.4696152254
 30
0.0
 10
54.618006196
 20
-35.4908376808
 30
0.0
 10
54.2733098635
 20
-35.4666864956
 30
0.0
 10
53.7371387621
 20
-35.4750095066
 30
0.0
 10
53.0693375514
 20
-35.4691551874
 30
0.0
 10
52.5844891458
 20
-35.4698584907
 30
0.0
 10
52.3300536657
 20
-35.4698583872
 30
0.0
 11
54.8296729036
 21
-35.4827200227
 31
0.0
 11
54.695914602
 21
-35.4787185394
 31
0.0
 11
54.3357509947
 21
-35.4751350049
 31
0.0
 11
53.7840028719
 21
-35.4723003612
 31
0.0
 11
53.0933598499
 21
-35.4704835306
 31
0.0
 11
52.3300536657
 21
-35.4698583872
 31
0.0
  0
SPLINE
  5
5CA
100
AcDbEntity
  8
RACCORDO
100
AcDbSpline
 62
253
  6
CONTINUOUS
 70
0
 71
3
 72
12
 73
8
 74
6
 42
0.0000001
 43
0.0000001
 44
0.0000000001
 12
0.0000010355
 22
-2.4997068578
 32
0.0
 13
0.7343896435
 23
-2.3893945314
 33
0.0
 40
0.0
 40
0.0
 40
0.0
 40
0.0
 40
0.3056276734
 40
0.5820452254
 40
0.8026765247
 40
0.9465662303
 40
1.0
 40
1.0
 40
1.0
 40
1.0
 10
47.4698583872
 20
-40.3300536657
 30
0.0
 10
47.4698584927
 20
-40.5847135294
 30
0.0
 10
47.4691540968
 20
-41.0698924705
 30
0.0
 10
47.4750144991
 20
-41.7379423956
 30
0.0
 10
47.4666946713
 20
-42.2739722927
 30
0.0
 10
47.4908202258
 20
-42.6183424277
 30
0.0
 10
47.4696396203
 20
-42.7871147845
 30
0.0
 10
47.4827200227
 20
-42.8296729036
 30
0.0
 11
47.4698583872
 21
-40.3300536657
 31
0.0
 11
47.4704846616
 21
-41.0940330001
 31
0.0
 11
47.4723040722
 21
-41.784993455
 31
0.0
 11
47.4751402747
 21
-42.3364997342
 31
0.0
 11
47.4787223631
 21
-42.6961639806
 31
0.0
 11
47.4827200227
 21
-42.8296729036
 31
0.0
  0
LINE
  5
5CB
100
AcDbEntity
  8
RACCORDO
100
AcDbLine
 62
7
  6
CONTINUOUS
 10
52.2247732354
 20
-35.4698583872
 11
52.0176692932
 21
-34.9698652411
  0
SPLINE
  5
5CC
100
AcDbEntity
  8
RACCORDO
100
AcDbSpline
 62
7
  6
CONTINUOUS
 70
0
 71
3
 72
12
 73
8
 74
6
 42
0.0000001
 43
0.0000001
 44
0.0000000001
 12
0.7902101321
 22
0.5496697039
 32
0.0
 13
0.9621315383
 23
-0.0295252315
 33
0.0
 40
0.0
 40
0.0
 40
0.0
 40
0.0
 40
0.2117376345
 40
0.442689174
 40
0.6801249737
 40
0.8930456653
 40
1.0
 40
1.0
 40
1.0
 40
1.0
 10
49.6093344596
 20
-37.3782000747
 30
0.0
 10
49.6651068676
 20
-37.3394048204
 30
0.0
 10
49.790737723
 20
-37.270749113
 30
0.0
 10
49.9994932475
 20
-37.2036868035
 30
0.0
 10
50.2160181276
 20
-37.1691411358
 30
0.0
 10
50.3948693136
 20
-37.1604774225
 30
0.0
 10
50.4975174507
 20
-37.1617601753
 30
0.0
 10
50.5318188302
 20
-37.1628127924
 30
0.0
 11
49.6093344596
 21
-37.3782000747
 31
0.0
 11
49.7876291691
 21
-37.2794493997
 31
0.0
 11
49.9987409017
 21
-37.2097806585
 31
0.0
 11
50.2241985993
 21
-37.1722993571
 31
0.0
 11
50.4288733736
 21
-37.1616017091
 31
0.0
 11
50.5318188302
 21
-37.1628127924
 31
0.0
  0
SPLINE
  5
5CD
100
AcDbEntity
  8
RACCORDO
100
AcDbSpline
 62
7
  6
CONTINUOUS
 70
0
 71
3
 72
12
 73
8
 74
6
 42
0.0000001
 43
0.0000001
 44
0.0000000001
 12
-0.5496697039
 22
-0.7902101321
 32
0.0
 13
0.0295252319
 23
-0.9621315382
 33
0.0
 40
0.0
 40
0.0
 40
0.0
 40
0.0
 40
0.2117376345
 40
0.442689174
 40
0.6801249737
 40
0.8930456653
 40
1.0
 40
1.0
 40
1.0
 40
1.0
 10
49.3782000747
 20
-37.6093344596
 30
0.0
 10
49.3394048204
 20
-37.6651068676
 30
0.0
 10
49.270749113
 20
-37.790737723
 30
0.0
 10
49.2036868035
 20
-37.9994932475
 30
0.0
 10
49.1691411358
 20
-38.2160181276
 30
0.0
 10
49.1604774225
 20
-38.3948693136
 30
0.0
 10
49.1617601753
 20
-38.4975174507
 30
0.0
 10
49.1628127924
 20
-38.5318188302
 30
0.0
 11
49.3782000747
 21
-37.6093344596
 31
0.0
 11
49.2794493997
 21
-37.7876291691
 31
0.0
 11
49.2097806585
 21
-37.9987409017
 31
0.0
 11
49.1722993571
 21
-38.2241985993
 31
0.0
 11
49.1616017091
 21
-38.4288733736
 31
0.0
 11
49.1628127924
 21
-38.5318188302
 31
0.0
  0
LINE
  5
5CE
100
AcDbEntity
  8
RACCORDO
100
AcDbLine
 62
7
  6
CONTINUOUS
 10
47.4698583872
 20
-40.2247732354
 11
46.9698652411
 21
-40.0176692932
  0
LINE
  5
5CF
100
AcDbEntity
  8
RACCORDO
100
AcDbLine
 62
7
  6
CONTINUOUS
 10
-47.4698583872
 20
-40.2247732354
 11
-46.9698652411
 21
-40.0176692932
  0
SPLINE
  5
5D0
100
AcDbEntity
  8
RACCORDO
100
AcDbSpline
 62
7
  6
CONTINUOUS
 70
0
 71
3
 72
12
 73
8
 74
6
 42
0.0000001
 43
0.0000001
 44
0.0000000001
 12
0.5496697039
 22
-0.7902101321
 32
0.0
 13
-0.0295252316
 23
-0.9621315383
 33
0.0
 40
0.0
 40
0.0
 40
0.0
 40
0.0
 40
0.2117376345
 40
0.442689174
 40
0.6801249737
 40
0.8930456653
 40
1.0
 40
1.0
 40
1.0
 40
1.0
 10
-49.3782000747
 20
-37.6093344596
 30
0.0
 10
-49.3394048204
 20
-37.6651068676
 30
0.0
 10
-49.270749113
 20
-37.790737723
 30
0.0
 10
-49.2036868035
 20
-37.9994932475
 30
0.0
 10
-49.1691411358
 20
-38.2160181276
 30
0.0
 10
-49.1604774225
 20
-38.3948693136
 30
0.0
 10
-49.1617601753
 20
-38.4975174507
 30
0.0
 10
-49.1628127924
 20
-38.5318188302
 30
0.0
 11
-49.3782000747
 21
-37.6093344596
 31
0.0
 11
-49.2794493997
 21
-37.7876291691
 31
0.0
 11
-49.2097806585
 21
-37.9987409017
 31
0.0
 11
-49.1722993571
 21
-38.2241985993
 31
0.0
 11
-49.1616017091
 21
-38.4288733736
 31
0.0
 11
-49.1628127924
 21
-38.5318188302
 31
0.0
  0
SPLINE
  5
5D1
100
AcDbEntity
  8
RACCORDO
100
AcDbSpline
 62
7
  6
CONTINUOUS
 70
0
 71
3
 72
12
 73
8
 74
6
 42
0.0000001
 43
0.0000001
 44
0.0000000001
 12
-0.7902101321
 22
0.5496697039
 32
0.0
 13
-0.9621315382
 23
-0.0295252319
 33
0.0
 40
0.0
 40
0.0
 40
0.0
 40
0.0
 40
0.2117376345
 40
0.442689174
 40
0.6801249737
 40
0.8930456653
 40
1.0
 40
1.0
 40
1.0
 40
1.0
 10
-49.6093344596
 20
-37.3782000747
 30
0.0
 10
-49.6651068676
 20
-37.3394048204
 30
0.0
 10
-49.790737723
 20
-37.270749113
 30
0.0
 10
-49.9994932475
 20
-37.2036868035
 30
0.0
 10
-50.2160181276
 20
-37.1691411358
 30
0.0
 10
-50.3948693136
 20
-37.1604774225
 30
0.0
 10
-50.4975174507
 20
-37.1617601753
 30
0.0
 10
-50.5318188302
 20
-37.1628127924
 30
0.0
 11
-49.6093344596
 21
-37.3782000747
 31
0.0
 11
-49.7876291691
 21
-37.2794493997
 31
0.0
 11
-49.9987409017
 21
-37.2097806585
 31
0.0
 11
-50.2241985993
 21
-37.1722993571
 31
0.0
 11
-50.4288733736
 21
-37.1616017091
 31
0.0
 11
-50.5318188302
 21
-37.1628127924
 31
0.0
  0
LINE
  5
5D2
100
AcDbEntity
  8
RACCORDO
100
AcDbLine
 62
7
  6
CONTINUOUS
 10
-52.2247732354
 20
-35.4698583872
 11
-52.0176692932
 21
-34.9698652411
  0
LINE
  5
5D3
100
AcDbEntity
  8
RACCORDO
100
AcDbLine
 62
7
  6
CONTINUOUS
 10
47.4698583872
 20
40.2247732354
 11
46.9698652411
 21
40.0176692932
  0
SPLINE
  5
5D4
100
AcDbEntity
  8
RACCORDO
100
AcDbSpline
 62
7
  6
CONTINUOUS
 70
0
 71
3
 72
12
 73
8
 74
6
 42
0.0000001
 43
0.0000001
 44
0.0000000001
 12
-0.0295252316
 22
-0.9621315383
 32
0.0
 13
0.5496697039
 23
-0.7902101321
 33
0.0
 40
0.0
 40
0.0
 40
0.0
 40
0.0
 40
0.1069543347
 40
0.3198750263
 40
0.557310826
 40
0.7882623655
 40
1.0
 40
1.0
 40
1.0
 40
1.0
 10
49.1628127924
 20
38.5318188302
 30
0.0
 10
49.1617601753
 20
38.4975174507
 30
0.0
 10
49.1604774225
 20
38.3948693136
 30
0.0
 10
49.1691411358
 20
38.2160181276
 30
0.0
 10
49.2036868035
 20
37.9994932475
 30
0.0
 10
49.270749113
 20
37.790737723
 30
0.0
 10
49.3394048204
 20
37.6651068676
 30
0.0
 10
49.3782000747
 20
37.6093344596
 30
0.0
 11
49.1628127924
 21
38.5318188302
 31
0.0
 11
49.1616017091
 21
38.4288733736
 31
0.0
 11
49.1722993571
 21
38.2241985993
 31
0.0
 11
49.2097806585
 21
37.9987409017
 31
0.0
 11
49.2794493997
 21
37.7876291691
 31
0.0
 11
49.3782000747
 21
37.6093344596
 31
0.0
  0
SPLINE
  5
5D5
100
AcDbEntity
  8
RACCORDO
100
AcDbSpline
 62
7
  6
CONTINUOUS
 70
0
 71
3
 72
12
 73
8
 74
6
 42
0.0000001
 43
0.0000001
 44
0.0000000001
 12
-0.9621315382
 22
-0.0295252319
 32
0.0
 13
-0.7902101321
 23
0.5496697039
 33
0.0
 40
0.0
 40
0.0
 40
0.0
 40
0.0
 40
0.1069543347
 40
0.3198750263
 40
0.557310826
 40
0.7882623655
 40
1.0
 40
1.0
 40
1.0
 40
1.0
 10
50.5318188302
 20
37.1628127924
 30
0.0
 10
50.4975174507
 20
37.1617601753
 30
0.0
 10
50.3948693136
 20
37.1604774225
 30
0.0
 10
50.2160181276
 20
37.1691411358
 30
0.0
 10
49.9994932475
 20
37.2036868035
 30
0.0
 10
49.790737723
 20
37.270749113
 30
0.0
 10
49.6651068676
 20
37.3394048204
 30
0.0
 10
49.6093344596
 20
37.3782000747
 30
0.0
 11
50.5318188302
 21
37.1628127924
 31
0.0
 11
50.4288733736
 21
37.1616017091
 31
0.0
 11
50.2241985993
 21
37.1722993571
 31
0.0
 11
49.9987409017
 21
37.2097806585
 31
0.0
 11
49.7876291691
 21
37.2794493997
 31
0.0
 11
49.6093344596
 21
37.3782000747
 31
0.0
  0
LINE
  5
5D6
100
AcDbEntity
  8
RACCORDO
100
AcDbLine
 62
7
  6
CONTINUOUS
 10
52.2247732354
 20
35.4698583872
 11
52.0176692932
 21
34.9698652411
  0
LINE
  5
5D7
100
AcDbEntity
  8
RACCORDO
100
AcDbLine
 62
7
  6
CONTINUOUS
 10
-52.2247732354
 20
35.4698583872
 11
-52.0176692932
 21
34.9698652411
  0
SPLINE
  5
5D8
100
AcDbEntity
  8
RACCORDO
100
AcDbSpline
 62
7
  6
CONTINUOUS
 70
0
 71
3
 72
12
 73
8
 74
6
 42
0.0000001
 43
0.0000001
 44
0.0000000001
 12
0.9621315383
 22
-0.0295252316
 32
0.0
 13
0.7902101321
 23
0.5496697039
 33
0.0
 40
0.0
 40
0.0
 40
0.0
 40
0.0
 40
0.1069543347
 40
0.3198750263
 40
0.557310826
 40
0.7882623655
 40
1.0
 40
1.0
 40
1.0
 40
1.0
 10
-50.5318188302
 20
37.1628127924
 30
0.0
 10
-50.4975174507
 20
37.1617601753
 30
0.0
 10
-50.3948693136
 20
37.1604774225
 30
0.0
 10
-50.2160181276
 20
37.1691411358
 30
0.0
 10
-49.9994932475
 20
37.2036868035
 30
0.0
 10
-49.790737723
 20
37.270749113
 30
0.0
 10
-49.6651068676
 20
37.3394048204
 30
0.0
 10
-49.6093344596
 20
37.3782000747
 30
0.0
 11
-50.5318188302
 21
37.1628127924
 31
0.0
 11
-50.4288733736
 21
37.1616017091
 31
0.0
 11
-50.2241985993
 21
37.1722993571
 31
0.0
 11
-49.9987409017
 21
37.2097806585
 31
0.0
 11
-49.7876291691
 21
37.2794493997
 31
0.0
 11
-49.6093344596
 21
37.3782000747
 31
0.0
  0
SPLINE
  5
5D9
100
AcDbEntity
  8
RACCORDO
100
AcDbSpline
 62
7
  6
CONTINUOUS
 70
0
 71
3
 72
12
 73
8
 74
6
 42
0.0000001
 43
0.0000001
 44
0.0000000001
 12
0.0295252319
 22
-0.9621315382
 32
0.0
 13
-0.5496697039
 23
-0.7902101321
 33
0.0
 40
0.0
 40
0.0
 40
0.0
 40
0.0
 40
0.1069543347
 40
0.3198750263
 40
0.557310826
 40
0.7882623655
 40
1.0
 40
1.0
 40
1.0
 40
1.0
 10
-49.1628127924
 20
38.5318188302
 30
0.0
 10
-49.1617601753
 20
38.4975174507
 30
0.0
 10
-49.1604774225
 20
38.3948693136
 30
0.0
 10
-49.1691411358
 20
38.2160181276
 30
0.0
 10
-49.2036868035
 20
37.9994932475
 30
0.0
 10
-49.270749113
 20
37.790737723
 30
0.0
 10
-49.3394048204
 20
37.6651068676
 30
0.0
 10
-49.3782000747
 20
37.6093344596
 30
0.0
 11
-49.1628127924
 21
38.5318188302
 31
0.0
 11
-49.1616017091
 21
38.4288733736
 31
0.0
 11
-49.1722993571
 21
38.2241985993
 31
0.0
 11
-49.2097806585
 21
37.9987409017
 31
0.0
 11
-49.2794493997
 21
37.7876291691
 31
0.0
 11
-49.3782000747
 21
37.6093344596
 31
0.0
  0
LINE
  5
5DA
100
AcDbEntity
  8
RACCORDO
100
AcDbLine
 62
7
  6
CONTINUOUS
 10
-47.4698583872
 20
40.2247732354
 11
-46.9698652411
 21
40.0176692932
  0
SPLINE
  5
5DB
100
AcDbEntity
  8
RACCORDO
100
AcDbSpline
 62
253
  6
CONTINUOUS
 70
0
 71
3
 72
12
 73
8
 74
6
 42
0.0000001
 43
0.0000001
 44
0.0000000001
 12
2.9996161371
 22
0.0000015681
 32
0.0
 13
2.9080283516
 23
0.7355732976
 33
0.0
 40
0.0
 40
0.0
 40
0.0
 40
0.0
 40
0.3057745518
 40
0.5822602388
 40
0.802892283
 40
0.9467010665
 40
1.0
 40
1.0
 40
1.0
 40
1.0
 10
52.3300536657
 20
34.9698652411
 30
0.0
 10
52.6357890923
 20
34.969865401
 30
0.0
 10
53.218139507
 20
34.9691580946
 30
0.0
 10
54.0202902496
 20
34.9750309631
 30
0.0
 10
54.6627769516
 20
34.9666872104
 30
0.0
 10
55.0772389289
 20
34.9908453177
 30
0.0
 10
55.2779318146
 20
34.9696584525
 30
0.0
 10
55.3295967511
 20
34.9827268766
 30
0.0
 11
52.3300536657
 21
34.9698652411
 31
0.0
 11
53.2472597314
 21
34.9704921481
 31
0.0
 11
54.0766086612
 21
34.9723128172
 31
0.0
 11
54.7384140181
 21
34.9751504038
 31
0.0
 11
55.1697702812
 21
34.9787338939
 31
0.0
 11
55.3295967511
 21
34.9827268766
 31
0.0
  0
SPLINE
  5
5DC
100
AcDbEntity
  8
RACCORDO
100
AcDbSpline
 62
253
  6
CONTINUOUS
 70
0
 71
3
 72
12
 73
8
 74
6
 42
0.0000001
 43
0.0000001
 44
0.0000000001
 12
-2.9080285235
 22
0.7355725322
 32
0.0
 13
-2.999616116
 23
0.0000015432
 33
0.0
 40
0.0
 40
0.0
 40
0.0
 40
0.0
 40
0.0533990698
 40
0.1974092818
 40
0.4181395833
 40
0.6944977661
 40
1.0
 40
1.0
 40
1.0
 40
1.0
 10
55.3295967511
 20
-34.9827268766
 30
0.0
 10
55.2778347452
 20
-34.9696339136
 30
0.0
 10
55.0768343235
 20
-34.9908629678
 30
0.0
 10
54.6619759321
 20
-34.9666789168
 30
0.0
 10
54.0193171003
 20
-34.9750259361
 30
0.0
 10
53.2174671631
 20
-34.9691591975
 30
0.0
 10
52.6355168071
 20
-34.9698653983
 30
0.0
 10
52.3300536657
 20
-34.9698652411
 30
0.0
 11
55.3295967511
 21
-34.9827268766
 31
0.0
 11
55.1694699143
 21
-34.9787300494
 31
0.0
 11
54.7375094375
 21
-34.9751450941
 31
0.0
 11
54.0754093417
 21
-34.9723090717
 31
0.0
 11
53.2464428762
 21
-34.9704910038
 31
0.0
 11
52.3300536657
 21
-34.9698652411
 31
0.0
  0
SPLINE
  5
5DD
100
AcDbEntity
  8
RACCORDO
100
AcDbSpline
 62
253
  6
CONTINUOUS
 70
0
 71
3
 72
12
 73
8
 74
6
 42
0.0000001
 43
0.0000001
 44
0.0000000001
 12
0.0000015681
 22
-2.9996161371
 32
0.0
 13
0.7355732976
 23
-2.9080283516
 33
0.0
 40
0.0
 40
0.0
 40
0.0
 40
0.0
 40
0.3057745518
 40
0.5822602388
 40
0.802892283
 40
0.9467010665
 40
1.0
 40
1.0
 40
1.0
 40
1.0
 10
46.9698652411
 20
-40.3300536657
 30
0.0
 10
46.969865401
 20
-40.6357890923
 30
0.0
 10
46.9691580946
 20
-41.218139507
 30
0.0
 10
46.9750309631
 20
-42.0202902496
 30
0.0
 10
46.9666872104
 20
-42.6627769516
 30
0.0
 10
46.9908453177
 20
-43.0772389289
 30
0.0
 10
46.9696584525
 20
-43.2779318146
 30
0.0
 10
46.9827268766
 20
-43.3295967511
 30
0.0
 11
46.9698652411
 21
-40.3300536657
 31
0.0
 11
46.9704921481
 21
-41.2472597314
 31
0.0
 11
46.9723128172
 21
-42.0766086612
 31
0.0
 11
46.9751504038
 21
-42.7384140181
 31
0.0
 11
46.9787338939
 21
-43.1697702812
 31
0.0
 11
46.9827268766
 21
-43.3295967511
 31
0.0
  0
SPLINE
  5
5DE
100
AcDbEntity
  8
RACCORDO
100
AcDbSpline
 62
253
  6
CONTINUOUS
 70
0
 71
3
 72
12
 73
8
 74
6
 42
0.0000001
 43
0.0000001
 44
0.0000000001
 12
0.7355725322
 22
2.9080285235
 32
0.0
 13
0.0000015432
 23
2.999616116
 33
0.0
 40
0.0
 40
0.0
 40
0.0
 40
0.0
 40
0.0533990698
 40
0.1974092818
 40
0.4181395833
 40
0.6944977661
 40
1.0
 40
1.0
 40
1.0
 40
1.0
 10
-46.9827268766
 20
-43.3295967511
 30
0.0
 10
-46.9696339136
 20
-43.2778347452
 30
0.0
 10
-46.9908629678
 20
-43.0768343235
 30
0.0
 10
-46.9666789168
 20
-42.6619759321
 30
0.0
 10
-46.9750259361
 20
-42.0193171003
 30
0.0
 10
-46.9691591975
 20
-41.2174671631
 30
0.0
 10
-46.9698653983
 20
-40.6355168071
 30
0.0
 10
-46.9698652411
 20
-40.3300536657
 30
0.0
 11
-46.9827268766
 21
-43.3295967511
 31
0.0
 11
-46.9787300494
 21
-43.1694699143
 31
0.0
 11
-46.9751450941
 21
-42.7375094375
 31
0.0
 11
-46.9723090717
 21
-42.0754093417
 31
0.0
 11
-46.9704910038
 21
-41.2464428762
 31
0.0
 11
-46.9698652411
 21
-40.3300536657
 31
0.0
  0
SPLINE
  5
5DF
100
AcDbEntity
  8
RACCORDO
100
AcDbSpline
 62
253
  6
CONTINUOUS
 70
0
 71
3
 72
12
 73
8
 74
6
 42
0.0000001
 43
0.0000001
 44
0.0000000001
 12
-2.9996161371
 22
-0.0000015681
 32
0.0
 13
-2.9080283516
 23
-0.7355732976
 33
0.0
 40
0.0
 40
0.0
 40
0.0
 40
0.0
 40
0.3057745518
 40
0.5822602388
 40
0.802892283
 40
0.9467010665
 40
1.0
 40
1.0
 40
1.0
 40
1.0
 10
-52.3300536657
 20
-34.9698652411
 30
0.0
 10
-52.6357890923
 20
-34.969865401
 30
0.0
 10
-53.218139507
 20
-34.9691580946
 30
0.0
 10
-54.0202902496
 20
-34.9750309631
 30
0.0
 10
-54.6627769516
 20
-34.9666872104
 30
0.0
 10
-55.0772389289
 20
-34.9908453177
 30
0.0
 10
-55.2779318146
 20
-34.9696584525
 30
0.0
 10
-55.3295967511
 20
-34.9827268766
 30
0.0
 11
-52.3300536657
 21
-34.9698652411
 31
0.0
 11
-53.2472597314
 21
-34.9704921481
 31
0.0
 11
-54.0766086612
 21
-34.9723128172
 31
0.0
 11
-54.7384140181
 21
-34.9751504038
 31
0.0
 11
-55.1697702812
 21
-34.9787338939
 31
0.0
 11
-55.3295967511
 21
-34.9827268766
 31
0.0
  0
SPLINE
  5
5E0
100
AcDbEntity
  8
RACCORDO
100
AcDbSpline
 62
253
  6
CONTINUOUS
 70
0
 71
3
 72
12
 73
8
 74
6
 42
0.0000001
 43
0.0000001
 44
0.0000000001
 12
2.9080285235
 22
-0.7355725322
 32
0.0
 13
2.999616116
 23
-0.0000015432
 33
0.0
 40
0.0
 40
0.0
 40
0.0
 40
0.0
 40
0.0533990698
 40
0.1974092818
 40
0.4181395833
 40
0.6944977661
 40
1.0
 40
1.0
 40
1.0
 40
1.0
 10
-55.3295967511
 20
34.9827268766
 30
0.0
 10
-55.2778347452
 20
34.9696339136
 30
0.0
 10
-55.0768343235
 20
34.9908629678
 30
0.0
 10
-54.6619759321
 20
34.9666789168
 30
0.0
 10
-54.0193171003
 20
34.9750259361
 30
0.0
 10
-53.2174671631
 20
34.9691591975
 30
0.0
 10
-52.6355168071
 20
34.9698653983
 30
0.0
 10
-52.3300536657
 20
34.9698652411
 30
0.0
 11
-55.3295967511
 21
34.9827268766
 31
0.0
 11
-55.1694699143
 21
34.9787300494
 31
0.0
 11
-54.7375094375
 21
34.9751450941
 31
0.0
 11
-54.0754093417
 21
34.9723090717
 31
0.0
 11
-53.2464428762
 21
34.9704910038
 31
0.0
 11
-52.3300536657
 21
34.9698652411
 31
0.0
  0
SPLINE
  5
5E1
100
AcDbEntity
  8
RACCORDO
100
AcDbSpline
 62
253
  6
CONTINUOUS
 70
0
 71
3
 72
12
 73
8
 74
6
 42
0.0000001
 43
0.0000001
 44
0.0000000001
 12
-0.0000015681
 22
2.9996161371
 32
0.0
 13
-0.7355732976
 23
2.9080283516
 33
0.0
 40
0.0
 40
0.0
 40
0.0
 40
0.0
 40
0.3057745518
 40
0.5822602388
 40
0.802892283
 40
0.9467010665
 40
1.0
 40
1.0
 40
1.0
 40
1.0
 10
-46.9698652411
 20
40.3300536657
 30
0.0
 10
-46.969865401
 20
40.6357890923
 30
0.0
 10
-46.9691580946
 20
41.218139507
 30
0.0
 10
-46.9750309631
 20
42.0202902496
 30
0.0
 10
-46.9666872104
 20
42.6627769516
 30
0.0
 10
-46.9908453177
 20
43.0772389289
 30
0.0
 10
-46.9696584525
 20
43.2779318146
 30
0.0
 10
-46.9827268766
 20
43.3295967511
 30
0.0
 11
-46.9698652411
 21
40.3300536657
 31
0.0
 11
-46.9704921481
 21
41.2472597314
 31
0.0
 11
-46.9723128172
 21
42.0766086612
 31
0.0
 11
-46.9751504038
 21
42.7384140181
 31
0.0
 11
-46.9787338939
 21
43.1697702812
 31
0.0
 11
-46.9827268766
 21
43.3295967511
 31
0.0
  0
SPLINE
  5
5E2
100
AcDbEntity
  8
RACCORDO
100
AcDbSpline
 62
253
  6
CONTINUOUS
 70
0
 71
3
 72
12
 73
8
 74
6
 42
0.0000001
 43
0.0000001
 44
0.0000000001
 12
-0.7355725322
 22
-2.9080285235
 32
0.0
 13
-0.0000015432
 23
-2.999616116
 33
0.0
 40
0.0
 40
0.0
 40
0.0
 40
0.0
 40
0.0533990698
 40
0.1974092818
 40
0.4181395833
 40
0.6944977661
 40
1.0
 40
1.0
 40
1.0
 40
1.0
 10
46.9827268766
 20
43.3295967511
 30
0.0
 10
46.9696339136
 20
43.2778347452
 30
0.0
 10
46.9908629678
 20
43.0768343235
 30
0.0
 10
46.9666789168
 20
42.6619759321
 30
0.0
 10
46.9750259361
 20
42.0193171003
 30
0.0
 10
46.9691591975
 20
41.2174671631
 30
0.0
 10
46.9698653983
 20
40.6355168071
 30
0.0
 10
46.9698652411
 20
40.3300536657
 30
0.0
 11
46.9827268766
 21
43.3295967511
 31
0.0
 11
46.9787300494
 21
43.1694699143
 31
0.0
 11
46.9751450941
 21
42.7375094375
 31
0.0
 11
46.9723090717
 21
42.0754093417
 31
0.0
 11
46.9704910038
 21
41.2464428762
 31
0.0
 11
46.9698652411
 21
40.3300536657
 31
0.0
  0
ELLIPSE
  5
5E3
100
AcDbEntity
  8
RACCORDO
100
AcDbEllipse
 62
7
  6
CONTINUOUS
 10
45.3814191169
 20
-40.3300536657
 30
0.0
 11
-0.0
 21
3.0
 31
0.0
 40
0.0174550649
 41
-3.7850937624
 42
-3.1590459461
  0
ELLIPSE
  5
5E4
100
AcDbEntity
  8
RACCORDO
100
AcDbEllipse
 62
7
  6
CONTINUOUS
 10
52.3300536657
 20
-33.3814191169
 30
0.0
 11
3.0
 21
-0.0
 31
0.0
 40
0.0174550649
 41
0.0174532925
 42
0.6435011088
  0
ELLIPSE
  5
5E5
100
AcDbEntity
  8
RACCORDO
100
AcDbEllipse
 62
7
  6
CONTINUOUS
 10
52.3300536657
 20
33.3814191169
 30
0.0
 11
3.0
 21
0.0
 31
0.0
 40
0.0174550649
 41
-0.6435011088
 42
-0.0174532925
  0
ELLIPSE
  5
5E6
100
AcDbEntity
  8
RACCORDO
100
AcDbEllipse
 62
7
  6
CONTINUOUS
 10
45.3814191169
 20
40.3300536657
 30
0.0
 11
-0.0
 21
3.0
 31
0.0
 40
0.0174550649
 41
0.0174532925
 42
0.6435011088
  0
ELLIPSE
  5
5E7
100
AcDbEntity
  8
RACCORDO
100
AcDbEllipse
 62
7
  6
CONTINUOUS
 10
-52.3300536657
 20
-33.3814191169
 30
0.0
 11
3.0
 21
-0.0
 31
0.0
 40
0.0174550649
 41
2.4980915448
 42
3.1241393611
  0
ELLIPSE
  5
5E8
100
AcDbEntity
  8
RACCORDO
100
AcDbEllipse
 62
7
  6
CONTINUOUS
 10
-45.3814191169
 20
-40.3300536657
 30
0.0
 11
-0.0
 21
3.0
 31
0.0
 40
0.0174550649
 41
-3.1241393611
 42
-2.4980915448
  0
ELLIPSE
  5
5E9
100
AcDbEntity
  8
RACCORDO
100
AcDbEllipse
 62
7
  6
CONTINUOUS
 10
-45.3814191169
 20
40.3300536657
 30
0.0
 11
-0.0
 21
3.0
 31
0.0
 40
0.0174550649
 41
-0.6435011088
 42
-0.0174532925
  0
ELLIPSE
  5
5EA
100
AcDbEntity
  8
RACCORDO
100
AcDbEllipse
 62
7
  6
CONTINUOUS
 10
-52.3300536657
 20
33.3814191169
 30
0.0
 11
3.0
 21
0.0
 31
0.0
 40
0.0174550649
 41
-3.1241393611
 42
-2.4980915448
  0
ELLIPSE
  5
5EB
100
AcDbEntity
  8
RACCORDO
100
AcDbEllipse
 62
7
  6
CONTINUOUS
 10
-56.1666082599
 20
3.167745219
 30
0.0
 11
0.0
 21
1.5
 31
0.0
 40
0.0174550649
 41
1.5707963268
 42
3.1241393611
  0
ELLIPSE
  5
5EC
100
AcDbEntity
  8
RACCORDO
100
AcDbEllipse
 62
7
  6
CONTINUOUS
 10
-56.1666082599
 20
29.332254781
 30
0.0
 11
0.0
 21
1.5
 31
0.0
 40
0.0174550649
 41
0.0174532925
 42
1.5707963268
  0
ELLIPSE
  5
5ED
100
AcDbEntity
  8
RACCORDO
100
AcDbEllipse
 62
7
  6
CONTINUOUS
 10
-56.1666082599
 20
-29.332254781
 30
0.0
 11
0.0
 21
1.5
 31
0.0
 40
0.0174550649
 41
-4.7123889804
 42
-3.1590459461
  0
ELLIPSE
  5
5EE
100
AcDbEntity
  8
RACCORDO
100
AcDbEllipse
 62
7
  6
CONTINUOUS
 10
-56.1666082599
 20
-3.167745219
 30
0.0
 11
0.0
 21
1.5
 31
0.0
 40
0.0174550649
 41
0.0174532925
 42
1.5707963268
  0
ELLIPSE
  5
5EF
100
AcDbEntity
  8
RACCORDO
100
AcDbEllipse
 62
7
  6
CONTINUOUS
 10
18.017745219
 20
44.1666082599
 30
0.0
 11
1.5
 21
0.0
 31
0.0
 40
0.0174550649
 41
1.5707963268
 42
3.1241393611
  0
ELLIPSE
  5
5F0
100
AcDbEntity
  8
RACCORDO
100
AcDbEllipse
 62
7
  6
CONTINUOUS
 10
41.382254781
 20
44.1666082599
 30
0.0
 11
1.5
 21
0.0
 31
0.0
 40
0.0174550649
 41
0.0174532925
 42
1.5707963268
  0
ELLIPSE
  5
5F1
100
AcDbEntity
  8
RACCORDO
100
AcDbEllipse
 62
7
  6
CONTINUOUS
 10
-11.682254781
 20
44.1666082599
 30
0.0
 11
1.5
 21
-0.0
 31
0.0
 40
0.0174550649
 41
1.5707963268
 42
3.1241393611
  0
ELLIPSE
  5
5F2
100
AcDbEntity
  8
RACCORDO
100
AcDbEllipse
 62
7
  6
CONTINUOUS
 10
11.682254781
 20
44.1666082599
 30
0.0
 11
1.5
 21
-0.0
 31
0.0
 40
0.0174550649
 41
0.0174532925
 42
1.5707963268
  0
ELLIPSE
  5
5F3
100
AcDbEntity
  8
RACCORDO
100
AcDbEllipse
 62
7
  6
CONTINUOUS
 10
-41.382254781
 20
44.1666082599
 30
0.0
 11
1.5
 21
-0.0
 31
0.0
 40
0.0174550649
 41
1.5707963268
 42
3.1241393611
  0
ELLIPSE
  5
5F4
100
AcDbEntity
  8
RACCORDO
100
AcDbEllipse
 62
7
  6
CONTINUOUS
 10
-18.017745219
 20
44.1666082599
 30
0.0
 11
1.5
 21
0.0
 31
0.0
 40
0.0174550649
 41
0.0174532925
 42
1.5707963268
  0
ELLIPSE
  5
5F5
100
AcDbEntity
  8
RACCORDO
100
AcDbEllipse
 62
7
  6
CONTINUOUS
 10
41.382254781
 20
-44.1666082599
 30
0.0
 11
1.5
 21
-0.0
 31
0.0
 40
0.0174550649
 41
-1.5707963268
 42
-0.0174532925
  0
ELLIPSE
  5
5F6
100
AcDbEntity
  8
RACCORDO
100
AcDbEllipse
 62
7
  6
CONTINUOUS
 10
18.017745219
 20
-44.1666082599
 30
0.0
 11
1.5
 21
0.0
 31
0.0
 40
0.0174550649
 41
-3.1241393611
 42
-1.5707963268
  0
ELLIPSE
  5
5F7
100
AcDbEntity
  8
RACCORDO
100
AcDbEllipse
 62
7
  6
CONTINUOUS
 10
11.682254781
 20
-44.1666082599
 30
0.0
 11
1.5
 21
0.0
 31
0.0
 40
0.0174550649
 41
-1.5707963268
 42
-0.0174532925
  0
ELLIPSE
  5
5F8
100
AcDbEntity
  8
RACCORDO
100
AcDbEllipse
 62
7
  6
CONTINUOUS
 10
-11.682254781
 20
-44.1666082599
 30
0.0
 11
1.5
 21
-0.0
 31
0.0
 40
0.0174550649
 41
-3.1241393611
 42
-1.5707963268
  0
ELLIPSE
  5
5F9
100
AcDbEntity
  8
RACCORDO
100
AcDbEllipse
 62
7
  6
CONTINUOUS
 10
-18.017745219
 20
-44.1666082599
 30
0.0
 11
1.5
 21
-0.0
 31
0.0
 40
0.0174550649
 41
-1.5707963268
 42
-0.0174532925
  0
ELLIPSE
  5
5FA
100
AcDbEntity
  8
RACCORDO
100
AcDbEllipse
 62
7
  6
CONTINUOUS
 10
-41.382254781
 20
-44.1666082599
 30
0.0
 11
1.5
 21
0.0
 31
0.0
 40
0.0174550649
 41
-3.1241393611
 42
-1.5707963268
  0
ELLIPSE
  5
5FB
100
AcDbEntity
  8
RACCORDO
100
AcDbEllipse
 62
7
  6
CONTINUOUS
 10
56.1666082599
 20
-3.167745219
 30
0.0
 11
-0.0
 21
1.5
 31
0.0
 40
0.0174550649
 41
-1.5707963268
 42
-0.0174532925
  0
ELLIPSE
  5
5FC
100
AcDbEntity
  8
RACCORDO
100
AcDbEllipse
 62
7
  6
CONTINUOUS
 10
56.1666082599
 20
-29.332254781
 30
0.0
 11
-0.0
 21
1.5
 31
0.0
 40
0.0174550649
 41
-3.1241393611
 42
-1.5707963268
  0
ELLIPSE
  5
5FD
100
AcDbEntity
  8
RACCORDO
100
AcDbEllipse
 62
7
  6
CONTINUOUS
 10
56.1666082599
 20
29.332254781
 30
0.0
 11
-0.0
 21
1.5
 31
0.0
 40
0.0174550649
 41
-1.5707963268
 42
-0.0174532925
  0
ELLIPSE
  5
5FE
100
AcDbEntity
  8
RACCORDO
100
AcDbEllipse
 62
7
  6
CONTINUOUS
 10
56.1666082599
 20
3.167745219
 30
0.0
 11
-0.0
 21
1.5
 31
0.0
 40
0.0174550649
 41
-3.1241393611
 42
-1.5707963268
  0
ELLIPSE
  5
5FF
100
AcDbEntity
  8
RACCORDO
100
AcDbEllipse
 62
7
  6
CONTINUOUS
 10
52.3300536657
 20
0.8314191169
 30
0.0
 11
3.0
 21
0.0
 31
0.0
 40
0.0174550649
 41
-0.6435011088
 42
-0.0174532925
  0
ELLIPSE
  5
600
100
AcDbEntity
  8
RACCORDO
100
AcDbEllipse
 62
7
  6
CONTINUOUS
 10
-52.3300536657
 20
0.8314191169
 30
0.0
 11
3.0
 21
-0.0
 31
0.0
 40
0.0174550649
 41
-3.1241393611
 42
-2.4980915448
  0
ELLIPSE
  5
601
100
AcDbEntity
  8
RACCORDO
100
AcDbEllipse
 62
7
  6
CONTINUOUS
 10
52.3300536657
 20
31.6685808831
 30
0.0
 11
3.0
 21
-0.0
 31
0.0
 40
0.0174550649
 41
0.0174532925
 42
0.6435011088
  0
ELLIPSE
  5
602
100
AcDbEntity
  8
RACCORDO
100
AcDbEllipse
 62
7
  6
CONTINUOUS
 10
-52.3300536657
 20
31.6685808831
 30
0.0
 11
3.0
 21
-0.0
 31
0.0
 40
0.0174550649
 41
2.4980915448
 42
3.1241393611
  0
ELLIPSE
  5
603
100
AcDbEntity
  8
RACCORDO
100
AcDbEllipse
 62
7
  6
CONTINUOUS
 10
52.3300536657
 20
-31.6685808831
 30
0.0
 11
3.0
 21
-0.0
 31
0.0
 40
0.0174550649
 41
-0.6435011088
 42
-0.0174532925
  0
ELLIPSE
  5
604
100
AcDbEntity
  8
RACCORDO
100
AcDbEllipse
 62
7
  6
CONTINUOUS
 10
-52.3300536657
 20
-31.6685808831
 30
0.0
 11
3.0
 21
-0.0
 31
0.0
 40
0.0174550649
 41
-3.1241393611
 42
-2.4980915448
  0
ELLIPSE
  5
605
100
AcDbEntity
  8
RACCORDO
100
AcDbEllipse
 62
7
  6
CONTINUOUS
 10
52.3300536657
 20
-0.8314191169
 30
0.0
 11
3.0
 21
0.0
 31
0.0
 40
0.0174550649
 41
0.0174532925
 42
0.6435011088
  0
ELLIPSE
  5
606
100
AcDbEntity
  8
RACCORDO
100
AcDbEllipse
 62
7
  6
CONTINUOUS
 10
-52.3300536657
 20
-0.8314191169
 30
0.0
 11
3.0
 21
-0.0
 31
0.0
 40
0.0174550649
 41
2.4980915448
 42
3.1241393611
  0
ELLIPSE
  5
607
100
AcDbEntity
  8
RACCORDO
100
AcDbEllipse
 62
7
  6
CONTINUOUS
 10
15.6814191169
 20
40.3300536657
 30
0.0
 11
-0.0
 21
3.0
 31
0.0
 40
0.0174550649
 41
0.0174532925
 42
0.6435011088
  0
ELLIPSE
  5
608
100
AcDbEntity
  8
RACCORDO
100
AcDbEllipse
 62
7
  6
CONTINUOUS
 10
15.6814191169
 20
-40.3300536657
 30
0.0
 11
0.0
 21
3.0
 31
0.0
 40
0.0174550649
 41
-3.7850937624
 42
-3.1590459461
  0
ELLIPSE
  5
609
100
AcDbEntity
  8
RACCORDO
100
AcDbEllipse
 62
7
  6
CONTINUOUS
 10
43.7185808831
 20
40.3300536657
 30
0.0
 11
-0.0
 21
3.0
 31
0.0
 40
0.0174550649
 41
-0.6435011088
 42
-0.0174532925
  0
ELLIPSE
  5
60A
100
AcDbEntity
  8
RACCORDO
100
AcDbEllipse
 62
7
  6
CONTINUOUS
 10
43.7185808831
 20
-40.3300536657
 30
0.0
 11
-0.0
 21
3.0
 31
0.0
 40
0.0174550649
 41
-3.1241393611
 42
-2.4980915448
  0
ELLIPSE
  5
60B
100
AcDbEntity
  8
RACCORDO
100
AcDbEllipse
 62
7
  6
CONTINUOUS
 10
-14.0185808831
 20
40.3300536657
 30
0.0
 11
0.0
 21
3.0
 31
0.0
 40
0.0174550649
 41
0.0174532925
 42
0.6435011088
  0
ELLIPSE
  5
60C
100
AcDbEntity
  8
RACCORDO
100
AcDbEllipse
 62
7
  6
CONTINUOUS
 10
-14.0185808831
 20
-40.3300536657
 30
0.0
 11
0.0
 21
3.0
 31
0.0
 40
0.0174550649
 41
-3.7850937624
 42
-3.1590459461
  0
ELLIPSE
  5
60D
100
AcDbEntity
  8
RACCORDO
100
AcDbEllipse
 62
7
  6
CONTINUOUS
 10
14.0185808831
 20
40.3300536657
 30
0.0
 11
-0.0
 21
3.0
 31
0.0
 40
0.0174550649
 41
-0.6435011088
 42
-0.0174532925
  0
ELLIPSE
  5
60E
100
AcDbEntity
  8
RACCORDO
100
AcDbEllipse
 62
7
  6
CONTINUOUS
 10
14.0185808831
 20
-40.3300536657
 30
0.0
 11
-0.0
 21
3.0
 31
0.0
 40
0.0174550649
 41
-3.1241393611
 42
-2.4980915448
  0
ELLIPSE
  5
60F
100
AcDbEntity
  8
RACCORDO
100
AcDbEllipse
 62
7
  6
CONTINUOUS
 10
-43.7185808831
 20
40.3300536657
 30
0.0
 11
-0.0
 21
3.0
 31
0.0
 40
0.0174550649
 41
0.0174532925
 42
0.6435011088
  0
ELLIPSE
  5
610
100
AcDbEntity
  8
RACCORDO
100
AcDbEllipse
 62
7
  6
CONTINUOUS
 10
-43.7185808831
 20
-40.3300536657
 30
0.0
 11
-0.0
 21
3.0
 31
0.0
 40
0.0174550649
 41
-3.7850937624
 42
-3.1590459461
  0
ELLIPSE
  5
611
100
AcDbEntity
  8
RACCORDO
100
AcDbEllipse
 62
7
  6
CONTINUOUS
 10
-15.6814191169
 20
40.3300536657
 30
0.0
 11
-0.0
 21
3.0
 31
0.0
 40
0.0174550649
 41
-0.6435011088
 42
-0.0174532925
  0
ELLIPSE
  5
612
100
AcDbEntity
  8
RACCORDO
100
AcDbEllipse
 62
7
  6
CONTINUOUS
 10
-15.6814191169
 20
-40.3300536657
 30
0.0
 11
-0.0
 21
3.0
 31
0.0
 40
0.0174550649
 41
-3.1241393611
 42
-2.4980915448
  0
ELLIPSE
  5
613
100
AcDbEntity
  8
RACCORDO
100
AcDbEllipse
 62
7
  6
CONTINUOUS
 10
54.8304344858
 20
-34.9829553301
 30
0.0
 11
0.4789963128
 21
-0.1436856156
 31
0.0
 40
0.9998339937
 41
-1.2793192714
 42
0.2913856752
  0
ELLIPSE
  5
614
100
AcDbEntity
  8
RACCORDO
100
AcDbEllipse
 62
7
  6
CONTINUOUS
 10
46.9829553301
 20
-42.8304344858
 30
0.0
 11
-0.1436856156
 21
0.4789963128
 31
0.0
 40
0.9998339937
 41
-3.4329783288
 42
-1.8622733822
  0
ELLIPSE
  5
615
100
AcDbEntity
  8
RACCORDO
100
AcDbEllipse
 62
7
  6
CONTINUOUS
 10
-46.9829553301
 20
-42.8304344858
 30
0.0
 11
0.1436856156
 21
0.4789963128
 31
0.0
 40
0.9998339937
 41
-4.420911925
 42
-2.8502069784
  0
ELLIPSE
  5
616
100
AcDbEntity
  8
RACCORDO
100
AcDbEllipse
 62
7
  6
CONTINUOUS
 10
-54.8304344858
 20
-34.9829553301
 30
0.0
 11
0.4789963128
 21
0.1436856156
 31
0.0
 40
0.9998339937
 41
2.8502069784
 42
4.420911925
  0
ELLIPSE
  5
617
100
AcDbEntity
  8
RACCORDO
100
AcDbEllipse
 62
7
  6
CONTINUOUS
 10
46.9829553301
 20
42.8304344858
 30
0.0
 11
0.1436856156
 21
0.4789963128
 31
0.0
 40
0.9998339937
 41
-1.2793192714
 42
0.2913856752
  0
ELLIPSE
  5
618
100
AcDbEntity
  8
RACCORDO
100
AcDbEllipse
 62
7
  6
CONTINUOUS
 10
54.8304344858
 20
34.9829553301
 30
0.0
 11
0.4789963128
 21
0.1436856156
 31
0.0
 40
0.9998339937
 41
-0.2913856752
 42
1.2793192714
  0
ELLIPSE
  5
619
100
AcDbEntity
  8
RACCORDO
100
AcDbEllipse
 62
7
  6
CONTINUOUS
 10
-54.8304344858
 20
34.9829553301
 30
0.0
 11
0.4789963128
 21
-0.1436856156
 31
0.0
 40
0.9998339937
 41
1.8622733822
 42
3.4329783288
  0
ELLIPSE
  5
61A
100
AcDbEntity
  8
RACCORDO
100
AcDbEllipse
 62
7
  6
CONTINUOUS
 10
-46.9829553301
 20
42.8304344858
 30
0.0
 11
-0.1436856156
 21
0.4789963128
 31
0.0
 40
0.9998339937
 41
-0.2913856752
 42
1.2793192714
  0
ENDSEC
  0
SECTION
  2
OBJECTS
  0
DICTIONARY
  5
C
100
AcDbDictionary
280
0
281
1
  3
ACAD_GROUP
350
D
  3
ACAD_MLINESTYLE
350
17
  3
ACAD_LAYOUT
350
1A
  3
ACAD_PLOTSETTINGS
350
19
  3
ACAD_PLOTSTYLENAME
350
E
  0
DICTIONARY
  5
D
102
{ACAD_REACTORS
330
C
102
}
100
AcDbDictionary
280
0
281
1
  0
ACDBDICTIONARYWDFLT
  5
E
102
{ACAD_REACTORS
330
C
102
}
100
AcDbDictionary
281
1
  3
Normal
350
F
100
AcDbDictionaryWithDefault
340
F
  0
DICTIONARY
  5
17
102
{ACAD_REACTORS
330
C
102
}
100
AcDbDictionary
280
0
281
1
  3
Standard
350
18
  0
DICTIONARY
  5
19
102
{ACAD_REACTORS
330
C
102
}
100
AcDbDictionary
281
1
  0
DICTIONARY
  5
1A
102
{ACAD_REACTORS
330
C
102
}
100
AcDbDictionary
281
1
  3
Model
350
61B
  3
Layout1
350
61C
  0
ACDBPLACEHOLDER
  5
F
102
{ACAD_REACTORS
330
E
102
}
  0
MLINESTYLE
  5
18
102
{ACAD_REACTORS
330
17
102
}
100
AcDbMlineStyle
  2
STANDARD
 70
0
  3

 62
256
 51
90.0
 52
90.0
 71
2
 49
0.5
 62
256
  6
BYLAYER
 49
-0.5
 62
256
  6
BYLAYER
  0
LAYOUT
  5
61B
102
{ACAD_REACTORS
330
1A
102
}
100
AcDbPlotSettings
  1

  2
none_device
  4
ISO_A4_(297.00_x_210.00_MM)
  6

 40
0.0
 41
0.0
 42
0.0
 43
0.0
 44
297.0
 45
210.0
 46
0.0
 47
0.0
 48
0.0
 49
0.0
140
0.0
141
0.0
142
1.0
143
1.0
 70
1024
 72
1
 73
0
 74
0
  7

 75
0
147
1.0
148
0.0
149
0.0
100
AcDbLayout
  1
Model
 70
0
 71
0
 10
0.0
 20
0.0
 11
297.0
 21
210.0
 12
0.0
 22
0.0
 32
0.0
 14
0.0
 24
0.0
 34
0.0
 15
0.0
 25
0.0
 35
0.0
146
0.0
 13
0.0
 23
0.0
 33
0.0
 16
1.0
 26
0.0
 36
0.0
 17
0.0
 27
1.0
 37
0.0
 76
0
330
214
345
0
346
0
  0
LAYOUT
  5
61C
102
{ACAD_REACTORS
330
1A
102
}
100
AcDbPlotSettings
  1

  2
none_device
  4
ISO_A4_(297.00_x_210.00_MM)
  6

 40
0.0
 41
0.0
 42
0.0
 43
0.0
 44
297.0
 45
210.0
 46
0.0
 47
0.0
 48
0.0
 49
0.0
140
0.0
141
0.0
142
1.0
143
1.0
 70
0
 72
1
 73
0
 74
0
  7

 75
0
147
1.0
148
0.0
149
0.0
100
AcDbLayout
  1
Layout1
 70
0
 71
1
 10
0.0
 20
0.0
 11
297.0
 21
210.0
 12
0.0
 22
0.0
 32
0.0
 14
0.0
 24
0.0
 34
0.0
 15
0.0
 25
0.0
 35
0.0
146
0.0
 13
0.0
 23
0.0
 33
0.0
 16
1.0
 26
0.0
 36
0.0
 17
0.0
 27
1.0
 37
0.0
 76
0
330
215
345
0
346
0
  0
ENDSEC
  0
EOF
