  0
SECTION
  2
HEADER
  9
$ACADVER
  1
AC1015
  9
$DWGCODEPAGE
  3
ANSI_1252
  9
$EXTMAX
 10
297.0
 20
210.0
 30
0.0
  9
$EXTMIN
 10
0.0
 20
0.0
 30
0.0
  9
$LIMMIN
 10
0.0
 20
0.0
  9
$LIMMAX
 10
297.0
 20
210.0
  9
$VIEWCTR
 10
148.5
 20
105.0
  9
$VIEWSIZE
 40
210.0
  9
$CLAYER
  8
0
  9
$LTSCALE
 40
16.335
  9
$CELTYPE
  6
BYLAYER
  9
$DIMSCALE
 40
1.0
  9
$DIMASZ
 40
3.0
  9
$DIMEXO
 40
1.85625
  9
$DIMDLI
 40
11.286
  9
$DIMEXE
 40
5.346
  9
$DIMCEN
 40
2.673
  9
$DIMLFAC
 40
1.0
  9
$DIMBLK
  1
_FILLED
  9
$DIMTXT
 40
3.0
  9
$DIMTOL
 70
1
  9
$DIMLIM
 70
0
  9
$DIMTFAC
 40
1.0
  9
$DIMTP
 40
0.01
  9
$DIMTM
 40
0.01
  9
$PDMODE
 70
3
  9
$PDSIZE
 40
3.0
  9
$HANDSEED
  5
75B
  9
$TILEMODE
 70
1
  9
$MEASUREMENT
 70
1
  9
$INSUNITS
 70
4
  0
ENDSEC
  0
SECTION
  2
CLASSES
  0
CLASS
  1
ACDBDICTIONARYWDFLT
  2
AcDbDictionaryWithDefault
  3
AutoCAD 2000
 90
0
280
0
281
0
  0
CLASS
  1
ACDBPLACEHOLDER
  2
AcDbPlaceHolder
  3
AutoCAD 2000
 90
0
280
0
281
0
  0
CLASS
  1
LAYOUT
  2
AcDbLayout
  3
AutoCAD 2000
 90
0
280
0
281
0
  0
ENDSEC
  0
SECTION
  2
TABLES
  0
TABLE
  2
VPORT
  5
8
100
AcDbSymbolTable
 70
2
  0
VPORT
  5
1F4
100
AcDbSymbolTableRecord
100
AcDbViewportTableRecord
  2
*ACTIVE
 70
0
 10
0.0
 20
0.0
 11
1.0
 21
1.0
 12
148.5
 22
105.0
 13
0.0
 23
0.0
 14
1.0
 24
1.0
 15
0.0
 25
0.0
 16
0.0
 26
0.0
 36
1.0
 17
0.0
 27
0.0
 37
0.0
 40
210.0
 41
1.4142857143
 42
50.0
 43
0.0
 44
0.0
 50
0.0
 51
0.0
 71
0
 72
100
 73
1
 74
1
 75
0
 76
0
 77
0
 78
0
  0
ENDTAB
  0
TABLE
  2
LTYPE
  5
5
100
AcDbSymbolTable
 70
6
  0
LTYPE
  5
14
100
AcDbSymbolTableRecord
100
AcDbLinetypeTableRecord
  2
BYBLOCK
 70
0
  3

 72
65
 73
0
 40
0.0
  0
LTYPE
  5
15
100
AcDbSymbolTableRecord
100
AcDbLinetypeTableRecord
  2
BYLAYER
 70
0
  3

 72
65
 73
0
 40
0.0
  0
LTYPE
  5
16
100
AcDbSymbolTableRecord
100
AcDbLinetypeTableRecord
  2
CONTINUOUS
 70
64
  3
Solid line
 72
65
 73
0
 40
0.0
  0
LTYPE
  5
1F5
100
AcDbSymbolTableRecord
100
AcDbLinetypeTableRecord
  2
CENTER
 70
64
  3
____ _ ____ _ ____ _ ____ _ ____ _ ____ _ ____
 72
65
 73
4
 40
0.6
 49
0.375
 74
0
 49
-0.075
 74
0
 49
0.075
 74
0
 49
-0.075
 74
0
  0
LTYPE
  5
1F6
100
AcDbSymbolTableRecord
100
AcDbLinetypeTableRecord
  2
HIDDEN
 70
64
  3
- - - - - - - - - - - - - - - - - - - -
 72
65
 73
2
 40
0.2
 49
0.1
 74
0
 49
-0.1
 74
0
  0
LTYPE
  5
1F7
100
AcDbSymbolTableRecord
100
AcDbLinetypeTableRecord
  2
PHANTOM
 70
64
  3
_____ _ _ _____ _ _ _____ _ _ _____
 72
65
 73
6
 40
0.8
 49
0.45
 74
0
 49
-0.05
 74
0
 49
0.1
 74
0
 49
-0.05
 74
0
 49
0.1
 74
0
 49
-0.05
 74
0
  0
LTYPE
  5
1F8
100
AcDbSymbolTableRecord
100
AcDbLinetypeTableRecord
  2
DOT
 70
64
  3
. . . . . . . . . . . . . . . . . . . .
 72
65
 73
2
 40
0.2
 49
0.1
 74
0
 49
-0.1
 74
0
  0
LTYPE
  5
1F9
100
AcDbSymbolTableRecord
100
AcDbLinetypeTableRecord
  2
DASHED
 70
64
  3
- - - - - - - - - - - - - - - - - - - -
 72
65
 73
2
 40
0.2
 49
0.1
 74
0
 49
-0.1
 74
0
  0
ENDTAB
  0
TABLE
  2
LAYER
  5
2
100
AcDbSymbolTable
 70
36
  0
LAYER
  5
10
100
AcDbSymbolTableRecord
100
AcDbLayerTableRecord
  2
0
 70
0
 62
7
  6
CONTINUOUS
370
-3
390
F
  0
LAYER
  5
1FA
100
AcDbSymbolTableRecord
100
AcDbLayerTableRecord
  2
DEFAULT_1
 70
0
 62
7
  6
CENTER
370
-3
390
F
  0
LAYER
  5
1FB
100
AcDbSymbolTableRecord
100
AcDbLayerTableRecord
  2
DEFAULT_2
 70
0
 62
7
  6
HIDDEN
370
-3
390
F
  0
LAYER
  5
1FC
100
AcDbSymbolTableRecord
100
AcDbLayerTableRecord
  2
DEFAULT_3
 70
0
 62
7
  6
PHANTOM
370
-3
390
F
  0
LAYER
  5
1FD
100
AcDbSymbolTableRecord
100
AcDbLayerTableRecord
  2
ASSI
 70
0
 62
7
  6
CONTINUOUS
370
-3
390
F
  0
LAYER
  5
1FE
100
AcDbSymbolTableRecord
100
AcDbLayerTableRecord
  2
COORDINATE
 70
0
 62
7
  6
CONTINUOUS
370
-3
390
F
  0
LAYER
  5
1FF
100
AcDbSymbolTableRecord
100
AcDbLayerTableRecord
  2
COORD_ORIGINE
 70
0
 62
7
  6
CONTINUOUS
370
-3
390
F
  0
LAYER
  5
200
100
AcDbSymbolTableRecord
100
AcDbLayerTableRecord
  2
COPY_PUBLISH
 70
0
 62
7
  6
CONTINUOUS
370
-3
390
F
  0
LAYER
  5
201
100
AcDbSymbolTableRecord
100
AcDbLayerTableRecord
  2
COSMETIC
 70
0
 62
7
  6
CONTINUOUS
370
-3
390
F
  0
LAYER
  5
202
100
AcDbSymbolTableRecord
100
AcDbLayerTableRecord
  2
CURVE
 70
0
 62
7
  6
CONTINUOUS
370
-3
390
F
  0
LAYER
  5
203
100
AcDbSymbolTableRecord
100
AcDbLayerTableRecord
  2
DRAFT
 70
0
 62
7
  6
CONTINUOUS
370
-3
390
F
  0
LAYER
  5
204
100
AcDbSymbolTableRecord
100
AcDbLayerTableRecord
  2
IMPORT_IGES
 70
0
 62
7
  6
CONTINUOUS
370
-3
390
F
  0
LAYER
  5
205
100
AcDbSymbolTableRecord
100
AcDbLayerTableRecord
  2
NOTE
 70
0
 62
7
  6
CONTINUOUS
370
-3
390
F
  0
LAYER
  5
206
100
AcDbSymbolTableRecord
100
AcDbLayerTableRecord
  2
PIANI
 70
0
 62
7
  6
CONTINUOUS
370
-3
390
F
  0
LAYER
  5
207
100
AcDbSymbolTableRecord
100
AcDbLayerTableRecord
  2
PIANI_ORIGINE
 70
0
 62
7
  6
CONTINUOUS
370
-3
390
F
  0
LAYER
  5
208
100
AcDbSymbolTableRecord
100
AcDbLayerTableRecord
  2
PUNTI
 70
0
 62
7
  6
CONTINUOUS
370
-3
390
F
  0
LAYER
  5
209
100
AcDbSymbolTableRecord
100
AcDbLayerTableRecord
  2
RACCORDO
 70
0
 62
7
  6
CONTINUOUS
370
-3
390
F
  0
LAYER
  5
20A
100
AcDbSymbolTableRecord
100
AcDbLayerTableRecord
  2
SMUSSO
 70
0
 62
7
  6
CONTINUOUS
370
-3
390
F
  0
LAYER
  5
20B
100
AcDbSymbolTableRecord
100
AcDbLayerTableRecord
  2
SNAPLINE
 70
0
 62
7
  6
CONTINUOUS
370
-3
390
F
  0
LAYER
  5
20C
100
AcDbSymbolTableRecord
100
AcDbLayerTableRecord
  2
SUPERFICI
 70
0
 62
7
  6
CONTINUOUS
370
-3
390
F
  0
LAYER
  5
20D
100
AcDbSymbolTableRecord
100
AcDbLayerTableRecord
  2
TRASH
 70
0
 62
7
  6
CONTINUOUS
370
-3
390
F
  0
LAYER
  5
20E
100
AcDbSymbolTableRecord
100
AcDbLayerTableRecord
  2
XSEC_DATUMS
 70
0
 62
7
  6
CONTINUOUS
370
-3
390
F
  0
ENDTAB
  0
TABLE
  2
STYLE
  5
3
100
AcDbSymbolTable
 70
1
  0
STYLE
  5
11
100
AcDbSymbolTableRecord
100
AcDbTextStyleTableRecord
  2
STANDARD
 70
0
 40
0.0
 41
0.8
 50
0.0
 71
0
 42
0.2
  3
txt
  4

  0
STYLE
  5
20F
100
AcDbSymbolTableRecord
100
AcDbTextStyleTableRecord
  2
TEXTSTYLE_1
 70
0
 40
0.0
 41
0.8
 50
0.0
 71
0
 42
0.2
  3
gdt
  4

  0
ENDTAB
  0
TABLE
  2
VIEW
  5
6
100
AcDbSymbolTable
 70
0
  0
ENDTAB
  0
TABLE
  2
UCS
  5
7
100
AcDbSymbolTable
 70
0
  0
ENDTAB
  0
TABLE
  2
APPID
  5
9
100
AcDbSymbolTable
 70
1
  0
APPID
  5
210
100
AcDbSymbolTableRecord
100
AcDbRegAppTableRecord
  2
ACAD
 70
0
  0
ENDTAB
  0
TABLE
  2
BLOCK_RECORD
  5
1
100
AcDbSymbolTable
 70
0
  0
BLOCK_RECORD
  5
211
100
AcDbSymbolTableRecord
100
AcDbBlockTableRecord
  2
*Model_Space
  0
BLOCK_RECORD
  5
212
100
AcDbSymbolTableRecord
100
AcDbBlockTableRecord
  2
*Paper_Space
  0
ENDTAB
  0
TABLE
  2
DIMSTYLE
  5
A
100
AcDbSymbolTable
 70
1
100
AcDbDimStyleTable
 71
0
  0
DIMSTYLE
105
213
100
AcDbSymbolTableRecord
100
AcDbDimStyleTableRecord
  2
STANDARD
 70
0
  3

  4

 40
1.0
 41
3.0
 42
0.0625
 43
0.38
 44
0.18
 45
0.0
 46
0.0
 47
0.01
 48
0.01
140
3.0
141
0.09
142
0.0
143
25.4
144
1.0
145
0.0
146
1.0
147
0.09
 71
1.0
 72
0.0
 73
0
 74
0
 75
0
 76
0
 77
1
 78
8
170
0
171
2
172
0
173
0
174
0
175
0
176
0
177
0
178
0
270
2
271
2
272
2
273
2
274
2
275
0
280
0
281
0
282
0
283
1
284
8
285
0
286
0
287
3
288
0
340
11
  0
ENDTAB
  0
ENDSEC
  0
SECTION
  2
BLOCKS
  0
BLOCK
  5
20
100
AcDbEntity
  8
0
100
AcDbBlockBegin
  2
*Model_Space
 70
0
 10
0.0
 20
0.0
 30
0.0
  3
*Model_Space
  1

  0
ENDBLK
  5
21
100
AcDbEntity
  8
0
100
AcDbBlockEnd
  0
BLOCK
  5
1C
100
AcDbEntity
  8
0
100
AcDbBlockBegin
  2
*Paper_Space
 70
0
 10
0.0
 20
0.0
 30
0.0
  3
*Paper_Space
  1

  0
ENDBLK
  5
1D
100
AcDbEntity
  8
0
100
AcDbBlockEnd
  0
ENDSEC
  0
SECTION
  2
ENTITIES
  0
LINE
  5
214
100
AcDbEntity
  8
0
100
AcDbLine
 62
7
  6
CONTINUOUS
 10
-89.5
 20
-49.0
 11
-89.5
 21
49.0
  0
LINE
  5
215
100
AcDbEntity
  8
0
100
AcDbLine
 62
7
  6
CONTINUOUS
 10
-86.5
 20
49.0
 11
-86.5
 21
-49.0
  0
LINE
  5
216
100
AcDbEntity
  8
DRAFT
100
AcDbLine
 62
7
  6
CONTINUOUS
 10
-83.5
 20
-31.0
 11
-83.5
 21
31.0
  0
LINE
  5
217
100
AcDbEntity
  8
RACCORDO
100
AcDbLine
 62
253
  6
CONTINUOUS
 10
-83.4473301723
 20
31.0
 11
-83.4473301723
 21
-31.0
  0
LINE
  5
218
100
AcDbEntity
  8
RACCORDO
100
AcDbLine
 62
253
  6
CONTINUOUS
 10
-82.4474824772
 20
31.0
 11
-82.4474824772
 21
-31.0
  0
LINE
  5
219
100
AcDbEntity
  8
RACCORDO
100
AcDbLine
 62
253
  6
CONTINUOUS
 10
-68.4974729447
 20
37.609840549
 11
-68.7513611243
 21
37.1791181858
  0
LINE
  5
21A
100
AcDbEntity
  8
0
100
AcDbLine
 62
7
  6
CONTINUOUS
 10
-70.0228436067
 20
38.1475713737
 11
-70.28426541
 21
37.7213570605
  0
LINE
  5
21B
100
AcDbEntity
  8
0
100
AcDbLine
 62
7
  6
CONTINUOUS
 10
-68.9771563933
 20
39.8524286263
 11
-68.71573459
 21
40.2786429395
  0
LINE
  5
21C
100
AcDbEntity
  8
DRAFT
100
AcDbLine
 62
7
  6
CONTINUOUS
 10
-74.8207189611
 20
39.194195202
 11
-72.9999192018
 21
41.0149949613
  0
LINE
  5
21D
100
AcDbEntity
  8
DRAFT
100
AcDbLine
 62
7
  6
CONTINUOUS
 10
-71.5149949613
 20
42.4999192018
 11
-69.694195202
 21
44.3207189611
  0
LINE
  5
21E
100
AcDbEntity
  8
DRAFT
100
AcDbLine
 62
7
  6
CONTINUOUS
 10
-73.9305106498
 20
38.8254588461
 11
-72.6851590653
 21
40.0708104306
  0
LINE
  5
21F
100
AcDbEntity
  8
DRAFT
100
AcDbLine
 62
7
  6
CONTINUOUS
 10
-70.5708104306
 20
42.1851590653
 11
-69.3254588461
 21
43.4305106498
  0
LINE
  5
220
100
AcDbEntity
  8
DRAFT
100
AcDbLine
 62
7
  6
CONTINUOUS
 10
-68.979408105
 20
42.5950702573
 11
-69.9800648638
 21
41.5944134985
  0
LINE
  5
221
100
AcDbEntity
  8
DRAFT
100
AcDbLine
 62
7
  6
CONTINUOUS
 10
-72.0944134985
 20
39.4800648638
 11
-73.0950702573
 21
38.479408105
  0
LINE
  5
222
100
AcDbEntity
  8
DRAFT
100
AcDbLine
 62
7
  6
CONTINUOUS
 10
-68.7950539682
 20
42.15
 11
-69.9800648638
 21
40.9649891043
  0
LINE
  5
223
100
AcDbEntity
  8
DRAFT
100
AcDbLine
 62
7
  6
CONTINUOUS
 10
-71.4649891043
 20
39.4800648638
 11
-72.65
 21
38.2950539682
  0
LINE
  5
224
100
AcDbEntity
  8
DRAFT
100
AcDbLine
 62
7
  6
CONTINUOUS
 10
-69.694195202
 20
-44.3207189611
 11
-71.5149949613
 21
-42.4999192018
  0
LINE
  5
225
100
AcDbEntity
  8
DRAFT
100
AcDbLine
 62
7
  6
CONTINUOUS
 10
-72.9999192018
 20
-41.0149949613
 11
-74.8207189611
 21
-39.194195202
  0
LINE
  5
226
100
AcDbEntity
  8
DRAFT
100
AcDbLine
 62
7
  6
CONTINUOUS
 10
-69.3254588461
 20
-43.4305106498
 11
-70.5708104306
 21
-42.1851590653
  0
LINE
  5
227
100
AcDbEntity
  8
DRAFT
100
AcDbLine
 62
7
  6
CONTINUOUS
 10
-72.6851590653
 20
-40.0708104306
 11
-73.9305106498
 21
-38.8254588461
  0
LINE
  5
228
100
AcDbEntity
  8
DRAFT
100
AcDbLine
 62
7
  6
CONTINUOUS
 10
-73.0950702573
 20
-38.479408105
 11
-72.0944134985
 21
-39.4800648638
  0
LINE
  5
229
100
AcDbEntity
  8
DRAFT
100
AcDbLine
 62
7
  6
CONTINUOUS
 10
-69.9800648638
 20
-41.5944134985
 11
-68.979408105
 21
-42.5950702573
  0
LINE
  5
22A
100
AcDbEntity
  8
DRAFT
100
AcDbLine
 62
7
  6
CONTINUOUS
 10
-72.65
 20
-38.2950539682
 11
-71.4649891043
 21
-39.4800648638
  0
LINE
  5
22B
100
AcDbEntity
  8
DRAFT
100
AcDbLine
 62
7
  6
CONTINUOUS
 10
-69.9800648638
 20
-40.9649891043
 11
-68.7950539682
 21
-42.15
  0
LINE
  5
22C
100
AcDbEntity
  8
RACCORDO
100
AcDbLine
 62
253
  6
CONTINUOUS
 10
-68.4974729447
 20
-37.609840549
 11
-68.751361124
 21
-37.1791181856
  0
LINE
  5
22D
100
AcDbEntity
  8
SMUSSO
100
AcDbLine
 62
7
  6
CONTINUOUS
 10
-74.7927908573
 20
-18.25
 11
-74.8119927579
 21
-17.9552354833
  0
LINE
  5
22E
100
AcDbEntity
  8
SMUSSO
100
AcDbLine
 62
7
  6
CONTINUOUS
 10
-74.7927908573
 20
14.25
 11
-74.8119927579
 21
14.5447645167
  0
LINE
  5
22F
100
AcDbEntity
  8
SMUSSO
100
AcDbLine
 62
7
  6
CONTINUOUS
 10
-75.3207189611
 20
17.8212812921
 11
-75.3207189611
 21
14.6787187079
  0
LINE
  5
230
100
AcDbEntity
  8
SMUSSO
100
AcDbLine
 62
7
  6
CONTINUOUS
 10
-75.3207189611
 20
-14.6787187079
 11
-75.3207189611
 21
-17.8212812921
  0
LINE
  5
231
100
AcDbEntity
  8
SMUSSO
100
AcDbLine
 62
7
  6
CONTINUOUS
 10
-74.8207189611
 20
34.2198819217
 11
-74.8207189611
 21
17.9552354833
  0
LINE
  5
232
100
AcDbEntity
  8
DRAFT
100
AcDbLine
 62
7
  6
CONTINUOUS
 10
-74.8207189611
 20
-39.194195202
 11
-74.8207189611
 21
-34.2198819217
  0
LINE
  5
233
100
AcDbEntity
  8
SMUSSO
100
AcDbLine
 62
7
  6
CONTINUOUS
 10
-74.8207189611
 20
14.5447645167
 11
-74.8207189611
 21
-14.5447645167
  0
LINE
  5
234
100
AcDbEntity
  8
SMUSSO
100
AcDbLine
 62
7
  6
CONTINUOUS
 10
-74.8207189611
 20
-17.9552354833
 11
-74.8207189611
 21
-34.2198819217
  0
LINE
  5
235
100
AcDbEntity
  8
DRAFT
100
AcDbLine
 62
7
  6
CONTINUOUS
 10
-74.8207189611
 20
34.2198819217
 11
-74.8207189611
 21
39.194195202
  0
LINE
  5
236
100
AcDbEntity
  8
SMUSSO
100
AcDbLine
 62
7
  6
CONTINUOUS
 10
-74.8119927579
 20
17.9552354833
 11
-74.8119927579
 21
14.5447645167
  0
LINE
  5
237
100
AcDbEntity
  8
SMUSSO
100
AcDbLine
 62
7
  6
CONTINUOUS
 10
-74.8119927579
 20
-14.5447645167
 11
-74.8119927579
 21
-17.9552354833
  0
LINE
  5
238
100
AcDbEntity
  8
RACCORDO
100
AcDbLine
 62
7
  6
CONTINUOUS
 10
-74.7927908573
 20
29.3340002875
 11
-74.7927908573
 21
18.25
  0
LINE
  5
239
100
AcDbEntity
  8
RACCORDO
100
AcDbLine
 62
7
  6
CONTINUOUS
 10
-74.7927908573
 20
14.25
 11
-74.7927908573
 21
3.1659997125
  0
LINE
  5
23A
100
AcDbEntity
  8
RACCORDO
100
AcDbLine
 62
7
  6
CONTINUOUS
 10
-74.7927908573
 20
-3.1659997125
 11
-74.7927908573
 21
-14.25
  0
LINE
  5
23B
100
AcDbEntity
  8
RACCORDO
100
AcDbLine
 62
7
  6
CONTINUOUS
 10
-74.7927908573
 20
-18.25
 11
-74.7927908573
 21
-29.3340002875
  0
LINE
  5
23C
100
AcDbEntity
  8
RACCORDO
100
AcDbLine
 62
7
  6
CONTINUOUS
 10
-74.0
 20
-33.3991629606
 11
-74.0
 21
-31.6008370394
  0
LINE
  5
23D
100
AcDbEntity
  8
RACCORDO
100
AcDbLine
 62
7
  6
CONTINUOUS
 10
-74.0
 20
-0.8991629606
 11
-74.0
 21
0.8991629606
  0
LINE
  5
23E
100
AcDbEntity
  8
RACCORDO
100
AcDbLine
 62
7
  6
CONTINUOUS
 10
-74.0
 20
31.6008370394
 11
-74.0
 21
33.3991629606
  0
LINE
  5
23F
100
AcDbEntity
  8
RACCORDO
100
AcDbLine
 62
7
  6
CONTINUOUS
 10
-73.9305106498
 20
-38.8254588461
 11
-73.9305106498
 21
-34.7549868559
  0
LINE
  5
240
100
AcDbEntity
  8
RACCORDO
100
AcDbLine
 62
7
  6
CONTINUOUS
 10
-73.9305106498
 20
34.7549868559
 11
-73.9305106498
 21
38.8254588461
  0
LINE
  5
241
100
AcDbEntity
  8
RACCORDO
100
AcDbLine
 62
253
  6
CONTINUOUS
 10
-73.9295967511
 20
34.7545299414
 11
-73.9295967511
 21
33.3287597117
  0
LINE
  5
242
100
AcDbEntity
  8
RACCORDO
100
AcDbLine
 62
253
  6
CONTINUOUS
 10
-73.9295967511
 20
31.6712402883
 11
-73.9295967511
 21
0.8287597117
  0
LINE
  5
243
100
AcDbEntity
  8
RACCORDO
100
AcDbLine
 62
253
  6
CONTINUOUS
 10
-73.9295967511
 20
-0.8287597117
 11
-73.9295967511
 21
-31.6712402883
  0
LINE
  5
244
100
AcDbEntity
  8
RACCORDO
100
AcDbLine
 62
253
  6
CONTINUOUS
 10
-73.9295967511
 20
-33.3287597117
 11
-73.9295967511
 21
-34.7545299414
  0
LINE
  5
245
100
AcDbEntity
  8
RACCORDO
100
AcDbLine
 62
7
  6
CONTINUOUS
 10
-73.4018950845
 20
-33.3
 11
-73.4018950845
 21
-31.7
  0
LINE
  5
246
100
AcDbEntity
  8
RACCORDO
100
AcDbLine
 62
7
  6
CONTINUOUS
 10
-73.4018950845
 20
-0.8
 11
-73.4018950845
 21
0.8
  0
LINE
  5
247
100
AcDbEntity
  8
RACCORDO
100
AcDbLine
 62
7
  6
CONTINUOUS
 10
-73.4018950845
 20
31.7
 11
-73.4018950845
 21
33.3
  0
LINE
  5
248
100
AcDbEntity
  8
DRAFT
100
AcDbLine
 62
7
  6
CONTINUOUS
 10
-73.0950702573
 20
38.479408105
 11
-73.0950702573
 21
35.2549297427
  0
LINE
  5
249
100
AcDbEntity
  8
DRAFT
100
AcDbLine
 62
7
  6
CONTINUOUS
 10
-73.0950702573
 20
-35.2549297427
 11
-73.0950702573
 21
-38.479408105
  0
LINE
  5
24A
100
AcDbEntity
  8
DRAFT
100
AcDbLine
 62
7
  6
CONTINUOUS
 10
-72.65
 20
38.2950539682
 11
-72.65
 21
35.7
  0
LINE
  5
24B
100
AcDbEntity
  8
DRAFT
100
AcDbLine
 62
7
  6
CONTINUOUS
 10
-72.65
 20
-35.7
 11
-72.65
 21
-38.2950539682
  0
LINE
  5
24C
100
AcDbEntity
  8
RACCORDO
100
AcDbLine
 62
253
  6
CONTINUOUS
 10
-70.9300536657
 20
-35.2330744955
 11
-70.9300536657
 21
35.2330744955
  0
LINE
  5
24D
100
AcDbEntity
  8
SMUSSO
100
AcDbLine
 62
7
  6
CONTINUOUS
 10
-74.7927908573
 20
18.25
 11
-74.8119927579
 21
17.9552354833
  0
LINE
  5
24E
100
AcDbEntity
  8
SMUSSO
100
AcDbLine
 62
7
  6
CONTINUOUS
 10
-74.7927908573
 20
-14.25
 11
-74.8119927579
 21
-14.5447645167
  0
LINE
  5
24F
100
AcDbEntity
  8
DRAFT
100
AcDbLine
 62
7
  6
CONTINUOUS
 10
-66.2
 20
42.15
 11
-65.7549297427
 21
42.5950702573
  0
LINE
  5
250
100
AcDbEntity
  8
DRAFT
100
AcDbLine
 62
7
  6
CONTINUOUS
 10
-72.65
 20
35.7
 11
-73.0950702573
 21
35.2549297427
  0
LINE
  5
251
100
AcDbEntity
  8
DRAFT
100
AcDbLine
 62
7
  6
CONTINUOUS
 10
-70.8908116908
 20
35.7
 11
-69.4082536047
 21
37.1825580861
  0
LINE
  5
252
100
AcDbEntity
  8
DRAFT
100
AcDbLine
 62
7
  6
CONTINUOUS
 10
-67.6825580861
 20
38.9082536047
 11
-66.2
 21
40.3908116908
  0
LINE
  5
253
100
AcDbEntity
  8
RACCORDO
100
AcDbLine
 62
7
  6
CONTINUOUS
 10
-65.7330744955
 20
40.1974048142
 11
-67.6791181856
 21
38.2513611241
  0
LINE
  5
254
100
AcDbEntity
  8
RACCORDO
100
AcDbLine
 62
7
  6
CONTINUOUS
 10
-68.7513611241
 20
37.1791181856
 11
-70.6974048142
 21
35.2330744955
  0
LINE
  5
255
100
AcDbEntity
  8
RACCORDO
100
AcDbLine
 62
7
  6
CONTINUOUS
 10
-62.1712402883
 20
43.4295967511
 11
-61.3337718302
 21
44.2670652092
  0
LINE
  5
256
100
AcDbEntity
  8
RACCORDO
100
AcDbLine
 62
7
  6
CONTINUOUS
 10
-73.9295967511
 20
31.6712402883
 11
-74.7670652092
 21
30.8337718302
  0
LINE
  5
257
100
AcDbEntity
  8
RACCORDO
100
AcDbLine
 62
253
  6
CONTINUOUS
 10
-65.233093534
 20
39.990305919
 11
-67.3255782573
 21
37.8978211958
  0
LINE
  5
258
100
AcDbEntity
  8
RACCORDO
100
AcDbLine
 62
253
  6
CONTINUOUS
 10
-68.3978211958
 20
36.8255782573
 11
-70.490305919
 21
34.733093534
  0
LINE
  5
259
100
AcDbEntity
  8
DRAFT
100
AcDbLine
 62
7
  6
CONTINUOUS
 10
-66.2
 20
-42.15
 11
-65.7549297427
 21
-42.5950702573
  0
LINE
  5
25A
100
AcDbEntity
  8
DRAFT
100
AcDbLine
 62
7
  6
CONTINUOUS
 10
-72.65
 20
-35.7
 11
-73.0950702573
 21
-35.2549297427
  0
LINE
  5
25B
100
AcDbEntity
  8
DRAFT
100
AcDbLine
 62
7
  6
CONTINUOUS
 10
-66.2
 20
-40.3908116908
 11
-67.6825580861
 21
-38.9082536047
  0
LINE
  5
25C
100
AcDbEntity
  8
DRAFT
100
AcDbLine
 62
7
  6
CONTINUOUS
 10
-69.4082536047
 20
-37.1825580861
 11
-70.8908116908
 21
-35.7
  0
LINE
  5
25D
100
AcDbEntity
  8
RACCORDO
100
AcDbLine
 62
7
  6
CONTINUOUS
 10
-70.6974048142
 20
-35.2330744955
 11
-68.7513611241
 21
-37.1791181856
  0
LINE
  5
25E
100
AcDbEntity
  8
RACCORDO
100
AcDbLine
 62
7
  6
CONTINUOUS
 10
-67.6791181856
 20
-38.2513611241
 11
-65.7330744955
 21
-40.1974048142
  0
LINE
  5
25F
100
AcDbEntity
  8
RACCORDO
100
AcDbLine
 62
7
  6
CONTINUOUS
 10
-62.1712402883
 20
-43.4295967511
 11
-61.3337718302
 21
-44.2670652092
  0
LINE
  5
260
100
AcDbEntity
  8
RACCORDO
100
AcDbLine
 62
7
  6
CONTINUOUS
 10
-73.9295967511
 20
-31.6712402883
 11
-74.7670652092
 21
-30.8337718302
  0
LINE
  5
261
100
AcDbEntity
  8
RACCORDO
100
AcDbLine
 62
253
  6
CONTINUOUS
 10
-70.490305919
 20
-34.733093534
 11
-68.3978211958
 21
-36.8255782573
  0
LINE
  5
262
100
AcDbEntity
  8
RACCORDO
100
AcDbLine
 62
253
  6
CONTINUOUS
 10
-67.3255782573
 20
-37.8978211958
 11
-65.233093534
 21
-39.990305919
  0
LINE
  5
263
100
AcDbEntity
  8
DRAFT
100
AcDbLine
 62
7
  6
CONTINUOUS
 10
-69.9800648638
 20
-40.9649891043
 11
-69.9800648638
 21
-41.5944134985
  0
LINE
  5
264
100
AcDbEntity
  8
DRAFT
100
AcDbLine
 62
7
  6
CONTINUOUS
 10
-69.9800648638
 20
40.9649891043
 11
-69.9800648638
 21
41.5944134985
  0
LINE
  5
265
100
AcDbEntity
  8
DRAFT
100
AcDbLine
 62
7
  6
CONTINUOUS
 10
-66.2
 20
-42.15
 11
-66.2
 21
-40.3908116908
  0
LINE
  5
266
100
AcDbEntity
  8
DRAFT
100
AcDbLine
 62
7
  6
CONTINUOUS
 10
-66.2
 20
40.3908116908
 11
-66.2
 21
42.15
  0
LINE
  5
267
100
AcDbEntity
  8
RACCORDO
100
AcDbLine
 62
7
  6
CONTINUOUS
 10
-65.7549297427
 20
-42.9305106469
 11
-65.7549297427
 21
-42.5950702573
  0
LINE
  5
268
100
AcDbEntity
  8
RACCORDO
100
AcDbLine
 62
7
  6
CONTINUOUS
 10
-65.7549297427
 20
42.5950702573
 11
-65.7549297427
 21
42.9305106469
  0
LINE
  5
269
100
AcDbEntity
  8
RACCORDO
100
AcDbLine
 62
7
  6
CONTINUOUS
 10
-65.7330744955
 20
40.4300536657
 11
-65.7330744955
 21
40.1974048142
  0
LINE
  5
26A
100
AcDbEntity
  8
RACCORDO
100
AcDbLine
 62
7
  6
CONTINUOUS
 10
-65.7330744955
 20
-40.1974048142
 11
-65.7330744955
 21
-40.4300536657
  0
LINE
  5
26B
100
AcDbEntity
  8
RACCORDO
100
AcDbLine
 62
253
  6
CONTINUOUS
 10
-65.233093534
 20
40.4300536657
 11
-65.233093534
 21
39.990305919
  0
LINE
  5
26C
100
AcDbEntity
  8
RACCORDO
100
AcDbLine
 62
253
  6
CONTINUOUS
 10
-65.233093534
 20
-39.990305919
 11
-65.233093534
 21
-40.4300536657
  0
LINE
  5
26D
100
AcDbEntity
  8
RACCORDO
100
AcDbLine
 62
253
  6
CONTINUOUS
 10
-68.109840549
 20
37.9974729447
 11
-67.6791181858
 21
38.2513611244
  0
LINE
  5
26E
100
AcDbEntity
  8
RACCORDO
100
AcDbLine
 62
253
  6
CONTINUOUS
 10
-68.109840549
 20
-37.9974729447
 11
-67.6791181856
 21
-38.2513611241
  0
LINE
  5
26F
100
AcDbEntity
  8
RACCORDO
100
AcDbLine
 62
253
  6
CONTINUOUS
 10
-61.5
 20
-51.9474824772
 11
-61.5
 21
-53.0
  0
LINE
  5
270
100
AcDbEntity
  8
RACCORDO
100
AcDbLine
 62
253
  6
CONTINUOUS
 10
-61.5
 20
51.9474824772
 11
-61.5
 21
53.0
  0
LINE
  5
271
100
AcDbEntity
  8
DRAFT
100
AcDbLine
 62
7
  6
CONTINUOUS
 10
-72.6851590653
 20
-40.0708104306
 11
-72.9999192018
 21
-41.0149949613
  0
LINE
  5
272
100
AcDbEntity
  8
0
100
AcDbLine
 62
7
  6
CONTINUOUS
 10
79.5
 20
-59.0
 11
-79.5
 21
-59.0
  0
LINE
  5
273
100
AcDbEntity
  8
DRAFT
100
AcDbLine
 62
7
  6
CONTINUOUS
 10
-72.6851590653
 20
40.0708104306
 11
-72.9999192018
 21
41.0149949613
  0
LINE
  5
274
100
AcDbEntity
  8
SMUSSO
100
AcDbLine
 62
7
  6
CONTINUOUS
 10
-43.7052354833
 20
44.3119927579
 11
-43.5712812921
 21
44.8207189611
  0
LINE
  5
275
100
AcDbEntity
  8
RACCORDO
100
AcDbLine
 62
7
  6
CONTINUOUS
 10
-70.8908116908
 20
-35.7
 11
-70.6974048142
 21
-35.2330744955
  0
LINE
  5
276
100
AcDbEntity
  8
RACCORDO
100
AcDbLine
 62
7
  6
CONTINUOUS
 10
-73.9295967511
 20
-0.8287597117
 11
-74.7670652092
 21
-1.6662281698
  0
LINE
  5
277
100
AcDbEntity
  8
0
100
AcDbLine
 62
7
  6
CONTINUOUS
 10
-79.5
 20
-56.0
 11
79.5
 21
-56.0
  0
LINE
  5
278
100
AcDbEntity
  8
DRAFT
100
AcDbLine
 62
7
  6
CONTINUOUS
 10
-8.0882381259
 20
-53.5
 11
8.0882381259
 21
-53.5
  0
LINE
  5
279
100
AcDbEntity
  8
RACCORDO
100
AcDbLine
 62
7
  6
CONTINUOUS
 10
-61.5
 20
-53.0
 11
61.5
 21
-53.0
  0
LINE
  5
27A
100
AcDbEntity
  8
RACCORDO
100
AcDbLine
 62
253
  6
CONTINUOUS
 10
-61.5
 20
-52.9473301723
 11
61.5
 21
-52.9473301723
  0
LINE
  5
27B
100
AcDbEntity
  8
RACCORDO
100
AcDbLine
 62
253
  6
CONTINUOUS
 10
-61.5
 20
-51.9474824772
 11
61.5
 21
-51.9474824772
  0
LINE
  5
27C
100
AcDbEntity
  8
DRAFT
100
AcDbLine
 62
7
  6
CONTINUOUS
 10
13.5496074285
 20
-51.5
 11
-13.5496074285
 21
-51.5
  0
LINE
  5
27D
100
AcDbEntity
  8
RACCORDO
100
AcDbLine
 62
7
  6
CONTINUOUS
 10
13.4047303896
 20
-51.3551229611
 11
-13.4047303896
 21
-51.3551229611
  0
LINE
  5
27E
100
AcDbEntity
  8
DRAFT
100
AcDbLine
 62
7
  6
CONTINUOUS
 10
-9.0599691403
 20
-50.8301909799
 11
-13.3
 21
-50.8301909799
  0
LINE
  5
27F
100
AcDbEntity
  8
DRAFT
100
AcDbLine
 62
7
  6
CONTINUOUS
 10
9.0599691403
 20
-50.8301909799
 11
13.3
 21
-50.8301909799
  0
LINE
  5
280
100
AcDbEntity
  8
RACCORDO
100
AcDbLine
 62
7
  6
CONTINUOUS
 10
-73.9295967511
 20
0.8287597117
 11
-74.7670652092
 21
1.6662281698
  0
LINE
  5
281
100
AcDbEntity
  8
RACCORDO
100
AcDbLine
 62
7
  6
CONTINUOUS
 10
-70.8908116908
 20
35.7
 11
-70.6974048142
 21
35.2330744955
  0
LINE
  5
282
100
AcDbEntity
  8
SMUSSO
100
AcDbLine
 62
7
  6
CONTINUOUS
 10
-43.5712812921
 20
-44.8207189611
 11
-43.7052354833
 21
-44.3119927579
  0
LINE
  5
283
100
AcDbEntity
  8
DRAFT
100
AcDbLine
 62
7
  6
CONTINUOUS
 10
-36.5
 20
37.469669092
 11
-36.7738720921
 21
36.4475645295
  0
LINE
  5
284
100
AcDbEntity
  8
DRAFT
100
AcDbLine
 62
7
  6
CONTINUOUS
 10
-36.2668053713
 20
37.6586881563
 11
-36.6358162676
 21
36.2815207427
  0
LINE
  5
285
100
AcDbEntity
  8
DRAFT
100
AcDbLine
 62
7
  6
CONTINUOUS
 10
-36.25
 20
34.4791505667
 11
-36.5236115728
 21
33.4580182753
  0
LINE
  5
286
100
AcDbEntity
  8
DRAFT
100
AcDbLine
 62
7
  6
CONTINUOUS
 10
-36.0172413879
 20
34.6665423948
 11
-36.3855994165
 21
33.2918115166
  0
LINE
  5
287
100
AcDbEntity
  8
DRAFT
100
AcDbLine
 62
7
  6
CONTINUOUS
 10
-36.0
 20
31.4880884817
 11
-36.2732026444
 21
30.468482332
  0
LINE
  5
288
100
AcDbEntity
  8
DRAFT
100
AcDbLine
 62
7
  6
CONTINUOUS
 10
-35.8142166239
 20
31.63642137
 11
-36.1628140215
 21
30.3354381706
  0
LINE
  5
289
100
AcDbEntity
  8
DRAFT
100
AcDbLine
 62
7
  6
CONTINUOUS
 10
-69.694195202
 20
-44.3207189611
 11
-69.3254588461
 21
-43.4305106498
  0
LINE
  5
28A
100
AcDbEntity
  8
DRAFT
100
AcDbLine
 62
7
  6
CONTINUOUS
 10
-68.7950539682
 20
-42.15
 11
-68.979408105
 21
-42.5950702573
  0
LINE
  5
28B
100
AcDbEntity
  8
RACCORDO
100
AcDbLine
 62
7
  6
CONTINUOUS
 10
-20.1712402883
 20
43.4295967511
 11
-19.3337718302
 21
44.2670652092
  0
LINE
  5
28C
100
AcDbEntity
  8
DRAFT
100
AcDbLine
 62
7
  6
CONTINUOUS
 10
-13.4047303896
 20
46.2448770389
 11
-13.5496074285
 21
46.1
  0
LINE
  5
28D
100
AcDbEntity
  8
SMUSSO
100
AcDbLine
 62
7
  6
CONTINUOUS
 10
44.0
 20
-44.2927908573
 11
43.7052354833
 21
-44.3119927579
  0
LINE
  5
28E
100
AcDbEntity
  8
SMUSSO
100
AcDbLine
 62
7
  6
CONTINUOUS
 10
2.0
 20
-44.2927908573
 11
1.7052354833
 21
-44.3119927579
  0
LINE
  5
28F
100
AcDbEntity
  8
DRAFT
100
AcDbLine
 62
7
  6
CONTINUOUS
 10
12.8547303896
 20
-46.8745394096
 11
10.4997085691
 21
-46.8745394096
  0
LINE
  5
290
100
AcDbEntity
  8
DRAFT
100
AcDbLine
 62
7
  6
CONTINUOUS
 10
-10.4997085691
 20
-46.8745394096
 11
-12.8547303896
 21
-46.8745394096
  0
LINE
  5
291
100
AcDbEntity
  8
DRAFT
100
AcDbLine
 62
7
  6
CONTINUOUS
 10
-13.3
 20
-46.7698090201
 11
-12.8547303896
 21
-46.7698090201
  0
LINE
  5
292
100
AcDbEntity
  8
DRAFT
100
AcDbLine
 62
7
  6
CONTINUOUS
 10
12.8547303896
 20
-46.7698090201
 11
13.3
 21
-46.7698090201
  0
LINE
  5
293
100
AcDbEntity
  8
RACCORDO
100
AcDbLine
 62
7
  6
CONTINUOUS
 10
-13.4047303896
 20
-46.2448770389
 11
13.4047303896
 21
-46.2448770389
  0
LINE
  5
294
100
AcDbEntity
  8
DRAFT
100
AcDbLine
 62
7
  6
CONTINUOUS
 10
13.5496074285
 20
-46.1
 11
-13.5496074285
 21
-46.1
  0
LINE
  5
295
100
AcDbEntity
  8
SMUSSO
100
AcDbLine
 62
7
  6
CONTINUOUS
 10
-43.5712812921
 20
-44.8207189611
 11
-40.4287187079
 21
-44.8207189611
  0
LINE
  5
296
100
AcDbEntity
  8
SMUSSO
100
AcDbLine
 62
7
  6
CONTINUOUS
 10
-1.5712812921
 20
-44.8207189611
 11
1.5712812921
 21
-44.8207189611
  0
LINE
  5
297
100
AcDbEntity
  8
SMUSSO
100
AcDbLine
 62
7
  6
CONTINUOUS
 10
40.4287187079
 20
-44.8207189611
 11
43.5712812921
 21
-44.8207189611
  0
LINE
  5
298
100
AcDbEntity
  8
DRAFT
100
AcDbLine
 62
7
  6
CONTINUOUS
 10
69.694195202
 20
-44.3207189611
 11
64.7198819217
 21
-44.3207189611
  0
LINE
  5
299
100
AcDbEntity
  8
SMUSSO
100
AcDbLine
 62
7
  6
CONTINUOUS
 10
-64.7198819217
 20
-44.3207189611
 11
-43.7052354833
 21
-44.3207189611
  0
LINE
  5
29A
100
AcDbEntity
  8
SMUSSO
100
AcDbLine
 62
7
  6
CONTINUOUS
 10
-40.2947645167
 20
-44.3207189611
 11
-1.7052354833
 21
-44.3207189611
  0
LINE
  5
29B
100
AcDbEntity
  8
SMUSSO
100
AcDbLine
 62
7
  6
CONTINUOUS
 10
1.7052354833
 20
-44.3207189611
 11
40.2947645167
 21
-44.3207189611
  0
LINE
  5
29C
100
AcDbEntity
  8
SMUSSO
100
AcDbLine
 62
7
  6
CONTINUOUS
 10
43.7052354833
 20
-44.3207189611
 11
64.7198819217
 21
-44.3207189611
  0
LINE
  5
29D
100
AcDbEntity
  8
DRAFT
100
AcDbLine
 62
7
  6
CONTINUOUS
 10
-64.7198819217
 20
-44.3207189611
 11
-69.694195202
 21
-44.3207189611
  0
LINE
  5
29E
100
AcDbEntity
  8
SMUSSO
100
AcDbLine
 62
7
  6
CONTINUOUS
 10
-43.7052354833
 20
-44.3119927579
 11
-40.2947645167
 21
-44.3119927579
  0
LINE
  5
29F
100
AcDbEntity
  8
SMUSSO
100
AcDbLine
 62
7
  6
CONTINUOUS
 10
-1.7052354833
 20
-44.3119927579
 11
1.7052354833
 21
-44.3119927579
  0
LINE
  5
2A0
100
AcDbEntity
  8
SMUSSO
100
AcDbLine
 62
7
  6
CONTINUOUS
 10
40.2947645167
 20
-44.3119927579
 11
43.7052354833
 21
-44.3119927579
  0
LINE
  5
2A1
100
AcDbEntity
  8
RACCORDO
100
AcDbLine
 62
7
  6
CONTINUOUS
 10
59.8340002875
 20
-44.2927908573
 11
44.0
 21
-44.2927908573
  0
LINE
  5
2A2
100
AcDbEntity
  8
RACCORDO
100
AcDbLine
 62
7
  6
CONTINUOUS
 10
40.0
 20
-44.2927908573
 11
24.1659997125
 21
-44.2927908573
  0
LINE
  5
2A3
100
AcDbEntity
  8
RACCORDO
100
AcDbLine
 62
7
  6
CONTINUOUS
 10
17.8340002875
 20
-44.2927908573
 11
2.0
 21
-44.2927908573
  0
LINE
  5
2A4
100
AcDbEntity
  8
RACCORDO
100
AcDbLine
 62
7
  6
CONTINUOUS
 10
-2.0
 20
-44.2927908573
 11
-17.8340002875
 21
-44.2927908573
  0
LINE
  5
2A5
100
AcDbEntity
  8
RACCORDO
100
AcDbLine
 62
7
  6
CONTINUOUS
 10
-24.1659997125
 20
-44.2927908573
 11
-40.0
 21
-44.2927908573
  0
LINE
  5
2A6
100
AcDbEntity
  8
RACCORDO
100
AcDbLine
 62
7
  6
CONTINUOUS
 10
-44.0
 20
-44.2927908573
 11
-59.8340002875
 21
-44.2927908573
  0
LINE
  5
2A7
100
AcDbEntity
  8
RACCORDO
100
AcDbLine
 62
7
  6
CONTINUOUS
 10
69.3254588461
 20
-43.4305106498
 11
65.2549868559
 21
-43.4305106498
  0
LINE
  5
2A8
100
AcDbEntity
  8
RACCORDO
100
AcDbLine
 62
7
  6
CONTINUOUS
 10
-65.2549868559
 20
-43.4305106498
 11
-69.3254588461
 21
-43.4305106498
  0
LINE
  5
2A9
100
AcDbEntity
  8
RACCORDO
100
AcDbLine
 62
253
  6
CONTINUOUS
 10
-65.2545299414
 20
-43.4295967511
 11
-63.8287597117
 21
-43.4295967511
  0
LINE
  5
2AA
100
AcDbEntity
  8
RACCORDO
100
AcDbLine
 62
253
  6
CONTINUOUS
 10
-62.1712402883
 20
-43.4295967511
 11
-21.8287597117
 21
-43.4295967511
  0
LINE
  5
2AB
100
AcDbEntity
  8
RACCORDO
100
AcDbLine
 62
253
  6
CONTINUOUS
 10
-20.1712402883
 20
-43.4295967511
 11
20.1712402883
 21
-43.4295967511
  0
LINE
  5
2AC
100
AcDbEntity
  8
RACCORDO
100
AcDbLine
 62
253
  6
CONTINUOUS
 10
21.8287597117
 20
-43.4295967511
 11
62.1712402883
 21
-43.4295967511
  0
LINE
  5
2AD
100
AcDbEntity
  8
RACCORDO
100
AcDbLine
 62
253
  6
CONTINUOUS
 10
63.8287597117
 20
-43.4295967511
 11
65.2545299414
 21
-43.4295967511
  0
LINE
  5
2AE
100
AcDbEntity
  8
RACCORDO
100
AcDbLine
 62
7
  6
CONTINUOUS
 10
63.8
 20
-42.9018950845
 11
62.2
 21
-42.9018950845
  0
LINE
  5
2AF
100
AcDbEntity
  8
RACCORDO
100
AcDbLine
 62
7
  6
CONTINUOUS
 10
21.8
 20
-42.9018950845
 11
20.2
 21
-42.9018950845
  0
LINE
  5
2B0
100
AcDbEntity
  8
RACCORDO
100
AcDbLine
 62
7
  6
CONTINUOUS
 10
-20.2
 20
-42.9018950845
 11
-21.8
 21
-42.9018950845
  0
LINE
  5
2B1
100
AcDbEntity
  8
RACCORDO
100
AcDbLine
 62
7
  6
CONTINUOUS
 10
-62.2
 20
-42.9018950845
 11
-63.8
 21
-42.9018950845
  0
LINE
  5
2B2
100
AcDbEntity
  8
DRAFT
100
AcDbLine
 62
7
  6
CONTINUOUS
 10
-68.979408105
 20
-42.5950702573
 11
-65.7549297427
 21
-42.5950702573
  0
LINE
  5
2B3
100
AcDbEntity
  8
DRAFT
100
AcDbLine
 62
7
  6
CONTINUOUS
 10
65.7549297427
 20
-42.5950702573
 11
68.979408105
 21
-42.5950702573
  0
LINE
  5
2B4
100
AcDbEntity
  8
DRAFT
100
AcDbLine
 62
7
  6
CONTINUOUS
 10
-68.7950539682
 20
-42.15
 11
-66.2
 21
-42.15
  0
LINE
  5
2B5
100
AcDbEntity
  8
DRAFT
100
AcDbLine
 62
7
  6
CONTINUOUS
 10
66.2
 20
-42.15
 11
68.7950539682
 21
-42.15
  0
LINE
  5
2B6
100
AcDbEntity
  8
SMUSSO
100
AcDbLine
 62
7
  6
CONTINUOUS
 10
-44.0
 20
-44.2927908573
 11
-43.7052354833
 21
-44.3119927579
  0
LINE
  5
2B7
100
AcDbEntity
  8
SMUSSO
100
AcDbLine
 62
7
  6
CONTINUOUS
 10
-2.0
 20
-44.2927908573
 11
-1.7052354833
 21
-44.3119927579
  0
LINE
  5
2B8
100
AcDbEntity
  8
RACCORDO
100
AcDbLine
 62
7
  6
CONTINUOUS
 10
-20.1712402883
 20
-43.4295967511
 11
-19.3337718302
 21
-44.2670652092
  0
LINE
  5
2B9
100
AcDbEntity
  8
DRAFT
100
AcDbLine
 62
7
  6
CONTINUOUS
 10
-13.5496074285
 20
-46.1
 11
-13.4047303896
 21
-46.2448770389
  0
LINE
  5
2BA
100
AcDbEntity
  8
DRAFT
100
AcDbLine
 62
7
  6
CONTINUOUS
 10
-69.694195202
 20
44.3207189611
 11
-69.3254588461
 21
43.4305106498
  0
LINE
  5
2BB
100
AcDbEntity
  8
DRAFT
100
AcDbLine
 62
7
  6
CONTINUOUS
 10
-68.7950539682
 20
42.15
 11
-68.979408105
 21
42.5950702573
  0
LINE
  5
2BC
100
AcDbEntity
  8
DRAFT
100
AcDbLine
 62
7
  6
CONTINUOUS
 10
-36.7738720921
 20
-36.4475645295
 11
-36.5
 21
-37.469669092
  0
LINE
  5
2BD
100
AcDbEntity
  8
DRAFT
100
AcDbLine
 62
7
  6
CONTINUOUS
 10
-36.6358162676
 20
-36.2815207427
 11
-36.2668053713
 21
-37.6586881563
  0
LINE
  5
2BE
100
AcDbEntity
  8
DRAFT
100
AcDbLine
 62
7
  6
CONTINUOUS
 10
-36.5236115728
 20
-33.4580182753
 11
-36.25
 21
-34.4791505667
  0
LINE
  5
2BF
100
AcDbEntity
  8
DRAFT
100
AcDbLine
 62
7
  6
CONTINUOUS
 10
-36.3855994165
 20
-33.2918115166
 11
-36.0172413879
 21
-34.6665423948
  0
LINE
  5
2C0
100
AcDbEntity
  8
DRAFT
100
AcDbLine
 62
7
  6
CONTINUOUS
 10
-36.2732026444
 20
-30.468482332
 11
-36.0
 21
-31.4880884817
  0
LINE
  5
2C1
100
AcDbEntity
  8
DRAFT
100
AcDbLine
 62
7
  6
CONTINUOUS
 10
-36.1628140215
 20
-30.3354381706
 11
-35.8142166239
 21
-31.63642137
  0
LINE
  5
2C2
100
AcDbEntity
  8
DRAFT
100
AcDbLine
 62
7
  6
CONTINUOUS
 10
-35.1857833761
 20
10.36357863
 11
-34.8371859785
 21
11.6645618294
  0
LINE
  5
2C3
100
AcDbEntity
  8
DRAFT
100
AcDbLine
 62
7
  6
CONTINUOUS
 10
-35.0
 20
10.5119115183
 11
-34.7267973556
 21
11.531517668
  0
LINE
  5
2C4
100
AcDbEntity
  8
DRAFT
100
AcDbLine
 62
7
  6
CONTINUOUS
 10
-34.9827586121
 20
7.3334576052
 11
-34.6144005835
 21
8.7081884834
  0
LINE
  5
2C5
100
AcDbEntity
  8
DRAFT
100
AcDbLine
 62
7
  6
CONTINUOUS
 10
-34.75
 20
7.5208494333
 11
-34.4763884272
 21
8.5419817247
  0
LINE
  5
2C6
100
AcDbEntity
  8
RACCORDO
100
AcDbLine
 62
253
  6
CONTINUOUS
 10
-65.7545109029
 20
-42.9296729036
 11
-65.7549297427
 21
-42.9305106469
  0
LINE
  5
2C7
100
AcDbEntity
  8
RACCORDO
100
AcDbLine
 62
253
  6
CONTINUOUS
 10
-65.2545299414
 20
-43.4295967511
 11
-65.2549868559
 21
-43.4305106498
  0
LINE
  5
2C8
100
AcDbEntity
  8
0
100
AcDbLine
 62
7
  6
CONTINUOUS
 10
-70.0228436067
 20
-39.8524286263
 11
-70.28426541
 21
-40.2786429395
  0
LINE
  5
2C9
100
AcDbEntity
  8
SMUSSO
100
AcDbLine
 62
7
  6
CONTINUOUS
 10
75.3207189611
 20
-17.8212812921
 11
74.8119927579
 21
-17.9552354833
  0
LINE
  5
2CA
100
AcDbEntity
  8
SMUSSO
100
AcDbLine
 62
7
  6
CONTINUOUS
 10
-40.0
 20
-44.2927908573
 11
-40.2947645167
 21
-44.3119927579
  0
LINE
  5
2CB
100
AcDbEntity
  8
RACCORDO
100
AcDbLine
 62
253
  6
CONTINUOUS
 10
65.7330744955
 20
-40.4300536657
 11
-65.7330744955
 21
-40.4300536657
  0
LINE
  5
2CC
100
AcDbEntity
  8
DRAFT
100
AcDbLine
 62
7
  6
CONTINUOUS
 10
71.4649891043
 20
-39.4800648638
 11
72.0944134985
 21
-39.4800648638
  0
LINE
  5
2CD
100
AcDbEntity
  8
DRAFT
100
AcDbLine
 62
7
  6
CONTINUOUS
 10
-71.4649891043
 20
-39.4800648638
 11
-72.0944134985
 21
-39.4800648638
  0
LINE
  5
2CE
100
AcDbEntity
  8
DRAFT
100
AcDbLine
 62
7
  6
CONTINUOUS
 10
72.65
 20
-35.7
 11
70.8908116908
 21
-35.7
  0
LINE
  5
2CF
100
AcDbEntity
  8
DRAFT
100
AcDbLine
 62
7
  6
CONTINUOUS
 10
-70.8908116908
 20
-35.7
 11
-72.65
 21
-35.7
  0
LINE
  5
2D0
100
AcDbEntity
  8
RACCORDO
100
AcDbLine
 62
7
  6
CONTINUOUS
 10
73.4305106469
 20
-35.2549297427
 11
73.0950702573
 21
-35.2549297427
  0
LINE
  5
2D1
100
AcDbEntity
  8
RACCORDO
100
AcDbLine
 62
7
  6
CONTINUOUS
 10
-73.0950702573
 20
-35.2549297427
 11
-73.4305106469
 21
-35.2549297427
  0
LINE
  5
2D2
100
AcDbEntity
  8
RACCORDO
100
AcDbLine
 62
7
  6
CONTINUOUS
 10
-70.9300536657
 20
-35.2330744955
 11
-70.6974048142
 21
-35.2330744955
  0
LINE
  5
2D3
100
AcDbEntity
  8
RACCORDO
100
AcDbLine
 62
7
  6
CONTINUOUS
 10
70.6974048142
 20
-35.2330744955
 11
70.9300536657
 21
-35.2330744955
  0
LINE
  5
2D4
100
AcDbEntity
  8
SMUSSO
100
AcDbLine
 62
7
  6
CONTINUOUS
 10
40.0
 20
-44.2927908573
 11
40.2947645167
 21
-44.3119927579
  0
LINE
  5
2D5
100
AcDbEntity
  8
SMUSSO
100
AcDbLine
 62
7
  6
CONTINUOUS
 10
-74.8119927579
 20
-17.9552354833
 11
-75.3207189611
 21
-17.8212812921
  0
LINE
  5
2D6
100
AcDbEntity
  8
RACCORDO
100
AcDbLine
 62
253
  6
CONTINUOUS
 10
-65.7549297427
 20
42.9305106469
 11
-65.7545109029
 21
42.9296729036
  0
LINE
  5
2D7
100
AcDbEntity
  8
RACCORDO
100
AcDbLine
 62
253
  6
CONTINUOUS
 10
-65.2549868559
 20
43.4305106498
 11
-65.2545299414
 21
43.4295967511
  0
LINE
  5
2D8
100
AcDbEntity
  8
DRAFT
100
AcDbLine
 62
7
  6
CONTINUOUS
 10
-34.8371859785
 20
-11.6645618294
 11
-35.1857833761
 21
-10.36357863
  0
LINE
  5
2D9
100
AcDbEntity
  8
DRAFT
100
AcDbLine
 62
7
  6
CONTINUOUS
 10
-34.7267973556
 20
-11.531517668
 11
-35.0
 21
-10.5119115183
  0
LINE
  5
2DA
100
AcDbEntity
  8
DRAFT
100
AcDbLine
 62
7
  6
CONTINUOUS
 10
-34.6144005835
 20
-8.7081884834
 11
-34.9827586121
 21
-7.3334576052
  0
LINE
  5
2DB
100
AcDbEntity
  8
DRAFT
100
AcDbLine
 62
7
  6
CONTINUOUS
 10
-34.4763884272
 20
-8.5419817247
 11
-34.75
 21
-7.5208494333
  0
LINE
  5
2DC
100
AcDbEntity
  8
SMUSSO
100
AcDbLine
 62
7
  6
CONTINUOUS
 10
-40.2947645167
 20
-44.3119927579
 11
-40.4287187079
 21
-44.8207189611
  0
LINE
  5
2DD
100
AcDbEntity
  8
DRAFT
100
AcDbLine
 62
7
  6
CONTINUOUS
 10
-34.7331946287
 20
4.3413118437
 11
-34.3641837324
 21
5.7184792573
  0
LINE
  5
2DE
100
AcDbEntity
  8
DRAFT
100
AcDbLine
 62
7
  6
CONTINUOUS
 10
-34.5
 20
4.530330908
 11
-34.2261279079
 21
5.5524354705
  0
LINE
  5
2DF
100
AcDbEntity
  8
DRAFT
100
AcDbLine
 62
7
  6
CONTINUOUS
 10
-36.5
 20
-4.530330908
 11
-36.7738720921
 21
-5.5524354705
  0
LINE
  5
2E0
100
AcDbEntity
  8
DRAFT
100
AcDbLine
 62
7
  6
CONTINUOUS
 10
-36.2668053713
 20
-4.3413118437
 11
-36.6358162676
 21
-5.7184792573
  0
LINE
  5
2E1
100
AcDbEntity
  8
DRAFT
100
AcDbLine
 62
7
  6
CONTINUOUS
 10
-36.25
 20
-7.5208494333
 11
-36.5236115728
 21
-8.5419817247
  0
LINE
  5
2E2
100
AcDbEntity
  8
DRAFT
100
AcDbLine
 62
7
  6
CONTINUOUS
 10
-36.0172413879
 20
-7.3334576052
 11
-36.3855994165
 21
-8.7081884834
  0
LINE
  5
2E3
100
AcDbEntity
  8
DRAFT
100
AcDbLine
 62
7
  6
CONTINUOUS
 10
-36.0
 20
-10.5119115183
 11
-36.2732026444
 21
-11.531517668
  0
LINE
  5
2E4
100
AcDbEntity
  8
DRAFT
100
AcDbLine
 62
7
  6
CONTINUOUS
 10
-35.8142166239
 20
-10.36357863
 11
-36.1628140215
 21
-11.6645618294
  0
LINE
  5
2E5
100
AcDbEntity
  8
RACCORDO
100
AcDbLine
 62
7
  6
CONTINUOUS
 10
-73.9295967511
 20
-33.3287597117
 11
-74.8207189611
 21
-34.2198819217
  0
LINE
  5
2E6
100
AcDbEntity
  8
DRAFT
100
AcDbLine
 62
7
  6
CONTINUOUS
 10
50.9475645295
 20
-22.2738720921
 11
51.969669092
 21
-22.0
  0
LINE
  5
2E7
100
AcDbEntity
  8
DRAFT
100
AcDbLine
 62
7
  6
CONTINUOUS
 10
50.7815207427
 20
-22.1358162676
 11
52.1586881563
 21
-21.7668053713
  0
LINE
  5
2E8
100
AcDbEntity
  8
DRAFT
100
AcDbLine
 62
7
  6
CONTINUOUS
 10
47.9580182753
 20
-22.0236115728
 11
48.9791505667
 21
-21.75
  0
LINE
  5
2E9
100
AcDbEntity
  8
DRAFT
100
AcDbLine
 62
7
  6
CONTINUOUS
 10
47.7918115166
 20
-21.8855994165
 11
49.1665423948
 21
-21.5172413879
  0
LINE
  5
2EA
100
AcDbEntity
  8
DRAFT
100
AcDbLine
 62
7
  6
CONTINUOUS
 10
44.968482332
 20
-21.7732026444
 11
45.9880884817
 21
-21.5
  0
LINE
  5
2EB
100
AcDbEntity
  8
DRAFT
100
AcDbLine
 62
7
  6
CONTINUOUS
 10
44.8354381706
 20
-21.6628140215
 11
46.13642137
 21
-21.3142166239
  0
LINE
  5
2EC
100
AcDbEntity
  8
RACCORDO
100
AcDbLine
 62
253
  6
CONTINUOUS
 10
-70.9300536657
 20
-34.733093534
 11
-70.490305919
 21
-34.733093534
  0
LINE
  5
2ED
100
AcDbEntity
  8
RACCORDO
100
AcDbLine
 62
253
  6
CONTINUOUS
 10
70.490305919
 20
-34.733093534
 11
70.9300536657
 21
-34.733093534
  0
LINE
  5
2EE
100
AcDbEntity
  8
RACCORDO
100
AcDbLine
 62
253
  6
CONTINUOUS
 10
82.4474824772
 20
-31.0
 11
83.5
 21
-31.0
  0
LINE
  5
2EF
100
AcDbEntity
  8
RACCORDO
100
AcDbLine
 62
253
  6
CONTINUOUS
 10
-82.4474824772
 20
-31.0
 11
-83.5
 21
-31.0
  0
LINE
  5
2F0
100
AcDbEntity
  8
DRAFT
100
AcDbLine
 62
7
  6
CONTINUOUS
 10
-51.969669092
 20
-22.0
 11
-50.9475645295
 21
-22.2738720921
  0
LINE
  5
2F1
100
AcDbEntity
  8
DRAFT
100
AcDbLine
 62
7
  6
CONTINUOUS
 10
-52.1586881563
 20
-21.7668053713
 11
-50.7815207427
 21
-22.1358162676
  0
LINE
  5
2F2
100
AcDbEntity
  8
DRAFT
100
AcDbLine
 62
7
  6
CONTINUOUS
 10
-48.9791505667
 20
-21.75
 11
-47.9580182753
 21
-22.0236115728
  0
LINE
  5
2F3
100
AcDbEntity
  8
DRAFT
100
AcDbLine
 62
7
  6
CONTINUOUS
 10
-49.1665423948
 20
-21.5172413879
 11
-47.7918115166
 21
-21.8855994165
  0
LINE
  5
2F4
100
AcDbEntity
  8
DRAFT
100
AcDbLine
 62
7
  6
CONTINUOUS
 10
-45.9880884817
 20
-21.5
 11
-44.968482332
 21
-21.7732026444
  0
LINE
  5
2F5
100
AcDbEntity
  8
DRAFT
100
AcDbLine
 62
7
  6
CONTINUOUS
 10
-46.13642137
 20
-21.3142166239
 11
-44.8354381706
 21
-21.6628140215
  0
LINE
  5
2F6
100
AcDbEntity
  8
RACCORDO
100
AcDbLine
 62
7
  6
CONTINUOUS
 10
-73.9295967511
 20
33.3287597117
 11
-74.8207189611
 21
34.2198819217
  0
LINE
  5
2F7
100
AcDbEntity
  8
DRAFT
100
AcDbLine
 62
7
  6
CONTINUOUS
 10
-34.3641837324
 20
-5.7184792573
 11
-34.7331946287
 21
-4.3413118437
  0
LINE
  5
2F8
100
AcDbEntity
  8
DRAFT
100
AcDbLine
 62
7
  6
CONTINUOUS
 10
-34.2261279079
 20
-5.5524354705
 11
-34.5
 21
-4.530330908
  0
LINE
  5
2F9
100
AcDbEntity
  8
DRAFT
100
AcDbLine
 62
7
  6
CONTINUOUS
 10
-36.7738720921
 20
5.5524354705
 11
-36.5
 21
4.530330908
  0
LINE
  5
2FA
100
AcDbEntity
  8
DRAFT
100
AcDbLine
 62
7
  6
CONTINUOUS
 10
-36.6358162676
 20
5.7184792573
 11
-36.2668053713
 21
4.3413118437
  0
LINE
  5
2FB
100
AcDbEntity
  8
DRAFT
100
AcDbLine
 62
7
  6
CONTINUOUS
 10
-36.5236115728
 20
8.5419817247
 11
-36.25
 21
7.5208494333
  0
LINE
  5
2FC
100
AcDbEntity
  8
DRAFT
100
AcDbLine
 62
7
  6
CONTINUOUS
 10
-36.3855994165
 20
8.7081884834
 11
-36.0172413879
 21
7.3334576052
  0
LINE
  5
2FD
100
AcDbEntity
  8
DRAFT
100
AcDbLine
 62
7
  6
CONTINUOUS
 10
-36.2732026444
 20
11.531517668
 11
-36.0
 21
10.5119115183
  0
LINE
  5
2FE
100
AcDbEntity
  8
DRAFT
100
AcDbLine
 62
7
  6
CONTINUOUS
 10
-36.1628140215
 20
11.6645618294
 11
-35.8142166239
 21
10.36357863
  0
LINE
  5
2FF
100
AcDbEntity
  8
SMUSSO
100
AcDbLine
 62
7
  6
CONTINUOUS
 10
-40.4287187079
 20
44.8207189611
 11
-40.2947645167
 21
44.3119927579
  0
LINE
  5
300
100
AcDbEntity
  8
RACCORDO
100
AcDbLine
 62
7
  6
CONTINUOUS
 10
-13.008575216
 20
51.3121420732
 11
-13.1047303896
 21
50.8301909799
  0
LINE
  5
301
100
AcDbEntity
  8
DRAFT
100
AcDbLine
 62
7
  6
CONTINUOUS
 10
-13.4047303896
 20
46.2448770389
 11
-13.3
 21
46.7698090201
  0
LINE
  5
302
100
AcDbEntity
  8
DRAFT
100
AcDbLine
 62
7
  6
CONTINUOUS
 10
-35.1857833761
 20
-31.63642137
 11
-34.8371859785
 21
-30.3354381706
  0
LINE
  5
303
100
AcDbEntity
  8
DRAFT
100
AcDbLine
 62
7
  6
CONTINUOUS
 10
-35.0
 20
-31.4880884817
 11
-34.7267973556
 21
-30.468482332
  0
LINE
  5
304
100
AcDbEntity
  8
DRAFT
100
AcDbLine
 62
7
  6
CONTINUOUS
 10
-34.9827586121
 20
-34.6665423948
 11
-34.6144005835
 21
-33.2918115166
  0
LINE
  5
305
100
AcDbEntity
  8
DRAFT
100
AcDbLine
 62
7
  6
CONTINUOUS
 10
-34.75
 20
-34.4791505667
 11
-34.4763884272
 21
-33.4580182753
  0
LINE
  5
306
100
AcDbEntity
  8
DRAFT
100
AcDbLine
 62
7
  6
CONTINUOUS
 10
-34.7331946287
 20
-37.6586881563
 11
-34.3641837324
 21
-36.2815207427
  0
LINE
  5
307
100
AcDbEntity
  8
DRAFT
100
AcDbLine
 62
7
  6
CONTINUOUS
 10
-34.5
 20
-37.469669092
 11
-34.2261279079
 21
-36.4475645295
  0
LINE
  5
308
100
AcDbEntity
  8
DRAFT
100
AcDbLine
 62
7
  6
CONTINUOUS
 10
-10.7288869297
 20
46.2448770389
 11
-8.8689095242
 21
51.3551229611
  0
LINE
  5
309
100
AcDbEntity
  8
DRAFT
100
AcDbLine
 62
7
  6
CONTINUOUS
 10
-8.270223243
 20
53.0
 11
-8.0882381259
 21
53.5
  0
LINE
  5
30A
100
AcDbEntity
  8
DRAFT
100
AcDbLine
 62
7
  6
CONTINUOUS
 10
13.5496074285
 20
51.5
 11
13.4047303896
 21
51.3551229611
  0
LINE
  5
30B
100
AcDbEntity
  8
DRAFT
100
AcDbLine
 62
7
  6
CONTINUOUS
 10
-72.0944134985
 20
-39.4800648638
 11
-72.6851590653
 21
-40.0708104306
  0
LINE
  5
30C
100
AcDbEntity
  8
DRAFT
100
AcDbLine
 62
7
  6
CONTINUOUS
 10
-71.4649891043
 20
-39.4800648638
 11
-72.9999192018
 21
-41.0149949613
  0
LINE
  5
30D
100
AcDbEntity
  8
RACCORDO
100
AcDbLine
 62
253
  6
CONTINUOUS
 10
-68.3978211958
 20
-36.8255782573
 11
-68.7513611241
 21
-37.1791181856
  0
LINE
  5
30E
100
AcDbEntity
  8
RACCORDO
100
AcDbLine
 62
253
  6
CONTINUOUS
 10
-67.3255782573
 20
-37.8978211958
 11
-67.6791181856
 21
-38.2513611241
  0
LINE
  5
30F
100
AcDbEntity
  8
DRAFT
100
AcDbLine
 62
7
  6
CONTINUOUS
 10
-71.5149949613
 20
-42.4999192018
 11
-69.9800648638
 21
-40.9649891043
  0
LINE
  5
310
100
AcDbEntity
  8
DRAFT
100
AcDbLine
 62
7
  6
CONTINUOUS
 10
26.1645618294
 20
-20.3371859785
 11
24.86357863
 21
-20.6857833761
  0
LINE
  5
311
100
AcDbEntity
  8
DRAFT
100
AcDbLine
 62
7
  6
CONTINUOUS
 10
26.031517668
 20
-20.2267973556
 11
25.0119115183
 21
-20.5
  0
LINE
  5
312
100
AcDbEntity
  8
DRAFT
100
AcDbLine
 62
7
  6
CONTINUOUS
 10
23.2081884834
 20
-20.1144005835
 11
21.8334576052
 21
-20.4827586121
  0
LINE
  5
313
100
AcDbEntity
  8
DRAFT
100
AcDbLine
 62
7
  6
CONTINUOUS
 10
23.0419817247
 20
-19.9763884272
 11
22.0208494333
 21
-20.25
  0
LINE
  5
314
100
AcDbEntity
  8
DRAFT
100
AcDbLine
 62
7
  6
CONTINUOUS
 10
20.2184792573
 20
-19.8641837324
 11
18.8413118437
 21
-20.2331946287
  0
LINE
  5
315
100
AcDbEntity
  8
DRAFT
100
AcDbLine
 62
7
  6
CONTINUOUS
 10
20.0524354705
 20
-19.7261279079
 11
19.030330908
 21
-20.0
  0
LINE
  5
316
100
AcDbEntity
  8
DRAFT
100
AcDbLine
 62
7
  6
CONTINUOUS
 10
3.5
 20
-23.45
 11
1.0
 21
-23.45
  0
LINE
  5
317
100
AcDbEntity
  8
DRAFT
100
AcDbLine
 62
7
  6
CONTINUOUS
 10
-1.0
 20
-23.45
 11
-3.5
 21
-23.45
  0
LINE
  5
318
100
AcDbEntity
  8
DRAFT
100
AcDbLine
 62
7
  6
CONTINUOUS
 10
-2.7063623377
 20
-23.3836707533
 11
-1.0436376623
 21
-23.3836707533
  0
LINE
  5
319
100
AcDbEntity
  8
DRAFT
100
AcDbLine
 62
7
  6
CONTINUOUS
 10
2.7063623377
 20
-23.3836707533
 11
1.0436376623
 21
-23.3836707533
  0
LINE
  5
31A
100
AcDbEntity
  8
DRAFT
100
AcDbLine
 62
7
  6
CONTINUOUS
 10
-24.86357863
 20
-20.6857833761
 11
-26.1645618294
 21
-20.3371859785
  0
LINE
  5
31B
100
AcDbEntity
  8
DRAFT
100
AcDbLine
 62
7
  6
CONTINUOUS
 10
-25.0119115183
 20
-20.5
 11
-26.031517668
 21
-20.2267973556
  0
LINE
  5
31C
100
AcDbEntity
  8
DRAFT
100
AcDbLine
 62
7
  6
CONTINUOUS
 10
-21.8334576052
 20
-20.4827586121
 11
-23.2081884834
 21
-20.1144005835
  0
LINE
  5
31D
100
AcDbEntity
  8
DRAFT
100
AcDbLine
 62
7
  6
CONTINUOUS
 10
-22.0208494333
 20
-20.25
 11
-23.0419817247
 21
-19.9763884272
  0
LINE
  5
31E
100
AcDbEntity
  8
DRAFT
100
AcDbLine
 62
7
  6
CONTINUOUS
 10
-18.8413118437
 20
-20.2331946287
 11
-20.2184792573
 21
-19.8641837324
  0
LINE
  5
31F
100
AcDbEntity
  8
DRAFT
100
AcDbLine
 62
7
  6
CONTINUOUS
 10
-19.030330908
 20
-20.0
 11
-20.0524354705
 21
-19.7261279079
  0
LINE
  5
320
100
AcDbEntity
  8
DRAFT
100
AcDbLine
 62
7
  6
CONTINUOUS
 10
13.4047303896
 20
-51.3551229611
 11
13.5496074285
 21
-51.5
  0
LINE
  5
321
100
AcDbEntity
  8
DRAFT
100
AcDbLine
 62
7
  6
CONTINUOUS
 10
-72.6851590653
 20
40.0708104306
 11
-72.0944134985
 21
39.4800648638
  0
LINE
  5
322
100
AcDbEntity
  8
DRAFT
100
AcDbLine
 62
7
  6
CONTINUOUS
 10
-72.9999192018
 20
41.0149949613
 11
-71.4649891043
 21
39.4800648638
  0
LINE
  5
323
100
AcDbEntity
  8
RACCORDO
100
AcDbLine
 62
253
  6
CONTINUOUS
 10
-68.3978211958
 20
36.8255782573
 11
-68.7513611241
 21
37.1791181856
  0
LINE
  5
324
100
AcDbEntity
  8
RACCORDO
100
AcDbLine
 62
253
  6
CONTINUOUS
 10
-67.3255782573
 20
37.8978211958
 11
-67.6791181856
 21
38.2513611241
  0
LINE
  5
325
100
AcDbEntity
  8
DRAFT
100
AcDbLine
 62
7
  6
CONTINUOUS
 10
-69.9800648638
 20
40.9649891043
 11
-71.5149949613
 21
42.4999192018
  0
LINE
  5
326
100
AcDbEntity
  8
DRAFT
100
AcDbLine
 62
7
  6
CONTINUOUS
 10
-10.7288869297
 20
-46.2448770389
 11
-8.8689095242
 21
-51.3551229611
  0
LINE
  5
327
100
AcDbEntity
  8
DRAFT
100
AcDbLine
 62
7
  6
CONTINUOUS
 10
-8.270223243
 20
-53.0
 11
-8.0882381259
 21
-53.5
  0
LINE
  5
328
100
AcDbEntity
  8
DRAFT
100
AcDbLine
 62
7
  6
CONTINUOUS
 10
-34.8371859785
 20
30.3354381706
 11
-35.1857833761
 21
31.63642137
  0
LINE
  5
329
100
AcDbEntity
  8
DRAFT
100
AcDbLine
 62
7
  6
CONTINUOUS
 10
-34.7267973556
 20
30.468482332
 11
-35.0
 21
31.4880884817
  0
LINE
  5
32A
100
AcDbEntity
  8
DRAFT
100
AcDbLine
 62
7
  6
CONTINUOUS
 10
-34.6144005835
 20
33.2918115166
 11
-34.9827586121
 21
34.6665423948
  0
LINE
  5
32B
100
AcDbEntity
  8
DRAFT
100
AcDbLine
 62
7
  6
CONTINUOUS
 10
-34.4763884272
 20
33.4580182753
 11
-34.75
 21
34.4791505667
  0
LINE
  5
32C
100
AcDbEntity
  8
DRAFT
100
AcDbLine
 62
7
  6
CONTINUOUS
 10
-34.3641837324
 20
36.2815207427
 11
-34.7331946287
 21
37.6586881563
  0
LINE
  5
32D
100
AcDbEntity
  8
DRAFT
100
AcDbLine
 62
7
  6
CONTINUOUS
 10
-34.2261279079
 20
36.4475645295
 11
-34.5
 21
37.469669092
  0
LINE
  5
32E
100
AcDbEntity
  8
RACCORDO
100
AcDbLine
 62
7
  6
CONTINUOUS
 10
-13.1047303896
 20
-50.8301909799
 11
-13.008575216
 21
-51.3121420732
  0
LINE
  5
32F
100
AcDbEntity
  8
DRAFT
100
AcDbLine
 62
7
  6
CONTINUOUS
 10
-13.3
 20
-46.7698090201
 11
-13.4047303896
 21
-46.2448770389
  0
LINE
  5
330
100
AcDbEntity
  8
DRAFT
100
AcDbLine
 62
7
  6
CONTINUOUS
 10
-13.5496074285
 20
-51.5
 11
-13.5496074285
 21
-46.1
  0
LINE
  5
331
100
AcDbEntity
  8
DRAFT
100
AcDbLine
 62
7
  6
CONTINUOUS
 10
-13.5496074285
 20
46.1
 11
-13.5496074285
 21
51.5
  0
LINE
  5
332
100
AcDbEntity
  8
DRAFT
100
AcDbLine
 62
7
  6
CONTINUOUS
 10
-1.0113457922
 20
23.4273084156
 11
-1.0436376623
 21
23.3836707533
  0
LINE
  5
333
100
AcDbEntity
  8
DRAFT
100
AcDbLine
 62
7
  6
CONTINUOUS
 10
-70.5708104306
 20
-42.1851590653
 11
-69.9800648638
 21
-41.5944134985
  0
LINE
  5
334
100
AcDbEntity
  8
DRAFT
100
AcDbLine
 62
7
  6
CONTINUOUS
 10
-1.0226881286
 20
23.4273084156
 11
-1.0
 21
23.45
  0
LINE
  5
335
100
AcDbEntity
  8
RACCORDO
100
AcDbLine
 62
7
  6
CONTINUOUS
 10
21.8287597117
 20
43.4295967511
 11
22.6662281698
 21
44.2670652092
  0
LINE
  5
336
100
AcDbEntity
  8
DRAFT
100
AcDbLine
 62
7
  6
CONTINUOUS
 10
2.75
 20
23.4273084156
 11
2.7063623377
 21
23.3836707533
  0
LINE
  5
337
100
AcDbEntity
  8
RACCORDO
100
AcDbLine
 62
7
  6
CONTINUOUS
 10
-63.8287597117
 20
-43.4295967511
 11
-64.7198819217
 21
-44.3207189611
  0
LINE
  5
338
100
AcDbEntity
  8
DRAFT
100
AcDbLine
 62
7
  6
CONTINUOUS
 10
3.4773084156
 20
23.4273084156
 11
3.5
 21
23.45
  0
LINE
  5
339
100
AcDbEntity
  8
DRAFT
100
AcDbLine
 62
7
  6
CONTINUOUS
 10
-3.4773084156
 20
15.4726915844
 11
-3.5
 21
15.45
  0
LINE
  5
33A
100
AcDbEntity
  8
DRAFT
100
AcDbLine
 62
7
  6
CONTINUOUS
 10
70.5708104306
 20
42.1851590653
 11
71.5149949613
 21
42.4999192018
  0
LINE
  5
33B
100
AcDbEntity
  8
DRAFT
100
AcDbLine
 62
7
  6
CONTINUOUS
 10
-20.0524354705
 20
-22.2738720921
 11
-19.030330908
 21
-22.0
  0
LINE
  5
33C
100
AcDbEntity
  8
DRAFT
100
AcDbLine
 62
7
  6
CONTINUOUS
 10
-20.2184792573
 20
-22.1358162676
 11
-18.8413118437
 21
-21.7668053713
  0
LINE
  5
33D
100
AcDbEntity
  8
DRAFT
100
AcDbLine
 62
7
  6
CONTINUOUS
 10
-23.0419817247
 20
-22.0236115728
 11
-22.0208494333
 21
-21.75
  0
LINE
  5
33E
100
AcDbEntity
  8
DRAFT
100
AcDbLine
 62
7
  6
CONTINUOUS
 10
-23.2081884834
 20
-21.8855994165
 11
-21.8334576052
 21
-21.5172413879
  0
LINE
  5
33F
100
AcDbEntity
  8
DRAFT
100
AcDbLine
 62
7
  6
CONTINUOUS
 10
-26.031517668
 20
-21.7732026444
 11
-25.0119115183
 21
-21.5
  0
LINE
  5
340
100
AcDbEntity
  8
DRAFT
100
AcDbLine
 62
7
  6
CONTINUOUS
 10
-26.1645618294
 20
-21.6628140215
 11
-24.86357863
 21
-21.3142166239
  0
LINE
  5
341
100
AcDbEntity
  8
DRAFT
100
AcDbLine
 62
7
  6
CONTINUOUS
 10
-2.7063623377
 20
-15.5163292467
 11
-1.0436376623
 21
-15.5163292467
  0
LINE
  5
342
100
AcDbEntity
  8
DRAFT
100
AcDbLine
 62
7
  6
CONTINUOUS
 10
1.0436376623
 20
-15.5163292467
 11
2.7063623377
 21
-15.5163292467
  0
LINE
  5
343
100
AcDbEntity
  8
DRAFT
100
AcDbLine
 62
7
  6
CONTINUOUS
 10
-3.5
 20
-15.45
 11
-1.0
 21
-15.45
  0
LINE
  5
344
100
AcDbEntity
  8
DRAFT
100
AcDbLine
 62
7
  6
CONTINUOUS
 10
1.0
 20
-15.45
 11
3.5
 21
-15.45
  0
LINE
  5
345
100
AcDbEntity
  8
DRAFT
100
AcDbLine
 62
7
  6
CONTINUOUS
 10
19.030330908
 20
-22.0
 11
20.0524354705
 21
-22.2738720921
  0
LINE
  5
346
100
AcDbEntity
  8
DRAFT
100
AcDbLine
 62
7
  6
CONTINUOUS
 10
18.8413118437
 20
-21.7668053713
 11
20.2184792573
 21
-22.1358162676
  0
LINE
  5
347
100
AcDbEntity
  8
DRAFT
100
AcDbLine
 62
7
  6
CONTINUOUS
 10
22.0208494333
 20
-21.75
 11
23.0419817247
 21
-22.0236115728
  0
LINE
  5
348
100
AcDbEntity
  8
DRAFT
100
AcDbLine
 62
7
  6
CONTINUOUS
 10
21.8334576052
 20
-21.5172413879
 11
23.2081884834
 21
-21.8855994165
  0
LINE
  5
349
100
AcDbEntity
  8
DRAFT
100
AcDbLine
 62
7
  6
CONTINUOUS
 10
25.0119115183
 20
-21.5
 11
26.031517668
 21
-21.7732026444
  0
LINE
  5
34A
100
AcDbEntity
  8
DRAFT
100
AcDbLine
 62
7
  6
CONTINUOUS
 10
24.86357863
 20
-21.3142166239
 11
26.1645618294
 21
-21.6628140215
  0
LINE
  5
34B
100
AcDbEntity
  8
DRAFT
100
AcDbLine
 62
7
  6
CONTINUOUS
 10
70.5708104306
 20
-42.1851590653
 11
71.5149949613
 21
-42.4999192018
  0
LINE
  5
34C
100
AcDbEntity
  8
DRAFT
100
AcDbLine
 62
7
  6
CONTINUOUS
 10
-69.9800648638
 20
41.5944134985
 11
-70.5708104306
 21
42.1851590653
  0
LINE
  5
34D
100
AcDbEntity
  8
RACCORDO
100
AcDbLine
 62
7
  6
CONTINUOUS
 10
21.8287597117
 20
-43.4295967511
 11
22.6662281698
 21
-44.2670652092
  0
LINE
  5
34E
100
AcDbEntity
  8
DRAFT
100
AcDbLine
 62
7
  6
CONTINUOUS
 10
2.75
 20
-23.4273084156
 11
2.7063623377
 21
-23.3836707533
  0
LINE
  5
34F
100
AcDbEntity
  8
RACCORDO
100
AcDbLine
 62
7
  6
CONTINUOUS
 10
-63.8287597117
 20
43.4295967511
 11
-64.7198819217
 21
44.3207189611
  0
LINE
  5
350
100
AcDbEntity
  8
DRAFT
100
AcDbLine
 62
7
  6
CONTINUOUS
 10
3.4773084156
 20
-23.4273084156
 11
3.5
 21
-23.45
  0
LINE
  5
351
100
AcDbEntity
  8
DRAFT
100
AcDbLine
 62
7
  6
CONTINUOUS
 10
-3.4773084156
 20
-15.4726915844
 11
-3.5
 21
-15.45
  0
LINE
  5
352
100
AcDbEntity
  8
DRAFT
100
AcDbLine
 62
7
  6
CONTINUOUS
 10
-1.011343489
 20
-23.4273107188
 11
-1.0436376623
 21
-23.3836707533
  0
LINE
  5
353
100
AcDbEntity
  8
DRAFT
100
AcDbLine
 62
7
  6
CONTINUOUS
 10
-13.3
 20
-50.8301909799
 11
-13.3
 21
-46.7698090201
  0
LINE
  5
354
100
AcDbEntity
  8
DRAFT
100
AcDbLine
 62
7
  6
CONTINUOUS
 10
-13.3
 20
46.7698090201
 11
-13.3
 21
50.8301909799
  0
LINE
  5
355
100
AcDbEntity
  8
DRAFT
100
AcDbLine
 62
7
  6
CONTINUOUS
 10
-12.8547303896
 20
46.8745394096
 11
-12.8547303896
 21
46.7698090201
  0
LINE
  5
356
100
AcDbEntity
  8
DRAFT
100
AcDbLine
 62
7
  6
CONTINUOUS
 10
-12.8547303896
 20
-46.7698090201
 11
-12.8547303896
 21
-46.8745394096
  0
LINE
  5
357
100
AcDbEntity
  8
SMUSSO
100
AcDbLine
 62
7
  6
CONTINUOUS
 10
-1.7052354833
 20
44.3119927579
 11
-1.5712812921
 21
44.8207189611
  0
LINE
  5
358
100
AcDbEntity
  8
DRAFT
100
AcDbLine
 62
7
  6
CONTINUOUS
 10
-2.75
 20
15.4726915844
 11
-2.7063623377
 21
15.5163292467
  0
LINE
  5
359
100
AcDbEntity
  8
DRAFT
100
AcDbLine
 62
7
  6
CONTINUOUS
 10
1.0113377392
 20
15.484026766
 11
1.0436376623
 21
15.5163292467
  0
LINE
  5
35A
100
AcDbEntity
  8
DRAFT
100
AcDbLine
 62
7
  6
CONTINUOUS
 10
1.0226800674
 20
15.4726835232
 11
1.0
 21
15.45
  0
LINE
  5
35B
100
AcDbEntity
  8
RACCORDO
100
AcDbLine
 62
7
  6
CONTINUOUS
 10
66.2
 20
40.3908116908
 11
65.7330744955
 21
40.1974048142
  0
LINE
  5
35C
100
AcDbEntity
  8
DRAFT
100
AcDbLine
 62
7
  6
CONTINUOUS
 10
74.8207189611
 20
39.194195202
 11
73.9305106498
 21
38.8254588461
  0
LINE
  5
35D
100
AcDbEntity
  8
DRAFT
100
AcDbLine
 62
7
  6
CONTINUOUS
 10
72.65
 20
38.2950539682
 11
73.0950702573
 21
38.479408105
  0
LINE
  5
35E
100
AcDbEntity
  8
DRAFT
100
AcDbLine
 62
7
  6
CONTINUOUS
 10
-44.8354381706
 20
-20.3371859785
 11
-46.13642137
 21
-20.6857833761
  0
LINE
  5
35F
100
AcDbEntity
  8
DRAFT
100
AcDbLine
 62
7
  6
CONTINUOUS
 10
-44.968482332
 20
-20.2267973556
 11
-45.9880884817
 21
-20.5
  0
LINE
  5
360
100
AcDbEntity
  8
DRAFT
100
AcDbLine
 62
7
  6
CONTINUOUS
 10
-47.7918115166
 20
-20.1144005835
 11
-49.1665423948
 21
-20.4827586121
  0
LINE
  5
361
100
AcDbEntity
  8
DRAFT
100
AcDbLine
 62
7
  6
CONTINUOUS
 10
-47.9580182753
 20
-19.9763884272
 11
-48.9791505667
 21
-20.25
  0
LINE
  5
362
100
AcDbEntity
  8
DRAFT
100
AcDbLine
 62
7
  6
CONTINUOUS
 10
46.13642137
 20
-20.6857833761
 11
44.8354381706
 21
-20.3371859785
  0
LINE
  5
363
100
AcDbEntity
  8
DRAFT
100
AcDbLine
 62
7
  6
CONTINUOUS
 10
45.9880884817
 20
-20.5
 11
44.968482332
 21
-20.2267973556
  0
LINE
  5
364
100
AcDbEntity
  8
DRAFT
100
AcDbLine
 62
7
  6
CONTINUOUS
 10
49.1665423948
 20
-20.4827586121
 11
47.7918115166
 21
-20.1144005835
  0
LINE
  5
365
100
AcDbEntity
  8
DRAFT
100
AcDbLine
 62
7
  6
CONTINUOUS
 10
48.9791505667
 20
-20.25
 11
47.9580182753
 21
-19.9763884272
  0
LINE
  5
366
100
AcDbEntity
  8
RACCORDO
100
AcDbLine
 62
7
  6
CONTINUOUS
 10
66.2
 20
-40.3908116908
 11
65.7330744955
 21
-40.1974048142
  0
LINE
  5
367
100
AcDbEntity
  8
DRAFT
100
AcDbLine
 62
7
  6
CONTINUOUS
 10
74.8207189611
 20
-39.194195202
 11
73.9305106498
 21
-38.8254588461
  0
LINE
  5
368
100
AcDbEntity
  8
DRAFT
100
AcDbLine
 62
7
  6
CONTINUOUS
 10
72.65
 20
-38.2950539682
 11
73.0950702573
 21
-38.479408105
  0
LINE
  5
369
100
AcDbEntity
  8
DRAFT
100
AcDbLine
 62
7
  6
CONTINUOUS
 10
-2.75
 20
-15.4726915844
 11
-2.7063623377
 21
-15.5163292467
  0
LINE
  5
36A
100
AcDbEntity
  8
DRAFT
100
AcDbLine
 62
7
  6
CONTINUOUS
 10
1.0113377425
 20
-15.4840267692
 11
1.0436376623
 21
-15.5163292467
  0
LINE
  5
36B
100
AcDbEntity
  8
DRAFT
100
AcDbLine
 62
7
  6
CONTINUOUS
 10
-1.011343489
 20
-23.4273107188
 11
-1.0
 21
-23.45
  0
LINE
  5
36C
100
AcDbEntity
  8
SMUSSO
100
AcDbLine
 62
7
  6
CONTINUOUS
 10
-1.5712812921
 20
-44.8207189611
 11
-1.7052354833
 21
-44.3119927579
  0
LINE
  5
36D
100
AcDbEntity
  8
DRAFT
100
AcDbLine
 62
7
  6
CONTINUOUS
 10
-3.5
 20
-23.45
 11
-3.5
 21
-15.45
  0
LINE
  5
36E
100
AcDbEntity
  8
DRAFT
100
AcDbLine
 62
7
  6
CONTINUOUS
 10
-3.5
 20
15.45
 11
-3.5
 21
23.45
  0
LINE
  5
36F
100
AcDbEntity
  8
DRAFT
100
AcDbLine
 62
7
  6
CONTINUOUS
 10
-2.7063623377
 20
-15.5163292467
 11
-2.7063623377
 21
-23.3836707533
  0
LINE
  5
370
100
AcDbEntity
  8
DRAFT
100
AcDbLine
 62
7
  6
CONTINUOUS
 10
-2.7063623377
 20
15.5163292467
 11
-2.7063623377
 21
23.3836707533
  0
LINE
  5
371
100
AcDbEntity
  8
DRAFT
100
AcDbLine
 62
7
  6
CONTINUOUS
 10
-1.0436376623
 20
-23.3836707533
 11
-1.0436376623
 21
-15.5163292467
  0
LINE
  5
372
100
AcDbEntity
  8
DRAFT
100
AcDbLine
 62
7
  6
CONTINUOUS
 10
-1.0436376623
 20
15.5163292467
 11
-1.0436376623
 21
23.3836707533
  0
LINE
  5
373
100
AcDbEntity
  8
DRAFT
100
AcDbLine
 62
7
  6
CONTINUOUS
 10
-1.0
 20
23.45
 11
-1.0
 21
15.45
  0
LINE
  5
374
100
AcDbEntity
  8
DRAFT
100
AcDbLine
 62
7
  6
CONTINUOUS
 10
-1.0
 20
-15.45
 11
-1.0
 21
-23.45
  0
LINE
  5
375
100
AcDbEntity
  8
RACCORDO
100
AcDbLine
 62
7
  6
CONTINUOUS
 10
-12.758575216
 20
-46.2878579268
 11
-12.8547303896
 21
-46.7698090201
  0
LINE
  5
376
100
AcDbEntity
  8
DRAFT
100
AcDbLine
 62
7
  6
CONTINUOUS
 10
-13.4047303896
 20
-51.3551229611
 11
-13.3
 21
-50.8301909799
  0
LINE
  5
377
100
AcDbEntity
  8
RACCORDO
100
AcDbLine
 62
253
  6
CONTINUOUS
 10
-73.9305106498
 20
-34.7549868559
 11
-73.9295967511
 21
-34.7545299414
  0
LINE
  5
378
100
AcDbEntity
  8
RACCORDO
100
AcDbLine
 62
253
  6
CONTINUOUS
 10
-73.4305106469
 20
-35.2549297427
 11
-73.4296729036
 21
-35.2545109029
  0
LINE
  5
379
100
AcDbEntity
  8
DRAFT
100
AcDbLine
 62
7
  6
CONTINUOUS
 10
-50.7815207427
 20
-19.8641837324
 11
-52.1586881563
 21
-20.2331946287
  0
LINE
  5
37A
100
AcDbEntity
  8
DRAFT
100
AcDbLine
 62
7
  6
CONTINUOUS
 10
-50.9475645295
 20
-19.7261279079
 11
-51.969669092
 21
-20.0
  0
LINE
  5
37B
100
AcDbEntity
  8
SMUSSO
100
AcDbLine
 62
7
  6
CONTINUOUS
 10
75.3207189611
 20
14.6787187079
 11
74.8119927579
 21
14.5447645167
  0
LINE
  5
37C
100
AcDbEntity
  8
SMUSSO
100
AcDbLine
 62
7
  6
CONTINUOUS
 10
-74.8119927579
 20
14.5447645167
 11
-75.3207189611
 21
14.6787187079
  0
LINE
  5
37D
100
AcDbEntity
  8
DRAFT
100
AcDbLine
 62
7
  6
CONTINUOUS
 10
52.1586881563
 20
-20.2331946287
 11
50.7815207427
 21
-19.8641837324
  0
LINE
  5
37E
100
AcDbEntity
  8
DRAFT
100
AcDbLine
 62
7
  6
CONTINUOUS
 10
51.969669092
 20
-20.0
 11
50.9475645295
 21
-19.7261279079
  0
LINE
  5
37F
100
AcDbEntity
  8
RACCORDO
100
AcDbLine
 62
253
  6
CONTINUOUS
 10
-73.9295967511
 20
34.7545299414
 11
-73.9305106498
 21
34.7549868559
  0
LINE
  5
380
100
AcDbEntity
  8
RACCORDO
100
AcDbLine
 62
253
  6
CONTINUOUS
 10
-73.4296729036
 20
35.2545109029
 11
-73.4305106469
 21
35.2549297427
  0
LINE
  5
381
100
AcDbEntity
  8
DRAFT
100
AcDbLine
 62
7
  6
CONTINUOUS
 10
1.011337731
 20
-15.4726835232
 11
1.0
 21
-15.45
  0
LINE
  5
382
100
AcDbEntity
  8
RACCORDO
100
AcDbLine
 62
7
  6
CONTINUOUS
 10
-12.8547303896
 20
46.7698090201
 11
-12.758575216
 21
46.2878579268
  0
LINE
  5
383
100
AcDbEntity
  8
DRAFT
100
AcDbLine
 62
7
  6
CONTINUOUS
 10
-13.3
 20
50.8301909799
 11
-13.4047303896
 21
51.3551229611
  0
LINE
  5
384
100
AcDbEntity
  8
DRAFT
100
AcDbLine
 62
7
  6
CONTINUOUS
 10
1.0
 20
-23.45
 11
1.0
 21
-15.45
  0
LINE
  5
385
100
AcDbEntity
  8
DRAFT
100
AcDbLine
 62
7
  6
CONTINUOUS
 10
1.0
 20
15.45
 11
1.0
 21
23.45
  0
LINE
  5
386
100
AcDbEntity
  8
DRAFT
100
AcDbLine
 62
7
  6
CONTINUOUS
 10
1.0436376623
 20
23.3836707533
 11
1.0436376623
 21
15.5163292467
  0
LINE
  5
387
100
AcDbEntity
  8
DRAFT
100
AcDbLine
 62
7
  6
CONTINUOUS
 10
1.0436376623
 20
-15.5163292467
 11
1.0436376623
 21
-23.3836707533
  0
LINE
  5
388
100
AcDbEntity
  8
DRAFT
100
AcDbLine
 62
7
  6
CONTINUOUS
 10
2.7063623377
 20
-15.5163292467
 11
2.7063623377
 21
-23.3836707533
  0
LINE
  5
389
100
AcDbEntity
  8
DRAFT
100
AcDbLine
 62
7
  6
CONTINUOUS
 10
2.7063623377
 20
15.5163292467
 11
2.7063623377
 21
23.3836707533
  0
LINE
  5
38A
100
AcDbEntity
  8
DRAFT
100
AcDbLine
 62
7
  6
CONTINUOUS
 10
3.5
 20
23.45
 11
3.5
 21
15.45
  0
LINE
  5
38B
100
AcDbEntity
  8
DRAFT
100
AcDbLine
 62
7
  6
CONTINUOUS
 10
3.5
 20
-15.45
 11
3.5
 21
-23.45
  0
LINE
  5
38C
100
AcDbEntity
  8
DRAFT
100
AcDbLine
 62
7
  6
CONTINUOUS
 10
13.3
 20
50.8301909799
 11
13.4047303896
 21
51.3551229611
  0
LINE
  5
38D
100
AcDbEntity
  8
RACCORDO
100
AcDbLine
 62
7
  6
CONTINUOUS
 10
12.8547303896
 20
46.7698090201
 11
12.758575216
 21
46.2878579268
  0
LINE
  5
38E
100
AcDbEntity
  8
RACCORDO
100
AcDbLine
 62
253
  6
CONTINUOUS
 10
73.4305106469
 20
35.2549297427
 11
73.4296729036
 21
35.2545109029
  0
LINE
  5
38F
100
AcDbEntity
  8
RACCORDO
100
AcDbLine
 62
253
  6
CONTINUOUS
 10
73.9305106498
 20
34.7549868559
 11
73.9295967511
 21
34.7545299414
  0
LINE
  5
390
100
AcDbEntity
  8
DRAFT
100
AcDbLine
 62
7
  6
CONTINUOUS
 10
-74.8207189611
 20
-39.194195202
 11
-73.9305106498
 21
-38.8254588461
  0
LINE
  5
391
100
AcDbEntity
  8
DRAFT
100
AcDbLine
 62
7
  6
CONTINUOUS
 10
-72.65
 20
-38.2950539682
 11
-73.0950702573
 21
-38.479408105
  0
LINE
  5
392
100
AcDbEntity
  8
DRAFT
100
AcDbLine
 62
7
  6
CONTINUOUS
 10
50.9475645295
 20
19.7261279079
 11
51.969669092
 21
20.0
  0
LINE
  5
393
100
AcDbEntity
  8
DRAFT
100
AcDbLine
 62
7
  6
CONTINUOUS
 10
50.7815207427
 20
19.8641837324
 11
52.1586881563
 21
20.2331946287
  0
LINE
  5
394
100
AcDbEntity
  8
DRAFT
100
AcDbLine
 62
7
  6
CONTINUOUS
 10
47.9580182753
 20
19.9763884272
 11
48.9791505667
 21
20.25
  0
LINE
  5
395
100
AcDbEntity
  8
DRAFT
100
AcDbLine
 62
7
  6
CONTINUOUS
 10
47.7918115166
 20
20.1144005835
 11
49.1665423948
 21
20.4827586121
  0
LINE
  5
396
100
AcDbEntity
  8
DRAFT
100
AcDbLine
 62
7
  6
CONTINUOUS
 10
44.968482332
 20
20.2267973556
 11
45.9880884817
 21
20.5
  0
LINE
  5
397
100
AcDbEntity
  8
DRAFT
100
AcDbLine
 62
7
  6
CONTINUOUS
 10
44.8354381706
 20
20.3371859785
 11
46.13642137
 21
20.6857833761
  0
LINE
  5
398
100
AcDbEntity
  8
SMUSSO
100
AcDbLine
 62
7
  6
CONTINUOUS
 10
-75.3207189611
 20
-14.6787187079
 11
-74.8119927579
 21
-14.5447645167
  0
LINE
  5
399
100
AcDbEntity
  8
SMUSSO
100
AcDbLine
 62
7
  6
CONTINUOUS
 10
74.8119927579
 20
-14.5447645167
 11
75.3207189611
 21
-14.6787187079
  0
LINE
  5
39A
100
AcDbEntity
  8
DRAFT
100
AcDbLine
 62
7
  6
CONTINUOUS
 10
-51.969669092
 20
20.0
 11
-50.9475645295
 21
19.7261279079
  0
LINE
  5
39B
100
AcDbEntity
  8
DRAFT
100
AcDbLine
 62
7
  6
CONTINUOUS
 10
-52.1586881563
 20
20.2331946287
 11
-50.7815207427
 21
19.8641837324
  0
LINE
  5
39C
100
AcDbEntity
  8
DRAFT
100
AcDbLine
 62
7
  6
CONTINUOUS
 10
-48.9791505667
 20
20.25
 11
-47.9580182753
 21
19.9763884272
  0
LINE
  5
39D
100
AcDbEntity
  8
DRAFT
100
AcDbLine
 62
7
  6
CONTINUOUS
 10
-49.1665423948
 20
20.4827586121
 11
-47.7918115166
 21
20.1144005835
  0
LINE
  5
39E
100
AcDbEntity
  8
DRAFT
100
AcDbLine
 62
7
  6
CONTINUOUS
 10
-45.9880884817
 20
20.5
 11
-44.968482332
 21
20.2267973556
  0
LINE
  5
39F
100
AcDbEntity
  8
DRAFT
100
AcDbLine
 62
7
  6
CONTINUOUS
 10
-46.13642137
 20
20.6857833761
 11
-44.8354381706
 21
20.3371859785
  0
LINE
  5
3A0
100
AcDbEntity
  8
DRAFT
100
AcDbLine
 62
7
  6
CONTINUOUS
 10
-74.8207189611
 20
39.194195202
 11
-73.9305106498
 21
38.8254588461
  0
LINE
  5
3A1
100
AcDbEntity
  8
DRAFT
100
AcDbLine
 62
7
  6
CONTINUOUS
 10
-72.65
 20
38.2950539682
 11
-73.0950702573
 21
38.479408105
  0
LINE
  5
3A2
100
AcDbEntity
  8
RACCORDO
100
AcDbLine
 62
253
  6
CONTINUOUS
 10
73.4296729036
 20
-35.2545109029
 11
73.4305106469
 21
-35.2549297427
  0
LINE
  5
3A3
100
AcDbEntity
  8
RACCORDO
100
AcDbLine
 62
253
  6
CONTINUOUS
 10
73.9295967511
 20
-34.7545299414
 11
73.9305106498
 21
-34.7549868559
  0
LINE
  5
3A4
100
AcDbEntity
  8
DRAFT
100
AcDbLine
 62
7
  6
CONTINUOUS
 10
-1.011337731
 20
15.4726835232
 11
-1.0
 21
15.45
  0
LINE
  5
3A5
100
AcDbEntity
  8
DRAFT
100
AcDbLine
 62
7
  6
CONTINUOUS
 10
13.4047303896
 20
-51.3551229611
 11
13.3
 21
-50.8301909799
  0
LINE
  5
3A6
100
AcDbEntity
  8
RACCORDO
100
AcDbLine
 62
7
  6
CONTINUOUS
 10
12.758575216
 20
-46.2878579268
 11
12.8547303896
 21
-46.7698090201
  0
LINE
  5
3A7
100
AcDbEntity
  8
DRAFT
100
AcDbLine
 62
7
  6
CONTINUOUS
 10
12.8547303896
 20
46.8745394096
 11
12.8547303896
 21
46.7698090201
  0
LINE
  5
3A8
100
AcDbEntity
  8
DRAFT
100
AcDbLine
 62
7
  6
CONTINUOUS
 10
12.8547303896
 20
-46.7698090201
 11
12.8547303896
 21
-46.8745394096
  0
LINE
  5
3A9
100
AcDbEntity
  8
DRAFT
100
AcDbLine
 62
7
  6
CONTINUOUS
 10
13.3
 20
-50.8301909799
 11
13.3
 21
-46.7698090201
  0
LINE
  5
3AA
100
AcDbEntity
  8
DRAFT
100
AcDbLine
 62
7
  6
CONTINUOUS
 10
13.3
 20
46.7698090201
 11
13.3
 21
50.8301909799
  0
LINE
  5
3AB
100
AcDbEntity
  8
DRAFT
100
AcDbLine
 62
7
  6
CONTINUOUS
 10
13.5496074285
 20
-51.5
 11
13.5496074285
 21
-46.1
  0
LINE
  5
3AC
100
AcDbEntity
  8
DRAFT
100
AcDbLine
 62
7
  6
CONTINUOUS
 10
13.5496074285
 20
46.1
 11
13.5496074285
 21
51.5
  0
LINE
  5
3AD
100
AcDbEntity
  8
SMUSSO
100
AcDbLine
 62
7
  6
CONTINUOUS
 10
1.7052354833
 20
-44.3119927579
 11
1.5712812921
 21
-44.8207189611
  0
LINE
  5
3AE
100
AcDbEntity
  8
DRAFT
100
AcDbLine
 62
7
  6
CONTINUOUS
 10
1.0436376623
 20
-23.3836707533
 11
1.0113457922
 21
-23.4273084156
  0
LINE
  5
3AF
100
AcDbEntity
  8
DRAFT
100
AcDbLine
 62
7
  6
CONTINUOUS
 10
-1.0226800674
 20
-15.4726835232
 11
-1.0
 21
-15.45
  0
LINE
  5
3B0
100
AcDbEntity
  8
DRAFT
100
AcDbLine
 62
7
  6
CONTINUOUS
 10
-1.0113377392
 20
-15.484026766
 11
-1.0436376623
 21
-15.5163292467
  0
LINE
  5
3B1
100
AcDbEntity
  8
DRAFT
100
AcDbLine
 62
7
  6
CONTINUOUS
 10
2.75
 20
-15.4726915844
 11
2.7063623377
 21
-15.5163292467
  0
LINE
  5
3B2
100
AcDbEntity
  8
DRAFT
100
AcDbLine
 62
7
  6
CONTINUOUS
 10
3.4773084156
 20
-15.4726915844
 11
3.5
 21
-15.45
  0
LINE
  5
3B3
100
AcDbEntity
  8
DRAFT
100
AcDbLine
 62
7
  6
CONTINUOUS
 10
-3.4773084156
 20
-23.4273084156
 11
-3.5
 21
-23.45
  0
LINE
  5
3B4
100
AcDbEntity
  8
RACCORDO
100
AcDbLine
 62
7
  6
CONTINUOUS
 10
63.8287597117
 20
43.4295967511
 11
64.7198819217
 21
44.3207189611
  0
LINE
  5
3B5
100
AcDbEntity
  8
DRAFT
100
AcDbLine
 62
7
  6
CONTINUOUS
 10
-2.75
 20
-23.4273084156
 11
-2.7063623377
 21
-23.3836707533
  0
LINE
  5
3B6
100
AcDbEntity
  8
RACCORDO
100
AcDbLine
 62
7
  6
CONTINUOUS
 10
-66.2
 20
-40.3908116908
 11
-65.7330744955
 21
-40.1974048142
  0
LINE
  5
3B7
100
AcDbEntity
  8
DRAFT
100
AcDbLine
 62
7
  6
CONTINUOUS
 10
26.1645618294
 20
21.6628140215
 11
24.86357863
 21
21.3142166239
  0
LINE
  5
3B8
100
AcDbEntity
  8
DRAFT
100
AcDbLine
 62
7
  6
CONTINUOUS
 10
26.031517668
 20
21.7732026444
 11
25.0119115183
 21
21.5
  0
LINE
  5
3B9
100
AcDbEntity
  8
DRAFT
100
AcDbLine
 62
7
  6
CONTINUOUS
 10
23.2081884834
 20
21.8855994165
 11
21.8334576052
 21
21.5172413879
  0
LINE
  5
3BA
100
AcDbEntity
  8
DRAFT
100
AcDbLine
 62
7
  6
CONTINUOUS
 10
-24.86357863
 20
21.3142166239
 11
-26.1645618294
 21
21.6628140215
  0
LINE
  5
3BB
100
AcDbEntity
  8
DRAFT
100
AcDbLine
 62
7
  6
CONTINUOUS
 10
-25.0119115183
 20
21.5
 11
-26.031517668
 21
21.7732026444
  0
LINE
  5
3BC
100
AcDbEntity
  8
DRAFT
100
AcDbLine
 62
7
  6
CONTINUOUS
 10
-21.8334576052
 20
21.5172413879
 11
-23.2081884834
 21
21.8855994165
  0
LINE
  5
3BD
100
AcDbEntity
  8
RACCORDO
100
AcDbLine
 62
7
  6
CONTINUOUS
 10
-66.2
 20
40.3908116908
 11
-65.7330744955
 21
40.1974048142
  0
LINE
  5
3BE
100
AcDbEntity
  8
DRAFT
100
AcDbLine
 62
7
  6
CONTINUOUS
 10
-1.0113377425
 20
15.4840267692
 11
-1.0436376623
 21
15.5163292467
  0
LINE
  5
3BF
100
AcDbEntity
  8
DRAFT
100
AcDbLine
 62
7
  6
CONTINUOUS
 10
2.75
 20
15.4726915844
 11
2.7063623377
 21
15.5163292467
  0
LINE
  5
3C0
100
AcDbEntity
  8
DRAFT
100
AcDbLine
 62
7
  6
CONTINUOUS
 10
3.4773084156
 20
15.4726915844
 11
3.5
 21
15.45
  0
LINE
  5
3C1
100
AcDbEntity
  8
DRAFT
100
AcDbLine
 62
7
  6
CONTINUOUS
 10
-3.4773084156
 20
23.4273084156
 11
-3.5
 21
23.45
  0
LINE
  5
3C2
100
AcDbEntity
  8
RACCORDO
100
AcDbLine
 62
7
  6
CONTINUOUS
 10
63.8287597117
 20
-43.4295967511
 11
64.7198819217
 21
-44.3207189611
  0
LINE
  5
3C3
100
AcDbEntity
  8
DRAFT
100
AcDbLine
 62
7
  6
CONTINUOUS
 10
-2.75
 20
23.4273084156
 11
-2.7063623377
 21
23.3836707533
  0
LINE
  5
3C4
100
AcDbEntity
  8
DRAFT
100
AcDbLine
 62
7
  6
CONTINUOUS
 10
1.0436376623
 20
23.3836707533
 11
1.011343489
 21
23.4273107188
  0
LINE
  5
3C5
100
AcDbEntity
  8
DRAFT
100
AcDbLine
 62
7
  6
CONTINUOUS
 10
1.011343489
 20
23.4273107188
 11
1.0
 21
23.45
  0
LINE
  5
3C6
100
AcDbEntity
  8
SMUSSO
100
AcDbLine
 62
7
  6
CONTINUOUS
 10
1.5712812921
 20
44.8207189611
 11
1.7052354833
 21
44.3119927579
  0
LINE
  5
3C7
100
AcDbEntity
  8
DRAFT
100
AcDbLine
 62
7
  6
CONTINUOUS
 10
13.3
 20
-46.7698090201
 11
13.4047303896
 21
-46.2448770389
  0
LINE
  5
3C8
100
AcDbEntity
  8
RACCORDO
100
AcDbLine
 62
7
  6
CONTINUOUS
 10
-21.8287597117
 20
-43.4295967511
 11
-22.6662281698
 21
-44.2670652092
  0
LINE
  5
3C9
100
AcDbEntity
  8
DRAFT
100
AcDbLine
 62
7
  6
CONTINUOUS
 10
1.0226881286
 20
-23.4273084156
 11
1.0
 21
-23.45
  0
LINE
  5
3CA
100
AcDbEntity
  8
DRAFT
100
AcDbLine
 62
7
  6
CONTINUOUS
 10
70.5708104306
 20
42.1851590653
 11
69.9800648638
 21
41.5944134985
  0
LINE
  5
3CB
100
AcDbEntity
  8
DRAFT
100
AcDbLine
 62
7
  6
CONTINUOUS
 10
71.5149949613
 20
42.4999192018
 11
69.9800648638
 21
40.9649891043
  0
LINE
  5
3CC
100
AcDbEntity
  8
RACCORDO
100
AcDbLine
 62
253
  6
CONTINUOUS
 10
67.3255782573
 20
37.8978211958
 11
67.6791181856
 21
38.2513611241
  0
LINE
  5
3CD
100
AcDbEntity
  8
RACCORDO
100
AcDbLine
 62
253
  6
CONTINUOUS
 10
68.3978211958
 20
36.8255782573
 11
68.7513611241
 21
37.1791181856
  0
LINE
  5
3CE
100
AcDbEntity
  8
DRAFT
100
AcDbLine
 62
7
  6
CONTINUOUS
 10
-70.5708104306
 20
-42.1851590653
 11
-71.5149949613
 21
-42.4999192018
  0
LINE
  5
3CF
100
AcDbEntity
  8
DRAFT
100
AcDbLine
 62
7
  6
CONTINUOUS
 10
23.0419817247
 20
22.0236115728
 11
22.0208494333
 21
21.75
  0
LINE
  5
3D0
100
AcDbEntity
  8
DRAFT
100
AcDbLine
 62
7
  6
CONTINUOUS
 10
20.2184792573
 20
22.1358162676
 11
18.8413118437
 21
21.7668053713
  0
LINE
  5
3D1
100
AcDbEntity
  8
DRAFT
100
AcDbLine
 62
7
  6
CONTINUOUS
 10
20.0524354705
 20
22.2738720921
 11
19.030330908
 21
22.0
  0
LINE
  5
3D2
100
AcDbEntity
  8
DRAFT
100
AcDbLine
 62
7
  6
CONTINUOUS
 10
3.5
 20
15.45
 11
1.0
 21
15.45
  0
LINE
  5
3D3
100
AcDbEntity
  8
DRAFT
100
AcDbLine
 62
7
  6
CONTINUOUS
 10
-1.0
 20
15.45
 11
-3.5
 21
15.45
  0
LINE
  5
3D4
100
AcDbEntity
  8
DRAFT
100
AcDbLine
 62
7
  6
CONTINUOUS
 10
2.7063623377
 20
15.5163292467
 11
1.0436376623
 21
15.5163292467
  0
LINE
  5
3D5
100
AcDbEntity
  8
DRAFT
100
AcDbLine
 62
7
  6
CONTINUOUS
 10
-1.0436376623
 20
15.5163292467
 11
-2.7063623377
 21
15.5163292467
  0
LINE
  5
3D6
100
AcDbEntity
  8
DRAFT
100
AcDbLine
 62
7
  6
CONTINUOUS
 10
-22.0208494333
 20
21.75
 11
-23.0419817247
 21
22.0236115728
  0
LINE
  5
3D7
100
AcDbEntity
  8
DRAFT
100
AcDbLine
 62
7
  6
CONTINUOUS
 10
-18.8413118437
 20
21.7668053713
 11
-20.2184792573
 21
22.1358162676
  0
LINE
  5
3D8
100
AcDbEntity
  8
DRAFT
100
AcDbLine
 62
7
  6
CONTINUOUS
 10
-19.030330908
 20
22.0
 11
-20.0524354705
 21
22.2738720921
  0
LINE
  5
3D9
100
AcDbEntity
  8
DRAFT
100
AcDbLine
 62
7
  6
CONTINUOUS
 10
-70.5708104306
 20
42.1851590653
 11
-71.5149949613
 21
42.4999192018
  0
LINE
  5
3DA
100
AcDbEntity
  8
RACCORDO
100
AcDbLine
 62
7
  6
CONTINUOUS
 10
-21.8287597117
 20
43.4295967511
 11
-22.6662281698
 21
44.2670652092
  0
LINE
  5
3DB
100
AcDbEntity
  8
DRAFT
100
AcDbLine
 62
7
  6
CONTINUOUS
 10
69.9800648638
 20
-41.5944134985
 11
70.5708104306
 21
-42.1851590653
  0
LINE
  5
3DC
100
AcDbEntity
  8
DRAFT
100
AcDbLine
 62
7
  6
CONTINUOUS
 10
69.9800648638
 20
-40.9649891043
 11
71.5149949613
 21
-42.4999192018
  0
LINE
  5
3DD
100
AcDbEntity
  8
RACCORDO
100
AcDbLine
 62
253
  6
CONTINUOUS
 10
67.3255782573
 20
-37.8978211958
 11
67.6791181856
 21
-38.2513611241
  0
LINE
  5
3DE
100
AcDbEntity
  8
RACCORDO
100
AcDbLine
 62
253
  6
CONTINUOUS
 10
68.3978211958
 20
-36.8255782573
 11
68.7513611241
 21
-37.1791181856
  0
LINE
  5
3DF
100
AcDbEntity
  8
DRAFT
100
AcDbLine
 62
7
  6
CONTINUOUS
 10
13.4047303896
 20
46.2448770389
 11
13.3
 21
46.7698090201
  0
LINE
  5
3E0
100
AcDbEntity
  8
RACCORDO
100
AcDbLine
 62
7
  6
CONTINUOUS
 10
13.1047303896
 20
-50.8301909799
 11
13.008575216
 21
-51.3121420732
  0
LINE
  5
3E1
100
AcDbEntity
  8
SMUSSO
100
AcDbLine
 62
7
  6
CONTINUOUS
 10
40.2947645167
 20
44.3119927579
 11
40.4287187079
 21
44.8207189611
  0
LINE
  5
3E2
100
AcDbEntity
  8
DRAFT
100
AcDbLine
 62
7
  6
CONTINUOUS
 10
34.5
 20
37.469669092
 11
34.2261279079
 21
36.4475645295
  0
LINE
  5
3E3
100
AcDbEntity
  8
DRAFT
100
AcDbLine
 62
7
  6
CONTINUOUS
 10
34.7331946287
 20
37.6586881563
 11
34.3641837324
 21
36.2815207427
  0
LINE
  5
3E4
100
AcDbEntity
  8
DRAFT
100
AcDbLine
 62
7
  6
CONTINUOUS
 10
34.75
 20
34.4791505667
 11
34.4763884272
 21
33.4580182753
  0
LINE
  5
3E5
100
AcDbEntity
  8
DRAFT
100
AcDbLine
 62
7
  6
CONTINUOUS
 10
34.9827586121
 20
34.6665423948
 11
34.6144005835
 21
33.2918115166
  0
LINE
  5
3E6
100
AcDbEntity
  8
DRAFT
100
AcDbLine
 62
7
  6
CONTINUOUS
 10
35.0
 20
31.4880884817
 11
34.7267973556
 21
30.468482332
  0
LINE
  5
3E7
100
AcDbEntity
  8
DRAFT
100
AcDbLine
 62
7
  6
CONTINUOUS
 10
35.1857833761
 20
31.63642137
 11
34.8371859785
 21
30.3354381706
  0
LINE
  5
3E8
100
AcDbEntity
  8
DRAFT
100
AcDbLine
 62
7
  6
CONTINUOUS
 10
10.7288869297
 20
-46.2448770389
 11
8.8689095242
 21
-51.3551229611
  0
LINE
  5
3E9
100
AcDbEntity
  8
DRAFT
100
AcDbLine
 62
7
  6
CONTINUOUS
 10
8.270223243
 20
-53.0
 11
8.0882381259
 21
-53.5
  0
LINE
  5
3EA
100
AcDbEntity
  8
DRAFT
100
AcDbLine
 62
7
  6
CONTINUOUS
 10
71.4649891043
 20
39.4800648638
 11
72.9999192018
 21
41.0149949613
  0
LINE
  5
3EB
100
AcDbEntity
  8
DRAFT
100
AcDbLine
 62
7
  6
CONTINUOUS
 10
72.0944134985
 20
39.4800648638
 11
72.6851590653
 21
40.0708104306
  0
LINE
  5
3EC
100
AcDbEntity
  8
DRAFT
100
AcDbLine
 62
7
  6
CONTINUOUS
 10
-13.4047303896
 20
-51.3551229611
 11
-13.5496074285
 21
-51.5
  0
LINE
  5
3ED
100
AcDbEntity
  8
RACCORDO
100
AcDbLine
 62
7
  6
CONTINUOUS
 10
73.9295967511
 20
33.3287597117
 11
74.8207189611
 21
34.2198819217
  0
LINE
  5
3EE
100
AcDbEntity
  8
DRAFT
100
AcDbLine
 62
7
  6
CONTINUOUS
 10
-20.0524354705
 20
19.7261279079
 11
-19.030330908
 21
20.0
  0
LINE
  5
3EF
100
AcDbEntity
  8
DRAFT
100
AcDbLine
 62
7
  6
CONTINUOUS
 10
-20.2184792573
 20
19.8641837324
 11
-18.8413118437
 21
20.2331946287
  0
LINE
  5
3F0
100
AcDbEntity
  8
DRAFT
100
AcDbLine
 62
7
  6
CONTINUOUS
 10
-23.0419817247
 20
19.9763884272
 11
-22.0208494333
 21
20.25
  0
LINE
  5
3F1
100
AcDbEntity
  8
DRAFT
100
AcDbLine
 62
7
  6
CONTINUOUS
 10
-23.2081884834
 20
20.1144005835
 11
-21.8334576052
 21
20.4827586121
  0
LINE
  5
3F2
100
AcDbEntity
  8
DRAFT
100
AcDbLine
 62
7
  6
CONTINUOUS
 10
-26.031517668
 20
20.2267973556
 11
-25.0119115183
 21
20.5
  0
LINE
  5
3F3
100
AcDbEntity
  8
DRAFT
100
AcDbLine
 62
7
  6
CONTINUOUS
 10
-26.1645618294
 20
20.3371859785
 11
-24.86357863
 21
20.6857833761
  0
LINE
  5
3F4
100
AcDbEntity
  8
DRAFT
100
AcDbLine
 62
7
  6
CONTINUOUS
 10
-2.7063623377
 20
23.3836707533
 11
-1.0436376623
 21
23.3836707533
  0
LINE
  5
3F5
100
AcDbEntity
  8
DRAFT
100
AcDbLine
 62
7
  6
CONTINUOUS
 10
2.7063623377
 20
23.3836707533
 11
1.0436376623
 21
23.3836707533
  0
LINE
  5
3F6
100
AcDbEntity
  8
DRAFT
100
AcDbLine
 62
7
  6
CONTINUOUS
 10
-3.5
 20
23.45
 11
-1.0
 21
23.45
  0
LINE
  5
3F7
100
AcDbEntity
  8
DRAFT
100
AcDbLine
 62
7
  6
CONTINUOUS
 10
1.0
 20
23.45
 11
3.5
 21
23.45
  0
LINE
  5
3F8
100
AcDbEntity
  8
DRAFT
100
AcDbLine
 62
7
  6
CONTINUOUS
 10
19.030330908
 20
20.0
 11
20.0524354705
 21
19.7261279079
  0
LINE
  5
3F9
100
AcDbEntity
  8
DRAFT
100
AcDbLine
 62
7
  6
CONTINUOUS
 10
18.8413118437
 20
20.2331946287
 11
20.2184792573
 21
19.8641837324
  0
LINE
  5
3FA
100
AcDbEntity
  8
DRAFT
100
AcDbLine
 62
7
  6
CONTINUOUS
 10
22.0208494333
 20
20.25
 11
23.0419817247
 21
19.9763884272
  0
LINE
  5
3FB
100
AcDbEntity
  8
DRAFT
100
AcDbLine
 62
7
  6
CONTINUOUS
 10
21.8334576052
 20
20.4827586121
 11
23.2081884834
 21
20.1144005835
  0
LINE
  5
3FC
100
AcDbEntity
  8
DRAFT
100
AcDbLine
 62
7
  6
CONTINUOUS
 10
25.0119115183
 20
20.5
 11
26.031517668
 21
20.2267973556
  0
LINE
  5
3FD
100
AcDbEntity
  8
DRAFT
100
AcDbLine
 62
7
  6
CONTINUOUS
 10
24.86357863
 20
20.6857833761
 11
26.1645618294
 21
20.3371859785
  0
LINE
  5
3FE
100
AcDbEntity
  8
DRAFT
100
AcDbLine
 62
7
  6
CONTINUOUS
 10
72.9999192018
 20
-41.0149949613
 11
71.4649891043
 21
-39.4800648638
  0
LINE
  5
3FF
100
AcDbEntity
  8
DRAFT
100
AcDbLine
 62
7
  6
CONTINUOUS
 10
72.6851590653
 20
-40.0708104306
 11
72.0944134985
 21
-39.4800648638
  0
LINE
  5
400
100
AcDbEntity
  8
DRAFT
100
AcDbLine
 62
7
  6
CONTINUOUS
 10
-13.5496074285
 20
51.5
 11
-13.4047303896
 21
51.3551229611
  0
LINE
  5
401
100
AcDbEntity
  8
RACCORDO
100
AcDbLine
 62
7
  6
CONTINUOUS
 10
73.9295967511
 20
-33.3287597117
 11
74.8207189611
 21
-34.2198819217
  0
LINE
  5
402
100
AcDbEntity
  8
DRAFT
100
AcDbLine
 62
7
  6
CONTINUOUS
 10
10.7288869297
 20
46.2448770389
 11
8.8689095242
 21
51.3551229611
  0
LINE
  5
403
100
AcDbEntity
  8
DRAFT
100
AcDbLine
 62
7
  6
CONTINUOUS
 10
8.270223243
 20
53.0
 11
8.0882381259
 21
53.5
  0
LINE
  5
404
100
AcDbEntity
  8
DRAFT
100
AcDbLine
 62
7
  6
CONTINUOUS
 10
34.2261279079
 20
-36.4475645295
 11
34.5
 21
-37.469669092
  0
LINE
  5
405
100
AcDbEntity
  8
DRAFT
100
AcDbLine
 62
7
  6
CONTINUOUS
 10
34.3641837324
 20
-36.2815207427
 11
34.7331946287
 21
-37.6586881563
  0
LINE
  5
406
100
AcDbEntity
  8
DRAFT
100
AcDbLine
 62
7
  6
CONTINUOUS
 10
34.4763884272
 20
-33.4580182753
 11
34.75
 21
-34.4791505667
  0
LINE
  5
407
100
AcDbEntity
  8
DRAFT
100
AcDbLine
 62
7
  6
CONTINUOUS
 10
34.6144005835
 20
-33.2918115166
 11
34.9827586121
 21
-34.6665423948
  0
LINE
  5
408
100
AcDbEntity
  8
DRAFT
100
AcDbLine
 62
7
  6
CONTINUOUS
 10
34.7267973556
 20
-30.468482332
 11
35.0
 21
-31.4880884817
  0
LINE
  5
409
100
AcDbEntity
  8
DRAFT
100
AcDbLine
 62
7
  6
CONTINUOUS
 10
34.8371859785
 20
-30.3354381706
 11
35.1857833761
 21
-31.63642137
  0
LINE
  5
40A
100
AcDbEntity
  8
SMUSSO
100
AcDbLine
 62
7
  6
CONTINUOUS
 10
40.4287187079
 20
-44.8207189611
 11
40.2947645167
 21
-44.3119927579
  0
LINE
  5
40B
100
AcDbEntity
  8
RACCORDO
100
AcDbLine
 62
7
  6
CONTINUOUS
 10
13.008575216
 20
51.3121420732
 11
13.1047303896
 21
50.8301909799
  0
LINE
  5
40C
100
AcDbEntity
  8
DRAFT
100
AcDbLine
 62
7
  6
CONTINUOUS
 10
35.8142166239
 20
10.36357863
 11
36.1628140215
 21
11.6645618294
  0
LINE
  5
40D
100
AcDbEntity
  8
DRAFT
100
AcDbLine
 62
7
  6
CONTINUOUS
 10
36.0
 20
10.5119115183
 11
36.2732026444
 21
11.531517668
  0
LINE
  5
40E
100
AcDbEntity
  8
DRAFT
100
AcDbLine
 62
7
  6
CONTINUOUS
 10
36.0172413879
 20
7.3334576052
 11
36.3855994165
 21
8.7081884834
  0
LINE
  5
40F
100
AcDbEntity
  8
DRAFT
100
AcDbLine
 62
7
  6
CONTINUOUS
 10
36.25
 20
7.5208494333
 11
36.5236115728
 21
8.5419817247
  0
LINE
  5
410
100
AcDbEntity
  8
DRAFT
100
AcDbLine
 62
7
  6
CONTINUOUS
 10
36.2668053713
 20
4.3413118437
 11
36.6358162676
 21
5.7184792573
  0
LINE
  5
411
100
AcDbEntity
  8
DRAFT
100
AcDbLine
 62
7
  6
CONTINUOUS
 10
36.5
 20
4.530330908
 11
36.7738720921
 21
5.5524354705
  0
LINE
  5
412
100
AcDbEntity
  8
DRAFT
100
AcDbLine
 62
7
  6
CONTINUOUS
 10
34.5
 20
-4.530330908
 11
34.2261279079
 21
-5.5524354705
  0
LINE
  5
413
100
AcDbEntity
  8
DRAFT
100
AcDbLine
 62
7
  6
CONTINUOUS
 10
34.7331946287
 20
-4.3413118437
 11
34.3641837324
 21
-5.7184792573
  0
LINE
  5
414
100
AcDbEntity
  8
DRAFT
100
AcDbLine
 62
7
  6
CONTINUOUS
 10
34.75
 20
-7.5208494333
 11
34.4763884272
 21
-8.5419817247
  0
LINE
  5
415
100
AcDbEntity
  8
DRAFT
100
AcDbLine
 62
7
  6
CONTINUOUS
 10
34.9827586121
 20
-7.3334576052
 11
34.6144005835
 21
-8.7081884834
  0
LINE
  5
416
100
AcDbEntity
  8
DRAFT
100
AcDbLine
 62
7
  6
CONTINUOUS
 10
35.0
 20
-10.5119115183
 11
34.7267973556
 21
-11.531517668
  0
LINE
  5
417
100
AcDbEntity
  8
DRAFT
100
AcDbLine
 62
7
  6
CONTINUOUS
 10
35.1857833761
 20
-10.36357863
 11
34.8371859785
 21
-11.6645618294
  0
LINE
  5
418
100
AcDbEntity
  8
DRAFT
100
AcDbLine
 62
7
  6
CONTINUOUS
 10
-44.8354381706
 20
21.6628140215
 11
-46.13642137
 21
21.3142166239
  0
LINE
  5
419
100
AcDbEntity
  8
DRAFT
100
AcDbLine
 62
7
  6
CONTINUOUS
 10
-44.968482332
 20
21.7732026444
 11
-45.9880884817
 21
21.5
  0
LINE
  5
41A
100
AcDbEntity
  8
DRAFT
100
AcDbLine
 62
7
  6
CONTINUOUS
 10
-47.7918115166
 20
21.8855994165
 11
-49.1665423948
 21
21.5172413879
  0
LINE
  5
41B
100
AcDbEntity
  8
DRAFT
100
AcDbLine
 62
7
  6
CONTINUOUS
 10
-47.9580182753
 20
22.0236115728
 11
-48.9791505667
 21
21.75
  0
LINE
  5
41C
100
AcDbEntity
  8
DRAFT
100
AcDbLine
 62
7
  6
CONTINUOUS
 10
-50.7815207427
 20
22.1358162676
 11
-52.1586881563
 21
21.7668053713
  0
LINE
  5
41D
100
AcDbEntity
  8
DRAFT
100
AcDbLine
 62
7
  6
CONTINUOUS
 10
-50.9475645295
 20
22.2738720921
 11
-51.969669092
 21
22.0
  0
LINE
  5
41E
100
AcDbEntity
  8
SMUSSO
100
AcDbLine
 62
7
  6
CONTINUOUS
 10
-75.3207189611
 20
17.8212812921
 11
-74.8119927579
 21
17.9552354833
  0
LINE
  5
41F
100
AcDbEntity
  8
RACCORDO
100
AcDbLine
 62
253
  6
CONTINUOUS
 10
82.4474824772
 20
31.0
 11
83.5
 21
31.0
  0
LINE
  5
420
100
AcDbEntity
  8
RACCORDO
100
AcDbLine
 62
253
  6
CONTINUOUS
 10
-82.4474824772
 20
31.0
 11
-83.5
 21
31.0
  0
LINE
  5
421
100
AcDbEntity
  8
RACCORDO
100
AcDbLine
 62
253
  6
CONTINUOUS
 10
70.9300536657
 20
34.733093534
 11
70.490305919
 21
34.733093534
  0
LINE
  5
422
100
AcDbEntity
  8
RACCORDO
100
AcDbLine
 62
253
  6
CONTINUOUS
 10
-70.490305919
 20
34.733093534
 11
-70.9300536657
 21
34.733093534
  0
LINE
  5
423
100
AcDbEntity
  8
RACCORDO
100
AcDbLine
 62
7
  6
CONTINUOUS
 10
70.9300536657
 20
35.2330744955
 11
70.6974048142
 21
35.2330744955
  0
LINE
  5
424
100
AcDbEntity
  8
RACCORDO
100
AcDbLine
 62
7
  6
CONTINUOUS
 10
-70.6974048142
 20
35.2330744955
 11
-70.9300536657
 21
35.2330744955
  0
LINE
  5
425
100
AcDbEntity
  8
RACCORDO
100
AcDbLine
 62
7
  6
CONTINUOUS
 10
-73.4305106469
 20
35.2549297427
 11
-73.0950702573
 21
35.2549297427
  0
LINE
  5
426
100
AcDbEntity
  8
RACCORDO
100
AcDbLine
 62
7
  6
CONTINUOUS
 10
73.0950702573
 20
35.2549297427
 11
73.4305106469
 21
35.2549297427
  0
LINE
  5
427
100
AcDbEntity
  8
DRAFT
100
AcDbLine
 62
7
  6
CONTINUOUS
 10
-72.65
 20
35.7
 11
-70.8908116908
 21
35.7
  0
LINE
  5
428
100
AcDbEntity
  8
DRAFT
100
AcDbLine
 62
7
  6
CONTINUOUS
 10
70.8908116908
 20
35.7
 11
72.65
 21
35.7
  0
LINE
  5
429
100
AcDbEntity
  8
SMUSSO
100
AcDbLine
 62
7
  6
CONTINUOUS
 10
74.8119927579
 20
17.9552354833
 11
75.3207189611
 21
17.8212812921
  0
LINE
  5
42A
100
AcDbEntity
  8
DRAFT
100
AcDbLine
 62
7
  6
CONTINUOUS
 10
46.13642137
 20
21.3142166239
 11
44.8354381706
 21
21.6628140215
  0
LINE
  5
42B
100
AcDbEntity
  8
DRAFT
100
AcDbLine
 62
7
  6
CONTINUOUS
 10
45.9880884817
 20
21.5
 11
44.968482332
 21
21.7732026444
  0
LINE
  5
42C
100
AcDbEntity
  8
DRAFT
100
AcDbLine
 62
7
  6
CONTINUOUS
 10
49.1665423948
 20
21.5172413879
 11
47.7918115166
 21
21.8855994165
  0
LINE
  5
42D
100
AcDbEntity
  8
DRAFT
100
AcDbLine
 62
7
  6
CONTINUOUS
 10
48.9791505667
 20
21.75
 11
47.9580182753
 21
22.0236115728
  0
LINE
  5
42E
100
AcDbEntity
  8
DRAFT
100
AcDbLine
 62
7
  6
CONTINUOUS
 10
52.1586881563
 20
21.7668053713
 11
50.7815207427
 21
22.1358162676
  0
LINE
  5
42F
100
AcDbEntity
  8
DRAFT
100
AcDbLine
 62
7
  6
CONTINUOUS
 10
51.969669092
 20
22.0
 11
50.9475645295
 21
22.2738720921
  0
LINE
  5
430
100
AcDbEntity
  8
DRAFT
100
AcDbLine
 62
7
  6
CONTINUOUS
 10
36.1628140215
 20
-11.6645618294
 11
35.8142166239
 21
-10.36357863
  0
LINE
  5
431
100
AcDbEntity
  8
DRAFT
100
AcDbLine
 62
7
  6
CONTINUOUS
 10
36.2732026444
 20
-11.531517668
 11
36.0
 21
-10.5119115183
  0
LINE
  5
432
100
AcDbEntity
  8
DRAFT
100
AcDbLine
 62
7
  6
CONTINUOUS
 10
36.3855994165
 20
-8.7081884834
 11
36.0172413879
 21
-7.3334576052
  0
LINE
  5
433
100
AcDbEntity
  8
DRAFT
100
AcDbLine
 62
7
  6
CONTINUOUS
 10
36.5236115728
 20
-8.5419817247
 11
36.25
 21
-7.5208494333
  0
LINE
  5
434
100
AcDbEntity
  8
DRAFT
100
AcDbLine
 62
7
  6
CONTINUOUS
 10
36.6358162676
 20
-5.7184792573
 11
36.2668053713
 21
-4.3413118437
  0
LINE
  5
435
100
AcDbEntity
  8
DRAFT
100
AcDbLine
 62
7
  6
CONTINUOUS
 10
36.7738720921
 20
-5.5524354705
 11
36.5
 21
-4.530330908
  0
LINE
  5
436
100
AcDbEntity
  8
DRAFT
100
AcDbLine
 62
7
  6
CONTINUOUS
 10
34.2261279079
 20
5.5524354705
 11
34.5
 21
4.530330908
  0
LINE
  5
437
100
AcDbEntity
  8
DRAFT
100
AcDbLine
 62
7
  6
CONTINUOUS
 10
34.3641837324
 20
5.7184792573
 11
34.7331946287
 21
4.3413118437
  0
LINE
  5
438
100
AcDbEntity
  8
DRAFT
100
AcDbLine
 62
7
  6
CONTINUOUS
 10
34.4763884272
 20
8.5419817247
 11
34.75
 21
7.5208494333
  0
LINE
  5
439
100
AcDbEntity
  8
DRAFT
100
AcDbLine
 62
7
  6
CONTINUOUS
 10
34.6144005835
 20
8.7081884834
 11
34.9827586121
 21
7.3334576052
  0
LINE
  5
43A
100
AcDbEntity
  8
DRAFT
100
AcDbLine
 62
7
  6
CONTINUOUS
 10
34.7267973556
 20
11.531517668
 11
35.0
 21
10.5119115183
  0
LINE
  5
43B
100
AcDbEntity
  8
DRAFT
100
AcDbLine
 62
7
  6
CONTINUOUS
 10
34.8371859785
 20
11.6645618294
 11
35.1857833761
 21
10.36357863
  0
LINE
  5
43C
100
AcDbEntity
  8
DRAFT
100
AcDbLine
 62
7
  6
CONTINUOUS
 10
35.8142166239
 20
-31.63642137
 11
36.1628140215
 21
-30.3354381706
  0
LINE
  5
43D
100
AcDbEntity
  8
DRAFT
100
AcDbLine
 62
7
  6
CONTINUOUS
 10
36.0
 20
-31.4880884817
 11
36.2732026444
 21
-30.468482332
  0
LINE
  5
43E
100
AcDbEntity
  8
DRAFT
100
AcDbLine
 62
7
  6
CONTINUOUS
 10
36.0172413879
 20
-34.6665423948
 11
36.3855994165
 21
-33.2918115166
  0
LINE
  5
43F
100
AcDbEntity
  8
RACCORDO
100
AcDbLine
 62
253
  6
CONTINUOUS
 10
65.2545299414
 20
43.4295967511
 11
65.2549868559
 21
43.4305106498
  0
LINE
  5
440
100
AcDbEntity
  8
RACCORDO
100
AcDbLine
 62
253
  6
CONTINUOUS
 10
65.7545109029
 20
42.9296729036
 11
65.7549297427
 21
42.9305106469
  0
LINE
  5
441
100
AcDbEntity
  8
0
100
AcDbLine
 62
7
  6
CONTINUOUS
 10
70.0228436067
 20
39.8524286263
 11
70.28426541
 21
40.2786429395
  0
LINE
  5
442
100
AcDbEntity
  8
DRAFT
100
AcDbLine
 62
7
  6
CONTINUOUS
 10
13.5496074285
 20
-46.1
 11
13.4047303896
 21
-46.2448770389
  0
LINE
  5
443
100
AcDbEntity
  8
SMUSSO
100
AcDbLine
 62
7
  6
CONTINUOUS
 10
40.0
 20
44.2927908573
 11
40.2947645167
 21
44.3119927579
  0
LINE
  5
444
100
AcDbEntity
  8
DRAFT
100
AcDbLine
 62
7
  6
CONTINUOUS
 10
71.4649891043
 20
39.4800648638
 11
72.0944134985
 21
39.4800648638
  0
LINE
  5
445
100
AcDbEntity
  8
DRAFT
100
AcDbLine
 62
7
  6
CONTINUOUS
 10
-71.4649891043
 20
39.4800648638
 11
-72.0944134985
 21
39.4800648638
  0
LINE
  5
446
100
AcDbEntity
  8
RACCORDO
100
AcDbLine
 62
253
  6
CONTINUOUS
 10
65.7330744955
 20
40.4300536657
 11
-65.7330744955
 21
40.4300536657
  0
LINE
  5
447
100
AcDbEntity
  8
DRAFT
100
AcDbLine
 62
7
  6
CONTINUOUS
 10
68.7950539682
 20
42.15
 11
66.2
 21
42.15
  0
LINE
  5
448
100
AcDbEntity
  8
DRAFT
100
AcDbLine
 62
7
  6
CONTINUOUS
 10
-66.2
 20
42.15
 11
-68.7950539682
 21
42.15
  0
LINE
  5
449
100
AcDbEntity
  8
DRAFT
100
AcDbLine
 62
7
  6
CONTINUOUS
 10
68.979408105
 20
42.5950702573
 11
65.7549297427
 21
42.5950702573
  0
LINE
  5
44A
100
AcDbEntity
  8
DRAFT
100
AcDbLine
 62
7
  6
CONTINUOUS
 10
-65.7549297427
 20
42.5950702573
 11
-68.979408105
 21
42.5950702573
  0
LINE
  5
44B
100
AcDbEntity
  8
RACCORDO
100
AcDbLine
 62
7
  6
CONTINUOUS
 10
-63.8
 20
42.9018950845
 11
-62.2
 21
42.9018950845
  0
LINE
  5
44C
100
AcDbEntity
  8
RACCORDO
100
AcDbLine
 62
7
  6
CONTINUOUS
 10
-21.8
 20
42.9018950845
 11
-20.2
 21
42.9018950845
  0
LINE
  5
44D
100
AcDbEntity
  8
RACCORDO
100
AcDbLine
 62
7
  6
CONTINUOUS
 10
20.2
 20
42.9018950845
 11
21.8
 21
42.9018950845
  0
LINE
  5
44E
100
AcDbEntity
  8
RACCORDO
100
AcDbLine
 62
7
  6
CONTINUOUS
 10
62.2
 20
42.9018950845
 11
63.8
 21
42.9018950845
  0
LINE
  5
44F
100
AcDbEntity
  8
RACCORDO
100
AcDbLine
 62
253
  6
CONTINUOUS
 10
65.2545299414
 20
43.4295967511
 11
63.8287597117
 21
43.4295967511
  0
LINE
  5
450
100
AcDbEntity
  8
RACCORDO
100
AcDbLine
 62
253
  6
CONTINUOUS
 10
62.1712402883
 20
43.4295967511
 11
21.8287597117
 21
43.4295967511
  0
LINE
  5
451
100
AcDbEntity
  8
RACCORDO
100
AcDbLine
 62
253
  6
CONTINUOUS
 10
20.1712402883
 20
43.4295967511
 11
-20.1712402883
 21
43.4295967511
  0
LINE
  5
452
100
AcDbEntity
  8
RACCORDO
100
AcDbLine
 62
253
  6
CONTINUOUS
 10
-21.8287597117
 20
43.4295967511
 11
-62.1712402883
 21
43.4295967511
  0
LINE
  5
453
100
AcDbEntity
  8
RACCORDO
100
AcDbLine
 62
253
  6
CONTINUOUS
 10
-63.8287597117
 20
43.4295967511
 11
-65.2545299414
 21
43.4295967511
  0
LINE
  5
454
100
AcDbEntity
  8
RACCORDO
100
AcDbLine
 62
7
  6
CONTINUOUS
 10
-69.3254588461
 20
43.4305106498
 11
-65.2549868559
 21
43.4305106498
  0
LINE
  5
455
100
AcDbEntity
  8
RACCORDO
100
AcDbLine
 62
7
  6
CONTINUOUS
 10
65.2549868559
 20
43.4305106498
 11
69.3254588461
 21
43.4305106498
  0
LINE
  5
456
100
AcDbEntity
  8
SMUSSO
100
AcDbLine
 62
7
  6
CONTINUOUS
 10
-40.0
 20
44.2927908573
 11
-40.2947645167
 21
44.3119927579
  0
LINE
  5
457
100
AcDbEntity
  8
DRAFT
100
AcDbLine
 62
7
  6
CONTINUOUS
 10
13.4047303896
 20
46.2448770389
 11
13.5496074285
 21
46.1
  0
LINE
  5
458
100
AcDbEntity
  8
RACCORDO
100
AcDbLine
 62
253
  6
CONTINUOUS
 10
65.2549868559
 20
-43.4305106498
 11
65.2545299414
 21
-43.4295967511
  0
LINE
  5
459
100
AcDbEntity
  8
RACCORDO
100
AcDbLine
 62
253
  6
CONTINUOUS
 10
65.7549297427
 20
-42.9305106469
 11
65.7545109029
 21
-42.9296729036
  0
LINE
  5
45A
100
AcDbEntity
  8
DRAFT
100
AcDbLine
 62
7
  6
CONTINUOUS
 10
36.1628140215
 20
30.3354381706
 11
35.8142166239
 21
31.63642137
  0
LINE
  5
45B
100
AcDbEntity
  8
DRAFT
100
AcDbLine
 62
7
  6
CONTINUOUS
 10
36.2732026444
 20
30.468482332
 11
36.0
 21
31.4880884817
  0
LINE
  5
45C
100
AcDbEntity
  8
DRAFT
100
AcDbLine
 62
7
  6
CONTINUOUS
 10
36.3855994165
 20
33.2918115166
 11
36.0172413879
 21
34.6665423948
  0
LINE
  5
45D
100
AcDbEntity
  8
DRAFT
100
AcDbLine
 62
7
  6
CONTINUOUS
 10
36.25
 20
-34.4791505667
 11
36.5236115728
 21
-33.4580182753
  0
LINE
  5
45E
100
AcDbEntity
  8
DRAFT
100
AcDbLine
 62
7
  6
CONTINUOUS
 10
36.2668053713
 20
-37.6586881563
 11
36.6358162676
 21
-36.2815207427
  0
LINE
  5
45F
100
AcDbEntity
  8
DRAFT
100
AcDbLine
 62
7
  6
CONTINUOUS
 10
36.5
 20
-37.469669092
 11
36.7738720921
 21
-36.4475645295
  0
LINE
  5
460
100
AcDbEntity
  8
DRAFT
100
AcDbLine
 62
7
  6
CONTINUOUS
 10
69.694195202
 20
44.3207189611
 11
69.3254588461
 21
43.4305106498
  0
LINE
  5
461
100
AcDbEntity
  8
DRAFT
100
AcDbLine
 62
7
  6
CONTINUOUS
 10
68.7950539682
 20
42.15
 11
68.979408105
 21
42.5950702573
  0
LINE
  5
462
100
AcDbEntity
  8
RACCORDO
100
AcDbLine
 62
7
  6
CONTINUOUS
 10
20.1712402883
 20
-43.4295967511
 11
19.3337718302
 21
-44.2670652092
  0
LINE
  5
463
100
AcDbEntity
  8
SMUSSO
100
AcDbLine
 62
7
  6
CONTINUOUS
 10
-2.0
 20
44.2927908573
 11
-1.7052354833
 21
44.3119927579
  0
LINE
  5
464
100
AcDbEntity
  8
SMUSSO
100
AcDbLine
 62
7
  6
CONTINUOUS
 10
-44.0
 20
44.2927908573
 11
-43.7052354833
 21
44.3119927579
  0
LINE
  5
465
100
AcDbEntity
  8
RACCORDO
100
AcDbLine
 62
7
  6
CONTINUOUS
 10
59.8340002875
 20
44.2927908573
 11
44.0
 21
44.2927908573
  0
LINE
  5
466
100
AcDbEntity
  8
RACCORDO
100
AcDbLine
 62
7
  6
CONTINUOUS
 10
40.0
 20
44.2927908573
 11
24.1659997125
 21
44.2927908573
  0
LINE
  5
467
100
AcDbEntity
  8
RACCORDO
100
AcDbLine
 62
7
  6
CONTINUOUS
 10
17.8340002875
 20
44.2927908573
 11
2.0
 21
44.2927908573
  0
LINE
  5
468
100
AcDbEntity
  8
RACCORDO
100
AcDbLine
 62
7
  6
CONTINUOUS
 10
-2.0
 20
44.2927908573
 11
-17.8340002875
 21
44.2927908573
  0
LINE
  5
469
100
AcDbEntity
  8
RACCORDO
100
AcDbLine
 62
7
  6
CONTINUOUS
 10
-24.1659997125
 20
44.2927908573
 11
-40.0
 21
44.2927908573
  0
LINE
  5
46A
100
AcDbEntity
  8
RACCORDO
100
AcDbLine
 62
7
  6
CONTINUOUS
 10
-44.0
 20
44.2927908573
 11
-59.8340002875
 21
44.2927908573
  0
LINE
  5
46B
100
AcDbEntity
  8
SMUSSO
100
AcDbLine
 62
7
  6
CONTINUOUS
 10
43.7052354833
 20
44.3119927579
 11
40.2947645167
 21
44.3119927579
  0
LINE
  5
46C
100
AcDbEntity
  8
SMUSSO
100
AcDbLine
 62
7
  6
CONTINUOUS
 10
1.7052354833
 20
44.3119927579
 11
-1.7052354833
 21
44.3119927579
  0
LINE
  5
46D
100
AcDbEntity
  8
SMUSSO
100
AcDbLine
 62
7
  6
CONTINUOUS
 10
-40.2947645167
 20
44.3119927579
 11
-43.7052354833
 21
44.3119927579
  0
LINE
  5
46E
100
AcDbEntity
  8
DRAFT
100
AcDbLine
 62
7
  6
CONTINUOUS
 10
-69.694195202
 20
44.3207189611
 11
-64.7198819217
 21
44.3207189611
  0
LINE
  5
46F
100
AcDbEntity
  8
SMUSSO
100
AcDbLine
 62
7
  6
CONTINUOUS
 10
-64.7198819217
 20
44.3207189611
 11
-43.7052354833
 21
44.3207189611
  0
LINE
  5
470
100
AcDbEntity
  8
SMUSSO
100
AcDbLine
 62
7
  6
CONTINUOUS
 10
-40.2947645167
 20
44.3207189611
 11
-1.7052354833
 21
44.3207189611
  0
LINE
  5
471
100
AcDbEntity
  8
SMUSSO
100
AcDbLine
 62
7
  6
CONTINUOUS
 10
1.7052354833
 20
44.3207189611
 11
40.2947645167
 21
44.3207189611
  0
LINE
  5
472
100
AcDbEntity
  8
SMUSSO
100
AcDbLine
 62
7
  6
CONTINUOUS
 10
43.7052354833
 20
44.3207189611
 11
64.7198819217
 21
44.3207189611
  0
LINE
  5
473
100
AcDbEntity
  8
DRAFT
100
AcDbLine
 62
7
  6
CONTINUOUS
 10
64.7198819217
 20
44.3207189611
 11
69.694195202
 21
44.3207189611
  0
LINE
  5
474
100
AcDbEntity
  8
SMUSSO
100
AcDbLine
 62
7
  6
CONTINUOUS
 10
43.5712812921
 20
44.8207189611
 11
40.4287187079
 21
44.8207189611
  0
LINE
  5
475
100
AcDbEntity
  8
SMUSSO
100
AcDbLine
 62
7
  6
CONTINUOUS
 10
1.5712812921
 20
44.8207189611
 11
-1.5712812921
 21
44.8207189611
  0
LINE
  5
476
100
AcDbEntity
  8
SMUSSO
100
AcDbLine
 62
7
  6
CONTINUOUS
 10
-40.4287187079
 20
44.8207189611
 11
-43.5712812921
 21
44.8207189611
  0
LINE
  5
477
100
AcDbEntity
  8
DRAFT
100
AcDbLine
 62
7
  6
CONTINUOUS
 10
13.5496074285
 20
46.1
 11
-13.5496074285
 21
46.1
  0
LINE
  5
478
100
AcDbEntity
  8
RACCORDO
100
AcDbLine
 62
7
  6
CONTINUOUS
 10
13.4047303896
 20
46.2448770389
 11
-13.4047303896
 21
46.2448770389
  0
LINE
  5
479
100
AcDbEntity
  8
DRAFT
100
AcDbLine
 62
7
  6
CONTINUOUS
 10
-13.3
 20
46.7698090201
 11
-12.8547303896
 21
46.7698090201
  0
LINE
  5
47A
100
AcDbEntity
  8
DRAFT
100
AcDbLine
 62
7
  6
CONTINUOUS
 10
12.8547303896
 20
46.7698090201
 11
13.3
 21
46.7698090201
  0
LINE
  5
47B
100
AcDbEntity
  8
DRAFT
100
AcDbLine
 62
7
  6
CONTINUOUS
 10
12.8547303896
 20
46.8745394096
 11
10.4997085691
 21
46.8745394096
  0
LINE
  5
47C
100
AcDbEntity
  8
DRAFT
100
AcDbLine
 62
7
  6
CONTINUOUS
 10
-10.4997085691
 20
46.8745394096
 11
-12.8547303896
 21
46.8745394096
  0
LINE
  5
47D
100
AcDbEntity
  8
DRAFT
100
AcDbLine
 62
7
  6
CONTINUOUS
 10
-9.0599691403
 20
50.8301909799
 11
-13.3
 21
50.8301909799
  0
LINE
  5
47E
100
AcDbEntity
  8
DRAFT
100
AcDbLine
 62
7
  6
CONTINUOUS
 10
9.0599691403
 20
50.8301909799
 11
13.3
 21
50.8301909799
  0
LINE
  5
47F
100
AcDbEntity
  8
SMUSSO
100
AcDbLine
 62
7
  6
CONTINUOUS
 10
2.0
 20
44.2927908573
 11
1.7052354833
 21
44.3119927579
  0
LINE
  5
480
100
AcDbEntity
  8
SMUSSO
100
AcDbLine
 62
7
  6
CONTINUOUS
 10
44.0
 20
44.2927908573
 11
43.7052354833
 21
44.3119927579
  0
LINE
  5
481
100
AcDbEntity
  8
RACCORDO
100
AcDbLine
 62
7
  6
CONTINUOUS
 10
20.1712402883
 20
43.4295967511
 11
19.3337718302
 21
44.2670652092
  0
LINE
  5
482
100
AcDbEntity
  8
DRAFT
100
AcDbLine
 62
7
  6
CONTINUOUS
 10
69.694195202
 20
-44.3207189611
 11
69.3254588461
 21
-43.4305106498
  0
LINE
  5
483
100
AcDbEntity
  8
DRAFT
100
AcDbLine
 62
7
  6
CONTINUOUS
 10
68.7950539682
 20
-42.15
 11
68.979408105
 21
-42.5950702573
  0
LINE
  5
484
100
AcDbEntity
  8
DRAFT
100
AcDbLine
 62
7
  6
CONTINUOUS
 10
36.5236115728
 20
33.4580182753
 11
36.25
 21
34.4791505667
  0
LINE
  5
485
100
AcDbEntity
  8
DRAFT
100
AcDbLine
 62
7
  6
CONTINUOUS
 10
36.6358162676
 20
36.2815207427
 11
36.2668053713
 21
37.6586881563
  0
LINE
  5
486
100
AcDbEntity
  8
DRAFT
100
AcDbLine
 62
7
  6
CONTINUOUS
 10
36.7738720921
 20
36.4475645295
 11
36.5
 21
37.469669092
  0
LINE
  5
487
100
AcDbEntity
  8
SMUSSO
100
AcDbLine
 62
7
  6
CONTINUOUS
 10
43.7052354833
 20
-44.3119927579
 11
43.5712812921
 21
-44.8207189611
  0
LINE
  5
488
100
AcDbEntity
  8
DRAFT
100
AcDbLine
 62
7
  6
CONTINUOUS
 10
72.6851590653
 20
40.0708104306
 11
72.9999192018
 21
41.0149949613
  0
LINE
  5
489
100
AcDbEntity
  8
RACCORDO
100
AcDbLine
 62
7
  6
CONTINUOUS
 10
70.8908116908
 20
35.7
 11
70.6974048142
 21
35.2330744955
  0
LINE
  5
48A
100
AcDbEntity
  8
RACCORDO
100
AcDbLine
 62
7
  6
CONTINUOUS
 10
73.9295967511
 20
0.8287597117
 11
74.7670652092
 21
1.6662281698
  0
LINE
  5
48B
100
AcDbEntity
  8
RACCORDO
100
AcDbLine
 62
7
  6
CONTINUOUS
 10
-13.4047303896
 20
51.3551229611
 11
13.4047303896
 21
51.3551229611
  0
LINE
  5
48C
100
AcDbEntity
  8
DRAFT
100
AcDbLine
 62
7
  6
CONTINUOUS
 10
13.5496074285
 20
51.5
 11
-13.5496074285
 21
51.5
  0
LINE
  5
48D
100
AcDbEntity
  8
RACCORDO
100
AcDbLine
 62
253
  6
CONTINUOUS
 10
61.5
 20
51.9474824772
 11
-61.5
 21
51.9474824772
  0
LINE
  5
48E
100
AcDbEntity
  8
RACCORDO
100
AcDbLine
 62
253
  6
CONTINUOUS
 10
61.5
 20
52.9473301723
 11
-61.5
 21
52.9473301723
  0
LINE
  5
48F
100
AcDbEntity
  8
RACCORDO
100
AcDbLine
 62
7
  6
CONTINUOUS
 10
61.5
 20
53.0
 11
-61.5
 21
53.0
  0
LINE
  5
490
100
AcDbEntity
  8
DRAFT
100
AcDbLine
 62
7
  6
CONTINUOUS
 10
8.0882381259
 20
53.5
 11
-8.0882381259
 21
53.5
  0
LINE
  5
491
100
AcDbEntity
  8
0
100
AcDbLine
 62
7
  6
CONTINUOUS
 10
79.5
 20
56.0
 11
-79.5
 21
56.0
  0
LINE
  5
492
100
AcDbEntity
  8
RACCORDO
100
AcDbLine
 62
7
  6
CONTINUOUS
 10
73.9295967511
 20
-0.8287597117
 11
74.7670652092
 21
-1.6662281698
  0
LINE
  5
493
100
AcDbEntity
  8
RACCORDO
100
AcDbLine
 62
7
  6
CONTINUOUS
 10
70.8908116908
 20
-35.7
 11
70.6974048142
 21
-35.2330744955
  0
LINE
  5
494
100
AcDbEntity
  8
DRAFT
100
AcDbLine
 62
7
  6
CONTINUOUS
 10
72.6851590653
 20
-40.0708104306
 11
72.9999192018
 21
-41.0149949613
  0
LINE
  5
495
100
AcDbEntity
  8
SMUSSO
100
AcDbLine
 62
7
  6
CONTINUOUS
 10
43.5712812921
 20
44.8207189611
 11
43.7052354833
 21
44.3119927579
  0
LINE
  5
496
100
AcDbEntity
  8
RACCORDO
100
AcDbLine
 62
253
  6
CONTINUOUS
 10
61.5
 20
-51.9474824772
 11
61.5
 21
-53.0
  0
LINE
  5
497
100
AcDbEntity
  8
RACCORDO
100
AcDbLine
 62
253
  6
CONTINUOUS
 10
61.5
 20
51.9474824772
 11
61.5
 21
53.0
  0
LINE
  5
498
100
AcDbEntity
  8
RACCORDO
100
AcDbLine
 62
253
  6
CONTINUOUS
 10
65.233093534
 20
-40.4300536657
 11
65.233093534
 21
-39.990305919
  0
LINE
  5
499
100
AcDbEntity
  8
RACCORDO
100
AcDbLine
 62
253
  6
CONTINUOUS
 10
65.233093534
 20
39.990305919
 11
65.233093534
 21
40.4300536657
  0
LINE
  5
49A
100
AcDbEntity
  8
0
100
AcDbLine
 62
7
  6
CONTINUOUS
 10
-79.5
 20
59.0
 11
79.5
 21
59.0
  0
LINE
  5
49B
100
AcDbEntity
  8
RACCORDO
100
AcDbLine
 62
7
  6
CONTINUOUS
 10
65.7330744955
 20
-40.4300536657
 11
65.7330744955
 21
-40.1974048142
  0
LINE
  5
49C
100
AcDbEntity
  8
RACCORDO
100
AcDbLine
 62
7
  6
CONTINUOUS
 10
65.7330744955
 20
40.1974048142
 11
65.7330744955
 21
40.4300536657
  0
LINE
  5
49D
100
AcDbEntity
  8
RACCORDO
100
AcDbLine
 62
7
  6
CONTINUOUS
 10
65.7549297427
 20
42.9305106469
 11
65.7549297427
 21
42.5950702573
  0
LINE
  5
49E
100
AcDbEntity
  8
RACCORDO
100
AcDbLine
 62
7
  6
CONTINUOUS
 10
65.7549297427
 20
-42.5950702573
 11
65.7549297427
 21
-42.9305106469
  0
LINE
  5
49F
100
AcDbEntity
  8
DRAFT
100
AcDbLine
 62
7
  6
CONTINUOUS
 10
66.2
 20
42.15
 11
66.2
 21
40.3908116908
  0
LINE
  5
4A0
100
AcDbEntity
  8
DRAFT
100
AcDbLine
 62
7
  6
CONTINUOUS
 10
66.2
 20
-40.3908116908
 11
66.2
 21
-42.15
  0
LINE
  5
4A1
100
AcDbEntity
  8
DRAFT
100
AcDbLine
 62
7
  6
CONTINUOUS
 10
69.9800648638
 20
-40.9649891043
 11
69.9800648638
 21
-41.5944134985
  0
LINE
  5
4A2
100
AcDbEntity
  8
DRAFT
100
AcDbLine
 62
7
  6
CONTINUOUS
 10
69.9800648638
 20
40.9649891043
 11
69.9800648638
 21
41.5944134985
  0
LINE
  5
4A3
100
AcDbEntity
  8
RACCORDO
100
AcDbLine
 62
253
  6
CONTINUOUS
 10
70.9300536657
 20
-35.2330744955
 11
70.9300536657
 21
35.2330744955
  0
LINE
  5
4A4
100
AcDbEntity
  8
RACCORDO
100
AcDbLine
 62
253
  6
CONTINUOUS
 10
68.109840549
 20
-37.9974729447
 11
67.6791181858
 21
-38.2513611244
  0
LINE
  5
4A5
100
AcDbEntity
  8
RACCORDO
100
AcDbLine
 62
253
  6
CONTINUOUS
 10
68.109840549
 20
37.9974729447
 11
67.6791181856
 21
38.2513611241
  0
LINE
  5
4A6
100
AcDbEntity
  8
SMUSSO
100
AcDbLine
 62
7
  6
CONTINUOUS
 10
74.7927908573
 20
-14.25
 11
74.8119927579
 21
-14.5447645167
  0
LINE
  5
4A7
100
AcDbEntity
  8
SMUSSO
100
AcDbLine
 62
7
  6
CONTINUOUS
 10
74.7927908573
 20
18.25
 11
74.8119927579
 21
17.9552354833
  0
LINE
  5
4A8
100
AcDbEntity
  8
DRAFT
100
AcDbLine
 62
7
  6
CONTINUOUS
 10
72.65
 20
-38.2950539682
 11
72.65
 21
-35.7
  0
LINE
  5
4A9
100
AcDbEntity
  8
DRAFT
100
AcDbLine
 62
7
  6
CONTINUOUS
 10
72.65
 20
35.7
 11
72.65
 21
38.2950539682
  0
LINE
  5
4AA
100
AcDbEntity
  8
DRAFT
100
AcDbLine
 62
7
  6
CONTINUOUS
 10
73.0950702573
 20
-38.479408105
 11
73.0950702573
 21
-35.2549297427
  0
LINE
  5
4AB
100
AcDbEntity
  8
DRAFT
100
AcDbLine
 62
7
  6
CONTINUOUS
 10
73.0950702573
 20
35.2549297427
 11
73.0950702573
 21
38.479408105
  0
LINE
  5
4AC
100
AcDbEntity
  8
RACCORDO
100
AcDbLine
 62
7
  6
CONTINUOUS
 10
73.4018950845
 20
33.3
 11
73.4018950845
 21
31.7
  0
LINE
  5
4AD
100
AcDbEntity
  8
RACCORDO
100
AcDbLine
 62
7
  6
CONTINUOUS
 10
73.4018950845
 20
0.8
 11
73.4018950845
 21
-0.8
  0
LINE
  5
4AE
100
AcDbEntity
  8
RACCORDO
100
AcDbLine
 62
7
  6
CONTINUOUS
 10
73.4018950845
 20
-31.7
 11
73.4018950845
 21
-33.3
  0
LINE
  5
4AF
100
AcDbEntity
  8
RACCORDO
100
AcDbLine
 62
253
  6
CONTINUOUS
 10
73.9295967511
 20
-34.7545299414
 11
73.9295967511
 21
-33.3287597117
  0
LINE
  5
4B0
100
AcDbEntity
  8
RACCORDO
100
AcDbLine
 62
253
  6
CONTINUOUS
 10
73.9295967511
 20
-31.6712402883
 11
73.9295967511
 21
-0.8287597117
  0
LINE
  5
4B1
100
AcDbEntity
  8
RACCORDO
100
AcDbLine
 62
253
  6
CONTINUOUS
 10
73.9295967511
 20
0.8287597117
 11
73.9295967511
 21
31.6712402883
  0
LINE
  5
4B2
100
AcDbEntity
  8
RACCORDO
100
AcDbLine
 62
253
  6
CONTINUOUS
 10
73.9295967511
 20
33.3287597117
 11
73.9295967511
 21
34.7545299414
  0
LINE
  5
4B3
100
AcDbEntity
  8
RACCORDO
100
AcDbLine
 62
7
  6
CONTINUOUS
 10
73.9305106498
 20
38.8254588461
 11
73.9305106498
 21
34.7549868559
  0
LINE
  5
4B4
100
AcDbEntity
  8
RACCORDO
100
AcDbLine
 62
7
  6
CONTINUOUS
 10
73.9305106498
 20
-34.7549868559
 11
73.9305106498
 21
-38.8254588461
  0
LINE
  5
4B5
100
AcDbEntity
  8
RACCORDO
100
AcDbLine
 62
7
  6
CONTINUOUS
 10
74.0
 20
33.3991629606
 11
74.0
 21
31.6008370394
  0
LINE
  5
4B6
100
AcDbEntity
  8
RACCORDO
100
AcDbLine
 62
7
  6
CONTINUOUS
 10
74.0
 20
0.8991629606
 11
74.0
 21
-0.8991629606
  0
LINE
  5
4B7
100
AcDbEntity
  8
RACCORDO
100
AcDbLine
 62
7
  6
CONTINUOUS
 10
74.0
 20
-31.6008370394
 11
74.0
 21
-33.3991629606
  0
LINE
  5
4B8
100
AcDbEntity
  8
RACCORDO
100
AcDbLine
 62
7
  6
CONTINUOUS
 10
74.7927908573
 20
29.3340002875
 11
74.7927908573
 21
18.25
  0
LINE
  5
4B9
100
AcDbEntity
  8
RACCORDO
100
AcDbLine
 62
7
  6
CONTINUOUS
 10
74.7927908573
 20
14.25
 11
74.7927908573
 21
3.1659997125
  0
LINE
  5
4BA
100
AcDbEntity
  8
RACCORDO
100
AcDbLine
 62
7
  6
CONTINUOUS
 10
74.7927908573
 20
-3.1659997125
 11
74.7927908573
 21
-14.25
  0
LINE
  5
4BB
100
AcDbEntity
  8
RACCORDO
100
AcDbLine
 62
7
  6
CONTINUOUS
 10
74.7927908573
 20
-18.25
 11
74.7927908573
 21
-29.3340002875
  0
LINE
  5
4BC
100
AcDbEntity
  8
SMUSSO
100
AcDbLine
 62
7
  6
CONTINUOUS
 10
74.8119927579
 20
-17.9552354833
 11
74.8119927579
 21
-14.5447645167
  0
LINE
  5
4BD
100
AcDbEntity
  8
SMUSSO
100
AcDbLine
 62
7
  6
CONTINUOUS
 10
74.8119927579
 20
14.5447645167
 11
74.8119927579
 21
17.9552354833
  0
LINE
  5
4BE
100
AcDbEntity
  8
DRAFT
100
AcDbLine
 62
7
  6
CONTINUOUS
 10
74.8207189611
 20
39.194195202
 11
74.8207189611
 21
34.2198819217
  0
LINE
  5
4BF
100
AcDbEntity
  8
SMUSSO
100
AcDbLine
 62
7
  6
CONTINUOUS
 10
74.8207189611
 20
34.2198819217
 11
74.8207189611
 21
17.9552354833
  0
LINE
  5
4C0
100
AcDbEntity
  8
SMUSSO
100
AcDbLine
 62
7
  6
CONTINUOUS
 10
74.8207189611
 20
14.5447645167
 11
74.8207189611
 21
-14.5447645167
  0
LINE
  5
4C1
100
AcDbEntity
  8
SMUSSO
100
AcDbLine
 62
7
  6
CONTINUOUS
 10
74.8207189611
 20
-17.9552354833
 11
74.8207189611
 21
-34.2198819217
  0
LINE
  5
4C2
100
AcDbEntity
  8
DRAFT
100
AcDbLine
 62
7
  6
CONTINUOUS
 10
74.8207189611
 20
-34.2198819217
 11
74.8207189611
 21
-39.194195202
  0
LINE
  5
4C3
100
AcDbEntity
  8
SMUSSO
100
AcDbLine
 62
7
  6
CONTINUOUS
 10
75.3207189611
 20
-17.8212812921
 11
75.3207189611
 21
-14.6787187079
  0
LINE
  5
4C4
100
AcDbEntity
  8
SMUSSO
100
AcDbLine
 62
7
  6
CONTINUOUS
 10
75.3207189611
 20
14.6787187079
 11
75.3207189611
 21
17.8212812921
  0
LINE
  5
4C5
100
AcDbEntity
  8
SMUSSO
100
AcDbLine
 62
7
  6
CONTINUOUS
 10
74.7927908573
 20
14.25
 11
74.8119927579
 21
14.5447645167
  0
LINE
  5
4C6
100
AcDbEntity
  8
SMUSSO
100
AcDbLine
 62
7
  6
CONTINUOUS
 10
74.7927908573
 20
-18.25
 11
74.8119927579
 21
-17.9552354833
  0
LINE
  5
4C7
100
AcDbEntity
  8
RACCORDO
100
AcDbLine
 62
253
  6
CONTINUOUS
 10
68.4974729447
 20
-37.609840549
 11
68.7513611243
 21
-37.1791181858
  0
LINE
  5
4C8
100
AcDbEntity
  8
RACCORDO
100
AcDbLine
 62
253
  6
CONTINUOUS
 10
65.233093534
 20
-39.990305919
 11
67.3255782573
 21
-37.8978211958
  0
LINE
  5
4C9
100
AcDbEntity
  8
RACCORDO
100
AcDbLine
 62
253
  6
CONTINUOUS
 10
68.3978211958
 20
-36.8255782573
 11
70.490305919
 21
-34.733093534
  0
LINE
  5
4CA
100
AcDbEntity
  8
RACCORDO
100
AcDbLine
 62
7
  6
CONTINUOUS
 10
62.1712402883
 20
-43.4295967511
 11
61.3337718302
 21
-44.2670652092
  0
LINE
  5
4CB
100
AcDbEntity
  8
RACCORDO
100
AcDbLine
 62
7
  6
CONTINUOUS
 10
73.9295967511
 20
-31.6712402883
 11
74.7670652092
 21
-30.8337718302
  0
LINE
  5
4CC
100
AcDbEntity
  8
RACCORDO
100
AcDbLine
 62
7
  6
CONTINUOUS
 10
65.7330744955
 20
-40.1974048142
 11
67.6791181856
 21
-38.2513611241
  0
LINE
  5
4CD
100
AcDbEntity
  8
RACCORDO
100
AcDbLine
 62
7
  6
CONTINUOUS
 10
68.7513611241
 20
-37.1791181856
 11
70.6974048142
 21
-35.2330744955
  0
LINE
  5
4CE
100
AcDbEntity
  8
DRAFT
100
AcDbLine
 62
7
  6
CONTINUOUS
 10
70.8908116908
 20
-35.7
 11
69.4082536047
 21
-37.1825580861
  0
LINE
  5
4CF
100
AcDbEntity
  8
DRAFT
100
AcDbLine
 62
7
  6
CONTINUOUS
 10
67.6825580861
 20
-38.9082536047
 11
66.2
 21
-40.3908116908
  0
LINE
  5
4D0
100
AcDbEntity
  8
DRAFT
100
AcDbLine
 62
7
  6
CONTINUOUS
 10
66.2
 20
-42.15
 11
65.7549297427
 21
-42.5950702573
  0
LINE
  5
4D1
100
AcDbEntity
  8
DRAFT
100
AcDbLine
 62
7
  6
CONTINUOUS
 10
72.65
 20
-35.7
 11
73.0950702573
 21
-35.2549297427
  0
LINE
  5
4D2
100
AcDbEntity
  8
DRAFT
100
AcDbLine
 62
7
  6
CONTINUOUS
 10
68.7950539682
 20
-42.15
 11
69.9800648638
 21
-40.9649891043
  0
LINE
  5
4D3
100
AcDbEntity
  8
DRAFT
100
AcDbLine
 62
7
  6
CONTINUOUS
 10
71.4649891043
 20
-39.4800648638
 11
72.65
 21
-38.2950539682
  0
LINE
  5
4D4
100
AcDbEntity
  8
DRAFT
100
AcDbLine
 62
7
  6
CONTINUOUS
 10
68.979408105
 20
-42.5950702573
 11
69.9800648638
 21
-41.5944134985
  0
LINE
  5
4D5
100
AcDbEntity
  8
DRAFT
100
AcDbLine
 62
7
  6
CONTINUOUS
 10
72.0944134985
 20
-39.4800648638
 11
73.0950702573
 21
-38.479408105
  0
LINE
  5
4D6
100
AcDbEntity
  8
RACCORDO
100
AcDbLine
 62
253
  6
CONTINUOUS
 10
70.490305919
 20
34.733093534
 11
68.3978211958
 21
36.8255782573
  0
LINE
  5
4D7
100
AcDbEntity
  8
RACCORDO
100
AcDbLine
 62
253
  6
CONTINUOUS
 10
67.3255782573
 20
37.8978211958
 11
65.233093534
 21
39.990305919
  0
LINE
  5
4D8
100
AcDbEntity
  8
RACCORDO
100
AcDbLine
 62
7
  6
CONTINUOUS
 10
62.1712402883
 20
43.4295967511
 11
61.3337718302
 21
44.2670652092
  0
LINE
  5
4D9
100
AcDbEntity
  8
RACCORDO
100
AcDbLine
 62
7
  6
CONTINUOUS
 10
73.9295967511
 20
31.6712402883
 11
74.7670652092
 21
30.8337718302
  0
LINE
  5
4DA
100
AcDbEntity
  8
RACCORDO
100
AcDbLine
 62
7
  6
CONTINUOUS
 10
70.6974048142
 20
35.2330744955
 11
68.7513611241
 21
37.1791181856
  0
LINE
  5
4DB
100
AcDbEntity
  8
RACCORDO
100
AcDbLine
 62
7
  6
CONTINUOUS
 10
67.6791181856
 20
38.2513611241
 11
65.7330744955
 21
40.1974048142
  0
LINE
  5
4DC
100
AcDbEntity
  8
DRAFT
100
AcDbLine
 62
7
  6
CONTINUOUS
 10
66.2
 20
40.3908116908
 11
67.6825580861
 21
38.9082536047
  0
LINE
  5
4DD
100
AcDbEntity
  8
DRAFT
100
AcDbLine
 62
7
  6
CONTINUOUS
 10
69.4082536047
 20
37.1825580861
 11
70.8908116908
 21
35.7
  0
LINE
  5
4DE
100
AcDbEntity
  8
DRAFT
100
AcDbLine
 62
7
  6
CONTINUOUS
 10
66.2
 20
42.15
 11
65.7549297427
 21
42.5950702573
  0
LINE
  5
4DF
100
AcDbEntity
  8
DRAFT
100
AcDbLine
 62
7
  6
CONTINUOUS
 10
72.65
 20
35.7
 11
73.0950702573
 21
35.2549297427
  0
LINE
  5
4E0
100
AcDbEntity
  8
DRAFT
100
AcDbLine
 62
7
  6
CONTINUOUS
 10
72.65
 20
38.2950539682
 11
71.4649891043
 21
39.4800648638
  0
LINE
  5
4E1
100
AcDbEntity
  8
DRAFT
100
AcDbLine
 62
7
  6
CONTINUOUS
 10
69.9800648638
 20
40.9649891043
 11
68.7950539682
 21
42.15
  0
LINE
  5
4E2
100
AcDbEntity
  8
DRAFT
100
AcDbLine
 62
7
  6
CONTINUOUS
 10
73.0950702573
 20
38.479408105
 11
72.0944134985
 21
39.4800648638
  0
LINE
  5
4E3
100
AcDbEntity
  8
DRAFT
100
AcDbLine
 62
7
  6
CONTINUOUS
 10
69.9800648638
 20
41.5944134985
 11
68.979408105
 21
42.5950702573
  0
LINE
  5
4E4
100
AcDbEntity
  8
RACCORDO
100
AcDbLine
 62
253
  6
CONTINUOUS
 10
68.4974729447
 20
37.609840549
 11
68.751361124
 21
37.1791181856
  0
LINE
  5
4E5
100
AcDbEntity
  8
RACCORDO
100
AcDbLine
 62
253
  6
CONTINUOUS
 10
82.4474824772
 20
-31.0
 11
82.4474824772
 21
31.0
  0
LINE
  5
4E6
100
AcDbEntity
  8
RACCORDO
100
AcDbLine
 62
253
  6
CONTINUOUS
 10
83.4473301723
 20
-31.0
 11
83.4473301723
 21
31.0
  0
LINE
  5
4E7
100
AcDbEntity
  8
DRAFT
100
AcDbLine
 62
7
  6
CONTINUOUS
 10
83.5
 20
31.0
 11
83.5
 21
-31.0
  0
LINE
  5
4E8
100
AcDbEntity
  8
0
100
AcDbLine
 62
7
  6
CONTINUOUS
 10
86.5
 20
-49.0
 11
86.5
 21
49.0
  0
LINE
  5
4E9
100
AcDbEntity
  8
0
100
AcDbLine
 62
7
  6
CONTINUOUS
 10
68.9771563933
 20
-39.8524286263
 11
68.71573459
 21
-40.2786429395
  0
LINE
  5
4EA
100
AcDbEntity
  8
0
100
AcDbLine
 62
7
  6
CONTINUOUS
 10
70.0228436067
 20
-38.1475713737
 11
70.28426541
 21
-37.7213570605
  0
LINE
  5
4EB
100
AcDbEntity
  8
DRAFT
100
AcDbLine
 62
7
  6
CONTINUOUS
 10
73.9305106498
 20
-38.8254588461
 11
72.6851590653
 21
-40.0708104306
  0
LINE
  5
4EC
100
AcDbEntity
  8
DRAFT
100
AcDbLine
 62
7
  6
CONTINUOUS
 10
70.5708104306
 20
-42.1851590653
 11
69.3254588461
 21
-43.4305106498
  0
LINE
  5
4ED
100
AcDbEntity
  8
DRAFT
100
AcDbLine
 62
7
  6
CONTINUOUS
 10
74.8207189611
 20
-39.194195202
 11
72.9999192018
 21
-41.0149949613
  0
LINE
  5
4EE
100
AcDbEntity
  8
DRAFT
100
AcDbLine
 62
7
  6
CONTINUOUS
 10
71.5149949613
 20
-42.4999192018
 11
69.694195202
 21
-44.3207189611
  0
LINE
  5
4EF
100
AcDbEntity
  8
DRAFT
100
AcDbLine
 62
7
  6
CONTINUOUS
 10
69.3254588461
 20
43.4305106498
 11
70.5708104306
 21
42.1851590653
  0
LINE
  5
4F0
100
AcDbEntity
  8
DRAFT
100
AcDbLine
 62
7
  6
CONTINUOUS
 10
72.6851590653
 20
40.0708104306
 11
73.9305106498
 21
38.8254588461
  0
LINE
  5
4F1
100
AcDbEntity
  8
DRAFT
100
AcDbLine
 62
7
  6
CONTINUOUS
 10
69.694195202
 20
44.3207189611
 11
71.5149949613
 21
42.4999192018
  0
LINE
  5
4F2
100
AcDbEntity
  8
DRAFT
100
AcDbLine
 62
7
  6
CONTINUOUS
 10
72.9999192018
 20
41.0149949613
 11
74.8207189611
 21
39.194195202
  0
LINE
  5
4F3
100
AcDbEntity
  8
0
100
AcDbLine
 62
7
  6
CONTINUOUS
 10
89.5
 20
49.0
 11
89.5
 21
-49.0
  0
ARC
  5
4F4
100
AcDbEntity
  8
0
100
AcDbCircle
 62
7
  6
CONTINUOUS
 10
-79.5
 20
-49.0
 40
10.0
100
AcDbArc
 50
180.0
 51
270.0
  0
ARC
  5
4F5
100
AcDbEntity
  8
0
100
AcDbCircle
 62
7
  6
CONTINUOUS
 10
-79.5
 20
-49.0
 40
7.0
100
AcDbArc
 50
180.0
 51
270.0
  0
ARC
  5
4F6
100
AcDbEntity
  8
DRAFT
100
AcDbCircle
 62
7
  6
CONTINUOUS
 10
-77.8015776851
 20
-39.8050369687
 40
53.4463594419
100
AcDbArc
 50
39.6258360293
 51
39.8573287154
  0
ARC
  5
4F7
100
AcDbEntity
  8
DRAFT
100
AcDbCircle
 62
7
  6
CONTINUOUS
 10
-69.5467358796
 20
-36.103630453
 40
43.0136167052
100
AcDbArc
 50
39.5611669819
 51
39.8489369906
  0
ARC
  5
4F8
100
AcDbEntity
  8
RACCORDO
100
AcDbCircle
 62
7
  6
CONTINUOUS
 10
-69.7387925
 20
-38.5125036858
 40
2.0761632207
100
AcDbArc
 50
5.0402594585
 51
7.2258785651
  0
CIRCLE
  5
4F9
100
AcDbEntity
  8
0
100
AcDbCircle
 62
7
  6
CONTINUOUS
 10
-69.4999994511
 20
-39.0000005331
 40
1.4999996177
  0
ARC
  5
4FA
100
AcDbEntity
  8
DRAFT
100
AcDbCircle
 62
7
  6
CONTINUOUS
 10
-68.3537192671
 20
-37.8537192671
 40
1.25
100
AcDbArc
 50
147.5251774968
 51
163.6136842729
  0
ARC
  5
4FB
100
AcDbEntity
  8
DRAFT
100
AcDbCircle
 62
7
  6
CONTINUOUS
 10
-68.3537192671
 20
-37.8537192671
 40
1.25
100
AcDbArc
 50
286.3798075167
 51
302.4748225032
  0
ARC
  5
4FC
100
AcDbEntity
  8
0
100
AcDbCircle
 62
7
  6
CONTINUOUS
 10
-69.5
 20
-39.0
 40
1.0
100
AcDbArc
 50
307.6774584221
 51
360.0
  0
ARC
  5
4FD
100
AcDbEntity
  8
0
100
AcDbCircle
 62
7
  6
CONTINUOUS
 10
-69.5
 20
-39.0
 40
1.0
100
AcDbArc
 50
127.6774584221
 51
255.84228485
  0
ARC
  5
4FE
100
AcDbEntity
  8
0
100
AcDbCircle
 62
7
  6
CONTINUOUS
 10
-69.6033382594
 20
-39.3617997602
 40
0.8320718012
100
AcDbArc
 50
344.7743839811
 51
349.517352529
  0
ARC
  5
4FF
100
AcDbEntity
  8
0
100
AcDbCircle
 62
7
  6
CONTINUOUS
 10
-69.3966617406
 20
-38.6382002398
 40
0.8320718012
100
AcDbArc
 50
164.7743839811
 51
169.517352529
  0
ARC
  5
500
100
AcDbEntity
  8
0
100
AcDbCircle
 62
7
  6
CONTINUOUS
 10
-69.4440476799
 20
-38.8722397848
 40
0.813765055
100
AcDbArc
 50
150.6304078959
 51
164.4190814713
  0
ARC
  5
501
100
AcDbEntity
  8
0
100
AcDbCircle
 62
7
  6
CONTINUOUS
 10
-69.5559523201
 20
-39.1277602152
 40
0.813765055
100
AcDbArc
 50
330.6304078959
 51
344.4190814713
  0
ARC
  5
502
100
AcDbEntity
  8
RACCORDO
100
AcDbCircle
 62
7
  6
CONTINUOUS
 10
-68.3537192671
 20
-37.8537192671
 40
0.7830744955
100
AcDbArc
 50
120.5171132633
 51
329.4828867367
  0
ARC
  5
503
100
AcDbEntity
  8
RACCORDO
100
AcDbCircle
 62
253
  6
CONTINUOUS
 10
-65.2544701136
 20
-42.9295531058
 40
0.5000420763
100
AcDbArc
 50
180.0137266961
 51
269.9931448442
  0
ARC
  5
504
100
AcDbEntity
  8
RACCORDO
100
AcDbCircle
 62
253
  6
CONTINUOUS
 10
-73.4295531096
 20
-34.7544701177
 40
0.5000420724
100
AcDbArc
 50
180.0068546836
 51
269.9862737403
  0
ARC
  5
505
100
AcDbEntity
  8
RACCORDO
100
AcDbCircle
 62
253
  6
CONTINUOUS
 10
-68.7513600827
 20
-37.1790945645
 40
0.4999924913
100
AcDbArc
 50
300.5156359687
 51
45.0013325099
  0
ARC
  5
506
100
AcDbEntity
  8
RACCORDO
100
AcDbCircle
 62
253
  6
CONTINUOUS
 10
-67.6791319484
 20
-38.2513027259
 40
0.4999428734
100
AcDbArc
 50
44.9941523192
 51
149.4838661131
  0
ARC
  5
507
100
AcDbEntity
  8
RACCORDO
100
AcDbCircle
 62
253
  6
CONTINUOUS
 10
-68.3537192671
 20
-37.8537192671
 40
0.283093534
100
AcDbArc
 50
120.5171132632
 51
329.4828867367
  0
ARC
  5
508
100
AcDbEntity
  8
DRAFT
100
AcDbCircle
 62
7
  6
CONTINUOUS
 10
-54.3050369779
 20
-63.3015776781
 40
53.4463594425
100
AcDbArc
 50
50.1426712723
 51
50.3741639583
  0
ARC
  5
509
100
AcDbEntity
  8
DRAFT
100
AcDbCircle
 62
7
  6
CONTINUOUS
 10
-50.6036304643
 20
-55.0467358719
 40
43.0136167065
100
AcDbArc
 50
50.1510629914
 51
50.438833
  0
ARC
  5
50A
100
AcDbEntity
  8
DRAFT
100
AcDbCircle
 62
7
  6
CONTINUOUS
 10
-50.753276975
 20
-45.906644041
 40
40.9572888397
100
AcDbArc
 50
38.8169756115
 51
39.2369027444
  0
ARC
  5
50B
100
AcDbEntity
  8
DRAFT
100
AcDbCircle
 62
7
  6
CONTINUOUS
 10
-60.4066440314
 20
-36.2532769819
 40
40.957288839
100
AcDbArc
 50
50.763097272
 51
51.1830244049
  0
ARC
  5
50C
100
AcDbEntity
  8
DRAFT
100
AcDbCircle
 62
7
  6
CONTINUOUS
 10
-48.1179221272
 20
-41.45229976
 40
33.6243173019
100
AcDbArc
 50
38.5825929391
 51
39.0917801805
  0
ARC
  5
50D
100
AcDbEntity
  8
DRAFT
100
AcDbCircle
 62
7
  6
CONTINUOUS
 10
-55.952299741
 20
-33.617922142
 40
33.6243173016
100
AcDbArc
 50
50.9082198606
 51
51.417407102
  0
ARC
  5
50E
100
AcDbEntity
  8
DRAFT
100
AcDbCircle
 62
7
  6
CONTINUOUS
 10
-61.3545311626
 20
-32.4541870205
 40
32.6623810328
100
AcDbArc
 50
39.5313705257
 51
39.8346283951
  0
ARC
  5
50F
100
AcDbEntity
  8
DRAFT
100
AcDbCircle
 62
7
  6
CONTINUOUS
 10
-46.9541870255
 20
-46.8545311563
 40
32.6623810311
100
AcDbArc
 50
50.1653715911
 51
50.4686294605
  0
ARC
  5
510
100
AcDbEntity
  8
DRAFT
100
AcDbCircle
 62
7
  6
CONTINUOUS
 10
-45.4389598825
 20
-36.9614187541
 40
26.2343783896
100
AcDbArc
 50
38.3448684315
 51
38.8640833323
  0
ARC
  5
511
100
AcDbEntity
  8
DRAFT
100
AcDbCircle
 62
7
  6
CONTINUOUS
 10
-77.801577681
 20
-2.1949630192
 40
53.4463594465
100
AcDbArc
 50
320.1426712718
 51
320.3741639579
  0
ARC
  5
512
100
AcDbEntity
  8
DRAFT
100
AcDbCircle
 62
7
  6
CONTINUOUS
 10
-54.305036976
 20
-21.3015776759
 40
53.4463594395
100
AcDbArc
 50
50.1426712723
 51
50.3741639583
  0
ARC
  5
513
100
AcDbEntity
  8
DRAFT
100
AcDbCircle
 62
7
  6
CONTINUOUS
 10
-50.6036304643
 20
-13.0467358719
 40
43.0136167065
100
AcDbArc
 50
50.1510629914
 51
50.438833
  0
ARC
  5
514
100
AcDbEntity
  8
DRAFT
100
AcDbCircle
 62
7
  6
CONTINUOUS
 10
-69.5467358717
 20
-5.8963695378
 40
43.013616705
100
AcDbArc
 50
320.1510629933
 51
320.4388330019
  0
ARC
  5
515
100
AcDbEntity
  8
DRAFT
100
AcDbCircle
 62
7
  6
CONTINUOUS
 10
-50.7532769754
 20
-3.9066440413
 40
40.9572888401
100
AcDbArc
 50
38.8169756116
 51
39.2369027444
  0
ARC
  5
516
100
AcDbEntity
  8
DRAFT
100
AcDbCircle
 62
7
  6
CONTINUOUS
 10
-60.4066440317
 20
-5.7467230178
 40
40.9572888394
100
AcDbArc
 50
308.8169755951
 51
309.236902728
  0
ARC
  5
517
100
AcDbEntity
  8
DRAFT
100
AcDbCircle
 62
7
  6
CONTINUOUS
 10
-48.1179221174
 20
-0.5477002286
 40
33.6243173015
100
AcDbArc
 50
320.9082197938
 51
321.4174070352
  0
ARC
  5
518
100
AcDbEntity
  8
DRAFT
100
AcDbCircle
 62
7
  6
CONTINUOUS
 10
-55.9522997407
 20
-8.3820778583
 40
33.6243173012
100
AcDbArc
 50
308.582592898
 51
309.0917801395
  0
ARC
  5
519
100
AcDbEntity
  8
DRAFT
100
AcDbCircle
 62
7
  6
CONTINUOUS
 10
-61.3545311559
 20
-9.5458129726
 40
32.662381032
100
AcDbArc
 50
320.165371588
 51
320.4686294574
  0
ARC
  5
51A
100
AcDbEntity
  8
DRAFT
100
AcDbCircle
 62
7
  6
CONTINUOUS
 10
-46.954187025
 20
-4.8545311558
 40
32.6623810304
100
AcDbArc
 50
50.1653715911
 51
50.4686294605
  0
ARC
  5
51B
100
AcDbEntity
  8
DRAFT
100
AcDbCircle
 62
7
  6
CONTINUOUS
 10
-51.4614187339
 20
-11.0610401004
 40
26.2343783903
100
AcDbArc
 50
308.3448683737
 51
308.8640832745
  0
ARC
  5
51C
100
AcDbEntity
  8
DRAFT
100
AcDbCircle
 62
7
  6
CONTINUOUS
 10
-45.438959875
 20
-5.0385812369
 40
26.2343783893
100
AcDbArc
 50
321.1359166421
 51
321.6551315429
  0
ARC
  5
51D
100
AcDbEntity
  8
DRAFT
100
AcDbCircle
 62
7
  6
CONTINUOUS
 10
-51.4614187333
 20
-30.9389598988
 40
26.2343783893
100
AcDbArc
 50
51.1359167255
 51
51.6551316263
  0
ARC
  5
51E
100
AcDbEntity
  8
DRAFT
100
AcDbCircle
 62
7
  6
CONTINUOUS
 10
-61.5
 20
-31.0
 40
22.0
100
AcDbArc
 50
180.0
 51
270.0
  0
ARC
  5
51F
100
AcDbEntity
  8
RACCORDO
100
AcDbCircle
 62
253
  6
CONTINUOUS
 10
-61.5
 20
-31.0
 40
21.9473301725
100
AcDbArc
 50
180.0
 51
270.0
  0
ARC
  5
520
100
AcDbEntity
  8
RACCORDO
100
AcDbCircle
 62
253
  6
CONTINUOUS
 10
-61.5
 20
-31.0
 40
20.9474831759
100
AcDbArc
 50
180.0
 51
270.0
  0
ARC
  5
521
100
AcDbEntity
  8
DRAFT
100
AcDbCircle
 62
7
  6
CONTINUOUS
 10
-16.6949630116
 20
-63.3015776721
 40
53.4463594446
100
AcDbArc
 50
129.6258360545
 51
129.8573287405
  0
ARC
  5
522
100
AcDbEntity
  8
DRAFT
100
AcDbCircle
 62
7
  6
CONTINUOUS
 10
-6.8015776856
 20
-39.8050369691
 40
53.4463594426
100
AcDbArc
 50
39.6258360293
 51
39.8573287154
  0
ARC
  5
523
100
AcDbEntity
  8
DRAFT
100
AcDbCircle
 62
7
  6
CONTINUOUS
 10
-20.3963695266
 20
-55.046735864
 40
43.0136167062
100
AcDbArc
 50
129.5611670161
 51
129.8489370247
  0
ARC
  5
524
100
AcDbEntity
  8
DRAFT
100
AcDbCircle
 62
7
  6
CONTINUOUS
 10
-1.4532641209
 20
-36.1036304526
 40
43.0136167045
100
AcDbArc
 50
140.1510630094
 51
140.4388330181
  0
ARC
  5
525
100
AcDbEntity
  8
DRAFT
100
AcDbCircle
 62
7
  6
CONTINUOUS
 10
-10.5933559565
 20
-36.2532769721
 40
40.9572888389
100
AcDbArc
 50
128.8169756169
 51
129.2369027498
  0
ARC
  5
526
100
AcDbEntity
  8
DRAFT
100
AcDbCircle
 62
7
  6
CONTINUOUS
 10
-20.2467230255
 20
-45.9066440406
 40
40.957288839
100
AcDbArc
 50
140.7630972556
 51
141.1830243885
  0
ARC
  5
527
100
AcDbEntity
  8
DRAFT
100
AcDbCircle
 62
7
  6
CONTINUOUS
 10
-22.8820778731
 20
-41.4522997597
 40
33.6243173015
100
AcDbArc
 50
140.9082198195
 51
141.4174070609
  0
ARC
  5
528
100
AcDbEntity
  8
DRAFT
100
AcDbCircle
 62
7
  6
CONTINUOUS
 10
-15.0477002472
 20
-33.6179221327
 40
33.6243173017
100
AcDbArc
 50
128.5825929237
 51
129.0917801651
  0
ARC
  5
529
100
AcDbEntity
  8
DRAFT
100
AcDbCircle
 62
7
  6
CONTINUOUS
 10
-24.0458129666
 20
-46.8545311509
 40
32.662381032
100
AcDbArc
 50
129.5313705563
 51
129.8346284257
  0
ARC
  5
52A
100
AcDbEntity
  8
DRAFT
100
AcDbCircle
 62
7
  6
CONTINUOUS
 10
-9.6454688382
 20
-32.4541870198
 40
32.6623810317
100
AcDbArc
 50
140.1653716049
 51
140.4686294743
  0
ARC
  5
52B
100
AcDbEntity
  8
DRAFT
100
AcDbCircle
 62
7
  6
CONTINUOUS
 10
-25.5610401173
 20
-36.9614187542
 40
26.2343783898
100
AcDbArc
 50
141.1359166677
 51
141.6551315685
  0
CIRCLE
  5
52C
100
AcDbEntity
  8
DRAFT
100
AcDbCircle
 62
7
  6
CONTINUOUS
 10
-35.5
 20
-21.0
 40
16.7292250749
  0
ARC
  5
52D
100
AcDbEntity
  8
DRAFT
100
AcDbCircle
 62
7
  6
CONTINUOUS
 10
-35.5
 20
-21.0
 40
16.6763269807
100
AcDbArc
 50
177.3645150851
 51
182.6354849149
  0
ARC
  5
52E
100
AcDbEntity
  8
DRAFT
100
AcDbCircle
 62
7
  6
CONTINUOUS
 10
-35.5
 20
-21.0
 40
16.6763269807
100
AcDbArc
 50
267.3645150851
 51
272.6354849149
  0
ARC
  5
52F
100
AcDbEntity
  8
DRAFT
100
AcDbCircle
 62
7
  6
CONTINUOUS
 10
-35.5
 20
-21.0
 40
16.6763269807
100
AcDbArc
 50
357.3645150851
 51
2.6354849149
  0
ARC
  5
530
100
AcDbEntity
  8
DRAFT
100
AcDbCircle
 62
7
  6
CONTINUOUS
 10
-35.5
 20
-21.0
 40
16.6763269807
100
AcDbArc
 50
87.3645150851
 51
92.6354849149
  0
ARC
  5
531
100
AcDbEntity
  8
DRAFT
100
AcDbCircle
 62
7
  6
CONTINUOUS
 10
-35.5
 20
-21.0
 40
16.5
100
AcDbArc
 50
93.4746007931
 51
176.5253992069
  0
ARC
  5
532
100
AcDbEntity
  8
DRAFT
100
AcDbCircle
 62
7
  6
CONTINUOUS
 10
-35.5
 20
-21.0
 40
16.5
100
AcDbArc
 50
3.4746007931
 51
86.5253992069
  0
ARC
  5
533
100
AcDbEntity
  8
DRAFT
100
AcDbCircle
 62
7
  6
CONTINUOUS
 10
-35.5
 20
-21.0
 40
16.5
100
AcDbArc
 50
183.4746007931
 51
266.5253992069
  0
ARC
  5
534
100
AcDbEntity
  8
DRAFT
100
AcDbCircle
 62
7
  6
CONTINUOUS
 10
-35.5
 20
-21.0
 40
16.5
100
AcDbArc
 50
273.4746007931
 51
356.5253992069
  0
ARC
  5
535
100
AcDbEntity
  8
DRAFT
100
AcDbCircle
 62
7
  6
CONTINUOUS
 10
-35.5
 20
-21.0
 40
15.5
100
AcDbArc
 50
94.7141877419
 51
175.2858122581
  0
ARC
  5
536
100
AcDbEntity
  8
DRAFT
100
AcDbCircle
 62
7
  6
CONTINUOUS
 10
-35.5
 20
-21.0
 40
15.5
100
AcDbArc
 50
4.7141877419
 51
85.2858122581
  0
ARC
  5
537
100
AcDbEntity
  8
DRAFT
100
AcDbCircle
 62
7
  6
CONTINUOUS
 10
-35.5
 20
-21.0
 40
15.5
100
AcDbArc
 50
184.7141877419
 51
265.2858122581
  0
ARC
  5
538
100
AcDbEntity
  8
DRAFT
100
AcDbCircle
 62
7
  6
CONTINUOUS
 10
-35.5
 20
-21.0
 40
15.5
100
AcDbArc
 50
274.7141877419
 51
355.2858122581
  0
ARC
  5
539
100
AcDbEntity
  8
DRAFT
100
AcDbCircle
 62
7
  6
CONTINUOUS
 10
-35.5
 20
-21.0
 40
15.3236730193
100
AcDbArc
 50
94.2507573531
 51
175.7492426469
  0
ARC
  5
53A
100
AcDbEntity
  8
DRAFT
100
AcDbCircle
 62
7
  6
CONTINUOUS
 10
-35.5
 20
-21.0
 40
15.3236730193
100
AcDbArc
 50
184.2507573531
 51
265.7492426469
  0
ARC
  5
53B
100
AcDbEntity
  8
DRAFT
100
AcDbCircle
 62
7
  6
CONTINUOUS
 10
-35.5
 20
-21.0
 40
15.3236730193
100
AcDbArc
 50
274.2507573531
 51
355.7492426469
  0
ARC
  5
53C
100
AcDbEntity
  8
DRAFT
100
AcDbCircle
 62
7
  6
CONTINUOUS
 10
-35.5
 20
-21.0
 40
15.3236730193
100
AcDbArc
 50
4.2507573531
 51
85.7492426469
  0
ARC
  5
53D
100
AcDbEntity
  8
DRAFT
100
AcDbCircle
 62
7
  6
CONTINUOUS
 10
-35.5
 20
-21.0
 40
13.6763269807
100
AcDbArc
 50
272.1674546178
 51
357.8325453822
  0
ARC
  5
53E
100
AcDbEntity
  8
DRAFT
100
AcDbCircle
 62
7
  6
CONTINUOUS
 10
-35.5
 20
-21.0
 40
13.6763269807
100
AcDbArc
 50
182.1674546178
 51
267.8325453822
  0
ARC
  5
53F
100
AcDbEntity
  8
DRAFT
100
AcDbCircle
 62
7
  6
CONTINUOUS
 10
-35.5
 20
-21.0
 40
13.6763269807
100
AcDbArc
 50
2.1674546178
 51
87.8325453822
  0
ARC
  5
540
100
AcDbEntity
  8
DRAFT
100
AcDbCircle
 62
7
  6
CONTINUOUS
 10
-35.5
 20
-21.0
 40
13.6763269807
100
AcDbArc
 50
92.1674546178
 51
177.8325453822
  0
ARC
  5
541
100
AcDbEntity
  8
DRAFT
100
AcDbCircle
 62
7
  6
CONTINUOUS
 10
-35.5
 20
-21.0
 40
13.5
100
AcDbArc
 50
93.1847385367
 51
176.8152614633
  0
ARC
  5
542
100
AcDbEntity
  8
DRAFT
100
AcDbCircle
 62
7
  6
CONTINUOUS
 10
-35.5
 20
-21.0
 40
13.5
100
AcDbArc
 50
3.1847385367
 51
86.8152614633
  0
ARC
  5
543
100
AcDbEntity
  8
DRAFT
100
AcDbCircle
 62
7
  6
CONTINUOUS
 10
-35.5
 20
-21.0
 40
13.5
100
AcDbArc
 50
183.1847385367
 51
266.8152614633
  0
ARC
  5
544
100
AcDbEntity
  8
DRAFT
100
AcDbCircle
 62
7
  6
CONTINUOUS
 10
-35.5
 20
-21.0
 40
13.5
100
AcDbArc
 50
273.1847385367
 51
356.8152614633
  0
ARC
  5
545
100
AcDbEntity
  8
DRAFT
100
AcDbCircle
 62
7
  6
CONTINUOUS
 10
-35.5
 20
-21.0
 40
12.5
100
AcDbArc
 50
94.6971495355
 51
175.3028504645
  0
ARC
  5
546
100
AcDbEntity
  8
DRAFT
100
AcDbCircle
 62
7
  6
CONTINUOUS
 10
-35.5
 20
-21.0
 40
12.5
100
AcDbArc
 50
4.6971495355
 51
85.3028504645
  0
ARC
  5
547
100
AcDbEntity
  8
DRAFT
100
AcDbCircle
 62
7
  6
CONTINUOUS
 10
-35.5
 20
-21.0
 40
12.5
100
AcDbArc
 50
184.6971495355
 51
265.3028504645
  0
ARC
  5
548
100
AcDbEntity
  8
DRAFT
100
AcDbCircle
 62
7
  6
CONTINUOUS
 10
-35.5
 20
-21.0
 40
12.5
100
AcDbArc
 50
274.6971495355
 51
355.3028504645
  0
ARC
  5
549
100
AcDbEntity
  8
DRAFT
100
AcDbCircle
 62
7
  6
CONTINUOUS
 10
-35.5
 20
-21.0
 40
12.3236730193
100
AcDbArc
 50
274.1209209803
 51
355.8790790197
  0
ARC
  5
54A
100
AcDbEntity
  8
DRAFT
100
AcDbCircle
 62
7
  6
CONTINUOUS
 10
-35.5
 20
-21.0
 40
12.3236730193
100
AcDbArc
 50
184.1209209803
 51
265.8790790197
  0
ARC
  5
54B
100
AcDbEntity
  8
DRAFT
100
AcDbCircle
 62
7
  6
CONTINUOUS
 10
-35.5
 20
-21.0
 40
12.3236730193
100
AcDbArc
 50
4.1209209803
 51
85.8790790197
  0
ARC
  5
54C
100
AcDbEntity
  8
DRAFT
100
AcDbCircle
 62
7
  6
CONTINUOUS
 10
-35.5
 20
-21.0
 40
12.3236730193
100
AcDbArc
 50
94.1209209803
 51
175.8790790197
  0
CIRCLE
  5
54D
100
AcDbEntity
  8
DRAFT
100
AcDbCircle
 62
7
  6
CONTINUOUS
 10
-35.5
 20
-21.0
 40
10.6763269807
  0
ARC
  5
54E
100
AcDbEntity
  8
DRAFT
100
AcDbCircle
 62
7
  6
CONTINUOUS
 10
-35.5
 20
-21.0
 40
10.6410615846
100
AcDbArc
 50
178.3078846415
 51
181.6921153585
  0
ARC
  5
54F
100
AcDbEntity
  8
DRAFT
100
AcDbCircle
 62
7
  6
CONTINUOUS
 10
-35.5
 20
-21.0
 40
10.6410615846
100
AcDbArc
 50
268.3078846415
 51
271.6921153585
  0
ARC
  5
550
100
AcDbEntity
  8
DRAFT
100
AcDbCircle
 62
7
  6
CONTINUOUS
 10
-35.5
 20
-21.0
 40
10.6410615846
100
AcDbArc
 50
358.3078846415
 51
1.6921153585
  0
ARC
  5
551
100
AcDbEntity
  8
DRAFT
100
AcDbCircle
 62
7
  6
CONTINUOUS
 10
-35.5
 20
-21.0
 40
10.6410615846
100
AcDbArc
 50
88.3078846415
 51
91.6921153585
  0
ARC
  5
552
100
AcDbEntity
  8
DRAFT
100
AcDbCircle
 62
7
  6
CONTINUOUS
 10
-35.5
 20
-21.0
 40
10.5
100
AcDbArc
 50
92.7294026368
 51
177.2705973632
  0
ARC
  5
553
100
AcDbEntity
  8
DRAFT
100
AcDbCircle
 62
7
  6
CONTINUOUS
 10
-35.5
 20
-21.0
 40
10.5
100
AcDbArc
 50
2.7294026368
 51
87.2705973632
  0
ARC
  5
554
100
AcDbEntity
  8
DRAFT
100
AcDbCircle
 62
7
  6
CONTINUOUS
 10
-35.5
 20
-21.0
 40
10.5
100
AcDbArc
 50
182.7294026368
 51
267.2705973632
  0
ARC
  5
555
100
AcDbEntity
  8
DRAFT
100
AcDbCircle
 62
7
  6
CONTINUOUS
 10
-35.5
 20
-21.0
 40
10.5
100
AcDbArc
 50
272.7294026368
 51
357.2705973632
  0
ARC
  5
556
100
AcDbEntity
  8
DRAFT
100
AcDbCircle
 62
7
  6
CONTINUOUS
 10
-35.5
 20
-21.0
 40
9.5
100
AcDbArc
 50
94.668453194
 51
175.331546806
  0
ARC
  5
557
100
AcDbEntity
  8
DRAFT
100
AcDbCircle
 62
7
  6
CONTINUOUS
 10
-35.5
 20
-21.0
 40
9.5
100
AcDbArc
 50
4.668453194
 51
85.331546806
  0
ARC
  5
558
100
AcDbEntity
  8
DRAFT
100
AcDbCircle
 62
7
  6
CONTINUOUS
 10
-35.5
 20
-21.0
 40
9.5
100
AcDbArc
 50
184.668453194
 51
265.331546806
  0
ARC
  5
559
100
AcDbEntity
  8
DRAFT
100
AcDbCircle
 62
7
  6
CONTINUOUS
 10
-35.5
 20
-21.0
 40
9.5
100
AcDbArc
 50
274.668453194
 51
355.331546806
  0
ARC
  5
55A
100
AcDbEntity
  8
DRAFT
100
AcDbCircle
 62
7
  6
CONTINUOUS
 10
-35.5
 20
-21.0
 40
9.3589384154
100
AcDbArc
 50
94.0611725955
 51
175.9388274045
  0
ARC
  5
55B
100
AcDbEntity
  8
DRAFT
100
AcDbCircle
 62
7
  6
CONTINUOUS
 10
-35.5
 20
-21.0
 40
9.3589384154
100
AcDbArc
 50
184.0611725955
 51
265.9388274045
  0
ARC
  5
55C
100
AcDbEntity
  8
DRAFT
100
AcDbCircle
 62
7
  6
CONTINUOUS
 10
-35.5
 20
-21.0
 40
9.3589384154
100
AcDbArc
 50
274.0611725955
 51
355.9388274045
  0
ARC
  5
55D
100
AcDbEntity
  8
DRAFT
100
AcDbCircle
 62
7
  6
CONTINUOUS
 10
-35.5
 20
-21.0
 40
9.3589384154
100
AcDbArc
 50
4.0611725955
 51
85.9388274045
  0
ARC
  5
55E
100
AcDbEntity
  8
DRAFT
100
AcDbCircle
 62
7
  6
CONTINUOUS
 10
-19.5385812576
 20
-30.9389598915
 40
26.2343783893
100
AcDbArc
 50
128.3448683993
 51
128.8640833001
  0
ARC
  5
55F
100
AcDbEntity
  8
DRAFT
100
AcDbCircle
 62
7
  6
CONTINUOUS
 10
-20.3963695261
 20
-13.0467358646
 40
43.013616707
100
AcDbArc
 50
129.5611670161
 51
129.8489370247
  0
ARC
  5
560
100
AcDbEntity
  8
DRAFT
100
AcDbCircle
 62
7
  6
CONTINUOUS
 10
-20.2467230249
 20
-3.9066440411
 40
40.9572888398
100
AcDbArc
 50
140.7630972556
 51
141.1830243885
  0
ARC
  5
561
100
AcDbEntity
  8
DRAFT
100
AcDbCircle
 62
7
  6
CONTINUOUS
 10
-22.8820778825
 20
-0.5477002285
 40
33.6243173016
100
AcDbArc
 50
218.5825929648
 51
219.0917802062
  0
ARC
  5
562
100
AcDbEntity
  8
DRAFT
100
AcDbCircle
 62
7
  6
CONTINUOUS
 10
-24.0458129662
 20
-4.8545311514
 40
32.6623810327
100
AcDbArc
 50
129.5313705563
 51
129.8346284257
  0
ARC
  5
563
100
AcDbEntity
  8
DRAFT
100
AcDbCircle
 62
7
  6
CONTINUOUS
 10
-25.561040125
 20
-5.0385812369
 40
26.2343783893
100
AcDbArc
 50
218.3448684571
 51
218.8640833579
  0
ARC
  5
564
100
AcDbEntity
  8
DRAFT
100
AcDbCircle
 62
7
  6
CONTINUOUS
 10
-19.5385812576
 20
-11.0610401084
 40
26.2343783894
100
AcDbArc
 50
231.1359166999
 51
231.6551316007
  0
ARC
  5
565
100
AcDbEntity
  8
DRAFT
100
AcDbCircle
 62
7
  6
CONTINUOUS
 10
-16.6949630116
 20
-21.3015776721
 40
53.4463594446
100
AcDbArc
 50
129.6258360545
 51
129.8573287405
  0
ARC
  5
566
100
AcDbEntity
  8
DRAFT
100
AcDbCircle
 62
7
  6
CONTINUOUS
 10
-6.8015776835
 20
-2.1949630171
 40
53.4463594498
100
AcDbArc
 50
320.1426712718
 51
320.3741639578
  0
ARC
  5
567
100
AcDbEntity
  8
DRAFT
100
AcDbCircle
 62
7
  6
CONTINUOUS
 10
-1.4532641283
 20
-5.8963695378
 40
43.013616705
100
AcDbArc
 50
219.5611669981
 51
219.8489370067
  0
ARC
  5
568
100
AcDbEntity
  8
DRAFT
100
AcDbCircle
 62
7
  6
CONTINUOUS
 10
-10.5933559559
 20
-5.7467230272
 40
40.9572888399
100
AcDbArc
 50
230.7630972502
 51
231.1830243831
  0
ARC
  5
569
100
AcDbEntity
  8
DRAFT
100
AcDbCircle
 62
7
  6
CONTINUOUS
 10
-15.0477002477
 20
-8.382077868
 40
33.6243173009
100
AcDbArc
 50
230.9082198349
 51
231.4174070763
  0
ARC
  5
56A
100
AcDbEntity
  8
DRAFT
100
AcDbCircle
 62
7
  6
CONTINUOUS
 10
-9.6454688438
 20
-9.5458129724
 40
32.6623810324
100
AcDbArc
 50
219.5313705426
 51
219.834628412
  0
ARC
  5
56B
100
AcDbEntity
  8
DRAFT
100
AcDbCircle
 62
7
  6
CONTINUOUS
 10
-54.3050369789
 20
21.3015776794
 40
53.4463594441
100
AcDbArc
 50
309.6258360417
 51
309.8573287277
  0
ARC
  5
56C
100
AcDbEntity
  8
DRAFT
100
AcDbCircle
 62
7
  6
CONTINUOUS
 10
-77.801577685
 20
2.1949630314
 40
53.4463594418
100
AcDbArc
 50
39.6258360293
 51
39.8573287154
  0
ARC
  5
56D
100
AcDbEntity
  8
DRAFT
100
AcDbCircle
 62
7
  6
CONTINUOUS
 10
-50.6036304638
 20
13.0467358714
 40
43.0136167058
100
AcDbArc
 50
309.561167
 51
309.8489370086
  0
ARC
  5
56E
100
AcDbEntity
  8
DRAFT
100
AcDbCircle
 62
7
  6
CONTINUOUS
 10
-69.5467358801
 20
5.8963695466
 40
43.0136167058
100
AcDbArc
 50
39.5611669819
 51
39.8489369906
  0
ARC
  5
56F
100
AcDbEntity
  8
DRAFT
100
AcDbCircle
 62
7
  6
CONTINUOUS
 10
-60.4066440325
 20
5.7467230168
 40
40.9572888407
100
AcDbArc
 50
50.763097272
 51
51.1830244049
  0
ARC
  5
570
100
AcDbEntity
  8
DRAFT
100
AcDbCircle
 62
7
  6
CONTINUOUS
 10
-50.7532769654
 20
3.9066440532
 40
40.9572888399
100
AcDbArc
 50
320.7630972338
 51
321.1830243667
  0
ARC
  5
571
100
AcDbEntity
  8
DRAFT
100
AcDbCircle
 62
7
  6
CONTINUOUS
 10
-48.1179221274
 20
0.5477002399
 40
33.6243173022
100
AcDbArc
 50
38.5825929391
 51
39.0917801805
  0
ARC
  5
572
100
AcDbEntity
  8
DRAFT
100
AcDbCircle
 62
7
  6
CONTINUOUS
 10
-55.9522997414
 20
8.3820778574
 40
33.6243173023
100
AcDbArc
 50
50.9082198606
 51
51.4174071019
  0
ARC
  5
573
100
AcDbEntity
  8
DRAFT
100
AcDbCircle
 62
7
  6
CONTINUOUS
 10
-61.3545311625
 20
9.5458129796
 40
32.6623810326
100
AcDbArc
 50
39.5313705257
 51
39.8346283951
  0
ARC
  5
574
100
AcDbEntity
  8
DRAFT
100
AcDbCircle
 62
7
  6
CONTINUOUS
 10
-46.9541870262
 20
4.8545311572
 40
32.6623810322
100
AcDbArc
 50
309.5313705395
 51
309.8346284089
  0
ARC
  5
575
100
AcDbEntity
  8
DRAFT
100
AcDbCircle
 62
7
  6
CONTINUOUS
 10
-51.4614187334
 20
30.938959899
 40
26.2343783896
100
AcDbArc
 50
308.3448683737
 51
308.8640832745
  0
ARC
  5
576
100
AcDbEntity
  8
DRAFT
100
AcDbCircle
 62
7
  6
CONTINUOUS
 10
-45.4389598824
 20
5.038581246
 40
26.2343783894
100
AcDbArc
 50
38.3448684315
 51
38.8640833323
  0
ARC
  5
577
100
AcDbEntity
  8
DRAFT
100
AcDbCircle
 62
7
  6
CONTINUOUS
 10
-51.4614187333
 20
11.0610401011
 40
26.2343783895
100
AcDbArc
 50
51.1359167255
 51
51.6551316263
  0
ARC
  5
578
100
AcDbEntity
  8
DRAFT
100
AcDbCircle
 62
7
  6
CONTINUOUS
 10
-61.5
 20
31.0
 40
22.0
100
AcDbArc
 50
90.0
 51
180.0
  0
ARC
  5
579
100
AcDbEntity
  8
RACCORDO
100
AcDbCircle
 62
253
  6
CONTINUOUS
 10
-61.5
 20
31.0
 40
21.9473301725
100
AcDbArc
 50
90.0
 51
180.0
  0
ARC
  5
57A
100
AcDbEntity
  8
RACCORDO
100
AcDbCircle
 62
253
  6
CONTINUOUS
 10
-61.5
 20
31.0
 40
20.9474831759
100
AcDbArc
 50
90.0
 51
180.0
  0
ARC
  5
57B
100
AcDbEntity
  8
DRAFT
100
AcDbCircle
 62
7
  6
CONTINUOUS
 10
-77.8015776769
 20
39.8050369774
 40
53.4463594413
100
AcDbArc
 50
320.1426712718
 51
320.3741639579
  0
ARC
  5
57C
100
AcDbEntity
  8
DRAFT
100
AcDbCircle
 62
7
  6
CONTINUOUS
 10
-69.5467358721
 20
36.1036304625
 40
43.0136167055
100
AcDbArc
 50
320.1510629933
 51
320.4388330019
  0
ARC
  5
57D
100
AcDbEntity
  8
RACCORDO
100
AcDbCircle
 62
7
  6
CONTINUOUS
 10
-69.0125036858
 20
39.2387925
 40
2.0761632206
100
AcDbArc
 50
275.0402594585
 51
277.2258785651
  0
CIRCLE
  5
57E
100
AcDbEntity
  8
0
100
AcDbCircle
 62
7
  6
CONTINUOUS
 10
-69.4999997433
 20
38.9999995153
 40
1.4999997118
  0
ARC
  5
57F
100
AcDbEntity
  8
DRAFT
100
AcDbCircle
 62
7
  6
CONTINUOUS
 10
-68.3537192671
 20
37.8537192671
 40
1.25
100
AcDbArc
 50
57.5251774968
 51
73.6340571161
  0
ARC
  5
580
100
AcDbEntity
  8
DRAFT
100
AcDbCircle
 62
7
  6
CONTINUOUS
 10
-68.3537192671
 20
37.8537192671
 40
1.25
100
AcDbArc
 50
196.4091700274
 51
212.4748225032
  0
ARC
  5
581
100
AcDbEntity
  8
0
100
AcDbCircle
 62
7
  6
CONTINUOUS
 10
-69.5
 20
39.0
 40
1.0
100
AcDbArc
 50
0.0
 51
75.84228485
  0
ARC
  5
582
100
AcDbEntity
  8
0
100
AcDbCircle
 62
7
  6
CONTINUOUS
 10
-69.5
 20
39.0
 40
1.0
100
AcDbArc
 50
127.6774584221
 51
255.84228485
  0
ARC
  5
583
100
AcDbEntity
  8
0
100
AcDbCircle
 62
7
  6
CONTINUOUS
 10
-69.3966617406
 20
39.3617997602
 40
0.8320718012
100
AcDbArc
 50
164.7743839811
 51
169.517352529
  0
ARC
  5
584
100
AcDbEntity
  8
0
100
AcDbCircle
 62
7
  6
CONTINUOUS
 10
-69.4440476799
 20
39.1277602152
 40
0.813765055
100
AcDbArc
 50
150.6304078959
 51
164.4190814713
  0
ARC
  5
585
100
AcDbEntity
  8
RACCORDO
100
AcDbCircle
 62
7
  6
CONTINUOUS
 10
-68.3537192671
 20
37.8537192671
 40
0.7830744955
100
AcDbArc
 50
30.5171132633
 51
239.4828867367
  0
ARC
  5
586
100
AcDbEntity
  8
RACCORDO
100
AcDbCircle
 62
253
  6
CONTINUOUS
 10
-65.2544700764
 20
42.9295530682
 40
0.5000421322
100
AcDbArc
 50
90.0068594194
 51
179.9862690043
  0
ARC
  5
587
100
AcDbEntity
  8
RACCORDO
100
AcDbCircle
 62
253
  6
CONTINUOUS
 10
-73.4295531058
 20
34.7544701136
 40
0.5000420763
100
AcDbArc
 50
90.0137266958
 51
179.9931448445
  0
ARC
  5
588
100
AcDbEntity
  8
RACCORDO
100
AcDbCircle
 62
253
  6
CONTINUOUS
 10
-67.6790944945
 20
38.2513600455
 40
0.4999924971
100
AcDbArc
 50
210.5156282222
 51
315.0013231934
  0
ARC
  5
589
100
AcDbEntity
  8
RACCORDO
100
AcDbCircle
 62
253
  6
CONTINUOUS
 10
-68.751302744
 20
37.1791318714
 40
0.4999428664
100
AcDbArc
 50
314.9941600265
 51
59.4838661131
  0
ARC
  5
58A
100
AcDbEntity
  8
RACCORDO
100
AcDbCircle
 62
253
  6
CONTINUOUS
 10
-68.3537192671
 20
37.8537192671
 40
0.283093534
100
AcDbArc
 50
30.5171132633
 51
239.4828867367
  0
ARC
  5
58B
100
AcDbEntity
  8
0
100
AcDbCircle
 62
7
  6
CONTINUOUS
 10
-79.5
 20
49.0
 40
10.0
100
AcDbArc
 50
90.0
 51
180.0
  0
ARC
  5
58C
100
AcDbEntity
  8
0
100
AcDbCircle
 62
7
  6
CONTINUOUS
 10
-79.5
 20
49.0
 40
7.0
100
AcDbArc
 50
90.0
 51
180.0
  0
ARC
  5
58D
100
AcDbEntity
  8
DRAFT
100
AcDbCircle
 62
7
  6
CONTINUOUS
 10
-60.406644032
 20
36.2532769825
 40
40.9572888398
100
AcDbArc
 50
308.8169755951
 51
309.236902728
  0
ARC
  5
58E
100
AcDbEntity
  8
DRAFT
100
AcDbCircle
 62
7
  6
CONTINUOUS
 10
-50.753276965
 20
45.9066440529
 40
40.9572888393
100
AcDbArc
 50
320.7630972338
 51
321.1830243667
  0
ARC
  5
58F
100
AcDbEntity
  8
DRAFT
100
AcDbCircle
 62
7
  6
CONTINUOUS
 10
-48.1179221176
 20
41.4522997716
 40
33.6243173018
100
AcDbArc
 50
320.9082197938
 51
321.4174070352
  0
ARC
  5
590
100
AcDbEntity
  8
DRAFT
100
AcDbCircle
 62
7
  6
CONTINUOUS
 10
-55.9522997412
 20
33.6179221423
 40
33.6243173019
100
AcDbArc
 50
308.5825928981
 51
309.0917801394
  0
ARC
  5
591
100
AcDbEntity
  8
DRAFT
100
AcDbCircle
 62
7
  6
CONTINUOUS
 10
-61.3545311569
 20
32.4541870282
 40
32.6623810333
100
AcDbArc
 50
320.165371588
 51
320.4686294574
  0
ARC
  5
592
100
AcDbEntity
  8
DRAFT
100
AcDbCircle
 62
7
  6
CONTINUOUS
 10
-46.9541870253
 20
46.8545311561
 40
32.6623810309
100
AcDbArc
 50
309.5313705395
 51
309.8346284089
  0
ARC
  5
593
100
AcDbEntity
  8
DRAFT
100
AcDbCircle
 62
7
  6
CONTINUOUS
 10
-45.4389598754
 20
36.9614187634
 40
26.2343783898
100
AcDbArc
 50
321.1359166421
 51
321.6551315429
  0
ARC
  5
594
100
AcDbEntity
  8
DRAFT
100
AcDbCircle
 62
7
  6
CONTINUOUS
 10
-54.3050369786
 20
63.301577679
 40
53.4463594436
100
AcDbArc
 50
309.6258360417
 51
309.8573287277
  0
ARC
  5
595
100
AcDbEntity
  8
DRAFT
100
AcDbCircle
 62
7
  6
CONTINUOUS
 10
-50.6036304641
 20
55.0467358717
 40
43.0136167062
100
AcDbArc
 50
309.561167
 51
309.8489370086
  0
ARC
  5
596
100
AcDbEntity
  8
DRAFT
100
AcDbCircle
 62
7
  6
CONTINUOUS
 10
-20.3963695293
 20
13.0467358608
 40
43.0136167021
100
AcDbArc
 50
230.1510629752
 51
230.4388329839
  0
ARC
  5
597
100
AcDbEntity
  8
DRAFT
100
AcDbCircle
 62
7
  6
CONTINUOUS
 10
-20.2467230355
 20
3.9066440525
 40
40.9572888387
100
AcDbArc
 50
218.8169756333
 51
219.2369027662
  0
ARC
  5
598
100
AcDbEntity
  8
DRAFT
100
AcDbCircle
 62
7
  6
CONTINUOUS
 10
-22.8820778731
 20
0.5477002403
 40
33.6243173015
100
AcDbArc
 50
140.9082198195
 51
141.4174070609
  0
ARC
  5
599
100
AcDbEntity
  8
DRAFT
100
AcDbCircle
 62
7
  6
CONTINUOUS
 10
-24.0458129655
 20
4.8545311522
 40
32.6623810337
100
AcDbArc
 50
230.1653715743
 51
230.4686294437
  0
ARC
  5
59A
100
AcDbEntity
  8
DRAFT
100
AcDbCircle
 62
7
  6
CONTINUOUS
 10
-19.5385812572
 20
11.0610401079
 40
26.23437839
100
AcDbArc
 50
128.3448683993
 51
128.8640833001
  0
ARC
  5
59B
100
AcDbEntity
  8
DRAFT
100
AcDbCircle
 62
7
  6
CONTINUOUS
 10
-25.5610401178
 20
5.0385812461
 40
26.2343783891
100
AcDbArc
 50
141.1359166676
 51
141.6551315685
  0
CIRCLE
  5
59C
100
AcDbEntity
  8
DRAFT
100
AcDbCircle
 62
7
  6
CONTINUOUS
 10
-35.5
 20
21.0
 40
16.7292250749
  0
ARC
  5
59D
100
AcDbEntity
  8
DRAFT
100
AcDbCircle
 62
7
  6
CONTINUOUS
 10
-35.5
 20
21.0
 40
16.6763269807
100
AcDbArc
 50
177.3645150851
 51
182.6354849149
  0
ARC
  5
59E
100
AcDbEntity
  8
DRAFT
100
AcDbCircle
 62
7
  6
CONTINUOUS
 10
-35.5
 20
21.0
 40
16.6763269807
100
AcDbArc
 50
267.3645150851
 51
272.6354849149
  0
ARC
  5
59F
100
AcDbEntity
  8
DRAFT
100
AcDbCircle
 62
7
  6
CONTINUOUS
 10
-35.5
 20
21.0
 40
16.6763269807
100
AcDbArc
 50
357.3645150851
 51
2.6354849149
  0
ARC
  5
5A0
100
AcDbEntity
  8
DRAFT
100
AcDbCircle
 62
7
  6
CONTINUOUS
 10
-35.5
 20
21.0
 40
16.6763269807
100
AcDbArc
 50
87.3645150851
 51
92.6354849149
  0
ARC
  5
5A1
100
AcDbEntity
  8
DRAFT
100
AcDbCircle
 62
7
  6
CONTINUOUS
 10
-35.5
 20
21.0
 40
16.5
100
AcDbArc
 50
93.4746007931
 51
176.5253992069
  0
ARC
  5
5A2
100
AcDbEntity
  8
DRAFT
100
AcDbCircle
 62
7
  6
CONTINUOUS
 10
-35.5
 20
21.0
 40
16.5
100
AcDbArc
 50
3.4746007931
 51
86.5253992069
  0
ARC
  5
5A3
100
AcDbEntity
  8
DRAFT
100
AcDbCircle
 62
7
  6
CONTINUOUS
 10
-35.5
 20
21.0
 40
16.5
100
AcDbArc
 50
183.4746007931
 51
266.5253992069
  0
ARC
  5
5A4
100
AcDbEntity
  8
DRAFT
100
AcDbCircle
 62
7
  6
CONTINUOUS
 10
-35.5
 20
21.0
 40
16.5
100
AcDbArc
 50
273.4746007931
 51
356.5253992069
  0
ARC
  5
5A5
100
AcDbEntity
  8
DRAFT
100
AcDbCircle
 62
7
  6
CONTINUOUS
 10
-35.5
 20
21.0
 40
15.5
100
AcDbArc
 50
94.7141877419
 51
175.2858122581
  0
ARC
  5
5A6
100
AcDbEntity
  8
DRAFT
100
AcDbCircle
 62
7
  6
CONTINUOUS
 10
-35.5
 20
21.0
 40
15.5
100
AcDbArc
 50
4.7141877419
 51
85.2858122581
  0
ARC
  5
5A7
100
AcDbEntity
  8
DRAFT
100
AcDbCircle
 62
7
  6
CONTINUOUS
 10
-35.5
 20
21.0
 40
15.5
100
AcDbArc
 50
184.7141877419
 51
265.2858122581
  0
ARC
  5
5A8
100
AcDbEntity
  8
DRAFT
100
AcDbCircle
 62
7
  6
CONTINUOUS
 10
-35.5
 20
21.0
 40
15.5
100
AcDbArc
 50
274.7141877419
 51
355.2858122581
  0
ARC
  5
5A9
100
AcDbEntity
  8
DRAFT
100
AcDbCircle
 62
7
  6
CONTINUOUS
 10
-35.5
 20
21.0
 40
15.3236730193
100
AcDbArc
 50
94.2507573531
 51
175.7492426469
  0
ARC
  5
5AA
100
AcDbEntity
  8
DRAFT
100
AcDbCircle
 62
7
  6
CONTINUOUS
 10
-35.5
 20
21.0
 40
15.3236730193
100
AcDbArc
 50
184.2507573531
 51
265.7492426469
  0
ARC
  5
5AB
100
AcDbEntity
  8
DRAFT
100
AcDbCircle
 62
7
  6
CONTINUOUS
 10
-35.5
 20
21.0
 40
15.3236730193
100
AcDbArc
 50
274.2507573531
 51
355.7492426469
  0
ARC
  5
5AC
100
AcDbEntity
  8
DRAFT
100
AcDbCircle
 62
7
  6
CONTINUOUS
 10
-35.5
 20
21.0
 40
15.3236730193
100
AcDbArc
 50
4.2507573531
 51
85.7492426469
  0
ARC
  5
5AD
100
AcDbEntity
  8
DRAFT
100
AcDbCircle
 62
7
  6
CONTINUOUS
 10
-35.5
 20
21.0
 40
13.6763269807
100
AcDbArc
 50
272.1674546178
 51
357.8325453822
  0
ARC
  5
5AE
100
AcDbEntity
  8
DRAFT
100
AcDbCircle
 62
7
  6
CONTINUOUS
 10
-35.5
 20
21.0
 40
13.6763269807
100
AcDbArc
 50
182.1674546178
 51
267.8325453822
  0
ARC
  5
5AF
100
AcDbEntity
  8
DRAFT
100
AcDbCircle
 62
7
  6
CONTINUOUS
 10
-35.5
 20
21.0
 40
13.6763269807
100
AcDbArc
 50
2.1674546178
 51
87.8325453822
  0
ARC
  5
5B0
100
AcDbEntity
  8
DRAFT
100
AcDbCircle
 62
7
  6
CONTINUOUS
 10
-35.5
 20
21.0
 40
13.6763269807
100
AcDbArc
 50
92.1674546178
 51
177.8325453822
  0
ARC
  5
5B1
100
AcDbEntity
  8
DRAFT
100
AcDbCircle
 62
7
  6
CONTINUOUS
 10
-35.5
 20
21.0
 40
13.5
100
AcDbArc
 50
93.1847385367
 51
176.8152614633
  0
ARC
  5
5B2
100
AcDbEntity
  8
DRAFT
100
AcDbCircle
 62
7
  6
CONTINUOUS
 10
-35.5
 20
21.0
 40
13.5
100
AcDbArc
 50
3.1847385367
 51
86.8152614633
  0
ARC
  5
5B3
100
AcDbEntity
  8
DRAFT
100
AcDbCircle
 62
7
  6
CONTINUOUS
 10
-35.5
 20
21.0
 40
13.5
100
AcDbArc
 50
183.1847385367
 51
266.8152614633
  0
ARC
  5
5B4
100
AcDbEntity
  8
DRAFT
100
AcDbCircle
 62
7
  6
CONTINUOUS
 10
-35.5
 20
21.0
 40
13.5
100
AcDbArc
 50
273.1847385367
 51
356.8152614633
  0
ARC
  5
5B5
100
AcDbEntity
  8
DRAFT
100
AcDbCircle
 62
7
  6
CONTINUOUS
 10
-35.5
 20
21.0
 40
12.5
100
AcDbArc
 50
94.6971495355
 51
175.3028504645
  0
ARC
  5
5B6
100
AcDbEntity
  8
DRAFT
100
AcDbCircle
 62
7
  6
CONTINUOUS
 10
-35.5
 20
21.0
 40
12.5
100
AcDbArc
 50
4.6971495355
 51
85.3028504645
  0
ARC
  5
5B7
100
AcDbEntity
  8
DRAFT
100
AcDbCircle
 62
7
  6
CONTINUOUS
 10
-35.5
 20
21.0
 40
12.5
100
AcDbArc
 50
184.6971495355
 51
265.3028504645
  0
ARC
  5
5B8
100
AcDbEntity
  8
DRAFT
100
AcDbCircle
 62
7
  6
CONTINUOUS
 10
-35.5
 20
21.0
 40
12.5
100
AcDbArc
 50
274.6971495355
 51
355.3028504645
  0
ARC
  5
5B9
100
AcDbEntity
  8
DRAFT
100
AcDbCircle
 62
7
  6
CONTINUOUS
 10
-35.5
 20
21.0
 40
12.3236730193
100
AcDbArc
 50
274.1209209803
 51
355.8790790197
  0
ARC
  5
5BA
100
AcDbEntity
  8
DRAFT
100
AcDbCircle
 62
7
  6
CONTINUOUS
 10
-35.5
 20
21.0
 40
12.3236730193
100
AcDbArc
 50
184.1209209803
 51
265.8790790197
  0
ARC
  5
5BB
100
AcDbEntity
  8
DRAFT
100
AcDbCircle
 62
7
  6
CONTINUOUS
 10
-35.5
 20
21.0
 40
12.3236730193
100
AcDbArc
 50
4.1209209803
 51
85.8790790197
  0
ARC
  5
5BC
100
AcDbEntity
  8
DRAFT
100
AcDbCircle
 62
7
  6
CONTINUOUS
 10
-35.5
 20
21.0
 40
12.3236730193
100
AcDbArc
 50
94.1209209803
 51
175.8790790197
  0
CIRCLE
  5
5BD
100
AcDbEntity
  8
DRAFT
100
AcDbCircle
 62
7
  6
CONTINUOUS
 10
-35.5
 20
21.0
 40
10.6763269807
  0
ARC
  5
5BE
100
AcDbEntity
  8
DRAFT
100
AcDbCircle
 62
7
  6
CONTINUOUS
 10
-35.5
 20
21.0
 40
10.6410615846
100
AcDbArc
 50
178.3078846415
 51
181.6921153585
  0
ARC
  5
5BF
100
AcDbEntity
  8
DRAFT
100
AcDbCircle
 62
7
  6
CONTINUOUS
 10
-35.5
 20
21.0
 40
10.6410615846
100
AcDbArc
 50
268.3078846415
 51
271.6921153585
  0
ARC
  5
5C0
100
AcDbEntity
  8
DRAFT
100
AcDbCircle
 62
7
  6
CONTINUOUS
 10
-35.5
 20
21.0
 40
10.6410615846
100
AcDbArc
 50
358.3078846415
 51
1.6921153585
  0
ARC
  5
5C1
100
AcDbEntity
  8
DRAFT
100
AcDbCircle
 62
7
  6
CONTINUOUS
 10
-35.5
 20
21.0
 40
10.6410615846
100
AcDbArc
 50
88.3078846415
 51
91.6921153585
  0
ARC
  5
5C2
100
AcDbEntity
  8
DRAFT
100
AcDbCircle
 62
7
  6
CONTINUOUS
 10
-35.5
 20
21.0
 40
10.5
100
AcDbArc
 50
92.7294026368
 51
177.2705973632
  0
ARC
  5
5C3
100
AcDbEntity
  8
DRAFT
100
AcDbCircle
 62
7
  6
CONTINUOUS
 10
-35.5
 20
21.0
 40
10.5
100
AcDbArc
 50
2.7294026368
 51
87.2705973632
  0
ARC
  5
5C4
100
AcDbEntity
  8
DRAFT
100
AcDbCircle
 62
7
  6
CONTINUOUS
 10
-35.5
 20
21.0
 40
10.5
100
AcDbArc
 50
182.7294026368
 51
267.2705973632
  0
ARC
  5
5C5
100
AcDbEntity
  8
DRAFT
100
AcDbCircle
 62
7
  6
CONTINUOUS
 10
-35.5
 20
21.0
 40
10.5
100
AcDbArc
 50
272.7294026368
 51
357.2705973632
  0
ARC
  5
5C6
100
AcDbEntity
  8
DRAFT
100
AcDbCircle
 62
7
  6
CONTINUOUS
 10
-35.5
 20
21.0
 40
9.5
100
AcDbArc
 50
94.668453194
 51
175.331546806
  0
ARC
  5
5C7
100
AcDbEntity
  8
DRAFT
100
AcDbCircle
 62
7
  6
CONTINUOUS
 10
-35.5
 20
21.0
 40
9.5
100
AcDbArc
 50
4.668453194
 51
85.331546806
  0
ARC
  5
5C8
100
AcDbEntity
  8
DRAFT
100
AcDbCircle
 62
7
  6
CONTINUOUS
 10
-35.5
 20
21.0
 40
9.5
100
AcDbArc
 50
184.668453194
 51
265.331546806
  0
ARC
  5
5C9
100
AcDbEntity
  8
DRAFT
100
AcDbCircle
 62
7
  6
CONTINUOUS
 10
-35.5
 20
21.0
 40
9.5
100
AcDbArc
 50
274.668453194
 51
355.331546806
  0
ARC
  5
5CA
100
AcDbEntity
  8
DRAFT
100
AcDbCircle
 62
7
  6
CONTINUOUS
 10
-35.5
 20
21.0
 40
9.3589384154
100
AcDbArc
 50
94.0611725955
 51
175.9388274045
  0
ARC
  5
5CB
100
AcDbEntity
  8
DRAFT
100
AcDbCircle
 62
7
  6
CONTINUOUS
 10
-35.5
 20
21.0
 40
9.3589384154
100
AcDbArc
 50
184.0611725955
 51
265.9388274045
  0
ARC
  5
5CC
100
AcDbEntity
  8
DRAFT
100
AcDbCircle
 62
7
  6
CONTINUOUS
 10
-35.5
 20
21.0
 40
9.3589384154
100
AcDbArc
 50
274.0611725955
 51
355.9388274045
  0
ARC
  5
5CD
100
AcDbEntity
  8
DRAFT
100
AcDbCircle
 62
7
  6
CONTINUOUS
 10
-35.5
 20
21.0
 40
9.3589384154
100
AcDbArc
 50
4.0611725955
 51
85.9388274045
  0
ARC
  5
5CE
100
AcDbEntity
  8
DRAFT
100
AcDbCircle
 62
7
  6
CONTINUOUS
 10
-19.5385812576
 20
30.9389598915
 40
26.2343783893
100
AcDbArc
 50
231.1359166999
 51
231.6551316007
  0
ARC
  5
5CF
100
AcDbEntity
  8
DRAFT
100
AcDbCircle
 62
7
  6
CONTINUOUS
 10
-6.8015776828
 20
2.1949630332
 40
53.446359439
100
AcDbArc
 50
39.6258360293
 51
39.8573287154
  0
ARC
  5
5D0
100
AcDbEntity
  8
DRAFT
100
AcDbCircle
 62
7
  6
CONTINUOUS
 10
-1.4532641205
 20
5.8963695471
 40
43.013616705
100
AcDbArc
 50
140.1510630094
 51
140.4388330181
  0
ARC
  5
5D1
100
AcDbEntity
  8
DRAFT
100
AcDbCircle
 62
7
  6
CONTINUOUS
 10
-10.5933559561
 20
5.7467230274
 40
40.9572888397
100
AcDbArc
 50
128.8169756169
 51
129.2369027498
  0
ARC
  5
5D2
100
AcDbEntity
  8
DRAFT
100
AcDbCircle
 62
7
  6
CONTINUOUS
 10
-15.0477002478
 20
8.382077868
 40
33.6243173008
100
AcDbArc
 50
128.5825929237
 51
129.0917801651
  0
ARC
  5
5D3
100
AcDbEntity
  8
DRAFT
100
AcDbCircle
 62
7
  6
CONTINUOUS
 10
-9.6454688369
 20
9.5458129791
 40
32.6623810333
100
AcDbArc
 50
140.1653716049
 51
140.4686294743
  0
ARC
  5
5D4
100
AcDbEntity
  8
DRAFT
100
AcDbCircle
 62
7
  6
CONTINUOUS
 10
-16.694963014
 20
21.3015776692
 40
53.4463594408
100
AcDbArc
 50
230.1426712595
 51
230.3741639455
  0
ARC
  5
5D5
100
AcDbEntity
  8
DRAFT
100
AcDbCircle
 62
7
  6
CONTINUOUS
 10
-6.8015776765
 20
39.8050369771
 40
53.4463594407
100
AcDbArc
 50
320.1426712718
 51
320.3741639579
  0
ARC
  5
5D6
100
AcDbEntity
  8
DRAFT
100
AcDbCircle
 62
7
  6
CONTINUOUS
 10
-16.6949630152
 20
63.3015776678
 40
53.446359439
100
AcDbArc
 50
230.1426712595
 51
230.3741639455
  0
ARC
  5
5D7
100
AcDbEntity
  8
DRAFT
100
AcDbCircle
 62
7
  6
CONTINUOUS
 10
-20.3963695271
 20
55.0467358634
 40
43.0136167054
100
AcDbArc
 50
230.1510629753
 51
230.4388329839
  0
ARC
  5
5D8
100
AcDbEntity
  8
DRAFT
100
AcDbCircle
 62
7
  6
CONTINUOUS
 10
-1.453264129
 20
36.1036304616
 40
43.0136167041
100
AcDbArc
 50
219.5611669981
 51
219.8489370067
  0
ARC
  5
5D9
100
AcDbEntity
  8
DRAFT
100
AcDbCircle
 62
7
  6
CONTINUOUS
 10
-20.2467230349
 20
45.9066440529
 40
40.9572888395
100
AcDbArc
 50
218.8169756333
 51
219.2369027662
  0
ARC
  5
5DA
100
AcDbEntity
  8
DRAFT
100
AcDbCircle
 62
7
  6
CONTINUOUS
 10
-10.5933559562
 20
36.2532769725
 40
40.9572888395
100
AcDbArc
 50
230.7630972502
 51
231.1830243831
  0
ARC
  5
5DB
100
AcDbEntity
  8
DRAFT
100
AcDbCircle
 62
7
  6
CONTINUOUS
 10
-22.8820778826
 20
41.4522997715
 40
33.6243173015
100
AcDbArc
 50
218.5825929648
 51
219.0917802062
  0
ARC
  5
5DC
100
AcDbEntity
  8
DRAFT
100
AcDbCircle
 62
7
  6
CONTINUOUS
 10
-15.0477002472
 20
33.6179221327
 40
33.6243173017
100
AcDbArc
 50
230.9082198349
 51
231.4174070763
  0
ARC
  5
5DD
100
AcDbEntity
  8
DRAFT
100
AcDbCircle
 62
7
  6
CONTINUOUS
 10
-9.6454688431
 20
32.4541870282
 40
32.6623810333
100
AcDbArc
 50
219.5313705426
 51
219.834628412
  0
ARC
  5
5DE
100
AcDbEntity
  8
DRAFT
100
AcDbCircle
 62
7
  6
CONTINUOUS
 10
-24.0458129662
 20
46.8545311514
 40
32.6623810326
100
AcDbArc
 50
230.1653715743
 51
230.4686294437
  0
ARC
  5
5DF
100
AcDbEntity
  8
DRAFT
100
AcDbCircle
 62
7
  6
CONTINUOUS
 10
-25.5610401254
 20
36.9614187627
 40
26.2343783887
100
AcDbArc
 50
218.3448684571
 51
218.8640833579
  0
ARC
  5
5E0
100
AcDbEntity
  8
DRAFT
100
AcDbCircle
 62
7
  6
CONTINUOUS
 10
6.801577684
 20
-39.8050369677
 40
53.4463594405
100
AcDbArc
 50
140.1426712846
 51
140.3741639707
  0
ARC
  5
5E1
100
AcDbEntity
  8
DRAFT
100
AcDbCircle
 62
7
  6
CONTINUOUS
 10
16.6949630238
 20
-63.3015776761
 40
53.4463594398
100
AcDbArc
 50
50.1426712723
 51
50.3741639583
  0
ARC
  5
5E2
100
AcDbEntity
  8
DRAFT
100
AcDbCircle
 62
7
  6
CONTINUOUS
 10
20.3963695348
 20
-55.0467358731
 40
43.013616708
100
AcDbArc
 50
50.1510629914
 51
50.438833
  0
ARC
  5
5E3
100
AcDbEntity
  8
DRAFT
100
AcDbCircle
 62
7
  6
CONTINUOUS
 10
1.453264121
 20
-36.1036304525
 40
43.0136167044
100
AcDbArc
 50
39.5611669819
 51
39.8489369906
  0
ARC
  5
5E4
100
AcDbEntity
  8
DRAFT
100
AcDbCircle
 62
7
  6
CONTINUOUS
 10
10.5933559681
 20
-36.2532769825
 40
40.9572888397
100
AcDbArc
 50
50.763097272
 51
51.1830244049
  0
ARC
  5
5E5
100
AcDbEntity
  8
DRAFT
100
AcDbCircle
 62
7
  6
CONTINUOUS
 10
20.2467230255
 20
-45.9066440405
 40
40.9572888389
100
AcDbArc
 50
38.8169756115
 51
39.2369027444
  0
ARC
  5
5E6
100
AcDbEntity
  8
DRAFT
100
AcDbCircle
 62
7
  6
CONTINUOUS
 10
22.882077873
 20
-41.4522997598
 40
33.6243173017
100
AcDbArc
 50
38.5825929391
 51
39.0917801805
  0
ARC
  5
5E7
100
AcDbEntity
  8
DRAFT
100
AcDbCircle
 62
7
  6
CONTINUOUS
 10
15.0477002589
 20
-33.6179221421
 40
33.6243173017
100
AcDbArc
 50
50.9082198606
 51
51.417407102
  0
ARC
  5
5E8
100
AcDbEntity
  8
DRAFT
100
AcDbCircle
 62
7
  6
CONTINUOUS
 10
9.6454688374
 20
-32.4541870205
 40
32.6623810328
100
AcDbArc
 50
39.5313705257
 51
39.8346283951
  0
ARC
  5
5E9
100
AcDbEntity
  8
DRAFT
100
AcDbCircle
 62
7
  6
CONTINUOUS
 10
24.045812974
 20
-46.854531157
 40
32.662381032
100
AcDbArc
 50
50.1653715911
 51
50.4686294605
  0
ARC
  5
5EA
100
AcDbEntity
  8
DRAFT
100
AcDbCircle
 62
7
  6
CONTINUOUS
 10
25.5610401179
 20
-36.9614187538
 40
26.234378389
100
AcDbArc
 50
38.3448684315
 51
38.8640833324
  0
ARC
  5
5EB
100
AcDbEntity
  8
DRAFT
100
AcDbCircle
 62
7
  6
CONTINUOUS
 10
16.6949630202
 20
-21.3015776805
 40
53.4463594455
100
AcDbArc
 50
50.1426712723
 51
50.3741639583
  0
ARC
  5
5EC
100
AcDbEntity
  8
DRAFT
100
AcDbCircle
 62
7
  6
CONTINUOUS
 10
6.801577681
 20
-2.1949630192
 40
53.4463594465
100
AcDbArc
 50
219.6258360421
 51
219.8573287282
  0
ARC
  5
5ED
100
AcDbEntity
  8
DRAFT
100
AcDbCircle
 62
7
  6
CONTINUOUS
 10
1.4532641283
 20
-5.8963695378
 40
43.013616705
100
AcDbArc
 50
320.1510629933
 51
320.4388330019
  0
ARC
  5
5EE
100
AcDbEntity
  8
DRAFT
100
AcDbCircle
 62
7
  6
CONTINUOUS
 10
10.5933559686
 20
-5.7467230182
 40
40.9572888389
100
AcDbArc
 50
308.8169755951
 51
309.236902728
  0
ARC
  5
5EF
100
AcDbEntity
  8
DRAFT
100
AcDbCircle
 62
7
  6
CONTINUOUS
 10
15.0477002594
 20
-8.3820778585
 40
33.624317301
100
AcDbArc
 50
308.582592898
 51
309.0917801395
  0
ARC
  5
5F0
100
AcDbEntity
  8
DRAFT
100
AcDbCircle
 62
7
  6
CONTINUOUS
 10
9.6454688433
 20
-9.5458129719
 40
32.6623810331
100
AcDbArc
 50
320.165371588
 51
320.4686294574
  0
ARC
  5
5F1
100
AcDbEntity
  8
DRAFT
100
AcDbCircle
 62
7
  6
CONTINUOUS
 10
19.5385812667
 20
-30.9389598988
 40
26.2343783893
100
AcDbArc
 50
51.1359167255
 51
51.6551316263
  0
CIRCLE
  5
5F2
100
AcDbEntity
  8
DRAFT
100
AcDbCircle
 62
7
  6
CONTINUOUS
 10
35.5
 20
-21.0
 40
16.7292250749
  0
ARC
  5
5F3
100
AcDbEntity
  8
DRAFT
100
AcDbCircle
 62
7
  6
CONTINUOUS
 10
35.5
 20
-21.0
 40
16.6763269807
100
AcDbArc
 50
177.3645150851
 51
182.6354849149
  0
ARC
  5
5F4
100
AcDbEntity
  8
DRAFT
100
AcDbCircle
 62
7
  6
CONTINUOUS
 10
35.5
 20
-21.0
 40
16.6763269807
100
AcDbArc
 50
267.3645150851
 51
272.6354849149
  0
ARC
  5
5F5
100
AcDbEntity
  8
DRAFT
100
AcDbCircle
 62
7
  6
CONTINUOUS
 10
35.5
 20
-21.0
 40
16.6763269807
100
AcDbArc
 50
357.3645150851
 51
2.6354849149
  0
ARC
  5
5F6
100
AcDbEntity
  8
DRAFT
100
AcDbCircle
 62
7
  6
CONTINUOUS
 10
35.5
 20
-21.0
 40
16.6763269807
100
AcDbArc
 50
87.3645150851
 51
92.6354849149
  0
ARC
  5
5F7
100
AcDbEntity
  8
DRAFT
100
AcDbCircle
 62
7
  6
CONTINUOUS
 10
35.5
 20
-21.0
 40
16.5
100
AcDbArc
 50
93.4746007931
 51
176.5253992069
  0
ARC
  5
5F8
100
AcDbEntity
  8
DRAFT
100
AcDbCircle
 62
7
  6
CONTINUOUS
 10
35.5
 20
-21.0
 40
16.5
100
AcDbArc
 50
3.4746007931
 51
86.5253992069
  0
ARC
  5
5F9
100
AcDbEntity
  8
DRAFT
100
AcDbCircle
 62
7
  6
CONTINUOUS
 10
35.5
 20
-21.0
 40
16.5
100
AcDbArc
 50
183.4746007931
 51
266.5253992069
  0
ARC
  5
5FA
100
AcDbEntity
  8
DRAFT
100
AcDbCircle
 62
7
  6
CONTINUOUS
 10
35.5
 20
-21.0
 40
16.5
100
AcDbArc
 50
273.4746007931
 51
356.5253992069
  0
ARC
  5
5FB
100
AcDbEntity
  8
DRAFT
100
AcDbCircle
 62
7
  6
CONTINUOUS
 10
35.5
 20
-21.0
 40
15.5
100
AcDbArc
 50
94.7141877419
 51
175.2858122581
  0
ARC
  5
5FC
100
AcDbEntity
  8
DRAFT
100
AcDbCircle
 62
7
  6
CONTINUOUS
 10
35.5
 20
-21.0
 40
15.5
100
AcDbArc
 50
4.7141877419
 51
85.2858122581
  0
ARC
  5
5FD
100
AcDbEntity
  8
DRAFT
100
AcDbCircle
 62
7
  6
CONTINUOUS
 10
35.5
 20
-21.0
 40
15.5
100
AcDbArc
 50
184.7141877419
 51
265.2858122581
  0
ARC
  5
5FE
100
AcDbEntity
  8
DRAFT
100
AcDbCircle
 62
7
  6
CONTINUOUS
 10
35.5
 20
-21.0
 40
15.5
100
AcDbArc
 50
274.7141877419
 51
355.2858122581
  0
ARC
  5
5FF
100
AcDbEntity
  8
DRAFT
100
AcDbCircle
 62
7
  6
CONTINUOUS
 10
35.5
 20
-21.0
 40
15.3236730193
100
AcDbArc
 50
94.2507573531
 51
175.7492426469
  0
ARC
  5
600
100
AcDbEntity
  8
DRAFT
100
AcDbCircle
 62
7
  6
CONTINUOUS
 10
35.5
 20
-21.0
 40
15.3236730193
100
AcDbArc
 50
184.2507573531
 51
265.7492426469
  0
ARC
  5
601
100
AcDbEntity
  8
DRAFT
100
AcDbCircle
 62
7
  6
CONTINUOUS
 10
35.5
 20
-21.0
 40
15.3236730193
100
AcDbArc
 50
274.2507573531
 51
355.7492426469
  0
ARC
  5
602
100
AcDbEntity
  8
DRAFT
100
AcDbCircle
 62
7
  6
CONTINUOUS
 10
35.5
 20
-21.0
 40
15.3236730193
100
AcDbArc
 50
4.2507573531
 51
85.7492426469
  0
ARC
  5
603
100
AcDbEntity
  8
DRAFT
100
AcDbCircle
 62
7
  6
CONTINUOUS
 10
35.5
 20
-21.0
 40
13.6763269807
100
AcDbArc
 50
272.1674546178
 51
357.8325453822
  0
ARC
  5
604
100
AcDbEntity
  8
DRAFT
100
AcDbCircle
 62
7
  6
CONTINUOUS
 10
35.5
 20
-21.0
 40
13.6763269807
100
AcDbArc
 50
182.1674546178
 51
267.8325453822
  0
ARC
  5
605
100
AcDbEntity
  8
DRAFT
100
AcDbCircle
 62
7
  6
CONTINUOUS
 10
35.5
 20
-21.0
 40
13.6763269807
100
AcDbArc
 50
2.1674546178
 51
87.8325453822
  0
ARC
  5
606
100
AcDbEntity
  8
DRAFT
100
AcDbCircle
 62
7
  6
CONTINUOUS
 10
35.5
 20
-21.0
 40
13.6763269807
100
AcDbArc
 50
92.1674546178
 51
177.8325453822
  0
ARC
  5
607
100
AcDbEntity
  8
DRAFT
100
AcDbCircle
 62
7
  6
CONTINUOUS
 10
35.5
 20
-21.0
 40
13.5
100
AcDbArc
 50
93.1847385367
 51
176.8152614633
  0
ARC
  5
608
100
AcDbEntity
  8
DRAFT
100
AcDbCircle
 62
7
  6
CONTINUOUS
 10
35.5
 20
-21.0
 40
13.5
100
AcDbArc
 50
3.1847385367
 51
86.8152614633
  0
ARC
  5
609
100
AcDbEntity
  8
DRAFT
100
AcDbCircle
 62
7
  6
CONTINUOUS
 10
35.5
 20
-21.0
 40
13.5
100
AcDbArc
 50
183.1847385367
 51
266.8152614633
  0
ARC
  5
60A
100
AcDbEntity
  8
DRAFT
100
AcDbCircle
 62
7
  6
CONTINUOUS
 10
35.5
 20
-21.0
 40
13.5
100
AcDbArc
 50
273.1847385367
 51
356.8152614633
  0
ARC
  5
60B
100
AcDbEntity
  8
DRAFT
100
AcDbCircle
 62
7
  6
CONTINUOUS
 10
35.5
 20
-21.0
 40
12.5
100
AcDbArc
 50
94.6971495355
 51
175.3028504645
  0
ARC
  5
60C
100
AcDbEntity
  8
DRAFT
100
AcDbCircle
 62
7
  6
CONTINUOUS
 10
35.5
 20
-21.0
 40
12.5
100
AcDbArc
 50
4.6971495355
 51
85.3028504645
  0
ARC
  5
60D
100
AcDbEntity
  8
DRAFT
100
AcDbCircle
 62
7
  6
CONTINUOUS
 10
35.5
 20
-21.0
 40
12.5
100
AcDbArc
 50
184.6971495355
 51
265.3028504645
  0
ARC
  5
60E
100
AcDbEntity
  8
DRAFT
100
AcDbCircle
 62
7
  6
CONTINUOUS
 10
35.5
 20
-21.0
 40
12.5
100
AcDbArc
 50
274.6971495355
 51
355.3028504645
  0
ARC
  5
60F
100
AcDbEntity
  8
DRAFT
100
AcDbCircle
 62
7
  6
CONTINUOUS
 10
35.5
 20
-21.0
 40
12.3236730193
100
AcDbArc
 50
274.1209209803
 51
355.8790790197
  0
ARC
  5
610
100
AcDbEntity
  8
DRAFT
100
AcDbCircle
 62
7
  6
CONTINUOUS
 10
35.5
 20
-21.0
 40
12.3236730193
100
AcDbArc
 50
184.1209209803
 51
265.8790790197
  0
ARC
  5
611
100
AcDbEntity
  8
DRAFT
100
AcDbCircle
 62
7
  6
CONTINUOUS
 10
35.5
 20
-21.0
 40
12.3236730193
100
AcDbArc
 50
4.1209209803
 51
85.8790790197
  0
ARC
  5
612
100
AcDbEntity
  8
DRAFT
100
AcDbCircle
 62
7
  6
CONTINUOUS
 10
35.5
 20
-21.0
 40
12.3236730193
100
AcDbArc
 50
94.1209209803
 51
175.8790790197
  0
CIRCLE
  5
613
100
AcDbEntity
  8
DRAFT
100
AcDbCircle
 62
7
  6
CONTINUOUS
 10
35.5
 20
-21.0
 40
10.6763269807
  0
ARC
  5
614
100
AcDbEntity
  8
DRAFT
100
AcDbCircle
 62
7
  6
CONTINUOUS
 10
35.5
 20
-21.0
 40
10.6410615846
100
AcDbArc
 50
178.3078846415
 51
181.6921153585
  0
ARC
  5
615
100
AcDbEntity
  8
DRAFT
100
AcDbCircle
 62
7
  6
CONTINUOUS
 10
35.5
 20
-21.0
 40
10.6410615846
100
AcDbArc
 50
268.3078846415
 51
271.6921153585
  0
ARC
  5
616
100
AcDbEntity
  8
DRAFT
100
AcDbCircle
 62
7
  6
CONTINUOUS
 10
35.5
 20
-21.0
 40
10.6410615846
100
AcDbArc
 50
358.3078846415
 51
1.6921153585
  0
ARC
  5
617
100
AcDbEntity
  8
DRAFT
100
AcDbCircle
 62
7
  6
CONTINUOUS
 10
35.5
 20
-21.0
 40
10.6410615846
100
AcDbArc
 50
88.3078846415
 51
91.6921153585
  0
ARC
  5
618
100
AcDbEntity
  8
DRAFT
100
AcDbCircle
 62
7
  6
CONTINUOUS
 10
35.5
 20
-21.0
 40
10.5
100
AcDbArc
 50
92.7294026368
 51
177.2705973632
  0
ARC
  5
619
100
AcDbEntity
  8
DRAFT
100
AcDbCircle
 62
7
  6
CONTINUOUS
 10
35.5
 20
-21.0
 40
10.5
100
AcDbArc
 50
2.7294026368
 51
87.2705973632
  0
ARC
  5
61A
100
AcDbEntity
  8
DRAFT
100
AcDbCircle
 62
7
  6
CONTINUOUS
 10
35.5
 20
-21.0
 40
10.5
100
AcDbArc
 50
182.7294026368
 51
267.2705973632
  0
ARC
  5
61B
100
AcDbEntity
  8
DRAFT
100
AcDbCircle
 62
7
  6
CONTINUOUS
 10
35.5
 20
-21.0
 40
10.5
100
AcDbArc
 50
272.7294026368
 51
357.2705973632
  0
ARC
  5
61C
100
AcDbEntity
  8
DRAFT
100
AcDbCircle
 62
7
  6
CONTINUOUS
 10
35.5
 20
-21.0
 40
9.5
100
AcDbArc
 50
94.668453194
 51
175.331546806
  0
ARC
  5
61D
100
AcDbEntity
  8
DRAFT
100
AcDbCircle
 62
7
  6
CONTINUOUS
 10
35.5
 20
-21.0
 40
9.5
100
AcDbArc
 50
4.668453194
 51
85.331546806
  0
ARC
  5
61E
100
AcDbEntity
  8
DRAFT
100
AcDbCircle
 62
7
  6
CONTINUOUS
 10
35.5
 20
-21.0
 40
9.5
100
AcDbArc
 50
184.668453194
 51
265.331546806
  0
ARC
  5
61F
100
AcDbEntity
  8
DRAFT
100
AcDbCircle
 62
7
  6
CONTINUOUS
 10
35.5
 20
-21.0
 40
9.5
100
AcDbArc
 50
274.668453194
 51
355.331546806
  0
ARC
  5
620
100
AcDbEntity
  8
DRAFT
100
AcDbCircle
 62
7
  6
CONTINUOUS
 10
35.5
 20
-21.0
 40
9.3589384154
100
AcDbArc
 50
94.0611725955
 51
175.9388274045
  0
ARC
  5
621
100
AcDbEntity
  8
DRAFT
100
AcDbCircle
 62
7
  6
CONTINUOUS
 10
35.5
 20
-21.0
 40
9.3589384154
100
AcDbArc
 50
184.0611725955
 51
265.9388274045
  0
ARC
  5
622
100
AcDbEntity
  8
DRAFT
100
AcDbCircle
 62
7
  6
CONTINUOUS
 10
35.5
 20
-21.0
 40
9.3589384154
100
AcDbArc
 50
274.0611725955
 51
355.9388274045
  0
ARC
  5
623
100
AcDbEntity
  8
DRAFT
100
AcDbCircle
 62
7
  6
CONTINUOUS
 10
35.5
 20
-21.0
 40
9.3589384154
100
AcDbArc
 50
4.0611725955
 51
85.9388274045
  0
ARC
  5
624
100
AcDbEntity
  8
DRAFT
100
AcDbCircle
 62
7
  6
CONTINUOUS
 10
20.3963695354
 20
-13.0467358723
 40
43.013616707
100
AcDbArc
 50
50.1510629914
 51
50.438833
  0
ARC
  5
625
100
AcDbEntity
  8
DRAFT
100
AcDbCircle
 62
7
  6
CONTINUOUS
 10
20.2467230259
 20
-3.9066440403
 40
40.9572888385
100
AcDbArc
 50
38.8169756115
 51
39.2369027444
  0
ARC
  5
626
100
AcDbEntity
  8
DRAFT
100
AcDbCircle
 62
7
  6
CONTINUOUS
 10
22.8820778829
 20
-0.5477002288
 40
33.6243173011
100
AcDbArc
 50
320.9082197938
 51
321.4174070352
  0
ARC
  5
627
100
AcDbEntity
  8
DRAFT
100
AcDbCircle
 62
7
  6
CONTINUOUS
 10
24.0458129735
 20
-4.8545311575
 40
32.6623810327
100
AcDbArc
 50
50.1653715911
 51
50.4686294605
  0
ARC
  5
628
100
AcDbEntity
  8
DRAFT
100
AcDbCircle
 62
7
  6
CONTINUOUS
 10
19.5385812661
 20
-11.0610401004
 40
26.2343783903
100
AcDbArc
 50
308.3448683737
 51
308.8640832745
  0
ARC
  5
629
100
AcDbEntity
  8
DRAFT
100
AcDbCircle
 62
7
  6
CONTINUOUS
 10
25.561040125
 20
-5.038581237
 40
26.2343783892
100
AcDbArc
 50
321.1359166421
 51
321.6551315429
  0
ARC
  5
62A
100
AcDbEntity
  8
DRAFT
100
AcDbCircle
 62
7
  6
CONTINUOUS
 10
54.3050369874
 20
-63.3015776709
 40
53.446359443
100
AcDbArc
 50
129.6258360545
 51
129.8573287405
  0
ARC
  5
62B
100
AcDbEntity
  8
DRAFT
100
AcDbCircle
 62
7
  6
CONTINUOUS
 10
50.6036304733
 20
-55.0467358639
 40
43.0136167061
100
AcDbArc
 50
129.5611670161
 51
129.8489370247
  0
ARC
  5
62C
100
AcDbEntity
  8
DRAFT
100
AcDbCircle
 62
7
  6
CONTINUOUS
 10
50.7532769751
 20
-45.906644041
 40
40.9572888397
100
AcDbArc
 50
140.7630972556
 51
141.1830243884
  0
ARC
  5
62D
100
AcDbEntity
  8
DRAFT
100
AcDbCircle
 62
7
  6
CONTINUOUS
 10
60.4066440437
 20
-36.2532769723
 40
40.9572888393
100
AcDbArc
 50
128.8169756169
 51
129.2369027498
  0
ARC
  5
62E
100
AcDbEntity
  8
DRAFT
100
AcDbCircle
 62
7
  6
CONTINUOUS
 10
48.1179221275
 20
-41.4522997602
 40
33.6243173023
100
AcDbArc
 50
140.9082198195
 51
141.4174070609
  0
ARC
  5
62F
100
AcDbEntity
  8
DRAFT
100
AcDbCircle
 62
7
  6
CONTINUOUS
 10
55.9522997529
 20
-33.6179221328
 40
33.6243173019
100
AcDbArc
 50
128.5825929237
 51
129.0917801651
  0
ARC
  5
630
100
AcDbEntity
  8
DRAFT
100
AcDbCircle
 62
7
  6
CONTINUOUS
 10
46.9541870332
 20
-46.8545311506
 40
32.6623810317
100
AcDbArc
 50
129.5313705563
 51
129.8346284257
  0
ARC
  5
631
100
AcDbEntity
  8
DRAFT
100
AcDbCircle
 62
7
  6
CONTINUOUS
 10
61.354531161
 20
-32.4541870192
 40
32.6623810307
100
AcDbArc
 50
140.1653716049
 51
140.4686294743
  0
ARC
  5
632
100
AcDbEntity
  8
DRAFT
100
AcDbCircle
 62
7
  6
CONTINUOUS
 10
45.4389598824
 20
-36.9614187541
 40
26.2343783895
100
AcDbArc
 50
141.1359166677
 51
141.6551315685
  0
ARC
  5
633
100
AcDbEntity
  8
0
100
AcDbCircle
 62
7
  6
CONTINUOUS
 10
79.5
 20
-49.0
 40
10.0
100
AcDbArc
 50
270.0
 51
360.0
  0
ARC
  5
634
100
AcDbEntity
  8
0
100
AcDbCircle
 62
7
  6
CONTINUOUS
 10
79.5
 20
-49.0
 40
7.0
100
AcDbArc
 50
270.0
 51
360.0
  0
ARC
  5
635
100
AcDbEntity
  8
DRAFT
100
AcDbCircle
 62
7
  6
CONTINUOUS
 10
77.8015776859
 20
-39.8050369693
 40
53.446359443
100
AcDbArc
 50
140.1426712846
 51
140.3741639707
  0
ARC
  5
636
100
AcDbEntity
  8
DRAFT
100
AcDbCircle
 62
7
  6
CONTINUOUS
 10
69.5467358796
 20
-36.103630453
 40
43.0136167052
100
AcDbArc
 50
140.1510630094
 51
140.4388330181
  0
ARC
  5
637
100
AcDbEntity
  8
RACCORDO
100
AcDbCircle
 62
7
  6
CONTINUOUS
 10
69.0125036858
 20
-39.2387925
 40
2.0761632207
100
AcDbArc
 50
95.0402594585
 51
97.2258785651
  0
CIRCLE
  5
638
100
AcDbEntity
  8
0
100
AcDbCircle
 62
7
  6
CONTINUOUS
 10
69.499999638
 20
-38.9999994963
 40
1.4999997395
  0
ARC
  5
639
100
AcDbEntity
  8
DRAFT
100
AcDbCircle
 62
7
  6
CONTINUOUS
 10
68.3537192671
 20
-37.8537192671
 40
1.25
100
AcDbArc
 50
237.5251774968
 51
253.6340571161
  0
ARC
  5
63A
100
AcDbEntity
  8
DRAFT
100
AcDbCircle
 62
7
  6
CONTINUOUS
 10
68.3537192671
 20
-37.8537192671
 40
1.25
100
AcDbArc
 50
16.4091700274
 51
32.4748225032
  0
ARC
  5
63B
100
AcDbEntity
  8
0
100
AcDbCircle
 62
7
  6
CONTINUOUS
 10
69.5
 20
-39.0
 40
1.0
100
AcDbArc
 50
307.6774584221
 51
75.84228485
  0
ARC
  5
63C
100
AcDbEntity
  8
0
100
AcDbCircle
 62
7
  6
CONTINUOUS
 10
69.5
 20
-39.0
 40
1.0
100
AcDbArc
 50
180.0
 51
255.84228485
  0
ARC
  5
63D
100
AcDbEntity
  8
0
100
AcDbCircle
 62
7
  6
CONTINUOUS
 10
69.3966617406
 20
-39.3617997602
 40
0.8320718012
100
AcDbArc
 50
344.774383981
 51
349.517352529
  0
ARC
  5
63E
100
AcDbEntity
  8
0
100
AcDbCircle
 62
7
  6
CONTINUOUS
 10
69.4440476799
 20
-39.1277602152
 40
0.813765055
100
AcDbArc
 50
330.6304078959
 51
344.4190814713
  0
ARC
  5
63F
100
AcDbEntity
  8
RACCORDO
100
AcDbCircle
 62
7
  6
CONTINUOUS
 10
68.3537192671
 20
-37.8537192671
 40
0.7830744955
100
AcDbArc
 50
210.5171132633
 51
59.4828867367
  0
ARC
  5
640
100
AcDbEntity
  8
RACCORDO
100
AcDbCircle
 62
253
  6
CONTINUOUS
 10
73.429553061
 20
-34.7544700688
 40
0.5000421411
100
AcDbArc
 50
270.0137318296
 51
359.9931397108
  0
ARC
  5
641
100
AcDbEntity
  8
RACCORDO
100
AcDbCircle
 62
253
  6
CONTINUOUS
 10
65.2544701177
 20
-42.9295531096
 40
0.5000420724
100
AcDbArc
 50
270.006854684
 51
359.9862737398
  0
ARC
  5
642
100
AcDbEntity
  8
RACCORDO
100
AcDbCircle
 62
253
  6
CONTINUOUS
 10
67.6790944945
 20
-38.2513600455
 40
0.4999924971
100
AcDbArc
 50
30.5156282193
 51
135.0013314236
  0
ARC
  5
643
100
AcDbEntity
  8
RACCORDO
100
AcDbCircle
 62
253
  6
CONTINUOUS
 10
68.7513027462
 20
-37.1791319948
 40
0.4999428991
100
AcDbArc
 50
134.9941502057
 51
239.4838661131
  0
ARC
  5
644
100
AcDbEntity
  8
RACCORDO
100
AcDbCircle
 62
253
  6
CONTINUOUS
 10
68.3537192671
 20
-37.8537192671
 40
0.283093534
100
AcDbArc
 50
210.5171132633
 51
59.4828867367
  0
ARC
  5
645
100
AcDbEntity
  8
DRAFT
100
AcDbCircle
 62
7
  6
CONTINUOUS
 10
77.8015776791
 20
-2.1949630208
 40
53.4463594441
100
AcDbArc
 50
219.6258360421
 51
219.8573287282
  0
ARC
  5
646
100
AcDbEntity
  8
DRAFT
100
AcDbCircle
 62
7
  6
CONTINUOUS
 10
54.3050369858
 20
-21.301577669
 40
53.4463594405
100
AcDbArc
 50
129.6258360545
 51
129.8573287405
  0
ARC
  5
647
100
AcDbEntity
  8
DRAFT
100
AcDbCircle
 62
7
  6
CONTINUOUS
 10
50.6036304741
 20
-13.0467358648
 40
43.0136167073
100
AcDbArc
 50
129.5611670161
 51
129.8489370247
  0
ARC
  5
648
100
AcDbEntity
  8
DRAFT
100
AcDbCircle
 62
7
  6
CONTINUOUS
 10
69.5467358723
 20
-5.8963695373
 40
43.0136167058
100
AcDbArc
 50
219.5611669981
 51
219.8489370067
  0
ARC
  5
649
100
AcDbEntity
  8
DRAFT
100
AcDbCircle
 62
7
  6
CONTINUOUS
 10
60.4066440444
 20
-5.7467230269
 40
40.9572888403
100
AcDbArc
 50
230.7630972502
 51
231.1830243831
  0
ARC
  5
64A
100
AcDbEntity
  8
DRAFT
100
AcDbCircle
 62
7
  6
CONTINUOUS
 10
50.7532769742
 20
-3.9066440403
 40
40.9572888386
100
AcDbArc
 50
140.7630972556
 51
141.1830243885
  0
ARC
  5
64B
100
AcDbEntity
  8
DRAFT
100
AcDbCircle
 62
7
  6
CONTINUOUS
 10
48.1179221179
 20
-0.5477002282
 40
33.6243173021
100
AcDbArc
 50
218.5825929648
 51
219.0917802062
  0
ARC
  5
64C
100
AcDbEntity
  8
DRAFT
100
AcDbCircle
 62
7
  6
CONTINUOUS
 10
55.9522997526
 20
-8.3820778676
 40
33.6243173014
100
AcDbArc
 50
230.9082198349
 51
231.4174070763
  0
ARC
  5
64D
100
AcDbEntity
  8
DRAFT
100
AcDbCircle
 62
7
  6
CONTINUOUS
 10
46.9541870344
 20
-4.8545311521
 40
32.6623810335
100
AcDbArc
 50
129.5313705563
 51
129.8346284257
  0
ARC
  5
64E
100
AcDbEntity
  8
DRAFT
100
AcDbCircle
 62
7
  6
CONTINUOUS
 10
61.3545311562
 20
-9.5458129724
 40
32.6623810324
100
AcDbArc
 50
219.5313705426
 51
219.834628412
  0
ARC
  5
64F
100
AcDbEntity
  8
DRAFT
100
AcDbCircle
 62
7
  6
CONTINUOUS
 10
45.438959875
 20
-5.0385812369
 40
26.2343783893
100
AcDbArc
 50
218.3448684571
 51
218.8640833579
  0
ARC
  5
650
100
AcDbEntity
  8
DRAFT
100
AcDbCircle
 62
7
  6
CONTINUOUS
 10
51.4614187422
 20
-30.9389598913
 40
26.234378389
100
AcDbArc
 50
128.3448683992
 51
128.8640833001
  0
ARC
  5
651
100
AcDbEntity
  8
DRAFT
100
AcDbCircle
 62
7
  6
CONTINUOUS
 10
51.4614187423
 20
-11.0610401086
 40
26.2343783891
100
AcDbArc
 50
231.1359166999
 51
231.6551316007
  0
ARC
  5
652
100
AcDbEntity
  8
DRAFT
100
AcDbCircle
 62
7
  6
CONTINUOUS
 10
61.5
 20
-31.0
 40
22.0
100
AcDbArc
 50
270.0
 51
360.0
  0
ARC
  5
653
100
AcDbEntity
  8
RACCORDO
100
AcDbCircle
 62
253
  6
CONTINUOUS
 10
61.5
 20
-31.0
 40
21.9473301725
100
AcDbArc
 50
270.0
 51
360.0
  0
ARC
  5
654
100
AcDbEntity
  8
RACCORDO
100
AcDbCircle
 62
253
  6
CONTINUOUS
 10
61.5
 20
-31.0
 40
20.9474831759
100
AcDbArc
 50
270.0
 51
360.0
  0
ARC
  5
655
100
AcDbEntity
  8
DRAFT
100
AcDbCircle
 62
7
  6
CONTINUOUS
 10
6.801577692
 20
2.1949630256
 40
53.4463594509
100
AcDbArc
 50
140.1426712846
 51
140.3741639706
  0
ARC
  5
656
100
AcDbEntity
  8
DRAFT
100
AcDbCircle
 62
7
  6
CONTINUOUS
 10
1.4532641205
 20
5.8963695471
 40
43.013616705
100
AcDbArc
 50
39.5611669819
 51
39.8489369906
  0
ARC
  5
657
100
AcDbEntity
  8
DRAFT
100
AcDbCircle
 62
7
  6
CONTINUOUS
 10
10.5933559678
 20
5.7467230171
 40
40.9572888403
100
AcDbArc
 50
50.763097272
 51
51.1830244049
  0
ARC
  5
658
100
AcDbEntity
  8
DRAFT
100
AcDbCircle
 62
7
  6
CONTINUOUS
 10
15.0477002597
 20
8.3820778588
 40
33.6243173005
100
AcDbArc
 50
50.9082198605
 51
51.417407102
  0
ARC
  5
659
100
AcDbEntity
  8
DRAFT
100
AcDbCircle
 62
7
  6
CONTINUOUS
 10
9.6454688375
 20
9.5458129796
 40
32.6623810326
100
AcDbArc
 50
39.5313705257
 51
39.8346283951
  0
CIRCLE
  5
65A
100
AcDbEntity
  8
0
100
AcDbCircle
 62
7
  6
CONTINUOUS
 10
-0.0
 20
-0.0
 40
6.6605179979
  0
ARC
  5
65B
100
AcDbEntity
  8
DRAFT
100
AcDbCircle
 62
7
  6
CONTINUOUS
 10
16.6949630208
 20
21.3015776797
 40
53.4463594446
100
AcDbArc
 50
309.6258360417
 51
309.8573287277
  0
ARC
  5
65C
100
AcDbEntity
  8
DRAFT
100
AcDbCircle
 62
7
  6
CONTINUOUS
 10
20.3963695366
 20
13.0467358709
 40
43.0136167052
100
AcDbArc
 50
309.561167
 51
309.8489370086
  0
ARC
  5
65D
100
AcDbEntity
  8
DRAFT
100
AcDbCircle
 62
7
  6
CONTINUOUS
 10
20.2467230351
 20
3.9066440528
 40
40.9572888392
100
AcDbArc
 50
320.7630972338
 51
321.1830243667
  0
ARC
  5
65E
100
AcDbEntity
  8
DRAFT
100
AcDbCircle
 62
7
  6
CONTINUOUS
 10
22.8820778734
 20
0.5477002405
 40
33.6243173012
100
AcDbArc
 50
38.5825929391
 51
39.0917801805
  0
ARC
  5
65F
100
AcDbEntity
  8
DRAFT
100
AcDbCircle
 62
7
  6
CONTINUOUS
 10
24.0458129722
 20
4.8545311591
 40
32.6623810347
100
AcDbArc
 50
309.5313705395
 51
309.8346284089
  0
ARC
  5
660
100
AcDbEntity
  8
DRAFT
100
AcDbCircle
 62
7
  6
CONTINUOUS
 10
19.5385812665
 20
11.0610401008
 40
26.2343783898
100
AcDbArc
 50
51.1359167255
 51
51.6551316263
  0
ARC
  5
661
100
AcDbEntity
  8
DRAFT
100
AcDbCircle
 62
7
  6
CONTINUOUS
 10
25.5610401178
 20
5.0385812461
 40
26.2343783891
100
AcDbArc
 50
38.3448684315
 51
38.8640833324
  0
ARC
  5
662
100
AcDbEntity
  8
DRAFT
100
AcDbCircle
 62
7
  6
CONTINUOUS
 10
19.5385812665
 20
30.9389598991
 40
26.2343783897
100
AcDbArc
 50
308.3448683737
 51
308.8640832745
  0
CIRCLE
  5
663
100
AcDbEntity
  8
DRAFT
100
AcDbCircle
 62
7
  6
CONTINUOUS
 10
35.5
 20
21.0
 40
16.7292250749
  0
ARC
  5
664
100
AcDbEntity
  8
DRAFT
100
AcDbCircle
 62
7
  6
CONTINUOUS
 10
35.5
 20
21.0
 40
16.6763269807
100
AcDbArc
 50
177.3645150851
 51
182.6354849149
  0
ARC
  5
665
100
AcDbEntity
  8
DRAFT
100
AcDbCircle
 62
7
  6
CONTINUOUS
 10
35.5
 20
21.0
 40
16.6763269807
100
AcDbArc
 50
267.3645150851
 51
272.6354849149
  0
ARC
  5
666
100
AcDbEntity
  8
DRAFT
100
AcDbCircle
 62
7
  6
CONTINUOUS
 10
35.5
 20
21.0
 40
16.6763269807
100
AcDbArc
 50
357.3645150851
 51
2.6354849149
  0
ARC
  5
667
100
AcDbEntity
  8
DRAFT
100
AcDbCircle
 62
7
  6
CONTINUOUS
 10
35.5
 20
21.0
 40
16.6763269807
100
AcDbArc
 50
87.3645150851
 51
92.6354849149
  0
ARC
  5
668
100
AcDbEntity
  8
DRAFT
100
AcDbCircle
 62
7
  6
CONTINUOUS
 10
35.5
 20
21.0
 40
16.5
100
AcDbArc
 50
93.4746007931
 51
176.5253992069
  0
ARC
  5
669
100
AcDbEntity
  8
DRAFT
100
AcDbCircle
 62
7
  6
CONTINUOUS
 10
35.5
 20
21.0
 40
16.5
100
AcDbArc
 50
3.4746007931
 51
86.5253992069
  0
ARC
  5
66A
100
AcDbEntity
  8
DRAFT
100
AcDbCircle
 62
7
  6
CONTINUOUS
 10
35.5
 20
21.0
 40
16.5
100
AcDbArc
 50
183.4746007931
 51
266.5253992069
  0
ARC
  5
66B
100
AcDbEntity
  8
DRAFT
100
AcDbCircle
 62
7
  6
CONTINUOUS
 10
35.5
 20
21.0
 40
16.5
100
AcDbArc
 50
273.4746007931
 51
356.5253992069
  0
ARC
  5
66C
100
AcDbEntity
  8
DRAFT
100
AcDbCircle
 62
7
  6
CONTINUOUS
 10
35.5
 20
21.0
 40
15.5
100
AcDbArc
 50
94.7141877419
 51
175.2858122581
  0
ARC
  5
66D
100
AcDbEntity
  8
DRAFT
100
AcDbCircle
 62
7
  6
CONTINUOUS
 10
35.5
 20
21.0
 40
15.5
100
AcDbArc
 50
4.7141877419
 51
85.2858122581
  0
ARC
  5
66E
100
AcDbEntity
  8
DRAFT
100
AcDbCircle
 62
7
  6
CONTINUOUS
 10
35.5
 20
21.0
 40
15.5
100
AcDbArc
 50
184.7141877419
 51
265.2858122581
  0
ARC
  5
66F
100
AcDbEntity
  8
DRAFT
100
AcDbCircle
 62
7
  6
CONTINUOUS
 10
35.5
 20
21.0
 40
15.5
100
AcDbArc
 50
274.7141877419
 51
355.2858122581
  0
ARC
  5
670
100
AcDbEntity
  8
DRAFT
100
AcDbCircle
 62
7
  6
CONTINUOUS
 10
35.5
 20
21.0
 40
15.3236730193
100
AcDbArc
 50
94.2507573531
 51
175.7492426469
  0
ARC
  5
671
100
AcDbEntity
  8
DRAFT
100
AcDbCircle
 62
7
  6
CONTINUOUS
 10
35.5
 20
21.0
 40
15.3236730193
100
AcDbArc
 50
184.2507573531
 51
265.7492426469
  0
ARC
  5
672
100
AcDbEntity
  8
DRAFT
100
AcDbCircle
 62
7
  6
CONTINUOUS
 10
35.5
 20
21.0
 40
15.3236730193
100
AcDbArc
 50
274.2507573531
 51
355.7492426469
  0
ARC
  5
673
100
AcDbEntity
  8
DRAFT
100
AcDbCircle
 62
7
  6
CONTINUOUS
 10
35.5
 20
21.0
 40
15.3236730193
100
AcDbArc
 50
4.2507573531
 51
85.7492426469
  0
ARC
  5
674
100
AcDbEntity
  8
DRAFT
100
AcDbCircle
 62
7
  6
CONTINUOUS
 10
35.5
 20
21.0
 40
13.6763269807
100
AcDbArc
 50
272.1674546178
 51
357.8325453822
  0
ARC
  5
675
100
AcDbEntity
  8
DRAFT
100
AcDbCircle
 62
7
  6
CONTINUOUS
 10
35.5
 20
21.0
 40
13.6763269807
100
AcDbArc
 50
182.1674546178
 51
267.8325453822
  0
ARC
  5
676
100
AcDbEntity
  8
DRAFT
100
AcDbCircle
 62
7
  6
CONTINUOUS
 10
35.5
 20
21.0
 40
13.6763269807
100
AcDbArc
 50
2.1674546178
 51
87.8325453822
  0
ARC
  5
677
100
AcDbEntity
  8
DRAFT
100
AcDbCircle
 62
7
  6
CONTINUOUS
 10
35.5
 20
21.0
 40
13.6763269807
100
AcDbArc
 50
92.1674546178
 51
177.8325453822
  0
ARC
  5
678
100
AcDbEntity
  8
DRAFT
100
AcDbCircle
 62
7
  6
CONTINUOUS
 10
35.5
 20
21.0
 40
13.5
100
AcDbArc
 50
93.1847385367
 51
176.8152614633
  0
ARC
  5
679
100
AcDbEntity
  8
DRAFT
100
AcDbCircle
 62
7
  6
CONTINUOUS
 10
35.5
 20
21.0
 40
13.5
100
AcDbArc
 50
3.1847385367
 51
86.8152614633
  0
ARC
  5
67A
100
AcDbEntity
  8
DRAFT
100
AcDbCircle
 62
7
  6
CONTINUOUS
 10
35.5
 20
21.0
 40
13.5
100
AcDbArc
 50
183.1847385367
 51
266.8152614633
  0
ARC
  5
67B
100
AcDbEntity
  8
DRAFT
100
AcDbCircle
 62
7
  6
CONTINUOUS
 10
35.5
 20
21.0
 40
13.5
100
AcDbArc
 50
273.1847385367
 51
356.8152614633
  0
ARC
  5
67C
100
AcDbEntity
  8
DRAFT
100
AcDbCircle
 62
7
  6
CONTINUOUS
 10
35.5
 20
21.0
 40
12.5
100
AcDbArc
 50
94.6971495355
 51
175.3028504645
  0
ARC
  5
67D
100
AcDbEntity
  8
DRAFT
100
AcDbCircle
 62
7
  6
CONTINUOUS
 10
35.5
 20
21.0
 40
12.5
100
AcDbArc
 50
4.6971495355
 51
85.3028504645
  0
ARC
  5
67E
100
AcDbEntity
  8
DRAFT
100
AcDbCircle
 62
7
  6
CONTINUOUS
 10
35.5
 20
21.0
 40
12.5
100
AcDbArc
 50
184.6971495355
 51
265.3028504645
  0
ARC
  5
67F
100
AcDbEntity
  8
DRAFT
100
AcDbCircle
 62
7
  6
CONTINUOUS
 10
35.5
 20
21.0
 40
12.5
100
AcDbArc
 50
274.6971495355
 51
355.3028504645
  0
ARC
  5
680
100
AcDbEntity
  8
DRAFT
100
AcDbCircle
 62
7
  6
CONTINUOUS
 10
35.5
 20
21.0
 40
12.3236730193
100
AcDbArc
 50
274.1209209803
 51
355.8790790197
  0
ARC
  5
681
100
AcDbEntity
  8
DRAFT
100
AcDbCircle
 62
7
  6
CONTINUOUS
 10
35.5
 20
21.0
 40
12.3236730193
100
AcDbArc
 50
184.1209209803
 51
265.8790790197
  0
ARC
  5
682
100
AcDbEntity
  8
DRAFT
100
AcDbCircle
 62
7
  6
CONTINUOUS
 10
35.5
 20
21.0
 40
12.3236730193
100
AcDbArc
 50
4.1209209803
 51
85.8790790197
  0
ARC
  5
683
100
AcDbEntity
  8
DRAFT
100
AcDbCircle
 62
7
  6
CONTINUOUS
 10
35.5
 20
21.0
 40
12.3236730193
100
AcDbArc
 50
94.1209209803
 51
175.8790790197
  0
CIRCLE
  5
684
100
AcDbEntity
  8
DRAFT
100
AcDbCircle
 62
7
  6
CONTINUOUS
 10
35.5
 20
21.0
 40
10.6763269807
  0
ARC
  5
685
100
AcDbEntity
  8
DRAFT
100
AcDbCircle
 62
7
  6
CONTINUOUS
 10
35.5
 20
21.0
 40
10.6410615846
100
AcDbArc
 50
178.3078846415
 51
181.6921153585
  0
ARC
  5
686
100
AcDbEntity
  8
DRAFT
100
AcDbCircle
 62
7
  6
CONTINUOUS
 10
35.5
 20
21.0
 40
10.6410615846
100
AcDbArc
 50
268.3078846415
 51
271.6921153585
  0
ARC
  5
687
100
AcDbEntity
  8
DRAFT
100
AcDbCircle
 62
7
  6
CONTINUOUS
 10
35.5
 20
21.0
 40
10.6410615846
100
AcDbArc
 50
358.3078846415
 51
1.6921153585
  0
ARC
  5
688
100
AcDbEntity
  8
DRAFT
100
AcDbCircle
 62
7
  6
CONTINUOUS
 10
35.5
 20
21.0
 40
10.6410615846
100
AcDbArc
 50
88.3078846415
 51
91.6921153585
  0
ARC
  5
689
100
AcDbEntity
  8
DRAFT
100
AcDbCircle
 62
7
  6
CONTINUOUS
 10
35.5
 20
21.0
 40
10.5
100
AcDbArc
 50
92.7294026368
 51
177.2705973632
  0
ARC
  5
68A
100
AcDbEntity
  8
DRAFT
100
AcDbCircle
 62
7
  6
CONTINUOUS
 10
35.5
 20
21.0
 40
10.5
100
AcDbArc
 50
2.7294026368
 51
87.2705973632
  0
ARC
  5
68B
100
AcDbEntity
  8
DRAFT
100
AcDbCircle
 62
7
  6
CONTINUOUS
 10
35.5
 20
21.0
 40
10.5
100
AcDbArc
 50
182.7294026368
 51
267.2705973632
  0
ARC
  5
68C
100
AcDbEntity
  8
DRAFT
100
AcDbCircle
 62
7
  6
CONTINUOUS
 10
35.5
 20
21.0
 40
10.5
100
AcDbArc
 50
272.7294026368
 51
357.2705973632
  0
ARC
  5
68D
100
AcDbEntity
  8
DRAFT
100
AcDbCircle
 62
7
  6
CONTINUOUS
 10
35.5
 20
21.0
 40
9.5
100
AcDbArc
 50
94.668453194
 51
175.331546806
  0
ARC
  5
68E
100
AcDbEntity
  8
DRAFT
100
AcDbCircle
 62
7
  6
CONTINUOUS
 10
35.5
 20
21.0
 40
9.5
100
AcDbArc
 50
4.668453194
 51
85.331546806
  0
ARC
  5
68F
100
AcDbEntity
  8
DRAFT
100
AcDbCircle
 62
7
  6
CONTINUOUS
 10
35.5
 20
21.0
 40
9.5
100
AcDbArc
 50
184.668453194
 51
265.331546806
  0
ARC
  5
690
100
AcDbEntity
  8
DRAFT
100
AcDbCircle
 62
7
  6
CONTINUOUS
 10
35.5
 20
21.0
 40
9.5
100
AcDbArc
 50
274.668453194
 51
355.331546806
  0
ARC
  5
691
100
AcDbEntity
  8
DRAFT
100
AcDbCircle
 62
7
  6
CONTINUOUS
 10
35.5
 20
21.0
 40
9.3589384154
100
AcDbArc
 50
94.0611725955
 51
175.9388274045
  0
ARC
  5
692
100
AcDbEntity
  8
DRAFT
100
AcDbCircle
 62
7
  6
CONTINUOUS
 10
35.5
 20
21.0
 40
9.3589384154
100
AcDbArc
 50
184.0611725955
 51
265.9388274045
  0
ARC
  5
693
100
AcDbEntity
  8
DRAFT
100
AcDbCircle
 62
7
  6
CONTINUOUS
 10
35.5
 20
21.0
 40
9.3589384154
100
AcDbArc
 50
274.0611725955
 51
355.9388274045
  0
ARC
  5
694
100
AcDbEntity
  8
DRAFT
100
AcDbCircle
 62
7
  6
CONTINUOUS
 10
35.5
 20
21.0
 40
9.3589384154
100
AcDbArc
 50
4.0611725955
 51
85.9388274045
  0
ARC
  5
695
100
AcDbEntity
  8
DRAFT
100
AcDbCircle
 62
7
  6
CONTINUOUS
 10
6.8015776797
 20
39.8050369797
 40
53.4463594449
100
AcDbArc
 50
219.6258360421
 51
219.8573287282
  0
ARC
  5
696
100
AcDbEntity
  8
DRAFT
100
AcDbCircle
 62
7
  6
CONTINUOUS
 10
16.6949630227
 20
63.3015776775
 40
53.4463594416
100
AcDbArc
 50
309.6258360417
 51
309.8573287277
  0
ARC
  5
697
100
AcDbEntity
  8
DRAFT
100
AcDbCircle
 62
7
  6
CONTINUOUS
 10
20.3963695364
 20
55.0467358711
 40
43.0136167054
100
AcDbArc
 50
309.561167
 51
309.8489370086
  0
ARC
  5
698
100
AcDbEntity
  8
DRAFT
100
AcDbCircle
 62
7
  6
CONTINUOUS
 10
1.4532641285
 20
36.103630462
 40
43.0136167047
100
AcDbArc
 50
320.1510629933
 51
320.4388330019
  0
ARC
  5
699
100
AcDbEntity
  8
DRAFT
100
AcDbCircle
 62
7
  6
CONTINUOUS
 10
10.5933559682
 20
36.2532769823
 40
40.9572888395
100
AcDbArc
 50
308.8169755951
 51
309.236902728
  0
ARC
  5
69A
100
AcDbEntity
  8
DRAFT
100
AcDbCircle
 62
7
  6
CONTINUOUS
 10
20.246723035
 20
45.9066440529
 40
40.9572888394
100
AcDbArc
 50
320.7630972338
 51
321.1830243667
  0
ARC
  5
69B
100
AcDbEntity
  8
DRAFT
100
AcDbCircle
 62
7
  6
CONTINUOUS
 10
22.8820778824
 20
41.4522997716
 40
33.6243173017
100
AcDbArc
 50
320.9082197938
 51
321.4174070352
  0
ARC
  5
69C
100
AcDbEntity
  8
DRAFT
100
AcDbCircle
 62
7
  6
CONTINUOUS
 10
15.0477002589
 20
33.6179221421
 40
33.6243173017
100
AcDbArc
 50
308.582592898
 51
309.0917801394
  0
ARC
  5
69D
100
AcDbEntity
  8
DRAFT
100
AcDbCircle
 62
7
  6
CONTINUOUS
 10
24.0458129724
 20
46.8545311589
 40
32.6623810344
100
AcDbArc
 50
309.5313705395
 51
309.8346284089
  0
ARC
  5
69E
100
AcDbEntity
  8
DRAFT
100
AcDbCircle
 62
7
  6
CONTINUOUS
 10
9.6454688443
 20
32.4541870272
 40
32.6623810317
100
AcDbArc
 50
320.165371588
 51
320.4686294574
  0
ARC
  5
69F
100
AcDbEntity
  8
DRAFT
100
AcDbCircle
 62
7
  6
CONTINUOUS
 10
25.5610401254
 20
36.9614187627
 40
26.2343783887
100
AcDbArc
 50
321.1359166421
 51
321.6551315429
  0
ARC
  5
6A0
100
AcDbEntity
  8
DRAFT
100
AcDbCircle
 62
7
  6
CONTINUOUS
 10
77.8015776888
 20
2.1949630282
 40
53.4463594467
100
AcDbArc
 50
140.1426712846
 51
140.3741639706
  0
ARC
  5
6A1
100
AcDbEntity
  8
DRAFT
100
AcDbCircle
 62
7
  6
CONTINUOUS
 10
54.3050369887
 20
21.3015776725
 40
53.446359445
100
AcDbArc
 50
230.1426712595
 51
230.3741639455
  0
ARC
  5
6A2
100
AcDbEntity
  8
DRAFT
100
AcDbCircle
 62
7
  6
CONTINUOUS
 10
69.546735879
 20
5.8963695475
 40
43.0136167044
100
AcDbArc
 50
140.1510630094
 51
140.4388330181
  0
ARC
  5
6A3
100
AcDbEntity
  8
DRAFT
100
AcDbCircle
 62
7
  6
CONTINUOUS
 10
50.6036304724
 20
13.0467358628
 40
43.0136167046
100
AcDbArc
 50
230.1510629753
 51
230.4388329839
  0
ARC
  5
6A4
100
AcDbEntity
  8
DRAFT
100
AcDbCircle
 62
7
  6
CONTINUOUS
 10
60.406644044
 20
5.7467230273
 40
40.9572888398
100
AcDbArc
 50
128.8169756169
 51
129.2369027498
  0
ARC
  5
6A5
100
AcDbEntity
  8
DRAFT
100
AcDbCircle
 62
7
  6
CONTINUOUS
 10
50.7532769645
 20
3.9066440524
 40
40.9572888387
100
AcDbArc
 50
218.8169756333
 51
219.2369027662
  0
ARC
  5
6A6
100
AcDbEntity
  8
DRAFT
100
AcDbCircle
 62
7
  6
CONTINUOUS
 10
48.1179221273
 20
0.5477002399
 40
33.6243173021
100
AcDbArc
 50
140.9082198195
 51
141.4174070609
  0
ARC
  5
6A7
100
AcDbEntity
  8
DRAFT
100
AcDbCircle
 62
7
  6
CONTINUOUS
 10
55.9522997524
 20
8.3820778679
 40
33.624317301
100
AcDbArc
 50
128.5825929237
 51
129.0917801651
  0
ARC
  5
6A8
100
AcDbEntity
  8
DRAFT
100
AcDbCircle
 62
7
  6
CONTINUOUS
 10
61.3545311623
 20
9.5458129798
 40
32.6623810323
100
AcDbArc
 50
140.1653716049
 51
140.4686294743
  0
ARC
  5
6A9
100
AcDbEntity
  8
DRAFT
100
AcDbCircle
 62
7
  6
CONTINUOUS
 10
46.9541870336
 20
4.8545311511
 40
32.6623810322
100
AcDbArc
 50
230.1653715743
 51
230.4686294437
  0
ARC
  5
6AA
100
AcDbEntity
  8
DRAFT
100
AcDbCircle
 62
7
  6
CONTINUOUS
 10
51.4614187428
 20
11.0610401079
 40
26.23437839
100
AcDbArc
 50
128.3448683993
 51
128.8640833001
  0
ARC
  5
6AB
100
AcDbEntity
  8
DRAFT
100
AcDbCircle
 62
7
  6
CONTINUOUS
 10
51.4614187424
 20
30.9389598916
 40
26.2343783894
100
AcDbArc
 50
231.1359166999
 51
231.6551316007
  0
ARC
  5
6AC
100
AcDbEntity
  8
DRAFT
100
AcDbCircle
 62
7
  6
CONTINUOUS
 10
45.4389598825
 20
5.0385812459
 40
26.2343783896
100
AcDbArc
 50
141.1359166677
 51
141.6551315685
  0
ARC
  5
6AD
100
AcDbEntity
  8
DRAFT
100
AcDbCircle
 62
7
  6
CONTINUOUS
 10
61.5
 20
31.0
 40
22.0
100
AcDbArc
 50
0.0
 51
90.0
  0
ARC
  5
6AE
100
AcDbEntity
  8
RACCORDO
100
AcDbCircle
 62
253
  6
CONTINUOUS
 10
61.5
 20
31.0
 40
21.9473301725
100
AcDbArc
 50
0.0
 51
90.0
  0
ARC
  5
6AF
100
AcDbEntity
  8
RACCORDO
100
AcDbCircle
 62
253
  6
CONTINUOUS
 10
61.5
 20
31.0
 40
20.9474831759
100
AcDbArc
 50
0.0
 51
90.0
  0
ARC
  5
6B0
100
AcDbEntity
  8
DRAFT
100
AcDbCircle
 62
7
  6
CONTINUOUS
 10
50.7532769648
 20
45.9066440527
 40
40.9572888391
100
AcDbArc
 50
218.8169756333
 51
219.2369027662
  0
ARC
  5
6B1
100
AcDbEntity
  8
DRAFT
100
AcDbCircle
 62
7
  6
CONTINUOUS
 10
60.4066440437
 20
36.2532769723
 40
40.9572888393
100
AcDbArc
 50
230.7630972502
 51
231.1830243831
  0
ARC
  5
6B2
100
AcDbEntity
  8
DRAFT
100
AcDbCircle
 62
7
  6
CONTINUOUS
 10
48.1179221181
 20
41.452299772
 40
33.6243173024
100
AcDbArc
 50
218.5825929648
 51
219.0917802062
  0
ARC
  5
6B3
100
AcDbEntity
  8
DRAFT
100
AcDbCircle
 62
7
  6
CONTINUOUS
 10
55.952299753
 20
33.6179221329
 40
33.624317302
100
AcDbArc
 50
230.9082198349
 51
231.4174070763
  0
ARC
  5
6B4
100
AcDbEntity
  8
DRAFT
100
AcDbCircle
 62
7
  6
CONTINUOUS
 10
61.3545311567
 20
32.4541870281
 40
32.6623810331
100
AcDbArc
 50
219.5313705426
 51
219.834628412
  0
ARC
  5
6B5
100
AcDbEntity
  8
DRAFT
100
AcDbCircle
 62
7
  6
CONTINUOUS
 10
46.9541870335
 20
46.854531151
 40
32.6623810321
100
AcDbArc
 50
230.1653715743
 51
230.4686294437
  0
ARC
  5
6B6
100
AcDbEntity
  8
DRAFT
100
AcDbCircle
 62
7
  6
CONTINUOUS
 10
45.4389598751
 20
36.9614187631
 40
26.2343783894
100
AcDbArc
 50
218.3448684571
 51
218.8640833579
  0
ARC
  5
6B7
100
AcDbEntity
  8
DRAFT
100
AcDbCircle
 62
7
  6
CONTINUOUS
 10
54.3050369861
 20
63.3015776694
 40
53.446359441
100
AcDbArc
 50
230.1426712595
 51
230.3741639455
  0
ARC
  5
6B8
100
AcDbEntity
  8
DRAFT
100
AcDbCircle
 62
7
  6
CONTINUOUS
 10
50.6036304729
 20
55.0467358634
 40
43.0136167054
100
AcDbArc
 50
230.1510629753
 51
230.4388329839
  0
ARC
  5
6B9
100
AcDbEntity
  8
DRAFT
100
AcDbCircle
 62
7
  6
CONTINUOUS
 10
77.8015776756
 20
39.8050369763
 40
53.4463594395
100
AcDbArc
 50
219.6258360421
 51
219.8573287282
  0
ARC
  5
6BA
100
AcDbEntity
  8
DRAFT
100
AcDbCircle
 62
7
  6
CONTINUOUS
 10
69.5467358721
 20
36.1036304625
 40
43.0136167055
100
AcDbArc
 50
219.5611669981
 51
219.8489370067
  0
ARC
  5
6BB
100
AcDbEntity
  8
RACCORDO
100
AcDbCircle
 62
7
  6
CONTINUOUS
 10
69.7387925
 20
38.5125036858
 40
2.0761632207
100
AcDbArc
 50
185.0402594585
 51
187.2258785651
  0
CIRCLE
  5
6BC
100
AcDbEntity
  8
0
100
AcDbCircle
 62
7
  6
CONTINUOUS
 10
69.5000005489
 20
38.9999994669
 40
1.4999996177
  0
ARC
  5
6BD
100
AcDbEntity
  8
DRAFT
100
AcDbCircle
 62
7
  6
CONTINUOUS
 10
68.3537192671
 20
37.8537192671
 40
1.25
100
AcDbArc
 50
327.5251774968
 51
343.6136842729
  0
ARC
  5
6BE
100
AcDbEntity
  8
DRAFT
100
AcDbCircle
 62
7
  6
CONTINUOUS
 10
68.3537192671
 20
37.8537192671
 40
1.25
100
AcDbArc
 50
106.3798075167
 51
122.4748225032
  0
ARC
  5
6BF
100
AcDbEntity
  8
0
100
AcDbCircle
 62
7
  6
CONTINUOUS
 10
69.5
 20
39.0
 40
1.0
100
AcDbArc
 50
307.6774584221
 51
75.84228485
  0
ARC
  5
6C0
100
AcDbEntity
  8
0
100
AcDbCircle
 62
7
  6
CONTINUOUS
 10
69.5
 20
39.0
 40
1.0
100
AcDbArc
 50
127.6774584221
 51
180.0
  0
ARC
  5
6C1
100
AcDbEntity
  8
0
100
AcDbCircle
 62
7
  6
CONTINUOUS
 10
69.3966617406
 20
38.6382002398
 40
0.8320718012
100
AcDbArc
 50
344.774383981
 51
349.517352529
  0
ARC
  5
6C2
100
AcDbEntity
  8
0
100
AcDbCircle
 62
7
  6
CONTINUOUS
 10
69.6033382594
 20
39.3617997602
 40
0.8320718012
100
AcDbArc
 50
164.7743839811
 51
169.517352529
  0
ARC
  5
6C3
100
AcDbEntity
  8
0
100
AcDbCircle
 62
7
  6
CONTINUOUS
 10
69.5559523201
 20
39.1277602152
 40
0.813765055
100
AcDbArc
 50
150.6304078959
 51
164.4190814713
  0
ARC
  5
6C4
100
AcDbEntity
  8
0
100
AcDbCircle
 62
7
  6
CONTINUOUS
 10
69.4440476799
 20
38.8722397848
 40
0.813765055
100
AcDbArc
 50
330.6304078959
 51
344.4190814713
  0
ARC
  5
6C5
100
AcDbEntity
  8
RACCORDO
100
AcDbCircle
 62
7
  6
CONTINUOUS
 10
68.3537192671
 20
37.8537192671
 40
0.7830744955
100
AcDbArc
 50
300.5171132633
 51
149.4828867367
  0
ARC
  5
6C6
100
AcDbEntity
  8
RACCORDO
100
AcDbCircle
 62
253
  6
CONTINUOUS
 10
65.2544700688
 20
42.9295530609
 40
0.5000421411
100
AcDbArc
 50
0.0137318321
 51
89.9931397083
  0
ARC
  5
6C7
100
AcDbEntity
  8
RACCORDO
100
AcDbCircle
 62
253
  6
CONTINUOUS
 10
73.4295530682
 20
34.7544700764
 40
0.5000421322
100
AcDbArc
 50
0.0068594196
 51
89.9862690042
  0
ARC
  5
6C8
100
AcDbEntity
  8
RACCORDO
100
AcDbCircle
 62
253
  6
CONTINUOUS
 10
68.7513600523
 20
37.179094437
 40
0.4999925247
100
AcDbArc
 50
120.5156255414
 51
225.0013275597
  0
ARC
  5
6C9
100
AcDbEntity
  8
RACCORDO
100
AcDbCircle
 62
253
  6
CONTINUOUS
 10
67.6791319482
 20
38.2513027256
 40
0.4999428731
100
AcDbArc
 50
224.9941523042
 51
329.4838661131
  0
ARC
  5
6CA
100
AcDbEntity
  8
RACCORDO
100
AcDbCircle
 62
253
  6
CONTINUOUS
 10
68.3537192671
 20
37.8537192671
 40
0.283093534
100
AcDbArc
 50
300.5171132632
 51
149.4828867367
  0
ARC
  5
6CB
100
AcDbEntity
  8
0
100
AcDbCircle
 62
7
  6
CONTINUOUS
 10
79.5
 20
49.0
 40
10.0
100
AcDbArc
 50
0.0
 51
90.0
  0
ARC
  5
6CC
100
AcDbEntity
  8
0
100
AcDbCircle
 62
7
  6
CONTINUOUS
 10
79.5
 20
49.0
 40
7.0
100
AcDbArc
 50
0.0
 51
90.0
  0
SPLINE
  5
6CD
100
AcDbEntity
  8
0
100
AcDbSpline
 62
7
  6
CONTINUOUS
 70
0
 71
3
 72
14
 73
10
 74
8
 42
0.0000001
 43
0.0000001
 44
0.0000000001
 12
1.5265164876
 22
-0.440625999
 32
0.0
 13
0.7919061665
 23
1.38096161
 33
0.0
 40
0.0
 40
0.0
 40
0.0
 40
0.0
 40
0.1778235013
 40
0.3469761403
 40
0.5074973323
 40
0.6594332102
 40
0.8028381927
 40
0.9377770198
 40
1.0
 40
1.0
 40
1.0
 40
1.0
 10
68.71573459
 20
-40.2786429395
 30
0.0
 10
68.8062180922
 20
-40.3047608254
 30
0.0
 10
68.9883138008
 20
-40.3386171402
 30
0.0
 10
69.2587934381
 20
-40.33399816
 30
0.0
 10
69.5094936801
 20
-40.2781500788
 30
0.0
 10
69.7311610848
 20
-40.1782851378
 30
0.0
 10
69.9166988585
 20
-40.0431690258
 30
0.0
 10
70.0382377337
 20
-39.9081073149
 30
0.0
 10
70.095041574
 20
-39.8200618046
 30
0.0
 10
70.1114664946
 20
-39.791419289
 30
0.0
 11
68.71573459
 21
-40.2786429395
 31
0.0
 11
68.9936079878
 21
-40.3297413554
 31
0.0
 11
69.2623156825
 21
-40.3246451666
 31
0.0
 11
69.5111352553
 21
-40.2686516992
 31
0.0
 11
69.7310059284
 21
-40.1689947087
 31
0.0
 11
69.9148577074
 21
-40.0344106795
 31
0.0
 11
70.0578373885
 21
-39.8746534081
 31
0.0
 11
70.1114664946
 21
-39.791419289
 31
0.0
  0
SPLINE
  5
6CE
100
AcDbEntity
  8
0
100
AcDbSpline
 62
7
  6
CONTINUOUS
 70
0
 71
3
 72
9
 73
5
 74
3
 42
0.0000001
 43
0.0000001
 44
0.0000000001
 12
0.1141041339
 22
0.1989799236
 32
0.0
 13
0.0601421282
 23
0.2213573269
 33
0.0
 40
0.0
 40
0.0
 40
0.0
 40
0.0
 40
0.4464455663
 40
1.0
 40
1.0
 40
1.0
 40
1.0
 10
70.1114664946
 20
-39.791419289
 30
0.0
 10
70.1284469228
 20
-39.7618080541
 30
0.0
 10
70.1628858601
 20
-39.693432333
 30
0.0
 10
70.1884298233
 20
-39.6211633956
 30
0.0
 10
70.1995271372
 20
-39.5803189523
 30
0.0
 11
70.1114664946
 21
-39.791419289
 31
0.0
 11
70.1574242548
 21
-39.6999800079
 31
0.0
 11
70.1995271372
 21
-39.5803189523
 31
0.0
  0
SPLINE
  5
6CF
100
AcDbEntity
  8
0
100
AcDbSpline
 62
7
  6
CONTINUOUS
 70
0
 71
3
 72
8
 73
4
 74
2
 42
0.0000001
 43
0.0000001
 44
0.0000000001
 12
0.0305187141
 22
0.1649907312
 32
0.0
 13
-0.0050465324
 23
0.1672594158
 33
0.0
 40
0.0
 40
0.0
 40
0.0
 40
0.0
 40
1.0
 40
1.0
 40
1.0
 40
1.0
 10
70.2148463085
 20
-39.5131850147
 30
0.0
 10
70.2250192132
 20
-39.4581881043
 30
0.0
 10
70.2295907335
 20
-39.4020898658
 30
0.0
 10
70.227908556
 20
-39.3463367272
 30
0.0
 11
70.2148463085
 21
-39.5131850147
 31
0.0
 11
70.227908556
 21
-39.3463367272
 31
0.0
  0
SPLINE
  5
6D0
100
AcDbEntity
  8
0
100
AcDbSpline
 62
7
  6
CONTINUOUS
 70
0
 71
3
 72
12
 73
8
 74
6
 42
0.0000001
 43
0.0000001
 44
0.0000000001
 12
-1.1661200765
 22
0.3365982797
 32
0.0
 13
-0.9461321383
 23
-0.7635998302
 33
0.0
 40
0.0
 40
0.0
 40
0.0
 40
0.0
 40
0.2327809221
 40
0.4542111997
 40
0.6643424299
 40
0.8632350031
 40
1.0
 40
1.0
 40
1.0
 40
1.0
 10
70.28426541
 20
-37.7213570605
 30
0.0
 10
70.1937819078
 20
-37.6952391746
 30
0.0
 10
70.0116861992
 20
-37.6613828598
 30
0.0
 10
69.7412065619
 20
-37.66600184
 30
0.0
 10
69.4905063199
 20
-37.7218499212
 30
0.0
 10
69.2877684927
 20
-37.8131867651
 30
0.0
 10
69.1753421681
 20
-37.8904959263
 30
0.0
 10
69.1322095818
 20
-37.9253071691
 30
0.0
 11
70.28426541
 21
-37.7213570605
 31
0.0
 11
70.0063920122
 21
-37.6702586446
 31
0.0
 11
69.7376843175
 21
-37.6753548334
 31
0.0
 11
69.4888647447
 21
-37.7313483008
 31
0.0
 11
69.2689940716
 21
-37.8310052913
 31
0.0
 11
69.1322095818
 21
-37.9253071691
 31
0.0
  0
SPLINE
  5
6D1
100
AcDbEntity
  8
0
100
AcDbSpline
 62
7
  6
CONTINUOUS
 70
0
 71
3
 72
10
 73
6
 74
4
 42
0.0000001
 43
0.0000001
 44
0.0000000001
 12
-0.2526038827
 22
-0.4495512038
 32
0.0
 13
-0.4603379694
 23
-0.2315080305
 33
0.0
 40
0.0
 40
0.0
 40
0.0
 40
0.0
 40
0.3915193347
 40
0.7940496483
 40
1.0
 40
1.0
 40
1.0
 40
1.0
 10
70.1532229463
 20
-39.5268642195
 30
0.0
 10
70.1202565116
 20
-39.5855335489
 30
0.0
 10
70.0389116782
 20
-39.6961559874
 30
0.0
 10
69.9065623345
 20
-39.8075415427
 30
0.0
 10
69.8159223856
 20
-39.8599249529
 30
0.0
 10
69.78432013
 20
-39.8758180063
 30
0.0
 11
70.1532229463
 21
-39.5268642195
 31
0.0
 11
70.0342664043
 21
-39.6892305018
 31
0.0
 11
69.8761216065
 21
-39.8227015245
 31
0.0
 11
69.78432013
 21
-39.8758180063
 31
0.0
  0
SPLINE
  5
6D2
100
AcDbEntity
  8
0
100
AcDbSpline
 62
7
  6
CONTINUOUS
 70
0
 71
3
 72
10
 73
6
 74
4
 42
0.0000001
 43
0.0000001
 44
0.0000000001
 12
-0.4865658941
 22
-0.2446982855
 32
0.0
 13
-0.5402886881
 23
0.0579693842
 33
0.0
 40
0.0
 40
0.0
 40
0.0
 40
0.0
 40
0.1945428616
 40
0.5924002923
 40
1.0
 40
1.0
 40
1.0
 40
1.0
 10
69.78432013
 20
-39.8758180063
 30
0.0
 10
69.7527674896
 20
-39.8916861079
 30
0.0
 10
69.6538830804
 20
-39.9344296737
 30
0.0
 10
69.4761992198
 20
-39.9767728609
 30
0.0
 10
69.3288153115
 20
-39.9775022265
 30
0.0
 10
69.2554081411
 20
-39.9696261251
 30
0.0
 11
69.78432013
 21
-39.8758180063
 31
0.0
 11
69.6871331026
 21
-39.9178553971
 31
0.0
 11
69.476889122
 21
-39.9682169055
 31
0.0
 11
69.2554081411
 21
-39.9696261251
 31
0.0
  0
SPLINE
  5
6D3
100
AcDbEntity
  8
0
100
AcDbSpline
 62
7
  6
CONTINUOUS
 70
0
 71
3
 72
14
 73
10
 74
8
 42
0.0000001
 43
0.0000001
 44
0.0000000001
 12
1.5265164876
 22
-0.440625999
 32
0.0
 13
0.7919061665
 23
1.38096161
 33
0.0
 40
0.0
 40
0.0
 40
0.0
 40
0.0
 40
0.1778235013
 40
0.3469761403
 40
0.5074973323
 40
0.6594332102
 40
0.8028381927
 40
0.9377770198
 40
1.0
 40
1.0
 40
1.0
 40
1.0
 10
-70.28426541
 20
-40.2786429395
 30
0.0
 10
-70.1937819078
 20
-40.3047608254
 30
0.0
 10
-70.0116861992
 20
-40.3386171402
 30
0.0
 10
-69.7412065619
 20
-40.33399816
 30
0.0
 10
-69.4905063199
 20
-40.2781500788
 30
0.0
 10
-69.2688389152
 20
-40.1782851378
 30
0.0
 10
-69.0833011415
 20
-40.0431690258
 30
0.0
 10
-68.9617622663
 20
-39.9081073149
 30
0.0
 10
-68.904958426
 20
-39.8200618046
 30
0.0
 10
-68.8885335054
 20
-39.791419289
 30
0.0
 11
-70.28426541
 21
-40.2786429395
 31
0.0
 11
-70.0063920122
 21
-40.3297413554
 31
0.0
 11
-69.7376843175
 21
-40.3246451666
 31
0.0
 11
-69.4888647447
 21
-40.2686516992
 31
0.0
 11
-69.2689940716
 21
-40.1689947087
 31
0.0
 11
-69.0851422926
 21
-40.0344106795
 31
0.0
 11
-68.9421626115
 21
-39.8746534081
 31
0.0
 11
-68.8885335054
 21
-39.791419289
 31
0.0
  0
SPLINE
  5
6D4
100
AcDbEntity
  8
0
100
AcDbSpline
 62
7
  6
CONTINUOUS
 70
0
 71
3
 72
9
 73
5
 74
3
 42
0.0000001
 43
0.0000001
 44
0.0000000001
 12
0.1141041339
 22
0.1989799236
 32
0.0
 13
0.0601421282
 23
0.2213573269
 33
0.0
 40
0.0
 40
0.0
 40
0.0
 40
0.0
 40
0.4464455663
 40
1.0
 40
1.0
 40
1.0
 40
1.0
 10
-68.8885335054
 20
-39.791419289
 30
0.0
 10
-68.8715530772
 20
-39.7618080541
 30
0.0
 10
-68.8371141399
 20
-39.693432333
 30
0.0
 10
-68.8115701767
 20
-39.6211633956
 30
0.0
 10
-68.8004728628
 20
-39.5803189523
 30
0.0
 11
-68.8885335054
 21
-39.791419289
 31
0.0
 11
-68.8425757452
 21
-39.6999800079
 31
0.0
 11
-68.8004728628
 21
-39.5803189523
 31
0.0
  0
SPLINE
  5
6D5
100
AcDbEntity
  8
0
100
AcDbSpline
 62
7
  6
CONTINUOUS
 70
0
 71
3
 72
8
 73
4
 74
2
 42
0.0000001
 43
0.0000001
 44
0.0000000001
 12
0.0305187141
 22
0.1649907312
 32
0.0
 13
-0.0050465324
 23
0.1672594158
 33
0.0
 40
0.0
 40
0.0
 40
0.0
 40
0.0
 40
1.0
 40
1.0
 40
1.0
 40
1.0
 10
-68.7851536915
 20
-39.5131850147
 30
0.0
 10
-68.7749807868
 20
-39.4581881043
 30
0.0
 10
-68.7704092665
 20
-39.4020898658
 30
0.0
 10
-68.772091444
 20
-39.3463367272
 30
0.0
 11
-68.7851536915
 21
-39.5131850147
 31
0.0
 11
-68.772091444
 21
-39.3463367272
 31
0.0
  0
SPLINE
  5
6D6
100
AcDbEntity
  8
0
100
AcDbSpline
 62
7
  6
CONTINUOUS
 70
0
 71
3
 72
13
 73
9
 74
7
 42
0.0000001
 43
0.0000001
 44
0.0000000001
 12
-1.1886194081
 22
-0.0088573011
 32
0.0
 13
-0.5914611445
 23
-1.0314165604
 33
0.0
 40
0.0
 40
0.0
 40
0.0
 40
0.0
 40
0.1256676348
 40
0.340589144
 40
0.544015793
 40
0.7360204429
 40
0.9166897738
 40
1.0
 40
1.0
 40
1.0
 40
1.0
 10
-69.1133421782
 20
-37.6658384414
 30
0.0
 10
-69.1631325081
 20
-37.6662094668
 30
0.0
 10
-69.2979872758
 20
-37.6747329869
 30
0.0
 10
-69.5094936801
 20
-37.7218499212
 30
0.0
 10
-69.7311610848
 20
-37.8217148622
 30
0.0
 10
-69.9166988585
 20
-37.9568309742
 30
0.0
 10
-70.0382377337
 20
-38.0918926851
 30
0.0
 10
-70.095041574
 20
-38.1799381954
 30
0.0
 10
-70.1114664946
 20
-38.208580711
 30
0.0
 11
-69.1133421782
 21
-37.6658384414
 31
0.0
 11
-69.2623156825
 21
-37.6753548334
 31
0.0
 11
-69.5111352553
 21
-37.7313483008
 31
0.0
 11
-69.7310059284
 21
-37.8310052913
 31
0.0
 11
-69.9148577074
 21
-37.9655893205
 31
0.0
 11
-70.0578373885
 21
-38.1253465919
 31
0.0
 11
-70.1114664946
 21
-38.208580711
 31
0.0
  0
SPLINE
  5
6D7
100
AcDbEntity
  8
0
100
AcDbSpline
 62
7
  6
CONTINUOUS
 70
0
 71
3
 72
9
 73
5
 74
3
 42
0.0000001
 43
0.0000001
 44
0.0000000001
 12
-0.1141041339
 22
-0.1989799236
 32
0.0
 13
-0.0601421282
 23
-0.2213573269
 33
0.0
 40
0.0
 40
0.0
 40
0.0
 40
0.0
 40
0.4464455663
 40
1.0
 40
1.0
 40
1.0
 40
1.0
 10
-70.1114664946
 20
-38.208580711
 30
0.0
 10
-70.1284469228
 20
-38.2381919459
 30
0.0
 10
-70.1628858601
 20
-38.306567667
 30
0.0
 10
-70.1884298233
 20
-38.3788366044
 30
0.0
 10
-70.1995271372
 20
-38.4196810477
 30
0.0
 11
-70.1114664946
 21
-38.208580711
 31
0.0
 11
-70.1574242548
 21
-38.3000199921
 31
0.0
 11
-70.1995271372
 21
-38.4196810477
 31
0.0
  0
SPLINE
  5
6D8
100
AcDbEntity
  8
0
100
AcDbSpline
 62
7
  6
CONTINUOUS
 70
0
 71
3
 72
8
 73
4
 74
2
 42
0.0000001
 43
0.0000001
 44
0.0000000001
 12
-0.0305187141
 22
-0.1649907312
 32
0.0
 13
0.0050465324
 23
-0.1672594158
 33
0.0
 40
0.0
 40
0.0
 40
0.0
 40
0.0
 40
1.0
 40
1.0
 40
1.0
 40
1.0
 10
-70.2148463085
 20
-38.4868149853
 30
0.0
 10
-70.2250192132
 20
-38.5418118957
 30
0.0
 10
-70.2295907335
 20
-38.5979101342
 30
0.0
 10
-70.227908556
 20
-38.6536632728
 30
0.0
 11
-70.2148463085
 21
-38.4868149853
 31
0.0
 11
-70.227908556
 21
-38.6536632728
 31
0.0
  0
SPLINE
  5
6D9
100
AcDbEntity
  8
0
100
AcDbSpline
 62
7
  6
CONTINUOUS
 70
0
 71
3
 72
10
 73
6
 74
4
 42
0.0000001
 43
0.0000001
 44
0.0000000001
 12
0.2526038827
 22
0.4495512038
 32
0.0
 13
0.4603379694
 23
0.2315080305
 33
0.0
 40
0.0
 40
0.0
 40
0.0
 40
0.0
 40
0.3915193347
 40
0.7940496483
 40
1.0
 40
1.0
 40
1.0
 40
1.0
 10
-70.1532229463
 20
-38.4731357805
 30
0.0
 10
-70.1202565116
 20
-38.4144664511
 30
0.0
 10
-70.0389116782
 20
-38.3038440126
 30
0.0
 10
-69.9065623345
 20
-38.1924584573
 30
0.0
 10
-69.8159223856
 20
-38.1400750471
 30
0.0
 10
-69.78432013
 20
-38.1241819937
 30
0.0
 11
-70.1532229463
 21
-38.4731357805
 31
0.0
 11
-70.0342664043
 21
-38.3107694982
 31
0.0
 11
-69.8761216065
 21
-38.1772984755
 31
0.0
 11
-69.78432013
 21
-38.1241819937
 31
0.0
  0
SPLINE
  5
6DA
100
AcDbEntity
  8
0
100
AcDbSpline
 62
7
  6
CONTINUOUS
 70
0
 71
3
 72
10
 73
6
 74
4
 42
0.0000001
 43
0.0000001
 44
0.0000000001
 12
0.4865658941
 22
0.2446982855
 32
0.0
 13
0.5402886881
 23
-0.0579693842
 33
0.0
 40
0.0
 40
0.0
 40
0.0
 40
0.0
 40
0.1945428616
 40
0.5924002923
 40
1.0
 40
1.0
 40
1.0
 40
1.0
 10
-69.78432013
 20
-38.1241819937
 30
0.0
 10
-69.7527674896
 20
-38.1083138921
 30
0.0
 10
-69.6538830804
 20
-38.0655703263
 30
0.0
 10
-69.4761992198
 20
-38.0232271391
 30
0.0
 10
-69.3288153115
 20
-38.0224977735
 30
0.0
 10
-69.2554081411
 20
-38.0303738749
 30
0.0
 11
-69.78432013
 21
-38.1241819937
 31
0.0
 11
-69.6871331026
 21
-38.0821446029
 31
0.0
 11
-69.476889122
 21
-38.0317830945
 31
0.0
 11
-69.2554081411
 21
-38.0303738749
 31
0.0
  0
SPLINE
  5
6DB
100
AcDbEntity
  8
0
100
AcDbSpline
 62
7
  6
CONTINUOUS
 70
0
 71
3
 72
10
 73
6
 74
4
 42
0.0000001
 43
0.0000001
 44
0.0000000001
 12
-0.2526038827
 22
-0.4495512038
 32
0.0
 13
-0.4603379694
 23
-0.2315080305
 33
0.0
 40
0.0
 40
0.0
 40
0.0
 40
0.0
 40
0.3915193347
 40
0.7940496483
 40
1.0
 40
1.0
 40
1.0
 40
1.0
 10
-68.8467770537
 20
-39.5268642195
 30
0.0
 10
-68.8797434884
 20
-39.5855335489
 30
0.0
 10
-68.9610883218
 20
-39.6961559874
 30
0.0
 10
-69.0934376655
 20
-39.8075415427
 30
0.0
 10
-69.1840776144
 20
-39.8599249529
 30
0.0
 10
-69.21567987
 20
-39.8758180063
 30
0.0
 11
-68.8467770537
 21
-39.5268642195
 31
0.0
 11
-68.9657335957
 21
-39.6892305018
 31
0.0
 11
-69.1238783935
 21
-39.8227015245
 31
0.0
 11
-69.21567987
 21
-39.8758180063
 31
0.0
  0
SPLINE
  5
6DC
100
AcDbEntity
  8
0
100
AcDbSpline
 62
7
  6
CONTINUOUS
 70
0
 71
3
 72
10
 73
6
 74
4
 42
0.0000001
 43
0.0000001
 44
0.0000000001
 12
-0.4865658941
 22
-0.2446982855
 32
0.0
 13
-0.5402886881
 23
0.0579693842
 33
0.0
 40
0.0
 40
0.0
 40
0.0
 40
0.0
 40
0.1945428616
 40
0.5924002923
 40
1.0
 40
1.0
 40
1.0
 40
1.0
 10
-69.21567987
 20
-39.8758180063
 30
0.0
 10
-69.2472325104
 20
-39.8916861079
 30
0.0
 10
-69.3461169196
 20
-39.9344296737
 30
0.0
 10
-69.5238007802
 20
-39.9767728609
 30
0.0
 10
-69.6711846885
 20
-39.9775022265
 30
0.0
 10
-69.7445918589
 20
-39.9696261251
 30
0.0
 11
-69.21567987
 21
-39.8758180063
 31
0.0
 11
-69.3128668974
 21
-39.9178553971
 31
0.0
 11
-69.523110878
 21
-39.9682169055
 31
0.0
 11
-69.7445918589
 21
-39.9696261251
 31
0.0
  0
SPLINE
  5
6DD
100
AcDbEntity
  8
0
100
AcDbSpline
 62
7
  6
CONTINUOUS
 70
0
 71
3
 72
13
 73
9
 74
7
 42
0.0000001
 43
0.0000001
 44
0.0000000001
 12
1.1886194081
 22
0.0088573011
 32
0.0
 13
0.5914611445
 23
1.0314165604
 33
0.0
 40
0.0
 40
0.0
 40
0.0
 40
0.0
 40
0.1256676348
 40
0.340589144
 40
0.544015793
 40
0.7360204429
 40
0.9166897738
 40
1.0
 40
1.0
 40
1.0
 40
1.0
 10
69.1133421782
 20
37.6658384414
 30
0.0
 10
69.1631325081
 20
37.6662094668
 30
0.0
 10
69.2979872758
 20
37.6747329869
 30
0.0
 10
69.5094936801
 20
37.7218499212
 30
0.0
 10
69.7311610848
 20
37.8217148622
 30
0.0
 10
69.9166988585
 20
37.9568309742
 30
0.0
 10
70.0382377337
 20
38.0918926851
 30
0.0
 10
70.095041574
 20
38.1799381954
 30
0.0
 10
70.1114664946
 20
38.208580711
 30
0.0
 11
69.1133421782
 21
37.6658384414
 31
0.0
 11
69.2623156825
 21
37.6753548334
 31
0.0
 11
69.5111352553
 21
37.7313483008
 31
0.0
 11
69.7310059284
 21
37.8310052913
 31
0.0
 11
69.9148577074
 21
37.9655893205
 31
0.0
 11
70.0578373885
 21
38.1253465919
 31
0.0
 11
70.1114664946
 21
38.208580711
 31
0.0
  0
SPLINE
  5
6DE
100
AcDbEntity
  8
0
100
AcDbSpline
 62
7
  6
CONTINUOUS
 70
0
 71
3
 72
9
 73
5
 74
3
 42
0.0000001
 43
0.0000001
 44
0.0000000001
 12
0.1141041339
 22
0.1989799236
 32
0.0
 13
0.0601421282
 23
0.2213573269
 33
0.0
 40
0.0
 40
0.0
 40
0.0
 40
0.0
 40
0.4464455663
 40
1.0
 40
1.0
 40
1.0
 40
1.0
 10
70.1114664946
 20
38.208580711
 30
0.0
 10
70.1284469228
 20
38.2381919459
 30
0.0
 10
70.1628858601
 20
38.306567667
 30
0.0
 10
70.1884298233
 20
38.3788366044
 30
0.0
 10
70.1995271372
 20
38.4196810477
 30
0.0
 11
70.1114664946
 21
38.208580711
 31
0.0
 11
70.1574242548
 21
38.3000199921
 31
0.0
 11
70.1995271372
 21
38.4196810477
 31
0.0
  0
SPLINE
  5
6DF
100
AcDbEntity
  8
0
100
AcDbSpline
 62
7
  6
CONTINUOUS
 70
0
 71
3
 72
8
 73
4
 74
2
 42
0.0000001
 43
0.0000001
 44
0.0000000001
 12
0.0305187141
 22
0.1649907312
 32
0.0
 13
-0.0050465324
 23
0.1672594158
 33
0.0
 40
0.0
 40
0.0
 40
0.0
 40
0.0
 40
1.0
 40
1.0
 40
1.0
 40
1.0
 10
70.2148463085
 20
38.4868149853
 30
0.0
 10
70.2250192132
 20
38.5418118957
 30
0.0
 10
70.2295907335
 20
38.5979101342
 30
0.0
 10
70.227908556
 20
38.6536632728
 30
0.0
 11
70.2148463085
 21
38.4868149853
 31
0.0
 11
70.227908556
 21
38.6536632728
 31
0.0
  0
SPLINE
  5
6E0
100
AcDbEntity
  8
0
100
AcDbSpline
 62
7
  6
CONTINUOUS
 70
0
 71
3
 72
14
 73
10
 74
8
 42
0.0000001
 43
0.0000001
 44
0.0000000001
 12
-1.5265164876
 22
0.440625999
 32
0.0
 13
-0.7919061665
 23
-1.38096161
 33
0.0
 40
0.0
 40
0.0
 40
0.0
 40
0.0
 40
0.1778235013
 40
0.3469761403
 40
0.5074973323
 40
0.6594332102
 40
0.8028381927
 40
0.9377770198
 40
1.0
 40
1.0
 40
1.0
 40
1.0
 10
70.28426541
 20
40.2786429395
 30
0.0
 10
70.1937819078
 20
40.3047608254
 30
0.0
 10
70.0116861992
 20
40.3386171402
 30
0.0
 10
69.7412065619
 20
40.33399816
 30
0.0
 10
69.4905063199
 20
40.2781500788
 30
0.0
 10
69.2688389152
 20
40.1782851378
 30
0.0
 10
69.0833011415
 20
40.0431690258
 30
0.0
 10
68.9617622663
 20
39.9081073149
 30
0.0
 10
68.904958426
 20
39.8200618046
 30
0.0
 10
68.8885335054
 20
39.791419289
 30
0.0
 11
70.28426541
 21
40.2786429395
 31
0.0
 11
70.0063920122
 21
40.3297413554
 31
0.0
 11
69.7376843175
 21
40.3246451666
 31
0.0
 11
69.4888647447
 21
40.2686516992
 31
0.0
 11
69.2689940716
 21
40.1689947087
 31
0.0
 11
69.0851422926
 21
40.0344106795
 31
0.0
 11
68.9421626115
 21
39.8746534081
 31
0.0
 11
68.8885335054
 21
39.791419289
 31
0.0
  0
SPLINE
  5
6E1
100
AcDbEntity
  8
0
100
AcDbSpline
 62
7
  6
CONTINUOUS
 70
0
 71
3
 72
9
 73
5
 74
3
 42
0.0000001
 43
0.0000001
 44
0.0000000001
 12
-0.1141041339
 22
-0.1989799236
 32
0.0
 13
-0.0601421282
 23
-0.2213573269
 33
0.0
 40
0.0
 40
0.0
 40
0.0
 40
0.0
 40
0.4464455663
 40
1.0
 40
1.0
 40
1.0
 40
1.0
 10
68.8885335054
 20
39.791419289
 30
0.0
 10
68.8715530772
 20
39.7618080541
 30
0.0
 10
68.8371141399
 20
39.693432333
 30
0.0
 10
68.8115701767
 20
39.6211633956
 30
0.0
 10
68.8004728628
 20
39.5803189523
 30
0.0
 11
68.8885335054
 21
39.791419289
 31
0.0
 11
68.8425757452
 21
39.6999800079
 31
0.0
 11
68.8004728628
 21
39.5803189523
 31
0.0
  0
SPLINE
  5
6E2
100
AcDbEntity
  8
0
100
AcDbSpline
 62
7
  6
CONTINUOUS
 70
0
 71
3
 72
8
 73
4
 74
2
 42
0.0000001
 43
0.0000001
 44
0.0000000001
 12
-0.0305187141
 22
-0.1649907312
 32
0.0
 13
0.0050465324
 23
-0.1672594158
 33
0.0
 40
0.0
 40
0.0
 40
0.0
 40
0.0
 40
1.0
 40
1.0
 40
1.0
 40
1.0
 10
68.7851536915
 20
39.5131850147
 30
0.0
 10
68.7749807868
 20
39.4581881043
 30
0.0
 10
68.7704092665
 20
39.4020898658
 30
0.0
 10
68.772091444
 20
39.3463367272
 30
0.0
 11
68.7851536915
 21
39.5131850147
 31
0.0
 11
68.772091444
 21
39.3463367272
 31
0.0
  0
SPLINE
  5
6E3
100
AcDbEntity
  8
0
100
AcDbSpline
 62
7
  6
CONTINUOUS
 70
0
 71
3
 72
10
 73
6
 74
4
 42
0.0000001
 43
0.0000001
 44
0.0000000001
 12
0.2526038827
 22
0.4495512038
 32
0.0
 13
0.4603379694
 23
0.2315080305
 33
0.0
 40
0.0
 40
0.0
 40
0.0
 40
0.0
 40
0.3915193347
 40
0.7940496483
 40
1.0
 40
1.0
 40
1.0
 40
1.0
 10
68.8467770537
 20
39.5268642195
 30
0.0
 10
68.8797434884
 20
39.5855335489
 30
0.0
 10
68.9610883218
 20
39.6961559874
 30
0.0
 10
69.0934376655
 20
39.8075415427
 30
0.0
 10
69.1840776144
 20
39.8599249529
 30
0.0
 10
69.21567987
 20
39.8758180063
 30
0.0
 11
68.8467770537
 21
39.5268642195
 31
0.0
 11
68.9657335957
 21
39.6892305018
 31
0.0
 11
69.1238783935
 21
39.8227015245
 31
0.0
 11
69.21567987
 21
39.8758180063
 31
0.0
  0
SPLINE
  5
6E4
100
AcDbEntity
  8
0
100
AcDbSpline
 62
7
  6
CONTINUOUS
 70
0
 71
3
 72
10
 73
6
 74
4
 42
0.0000001
 43
0.0000001
 44
0.0000000001
 12
0.4865658941
 22
0.2446982855
 32
0.0
 13
0.5402886881
 23
-0.0579693842
 33
0.0
 40
0.0
 40
0.0
 40
0.0
 40
0.0
 40
0.1945428616
 40
0.5924002923
 40
1.0
 40
1.0
 40
1.0
 40
1.0
 10
69.21567987
 20
39.8758180063
 30
0.0
 10
69.2472325104
 20
39.8916861079
 30
0.0
 10
69.3461169196
 20
39.9344296737
 30
0.0
 10
69.5238007802
 20
39.9767728609
 30
0.0
 10
69.6711846885
 20
39.9775022265
 30
0.0
 10
69.7445918589
 20
39.9696261251
 30
0.0
 11
69.21567987
 21
39.8758180063
 31
0.0
 11
69.3128668974
 21
39.9178553971
 31
0.0
 11
69.523110878
 21
39.9682169055
 31
0.0
 11
69.7445918589
 21
39.9696261251
 31
0.0
  0
SPLINE
  5
6E5
100
AcDbEntity
  8
0
100
AcDbSpline
 62
7
  6
CONTINUOUS
 70
0
 71
3
 72
10
 73
6
 74
4
 42
0.0000001
 43
0.0000001
 44
0.0000000001
 12
-0.2526038827
 22
-0.4495512038
 32
0.0
 13
-0.4603379694
 23
-0.2315080305
 33
0.0
 40
0.0
 40
0.0
 40
0.0
 40
0.0
 40
0.3915193347
 40
0.7940496483
 40
1.0
 40
1.0
 40
1.0
 40
1.0
 10
70.1532229463
 20
38.4731357805
 30
0.0
 10
70.1202565116
 20
38.4144664511
 30
0.0
 10
70.0389116782
 20
38.3038440126
 30
0.0
 10
69.9065623345
 20
38.1924584573
 30
0.0
 10
69.8159223856
 20
38.1400750471
 30
0.0
 10
69.78432013
 20
38.1241819937
 30
0.0
 11
70.1532229463
 21
38.4731357805
 31
0.0
 11
70.0342664043
 21
38.3107694982
 31
0.0
 11
69.8761216065
 21
38.1772984755
 31
0.0
 11
69.78432013
 21
38.1241819937
 31
0.0
  0
SPLINE
  5
6E6
100
AcDbEntity
  8
0
100
AcDbSpline
 62
7
  6
CONTINUOUS
 70
0
 71
3
 72
10
 73
6
 74
4
 42
0.0000001
 43
0.0000001
 44
0.0000000001
 12
-0.4865658941
 22
-0.2446982855
 32
0.0
 13
-0.5402886881
 23
0.0579693842
 33
0.0
 40
0.0
 40
0.0
 40
0.0
 40
0.0
 40
0.1945428616
 40
0.5924002923
 40
1.0
 40
1.0
 40
1.0
 40
1.0
 10
69.78432013
 20
38.1241819937
 30
0.0
 10
69.7527674896
 20
38.1083138921
 30
0.0
 10
69.6538830804
 20
38.0655703263
 30
0.0
 10
69.4761992198
 20
38.0232271391
 30
0.0
 10
69.3288153115
 20
38.0224977735
 30
0.0
 10
69.2554081411
 20
38.0303738749
 30
0.0
 11
69.78432013
 21
38.1241819937
 31
0.0
 11
69.6871331026
 21
38.0821446029
 31
0.0
 11
69.476889122
 21
38.0317830945
 31
0.0
 11
69.2554081411
 21
38.0303738749
 31
0.0
  0
SPLINE
  5
6E7
100
AcDbEntity
  8
0
100
AcDbSpline
 62
7
  6
CONTINUOUS
 70
0
 71
3
 72
12
 73
8
 74
6
 42
0.0000001
 43
0.0000001
 44
0.0000000001
 12
1.1661202576
 22
-0.336598332
 32
0.0
 13
0.9461321519
 23
0.7636001138
 33
0.0
 40
0.0
 40
0.0
 40
0.0
 40
0.0
 40
0.232780886
 40
0.4542111292
 40
0.6643423267
 40
0.863234869
 40
1.0
 40
1.0
 40
1.0
 40
1.0
 10
-70.28426541
 20
37.7213570605
 30
0.0
 10
-70.1937819078
 20
37.6952391746
 30
0.0
 10
-70.0116861992
 20
37.6613828598
 30
0.0
 10
-69.7412065619
 20
37.66600184
 30
0.0
 10
-69.4905063199
 20
37.7218499212
 30
0.0
 10
-69.287768435
 20
37.8131867911
 30
0.0
 10
-69.175342064
 20
37.8904959979
 30
0.0
 10
-69.1322094348
 20
37.9253072877
 30
0.0
 11
-70.28426541
 21
37.7213570605
 31
0.0
 11
-70.0063920122
 21
37.6702586446
 31
0.0
 11
-69.7376843175
 21
37.6753548334
 31
0.0
 11
-69.4888647447
 21
37.7313483008
 31
0.0
 11
-69.2689940716
 21
37.8310052913
 31
0.0
 11
-69.1322094348
 21
37.9253072877
 31
0.0
  0
SPLINE
  5
6E8
100
AcDbEntity
  8
0
100
AcDbSpline
 62
7
  6
CONTINUOUS
 70
0
 71
3
 72
14
 73
10
 74
8
 42
0.0000001
 43
0.0000001
 44
0.0000000001
 12
-1.5265164876
 22
0.440625999
 32
0.0
 13
-0.7919061665
 23
-1.38096161
 33
0.0
 40
0.0
 40
0.0
 40
0.0
 40
0.0
 40
0.1778235013
 40
0.3469761403
 40
0.5074973323
 40
0.6594332102
 40
0.8028381927
 40
0.9377770198
 40
1.0
 40
1.0
 40
1.0
 40
1.0
 10
-68.71573459
 20
40.2786429395
 30
0.0
 10
-68.8062180922
 20
40.3047608254
 30
0.0
 10
-68.9883138008
 20
40.3386171402
 30
0.0
 10
-69.2587934381
 20
40.33399816
 30
0.0
 10
-69.5094936801
 20
40.2781500788
 30
0.0
 10
-69.7311610848
 20
40.1782851378
 30
0.0
 10
-69.9166988585
 20
40.0431690258
 30
0.0
 10
-70.0382377337
 20
39.9081073149
 30
0.0
 10
-70.095041574
 20
39.8200618046
 30
0.0
 10
-70.1114664946
 20
39.791419289
 30
0.0
 11
-68.71573459
 21
40.2786429395
 31
0.0
 11
-68.9936079878
 21
40.3297413554
 31
0.0
 11
-69.2623156825
 21
40.3246451666
 31
0.0
 11
-69.5111352553
 21
40.2686516992
 31
0.0
 11
-69.7310059284
 21
40.1689947087
 31
0.0
 11
-69.9148577074
 21
40.0344106795
 31
0.0
 11
-70.0578373885
 21
39.8746534081
 31
0.0
 11
-70.1114664946
 21
39.791419289
 31
0.0
  0
SPLINE
  5
6E9
100
AcDbEntity
  8
0
100
AcDbSpline
 62
7
  6
CONTINUOUS
 70
0
 71
3
 72
9
 73
5
 74
3
 42
0.0000001
 43
0.0000001
 44
0.0000000001
 12
-0.1141041339
 22
-0.1989799236
 32
0.0
 13
-0.0601421282
 23
-0.2213573269
 33
0.0
 40
0.0
 40
0.0
 40
0.0
 40
0.0
 40
0.4464455663
 40
1.0
 40
1.0
 40
1.0
 40
1.0
 10
-70.1114664946
 20
39.791419289
 30
0.0
 10
-70.1284469228
 20
39.7618080541
 30
0.0
 10
-70.1628858601
 20
39.693432333
 30
0.0
 10
-70.1884298233
 20
39.6211633956
 30
0.0
 10
-70.1995271372
 20
39.5803189523
 30
0.0
 11
-70.1114664946
 21
39.791419289
 31
0.0
 11
-70.1574242548
 21
39.6999800079
 31
0.0
 11
-70.1995271372
 21
39.5803189523
 31
0.0
  0
SPLINE
  5
6EA
100
AcDbEntity
  8
0
100
AcDbSpline
 62
7
  6
CONTINUOUS
 70
0
 71
3
 72
8
 73
4
 74
2
 42
0.0000001
 43
0.0000001
 44
0.0000000001
 12
-0.0305187141
 22
-0.1649907312
 32
0.0
 13
0.0050465324
 23
-0.1672594158
 33
0.0
 40
0.0
 40
0.0
 40
0.0
 40
0.0
 40
1.0
 40
1.0
 40
1.0
 40
1.0
 10
-70.2148463085
 20
39.5131850147
 30
0.0
 10
-70.2250192132
 20
39.4581881043
 30
0.0
 10
-70.2295907335
 20
39.4020898658
 30
0.0
 10
-70.227908556
 20
39.3463367272
 30
0.0
 11
-70.2148463085
 21
39.5131850147
 31
0.0
 11
-70.227908556
 21
39.3463367272
 31
0.0
  0
SPLINE
  5
6EB
100
AcDbEntity
  8
0
100
AcDbSpline
 62
7
  6
CONTINUOUS
 70
0
 71
3
 72
10
 73
6
 74
4
 42
0.0000001
 43
0.0000001
 44
0.0000000001
 12
0.2526038827
 22
0.4495512038
 32
0.0
 13
0.4603379694
 23
0.2315080305
 33
0.0
 40
0.0
 40
0.0
 40
0.0
 40
0.0
 40
0.3915193347
 40
0.7940496483
 40
1.0
 40
1.0
 40
1.0
 40
1.0
 10
-70.1532229463
 20
39.5268642195
 30
0.0
 10
-70.1202565116
 20
39.5855335489
 30
0.0
 10
-70.0389116782
 20
39.6961559874
 30
0.0
 10
-69.9065623345
 20
39.8075415427
 30
0.0
 10
-69.8159223856
 20
39.8599249529
 30
0.0
 10
-69.78432013
 20
39.8758180063
 30
0.0
 11
-70.1532229463
 21
39.5268642195
 31
0.0
 11
-70.0342664043
 21
39.6892305018
 31
0.0
 11
-69.8761216065
 21
39.8227015245
 31
0.0
 11
-69.78432013
 21
39.8758180063
 31
0.0
  0
SPLINE
  5
6EC
100
AcDbEntity
  8
0
100
AcDbSpline
 62
7
  6
CONTINUOUS
 70
0
 71
3
 72
10
 73
6
 74
4
 42
0.0000001
 43
0.0000001
 44
0.0000000001
 12
0.4865658941
 22
0.2446982855
 32
0.0
 13
0.5402886881
 23
-0.0579693842
 33
0.0
 40
0.0
 40
0.0
 40
0.0
 40
0.0
 40
0.1945428616
 40
0.5924002923
 40
1.0
 40
1.0
 40
1.0
 40
1.0
 10
-69.78432013
 20
39.8758180063
 30
0.0
 10
-69.7527674896
 20
39.8916861079
 30
0.0
 10
-69.6538830804
 20
39.9344296737
 30
0.0
 10
-69.4761992198
 20
39.9767728609
 30
0.0
 10
-69.3288153115
 20
39.9775022265
 30
0.0
 10
-69.2554081411
 20
39.9696261251
 30
0.0
 11
-69.78432013
 21
39.8758180063
 31
0.0
 11
-69.6871331026
 21
39.9178553971
 31
0.0
 11
-69.476889122
 21
39.9682169055
 31
0.0
 11
-69.2554081411
 21
39.9696261251
 31
0.0
  0
SPLINE
  5
6ED
100
AcDbEntity
  8
RACCORDO
100
AcDbSpline
 62
7
  6
CONTINUOUS
 70
0
 71
3
 72
10
 73
6
 74
4
 42
0.0000001
 43
0.0000001
 44
0.0000000001
 12
0.0985917985
 22
0.4941639988
 32
0.0
 13
0.5039031658
 23
0.0
 33
0.0
 40
0.0
 40
0.0
 40
0.0
 40
0.0
 40
0.1454828719
 40
0.5094726794
 40
1.0
 40
1.0
 40
1.0
 40
1.0
 10
-13.008575216
 20
51.3121420732
 30
0.0
 10
-13.0037940767
 20
51.3361062058
 30
0.0
 10
-12.8820661513
 20
51.3287232695
 30
0.0
 10
-12.7452003628
 20
51.3583213887
 30
0.0
 10
-12.5910508212
 20
51.3551229611
 30
0.0
 10
-12.5086580646
 20
51.3551229611
 30
0.0
 11
-13.008575216
 21
51.3121420732
 31
0.0
 11
-12.9385139206
 21
51.3337213544
 31
0.0
 11
-12.7557702293
 21
51.349406749
 31
0.0
 11
-12.5086580646
 21
51.3551229611
 31
0.0
  0
SPLINE
  5
6EE
100
AcDbEntity
  8
RACCORDO
100
AcDbSpline
 62
7
  6
CONTINUOUS
 70
0
 71
3
 72
10
 73
6
 74
4
 42
0.0000001
 43
0.0000001
 44
0.0000000001
 12
0.5039031658
 22
0.0
 32
0.0
 13
0.0985917985
 23
-0.4941639988
 33
0.0
 40
0.0
 40
0.0
 40
0.0
 40
0.0
 40
0.4905273206
 40
0.8545171281
 40
1.0
 40
1.0
 40
1.0
 40
1.0
 10
12.5086580646
 20
51.3551229611
 30
0.0
 10
12.5910508212
 20
51.3551229611
 30
0.0
 10
12.7452003628
 20
51.3583213887
 30
0.0
 10
12.8820661513
 20
51.3287232695
 30
0.0
 10
13.0037940767
 20
51.3361062058
 30
0.0
 10
13.008575216
 20
51.3121420732
 30
0.0
 11
12.5086580646
 21
51.3551229611
 31
0.0
 11
12.7557702293
 21
51.349406749
 31
0.0
 11
12.9385139206
 21
51.3337213544
 31
0.0
 11
13.008575216
 21
51.3121420732
 31
0.0
  0
SPLINE
  5
6EF
100
AcDbEntity
  8
RACCORDO
100
AcDbSpline
 62
7
  6
CONTINUOUS
 70
0
 71
3
 72
10
 73
6
 74
4
 42
0.0000001
 43
0.0000001
 44
0.0000000001
 12
0.0985915677
 22
0.4941628422
 32
0.0
 13
0.5039019863
 23
0.0
 33
0.0
 40
0.0
 40
0.0
 40
0.0
 40
0.0
 40
0.145482859
 40
0.5094726723
 40
1.0
 40
1.0
 40
1.0
 40
1.0
 10
-12.758575216
 20
-46.2878579268
 30
0.0
 10
-12.7537940883
 20
-46.2638938524
 30
0.0
 10
-12.6320664674
 20
-46.271276717
 30
0.0
 10
-12.4952009899
 20
-46.2416786743
 30
0.0
 10
-12.3410518112
 20
-46.2448770389
 30
0.0
 10
-12.2586592463
 20
-46.2448770389
 30
0.0
 11
-12.758575216
 21
-46.2878579268
 31
0.0
 11
-12.6885140988
 21
-46.2662786719
 31
0.0
 11
-12.5057708352
 21
-46.2505932811
 31
0.0
 11
-12.2586592463
 21
-46.2448770389
 31
0.0
  0
SPLINE
  5
6F0
100
AcDbEntity
  8
RACCORDO
100
AcDbSpline
 62
7
  6
CONTINUOUS
 70
0
 71
3
 72
10
 73
6
 74
4
 42
0.0000001
 43
0.0000001
 44
0.0000000001
 12
0.5039019863
 22
0.0
 32
0.0
 13
0.0985915677
 23
-0.4941628422
 33
0.0
 40
0.0
 40
0.0
 40
0.0
 40
0.0
 40
0.4905273277
 40
0.854517141
 40
1.0
 40
1.0
 40
1.0
 40
1.0
 10
12.2586592463
 20
-46.2448770389
 30
0.0
 10
12.3410518112
 20
-46.2448770389
 30
0.0
 10
12.4952009899
 20
-46.2416786743
 30
0.0
 10
12.6320664674
 20
-46.271276717
 30
0.0
 10
12.7537940883
 20
-46.2638938524
 30
0.0
 10
12.758575216
 20
-46.2878579268
 30
0.0
 11
12.2586592463
 21
-46.2448770389
 31
0.0
 11
12.5057708352
 21
-46.2505932811
 31
0.0
 11
12.6885140988
 21
-46.2662786719
 31
0.0
 11
12.758575216
 21
-46.2878579268
 31
0.0
  0
SPLINE
  5
6F1
100
AcDbEntity
  8
RACCORDO
100
AcDbSpline
 62
7
  6
CONTINUOUS
 70
0
 71
3
 72
10
 73
6
 74
4
 42
0.0000001
 43
0.0000001
 44
0.0000000001
 12
-0.5039019863
 22
0.0
 32
0.0
 13
-0.0985915677
 23
0.4941628422
 33
0.0
 40
0.0
 40
0.0
 40
0.0
 40
0.0
 40
0.4905273277
 40
0.854517141
 40
1.0
 40
1.0
 40
1.0
 40
1.0
 10
-12.2586592463
 20
46.2448770389
 30
0.0
 10
-12.3410518112
 20
46.2448770389
 30
0.0
 10
-12.4952009899
 20
46.2416786743
 30
0.0
 10
-12.6320664674
 20
46.271276717
 30
0.0
 10
-12.7537940883
 20
46.2638938524
 30
0.0
 10
-12.758575216
 20
46.2878579268
 30
0.0
 11
-12.2586592463
 21
46.2448770389
 31
0.0
 11
-12.5057708352
 21
46.2505932811
 31
0.0
 11
-12.6885140988
 21
46.2662786719
 31
0.0
 11
-12.758575216
 21
46.2878579268
 31
0.0
  0
SPLINE
  5
6F2
100
AcDbEntity
  8
RACCORDO
100
AcDbSpline
 62
7
  6
CONTINUOUS
 70
0
 71
3
 72
10
 73
6
 74
4
 42
0.0000001
 43
0.0000001
 44
0.0000000001
 12
-0.0985915677
 22
-0.4941628422
 32
0.0
 13
-0.5039019863
 23
-0.0
 33
0.0
 40
0.0
 40
0.0
 40
0.0
 40
0.0
 40
0.145482859
 40
0.5094726723
 40
1.0
 40
1.0
 40
1.0
 40
1.0
 10
12.758575216
 20
46.2878579268
 30
0.0
 10
12.7537940883
 20
46.2638938524
 30
0.0
 10
12.6320664674
 20
46.271276717
 30
0.0
 10
12.4952009899
 20
46.2416786743
 30
0.0
 10
12.3410518112
 20
46.2448770389
 30
0.0
 10
12.2586592463
 20
46.2448770389
 30
0.0
 11
12.758575216
 21
46.2878579268
 31
0.0
 11
12.6885140988
 21
46.2662786719
 31
0.0
 11
12.5057708352
 21
46.2505932811
 31
0.0
 11
12.2586592463
 21
46.2448770389
 31
0.0
  0
SPLINE
  5
6F3
100
AcDbEntity
  8
RACCORDO
100
AcDbSpline
 62
7
  6
CONTINUOUS
 70
0
 71
3
 72
10
 73
6
 74
4
 42
0.0000001
 43
0.0000001
 44
0.0000000001
 12
-0.5039031658
 22
0.0
 32
0.0
 13
-0.0985917985
 23
0.4941639988
 33
0.0
 40
0.0
 40
0.0
 40
0.0
 40
0.0
 40
0.4905273206
 40
0.8545171281
 40
1.0
 40
1.0
 40
1.0
 40
1.0
 10
-12.5086580646
 20
-51.3551229611
 30
0.0
 10
-12.5910508212
 20
-51.3551229611
 30
0.0
 10
-12.7452003628
 20
-51.3583213887
 30
0.0
 10
-12.8820661513
 20
-51.3287232695
 30
0.0
 10
-13.0037940767
 20
-51.3361062058
 30
0.0
 10
-13.008575216
 20
-51.3121420732
 30
0.0
 11
-12.5086580646
 21
-51.3551229611
 31
0.0
 11
-12.7557702293
 21
-51.349406749
 31
0.0
 11
-12.9385139206
 21
-51.3337213544
 31
0.0
 11
-13.008575216
 21
-51.3121420732
 31
0.0
  0
SPLINE
  5
6F4
100
AcDbEntity
  8
RACCORDO
100
AcDbSpline
 62
7
  6
CONTINUOUS
 70
0
 71
3
 72
10
 73
6
 74
4
 42
0.0000001
 43
0.0000001
 44
0.0000000001
 12
-0.0985917985
 22
-0.4941639988
 32
0.0
 13
-0.5039031658
 23
0.0
 33
0.0
 40
0.0
 40
0.0
 40
0.0
 40
0.0
 40
0.1454828719
 40
0.5094726794
 40
1.0
 40
1.0
 40
1.0
 40
1.0
 10
13.008575216
 20
-51.3121420732
 30
0.0
 10
13.0037940767
 20
-51.3361062058
 30
0.0
 10
12.8820661513
 20
-51.3287232695
 30
0.0
 10
12.7452003628
 20
-51.3583213887
 30
0.0
 10
12.5910508212
 20
-51.3551229611
 30
0.0
 10
12.5086580646
 20
-51.3551229611
 30
0.0
 11
13.008575216
 21
-51.3121420732
 31
0.0
 11
12.9385139206
 21
-51.3337213544
 31
0.0
 11
12.7557702293
 21
-51.349406749
 31
0.0
 11
12.5086580646
 21
-51.3551229611
 31
0.0
  0
SPLINE
  5
6F5
100
AcDbEntity
  8
RACCORDO
100
AcDbSpline
 62
253
  6
CONTINUOUS
 70
0
 71
3
 72
8
 73
4
 74
2
 42
0.0000001
 43
0.0000001
 44
0.0000000001
 12
-0.0521878403
 22
0.1606239065
 32
0.0
 13
-0.0518763026
 23
0.1606305645
 33
0.0
 40
0.0
 40
0.0
 40
0.0
 40
0.0
 40
1.0
 40
1.0
 40
1.0
 40
1.0
 10
67.8336018731
 20
37.7758251735
 30
0.0
 10
67.8162059263
 20
37.8293664757
 30
0.0
 10
67.7964052927
 20
37.8828563865
 30
0.0
 10
67.7791131918
 20
37.936399908
 30
0.0
 11
67.8336018731
 21
37.7758251735
 31
0.0
 11
67.7791131918
 21
37.936399908
 31
0.0
  0
SPLINE
  5
6F6
100
AcDbEntity
  8
RACCORDO
100
AcDbSpline
 62
253
  6
CONTINUOUS
 70
0
 71
3
 72
10
 73
6
 74
4
 42
0.0000001
 43
0.0000001
 44
0.0000000001
 12
-0.1016905349
 22
0.3148761034
 32
0.0
 13
0.0887645737
 23
0.3189437772
 33
0.0
 40
0.0
 40
0.0
 40
0.0
 40
0.0
 40
0.2388960155
 40
0.7907039197
 40
1.0
 40
1.0
 40
1.0
 40
1.0
 10
67.7791131918
 20
37.936399908
 30
0.0
 10
67.7710153706
 20
37.9614741234
 30
0.0
 10
67.7460338165
 20
38.0445042931
 30
0.0
 10
67.7290522786
 20
38.1498244973
 30
0.0
 10
67.6729195137
 20
38.2290607098
 30
0.0
 10
67.6791122061
 20
38.2513119372
 30
0.0
 11
67.7791131918
 21
37.936399908
 31
0.0
 11
67.7569746773
 21
38.0116686086
 31
0.0
 11
67.7005240518
 21
38.1854125295
 31
0.0
 11
67.6791122061
 21
38.2513119372
 31
0.0
  0
LINE
  5
6F7
100
AcDbEntity
  8
RACCORDO
100
AcDbLine
 62
7
  6
CONTINUOUS
 10
65.7330744955
 20
40.1974048142
 11
65.233093534
 21
39.990305919
  0
LINE
  5
6F8
100
AcDbEntity
  8
RACCORDO
100
AcDbLine
 62
7
  6
CONTINUOUS
 10
70.6974048142
 20
35.2330744955
 11
70.490305919
 21
34.733093534
  0
SPLINE
  5
6F9
100
AcDbEntity
  8
RACCORDO
100
AcDbSpline
 62
253
  6
CONTINUOUS
 70
0
 71
3
 72
13
 73
9
 74
7
 42
0.0000001
 43
0.0000001
 44
0.0000000001
 12
2.9997571718
 22
0.0000002541
 32
0.0
 13
2.769918923
 23
-1.1515607885
 33
0.0
 40
0.0
 40
0.0
 40
0.0
 40
0.0
 40
0.2562427051
 40
0.4952298205
 40
0.7011645857
 40
0.8603322019
 40
0.9622015664
 40
1.0
 40
1.0
 40
1.0
 40
1.0
 10
70.9300536657
 20
-34.733093534
 30
0.0
 10
71.1862756298
 20
-34.7330935123
 30
0.0
 10
71.681365441
 20
-34.7339398724
 30
0.0
 10
72.3828768216
 20
-34.734358315
 30
0.0
 10
72.9857301946
 20
-34.7421468988
 30
0.0
 10
73.4556164255
 20
-34.7345145298
 30
0.0
 10
73.7487288618
 20
-34.7610651241
 30
0.0
 10
73.894697219
 20
-34.7400208767
 30
0.0
 10
73.9295967511
 20
-34.7545299414
 30
0.0
 11
70.9300536657
 21
-34.733093534
 31
0.0
 11
71.6987192129
 21
-34.7338218953
 31
0.0
 11
72.4156193484
 21
-34.7359565239
 31
0.0
 11
73.0333642959
 21
-34.7393537389
 31
0.0
 11
73.5108079113
 21
-34.7437871162
 31
0.0
 11
73.816347462
 21
-34.7489611703
 31
0.0
 11
73.9295967511
 21
-34.7545299414
 31
0.0
  0
SPLINE
  5
6FA
100
AcDbEntity
  8
RACCORDO
100
AcDbSpline
 62
253
  6
CONTINUOUS
 70
0
 71
3
 72
13
 73
9
 74
7
 42
0.0000001
 43
0.0000001
 44
0.0000000001
 12
-2.7699462585
 22
-1.1514948837
 32
0.0
 13
-2.9997571139
 23
0.0000003113
 33
0.0
 40
0.0
 40
0.0
 40
0.0
 40
0.0
 40
0.0378726729
 40
0.1398648355
 40
0.2991654909
 40
0.505106769
 40
0.7440166767
 40
1.0
 40
1.0
 40
1.0
 40
1.0
 10
73.9295967511
 20
34.7545299414
 30
0.0
 10
73.8946283283
 20
34.7399932117
 30
0.0
 10
73.7484535309
 20
34.7610793601
 30
0.0
 10
73.4550163842
 20
34.7345003639
 30
0.0
 10
72.9848668644
 20
34.7421408197
 30
0.0
 10
72.3819505115
 20
34.7343557239
 30
0.0
 10
71.6807696931
 20
34.7339384982
 30
0.0
 10
71.1860162641
 20
34.7330935074
 30
0.0
 10
70.9300536657
 20
34.733093534
 30
0.0
 11
73.9295967511
 21
34.7545299414
 31
0.0
 11
73.8161247762
 21
34.7489554584
 31
0.0
 11
73.5102168399
 21
34.7437798674
 31
0.0
 11
73.03237413
 21
34.7393466608
 31
0.0
 11
72.414609641
 21
34.7359523411
 31
0.0
 11
71.6979411168
 21
34.7338204005
 31
0.0
 11
70.9300536657
 21
34.733093534
 31
0.0
  0
SPLINE
  5
6FB
100
AcDbEntity
  8
RACCORDO
100
AcDbSpline
 62
253
  6
CONTINUOUS
 70
0
 71
3
 72
13
 73
9
 74
7
 42
0.0000001
 43
0.0000001
 44
0.0000000001
 12
0.0000002541
 22
-2.9997571718
 32
0.0
 13
-1.1515607885
 23
-2.769918923
 33
0.0
 40
0.0
 40
0.0
 40
0.0
 40
0.0
 40
0.2562427051
 40
0.4952298205
 40
0.7011645857
 40
0.8603322019
 40
0.9622015664
 40
1.0
 40
1.0
 40
1.0
 40
1.0
 10
-65.233093534
 20
-40.4300536657
 30
0.0
 10
-65.2330935123
 20
-40.6862756298
 30
0.0
 10
-65.2339398724
 20
-41.181365441
 30
0.0
 10
-65.234358315
 20
-41.8828768216
 30
0.0
 10
-65.2421468988
 20
-42.4857301946
 30
0.0
 10
-65.2345145298
 20
-42.9556164255
 30
0.0
 10
-65.2610651241
 20
-43.2487288618
 30
0.0
 10
-65.2400208767
 20
-43.394697219
 30
0.0
 10
-65.2545299414
 20
-43.4295967511
 30
0.0
 11
-65.233093534
 21
-40.4300536657
 31
0.0
 11
-65.2338218953
 21
-41.1987192129
 31
0.0
 11
-65.2359565239
 21
-41.9156193484
 31
0.0
 11
-65.2393537389
 21
-42.5333642959
 31
0.0
 11
-65.2437871162
 21
-43.0108079113
 31
0.0
 11
-65.2489611703
 21
-43.316347462
 31
0.0
 11
-65.2545299414
 21
-43.4295967511
 31
0.0
  0
SPLINE
  5
6FC
100
AcDbEntity
  8
RACCORDO
100
AcDbSpline
 62
253
  6
CONTINUOUS
 70
0
 71
3
 72
13
 73
9
 74
7
 42
0.0000001
 43
0.0000001
 44
0.0000000001
 12
-1.1514948837
 22
2.7699462585
 32
0.0
 13
0.0000003113
 23
2.9997571139
 33
0.0
 40
0.0
 40
0.0
 40
0.0
 40
0.0
 40
0.0378726729
 40
0.1398648355
 40
0.2991654909
 40
0.505106769
 40
0.7440166767
 40
1.0
 40
1.0
 40
1.0
 40
1.0
 10
65.2545299414
 20
-43.4295967511
 30
0.0
 10
65.2399932117
 20
-43.3946283283
 30
0.0
 10
65.2610793601
 20
-43.2484535309
 30
0.0
 10
65.2345003639
 20
-42.9550163842
 30
0.0
 10
65.2421408197
 20
-42.4848668644
 30
0.0
 10
65.2343557239
 20
-41.8819505115
 30
0.0
 10
65.2339384982
 20
-41.1807696931
 30
0.0
 10
65.2330935074
 20
-40.6860162641
 30
0.0
 10
65.233093534
 20
-40.4300536657
 30
0.0
 11
65.2545299414
 21
-43.4295967511
 31
0.0
 11
65.2489554584
 21
-43.3161247762
 31
0.0
 11
65.2437798674
 21
-43.0102168399
 31
0.0
 11
65.2393466608
 21
-42.53237413
 31
0.0
 11
65.2359523411
 21
-41.914609641
 31
0.0
 11
65.2338204005
 21
-41.1979411168
 31
0.0
 11
65.233093534
 21
-40.4300536657
 31
0.0
  0
SPLINE
  5
6FD
100
AcDbEntity
  8
RACCORDO
100
AcDbSpline
 62
253
  6
CONTINUOUS
 70
0
 71
3
 72
13
 73
9
 74
7
 42
0.0000001
 43
0.0000001
 44
0.0000000001
 12
2.7699462585
 22
1.1514948837
 32
0.0
 13
2.9997571139
 23
-0.0000003113
 33
0.0
 40
0.0
 40
0.0
 40
0.0
 40
0.0
 40
0.0378726729
 40
0.1398648355
 40
0.2991654909
 40
0.505106769
 40
0.7440166767
 40
1.0
 40
1.0
 40
1.0
 40
1.0
 10
-73.9295967511
 20
-34.7545299414
 30
0.0
 10
-73.8946283283
 20
-34.7399932117
 30
0.0
 10
-73.7484535309
 20
-34.7610793601
 30
0.0
 10
-73.4550163842
 20
-34.7345003639
 30
0.0
 10
-72.9848668644
 20
-34.7421408197
 30
0.0
 10
-72.3819505115
 20
-34.7343557239
 30
0.0
 10
-71.6807696931
 20
-34.7339384982
 30
0.0
 10
-71.1860162641
 20
-34.7330935074
 30
0.0
 10
-70.9300536657
 20
-34.733093534
 30
0.0
 11
-73.9295967511
 21
-34.7545299414
 31
0.0
 11
-73.8161247762
 21
-34.7489554584
 31
0.0
 11
-73.5102168399
 21
-34.7437798674
 31
0.0
 11
-73.03237413
 21
-34.7393466608
 31
0.0
 11
-72.414609641
 21
-34.7359523411
 31
0.0
 11
-71.6979411168
 21
-34.7338204005
 31
0.0
 11
-70.9300536657
 21
-34.733093534
 31
0.0
  0
SPLINE
  5
6FE
100
AcDbEntity
  8
RACCORDO
100
AcDbSpline
 62
253
  6
CONTINUOUS
 70
0
 71
3
 72
13
 73
9
 74
7
 42
0.0000001
 43
0.0000001
 44
0.0000000001
 12
-2.9997571718
 22
-0.0000002541
 32
0.0
 13
-2.769918923
 23
1.1515607885
 33
0.0
 40
0.0
 40
0.0
 40
0.0
 40
0.0
 40
0.2562427051
 40
0.4952298205
 40
0.7011645857
 40
0.8603322019
 40
0.9622015664
 40
1.0
 40
1.0
 40
1.0
 40
1.0
 10
-70.9300536657
 20
34.733093534
 30
0.0
 10
-71.1862756298
 20
34.7330935123
 30
0.0
 10
-71.681365441
 20
34.7339398724
 30
0.0
 10
-72.3828768216
 20
34.734358315
 30
0.0
 10
-72.9857301946
 20
34.7421468988
 30
0.0
 10
-73.4556164255
 20
34.7345145298
 30
0.0
 10
-73.7487288618
 20
34.7610651241
 30
0.0
 10
-73.894697219
 20
34.7400208767
 30
0.0
 10
-73.9295967511
 20
34.7545299414
 30
0.0
 11
-70.9300536657
 21
34.733093534
 31
0.0
 11
-71.6987192129
 21
34.7338218953
 31
0.0
 11
-72.4156193484
 21
34.7359565239
 31
0.0
 11
-73.0333642959
 21
34.7393537389
 31
0.0
 11
-73.5108079113
 21
34.7437871162
 31
0.0
 11
-73.816347462
 21
34.7489611703
 31
0.0
 11
-73.9295967511
 21
34.7545299414
 31
0.0
  0
SPLINE
  5
6FF
100
AcDbEntity
  8
RACCORDO
100
AcDbSpline
 62
253
  6
CONTINUOUS
 70
0
 71
3
 72
13
 73
9
 74
7
 42
0.0000001
 43
0.0000001
 44
0.0000000001
 12
1.1514948837
 22
-2.7699462585
 32
0.0
 13
-0.0000003113
 23
-2.9997571139
 33
0.0
 40
0.0
 40
0.0
 40
0.0
 40
0.0
 40
0.0378726729
 40
0.1398648355
 40
0.2991654909
 40
0.505106769
 40
0.7440166767
 40
1.0
 40
1.0
 40
1.0
 40
1.0
 10
-65.2545299414
 20
43.4295967511
 30
0.0
 10
-65.2399932117
 20
43.3946283283
 30
0.0
 10
-65.2610793601
 20
43.2484535309
 30
0.0
 10
-65.2345003639
 20
42.9550163842
 30
0.0
 10
-65.2421408197
 20
42.4848668644
 30
0.0
 10
-65.2343557239
 20
41.8819505115
 30
0.0
 10
-65.2339384982
 20
41.1807696931
 30
0.0
 10
-65.2330935074
 20
40.6860162641
 30
0.0
 10
-65.233093534
 20
40.4300536657
 30
0.0
 11
-65.2545299414
 21
43.4295967511
 31
0.0
 11
-65.2489554584
 21
43.3161247762
 31
0.0
 11
-65.2437798674
 21
43.0102168399
 31
0.0
 11
-65.2393466608
 21
42.53237413
 31
0.0
 11
-65.2359523411
 21
41.914609641
 31
0.0
 11
-65.2338204005
 21
41.1979411168
 31
0.0
 11
-65.233093534
 21
40.4300536657
 31
0.0
  0
SPLINE
  5
700
100
AcDbEntity
  8
RACCORDO
100
AcDbSpline
 62
253
  6
CONTINUOUS
 70
0
 71
3
 72
13
 73
9
 74
7
 42
0.0000001
 43
0.0000001
 44
0.0000000001
 12
-0.0000002541
 22
2.9997571718
 32
0.0
 13
1.1515607885
 23
2.769918923
 33
0.0
 40
0.0
 40
0.0
 40
0.0
 40
0.0
 40
0.2562427051
 40
0.4952298205
 40
0.7011645857
 40
0.8603322019
 40
0.9622015664
 40
1.0
 40
1.0
 40
1.0
 40
1.0
 10
65.233093534
 20
40.4300536657
 30
0.0
 10
65.2330935123
 20
40.6862756298
 30
0.0
 10
65.2339398724
 20
41.181365441
 30
0.0
 10
65.234358315
 20
41.8828768216
 30
0.0
 10
65.2421468988
 20
42.4857301946
 30
0.0
 10
65.2345145298
 20
42.9556164255
 30
0.0
 10
65.2610651241
 20
43.2487288618
 30
0.0
 10
65.2400208767
 20
43.394697219
 30
0.0
 10
65.2545299414
 20
43.4295967511
 30
0.0
 11
65.233093534
 21
40.4300536657
 31
0.0
 11
65.2338218953
 21
41.1987192129
 31
0.0
 11
65.2359565239
 21
41.9156193484
 31
0.0
 11
65.2393537389
 21
42.5333642959
 31
0.0
 11
65.2437871162
 21
43.0108079113
 31
0.0
 11
65.2489611703
 21
43.316347462
 31
0.0
 11
65.2545299414
 21
43.4295967511
 31
0.0
  0
SPLINE
  5
701
100
AcDbEntity
  8
RACCORDO
100
AcDbSpline
 62
253
  6
CONTINUOUS
 70
0
 71
3
 72
13
 73
9
 74
7
 42
0.0000001
 43
0.0000001
 44
0.0000000001
 12
1.1138511033
 22
-2.2380161706
 32
0.0
 13
-0.0000005852
 23
-2.499876129
 33
0.0
 40
0.0
 40
0.0
 40
0.0
 40
0.0
 40
0.0377795161
 40
0.1396718696
 40
0.2992587705
 40
0.5055421472
 40
0.7443497138
 40
1.0
 40
1.0
 40
1.0
 40
1.0
 10
-65.7545109029
 20
42.9296729036
 30
0.0
 10
-65.7404839843
 20
42.9014891809
 30
0.0
 10
-65.7604400216
 20
42.7779299271
 30
0.0
 10
-65.7348243848
 20
42.5350482462
 30
0.0
 10
-65.7419793756
 20
42.1419003056
 30
0.0
 10
-65.7343849822
 20
41.6393798639
 30
0.0
 10
-65.7339009528
 20
41.0549995428
 30
0.0
 10
-65.7330744457
 20
40.643085015
 30
0.0
 10
-65.7330744955
 20
40.4300536657
 30
0.0
 11
-65.7545109029
 21
42.9296729036
 31
0.0
 11
-65.7489449468
 21
42.8353929474
 31
0.0
 11
-65.7437688312
 21
42.5807272825
 31
0.0
 11
-65.7393260875
 21
42.1818045366
 31
0.0
 11
-65.735928168
 21
41.6661328423
 31
0.0
 11
-65.7337994643
 21
41.0691473024
 31
0.0
 11
-65.7330744955
 21
40.4300536657
 31
0.0
  0
SPLINE
  5
702
100
AcDbEntity
  8
RACCORDO
100
AcDbSpline
 62
7
  6
CONTINUOUS
 70
0
 71
3
 72
10
 73
6
 74
4
 42
0.0000001
 43
0.0000001
 44
0.0000000001
 12
0.5755829898
 22
-0.0631645737
 32
0.0
 13
0.5770049853
 23
0.051047314
 33
0.0
 40
0.0
 40
0.0
 40
0.0
 40
0.0
 40
0.361263803
 40
0.7358787088
 40
1.0
 40
1.0
 40
1.0
 40
1.0
 10
-69.4082536047
 20
37.1825580861
 30
0.0
 10
-69.3389411714
 20
37.1749517281
 30
0.0
 10
-69.1973041768
 20
37.1631339235
 30
0.0
 10
-69.0041805903
 20
37.1596247389
 30
0.0
 10
-68.8809006645
 20
37.1661631363
 30
0.0
 10
-68.8301008973
 20
37.1706573638
 30
0.0
 11
-69.4082536047
 21
37.1825580861
 31
0.0
 11
-69.199758574
 21
37.1655741825
 31
0.0
 11
-68.9828674995
 21
37.1622570433
 31
0.0
 11
-68.8301008973
 21
37.1706573638
 31
0.0
  0
SPLINE
  5
703
100
AcDbEntity
  8
RACCORDO
100
AcDbSpline
 62
253
  6
CONTINUOUS
 70
0
 71
3
 72
10
 73
6
 74
4
 42
0.0000001
 43
0.0000001
 44
0.0000000001
 12
-0.4990146123
 22
-0.0306581401
 32
0.0
 13
-0.440486035
 23
0.2364900796
 33
0.0
 40
0.0
 40
0.0
 40
0.0
 40
0.0
 40
0.4959984343
 40
0.8613991194
 40
1.0
 40
1.0
 40
1.0
 40
1.0
 10
-68.2523109255
 20
-37.1484678577
 30
0.0
 10
-68.3348144143
 20
-37.1535366542
 30
0.0
 10
-68.4799242142
 20
-37.1706746813
 30
0.0
 10
-68.6410186747
 20
-37.1569610243
 30
0.0
 10
-68.7309749918
 20
-37.1900512884
 30
0.0
 10
-68.7513255759
 20
-37.1791253773
 30
0.0
 11
-68.2523109255
 21
-37.1484678577
 31
0.0
 11
-68.4998213919
 21
-37.1636742472
 31
0.0
 11
-68.6821616731
 21
-37.1748767526
 31
0.0
 11
-68.7513255759
 21
-37.1791253773
 31
0.0
  0
SPLINE
  5
704
100
AcDbEntity
  8
RACCORDO
100
AcDbSpline
 62
7
  6
CONTINUOUS
 70
0
 71
3
 72
10
 73
6
 74
4
 42
0.0000001
 43
0.0000001
 44
0.0000000001
 12
0.0718022948
 22
-0.6542936504
 32
0.0
 13
-0.0829693799
 23
-0.6529715404
 33
0.0
 40
0.0
 40
0.0
 40
0.0
 40
0.0
 40
0.3178042454
 40
0.6473534736
 40
1.0
 40
1.0
 40
1.0
 40
1.0
 10
-67.6825580861
 20
38.9082536047
 30
0.0
 10
-67.6749517281
 20
38.8389411714
 30
0.0
 10
-67.6631339235
 20
38.6973041768
 30
0.0
 10
-67.6591448598
 20
38.4777710449
 30
0.0
 10
-67.6693652311
 20
38.3281171726
 30
0.0
 10
-67.6791181856
 20
38.2513611241
 30
0.0
 11
-67.6825580861
 21
38.9082536047
 31
0.0
 11
-67.6655741825
 21
38.699758574
 31
0.0
 11
-67.6622570433
 21
38.4828674995
 31
0.0
 11
-67.6791181856
 21
38.2513611241
 31
0.0
  0
SPLINE
  5
705
100
AcDbEntity
  8
RACCORDO
100
AcDbSpline
 62
253
  6
CONTINUOUS
 70
0
 71
3
 72
8
 73
4
 74
2
 42
0.0000001
 43
0.0000001
 44
0.0000000001
 12
0.0521878403
 22
-0.1606239065
 32
0.0
 13
0.0518763026
 23
-0.1606305645
 33
0.0
 40
0.0
 40
0.0
 40
0.0
 40
0.0
 40
1.0
 40
1.0
 40
1.0
 40
1.0
 10
-67.8336018731
 20
-37.7758251735
 30
0.0
 10
-67.8162059263
 20
-37.8293664757
 30
0.0
 10
-67.7964052927
 20
-37.8828563865
 30
0.0
 10
-67.7791131918
 20
-37.936399908
 30
0.0
 11
-67.8336018731
 21
-37.7758251735
 31
0.0
 11
-67.7791131918
 21
-37.936399908
 31
0.0
  0
SPLINE
  5
706
100
AcDbEntity
  8
RACCORDO
100
AcDbSpline
 62
253
  6
CONTINUOUS
 70
0
 71
3
 72
10
 73
6
 74
4
 42
0.0000001
 43
0.0000001
 44
0.0000000001
 12
0.1016905349
 22
-0.3148761034
 32
0.0
 13
-0.0887645737
 23
-0.3189437772
 33
0.0
 40
0.0
 40
0.0
 40
0.0
 40
0.0
 40
0.2388960155
 40
0.7907039197
 40
1.0
 40
1.0
 40
1.0
 40
1.0
 10
-67.7791131918
 20
-37.936399908
 30
0.0
 10
-67.7710153706
 20
-37.9614741234
 30
0.0
 10
-67.7460338165
 20
-38.0445042931
 30
0.0
 10
-67.7290522786
 20
-38.1498244973
 30
0.0
 10
-67.6729195137
 20
-38.2290607098
 30
0.0
 10
-67.6791122061
 20
-38.2513119372
 30
0.0
 11
-67.7791131918
 21
-37.936399908
 31
0.0
 11
-67.7569746773
 21
-38.0116686086
 31
0.0
 11
-67.7005240518
 21
-38.1854125295
 31
0.0
 11
-67.6791122061
 21
-38.2513119372
 31
0.0
  0
SPLINE
  5
707
100
AcDbEntity
  8
RACCORDO
100
AcDbSpline
 62
253
  6
CONTINUOUS
 70
0
 71
3
 72
13
 73
9
 74
7
 42
0.0000001
 43
0.0000001
 44
0.0000000001
 12
-2.499876197
 22
-0.0000005411
 32
0.0
 13
-2.2379557742
 23
1.1139725998
 33
0.0
 40
0.0
 40
0.0
 40
0.0
 40
0.0
 40
0.2559055395
 40
0.4947937972
 40
0.7010739251
 40
0.8605250695
 40
0.9622934341
 40
1.0
 40
1.0
 40
1.0
 40
1.0
 10
-70.9300536657
 20
35.2330744955
 30
0.0
 10
-71.1432977213
 20
35.2330744494
 30
0.0
 10
-71.5554919734
 20
35.2339023103
 30
0.0
 10
-72.1401501671
 20
35.2343875025
 30
0.0
 10
-72.6426211201
 20
35.2419856759
 30
0.0
 10
-73.0355491434
 20
35.2348379817
 30
0.0
 10
-73.2781590476
 20
35.2604273263
 30
0.0
 10
-73.4015443613
 20
35.2405095425
 30
0.0
 10
-73.4296729036
 20
35.2545109029
 30
0.0
 11
-70.9300536657
 21
35.2330744955
 31
0.0
 11
-71.5697854201
 21
35.2338009343
 31
0.0
 11
-72.1669726857
 21
35.235932339
 31
0.0
 11
-72.6826362529
 21
35.2393332186
 31
0.0
 11
-73.0812196125
 21
35.2437760849
 31
0.0
 11
-73.3355752965
 21
35.2489505784
 31
0.0
 11
-73.4296729036
 21
35.2545109029
 31
0.0
  0
SPLINE
  5
708
100
AcDbEntity
  8
RACCORDO
100
AcDbSpline
 62
253
  6
CONTINUOUS
 70
0
 71
3
 72
13
 73
9
 74
7
 42
0.0000001
 43
0.0000001
 44
0.0000000001
 12
0.0000005411
 22
-2.499876197
 32
0.0
 13
-1.1139725998
 23
-2.2379557742
 33
0.0
 40
0.0
 40
0.0
 40
0.0
 40
0.0
 40
0.2559055395
 40
0.4947937972
 40
0.7010739251
 40
0.8605250695
 40
0.9622934341
 40
1.0
 40
1.0
 40
1.0
 40
1.0
 10
-65.7330744955
 20
-40.4300536657
 30
0.0
 10
-65.7330744494
 20
-40.6432977213
 30
0.0
 10
-65.7339023103
 20
-41.0554919734
 30
0.0
 10
-65.7343875025
 20
-41.6401501671
 30
0.0
 10
-65.7419856759
 20
-42.1426211201
 30
0.0
 10
-65.7348379817
 20
-42.5355491434
 30
0.0
 10
-65.7604273263
 20
-42.7781590476
 30
0.0
 10
-65.7405095425
 20
-42.9015443613
 30
0.0
 10
-65.7545109029
 20
-42.9296729036
 30
0.0
 11
-65.7330744955
 21
-40.4300536657
 31
0.0
 11
-65.7338009343
 21
-41.0697854201
 31
0.0
 11
-65.735932339
 21
-41.6669726857
 31
0.0
 11
-65.7393332186
 21
-42.1826362529
 31
0.0
 11
-65.7437760849
 21
-42.5812196125
 31
0.0
 11
-65.7489505784
 21
-42.8355752965
 31
0.0
 11
-65.7545109029
 21
-42.9296729036
 31
0.0
  0
SPLINE
  5
709
100
AcDbEntity
  8
RACCORDO
100
AcDbSpline
 62
7
  6
CONTINUOUS
 70
0
 71
3
 72
10
 73
6
 74
4
 42
0.0000001
 43
0.0000001
 44
0.0000000001
 12
0.0631645737
 22
0.5755829898
 32
0.0
 13
-0.051047314
 23
0.5770049853
 33
0.0
 40
0.0
 40
0.0
 40
0.0
 40
0.0
 40
0.361263803
 40
0.7358787088
 40
1.0
 40
1.0
 40
1.0
 40
1.0
 10
-67.6825580861
 20
-38.9082536047
 30
0.0
 10
-67.6749517281
 20
-38.8389411714
 30
0.0
 10
-67.6631339235
 20
-38.6973041768
 30
0.0
 10
-67.6596247389
 20
-38.5041805903
 30
0.0
 10
-67.6661631363
 20
-38.3809006645
 30
0.0
 10
-67.6706573638
 20
-38.3301008973
 30
0.0
 11
-67.6825580861
 21
-38.9082536047
 31
0.0
 11
-67.6655741825
 21
-38.699758574
 31
0.0
 11
-67.6622570433
 21
-38.4828674995
 31
0.0
 11
-67.6706573638
 21
-38.3301008973
 31
0.0
  0
LINE
  5
70A
100
AcDbEntity
  8
RACCORDO
100
AcDbLine
 62
7
  6
CONTINUOUS
 10
-65.7330744955
 20
-40.1974048142
 11
-65.233093534
 21
-39.990305919
  0
SPLINE
  5
70B
100
AcDbEntity
  8
RACCORDO
100
AcDbSpline
 62
7
  6
CONTINUOUS
 70
0
 71
3
 72
10
 73
6
 74
4
 42
0.0000001
 43
0.0000001
 44
0.0000000001
 12
0.6542936504
 22
0.0718022948
 32
0.0
 13
0.6529715404
 23
-0.0829693799
 33
0.0
 40
0.0
 40
0.0
 40
0.0
 40
0.0
 40
0.3178042454
 40
0.6473534736
 40
1.0
 40
1.0
 40
1.0
 40
1.0
 10
-69.4082536047
 20
-37.1825580861
 30
0.0
 10
-69.3389411714
 20
-37.1749517281
 30
0.0
 10
-69.1973041768
 20
-37.1631339235
 30
0.0
 10
-68.9777710449
 20
-37.1591448598
 30
0.0
 10
-68.8281171726
 20
-37.1693652311
 30
0.0
 10
-68.7513611241
 20
-37.1791181856
 30
0.0
 11
-69.4082536047
 21
-37.1825580861
 31
0.0
 11
-69.199758574
 21
-37.1655741825
 31
0.0
 11
-68.9828674995
 21
-37.1622570433
 31
0.0
 11
-68.7513611241
 21
-37.1791181856
 31
0.0
  0
SPLINE
  5
70C
100
AcDbEntity
  8
RACCORDO
100
AcDbSpline
 62
253
  6
CONTINUOUS
 70
0
 71
3
 72
13
 73
9
 74
7
 42
0.0000001
 43
0.0000001
 44
0.0000000001
 12
2.2380161706
 22
1.1138511033
 32
0.0
 13
2.499876129
 23
-0.0000005852
 33
0.0
 40
0.0
 40
0.0
 40
0.0
 40
0.0
 40
0.0377795161
 40
0.1396718696
 40
0.2992587705
 40
0.5055421472
 40
0.7443497138
 40
1.0
 40
1.0
 40
1.0
 40
1.0
 10
-73.4296729036
 20
-35.2545109029
 30
0.0
 10
-73.4014891809
 20
-35.2404839843
 30
0.0
 10
-73.2779299271
 20
-35.2604400216
 30
0.0
 10
-73.0350482462
 20
-35.2348243848
 30
0.0
 10
-72.6419003056
 20
-35.2419793756
 30
0.0
 10
-72.1393798639
 20
-35.2343849822
 30
0.0
 10
-71.5549995428
 20
-35.2339009528
 30
0.0
 10
-71.143085015
 20
-35.2330744457
 30
0.0
 10
-70.9300536657
 20
-35.2330744955
 30
0.0
 11
-73.4296729036
 21
-35.2545109029
 31
0.0
 11
-73.3353929474
 21
-35.2489449467
 31
0.0
 11
-73.0807272825
 21
-35.2437688312
 31
0.0
 11
-72.6818045366
 21
-35.2393260875
 31
0.0
 11
-72.1661328423
 21
-35.235928168
 31
0.0
 11
-71.5691473024
 21
-35.2337994643
 31
0.0
 11
-70.9300536657
 21
-35.2330744955
 31
0.0
  0
SPLINE
  5
70D
100
AcDbEntity
  8
RACCORDO
100
AcDbSpline
 62
253
  6
CONTINUOUS
 70
0
 71
3
 72
13
 73
9
 74
7
 42
0.0000001
 43
0.0000001
 44
0.0000000001
 12
-0.0000005411
 22
2.499876197
 32
0.0
 13
1.1139725998
 23
2.2379557742
 33
0.0
 40
0.0
 40
0.0
 40
0.0
 40
0.0
 40
0.2559055395
 40
0.4947937972
 40
0.7010739251
 40
0.8605250695
 40
0.9622934341
 40
1.0
 40
1.0
 40
1.0
 40
1.0
 10
65.7330744955
 20
40.4300536657
 30
0.0
 10
65.7330744494
 20
40.6432977213
 30
0.0
 10
65.7339023103
 20
41.0554919734
 30
0.0
 10
65.7343875025
 20
41.6401501671
 30
0.0
 10
65.7419856759
 20
42.1426211201
 30
0.0
 10
65.7348379817
 20
42.5355491434
 30
0.0
 10
65.7604273263
 20
42.7781590476
 30
0.0
 10
65.7405095425
 20
42.9015443613
 30
0.0
 10
65.7545109029
 20
42.9296729036
 30
0.0
 11
65.7330744955
 21
40.4300536657
 31
0.0
 11
65.7338009343
 21
41.0697854201
 31
0.0
 11
65.735932339
 21
41.6669726857
 31
0.0
 11
65.7393332186
 21
42.1826362529
 31
0.0
 11
65.7437760849
 21
42.5812196125
 31
0.0
 11
65.7489505784
 21
42.8355752965
 31
0.0
 11
65.7545109029
 21
42.9296729036
 31
0.0
  0
SPLINE
  5
70E
100
AcDbEntity
  8
RACCORDO
100
AcDbSpline
 62
7
  6
CONTINUOUS
 70
0
 71
3
 72
10
 73
6
 74
4
 42
0.0000001
 43
0.0000001
 44
0.0000000001
 12
-0.0631645737
 22
-0.5755829898
 32
0.0
 13
0.051047314
 23
-0.5770049853
 33
0.0
 40
0.0
 40
0.0
 40
0.0
 40
0.0
 40
0.361263803
 40
0.7358787088
 40
1.0
 40
1.0
 40
1.0
 40
1.0
 10
67.6825580861
 20
38.9082536047
 30
0.0
 10
67.6749517281
 20
38.8389411714
 30
0.0
 10
67.6631339235
 20
38.6973041768
 30
0.0
 10
67.6596247389
 20
38.5041805903
 30
0.0
 10
67.6661631363
 20
38.3809006645
 30
0.0
 10
67.6706573638
 20
38.3301008973
 30
0.0
 11
67.6825580861
 21
38.9082536047
 31
0.0
 11
67.6655741825
 21
38.699758574
 31
0.0
 11
67.6622570433
 21
38.4828674995
 31
0.0
 11
67.6706573638
 21
38.3301008973
 31
0.0
  0
LINE
  5
70F
100
AcDbEntity
  8
RACCORDO
100
AcDbLine
 62
7
  6
CONTINUOUS
 10
-70.6974048142
 20
-35.2330744955
 11
-70.490305919
 21
-34.733093534
  0
SPLINE
  5
710
100
AcDbEntity
  8
RACCORDO
100
AcDbSpline
 62
7
  6
CONTINUOUS
 70
0
 71
3
 72
10
 73
6
 74
4
 42
0.0000001
 43
0.0000001
 44
0.0000000001
 12
-0.6542936504
 22
-0.0718022948
 32
0.0
 13
-0.6529715404
 23
0.0829693799
 33
0.0
 40
0.0
 40
0.0
 40
0.0
 40
0.0
 40
0.3178042454
 40
0.6473534736
 40
1.0
 40
1.0
 40
1.0
 40
1.0
 10
69.4082536047
 20
37.1825580861
 30
0.0
 10
69.3389411714
 20
37.1749517281
 30
0.0
 10
69.1973041768
 20
37.1631339235
 30
0.0
 10
68.9777710449
 20
37.1591448598
 30
0.0
 10
68.8281171726
 20
37.1693652311
 30
0.0
 10
68.7513611241
 20
37.1791181856
 30
0.0
 11
69.4082536047
 21
37.1825580861
 31
0.0
 11
69.199758574
 21
37.1655741825
 31
0.0
 11
68.9828674995
 21
37.1622570433
 31
0.0
 11
68.7513611241
 21
37.1791181856
 31
0.0
  0
SPLINE
  5
711
100
AcDbEntity
  8
RACCORDO
100
AcDbSpline
 62
253
  6
CONTINUOUS
 70
0
 71
3
 72
13
 73
9
 74
7
 42
0.0000001
 43
0.0000001
 44
0.0000000001
 12
-2.2380161706
 22
-1.1138511033
 32
0.0
 13
-2.499876129
 23
0.0000005852
 33
0.0
 40
0.0
 40
0.0
 40
0.0
 40
0.0
 40
0.0377795161
 40
0.1396718696
 40
0.2992587705
 40
0.5055421472
 40
0.7443497138
 40
1.0
 40
1.0
 40
1.0
 40
1.0
 10
73.4296729036
 20
35.2545109029
 30
0.0
 10
73.4014891809
 20
35.2404839843
 30
0.0
 10
73.2779299271
 20
35.2604400216
 30
0.0
 10
73.0350482462
 20
35.2348243848
 30
0.0
 10
72.6419003056
 20
35.2419793756
 30
0.0
 10
72.1393798639
 20
35.2343849822
 30
0.0
 10
71.5549995428
 20
35.2339009528
 30
0.0
 10
71.143085015
 20
35.2330744457
 30
0.0
 10
70.9300536657
 20
35.2330744955
 30
0.0
 11
73.4296729036
 21
35.2545109029
 31
0.0
 11
73.3353929474
 21
35.2489449467
 31
0.0
 11
73.0807272825
 21
35.2437688312
 31
0.0
 11
72.6818045366
 21
35.2393260875
 31
0.0
 11
72.1661328423
 21
35.235928168
 31
0.0
 11
71.5691473024
 21
35.2337994643
 31
0.0
 11
70.9300536657
 21
35.2330744955
 31
0.0
  0
SPLINE
  5
712
100
AcDbEntity
  8
RACCORDO
100
AcDbSpline
 62
253
  6
CONTINUOUS
 70
0
 71
3
 72
8
 73
4
 74
2
 42
0.0000001
 43
0.0000001
 44
0.0000000001
 12
0.1606239065
 22
0.0521878403
 32
0.0
 13
0.1606305645
 23
0.0518763026
 33
0.0
 40
0.0
 40
0.0
 40
0.0
 40
0.0
 40
1.0
 40
1.0
 40
1.0
 40
1.0
 10
68.2758251735
 20
-37.3336018731
 30
0.0
 10
68.3293664757
 20
-37.3162059263
 30
0.0
 10
68.3828563865
 20
-37.2964052927
 30
0.0
 10
68.436399908
 20
-37.2791131918
 30
0.0
 11
68.2758251735
 21
-37.3336018731
 31
0.0
 11
68.436399908
 21
-37.2791131918
 31
0.0
  0
SPLINE
  5
713
100
AcDbEntity
  8
RACCORDO
100
AcDbSpline
 62
253
  6
CONTINUOUS
 70
0
 71
3
 72
10
 73
6
 74
4
 42
0.0000001
 43
0.0000001
 44
0.0000000001
 12
0.3148761034
 22
0.1016905349
 32
0.0
 13
0.3189437772
 23
-0.0887645737
 33
0.0
 40
0.0
 40
0.0
 40
0.0
 40
0.0
 40
0.2388960155
 40
0.7907039197
 40
1.0
 40
1.0
 40
1.0
 40
1.0
 10
68.436399908
 20
-37.2791131918
 30
0.0
 10
68.4614741234
 20
-37.2710153706
 30
0.0
 10
68.5445042931
 20
-37.2460338165
 30
0.0
 10
68.6498244973
 20
-37.2290522786
 30
0.0
 10
68.7290607098
 20
-37.1729195137
 30
0.0
 10
68.7513119372
 20
-37.1791122061
 30
0.0
 11
68.436399908
 21
-37.2791131918
 31
0.0
 11
68.5116686086
 21
-37.2569746773
 31
0.0
 11
68.6854125295
 21
-37.2005240518
 31
0.0
 11
68.7513119372
 21
-37.1791122061
 31
0.0
  0
SPLINE
  5
714
100
AcDbEntity
  8
RACCORDO
100
AcDbSpline
 62
253
  6
CONTINUOUS
 70
0
 71
3
 72
13
 73
9
 74
7
 42
0.0000001
 43
0.0000001
 44
0.0000000001
 12
-1.1138511033
 22
2.2380161706
 32
0.0
 13
0.0000005852
 23
2.499876129
 33
0.0
 40
0.0
 40
0.0
 40
0.0
 40
0.0
 40
0.0377795161
 40
0.1396718696
 40
0.2992587705
 40
0.5055421472
 40
0.7443497138
 40
1.0
 40
1.0
 40
1.0
 40
1.0
 10
65.7545109029
 20
-42.9296729036
 30
0.0
 10
65.7404839843
 20
-42.9014891809
 30
0.0
 10
65.7604400216
 20
-42.7779299271
 30
0.0
 10
65.7348243848
 20
-42.5350482462
 30
0.0
 10
65.7419793756
 20
-42.1419003056
 30
0.0
 10
65.7343849822
 20
-41.6393798639
 30
0.0
 10
65.7339009528
 20
-41.0549995428
 30
0.0
 10
65.7330744457
 20
-40.643085015
 30
0.0
 10
65.7330744955
 20
-40.4300536657
 30
0.0
 11
65.7545109029
 21
-42.9296729036
 31
0.0
 11
65.7489449468
 21
-42.8353929474
 31
0.0
 11
65.7437688312
 21
-42.5807272825
 31
0.0
 11
65.7393260875
 21
-42.1818045366
 31
0.0
 11
65.735928168
 21
-41.6661328423
 31
0.0
 11
65.7337994643
 21
-41.0691473024
 31
0.0
 11
65.7330744955
 21
-40.4300536657
 31
0.0
  0
SPLINE
  5
715
100
AcDbEntity
  8
RACCORDO
100
AcDbSpline
 62
7
  6
CONTINUOUS
 70
0
 71
3
 72
10
 73
6
 74
4
 42
0.0000001
 43
0.0000001
 44
0.0000000001
 12
-0.0718022948
 22
0.6542936504
 32
0.0
 13
0.0829693799
 23
0.6529715404
 33
0.0
 40
0.0
 40
0.0
 40
0.0
 40
0.0
 40
0.3178042454
 40
0.6473534736
 40
1.0
 40
1.0
 40
1.0
 40
1.0
 10
67.6825580861
 20
-38.9082536047
 30
0.0
 10
67.6749517281
 20
-38.8389411714
 30
0.0
 10
67.6631339235
 20
-38.6973041768
 30
0.0
 10
67.6591448598
 20
-38.4777710449
 30
0.0
 10
67.6693652311
 20
-38.3281171726
 30
0.0
 10
67.6791181856
 20
-38.2513611241
 30
0.0
 11
67.6825580861
 21
-38.9082536047
 31
0.0
 11
67.6655741825
 21
-38.699758574
 31
0.0
 11
67.6622570433
 21
-38.4828674995
 31
0.0
 11
67.6791181856
 21
-38.2513611241
 31
0.0
  0
SPLINE
  5
716
100
AcDbEntity
  8
RACCORDO
100
AcDbSpline
 62
253
  6
CONTINUOUS
 70
0
 71
3
 72
10
 73
6
 74
4
 42
0.0000001
 43
0.0000001
 44
0.0000000001
 12
0.0306581401
 22
-0.4990146122
 32
0.0
 13
-0.2364915804
 23
-0.4404852292
 33
0.0
 40
0.0
 40
0.0
 40
0.0
 40
0.0
 40
0.4959984344
 40
0.8613991195
 40
1.0
 40
1.0
 40
1.0
 40
1.0
 10
67.6484678577
 20
-37.7523109255
 30
0.0
 10
67.6535366542
 20
-37.8348144143
 30
0.0
 10
67.6706747282
 20
-37.9799242394
 30
0.0
 10
67.6569609365
 20
-38.1410186276
 30
0.0
 10
67.6900513578
 20
-38.2309750289
 30
0.0
 10
67.6791253774
 20
-38.2513255758
 30
0.0
 11
67.6484678577
 21
-37.7523109255
 31
0.0
 11
67.6636742472
 21
-37.9998213919
 31
0.0
 11
67.6748767526
 21
-38.1821616731
 31
0.0
 11
67.6791253774
 21
-38.2513255758
 31
0.0
  0
SPLINE
  5
717
100
AcDbEntity
  8
RACCORDO
100
AcDbSpline
 62
7
  6
CONTINUOUS
 70
0
 71
3
 72
10
 73
6
 74
4
 42
0.0000001
 43
0.0000001
 44
0.0000000001
 12
-0.5755829898
 22
0.0631645737
 32
0.0
 13
-0.5770049853
 23
-0.051047314
 33
0.0
 40
0.0
 40
0.0
 40
0.0
 40
0.0
 40
0.361263803
 40
0.7358787088
 40
1.0
 40
1.0
 40
1.0
 40
1.0
 10
69.4082536047
 20
-37.1825580861
 30
0.0
 10
69.3389411714
 20
-37.1749517281
 30
0.0
 10
69.1973041768
 20
-37.1631339235
 30
0.0
 10
69.0041805903
 20
-37.1596247389
 30
0.0
 10
68.8809006645
 20
-37.1661631363
 30
0.0
 10
68.8301008973
 20
-37.1706573638
 30
0.0
 11
69.4082536047
 21
-37.1825580861
 31
0.0
 11
69.199758574
 21
-37.1655741825
 31
0.0
 11
68.9828674995
 21
-37.1622570433
 31
0.0
 11
68.8301008973
 21
-37.1706573638
 31
0.0
  0
LINE
  5
718
100
AcDbEntity
  8
RACCORDO
100
AcDbLine
 62
7
  6
CONTINUOUS
 10
65.7330744955
 20
-40.1974048142
 11
65.233093534
 21
-39.990305919
  0
SPLINE
  5
719
100
AcDbEntity
  8
RACCORDO
100
AcDbSpline
 62
253
  6
CONTINUOUS
 70
0
 71
3
 72
13
 73
9
 74
7
 42
0.0000001
 43
0.0000001
 44
0.0000000001
 12
2.499876197
 22
0.0000005411
 32
0.0
 13
2.2379557742
 23
-1.1139725998
 33
0.0
 40
0.0
 40
0.0
 40
0.0
 40
0.0
 40
0.2559055395
 40
0.4947937972
 40
0.7010739251
 40
0.8605250695
 40
0.9622934341
 40
1.0
 40
1.0
 40
1.0
 40
1.0
 10
70.9300536657
 20
-35.2330744955
 30
0.0
 10
71.1432977213
 20
-35.2330744494
 30
0.0
 10
71.5554919734
 20
-35.2339023103
 30
0.0
 10
72.1401501671
 20
-35.2343875025
 30
0.0
 10
72.6426211201
 20
-35.2419856759
 30
0.0
 10
73.0355491434
 20
-35.2348379817
 30
0.0
 10
73.2781590476
 20
-35.2604273263
 30
0.0
 10
73.4015443613
 20
-35.2405095425
 30
0.0
 10
73.4296729036
 20
-35.2545109029
 30
0.0
 11
70.9300536657
 21
-35.2330744955
 31
0.0
 11
71.5697854201
 21
-35.2338009343
 31
0.0
 11
72.1669726857
 21
-35.235932339
 31
0.0
 11
72.6826362529
 21
-35.2393332186
 31
0.0
 11
73.0812196125
 21
-35.2437760849
 31
0.0
 11
73.3355752965
 21
-35.2489505784
 31
0.0
 11
73.4296729036
 21
-35.2545109029
 31
0.0
  0
LINE
  5
71A
100
AcDbEntity
  8
RACCORDO
100
AcDbLine
 62
7
  6
CONTINUOUS
 10
70.6974048142
 20
-35.2330744955
 11
70.490305919
 21
-34.733093534
  0
SPLINE
  5
71B
100
AcDbEntity
  8
RACCORDO
100
AcDbSpline
 62
253
  6
CONTINUOUS
 70
0
 71
3
 72
10
 73
6
 74
4
 42
0.0000001
 43
0.0000001
 44
0.0000000001
 12
-0.0306581401
 22
0.4990146122
 32
0.0
 13
0.2364915803
 23
0.4404852292
 33
0.0
 40
0.0
 40
0.0
 40
0.0
 40
0.0
 40
0.4959984344
 40
0.8613991195
 40
1.0
 40
1.0
 40
1.0
 40
1.0
 10
-67.6484678577
 20
37.7523109255
 30
0.0
 10
-67.6535366542
 20
37.8348144143
 30
0.0
 10
-67.6706747282
 20
37.9799242394
 30
0.0
 10
-67.6569609365
 20
38.1410186276
 30
0.0
 10
-67.6900513578
 20
38.2309750289
 30
0.0
 10
-67.6791253774
 20
38.2513255758
 30
0.0
 11
-67.6484678577
 21
37.7523109255
 31
0.0
 11
-67.6636742472
 21
37.9998213919
 31
0.0
 11
-67.6748767526
 21
38.1821616731
 31
0.0
 11
-67.6791253774
 21
38.2513255758
 31
0.0
  0
SPLINE
  5
71C
100
AcDbEntity
  8
RACCORDO
100
AcDbSpline
 62
253
  6
CONTINUOUS
 70
0
 71
3
 72
8
 73
4
 74
2
 42
0.0000001
 43
0.0000001
 44
0.0000000001
 12
-0.1606239065
 22
-0.0521878403
 32
0.0
 13
-0.1606305645
 23
-0.0518763026
 33
0.0
 40
0.0
 40
0.0
 40
0.0
 40
0.0
 40
1.0
 40
1.0
 40
1.0
 40
1.0
 10
-68.2758251735
 20
37.3336018731
 30
0.0
 10
-68.3293664757
 20
37.3162059263
 30
0.0
 10
-68.3828563865
 20
37.2964052927
 30
0.0
 10
-68.436399908
 20
37.2791131918
 30
0.0
 11
-68.2758251735
 21
37.3336018731
 31
0.0
 11
-68.436399908
 21
37.2791131918
 31
0.0
  0
SPLINE
  5
71D
100
AcDbEntity
  8
RACCORDO
100
AcDbSpline
 62
253
  6
CONTINUOUS
 70
0
 71
3
 72
10
 73
6
 74
4
 42
0.0000001
 43
0.0000001
 44
0.0000000001
 12
-0.3148761034
 22
-0.1016905349
 32
0.0
 13
-0.3189437772
 23
0.0887645737
 33
0.0
 40
0.0
 40
0.0
 40
0.0
 40
0.0
 40
0.2388960155
 40
0.7907039197
 40
1.0
 40
1.0
 40
1.0
 40
1.0
 10
-68.436399908
 20
37.2791131918
 30
0.0
 10
-68.4614741234
 20
37.2710153706
 30
0.0
 10
-68.5445042931
 20
37.2460338165
 30
0.0
 10
-68.6498244973
 20
37.2290522786
 30
0.0
 10
-68.7290607098
 20
37.1729195137
 30
0.0
 10
-68.7513119372
 20
37.1791122061
 30
0.0
 11
-68.436399908
 21
37.2791131918
 31
0.0
 11
-68.5116686086
 21
37.2569746773
 31
0.0
 11
-68.6854125295
 21
37.2005240518
 31
0.0
 11
-68.7513119372
 21
37.1791122061
 31
0.0
  0
LINE
  5
71E
100
AcDbEntity
  8
RACCORDO
100
AcDbLine
 62
7
  6
CONTINUOUS
 10
-70.6974048142
 20
35.2330744955
 11
-70.490305919
 21
34.733093534
  0
LINE
  5
71F
100
AcDbEntity
  8
RACCORDO
100
AcDbLine
 62
7
  6
CONTINUOUS
 10
-65.7330744955
 20
40.1974048142
 11
-65.233093534
 21
39.990305919
  0
SPLINE
  5
720
100
AcDbEntity
  8
RACCORDO
100
AcDbSpline
 62
253
  6
CONTINUOUS
 70
0
 71
3
 72
10
 73
6
 74
4
 42
0.0000001
 43
0.0000001
 44
0.0000000001
 12
0.4990146123
 22
0.0306581401
 32
0.0
 13
0.440486035
 23
-0.2364900797
 33
0.0
 40
0.0
 40
0.0
 40
0.0
 40
0.0
 40
0.4959984343
 40
0.8613991194
 40
1.0
 40
1.0
 40
1.0
 40
1.0
 10
68.2523109255
 20
37.1484678577
 30
0.0
 10
68.3348144143
 20
37.1535366542
 30
0.0
 10
68.4799242142
 20
37.1706746813
 30
0.0
 10
68.6410186747
 20
37.1569610243
 30
0.0
 10
68.7309749918
 20
37.1900512884
 30
0.0
 10
68.7513255759
 20
37.1791253773
 30
0.0
 11
68.2523109255
 21
37.1484678577
 31
0.0
 11
68.4998213919
 21
37.1636742472
 31
0.0
 11
68.6821616731
 21
37.1748767526
 31
0.0
 11
68.7513255759
 21
37.1791253773
 31
0.0
  0
ELLIPSE
  5
721
100
AcDbEntity
  8
RACCORDO
100
AcDbEllipse
 62
7
  6
CONTINUOUS
 10
-74.7666082599
 20
-29.3340002875
 30
0.0
 11
-0.0
 21
1.5
 31
0.0
 40
0.0174550649
 41
-4.7123889804
 42
-3.1590459461
  0
ELLIPSE
  5
722
100
AcDbEntity
  8
RACCORDO
100
AcDbEllipse
 62
7
  6
CONTINUOUS
 10
-74.7666082599
 20
-3.1659997125
 30
0.0
 11
0.0
 21
1.5
 31
0.0
 40
0.0174550649
 41
0.0174532925
 42
1.5707963268
  0
ELLIPSE
  5
723
100
AcDbEntity
  8
RACCORDO
100
AcDbEllipse
 62
7
  6
CONTINUOUS
 10
-74.7666082599
 20
3.1659997125
 30
0.0
 11
0.0
 21
1.5
 31
0.0
 40
0.0174550649
 41
-4.7123889804
 42
-3.1590459461
  0
ELLIPSE
  5
724
100
AcDbEntity
  8
RACCORDO
100
AcDbEllipse
 62
7
  6
CONTINUOUS
 10
-74.7666082599
 20
29.3340002875
 30
0.0
 11
-0.0
 21
1.5
 31
0.0
 40
0.0174550649
 41
0.0174532925
 42
1.5707963268
  0
ELLIPSE
  5
725
100
AcDbEntity
  8
RACCORDO
100
AcDbEllipse
 62
7
  6
CONTINUOUS
 10
24.1659997125
 20
44.2666082599
 30
0.0
 11
1.5
 21
-0.0
 31
0.0
 40
0.0174550649
 41
1.5707963268
 42
3.1241393611
  0
ELLIPSE
  5
726
100
AcDbEntity
  8
RACCORDO
100
AcDbEllipse
 62
7
  6
CONTINUOUS
 10
59.8340002875
 20
44.2666082599
 30
0.0
 11
1.5
 21
0.0
 31
0.0
 40
0.0174550649
 41
0.0174532925
 42
1.5707963268
  0
ELLIPSE
  5
727
100
AcDbEntity
  8
RACCORDO
100
AcDbEllipse
 62
7
  6
CONTINUOUS
 10
-17.8340002875
 20
44.2666082599
 30
0.0
 11
1.5
 21
0.0
 31
0.0
 40
0.0174550649
 41
1.5707963268
 42
3.1241393611
  0
ELLIPSE
  5
728
100
AcDbEntity
  8
RACCORDO
100
AcDbEllipse
 62
7
  6
CONTINUOUS
 10
17.8340002875
 20
44.2666082599
 30
0.0
 11
1.5
 21
-0.0
 31
0.0
 40
0.0174550649
 41
0.0174532925
 42
1.5707963268
  0
ELLIPSE
  5
729
100
AcDbEntity
  8
RACCORDO
100
AcDbEllipse
 62
7
  6
CONTINUOUS
 10
-59.8340002875
 20
44.2666082599
 30
0.0
 11
1.5
 21
0.0
 31
0.0
 40
0.0174550649
 41
1.5707963268
 42
3.1241393611
  0
ELLIPSE
  5
72A
100
AcDbEntity
  8
RACCORDO
100
AcDbEllipse
 62
7
  6
CONTINUOUS
 10
-24.1659997125
 20
44.2666082599
 30
0.0
 11
1.5
 21
0.0
 31
0.0
 40
0.0174550649
 41
0.0174532925
 42
1.5707963268
  0
ELLIPSE
  5
72B
100
AcDbEntity
  8
RACCORDO
100
AcDbEllipse
 62
7
  6
CONTINUOUS
 10
-24.1659997125
 20
-44.2666082599
 30
0.0
 11
1.5
 21
0.0
 31
0.0
 40
0.0174550649
 41
-1.5707963268
 42
-0.0174532925
  0
ELLIPSE
  5
72C
100
AcDbEntity
  8
RACCORDO
100
AcDbEllipse
 62
7
  6
CONTINUOUS
 10
-59.8340002875
 20
-44.2666082599
 30
0.0
 11
1.5
 21
-0.0
 31
0.0
 40
0.0174550649
 41
-3.1241393611
 42
-1.5707963268
  0
ELLIPSE
  5
72D
100
AcDbEntity
  8
RACCORDO
100
AcDbEllipse
 62
7
  6
CONTINUOUS
 10
17.8340002875
 20
-44.2666082599
 30
0.0
 11
1.5
 21
-0.0
 31
0.0
 40
0.0174550649
 41
-1.5707963268
 42
-0.0174532925
  0
ELLIPSE
  5
72E
100
AcDbEntity
  8
RACCORDO
100
AcDbEllipse
 62
7
  6
CONTINUOUS
 10
-17.8340002875
 20
-44.2666082599
 30
0.0
 11
1.5
 21
-0.0
 31
0.0
 40
0.0174550649
 41
-3.1241393611
 42
-1.5707963268
  0
ELLIPSE
  5
72F
100
AcDbEntity
  8
RACCORDO
100
AcDbEllipse
 62
7
  6
CONTINUOUS
 10
59.8340002875
 20
-44.2666082599
 30
0.0
 11
1.5
 21
0.0
 31
0.0
 40
0.0174550649
 41
-1.5707963268
 42
-0.0174532925
  0
ELLIPSE
  5
730
100
AcDbEntity
  8
RACCORDO
100
AcDbEllipse
 62
7
  6
CONTINUOUS
 10
24.1659997125
 20
-44.2666082599
 30
0.0
 11
1.5
 21
0.0
 31
0.0
 40
0.0174550649
 41
-3.1241393611
 42
-1.5707963268
  0
ELLIPSE
  5
731
100
AcDbEntity
  8
RACCORDO
100
AcDbEllipse
 62
7
  6
CONTINUOUS
 10
74.7666082599
 20
-3.1659997125
 30
0.0
 11
-0.0
 21
1.5
 31
0.0
 40
0.0174550649
 41
-1.5707963268
 42
-0.0174532925
  0
ELLIPSE
  5
732
100
AcDbEntity
  8
RACCORDO
100
AcDbEllipse
 62
7
  6
CONTINUOUS
 10
74.7666082599
 20
-29.3340002875
 30
0.0
 11
0.0
 21
1.5
 31
0.0
 40
0.0174550649
 41
-3.1241393611
 42
-1.5707963268
  0
ELLIPSE
  5
733
100
AcDbEntity
  8
RACCORDO
100
AcDbEllipse
 62
7
  6
CONTINUOUS
 10
74.7666082599
 20
29.3340002875
 30
0.0
 11
0.0
 21
1.5
 31
0.0
 40
0.0174550649
 41
-1.5707963268
 42
-0.0174532925
  0
ELLIPSE
  5
734
100
AcDbEntity
  8
RACCORDO
100
AcDbEllipse
 62
7
  6
CONTINUOUS
 10
74.7666082599
 20
3.1659997125
 30
0.0
 11
-0.0
 21
1.5
 31
0.0
 40
0.0174550649
 41
-3.1241393611
 42
-1.5707963268
  0
ELLIPSE
  5
735
100
AcDbEntity
  8
RACCORDO
100
AcDbEllipse
 62
7
  6
CONTINUOUS
 10
70.9300536657
 20
0.8296736104
 30
0.0
 11
3.0
 21
0.0
 31
0.0
 40
0.0174550649
 41
-0.6024546334
 42
-0.0174532925
  0
ELLIPSE
  5
736
100
AcDbEntity
  8
RACCORDO
100
AcDbEllipse
 62
7
  6
CONTINUOUS
 10
-70.9300536657
 20
0.8296736104
 30
0.0
 11
3.0
 21
0.0
 31
0.0
 40
0.0174550649
 41
-3.1241393611
 42
-2.5391380202
  0
ELLIPSE
  5
737
100
AcDbEntity
  8
RACCORDO
100
AcDbEllipse
 62
7
  6
CONTINUOUS
 10
70.9300536657
 20
31.6703263896
 30
0.0
 11
3.0
 21
0.0
 31
0.0
 40
0.0174550649
 41
0.0174532925
 42
0.6024546334
  0
ELLIPSE
  5
738
100
AcDbEntity
  8
RACCORDO
100
AcDbEllipse
 62
7
  6
CONTINUOUS
 10
-70.9300536657
 20
31.6703263896
 30
0.0
 11
3.0
 21
0.0
 31
0.0
 40
0.0174550649
 41
2.5391380202
 42
3.1241393611
  0
ELLIPSE
  5
739
100
AcDbEntity
  8
RACCORDO
100
AcDbEllipse
 62
7
  6
CONTINUOUS
 10
70.9300536657
 20
-31.6703263896
 30
0.0
 11
3.0
 21
0.0
 31
0.0
 40
0.0174550649
 41
-0.6024546334
 42
-0.0174532925
  0
ELLIPSE
  5
73A
100
AcDbEntity
  8
RACCORDO
100
AcDbEllipse
 62
7
  6
CONTINUOUS
 10
-70.9300536657
 20
-31.6703263896
 30
0.0
 11
3.0
 21
0.0
 31
0.0
 40
0.0174550649
 41
-3.1241393611
 42
-2.5391380202
  0
ELLIPSE
  5
73B
100
AcDbEntity
  8
RACCORDO
100
AcDbEllipse
 62
7
  6
CONTINUOUS
 10
70.9300536657
 20
-0.8296736104
 30
0.0
 11
3.0
 21
0.0
 31
0.0
 40
0.0174550649
 41
0.0174532925
 42
0.6024546334
  0
ELLIPSE
  5
73C
100
AcDbEntity
  8
RACCORDO
100
AcDbEllipse
 62
7
  6
CONTINUOUS
 10
-70.9300536657
 20
-0.8296736104
 30
0.0
 11
3.0
 21
-0.0
 31
0.0
 40
0.0174550649
 41
2.5391380202
 42
3.1241393611
  0
ELLIPSE
  5
73D
100
AcDbEntity
  8
RACCORDO
100
AcDbEllipse
 62
7
  6
CONTINUOUS
 10
21.8296736104
 20
40.4300536657
 30
0.0
 11
-0.0
 21
3.0
 31
0.0
 40
0.0174550649
 41
0.0174532925
 42
0.6024546334
  0
ELLIPSE
  5
73E
100
AcDbEntity
  8
RACCORDO
100
AcDbEllipse
 62
7
  6
CONTINUOUS
 10
21.8296736104
 20
-40.4300536657
 30
0.0
 11
-0.0
 21
3.0
 31
0.0
 40
0.0174550649
 41
-3.744047287
 42
-3.1590459461
  0
ELLIPSE
  5
73F
100
AcDbEntity
  8
RACCORDO
100
AcDbEllipse
 62
7
  6
CONTINUOUS
 10
62.1703263896
 20
40.4300536657
 30
0.0
 11
0.0
 21
3.0
 31
0.0
 40
0.0174550649
 41
-0.6024546334
 42
-0.0174532925
  0
ELLIPSE
  5
740
100
AcDbEntity
  8
RACCORDO
100
AcDbEllipse
 62
7
  6
CONTINUOUS
 10
62.1703263896
 20
-40.4300536657
 30
0.0
 11
-0.0
 21
3.0
 31
0.0
 40
0.0174550649
 41
-3.1241393611
 42
-2.5391380202
  0
ELLIPSE
  5
741
100
AcDbEntity
  8
RACCORDO
100
AcDbEllipse
 62
7
  6
CONTINUOUS
 10
-20.1703263896
 20
40.4300536657
 30
0.0
 11
-0.0
 21
3.0
 31
0.0
 40
0.0174550649
 41
0.0174532925
 42
0.6024546334
  0
ELLIPSE
  5
742
100
AcDbEntity
  8
RACCORDO
100
AcDbEllipse
 62
7
  6
CONTINUOUS
 10
-20.1703263896
 20
-40.4300536657
 30
0.0
 11
-0.0
 21
3.0
 31
0.0
 40
0.0174550649
 41
-3.744047287
 42
-3.1590459461
  0
ELLIPSE
  5
743
100
AcDbEntity
  8
RACCORDO
100
AcDbEllipse
 62
7
  6
CONTINUOUS
 10
20.1703263896
 20
40.4300536657
 30
0.0
 11
-0.0
 21
3.0
 31
0.0
 40
0.0174550649
 41
-0.6024546334
 42
-0.0174532925
  0
ELLIPSE
  5
744
100
AcDbEntity
  8
RACCORDO
100
AcDbEllipse
 62
7
  6
CONTINUOUS
 10
20.1703263896
 20
-40.4300536657
 30
0.0
 11
-0.0
 21
3.0
 31
0.0
 40
0.0174550649
 41
-3.1241393611
 42
-2.5391380202
  0
ELLIPSE
  5
745
100
AcDbEntity
  8
RACCORDO
100
AcDbEllipse
 62
7
  6
CONTINUOUS
 10
-62.1703263896
 20
40.4300536657
 30
0.0
 11
0.0
 21
3.0
 31
0.0
 40
0.0174550649
 41
0.0174532925
 42
0.6024546334
  0
ELLIPSE
  5
746
100
AcDbEntity
  8
RACCORDO
100
AcDbEllipse
 62
7
  6
CONTINUOUS
 10
-62.1703263896
 20
-40.4300536657
 30
0.0
 11
-0.0
 21
3.0
 31
0.0
 40
0.0174550649
 41
-3.744047287
 42
-3.1590459461
  0
ELLIPSE
  5
747
100
AcDbEntity
  8
RACCORDO
100
AcDbEllipse
 62
7
  6
CONTINUOUS
 10
-21.8296736104
 20
40.4300536657
 30
0.0
 11
-0.0
 21
3.0
 31
0.0
 40
0.0174550649
 41
-0.6024546334
 42
-0.0174532925
  0
ELLIPSE
  5
748
100
AcDbEntity
  8
RACCORDO
100
AcDbEllipse
 62
7
  6
CONTINUOUS
 10
-21.8296736104
 20
-40.4300536657
 30
0.0
 11
-0.0
 21
3.0
 31
0.0
 40
0.0174550649
 41
-3.1241393611
 42
-2.5391380202
  0
ELLIPSE
  5
749
100
AcDbEntity
  8
RACCORDO
100
AcDbEllipse
 62
7
  6
CONTINUOUS
 10
-63.8296736104
 20
40.4300536657
 30
0.0
 11
-0.0
 21
3.0
 31
0.0
 40
0.0174550649
 41
-0.6024546334
 42
-0.0174532925
  0
ELLIPSE
  5
74A
100
AcDbEntity
  8
RACCORDO
100
AcDbEllipse
 62
7
  6
CONTINUOUS
 10
-70.9300536657
 20
33.3296736104
 30
0.0
 11
3.0
 21
-0.0
 31
0.0
 40
0.0174550649
 41
-3.1241393611
 42
-2.5391380202
  0
ELLIPSE
  5
74B
100
AcDbEntity
  8
RACCORDO
100
AcDbEllipse
 62
7
  6
CONTINUOUS
 10
-70.9300536657
 20
-33.3296736104
 30
0.0
 11
3.0
 21
-0.0
 31
0.0
 40
0.0174550649
 41
2.5391380202
 42
3.1241393611
  0
ELLIPSE
  5
74C
100
AcDbEntity
  8
RACCORDO
100
AcDbEllipse
 62
7
  6
CONTINUOUS
 10
-63.8296736104
 20
-40.4300536657
 30
0.0
 11
-0.0
 21
3.0
 31
0.0
 40
0.0174550649
 41
-3.1241393611
 42
-2.5391380202
  0
ELLIPSE
  5
74D
100
AcDbEntity
  8
RACCORDO
100
AcDbEllipse
 62
7
  6
CONTINUOUS
 10
70.9300536657
 20
33.3296736104
 30
0.0
 11
3.0
 21
0.0
 31
0.0
 40
0.0174550649
 41
-0.6024546334
 42
-0.0174532925
  0
ELLIPSE
  5
74E
100
AcDbEntity
  8
RACCORDO
100
AcDbEllipse
 62
7
  6
CONTINUOUS
 10
63.8296736104
 20
40.4300536657
 30
0.0
 11
0.0
 21
3.0
 31
0.0
 40
0.0174550649
 41
0.0174532925
 42
0.6024546334
  0
ELLIPSE
  5
74F
100
AcDbEntity
  8
RACCORDO
100
AcDbEllipse
 62
7
  6
CONTINUOUS
 10
70.9300536657
 20
-33.3296736104
 30
0.0
 11
3.0
 21
0.0
 31
0.0
 40
0.0174550649
 41
0.0174532925
 42
0.6024546334
  0
ELLIPSE
  5
750
100
AcDbEntity
  8
RACCORDO
100
AcDbEllipse
 62
7
  6
CONTINUOUS
 10
63.8296736104
 20
-40.4300536657
 30
0.0
 11
0.0
 21
3.0
 31
0.0
 40
0.0174550649
 41
-3.744047287
 42
-3.1590459461
  0
ELLIPSE
  5
751
100
AcDbEntity
  8
RACCORDO
100
AcDbEllipse
 62
7
  6
CONTINUOUS
 10
65.2549107035
 20
42.9304344858
 30
0.0
 11
0.2236357461
 21
0.4473055582
 31
0.0
 40
0.9998096356
 41
-1.1071030277
 42
0.4635410001
  0
ELLIPSE
  5
752
100
AcDbEntity
  8
RACCORDO
100
AcDbEllipse
 62
7
  6
CONTINUOUS
 10
73.4304344858
 20
34.7549107035
 30
0.0
 11
0.4473055582
 21
0.2236357461
 31
0.0
 40
0.9998096356
 41
-0.4635410001
 42
1.1071030276
  0
ELLIPSE
  5
753
100
AcDbEntity
  8
RACCORDO
100
AcDbEllipse
 62
7
  6
CONTINUOUS
 10
-65.2549107035
 20
-42.9304344858
 30
0.0
 11
0.2236357461
 21
0.4473055582
 31
0.0
 40
0.9998096356
 41
-4.2486956813
 42
-2.6780516535
  0
ELLIPSE
  5
754
100
AcDbEntity
  8
RACCORDO
100
AcDbEllipse
 62
7
  6
CONTINUOUS
 10
-73.4304344858
 20
-34.7549107035
 30
0.0
 11
0.4473055582
 21
0.2236357461
 31
0.0
 40
0.9998096356
 41
2.6780516535
 42
4.2486956813
  0
ELLIPSE
  5
755
100
AcDbEntity
  8
RACCORDO
100
AcDbEllipse
 62
7
  6
CONTINUOUS
 10
65.2549107035
 20
-42.9304344858
 30
0.0
 11
-0.2236357461
 21
0.4473055582
 31
0.0
 40
0.9998096356
 41
-3.6051336537
 42
-2.0344896259
  0
ELLIPSE
  5
756
100
AcDbEntity
  8
RACCORDO
100
AcDbEllipse
 62
7
  6
CONTINUOUS
 10
73.4304344858
 20
-34.7549107035
 30
0.0
 11
0.4473055582
 21
-0.2236357461
 31
0.0
 40
0.9998096356
 41
-1.1071030277
 42
0.4635410001
  0
ELLIPSE
  5
757
100
AcDbEntity
  8
RACCORDO
100
AcDbEllipse
 62
7
  6
CONTINUOUS
 10
-73.4304344858
 20
34.7549107035
 30
0.0
 11
0.4473055582
 21
-0.2236357461
 31
0.0
 40
0.9998096356
 41
2.0344896259
 42
3.6051336537
  0
ELLIPSE
  5
758
100
AcDbEntity
  8
RACCORDO
100
AcDbEllipse
 62
7
  6
CONTINUOUS
 10
-65.2549107035
 20
42.9304344858
 30
0.0
 11
-0.2236357461
 21
0.4473055582
 31
0.0
 40
0.9998096356
 41
-0.4635410001
 42
1.1071030277
  0
ENDSEC
  0
SECTION
  2
OBJECTS
  0
DICTIONARY
  5
C
100
AcDbDictionary
280
0
281
1
  3
ACAD_GROUP
350
D
  3
ACAD_MLINESTYLE
350
17
  3
ACAD_LAYOUT
350
1A
  3
ACAD_PLOTSETTINGS
350
19
  3
ACAD_PLOTSTYLENAME
350
E
  0
DICTIONARY
  5
D
102
{ACAD_REACTORS
330
C
102
}
100
AcDbDictionary
280
0
281
1
  0
ACDBDICTIONARYWDFLT
  5
E
102
{ACAD_REACTORS
330
C
102
}
100
AcDbDictionary
281
1
  3
Normal
350
F
100
AcDbDictionaryWithDefault
340
F
  0
DICTIONARY
  5
17
102
{ACAD_REACTORS
330
C
102
}
100
AcDbDictionary
280
0
281
1
  3
Standard
350
18
  0
DICTIONARY
  5
19
102
{ACAD_REACTORS
330
C
102
}
100
AcDbDictionary
281
1
  0
DICTIONARY
  5
1A
102
{ACAD_REACTORS
330
C
102
}
100
AcDbDictionary
281
1
  3
Model
350
759
  3
Layout1
350
75A
  0
ACDBPLACEHOLDER
  5
F
102
{ACAD_REACTORS
330
E
102
}
  0
MLINESTYLE
  5
18
102
{ACAD_REACTORS
330
17
102
}
100
AcDbMlineStyle
  2
STANDARD
 70
0
  3

 62
256
 51
90.0
 52
90.0
 71
2
 49
0.5
 62
256
  6
BYLAYER
 49
-0.5
 62
256
  6
BYLAYER
  0
LAYOUT
  5
759
102
{ACAD_REACTORS
330
1A
102
}
100
AcDbPlotSettings
  1

  2
none_device
  4
ISO_A4_(297.00_x_210.00_MM)
  6

 40
0.0
 41
0.0
 42
0.0
 43
0.0
 44
297.0
 45
210.0
 46
0.0
 47
0.0
 48
0.0
 49
0.0
140
0.0
141
0.0
142
1.0
143
1.0
 70
1024
 72
1
 73
0
 74
0
  7

 75
0
147
1.0
148
0.0
149
0.0
100
AcDbLayout
  1
Model
 70
0
 71
0
 10
0.0
 20
0.0
 11
297.0
 21
210.0
 12
0.0
 22
0.0
 32
0.0
 14
0.0
 24
0.0
 34
0.0
 15
0.0
 25
0.0
 35
0.0
146
0.0
 13
0.0
 23
0.0
 33
0.0
 16
1.0
 26
0.0
 36
0.0
 17
0.0
 27
1.0
 37
0.0
 76
0
330
211
345
0
346
0
  0
LAYOUT
  5
75A
102
{ACAD_REACTORS
330
1A
102
}
100
AcDbPlotSettings
  1

  2
none_device
  4
ISO_A4_(297.00_x_210.00_MM)
  6

 40
0.0
 41
0.0
 42
0.0
 43
0.0
 44
297.0
 45
210.0
 46
0.0
 47
0.0
 48
0.0
 49
0.0
140
0.0
141
0.0
142
1.0
143
1.0
 70
0
 72
1
 73
0
 74
0
  7

 75
0
147
1.0
148
0.0
149
0.0
100
AcDbLayout
  1
Layout1
 70
0
 71
1
 10
0.0
 20
0.0
 11
297.0
 21
210.0
 12
0.0
 22
0.0
 32
0.0
 14
0.0
 24
0.0
 34
0.0
 15
0.0
 25
0.0
 35
0.0
146
0.0
 13
0.0
 23
0.0
 33
0.0
 16
1.0
 26
0.0
 36
0.0
 17
0.0
 27
1.0
 37
0.0
 76
0
330
212
345
0
346
0
  0
ENDSEC
  0
EOF
