  0
SECTION
  2
HEADER
  9
$ACADVER
  1
AC1015
  9
$DWGCODEPAGE
  3
ANSI_1252
  9
$EXTMAX
 10
297.0
 20
210.0
 30
0.0
  9
$EXTMIN
 10
0.0
 20
0.0
 30
0.0
  9
$LIMMIN
 10
0.0
 20
0.0
  9
$LIMMAX
 10
297.0
 20
210.0
  9
$VIEWCTR
 10
148.5
 20
105.0
  9
$VIEWSIZE
 40
210.0
  9
$CLAYER
  8
0
  9
$LTSCALE
 40
16.335
  9
$CELTYPE
  6
BYLAYER
  9
$DIMSCALE
 40
1.0
  9
$DIMASZ
 40
3.0
  9
$DIMEXO
 40
1.85625
  9
$DIMDLI
 40
11.286
  9
$DIMEXE
 40
5.346
  9
$DIMCEN
 40
2.673
  9
$DIMLFAC
 40
1.0
  9
$DIMBLK
  1
_FILLED
  9
$DIMTXT
 40
3.0
  9
$DIMTOL
 70
1
  9
$DIMLIM
 70
0
  9
$DIMTFAC
 40
1.0
  9
$DIMTP
 40
0.01
  9
$DIMTM
 40
0.01
  9
$PDMODE
 70
3
  9
$PDSIZE
 40
3.0
  9
$HANDSEED
  5
77C
  9
$TILEMODE
 70
1
  9
$MEASUREMENT
 70
1
  9
$INSUNITS
 70
4
  0
ENDSEC
  0
SECTION
  2
CLASSES
  0
CLASS
  1
ACDBDICTIONARYWDFLT
  2
AcDbDictionaryWithDefault
  3
AutoCAD 2000
 90
0
280
0
281
0
  0
CLASS
  1
ACDBPLACEHOLDER
  2
AcDbPlaceHolder
  3
AutoCAD 2000
 90
0
280
0
281
0
  0
CLASS
  1
LAYOUT
  2
AcDbLayout
  3
AutoCAD 2000
 90
0
280
0
281
0
  0
ENDSEC
  0
SECTION
  2
TABLES
  0
TABLE
  2
VPORT
  5
8
100
AcDbSymbolTable
 70
2
  0
VPORT
  5
1F4
100
AcDbSymbolTableRecord
100
AcDbViewportTableRecord
  2
*ACTIVE
 70
0
 10
0.0
 20
0.0
 11
1.0
 21
1.0
 12
148.5
 22
105.0
 13
0.0
 23
0.0
 14
1.0
 24
1.0
 15
0.0
 25
0.0
 16
0.0
 26
0.0
 36
1.0
 17
0.0
 27
0.0
 37
0.0
 40
210.0
 41
1.4142857143
 42
50.0
 43
0.0
 44
0.0
 50
0.0
 51
0.0
 71
0
 72
100
 73
1
 74
1
 75
0
 76
0
 77
0
 78
0
  0
ENDTAB
  0
TABLE
  2
LTYPE
  5
5
100
AcDbSymbolTable
 70
6
  0
LTYPE
  5
14
100
AcDbSymbolTableRecord
100
AcDbLinetypeTableRecord
  2
BYBLOCK
 70
0
  3

 72
65
 73
0
 40
0.0
  0
LTYPE
  5
15
100
AcDbSymbolTableRecord
100
AcDbLinetypeTableRecord
  2
BYLAYER
 70
0
  3

 72
65
 73
0
 40
0.0
  0
LTYPE
  5
16
100
AcDbSymbolTableRecord
100
AcDbLinetypeTableRecord
  2
CONTINUOUS
 70
64
  3
Solid line
 72
65
 73
0
 40
0.0
  0
LTYPE
  5
1F5
100
AcDbSymbolTableRecord
100
AcDbLinetypeTableRecord
  2
CENTER
 70
64
  3
____ _ ____ _ ____ _ ____ _ ____ _ ____ _ ____
 72
65
 73
4
 40
0.6
 49
0.375
 74
0
 49
-0.075
 74
0
 49
0.075
 74
0
 49
-0.075
 74
0
  0
LTYPE
  5
1F6
100
AcDbSymbolTableRecord
100
AcDbLinetypeTableRecord
  2
HIDDEN
 70
64
  3
- - - - - - - - - - - - - - - - - - - -
 72
65
 73
2
 40
0.2
 49
0.1
 74
0
 49
-0.1
 74
0
  0
LTYPE
  5
1F7
100
AcDbSymbolTableRecord
100
AcDbLinetypeTableRecord
  2
PHANTOM
 70
64
  3
_____ _ _ _____ _ _ _____ _ _ _____
 72
65
 73
6
 40
0.8
 49
0.45
 74
0
 49
-0.05
 74
0
 49
0.1
 74
0
 49
-0.05
 74
0
 49
0.1
 74
0
 49
-0.05
 74
0
  0
LTYPE
  5
1F8
100
AcDbSymbolTableRecord
100
AcDbLinetypeTableRecord
  2
DOT
 70
64
  3
. . . . . . . . . . . . . . . . . . . .
 72
65
 73
2
 40
0.2
 49
0.1
 74
0
 49
-0.1
 74
0
  0
LTYPE
  5
1F9
100
AcDbSymbolTableRecord
100
AcDbLinetypeTableRecord
  2
DASHED
 70
64
  3
- - - - - - - - - - - - - - - - - - - -
 72
65
 73
2
 40
0.2
 49
0.1
 74
0
 49
-0.1
 74
0
  0
ENDTAB
  0
TABLE
  2
LAYER
  5
2
100
AcDbSymbolTable
 70
36
  0
LAYER
  5
10
100
AcDbSymbolTableRecord
100
AcDbLayerTableRecord
  2
0
 70
0
 62
7
  6
CONTINUOUS
370
-3
390
F
  0
LAYER
  5
1FA
100
AcDbSymbolTableRecord
100
AcDbLayerTableRecord
  2
DEFAULT_1
 70
0
 62
7
  6
CENTER
370
-3
390
F
  0
LAYER
  5
1FB
100
AcDbSymbolTableRecord
100
AcDbLayerTableRecord
  2
DEFAULT_2
 70
0
 62
7
  6
HIDDEN
370
-3
390
F
  0
LAYER
  5
1FC
100
AcDbSymbolTableRecord
100
AcDbLayerTableRecord
  2
DEFAULT_3
 70
0
 62
7
  6
PHANTOM
370
-3
390
F
  0
LAYER
  5
1FD
100
AcDbSymbolTableRecord
100
AcDbLayerTableRecord
  2
ASSI
 70
0
 62
7
  6
CONTINUOUS
370
-3
390
F
  0
LAYER
  5
1FE
100
AcDbSymbolTableRecord
100
AcDbLayerTableRecord
  2
COORDINATE
 70
0
 62
7
  6
CONTINUOUS
370
-3
390
F
  0
LAYER
  5
1FF
100
AcDbSymbolTableRecord
100
AcDbLayerTableRecord
  2
COORD_ORIGINE
 70
0
 62
7
  6
CONTINUOUS
370
-3
390
F
  0
LAYER
  5
200
100
AcDbSymbolTableRecord
100
AcDbLayerTableRecord
  2
COPY_PUBLISH
 70
0
 62
7
  6
CONTINUOUS
370
-3
390
F
  0
LAYER
  5
201
100
AcDbSymbolTableRecord
100
AcDbLayerTableRecord
  2
COSMETIC
 70
0
 62
7
  6
CONTINUOUS
370
-3
390
F
  0
LAYER
  5
202
100
AcDbSymbolTableRecord
100
AcDbLayerTableRecord
  2
CURVA_ASSE
 70
0
 62
7
  6
CONTINUOUS
370
-3
390
F
  0
LAYER
  5
203
100
AcDbSymbolTableRecord
100
AcDbLayerTableRecord
  2
CURVE
 70
0
 62
7
  6
CONTINUOUS
370
-3
390
F
  0
LAYER
  5
204
100
AcDbSymbolTableRecord
100
AcDbLayerTableRecord
  2
CURVE_GUIDA
 70
0
 62
7
  6
CONTINUOUS
370
-3
390
F
  0
LAYER
  5
205
100
AcDbSymbolTableRecord
100
AcDbLayerTableRecord
  2
CURVE_INC_PUNZONI
 70
0
 62
7
  6
CONTINUOUS
370
-3
390
F
  0
LAYER
  5
206
100
AcDbSymbolTableRecord
100
AcDbLayerTableRecord
  2
DRAFT
 70
0
 62
7
  6
CONTINUOUS
370
-3
390
F
  0
LAYER
  5
207
100
AcDbSymbolTableRecord
100
AcDbLayerTableRecord
  2
IMPORT_IGES
 70
0
 62
7
  6
CONTINUOUS
370
-3
390
F
  0
LAYER
  5
208
100
AcDbSymbolTableRecord
100
AcDbLayerTableRecord
  2
NOTE
 70
0
 62
7
  6
CONTINUOUS
370
-3
390
F
  0
LAYER
  5
209
100
AcDbSymbolTableRecord
100
AcDbLayerTableRecord
  2
PIANI
 70
0
 62
7
  6
CONTINUOUS
370
-3
390
F
  0
LAYER
  5
20A
100
AcDbSymbolTableRecord
100
AcDbLayerTableRecord
  2
PIANI_ORIGINE
 70
0
 62
7
  6
CONTINUOUS
370
-3
390
F
  0
LAYER
  5
20B
100
AcDbSymbolTableRecord
100
AcDbLayerTableRecord
  2
PUNTI
 70
0
 62
7
  6
CONTINUOUS
370
-3
390
F
  0
LAYER
  5
20C
100
AcDbSymbolTableRecord
100
AcDbLayerTableRecord
  2
RACCORDO
 70
0
 62
7
  6
CONTINUOUS
370
-3
390
F
  0
LAYER
  5
20D
100
AcDbSymbolTableRecord
100
AcDbLayerTableRecord
  2
SMUSSO
 70
0
 62
7
  6
CONTINUOUS
370
-3
390
F
  0
LAYER
  5
20E
100
AcDbSymbolTableRecord
100
AcDbLayerTableRecord
  2
SNAPLINE
 70
0
 62
7
  6
CONTINUOUS
370
-3
390
F
  0
LAYER
  5
20F
100
AcDbSymbolTableRecord
100
AcDbLayerTableRecord
  2
SUPERFICI
 70
0
 62
7
  6
CONTINUOUS
370
-3
390
F
  0
LAYER
  5
210
100
AcDbSymbolTableRecord
100
AcDbLayerTableRecord
  2
TRASH
 70
0
 62
7
  6
CONTINUOUS
370
-3
390
F
  0
LAYER
  5
211
100
AcDbSymbolTableRecord
100
AcDbLayerTableRecord
  2
XSEC_DATUMS
 70
0
 62
7
  6
CONTINUOUS
370
-3
390
F
  0
ENDTAB
  0
TABLE
  2
STYLE
  5
3
100
AcDbSymbolTable
 70
1
  0
STYLE
  5
11
100
AcDbSymbolTableRecord
100
AcDbTextStyleTableRecord
  2
STANDARD
 70
0
 40
0.0
 41
0.8
 50
0.0
 71
0
 42
0.2
  3
txt
  4

  0
STYLE
  5
212
100
AcDbSymbolTableRecord
100
AcDbTextStyleTableRecord
  2
TEXTSTYLE_1
 70
0
 40
0.0
 41
0.8
 50
0.0
 71
0
 42
0.2
  3
gdt
  4

  0
ENDTAB
  0
TABLE
  2
VIEW
  5
6
100
AcDbSymbolTable
 70
0
  0
ENDTAB
  0
TABLE
  2
UCS
  5
7
100
AcDbSymbolTable
 70
0
  0
ENDTAB
  0
TABLE
  2
APPID
  5
9
100
AcDbSymbolTable
 70
1
  0
APPID
  5
213
100
AcDbSymbolTableRecord
100
AcDbRegAppTableRecord
  2
ACAD
 70
0
  0
ENDTAB
  0
TABLE
  2
BLOCK_RECORD
  5
1
100
AcDbSymbolTable
 70
0
  0
BLOCK_RECORD
  5
214
100
AcDbSymbolTableRecord
100
AcDbBlockTableRecord
  2
*Model_Space
  0
BLOCK_RECORD
  5
215
100
AcDbSymbolTableRecord
100
AcDbBlockTableRecord
  2
*Paper_Space
  0
ENDTAB
  0
TABLE
  2
DIMSTYLE
  5
A
100
AcDbSymbolTable
 70
1
100
AcDbDimStyleTable
 71
0
  0
DIMSTYLE
105
216
100
AcDbSymbolTableRecord
100
AcDbDimStyleTableRecord
  2
STANDARD
 70
0
  3

  4

 40
1.0
 41
3.0
 42
0.0625
 43
0.38
 44
0.18
 45
0.0
 46
0.0
 47
0.01
 48
0.01
140
3.0
141
0.09
142
0.0
143
25.4
144
1.0
145
0.0
146
1.0
147
0.09
 71
1.0
 72
0.0
 73
0
 74
0
 75
0
 76
0
 77
1
 78
8
170
0
171
2
172
0
173
0
174
0
175
0
176
0
177
0
178
0
270
2
271
2
272
2
273
2
274
2
275
0
280
0
281
0
282
0
283
1
284
8
285
0
286
0
287
3
288
0
340
11
  0
ENDTAB
  0
ENDSEC
  0
SECTION
  2
BLOCKS
  0
BLOCK
  5
20
100
AcDbEntity
  8
0
100
AcDbBlockBegin
  2
*Model_Space
 70
0
 10
0.0
 20
0.0
 30
0.0
  3
*Model_Space
  1

  0
ENDBLK
  5
21
100
AcDbEntity
  8
0
100
AcDbBlockEnd
  0
BLOCK
  5
1C
100
AcDbEntity
  8
0
100
AcDbBlockBegin
  2
*Paper_Space
 70
0
 10
0.0
 20
0.0
 30
0.0
  3
*Paper_Space
  1

  0
ENDBLK
  5
1D
100
AcDbEntity
  8
0
100
AcDbBlockEnd
  0
ENDSEC
  0
SECTION
  2
ENTITIES
  0
LINE
  5
217
100
AcDbEntity
  8
0
100
AcDbLine
 62
7
  6
CONTINUOUS
 10
-89.5117650694
 20
-66.4882349306
 11
-89.5117650694
 21
66.5117650694
  0
LINE
  5
218
100
AcDbEntity
  8
0
100
AcDbLine
 62
7
  6
CONTINUOUS
 10
-86.5117650694
 20
66.5117650694
 11
-86.5117650694
 21
-66.4882349306
  0
LINE
  5
219
100
AcDbEntity
  8
0
100
AcDbLine
 62
7
  6
CONTINUOUS
 10
-70.0346086761
 20
55.6593364431
 11
-70.2960304794
 21
55.2331221299
  0
LINE
  5
21A
100
AcDbEntity
  8
0
100
AcDbLine
 62
7
  6
CONTINUOUS
 10
-68.9889214627
 20
57.3641936957
 11
-68.7274996594
 21
57.7904080089
  0
LINE
  5
21B
100
AcDbEntity
  8
DRAFT
100
AcDbLine
 62
7
  6
CONTINUOUS
 10
-74.7324840306
 20
56.6300764105
 11
-72.9237423408
 21
58.4388181003
  0
LINE
  5
21C
100
AcDbEntity
  8
DRAFT
100
AcDbLine
 62
7
  6
CONTINUOUS
 10
-71.4388181003
 20
59.9237423408
 11
-69.6300764105
 21
61.7324840306
  0
LINE
  5
21D
100
AcDbEntity
  8
DRAFT
100
AcDbLine
 62
7
  6
CONTINUOUS
 10
-73.8422757192
 20
56.2613400546
 11
-72.6089822042
 21
57.4946335696
  0
LINE
  5
21E
100
AcDbEntity
  8
DRAFT
100
AcDbLine
 62
7
  6
CONTINUOUS
 10
-70.4946335696
 20
59.6089822042
 11
-69.2613400546
 21
60.8422757192
  0
LINE
  5
21F
100
AcDbEntity
  8
DRAFT
100
AcDbLine
 62
7
  6
CONTINUOUS
 10
-68.9359999916
 20
60.0568353267
 11
-69.9392433419
 21
59.0535919765
  0
LINE
  5
220
100
AcDbEntity
  8
DRAFT
100
AcDbLine
 62
7
  6
CONTINUOUS
 10
-72.0535919765
 20
56.9392433419
 11
-73.0568353267
 21
55.9359999916
  0
LINE
  5
221
100
AcDbEntity
  8
DRAFT
100
AcDbLine
 62
7
  6
CONTINUOUS
 10
-68.7516458548
 20
59.6117650694
 11
-69.9392433419
 21
58.4241675823
  0
LINE
  5
222
100
AcDbEntity
  8
DRAFT
100
AcDbLine
 62
7
  6
CONTINUOUS
 10
-71.4241675823
 20
56.9392433419
 11
-72.6117650694
 21
55.7516458548
  0
LINE
  5
223
100
AcDbEntity
  8
DRAFT
100
AcDbLine
 62
7
  6
CONTINUOUS
 10
-72.6117650694
 20
53.1117650694
 11
-73.0568353267
 21
52.6666948121
  0
LINE
  5
224
100
AcDbEntity
  8
DRAFT
100
AcDbLine
 62
7
  6
CONTINUOUS
 10
-66.1117650694
 20
59.6117650694
 11
-65.6666948121
 21
60.0568353267
  0
LINE
  5
225
100
AcDbEntity
  8
DRAFT
100
AcDbLine
 62
7
  6
CONTINUOUS
 10
-70.8675838114
 20
53.1117650694
 11
-69.3556998442
 21
54.6236490366
  0
LINE
  5
226
100
AcDbEntity
  8
DRAFT
100
AcDbLine
 62
7
  6
CONTINUOUS
 10
-67.6236490366
 20
56.3556998442
 11
-66.1117650694
 21
57.8675838114
  0
LINE
  5
227
100
AcDbEntity
  8
RACCORDO
100
AcDbLine
 62
7
  6
CONTINUOUS
 10
-65.644839565
 20
57.6741769349
 11
-67.6274607938
 21
55.691555706
  0
LINE
  5
228
100
AcDbEntity
  8
RACCORDO
100
AcDbLine
 62
7
  6
CONTINUOUS
 10
-68.691555706
 20
54.6274607938
 11
-70.6741769349
 21
52.644839565
  0
LINE
  5
229
100
AcDbEntity
  8
RACCORDO
100
AcDbLine
 62
7
  6
CONTINUOUS
 10
-62.183878111
 20
60.8413618206
 11
-61.3464096529
 21
61.6788302786
  0
LINE
  5
22A
100
AcDbEntity
  8
RACCORDO
100
AcDbLine
 62
7
  6
CONTINUOUS
 10
-73.8413618206
 20
49.133878111
 11
-74.6788302786
 21
48.2964096529
  0
LINE
  5
22B
100
AcDbEntity
  8
RACCORDO
100
AcDbLine
 62
253
  6
CONTINUOUS
 10
-65.1448586034
 20
57.4670780397
 11
-67.2739208654
 21
55.3380157776
  0
LINE
  5
22C
100
AcDbEntity
  8
RACCORDO
100
AcDbLine
 62
253
  6
CONTINUOUS
 10
-68.3380157776
 20
54.2739208654
 11
-70.4670780397
 21
52.1448586034
  0
LINE
  5
22D
100
AcDbEntity
  8
DRAFT
100
AcDbLine
 62
7
  6
CONTINUOUS
 10
-69.6300764105
 20
-61.7089538917
 11
-71.4388181003
 21
-59.9002122019
  0
LINE
  5
22E
100
AcDbEntity
  8
DRAFT
100
AcDbLine
 62
7
  6
CONTINUOUS
 10
-72.9237423408
 20
-58.4152879614
 11
-74.7324840306
 21
-56.6065462716
  0
LINE
  5
22F
100
AcDbEntity
  8
DRAFT
100
AcDbLine
 62
7
  6
CONTINUOUS
 10
-69.2613400546
 20
-60.8187455804
 11
-70.4946335696
 21
-59.5854520654
  0
LINE
  5
230
100
AcDbEntity
  8
DRAFT
100
AcDbLine
 62
7
  6
CONTINUOUS
 10
-72.6089822042
 20
-57.4711034308
 11
-73.8422757192
 21
-56.2378099157
  0
LINE
  5
231
100
AcDbEntity
  8
DRAFT
100
AcDbLine
 62
7
  6
CONTINUOUS
 10
-73.0568353267
 20
-55.9124698527
 11
-72.0535919765
 21
-56.915713203
  0
LINE
  5
232
100
AcDbEntity
  8
DRAFT
100
AcDbLine
 62
7
  6
CONTINUOUS
 10
-69.9392433419
 20
-59.0300618376
 11
-68.9359999916
 21
-60.0333051879
  0
LINE
  5
233
100
AcDbEntity
  8
DRAFT
100
AcDbLine
 62
7
  6
CONTINUOUS
 10
-72.6117650694
 20
-55.7281157159
 11
-71.4241675823
 21
-56.915713203
  0
LINE
  5
234
100
AcDbEntity
  8
DRAFT
100
AcDbLine
 62
7
  6
CONTINUOUS
 10
-69.9392433419
 20
-58.4006374435
 11
-68.7516458548
 21
-59.5882349306
  0
LINE
  5
235
100
AcDbEntity
  8
DRAFT
100
AcDbLine
 62
7
  6
CONTINUOUS
 10
-66.1117650694
 20
-59.5882349306
 11
-65.6666948121
 21
-60.0333051879
  0
LINE
  5
236
100
AcDbEntity
  8
DRAFT
100
AcDbLine
 62
7
  6
CONTINUOUS
 10
-72.6117650694
 20
-53.0882349306
 11
-73.0568353267
 21
-52.6431646733
  0
LINE
  5
237
100
AcDbEntity
  8
DRAFT
100
AcDbLine
 62
7
  6
CONTINUOUS
 10
-66.1117650694
 20
-57.8440536726
 11
-67.6236490366
 21
-56.3321697054
  0
LINE
  5
238
100
AcDbEntity
  8
DRAFT
100
AcDbLine
 62
7
  6
CONTINUOUS
 10
-69.3556998442
 20
-54.6001188978
 11
-70.8675838114
 21
-53.0882349306
  0
LINE
  5
239
100
AcDbEntity
  8
RACCORDO
100
AcDbLine
 62
7
  6
CONTINUOUS
 10
-70.6741769349
 20
-52.6213094261
 11
-68.691555706
 21
-54.603930655
  0
LINE
  5
23A
100
AcDbEntity
  8
RACCORDO
100
AcDbLine
 62
7
  6
CONTINUOUS
 10
-67.6274607938
 20
-55.6680255672
 11
-65.644839565
 21
-57.650646796
  0
LINE
  5
23B
100
AcDbEntity
  8
RACCORDO
100
AcDbLine
 62
7
  6
CONTINUOUS
 10
-62.183878111
 20
-60.8178316817
 11
-61.3464096529
 21
-61.6553001398
  0
LINE
  5
23C
100
AcDbEntity
  8
RACCORDO
100
AcDbLine
 62
7
  6
CONTINUOUS
 10
-73.8413618206
 20
-49.1103479721
 11
-74.6788302786
 21
-48.2728795141
  0
LINE
  5
23D
100
AcDbEntity
  8
RACCORDO
100
AcDbLine
 62
253
  6
CONTINUOUS
 10
-70.4670780397
 20
-52.1213284646
 11
-68.3380157776
 21
-54.2503907266
  0
LINE
  5
23E
100
AcDbEntity
  8
RACCORDO
100
AcDbLine
 62
253
  6
CONTINUOUS
 10
-67.2739208654
 20
-55.3144856388
 11
-65.1448586034
 21
-57.4435479008
  0
LINE
  5
23F
100
AcDbEntity
  8
RACCORDO
100
AcDbLine
 62
253
  6
CONTINUOUS
 10
-68.4497884508
 20
-55.0415715537
 11
-68.6915557062
 21
-54.6039306551
  0
LINE
  5
240
100
AcDbEntity
  8
DRAFT
100
AcDbLine
 62
7
  6
CONTINUOUS
 10
-83.5117650694
 20
-48.4882349306
 11
-83.5117650694
 21
48.5117650694
  0
LINE
  5
241
100
AcDbEntity
  8
RACCORDO
100
AcDbLine
 62
253
  6
CONTINUOUS
 10
-83.4590952417
 20
48.5117650694
 11
-83.4590952417
 21
-48.4882349306
  0
LINE
  5
242
100
AcDbEntity
  8
RACCORDO
100
AcDbLine
 62
253
  6
CONTINUOUS
 10
-82.4592475466
 20
48.5117650694
 11
-82.4592475466
 21
-48.4882349306
  0
LINE
  5
243
100
AcDbEntity
  8
RACCORDO
100
AcDbLine
 62
253
  6
CONTINUOUS
 10
-68.0651016925
 20
55.4497884508
 11
-67.6274607939
 21
55.6915557062
  0
LINE
  5
244
100
AcDbEntity
  8
SMUSSO
100
AcDbLine
 62
7
  6
CONTINUOUS
 10
-74.7045559267
 20
-35.2882349306
 11
-74.7237578273
 21
-34.9934704139
  0
LINE
  5
245
100
AcDbEntity
  8
SMUSSO
100
AcDbLine
 62
7
  6
CONTINUOUS
 10
-74.7045559267
 20
-1.9882349306
 11
-74.7237578273
 21
-1.6934704139
  0
LINE
  5
246
100
AcDbEntity
  8
SMUSSO
100
AcDbLine
 62
7
  6
CONTINUOUS
 10
-74.7045559267
 20
31.3117650694
 11
-74.7237578273
 21
31.6065295861
  0
LINE
  5
247
100
AcDbEntity
  8
SMUSSO
100
AcDbLine
 62
7
  6
CONTINUOUS
 10
-75.2324840306
 20
34.8830463615
 11
-75.2324840306
 21
31.7404837773
  0
LINE
  5
248
100
AcDbEntity
  8
SMUSSO
100
AcDbLine
 62
7
  6
CONTINUOUS
 10
-75.2324840306
 20
1.5830463615
 11
-75.2324840306
 21
-1.5595162227
  0
LINE
  5
249
100
AcDbEntity
  8
SMUSSO
100
AcDbLine
 62
7
  6
CONTINUOUS
 10
-75.2324840306
 20
-31.7169536385
 11
-75.2324840306
 21
-34.8595162227
  0
LINE
  5
24A
100
AcDbEntity
  8
SMUSSO
100
AcDbLine
 62
7
  6
CONTINUOUS
 10
-74.7324840306
 20
51.2028549972
 11
-74.7324840306
 21
35.0170005528
  0
LINE
  5
24B
100
AcDbEntity
  8
DRAFT
100
AcDbLine
 62
7
  6
CONTINUOUS
 10
-74.7324840306
 20
-56.6065462716
 11
-74.7324840306
 21
-51.1793248583
  0
LINE
  5
24C
100
AcDbEntity
  8
SMUSSO
100
AcDbLine
 62
7
  6
CONTINUOUS
 10
-74.7324840306
 20
31.6065295861
 11
-74.7324840306
 21
1.7170005528
  0
LINE
  5
24D
100
AcDbEntity
  8
SMUSSO
100
AcDbLine
 62
7
  6
CONTINUOUS
 10
-74.7324840306
 20
-1.6934704139
 11
-74.7324840306
 21
-31.5829994472
  0
LINE
  5
24E
100
AcDbEntity
  8
SMUSSO
100
AcDbLine
 62
7
  6
CONTINUOUS
 10
-74.7324840306
 20
-34.9934704139
 11
-74.7324840306
 21
-51.1793248583
  0
LINE
  5
24F
100
AcDbEntity
  8
DRAFT
100
AcDbLine
 62
7
  6
CONTINUOUS
 10
-74.7324840306
 20
51.2028549972
 11
-74.7324840306
 21
56.6300764105
  0
LINE
  5
250
100
AcDbEntity
  8
SMUSSO
100
AcDbLine
 62
7
  6
CONTINUOUS
 10
-74.7237578273
 20
35.0170005528
 11
-74.7237578273
 21
31.6065295861
  0
LINE
  5
251
100
AcDbEntity
  8
SMUSSO
100
AcDbLine
 62
7
  6
CONTINUOUS
 10
-74.7237578273
 20
1.7170005528
 11
-74.7237578273
 21
-1.6934704139
  0
LINE
  5
252
100
AcDbEntity
  8
SMUSSO
100
AcDbLine
 62
7
  6
CONTINUOUS
 10
-74.7237578273
 20
-31.5829994472
 11
-74.7237578273
 21
-34.9934704139
  0
LINE
  5
253
100
AcDbEntity
  8
RACCORDO
100
AcDbLine
 62
7
  6
CONTINUOUS
 10
-74.7045559267
 20
46.7966381102
 11
-74.7045559267
 21
35.3117650694
  0
LINE
  5
254
100
AcDbEntity
  8
RACCORDO
100
AcDbLine
 62
7
  6
CONTINUOUS
 10
-74.7045559267
 20
31.3117650694
 11
-74.7045559267
 21
19.8268920287
  0
LINE
  5
255
100
AcDbEntity
  8
RACCORDO
100
AcDbLine
 62
7
  6
CONTINUOUS
 10
-74.7045559267
 20
13.4966381102
 11
-74.7045559267
 21
2.0117650694
  0
LINE
  5
256
100
AcDbEntity
  8
RACCORDO
100
AcDbLine
 62
7
  6
CONTINUOUS
 10
-74.7045559267
 20
-1.9882349306
 11
-74.7045559267
 21
-13.4731079713
  0
LINE
  5
257
100
AcDbEntity
  8
RACCORDO
100
AcDbLine
 62
7
  6
CONTINUOUS
 10
-74.7045559267
 20
-19.8033618898
 11
-74.7045559267
 21
-31.2882349306
  0
LINE
  5
258
100
AcDbEntity
  8
RACCORDO
100
AcDbLine
 62
7
  6
CONTINUOUS
 10
-74.7045559267
 20
-35.2882349306
 11
-74.7045559267
 21
-46.7731079713
  0
LINE
  5
259
100
AcDbEntity
  8
RACCORDO
100
AcDbLine
 62
7
  6
CONTINUOUS
 10
-74.0117650694
 20
-50.833406792
 11
-74.0117650694
 21
-48.9399447233
  0
LINE
  5
25A
100
AcDbEntity
  8
RACCORDO
100
AcDbLine
 62
7
  6
CONTINUOUS
 10
-74.0117650694
 20
-17.6365251379
 11
-74.0117650694
 21
-15.6399447233
  0
LINE
  5
25B
100
AcDbEntity
  8
RACCORDO
100
AcDbLine
 62
7
  6
CONTINUOUS
 10
-74.0117650694
 20
15.6634748621
 11
-74.0117650694
 21
17.6600552767
  0
LINE
  5
25C
100
AcDbEntity
  8
RACCORDO
100
AcDbLine
 62
7
  6
CONTINUOUS
 10
-74.0117650694
 20
48.9634748621
 11
-74.0117650694
 21
50.8569369308
  0
LINE
  5
25D
100
AcDbEntity
  8
RACCORDO
100
AcDbLine
 62
7
  6
CONTINUOUS
 10
-73.8422757192
 20
-56.2378099157
 11
-73.8422757192
 21
-52.1432217865
  0
LINE
  5
25E
100
AcDbEntity
  8
RACCORDO
100
AcDbLine
 62
7
  6
CONTINUOUS
 10
-73.8422757192
 20
52.1667519253
 11
-73.8422757192
 21
56.2613400546
  0
LINE
  5
25F
100
AcDbEntity
  8
RACCORDO
100
AcDbLine
 62
253
  6
CONTINUOUS
 10
-73.8413618206
 20
52.1662950108
 11
-73.8413618206
 21
50.7751497634
  0
LINE
  5
260
100
AcDbEntity
  8
RACCORDO
100
AcDbLine
 62
253
  6
CONTINUOUS
 10
-73.8413618206
 20
49.133878111
 11
-73.8413618206
 21
17.4896520279
  0
LINE
  5
261
100
AcDbEntity
  8
RACCORDO
100
AcDbLine
 62
253
  6
CONTINUOUS
 10
-73.8413618206
 20
15.833878111
 11
-73.8413618206
 21
-15.8103479721
  0
LINE
  5
262
100
AcDbEntity
  8
RACCORDO
100
AcDbLine
 62
253
  6
CONTINUOUS
 10
-73.8413618206
 20
-17.466121889
 11
-73.8413618206
 21
-49.1103479721
  0
LINE
  5
263
100
AcDbEntity
  8
RACCORDO
100
AcDbLine
 62
253
  6
CONTINUOUS
 10
-73.8413618206
 20
-50.7516196246
 11
-73.8413618206
 21
-52.142764872
  0
LINE
  5
264
100
AcDbEntity
  8
RACCORDO
100
AcDbLine
 62
7
  6
CONTINUOUS
 10
-73.3473126984
 20
-50.7382349306
 11
-73.3473126984
 21
-49.1382349306
  0
LINE
  5
265
100
AcDbEntity
  8
RACCORDO
100
AcDbLine
 62
7
  6
CONTINUOUS
 10
-73.3473126984
 20
-17.4382349306
 11
-73.3473126984
 21
-15.8382349306
  0
LINE
  5
266
100
AcDbEntity
  8
RACCORDO
100
AcDbLine
 62
7
  6
CONTINUOUS
 10
-73.3473126984
 20
15.8617650694
 11
-73.3473126984
 21
17.4617650694
  0
LINE
  5
267
100
AcDbEntity
  8
RACCORDO
100
AcDbLine
 62
7
  6
CONTINUOUS
 10
-73.3473126984
 20
49.1617650694
 11
-73.3473126984
 21
50.7617650694
  0
LINE
  5
268
100
AcDbEntity
  8
DRAFT
100
AcDbLine
 62
7
  6
CONTINUOUS
 10
-73.0568353267
 20
55.9359999916
 11
-73.0568353267
 21
52.6666948121
  0
LINE
  5
269
100
AcDbEntity
  8
DRAFT
100
AcDbLine
 62
7
  6
CONTINUOUS
 10
-73.0568353267
 20
-52.6431646733
 11
-73.0568353267
 21
-55.9124698527
  0
LINE
  5
26A
100
AcDbEntity
  8
DRAFT
100
AcDbLine
 62
7
  6
CONTINUOUS
 10
-72.6117650694
 20
55.7516458548
 11
-72.6117650694
 21
53.1117650694
  0
LINE
  5
26B
100
AcDbEntity
  8
DRAFT
100
AcDbLine
 62
7
  6
CONTINUOUS
 10
-72.6117650694
 20
-53.0882349306
 11
-72.6117650694
 21
-55.7281157159
  0
LINE
  5
26C
100
AcDbEntity
  8
RACCORDO
100
AcDbLine
 62
253
  6
CONTINUOUS
 10
-70.8418187351
 20
-52.6213094261
 11
-70.8418187351
 21
52.644839565
  0
LINE
  5
26D
100
AcDbEntity
  8
DRAFT
100
AcDbLine
 62
7
  6
CONTINUOUS
 10
-69.9392433419
 20
-58.4006374435
 11
-69.9392433419
 21
-59.0300618376
  0
LINE
  5
26E
100
AcDbEntity
  8
DRAFT
100
AcDbLine
 62
7
  6
CONTINUOUS
 10
-69.9392433419
 20
58.4241675823
 11
-69.9392433419
 21
59.0535919765
  0
LINE
  5
26F
100
AcDbEntity
  8
SMUSSO
100
AcDbLine
 62
7
  6
CONTINUOUS
 10
-74.7045559267
 20
35.3117650694
 11
-74.7237578273
 21
35.0170005528
  0
LINE
  5
270
100
AcDbEntity
  8
SMUSSO
100
AcDbLine
 62
7
  6
CONTINUOUS
 10
-74.7045559267
 20
2.0117650694
 11
-74.7237578273
 21
1.7170005528
  0
LINE
  5
271
100
AcDbEntity
  8
SMUSSO
100
AcDbLine
 62
7
  6
CONTINUOUS
 10
-74.7045559267
 20
-31.2882349306
 11
-74.7237578273
 21
-31.5829994472
  0
LINE
  5
272
100
AcDbEntity
  8
0
100
AcDbLine
 62
7
  6
CONTINUOUS
 10
79.4882349306
 20
-76.4882349306
 11
-79.5117650694
 21
-76.4882349306
  0
LINE
  5
273
100
AcDbEntity
  8
0
100
AcDbLine
 62
7
  6
CONTINUOUS
 10
-79.5117650694
 20
-73.4882349306
 11
79.4882349306
 21
-73.4882349306
  0
LINE
  5
274
100
AcDbEntity
  8
DRAFT
100
AcDbLine
 62
7
  6
CONTINUOUS
 10
-8.1000031953
 20
-71.4882349306
 11
8.0764730565
 21
-71.4882349306
  0
LINE
  5
275
100
AcDbEntity
  8
RACCORDO
100
AcDbLine
 62
7
  6
CONTINUOUS
 10
61.4882349306
 20
-70.4882349306
 11
-61.5117650694
 21
-70.4882349306
  0
LINE
  5
276
100
AcDbEntity
  8
RACCORDO
100
AcDbLine
 62
253
  6
CONTINUOUS
 10
-61.5117650694
 20
-70.4355651029
 11
61.4882349306
 21
-70.4355651029
  0
LINE
  5
277
100
AcDbEntity
  8
DRAFT
100
AcDbLine
 62
7
  6
CONTINUOUS
 10
-66.1117650694
 20
-59.5882349306
 11
-66.1117650694
 21
-57.8440536726
  0
LINE
  5
278
100
AcDbEntity
  8
DRAFT
100
AcDbLine
 62
7
  6
CONTINUOUS
 10
-66.1117650694
 20
57.8675838114
 11
-66.1117650694
 21
59.6117650694
  0
LINE
  5
279
100
AcDbEntity
  8
RACCORDO
100
AcDbLine
 62
7
  6
CONTINUOUS
 10
-65.6666948121
 20
-60.3187455775
 11
-65.6666948121
 21
-60.0333051879
  0
LINE
  5
27A
100
AcDbEntity
  8
RACCORDO
100
AcDbLine
 62
7
  6
CONTINUOUS
 10
-65.6666948121
 20
60.0568353267
 11
-65.6666948121
 21
60.3422757163
  0
LINE
  5
27B
100
AcDbEntity
  8
RACCORDO
100
AcDbLine
 62
7
  6
CONTINUOUS
 10
-65.644839565
 20
57.8418187351
 11
-65.644839565
 21
57.6741769349
  0
LINE
  5
27C
100
AcDbEntity
  8
RACCORDO
100
AcDbLine
 62
7
  6
CONTINUOUS
 10
-65.644839565
 20
-57.650646796
 11
-65.644839565
 21
-57.8182885963
  0
LINE
  5
27D
100
AcDbEntity
  8
RACCORDO
100
AcDbLine
 62
253
  6
CONTINUOUS
 10
-65.1448586034
 20
57.8418187351
 11
-65.1448586034
 21
57.4670780397
  0
LINE
  5
27E
100
AcDbEntity
  8
RACCORDO
100
AcDbLine
 62
253
  6
CONTINUOUS
 10
-65.1448586034
 20
-57.4435479008
 11
-65.1448586034
 21
-57.8182885963
  0
LINE
  5
27F
100
AcDbEntity
  8
RACCORDO
100
AcDbLine
 62
7
  6
CONTINUOUS
 10
-73.8413618206
 20
15.833878111
 11
-74.6788302786
 21
14.9964096529
  0
LINE
  5
280
100
AcDbEntity
  8
SMUSSO
100
AcDbLine
 62
7
  6
CONTINUOUS
 10
43.9882349306
 20
-61.6810257878
 11
43.6934704139
 21
-61.7002276885
  0
LINE
  5
281
100
AcDbEntity
  8
RACCORDO
100
AcDbLine
 62
253
  6
CONTINUOUS
 10
-61.5117650694
 20
-69.4357174078
 11
61.4882349306
 21
-69.4357174078
  0
LINE
  5
282
100
AcDbEntity
  8
DRAFT
100
AcDbLine
 62
7
  6
CONTINUOUS
 10
13.5378423591
 20
-68.9882349306
 11
-13.5613724979
 21
-68.9882349306
  0
LINE
  5
283
100
AcDbEntity
  8
RACCORDO
100
AcDbLine
 62
7
  6
CONTINUOUS
 10
13.3929653202
 20
-68.8433578917
 11
-13.416495459
 21
-68.8433578917
  0
LINE
  5
284
100
AcDbEntity
  8
DRAFT
100
AcDbLine
 62
7
  6
CONTINUOUS
 10
13.2882349306
 20
-68.3184259105
 11
9.2301891881
 21
-68.3184259105
  0
LINE
  5
285
100
AcDbEntity
  8
DRAFT
100
AcDbLine
 62
7
  6
CONTINUOUS
 10
-9.2537193269
 20
-68.3184259105
 11
-13.3117650694
 21
-68.3184259105
  0
LINE
  5
286
100
AcDbEntity
  8
DRAFT
100
AcDbLine
 62
7
  6
CONTINUOUS
 10
12.8429653202
 20
-64.2627743402
 11
10.7063256402
 21
-64.2627743402
  0
LINE
  5
287
100
AcDbEntity
  8
DRAFT
100
AcDbLine
 62
7
  6
CONTINUOUS
 10
-10.729855779
 20
-64.2627743402
 11
-12.866495459
 21
-64.2627743402
  0
LINE
  5
288
100
AcDbEntity
  8
DRAFT
100
AcDbLine
 62
7
  6
CONTINUOUS
 10
13.2882349306
 20
-64.1580439506
 11
12.8429653202
 21
-64.1580439506
  0
LINE
  5
289
100
AcDbEntity
  8
DRAFT
100
AcDbLine
 62
7
  6
CONTINUOUS
 10
-12.866495459
 20
-64.1580439506
 11
-13.3117650694
 21
-64.1580439506
  0
LINE
  5
28A
100
AcDbEntity
  8
RACCORDO
100
AcDbLine
 62
7
  6
CONTINUOUS
 10
-13.416495459
 20
-63.6331119695
 11
13.3929653202
 21
-63.6331119695
  0
LINE
  5
28B
100
AcDbEntity
  8
DRAFT
100
AcDbLine
 62
7
  6
CONTINUOUS
 10
13.5378423591
 20
-63.4882349306
 11
-13.5613724979
 21
-63.4882349306
  0
LINE
  5
28C
100
AcDbEntity
  8
SMUSSO
100
AcDbLine
 62
7
  6
CONTINUOUS
 10
-43.5830463615
 20
-62.2089538917
 11
-40.4404837773
 21
-62.2089538917
  0
LINE
  5
28D
100
AcDbEntity
  8
SMUSSO
100
AcDbLine
 62
7
  6
CONTINUOUS
 10
-1.5830463615
 20
-62.2089538917
 11
1.5595162227
 21
-62.2089538917
  0
LINE
  5
28E
100
AcDbEntity
  8
SMUSSO
100
AcDbLine
 62
7
  6
CONTINUOUS
 10
40.4169536385
 20
-62.2089538917
 11
43.5595162227
 21
-62.2089538917
  0
LINE
  5
28F
100
AcDbEntity
  8
SMUSSO
100
AcDbLine
 62
7
  6
CONTINUOUS
 10
-44.0117650694
 20
-61.6810257878
 11
-43.7170005528
 21
-61.7002276885
  0
LINE
  5
290
100
AcDbEntity
  8
RACCORDO
100
AcDbLine
 62
7
  6
CONTINUOUS
 10
-73.8413618206
 20
-15.8103479721
 11
-74.6788302786
 21
-14.9728795141
  0
LINE
  5
291
100
AcDbEntity
  8
RACCORDO
100
AcDbLine
 62
253
  6
CONTINUOUS
 10
-61.5117650694
 20
-69.4357174078
 11
-61.5117650694
 21
-70.4882349306
  0
LINE
  5
292
100
AcDbEntity
  8
RACCORDO
100
AcDbLine
 62
253
  6
CONTINUOUS
 10
-61.5117650694
 20
69.4592475466
 11
-61.5117650694
 21
70.5117650694
  0
LINE
  5
293
100
AcDbEntity
  8
SMUSSO
100
AcDbLine
 62
7
  6
CONTINUOUS
 10
-43.7170005528
 20
61.7237578273
 11
-43.5830463615
 21
62.2324840306
  0
LINE
  5
294
100
AcDbEntity
  8
RACCORDO
100
AcDbLine
 62
7
  6
CONTINUOUS
 10
-20.183878111
 20
60.8413618206
 11
-19.3464096529
 21
61.6788302786
  0
LINE
  5
295
100
AcDbEntity
  8
DRAFT
100
AcDbLine
 62
7
  6
CONTINUOUS
 10
-13.416495459
 20
63.6566421083
 11
-13.5613724979
 21
63.5117650694
  0
LINE
  5
296
100
AcDbEntity
  8
SMUSSO
100
AcDbLine
 62
7
  6
CONTINUOUS
 10
1.9882349306
 20
-61.6810257878
 11
1.6934704139
 21
-61.7002276885
  0
LINE
  5
297
100
AcDbEntity
  8
SMUSSO
100
AcDbLine
 62
7
  6
CONTINUOUS
 10
-40.0117650694
 20
-61.6810257878
 11
-40.3065295861
 21
-61.7002276885
  0
LINE
  5
298
100
AcDbEntity
  8
DRAFT
100
AcDbLine
 62
7
  6
CONTINUOUS
 10
69.6065462716
 20
-61.7089538917
 11
64.2293248583
 21
-61.7089538917
  0
LINE
  5
299
100
AcDbEntity
  8
SMUSSO
100
AcDbLine
 62
7
  6
CONTINUOUS
 10
-64.2528549972
 20
-61.7089538917
 11
-43.7170005528
 21
-61.7089538917
  0
LINE
  5
29A
100
AcDbEntity
  8
SMUSSO
100
AcDbLine
 62
7
  6
CONTINUOUS
 10
-40.3065295861
 20
-61.7089538917
 11
-1.7170005528
 21
-61.7089538917
  0
LINE
  5
29B
100
AcDbEntity
  8
SMUSSO
100
AcDbLine
 62
7
  6
CONTINUOUS
 10
1.6934704139
 20
-61.7089538917
 11
40.2829994472
 21
-61.7089538917
  0
LINE
  5
29C
100
AcDbEntity
  8
SMUSSO
100
AcDbLine
 62
7
  6
CONTINUOUS
 10
43.6934704139
 20
-61.7089538917
 11
64.2293248583
 21
-61.7089538917
  0
LINE
  5
29D
100
AcDbEntity
  8
DRAFT
100
AcDbLine
 62
7
  6
CONTINUOUS
 10
-64.2528549972
 20
-61.7089538917
 11
-69.6300764105
 21
-61.7089538917
  0
LINE
  5
29E
100
AcDbEntity
  8
SMUSSO
100
AcDbLine
 62
7
  6
CONTINUOUS
 10
-43.7170005528
 20
-61.7002276885
 11
-40.3065295861
 21
-61.7002276885
  0
LINE
  5
29F
100
AcDbEntity
  8
SMUSSO
100
AcDbLine
 62
7
  6
CONTINUOUS
 10
-1.7170005528
 20
-61.7002276885
 11
1.6934704139
 21
-61.7002276885
  0
LINE
  5
2A0
100
AcDbEntity
  8
SMUSSO
100
AcDbLine
 62
7
  6
CONTINUOUS
 10
40.2829994472
 20
-61.7002276885
 11
43.6934704139
 21
-61.7002276885
  0
LINE
  5
2A1
100
AcDbEntity
  8
RACCORDO
100
AcDbLine
 62
7
  6
CONTINUOUS
 10
59.8231079713
 20
-61.6810257878
 11
43.9882349306
 21
-61.6810257878
  0
LINE
  5
2A2
100
AcDbEntity
  8
RACCORDO
100
AcDbLine
 62
7
  6
CONTINUOUS
 10
39.9882349306
 20
-61.6810257878
 11
24.1533618898
 21
-61.6810257878
  0
LINE
  5
2A3
100
AcDbEntity
  8
RACCORDO
100
AcDbLine
 62
7
  6
CONTINUOUS
 10
17.8231079713
 20
-61.6810257878
 11
1.9882349306
 21
-61.6810257878
  0
LINE
  5
2A4
100
AcDbEntity
  8
RACCORDO
100
AcDbLine
 62
7
  6
CONTINUOUS
 10
-2.0117650694
 20
-61.6810257878
 11
-17.8466381102
 21
-61.6810257878
  0
LINE
  5
2A5
100
AcDbEntity
  8
RACCORDO
100
AcDbLine
 62
7
  6
CONTINUOUS
 10
-24.1768920287
 20
-61.6810257878
 11
-40.0117650694
 21
-61.6810257878
  0
LINE
  5
2A6
100
AcDbEntity
  8
RACCORDO
100
AcDbLine
 62
7
  6
CONTINUOUS
 10
-44.0117650694
 20
-61.6810257878
 11
-59.8466381102
 21
-61.6810257878
  0
LINE
  5
2A7
100
AcDbEntity
  8
RACCORDO
100
AcDbLine
 62
7
  6
CONTINUOUS
 10
69.2378099157
 20
-60.8187455804
 11
65.1432217865
 21
-60.8187455804
  0
LINE
  5
2A8
100
AcDbEntity
  8
RACCORDO
100
AcDbLine
 62
7
  6
CONTINUOUS
 10
-65.1667519253
 20
-60.8187455804
 11
-69.2613400546
 21
-60.8187455804
  0
LINE
  5
2A9
100
AcDbEntity
  8
RACCORDO
100
AcDbLine
 62
253
  6
CONTINUOUS
 10
-65.1662950108
 20
-60.8178316817
 11
-63.8251497634
 21
-60.8178316817
  0
LINE
  5
2AA
100
AcDbEntity
  8
RACCORDO
100
AcDbLine
 62
253
  6
CONTINUOUS
 10
-62.183878111
 20
-60.8178316817
 11
-21.8396520279
 21
-60.8178316817
  0
LINE
  5
2AB
100
AcDbEntity
  8
RACCORDO
100
AcDbLine
 62
253
  6
CONTINUOUS
 10
-20.183878111
 20
-60.8178316817
 11
20.1603479721
 21
-60.8178316817
  0
LINE
  5
2AC
100
AcDbEntity
  8
RACCORDO
100
AcDbLine
 62
253
  6
CONTINUOUS
 10
21.816121889
 20
-60.8178316817
 11
62.1603479721
 21
-60.8178316817
  0
LINE
  5
2AD
100
AcDbEntity
  8
RACCORDO
100
AcDbLine
 62
253
  6
CONTINUOUS
 10
63.8016196246
 20
-60.8178316817
 11
65.142764872
 21
-60.8178316817
  0
LINE
  5
2AE
100
AcDbEntity
  8
RACCORDO
100
AcDbLine
 62
7
  6
CONTINUOUS
 10
63.7882349306
 20
-60.3237825595
 11
62.1882349306
 21
-60.3237825595
  0
LINE
  5
2AF
100
AcDbEntity
  8
RACCORDO
100
AcDbLine
 62
7
  6
CONTINUOUS
 10
21.7882349306
 20
-60.3237825595
 11
20.1882349306
 21
-60.3237825595
  0
LINE
  5
2B0
100
AcDbEntity
  8
RACCORDO
100
AcDbLine
 62
7
  6
CONTINUOUS
 10
-20.2117650694
 20
-60.3237825595
 11
-21.8117650694
 21
-60.3237825595
  0
LINE
  5
2B1
100
AcDbEntity
  8
RACCORDO
100
AcDbLine
 62
7
  6
CONTINUOUS
 10
-62.2117650694
 20
-60.3237825595
 11
-63.8117650694
 21
-60.3237825595
  0
LINE
  5
2B2
100
AcDbEntity
  8
DRAFT
100
AcDbLine
 62
7
  6
CONTINUOUS
 10
-68.9359999916
 20
-60.0333051879
 11
-65.6666948121
 21
-60.0333051879
  0
LINE
  5
2B3
100
AcDbEntity
  8
DRAFT
100
AcDbLine
 62
7
  6
CONTINUOUS
 10
65.6431646733
 20
-60.0333051879
 11
68.9124698527
 21
-60.0333051879
  0
LINE
  5
2B4
100
AcDbEntity
  8
DRAFT
100
AcDbLine
 62
7
  6
CONTINUOUS
 10
-68.7516458548
 20
-59.5882349306
 11
-66.1117650694
 21
-59.5882349306
  0
LINE
  5
2B5
100
AcDbEntity
  8
DRAFT
100
AcDbLine
 62
7
  6
CONTINUOUS
 10
66.0882349306
 20
-59.5882349306
 11
68.7281157159
 21
-59.5882349306
  0
LINE
  5
2B6
100
AcDbEntity
  8
RACCORDO
100
AcDbLine
 62
253
  6
CONTINUOUS
 10
65.6213094261
 20
-57.8182885963
 11
-65.644839565
 21
-57.8182885963
  0
LINE
  5
2B7
100
AcDbEntity
  8
DRAFT
100
AcDbLine
 62
7
  6
CONTINUOUS
 10
71.4006374435
 20
-56.915713203
 11
72.0300618376
 21
-56.915713203
  0
LINE
  5
2B8
100
AcDbEntity
  8
DRAFT
100
AcDbLine
 62
7
  6
CONTINUOUS
 10
-71.4241675823
 20
-56.915713203
 11
-72.0535919765
 21
-56.915713203
  0
LINE
  5
2B9
100
AcDbEntity
  8
SMUSSO
100
AcDbLine
 62
7
  6
CONTINUOUS
 10
-2.0117650694
 20
-61.6810257878
 11
-1.7170005528
 21
-61.7002276885
  0
LINE
  5
2BA
100
AcDbEntity
  8
SMUSSO
100
AcDbLine
 62
7
  6
CONTINUOUS
 10
39.9882349306
 20
-61.6810257878
 11
40.2829994472
 21
-61.7002276885
  0
LINE
  5
2BB
100
AcDbEntity
  8
RACCORDO
100
AcDbLine
 62
7
  6
CONTINUOUS
 10
-20.183878111
 20
-60.8178316817
 11
-19.3464096529
 21
-61.6553001398
  0
LINE
  5
2BC
100
AcDbEntity
  8
DRAFT
100
AcDbLine
 62
7
  6
CONTINUOUS
 10
-13.5613724979
 20
-63.4882349306
 11
-13.416495459
 21
-63.6331119695
  0
LINE
  5
2BD
100
AcDbEntity
  8
SMUSSO
100
AcDbLine
 62
7
  6
CONTINUOUS
 10
-43.5830463615
 20
-62.2089538917
 11
-43.7170005528
 21
-61.7002276885
  0
LINE
  5
2BE
100
AcDbEntity
  8
DRAFT
100
AcDbLine
 62
7
  6
CONTINUOUS
 10
-37.0117650694
 20
49.9873602989
 11
-37.2843128163
 21
48.97019826
  0
LINE
  5
2BF
100
AcDbEntity
  8
DRAFT
100
AcDbLine
 62
7
  6
CONTINUOUS
 10
-36.7560401097
 20
50.1923361895
 11
-37.1330772373
 21
48.7852144729
  0
LINE
  5
2C0
100
AcDbEntity
  8
DRAFT
100
AcDbLine
 62
7
  6
CONTINUOUS
 10
-36.7617650694
 20
45.9947108013
 11
-37.0341899637
 21
44.9780072548
  0
LINE
  5
2C1
100
AcDbEntity
  8
DRAFT
100
AcDbLine
 62
7
  6
CONTINUOUS
 10
-36.5063860456
 20
46.1983956414
 11
-36.8829629206
 21
44.7929916111
  0
LINE
  5
2C2
100
AcDbEntity
  8
DRAFT
100
AcDbLine
 62
7
  6
CONTINUOUS
 10
-36.5117650694
 20
42.5021461262
 11
-36.7837982388
 21
41.4869045169
  0
LINE
  5
2C3
100
AcDbEntity
  8
DRAFT
100
AcDbLine
 62
7
  6
CONTINUOUS
 10
-36.3147986626
 20
42.6581508963
 11
-36.6669889749
 21
41.343758757
  0
LINE
  5
2C4
100
AcDbEntity
  8
DRAFT
100
AcDbLine
 62
7
  6
CONTINUOUS
 10
-72.6089822042
 20
-57.4711034308
 11
-72.9237423408
 21
-58.4152879614
  0
LINE
  5
2C5
100
AcDbEntity
  8
SMUSSO
100
AcDbLine
 62
7
  6
CONTINUOUS
 10
75.2089538917
 20
-34.8595162227
 11
74.7002276885
 21
-34.9934704139
  0
LINE
  5
2C6
100
AcDbEntity
  8
DRAFT
100
AcDbLine
 62
7
  6
CONTINUOUS
 10
72.5882349306
 20
-53.0882349306
 11
70.8440536726
 21
-53.0882349306
  0
LINE
  5
2C7
100
AcDbEntity
  8
DRAFT
100
AcDbLine
 62
7
  6
CONTINUOUS
 10
-70.8675838114
 20
-53.0882349306
 11
-72.6117650694
 21
-53.0882349306
  0
LINE
  5
2C8
100
AcDbEntity
  8
RACCORDO
100
AcDbLine
 62
7
  6
CONTINUOUS
 10
73.3187455775
 20
-52.6431646733
 11
73.0333051879
 21
-52.6431646733
  0
LINE
  5
2C9
100
AcDbEntity
  8
RACCORDO
100
AcDbLine
 62
7
  6
CONTINUOUS
 10
-73.0568353267
 20
-52.6431646733
 11
-73.3422757163
 21
-52.6431646733
  0
LINE
  5
2CA
100
AcDbEntity
  8
RACCORDO
100
AcDbLine
 62
7
  6
CONTINUOUS
 10
-70.8418187351
 20
-52.6213094261
 11
-70.6741769349
 21
-52.6213094261
  0
LINE
  5
2CB
100
AcDbEntity
  8
RACCORDO
100
AcDbLine
 62
7
  6
CONTINUOUS
 10
70.650646796
 20
-52.6213094261
 11
70.8182885963
 21
-52.6213094261
  0
LINE
  5
2CC
100
AcDbEntity
  8
RACCORDO
100
AcDbLine
 62
253
  6
CONTINUOUS
 10
-70.8418187351
 20
-52.1213284646
 11
-70.4670780397
 21
-52.1213284646
  0
LINE
  5
2CD
100
AcDbEntity
  8
RACCORDO
100
AcDbLine
 62
253
  6
CONTINUOUS
 10
70.4435479008
 20
-52.1213284646
 11
70.8182885963
 21
-52.1213284646
  0
LINE
  5
2CE
100
AcDbEntity
  8
RACCORDO
100
AcDbLine
 62
253
  6
CONTINUOUS
 10
82.4357174078
 20
-48.4882349306
 11
83.4882349306
 21
-48.4882349306
  0
LINE
  5
2CF
100
AcDbEntity
  8
RACCORDO
100
AcDbLine
 62
253
  6
CONTINUOUS
 10
-82.4592475466
 20
-48.4882349306
 11
-83.5117650694
 21
-48.4882349306
  0
LINE
  5
2D0
100
AcDbEntity
  8
SMUSSO
100
AcDbLine
 62
7
  6
CONTINUOUS
 10
-74.7237578273
 20
-34.9934704139
 11
-75.2324840306
 21
-34.8595162227
  0
LINE
  5
2D1
100
AcDbEntity
  8
DRAFT
100
AcDbLine
 62
7
  6
CONTINUOUS
 10
-72.6089822042
 20
57.4946335696
 11
-72.9237423408
 21
58.4388181003
  0
LINE
  5
2D2
100
AcDbEntity
  8
DRAFT
100
AcDbLine
 62
7
  6
CONTINUOUS
 10
-37.2856371615
 20
-44.9357994601
 11
-37.0117650694
 21
-45.9579040226
  0
LINE
  5
2D3
100
AcDbEntity
  8
DRAFT
100
AcDbLine
 62
7
  6
CONTINUOUS
 10
-37.1337910576
 20
-44.753094183
 11
-36.755303759
 21
-46.1656280115
  0
LINE
  5
2D4
100
AcDbEntity
  8
DRAFT
100
AcDbLine
 62
7
  6
CONTINUOUS
 10
-37.0353766423
 20
-41.9462532059
 11
-36.7617650694
 21
-42.9673854973
  0
LINE
  5
2D5
100
AcDbEntity
  8
DRAFT
100
AcDbLine
 62
7
  6
CONTINUOUS
 10
-36.8835823391
 20
-41.7633546056
 11
-36.5057938835
 21
-43.1732803165
  0
LINE
  5
2D6
100
AcDbEntity
  8
DRAFT
100
AcDbLine
 62
7
  6
CONTINUOUS
 10
-35.7087314762
 20
16.3653792425
 11
-35.3565411639
 21
17.6797713819
  0
LINE
  5
2D7
100
AcDbEntity
  8
DRAFT
100
AcDbLine
 62
7
  6
CONTINUOUS
 10
-35.5117650694
 20
16.5213840127
 11
-35.2397319001
 21
17.536625622
  0
LINE
  5
2D8
100
AcDbEntity
  8
RACCORDO
100
AcDbLine
 62
7
  6
CONTINUOUS
 10
-70.8675838114
 20
-53.0882349306
 11
-70.6741769349
 21
-52.6213094261
  0
LINE
  5
2D9
100
AcDbEntity
  8
DRAFT
100
AcDbLine
 62
7
  6
CONTINUOUS
 10
-69.6300764105
 20
-61.7089538917
 11
-69.2613400546
 21
-60.8187455804
  0
LINE
  5
2DA
100
AcDbEntity
  8
DRAFT
100
AcDbLine
 62
7
  6
CONTINUOUS
 10
-68.7516458548
 20
-59.5882349306
 11
-68.9359999916
 21
-60.0333051879
  0
LINE
  5
2DB
100
AcDbEntity
  8
RACCORDO
100
AcDbLine
 62
7
  6
CONTINUOUS
 10
-73.8413618206
 20
-17.466121889
 11
-74.6788302786
 21
-18.3035903471
  0
LINE
  5
2DC
100
AcDbEntity
  8
DRAFT
100
AcDbLine
 62
7
  6
CONTINUOUS
 10
13.5378423591
 20
69.0117650694
 11
13.3929653202
 21
68.8668880305
  0
LINE
  5
2DD
100
AcDbEntity
  8
DRAFT
100
AcDbLine
 62
7
  6
CONTINUOUS
 10
55.4466681212
 20
-30.7607826775
 11
56.46383016
 21
-30.4882349306
  0
LINE
  5
2DE
100
AcDbEntity
  8
DRAFT
100
AcDbLine
 62
7
  6
CONTINUOUS
 10
55.261684334
 20
-30.6095470984
 11
56.6688060506
 21
-30.2325099708
  0
LINE
  5
2DF
100
AcDbEntity
  8
DRAFT
100
AcDbLine
 62
7
  6
CONTINUOUS
 10
51.4544771159
 20
-30.5106598248
 11
52.4711806625
 21
-30.2382349306
  0
LINE
  5
2E0
100
AcDbEntity
  8
DRAFT
100
AcDbLine
 62
7
  6
CONTINUOUS
 10
51.2694614723
 20
-30.3594327817
 11
52.6748655026
 21
-29.9828559068
  0
LINE
  5
2E1
100
AcDbEntity
  8
DRAFT
100
AcDbLine
 62
7
  6
CONTINUOUS
 10
47.963374378
 20
-30.2602680999
 11
48.9786159873
 21
-29.9882349306
  0
LINE
  5
2E2
100
AcDbEntity
  8
DRAFT
100
AcDbLine
 62
7
  6
CONTINUOUS
 10
47.8202286181
 20
-30.1434588361
 11
49.1346207575
 21
-29.7912685238
  0
LINE
  5
2E3
100
AcDbEntity
  8
DRAFT
100
AcDbLine
 62
7
  6
CONTINUOUS
 10
3.4882349306
 20
-39.2382349306
 11
0.9882349306
 21
-39.2382349306
  0
LINE
  5
2E4
100
AcDbEntity
  8
DRAFT
100
AcDbLine
 62
7
  6
CONTINUOUS
 10
-1.0117650694
 20
-39.2382349306
 11
-3.5117650694
 21
-39.2382349306
  0
LINE
  5
2E5
100
AcDbEntity
  8
DRAFT
100
AcDbLine
 62
7
  6
CONTINUOUS
 10
-2.7408206284
 20
-39.1710329306
 11
-1.0789670694
 21
-39.1710329306
  0
LINE
  5
2E6
100
AcDbEntity
  8
DRAFT
100
AcDbLine
 62
7
  6
CONTINUOUS
 10
2.7172904896
 20
-39.1710329306
 11
1.0554369306
 21
-39.1710329306
  0
LINE
  5
2E7
100
AcDbEntity
  8
DRAFT
100
AcDbLine
 62
7
  6
CONTINUOUS
 10
-52.4814341614
 20
-30.4882349306
 11
-51.4593295989
 21
-30.7621070227
  0
LINE
  5
2E8
100
AcDbEntity
  8
DRAFT
100
AcDbLine
 62
7
  6
CONTINUOUS
 10
-52.6891581503
 20
-30.2317736201
 11
-51.2766243219
 21
-30.6102609187
  0
LINE
  5
2E9
100
AcDbEntity
  8
DRAFT
100
AcDbLine
 62
7
  6
CONTINUOUS
 10
-49.4909156361
 20
-30.2382349306
 11
-48.4697833447
 21
-30.5118465034
  0
LINE
  5
2EA
100
AcDbEntity
  8
DRAFT
100
AcDbLine
 62
7
  6
CONTINUOUS
 10
-49.6968104553
 20
-29.9822637446
 11
-48.2868847444
 21
-30.3600522003
  0
LINE
  5
2EB
100
AcDbEntity
  8
DRAFT
100
AcDbLine
 62
7
  6
CONTINUOUS
 10
-46.4998535511
 20
-29.9882349306
 11
-45.4802474014
 21
-30.261437575
  0
LINE
  5
2EC
100
AcDbEntity
  8
DRAFT
100
AcDbLine
 62
7
  6
CONTINUOUS
 10
-46.6573421534
 20
-29.7908709322
 11
-45.3388517411
 21
-30.1441593733
  0
LINE
  5
2ED
100
AcDbEntity
  8
RACCORDO
100
AcDbLine
 62
7
  6
CONTINUOUS
 10
-73.8413618206
 20
17.4896520279
 11
-74.6788302786
 21
18.3271204859
  0
LINE
  5
2EE
100
AcDbEntity
  8
DRAFT
100
AcDbLine
 62
7
  6
CONTINUOUS
 10
13.3929653202
 20
-68.8433578917
 11
13.5378423591
 21
-68.9882349306
  0
LINE
  5
2EF
100
AcDbEntity
  8
RACCORDO
100
AcDbLine
 62
7
  6
CONTINUOUS
 10
-70.8675838114
 20
53.1117650694
 11
-70.6741769349
 21
52.644839565
  0
LINE
  5
2F0
100
AcDbEntity
  8
DRAFT
100
AcDbLine
 62
7
  6
CONTINUOUS
 10
-69.6300764105
 20
61.7324840306
 11
-69.2613400546
 21
60.8422757192
  0
LINE
  5
2F1
100
AcDbEntity
  8
DRAFT
100
AcDbLine
 62
7
  6
CONTINUOUS
 10
-68.7516458548
 20
59.6117650694
 11
-68.9359999916
 21
60.0568353267
  0
LINE
  5
2F2
100
AcDbEntity
  8
DRAFT
100
AcDbLine
 62
7
  6
CONTINUOUS
 10
-36.7849677138
 20
-38.9567172625
 11
-36.5117650694
 21
-39.9763234123
  0
LINE
  5
2F3
100
AcDbEntity
  8
DRAFT
100
AcDbLine
 62
7
  6
CONTINUOUS
 10
-36.6676895122
 20
-38.8153216023
 11
-36.314401071
 21
-40.1338120146
  0
LINE
  5
2F4
100
AcDbEntity
  8
DRAFT
100
AcDbLine
 62
7
  6
CONTINUOUS
 10
-35.3558406267
 20
-20.1611482589
 11
-35.7091290678
 21
-18.8426578466
  0
LINE
  5
2F5
100
AcDbEntity
  8
DRAFT
100
AcDbLine
 62
7
  6
CONTINUOUS
 10
-35.238562425
 20
-20.0197525986
 11
-35.5117650694
 21
-19.0001464489
  0
LINE
  5
2F6
100
AcDbEntity
  8
DRAFT
100
AcDbLine
 62
7
  6
CONTINUOUS
 10
-35.1399477997
 20
-17.2131152556
 11
-35.5177362554
 21
-15.8031895447
  0
LINE
  5
2F7
100
AcDbEntity
  8
DRAFT
100
AcDbLine
 62
7
  6
CONTINUOUS
 10
-34.9881534966
 20
-17.0302166553
 11
-35.2617650694
 21
-16.0090843639
  0
LINE
  5
2F8
100
AcDbEntity
  8
DRAFT
100
AcDbLine
 62
7
  6
CONTINUOUS
 10
-35.5171440932
 20
12.8251344974
 11
-35.1405672183
 21
14.2305385277
  0
LINE
  5
2F9
100
AcDbEntity
  8
DRAFT
100
AcDbLine
 62
7
  6
CONTINUOUS
 10
-35.2617650694
 20
13.0288193375
 11
-34.9893401752
 21
14.0455228841
  0
LINE
  5
2FA
100
AcDbEntity
  8
DRAFT
100
AcDbLine
 62
7
  6
CONTINUOUS
 10
-35.2674900292
 20
8.8311939494
 11
-34.8904529016
 21
10.238315666
  0
LINE
  5
2FB
100
AcDbEntity
  8
DRAFT
100
AcDbLine
 62
7
  6
CONTINUOUS
 10
-35.0117650694
 20
9.03616984
 11
-34.7392173225
 21
10.0533318788
  0
LINE
  5
2FC
100
AcDbEntity
  8
DRAFT
100
AcDbLine
 62
7
  6
CONTINUOUS
 10
-37.0117650694
 20
-13.0185658386
 11
-37.2856371615
 21
-14.0406704011
  0
LINE
  5
2FD
100
AcDbEntity
  8
DRAFT
100
AcDbLine
 62
7
  6
CONTINUOUS
 10
-36.755303759
 20
-12.8108418497
 11
-37.1337910576
 21
-14.2233756781
  0
LINE
  5
2FE
100
AcDbEntity
  8
DRAFT
100
AcDbLine
 62
7
  6
CONTINUOUS
 10
-36.7617650694
 20
-16.0090843639
 11
-37.0353766423
 21
-17.0302166553
  0
LINE
  5
2FF
100
AcDbEntity
  8
DRAFT
100
AcDbLine
 62
7
  6
CONTINUOUS
 10
-36.5057938835
 20
-15.8031895447
 11
-36.8835823391
 21
-17.2131152556
  0
LINE
  5
300
100
AcDbEntity
  8
DRAFT
100
AcDbLine
 62
7
  6
CONTINUOUS
 10
-36.5117650694
 20
-19.0001464489
 11
-36.7849677138
 21
-20.0197525986
  0
LINE
  5
301
100
AcDbEntity
  8
DRAFT
100
AcDbLine
 62
7
  6
CONTINUOUS
 10
-10.9590341396
 20
63.6566421083
 11
-9.0626597107
 21
68.8668880305
  0
LINE
  5
302
100
AcDbEntity
  8
DRAFT
100
AcDbLine
 62
7
  6
CONTINUOUS
 10
-8.4639734296
 20
70.5117650694
 11
-8.1000031953
 21
71.5117650694
  0
LINE
  5
303
100
AcDbEntity
  8
RACCORDO
100
AcDbLine
 62
7
  6
CONTINUOUS
 10
-63.8251497634
 20
-60.8178316817
 11
-64.2528549972
 21
-61.7089538917
  0
LINE
  5
304
100
AcDbEntity
  8
RACCORDO
100
AcDbLine
 62
253
  6
CONTINUOUS
 10
-65.6662759723
 20
-60.3179078341
 11
-65.6666948121
 21
-60.3187455775
  0
LINE
  5
305
100
AcDbEntity
  8
RACCORDO
100
AcDbLine
 62
253
  6
CONTINUOUS
 10
-65.1662950108
 20
-60.8178316817
 11
-65.1667519253
 21
-60.8187455804
  0
LINE
  5
306
100
AcDbEntity
  8
DRAFT
100
AcDbLine
 62
7
  6
CONTINUOUS
 10
70.4711034308
 20
59.6089822042
 11
71.4152879614
 21
59.9237423408
  0
LINE
  5
307
100
AcDbEntity
  8
DRAFT
100
AcDbLine
 62
7
  6
CONTINUOUS
 10
24.156241243
 20
-28.8330110251
 11
22.8418491037
 21
-29.1852013374
  0
LINE
  5
308
100
AcDbEntity
  8
DRAFT
100
AcDbLine
 62
7
  6
CONTINUOUS
 10
24.0130954831
 20
-28.7162017612
 11
22.9978538738
 21
-28.9882349306
  0
LINE
  5
309
100
AcDbEntity
  8
DRAFT
100
AcDbLine
 62
7
  6
CONTINUOUS
 10
20.7070083889
 20
-28.6170370794
 11
19.3016043586
 21
-28.9936139544
  0
LINE
  5
30A
100
AcDbEntity
  8
DRAFT
100
AcDbLine
 62
7
  6
CONTINUOUS
 10
20.5219927452
 20
-28.4658100363
 11
19.5052891987
 21
-28.7382349306
  0
LINE
  5
30B
100
AcDbEntity
  8
DRAFT
100
AcDbLine
 62
7
  6
CONTINUOUS
 10
16.7147855271
 20
-28.3669227627
 11
15.3076638105
 21
-28.7439598903
  0
LINE
  5
30C
100
AcDbEntity
  8
DRAFT
100
AcDbLine
 62
7
  6
CONTINUOUS
 10
16.52980174
 20
-28.2156871837
 11
15.5126397011
 21
-28.4882349306
  0
LINE
  5
30D
100
AcDbEntity
  8
ASSI
100
AcDbLine
 62
7
  6
CONTINUOUS
 10
15.9882349306
 20
-33.4882349306
 11
15.8882349306
 21
-33.4882349306
  0
LINE
  5
30E
100
AcDbEntity
  8
DRAFT
100
AcDbLine
 62
7
  6
CONTINUOUS
 10
-2.7408206284
 20
-31.3054369306
 11
-1.0554027317
 21
-31.3054369306
  0
LINE
  5
30F
100
AcDbEntity
  8
DRAFT
100
AcDbLine
 62
7
  6
CONTINUOUS
 10
1.0318725929
 20
-31.3054369306
 11
2.7172904896
 21
-31.3054369306
  0
LINE
  5
310
100
AcDbEntity
  8
DRAFT
100
AcDbLine
 62
7
  6
CONTINUOUS
 10
-3.5117650694
 20
-31.2382349306
 11
-1.0117650694
 21
-31.2382349306
  0
LINE
  5
311
100
AcDbEntity
  8
DRAFT
100
AcDbLine
 62
7
  6
CONTINUOUS
 10
0.9882349306
 20
-31.2382349306
 11
3.4882349306
 21
-31.2382349306
  0
LINE
  5
312
100
AcDbEntity
  8
DRAFT
100
AcDbLine
 62
7
  6
CONTINUOUS
 10
-25.3661879854
 20
-29.185598929
 11
-26.6846783977
 21
-28.8323104878
  0
LINE
  5
313
100
AcDbEntity
  8
DRAFT
100
AcDbLine
 62
7
  6
CONTINUOUS
 10
-25.5236765877
 20
-28.9882349306
 11
-26.5432827375
 21
-28.7150322862
  0
LINE
  5
314
100
AcDbEntity
  8
DRAFT
100
AcDbLine
 62
7
  6
CONTINUOUS
 10
-22.3267196835
 20
-28.9942061165
 11
-23.7366453944
 21
-28.6164176609
  0
LINE
  5
315
100
AcDbEntity
  8
DRAFT
100
AcDbLine
 62
7
  6
CONTINUOUS
 10
-22.5326145027
 20
-28.7382349306
 11
-23.5537467941
 21
-28.4646233577
  0
LINE
  5
316
100
AcDbEntity
  8
DRAFT
100
AcDbLine
 62
7
  6
CONTINUOUS
 10
-19.3343719885
 20
-28.744696241
 11
-20.746905817
 21
-28.3662089424
  0
LINE
  5
317
100
AcDbEntity
  8
DRAFT
100
AcDbLine
 62
7
  6
CONTINUOUS
 10
-19.5420959774
 20
-28.4882349306
 11
-20.5642005399
 21
-28.2143628385
  0
LINE
  5
318
100
AcDbEntity
  8
DRAFT
100
AcDbLine
 62
7
  6
CONTINUOUS
 10
70.4711034308
 20
-59.5854520654
 11
71.4152879614
 21
-59.9002122019
  0
LINE
  5
319
100
AcDbEntity
  8
RACCORDO
100
AcDbLine
 62
253
  6
CONTINUOUS
 10
-65.6666948121
 20
60.3422757163
 11
-65.6662759723
 21
60.341437973
  0
LINE
  5
31A
100
AcDbEntity
  8
RACCORDO
100
AcDbLine
 62
253
  6
CONTINUOUS
 10
-65.1667519253
 20
60.8422757192
 11
-65.1662950108
 21
60.8413618206
  0
LINE
  5
31B
100
AcDbEntity
  8
RACCORDO
100
AcDbLine
 62
7
  6
CONTINUOUS
 10
-63.8251497634
 20
60.8413618206
 11
-64.2528549972
 21
61.7324840306
  0
LINE
  5
31C
100
AcDbEntity
  8
DRAFT
100
AcDbLine
 62
7
  6
CONTINUOUS
 10
-10.9590341396
 20
-63.6331119695
 11
-9.0626597107
 21
-68.8433578917
  0
LINE
  5
31D
100
AcDbEntity
  8
DRAFT
100
AcDbLine
 62
7
  6
CONTINUOUS
 10
-8.4639734296
 20
-70.4882349306
 11
-8.1000031953
 21
-71.4882349306
  0
LINE
  5
31E
100
AcDbEntity
  8
DRAFT
100
AcDbLine
 62
7
  6
CONTINUOUS
 10
-34.8897390813
 20
-14.2233756781
 11
-35.2682263799
 21
-12.8108418497
  0
LINE
  5
31F
100
AcDbEntity
  8
DRAFT
100
AcDbLine
 62
7
  6
CONTINUOUS
 10
-34.7378929773
 20
-14.0406704011
 11
-35.0117650694
 21
-13.0185658386
  0
LINE
  5
320
100
AcDbEntity
  8
DRAFT
100
AcDbLine
 62
7
  6
CONTINUOUS
 10
-37.2843128163
 20
10.0533318788
 11
-37.0117650694
 21
9.03616984
  0
LINE
  5
321
100
AcDbEntity
  8
DRAFT
100
AcDbLine
 62
7
  6
CONTINUOUS
 10
-37.1330772373
 20
10.238315666
 11
-36.7560401097
 21
8.8311939494
  0
LINE
  5
322
100
AcDbEntity
  8
DRAFT
100
AcDbLine
 62
7
  6
CONTINUOUS
 10
-37.0341899637
 20
14.0455228841
 11
-36.7617650694
 21
13.0288193375
  0
LINE
  5
323
100
AcDbEntity
  8
DRAFT
100
AcDbLine
 62
7
  6
CONTINUOUS
 10
-36.8829629206
 20
14.2305385277
 11
-36.5063860456
 21
12.8251344974
  0
LINE
  5
324
100
AcDbEntity
  8
DRAFT
100
AcDbLine
 62
7
  6
CONTINUOUS
 10
-36.7837982388
 20
17.536625622
 11
-36.5117650694
 21
16.5213840127
  0
LINE
  5
325
100
AcDbEntity
  8
DRAFT
100
AcDbLine
 62
7
  6
CONTINUOUS
 10
-36.6669889749
 20
17.6797713819
 11
-36.3147986626
 21
16.3653792425
  0
LINE
  5
326
100
AcDbEntity
  8
RACCORDO
100
AcDbLine
 62
7
  6
CONTINUOUS
 10
-13.0203402854
 20
68.8239071426
 11
-13.116495459
 21
68.3419560494
  0
LINE
  5
327
100
AcDbEntity
  8
DRAFT
100
AcDbLine
 62
7
  6
CONTINUOUS
 10
-13.3117650694
 20
64.1815740895
 11
-13.416495459
 21
63.6566421083
  0
LINE
  5
328
100
AcDbEntity
  8
SMUSSO
100
AcDbLine
 62
7
  6
CONTINUOUS
 10
-40.3065295861
 20
-61.7002276885
 11
-40.4404837773
 21
-62.2089538917
  0
LINE
  5
329
100
AcDbEntity
  8
DRAFT
100
AcDbLine
 62
7
  6
CONTINUOUS
 10
-36.314401071
 20
-18.8426578466
 11
-36.6676895122
 21
-20.1611482589
  0
LINE
  5
32A
100
AcDbEntity
  8
DRAFT
100
AcDbLine
 62
7
  6
CONTINUOUS
 10
-35.7091290678
 20
-40.1338120146
 11
-35.3558406267
 21
-38.8153216023
  0
LINE
  5
32B
100
AcDbEntity
  8
DRAFT
100
AcDbLine
 62
7
  6
CONTINUOUS
 10
-35.5117650694
 20
-39.9763234123
 11
-35.238562425
 21
-38.9567172625
  0
LINE
  5
32C
100
AcDbEntity
  8
DRAFT
100
AcDbLine
 62
7
  6
CONTINUOUS
 10
-35.5177362554
 20
-43.1732803165
 11
-35.1399477997
 21
-41.7633546056
  0
LINE
  5
32D
100
AcDbEntity
  8
DRAFT
100
AcDbLine
 62
7
  6
CONTINUOUS
 10
-35.2617650694
 20
-42.9673854973
 11
-34.9881534966
 21
-41.9462532059
  0
LINE
  5
32E
100
AcDbEntity
  8
0
100
AcDbLine
 62
7
  6
CONTINUOUS
 10
-70.0346086761
 20
-57.3406635569
 11
-70.2960304794
 21
-57.7668778701
  0
LINE
  5
32F
100
AcDbEntity
  8
DRAFT
100
AcDbLine
 62
7
  6
CONTINUOUS
 10
-1.0353294071
 20
39.2382007318
 11
-1.0789670694
 21
39.1945630694
  0
LINE
  5
330
100
AcDbEntity
  8
RACCORDO
100
AcDbLine
 62
7
  6
CONTINUOUS
 10
21.816121889
 20
60.8413618206
 11
22.6535903471
 21
61.6788302786
  0
LINE
  5
331
100
AcDbEntity
  8
RACCORDO
100
AcDbLine
 62
7
  6
CONTINUOUS
 10
66.0882349306
 20
57.8675838114
 11
65.6213094261
 21
57.6741769349
  0
LINE
  5
332
100
AcDbEntity
  8
DRAFT
100
AcDbLine
 62
7
  6
CONTINUOUS
 10
74.7089538917
 20
56.6300764105
 11
73.8187455804
 21
56.2613400546
  0
LINE
  5
333
100
AcDbEntity
  8
DRAFT
100
AcDbLine
 62
7
  6
CONTINUOUS
 10
72.5882349306
 20
55.7516458548
 11
73.0333051879
 21
55.9359999916
  0
LINE
  5
334
100
AcDbEntity
  8
DRAFT
100
AcDbLine
 62
7
  6
CONTINUOUS
 10
-20.5642005399
 20
-30.7621070227
 11
-19.5420959774
 21
-30.4882349306
  0
LINE
  5
335
100
AcDbEntity
  8
DRAFT
100
AcDbLine
 62
7
  6
CONTINUOUS
 10
-20.746905817
 20
-30.6102609187
 11
-19.3343719885
 21
-30.2317736201
  0
LINE
  5
336
100
AcDbEntity
  8
DRAFT
100
AcDbLine
 62
7
  6
CONTINUOUS
 10
-23.5537467941
 20
-30.5118465034
 11
-22.5326145027
 21
-30.2382349306
  0
LINE
  5
337
100
AcDbEntity
  8
DRAFT
100
AcDbLine
 62
7
  6
CONTINUOUS
 10
-23.7366453944
 20
-30.3600522003
 11
-22.3267196835
 21
-29.9822637446
  0
LINE
  5
338
100
AcDbEntity
  8
DRAFT
100
AcDbLine
 62
7
  6
CONTINUOUS
 10
15.5126397011
 20
-30.4882349306
 11
16.52980174
 21
-30.7607826775
  0
LINE
  5
339
100
AcDbEntity
  8
DRAFT
100
AcDbLine
 62
7
  6
CONTINUOUS
 10
15.3076638105
 20
-30.2325099708
 11
16.7147855271
 21
-30.6095470984
  0
LINE
  5
33A
100
AcDbEntity
  8
DRAFT
100
AcDbLine
 62
7
  6
CONTINUOUS
 10
19.5052891987
 20
-30.2382349306
 11
20.5219927452
 21
-30.5106598248
  0
LINE
  5
33B
100
AcDbEntity
  8
DRAFT
100
AcDbLine
 62
7
  6
CONTINUOUS
 10
19.3016043586
 20
-29.9828559068
 11
20.7070083889
 21
-30.3594327817
  0
LINE
  5
33C
100
AcDbEntity
  8
DRAFT
100
AcDbLine
 62
7
  6
CONTINUOUS
 10
22.9978538738
 20
-29.9882349306
 11
24.0130954831
 21
-30.2602680999
  0
LINE
  5
33D
100
AcDbEntity
  8
DRAFT
100
AcDbLine
 62
7
  6
CONTINUOUS
 10
22.8418491037
 20
-29.7912685238
 11
24.156241243
 21
-30.1434588361
  0
LINE
  5
33E
100
AcDbEntity
  8
RACCORDO
100
AcDbLine
 62
7
  6
CONTINUOUS
 10
66.0882349306
 20
-57.8440536726
 11
65.6213094261
 21
-57.650646796
  0
LINE
  5
33F
100
AcDbEntity
  8
DRAFT
100
AcDbLine
 62
7
  6
CONTINUOUS
 10
74.7089538917
 20
-56.6065462716
 11
73.8187455804
 21
-56.2378099157
  0
LINE
  5
340
100
AcDbEntity
  8
DRAFT
100
AcDbLine
 62
7
  6
CONTINUOUS
 10
72.5882349306
 20
-55.7281157159
 11
73.0333051879
 21
-55.9124698527
  0
LINE
  5
341
100
AcDbEntity
  8
DRAFT
100
AcDbLine
 62
7
  6
CONTINUOUS
 10
-1.0353294071
 20
-39.2146705929
 11
-1.0789670694
 21
-39.1710329306
  0
LINE
  5
342
100
AcDbEntity
  8
RACCORDO
100
AcDbLine
 62
7
  6
CONTINUOUS
 10
21.816121889
 20
-60.8178316817
 11
22.6535903471
 21
-61.6553001398
  0
LINE
  5
343
100
AcDbEntity
  8
DRAFT
100
AcDbLine
 62
7
  6
CONTINUOUS
 10
-35.3565411639
 20
41.343758757
 11
-35.7087314762
 21
42.6581508963
  0
LINE
  5
344
100
AcDbEntity
  8
DRAFT
100
AcDbLine
 62
7
  6
CONTINUOUS
 10
-35.2397319001
 20
41.4869045169
 11
-35.5117650694
 21
42.5021461262
  0
LINE
  5
345
100
AcDbEntity
  8
SMUSSO
100
AcDbLine
 62
7
  6
CONTINUOUS
 10
-40.4404837773
 20
62.2324840306
 11
-40.3065295861
 21
61.7237578273
  0
LINE
  5
346
100
AcDbEntity
  8
RACCORDO
100
AcDbLine
 62
7
  6
CONTINUOUS
 10
-13.116495459
 20
-68.3184259105
 11
-13.0203402854
 21
-68.8003770038
  0
LINE
  5
347
100
AcDbEntity
  8
DRAFT
100
AcDbLine
 62
7
  6
CONTINUOUS
 10
-13.416495459
 20
-63.6331119695
 11
-13.3117650694
 21
-64.1580439506
  0
LINE
  5
348
100
AcDbEntity
  8
ASSI
100
AcDbLine
 62
7
  6
CONTINUOUS
 10
-16.0117650694
 20
25.0237858279
 11
-16.0117650694
 21
28.3843297118
  0
LINE
  5
349
100
AcDbEntity
  8
ASSI
100
AcDbLine
 62
7
  6
CONTINUOUS
 10
-16.0117650694
 20
30.6392004271
 11
-16.0117650694
 21
33.5117650694
  0
LINE
  5
34A
100
AcDbEntity
  8
ASSI
100
AcDbLine
 62
7
  6
CONTINUOUS
 10
-15.9117650694
 20
33.5117650694
 11
-15.9117650694
 21
30.6124055078
  0
LINE
  5
34B
100
AcDbEntity
  8
ASSI
100
AcDbLine
 62
7
  6
CONTINUOUS
 10
-15.9117650694
 20
28.411124631
 11
-15.9117650694
 21
25.5044396616
  0
LINE
  5
34C
100
AcDbEntity
  8
SMUSSO
100
AcDbLine
 62
7
  6
CONTINUOUS
 10
-1.7170005528
 20
61.7237578273
 11
-1.5830463615
 21
62.2324840306
  0
LINE
  5
34D
100
AcDbEntity
  8
DRAFT
100
AcDbLine
 62
7
  6
CONTINUOUS
 10
-35.2682263799
 20
-46.1656280115
 11
-34.8897390813
 21
-44.753094183
  0
LINE
  5
34E
100
AcDbEntity
  8
DRAFT
100
AcDbLine
 62
7
  6
CONTINUOUS
 10
-35.0117650694
 20
-45.9579040226
 11
-34.7378929773
 21
-44.9357994601
  0
LINE
  5
34F
100
AcDbEntity
  8
DRAFT
100
AcDbLine
 62
7
  6
CONTINUOUS
 10
1.0000262179
 20
31.2971180756
 11
1.0318725929
 21
31.3289670694
  0
LINE
  5
350
100
AcDbEntity
  8
DRAFT
100
AcDbLine
 62
7
  6
CONTINUOUS
 10
-26.5432827375
 20
-30.261437575
 11
-25.5236765877
 21
-29.9882349306
  0
LINE
  5
351
100
AcDbEntity
  8
DRAFT
100
AcDbLine
 62
7
  6
CONTINUOUS
 10
-26.6846783977
 20
-30.1441593733
 11
-25.3661879854
 21
-29.7908709322
  0
LINE
  5
352
100
AcDbEntity
  8
DRAFT
100
AcDbLine
 62
7
  6
CONTINUOUS
 10
-45.3388517411
 20
-28.8323104878
 11
-46.6573421534
 21
-29.185598929
  0
LINE
  5
353
100
AcDbEntity
  8
DRAFT
100
AcDbLine
 62
7
  6
CONTINUOUS
 10
-45.4802474014
 20
-28.7150322862
 11
-46.4998535511
 21
-28.9882349306
  0
LINE
  5
354
100
AcDbEntity
  8
DRAFT
100
AcDbLine
 62
7
  6
CONTINUOUS
 10
-48.2868847444
 20
-28.6164176609
 11
-49.6968104553
 21
-28.9942061165
  0
LINE
  5
355
100
AcDbEntity
  8
DRAFT
100
AcDbLine
 62
7
  6
CONTINUOUS
 10
-48.4697833447
 20
-28.4646233577
 11
-49.4909156361
 21
-28.7382349306
  0
LINE
  5
356
100
AcDbEntity
  8
SMUSSO
100
AcDbLine
 62
7
  6
CONTINUOUS
 10
75.2089538917
 20
-1.5595162227
 11
74.7002276885
 21
-1.6934704139
  0
LINE
  5
357
100
AcDbEntity
  8
SMUSSO
100
AcDbLine
 62
7
  6
CONTINUOUS
 10
-74.7237578273
 20
-1.6934704139
 11
-75.2324840306
 21
-1.5595162227
  0
LINE
  5
358
100
AcDbEntity
  8
DRAFT
100
AcDbLine
 62
7
  6
CONTINUOUS
 10
49.1346207575
 20
-29.1852013374
 11
47.8202286181
 21
-28.8330110251
  0
LINE
  5
359
100
AcDbEntity
  8
DRAFT
100
AcDbLine
 62
7
  6
CONTINUOUS
 10
48.9786159873
 20
-28.9882349306
 11
47.963374378
 21
-28.7162017612
  0
LINE
  5
35A
100
AcDbEntity
  8
DRAFT
100
AcDbLine
 62
7
  6
CONTINUOUS
 10
1.0000262178
 20
-31.2735879368
 11
1.0318725929
 21
-31.3054369306
  0
LINE
  5
35B
100
AcDbEntity
  8
RACCORDO
100
AcDbLine
 62
7
  6
CONTINUOUS
 10
-2.7592727919
 20
-31.2669919189
 11
-2.7408206284
 21
-31.3054369306
  0
LINE
  5
35C
100
AcDbEntity
  8
DRAFT
100
AcDbLine
 62
7
  6
CONTINUOUS
 10
-35.1405672183
 20
44.7929916111
 11
-35.5171440932
 21
46.1983956414
  0
LINE
  5
35D
100
AcDbEntity
  8
DRAFT
100
AcDbLine
 62
7
  6
CONTINUOUS
 10
-34.9893401752
 20
44.9780072548
 11
-35.2617650694
 21
45.9947108013
  0
LINE
  5
35E
100
AcDbEntity
  8
DRAFT
100
AcDbLine
 62
7
  6
CONTINUOUS
 10
-34.8904529016
 20
48.7852144729
 11
-35.2674900292
 21
50.1923361895
  0
LINE
  5
35F
100
AcDbEntity
  8
DRAFT
100
AcDbLine
 62
7
  6
CONTINUOUS
 10
-34.7392173225
 20
48.97019826
 11
-35.0117650694
 21
49.9873602989
  0
LINE
  5
360
100
AcDbEntity
  8
SMUSSO
100
AcDbLine
 62
7
  6
CONTINUOUS
 10
-1.5830463615
 20
-62.2089538917
 11
-1.7170005528
 21
-61.7002276885
  0
LINE
  5
361
100
AcDbEntity
  8
DRAFT
100
AcDbLine
 62
7
  6
CONTINUOUS
 10
-13.5613724979
 20
-68.9882349306
 11
-13.5613724979
 21
-63.4882349306
  0
LINE
  5
362
100
AcDbEntity
  8
DRAFT
100
AcDbLine
 62
7
  6
CONTINUOUS
 10
-13.5613724979
 20
63.5117650694
 11
-13.5613724979
 21
69.0117650694
  0
LINE
  5
363
100
AcDbEntity
  8
DRAFT
100
AcDbLine
 62
7
  6
CONTINUOUS
 10
-13.3117650694
 20
68.3419560494
 11
-13.3117650694
 21
64.1815740895
  0
LINE
  5
364
100
AcDbEntity
  8
DRAFT
100
AcDbLine
 62
7
  6
CONTINUOUS
 10
-13.3117650694
 20
-64.1580439506
 11
-13.3117650694
 21
-68.3184259105
  0
LINE
  5
365
100
AcDbEntity
  8
DRAFT
100
AcDbLine
 62
7
  6
CONTINUOUS
 10
-12.866495459
 20
-64.1580439506
 11
-12.866495459
 21
-64.2627743402
  0
LINE
  5
366
100
AcDbEntity
  8
DRAFT
100
AcDbLine
 62
7
  6
CONTINUOUS
 10
-12.866495459
 20
64.1815740895
 11
-12.866495459
 21
64.286304479
  0
LINE
  5
367
100
AcDbEntity
  8
DRAFT
100
AcDbLine
 62
7
  6
CONTINUOUS
 10
-72.0535919765
 20
-56.915713203
 11
-72.6089822042
 21
-57.4711034308
  0
LINE
  5
368
100
AcDbEntity
  8
DRAFT
100
AcDbLine
 62
7
  6
CONTINUOUS
 10
-71.4241675823
 20
-56.915713203
 11
-72.9237423408
 21
-58.4152879614
  0
LINE
  5
369
100
AcDbEntity
  8
RACCORDO
100
AcDbLine
 62
253
  6
CONTINUOUS
 10
-68.3380157776
 20
-54.2503907266
 11
-68.691555706
 21
-54.603930655
  0
LINE
  5
36A
100
AcDbEntity
  8
RACCORDO
100
AcDbLine
 62
253
  6
CONTINUOUS
 10
-67.2739208654
 20
-55.3144856388
 11
-67.6274607938
 21
-55.6680255672
  0
LINE
  5
36B
100
AcDbEntity
  8
DRAFT
100
AcDbLine
 62
7
  6
CONTINUOUS
 10
-71.4388181003
 20
-59.9002122019
 11
-69.9392433419
 21
-58.4006374435
  0
LINE
  5
36C
100
AcDbEntity
  8
DRAFT
100
AcDbLine
 62
7
  6
CONTINUOUS
 10
-70.4946335696
 20
-59.5854520654
 11
-69.9392433419
 21
-59.0300618376
  0
LINE
  5
36D
100
AcDbEntity
  8
RACCORDO
100
AcDbLine
 62
253
  6
CONTINUOUS
 10
73.3187455775
 20
52.6666948121
 11
73.3179078341
 21
52.6662759723
  0
LINE
  5
36E
100
AcDbEntity
  8
RACCORDO
100
AcDbLine
 62
253
  6
CONTINUOUS
 10
73.8187455804
 20
52.1667519253
 11
73.8178316817
 21
52.1662950108
  0
LINE
  5
36F
100
AcDbEntity
  8
RACCORDO
100
AcDbLine
 62
7
  6
CONTINUOUS
 10
73.8178316817
 20
50.7751497634
 11
74.7089538917
 21
51.2028549972
  0
LINE
  5
370
100
AcDbEntity
  8
DRAFT
100
AcDbLine
 62
7
  6
CONTINUOUS
 10
-51.2766243219
 20
-28.3662089424
 11
-52.6891581503
 21
-28.744696241
  0
LINE
  5
371
100
AcDbEntity
  8
DRAFT
100
AcDbLine
 62
7
  6
CONTINUOUS
 10
-51.4593295989
 20
-28.2143628385
 11
-52.4814341614
 21
-28.4882349306
  0
LINE
  5
372
100
AcDbEntity
  8
SMUSSO
100
AcDbLine
 62
7
  6
CONTINUOUS
 10
-75.2324840306
 20
-31.7169536385
 11
-74.7237578273
 21
-31.5829994472
  0
LINE
  5
373
100
AcDbEntity
  8
SMUSSO
100
AcDbLine
 62
7
  6
CONTINUOUS
 10
74.7002276885
 20
-31.5829994472
 11
75.2089538917
 21
-31.7169536385
  0
LINE
  5
374
100
AcDbEntity
  8
DRAFT
100
AcDbLine
 62
7
  6
CONTINUOUS
 10
52.6748655026
 20
-28.9936139544
 11
51.2694614723
 21
-28.6170370794
  0
LINE
  5
375
100
AcDbEntity
  8
DRAFT
100
AcDbLine
 62
7
  6
CONTINUOUS
 10
52.4711806625
 20
-28.7382349306
 11
51.4544771159
 21
-28.4658100363
  0
LINE
  5
376
100
AcDbEntity
  8
DRAFT
100
AcDbLine
 62
7
  6
CONTINUOUS
 10
56.6688060506
 20
-28.7439598903
 11
55.261684334
 21
-28.3669227627
  0
LINE
  5
377
100
AcDbEntity
  8
DRAFT
100
AcDbLine
 62
7
  6
CONTINUOUS
 10
56.46383016
 20
-28.4882349306
 11
55.4466681212
 21
-28.2156871837
  0
LINE
  5
378
100
AcDbEntity
  8
RACCORDO
100
AcDbLine
 62
7
  6
CONTINUOUS
 10
73.8178316817
 20
-50.7516196246
 11
74.7089538917
 21
-51.1793248583
  0
LINE
  5
379
100
AcDbEntity
  8
RACCORDO
100
AcDbLine
 62
253
  6
CONTINUOUS
 10
73.3179078341
 20
-52.6427458335
 11
73.3187455775
 21
-52.6431646733
  0
LINE
  5
37A
100
AcDbEntity
  8
RACCORDO
100
AcDbLine
 62
253
  6
CONTINUOUS
 10
73.8178316817
 20
-52.142764872
 11
73.8187455804
 21
-52.1432217865
  0
LINE
  5
37B
100
AcDbEntity
  8
DRAFT
100
AcDbLine
 62
7
  6
CONTINUOUS
 10
-72.6089822042
 20
57.4946335696
 11
-72.0535919765
 21
56.9392433419
  0
LINE
  5
37C
100
AcDbEntity
  8
DRAFT
100
AcDbLine
 62
7
  6
CONTINUOUS
 10
-72.9237423408
 20
58.4388181003
 11
-71.4241675823
 21
56.9392433419
  0
LINE
  5
37D
100
AcDbEntity
  8
RACCORDO
100
AcDbLine
 62
253
  6
CONTINUOUS
 10
-68.3380157776
 20
54.2739208654
 11
-68.691555706
 21
54.6274607938
  0
LINE
  5
37E
100
AcDbEntity
  8
RACCORDO
100
AcDbLine
 62
253
  6
CONTINUOUS
 10
-67.2739208654
 20
55.3380157776
 11
-67.6274607938
 21
55.691555706
  0
LINE
  5
37F
100
AcDbEntity
  8
DRAFT
100
AcDbLine
 62
7
  6
CONTINUOUS
 10
-69.9392433419
 20
58.4241675823
 11
-71.4388181003
 21
59.9237423408
  0
LINE
  5
380
100
AcDbEntity
  8
DRAFT
100
AcDbLine
 62
7
  6
CONTINUOUS
 10
-69.9392433419
 20
59.0535919765
 11
-70.4946335696
 21
59.6089822042
  0
LINE
  5
381
100
AcDbEntity
  8
RACCORDO
100
AcDbLine
 62
7
  6
CONTINUOUS
 10
2.7357426531
 20
-39.2094779423
 11
2.7172904896
 21
-39.1710329306
  0
LINE
  5
382
100
AcDbEntity
  8
DRAFT
100
AcDbLine
 62
7
  6
CONTINUOUS
 10
-3.5117650694
 20
-39.2382349306
 11
-3.5117650694
 21
-31.2382349306
  0
LINE
  5
383
100
AcDbEntity
  8
DRAFT
100
AcDbLine
 62
7
  6
CONTINUOUS
 10
-3.5117650694
 20
31.2617650694
 11
-3.5117650694
 21
39.2617650694
  0
LINE
  5
384
100
AcDbEntity
  8
DRAFT
100
AcDbLine
 62
7
  6
CONTINUOUS
 10
-2.7408206284
 20
-31.3054369306
 11
-2.7408206284
 21
-39.1710329306
  0
LINE
  5
385
100
AcDbEntity
  8
DRAFT
100
AcDbLine
 62
7
  6
CONTINUOUS
 10
-2.7408206284
 20
31.3289670694
 11
-2.7408206284
 21
39.1945630694
  0
LINE
  5
386
100
AcDbEntity
  8
DRAFT
100
AcDbLine
 62
7
  6
CONTINUOUS
 10
-1.0554063204
 20
-39.1710329306
 11
-1.0554027317
 21
-31.3054369306
  0
LINE
  5
387
100
AcDbEntity
  8
DRAFT
100
AcDbLine
 62
7
  6
CONTINUOUS
 10
-1.0554027317
 20
31.3289670694
 11
-1.0554063204
 21
39.1945630694
  0
LINE
  5
388
100
AcDbEntity
  8
DRAFT
100
AcDbLine
 62
7
  6
CONTINUOUS
 10
-1.0117650694
 20
39.2617650694
 11
-1.0117650694
 21
31.2617650694
  0
LINE
  5
389
100
AcDbEntity
  8
DRAFT
100
AcDbLine
 62
7
  6
CONTINUOUS
 10
-1.0117650694
 20
-31.2382349306
 11
-1.0117650694
 21
-39.2382349306
  0
LINE
  5
38A
100
AcDbEntity
  8
DRAFT
100
AcDbLine
 62
7
  6
CONTINUOUS
 10
0.9882349306
 20
-39.2382349306
 11
0.9882349306
 21
-31.2382349306
  0
LINE
  5
38B
100
AcDbEntity
  8
DRAFT
100
AcDbLine
 62
7
  6
CONTINUOUS
 10
0.9882349306
 20
31.2617650694
 11
0.9882349306
 21
39.2617650694
  0
LINE
  5
38C
100
AcDbEntity
  8
DRAFT
100
AcDbLine
 62
7
  6
CONTINUOUS
 10
1.0318761816
 20
39.1945630694
 11
1.0318725929
 21
31.3289670694
  0
LINE
  5
38D
100
AcDbEntity
  8
DRAFT
100
AcDbLine
 62
7
  6
CONTINUOUS
 10
1.0318725929
 20
-31.3054369306
 11
1.0318761816
 21
-39.1710329306
  0
LINE
  5
38E
100
AcDbEntity
  8
DRAFT
100
AcDbLine
 62
7
  6
CONTINUOUS
 10
13.3929653202
 20
68.8668880305
 11
13.2882349306
 21
68.3419560494
  0
LINE
  5
38F
100
AcDbEntity
  8
RACCORDO
100
AcDbLine
 62
7
  6
CONTINUOUS
 10
-12.7703402854
 20
-63.6760928574
 11
-12.866495459
 21
-64.1580439506
  0
LINE
  5
390
100
AcDbEntity
  8
RACCORDO
100
AcDbLine
 62
7
  6
CONTINUOUS
 10
12.8429653202
 20
64.1815740895
 11
12.7468101466
 21
63.6996229962
  0
LINE
  5
391
100
AcDbEntity
  8
DRAFT
100
AcDbLine
 62
7
  6
CONTINUOUS
 10
-13.3117650694
 20
-68.3184259105
 11
-13.416495459
 21
-68.8433578917
  0
LINE
  5
392
100
AcDbEntity
  8
DRAFT
100
AcDbLine
 62
7
  6
CONTINUOUS
 10
13.2882349306
 20
-68.3184259105
 11
13.3929653202
 21
-68.8433578917
  0
LINE
  5
393
100
AcDbEntity
  8
RACCORDO
100
AcDbLine
 62
7
  6
CONTINUOUS
 10
-12.866495459
 20
64.1815740895
 11
-12.7703402854
 21
63.6996229962
  0
LINE
  5
394
100
AcDbEntity
  8
RACCORDO
100
AcDbLine
 62
7
  6
CONTINUOUS
 10
12.7468101466
 20
-63.6760928574
 11
12.8429653202
 21
-64.1580439506
  0
LINE
  5
395
100
AcDbEntity
  8
DRAFT
100
AcDbLine
 62
7
  6
CONTINUOUS
 10
-13.416495459
 20
68.8668880305
 11
-13.3117650694
 21
68.3419560494
  0
LINE
  5
396
100
AcDbEntity
  8
DRAFT
100
AcDbLine
 62
7
  6
CONTINUOUS
 10
2.7172904896
 20
-31.3054369306
 11
2.7172904896
 21
-39.1710329306
  0
LINE
  5
397
100
AcDbEntity
  8
DRAFT
100
AcDbLine
 62
7
  6
CONTINUOUS
 10
2.7172904896
 20
31.3289670694
 11
2.7172904896
 21
39.1945630694
  0
LINE
  5
398
100
AcDbEntity
  8
DRAFT
100
AcDbLine
 62
7
  6
CONTINUOUS
 10
3.4882349306
 20
39.2617650694
 11
3.4882349306
 21
31.2617650694
  0
LINE
  5
399
100
AcDbEntity
  8
DRAFT
100
AcDbLine
 62
7
  6
CONTINUOUS
 10
3.4882349306
 20
-31.2382349306
 11
3.4882349306
 21
-39.2382349306
  0
LINE
  5
39A
100
AcDbEntity
  8
DRAFT
100
AcDbLine
 62
7
  6
CONTINUOUS
 10
70.4711034308
 20
59.6089822042
 11
69.915713203
 21
59.0535919765
  0
LINE
  5
39B
100
AcDbEntity
  8
DRAFT
100
AcDbLine
 62
7
  6
CONTINUOUS
 10
71.4152879614
 20
59.9237423408
 11
69.915713203
 21
58.4241675823
  0
LINE
  5
39C
100
AcDbEntity
  8
RACCORDO
100
AcDbLine
 62
253
  6
CONTINUOUS
 10
67.2503907266
 20
55.3380157776
 11
67.603930655
 21
55.691555706
  0
LINE
  5
39D
100
AcDbEntity
  8
DRAFT
100
AcDbLine
 62
7
  6
CONTINUOUS
 10
69.915713203
 20
-59.0300618376
 11
70.4711034308
 21
-59.5854520654
  0
LINE
  5
39E
100
AcDbEntity
  8
DRAFT
100
AcDbLine
 62
7
  6
CONTINUOUS
 10
69.915713203
 20
-58.4006374435
 11
71.4152879614
 21
-59.9002122019
  0
LINE
  5
39F
100
AcDbEntity
  8
RACCORDO
100
AcDbLine
 62
253
  6
CONTINUOUS
 10
67.2503907266
 20
-55.3144856388
 11
67.603930655
 21
-55.6680255672
  0
LINE
  5
3A0
100
AcDbEntity
  8
DRAFT
100
AcDbLine
 62
7
  6
CONTINUOUS
 10
12.8429653202
 20
64.286304479
 11
12.8429653202
 21
64.1815740895
  0
LINE
  5
3A1
100
AcDbEntity
  8
DRAFT
100
AcDbLine
 62
7
  6
CONTINUOUS
 10
12.8429653202
 20
-64.2627743402
 11
12.8429653202
 21
-64.1580439506
  0
LINE
  5
3A2
100
AcDbEntity
  8
DRAFT
100
AcDbLine
 62
7
  6
CONTINUOUS
 10
13.2882349306
 20
68.3419560494
 11
13.2882349306
 21
64.1815740895
  0
LINE
  5
3A3
100
AcDbEntity
  8
DRAFT
100
AcDbLine
 62
7
  6
CONTINUOUS
 10
13.2882349306
 20
-64.1580439506
 11
13.2882349306
 21
-68.3184259105
  0
LINE
  5
3A4
100
AcDbEntity
  8
DRAFT
100
AcDbLine
 62
7
  6
CONTINUOUS
 10
13.5378423591
 20
-68.9882349306
 11
13.5378423591
 21
-63.4882349306
  0
LINE
  5
3A5
100
AcDbEntity
  8
DRAFT
100
AcDbLine
 62
7
  6
CONTINUOUS
 10
13.5378423591
 20
63.5117650694
 11
13.5378423591
 21
69.0117650694
  0
LINE
  5
3A6
100
AcDbEntity
  8
ASSI
100
AcDbLine
 62
7
  6
CONTINUOUS
 10
15.8882349306
 20
-33.4882349306
 11
15.8882349306
 21
-30.588875369
  0
LINE
  5
3A7
100
AcDbEntity
  8
ASSI
100
AcDbLine
 62
7
  6
CONTINUOUS
 10
15.8882349306
 20
-28.3875944922
 11
15.8882349306
 21
-25.4809095228
  0
LINE
  5
3A8
100
AcDbEntity
  8
ASSI
100
AcDbLine
 62
7
  6
CONTINUOUS
 10
15.9882349306
 20
-25.0002556891
 11
15.9882349306
 21
-28.3607995729
  0
LINE
  5
3A9
100
AcDbEntity
  8
ASSI
100
AcDbLine
 62
7
  6
CONTINUOUS
 10
15.9882349306
 20
-30.6156702882
 11
15.9882349306
 21
-33.4882349306
  0
LINE
  5
3AA
100
AcDbEntity
  8
RACCORDO
100
AcDbLine
 62
253
  6
CONTINUOUS
 10
68.3144856388
 20
54.2739208654
 11
68.6680255672
 21
54.6274607938
  0
LINE
  5
3AB
100
AcDbEntity
  8
DRAFT
100
AcDbLine
 62
7
  6
CONTINUOUS
 10
71.4006374435
 20
56.9392433419
 11
72.9002122019
 21
58.4388181003
  0
LINE
  5
3AC
100
AcDbEntity
  8
DRAFT
100
AcDbLine
 62
7
  6
CONTINUOUS
 10
72.0300618376
 20
56.9392433419
 11
72.5854520654
 21
57.4946335696
  0
LINE
  5
3AD
100
AcDbEntity
  8
RACCORDO
100
AcDbLine
 62
253
  6
CONTINUOUS
 10
-73.8422757192
 20
-52.1432217865
 11
-73.8413618206
 21
-52.142764872
  0
LINE
  5
3AE
100
AcDbEntity
  8
RACCORDO
100
AcDbLine
 62
253
  6
CONTINUOUS
 10
-73.3422757163
 20
-52.6431646733
 11
-73.341437973
 21
-52.6427458335
  0
LINE
  5
3AF
100
AcDbEntity
  8
RACCORDO
100
AcDbLine
 62
7
  6
CONTINUOUS
 10
-73.8413618206
 20
-50.7516196246
 11
-74.7324840306
 21
-51.1793248583
  0
LINE
  5
3B0
100
AcDbEntity
  8
DRAFT
100
AcDbLine
 62
7
  6
CONTINUOUS
 10
51.4357994601
 20
28.2378929773
 11
52.4579040226
 21
28.5117650694
  0
LINE
  5
3B1
100
AcDbEntity
  8
DRAFT
100
AcDbLine
 62
7
  6
CONTINUOUS
 10
51.253094183
 20
28.3897390813
 11
52.6656280115
 21
28.7682263799
  0
LINE
  5
3B2
100
AcDbEntity
  8
DRAFT
100
AcDbLine
 62
7
  6
CONTINUOUS
 10
48.4462532059
 20
28.4881534966
 11
49.4673854973
 21
28.7617650694
  0
LINE
  5
3B3
100
AcDbEntity
  8
DRAFT
100
AcDbLine
 62
7
  6
CONTINUOUS
 10
48.2633546056
 20
28.6399477997
 11
49.6732803165
 21
29.0177362554
  0
LINE
  5
3B4
100
AcDbEntity
  8
DRAFT
100
AcDbLine
 62
7
  6
CONTINUOUS
 10
45.4567172625
 20
28.738562425
 11
46.4763234123
 21
29.0117650694
  0
LINE
  5
3B5
100
AcDbEntity
  8
DRAFT
100
AcDbLine
 62
7
  6
CONTINUOUS
 10
45.3153216023
 20
28.8558406267
 11
46.6338120146
 21
29.2091290678
  0
LINE
  5
3B6
100
AcDbEntity
  8
SMUSSO
100
AcDbLine
 62
7
  6
CONTINUOUS
 10
75.2089538917
 20
31.7404837773
 11
74.7002276885
 21
31.6065295861
  0
LINE
  5
3B7
100
AcDbEntity
  8
SMUSSO
100
AcDbLine
 62
7
  6
CONTINUOUS
 10
-74.7237578273
 20
31.6065295861
 11
-75.2324840306
 21
31.7404837773
  0
LINE
  5
3B8
100
AcDbEntity
  8
DRAFT
100
AcDbLine
 62
7
  6
CONTINUOUS
 10
-56.4873602989
 20
28.5117650694
 11
-55.47019826
 21
28.2392173225
  0
LINE
  5
3B9
100
AcDbEntity
  8
DRAFT
100
AcDbLine
 62
7
  6
CONTINUOUS
 10
-56.6923361895
 20
28.7674900292
 11
-55.2852144729
 21
28.3904529016
  0
LINE
  5
3BA
100
AcDbEntity
  8
DRAFT
100
AcDbLine
 62
7
  6
CONTINUOUS
 10
-52.4947108013
 20
28.7617650694
 11
-51.4780072548
 21
28.4893401752
  0
LINE
  5
3BB
100
AcDbEntity
  8
DRAFT
100
AcDbLine
 62
7
  6
CONTINUOUS
 10
-52.6983956414
 20
29.0171440932
 11
-51.2929916111
 21
28.6405672183
  0
LINE
  5
3BC
100
AcDbEntity
  8
DRAFT
100
AcDbLine
 62
7
  6
CONTINUOUS
 10
-49.0021461262
 20
29.0117650694
 11
-47.9869045169
 21
28.7397319001
  0
LINE
  5
3BD
100
AcDbEntity
  8
DRAFT
100
AcDbLine
 62
7
  6
CONTINUOUS
 10
-49.1581508963
 20
29.2087314762
 11
-47.843758757
 21
28.8565411639
  0
LINE
  5
3BE
100
AcDbEntity
  8
RACCORDO
100
AcDbLine
 62
7
  6
CONTINUOUS
 10
-73.8413618206
 20
50.7751497634
 11
-74.7324840306
 21
51.2028549972
  0
LINE
  5
3BF
100
AcDbEntity
  8
RACCORDO
100
AcDbLine
 62
253
  6
CONTINUOUS
 10
-73.8413618206
 20
52.1662950108
 11
-73.8422757192
 21
52.1667519253
  0
LINE
  5
3C0
100
AcDbEntity
  8
RACCORDO
100
AcDbLine
 62
253
  6
CONTINUOUS
 10
-73.341437973
 20
52.6662759723
 11
-73.3422757163
 21
52.6666948121
  0
LINE
  5
3C1
100
AcDbEntity
  8
RACCORDO
100
AcDbLine
 62
253
  6
CONTINUOUS
 10
68.3144856388
 20
-54.2503907266
 11
68.6680255672
 21
-54.603930655
  0
LINE
  5
3C2
100
AcDbEntity
  8
DRAFT
100
AcDbLine
 62
7
  6
CONTINUOUS
 10
72.9002122019
 20
-58.4152879614
 11
71.4006374435
 21
-56.915713203
  0
LINE
  5
3C3
100
AcDbEntity
  8
DRAFT
100
AcDbLine
 62
7
  6
CONTINUOUS
 10
72.5854520654
 20
-57.4711034308
 11
72.0300618376
 21
-56.915713203
  0
LINE
  5
3C4
100
AcDbEntity
  8
RACCORDO
100
AcDbLine
 62
7
  6
CONTINUOUS
 10
-2.7592727919
 20
39.2330080811
 11
-2.7408206284
 21
39.1945630694
  0
LINE
  5
3C5
100
AcDbEntity
  8
RACCORDO
100
AcDbLine
 62
7
  6
CONTINUOUS
 10
2.7357426531
 20
31.2905220577
 11
2.7172904896
 21
31.3289670694
  0
LINE
  5
3C6
100
AcDbEntity
  8
SMUSSO
100
AcDbLine
 62
7
  6
CONTINUOUS
 10
1.6934704139
 20
-61.7002276885
 11
1.5595162227
 21
-62.2089538917
  0
LINE
  5
3C7
100
AcDbEntity
  8
SMUSSO
100
AcDbLine
 62
7
  6
CONTINUOUS
 10
40.2829994472
 20
61.7237578273
 11
40.4169536385
 21
62.2324840306
  0
LINE
  5
3C8
100
AcDbEntity
  8
DRAFT
100
AcDbLine
 62
7
  6
CONTINUOUS
 10
34.9882349306
 20
45.9814341614
 11
34.7143628385
 21
44.9593295989
  0
LINE
  5
3C9
100
AcDbEntity
  8
DRAFT
100
AcDbLine
 62
7
  6
CONTINUOUS
 10
35.244696241
 20
46.1891581503
 11
34.8662089424
 21
44.7766243219
  0
LINE
  5
3CA
100
AcDbEntity
  8
DRAFT
100
AcDbLine
 62
7
  6
CONTINUOUS
 10
35.2382349306
 20
42.9909156361
 11
34.9646233577
 21
41.9697833447
  0
LINE
  5
3CB
100
AcDbEntity
  8
DRAFT
100
AcDbLine
 62
7
  6
CONTINUOUS
 10
35.4942061165
 20
43.1968104553
 11
35.1164176609
 21
41.7868847444
  0
LINE
  5
3CC
100
AcDbEntity
  8
DRAFT
100
AcDbLine
 62
7
  6
CONTINUOUS
 10
35.4882349306
 20
39.9998535511
 11
35.2150322862
 21
38.9802474014
  0
LINE
  5
3CD
100
AcDbEntity
  8
DRAFT
100
AcDbLine
 62
7
  6
CONTINUOUS
 10
35.685598929
 20
40.1573421534
 11
35.3323104878
 21
38.8388517411
  0
LINE
  5
3CE
100
AcDbEntity
  8
DRAFT
100
AcDbLine
 62
7
  6
CONTINUOUS
 10
-1.0235563567
 20
-31.2735879367
 11
-1.0554027317
 21
-31.3054369306
  0
LINE
  5
3CF
100
AcDbEntity
  8
DRAFT
100
AcDbLine
 62
7
  6
CONTINUOUS
 10
-74.7324840306
 20
-56.6065462716
 11
-73.8422757192
 21
-56.2378099157
  0
LINE
  5
3D0
100
AcDbEntity
  8
DRAFT
100
AcDbLine
 62
7
  6
CONTINUOUS
 10
-72.6117650694
 20
-55.7281157159
 11
-73.0568353267
 21
-55.9124698527
  0
LINE
  5
3D1
100
AcDbEntity
  8
DRAFT
100
AcDbLine
 62
7
  6
CONTINUOUS
 10
26.6611482589
 20
30.1676895122
 11
25.3426578466
 21
29.814401071
  0
LINE
  5
3D2
100
AcDbEntity
  8
DRAFT
100
AcDbLine
 62
7
  6
CONTINUOUS
 10
26.5197525986
 20
30.2849677138
 11
25.5001464489
 21
30.0117650694
  0
LINE
  5
3D3
100
AcDbEntity
  8
DRAFT
100
AcDbLine
 62
7
  6
CONTINUOUS
 10
23.7131152556
 20
30.3835823391
 11
22.3031895447
 21
30.0057938835
  0
LINE
  5
3D4
100
AcDbEntity
  8
DRAFT
100
AcDbLine
 62
7
  6
CONTINUOUS
 10
23.5302166553
 20
30.5353766423
 11
22.5090843639
 21
30.2617650694
  0
LINE
  5
3D5
100
AcDbEntity
  8
DRAFT
100
AcDbLine
 62
7
  6
CONTINUOUS
 10
20.7233756781
 20
30.6337910576
 11
19.3108418497
 21
30.255303759
  0
LINE
  5
3D6
100
AcDbEntity
  8
DRAFT
100
AcDbLine
 62
7
  6
CONTINUOUS
 10
20.5406704011
 20
30.7856371615
 11
19.5185658386
 21
30.5117650694
  0
LINE
  5
3D7
100
AcDbEntity
  8
SMUSSO
100
AcDbLine
 62
7
  6
CONTINUOUS
 10
-75.2324840306
 20
1.5830463615
 11
-74.7237578273
 21
1.7170005528
  0
LINE
  5
3D8
100
AcDbEntity
  8
SMUSSO
100
AcDbLine
 62
7
  6
CONTINUOUS
 10
74.7002276885
 20
1.7170005528
 11
75.2089538917
 21
1.5830463615
  0
LINE
  5
3D9
100
AcDbEntity
  8
DRAFT
100
AcDbLine
 62
7
  6
CONTINUOUS
 10
-22.8653792425
 20
29.8147986626
 11
-24.1797713819
 21
30.1669889749
  0
LINE
  5
3DA
100
AcDbEntity
  8
DRAFT
100
AcDbLine
 62
7
  6
CONTINUOUS
 10
-23.0213840127
 20
30.0117650694
 11
-24.036625622
 21
30.2837982388
  0
LINE
  5
3DB
100
AcDbEntity
  8
DRAFT
100
AcDbLine
 62
7
  6
CONTINUOUS
 10
-19.3251344974
 20
30.0063860456
 11
-20.7305385277
 21
30.3829629206
  0
LINE
  5
3DC
100
AcDbEntity
  8
DRAFT
100
AcDbLine
 62
7
  6
CONTINUOUS
 10
-19.5288193375
 20
30.2617650694
 11
-20.5455228841
 21
30.5341899637
  0
LINE
  5
3DD
100
AcDbEntity
  8
DRAFT
100
AcDbLine
 62
7
  6
CONTINUOUS
 10
-74.7324840306
 20
56.6300764105
 11
-73.8422757192
 21
56.2613400546
  0
LINE
  5
3DE
100
AcDbEntity
  8
DRAFT
100
AcDbLine
 62
7
  6
CONTINUOUS
 10
-72.6117650694
 20
55.7516458548
 11
-73.0568353267
 21
55.9359999916
  0
LINE
  5
3DF
100
AcDbEntity
  8
DRAFT
100
AcDbLine
 62
7
  6
CONTINUOUS
 10
-1.0235563567
 20
31.2971180756
 11
-1.0554027317
 21
31.3289670694
  0
LINE
  5
3E0
100
AcDbEntity
  8
DRAFT
100
AcDbLine
 62
7
  6
CONTINUOUS
 10
34.7156871837
 20
-48.9466681212
 11
34.9882349306
 21
-49.96383016
  0
LINE
  5
3E1
100
AcDbEntity
  8
DRAFT
100
AcDbLine
 62
7
  6
CONTINUOUS
 10
34.8669227627
 20
-48.761684334
 11
35.2439598903
 21
-50.1688060506
  0
LINE
  5
3E2
100
AcDbEntity
  8
DRAFT
100
AcDbLine
 62
7
  6
CONTINUOUS
 10
34.9658100363
 20
-44.9544771159
 11
35.2382349306
 21
-45.9711806625
  0
LINE
  5
3E3
100
AcDbEntity
  8
DRAFT
100
AcDbLine
 62
7
  6
CONTINUOUS
 10
35.1170370794
 20
-44.7694614723
 11
35.4936139544
 21
-46.1748655026
  0
LINE
  5
3E4
100
AcDbEntity
  8
DRAFT
100
AcDbLine
 62
7
  6
CONTINUOUS
 10
35.2162017612
 20
-41.463374378
 11
35.4882349306
 21
-42.4786159873
  0
LINE
  5
3E5
100
AcDbEntity
  8
DRAFT
100
AcDbLine
 62
7
  6
CONTINUOUS
 10
35.3330110251
 20
-41.3202286181
 11
35.6852013374
 21
-42.6346207575
  0
LINE
  5
3E6
100
AcDbEntity
  8
SMUSSO
100
AcDbLine
 62
7
  6
CONTINUOUS
 10
1.5595162227
 20
62.2324840306
 11
1.6934704139
 21
61.7237578273
  0
LINE
  5
3E7
100
AcDbEntity
  8
SMUSSO
100
AcDbLine
 62
7
  6
CONTINUOUS
 10
40.4169536385
 20
-62.2089538917
 11
40.2829994472
 21
-61.7002276885
  0
LINE
  5
3E8
100
AcDbEntity
  8
DRAFT
100
AcDbLine
 62
7
  6
CONTINUOUS
 10
13.3929653202
 20
-63.6331119695
 11
13.2882349306
 21
-64.1580439506
  0
LINE
  5
3E9
100
AcDbEntity
  8
RACCORDO
100
AcDbLine
 62
7
  6
CONTINUOUS
 10
13.0929653202
 20
-68.3184259105
 11
12.9968101466
 21
-68.8003770038
  0
LINE
  5
3EA
100
AcDbEntity
  8
DRAFT
100
AcDbLine
 62
7
  6
CONTINUOUS
 10
36.2908709322
 20
18.8661879854
 11
36.6441593733
 21
20.1846783977
  0
LINE
  5
3EB
100
AcDbEntity
  8
DRAFT
100
AcDbLine
 62
7
  6
CONTINUOUS
 10
36.4882349306
 20
19.0236765877
 11
36.761437575
 21
20.0432827375
  0
LINE
  5
3EC
100
AcDbEntity
  8
DRAFT
100
AcDbLine
 62
7
  6
CONTINUOUS
 10
36.4822637446
 20
15.8267196835
 11
36.8600522003
 21
17.2366453944
  0
LINE
  5
3ED
100
AcDbEntity
  8
DRAFT
100
AcDbLine
 62
7
  6
CONTINUOUS
 10
36.7382349306
 20
16.0326145027
 11
37.0118465034
 21
17.0537467941
  0
LINE
  5
3EE
100
AcDbEntity
  8
DRAFT
100
AcDbLine
 62
7
  6
CONTINUOUS
 10
36.7317736201
 20
12.8343719885
 11
37.1102609187
 21
14.246905817
  0
LINE
  5
3EF
100
AcDbEntity
  8
DRAFT
100
AcDbLine
 62
7
  6
CONTINUOUS
 10
36.9882349306
 20
13.0420959774
 11
37.2621070227
 21
14.0642005399
  0
LINE
  5
3F0
100
AcDbEntity
  8
DRAFT
100
AcDbLine
 62
7
  6
CONTINUOUS
 10
10.9355040008
 20
-63.6331119695
 11
9.0391295719
 21
-68.8433578917
  0
LINE
  5
3F1
100
AcDbEntity
  8
DRAFT
100
AcDbLine
 62
7
  6
CONTINUOUS
 10
8.4404432907
 20
-70.4882349306
 11
8.0764730565
 21
-71.4882349306
  0
LINE
  5
3F2
100
AcDbEntity
  8
RACCORDO
100
AcDbLine
 62
7
  6
CONTINUOUS
 10
63.8016196246
 20
60.8413618206
 11
64.2293248583
 21
61.7324840306
  0
LINE
  5
3F3
100
AcDbEntity
  8
RACCORDO
100
AcDbLine
 62
253
  6
CONTINUOUS
 10
65.142764872
 20
60.8413618206
 11
65.1432217865
 21
60.8422757192
  0
LINE
  5
3F4
100
AcDbEntity
  8
RACCORDO
100
AcDbLine
 62
253
  6
CONTINUOUS
 10
65.6427458335
 20
60.341437973
 11
65.6431646733
 21
60.3422757163
  0
LINE
  5
3F5
100
AcDbEntity
  8
0
100
AcDbLine
 62
7
  6
CONTINUOUS
 10
70.0110785373
 20
57.3641936957
 11
70.2725003406
 21
57.7904080089
  0
LINE
  5
3F6
100
AcDbEntity
  8
RACCORDO
100
AcDbLine
 62
7
  6
CONTINUOUS
 10
-21.8396520279
 20
-60.8178316817
 11
-22.6771204859
 21
-61.6553001398
  0
LINE
  5
3F7
100
AcDbEntity
  8
DRAFT
100
AcDbLine
 62
7
  6
CONTINUOUS
 10
1.0554369306
 20
-39.1710329306
 11
1.0117992682
 21
-39.2146705929
  0
LINE
  5
3F8
100
AcDbEntity
  8
RACCORDO
100
AcDbLine
 62
7
  6
CONTINUOUS
 10
-66.1117650694
 20
-57.8440536726
 11
-65.644839565
 21
-57.650646796
  0
LINE
  5
3F9
100
AcDbEntity
  8
DRAFT
100
AcDbLine
 62
7
  6
CONTINUOUS
 10
-16.5533318788
 20
28.2392173225
 11
-15.53616984
 21
28.5117650694
  0
LINE
  5
3FA
100
AcDbEntity
  8
DRAFT
100
AcDbLine
 62
7
  6
CONTINUOUS
 10
-16.738315666
 20
28.3904529016
 11
-15.3311939494
 21
28.7674900292
  0
LINE
  5
3FB
100
AcDbEntity
  8
DRAFT
100
AcDbLine
 62
7
  6
CONTINUOUS
 10
3.4882349306
 20
31.2617650694
 11
0.9882349306
 21
31.2617650694
  0
LINE
  5
3FC
100
AcDbEntity
  8
DRAFT
100
AcDbLine
 62
7
  6
CONTINUOUS
 10
-1.0117650694
 20
31.2617650694
 11
-3.5117650694
 21
31.2617650694
  0
LINE
  5
3FD
100
AcDbEntity
  8
DRAFT
100
AcDbLine
 62
7
  6
CONTINUOUS
 10
2.7172904896
 20
31.3289670694
 11
1.0318725929
 21
31.3289670694
  0
LINE
  5
3FE
100
AcDbEntity
  8
DRAFT
100
AcDbLine
 62
7
  6
CONTINUOUS
 10
-1.0554027317
 20
31.3289670694
 11
-2.7408206284
 21
31.3289670694
  0
LINE
  5
3FF
100
AcDbEntity
  8
DRAFT
100
AcDbLine
 62
7
  6
CONTINUOUS
 10
-15.3311939494
 20
30.2560401097
 11
-16.738315666
 21
30.6330772373
  0
LINE
  5
400
100
AcDbEntity
  8
DRAFT
100
AcDbLine
 62
7
  6
CONTINUOUS
 10
-15.53616984
 20
30.5117650694
 11
-16.5533318788
 21
30.7843128163
  0
LINE
  5
401
100
AcDbEntity
  8
RACCORDO
100
AcDbLine
 62
7
  6
CONTINUOUS
 10
-66.1117650694
 20
57.8675838114
 11
-65.644839565
 21
57.6741769349
  0
LINE
  5
402
100
AcDbEntity
  8
RACCORDO
100
AcDbLine
 62
7
  6
CONTINUOUS
 10
-21.8396520279
 20
60.8413618206
 11
-22.6771204859
 21
61.6788302786
  0
LINE
  5
403
100
AcDbEntity
  8
DRAFT
100
AcDbLine
 62
7
  6
CONTINUOUS
 10
1.0554369306
 20
39.1945630694
 11
1.0117992682
 21
39.2382007318
  0
LINE
  5
404
100
AcDbEntity
  8
RACCORDO
100
AcDbLine
 62
253
  6
CONTINUOUS
 10
65.1432217865
 20
-60.8187455804
 11
65.142764872
 21
-60.8178316817
  0
LINE
  5
405
100
AcDbEntity
  8
RACCORDO
100
AcDbLine
 62
253
  6
CONTINUOUS
 10
65.6431646733
 20
-60.3187455775
 11
65.6427458335
 21
-60.3179078341
  0
LINE
  5
406
100
AcDbEntity
  8
RACCORDO
100
AcDbLine
 62
7
  6
CONTINUOUS
 10
63.8016196246
 20
-60.8178316817
 11
64.2293248583
 21
-61.7089538917
  0
LINE
  5
407
100
AcDbEntity
  8
DRAFT
100
AcDbLine
 62
7
  6
CONTINUOUS
 10
10.9355040008
 20
63.6566421083
 11
9.0391295719
 21
68.8668880305
  0
LINE
  5
408
100
AcDbEntity
  8
DRAFT
100
AcDbLine
 62
7
  6
CONTINUOUS
 10
8.4404432907
 20
70.5117650694
 11
8.0764730565
 21
71.5117650694
  0
LINE
  5
409
100
AcDbEntity
  8
DRAFT
100
AcDbLine
 62
7
  6
CONTINUOUS
 10
36.6434588361
 20
-17.656241243
 11
36.2912685238
 21
-16.3418491037
  0
LINE
  5
40A
100
AcDbEntity
  8
DRAFT
100
AcDbLine
 62
7
  6
CONTINUOUS
 10
36.7602680999
 20
-17.5130954831
 11
36.4882349306
 21
-16.4978538738
  0
LINE
  5
40B
100
AcDbEntity
  8
DRAFT
100
AcDbLine
 62
7
  6
CONTINUOUS
 10
36.8594327817
 20
-14.2070083889
 11
36.4828559068
 21
-12.8016043586
  0
LINE
  5
40C
100
AcDbEntity
  8
DRAFT
100
AcDbLine
 62
7
  6
CONTINUOUS
 10
37.0106598248
 20
-14.0219927452
 11
36.7382349306
 21
-13.0052891987
  0
LINE
  5
40D
100
AcDbEntity
  8
DRAFT
100
AcDbLine
 62
7
  6
CONTINUOUS
 10
13.2882349306
 20
64.1815740895
 11
13.3929653202
 21
63.6566421083
  0
LINE
  5
40E
100
AcDbEntity
  8
RACCORDO
100
AcDbLine
 62
7
  6
CONTINUOUS
 10
12.9968101466
 20
68.8239071426
 11
13.0929653202
 21
68.3419560494
  0
LINE
  5
40F
100
AcDbEntity
  8
DRAFT
100
AcDbLine
 62
7
  6
CONTINUOUS
 10
34.9882349306
 20
-9.0126397011
 11
34.7156871837
 21
-10.02980174
  0
LINE
  5
410
100
AcDbEntity
  8
DRAFT
100
AcDbLine
 62
7
  6
CONTINUOUS
 10
35.2439598903
 20
-8.8076638105
 11
34.8669227627
 21
-10.2147855271
  0
LINE
  5
411
100
AcDbEntity
  8
DRAFT
100
AcDbLine
 62
7
  6
CONTINUOUS
 10
35.2382349306
 20
-13.0052891987
 11
34.9658100363
 21
-14.0219927452
  0
LINE
  5
412
100
AcDbEntity
  8
DRAFT
100
AcDbLine
 62
7
  6
CONTINUOUS
 10
35.4936139544
 20
-12.8016043586
 11
35.1170370794
 21
-14.2070083889
  0
LINE
  5
413
100
AcDbEntity
  8
DRAFT
100
AcDbLine
 62
7
  6
CONTINUOUS
 10
35.4882349306
 20
-16.4978538738
 11
35.2162017612
 21
-17.5130954831
  0
LINE
  5
414
100
AcDbEntity
  8
DRAFT
100
AcDbLine
 62
7
  6
CONTINUOUS
 10
35.6852013374
 20
-16.3418491037
 11
35.3330110251
 21
-17.656241243
  0
LINE
  5
415
100
AcDbEntity
  8
DRAFT
100
AcDbLine
 62
7
  6
CONTINUOUS
 10
-13.416495459
 20
-68.8433578917
 11
-13.5613724979
 21
-68.9882349306
  0
LINE
  5
416
100
AcDbEntity
  8
RACCORDO
100
AcDbLine
 62
7
  6
CONTINUOUS
 10
73.8178316817
 20
17.4896520279
 11
74.6553001398
 21
18.3271204859
  0
LINE
  5
417
100
AcDbEntity
  8
DRAFT
100
AcDbLine
 62
7
  6
CONTINUOUS
 10
-70.4946335696
 20
-59.5854520654
 11
-71.4388181003
 21
-59.9002122019
  0
LINE
  5
418
100
AcDbEntity
  8
DRAFT
100
AcDbLine
 62
7
  6
CONTINUOUS
 10
-20.5455228841
 20
28.4893401752
 11
-19.5288193375
 21
28.7617650694
  0
LINE
  5
419
100
AcDbEntity
  8
DRAFT
100
AcDbLine
 62
7
  6
CONTINUOUS
 10
-20.7305385277
 20
28.6405672183
 11
-19.3251344974
 21
29.0171440932
  0
LINE
  5
41A
100
AcDbEntity
  8
DRAFT
100
AcDbLine
 62
7
  6
CONTINUOUS
 10
-24.036625622
 20
28.7397319001
 11
-23.0213840127
 21
29.0117650694
  0
LINE
  5
41B
100
AcDbEntity
  8
DRAFT
100
AcDbLine
 62
7
  6
CONTINUOUS
 10
-24.1797713819
 20
28.8565411639
 11
-22.8653792425
 21
29.2087314762
  0
LINE
  5
41C
100
AcDbEntity
  8
ASSI
100
AcDbLine
 62
7
  6
CONTINUOUS
 10
-16.0117650694
 20
33.5117650694
 11
-15.9117650694
 21
33.5117650694
  0
LINE
  5
41D
100
AcDbEntity
  8
DRAFT
100
AcDbLine
 62
7
  6
CONTINUOUS
 10
-2.7408206284
 20
39.1945630694
 11
-1.0789670694
 21
39.1945630694
  0
LINE
  5
41E
100
AcDbEntity
  8
DRAFT
100
AcDbLine
 62
7
  6
CONTINUOUS
 10
2.7172904896
 20
39.1945630694
 11
1.0554369306
 21
39.1945630694
  0
LINE
  5
41F
100
AcDbEntity
  8
DRAFT
100
AcDbLine
 62
7
  6
CONTINUOUS
 10
-3.5117650694
 20
39.2617650694
 11
-1.0117650694
 21
39.2617650694
  0
LINE
  5
420
100
AcDbEntity
  8
DRAFT
100
AcDbLine
 62
7
  6
CONTINUOUS
 10
0.9882349306
 20
39.2617650694
 11
3.4882349306
 21
39.2617650694
  0
LINE
  5
421
100
AcDbEntity
  8
DRAFT
100
AcDbLine
 62
7
  6
CONTINUOUS
 10
19.5185658386
 20
28.5117650694
 11
20.5406704011
 21
28.2378929773
  0
LINE
  5
422
100
AcDbEntity
  8
DRAFT
100
AcDbLine
 62
7
  6
CONTINUOUS
 10
19.3108418497
 20
28.7682263799
 11
20.7233756781
 21
28.3897390813
  0
LINE
  5
423
100
AcDbEntity
  8
DRAFT
100
AcDbLine
 62
7
  6
CONTINUOUS
 10
22.5090843639
 20
28.7617650694
 11
23.5302166553
 21
28.4881534966
  0
LINE
  5
424
100
AcDbEntity
  8
DRAFT
100
AcDbLine
 62
7
  6
CONTINUOUS
 10
22.3031895447
 20
29.0177362554
 11
23.7131152556
 21
28.6399477997
  0
LINE
  5
425
100
AcDbEntity
  8
DRAFT
100
AcDbLine
 62
7
  6
CONTINUOUS
 10
25.5001464489
 20
29.0117650694
 11
26.5197525986
 21
28.738562425
  0
LINE
  5
426
100
AcDbEntity
  8
DRAFT
100
AcDbLine
 62
7
  6
CONTINUOUS
 10
25.3426578466
 20
29.2091290678
 11
26.6611482589
 21
28.8558406267
  0
LINE
  5
427
100
AcDbEntity
  8
DRAFT
100
AcDbLine
 62
7
  6
CONTINUOUS
 10
-70.4946335696
 20
59.6089822042
 11
-71.4388181003
 21
59.9237423408
  0
LINE
  5
428
100
AcDbEntity
  8
DRAFT
100
AcDbLine
 62
7
  6
CONTINUOUS
 10
-13.5613724979
 20
69.0117650694
 11
-13.416495459
 21
68.8668880305
  0
LINE
  5
429
100
AcDbEntity
  8
RACCORDO
100
AcDbLine
 62
7
  6
CONTINUOUS
 10
73.8178316817
 20
-17.466121889
 11
74.6553001398
 21
-18.3035903471
  0
LINE
  5
42A
100
AcDbEntity
  8
DRAFT
100
AcDbLine
 62
7
  6
CONTINUOUS
 10
37.1095470984
 20
-10.2147855271
 11
36.7325099708
 21
-8.8076638105
  0
LINE
  5
42B
100
AcDbEntity
  8
DRAFT
100
AcDbLine
 62
7
  6
CONTINUOUS
 10
37.2607826775
 20
-10.02980174
 11
36.9882349306
 21
-9.0126397011
  0
LINE
  5
42C
100
AcDbEntity
  8
DRAFT
100
AcDbLine
 62
7
  6
CONTINUOUS
 10
34.7143628385
 20
14.0642005399
 11
34.9882349306
 21
13.0420959774
  0
LINE
  5
42D
100
AcDbEntity
  8
DRAFT
100
AcDbLine
 62
7
  6
CONTINUOUS
 10
34.8662089424
 20
14.246905817
 11
35.244696241
 21
12.8343719885
  0
LINE
  5
42E
100
AcDbEntity
  8
DRAFT
100
AcDbLine
 62
7
  6
CONTINUOUS
 10
34.9646233577
 20
17.0537467941
 11
35.2382349306
 21
16.0326145027
  0
LINE
  5
42F
100
AcDbEntity
  8
DRAFT
100
AcDbLine
 62
7
  6
CONTINUOUS
 10
35.1164176609
 20
17.2366453944
 11
35.4942061165
 21
15.8267196835
  0
LINE
  5
430
100
AcDbEntity
  8
DRAFT
100
AcDbLine
 62
7
  6
CONTINUOUS
 10
35.2150322862
 20
20.0432827375
 11
35.4882349306
 21
19.0236765877
  0
LINE
  5
431
100
AcDbEntity
  8
DRAFT
100
AcDbLine
 62
7
  6
CONTINUOUS
 10
35.3323104878
 20
20.1846783977
 11
35.685598929
 21
18.8661879854
  0
LINE
  5
432
100
AcDbEntity
  8
DRAFT
100
AcDbLine
 62
7
  6
CONTINUOUS
 10
36.2912685238
 20
-42.6346207575
 11
36.6434588361
 21
-41.3202286181
  0
LINE
  5
433
100
AcDbEntity
  8
DRAFT
100
AcDbLine
 62
7
  6
CONTINUOUS
 10
36.4882349306
 20
-42.4786159873
 11
36.7602680999
 21
-41.463374378
  0
LINE
  5
434
100
AcDbEntity
  8
DRAFT
100
AcDbLine
 62
7
  6
CONTINUOUS
 10
36.4828559068
 20
-46.1748655026
 11
36.8594327817
 21
-44.7694614723
  0
LINE
  5
435
100
AcDbEntity
  8
DRAFT
100
AcDbLine
 62
7
  6
CONTINUOUS
 10
36.7382349306
 20
-45.9711806625
 11
37.0106598248
 21
-44.9544771159
  0
LINE
  5
436
100
AcDbEntity
  8
DRAFT
100
AcDbLine
 62
7
  6
CONTINUOUS
 10
69.6065462716
 20
61.7324840306
 11
69.2378099157
 21
60.8422757192
  0
LINE
  5
437
100
AcDbEntity
  8
DRAFT
100
AcDbLine
 62
7
  6
CONTINUOUS
 10
68.7281157159
 20
59.6117650694
 11
68.9124698527
 21
60.0568353267
  0
LINE
  5
438
100
AcDbEntity
  8
RACCORDO
100
AcDbLine
 62
7
  6
CONTINUOUS
 10
70.8440536726
 20
53.1117650694
 11
70.650646796
 21
52.644839565
  0
LINE
  5
439
100
AcDbEntity
  8
DRAFT
100
AcDbLine
 62
7
  6
CONTINUOUS
 10
-47.843758757
 20
30.1669889749
 11
-49.1581508963
 21
29.8147986626
  0
LINE
  5
43A
100
AcDbEntity
  8
DRAFT
100
AcDbLine
 62
7
  6
CONTINUOUS
 10
-47.9869045169
 20
30.2837982388
 11
-49.0021461262
 21
30.0117650694
  0
LINE
  5
43B
100
AcDbEntity
  8
DRAFT
100
AcDbLine
 62
7
  6
CONTINUOUS
 10
-51.2929916111
 20
30.3829629206
 11
-52.6983956414
 21
30.0063860456
  0
LINE
  5
43C
100
AcDbEntity
  8
DRAFT
100
AcDbLine
 62
7
  6
CONTINUOUS
 10
-51.4780072548
 20
30.5341899637
 11
-52.4947108013
 21
30.2617650694
  0
LINE
  5
43D
100
AcDbEntity
  8
DRAFT
100
AcDbLine
 62
7
  6
CONTINUOUS
 10
-55.2852144729
 20
30.6330772373
 11
-56.6923361895
 21
30.2560401097
  0
LINE
  5
43E
100
AcDbEntity
  8
DRAFT
100
AcDbLine
 62
7
  6
CONTINUOUS
 10
-55.47019826
 20
30.7843128163
 11
-56.4873602989
 21
30.5117650694
  0
LINE
  5
43F
100
AcDbEntity
  8
DRAFT
100
AcDbLine
 62
7
  6
CONTINUOUS
 10
46.6338120146
 20
29.814401071
 11
45.3153216023
 21
30.1676895122
  0
LINE
  5
440
100
AcDbEntity
  8
DRAFT
100
AcDbLine
 62
7
  6
CONTINUOUS
 10
46.4763234123
 20
30.0117650694
 11
45.4567172625
 21
30.2849677138
  0
LINE
  5
441
100
AcDbEntity
  8
DRAFT
100
AcDbLine
 62
7
  6
CONTINUOUS
 10
49.6732803165
 20
30.0057938835
 11
48.2633546056
 21
30.3835823391
  0
LINE
  5
442
100
AcDbEntity
  8
DRAFT
100
AcDbLine
 62
7
  6
CONTINUOUS
 10
49.4673854973
 20
30.2617650694
 11
48.4462532059
 21
30.5353766423
  0
LINE
  5
443
100
AcDbEntity
  8
DRAFT
100
AcDbLine
 62
7
  6
CONTINUOUS
 10
52.6656280115
 20
30.255303759
 11
51.253094183
 21
30.6337910576
  0
LINE
  5
444
100
AcDbEntity
  8
DRAFT
100
AcDbLine
 62
7
  6
CONTINUOUS
 10
52.4579040226
 20
30.5117650694
 11
51.4357994601
 21
30.7856371615
  0
LINE
  5
445
100
AcDbEntity
  8
DRAFT
100
AcDbLine
 62
7
  6
CONTINUOUS
 10
69.6065462716
 20
-61.7089538917
 11
69.2378099157
 21
-60.8187455804
  0
LINE
  5
446
100
AcDbEntity
  8
DRAFT
100
AcDbLine
 62
7
  6
CONTINUOUS
 10
68.7281157159
 20
-59.5882349306
 11
68.9124698527
 21
-60.0333051879
  0
LINE
  5
447
100
AcDbEntity
  8
RACCORDO
100
AcDbLine
 62
7
  6
CONTINUOUS
 10
70.8440536726
 20
-53.0882349306
 11
70.650646796
 21
-52.6213094261
  0
LINE
  5
448
100
AcDbEntity
  8
DRAFT
100
AcDbLine
 62
7
  6
CONTINUOUS
 10
36.6441593733
 20
38.8388517411
 11
36.2908709322
 21
40.1573421534
  0
LINE
  5
449
100
AcDbEntity
  8
DRAFT
100
AcDbLine
 62
7
  6
CONTINUOUS
 10
36.761437575
 20
38.9802474014
 11
36.4882349306
 21
39.9998535511
  0
LINE
  5
44A
100
AcDbEntity
  8
DRAFT
100
AcDbLine
 62
7
  6
CONTINUOUS
 10
36.8600522003
 20
41.7868847444
 11
36.4822637446
 21
43.1968104553
  0
LINE
  5
44B
100
AcDbEntity
  8
DRAFT
100
AcDbLine
 62
7
  6
CONTINUOUS
 10
37.0118465034
 20
41.9697833447
 11
36.7382349306
 21
42.9909156361
  0
LINE
  5
44C
100
AcDbEntity
  8
DRAFT
100
AcDbLine
 62
7
  6
CONTINUOUS
 10
37.1102609187
 20
44.7766243219
 11
36.7317736201
 21
46.1891581503
  0
LINE
  5
44D
100
AcDbEntity
  8
DRAFT
100
AcDbLine
 62
7
  6
CONTINUOUS
 10
37.2621070227
 20
44.9593295989
 11
36.9882349306
 21
45.9814341614
  0
LINE
  5
44E
100
AcDbEntity
  8
DRAFT
100
AcDbLine
 62
7
  6
CONTINUOUS
 10
36.7325099708
 20
-50.1688060506
 11
37.1095470984
 21
-48.761684334
  0
LINE
  5
44F
100
AcDbEntity
  8
DRAFT
100
AcDbLine
 62
7
  6
CONTINUOUS
 10
36.9882349306
 20
-49.96383016
 11
37.2607826775
 21
-48.9466681212
  0
LINE
  5
450
100
AcDbEntity
  8
DRAFT
100
AcDbLine
 62
7
  6
CONTINUOUS
 10
72.5854520654
 20
57.4946335696
 11
72.9002122019
 21
58.4388181003
  0
LINE
  5
451
100
AcDbEntity
  8
DRAFT
100
AcDbLine
 62
7
  6
CONTINUOUS
 10
13.5378423591
 20
-63.4882349306
 11
13.3929653202
 21
-63.6331119695
  0
LINE
  5
452
100
AcDbEntity
  8
SMUSSO
100
AcDbLine
 62
7
  6
CONTINUOUS
 10
-75.2324840306
 20
34.8830463615
 11
-74.7237578273
 21
35.0170005528
  0
LINE
  5
453
100
AcDbEntity
  8
RACCORDO
100
AcDbLine
 62
253
  6
CONTINUOUS
 10
82.4357174078
 20
48.5117650694
 11
83.4882349306
 21
48.5117650694
  0
LINE
  5
454
100
AcDbEntity
  8
RACCORDO
100
AcDbLine
 62
253
  6
CONTINUOUS
 10
-82.4592475466
 20
48.5117650694
 11
-83.5117650694
 21
48.5117650694
  0
LINE
  5
455
100
AcDbEntity
  8
RACCORDO
100
AcDbLine
 62
253
  6
CONTINUOUS
 10
70.8182885963
 20
52.1448586034
 11
70.4435479008
 21
52.1448586034
  0
LINE
  5
456
100
AcDbEntity
  8
RACCORDO
100
AcDbLine
 62
253
  6
CONTINUOUS
 10
-70.4670780397
 20
52.1448586034
 11
-70.8418187351
 21
52.1448586034
  0
LINE
  5
457
100
AcDbEntity
  8
RACCORDO
100
AcDbLine
 62
7
  6
CONTINUOUS
 10
70.8182885963
 20
52.644839565
 11
70.650646796
 21
52.644839565
  0
LINE
  5
458
100
AcDbEntity
  8
RACCORDO
100
AcDbLine
 62
7
  6
CONTINUOUS
 10
-70.6741769349
 20
52.644839565
 11
-70.8418187351
 21
52.644839565
  0
LINE
  5
459
100
AcDbEntity
  8
RACCORDO
100
AcDbLine
 62
7
  6
CONTINUOUS
 10
-73.3422757163
 20
52.6666948121
 11
-73.0568353267
 21
52.6666948121
  0
LINE
  5
45A
100
AcDbEntity
  8
RACCORDO
100
AcDbLine
 62
7
  6
CONTINUOUS
 10
73.0333051879
 20
52.6666948121
 11
73.3187455775
 21
52.6666948121
  0
LINE
  5
45B
100
AcDbEntity
  8
DRAFT
100
AcDbLine
 62
7
  6
CONTINUOUS
 10
-72.6117650694
 20
53.1117650694
 11
-70.8675838114
 21
53.1117650694
  0
LINE
  5
45C
100
AcDbEntity
  8
DRAFT
100
AcDbLine
 62
7
  6
CONTINUOUS
 10
70.8440536726
 20
53.1117650694
 11
72.5882349306
 21
53.1117650694
  0
LINE
  5
45D
100
AcDbEntity
  8
SMUSSO
100
AcDbLine
 62
7
  6
CONTINUOUS
 10
74.7002276885
 20
35.0170005528
 11
75.2089538917
 21
34.8830463615
  0
LINE
  5
45E
100
AcDbEntity
  8
DRAFT
100
AcDbLine
 62
7
  6
CONTINUOUS
 10
13.3929653202
 20
63.6566421083
 11
13.5378423591
 21
63.5117650694
  0
LINE
  5
45F
100
AcDbEntity
  8
DRAFT
100
AcDbLine
 62
7
  6
CONTINUOUS
 10
72.5854520654
 20
-57.4711034308
 11
72.9002122019
 21
-58.4152879614
  0
LINE
  5
460
100
AcDbEntity
  8
RACCORDO
100
AcDbLine
 62
253
  6
CONTINUOUS
 10
61.4882349306
 20
-69.4357174078
 11
61.4882349306
 21
-70.4882349306
  0
LINE
  5
461
100
AcDbEntity
  8
RACCORDO
100
AcDbLine
 62
253
  6
CONTINUOUS
 10
61.4882349306
 20
69.4592475466
 11
61.4882349306
 21
70.5117650694
  0
LINE
  5
462
100
AcDbEntity
  8
SMUSSO
100
AcDbLine
 62
7
  6
CONTINUOUS
 10
43.6934704139
 20
-61.7002276885
 11
43.5595162227
 21
-62.2089538917
  0
LINE
  5
463
100
AcDbEntity
  8
RACCORDO
100
AcDbLine
 62
7
  6
CONTINUOUS
 10
20.1603479721
 20
-60.8178316817
 11
19.3228795141
 21
-61.6553001398
  0
LINE
  5
464
100
AcDbEntity
  8
RACCORDO
100
AcDbLine
 62
7
  6
CONTINUOUS
 10
73.8178316817
 20
-15.8103479721
 11
74.6553001398
 21
-14.9728795141
  0
LINE
  5
465
100
AcDbEntity
  8
SMUSSO
100
AcDbLine
 62
7
  6
CONTINUOUS
 10
39.9882349306
 20
61.7045559267
 11
40.2829994472
 21
61.7237578273
  0
LINE
  5
466
100
AcDbEntity
  8
SMUSSO
100
AcDbLine
 62
7
  6
CONTINUOUS
 10
-2.0117650694
 20
61.7045559267
 11
-1.7170005528
 21
61.7237578273
  0
LINE
  5
467
100
AcDbEntity
  8
DRAFT
100
AcDbLine
 62
7
  6
CONTINUOUS
 10
71.4006374435
 20
56.9392433419
 11
72.0300618376
 21
56.9392433419
  0
LINE
  5
468
100
AcDbEntity
  8
DRAFT
100
AcDbLine
 62
7
  6
CONTINUOUS
 10
-71.4241675823
 20
56.9392433419
 11
-72.0535919765
 21
56.9392433419
  0
LINE
  5
469
100
AcDbEntity
  8
RACCORDO
100
AcDbLine
 62
253
  6
CONTINUOUS
 10
65.6213094261
 20
57.8418187351
 11
-65.644839565
 21
57.8418187351
  0
LINE
  5
46A
100
AcDbEntity
  8
DRAFT
100
AcDbLine
 62
7
  6
CONTINUOUS
 10
68.7281157159
 20
59.6117650694
 11
66.0882349306
 21
59.6117650694
  0
LINE
  5
46B
100
AcDbEntity
  8
DRAFT
100
AcDbLine
 62
7
  6
CONTINUOUS
 10
-66.1117650694
 20
59.6117650694
 11
-68.7516458548
 21
59.6117650694
  0
LINE
  5
46C
100
AcDbEntity
  8
DRAFT
100
AcDbLine
 62
7
  6
CONTINUOUS
 10
68.9124698527
 20
60.0568353267
 11
65.6431646733
 21
60.0568353267
  0
LINE
  5
46D
100
AcDbEntity
  8
DRAFT
100
AcDbLine
 62
7
  6
CONTINUOUS
 10
-65.6666948121
 20
60.0568353267
 11
-68.9359999916
 21
60.0568353267
  0
LINE
  5
46E
100
AcDbEntity
  8
RACCORDO
100
AcDbLine
 62
7
  6
CONTINUOUS
 10
-63.8117650694
 20
60.3473126984
 11
-62.2117650694
 21
60.3473126984
  0
LINE
  5
46F
100
AcDbEntity
  8
RACCORDO
100
AcDbLine
 62
7
  6
CONTINUOUS
 10
-21.8117650694
 20
60.3473126984
 11
-20.2117650694
 21
60.3473126984
  0
LINE
  5
470
100
AcDbEntity
  8
RACCORDO
100
AcDbLine
 62
7
  6
CONTINUOUS
 10
20.1882349306
 20
60.3473126984
 11
21.7882349306
 21
60.3473126984
  0
LINE
  5
471
100
AcDbEntity
  8
RACCORDO
100
AcDbLine
 62
7
  6
CONTINUOUS
 10
62.1882349306
 20
60.3473126984
 11
63.7882349306
 21
60.3473126984
  0
LINE
  5
472
100
AcDbEntity
  8
RACCORDO
100
AcDbLine
 62
253
  6
CONTINUOUS
 10
65.142764872
 20
60.8413618206
 11
63.8016196246
 21
60.8413618206
  0
LINE
  5
473
100
AcDbEntity
  8
RACCORDO
100
AcDbLine
 62
253
  6
CONTINUOUS
 10
62.1603479721
 20
60.8413618206
 11
21.816121889
 21
60.8413618206
  0
LINE
  5
474
100
AcDbEntity
  8
RACCORDO
100
AcDbLine
 62
253
  6
CONTINUOUS
 10
20.1603479721
 20
60.8413618206
 11
-20.183878111
 21
60.8413618206
  0
LINE
  5
475
100
AcDbEntity
  8
RACCORDO
100
AcDbLine
 62
253
  6
CONTINUOUS
 10
-21.8396520279
 20
60.8413618206
 11
-62.183878111
 21
60.8413618206
  0
LINE
  5
476
100
AcDbEntity
  8
RACCORDO
100
AcDbLine
 62
253
  6
CONTINUOUS
 10
-63.8251497634
 20
60.8413618206
 11
-65.1662950108
 21
60.8413618206
  0
LINE
  5
477
100
AcDbEntity
  8
RACCORDO
100
AcDbLine
 62
7
  6
CONTINUOUS
 10
-69.2613400546
 20
60.8422757192
 11
-65.1667519253
 21
60.8422757192
  0
LINE
  5
478
100
AcDbEntity
  8
RACCORDO
100
AcDbLine
 62
7
  6
CONTINUOUS
 10
65.1432217865
 20
60.8422757192
 11
69.2378099157
 21
60.8422757192
  0
LINE
  5
479
100
AcDbEntity
  8
RACCORDO
100
AcDbLine
 62
7
  6
CONTINUOUS
 10
59.8231079713
 20
61.7045559267
 11
43.9882349306
 21
61.7045559267
  0
LINE
  5
47A
100
AcDbEntity
  8
RACCORDO
100
AcDbLine
 62
7
  6
CONTINUOUS
 10
39.9882349306
 20
61.7045559267
 11
24.1533618898
 21
61.7045559267
  0
LINE
  5
47B
100
AcDbEntity
  8
RACCORDO
100
AcDbLine
 62
7
  6
CONTINUOUS
 10
17.8231079713
 20
61.7045559267
 11
1.9882349306
 21
61.7045559267
  0
LINE
  5
47C
100
AcDbEntity
  8
RACCORDO
100
AcDbLine
 62
7
  6
CONTINUOUS
 10
-2.0117650694
 20
61.7045559267
 11
-17.8466381102
 21
61.7045559267
  0
LINE
  5
47D
100
AcDbEntity
  8
RACCORDO
100
AcDbLine
 62
7
  6
CONTINUOUS
 10
-24.1768920287
 20
61.7045559267
 11
-40.0117650694
 21
61.7045559267
  0
LINE
  5
47E
100
AcDbEntity
  8
RACCORDO
100
AcDbLine
 62
7
  6
CONTINUOUS
 10
-44.0117650694
 20
61.7045559267
 11
-59.8466381102
 21
61.7045559267
  0
LINE
  5
47F
100
AcDbEntity
  8
SMUSSO
100
AcDbLine
 62
7
  6
CONTINUOUS
 10
43.6934704139
 20
61.7237578273
 11
40.2829994472
 21
61.7237578273
  0
LINE
  5
480
100
AcDbEntity
  8
SMUSSO
100
AcDbLine
 62
7
  6
CONTINUOUS
 10
1.6934704139
 20
61.7237578273
 11
-1.7170005528
 21
61.7237578273
  0
LINE
  5
481
100
AcDbEntity
  8
SMUSSO
100
AcDbLine
 62
7
  6
CONTINUOUS
 10
-40.3065295861
 20
61.7237578273
 11
-43.7170005528
 21
61.7237578273
  0
LINE
  5
482
100
AcDbEntity
  8
DRAFT
100
AcDbLine
 62
7
  6
CONTINUOUS
 10
-69.6300764105
 20
61.7324840306
 11
-64.2528549972
 21
61.7324840306
  0
LINE
  5
483
100
AcDbEntity
  8
SMUSSO
100
AcDbLine
 62
7
  6
CONTINUOUS
 10
-64.2528549972
 20
61.7324840306
 11
-43.7170005528
 21
61.7324840306
  0
LINE
  5
484
100
AcDbEntity
  8
SMUSSO
100
AcDbLine
 62
7
  6
CONTINUOUS
 10
-40.3065295861
 20
61.7324840306
 11
-1.7170005528
 21
61.7324840306
  0
LINE
  5
485
100
AcDbEntity
  8
SMUSSO
100
AcDbLine
 62
7
  6
CONTINUOUS
 10
1.6934704139
 20
61.7324840306
 11
40.2829994472
 21
61.7324840306
  0
LINE
  5
486
100
AcDbEntity
  8
SMUSSO
100
AcDbLine
 62
7
  6
CONTINUOUS
 10
43.6934704139
 20
61.7324840306
 11
64.2293248583
 21
61.7324840306
  0
LINE
  5
487
100
AcDbEntity
  8
DRAFT
100
AcDbLine
 62
7
  6
CONTINUOUS
 10
64.2293248583
 20
61.7324840306
 11
69.6065462716
 21
61.7324840306
  0
LINE
  5
488
100
AcDbEntity
  8
SMUSSO
100
AcDbLine
 62
7
  6
CONTINUOUS
 10
43.5595162227
 20
62.2324840306
 11
40.4169536385
 21
62.2324840306
  0
LINE
  5
489
100
AcDbEntity
  8
SMUSSO
100
AcDbLine
 62
7
  6
CONTINUOUS
 10
1.5595162227
 20
62.2324840306
 11
-1.5830463615
 21
62.2324840306
  0
LINE
  5
48A
100
AcDbEntity
  8
SMUSSO
100
AcDbLine
 62
7
  6
CONTINUOUS
 10
-40.4404837773
 20
62.2324840306
 11
-43.5830463615
 21
62.2324840306
  0
LINE
  5
48B
100
AcDbEntity
  8
DRAFT
100
AcDbLine
 62
7
  6
CONTINUOUS
 10
13.5378423591
 20
63.5117650694
 11
-13.5613724979
 21
63.5117650694
  0
LINE
  5
48C
100
AcDbEntity
  8
RACCORDO
100
AcDbLine
 62
7
  6
CONTINUOUS
 10
13.3929653202
 20
63.6566421083
 11
-13.416495459
 21
63.6566421083
  0
LINE
  5
48D
100
AcDbEntity
  8
SMUSSO
100
AcDbLine
 62
7
  6
CONTINUOUS
 10
-40.0117650694
 20
61.7045559267
 11
-40.3065295861
 21
61.7237578273
  0
LINE
  5
48E
100
AcDbEntity
  8
SMUSSO
100
AcDbLine
 62
7
  6
CONTINUOUS
 10
1.9882349306
 20
61.7045559267
 11
1.6934704139
 21
61.7237578273
  0
LINE
  5
48F
100
AcDbEntity
  8
RACCORDO
100
AcDbLine
 62
7
  6
CONTINUOUS
 10
20.1603479721
 20
60.8413618206
 11
19.3228795141
 21
61.6788302786
  0
LINE
  5
490
100
AcDbEntity
  8
RACCORDO
100
AcDbLine
 62
7
  6
CONTINUOUS
 10
73.8178316817
 20
15.833878111
 11
74.6553001398
 21
14.9964096529
  0
LINE
  5
491
100
AcDbEntity
  8
SMUSSO
100
AcDbLine
 62
7
  6
CONTINUOUS
 10
43.5595162227
 20
62.2324840306
 11
43.6934704139
 21
61.7237578273
  0
LINE
  5
492
100
AcDbEntity
  8
RACCORDO
100
AcDbLine
 62
253
  6
CONTINUOUS
 10
65.1213284646
 20
-57.8182885963
 11
65.1213284646
 21
-57.4435479008
  0
LINE
  5
493
100
AcDbEntity
  8
RACCORDO
100
AcDbLine
 62
253
  6
CONTINUOUS
 10
65.1213284646
 20
57.4670780397
 11
65.1213284646
 21
57.8418187351
  0
LINE
  5
494
100
AcDbEntity
  8
RACCORDO
100
AcDbLine
 62
7
  6
CONTINUOUS
 10
65.6213094261
 20
-57.8182885963
 11
65.6213094261
 21
-57.650646796
  0
LINE
  5
495
100
AcDbEntity
  8
RACCORDO
100
AcDbLine
 62
7
  6
CONTINUOUS
 10
65.6213094261
 20
57.6741769349
 11
65.6213094261
 21
57.8418187351
  0
LINE
  5
496
100
AcDbEntity
  8
RACCORDO
100
AcDbLine
 62
7
  6
CONTINUOUS
 10
65.6431646733
 20
60.3422757163
 11
65.6431646733
 21
60.0568353267
  0
LINE
  5
497
100
AcDbEntity
  8
RACCORDO
100
AcDbLine
 62
7
  6
CONTINUOUS
 10
65.6431646733
 20
-60.0333051879
 11
65.6431646733
 21
-60.3187455775
  0
LINE
  5
498
100
AcDbEntity
  8
DRAFT
100
AcDbLine
 62
7
  6
CONTINUOUS
 10
66.0882349306
 20
59.6117650694
 11
66.0882349306
 21
57.8675838114
  0
LINE
  5
499
100
AcDbEntity
  8
DRAFT
100
AcDbLine
 62
7
  6
CONTINUOUS
 10
66.0882349306
 20
-57.8440536726
 11
66.0882349306
 21
-59.5882349306
  0
LINE
  5
49A
100
AcDbEntity
  8
DRAFT
100
AcDbLine
 62
7
  6
CONTINUOUS
 10
69.915713203
 20
-58.4006374435
 11
69.915713203
 21
-59.0300618376
  0
LINE
  5
49B
100
AcDbEntity
  8
DRAFT
100
AcDbLine
 62
7
  6
CONTINUOUS
 10
69.915713203
 20
58.4241675823
 11
69.915713203
 21
59.0535919765
  0
LINE
  5
49C
100
AcDbEntity
  8
RACCORDO
100
AcDbLine
 62
253
  6
CONTINUOUS
 10
70.8182885963
 20
-52.6213094261
 11
70.8182885963
 21
52.644839565
  0
LINE
  5
49D
100
AcDbEntity
  8
SMUSSO
100
AcDbLine
 62
7
  6
CONTINUOUS
 10
-44.0117650694
 20
61.7045559267
 11
-43.7170005528
 21
61.7237578273
  0
LINE
  5
49E
100
AcDbEntity
  8
DRAFT
100
AcDbLine
 62
7
  6
CONTINUOUS
 10
13.2882349306
 20
64.1815740895
 11
12.8429653202
 21
64.1815740895
  0
LINE
  5
49F
100
AcDbEntity
  8
DRAFT
100
AcDbLine
 62
7
  6
CONTINUOUS
 10
-12.866495459
 20
64.1815740895
 11
-13.3117650694
 21
64.1815740895
  0
LINE
  5
4A0
100
AcDbEntity
  8
DRAFT
100
AcDbLine
 62
7
  6
CONTINUOUS
 10
12.8429653202
 20
64.286304479
 11
10.7063256402
 21
64.286304479
  0
LINE
  5
4A1
100
AcDbEntity
  8
DRAFT
100
AcDbLine
 62
7
  6
CONTINUOUS
 10
-10.729855779
 20
64.286304479
 11
-12.866495459
 21
64.286304479
  0
LINE
  5
4A2
100
AcDbEntity
  8
DRAFT
100
AcDbLine
 62
7
  6
CONTINUOUS
 10
13.2882349306
 20
68.3419560494
 11
9.2301891881
 21
68.3419560494
  0
LINE
  5
4A3
100
AcDbEntity
  8
DRAFT
100
AcDbLine
 62
7
  6
CONTINUOUS
 10
-9.2537193269
 20
68.3419560494
 11
-13.3117650694
 21
68.3419560494
  0
LINE
  5
4A4
100
AcDbEntity
  8
RACCORDO
100
AcDbLine
 62
7
  6
CONTINUOUS
 10
-13.416495459
 20
68.8668880305
 11
13.3929653202
 21
68.8668880305
  0
LINE
  5
4A5
100
AcDbEntity
  8
DRAFT
100
AcDbLine
 62
7
  6
CONTINUOUS
 10
13.5378423591
 20
69.0117650694
 11
-13.5613724979
 21
69.0117650694
  0
LINE
  5
4A6
100
AcDbEntity
  8
RACCORDO
100
AcDbLine
 62
253
  6
CONTINUOUS
 10
61.4882349306
 20
69.4592475466
 11
-61.5117650694
 21
69.4592475466
  0
LINE
  5
4A7
100
AcDbEntity
  8
RACCORDO
100
AcDbLine
 62
253
  6
CONTINUOUS
 10
61.4882349306
 20
70.4590952417
 11
-61.5117650694
 21
70.4590952417
  0
LINE
  5
4A8
100
AcDbEntity
  8
RACCORDO
100
AcDbLine
 62
7
  6
CONTINUOUS
 10
61.4882349306
 20
70.5117650694
 11
-61.5117650694
 21
70.5117650694
  0
LINE
  5
4A9
100
AcDbEntity
  8
DRAFT
100
AcDbLine
 62
7
  6
CONTINUOUS
 10
8.0764730565
 20
71.5117650694
 11
-8.1000031953
 21
71.5117650694
  0
LINE
  5
4AA
100
AcDbEntity
  8
SMUSSO
100
AcDbLine
 62
7
  6
CONTINUOUS
 10
43.9882349306
 20
61.7045559267
 11
43.6934704139
 21
61.7237578273
  0
LINE
  5
4AB
100
AcDbEntity
  8
SMUSSO
100
AcDbLine
 62
7
  6
CONTINUOUS
 10
74.6810257878
 20
-31.2882349306
 11
74.7002276885
 21
-31.5829994472
  0
LINE
  5
4AC
100
AcDbEntity
  8
SMUSSO
100
AcDbLine
 62
7
  6
CONTINUOUS
 10
74.6810257878
 20
2.0117650694
 11
74.7002276885
 21
1.7170005528
  0
LINE
  5
4AD
100
AcDbEntity
  8
SMUSSO
100
AcDbLine
 62
7
  6
CONTINUOUS
 10
74.6810257878
 20
35.3117650694
 11
74.7002276885
 21
35.0170005528
  0
LINE
  5
4AE
100
AcDbEntity
  8
DRAFT
100
AcDbLine
 62
7
  6
CONTINUOUS
 10
72.5882349306
 20
-55.7281157159
 11
72.5882349306
 21
-53.0882349306
  0
LINE
  5
4AF
100
AcDbEntity
  8
DRAFT
100
AcDbLine
 62
7
  6
CONTINUOUS
 10
72.5882349306
 20
53.1117650694
 11
72.5882349306
 21
55.7516458548
  0
LINE
  5
4B0
100
AcDbEntity
  8
DRAFT
100
AcDbLine
 62
7
  6
CONTINUOUS
 10
73.0333051879
 20
-55.9124698527
 11
73.0333051879
 21
-52.6431646733
  0
LINE
  5
4B1
100
AcDbEntity
  8
DRAFT
100
AcDbLine
 62
7
  6
CONTINUOUS
 10
73.0333051879
 20
52.6666948121
 11
73.0333051879
 21
55.9359999916
  0
LINE
  5
4B2
100
AcDbEntity
  8
RACCORDO
100
AcDbLine
 62
7
  6
CONTINUOUS
 10
73.3237825595
 20
50.7617650694
 11
73.3237825595
 21
49.1617650694
  0
LINE
  5
4B3
100
AcDbEntity
  8
RACCORDO
100
AcDbLine
 62
7
  6
CONTINUOUS
 10
73.3237825595
 20
17.4617650694
 11
73.3237825595
 21
15.8617650694
  0
LINE
  5
4B4
100
AcDbEntity
  8
RACCORDO
100
AcDbLine
 62
7
  6
CONTINUOUS
 10
73.3237825595
 20
-15.8382349306
 11
73.3237825595
 21
-17.4382349306
  0
LINE
  5
4B5
100
AcDbEntity
  8
RACCORDO
100
AcDbLine
 62
7
  6
CONTINUOUS
 10
73.3237825595
 20
-49.1382349306
 11
73.3237825595
 21
-50.7382349306
  0
LINE
  5
4B6
100
AcDbEntity
  8
RACCORDO
100
AcDbLine
 62
253
  6
CONTINUOUS
 10
73.8178316817
 20
-52.142764872
 11
73.8178316817
 21
-50.7516196246
  0
LINE
  5
4B7
100
AcDbEntity
  8
RACCORDO
100
AcDbLine
 62
253
  6
CONTINUOUS
 10
73.8178316817
 20
-49.1103479721
 11
73.8178316817
 21
-17.466121889
  0
LINE
  5
4B8
100
AcDbEntity
  8
RACCORDO
100
AcDbLine
 62
253
  6
CONTINUOUS
 10
73.8178316817
 20
-15.8103479721
 11
73.8178316817
 21
15.833878111
  0
LINE
  5
4B9
100
AcDbEntity
  8
RACCORDO
100
AcDbLine
 62
253
  6
CONTINUOUS
 10
73.8178316817
 20
17.4896520279
 11
73.8178316817
 21
49.133878111
  0
LINE
  5
4BA
100
AcDbEntity
  8
RACCORDO
100
AcDbLine
 62
253
  6
CONTINUOUS
 10
73.8178316817
 20
50.7751497634
 11
73.8178316817
 21
52.1662950108
  0
LINE
  5
4BB
100
AcDbEntity
  8
RACCORDO
100
AcDbLine
 62
7
  6
CONTINUOUS
 10
73.8187455804
 20
56.2613400546
 11
73.8187455804
 21
52.1667519253
  0
LINE
  5
4BC
100
AcDbEntity
  8
RACCORDO
100
AcDbLine
 62
7
  6
CONTINUOUS
 10
73.8187455804
 20
-52.1432217865
 11
73.8187455804
 21
-56.2378099157
  0
LINE
  5
4BD
100
AcDbEntity
  8
RACCORDO
100
AcDbLine
 62
7
  6
CONTINUOUS
 10
73.9882349306
 20
50.8569369308
 11
73.9882349306
 21
48.9634748621
  0
LINE
  5
4BE
100
AcDbEntity
  8
RACCORDO
100
AcDbLine
 62
7
  6
CONTINUOUS
 10
73.9882349306
 20
17.6600552767
 11
73.9882349306
 21
15.6634748621
  0
LINE
  5
4BF
100
AcDbEntity
  8
RACCORDO
100
AcDbLine
 62
7
  6
CONTINUOUS
 10
73.9882349306
 20
-15.6399447233
 11
73.9882349306
 21
-17.6365251379
  0
LINE
  5
4C0
100
AcDbEntity
  8
RACCORDO
100
AcDbLine
 62
7
  6
CONTINUOUS
 10
73.9882349306
 20
-48.9399447233
 11
73.9882349306
 21
-50.833406792
  0
LINE
  5
4C1
100
AcDbEntity
  8
RACCORDO
100
AcDbLine
 62
7
  6
CONTINUOUS
 10
74.6810257878
 20
46.7966381102
 11
74.6810257878
 21
35.3117650694
  0
LINE
  5
4C2
100
AcDbEntity
  8
RACCORDO
100
AcDbLine
 62
7
  6
CONTINUOUS
 10
74.6810257878
 20
31.3117650694
 11
74.6810257878
 21
19.8268920287
  0
LINE
  5
4C3
100
AcDbEntity
  8
RACCORDO
100
AcDbLine
 62
7
  6
CONTINUOUS
 10
74.6810257878
 20
13.4966381102
 11
74.6810257878
 21
2.0117650694
  0
LINE
  5
4C4
100
AcDbEntity
  8
RACCORDO
100
AcDbLine
 62
7
  6
CONTINUOUS
 10
74.6810257878
 20
-1.9882349306
 11
74.6810257878
 21
-13.4731079713
  0
LINE
  5
4C5
100
AcDbEntity
  8
RACCORDO
100
AcDbLine
 62
7
  6
CONTINUOUS
 10
74.6810257878
 20
-19.8033618898
 11
74.6810257878
 21
-31.2882349306
  0
LINE
  5
4C6
100
AcDbEntity
  8
RACCORDO
100
AcDbLine
 62
7
  6
CONTINUOUS
 10
74.6810257878
 20
-35.2882349306
 11
74.6810257878
 21
-46.7731079713
  0
LINE
  5
4C7
100
AcDbEntity
  8
SMUSSO
100
AcDbLine
 62
7
  6
CONTINUOUS
 10
74.7002276885
 20
-34.9934704139
 11
74.7002276885
 21
-31.5829994472
  0
LINE
  5
4C8
100
AcDbEntity
  8
SMUSSO
100
AcDbLine
 62
7
  6
CONTINUOUS
 10
74.7002276885
 20
-1.6934704139
 11
74.7002276885
 21
1.7170005528
  0
LINE
  5
4C9
100
AcDbEntity
  8
SMUSSO
100
AcDbLine
 62
7
  6
CONTINUOUS
 10
74.7002276885
 20
31.6065295861
 11
74.7002276885
 21
35.0170005528
  0
LINE
  5
4CA
100
AcDbEntity
  8
DRAFT
100
AcDbLine
 62
7
  6
CONTINUOUS
 10
74.7089538917
 20
56.6300764105
 11
74.7089538917
 21
51.2028549972
  0
LINE
  5
4CB
100
AcDbEntity
  8
SMUSSO
100
AcDbLine
 62
7
  6
CONTINUOUS
 10
74.7089538917
 20
51.2028549972
 11
74.7089538917
 21
35.0170005528
  0
LINE
  5
4CC
100
AcDbEntity
  8
SMUSSO
100
AcDbLine
 62
7
  6
CONTINUOUS
 10
74.7089538917
 20
31.6065295861
 11
74.7089538917
 21
1.7170005528
  0
LINE
  5
4CD
100
AcDbEntity
  8
SMUSSO
100
AcDbLine
 62
7
  6
CONTINUOUS
 10
74.7089538917
 20
-1.6934704139
 11
74.7089538917
 21
-31.5829994472
  0
LINE
  5
4CE
100
AcDbEntity
  8
SMUSSO
100
AcDbLine
 62
7
  6
CONTINUOUS
 10
74.7089538917
 20
-34.9934704139
 11
74.7089538917
 21
-51.1793248583
  0
LINE
  5
4CF
100
AcDbEntity
  8
DRAFT
100
AcDbLine
 62
7
  6
CONTINUOUS
 10
74.7089538917
 20
-51.1793248583
 11
74.7089538917
 21
-56.6065462716
  0
LINE
  5
4D0
100
AcDbEntity
  8
SMUSSO
100
AcDbLine
 62
7
  6
CONTINUOUS
 10
75.2089538917
 20
-34.8595162227
 11
75.2089538917
 21
-31.7169536385
  0
LINE
  5
4D1
100
AcDbEntity
  8
SMUSSO
100
AcDbLine
 62
7
  6
CONTINUOUS
 10
75.2089538917
 20
-1.5595162227
 11
75.2089538917
 21
1.5830463615
  0
LINE
  5
4D2
100
AcDbEntity
  8
SMUSSO
100
AcDbLine
 62
7
  6
CONTINUOUS
 10
75.2089538917
 20
31.7404837773
 11
75.2089538917
 21
34.8830463615
  0
LINE
  5
4D3
100
AcDbEntity
  8
SMUSSO
100
AcDbLine
 62
7
  6
CONTINUOUS
 10
74.6810257878
 20
31.3117650694
 11
74.7002276885
 21
31.6065295861
  0
LINE
  5
4D4
100
AcDbEntity
  8
SMUSSO
100
AcDbLine
 62
7
  6
CONTINUOUS
 10
74.6810257878
 20
-1.9882349306
 11
74.7002276885
 21
-1.6934704139
  0
LINE
  5
4D5
100
AcDbEntity
  8
SMUSSO
100
AcDbLine
 62
7
  6
CONTINUOUS
 10
74.6810257878
 20
-35.2882349306
 11
74.7002276885
 21
-34.9934704139
  0
LINE
  5
4D6
100
AcDbEntity
  8
0
100
AcDbLine
 62
7
  6
CONTINUOUS
 10
79.4882349306
 20
73.5117650694
 11
-79.5117650694
 21
73.5117650694
  0
LINE
  5
4D7
100
AcDbEntity
  8
0
100
AcDbLine
 62
7
  6
CONTINUOUS
 10
-79.5117650694
 20
76.5117650694
 11
79.4882349306
 21
76.5117650694
  0
LINE
  5
4D8
100
AcDbEntity
  8
RACCORDO
100
AcDbLine
 62
253
  6
CONTINUOUS
 10
82.4357174078
 20
-48.4882349306
 11
82.4357174078
 21
48.5117650694
  0
LINE
  5
4D9
100
AcDbEntity
  8
RACCORDO
100
AcDbLine
 62
253
  6
CONTINUOUS
 10
83.4355651029
 20
-48.4882349306
 11
83.4355651029
 21
48.5117650694
  0
LINE
  5
4DA
100
AcDbEntity
  8
DRAFT
100
AcDbLine
 62
7
  6
CONTINUOUS
 10
83.4882349306
 20
48.5117650694
 11
83.4882349306
 21
-48.4882349306
  0
LINE
  5
4DB
100
AcDbEntity
  8
0
100
AcDbLine
 62
7
  6
CONTINUOUS
 10
86.4882349306
 20
-66.4882349306
 11
86.4882349306
 21
66.5117650694
  0
LINE
  5
4DC
100
AcDbEntity
  8
RACCORDO
100
AcDbLine
 62
253
  6
CONTINUOUS
 10
65.1213284646
 20
-57.4435479008
 11
67.2503907266
 21
-55.3144856388
  0
LINE
  5
4DD
100
AcDbEntity
  8
RACCORDO
100
AcDbLine
 62
253
  6
CONTINUOUS
 10
68.3144856388
 20
-54.2503907266
 11
70.4435479008
 21
-52.1213284646
  0
LINE
  5
4DE
100
AcDbEntity
  8
RACCORDO
100
AcDbLine
 62
7
  6
CONTINUOUS
 10
73.8178316817
 20
-49.1103479721
 11
74.6553001398
 21
-48.2728795141
  0
LINE
  5
4DF
100
AcDbEntity
  8
RACCORDO
100
AcDbLine
 62
7
  6
CONTINUOUS
 10
62.1603479721
 20
-60.8178316817
 11
61.3228795141
 21
-61.6553001398
  0
LINE
  5
4E0
100
AcDbEntity
  8
RACCORDO
100
AcDbLine
 62
7
  6
CONTINUOUS
 10
65.6213094261
 20
-57.650646796
 11
67.603930655
 21
-55.6680255672
  0
LINE
  5
4E1
100
AcDbEntity
  8
RACCORDO
100
AcDbLine
 62
7
  6
CONTINUOUS
 10
68.6680255672
 20
-54.603930655
 11
70.650646796
 21
-52.6213094261
  0
LINE
  5
4E2
100
AcDbEntity
  8
RACCORDO
100
AcDbLine
 62
253
  6
CONTINUOUS
 10
68.0415715537
 20
-55.426258312
 11
67.6039306551
 21
-55.6680255674
  0
LINE
  5
4E3
100
AcDbEntity
  8
RACCORDO
100
AcDbLine
 62
253
  6
CONTINUOUS
 10
70.4435479008
 20
52.1448586034
 11
68.3144856388
 21
54.2739208654
  0
LINE
  5
4E4
100
AcDbEntity
  8
RACCORDO
100
AcDbLine
 62
253
  6
CONTINUOUS
 10
67.2503907266
 20
55.3380157776
 11
65.1213284646
 21
57.4670780397
  0
LINE
  5
4E5
100
AcDbEntity
  8
RACCORDO
100
AcDbLine
 62
7
  6
CONTINUOUS
 10
73.8178316817
 20
49.133878111
 11
74.6553001398
 21
48.2964096529
  0
LINE
  5
4E6
100
AcDbEntity
  8
RACCORDO
100
AcDbLine
 62
7
  6
CONTINUOUS
 10
62.1603479721
 20
60.8413618206
 11
61.3228795141
 21
61.6788302786
  0
LINE
  5
4E7
100
AcDbEntity
  8
RACCORDO
100
AcDbLine
 62
7
  6
CONTINUOUS
 10
70.650646796
 20
52.644839565
 11
68.6680255672
 21
54.6274607938
  0
LINE
  5
4E8
100
AcDbEntity
  8
RACCORDO
100
AcDbLine
 62
7
  6
CONTINUOUS
 10
67.603930655
 20
55.691555706
 11
65.6213094261
 21
57.6741769349
  0
LINE
  5
4E9
100
AcDbEntity
  8
RACCORDO
100
AcDbLine
 62
253
  6
CONTINUOUS
 10
68.426258312
 20
55.0651016925
 11
68.6680255674
 21
54.6274607939
  0
LINE
  5
4EA
100
AcDbEntity
  8
0
100
AcDbLine
 62
7
  6
CONTINUOUS
 10
89.4882349306
 20
66.5117650694
 11
89.4882349306
 21
-66.4882349306
  0
LINE
  5
4EB
100
AcDbEntity
  8
0
100
AcDbLine
 62
7
  6
CONTINUOUS
 10
68.9653913239
 20
-57.3406635569
 11
68.7039695206
 21
-57.7668778701
  0
LINE
  5
4EC
100
AcDbEntity
  8
0
100
AcDbLine
 62
7
  6
CONTINUOUS
 10
70.0110785373
 20
-55.6358063043
 11
70.2725003406
 21
-55.2095919911
  0
LINE
  5
4ED
100
AcDbEntity
  8
DRAFT
100
AcDbLine
 62
7
  6
CONTINUOUS
 10
70.8440536726
 20
-53.0882349306
 11
69.3321697054
 21
-54.6001188978
  0
LINE
  5
4EE
100
AcDbEntity
  8
DRAFT
100
AcDbLine
 62
7
  6
CONTINUOUS
 10
67.6001188978
 20
-56.3321697054
 11
66.0882349306
 21
-57.8440536726
  0
LINE
  5
4EF
100
AcDbEntity
  8
DRAFT
100
AcDbLine
 62
7
  6
CONTINUOUS
 10
66.0882349306
 20
-59.5882349306
 11
65.6431646733
 21
-60.0333051879
  0
LINE
  5
4F0
100
AcDbEntity
  8
DRAFT
100
AcDbLine
 62
7
  6
CONTINUOUS
 10
72.5882349306
 20
-53.0882349306
 11
73.0333051879
 21
-52.6431646733
  0
LINE
  5
4F1
100
AcDbEntity
  8
DRAFT
100
AcDbLine
 62
7
  6
CONTINUOUS
 10
68.7281157159
 20
-59.5882349306
 11
69.915713203
 21
-58.4006374435
  0
LINE
  5
4F2
100
AcDbEntity
  8
DRAFT
100
AcDbLine
 62
7
  6
CONTINUOUS
 10
71.4006374435
 20
-56.915713203
 11
72.5882349306
 21
-55.7281157159
  0
LINE
  5
4F3
100
AcDbEntity
  8
DRAFT
100
AcDbLine
 62
7
  6
CONTINUOUS
 10
68.9124698527
 20
-60.0333051879
 11
69.915713203
 21
-59.0300618376
  0
LINE
  5
4F4
100
AcDbEntity
  8
DRAFT
100
AcDbLine
 62
7
  6
CONTINUOUS
 10
72.0300618376
 20
-56.915713203
 11
73.0333051879
 21
-55.9124698527
  0
LINE
  5
4F5
100
AcDbEntity
  8
DRAFT
100
AcDbLine
 62
7
  6
CONTINUOUS
 10
73.8187455804
 20
-56.2378099157
 11
72.5854520654
 21
-57.4711034308
  0
LINE
  5
4F6
100
AcDbEntity
  8
DRAFT
100
AcDbLine
 62
7
  6
CONTINUOUS
 10
70.4711034308
 20
-59.5854520654
 11
69.2378099157
 21
-60.8187455804
  0
LINE
  5
4F7
100
AcDbEntity
  8
DRAFT
100
AcDbLine
 62
7
  6
CONTINUOUS
 10
74.7089538917
 20
-56.6065462716
 11
72.9002122019
 21
-58.4152879614
  0
LINE
  5
4F8
100
AcDbEntity
  8
DRAFT
100
AcDbLine
 62
7
  6
CONTINUOUS
 10
71.4152879614
 20
-59.9002122019
 11
69.6065462716
 21
-61.7089538917
  0
LINE
  5
4F9
100
AcDbEntity
  8
DRAFT
100
AcDbLine
 62
7
  6
CONTINUOUS
 10
66.0882349306
 20
57.8675838114
 11
67.6001188978
 21
56.3556998442
  0
LINE
  5
4FA
100
AcDbEntity
  8
DRAFT
100
AcDbLine
 62
7
  6
CONTINUOUS
 10
69.3321697054
 20
54.6236490366
 11
70.8440536726
 21
53.1117650694
  0
LINE
  5
4FB
100
AcDbEntity
  8
DRAFT
100
AcDbLine
 62
7
  6
CONTINUOUS
 10
72.5882349306
 20
53.1117650694
 11
73.0333051879
 21
52.6666948121
  0
LINE
  5
4FC
100
AcDbEntity
  8
DRAFT
100
AcDbLine
 62
7
  6
CONTINUOUS
 10
66.0882349306
 20
59.6117650694
 11
65.6431646733
 21
60.0568353267
  0
LINE
  5
4FD
100
AcDbEntity
  8
DRAFT
100
AcDbLine
 62
7
  6
CONTINUOUS
 10
72.5882349306
 20
55.7516458548
 11
71.4006374435
 21
56.9392433419
  0
LINE
  5
4FE
100
AcDbEntity
  8
DRAFT
100
AcDbLine
 62
7
  6
CONTINUOUS
 10
69.915713203
 20
58.4241675823
 11
68.7281157159
 21
59.6117650694
  0
LINE
  5
4FF
100
AcDbEntity
  8
DRAFT
100
AcDbLine
 62
7
  6
CONTINUOUS
 10
73.0333051879
 20
55.9359999916
 11
72.0300618376
 21
56.9392433419
  0
LINE
  5
500
100
AcDbEntity
  8
DRAFT
100
AcDbLine
 62
7
  6
CONTINUOUS
 10
69.915713203
 20
59.0535919765
 11
68.9124698527
 21
60.0568353267
  0
LINE
  5
501
100
AcDbEntity
  8
DRAFT
100
AcDbLine
 62
7
  6
CONTINUOUS
 10
69.2378099157
 20
60.8422757192
 11
70.4711034308
 21
59.6089822042
  0
LINE
  5
502
100
AcDbEntity
  8
DRAFT
100
AcDbLine
 62
7
  6
CONTINUOUS
 10
72.5854520654
 20
57.4946335696
 11
73.8187455804
 21
56.2613400546
  0
LINE
  5
503
100
AcDbEntity
  8
DRAFT
100
AcDbLine
 62
7
  6
CONTINUOUS
 10
69.6065462716
 20
61.7324840306
 11
71.4152879614
 21
59.9237423408
  0
LINE
  5
504
100
AcDbEntity
  8
DRAFT
100
AcDbLine
 62
7
  6
CONTINUOUS
 10
72.9002122019
 20
58.4388181003
 11
74.7089538917
 21
56.6300764105
  0
ARC
  5
505
100
AcDbEntity
  8
0
100
AcDbCircle
 62
7
  6
CONTINUOUS
 10
-79.5117650694
 20
-66.4882349306
 40
10.0
100
AcDbArc
 50
180.0
 51
270.0
  0
ARC
  5
506
100
AcDbEntity
  8
0
100
AcDbCircle
 62
7
  6
CONTINUOUS
 10
-79.5117650694
 20
-66.4882349306
 40
7.0
100
AcDbArc
 50
180.0
 51
270.0
  0
ARC
  5
507
100
AcDbEntity
  8
RACCORDO
100
AcDbCircle
 62
7
  6
CONTINUOUS
 10
-69.6611983001
 20
-55.9547582164
 40
2.053850982
100
AcDbArc
 50
5.7812817142
 51
8.0251246985
  0
CIRCLE
  5
508
100
AcDbEntity
  8
0
100
AcDbCircle
 62
7
  6
CONTINUOUS
 10
-69.5117645205
 20
-56.4882354637
 40
1.4999996177
  0
ARC
  5
509
100
AcDbEntity
  8
0
100
AcDbCircle
 62
7
  6
CONTINUOUS
 10
-69.5117650694
 20
-56.4882349306
 40
1.0
100
AcDbArc
 50
307.6774584221
 51
360.0
  0
ARC
  5
50A
100
AcDbEntity
  8
0
100
AcDbCircle
 62
7
  6
CONTINUOUS
 10
-69.5117650694
 20
-56.4882349306
 40
1.0
100
AcDbArc
 50
127.6774584221
 51
255.84228485
  0
ARC
  5
50B
100
AcDbEntity
  8
0
100
AcDbCircle
 62
7
  6
CONTINUOUS
 10
-69.6151033288
 20
-56.8500346908
 40
0.8320718012
100
AcDbArc
 50
344.774383981
 51
349.5173525291
  0
ARC
  5
50C
100
AcDbEntity
  8
0
100
AcDbCircle
 62
7
  6
CONTINUOUS
 10
-69.40842681
 20
-56.1264351704
 40
0.8320718012
100
AcDbArc
 50
164.7743839811
 51
169.517352529
  0
ARC
  5
50D
100
AcDbEntity
  8
0
100
AcDbCircle
 62
7
  6
CONTINUOUS
 10
-69.4558127493
 20
-56.3604747154
 40
0.813765055
100
AcDbArc
 50
150.6304078959
 51
164.4190814713
  0
ARC
  5
50E
100
AcDbEntity
  8
0
100
AcDbCircle
 62
7
  6
CONTINUOUS
 10
-69.5677173895
 20
-56.6159951458
 40
0.813765055
100
AcDbArc
 50
330.6304078959
 51
344.4190814713
  0
ARC
  5
50F
100
AcDbEntity
  8
RACCORDO
100
AcDbCircle
 62
253
  6
CONTINUOUS
 10
-65.1662351831
 20
-60.3177880364
 40
0.5000420763
100
AcDbArc
 50
180.0137266955
 51
269.9931448448
  0
ARC
  5
510
100
AcDbEntity
  8
RACCORDO
100
AcDbCircle
 62
253
  6
CONTINUOUS
 10
-67.6274764623
 20
-55.6679647056
 40
0.4999418873
100
AcDbArc
 50
44.9937982556
 51
151.0837449785
  0
ARC
  5
511
100
AcDbEntity
  8
RACCORDO
100
AcDbCircle
 62
253
  6
CONTINUOUS
 10
-67.6226866781
 20
-55.6266173112
 40
0.0416825628
100
AcDbArc
 50
255.2369192726
 51
263.4231882558
  0
ARC
  5
512
100
AcDbEntity
  8
DRAFT
100
AcDbCircle
 62
7
  6
CONTINUOUS
 10
-78.1957874849
 20
-48.1955136863
 40
53.2934677874
100
AcDbArc
 50
39.6022368853
 51
39.8576461101
  0
ARC
  5
513
100
AcDbEntity
  8
DRAFT
100
AcDbCircle
 62
7
  6
CONTINUOUS
 10
-69.940963877
 20
-44.4942446686
 40
42.8608270209
100
AcDbArc
 50
39.5316948138
 51
39.8494272336
  0
ARC
  5
514
100
AcDbEntity
  8
DRAFT
100
AcDbCircle
 62
7
  6
CONTINUOUS
 10
-68.3128977451
 20
-55.2893676063
 40
1.25
100
AcDbArc
 50
146.5369590328
 51
166.0923809829
  0
ARC
  5
515
100
AcDbEntity
  8
DRAFT
100
AcDbCircle
 62
7
  6
CONTINUOUS
 10
-68.3128977451
 20
-55.2893676063
 40
1.25
100
AcDbArc
 50
283.9316410784
 51
303.4630409672
  0
ARC
  5
516
100
AcDbEntity
  8
RACCORDO
100
AcDbCircle
 62
7
  6
CONTINUOUS
 10
-68.3128977451
 20
-55.2893676063
 40
0.7830744955
100
AcDbArc
 50
118.9177072635
 51
331.0822927365
  0
ARC
  5
517
100
AcDbEntity
  8
RACCORDO
100
AcDbCircle
 62
253
  6
CONTINUOUS
 10
-73.341318179
 20
-52.1427050484
 40
0.5000420724
100
AcDbArc
 50
180.0068546802
 51
269.9862737436
  0
ARC
  5
518
100
AcDbEntity
  8
RACCORDO
100
AcDbCircle
 62
253
  6
CONTINUOUS
 10
-68.6915505253
 20
-54.6039071773
 40
0.499990098
100
AcDbArc
 50
298.9158866952
 51
45.0014974255
  0
ARC
  5
519
100
AcDbEntity
  8
RACCORDO
100
AcDbCircle
 62
253
  6
CONTINUOUS
 10
-68.3128977451
 20
-55.2893676063
 40
0.283093534
100
AcDbArc
 50
118.9177072635
 51
331.0822927365
  0
ARC
  5
51A
100
AcDbEntity
  8
DRAFT
100
AcDbCircle
 62
7
  6
CONTINUOUS
 10
-54.719043814
 20
-71.6722573564
 40
53.2934677882
100
AcDbArc
 50
50.1423539063
 51
50.3977631311
  0
ARC
  5
51B
100
AcDbEntity
  8
DRAFT
100
AcDbCircle
 62
7
  6
CONTINUOUS
 10
-51.0177747942
 20
-63.4174337502
 40
42.8608270217
100
AcDbArc
 50
50.1505727904
 51
50.4683052102
  0
ARC
  5
51C
100
AcDbEntity
  8
DRAFT
100
AcDbCircle
 62
7
  6
CONTINUOUS
 10
-51.3495088093
 20
-54.4633670615
 40
41.0660324253
100
AcDbArc
 50
38.775904461
 51
39.2363711112
  0
ARC
  5
51D
100
AcDbEntity
  8
DRAFT
100
AcDbCircle
 62
7
  6
CONTINUOUS
 10
-60.9868972121
 20
-44.8259786605
 40
41.066032425
100
AcDbArc
 50
50.7636288674
 51
51.2240955175
  0
ARC
  5
51E
100
AcDbEntity
  8
DRAFT
100
AcDbCircle
 62
7
  6
CONTINUOUS
 10
-48.7145539736
 20
-50.0088872645
 40
33.7332866469
100
AcDbArc
 50
38.5330319794
 51
39.0909937427
  0
ARC
  5
51F
100
AcDbEntity
  8
DRAFT
100
AcDbCircle
 62
7
  6
CONTINUOUS
 10
-56.5324174278
 20
-42.1910238146
 40
33.7332866465
100
AcDbArc
 50
50.9090062034
 51
51.4669679668
  0
ARC
  5
520
100
AcDbEntity
  8
DRAFT
100
AcDbCircle
 62
7
  6
CONTINUOUS
 10
-47.3977120032
 20
-55.2605365329
 40
32.5555242743
100
AcDbArc
 50
50.1648915163
 51
50.4881988204
  0
ARC
  5
521
100
AcDbEntity
  8
DRAFT
100
AcDbCircle
 62
7
  6
CONTINUOUS
 10
-61.7840666649
 20
-40.8741818708
 40
32.5555242731
100
AcDbArc
 50
39.511801196
 51
39.8351085001
  0
ARC
  5
522
100
AcDbEntity
  8
DRAFT
100
AcDbCircle
 62
7
  6
CONTINUOUS
 10
-46.0105411381
 20
-45.4974274553
 40
26.3109306244
100
AcDbArc
 50
38.3135022032
 51
38.8633543495
  0
ARC
  5
523
100
AcDbEntity
  8
DRAFT
100
AcDbCircle
 62
7
  6
CONTINUOUS
 10
-52.020957618
 20
-39.4870109795
 40
26.3109306239
100
AcDbArc
 50
51.136645583
 51
51.6864977294
  0
ARC
  5
524
100
AcDbEntity
  8
DRAFT
100
AcDbCircle
 62
7
  6
CONTINUOUS
 10
-61.5117650694
 20
-48.4882349306
 40
22.0
100
AcDbArc
 50
180.0
 51
270.0
  0
ARC
  5
525
100
AcDbEntity
  8
RACCORDO
100
AcDbCircle
 62
253
  6
CONTINUOUS
 10
-61.5117650694
 20
-48.4882349306
 40
21.9473301725
100
AcDbArc
 50
180.0
 51
270.0
  0
ARC
  5
526
100
AcDbEntity
  8
RACCORDO
100
AcDbCircle
 62
253
  6
CONTINUOUS
 10
-61.5117650694
 20
-48.4882349306
 40
20.9474831724
100
AcDbArc
 50
180.0
 51
270.0
  0
ARC
  5
527
100
AcDbEntity
  8
DRAFT
100
AcDbCircle
 62
7
  6
CONTINUOUS
 10
-58.6695632294
 20
-23.0864777607
 40
66.39355323
100
AcDbArc
 50
50.6287877358
 51
50.8349843585
  0
ARC
  5
528
100
AcDbEntity
  8
DRAFT
100
AcDbCircle
 62
7
  6
CONTINUOUS
 10
-78.1957874782
 20
-10.780956163
 40
53.2934677898
100
AcDbArc
 50
320.1423538756
 51
320.3977631004
  0
ARC
  5
529
100
AcDbEntity
  8
DRAFT
100
AcDbCircle
 62
7
  6
CONTINUOUS
 10
-53.9812664766
 20
-12.2281221995
 40
52.6864373552
100
AcDbArc
 50
50.6083672943
 51
50.8682298906
  0
ARC
  5
52A
100
AcDbEntity
  8
DRAFT
100
AcDbCircle
 62
7
  6
CONTINUOUS
 10
-55.3401797041
 20
-1.6030583874
 40
51.1441208931
100
AcDbArc
 50
38.530260047
 51
38.8974161623
  0
ARC
  5
52B
100
AcDbEntity
  8
DRAFT
100
AcDbCircle
 62
7
  6
CONTINUOUS
 10
-69.9409638693
 20
-14.4822251813
 40
42.8608270222
100
AcDbArc
 50
320.1505727484
 51
320.4683051682
  0
ARC
  5
52C
100
AcDbEntity
  8
DRAFT
100
AcDbCircle
 62
7
  6
CONTINUOUS
 10
-60.9868972123
 20
-14.1504912004
 40
41.0660324252
100
AcDbArc
 50
308.7759044825
 51
309.2363711326
  0
ARC
  5
52D
100
AcDbEntity
  8
DRAFT
100
AcDbCircle
 62
7
  6
CONTINUOUS
 10
-51.3495087983
 20
-4.5131027865
 40
41.066032425
100
AcDbArc
 50
320.763628865
 51
321.2240955152
  0
ARC
  5
52E
100
AcDbEntity
  8
DRAFT
100
AcDbCircle
 62
7
  6
CONTINUOUS
 10
-49.867793124
 20
-2.7693457774
 40
40.74397114
100
AcDbArc
 50
50.6550721045
 51
50.9148847703
  0
ARC
  5
52F
100
AcDbEntity
  8
DRAFT
100
AcDbCircle
 62
7
  6
CONTINUOUS
 10
-56.5324174283
 20
-16.785446046
 40
33.7332866473
100
AcDbArc
 50
308.5330320332
 51
309.0909937966
  0
ARC
  5
530
100
AcDbEntity
  8
DRAFT
100
AcDbCircle
 62
7
  6
CONTINUOUS
 10
-48.7145539637
 20
-8.9675825835
 40
33.7332866474
100
AcDbArc
 50
320.9090062293
 51
321.4669679926
  0
ARC
  5
531
100
AcDbEntity
  8
DRAFT
100
AcDbCircle
 62
7
  6
CONTINUOUS
 10
-47.3977120034
 20
-3.715933328
 40
32.5555242746
100
AcDbArc
 50
309.5118011796
 51
309.8351084837
  0
ARC
  5
532
100
AcDbEntity
  8
DRAFT
100
AcDbCircle
 62
7
  6
CONTINUOUS
 10
-61.7840666584
 20
-18.1022879824
 40
32.5555242731
100
AcDbArc
 50
320.1648914818
 51
320.4881987859
  0
ARC
  5
533
100
AcDbEntity
  8
DRAFT
100
AcDbCircle
 62
7
  6
CONTINUOUS
 10
-46.0105411305
 20
-13.4790423961
 40
26.3109306246
100
AcDbArc
 50
321.1366456234
 51
321.6864977698
  0
ARC
  5
534
100
AcDbEntity
  8
DRAFT
100
AcDbCircle
 62
7
  6
CONTINUOUS
 10
-52.020957618
 20
-19.4894588817
 40
26.310930624
100
AcDbArc
 50
308.3135022706
 51
308.863354417
  0
ARC
  5
535
100
AcDbEntity
  8
DRAFT
100
AcDbCircle
 62
7
  6
CONTINUOUS
 10
-16.6100078882
 20
-52.1460330971
 40
66.3935532254
100
AcDbArc
 50
39.1650156521
 51
39.3712122748
  0
ARC
  5
536
100
AcDbEntity
  8
DRAFT
100
AcDbCircle
 62
7
  6
CONTINUOUS
 10
-17.3044863141
 20
-71.6722573485
 40
53.293467789
100
AcDbArc
 50
129.6022368832
 51
129.857646108
  0
ARC
  5
537
100
AcDbEntity
  8
DRAFT
100
AcDbCircle
 62
7
  6
CONTINUOUS
 10
-5.7516523266
 20
-47.4577363476
 40
52.6864373523
100
AcDbArc
 50
39.1317701257
 51
39.391632722
  0
ARC
  5
538
100
AcDbEntity
  8
DRAFT
100
AcDbCircle
 62
7
  6
CONTINUOUS
 10
-21.0057553348
 20
-63.4174337408
 40
42.8608270207
100
AcDbArc
 50
129.5316948079
 51
129.8494272277
  0
ARC
  5
539
100
AcDbEntity
  8
DRAFT
100
AcDbCircle
 62
7
  6
CONTINUOUS
 10
-2.0825662625
 20
-44.4942446681
 40
42.8608270201
100
AcDbArc
 50
140.1505727664
 51
140.4683051862
  0
ARC
  5
53A
100
AcDbEntity
  8
DRAFT
100
AcDbCircle
 62
7
  6
CONTINUOUS
 10
-11.0366329135
 20
-44.8259786497
 40
41.0660324248
100
AcDbArc
 50
128.7759045063
 51
129.2363711564
  0
ARC
  5
53B
100
AcDbEntity
  8
DRAFT
100
AcDbCircle
 62
7
  6
CONTINUOUS
 10
-20.6740213298
 20
-54.4633670613
 40
41.066032425
100
AcDbArc
 50
140.7636288888
 51
141.224095539
  0
ARC
  5
53C
100
AcDbEntity
  8
DRAFT
100
AcDbCircle
 62
7
  6
CONTINUOUS
 10
-23.3089761644
 20
-50.0088872652
 40
33.7332866479
100
AcDbArc
 50
140.9090062573
 51
141.4669680206
  0
ARC
  5
53D
100
AcDbEntity
  8
DRAFT
100
AcDbCircle
 62
7
  6
CONTINUOUS
 10
-15.4911126981
 20
-42.1910238044
 40
33.7332866466
100
AcDbArc
 50
128.5330320612
 51
129.0909938245
  0
ARC
  5
53E
100
AcDbEntity
  8
DRAFT
100
AcDbCircle
 62
7
  6
CONTINUOUS
 10
-10.2394634734
 20
-40.8741818712
 40
32.5555242738
100
AcDbArc
 50
140.1648914999
 51
140.488198804
  0
ARC
  5
53F
100
AcDbEntity
  8
DRAFT
100
AcDbCircle
 62
7
  6
CONTINUOUS
 10
-24.6258181297
 20
-55.2605365239
 40
32.5555242711
100
AcDbArc
 50
129.5118011977
 51
129.8351085018
  0
ARC
  5
540
100
AcDbEntity
  8
DRAFT
100
AcDbCircle
 62
7
  6
CONTINUOUS
 10
-20.0025725108
 20
-39.4870109722
 40
26.3109306245
100
AcDbArc
 50
128.3135022976
 51
128.863354444
  0
ARC
  5
541
100
AcDbEntity
  8
DRAFT
100
AcDbCircle
 62
7
  6
CONTINUOUS
 10
-26.0129890011
 20
-45.497427455
 40
26.310930624
100
AcDbArc
 50
141.1366456505
 51
141.6864977968
  0
CIRCLE
  5
542
100
AcDbEntity
  8
DRAFT
100
AcDbCircle
 62
7
  6
CONTINUOUS
 10
-36.0117650694
 20
-29.4882349306
 40
16.738041424
  0
ARC
  5
543
100
AcDbEntity
  8
DRAFT
100
AcDbCircle
 62
7
  6
CONTINUOUS
 10
-36.0117650694
 20
-29.4882349306
 40
16.6939596788
100
AcDbArc
 50
357.447236759
 51
2.552763241
  0
ARC
  5
544
100
AcDbEntity
  8
DRAFT
100
AcDbCircle
 62
7
  6
CONTINUOUS
 10
-36.0117650694
 20
-29.4882349306
 40
16.6939596788
100
AcDbArc
 50
267.447236759
 51
272.552763241
  0
ARC
  5
545
100
AcDbEntity
  8
DRAFT
100
AcDbCircle
 62
7
  6
CONTINUOUS
 10
-36.0117650694
 20
-29.4882349306
 40
16.6939596788
100
AcDbArc
 50
177.447236759
 51
182.552763241
  0
ARC
  5
546
100
AcDbEntity
  8
DRAFT
100
AcDbCircle
 62
7
  6
CONTINUOUS
 10
-36.0117650694
 20
-29.4882349306
 40
16.6939596788
100
AcDbArc
 50
87.447236759
 51
92.552763241
  0
ARC
  5
547
100
AcDbEntity
  8
DRAFT
100
AcDbCircle
 62
7
  6
CONTINUOUS
 10
-36.0117650694
 20
-29.4882349306
 40
16.5
100
AcDbArc
 50
183.4746007931
 51
266.5253992069
  0
ARC
  5
548
100
AcDbEntity
  8
DRAFT
100
AcDbCircle
 62
7
  6
CONTINUOUS
 10
-36.0117650694
 20
-29.4882349306
 40
16.5
100
AcDbArc
 50
93.4746007931
 51
176.5253992069
  0
ARC
  5
549
100
AcDbEntity
  8
DRAFT
100
AcDbCircle
 62
7
  6
CONTINUOUS
 10
-36.0117650694
 20
-29.4882349306
 40
16.5
100
AcDbArc
 50
273.4746007931
 51
356.5253992069
  0
ARC
  5
54A
100
AcDbEntity
  8
DRAFT
100
AcDbCircle
 62
7
  6
CONTINUOUS
 10
-36.0117650694
 20
-29.4882349306
 40
16.5
100
AcDbArc
 50
3.4746007931
 51
86.5253992069
  0
ARC
  5
54B
100
AcDbEntity
  8
DRAFT
100
AcDbCircle
 62
7
  6
CONTINUOUS
 10
-36.0117650694
 20
-29.4882349306
 40
15.5
100
AcDbArc
 50
184.7141877419
 51
265.2858122581
  0
ARC
  5
54C
100
AcDbEntity
  8
DRAFT
100
AcDbCircle
 62
7
  6
CONTINUOUS
 10
-36.0117650694
 20
-29.4882349306
 40
15.5
100
AcDbArc
 50
94.7141877419
 51
175.2858122581
  0
ARC
  5
54D
100
AcDbEntity
  8
DRAFT
100
AcDbCircle
 62
7
  6
CONTINUOUS
 10
-36.0117650694
 20
-29.4882349306
 40
15.5
100
AcDbArc
 50
274.7141877419
 51
355.2858122581
  0
ARC
  5
54E
100
AcDbEntity
  8
DRAFT
100
AcDbCircle
 62
7
  6
CONTINUOUS
 10
-36.0117650694
 20
-29.4882349306
 40
15.5
100
AcDbArc
 50
4.7141877419
 51
85.2858122581
  0
ARC
  5
54F
100
AcDbEntity
  8
DRAFT
100
AcDbCircle
 62
7
  6
CONTINUOUS
 10
-36.0117650694
 20
-29.4882349306
 40
15.3060403212
100
AcDbArc
 50
274.2039005302
 51
355.7960994698
  0
ARC
  5
550
100
AcDbEntity
  8
DRAFT
100
AcDbCircle
 62
7
  6
CONTINUOUS
 10
-36.0117650694
 20
-29.4882349306
 40
15.3060403212
100
AcDbArc
 50
184.2039005302
 51
265.7960994698
  0
ARC
  5
551
100
AcDbEntity
  8
DRAFT
100
AcDbCircle
 62
7
  6
CONTINUOUS
 10
-36.0117650694
 20
-29.4882349306
 40
15.3060403212
100
AcDbArc
 50
94.2039005302
 51
175.7960994698
  0
ARC
  5
552
100
AcDbEntity
  8
DRAFT
100
AcDbCircle
 62
7
  6
CONTINUOUS
 10
-36.0117650694
 20
-29.4882349306
 40
15.3060403212
100
AcDbArc
 50
4.2039005302
 51
85.7960994698
  0
ARC
  5
553
100
AcDbEntity
  8
DRAFT
100
AcDbCircle
 62
7
  6
CONTINUOUS
 10
-36.0117650694
 20
-29.4882349306
 40
13.6939596788
100
AcDbArc
 50
182.0674742946
 51
267.9325257054
  0
ARC
  5
554
100
AcDbEntity
  8
DRAFT
100
AcDbCircle
 62
7
  6
CONTINUOUS
 10
-36.0117650694
 20
-29.4882349306
 40
13.6939596788
100
AcDbArc
 50
92.0674742946
 51
177.9325257054
  0
ARC
  5
555
100
AcDbEntity
  8
DRAFT
100
AcDbCircle
 62
7
  6
CONTINUOUS
 10
-36.0117650694
 20
-29.4882349306
 40
13.6939596788
100
AcDbArc
 50
272.0674742946
 51
357.9325257054
  0
ARC
  5
556
100
AcDbEntity
  8
DRAFT
100
AcDbCircle
 62
7
  6
CONTINUOUS
 10
-36.0117650694
 20
-29.4882349306
 40
13.6939596788
100
AcDbArc
 50
2.0674742946
 51
87.9325257054
  0
ARC
  5
557
100
AcDbEntity
  8
DRAFT
100
AcDbCircle
 62
7
  6
CONTINUOUS
 10
-36.0117650694
 20
-29.4882349306
 40
13.5
100
AcDbArc
 50
183.1847385367
 51
266.8152614633
  0
ARC
  5
558
100
AcDbEntity
  8
DRAFT
100
AcDbCircle
 62
7
  6
CONTINUOUS
 10
-36.0117650694
 20
-29.4882349306
 40
13.5
100
AcDbArc
 50
93.1847385367
 51
176.8152614633
  0
ARC
  5
559
100
AcDbEntity
  8
DRAFT
100
AcDbCircle
 62
7
  6
CONTINUOUS
 10
-36.0117650694
 20
-29.4882349306
 40
13.5
100
AcDbArc
 50
273.1847385367
 51
356.8152614633
  0
ARC
  5
55A
100
AcDbEntity
  8
DRAFT
100
AcDbCircle
 62
7
  6
CONTINUOUS
 10
-36.0117650694
 20
-29.4882349306
 40
13.5
100
AcDbArc
 50
3.1847385367
 51
86.8152614633
  0
ARC
  5
55B
100
AcDbEntity
  8
DRAFT
100
AcDbCircle
 62
7
  6
CONTINUOUS
 10
-36.0117650694
 20
-29.4882349306
 40
12.5
100
AcDbArc
 50
184.6971495355
 51
265.3028504645
  0
ARC
  5
55C
100
AcDbEntity
  8
DRAFT
100
AcDbCircle
 62
7
  6
CONTINUOUS
 10
-36.0117650694
 20
-29.4882349306
 40
12.5
100
AcDbArc
 50
94.6971495355
 51
175.3028504645
  0
ARC
  5
55D
100
AcDbEntity
  8
DRAFT
100
AcDbCircle
 62
7
  6
CONTINUOUS
 10
-36.0117650694
 20
-29.4882349306
 40
12.5
100
AcDbArc
 50
274.6971495355
 51
355.3028504645
  0
ARC
  5
55E
100
AcDbEntity
  8
DRAFT
100
AcDbCircle
 62
7
  6
CONTINUOUS
 10
-36.0117650694
 20
-29.4882349306
 40
12.5
100
AcDbArc
 50
4.6971495355
 51
85.3028504645
  0
ARC
  5
55F
100
AcDbEntity
  8
DRAFT
100
AcDbCircle
 62
7
  6
CONTINUOUS
 10
-36.0117650694
 20
-29.4882349306
 40
12.3060403212
100
AcDbArc
 50
184.0625032517
 51
265.9374967483
  0
ARC
  5
560
100
AcDbEntity
  8
DRAFT
100
AcDbCircle
 62
7
  6
CONTINUOUS
 10
-36.0117650694
 20
-29.4882349306
 40
12.3060403212
100
AcDbArc
 50
94.0625032517
 51
175.9374967483
  0
ARC
  5
561
100
AcDbEntity
  8
DRAFT
100
AcDbCircle
 62
7
  6
CONTINUOUS
 10
-36.0117650694
 20
-29.4882349306
 40
12.3060403212
100
AcDbArc
 50
274.0625032517
 51
355.9374967483
  0
ARC
  5
562
100
AcDbEntity
  8
DRAFT
100
AcDbCircle
 62
7
  6
CONTINUOUS
 10
-36.0117650694
 20
-29.4882349306
 40
12.3060403212
100
AcDbArc
 50
4.0625032517
 51
85.9374967483
  0
CIRCLE
  5
563
100
AcDbEntity
  8
DRAFT
100
AcDbCircle
 62
7
  6
CONTINUOUS
 10
-36.0117650694
 20
-29.4882349306
 40
10.6939596788
  0
ARC
  5
564
100
AcDbEntity
  8
DRAFT
100
AcDbCircle
 62
7
  6
CONTINUOUS
 10
-36.0117650694
 20
-29.4882349306
 40
10.6498779336
100
AcDbArc
 50
358.3716151237
 51
1.6283848763
  0
ARC
  5
565
100
AcDbEntity
  8
DRAFT
100
AcDbCircle
 62
7
  6
CONTINUOUS
 10
-36.0117650694
 20
-29.4882349306
 40
10.6498779336
100
AcDbArc
 50
268.3716151237
 51
271.6283848763
  0
ARC
  5
566
100
AcDbEntity
  8
DRAFT
100
AcDbCircle
 62
7
  6
CONTINUOUS
 10
-36.0117650694
 20
-29.4882349306
 40
10.6498779336
100
AcDbArc
 50
178.3716151237
 51
181.6283848763
  0
ARC
  5
567
100
AcDbEntity
  8
DRAFT
100
AcDbCircle
 62
7
  6
CONTINUOUS
 10
-36.0117650694
 20
-29.4882349306
 40
10.6498779336
100
AcDbArc
 50
88.3716151237
 51
91.6283848763
  0
ARC
  5
568
100
AcDbEntity
  8
DRAFT
100
AcDbCircle
 62
7
  6
CONTINUOUS
 10
-36.0117650694
 20
-29.4882349306
 40
10.5
100
AcDbArc
 50
182.7294026368
 51
267.2705973632
  0
ARC
  5
569
100
AcDbEntity
  8
DRAFT
100
AcDbCircle
 62
7
  6
CONTINUOUS
 10
-36.0117650694
 20
-29.4882349306
 40
10.5
100
AcDbArc
 50
92.7294026368
 51
177.2705973632
  0
ARC
  5
56A
100
AcDbEntity
  8
DRAFT
100
AcDbCircle
 62
7
  6
CONTINUOUS
 10
-36.0117650694
 20
-29.4882349306
 40
10.5
100
AcDbArc
 50
272.7294026368
 51
357.2705973632
  0
ARC
  5
56B
100
AcDbEntity
  8
DRAFT
100
AcDbCircle
 62
7
  6
CONTINUOUS
 10
-36.0117650694
 20
-29.4882349306
 40
10.5
100
AcDbArc
 50
2.7294026368
 51
87.2705973632
  0
ARC
  5
56C
100
AcDbEntity
  8
DRAFT
100
AcDbCircle
 62
7
  6
CONTINUOUS
 10
-36.0117650694
 20
-29.4882349306
 40
9.5
100
AcDbArc
 50
184.668453194
 51
265.331546806
  0
ARC
  5
56D
100
AcDbEntity
  8
DRAFT
100
AcDbCircle
 62
7
  6
CONTINUOUS
 10
-36.0117650694
 20
-29.4882349306
 40
9.5
100
AcDbArc
 50
94.668453194
 51
175.331546806
  0
ARC
  5
56E
100
AcDbEntity
  8
DRAFT
100
AcDbCircle
 62
7
  6
CONTINUOUS
 10
-36.0117650694
 20
-29.4882349306
 40
9.5
100
AcDbArc
 50
274.668453194
 51
355.331546806
  0
ARC
  5
56F
100
AcDbEntity
  8
DRAFT
100
AcDbCircle
 62
7
  6
CONTINUOUS
 10
-36.0117650694
 20
-29.4882349306
 40
9.5
100
AcDbArc
 50
4.668453194
 51
85.331546806
  0
ARC
  5
570
100
AcDbEntity
  8
DRAFT
100
AcDbCircle
 62
7
  6
CONTINUOUS
 10
-36.0117650694
 20
-29.4882349306
 40
9.3501220664
100
AcDbArc
 50
274.0226849558
 51
355.9773150442
  0
ARC
  5
571
100
AcDbEntity
  8
DRAFT
100
AcDbCircle
 62
7
  6
CONTINUOUS
 10
-36.0117650694
 20
-29.4882349306
 40
9.3501220664
100
AcDbArc
 50
184.0226849558
 51
265.9773150442
  0
ARC
  5
572
100
AcDbEntity
  8
DRAFT
100
AcDbCircle
 62
7
  6
CONTINUOUS
 10
-36.0117650694
 20
-29.4882349306
 40
9.3501220664
100
AcDbArc
 50
94.0226849558
 51
175.9773150442
  0
ARC
  5
573
100
AcDbEntity
  8
DRAFT
100
AcDbCircle
 62
7
  6
CONTINUOUS
 10
-36.0117650694
 20
-29.4882349306
 40
9.3501220664
100
AcDbArc
 50
4.0226849558
 51
85.9773150442
  0
ARC
  5
574
100
AcDbEntity
  8
DRAFT
100
AcDbCircle
 62
7
  6
CONTINUOUS
 10
-20.0025725112
 20
-19.4894588895
 40
26.3109306239
100
AcDbArc
 50
231.136645556
 51
231.6864977024
  0
ARC
  5
575
100
AcDbEntity
  8
DRAFT
100
AcDbCircle
 62
7
  6
CONTINUOUS
 10
-20.6740213404
 20
-4.5131027865
 40
41.0660324251
100
AcDbArc
 50
218.7759044848
 51
219.236371135
  0
ARC
  5
576
100
AcDbEntity
  8
DRAFT
100
AcDbCircle
 62
7
  6
CONTINUOUS
 10
-22.1557370069
 20
-2.769345771
 40
40.74397114
100
AcDbArc
 50
129.0851152441
 51
129.3449279098
  0
ARC
  5
577
100
AcDbEntity
  8
DRAFT
100
AcDbCircle
 62
7
  6
CONTINUOUS
 10
-23.3089761752
 20
-8.9675825835
 40
33.7332866474
100
AcDbArc
 50
218.5330320074
 51
219.0909937707
  0
ARC
  5
578
100
AcDbEntity
  8
DRAFT
100
AcDbCircle
 62
7
  6
CONTINUOUS
 10
-24.6258181273
 20
-3.7159333343
 40
32.5555242749
100
AcDbArc
 50
230.1648914982
 51
230.4881988023
  0
ARC
  5
579
100
AcDbEntity
  8
DRAFT
100
AcDbCircle
 62
7
  6
CONTINUOUS
 10
-26.0129890085
 20
-13.4790423962
 40
26.3109306244
100
AcDbArc
 50
218.3135022302
 51
218.8633543766
  0
ARC
  5
57A
100
AcDbEntity
  8
DRAFT
100
AcDbCircle
 62
7
  6
CONTINUOUS
 10
-13.3539668998
 20
-23.0864777516
 40
66.3935532291
100
AcDbArc
 50
129.1650156529
 51
129.3712122756
  0
ARC
  5
57B
100
AcDbEntity
  8
DRAFT
100
AcDbCircle
 62
7
  6
CONTINUOUS
 10
-15.4911126975
 20
-16.785446056
 40
33.7332866476
100
AcDbArc
 50
230.9090061755
 51
231.4669679388
  0
ARC
  5
57C
100
AcDbEntity
  8
DRAFT
100
AcDbCircle
 62
7
  6
CONTINUOUS
 10
-10.2394634816
 20
-18.1022879833
 40
32.5555242717
100
AcDbArc
 50
219.5118012141
 51
219.8351085182
  0
ARC
  5
57D
100
AcDbEntity
  8
DRAFT
100
AcDbCircle
 62
7
  6
CONTINUOUS
 10
-16.6100078815
 20
-6.8304367525
 40
66.3935532275
100
AcDbArc
 50
320.6287877138
 51
320.8349843365
  0
ARC
  5
57E
100
AcDbEntity
  8
DRAFT
100
AcDbCircle
 62
7
  6
CONTINUOUS
 10
-5.7516523166
 20
-11.5187335045
 40
52.6864373504
100
AcDbArc
 50
320.6083672634
 51
320.8682298597
  0
ARC
  5
57F
100
AcDbEntity
  8
DRAFT
100
AcDbCircle
 62
7
  6
CONTINUOUS
 10
-18.0422636562
 20
-12.2281221857
 40
52.6864373483
100
AcDbArc
 50
129.1317701239
 51
129.3916327202
  0
ARC
  5
580
100
AcDbEntity
  8
DRAFT
100
AcDbCircle
 62
7
  6
CONTINUOUS
 10
-16.6833504346
 20
-1.6030583875
 40
51.1441208932
100
AcDbArc
 50
141.1025838377
 51
141.469739953
  0
ARC
  5
581
100
AcDbEntity
  8
DRAFT
100
AcDbCircle
 62
7
  6
CONTINUOUS
 10
-2.0825662715
 20
-14.482225183
 40
42.8608270196
100
AcDbArc
 50
219.5316948318
 51
219.8494272516
  0
ARC
  5
582
100
AcDbEntity
  8
DRAFT
100
AcDbCircle
 62
7
  6
CONTINUOUS
 10
-11.0366329134
 20
-14.1504912113
 40
41.0660324251
100
AcDbArc
 50
230.7636288436
 51
231.2240954937
  0
ARC
  5
583
100
AcDbEntity
  8
DRAFT
100
AcDbCircle
 62
7
  6
CONTINUOUS
 10
-88.6100078903
 20
6.8539669012
 40
66.3935532281
100
AcDbArc
 50
39.1650156521
 51
39.3712122748
  0
ARC
  5
584
100
AcDbEntity
  8
DRAFT
100
AcDbCircle
 62
7
  6
CONTINUOUS
 10
-54.7190438129
 20
12.6957874939
 40
53.2934677865
100
AcDbArc
 50
309.6022368689
 51
309.8576460937
  0
ARC
  5
585
100
AcDbEntity
  8
DRAFT
100
AcDbCircle
 62
7
  6
CONTINUOUS
 10
-77.7516523269
 20
11.5422636522
 40
52.6864373527
100
AcDbArc
 50
39.1317701257
 51
39.391632722
  0
ARC
  5
586
100
AcDbEntity
  8
DRAFT
100
AcDbCircle
 62
7
  6
CONTINUOUS
 10
-67.126588529
 20
10.1833504378
 40
51.1441208923
100
AcDbArc
 50
51.1025838332
 51
51.4697399484
  0
ARC
  5
587
100
AcDbEntity
  8
DRAFT
100
AcDbCircle
 62
7
  6
CONTINUOUS
 10
-51.0177747943
 20
4.4409638892
 40
42.8608270218
100
AcDbArc
 50
309.5316947898
 51
309.8494272096
  0
ARC
  5
588
100
AcDbEntity
  8
DRAFT
100
AcDbCircle
 62
7
  6
CONTINUOUS
 10
-61.1369927028
 20
13.8143859677
 40
41.2928653639
100
AcDbArc
 50
51.1982890796
 51
51.6515445816
  0
ARC
  5
589
100
AcDbEntity
  8
DRAFT
100
AcDbCircle
 62
7
  6
CONTINUOUS
 10
-51.7091441789
 20
4.3865374473
 40
41.2928653629
100
AcDbArc
 50
38.3484553995
 51
38.8017109015
  0
ARC
  5
58A
100
AcDbEntity
  8
DRAFT
100
AcDbCircle
 62
7
  6
CONTINUOUS
 10
-68.2928759143
 20
15.6557370058
 40
40.7439711443
100
AcDbArc
 50
39.0851152413
 51
39.344927907
  0
ARC
  5
58B
100
AcDbEntity
  8
DRAFT
100
AcDbCircle
 62
7
  6
CONTINUOUS
 10
-48.5074711301
 20
9.6655860746
 40
32.6114649621
100
AcDbArc
 50
38.1597888218
 51
38.6012398022
  0
ARC
  5
58C
100
AcDbEntity
  8
DRAFT
100
AcDbCircle
 62
7
  6
CONTINUOUS
 10
-55.857944076
 20
42.0074711201
 40
32.6114649617
100
AcDbArc
 50
308.1597888488
 51
308.6012398292
  0
ARC
  5
58D
100
AcDbEntity
  8
DRAFT
100
AcDbCircle
 62
7
  6
CONTINUOUS
 10
-55.8579440755
 20
17.0160590194
 40
32.6114649608
100
AcDbArc
 50
51.3987601708
 51
51.8402111512
  0
ARC
  5
58E
100
AcDbEntity
  8
DRAFT
100
AcDbCircle
 62
7
  6
CONTINUOUS
 10
-88.6100078815
 20
52.1695632475
 40
66.3935532275
100
AcDbArc
 50
320.6287877138
 51
320.8349843365
  0
ARC
  5
58F
100
AcDbEntity
  8
DRAFT
100
AcDbCircle
 62
7
  6
CONTINUOUS
 10
-77.7516523164
 20
47.4812664954
 40
52.6864373501
100
AcDbArc
 50
320.6083672634
 51
320.8682298597
  0
ARC
  5
590
100
AcDbEntity
  8
RACCORDO
100
AcDbCircle
 62
7
  6
CONTINUOUS
 10
-68.9782883552
 20
56.6611983
 40
2.053850982
100
AcDbArc
 50
275.7812817142
 51
278.0251246985
  0
CIRCLE
  5
591
100
AcDbEntity
  8
0
100
AcDbCircle
 62
7
  6
CONTINUOUS
 10
-69.5117645205
 20
56.5117645363
 40
1.4999996177
  0
ARC
  5
592
100
AcDbEntity
  8
0
100
AcDbCircle
 62
7
  6
CONTINUOUS
 10
-69.5117650694
 20
56.5117650694
 40
1.0
100
AcDbArc
 50
0.0
 51
75.84228485
  0
ARC
  5
593
100
AcDbEntity
  8
0
100
AcDbCircle
 62
7
  6
CONTINUOUS
 10
-69.5117650694
 20
56.5117650694
 40
1.0
100
AcDbArc
 50
127.6774584221
 51
255.84228485
  0
ARC
  5
594
100
AcDbEntity
  8
0
100
AcDbCircle
 62
7
  6
CONTINUOUS
 10
-69.40842681
 20
56.8735648296
 40
0.8320718012
100
AcDbArc
 50
164.7743839811
 51
169.517352529
  0
ARC
  5
595
100
AcDbEntity
  8
0
100
AcDbCircle
 62
7
  6
CONTINUOUS
 10
-69.4558127493
 20
56.6395252846
 40
0.813765055
100
AcDbArc
 50
150.6304078959
 51
164.4190814713
  0
ARC
  5
596
100
AcDbEntity
  8
RACCORDO
100
AcDbCircle
 62
253
  6
CONTINUOUS
 10
-73.3413181752
 20
52.166235183
 40
0.5000420763
100
AcDbArc
 50
90.0137266961
 51
179.9931448443
  0
ARC
  5
597
100
AcDbEntity
  8
RACCORDO
100
AcDbCircle
 62
253
  6
CONTINUOUS
 10
-68.6914947439
 20
54.6274765132
 40
0.4999417994
100
AcDbArc
 50
314.9937859835
 51
61.0837449784
  0
ARC
  5
598
100
AcDbEntity
  8
RACCORDO
100
AcDbCircle
 62
253
  6
CONTINUOUS
 10
-68.6501474501
 20
54.6226866781
 40
0.0416825628
100
AcDbArc
 50
165.2369192698
 51
173.4231882467
  0
ARC
  5
599
100
AcDbEntity
  8
0
100
AcDbCircle
 62
7
  6
CONTINUOUS
 10
-79.5117650694
 20
66.5117650694
 40
10.0
100
AcDbArc
 50
90.0
 51
180.0
  0
ARC
  5
59A
100
AcDbEntity
  8
0
100
AcDbCircle
 62
7
  6
CONTINUOUS
 10
-79.5117650694
 20
66.5117650694
 40
7.0
100
AcDbArc
 50
90.0
 51
180.0
  0
ARC
  5
59B
100
AcDbEntity
  8
DRAFT
100
AcDbCircle
 62
7
  6
CONTINUOUS
 10
-67.1265885296
 20
48.8401797018
 40
51.1441208934
100
AcDbArc
 50
308.5302600516
 51
308.8974161668
  0
ARC
  5
59C
100
AcDbEntity
  8
DRAFT
100
AcDbCircle
 62
7
  6
CONTINUOUS
 10
-55.3401796935
 20
60.6265885399
 40
51.1441208933
100
AcDbArc
 50
321.1025838183
 51
321.4697399336
  0
ARC
  5
59D
100
AcDbEntity
  8
DRAFT
100
AcDbCircle
 62
7
  6
CONTINUOUS
 10
-61.1369927026
 20
45.2091441708
 40
41.2928653635
100
AcDbArc
 50
308.3484554184
 51
308.8017109204
  0
ARC
  5
59E
100
AcDbEntity
  8
DRAFT
100
AcDbCircle
 62
7
  6
CONTINUOUS
 10
-51.7091441689
 20
54.6369927053
 40
41.2928653637
100
AcDbArc
 50
321.198289075
 51
321.651544577
  0
ARC
  5
59F
100
AcDbEntity
  8
DRAFT
100
AcDbCircle
 62
7
  6
CONTINUOUS
 10
-49.8677931245
 20
61.7928759169
 40
40.7439711408
100
AcDbArc
 50
309.0851152297
 51
309.3449278955
  0
ARC
  5
5A0
100
AcDbEntity
  8
DRAFT
100
AcDbCircle
 62
7
  6
CONTINUOUS
 10
-68.2928759036
 20
43.3677931374
 40
40.7439711387
100
AcDbArc
 50
320.6550720786
 51
320.9148847443
  0
ARC
  5
5A1
100
AcDbEntity
  8
DRAFT
100
AcDbCircle
 62
7
  6
CONTINUOUS
 10
-48.5074711219
 20
49.3579440742
 40
32.6114649619
100
AcDbArc
 50
321.3987601752
 51
321.8402111556
  0
ARC
  5
5A2
100
AcDbEntity
  8
DRAFT
100
AcDbCircle
 62
7
  6
CONTINUOUS
 10
-61.5117650694
 20
48.5117650694
 40
22.0
100
AcDbArc
 50
90.0
 51
180.0
  0
ARC
  5
5A3
100
AcDbEntity
  8
RACCORDO
100
AcDbCircle
 62
253
  6
CONTINUOUS
 10
-61.5117650694
 20
48.5117650694
 40
21.9473301725
100
AcDbArc
 50
90.0
 51
180.0
  0
ARC
  5
5A4
100
AcDbEntity
  8
RACCORDO
100
AcDbCircle
 62
253
  6
CONTINUOUS
 10
-61.5117650694
 20
48.5117650694
 40
20.9474831724
100
AcDbArc
 50
90.0
 51
180.0
  0
ARC
  5
5A5
100
AcDbEntity
  8
DRAFT
100
AcDbCircle
 62
7
  6
CONTINUOUS
 10
-68.3128977451
 20
55.3128977451
 40
1.25
100
AcDbArc
 50
56.5369590328
 51
76.0888918935
  0
ARC
  5
5A6
100
AcDbEntity
  8
DRAFT
100
AcDbCircle
 62
7
  6
CONTINUOUS
 10
-68.3128977451
 20
55.3128977451
 40
1.25
100
AcDbArc
 50
193.9138318585
 51
213.4630409672
  0
ARC
  5
5A7
100
AcDbEntity
  8
RACCORDO
100
AcDbCircle
 62
7
  6
CONTINUOUS
 10
-68.3128977451
 20
55.3128977451
 40
0.7830744955
100
AcDbArc
 50
28.9177072635
 51
241.0822927365
  0
ARC
  5
5A8
100
AcDbEntity
  8
RACCORDO
100
AcDbCircle
 62
253
  6
CONTINUOUS
 10
-65.1662351458
 20
60.3413181376
 40
0.5000421322
100
AcDbArc
 50
90.00685942
 51
179.9862690037
  0
ARC
  5
5A9
100
AcDbEntity
  8
RACCORDO
100
AcDbCircle
 62
253
  6
CONTINUOUS
 10
-67.6274372764
 20
55.6915505308
 40
0.4999901179
100
AcDbArc
 50
208.9158850444
 51
315.001487813
  0
ARC
  5
5AA
100
AcDbEntity
  8
RACCORDO
100
AcDbCircle
 62
253
  6
CONTINUOUS
 10
-68.3128977451
 20
55.3128977451
 40
0.283093534
100
AcDbArc
 50
28.9177072635
 51
241.0822927365
  0
ARC
  5
5AB
100
AcDbEntity
  8
DRAFT
100
AcDbCircle
 62
7
  6
CONTINUOUS
 10
-58.6695632331
 20
82.110007904
 40
66.3935532358
100
AcDbArc
 50
309.1650156415
 51
309.3712122642
  0
ARC
  5
5AC
100
AcDbEntity
  8
DRAFT
100
AcDbCircle
 62
7
  6
CONTINUOUS
 10
-53.9812664767
 20
71.2516523385
 40
52.6864373554
100
AcDbArc
 50
309.1317701094
 51
309.3916327057
  0
ARC
  5
5AD
100
AcDbEntity
  8
DRAFT
100
AcDbCircle
 62
7
  6
CONTINUOUS
 10
-21.0057553332
 20
4.4409638817
 40
42.8608270233
100
AcDbArc
 50
230.1505727723
 51
230.4683051921
  0
ARC
  5
5AE
100
AcDbEntity
  8
DRAFT
100
AcDbCircle
 62
7
  6
CONTINUOUS
 10
-20.3143859585
 20
4.3865374461
 40
41.2928653648
100
AcDbArc
 50
141.1982890985
 51
141.6515446005
  0
ARC
  5
5AF
100
AcDbEntity
  8
DRAFT
100
AcDbCircle
 62
7
  6
CONTINUOUS
 10
-23.5160590082
 20
9.6655860742
 40
32.6114649628
100
AcDbArc
 50
141.3987601978
 51
141.8402111782
  0
CIRCLE
  5
5B0
100
AcDbEntity
  8
DRAFT
100
AcDbCircle
 62
7
  6
CONTINUOUS
 10
-36.0117650694
 20
29.5117650694
 40
20.738041424
  0
ARC
  5
5B1
100
AcDbEntity
  8
DRAFT
100
AcDbCircle
 62
7
  6
CONTINUOUS
 10
-36.0117650694
 20
29.5117650694
 40
20.6939596788
100
AcDbArc
 50
267.938866307
 51
272.061133693
  0
ARC
  5
5B2
100
AcDbEntity
  8
DRAFT
100
AcDbCircle
 62
7
  6
CONTINUOUS
 10
-36.0117650694
 20
29.5117650694
 40
20.6939596788
100
AcDbArc
 50
177.938866307
 51
182.061133693
  0
ARC
  5
5B3
100
AcDbEntity
  8
DRAFT
100
AcDbCircle
 62
7
  6
CONTINUOUS
 10
-36.0117650694
 20
29.5117650694
 40
20.6939596788
100
AcDbArc
 50
87.938866307
 51
92.061133693
  0
ARC
  5
5B4
100
AcDbEntity
  8
DRAFT
100
AcDbCircle
 62
7
  6
CONTINUOUS
 10
-36.0117650694
 20
29.5117650694
 40
20.6939596788
100
AcDbArc
 50
357.938866307
 51
2.061133693
  0
ARC
  5
5B5
100
AcDbEntity
  8
DRAFT
100
AcDbCircle
 62
7
  6
CONTINUOUS
 10
-36.0117650694
 20
29.5117650694
 40
20.5
100
AcDbArc
 50
272.7960256963
 51
357.2039743037
  0
ARC
  5
5B6
100
AcDbEntity
  8
DRAFT
100
AcDbCircle
 62
7
  6
CONTINUOUS
 10
-36.0117650694
 20
29.5117650694
 40
20.5
100
AcDbArc
 50
2.7960256963
 51
87.2039743037
  0
ARC
  5
5B7
100
AcDbEntity
  8
DRAFT
100
AcDbCircle
 62
7
  6
CONTINUOUS
 10
-36.0117650694
 20
29.5117650694
 40
20.5
100
AcDbArc
 50
182.7960256963
 51
267.2039743037
  0
ARC
  5
5B8
100
AcDbEntity
  8
DRAFT
100
AcDbCircle
 62
7
  6
CONTINUOUS
 10
-36.0117650694
 20
29.5117650694
 40
20.5
100
AcDbArc
 50
92.7960256963
 51
177.2039743037
  0
ARC
  5
5B9
100
AcDbEntity
  8
DRAFT
100
AcDbCircle
 62
7
  6
CONTINUOUS
 10
-36.0117650694
 20
29.5117650694
 40
19.5
100
AcDbArc
 50
273.741716217
 51
356.258283783
  0
ARC
  5
5BA
100
AcDbEntity
  8
DRAFT
100
AcDbCircle
 62
7
  6
CONTINUOUS
 10
-36.0117650694
 20
29.5117650694
 40
19.5
100
AcDbArc
 50
3.741716217
 51
86.258283783
  0
ARC
  5
5BB
100
AcDbEntity
  8
DRAFT
100
AcDbCircle
 62
7
  6
CONTINUOUS
 10
-36.0117650694
 20
29.5117650694
 40
19.5
100
AcDbArc
 50
183.741716217
 51
266.258283783
  0
ARC
  5
5BC
100
AcDbEntity
  8
DRAFT
100
AcDbCircle
 62
7
  6
CONTINUOUS
 10
-36.0117650694
 20
29.5117650694
 40
19.5
100
AcDbArc
 50
93.741716217
 51
176.258283783
  0
ARC
  5
5BD
100
AcDbEntity
  8
DRAFT
100
AcDbCircle
 62
7
  6
CONTINUOUS
 10
-36.0117650694
 20
29.5117650694
 40
19.3060403212
100
AcDbArc
 50
183.3296641884
 51
266.6703358116
  0
ARC
  5
5BE
100
AcDbEntity
  8
DRAFT
100
AcDbCircle
 62
7
  6
CONTINUOUS
 10
-36.0117650694
 20
29.5117650694
 40
19.3060403212
100
AcDbArc
 50
93.3296641884
 51
176.6703358116
  0
ARC
  5
5BF
100
AcDbEntity
  8
DRAFT
100
AcDbCircle
 62
7
  6
CONTINUOUS
 10
-36.0117650694
 20
29.5117650694
 40
19.3060403212
100
AcDbArc
 50
3.3296641884
 51
86.6703358116
  0
ARC
  5
5C0
100
AcDbEntity
  8
DRAFT
100
AcDbCircle
 62
7
  6
CONTINUOUS
 10
-36.0117650694
 20
29.5117650694
 40
19.3060403212
100
AcDbArc
 50
273.3296641884
 51
356.6703358116
  0
ARC
  5
5C1
100
AcDbEntity
  8
DRAFT
100
AcDbCircle
 62
7
  6
CONTINUOUS
 10
-36.0117650694
 20
29.5117650694
 40
16.6939596788
100
AcDbArc
 50
271.6978501787
 51
358.3021498213
  0
ARC
  5
5C2
100
AcDbEntity
  8
DRAFT
100
AcDbCircle
 62
7
  6
CONTINUOUS
 10
-36.0117650694
 20
29.5117650694
 40
16.6939596788
100
AcDbArc
 50
1.6978501787
 51
88.3021498213
  0
ARC
  5
5C3
100
AcDbEntity
  8
DRAFT
100
AcDbCircle
 62
7
  6
CONTINUOUS
 10
-36.0117650694
 20
29.5117650694
 40
16.6939596788
100
AcDbArc
 50
181.6978501787
 51
268.3021498213
  0
ARC
  5
5C4
100
AcDbEntity
  8
DRAFT
100
AcDbCircle
 62
7
  6
CONTINUOUS
 10
-36.0117650694
 20
29.5117650694
 40
16.6939596788
100
AcDbArc
 50
91.6978501787
 51
178.3021498213
  0
ARC
  5
5C5
100
AcDbEntity
  8
DRAFT
100
AcDbCircle
 62
7
  6
CONTINUOUS
 10
-36.0117650694
 20
29.5117650694
 40
16.5
100
AcDbArc
 50
272.6052512651
 51
357.3947487349
  0
ARC
  5
5C6
100
AcDbEntity
  8
DRAFT
100
AcDbCircle
 62
7
  6
CONTINUOUS
 10
-36.0117650694
 20
29.5117650694
 40
16.5
100
AcDbArc
 50
2.6052512651
 51
87.3947487349
  0
ARC
  5
5C7
100
AcDbEntity
  8
DRAFT
100
AcDbCircle
 62
7
  6
CONTINUOUS
 10
-36.0117650694
 20
29.5117650694
 40
16.5
100
AcDbArc
 50
182.6052512651
 51
267.3947487349
  0
ARC
  5
5C8
100
AcDbEntity
  8
DRAFT
100
AcDbCircle
 62
7
  6
CONTINUOUS
 10
-36.0117650694
 20
29.5117650694
 40
16.5
100
AcDbArc
 50
92.6052512651
 51
177.3947487349
  0
ARC
  5
5C9
100
AcDbEntity
  8
DRAFT
100
AcDbCircle
 62
7
  6
CONTINUOUS
 10
-36.0117650694
 20
29.5117650694
 40
15.5
100
AcDbArc
 50
273.7821417057
 51
356.2178582943
  0
ARC
  5
5CA
100
AcDbEntity
  8
DRAFT
100
AcDbCircle
 62
7
  6
CONTINUOUS
 10
-36.0117650694
 20
29.5117650694
 40
15.5
100
AcDbArc
 50
3.7821417057
 51
86.2178582943
  0
ARC
  5
5CB
100
AcDbEntity
  8
DRAFT
100
AcDbCircle
 62
7
  6
CONTINUOUS
 10
-36.0117650694
 20
29.5117650694
 40
15.5
100
AcDbArc
 50
183.7821417057
 51
266.2178582943
  0
ARC
  5
5CC
100
AcDbEntity
  8
DRAFT
100
AcDbCircle
 62
7
  6
CONTINUOUS
 10
-36.0117650694
 20
29.5117650694
 40
15.5
100
AcDbArc
 50
93.7821417057
 51
176.2178582943
  0
ARC
  5
5CD
100
AcDbEntity
  8
DRAFT
100
AcDbCircle
 62
7
  6
CONTINUOUS
 10
-36.0117650694
 20
29.5117650694
 40
15.3060403212
100
AcDbArc
 50
273.2629570174
 51
356.7370429826
  0
ARC
  5
5CE
100
AcDbEntity
  8
DRAFT
100
AcDbCircle
 62
7
  6
CONTINUOUS
 10
-36.0117650694
 20
29.5117650694
 40
15.3060403212
100
AcDbArc
 50
3.2629570174
 51
86.7370429826
  0
ARC
  5
5CF
100
AcDbEntity
  8
DRAFT
100
AcDbCircle
 62
7
  6
CONTINUOUS
 10
-36.0117650694
 20
29.5117650694
 40
15.3060403212
100
AcDbArc
 50
183.2629570174
 51
266.7370429826
  0
ARC
  5
5D0
100
AcDbEntity
  8
DRAFT
100
AcDbCircle
 62
7
  6
CONTINUOUS
 10
-36.0117650694
 20
29.5117650694
 40
15.3060403212
100
AcDbArc
 50
93.2629570174
 51
176.7370429826
  0
CIRCLE
  5
5D1
100
AcDbEntity
  8
DRAFT
100
AcDbCircle
 62
7
  6
CONTINUOUS
 10
-36.0117650694
 20
29.5117650694
 40
13.1939596788
  0
ARC
  5
5D2
100
AcDbEntity
  8
DRAFT
100
AcDbCircle
 62
7
  6
CONTINUOUS
 10
-36.0117650694
 20
29.5117650694
 40
13.1498779336
100
AcDbArc
 50
268.6795251534
 51
271.3204748466
  0
ARC
  5
5D3
100
AcDbEntity
  8
DRAFT
100
AcDbCircle
 62
7
  6
CONTINUOUS
 10
-36.0117650694
 20
29.5117650694
 40
13.1498779336
100
AcDbArc
 50
178.6795251534
 51
181.3204748466
  0
ARC
  5
5D4
100
AcDbEntity
  8
DRAFT
100
AcDbCircle
 62
7
  6
CONTINUOUS
 10
-36.0117650694
 20
29.5117650694
 40
13.1498779336
100
AcDbArc
 50
88.6795251534
 51
91.3204748466
  0
ARC
  5
5D5
100
AcDbEntity
  8
DRAFT
100
AcDbCircle
 62
7
  6
CONTINUOUS
 10
-36.0117650694
 20
29.5117650694
 40
13.1498779336
100
AcDbArc
 50
358.6795251534
 51
1.3204748466
  0
ARC
  5
5D6
100
AcDbEntity
  8
DRAFT
100
AcDbCircle
 62
7
  6
CONTINUOUS
 10
-36.0117650694
 20
29.5117650694
 40
13.0
100
AcDbArc
 50
272.204227504
 51
357.795772496
  0
ARC
  5
5D7
100
AcDbEntity
  8
DRAFT
100
AcDbCircle
 62
7
  6
CONTINUOUS
 10
-36.0117650694
 20
29.5117650694
 40
13.0
100
AcDbArc
 50
2.204227504
 51
87.795772496
  0
ARC
  5
5D8
100
AcDbEntity
  8
DRAFT
100
AcDbCircle
 62
7
  6
CONTINUOUS
 10
-36.0117650694
 20
29.5117650694
 40
13.0
100
AcDbArc
 50
182.204227504
 51
267.795772496
  0
ARC
  5
5D9
100
AcDbEntity
  8
DRAFT
100
AcDbCircle
 62
7
  6
CONTINUOUS
 10
-36.0117650694
 20
29.5117650694
 40
13.0
100
AcDbArc
 50
92.204227504
 51
177.795772496
  0
ARC
  5
5DA
100
AcDbEntity
  8
DRAFT
100
AcDbCircle
 62
7
  6
CONTINUOUS
 10
-36.0117650694
 20
29.5117650694
 40
12.0
100
AcDbArc
 50
273.6887345387
 51
356.3112654613
  0
ARC
  5
5DB
100
AcDbEntity
  8
DRAFT
100
AcDbCircle
 62
7
  6
CONTINUOUS
 10
-36.0117650694
 20
29.5117650694
 40
12.0
100
AcDbArc
 50
3.6887345387
 51
86.3112654613
  0
ARC
  5
5DC
100
AcDbEntity
  8
DRAFT
100
AcDbCircle
 62
7
  6
CONTINUOUS
 10
-36.0117650694
 20
29.5117650694
 40
12.0
100
AcDbArc
 50
183.6887345387
 51
266.3112654613
  0
ARC
  5
5DD
100
AcDbEntity
  8
DRAFT
100
AcDbCircle
 62
7
  6
CONTINUOUS
 10
-36.0117650694
 20
29.5117650694
 40
12.0
100
AcDbArc
 50
93.6887345387
 51
176.3112654613
  0
ARC
  5
5DE
100
AcDbEntity
  8
DRAFT
100
AcDbCircle
 62
7
  6
CONTINUOUS
 10
-36.0117650694
 20
29.5117650694
 40
11.8501220664
100
AcDbArc
 50
183.169648354
 51
266.830351646
  0
ARC
  5
5DF
100
AcDbEntity
  8
DRAFT
100
AcDbCircle
 62
7
  6
CONTINUOUS
 10
-36.0117650694
 20
29.5117650694
 40
11.8501220664
100
AcDbArc
 50
93.169648354
 51
176.830351646
  0
ARC
  5
5E0
100
AcDbEntity
  8
DRAFT
100
AcDbCircle
 62
7
  6
CONTINUOUS
 10
-36.0117650694
 20
29.5117650694
 40
11.8501220664
100
AcDbArc
 50
3.169648354
 51
86.830351646
  0
ARC
  5
5E1
100
AcDbEntity
  8
DRAFT
100
AcDbCircle
 62
7
  6
CONTINUOUS
 10
-36.0117650694
 20
29.5117650694
 40
11.8501220664
100
AcDbArc
 50
273.169648354
 51
356.830351646
  0
ARC
  5
5E2
100
AcDbEntity
  8
DRAFT
100
AcDbCircle
 62
7
  6
CONTINUOUS
 10
-17.3044863146
 20
12.6957874867
 40
53.2934677882
100
AcDbArc
 50
230.142353892
 51
230.3977631168
  0
ARC
  5
5E3
100
AcDbEntity
  8
DRAFT
100
AcDbCircle
 62
7
  6
CONTINUOUS
 10
-6.1957874852
 20
10.8044863134
 40
53.2934677879
100
AcDbArc
 50
39.6022368853
 51
39.8576461101
  0
ARC
  5
5E4
100
AcDbEntity
  8
DRAFT
100
AcDbCircle
 62
7
  6
CONTINUOUS
 10
-4.8969415973
 20
10.1833504498
 40
51.1441208908
100
AcDbArc
 50
128.5302600709
 51
128.8974161862
  0
ARC
  5
5E5
100
AcDbEntity
  8
DRAFT
100
AcDbCircle
 62
7
  6
CONTINUOUS
 10
-10.8865374226
 20
13.814385978
 40
41.2928653642
100
AcDbArc
 50
128.3484554419
 51
128.8017109439
  0
ARC
  5
5E6
100
AcDbEntity
  8
DRAFT
100
AcDbCircle
 62
7
  6
CONTINUOUS
 10
-3.7306542256
 20
15.6557370067
 40
40.7439711428
100
AcDbArc
 50
140.6550720929
 51
140.9148847587
  0
ARC
  5
5E7
100
AcDbEntity
  8
DRAFT
100
AcDbCircle
 62
7
  6
CONTINUOUS
 10
-16.1655860534
 20
17.0160590274
 40
32.6114649607
100
AcDbArc
 50
128.1597888714
 51
128.6012398518
  0
ARC
  5
5E8
100
AcDbEntity
  8
DRAFT
100
AcDbCircle
 62
7
  6
CONTINUOUS
 10
-16.1655860533
 20
42.0074711116
 40
32.6114649609
100
AcDbArc
 50
231.3987601482
 51
231.8402111286
  0
ARC
  5
5E9
100
AcDbEntity
  8
DRAFT
100
AcDbCircle
 62
7
  6
CONTINUOUS
 10
-13.3539668992
 20
82.1100078912
 40
66.39355323
100
AcDbArc
 50
230.6287877244
 51
230.8349843471
  0
ARC
  5
5EA
100
AcDbEntity
  8
DRAFT
100
AcDbCircle
 62
7
  6
CONTINUOUS
 10
-6.195787477
 20
48.2190438359
 40
53.2934677882
100
AcDbArc
 50
320.1423538756
 51
320.3977631004
  0
ARC
  5
5EB
100
AcDbEntity
  8
DRAFT
100
AcDbCircle
 62
7
  6
CONTINUOUS
 10
-18.0422636513
 20
71.2516523306
 40
52.6864373562
100
AcDbArc
 50
230.6083672798
 51
230.8682298761
  0
ARC
  5
5EC
100
AcDbEntity
  8
DRAFT
100
AcDbCircle
 62
7
  6
CONTINUOUS
 10
-16.6833504451
 20
60.6265885402
 40
51.1441208937
100
AcDbArc
 50
218.5302600664
 51
218.8974161817
  0
ARC
  5
5ED
100
AcDbEntity
  8
DRAFT
100
AcDbCircle
 62
7
  6
CONTINUOUS
 10
-4.8969415957
 20
48.840179691
 40
51.1441208934
100
AcDbArc
 50
231.1025838138
 51
231.4697399291
  0
ARC
  5
5EE
100
AcDbEntity
  8
DRAFT
100
AcDbCircle
 62
7
  6
CONTINUOUS
 10
-10.8865374227
 20
45.2091441607
 40
41.2928653641
100
AcDbArc
 50
231.1982890561
 51
231.6515445581
  0
ARC
  5
5EF
100
AcDbEntity
  8
DRAFT
100
AcDbCircle
 62
7
  6
CONTINUOUS
 10
-20.3143859702
 20
54.6369927051
 40
41.2928653634
100
AcDbArc
 50
218.348455423
 51
218.801710925
  0
ARC
  5
5F0
100
AcDbEntity
  8
DRAFT
100
AcDbCircle
 62
7
  6
CONTINUOUS
 10
-22.1557370063
 20
61.7928759106
 40
40.743971141
100
AcDbArc
 50
230.6550720902
 51
230.9148847559
  0
ARC
  5
5F1
100
AcDbEntity
  8
DRAFT
100
AcDbCircle
 62
7
  6
CONTINUOUS
 10
-3.7306542359
 20
43.367793137
 40
40.7439711379
100
AcDbArc
 50
219.0851152556
 51
219.3449279214
  0
ARC
  5
5F2
100
AcDbEntity
  8
DRAFT
100
AcDbCircle
 62
7
  6
CONTINUOUS
 10
-23.516059017
 20
49.3579440742
 40
32.6114649619
100
AcDbArc
 50
218.1597888444
 51
218.6012398248
  0
ARC
  5
5F3
100
AcDbEntity
  8
DRAFT
100
AcDbCircle
 62
7
  6
CONTINUOUS
 10
13.3304367692
 20
-82.0864777624
 40
66.3935532323
100
AcDbArc
 50
50.6287877358
 51
50.8349843585
  0
ARC
  5
5F4
100
AcDbEntity
  8
DRAFT
100
AcDbCircle
 62
7
  6
CONTINUOUS
 10
6.1722573462
 20
-48.1955136865
 40
53.2934677876
100
AcDbArc
 50
140.1423538899
 51
140.3977631147
  0
ARC
  5
5F5
100
AcDbEntity
  8
DRAFT
100
AcDbCircle
 62
7
  6
CONTINUOUS
 10
18.018733525
 20
-71.2281221976
 40
52.6864373527
100
AcDbArc
 50
50.6083672943
 51
50.8682298906
  0
ARC
  5
5F6
100
AcDbEntity
  8
DRAFT
100
AcDbCircle
 62
7
  6
CONTINUOUS
 10
4.8734114696
 20
-48.816649564
 40
51.1441208947
100
AcDbArc
 50
51.1025838332
 51
51.4697399484
  0
ARC
  5
5F7
100
AcDbEntity
  8
DRAFT
100
AcDbCircle
 62
7
  6
CONTINUOUS
 10
16.6598202959
 20
-60.6030583875
 40
51.1441208931
100
AcDbArc
 50
38.530260047
 51
38.8974161623
  0
ARC
  5
5F8
100
AcDbEntity
  8
DRAFT
100
AcDbCircle
 62
7
  6
CONTINUOUS
 10
20.2908558196
 20
-54.6134625539
 40
41.2928653648
100
AcDbArc
 50
38.3484553995
 51
38.8017109015
  0
ARC
  5
5F9
100
AcDbEntity
  8
DRAFT
100
AcDbCircle
 62
7
  6
CONTINUOUS
 10
10.8630072971
 20
-45.1856140325
 40
41.2928653641
100
AcDbArc
 50
51.1982890796
 51
51.6515445816
  0
ARC
  5
5FA
100
AcDbEntity
  8
DRAFT
100
AcDbCircle
 62
7
  6
CONTINUOUS
 10
3.7071240897
 20
-43.3442629909
 40
40.7439711391
100
AcDbArc
 50
39.0851152413
 51
39.3449279071
  0
ARC
  5
5FB
100
AcDbEntity
  8
DRAFT
100
AcDbCircle
 62
7
  6
CONTINUOUS
 10
22.1322068771
 20
-61.7693457761
 40
40.7439711383
100
AcDbArc
 50
50.6550721045
 51
50.9148847703
  0
ARC
  5
5FC
100
AcDbEntity
  8
DRAFT
100
AcDbCircle
 62
7
  6
CONTINUOUS
 10
23.4925288698
 20
-49.3344139255
 40
32.6114649623
100
AcDbArc
 50
38.1597888218
 51
38.6012398022
  0
ARC
  5
5FD
100
AcDbEntity
  8
DRAFT
100
AcDbCircle
 62
7
  6
CONTINUOUS
 10
16.1420559241
 20
-41.9839409812
 40
32.6114649615
100
AcDbArc
 50
51.3987601708
 51
51.8402111512
  0
ARC
  5
5FE
100
AcDbEntity
  8
DRAFT
100
AcDbCircle
 62
7
  6
CONTINUOUS
 10
6.1722573394
 20
-10.780956163
 40
53.2934677898
100
AcDbArc
 50
219.6022368996
 51
219.8576461244
  0
ARC
  5
5FF
100
AcDbEntity
  8
DRAFT
100
AcDbCircle
 62
7
  6
CONTINUOUS
 10
17.2809561876
 20
-12.6722573545
 40
53.2934677858
100
AcDbArc
 50
50.1423539063
 51
50.3977631311
  0
ARC
  5
600
100
AcDbEntity
  8
DRAFT
100
AcDbCircle
 62
7
  6
CONTINUOUS
 10
4.8734114714
 20
-10.1598202995
 40
51.1441208917
100
AcDbArc
 50
308.5302600516
 51
308.8974161668
  0
ARC
  5
601
100
AcDbEntity
  8
DRAFT
100
AcDbCircle
 62
7
  6
CONTINUOUS
 10
10.8630072973
 20
-13.790855829
 40
41.2928653638
100
AcDbArc
 50
308.3484554184
 51
308.8017109204
  0
ARC
  5
602
100
AcDbEntity
  8
DRAFT
100
AcDbCircle
 62
7
  6
CONTINUOUS
 10
3.7071240909
 20
-15.632206858
 40
40.7439711458
100
AcDbArc
 50
320.6550720786
 51
320.9148847443
  0
ARC
  5
603
100
AcDbEntity
  8
DRAFT
100
AcDbCircle
 62
7
  6
CONTINUOUS
 10
16.1420559245
 20
-16.9925288805
 40
32.6114649609
100
AcDbArc
 50
308.1597888488
 51
308.6012398292
  0
CIRCLE
  5
604
100
AcDbEntity
  8
DRAFT
100
AcDbCircle
 62
7
  6
CONTINUOUS
 10
35.9882349306
 20
-29.4882349306
 40
20.738041424
  0
ARC
  5
605
100
AcDbEntity
  8
DRAFT
100
AcDbCircle
 62
7
  6
CONTINUOUS
 10
35.9882349306
 20
-29.4882349306
 40
20.6939596788
100
AcDbArc
 50
357.938866307
 51
2.061133693
  0
ARC
  5
606
100
AcDbEntity
  8
DRAFT
100
AcDbCircle
 62
7
  6
CONTINUOUS
 10
35.9882349306
 20
-29.4882349306
 40
20.6939596788
100
AcDbArc
 50
267.938866307
 51
272.061133693
  0
ARC
  5
607
100
AcDbEntity
  8
DRAFT
100
AcDbCircle
 62
7
  6
CONTINUOUS
 10
35.9882349306
 20
-29.4882349306
 40
20.6939596788
100
AcDbArc
 50
177.938866307
 51
182.061133693
  0
ARC
  5
608
100
AcDbEntity
  8
DRAFT
100
AcDbCircle
 62
7
  6
CONTINUOUS
 10
35.9882349306
 20
-29.4882349306
 40
20.6939596788
100
AcDbArc
 50
87.938866307
 51
92.061133693
  0
ARC
  5
609
100
AcDbEntity
  8
DRAFT
100
AcDbCircle
 62
7
  6
CONTINUOUS
 10
35.9882349306
 20
-29.4882349306
 40
20.5
100
AcDbArc
 50
92.7960256963
 51
177.2039743037
  0
ARC
  5
60A
100
AcDbEntity
  8
DRAFT
100
AcDbCircle
 62
7
  6
CONTINUOUS
 10
35.9882349306
 20
-29.4882349306
 40
20.5
100
AcDbArc
 50
182.7960256963
 51
267.2039743037
  0
ARC
  5
60B
100
AcDbEntity
  8
DRAFT
100
AcDbCircle
 62
7
  6
CONTINUOUS
 10
35.9882349306
 20
-29.4882349306
 40
20.5
100
AcDbArc
 50
2.7960256963
 51
87.2039743037
  0
ARC
  5
60C
100
AcDbEntity
  8
DRAFT
100
AcDbCircle
 62
7
  6
CONTINUOUS
 10
35.9882349306
 20
-29.4882349306
 40
20.5
100
AcDbArc
 50
272.7960256963
 51
357.2039743037
  0
ARC
  5
60D
100
AcDbEntity
  8
DRAFT
100
AcDbCircle
 62
7
  6
CONTINUOUS
 10
35.9882349306
 20
-29.4882349306
 40
19.5
100
AcDbArc
 50
93.741716217
 51
176.258283783
  0
ARC
  5
60E
100
AcDbEntity
  8
DRAFT
100
AcDbCircle
 62
7
  6
CONTINUOUS
 10
35.9882349306
 20
-29.4882349306
 40
19.5
100
AcDbArc
 50
183.741716217
 51
266.258283783
  0
ARC
  5
60F
100
AcDbEntity
  8
DRAFT
100
AcDbCircle
 62
7
  6
CONTINUOUS
 10
35.9882349306
 20
-29.4882349306
 40
19.5
100
AcDbArc
 50
3.741716217
 51
86.258283783
  0
ARC
  5
610
100
AcDbEntity
  8
DRAFT
100
AcDbCircle
 62
7
  6
CONTINUOUS
 10
35.9882349306
 20
-29.4882349306
 40
19.5
100
AcDbArc
 50
273.741716217
 51
356.258283783
  0
ARC
  5
611
100
AcDbEntity
  8
DRAFT
100
AcDbCircle
 62
7
  6
CONTINUOUS
 10
35.9882349306
 20
-29.4882349306
 40
19.3060403212
100
AcDbArc
 50
273.3296641884
 51
356.6703358116
  0
ARC
  5
612
100
AcDbEntity
  8
DRAFT
100
AcDbCircle
 62
7
  6
CONTINUOUS
 10
35.9882349306
 20
-29.4882349306
 40
19.3060403212
100
AcDbArc
 50
183.3296641884
 51
266.6703358116
  0
ARC
  5
613
100
AcDbEntity
  8
DRAFT
100
AcDbCircle
 62
7
  6
CONTINUOUS
 10
35.9882349306
 20
-29.4882349306
 40
19.3060403212
100
AcDbArc
 50
93.3296641884
 51
176.6703358116
  0
ARC
  5
614
100
AcDbEntity
  8
DRAFT
100
AcDbCircle
 62
7
  6
CONTINUOUS
 10
35.9882349306
 20
-29.4882349306
 40
19.3060403212
100
AcDbArc
 50
3.3296641884
 51
86.6703358116
  0
ARC
  5
615
100
AcDbEntity
  8
DRAFT
100
AcDbCircle
 62
7
  6
CONTINUOUS
 10
35.9882349306
 20
-29.4882349306
 40
16.6939596788
100
AcDbArc
 50
91.6978501787
 51
178.3021498213
  0
ARC
  5
616
100
AcDbEntity
  8
DRAFT
100
AcDbCircle
 62
7
  6
CONTINUOUS
 10
35.9882349306
 20
-29.4882349306
 40
16.6939596788
100
AcDbArc
 50
181.6978501787
 51
268.3021498213
  0
ARC
  5
617
100
AcDbEntity
  8
DRAFT
100
AcDbCircle
 62
7
  6
CONTINUOUS
 10
35.9882349306
 20
-29.4882349306
 40
16.6939596788
100
AcDbArc
 50
1.6978501787
 51
88.3021498213
  0
ARC
  5
618
100
AcDbEntity
  8
DRAFT
100
AcDbCircle
 62
7
  6
CONTINUOUS
 10
35.9882349306
 20
-29.4882349306
 40
16.6939596788
100
AcDbArc
 50
271.6978501787
 51
358.3021498213
  0
ARC
  5
619
100
AcDbEntity
  8
DRAFT
100
AcDbCircle
 62
7
  6
CONTINUOUS
 10
35.9882349306
 20
-29.4882349306
 40
16.5
100
AcDbArc
 50
92.6052512651
 51
177.3947487349
  0
ARC
  5
61A
100
AcDbEntity
  8
DRAFT
100
AcDbCircle
 62
7
  6
CONTINUOUS
 10
35.9882349306
 20
-29.4882349306
 40
16.5
100
AcDbArc
 50
182.6052512651
 51
267.3947487349
  0
ARC
  5
61B
100
AcDbEntity
  8
DRAFT
100
AcDbCircle
 62
7
  6
CONTINUOUS
 10
35.9882349306
 20
-29.4882349306
 40
16.5
100
AcDbArc
 50
2.6052512651
 51
87.3947487349
  0
ARC
  5
61C
100
AcDbEntity
  8
DRAFT
100
AcDbCircle
 62
7
  6
CONTINUOUS
 10
35.9882349306
 20
-29.4882349306
 40
16.5
100
AcDbArc
 50
272.6052512651
 51
357.3947487349
  0
ARC
  5
61D
100
AcDbEntity
  8
DRAFT
100
AcDbCircle
 62
7
  6
CONTINUOUS
 10
35.9882349306
 20
-29.4882349306
 40
15.5
100
AcDbArc
 50
93.7821417057
 51
176.2178582943
  0
ARC
  5
61E
100
AcDbEntity
  8
DRAFT
100
AcDbCircle
 62
7
  6
CONTINUOUS
 10
35.9882349306
 20
-29.4882349306
 40
15.5
100
AcDbArc
 50
183.7821417057
 51
266.2178582943
  0
ARC
  5
61F
100
AcDbEntity
  8
DRAFT
100
AcDbCircle
 62
7
  6
CONTINUOUS
 10
35.9882349306
 20
-29.4882349306
 40
15.5
100
AcDbArc
 50
3.7821417057
 51
86.2178582943
  0
ARC
  5
620
100
AcDbEntity
  8
DRAFT
100
AcDbCircle
 62
7
  6
CONTINUOUS
 10
35.9882349306
 20
-29.4882349306
 40
15.5
100
AcDbArc
 50
273.7821417057
 51
356.2178582943
  0
ARC
  5
621
100
AcDbEntity
  8
DRAFT
100
AcDbCircle
 62
7
  6
CONTINUOUS
 10
35.9882349306
 20
-29.4882349306
 40
15.3060403212
100
AcDbArc
 50
93.2629570174
 51
176.7370429826
  0
ARC
  5
622
100
AcDbEntity
  8
DRAFT
100
AcDbCircle
 62
7
  6
CONTINUOUS
 10
35.9882349306
 20
-29.4882349306
 40
15.3060403212
100
AcDbArc
 50
183.2629570174
 51
266.7370429826
  0
ARC
  5
623
100
AcDbEntity
  8
DRAFT
100
AcDbCircle
 62
7
  6
CONTINUOUS
 10
35.9882349306
 20
-29.4882349306
 40
15.3060403212
100
AcDbArc
 50
3.2629570174
 51
86.7370429826
  0
ARC
  5
624
100
AcDbEntity
  8
DRAFT
100
AcDbCircle
 62
7
  6
CONTINUOUS
 10
35.9882349306
 20
-29.4882349306
 40
15.3060403212
100
AcDbArc
 50
273.2629570174
 51
356.7370429826
  0
CIRCLE
  5
625
100
AcDbEntity
  8
DRAFT
100
AcDbCircle
 62
7
  6
CONTINUOUS
 10
35.9882349306
 20
-29.4882349306
 40
13.1939596788
  0
ARC
  5
626
100
AcDbEntity
  8
DRAFT
100
AcDbCircle
 62
7
  6
CONTINUOUS
 10
35.9882349306
 20
-29.4882349306
 40
13.1498779336
100
AcDbArc
 50
88.6795251534
 51
91.3204748466
  0
ARC
  5
627
100
AcDbEntity
  8
DRAFT
100
AcDbCircle
 62
7
  6
CONTINUOUS
 10
35.9882349306
 20
-29.4882349306
 40
13.1498779336
100
AcDbArc
 50
358.6795251534
 51
1.3204748466
  0
ARC
  5
628
100
AcDbEntity
  8
DRAFT
100
AcDbCircle
 62
7
  6
CONTINUOUS
 10
35.9882349306
 20
-29.4882349306
 40
13.1498779336
100
AcDbArc
 50
268.6795251534
 51
271.3204748466
  0
ARC
  5
629
100
AcDbEntity
  8
DRAFT
100
AcDbCircle
 62
7
  6
CONTINUOUS
 10
35.9882349306
 20
-29.4882349306
 40
13.1498779336
100
AcDbArc
 50
178.6795251534
 51
181.3204748466
  0
ARC
  5
62A
100
AcDbEntity
  8
DRAFT
100
AcDbCircle
 62
7
  6
CONTINUOUS
 10
35.9882349306
 20
-29.4882349306
 40
13.0
100
AcDbArc
 50
92.204227504
 51
177.795772496
  0
ARC
  5
62B
100
AcDbEntity
  8
DRAFT
100
AcDbCircle
 62
7
  6
CONTINUOUS
 10
35.9882349306
 20
-29.4882349306
 40
13.0
100
AcDbArc
 50
182.204227504
 51
267.795772496
  0
ARC
  5
62C
100
AcDbEntity
  8
DRAFT
100
AcDbCircle
 62
7
  6
CONTINUOUS
 10
35.9882349306
 20
-29.4882349306
 40
13.0
100
AcDbArc
 50
2.204227504
 51
87.795772496
  0
ARC
  5
62D
100
AcDbEntity
  8
DRAFT
100
AcDbCircle
 62
7
  6
CONTINUOUS
 10
35.9882349306
 20
-29.4882349306
 40
13.0
100
AcDbArc
 50
272.204227504
 51
357.795772496
  0
ARC
  5
62E
100
AcDbEntity
  8
DRAFT
100
AcDbCircle
 62
7
  6
CONTINUOUS
 10
35.9882349306
 20
-29.4882349306
 40
12.0
100
AcDbArc
 50
93.6887345387
 51
176.3112654613
  0
ARC
  5
62F
100
AcDbEntity
  8
DRAFT
100
AcDbCircle
 62
7
  6
CONTINUOUS
 10
35.9882349306
 20
-29.4882349306
 40
12.0
100
AcDbArc
 50
183.6887345387
 51
266.3112654613
  0
ARC
  5
630
100
AcDbEntity
  8
DRAFT
100
AcDbCircle
 62
7
  6
CONTINUOUS
 10
35.9882349306
 20
-29.4882349306
 40
12.0
100
AcDbArc
 50
3.6887345387
 51
86.3112654613
  0
ARC
  5
631
100
AcDbEntity
  8
DRAFT
100
AcDbCircle
 62
7
  6
CONTINUOUS
 10
35.9882349306
 20
-29.4882349306
 40
12.0
100
AcDbArc
 50
273.6887345387
 51
356.3112654613
  0
ARC
  5
632
100
AcDbEntity
  8
DRAFT
100
AcDbCircle
 62
7
  6
CONTINUOUS
 10
35.9882349306
 20
-29.4882349306
 40
11.8501220664
100
AcDbArc
 50
93.169648354
 51
176.830351646
  0
ARC
  5
633
100
AcDbEntity
  8
DRAFT
100
AcDbCircle
 62
7
  6
CONTINUOUS
 10
35.9882349306
 20
-29.4882349306
 40
11.8501220664
100
AcDbArc
 50
3.169648354
 51
86.830351646
  0
ARC
  5
634
100
AcDbEntity
  8
DRAFT
100
AcDbCircle
 62
7
  6
CONTINUOUS
 10
35.9882349306
 20
-29.4882349306
 40
11.8501220664
100
AcDbArc
 50
273.169648354
 51
356.830351646
  0
ARC
  5
635
100
AcDbEntity
  8
DRAFT
100
AcDbCircle
 62
7
  6
CONTINUOUS
 10
35.9882349306
 20
-29.4882349306
 40
11.8501220664
100
AcDbArc
 50
183.169648354
 51
266.830351646
  0
ARC
  5
636
100
AcDbEntity
  8
DRAFT
100
AcDbCircle
 62
7
  6
CONTINUOUS
 10
20.9822252068
 20
-4.417433749
 40
42.8608270201
100
AcDbArc
 50
50.1505727904
 51
50.4683052102
  0
ARC
  5
637
100
AcDbEntity
  8
DRAFT
100
AcDbCircle
 62
7
  6
CONTINUOUS
 10
20.2908558305
 20
-4.3630072943
 40
41.2928653644
100
AcDbArc
 50
321.198289075
 51
321.651544577
  0
ARC
  5
638
100
AcDbEntity
  8
DRAFT
100
AcDbCircle
 62
7
  6
CONTINUOUS
 10
23.4925288777
 20
-9.6420559255
 40
32.6114649624
100
AcDbArc
 50
321.3987601752
 51
321.8402111556
  0
ARC
  5
639
100
AcDbEntity
  8
DRAFT
100
AcDbCircle
 62
7
  6
CONTINUOUS
 10
58.646033101
 20
-82.0864777527
 40
66.3935532304
100
AcDbArc
 50
129.1650156529
 51
129.3712122756
  0
ARC
  5
63A
100
AcDbEntity
  8
DRAFT
100
AcDbCircle
 62
7
  6
CONTINUOUS
 10
53.9577363463
 20
-71.2281221888
 40
52.6864373523
100
AcDbArc
 50
129.1317701239
 51
129.3916327202
  0
ARC
  5
63B
100
AcDbEntity
  8
DRAFT
100
AcDbCircle
 62
7
  6
CONTINUOUS
 10
67.1030584046
 20
-48.8166495526
 40
51.1441208939
100
AcDbArc
 50
128.5302600709
 51
128.8974161862
  0
ARC
  5
63C
100
AcDbEntity
  8
DRAFT
100
AcDbCircle
 62
7
  6
CONTINUOUS
 10
55.3166495656
 20
-60.6030583877
 40
51.1441208934
100
AcDbArc
 50
141.1025838377
 51
141.469739953
  0
ARC
  5
63D
100
AcDbEntity
  8
DRAFT
100
AcDbCircle
 62
7
  6
CONTINUOUS
 10
51.6856140412
 20
-54.6134625536
 40
41.2928653644
100
AcDbArc
 50
141.1982890985
 51
141.6515446005
  0
ARC
  5
63E
100
AcDbEntity
  8
DRAFT
100
AcDbCircle
 62
7
  6
CONTINUOUS
 10
61.1134625771
 20
-45.1856140216
 40
41.2928653637
100
AcDbArc
 50
128.3484554419
 51
128.8017109439
  0
ARC
  5
63F
100
AcDbEntity
  8
DRAFT
100
AcDbCircle
 62
7
  6
CONTINUOUS
 10
49.8442629944
 20
-61.7693457726
 40
40.7439711421
100
AcDbArc
 50
129.0851152441
 51
129.3449279098
  0
ARC
  5
640
100
AcDbEntity
  8
DRAFT
100
AcDbCircle
 62
7
  6
CONTINUOUS
 10
68.2693457724
 20
-43.3442629917
 40
40.7439711402
100
AcDbArc
 50
140.6550720929
 51
140.9148847587
  0
ARC
  5
641
100
AcDbEntity
  8
DRAFT
100
AcDbCircle
 62
7
  6
CONTINUOUS
 10
48.4839409911
 20
-49.3344139253
 40
32.611464962
100
AcDbArc
 50
141.3987601978
 51
141.8402111782
  0
ARC
  5
642
100
AcDbEntity
  8
DRAFT
100
AcDbCircle
 62
7
  6
CONTINUOUS
 10
61.4882349306
 20
-48.4882349306
 40
22.0
100
AcDbArc
 50
270.0
 51
360.0
  0
ARC
  5
643
100
AcDbEntity
  8
RACCORDO
100
AcDbCircle
 62
253
  6
CONTINUOUS
 10
61.4882349306
 20
-48.4882349306
 40
21.9473301725
100
AcDbArc
 50
270.0
 51
360.0
  0
ARC
  5
644
100
AcDbEntity
  8
RACCORDO
100
AcDbCircle
 62
253
  6
CONTINUOUS
 10
61.4882349306
 20
-48.4882349306
 40
20.9474831724
100
AcDbArc
 50
270.0
 51
360.0
  0
ARC
  5
645
100
AcDbEntity
  8
DRAFT
100
AcDbCircle
 62
7
  6
CONTINUOUS
 10
68.2893676063
 20
-55.2893676063
 40
1.25
100
AcDbArc
 50
236.5369590328
 51
256.0888918935
  0
ARC
  5
646
100
AcDbEntity
  8
DRAFT
100
AcDbCircle
 62
7
  6
CONTINUOUS
 10
68.2893676063
 20
-55.2893676063
 40
1.25
100
AcDbArc
 50
13.9138318585
 51
33.4630409672
  0
ARC
  5
647
100
AcDbEntity
  8
RACCORDO
100
AcDbCircle
 62
7
  6
CONTINUOUS
 10
68.2893676063
 20
-55.2893676063
 40
0.7830744955
100
AcDbArc
 50
208.9177072635
 51
61.0822927365
  0
ARC
  5
648
100
AcDbEntity
  8
RACCORDO
100
AcDbCircle
 62
253
  6
CONTINUOUS
 10
65.1427050483
 20
-60.3177880401
 40
0.5000420724
100
AcDbArc
 50
270.0068546849
 51
359.986273739
  0
ARC
  5
649
100
AcDbEntity
  8
RACCORDO
100
AcDbCircle
 62
253
  6
CONTINUOUS
 10
67.6039071403
 20
-55.6680203916
 40
0.4999901174
100
AcDbArc
 50
28.9158851557
 51
135.0014958194
  0
ARC
  5
64A
100
AcDbEntity
  8
RACCORDO
100
AcDbCircle
 62
253
  6
CONTINUOUS
 10
68.2893676063
 20
-55.2893676063
 40
0.283093534
100
AcDbArc
 50
208.9177072635
 51
61.0822927365
  0
ARC
  5
64B
100
AcDbEntity
  8
0
100
AcDbCircle
 62
7
  6
CONTINUOUS
 10
79.4882349306
 20
-66.4882349306
 40
10.0
100
AcDbArc
 50
270.0
 51
360.0
  0
ARC
  5
64C
100
AcDbEntity
  8
0
100
AcDbCircle
 62
7
  6
CONTINUOUS
 10
79.4882349306
 20
-66.4882349306
 40
7.0
100
AcDbArc
 50
270.0
 51
360.0
  0
ARC
  5
64D
100
AcDbEntity
  8
DRAFT
100
AcDbCircle
 62
7
  6
CONTINUOUS
 10
88.5864777515
 20
-52.1460330989
 40
66.3935532282
100
AcDbArc
 50
140.6287877252
 51
140.8349843479
  0
ARC
  5
64E
100
AcDbEntity
  8
DRAFT
100
AcDbCircle
 62
7
  6
CONTINUOUS
 10
77.7281221863
 20
-47.4577363464
 40
52.6864373505
100
AcDbArc
 50
140.608367278
 51
140.8682298743
  0
ARC
  5
64F
100
AcDbEntity
  8
RACCORDO
100
AcDbCircle
 62
7
  6
CONTINUOUS
 10
68.9547582164
 20
-56.6376681612
 40
2.053850982
100
AcDbArc
 50
95.7812817142
 51
98.0251246985
  0
CIRCLE
  5
650
100
AcDbEntity
  8
0
100
AcDbCircle
 62
7
  6
CONTINUOUS
 10
69.4882343913
 20
-56.4882344068
 40
1.4999996177
  0
ARC
  5
651
100
AcDbEntity
  8
0
100
AcDbCircle
 62
7
  6
CONTINUOUS
 10
69.4882349306
 20
-56.4882349306
 40
1.0
100
AcDbArc
 50
307.6774584221
 51
75.84228485
  0
ARC
  5
652
100
AcDbEntity
  8
0
100
AcDbCircle
 62
7
  6
CONTINUOUS
 10
69.4882349306
 20
-56.4882349306
 40
1.0
100
AcDbArc
 50
180.0
 51
255.84228485
  0
ARC
  5
653
100
AcDbEntity
  8
0
100
AcDbCircle
 62
7
  6
CONTINUOUS
 10
69.3848966712
 20
-56.8500346908
 40
0.8320718012
100
AcDbArc
 50
344.7743839811
 51
349.517352529
  0
ARC
  5
654
100
AcDbEntity
  8
0
100
AcDbCircle
 62
7
  6
CONTINUOUS
 10
69.4322826105
 20
-56.6159951458
 40
0.813765055
100
AcDbArc
 50
330.6304078959
 51
344.4190814713
  0
ARC
  5
655
100
AcDbEntity
  8
RACCORDO
100
AcDbCircle
 62
253
  6
CONTINUOUS
 10
73.3177879915
 20
-52.1427049994
 40
0.5000421411
100
AcDbArc
 50
270.0137318296
 51
359.9931397108
  0
ARC
  5
656
100
AcDbEntity
  8
RACCORDO
100
AcDbCircle
 62
253
  6
CONTINUOUS
 10
68.6679647272
 20
-54.6039463725
 40
0.4999419136
100
AcDbArc
 50
134.9937960271
 51
241.0837449785
  0
ARC
  5
657
100
AcDbEntity
  8
RACCORDO
100
AcDbCircle
 62
253
  6
CONTINUOUS
 10
68.6266173112
 20
-54.5991565393
 40
0.0416825629
100
AcDbArc
 50
345.2369192803
 51
353.4231882781
  0
ARC
  5
658
100
AcDbEntity
  8
DRAFT
100
AcDbCircle
 62
7
  6
CONTINUOUS
 10
88.5864777431
 20
-6.8304367521
 40
66.3935532281
100
AcDbArc
 50
219.1650156635
 51
219.3712122862
  0
ARC
  5
659
100
AcDbEntity
  8
DRAFT
100
AcDbCircle
 62
7
  6
CONTINUOUS
 10
54.6955136832
 20
-12.6722573453
 40
53.2934677848
100
AcDbArc
 50
129.6022368832
 51
129.857646108
  0
ARC
  5
65A
100
AcDbEntity
  8
DRAFT
100
AcDbCircle
 62
7
  6
CONTINUOUS
 10
77.7281221796
 20
-11.518733503
 40
52.6864373527
100
AcDbArc
 50
219.1317701403
 51
219.3916327366
  0
ARC
  5
65B
100
AcDbEntity
  8
DRAFT
100
AcDbCircle
 62
7
  6
CONTINUOUS
 10
67.1030584036
 20
-10.1598203099
 40
51.1441208922
100
AcDbArc
 50
231.1025838138
 51
231.4697399291
  0
ARC
  5
65C
100
AcDbEntity
  8
DRAFT
100
AcDbCircle
 62
7
  6
CONTINUOUS
 10
50.9942446646
 20
-4.4174337401
 40
42.8608270198
100
AcDbArc
 50
129.5316948079
 51
129.8494272277
  0
ARC
  5
65D
100
AcDbEntity
  8
DRAFT
100
AcDbCircle
 62
7
  6
CONTINUOUS
 10
61.1134625776
 20
-13.790855839
 40
41.2928653645
100
AcDbArc
 50
231.1982890561
 51
231.6515445581
  0
ARC
  5
65E
100
AcDbEntity
  8
DRAFT
100
AcDbCircle
 62
7
  6
CONTINUOUS
 10
51.6856140295
 20
-4.3630072952
 40
41.292865363
100
AcDbArc
 50
218.348455423
 51
218.801710925
  0
ARC
  5
65F
100
AcDbEntity
  8
DRAFT
100
AcDbCircle
 62
7
  6
CONTINUOUS
 10
68.2693457662
 20
-15.6322068613
 40
40.7439711406
100
AcDbArc
 50
219.0851152557
 51
219.3449279214
  0
ARC
  5
660
100
AcDbEntity
  8
DRAFT
100
AcDbCircle
 62
7
  6
CONTINUOUS
 10
48.4839409829
 20
-9.642055926
 40
32.6114649617
100
AcDbArc
 50
218.1597888444
 51
218.6012398248
  0
ARC
  5
661
100
AcDbEntity
  8
DRAFT
100
AcDbCircle
 62
7
  6
CONTINUOUS
 10
55.8344139471
 20
-41.9839409732
 40
32.6114649615
100
AcDbArc
 50
128.1597888714
 51
128.6012398518
  0
ARC
  5
662
100
AcDbEntity
  8
DRAFT
100
AcDbCircle
 62
7
  6
CONTINUOUS
 10
55.8344139463
 20
-16.992528889
 40
32.6114649602
100
AcDbArc
 50
231.3987601482
 51
231.8402111286
  0
ARC
  5
663
100
AcDbEntity
  8
DRAFT
100
AcDbCircle
 62
7
  6
CONTINUOUS
 10
16.5864777522
 20
6.8539669006
 40
66.393553229
100
AcDbArc
 50
140.6287877252
 51
140.8349843479
  0
ARC
  5
664
100
AcDbEntity
  8
DRAFT
100
AcDbCircle
 62
7
  6
CONTINUOUS
 10
5.7281221884
 20
11.5422636519
 40
52.6864373532
100
AcDbArc
 50
140.608367278
 51
140.8682298743
  0
ARC
  5
665
100
AcDbEntity
  8
DRAFT
100
AcDbCircle
 62
7
  6
CONTINUOUS
 10
16.6598203049
 20
1.6265885412
 40
51.1441208953
100
AcDbArc
 50
321.1025838183
 51
321.4697399336
  0
ARC
  5
666
100
AcDbEntity
  8
DRAFT
100
AcDbCircle
 62
7
  6
CONTINUOUS
 10
2.0590361233
 20
14.5057553316
 40
42.8608270205
100
AcDbArc
 50
39.5316948138
 51
39.8494272336
  0
ARC
  5
667
100
AcDbEntity
  8
DRAFT
100
AcDbCircle
 62
7
  6
CONTINUOUS
 10
11.0131027878
 20
14.1740213394
 40
41.0660324251
100
AcDbArc
 50
50.7636288674
 51
51.2240955175
  0
CIRCLE
  5
668
100
AcDbEntity
  8
0
100
AcDbCircle
 62
7
  6
CONTINUOUS
 10
-0.0117650694
 20
0.0117650694
 40
7.1274118725
  0
ARC
  5
669
100
AcDbEntity
  8
DRAFT
100
AcDbCircle
 62
7
  6
CONTINUOUS
 10
13.3304367697
 20
23.1100079007
 40
66.3935532315
100
AcDbArc
 50
309.1650156415
 51
309.3712122642
  0
ARC
  5
66A
100
AcDbEntity
  8
DRAFT
100
AcDbCircle
 62
7
  6
CONTINUOUS
 10
15.4675825716
 20
16.8089761846
 40
33.7332866475
100
AcDbArc
 50
50.9090062034
 51
51.4669679668
  0
ARC
  5
66B
100
AcDbEntity
  8
DRAFT
100
AcDbCircle
 62
7
  6
CONTINUOUS
 10
10.2159333344
 20
18.1258181287
 40
32.555524274
100
AcDbArc
 50
39.511801196
 51
39.8351085001
  0
ARC
  5
66C
100
AcDbEntity
  8
DRAFT
100
AcDbCircle
 62
7
  6
CONTINUOUS
 10
18.0187335247
 20
12.2516523368
 40
52.6864373532
100
AcDbArc
 50
309.1317701094
 51
309.3916327057
  0
ARC
  5
66D
100
AcDbEntity
  8
DRAFT
100
AcDbCircle
 62
7
  6
CONTINUOUS
 10
20.6504911914
 20
4.536632939
 40
41.0660324244
100
AcDbArc
 50
38.775904461
 51
39.2363711112
  0
ARC
  5
66E
100
AcDbEntity
  8
DRAFT
100
AcDbCircle
 62
7
  6
CONTINUOUS
 10
22.1322068752
 20
2.7928759173
 40
40.7439711413
100
AcDbArc
 50
309.0851152297
 51
309.3449278955
  0
ARC
  5
66F
100
AcDbEntity
  8
DRAFT
100
AcDbCircle
 62
7
  6
CONTINUOUS
 10
23.2854460264
 20
8.9911127355
 40
33.7332866469
100
AcDbArc
 50
38.5330319794
 51
39.0909937427
  0
ARC
  5
670
100
AcDbEntity
  8
DRAFT
100
AcDbCircle
 62
7
  6
CONTINUOUS
 10
24.6022879978
 20
3.7394634683
 40
32.5555242727
100
AcDbArc
 50
50.1648915163
 51
50.4881988204
  0
ARC
  5
671
100
AcDbEntity
  8
DRAFT
100
AcDbCircle
 62
7
  6
CONTINUOUS
 10
25.9894588618
 20
13.5025725446
 40
26.3109306246
100
AcDbArc
 50
38.3135022032
 51
38.8633543495
  0
ARC
  5
672
100
AcDbEntity
  8
DRAFT
100
AcDbCircle
 62
7
  6
CONTINUOUS
 10
19.9790423818
 20
19.5129890203
 40
26.3109306243
100
AcDbArc
 50
51.1366455831
 51
51.6864977294
  0
CIRCLE
  5
673
100
AcDbEntity
  8
DRAFT
100
AcDbCircle
 62
7
  6
CONTINUOUS
 10
35.9882349306
 20
29.5117650694
 40
16.738041424
  0
ARC
  5
674
100
AcDbEntity
  8
DRAFT
100
AcDbCircle
 62
7
  6
CONTINUOUS
 10
35.9882349306
 20
29.5117650694
 40
16.6939596788
100
AcDbArc
 50
357.447236759
 51
2.552763241
  0
ARC
  5
675
100
AcDbEntity
  8
DRAFT
100
AcDbCircle
 62
7
  6
CONTINUOUS
 10
35.9882349306
 20
29.5117650694
 40
16.6939596788
100
AcDbArc
 50
267.447236759
 51
272.552763241
  0
ARC
  5
676
100
AcDbEntity
  8
DRAFT
100
AcDbCircle
 62
7
  6
CONTINUOUS
 10
35.9882349306
 20
29.5117650694
 40
16.6939596788
100
AcDbArc
 50
177.447236759
 51
182.552763241
  0
ARC
  5
677
100
AcDbEntity
  8
DRAFT
100
AcDbCircle
 62
7
  6
CONTINUOUS
 10
35.9882349306
 20
29.5117650694
 40
16.6939596788
100
AcDbArc
 50
87.447236759
 51
92.552763241
  0
ARC
  5
678
100
AcDbEntity
  8
DRAFT
100
AcDbCircle
 62
7
  6
CONTINUOUS
 10
35.9882349306
 20
29.5117650694
 40
16.5
100
AcDbArc
 50
3.4746007931
 51
86.5253992069
  0
ARC
  5
679
100
AcDbEntity
  8
DRAFT
100
AcDbCircle
 62
7
  6
CONTINUOUS
 10
35.9882349306
 20
29.5117650694
 40
16.5
100
AcDbArc
 50
273.4746007931
 51
356.5253992069
  0
ARC
  5
67A
100
AcDbEntity
  8
DRAFT
100
AcDbCircle
 62
7
  6
CONTINUOUS
 10
35.9882349306
 20
29.5117650694
 40
16.5
100
AcDbArc
 50
93.4746007931
 51
176.5253992069
  0
ARC
  5
67B
100
AcDbEntity
  8
DRAFT
100
AcDbCircle
 62
7
  6
CONTINUOUS
 10
35.9882349306
 20
29.5117650694
 40
16.5
100
AcDbArc
 50
183.4746007931
 51
266.5253992069
  0
ARC
  5
67C
100
AcDbEntity
  8
DRAFT
100
AcDbCircle
 62
7
  6
CONTINUOUS
 10
35.9882349306
 20
29.5117650694
 40
15.5
100
AcDbArc
 50
4.7141877419
 51
85.2858122581
  0
ARC
  5
67D
100
AcDbEntity
  8
DRAFT
100
AcDbCircle
 62
7
  6
CONTINUOUS
 10
35.9882349306
 20
29.5117650694
 40
15.5
100
AcDbArc
 50
274.7141877419
 51
355.2858122581
  0
ARC
  5
67E
100
AcDbEntity
  8
DRAFT
100
AcDbCircle
 62
7
  6
CONTINUOUS
 10
35.9882349306
 20
29.5117650694
 40
15.5
100
AcDbArc
 50
94.7141877419
 51
175.2858122581
  0
ARC
  5
67F
100
AcDbEntity
  8
DRAFT
100
AcDbCircle
 62
7
  6
CONTINUOUS
 10
35.9882349306
 20
29.5117650694
 40
15.5
100
AcDbArc
 50
184.7141877419
 51
265.2858122581
  0
ARC
  5
680
100
AcDbEntity
  8
DRAFT
100
AcDbCircle
 62
7
  6
CONTINUOUS
 10
35.9882349306
 20
29.5117650694
 40
15.3060403212
100
AcDbArc
 50
274.2039005302
 51
355.7960994698
  0
ARC
  5
681
100
AcDbEntity
  8
DRAFT
100
AcDbCircle
 62
7
  6
CONTINUOUS
 10
35.9882349306
 20
29.5117650694
 40
15.3060403212
100
AcDbArc
 50
184.2039005302
 51
265.7960994698
  0
ARC
  5
682
100
AcDbEntity
  8
DRAFT
100
AcDbCircle
 62
7
  6
CONTINUOUS
 10
35.9882349306
 20
29.5117650694
 40
15.3060403212
100
AcDbArc
 50
94.2039005302
 51
175.7960994698
  0
ARC
  5
683
100
AcDbEntity
  8
DRAFT
100
AcDbCircle
 62
7
  6
CONTINUOUS
 10
35.9882349306
 20
29.5117650694
 40
15.3060403212
100
AcDbArc
 50
4.2039005302
 51
85.7960994698
  0
ARC
  5
684
100
AcDbEntity
  8
DRAFT
100
AcDbCircle
 62
7
  6
CONTINUOUS
 10
35.9882349306
 20
29.5117650694
 40
13.6939596788
100
AcDbArc
 50
2.0674742946
 51
87.9325257054
  0
ARC
  5
685
100
AcDbEntity
  8
DRAFT
100
AcDbCircle
 62
7
  6
CONTINUOUS
 10
35.9882349306
 20
29.5117650694
 40
13.6939596788
100
AcDbArc
 50
272.0674742946
 51
357.9325257054
  0
ARC
  5
686
100
AcDbEntity
  8
DRAFT
100
AcDbCircle
 62
7
  6
CONTINUOUS
 10
35.9882349306
 20
29.5117650694
 40
13.6939596788
100
AcDbArc
 50
92.0674742946
 51
177.9325257054
  0
ARC
  5
687
100
AcDbEntity
  8
DRAFT
100
AcDbCircle
 62
7
  6
CONTINUOUS
 10
35.9882349306
 20
29.5117650694
 40
13.6939596788
100
AcDbArc
 50
182.0674742946
 51
267.9325257054
  0
ARC
  5
688
100
AcDbEntity
  8
DRAFT
100
AcDbCircle
 62
7
  6
CONTINUOUS
 10
35.9882349306
 20
29.5117650694
 40
13.5
100
AcDbArc
 50
3.1847385367
 51
86.8152614633
  0
ARC
  5
689
100
AcDbEntity
  8
DRAFT
100
AcDbCircle
 62
7
  6
CONTINUOUS
 10
35.9882349306
 20
29.5117650694
 40
13.5
100
AcDbArc
 50
273.1847385367
 51
356.8152614633
  0
ARC
  5
68A
100
AcDbEntity
  8
DRAFT
100
AcDbCircle
 62
7
  6
CONTINUOUS
 10
35.9882349306
 20
29.5117650694
 40
13.5
100
AcDbArc
 50
93.1847385367
 51
176.8152614633
  0
ARC
  5
68B
100
AcDbEntity
  8
DRAFT
100
AcDbCircle
 62
7
  6
CONTINUOUS
 10
35.9882349306
 20
29.5117650694
 40
13.5
100
AcDbArc
 50
183.1847385367
 51
266.8152614633
  0
ARC
  5
68C
100
AcDbEntity
  8
DRAFT
100
AcDbCircle
 62
7
  6
CONTINUOUS
 10
35.9882349306
 20
29.5117650694
 40
12.5
100
AcDbArc
 50
4.6971495355
 51
85.3028504645
  0
ARC
  5
68D
100
AcDbEntity
  8
DRAFT
100
AcDbCircle
 62
7
  6
CONTINUOUS
 10
35.9882349306
 20
29.5117650694
 40
12.5
100
AcDbArc
 50
274.6971495355
 51
355.3028504645
  0
ARC
  5
68E
100
AcDbEntity
  8
DRAFT
100
AcDbCircle
 62
7
  6
CONTINUOUS
 10
35.9882349306
 20
29.5117650694
 40
12.5
100
AcDbArc
 50
94.6971495355
 51
175.3028504645
  0
ARC
  5
68F
100
AcDbEntity
  8
DRAFT
100
AcDbCircle
 62
7
  6
CONTINUOUS
 10
35.9882349306
 20
29.5117650694
 40
12.5
100
AcDbArc
 50
184.6971495355
 51
265.3028504645
  0
ARC
  5
690
100
AcDbEntity
  8
DRAFT
100
AcDbCircle
 62
7
  6
CONTINUOUS
 10
35.9882349306
 20
29.5117650694
 40
12.3060403212
100
AcDbArc
 50
4.0625032517
 51
85.9374967483
  0
ARC
  5
691
100
AcDbEntity
  8
DRAFT
100
AcDbCircle
 62
7
  6
CONTINUOUS
 10
35.9882349306
 20
29.5117650694
 40
12.3060403212
100
AcDbArc
 50
274.0625032517
 51
355.9374967483
  0
ARC
  5
692
100
AcDbEntity
  8
DRAFT
100
AcDbCircle
 62
7
  6
CONTINUOUS
 10
35.9882349306
 20
29.5117650694
 40
12.3060403212
100
AcDbArc
 50
94.0625032517
 51
175.9374967483
  0
ARC
  5
693
100
AcDbEntity
  8
DRAFT
100
AcDbCircle
 62
7
  6
CONTINUOUS
 10
35.9882349306
 20
29.5117650694
 40
12.3060403212
100
AcDbArc
 50
184.0625032517
 51
265.9374967483
  0
CIRCLE
  5
694
100
AcDbEntity
  8
DRAFT
100
AcDbCircle
 62
7
  6
CONTINUOUS
 10
35.9882349306
 20
29.5117650694
 40
10.6939596788
  0
ARC
  5
695
100
AcDbEntity
  8
DRAFT
100
AcDbCircle
 62
7
  6
CONTINUOUS
 10
35.9882349306
 20
29.5117650694
 40
10.6498779336
100
AcDbArc
 50
88.3716151237
 51
91.6283848763
  0
ARC
  5
696
100
AcDbEntity
  8
DRAFT
100
AcDbCircle
 62
7
  6
CONTINUOUS
 10
35.9882349306
 20
29.5117650694
 40
10.6498779336
100
AcDbArc
 50
178.3716151237
 51
181.6283848763
  0
ARC
  5
697
100
AcDbEntity
  8
DRAFT
100
AcDbCircle
 62
7
  6
CONTINUOUS
 10
35.9882349306
 20
29.5117650694
 40
10.6498779336
100
AcDbArc
 50
268.3716151237
 51
271.6283848763
  0
ARC
  5
698
100
AcDbEntity
  8
DRAFT
100
AcDbCircle
 62
7
  6
CONTINUOUS
 10
35.9882349306
 20
29.5117650694
 40
10.6498779336
100
AcDbArc
 50
358.3716151237
 51
1.6283848763
  0
ARC
  5
699
100
AcDbEntity
  8
DRAFT
100
AcDbCircle
 62
7
  6
CONTINUOUS
 10
35.9882349306
 20
29.5117650694
 40
10.5
100
AcDbArc
 50
2.7294026368
 51
87.2705973632
  0
ARC
  5
69A
100
AcDbEntity
  8
DRAFT
100
AcDbCircle
 62
7
  6
CONTINUOUS
 10
35.9882349306
 20
29.5117650694
 40
10.5
100
AcDbArc
 50
272.7294026368
 51
357.2705973632
  0
ARC
  5
69B
100
AcDbEntity
  8
DRAFT
100
AcDbCircle
 62
7
  6
CONTINUOUS
 10
35.9882349306
 20
29.5117650694
 40
10.5
100
AcDbArc
 50
92.7294026368
 51
177.2705973632
  0
ARC
  5
69C
100
AcDbEntity
  8
DRAFT
100
AcDbCircle
 62
7
  6
CONTINUOUS
 10
35.9882349306
 20
29.5117650694
 40
10.5
100
AcDbArc
 50
182.7294026368
 51
267.2705973632
  0
ARC
  5
69D
100
AcDbEntity
  8
DRAFT
100
AcDbCircle
 62
7
  6
CONTINUOUS
 10
35.9882349306
 20
29.5117650694
 40
9.5
100
AcDbArc
 50
4.668453194
 51
85.331546806
  0
ARC
  5
69E
100
AcDbEntity
  8
DRAFT
100
AcDbCircle
 62
7
  6
CONTINUOUS
 10
35.9882349306
 20
29.5117650694
 40
9.5
100
AcDbArc
 50
274.668453194
 51
355.331546806
  0
ARC
  5
69F
100
AcDbEntity
  8
DRAFT
100
AcDbCircle
 62
7
  6
CONTINUOUS
 10
35.9882349306
 20
29.5117650694
 40
9.5
100
AcDbArc
 50
94.668453194
 51
175.331546806
  0
ARC
  5
6A0
100
AcDbEntity
  8
DRAFT
100
AcDbCircle
 62
7
  6
CONTINUOUS
 10
35.9882349306
 20
29.5117650694
 40
9.5
100
AcDbArc
 50
184.668453194
 51
265.331546806
  0
ARC
  5
6A1
100
AcDbEntity
  8
DRAFT
100
AcDbCircle
 62
7
  6
CONTINUOUS
 10
35.9882349306
 20
29.5117650694
 40
9.3501220664
100
AcDbArc
 50
4.0226849558
 51
85.9773150442
  0
ARC
  5
6A2
100
AcDbEntity
  8
DRAFT
100
AcDbCircle
 62
7
  6
CONTINUOUS
 10
35.9882349306
 20
29.5117650694
 40
9.3501220664
100
AcDbArc
 50
94.0226849558
 51
175.9773150442
  0
ARC
  5
6A3
100
AcDbEntity
  8
DRAFT
100
AcDbCircle
 62
7
  6
CONTINUOUS
 10
35.9882349306
 20
29.5117650694
 40
9.3501220664
100
AcDbArc
 50
184.0226849558
 51
265.9773150442
  0
ARC
  5
6A4
100
AcDbEntity
  8
DRAFT
100
AcDbCircle
 62
7
  6
CONTINUOUS
 10
35.9882349306
 20
29.5117650694
 40
9.3501220664
100
AcDbArc
 50
274.0226849558
 51
355.9773150442
  0
ARC
  5
6A5
100
AcDbEntity
  8
DRAFT
100
AcDbCircle
 62
7
  6
CONTINUOUS
 10
16.586477745
 20
52.1695632494
 40
66.3935532306
100
AcDbArc
 50
219.1650156635
 51
219.3712122862
  0
ARC
  5
6A6
100
AcDbEntity
  8
DRAFT
100
AcDbCircle
 62
7
  6
CONTINUOUS
 10
17.2809561861
 20
71.6957874951
 40
53.293467788
100
AcDbArc
 50
309.6022368689
 51
309.8576460937
  0
ARC
  5
6A7
100
AcDbEntity
  8
DRAFT
100
AcDbCircle
 62
7
  6
CONTINUOUS
 10
5.7281221787
 20
47.4812664963
 40
52.6864373516
100
AcDbArc
 50
219.1317701403
 51
219.3916327366
  0
ARC
  5
6A8
100
AcDbEntity
  8
DRAFT
100
AcDbCircle
 62
7
  6
CONTINUOUS
 10
20.982225206
 20
63.4409638888
 40
42.8608270213
100
AcDbArc
 50
309.5316947898
 51
309.8494272096
  0
ARC
  5
6A9
100
AcDbEntity
  8
DRAFT
100
AcDbCircle
 62
7
  6
CONTINUOUS
 10
2.0590361317
 20
44.5177748179
 40
42.8608270209
100
AcDbArc
 50
320.1505727484
 51
320.4683051682
  0
ARC
  5
6AA
100
AcDbEntity
  8
DRAFT
100
AcDbCircle
 62
7
  6
CONTINUOUS
 10
11.0131027877
 20
44.8495087996
 40
41.0660324252
100
AcDbArc
 50
308.7759044825
 51
309.2363711326
  0
ARC
  5
6AB
100
AcDbEntity
  8
DRAFT
100
AcDbCircle
 62
7
  6
CONTINUOUS
 10
20.6504912013
 20
54.4868972137
 40
41.0660324254
100
AcDbArc
 50
320.763628865
 51
321.2240955152
  0
ARC
  5
6AC
100
AcDbEntity
  8
DRAFT
100
AcDbCircle
 62
7
  6
CONTINUOUS
 10
23.2854460362
 20
50.0324174166
 40
33.7332866475
100
AcDbArc
 50
320.9090062293
 51
321.4669679926
  0
ARC
  5
6AD
100
AcDbEntity
  8
DRAFT
100
AcDbCircle
 62
7
  6
CONTINUOUS
 10
15.4675825719
 20
42.2145539538
 40
33.733286647
100
AcDbArc
 50
308.5330320332
 51
309.0909937966
  0
ARC
  5
6AE
100
AcDbEntity
  8
DRAFT
100
AcDbCircle
 62
7
  6
CONTINUOUS
 10
10.2159333408
 20
40.8977120183
 40
32.5555242743
100
AcDbArc
 50
320.1648914818
 51
320.4881987859
  0
ARC
  5
6AF
100
AcDbEntity
  8
DRAFT
100
AcDbCircle
 62
7
  6
CONTINUOUS
 10
24.6022879989
 20
55.2840666692
 40
32.5555242709
100
AcDbArc
 50
309.5118011796
 51
309.8351084837
  0
ARC
  5
6B0
100
AcDbEntity
  8
DRAFT
100
AcDbCircle
 62
7
  6
CONTINUOUS
 10
25.9894588696
 20
45.5209576039
 40
26.3109306246
100
AcDbArc
 50
321.1366456234
 51
321.6864977698
  0
ARC
  5
6B1
100
AcDbEntity
  8
DRAFT
100
AcDbCircle
 62
7
  6
CONTINUOUS
 10
19.979042382
 20
39.5105411183
 40
26.310930624
100
AcDbArc
 50
308.3135022706
 51
308.863354417
  0
ARC
  5
6B2
100
AcDbEntity
  8
DRAFT
100
AcDbCircle
 62
7
  6
CONTINUOUS
 10
58.6460330999
 20
23.1100078901
 40
66.3935532286
100
AcDbArc
 50
230.6287877244
 51
230.8349843471
  0
ARC
  5
6B3
100
AcDbEntity
  8
DRAFT
100
AcDbCircle
 62
7
  6
CONTINUOUS
 10
78.1722573423
 20
10.8044863168
 40
53.2934677825
100
AcDbArc
 50
140.1423538899
 51
140.3977631147
  0
ARC
  5
6B4
100
AcDbEntity
  8
DRAFT
100
AcDbCircle
 62
7
  6
CONTINUOUS
 10
53.9577363473
 20
12.2516523289
 40
52.686437354
100
AcDbArc
 50
230.6083672798
 51
230.8682298761
  0
ARC
  5
6B5
100
AcDbEntity
  8
DRAFT
100
AcDbCircle
 62
7
  6
CONTINUOUS
 10
55.3166495549
 20
1.6265885401
 40
51.1441208936
100
AcDbArc
 50
218.5302600664
 51
218.8974161817
  0
ARC
  5
6B6
100
AcDbEntity
  8
DRAFT
100
AcDbCircle
 62
7
  6
CONTINUOUS
 10
69.9174337363
 20
14.5057553329
 40
42.8608270185
100
AcDbArc
 50
140.1505727664
 51
140.4683051863
  0
ARC
  5
6B7
100
AcDbEntity
  8
DRAFT
100
AcDbCircle
 62
7
  6
CONTINUOUS
 10
60.963367087
 20
14.1740213497
 40
41.0660324256
100
AcDbArc
 50
128.7759045063
 51
129.2363711564
  0
ARC
  5
6B8
100
AcDbEntity
  8
DRAFT
100
AcDbCircle
 62
7
  6
CONTINUOUS
 10
51.3259786708
 20
4.5366329382
 40
41.0660324257
100
AcDbArc
 50
140.7636288888
 51
141.224095539
  0
ARC
  5
6B9
100
AcDbEntity
  8
DRAFT
100
AcDbCircle
 62
7
  6
CONTINUOUS
 10
49.8442629931
 20
2.7928759098
 40
40.74397114
100
AcDbArc
 50
230.6550720902
 51
230.9148847559
  0
ARC
  5
6BA
100
AcDbEntity
  8
DRAFT
100
AcDbCircle
 62
7
  6
CONTINUOUS
 10
56.5088873024
 20
16.808976195
 40
33.7332866475
100
AcDbArc
 50
128.5330320612
 51
129.0909938245
  0
ARC
  5
6BB
100
AcDbEntity
  8
DRAFT
100
AcDbCircle
 62
7
  6
CONTINUOUS
 10
48.6910238349
 20
8.9911127354
 40
33.733286647
100
AcDbArc
 50
140.9090062573
 51
141.4669680206
  0
ARC
  5
6BC
100
AcDbEntity
  8
DRAFT
100
AcDbCircle
 62
7
  6
CONTINUOUS
 10
61.7605365262
 20
18.1258181291
 40
32.5555242732
100
AcDbArc
 50
140.1648914999
 51
140.488198804
  0
ARC
  5
6BD
100
AcDbEntity
  8
DRAFT
100
AcDbCircle
 62
7
  6
CONTINUOUS
 10
47.3741818713
 20
3.7394634748
 40
32.5555242727
100
AcDbArc
 50
129.5118011977
 51
129.8351085018
  0
ARC
  5
6BE
100
AcDbEntity
  8
DRAFT
100
AcDbCircle
 62
7
  6
CONTINUOUS
 10
45.9870109997
 20
13.5025725444
 40
26.310930625
100
AcDbArc
 50
141.1366456505
 51
141.6864977968
  0
ARC
  5
6BF
100
AcDbEntity
  8
DRAFT
100
AcDbCircle
 62
7
  6
CONTINUOUS
 10
51.997427489
 20
19.512989028
 40
26.3109306243
100
AcDbArc
 50
128.3135022976
 51
128.863354444
  0
ARC
  5
6C0
100
AcDbEntity
  8
DRAFT
100
AcDbCircle
 62
7
  6
CONTINUOUS
 10
51.3259786601
 20
54.4868972139
 40
41.0660324258
100
AcDbArc
 50
218.7759044848
 51
219.236371135
  0
ARC
  5
6C1
100
AcDbEntity
  8
DRAFT
100
AcDbCircle
 62
7
  6
CONTINUOUS
 10
60.9633670868
 20
44.8495087889
 40
41.0660324254
100
AcDbArc
 50
230.7636288436
 51
231.2240954937
  0
ARC
  5
6C2
100
AcDbEntity
  8
DRAFT
100
AcDbCircle
 62
7
  6
CONTINUOUS
 10
48.6910238246
 20
50.0324174164
 40
33.7332866471
100
AcDbArc
 50
218.5330320074
 51
219.0909937707
  0
ARC
  5
6C3
100
AcDbEntity
  8
DRAFT
100
AcDbCircle
 62
7
  6
CONTINUOUS
 10
56.5088873021
 20
42.2145539435
 40
33.733286647
100
AcDbArc
 50
230.9090061755
 51
231.4669679388
  0
ARC
  5
6C4
100
AcDbEntity
  8
DRAFT
100
AcDbCircle
 62
7
  6
CONTINUOUS
 10
47.3741818729
 20
55.2840666659
 40
32.5555242752
100
AcDbArc
 50
230.1648914982
 51
230.4881988023
  0
ARC
  5
6C5
100
AcDbEntity
  8
DRAFT
100
AcDbCircle
 62
7
  6
CONTINUOUS
 10
61.7605365204
 20
40.8977120183
 40
32.5555242743
100
AcDbArc
 50
219.5118012141
 51
219.8351085182
  0
ARC
  5
6C6
100
AcDbEntity
  8
DRAFT
100
AcDbCircle
 62
7
  6
CONTINUOUS
 10
45.9870109913
 20
45.5209576037
 40
26.3109306242
100
AcDbArc
 50
218.3135022302
 51
218.8633543766
  0
ARC
  5
6C7
100
AcDbEntity
  8
DRAFT
100
AcDbCircle
 62
7
  6
CONTINUOUS
 10
51.9974274888
 20
39.5105411106
 40
26.310930624
100
AcDbArc
 50
231.136645556
 51
231.6864977024
  0
ARC
  5
6C8
100
AcDbEntity
  8
DRAFT
100
AcDbCircle
 62
7
  6
CONTINUOUS
 10
61.4882349306
 20
48.5117650694
 40
22.0
100
AcDbArc
 50
0.0
 51
90.0
  0
ARC
  5
6C9
100
AcDbEntity
  8
RACCORDO
100
AcDbCircle
 62
253
  6
CONTINUOUS
 10
61.4882349306
 20
48.5117650694
 40
21.9473301725
100
AcDbArc
 50
0.0
 51
90.0
  0
ARC
  5
6CA
100
AcDbEntity
  8
RACCORDO
100
AcDbCircle
 62
253
  6
CONTINUOUS
 10
61.4882349306
 20
48.5117650694
 40
20.9474831724
100
AcDbArc
 50
0.0
 51
90.0
  0
ARC
  5
6CB
100
AcDbEntity
  8
DRAFT
100
AcDbCircle
 62
7
  6
CONTINUOUS
 10
54.6955136839
 20
71.6957874849
 40
53.2934677858
100
AcDbArc
 50
230.142353892
 51
230.3977631168
  0
ARC
  5
6CC
100
AcDbEntity
  8
DRAFT
100
AcDbCircle
 62
7
  6
CONTINUOUS
 10
50.9942446658
 20
63.4409638804
 40
42.8608270217
100
AcDbArc
 50
230.1505727723
 51
230.4683051921
  0
ARC
  5
6CD
100
AcDbEntity
  8
DRAFT
100
AcDbCircle
 62
7
  6
CONTINUOUS
 10
78.1722573375
 20
48.2190438354
 40
53.2934677874
100
AcDbArc
 50
219.6022368996
 51
219.8576461244
  0
ARC
  5
6CE
100
AcDbEntity
  8
DRAFT
100
AcDbCircle
 62
7
  6
CONTINUOUS
 10
69.9174337291
 20
44.5177748175
 40
42.8608270203
100
AcDbArc
 50
219.5316948318
 51
219.8494272516
  0
ARC
  5
6CF
100
AcDbEntity
  8
DRAFT
100
AcDbCircle
 62
7
  6
CONTINUOUS
 10
68.2893676063
 20
55.3128977451
 40
1.25
100
AcDbArc
 50
326.5369590328
 51
346.0923809829
  0
ARC
  5
6D0
100
AcDbEntity
  8
DRAFT
100
AcDbCircle
 62
7
  6
CONTINUOUS
 10
68.2893676063
 20
55.3128977451
 40
1.25
100
AcDbArc
 50
103.9316410784
 51
123.4630409672
  0
ARC
  5
6D1
100
AcDbEntity
  8
RACCORDO
100
AcDbCircle
 62
7
  6
CONTINUOUS
 10
68.2893676063
 20
55.3128977451
 40
0.7830744955
100
AcDbArc
 50
298.9177072635
 51
151.0822927365
  0
ARC
  5
6D2
100
AcDbEntity
  8
RACCORDO
100
AcDbCircle
 62
253
  6
CONTINUOUS
 10
73.3177879988
 20
52.1662351458
 40
0.5000421322
100
AcDbArc
 50
0.0068594196
 51
89.9862690042
  0
ARC
  5
6D3
100
AcDbEntity
  8
RACCORDO
100
AcDbCircle
 62
253
  6
CONTINUOUS
 10
68.6680203972
 20
54.6274372165
 40
0.4999901455
100
AcDbArc
 50
118.9158822507
 51
225.0014922534
  0
ARC
  5
6D4
100
AcDbEntity
  8
RACCORDO
100
AcDbCircle
 62
253
  6
CONTINUOUS
 10
68.2893676063
 20
55.3128977451
 40
0.283093534
100
AcDbArc
 50
298.9177072635
 51
151.0822927365
  0
ARC
  5
6D5
100
AcDbEntity
  8
0
100
AcDbCircle
 62
7
  6
CONTINUOUS
 10
79.4882349306
 20
66.5117650694
 40
10.0
100
AcDbArc
 50
0.0
 51
90.0
  0
ARC
  5
6D6
100
AcDbEntity
  8
0
100
AcDbCircle
 62
7
  6
CONTINUOUS
 10
79.4882349306
 20
66.5117650694
 40
7.0
100
AcDbArc
 50
0.0
 51
90.0
  0
ARC
  5
6D7
100
AcDbEntity
  8
RACCORDO
100
AcDbCircle
 62
7
  6
CONTINUOUS
 10
69.6376681612
 20
55.9782883552
 40
2.053850982
100
AcDbArc
 50
185.7812817142
 51
188.0251246985
  0
CIRCLE
  5
6D8
100
AcDbEntity
  8
0
100
AcDbCircle
 62
7
  6
CONTINUOUS
 10
69.4882354795
 20
56.5117645363
 40
1.4999996177
  0
ARC
  5
6D9
100
AcDbEntity
  8
0
100
AcDbCircle
 62
7
  6
CONTINUOUS
 10
69.4882349306
 20
56.5117650694
 40
1.0
100
AcDbArc
 50
307.6774584221
 51
75.84228485
  0
ARC
  5
6DA
100
AcDbEntity
  8
0
100
AcDbCircle
 62
7
  6
CONTINUOUS
 10
69.4882349306
 20
56.5117650694
 40
1.0
100
AcDbArc
 50
127.6774584221
 51
180.0
  0
ARC
  5
6DB
100
AcDbEntity
  8
0
100
AcDbCircle
 62
7
  6
CONTINUOUS
 10
69.3848966712
 20
56.1499653092
 40
0.8320718012
100
AcDbArc
 50
344.774383981
 51
349.5173525291
  0
ARC
  5
6DC
100
AcDbEntity
  8
0
100
AcDbCircle
 62
7
  6
CONTINUOUS
 10
69.59157319
 20
56.8735648296
 40
0.8320718012
100
AcDbArc
 50
164.774383981
 51
169.517352529
  0
ARC
  5
6DD
100
AcDbEntity
  8
0
100
AcDbCircle
 62
7
  6
CONTINUOUS
 10
69.5441872507
 20
56.6395252846
 40
0.813765055
100
AcDbArc
 50
150.6304078959
 51
164.4190814713
  0
ARC
  5
6DE
100
AcDbEntity
  8
0
100
AcDbCircle
 62
7
  6
CONTINUOUS
 10
69.4322826105
 20
56.3840048542
 40
0.813765055
100
AcDbArc
 50
330.6304078959
 51
344.4190814713
  0
ARC
  5
6DF
100
AcDbEntity
  8
RACCORDO
100
AcDbCircle
 62
253
  6
CONTINUOUS
 10
65.1427049994
 20
60.3413181304
 40
0.5000421411
100
AcDbArc
 50
0.0137318298
 51
89.9931397106
  0
ARC
  5
6E0
100
AcDbEntity
  8
RACCORDO
100
AcDbCircle
 62
253
  6
CONTINUOUS
 10
67.6039463239
 20
55.6914948445
 40
0.4999418872
100
AcDbArc
 50
224.9937982278
 51
331.0837449784
  0
ARC
  5
6E1
100
AcDbEntity
  8
RACCORDO
100
AcDbCircle
 62
253
  6
CONTINUOUS
 10
67.5991565393
 20
55.6501474501
 40
0.0416825628
100
AcDbArc
 50
75.236919273
 51
83.4231882575
  0
SPLINE
  5
6E2
100
AcDbEntity
  8
0
100
AcDbSpline
 62
7
  6
CONTINUOUS
 70
0
 71
3
 72
13
 73
9
 74
7
 42
0.0000001
 43
0.0000001
 44
0.0000000001
 12
1.2298030448
 22
-0.0285726643
 32
0.0
 13
0.6120125161
 23
1.067254967
 33
0.0
 40
0.0
 40
0.0
 40
0.0
 40
0.0
 40
0.1550277032
 40
0.3627321511
 40
0.5593277362
 40
0.7448848726
 40
0.91948733
 40
1.0
 40
1.0
 40
1.0
 40
1.0
 10
69.060275213
 20
55.1779302266
 30
0.0
 10
69.1238263935
 20
55.1764537085
 30
0.0
 10
69.2727131005
 20
55.1834886549
 30
0.0
 10
69.4977286106
 20
55.2336149907
 30
0.0
 10
69.7193960154
 20
55.3334799316
 30
0.0
 10
69.904933789
 20
55.4685960436
 30
0.0
 10
70.0264726643
 20
55.6036577545
 30
0.0
 10
70.0832765046
 20
55.6917032648
 30
0.0
 10
70.0997014252
 20
55.7203457804
 30
0.0
 11
69.060275213
 21
55.1779302266
 31
0.0
 11
69.2505506131
 21
55.1871199028
 31
0.0
 11
69.4993701859
 21
55.2431133702
 31
0.0
 11
69.7192408589
 21
55.3427703607
 31
0.0
 11
69.903092638
 21
55.47735439
 31
0.0
 11
70.0460723191
 21
55.6371116614
 31
0.0
 11
70.0997014252
 21
55.7203457804
 31
0.0
  0
SPLINE
  5
6E3
100
AcDbEntity
  8
0
100
AcDbSpline
 62
7
  6
CONTINUOUS
 70
0
 71
3
 72
9
 73
5
 74
3
 42
0.0000001
 43
0.0000001
 44
0.0000000001
 12
0.1141041339
 22
0.1989799236
 32
0.0
 13
0.0601421282
 23
0.2213573269
 33
0.0
 40
0.0
 40
0.0
 40
0.0
 40
0.0
 40
0.4464455663
 40
1.0
 40
1.0
 40
1.0
 40
1.0
 10
70.0997014252
 20
55.7203457804
 30
0.0
 10
70.1166818534
 20
55.7499570153
 30
0.0
 10
70.1511207907
 20
55.8183327365
 30
0.0
 10
70.1766647539
 20
55.8906016738
 30
0.0
 10
70.1877620678
 20
55.9314461171
 30
0.0
 11
70.0997014252
 21
55.7203457804
 31
0.0
 11
70.1456591854
 21
55.8117850615
 31
0.0
 11
70.1877620678
 21
55.9314461171
 31
0.0
  0
SPLINE
  5
6E4
100
AcDbEntity
  8
0
100
AcDbSpline
 62
7
  6
CONTINUOUS
 70
0
 71
3
 72
8
 73
4
 74
2
 42
0.0000001
 43
0.0000001
 44
0.0000000001
 12
0.0305187141
 22
0.1649907312
 32
0.0
 13
-0.0050465324
 23
0.1672594158
 33
0.0
 40
0.0
 40
0.0
 40
0.0
 40
0.0
 40
1.0
 40
1.0
 40
1.0
 40
1.0
 10
70.2030812391
 20
55.9985800547
 30
0.0
 10
70.2132541438
 20
56.0535769651
 30
0.0
 10
70.2178256641
 20
56.1096752036
 30
0.0
 10
70.2161434866
 20
56.1654283422
 30
0.0
 11
70.2030812391
 21
55.9985800547
 31
0.0
 11
70.2161434866
 21
56.1654283422
 31
0.0
  0
SPLINE
  5
6E5
100
AcDbEntity
  8
0
100
AcDbSpline
 62
7
  6
CONTINUOUS
 70
0
 71
3
 72
14
 73
10
 74
8
 42
0.0000001
 43
0.0000001
 44
0.0000000001
 12
-1.5265164876
 22
0.440625999
 32
0.0
 13
-0.7919061665
 23
-1.38096161
 33
0.0
 40
0.0
 40
0.0
 40
0.0
 40
0.0
 40
0.1778235013
 40
0.3469761403
 40
0.5074973323
 40
0.6594332102
 40
0.8028381927
 40
0.9377770198
 40
1.0
 40
1.0
 40
1.0
 40
1.0
 10
70.2725003406
 20
57.7904080089
 30
0.0
 10
70.1820168384
 20
57.8165258949
 30
0.0
 10
69.9999211298
 20
57.8503822096
 30
0.0
 10
69.7294414925
 20
57.8457632294
 30
0.0
 10
69.4787412505
 20
57.7899151482
 30
0.0
 10
69.2570738457
 20
57.6900502072
 30
0.0
 10
69.0715360721
 20
57.5549340952
 30
0.0
 10
68.9499971969
 20
57.4198723844
 30
0.0
 10
68.8931933565
 20
57.3318268741
 30
0.0
 10
68.876768436
 20
57.3031843584
 30
0.0
 11
70.2725003406
 21
57.7904080089
 31
0.0
 11
69.9946269428
 21
57.8415064248
 31
0.0
 11
69.7259192481
 21
57.836410236
 31
0.0
 11
69.4770996753
 21
57.7804167687
 31
0.0
 11
69.2572290022
 21
57.6807597782
 31
0.0
 11
69.0733772232
 21
57.5461757489
 31
0.0
 11
68.9303975421
 21
57.3864184775
 31
0.0
 11
68.876768436
 21
57.3031843584
 31
0.0
  0
SPLINE
  5
6E6
100
AcDbEntity
  8
0
100
AcDbSpline
 62
7
  6
CONTINUOUS
 70
0
 71
3
 72
9
 73
5
 74
3
 42
0.0000001
 43
0.0000001
 44
0.0000000001
 12
-0.1141041339
 22
-0.1989799236
 32
0.0
 13
-0.0601421282
 23
-0.2213573269
 33
0.0
 40
0.0
 40
0.0
 40
0.0
 40
0.0
 40
0.4464455663
 40
1.0
 40
1.0
 40
1.0
 40
1.0
 10
68.876768436
 20
57.3031843584
 30
0.0
 10
68.8597880077
 20
57.2735731235
 30
0.0
 10
68.8253490705
 20
57.2051974024
 30
0.0
 10
68.7998051073
 20
57.132928465
 30
0.0
 10
68.7887077934
 20
57.0920840218
 30
0.0
 11
68.876768436
 21
57.3031843584
 31
0.0
 11
68.8308106757
 21
57.2117450773
 31
0.0
 11
68.7887077934
 21
57.0920840218
 31
0.0
  0
SPLINE
  5
6E7
100
AcDbEntity
  8
0
100
AcDbSpline
 62
7
  6
CONTINUOUS
 70
0
 71
3
 72
8
 73
4
 74
2
 42
0.0000001
 43
0.0000001
 44
0.0000000001
 12
-0.0305187141
 22
-0.1649907312
 32
0.0
 13
0.0050465324
 23
-0.1672594158
 33
0.0
 40
0.0
 40
0.0
 40
0.0
 40
0.0
 40
1.0
 40
1.0
 40
1.0
 40
1.0
 10
68.7733886221
 20
57.0249500841
 30
0.0
 10
68.7632157174
 20
56.9699531737
 30
0.0
 10
68.7586441971
 20
56.9138549353
 30
0.0
 10
68.7603263745
 20
56.8581017967
 30
0.0
 11
68.7733886221
 21
57.0249500841
 31
0.0
 11
68.7603263745
 21
56.8581017967
 31
0.0
  0
SPLINE
  5
6E8
100
AcDbEntity
  8
0
100
AcDbSpline
 62
7
  6
CONTINUOUS
 70
0
 71
3
 72
10
 73
6
 74
4
 42
0.0000001
 43
0.0000001
 44
0.0000000001
 12
0.2526038827
 22
0.4495512038
 32
0.0
 13
0.4603379694
 23
0.2315080305
 33
0.0
 40
0.0
 40
0.0
 40
0.0
 40
0.0
 40
0.3915193347
 40
0.7940496483
 40
1.0
 40
1.0
 40
1.0
 40
1.0
 10
68.8350119842
 20
57.0386292889
 30
0.0
 10
68.8679784189
 20
57.0972986183
 30
0.0
 10
68.9493232524
 20
57.2079210568
 30
0.0
 10
69.0816725961
 20
57.3193066122
 30
0.0
 10
69.172312545
 20
57.3716900223
 30
0.0
 10
69.2039148005
 20
57.3875830757
 30
0.0
 11
68.8350119842
 21
57.0386292889
 31
0.0
 11
68.9539685262
 21
57.2009955712
 31
0.0
 11
69.112113324
 21
57.334466594
 31
0.0
 11
69.2039148005
 21
57.3875830757
 31
0.0
  0
SPLINE
  5
6E9
100
AcDbEntity
  8
0
100
AcDbSpline
 62
7
  6
CONTINUOUS
 70
0
 71
3
 72
10
 73
6
 74
4
 42
0.0000001
 43
0.0000001
 44
0.0000000001
 12
0.4865658941
 22
0.2446982855
 32
0.0
 13
0.5402886881
 23
-0.0579693842
 33
0.0
 40
0.0
 40
0.0
 40
0.0
 40
0.0
 40
0.1945428616
 40
0.5924002923
 40
1.0
 40
1.0
 40
1.0
 40
1.0
 10
69.2039148005
 20
57.3875830757
 30
0.0
 10
69.235467441
 20
57.4034511773
 30
0.0
 10
69.3343518501
 20
57.4461947431
 30
0.0
 10
69.5120357108
 20
57.4885379303
 30
0.0
 10
69.659419619
 20
57.4892672959
 30
0.0
 10
69.7328267895
 20
57.4813911946
 30
0.0
 11
69.2039148005
 21
57.3875830757
 31
0.0
 11
69.301101828
 21
57.4296204665
 31
0.0
 11
69.5113458086
 21
57.4799819749
 31
0.0
 11
69.7328267895
 21
57.4813911946
 31
0.0
  0
SPLINE
  5
6EA
100
AcDbEntity
  8
0
100
AcDbSpline
 62
7
  6
CONTINUOUS
 70
0
 71
3
 72
10
 73
6
 74
4
 42
0.0000001
 43
0.0000001
 44
0.0000000001
 12
-0.2526038827
 22
-0.4495512038
 32
0.0
 13
-0.4603379694
 23
-0.2315080305
 33
0.0
 40
0.0
 40
0.0
 40
0.0
 40
0.0
 40
0.3915193347
 40
0.7940496483
 40
1.0
 40
1.0
 40
1.0
 40
1.0
 10
70.1414578769
 20
55.9849008499
 30
0.0
 10
70.1084914422
 20
55.9262315205
 30
0.0
 10
70.0271466088
 20
55.815609082
 30
0.0
 10
69.8947972651
 20
55.7042235267
 30
0.0
 10
69.8041573162
 20
55.6518401166
 30
0.0
 10
69.7725550606
 20
55.6359470631
 30
0.0
 11
70.1414578769
 21
55.9849008499
 31
0.0
 11
70.0225013349
 21
55.8225345676
 31
0.0
 11
69.8643565371
 21
55.6890635449
 31
0.0
 11
69.7725550606
 21
55.6359470631
 31
0.0
  0
SPLINE
  5
6EB
100
AcDbEntity
  8
0
100
AcDbSpline
 62
7
  6
CONTINUOUS
 70
0
 71
3
 72
10
 73
6
 74
4
 42
0.0000001
 43
0.0000001
 44
0.0000000001
 12
-0.4865658941
 22
-0.2446982855
 32
0.0
 13
-0.5402886881
 23
0.0579693842
 33
0.0
 40
0.0
 40
0.0
 40
0.0
 40
0.0
 40
0.1945428616
 40
0.5924002923
 40
1.0
 40
1.0
 40
1.0
 40
1.0
 10
69.7725550606
 20
55.6359470631
 30
0.0
 10
69.7410024202
 20
55.6200789616
 30
0.0
 10
69.642118011
 20
55.5773353957
 30
0.0
 10
69.4644341504
 20
55.5349922085
 30
0.0
 10
69.3170502421
 20
55.5342628429
 30
0.0
 10
69.2436430717
 20
55.5421389443
 30
0.0
 11
69.7725550606
 21
55.6359470631
 31
0.0
 11
69.6753680332
 21
55.5939096723
 31
0.0
 11
69.4651240526
 21
55.5435481639
 31
0.0
 11
69.2436430717
 21
55.5421389443
 31
0.0
  0
SPLINE
  5
6EC
100
AcDbEntity
  8
0
100
AcDbSpline
 62
7
  6
CONTINUOUS
 70
0
 71
3
 72
13
 73
9
 74
7
 42
0.0000001
 43
0.0000001
 44
0.0000000001
 12
1.2578332018
 22
-0.3630710939
 32
0.0
 13
0.9426591727
 23
0.9120554508
 33
0.0
 40
0.0
 40
0.0
 40
0.0
 40
0.0
 40
0.2158080311
 40
0.4210930338
 40
0.6159028431
 40
0.8002934462
 40
0.9743308861
 40
1.0
 40
1.0
 40
1.0
 40
1.0
 10
-70.2960304794
 20
55.2331221299
 30
0.0
 10
-70.2055469772
 20
55.207004244
 30
0.0
 10
-70.0234512686
 20
55.1731479292
 30
0.0
 10
-69.7529716313
 20
55.1777669094
 30
0.0
 10
-69.5022713894
 20
55.2336149907
 30
0.0
 10
-69.2806039846
 20
55.3334799316
 30
0.0
 10
-69.1441318
 20
55.4328644969
 30
0.0
 10
-69.080406014
 20
55.4925701194
 30
0.0
 10
-69.0723402721
 20
55.5003740045
 30
0.0
 11
-70.2960304794
 21
55.2331221299
 31
0.0
 11
-70.0181570817
 21
55.182023714
 31
0.0
 11
-69.7494493869
 21
55.1871199028
 31
0.0
 11
-69.5006298141
 21
55.2431133702
 31
0.0
 11
-69.2807591411
 21
55.3427703607
 31
0.0
 11
-69.096907362
 21
55.47735439
 31
0.0
 11
-69.0723402721
 21
55.5003740045
 31
0.0
  0
SPLINE
  5
6ED
100
AcDbEntity
  8
0
100
AcDbSpline
 62
7
  6
CONTINUOUS
 70
0
 71
3
 72
14
 73
10
 74
8
 42
0.0000001
 43
0.0000001
 44
0.0000000001
 12
-1.5265164876
 22
0.440625999
 32
0.0
 13
-0.7919061665
 23
-1.38096161
 33
0.0
 40
0.0
 40
0.0
 40
0.0
 40
0.0
 40
0.1778235013
 40
0.3469761403
 40
0.5074973323
 40
0.6594332102
 40
0.8028381927
 40
0.9377770198
 40
1.0
 40
1.0
 40
1.0
 40
1.0
 10
-68.7274996594
 20
57.7904080089
 30
0.0
 10
-68.8179831616
 20
57.8165258949
 30
0.0
 10
-69.0000788702
 20
57.8503822096
 30
0.0
 10
-69.2705585075
 20
57.8457632294
 30
0.0
 10
-69.5212587495
 20
57.7899151482
 30
0.0
 10
-69.7429261543
 20
57.6900502072
 30
0.0
 10
-69.9284639279
 20
57.5549340952
 30
0.0
 10
-70.0500028031
 20
57.4198723844
 30
0.0
 10
-70.1068066435
 20
57.3318268741
 30
0.0
 10
-70.123231564
 20
57.3031843584
 30
0.0
 11
-68.7274996594
 21
57.7904080089
 31
0.0
 11
-69.0053730572
 21
57.8415064248
 31
0.0
 11
-69.2740807519
 21
57.836410236
 31
0.0
 11
-69.5229003247
 21
57.7804167687
 31
0.0
 11
-69.7427709978
 21
57.6807597782
 31
0.0
 11
-69.9266227768
 21
57.5461757489
 31
0.0
 11
-70.0696024579
 21
57.3864184775
 31
0.0
 11
-70.123231564
 21
57.3031843584
 31
0.0
  0
SPLINE
  5
6EE
100
AcDbEntity
  8
0
100
AcDbSpline
 62
7
  6
CONTINUOUS
 70
0
 71
3
 72
9
 73
5
 74
3
 42
0.0000001
 43
0.0000001
 44
0.0000000001
 12
-0.1141041339
 22
-0.1989799236
 32
0.0
 13
-0.0601421282
 23
-0.2213573269
 33
0.0
 40
0.0
 40
0.0
 40
0.0
 40
0.0
 40
0.4464455663
 40
1.0
 40
1.0
 40
1.0
 40
1.0
 10
-70.123231564
 20
57.3031843584
 30
0.0
 10
-70.1402119923
 20
57.2735731235
 30
0.0
 10
-70.1746509295
 20
57.2051974024
 30
0.0
 10
-70.2001948927
 20
57.132928465
 30
0.0
 10
-70.2112922066
 20
57.0920840218
 30
0.0
 11
-70.123231564
 21
57.3031843584
 31
0.0
 11
-70.1691893243
 21
57.2117450773
 31
0.0
 11
-70.2112922066
 21
57.0920840218
 31
0.0
  0
SPLINE
  5
6EF
100
AcDbEntity
  8
0
100
AcDbSpline
 62
7
  6
CONTINUOUS
 70
0
 71
3
 72
8
 73
4
 74
2
 42
0.0000001
 43
0.0000001
 44
0.0000000001
 12
-0.0305187141
 22
-0.1649907312
 32
0.0
 13
0.0050465324
 23
-0.1672594158
 33
0.0
 40
0.0
 40
0.0
 40
0.0
 40
0.0
 40
1.0
 40
1.0
 40
1.0
 40
1.0
 10
-70.2266113779
 20
57.0249500841
 30
0.0
 10
-70.2367842826
 20
56.9699531737
 30
0.0
 10
-70.2413558029
 20
56.9138549353
 30
0.0
 10
-70.2396736255
 20
56.8581017967
 30
0.0
 11
-70.2266113779
 21
57.0249500841
 31
0.0
 11
-70.2396736255
 21
56.8581017967
 31
0.0
  0
SPLINE
  5
6F0
100
AcDbEntity
  8
0
100
AcDbSpline
 62
7
  6
CONTINUOUS
 70
0
 71
3
 72
10
 73
6
 74
4
 42
0.0000001
 43
0.0000001
 44
0.0000000001
 12
0.2526038827
 22
0.4495512038
 32
0.0
 13
0.4603379694
 23
0.2315080305
 33
0.0
 40
0.0
 40
0.0
 40
0.0
 40
0.0
 40
0.3915193347
 40
0.7940496483
 40
1.0
 40
1.0
 40
1.0
 40
1.0
 10
-70.1649880158
 20
57.0386292889
 30
0.0
 10
-70.1320215811
 20
57.0972986183
 30
0.0
 10
-70.0506767476
 20
57.2079210568
 30
0.0
 10
-69.9183274039
 20
57.3193066122
 30
0.0
 10
-69.827687455
 20
57.3716900223
 30
0.0
 10
-69.7960851995
 20
57.3875830757
 30
0.0
 11
-70.1649880158
 21
57.0386292889
 31
0.0
 11
-70.0460314738
 21
57.2009955712
 31
0.0
 11
-69.887886676
 21
57.334466594
 31
0.0
 11
-69.7960851995
 21
57.3875830757
 31
0.0
  0
SPLINE
  5
6F1
100
AcDbEntity
  8
0
100
AcDbSpline
 62
7
  6
CONTINUOUS
 70
0
 71
3
 72
10
 73
6
 74
4
 42
0.0000001
 43
0.0000001
 44
0.0000000001
 12
0.4865658941
 22
0.2446982855
 32
0.0
 13
0.5402886881
 23
-0.0579693842
 33
0.0
 40
0.0
 40
0.0
 40
0.0
 40
0.0
 40
0.1945428616
 40
0.5924002923
 40
1.0
 40
1.0
 40
1.0
 40
1.0
 10
-69.7960851995
 20
57.3875830757
 30
0.0
 10
-69.764532559
 20
57.4034511773
 30
0.0
 10
-69.6656481499
 20
57.4461947431
 30
0.0
 10
-69.4879642892
 20
57.4885379303
 30
0.0
 10
-69.340580381
 20
57.4892672959
 30
0.0
 10
-69.2671732105
 20
57.4813911946
 30
0.0
 11
-69.7960851995
 21
57.3875830757
 31
0.0
 11
-69.698898172
 21
57.4296204665
 31
0.0
 11
-69.4886541914
 21
57.4799819749
 31
0.0
 11
-69.2671732105
 21
57.4813911946
 31
0.0
  0
SPLINE
  5
6F2
100
AcDbEntity
  8
0
100
AcDbSpline
 62
7
  6
CONTINUOUS
 70
0
 71
3
 72
14
 73
10
 74
8
 42
0.0000001
 43
0.0000001
 44
0.0000000001
 12
1.5265164876
 22
-0.440625999
 32
0.0
 13
0.7919061665
 23
1.38096161
 33
0.0
 40
0.0
 40
0.0
 40
0.0
 40
0.0
 40
0.1778235013
 40
0.3469761403
 40
0.5074973323
 40
0.6594332102
 40
0.8028381927
 40
0.9377770198
 40
1.0
 40
1.0
 40
1.0
 40
1.0
 10
-70.2960304794
 20
-57.7668778701
 30
0.0
 10
-70.2055469772
 20
-57.792995756
 30
0.0
 10
-70.0234512686
 20
-57.8268520708
 30
0.0
 10
-69.7529716313
 20
-57.8222330906
 30
0.0
 10
-69.5022713894
 20
-57.7663850093
 30
0.0
 10
-69.2806039846
 20
-57.6665200684
 30
0.0
 10
-69.095066211
 20
-57.5314039564
 30
0.0
 10
-68.9735273357
 20
-57.3963422455
 30
0.0
 10
-68.9167234954
 20
-57.3082967352
 30
0.0
 10
-68.9002985748
 20
-57.2796542196
 30
0.0
 11
-70.2960304794
 21
-57.7668778701
 31
0.0
 11
-70.0181570817
 21
-57.817976286
 31
0.0
 11
-69.7494493869
 21
-57.8128800972
 31
0.0
 11
-69.5006298141
 21
-57.7568866298
 31
0.0
 11
-69.2807591411
 21
-57.6572296393
 31
0.0
 11
-69.096907362
 21
-57.52264561
 31
0.0
 11
-68.9539276809
 21
-57.3628883386
 31
0.0
 11
-68.9002985748
 21
-57.2796542196
 31
0.0
  0
SPLINE
  5
6F3
100
AcDbEntity
  8
0
100
AcDbSpline
 62
7
  6
CONTINUOUS
 70
0
 71
3
 72
9
 73
5
 74
3
 42
0.0000001
 43
0.0000001
 44
0.0000000001
 12
0.1141041339
 22
0.1989799236
 32
0.0
 13
0.0601421282
 23
0.2213573269
 33
0.0
 40
0.0
 40
0.0
 40
0.0
 40
0.0
 40
0.4464455663
 40
1.0
 40
1.0
 40
1.0
 40
1.0
 10
-68.9002985748
 20
-57.2796542196
 30
0.0
 10
-68.8833181466
 20
-57.2500429847
 30
0.0
 10
-68.8488792093
 20
-57.1816672635
 30
0.0
 10
-68.8233352461
 20
-57.1093983262
 30
0.0
 10
-68.8122379322
 20
-57.0685538829
 30
0.0
 11
-68.9002985748
 21
-57.2796542196
 31
0.0
 11
-68.8543408146
 21
-57.1882149385
 31
0.0
 11
-68.8122379322
 21
-57.0685538829
 31
0.0
  0
SPLINE
  5
6F4
100
AcDbEntity
  8
0
100
AcDbSpline
 62
7
  6
CONTINUOUS
 70
0
 71
3
 72
8
 73
4
 74
2
 42
0.0000001
 43
0.0000001
 44
0.0000000001
 12
0.0305187141
 22
0.1649907312
 32
0.0
 13
-0.0050465324
 23
0.1672594158
 33
0.0
 40
0.0
 40
0.0
 40
0.0
 40
0.0
 40
1.0
 40
1.0
 40
1.0
 40
1.0
 10
-68.7969187609
 20
-57.0014199453
 30
0.0
 10
-68.7867458562
 20
-56.9464230349
 30
0.0
 10
-68.7821743359
 20
-56.8903247964
 30
0.0
 10
-68.7838565134
 20
-56.8345716578
 30
0.0
 11
-68.7969187609
 21
-57.0014199453
 31
0.0
 11
-68.7838565134
 21
-56.8345716578
 31
0.0
  0
SPLINE
  5
6F5
100
AcDbEntity
  8
0
100
AcDbSpline
 62
7
  6
CONTINUOUS
 70
0
 71
3
 72
13
 73
9
 74
7
 42
0.0000001
 43
0.0000001
 44
0.0000000001
 12
-1.2298030448
 22
0.0285726643
 32
0.0
 13
-0.6120125161
 23
-1.067254967
 33
0.0
 40
0.0
 40
0.0
 40
0.0
 40
0.0
 40
0.1550277032
 40
0.3627321511
 40
0.5593277362
 40
0.7448848726
 40
0.91948733
 40
1.0
 40
1.0
 40
1.0
 40
1.0
 10
-69.0838053518
 20
-55.1544000878
 30
0.0
 10
-69.1473565323
 20
-55.1529235696
 30
0.0
 10
-69.2962432393
 20
-55.1599585161
 30
0.0
 10
-69.5212587495
 20
-55.2100848518
 30
0.0
 10
-69.7429261543
 20
-55.3099497928
 30
0.0
 10
-69.9284639279
 20
-55.4450659048
 30
0.0
 10
-70.0500028031
 20
-55.5801276156
 30
0.0
 10
-70.1068066435
 20
-55.6681731259
 30
0.0
 10
-70.123231564
 20
-55.6968156416
 30
0.0
 11
-69.0838053518
 21
-55.1544000878
 31
0.0
 11
-69.2740807519
 21
-55.163589764
 31
0.0
 11
-69.5229003247
 21
-55.2195832313
 31
0.0
 11
-69.7427709978
 21
-55.3192402218
 31
0.0
 11
-69.9266227768
 21
-55.4538242511
 31
0.0
 11
-70.0696024579
 21
-55.6135815225
 31
0.0
 11
-70.123231564
 21
-55.6968156416
 31
0.0
  0
SPLINE
  5
6F6
100
AcDbEntity
  8
0
100
AcDbSpline
 62
7
  6
CONTINUOUS
 70
0
 71
3
 72
9
 73
5
 74
3
 42
0.0000001
 43
0.0000001
 44
0.0000000001
 12
-0.1141041339
 22
-0.1989799236
 32
0.0
 13
-0.0601421282
 23
-0.2213573269
 33
0.0
 40
0.0
 40
0.0
 40
0.0
 40
0.0
 40
0.4464455663
 40
1.0
 40
1.0
 40
1.0
 40
1.0
 10
-70.123231564
 20
-55.6968156416
 30
0.0
 10
-70.1402119923
 20
-55.7264268765
 30
0.0
 10
-70.1746509295
 20
-55.7948025976
 30
0.0
 10
-70.2001948927
 20
-55.867071535
 30
0.0
 10
-70.2112922066
 20
-55.9079159782
 30
0.0
 11
-70.123231564
 21
-55.6968156416
 31
0.0
 11
-70.1691893243
 21
-55.7882549227
 31
0.0
 11
-70.2112922066
 21
-55.9079159782
 31
0.0
  0
SPLINE
  5
6F7
100
AcDbEntity
  8
0
100
AcDbSpline
 62
7
  6
CONTINUOUS
 70
0
 71
3
 72
8
 73
4
 74
2
 42
0.0000001
 43
0.0000001
 44
0.0000000001
 12
-0.0305187141
 22
-0.1649907312
 32
0.0
 13
0.0050465324
 23
-0.1672594158
 33
0.0
 40
0.0
 40
0.0
 40
0.0
 40
0.0
 40
1.0
 40
1.0
 40
1.0
 40
1.0
 10
-70.2266113779
 20
-55.9750499159
 30
0.0
 10
-70.2367842826
 20
-56.0300468263
 30
0.0
 10
-70.2413558029
 20
-56.0861450647
 30
0.0
 10
-70.2396736255
 20
-56.1418982033
 30
0.0
 11
-70.2266113779
 21
-55.9750499159
 31
0.0
 11
-70.2396736255
 21
-56.1418982033
 31
0.0
  0
SPLINE
  5
6F8
100
AcDbEntity
  8
0
100
AcDbSpline
 62
7
  6
CONTINUOUS
 70
0
 71
3
 72
10
 73
6
 74
4
 42
0.0000001
 43
0.0000001
 44
0.0000000001
 12
0.2526038827
 22
0.4495512038
 32
0.0
 13
0.4603379694
 23
0.2315080305
 33
0.0
 40
0.0
 40
0.0
 40
0.0
 40
0.0
 40
0.3915193347
 40
0.7940496483
 40
1.0
 40
1.0
 40
1.0
 40
1.0
 10
-70.1649880158
 20
-55.9613707111
 30
0.0
 10
-70.1320215811
 20
-55.9027013817
 30
0.0
 10
-70.0506767476
 20
-55.7920789432
 30
0.0
 10
-69.9183274039
 20
-55.6806933878
 30
0.0
 10
-69.827687455
 20
-55.6283099777
 30
0.0
 10
-69.7960851995
 20
-55.6124169243
 30
0.0
 11
-70.1649880158
 21
-55.9613707111
 31
0.0
 11
-70.0460314738
 21
-55.7990044288
 31
0.0
 11
-69.887886676
 21
-55.665533406
 31
0.0
 11
-69.7960851995
 21
-55.6124169243
 31
0.0
  0
SPLINE
  5
6F9
100
AcDbEntity
  8
0
100
AcDbSpline
 62
7
  6
CONTINUOUS
 70
0
 71
3
 72
10
 73
6
 74
4
 42
0.0000001
 43
0.0000001
 44
0.0000000001
 12
0.4865658941
 22
0.2446982855
 32
0.0
 13
0.5402886881
 23
-0.0579693842
 33
0.0
 40
0.0
 40
0.0
 40
0.0
 40
0.0
 40
0.1945428616
 40
0.5924002923
 40
1.0
 40
1.0
 40
1.0
 40
1.0
 10
-69.7960851995
 20
-55.6124169243
 30
0.0
 10
-69.764532559
 20
-55.5965488227
 30
0.0
 10
-69.6656481499
 20
-55.5538052569
 30
0.0
 10
-69.4879642892
 20
-55.5114620697
 30
0.0
 10
-69.340580381
 20
-55.5107327041
 30
0.0
 10
-69.2671732105
 20
-55.5186088054
 30
0.0
 11
-69.7960851995
 21
-55.6124169243
 31
0.0
 11
-69.698898172
 21
-55.5703795335
 31
0.0
 11
-69.4886541914
 21
-55.5200180251
 31
0.0
 11
-69.2671732105
 21
-55.5186088054
 31
0.0
  0
SPLINE
  5
6FA
100
AcDbEntity
  8
0
100
AcDbSpline
 62
7
  6
CONTINUOUS
 70
0
 71
3
 72
10
 73
6
 74
4
 42
0.0000001
 43
0.0000001
 44
0.0000000001
 12
-0.2526038827
 22
-0.4495512038
 32
0.0
 13
-0.4603379694
 23
-0.2315080305
 33
0.0
 40
0.0
 40
0.0
 40
0.0
 40
0.0
 40
0.3915193347
 40
0.7940496483
 40
1.0
 40
1.0
 40
1.0
 40
1.0
 10
-68.8585421231
 20
-57.0150991501
 30
0.0
 10
-68.8915085578
 20
-57.0737684795
 30
0.0
 10
-68.9728533912
 20
-57.184390918
 30
0.0
 10
-69.1052027349
 20
-57.2957764733
 30
0.0
 10
-69.1958426838
 20
-57.3481598834
 30
0.0
 10
-69.2274449394
 20
-57.3640529369
 30
0.0
 11
-68.8585421231
 21
-57.0150991501
 31
0.0
 11
-68.9774986651
 21
-57.1774654324
 31
0.0
 11
-69.1356434629
 21
-57.3109364551
 31
0.0
 11
-69.2274449394
 21
-57.3640529369
 31
0.0
  0
SPLINE
  5
6FB
100
AcDbEntity
  8
0
100
AcDbSpline
 62
7
  6
CONTINUOUS
 70
0
 71
3
 72
10
 73
6
 74
4
 42
0.0000001
 43
0.0000001
 44
0.0000000001
 12
-0.4865658941
 22
-0.2446982855
 32
0.0
 13
-0.5402886881
 23
0.0579693842
 33
0.0
 40
0.0
 40
0.0
 40
0.0
 40
0.0
 40
0.1945428616
 40
0.5924002923
 40
1.0
 40
1.0
 40
1.0
 40
1.0
 10
-69.2274449394
 20
-57.3640529369
 30
0.0
 10
-69.2589975798
 20
-57.3799210384
 30
0.0
 10
-69.357881989
 20
-57.4226646043
 30
0.0
 10
-69.5355658496
 20
-57.4650077915
 30
0.0
 10
-69.6829497579
 20
-57.4657371571
 30
0.0
 10
-69.7563569283
 20
-57.4578610557
 30
0.0
 11
-69.2274449394
 21
-57.3640529369
 31
0.0
 11
-69.3246319668
 21
-57.4060903277
 31
0.0
 11
-69.5348759474
 21
-57.4564518361
 31
0.0
 11
-69.7563569283
 21
-57.4578610557
 31
0.0
  0
SPLINE
  5
6FC
100
AcDbEntity
  8
0
100
AcDbSpline
 62
7
  6
CONTINUOUS
 70
0
 71
3
 72
14
 73
10
 74
8
 42
0.0000001
 43
0.0000001
 44
0.0000000001
 12
1.5265164876
 22
-0.440625999
 32
0.0
 13
0.7919061665
 23
1.38096161
 33
0.0
 40
0.0
 40
0.0
 40
0.0
 40
0.0
 40
0.1778235013
 40
0.3469761403
 40
0.5074973323
 40
0.6594332102
 40
0.8028381927
 40
0.9377770198
 40
1.0
 40
1.0
 40
1.0
 40
1.0
 10
68.7039695206
 20
-57.7668778701
 30
0.0
 10
68.7944530228
 20
-57.792995756
 30
0.0
 10
68.9765487314
 20
-57.8268520708
 30
0.0
 10
69.2470283687
 20
-57.8222330906
 30
0.0
 10
69.4977286106
 20
-57.7663850093
 30
0.0
 10
69.7193960154
 20
-57.6665200684
 30
0.0
 10
69.904933789
 20
-57.5314039564
 30
0.0
 10
70.0264726643
 20
-57.3963422455
 30
0.0
 10
70.0832765046
 20
-57.3082967352
 30
0.0
 10
70.0997014252
 20
-57.2796542196
 30
0.0
 11
68.7039695206
 21
-57.7668778701
 31
0.0
 11
68.9818429183
 21
-57.817976286
 31
0.0
 11
69.2505506131
 21
-57.8128800972
 31
0.0
 11
69.4993701859
 21
-57.7568866298
 31
0.0
 11
69.7192408589
 21
-57.6572296393
 31
0.0
 11
69.903092638
 21
-57.52264561
 31
0.0
 11
70.0460723191
 21
-57.3628883386
 31
0.0
 11
70.0997014252
 21
-57.2796542196
 31
0.0
  0
SPLINE
  5
6FD
100
AcDbEntity
  8
0
100
AcDbSpline
 62
7
  6
CONTINUOUS
 70
0
 71
3
 72
9
 73
5
 74
3
 42
0.0000001
 43
0.0000001
 44
0.0000000001
 12
0.1141041339
 22
0.1989799236
 32
0.0
 13
0.0601421282
 23
0.2213573269
 33
0.0
 40
0.0
 40
0.0
 40
0.0
 40
0.0
 40
0.4464455663
 40
1.0
 40
1.0
 40
1.0
 40
1.0
 10
70.0997014252
 20
-57.2796542196
 30
0.0
 10
70.1166818534
 20
-57.2500429847
 30
0.0
 10
70.1511207907
 20
-57.1816672635
 30
0.0
 10
70.1766647539
 20
-57.1093983262
 30
0.0
 10
70.1877620678
 20
-57.0685538829
 30
0.0
 11
70.0997014252
 21
-57.2796542196
 31
0.0
 11
70.1456591854
 21
-57.1882149385
 31
0.0
 11
70.1877620678
 21
-57.0685538829
 31
0.0
  0
SPLINE
  5
6FE
100
AcDbEntity
  8
0
100
AcDbSpline
 62
7
  6
CONTINUOUS
 70
0
 71
3
 72
8
 73
4
 74
2
 42
0.0000001
 43
0.0000001
 44
0.0000000001
 12
0.0305187141
 22
0.1649907312
 32
0.0
 13
-0.0050465324
 23
0.1672594158
 33
0.0
 40
0.0
 40
0.0
 40
0.0
 40
0.0
 40
1.0
 40
1.0
 40
1.0
 40
1.0
 10
70.2030812391
 20
-57.0014199453
 30
0.0
 10
70.2132541438
 20
-56.9464230349
 30
0.0
 10
70.2178256641
 20
-56.8903247964
 30
0.0
 10
70.2161434866
 20
-56.8345716578
 30
0.0
 11
70.2030812391
 21
-57.0014199453
 31
0.0
 11
70.2161434866
 21
-56.8345716578
 31
0.0
  0
SPLINE
  5
6FF
100
AcDbEntity
  8
0
100
AcDbSpline
 62
7
  6
CONTINUOUS
 70
0
 71
3
 72
13
 73
9
 74
7
 42
0.0000001
 43
0.0000001
 44
0.0000000001
 12
-1.2578339014
 22
0.3630712959
 32
0.0
 13
-0.9426590629
 23
-0.9120566149
 33
0.0
 40
0.0
 40
0.0
 40
0.0
 40
0.0
 40
0.215807911
 40
0.4210927996
 40
0.6159025005
 40
0.8002930011
 40
0.9743303442
 40
1.0
 40
1.0
 40
1.0
 40
1.0
 10
70.2725003406
 20
-55.2095919911
 30
0.0
 10
70.1820168384
 20
-55.1834741051
 30
0.0
 10
69.9999211298
 20
-55.1496177904
 30
0.0
 10
69.7294414925
 20
-55.1542367706
 30
0.0
 10
69.4787412505
 20
-55.2100848518
 30
0.0
 10
69.2570738457
 20
-55.3099497928
 30
0.0
 10
69.1206014635
 20
-55.409334502
 30
0.0
 10
69.0568755202
 20
-55.4690403132
 30
0.0
 10
69.048809609
 20
-55.476844373
 30
0.0
 11
70.2725003406
 21
-55.2095919911
 31
0.0
 11
69.9946269428
 21
-55.1584935752
 31
0.0
 11
69.7259192481
 21
-55.163589764
 31
0.0
 11
69.4770996753
 21
-55.2195832313
 31
0.0
 11
69.2572290022
 21
-55.3192402218
 31
0.0
 11
69.0733772232
 21
-55.4538242511
 31
0.0
 11
69.048809609
 21
-55.476844373
 31
0.0
  0
SPLINE
  5
700
100
AcDbEntity
  8
0
100
AcDbSpline
 62
7
  6
CONTINUOUS
 70
0
 71
3
 72
10
 73
6
 74
4
 42
0.0000001
 43
0.0000001
 44
0.0000000001
 12
-0.2526038827
 22
-0.4495512038
 32
0.0
 13
-0.4603379694
 23
-0.2315080305
 33
0.0
 40
0.0
 40
0.0
 40
0.0
 40
0.0
 40
0.3915193347
 40
0.7940496483
 40
1.0
 40
1.0
 40
1.0
 40
1.0
 10
70.1414578769
 20
-57.0150991501
 30
0.0
 10
70.1084914422
 20
-57.0737684795
 30
0.0
 10
70.0271466088
 20
-57.184390918
 30
0.0
 10
69.8947972651
 20
-57.2957764733
 30
0.0
 10
69.8041573162
 20
-57.3481598834
 30
0.0
 10
69.7725550606
 20
-57.3640529369
 30
0.0
 11
70.1414578769
 21
-57.0150991501
 31
0.0
 11
70.0225013349
 21
-57.1774654324
 31
0.0
 11
69.8643565371
 21
-57.3109364551
 31
0.0
 11
69.7725550606
 21
-57.3640529369
 31
0.0
  0
SPLINE
  5
701
100
AcDbEntity
  8
0
100
AcDbSpline
 62
7
  6
CONTINUOUS
 70
0
 71
3
 72
10
 73
6
 74
4
 42
0.0000001
 43
0.0000001
 44
0.0000000001
 12
-0.4865658941
 22
-0.2446982855
 32
0.0
 13
-0.5402886881
 23
0.0579693842
 33
0.0
 40
0.0
 40
0.0
 40
0.0
 40
0.0
 40
0.1945428616
 40
0.5924002923
 40
1.0
 40
1.0
 40
1.0
 40
1.0
 10
69.7725550606
 20
-57.3640529369
 30
0.0
 10
69.7410024202
 20
-57.3799210384
 30
0.0
 10
69.642118011
 20
-57.4226646043
 30
0.0
 10
69.4644341504
 20
-57.4650077915
 30
0.0
 10
69.3170502421
 20
-57.4657371571
 30
0.0
 10
69.2436430717
 20
-57.4578610557
 30
0.0
 11
69.7725550606
 21
-57.3640529369
 31
0.0
 11
69.6753680332
 21
-57.4060903277
 31
0.0
 11
69.4651240526
 21
-57.4564518361
 31
0.0
 11
69.2436430717
 21
-57.4578610557
 31
0.0
  0
SPLINE
  5
702
100
AcDbEntity
  8
RACCORDO
100
AcDbSpline
 62
7
  6
CONTINUOUS
 70
0
 71
3
 72
10
 73
6
 74
4
 42
0.0000001
 43
0.0000001
 44
0.0000000001
 12
0.0985915677
 22
0.4941628422
 32
0.0
 13
0.5039019863
 23
0.0
 33
0.0
 40
0.0
 40
0.0
 40
0.0
 40
0.0
 40
0.145482859
 40
0.5094726723
 40
1.0
 40
1.0
 40
1.0
 40
1.0
 10
-12.7703402854
 20
-63.6760928574
 30
0.0
 10
-12.7655591577
 20
-63.652128783
 30
0.0
 10
-12.6438315368
 20
-63.6595116475
 30
0.0
 10
-12.5069660593
 20
-63.6299136049
 30
0.0
 10
-12.3528168807
 20
-63.6331119695
 30
0.0
 10
-12.2704243157
 20
-63.6331119695
 30
0.0
 11
-12.7703402854
 21
-63.6760928574
 31
0.0
 11
-12.7002791683
 21
-63.6545136025
 31
0.0
 11
-12.5175359046
 21
-63.6388282117
 31
0.0
 11
-12.2704243157
 21
-63.6331119695
 31
0.0
  0
SPLINE
  5
703
100
AcDbEntity
  8
RACCORDO
100
AcDbSpline
 62
7
  6
CONTINUOUS
 70
0
 71
3
 72
10
 73
6
 74
4
 42
0.0000001
 43
0.0000001
 44
0.0000000001
 12
-0.5039031658
 22
0.0
 32
0.0
 13
-0.0985917985
 23
0.4941639988
 33
0.0
 40
0.0
 40
0.0
 40
0.0
 40
0.0
 40
0.4905273206
 40
0.8545171281
 40
1.0
 40
1.0
 40
1.0
 40
1.0
 10
-12.520423134
 20
-68.8433578917
 30
0.0
 10
-12.6028158906
 20
-68.8433578917
 30
0.0
 10
-12.7569654323
 20
-68.8465563193
 30
0.0
 10
-12.8938312207
 20
-68.8169582001
 30
0.0
 10
-13.0155591461
 20
-68.8243411363
 30
0.0
 10
-13.0203402854
 20
-68.8003770038
 30
0.0
 11
-12.520423134
 21
-68.8433578917
 31
0.0
 11
-12.7675352988
 21
-68.8376416796
 31
0.0
 11
-12.95027899
 21
-68.8219562849
 31
0.0
 11
-13.0203402854
 21
-68.8003770038
 31
0.0
  0
SPLINE
  5
704
100
AcDbEntity
  8
RACCORDO
100
AcDbSpline
 62
7
  6
CONTINUOUS
 70
0
 71
3
 72
10
 73
6
 74
4
 42
0.0000001
 43
0.0000001
 44
0.0000000001
 12
0.5039019863
 22
0.0
 32
0.0
 13
0.0985915677
 23
-0.4941628422
 33
0.0
 40
0.0
 40
0.0
 40
0.0
 40
0.0
 40
0.4905273277
 40
0.854517141
 40
1.0
 40
1.0
 40
1.0
 40
1.0
 10
12.2468941769
 20
-63.6331119695
 30
0.0
 10
12.3292867418
 20
-63.6331119695
 30
0.0
 10
12.4834359205
 20
-63.6299136049
 30
0.0
 10
12.620301398
 20
-63.6595116475
 30
0.0
 10
12.7420290189
 20
-63.652128783
 30
0.0
 10
12.7468101466
 20
-63.6760928574
 30
0.0
 11
12.2468941769
 21
-63.6331119695
 31
0.0
 11
12.4940057658
 21
-63.6388282117
 31
0.0
 11
12.6767490294
 21
-63.6545136025
 31
0.0
 11
12.7468101466
 21
-63.6760928574
 31
0.0
  0
SPLINE
  5
705
100
AcDbEntity
  8
RACCORDO
100
AcDbSpline
 62
7
  6
CONTINUOUS
 70
0
 71
3
 72
10
 73
6
 74
4
 42
0.0000001
 43
0.0000001
 44
0.0000000001
 12
-0.0985917985
 22
-0.4941639988
 32
0.0
 13
-0.5039031658
 23
0.0
 33
0.0
 40
0.0
 40
0.0
 40
0.0
 40
0.0
 40
0.1454828719
 40
0.5094726794
 40
1.0
 40
1.0
 40
1.0
 40
1.0
 10
12.9968101466
 20
-68.8003770038
 30
0.0
 10
12.9920290073
 20
-68.8243411363
 30
0.0
 10
12.8703010819
 20
-68.8169582001
 30
0.0
 10
12.7334352934
 20
-68.8465563193
 30
0.0
 10
12.5792857518
 20
-68.8433578917
 30
0.0
 10
12.4968929952
 20
-68.8433578917
 30
0.0
 11
12.9968101466
 21
-68.8003770038
 31
0.0
 11
12.9267488512
 21
-68.8219562849
 31
0.0
 11
12.7440051599
 21
-68.8376416796
 31
0.0
 11
12.4968929952
 21
-68.8433578917
 31
0.0
  0
SPLINE
  5
706
100
AcDbEntity
  8
RACCORDO
100
AcDbSpline
 62
7
  6
CONTINUOUS
 70
0
 71
3
 72
10
 73
6
 74
4
 42
0.0000001
 43
0.0000001
 44
0.0000000001
 12
0.5039031658
 22
0.0
 32
0.0
 13
0.0985917985
 23
-0.4941639988
 33
0.0
 40
0.0
 40
0.0
 40
0.0
 40
0.0
 40
0.4905273206
 40
0.8545171281
 40
1.0
 40
1.0
 40
1.0
 40
1.0
 10
12.4968929952
 20
68.8668880305
 30
0.0
 10
12.5792857518
 20
68.8668880305
 30
0.0
 10
12.7334352934
 20
68.8700864581
 30
0.0
 10
12.8703010819
 20
68.8404883389
 30
0.0
 10
12.9920290073
 20
68.8478712752
 30
0.0
 10
12.9968101466
 20
68.8239071426
 30
0.0
 11
12.4968929952
 21
68.8668880305
 31
0.0
 11
12.7440051599
 21
68.8611718184
 31
0.0
 11
12.9267488512
 21
68.8454864238
 31
0.0
 11
12.9968101466
 21
68.8239071426
 31
0.0
  0
SPLINE
  5
707
100
AcDbEntity
  8
RACCORDO
100
AcDbSpline
 62
7
  6
CONTINUOUS
 70
0
 71
3
 72
10
 73
6
 74
4
 42
0.0000001
 43
0.0000001
 44
0.0000000001
 12
-0.0985915677
 22
-0.4941628422
 32
0.0
 13
-0.5039019863
 23
0.0
 33
0.0
 40
0.0
 40
0.0
 40
0.0
 40
0.0
 40
0.145482859
 40
0.5094726723
 40
1.0
 40
1.0
 40
1.0
 40
1.0
 10
12.7468101466
 20
63.6996229962
 30
0.0
 10
12.7420290189
 20
63.6756589219
 30
0.0
 10
12.620301398
 20
63.6830417864
 30
0.0
 10
12.4834359205
 20
63.6534437437
 30
0.0
 10
12.3292867418
 20
63.6566421083
 30
0.0
 10
12.2468941769
 20
63.6566421083
 30
0.0
 11
12.7468101466
 21
63.6996229962
 31
0.0
 11
12.6767490294
 21
63.6780437413
 31
0.0
 11
12.4940057658
 21
63.6623583505
 31
0.0
 11
12.2468941769
 21
63.6566421083
 31
0.0
  0
SPLINE
  5
708
100
AcDbEntity
  8
RACCORDO
100
AcDbSpline
 62
7
  6
CONTINUOUS
 70
0
 71
3
 72
10
 73
6
 74
4
 42
0.0000001
 43
0.0000001
 44
0.0000000001
 12
-0.5039019863
 22
0.0
 32
0.0
 13
-0.0985915677
 23
0.4941628422
 33
0.0
 40
0.0
 40
0.0
 40
0.0
 40
0.0
 40
0.4905273277
 40
0.854517141
 40
1.0
 40
1.0
 40
1.0
 40
1.0
 10
-12.2704243157
 20
63.6566421083
 30
0.0
 10
-12.3528168807
 20
63.6566421083
 30
0.0
 10
-12.5069660593
 20
63.6534437437
 30
0.0
 10
-12.6438315368
 20
63.6830417864
 30
0.0
 10
-12.7655591577
 20
63.6756589219
 30
0.0
 10
-12.7703402854
 20
63.6996229962
 30
0.0
 11
-12.2704243157
 21
63.6566421083
 31
0.0
 11
-12.5175359046
 21
63.6623583505
 31
0.0
 11
-12.7002791683
 21
63.6780437413
 31
0.0
 11
-12.7703402854
 21
63.6996229962
 31
0.0
  0
SPLINE
  5
709
100
AcDbEntity
  8
RACCORDO
100
AcDbSpline
 62
7
  6
CONTINUOUS
 70
0
 71
3
 72
10
 73
6
 74
4
 42
0.0000001
 43
0.0000001
 44
0.0000000001
 12
0.0985917985
 22
0.4941639988
 32
0.0
 13
0.5039031658
 23
-0.0
 33
0.0
 40
0.0
 40
0.0
 40
0.0
 40
0.0
 40
0.1454828719
 40
0.5094726794
 40
1.0
 40
1.0
 40
1.0
 40
1.0
 10
-13.0203402854
 20
68.8239071426
 30
0.0
 10
-13.0155591461
 20
68.8478712752
 30
0.0
 10
-12.8938312207
 20
68.8404883389
 30
0.0
 10
-12.7569654323
 20
68.8700864581
 30
0.0
 10
-12.6028158906
 20
68.8668880305
 30
0.0
 10
-12.520423134
 20
68.8668880305
 30
0.0
 11
-13.0203402854
 21
68.8239071426
 31
0.0
 11
-12.95027899
 21
68.8454864238
 31
0.0
 11
-12.7675352988
 21
68.8611718184
 31
0.0
 11
-12.520423134
 21
68.8668880305
 31
0.0
  0
LINE
  5
70A
100
AcDbEntity
  8
RACCORDO
100
AcDbLine
 62
7
  6
CONTINUOUS
 10
65.6213094261
 20
57.6741769349
 11
65.1213284646
 21
57.4670780397
  0
SPLINE
  5
70B
100
AcDbEntity
  8
RACCORDO
100
AcDbSpline
 62
253
  6
CONTINUOUS
 70
0
 71
3
 72
13
 73
9
 74
7
 42
0.0000001
 43
0.0000001
 44
0.0000000001
 12
0.0000005411
 22
-2.499876197
 32
0.0
 13
-1.1139725998
 23
-2.2379557742
 33
0.0
 40
0.0
 40
0.0
 40
0.0
 40
0.0
 40
0.2559055395
 40
0.4947937972
 40
0.7010739251
 40
0.8605250695
 40
0.9622934341
 40
1.0
 40
1.0
 40
1.0
 40
1.0
 10
-65.644839565
 20
-57.8182885963
 30
0.0
 10
-65.6448395188
 20
-58.0315326519
 30
0.0
 10
-65.6456673798
 20
-58.443726904
 30
0.0
 10
-65.6461525719
 20
-59.0283850977
 30
0.0
 10
-65.6537507453
 20
-59.5308560507
 30
0.0
 10
-65.6466030511
 20
-59.923784074
 30
0.0
 10
-65.6721923957
 20
-60.1663939782
 30
0.0
 10
-65.6522746119
 20
-60.2897792919
 30
0.0
 10
-65.6662759723
 20
-60.3179078341
 30
0.0
 11
-65.644839565
 21
-57.8182885963
 31
0.0
 11
-65.6455660037
 21
-58.4580203507
 31
0.0
 11
-65.6476974084
 21
-59.0552076163
 31
0.0
 11
-65.651098288
 21
-59.5708711835
 31
0.0
 11
-65.6555411543
 21
-59.9694545431
 31
0.0
 11
-65.6607156478
 21
-60.2238102271
 31
0.0
 11
-65.6662759723
 21
-60.3179078341
 31
0.0
  0
SPLINE
  5
70C
100
AcDbEntity
  8
RACCORDO
100
AcDbSpline
 62
7
  6
CONTINUOUS
 70
0
 71
3
 72
10
 73
6
 74
4
 42
0.0000001
 43
0.0000001
 44
0.0000000001
 12
0.0588110878
 22
0.5821697514
 32
0.0
 13
-0.0591269662
 23
0.5823734461
 33
0.0
 40
0.0
 40
0.0
 40
0.0
 40
0.0
 40
0.3605023217
 40
0.7350579417
 40
1.0
 40
1.0
 40
1.0
 40
1.0
 10
-67.6236490366
 20
-56.3321697054
 30
0.0
 10
-67.6165818587
 20
-56.2622118564
 30
0.0
 10
-67.6059578078
 20
-56.1191371185
 30
0.0
 10
-67.6044508557
 20
-55.9239486245
 30
0.0
 10
-67.612572141
 20
-55.7993029414
 30
0.0
 10
-67.6177938811
 20
-55.7478712016
 30
0.0
 11
-67.6236490366
 21
-56.3321697054
 31
0.0
 11
-67.6084499133
 21
-56.1217762706
 31
0.0
 11
-67.6074022553
 21
-55.9026140056
 31
0.0
 11
-67.6177938811
 21
-55.7478712016
 31
0.0
  0
SPLINE
  5
70D
100
AcDbEntity
  8
RACCORDO
100
AcDbSpline
 62
7
  6
CONTINUOUS
 70
0
 71
3
 72
10
 73
6
 74
4
 42
0.0000001
 43
0.0000001
 44
0.0000000001
 12
0.6621806763
 22
0.0668938326
 32
0.0
 13
0.6590071396
 23
-0.0931000691
 33
0.0
 40
0.0
 40
0.0
 40
0.0
 40
0.0
 40
0.3169430255
 40
0.6462412972
 40
1.0
 40
1.0
 40
1.0
 40
1.0
 10
-69.3556998442
 20
-54.6001188978
 30
0.0
 10
-69.2857419952
 20
-54.5930517199
 30
0.0
 10
-69.1426672574
 20
-54.582427669
 30
0.0
 10
-68.9206528901
 20
-54.5807136078
 30
0.0
 10
-68.7692655429
 20
-54.5929523351
 30
0.0
 10
-68.691555706
 20
-54.603930655
 30
0.0
 11
-69.3556998442
 21
-54.6001188978
 31
0.0
 11
-69.1453064094
 21
-54.5849197745
 31
0.0
 11
-68.9261441444
 21
-54.5838721165
 31
0.0
 11
-68.691555706
 21
-54.603930655
 31
0.0
  0
SPLINE
  5
70E
100
AcDbEntity
  8
RACCORDO
100
AcDbSpline
 62
253
  6
CONTINUOUS
 70
0
 71
3
 72
11
 73
7
 74
5
 42
0.0000001
 43
0.0000001
 44
0.0000000001
 12
-0.4323743996
 22
0.2388592444
 32
0.0
 13
-0.4696981445
 23
0.1231072961
 33
0.0
 40
0.0
 40
0.0
 40
0.0
 40
0.0
 40
0.3331083653
 40
0.6634672869
 40
0.9142395524
 40
1.0
 40
1.0
 40
1.0
 40
1.0
 10
68.0415715537
 20
55.4497884508
 30
0.0
 10
67.9935623772
 20
55.476310455
 30
0.0
 10
67.8976416923
 20
55.5281124946
 30
0.0
 10
67.767106117
 20
55.6051125965
 30
0.0
 10
67.6682077685
 20
55.6486757992
 30
0.0
 10
67.6232053777
 20
55.6869347337
 30
0.0
 10
67.6097782033
 20
55.6904539793
 30
0.0
 11
68.0415715537
 21
55.4497884508
 31
0.0
 11
67.8975442881
 21
55.5293549409
 31
0.0
 11
67.7547065996
 21
55.6082661273
 31
0.0
 11
67.6464602895
 21
55.6684922329
 31
0.0
 11
67.6097782033
 21
55.6904539793
 31
0.0
  0
SPLINE
  5
70F
100
AcDbEntity
  8
RACCORDO
100
AcDbSpline
 62
253
  6
CONTINUOUS
 70
0
 71
3
 72
13
 73
9
 74
7
 42
0.0000001
 43
0.0000001
 44
0.0000000001
 12
2.2380161706
 22
1.1138511033
 32
0.0
 13
2.499876129
 23
-0.0000005852
 33
0.0
 40
0.0
 40
0.0
 40
0.0
 40
0.0
 40
0.0377795161
 40
0.1396718696
 40
0.2992587705
 40
0.5055421472
 40
0.7443497138
 40
1.0
 40
1.0
 40
1.0
 40
1.0
 10
-73.341437973
 20
-52.6427458335
 30
0.0
 10
-73.3132542503
 20
-52.6287189149
 30
0.0
 10
-73.1896949966
 20
-52.6486749522
 30
0.0
 10
-72.9468133157
 20
-52.6230593154
 30
0.0
 10
-72.5536653751
 20
-52.6302143062
 30
0.0
 10
-72.0511449333
 20
-52.6226199128
 30
0.0
 10
-71.4667646122
 20
-52.6221358833
 30
0.0
 10
-71.0548500844
 20
-52.6213093762
 30
0.0
 10
-70.8418187351
 20
-52.6213094261
 30
0.0
 11
-73.341437973
 21
-52.6427458335
 31
0.0
 11
-73.2471580168
 21
-52.6371798773
 31
0.0
 11
-72.9924923519
 21
-52.6320037617
 31
0.0
 11
-72.5935696061
 21
-52.6275610181
 31
0.0
 11
-72.0778979117
 21
-52.6241630986
 31
0.0
 11
-71.4809123718
 21
-52.6220343949
 31
0.0
 11
-70.8418187351
 21
-52.6213094261
 31
0.0
  0
SPLINE
  5
710
100
AcDbEntity
  8
RACCORDO
100
AcDbSpline
 62
253
  6
CONTINUOUS
 70
0
 71
3
 72
13
 73
9
 74
7
 42
0.0000001
 43
0.0000001
 44
0.0000000001
 12
-0.0000005411
 22
2.499876197
 32
0.0
 13
1.1139725998
 23
2.2379557742
 33
0.0
 40
0.0
 40
0.0
 40
0.0
 40
0.0
 40
0.2559055395
 40
0.4947937972
 40
0.7010739251
 40
0.8605250695
 40
0.9622934341
 40
1.0
 40
1.0
 40
1.0
 40
1.0
 10
65.6213094261
 20
57.8418187351
 30
0.0
 10
65.62130938
 20
58.0550627907
 30
0.0
 10
65.6221372409
 20
58.4672570428
 30
0.0
 10
65.6226224331
 20
59.0519152365
 30
0.0
 10
65.6302206065
 20
59.5543861896
 30
0.0
 10
65.6230729122
 20
59.9473142128
 30
0.0
 10
65.6486622569
 20
60.1899241171
 30
0.0
 10
65.6287444731
 20
60.3133094307
 30
0.0
 10
65.6427458335
 20
60.341437973
 30
0.0
 11
65.6213094261
 21
57.8418187351
 31
0.0
 11
65.6220358649
 21
58.4815504896
 31
0.0
 11
65.6241672695
 21
59.0787377551
 31
0.0
 11
65.6275681492
 21
59.5944013223
 31
0.0
 11
65.6320110155
 21
59.9929846819
 31
0.0
 11
65.637185509
 21
60.2473403659
 31
0.0
 11
65.6427458335
 21
60.341437973
 31
0.0
  0
LINE
  5
711
100
AcDbEntity
  8
RACCORDO
100
AcDbLine
 62
7
  6
CONTINUOUS
 10
70.650646796
 20
52.644839565
 11
70.4435479008
 21
52.1448586034
  0
SPLINE
  5
712
100
AcDbEntity
  8
RACCORDO
100
AcDbSpline
 62
7
  6
CONTINUOUS
 70
0
 71
3
 72
10
 73
6
 74
4
 42
0.0000001
 43
0.0000001
 44
0.0000000001
 12
-0.0588110878
 22
-0.5821697514
 32
0.0
 13
0.0591269662
 23
-0.5823734461
 33
0.0
 40
0.0
 40
0.0
 40
0.0
 40
0.0
 40
0.3605023217
 40
0.7350579417
 40
1.0
 40
1.0
 40
1.0
 40
1.0
 10
67.6001188978
 20
56.3556998442
 30
0.0
 10
67.5930517199
 20
56.2857419952
 30
0.0
 10
67.582427669
 20
56.1426672574
 30
0.0
 10
67.5809207169
 20
55.9474787633
 30
0.0
 10
67.5890420022
 20
55.8228330803
 30
0.0
 10
67.5942637422
 20
55.7714013404
 30
0.0
 11
67.6001188978
 21
56.3556998442
 31
0.0
 11
67.5849197745
 21
56.1453064094
 31
0.0
 11
67.5838721165
 21
55.9261441444
 31
0.0
 11
67.5942637422
 21
55.7714013404
 31
0.0
  0
SPLINE
  5
713
100
AcDbEntity
  8
RACCORDO
100
AcDbSpline
 62
7
  6
CONTINUOUS
 70
0
 71
3
 72
10
 73
6
 74
4
 42
0.0000001
 43
0.0000001
 44
0.0000000001
 12
-0.6621806763
 22
-0.0668938326
 32
0.0
 13
-0.6590071396
 23
0.0931000691
 33
0.0
 40
0.0
 40
0.0
 40
0.0
 40
0.0
 40
0.3169430255
 40
0.6462412972
 40
1.0
 40
1.0
 40
1.0
 40
1.0
 10
69.3321697054
 20
54.6236490366
 30
0.0
 10
69.2622118564
 20
54.6165818587
 30
0.0
 10
69.1191371185
 20
54.6059578078
 30
0.0
 10
68.8971227513
 20
54.6042437466
 30
0.0
 10
68.7457354041
 20
54.6164824739
 30
0.0
 10
68.6680255672
 20
54.6274607938
 30
0.0
 11
69.3321697054
 21
54.6236490366
 31
0.0
 11
69.1217762706
 21
54.6084499133
 31
0.0
 11
68.9026140056
 21
54.6074022553
 31
0.0
 11
68.6680255672
 21
54.6274607938
 31
0.0
  0
SPLINE
  5
714
100
AcDbEntity
  8
RACCORDO
100
AcDbSpline
 62
253
  6
CONTINUOUS
 70
0
 71
3
 72
10
 73
6
 74
4
 42
0.0000001
 43
0.0000001
 44
0.0000000001
 12
-0.4991264253
 22
-0.0287515071
 32
0.0
 13
-0.4361098552
 23
0.2444627411
 33
0.0
 40
0.0
 40
0.0
 40
0.0
 40
0.0
 40
0.4959338336
 40
0.8613244543
 40
1.0
 40
1.0
 40
1.0
 40
1.0
 10
-68.1923906476
 20
-54.5751885229
 30
0.0
 10
-68.2749018747
 20
-54.5799414713
 30
0.0
 10
-68.4201708542
 20
-54.5967183268
 30
0.0
 10
-68.5809012045
 20
-54.5818285573
 30
0.0
 10
-68.6713578479
 20
-54.615239802
 30
0.0
 10
-68.6915171053
 20
-54.6039394673
 30
0.0
 11
-68.1923906476
 21
-54.5751885229
 31
0.0
 11
-68.4399243291
 21
-54.589447368
 31
0.0
 11
-68.6223004435
 21
-54.5999528991
 31
0.0
 11
-68.6915171053
 21
-54.6039394673
 31
0.0
  0
SPLINE
  5
715
100
AcDbEntity
  8
RACCORDO
100
AcDbSpline
 62
253
  6
CONTINUOUS
 70
0
 71
3
 72
13
 73
9
 74
7
 42
0.0000001
 43
0.0000001
 44
0.0000000001
 12
-2.2380161706
 22
-1.1138511033
 32
0.0
 13
-2.499876129
 23
0.0000005852
 33
0.0
 40
0.0
 40
0.0
 40
0.0
 40
0.0
 40
0.0377795161
 40
0.1396718696
 40
0.2992587705
 40
0.5055421472
 40
0.7443497138
 40
1.0
 40
1.0
 40
1.0
 40
1.0
 10
73.3179078341
 20
52.6662759723
 30
0.0
 10
73.2897241115
 20
52.6522490538
 30
0.0
 10
73.1661648577
 20
52.672205091
 30
0.0
 10
72.9232831768
 20
52.6465894543
 30
0.0
 10
72.5301352362
 20
52.653744445
 30
0.0
 10
72.0276147945
 20
52.6461500516
 30
0.0
 10
71.4432344733
 20
52.6456660222
 30
0.0
 10
71.0313199456
 20
52.6448395151
 30
0.0
 10
70.8182885963
 20
52.644839565
 30
0.0
 11
73.3179078341
 21
52.6662759723
 31
0.0
 11
73.223627878
 21
52.6607100162
 31
0.0
 11
72.9689622131
 21
52.6555339006
 31
0.0
 11
72.5700394672
 21
52.6510911569
 31
0.0
 11
72.0543677729
 21
52.6476932374
 31
0.0
 11
71.457382233
 21
52.6455645337
 31
0.0
 11
70.8182885963
 21
52.644839565
 31
0.0
  0
SPLINE
  5
716
100
AcDbEntity
  8
RACCORDO
100
AcDbSpline
 62
253
  6
CONTINUOUS
 70
0
 71
3
 72
8
 73
4
 74
2
 42
0.0000001
 43
0.0000001
 44
0.0000000001
 12
0.0560226844
 22
-0.159263053
 32
0.0
 13
0.0557064177
 23
-0.1592748354
 33
0.0
 40
0.0
 40
0.0
 40
0.0
 40
0.0
 40
1.0
 40
1.0
 40
1.0
 40
1.0
 10
-67.7933557753
 20
-55.1963476342
 30
0.0
 10
-67.7746815471
 20
-55.2494353185
 30
0.0
 10
-67.753540045
 20
-55.3024310858
 30
0.0
 10
-67.7349712391
 20
-55.3555226976
 30
0.0
 11
-67.7933557753
 21
-55.1963476342
 31
0.0
 11
-67.7349712391
 21
-55.3555226976
 31
0.0
  0
SPLINE
  5
717
100
AcDbEntity
  8
RACCORDO
100
AcDbSpline
 62
253
  6
CONTINUOUS
 70
0
 71
3
 72
10
 73
6
 74
4
 42
0.0000001
 43
0.0000001
 44
0.0000000001
 12
0.1092567969
 22
-0.3123851622
 32
0.0
 13
-0.0863431004
 23
-0.3196684162
 33
0.0
 40
0.0
 40
0.0
 40
0.0
 40
0.0
 40
0.2389359179
 40
0.7906293141
 40
1.0
 40
1.0
 40
1.0
 40
1.0
 10
-67.7349712391
 20
-55.3555226976
 30
0.0
 10
-67.726269448
 20
-55.3804027094
 30
0.0
 10
-67.6993450892
 20
-55.4627993128
 30
0.0
 10
-67.680298195
 20
-55.5675748864
 30
0.0
 10
-67.6214292717
 20
-55.6456627187
 30
0.0
 10
-67.6274551764
 20
-55.6679724506
 30
0.0
 11
-67.7349712391
 21
-55.3555226976
 31
0.0
 11
-67.7110795076
 21
-55.4302452011
 31
0.0
 11
-67.6504610429
 21
-55.6025732833
 31
0.0
 11
-67.6274551764
 21
-55.6679724506
 31
0.0
  0
SPLINE
  5
718
100
AcDbEntity
  8
RACCORDO
100
AcDbSpline
 62
253
  6
CONTINUOUS
 70
0
 71
3
 72
13
 73
9
 74
7
 42
0.0000001
 43
0.0000001
 44
0.0000000001
 12
-1.1138511033
 22
2.2380161706
 32
0.0
 13
0.0000005852
 23
2.499876129
 33
0.0
 40
0.0
 40
0.0
 40
0.0
 40
0.0
 40
0.0377795161
 40
0.1396718696
 40
0.2992587705
 40
0.5055421472
 40
0.7443497138
 40
1.0
 40
1.0
 40
1.0
 40
1.0
 10
65.6427458335
 20
-60.3179078341
 30
0.0
 10
65.6287189149
 20
-60.2897241115
 30
0.0
 10
65.6486749522
 20
-60.1661648577
 30
0.0
 10
65.6230593154
 20
-59.9232831768
 30
0.0
 10
65.6302143062
 20
-59.5301352362
 30
0.0
 10
65.6226199128
 20
-59.0276147945
 30
0.0
 10
65.6221358833
 20
-58.4432344733
 30
0.0
 10
65.6213093762
 20
-58.0313199456
 30
0.0
 10
65.6213094261
 20
-57.8182885963
 30
0.0
 11
65.6427458335
 21
-60.3179078341
 31
0.0
 11
65.6371798773
 21
-60.223627878
 31
0.0
 11
65.6320037617
 21
-59.9689622131
 31
0.0
 11
65.6275610181
 21
-59.5700394672
 31
0.0
 11
65.6241630986
 21
-59.0543677729
 31
0.0
 11
65.6220343949
 21
-58.457382233
 31
0.0
 11
65.6213094261
 21
-57.8182885963
 31
0.0
  0
SPLINE
  5
719
100
AcDbEntity
  8
RACCORDO
100
AcDbSpline
 62
7
  6
CONTINUOUS
 70
0
 71
3
 72
10
 73
6
 74
4
 42
0.0000001
 43
0.0000001
 44
0.0000000001
 12
-0.0668938326
 22
0.6621806763
 32
0.0
 13
0.0931000691
 23
0.6590071396
 33
0.0
 40
0.0
 40
0.0
 40
0.0
 40
0.0
 40
0.3169430255
 40
0.6462412972
 40
1.0
 40
1.0
 40
1.0
 40
1.0
 10
67.6001188978
 20
-56.3321697054
 30
0.0
 10
67.5930517199
 20
-56.2622118564
 30
0.0
 10
67.582427669
 20
-56.1191371185
 30
0.0
 10
67.5807136078
 20
-55.8971227513
 30
0.0
 10
67.5929523351
 20
-55.7457354041
 30
0.0
 10
67.603930655
 20
-55.6680255672
 30
0.0
 11
67.6001188978
 21
-56.3321697054
 31
0.0
 11
67.5849197745
 21
-56.1217762706
 31
0.0
 11
67.5838721165
 21
-55.9026140056
 31
0.0
 11
67.603930655
 21
-55.6680255672
 31
0.0
  0
SPLINE
  5
71A
100
AcDbEntity
  8
RACCORDO
100
AcDbSpline
 62
7
  6
CONTINUOUS
 70
0
 71
3
 72
10
 73
6
 74
4
 42
0.0000001
 43
0.0000001
 44
0.0000000001
 12
-0.5821697514
 22
0.0588110878
 32
0.0
 13
-0.5823734461
 23
-0.0591269662
 33
0.0
 40
0.0
 40
0.0
 40
0.0
 40
0.0
 40
0.3605023217
 40
0.7350579417
 40
1.0
 40
1.0
 40
1.0
 40
1.0
 10
69.3321697054
 20
-54.6001188978
 30
0.0
 10
69.2622118564
 20
-54.5930517199
 30
0.0
 10
69.1191371185
 20
-54.582427669
 30
0.0
 10
68.9239486245
 20
-54.5809207169
 30
0.0
 10
68.7993029414
 20
-54.5890420022
 30
0.0
 10
68.7478712016
 20
-54.5942637422
 30
0.0
 11
69.3321697054
 21
-54.6001188978
 31
0.0
 11
69.1217762706
 21
-54.5849197745
 31
0.0
 11
68.9026140056
 21
-54.5838721165
 31
0.0
 11
68.7478712016
 21
-54.5942637422
 31
0.0
  0
SPLINE
  5
71B
100
AcDbEntity
  8
RACCORDO
100
AcDbSpline
 62
253
  6
CONTINUOUS
 70
0
 71
3
 72
13
 73
9
 74
7
 42
0.0000001
 43
0.0000001
 44
0.0000000001
 12
2.499876197
 22
0.0000005411
 32
0.0
 13
2.2379557742
 23
-1.1139725998
 33
0.0
 40
0.0
 40
0.0
 40
0.0
 40
0.0
 40
0.2559055395
 40
0.4947937972
 40
0.7010739251
 40
0.8605250695
 40
0.9622934341
 40
1.0
 40
1.0
 40
1.0
 40
1.0
 10
70.8182885963
 20
-52.6213094261
 30
0.0
 10
71.0315326519
 20
-52.62130938
 30
0.0
 10
71.443726904
 20
-52.6221372409
 30
0.0
 10
72.0283850977
 20
-52.6226224331
 30
0.0
 10
72.5308560507
 20
-52.6302206065
 30
0.0
 10
72.923784074
 20
-52.6230729122
 30
0.0
 10
73.1663939782
 20
-52.6486622569
 30
0.0
 10
73.2897792919
 20
-52.6287444731
 30
0.0
 10
73.3179078341
 20
-52.6427458335
 30
0.0
 11
70.8182885963
 21
-52.6213094261
 31
0.0
 11
71.4580203507
 21
-52.6220358649
 31
0.0
 11
72.0552076163
 21
-52.6241672695
 31
0.0
 11
72.5708711835
 21
-52.6275681492
 31
0.0
 11
72.9694545431
 21
-52.6320110155
 31
0.0
 11
73.2238102271
 21
-52.637185509
 31
0.0
 11
73.3179078341
 21
-52.6427458335
 31
0.0
  0
LINE
  5
71C
100
AcDbEntity
  8
RACCORDO
100
AcDbLine
 62
7
  6
CONTINUOUS
 10
-65.644839565
 20
-57.650646796
 11
-65.1448586034
 21
-57.4435479008
  0
SPLINE
  5
71D
100
AcDbEntity
  8
RACCORDO
100
AcDbSpline
 62
253
  6
CONTINUOUS
 70
0
 71
3
 72
11
 73
7
 74
5
 42
0.0000001
 43
0.0000001
 44
0.0000000001
 12
0.4323743996
 22
-0.2388592444
 32
0.0
 13
0.4696981445
 23
-0.1231072961
 33
0.0
 40
0.0
 40
0.0
 40
0.0
 40
0.0
 40
0.3331083653
 40
0.6634672869
 40
0.9142395524
 40
1.0
 40
1.0
 40
1.0
 40
1.0
 10
-68.0651016925
 20
-55.426258312
 30
0.0
 10
-68.017092516
 20
-55.4527803162
 30
0.0
 10
-67.9211718311
 20
-55.5045823557
 30
0.0
 10
-67.7906362558
 20
-55.5815824576
 30
0.0
 10
-67.6917379074
 20
-55.6251456604
 30
0.0
 10
-67.6467355165
 20
-55.6634045948
 30
0.0
 10
-67.6333083421
 20
-55.6669238404
 30
0.0
 11
-68.0651016925
 21
-55.426258312
 31
0.0
 11
-67.921074427
 21
-55.5058248021
 31
0.0
 11
-67.7782367384
 21
-55.5847359885
 31
0.0
 11
-67.6699904284
 21
-55.6449620941
 31
0.0
 11
-67.6333083421
 21
-55.6669238404
 31
0.0
  0
LINE
  5
71E
100
AcDbEntity
  8
RACCORDO
100
AcDbLine
 62
7
  6
CONTINUOUS
 10
-70.6741769349
 20
-52.6213094261
 11
-70.4670780397
 21
-52.1213284646
  0
SPLINE
  5
71F
100
AcDbEntity
  8
RACCORDO
100
AcDbSpline
 62
253
  6
CONTINUOUS
 70
0
 71
3
 72
8
 73
4
 74
2
 42
0.0000001
 43
0.0000001
 44
0.0000000001
 12
-0.159263053
 22
-0.0560226844
 32
0.0
 13
-0.1592748354
 23
-0.0557064177
 33
0.0
 40
0.0
 40
0.0
 40
0.0
 40
0.0
 40
1.0
 40
1.0
 40
1.0
 40
1.0
 10
-68.219877773
 20
54.7933557753
 30
0.0
 10
-68.2729654573
 20
54.7746815471
 30
0.0
 10
-68.3259612247
 20
54.753540045
 30
0.0
 10
-68.3790528365
 20
54.7349712391
 30
0.0
 11
-68.219877773
 21
54.7933557753
 31
0.0
 11
-68.3790528365
 21
54.7349712391
 31
0.0
  0
SPLINE
  5
720
100
AcDbEntity
  8
RACCORDO
100
AcDbSpline
 62
253
  6
CONTINUOUS
 70
0
 71
3
 72
10
 73
6
 74
4
 42
0.0000001
 43
0.0000001
 44
0.0000000001
 12
-0.3123851622
 22
-0.1092567969
 32
0.0
 13
-0.3196684162
 23
0.0863431005
 33
0.0
 40
0.0
 40
0.0
 40
0.0
 40
0.0
 40
0.2389359179
 40
0.7906293141
 40
1.0
 40
1.0
 40
1.0
 40
1.0
 10
-68.3790528365
 20
54.7349712391
 30
0.0
 10
-68.4039328483
 20
54.726269448
 30
0.0
 10
-68.4863294517
 20
54.6993450892
 30
0.0
 10
-68.5911050252
 20
54.680298195
 30
0.0
 10
-68.6691928575
 20
54.6214292717
 30
0.0
 10
-68.6915025894
 20
54.6274551764
 30
0.0
 11
-68.3790528365
 21
54.7349712391
 31
0.0
 11
-68.45377534
 21
54.7110795076
 31
0.0
 11
-68.6261034222
 21
54.6504610429
 31
0.0
 11
-68.6915025894
 21
54.6274551764
 31
0.0
  0
SPLINE
  5
721
100
AcDbEntity
  8
RACCORDO
100
AcDbSpline
 62
253
  6
CONTINUOUS
 70
0
 71
3
 72
10
 73
6
 74
4
 42
0.0000001
 43
0.0000001
 44
0.0000000001
 12
-0.0287515071
 22
0.4991264253
 32
0.0
 13
0.2444627412
 23
0.4361098552
 33
0.0
 40
0.0
 40
0.0
 40
0.0
 40
0.0
 40
0.4959338336
 40
0.8613244543
 40
1.0
 40
1.0
 40
1.0
 40
1.0
 10
-67.5987186617
 20
55.1923906476
 30
0.0
 10
-67.6034716101
 20
55.2749018747
 30
0.0
 10
-67.6202484656
 20
55.4201708542
 30
0.0
 10
-67.6053586961
 20
55.5809012045
 30
0.0
 10
-67.6387699408
 20
55.6713578479
 30
0.0
 10
-67.6274696061
 20
55.6915171053
 30
0.0
 11
-67.5987186617
 21
55.1923906476
 31
0.0
 11
-67.6129775069
 21
55.4399243291
 31
0.0
 11
-67.6234830379
 21
55.6223004435
 31
0.0
 11
-67.6274696061
 21
55.6915171053
 31
0.0
  0
LINE
  5
722
100
AcDbEntity
  8
RACCORDO
100
AcDbLine
 62
7
  6
CONTINUOUS
 10
-65.644839565
 20
57.6741769349
 11
-65.1448586034
 21
57.4670780397
  0
SPLINE
  5
723
100
AcDbEntity
  8
RACCORDO
100
AcDbSpline
 62
253
  6
CONTINUOUS
 70
0
 71
3
 72
11
 73
7
 74
5
 42
0.0000001
 43
0.0000001
 44
0.0000000001
 12
-0.2388592445
 22
-0.4323743996
 32
0.0
 13
-0.1231072961
 23
-0.4696981445
 33
0.0
 40
0.0
 40
0.0
 40
0.0
 40
0.0
 40
0.3331083653
 40
0.6634672871
 40
0.9142395525
 40
1.0
 40
1.0
 40
1.0
 40
1.0
 10
-68.4497884508
 20
55.0651016925
 30
0.0
 10
-68.476310455
 20
55.017092516
 30
0.0
 10
-68.5281124946
 20
54.9211718311
 30
0.0
 10
-68.6051125965
 20
54.7906362558
 30
0.0
 10
-68.6486757993
 20
54.6917379073
 30
0.0
 10
-68.6869347337
 20
54.6467355165
 30
0.0
 10
-68.6904539793
 20
54.6333083421
 30
0.0
 11
-68.4497884508
 21
55.0651016925
 31
0.0
 11
-68.529354941
 21
54.9210744269
 31
0.0
 11
-68.6082661273
 21
54.7782367383
 31
0.0
 11
-68.668492233
 21
54.6699904283
 31
0.0
 11
-68.6904539793
 21
54.6333083421
 31
0.0
  0
LINE
  5
724
100
AcDbEntity
  8
RACCORDO
100
AcDbLine
 62
7
  6
CONTINUOUS
 10
-70.6741769349
 20
52.644839565
 11
-70.4670780397
 21
52.1448586034
  0
SPLINE
  5
725
100
AcDbEntity
  8
RACCORDO
100
AcDbSpline
 62
253
  6
CONTINUOUS
 70
0
 71
3
 72
10
 73
6
 74
4
 42
0.0000001
 43
0.0000001
 44
0.0000000001
 12
0.0287515071
 22
-0.4991264253
 32
0.0
 13
-0.2444627411
 23
-0.4361098552
 33
0.0
 40
0.0
 40
0.0
 40
0.0
 40
0.0
 40
0.4959338336
 40
0.8613244543
 40
1.0
 40
1.0
 40
1.0
 40
1.0
 10
67.5751885229
 20
-55.1688605087
 30
0.0
 10
67.5799414713
 20
-55.2513717359
 30
0.0
 10
67.5967183268
 20
-55.3966407154
 30
0.0
 10
67.5818285573
 20
-55.5573710656
 30
0.0
 10
67.615239802
 20
-55.6478277091
 30
0.0
 10
67.6039394673
 20
-55.6679869665
 30
0.0
 11
67.5751885229
 21
-55.1688605087
 31
0.0
 11
67.589447368
 21
-55.4163941903
 31
0.0
 11
67.5999528991
 21
-55.5987703046
 31
0.0
 11
67.6039394673
 21
-55.6679869665
 31
0.0
  0
SPLINE
  5
726
100
AcDbEntity
  8
RACCORDO
100
AcDbSpline
 62
253
  6
CONTINUOUS
 70
0
 71
3
 72
8
 73
4
 74
2
 42
0.0000001
 43
0.0000001
 44
0.0000000001
 12
0.159263053
 22
0.0560226844
 32
0.0
 13
0.1592748354
 23
0.0557064177
 33
0.0
 40
0.0
 40
0.0
 40
0.0
 40
0.0
 40
1.0
 40
1.0
 40
1.0
 40
1.0
 10
68.1963476342
 20
-54.7698256364
 30
0.0
 10
68.2494353185
 20
-54.7511514083
 30
0.0
 10
68.3024310858
 20
-54.7300099061
 30
0.0
 10
68.3555226976
 20
-54.7114411002
 30
0.0
 11
68.1963476342
 21
-54.7698256364
 31
0.0
 11
68.3555226976
 21
-54.7114411002
 31
0.0
  0
SPLINE
  5
727
100
AcDbEntity
  8
RACCORDO
100
AcDbSpline
 62
253
  6
CONTINUOUS
 70
0
 71
3
 72
10
 73
6
 74
4
 42
0.0000001
 43
0.0000001
 44
0.0000000001
 12
0.3123851622
 22
0.1092567969
 32
0.0
 13
0.3196684162
 23
-0.0863431004
 33
0.0
 40
0.0
 40
0.0
 40
0.0
 40
0.0
 40
0.2389359179
 40
0.7906293141
 40
1.0
 40
1.0
 40
1.0
 40
1.0
 10
68.3555226976
 20
-54.7114411002
 30
0.0
 10
68.3804027094
 20
-54.7027393092
 30
0.0
 10
68.4627993128
 20
-54.6758149504
 30
0.0
 10
68.5675748864
 20
-54.6567680562
 30
0.0
 10
68.6456627187
 20
-54.5978991329
 30
0.0
 10
68.6679724506
 20
-54.6039250376
 30
0.0
 11
68.3555226976
 21
-54.7114411002
 31
0.0
 11
68.4302452011
 21
-54.6875493688
 31
0.0
 11
68.6025732833
 21
-54.6269309041
 31
0.0
 11
68.6679724506
 21
-54.6039250376
 31
0.0
  0
LINE
  5
728
100
AcDbEntity
  8
RACCORDO
100
AcDbLine
 62
7
  6
CONTINUOUS
 10
70.650646796
 20
-52.6213094261
 11
70.4435479008
 21
-52.1213284646
  0
SPLINE
  5
729
100
AcDbEntity
  8
RACCORDO
100
AcDbSpline
 62
253
  6
CONTINUOUS
 70
0
 71
3
 72
11
 73
7
 74
5
 42
0.0000001
 43
0.0000001
 44
0.0000000001
 12
0.2388592444
 22
0.4323743996
 32
0.0
 13
0.123107296
 23
0.4696981445
 33
0.0
 40
0.0
 40
0.0
 40
0.0
 40
0.0
 40
0.3331083651
 40
0.6634672866
 40
0.9142395522
 40
1.0
 40
1.0
 40
1.0
 40
1.0
 10
68.426258312
 20
-55.0415715537
 30
0.0
 10
68.4527803161
 20
-54.9935623772
 30
0.0
 10
68.5045823557
 20
-54.8976416923
 30
0.0
 10
68.5815824576
 20
-54.7671061171
 30
0.0
 10
68.6251456603
 20
-54.6682077686
 30
0.0
 10
68.6634045948
 20
-54.6232053777
 30
0.0
 10
68.6669238404
 20
-54.6097782033
 30
0.0
 11
68.426258312
 21
-55.0415715537
 31
0.0
 11
68.5058248021
 21
-54.8975442882
 31
0.0
 11
68.5847359884
 21
-54.7547065997
 31
0.0
 11
68.6449620941
 21
-54.6464602896
 31
0.0
 11
68.6669238404
 21
-54.6097782033
 31
0.0
  0
LINE
  5
72A
100
AcDbEntity
  8
RACCORDO
100
AcDbLine
 62
7
  6
CONTINUOUS
 10
65.6213094261
 20
-57.650646796
 11
65.1213284646
 21
-57.4435479008
  0
SPLINE
  5
72B
100
AcDbEntity
  8
RACCORDO
100
AcDbSpline
 62
253
  6
CONTINUOUS
 70
0
 71
3
 72
13
 73
9
 74
7
 42
0.0000001
 43
0.0000001
 44
0.0000000001
 12
-2.7699462585
 22
-1.1514948837
 32
0.0
 13
-2.9997571139
 23
0.0000003113
 33
0.0
 40
0.0
 40
0.0
 40
0.0
 40
0.0
 40
0.0378726729
 40
0.1398648355
 40
0.2991654909
 40
0.505106769
 40
0.7440166767
 40
1.0
 40
1.0
 40
1.0
 40
1.0
 10
73.8178316817
 20
52.1662950108
 30
0.0
 10
73.7828632589
 20
52.1517582811
 30
0.0
 10
73.6366884614
 20
52.1728444296
 30
0.0
 10
73.3432513148
 20
52.1462654334
 30
0.0
 10
72.873101795
 20
52.1539058891
 30
0.0
 10
72.2701854421
 20
52.1461207934
 30
0.0
 10
71.5690046237
 20
52.1457035676
 30
0.0
 10
71.0742511947
 20
52.1448585769
 30
0.0
 10
70.8182885963
 20
52.1448586034
 30
0.0
 11
73.8178316817
 21
52.1662950108
 31
0.0
 11
73.7043597068
 21
52.1607205279
 31
0.0
 11
73.3984517705
 21
52.1555449368
 31
0.0
 11
72.9206090606
 21
52.1511117302
 31
0.0
 11
72.3028445716
 21
52.1477174105
 31
0.0
 11
71.5861760474
 21
52.1455854699
 31
0.0
 11
70.8182885963
 21
52.1448586034
 31
0.0
  0
SPLINE
  5
72C
100
AcDbEntity
  8
RACCORDO
100
AcDbSpline
 62
253
  6
CONTINUOUS
 70
0
 71
3
 72
13
 73
9
 74
7
 42
0.0000001
 43
0.0000001
 44
0.0000000001
 12
2.9997571718
 22
0.0000002541
 32
0.0
 13
2.769918923
 23
-1.1515607885
 33
0.0
 40
0.0
 40
0.0
 40
0.0
 40
0.0
 40
0.2562427051
 40
0.4952298205
 40
0.7011645857
 40
0.8603322019
 40
0.9622015664
 40
1.0
 40
1.0
 40
1.0
 40
1.0
 10
70.8182885963
 20
-52.1213284646
 30
0.0
 10
71.0745105603
 20
-52.1213284429
 30
0.0
 10
71.5696003716
 20
-52.122174803
 30
0.0
 10
72.2711117522
 20
-52.1225932456
 30
0.0
 10
72.8739651252
 20
-52.1303818293
 30
0.0
 10
73.3438513561
 20
-52.1227494604
 30
0.0
 10
73.6369637923
 20
-52.1493000546
 30
0.0
 10
73.7829321496
 20
-52.1282558073
 30
0.0
 10
73.8178316817
 20
-52.142764872
 30
0.0
 11
70.8182885963
 21
-52.1213284646
 31
0.0
 11
71.5869541434
 21
-52.1220568259
 31
0.0
 11
72.303854279
 21
-52.1241914545
 31
0.0
 11
72.9215992265
 21
-52.1275886695
 31
0.0
 11
73.3990428419
 21
-52.1320220467
 31
0.0
 11
73.7045823925
 21
-52.1371961009
 31
0.0
 11
73.8178316817
 21
-52.142764872
 31
0.0
  0
SPLINE
  5
72D
100
AcDbEntity
  8
RACCORDO
100
AcDbSpline
 62
253
  6
CONTINUOUS
 70
0
 71
3
 72
13
 73
9
 74
7
 42
0.0000001
 43
0.0000001
 44
0.0000000001
 12
-1.1514948837
 22
2.7699462585
 32
0.0
 13
0.0000003113
 23
2.9997571139
 33
0.0
 40
0.0
 40
0.0
 40
0.0
 40
0.0
 40
0.0378726729
 40
0.1398648355
 40
0.2991654909
 40
0.505106769
 40
0.7440166767
 40
1.0
 40
1.0
 40
1.0
 40
1.0
 10
65.142764872
 20
-60.8178316817
 30
0.0
 10
65.1282281423
 20
-60.7828632589
 30
0.0
 10
65.1493142907
 20
-60.6366884614
 30
0.0
 10
65.1227352945
 20
-60.3432513148
 30
0.0
 10
65.1303757503
 20
-59.873101795
 30
0.0
 10
65.1225906545
 20
-59.2701854421
 30
0.0
 10
65.1221734288
 20
-58.5690046237
 30
0.0
 10
65.121328438
 20
-58.0742511947
 30
0.0
 10
65.1213284646
 20
-57.8182885963
 30
0.0
 11
65.142764872
 21
-60.8178316817
 31
0.0
 11
65.137190389
 21
-60.7043597068
 31
0.0
 11
65.132014798
 21
-60.3984517705
 31
0.0
 11
65.1275815914
 21
-59.9206090606
 31
0.0
 11
65.1241872717
 21
-59.3028445716
 31
0.0
 11
65.122055331
 21
-58.5861760474
 31
0.0
 11
65.1213284646
 21
-57.8182885963
 31
0.0
  0
SPLINE
  5
72E
100
AcDbEntity
  8
RACCORDO
100
AcDbSpline
 62
253
  6
CONTINUOUS
 70
0
 71
3
 72
13
 73
9
 74
7
 42
0.0000001
 43
0.0000001
 44
0.0000000001
 12
0.0000002541
 22
-2.9997571718
 32
0.0
 13
-1.1515607885
 23
-2.769918923
 33
0.0
 40
0.0
 40
0.0
 40
0.0
 40
0.0
 40
0.2562427051
 40
0.4952298205
 40
0.7011645857
 40
0.8603322019
 40
0.9622015664
 40
1.0
 40
1.0
 40
1.0
 40
1.0
 10
-65.1448586034
 20
-57.8182885963
 30
0.0
 10
-65.1448585817
 20
-58.0745105603
 30
0.0
 10
-65.1457049418
 20
-58.5696003716
 30
0.0
 10
-65.1461233845
 20
-59.2711117522
 30
0.0
 10
-65.1539119682
 20
-59.8739651252
 30
0.0
 10
-65.1462795992
 20
-60.3438513561
 30
0.0
 10
-65.1728301935
 20
-60.6369637923
 30
0.0
 10
-65.1517859461
 20
-60.7829321496
 30
0.0
 10
-65.1662950108
 20
-60.8178316817
 30
0.0
 11
-65.1448586034
 21
-57.8182885963
 31
0.0
 11
-65.1455869648
 21
-58.5869541434
 31
0.0
 11
-65.1477215933
 21
-59.303854279
 31
0.0
 11
-65.1511188083
 21
-59.9215992265
 31
0.0
 11
-65.1555521856
 21
-60.3990428419
 31
0.0
 11
-65.1607262397
 21
-60.7045823925
 31
0.0
 11
-65.1662950108
 21
-60.8178316817
 31
0.0
  0
SPLINE
  5
72F
100
AcDbEntity
  8
RACCORDO
100
AcDbSpline
 62
253
  6
CONTINUOUS
 70
0
 71
3
 72
13
 73
9
 74
7
 42
0.0000001
 43
0.0000001
 44
0.0000000001
 12
2.7699462585
 22
1.1514948837
 32
0.0
 13
2.9997571139
 23
-0.0000003113
 33
0.0
 40
0.0
 40
0.0
 40
0.0
 40
0.0
 40
0.0378726729
 40
0.1398648355
 40
0.2991654909
 40
0.505106769
 40
0.7440166767
 40
1.0
 40
1.0
 40
1.0
 40
1.0
 10
-73.8413618206
 20
-52.142764872
 30
0.0
 10
-73.8063933977
 20
-52.1282281423
 30
0.0
 10
-73.6602186003
 20
-52.1493142907
 30
0.0
 10
-73.3667814536
 20
-52.1227352945
 30
0.0
 10
-72.8966319338
 20
-52.1303757503
 30
0.0
 10
-72.2937155809
 20
-52.1225906545
 30
0.0
 10
-71.5925347626
 20
-52.1221734288
 30
0.0
 10
-71.0977813335
 20
-52.121328438
 30
0.0
 10
-70.8418187351
 20
-52.1213284646
 30
0.0
 11
-73.8413618206
 21
-52.142764872
 31
0.0
 11
-73.7278898456
 21
-52.137190389
 31
0.0
 11
-73.4219819093
 21
-52.132014798
 31
0.0
 11
-72.9441391995
 21
-52.1275815914
 31
0.0
 11
-72.3263747104
 21
-52.1241872717
 31
0.0
 11
-71.6097061863
 21
-52.122055331
 31
0.0
 11
-70.8418187351
 21
-52.1213284646
 31
0.0
  0
SPLINE
  5
730
100
AcDbEntity
  8
RACCORDO
100
AcDbSpline
 62
253
  6
CONTINUOUS
 70
0
 71
3
 72
13
 73
9
 74
7
 42
0.0000001
 43
0.0000001
 44
0.0000000001
 12
-2.9997571718
 22
-0.0000002541
 32
0.0
 13
-2.769918923
 23
1.1515607885
 33
0.0
 40
0.0
 40
0.0
 40
0.0
 40
0.0
 40
0.2562427051
 40
0.4952298205
 40
0.7011645857
 40
0.8603322019
 40
0.9622015664
 40
1.0
 40
1.0
 40
1.0
 40
1.0
 10
-70.8418187351
 20
52.1448586034
 30
0.0
 10
-71.0980406992
 20
52.1448585817
 30
0.0
 10
-71.5931305104
 20
52.1457049418
 30
0.0
 10
-72.2946418911
 20
52.1461233845
 30
0.0
 10
-72.8974952641
 20
52.1539119682
 30
0.0
 10
-73.3673814949
 20
52.1462795992
 30
0.0
 10
-73.6604939312
 20
52.1728301935
 30
0.0
 10
-73.8064622884
 20
52.1517859461
 30
0.0
 10
-73.8413618206
 20
52.1662950108
 30
0.0
 11
-70.8418187351
 21
52.1448586034
 31
0.0
 11
-71.6104842823
 21
52.1455869648
 31
0.0
 11
-72.3273844178
 21
52.1477215933
 31
0.0
 11
-72.9451293653
 21
52.1511188083
 31
0.0
 11
-73.4225729807
 21
52.1555521856
 31
0.0
 11
-73.7281125314
 21
52.1607262397
 31
0.0
 11
-73.8413618206
 21
52.1662950108
 31
0.0
  0
SPLINE
  5
731
100
AcDbEntity
  8
RACCORDO
100
AcDbSpline
 62
253
  6
CONTINUOUS
 70
0
 71
3
 72
13
 73
9
 74
7
 42
0.0000001
 43
0.0000001
 44
0.0000000001
 12
1.1514948837
 22
-2.7699462585
 32
0.0
 13
-0.0000003113
 23
-2.9997571139
 33
0.0
 40
0.0
 40
0.0
 40
0.0
 40
0.0
 40
0.0378726729
 40
0.1398648355
 40
0.2991654909
 40
0.505106769
 40
0.7440166767
 40
1.0
 40
1.0
 40
1.0
 40
1.0
 10
-65.1662950108
 20
60.8413618206
 30
0.0
 10
-65.1517582811
 20
60.8063933977
 30
0.0
 10
-65.1728444296
 20
60.6602186003
 30
0.0
 10
-65.1462654334
 20
60.3667814536
 30
0.0
 10
-65.1539058891
 20
59.8966319338
 30
0.0
 10
-65.1461207934
 20
59.2937155809
 30
0.0
 10
-65.1457035676
 20
58.5925347626
 30
0.0
 10
-65.1448585769
 20
58.0977813335
 30
0.0
 10
-65.1448586034
 20
57.8418187351
 30
0.0
 11
-65.1662950108
 21
60.8413618206
 31
0.0
 11
-65.1607205279
 21
60.7278898456
 31
0.0
 11
-65.1555449368
 21
60.4219819093
 31
0.0
 11
-65.1511117302
 21
59.9441391995
 31
0.0
 11
-65.1477174105
 21
59.3263747104
 31
0.0
 11
-65.1455854699
 21
58.6097061863
 31
0.0
 11
-65.1448586034
 21
57.8418187351
 31
0.0
  0
SPLINE
  5
732
100
AcDbEntity
  8
RACCORDO
100
AcDbSpline
 62
253
  6
CONTINUOUS
 70
0
 71
3
 72
13
 73
9
 74
7
 42
0.0000001
 43
0.0000001
 44
0.0000000001
 12
-0.0000002541
 22
2.9997571718
 32
0.0
 13
1.1515607885
 23
2.769918923
 33
0.0
 40
0.0
 40
0.0
 40
0.0
 40
0.0
 40
0.2562427051
 40
0.4952298205
 40
0.7011645857
 40
0.8603322019
 40
0.9622015664
 40
1.0
 40
1.0
 40
1.0
 40
1.0
 10
65.1213284646
 20
57.8418187351
 30
0.0
 10
65.1213284429
 20
58.0980406992
 30
0.0
 10
65.122174803
 20
58.5931305104
 30
0.0
 10
65.1225932456
 20
59.2946418911
 30
0.0
 10
65.1303818293
 20
59.8974952641
 30
0.0
 10
65.1227494604
 20
60.3673814949
 30
0.0
 10
65.1493000546
 20
60.6604939312
 30
0.0
 10
65.1282558073
 20
60.8064622884
 30
0.0
 10
65.142764872
 20
60.8413618206
 30
0.0
 11
65.1213284646
 21
57.8418187351
 31
0.0
 11
65.1220568259
 21
58.6104842823
 31
0.0
 11
65.1241914545
 21
59.3273844178
 31
0.0
 11
65.1275886695
 21
59.9451293653
 31
0.0
 11
65.1320220467
 21
60.4225729807
 31
0.0
 11
65.1371961009
 21
60.7281125314
 31
0.0
 11
65.142764872
 21
60.8413618206
 31
0.0
  0
SPLINE
  5
733
100
AcDbEntity
  8
RACCORDO
100
AcDbSpline
 62
253
  6
CONTINUOUS
 70
0
 71
3
 72
10
 73
6
 74
4
 42
0.0000001
 43
0.0000001
 44
0.0000000001
 12
0.4991264253
 22
0.0287515071
 32
0.0
 13
0.4361098552
 23
-0.2444627412
 33
0.0
 40
0.0
 40
0.0
 40
0.0
 40
0.0
 40
0.4959338336
 40
0.8613244543
 40
1.0
 40
1.0
 40
1.0
 40
1.0
 10
68.1688605087
 20
54.5987186617
 30
0.0
 10
68.2513717359
 20
54.6034716101
 30
0.0
 10
68.3966407154
 20
54.6202484656
 30
0.0
 10
68.5573710656
 20
54.6053586961
 30
0.0
 10
68.6478277091
 20
54.6387699408
 30
0.0
 10
68.6679869665
 20
54.6274696061
 30
0.0
 11
68.1688605087
 21
54.5987186617
 31
0.0
 11
68.4163941903
 21
54.6129775069
 31
0.0
 11
68.5987703046
 21
54.6234830379
 31
0.0
 11
68.6679869665
 21
54.6274696061
 31
0.0
  0
SPLINE
  5
734
100
AcDbEntity
  8
RACCORDO
100
AcDbSpline
 62
253
  6
CONTINUOUS
 70
0
 71
3
 72
8
 73
4
 74
2
 42
0.0000001
 43
0.0000001
 44
0.0000000001
 12
-0.0560226844
 22
0.159263053
 32
0.0
 13
-0.0557064177
 23
0.1592748354
 33
0.0
 40
0.0
 40
0.0
 40
0.0
 40
0.0
 40
1.0
 40
1.0
 40
1.0
 40
1.0
 10
67.7698256364
 20
55.219877773
 30
0.0
 10
67.7511514083
 20
55.2729654573
 30
0.0
 10
67.7300099061
 20
55.3259612247
 30
0.0
 10
67.7114411002
 20
55.3790528365
 30
0.0
 11
67.7698256364
 21
55.219877773
 31
0.0
 11
67.7114411002
 21
55.3790528365
 31
0.0
  0
SPLINE
  5
735
100
AcDbEntity
  8
RACCORDO
100
AcDbSpline
 62
253
  6
CONTINUOUS
 70
0
 71
3
 72
10
 73
6
 74
4
 42
0.0000001
 43
0.0000001
 44
0.0000000001
 12
-0.1092567969
 22
0.3123851622
 32
0.0
 13
0.0863431005
 23
0.3196684162
 33
0.0
 40
0.0
 40
0.0
 40
0.0
 40
0.0
 40
0.2389359179
 40
0.7906293141
 40
1.0
 40
1.0
 40
1.0
 40
1.0
 10
67.7114411002
 20
55.3790528365
 30
0.0
 10
67.7027393092
 20
55.4039328483
 30
0.0
 10
67.6758149504
 20
55.4863294517
 30
0.0
 10
67.6567680562
 20
55.5911050252
 30
0.0
 10
67.5978991329
 20
55.6691928575
 30
0.0
 10
67.6039250376
 20
55.6915025894
 30
0.0
 11
67.7114411002
 21
55.3790528365
 31
0.0
 11
67.6875493688
 21
55.45377534
 31
0.0
 11
67.6269309041
 21
55.6261034222
 31
0.0
 11
67.6039250376
 21
55.6915025894
 31
0.0
  0
SPLINE
  5
736
100
AcDbEntity
  8
RACCORDO
100
AcDbSpline
 62
253
  6
CONTINUOUS
 70
0
 71
3
 72
13
 73
9
 74
7
 42
0.0000001
 43
0.0000001
 44
0.0000000001
 12
1.1138511033
 22
-2.2380161706
 32
0.0
 13
-0.0000005852
 23
-2.499876129
 33
0.0
 40
0.0
 40
0.0
 40
0.0
 40
0.0
 40
0.0377795161
 40
0.1396718696
 40
0.2992587705
 40
0.5055421472
 40
0.7443497138
 40
1.0
 40
1.0
 40
1.0
 40
1.0
 10
-65.6662759723
 20
60.341437973
 30
0.0
 10
-65.6522490538
 20
60.3132542503
 30
0.0
 10
-65.672205091
 20
60.1896949966
 30
0.0
 10
-65.6465894543
 20
59.9468133157
 30
0.0
 10
-65.653744445
 20
59.5536653751
 30
0.0
 10
-65.6461500516
 20
59.0511449333
 30
0.0
 10
-65.6456660222
 20
58.4667646122
 30
0.0
 10
-65.6448395151
 20
58.0548500844
 30
0.0
 10
-65.644839565
 20
57.8418187351
 30
0.0
 11
-65.6662759723
 21
60.341437973
 31
0.0
 11
-65.6607100162
 21
60.2471580168
 31
0.0
 11
-65.6555339006
 21
59.9924923519
 31
0.0
 11
-65.6510911569
 21
59.5935696061
 31
0.0
 11
-65.6476932374
 21
59.0778979117
 31
0.0
 11
-65.6455645337
 21
58.4809123718
 31
0.0
 11
-65.644839565
 21
57.8418187351
 31
0.0
  0
SPLINE
  5
737
100
AcDbEntity
  8
RACCORDO
100
AcDbSpline
 62
7
  6
CONTINUOUS
 70
0
 71
3
 72
10
 73
6
 74
4
 42
0.0000001
 43
0.0000001
 44
0.0000000001
 12
0.0668938326
 22
-0.6621806763
 32
0.0
 13
-0.0931000691
 23
-0.6590071396
 33
0.0
 40
0.0
 40
0.0
 40
0.0
 40
0.0
 40
0.3169430255
 40
0.6462412972
 40
1.0
 40
1.0
 40
1.0
 40
1.0
 10
-67.6236490366
 20
56.3556998442
 30
0.0
 10
-67.6165818587
 20
56.2857419952
 30
0.0
 10
-67.6059578078
 20
56.1426672574
 30
0.0
 10
-67.6042437466
 20
55.9206528901
 30
0.0
 10
-67.6164824739
 20
55.7692655429
 30
0.0
 10
-67.6274607938
 20
55.691555706
 30
0.0
 11
-67.6236490366
 21
56.3556998442
 31
0.0
 11
-67.6084499133
 21
56.1453064094
 31
0.0
 11
-67.6074022553
 21
55.9261441444
 31
0.0
 11
-67.6274607938
 21
55.691555706
 31
0.0
  0
SPLINE
  5
738
100
AcDbEntity
  8
RACCORDO
100
AcDbSpline
 62
7
  6
CONTINUOUS
 70
0
 71
3
 72
10
 73
6
 74
4
 42
0.0000001
 43
0.0000001
 44
0.0000000001
 12
0.5821697514
 22
-0.0588110878
 32
0.0
 13
0.5823734461
 23
0.0591269662
 33
0.0
 40
0.0
 40
0.0
 40
0.0
 40
0.0
 40
0.3605023217
 40
0.7350579417
 40
1.0
 40
1.0
 40
1.0
 40
1.0
 10
-69.3556998442
 20
54.6236490366
 30
0.0
 10
-69.2857419952
 20
54.6165818587
 30
0.0
 10
-69.1426672574
 20
54.6059578078
 30
0.0
 10
-68.9474787633
 20
54.6044508557
 30
0.0
 10
-68.8228330803
 20
54.612572141
 30
0.0
 10
-68.7714013404
 20
54.6177938811
 30
0.0
 11
-69.3556998442
 21
54.6236490366
 31
0.0
 11
-69.1453064094
 21
54.6084499133
 31
0.0
 11
-68.9261441444
 21
54.6074022553
 31
0.0
 11
-68.7714013404
 21
54.6177938811
 31
0.0
  0
SPLINE
  5
739
100
AcDbEntity
  8
RACCORDO
100
AcDbSpline
 62
253
  6
CONTINUOUS
 70
0
 71
3
 72
13
 73
9
 74
7
 42
0.0000001
 43
0.0000001
 44
0.0000000001
 12
-2.499876197
 22
-0.0000005411
 32
0.0
 13
-2.2379557742
 23
1.1139725998
 33
0.0
 40
0.0
 40
0.0
 40
0.0
 40
0.0
 40
0.2559055395
 40
0.4947937972
 40
0.7010739251
 40
0.8605250695
 40
0.9622934341
 40
1.0
 40
1.0
 40
1.0
 40
1.0
 10
-70.8418187351
 20
52.644839565
 30
0.0
 10
-71.0550627907
 20
52.6448395188
 30
0.0
 10
-71.4672570428
 20
52.6456673798
 30
0.0
 10
-72.0519152365
 20
52.6461525719
 30
0.0
 10
-72.5543861896
 20
52.6537507453
 30
0.0
 10
-72.9473142128
 20
52.6466030511
 30
0.0
 10
-73.1899241171
 20
52.6721923957
 30
0.0
 10
-73.3133094307
 20
52.6522746119
 30
0.0
 10
-73.341437973
 20
52.6662759723
 30
0.0
 11
-70.8418187351
 21
52.644839565
 31
0.0
 11
-71.4815504896
 21
52.6455660037
 31
0.0
 11
-72.0787377551
 21
52.6476974084
 31
0.0
 11
-72.5944013223
 21
52.651098288
 31
0.0
 11
-72.9929846819
 21
52.6555411543
 31
0.0
 11
-73.2473403659
 21
52.6607156478
 31
0.0
 11
-73.341437973
 21
52.6662759723
 31
0.0
  0
ELLIPSE
  5
73A
100
AcDbEntity
  8
RACCORDO
100
AcDbEllipse
 62
7
  6
CONTINUOUS
 10
-74.6783733293
 20
-46.7731079713
 30
0.0
 11
0.0
 21
1.5
 31
0.0
 40
0.0174550649
 41
-4.7123889804
 42
-3.1590459461
  0
ELLIPSE
  5
73B
100
AcDbEntity
  8
RACCORDO
100
AcDbEllipse
 62
7
  6
CONTINUOUS
 10
-74.6783733293
 20
-19.8033618898
 30
0.0
 11
-0.0
 21
1.5
 31
0.0
 40
0.0174550649
 41
0.0174532925
 42
1.5707963268
  0
ELLIPSE
  5
73C
100
AcDbEntity
  8
RACCORDO
100
AcDbEllipse
 62
7
  6
CONTINUOUS
 10
-74.6783733293
 20
-13.4731079713
 30
0.0
 11
-0.0
 21
1.5
 31
0.0
 40
0.0174550649
 41
-4.7123889804
 42
-3.1590459461
  0
ELLIPSE
  5
73D
100
AcDbEntity
  8
RACCORDO
100
AcDbEllipse
 62
7
  6
CONTINUOUS
 10
-74.6783733293
 20
13.4966381102
 30
0.0
 11
-0.0
 21
1.5
 31
0.0
 40
0.0174550649
 41
0.0174532925
 42
1.5707963268
  0
ELLIPSE
  5
73E
100
AcDbEntity
  8
RACCORDO
100
AcDbEllipse
 62
7
  6
CONTINUOUS
 10
-74.6783733293
 20
19.8268920287
 30
0.0
 11
-0.0
 21
1.5
 31
0.0
 40
0.0174550649
 41
1.5707963268
 42
3.1241393611
  0
ELLIPSE
  5
73F
100
AcDbEntity
  8
RACCORDO
100
AcDbEllipse
 62
7
  6
CONTINUOUS
 10
-74.6783733293
 20
46.7966381102
 30
0.0
 11
-0.0
 21
1.5
 31
0.0
 40
0.0174550649
 41
0.0174532925
 42
1.5707963268
  0
ELLIPSE
  5
740
100
AcDbEntity
  8
RACCORDO
100
AcDbEllipse
 62
7
  6
CONTINUOUS
 10
24.1533618898
 20
61.6783733293
 30
0.0
 11
1.5
 21
-0.0
 31
0.0
 40
0.0174550649
 41
1.5707963268
 42
3.1241393611
  0
ELLIPSE
  5
741
100
AcDbEntity
  8
RACCORDO
100
AcDbEllipse
 62
7
  6
CONTINUOUS
 10
59.8231079713
 20
61.6783733293
 30
0.0
 11
1.5
 21
-0.0
 31
0.0
 40
0.0174550649
 41
0.0174532925
 42
1.5707963268
  0
ELLIPSE
  5
742
100
AcDbEntity
  8
RACCORDO
100
AcDbEllipse
 62
7
  6
CONTINUOUS
 10
-17.8466381102
 20
61.6783733293
 30
0.0
 11
1.5
 21
0.0
 31
0.0
 40
0.0174550649
 41
1.5707963268
 42
3.1241393611
  0
ELLIPSE
  5
743
100
AcDbEntity
  8
RACCORDO
100
AcDbEllipse
 62
7
  6
CONTINUOUS
 10
17.8231079713
 20
61.6783733293
 30
0.0
 11
1.5
 21
-0.0
 31
0.0
 40
0.0174550649
 41
0.0174532925
 42
1.5707963268
  0
ELLIPSE
  5
744
100
AcDbEntity
  8
RACCORDO
100
AcDbEllipse
 62
7
  6
CONTINUOUS
 10
-59.8466381102
 20
61.6783733293
 30
0.0
 11
1.5
 21
0.0
 31
0.0
 40
0.0174550649
 41
1.5707963268
 42
3.1241393611
  0
ELLIPSE
  5
745
100
AcDbEntity
  8
RACCORDO
100
AcDbEllipse
 62
7
  6
CONTINUOUS
 10
-24.1768920287
 20
61.6783733293
 30
0.0
 11
1.5
 21
-0.0
 31
0.0
 40
0.0174550649
 41
0.0174532925
 42
1.5707963268
  0
ELLIPSE
  5
746
100
AcDbEntity
  8
RACCORDO
100
AcDbEllipse
 62
7
  6
CONTINUOUS
 10
59.8231079713
 20
-61.6548431905
 30
0.0
 11
1.5
 21
-0.0
 31
0.0
 40
0.0174550649
 41
-1.5707963268
 42
-0.0174532925
  0
ELLIPSE
  5
747
100
AcDbEntity
  8
RACCORDO
100
AcDbEllipse
 62
7
  6
CONTINUOUS
 10
24.1533618898
 20
-61.6548431905
 30
0.0
 11
1.5
 21
0.0
 31
0.0
 40
0.0174550649
 41
-3.1241393611
 42
-1.5707963268
  0
ELLIPSE
  5
748
100
AcDbEntity
  8
RACCORDO
100
AcDbEllipse
 62
7
  6
CONTINUOUS
 10
17.8231079713
 20
-61.6548431905
 30
0.0
 11
1.5
 21
-0.0
 31
0.0
 40
0.0174550649
 41
-1.5707963268
 42
-0.0174532925
  0
ELLIPSE
  5
749
100
AcDbEntity
  8
RACCORDO
100
AcDbEllipse
 62
7
  6
CONTINUOUS
 10
-17.8466381102
 20
-61.6548431905
 30
0.0
 11
1.5
 21
-0.0
 31
0.0
 40
0.0174550649
 41
-3.1241393611
 42
-1.5707963268
  0
ELLIPSE
  5
74A
100
AcDbEntity
  8
RACCORDO
100
AcDbEllipse
 62
7
  6
CONTINUOUS
 10
-24.1768920287
 20
-61.6548431905
 30
0.0
 11
1.5
 21
-0.0
 31
0.0
 40
0.0174550649
 41
-1.5707963268
 42
-0.0174532925
  0
ELLIPSE
  5
74B
100
AcDbEntity
  8
RACCORDO
100
AcDbEllipse
 62
7
  6
CONTINUOUS
 10
-59.8466381102
 20
-61.6548431905
 30
0.0
 11
1.5
 21
0.0
 31
0.0
 40
0.0174550649
 41
-3.1241393611
 42
-1.5707963268
  0
ELLIPSE
  5
74C
100
AcDbEntity
  8
RACCORDO
100
AcDbEllipse
 62
7
  6
CONTINUOUS
 10
74.6548431905
 20
-19.8033618898
 30
0.0
 11
0.0
 21
1.5
 31
0.0
 40
0.0174550649
 41
-1.5707963268
 42
-0.0174532925
  0
ELLIPSE
  5
74D
100
AcDbEntity
  8
RACCORDO
100
AcDbEllipse
 62
7
  6
CONTINUOUS
 10
74.6548431905
 20
-46.7731079713
 30
0.0
 11
0.0
 21
1.5
 31
0.0
 40
0.0174550649
 41
-3.1241393611
 42
-1.5707963268
  0
ELLIPSE
  5
74E
100
AcDbEntity
  8
RACCORDO
100
AcDbEllipse
 62
7
  6
CONTINUOUS
 10
74.6548431905
 20
13.4966381102
 30
0.0
 11
-0.0
 21
1.5
 31
0.0
 40
0.0174550649
 41
-1.5707963268
 42
-0.0174532925
  0
ELLIPSE
  5
74F
100
AcDbEntity
  8
RACCORDO
100
AcDbEllipse
 62
7
  6
CONTINUOUS
 10
74.6548431905
 20
-13.4731079713
 30
0.0
 11
0.0
 21
1.5
 31
0.0
 40
0.0174550649
 41
-3.1241393611
 42
-1.5707963268
  0
ELLIPSE
  5
750
100
AcDbEntity
  8
RACCORDO
100
AcDbEllipse
 62
7
  6
CONTINUOUS
 10
74.6548431905
 20
46.7966381102
 30
0.0
 11
0.0
 21
1.5
 31
0.0
 40
0.0174550649
 41
-1.5707963268
 42
-0.0174532925
  0
ELLIPSE
  5
751
100
AcDbEntity
  8
RACCORDO
100
AcDbEllipse
 62
7
  6
CONTINUOUS
 10
74.6548431905
 20
19.8268920287
 30
0.0
 11
-0.0
 21
1.5
 31
0.0
 40
0.0174550649
 41
-3.1241393611
 42
-1.5707963268
  0
ELLIPSE
  5
752
100
AcDbEntity
  8
RACCORDO
100
AcDbEllipse
 62
7
  6
CONTINUOUS
 10
70.8182885963
 20
17.4905659266
 30
0.0
 11
3.0
 21
-0.0
 31
0.0
 40
0.0174550649
 41
-0.5823642379
 42
-0.0174532925
  0
ELLIPSE
  5
753
100
AcDbEntity
  8
RACCORDO
100
AcDbEllipse
 62
7
  6
CONTINUOUS
 10
-70.8418187351
 20
17.4905659266
 30
0.0
 11
3.0
 21
0.0
 31
0.0
 40
0.0174550649
 41
-3.1241393611
 42
-2.5592284157
  0
ELLIPSE
  5
754
100
AcDbEntity
  8
RACCORDO
100
AcDbEllipse
 62
7
  6
CONTINUOUS
 10
70.8182885963
 20
49.1329642123
 30
0.0
 11
3.0
 21
-0.0
 31
0.0
 40
0.0174550649
 41
0.0174532925
 42
0.5823642379
  0
ELLIPSE
  5
755
100
AcDbEntity
  8
RACCORDO
100
AcDbEllipse
 62
7
  6
CONTINUOUS
 10
-70.8418187351
 20
49.1329642123
 30
0.0
 11
3.0
 21
-0.0
 31
0.0
 40
0.0174550649
 41
2.5592284157
 42
3.1241393611
  0
ELLIPSE
  5
756
100
AcDbEntity
  8
RACCORDO
100
AcDbEllipse
 62
7
  6
CONTINUOUS
 10
70.8182885963
 20
-15.8094340734
 30
0.0
 11
3.0
 21
0.0
 31
0.0
 40
0.0174550649
 41
-0.5823642379
 42
-0.0174532925
  0
ELLIPSE
  5
757
100
AcDbEntity
  8
RACCORDO
100
AcDbEllipse
 62
7
  6
CONTINUOUS
 10
-70.8418187351
 20
-15.8094340734
 30
0.0
 11
3.0
 21
0.0
 31
0.0
 40
0.0174550649
 41
-3.1241393611
 42
-2.5592284157
  0
ELLIPSE
  5
758
100
AcDbEntity
  8
RACCORDO
100
AcDbEllipse
 62
7
  6
CONTINUOUS
 10
70.8182885963
 20
15.8329642123
 30
0.0
 11
3.0
 21
0.0
 31
0.0
 40
0.0174550649
 41
0.0174532925
 42
0.5823642379
  0
ELLIPSE
  5
759
100
AcDbEntity
  8
RACCORDO
100
AcDbEllipse
 62
7
  6
CONTINUOUS
 10
-70.8418187351
 20
15.8329642123
 30
0.0
 11
3.0
 21
0.0
 31
0.0
 40
0.0174550649
 41
2.5592284157
 42
3.1241393611
  0
ELLIPSE
  5
75A
100
AcDbEntity
  8
RACCORDO
100
AcDbEllipse
 62
7
  6
CONTINUOUS
 10
70.8182885963
 20
-49.1094340734
 30
0.0
 11
3.0
 21
0.0
 31
0.0
 40
0.0174550649
 41
-0.5823642379
 42
-0.0174532925
  0
ELLIPSE
  5
75B
100
AcDbEntity
  8
RACCORDO
100
AcDbEllipse
 62
7
  6
CONTINUOUS
 10
-70.8418187351
 20
-49.1094340734
 30
0.0
 11
3.0
 21
0.0
 31
0.0
 40
0.0174550649
 41
-3.1241393611
 42
-2.5592284157
  0
ELLIPSE
  5
75C
100
AcDbEntity
  8
RACCORDO
100
AcDbEllipse
 62
7
  6
CONTINUOUS
 10
70.8182885963
 20
-17.4670357877
 30
0.0
 11
3.0
 21
0.0
 31
0.0
 40
0.0174550649
 41
0.0174532925
 42
0.5823642379
  0
ELLIPSE
  5
75D
100
AcDbEntity
  8
RACCORDO
100
AcDbEllipse
 62
7
  6
CONTINUOUS
 10
-70.8418187351
 20
-17.4670357877
 30
0.0
 11
3.0
 21
0.0
 31
0.0
 40
0.0174550649
 41
2.5592284157
 42
3.1241393611
  0
ELLIPSE
  5
75E
100
AcDbEntity
  8
RACCORDO
100
AcDbEllipse
 62
7
  6
CONTINUOUS
 10
21.8170357877
 20
-57.8182885963
 30
0.0
 11
-0.0
 21
3.0
 31
0.0
 40
0.0174550649
 41
-3.7239568915
 42
-3.1590459461
  0
ELLIPSE
  5
75F
100
AcDbEntity
  8
RACCORDO
100
AcDbEllipse
 62
7
  6
CONTINUOUS
 10
21.8170357877
 20
57.8418187351
 30
0.0
 11
-0.0
 21
3.0
 31
0.0
 40
0.0174550649
 41
0.0174532925
 42
0.5823642379
  0
ELLIPSE
  5
760
100
AcDbEntity
  8
RACCORDO
100
AcDbEllipse
 62
7
  6
CONTINUOUS
 10
62.1594340734
 20
-57.8182885963
 30
0.0
 11
-0.0
 21
3.0
 31
0.0
 40
0.0174550649
 41
-3.1241393611
 42
-2.5592284157
  0
ELLIPSE
  5
761
100
AcDbEntity
  8
RACCORDO
100
AcDbEllipse
 62
7
  6
CONTINUOUS
 10
62.1594340734
 20
57.8418187351
 30
0.0
 11
0.0
 21
3.0
 31
0.0
 40
0.0174550649
 41
-0.5823642379
 42
-0.0174532925
  0
ELLIPSE
  5
762
100
AcDbEntity
  8
RACCORDO
100
AcDbEllipse
 62
7
  6
CONTINUOUS
 10
-20.1829642123
 20
-57.8182885963
 30
0.0
 11
-0.0
 21
3.0
 31
0.0
 40
0.0174550649
 41
-3.7239568915
 42
-3.1590459461
  0
ELLIPSE
  5
763
100
AcDbEntity
  8
RACCORDO
100
AcDbEllipse
 62
7
  6
CONTINUOUS
 10
-20.1829642123
 20
57.8418187351
 30
0.0
 11
-0.0
 21
3.0
 31
0.0
 40
0.0174550649
 41
0.0174532925
 42
0.5823642379
  0
ELLIPSE
  5
764
100
AcDbEntity
  8
RACCORDO
100
AcDbEllipse
 62
7
  6
CONTINUOUS
 10
20.1594340734
 20
-57.8182885963
 30
0.0
 11
-0.0
 21
3.0
 31
0.0
 40
0.0174550649
 41
-3.1241393611
 42
-2.5592284157
  0
ELLIPSE
  5
765
100
AcDbEntity
  8
RACCORDO
100
AcDbEllipse
 62
7
  6
CONTINUOUS
 10
20.1594340734
 20
57.8418187351
 30
0.0
 11
-0.0
 21
3.0
 31
0.0
 40
0.0174550649
 41
-0.5823642379
 42
-0.0174532925
  0
ELLIPSE
  5
766
100
AcDbEntity
  8
RACCORDO
100
AcDbEllipse
 62
7
  6
CONTINUOUS
 10
-62.1829642123
 20
-57.8182885963
 30
0.0
 11
0.0
 21
3.0
 31
0.0
 40
0.0174550649
 41
-3.7239568915
 42
-3.1590459461
  0
ELLIPSE
  5
767
100
AcDbEntity
  8
RACCORDO
100
AcDbEllipse
 62
7
  6
CONTINUOUS
 10
-62.1829642123
 20
57.8418187351
 30
0.0
 11
-0.0
 21
3.0
 31
0.0
 40
0.0174550649
 41
0.0174532925
 42
0.5823642379
  0
ELLIPSE
  5
768
100
AcDbEntity
  8
RACCORDO
100
AcDbEllipse
 62
7
  6
CONTINUOUS
 10
-21.8405659266
 20
-57.8182885963
 30
0.0
 11
0.0
 21
3.0
 31
0.0
 40
0.0174550649
 41
-3.1241393611
 42
-2.5592284157
  0
ELLIPSE
  5
769
100
AcDbEntity
  8
RACCORDO
100
AcDbEllipse
 62
7
  6
CONTINUOUS
 10
-21.8405659266
 20
57.8418187351
 30
0.0
 11
-0.0
 21
3.0
 31
0.0
 40
0.0174550649
 41
-0.5823642379
 42
-0.0174532925
  0
ELLIPSE
  5
76A
100
AcDbEntity
  8
RACCORDO
100
AcDbEllipse
 62
7
  6
CONTINUOUS
 10
-63.8255884005
 20
57.8418187351
 30
0.0
 11
-0.0
 21
3.0
 31
0.0
 40
0.0083777764
 41
-0.5823642379
 42
-0.0174532925
  0
ELLIPSE
  5
76B
100
AcDbEntity
  8
RACCORDO
100
AcDbEllipse
 62
7
  6
CONTINUOUS
 10
-70.8418187351
 20
50.7755884005
 30
0.0
 11
3.0
 21
0.0
 31
0.0
 40
0.0083777764
 41
-3.1241393611
 42
-2.5592284157
  0
ELLIPSE
  5
76C
100
AcDbEntity
  8
RACCORDO
100
AcDbEllipse
 62
7
  6
CONTINUOUS
 10
-70.8418187351
 20
-50.7520582616
 30
0.0
 11
3.0
 21
-0.0
 31
0.0
 40
0.0083777764
 41
2.5592284157
 42
3.1241393611
  0
ELLIPSE
  5
76D
100
AcDbEntity
  8
RACCORDO
100
AcDbEllipse
 62
7
  6
CONTINUOUS
 10
-63.8255884005
 20
-57.8182885963
 30
0.0
 11
0.0
 21
3.0
 31
0.0
 40
0.0083777764
 41
-3.1241393611
 42
-2.5592284157
  0
ELLIPSE
  5
76E
100
AcDbEntity
  8
RACCORDO
100
AcDbEllipse
 62
7
  6
CONTINUOUS
 10
70.8182885963
 20
50.7755884005
 30
0.0
 11
3.0
 21
-0.0
 31
0.0
 40
0.0083777764
 41
-0.5823642379
 42
-0.0174532925
  0
ELLIPSE
  5
76F
100
AcDbEntity
  8
RACCORDO
100
AcDbEllipse
 62
7
  6
CONTINUOUS
 10
63.8020582616
 20
57.8418187351
 30
0.0
 11
-0.0
 21
3.0
 31
0.0
 40
0.0083777764
 41
0.0174532925
 42
0.5823642379
  0
ELLIPSE
  5
770
100
AcDbEntity
  8
RACCORDO
100
AcDbEllipse
 62
7
  6
CONTINUOUS
 10
70.8182885963
 20
-50.7520582616
 30
0.0
 11
3.0
 21
0.0
 31
0.0
 40
0.0083777764
 41
0.0174532925
 42
0.5823642379
  0
ELLIPSE
  5
771
100
AcDbEntity
  8
RACCORDO
100
AcDbEllipse
 62
7
  6
CONTINUOUS
 10
63.8020582616
 20
-57.8182885963
 30
0.0
 11
-0.0
 21
3.0
 31
0.0
 40
0.0083777764
 41
-3.7239568915
 42
-3.1590459461
  0
ELLIPSE
  5
772
100
AcDbEntity
  8
RACCORDO
100
AcDbEllipse
 62
7
  6
CONTINUOUS
 10
73.3186694164
 20
52.1666757729
 30
0.0
 11
0.4473055583
 21
0.2236357461
 31
0.0
 40
0.9998096356
 41
-0.4635409999
 42
1.1071030278
  0
ELLIPSE
  5
773
100
AcDbEntity
  8
RACCORDO
100
AcDbEllipse
 62
7
  6
CONTINUOUS
 10
-65.1666757729
 20
-60.3186694164
 30
0.0
 11
0.2236357461
 21
0.4473055582
 31
0.0
 40
0.9998096356
 41
-4.2486956813
 42
-2.6780516535
  0
ELLIPSE
  5
774
100
AcDbEntity
  8
RACCORDO
100
AcDbEllipse
 62
7
  6
CONTINUOUS
 10
-73.3421995552
 20
-52.1431456341
 30
0.0
 11
0.4473055583
 21
0.2236357461
 31
0.0
 40
0.9998096356
 41
2.6780516536
 42
4.2486956813
  0
ELLIPSE
  5
775
100
AcDbEntity
  8
RACCORDO
100
AcDbEllipse
 62
7
  6
CONTINUOUS
 10
-65.1666757729
 20
60.3421995552
 30
0.0
 11
-0.2236357461
 21
0.4473055582
 31
0.0
 40
0.9998096356
 41
-0.4635410001
 42
1.1071030277
  0
ELLIPSE
  5
776
100
AcDbEntity
  8
RACCORDO
100
AcDbEllipse
 62
7
  6
CONTINUOUS
 10
-73.3421995552
 20
52.1666757729
 30
0.0
 11
0.4473055582
 21
-0.2236357461
 31
0.0
 40
0.9998096356
 41
2.0344896259
 42
3.6051336537
  0
ELLIPSE
  5
777
100
AcDbEntity
  8
RACCORDO
100
AcDbEllipse
 62
7
  6
CONTINUOUS
 10
73.3186694164
 20
-52.1431456341
 30
0.0
 11
0.4473055582
 21
-0.2236357462
 31
0.0
 40
0.9998096356
 41
-1.1071030276
 42
0.4635410001
  0
ELLIPSE
  5
778
100
AcDbEntity
  8
RACCORDO
100
AcDbEllipse
 62
7
  6
CONTINUOUS
 10
65.1431456341
 20
-60.3186694164
 30
0.0
 11
-0.2236357461
 21
0.4473055582
 31
0.0
 40
0.9998096356
 41
-3.6051336537
 42
-2.0344896259
  0
ELLIPSE
  5
779
100
AcDbEntity
  8
RACCORDO
100
AcDbEllipse
 62
7
  6
CONTINUOUS
 10
65.1431456341
 20
60.3421995552
 30
0.0
 11
0.2236357461
 21
0.4473055583
 31
0.0
 40
0.9998096356
 41
-1.1071030277
 42
0.463541
  0
ENDSEC
  0
SECTION
  2
OBJECTS
  0
DICTIONARY
  5
C
100
AcDbDictionary
280
0
281
1
  3
ACAD_GROUP
350
D
  3
ACAD_MLINESTYLE
350
17
  3
ACAD_LAYOUT
350
1A
  3
ACAD_PLOTSETTINGS
350
19
  3
ACAD_PLOTSTYLENAME
350
E
  0
DICTIONARY
  5
D
102
{ACAD_REACTORS
330
C
102
}
100
AcDbDictionary
280
0
281
1
  0
ACDBDICTIONARYWDFLT
  5
E
102
{ACAD_REACTORS
330
C
102
}
100
AcDbDictionary
281
1
  3
Normal
350
F
100
AcDbDictionaryWithDefault
340
F
  0
DICTIONARY
  5
17
102
{ACAD_REACTORS
330
C
102
}
100
AcDbDictionary
280
0
281
1
  3
Standard
350
18
  0
DICTIONARY
  5
19
102
{ACAD_REACTORS
330
C
102
}
100
AcDbDictionary
281
1
  0
DICTIONARY
  5
1A
102
{ACAD_REACTORS
330
C
102
}
100
AcDbDictionary
281
1
  3
Model
350
77A
  3
Layout1
350
77B
  0
ACDBPLACEHOLDER
  5
F
102
{ACAD_REACTORS
330
E
102
}
  0
MLINESTYLE
  5
18
102
{ACAD_REACTORS
330
17
102
}
100
AcDbMlineStyle
  2
STANDARD
 70
0
  3

 62
256
 51
90.0
 52
90.0
 71
2
 49
0.5
 62
256
  6
BYLAYER
 49
-0.5
 62
256
  6
BYLAYER
  0
LAYOUT
  5
77A
102
{ACAD_REACTORS
330
1A
102
}
100
AcDbPlotSettings
  1

  2
none_device
  4
ISO_A4_(297.00_x_210.00_MM)
  6

 40
0.0
 41
0.0
 42
0.0
 43
0.0
 44
297.0
 45
210.0
 46
0.0
 47
0.0
 48
0.0
 49
0.0
140
0.0
141
0.0
142
1.0
143
1.0
 70
1024
 72
1
 73
0
 74
0
  7

 75
0
147
1.0
148
0.0
149
0.0
100
AcDbLayout
  1
Model
 70
0
 71
0
 10
0.0
 20
0.0
 11
297.0
 21
210.0
 12
0.0
 22
0.0
 32
0.0
 14
0.0
 24
0.0
 34
0.0
 15
0.0
 25
0.0
 35
0.0
146
0.0
 13
0.0
 23
0.0
 33
0.0
 16
1.0
 26
0.0
 36
0.0
 17
0.0
 27
1.0
 37
0.0
 76
0
330
214
345
0
346
0
  0
LAYOUT
  5
77B
102
{ACAD_REACTORS
330
1A
102
}
100
AcDbPlotSettings
  1

  2
none_device
  4
ISO_A4_(297.00_x_210.00_MM)
  6

 40
0.0
 41
0.0
 42
0.0
 43
0.0
 44
297.0
 45
210.0
 46
0.0
 47
0.0
 48
0.0
 49
0.0
140
0.0
141
0.0
142
1.0
143
1.0
 70
0
 72
1
 73
0
 74
0
  7

 75
0
147
1.0
148
0.0
149
0.0
100
AcDbLayout
  1
Layout1
 70
0
 71
1
 10
0.0
 20
0.0
 11
297.0
 21
210.0
 12
0.0
 22
0.0
 32
0.0
 14
0.0
 24
0.0
 34
0.0
 15
0.0
 25
0.0
 35
0.0
146
0.0
 13
0.0
 23
0.0
 33
0.0
 16
1.0
 26
0.0
 36
0.0
 17
0.0
 27
1.0
 37
0.0
 76
0
330
215
345
0
346
0
  0
ENDSEC
  0
EOF
