  0
SECTION
  2
HEADER
  9
$ACADVER
  1
AC1024
  9
$DWGCODEPAGE
  3
ANSI_1252
  9
$EXTMAX
 10
297.0
 20
210.0
 30
0.0
  9
$EXTMIN
 10
0.0
 20
0.0
 30
0.0
  9
$LIMMIN
 10
0.0
 20
0.0
  9
$LIMMAX
 10
297.0
 20
210.0
  9
$VIEWCTR
 10
148.5
 20
105.0
  9
$VIEWSIZE
 40
210.0
  9
$CLAYER
  8
0
  9
$LTSCALE
 40
16.335
  9
$CELTYPE
  6
BYLAYER
  9
$DIMSCALE
 40
1.0
  9
$DIMASZ
 40
3.0
  9
$DIMEXO
 40
0.5
  9
$DIMDLI
 40
11.286
  9
$DIMEXE
 40
1.5
  9
$DIMCEN
 40
2.673
  9
$DIMLFAC
 40
1.0
  9
$DIMBLK
  1
_FILLED
  9
$DIMALT
 70
0
  9
$DIMALTF
 40
0.0393700787
  9
$DIMTXT
 40
3.0
  9
$DIMTOL
 70
1
  9
$DIMLIM
 70
0
  9
$DIMTFAC
 40
1.0
  9
$DIMTP
 40
0.01
  9
$DIMTM
 40
0.01
  9
$DIMGAP
 40
0.625
  9
$DIMDSEP
 70
44
  9
$AUNITS
 70
0
  9
$PDMODE
 70
3
  9
$PDSIZE
 40
3.0
  9
$HANDSEED
  5
3FD
  9
$TILEMODE
 70
1
  9
$MEASUREMENT
 70
1
  9
$INSUNITS
 70
4
  0
ENDSEC
  0
SECTION
  2
CLASSES
  0
CLASS
  1
ACDBDICTIONARYWDFLT
  2
AcDbDictionaryWithDefault
  3
AutoCAD 2000
 90
0
 91
1
280
0
281
0
  0
CLASS
  1
ACDBPLACEHOLDER
  2
AcDbPlaceHolder
  3
AutoCAD 2000
 90
0
 91
1
280
0
281
0
  0
CLASS
  1
LAYOUT
  2
AcDbLayout
  3
AutoCAD 2000
 90
0
 91
0
280
0
281
0
  0
ENDSEC
  0
SECTION
  2
TABLES
  0
TABLE
  2
VPORT
  5
8
100
AcDbSymbolTable
 70
2
  0
VPORT
  5
1F4
100
AcDbSymbolTableRecord
100
AcDbViewportTableRecord
  2
*ACTIVE
 70
0
 10
0.0
 20
0.0
 11
1.0
 21
1.0
 12
148.5
 22
105.0
 13
0.0
 23
0.0
 14
1.0
 24
1.0
 15
0.0
 25
0.0
 16
0.0
 26
0.0
 36
1.0
 17
0.0
 27
0.0
 37
0.0
 40
210.0
 41
1.4142857143
 42
50.0
 43
0.0
 44
0.0
 50
0.0
 51
0.0
 71
0
 72
100
 73
1
 74
1
 75
0
 76
0
 77
0
 78
0
  0
ENDTAB
  0
TABLE
  2
LTYPE
  5
5
100
AcDbSymbolTable
 70
6
  0
LTYPE
  5
14
100
AcDbSymbolTableRecord
100
AcDbLinetypeTableRecord
  2
BYBLOCK
 70
0
  3

 72
65
 73
0
 40
0.0
  0
LTYPE
  5
15
100
AcDbSymbolTableRecord
100
AcDbLinetypeTableRecord
  2
BYLAYER
 70
0
  3

 72
65
 73
0
 40
0.0
  0
LTYPE
  5
16
100
AcDbSymbolTableRecord
100
AcDbLinetypeTableRecord
  2
CONTINUOUS
 70
64
  3
Solid line
 72
65
 73
0
 40
0.0
  0
LTYPE
  5
1F5
100
AcDbSymbolTableRecord
100
AcDbLinetypeTableRecord
  2
CENTER
 70
64
  3
____ _ ____ _ ____ _ ____ _ ____ _ ____ _ ____
 72
65
 73
4
 40
0.6
 49
0.375
 74
0
 49
-0.075
 74
0
 49
0.075
 74
0
 49
-0.075
 74
0
  0
LTYPE
  5
1F6
100
AcDbSymbolTableRecord
100
AcDbLinetypeTableRecord
  2
HIDDEN
 70
64
  3
- - - - - - - - - - - - - - - - - - - -
 72
65
 73
2
 40
0.2
 49
0.1
 74
0
 49
-0.1
 74
0
  0
LTYPE
  5
1F7
100
AcDbSymbolTableRecord
100
AcDbLinetypeTableRecord
  2
PHANTOM
 70
64
  3
_____ _ _ _____ _ _ _____ _ _ _____
 72
65
 73
6
 40
0.8
 49
0.45
 74
0
 49
-0.05
 74
0
 49
0.1
 74
0
 49
-0.05
 74
0
 49
0.1
 74
0
 49
-0.05
 74
0
  0
LTYPE
  5
1F8
100
AcDbSymbolTableRecord
100
AcDbLinetypeTableRecord
  2
DOT
 70
64
  3
. . . . . . . . . . . . . . . . . . . .
 72
65
 73
2
 40
0.2
 49
0.1
 74
0
 49
-0.1
 74
0
  0
LTYPE
  5
1F9
100
AcDbSymbolTableRecord
100
AcDbLinetypeTableRecord
  2
DASHED
 70
64
  3
- - - - - - - - - - - - - - - - - - - -
 72
65
 73
2
 40
0.2
 49
0.1
 74
0
 49
-0.1
 74
0
  0
ENDTAB
  0
TABLE
  2
LAYER
  5
2
100
AcDbSymbolTable
 70
36
  0
LAYER
  5
10
100
AcDbSymbolTableRecord
100
AcDbLayerTableRecord
  2
0
 70
0
 62
7
  6
CONTINUOUS
370
-3
390
F
  0
LAYER
  5
1FA
100
AcDbSymbolTableRecord
100
AcDbLayerTableRecord
  2
DEFAULT_1
 70
0
 62
7
  6
CENTER
370
-3
390
F
  0
LAYER
  5
1FB
100
AcDbSymbolTableRecord
100
AcDbLayerTableRecord
  2
DEFAULT_2
 70
0
 62
7
  6
HIDDEN
370
-3
390
F
  0
LAYER
  5
1FC
100
AcDbSymbolTableRecord
100
AcDbLayerTableRecord
  2
DEFAULT_3
 70
0
 62
7
  6
PHANTOM
370
-3
390
F
  0
LAYER
  5
1FD
100
AcDbSymbolTableRecord
100
AcDbLayerTableRecord
  2
ASSI
 70
0
 62
7
  6
CONTINUOUS
370
-3
390
F
  0
LAYER
  5
1FE
100
AcDbSymbolTableRecord
100
AcDbLayerTableRecord
  2
COORDINATE
 70
0
 62
7
  6
CONTINUOUS
370
-3
390
F
  0
LAYER
  5
1FF
100
AcDbSymbolTableRecord
100
AcDbLayerTableRecord
  2
COPY_PUBLISH
 70
0
 62
7
  6
CONTINUOUS
370
-3
390
F
  0
LAYER
  5
200
100
AcDbSymbolTableRecord
100
AcDbLayerTableRecord
  2
COSMETIC
 70
0
 62
7
  6
CONTINUOUS
370
-3
390
F
  0
LAYER
  5
201
100
AcDbSymbolTableRecord
100
AcDbLayerTableRecord
  2
CURVE
 70
0
 62
7
  6
CONTINUOUS
370
-3
390
F
  0
LAYER
  5
202
100
AcDbSymbolTableRecord
100
AcDbLayerTableRecord
  2
IMPORT_IGES
 70
0
 62
7
  6
CONTINUOUS
370
-3
390
F
  0
LAYER
  5
203
100
AcDbSymbolTableRecord
100
AcDbLayerTableRecord
  2
NOTE
 70
0
 62
7
  6
CONTINUOUS
370
-3
390
F
  0
LAYER
  5
204
100
AcDbSymbolTableRecord
100
AcDbLayerTableRecord
  2
PIANI
 70
0
 62
7
  6
CONTINUOUS
370
-3
390
F
  0
LAYER
  5
205
100
AcDbSymbolTableRecord
100
AcDbLayerTableRecord
  2
PUNTI
 70
0
 62
7
  6
CONTINUOUS
370
-3
390
F
  0
LAYER
  5
206
100
AcDbSymbolTableRecord
100
AcDbLayerTableRecord
  2
RACCORDO
 70
0
 62
7
  6
CONTINUOUS
370
-3
390
F
  0
LAYER
  5
207
100
AcDbSymbolTableRecord
100
AcDbLayerTableRecord
  2
SNAPLINE
 70
0
 62
7
  6
CONTINUOUS
370
-3
390
F
  0
LAYER
  5
208
100
AcDbSymbolTableRecord
100
AcDbLayerTableRecord
  2
TRASH
 70
0
 62
7
  6
CONTINUOUS
370
-3
390
F
  0
ENDTAB
  0
TABLE
  2
STYLE
  5
3
100
AcDbSymbolTable
 70
1
  0
STYLE
  5
11
100
AcDbSymbolTableRecord
100
AcDbTextStyleTableRecord
  2
STANDARD
 70
0
 40
0.0
 41
0.8
 50
0.0
 71
0
 42
0.2
  3
txt
  4

  0
STYLE
  5
209
100
AcDbSymbolTableRecord
100
AcDbTextStyleTableRecord
  2
TEXTSTYLE_1
 70
0
 40
0.0
 41
0.8
 50
0.0
 71
0
 42
0.2
  3
gdt
  4

  0
ENDTAB
  0
TABLE
  2
VIEW
  5
6
100
AcDbSymbolTable
 70
0
  0
ENDTAB
  0
TABLE
  2
UCS
  5
7
100
AcDbSymbolTable
 70
0
  0
ENDTAB
  0
TABLE
  2
APPID
  5
9
100
AcDbSymbolTable
 70
1
  0
APPID
  5
20A
100
AcDbSymbolTableRecord
100
AcDbRegAppTableRecord
  2
ACAD
 70
0
  0
ENDTAB
  0
TABLE
  2
BLOCK_RECORD
  5
1
100
AcDbSymbolTable
 70
0
  0
BLOCK_RECORD
  5
20B
100
AcDbSymbolTableRecord
100
AcDbBlockTableRecord
  2
*Model_Space
  0
BLOCK_RECORD
  5
20C
100
AcDbSymbolTableRecord
100
AcDbBlockTableRecord
  2
*Paper_Space
  0
BLOCK_RECORD
  5
20D
100
AcDbSymbolTableRecord
100
AcDbBlockTableRecord
  2
_FILLED
  0
ENDTAB
  0
TABLE
  2
DIMSTYLE
  5
A
100
AcDbSymbolTable
 70
1
100
AcDbDimStyleTable
 71
0
  0
DIMSTYLE
105
20E
100
AcDbSymbolTableRecord
100
AcDbDimStyleTableRecord
  2
STANDARD
 70
0
  3

  4

 40
1.0
 41
3.0
 42
0.5
 43
0.38
 44
1.5
 45
0.0
 46
0.0
 47
0.01
 48
0.01
140
3.0
141
0.09
142
0.0
143
25.4
144
1.0
145
0.0
146
1.0
147
0.625
 71
1.0
 72
0.0
 73
0
 74
0
 75
0
 76
0
 77
1
 78
8
 79
2
170
0
171
1
172
0
173
0
174
0
175
0
176
0
177
0
178
0
270
2
179
2
271
2
272
2
273
2
274
2
275
0
280
0
281
0
282
0
283
1
284
8
285
0
286
0
287
3
288
0
340
11
278
44
341
20D
342
20D
343
20D
344
20D
  0
ENDTAB
  0
ENDSEC
  0
SECTION
  2
BLOCKS
  0
BLOCK
  5
20
100
AcDbEntity
  8
0
100
AcDbBlockBegin
  2
*Model_Space
 70
0
 10
0.0
 20
0.0
 30
0.0
  3
*Model_Space
  1

  0
ENDBLK
  5
21
100
AcDbEntity
  8
0
100
AcDbBlockEnd
  0
BLOCK
  5
1C
100
AcDbEntity
  8
0
100
AcDbBlockBegin
  2
*Paper_Space
 70
0
 10
0.0
 20
0.0
 30
0.0
  3
*Paper_Space
  1

  0
ENDBLK
  5
1D
100
AcDbEntity
  8
0
100
AcDbBlockEnd
  0
BLOCK
  5
20F
100
AcDbEntity
  8
0
100
AcDbBlockBegin
  2
_FILLED
 70
64
 10
0.0
 20
0.0
  3
_FILLED
  1

  0
SOLID
  5
210
100
AcDbEntity
  8
0
  6
BYBLOCK
 62
0
100
AcDbTrace
 10
0.0
 20
0.0
 11
-1.0
 21
0.3166666667
 12
-1.0
 22
-0.3166666667
 13
-1.0
 23
-0.3166666667
  0
ENDBLK
  5
211
100
AcDbEntity
  8
0
  6
BYBLOCK
 62
0
100
AcDbBlockEnd
  0
ENDSEC
  0
SECTION
  2
ENTITIES
  0
LINE
  5
212
100
AcDbEntity
  8
0
100
AcDbLine
 62
7
  6
CONTINUOUS
 10
-29.5
 20
-24.5
 11
-29.5
 21
24.5
  0
LINE
  5
213
100
AcDbEntity
  8
0
100
AcDbLine
 62
7
  6
CONTINUOUS
 10
-28.0
 20
24.5
 11
-28.0
 21
-24.5
  0
LINE
  5
214
100
AcDbEntity
  8
0
100
AcDbLine
 62
7
  6
CONTINUOUS
 10
24.5
 20
-29.5
 11
-24.5
 21
-29.5
  0
LINE
  5
215
100
AcDbEntity
  8
0
100
AcDbLine
 62
7
  6
CONTINUOUS
 10
-24.5
 20
-28.0
 11
24.5
 21
-28.0
  0
LINE
  5
216
100
AcDbEntity
  8
0
100
AcDbLine
 62
7
  6
CONTINUOUS
 10
-2.6875
 20
15.4414893687
 11
-2.75
 21
15.3989361674
  0
LINE
  5
217
100
AcDbEntity
  8
0
100
AcDbLine
 62
7
  6
CONTINUOUS
 10
-2.7291667461
 20
15.2712765951
 11
-2.6458332539
 21
15.3138297871
  0
LINE
  5
218
100
AcDbEntity
  8
ASSI
100
AcDbLine
 62
7
  6
CONTINUOUS
 10
0.8285275
 20
-14.1875
 11
1.558778
 21
-14.1875
  0
LINE
  5
219
100
AcDbEntity
  8
ASSI
100
AcDbLine
 62
7
  6
CONTINUOUS
 10
1.558778
 20
-13.8125
 11
0.8285259563
 21
-13.8125
  0
LINE
  5
21A
100
AcDbEntity
  8
0
100
AcDbLine
 62
7
  6
CONTINUOUS
 10
-5.37
 20
11.5796262865
 11
-5.4566666654
 21
11.4689880018
  0
LINE
  5
21B
100
AcDbEntity
  8
0
100
AcDbLine
 62
7
  6
CONTINUOUS
 10
-4.893333354
 20
11.1923922126
 11
-5.5
 21
10.5009028752
  0
LINE
  5
21C
100
AcDbEntity
  8
0
100
AcDbLine
 62
7
  6
CONTINUOUS
 10
-5.3266666615
 20
10.5009028752
 11
-4.785
 21
11.1094134991
  0
LINE
  5
21D
100
AcDbEntity
  8
0
100
AcDbLine
 62
7
  6
CONTINUOUS
 10
-2.6458332539
 20
15.3138297871
 11
-2.5625
 21
15.3989361674
  0
LINE
  5
21E
100
AcDbEntity
  8
0
100
AcDbLine
 62
7
  6
CONTINUOUS
 10
-5.3266666615
 20
11.4413284306
 11
-5.2616666615
 21
11.496647573
  0
LINE
  5
21F
100
AcDbEntity
  8
0
100
AcDbLine
 62
7
  6
CONTINUOUS
 10
-4.33
 20
11.4413284306
 11
-4.265
 21
11.496647573
  0
LINE
  5
220
100
AcDbEntity
  8
0
100
AcDbLine
 62
7
  6
CONTINUOUS
 10
-4.286666708
 20
11.6349454288
 11
-4.395
 21
11.5519667153
  0
LINE
  5
221
100
AcDbEntity
  8
0
100
AcDbLine
 62
7
  6
CONTINUOUS
 10
-0.2421876253
 20
14.0521276712
 11
-0.3500001215
 21
13.9787234247
  0
LINE
  5
222
100
AcDbEntity
  8
0
100
AcDbLine
 62
7
  6
CONTINUOUS
 10
-5.2833333385
 20
11.6349454288
 11
-5.37
 21
11.5796262865
  0
LINE
  5
223
100
AcDbEntity
  8
0
100
AcDbLine
 62
7
  6
CONTINUOUS
 10
-0.134375129
 20
13.9542553425
 11
-0.0265626328
 21
14.0031915069
  0
LINE
  5
224
100
AcDbEntity
  8
0
100
AcDbLine
 62
7
  6
CONTINUOUS
 10
0.4406247136
 20
13.1957446747
 11
0.3328122174
 21
13.1468085103
  0
LINE
  5
225
100
AcDbEntity
  8
0
100
AcDbLine
 62
7
  6
CONTINUOUS
 10
2.1656246529
 20
13.9542553425
 11
2.2734371491
 21
14.0031915069
  0
LINE
  5
226
100
AcDbEntity
  8
0
100
AcDbLine
 62
7
  6
CONTINUOUS
 10
2.7406249068
 20
13.1957446747
 11
2.6328124106
 21
13.1468085103
  0
LINE
  5
227
100
AcDbEntity
  8
0
100
AcDbLine
 62
7
  6
CONTINUOUS
 10
-0.0624999945
 20
14.1255319178
 11
-0.2421876253
 21
14.0521276712
  0
LINE
  5
228
100
AcDbEntity
  8
0
100
AcDbLine
 62
7
  6
CONTINUOUS
 10
2.2374997874
 20
14.1255319178
 11
2.0578121567
 21
14.0521276712
  0
LINE
  5
229
100
AcDbEntity
  8
0
100
AcDbLine
 62
7
  6
CONTINUOUS
 10
0.3687499903
 20
13.0244680843
 11
0.5484372098
 21
13.0978723373
  0
LINE
  5
22A
100
AcDbEntity
  8
0
100
AcDbLine
 62
7
  6
CONTINUOUS
 10
2.6687497723
 20
13.0244680843
 11
2.848437403
 21
13.0978723373
  0
LINE
  5
22B
100
AcDbEntity
  8
0
100
AcDbLine
 62
7
  6
CONTINUOUS
 10
-3.073333416
 20
10.5562220176
 11
-3.16
 21
10.5285624464
  0
LINE
  5
22C
100
AcDbEntity
  8
0
100
AcDbLine
 62
7
  6
CONTINUOUS
 10
-3.8721215
 20
19.700052
 11
-4.446923
 21
17.909731
  0
LINE
  5
22D
100
AcDbEntity
  8
0
100
AcDbLine
 62
7
  6
CONTINUOUS
 10
-4.18691
 20
17.099935
 11
-3.3520955
 21
19.700052
  0
LINE
  5
22E
100
AcDbEntity
  8
0
100
AcDbLine
 62
7
  6
CONTINUOUS
 10
-4.1041666269
 20
15.5904255211
 11
-3.9166666269
 21
16.1648936272
  0
LINE
  5
22F
100
AcDbEntity
  8
0
100
AcDbLine
 62
7
  6
CONTINUOUS
 10
-4.2083333731
 20
15.25
 11
-4.125
 21
15.5053191483
  0
LINE
  5
230
100
AcDbEntity
  8
0
100
AcDbLine
 62
7
  6
CONTINUOUS
 10
-4.0
 20
16.25
 11
-4.3333333731
 21
15.25
  0
LINE
  5
231
100
AcDbEntity
  8
0
100
AcDbLine
 62
7
  6
CONTINUOUS
 10
-4.6875
 20
16.25
 11
-5.0
 21
15.3563829809
  0
LINE
  5
232
100
AcDbEntity
  8
0
100
AcDbLine
 62
7
  6
CONTINUOUS
 10
-4.9166666865
 20
15.25
 11
-4.625
 21
16.0372340679
  0
LINE
  5
233
100
AcDbEntity
  8
0
100
AcDbLine
 62
7
  6
CONTINUOUS
 10
-4.85
 20
11.3030304973
 11
-4.893333354
 21
11.1923922126
  0
LINE
  5
234
100
AcDbEntity
  8
0
100
AcDbLine
 62
7
  6
CONTINUOUS
 10
-4.46
 20
11.4689880018
 11
-4.503333354
 21
11.3583497171
  0
LINE
  5
235
100
AcDbEntity
  8
0
100
AcDbLine
 62
7
  6
CONTINUOUS
 10
-2.5625
 20
15.3989361674
 11
-2.5208332539
 21
15.4840425551
  0
LINE
  5
236
100
AcDbEntity
  8
0
100
AcDbLine
 62
7
  6
CONTINUOUS
 10
-2.9375000304
 20
13.0
 11
-2.3625000849
 21
14.15
  0
LINE
  5
237
100
AcDbEntity
  8
0
100
AcDbLine
 62
7
  6
CONTINUOUS
 10
-2.5781250773
 20
14.15
 11
-3.0812500424
 21
13.1468085103
  0
LINE
  5
238
100
AcDbEntity
  8
0
100
AcDbLine
 62
7
  6
CONTINUOUS
 10
-5.37
 20
11.3583497171
 11
-5.3266666615
 21
11.4413284306
  0
LINE
  5
239
100
AcDbEntity
  8
0
100
AcDbLine
 62
7
  6
CONTINUOUS
 10
-4.785
 20
11.1094134991
 11
-4.741666646
 21
11.1923922126
  0
LINE
  5
23A
100
AcDbEntity
  8
0
100
AcDbLine
 62
7
  6
CONTINUOUS
 10
-4.416666708
 20
11.2753709261
 11
-4.33
 21
11.4413284306
  0
LINE
  5
23B
100
AcDbEntity
  8
0
100
AcDbLine
 62
7
  6
CONTINUOUS
 10
-3.896666708
 20
10.7498390351
 11
-3.983333292
 21
10.5838815887
  0
LINE
  5
23C
100
AcDbEntity
  8
0
100
AcDbLine
 62
7
  6
CONTINUOUS
 10
-2.6458332539
 20
15.5053191483
 11
-2.6875
 21
15.4414893687
  0
LINE
  5
23D
100
AcDbEntity
  8
0
100
AcDbLine
 62
7
  6
CONTINUOUS
 10
-0.9968750987
 20
14.0276595891
 11
-1.7156250048
 21
13.0
  0
LINE
  5
23E
100
AcDbEntity
  8
0
100
AcDbLine
 62
7
  6
CONTINUOUS
 10
-1.5000000124
 20
13.0
 11
-0.7812501063
 21
14.0276595891
  0
LINE
  5
23F
100
AcDbEntity
  8
0
100
AcDbLine
 62
7
  6
CONTINUOUS
 10
-0.3500001215
 20
13.9787234247
 11
-0.4218750504
 21
13.8808510959
  0
LINE
  5
240
100
AcDbEntity
  8
0
100
AcDbLine
 62
7
  6
CONTINUOUS
 10
-4.395
 20
11.5519667153
 11
-4.46
 21
11.4689880018
  0
LINE
  5
241
100
AcDbEntity
  8
0
100
AcDbLine
 62
7
  6
CONTINUOUS
 10
-3.918333292
 20
10.4732432944
 11
-3.853333292
 21
10.5562220176
  0
LINE
  5
242
100
AcDbEntity
  8
0
100
AcDbLine
 62
7
  6
CONTINUOUS
 10
-2.965
 20
10.4455837232
 11
-2.878333416
 21
10.5562220176
  0
LINE
  5
243
100
AcDbEntity
  8
0
100
AcDbLine
 62
7
  6
CONTINUOUS
 10
-0.2781249869
 20
13.8074467808
 11
-0.134375129
 21
13.9542553425
  0
LINE
  5
244
100
AcDbEntity
  8
0
100
AcDbLine
 62
7
  6
CONTINUOUS
 10
0.5843749827
 20
13.3425531849
 11
0.4406247136
 21
13.1957446747
  0
LINE
  5
245
100
AcDbEntity
  8
0
100
AcDbLine
 62
7
  6
CONTINUOUS
 10
2.021874795
 20
13.8074467808
 11
2.1656246529
 21
13.9542553425
  0
LINE
  5
246
100
AcDbEntity
  8
0
100
AcDbLine
 62
7
  6
CONTINUOUS
 10
-3.983333292
 20
10.5838815887
 11
-4.048333292
 21
10.5285624464
  0
LINE
  5
247
100
AcDbEntity
  8
0
100
AcDbLine
 62
7
  6
CONTINUOUS
 10
-3.008333416
 20
10.6115411793
 11
-3.073333416
 21
10.5562220176
  0
LINE
  5
248
100
AcDbEntity
  8
0
100
AcDbLine
 62
7
  6
CONTINUOUS
 10
1.3031246833
 20
14.15
 11
1.0874996908
 21
13.9787234247
  0
LINE
  5
249
100
AcDbEntity
  8
0
100
AcDbLine
 62
7
  6
CONTINUOUS
 10
1.0874996908
 20
13.7829786986
 11
1.3031246833
 21
13.9542553425
  0
LINE
  5
24A
100
AcDbEntity
  8
0
100
AcDbLine
 62
7
  6
CONTINUOUS
 10
3.6031244652
 20
14.15
 11
3.3874994728
 21
13.9787234247
  0
LINE
  5
24B
100
AcDbEntity
  8
0
100
AcDbLine
 62
7
  6
CONTINUOUS
 10
3.3874994728
 20
13.7829786986
 11
3.6031244652
 21
13.9542553425
  0
LINE
  5
24C
100
AcDbEntity
  8
0
100
AcDbLine
 62
7
  6
CONTINUOUS
 10
-4.026666708
 20
10.3902645736
 11
-3.918333292
 21
10.4732432944
  0
LINE
  5
24D
100
AcDbEntity
  8
0
100
AcDbLine
 62
7
  6
CONTINUOUS
 10
0.5484372098
 20
13.0978723373
 11
0.656249706
 21
13.1712765925
  0
LINE
  5
24E
100
AcDbEntity
  8
0
100
AcDbLine
 62
7
  6
CONTINUOUS
 10
2.0578121567
 20
14.0521276712
 11
1.9499996605
 21
13.9787234247
  0
LINE
  5
24F
100
AcDbEntity
  8
0
100
AcDbLine
 62
7
  6
CONTINUOUS
 10
2.848437403
 20
13.0978723373
 11
2.9562498992
 21
13.1712765925
  0
LINE
  5
250
100
AcDbEntity
  8
0
100
AcDbLine
 62
7
  6
CONTINUOUS
 10
-3.051666584
 20
10.3902645736
 11
-2.965
 21
10.4455837232
  0
LINE
  5
251
100
AcDbEntity
  8
0
100
AcDbLine
 62
7
  6
CONTINUOUS
 10
-6.0
 20
20.0
 11
-6.0
 21
8.0
  0
LINE
  5
252
100
AcDbEntity
  8
0
100
AcDbLine
 62
7
  6
CONTINUOUS
 10
-5.5
 20
16.25
 11
-5.5
 21
15.25
  0
LINE
  5
253
100
AcDbEntity
  8
0
100
AcDbLine
 62
7
  6
CONTINUOUS
 10
-5.5
 20
10.5009028752
 11
-5.5
 21
10.362605
  0
LINE
  5
254
100
AcDbEntity
  8
0
100
AcDbLine
 62
7
  6
CONTINUOUS
 10
-5.375
 20
15.25
 11
-5.375
 21
16.0372340679
  0
LINE
  5
255
100
AcDbEntity
  8
0
100
AcDbLine
 62
7
  6
CONTINUOUS
 10
-4.438333292
 20
11.1094134991
 11
-4.416666708
 21
11.2753709261
  0
LINE
  5
256
100
AcDbEntity
  8
0
100
AcDbLine
 62
7
  6
CONTINUOUS
 10
-3.875
 20
10.9157965009
 11
-3.896666708
 21
10.7498390351
  0
LINE
  5
257
100
AcDbEntity
  8
0
100
AcDbLine
 62
7
  6
CONTINUOUS
 10
-4.525
 20
11.2753709261
 11
-4.546666646
 21
11.1370730703
  0
LINE
  5
258
100
AcDbEntity
  8
0
100
AcDbLine
 62
7
  6
CONTINUOUS
 10
-3.788333292
 20
10.7498390351
 11
-3.766666708
 21
10.8881369297
  0
LINE
  5
259
100
AcDbEntity
  8
0
100
AcDbLine
 62
7
  6
CONTINUOUS
 10
-5.4566666654
 20
11.4689880018
 11
-5.4783333327
 21
11.3583497171
  0
LINE
  5
25A
100
AcDbEntity
  8
0
100
AcDbLine
 62
7
  6
CONTINUOUS
 10
-4.741666646
 20
11.1923922126
 11
-4.72
 21
11.3030304973
  0
LINE
  5
25B
100
AcDbEntity
  8
0
100
AcDbLine
 62
7
  6
CONTINUOUS
 10
-2.5208332539
 20
15.4840425551
 11
-2.5
 21
15.5904255211
  0
LINE
  5
25C
100
AcDbEntity
  8
0
100
AcDbLine
 62
7
  6
CONTINUOUS
 10
-2.625
 20
15.5904255211
 11
-2.6458332539
 21
15.5053191483
  0
LINE
  5
25D
100
AcDbEntity
  8
0
100
AcDbLine
 62
7
  6
CONTINUOUS
 10
-4.503333354
 20
11.3583497171
 11
-4.525
 21
11.2753709261
  0
LINE
  5
25E
100
AcDbEntity
  8
0
100
AcDbLine
 62
7
  6
CONTINUOUS
 10
-3.81
 20
10.6668603216
 11
-3.788333292
 21
10.7498390351
  0
LINE
  5
25F
100
AcDbEntity
  8
0
100
AcDbLine
 62
7
  6
CONTINUOUS
 10
-0.208182
 20
19.700052
 11
-0.6937255
 21
18.006763
  0
LINE
  5
260
100
AcDbEntity
  8
0
100
AcDbLine
 62
7
  6
CONTINUOUS
 10
-3.853333292
 20
10.5562220176
 11
-3.81
 21
10.6668603216
  0
LINE
  5
261
100
AcDbEntity
  8
0
100
AcDbLine
 62
7
  6
CONTINUOUS
 10
-2.878333416
 20
10.5562220176
 11
-2.835
 21
10.6668603216
  0
LINE
  5
262
100
AcDbEntity
  8
0
100
AcDbLine
 62
7
  6
CONTINUOUS
 10
-0.4218750504
 20
13.8808510959
 11
-0.4578126177
 21
13.8074467808
  0
LINE
  5
263
100
AcDbEntity
  8
0
100
AcDbLine
 62
7
  6
CONTINUOUS
 10
-2.965
 20
10.6945198928
 11
-3.008333416
 21
10.6115411793
  0
LINE
  5
264
100
AcDbEntity
  8
0
100
AcDbLine
 62
7
  6
CONTINUOUS
 10
-0.0079365
 20
10.801152
 11
0.393325
 21
11.3726105
  0
LINE
  5
265
100
AcDbEntity
  8
0
100
AcDbLine
 62
7
  6
CONTINUOUS
 10
0.439199
 20
11.637395
 11
-0.1517275
 21
10.818907
  0
LINE
  5
266
100
AcDbEntity
  8
0
100
AcDbLine
 62
7
  6
CONTINUOUS
 10
1.9499996605
 20
13.9787234247
 11
1.8781249372
 21
13.8808510959
  0
LINE
  5
267
100
AcDbEntity
  8
0
100
AcDbLine
 62
7
  6
CONTINUOUS
 10
2.9562498992
 20
13.1712765925
 11
3.0281246225
 21
13.2691489384
  0
LINE
  5
268
100
AcDbEntity
  8
0
100
AcDbLine
 62
7
  6
CONTINUOUS
 10
0.656249706
 20
13.1712765925
 11
0.7281248406
 21
13.2691489384
  0
LINE
  5
269
100
AcDbEntity
  8
0
100
AcDbLine
 62
7
  6
CONTINUOUS
 10
2.8843747647
 20
13.3425531849
 11
2.7406249068
 21
13.1957446747
  0
LINE
  5
26A
100
AcDbEntity
  8
ASSI
100
AcDbLine
 62
7
  6
CONTINUOUS
 10
3.9468896955
 20
11.4467871647
 11
3.362352
 21
10.9541935
  0
LINE
  5
26B
100
AcDbEntity
  8
ASSI
100
AcDbLine
 62
7
  6
CONTINUOUS
 10
3.362352
 20
10.6983455
 11
3.9197679495
 21
11.1680834574
  0
LINE
  5
26C
100
AcDbEntity
  8
0
100
AcDbLine
 62
7
  6
CONTINUOUS
 10
-4.85
 20
11.3583497171
 11
-4.85
 21
11.3030304973
  0
LINE
  5
26D
100
AcDbEntity
  8
0
100
AcDbLine
 62
7
  6
CONTINUOUS
 10
-4.72
 20
10.362605
 11
-4.72
 21
10.5009028752
  0
LINE
  5
26E
100
AcDbEntity
  8
0
100
AcDbLine
 62
7
  6
CONTINUOUS
 10
-4.72
 20
11.3030304973
 11
-4.72
 21
11.3583497171
  0
LINE
  5
26F
100
AcDbEntity
  8
0
100
AcDbLine
 62
7
  6
CONTINUOUS
 10
-4.625
 20
16.0372340679
 11
-4.625
 21
15.25
  0
LINE
  5
270
100
AcDbEntity
  8
0
100
AcDbLine
 62
7
  6
CONTINUOUS
 10
-4.546666646
 20
11.1370730703
 11
-4.546666646
 21
10.8881369297
  0
LINE
  5
271
100
AcDbEntity
  8
0
100
AcDbLine
 62
7
  6
CONTINUOUS
 10
-4.5
 20
15.25
 11
-4.5
 21
16.25
  0
LINE
  5
272
100
AcDbEntity
  8
0
100
AcDbLine
 62
7
  6
CONTINUOUS
 10
-4.438333292
 20
10.9157965009
 11
-4.438333292
 21
11.1094134991
  0
LINE
  5
273
100
AcDbEntity
  8
0
100
AcDbLine
 62
7
  6
CONTINUOUS
 10
-3.875
 20
11.1094134991
 11
-3.875
 21
10.9157965009
  0
LINE
  5
274
100
AcDbEntity
  8
0
100
AcDbLine
 62
7
  6
CONTINUOUS
 10
-3.766666708
 20
10.8881369297
 11
-3.766666708
 21
11.1370730703
  0
LINE
  5
275
100
AcDbEntity
  8
0
100
AcDbLine
 62
7
  6
CONTINUOUS
 10
-3.3333332539
 20
16.25
 11
-3.3333332539
 21
15.25
  0
LINE
  5
276
100
AcDbEntity
  8
0
100
AcDbLine
 62
7
  6
CONTINUOUS
 10
-3.2083332539
 20
15.3776595742
 11
-3.2083332539
 21
16.1223404408
  0
LINE
  5
277
100
AcDbEntity
  8
0
100
AcDbLine
 62
7
  6
CONTINUOUS
 10
-3.005418
 20
19.700052
 11
-3.0054245
 21
17.0999285
  0
LINE
  5
278
100
AcDbEntity
  8
0
100
AcDbLine
 62
7
  6
CONTINUOUS
 10
-2.943333416
 20
11.662605
 11
-2.943333416
 21
10.8051581775
  0
LINE
  5
279
100
AcDbEntity
  8
0
100
AcDbLine
 62
7
  6
CONTINUOUS
 10
-2.813333416
 20
10.8051581775
 11
-2.813333416
 21
11.662605
  0
LINE
  5
27A
100
AcDbEntity
  8
0
100
AcDbLine
 62
7
  6
CONTINUOUS
 10
-2.625
 20
15.9095744491
 11
-2.625
 21
15.5904255211
  0
LINE
  5
27B
100
AcDbEntity
  8
0
100
AcDbLine
 62
7
  6
CONTINUOUS
 10
-2.5
 20
15.5904255211
 11
-2.5
 21
15.9095744491
  0
LINE
  5
27C
100
AcDbEntity
  8
0
100
AcDbLine
 62
7
  6
CONTINUOUS
 10
-2.485405
 20
17.099935
 11
-2.4853985
 21
19.700052
  0
LINE
  5
27D
100
AcDbEntity
  8
0
100
AcDbLine
 62
7
  6
CONTINUOUS
 10
-2.835
 20
10.6668603216
 11
-2.813333416
 21
10.8051581775
  0
LINE
  5
27E
100
AcDbEntity
  8
0
100
AcDbLine
 62
7
  6
CONTINUOUS
 10
-2.943333416
 20
10.8051581775
 11
-2.965
 21
10.6945198928
  0
LINE
  5
27F
100
AcDbEntity
  8
0
100
AcDbLine
 62
7
  6
CONTINUOUS
 10
-0.3140627598
 20
13.6606382877
 11
-0.2781249869
 21
13.8074467808
  0
LINE
  5
280
100
AcDbEntity
  8
0
100
AcDbLine
 62
7
  6
CONTINUOUS
 10
0.6203123444
 20
13.4893617123
 11
0.5843749827
 21
13.3425531849
  0
LINE
  5
281
100
AcDbEntity
  8
0
100
AcDbLine
 62
7
  6
CONTINUOUS
 10
-0.4337255
 20
17.0999415
 11
0.0579215
 21
18.8145375
  0
LINE
  5
282
100
AcDbEntity
  8
0
100
AcDbLine
 62
7
  6
CONTINUOUS
 10
-0.4578126177
 20
13.8074467808
 11
-0.4937501849
 21
13.6851063699
  0
LINE
  5
283
100
AcDbEntity
  8
0
100
AcDbLine
 62
7
  6
CONTINUOUS
 10
0.7640622022
 20
13.3425531849
 11
0.7999999751
 21
13.4648936301
  0
LINE
  5
284
100
AcDbEntity
  8
0
100
AcDbLine
 62
7
  6
CONTINUOUS
 10
1.7594265
 20
19.7000585
 11
0.924625
 21
17.099935
  0
LINE
  5
285
100
AcDbEntity
  8
0
100
AcDbLine
 62
7
  6
CONTINUOUS
 10
1.4446445
 20
17.0999415
 11
1.608815
 21
17.6112705
  0
LINE
  5
286
100
AcDbEntity
  8
0
100
AcDbLine
 62
7
  6
CONTINUOUS
 10
1.7674345
 20
18.10529
 11
2.019446
 21
18.890256
  0
LINE
  5
287
100
AcDbEntity
  8
0
100
AcDbLine
 62
7
  6
CONTINUOUS
 10
0.7281248406
 20
13.2691489384
 11
0.7640622022
 21
13.3425531849
  0
LINE
  5
288
100
AcDbEntity
  8
0
100
AcDbLine
 62
7
  6
CONTINUOUS
 10
1.8781249372
 20
13.8808510959
 11
1.8421871643
 21
13.8074467808
  0
LINE
  5
289
100
AcDbEntity
  8
0
100
AcDbLine
 62
7
  6
CONTINUOUS
 10
3.0281246225
 20
13.2691489384
 11
3.0640623954
 21
13.3425531849
  0
LINE
  5
28A
100
AcDbEntity
  8
ASSI
100
AcDbLine
 62
7
  6
CONTINUOUS
 10
2.7676620882
 20
9.8906296571
 11
2.8635604682
 21
10.0614889434
  0
LINE
  5
28B
100
AcDbEntity
  8
0
100
AcDbLine
 62
7
  6
CONTINUOUS
 10
5.7083330154
 20
16.25
 11
5.4375
 21
15.8457446694
  0
LINE
  5
28C
100
AcDbEntity
  8
0
100
AcDbLine
 62
7
  6
CONTINUOUS
 10
5.5
 20
15.7606382966
 11
5.8333330154
 21
16.25
  0
LINE
  5
28D
100
AcDbEntity
  8
0
100
AcDbLine
 62
7
  6
CONTINUOUS
 10
-4.72
 20
11.3583497171
 11
-4.741666646
 21
11.4689880018
  0
LINE
  5
28E
100
AcDbEntity
  8
0
100
AcDbLine
 62
7
  6
CONTINUOUS
 10
-4.546666646
 20
10.8881369297
 11
-4.525
 21
10.7498390351
  0
LINE
  5
28F
100
AcDbEntity
  8
0
100
AcDbLine
 62
7
  6
CONTINUOUS
 10
-4.416666708
 20
10.7498390351
 11
-4.438333292
 21
10.9157965009
  0
LINE
  5
290
100
AcDbEntity
  8
0
100
AcDbLine
 62
7
  6
CONTINUOUS
 10
-2.3333332539
 20
16.25
 11
-2.3333332539
 21
15.25
  0
LINE
  5
291
100
AcDbEntity
  8
0
100
AcDbLine
 62
7
  6
CONTINUOUS
 10
-2.2083332539
 20
15.3776595742
 11
-2.2083332539
 21
15.7180851102
  0
LINE
  5
292
100
AcDbEntity
  8
0
100
AcDbLine
 62
7
  6
CONTINUOUS
 10
-2.2083332539
 20
15.8457446694
 11
-2.2083332539
 21
16.1223404408
  0
LINE
  5
293
100
AcDbEntity
  8
0
100
AcDbLine
 62
7
  6
CONTINUOUS
 10
-2.0750000607
 20
14.15
 11
-2.0750000607
 21
14.0276595891
  0
LINE
  5
294
100
AcDbEntity
  8
0
100
AcDbLine
 62
7
  6
CONTINUOUS
 10
-1.9653985
 20
19.700052
 11
-1.9653985
 21
17.099935
  0
LINE
  5
295
100
AcDbEntity
  8
0
100
AcDbLine
 62
7
  6
CONTINUOUS
 10
-1.71241
 20
11.637395
 11
-1.71241
 21
10.362605
  0
LINE
  5
296
100
AcDbEntity
  8
0
100
AcDbLine
 62
7
  6
CONTINUOUS
 10
-1.6666667461
 20
15.7180851102
 11
-1.6666667461
 21
15.8457446694
  0
LINE
  5
297
100
AcDbEntity
  8
0
100
AcDbLine
 62
7
  6
CONTINUOUS
 10
-1.5833332539
 20
15.25
 11
-1.5833332539
 21
15.3776595742
  0
LINE
  5
298
100
AcDbEntity
  8
0
100
AcDbLine
 62
7
  6
CONTINUOUS
 10
-1.5833332539
 20
16.1223404408
 11
-1.5833332539
 21
16.25
  0
LINE
  5
299
100
AcDbEntity
  8
0
100
AcDbLine
 62
7
  6
CONTINUOUS
 10
-1.5401635
 20
10.362605
 11
-1.5401635
 21
11.637395
  0
LINE
  5
29A
100
AcDbEntity
  8
0
100
AcDbLine
 62
7
  6
CONTINUOUS
 10
-1.445379
 20
17.099935
 11
-1.445379
 21
18.8145375
  0
LINE
  5
29B
100
AcDbEntity
  8
0
100
AcDbLine
 62
7
  6
CONTINUOUS
 10
-1.2276765
 20
11.637395
 11
-1.2276765
 21
10.362605
  0
LINE
  5
29C
100
AcDbEntity
  8
0
100
AcDbLine
 62
7
  6
CONTINUOUS
 10
-1.0554775
 20
10.362605
 11
-1.0554775
 21
10.9005935
  0
LINE
  5
29D
100
AcDbEntity
  8
0
100
AcDbLine
 62
7
  6
CONTINUOUS
 10
-1.0554775
 20
11.0479405
 11
-1.0554775
 21
11.490048
  0
LINE
  5
29E
100
AcDbEntity
  8
0
100
AcDbLine
 62
7
  6
CONTINUOUS
 10
-0.7812501063
 20
14.0276595891
 11
-0.7812501063
 21
14.15
  0
LINE
  5
29F
100
AcDbEntity
  8
0
100
AcDbLine
 62
7
  6
CONTINUOUS
 10
-0.4937501849
 20
13.6851063699
 11
-0.4937501849
 21
13.4648936301
  0
LINE
  5
2A0
100
AcDbEntity
  8
ASSI
100
AcDbLine
 62
7
  6
CONTINUOUS
 10
-0.433777
 20
-15.2740185024
 11
-0.433777
 21
-14.8986100025
  0
LINE
  5
2A1
100
AcDbEntity
  8
ASSI
100
AcDbLine
 62
7
  6
CONTINUOUS
 10
-0.433777
 20
-13.10139
 11
-0.433777
 21
-12.7259815
  0
LINE
  5
2A2
100
AcDbEntity
  8
0
100
AcDbLine
 62
7
  6
CONTINUOUS
 10
-0.4166665077
 20
16.25
 11
-0.4166665077
 21
15.25
  0
LINE
  5
2A3
100
AcDbEntity
  8
0
100
AcDbLine
 62
7
  6
CONTINUOUS
 10
-0.3140627598
 20
13.4893617123
 11
-0.3140627598
 21
13.6606382877
  0
LINE
  5
2A4
100
AcDbEntity
  8
0
100
AcDbLine
 62
7
  6
CONTINUOUS
 10
-0.2916665077
 20
15.25
 11
-0.2916665077
 21
16.25
  0
LINE
  5
2A5
100
AcDbEntity
  8
0
100
AcDbLine
 62
7
  6
CONTINUOUS
 10
-0.1517275
 20
10.818907
 11
-0.1517275
 21
10.6662285
  0
LINE
  5
2A6
100
AcDbEntity
  8
0
100
AcDbLine
 62
7
  6
CONTINUOUS
 10
-0.125
 20
16.25
 11
-0.125
 21
15.25
  0
LINE
  5
2A7
100
AcDbEntity
  8
0
100
AcDbLine
 62
7
  6
CONTINUOUS
 10
0.0
 20
15.25
 11
0.0
 21
16.1223404408
  0
LINE
  5
2A8
100
AcDbEntity
  8
0
100
AcDbLine
 62
7
  6
CONTINUOUS
 10
0.0579215
 20
18.8145375
 11
0.057928
 21
17.099935
  0
LINE
  5
2A9
100
AcDbEntity
  8
0
100
AcDbLine
 62
7
  6
CONTINUOUS
 10
1.9859374334
 20
13.6606382877
 11
2.021874795
 21
13.8074467808
  0
LINE
  5
2AA
100
AcDbEntity
  8
0
100
AcDbLine
 62
7
  6
CONTINUOUS
 10
2.9203121263
 20
13.4893617123
 11
2.8843747647
 21
13.3425531849
  0
LINE
  5
2AB
100
AcDbEntity
  8
0
100
AcDbLine
 62
7
  6
CONTINUOUS
 10
1.8421871643
 20
13.8074467808
 11
1.8062498026
 21
13.6851063699
  0
LINE
  5
2AC
100
AcDbEntity
  8
0
100
AcDbLine
 62
7
  6
CONTINUOUS
 10
3.0640623954
 20
13.3425531849
 11
3.0999997571
 21
13.4648936301
  0
LINE
  5
2AD
100
AcDbEntity
  8
0
100
AcDbLine
 62
7
  6
CONTINUOUS
 10
3.3541669846
 20
15.5904255211
 11
3.5416669846
 21
16.1648936272
  0
LINE
  5
2AE
100
AcDbEntity
  8
0
100
AcDbLine
 62
7
  6
CONTINUOUS
 10
3.25
 20
15.25
 11
3.3333330154
 21
15.5053191483
  0
LINE
  5
2AF
100
AcDbEntity
  8
0
100
AcDbLine
 62
7
  6
CONTINUOUS
 10
3.4583330154
 20
16.25
 11
3.125
 21
15.25
  0
LINE
  5
2B0
100
AcDbEntity
  8
ASSI
100
AcDbLine
 62
7
  6
CONTINUOUS
 10
4.004466
 20
9.135491
 11
4.11318
 21
9.28961
  0
LINE
  5
2B1
100
AcDbEntity
  8
0
100
AcDbLine
 62
7
  6
CONTINUOUS
 10
-4.503333354
 20
10.6668603216
 11
-4.46
 21
10.5562220176
  0
LINE
  5
2B2
100
AcDbEntity
  8
0
100
AcDbLine
 62
7
  6
CONTINUOUS
 10
-5.0
 20
15.3563829809
 11
-5.3125
 21
16.25
  0
LINE
  5
2B3
100
AcDbEntity
  8
0
100
AcDbLine
 62
7
  6
CONTINUOUS
 10
-4.525
 20
10.7498390351
 11
-4.503333354
 21
10.6668603216
  0
LINE
  5
2B4
100
AcDbEntity
  8
0
100
AcDbLine
 62
7
  6
CONTINUOUS
 10
-3.788333292
 20
11.2753709261
 11
-3.81
 21
11.3583497171
  0
LINE
  5
2B5
100
AcDbEntity
  8
0
100
AcDbLine
 62
7
  6
CONTINUOUS
 10
-3.441666708
 20
10.6945198928
 11
-3.463333292
 21
10.8051581775
  0
LINE
  5
2B6
100
AcDbEntity
  8
0
100
AcDbLine
 62
7
  6
CONTINUOUS
 10
-3.766666708
 20
11.1370730703
 11
-3.788333292
 21
11.2753709261
  0
LINE
  5
2B7
100
AcDbEntity
  8
0
100
AcDbLine
 62
7
  6
CONTINUOUS
 10
-3.593333292
 20
10.8051581775
 11
-3.571666708
 21
10.6668603216
  0
LINE
  5
2B8
100
AcDbEntity
  8
0
100
AcDbLine
 62
7
  6
CONTINUOUS
 10
-3.896666708
 20
11.2753709261
 11
-3.875
 21
11.1094134991
  0
LINE
  5
2B9
100
AcDbEntity
  8
0
100
AcDbLine
 62
7
  6
CONTINUOUS
 10
0.393325
 20
11.3726105
 11
0.393325
 21
10.801152
  0
LINE
  5
2BA
100
AcDbEntity
  8
0
100
AcDbLine
 62
7
  6
CONTINUOUS
 10
0.393325
 20
10.6662285
 11
0.393325
 21
10.362605
  0
LINE
  5
2BB
100
AcDbEntity
  8
0
100
AcDbLine
 62
7
  6
CONTINUOUS
 10
0.5495685
 20
10.362605
 11
0.5495685
 21
10.6662285
  0
LINE
  5
2BC
100
AcDbEntity
  8
0
100
AcDbLine
 62
7
  6
CONTINUOUS
 10
0.5495685
 20
10.801152
 11
0.5495685
 21
11.637395
  0
LINE
  5
2BD
100
AcDbEntity
  8
0
100
AcDbLine
 62
7
  6
CONTINUOUS
 10
0.5779475
 20
17.099935
 11
0.5779475
 21
19.700052
  0
LINE
  5
2BE
100
AcDbEntity
  8
0
100
AcDbLine
 62
7
  6
CONTINUOUS
 10
0.5833334923
 20
16.25
 11
0.5833334923
 21
15.3989361674
  0
LINE
  5
2BF
100
AcDbEntity
  8
0
100
AcDbLine
 62
7
  6
CONTINUOUS
 10
0.6203123444
 20
13.6606382877
 11
0.6203123444
 21
13.4893617123
  0
LINE
  5
2C0
100
AcDbEntity
  8
0
100
AcDbLine
 62
7
  6
CONTINUOUS
 10
0.7083334923
 20
15.25
 11
0.7083334923
 21
16.25
  0
LINE
  5
2C1
100
AcDbEntity
  8
0
100
AcDbLine
 62
7
  6
CONTINUOUS
 10
0.732468
 20
10.6662285
 11
0.732468
 21
10.801152
  0
LINE
  5
2C2
100
AcDbEntity
  8
0
100
AcDbLine
 62
7
  6
CONTINUOUS
 10
0.7999999751
 20
13.4648936301
 11
0.7999999751
 21
13.6851063699
  0
LINE
  5
2C3
100
AcDbEntity
  8
0
100
AcDbLine
 62
7
  6
CONTINUOUS
 10
1.0874996908
 20
13.9787234247
 11
1.0874996908
 21
13.7829786986
  0
LINE
  5
2C4
100
AcDbEntity
  8
0
100
AcDbLine
 62
7
  6
CONTINUOUS
 10
1.3031246833
 20
13.9542553425
 11
1.3031246833
 21
13.0
  0
LINE
  5
2C5
100
AcDbEntity
  8
0
100
AcDbLine
 62
7
  6
CONTINUOUS
 10
1.5187496757
 20
13.0
 11
1.5187496757
 21
14.15
  0
LINE
  5
2C6
100
AcDbEntity
  8
ASSI
100
AcDbLine
 62
7
  6
CONTINUOUS
 10
1.558778
 20
-14.1875
 11
1.558778
 21
-13.8125
  0
LINE
  5
2C7
100
AcDbEntity
  8
ASSI
100
AcDbLine
 62
7
  6
CONTINUOUS
 10
1.758778
 20
-15.2740185612
 11
1.758778
 21
-14.8986084145
  0
LINE
  5
2C8
100
AcDbEntity
  8
ASSI
100
AcDbLine
 62
7
  6
CONTINUOUS
 10
1.758778
 20
-13.10139
 11
1.758778
 21
-12.7259815031
  0
LINE
  5
2C9
100
AcDbEntity
  8
0
100
AcDbLine
 62
7
  6
CONTINUOUS
 10
1.8062498026
 20
13.6851063699
 11
1.8062498026
 21
13.4648936301
  0
LINE
  5
2CA
100
AcDbEntity
  8
0
100
AcDbLine
 62
7
  6
CONTINUOUS
 10
1.875
 20
16.25
 11
1.875
 21
15.25
  0
LINE
  5
2CB
100
AcDbEntity
  8
0
100
AcDbLine
 62
7
  6
CONTINUOUS
 10
1.9859374334
 20
13.4893617123
 11
1.9859374334
 21
13.6606382877
  0
LINE
  5
2CC
100
AcDbEntity
  8
0
100
AcDbLine
 62
7
  6
CONTINUOUS
 10
2.0
 20
15.25
 11
2.0
 21
16.25
  0
LINE
  5
2CD
100
AcDbEntity
  8
0
100
AcDbLine
 62
7
  6
CONTINUOUS
 10
2.1666665077
 20
16.25
 11
2.1666665077
 21
16.143617034
  0
LINE
  5
2CE
100
AcDbEntity
  8
0
100
AcDbLine
 62
7
  6
CONTINUOUS
 10
2.5
 20
16.143617034
 11
2.5
 21
15.25
  0
LINE
  5
2CF
100
AcDbEntity
  8
0
100
AcDbLine
 62
7
  6
CONTINUOUS
 10
2.625
 20
15.25
 11
2.625
 21
16.143617034
  0
LINE
  5
2D0
100
AcDbEntity
  8
0
100
AcDbLine
 62
7
  6
CONTINUOUS
 10
2.9203121263
 20
13.6606382877
 11
2.9203121263
 21
13.4893617123
  0
LINE
  5
2D1
100
AcDbEntity
  8
ASSI
100
AcDbLine
 62
7
  6
CONTINUOUS
 10
2.955785
 20
10.005274
 11
2.955785
 21
9.7969415
  0
LINE
  5
2D2
100
AcDbEntity
  8
0
100
AcDbLine
 62
7
  6
CONTINUOUS
 10
2.9583330154
 20
16.143617034
 11
2.9583330154
 21
16.25
  0
LINE
  5
2D3
100
AcDbEntity
  8
ASSI
100
AcDbLine
 62
7
  6
CONTINUOUS
 10
2.9625885
 20
11.6948515
 11
2.9625885
 21
11.485373
  0
LINE
  5
2D4
100
AcDbEntity
  8
0
100
AcDbLine
 62
7
  6
CONTINUOUS
 10
3.0999997571
 20
13.4648936301
 11
3.0999997571
 21
13.6851063699
  0
LINE
  5
2D5
100
AcDbEntity
  8
ASSI
100
AcDbLine
 62
7
  6
CONTINUOUS
 10
3.1404125
 20
11.485373
 11
3.1404125
 21
10.9541935
  0
LINE
  5
2D6
100
AcDbEntity
  8
ASSI
100
AcDbLine
 62
7
  6
CONTINUOUS
 10
3.1404125
 20
10.6960155
 11
3.1404125
 21
10.005274
  0
LINE
  5
2D7
100
AcDbEntity
  8
0
100
AcDbLine
 62
7
  6
CONTINUOUS
 10
-4.46
 20
10.5562220176
 11
-4.395
 21
10.4732432944
  0
LINE
  5
2D8
100
AcDbEntity
  8
0
100
AcDbLine
 62
7
  6
CONTINUOUS
 10
-4.893333354
 20
11.4413284306
 11
-4.85
 21
11.3583497171
  0
LINE
  5
2D9
100
AcDbEntity
  8
0
100
AcDbLine
 62
7
  6
CONTINUOUS
 10
-4.33
 20
10.5838815887
 11
-4.416666708
 21
10.7498390351
  0
LINE
  5
2DA
100
AcDbEntity
  8
0
100
AcDbLine
 62
7
  6
CONTINUOUS
 10
-3.983333292
 20
11.4413284306
 11
-3.896666708
 21
11.2753709261
  0
LINE
  5
2DB
100
AcDbEntity
  8
0
100
AcDbLine
 62
7
  6
CONTINUOUS
 10
-3.398333416
 20
10.6115411793
 11
-3.441666708
 21
10.6945198928
  0
LINE
  5
2DC
100
AcDbEntity
  8
0
100
AcDbLine
 62
7
  6
CONTINUOUS
 10
-3.0812500424
 20
13.1468085103
 11
-3.5843750076
 21
14.15
  0
LINE
  5
2DD
100
AcDbEntity
  8
0
100
AcDbLine
 62
7
  6
CONTINUOUS
 10
-3.8
 20
14.15
 11
-3.2250000031
 21
13.0
  0
LINE
  5
2DE
100
AcDbEntity
  8
0
100
AcDbLine
 62
7
  6
CONTINUOUS
 10
-3.571666708
 20
10.6668603216
 11
-3.528333292
 21
10.5562220176
  0
LINE
  5
2DF
100
AcDbEntity
  8
0
100
AcDbLine
 62
7
  6
CONTINUOUS
 10
-3.81
 20
11.3583497171
 11
-3.853333292
 21
11.4689880018
  0
LINE
  5
2E0
100
AcDbEntity
  8
0
100
AcDbLine
 62
7
  6
CONTINUOUS
 10
-5.375
 20
16.0372340679
 11
-5.0833333433
 21
15.25
  0
LINE
  5
2E1
100
AcDbEntity
  8
0
100
AcDbLine
 62
7
  6
CONTINUOUS
 10
-3.5
 20
15.25
 11
-3.8333333731
 21
16.25
  0
LINE
  5
2E2
100
AcDbEntity
  8
0
100
AcDbLine
 62
7
  6
CONTINUOUS
 10
-3.7083333731
 20
15.5053191483
 11
-3.625
 21
15.25
  0
LINE
  5
2E3
100
AcDbEntity
  8
0
100
AcDbLine
 62
7
  6
CONTINUOUS
 10
-3.9166666269
 20
16.1648936272
 11
-3.7291666269
 21
15.5904255211
  0
LINE
  5
2E4
100
AcDbEntity
  8
0
100
AcDbLine
 62
7
  6
CONTINUOUS
 10
-5.541757
 20
19.700052
 11
-4.706949
 21
17.0999285
  0
LINE
  5
2E5
100
AcDbEntity
  8
0
100
AcDbLine
 62
7
  6
CONTINUOUS
 10
-4.446923
 20
17.909731
 11
-5.021731
 21
19.700052
  0
LINE
  5
2E6
100
AcDbEntity
  8
0
100
AcDbLine
 62
7
  6
CONTINUOUS
 10
-2.6458332539
 20
15.9946808219
 11
-2.625
 21
15.9095744491
  0
LINE
  5
2E7
100
AcDbEntity
  8
0
100
AcDbLine
 62
7
  6
CONTINUOUS
 10
-0.2781249869
 20
13.3425531849
 11
-0.3140627598
 21
13.4893617123
  0
LINE
  5
2E8
100
AcDbEntity
  8
0
100
AcDbLine
 62
7
  6
CONTINUOUS
 10
-2.5
 20
15.9095744491
 11
-2.5208332539
 21
16.0159574747
  0
LINE
  5
2E9
100
AcDbEntity
  8
ASSI
100
AcDbLine
 62
7
  6
CONTINUOUS
 10
3.362352
 20
10.005274
 11
3.362352
 21
10.6983455
  0
LINE
  5
2EA
100
AcDbEntity
  8
ASSI
100
AcDbLine
 62
7
  6
CONTINUOUS
 10
3.362352
 20
10.9541935
 11
3.362352
 21
11.485373
  0
LINE
  5
2EB
100
AcDbEntity
  8
0
100
AcDbLine
 62
7
  6
CONTINUOUS
 10
3.3874994728
 20
13.9787234247
 11
3.3874994728
 21
13.7829786986
  0
LINE
  5
2EC
100
AcDbEntity
  8
0
100
AcDbLine
 62
7
  6
CONTINUOUS
 10
3.460964
 20
19.7000585
 11
3.460964
 21
17.0999415
  0
LINE
  5
2ED
100
AcDbEntity
  8
ASSI
100
AcDbLine
 62
7
  6
CONTINUOUS
 10
3.5401045
 20
11.485373
 11
3.5401045
 21
11.6948515
  0
LINE
  5
2EE
100
AcDbEntity
  8
ASSI
100
AcDbLine
 62
7
  6
CONTINUOUS
 10
3.546908
 20
9.7969415
 11
3.546908
 21
10.005274
  0
LINE
  5
2EF
100
AcDbEntity
  8
0
100
AcDbLine
 62
7
  6
CONTINUOUS
 10
3.6031244652
 20
13.9542553425
 11
3.6031244652
 21
13.0
  0
LINE
  5
2F0
100
AcDbEntity
  8
0
100
AcDbLine
 62
7
  6
CONTINUOUS
 10
3.8187494576
 20
13.0
 11
3.8187494576
 21
14.15
  0
LINE
  5
2F1
100
AcDbEntity
  8
0
100
AcDbLine
 62
7
  6
CONTINUOUS
 10
3.9738205
 20
18.586316
 11
3.973814
 21
19.219039
  0
LINE
  5
2F2
100
AcDbEntity
  8
0
100
AcDbLine
 62
7
  6
CONTINUOUS
 10
4.125
 20
16.25
 11
4.125
 21
15.25
  0
LINE
  5
2F3
100
AcDbEntity
  8
0
100
AcDbLine
 62
7
  6
CONTINUOUS
 10
4.25
 20
15.3776595742
 11
4.25
 21
16.25
  0
LINE
  5
2F4
100
AcDbEntity
  8
0
100
AcDbLine
 62
7
  6
CONTINUOUS
 10
4.875
 20
15.25
 11
4.875
 21
15.3776595742
  0
LINE
  5
2F5
100
AcDbEntity
  8
0
100
AcDbLine
 62
7
  6
CONTINUOUS
 10
5.375
 20
15.7606382966
 11
5.375
 21
15.25
  0
LINE
  5
2F6
100
AcDbEntity
  8
0
100
AcDbLine
 62
7
  6
CONTINUOUS
 10
5.5
 20
15.25
 11
5.5
 21
15.7606382966
  0
LINE
  5
2F7
100
AcDbEntity
  8
0
100
AcDbLine
 62
7
  6
CONTINUOUS
 10
3.98099
 20
17.0999415
 11
3.9810485
 21
18.1052965
  0
LINE
  5
2F8
100
AcDbEntity
  8
0
100
AcDbLine
 62
7
  6
CONTINUOUS
 10
-4.395
 20
10.4732432944
 11
-4.286666708
 21
10.3902645736
  0
LINE
  5
2F9
100
AcDbEntity
  8
0
100
AcDbLine
 62
7
  6
CONTINUOUS
 10
-4.265
 20
10.5285624464
 11
-4.33
 21
10.5838815887
  0
LINE
  5
2FA
100
AcDbEntity
  8
0
100
AcDbLine
 62
7
  6
CONTINUOUS
 10
-4.958333354
 20
11.496647573
 11
-4.893333354
 21
11.4413284306
  0
LINE
  5
2FB
100
AcDbEntity
  8
0
100
AcDbLine
 62
7
  6
CONTINUOUS
 10
-3.333333416
 20
10.5562220176
 11
-3.398333416
 21
10.6115411793
  0
LINE
  5
2FC
100
AcDbEntity
  8
0
100
AcDbLine
 62
7
  6
CONTINUOUS
 10
-4.741666646
 20
11.4689880018
 11
-4.828333354
 21
11.5796262865
  0
LINE
  5
2FD
100
AcDbEntity
  8
0
100
AcDbLine
 62
7
  6
CONTINUOUS
 10
-3.528333292
 20
10.5562220176
 11
-3.441666708
 21
10.4455837232
  0
LINE
  5
2FE
100
AcDbEntity
  8
0
100
AcDbLine
 62
7
  6
CONTINUOUS
 10
-3.853333292
 20
11.4689880018
 11
-3.918333292
 21
11.5519667153
  0
LINE
  5
2FF
100
AcDbEntity
  8
0
100
AcDbLine
 62
7
  6
CONTINUOUS
 10
-2.5208332539
 20
16.0159574747
 11
-2.5625
 21
16.1010638475
  0
LINE
  5
300
100
AcDbEntity
  8
0
100
AcDbLine
 62
7
  6
CONTINUOUS
 10
-0.4578126177
 20
13.3425531849
 11
-0.4218750504
 21
13.2691489384
  0
LINE
  5
301
100
AcDbEntity
  8
0
100
AcDbLine
 62
7
  6
CONTINUOUS
 10
-0.4937501849
 20
13.4648936301
 11
-0.4578126177
 21
13.3425531849
  0
LINE
  5
302
100
AcDbEntity
  8
0
100
AcDbLine
 62
7
  6
CONTINUOUS
 10
0.7999999751
 20
13.6851063699
 11
0.7640622022
 21
13.8074467808
  0
LINE
  5
303
100
AcDbEntity
  8
0
100
AcDbLine
 62
7
  6
CONTINUOUS
 10
1.8062498026
 20
13.4648936301
 11
1.8421871643
 21
13.3425531849
  0
LINE
  5
304
100
AcDbEntity
  8
0
100
AcDbLine
 62
7
  6
CONTINUOUS
 10
-1.445379
 20
18.8145375
 11
-0.953732
 21
17.099935
  0
LINE
  5
305
100
AcDbEntity
  8
0
100
AcDbLine
 62
7
  6
CONTINUOUS
 10
-0.6937255
 20
18.006763
 11
-1.179269
 21
19.700052
  0
LINE
  5
306
100
AcDbEntity
  8
0
100
AcDbLine
 62
7
  6
CONTINUOUS
 10
0.5843749827
 20
13.8074467808
 11
0.6203123444
 21
13.6606382877
  0
LINE
  5
307
100
AcDbEntity
  8
0
100
AcDbLine
 62
7
  6
CONTINUOUS
 10
2.021874795
 20
13.3425531849
 11
1.9859374334
 21
13.4893617123
  0
LINE
  5
308
100
AcDbEntity
  8
0
100
AcDbLine
 62
7
  6
CONTINUOUS
 10
6.0
 20
8.0
 11
6.0
 21
20.0
  0
LINE
  5
309
100
AcDbEntity
  8
0
100
AcDbLine
 62
7
  6
CONTINUOUS
 10
-6.0
 20
8.0
 11
6.0
 21
8.0
  0
LINE
  5
30A
100
AcDbEntity
  8
0
100
AcDbLine
 62
7
  6
CONTINUOUS
 10
-3.441666708
 20
10.4455837232
 11
-3.355
 21
10.3902645736
  0
LINE
  5
30B
100
AcDbEntity
  8
0
100
AcDbLine
 62
7
  6
CONTINUOUS
 10
-4.828333354
 20
11.5796262865
 11
-4.915
 21
11.6349454288
  0
LINE
  5
30C
100
AcDbEntity
  8
0
100
AcDbLine
 62
7
  6
CONTINUOUS
 10
-3.918333292
 20
11.5519667153
 11
-4.026666708
 21
11.6349454288
  0
LINE
  5
30D
100
AcDbEntity
  8
0
100
AcDbLine
 62
7
  6
CONTINUOUS
 10
-4.048333292
 20
11.496647573
 11
-3.983333292
 21
11.4413284306
  0
LINE
  5
30E
100
AcDbEntity
  8
0
100
AcDbLine
 62
7
  6
CONTINUOUS
 10
-0.4218750504
 20
13.2691489384
 11
-0.3500001215
 21
13.1712765925
  0
LINE
  5
30F
100
AcDbEntity
  8
0
100
AcDbLine
 62
7
  6
CONTINUOUS
 10
-2.6875
 20
16.0585106611
 11
-2.6458332539
 21
15.9946808219
  0
LINE
  5
310
100
AcDbEntity
  8
0
100
AcDbLine
 62
7
  6
CONTINUOUS
 10
0.5833334923
 20
15.3989361674
 11
0.0625
 21
16.25
  0
LINE
  5
311
100
AcDbEntity
  8
0
100
AcDbLine
 62
7
  6
CONTINUOUS
 10
0.0
 20
16.1223404408
 11
0.5208334923
 21
15.25
  0
LINE
  5
312
100
AcDbEntity
  8
ASSI
100
AcDbLine
 62
7
  6
CONTINUOUS
 10
3.6364395
 20
10.061489
 11
3.732338
 21
9.8906295
  0
LINE
  5
313
100
AcDbEntity
  8
0
100
AcDbLine
 62
7
  6
CONTINUOUS
 10
0.7640622022
 20
13.8074467808
 11
0.7281248406
 21
13.8808510959
  0
LINE
  5
314
100
AcDbEntity
  8
0
100
AcDbLine
 62
7
  6
CONTINUOUS
 10
1.8421871643
 20
13.3425531849
 11
1.8781249372
 21
13.2691489384
  0
LINE
  5
315
100
AcDbEntity
  8
0
100
AcDbLine
 62
7
  6
CONTINUOUS
 10
3.9583330154
 20
15.25
 11
3.625
 21
16.25
  0
LINE
  5
316
100
AcDbEntity
  8
0
100
AcDbLine
 62
7
  6
CONTINUOUS
 10
3.75
 20
15.5053191483
 11
3.8333330154
 21
15.25
  0
LINE
  5
317
100
AcDbEntity
  8
0
100
AcDbLine
 62
7
  6
CONTINUOUS
 10
3.5416669846
 20
16.1648936272
 11
3.7291669846
 21
15.5904255211
  0
LINE
  5
318
100
AcDbEntity
  8
0
100
AcDbLine
 62
7
  6
CONTINUOUS
 10
2.4300965
 20
17.6112705
 11
2.5942605
 21
17.0999415
  0
LINE
  5
319
100
AcDbEntity
  8
0
100
AcDbLine
 62
7
  6
CONTINUOUS
 10
2.019446
 20
18.890256
 11
2.2714705
 21
18.10529
  0
LINE
  5
31A
100
AcDbEntity
  8
0
100
AcDbLine
 62
7
  6
CONTINUOUS
 10
3.1142865
 20
17.099935
 11
2.279472
 21
19.7000585
  0
LINE
  5
31B
100
AcDbEntity
  8
0
100
AcDbLine
 62
7
  6
CONTINUOUS
 10
3.0999997571
 20
13.6851063699
 11
3.0640623954
 21
13.8074467808
  0
LINE
  5
31C
100
AcDbEntity
  8
0
100
AcDbLine
 62
7
  6
CONTINUOUS
 10
2.8843747647
 20
13.8074467808
 11
2.9203121263
 21
13.6606382877
  0
LINE
  5
31D
100
AcDbEntity
  8
0
100
AcDbLine
 62
7
  6
CONTINUOUS
 10
-3.16
 20
10.362605
 11
-3.051666584
 21
10.3902645736
  0
LINE
  5
31E
100
AcDbEntity
  8
0
100
AcDbLine
 62
7
  6
CONTINUOUS
 10
-4.048333292
 20
10.5285624464
 11
-4.156666708
 21
10.5009028752
  0
LINE
  5
31F
100
AcDbEntity
  8
0
100
AcDbLine
 62
7
  6
CONTINUOUS
 10
-4.156666708
 20
10.362605
 11
-4.026666708
 21
10.3902645736
  0
LINE
  5
320
100
AcDbEntity
  8
ASSI
100
AcDbLine
 62
7
  6
CONTINUOUS
 10
2.955785
 20
9.7969415
 11
3.546908
 21
9.7969415
  0
LINE
  5
321
100
AcDbEntity
  8
ASSI
100
AcDbLine
 62
7
  6
CONTINUOUS
 10
3.546908
 20
10.005274
 11
3.362352
 21
10.005274
  0
LINE
  5
322
100
AcDbEntity
  8
ASSI
100
AcDbLine
 62
7
  6
CONTINUOUS
 10
3.1404125
 20
10.005274
 11
2.955785
 21
10.005274
  0
LINE
  5
323
100
AcDbEntity
  8
0
100
AcDbLine
 62
7
  6
CONTINUOUS
 10
-5.5
 20
10.362605
 11
-4.72
 21
10.362605
  0
LINE
  5
324
100
AcDbEntity
  8
0
100
AcDbLine
 62
7
  6
CONTINUOUS
 10
-3.246666584
 20
10.362605
 11
-3.16
 21
10.362605
  0
LINE
  5
325
100
AcDbEntity
  8
0
100
AcDbLine
 62
7
  6
CONTINUOUS
 10
-1.71241
 20
10.362605
 11
-1.5401635
 21
10.362605
  0
LINE
  5
326
100
AcDbEntity
  8
0
100
AcDbLine
 62
7
  6
CONTINUOUS
 10
-1.2276765
 20
10.362605
 11
-1.0554775
 21
10.362605
  0
LINE
  5
327
100
AcDbEntity
  8
0
100
AcDbLine
 62
7
  6
CONTINUOUS
 10
0.393325
 20
10.362605
 11
0.5495685
 21
10.362605
  0
LINE
  5
328
100
AcDbEntity
  8
0
100
AcDbLine
 62
7
  6
CONTINUOUS
 10
-4.72
 20
10.5009028752
 11
-5.3266666615
 21
10.5009028752
  0
LINE
  5
329
100
AcDbEntity
  8
0
100
AcDbLine
 62
7
  6
CONTINUOUS
 10
-3.16
 20
10.5285624464
 11
-3.246666584
 21
10.5285624464
  0
LINE
  5
32A
100
AcDbEntity
  8
0
100
AcDbLine
 62
7
  6
CONTINUOUS
 10
-0.1517275
 20
10.6662285
 11
0.393325
 21
10.6662285
  0
LINE
  5
32B
100
AcDbEntity
  8
0
100
AcDbLine
 62
7
  6
CONTINUOUS
 10
0.5495685
 20
10.6662285
 11
0.732468
 21
10.6662285
  0
LINE
  5
32C
100
AcDbEntity
  8
0
100
AcDbLine
 62
7
  6
CONTINUOUS
 10
0.732468
 20
10.801152
 11
0.5495685
 21
10.801152
  0
LINE
  5
32D
100
AcDbEntity
  8
0
100
AcDbLine
 62
7
  6
CONTINUOUS
 10
0.393325
 20
10.801152
 11
-0.0079365
 21
10.801152
  0
LINE
  5
32E
100
AcDbEntity
  8
0
100
AcDbLine
 62
7
  6
CONTINUOUS
 10
-3.463333292
 20
10.8051581775
 11
-3.593333292
 21
10.8051581775
  0
LINE
  5
32F
100
AcDbEntity
  8
0
100
AcDbLine
 62
7
  6
CONTINUOUS
 10
-1.0554775
 20
10.9005935
 11
-0.6546190274
 21
10.9005935
  0
LINE
  5
330
100
AcDbEntity
  8
0
100
AcDbLine
 62
7
  6
CONTINUOUS
 10
-0.6947989117
 20
11.0479405
 11
-1.0554775
 21
11.0479405
  0
LINE
  5
331
100
AcDbEntity
  8
0
100
AcDbLine
 62
7
  6
CONTINUOUS
 10
-5.4783333327
 20
11.3583497171
 11
-5.37
 21
11.3583497171
  0
LINE
  5
332
100
AcDbEntity
  8
ASSI
100
AcDbLine
 62
7
  6
CONTINUOUS
 10
2.9625885
 20
11.485373
 11
3.1404125
 21
11.485373
  0
LINE
  5
333
100
AcDbEntity
  8
ASSI
100
AcDbLine
 62
7
  6
CONTINUOUS
 10
3.362352
 20
11.485373
 11
3.5401045
 21
11.485373
  0
LINE
  5
334
100
AcDbEntity
  8
0
100
AcDbLine
 62
7
  6
CONTINUOUS
 10
-1.0554775
 20
11.490048
 11
-0.6947949122
 21
11.490048
  0
LINE
  5
335
100
AcDbEntity
  8
0
100
AcDbLine
 62
7
  6
CONTINUOUS
 10
-4.286666708
 20
10.3902645736
 11
-4.156666708
 21
10.362605
  0
LINE
  5
336
100
AcDbEntity
  8
0
100
AcDbLine
 62
7
  6
CONTINUOUS
 10
-4.915
 20
11.6349454288
 11
-5.045
 21
11.662605
  0
LINE
  5
337
100
AcDbEntity
  8
0
100
AcDbLine
 62
7
  6
CONTINUOUS
 10
-4.026666708
 20
11.6349454288
 11
-4.156666708
 21
11.662605
  0
LINE
  5
338
100
AcDbEntity
  8
0
100
AcDbLine
 62
7
  6
CONTINUOUS
 10
-4.156666708
 20
10.5009028752
 11
-4.265
 21
10.5285624464
  0
LINE
  5
339
100
AcDbEntity
  8
0
100
AcDbLine
 62
7
  6
CONTINUOUS
 10
-3.355
 20
10.3902645736
 11
-3.246666584
 21
10.362605
  0
LINE
  5
33A
100
AcDbEntity
  8
0
100
AcDbLine
 62
7
  6
CONTINUOUS
 10
-5.066666677
 20
11.5243071441
 11
-4.958333354
 21
11.496647573
  0
LINE
  5
33B
100
AcDbEntity
  8
0
100
AcDbLine
 62
7
  6
CONTINUOUS
 10
-4.156666708
 20
11.5243071441
 11
-4.048333292
 21
11.496647573
  0
LINE
  5
33C
100
AcDbEntity
  8
0
100
AcDbLine
 62
7
  6
CONTINUOUS
 10
-3.246666584
 20
10.5285624464
 11
-3.333333416
 21
10.5562220176
  0
LINE
  5
33D
100
AcDbEntity
  8
0
100
AcDbLine
 62
7
  6
CONTINUOUS
 10
-0.3500001215
 20
13.1712765925
 11
-0.2421876253
 21
13.0978723373
  0
LINE
  5
33E
100
AcDbEntity
  8
ASSI
100
AcDbLine
 62
7
  6
CONTINUOUS
 10
2.580232
 20
11.1680835
 11
3.1404125
 21
10.6960155
  0
LINE
  5
33F
100
AcDbEntity
  8
ASSI
100
AcDbLine
 62
7
  6
CONTINUOUS
 10
3.1404125
 20
10.9541935
 11
2.5543755
 21
11.44805
  0
LINE
  5
340
100
AcDbEntity
  8
0
100
AcDbLine
 62
7
  6
CONTINUOUS
 10
-0.134375129
 20
13.1957446747
 11
-0.2781249869
 21
13.3425531849
  0
LINE
  5
341
100
AcDbEntity
  8
0
100
AcDbLine
 62
7
  6
CONTINUOUS
 10
-2.5625
 20
16.1010638475
 11
-2.6458332539
 21
16.1861702204
  0
LINE
  5
342
100
AcDbEntity
  8
0
100
AcDbLine
 62
7
  6
CONTINUOUS
 10
0.4406247136
 20
13.9542553425
 11
0.5843749827
 21
13.8074467808
  0
LINE
  5
343
100
AcDbEntity
  8
0
100
AcDbLine
 62
7
  6
CONTINUOUS
 10
2.1656246529
 20
13.1957446747
 11
2.021874795
 21
13.3425531849
  0
LINE
  5
344
100
AcDbEntity
  8
0
100
AcDbLine
 62
7
  6
CONTINUOUS
 10
0.7281248406
 20
13.8808510959
 11
0.656249706
 21
13.9787234247
  0
LINE
  5
345
100
AcDbEntity
  8
0
100
AcDbLine
 62
7
  6
CONTINUOUS
 10
1.8781249372
 20
13.2691489384
 11
1.9499996605
 21
13.1712765925
  0
LINE
  5
346
100
AcDbEntity
  8
0
100
AcDbLine
 62
7
  6
CONTINUOUS
 10
3.0281246225
 20
13.8808510959
 11
2.9562498992
 21
13.9787234247
  0
LINE
  5
347
100
AcDbEntity
  8
0
100
AcDbLine
 62
7
  6
CONTINUOUS
 10
3.0640623954
 20
13.8074467808
 11
3.0281246225
 21
13.8808510959
  0
LINE
  5
348
100
AcDbEntity
  8
0
100
AcDbLine
 62
7
  6
CONTINUOUS
 10
-4.265
 20
11.496647573
 11
-4.156666708
 21
11.5243071441
  0
LINE
  5
349
100
AcDbEntity
  8
0
100
AcDbLine
 62
7
  6
CONTINUOUS
 10
-5.2616666615
 20
11.496647573
 11
-5.153333323
 21
11.5243071441
  0
LINE
  5
34A
100
AcDbEntity
  8
0
100
AcDbLine
 62
7
  6
CONTINUOUS
 10
-4.156666708
 20
11.662605
 11
-4.286666708
 21
11.6349454288
  0
LINE
  5
34B
100
AcDbEntity
  8
0
100
AcDbLine
 62
7
  6
CONTINUOUS
 10
-5.131666677
 20
11.662605
 11
-5.2833333385
 21
11.6349454288
  0
LINE
  5
34C
100
AcDbEntity
  8
0
100
AcDbLine
 62
7
  6
CONTINUOUS
 10
2.6328124106
 20
13.1468085103
 11
2.4531247799
 21
13.1223404281
  0
LINE
  5
34D
100
AcDbEntity
  8
0
100
AcDbLine
 62
7
  6
CONTINUOUS
 10
0.3328122174
 20
13.1468085103
 11
0.1531249979
 21
13.1223404281
  0
LINE
  5
34E
100
AcDbEntity
  8
0
100
AcDbLine
 62
7
  6
CONTINUOUS
 10
2.2734371491
 20
14.0031915069
 11
2.4531247799
 21
14.0276595891
  0
LINE
  5
34F
100
AcDbEntity
  8
0
100
AcDbLine
 62
7
  6
CONTINUOUS
 10
-0.0265626328
 20
14.0031915069
 11
0.1531249979
 21
14.0276595891
  0
LINE
  5
350
100
AcDbEntity
  8
0
100
AcDbLine
 62
7
  6
CONTINUOUS
 10
2.4531247799
 20
13.0
 11
2.6687497723
 21
13.0244680843
  0
LINE
  5
351
100
AcDbEntity
  8
0
100
AcDbLine
 62
7
  6
CONTINUOUS
 10
0.1531249979
 20
13.0
 11
0.3687499903
 21
13.0244680843
  0
LINE
  5
352
100
AcDbEntity
  8
0
100
AcDbLine
 62
7
  6
CONTINUOUS
 10
2.4531247799
 20
14.15
 11
2.2374997874
 21
14.1255319178
  0
LINE
  5
353
100
AcDbEntity
  8
0
100
AcDbLine
 62
7
  6
CONTINUOUS
 10
0.1531249979
 20
14.15
 11
-0.0624999945
 21
14.1255319178
  0
LINE
  5
354
100
AcDbEntity
  8
0
100
AcDbLine
 62
7
  6
CONTINUOUS
 10
-5.153333323
 20
11.5243071441
 11
-5.066666677
 21
11.5243071441
  0
LINE
  5
355
100
AcDbEntity
  8
0
100
AcDbLine
 62
7
  6
CONTINUOUS
 10
0.5495685
 20
11.637395
 11
0.439199
 21
11.637395
  0
LINE
  5
356
100
AcDbEntity
  8
0
100
AcDbLine
 62
7
  6
CONTINUOUS
 10
-0.6546148637
 20
11.637395
 11
-1.2276765
 21
11.637395
  0
LINE
  5
357
100
AcDbEntity
  8
0
100
AcDbLine
 62
7
  6
CONTINUOUS
 10
-1.5401635
 20
11.637395
 11
-1.71241
 21
11.637395
  0
LINE
  5
358
100
AcDbEntity
  8
0
100
AcDbLine
 62
7
  6
CONTINUOUS
 10
-2.813333416
 20
11.662605
 11
-2.943333416
 21
11.662605
  0
LINE
  5
359
100
AcDbEntity
  8
0
100
AcDbLine
 62
7
  6
CONTINUOUS
 10
-5.045
 20
11.662605
 11
-5.131666677
 21
11.662605
  0
LINE
  5
35A
100
AcDbEntity
  8
ASSI
100
AcDbLine
 62
7
  6
CONTINUOUS
 10
3.5401045
 20
11.6948515
 11
2.9625885
 21
11.6948515
  0
LINE
  5
35B
100
AcDbEntity
  8
0
100
AcDbLine
 62
7
  6
CONTINUOUS
 10
-3.2250000031
 20
13.0
 11
-2.9375000304
 21
13.0
  0
LINE
  5
35C
100
AcDbEntity
  8
0
100
AcDbLine
 62
7
  6
CONTINUOUS
 10
-1.7156250048
 20
13.0
 11
-1.5000000124
 21
13.0
  0
LINE
  5
35D
100
AcDbEntity
  8
0
100
AcDbLine
 62
7
  6
CONTINUOUS
 10
1.3031246833
 20
13.0
 11
1.5187496757
 21
13.0
  0
LINE
  5
35E
100
AcDbEntity
  8
0
100
AcDbLine
 62
7
  6
CONTINUOUS
 10
3.6031244652
 20
13.0
 11
3.8187494576
 21
13.0
  0
LINE
  5
35F
100
AcDbEntity
  8
0
100
AcDbLine
 62
7
  6
CONTINUOUS
 10
-2.0750000607
 20
14.0276595891
 11
-0.9968750987
 21
14.0276595891
  0
LINE
  5
360
100
AcDbEntity
  8
0
100
AcDbLine
 62
7
  6
CONTINUOUS
 10
3.8187494576
 20
14.15
 11
3.6031244652
 21
14.15
  0
LINE
  5
361
100
AcDbEntity
  8
0
100
AcDbLine
 62
7
  6
CONTINUOUS
 10
1.5187496757
 20
14.15
 11
1.3031246833
 21
14.15
  0
LINE
  5
362
100
AcDbEntity
  8
0
100
AcDbLine
 62
7
  6
CONTINUOUS
 10
-0.7812501063
 20
14.15
 11
-2.0750000607
 21
14.15
  0
LINE
  5
363
100
AcDbEntity
  8
0
100
AcDbLine
 62
7
  6
CONTINUOUS
 10
-2.3625000849
 20
14.15
 11
-2.5781250773
 21
14.15
  0
LINE
  5
364
100
AcDbEntity
  8
0
100
AcDbLine
 62
7
  6
CONTINUOUS
 10
-3.5843750076
 20
14.15
 11
-3.8
 21
14.15
  0
LINE
  5
365
100
AcDbEntity
  8
0
100
AcDbLine
 62
7
  6
CONTINUOUS
 10
-0.0624999945
 20
13.0244680843
 11
0.1531249979
 21
13.0
  0
LINE
  5
366
100
AcDbEntity
  8
0
100
AcDbLine
 62
7
  6
CONTINUOUS
 10
2.2374997874
 20
13.0244680843
 11
2.4531247799
 21
13.0
  0
LINE
  5
367
100
AcDbEntity
  8
0
100
AcDbLine
 62
7
  6
CONTINUOUS
 10
0.3687499903
 20
14.1255319178
 11
0.1531249979
 21
14.15
  0
LINE
  5
368
100
AcDbEntity
  8
0
100
AcDbLine
 62
7
  6
CONTINUOUS
 10
0.1531249979
 20
13.1223404281
 11
-0.0265626328
 21
13.1468085103
  0
LINE
  5
369
100
AcDbEntity
  8
0
100
AcDbLine
 62
7
  6
CONTINUOUS
 10
2.4531247799
 20
13.1223404281
 11
2.2734371491
 21
13.1468085103
  0
LINE
  5
36A
100
AcDbEntity
  8
0
100
AcDbLine
 62
7
  6
CONTINUOUS
 10
0.1531249979
 20
14.0276595891
 11
0.3328122174
 21
14.0031915069
  0
LINE
  5
36B
100
AcDbEntity
  8
0
100
AcDbLine
 62
7
  6
CONTINUOUS
 10
2.4531247799
 20
14.0276595891
 11
2.6328124106
 21
14.0031915069
  0
LINE
  5
36C
100
AcDbEntity
  8
0
100
AcDbLine
 62
7
  6
CONTINUOUS
 10
-0.2421876253
 20
13.0978723373
 11
-0.0624999945
 21
13.0244680843
  0
LINE
  5
36D
100
AcDbEntity
  8
0
100
AcDbLine
 62
7
  6
CONTINUOUS
 10
2.0578121567
 20
13.0978723373
 11
2.2374997874
 21
13.0244680843
  0
LINE
  5
36E
100
AcDbEntity
  8
0
100
AcDbLine
 62
7
  6
CONTINUOUS
 10
0.5484372098
 20
14.0521276712
 11
0.3687499903
 21
14.1255319178
  0
LINE
  5
36F
100
AcDbEntity
  8
0
100
AcDbLine
 62
7
  6
CONTINUOUS
 10
2.848437403
 20
14.0521276712
 11
2.6687497723
 21
14.1255319178
  0
LINE
  5
370
100
AcDbEntity
  8
0
100
AcDbLine
 62
7
  6
CONTINUOUS
 10
-0.0265626328
 20
13.1468085103
 11
-0.134375129
 21
13.1957446747
  0
LINE
  5
371
100
AcDbEntity
  8
0
100
AcDbLine
 62
7
  6
CONTINUOUS
 10
0.3328122174
 20
14.0031915069
 11
0.4406247136
 21
13.9542553425
  0
LINE
  5
372
100
AcDbEntity
  8
0
100
AcDbLine
 62
7
  6
CONTINUOUS
 10
2.2734371491
 20
13.1468085103
 11
2.1656246529
 21
13.1957446747
  0
LINE
  5
373
100
AcDbEntity
  8
0
100
AcDbLine
 62
7
  6
CONTINUOUS
 10
2.6328124106
 20
14.0031915069
 11
2.7406249068
 21
13.9542553425
  0
LINE
  5
374
100
AcDbEntity
  8
0
100
AcDbLine
 62
7
  6
CONTINUOUS
 10
-2.6458332539
 20
16.1861702204
 11
-2.7291667461
 21
16.2287234068
  0
LINE
  5
375
100
AcDbEntity
  8
0
100
AcDbLine
 62
7
  6
CONTINUOUS
 10
-2.75
 20
16.1010638475
 11
-2.6875
 21
16.0585106611
  0
LINE
  5
376
100
AcDbEntity
  8
0
100
AcDbLine
 62
7
  6
CONTINUOUS
 10
0.656249706
 20
13.9787234247
 11
0.5484372098
 21
14.0521276712
  0
LINE
  5
377
100
AcDbEntity
  8
0
100
AcDbLine
 62
7
  6
CONTINUOUS
 10
1.9499996605
 20
13.1712765925
 11
2.0578121567
 21
13.0978723373
  0
LINE
  5
378
100
AcDbEntity
  8
0
100
AcDbLine
 62
7
  6
CONTINUOUS
 10
2.9562498992
 20
13.9787234247
 11
2.848437403
 21
14.0521276712
  0
LINE
  5
379
100
AcDbEntity
  8
0
100
AcDbLine
 62
7
  6
CONTINUOUS
 10
2.7406249068
 20
13.9542553425
 11
2.8843747647
 21
13.8074467808
  0
LINE
  5
37A
100
AcDbEntity
  8
0
100
AcDbLine
 62
7
  6
CONTINUOUS
 10
5.0416669846
 20
16.25
 11
5.375
 21
15.7606382966
  0
LINE
  5
37B
100
AcDbEntity
  8
0
100
AcDbLine
 62
7
  6
CONTINUOUS
 10
5.4375
 20
15.8457446694
 11
5.1666669846
 21
16.25
  0
LINE
  5
37C
100
AcDbEntity
  8
0
100
AcDbLine
 62
7
  6
CONTINUOUS
 10
4.434911
 20
18.10529
 11
4.9560355
 21
17.0999415
  0
LINE
  5
37D
100
AcDbEntity
  8
0
100
AcDbLine
 62
7
  6
CONTINUOUS
 10
5.541757
 20
17.099948
 11
4.9882224805
 21
18.1678284669
  0
LINE
  5
37E
100
AcDbEntity
  8
0
100
AcDbLine
 62
7
  6
CONTINUOUS
 10
-2.75
 20
15.3989361674
 11
-2.8333332539
 21
15.3776595742
  0
LINE
  5
37F
100
AcDbEntity
  8
0
100
AcDbLine
 62
7
  6
CONTINUOUS
 10
-2.8333332539
 20
15.25
 11
-2.7291667461
 21
15.2712765951
  0
LINE
  5
380
100
AcDbEntity
  8
0
100
AcDbLine
 62
7
  6
CONTINUOUS
 10
-5.5
 20
15.25
 11
-5.375
 21
15.25
  0
LINE
  5
381
100
AcDbEntity
  8
0
100
AcDbLine
 62
7
  6
CONTINUOUS
 10
-5.0833333433
 20
15.25
 11
-4.9166666865
 21
15.25
  0
LINE
  5
382
100
AcDbEntity
  8
0
100
AcDbLine
 62
7
  6
CONTINUOUS
 10
-4.625
 20
15.25
 11
-4.5
 21
15.25
  0
LINE
  5
383
100
AcDbEntity
  8
0
100
AcDbLine
 62
7
  6
CONTINUOUS
 10
-4.3333333731
 20
15.25
 11
-4.2083333731
 21
15.25
  0
LINE
  5
384
100
AcDbEntity
  8
0
100
AcDbLine
 62
7
  6
CONTINUOUS
 10
-3.625
 20
15.25
 11
-3.5
 21
15.25
  0
LINE
  5
385
100
AcDbEntity
  8
0
100
AcDbLine
 62
7
  6
CONTINUOUS
 10
-3.3333332539
 20
15.25
 11
-2.8333332539
 21
15.25
  0
LINE
  5
386
100
AcDbEntity
  8
0
100
AcDbLine
 62
7
  6
CONTINUOUS
 10
-2.3333332539
 20
15.25
 11
-1.5833332539
 21
15.25
  0
LINE
  5
387
100
AcDbEntity
  8
0
100
AcDbLine
 62
7
  6
CONTINUOUS
 10
-0.4166665077
 20
15.25
 11
-0.2916665077
 21
15.25
  0
LINE
  5
388
100
AcDbEntity
  8
0
100
AcDbLine
 62
7
  6
CONTINUOUS
 10
-0.125
 20
15.25
 11
0.0
 21
15.25
  0
LINE
  5
389
100
AcDbEntity
  8
0
100
AcDbLine
 62
7
  6
CONTINUOUS
 10
0.5208334923
 20
15.25
 11
0.7083334923
 21
15.25
  0
LINE
  5
38A
100
AcDbEntity
  8
0
100
AcDbLine
 62
7
  6
CONTINUOUS
 10
1.875
 20
15.25
 11
2.0
 21
15.25
  0
LINE
  5
38B
100
AcDbEntity
  8
0
100
AcDbLine
 62
7
  6
CONTINUOUS
 10
2.5
 20
15.25
 11
2.625
 21
15.25
  0
LINE
  5
38C
100
AcDbEntity
  8
0
100
AcDbLine
 62
7
  6
CONTINUOUS
 10
3.125
 20
15.25
 11
3.25
 21
15.25
  0
LINE
  5
38D
100
AcDbEntity
  8
0
100
AcDbLine
 62
7
  6
CONTINUOUS
 10
3.8333330154
 20
15.25
 11
3.9583330154
 21
15.25
  0
LINE
  5
38E
100
AcDbEntity
  8
0
100
AcDbLine
 62
7
  6
CONTINUOUS
 10
4.125
 20
15.25
 11
4.875
 21
15.25
  0
LINE
  5
38F
100
AcDbEntity
  8
0
100
AcDbLine
 62
7
  6
CONTINUOUS
 10
5.375
 20
15.25
 11
5.5
 21
15.25
  0
LINE
  5
390
100
AcDbEntity
  8
0
100
AcDbLine
 62
7
  6
CONTINUOUS
 10
4.875
 20
15.3776595742
 11
4.25
 21
15.3776595742
  0
LINE
  5
391
100
AcDbEntity
  8
0
100
AcDbLine
 62
7
  6
CONTINUOUS
 10
-1.5833332539
 20
15.3776595742
 11
-2.2083332539
 21
15.3776595742
  0
LINE
  5
392
100
AcDbEntity
  8
0
100
AcDbLine
 62
7
  6
CONTINUOUS
 10
-2.8333332539
 20
15.3776595742
 11
-3.2083332539
 21
15.3776595742
  0
LINE
  5
393
100
AcDbEntity
  8
0
100
AcDbLine
 62
7
  6
CONTINUOUS
 10
-4.125
 20
15.5053191483
 11
-3.7083333731
 21
15.5053191483
  0
LINE
  5
394
100
AcDbEntity
  8
0
100
AcDbLine
 62
7
  6
CONTINUOUS
 10
3.3333330154
 20
15.5053191483
 11
3.75
 21
15.5053191483
  0
LINE
  5
395
100
AcDbEntity
  8
0
100
AcDbLine
 62
7
  6
CONTINUOUS
 10
3.7291669846
 20
15.5904255211
 11
3.3541669846
 21
15.5904255211
  0
LINE
  5
396
100
AcDbEntity
  8
0
100
AcDbLine
 62
7
  6
CONTINUOUS
 10
-3.7291666269
 20
15.5904255211
 11
-4.1041666269
 21
15.5904255211
  0
LINE
  5
397
100
AcDbEntity
  8
0
100
AcDbLine
 62
7
  6
CONTINUOUS
 10
-2.2083332539
 20
15.7180851102
 11
-1.6666667461
 21
15.7180851102
  0
LINE
  5
398
100
AcDbEntity
  8
0
100
AcDbLine
 62
7
  6
CONTINUOUS
 10
-1.6666667461
 20
15.8457446694
 11
-2.2083332539
 21
15.8457446694
  0
LINE
  5
399
100
AcDbEntity
  8
0
100
AcDbLine
 62
7
  6
CONTINUOUS
 10
-3.2083332539
 20
16.1223404408
 11
-2.8333332539
 21
16.1223404408
  0
LINE
  5
39A
100
AcDbEntity
  8
0
100
AcDbLine
 62
7
  6
CONTINUOUS
 10
-2.2083332539
 20
16.1223404408
 11
-1.5833332539
 21
16.1223404408
  0
LINE
  5
39B
100
AcDbEntity
  8
0
100
AcDbLine
 62
7
  6
CONTINUOUS
 10
2.1666665077
 20
16.143617034
 11
2.5
 21
16.143617034
  0
LINE
  5
39C
100
AcDbEntity
  8
0
100
AcDbLine
 62
7
  6
CONTINUOUS
 10
2.625
 20
16.143617034
 11
2.9583330154
 21
16.143617034
  0
LINE
  5
39D
100
AcDbEntity
  8
0
100
AcDbLine
 62
7
  6
CONTINUOUS
 10
5.8333330154
 20
16.25
 11
5.7083330154
 21
16.25
  0
LINE
  5
39E
100
AcDbEntity
  8
0
100
AcDbLine
 62
7
  6
CONTINUOUS
 10
5.1666669846
 20
16.25
 11
5.0416669846
 21
16.25
  0
LINE
  5
39F
100
AcDbEntity
  8
0
100
AcDbLine
 62
7
  6
CONTINUOUS
 10
4.25
 20
16.25
 11
4.125
 21
16.25
  0
LINE
  5
3A0
100
AcDbEntity
  8
0
100
AcDbLine
 62
7
  6
CONTINUOUS
 10
3.625
 20
16.25
 11
3.4583330154
 21
16.25
  0
LINE
  5
3A1
100
AcDbEntity
  8
0
100
AcDbLine
 62
7
  6
CONTINUOUS
 10
2.9583330154
 20
16.25
 11
2.1666665077
 21
16.25
  0
LINE
  5
3A2
100
AcDbEntity
  8
0
100
AcDbLine
 62
7
  6
CONTINUOUS
 10
2.0
 20
16.25
 11
1.875
 21
16.25
  0
LINE
  5
3A3
100
AcDbEntity
  8
0
100
AcDbLine
 62
7
  6
CONTINUOUS
 10
0.7083334923
 20
16.25
 11
0.5833334923
 21
16.25
  0
LINE
  5
3A4
100
AcDbEntity
  8
0
100
AcDbLine
 62
7
  6
CONTINUOUS
 10
0.0625
 20
16.25
 11
-0.125
 21
16.25
  0
LINE
  5
3A5
100
AcDbEntity
  8
0
100
AcDbLine
 62
7
  6
CONTINUOUS
 10
-0.2916665077
 20
16.25
 11
-0.4166665077
 21
16.25
  0
LINE
  5
3A6
100
AcDbEntity
  8
0
100
AcDbLine
 62
7
  6
CONTINUOUS
 10
-1.5833332539
 20
16.25
 11
-2.3333332539
 21
16.25
  0
LINE
  5
3A7
100
AcDbEntity
  8
0
100
AcDbLine
 62
7
  6
CONTINUOUS
 10
-2.8333332539
 20
16.25
 11
-3.3333332539
 21
16.25
  0
LINE
  5
3A8
100
AcDbEntity
  8
0
100
AcDbLine
 62
7
  6
CONTINUOUS
 10
-3.8333333731
 20
16.25
 11
-4.0
 21
16.25
  0
LINE
  5
3A9
100
AcDbEntity
  8
0
100
AcDbLine
 62
7
  6
CONTINUOUS
 10
-4.5
 20
16.25
 11
-4.6875
 21
16.25
  0
LINE
  5
3AA
100
AcDbEntity
  8
0
100
AcDbLine
 62
7
  6
CONTINUOUS
 10
-5.3125
 20
16.25
 11
-5.5
 21
16.25
  0
LINE
  5
3AB
100
AcDbEntity
  8
0
100
AcDbLine
 62
7
  6
CONTINUOUS
 10
2.6687497723
 20
14.1255319178
 11
2.4531247799
 21
14.15
  0
LINE
  5
3AC
100
AcDbEntity
  8
0
100
AcDbLine
 62
7
  6
CONTINUOUS
 10
-2.7291667461
 20
16.2287234068
 11
-2.8333332539
 21
16.25
  0
LINE
  5
3AD
100
AcDbEntity
  8
0
100
AcDbLine
 62
7
  6
CONTINUOUS
 10
-2.8333332539
 20
16.1223404408
 11
-2.75
 21
16.1010638475
  0
LINE
  5
3AE
100
AcDbEntity
  8
0
100
AcDbLine
 62
7
  6
CONTINUOUS
 10
4.9560355
 20
17.0999415
 11
5.541757
 21
17.099948
  0
LINE
  5
3AF
100
AcDbEntity
  8
0
100
AcDbLine
 62
7
  6
CONTINUOUS
 10
0.924625
 20
17.099935
 11
1.4446445
 21
17.0999415
  0
LINE
  5
3B0
100
AcDbEntity
  8
0
100
AcDbLine
 62
7
  6
CONTINUOUS
 10
-1.9653985
 20
17.099935
 11
-1.445379
 21
17.099935
  0
LINE
  5
3B1
100
AcDbEntity
  8
0
100
AcDbLine
 62
7
  6
CONTINUOUS
 10
0.057928
 20
17.099935
 11
0.5779475
 21
17.099935
  0
LINE
  5
3B2
100
AcDbEntity
  8
0
100
AcDbLine
 62
7
  6
CONTINUOUS
 10
3.460964
 20
17.0999415
 11
3.98099
 21
17.0999415
  0
LINE
  5
3B3
100
AcDbEntity
  8
0
100
AcDbLine
 62
7
  6
CONTINUOUS
 10
-0.953732
 20
17.099935
 11
-0.4337255
 21
17.0999415
  0
LINE
  5
3B4
100
AcDbEntity
  8
0
100
AcDbLine
 62
7
  6
CONTINUOUS
 10
-3.0054245
 20
17.0999285
 11
-2.485405
 21
17.099935
  0
LINE
  5
3B5
100
AcDbEntity
  8
0
100
AcDbLine
 62
7
  6
CONTINUOUS
 10
2.5942605
 20
17.0999415
 11
3.1142865
 21
17.099935
  0
LINE
  5
3B6
100
AcDbEntity
  8
0
100
AcDbLine
 62
7
  6
CONTINUOUS
 10
-4.706949
 20
17.0999285
 11
-4.18691
 21
17.099935
  0
LINE
  5
3B7
100
AcDbEntity
  8
0
100
AcDbLine
 62
7
  6
CONTINUOUS
 10
1.608815
 20
17.6112705
 11
2.4300965
 21
17.6112705
  0
LINE
  5
3B8
100
AcDbEntity
  8
0
100
AcDbLine
 62
7
  6
CONTINUOUS
 10
2.2714705
 20
18.10529
 11
1.7674345
 21
18.10529
  0
LINE
  5
3B9
100
AcDbEntity
  8
0
100
AcDbLine
 62
7
  6
CONTINUOUS
 10
3.9810485
 20
18.1052965
 11
4.434911
 21
18.10529
  0
LINE
  5
3BA
100
AcDbEntity
  8
0
100
AcDbLine
 62
7
  6
CONTINUOUS
 10
4.6065303387
 20
18.586316
 11
3.9738205
 21
18.586316
  0
LINE
  5
3BB
100
AcDbEntity
  8
0
100
AcDbLine
 62
7
  6
CONTINUOUS
 10
3.973814
 20
19.219039
 11
4.606496
 21
19.219039
  0
LINE
  5
3BC
100
AcDbEntity
  8
0
100
AcDbLine
 62
7
  6
CONTINUOUS
 10
0.5779475
 20
19.700052
 11
-0.208182
 21
19.700052
  0
LINE
  5
3BD
100
AcDbEntity
  8
0
100
AcDbLine
 62
7
  6
CONTINUOUS
 10
-1.179269
 20
19.700052
 11
-1.9653985
 21
19.700052
  0
LINE
  5
3BE
100
AcDbEntity
  8
0
100
AcDbLine
 62
7
  6
CONTINUOUS
 10
-2.4853985
 20
19.700052
 11
-3.005418
 21
19.700052
  0
LINE
  5
3BF
100
AcDbEntity
  8
0
100
AcDbLine
 62
7
  6
CONTINUOUS
 10
-3.3520955
 20
19.700052
 11
-3.8721215
 21
19.700052
  0
LINE
  5
3C0
100
AcDbEntity
  8
0
100
AcDbLine
 62
7
  6
CONTINUOUS
 10
-5.021731
 20
19.700052
 11
-5.541757
 21
19.700052
  0
LINE
  5
3C1
100
AcDbEntity
  8
0
100
AcDbLine
 62
7
  6
CONTINUOUS
 10
4.67867375
 20
19.7000598257
 11
3.460964
 21
19.7000585
  0
LINE
  5
3C2
100
AcDbEntity
  8
0
100
AcDbLine
 62
7
  6
CONTINUOUS
 10
2.279472
 20
19.7000585
 11
1.7594265
 21
19.7000585
  0
LINE
  5
3C3
100
AcDbEntity
  8
0
100
AcDbLine
 62
7
  6
CONTINUOUS
 10
6.0
 20
20.0
 11
-6.0
 21
20.0
  0
LINE
  5
3C4
100
AcDbEntity
  8
0
100
AcDbLine
 62
7
  6
CONTINUOUS
 10
28.0
 20
-24.5
 11
28.0
 21
24.5
  0
LINE
  5
3C5
100
AcDbEntity
  8
0
100
AcDbLine
 62
7
  6
CONTINUOUS
 10
24.5
 20
28.0
 11
-24.5
 21
28.0
  0
LINE
  5
3C6
100
AcDbEntity
  8
0
100
AcDbLine
 62
7
  6
CONTINUOUS
 10
29.5
 20
24.5
 11
29.5
 21
-24.5
  0
LINE
  5
3C7
100
AcDbEntity
  8
0
100
AcDbLine
 62
7
  6
CONTINUOUS
 10
-24.5
 20
29.5
 11
24.5
 21
29.5
  0
ARC
  5
3C8
100
AcDbEntity
  8
0
100
AcDbCircle
 62
7
  6
CONTINUOUS
 10
-24.5
 20
-24.5
 40
5.0
100
AcDbArc
 50
180.0
 51
270.0
  0
ARC
  5
3C9
100
AcDbEntity
  8
0
100
AcDbCircle
 62
7
  6
CONTINUOUS
 10
-24.5
 20
-24.5
 40
3.5
100
AcDbArc
 50
180.0
 51
270.0
  0
CIRCLE
  5
3CA
100
AcDbEntity
  8
RACCORDO
100
AcDbCircle
 62
250
  6
CONTINUOUS
 10
-19.5
 20
-19.5
 40
2.6246610634
  0
CIRCLE
  5
3CB
100
AcDbEntity
  8
RACCORDO
100
AcDbCircle
 62
250
  6
CONTINUOUS
 10
-19.5
 20
-19.5
 40
1.8788441299
  0
CIRCLE
  5
3CC
100
AcDbEntity
  8
ASSI
100
AcDbCircle
 62
7
  6
CONTINUOUS
 10
-19.5
 20
-19.5
 40
1.6
  0
ARC
  5
3CD
100
AcDbEntity
  8
ASSI
100
AcDbCircle
 62
7
  6
CONTINUOUS
 10
-0.483777
 20
-14.0
 40
1.2749992699
100
AcDbArc
 50
87.7525290943
 51
272.2474709014
  0
ARC
  5
3CE
100
AcDbEntity
  8
ASSI
100
AcDbCircle
 62
7
  6
CONTINUOUS
 10
-0.483777
 20
-14.0
 40
0.8999999623
100
AcDbArc
 50
86.8152613297
 51
273.1847386615
  0
CIRCLE
  5
3CF
100
AcDbEntity
  8
0
100
AcDbCircle
 62
7
  6
CONTINUOUS
 10
-19.5
 20
-19.5
 40
0.825
  0
ARC
  5
3D0
100
AcDbEntity
  8
0
100
AcDbCircle
 62
7
  6
CONTINUOUS
 10
-24.5
 20
24.5
 40
5.0
100
AcDbArc
 50
90.0
 51
180.0
  0
ARC
  5
3D1
100
AcDbEntity
  8
0
100
AcDbCircle
 62
7
  6
CONTINUOUS
 10
-24.5
 20
24.5
 40
3.5
100
AcDbArc
 50
90.0
 51
180.0
  0
CIRCLE
  5
3D2
100
AcDbEntity
  8
RACCORDO
100
AcDbCircle
 62
250
  6
CONTINUOUS
 10
-19.5
 20
19.5
 40
2.6246610634
  0
CIRCLE
  5
3D3
100
AcDbEntity
  8
RACCORDO
100
AcDbCircle
 62
250
  6
CONTINUOUS
 10
-19.5
 20
19.5
 40
1.8788441299
  0
CIRCLE
  5
3D4
100
AcDbEntity
  8
ASSI
100
AcDbCircle
 62
7
  6
CONTINUOUS
 10
-19.5
 20
19.5
 40
1.6
  0
CIRCLE
  5
3D5
100
AcDbEntity
  8
0
100
AcDbCircle
 62
7
  6
CONTINUOUS
 10
-19.5
 20
19.5
 40
0.825
  0
ARC
  5
3D6
100
AcDbEntity
  8
0
100
AcDbCircle
 62
7
  6
CONTINUOUS
 10
24.5
 20
-24.5
 40
5.0
100
AcDbArc
 50
270.0
 51
360.0
  0
ARC
  5
3D7
100
AcDbEntity
  8
0
100
AcDbCircle
 62
7
  6
CONTINUOUS
 10
24.5
 20
-24.5
 40
3.5
100
AcDbArc
 50
270.0
 51
360.0
  0
CIRCLE
  5
3D8
100
AcDbEntity
  8
RACCORDO
100
AcDbCircle
 62
250
  6
CONTINUOUS
 10
19.5
 20
-19.5
 40
2.6246610634
  0
CIRCLE
  5
3D9
100
AcDbEntity
  8
RACCORDO
100
AcDbCircle
 62
250
  6
CONTINUOUS
 10
19.5
 20
-19.5
 40
1.8788441299
  0
CIRCLE
  5
3DA
100
AcDbEntity
  8
ASSI
100
AcDbCircle
 62
7
  6
CONTINUOUS
 10
19.5
 20
-19.5
 40
1.6
  0
ARC
  5
3DB
100
AcDbEntity
  8
ASSI
100
AcDbCircle
 62
7
  6
CONTINUOUS
 10
1.708778
 20
-14.0
 40
1.2749993288
100
AcDbArc
 50
87.7525290889
 51
272.2474707978
  0
ARC
  5
3DC
100
AcDbEntity
  8
ASSI
100
AcDbCircle
 62
7
  6
CONTINUOUS
 10
1.708778
 20
-14.0
 40
0.8999999623
100
AcDbArc
 50
86.8152613297
 51
167.9753001448
  0
ARC
  5
3DD
100
AcDbEntity
  8
ASSI
100
AcDbCircle
 62
7
  6
CONTINUOUS
 10
1.708778
 20
-14.0
 40
0.8999984404
100
AcDbArc
 50
192.0247203293
 51
273.184744278
  0
CIRCLE
  5
3DE
100
AcDbEntity
  8
0
100
AcDbCircle
 62
7
  6
CONTINUOUS
 10
19.5
 20
-19.5
 40
0.825
  0
ARC
  5
3DF
100
AcDbEntity
  8
0
100
AcDbCircle
 62
7
  6
CONTINUOUS
 10
24.5
 20
24.5
 40
5.0
100
AcDbArc
 50
0.0
 51
90.0
  0
ARC
  5
3E0
100
AcDbEntity
  8
0
100
AcDbCircle
 62
7
  6
CONTINUOUS
 10
24.5
 20
24.5
 40
3.5
100
AcDbArc
 50
0.0
 51
90.0
  0
CIRCLE
  5
3E1
100
AcDbEntity
  8
RACCORDO
100
AcDbCircle
 62
250
  6
CONTINUOUS
 10
19.5
 20
19.5
 40
2.6246610634
  0
CIRCLE
  5
3E2
100
AcDbEntity
  8
RACCORDO
100
AcDbCircle
 62
250
  6
CONTINUOUS
 10
19.5
 20
19.5
 40
1.8788441299
  0
CIRCLE
  5
3E3
100
AcDbEntity
  8
ASSI
100
AcDbCircle
 62
7
  6
CONTINUOUS
 10
19.5
 20
19.5
 40
1.6
  0
ARC
  5
3E4
100
AcDbEntity
  8
ASSI
100
AcDbCircle
 62
7
  6
CONTINUOUS
 10
3.25
 20
10.75
 40
1.3118712163
100
AcDbArc
 50
292.0885388093
 51
273.4297297357
  0
ARC
  5
3E5
100
AcDbEntity
  8
ASSI
100
AcDbCircle
 62
7
  6
CONTINUOUS
 10
3.2103215
 20
8.2769535
 40
1.1695093526
100
AcDbArc
 50
47.2312712626
 51
84.2012796087
  0
ARC
  5
3E6
100
AcDbEntity
  8
ASSI
100
AcDbCircle
 62
7
  6
CONTINUOUS
 10
3.302361
 20
8.466388
 40
1.1554747561
100
AcDbArc
 50
45.4348886633
 51
67.5658619906
  0
CIRCLE
  5
3E7
100
AcDbEntity
  8
ASSI
100
AcDbCircle
 62
7
  6
CONTINUOUS
 10
3.25
 20
10.75
 40
1.10188
  0
ARC
  5
3E8
100
AcDbEntity
  8
ASSI
100
AcDbCircle
 62
7
  6
CONTINUOUS
 10
3.25
 20
10.75
 40
0.9854783623
100
AcDbArc
 50
299.3041457634
 51
44.9957848341
  0
ARC
  5
3E9
100
AcDbEntity
  8
ASSI
100
AcDbCircle
 62
7
  6
CONTINUOUS
 10
3.25
 20
10.75
 40
0.9854781822
100
AcDbArc
 50
134.9002846268
 51
240.6958542366
  0
CIRCLE
  5
3EA
100
AcDbEntity
  8
0
100
AcDbCircle
 62
7
  6
CONTINUOUS
 10
19.5
 20
19.5
 40
0.825
  0
ARC
  5
3EB
100
AcDbEntity
  8
0
100
AcDbCircle
 62
7
  6
CONTINUOUS
 10
4.6786735
 20
18.9026765
 40
0.7973846514
100
AcDbArc
 50
292.8428779785
 51
89.9999820363
  0
ARC
  5
3EC
100
AcDbEntity
  8
ASSI
100
AcDbCircle
 62
7
  6
CONTINUOUS
 10
3.25
 20
10.75
 40
0.7895460638
100
AcDbArc
 50
148.0267086216
 51
240.6958772397
  0
ARC
  5
3ED
100
AcDbEntity
  8
ASSI
100
AcDbCircle
 62
7
  6
CONTINUOUS
 10
3.25
 20
10.75
 40
0.7895459988
100
AcDbArc
 50
299.3041227603
 51
31.9732906993
  0
ARC
  5
3EE
100
AcDbEntity
  8
0
100
AcDbCircle
 62
7
  6
CONTINUOUS
 10
4.606496
 20
18.9026765
 40
0.3163625
100
AcDbArc
 50
270.0062190478
 51
90.0
  0
SPLINE
  5
3EF
100
AcDbEntity
  8
0
100
AcDbSpline
 62
7
  6
CONTINUOUS
 70
0
 71
3
 72
14
 73
10
 74
0
 42
0.0000001
 43
0.0000001
 44
0.0000000001
 40
0.0
 40
0.0
 40
0.0
 40
0.0
 40
0.0225391008
 40
0.3772350232
 40
0.5079916496
 40
0.6486376913
 40
0.7545287826
 40
0.9056864693
 40
1.0
 40
1.0
 40
1.0
 40
1.0
 10
-0.276012271
 20
11.2689943553
 30
0.0
 10
-0.276012271
 20
11.2734427236
 30
0.0
 10
-0.2753712908
 20
11.3478020864
 30
0.0
 10
-0.3034012536
 20
11.4521099596
 30
0.0
 10
-0.3847184347
 20
11.5462892199
 30
0.0
 10
-0.4461966231
 20
11.5900297473
 30
0.0
 10
-0.5194342735
 20
11.6191654062
 30
0.0
 10
-0.5875091503
 20
11.6344745518
 30
0.0
 10
-0.6360009297
 20
11.6373950074
 30
0.0
 10
-0.6546148637
 20
11.6373950362
 30
0.0
  0
SPLINE
  5
3F0
100
AcDbEntity
  8
0
100
AcDbSpline
 62
7
  6
CONTINUOUS
 70
0
 71
3
 72
14
 73
10
 74
0
 42
0.0000001
 43
0.0000001
 44
0.0000000001
 40
0.0
 40
0.0
 40
0.0
 40
0.0
 40
0.0943198997
 40
0.2454765234
 40
0.3513668701
 40
0.4920119227
 40
0.6227676296
 40
0.9774610577
 40
1.0
 40
1.0
 40
1.0
 40
1.0
 10
-0.6546190274
 20
10.9005936744
 30
0.0
 10
-0.636003708
 20
10.9005935358
 30
0.0
 10
-0.5875105128
 20
10.9035138523
 30
0.0
 10
-0.5194342735
 20
10.9188233044
 30
0.0
 10
-0.4461966231
 20
10.9479589632
 30
0.0
 10
-0.3847184347
 20
10.9916994906
 30
0.0
 10
-0.3034012536
 20
11.085878751
 30
0.0
 10
-0.2753712908
 20
11.1901866241
 30
0.0
 10
-0.276012271
 20
11.2645459869
 30
0.0
 10
-0.276012271
 20
11.2689943553
 30
0.0
  0
SPLINE
  5
3F1
100
AcDbEntity
  8
0
100
AcDbSpline
 62
7
  6
CONTINUOUS
 70
0
 71
3
 72
13
 73
9
 74
0
 42
0.0000001
 43
0.0000001
 44
0.0000000001
 40
0.0
 40
0.0
 40
0.0
 40
0.0
 40
0.1090099365
 40
0.2629301715
 40
0.3769947114
 40
0.5319516313
 40
0.9696565757
 40
1.0
 40
1.0
 40
1.0
 40
1.0
 10
-0.6947949122
 20
11.4900480208
 30
0.0
 10
-0.6813797087
 20
11.4900480061
 30
0.0
 10
-0.6489816253
 20
11.4882454333
 30
0.0
 10
-0.6033638713
 20
11.4788704267
 30
0.0
 10
-0.5537889733
 20
11.462610696
 30
0.0
 10
-0.4790092191
 20
11.4145510075
 30
0.0
 10
-0.4529046046
 20
11.3301334585
 30
0.0
 10
-0.4535616131
 20
11.2727285396
 30
0.0
 10
-0.4535616131
 20
11.2689943553
 30
0.0
  0
SPLINE
  5
3F2
100
AcDbEntity
  8
0
100
AcDbSpline
 62
7
  6
CONTINUOUS
 70
0
 71
3
 72
13
 73
9
 74
0
 42
0.0000001
 43
0.0000001
 44
0.0000000001
 40
0.0
 40
0.0
 40
0.0
 40
0.0
 40
0.0303430955
 40
0.4680432983
 40
0.6229985395
 40
0.7370618437
 40
0.8909804113
 40
1.0
 40
1.0
 40
1.0
 40
1.0
 10
-0.4535616131
 20
11.2689943553
 30
0.0
 10
-0.4535616131
 20
11.2652601709
 30
0.0
 10
-0.4529046046
 20
11.2078552521
 30
0.0
 10
-0.4790092191
 20
11.123437703
 30
0.0
 10
-0.5537889733
 20
11.0753780145
 30
0.0
 10
-0.6033638713
 20
11.0591182838
 30
0.0
 10
-0.6489829362
 20
11.0497430078
 30
0.0
 10
-0.6813823785
 20
11.0479405559
 30
0.0
 10
-0.6947989117
 20
11.0479406897
 30
0.0
  0
SPLINE
  5
3F3
100
AcDbEntity
  8
0
100
AcDbSpline
 62
7
  6
CONTINUOUS
 70
0
 71
3
 72
16
 73
12
 74
0
 42
0.0000001
 43
0.0000001
 44
0.0000000001
 40
0.0
 40
0.0
 40
0.0
 40
0.0
 40
0.081582199
 40
0.1574553967
 40
0.3066287736
 40
0.384848994
 40
0.5792892447
 40
0.6959714606
 40
0.8475957974
 40
0.961835767
 40
1.0
 40
1.0
 40
1.0
 40
1.0
 10
1.2846227729
 20
11.497111072
 30
0.0
 10
1.3015386
 20
11.497111072
 30
0.0
 10
1.3342575785
 20
11.4928386248
 30
0.0
 10
1.3945789416
 20
11.4708253228
 30
0.0
 10
1.4423507684
 20
11.4266228765
 30
0.0
 10
1.4915957638
 20
11.3541106058
 30
0.0
 10
1.5153575478
 20
11.2753665643
 30
0.0
 10
1.534293665
 20
11.181533159
 30
0.0
 10
1.5436511527
 20
11.1025529144
 30
0.0
 10
1.5456604624
 20
11.0395138236
 30
0.0
 10
1.5455162994
 20
11.0079132406
 30
0.0
 10
1.5455162994
 20
11.0
 30
0.0
  0
SPLINE
  5
3F4
100
AcDbEntity
  8
0
100
AcDbSpline
 62
7
  6
CONTINUOUS
 70
0
 71
3
 72
16
 73
12
 74
0
 42
0.0000001
 43
0.0000001
 44
0.0000000001
 40
0.0
 40
0.0
 40
0.0
 40
0.0
 40
0.038164233
 40
0.1524042026
 40
0.3040285394
 40
0.4207107553
 40
0.615151006
 40
0.6933712264
 40
0.8425446033
 40
0.918417801
 40
1.0
 40
1.0
 40
1.0
 40
1.0
 10
1.5455162994
 20
11.0
 30
0.0
 10
1.5455162994
 20
10.9920867594
 30
0.0
 10
1.5456604624
 20
10.9604861764
 30
0.0
 10
1.5436511527
 20
10.8974470856
 30
0.0
 10
1.534293665
 20
10.818466841
 30
0.0
 10
1.5153575478
 20
10.7246334357
 30
0.0
 10
1.4915957638
 20
10.6458893942
 30
0.0
 10
1.4423507684
 20
10.5733771235
 30
0.0
 10
1.3945789416
 20
10.5291746772
 30
0.0
 10
1.3342575785
 20
10.5071613752
 30
0.0
 10
1.3015386
 20
10.502888928
 30
0.0
 10
1.2846227729
 20
10.502888928
 30
0.0
  0
SPLINE
  5
3F5
100
AcDbEntity
  8
0
100
AcDbSpline
 62
7
  6
CONTINUOUS
 70
0
 71
3
 72
16
 73
12
 74
0
 42
0.0000001
 43
0.0000001
 44
0.0000000001
 40
0.0
 40
0.0
 40
0.0
 40
0.0
 40
0.081582199
 40
0.1574553967
 40
0.3066287736
 40
0.384848994
 40
0.5792892447
 40
0.6959714606
 40
0.8475957974
 40
0.961835767
 40
1.0
 40
1.0
 40
1.0
 40
1.0
 10
1.2846227729
 20
10.502888928
 30
0.0
 10
1.2677069458
 20
10.502888928
 30
0.0
 10
1.2349879673
 20
10.5071613752
 30
0.0
 10
1.1746666042
 20
10.5291746772
 30
0.0
 10
1.1268947774
 20
10.5733771235
 30
0.0
 10
1.077649782
 20
10.6458893942
 30
0.0
 10
1.053887998
 20
10.7246334357
 30
0.0
 10
1.0349518808
 20
10.818466841
 30
0.0
 10
1.0255943931
 20
10.8974470856
 30
0.0
 10
1.0235850834
 20
10.9604861764
 30
0.0
 10
1.0237292464
 20
10.9920867594
 30
0.0
 10
1.0237292464
 20
11.0
 30
0.0
  0
SPLINE
  5
3F6
100
AcDbEntity
  8
0
100
AcDbSpline
 62
7
  6
CONTINUOUS
 70
0
 71
3
 72
16
 73
12
 74
0
 42
0.0000001
 43
0.0000001
 44
0.0000000001
 40
0.0
 40
0.0
 40
0.0
 40
0.0
 40
0.038164233
 40
0.1524042026
 40
0.3040285394
 40
0.4207107553
 40
0.615151006
 40
0.6933712264
 40
0.8425446033
 40
0.918417801
 40
1.0
 40
1.0
 40
1.0
 40
1.0
 10
1.0237292464
 20
11.0
 30
0.0
 10
1.0237292464
 20
11.0079132406
 30
0.0
 10
1.0235850834
 20
11.0395138236
 30
0.0
 10
1.0255943931
 20
11.1025529144
 30
0.0
 10
1.0349518808
 20
11.181533159
 30
0.0
 10
1.053887998
 20
11.2753665643
 30
0.0
 10
1.077649782
 20
11.3541106058
 30
0.0
 10
1.1268947774
 20
11.4266228765
 30
0.0
 10
1.1746666042
 20
11.4708253228
 30
0.0
 10
1.2349879673
 20
11.4928386248
 30
0.0
 10
1.2677069458
 20
11.497111072
 30
0.0
 10
1.2846227729
 20
11.497111072
 30
0.0
  0
SPLINE
  5
3F7
100
AcDbEntity
  8
0
100
AcDbSpline
 62
7
  6
CONTINUOUS
 70
0
 71
3
 72
23
 73
19
 74
0
 42
0.0000001
 43
0.0000001
 44
0.0000000001
 40
0.0
 40
0.0
 40
0.0
 40
0.0
 40
0.1175716721
 40
0.2550368586
 40
0.3463162708
 40
0.4140846673
 40
0.5095606694
 40
0.6178461101
 40
0.6617319017
 40
0.7152414415
 40
0.7583771864
 40
0.8078403706
 40
0.8439461126
 40
0.889742133
 40
0.9288974336
 40
0.9679984913
 40
0.9901309194
 40
1.0
 40
1.0
 40
1.0
 40
1.0
 10
1.2846227729
 20
10.3626092981
 30
0.0
 10
1.3183497219
 20
10.3626092981
 30
0.0
 10
1.3917404161
 20
10.3719300249
 30
0.0
 10
1.4847955217
 20
10.4118780447
 30
0.0
 10
1.5503208732
 20
10.4673132788
 30
0.0
 10
1.5966571048
 20
10.5239437647
 30
0.0
 10
1.6378934215
 20
10.5904933337
 30
0.0
 10
1.6629304241
 20
10.6574423997
 30
0.0
 10
1.6781940485
 20
10.7144249716
 30
0.0
 10
1.6874182542
 20
10.7536835129
 30
0.0
 10
1.6954282869
 20
10.7948308958
 30
0.0
 10
1.7012205654
 20
10.8313038651
 30
0.0
 10
1.705913221
 20
10.8686983976
 30
0.0
 10
1.7091653204
 20
10.9032802846
 30
0.0
 10
1.7113473621
 20
10.9388040737
 30
0.0
 10
1.7122696252
 20
10.9675920114
 30
0.0
 10
1.7124226804
 20
10.9879888984
 30
0.0
 10
1.7124101218
 20
10.9971689271
 30
0.0
 10
1.7124101218
 20
11.0
 30
0.0
  0
SPLINE
  5
3F8
100
AcDbEntity
  8
0
100
AcDbSpline
 62
7
  6
CONTINUOUS
 70
0
 71
3
 72
23
 73
19
 74
0
 42
0.0000001
 43
0.0000001
 44
0.0000000001
 40
0.0
 40
0.0
 40
0.0
 40
0.0
 40
0.0098690806
 40
0.0320015087
 40
0.0711025664
 40
0.110257867
 40
0.1560538874
 40
0.1921596294
 40
0.2416228136
 40
0.2847585585
 40
0.3382680983
 40
0.3821538899
 40
0.4904393306
 40
0.5859153327
 40
0.6536837292
 40
0.7449631414
 40
0.8824283279
 40
1.0
 40
1.0
 40
1.0
 40
1.0
 10
1.7124101218
 20
11.0
 30
0.0
 10
1.7124101218
 20
11.0028310729
 30
0.0
 10
1.7124226804
 20
11.0120111016
 30
0.0
 10
1.7122696252
 20
11.0324079886
 30
0.0
 10
1.7113473621
 20
11.0611959263
 30
0.0
 10
1.7091653204
 20
11.0967197154
 30
0.0
 10
1.705913221
 20
11.1313016024
 30
0.0
 10
1.7012205654
 20
11.1686961349
 30
0.0
 10
1.6954282869
 20
11.2051691042
 30
0.0
 10
1.6874182542
 20
11.2463164871
 30
0.0
 10
1.6781940485
 20
11.2855750284
 30
0.0
 10
1.6629304241
 20
11.3425576003
 30
0.0
 10
1.6378934215
 20
11.4095066663
 30
0.0
 10
1.5966571048
 20
11.4760562353
 30
0.0
 10
1.5503208732
 20
11.5326867212
 30
0.0
 10
1.4847955217
 20
11.5881219553
 30
0.0
 10
1.3917404161
 20
11.6280699751
 30
0.0
 10
1.3183497219
 20
11.6373907019
 30
0.0
 10
1.2846227729
 20
11.6373907019
 30
0.0
  0
SPLINE
  5
3F9
100
AcDbEntity
  8
0
100
AcDbSpline
 62
7
  6
CONTINUOUS
 70
0
 71
3
 72
23
 73
19
 74
0
 42
0.0000001
 43
0.0000001
 44
0.0000000001
 40
0.0
 40
0.0
 40
0.0
 40
0.0
 40
0.1175716721
 40
0.2550368586
 40
0.3463162708
 40
0.4140846673
 40
0.5095606694
 40
0.6178461101
 40
0.6617319017
 40
0.7152414415
 40
0.7583771864
 40
0.8078403706
 40
0.8439461126
 40
0.889742133
 40
0.9288974336
 40
0.9679984913
 40
0.9901309194
 40
1.0
 40
1.0
 40
1.0
 40
1.0
 10
1.2846227729
 20
11.6373907019
 30
0.0
 10
1.2508958239
 20
11.6373907019
 30
0.0
 10
1.1775051297
 20
11.6280699751
 30
0.0
 10
1.0844500241
 20
11.5881219553
 30
0.0
 10
1.0189246726
 20
11.5326867212
 30
0.0
 10
0.972588441
 20
11.4760562353
 30
0.0
 10
0.9313521243
 20
11.4095066663
 30
0.0
 10
0.9063151217
 20
11.3425576003
 30
0.0
 10
0.8910514973
 20
11.2855750284
 30
0.0
 10
0.8818272916
 20
11.2463164871
 30
0.0
 10
0.8738172589
 20
11.2051691042
 30
0.0
 10
0.8680249804
 20
11.1686961349
 30
0.0
 10
0.8633323248
 20
11.1313016024
 30
0.0
 10
0.8600802254
 20
11.0967197154
 30
0.0
 10
0.8578981837
 20
11.0611959263
 30
0.0
 10
0.8569759206
 20
11.0324079886
 30
0.0
 10
0.8568228654
 20
11.0120111016
 30
0.0
 10
0.856835424
 20
11.0028310729
 30
0.0
 10
0.856835424
 20
11.0
 30
0.0
  0
SPLINE
  5
3FA
100
AcDbEntity
  8
0
100
AcDbSpline
 62
7
  6
CONTINUOUS
 70
0
 71
3
 72
23
 73
19
 74
0
 42
0.0000001
 43
0.0000001
 44
0.0000000001
 40
0.0
 40
0.0
 40
0.0
 40
0.0
 40
0.0098690806
 40
0.0320015087
 40
0.0711025664
 40
0.110257867
 40
0.1560538874
 40
0.1921596294
 40
0.2416228136
 40
0.2847585585
 40
0.3382680983
 40
0.3821538899
 40
0.4904393306
 40
0.5859153327
 40
0.6536837292
 40
0.7449631414
 40
0.8824283279
 40
1.0
 40
1.0
 40
1.0
 40
1.0
 10
0.856835424
 20
11.0
 30
0.0
 10
0.856835424
 20
10.9971689271
 30
0.0
 10
0.8568228654
 20
10.9879888984
 30
0.0
 10
0.8569759206
 20
10.9675920114
 30
0.0
 10
0.8578981837
 20
10.9388040737
 30
0.0
 10
0.8600802254
 20
10.9032802846
 30
0.0
 10
0.8633323248
 20
10.8686983976
 30
0.0
 10
0.8680249804
 20
10.8313038651
 30
0.0
 10
0.8738172589
 20
10.7948308958
 30
0.0
 10
0.8818272916
 20
10.7536835129
 30
0.0
 10
0.8910514973
 20
10.7144249716
 30
0.0
 10
0.9063151217
 20
10.6574423997
 30
0.0
 10
0.9313521243
 20
10.5904933337
 30
0.0
 10
0.972588441
 20
10.5239437647
 30
0.0
 10
1.0189246726
 20
10.4673132788
 30
0.0
 10
1.0844500241
 20
10.4118780447
 30
0.0
 10
1.1775051297
 20
10.3719300249
 30
0.0
 10
1.2508958239
 20
10.3626092981
 30
0.0
 10
1.2846227729
 20
10.3626092981
 30
0.0
  0
ENDSEC
  0
SECTION
  2
OBJECTS
  0
DICTIONARY
  5
C
100
AcDbDictionary
280
0
281
1
  3
ACAD_GROUP
350
D
  3
ACAD_MLINESTYLE
350
17
  3
ACAD_LAYOUT
350
1A
  3
ACAD_PLOTSETTINGS
350
19
  3
ACAD_PLOTSTYLENAME
350
E
  0
DICTIONARY
  5
D
102
{ACAD_REACTORS
330
C
102
}
100
AcDbDictionary
280
0
281
1
  0
ACDBDICTIONARYWDFLT
  5
E
102
{ACAD_REACTORS
330
C
102
}
100
AcDbDictionary
281
1
  3
Normal
350
F
100
AcDbDictionaryWithDefault
340
F
  0
DICTIONARY
  5
17
102
{ACAD_REACTORS
330
C
102
}
100
AcDbDictionary
280
0
281
1
  3
Standard
350
18
  0
DICTIONARY
  5
19
102
{ACAD_REACTORS
330
C
102
}
100
AcDbDictionary
281
1
  0
DICTIONARY
  5
1A
102
{ACAD_REACTORS
330
C
102
}
100
AcDbDictionary
281
1
  3
Model
350
3FB
  3
Layout1
350
3FC
  0
ACDBPLACEHOLDER
  5
F
102
{ACAD_REACTORS
330
E
102
}
  0
MLINESTYLE
  5
18
102
{ACAD_REACTORS
330
17
102
}
100
AcDbMlineStyle
  2
STANDARD
 70
0
  3

 62
256
 51
90.0
 52
90.0
 71
2
 49
0.5
 62
256
  6
BYLAYER
 49
-0.5
 62
256
  6
BYLAYER
  0
LAYOUT
  5
3FB
102
{ACAD_REACTORS
330
1A
102
}
100
AcDbPlotSettings
  1

  2
none_device
  4
ISO_A4_(297.00_x_210.00_MM)
  6

 40
0.0
 41
0.0
 42
0.0
 43
0.0
 44
297.0
 45
210.0
 46
0.0
 47
0.0
 48
0.0
 49
0.0
140
0.0
141
0.0
142
1.0
143
1.0
 70
1024
 72
1
 73
0
 74
0
  7

 75
0
147
1.0
148
0.0
149
0.0
100
AcDbLayout
  1
Model
 70
0
 71
0
 10
0.0
 20
0.0
 11
297.0
 21
210.0
 12
0.0
 22
0.0
 32
0.0
 14
0.0
 24
0.0
 34
0.0
 15
0.0
 25
0.0
 35
0.0
146
0.0
 13
0.0
 23
0.0
 33
0.0
 16
1.0
 26
0.0
 36
0.0
 17
0.0
 27
1.0
 37
0.0
 76
0
330
20B
345
0
346
0
  0
LAYOUT
  5
3FC
102
{ACAD_REACTORS
330
1A
102
}
100
AcDbPlotSettings
  1

  2
none_device
  4
ISO_A4_(297.00_x_210.00_MM)
  6

 40
0.0
 41
0.0
 42
0.0
 43
0.0
 44
297.0
 45
210.0
 46
0.0
 47
0.0
 48
0.0
 49
0.0
140
0.0
141
0.0
142
1.0
143
1.0
 70
0
 72
1
 73
0
 74
0
  7

 75
0
147
1.0
148
0.0
149
0.0
100
AcDbLayout
  1
Layout1
 70
0
 71
1
 10
0.0
 20
0.0
 11
297.0
 21
210.0
 12
0.0
 22
0.0
 32
0.0
 14
0.0
 24
0.0
 34
0.0
 15
0.0
 25
0.0
 35
0.0
146
0.0
 13
0.0
 23
0.0
 33
0.0
 16
1.0
 26
0.0
 36
0.0
 17
0.0
 27
1.0
 37
0.0
 76
0
330
20C
345
0
346
0
  0
ENDSEC
  0
EOF
