  0
SECTION
  2
HEADER
  9
$ACADVER
  1
AC1024
  9
$DWGCODEPAGE
  3
ANSI_1252
  9
$EXTMAX
 10
297.0
 20
210.0
 30
0.0
  9
$EXTMIN
 10
0.0
 20
0.0
 30
0.0
  9
$LIMMIN
 10
0.0
 20
0.0
  9
$LIMMAX
 10
297.0
 20
210.0
  9
$VIEWCTR
 10
148.5
 20
105.0
  9
$VIEWSIZE
 40
210.0
  9
$CLAYER
  8
0
  9
$LTSCALE
 40
16.335
  9
$CELTYPE
  6
BYLAYER
  9
$DIMSCALE
 40
1.0
  9
$DIMASZ
 40
3.0
  9
$DIMEXO
 40
0.5
  9
$DIMDLI
 40
11.286
  9
$DIMEXE
 40
1.5
  9
$DIMCEN
 40
2.673
  9
$DIMLFAC
 40
1.0
  9
$DIMBLK
  1
_FILLED
  9
$DIMALT
 70
0
  9
$DIMALTF
 40
0.0393700787
  9
$DIMTXT
 40
3.0
  9
$DIMTOL
 70
1
  9
$DIMLIM
 70
0
  9
$DIMTFAC
 40
1.0
  9
$DIMTP
 40
0.01
  9
$DIMTM
 40
0.01
  9
$DIMGAP
 40
0.625
  9
$DIMDSEP
 70
44
  9
$AUNITS
 70
0
  9
$PDMODE
 70
3
  9
$PDSIZE
 40
3.0
  9
$HANDSEED
  5
4B9
  9
$TILEMODE
 70
1
  9
$MEASUREMENT
 70
1
  9
$INSUNITS
 70
4
  0
ENDSEC
  0
SECTION
  2
CLASSES
  0
CLASS
  1
ACDBDICTIONARYWDFLT
  2
AcDbDictionaryWithDefault
  3
AutoCAD 2000
 90
0
 91
1
280
0
281
0
  0
CLASS
  1
ACDBPLACEHOLDER
  2
AcDbPlaceHolder
  3
AutoCAD 2000
 90
0
 91
1
280
0
281
0
  0
CLASS
  1
LAYOUT
  2
AcDbLayout
  3
AutoCAD 2000
 90
0
 91
0
280
0
281
0
  0
ENDSEC
  0
SECTION
  2
TABLES
  0
TABLE
  2
VPORT
  5
8
100
AcDbSymbolTable
 70
2
  0
VPORT
  5
1F4
100
AcDbSymbolTableRecord
100
AcDbViewportTableRecord
  2
*ACTIVE
 70
0
 10
0.0
 20
0.0
 11
1.0
 21
1.0
 12
148.5
 22
105.0
 13
0.0
 23
0.0
 14
1.0
 24
1.0
 15
0.0
 25
0.0
 16
0.0
 26
0.0
 36
1.0
 17
0.0
 27
0.0
 37
0.0
 40
210.0
 41
1.4142857143
 42
50.0
 43
0.0
 44
0.0
 50
0.0
 51
0.0
 71
0
 72
100
 73
1
 74
1
 75
0
 76
0
 77
0
 78
0
  0
ENDTAB
  0
TABLE
  2
LTYPE
  5
5
100
AcDbSymbolTable
 70
6
  0
LTYPE
  5
14
100
AcDbSymbolTableRecord
100
AcDbLinetypeTableRecord
  2
BYBLOCK
 70
0
  3

 72
65
 73
0
 40
0.0
  0
LTYPE
  5
15
100
AcDbSymbolTableRecord
100
AcDbLinetypeTableRecord
  2
BYLAYER
 70
0
  3

 72
65
 73
0
 40
0.0
  0
LTYPE
  5
16
100
AcDbSymbolTableRecord
100
AcDbLinetypeTableRecord
  2
CONTINUOUS
 70
64
  3
Solid line
 72
65
 73
0
 40
0.0
  0
LTYPE
  5
1F5
100
AcDbSymbolTableRecord
100
AcDbLinetypeTableRecord
  2
CENTER
 70
64
  3
____ _ ____ _ ____ _ ____ _ ____ _ ____ _ ____
 72
65
 73
4
 40
0.6
 49
0.375
 74
0
 49
-0.075
 74
0
 49
0.075
 74
0
 49
-0.075
 74
0
  0
LTYPE
  5
1F6
100
AcDbSymbolTableRecord
100
AcDbLinetypeTableRecord
  2
HIDDEN
 70
64
  3
- - - - - - - - - - - - - - - - - - - -
 72
65
 73
2
 40
0.2
 49
0.1
 74
0
 49
-0.1
 74
0
  0
LTYPE
  5
1F7
100
AcDbSymbolTableRecord
100
AcDbLinetypeTableRecord
  2
PHANTOM
 70
64
  3
_____ _ _ _____ _ _ _____ _ _ _____
 72
65
 73
6
 40
0.8
 49
0.45
 74
0
 49
-0.05
 74
0
 49
0.1
 74
0
 49
-0.05
 74
0
 49
0.1
 74
0
 49
-0.05
 74
0
  0
LTYPE
  5
1F8
100
AcDbSymbolTableRecord
100
AcDbLinetypeTableRecord
  2
DOT
 70
64
  3
. . . . . . . . . . . . . . . . . . . .
 72
65
 73
2
 40
0.2
 49
0.1
 74
0
 49
-0.1
 74
0
  0
LTYPE
  5
1F9
100
AcDbSymbolTableRecord
100
AcDbLinetypeTableRecord
  2
DASHED
 70
64
  3
- - - - - - - - - - - - - - - - - - - -
 72
65
 73
2
 40
0.2
 49
0.1
 74
0
 49
-0.1
 74
0
  0
ENDTAB
  0
TABLE
  2
LAYER
  5
2
100
AcDbSymbolTable
 70
36
  0
LAYER
  5
10
100
AcDbSymbolTableRecord
100
AcDbLayerTableRecord
  2
0
 70
0
 62
7
  6
CONTINUOUS
370
-3
390
F
  0
LAYER
  5
1FA
100
AcDbSymbolTableRecord
100
AcDbLayerTableRecord
  2
DEFAULT_1
 70
0
 62
7
  6
CENTER
370
-3
390
F
  0
LAYER
  5
1FB
100
AcDbSymbolTableRecord
100
AcDbLayerTableRecord
  2
DEFAULT_2
 70
0
 62
7
  6
HIDDEN
370
-3
390
F
  0
LAYER
  5
1FC
100
AcDbSymbolTableRecord
100
AcDbLayerTableRecord
  2
DEFAULT_3
 70
0
 62
7
  6
PHANTOM
370
-3
390
F
  0
LAYER
  5
1FD
100
AcDbSymbolTableRecord
100
AcDbLayerTableRecord
  2
ASSI
 70
0
 62
7
  6
CONTINUOUS
370
-3
390
F
  0
LAYER
  5
1FE
100
AcDbSymbolTableRecord
100
AcDbLayerTableRecord
  2
COORDINATE
 70
0
 62
7
  6
CONTINUOUS
370
-3
390
F
  0
LAYER
  5
1FF
100
AcDbSymbolTableRecord
100
AcDbLayerTableRecord
  2
COPY_PUBLISH
 70
0
 62
7
  6
CONTINUOUS
370
-3
390
F
  0
LAYER
  5
200
100
AcDbSymbolTableRecord
100
AcDbLayerTableRecord
  2
COSMETIC
 70
0
 62
7
  6
CONTINUOUS
370
-3
390
F
  0
LAYER
  5
201
100
AcDbSymbolTableRecord
100
AcDbLayerTableRecord
  2
CURVE
 70
0
 62
7
  6
CONTINUOUS
370
-3
390
F
  0
LAYER
  5
202
100
AcDbSymbolTableRecord
100
AcDbLayerTableRecord
  2
IMPORT_IGES
 70
0
 62
7
  6
CONTINUOUS
370
-3
390
F
  0
LAYER
  5
203
100
AcDbSymbolTableRecord
100
AcDbLayerTableRecord
  2
NOTE
 70
0
 62
7
  6
CONTINUOUS
370
-3
390
F
  0
LAYER
  5
204
100
AcDbSymbolTableRecord
100
AcDbLayerTableRecord
  2
PIANI
 70
0
 62
7
  6
CONTINUOUS
370
-3
390
F
  0
LAYER
  5
205
100
AcDbSymbolTableRecord
100
AcDbLayerTableRecord
  2
PUNTI
 70
0
 62
7
  6
CONTINUOUS
370
-3
390
F
  0
LAYER
  5
206
100
AcDbSymbolTableRecord
100
AcDbLayerTableRecord
  2
RACCORDO
 70
0
 62
7
  6
CONTINUOUS
370
-3
390
F
  0
LAYER
  5
207
100
AcDbSymbolTableRecord
100
AcDbLayerTableRecord
  2
SNAPLINE
 70
0
 62
7
  6
CONTINUOUS
370
-3
390
F
  0
LAYER
  5
208
100
AcDbSymbolTableRecord
100
AcDbLayerTableRecord
  2
TRASH
 70
0
 62
7
  6
CONTINUOUS
370
-3
390
F
  0
ENDTAB
  0
TABLE
  2
STYLE
  5
3
100
AcDbSymbolTable
 70
1
  0
STYLE
  5
11
100
AcDbSymbolTableRecord
100
AcDbTextStyleTableRecord
  2
STANDARD
 70
0
 40
0.0
 41
0.8
 50
0.0
 71
0
 42
0.2
  3
txt
  4

  0
STYLE
  5
209
100
AcDbSymbolTableRecord
100
AcDbTextStyleTableRecord
  2
TEXTSTYLE_1
 70
0
 40
0.0
 41
0.8
 50
0.0
 71
0
 42
0.2
  3
gdt
  4

  0
ENDTAB
  0
TABLE
  2
VIEW
  5
6
100
AcDbSymbolTable
 70
0
  0
ENDTAB
  0
TABLE
  2
UCS
  5
7
100
AcDbSymbolTable
 70
0
  0
ENDTAB
  0
TABLE
  2
APPID
  5
9
100
AcDbSymbolTable
 70
1
  0
APPID
  5
20A
100
AcDbSymbolTableRecord
100
AcDbRegAppTableRecord
  2
ACAD
 70
0
  0
ENDTAB
  0
TABLE
  2
BLOCK_RECORD
  5
1
100
AcDbSymbolTable
 70
0
  0
BLOCK_RECORD
  5
20B
100
AcDbSymbolTableRecord
100
AcDbBlockTableRecord
  2
*Model_Space
  0
BLOCK_RECORD
  5
20C
100
AcDbSymbolTableRecord
100
AcDbBlockTableRecord
  2
*Paper_Space
  0
BLOCK_RECORD
  5
20D
100
AcDbSymbolTableRecord
100
AcDbBlockTableRecord
  2
_FILLED
  0
ENDTAB
  0
TABLE
  2
DIMSTYLE
  5
A
100
AcDbSymbolTable
 70
1
100
AcDbDimStyleTable
 71
0
  0
DIMSTYLE
105
20E
100
AcDbSymbolTableRecord
100
AcDbDimStyleTableRecord
  2
STANDARD
 70
0
  3

  4

 40
1.0
 41
3.0
 42
0.5
 43
0.38
 44
1.5
 45
0.0
 46
0.0
 47
0.01
 48
0.01
140
3.0
141
0.09
142
0.0
143
25.4
144
1.0
145
0.0
146
1.0
147
0.625
 71
1.0
 72
0.0
 73
0
 74
0
 75
0
 76
0
 77
1
 78
8
 79
2
170
0
171
1
172
0
173
0
174
0
175
0
176
0
177
0
178
0
270
2
179
2
271
2
272
2
273
2
274
2
275
0
280
0
281
0
282
0
283
1
284
8
285
0
286
0
287
3
288
0
340
11
278
44
341
20D
342
20D
343
20D
344
20D
  0
ENDTAB
  0
ENDSEC
  0
SECTION
  2
BLOCKS
  0
BLOCK
  5
20
100
AcDbEntity
  8
0
100
AcDbBlockBegin
  2
*Model_Space
 70
0
 10
0.0
 20
0.0
 30
0.0
  3
*Model_Space
  1

  0
ENDBLK
  5
21
100
AcDbEntity
  8
0
100
AcDbBlockEnd
  0
BLOCK
  5
1C
100
AcDbEntity
  8
0
100
AcDbBlockBegin
  2
*Paper_Space
 70
0
 10
0.0
 20
0.0
 30
0.0
  3
*Paper_Space
  1

  0
ENDBLK
  5
1D
100
AcDbEntity
  8
0
100
AcDbBlockEnd
  0
BLOCK
  5
20F
100
AcDbEntity
  8
0
100
AcDbBlockBegin
  2
_FILLED
 70
64
 10
0.0
 20
0.0
  3
_FILLED
  1

  0
SOLID
  5
210
100
AcDbEntity
  8
0
  6
BYBLOCK
 62
0
100
AcDbTrace
 10
0.0
 20
0.0
 11
-1.0
 21
0.3166666667
 12
-1.0
 22
-0.3166666667
 13
-1.0
 23
-0.3166666667
  0
ENDBLK
  5
211
100
AcDbEntity
  8
0
  6
BYBLOCK
 62
0
100
AcDbBlockEnd
  0
ENDSEC
  0
SECTION
  2
ENTITIES
  0
LINE
  5
212
100
AcDbEntity
  8
0
100
AcDbLine
 62
7
  6
CONTINUOUS
 10
-35.5
 20
-24.5
 11
-35.5
 21
24.5
  0
LINE
  5
213
100
AcDbEntity
  8
0
100
AcDbLine
 62
7
  6
CONTINUOUS
 10
-34.0
 20
24.5
 11
-34.0
 21
-24.5
  0
LINE
  5
214
100
AcDbEntity
  8
0
100
AcDbLine
 62
7
  6
CONTINUOUS
 10
30.5
 20
-29.5
 11
-30.5
 21
-29.5
  0
LINE
  5
215
100
AcDbEntity
  8
0
100
AcDbLine
 62
7
  6
CONTINUOUS
 10
-30.5
 20
-28.0
 11
30.5
 21
-28.0
  0
LINE
  5
216
100
AcDbEntity
  8
0
100
AcDbLine
 62
7
  6
CONTINUOUS
 10
-2.6458332539
 20
15.3138297871
 11
-2.5625
 21
15.3989361674
  0
LINE
  5
217
100
AcDbEntity
  8
0
100
AcDbLine
 62
7
  6
CONTINUOUS
 10
-5.3266666615
 20
11.4413284306
 11
-5.2616666615
 21
11.496647573
  0
LINE
  5
218
100
AcDbEntity
  8
0
100
AcDbLine
 62
7
  6
CONTINUOUS
 10
-0.8898303372
 20
14.522340399
 11
-0.7118644051
 21
14.6627659798
  0
LINE
  5
219
100
AcDbEntity
  8
0
100
AcDbLine
 62
7
  6
CONTINUOUS
 10
-2.6875
 20
15.4414893687
 11
-2.75
 21
15.3989361674
  0
LINE
  5
21A
100
AcDbEntity
  8
0
100
AcDbLine
 62
7
  6
CONTINUOUS
 10
-5.2833333385
 20
11.6349454288
 11
-5.37
 21
11.5796262865
  0
LINE
  5
21B
100
AcDbEntity
  8
0
100
AcDbLine
 62
7
  6
CONTINUOUS
 10
1.0677964428
 20
14.85
 11
0.8008472901
 21
14.6861702323
  0
LINE
  5
21C
100
AcDbEntity
  8
0
100
AcDbLine
 62
7
  6
CONTINUOUS
 10
0.8008472901
 20
14.4989361465
 11
1.0677964428
 21
14.6627659798
  0
LINE
  5
21D
100
AcDbEntity
  8
0
100
AcDbLine
 62
7
  6
CONTINUOUS
 10
-0.8453389814
 20
14.7563829899
 11
-0.9788135578
 21
14.6861702323
  0
LINE
  5
21E
100
AcDbEntity
  8
0
100
AcDbLine
 62
7
  6
CONTINUOUS
 10
0.1334744085
 20
13.8436170183
 11
0.2669489848
 21
13.9138297841
  0
LINE
  5
21F
100
AcDbEntity
  8
0
100
AcDbLine
 62
7
  6
CONTINUOUS
 10
2.002118477
 20
14.7563829899
 11
1.8686439007
 21
14.6861702323
  0
LINE
  5
220
100
AcDbEntity
  8
0
100
AcDbLine
 62
7
  6
CONTINUOUS
 10
-0.8453389814
 20
13.2563829899
 11
-0.9788135578
 21
13.1861702323
  0
LINE
  5
221
100
AcDbEntity
  8
0
100
AcDbLine
 62
7
  6
CONTINUOUS
 10
-2.7291667461
 20
15.2712765951
 11
-2.6458332539
 21
15.3138297871
  0
LINE
  5
222
100
AcDbEntity
  8
0
100
AcDbLine
 62
7
  6
CONTINUOUS
 10
-0.7118644051
 20
14.6627659798
 11
-0.5783898288
 21
14.7095744848
  0
LINE
  5
223
100
AcDbEntity
  8
0
100
AcDbLine
 62
7
  6
CONTINUOUS
 10
-0.0000001678
 20
13.9372340366
 11
-0.1334747441
 21
13.8904255316
  0
LINE
  5
224
100
AcDbEntity
  8
0
100
AcDbLine
 62
7
  6
CONTINUOUS
 10
2.1355930533
 20
14.6627659798
 11
2.2690676297
 21
14.7095744848
  0
LINE
  5
225
100
AcDbEntity
  8
0
100
AcDbLine
 62
7
  6
CONTINUOUS
 10
-0.7118644051
 20
13.1627659798
 11
-0.5783898288
 21
13.2095744848
  0
LINE
  5
226
100
AcDbEntity
  8
0
100
AcDbLine
 62
7
  6
CONTINUOUS
 10
4.004237631
 20
14.6627659798
 11
4.1377122073
 21
14.7095744848
  0
LINE
  5
227
100
AcDbEntity
  8
0
100
AcDbLine
 62
7
  6
CONTINUOUS
 10
2.8474577998
 20
13.9372340366
 11
2.7139832235
 21
13.8904255316
  0
LINE
  5
228
100
AcDbEntity
  8
0
100
AcDbLine
 62
7
  6
CONTINUOUS
 10
-0.6228811845
 20
14.8265957475
 11
-0.8453389814
 21
14.7563829899
  0
LINE
  5
229
100
AcDbEntity
  8
0
100
AcDbLine
 62
7
  6
CONTINUOUS
 10
2.2245762739
 20
14.8265957475
 11
2.002118477
 21
14.7563829899
  0
LINE
  5
22A
100
AcDbEntity
  8
0
100
AcDbLine
 62
7
  6
CONTINUOUS
 10
-0.0889828792
 20
13.7734042546
 11
0.1334744085
 21
13.8436170183
  0
LINE
  5
22B
100
AcDbEntity
  8
0
100
AcDbLine
 62
7
  6
CONTINUOUS
 10
-0.6228811845
 20
13.3265957475
 11
-0.8453389814
 21
13.2563829899
  0
LINE
  5
22C
100
AcDbEntity
  8
0
100
AcDbLine
 62
7
  6
CONTINUOUS
 10
2.7584745792
 20
13.7734042546
 11
2.9809323761
 21
13.8436170183
  0
LINE
  5
22D
100
AcDbEntity
  8
0
100
AcDbLine
 62
7
  6
CONTINUOUS
 10
2.2245762739
 20
13.3265957475
 11
2.002118477
 21
13.2563829899
  0
LINE
  5
22E
100
AcDbEntity
  8
ASSI
100
AcDbLine
 62
7
  6
CONTINUOUS
 10
0.8285275
 20
-14.1875
 11
1.558778
 21
-14.1875
  0
LINE
  5
22F
100
AcDbEntity
  8
ASSI
100
AcDbLine
 62
7
  6
CONTINUOUS
 10
1.558778
 20
-13.8125
 11
0.8285259689
 21
-13.8125
  0
LINE
  5
230
100
AcDbEntity
  8
ASSI
100
AcDbLine
 62
7
  6
CONTINUOUS
 10
-0.4882896532
 20
-13.1000408133
 11
-0.433777
 21
-13.10139
  0
LINE
  5
231
100
AcDbEntity
  8
0
100
AcDbLine
 62
7
  6
CONTINUOUS
 10
-3.3881065
 20
19.5375455
 11
-3.8910575
 21
17.9710145
  0
LINE
  5
232
100
AcDbEntity
  8
0
100
AcDbLine
 62
7
  6
CONTINUOUS
 10
-4.0
 20
16.25
 11
-4.3333333731
 21
15.25
  0
LINE
  5
233
100
AcDbEntity
  8
0
100
AcDbLine
 62
7
  6
CONTINUOUS
 10
-4.6875
 20
16.25
 11
-5.0
 21
15.3563829809
  0
LINE
  5
234
100
AcDbEntity
  8
0
100
AcDbLine
 62
7
  6
CONTINUOUS
 10
-4.9166666865
 20
15.25
 11
-4.625
 21
16.0372340679
  0
LINE
  5
235
100
AcDbEntity
  8
0
100
AcDbLine
 62
7
  6
CONTINUOUS
 10
-2.5625
 20
15.3989361674
 11
-2.5208332539
 21
15.4840425551
  0
LINE
  5
236
100
AcDbEntity
  8
0
100
AcDbLine
 62
7
  6
CONTINUOUS
 10
-5.37
 20
11.3583497171
 11
-5.3266666615
 21
11.4413284306
  0
LINE
  5
237
100
AcDbEntity
  8
0
100
AcDbLine
 62
7
  6
CONTINUOUS
 10
-4.785
 20
11.1094134991
 11
-4.741666646
 21
11.1923922126
  0
LINE
  5
238
100
AcDbEntity
  8
0
100
AcDbLine
 62
7
  6
CONTINUOUS
 10
-4.416666708
 20
11.2753709261
 11
-4.33
 21
11.4413284306
  0
LINE
  5
239
100
AcDbEntity
  8
0
100
AcDbLine
 62
7
  6
CONTINUOUS
 10
-4.1822033894
 20
13.75
 11
-3.4703390248
 21
14.85
  0
LINE
  5
23A
100
AcDbEntity
  8
0
100
AcDbLine
 62
7
  6
CONTINUOUS
 10
-4.1822033894
 20
12.25
 11
-3.4703390248
 21
13.35
  0
LINE
  5
23B
100
AcDbEntity
  8
0
100
AcDbLine
 62
7
  6
CONTINUOUS
 10
-3.7372881775
 20
14.85
 11
-4.3601695124
 21
13.8904255316
  0
LINE
  5
23C
100
AcDbEntity
  8
0
100
AcDbLine
 62
7
  6
CONTINUOUS
 10
-3.7372881775
 20
13.35
 11
-4.3601695124
 21
12.3904255316
  0
LINE
  5
23D
100
AcDbEntity
  8
0
100
AcDbLine
 62
7
  6
CONTINUOUS
 10
-2.6458332539
 20
15.5053191483
 11
-2.6875
 21
15.4414893687
  0
LINE
  5
23E
100
AcDbEntity
  8
0
100
AcDbLine
 62
7
  6
CONTINUOUS
 10
-5.37
 20
11.5796262865
 11
-5.4566666654
 21
11.4689880018
  0
LINE
  5
23F
100
AcDbEntity
  8
0
100
AcDbLine
 62
7
  6
CONTINUOUS
 10
-4.395
 20
11.5519667153
 11
-4.46
 21
11.4689880018
  0
LINE
  5
240
100
AcDbEntity
  8
0
100
AcDbLine
 62
7
  6
CONTINUOUS
 10
-3.918333292
 20
10.4732432944
 11
-3.853333292
 21
10.5562220176
  0
LINE
  5
241
100
AcDbEntity
  8
0
100
AcDbLine
 62
7
  6
CONTINUOUS
 10
-4.893333354
 20
11.1923922126
 11
-5.5
 21
10.5009028752
  0
LINE
  5
242
100
AcDbEntity
  8
0
100
AcDbLine
 62
7
  6
CONTINUOUS
 10
-5.3266666615
 20
10.5009028752
 11
-4.785
 21
11.1094134991
  0
LINE
  5
243
100
AcDbEntity
  8
0
100
AcDbLine
 62
7
  6
CONTINUOUS
 10
-1.7796610157
 20
14.7329787374
 11
-2.6694914396
 21
13.75
  0
LINE
  5
244
100
AcDbEntity
  8
0
100
AcDbLine
 62
7
  6
CONTINUOUS
 10
-2.402542287
 20
13.75
 11
-1.512711863
 21
14.7329787374
  0
LINE
  5
245
100
AcDbEntity
  8
0
100
AcDbLine
 62
7
  6
CONTINUOUS
 10
-1.7796610157
 20
13.2329787374
 11
-2.6694914396
 21
12.25
  0
LINE
  5
246
100
AcDbEntity
  8
0
100
AcDbLine
 62
7
  6
CONTINUOUS
 10
-2.402542287
 20
12.25
 11
-1.512711863
 21
13.2329787374
  0
LINE
  5
247
100
AcDbEntity
  8
0
100
AcDbLine
 62
7
  6
CONTINUOUS
 10
-0.9788135578
 20
14.6861702323
 11
-1.0677965238
 21
14.5925532222
  0
LINE
  5
248
100
AcDbEntity
  8
0
100
AcDbLine
 62
7
  6
CONTINUOUS
 10
-0.9788135578
 20
13.1861702323
 11
-1.0677965238
 21
13.0925532222
  0
LINE
  5
249
100
AcDbEntity
  8
0
100
AcDbLine
 62
7
  6
CONTINUOUS
 10
0.2669489848
 20
13.9138297841
 11
0.3559322054
 21
14.0074468106
  0
LINE
  5
24A
100
AcDbEntity
  8
0
100
AcDbLine
 62
7
  6
CONTINUOUS
 10
-4.33
 20
11.4413284306
 11
-4.265
 21
11.496647573
  0
LINE
  5
24B
100
AcDbEntity
  8
0
100
AcDbLine
 62
7
  6
CONTINUOUS
 10
-3.983333292
 20
10.5838815887
 11
-4.048333292
 21
10.5285624464
  0
LINE
  5
24C
100
AcDbEntity
  8
0
100
AcDbLine
 62
7
  6
CONTINUOUS
 10
-3.008333416
 20
10.6115411793
 11
-3.073333416
 21
10.5562220176
  0
LINE
  5
24D
100
AcDbEntity
  8
0
100
AcDbLine
 62
7
  6
CONTINUOUS
 10
0.1779662734
 20
14.0776595682
 11
-0.0000001678
 21
13.9372340366
  0
LINE
  5
24E
100
AcDbEntity
  8
0
100
AcDbLine
 62
7
  6
CONTINUOUS
 10
-0.8898303372
 20
13.022340399
 11
-0.7118644051
 21
13.1627659798
  0
LINE
  5
24F
100
AcDbEntity
  8
0
100
AcDbLine
 62
7
  6
CONTINUOUS
 10
1.9576271213
 20
14.522340399
 11
2.1355930533
 21
14.6627659798
  0
LINE
  5
250
100
AcDbEntity
  8
0
100
AcDbLine
 62
7
  6
CONTINUOUS
 10
0.1779662734
 20
12.5776595682
 11
-0.0000001678
 21
12.4372340366
  0
LINE
  5
251
100
AcDbEntity
  8
0
100
AcDbLine
 62
7
  6
CONTINUOUS
 10
3.0254237319
 20
14.0776595682
 11
2.8474577998
 21
13.9372340366
  0
LINE
  5
252
100
AcDbEntity
  8
0
100
AcDbLine
 62
7
  6
CONTINUOUS
 10
3.9152539012
 20
14.5925532222
 11
4.004237631
 21
14.6627659798
  0
LINE
  5
253
100
AcDbEntity
  8
0
100
AcDbLine
 62
7
  6
CONTINUOUS
 10
1.9576271213
 20
13.022340399
 11
2.1355930533
 21
13.1627659798
  0
LINE
  5
254
100
AcDbEntity
  8
0
100
AcDbLine
 62
7
  6
CONTINUOUS
 10
-4.286666708
 20
11.6349454288
 11
-4.395
 21
11.5519667153
  0
LINE
  5
255
100
AcDbEntity
  8
0
100
AcDbLine
 62
7
  6
CONTINUOUS
 10
-4.026666708
 20
10.3902645736
 11
-3.918333292
 21
10.4732432944
  0
LINE
  5
256
100
AcDbEntity
  8
0
100
AcDbLine
 62
7
  6
CONTINUOUS
 10
-3.051666584
 20
10.3902645736
 11
-2.965
 21
10.4455837232
  0
LINE
  5
257
100
AcDbEntity
  8
0
100
AcDbLine
 62
7
  6
CONTINUOUS
 10
1.0677964428
 20
13.35
 11
0.8008472901
 21
13.1861702323
  0
LINE
  5
258
100
AcDbEntity
  8
0
100
AcDbLine
 62
7
  6
CONTINUOUS
 10
0.8008472901
 20
12.9989361465
 11
1.0677964428
 21
13.1627659798
  0
LINE
  5
259
100
AcDbEntity
  8
0
100
AcDbLine
 62
7
  6
CONTINUOUS
 10
3.9152539012
 20
14.7797872424
 11
3.7372884783
 21
14.6861702323
  0
LINE
  5
25A
100
AcDbEntity
  8
0
100
AcDbLine
 62
7
  6
CONTINUOUS
 10
2.9809323761
 20
13.8436170183
 11
3.1144069525
 21
13.9138297841
  0
LINE
  5
25B
100
AcDbEntity
  8
0
100
AcDbLine
 62
7
  6
CONTINUOUS
 10
0.1334744085
 20
12.3436170183
 11
0.2669489848
 21
12.4138297841
  0
LINE
  5
25C
100
AcDbEntity
  8
0
100
AcDbLine
 62
7
  6
CONTINUOUS
 10
2.002118477
 20
13.2563829899
 11
1.8686439007
 21
13.1861702323
  0
LINE
  5
25D
100
AcDbEntity
  8
0
100
AcDbLine
 62
7
  6
CONTINUOUS
 10
3.9152539012
 20
13.2797872424
 11
3.7372884783
 21
13.1861702323
  0
LINE
  5
25E
100
AcDbEntity
  8
0
100
AcDbLine
 62
7
  6
CONTINUOUS
 10
2.9809323761
 20
12.3436170183
 11
3.1144069525
 21
12.4138297841
  0
LINE
  5
25F
100
AcDbEntity
  8
0
100
AcDbLine
 62
7
  6
CONTINUOUS
 10
4.8940678003
 20
12.9521276414
 11
4.8050850889
 21
12.9053191364
  0
LINE
  5
260
100
AcDbEntity
  8
0
100
AcDbLine
 62
7
  6
CONTINUOUS
 10
4.8940678003
 20
14.4521276414
 11
3.6483047486
 21
13.867021279
  0
LINE
  5
261
100
AcDbEntity
  8
0
100
AcDbLine
 62
7
  6
CONTINUOUS
 10
4.004237631
 20
13.867021279
 11
5.1165250881
 21
14.3819148839
  0
LINE
  5
262
100
AcDbEntity
  8
0
100
AcDbLine
 62
7
  6
CONTINUOUS
 10
4.8940678003
 20
12.8117021263
 11
5.0720342415
 21
12.8819148839
  0
LINE
  5
263
100
AcDbEntity
  8
0
100
AcDbLine
 62
7
  6
CONTINUOUS
 10
-0.0000001678
 20
12.4372340366
 11
-0.1334747441
 21
12.3904255316
  0
LINE
  5
264
100
AcDbEntity
  8
0
100
AcDbLine
 62
7
  6
CONTINUOUS
 10
2.1355930533
 20
13.1627659798
 11
2.2690676297
 21
13.2095744848
  0
LINE
  5
265
100
AcDbEntity
  8
0
100
AcDbLine
 62
7
  6
CONTINUOUS
 10
4.004237631
 20
13.1627659798
 11
4.1377122073
 21
13.2095744848
  0
LINE
  5
266
100
AcDbEntity
  8
0
100
AcDbLine
 62
7
  6
CONTINUOUS
 10
2.8474577998
 20
12.4372340366
 11
2.7139832235
 21
12.3904255316
  0
LINE
  5
267
100
AcDbEntity
  8
0
100
AcDbLine
 62
7
  6
CONTINUOUS
 10
4.9830505118
 20
12.3202127658
 11
5.1165250881
 21
12.367021279
  0
LINE
  5
268
100
AcDbEntity
  8
0
100
AcDbLine
 62
7
  6
CONTINUOUS
 10
-3.073333416
 20
10.5562220176
 11
-3.16
 21
10.5285624464
  0
LINE
  5
269
100
AcDbEntity
  8
0
100
AcDbLine
 62
7
  6
CONTINUOUS
 10
-0.0889828792
 20
12.2734042546
 11
0.1334744085
 21
12.3436170183
  0
LINE
  5
26A
100
AcDbEntity
  8
0
100
AcDbLine
 62
7
  6
CONTINUOUS
 10
2.7584745792
 20
12.2734042546
 11
2.9809323761
 21
12.3436170183
  0
LINE
  5
26B
100
AcDbEntity
  8
0
100
AcDbLine
 62
7
  6
CONTINUOUS
 10
-6.0
 20
20.0
 11
-6.0
 21
8.0
  0
LINE
  5
26C
100
AcDbEntity
  8
0
100
AcDbLine
 62
7
  6
CONTINUOUS
 10
-4.438333292
 20
11.1094134991
 11
-4.416666708
 21
11.2753709261
  0
LINE
  5
26D
100
AcDbEntity
  8
0
100
AcDbLine
 62
7
  6
CONTINUOUS
 10
-4.525
 20
11.2753709261
 11
-4.546666646
 21
11.1370730703
  0
LINE
  5
26E
100
AcDbEntity
  8
0
100
AcDbLine
 62
7
  6
CONTINUOUS
 10
-5.4566666654
 20
11.4689880018
 11
-5.4783333327
 21
11.3583497171
  0
LINE
  5
26F
100
AcDbEntity
  8
0
100
AcDbLine
 62
7
  6
CONTINUOUS
 10
-4.741666646
 20
11.1923922126
 11
-4.72
 21
11.3030304973
  0
LINE
  5
270
100
AcDbEntity
  8
0
100
AcDbLine
 62
7
  6
CONTINUOUS
 10
-2.625
 20
15.5904255211
 11
-2.6458332539
 21
15.5053191483
  0
LINE
  5
271
100
AcDbEntity
  8
0
100
AcDbLine
 62
7
  6
CONTINUOUS
 10
-4.503333354
 20
11.3583497171
 11
-4.525
 21
11.2753709261
  0
LINE
  5
272
100
AcDbEntity
  8
0
100
AcDbLine
 62
7
  6
CONTINUOUS
 10
-3.81
 20
10.6668603216
 11
-3.788333292
 21
10.7498390351
  0
LINE
  5
273
100
AcDbEntity
  8
0
100
AcDbLine
 62
7
  6
CONTINUOUS
 10
-3.6635465
 20
17.262443
 11
-2.9330835
 21
19.5375455
  0
LINE
  5
274
100
AcDbEntity
  8
0
100
AcDbLine
 62
7
  6
CONTINUOUS
 10
-4.1041666269
 20
15.5904255211
 11
-3.9166666269
 21
16.1648936272
  0
LINE
  5
275
100
AcDbEntity
  8
0
100
AcDbLine
 62
7
  6
CONTINUOUS
 10
-4.2083333731
 20
15.25
 11
-4.125
 21
15.5053191483
  0
LINE
  5
276
100
AcDbEntity
  8
0
100
AcDbLine
 62
7
  6
CONTINUOUS
 10
-1.1122881341
 20
14.522340399
 11
-1.1567797444
 21
14.4053191364
  0
LINE
  5
277
100
AcDbEntity
  8
0
100
AcDbLine
 62
7
  6
CONTINUOUS
 10
-4.85
 20
11.3030304973
 11
-4.893333354
 21
11.1923922126
  0
LINE
  5
278
100
AcDbEntity
  8
0
100
AcDbLine
 62
7
  6
CONTINUOUS
 10
-4.46
 20
11.4689880018
 11
-4.503333354
 21
11.3583497171
  0
LINE
  5
279
100
AcDbEntity
  8
0
100
AcDbLine
 62
7
  6
CONTINUOUS
 10
-3.853333292
 20
10.5562220176
 11
-3.81
 21
10.6668603216
  0
LINE
  5
27A
100
AcDbEntity
  8
0
100
AcDbLine
 62
7
  6
CONTINUOUS
 10
-2.878333416
 20
10.5562220176
 11
-2.835
 21
10.6668603216
  0
LINE
  5
27B
100
AcDbEntity
  8
0
100
AcDbLine
 62
7
  6
CONTINUOUS
 10
-3.896666708
 20
10.7498390351
 11
-3.983333292
 21
10.5838815887
  0
LINE
  5
27C
100
AcDbEntity
  8
0
100
AcDbLine
 62
7
  6
CONTINUOUS
 10
-2.965
 20
10.6945198928
 11
-3.008333416
 21
10.6115411793
  0
LINE
  5
27D
100
AcDbEntity
  8
0
100
AcDbLine
 62
7
  6
CONTINUOUS
 10
-1.0677965238
 20
14.5925532222
 11
-1.1122881341
 21
14.522340399
  0
LINE
  5
27E
100
AcDbEntity
  8
0
100
AcDbLine
 62
7
  6
CONTINUOUS
 10
-1.0677965238
 20
13.0925532222
 11
-1.1122881341
 21
13.022340399
  0
LINE
  5
27F
100
AcDbEntity
  8
0
100
AcDbLine
 62
7
  6
CONTINUOUS
 10
0.3559322054
 20
14.0074468106
 11
0.4004235612
 21
14.0776595682
  0
LINE
  5
280
100
AcDbEntity
  8
0
100
AcDbLine
 62
7
  6
CONTINUOUS
 10
0.3559322054
 20
12.5074468106
 11
0.4004235612
 21
12.5776595682
  0
LINE
  5
281
100
AcDbEntity
  8
0
100
AcDbLine
 62
7
  6
CONTINUOUS
 10
1.7796611893
 20
14.5925532222
 11
1.7351693244
 21
14.522340399
  0
LINE
  5
282
100
AcDbEntity
  8
0
100
AcDbLine
 62
7
  6
CONTINUOUS
 10
-0.0079365
 20
10.801152
 11
0.393325
 21
11.3726105
  0
LINE
  5
283
100
AcDbEntity
  8
0
100
AcDbLine
 62
7
  6
CONTINUOUS
 10
0.439199
 20
11.637395
 11
-0.1517275
 21
10.818907
  0
LINE
  5
284
100
AcDbEntity
  8
0
100
AcDbLine
 62
7
  6
CONTINUOUS
 10
-2.965
 20
10.4455837232
 11
-2.878333416
 21
10.5562220176
  0
LINE
  5
285
100
AcDbEntity
  8
0
100
AcDbLine
 62
7
  6
CONTINUOUS
 10
1.8686439007
 20
14.6861702323
 11
1.7796611893
 21
14.5925532222
  0
LINE
  5
286
100
AcDbEntity
  8
0
100
AcDbLine
 62
7
  6
CONTINUOUS
 10
0.2669489848
 20
12.4138297841
 11
0.3559322054
 21
12.5074468106
  0
LINE
  5
287
100
AcDbEntity
  8
0
100
AcDbLine
 62
7
  6
CONTINUOUS
 10
1.8686439007
 20
13.1861702323
 11
1.7796611893
 21
13.0925532222
  0
LINE
  5
288
100
AcDbEntity
  8
0
100
AcDbLine
 62
7
  6
CONTINUOUS
 10
3.1144069525
 20
13.9138297841
 11
3.2033896639
 21
14.0074468106
  0
LINE
  5
289
100
AcDbEntity
  8
0
100
AcDbLine
 62
7
  6
CONTINUOUS
 10
4.9830505118
 20
14.5457446516
 11
4.8940678003
 21
14.4521276414
  0
LINE
  5
28A
100
AcDbEntity
  8
0
100
AcDbLine
 62
7
  6
CONTINUOUS
 10
3.1144069525
 20
12.4138297841
 11
3.2033896639
 21
12.5074468106
  0
LINE
  5
28B
100
AcDbEntity
  8
ASSI
100
AcDbLine
 62
7
  6
CONTINUOUS
 10
3.9468896947
 20
11.4467871641
 11
3.362352
 21
10.9541935
  0
LINE
  5
28C
100
AcDbEntity
  8
ASSI
100
AcDbLine
 62
7
  6
CONTINUOUS
 10
3.362352
 20
10.6983455
 11
3.9197679491
 21
11.1680834571
  0
LINE
  5
28D
100
AcDbEntity
  8
0
100
AcDbLine
 62
7
  6
CONTINUOUS
 10
5.1165250881
 20
14.3819148839
 11
5.2055088179
 21
14.4521276414
  0
LINE
  5
28E
100
AcDbEntity
  8
0
100
AcDbLine
 62
7
  6
CONTINUOUS
 10
3.0254237319
 20
12.5776595682
 11
2.8474577998
 21
12.4372340366
  0
LINE
  5
28F
100
AcDbEntity
  8
0
100
AcDbLine
 62
7
  6
CONTINUOUS
 10
3.9152539012
 20
13.0925532222
 11
4.004237631
 21
13.1627659798
  0
LINE
  5
290
100
AcDbEntity
  8
0
100
AcDbLine
 62
7
  6
CONTINUOUS
 10
5.0720342415
 20
12.8819148839
 11
5.161016953
 21
12.9521276414
  0
LINE
  5
291
100
AcDbEntity
  8
0
100
AcDbLine
 62
7
  6
CONTINUOUS
 10
5.1165250881
 20
12.367021279
 11
5.2055088179
 21
12.4372340366
  0
LINE
  5
292
100
AcDbEntity
  8
0
100
AcDbLine
 62
7
  6
CONTINUOUS
 10
4.9830505118
 20
12.4606383055
 11
4.8940678003
 21
12.4138297841
  0
LINE
  5
293
100
AcDbEntity
  8
0
100
AcDbLine
 62
7
  6
CONTINUOUS
 10
-5.5
 20
16.25
 11
-5.5
 21
15.25
  0
LINE
  5
294
100
AcDbEntity
  8
0
100
AcDbLine
 62
7
  6
CONTINUOUS
 10
-5.5
 20
10.5009028752
 11
-5.5
 21
10.362605
  0
LINE
  5
295
100
AcDbEntity
  8
0
100
AcDbLine
 62
7
  6
CONTINUOUS
 10
-5.375
 20
15.25
 11
-5.375
 21
16.0372340679
  0
LINE
  5
296
100
AcDbEntity
  8
0
100
AcDbLine
 62
7
  6
CONTINUOUS
 10
-4.85
 20
11.3583497171
 11
-4.85
 21
11.3030304973
  0
LINE
  5
297
100
AcDbEntity
  8
0
100
AcDbLine
 62
7
  6
CONTINUOUS
 10
-4.72
 20
10.362605
 11
-4.72
 21
10.5009028752
  0
LINE
  5
298
100
AcDbEntity
  8
0
100
AcDbLine
 62
7
  6
CONTINUOUS
 10
-4.72
 20
11.3030304973
 11
-4.72
 21
11.3583497171
  0
LINE
  5
299
100
AcDbEntity
  8
0
100
AcDbLine
 62
7
  6
CONTINUOUS
 10
-4.625
 20
16.0372340679
 11
-4.625
 21
15.25
  0
LINE
  5
29A
100
AcDbEntity
  8
0
100
AcDbLine
 62
7
  6
CONTINUOUS
 10
-4.546666646
 20
11.1370730703
 11
-4.546666646
 21
10.8881369297
  0
LINE
  5
29B
100
AcDbEntity
  8
0
100
AcDbLine
 62
7
  6
CONTINUOUS
 10
-4.5
 20
15.25
 11
-4.5
 21
16.25
  0
LINE
  5
29C
100
AcDbEntity
  8
0
100
AcDbLine
 62
7
  6
CONTINUOUS
 10
-4.438333292
 20
10.9157965009
 11
-4.438333292
 21
11.1094134991
  0
LINE
  5
29D
100
AcDbEntity
  8
0
100
AcDbLine
 62
7
  6
CONTINUOUS
 10
-3.875
 20
11.1094134991
 11
-3.875
 21
10.9157965009
  0
LINE
  5
29E
100
AcDbEntity
  8
0
100
AcDbLine
 62
7
  6
CONTINUOUS
 10
-3.766666708
 20
10.8881369297
 11
-3.766666708
 21
11.1370730703
  0
LINE
  5
29F
100
AcDbEntity
  8
0
100
AcDbLine
 62
7
  6
CONTINUOUS
 10
-3.3333332539
 20
16.25
 11
-3.3333332539
 21
15.25
  0
LINE
  5
2A0
100
AcDbEntity
  8
0
100
AcDbLine
 62
7
  6
CONTINUOUS
 10
-3.2083332539
 20
15.3776595742
 11
-3.2083332539
 21
16.1223404408
  0
LINE
  5
2A1
100
AcDbEntity
  8
0
100
AcDbLine
 62
7
  6
CONTINUOUS
 10
-3.1144067789
 20
14.85
 11
-3.1144067789
 21
14.7329787374
  0
LINE
  5
2A2
100
AcDbEntity
  8
0
100
AcDbLine
 62
7
  6
CONTINUOUS
 10
-3.1144067789
 20
13.35
 11
-3.1144067789
 21
13.2329787374
  0
LINE
  5
2A3
100
AcDbEntity
  8
0
100
AcDbLine
 62
7
  6
CONTINUOUS
 10
-2.943333416
 20
11.662605
 11
-2.943333416
 21
10.8051581775
  0
LINE
  5
2A4
100
AcDbEntity
  8
0
100
AcDbLine
 62
7
  6
CONTINUOUS
 10
-2.813333416
 20
10.8051581775
 11
-2.813333416
 21
11.662605
  0
LINE
  5
2A5
100
AcDbEntity
  8
0
100
AcDbLine
 62
7
  6
CONTINUOUS
 10
-3.875
 20
10.9157965009
 11
-3.896666708
 21
10.7498390351
  0
LINE
  5
2A6
100
AcDbEntity
  8
0
100
AcDbLine
 62
7
  6
CONTINUOUS
 10
-3.788333292
 20
10.7498390351
 11
-3.766666708
 21
10.8881369297
  0
LINE
  5
2A7
100
AcDbEntity
  8
0
100
AcDbLine
 62
7
  6
CONTINUOUS
 10
-2.835
 20
10.6668603216
 11
-2.813333416
 21
10.8051581775
  0
LINE
  5
2A8
100
AcDbEntity
  8
0
100
AcDbLine
 62
7
  6
CONTINUOUS
 10
-2.5208332539
 20
15.4840425551
 11
-2.5
 21
15.5904255211
  0
LINE
  5
2A9
100
AcDbEntity
  8
0
100
AcDbLine
 62
7
  6
CONTINUOUS
 10
-2.943333416
 20
10.8051581775
 11
-2.965
 21
10.6945198928
  0
LINE
  5
2AA
100
AcDbEntity
  8
0
100
AcDbLine
 62
7
  6
CONTINUOUS
 10
-0.1821595
 20
19.5375455
 11
-0.60701
 21
18.0559175
  0
LINE
  5
2AB
100
AcDbEntity
  8
0
100
AcDbLine
 62
7
  6
CONTINUOUS
 10
-0.37951
 20
17.262449
 11
0.0506815
 21
18.7627205
  0
LINE
  5
2AC
100
AcDbEntity
  8
0
100
AcDbLine
 62
7
  6
CONTINUOUS
 10
-0.934322202
 20
14.3819148839
 11
-0.8898303372
 21
14.522340399
  0
LINE
  5
2AD
100
AcDbEntity
  8
0
100
AcDbLine
 62
7
  6
CONTINUOUS
 10
-0.934322202
 20
12.8819148839
 11
-0.8898303372
 21
13.022340399
  0
LINE
  5
2AE
100
AcDbEntity
  8
0
100
AcDbLine
 62
7
  6
CONTINUOUS
 10
0.2224576291
 20
14.2180851161
 11
0.1779662734
 21
14.0776595682
  0
LINE
  5
2AF
100
AcDbEntity
  8
0
100
AcDbLine
 62
7
  6
CONTINUOUS
 10
0.2224576291
 20
12.7180851161
 11
0.1779662734
 21
12.5776595682
  0
LINE
  5
2B0
100
AcDbEntity
  8
0
100
AcDbLine
 62
7
  6
CONTINUOUS
 10
1.539498
 20
19.537551
 11
0.809047
 21
17.262443
  0
LINE
  5
2B1
100
AcDbEntity
  8
0
100
AcDbLine
 62
7
  6
CONTINUOUS
 10
1.264064
 20
17.262449
 11
1.407713
 21
17.7098615
  0
LINE
  5
2B2
100
AcDbEntity
  8
0
100
AcDbLine
 62
7
  6
CONTINUOUS
 10
1.546505
 20
18.1421285
 11
1.7670155
 21
18.828974
  0
LINE
  5
2B3
100
AcDbEntity
  8
0
100
AcDbLine
 62
7
  6
CONTINUOUS
 10
-1.1122881341
 20
13.022340399
 11
-1.1567797444
 21
12.9053191364
  0
LINE
  5
2B4
100
AcDbEntity
  8
0
100
AcDbLine
 62
7
  6
CONTINUOUS
 10
0.4004235612
 20
14.0776595682
 11
0.4449154261
 21
14.1946808636
  0
LINE
  5
2B5
100
AcDbEntity
  8
0
100
AcDbLine
 62
7
  6
CONTINUOUS
 10
0.4004235612
 20
12.5776595682
 11
0.4449154261
 21
12.6946808636
  0
LINE
  5
2B6
100
AcDbEntity
  8
0
100
AcDbLine
 62
7
  6
CONTINUOUS
 10
1.7351693244
 20
14.522340399
 11
1.6906779687
 21
14.4053191364
  0
LINE
  5
2B7
100
AcDbEntity
  8
0
100
AcDbLine
 62
7
  6
CONTINUOUS
 10
1.7351693244
 20
13.022340399
 11
1.6906779687
 21
12.9053191364
  0
LINE
  5
2B8
100
AcDbEntity
  8
0
100
AcDbLine
 62
7
  6
CONTINUOUS
 10
3.7372884783
 20
14.6861702323
 11
3.6927966135
 21
14.5925532222
  0
LINE
  5
2B9
100
AcDbEntity
  8
0
100
AcDbLine
 62
7
  6
CONTINUOUS
 10
1.7796611893
 20
13.0925532222
 11
1.7351693244
 21
13.022340399
  0
LINE
  5
2BA
100
AcDbEntity
  8
0
100
AcDbLine
 62
7
  6
CONTINUOUS
 10
3.2033896639
 20
14.0074468106
 11
3.2478815288
 21
14.0776595682
  0
LINE
  5
2BB
100
AcDbEntity
  8
0
100
AcDbLine
 62
7
  6
CONTINUOUS
 10
3.2033896639
 20
12.5074468106
 11
3.2478815288
 21
12.5776595682
  0
LINE
  5
2BC
100
AcDbEntity
  8
0
100
AcDbLine
 62
7
  6
CONTINUOUS
 10
5.7083330154
 20
16.25
 11
5.4375
 21
15.8457446694
  0
LINE
  5
2BD
100
AcDbEntity
  8
0
100
AcDbLine
 62
7
  6
CONTINUOUS
 10
5.5
 20
15.7606382966
 11
5.8333330154
 21
16.25
  0
LINE
  5
2BE
100
AcDbEntity
  8
0
100
AcDbLine
 62
7
  6
CONTINUOUS
 10
4.9830505118
 20
13.0457446516
 11
4.8940678003
 21
12.9521276414
  0
LINE
  5
2BF
100
AcDbEntity
  8
0
100
AcDbLine
 62
7
  6
CONTINUOUS
 10
5.0275423767
 20
12.5074468106
 11
4.9830505118
 21
12.4606383055
  0
LINE
  5
2C0
100
AcDbEntity
  8
0
100
AcDbLine
 62
7
  6
CONTINUOUS
 10
-4.546666646
 20
10.8881369297
 11
-4.525
 21
10.7498390351
  0
LINE
  5
2C1
100
AcDbEntity
  8
0
100
AcDbLine
 62
7
  6
CONTINUOUS
 10
-4.416666708
 20
10.7498390351
 11
-4.438333292
 21
10.9157965009
  0
LINE
  5
2C2
100
AcDbEntity
  8
0
100
AcDbLine
 62
7
  6
CONTINUOUS
 10
-2.629741
 20
19.5375455
 11
-2.6297465
 21
17.2624375
  0
LINE
  5
2C3
100
AcDbEntity
  8
0
100
AcDbLine
 62
7
  6
CONTINUOUS
 10
-2.625
 20
15.9095744491
 11
-2.625
 21
15.5904255211
  0
LINE
  5
2C4
100
AcDbEntity
  8
0
100
AcDbLine
 62
7
  6
CONTINUOUS
 10
-2.5
 20
15.5904255211
 11
-2.5
 21
15.9095744491
  0
LINE
  5
2C5
100
AcDbEntity
  8
0
100
AcDbLine
 62
7
  6
CONTINUOUS
 10
-2.3333332539
 20
16.25
 11
-2.3333332539
 21
15.25
  0
LINE
  5
2C6
100
AcDbEntity
  8
0
100
AcDbLine
 62
7
  6
CONTINUOUS
 10
-2.2083332539
 20
15.3776595742
 11
-2.2083332539
 21
15.7180851102
  0
LINE
  5
2C7
100
AcDbEntity
  8
0
100
AcDbLine
 62
7
  6
CONTINUOUS
 10
-2.2083332539
 20
15.8457446694
 11
-2.2083332539
 21
16.1223404408
  0
LINE
  5
2C8
100
AcDbEntity
  8
0
100
AcDbLine
 62
7
  6
CONTINUOUS
 10
-2.1747295
 20
17.262443
 11
-2.1747235
 21
19.5375455
  0
LINE
  5
2C9
100
AcDbEntity
  8
0
100
AcDbLine
 62
7
  6
CONTINUOUS
 10
-1.7197235
 20
19.5375455
 11
-1.7197235
 21
17.262443
  0
LINE
  5
2CA
100
AcDbEntity
  8
0
100
AcDbLine
 62
7
  6
CONTINUOUS
 10
-1.71241
 20
11.637395
 11
-1.71241
 21
10.362605
  0
LINE
  5
2CB
100
AcDbEntity
  8
0
100
AcDbLine
 62
7
  6
CONTINUOUS
 10
-1.6666667461
 20
15.7180851102
 11
-1.6666667461
 21
15.8457446694
  0
LINE
  5
2CC
100
AcDbEntity
  8
0
100
AcDbLine
 62
7
  6
CONTINUOUS
 10
-1.5833332539
 20
15.25
 11
-1.5833332539
 21
15.3776595742
  0
LINE
  5
2CD
100
AcDbEntity
  8
0
100
AcDbLine
 62
7
  6
CONTINUOUS
 10
-1.5833332539
 20
16.1223404408
 11
-1.5833332539
 21
16.25
  0
LINE
  5
2CE
100
AcDbEntity
  8
0
100
AcDbLine
 62
7
  6
CONTINUOUS
 10
-1.5401635
 20
10.362605
 11
-1.5401635
 21
11.637395
  0
LINE
  5
2CF
100
AcDbEntity
  8
0
100
AcDbLine
 62
7
  6
CONTINUOUS
 10
-1.512711863
 20
13.2329787374
 11
-1.512711863
 21
13.35
  0
LINE
  5
2D0
100
AcDbEntity
  8
0
100
AcDbLine
 62
7
  6
CONTINUOUS
 10
-1.512711863
 20
14.7329787374
 11
-1.512711863
 21
14.85
  0
LINE
  5
2D1
100
AcDbEntity
  8
0
100
AcDbLine
 62
7
  6
CONTINUOUS
 10
-1.2647065
 20
17.262443
 11
-1.2647065
 21
18.7627205
  0
LINE
  5
2D2
100
AcDbEntity
  8
0
100
AcDbLine
 62
7
  6
CONTINUOUS
 10
-1.2276765
 20
11.637395
 11
-1.2276765
 21
10.362605
  0
LINE
  5
2D3
100
AcDbEntity
  8
0
100
AcDbLine
 62
7
  6
CONTINUOUS
 10
-1.1567797444
 20
14.4053191364
 11
-1.1567797444
 21
14.1946808636
  0
LINE
  5
2D4
100
AcDbEntity
  8
0
100
AcDbLine
 62
7
  6
CONTINUOUS
 10
-1.1567797444
 20
12.9053191364
 11
-1.1567797444
 21
12.6946808636
  0
LINE
  5
2D5
100
AcDbEntity
  8
0
100
AcDbLine
 62
7
  6
CONTINUOUS
 10
-1.0554775
 20
10.362605
 11
-1.0554775
 21
10.9005935
  0
LINE
  5
2D6
100
AcDbEntity
  8
0
100
AcDbLine
 62
7
  6
CONTINUOUS
 10
-1.0554775
 20
11.0479405
 11
-1.0554775
 21
11.490048
  0
LINE
  5
2D7
100
AcDbEntity
  8
0
100
AcDbLine
 62
7
  6
CONTINUOUS
 10
-0.934322202
 20
12.7180851161
 11
-0.934322202
 21
12.8819148839
  0
LINE
  5
2D8
100
AcDbEntity
  8
0
100
AcDbLine
 62
7
  6
CONTINUOUS
 10
-0.934322202
 20
14.2180851161
 11
-0.934322202
 21
14.3819148839
  0
LINE
  5
2D9
100
AcDbEntity
  8
ASSI
100
AcDbLine
 62
7
  6
CONTINUOUS
 10
-0.433777
 20
-15.274018505
 11
-0.433777
 21
-14.898610005
  0
LINE
  5
2DA
100
AcDbEntity
  8
ASSI
100
AcDbLine
 62
7
  6
CONTINUOUS
 10
-0.433777
 20
-13.10139
 11
-0.433777
 21
-12.7259815
  0
LINE
  5
2DB
100
AcDbEntity
  8
0
100
AcDbLine
 62
7
  6
CONTINUOUS
 10
-0.4166665077
 20
16.25
 11
-0.4166665077
 21
15.25
  0
LINE
  5
2DC
100
AcDbEntity
  8
0
100
AcDbLine
 62
7
  6
CONTINUOUS
 10
-0.2916665077
 20
15.25
 11
-0.2916665077
 21
16.25
  0
LINE
  5
2DD
100
AcDbEntity
  8
0
100
AcDbLine
 62
7
  6
CONTINUOUS
 10
-0.1517275
 20
10.818907
 11
-0.1517275
 21
10.6662285
  0
LINE
  5
2DE
100
AcDbEntity
  8
0
100
AcDbLine
 62
7
  6
CONTINUOUS
 10
-0.125
 20
16.25
 11
-0.125
 21
15.25
  0
LINE
  5
2DF
100
AcDbEntity
  8
0
100
AcDbLine
 62
7
  6
CONTINUOUS
 10
0.0
 20
15.25
 11
0.0
 21
16.1223404408
  0
LINE
  5
2E0
100
AcDbEntity
  8
0
100
AcDbLine
 62
7
  6
CONTINUOUS
 10
0.0506815
 20
18.7627205
 11
0.050687
 21
17.262443
  0
LINE
  5
2E1
100
AcDbEntity
  8
0
100
AcDbLine
 62
7
  6
CONTINUOUS
 10
0.2224576291
 20
14.3819148839
 11
0.2224576291
 21
14.2180851161
  0
LINE
  5
2E2
100
AcDbEntity
  8
0
100
AcDbLine
 62
7
  6
CONTINUOUS
 10
0.2224576291
 20
12.8819148839
 11
0.2224576291
 21
12.7180851161
  0
LINE
  5
2E3
100
AcDbEntity
  8
0
100
AcDbLine
 62
7
  6
CONTINUOUS
 10
0.393325
 20
11.3726105
 11
0.393325
 21
10.801152
  0
LINE
  5
2E4
100
AcDbEntity
  8
0
100
AcDbLine
 62
7
  6
CONTINUOUS
 10
0.393325
 20
10.6662285
 11
0.393325
 21
10.362605
  0
LINE
  5
2E5
100
AcDbEntity
  8
0
100
AcDbLine
 62
7
  6
CONTINUOUS
 10
1.9131357656
 20
14.3819148839
 11
1.9576271213
 21
14.522340399
  0
LINE
  5
2E6
100
AcDbEntity
  8
0
100
AcDbLine
 62
7
  6
CONTINUOUS
 10
1.9131357656
 20
12.8819148839
 11
1.9576271213
 21
13.022340399
  0
LINE
  5
2E7
100
AcDbEntity
  8
0
100
AcDbLine
 62
7
  6
CONTINUOUS
 10
3.0699150876
 20
14.2180851161
 11
3.0254237319
 21
14.0776595682
  0
LINE
  5
2E8
100
AcDbEntity
  8
0
100
AcDbLine
 62
7
  6
CONTINUOUS
 10
3.0699150876
 20
12.7180851161
 11
3.0254237319
 21
12.5776595682
  0
LINE
  5
2E9
100
AcDbEntity
  8
0
100
AcDbLine
 62
7
  6
CONTINUOUS
 10
3.3541669846
 20
15.5904255211
 11
3.5416669846
 21
16.1648936272
  0
LINE
  5
2EA
100
AcDbEntity
  8
0
100
AcDbLine
 62
7
  6
CONTINUOUS
 10
3.25
 20
15.25
 11
3.3333330154
 21
15.5053191483
  0
LINE
  5
2EB
100
AcDbEntity
  8
0
100
AcDbLine
 62
7
  6
CONTINUOUS
 10
3.4583330154
 20
16.25
 11
3.125
 21
15.25
  0
LINE
  5
2EC
100
AcDbEntity
  8
0
100
AcDbLine
 62
7
  6
CONTINUOUS
 10
3.2478815288
 20
14.0776595682
 11
3.2923728845
 21
14.1946808636
  0
LINE
  5
2ED
100
AcDbEntity
  8
0
100
AcDbLine
 62
7
  6
CONTINUOUS
 10
3.2478815288
 20
12.5776595682
 11
3.2923728845
 21
12.6946808636
  0
LINE
  5
2EE
100
AcDbEntity
  8
0
100
AcDbLine
 62
7
  6
CONTINUOUS
 10
3.7372884783
 20
13.1861702323
 11
3.6927966135
 21
13.0925532222
  0
LINE
  5
2EF
100
AcDbEntity
  8
0
100
AcDbLine
 62
7
  6
CONTINUOUS
 10
5.2055088179
 20
14.4521276414
 11
5.2499996644
 21
14.5457446516
  0
LINE
  5
2F0
100
AcDbEntity
  8
0
100
AcDbLine
 62
7
  6
CONTINUOUS
 10
5.161016953
 20
12.9521276414
 11
5.2055088179
 21
13.0457446516
  0
LINE
  5
2F1
100
AcDbEntity
  8
ASSI
100
AcDbLine
 62
7
  6
CONTINUOUS
 10
2.7676620882
 20
9.8906296571
 11
2.8635604682
 21
10.0614889434
  0
LINE
  5
2F2
100
AcDbEntity
  8
0
100
AcDbLine
 62
7
  6
CONTINUOUS
 10
5.2055088179
 20
12.4372340366
 11
5.2499996644
 21
12.5074468106
  0
LINE
  5
2F3
100
AcDbEntity
  8
ASSI
100
AcDbLine
 62
7
  6
CONTINUOUS
 10
4.004466
 20
9.135491
 11
4.11318
 21
9.28961
  0
LINE
  5
2F4
100
AcDbEntity
  8
0
100
AcDbLine
 62
7
  6
CONTINUOUS
 10
-4.503333354
 20
10.6668603216
 11
-4.46
 21
10.5562220176
  0
LINE
  5
2F5
100
AcDbEntity
  8
0
100
AcDbLine
 62
7
  6
CONTINUOUS
 10
-5.0
 20
15.3563829809
 11
-5.3125
 21
16.25
  0
LINE
  5
2F6
100
AcDbEntity
  8
0
100
AcDbLine
 62
7
  6
CONTINUOUS
 10
-4.525
 20
10.7498390351
 11
-4.503333354
 21
10.6668603216
  0
LINE
  5
2F7
100
AcDbEntity
  8
0
100
AcDbLine
 62
7
  6
CONTINUOUS
 10
-3.788333292
 20
11.2753709261
 11
-3.81
 21
11.3583497171
  0
LINE
  5
2F8
100
AcDbEntity
  8
0
100
AcDbLine
 62
7
  6
CONTINUOUS
 10
-4.72
 20
11.3583497171
 11
-4.741666646
 21
11.4689880018
  0
LINE
  5
2F9
100
AcDbEntity
  8
0
100
AcDbLine
 62
7
  6
CONTINUOUS
 10
-3.441666708
 20
10.6945198928
 11
-3.463333292
 21
10.8051581775
  0
LINE
  5
2FA
100
AcDbEntity
  8
0
100
AcDbLine
 62
7
  6
CONTINUOUS
 10
-3.766666708
 20
11.1370730703
 11
-3.788333292
 21
11.2753709261
  0
LINE
  5
2FB
100
AcDbEntity
  8
0
100
AcDbLine
 62
7
  6
CONTINUOUS
 10
-3.593333292
 20
10.8051581775
 11
-3.571666708
 21
10.6668603216
  0
LINE
  5
2FC
100
AcDbEntity
  8
0
100
AcDbLine
 62
7
  6
CONTINUOUS
 10
-3.896666708
 20
11.2753709261
 11
-3.875
 21
11.1094134991
  0
LINE
  5
2FD
100
AcDbEntity
  8
0
100
AcDbLine
 62
7
  6
CONTINUOUS
 10
0.4449154261
 20
12.6946808636
 11
0.4449154261
 21
12.9053191364
  0
LINE
  5
2FE
100
AcDbEntity
  8
0
100
AcDbLine
 62
7
  6
CONTINUOUS
 10
0.4449154261
 20
14.1946808636
 11
0.4449154261
 21
14.4053191364
  0
LINE
  5
2FF
100
AcDbEntity
  8
0
100
AcDbLine
 62
7
  6
CONTINUOUS
 10
0.505704
 20
17.262443
 11
0.505704
 21
19.5375455
  0
LINE
  5
300
100
AcDbEntity
  8
0
100
AcDbLine
 62
7
  6
CONTINUOUS
 10
0.5495685
 20
10.362605
 11
0.5495685
 21
10.6662285
  0
LINE
  5
301
100
AcDbEntity
  8
0
100
AcDbLine
 62
7
  6
CONTINUOUS
 10
0.5495685
 20
10.801152
 11
0.5495685
 21
11.637395
  0
LINE
  5
302
100
AcDbEntity
  8
0
100
AcDbLine
 62
7
  6
CONTINUOUS
 10
0.5833334923
 20
16.25
 11
0.5833334923
 21
15.3989361674
  0
LINE
  5
303
100
AcDbEntity
  8
0
100
AcDbLine
 62
7
  6
CONTINUOUS
 10
0.7083334923
 20
15.25
 11
0.7083334923
 21
16.25
  0
LINE
  5
304
100
AcDbEntity
  8
0
100
AcDbLine
 62
7
  6
CONTINUOUS
 10
0.732468
 20
10.6662285
 11
0.732468
 21
10.801152
  0
LINE
  5
305
100
AcDbEntity
  8
0
100
AcDbLine
 62
7
  6
CONTINUOUS
 10
0.8008472901
 20
14.6861702323
 11
0.8008472901
 21
14.4989361465
  0
LINE
  5
306
100
AcDbEntity
  8
0
100
AcDbLine
 62
7
  6
CONTINUOUS
 10
0.8008472901
 20
13.1861702323
 11
0.8008472901
 21
12.9989361465
  0
LINE
  5
307
100
AcDbEntity
  8
0
100
AcDbLine
 62
7
  6
CONTINUOUS
 10
1.0677964428
 20
14.6627659798
 11
1.0677964428
 21
13.75
  0
LINE
  5
308
100
AcDbEntity
  8
0
100
AcDbLine
 62
7
  6
CONTINUOUS
 10
1.0677964428
 20
13.1627659798
 11
1.0677964428
 21
12.25
  0
LINE
  5
309
100
AcDbEntity
  8
0
100
AcDbLine
 62
7
  6
CONTINUOUS
 10
1.3347455954
 20
12.25
 11
1.3347455954
 21
13.35
  0
LINE
  5
30A
100
AcDbEntity
  8
0
100
AcDbLine
 62
7
  6
CONTINUOUS
 10
1.3347455954
 20
13.75
 11
1.3347455954
 21
14.85
  0
LINE
  5
30B
100
AcDbEntity
  8
ASSI
100
AcDbLine
 62
7
  6
CONTINUOUS
 10
1.558778
 20
-14.1875
 11
1.558778
 21
-13.8125
  0
LINE
  5
30C
100
AcDbEntity
  8
0
100
AcDbLine
 62
7
  6
CONTINUOUS
 10
1.6906779687
 20
14.4053191364
 11
1.6906779687
 21
14.1946808636
  0
LINE
  5
30D
100
AcDbEntity
  8
0
100
AcDbLine
 62
7
  6
CONTINUOUS
 10
1.6906779687
 20
12.9053191364
 11
1.6906779687
 21
12.6946808636
  0
LINE
  5
30E
100
AcDbEntity
  8
ASSI
100
AcDbLine
 62
7
  6
CONTINUOUS
 10
1.758778
 20
-15.2740185637
 11
1.758778
 21
-14.8986083532
  0
LINE
  5
30F
100
AcDbEntity
  8
ASSI
100
AcDbLine
 62
7
  6
CONTINUOUS
 10
1.758778
 20
-13.10139
 11
1.758778
 21
-12.7259815683
  0
LINE
  5
310
100
AcDbEntity
  8
0
100
AcDbLine
 62
7
  6
CONTINUOUS
 10
1.875
 20
16.25
 11
1.875
 21
15.25
  0
LINE
  5
311
100
AcDbEntity
  8
0
100
AcDbLine
 62
7
  6
CONTINUOUS
 10
1.9131357656
 20
12.7180851161
 11
1.9131357656
 21
12.8819148839
  0
LINE
  5
312
100
AcDbEntity
  8
0
100
AcDbLine
 62
7
  6
CONTINUOUS
 10
1.9131357656
 20
14.2180851161
 11
1.9131357656
 21
14.3819148839
  0
LINE
  5
313
100
AcDbEntity
  8
0
100
AcDbLine
 62
7
  6
CONTINUOUS
 10
2.0
 20
15.25
 11
2.0
 21
16.25
  0
LINE
  5
314
100
AcDbEntity
  8
0
100
AcDbLine
 62
7
  6
CONTINUOUS
 10
2.1666665077
 20
16.25
 11
2.1666665077
 21
16.143617034
  0
LINE
  5
315
100
AcDbEntity
  8
0
100
AcDbLine
 62
7
  6
CONTINUOUS
 10
2.5
 20
16.143617034
 11
2.5
 21
15.25
  0
LINE
  5
316
100
AcDbEntity
  8
0
100
AcDbLine
 62
7
  6
CONTINUOUS
 10
2.625
 20
15.25
 11
2.625
 21
16.143617034
  0
LINE
  5
317
100
AcDbEntity
  8
ASSI
100
AcDbLine
 62
7
  6
CONTINUOUS
 10
2.955785
 20
10.005274
 11
2.955785
 21
9.7969415
  0
LINE
  5
318
100
AcDbEntity
  8
0
100
AcDbLine
 62
7
  6
CONTINUOUS
 10
2.9583330154
 20
16.143617034
 11
2.9583330154
 21
16.25
  0
LINE
  5
319
100
AcDbEntity
  8
ASSI
100
AcDbLine
 62
7
  6
CONTINUOUS
 10
2.9625885
 20
11.6948515
 11
2.9625885
 21
11.485373
  0
LINE
  5
31A
100
AcDbEntity
  8
0
100
AcDbLine
 62
7
  6
CONTINUOUS
 10
3.0283435
 20
19.537551
 11
3.0283435
 21
17.262449
  0
LINE
  5
31B
100
AcDbEntity
  8
0
100
AcDbLine
 62
7
  6
CONTINUOUS
 10
3.0699150876
 20
14.3819148839
 11
3.0699150876
 21
14.2180851161
  0
LINE
  5
31C
100
AcDbEntity
  8
0
100
AcDbLine
 62
7
  6
CONTINUOUS
 10
3.0699150876
 20
12.8819148839
 11
3.0699150876
 21
12.7180851161
  0
LINE
  5
31D
100
AcDbEntity
  8
ASSI
100
AcDbLine
 62
7
  6
CONTINUOUS
 10
3.1404125
 20
11.485373
 11
3.1404125
 21
10.9541935
  0
LINE
  5
31E
100
AcDbEntity
  8
ASSI
100
AcDbLine
 62
7
  6
CONTINUOUS
 10
3.1404125
 20
10.6960155
 11
3.1404125
 21
10.005274
  0
LINE
  5
31F
100
AcDbEntity
  8
0
100
AcDbLine
 62
7
  6
CONTINUOUS
 10
3.2923728845
 20
12.6946808636
 11
3.2923728845
 21
12.9053191364
  0
LINE
  5
320
100
AcDbEntity
  8
0
100
AcDbLine
 62
7
  6
CONTINUOUS
 10
3.2923728845
 20
14.1946808636
 11
3.2923728845
 21
14.4053191364
  0
LINE
  5
321
100
AcDbEntity
  8
ASSI
100
AcDbLine
 62
7
  6
CONTINUOUS
 10
3.362352
 20
10.005274
 11
3.362352
 21
10.6983455
  0
LINE
  5
322
100
AcDbEntity
  8
ASSI
100
AcDbLine
 62
7
  6
CONTINUOUS
 10
3.362352
 20
10.9541935
 11
3.362352
 21
11.485373
  0
LINE
  5
323
100
AcDbEntity
  8
0
100
AcDbLine
 62
7
  6
CONTINUOUS
 10
3.477093
 20
18.5630265
 11
3.4770875
 21
19.116659
  0
LINE
  5
324
100
AcDbEntity
  8
0
100
AcDbLine
 62
7
  6
CONTINUOUS
 10
3.4833665
 20
17.262449
 11
3.4834175
 21
18.1421345
  0
LINE
  5
325
100
AcDbEntity
  8
0
100
AcDbLine
 62
7
  6
CONTINUOUS
 10
-4.46
 20
10.5562220176
 11
-4.395
 21
10.4732432944
  0
LINE
  5
326
100
AcDbEntity
  8
0
100
AcDbLine
 62
7
  6
CONTINUOUS
 10
-4.741666646
 20
11.4689880018
 11
-4.828333354
 21
11.5796262865
  0
LINE
  5
327
100
AcDbEntity
  8
0
100
AcDbLine
 62
7
  6
CONTINUOUS
 10
-4.3601695124
 20
12.3904255316
 11
-4.9830508474
 21
13.35
  0
LINE
  5
328
100
AcDbEntity
  8
0
100
AcDbLine
 62
7
  6
CONTINUOUS
 10
-5.25
 20
13.35
 11
-4.5381355717
 21
12.25
  0
LINE
  5
329
100
AcDbEntity
  8
0
100
AcDbLine
 62
7
  6
CONTINUOUS
 10
-4.893333354
 20
11.4413284306
 11
-4.85
 21
11.3583497171
  0
LINE
  5
32A
100
AcDbEntity
  8
0
100
AcDbLine
 62
7
  6
CONTINUOUS
 10
-4.33
 20
10.5838815887
 11
-4.416666708
 21
10.7498390351
  0
LINE
  5
32B
100
AcDbEntity
  8
0
100
AcDbLine
 62
7
  6
CONTINUOUS
 10
-3.983333292
 20
11.4413284306
 11
-3.896666708
 21
11.2753709261
  0
LINE
  5
32C
100
AcDbEntity
  8
0
100
AcDbLine
 62
7
  6
CONTINUOUS
 10
-3.398333416
 20
10.6115411793
 11
-3.441666708
 21
10.6945198928
  0
LINE
  5
32D
100
AcDbEntity
  8
0
100
AcDbLine
 62
7
  6
CONTINUOUS
 10
-3.571666708
 20
10.6668603216
 11
-3.528333292
 21
10.5562220176
  0
LINE
  5
32E
100
AcDbEntity
  8
0
100
AcDbLine
 62
7
  6
CONTINUOUS
 10
-3.81
 20
11.3583497171
 11
-3.853333292
 21
11.4689880018
  0
LINE
  5
32F
100
AcDbEntity
  8
0
100
AcDbLine
 62
7
  6
CONTINUOUS
 10
-1.1567797444
 20
12.6946808636
 11
-1.1122881341
 21
12.5776595682
  0
LINE
  5
330
100
AcDbEntity
  8
0
100
AcDbLine
 62
7
  6
CONTINUOUS
 10
-5.375
 20
16.0372340679
 11
-5.0833333433
 21
15.25
  0
LINE
  5
331
100
AcDbEntity
  8
0
100
AcDbLine
 62
7
  6
CONTINUOUS
 10
-3.5
 20
15.25
 11
-3.8333333731
 21
16.25
  0
LINE
  5
332
100
AcDbEntity
  8
0
100
AcDbLine
 62
7
  6
CONTINUOUS
 10
-3.7083333731
 20
15.5053191483
 11
-3.625
 21
15.25
  0
LINE
  5
333
100
AcDbEntity
  8
0
100
AcDbLine
 62
7
  6
CONTINUOUS
 10
-3.9166666269
 20
16.1648936272
 11
-3.7291666269
 21
15.5904255211
  0
LINE
  5
334
100
AcDbEntity
  8
0
100
AcDbLine
 62
7
  6
CONTINUOUS
 10
-4.8490375
 20
19.5375455
 11
-4.1185805
 21
17.2624375
  0
LINE
  5
335
100
AcDbEntity
  8
0
100
AcDbLine
 62
7
  6
CONTINUOUS
 10
-3.8910575
 20
17.9710145
 11
-4.3940145
 21
19.5375455
  0
LINE
  5
336
100
AcDbEntity
  8
0
100
AcDbLine
 62
7
  6
CONTINUOUS
 10
-0.8898303372
 20
12.5776595682
 11
-0.934322202
 21
12.7180851161
  0
LINE
  5
337
100
AcDbEntity
  8
0
100
AcDbLine
 62
7
  6
CONTINUOUS
 10
-0.8898303372
 20
14.0776595682
 11
-0.934322202
 21
14.2180851161
  0
LINE
  5
338
100
AcDbEntity
  8
0
100
AcDbLine
 62
7
  6
CONTINUOUS
 10
-2.6458332539
 20
15.9946808219
 11
-2.625
 21
15.9095744491
  0
LINE
  5
339
100
AcDbEntity
  8
0
100
AcDbLine
 62
7
  6
CONTINUOUS
 10
-2.5
 20
15.9095744491
 11
-2.5208332539
 21
16.0159574747
  0
LINE
  5
33A
100
AcDbEntity
  8
ASSI
100
AcDbLine
 62
7
  6
CONTINUOUS
 10
3.5401045
 20
11.485373
 11
3.5401045
 21
11.6948515
  0
LINE
  5
33B
100
AcDbEntity
  8
ASSI
100
AcDbLine
 62
7
  6
CONTINUOUS
 10
3.546908
 20
9.7969415
 11
3.546908
 21
10.005274
  0
LINE
  5
33C
100
AcDbEntity
  8
0
100
AcDbLine
 62
7
  6
CONTINUOUS
 10
3.6483047486
 20
13.867021279
 11
3.6483047486
 21
13.75
  0
LINE
  5
33D
100
AcDbEntity
  8
0
100
AcDbLine
 62
7
  6
CONTINUOUS
 10
4.125
 20
16.25
 11
4.125
 21
15.25
  0
LINE
  5
33E
100
AcDbEntity
  8
0
100
AcDbLine
 62
7
  6
CONTINUOUS
 10
4.25
 20
15.3776595742
 11
4.25
 21
16.25
  0
LINE
  5
33F
100
AcDbEntity
  8
0
100
AcDbLine
 62
7
  6
CONTINUOUS
 10
4.3601694951
 20
12.8585106313
 11
4.3601694951
 21
12.7648936212
  0
LINE
  5
340
100
AcDbEntity
  8
0
100
AcDbLine
 62
7
  6
CONTINUOUS
 10
4.875
 20
15.25
 11
4.875
 21
15.3776595742
  0
LINE
  5
341
100
AcDbEntity
  8
0
100
AcDbLine
 62
7
  6
CONTINUOUS
 10
4.9830505118
 20
14.5925532222
 11
4.9830505118
 21
14.5457446516
  0
LINE
  5
342
100
AcDbEntity
  8
0
100
AcDbLine
 62
7
  6
CONTINUOUS
 10
4.9830505118
 20
13.0925532222
 11
4.9830505118
 21
13.0457446516
  0
LINE
  5
343
100
AcDbEntity
  8
0
100
AcDbLine
 62
7
  6
CONTINUOUS
 10
5.0275423767
 20
12.6010638207
 11
5.0275423767
 21
12.5074468106
  0
LINE
  5
344
100
AcDbEntity
  8
0
100
AcDbLine
 62
7
  6
CONTINUOUS
 10
5.2055088179
 20
13.0457446516
 11
5.2055088179
 21
13.0925532222
  0
LINE
  5
345
100
AcDbEntity
  8
0
100
AcDbLine
 62
7
  6
CONTINUOUS
 10
5.2499996644
 20
12.5074468106
 11
5.2499996644
 21
12.6010638207
  0
LINE
  5
346
100
AcDbEntity
  8
0
100
AcDbLine
 62
7
  6
CONTINUOUS
 10
5.2499996644
 20
13.75
 11
5.2499996644
 21
13.867021279
  0
LINE
  5
347
100
AcDbEntity
  8
0
100
AcDbLine
 62
7
  6
CONTINUOUS
 10
5.2499996644
 20
14.5457446516
 11
5.2499996644
 21
14.5925532222
  0
LINE
  5
348
100
AcDbEntity
  8
0
100
AcDbLine
 62
7
  6
CONTINUOUS
 10
5.375
 20
15.7606382966
 11
5.375
 21
15.25
  0
LINE
  5
349
100
AcDbEntity
  8
0
100
AcDbLine
 62
7
  6
CONTINUOUS
 10
5.5
 20
15.25
 11
5.5
 21
15.7606382966
  0
LINE
  5
34A
100
AcDbEntity
  8
0
100
AcDbLine
 62
7
  6
CONTINUOUS
 10
6.0
 20
8.0
 11
6.0
 21
20.0
  0
LINE
  5
34B
100
AcDbEntity
  8
0
100
AcDbLine
 62
7
  6
CONTINUOUS
 10
-4.395
 20
10.4732432944
 11
-4.286666708
 21
10.3902645736
  0
LINE
  5
34C
100
AcDbEntity
  8
0
100
AcDbLine
 62
7
  6
CONTINUOUS
 10
-4.265
 20
10.5285624464
 11
-4.33
 21
10.5838815887
  0
LINE
  5
34D
100
AcDbEntity
  8
0
100
AcDbLine
 62
7
  6
CONTINUOUS
 10
-4.958333354
 20
11.496647573
 11
-4.893333354
 21
11.4413284306
  0
LINE
  5
34E
100
AcDbEntity
  8
0
100
AcDbLine
 62
7
  6
CONTINUOUS
 10
-3.333333416
 20
10.5562220176
 11
-3.398333416
 21
10.6115411793
  0
LINE
  5
34F
100
AcDbEntity
  8
0
100
AcDbLine
 62
7
  6
CONTINUOUS
 10
-4.048333292
 20
11.496647573
 11
-3.983333292
 21
11.4413284306
  0
LINE
  5
350
100
AcDbEntity
  8
0
100
AcDbLine
 62
7
  6
CONTINUOUS
 10
-3.528333292
 20
10.5562220176
 11
-3.441666708
 21
10.4455837232
  0
LINE
  5
351
100
AcDbEntity
  8
0
100
AcDbLine
 62
7
  6
CONTINUOUS
 10
-3.853333292
 20
11.4689880018
 11
-3.918333292
 21
11.5519667153
  0
LINE
  5
352
100
AcDbEntity
  8
0
100
AcDbLine
 62
7
  6
CONTINUOUS
 10
-2.6875
 20
16.0585106611
 11
-2.6458332539
 21
15.9946808219
  0
LINE
  5
353
100
AcDbEntity
  8
0
100
AcDbLine
 62
7
  6
CONTINUOUS
 10
-4.3601695124
 20
13.8904255316
 11
-4.9830508474
 21
14.85
  0
LINE
  5
354
100
AcDbEntity
  8
0
100
AcDbLine
 62
7
  6
CONTINUOUS
 10
-5.25
 20
14.85
 11
-4.5381355717
 21
13.75
  0
LINE
  5
355
100
AcDbEntity
  8
0
100
AcDbLine
 62
7
  6
CONTINUOUS
 10
-1.1122881341
 20
12.5776595682
 11
-1.0677965238
 21
12.5074468106
  0
LINE
  5
356
100
AcDbEntity
  8
0
100
AcDbLine
 62
7
  6
CONTINUOUS
 10
-2.5208332539
 20
16.0159574747
 11
-2.5625
 21
16.1010638475
  0
LINE
  5
357
100
AcDbEntity
  8
0
100
AcDbLine
 62
7
  6
CONTINUOUS
 10
-1.1567797444
 20
14.1946808636
 11
-1.1122881341
 21
14.0776595682
  0
LINE
  5
358
100
AcDbEntity
  8
0
100
AcDbLine
 62
7
  6
CONTINUOUS
 10
0.4449154261
 20
12.9053191364
 11
0.4004235612
 21
13.022340399
  0
LINE
  5
359
100
AcDbEntity
  8
0
100
AcDbLine
 62
7
  6
CONTINUOUS
 10
0.4449154261
 20
14.4053191364
 11
0.4004235612
 21
14.522340399
  0
LINE
  5
35A
100
AcDbEntity
  8
0
100
AcDbLine
 62
7
  6
CONTINUOUS
 10
1.6906779687
 20
12.6946808636
 11
1.7351693244
 21
12.5776595682
  0
LINE
  5
35B
100
AcDbEntity
  8
0
100
AcDbLine
 62
7
  6
CONTINUOUS
 10
0.1779662734
 20
13.022340399
 11
0.2224576291
 21
12.8819148839
  0
LINE
  5
35C
100
AcDbEntity
  8
0
100
AcDbLine
 62
7
  6
CONTINUOUS
 10
0.1779662734
 20
14.522340399
 11
0.2224576291
 21
14.3819148839
  0
LINE
  5
35D
100
AcDbEntity
  8
0
100
AcDbLine
 62
7
  6
CONTINUOUS
 10
1.9576271213
 20
12.5776595682
 11
1.9131357656
 21
12.7180851161
  0
LINE
  5
35E
100
AcDbEntity
  8
0
100
AcDbLine
 62
7
  6
CONTINUOUS
 10
1.9576271213
 20
14.0776595682
 11
1.9131357656
 21
14.2180851161
  0
LINE
  5
35F
100
AcDbEntity
  8
0
100
AcDbLine
 62
7
  6
CONTINUOUS
 10
-1.2647065
 20
18.7627205
 11
-0.8345155
 21
17.262443
  0
LINE
  5
360
100
AcDbEntity
  8
0
100
AcDbLine
 62
7
  6
CONTINUOUS
 10
-0.60701
 20
18.0559175
 11
-1.0318605
 21
19.5375455
  0
LINE
  5
361
100
AcDbEntity
  8
0
100
AcDbLine
 62
7
  6
CONTINUOUS
 10
-6.0
 20
8.0
 11
6.0
 21
8.0
  0
LINE
  5
362
100
AcDbEntity
  8
0
100
AcDbLine
 62
7
  6
CONTINUOUS
 10
-4.286666708
 20
10.3902645736
 11
-4.156666708
 21
10.362605
  0
LINE
  5
363
100
AcDbEntity
  8
0
100
AcDbLine
 62
7
  6
CONTINUOUS
 10
-4.156666708
 20
10.5009028752
 11
-4.265
 21
10.5285624464
  0
LINE
  5
364
100
AcDbEntity
  8
0
100
AcDbLine
 62
7
  6
CONTINUOUS
 10
-3.355
 20
10.3902645736
 11
-3.246666584
 21
10.362605
  0
LINE
  5
365
100
AcDbEntity
  8
0
100
AcDbLine
 62
7
  6
CONTINUOUS
 10
-3.246666584
 20
10.5285624464
 11
-3.333333416
 21
10.5562220176
  0
LINE
  5
366
100
AcDbEntity
  8
0
100
AcDbLine
 62
7
  6
CONTINUOUS
 10
-3.441666708
 20
10.4455837232
 11
-3.355
 21
10.3902645736
  0
LINE
  5
367
100
AcDbEntity
  8
0
100
AcDbLine
 62
7
  6
CONTINUOUS
 10
-4.828333354
 20
11.5796262865
 11
-4.915
 21
11.6349454288
  0
LINE
  5
368
100
AcDbEntity
  8
0
100
AcDbLine
 62
7
  6
CONTINUOUS
 10
-3.918333292
 20
11.5519667153
 11
-4.026666708
 21
11.6349454288
  0
LINE
  5
369
100
AcDbEntity
  8
0
100
AcDbLine
 62
7
  6
CONTINUOUS
 10
-0.7118644051
 20
12.4372340366
 11
-0.8898303372
 21
12.5776595682
  0
LINE
  5
36A
100
AcDbEntity
  8
0
100
AcDbLine
 62
7
  6
CONTINUOUS
 10
-2.5625
 20
16.1010638475
 11
-2.6458332539
 21
16.1861702204
  0
LINE
  5
36B
100
AcDbEntity
  8
0
100
AcDbLine
 62
7
  6
CONTINUOUS
 10
-1.0677965238
 20
12.5074468106
 11
-0.9788135578
 21
12.4138297841
  0
LINE
  5
36C
100
AcDbEntity
  8
0
100
AcDbLine
 62
7
  6
CONTINUOUS
 10
-1.0677965238
 20
14.0074468106
 11
-0.9788135578
 21
13.9138297841
  0
LINE
  5
36D
100
AcDbEntity
  8
0
100
AcDbLine
 62
7
  6
CONTINUOUS
 10
0.3559322054
 20
13.0925532222
 11
0.2669489848
 21
13.1861702323
  0
LINE
  5
36E
100
AcDbEntity
  8
0
100
AcDbLine
 62
7
  6
CONTINUOUS
 10
-1.1122881341
 20
14.0776595682
 11
-1.0677965238
 21
14.0074468106
  0
LINE
  5
36F
100
AcDbEntity
  8
0
100
AcDbLine
 62
7
  6
CONTINUOUS
 10
0.4004235612
 20
13.022340399
 11
0.3559322054
 21
13.0925532222
  0
LINE
  5
370
100
AcDbEntity
  8
0
100
AcDbLine
 62
7
  6
CONTINUOUS
 10
0.4004235612
 20
14.522340399
 11
0.3559322054
 21
14.5925532222
  0
LINE
  5
371
100
AcDbEntity
  8
0
100
AcDbLine
 62
7
  6
CONTINUOUS
 10
1.7351693244
 20
12.5776595682
 11
1.7796611893
 21
12.5074468106
  0
LINE
  5
372
100
AcDbEntity
  8
0
100
AcDbLine
 62
7
  6
CONTINUOUS
 10
1.7351693244
 20
14.0776595682
 11
1.7796611893
 21
14.0074468106
  0
LINE
  5
373
100
AcDbEntity
  8
0
100
AcDbLine
 62
7
  6
CONTINUOUS
 10
0.5833334923
 20
15.3989361674
 11
0.0625
 21
16.25
  0
LINE
  5
374
100
AcDbEntity
  8
0
100
AcDbLine
 62
7
  6
CONTINUOUS
 10
0.0
 20
16.1223404408
 11
0.5208334923
 21
15.25
  0
LINE
  5
375
100
AcDbEntity
  8
ASSI
100
AcDbLine
 62
7
  6
CONTINUOUS
 10
3.6364395
 20
10.061489
 11
3.732338
 21
9.8906295
  0
LINE
  5
376
100
AcDbEntity
  8
0
100
AcDbLine
 62
7
  6
CONTINUOUS
 10
1.6906779687
 20
14.1946808636
 11
1.7351693244
 21
14.0776595682
  0
LINE
  5
377
100
AcDbEntity
  8
0
100
AcDbLine
 62
7
  6
CONTINUOUS
 10
3.2923728845
 20
12.9053191364
 11
3.2478815288
 21
13.022340399
  0
LINE
  5
378
100
AcDbEntity
  8
0
100
AcDbLine
 62
7
  6
CONTINUOUS
 10
3.2923728845
 20
14.4053191364
 11
3.2478815288
 21
14.522340399
  0
LINE
  5
379
100
AcDbEntity
  8
0
100
AcDbLine
 62
7
  6
CONTINUOUS
 10
3.9583330154
 20
15.25
 11
3.625
 21
16.25
  0
LINE
  5
37A
100
AcDbEntity
  8
0
100
AcDbLine
 62
7
  6
CONTINUOUS
 10
3.75
 20
15.5053191483
 11
3.8333330154
 21
15.25
  0
LINE
  5
37B
100
AcDbEntity
  8
0
100
AcDbLine
 62
7
  6
CONTINUOUS
 10
3.5416669846
 20
16.1648936272
 11
3.7291669846
 21
15.5904255211
  0
LINE
  5
37C
100
AcDbEntity
  8
0
100
AcDbLine
 62
7
  6
CONTINUOUS
 10
2.1263345
 20
17.7098615
 11
2.269978
 21
17.262449
  0
LINE
  5
37D
100
AcDbEntity
  8
0
100
AcDbLine
 62
7
  6
CONTINUOUS
 10
1.7670155
 20
18.828974
 11
1.9875365
 21
18.1421285
  0
LINE
  5
37E
100
AcDbEntity
  8
0
100
AcDbLine
 62
7
  6
CONTINUOUS
 10
2.7250005
 20
17.262443
 11
1.994538
 21
19.537551
  0
LINE
  5
37F
100
AcDbEntity
  8
0
100
AcDbLine
 62
7
  6
CONTINUOUS
 10
3.0254237319
 20
13.022340399
 11
3.0699150876
 21
12.8819148839
  0
LINE
  5
380
100
AcDbEntity
  8
0
100
AcDbLine
 62
7
  6
CONTINUOUS
 10
3.0254237319
 20
14.522340399
 11
3.0699150876
 21
14.3819148839
  0
LINE
  5
381
100
AcDbEntity
  8
0
100
AcDbLine
 62
7
  6
CONTINUOUS
 10
4.8050850889
 20
12.2734042546
 11
4.9830505118
 21
12.3202127658
  0
LINE
  5
382
100
AcDbEntity
  8
0
100
AcDbLine
 62
7
  6
CONTINUOUS
 10
4.8940678003
 20
12.4138297841
 11
4.8050850889
 21
12.3904255316
  0
LINE
  5
383
100
AcDbEntity
  8
0
100
AcDbLine
 62
7
  6
CONTINUOUS
 10
4.0932203424
 20
13.3265957475
 11
3.9152539012
 21
13.2797872424
  0
LINE
  5
384
100
AcDbEntity
  8
0
100
AcDbLine
 62
7
  6
CONTINUOUS
 10
-3.16
 20
10.362605
 11
-3.051666584
 21
10.3902645736
  0
LINE
  5
385
100
AcDbEntity
  8
0
100
AcDbLine
 62
7
  6
CONTINUOUS
 10
-4.048333292
 20
10.5285624464
 11
-4.156666708
 21
10.5009028752
  0
LINE
  5
386
100
AcDbEntity
  8
0
100
AcDbLine
 62
7
  6
CONTINUOUS
 10
-4.265
 20
11.496647573
 11
-4.156666708
 21
11.5243071441
  0
LINE
  5
387
100
AcDbEntity
  8
0
100
AcDbLine
 62
7
  6
CONTINUOUS
 10
-5.2616666615
 20
11.496647573
 11
-5.153333323
 21
11.5243071441
  0
LINE
  5
388
100
AcDbEntity
  8
0
100
AcDbLine
 62
7
  6
CONTINUOUS
 10
-4.156666708
 20
10.362605
 11
-4.026666708
 21
10.3902645736
  0
LINE
  5
389
100
AcDbEntity
  8
0
100
AcDbLine
 62
7
  6
CONTINUOUS
 10
-4.156666708
 20
11.662605
 11
-4.286666708
 21
11.6349454288
  0
LINE
  5
38A
100
AcDbEntity
  8
0
100
AcDbLine
 62
7
  6
CONTINUOUS
 10
-5.131666677
 20
11.662605
 11
-5.2833333385
 21
11.6349454288
  0
LINE
  5
38B
100
AcDbEntity
  8
0
100
AcDbLine
 62
7
  6
CONTINUOUS
 10
4.8050850889
 20
12.9053191364
 11
4.5381359363
 21
12.8585106313
  0
LINE
  5
38C
100
AcDbEntity
  8
0
100
AcDbLine
 62
7
  6
CONTINUOUS
 10
4.6271186477
 20
12.25
 11
4.8050850889
 21
12.2734042546
  0
LINE
  5
38D
100
AcDbEntity
  8
0
100
AcDbLine
 62
7
  6
CONTINUOUS
 10
4.8050850889
 20
12.3904255316
 11
4.5826267828
 21
12.367021279
  0
LINE
  5
38E
100
AcDbEntity
  8
0
100
AcDbLine
 62
7
  6
CONTINUOUS
 10
2.7139832235
 20
12.3904255316
 11
2.4915254266
 21
12.367021279
  0
LINE
  5
38F
100
AcDbEntity
  8
0
100
AcDbLine
 62
7
  6
CONTINUOUS
 10
-0.1334747441
 20
12.3904255316
 11
-0.3559320319
 21
12.367021279
  0
LINE
  5
390
100
AcDbEntity
  8
0
100
AcDbLine
 62
7
  6
CONTINUOUS
 10
4.1377122073
 20
13.2095744848
 11
4.3601694951
 21
13.2329787374
  0
LINE
  5
391
100
AcDbEntity
  8
0
100
AcDbLine
 62
7
  6
CONTINUOUS
 10
2.4915254266
 20
12.25
 11
2.7584745792
 21
12.2734042546
  0
LINE
  5
392
100
AcDbEntity
  8
0
100
AcDbLine
 62
7
  6
CONTINUOUS
 10
-0.3559320319
 20
12.25
 11
-0.0889828792
 21
12.2734042546
  0
LINE
  5
393
100
AcDbEntity
  8
ASSI
100
AcDbLine
 62
7
  6
CONTINUOUS
 10
2.955785
 20
9.7969415
 11
3.546908
 21
9.7969415
  0
LINE
  5
394
100
AcDbEntity
  8
ASSI
100
AcDbLine
 62
7
  6
CONTINUOUS
 10
3.546908
 20
10.005274
 11
3.362352
 21
10.005274
  0
LINE
  5
395
100
AcDbEntity
  8
ASSI
100
AcDbLine
 62
7
  6
CONTINUOUS
 10
3.1404125
 20
10.005274
 11
2.955785
 21
10.005274
  0
LINE
  5
396
100
AcDbEntity
  8
0
100
AcDbLine
 62
7
  6
CONTINUOUS
 10
-5.5
 20
10.362605
 11
-4.72
 21
10.362605
  0
LINE
  5
397
100
AcDbEntity
  8
0
100
AcDbLine
 62
7
  6
CONTINUOUS
 10
-3.246666584
 20
10.362605
 11
-3.16
 21
10.362605
  0
LINE
  5
398
100
AcDbEntity
  8
0
100
AcDbLine
 62
7
  6
CONTINUOUS
 10
-1.71241
 20
10.362605
 11
-1.5401635
 21
10.362605
  0
LINE
  5
399
100
AcDbEntity
  8
0
100
AcDbLine
 62
7
  6
CONTINUOUS
 10
-1.2276765
 20
10.362605
 11
-1.0554775
 21
10.362605
  0
LINE
  5
39A
100
AcDbEntity
  8
0
100
AcDbLine
 62
7
  6
CONTINUOUS
 10
0.393325
 20
10.362605
 11
0.5495685
 21
10.362605
  0
LINE
  5
39B
100
AcDbEntity
  8
0
100
AcDbLine
 62
7
  6
CONTINUOUS
 10
-4.72
 20
10.5009028752
 11
-5.3266666615
 21
10.5009028752
  0
LINE
  5
39C
100
AcDbEntity
  8
0
100
AcDbLine
 62
7
  6
CONTINUOUS
 10
-3.16
 20
10.5285624464
 11
-3.246666584
 21
10.5285624464
  0
LINE
  5
39D
100
AcDbEntity
  8
0
100
AcDbLine
 62
7
  6
CONTINUOUS
 10
-0.1517275
 20
10.6662285
 11
0.393325
 21
10.6662285
  0
LINE
  5
39E
100
AcDbEntity
  8
0
100
AcDbLine
 62
7
  6
CONTINUOUS
 10
0.5495685
 20
10.6662285
 11
0.732468
 21
10.6662285
  0
LINE
  5
39F
100
AcDbEntity
  8
0
100
AcDbLine
 62
7
  6
CONTINUOUS
 10
0.732468
 20
10.801152
 11
0.5495685
 21
10.801152
  0
LINE
  5
3A0
100
AcDbEntity
  8
0
100
AcDbLine
 62
7
  6
CONTINUOUS
 10
0.393325
 20
10.801152
 11
-0.0079365
 21
10.801152
  0
LINE
  5
3A1
100
AcDbEntity
  8
0
100
AcDbLine
 62
7
  6
CONTINUOUS
 10
-3.463333292
 20
10.8051581775
 11
-3.593333292
 21
10.8051581775
  0
LINE
  5
3A2
100
AcDbEntity
  8
0
100
AcDbLine
 62
7
  6
CONTINUOUS
 10
-1.0554775
 20
10.9005935
 11
-0.6546174368
 21
10.9005935
  0
LINE
  5
3A3
100
AcDbEntity
  8
0
100
AcDbLine
 62
7
  6
CONTINUOUS
 10
-0.6947977071
 20
11.0479405
 11
-1.0554775
 21
11.0479405
  0
LINE
  5
3A4
100
AcDbEntity
  8
0
100
AcDbLine
 62
7
  6
CONTINUOUS
 10
-5.4783333327
 20
11.3583497171
 11
-5.37
 21
11.3583497171
  0
LINE
  5
3A5
100
AcDbEntity
  8
ASSI
100
AcDbLine
 62
7
  6
CONTINUOUS
 10
2.9625885
 20
11.485373
 11
3.1404125
 21
11.485373
  0
LINE
  5
3A6
100
AcDbEntity
  8
ASSI
100
AcDbLine
 62
7
  6
CONTINUOUS
 10
3.362352
 20
11.485373
 11
3.5401045
 21
11.485373
  0
LINE
  5
3A7
100
AcDbEntity
  8
0
100
AcDbLine
 62
7
  6
CONTINUOUS
 10
-1.0554775
 20
11.490048
 11
-0.694795045
 21
11.490048
  0
LINE
  5
3A8
100
AcDbEntity
  8
0
100
AcDbLine
 62
7
  6
CONTINUOUS
 10
-5.153333323
 20
11.5243071441
 11
-5.066666677
 21
11.5243071441
  0
LINE
  5
3A9
100
AcDbEntity
  8
0
100
AcDbLine
 62
7
  6
CONTINUOUS
 10
0.5495685
 20
11.637395
 11
0.439199
 21
11.637395
  0
LINE
  5
3AA
100
AcDbEntity
  8
0
100
AcDbLine
 62
7
  6
CONTINUOUS
 10
-0.6546151939
 20
11.637395
 11
-1.2276765
 21
11.637395
  0
LINE
  5
3AB
100
AcDbEntity
  8
0
100
AcDbLine
 62
7
  6
CONTINUOUS
 10
-1.5401635
 20
11.637395
 11
-1.71241
 21
11.637395
  0
LINE
  5
3AC
100
AcDbEntity
  8
0
100
AcDbLine
 62
7
  6
CONTINUOUS
 10
-2.813333416
 20
11.662605
 11
-2.943333416
 21
11.662605
  0
LINE
  5
3AD
100
AcDbEntity
  8
0
100
AcDbLine
 62
7
  6
CONTINUOUS
 10
-5.045
 20
11.662605
 11
-5.131666677
 21
11.662605
  0
LINE
  5
3AE
100
AcDbEntity
  8
ASSI
100
AcDbLine
 62
7
  6
CONTINUOUS
 10
3.5401045
 20
11.6948515
 11
2.9625885
 21
11.6948515
  0
LINE
  5
3AF
100
AcDbEntity
  8
0
100
AcDbLine
 62
7
  6
CONTINUOUS
 10
-4.5381355717
 20
12.25
 11
-4.1822033894
 21
12.25
  0
LINE
  5
3B0
100
AcDbEntity
  8
0
100
AcDbLine
 62
7
  6
CONTINUOUS
 10
-2.6694914396
 20
12.25
 11
-2.402542287
 21
12.25
  0
LINE
  5
3B1
100
AcDbEntity
  8
0
100
AcDbLine
 62
7
  6
CONTINUOUS
 10
1.0677964428
 20
12.25
 11
1.3347455954
 21
12.25
  0
LINE
  5
3B2
100
AcDbEntity
  8
0
100
AcDbLine
 62
7
  6
CONTINUOUS
 10
4.2711867836
 20
12.25
 11
4.6271186477
 21
12.25
  0
LINE
  5
3B3
100
AcDbEntity
  8
0
100
AcDbLine
 62
7
  6
CONTINUOUS
 10
4.5826267828
 20
12.367021279
 11
4.3156776302
 21
12.367021279
  0
LINE
  5
3B4
100
AcDbEntity
  8
0
100
AcDbLine
 62
7
  6
CONTINUOUS
 10
3.8707630547
 20
12.5074468106
 11
3.6483047486
 21
12.5074468106
  0
LINE
  5
3B5
100
AcDbEntity
  8
0
100
AcDbLine
 62
7
  6
CONTINUOUS
 10
-0.6228811845
 20
12.2734042546
 11
-0.3559320319
 21
12.25
  0
LINE
  5
3B6
100
AcDbEntity
  8
0
100
AcDbLine
 62
7
  6
CONTINUOUS
 10
2.2245762739
 20
12.2734042546
 11
2.4915254266
 21
12.25
  0
LINE
  5
3B7
100
AcDbEntity
  8
0
100
AcDbLine
 62
7
  6
CONTINUOUS
 10
-0.3559320319
 20
12.367021279
 11
-0.5783898288
 21
12.3904255316
  0
LINE
  5
3B8
100
AcDbEntity
  8
0
100
AcDbLine
 62
7
  6
CONTINUOUS
 10
2.4915254266
 20
12.367021279
 11
2.2690676297
 21
12.3904255316
  0
LINE
  5
3B9
100
AcDbEntity
  8
0
100
AcDbLine
 62
7
  6
CONTINUOUS
 10
4.0932203424
 20
12.2734042546
 11
4.2711867836
 21
12.25
  0
LINE
  5
3BA
100
AcDbEntity
  8
0
100
AcDbLine
 62
7
  6
CONTINUOUS
 10
-4.915
 20
11.6349454288
 11
-5.045
 21
11.662605
  0
LINE
  5
3BB
100
AcDbEntity
  8
0
100
AcDbLine
 62
7
  6
CONTINUOUS
 10
-4.026666708
 20
11.6349454288
 11
-4.156666708
 21
11.662605
  0
LINE
  5
3BC
100
AcDbEntity
  8
0
100
AcDbLine
 62
7
  6
CONTINUOUS
 10
-5.066666677
 20
11.5243071441
 11
-4.958333354
 21
11.496647573
  0
LINE
  5
3BD
100
AcDbEntity
  8
0
100
AcDbLine
 62
7
  6
CONTINUOUS
 10
-4.156666708
 20
11.5243071441
 11
-4.048333292
 21
11.496647573
  0
LINE
  5
3BE
100
AcDbEntity
  8
0
100
AcDbLine
 62
7
  6
CONTINUOUS
 10
-0.8453389814
 20
12.3436170183
 11
-0.6228811845
 21
12.2734042546
  0
LINE
  5
3BF
100
AcDbEntity
  8
0
100
AcDbLine
 62
7
  6
CONTINUOUS
 10
2.002118477
 20
12.3436170183
 11
2.2245762739
 21
12.2734042546
  0
LINE
  5
3C0
100
AcDbEntity
  8
0
100
AcDbLine
 62
7
  6
CONTINUOUS
 10
0.1334744085
 20
13.2563829899
 11
-0.0889828792
 21
13.3265957475
  0
LINE
  5
3C1
100
AcDbEntity
  8
0
100
AcDbLine
 62
7
  6
CONTINUOUS
 10
-0.5783898288
 20
12.3904255316
 11
-0.7118644051
 21
12.4372340366
  0
LINE
  5
3C2
100
AcDbEntity
  8
0
100
AcDbLine
 62
7
  6
CONTINUOUS
 10
-0.1334747441
 20
13.2095744848
 11
-0.0000001678
 21
13.1627659798
  0
LINE
  5
3C3
100
AcDbEntity
  8
0
100
AcDbLine
 62
7
  6
CONTINUOUS
 10
2.2690676297
 20
12.3904255316
 11
2.1355930533
 21
12.4372340366
  0
LINE
  5
3C4
100
AcDbEntity
  8
0
100
AcDbLine
 62
7
  6
CONTINUOUS
 10
-0.9788135578
 20
12.4138297841
 11
-0.8453389814
 21
12.3436170183
  0
LINE
  5
3C5
100
AcDbEntity
  8
0
100
AcDbLine
 62
7
  6
CONTINUOUS
 10
0.2669489848
 20
13.1861702323
 11
0.1334744085
 21
13.2563829899
  0
LINE
  5
3C6
100
AcDbEntity
  8
0
100
AcDbLine
 62
7
  6
CONTINUOUS
 10
1.8686439007
 20
12.4138297841
 11
2.002118477
 21
12.3436170183
  0
LINE
  5
3C7
100
AcDbEntity
  8
0
100
AcDbLine
 62
7
  6
CONTINUOUS
 10
-0.9788135578
 20
13.9138297841
 11
-0.8453389814
 21
13.8436170183
  0
LINE
  5
3C8
100
AcDbEntity
  8
0
100
AcDbLine
 62
7
  6
CONTINUOUS
 10
-2.75
 20
16.1010638475
 11
-2.6875
 21
16.0585106611
  0
LINE
  5
3C9
100
AcDbEntity
  8
0
100
AcDbLine
 62
7
  6
CONTINUOUS
 10
-0.0000001678
 20
13.1627659798
 11
0.1779662734
 21
13.022340399
  0
LINE
  5
3CA
100
AcDbEntity
  8
0
100
AcDbLine
 62
7
  6
CONTINUOUS
 10
-0.7118644051
 20
13.9372340366
 11
-0.8898303372
 21
14.0776595682
  0
LINE
  5
3CB
100
AcDbEntity
  8
0
100
AcDbLine
 62
7
  6
CONTINUOUS
 10
2.1355930533
 20
12.4372340366
 11
1.9576271213
 21
12.5776595682
  0
LINE
  5
3CC
100
AcDbEntity
  8
0
100
AcDbLine
 62
7
  6
CONTINUOUS
 10
-0.0000001678
 20
14.6627659798
 11
0.1779662734
 21
14.522340399
  0
LINE
  5
3CD
100
AcDbEntity
  8
0
100
AcDbLine
 62
7
  6
CONTINUOUS
 10
3.6927966135
 20
12.4372340366
 11
3.7817793249
 21
12.367021279
  0
LINE
  5
3CE
100
AcDbEntity
  8
0
100
AcDbLine
 62
7
  6
CONTINUOUS
 10
2.8474577998
 20
13.1627659798
 11
3.0254237319
 21
13.022340399
  0
LINE
  5
3CF
100
AcDbEntity
  8
0
100
AcDbLine
 62
7
  6
CONTINUOUS
 10
2.1355930533
 20
13.9372340366
 11
1.9576271213
 21
14.0776595682
  0
LINE
  5
3D0
100
AcDbEntity
  8
ASSI
100
AcDbLine
 62
7
  6
CONTINUOUS
 10
2.580232
 20
11.1680835
 11
3.1404125
 21
10.6960155
  0
LINE
  5
3D1
100
AcDbEntity
  8
ASSI
100
AcDbLine
 62
7
  6
CONTINUOUS
 10
3.1404125
 20
10.9541935
 11
2.5543755
 21
11.44805
  0
LINE
  5
3D2
100
AcDbEntity
  8
0
100
AcDbLine
 62
7
  6
CONTINUOUS
 10
1.7796611893
 20
12.5074468106
 11
1.8686439007
 21
12.4138297841
  0
LINE
  5
3D3
100
AcDbEntity
  8
0
100
AcDbLine
 62
7
  6
CONTINUOUS
 10
0.3559322054
 20
14.5925532222
 11
0.2669489848
 21
14.6861702323
  0
LINE
  5
3D4
100
AcDbEntity
  8
0
100
AcDbLine
 62
7
  6
CONTINUOUS
 10
1.7796611893
 20
14.0074468106
 11
1.8686439007
 21
13.9138297841
  0
LINE
  5
3D5
100
AcDbEntity
  8
0
100
AcDbLine
 62
7
  6
CONTINUOUS
 10
3.2033896639
 20
13.0925532222
 11
3.1144069525
 21
13.1861702323
  0
LINE
  5
3D6
100
AcDbEntity
  8
0
100
AcDbLine
 62
7
  6
CONTINUOUS
 10
3.9152539012
 20
12.4606383055
 11
3.8707630547
 21
12.5074468106
  0
LINE
  5
3D7
100
AcDbEntity
  8
0
100
AcDbLine
 62
7
  6
CONTINUOUS
 10
4.9385596652
 20
12.6946808636
 11
5.0275423767
 21
12.6010638207
  0
LINE
  5
3D8
100
AcDbEntity
  8
0
100
AcDbLine
 62
7
  6
CONTINUOUS
 10
3.2033896639
 20
14.5925532222
 11
3.1144069525
 21
14.6861702323
  0
LINE
  5
3D9
100
AcDbEntity
  8
0
100
AcDbLine
 62
7
  6
CONTINUOUS
 10
3.2478815288
 20
13.022340399
 11
3.2033896639
 21
13.0925532222
  0
LINE
  5
3DA
100
AcDbEntity
  8
0
100
AcDbLine
 62
7
  6
CONTINUOUS
 10
3.6483047486
 20
12.5074468106
 11
3.6927966135
 21
12.4372340366
  0
LINE
  5
3DB
100
AcDbEntity
  8
0
100
AcDbLine
 62
7
  6
CONTINUOUS
 10
3.2478815288
 20
14.522340399
 11
3.2033896639
 21
14.5925532222
  0
LINE
  5
3DC
100
AcDbEntity
  8
0
100
AcDbLine
 62
7
  6
CONTINUOUS
 10
3.880547
 20
18.1421285
 11
4.336531
 21
17.262449
  0
LINE
  5
3DD
100
AcDbEntity
  8
0
100
AcDbLine
 62
7
  6
CONTINUOUS
 10
4.8490375
 20
17.2624545
 11
4.364694564
 21
18.1968498057
  0
LINE
  5
3DE
100
AcDbEntity
  8
0
100
AcDbLine
 62
7
  6
CONTINUOUS
 10
5.2499996644
 20
12.6010638207
 11
5.2055088179
 21
12.6946808636
  0
LINE
  5
3DF
100
AcDbEntity
  8
0
100
AcDbLine
 62
7
  6
CONTINUOUS
 10
5.2055088179
 20
13.0925532222
 11
5.161016953
 21
13.1861702323
  0
LINE
  5
3E0
100
AcDbEntity
  8
0
100
AcDbLine
 62
7
  6
CONTINUOUS
 10
5.2499996644
 20
14.5925532222
 11
5.2055088179
 21
14.6861702323
  0
LINE
  5
3E1
100
AcDbEntity
  8
0
100
AcDbLine
 62
7
  6
CONTINUOUS
 10
4.0932203424
 20
14.8265957475
 11
3.9152539012
 21
14.7797872424
  0
LINE
  5
3E2
100
AcDbEntity
  8
0
100
AcDbLine
 62
7
  6
CONTINUOUS
 10
-2.75
 20
15.3989361674
 11
-2.8333332539
 21
15.3776595742
  0
LINE
  5
3E3
100
AcDbEntity
  8
0
100
AcDbLine
 62
7
  6
CONTINUOUS
 10
-2.8333332539
 20
15.25
 11
-2.7291667461
 21
15.2712765951
  0
LINE
  5
3E4
100
AcDbEntity
  8
0
100
AcDbLine
 62
7
  6
CONTINUOUS
 10
2.2690676297
 20
13.2095744848
 11
2.4915254266
 21
13.2329787374
  0
LINE
  5
3E5
100
AcDbEntity
  8
0
100
AcDbLine
 62
7
  6
CONTINUOUS
 10
-0.5783898288
 20
13.2095744848
 11
-0.3559320319
 21
13.2329787374
  0
LINE
  5
3E6
100
AcDbEntity
  8
0
100
AcDbLine
 62
7
  6
CONTINUOUS
 10
2.7139832235
 20
13.8904255316
 11
2.4915254266
 21
13.867021279
  0
LINE
  5
3E7
100
AcDbEntity
  8
0
100
AcDbLine
 62
7
  6
CONTINUOUS
 10
-0.1334747441
 20
13.8904255316
 11
-0.3559320319
 21
13.867021279
  0
LINE
  5
3E8
100
AcDbEntity
  8
0
100
AcDbLine
 62
7
  6
CONTINUOUS
 10
4.1377122073
 20
14.7095744848
 11
4.3601694951
 21
14.7329787374
  0
LINE
  5
3E9
100
AcDbEntity
  8
0
100
AcDbLine
 62
7
  6
CONTINUOUS
 10
2.2690676297
 20
14.7095744848
 11
2.4915254266
 21
14.7329787374
  0
LINE
  5
3EA
100
AcDbEntity
  8
0
100
AcDbLine
 62
7
  6
CONTINUOUS
 10
-0.5783898288
 20
14.7095744848
 11
-0.3559320319
 21
14.7329787374
  0
LINE
  5
3EB
100
AcDbEntity
  8
0
100
AcDbLine
 62
7
  6
CONTINUOUS
 10
2.4915254266
 20
13.35
 11
2.2245762739
 21
13.3265957475
  0
LINE
  5
3EC
100
AcDbEntity
  8
0
100
AcDbLine
 62
7
  6
CONTINUOUS
 10
-0.3559320319
 20
13.35
 11
-0.6228811845
 21
13.3265957475
  0
LINE
  5
3ED
100
AcDbEntity
  8
0
100
AcDbLine
 62
7
  6
CONTINUOUS
 10
2.4915254266
 20
13.75
 11
2.7584745792
 21
13.7734042546
  0
LINE
  5
3EE
100
AcDbEntity
  8
0
100
AcDbLine
 62
7
  6
CONTINUOUS
 10
-0.3559320319
 20
13.75
 11
-0.0889828792
 21
13.7734042546
  0
LINE
  5
3EF
100
AcDbEntity
  8
0
100
AcDbLine
 62
7
  6
CONTINUOUS
 10
2.4915254266
 20
14.85
 11
2.2245762739
 21
14.8265957475
  0
LINE
  5
3F0
100
AcDbEntity
  8
0
100
AcDbLine
 62
7
  6
CONTINUOUS
 10
-0.3559320319
 20
14.85
 11
-0.6228811845
 21
14.8265957475
  0
LINE
  5
3F1
100
AcDbEntity
  8
0
100
AcDbLine
 62
7
  6
CONTINUOUS
 10
4.4046613599
 20
13.35
 11
4.0932203424
 21
13.3265957475
  0
LINE
  5
3F2
100
AcDbEntity
  8
0
100
AcDbLine
 62
7
  6
CONTINUOUS
 10
4.4046613599
 20
14.85
 11
4.0932203424
 21
14.8265957475
  0
LINE
  5
3F3
100
AcDbEntity
  8
0
100
AcDbLine
 62
7
  6
CONTINUOUS
 10
4.3601694951
 20
12.7648936212
 11
4.5381359363
 21
12.7648936212
  0
LINE
  5
3F4
100
AcDbEntity
  8
0
100
AcDbLine
 62
7
  6
CONTINUOUS
 10
4.5381359363
 20
12.8585106313
 11
4.3601694951
 21
12.8585106313
  0
LINE
  5
3F5
100
AcDbEntity
  8
0
100
AcDbLine
 62
7
  6
CONTINUOUS
 10
3.6927966135
 20
13.0925532222
 11
3.9152539012
 21
13.0925532222
  0
LINE
  5
3F6
100
AcDbEntity
  8
0
100
AcDbLine
 62
7
  6
CONTINUOUS
 10
-3.1144067789
 20
13.2329787374
 11
-1.7796610157
 21
13.2329787374
  0
LINE
  5
3F7
100
AcDbEntity
  8
0
100
AcDbLine
 62
7
  6
CONTINUOUS
 10
4.3601694951
 20
13.2329787374
 11
4.5381359363
 21
13.2329787374
  0
LINE
  5
3F8
100
AcDbEntity
  8
0
100
AcDbLine
 62
7
  6
CONTINUOUS
 10
4.4936440714
 20
13.35
 11
4.4046613599
 21
13.35
  0
LINE
  5
3F9
100
AcDbEntity
  8
0
100
AcDbLine
 62
7
  6
CONTINUOUS
 10
1.3347455954
 20
13.35
 11
1.0677964428
 21
13.35
  0
LINE
  5
3FA
100
AcDbEntity
  8
0
100
AcDbLine
 62
7
  6
CONTINUOUS
 10
-1.512711863
 20
13.35
 11
-3.1144067789
 21
13.35
  0
LINE
  5
3FB
100
AcDbEntity
  8
0
100
AcDbLine
 62
7
  6
CONTINUOUS
 10
-3.4703390248
 20
13.35
 11
-3.7372881775
 21
13.35
  0
LINE
  5
3FC
100
AcDbEntity
  8
0
100
AcDbLine
 62
7
  6
CONTINUOUS
 10
-4.9830508474
 20
13.35
 11
-5.25
 21
13.35
  0
LINE
  5
3FD
100
AcDbEntity
  8
0
100
AcDbLine
 62
7
  6
CONTINUOUS
 10
-4.5381355717
 20
13.75
 11
-4.1822033894
 21
13.75
  0
LINE
  5
3FE
100
AcDbEntity
  8
0
100
AcDbLine
 62
7
  6
CONTINUOUS
 10
-2.6694914396
 20
13.75
 11
-2.402542287
 21
13.75
  0
LINE
  5
3FF
100
AcDbEntity
  8
0
100
AcDbLine
 62
7
  6
CONTINUOUS
 10
1.0677964428
 20
13.75
 11
1.3347455954
 21
13.75
  0
LINE
  5
400
100
AcDbEntity
  8
0
100
AcDbLine
 62
7
  6
CONTINUOUS
 10
3.6483047486
 20
13.75
 11
5.2499996644
 21
13.75
  0
LINE
  5
401
100
AcDbEntity
  8
0
100
AcDbLine
 62
7
  6
CONTINUOUS
 10
5.2499996644
 20
13.867021279
 11
4.004237631
 21
13.867021279
  0
LINE
  5
402
100
AcDbEntity
  8
0
100
AcDbLine
 62
7
  6
CONTINUOUS
 10
3.6927966135
 20
14.5925532222
 11
3.9152539012
 21
14.5925532222
  0
LINE
  5
403
100
AcDbEntity
  8
0
100
AcDbLine
 62
7
  6
CONTINUOUS
 10
-3.1144067789
 20
14.7329787374
 11
-1.7796610157
 21
14.7329787374
  0
LINE
  5
404
100
AcDbEntity
  8
0
100
AcDbLine
 62
7
  6
CONTINUOUS
 10
4.3601694951
 20
14.7329787374
 11
4.5381359363
 21
14.7329787374
  0
LINE
  5
405
100
AcDbEntity
  8
0
100
AcDbLine
 62
7
  6
CONTINUOUS
 10
4.5826267828
 20
14.85
 11
4.4046613599
 21
14.85
  0
LINE
  5
406
100
AcDbEntity
  8
0
100
AcDbLine
 62
7
  6
CONTINUOUS
 10
1.3347455954
 20
14.85
 11
1.0677964428
 21
14.85
  0
LINE
  5
407
100
AcDbEntity
  8
0
100
AcDbLine
 62
7
  6
CONTINUOUS
 10
-1.512711863
 20
14.85
 11
-3.1144067789
 21
14.85
  0
LINE
  5
408
100
AcDbEntity
  8
0
100
AcDbLine
 62
7
  6
CONTINUOUS
 10
-3.4703390248
 20
14.85
 11
-3.7372881775
 21
14.85
  0
LINE
  5
409
100
AcDbEntity
  8
0
100
AcDbLine
 62
7
  6
CONTINUOUS
 10
-4.9830508474
 20
14.85
 11
-5.25
 21
14.85
  0
LINE
  5
40A
100
AcDbEntity
  8
0
100
AcDbLine
 62
7
  6
CONTINUOUS
 10
-5.5
 20
15.25
 11
-5.375
 21
15.25
  0
LINE
  5
40B
100
AcDbEntity
  8
0
100
AcDbLine
 62
7
  6
CONTINUOUS
 10
-5.0833333433
 20
15.25
 11
-4.9166666865
 21
15.25
  0
LINE
  5
40C
100
AcDbEntity
  8
0
100
AcDbLine
 62
7
  6
CONTINUOUS
 10
-4.625
 20
15.25
 11
-4.5
 21
15.25
  0
LINE
  5
40D
100
AcDbEntity
  8
0
100
AcDbLine
 62
7
  6
CONTINUOUS
 10
-4.3333333731
 20
15.25
 11
-4.2083333731
 21
15.25
  0
LINE
  5
40E
100
AcDbEntity
  8
0
100
AcDbLine
 62
7
  6
CONTINUOUS
 10
-3.625
 20
15.25
 11
-3.5
 21
15.25
  0
LINE
  5
40F
100
AcDbEntity
  8
0
100
AcDbLine
 62
7
  6
CONTINUOUS
 10
-3.3333332539
 20
15.25
 11
-2.8333332539
 21
15.25
  0
LINE
  5
410
100
AcDbEntity
  8
0
100
AcDbLine
 62
7
  6
CONTINUOUS
 10
-2.3333332539
 20
15.25
 11
-1.5833332539
 21
15.25
  0
LINE
  5
411
100
AcDbEntity
  8
0
100
AcDbLine
 62
7
  6
CONTINUOUS
 10
-0.4166665077
 20
15.25
 11
-0.2916665077
 21
15.25
  0
LINE
  5
412
100
AcDbEntity
  8
0
100
AcDbLine
 62
7
  6
CONTINUOUS
 10
-0.125
 20
15.25
 11
0.0
 21
15.25
  0
LINE
  5
413
100
AcDbEntity
  8
0
100
AcDbLine
 62
7
  6
CONTINUOUS
 10
0.5208334923
 20
15.25
 11
0.7083334923
 21
15.25
  0
LINE
  5
414
100
AcDbEntity
  8
0
100
AcDbLine
 62
7
  6
CONTINUOUS
 10
1.875
 20
15.25
 11
2.0
 21
15.25
  0
LINE
  5
415
100
AcDbEntity
  8
0
100
AcDbLine
 62
7
  6
CONTINUOUS
 10
2.5
 20
15.25
 11
2.625
 21
15.25
  0
LINE
  5
416
100
AcDbEntity
  8
0
100
AcDbLine
 62
7
  6
CONTINUOUS
 10
3.125
 20
15.25
 11
3.25
 21
15.25
  0
LINE
  5
417
100
AcDbEntity
  8
0
100
AcDbLine
 62
7
  6
CONTINUOUS
 10
3.8333330154
 20
15.25
 11
3.9583330154
 21
15.25
  0
LINE
  5
418
100
AcDbEntity
  8
0
100
AcDbLine
 62
7
  6
CONTINUOUS
 10
4.125
 20
15.25
 11
4.875
 21
15.25
  0
LINE
  5
419
100
AcDbEntity
  8
0
100
AcDbLine
 62
7
  6
CONTINUOUS
 10
5.375
 20
15.25
 11
5.5
 21
15.25
  0
LINE
  5
41A
100
AcDbEntity
  8
0
100
AcDbLine
 62
7
  6
CONTINUOUS
 10
4.875
 20
15.3776595742
 11
4.25
 21
15.3776595742
  0
LINE
  5
41B
100
AcDbEntity
  8
0
100
AcDbLine
 62
7
  6
CONTINUOUS
 10
-1.5833332539
 20
15.3776595742
 11
-2.2083332539
 21
15.3776595742
  0
LINE
  5
41C
100
AcDbEntity
  8
0
100
AcDbLine
 62
7
  6
CONTINUOUS
 10
-2.8333332539
 20
15.3776595742
 11
-3.2083332539
 21
15.3776595742
  0
LINE
  5
41D
100
AcDbEntity
  8
0
100
AcDbLine
 62
7
  6
CONTINUOUS
 10
-4.125
 20
15.5053191483
 11
-3.7083333731
 21
15.5053191483
  0
LINE
  5
41E
100
AcDbEntity
  8
0
100
AcDbLine
 62
7
  6
CONTINUOUS
 10
3.3333330154
 20
15.5053191483
 11
3.75
 21
15.5053191483
  0
LINE
  5
41F
100
AcDbEntity
  8
0
100
AcDbLine
 62
7
  6
CONTINUOUS
 10
3.7291669846
 20
15.5904255211
 11
3.3541669846
 21
15.5904255211
  0
LINE
  5
420
100
AcDbEntity
  8
0
100
AcDbLine
 62
7
  6
CONTINUOUS
 10
-3.7291666269
 20
15.5904255211
 11
-4.1041666269
 21
15.5904255211
  0
LINE
  5
421
100
AcDbEntity
  8
0
100
AcDbLine
 62
7
  6
CONTINUOUS
 10
-2.2083332539
 20
15.7180851102
 11
-1.6666667461
 21
15.7180851102
  0
LINE
  5
422
100
AcDbEntity
  8
0
100
AcDbLine
 62
7
  6
CONTINUOUS
 10
4.8050850889
 20
13.3265957475
 11
4.4936440714
 21
13.35
  0
LINE
  5
423
100
AcDbEntity
  8
0
100
AcDbLine
 62
7
  6
CONTINUOUS
 10
4.5381359363
 20
12.7648936212
 11
4.8050850889
 21
12.7414893687
  0
LINE
  5
424
100
AcDbEntity
  8
0
100
AcDbLine
 62
7
  6
CONTINUOUS
 10
-0.0889828792
 20
13.3265957475
 11
-0.3559320319
 21
13.35
  0
LINE
  5
425
100
AcDbEntity
  8
0
100
AcDbLine
 62
7
  6
CONTINUOUS
 10
2.7584745792
 20
13.3265957475
 11
2.4915254266
 21
13.35
  0
LINE
  5
426
100
AcDbEntity
  8
0
100
AcDbLine
 62
7
  6
CONTINUOUS
 10
-0.6228811845
 20
13.7734042546
 11
-0.3559320319
 21
13.75
  0
LINE
  5
427
100
AcDbEntity
  8
0
100
AcDbLine
 62
7
  6
CONTINUOUS
 10
2.2245762739
 20
13.7734042546
 11
2.4915254266
 21
13.75
  0
LINE
  5
428
100
AcDbEntity
  8
0
100
AcDbLine
 62
7
  6
CONTINUOUS
 10
-0.0889828792
 20
14.8265957475
 11
-0.3559320319
 21
14.85
  0
LINE
  5
429
100
AcDbEntity
  8
0
100
AcDbLine
 62
7
  6
CONTINUOUS
 10
2.7584745792
 20
14.8265957475
 11
2.4915254266
 21
14.85
  0
LINE
  5
42A
100
AcDbEntity
  8
0
100
AcDbLine
 62
7
  6
CONTINUOUS
 10
4.8495759355
 20
14.8265957475
 11
4.5826267828
 21
14.85
  0
LINE
  5
42B
100
AcDbEntity
  8
0
100
AcDbLine
 62
7
  6
CONTINUOUS
 10
4.3156776302
 20
12.367021279
 11
4.0932203424
 21
12.3904255316
  0
LINE
  5
42C
100
AcDbEntity
  8
0
100
AcDbLine
 62
7
  6
CONTINUOUS
 10
-0.3559320319
 20
13.2329787374
 11
-0.1334747441
 21
13.2095744848
  0
LINE
  5
42D
100
AcDbEntity
  8
0
100
AcDbLine
 62
7
  6
CONTINUOUS
 10
2.4915254266
 20
13.2329787374
 11
2.7139832235
 21
13.2095744848
  0
LINE
  5
42E
100
AcDbEntity
  8
0
100
AcDbLine
 62
7
  6
CONTINUOUS
 10
4.5381359363
 20
13.2329787374
 11
4.760593224
 21
13.2095744848
  0
LINE
  5
42F
100
AcDbEntity
  8
0
100
AcDbLine
 62
7
  6
CONTINUOUS
 10
-0.3559320319
 20
13.867021279
 11
-0.5783898288
 21
13.8904255316
  0
LINE
  5
430
100
AcDbEntity
  8
0
100
AcDbLine
 62
7
  6
CONTINUOUS
 10
2.4915254266
 20
13.867021279
 11
2.2690676297
 21
13.8904255316
  0
LINE
  5
431
100
AcDbEntity
  8
0
100
AcDbLine
 62
7
  6
CONTINUOUS
 10
-0.3559320319
 20
14.7329787374
 11
-0.1334747441
 21
14.7095744848
  0
LINE
  5
432
100
AcDbEntity
  8
0
100
AcDbLine
 62
7
  6
CONTINUOUS
 10
2.4915254266
 20
14.7329787374
 11
2.7139832235
 21
14.7095744848
  0
LINE
  5
433
100
AcDbEntity
  8
0
100
AcDbLine
 62
7
  6
CONTINUOUS
 10
4.5381359363
 20
14.7329787374
 11
4.760593224
 21
14.7095744848
  0
LINE
  5
434
100
AcDbEntity
  8
0
100
AcDbLine
 62
7
  6
CONTINUOUS
 10
-2.7291667461
 20
16.2287234068
 11
-2.8333332539
 21
16.25
  0
LINE
  5
435
100
AcDbEntity
  8
0
100
AcDbLine
 62
7
  6
CONTINUOUS
 10
5.1165250881
 20
12.7648936212
 11
4.8940678003
 21
12.8117021263
  0
LINE
  5
436
100
AcDbEntity
  8
0
100
AcDbLine
 62
7
  6
CONTINUOUS
 10
-2.8333332539
 20
16.1223404408
 11
-2.75
 21
16.1010638475
  0
LINE
  5
437
100
AcDbEntity
  8
0
100
AcDbLine
 62
7
  6
CONTINUOUS
 10
3.9152539012
 20
12.3202127658
 11
4.0932203424
 21
12.2734042546
  0
LINE
  5
438
100
AcDbEntity
  8
0
100
AcDbLine
 62
7
  6
CONTINUOUS
 10
4.0932203424
 20
12.3904255316
 11
4.004237631
 21
12.4138297841
  0
LINE
  5
439
100
AcDbEntity
  8
0
100
AcDbLine
 62
7
  6
CONTINUOUS
 10
4.9830505118
 20
13.2797872424
 11
4.8050850889
 21
13.3265957475
  0
LINE
  5
43A
100
AcDbEntity
  8
0
100
AcDbLine
 62
7
  6
CONTINUOUS
 10
5.0275423767
 20
14.7797872424
 11
4.8495759355
 21
14.8265957475
  0
LINE
  5
43B
100
AcDbEntity
  8
0
100
AcDbLine
 62
7
  6
CONTINUOUS
 10
-0.8453389814
 20
13.8436170183
 11
-0.6228811845
 21
13.7734042546
  0
LINE
  5
43C
100
AcDbEntity
  8
0
100
AcDbLine
 62
7
  6
CONTINUOUS
 10
2.9809323761
 20
13.2563829899
 11
2.7584745792
 21
13.3265957475
  0
LINE
  5
43D
100
AcDbEntity
  8
0
100
AcDbLine
 62
7
  6
CONTINUOUS
 10
2.002118477
 20
13.8436170183
 11
2.2245762739
 21
13.7734042546
  0
LINE
  5
43E
100
AcDbEntity
  8
0
100
AcDbLine
 62
7
  6
CONTINUOUS
 10
0.1334744085
 20
14.7563829899
 11
-0.0889828792
 21
14.8265957475
  0
LINE
  5
43F
100
AcDbEntity
  8
0
100
AcDbLine
 62
7
  6
CONTINUOUS
 10
2.9809323761
 20
14.7563829899
 11
2.7584745792
 21
14.8265957475
  0
LINE
  5
440
100
AcDbEntity
  8
0
100
AcDbLine
 62
7
  6
CONTINUOUS
 10
-0.5783898288
 20
13.8904255316
 11
-0.7118644051
 21
13.9372340366
  0
LINE
  5
441
100
AcDbEntity
  8
0
100
AcDbLine
 62
7
  6
CONTINUOUS
 10
3.7817793249
 20
12.367021279
 11
3.9152539012
 21
12.3202127658
  0
LINE
  5
442
100
AcDbEntity
  8
0
100
AcDbLine
 62
7
  6
CONTINUOUS
 10
2.7139832235
 20
13.2095744848
 11
2.8474577998
 21
13.1627659798
  0
LINE
  5
443
100
AcDbEntity
  8
0
100
AcDbLine
 62
7
  6
CONTINUOUS
 10
4.8050850889
 20
12.7414893687
 11
4.9385596652
 21
12.6946808636
  0
LINE
  5
444
100
AcDbEntity
  8
0
100
AcDbLine
 62
7
  6
CONTINUOUS
 10
-0.1334747441
 20
14.7095744848
 11
-0.0000001678
 21
14.6627659798
  0
LINE
  5
445
100
AcDbEntity
  8
0
100
AcDbLine
 62
7
  6
CONTINUOUS
 10
2.2690676297
 20
13.8904255316
 11
2.1355930533
 21
13.9372340366
  0
LINE
  5
446
100
AcDbEntity
  8
0
100
AcDbLine
 62
7
  6
CONTINUOUS
 10
4.760593224
 20
13.2095744848
 11
4.8940678003
 21
13.1627659798
  0
LINE
  5
447
100
AcDbEntity
  8
0
100
AcDbLine
 62
7
  6
CONTINUOUS
 10
2.7139832235
 20
14.7095744848
 11
2.8474577998
 21
14.6627659798
  0
LINE
  5
448
100
AcDbEntity
  8
0
100
AcDbLine
 62
7
  6
CONTINUOUS
 10
4.760593224
 20
14.7095744848
 11
4.8940678003
 21
14.6627659798
  0
LINE
  5
449
100
AcDbEntity
  8
0
100
AcDbLine
 62
7
  6
CONTINUOUS
 10
-2.6458332539
 20
16.1861702204
 11
-2.7291667461
 21
16.2287234068
  0
LINE
  5
44A
100
AcDbEntity
  8
0
100
AcDbLine
 62
7
  6
CONTINUOUS
 10
4.004237631
 20
12.4138297841
 11
3.9152539012
 21
12.4606383055
  0
LINE
  5
44B
100
AcDbEntity
  8
0
100
AcDbLine
 62
7
  6
CONTINUOUS
 10
3.1144069525
 20
13.1861702323
 11
2.9809323761
 21
13.2563829899
  0
LINE
  5
44C
100
AcDbEntity
  8
0
100
AcDbLine
 62
7
  6
CONTINUOUS
 10
0.2669489848
 20
14.6861702323
 11
0.1334744085
 21
14.7563829899
  0
LINE
  5
44D
100
AcDbEntity
  8
0
100
AcDbLine
 62
7
  6
CONTINUOUS
 10
1.8686439007
 20
13.9138297841
 11
2.002118477
 21
13.8436170183
  0
LINE
  5
44E
100
AcDbEntity
  8
0
100
AcDbLine
 62
7
  6
CONTINUOUS
 10
5.161016953
 20
13.1861702323
 11
4.9830505118
 21
13.2797872424
  0
LINE
  5
44F
100
AcDbEntity
  8
0
100
AcDbLine
 62
7
  6
CONTINUOUS
 10
3.1144069525
 20
14.6861702323
 11
2.9809323761
 21
14.7563829899
  0
LINE
  5
450
100
AcDbEntity
  8
0
100
AcDbLine
 62
7
  6
CONTINUOUS
 10
5.2055088179
 20
14.6861702323
 11
5.0275423767
 21
14.7797872424
  0
LINE
  5
451
100
AcDbEntity
  8
0
100
AcDbLine
 62
7
  6
CONTINUOUS
 10
5.2055088179
 20
12.6946808636
 11
5.1165250881
 21
12.7648936212
  0
LINE
  5
452
100
AcDbEntity
  8
0
100
AcDbLine
 62
7
  6
CONTINUOUS
 10
2.8474577998
 20
14.6627659798
 11
3.0254237319
 21
14.522340399
  0
LINE
  5
453
100
AcDbEntity
  8
0
100
AcDbLine
 62
7
  6
CONTINUOUS
 10
4.8940678003
 20
13.1627659798
 11
4.9830505118
 21
13.0925532222
  0
LINE
  5
454
100
AcDbEntity
  8
0
100
AcDbLine
 62
7
  6
CONTINUOUS
 10
4.8940678003
 20
14.6627659798
 11
4.9830505118
 21
14.5925532222
  0
LINE
  5
455
100
AcDbEntity
  8
0
100
AcDbLine
 62
7
  6
CONTINUOUS
 10
5.0416669846
 20
16.25
 11
5.375
 21
15.7606382966
  0
LINE
  5
456
100
AcDbEntity
  8
0
100
AcDbLine
 62
7
  6
CONTINUOUS
 10
5.4375
 20
15.8457446694
 11
5.1666669846
 21
16.25
  0
LINE
  5
457
100
AcDbEntity
  8
0
100
AcDbLine
 62
7
  6
CONTINUOUS
 10
-1.6666667461
 20
15.8457446694
 11
-2.2083332539
 21
15.8457446694
  0
LINE
  5
458
100
AcDbEntity
  8
0
100
AcDbLine
 62
7
  6
CONTINUOUS
 10
-3.2083332539
 20
16.1223404408
 11
-2.8333332539
 21
16.1223404408
  0
LINE
  5
459
100
AcDbEntity
  8
0
100
AcDbLine
 62
7
  6
CONTINUOUS
 10
-2.2083332539
 20
16.1223404408
 11
-1.5833332539
 21
16.1223404408
  0
LINE
  5
45A
100
AcDbEntity
  8
0
100
AcDbLine
 62
7
  6
CONTINUOUS
 10
2.1666665077
 20
16.143617034
 11
2.5
 21
16.143617034
  0
LINE
  5
45B
100
AcDbEntity
  8
0
100
AcDbLine
 62
7
  6
CONTINUOUS
 10
2.625
 20
16.143617034
 11
2.9583330154
 21
16.143617034
  0
LINE
  5
45C
100
AcDbEntity
  8
0
100
AcDbLine
 62
7
  6
CONTINUOUS
 10
5.8333330154
 20
16.25
 11
5.7083330154
 21
16.25
  0
LINE
  5
45D
100
AcDbEntity
  8
0
100
AcDbLine
 62
7
  6
CONTINUOUS
 10
5.1666669846
 20
16.25
 11
5.0416669846
 21
16.25
  0
LINE
  5
45E
100
AcDbEntity
  8
0
100
AcDbLine
 62
7
  6
CONTINUOUS
 10
4.25
 20
16.25
 11
4.125
 21
16.25
  0
LINE
  5
45F
100
AcDbEntity
  8
0
100
AcDbLine
 62
7
  6
CONTINUOUS
 10
3.625
 20
16.25
 11
3.4583330154
 21
16.25
  0
LINE
  5
460
100
AcDbEntity
  8
0
100
AcDbLine
 62
7
  6
CONTINUOUS
 10
2.9583330154
 20
16.25
 11
2.1666665077
 21
16.25
  0
LINE
  5
461
100
AcDbEntity
  8
0
100
AcDbLine
 62
7
  6
CONTINUOUS
 10
2.0
 20
16.25
 11
1.875
 21
16.25
  0
LINE
  5
462
100
AcDbEntity
  8
0
100
AcDbLine
 62
7
  6
CONTINUOUS
 10
0.7083334923
 20
16.25
 11
0.5833334923
 21
16.25
  0
LINE
  5
463
100
AcDbEntity
  8
0
100
AcDbLine
 62
7
  6
CONTINUOUS
 10
0.0625
 20
16.25
 11
-0.125
 21
16.25
  0
LINE
  5
464
100
AcDbEntity
  8
0
100
AcDbLine
 62
7
  6
CONTINUOUS
 10
-0.2916665077
 20
16.25
 11
-0.4166665077
 21
16.25
  0
LINE
  5
465
100
AcDbEntity
  8
0
100
AcDbLine
 62
7
  6
CONTINUOUS
 10
-1.5833332539
 20
16.25
 11
-2.3333332539
 21
16.25
  0
LINE
  5
466
100
AcDbEntity
  8
0
100
AcDbLine
 62
7
  6
CONTINUOUS
 10
-2.8333332539
 20
16.25
 11
-3.3333332539
 21
16.25
  0
LINE
  5
467
100
AcDbEntity
  8
0
100
AcDbLine
 62
7
  6
CONTINUOUS
 10
-3.8333333731
 20
16.25
 11
-4.0
 21
16.25
  0
LINE
  5
468
100
AcDbEntity
  8
0
100
AcDbLine
 62
7
  6
CONTINUOUS
 10
-4.5
 20
16.25
 11
-4.6875
 21
16.25
  0
LINE
  5
469
100
AcDbEntity
  8
0
100
AcDbLine
 62
7
  6
CONTINUOUS
 10
-5.3125
 20
16.25
 11
-5.5
 21
16.25
  0
LINE
  5
46A
100
AcDbEntity
  8
0
100
AcDbLine
 62
7
  6
CONTINUOUS
 10
4.336531
 20
17.262449
 11
4.8490375
 21
17.2624545
  0
LINE
  5
46B
100
AcDbEntity
  8
0
100
AcDbLine
 62
7
  6
CONTINUOUS
 10
0.809047
 20
17.262443
 11
1.264064
 21
17.262449
  0
LINE
  5
46C
100
AcDbEntity
  8
0
100
AcDbLine
 62
7
  6
CONTINUOUS
 10
-1.7197235
 20
17.262443
 11
-1.2647065
 21
17.262443
  0
LINE
  5
46D
100
AcDbEntity
  8
0
100
AcDbLine
 62
7
  6
CONTINUOUS
 10
0.050687
 20
17.262443
 11
0.505704
 21
17.262443
  0
LINE
  5
46E
100
AcDbEntity
  8
0
100
AcDbLine
 62
7
  6
CONTINUOUS
 10
3.0283435
 20
17.262449
 11
3.4833665
 21
17.262449
  0
LINE
  5
46F
100
AcDbEntity
  8
0
100
AcDbLine
 62
7
  6
CONTINUOUS
 10
-0.8345155
 20
17.262443
 11
-0.37951
 21
17.262449
  0
LINE
  5
470
100
AcDbEntity
  8
0
100
AcDbLine
 62
7
  6
CONTINUOUS
 10
-2.6297465
 20
17.2624375
 11
-2.1747295
 21
17.262443
  0
LINE
  5
471
100
AcDbEntity
  8
0
100
AcDbLine
 62
7
  6
CONTINUOUS
 10
2.269978
 20
17.262449
 11
2.7250005
 21
17.262443
  0
LINE
  5
472
100
AcDbEntity
  8
0
100
AcDbLine
 62
7
  6
CONTINUOUS
 10
-4.1185805
 20
17.2624375
 11
-3.6635465
 21
17.262443
  0
LINE
  5
473
100
AcDbEntity
  8
0
100
AcDbLine
 62
7
  6
CONTINUOUS
 10
1.407713
 20
17.7098615
 11
2.1263345
 21
17.7098615
  0
LINE
  5
474
100
AcDbEntity
  8
0
100
AcDbLine
 62
7
  6
CONTINUOUS
 10
1.9875365
 20
18.1421285
 11
1.546505
 21
18.1421285
  0
LINE
  5
475
100
AcDbEntity
  8
0
100
AcDbLine
 62
7
  6
CONTINUOUS
 10
3.4834175
 20
18.1421345
 11
3.880547
 21
18.1421285
  0
LINE
  5
476
100
AcDbEntity
  8
0
100
AcDbLine
 62
7
  6
CONTINUOUS
 10
4.0306963536
 20
18.5630265
 11
3.477093
 21
18.5630265
  0
LINE
  5
477
100
AcDbEntity
  8
0
100
AcDbLine
 62
7
  6
CONTINUOUS
 10
3.4770875
 20
19.116659
 11
4.030684
 21
19.116659
  0
LINE
  5
478
100
AcDbEntity
  8
0
100
AcDbLine
 62
7
  6
CONTINUOUS
 10
0.505704
 20
19.5375455
 11
-0.1821595
 21
19.5375455
  0
LINE
  5
479
100
AcDbEntity
  8
0
100
AcDbLine
 62
7
  6
CONTINUOUS
 10
-1.0318605
 20
19.5375455
 11
-1.7197235
 21
19.5375455
  0
LINE
  5
47A
100
AcDbEntity
  8
0
100
AcDbLine
 62
7
  6
CONTINUOUS
 10
-2.1747235
 20
19.5375455
 11
-2.629741
 21
19.5375455
  0
LINE
  5
47B
100
AcDbEntity
  8
0
100
AcDbLine
 62
7
  6
CONTINUOUS
 10
-2.9330835
 20
19.5375455
 11
-3.3881065
 21
19.5375455
  0
LINE
  5
47C
100
AcDbEntity
  8
0
100
AcDbLine
 62
7
  6
CONTINUOUS
 10
-4.3940145
 20
19.5375455
 11
-4.8490375
 21
19.5375455
  0
LINE
  5
47D
100
AcDbEntity
  8
0
100
AcDbLine
 62
7
  6
CONTINUOUS
 10
4.0938657368
 20
19.537551
 11
3.0283435
 21
19.537551
  0
LINE
  5
47E
100
AcDbEntity
  8
0
100
AcDbLine
 62
7
  6
CONTINUOUS
 10
1.994538
 20
19.537551
 11
1.539498
 21
19.537551
  0
LINE
  5
47F
100
AcDbEntity
  8
0
100
AcDbLine
 62
7
  6
CONTINUOUS
 10
6.0
 20
20.0
 11
-6.0
 21
20.0
  0
LINE
  5
480
100
AcDbEntity
  8
0
100
AcDbLine
 62
7
  6
CONTINUOUS
 10
30.5
 20
28.0
 11
-30.5
 21
28.0
  0
LINE
  5
481
100
AcDbEntity
  8
0
100
AcDbLine
 62
7
  6
CONTINUOUS
 10
-30.5
 20
29.5
 11
30.5
 21
29.5
  0
LINE
  5
482
100
AcDbEntity
  8
0
100
AcDbLine
 62
7
  6
CONTINUOUS
 10
34.0
 20
-24.5
 11
34.0
 21
24.5
  0
LINE
  5
483
100
AcDbEntity
  8
0
100
AcDbLine
 62
7
  6
CONTINUOUS
 10
35.5
 20
24.5
 11
35.5
 21
-24.5
  0
ARC
  5
484
100
AcDbEntity
  8
0
100
AcDbCircle
 62
7
  6
CONTINUOUS
 10
-30.5
 20
-24.5
 40
5.0
100
AcDbArc
 50
180.0
 51
270.0
  0
ARC
  5
485
100
AcDbEntity
  8
0
100
AcDbCircle
 62
7
  6
CONTINUOUS
 10
-30.5
 20
-24.5
 40
3.5
100
AcDbArc
 50
180.0
 51
270.0
  0
CIRCLE
  5
486
100
AcDbEntity
  8
RACCORDO
100
AcDbCircle
 62
250
  6
CONTINUOUS
 10
-25.5
 20
-19.5
 40
2.6246607773
  0
CIRCLE
  5
487
100
AcDbEntity
  8
RACCORDO
100
AcDbCircle
 62
250
  6
CONTINUOUS
 10
-25.5
 20
-19.5
 40
1.8788441269
  0
CIRCLE
  5
488
100
AcDbEntity
  8
ASSI
100
AcDbCircle
 62
7
  6
CONTINUOUS
 10
-25.5
 20
-19.5
 40
1.6
  0
ARC
  5
489
100
AcDbEntity
  8
ASSI
100
AcDbCircle
 62
7
  6
CONTINUOUS
 10
-0.483777
 20
-14.0
 40
1.2749992699
100
AcDbArc
 50
87.7525290943
 51
272.2474708969
  0
ARC
  5
48A
100
AcDbEntity
  8
ASSI
100
AcDbCircle
 62
7
  6
CONTINUOUS
 10
-0.483777
 20
-14.0
 40
0.8999999623
100
AcDbArc
 50
90.2872950472
 51
273.1847386526
  0
CIRCLE
  5
48B
100
AcDbEntity
  8
0
100
AcDbCircle
 62
7
  6
CONTINUOUS
 10
-25.5
 20
-19.5
 40
0.825
  0
ARC
  5
48C
100
AcDbEntity
  8
0
100
AcDbCircle
 62
7
  6
CONTINUOUS
 10
-30.5
 20
24.5
 40
5.0
100
AcDbArc
 50
90.0
 51
180.0
  0
ARC
  5
48D
100
AcDbEntity
  8
0
100
AcDbCircle
 62
7
  6
CONTINUOUS
 10
-30.5
 20
24.5
 40
3.5
100
AcDbArc
 50
90.0
 51
180.0
  0
CIRCLE
  5
48E
100
AcDbEntity
  8
RACCORDO
100
AcDbCircle
 62
250
  6
CONTINUOUS
 10
-25.5
 20
19.5
 40
2.6246607773
  0
CIRCLE
  5
48F
100
AcDbEntity
  8
RACCORDO
100
AcDbCircle
 62
250
  6
CONTINUOUS
 10
-25.5
 20
19.5
 40
1.8788441269
  0
CIRCLE
  5
490
100
AcDbEntity
  8
ASSI
100
AcDbCircle
 62
7
  6
CONTINUOUS
 10
-25.5
 20
19.5
 40
1.6
  0
CIRCLE
  5
491
100
AcDbEntity
  8
0
100
AcDbCircle
 62
7
  6
CONTINUOUS
 10
-25.5
 20
19.5
 40
0.825
  0
ARC
  5
492
100
AcDbEntity
  8
0
100
AcDbCircle
 62
7
  6
CONTINUOUS
 10
30.5
 20
-24.5
 40
5.0
100
AcDbArc
 50
270.0
 51
360.0
  0
ARC
  5
493
100
AcDbEntity
  8
0
100
AcDbCircle
 62
7
  6
CONTINUOUS
 10
30.5
 20
-24.5
 40
3.5
100
AcDbArc
 50
270.0
 51
360.0
  0
CIRCLE
  5
494
100
AcDbEntity
  8
RACCORDO
100
AcDbCircle
 62
250
  6
CONTINUOUS
 10
25.5
 20
-19.5
 40
2.6246607773
  0
CIRCLE
  5
495
100
AcDbEntity
  8
RACCORDO
100
AcDbCircle
 62
250
  6
CONTINUOUS
 10
25.5
 20
-19.5
 40
1.8788441269
  0
CIRCLE
  5
496
100
AcDbEntity
  8
ASSI
100
AcDbCircle
 62
7
  6
CONTINUOUS
 10
25.5
 20
-19.5
 40
1.6
  0
ARC
  5
497
100
AcDbEntity
  8
ASSI
100
AcDbCircle
 62
7
  6
CONTINUOUS
 10
1.708778
 20
-14.0
 40
1.2749993288
100
AcDbArc
 50
87.7525289739
 51
272.2474707935
  0
ARC
  5
498
100
AcDbEntity
  8
ASSI
100
AcDbCircle
 62
7
  6
CONTINUOUS
 10
1.708778
 20
-14.0
 40
0.8999999623
100
AcDbArc
 50
86.8152613297
 51
167.9752999778
  0
ARC
  5
499
100
AcDbEntity
  8
ASSI
100
AcDbCircle
 62
7
  6
CONTINUOUS
 10
1.708778
 20
-14.0
 40
0.8999984404
100
AcDbArc
 50
192.0247203293
 51
273.1847444946
  0
CIRCLE
  5
49A
100
AcDbEntity
  8
0
100
AcDbCircle
 62
7
  6
CONTINUOUS
 10
25.5
 20
-19.5
 40
0.825
  0
ARC
  5
49B
100
AcDbEntity
  8
0
100
AcDbCircle
 62
7
  6
CONTINUOUS
 10
30.5
 20
24.5
 40
5.0
100
AcDbArc
 50
0.0
 51
90.0
  0
ARC
  5
49C
100
AcDbEntity
  8
0
100
AcDbCircle
 62
7
  6
CONTINUOUS
 10
30.5
 20
24.5
 40
3.5
100
AcDbArc
 50
0.0
 51
90.0
  0
CIRCLE
  5
49D
100
AcDbEntity
  8
RACCORDO
100
AcDbCircle
 62
250
  6
CONTINUOUS
 10
25.5
 20
19.5
 40
2.6246607773
  0
CIRCLE
  5
49E
100
AcDbEntity
  8
RACCORDO
100
AcDbCircle
 62
250
  6
CONTINUOUS
 10
25.5
 20
19.5
 40
1.8788441269
  0
CIRCLE
  5
49F
100
AcDbEntity
  8
ASSI
100
AcDbCircle
 62
7
  6
CONTINUOUS
 10
25.5
 20
19.5
 40
1.6
  0
ARC
  5
4A0
100
AcDbEntity
  8
ASSI
100
AcDbCircle
 62
7
  6
CONTINUOUS
 10
3.25
 20
10.75
 40
1.3118712163
100
AcDbArc
 50
292.0885385181
 51
273.429746808
  0
ARC
  5
4A1
100
AcDbEntity
  8
ASSI
100
AcDbCircle
 62
7
  6
CONTINUOUS
 10
3.2103215
 20
8.2769535
 40
1.1695093526
100
AcDbArc
 50
47.2312712626
 51
84.2012614526
  0
ARC
  5
4A2
100
AcDbEntity
  8
ASSI
100
AcDbCircle
 62
7
  6
CONTINUOUS
 10
3.302361
 20
8.466388
 40
1.1554747561
100
AcDbArc
 50
45.4348886633
 51
67.5658624041
  0
CIRCLE
  5
4A3
100
AcDbEntity
  8
ASSI
100
AcDbCircle
 62
7
  6
CONTINUOUS
 10
3.25
 20
10.75
 40
1.10188
  0
ARC
  5
4A4
100
AcDbEntity
  8
ASSI
100
AcDbCircle
 62
7
  6
CONTINUOUS
 10
3.25
 20
10.75
 40
0.9854783623
100
AcDbArc
 50
299.3041457634
 51
44.9957848393
  0
ARC
  5
4A5
100
AcDbEntity
  8
ASSI
100
AcDbCircle
 62
7
  6
CONTINUOUS
 10
3.25
 20
10.75
 40
0.9854781822
100
AcDbArc
 50
134.9002846268
 51
240.6958542366
  0
CIRCLE
  5
4A6
100
AcDbEntity
  8
0
100
AcDbCircle
 62
7
  6
CONTINUOUS
 10
25.5
 20
19.5
 40
0.825
  0
ARC
  5
4A7
100
AcDbEntity
  8
ASSI
100
AcDbCircle
 62
7
  6
CONTINUOUS
 10
3.25
 20
10.75
 40
0.7895460638
100
AcDbArc
 50
148.0267086216
 51
240.6958772397
  0
ARC
  5
4A8
100
AcDbEntity
  8
ASSI
100
AcDbCircle
 62
7
  6
CONTINUOUS
 10
3.25
 20
10.75
 40
0.7895459988
100
AcDbArc
 50
299.3041227603
 51
31.9732906939
  0
ARC
  5
4A9
100
AcDbEntity
  8
0
100
AcDbCircle
 62
7
  6
CONTINUOUS
 10
4.0938395
 20
18.839842
 40
0.6977116276
100
AcDbArc
 50
292.8428504666
 51
89.9978454392
  0
ARC
  5
4AA
100
AcDbEntity
  8
0
100
AcDbCircle
 62
7
  6
CONTINUOUS
 10
4.030684
 20
18.839842
 40
0.276817
100
AcDbArc
 50
270.0025569731
 51
90.0
  0
SPLINE
  5
4AB
100
AcDbEntity
  8
0
100
AcDbSpline
 62
7
  6
CONTINUOUS
 70
0
 71
3
 72
13
 73
9
 74
0
 42
0.0000001
 43
0.0000001
 44
0.0000000001
 40
0.0
 40
0.0
 40
0.0
 40
0.0
 40
0.1090102571
 40
0.2629304367
 40
0.3769949355
 40
0.5319517997
 40
0.9696565867
 40
1.0
 40
1.0
 40
1.0
 40
1.0
 10
-0.694795045
 20
11.4900480208
 30
0.0
 10
-0.6813797974
 20
11.4900480111
 30
0.0
 10
-0.6489816689
 20
11.4882454423
 30
0.0
 10
-0.6033638713
 20
11.4788704267
 30
0.0
 10
-0.5537889733
 20
11.462610696
 30
0.0
 10
-0.4790092191
 20
11.4145510075
 30
0.0
 10
-0.4529046046
 20
11.3301334585
 30
0.0
 10
-0.4535616131
 20
11.2727285396
 30
0.0
 10
-0.4535616131
 20
11.2689943553
 30
0.0
  0
SPLINE
  5
4AC
100
AcDbEntity
  8
0
100
AcDbSpline
 62
7
  6
CONTINUOUS
 70
0
 71
3
 72
13
 73
9
 74
0
 42
0.0000001
 43
0.0000001
 44
0.0000000001
 40
0.0
 40
0.0
 40
0.0
 40
0.0
 40
0.0303431946
 40
0.4680448254
 40
0.6230005723
 40
0.7370642487
 40
0.8909833185
 40
1.0
 40
1.0
 40
1.0
 40
1.0
 10
-0.4535616131
 20
11.2689943553
 30
0.0
 10
-0.4535616131
 20
11.2652601709
 30
0.0
 10
-0.4529046046
 20
11.2078552521
 30
0.0
 10
-0.4790092191
 20
11.123437703
 30
0.0
 10
-0.5537889733
 20
11.0753780145
 30
0.0
 10
-0.6033638713
 20
11.0591182838
 30
0.0
 10
-0.6489825414
 20
11.049743089
 30
0.0
 10
-0.6813815744
 20
11.0479406006
 30
0.0
 10
-0.6947977071
 20
11.0479406897
 30
0.0
  0
SPLINE
  5
4AD
100
AcDbEntity
  8
0
100
AcDbSpline
 62
7
  6
CONTINUOUS
 70
0
 71
3
 72
14
 73
10
 74
0
 42
0.0000001
 43
0.0000001
 44
0.0000000001
 40
0.0
 40
0.0
 40
0.0
 40
0.0
 40
0.0225390882
 40
0.3772348129
 40
0.5079913664
 40
0.6486373296
 40
0.7545283619
 40
0.9056859643
 40
1.0
 40
1.0
 40
1.0
 40
1.0
 10
-0.276012271
 20
11.2689943553
 30
0.0
 10
-0.276012271
 20
11.2734427236
 30
0.0
 10
-0.2753712908
 20
11.3478020864
 30
0.0
 10
-0.3034012536
 20
11.4521099596
 30
0.0
 10
-0.3847184347
 20
11.5462892199
 30
0.0
 10
-0.4461966231
 20
11.5900297473
 30
0.0
 10
-0.5194342735
 20
11.6191654062
 30
0.0
 10
-0.5875092584
 20
11.6344745761
 30
0.0
 10
-0.6360011499
 20
11.6373950207
 30
0.0
 10
-0.6546151939
 20
11.6373950362
 30
0.0
  0
SPLINE
  5
4AE
100
AcDbEntity
  8
0
100
AcDbSpline
 62
7
  6
CONTINUOUS
 70
0
 71
3
 72
14
 73
10
 74
0
 42
0.0000001
 43
0.0000001
 44
0.0000000001
 40
0.0
 40
0.0
 40
0.0
 40
0.0
 40
0.0943174667
 40
0.2454744965
 40
0.3513651276
 40
0.492010558
 40
0.6227666162
 40
0.9774609972
 40
1.0
 40
1.0
 40
1.0
 40
1.0
 10
-0.6546174368
 20
10.9005936743
 30
0.0
 10
-0.6360026466
 20
10.9005935997
 30
0.0
 10
-0.5875099923
 20
10.9035139694
 30
0.0
 10
-0.5194342735
 20
10.9188233044
 30
0.0
 10
-0.4461966231
 20
10.9479589632
 30
0.0
 10
-0.3847184347
 20
10.9916994906
 30
0.0
 10
-0.3034012536
 20
11.085878751
 30
0.0
 10
-0.2753712908
 20
11.1901866241
 30
0.0
 10
-0.276012271
 20
11.2645459869
 30
0.0
 10
-0.276012271
 20
11.2689943553
 30
0.0
  0
SPLINE
  5
4AF
100
AcDbEntity
  8
0
100
AcDbSpline
 62
7
  6
CONTINUOUS
 70
0
 71
3
 72
16
 73
12
 74
0
 42
0.0000001
 43
0.0000001
 44
0.0000000001
 40
0.0
 40
0.0
 40
0.0
 40
0.0
 40
0.081582199
 40
0.1574553967
 40
0.3066287736
 40
0.384848994
 40
0.5792892447
 40
0.6959714606
 40
0.8475957974
 40
0.961835767
 40
1.0
 40
1.0
 40
1.0
 40
1.0
 10
1.2846227729
 20
11.497111072
 30
0.0
 10
1.3015386
 20
11.497111072
 30
0.0
 10
1.3342575785
 20
11.4928386248
 30
0.0
 10
1.3945789416
 20
11.4708253228
 30
0.0
 10
1.4423507684
 20
11.4266228765
 30
0.0
 10
1.4915957638
 20
11.3541106058
 30
0.0
 10
1.5153575478
 20
11.2753665643
 30
0.0
 10
1.534293665
 20
11.181533159
 30
0.0
 10
1.5436511527
 20
11.1025529144
 30
0.0
 10
1.5456604624
 20
11.0395138236
 30
0.0
 10
1.5455162994
 20
11.0079132406
 30
0.0
 10
1.5455162994
 20
11.0
 30
0.0
  0
SPLINE
  5
4B0
100
AcDbEntity
  8
0
100
AcDbSpline
 62
7
  6
CONTINUOUS
 70
0
 71
3
 72
16
 73
12
 74
0
 42
0.0000001
 43
0.0000001
 44
0.0000000001
 40
0.0
 40
0.0
 40
0.0
 40
0.0
 40
0.038164233
 40
0.1524042026
 40
0.3040285394
 40
0.4207107553
 40
0.615151006
 40
0.6933712264
 40
0.8425446033
 40
0.918417801
 40
1.0
 40
1.0
 40
1.0
 40
1.0
 10
1.5455162994
 20
11.0
 30
0.0
 10
1.5455162994
 20
10.9920867594
 30
0.0
 10
1.5456604624
 20
10.9604861764
 30
0.0
 10
1.5436511527
 20
10.8974470856
 30
0.0
 10
1.534293665
 20
10.818466841
 30
0.0
 10
1.5153575478
 20
10.7246334357
 30
0.0
 10
1.4915957638
 20
10.6458893942
 30
0.0
 10
1.4423507684
 20
10.5733771235
 30
0.0
 10
1.3945789416
 20
10.5291746772
 30
0.0
 10
1.3342575785
 20
10.5071613752
 30
0.0
 10
1.3015386
 20
10.502888928
 30
0.0
 10
1.2846227729
 20
10.502888928
 30
0.0
  0
SPLINE
  5
4B1
100
AcDbEntity
  8
0
100
AcDbSpline
 62
7
  6
CONTINUOUS
 70
0
 71
3
 72
16
 73
12
 74
0
 42
0.0000001
 43
0.0000001
 44
0.0000000001
 40
0.0
 40
0.0
 40
0.0
 40
0.0
 40
0.081582199
 40
0.1574553967
 40
0.3066287736
 40
0.384848994
 40
0.5792892447
 40
0.6959714606
 40
0.8475957974
 40
0.961835767
 40
1.0
 40
1.0
 40
1.0
 40
1.0
 10
1.2846227729
 20
10.502888928
 30
0.0
 10
1.2677069458
 20
10.502888928
 30
0.0
 10
1.2349879673
 20
10.5071613752
 30
0.0
 10
1.1746666042
 20
10.5291746772
 30
0.0
 10
1.1268947774
 20
10.5733771235
 30
0.0
 10
1.077649782
 20
10.6458893942
 30
0.0
 10
1.053887998
 20
10.7246334357
 30
0.0
 10
1.0349518808
 20
10.818466841
 30
0.0
 10
1.0255943931
 20
10.8974470856
 30
0.0
 10
1.0235850834
 20
10.9604861764
 30
0.0
 10
1.0237292464
 20
10.9920867594
 30
0.0
 10
1.0237292464
 20
11.0
 30
0.0
  0
SPLINE
  5
4B2
100
AcDbEntity
  8
0
100
AcDbSpline
 62
7
  6
CONTINUOUS
 70
0
 71
3
 72
16
 73
12
 74
0
 42
0.0000001
 43
0.0000001
 44
0.0000000001
 40
0.0
 40
0.0
 40
0.0
 40
0.0
 40
0.038164233
 40
0.1524042026
 40
0.3040285394
 40
0.4207107553
 40
0.615151006
 40
0.6933712264
 40
0.8425446033
 40
0.918417801
 40
1.0
 40
1.0
 40
1.0
 40
1.0
 10
1.0237292464
 20
11.0
 30
0.0
 10
1.0237292464
 20
11.0079132406
 30
0.0
 10
1.0235850834
 20
11.0395138236
 30
0.0
 10
1.0255943931
 20
11.1025529144
 30
0.0
 10
1.0349518808
 20
11.181533159
 30
0.0
 10
1.053887998
 20
11.2753665643
 30
0.0
 10
1.077649782
 20
11.3541106058
 30
0.0
 10
1.1268947774
 20
11.4266228765
 30
0.0
 10
1.1746666042
 20
11.4708253228
 30
0.0
 10
1.2349879673
 20
11.4928386248
 30
0.0
 10
1.2677069458
 20
11.497111072
 30
0.0
 10
1.2846227729
 20
11.497111072
 30
0.0
  0
SPLINE
  5
4B3
100
AcDbEntity
  8
0
100
AcDbSpline
 62
7
  6
CONTINUOUS
 70
0
 71
3
 72
23
 73
19
 74
0
 42
0.0000001
 43
0.0000001
 44
0.0000000001
 40
0.0
 40
0.0
 40
0.0
 40
0.0
 40
0.1175716721
 40
0.2550368586
 40
0.3463162708
 40
0.4140846673
 40
0.5095606694
 40
0.6178461101
 40
0.6617319017
 40
0.7152414415
 40
0.7583771864
 40
0.8078403706
 40
0.8439461126
 40
0.889742133
 40
0.9288974336
 40
0.9679984913
 40
0.9901309194
 40
1.0
 40
1.0
 40
1.0
 40
1.0
 10
1.2846227729
 20
10.3626092981
 30
0.0
 10
1.3183497219
 20
10.3626092981
 30
0.0
 10
1.3917404161
 20
10.3719300249
 30
0.0
 10
1.4847955217
 20
10.4118780447
 30
0.0
 10
1.5503208732
 20
10.4673132788
 30
0.0
 10
1.5966571048
 20
10.5239437647
 30
0.0
 10
1.6378934215
 20
10.5904933337
 30
0.0
 10
1.6629304241
 20
10.6574423997
 30
0.0
 10
1.6781940485
 20
10.7144249716
 30
0.0
 10
1.6874182542
 20
10.7536835129
 30
0.0
 10
1.6954282869
 20
10.7948308958
 30
0.0
 10
1.7012205654
 20
10.8313038651
 30
0.0
 10
1.705913221
 20
10.8686983976
 30
0.0
 10
1.7091653204
 20
10.9032802846
 30
0.0
 10
1.7113473621
 20
10.9388040737
 30
0.0
 10
1.7122696252
 20
10.9675920114
 30
0.0
 10
1.7124226804
 20
10.9879888984
 30
0.0
 10
1.7124101218
 20
10.9971689271
 30
0.0
 10
1.7124101218
 20
11.0
 30
0.0
  0
SPLINE
  5
4B4
100
AcDbEntity
  8
0
100
AcDbSpline
 62
7
  6
CONTINUOUS
 70
0
 71
3
 72
23
 73
19
 74
0
 42
0.0000001
 43
0.0000001
 44
0.0000000001
 40
0.0
 40
0.0
 40
0.0
 40
0.0
 40
0.0098690806
 40
0.0320015087
 40
0.0711025664
 40
0.110257867
 40
0.1560538874
 40
0.1921596294
 40
0.2416228136
 40
0.2847585585
 40
0.3382680983
 40
0.3821538899
 40
0.4904393306
 40
0.5859153327
 40
0.6536837292
 40
0.7449631414
 40
0.8824283279
 40
1.0
 40
1.0
 40
1.0
 40
1.0
 10
1.7124101218
 20
11.0
 30
0.0
 10
1.7124101218
 20
11.0028310729
 30
0.0
 10
1.7124226804
 20
11.0120111016
 30
0.0
 10
1.7122696252
 20
11.0324079886
 30
0.0
 10
1.7113473621
 20
11.0611959263
 30
0.0
 10
1.7091653204
 20
11.0967197154
 30
0.0
 10
1.705913221
 20
11.1313016024
 30
0.0
 10
1.7012205654
 20
11.1686961349
 30
0.0
 10
1.6954282869
 20
11.2051691042
 30
0.0
 10
1.6874182542
 20
11.2463164871
 30
0.0
 10
1.6781940485
 20
11.2855750284
 30
0.0
 10
1.6629304241
 20
11.3425576003
 30
0.0
 10
1.6378934215
 20
11.4095066663
 30
0.0
 10
1.5966571048
 20
11.4760562353
 30
0.0
 10
1.5503208732
 20
11.5326867212
 30
0.0
 10
1.4847955217
 20
11.5881219553
 30
0.0
 10
1.3917404161
 20
11.6280699751
 30
0.0
 10
1.3183497219
 20
11.6373907019
 30
0.0
 10
1.2846227729
 20
11.6373907019
 30
0.0
  0
SPLINE
  5
4B5
100
AcDbEntity
  8
0
100
AcDbSpline
 62
7
  6
CONTINUOUS
 70
0
 71
3
 72
23
 73
19
 74
0
 42
0.0000001
 43
0.0000001
 44
0.0000000001
 40
0.0
 40
0.0
 40
0.0
 40
0.0
 40
0.1175716721
 40
0.2550368586
 40
0.3463162708
 40
0.4140846673
 40
0.5095606694
 40
0.6178461101
 40
0.6617319017
 40
0.7152414415
 40
0.7583771864
 40
0.8078403706
 40
0.8439461126
 40
0.889742133
 40
0.9288974336
 40
0.9679984913
 40
0.9901309194
 40
1.0
 40
1.0
 40
1.0
 40
1.0
 10
1.2846227729
 20
11.6373907019
 30
0.0
 10
1.2508958239
 20
11.6373907019
 30
0.0
 10
1.1775051297
 20
11.6280699751
 30
0.0
 10
1.0844500241
 20
11.5881219553
 30
0.0
 10
1.0189246726
 20
11.5326867212
 30
0.0
 10
0.972588441
 20
11.4760562353
 30
0.0
 10
0.9313521243
 20
11.4095066663
 30
0.0
 10
0.9063151217
 20
11.3425576003
 30
0.0
 10
0.8910514973
 20
11.2855750284
 30
0.0
 10
0.8818272916
 20
11.2463164871
 30
0.0
 10
0.8738172589
 20
11.2051691042
 30
0.0
 10
0.8680249804
 20
11.1686961349
 30
0.0
 10
0.8633323248
 20
11.1313016024
 30
0.0
 10
0.8600802254
 20
11.0967197154
 30
0.0
 10
0.8578981837
 20
11.0611959263
 30
0.0
 10
0.8569759206
 20
11.0324079886
 30
0.0
 10
0.8568228654
 20
11.0120111016
 30
0.0
 10
0.856835424
 20
11.0028310729
 30
0.0
 10
0.856835424
 20
11.0
 30
0.0
  0
SPLINE
  5
4B6
100
AcDbEntity
  8
0
100
AcDbSpline
 62
7
  6
CONTINUOUS
 70
0
 71
3
 72
23
 73
19
 74
0
 42
0.0000001
 43
0.0000001
 44
0.0000000001
 40
0.0
 40
0.0
 40
0.0
 40
0.0
 40
0.0098690806
 40
0.0320015087
 40
0.0711025664
 40
0.110257867
 40
0.1560538874
 40
0.1921596294
 40
0.2416228136
 40
0.2847585585
 40
0.3382680983
 40
0.3821538899
 40
0.4904393306
 40
0.5859153327
 40
0.6536837292
 40
0.7449631414
 40
0.8824283279
 40
1.0
 40
1.0
 40
1.0
 40
1.0
 10
0.856835424
 20
11.0
 30
0.0
 10
0.856835424
 20
10.9971689271
 30
0.0
 10
0.8568228654
 20
10.9879888984
 30
0.0
 10
0.8569759206
 20
10.9675920114
 30
0.0
 10
0.8578981837
 20
10.9388040737
 30
0.0
 10
0.8600802254
 20
10.9032802846
 30
0.0
 10
0.8633323248
 20
10.8686983976
 30
0.0
 10
0.8680249804
 20
10.8313038651
 30
0.0
 10
0.8738172589
 20
10.7948308958
 30
0.0
 10
0.8818272916
 20
10.7536835129
 30
0.0
 10
0.8910514973
 20
10.7144249716
 30
0.0
 10
0.9063151217
 20
10.6574423997
 30
0.0
 10
0.9313521243
 20
10.5904933337
 30
0.0
 10
0.972588441
 20
10.5239437647
 30
0.0
 10
1.0189246726
 20
10.4673132788
 30
0.0
 10
1.0844500241
 20
10.4118780447
 30
0.0
 10
1.1775051297
 20
10.3719300249
 30
0.0
 10
1.2508958239
 20
10.3626092981
 30
0.0
 10
1.2846227729
 20
10.3626092981
 30
0.0
  0
ENDSEC
  0
SECTION
  2
OBJECTS
  0
DICTIONARY
  5
C
100
AcDbDictionary
280
0
281
1
  3
ACAD_GROUP
350
D
  3
ACAD_MLINESTYLE
350
17
  3
ACAD_LAYOUT
350
1A
  3
ACAD_PLOTSETTINGS
350
19
  3
ACAD_PLOTSTYLENAME
350
E
  0
DICTIONARY
  5
D
102
{ACAD_REACTORS
330
C
102
}
100
AcDbDictionary
280
0
281
1
  0
ACDBDICTIONARYWDFLT
  5
E
102
{ACAD_REACTORS
330
C
102
}
100
AcDbDictionary
281
1
  3
Normal
350
F
100
AcDbDictionaryWithDefault
340
F
  0
DICTIONARY
  5
17
102
{ACAD_REACTORS
330
C
102
}
100
AcDbDictionary
280
0
281
1
  3
Standard
350
18
  0
DICTIONARY
  5
19
102
{ACAD_REACTORS
330
C
102
}
100
AcDbDictionary
281
1
  0
DICTIONARY
  5
1A
102
{ACAD_REACTORS
330
C
102
}
100
AcDbDictionary
281
1
  3
Model
350
4B7
  3
Layout1
350
4B8
  0
ACDBPLACEHOLDER
  5
F
102
{ACAD_REACTORS
330
E
102
}
  0
MLINESTYLE
  5
18
102
{ACAD_REACTORS
330
17
102
}
100
AcDbMlineStyle
  2
STANDARD
 70
0
  3

 62
256
 51
90.0
 52
90.0
 71
2
 49
0.5
 62
256
  6
BYLAYER
 49
-0.5
 62
256
  6
BYLAYER
  0
LAYOUT
  5
4B7
102
{ACAD_REACTORS
330
1A
102
}
100
AcDbPlotSettings
  1

  2
none_device
  4
ISO_A4_(297.00_x_210.00_MM)
  6

 40
0.0
 41
0.0
 42
0.0
 43
0.0
 44
297.0
 45
210.0
 46
0.0
 47
0.0
 48
0.0
 49
0.0
140
0.0
141
0.0
142
1.0
143
1.0
 70
1024
 72
1
 73
0
 74
0
  7

 75
0
147
1.0
148
0.0
149
0.0
100
AcDbLayout
  1
Model
 70
0
 71
0
 10
0.0
 20
0.0
 11
297.0
 21
210.0
 12
0.0
 22
0.0
 32
0.0
 14
0.0
 24
0.0
 34
0.0
 15
0.0
 25
0.0
 35
0.0
146
0.0
 13
0.0
 23
0.0
 33
0.0
 16
1.0
 26
0.0
 36
0.0
 17
0.0
 27
1.0
 37
0.0
 76
0
330
20B
345
0
346
0
  0
LAYOUT
  5
4B8
102
{ACAD_REACTORS
330
1A
102
}
100
AcDbPlotSettings
  1

  2
none_device
  4
ISO_A4_(297.00_x_210.00_MM)
  6

 40
0.0
 41
0.0
 42
0.0
 43
0.0
 44
297.0
 45
210.0
 46
0.0
 47
0.0
 48
0.0
 49
0.0
140
0.0
141
0.0
142
1.0
143
1.0
 70
0
 72
1
 73
0
 74
0
  7

 75
0
147
1.0
148
0.0
149
0.0
100
AcDbLayout
  1
Layout1
 70
0
 71
1
 10
0.0
 20
0.0
 11
297.0
 21
210.0
 12
0.0
 22
0.0
 32
0.0
 14
0.0
 24
0.0
 34
0.0
 15
0.0
 25
0.0
 35
0.0
146
0.0
 13
0.0
 23
0.0
 33
0.0
 16
1.0
 26
0.0
 36
0.0
 17
0.0
 27
1.0
 37
0.0
 76
0
330
20C
345
0
346
0
  0
ENDSEC
  0
EOF
