  0
SECTION
  2
HEADER
  9
$ACADVER
  1
AC1024
  9
$DWGCODEPAGE
  3
ANSI_1252
  9
$EXTMAX
 10
297.0
 20
210.0
 30
0.0
  9
$EXTMIN
 10
0.0
 20
0.0
 30
0.0
  9
$LIMMIN
 10
0.0
 20
0.0
  9
$LIMMAX
 10
297.0
 20
210.0
  9
$VIEWCTR
 10
148.5
 20
105.0
  9
$VIEWSIZE
 40
210.0
  9
$CLAYER
  8
0
  9
$LTSCALE
 40
16.335
  9
$CELTYPE
  6
BYLAYER
  9
$DIMSCALE
 40
1.0
  9
$DIMASZ
 40
3.0
  9
$DIMEXO
 40
0.5
  9
$DIMDLI
 40
11.286
  9
$DIMEXE
 40
1.5
  9
$DIMCEN
 40
2.673
  9
$DIMLFAC
 40
1.0
  9
$DIMBLK
  1
_FILLED
  9
$DIMALT
 70
0
  9
$DIMALTF
 40
0.0393700787
  9
$DIMTXT
 40
3.0
  9
$DIMTOL
 70
1
  9
$DIMLIM
 70
0
  9
$DIMTFAC
 40
1.0
  9
$DIMTP
 40
0.01
  9
$DIMTM
 40
0.01
  9
$DIMGAP
 40
0.625
  9
$DIMDSEP
 70
44
  9
$AUNITS
 70
0
  9
$PDMODE
 70
3
  9
$PDSIZE
 40
3.0
  9
$HANDSEED
  5
405
  9
$TILEMODE
 70
1
  9
$MEASUREMENT
 70
1
  9
$INSUNITS
 70
4
  0
ENDSEC
  0
SECTION
  2
CLASSES
  0
CLASS
  1
ACDBDICTIONARYWDFLT
  2
AcDbDictionaryWithDefault
  3
AutoCAD 2000
 90
0
 91
1
280
0
281
0
  0
CLASS
  1
ACDBPLACEHOLDER
  2
AcDbPlaceHolder
  3
AutoCAD 2000
 90
0
 91
1
280
0
281
0
  0
CLASS
  1
LAYOUT
  2
AcDbLayout
  3
AutoCAD 2000
 90
0
 91
0
280
0
281
0
  0
ENDSEC
  0
SECTION
  2
TABLES
  0
TABLE
  2
VPORT
  5
8
100
AcDbSymbolTable
 70
2
  0
VPORT
  5
1F4
100
AcDbSymbolTableRecord
100
AcDbViewportTableRecord
  2
*ACTIVE
 70
0
 10
0.0
 20
0.0
 11
1.0
 21
1.0
 12
148.5
 22
105.0
 13
0.0
 23
0.0
 14
1.0
 24
1.0
 15
0.0
 25
0.0
 16
0.0
 26
0.0
 36
1.0
 17
0.0
 27
0.0
 37
0.0
 40
210.0
 41
1.4142857143
 42
50.0
 43
0.0
 44
0.0
 50
0.0
 51
0.0
 71
0
 72
100
 73
1
 74
1
 75
0
 76
0
 77
0
 78
0
  0
ENDTAB
  0
TABLE
  2
LTYPE
  5
5
100
AcDbSymbolTable
 70
6
  0
LTYPE
  5
14
100
AcDbSymbolTableRecord
100
AcDbLinetypeTableRecord
  2
BYBLOCK
 70
0
  3

 72
65
 73
0
 40
0.0
  0
LTYPE
  5
15
100
AcDbSymbolTableRecord
100
AcDbLinetypeTableRecord
  2
BYLAYER
 70
0
  3

 72
65
 73
0
 40
0.0
  0
LTYPE
  5
16
100
AcDbSymbolTableRecord
100
AcDbLinetypeTableRecord
  2
CONTINUOUS
 70
64
  3
Solid line
 72
65
 73
0
 40
0.0
  0
LTYPE
  5
1F5
100
AcDbSymbolTableRecord
100
AcDbLinetypeTableRecord
  2
CENTER
 70
64
  3
____ _ ____ _ ____ _ ____ _ ____ _ ____ _ ____
 72
65
 73
4
 40
0.6
 49
0.375
 74
0
 49
-0.075
 74
0
 49
0.075
 74
0
 49
-0.075
 74
0
  0
LTYPE
  5
1F6
100
AcDbSymbolTableRecord
100
AcDbLinetypeTableRecord
  2
HIDDEN
 70
64
  3
- - - - - - - - - - - - - - - - - - - -
 72
65
 73
2
 40
0.2
 49
0.1
 74
0
 49
-0.1
 74
0
  0
LTYPE
  5
1F7
100
AcDbSymbolTableRecord
100
AcDbLinetypeTableRecord
  2
PHANTOM
 70
64
  3
_____ _ _ _____ _ _ _____ _ _ _____
 72
65
 73
6
 40
0.8
 49
0.45
 74
0
 49
-0.05
 74
0
 49
0.1
 74
0
 49
-0.05
 74
0
 49
0.1
 74
0
 49
-0.05
 74
0
  0
LTYPE
  5
1F8
100
AcDbSymbolTableRecord
100
AcDbLinetypeTableRecord
  2
DOT
 70
64
  3
. . . . . . . . . . . . . . . . . . . .
 72
65
 73
2
 40
0.2
 49
0.1
 74
0
 49
-0.1
 74
0
  0
LTYPE
  5
1F9
100
AcDbSymbolTableRecord
100
AcDbLinetypeTableRecord
  2
DASHED
 70
64
  3
- - - - - - - - - - - - - - - - - - - -
 72
65
 73
2
 40
0.2
 49
0.1
 74
0
 49
-0.1
 74
0
  0
ENDTAB
  0
TABLE
  2
LAYER
  5
2
100
AcDbSymbolTable
 70
36
  0
LAYER
  5
10
100
AcDbSymbolTableRecord
100
AcDbLayerTableRecord
  2
0
 70
0
 62
7
  6
CONTINUOUS
370
-3
390
F
  0
LAYER
  5
1FA
100
AcDbSymbolTableRecord
100
AcDbLayerTableRecord
  2
DEFAULT_1
 70
0
 62
7
  6
CENTER
370
-3
390
F
  0
LAYER
  5
1FB
100
AcDbSymbolTableRecord
100
AcDbLayerTableRecord
  2
DEFAULT_2
 70
0
 62
7
  6
HIDDEN
370
-3
390
F
  0
LAYER
  5
1FC
100
AcDbSymbolTableRecord
100
AcDbLayerTableRecord
  2
DEFAULT_3
 70
0
 62
7
  6
PHANTOM
370
-3
390
F
  0
LAYER
  5
1FD
100
AcDbSymbolTableRecord
100
AcDbLayerTableRecord
  2
ASSI
 70
0
 62
7
  6
CONTINUOUS
370
-3
390
F
  0
LAYER
  5
1FE
100
AcDbSymbolTableRecord
100
AcDbLayerTableRecord
  2
COORDINATE
 70
0
 62
7
  6
CONTINUOUS
370
-3
390
F
  0
LAYER
  5
1FF
100
AcDbSymbolTableRecord
100
AcDbLayerTableRecord
  2
COPY_PUBLISH
 70
0
 62
7
  6
CONTINUOUS
370
-3
390
F
  0
LAYER
  5
200
100
AcDbSymbolTableRecord
100
AcDbLayerTableRecord
  2
COSMETIC
 70
0
 62
7
  6
CONTINUOUS
370
-3
390
F
  0
LAYER
  5
201
100
AcDbSymbolTableRecord
100
AcDbLayerTableRecord
  2
CURVE
 70
0
 62
7
  6
CONTINUOUS
370
-3
390
F
  0
LAYER
  5
202
100
AcDbSymbolTableRecord
100
AcDbLayerTableRecord
  2
IMPORT_IGES
 70
0
 62
7
  6
CONTINUOUS
370
-3
390
F
  0
LAYER
  5
203
100
AcDbSymbolTableRecord
100
AcDbLayerTableRecord
  2
NOTE
 70
0
 62
7
  6
CONTINUOUS
370
-3
390
F
  0
LAYER
  5
204
100
AcDbSymbolTableRecord
100
AcDbLayerTableRecord
  2
PIANI
 70
0
 62
7
  6
CONTINUOUS
370
-3
390
F
  0
LAYER
  5
205
100
AcDbSymbolTableRecord
100
AcDbLayerTableRecord
  2
PUNTI
 70
0
 62
7
  6
CONTINUOUS
370
-3
390
F
  0
LAYER
  5
206
100
AcDbSymbolTableRecord
100
AcDbLayerTableRecord
  2
RACCORDO
 70
0
 62
7
  6
CONTINUOUS
370
-3
390
F
  0
LAYER
  5
207
100
AcDbSymbolTableRecord
100
AcDbLayerTableRecord
  2
SNAPLINE
 70
0
 62
7
  6
CONTINUOUS
370
-3
390
F
  0
LAYER
  5
208
100
AcDbSymbolTableRecord
100
AcDbLayerTableRecord
  2
TRASH
 70
0
 62
7
  6
CONTINUOUS
370
-3
390
F
  0
ENDTAB
  0
TABLE
  2
STYLE
  5
3
100
AcDbSymbolTable
 70
1
  0
STYLE
  5
11
100
AcDbSymbolTableRecord
100
AcDbTextStyleTableRecord
  2
STANDARD
 70
0
 40
0.0
 41
0.8
 50
0.0
 71
0
 42
0.2
  3
txt
  4

  0
STYLE
  5
209
100
AcDbSymbolTableRecord
100
AcDbTextStyleTableRecord
  2
TEXTSTYLE_1
 70
0
 40
0.0
 41
0.8
 50
0.0
 71
0
 42
0.2
  3
gdt
  4

  0
ENDTAB
  0
TABLE
  2
VIEW
  5
6
100
AcDbSymbolTable
 70
0
  0
ENDTAB
  0
TABLE
  2
UCS
  5
7
100
AcDbSymbolTable
 70
0
  0
ENDTAB
  0
TABLE
  2
APPID
  5
9
100
AcDbSymbolTable
 70
1
  0
APPID
  5
20A
100
AcDbSymbolTableRecord
100
AcDbRegAppTableRecord
  2
ACAD
 70
0
  0
ENDTAB
  0
TABLE
  2
BLOCK_RECORD
  5
1
100
AcDbSymbolTable
 70
0
  0
BLOCK_RECORD
  5
20B
100
AcDbSymbolTableRecord
100
AcDbBlockTableRecord
  2
*Model_Space
  0
BLOCK_RECORD
  5
20C
100
AcDbSymbolTableRecord
100
AcDbBlockTableRecord
  2
*Paper_Space
  0
BLOCK_RECORD
  5
20D
100
AcDbSymbolTableRecord
100
AcDbBlockTableRecord
  2
_FILLED
  0
ENDTAB
  0
TABLE
  2
DIMSTYLE
  5
A
100
AcDbSymbolTable
 70
1
100
AcDbDimStyleTable
 71
0
  0
DIMSTYLE
105
20E
100
AcDbSymbolTableRecord
100
AcDbDimStyleTableRecord
  2
STANDARD
 70
0
  3

  4

 40
1.0
 41
3.0
 42
0.5
 43
0.38
 44
1.5
 45
0.0
 46
0.0
 47
0.01
 48
0.01
140
3.0
141
0.09
142
0.0
143
25.4
144
1.0
145
0.0
146
1.0
147
0.625
 71
1.0
 72
0.0
 73
0
 74
0
 75
0
 76
0
 77
1
 78
8
 79
2
170
0
171
1
172
0
173
0
174
0
175
0
176
0
177
0
178
0
270
2
179
2
271
2
272
2
273
2
274
2
275
0
280
0
281
0
282
0
283
1
284
8
285
0
286
0
287
3
288
0
340
11
278
44
341
20D
342
20D
343
20D
344
20D
  0
ENDTAB
  0
ENDSEC
  0
SECTION
  2
BLOCKS
  0
BLOCK
  5
20
100
AcDbEntity
  8
0
100
AcDbBlockBegin
  2
*Model_Space
 70
0
 10
0.0
 20
0.0
 30
0.0
  3
*Model_Space
  1

  0
ENDBLK
  5
21
100
AcDbEntity
  8
0
100
AcDbBlockEnd
  0
BLOCK
  5
1C
100
AcDbEntity
  8
0
100
AcDbBlockBegin
  2
*Paper_Space
 70
0
 10
0.0
 20
0.0
 30
0.0
  3
*Paper_Space
  1

  0
ENDBLK
  5
1D
100
AcDbEntity
  8
0
100
AcDbBlockEnd
  0
BLOCK
  5
20F
100
AcDbEntity
  8
0
100
AcDbBlockBegin
  2
_FILLED
 70
64
 10
0.0
 20
0.0
  3
_FILLED
  1

  0
SOLID
  5
210
100
AcDbEntity
  8
0
  6
BYBLOCK
 62
0
100
AcDbTrace
 10
0.0
 20
0.0
 11
-1.0
 21
0.3166666667
 12
-1.0
 22
-0.3166666667
 13
-1.0
 23
-0.3166666667
  0
ENDBLK
  5
211
100
AcDbEntity
  8
0
  6
BYBLOCK
 62
0
100
AcDbBlockEnd
  0
ENDSEC
  0
SECTION
  2
ENTITIES
  0
LINE
  5
212
100
AcDbEntity
  8
0
100
AcDbLine
 62
7
  6
CONTINUOUS
 10
-26.85
 20
-14.7
 11
-26.85
 21
14.7
  0
LINE
  5
213
100
AcDbEntity
  8
0
100
AcDbLine
 62
7
  6
CONTINUOUS
 10
-25.95
 20
14.7
 11
-25.95
 21
-14.7
  0
LINE
  5
214
100
AcDbEntity
  8
0
100
AcDbLine
 62
7
  6
CONTINUOUS
 10
23.85
 20
-17.7
 11
-23.85
 21
-17.7
  0
LINE
  5
215
100
AcDbEntity
  8
0
100
AcDbLine
 62
7
  6
CONTINUOUS
 10
-23.85
 20
-16.8
 11
23.85
 21
-16.8
  0
LINE
  5
216
100
AcDbEntity
  8
0
100
AcDbLine
 62
7
  6
CONTINUOUS
 10
-1.959375
 20
8.9821276644
 11
-2.0025
 21
8.9527659555
  0
LINE
  5
217
100
AcDbEntity
  8
0
100
AcDbLine
 62
7
  6
CONTINUOUS
 10
-1.9881250548
 20
8.8646808506
 11
-1.9306249452
 21
8.8940425531
  0
LINE
  5
218
100
AcDbEntity
  8
ASSI
100
AcDbLine
 62
7
  6
CONTINUOUS
 10
0.4971165
 20
-8.5125
 11
0.9352668
 21
-8.5125
  0
LINE
  5
219
100
AcDbEntity
  8
0
100
AcDbLine
 62
7
  6
CONTINUOUS
 10
-3.339375
 20
9.54
 11
-3.555
 21
8.9234042569
  0
LINE
  5
21A
100
AcDbEntity
  8
0
100
AcDbLine
 62
7
  6
CONTINUOUS
 10
-3.4975000137
 20
8.85
 11
-3.29625
 21
9.3931915069
  0
LINE
  5
21B
100
AcDbEntity
  8
0
100
AcDbLine
 62
7
  6
CONTINUOUS
 10
-3.702
 20
6.3650098303
 11
-3.6759999969
 21
6.4147970584
  0
LINE
  5
21C
100
AcDbEntity
  8
0
100
AcDbLine
 62
7
  6
CONTINUOUS
 10
-2.257500025
 20
8.19
 11
-2.6250000125
 21
7.5880851062
  0
LINE
  5
21D
100
AcDbEntity
  8
0
100
AcDbLine
 62
7
  6
CONTINUOUS
 10
-1.9306249452
 20
9.0261702123
 11
-1.959375
 21
8.9821276644
  0
LINE
  5
21E
100
AcDbEntity
  8
0
100
AcDbLine
 62
7
  6
CONTINUOUS
 10
-3.702
 20
6.4977757719
 11
-3.7539999992
 21
6.4313928011
  0
LINE
  5
21F
100
AcDbEntity
  8
0
100
AcDbLine
 62
7
  6
CONTINUOUS
 10
-3.117
 20
6.4811800292
 11
-3.156
 21
6.4313928011
  0
LINE
  5
220
100
AcDbEntity
  8
0
100
AcDbLine
 62
7
  6
CONTINUOUS
 10
-3.4160000124
 20
6.2654353276
 11
-3.78
 21
5.8505417251
  0
LINE
  5
221
100
AcDbEntity
  8
0
100
AcDbLine
 62
7
  6
CONTINUOUS
 10
-3.6759999969
 20
5.8505417251
 11
-3.351
 21
6.2156480995
  0
LINE
  5
222
100
AcDbEntity
  8
0
100
AcDbLine
 62
7
  6
CONTINUOUS
 10
-1.9306249452
 20
8.8940425531
 11
-1.873125
 21
8.9527659555
  0
LINE
  5
223
100
AcDbEntity
  8
0
100
AcDbLine
 62
7
  6
CONTINUOUS
 10
-3.6759999969
 20
6.4147970584
 11
-3.6369999969
 21
6.4479885438
  0
LINE
  5
224
100
AcDbEntity
  8
0
100
AcDbLine
 62
7
  6
CONTINUOUS
 10
-3.078
 20
6.4147970584
 11
-3.039
 21
6.4479885438
  0
LINE
  5
225
100
AcDbEntity
  8
0
100
AcDbLine
 62
7
  6
CONTINUOUS
 10
-2.8699999752
 20
5.9003289532
 11
-2.9089999752
 21
5.8671374678
  0
LINE
  5
226
100
AcDbEntity
  8
0
100
AcDbLine
 62
7
  6
CONTINUOUS
 10
-0.5774998999
 20
7.9844680685
 11
-0.4725
 21
8.0725532055
  0
LINE
  5
227
100
AcDbEntity
  8
0
100
AcDbLine
 62
7
  6
CONTINUOUS
 10
-3.0520000248
 20
6.5309672573
 11
-3.117
 21
6.4811800292
  0
LINE
  5
228
100
AcDbEntity
  8
0
100
AcDbLine
 62
7
  6
CONTINUOUS
 10
-2.8960000248
 20
5.7841587442
 11
-2.8309999752
 21
5.8339459766
  0
LINE
  5
229
100
AcDbEntity
  8
0
100
AcDbLine
 62
7
  6
CONTINUOUS
 10
0.5774998999
 20
8.19
 11
0.4199998999
 21
8.0872340548
  0
LINE
  5
22A
100
AcDbEntity
  8
0
100
AcDbLine
 62
7
  6
CONTINUOUS
 10
0.4199998999
 20
7.9697872192
 11
0.5774998999
 21
8.0725532055
  0
LINE
  5
22B
100
AcDbEntity
  8
0
100
AcDbLine
 62
7
  6
CONTINUOUS
 10
-3.6500000031
 20
6.5309672573
 11
-3.702
 21
6.4977757719
  0
LINE
  5
22C
100
AcDbEntity
  8
0
100
AcDbLine
 62
7
  6
CONTINUOUS
 10
-0.55125
 20
8.1312766027
 11
-0.63
 21
8.0872340548
  0
LINE
  5
22D
100
AcDbEntity
  8
0
100
AcDbLine
 62
7
  6
CONTINUOUS
 10
0.0262498999
 20
7.5587234024
 11
0.1049998999
 21
7.6027659555
  0
LINE
  5
22E
100
AcDbEntity
  8
0
100
AcDbLine
 62
7
  6
CONTINUOUS
 10
1.1287498999
 20
8.1312766027
 11
1.0499998999
 21
8.0872340548
  0
LINE
  5
22F
100
AcDbEntity
  8
0
100
AcDbLine
 62
7
  6
CONTINUOUS
 10
-0.4725
 20
8.0725532055
 11
-0.39375
 21
8.1019149041
  0
LINE
  5
230
100
AcDbEntity
  8
0
100
AcDbLine
 62
7
  6
CONTINUOUS
 10
-0.0525001001
 20
7.6174468048
 11
-0.1312501001
 21
7.5880851062
  0
LINE
  5
231
100
AcDbEntity
  8
0
100
AcDbLine
 62
7
  6
CONTINUOUS
 10
1.2074998999
 20
8.0725532055
 11
1.2862498999
 21
8.1019149041
  0
LINE
  5
232
100
AcDbEntity
  8
0
100
AcDbLine
 62
7
  6
CONTINUOUS
 10
1.6275001001
 20
7.6174468048
 11
1.5487501001
 21
7.5880851062
  0
LINE
  5
233
100
AcDbEntity
  8
0
100
AcDbLine
 62
7
  6
CONTINUOUS
 10
-0.4199998999
 20
8.1753191507
 11
-0.55125
 21
8.1312766027
  0
LINE
  5
234
100
AcDbEntity
  8
0
100
AcDbLine
 62
7
  6
CONTINUOUS
 10
1.26
 20
8.1753191507
 11
1.1287498999
 21
8.1312766027
  0
LINE
  5
235
100
AcDbEntity
  8
0
100
AcDbLine
 62
7
  6
CONTINUOUS
 10
-0.1049998999
 20
7.5146808506
 11
0.0262498999
 21
7.5587234024
  0
LINE
  5
236
100
AcDbEntity
  8
0
100
AcDbLine
 62
7
  6
CONTINUOUS
 10
1.575
 20
7.5146808506
 11
1.7062501001
 21
7.5587234024
  0
LINE
  5
237
100
AcDbEntity
  8
0
100
AcDbLine
 62
7
  6
CONTINUOUS
 10
-2.3240000496
 20
5.8837332105
 11
-2.376
 21
5.8671374678
  0
LINE
  5
238
100
AcDbEntity
  8
ASSI
100
AcDbLine
 62
7
  6
CONTINUOUS
 10
0.9352668
 20
-8.2875
 11
0.4971155813
 21
-8.2875
  0
LINE
  5
239
100
AcDbEntity
  8
ASSI
100
AcDbLine
 62
7
  6
CONTINUOUS
 10
-0.2912327098
 20
-7.8600151347
 11
-0.2602662
 21
-7.860834
  0
LINE
  5
23A
100
AcDbEntity
  8
0
100
AcDbLine
 62
7
  6
CONTINUOUS
 10
-4.05
 20
12.45
 11
-4.05
 21
4.35
  0
LINE
  5
23B
100
AcDbEntity
  8
0
100
AcDbLine
 62
7
  6
CONTINUOUS
 10
-3.195
 20
6.3152225557
 11
-3.2079999876
 21
6.2322438422
  0
LINE
  5
23C
100
AcDbEntity
  8
0
100
AcDbLine
 62
7
  6
CONTINUOUS
 10
-3.7539999992
 20
6.4313928011
 11
-3.7669999996
 21
6.3650098303
  0
LINE
  5
23D
100
AcDbEntity
  8
0
100
AcDbLine
 62
7
  6
CONTINUOUS
 10
-3.3249999876
 20
6.2654353276
 11
-3.312
 21
6.3318182984
  0
LINE
  5
23E
100
AcDbEntity
  8
0
100
AcDbLine
 62
7
  6
CONTINUOUS
 10
-1.91625
 20
9.0848936096
 11
-1.9306249452
 21
9.0261702123
  0
LINE
  5
23F
100
AcDbEntity
  8
0
100
AcDbLine
 62
7
  6
CONTINUOUS
 10
-3.1820000124
 20
6.3650098303
 11
-3.195
 21
6.3152225557
  0
LINE
  5
240
100
AcDbEntity
  8
0
100
AcDbLine
 62
7
  6
CONTINUOUS
 10
-2.766
 20
5.950116193
 11
-2.7529999752
 21
5.9999034211
  0
LINE
  5
241
100
AcDbEntity
  8
0
100
AcDbLine
 62
7
  6
CONTINUOUS
 10
-2.3232729
 20
11.9250312
 11
-2.6681538
 21
10.8508386
  0
LINE
  5
242
100
AcDbEntity
  8
0
100
AcDbLine
 62
7
  6
CONTINUOUS
 10
-2.512146
 20
10.364961
 11
-2.0112573
 21
11.9250312
  0
LINE
  5
243
100
AcDbEntity
  8
0
100
AcDbLine
 62
7
  6
CONTINUOUS
 10
-2.9368749726
 20
9.0848936096
 11
-2.8074999726
 21
9.4812766027
  0
LINE
  5
244
100
AcDbEntity
  8
0
100
AcDbLine
 62
7
  6
CONTINUOUS
 10
-3.0087500274
 20
8.85
 11
-2.95125
 21
9.0261702123
  0
LINE
  5
245
100
AcDbEntity
  8
0
100
AcDbLine
 62
7
  6
CONTINUOUS
 10
-2.865
 20
9.54
 11
-3.0950000274
 21
8.85
  0
LINE
  5
246
100
AcDbEntity
  8
0
100
AcDbLine
 62
7
  6
CONTINUOUS
 10
-3.39
 20
6.3318182984
 11
-3.4160000124
 21
6.2654353276
  0
LINE
  5
247
100
AcDbEntity
  8
0
100
AcDbLine
 62
7
  6
CONTINUOUS
 10
-3.156
 20
6.4313928011
 11
-3.1820000124
 21
6.3650098303
  0
LINE
  5
248
100
AcDbEntity
  8
0
100
AcDbLine
 62
7
  6
CONTINUOUS
 10
-2.7919999752
 20
5.8837332105
 11
-2.766
 21
5.950116193
  0
LINE
  5
249
100
AcDbEntity
  8
0
100
AcDbLine
 62
7
  6
CONTINUOUS
 10
-2.2070000496
 20
5.8837332105
 11
-2.181
 21
5.950116193
  0
LINE
  5
24A
100
AcDbEntity
  8
0
100
AcDbLine
 62
7
  6
CONTINUOUS
 10
-1.873125
 20
8.9527659555
 11
-1.8443749452
 21
9.011489363
  0
LINE
  5
24B
100
AcDbEntity
  8
0
100
AcDbLine
 62
7
  6
CONTINUOUS
 10
-3.351
 20
6.2156480995
 11
-3.3249999876
 21
6.2654353276
  0
LINE
  5
24C
100
AcDbEntity
  8
0
100
AcDbLine
 62
7
  6
CONTINUOUS
 10
-3.1300000248
 20
6.3152225557
 11
-3.078
 21
6.4147970584
  0
LINE
  5
24D
100
AcDbEntity
  8
0
100
AcDbLine
 62
7
  6
CONTINUOUS
 10
-2.8180000248
 20
5.9999034211
 11
-2.8699999752
 21
5.9003289532
  0
LINE
  5
24E
100
AcDbEntity
  8
0
100
AcDbLine
 62
7
  6
CONTINUOUS
 10
-2.259
 20
5.9667119357
 11
-2.2850000496
 21
5.9169247076
  0
LINE
  5
24F
100
AcDbEntity
  8
0
100
AcDbLine
 62
7
  6
CONTINUOUS
 10
-0.6824999499
 20
8.0285106575
 11
-0.70875
 21
7.9844680685
  0
LINE
  5
250
100
AcDbEntity
  8
0
100
AcDbLine
 62
7
  6
CONTINUOUS
 10
-2.52
 20
7.5
 11
-2.100000025
 21
8.19
  0
LINE
  5
251
100
AcDbEntity
  8
0
100
AcDbLine
 62
7
  6
CONTINUOUS
 10
-2.8309999752
 20
5.8339459766
 11
-2.7919999752
 21
5.8837332105
  0
LINE
  5
252
100
AcDbEntity
  8
0
100
AcDbLine
 62
7
  6
CONTINUOUS
 10
-2.259
 20
5.8173502339
 11
-2.2070000496
 21
5.8837332105
  0
LINE
  5
253
100
AcDbEntity
  8
0
100
AcDbLine
 62
7
  6
CONTINUOUS
 10
-1.1025
 20
8.1165957534
 11
-1.6274999499
 21
7.5
  0
LINE
  5
254
100
AcDbEntity
  8
0
100
AcDbLine
 62
7
  6
CONTINUOUS
 10
-1.4699999499
 20
7.5
 11
-0.945
 21
8.1165957534
  0
LINE
  5
255
100
AcDbEntity
  8
0
100
AcDbLine
 62
7
  6
CONTINUOUS
 10
-0.63
 20
8.0872340548
 11
-0.6824999499
 21
8.0285106575
  0
LINE
  5
256
100
AcDbEntity
  8
0
100
AcDbLine
 62
7
  6
CONTINUOUS
 10
0.1049998999
 20
7.6027659555
 11
0.1575
 21
7.661489363
  0
LINE
  5
257
100
AcDbEntity
  8
0
100
AcDbLine
 62
7
  6
CONTINUOUS
 10
1.0499998999
 20
8.0872340548
 11
0.9975001001
 21
8.0285106575
  0
LINE
  5
258
100
AcDbEntity
  8
0
100
AcDbLine
 62
7
  6
CONTINUOUS
 10
-2.2850000496
 20
5.9169247076
 11
-2.3240000496
 21
5.8837332105
  0
LINE
  5
259
100
AcDbEntity
  8
0
100
AcDbLine
 62
7
  6
CONTINUOUS
 10
0.0525001001
 20
7.705531911
 11
-0.0525001001
 21
7.6174468048
  0
LINE
  5
25A
100
AcDbEntity
  8
0
100
AcDbLine
 62
7
  6
CONTINUOUS
 10
1.1025
 20
7.9844680685
 11
1.2074998999
 21
8.0725532055
  0
LINE
  5
25B
100
AcDbEntity
  8
0
100
AcDbLine
 62
7
  6
CONTINUOUS
 10
1.7325
 20
7.705531911
 11
1.6275001001
 21
7.6174468048
  0
LINE
  5
25C
100
AcDbEntity
  8
0
100
AcDbLine
 62
7
  6
CONTINUOUS
 10
-2.3109999504
 20
5.7841587442
 11
-2.259
 21
5.8173502339
  0
LINE
  5
25D
100
AcDbEntity
  8
0
100
AcDbLine
 62
7
  6
CONTINUOUS
 10
2.7299997997
 20
8.19
 11
2.0999997997
 21
7.7936170274
  0
LINE
  5
25E
100
AcDbEntity
  8
0
100
AcDbLine
 62
7
  6
CONTINUOUS
 10
2.28375
 20
7.7936170274
 11
2.7299997997
 21
8.0725532055
  0
LINE
  5
25F
100
AcDbEntity
  8
0
100
AcDbLine
 62
7
  6
CONTINUOUS
 10
1.7062501001
 20
7.5587234024
 11
1.7850001001
 21
7.6027659555
  0
LINE
  5
260
100
AcDbEntity
  8
0
100
AcDbLine
 62
7
  6
CONTINUOUS
 10
-3.9
 20
9.54
 11
-3.9
 21
8.85
  0
LINE
  5
261
100
AcDbEntity
  8
0
100
AcDbLine
 62
7
  6
CONTINUOUS
 10
-3.81375
 20
8.85
 11
-3.81375
 21
9.3931915069
  0
LINE
  5
262
100
AcDbEntity
  8
0
100
AcDbLine
 62
7
  6
CONTINUOUS
 10
-3.78
 20
5.8505417251
 11
-3.78
 21
5.767563
  0
LINE
  5
263
100
AcDbEntity
  8
0
100
AcDbLine
 62
7
  6
CONTINUOUS
 10
-3.39
 20
6.3650098303
 11
-3.39
 21
6.3318182984
  0
LINE
  5
264
100
AcDbEntity
  8
0
100
AcDbLine
 62
7
  6
CONTINUOUS
 10
-3.312
 20
5.767563
 11
-3.312
 21
5.8505417251
  0
LINE
  5
265
100
AcDbEntity
  8
0
100
AcDbLine
 62
7
  6
CONTINUOUS
 10
-3.312
 20
6.3318182984
 11
-3.312
 21
6.3650098303
  0
LINE
  5
266
100
AcDbEntity
  8
0
100
AcDbLine
 62
7
  6
CONTINUOUS
 10
-3.29625
 20
9.3931915069
 11
-3.29625
 21
8.85
  0
LINE
  5
267
100
AcDbEntity
  8
0
100
AcDbLine
 62
7
  6
CONTINUOUS
 10
-3.21
 20
8.85
 11
-3.21
 21
9.54
  0
LINE
  5
268
100
AcDbEntity
  8
0
100
AcDbLine
 62
7
  6
CONTINUOUS
 10
-3.2079999876
 20
6.2322438422
 11
-3.2079999876
 21
6.0828821578
  0
LINE
  5
269
100
AcDbEntity
  8
0
100
AcDbLine
 62
7
  6
CONTINUOUS
 10
-3.1429999752
 20
6.0994779005
 11
-3.1429999752
 21
6.2156480995
  0
LINE
  5
26A
100
AcDbEntity
  8
0
100
AcDbLine
 62
7
  6
CONTINUOUS
 10
-2.805
 20
6.2156480995
 11
-2.805
 21
6.0994779005
  0
LINE
  5
26B
100
AcDbEntity
  8
0
100
AcDbLine
 62
7
  6
CONTINUOUS
 10
-2.7400000248
 20
6.0828821578
 11
-2.7400000248
 21
6.2322438422
  0
LINE
  5
26C
100
AcDbEntity
  8
0
100
AcDbLine
 62
7
  6
CONTINUOUS
 10
-2.4049999452
 20
9.54
 11
-2.4049999452
 21
8.85
  0
LINE
  5
26D
100
AcDbEntity
  8
0
100
AcDbLine
 62
7
  6
CONTINUOUS
 10
-2.3187499452
 20
8.9380851062
 11
-2.3187499452
 21
9.4519149041
  0
LINE
  5
26E
100
AcDbEntity
  8
0
100
AcDbLine
 62
7
  6
CONTINUOUS
 10
-2.2460000496
 20
6.547563
 11
-2.2460000496
 21
6.0330949065
  0
LINE
  5
26F
100
AcDbEntity
  8
0
100
AcDbLine
 62
7
  6
CONTINUOUS
 10
-2.1680000496
 20
6.0330949065
 11
-2.1680000496
 21
6.547563
  0
LINE
  5
270
100
AcDbEntity
  8
0
100
AcDbLine
 62
7
  6
CONTINUOUS
 10
-1.91625
 20
9.3051063699
 11
-1.91625
 21
9.0848936096
  0
LINE
  5
271
100
AcDbEntity
  8
0
100
AcDbLine
 62
7
  6
CONTINUOUS
 10
-1.89
 20
8.19
 11
-1.89
 21
8.1165957534
  0
LINE
  5
272
100
AcDbEntity
  8
0
100
AcDbLine
 62
7
  6
CONTINUOUS
 10
-3.1429999752
 20
6.2156480995
 11
-3.1300000248
 21
6.3152225557
  0
LINE
  5
273
100
AcDbEntity
  8
0
100
AcDbLine
 62
7
  6
CONTINUOUS
 10
-2.805
 20
6.0994779005
 11
-2.8180000248
 21
5.9999034211
  0
LINE
  5
274
100
AcDbEntity
  8
0
100
AcDbLine
 62
7
  6
CONTINUOUS
 10
-2.7529999752
 20
5.9999034211
 11
-2.7400000248
 21
6.0828821578
  0
LINE
  5
275
100
AcDbEntity
  8
0
100
AcDbLine
 62
7
  6
CONTINUOUS
 10
-2.181
 20
5.950116193
 11
-2.1680000496
 21
6.0330949065
  0
LINE
  5
276
100
AcDbEntity
  8
0
100
AcDbLine
 62
7
  6
CONTINUOUS
 10
-1.8443749452
 20
9.011489363
 11
-1.83
 21
9.0848936096
  0
LINE
  5
277
100
AcDbEntity
  8
0
100
AcDbLine
 62
7
  6
CONTINUOUS
 10
-2.2460000496
 20
6.0330949065
 11
-2.259
 21
5.9667119357
  0
LINE
  5
278
100
AcDbEntity
  8
0
100
AcDbLine
 62
7
  6
CONTINUOUS
 10
-0.1249092
 20
11.9250312
 11
-0.4162353
 21
10.9090578
  0
LINE
  5
279
100
AcDbEntity
  8
0
100
AcDbLine
 62
7
  6
CONTINUOUS
 10
-0.2602353
 20
10.3649649
 11
0.0347529
 21
11.3937225
  0
LINE
  5
27A
100
AcDbEntity
  8
0
100
AcDbLine
 62
7
  6
CONTINUOUS
 10
-0.6037501001
 20
7.8963829726
 11
-0.5774998999
 21
7.9844680685
  0
LINE
  5
27B
100
AcDbEntity
  8
0
100
AcDbLine
 62
7
  6
CONTINUOUS
 10
0.07875
 20
7.7936170274
 11
0.0525001001
 21
7.705531911
  0
LINE
  5
27C
100
AcDbEntity
  8
0
100
AcDbLine
 62
7
  6
CONTINUOUS
 10
1.0556559
 20
11.9250351
 11
0.554775
 21
10.364961
  0
LINE
  5
27D
100
AcDbEntity
  8
0
100
AcDbLine
 62
7
  6
CONTINUOUS
 10
0.8667867
 20
10.3649649
 11
0.965289
 21
10.6717623
  0
LINE
  5
27E
100
AcDbEntity
  8
0
100
AcDbLine
 62
7
  6
CONTINUOUS
 10
1.0604607
 20
10.968174
 11
1.2116676
 21
11.4391536
  0
LINE
  5
27F
100
AcDbEntity
  8
0
100
AcDbLine
 62
7
  6
CONTINUOUS
 10
-0.70875
 20
7.9844680685
 11
-0.7350000501
 21
7.9110638219
  0
LINE
  5
280
100
AcDbEntity
  8
0
100
AcDbLine
 62
7
  6
CONTINUOUS
 10
0.1837498999
 20
7.705531911
 11
0.2100001001
 21
7.7789361781
  0
LINE
  5
281
100
AcDbEntity
  8
0
100
AcDbLine
 62
7
  6
CONTINUOUS
 10
0.1575
 20
7.661489363
 11
0.1837498999
 21
7.705531911
  0
LINE
  5
282
100
AcDbEntity
  8
0
100
AcDbLine
 62
7
  6
CONTINUOUS
 10
0.9975001001
 20
8.0285106575
 11
0.9712498999
 21
7.9844680685
  0
LINE
  5
283
100
AcDbEntity
  8
0
100
AcDbLine
 62
7
  6
CONTINUOUS
 10
1.8374998999
 20
7.661489363
 11
1.8637501001
 21
7.705531911
  0
LINE
  5
284
100
AcDbEntity
  8
0
100
AcDbLine
 62
7
  6
CONTINUOUS
 10
3.8337497807
 20
9.54
 11
3.646875
 21
9.2610638219
  0
LINE
  5
285
100
AcDbEntity
  8
0
100
AcDbLine
 62
7
  6
CONTINUOUS
 10
3.69
 20
9.2023404247
 11
3.9199997807
 21
9.54
  0
LINE
  5
286
100
AcDbEntity
  8
0
100
AcDbLine
 62
7
  6
CONTINUOUS
 10
-0.4547619
 20
6.0306912
 11
-0.214005
 21
6.3735663
  0
LINE
  5
287
100
AcDbEntity
  8
0
100
AcDbLine
 62
7
  6
CONTINUOUS
 10
-0.1864806
 20
6.532437
 11
-0.5410365
 21
6.0413442
  0
LINE
  5
288
100
AcDbEntity
  8
0
100
AcDbLine
 62
7
  6
CONTINUOUS
 10
1.7850001001
 20
7.6027659555
 11
1.8374998999
 21
7.661489363
  0
LINE
  5
289
100
AcDbEntity
  8
ASSI
100
AcDbLine
 62
7
  6
CONTINUOUS
 10
2.495564943
 20
6.5454845519
 11
2.0379558
 21
6.1598541
  0
LINE
  5
28A
100
AcDbEntity
  8
ASSI
100
AcDbLine
 62
7
  6
CONTINUOUS
 10
2.0379558
 20
5.9595618
 11
2.4743327072
 21
6.3272993218
  0
LINE
  5
28B
100
AcDbEntity
  8
0
100
AcDbLine
 62
7
  6
CONTINUOUS
 10
-3.312
 20
6.3650098303
 11
-3.3249999876
 21
6.4313928011
  0
LINE
  5
28C
100
AcDbEntity
  8
0
100
AcDbLine
 62
7
  6
CONTINUOUS
 10
-3.2079999876
 20
6.0828821578
 11
-3.195
 21
5.9999034211
  0
LINE
  5
28D
100
AcDbEntity
  8
0
100
AcDbLine
 62
7
  6
CONTINUOUS
 10
-3.1300000248
 20
5.9999034211
 11
-3.1429999752
 21
6.0994779005
  0
LINE
  5
28E
100
AcDbEntity
  8
0
100
AcDbLine
 62
7
  6
CONTINUOUS
 10
-2.8180000248
 20
6.3152225557
 11
-2.805
 21
6.2156480995
  0
LINE
  5
28F
100
AcDbEntity
  8
0
100
AcDbLine
 62
7
  6
CONTINUOUS
 10
-1.83
 20
9.0848936096
 11
-1.83
 21
9.3051063699
  0
LINE
  5
290
100
AcDbEntity
  8
0
100
AcDbLine
 62
7
  6
CONTINUOUS
 10
-1.8032508
 20
11.9250312
 11
-1.8032547
 21
10.3649571
  0
LINE
  5
291
100
AcDbEntity
  8
0
100
AcDbLine
 62
7
  6
CONTINUOUS
 10
-1.7149999452
 20
9.54
 11
-1.7149999452
 21
8.85
  0
LINE
  5
292
100
AcDbEntity
  8
0
100
AcDbLine
 62
7
  6
CONTINUOUS
 10
-1.6287499452
 20
8.9380851062
 11
-1.6287499452
 21
9.172978726
  0
LINE
  5
293
100
AcDbEntity
  8
0
100
AcDbLine
 62
7
  6
CONTINUOUS
 10
-1.6287499452
 20
9.2610638219
 11
-1.6287499452
 21
9.4519149041
  0
LINE
  5
294
100
AcDbEntity
  8
0
100
AcDbLine
 62
7
  6
CONTINUOUS
 10
-1.491243
 20
10.364961
 11
-1.4912391
 21
11.9250312
  0
LINE
  5
295
100
AcDbEntity
  8
0
100
AcDbLine
 62
7
  6
CONTINUOUS
 10
-1.477446
 20
6.532437
 11
-1.477446
 21
5.767563
  0
LINE
  5
296
100
AcDbEntity
  8
0
100
AcDbLine
 62
7
  6
CONTINUOUS
 10
-1.3740981
 20
5.767563
 11
-1.3740981
 21
6.532437
  0
LINE
  5
297
100
AcDbEntity
  8
0
100
AcDbLine
 62
7
  6
CONTINUOUS
 10
-1.2550000548
 20
9.172978726
 11
-1.2550000548
 21
9.2610638219
  0
LINE
  5
298
100
AcDbEntity
  8
0
100
AcDbLine
 62
7
  6
CONTINUOUS
 10
-1.1974999452
 20
8.85
 11
-1.1974999452
 21
8.9380851062
  0
LINE
  5
299
100
AcDbEntity
  8
0
100
AcDbLine
 62
7
  6
CONTINUOUS
 10
-1.1974999452
 20
9.4519149041
 11
-1.1974999452
 21
9.54
  0
LINE
  5
29A
100
AcDbEntity
  8
0
100
AcDbLine
 62
7
  6
CONTINUOUS
 10
-1.1866059
 20
6.532437
 11
-1.1866059
 21
5.767563
  0
LINE
  5
29B
100
AcDbEntity
  8
0
100
AcDbLine
 62
7
  6
CONTINUOUS
 10
-1.1792391
 20
11.9250312
 11
-1.1792391
 21
10.364961
  0
LINE
  5
29C
100
AcDbEntity
  8
0
100
AcDbLine
 62
7
  6
CONTINUOUS
 10
-1.0832865
 20
5.767563
 11
-1.0832865
 21
6.0903561
  0
LINE
  5
29D
100
AcDbEntity
  8
0
100
AcDbLine
 62
7
  6
CONTINUOUS
 10
-1.0832865
 20
6.1787643
 11
-1.0832865
 21
6.4440288
  0
LINE
  5
29E
100
AcDbEntity
  8
0
100
AcDbLine
 62
7
  6
CONTINUOUS
 10
-0.945
 20
8.1165957534
 11
-0.945
 21
8.19
  0
LINE
  5
29F
100
AcDbEntity
  8
0
100
AcDbLine
 62
7
  6
CONTINUOUS
 10
-0.8672274
 20
10.364961
 11
-0.8672274
 21
11.3937225
  0
LINE
  5
2A0
100
AcDbEntity
  8
0
100
AcDbLine
 62
7
  6
CONTINUOUS
 10
-0.7350000501
 20
7.9110638219
 11
-0.7350000501
 21
7.7789361781
  0
LINE
  5
2A1
100
AcDbEntity
  8
0
100
AcDbLine
 62
7
  6
CONTINUOUS
 10
-0.6037501001
 20
7.7936170274
 11
-0.6037501001
 21
7.8963829726
  0
LINE
  5
2A2
100
AcDbEntity
  8
0
100
AcDbLine
 62
7
  6
CONTINUOUS
 10
-0.5410365
 20
6.0413442
 11
-0.5410365
 21
5.9497371
  0
LINE
  5
2A3
100
AcDbEntity
  8
0
100
AcDbLine
 62
7
  6
CONTINUOUS
 10
-0.3924998903
 20
9.54
 11
-0.3924998903
 21
8.85
  0
LINE
  5
2A4
100
AcDbEntity
  8
0
100
AcDbLine
 62
7
  6
CONTINUOUS
 10
-0.3062498903
 20
8.85
 11
-0.3062498903
 21
9.54
  0
LINE
  5
2A5
100
AcDbEntity
  8
ASSI
100
AcDbLine
 62
7
  6
CONTINUOUS
 10
-0.2602662
 20
-9.1644111028
 11
-0.2602662
 21
-8.9391660029
  0
LINE
  5
2A6
100
AcDbEntity
  8
ASSI
100
AcDbLine
 62
7
  6
CONTINUOUS
 10
-0.2602662
 20
-7.860834
 11
-0.2602662
 21
-7.6355889
  0
LINE
  5
2A7
100
AcDbEntity
  8
0
100
AcDbLine
 62
7
  6
CONTINUOUS
 10
-0.214005
 20
6.3735663
 11
-0.214005
 21
6.0306912
  0
LINE
  5
2A8
100
AcDbEntity
  8
0
100
AcDbLine
 62
7
  6
CONTINUOUS
 10
-0.214005
 20
5.9497371
 11
-0.214005
 21
5.767563
  0
LINE
  5
2A9
100
AcDbEntity
  8
0
100
AcDbLine
 62
7
  6
CONTINUOUS
 10
-0.19125
 20
9.54
 11
-0.19125
 21
8.85
  0
LINE
  5
2AA
100
AcDbEntity
  8
0
100
AcDbLine
 62
7
  6
CONTINUOUS
 10
-0.1202589
 20
5.767563
 11
-0.1202589
 21
5.9497371
  0
LINE
  5
2AB
100
AcDbEntity
  8
0
100
AcDbLine
 62
7
  6
CONTINUOUS
 10
-0.1202589
 20
6.0306912
 11
-0.1202589
 21
6.532437
  0
LINE
  5
2AC
100
AcDbEntity
  8
0
100
AcDbLine
 62
7
  6
CONTINUOUS
 10
-0.105
 20
8.85
 11
-0.105
 21
9.4519149041
  0
LINE
  5
2AD
100
AcDbEntity
  8
0
100
AcDbLine
 62
7
  6
CONTINUOUS
 10
-0.0105192
 20
5.9497371
 11
-0.0105192
 21
6.0306912
  0
LINE
  5
2AE
100
AcDbEntity
  8
0
100
AcDbLine
 62
7
  6
CONTINUOUS
 10
0.0347529
 20
11.3937225
 11
0.0347568
 21
10.364961
  0
LINE
  5
2AF
100
AcDbEntity
  8
0
100
AcDbLine
 62
7
  6
CONTINUOUS
 10
0.07875
 20
7.8963829726
 11
0.07875
 21
7.7936170274
  0
LINE
  5
2B0
100
AcDbEntity
  8
0
100
AcDbLine
 62
7
  6
CONTINUOUS
 10
0.2100001001
 20
7.7789361781
 11
0.2100001001
 21
7.9110638219
  0
LINE
  5
2B1
100
AcDbEntity
  8
0
100
AcDbLine
 62
7
  6
CONTINUOUS
 10
1.0762501001
 20
7.8963829726
 11
1.1025
 21
7.9844680685
  0
LINE
  5
2B2
100
AcDbEntity
  8
0
100
AcDbLine
 62
7
  6
CONTINUOUS
 10
1.7587498999
 20
7.7936170274
 11
1.7325
 21
7.705531911
  0
LINE
  5
2B3
100
AcDbEntity
  8
0
100
AcDbLine
 62
7
  6
CONTINUOUS
 10
2.2093752193
 20
9.0848936096
 11
2.3387502193
 21
9.4812766027
  0
LINE
  5
2B4
100
AcDbEntity
  8
0
100
AcDbLine
 62
7
  6
CONTINUOUS
 10
2.1375
 20
8.85
 11
2.1949997807
 21
9.0261702123
  0
LINE
  5
2B5
100
AcDbEntity
  8
0
100
AcDbLine
 62
7
  6
CONTINUOUS
 10
2.2812497807
 20
9.54
 11
2.05125
 21
8.85
  0
LINE
  5
2B6
100
AcDbEntity
  8
0
100
AcDbLine
 62
7
  6
CONTINUOUS
 10
0.9712498999
 20
7.9844680685
 11
0.945
 21
7.9110638219
  0
LINE
  5
2B7
100
AcDbEntity
  8
0
100
AcDbLine
 62
7
  6
CONTINUOUS
 10
1.8637501001
 20
7.705531911
 11
1.89
 21
7.7789361781
  0
LINE
  5
2B8
100
AcDbEntity
  8
ASSI
100
AcDbLine
 62
7
  6
CONTINUOUS
 10
1.5723984154
 20
5.3272359274
 11
1.6474727419
 21
5.4609943966
  0
LINE
  5
2B9
100
AcDbEntity
  8
ASSI
100
AcDbLine
 62
7
  6
CONTINUOUS
 10
2.5406391
 20
4.7360703
 11
2.6257467
 21
4.8567231
  0
LINE
  5
2BA
100
AcDbEntity
  8
0
100
AcDbLine
 62
7
  6
CONTINUOUS
 10
-3.4160000124
 20
6.4147970584
 11
-3.39
 21
6.3650098303
  0
LINE
  5
2BB
100
AcDbEntity
  8
0
100
AcDbLine
 62
7
  6
CONTINUOUS
 10
-3.078
 20
5.9003289532
 11
-3.1300000248
 21
5.9999034211
  0
LINE
  5
2BC
100
AcDbEntity
  8
0
100
AcDbLine
 62
7
  6
CONTINUOUS
 10
-3.1820000124
 20
5.950116193
 11
-3.156
 21
5.8837332105
  0
LINE
  5
2BD
100
AcDbEntity
  8
0
100
AcDbLine
 62
7
  6
CONTINUOUS
 10
-2.6230000248
 20
5.950116193
 11
-2.5969999752
 21
5.8837332105
  0
LINE
  5
2BE
100
AcDbEntity
  8
0
100
AcDbLine
 62
7
  6
CONTINUOUS
 10
-2.766
 20
6.3650098303
 11
-2.7919999752
 21
6.4313928011
  0
LINE
  5
2BF
100
AcDbEntity
  8
0
100
AcDbLine
 62
7
  6
CONTINUOUS
 10
-3.81375
 20
9.3931915069
 11
-3.6125000069
 21
8.85
  0
LINE
  5
2C0
100
AcDbEntity
  8
0
100
AcDbLine
 62
7
  6
CONTINUOUS
 10
-3.555
 20
8.9234042569
 11
-3.770625
 21
9.54
  0
LINE
  5
2C1
100
AcDbEntity
  8
0
100
AcDbLine
 62
7
  6
CONTINUOUS
 10
-2.6637500274
 20
9.0261702123
 11
-2.60625
 21
8.85
  0
LINE
  5
2C2
100
AcDbEntity
  8
0
100
AcDbLine
 62
7
  6
CONTINUOUS
 10
-2.8074999726
 20
9.4812766027
 11
-2.6781249726
 21
9.0848936096
  0
LINE
  5
2C3
100
AcDbEntity
  8
0
100
AcDbLine
 62
7
  6
CONTINUOUS
 10
-3.195
 20
5.9999034211
 11
-3.1820000124
 21
5.950116193
  0
LINE
  5
2C4
100
AcDbEntity
  8
0
100
AcDbLine
 62
7
  6
CONTINUOUS
 10
-2.7529999752
 20
6.3152225557
 11
-2.766
 21
6.3650098303
  0
LINE
  5
2C5
100
AcDbEntity
  8
0
100
AcDbLine
 62
7
  6
CONTINUOUS
 10
-2.5450000248
 20
5.9667119357
 11
-2.5579999752
 21
6.0330949065
  0
LINE
  5
2C6
100
AcDbEntity
  8
0
100
AcDbLine
 62
7
  6
CONTINUOUS
 10
-1.83
 20
9.3051063699
 11
-1.8443749452
 21
9.3785106575
  0
LINE
  5
2C7
100
AcDbEntity
  8
0
100
AcDbLine
 62
7
  6
CONTINUOUS
 10
-2.7400000248
 20
6.2322438422
 11
-2.7529999752
 21
6.3152225557
  0
LINE
  5
2C8
100
AcDbEntity
  8
0
100
AcDbLine
 62
7
  6
CONTINUOUS
 10
-2.6359999752
 20
6.0330949065
 11
-2.6230000248
 21
5.950116193
  0
LINE
  5
2C9
100
AcDbEntity
  8
0
100
AcDbLine
 62
7
  6
CONTINUOUS
 10
0.2975001097
 20
9.54
 11
0.2975001097
 21
8.9527659555
  0
LINE
  5
2CA
100
AcDbEntity
  8
0
100
AcDbLine
 62
7
  6
CONTINUOUS
 10
0.3467685
 20
10.364961
 11
0.3467685
 21
11.9250312
  0
LINE
  5
2CB
100
AcDbEntity
  8
0
100
AcDbLine
 62
7
  6
CONTINUOUS
 10
0.3837501097
 20
8.85
 11
0.3837501097
 21
9.54
  0
LINE
  5
2CC
100
AcDbEntity
  8
0
100
AcDbLine
 62
7
  6
CONTINUOUS
 10
0.4199998999
 20
8.0872340548
 11
0.4199998999
 21
7.9697872192
  0
LINE
  5
2CD
100
AcDbEntity
  8
0
100
AcDbLine
 62
7
  6
CONTINUOUS
 10
0.5774998999
 20
8.0725532055
 11
0.5774998999
 21
7.5
  0
LINE
  5
2CE
100
AcDbEntity
  8
0
100
AcDbLine
 62
7
  6
CONTINUOUS
 10
0.7349998999
 20
7.5
 11
0.7349998999
 21
8.19
  0
LINE
  5
2CF
100
AcDbEntity
  8
ASSI
100
AcDbLine
 62
7
  6
CONTINUOUS
 10
0.9352668
 20
-8.5125
 11
0.9352668
 21
-8.2875
  0
LINE
  5
2D0
100
AcDbEntity
  8
0
100
AcDbLine
 62
7
  6
CONTINUOUS
 10
0.945
 20
7.9110638219
 11
0.945
 21
7.7789361781
  0
LINE
  5
2D1
100
AcDbEntity
  8
ASSI
100
AcDbLine
 62
7
  6
CONTINUOUS
 10
1.0552668
 20
-9.1644111381
 11
1.0552668
 21
-8.9391650119
  0
LINE
  5
2D2
100
AcDbEntity
  8
ASSI
100
AcDbLine
 62
7
  6
CONTINUOUS
 10
1.0552668
 20
-7.860834
 11
1.0552668
 21
-7.6355889372
  0
LINE
  5
2D3
100
AcDbEntity
  8
0
100
AcDbLine
 62
7
  6
CONTINUOUS
 10
1.0762501001
 20
7.7936170274
 11
1.0762501001
 21
7.8963829726
  0
LINE
  5
2D4
100
AcDbEntity
  8
0
100
AcDbLine
 62
7
  6
CONTINUOUS
 10
1.18875
 20
9.54
 11
1.18875
 21
8.85
  0
LINE
  5
2D5
100
AcDbEntity
  8
0
100
AcDbLine
 62
7
  6
CONTINUOUS
 10
1.275
 20
8.85
 11
1.275
 21
9.54
  0
LINE
  5
2D6
100
AcDbEntity
  8
0
100
AcDbLine
 62
7
  6
CONTINUOUS
 10
1.3899998903
 20
9.54
 11
1.3899998903
 21
9.4665957534
  0
LINE
  5
2D7
100
AcDbEntity
  8
0
100
AcDbLine
 62
7
  6
CONTINUOUS
 10
1.62
 20
9.4665957534
 11
1.62
 21
8.85
  0
LINE
  5
2D8
100
AcDbEntity
  8
0
100
AcDbLine
 62
7
  6
CONTINUOUS
 10
1.70625
 20
8.85
 11
1.70625
 21
9.4665957534
  0
LINE
  5
2D9
100
AcDbEntity
  8
ASSI
100
AcDbLine
 62
7
  6
CONTINUOUS
 10
1.7196717
 20
5.416986
 11
1.7196717
 21
5.2538913
  0
LINE
  5
2DA
100
AcDbEntity
  8
ASSI
100
AcDbLine
 62
7
  6
CONTINUOUS
 10
1.7249979
 20
6.7396839
 11
1.7249979
 21
6.5756922
  0
LINE
  5
2DB
100
AcDbEntity
  8
0
100
AcDbLine
 62
7
  6
CONTINUOUS
 10
1.7587498999
 20
7.8963829726
 11
1.7587498999
 21
7.7936170274
  0
LINE
  5
2DC
100
AcDbEntity
  8
ASSI
100
AcDbLine
 62
7
  6
CONTINUOUS
 10
1.8642087
 20
6.5756922
 11
1.8642087
 21
6.1598541
  0
LINE
  5
2DD
100
AcDbEntity
  8
ASSI
100
AcDbLine
 62
7
  6
CONTINUOUS
 10
1.8642087
 20
5.9577378
 11
1.8642087
 21
5.416986
  0
LINE
  5
2DE
100
AcDbEntity
  8
0
100
AcDbLine
 62
7
  6
CONTINUOUS
 10
1.89
 20
7.7789361781
 11
1.89
 21
7.9110638219
  0
LINE
  5
2DF
100
AcDbEntity
  8
0
100
AcDbLine
 62
7
  6
CONTINUOUS
 10
1.9362497807
 20
9.4665957534
 11
1.9362497807
 21
9.54
  0
LINE
  5
2E0
100
AcDbEntity
  8
ASSI
100
AcDbLine
 62
7
  6
CONTINUOUS
 10
2.0379558
 20
5.416986
 11
2.0379558
 21
5.9595618
  0
LINE
  5
2E1
100
AcDbEntity
  8
ASSI
100
AcDbLine
 62
7
  6
CONTINUOUS
 10
2.0379558
 20
6.1598541
 11
2.0379558
 21
6.5756922
  0
LINE
  5
2E2
100
AcDbEntity
  8
0
100
AcDbLine
 62
7
  6
CONTINUOUS
 10
2.0765784
 20
11.9250351
 11
2.0765784
 21
10.3649649
  0
LINE
  5
2E3
100
AcDbEntity
  8
0
100
AcDbLine
 62
7
  6
CONTINUOUS
 10
2.0999997997
 20
7.7936170274
 11
2.0999997997
 21
7.705531911
  0
LINE
  5
2E4
100
AcDbEntity
  8
ASSI
100
AcDbLine
 62
7
  6
CONTINUOUS
 10
2.1771102
 20
6.5756922
 11
2.1771102
 21
6.7396839
  0
LINE
  5
2E5
100
AcDbEntity
  8
ASSI
100
AcDbLine
 62
7
  6
CONTINUOUS
 10
2.1824364
 20
5.2538913
 11
2.1824364
 21
5.416986
  0
LINE
  5
2E6
100
AcDbEntity
  8
0
100
AcDbLine
 62
7
  6
CONTINUOUS
 10
2.3842923
 20
11.2567896
 11
2.3842884
 21
11.6364234
  0
LINE
  5
2E7
100
AcDbEntity
  8
0
100
AcDbLine
 62
7
  6
CONTINUOUS
 10
2.388594
 20
10.3649649
 11
2.3886291
 21
10.9681779
  0
LINE
  5
2E8
100
AcDbEntity
  8
0
100
AcDbLine
 62
7
  6
CONTINUOUS
 10
-3.156
 20
5.8837332105
 11
-3.117
 21
5.8339459766
  0
LINE
  5
2E9
100
AcDbEntity
  8
0
100
AcDbLine
 62
7
  6
CONTINUOUS
 10
-3.3249999876
 20
6.4313928011
 11
-3.3770000124
 21
6.4977757719
  0
LINE
  5
2EA
100
AcDbEntity
  8
0
100
AcDbLine
 62
7
  6
CONTINUOUS
 10
-2.5969999752
 20
5.8837332105
 11
-2.5450000248
 21
5.8173502339
  0
LINE
  5
2EB
100
AcDbEntity
  8
0
100
AcDbLine
 62
7
  6
CONTINUOUS
 10
-2.7919999752
 20
6.4313928011
 11
-2.8309999752
 21
6.4811800292
  0
LINE
  5
2EC
100
AcDbEntity
  8
0
100
AcDbLine
 62
7
  6
CONTINUOUS
 10
-2.6250000125
 20
7.5880851062
 11
-2.9925
 21
8.19
  0
LINE
  5
2ED
100
AcDbEntity
  8
0
100
AcDbLine
 62
7
  6
CONTINUOUS
 10
-3.15
 20
8.19
 11
-2.7299999875
 21
7.5
  0
LINE
  5
2EE
100
AcDbEntity
  8
0
100
AcDbLine
 62
7
  6
CONTINUOUS
 10
-2.8699999752
 20
6.4147970584
 11
-2.8180000248
 21
6.3152225557
  0
LINE
  5
2EF
100
AcDbEntity
  8
0
100
AcDbLine
 62
7
  6
CONTINUOUS
 10
-2.5190000496
 20
5.9169247076
 11
-2.5450000248
 21
5.9667119357
  0
LINE
  5
2F0
100
AcDbEntity
  8
0
100
AcDbLine
 62
7
  6
CONTINUOUS
 10
-0.7350000501
 20
7.7789361781
 11
-0.70875
 21
7.705531911
  0
LINE
  5
2F1
100
AcDbEntity
  8
0
100
AcDbLine
 62
7
  6
CONTINUOUS
 10
-2.52
 20
8.85
 11
-2.7500000274
 21
9.54
  0
LINE
  5
2F2
100
AcDbEntity
  8
0
100
AcDbLine
 62
7
  6
CONTINUOUS
 10
-3.3250542
 20
11.9250312
 11
-2.8241694
 21
10.3649571
  0
LINE
  5
2F3
100
AcDbEntity
  8
0
100
AcDbLine
 62
7
  6
CONTINUOUS
 10
-2.6681538
 20
10.8508386
 11
-3.0130386
 21
11.9250312
  0
LINE
  5
2F4
100
AcDbEntity
  8
0
100
AcDbLine
 62
7
  6
CONTINUOUS
 10
-0.5774998999
 20
7.705531911
 11
-0.6037501001
 21
7.7936170274
  0
LINE
  5
2F5
100
AcDbEntity
  8
0
100
AcDbLine
 62
7
  6
CONTINUOUS
 10
0.0525001001
 20
7.9844680685
 11
0.07875
 21
7.8963829726
  0
LINE
  5
2F6
100
AcDbEntity
  8
0
100
AcDbLine
 62
7
  6
CONTINUOUS
 10
-0.8672274
 20
11.3937225
 11
-0.5722392
 21
10.364961
  0
LINE
  5
2F7
100
AcDbEntity
  8
0
100
AcDbLine
 62
7
  6
CONTINUOUS
 10
-1.9306249452
 20
9.3638297671
 11
-1.91625
 21
9.3051063699
  0
LINE
  5
2F8
100
AcDbEntity
  8
0
100
AcDbLine
 62
7
  6
CONTINUOUS
 10
2.7299997997
 20
8.0725532055
 11
2.7299997997
 21
7.7936170274
  0
LINE
  5
2F9
100
AcDbEntity
  8
0
100
AcDbLine
 62
7
  6
CONTINUOUS
 10
2.7299997997
 20
7.705531911
 11
2.7299997997
 21
7.5
  0
LINE
  5
2FA
100
AcDbEntity
  8
0
100
AcDbLine
 62
7
  6
CONTINUOUS
 10
2.74125
 20
9.54
 11
2.74125
 21
8.85
  0
LINE
  5
2FB
100
AcDbEntity
  8
0
100
AcDbLine
 62
7
  6
CONTINUOUS
 10
2.8275
 20
8.9380851062
 11
2.8275
 21
9.54
  0
LINE
  5
2FC
100
AcDbEntity
  8
0
100
AcDbLine
 62
7
  6
CONTINUOUS
 10
2.8874997997
 20
7.5
 11
2.8874997997
 21
7.705531911
  0
LINE
  5
2FD
100
AcDbEntity
  8
0
100
AcDbLine
 62
7
  6
CONTINUOUS
 10
2.8874997997
 20
7.7936170274
 11
2.8874997997
 21
8.19
  0
LINE
  5
2FE
100
AcDbEntity
  8
0
100
AcDbLine
 62
7
  6
CONTINUOUS
 10
3.15
 20
7.705531911
 11
3.15
 21
7.7936170274
  0
LINE
  5
2FF
100
AcDbEntity
  8
0
100
AcDbLine
 62
7
  6
CONTINUOUS
 10
3.25875
 20
8.85
 11
3.25875
 21
8.9380851062
  0
LINE
  5
300
100
AcDbEntity
  8
0
100
AcDbLine
 62
7
  6
CONTINUOUS
 10
3.60375
 20
9.2023404247
 11
3.60375
 21
8.85
  0
LINE
  5
301
100
AcDbEntity
  8
0
100
AcDbLine
 62
7
  6
CONTINUOUS
 10
3.69
 20
8.85
 11
3.69
 21
9.2023404247
  0
LINE
  5
302
100
AcDbEntity
  8
0
100
AcDbLine
 62
7
  6
CONTINUOUS
 10
4.05
 20
4.35
 11
4.05
 21
12.45
  0
LINE
  5
303
100
AcDbEntity
  8
0
100
AcDbLine
 62
7
  6
CONTINUOUS
 10
-4.05
 20
4.35
 11
4.05
 21
4.35
  0
LINE
  5
304
100
AcDbEntity
  8
0
100
AcDbLine
 62
7
  6
CONTINUOUS
 10
-2.5450000248
 20
5.8173502339
 11
-2.493
 21
5.7841587442
  0
LINE
  5
305
100
AcDbEntity
  8
0
100
AcDbLine
 62
7
  6
CONTINUOUS
 10
-3.3770000124
 20
6.4977757719
 11
-3.429
 21
6.5309672573
  0
LINE
  5
306
100
AcDbEntity
  8
0
100
AcDbLine
 62
7
  6
CONTINUOUS
 10
-3.117
 20
5.8339459766
 11
-3.0520000248
 21
5.7841587442
  0
LINE
  5
307
100
AcDbEntity
  8
0
100
AcDbLine
 62
7
  6
CONTINUOUS
 10
-2.8309999752
 20
6.4811800292
 11
-2.8960000248
 21
6.5309672573
  0
LINE
  5
308
100
AcDbEntity
  8
0
100
AcDbLine
 62
7
  6
CONTINUOUS
 10
-3.039
 20
5.8671374678
 11
-3.078
 21
5.9003289532
  0
LINE
  5
309
100
AcDbEntity
  8
0
100
AcDbLine
 62
7
  6
CONTINUOUS
 10
-3.4550000124
 20
6.4479885438
 11
-3.4160000124
 21
6.4147970584
  0
LINE
  5
30A
100
AcDbEntity
  8
0
100
AcDbLine
 62
7
  6
CONTINUOUS
 10
-2.4800000496
 20
5.8837332105
 11
-2.5190000496
 21
5.9169247076
  0
LINE
  5
30B
100
AcDbEntity
  8
0
100
AcDbLine
 62
7
  6
CONTINUOUS
 10
-2.9089999752
 20
6.4479885438
 11
-2.8699999752
 21
6.4147970584
  0
LINE
  5
30C
100
AcDbEntity
  8
0
100
AcDbLine
 62
7
  6
CONTINUOUS
 10
-1.959375
 20
9.4078723562
 11
-1.9306249452
 21
9.3638297671
  0
LINE
  5
30D
100
AcDbEntity
  8
0
100
AcDbLine
 62
7
  6
CONTINUOUS
 10
-0.70875
 20
7.705531911
 11
-0.6824999499
 21
7.661489363
  0
LINE
  5
30E
100
AcDbEntity
  8
0
100
AcDbLine
 62
7
  6
CONTINUOUS
 10
0.1837498999
 20
7.9844680685
 11
0.1575
 21
8.0285106575
  0
LINE
  5
30F
100
AcDbEntity
  8
0
100
AcDbLine
 62
7
  6
CONTINUOUS
 10
-1.8443749452
 20
9.3785106575
 11
-1.873125
 21
9.4372340548
  0
LINE
  5
310
100
AcDbEntity
  8
0
100
AcDbLine
 62
7
  6
CONTINUOUS
 10
0.2100001001
 20
7.9110638219
 11
0.1837498999
 21
7.9844680685
  0
LINE
  5
311
100
AcDbEntity
  8
0
100
AcDbLine
 62
7
  6
CONTINUOUS
 10
0.945
 20
7.7789361781
 11
0.9712498999
 21
7.705531911
  0
LINE
  5
312
100
AcDbEntity
  8
0
100
AcDbLine
 62
7
  6
CONTINUOUS
 10
1.89
 20
7.9110638219
 11
1.8637501001
 21
7.9844680685
  0
LINE
  5
313
100
AcDbEntity
  8
0
100
AcDbLine
 62
7
  6
CONTINUOUS
 10
1.1025
 20
7.705531911
 11
1.0762501001
 21
7.7936170274
  0
LINE
  5
314
100
AcDbEntity
  8
0
100
AcDbLine
 62
7
  6
CONTINUOUS
 10
1.7325
 20
7.9844680685
 11
1.7587498999
 21
7.8963829726
  0
LINE
  5
315
100
AcDbEntity
  8
0
100
AcDbLine
 62
7
  6
CONTINUOUS
 10
-0.4162353
 20
10.9090578
 11
-0.7075614
 21
11.9250312
  0
LINE
  5
316
100
AcDbEntity
  8
0
100
AcDbLine
 62
7
  6
CONTINUOUS
 10
-2.376
 20
5.767563
 11
-2.3109999504
 21
5.7841587442
  0
LINE
  5
317
100
AcDbEntity
  8
0
100
AcDbLine
 62
7
  6
CONTINUOUS
 10
-2.9089999752
 20
5.8671374678
 11
-2.9740000248
 21
5.8505417251
  0
LINE
  5
318
100
AcDbEntity
  8
0
100
AcDbLine
 62
7
  6
CONTINUOUS
 10
-2.9740000248
 20
5.767563
 11
-2.8960000248
 21
5.7841587442
  0
LINE
  5
319
100
AcDbEntity
  8
ASSI
100
AcDbLine
 62
7
  6
CONTINUOUS
 10
1.7196717
 20
5.2538913
 11
2.1824364
 21
5.2538913
  0
LINE
  5
31A
100
AcDbEntity
  8
ASSI
100
AcDbLine
 62
7
  6
CONTINUOUS
 10
2.1824364
 20
5.416986
 11
2.0379558
 21
5.416986
  0
LINE
  5
31B
100
AcDbEntity
  8
ASSI
100
AcDbLine
 62
7
  6
CONTINUOUS
 10
1.8642087
 20
5.416986
 11
1.7196717
 21
5.416986
  0
LINE
  5
31C
100
AcDbEntity
  8
0
100
AcDbLine
 62
7
  6
CONTINUOUS
 10
-3.78
 20
5.767563
 11
-3.312
 21
5.767563
  0
LINE
  5
31D
100
AcDbEntity
  8
0
100
AcDbLine
 62
7
  6
CONTINUOUS
 10
-2.4279999504
 20
5.767563
 11
-2.376
 21
5.767563
  0
LINE
  5
31E
100
AcDbEntity
  8
0
100
AcDbLine
 62
7
  6
CONTINUOUS
 10
-1.477446
 20
5.767563
 11
-1.3740981
 21
5.767563
  0
LINE
  5
31F
100
AcDbEntity
  8
0
100
AcDbLine
 62
7
  6
CONTINUOUS
 10
-1.1866059
 20
5.767563
 11
-1.0832865
 21
5.767563
  0
LINE
  5
320
100
AcDbEntity
  8
0
100
AcDbLine
 62
7
  6
CONTINUOUS
 10
-0.214005
 20
5.767563
 11
-0.1202589
 21
5.767563
  0
LINE
  5
321
100
AcDbEntity
  8
0
100
AcDbLine
 62
7
  6
CONTINUOUS
 10
-3.312
 20
5.8505417251
 11
-3.6759999969
 21
5.8505417251
  0
LINE
  5
322
100
AcDbEntity
  8
0
100
AcDbLine
 62
7
  6
CONTINUOUS
 10
-2.376
 20
5.8671374678
 11
-2.4279999504
 21
5.8671374678
  0
LINE
  5
323
100
AcDbEntity
  8
0
100
AcDbLine
 62
7
  6
CONTINUOUS
 10
-0.5410365
 20
5.9497371
 11
-0.214005
 21
5.9497371
  0
LINE
  5
324
100
AcDbEntity
  8
0
100
AcDbLine
 62
7
  6
CONTINUOUS
 10
-0.1202589
 20
5.9497371
 11
-0.0105192
 21
5.9497371
  0
LINE
  5
325
100
AcDbEntity
  8
0
100
AcDbLine
 62
7
  6
CONTINUOUS
 10
-0.0105192
 20
6.0306912
 11
-0.1202589
 21
6.0306912
  0
LINE
  5
326
100
AcDbEntity
  8
0
100
AcDbLine
 62
7
  6
CONTINUOUS
 10
-0.214005
 20
6.0306912
 11
-0.4547619
 21
6.0306912
  0
LINE
  5
327
100
AcDbEntity
  8
0
100
AcDbLine
 62
7
  6
CONTINUOUS
 10
-2.5579999752
 20
6.0330949065
 11
-2.6359999752
 21
6.0330949065
  0
LINE
  5
328
100
AcDbEntity
  8
0
100
AcDbLine
 62
7
  6
CONTINUOUS
 10
-1.0832865
 20
6.0903561
 11
-0.8427704588
 21
6.0903561
  0
LINE
  5
329
100
AcDbEntity
  8
0
100
AcDbLine
 62
7
  6
CONTINUOUS
 10
-0.8668786147
 20
6.1787643
 11
-1.0832865
 21
6.1787643
  0
LINE
  5
32A
100
AcDbEntity
  8
0
100
AcDbLine
 62
7
  6
CONTINUOUS
 10
-3.7669999996
 20
6.3650098303
 11
-3.702
 21
6.3650098303
  0
LINE
  5
32B
100
AcDbEntity
  8
0
100
AcDbLine
 62
7
  6
CONTINUOUS
 10
-1.0832865
 20
6.4440288
 11
-0.8668770281
 21
6.4440288
  0
LINE
  5
32C
100
AcDbEntity
  8
0
100
AcDbLine
 62
7
  6
CONTINUOUS
 10
-3.5719999938
 20
6.4645842865
 11
-3.5200000062
 21
6.4645842865
  0
LINE
  5
32D
100
AcDbEntity
  8
0
100
AcDbLine
 62
7
  6
CONTINUOUS
 10
-0.1202589
 20
6.532437
 11
-0.1864806
 21
6.532437
  0
LINE
  5
32E
100
AcDbEntity
  8
0
100
AcDbLine
 62
7
  6
CONTINUOUS
 10
-0.842769117
 20
6.532437
 11
-1.1866059
 21
6.532437
  0
LINE
  5
32F
100
AcDbEntity
  8
0
100
AcDbLine
 62
7
  6
CONTINUOUS
 10
-1.3740981
 20
6.532437
 11
-1.477446
 21
6.532437
  0
LINE
  5
330
100
AcDbEntity
  8
0
100
AcDbLine
 62
7
  6
CONTINUOUS
 10
-2.1680000496
 20
6.547563
 11
-2.2460000496
 21
6.547563
  0
LINE
  5
331
100
AcDbEntity
  8
0
100
AcDbLine
 62
7
  6
CONTINUOUS
 10
-3.507
 20
6.547563
 11
-3.5590000062
 21
6.547563
  0
LINE
  5
332
100
AcDbEntity
  8
ASSI
100
AcDbLine
 62
7
  6
CONTINUOUS
 10
1.7249979
 20
6.5756922
 11
1.8642087
 21
6.5756922
  0
LINE
  5
333
100
AcDbEntity
  8
ASSI
100
AcDbLine
 62
7
  6
CONTINUOUS
 10
2.0379558
 20
6.5756922
 11
2.1771102
 21
6.5756922
  0
LINE
  5
334
100
AcDbEntity
  8
0
100
AcDbLine
 62
7
  6
CONTINUOUS
 10
-3.0520000248
 20
5.7841587442
 11
-2.9740000248
 21
5.767563
  0
LINE
  5
335
100
AcDbEntity
  8
0
100
AcDbLine
 62
7
  6
CONTINUOUS
 10
-3.429
 20
6.5309672573
 11
-3.507
 21
6.547563
  0
LINE
  5
336
100
AcDbEntity
  8
0
100
AcDbLine
 62
7
  6
CONTINUOUS
 10
-2.8960000248
 20
6.5309672573
 11
-2.9740000248
 21
6.547563
  0
LINE
  5
337
100
AcDbEntity
  8
0
100
AcDbLine
 62
7
  6
CONTINUOUS
 10
-2.9740000248
 20
5.8505417251
 11
-3.039
 21
5.8671374678
  0
LINE
  5
338
100
AcDbEntity
  8
0
100
AcDbLine
 62
7
  6
CONTINUOUS
 10
-2.493
 20
5.7841587442
 11
-2.4279999504
 21
5.767563
  0
LINE
  5
339
100
AcDbEntity
  8
0
100
AcDbLine
 62
7
  6
CONTINUOUS
 10
-3.5200000062
 20
6.4645842865
 11
-3.4550000124
 21
6.4479885438
  0
LINE
  5
33A
100
AcDbEntity
  8
0
100
AcDbLine
 62
7
  6
CONTINUOUS
 10
-2.9740000248
 20
6.4645842865
 11
-2.9089999752
 21
6.4479885438
  0
LINE
  5
33B
100
AcDbEntity
  8
0
100
AcDbLine
 62
7
  6
CONTINUOUS
 10
-2.4279999504
 20
5.8671374678
 11
-2.4800000496
 21
5.8837332105
  0
LINE
  5
33C
100
AcDbEntity
  8
0
100
AcDbLine
 62
7
  6
CONTINUOUS
 10
-0.63
 20
7.6027659555
 11
-0.55125
 21
7.5587234024
  0
LINE
  5
33D
100
AcDbEntity
  8
0
100
AcDbLine
 62
7
  6
CONTINUOUS
 10
-2.0025
 20
9.4372340548
 11
-1.959375
 21
9.4078723562
  0
LINE
  5
33E
100
AcDbEntity
  8
0
100
AcDbLine
 62
7
  6
CONTINUOUS
 10
-0.4725
 20
7.6174468048
 11
-0.5774998999
 21
7.705531911
  0
LINE
  5
33F
100
AcDbEntity
  8
0
100
AcDbLine
 62
7
  6
CONTINUOUS
 10
-0.0525001001
 20
8.0725532055
 11
0.0525001001
 21
7.9844680685
  0
LINE
  5
340
100
AcDbEntity
  8
0
100
AcDbLine
 62
7
  6
CONTINUOUS
 10
1.2074998999
 20
7.6174468048
 11
1.1025
 21
7.705531911
  0
LINE
  5
341
100
AcDbEntity
  8
ASSI
100
AcDbLine
 62
7
  6
CONTINUOUS
 10
1.4256672
 20
6.3272994
 11
1.8642087
 21
5.9577378
  0
LINE
  5
342
100
AcDbEntity
  8
ASSI
100
AcDbLine
 62
7
  6
CONTINUOUS
 10
1.8642087
 20
6.1598541
 11
1.4054256
 21
6.5464734
  0
LINE
  5
343
100
AcDbEntity
  8
0
100
AcDbLine
 62
7
  6
CONTINUOUS
 10
-1.873125
 20
9.4372340548
 11
-1.9306249452
 21
9.4959574521
  0
LINE
  5
344
100
AcDbEntity
  8
0
100
AcDbLine
 62
7
  6
CONTINUOUS
 10
-0.6824999499
 20
7.661489363
 11
-0.63
 21
7.6027659555
  0
LINE
  5
345
100
AcDbEntity
  8
0
100
AcDbLine
 62
7
  6
CONTINUOUS
 10
0.1575
 20
8.0285106575
 11
0.1049998999
 21
8.0872340548
  0
LINE
  5
346
100
AcDbEntity
  8
0
100
AcDbLine
 62
7
  6
CONTINUOUS
 10
0.9975001001
 20
7.661489363
 11
1.0499998999
 21
7.6027659555
  0
LINE
  5
347
100
AcDbEntity
  8
0
100
AcDbLine
 62
7
  6
CONTINUOUS
 10
0.2975001097
 20
8.9527659555
 11
-0.061875
 21
9.54
  0
LINE
  5
348
100
AcDbEntity
  8
0
100
AcDbLine
 62
7
  6
CONTINUOUS
 10
-0.105
 20
9.4519149041
 11
0.2543751097
 21
8.85
  0
LINE
  5
349
100
AcDbEntity
  8
0
100
AcDbLine
 62
7
  6
CONTINUOUS
 10
0.9712498999
 20
7.705531911
 11
0.9975001001
 21
7.661489363
  0
LINE
  5
34A
100
AcDbEntity
  8
0
100
AcDbLine
 62
7
  6
CONTINUOUS
 10
1.8637501001
 20
7.9844680685
 11
1.8374998999
 21
8.0285106575
  0
LINE
  5
34B
100
AcDbEntity
  8
ASSI
100
AcDbLine
 62
7
  6
CONTINUOUS
 10
2.2525272
 20
5.4609945
 11
2.3276016
 21
5.3272359
  0
LINE
  5
34C
100
AcDbEntity
  8
0
100
AcDbLine
 62
7
  6
CONTINUOUS
 10
2.6262497807
 20
8.85
 11
2.39625
 21
9.54
  0
LINE
  5
34D
100
AcDbEntity
  8
0
100
AcDbLine
 62
7
  6
CONTINUOUS
 10
2.4825
 20
9.0261702123
 11
2.5399997807
 21
8.85
  0
LINE
  5
34E
100
AcDbEntity
  8
0
100
AcDbLine
 62
7
  6
CONTINUOUS
 10
2.3387502193
 20
9.4812766027
 11
2.4681252193
 21
9.0848936096
  0
LINE
  5
34F
100
AcDbEntity
  8
0
100
AcDbLine
 62
7
  6
CONTINUOUS
 10
1.4580579
 20
10.6717623
 11
1.5565563
 21
10.3649649
  0
LINE
  5
350
100
AcDbEntity
  8
0
100
AcDbLine
 62
7
  6
CONTINUOUS
 10
1.2116676
 20
11.4391536
 11
1.3628823
 21
10.968174
  0
LINE
  5
351
100
AcDbEntity
  8
0
100
AcDbLine
 62
7
  6
CONTINUOUS
 10
1.8685719
 20
10.364961
 11
1.3676832
 21
11.9250351
  0
LINE
  5
352
100
AcDbEntity
  8
0
100
AcDbLine
 62
7
  6
CONTINUOUS
 10
-3.039
 20
6.4479885438
 11
-2.9740000248
 21
6.4645842865
  0
LINE
  5
353
100
AcDbEntity
  8
0
100
AcDbLine
 62
7
  6
CONTINUOUS
 10
-3.6369999969
 20
6.4479885438
 11
-3.5719999938
 21
6.4645842865
  0
LINE
  5
354
100
AcDbEntity
  8
0
100
AcDbLine
 62
7
  6
CONTINUOUS
 10
-2.9740000248
 20
6.547563
 11
-3.0520000248
 21
6.5309672573
  0
LINE
  5
355
100
AcDbEntity
  8
0
100
AcDbLine
 62
7
  6
CONTINUOUS
 10
-3.5590000062
 20
6.547563
 11
-3.6500000031
 21
6.5309672573
  0
LINE
  5
356
100
AcDbEntity
  8
0
100
AcDbLine
 62
7
  6
CONTINUOUS
 10
1.5487501001
 20
7.5880851062
 11
1.4175
 21
7.5734042569
  0
LINE
  5
357
100
AcDbEntity
  8
0
100
AcDbLine
 62
7
  6
CONTINUOUS
 10
-0.1312501001
 20
7.5880851062
 11
-0.2624998999
 21
7.5734042569
  0
LINE
  5
358
100
AcDbEntity
  8
0
100
AcDbLine
 62
7
  6
CONTINUOUS
 10
1.2862498999
 20
8.1019149041
 11
1.4175
 21
8.1165957534
  0
LINE
  5
359
100
AcDbEntity
  8
0
100
AcDbLine
 62
7
  6
CONTINUOUS
 10
-0.39375
 20
8.1019149041
 11
-0.2624998999
 21
8.1165957534
  0
LINE
  5
35A
100
AcDbEntity
  8
0
100
AcDbLine
 62
7
  6
CONTINUOUS
 10
1.4175
 20
7.5
 11
1.575
 21
7.5146808506
  0
LINE
  5
35B
100
AcDbEntity
  8
0
100
AcDbLine
 62
7
  6
CONTINUOUS
 10
-0.2624998999
 20
7.5
 11
-0.1049998999
 21
7.5146808506
  0
LINE
  5
35C
100
AcDbEntity
  8
0
100
AcDbLine
 62
7
  6
CONTINUOUS
 10
1.4175
 20
8.19
 11
1.26
 21
8.1753191507
  0
LINE
  5
35D
100
AcDbEntity
  8
0
100
AcDbLine
 62
7
  6
CONTINUOUS
 10
-0.2624998999
 20
8.19
 11
-0.4199998999
 21
8.1753191507
  0
LINE
  5
35E
100
AcDbEntity
  8
ASSI
100
AcDbLine
 62
7
  6
CONTINUOUS
 10
2.1771102
 20
6.7396839
 11
1.7249979
 21
6.7396839
  0
LINE
  5
35F
100
AcDbEntity
  8
0
100
AcDbLine
 62
7
  6
CONTINUOUS
 10
-2.7299999875
 20
7.5
 11
-2.52
 21
7.5
  0
LINE
  5
360
100
AcDbEntity
  8
0
100
AcDbLine
 62
7
  6
CONTINUOUS
 10
-1.6274999499
 20
7.5
 11
-1.4699999499
 21
7.5
  0
LINE
  5
361
100
AcDbEntity
  8
0
100
AcDbLine
 62
7
  6
CONTINUOUS
 10
0.5774998999
 20
7.5
 11
0.7349998999
 21
7.5
  0
LINE
  5
362
100
AcDbEntity
  8
0
100
AcDbLine
 62
7
  6
CONTINUOUS
 10
2.7299997997
 20
7.5
 11
2.8874997997
 21
7.5
  0
LINE
  5
363
100
AcDbEntity
  8
0
100
AcDbLine
 62
7
  6
CONTINUOUS
 10
2.0999997997
 20
7.705531911
 11
2.7299997997
 21
7.705531911
  0
LINE
  5
364
100
AcDbEntity
  8
0
100
AcDbLine
 62
7
  6
CONTINUOUS
 10
2.8874997997
 20
7.705531911
 11
3.15
 21
7.705531911
  0
LINE
  5
365
100
AcDbEntity
  8
0
100
AcDbLine
 62
7
  6
CONTINUOUS
 10
3.15
 20
7.7936170274
 11
2.8874997997
 21
7.7936170274
  0
LINE
  5
366
100
AcDbEntity
  8
0
100
AcDbLine
 62
7
  6
CONTINUOUS
 10
2.7299997997
 20
7.7936170274
 11
2.28375
 21
7.7936170274
  0
LINE
  5
367
100
AcDbEntity
  8
0
100
AcDbLine
 62
7
  6
CONTINUOUS
 10
-1.89
 20
8.1165957534
 11
-1.1025
 21
8.1165957534
  0
LINE
  5
368
100
AcDbEntity
  8
0
100
AcDbLine
 62
7
  6
CONTINUOUS
 10
2.8874997997
 20
8.19
 11
2.7299997997
 21
8.19
  0
LINE
  5
369
100
AcDbEntity
  8
0
100
AcDbLine
 62
7
  6
CONTINUOUS
 10
0.7349998999
 20
8.19
 11
0.5774998999
 21
8.19
  0
LINE
  5
36A
100
AcDbEntity
  8
0
100
AcDbLine
 62
7
  6
CONTINUOUS
 10
-0.945
 20
8.19
 11
-1.89
 21
8.19
  0
LINE
  5
36B
100
AcDbEntity
  8
0
100
AcDbLine
 62
7
  6
CONTINUOUS
 10
-2.100000025
 20
8.19
 11
-2.257500025
 21
8.19
  0
LINE
  5
36C
100
AcDbEntity
  8
0
100
AcDbLine
 62
7
  6
CONTINUOUS
 10
-2.9925
 20
8.19
 11
-3.15
 21
8.19
  0
LINE
  5
36D
100
AcDbEntity
  8
0
100
AcDbLine
 62
7
  6
CONTINUOUS
 10
-3.9
 20
8.85
 11
-3.81375
 21
8.85
  0
LINE
  5
36E
100
AcDbEntity
  8
0
100
AcDbLine
 62
7
  6
CONTINUOUS
 10
-3.6125000069
 20
8.85
 11
-3.4975000137
 21
8.85
  0
LINE
  5
36F
100
AcDbEntity
  8
0
100
AcDbLine
 62
7
  6
CONTINUOUS
 10
-3.29625
 20
8.85
 11
-3.21
 21
8.85
  0
LINE
  5
370
100
AcDbEntity
  8
0
100
AcDbLine
 62
7
  6
CONTINUOUS
 10
-3.0950000274
 20
8.85
 11
-3.0087500274
 21
8.85
  0
LINE
  5
371
100
AcDbEntity
  8
0
100
AcDbLine
 62
7
  6
CONTINUOUS
 10
-2.4049999452
 20
8.85
 11
-2.0599999452
 21
8.85
  0
LINE
  5
372
100
AcDbEntity
  8
0
100
AcDbLine
 62
7
  6
CONTINUOUS
 10
-2.60625
 20
8.85
 11
-2.52
 21
8.85
  0
LINE
  5
373
100
AcDbEntity
  8
0
100
AcDbLine
 62
7
  6
CONTINUOUS
 10
-1.7149999452
 20
8.85
 11
-1.1974999452
 21
8.85
  0
LINE
  5
374
100
AcDbEntity
  8
0
100
AcDbLine
 62
7
  6
CONTINUOUS
 10
-0.3924998903
 20
8.85
 11
-0.3062498903
 21
8.85
  0
LINE
  5
375
100
AcDbEntity
  8
0
100
AcDbLine
 62
7
  6
CONTINUOUS
 10
0.2543751097
 20
8.85
 11
0.3837501097
 21
8.85
  0
LINE
  5
376
100
AcDbEntity
  8
0
100
AcDbLine
 62
7
  6
CONTINUOUS
 10
-0.19125
 20
8.85
 11
-0.105
 21
8.85
  0
LINE
  5
377
100
AcDbEntity
  8
0
100
AcDbLine
 62
7
  6
CONTINUOUS
 10
1.18875
 20
8.85
 11
1.275
 21
8.85
  0
LINE
  5
378
100
AcDbEntity
  8
0
100
AcDbLine
 62
7
  6
CONTINUOUS
 10
1.62
 20
8.85
 11
1.70625
 21
8.85
  0
LINE
  5
379
100
AcDbEntity
  8
0
100
AcDbLine
 62
7
  6
CONTINUOUS
 10
2.05125
 20
8.85
 11
2.1375
 21
8.85
  0
LINE
  5
37A
100
AcDbEntity
  8
0
100
AcDbLine
 62
7
  6
CONTINUOUS
 10
2.5399997807
 20
8.85
 11
2.6262497807
 21
8.85
  0
LINE
  5
37B
100
AcDbEntity
  8
0
100
AcDbLine
 62
7
  6
CONTINUOUS
 10
2.74125
 20
8.85
 11
3.25875
 21
8.85
  0
LINE
  5
37C
100
AcDbEntity
  8
0
100
AcDbLine
 62
7
  6
CONTINUOUS
 10
3.60375
 20
8.85
 11
3.69
 21
8.85
  0
LINE
  5
37D
100
AcDbEntity
  8
0
100
AcDbLine
 62
7
  6
CONTINUOUS
 10
-0.4199998999
 20
7.5146808506
 11
-0.2624998999
 21
7.5
  0
LINE
  5
37E
100
AcDbEntity
  8
0
100
AcDbLine
 62
7
  6
CONTINUOUS
 10
1.26
 20
7.5146808506
 11
1.4175
 21
7.5
  0
LINE
  5
37F
100
AcDbEntity
  8
0
100
AcDbLine
 62
7
  6
CONTINUOUS
 10
-0.1049998999
 20
8.1753191507
 11
-0.2624998999
 21
8.19
  0
LINE
  5
380
100
AcDbEntity
  8
0
100
AcDbLine
 62
7
  6
CONTINUOUS
 10
1.575
 20
8.1753191507
 11
1.4175
 21
8.19
  0
LINE
  5
381
100
AcDbEntity
  8
0
100
AcDbLine
 62
7
  6
CONTINUOUS
 10
-0.2624998999
 20
7.5734042569
 11
-0.39375
 21
7.5880851062
  0
LINE
  5
382
100
AcDbEntity
  8
0
100
AcDbLine
 62
7
  6
CONTINUOUS
 10
1.4175
 20
7.5734042569
 11
1.2862498999
 21
7.5880851062
  0
LINE
  5
383
100
AcDbEntity
  8
0
100
AcDbLine
 62
7
  6
CONTINUOUS
 10
-0.2624998999
 20
8.1165957534
 11
-0.1312501001
 21
8.1019149041
  0
LINE
  5
384
100
AcDbEntity
  8
0
100
AcDbLine
 62
7
  6
CONTINUOUS
 10
1.4175
 20
8.1165957534
 11
1.5487501001
 21
8.1019149041
  0
LINE
  5
385
100
AcDbEntity
  8
0
100
AcDbLine
 62
7
  6
CONTINUOUS
 10
-2.0599999452
 20
9.4519149041
 11
-2.0025
 21
9.4372340548
  0
LINE
  5
386
100
AcDbEntity
  8
0
100
AcDbLine
 62
7
  6
CONTINUOUS
 10
-0.55125
 20
7.5587234024
 11
-0.4199998999
 21
7.5146808506
  0
LINE
  5
387
100
AcDbEntity
  8
0
100
AcDbLine
 62
7
  6
CONTINUOUS
 10
1.1287498999
 20
7.5587234024
 11
1.26
 21
7.5146808506
  0
LINE
  5
388
100
AcDbEntity
  8
0
100
AcDbLine
 62
7
  6
CONTINUOUS
 10
0.0262498999
 20
8.1312766027
 11
-0.1049998999
 21
8.1753191507
  0
LINE
  5
389
100
AcDbEntity
  8
0
100
AcDbLine
 62
7
  6
CONTINUOUS
 10
1.7062501001
 20
8.1312766027
 11
1.575
 21
8.1753191507
  0
LINE
  5
38A
100
AcDbEntity
  8
0
100
AcDbLine
 62
7
  6
CONTINUOUS
 10
-0.39375
 20
7.5880851062
 11
-0.4725
 21
7.6174468048
  0
LINE
  5
38B
100
AcDbEntity
  8
0
100
AcDbLine
 62
7
  6
CONTINUOUS
 10
-0.1312501001
 20
8.1019149041
 11
-0.0525001001
 21
8.0725532055
  0
LINE
  5
38C
100
AcDbEntity
  8
0
100
AcDbLine
 62
7
  6
CONTINUOUS
 10
1.2862498999
 20
7.5880851062
 11
1.2074998999
 21
7.6174468048
  0
LINE
  5
38D
100
AcDbEntity
  8
0
100
AcDbLine
 62
7
  6
CONTINUOUS
 10
1.5487501001
 20
8.1019149041
 11
1.6275001001
 21
8.0725532055
  0
LINE
  5
38E
100
AcDbEntity
  8
0
100
AcDbLine
 62
7
  6
CONTINUOUS
 10
-1.9306249452
 20
9.4959574521
 11
-1.9881250548
 21
9.5253191507
  0
LINE
  5
38F
100
AcDbEntity
  8
0
100
AcDbLine
 62
7
  6
CONTINUOUS
 10
0.1049998999
 20
8.0872340548
 11
0.0262498999
 21
8.1312766027
  0
LINE
  5
390
100
AcDbEntity
  8
0
100
AcDbLine
 62
7
  6
CONTINUOUS
 10
1.0499998999
 20
7.6027659555
 11
1.1287498999
 21
7.5587234024
  0
LINE
  5
391
100
AcDbEntity
  8
0
100
AcDbLine
 62
7
  6
CONTINUOUS
 10
1.7850001001
 20
8.0872340548
 11
1.7062501001
 21
8.1312766027
  0
LINE
  5
392
100
AcDbEntity
  8
0
100
AcDbLine
 62
7
  6
CONTINUOUS
 10
1.6275001001
 20
8.0725532055
 11
1.7325
 21
7.9844680685
  0
LINE
  5
393
100
AcDbEntity
  8
0
100
AcDbLine
 62
7
  6
CONTINUOUS
 10
1.8374998999
 20
8.0285106575
 11
1.7850001001
 21
8.0872340548
  0
LINE
  5
394
100
AcDbEntity
  8
0
100
AcDbLine
 62
7
  6
CONTINUOUS
 10
3.3737502193
 20
9.54
 11
3.60375
 21
9.2023404247
  0
LINE
  5
395
100
AcDbEntity
  8
0
100
AcDbLine
 62
7
  6
CONTINUOUS
 10
3.646875
 20
9.2610638219
 11
3.4600002193
 21
9.54
  0
LINE
  5
396
100
AcDbEntity
  8
0
100
AcDbLine
 62
7
  6
CONTINUOUS
 10
2.6609466
 20
10.968174
 11
2.9736213
 21
10.3649649
  0
LINE
  5
397
100
AcDbEntity
  8
0
100
AcDbLine
 62
7
  6
CONTINUOUS
 10
3.3250542
 20
10.3649688
 11
2.9929334746
 21
11.0056971066
  0
LINE
  5
398
100
AcDbEntity
  8
0
100
AcDbLine
 62
7
  6
CONTINUOUS
 10
-2.0025
 20
8.9527659555
 11
-2.0599999452
 21
8.9380851062
  0
LINE
  5
399
100
AcDbEntity
  8
0
100
AcDbLine
 62
7
  6
CONTINUOUS
 10
-2.0599999452
 20
8.85
 11
-1.9881250548
 21
8.8646808506
  0
LINE
  5
39A
100
AcDbEntity
  8
0
100
AcDbLine
 62
7
  6
CONTINUOUS
 10
3.25875
 20
8.9380851062
 11
2.8275
 21
8.9380851062
  0
LINE
  5
39B
100
AcDbEntity
  8
0
100
AcDbLine
 62
7
  6
CONTINUOUS
 10
-1.1974999452
 20
8.9380851062
 11
-1.6287499452
 21
8.9380851062
  0
LINE
  5
39C
100
AcDbEntity
  8
0
100
AcDbLine
 62
7
  6
CONTINUOUS
 10
-2.0599999452
 20
8.9380851062
 11
-2.3187499452
 21
8.9380851062
  0
LINE
  5
39D
100
AcDbEntity
  8
0
100
AcDbLine
 62
7
  6
CONTINUOUS
 10
-2.95125
 20
9.0261702123
 11
-2.6637500274
 21
9.0261702123
  0
LINE
  5
39E
100
AcDbEntity
  8
0
100
AcDbLine
 62
7
  6
CONTINUOUS
 10
2.1949997807
 20
9.0261702123
 11
2.4825
 21
9.0261702123
  0
LINE
  5
39F
100
AcDbEntity
  8
0
100
AcDbLine
 62
7
  6
CONTINUOUS
 10
2.4681252193
 20
9.0848936096
 11
2.2093752193
 21
9.0848936096
  0
LINE
  5
3A0
100
AcDbEntity
  8
0
100
AcDbLine
 62
7
  6
CONTINUOUS
 10
-2.6781249726
 20
9.0848936096
 11
-2.9368749726
 21
9.0848936096
  0
LINE
  5
3A1
100
AcDbEntity
  8
0
100
AcDbLine
 62
7
  6
CONTINUOUS
 10
-1.6287499452
 20
9.172978726
 11
-1.2550000548
 21
9.172978726
  0
LINE
  5
3A2
100
AcDbEntity
  8
0
100
AcDbLine
 62
7
  6
CONTINUOUS
 10
-1.2550000548
 20
9.2610638219
 11
-1.6287499452
 21
9.2610638219
  0
LINE
  5
3A3
100
AcDbEntity
  8
0
100
AcDbLine
 62
7
  6
CONTINUOUS
 10
-2.3187499452
 20
9.4519149041
 11
-2.0599999452
 21
9.4519149041
  0
LINE
  5
3A4
100
AcDbEntity
  8
0
100
AcDbLine
 62
7
  6
CONTINUOUS
 10
-1.6287499452
 20
9.4519149041
 11
-1.1974999452
 21
9.4519149041
  0
LINE
  5
3A5
100
AcDbEntity
  8
0
100
AcDbLine
 62
7
  6
CONTINUOUS
 10
1.3899998903
 20
9.4665957534
 11
1.62
 21
9.4665957534
  0
LINE
  5
3A6
100
AcDbEntity
  8
0
100
AcDbLine
 62
7
  6
CONTINUOUS
 10
1.70625
 20
9.4665957534
 11
1.9362497807
 21
9.4665957534
  0
LINE
  5
3A7
100
AcDbEntity
  8
0
100
AcDbLine
 62
7
  6
CONTINUOUS
 10
3.9199997807
 20
9.54
 11
3.8337497807
 21
9.54
  0
LINE
  5
3A8
100
AcDbEntity
  8
0
100
AcDbLine
 62
7
  6
CONTINUOUS
 10
3.4600002193
 20
9.54
 11
3.3737502193
 21
9.54
  0
LINE
  5
3A9
100
AcDbEntity
  8
0
100
AcDbLine
 62
7
  6
CONTINUOUS
 10
2.8275
 20
9.54
 11
2.74125
 21
9.54
  0
LINE
  5
3AA
100
AcDbEntity
  8
0
100
AcDbLine
 62
7
  6
CONTINUOUS
 10
2.39625
 20
9.54
 11
2.2812497807
 21
9.54
  0
LINE
  5
3AB
100
AcDbEntity
  8
0
100
AcDbLine
 62
7
  6
CONTINUOUS
 10
1.9362497807
 20
9.54
 11
1.3899998903
 21
9.54
  0
LINE
  5
3AC
100
AcDbEntity
  8
0
100
AcDbLine
 62
7
  6
CONTINUOUS
 10
1.275
 20
9.54
 11
1.18875
 21
9.54
  0
LINE
  5
3AD
100
AcDbEntity
  8
0
100
AcDbLine
 62
7
  6
CONTINUOUS
 10
0.3837501097
 20
9.54
 11
0.2975001097
 21
9.54
  0
LINE
  5
3AE
100
AcDbEntity
  8
0
100
AcDbLine
 62
7
  6
CONTINUOUS
 10
-0.061875
 20
9.54
 11
-0.19125
 21
9.54
  0
LINE
  5
3AF
100
AcDbEntity
  8
0
100
AcDbLine
 62
7
  6
CONTINUOUS
 10
-0.3062498903
 20
9.54
 11
-0.3924998903
 21
9.54
  0
LINE
  5
3B0
100
AcDbEntity
  8
0
100
AcDbLine
 62
7
  6
CONTINUOUS
 10
-1.1974999452
 20
9.54
 11
-1.7149999452
 21
9.54
  0
LINE
  5
3B1
100
AcDbEntity
  8
0
100
AcDbLine
 62
7
  6
CONTINUOUS
 10
-2.0599999452
 20
9.54
 11
-2.4049999452
 21
9.54
  0
LINE
  5
3B2
100
AcDbEntity
  8
0
100
AcDbLine
 62
7
  6
CONTINUOUS
 10
-2.7500000274
 20
9.54
 11
-2.865
 21
9.54
  0
LINE
  5
3B3
100
AcDbEntity
  8
0
100
AcDbLine
 62
7
  6
CONTINUOUS
 10
-3.21
 20
9.54
 11
-3.339375
 21
9.54
  0
LINE
  5
3B4
100
AcDbEntity
  8
0
100
AcDbLine
 62
7
  6
CONTINUOUS
 10
-3.770625
 20
9.54
 11
-3.9
 21
9.54
  0
LINE
  5
3B5
100
AcDbEntity
  8
0
100
AcDbLine
 62
7
  6
CONTINUOUS
 10
2.9736213
 20
10.3649649
 11
3.3250542
 21
10.3649688
  0
LINE
  5
3B6
100
AcDbEntity
  8
0
100
AcDbLine
 62
7
  6
CONTINUOUS
 10
0.554775
 20
10.364961
 11
0.8667867
 21
10.3649649
  0
LINE
  5
3B7
100
AcDbEntity
  8
0
100
AcDbLine
 62
7
  6
CONTINUOUS
 10
-1.1792391
 20
10.364961
 11
-0.8672274
 21
10.364961
  0
LINE
  5
3B8
100
AcDbEntity
  8
0
100
AcDbLine
 62
7
  6
CONTINUOUS
 10
0.0347568
 20
10.364961
 11
0.3467685
 21
10.364961
  0
LINE
  5
3B9
100
AcDbEntity
  8
0
100
AcDbLine
 62
7
  6
CONTINUOUS
 10
2.0765784
 20
10.3649649
 11
2.388594
 21
10.3649649
  0
LINE
  5
3BA
100
AcDbEntity
  8
0
100
AcDbLine
 62
7
  6
CONTINUOUS
 10
-0.5722392
 20
10.364961
 11
-0.2602353
 21
10.3649649
  0
LINE
  5
3BB
100
AcDbEntity
  8
0
100
AcDbLine
 62
7
  6
CONTINUOUS
 10
-1.8032547
 20
10.3649571
 11
-1.491243
 21
10.364961
  0
LINE
  5
3BC
100
AcDbEntity
  8
0
100
AcDbLine
 62
7
  6
CONTINUOUS
 10
1.5565563
 20
10.3649649
 11
1.8685719
 21
10.364961
  0
LINE
  5
3BD
100
AcDbEntity
  8
0
100
AcDbLine
 62
7
  6
CONTINUOUS
 10
-2.8241694
 20
10.3649571
 11
-2.512146
 21
10.364961
  0
LINE
  5
3BE
100
AcDbEntity
  8
0
100
AcDbLine
 62
7
  6
CONTINUOUS
 10
0.965289
 20
10.6717623
 11
1.4580579
 21
10.6717623
  0
LINE
  5
3BF
100
AcDbEntity
  8
0
100
AcDbLine
 62
7
  6
CONTINUOUS
 10
1.3628823
 20
10.968174
 11
1.0604607
 21
10.968174
  0
LINE
  5
3C0
100
AcDbEntity
  8
0
100
AcDbLine
 62
7
  6
CONTINUOUS
 10
2.3886291
 20
10.9681779
 11
2.6609466
 21
10.968174
  0
LINE
  5
3C1
100
AcDbEntity
  8
0
100
AcDbLine
 62
7
  6
CONTINUOUS
 10
-1.9881250548
 20
9.5253191507
 11
-2.0599999452
 21
9.54
  0
LINE
  5
3C2
100
AcDbEntity
  8
0
100
AcDbLine
 62
7
  6
CONTINUOUS
 10
2.7639082503
 20
11.2567896
 11
2.3842923
 21
11.2567896
  0
LINE
  5
3C3
100
AcDbEntity
  8
0
100
AcDbLine
 62
7
  6
CONTINUOUS
 10
2.3842884
 20
11.6364234
 11
2.7638976
 21
11.6364234
  0
LINE
  5
3C4
100
AcDbEntity
  8
0
100
AcDbLine
 62
7
  6
CONTINUOUS
 10
0.3467685
 20
11.9250312
 11
-0.1249092
 21
11.9250312
  0
LINE
  5
3C5
100
AcDbEntity
  8
0
100
AcDbLine
 62
7
  6
CONTINUOUS
 10
-0.7075614
 20
11.9250312
 11
-1.1792391
 21
11.9250312
  0
LINE
  5
3C6
100
AcDbEntity
  8
0
100
AcDbLine
 62
7
  6
CONTINUOUS
 10
-1.4912391
 20
11.9250312
 11
-1.8032508
 21
11.9250312
  0
LINE
  5
3C7
100
AcDbEntity
  8
0
100
AcDbLine
 62
7
  6
CONTINUOUS
 10
-2.0112573
 20
11.9250312
 11
-2.3232729
 21
11.9250312
  0
LINE
  5
3C8
100
AcDbEntity
  8
0
100
AcDbLine
 62
7
  6
CONTINUOUS
 10
-3.0130386
 20
11.9250312
 11
-3.3250542
 21
11.9250312
  0
LINE
  5
3C9
100
AcDbEntity
  8
0
100
AcDbLine
 62
7
  6
CONTINUOUS
 10
2.8072214508
 20
11.9250351
 11
2.0765784
 21
11.9250351
  0
LINE
  5
3CA
100
AcDbEntity
  8
0
100
AcDbLine
 62
7
  6
CONTINUOUS
 10
1.3676832
 20
11.9250351
 11
1.0556559
 21
11.9250351
  0
LINE
  5
3CB
100
AcDbEntity
  8
0
100
AcDbLine
 62
7
  6
CONTINUOUS
 10
4.05
 20
12.45
 11
-4.05
 21
12.45
  0
LINE
  5
3CC
100
AcDbEntity
  8
0
100
AcDbLine
 62
7
  6
CONTINUOUS
 10
23.85
 20
16.8
 11
-23.85
 21
16.8
  0
LINE
  5
3CD
100
AcDbEntity
  8
0
100
AcDbLine
 62
7
  6
CONTINUOUS
 10
-23.85
 20
17.7
 11
23.85
 21
17.7
  0
LINE
  5
3CE
100
AcDbEntity
  8
0
100
AcDbLine
 62
7
  6
CONTINUOUS
 10
25.95
 20
-14.7
 11
25.95
 21
14.7
  0
LINE
  5
3CF
100
AcDbEntity
  8
0
100
AcDbLine
 62
7
  6
CONTINUOUS
 10
26.85
 20
14.7
 11
26.85
 21
-14.7
  0
ARC
  5
3D0
100
AcDbEntity
  8
0
100
AcDbCircle
 62
7
  6
CONTINUOUS
 10
-23.85
 20
-14.7
 40
3.0
100
AcDbArc
 50
180.0
 51
270.0
  0
ARC
  5
3D1
100
AcDbEntity
  8
0
100
AcDbCircle
 62
7
  6
CONTINUOUS
 10
-23.85
 20
-14.7
 40
2.1
100
AcDbArc
 50
180.0
 51
270.0
  0
CIRCLE
  5
3D2
100
AcDbEntity
  8
RACCORDO
100
AcDbCircle
 62
250
  6
CONTINUOUS
 10
-20.85
 20
-11.7
 40
1.5720524103
  0
CIRCLE
  5
3D3
100
AcDbEntity
  8
RACCORDO
100
AcDbCircle
 62
250
  6
CONTINUOUS
 10
-20.85
 20
-11.7
 40
1.1248935445
  0
CIRCLE
  5
3D4
100
AcDbEntity
  8
ASSI
100
AcDbCircle
 62
7
  6
CONTINUOUS
 10
-20.85
 20
-11.7
 40
0.96
  0
ARC
  5
3D5
100
AcDbEntity
  8
ASSI
100
AcDbCircle
 62
7
  6
CONTINUOUS
 10
-0.2902662
 20
-8.4
 40
0.764999562
100
AcDbArc
 50
87.7525290943
 51
272.2474708974
  0
ARC
  5
3D6
100
AcDbEntity
  8
ASSI
100
AcDbCircle
 62
7
  6
CONTINUOUS
 10
-0.2902662
 20
-8.4
 40
0.5399999774
100
AcDbArc
 50
90.1025526385
 51
273.1847386535
  0
CIRCLE
  5
3D7
100
AcDbEntity
  8
0
100
AcDbCircle
 62
7
  6
CONTINUOUS
 10
-20.85
 20
-11.7
 40
0.495
  0
ARC
  5
3D8
100
AcDbEntity
  8
0
100
AcDbCircle
 62
7
  6
CONTINUOUS
 10
-23.85
 20
14.7
 40
3.0
100
AcDbArc
 50
90.0
 51
180.0
  0
ARC
  5
3D9
100
AcDbEntity
  8
0
100
AcDbCircle
 62
7
  6
CONTINUOUS
 10
-23.85
 20
14.7
 40
2.1
100
AcDbArc
 50
90.0
 51
180.0
  0
CIRCLE
  5
3DA
100
AcDbEntity
  8
RACCORDO
100
AcDbCircle
 62
250
  6
CONTINUOUS
 10
-20.85
 20
11.7
 40
1.5720524103
  0
CIRCLE
  5
3DB
100
AcDbEntity
  8
RACCORDO
100
AcDbCircle
 62
250
  6
CONTINUOUS
 10
-20.85
 20
11.7
 40
1.1248935445
  0
CIRCLE
  5
3DC
100
AcDbEntity
  8
ASSI
100
AcDbCircle
 62
7
  6
CONTINUOUS
 10
-20.85
 20
11.7
 40
0.96
  0
CIRCLE
  5
3DD
100
AcDbEntity
  8
0
100
AcDbCircle
 62
7
  6
CONTINUOUS
 10
-20.85
 20
11.7
 40
0.495
  0
ARC
  5
3DE
100
AcDbEntity
  8
0
100
AcDbCircle
 62
7
  6
CONTINUOUS
 10
23.85
 20
-14.7
 40
3.0
100
AcDbArc
 50
270.0
 51
360.0
  0
ARC
  5
3DF
100
AcDbEntity
  8
0
100
AcDbCircle
 62
7
  6
CONTINUOUS
 10
23.85
 20
-14.7
 40
2.1
100
AcDbArc
 50
270.0
 51
360.0
  0
CIRCLE
  5
3E0
100
AcDbEntity
  8
RACCORDO
100
AcDbCircle
 62
250
  6
CONTINUOUS
 10
20.85
 20
-11.7
 40
1.5720524103
  0
CIRCLE
  5
3E1
100
AcDbEntity
  8
RACCORDO
100
AcDbCircle
 62
250
  6
CONTINUOUS
 10
20.85
 20
-11.7
 40
1.1248935445
  0
CIRCLE
  5
3E2
100
AcDbEntity
  8
ASSI
100
AcDbCircle
 62
7
  6
CONTINUOUS
 10
20.85
 20
-11.7
 40
0.96
  0
ARC
  5
3E3
100
AcDbEntity
  8
ASSI
100
AcDbCircle
 62
7
  6
CONTINUOUS
 10
1.0252668
 20
-8.4
 40
0.7649995973
100
AcDbArc
 50
87.7525289851
 51
272.2474707939
  0
ARC
  5
3E4
100
AcDbEntity
  8
ASSI
100
AcDbCircle
 62
7
  6
CONTINUOUS
 10
1.0252668
 20
-8.4
 40
0.5399999774
100
AcDbArc
 50
86.8152613297
 51
167.9752999778
  0
ARC
  5
3E5
100
AcDbEntity
  8
ASSI
100
AcDbCircle
 62
7
  6
CONTINUOUS
 10
1.0252668
 20
-8.4
 40
0.5399990642
100
AcDbArc
 50
192.0247203293
 51
273.1847444946
  0
CIRCLE
  5
3E6
100
AcDbEntity
  8
0
100
AcDbCircle
 62
7
  6
CONTINUOUS
 10
20.85
 20
-11.7
 40
0.495
  0
ARC
  5
3E7
100
AcDbEntity
  8
0
100
AcDbCircle
 62
7
  6
CONTINUOUS
 10
23.85
 20
14.7
 40
3.0
100
AcDbArc
 50
0.0
 51
90.0
  0
ARC
  5
3E8
100
AcDbEntity
  8
0
100
AcDbCircle
 62
7
  6
CONTINUOUS
 10
23.85
 20
14.7
 40
2.1
100
AcDbArc
 50
0.0
 51
90.0
  0
CIRCLE
  5
3E9
100
AcDbEntity
  8
RACCORDO
100
AcDbCircle
 62
250
  6
CONTINUOUS
 10
20.85
 20
11.7
 40
1.5720524103
  0
CIRCLE
  5
3EA
100
AcDbEntity
  8
RACCORDO
100
AcDbCircle
 62
250
  6
CONTINUOUS
 10
20.85
 20
11.7
 40
1.1248935445
  0
ARC
  5
3EB
100
AcDbEntity
  8
ASSI
100
AcDbCircle
 62
7
  6
CONTINUOUS
 10
1.95
 20
6.0
 40
1.0270078725
100
AcDbArc
 50
292.0885368205
 51
273.4298403724
  0
CIRCLE
  5
3EC
100
AcDbEntity
  8
ASSI
100
AcDbCircle
 62
7
  6
CONTINUOUS
 10
20.85
 20
11.7
 40
0.96
  0
ARC
  5
3ED
100
AcDbEntity
  8
ASSI
100
AcDbCircle
 62
7
  6
CONTINUOUS
 10
1.9189374
 20
4.0639581
 40
0.9155587437
100
AcDbArc
 50
47.231270393
 51
84.2011535907
  0
ARC
  5
3EE
100
AcDbEntity
  8
ASSI
100
AcDbCircle
 62
7
  6
CONTINUOUS
 10
1.9909914
 20
4.212258
 40
0.9045714764
100
AcDbArc
 50
45.4348897783
 51
67.5658708816
  0
CIRCLE
  5
3EF
100
AcDbEntity
  8
ASSI
100
AcDbCircle
 62
7
  6
CONTINUOUS
 10
1.95
 20
6.0
 40
0.8626149
  0
ARC
  5
3F0
100
AcDbEntity
  8
ASSI
100
AcDbCircle
 62
7
  6
CONTINUOUS
 10
1.95
 20
6.0
 40
0.771488498
100
AcDbArc
 50
299.3041446576
 51
44.9957783156
  0
ARC
  5
3F1
100
AcDbEntity
  8
ASSI
100
AcDbCircle
 62
7
  6
CONTINUOUS
 10
1.95
 20
6.0
 40
0.7714884666
100
AcDbArc
 50
134.9002751525
 51
240.6958553424
  0
ARC
  5
3F2
100
AcDbEntity
  8
ASSI
100
AcDbCircle
 62
7
  6
CONTINUOUS
 10
1.95
 20
6.0
 40
0.6181017573
100
AcDbArc
 50
148.0267353487
 51
240.6958433001
  0
ARC
  5
3F3
100
AcDbEntity
  8
ASSI
100
AcDbCircle
 62
7
  6
CONTINUOUS
 10
1.95
 20
6.0
 40
0.6181016387
100
AcDbArc
 50
299.3041566999
 51
31.9732630566
  0
CIRCLE
  5
3F4
100
AcDbEntity
  8
0
100
AcDbCircle
 62
7
  6
CONTINUOUS
 10
20.85
 20
11.7
 40
0.495
  0
ARC
  5
3F5
100
AcDbEntity
  8
0
100
AcDbCircle
 62
7
  6
CONTINUOUS
 10
2.8072041
 20
11.4466059
 40
0.4784307908
100
AcDbArc
 50
292.8428776951
 51
89.9979220971
  0
ARC
  5
3F6
100
AcDbEntity
  8
0
100
AcDbCircle
 62
7
  6
CONTINUOUS
 10
2.7638976
 20
11.4466059
 40
0.1898175
100
AcDbArc
 50
270.0032147762
 51
90.0
  0
SPLINE
  5
3F7
100
AcDbEntity
  8
0
100
AcDbSpline
 62
7
  6
CONTINUOUS
 70
0
 71
3
 72
13
 73
9
 74
0
 42
0.0000001
 43
0.0000001
 44
0.0000000001
 40
0.0
 40
0.0
 40
0.0
 40
0.0
 40
0.0303431959
 40
0.4680448457
 40
0.6230005992
 40
0.7370642805
 40
0.8909833569
 40
1.0
 40
1.0
 40
1.0
 40
1.0
 10
-0.7221369678
 20
6.3113966132
 30
0.0
 10
-0.7221369678
 20
6.3091561025
 30
0.0
 10
-0.7217427628
 20
6.2747131512
 30
0.0
 10
-0.7374055314
 20
6.2240626218
 30
0.0
 10
-0.782273384
 20
6.1952268087
 30
0.0
 10
-0.8120183228
 20
6.1854709703
 30
0.0
 10
-0.8393895217
 20
6.179845854
 30
0.0
 10
-0.8588289382
 20
6.1787643607
 30
0.0
 10
-0.8668786147
 20
6.1787644138
 30
0.0
  0
SPLINE
  5
3F8
100
AcDbEntity
  8
0
100
AcDbSpline
 62
7
  6
CONTINUOUS
 70
0
 71
3
 72
13
 73
9
 74
0
 42
0.0000001
 43
0.0000001
 44
0.0000000001
 40
0.0
 40
0.0
 40
0.0
 40
0.0
 40
0.1090102613
 40
0.2629304402
 40
0.3769949385
 40
0.5319518019
 40
0.9696565868
 40
1.0
 40
1.0
 40
1.0
 40
1.0
 10
-0.8668770281
 20
6.4440288125
 30
0.0
 10
-0.8588278791
 20
6.4440288067
 30
0.0
 10
-0.8393890017
 20
6.4429472654
 30
0.0
 10
-0.8120183228
 20
6.437322256
 30
0.0
 10
-0.782273384
 20
6.4275664176
 30
0.0
 10
-0.7374055314
 20
6.3987306045
 30
0.0
 10
-0.7217427628
 20
6.3480800751
 30
0.0
 10
-0.7221369678
 20
6.3136371238
 30
0.0
 10
-0.7221369678
 20
6.3113966132
 30
0.0
  0
SPLINE
  5
3F9
100
AcDbEntity
  8
0
100
AcDbSpline
 62
7
  6
CONTINUOUS
 70
0
 71
3
 72
14
 73
10
 74
0
 42
0.0000001
 43
0.0000001
 44
0.0000000001
 40
0.0
 40
0.0
 40
0.0
 40
0.0
 40
0.0943174583
 40
0.2454744895
 40
0.3513651216
 40
0.4920105533
 40
0.6227666127
 40
0.977460997
 40
1.0
 40
1.0
 40
1.0
 40
1.0
 10
-0.8427704588
 20
6.0903562046
 30
0.0
 10
-0.8316015858
 20
6.09035616
 30
0.0
 10
-0.8025059943
 20
6.0921083819
 30
0.0
 10
-0.7616605641
 20
6.1012939826
 30
0.0
 10
-0.7177179739
 20
6.1187753779
 30
0.0
 10
-0.6808310608
 20
6.1450196944
 30
0.0
 10
-0.6320407521
 20
6.2015272506
 30
0.0
 10
-0.6152227745
 20
6.2641119745
 30
0.0
 10
-0.6156073626
 20
6.3087275921
 30
0.0
 10
-0.6156073626
 20
6.3113966132
 30
0.0
  0
SPLINE
  5
3FA
100
AcDbEntity
  8
0
100
AcDbSpline
 62
7
  6
CONTINUOUS
 70
0
 71
3
 72
14
 73
10
 74
0
 42
0.0000001
 43
0.0000001
 44
0.0000000001
 40
0.0
 40
0.0
 40
0.0
 40
0.0
 40
0.0225390882
 40
0.3772348121
 40
0.5079913654
 40
0.6486373284
 40
0.7545283604
 40
0.9056859625
 40
1.0
 40
1.0
 40
1.0
 40
1.0
 10
-0.6156073626
 20
6.3113966132
 30
0.0
 10
-0.6156073626
 20
6.3140656342
 30
0.0
 10
-0.6152227745
 20
6.3586812518
 30
0.0
 10
-0.6320407521
 20
6.4212659757
 30
0.0
 10
-0.6808310608
 20
6.4777735319
 30
0.0
 10
-0.7177179739
 20
6.5040178484
 30
0.0
 10
-0.7616605641
 20
6.5214992437
 30
0.0
 10
-0.8025055552
 20
6.5306847457
 30
0.0
 10
-0.8316006904
 20
6.5324370124
 30
0.0
 10
-0.842769117
 20
6.5324370217
 30
0.0
  0
SPLINE
  5
3FB
100
AcDbEntity
  8
0
100
AcDbSpline
 62
7
  6
CONTINUOUS
 70
0
 71
3
 72
16
 73
12
 74
0
 42
0.0000001
 43
0.0000001
 44
0.0000000001
 40
0.0
 40
0.0
 40
0.0
 40
0.0
 40
0.081582199
 40
0.1574553967
 40
0.3066287736
 40
0.384848994
 40
0.5792892447
 40
0.6959714606
 40
0.8475957974
 40
0.961835767
 40
1.0
 40
1.0
 40
1.0
 40
1.0
 10
0.3207736637
 20
6.4482666432
 30
0.0
 10
0.33092316
 20
6.4482666432
 30
0.0
 10
0.3505545471
 20
6.4457031749
 30
0.0
 10
0.3867473649
 20
6.4324951937
 30
0.0
 10
0.4154104611
 20
6.4059737259
 30
0.0
 10
0.4449574583
 20
6.3624663635
 30
0.0
 10
0.4592145287
 20
6.3152199386
 30
0.0
 10
0.470576199
 20
6.2589198954
 30
0.0
 10
0.4761906916
 20
6.2115317486
 30
0.0
 10
0.4773962775
 20
6.1737082942
 30
0.0
 10
0.4773097796
 20
6.1547479444
 30
0.0
 10
0.4773097796
 20
6.15
 30
0.0
  0
SPLINE
  5
3FC
100
AcDbEntity
  8
0
100
AcDbSpline
 62
7
  6
CONTINUOUS
 70
0
 71
3
 72
16
 73
12
 74
0
 42
0.0000001
 43
0.0000001
 44
0.0000000001
 40
0.0
 40
0.0
 40
0.0
 40
0.0
 40
0.038164233
 40
0.1524042026
 40
0.3040285394
 40
0.4207107553
 40
0.615151006
 40
0.6933712264
 40
0.8425446033
 40
0.918417801
 40
1.0
 40
1.0
 40
1.0
 40
1.0
 10
0.4773097796
 20
6.15
 30
0.0
 10
0.4773097796
 20
6.1452520556
 30
0.0
 10
0.4773962775
 20
6.1262917058
 30
0.0
 10
0.4761906916
 20
6.0884682514
 30
0.0
 10
0.470576199
 20
6.0410801046
 30
0.0
 10
0.4592145287
 20
5.9847800614
 30
0.0
 10
0.4449574583
 20
5.9375336365
 30
0.0
 10
0.4154104611
 20
5.8940262741
 30
0.0
 10
0.3867473649
 20
5.8675048063
 30
0.0
 10
0.3505545471
 20
5.8542968251
 30
0.0
 10
0.33092316
 20
5.8517333568
 30
0.0
 10
0.3207736637
 20
5.8517333568
 30
0.0
  0
SPLINE
  5
3FD
100
AcDbEntity
  8
0
100
AcDbSpline
 62
7
  6
CONTINUOUS
 70
0
 71
3
 72
16
 73
12
 74
0
 42
0.0000001
 43
0.0000001
 44
0.0000000001
 40
0.0
 40
0.0
 40
0.0
 40
0.0
 40
0.081582199
 40
0.1574553967
 40
0.3066287736
 40
0.384848994
 40
0.5792892447
 40
0.6959714606
 40
0.8475957974
 40
0.961835767
 40
1.0
 40
1.0
 40
1.0
 40
1.0
 10
0.3207736637
 20
5.8517333568
 30
0.0
 10
0.3106241675
 20
5.8517333568
 30
0.0
 10
0.2909927804
 20
5.8542968251
 30
0.0
 10
0.2547999625
 20
5.8675048063
 30
0.0
 10
0.2261368664
 20
5.8940262741
 30
0.0
 10
0.1965898692
 20
5.9375336365
 30
0.0
 10
0.1823327988
 20
5.9847800614
 30
0.0
 10
0.1709711285
 20
6.0410801046
 30
0.0
 10
0.1653566359
 20
6.0884682514
 30
0.0
 10
0.16415105
 20
6.1262917058
 30
0.0
 10
0.1642375478
 20
6.1452520556
 30
0.0
 10
0.1642375478
 20
6.15
 30
0.0
  0
SPLINE
  5
3FE
100
AcDbEntity
  8
0
100
AcDbSpline
 62
7
  6
CONTINUOUS
 70
0
 71
3
 72
16
 73
12
 74
0
 42
0.0000001
 43
0.0000001
 44
0.0000000001
 40
0.0
 40
0.0
 40
0.0
 40
0.0
 40
0.038164233
 40
0.1524042026
 40
0.3040285394
 40
0.4207107553
 40
0.615151006
 40
0.6933712264
 40
0.8425446033
 40
0.918417801
 40
1.0
 40
1.0
 40
1.0
 40
1.0
 10
0.1642375478
 20
6.15
 30
0.0
 10
0.1642375478
 20
6.1547479444
 30
0.0
 10
0.16415105
 20
6.1737082942
 30
0.0
 10
0.1653566359
 20
6.2115317486
 30
0.0
 10
0.1709711285
 20
6.2589198954
 30
0.0
 10
0.1823327988
 20
6.3152199386
 30
0.0
 10
0.1965898692
 20
6.3624663635
 30
0.0
 10
0.2261368664
 20
6.4059737259
 30
0.0
 10
0.2547999625
 20
6.4324951937
 30
0.0
 10
0.2909927804
 20
6.4457031749
 30
0.0
 10
0.3106241675
 20
6.4482666432
 30
0.0
 10
0.3207736637
 20
6.4482666432
 30
0.0
  0
SPLINE
  5
3FF
100
AcDbEntity
  8
0
100
AcDbSpline
 62
7
  6
CONTINUOUS
 70
0
 71
3
 72
23
 73
19
 74
0
 42
0.0000001
 43
0.0000001
 44
0.0000000001
 40
0.0
 40
0.0
 40
0.0
 40
0.0
 40
0.1175716721
 40
0.2550368586
 40
0.3463162708
 40
0.4140846673
 40
0.5095606694
 40
0.6178461101
 40
0.6617319017
 40
0.7152414415
 40
0.7583771864
 40
0.8078403706
 40
0.8439461126
 40
0.889742133
 40
0.9288974336
 40
0.9679984913
 40
0.9901309194
 40
1.0
 40
1.0
 40
1.0
 40
1.0
 10
0.3207736637
 20
5.7675655789
 30
0.0
 10
0.3410098331
 20
5.7675655789
 30
0.0
 10
0.3850442497
 20
5.7731580149
 30
0.0
 10
0.440877313
 20
5.7971268268
 30
0.0
 10
0.4801925239
 20
5.8303879673
 30
0.0
 10
0.5079942629
 20
5.8643662588
 30
0.0
 10
0.5327360529
 20
5.9042960002
 30
0.0
 10
0.5477582545
 20
5.9444654398
 30
0.0
 10
0.5569164291
 20
5.978654983
 30
0.0
 10
0.5624509525
 20
6.0022101077
 30
0.0
 10
0.5672569721
 20
6.0268985375
 30
0.0
 10
0.5707323392
 20
6.0487823191
 30
0.0
 10
0.5735479326
 20
6.0712190386
 30
0.0
 10
0.5754991923
 20
6.0919681707
 30
0.0
 10
0.5768084173
 20
6.1132824442
 30
0.0
 10
0.5773617751
 20
6.1305552069
 30
0.0
 10
0.5774536082
 20
6.142793339
 30
0.0
 10
0.5774460731
 20
6.1483013562
 30
0.0
 10
0.5774460731
 20
6.15
 30
0.0
  0
SPLINE
  5
400
100
AcDbEntity
  8
0
100
AcDbSpline
 62
7
  6
CONTINUOUS
 70
0
 71
3
 72
23
 73
19
 74
0
 42
0.0000001
 43
0.0000001
 44
0.0000000001
 40
0.0
 40
0.0
 40
0.0
 40
0.0
 40
0.0098690806
 40
0.0320015087
 40
0.0711025664
 40
0.110257867
 40
0.1560538874
 40
0.1921596294
 40
0.2416228136
 40
0.2847585585
 40
0.3382680983
 40
0.3821538899
 40
0.4904393306
 40
0.5859153327
 40
0.6536837292
 40
0.7449631414
 40
0.8824283279
 40
1.0
 40
1.0
 40
1.0
 40
1.0
 10
0.5774460731
 20
6.15
 30
0.0
 10
0.5774460731
 20
6.1516986438
 30
0.0
 10
0.5774536082
 20
6.157206661
 30
0.0
 10
0.5773617751
 20
6.1694447931
 30
0.0
 10
0.5768084173
 20
6.1867175558
 30
0.0
 10
0.5754991923
 20
6.2080318293
 30
0.0
 10
0.5735479326
 20
6.2287809614
 30
0.0
 10
0.5707323392
 20
6.2512176809
 30
0.0
 10
0.5672569721
 20
6.2731014625
 30
0.0
 10
0.5624509525
 20
6.2977898923
 30
0.0
 10
0.5569164291
 20
6.321345017
 30
0.0
 10
0.5477582545
 20
6.3555345602
 30
0.0
 10
0.5327360529
 20
6.3957039998
 30
0.0
 10
0.5079942629
 20
6.4356337412
 30
0.0
 10
0.4801925239
 20
6.4696120327
 30
0.0
 10
0.440877313
 20
6.5028731732
 30
0.0
 10
0.3850442497
 20
6.5268419851
 30
0.0
 10
0.3410098331
 20
6.5324344211
 30
0.0
 10
0.3207736637
 20
6.5324344211
 30
0.0
  0
SPLINE
  5
401
100
AcDbEntity
  8
0
100
AcDbSpline
 62
7
  6
CONTINUOUS
 70
0
 71
3
 72
23
 73
19
 74
0
 42
0.0000001
 43
0.0000001
 44
0.0000000001
 40
0.0
 40
0.0
 40
0.0
 40
0.0
 40
0.1175716721
 40
0.2550368586
 40
0.3463162708
 40
0.4140846673
 40
0.5095606694
 40
0.6178461101
 40
0.6617319017
 40
0.7152414415
 40
0.7583771864
 40
0.8078403706
 40
0.8439461126
 40
0.889742133
 40
0.9288974336
 40
0.9679984913
 40
0.9901309194
 40
1.0
 40
1.0
 40
1.0
 40
1.0
 10
0.3207736637
 20
6.5324344211
 30
0.0
 10
0.3005374944
 20
6.5324344211
 30
0.0
 10
0.2565030778
 20
6.5268419851
 30
0.0
 10
0.2006700145
 20
6.5028731732
 30
0.0
 10
0.1613548036
 20
6.4696120327
 30
0.0
 10
0.1335530646
 20
6.4356337412
 30
0.0
 10
0.1088112746
 20
6.3957039998
 30
0.0
 10
0.093789073
 20
6.3555345602
 30
0.0
 10
0.0846308984
 20
6.321345017
 30
0.0
 10
0.079096375
 20
6.2977898923
 30
0.0
 10
0.0742903554
 20
6.2731014625
 30
0.0
 10
0.0708149882
 20
6.2512176809
 30
0.0
 10
0.0679993949
 20
6.2287809614
 30
0.0
 10
0.0660481352
 20
6.2080318293
 30
0.0
 10
0.0647389102
 20
6.1867175558
 30
0.0
 10
0.0641855523
 20
6.1694447931
 30
0.0
 10
0.0640937192
 20
6.157206661
 30
0.0
 10
0.0641012544
 20
6.1516986438
 30
0.0
 10
0.0641012544
 20
6.15
 30
0.0
  0
SPLINE
  5
402
100
AcDbEntity
  8
0
100
AcDbSpline
 62
7
  6
CONTINUOUS
 70
0
 71
3
 72
23
 73
19
 74
0
 42
0.0000001
 43
0.0000001
 44
0.0000000001
 40
0.0
 40
0.0
 40
0.0
 40
0.0
 40
0.0098690806
 40
0.0320015087
 40
0.0711025664
 40
0.110257867
 40
0.1560538874
 40
0.1921596294
 40
0.2416228136
 40
0.2847585585
 40
0.3382680983
 40
0.3821538899
 40
0.4904393306
 40
0.5859153327
 40
0.6536837292
 40
0.7449631414
 40
0.8824283279
 40
1.0
 40
1.0
 40
1.0
 40
1.0
 10
0.0641012544
 20
6.15
 30
0.0
 10
0.0641012544
 20
6.1483013562
 30
0.0
 10
0.0640937192
 20
6.142793339
 30
0.0
 10
0.0641855523
 20
6.1305552069
 30
0.0
 10
0.0647389102
 20
6.1132824442
 30
0.0
 10
0.0660481352
 20
6.0919681707
 30
0.0
 10
0.0679993949
 20
6.0712190386
 30
0.0
 10
0.0708149882
 20
6.0487823191
 30
0.0
 10
0.0742903554
 20
6.0268985375
 30
0.0
 10
0.079096375
 20
6.0022101077
 30
0.0
 10
0.0846308984
 20
5.978654983
 30
0.0
 10
0.093789073
 20
5.9444654398
 30
0.0
 10
0.1088112746
 20
5.9042960002
 30
0.0
 10
0.1335530646
 20
5.8643662588
 30
0.0
 10
0.1613548036
 20
5.8303879673
 30
0.0
 10
0.2006700145
 20
5.7971268268
 30
0.0
 10
0.2565030778
 20
5.7731580149
 30
0.0
 10
0.3005374944
 20
5.7675655789
 30
0.0
 10
0.3207736637
 20
5.7675655789
 30
0.0
  0
ENDSEC
  0
SECTION
  2
OBJECTS
  0
DICTIONARY
  5
C
100
AcDbDictionary
280
0
281
1
  3
ACAD_GROUP
350
D
  3
ACAD_MLINESTYLE
350
17
  3
ACAD_LAYOUT
350
1A
  3
ACAD_PLOTSETTINGS
350
19
  3
ACAD_PLOTSTYLENAME
350
E
  0
DICTIONARY
  5
D
102
{ACAD_REACTORS
330
C
102
}
100
AcDbDictionary
280
0
281
1
  0
ACDBDICTIONARYWDFLT
  5
E
102
{ACAD_REACTORS
330
C
102
}
100
AcDbDictionary
281
1
  3
Normal
350
F
100
AcDbDictionaryWithDefault
340
F
  0
DICTIONARY
  5
17
102
{ACAD_REACTORS
330
C
102
}
100
AcDbDictionary
280
0
281
1
  3
Standard
350
18
  0
DICTIONARY
  5
19
102
{ACAD_REACTORS
330
C
102
}
100
AcDbDictionary
281
1
  0
DICTIONARY
  5
1A
102
{ACAD_REACTORS
330
C
102
}
100
AcDbDictionary
281
1
  3
Model
350
403
  3
Layout1
350
404
  0
ACDBPLACEHOLDER
  5
F
102
{ACAD_REACTORS
330
E
102
}
  0
MLINESTYLE
  5
18
102
{ACAD_REACTORS
330
17
102
}
100
AcDbMlineStyle
  2
STANDARD
 70
0
  3

 62
256
 51
90.0
 52
90.0
 71
2
 49
0.5
 62
256
  6
BYLAYER
 49
-0.5
 62
256
  6
BYLAYER
  0
LAYOUT
  5
403
102
{ACAD_REACTORS
330
1A
102
}
100
AcDbPlotSettings
  1

  2
none_device
  4
ISO_A4_(297.00_x_210.00_MM)
  6

 40
0.0
 41
0.0
 42
0.0
 43
0.0
 44
297.0
 45
210.0
 46
0.0
 47
0.0
 48
0.0
 49
0.0
140
0.0
141
0.0
142
1.0
143
1.0
 70
1024
 72
1
 73
0
 74
0
  7

 75
0
147
1.0
148
0.0
149
0.0
100
AcDbLayout
  1
Model
 70
0
 71
0
 10
0.0
 20
0.0
 11
297.0
 21
210.0
 12
0.0
 22
0.0
 32
0.0
 14
0.0
 24
0.0
 34
0.0
 15
0.0
 25
0.0
 35
0.0
146
0.0
 13
0.0
 23
0.0
 33
0.0
 16
1.0
 26
0.0
 36
0.0
 17
0.0
 27
1.0
 37
0.0
 76
0
330
20B
345
0
346
0
  0
LAYOUT
  5
404
102
{ACAD_REACTORS
330
1A
102
}
100
AcDbPlotSettings
  1

  2
none_device
  4
ISO_A4_(297.00_x_210.00_MM)
  6

 40
0.0
 41
0.0
 42
0.0
 43
0.0
 44
297.0
 45
210.0
 46
0.0
 47
0.0
 48
0.0
 49
0.0
140
0.0
141
0.0
142
1.0
143
1.0
 70
0
 72
1
 73
0
 74
0
  7

 75
0
147
1.0
148
0.0
149
0.0
100
AcDbLayout
  1
Layout1
 70
0
 71
1
 10
0.0
 20
0.0
 11
297.0
 21
210.0
 12
0.0
 22
0.0
 32
0.0
 14
0.0
 24
0.0
 34
0.0
 15
0.0
 25
0.0
 35
0.0
146
0.0
 13
0.0
 23
0.0
 33
0.0
 16
1.0
 26
0.0
 36
0.0
 17
0.0
 27
1.0
 37
0.0
 76
0
330
20C
345
0
346
0
  0
ENDSEC
  0
EOF
