  0
SECTION
  2
HEADER
  9
$ACADVER
  1
AC1024
  9
$DWGCODEPAGE
  3
ANSI_1252
  9
$EXTMAX
 10
558.8
 20
431.8
 30
0.0
  9
$EXTMIN
 10
0.0
 20
0.0
 30
0.0
  9
$LIMMIN
 10
0.0
 20
0.0
  9
$LIMMAX
 10
558.8
 20
431.8
  9
$VIEWCTR
 10
279.4
 20
215.9
  9
$VIEWSIZE
 40
431.8
  9
$CLAYER
  8
0
  9
$LTSCALE
 40
30.734
  9
$CELTYPE
  6
BYLAYER
  9
$DIMSCALE
 40
1.0
  9
$DIMASZ
 40
3.0
  9
$DIMEXO
 40
0.5
  9
$DIMDLI
 40
21.2344
  9
$DIMEXE
 40
1.5
  9
$DIMCEN
 40
5.0292
  9
$DIMLFAC
 40
1.0
  9
$DIMBLK
  1
_FILLED
  9
$DIMALT
 70
0
  9
$DIMALTF
 40
0.0393700787
  9
$DIMTXT
 40
3.0
  9
$DIMTOL
 70
1
  9
$DIMLIM
 70
0
  9
$DIMTFAC
 40
1.0
  9
$DIMTP
 40
0.01
  9
$DIMTM
 40
0.01
  9
$DIMGAP
 40
0.625
  9
$DIMDSEP
 70
44
  9
$AUNITS
 70
0
  9
$PDMODE
 70
3
  9
$PDSIZE
 40
3.0
  9
$HANDSEED
  5
634
  9
$TILEMODE
 70
1
  9
$MEASUREMENT
 70
1
  9
$INSUNITS
 70
4
  0
ENDSEC
  0
SECTION
  2
CLASSES
  0
CLASS
  1
ACDBDICTIONARYWDFLT
  2
AcDbDictionaryWithDefault
  3
AutoCAD 2000
 90
0
 91
1
280
0
281
0
  0
CLASS
  1
ACDBPLACEHOLDER
  2
AcDbPlaceHolder
  3
AutoCAD 2000
 90
0
 91
1
280
0
281
0
  0
CLASS
  1
LAYOUT
  2
AcDbLayout
  3
AutoCAD 2000
 90
0
 91
0
280
0
281
0
  0
ENDSEC
  0
SECTION
  2
TABLES
  0
TABLE
  2
VPORT
  5
8
100
AcDbSymbolTable
 70
2
  0
VPORT
  5
1F4
100
AcDbSymbolTableRecord
100
AcDbViewportTableRecord
  2
*ACTIVE
 70
0
 10
0.0
 20
0.0
 11
1.0
 21
1.0
 12
279.4
 22
215.9
 13
0.0
 23
0.0
 14
1.0
 24
1.0
 15
0.0
 25
0.0
 16
0.0
 26
0.0
 36
1.0
 17
0.0
 27
0.0
 37
0.0
 40
431.8
 41
1.2941176471
 42
50.0
 43
0.0
 44
0.0
 50
0.0
 51
0.0
 71
0
 72
100
 73
1
 74
1
 75
0
 76
0
 77
0
 78
0
  0
ENDTAB
  0
TABLE
  2
LTYPE
  5
5
100
AcDbSymbolTable
 70
6
  0
LTYPE
  5
14
100
AcDbSymbolTableRecord
100
AcDbLinetypeTableRecord
  2
BYBLOCK
 70
0
  3

 72
65
 73
0
 40
0.0
  0
LTYPE
  5
15
100
AcDbSymbolTableRecord
100
AcDbLinetypeTableRecord
  2
BYLAYER
 70
0
  3

 72
65
 73
0
 40
0.0
  0
LTYPE
  5
16
100
AcDbSymbolTableRecord
100
AcDbLinetypeTableRecord
  2
CONTINUOUS
 70
64
  3
Solid line
 72
65
 73
0
 40
0.0
  0
LTYPE
  5
1F5
100
AcDbSymbolTableRecord
100
AcDbLinetypeTableRecord
  2
CENTER
 70
64
  3
____ _ ____ _ ____ _ ____ _ ____ _ ____ _ ____
 72
65
 73
4
 40
0.6
 49
0.375
 74
0
 49
-0.075
 74
0
 49
0.075
 74
0
 49
-0.075
 74
0
  0
LTYPE
  5
1F6
100
AcDbSymbolTableRecord
100
AcDbLinetypeTableRecord
  2
HIDDEN
 70
64
  3
- - - - - - - - - - - - - - - - - - - -
 72
65
 73
2
 40
0.2
 49
0.1
 74
0
 49
-0.1
 74
0
  0
LTYPE
  5
1F7
100
AcDbSymbolTableRecord
100
AcDbLinetypeTableRecord
  2
PHANTOM
 70
64
  3
_____ _ _ _____ _ _ _____ _ _ _____
 72
65
 73
6
 40
0.8
 49
0.45
 74
0
 49
-0.05
 74
0
 49
0.1
 74
0
 49
-0.05
 74
0
 49
0.1
 74
0
 49
-0.05
 74
0
  0
LTYPE
  5
1F8
100
AcDbSymbolTableRecord
100
AcDbLinetypeTableRecord
  2
DOT
 70
64
  3
. . . . . . . . . . . . . . . . . . . .
 72
65
 73
2
 40
0.2
 49
0.1
 74
0
 49
-0.1
 74
0
  0
LTYPE
  5
1F9
100
AcDbSymbolTableRecord
100
AcDbLinetypeTableRecord
  2
DASHED
 70
64
  3
- - - - - - - - - - - - - - - - - - - -
 72
65
 73
2
 40
0.2
 49
0.1
 74
0
 49
-0.1
 74
0
  0
ENDTAB
  0
TABLE
  2
LAYER
  5
2
100
AcDbSymbolTable
 70
36
  0
LAYER
  5
10
100
AcDbSymbolTableRecord
100
AcDbLayerTableRecord
  2
0
 70
0
 62
7
  6
CONTINUOUS
370
-3
390
F
  0
LAYER
  5
1FA
100
AcDbSymbolTableRecord
100
AcDbLayerTableRecord
  2
DEFAULT_1
 70
0
 62
7
  6
CENTER
370
-3
390
F
  0
LAYER
  5
1FB
100
AcDbSymbolTableRecord
100
AcDbLayerTableRecord
  2
DEFAULT_2
 70
0
 62
7
  6
HIDDEN
370
-3
390
F
  0
LAYER
  5
1FC
100
AcDbSymbolTableRecord
100
AcDbLayerTableRecord
  2
DEFAULT_3
 70
0
 62
7
  6
PHANTOM
370
-3
390
F
  0
LAYER
  5
1FD
100
AcDbSymbolTableRecord
100
AcDbLayerTableRecord
  2
ASSI
 70
0
 62
7
  6
CONTINUOUS
370
-3
390
F
  0
LAYER
  5
1FE
100
AcDbSymbolTableRecord
100
AcDbLayerTableRecord
  2
COORDINATE
 70
0
 62
7
  6
CONTINUOUS
370
-3
390
F
  0
LAYER
  5
1FF
100
AcDbSymbolTableRecord
100
AcDbLayerTableRecord
  2
COPY_PUBLISH
 70
0
 62
7
  6
CONTINUOUS
370
-3
390
F
  0
LAYER
  5
200
100
AcDbSymbolTableRecord
100
AcDbLayerTableRecord
  2
COSMETIC
 70
0
 62
7
  6
CONTINUOUS
370
-3
390
F
  0
LAYER
  5
201
100
AcDbSymbolTableRecord
100
AcDbLayerTableRecord
  2
CURVE
 70
0
 62
7
  6
CONTINUOUS
370
-3
390
F
  0
LAYER
  5
202
100
AcDbSymbolTableRecord
100
AcDbLayerTableRecord
  2
IMPORT_IGES
 70
0
 62
7
  6
CONTINUOUS
370
-3
390
F
  0
LAYER
  5
203
100
AcDbSymbolTableRecord
100
AcDbLayerTableRecord
  2
INTF_1
 70
0
 62
7
  6
CONTINUOUS
370
-3
390
F
  0
LAYER
  5
204
100
AcDbSymbolTableRecord
100
AcDbLayerTableRecord
  2
NOTE
 70
0
 62
7
  6
CONTINUOUS
370
-3
390
F
  0
LAYER
  5
205
100
AcDbSymbolTableRecord
100
AcDbLayerTableRecord
  2
PIANI
 70
0
 62
7
  6
CONTINUOUS
370
-3
390
F
  0
LAYER
  5
206
100
AcDbSymbolTableRecord
100
AcDbLayerTableRecord
  2
PUNTI
 70
0
 62
7
  6
CONTINUOUS
370
-3
390
F
  0
LAYER
  5
207
100
AcDbSymbolTableRecord
100
AcDbLayerTableRecord
  2
RACCORDO
 70
0
 62
7
  6
CONTINUOUS
370
-3
390
F
  0
LAYER
  5
208
100
AcDbSymbolTableRecord
100
AcDbLayerTableRecord
  2
RGB____0____0____0__
 70
0
 62
7
  6
CONTINUOUS
370
-3
390
F
  0
LAYER
  5
209
100
AcDbSymbolTableRecord
100
AcDbLayerTableRecord
  2
SNAPLINE
 70
0
 62
7
  6
CONTINUOUS
370
-3
390
F
  0
LAYER
  5
20A
100
AcDbSymbolTableRecord
100
AcDbLayerTableRecord
  2
TRASH
 70
0
 62
7
  6
CONTINUOUS
370
-3
390
F
  0
ENDTAB
  0
TABLE
  2
STYLE
  5
3
100
AcDbSymbolTable
 70
1
  0
STYLE
  5
11
100
AcDbSymbolTableRecord
100
AcDbTextStyleTableRecord
  2
STANDARD
 70
0
 40
0.0
 41
0.8
 50
0.0
 71
0
 42
0.2
  3
txt
  4

  0
STYLE
  5
20B
100
AcDbSymbolTableRecord
100
AcDbTextStyleTableRecord
  2
TEXTSTYLE_1
 70
0
 40
0.0
 41
0.8
 50
0.0
 71
0
 42
0.2
  3
gdt
  4

  0
ENDTAB
  0
TABLE
  2
VIEW
  5
6
100
AcDbSymbolTable
 70
0
  0
ENDTAB
  0
TABLE
  2
UCS
  5
7
100
AcDbSymbolTable
 70
0
  0
ENDTAB
  0
TABLE
  2
APPID
  5
9
100
AcDbSymbolTable
 70
1
  0
APPID
  5
20C
100
AcDbSymbolTableRecord
100
AcDbRegAppTableRecord
  2
ACAD
 70
0
  0
ENDTAB
  0
TABLE
  2
BLOCK_RECORD
  5
1
100
AcDbSymbolTable
 70
0
  0
BLOCK_RECORD
  5
20D
100
AcDbSymbolTableRecord
100
AcDbBlockTableRecord
  2
*Model_Space
  0
BLOCK_RECORD
  5
20E
100
AcDbSymbolTableRecord
100
AcDbBlockTableRecord
  2
*Paper_Space
  0
BLOCK_RECORD
  5
20F
100
AcDbSymbolTableRecord
100
AcDbBlockTableRecord
  2
_FILLED
  0
ENDTAB
  0
TABLE
  2
DIMSTYLE
  5
A
100
AcDbSymbolTable
 70
1
100
AcDbDimStyleTable
 71
0
  0
DIMSTYLE
105
210
100
AcDbSymbolTableRecord
100
AcDbDimStyleTableRecord
  2
STANDARD
 70
0
  3

  4

 40
1.0
 41
3.0
 42
0.5
 43
0.38
 44
1.5
 45
0.0
 46
0.0
 47
0.01
 48
0.01
140
3.0
141
0.09
142
0.0
143
25.4
144
1.0
145
0.0
146
1.0
147
0.625
 71
1.0
 72
0.0
 73
0
 74
0
 75
0
 76
0
 77
1
 78
8
 79
2
170
0
171
1
172
0
173
0
174
0
175
0
176
0
177
0
178
0
270
2
179
2
271
2
272
2
273
2
274
2
275
0
280
0
281
0
282
0
283
1
284
8
285
0
286
0
287
3
288
0
340
11
278
44
341
20F
342
20F
343
20F
344
20F
  0
ENDTAB
  0
ENDSEC
  0
SECTION
  2
BLOCKS
  0
BLOCK
  5
20
100
AcDbEntity
  8
0
100
AcDbBlockBegin
  2
*Model_Space
 70
0
 10
0.0
 20
0.0
 30
0.0
  3
*Model_Space
  1

  0
ENDBLK
  5
21
100
AcDbEntity
  8
0
100
AcDbBlockEnd
  0
BLOCK
  5
1C
100
AcDbEntity
  8
0
100
AcDbBlockBegin
  2
*Paper_Space
 70
0
 10
0.0
 20
0.0
 30
0.0
  3
*Paper_Space
  1

  0
ENDBLK
  5
1D
100
AcDbEntity
  8
0
100
AcDbBlockEnd
  0
BLOCK
  5
211
100
AcDbEntity
  8
0
100
AcDbBlockBegin
  2
_FILLED
 70
64
 10
0.0
 20
0.0
  3
_FILLED
  1

  0
SOLID
  5
212
100
AcDbEntity
  8
0
  6
BYBLOCK
 62
0
100
AcDbTrace
 10
0.0
 20
0.0
 11
-1.0
 21
0.3166666667
 12
-1.0
 22
-0.3166666667
 13
-1.0
 23
-0.3166666667
  0
ENDBLK
  5
213
100
AcDbEntity
  8
0
  6
BYBLOCK
 62
0
100
AcDbBlockEnd
  0
ENDSEC
  0
SECTION
  2
ENTITIES
  0
LINE
  5
214
100
AcDbEntity
  8
0
100
AcDbLine
 62
7
  6
CONTINUOUS
 10
-89.5
 20
-66.5
 11
-89.5
 21
66.5
  0
LINE
  5
215
100
AcDbEntity
  8
0
100
AcDbLine
 62
250
  6
CONTINUOUS
 10
-87.0
 20
-66.5
 11
-87.0
 21
66.5
  0
LINE
  5
216
100
AcDbEntity
  8
0
100
AcDbLine
 62
7
  6
CONTINUOUS
 10
-86.5
 20
-66.5
 11
-86.5
 21
66.5
  0
LINE
  5
217
100
AcDbEntity
  8
0
100
AcDbLine
 62
250
  6
CONTINUOUS
 10
-85.5
 20
-66.5
 11
-85.5
 21
66.5
  0
LINE
  5
218
100
AcDbEntity
  8
0
100
AcDbLine
 62
250
  6
CONTINUOUS
 10
-83.8913112106
 20
66.5
 11
-83.8913112106
 21
-66.5
  0
LINE
  5
219
100
AcDbEntity
  8
0
100
AcDbLine
 62
7
  6
CONTINUOUS
 10
-82.8868716207
 20
66.5
 11
-82.8868716207
 21
-66.5
  0
LINE
  5
21A
100
AcDbEntity
  8
0
100
AcDbLine
 62
250
  6
CONTINUOUS
 10
-82.3868906591
 20
66.5
 11
-82.3868906591
 21
-66.5
  0
LINE
  5
21B
100
AcDbEntity
  8
0
100
AcDbLine
 62
7
  6
CONTINUOUS
 10
-81.9174537356
 20
-66.5
 11
-81.9174537356
 21
66.5
  0
LINE
  5
21C
100
AcDbEntity
  8
0
100
AcDbLine
 62
7
  6
CONTINUOUS
 10
-81.9
 20
-66.5
 11
-81.9
 21
66.5
  0
LINE
  5
21D
100
AcDbEntity
  8
0
100
AcDbLine
 62
250
  6
CONTINUOUS
 10
-79.5
 20
70.8913112106
 11
-79.5
 21
69.8913492875
  0
LINE
  5
21E
100
AcDbEntity
  8
0
100
AcDbLine
 62
250
  6
CONTINUOUS
 10
-79.5
 20
-70.8913112106
 11
-79.5
 21
-69.8913492875
  0
LINE
  5
21F
100
AcDbEntity
  8
0
100
AcDbLine
 62
250
  6
CONTINUOUS
 10
-79.5
 20
-68.9
 11
-79.5
 21
-68.9174537356
  0
LINE
  5
220
100
AcDbEntity
  8
0
100
AcDbLine
 62
250
  6
CONTINUOUS
 10
-79.5
 20
-69.3868906591
 11
-79.5
 21
-69.8868716207
  0
LINE
  5
221
100
AcDbEntity
  8
0
100
AcDbLine
 62
250
  6
CONTINUOUS
 10
-79.5
 20
-72.5
 11
-79.5
 21
-74.0
  0
LINE
  5
222
100
AcDbEntity
  8
0
100
AcDbLine
 62
250
  6
CONTINUOUS
 10
-79.5
 20
68.9
 11
-79.5
 21
68.9174537356
  0
LINE
  5
223
100
AcDbEntity
  8
0
100
AcDbLine
 62
250
  6
CONTINUOUS
 10
-79.5
 20
69.3868906591
 11
-79.5
 21
69.8868716207
  0
LINE
  5
224
100
AcDbEntity
  8
0
100
AcDbLine
 62
250
  6
CONTINUOUS
 10
-79.5
 20
72.5
 11
-79.5
 21
74.0
  0
LINE
  5
225
100
AcDbEntity
  8
0
100
AcDbLine
 62
7
  6
CONTINUOUS
 10
79.5
 20
-76.5
 11
-79.5
 21
-76.5
  0
LINE
  5
226
100
AcDbEntity
  8
0
100
AcDbLine
 62
250
  6
CONTINUOUS
 10
79.5
 20
-74.0
 11
-79.5
 21
-74.0
  0
LINE
  5
227
100
AcDbEntity
  8
0
100
AcDbLine
 62
7
  6
CONTINUOUS
 10
79.5
 20
-73.5
 11
-79.5
 21
-73.5
  0
LINE
  5
228
100
AcDbEntity
  8
0
100
AcDbLine
 62
250
  6
CONTINUOUS
 10
79.5
 20
-72.5
 11
-79.5
 21
-72.5
  0
LINE
  5
229
100
AcDbEntity
  8
0
100
AcDbLine
 62
250
  6
CONTINUOUS
 10
-79.5
 20
-70.8913112106
 11
79.5
 21
-70.8913112106
  0
LINE
  5
22A
100
AcDbEntity
  8
0
100
AcDbLine
 62
7
  6
CONTINUOUS
 10
-79.5
 20
-69.8868716207
 11
79.5
 21
-69.8868716207
  0
LINE
  5
22B
100
AcDbEntity
  8
0
100
AcDbLine
 62
7
  6
CONTINUOUS
 10
18.4113219764
 20
-59.5478127643
 11
18.7452157176
 21
-59.4709792469
  0
LINE
  5
22C
100
AcDbEntity
  8
0
100
AcDbLine
 62
250
  6
CONTINUOUS
 10
-79.5
 20
-69.3868906591
 11
79.5
 21
-69.3868906591
  0
LINE
  5
22D
100
AcDbEntity
  8
0
100
AcDbLine
 62
7
  6
CONTINUOUS
 10
79.5
 20
-68.9174537356
 11
-79.5
 21
-68.9174537356
  0
LINE
  5
22E
100
AcDbEntity
  8
0
100
AcDbLine
 62
7
  6
CONTINUOUS
 10
79.5
 20
-68.9
 11
-79.5
 21
-68.9
  0
LINE
  5
22F
100
AcDbEntity
  8
0
100
AcDbLine
 62
250
  6
CONTINUOUS
 10
-83.8913112106
 20
-66.5
 11
-82.8913492875
 21
-66.5
  0
LINE
  5
230
100
AcDbEntity
  8
0
100
AcDbLine
 62
250
  6
CONTINUOUS
 10
83.8913112106
 20
-66.5
 11
82.8913492875
 21
-66.5
  0
LINE
  5
231
100
AcDbEntity
  8
0
100
AcDbLine
 62
250
  6
CONTINUOUS
 10
-81.9
 20
-66.5
 11
-81.9174537356
 21
-66.5
  0
LINE
  5
232
100
AcDbEntity
  8
0
100
AcDbLine
 62
250
  6
CONTINUOUS
 10
81.9
 20
-66.5
 11
81.9174537356
 21
-66.5
  0
LINE
  5
233
100
AcDbEntity
  8
0
100
AcDbLine
 62
250
  6
CONTINUOUS
 10
82.3868906591
 20
-66.5
 11
82.8868716207
 21
-66.5
  0
LINE
  5
234
100
AcDbEntity
  8
0
100
AcDbLine
 62
250
  6
CONTINUOUS
 10
-82.3868906591
 20
-66.5
 11
-82.8868716207
 21
-66.5
  0
LINE
  5
235
100
AcDbEntity
  8
0
100
AcDbLine
 62
250
  6
CONTINUOUS
 10
85.5
 20
-66.5
 11
87.0
 21
-66.5
  0
LINE
  5
236
100
AcDbEntity
  8
0
100
AcDbLine
 62
250
  6
CONTINUOUS
 10
-85.5
 20
-66.5
 11
-87.0
 21
-66.5
  0
LINE
  5
237
100
AcDbEntity
  8
0
100
AcDbLine
 62
7
  6
CONTINUOUS
 10
-10.0
 20
-65.0
 11
-9.6661062588
 21
-65.0
  0
LINE
  5
238
100
AcDbEntity
  8
0
100
AcDbLine
 62
7
  6
CONTINUOUS
 10
-8.4367702118
 20
-65.0
 11
-8.1028764706
 21
-65.0
  0
LINE
  5
239
100
AcDbEntity
  8
0
100
AcDbLine
 62
7
  6
CONTINUOUS
 10
-7.2259309382
 20
-65.0
 11
-6.8735404235
 21
-65.0
  0
LINE
  5
23A
100
AcDbEntity
  8
0
100
AcDbLine
 62
7
  6
CONTINUOUS
 10
-5.2647796706
 20
-65.0
 11
-4.9097803397
 21
-65.0
  0
LINE
  5
23B
100
AcDbEntity
  8
0
100
AcDbLine
 62
7
  6
CONTINUOUS
 10
-4.642523153
 20
-65.0
 11
-3.0641163765
 21
-65.0
  0
LINE
  5
23C
100
AcDbEntity
  8
0
100
AcDbLine
 62
7
  6
CONTINUOUS
 10
-1.9846530593
 20
-65.0
 11
-1.6507593181
 21
-65.0
  0
LINE
  5
23D
100
AcDbEntity
  8
0
100
AcDbLine
 62
7
  6
CONTINUOUS
 10
-3.0641163765
 20
-64.7116372235
 11
-4.3086294118
 21
-64.7116372235
  0
LINE
  5
23E
100
AcDbEntity
  8
0
100
AcDbLine
 62
7
  6
CONTINUOUS
 10
-6.609603022
 20
-64.2411505882
 11
-5.5441309728
 21
-64.2411505882
  0
LINE
  5
23F
100
AcDbEntity
  8
0
100
AcDbLine
 62
7
  6
CONTINUOUS
 10
-5.6449155771
 20
-63.9679648
 11
-6.5145096436
 21
-63.9679648
  0
LINE
  5
240
100
AcDbEntity
  8
0
100
AcDbLine
 62
7
  6
CONTINUOUS
 10
-9.2563275765
 20
-62.7841597177
 11
-8.4367702118
 21
-62.7841597177
  0
LINE
  5
241
100
AcDbEntity
  8
0
100
AcDbLine
 62
7
  6
CONTINUOUS
 10
-8.1028764706
 20
-62.7841597177
 11
-7.2833191059
 21
-62.7841597177
  0
LINE
  5
242
100
AcDbEntity
  8
0
100
AcDbLine
 62
7
  6
CONTINUOUS
 10
-0.6490780946
 20
-62.4957969412
 11
-1.0519795992
 21
-62.4957969412
  0
LINE
  5
243
100
AcDbEntity
  8
0
100
AcDbLine
 62
7
  6
CONTINUOUS
 10
-2.5435930393
 20
-62.4957969412
 11
-2.9408033181
 21
-62.4957969412
  0
LINE
  5
244
100
AcDbEntity
  8
0
100
AcDbLine
 62
7
  6
CONTINUOUS
 10
-4.3086294118
 20
-62.4957969412
 11
-4.642523153
 21
-62.4957969412
  0
LINE
  5
245
100
AcDbEntity
  8
0
100
AcDbLine
 62
7
  6
CONTINUOUS
 10
-5.9128844276
 20
-62.4957969412
 11
-6.2740492724
 21
-62.4957969412
  0
LINE
  5
246
100
AcDbEntity
  8
0
100
AcDbLine
 62
7
  6
CONTINUOUS
 10
-7.2833191059
 20
-62.4957969412
 11
-9.2563275765
 21
-62.4957969412
  0
LINE
  5
247
100
AcDbEntity
  8
0
100
AcDbLine
 62
7
  6
CONTINUOUS
 10
-9.6661062588
 20
-62.4957969412
 11
-10.0
 21
-62.4957969412
  0
LINE
  5
248
100
AcDbEntity
  8
0
100
AcDbLine
 62
7
  6
CONTINUOUS
 10
6.0935358993
 20
-55.8959959028
 11
6.4274296405
 21
-55.8191623854
  0
LINE
  5
249
100
AcDbEntity
  8
0
100
AcDbLine
 62
7
  6
CONTINUOUS
 10
-1.9258422588
 20
-60.5893337267
 11
-2.2293820235
 21
-60.6348646914
  0
LINE
  5
24A
100
AcDbEntity
  8
0
100
AcDbLine
 62
7
  6
CONTINUOUS
 10
-9.6964602353
 20
-60.5893337267
 11
-10.0
 21
-60.6348646914
  0
LINE
  5
24B
100
AcDbEntity
  8
0
100
AcDbLine
 62
7
  6
CONTINUOUS
 10
-2.8819925177
 20
-59.4207056326
 11
-2.578452753
 21
-59.3903516561
  0
LINE
  5
24C
100
AcDbEntity
  8
0
100
AcDbLine
 62
7
  6
CONTINUOUS
 10
-6.7673015059
 20
-59.4207056326
 11
-6.4637617412
 21
-59.3903516561
  0
LINE
  5
24D
100
AcDbEntity
  8
0
100
AcDbLine
 62
7
  6
CONTINUOUS
 10
11.4906153411
 20
-60.4527408326
 11
11.1718985882
 21
-60.4679178208
  0
LINE
  5
24E
100
AcDbEntity
  8
0
100
AcDbLine
 62
7
  6
CONTINUOUS
 10
12.7503053647
 20
-59.4965905738
 11
13.0841991058
 21
-59.4814135855
  0
LINE
  5
24F
100
AcDbEntity
  8
0
100
AcDbLine
 62
7
  6
CONTINUOUS
 10
0.775661647
 20
-61.2874751855
 11
1.1095553882
 21
-61.2874751855
  0
LINE
  5
250
100
AcDbEntity
  8
0
100
AcDbLine
 62
7
  6
CONTINUOUS
 10
1.8316481655
 20
-61.2874751855
 11
2.1157423489
 21
-61.2874751855
  0
LINE
  5
251
100
AcDbEntity
  8
0
100
AcDbLine
 62
7
  6
CONTINUOUS
 10
2.8549090353
 20
-61.2874751855
 11
3.1888027764
 21
-61.2874751855
  0
LINE
  5
252
100
AcDbEntity
  8
0
100
AcDbLine
 62
7
  6
CONTINUOUS
 10
3.4434917912
 20
-61.2874751855
 11
3.7958823059
 21
-61.2874751855
  0
LINE
  5
253
100
AcDbEntity
  8
0
100
AcDbLine
 62
7
  6
CONTINUOUS
 10
5.4046430588
 20
-61.2874751855
 11
5.7596423897
 21
-61.2874751855
  0
LINE
  5
254
100
AcDbEntity
  8
0
100
AcDbLine
 62
7
  6
CONTINUOUS
 10
6.0572535529
 20
-61.2874751855
 11
6.3911472941
 21
-61.2874751855
  0
LINE
  5
255
100
AcDbEntity
  8
0
100
AcDbLine
 62
7
  6
CONTINUOUS
 10
7.8358069052
 20
-61.2874751855
 11
8.2280371587
 21
-61.2874751855
  0
LINE
  5
256
100
AcDbEntity
  8
0
100
AcDbLine
 62
7
  6
CONTINUOUS
 10
14.2376502117
 20
-61.2874751855
 11
14.5715439529
 21
-61.2874751855
  0
LINE
  5
257
100
AcDbEntity
  8
0
100
AcDbLine
 62
7
  6
CONTINUOUS
 10
15.7705260235
 20
-61.2874751855
 11
16.1044197647
 21
-61.2874751855
  0
LINE
  5
258
100
AcDbEntity
  8
0
100
AcDbLine
 62
7
  6
CONTINUOUS
 10
18.9391967794
 20
-61.2874751855
 11
19.2915872941
 21
-61.2874751855
  0
LINE
  5
259
100
AcDbEntity
  8
0
100
AcDbLine
 62
7
  6
CONTINUOUS
 10
20.900348047
 20
-61.2874751855
 11
21.2553473779
 21
-61.2874751855
  0
LINE
  5
25A
100
AcDbEntity
  8
0
100
AcDbLine
 62
7
  6
CONTINUOUS
 10
23.2383156674
 20
-61.2874751855
 11
23.5975835914
 21
-61.2874751855
  0
LINE
  5
25B
100
AcDbEntity
  8
0
100
AcDbLine
 62
7
  6
CONTINUOUS
 10
24.8767189646
 20
-61.2874751855
 11
25.2106127058
 21
-61.2874751855
  0
LINE
  5
25C
100
AcDbEntity
  8
0
100
AcDbLine
 62
7
  6
CONTINUOUS
 10
4.0598197074
 20
-60.5286257738
 11
5.1252917566
 21
-60.5286257738
  0
LINE
  5
25D
100
AcDbEntity
  8
0
100
AcDbLine
 62
7
  6
CONTINUOUS
 10
19.5555246956
 20
-60.5286257738
 11
20.6209967448
 21
-60.5286257738
  0
LINE
  5
25E
100
AcDbEntity
  8
0
100
AcDbLine
 62
7
  6
CONTINUOUS
 10
20.5202121405
 20
-60.2554399855
 11
19.650618074
 21
-60.2554399855
  0
LINE
  5
25F
100
AcDbEntity
  8
0
100
AcDbLine
 62
7
  6
CONTINUOUS
 10
5.0245071523
 20
-60.2554399855
 11
4.1549130858
 21
-60.2554399855
  0
LINE
  5
260
100
AcDbEntity
  8
0
100
AcDbLine
 62
7
  6
CONTINUOUS
 10
6.3911472941
 20
-60.1795550444
 11
6.7717577203
 21
-60.1795550444
  0
LINE
  5
261
100
AcDbEntity
  8
0
100
AcDbLine
 62
7
  6
CONTINUOUS
 10
7.0964030747
 20
-59.8911922679
 11
6.3911472941
 21
-59.8911922679
  0
LINE
  5
262
100
AcDbEntity
  8
0
100
AcDbLine
 62
7
  6
CONTINUOUS
 10
6.3911472941
 20
-59.0716349032
 11
7.1760823208
 21
-59.0716349032
  0
LINE
  5
263
100
AcDbEntity
  8
0
100
AcDbLine
 62
7
  6
CONTINUOUS
 10
13.418092847
 20
-59.0716349032
 11
14.2376502117
 21
-59.0716349032
  0
LINE
  5
264
100
AcDbEntity
  8
0
100
AcDbLine
 62
7
  6
CONTINUOUS
 10
14.5715439529
 20
-59.0716349032
 11
15.3911013176
 21
-59.0716349032
  0
LINE
  5
265
100
AcDbEntity
  8
0
100
AcDbLine
 62
7
  6
CONTINUOUS
 10
25.2106127058
 20
-58.7832721267
 11
24.8767189646
 21
-58.7832721267
  0
LINE
  5
266
100
AcDbEntity
  8
0
100
AcDbLine
 62
7
  6
CONTINUOUS
 10
24.5964190862
 20
-58.7832721267
 11
24.2392854588
 21
-58.7832721267
  0
LINE
  5
267
100
AcDbEntity
  8
0
100
AcDbLine
 62
7
  6
CONTINUOUS
 10
22.6305247058
 20
-58.7832721267
 11
22.2755256065
 21
-58.7832721267
  0
LINE
  5
268
100
AcDbEntity
  8
0
100
AcDbLine
 62
7
  6
CONTINUOUS
 10
20.25224329
 20
-58.7832721267
 11
19.8910784452
 21
-58.7832721267
  0
LINE
  5
269
100
AcDbEntity
  8
0
100
AcDbLine
 62
7
  6
CONTINUOUS
 10
16.1044197647
 20
-58.7832721267
 11
15.7705260235
 21
-58.7832721267
  0
LINE
  5
26A
100
AcDbEntity
  8
0
100
AcDbLine
 62
7
  6
CONTINUOUS
 10
15.3911013176
 20
-58.7832721267
 11
13.418092847
 21
-58.7832721267
  0
LINE
  5
26B
100
AcDbEntity
  8
0
100
AcDbLine
 62
7
  6
CONTINUOUS
 10
7.162565341
 20
-58.7832721267
 11
6.0572535529
 21
-58.7832721267
  0
LINE
  5
26C
100
AcDbEntity
  8
0
100
AcDbLine
 62
7
  6
CONTINUOUS
 10
4.7565383018
 20
-58.7832721267
 11
4.3953734569
 21
-58.7832721267
  0
LINE
  5
26D
100
AcDbEntity
  8
0
100
AcDbLine
 62
7
  6
CONTINUOUS
 10
3.1888027764
 20
-58.7832721267
 11
2.7543615751
 21
-58.7832721267
  0
LINE
  5
26E
100
AcDbEntity
  8
0
100
AcDbLine
 62
7
  6
CONTINUOUS
 10
1.2845651568
 20
-58.7832721267
 11
0.775661647
 21
-58.7832721267
  0
LINE
  5
26F
100
AcDbEntity
  8
0
100
AcDbLine
 62
7
  6
CONTINUOUS
 10
-9.0372099391
 20
-57.635658324
 11
-8.6779420151
 21
-57.635658324
  0
LINE
  5
270
100
AcDbEntity
  8
0
100
AcDbLine
 62
7
  6
CONTINUOUS
 10
-7.3988066419
 20
-57.635658324
 11
-7.0649129007
 21
-57.635658324
  0
LINE
  5
271
100
AcDbEntity
  8
0
100
AcDbLine
 62
7
  6
CONTINUOUS
 10
-6.749515933
 20
-57.635658324
 11
-6.3971254183
 21
-57.635658324
  0
LINE
  5
272
100
AcDbEntity
  8
0
100
AcDbLine
 62
7
  6
CONTINUOUS
 10
-4.7883646654
 20
-57.635658324
 11
-4.4333653345
 21
-57.635658324
  0
LINE
  5
273
100
AcDbEntity
  8
0
100
AcDbLine
 62
7
  6
CONTINUOUS
 10
-4.1661081478
 20
-57.635658324
 11
-2.5877013713
 21
-57.635658324
  0
LINE
  5
274
100
AcDbEntity
  8
0
100
AcDbLine
 62
7
  6
CONTINUOUS
 10
-2.1930996772
 20
-57.635658324
 11
-0.3415071125
 21
-57.635658324
  0
LINE
  5
275
100
AcDbEntity
  8
0
100
AcDbLine
 62
7
  6
CONTINUOUS
 10
1.8143366491
 20
-57.635658324
 11
2.1736045731
 21
-57.635658324
  0
LINE
  5
276
100
AcDbEntity
  8
0
100
AcDbLine
 62
7
  6
CONTINUOUS
 10
3.4527399464
 20
-57.635658324
 11
3.7866336875
 21
-57.635658324
  0
LINE
  5
277
100
AcDbEntity
  8
0
100
AcDbLine
 62
7
  6
CONTINUOUS
 10
6.913093264
 20
-57.635658324
 11
8.7646858287
 21
-57.635658324
  0
LINE
  5
278
100
AcDbEntity
  8
0
100
AcDbLine
 62
7
  6
CONTINUOUS
 10
9.235172464
 20
-57.635658324
 11
9.5690662052
 21
-57.635658324
  0
LINE
  5
279
100
AcDbEntity
  8
0
100
AcDbLine
 62
7
  6
CONTINUOUS
 10
10.8228278588
 20
-57.635658324
 11
11.1778269581
 21
-57.635658324
  0
LINE
  5
27A
100
AcDbEntity
  8
0
100
AcDbLine
 62
7
  6
CONTINUOUS
 10
11.5268976875
 20
-57.635658324
 11
13.5150831463
 21
-57.635658324
  0
LINE
  5
27B
100
AcDbEntity
  8
0
100
AcDbLine
 62
7
  6
CONTINUOUS
 10
13.5876483023
 20
-57.635658324
 11
13.9400388169
 21
-57.635658324
  0
LINE
  5
27C
100
AcDbEntity
  8
0
100
AcDbLine
 62
7
  6
CONTINUOUS
 10
15.5487995699
 20
-57.635658324
 11
15.9037989008
 21
-57.635658324
  0
LINE
  5
27D
100
AcDbEntity
  8
0
100
AcDbLine
 62
7
  6
CONTINUOUS
 10
17.8860557581
 20
-57.635658324
 11
18.1895955228
 21
-57.635658324
  0
LINE
  5
27E
100
AcDbEntity
  8
0
100
AcDbLine
 62
7
  6
CONTINUOUS
 10
19.9804801346
 20
-57.635658324
 11
20.2840198993
 21
-57.635658324
  0
LINE
  5
27F
100
AcDbEntity
  8
0
100
AcDbLine
 62
7
  6
CONTINUOUS
 10
13.5150831463
 20
-57.3472955475
 11
11.9051369047
 21
-57.3472955475
  0
LINE
  5
280
100
AcDbEntity
  8
0
100
AcDbLine
 62
7
  6
CONTINUOUS
 10
8.7646858287
 20
-57.3472955475
 11
7.2469870052
 21
-57.3472955475
  0
LINE
  5
281
100
AcDbEntity
  8
0
100
AcDbLine
 62
7
  6
CONTINUOUS
 10
-0.3415071125
 20
-57.3472955475
 11
-1.859205936
 21
-57.3472955475
  0
LINE
  5
282
100
AcDbEntity
  8
0
100
AcDbLine
 62
7
  6
CONTINUOUS
 10
-2.5877013713
 20
-57.3472955475
 11
-3.8322144066
 21
-57.3472955475
  0
LINE
  5
283
100
AcDbEntity
  8
0
100
AcDbLine
 62
7
  6
CONTINUOUS
 10
18.8725599934
 20
-57.0437557828
 11
19.9804801346
 21
-57.0437557828
  0
LINE
  5
284
100
AcDbEntity
  8
0
100
AcDbLine
 62
7
  6
CONTINUOUS
 10
20.2840198993
 20
-57.0437557828
 11
20.6179136404
 21
-57.0437557828
  0
LINE
  5
285
100
AcDbEntity
  8
0
100
AcDbLine
 62
7
  6
CONTINUOUS
 10
-6.1331880168
 20
-56.8768089122
 11
-5.0677159676
 21
-56.8768089122
  0
LINE
  5
286
100
AcDbEntity
  8
0
100
AcDbLine
 62
7
  6
CONTINUOUS
 10
14.2039762184
 20
-56.8768089122
 11
15.2694482677
 21
-56.8768089122
  0
LINE
  5
287
100
AcDbEntity
  8
0
100
AcDbLine
 62
7
  6
CONTINUOUS
 10
20.6179136404
 20
-56.7553930063
 11
20.2840198993
 21
-56.7553930063
  0
LINE
  5
288
100
AcDbEntity
  8
0
100
AcDbLine
 62
7
  6
CONTINUOUS
 10
19.9804801346
 20
-56.7553930063
 11
19.1765740462
 21
-56.7553930063
  0
LINE
  5
289
100
AcDbEntity
  8
0
100
AcDbLine
 62
7
  6
CONTINUOUS
 10
15.1686636634
 20
-56.603623124
 11
14.2990695968
 21
-56.603623124
  0
LINE
  5
28A
100
AcDbEntity
  8
0
100
AcDbLine
 62
7
  6
CONTINUOUS
 10
-5.1685005719
 20
-56.603623124
 11
-6.0380946384
 21
-56.603623124
  0
LINE
  5
28B
100
AcDbEntity
  8
0
100
AcDbLine
 62
7
  6
CONTINUOUS
 10
-1.859205936
 20
-56.4822072181
 11
-0.4932769948
 21
-56.4822072181
  0
LINE
  5
28C
100
AcDbEntity
  8
0
100
AcDbLine
 62
7
  6
CONTINUOUS
 10
7.2469870052
 20
-56.4822072181
 11
8.6129159463
 21
-56.4822072181
  0
LINE
  5
28D
100
AcDbEntity
  8
0
100
AcDbLine
 62
7
  6
CONTINUOUS
 10
8.6129159463
 20
-56.1938444416
 11
7.2469870052
 21
-56.1938444416
  0
LINE
  5
28E
100
AcDbEntity
  8
0
100
AcDbLine
 62
7
  6
CONTINUOUS
 10
-0.4932769948
 20
-56.1938444416
 11
-1.859205936
 21
-56.1938444416
  0
LINE
  5
28F
100
AcDbEntity
  8
0
100
AcDbLine
 62
7
  6
CONTINUOUS
 10
-1.859205936
 20
-55.4198180416
 11
-0.4022150654
 21
-55.4198180416
  0
LINE
  5
290
100
AcDbEntity
  8
0
100
AcDbLine
 62
7
  6
CONTINUOUS
 10
7.2469870052
 20
-55.4198180416
 11
8.7039778758
 21
-55.4198180416
  0
LINE
  5
291
100
AcDbEntity
  8
0
100
AcDbLine
 62
7
  6
CONTINUOUS
 10
11.6786675699
 20
-55.4198180416
 11
13.066413533
 21
-55.4198180416
  0
LINE
  5
292
100
AcDbEntity
  8
0
100
AcDbLine
 62
7
  6
CONTINUOUS
 10
20.2840198993
 20
-55.1314552652
 11
20.0411880875
 21
-55.1314552652
  0
LINE
  5
293
100
AcDbEntity
  8
0
100
AcDbLine
 62
7
  6
CONTINUOUS
 10
14.9006948129
 20
-55.1314552652
 11
14.539529968
 21
-55.1314552652
  0
LINE
  5
294
100
AcDbEntity
  8
0
100
AcDbLine
 62
7
  6
CONTINUOUS
 10
13.4543751934
 20
-55.1314552652
 11
11.6786675699
 21
-55.1314552652
  0
LINE
  5
295
100
AcDbEntity
  8
0
100
AcDbLine
 62
7
  6
CONTINUOUS
 10
11.1778269581
 20
-55.1314552652
 11
10.8439332169
 21
-55.1314552652
  0
LINE
  5
296
100
AcDbEntity
  8
0
100
AcDbLine
 62
7
  6
CONTINUOUS
 10
9.5901717949
 20
-55.1314552652
 11
9.235172464
 21
-55.1314552652
  0
LINE
  5
297
100
AcDbEntity
  8
0
100
AcDbLine
 62
7
  6
CONTINUOUS
 10
8.7039778758
 20
-55.1314552652
 11
6.913093264
 21
-55.1314552652
  0
LINE
  5
298
100
AcDbEntity
  8
0
100
AcDbLine
 62
7
  6
CONTINUOUS
 10
3.7866336875
 20
-55.1314552652
 11
3.4527399464
 21
-55.1314552652
  0
LINE
  5
299
100
AcDbEntity
  8
0
100
AcDbLine
 62
7
  6
CONTINUOUS
 10
3.1724400679
 20
-55.1314552652
 11
2.8153064405
 21
-55.1314552652
  0
LINE
  5
29A
100
AcDbEntity
  8
0
100
AcDbLine
 62
7
  6
CONTINUOUS
 10
1.2065456875
 20
-55.1314552652
 11
0.8515465882
 21
-55.1314552652
  0
LINE
  5
29B
100
AcDbEntity
  8
0
100
AcDbLine
 62
7
  6
CONTINUOUS
 10
-0.4022150654
 20
-55.1314552652
 11
-2.1930996772
 21
-55.1314552652
  0
LINE
  5
29C
100
AcDbEntity
  8
0
100
AcDbLine
 62
7
  6
CONTINUOUS
 10
-3.8322144066
 20
-55.1314552652
 11
-4.1661081478
 21
-55.1314552652
  0
LINE
  5
29D
100
AcDbEntity
  8
0
100
AcDbLine
 62
7
  6
CONTINUOUS
 10
-5.4364694224
 20
-55.1314552652
 11
-5.7976342672
 21
-55.1314552652
  0
LINE
  5
29E
100
AcDbEntity
  8
0
100
AcDbLine
 62
7
  6
CONTINUOUS
 10
-7.0649129007
 20
-55.1314552652
 11
-7.3988066419
 21
-55.1314552652
  0
LINE
  5
29F
100
AcDbEntity
  8
0
100
AcDbLine
 62
7
  6
CONTINUOUS
 10
-7.6791065203
 20
-55.1314552652
 11
-8.0362401477
 21
-55.1314552652
  0
LINE
  5
2A0
100
AcDbEntity
  8
0
100
AcDbLine
 62
7
  6
CONTINUOUS
 10
-9.6450009007
 20
-55.1314552652
 11
-10.0
 21
-55.1314552652
  0
LINE
  5
2A1
100
AcDbEntity
  8
0
100
AcDbLine
 62
7
  6
CONTINUOUS
 10
18.1895955228
 20
-55.1162782769
 11
17.9939546842
 21
-55.1162782769
  0
LINE
  5
2A2
100
AcDbEntity
  8
0
100
AcDbLine
 62
7
  6
CONTINUOUS
 10
-9.0372099391
 20
-53.9686644742
 11
-8.6779420151
 21
-53.9686644742
  0
LINE
  5
2A3
100
AcDbEntity
  8
0
100
AcDbLine
 62
7
  6
CONTINUOUS
 10
-7.3988066419
 20
-53.9686644742
 11
-7.0649129007
 21
-53.9686644742
  0
LINE
  5
2A4
100
AcDbEntity
  8
0
100
AcDbLine
 62
7
  6
CONTINUOUS
 10
-6.503364336
 20
-53.9686644742
 11
-6.1694705948
 21
-53.9686644742
  0
LINE
  5
2A5
100
AcDbEntity
  8
0
100
AcDbLine
 62
7
  6
CONTINUOUS
 10
-5.4473778175
 20
-53.9686644742
 11
-5.1632836341
 21
-53.9686644742
  0
LINE
  5
2A6
100
AcDbEntity
  8
0
100
AcDbLine
 62
7
  6
CONTINUOUS
 10
-4.4241169477
 20
-53.9686644742
 11
-4.0902232066
 21
-53.9686644742
  0
LINE
  5
2A7
100
AcDbEntity
  8
0
100
AcDbLine
 62
7
  6
CONTINUOUS
 10
-3.8355341918
 20
-53.9686644742
 11
-3.4831436772
 21
-53.9686644742
  0
LINE
  5
2A8
100
AcDbEntity
  8
0
100
AcDbLine
 62
7
  6
CONTINUOUS
 10
-1.8743829242
 20
-53.9686644742
 11
-1.5193835933
 21
-53.9686644742
  0
LINE
  5
2A9
100
AcDbEntity
  8
0
100
AcDbLine
 62
7
  6
CONTINUOUS
 10
-1.2217724301
 20
-53.9686644742
 11
-0.8878786889
 21
-53.9686644742
  0
LINE
  5
2AA
100
AcDbEntity
  8
0
100
AcDbLine
 62
7
  6
CONTINUOUS
 10
0.5567809221
 20
-53.9686644742
 11
0.9490111757
 21
-53.9686644742
  0
LINE
  5
2AB
100
AcDbEntity
  8
0
100
AcDbLine
 62
7
  6
CONTINUOUS
 10
4.591014064
 20
-53.9686644742
 11
4.9249078052
 21
-53.9686644742
  0
LINE
  5
2AC
100
AcDbEntity
  8
0
100
AcDbLine
 62
7
  6
CONTINUOUS
 10
6.6214107023
 20
-53.9686644742
 11
6.9738012169
 21
-53.9686644742
  0
LINE
  5
2AD
100
AcDbEntity
  8
0
100
AcDbLine
 62
7
  6
CONTINUOUS
 10
8.5825619699
 20
-53.9686644742
 11
8.9375613008
 21
-53.9686644742
  0
LINE
  5
2AE
100
AcDbEntity
  8
0
100
AcDbLine
 62
7
  6
CONTINUOUS
 10
-9.9696460235
 20
-59.4207056326
 11
-9.6661062588
 21
-59.4662365973
  0
LINE
  5
2AF
100
AcDbEntity
  8
0
100
AcDbLine
 62
7
  6
CONTINUOUS
 10
-2.1990280471
 20
-59.4207056326
 11
-1.8954882824
 21
-59.4662365973
  0
LINE
  5
2B0
100
AcDbEntity
  8
0
100
AcDbLine
 62
7
  6
CONTINUOUS
 10
18.8059236705
 20
-60.4923431958
 11
18.4720299294
 21
-60.4086325007
  0
LINE
  5
2B1
100
AcDbEntity
  8
0
100
AcDbLine
 62
7
  6
CONTINUOUS
 10
2.4662357111
 20
-53.1339301213
 11
2.1475189581
 21
-53.1491071095
  0
LINE
  5
2B2
100
AcDbEntity
  8
0
100
AcDbLine
 62
7
  6
CONTINUOUS
 10
3.7259257346
 20
-52.1777798625
 11
4.0598194758
 21
-52.1626028742
  0
LINE
  5
2B3
100
AcDbEntity
  8
0
100
AcDbLine
 62
7
  6
CONTINUOUS
 10
-3.2192062757
 20
-53.2098150625
 11
-2.1537342264
 21
-53.2098150625
  0
LINE
  5
2B4
100
AcDbEntity
  8
0
100
AcDbLine
 62
7
  6
CONTINUOUS
 10
7.2377386184
 20
-53.2098150625
 11
8.3032106677
 21
-53.2098150625
  0
LINE
  5
2B5
100
AcDbEntity
  8
0
100
AcDbLine
 62
7
  6
CONTINUOUS
 10
8.2024260634
 20
-52.9366292742
 11
7.3328319969
 21
-52.9366292742
  0
LINE
  5
2B6
100
AcDbEntity
  8
0
100
AcDbLine
 62
7
  6
CONTINUOUS
 10
-2.2545188307
 20
-52.9366292742
 11
-3.1241128972
 21
-52.9366292742
  0
LINE
  5
2B7
100
AcDbEntity
  8
0
100
AcDbLine
 62
7
  6
CONTINUOUS
 10
4.9249078052
 20
-52.9366292742
 11
5.5481128991
 21
-52.9366292742
  0
LINE
  5
2B8
100
AcDbEntity
  8
0
100
AcDbLine
 62
7
  6
CONTINUOUS
 10
-0.8878786889
 20
-52.8607443331
 11
-0.5072682628
 21
-52.8607443331
  0
LINE
  5
2B9
100
AcDbEntity
  8
0
100
AcDbLine
 62
7
  6
CONTINUOUS
 10
5.55167006
 20
-52.6482664978
 11
4.9249078052
 21
-52.6482664978
  0
LINE
  5
2BA
100
AcDbEntity
  8
0
100
AcDbLine
 62
7
  6
CONTINUOUS
 10
-0.1826229083
 20
-52.5723815566
 11
-0.8878786889
 21
-52.5723815566
  0
LINE
  5
2BB
100
AcDbEntity
  8
0
100
AcDbLine
 62
7
  6
CONTINUOUS
 10
-0.8878786889
 20
-51.7528241919
 11
-0.1029436622
 21
-51.7528241919
  0
LINE
  5
2BC
100
AcDbEntity
  8
0
100
AcDbLine
 62
7
  6
CONTINUOUS
 10
4.9249078052
 20
-51.7528241919
 11
5.5450302579
 21
-51.7528241919
  0
LINE
  5
2BD
100
AcDbEntity
  8
0
100
AcDbLine
 62
7
  6
CONTINUOUS
 10
7.9344572129
 20
-51.4644614154
 11
7.573292368
 21
-51.4644614154
  0
LINE
  5
2BE
100
AcDbEntity
  8
0
100
AcDbLine
 62
7
  6
CONTINUOUS
 10
5.5134905611
 20
-51.4644614154
 11
4.591014064
 21
-51.4644614154
  0
LINE
  5
2BF
100
AcDbEntity
  8
0
100
AcDbLine
 62
7
  6
CONTINUOUS
 10
-0.116460642
 20
-51.4644614154
 11
-1.2217724301
 21
-51.4644614154
  0
LINE
  5
2C0
100
AcDbEntity
  8
0
100
AcDbLine
 62
7
  6
CONTINUOUS
 10
-2.5224876812
 20
-51.4644614154
 11
-2.8836525261
 21
-51.4644614154
  0
LINE
  5
2C1
100
AcDbEntity
  8
0
100
AcDbLine
 62
7
  6
CONTINUOUS
 10
-4.0902232066
 20
-51.4644614154
 11
-4.524664408
 21
-51.4644614154
  0
LINE
  5
2C2
100
AcDbEntity
  8
0
100
AcDbLine
 62
7
  6
CONTINUOUS
 10
-5.9944608262
 20
-51.4644614154
 11
-6.503364336
 21
-51.4644614154
  0
LINE
  5
2C3
100
AcDbEntity
  8
0
100
AcDbLine
 62
7
  6
CONTINUOUS
 10
-7.0649129007
 20
-51.4644614154
 11
-7.3988066419
 21
-51.4644614154
  0
LINE
  5
2C4
100
AcDbEntity
  8
0
100
AcDbLine
 62
7
  6
CONTINUOUS
 10
-7.6791065203
 20
-51.4644614154
 11
-8.0362401477
 21
-51.4644614154
  0
LINE
  5
2C5
100
AcDbEntity
  8
0
100
AcDbLine
 62
7
  6
CONTINUOUS
 10
-9.6450009007
 20
-51.4644614154
 11
-10.0
 21
-51.4644614154
  0
LINE
  5
2C6
100
AcDbEntity
  8
0
100
AcDbLine
 62
7
  6
CONTINUOUS
 10
6.4881375934
 20
-56.8405263343
 11
6.1542438522
 21
-56.7568156391
  0
LINE
  5
2C7
100
AcDbEntity
  8
0
100
AcDbLine
 62
7
  6
CONTINUOUS
 10
-6.53125
 20
45.190425548
 11
-6.675
 21
45.0925531849
  0
LINE
  5
2C8
100
AcDbEntity
  8
0
100
AcDbLine
 62
7
  6
CONTINUOUS
 10
-6.6270835161
 20
44.7989361687
 11
-6.4354164839
 21
44.8968085103
  0
LINE
  5
2C9
100
AcDbEntity
  8
0
100
AcDbLine
 62
7
  6
CONTINUOUS
 10
-1.4237288167
 20
42.158510685
 11
-1.1567796643
 21
42.2563830137
  0
LINE
  5
2CA
100
AcDbEntity
  8
0
100
AcDbLine
 62
7
  6
CONTINUOUS
 10
-1.2457623757
 20
42.5010638356
 11
-1.6906779692
 21
42.3542553425
  0
LINE
  5
2CB
100
AcDbEntity
  8
0
100
AcDbLine
 62
7
  6
CONTINUOUS
 10
4.4491525371
 20
42.5010638356
 11
4.0042369436
 21
42.3542553425
  0
LINE
  5
2CC
100
AcDbEntity
  8
0
100
AcDbLine
 62
7
  6
CONTINUOUS
 10
-0.1779657659
 20
40.2989361687
 11
0.2669488093
 21
40.4457446747
  0
LINE
  5
2CD
100
AcDbEntity
  8
ASSI
100
AcDbLine
 62
7
  6
CONTINUOUS
 10
1.657055
 20
-44.375
 11
3.117556
 21
-44.375
  0
LINE
  5
2CE
100
AcDbEntity
  8
ASSI
100
AcDbLine
 62
7
  6
CONTINUOUS
 10
3.117556
 20
-43.625
 11
1.6570519378
 21
-43.625
  0
LINE
  5
2CF
100
AcDbEntity
  8
ASSI
100
AcDbLine
 62
7
  6
CONTINUOUS
 10
-0.9707756993
 20
-42.200050449
 11
-0.867554
 21
-42.20278
  0
LINE
  5
2D0
100
AcDbEntity
  8
0
100
AcDbLine
 62
7
  6
CONTINUOUS
 10
-12.34
 20
36.909252573
 11
-12.5133333308
 21
36.6879760036
  0
LINE
  5
2D1
100
AcDbEntity
  8
0
100
AcDbLine
 62
7
  6
CONTINUOUS
 10
-10.39
 20
36.8539334306
 11
-10.52
 21
36.6879760036
  0
LINE
  5
2D2
100
AcDbEntity
  8
0
100
AcDbLine
 62
7
  6
CONTINUOUS
 10
-3.5593220363
 20
42.3053191781
 11
-5.3389828829
 21
40.25
  0
LINE
  5
2D3
100
AcDbEntity
  8
0
100
AcDbLine
 62
7
  6
CONTINUOUS
 10
-11.386666708
 20
36.1347844252
 11
-12.6
 21
34.7518057505
  0
LINE
  5
2D4
100
AcDbEntity
  8
0
100
AcDbLine
 62
7
  6
CONTINUOUS
 10
-12.253333323
 20
34.7518057505
 11
-11.17
 21
35.9688269982
  0
LINE
  5
2D5
100
AcDbEntity
  8
0
100
AcDbLine
 62
7
  6
CONTINUOUS
 10
-6.4354164839
 20
44.8968085103
 11
-6.24375
 21
45.0925531849
  0
LINE
  5
2D6
100
AcDbEntity
  8
0
100
AcDbLine
 62
7
  6
CONTINUOUS
 10
-12.253333323
 20
36.6326568613
 11
-12.123333323
 21
36.743295146
  0
LINE
  5
2D7
100
AcDbEntity
  8
0
100
AcDbLine
 62
7
  6
CONTINUOUS
 10
-10.26
 20
36.6326568613
 11
-10.13
 21
36.743295146
  0
LINE
  5
2D8
100
AcDbEntity
  8
0
100
AcDbLine
 62
7
  6
CONTINUOUS
 10
-9.566666584
 20
34.9177631775
 11
-9.696666584
 21
34.8071248928
  0
LINE
  5
2D9
100
AcDbEntity
  8
0
100
AcDbLine
 62
7
  6
CONTINUOUS
 10
-7.616666832
 20
34.9730823586
 11
-7.746666832
 21
34.8624440351
  0
LINE
  5
2DA
100
AcDbEntity
  8
0
100
AcDbLine
 62
7
  6
CONTINUOUS
 10
-1.7796606806
 20
41.8648935616
 11
-1.4237288167
 21
42.158510685
  0
LINE
  5
2DB
100
AcDbEntity
  8
0
100
AcDbLine
 62
7
  6
CONTINUOUS
 10
0.355932539
 20
40.9351063699
 11
-0.0000003431
 21
40.6414893493
  0
LINE
  5
2DC
100
AcDbEntity
  8
0
100
AcDbLine
 62
7
  6
CONTINUOUS
 10
-10.173333416
 20
37.0198908577
 11
-10.39
 21
36.8539334306
  0
LINE
  5
2DD
100
AcDbEntity
  8
0
100
AcDbLine
 62
7
  6
CONTINUOUS
 10
-9.653333416
 20
34.5305291472
 11
-9.436666584
 21
34.6964865887
  0
LINE
  5
2DE
100
AcDbEntity
  8
0
100
AcDbLine
 62
7
  6
CONTINUOUS
 10
2.1355928765
 20
42.55
 11
1.6016945716
 21
42.2074468493
  0
LINE
  5
2DF
100
AcDbEntity
  8
0
100
AcDbLine
 62
7
  6
CONTINUOUS
 10
1.6016945716
 20
41.8159573972
 11
2.1355928765
 21
42.158510685
  0
LINE
  5
2E0
100
AcDbEntity
  8
0
100
AcDbLine
 62
7
  6
CONTINUOUS
 10
-12.166666677
 20
37.0198908577
 11
-12.34
 21
36.909252573
  0
LINE
  5
2E1
100
AcDbEntity
  8
0
100
AcDbLine
 62
7
  6
CONTINUOUS
 10
-7.703333168
 20
34.5305291472
 11
-7.53
 21
34.6411674464
  0
LINE
  5
2E2
100
AcDbEntity
  8
0
100
AcDbLine
 62
7
  6
CONTINUOUS
 10
-1.6906779692
 20
42.3542553425
 11
-1.9576271216
 21
42.2074468493
  0
LINE
  5
2E3
100
AcDbEntity
  8
0
100
AcDbLine
 62
7
  6
CONTINUOUS
 10
0.2669488093
 20
40.4457446747
 11
0.5338979618
 21
40.5925531849
  0
LINE
  5
2E4
100
AcDbEntity
  8
0
100
AcDbLine
 62
7
  6
CONTINUOUS
 10
4.0042369436
 20
42.3542553425
 11
3.7372877911
 21
42.2074468493
  0
LINE
  5
2E5
100
AcDbEntity
  8
0
100
AcDbLine
 62
7
  6
CONTINUOUS
 10
5.9618647404
 20
40.4457446747
 11
6.2288138929
 21
40.5925531849
  0
LINE
  5
2E6
100
AcDbEntity
  8
0
100
AcDbLine
 62
7
  6
CONTINUOUS
 10
7.919491519
 20
41.2776595891
 11
8.2754244011
 21
41.4244680822
  0
LINE
  5
2E7
100
AcDbEntity
  8
0
100
AcDbLine
 62
7
  6
CONTINUOUS
 10
-0.0000003431
 20
40.6414893493
 11
-0.2669494956
 21
40.5436170205
  0
LINE
  5
2E8
100
AcDbEntity
  8
0
100
AcDbLine
 62
7
  6
CONTINUOUS
 10
4.271186096
 20
42.158510685
 11
4.5381352485
 21
42.2563830137
  0
LINE
  5
2E9
100
AcDbEntity
  8
0
100
AcDbLine
 62
7
  6
CONTINUOUS
 10
5.694915588
 20
40.6414893493
 11
5.4279664355
 21
40.5436170205
  0
LINE
  5
2EA
100
AcDbEntity
  8
0
100
AcDbLine
 62
7
  6
CONTINUOUS
 10
9.7881355861
 20
40.6414893493
 11
9.5211864336
 21
40.5436170205
  0
LINE
  5
2EB
100
AcDbEntity
  8
0
100
AcDbLine
 62
7
  6
CONTINUOUS
 10
8.1864406714
 20
41.6691489041
 11
7.7415260962
 21
41.5223404109
  0
LINE
  5
2EC
100
AcDbEntity
  8
0
100
AcDbLine
 62
7
  6
CONTINUOUS
 10
5.5169491469
 20
40.2989361687
 11
5.9618647404
 21
40.4457446747
  0
LINE
  5
2ED
100
AcDbEntity
  8
0
100
AcDbLine
 62
7
  6
CONTINUOUS
 10
9.6101701633
 20
40.2989361687
 11
10.0550847385
 21
40.4457446747
  0
LINE
  5
2EE
100
AcDbEntity
  8
0
100
AcDbLine
 62
7
  6
CONTINUOUS
 10
-7.746666832
 20
34.8624440351
 11
-7.92
 21
34.8071248928
  0
LINE
  5
2EF
100
AcDbEntity
  8
0
100
AcDbLine
 62
7
  6
CONTINUOUS
 10
-2.9408033181
 20
-62.4957969412
 11
-1.9846530593
 21
-63.9392706004
  0
LINE
  5
2F0
100
AcDbEntity
  8
0
100
AcDbLine
 62
7
  6
CONTINUOUS
 10
-2.0610122886
 20
-63.2598632907
 11
-2.5435930393
 21
-62.4957969412
  0
LINE
  5
2F1
100
AcDbEntity
  8
0
100
AcDbLine
 62
7
  6
CONTINUOUS
 10
-7.744243
 20
55.000104
 11
-8.893846
 21
51.419462
  0
LINE
  5
2F2
100
AcDbEntity
  8
0
100
AcDbLine
 62
7
  6
CONTINUOUS
 10
-8.37382
 20
49.79987
 11
-6.704191
 21
55.000104
  0
LINE
  5
2F3
100
AcDbEntity
  8
0
100
AcDbLine
 62
7
  6
CONTINUOUS
 10
-9.7895832419
 20
45.5329786986
 11
-9.3583332419
 21
46.8542553425
  0
LINE
  5
2F4
100
AcDbEntity
  8
0
100
AcDbLine
 62
7
  6
CONTINUOUS
 10
-10.0291667581
 20
44.75
 11
-9.8375
 21
45.3372340411
  0
LINE
  5
2F5
100
AcDbEntity
  8
0
100
AcDbLine
 62
7
  6
CONTINUOUS
 10
-9.55
 20
47.05
 11
-10.3166667581
 21
44.75
  0
LINE
  5
2F6
100
AcDbEntity
  8
0
100
AcDbLine
 62
7
  6
CONTINUOUS
 10
-11.13125
 20
47.05
 11
-11.85
 21
44.9946808562
  0
LINE
  5
2F7
100
AcDbEntity
  8
0
100
AcDbLine
 62
7
  6
CONTINUOUS
 10
-11.658333379
 20
44.75
 11
-10.9875
 21
46.5606383562
  0
LINE
  5
2F8
100
AcDbEntity
  8
0
100
AcDbLine
 62
7
  6
CONTINUOUS
 10
-11.3
 20
36.3560609946
 11
-11.386666708
 21
36.1347844252
  0
LINE
  5
2F9
100
AcDbEntity
  8
0
100
AcDbLine
 62
7
  6
CONTINUOUS
 10
-10.52
 20
36.6879760036
 11
-10.606666708
 21
36.4666994342
  0
LINE
  5
2FA
100
AcDbEntity
  8
0
100
AcDbLine
 62
7
  6
CONTINUOUS
 10
-6.24375
 20
45.0925531849
 11
-6.1479164839
 21
45.2882978767
  0
LINE
  5
2FB
100
AcDbEntity
  8
0
100
AcDbLine
 62
7
  6
CONTINUOUS
 10
-12.34
 20
36.4666994342
 11
-12.253333323
 21
36.6326568613
  0
LINE
  5
2FC
100
AcDbEntity
  8
0
100
AcDbLine
 62
7
  6
CONTINUOUS
 10
-11.17
 20
35.9688269982
 11
-11.083333292
 21
36.1347844252
  0
LINE
  5
2FD
100
AcDbEntity
  8
0
100
AcDbLine
 62
7
  6
CONTINUOUS
 10
-10.433333416
 20
36.3007418522
 11
-10.26
 21
36.6326568613
  0
LINE
  5
2FE
100
AcDbEntity
  8
0
100
AcDbLine
 62
7
  6
CONTINUOUS
 10
-9.393333416
 20
35.2496780703
 11
-9.566666584
 21
34.9177631775
  0
LINE
  5
2FF
100
AcDbEntity
  8
0
100
AcDbLine
 62
7
  6
CONTINUOUS
 10
-7.53
 20
35.1390397856
 11
-7.616666832
 21
34.9730823586
  0
LINE
  5
300
100
AcDbEntity
  8
0
100
AcDbLine
 62
7
  6
CONTINUOUS
 10
-2.1355930536
 20
42.0117021918
 11
-2.2245762741
 21
41.8648935616
  0
LINE
  5
301
100
AcDbEntity
  8
0
100
AcDbLine
 62
7
  6
CONTINUOUS
 10
-8.3644067804
 20
40.25
 11
-6.9406780522
 21
42.55
  0
LINE
  5
302
100
AcDbEntity
  8
0
100
AcDbLine
 62
7
  6
CONTINUOUS
 10
-7.4745763571
 20
42.55
 11
-8.7203390261
 21
40.5436170205
  0
LINE
  5
303
100
AcDbEntity
  8
0
100
AcDbLine
 62
7
  6
CONTINUOUS
 10
-6.4354164839
 20
45.3372340411
 11
-6.53125
 21
45.190425548
  0
LINE
  5
304
100
AcDbEntity
  8
0
100
AcDbLine
 62
7
  6
CONTINUOUS
 10
-9.436666584
 20
34.6964865887
 11
-9.306666584
 21
34.8624440351
  0
LINE
  5
305
100
AcDbEntity
  8
0
100
AcDbLine
 62
7
  6
CONTINUOUS
 10
-7.53
 20
34.6411674464
 11
-7.356666832
 21
34.8624440351
  0
LINE
  5
306
100
AcDbEntity
  8
0
100
AcDbLine
 62
7
  6
CONTINUOUS
 10
-4.805084578
 20
40.25
 11
-3.0254237314
 21
42.3053191781
  0
LINE
  5
307
100
AcDbEntity
  8
0
100
AcDbLine
 62
7
  6
CONTINUOUS
 10
-1.9576271216
 20
42.2074468493
 11
-2.1355930536
 21
42.0117021918
  0
LINE
  5
308
100
AcDbEntity
  8
0
100
AcDbLine
 62
7
  6
CONTINUOUS
 10
0.5338979618
 20
40.5925531849
 11
0.7118644028
 21
40.7882978767
  0
LINE
  5
309
100
AcDbEntity
  8
0
100
AcDbLine
 62
7
  6
CONTINUOUS
 10
3.7372877911
 20
42.2074468493
 11
3.5593223684
 21
42.0117021918
  0
LINE
  5
30A
100
AcDbEntity
  8
0
100
AcDbLine
 62
7
  6
CONTINUOUS
 10
6.2288138929
 20
40.5925531849
 11
6.4067793156
 21
40.7882978767
  0
LINE
  5
30B
100
AcDbEntity
  8
ASSI
100
AcDbLine
 62
7
  6
CONTINUOUS
 10
8.3185498098
 20
37.0682818397
 11
6.793186
 21
35.782847
  0
LINE
  5
30C
100
AcDbEntity
  8
0
100
AcDbLine
 62
7
  6
CONTINUOUS
 10
3.9152542322
 20
41.8648935616
 11
4.271186096
 21
42.158510685
  0
LINE
  5
30D
100
AcDbEntity
  8
0
100
AcDbLine
 62
7
  6
CONTINUOUS
 10
6.0508474518
 20
40.9351063699
 11
5.694915588
 21
40.6414893493
  0
LINE
  5
30E
100
AcDbEntity
  8
0
100
AcDbLine
 62
7
  6
CONTINUOUS
 10
9.9661010088
 20
40.7882978767
 11
9.7881355861
 21
40.6414893493
  0
LINE
  5
30F
100
AcDbEntity
  8
0
100
AcDbLine
 62
7
  6
CONTINUOUS
 10
10.0550847385
 20
40.4457446747
 11
10.322033891
 21
40.6414893493
  0
LINE
  5
310
100
AcDbEntity
  8
0
100
AcDbLine
 62
7
  6
CONTINUOUS
 10
0.2285786384
 20
-53.4481411371
 11
0.5567809221
 21
-53.9686644742
  0
LINE
  5
311
100
AcDbEntity
  8
0
100
AcDbLine
 62
7
  6
CONTINUOUS
 10
7.5076046214
 20
-60.7669518484
 11
7.8358069052
 21
-61.2874751855
  0
LINE
  5
312
100
AcDbEntity
  8
0
100
AcDbLine
 62
7
  6
CONTINUOUS
 10
0.9490111757
 20
-53.9686644742
 11
0.5235812169
 21
-53.2878340686
  0
LINE
  5
313
100
AcDbEntity
  8
0
100
AcDbLine
 62
7
  6
CONTINUOUS
 10
8.2280371587
 20
-61.2874751855
 11
7.8026072
 21
-60.6066447799
  0
LINE
  5
314
100
AcDbEntity
  8
0
100
AcDbLine
 62
7
  6
CONTINUOUS
 10
-4.9097803397
 20
-65.0
 11
-5.9128844276
 21
-62.4957969412
  0
LINE
  5
315
100
AcDbEntity
  8
0
100
AcDbLine
 62
7
  6
CONTINUOUS
 10
-4.4333653345
 20
-57.635658324
 11
-5.4364694224
 21
-55.1314552652
  0
LINE
  5
316
100
AcDbEntity
  8
0
100
AcDbLine
 62
7
  6
CONTINUOUS
 10
-5.914544436
 20
-63.2797831601
 11
-5.6449155771
 21
-63.9679648
  0
LINE
  5
317
100
AcDbEntity
  8
0
100
AcDbLine
 62
7
  6
CONTINUOUS
 10
-5.4381294308
 20
-55.9154414841
 11
-5.1685005719
 21
-56.603623124
  0
LINE
  5
318
100
AcDbEntity
  8
0
100
AcDbLine
 62
7
  6
CONTINUOUS
 10
-10.0
 20
-55.1314552652
 11
-9.0372099391
 21
-57.635658324
  0
LINE
  5
319
100
AcDbEntity
  8
0
100
AcDbLine
 62
7
  6
CONTINUOUS
 10
-10.0
 20
-51.4644614154
 11
-9.0372099391
 21
-53.9686644742
  0
LINE
  5
31A
100
AcDbEntity
  8
0
100
AcDbLine
 62
7
  6
CONTINUOUS
 10
-5.5441309728
 20
-64.2411505882
 11
-5.2647796706
 21
-65.0
  0
LINE
  5
31B
100
AcDbEntity
  8
0
100
AcDbLine
 62
7
  6
CONTINUOUS
 10
-5.0677159676
 20
-56.8768089122
 11
-4.7883646654
 21
-57.635658324
  0
LINE
  5
31C
100
AcDbEntity
  8
0
100
AcDbLine
 62
7
  6
CONTINUOUS
 10
-8.9947616156
 20
-56.9460538197
 11
-9.6450009007
 21
-55.1314552652
  0
LINE
  5
31D
100
AcDbEntity
  8
0
100
AcDbLine
 62
7
  6
CONTINUOUS
 10
-8.9947616156
 20
-53.27905997
 11
-9.6450009007
 21
-51.4644614154
  0
LINE
  5
31E
100
AcDbEntity
  8
0
100
AcDbLine
 62
7
  6
CONTINUOUS
 10
-6.1694705948
 20
-51.8438861213
 11
-5.4473778175
 21
-53.9686644742
  0
LINE
  5
31F
100
AcDbEntity
  8
0
100
AcDbLine
 62
7
  6
CONTINUOUS
 10
-10.476666584
 20
35.9688269982
 11
-10.433333416
 21
36.3007418522
  0
LINE
  5
320
100
AcDbEntity
  8
0
100
AcDbLine
 62
7
  6
CONTINUOUS
 10
-10.65
 20
36.3007418522
 11
-10.693333292
 21
36.0241461405
  0
LINE
  5
321
100
AcDbEntity
  8
0
100
AcDbLine
 62
7
  6
CONTINUOUS
 10
-12.5133333308
 20
36.6879760036
 11
-12.5566666654
 21
36.4666994342
  0
LINE
  5
322
100
AcDbEntity
  8
0
100
AcDbLine
 62
7
  6
CONTINUOUS
 10
-11.083333292
 20
36.1347844252
 11
-11.04
 21
36.3560609946
  0
LINE
  5
323
100
AcDbEntity
  8
0
100
AcDbLine
 62
7
  6
CONTINUOUS
 10
-6.1479164839
 20
45.2882978767
 11
-6.1
 21
45.5329786986
  0
LINE
  5
324
100
AcDbEntity
  8
0
100
AcDbLine
 62
7
  6
CONTINUOUS
 10
-6.3875
 20
45.5329786986
 11
-6.4354164839
 21
45.3372340411
  0
LINE
  5
325
100
AcDbEntity
  8
0
100
AcDbLine
 62
7
  6
CONTINUOUS
 10
-10.606666708
 20
36.4666994342
 11
-10.65
 21
36.3007418522
  0
LINE
  5
326
100
AcDbEntity
  8
0
100
AcDbLine
 62
7
  6
CONTINUOUS
 10
-9.22
 20
35.0837206432
 11
-9.176666584
 21
35.2496780703
  0
LINE
  5
327
100
AcDbEntity
  8
0
100
AcDbLine
 62
7
  6
CONTINUOUS
 10
-0.416364
 20
55.000104
 11
-1.387451
 21
51.613526
  0
LINE
  5
328
100
AcDbEntity
  8
0
100
AcDbLine
 62
7
  6
CONTINUOUS
 10
-2.2245762741
 20
41.8648935616
 11
-2.3135594946
 21
41.6202127397
  0
LINE
  5
329
100
AcDbEntity
  8
0
100
AcDbLine
 62
7
  6
CONTINUOUS
 10
-9.306666584
 20
34.8624440351
 11
-9.22
 21
35.0837206432
  0
LINE
  5
32A
100
AcDbEntity
  8
0
100
AcDbLine
 62
7
  6
CONTINUOUS
 10
-7.356666832
 20
34.8624440351
 11
-7.27
 21
35.0837206432
  0
LINE
  5
32B
100
AcDbEntity
  8
0
100
AcDbLine
 62
7
  6
CONTINUOUS
 10
0.7118644028
 20
40.7882978767
 11
0.8008471142
 21
40.9351063699
  0
LINE
  5
32C
100
AcDbEntity
  8
0
100
AcDbLine
 62
7
  6
CONTINUOUS
 10
3.5593223684
 20
42.0117021918
 11
3.4703386387
 21
41.8648935616
  0
LINE
  5
32D
100
AcDbEntity
  8
0
100
AcDbLine
 62
7
  6
CONTINUOUS
 10
6.4067793156
 20
40.7882978767
 11
6.4957630453
 21
40.9351063699
  0
LINE
  5
32E
100
AcDbEntity
  8
0
100
AcDbLine
 62
7
  6
CONTINUOUS
 10
12.7791659355
 20
47.05
 11
12.15625
 21
46.1202127397
  0
LINE
  5
32F
100
AcDbEntity
  8
0
100
AcDbLine
 62
7
  6
CONTINUOUS
 10
12.3
 20
45.9244680822
 11
13.0666659355
 21
47.05
  0
LINE
  5
330
100
AcDbEntity
  8
0
100
AcDbLine
 62
7
  6
CONTINUOUS
 10
-1.515873
 20
35.352304
 11
-0.71335
 21
36.495221
  0
LINE
  5
331
100
AcDbEntity
  8
0
100
AcDbLine
 62
7
  6
CONTINUOUS
 10
-0.621602
 20
37.02479
 11
-1.803455
 21
35.387814
  0
LINE
  5
332
100
AcDbEntity
  8
0
100
AcDbLine
 62
7
  6
CONTINUOUS
 10
10.322033891
 20
40.6414893493
 11
10.4999993137
 21
40.8861702055
  0
LINE
  5
333
100
AcDbEntity
  8
ASSI
100
AcDbLine
 62
7
  6
CONTINUOUS
 10
6.793186
 20
35.115206
 11
8.247775691
 21
36.3409977396
  0
LINE
  5
334
100
AcDbEntity
  8
0
100
AcDbLine
 62
7
  6
CONTINUOUS
 10
9.5690662052
 20
-55.7150577643
 11
10.8228278588
 21
-57.635658324
  0
LINE
  5
335
100
AcDbEntity
  8
0
100
AcDbLine
 62
7
  6
CONTINUOUS
 10
10.8439332169
 20
-57.0520555933
 11
9.5901717949
 21
-55.1314552652
  0
LINE
  5
336
100
AcDbEntity
  8
0
100
AcDbLine
 62
7
  6
CONTINUOUS
 10
-1.5193835933
 20
-53.9686644742
 11
-2.5224876812
 21
-51.4644614154
  0
LINE
  5
337
100
AcDbEntity
  8
0
100
AcDbLine
 62
7
  6
CONTINUOUS
 10
5.7596423897
 20
-61.2874751855
 11
4.7565383018
 21
-58.7832721267
  0
LINE
  5
338
100
AcDbEntity
  8
0
100
AcDbLine
 62
7
  6
CONTINUOUS
 10
-2.5241476896
 20
-52.2484476343
 11
-2.2545188307
 21
-52.9366292742
  0
LINE
  5
339
100
AcDbEntity
  8
0
100
AcDbLine
 62
7
  6
CONTINUOUS
 10
4.7548782934
 20
-59.5672583456
 11
5.0245071523
 21
-60.2554399855
  0
LINE
  5
33A
100
AcDbEntity
  8
0
100
AcDbLine
 62
7
  6
CONTINUOUS
 10
0.8515465882
 20
-55.1314552652
 11
1.8143366491
 21
-57.635658324
  0
LINE
  5
33B
100
AcDbEntity
  8
0
100
AcDbLine
 62
7
  6
CONTINUOUS
 10
-2.1537342264
 20
-53.2098150625
 11
-1.8743829242
 21
-53.9686644742
  0
LINE
  5
33C
100
AcDbEntity
  8
0
100
AcDbLine
 62
7
  6
CONTINUOUS
 10
5.1252917566
 20
-60.5286257738
 11
5.4046430588
 21
-61.2874751855
  0
LINE
  5
33D
100
AcDbEntity
  8
0
100
AcDbLine
 62
7
  6
CONTINUOUS
 10
1.8567849726
 20
-56.9460538197
 11
1.2065456875
 21
-55.1314552652
  0
LINE
  5
33E
100
AcDbEntity
  8
0
100
AcDbLine
 62
7
  6
CONTINUOUS
 10
1.1095553882
 20
-59.1626968326
 11
1.8316481655
 21
-61.2874751855
  0
LINE
  5
33F
100
AcDbEntity
  8
0
100
AcDbLine
 62
7
  6
CONTINUOUS
 10
-5.4013725647
 20
-53.2337661493
 11
-5.9944608262
 21
-51.4644614154
  0
LINE
  5
340
100
AcDbEntity
  8
0
100
AcDbLine
 62
7
  6
CONTINUOUS
 10
1.8776534183
 20
-60.5525768606
 11
1.2845651568
 21
-58.7832721267
  0
LINE
  5
341
100
AcDbEntity
  8
0
100
AcDbLine
 62
7
  6
CONTINUOUS
 10
-13.5
 20
56.75
 11
-13.5
 21
29.75
  0
LINE
  5
342
100
AcDbEntity
  8
0
100
AcDbLine
 62
7
  6
CONTINUOUS
 10
-13.0
 20
47.05
 11
-13.0
 21
44.75
  0
LINE
  5
343
100
AcDbEntity
  8
0
100
AcDbLine
 62
7
  6
CONTINUOUS
 10
-12.7125
 20
44.75
 11
-12.7125
 21
46.5606383562
  0
LINE
  5
344
100
AcDbEntity
  8
0
100
AcDbLine
 62
7
  6
CONTINUOUS
 10
-12.6
 20
34.7518057505
 11
-12.6
 21
34.47521
  0
LINE
  5
345
100
AcDbEntity
  8
0
100
AcDbLine
 62
7
  6
CONTINUOUS
 10
-11.3
 20
36.4666994342
 11
-11.3
 21
36.3560609946
  0
LINE
  5
346
100
AcDbEntity
  8
0
100
AcDbLine
 62
7
  6
CONTINUOUS
 10
-11.04
 20
34.47521
 11
-11.04
 21
34.7518057505
  0
LINE
  5
347
100
AcDbEntity
  8
0
100
AcDbLine
 62
7
  6
CONTINUOUS
 10
-11.04
 20
36.3560609946
 11
-11.04
 21
36.4666994342
  0
LINE
  5
348
100
AcDbEntity
  8
0
100
AcDbLine
 62
7
  6
CONTINUOUS
 10
-10.9875
 20
46.5606383562
 11
-10.9875
 21
44.75
  0
LINE
  5
349
100
AcDbEntity
  8
0
100
AcDbLine
 62
7
  6
CONTINUOUS
 10
-10.7
 20
44.75
 11
-10.7
 21
47.05
  0
LINE
  5
34A
100
AcDbEntity
  8
0
100
AcDbLine
 62
7
  6
CONTINUOUS
 10
-10.693333292
 20
36.0241461405
 11
-10.693333292
 21
35.5262738595
  0
LINE
  5
34B
100
AcDbEntity
  8
0
100
AcDbLine
 62
7
  6
CONTINUOUS
 10
-10.476666584
 20
35.5815930018
 11
-10.476666584
 21
35.9688269982
  0
LINE
  5
34C
100
AcDbEntity
  8
0
100
AcDbLine
 62
7
  6
CONTINUOUS
 10
-10.0
 20
-62.4957969412
 11
-10.0
 21
-65.0
  0
LINE
  5
34D
100
AcDbEntity
  8
0
100
AcDbLine
 62
7
  6
CONTINUOUS
 10
-9.6661062588
 20
-65.0
 11
-9.6661062588
 21
-62.4957969412
  0
LINE
  5
34E
100
AcDbEntity
  8
0
100
AcDbLine
 62
7
  6
CONTINUOUS
 10
-9.35
 20
35.9688269982
 11
-9.35
 21
35.5815930018
  0
LINE
  5
34F
100
AcDbEntity
  8
0
100
AcDbLine
 62
7
  6
CONTINUOUS
 10
-9.2563275765
 20
-62.4957969412
 11
-9.2563275765
 21
-62.7841597177
  0
LINE
  5
350
100
AcDbEntity
  8
0
100
AcDbLine
 62
7
  6
CONTINUOUS
 10
-9.133333416
 20
35.5262738595
 11
-9.133333416
 21
36.0241461405
  0
LINE
  5
351
100
AcDbEntity
  8
0
100
AcDbLine
 62
7
  6
CONTINUOUS
 10
-8.4367702118
 20
-62.7841597177
 11
-8.4367702118
 21
-65.0
  0
LINE
  5
352
100
AcDbEntity
  8
0
100
AcDbLine
 62
7
  6
CONTINUOUS
 10
-8.1028764706
 20
-65.0
 11
-8.1028764706
 21
-62.7841597177
  0
LINE
  5
353
100
AcDbEntity
  8
0
100
AcDbLine
 62
7
  6
CONTINUOUS
 10
-8.0166664839
 20
47.05
 11
-8.0166664839
 21
44.75
  0
LINE
  5
354
100
AcDbEntity
  8
0
100
AcDbLine
 62
7
  6
CONTINUOUS
 10
-7.7291664839
 20
45.0436170205
 11
-7.7291664839
 21
46.7563830137
  0
LINE
  5
355
100
AcDbEntity
  8
0
100
AcDbLine
 62
7
  6
CONTINUOUS
 10
-7.486666832
 20
37.07521
 11
-7.486666832
 21
35.360316355
  0
LINE
  5
356
100
AcDbEntity
  8
0
100
AcDbLine
 62
7
  6
CONTINUOUS
 10
-7.3988066419
 20
-51.4644614154
 11
-7.3988066419
 21
-53.9686644742
  0
LINE
  5
357
100
AcDbEntity
  8
0
100
AcDbLine
 62
7
  6
CONTINUOUS
 10
-7.3988066419
 20
-55.1314552652
 11
-7.3988066419
 21
-57.635658324
  0
LINE
  5
358
100
AcDbEntity
  8
0
100
AcDbLine
 62
7
  6
CONTINUOUS
 10
-7.2833191059
 20
-62.7841597177
 11
-7.2833191059
 21
-62.4957969412
  0
LINE
  5
359
100
AcDbEntity
  8
0
100
AcDbLine
 62
7
  6
CONTINUOUS
 10
-7.226666832
 20
35.360316355
 11
-7.226666832
 21
37.07521
  0
LINE
  5
35A
100
AcDbEntity
  8
0
100
AcDbLine
 62
7
  6
CONTINUOUS
 10
-7.0649129007
 20
-57.635658324
 11
-7.0649129007
 21
-55.1314552652
  0
LINE
  5
35B
100
AcDbEntity
  8
0
100
AcDbLine
 62
7
  6
CONTINUOUS
 10
-7.0649129007
 20
-53.9686644742
 11
-7.0649129007
 21
-51.4644614154
  0
LINE
  5
35C
100
AcDbEntity
  8
0
100
AcDbLine
 62
7
  6
CONTINUOUS
 10
-9.35
 20
35.5815930018
 11
-9.393333416
 21
35.2496780703
  0
LINE
  5
35D
100
AcDbEntity
  8
0
100
AcDbLine
 62
7
  6
CONTINUOUS
 10
-9.176666584
 20
35.2496780703
 11
-9.133333416
 21
35.5262738595
  0
LINE
  5
35E
100
AcDbEntity
  8
0
100
AcDbLine
 62
7
  6
CONTINUOUS
 10
-7.27
 20
35.0837206432
 11
-7.226666832
 21
35.360316355
  0
LINE
  5
35F
100
AcDbEntity
  8
0
100
AcDbLine
 62
7
  6
CONTINUOUS
 10
-7.486666832
 20
35.360316355
 11
-7.53
 21
35.1390397856
  0
LINE
  5
360
100
AcDbEntity
  8
0
100
AcDbLine
 62
7
  6
CONTINUOUS
 10
-0.867451
 20
49.799883
 11
0.115843
 21
53.229075
  0
LINE
  5
361
100
AcDbEntity
  8
0
100
AcDbLine
 62
7
  6
CONTINUOUS
 10
-1.8686444103
 20
41.5712765753
 11
-1.7796606806
 21
41.8648935616
  0
LINE
  5
362
100
AcDbEntity
  8
0
100
AcDbLine
 62
7
  6
CONTINUOUS
 10
0.4449152504
 20
41.2287234247
 11
0.355932539
 21
40.9351063699
  0
LINE
  5
363
100
AcDbEntity
  8
0
100
AcDbLine
 62
7
  6
CONTINUOUS
 10
3.8262715208
 20
41.5712765753
 11
3.9152542322
 21
41.8648935616
  0
LINE
  5
364
100
AcDbEntity
  8
0
100
AcDbLine
 62
7
  6
CONTINUOUS
 10
3.518853
 20
55.000117
 11
1.84925
 21
49.79987
  0
LINE
  5
365
100
AcDbEntity
  8
0
100
AcDbLine
 62
7
  6
CONTINUOUS
 10
2.889289
 20
49.799883
 11
3.21763
 21
50.822541
  0
LINE
  5
366
100
AcDbEntity
  8
0
100
AcDbLine
 62
7
  6
CONTINUOUS
 10
3.534869
 20
51.81058
 11
4.038892
 21
53.380512
  0
LINE
  5
367
100
AcDbEntity
  8
0
100
AcDbLine
 62
7
  6
CONTINUOUS
 10
7.3645840645
 20
45.5329786986
 11
7.7958340645
 21
46.8542553425
  0
LINE
  5
368
100
AcDbEntity
  8
0
100
AcDbLine
 62
7
  6
CONTINUOUS
 10
7.125
 20
44.75
 11
7.3166659355
 21
45.3372340411
  0
LINE
  5
369
100
AcDbEntity
  8
0
100
AcDbLine
 62
7
  6
CONTINUOUS
 10
7.6041659355
 20
47.05
 11
6.8375
 21
44.75
  0
LINE
  5
36A
100
AcDbEntity
  8
0
100
AcDbLine
 62
7
  6
CONTINUOUS
 10
0.8008471142
 20
40.9351063699
 11
0.8898308439
 21
41.1797872603
  0
LINE
  5
36B
100
AcDbEntity
  8
0
100
AcDbLine
 62
7
  6
CONTINUOUS
 10
3.4703386387
 20
41.8648935616
 11
3.3813559273
 21
41.6202127397
  0
LINE
  5
36C
100
AcDbEntity
  8
0
100
AcDbLine
 62
7
  6
CONTINUOUS
 10
6.4957630453
 20
40.9351063699
 11
6.5847457567
 21
41.1797872603
  0
LINE
  5
36D
100
AcDbEntity
  8
ASSI
100
AcDbLine
 62
7
  6
CONTINUOUS
 10
5.2413280513
 20
33.0074530914
 11
5.4915758065
 21
33.4533146552
  0
LINE
  5
36E
100
AcDbEntity
  8
0
100
AcDbLine
 62
7
  6
CONTINUOUS
 10
10.0550847385
 20
40.9351063699
 11
9.9661010088
 21
40.7882978767
  0
LINE
  5
36F
100
AcDbEntity
  8
ASSI
100
AcDbLine
 62
7
  6
CONTINUOUS
 10
8.468797
 20
31.036901
 11
8.752489
 21
31.439077
  0
LINE
  5
370
100
AcDbEntity
  8
0
100
AcDbLine
 62
7
  6
CONTINUOUS
 10
8.9375613008
 20
-53.9686644742
 11
7.9344572129
 21
-51.4644614154
  0
LINE
  5
371
100
AcDbEntity
  8
0
100
AcDbLine
 62
7
  6
CONTINUOUS
 10
7.9327972045
 20
-52.2484476343
 11
8.2024260634
 21
-52.9366292742
  0
LINE
  5
372
100
AcDbEntity
  8
0
100
AcDbLine
 62
7
  6
CONTINUOUS
 10
8.3032106677
 20
-53.2098150625
 11
8.5825619699
 21
-53.9686644742
  0
LINE
  5
373
100
AcDbEntity
  8
0
100
AcDbLine
 62
7
  6
CONTINUOUS
 10
-6.503364336
 20
-51.4644614154
 11
-6.503364336
 21
-53.9686644742
  0
LINE
  5
374
100
AcDbEntity
  8
0
100
AcDbLine
 62
7
  6
CONTINUOUS
 10
-6.3875
 20
46.2670212328
 11
-6.3875
 21
45.5329786986
  0
LINE
  5
375
100
AcDbEntity
  8
0
100
AcDbLine
 62
7
  6
CONTINUOUS
 10
-6.2288135608
 20
42.55
 11
-6.2288135608
 21
42.3053191781
  0
LINE
  5
376
100
AcDbEntity
  8
0
100
AcDbLine
 62
7
  6
CONTINUOUS
 10
-6.1694705948
 20
-53.9686644742
 11
-6.1694705948
 21
-51.8438861213
  0
LINE
  5
377
100
AcDbEntity
  8
0
100
AcDbLine
 62
7
  6
CONTINUOUS
 10
-6.1
 20
45.5329786986
 11
-6.1
 21
46.2670212328
  0
LINE
  5
378
100
AcDbEntity
  8
0
100
AcDbLine
 62
7
  6
CONTINUOUS
 10
-6.010836
 20
55.000104
 11
-6.010849
 21
49.799857
  0
LINE
  5
379
100
AcDbEntity
  8
0
100
AcDbLine
 62
7
  6
CONTINUOUS
 10
-5.7166664839
 20
47.05
 11
-5.7166664839
 21
44.75
  0
LINE
  5
37A
100
AcDbEntity
  8
0
100
AcDbLine
 62
7
  6
CONTINUOUS
 10
-5.4291664839
 20
45.0436170205
 11
-5.4291664839
 21
45.8265957534
  0
LINE
  5
37B
100
AcDbEntity
  8
0
100
AcDbLine
 62
7
  6
CONTINUOUS
 10
-5.4291664839
 20
46.1202127397
 11
-5.4291664839
 21
46.7563830137
  0
LINE
  5
37C
100
AcDbEntity
  8
0
100
AcDbLine
 62
7
  6
CONTINUOUS
 10
-4.97081
 20
49.79987
 11
-4.970797
 21
55.000104
  0
LINE
  5
37D
100
AcDbEntity
  8
0
100
AcDbLine
 62
7
  6
CONTINUOUS
 10
-4.92482
 20
37.02479
 11
-4.92482
 21
34.47521
  0
LINE
  5
37E
100
AcDbEntity
  8
0
100
AcDbLine
 62
7
  6
CONTINUOUS
 10
-4.642523153
 20
-62.4957969412
 11
-4.642523153
 21
-65.0
  0
LINE
  5
37F
100
AcDbEntity
  8
0
100
AcDbLine
 62
7
  6
CONTINUOUS
 10
-4.580327
 20
34.47521
 11
-4.580327
 21
37.02479
  0
LINE
  5
380
100
AcDbEntity
  8
0
100
AcDbLine
 62
7
  6
CONTINUOUS
 10
-4.4241169477
 20
-51.8742400978
 11
-4.4241169477
 21
-53.9686644742
  0
LINE
  5
381
100
AcDbEntity
  8
0
100
AcDbLine
 62
7
  6
CONTINUOUS
 10
-4.3086294118
 20
-64.7116372235
 11
-4.3086294118
 21
-62.4957969412
  0
LINE
  5
382
100
AcDbEntity
  8
0
100
AcDbLine
 62
7
  6
CONTINUOUS
 10
-4.1833335161
 20
45.8265957534
 11
-4.1833335161
 21
46.1202127397
  0
LINE
  5
383
100
AcDbEntity
  8
0
100
AcDbLine
 62
7
  6
CONTINUOUS
 10
-4.1661081478
 20
-55.1314552652
 11
-4.1661081478
 21
-57.635658324
  0
LINE
  5
384
100
AcDbEntity
  8
0
100
AcDbLine
 62
7
  6
CONTINUOUS
 10
-4.0902232066
 20
-53.9686644742
 11
-4.0902232066
 21
-51.4644614154
  0
LINE
  5
385
100
AcDbEntity
  8
0
100
AcDbLine
 62
7
  6
CONTINUOUS
 10
-3.9916664839
 20
44.75
 11
-3.9916664839
 21
45.0436170205
  0
LINE
  5
386
100
AcDbEntity
  8
0
100
AcDbLine
 62
7
  6
CONTINUOUS
 10
-3.9916664839
 20
46.7563830137
 11
-3.9916664839
 21
47.05
  0
LINE
  5
387
100
AcDbEntity
  8
0
100
AcDbLine
 62
7
  6
CONTINUOUS
 10
-3.955353
 20
37.02479
 11
-3.955353
 21
34.47521
  0
LINE
  5
388
100
AcDbEntity
  8
0
100
AcDbLine
 62
7
  6
CONTINUOUS
 10
-3.930797
 20
55.000104
 11
-3.930797
 21
49.79987
  0
LINE
  5
389
100
AcDbEntity
  8
0
100
AcDbLine
 62
7
  6
CONTINUOUS
 10
-3.8322144066
 20
-57.3472955475
 11
-3.8322144066
 21
-55.1314552652
  0
LINE
  5
38A
100
AcDbEntity
  8
0
100
AcDbLine
 62
7
  6
CONTINUOUS
 10
-3.610955
 20
34.47521
 11
-3.610955
 21
35.551187
  0
LINE
  5
38B
100
AcDbEntity
  8
0
100
AcDbLine
 62
7
  6
CONTINUOUS
 10
-3.610955
 20
35.845881
 11
-3.610955
 21
36.730096
  0
LINE
  5
38C
100
AcDbEntity
  8
0
100
AcDbLine
 62
7
  6
CONTINUOUS
 10
-3.0641163765
 20
-65.0
 11
-3.0641163765
 21
-64.7116372235
  0
LINE
  5
38D
100
AcDbEntity
  8
0
100
AcDbLine
 62
7
  6
CONTINUOUS
 10
-3.0254237314
 20
42.3053191781
 11
-3.0254237314
 21
42.55
  0
LINE
  5
38E
100
AcDbEntity
  8
0
100
AcDbLine
 62
7
  6
CONTINUOUS
 10
-2.890758
 20
49.79987
 11
-2.890758
 21
53.229075
  0
LINE
  5
38F
100
AcDbEntity
  8
0
100
AcDbLine
 62
7
  6
CONTINUOUS
 10
-2.5877013713
 20
-57.635658324
 11
-2.5877013713
 21
-57.3472955475
  0
LINE
  5
390
100
AcDbEntity
  8
0
100
AcDbLine
 62
7
  6
CONTINUOUS
 10
-2.3135594946
 20
41.6202127397
 11
-2.3135594946
 21
41.1797872603
  0
LINE
  5
391
100
AcDbEntity
  8
0
100
AcDbLine
 62
7
  6
CONTINUOUS
 10
-2.1930996772
 20
-55.1314552652
 11
-2.1930996772
 21
-57.635658324
  0
LINE
  5
392
100
AcDbEntity
  8
0
100
AcDbLine
 62
7
  6
CONTINUOUS
 10
-1.9846530593
 20
-63.9392706004
 11
-1.9846530593
 21
-65.0
  0
LINE
  5
393
100
AcDbEntity
  8
0
100
AcDbLine
 62
7
  6
CONTINUOUS
 10
-1.8686444103
 20
41.2287234247
 11
-1.8686444103
 21
41.5712765753
  0
LINE
  5
394
100
AcDbEntity
  8
0
100
AcDbLine
 62
7
  6
CONTINUOUS
 10
-1.859205936
 20
-57.3472955475
 11
-1.859205936
 21
-56.4822072181
  0
LINE
  5
395
100
AcDbEntity
  8
0
100
AcDbLine
 62
7
  6
CONTINUOUS
 10
-1.859205936
 20
-56.1938444416
 11
-1.859205936
 21
-55.4198180416
  0
LINE
  5
396
100
AcDbEntity
  8
0
100
AcDbLine
 62
7
  6
CONTINUOUS
 10
-1.803455
 20
35.387814
 11
-1.803455
 21
35.082457
  0
LINE
  5
397
100
AcDbEntity
  8
0
100
AcDbLine
 62
7
  6
CONTINUOUS
 10
-1.6507593181
 20
-65.0
 11
-1.6507593181
 21
-63.9392706004
  0
LINE
  5
398
100
AcDbEntity
  8
0
100
AcDbLine
 62
7
  6
CONTINUOUS
 10
-1.3083329678
 20
47.05
 11
-1.3083329678
 21
44.75
  0
LINE
  5
399
100
AcDbEntity
  8
0
100
AcDbLine
 62
7
  6
CONTINUOUS
 10
-1.2217724301
 20
-51.4644614154
 11
-1.2217724301
 21
-53.9686644742
  0
LINE
  5
39A
100
AcDbEntity
  8
0
100
AcDbLine
 62
7
  6
CONTINUOUS
 10
-1.0208329678
 20
44.75
 11
-1.0208329678
 21
47.05
  0
LINE
  5
39B
100
AcDbEntity
  8
0
100
AcDbLine
 62
7
  6
CONTINUOUS
 10
-0.8878786889
 20
-53.9686644742
 11
-0.8878786889
 21
-52.8607443331
  0
LINE
  5
39C
100
AcDbEntity
  8
0
100
AcDbLine
 62
7
  6
CONTINUOUS
 10
-0.8878786889
 20
-52.5723815566
 11
-0.8878786889
 21
-51.7528241919
  0
LINE
  5
39D
100
AcDbEntity
  8
ASSI
100
AcDbLine
 62
7
  6
CONTINUOUS
 10
-0.867554
 20
-46.548037009
 11
-0.867554
 21
-45.7972200095
  0
LINE
  5
39E
100
AcDbEntity
  8
ASSI
100
AcDbLine
 62
7
  6
CONTINUOUS
 10
-0.867554
 20
-42.20278
 11
-0.867554
 21
-41.451963
  0
LINE
  5
39F
100
AcDbEntity
  8
0
100
AcDbLine
 62
7
  6
CONTINUOUS
 10
-0.71335
 20
36.495221
 11
-0.71335
 21
35.352304
  0
LINE
  5
3A0
100
AcDbEntity
  8
0
100
AcDbLine
 62
7
  6
CONTINUOUS
 10
-0.71335
 20
35.082457
 11
-0.71335
 21
34.47521
  0
LINE
  5
3A1
100
AcDbEntity
  8
0
100
AcDbLine
 62
7
  6
CONTINUOUS
 10
-0.6375
 20
47.05
 11
-0.6375
 21
44.75
  0
LINE
  5
3A2
100
AcDbEntity
  8
0
100
AcDbLine
 62
7
  6
CONTINUOUS
 10
-0.4932769948
 20
-56.4822072181
 11
-0.4932769948
 21
-56.1938444416
  0
LINE
  5
3A3
100
AcDbEntity
  8
0
100
AcDbLine
 62
7
  6
CONTINUOUS
 10
-0.4022150654
 20
-55.4198180416
 11
-0.4022150654
 21
-55.1314552652
  0
LINE
  5
3A4
100
AcDbEntity
  8
0
100
AcDbLine
 62
7
  6
CONTINUOUS
 10
-0.400863
 20
34.47521
 11
-0.400863
 21
35.082457
  0
LINE
  5
3A5
100
AcDbEntity
  8
0
100
AcDbLine
 62
7
  6
CONTINUOUS
 10
-0.400863
 20
35.352304
 11
-0.400863
 21
37.02479
  0
LINE
  5
3A6
100
AcDbEntity
  8
0
100
AcDbLine
 62
7
  6
CONTINUOUS
 10
-0.35
 20
44.75
 11
-0.35
 21
46.7563830137
  0
LINE
  5
3A7
100
AcDbEntity
  8
0
100
AcDbLine
 62
7
  6
CONTINUOUS
 10
-0.3415071125
 20
-57.635658324
 11
-0.3415071125
 21
-57.3472955475
  0
LINE
  5
3A8
100
AcDbEntity
  8
0
100
AcDbLine
 62
7
  6
CONTINUOUS
 10
-0.035064
 20
35.082457
 11
-0.035064
 21
35.352304
  0
LINE
  5
3A9
100
AcDbEntity
  8
0
100
AcDbLine
 62
7
  6
CONTINUOUS
 10
0.115843
 20
53.229075
 11
0.115856
 21
49.79987
  0
LINE
  5
3AA
100
AcDbEntity
  8
0
100
AcDbLine
 62
7
  6
CONTINUOUS
 10
0.4449152504
 20
41.5712765753
 11
0.4449152504
 21
41.2287234247
  0
LINE
  5
3AB
100
AcDbEntity
  8
0
100
AcDbLine
 62
7
  6
CONTINUOUS
 10
0.775661647
 20
-58.7832721267
 11
0.775661647
 21
-61.2874751855
  0
LINE
  5
3AC
100
AcDbEntity
  8
0
100
AcDbLine
 62
7
  6
CONTINUOUS
 10
0.8898308439
 20
41.1797872603
 11
0.8898308439
 21
41.6202127397
  0
LINE
  5
3AD
100
AcDbEntity
  8
0
100
AcDbLine
 62
7
  6
CONTINUOUS
 10
0.9916670322
 20
47.05
 11
0.9916670322
 21
45.0925531849
  0
LINE
  5
3AE
100
AcDbEntity
  8
0
100
AcDbLine
 62
7
  6
CONTINUOUS
 10
-9.3547407401
 20
-59.8304843149
 11
-9.3898375978
 21
-60.1036701032
  0
LINE
  5
3AF
100
AcDbEntity
  8
0
100
AcDbLine
 62
7
  6
CONTINUOUS
 10
6.1398301632
 20
41.2287234247
 11
6.0508474518
 21
40.9351063699
  0
LINE
  5
3B0
100
AcDbEntity
  8
0
100
AcDbLine
 62
7
  6
CONTINUOUS
 10
15.9037989008
 20
-57.635658324
 11
14.9006948129
 21
-55.1314552652
  0
LINE
  5
3B1
100
AcDbEntity
  8
0
100
AcDbLine
 62
7
  6
CONTINUOUS
 10
21.2553473779
 20
-61.2874751855
 11
20.25224329
 21
-58.7832721267
  0
LINE
  5
3B2
100
AcDbEntity
  8
0
100
AcDbLine
 62
7
  6
CONTINUOUS
 10
14.8990348045
 20
-55.9154414841
 11
15.1686636634
 21
-56.603623124
  0
LINE
  5
3B3
100
AcDbEntity
  8
0
100
AcDbLine
 62
7
  6
CONTINUOUS
 10
20.2505832816
 20
-59.5672583456
 11
20.5202121405
 21
-60.2554399855
  0
LINE
  5
3B4
100
AcDbEntity
  8
0
100
AcDbLine
 62
7
  6
CONTINUOUS
 10
22.2755256065
 20
-58.7832721267
 11
23.2383156674
 21
-61.2874751855
  0
LINE
  5
3B5
100
AcDbEntity
  8
0
100
AcDbLine
 62
7
  6
CONTINUOUS
 10
15.2694482677
 20
-56.8768089122
 11
15.5487995699
 21
-57.635658324
  0
LINE
  5
3B6
100
AcDbEntity
  8
0
100
AcDbLine
 62
7
  6
CONTINUOUS
 10
20.6209967448
 20
-60.5286257738
 11
20.900348047
 21
-61.2874751855
  0
LINE
  5
3B7
100
AcDbEntity
  8
0
100
AcDbLine
 62
7
  6
CONTINUOUS
 10
-10.65
 20
35.2496780703
 11
-10.606666708
 21
35.0837206432
  0
LINE
  5
3B8
100
AcDbEntity
  8
0
100
AcDbLine
 62
7
  6
CONTINUOUS
 10
-9.176666584
 20
36.3007418522
 11
-9.22
 21
36.4666994342
  0
LINE
  5
3B9
100
AcDbEntity
  8
0
100
AcDbLine
 62
7
  6
CONTINUOUS
 10
-11.04
 20
36.4666994342
 11
-11.083333292
 21
36.6879760036
  0
LINE
  5
3BA
100
AcDbEntity
  8
0
100
AcDbLine
 62
7
  6
CONTINUOUS
 10
-8.483333416
 20
35.1390397856
 11
-8.526666584
 21
35.360316355
  0
LINE
  5
3BB
100
AcDbEntity
  8
0
100
AcDbLine
 62
7
  6
CONTINUOUS
 10
-10.693333292
 20
35.5262738595
 11
-10.65
 21
35.2496780703
  0
LINE
  5
3BC
100
AcDbEntity
  8
0
100
AcDbLine
 62
7
  6
CONTINUOUS
 10
-9.133333416
 20
36.0241461405
 11
-9.176666584
 21
36.3007418522
  0
LINE
  5
3BD
100
AcDbEntity
  8
0
100
AcDbLine
 62
7
  6
CONTINUOUS
 10
-8.786666584
 20
35.360316355
 11
-8.743333416
 21
35.0837206432
  0
LINE
  5
3BE
100
AcDbEntity
  8
0
100
AcDbLine
 62
7
  6
CONTINUOUS
 10
-10.433333416
 20
35.2496780703
 11
-10.476666584
 21
35.5815930018
  0
LINE
  5
3BF
100
AcDbEntity
  8
0
100
AcDbLine
 62
7
  6
CONTINUOUS
 10
-9.393333416
 20
36.3007418522
 11
-9.35
 21
35.9688269982
  0
LINE
  5
3C0
100
AcDbEntity
  8
0
100
AcDbLine
 62
7
  6
CONTINUOUS
 10
1.1095553882
 20
-61.2874751855
 11
1.1095553882
 21
-59.1626968326
  0
LINE
  5
3C1
100
AcDbEntity
  8
0
100
AcDbLine
 62
7
  6
CONTINUOUS
 10
1.155895
 20
49.79987
 11
1.155895
 21
55.000104
  0
LINE
  5
3C2
100
AcDbEntity
  8
0
100
AcDbLine
 62
7
  6
CONTINUOUS
 10
1.2791670322
 20
44.75
 11
1.2791670322
 21
47.05
  0
LINE
  5
3C3
100
AcDbEntity
  8
0
100
AcDbLine
 62
7
  6
CONTINUOUS
 10
1.6016945716
 20
42.2074468493
 11
1.6016945716
 21
41.8159573972
  0
LINE
  5
3C4
100
AcDbEntity
  8
0
100
AcDbLine
 62
7
  6
CONTINUOUS
 10
2.1355928765
 20
42.158510685
 11
2.1355928765
 21
40.25
  0
LINE
  5
3C5
100
AcDbEntity
  8
0
100
AcDbLine
 62
7
  6
CONTINUOUS
 10
2.6694911814
 20
40.25
 11
2.6694911814
 21
42.55
  0
LINE
  5
3C6
100
AcDbEntity
  8
0
100
AcDbLine
 62
7
  6
CONTINUOUS
 10
2.8549090353
 20
-59.1930508091
 11
2.8549090353
 21
-61.2874751855
  0
LINE
  5
3C7
100
AcDbEntity
  8
ASSI
100
AcDbLine
 62
7
  6
CONTINUOUS
 10
3.117556
 20
-44.375
 11
3.117556
 21
-43.625
  0
LINE
  5
3C8
100
AcDbEntity
  8
0
100
AcDbLine
 62
7
  6
CONTINUOUS
 10
3.1888027764
 20
-61.2874751855
 11
3.1888027764
 21
-58.7832721267
  0
LINE
  5
3C9
100
AcDbEntity
  8
0
100
AcDbLine
 62
7
  6
CONTINUOUS
 10
3.3813559273
 20
41.6202127397
 11
3.3813559273
 21
41.1797872603
  0
LINE
  5
3CA
100
AcDbEntity
  8
0
100
AcDbLine
 62
7
  6
CONTINUOUS
 10
3.4527399464
 20
-55.1314552652
 11
3.4527399464
 21
-57.635658324
  0
LINE
  5
3CB
100
AcDbEntity
  8
ASSI
100
AcDbLine
 62
7
  6
CONTINUOUS
 10
3.517556
 20
-46.5480371264
 11
3.517556
 21
-45.7972167065
  0
LINE
  5
3CC
100
AcDbEntity
  8
ASSI
100
AcDbLine
 62
7
  6
CONTINUOUS
 10
3.517556
 20
-42.20278
 11
3.517556
 21
-41.4519631124
  0
LINE
  5
3CD
100
AcDbEntity
  8
0
100
AcDbLine
 62
7
  6
CONTINUOUS
 10
3.7866336875
 20
-57.635658324
 11
3.7866336875
 21
-55.1314552652
  0
LINE
  5
3CE
100
AcDbEntity
  8
0
100
AcDbLine
 62
7
  6
CONTINUOUS
 10
3.8262715208
 20
41.2287234247
 11
3.8262715208
 21
41.5712765753
  0
LINE
  5
3CF
100
AcDbEntity
  8
0
100
AcDbLine
 62
7
  6
CONTINUOUS
 10
3.9625
 20
47.05
 11
3.9625
 21
44.75
  0
LINE
  5
3D0
100
AcDbEntity
  8
0
100
AcDbLine
 62
7
  6
CONTINUOUS
 10
4.25
 20
44.75
 11
4.25
 21
47.05
  0
LINE
  5
3D1
100
AcDbEntity
  8
0
100
AcDbLine
 62
7
  6
CONTINUOUS
 10
4.591014064
 20
-51.4644614154
 11
4.591014064
 21
-53.9686644742
  0
LINE
  5
3D2
100
AcDbEntity
  8
0
100
AcDbLine
 62
7
  6
CONTINUOUS
 10
4.6333329678
 20
47.05
 11
4.6333329678
 21
46.8053191781
  0
LINE
  5
3D3
100
AcDbEntity
  8
0
100
AcDbLine
 62
7
  6
CONTINUOUS
 10
4.9249078052
 20
-53.9686644742
 11
4.9249078052
 21
-52.9366292742
  0
LINE
  5
3D4
100
AcDbEntity
  8
0
100
AcDbLine
 62
7
  6
CONTINUOUS
 10
4.9249078052
 20
-52.6482664978
 11
4.9249078052
 21
-51.7528241919
  0
LINE
  5
3D5
100
AcDbEntity
  8
0
100
AcDbLine
 62
7
  6
CONTINUOUS
 10
5.4
 20
46.8053191781
 11
5.4
 21
44.75
  0
LINE
  5
3D6
100
AcDbEntity
  8
0
100
AcDbLine
 62
7
  6
CONTINUOUS
 10
5.6875
 20
44.75
 11
5.6875
 21
46.8053191781
  0
LINE
  5
3D7
100
AcDbEntity
  8
ASSI
100
AcDbLine
 62
7
  6
CONTINUOUS
 10
5.732239
 20
33.30662
 11
5.732239
 21
32.762971
  0
LINE
  5
3D8
100
AcDbEntity
  8
ASSI
100
AcDbLine
 62
7
  6
CONTINUOUS
 10
5.749993
 20
37.715613
 11
5.749993
 21
37.168974
  0
LINE
  5
3D9
100
AcDbEntity
  8
0
100
AcDbLine
 62
7
  6
CONTINUOUS
 10
6.0572535529
 20
-58.7832721267
 11
6.0572535529
 21
-61.2874751855
  0
LINE
  5
3DA
100
AcDbEntity
  8
0
100
AcDbLine
 62
7
  6
CONTINUOUS
 10
6.1398301632
 20
41.5712765753
 11
6.1398301632
 21
41.2287234247
  0
LINE
  5
3DB
100
AcDbEntity
  8
ASSI
100
AcDbLine
 62
7
  6
CONTINUOUS
 10
6.214029
 20
37.168974
 11
6.214029
 21
35.782847
  0
LINE
  5
3DC
100
AcDbEntity
  8
ASSI
100
AcDbLine
 62
7
  6
CONTINUOUS
 10
6.214029
 20
35.109126
 11
6.214029
 21
33.30662
  0
LINE
  5
3DD
100
AcDbEntity
  8
0
100
AcDbLine
 62
7
  6
CONTINUOUS
 10
6.3911472941
 20
-61.2874751855
 11
6.3911472941
 21
-60.1795550444
  0
LINE
  5
3DE
100
AcDbEntity
  8
0
100
AcDbLine
 62
7
  6
CONTINUOUS
 10
6.3911472941
 20
-59.8911922679
 11
6.3911472941
 21
-59.0716349032
  0
LINE
  5
3DF
100
AcDbEntity
  8
0
100
AcDbLine
 62
7
  6
CONTINUOUS
 10
6.4541659355
 20
46.8053191781
 11
6.4541659355
 21
47.05
  0
LINE
  5
3E0
100
AcDbEntity
  8
0
100
AcDbLine
 62
7
  6
CONTINUOUS
 10
6.5847457567
 20
41.1797872603
 11
6.5847457567
 21
41.6202127397
  0
LINE
  5
3E1
100
AcDbEntity
  8
ASSI
100
AcDbLine
 62
7
  6
CONTINUOUS
 10
6.793186
 20
33.30662
 11
6.793186
 21
35.115206
  0
LINE
  5
3E2
100
AcDbEntity
  8
ASSI
100
AcDbLine
 62
7
  6
CONTINUOUS
 10
6.793186
 20
35.782847
 11
6.793186
 21
37.168974
  0
LINE
  5
3E3
100
AcDbEntity
  8
0
100
AcDbLine
 62
7
  6
CONTINUOUS
 10
6.913093264
 20
-55.1314552652
 11
6.913093264
 21
-57.635658324
  0
LINE
  5
3E4
100
AcDbEntity
  8
0
100
AcDbLine
 62
7
  6
CONTINUOUS
 10
6.921928
 20
55.000117
 11
6.921928
 21
49.799883
  0
LINE
  5
3E5
100
AcDbEntity
  8
0
100
AcDbLine
 62
7
  6
CONTINUOUS
 10
7.2469870052
 20
-57.3472955475
 11
7.2469870052
 21
-56.4822072181
  0
LINE
  5
3E6
100
AcDbEntity
  8
0
100
AcDbLine
 62
7
  6
CONTINUOUS
 10
7.2469870052
 20
-56.1938444416
 11
7.2469870052
 21
-55.4198180416
  0
LINE
  5
3E7
100
AcDbEntity
  8
ASSI
100
AcDbLine
 62
7
  6
CONTINUOUS
 10
7.257034
 20
37.168974
 11
7.257034
 21
37.715613
  0
LINE
  5
3E8
100
AcDbEntity
  8
ASSI
100
AcDbLine
 62
7
  6
CONTINUOUS
 10
7.274788
 20
32.762971
 11
7.274788
 21
33.30662
  0
LINE
  5
3E9
100
AcDbEntity
  8
0
100
AcDbLine
 62
7
  6
CONTINUOUS
 10
7.2966094844
 20
42.55
 11
7.2966094844
 21
41.2776595891
  0
LINE
  5
3EA
100
AcDbEntity
  8
0
100
AcDbLine
 62
7
  6
CONTINUOUS
 10
7.7415260962
 20
41.5223404109
 11
7.7415260962
 21
42.3053191781
  0
LINE
  5
3EB
100
AcDbEntity
  8
0
100
AcDbLine
 62
7
  6
CONTINUOUS
 10
7.947641
 20
52.772632
 11
7.947628
 21
54.038078
  0
LINE
  5
3EC
100
AcDbEntity
  8
0
100
AcDbLine
 62
7
  6
CONTINUOUS
 10
8.6129159463
 20
-56.4822072181
 11
8.6129159463
 21
-56.1938444416
  0
LINE
  5
3ED
100
AcDbEntity
  8
0
100
AcDbLine
 62
7
  6
CONTINUOUS
 10
8.7039778758
 20
-55.4198180416
 11
8.7039778758
 21
-55.1314552652
  0
LINE
  5
3EE
100
AcDbEntity
  8
0
100
AcDbLine
 62
7
  6
CONTINUOUS
 10
8.7646858287
 20
-57.635658324
 11
8.7646858287
 21
-57.3472955475
  0
LINE
  5
3EF
100
AcDbEntity
  8
0
100
AcDbLine
 62
7
  6
CONTINUOUS
 10
7.96198
 20
49.799883
 11
7.962097
 21
51.810593
  0
LINE
  5
3F0
100
AcDbEntity
  8
0
100
AcDbLine
 62
7
  6
CONTINUOUS
 10
-1.5841227637
 20
-59.8304843149
 11
-1.6192196214
 21
-60.1036701032
  0
LINE
  5
3F1
100
AcDbEntity
  8
0
100
AcDbLine
 62
7
  6
CONTINUOUS
 10
-11.386666708
 20
36.6326568613
 11
-11.3
 21
36.4666994342
  0
LINE
  5
3F2
100
AcDbEntity
  8
0
100
AcDbLine
 62
7
  6
CONTINUOUS
 10
-10.26
 20
34.9177631775
 11
-10.433333416
 21
35.2496780703
  0
LINE
  5
3F3
100
AcDbEntity
  8
0
100
AcDbLine
 62
7
  6
CONTINUOUS
 10
-9.566666584
 20
36.6326568613
 11
-9.393333416
 21
36.3007418522
  0
LINE
  5
3F4
100
AcDbEntity
  8
0
100
AcDbLine
 62
7
  6
CONTINUOUS
 10
-8.396666832
 20
34.9730823586
 11
-8.483333416
 21
35.1390397856
  0
LINE
  5
3F5
100
AcDbEntity
  8
0
100
AcDbLine
 62
7
  6
CONTINUOUS
 10
-10.606666708
 20
35.0837206432
 11
-10.52
 21
34.8624440351
  0
LINE
  5
3F6
100
AcDbEntity
  8
0
100
AcDbLine
 62
7
  6
CONTINUOUS
 10
-8.743333416
 20
35.0837206432
 11
-8.656666584
 21
34.8624440351
  0
LINE
  5
3F7
100
AcDbEntity
  8
0
100
AcDbLine
 62
7
  6
CONTINUOUS
 10
-9.22
 20
36.4666994342
 11
-9.306666584
 21
36.6879760036
  0
LINE
  5
3F8
100
AcDbEntity
  8
0
100
AcDbLine
 62
7
  6
CONTINUOUS
 10
-12.7125
 20
46.5606383562
 11
-12.0416666895
 21
44.75
  0
LINE
  5
3F9
100
AcDbEntity
  8
0
100
AcDbLine
 62
7
  6
CONTINUOUS
 10
23.2807639909
 20
-60.5978706813
 11
22.6305247058
 21
-58.7832721267
  0
LINE
  5
3FA
100
AcDbEntity
  8
0
100
AcDbLine
 62
7
  6
CONTINUOUS
 10
-11.85
 20
44.9946808562
 11
-12.56875
 21
47.05
  0
LINE
  5
3FB
100
AcDbEntity
  8
0
100
AcDbLine
 62
7
  6
CONTINUOUS
 10
-8.4
 20
44.75
 11
-9.1666667581
 21
47.05
  0
LINE
  5
3FC
100
AcDbEntity
  8
0
100
AcDbLine
 62
7
  6
CONTINUOUS
 10
-8.8791667581
 20
45.3372340411
 11
-8.6875
 21
44.75
  0
LINE
  5
3FD
100
AcDbEntity
  8
0
100
AcDbLine
 62
7
  6
CONTINUOUS
 10
-9.3583332419
 20
46.8542553425
 11
-8.9270832419
 21
45.5329786986
  0
LINE
  5
3FE
100
AcDbEntity
  8
0
100
AcDbLine
 62
7
  6
CONTINUOUS
 10
-11.083514
 20
55.000104
 11
-9.413898
 21
49.799857
  0
LINE
  5
3FF
100
AcDbEntity
  8
0
100
AcDbLine
 62
7
  6
CONTINUOUS
 10
-8.893846
 20
51.419462
 11
-10.043462
 21
55.000104
  0
LINE
  5
400
100
AcDbEntity
  8
0
100
AcDbLine
 62
7
  6
CONTINUOUS
 10
-6.4354164839
 20
46.4627658904
 11
-6.3875
 21
46.2670212328
  0
LINE
  5
401
100
AcDbEntity
  8
0
100
AcDbLine
 62
7
  6
CONTINUOUS
 10
-6.1
 20
46.2670212328
 11
-6.1479164839
 21
46.5117021918
  0
LINE
  5
402
100
AcDbEntity
  8
0
100
AcDbLine
 62
7
  6
CONTINUOUS
 10
9.1375
 20
47.05
 11
9.1375
 21
44.75
  0
LINE
  5
403
100
AcDbEntity
  8
0
100
AcDbLine
 62
7
  6
CONTINUOUS
 10
9.235172464
 20
-55.1314552652
 11
9.235172464
 21
-57.635658324
  0
LINE
  5
404
100
AcDbEntity
  8
0
100
AcDbLine
 62
7
  6
CONTINUOUS
 10
9.425
 20
45.0436170205
 11
9.425
 21
47.05
  0
LINE
  5
405
100
AcDbEntity
  8
0
100
AcDbLine
 62
7
  6
CONTINUOUS
 10
9.5690662052
 20
-57.635658324
 11
9.5690662052
 21
-55.7150577643
  0
LINE
  5
406
100
AcDbEntity
  8
0
100
AcDbLine
 62
7
  6
CONTINUOUS
 10
10.0550847385
 20
41.0329786986
 11
10.0550847385
 21
40.9351063699
  0
LINE
  5
407
100
AcDbEntity
  8
0
100
AcDbLine
 62
7
  6
CONTINUOUS
 10
10.322033891
 20
42.3053191781
 11
10.322033891
 21
42.55
  0
LINE
  5
408
100
AcDbEntity
  8
0
100
AcDbLine
 62
7
  6
CONTINUOUS
 10
10.4999993137
 20
40.8861702055
 11
10.4999993137
 21
41.081914863
  0
LINE
  5
409
100
AcDbEntity
  8
0
100
AcDbLine
 62
7
  6
CONTINUOUS
 10
10.8439332169
 20
-55.1314552652
 11
10.8439332169
 21
-57.0520555933
  0
LINE
  5
40A
100
AcDbEntity
  8
0
100
AcDbLine
 62
7
  6
CONTINUOUS
 10
10.8625
 20
44.75
 11
10.8625
 21
45.0436170205
  0
LINE
  5
40B
100
AcDbEntity
  8
0
100
AcDbLine
 62
7
  6
CONTINUOUS
 10
11.1778269581
 20
-57.635658324
 11
11.1778269581
 21
-55.1314552652
  0
LINE
  5
40C
100
AcDbEntity
  8
0
100
AcDbLine
 62
7
  6
CONTINUOUS
 10
11.5268976875
 20
-57.3352012005
 11
11.5268976875
 21
-57.635658324
  0
LINE
  5
40D
100
AcDbEntity
  8
0
100
AcDbLine
 62
7
  6
CONTINUOUS
 10
11.6786675699
 20
-55.1314552652
 11
11.6786675699
 21
-55.4198180416
  0
LINE
  5
40E
100
AcDbEntity
  8
0
100
AcDbLine
 62
7
  6
CONTINUOUS
 10
12.0125
 20
45.9244680822
 11
12.0125
 21
44.75
  0
LINE
  5
40F
100
AcDbEntity
  8
0
100
AcDbLine
 62
7
  6
CONTINUOUS
 10
12.3
 20
44.75
 11
12.3
 21
45.9244680822
  0
LINE
  5
410
100
AcDbEntity
  8
0
100
AcDbLine
 62
7
  6
CONTINUOUS
 10
13.418092847
 20
-58.7832721267
 11
13.418092847
 21
-59.0716349032
  0
LINE
  5
411
100
AcDbEntity
  8
0
100
AcDbLine
 62
7
  6
CONTINUOUS
 10
13.4543751934
 20
-55.4198180416
 11
13.4543751934
 21
-55.1314552652
  0
LINE
  5
412
100
AcDbEntity
  8
0
100
AcDbLine
 62
7
  6
CONTINUOUS
 10
13.5
 20
29.75
 11
13.5
 21
56.75
  0
LINE
  5
413
100
AcDbEntity
  8
0
100
AcDbLine
 62
7
  6
CONTINUOUS
 10
13.5150831463
 20
-57.635658324
 11
13.5150831463
 21
-57.3472955475
  0
LINE
  5
414
100
AcDbEntity
  8
0
100
AcDbLine
 62
7
  6
CONTINUOUS
 10
14.2376502117
 20
-59.0716349032
 11
14.2376502117
 21
-61.2874751855
  0
LINE
  5
415
100
AcDbEntity
  8
0
100
AcDbLine
 62
7
  6
CONTINUOUS
 10
14.5715439529
 20
-61.2874751855
 11
14.5715439529
 21
-59.0716349032
  0
LINE
  5
416
100
AcDbEntity
  8
0
100
AcDbLine
 62
7
  6
CONTINUOUS
 10
15.3911013176
 20
-59.0716349032
 11
15.3911013176
 21
-58.7832721267
  0
LINE
  5
417
100
AcDbEntity
  8
0
100
AcDbLine
 62
7
  6
CONTINUOUS
 10
15.7705260235
 20
-58.7832721267
 11
15.7705260235
 21
-61.2874751855
  0
LINE
  5
418
100
AcDbEntity
  8
0
100
AcDbLine
 62
7
  6
CONTINUOUS
 10
16.1044197647
 20
-61.2874751855
 11
16.1044197647
 21
-58.7832721267
  0
LINE
  5
419
100
AcDbEntity
  8
0
100
AcDbLine
 62
7
  6
CONTINUOUS
 10
-6.3971254183
 20
-57.635658324
 11
-6.1331880168
 21
-56.8768089122
  0
LINE
  5
41A
100
AcDbEntity
  8
0
100
AcDbLine
 62
7
  6
CONTINUOUS
 10
-3.4831436772
 20
-53.9686644742
 11
-3.2192062757
 21
-53.2098150625
  0
LINE
  5
41B
100
AcDbEntity
  8
0
100
AcDbLine
 62
7
  6
CONTINUOUS
 10
-6.8735404235
 20
-65.0
 11
-6.609603022
 21
-64.2411505882
  0
LINE
  5
41C
100
AcDbEntity
  8
0
100
AcDbLine
 62
7
  6
CONTINUOUS
 10
-5.1632836341
 20
-53.9686644742
 11
-4.4241169477
 21
-51.8742400978
  0
LINE
  5
41D
100
AcDbEntity
  8
0
100
AcDbLine
 62
7
  6
CONTINUOUS
 10
-4.524664408
 20
-51.4644614154
 11
-5.1440751969
 21
-53.2029378847
  0
LINE
  5
41E
100
AcDbEntity
  8
0
100
AcDbLine
 62
7
  6
CONTINUOUS
 10
-6.0380946384
 20
-56.603623124
 11
-5.7675174348
 21
-55.872519104
  0
LINE
  5
41F
100
AcDbEntity
  8
0
100
AcDbLine
 62
7
  6
CONTINUOUS
 10
-3.1241128972
 20
-52.9366292742
 11
-2.8535356937
 21
-52.2055252543
  0
LINE
  5
420
100
AcDbEntity
  8
0
100
AcDbLine
 62
7
  6
CONTINUOUS
 10
-6.5145096436
 20
-63.9679648
 11
-6.24393244
 21
-63.2368607801
  0
LINE
  5
421
100
AcDbEntity
  8
0
100
AcDbLine
 62
7
  6
CONTINUOUS
 10
-8.0362401477
 20
-51.4644614154
 11
-8.7258444204
 21
-53.27905997
  0
LINE
  5
422
100
AcDbEntity
  8
0
100
AcDbLine
 62
7
  6
CONTINUOUS
 10
-8.0362401477
 20
-55.1314552652
 11
-8.7258444204
 21
-56.9460538197
  0
LINE
  5
423
100
AcDbEntity
  8
0
100
AcDbLine
 62
7
  6
CONTINUOUS
 10
-5.7976342672
 20
-55.1314552652
 11
-6.749515933
 21
-57.635658324
  0
LINE
  5
424
100
AcDbEntity
  8
0
100
AcDbLine
 62
7
  6
CONTINUOUS
 10
-2.8836525261
 20
-51.4644614154
 11
-3.8355341918
 21
-53.9686644742
  0
LINE
  5
425
100
AcDbEntity
  8
0
100
AcDbLine
 62
7
  6
CONTINUOUS
 10
-6.2740492724
 20
-62.4957969412
 11
-7.2259309382
 21
-65.0
  0
LINE
  5
426
100
AcDbEntity
  8
0
100
AcDbLine
 62
7
  6
CONTINUOUS
 10
-8.6779420151
 20
-53.9686644742
 11
-7.6791065203
 21
-51.4644614154
  0
LINE
  5
427
100
AcDbEntity
  8
0
100
AcDbLine
 62
7
  6
CONTINUOUS
 10
-8.6779420151
 20
-57.635658324
 11
-7.6791065203
 21
-55.1314552652
  0
LINE
  5
428
100
AcDbEntity
  8
0
100
AcDbLine
 62
7
  6
CONTINUOUS
 10
-10.52
 20
34.8624440351
 11
-10.39
 21
34.6964865887
  0
LINE
  5
429
100
AcDbEntity
  8
0
100
AcDbLine
 62
7
  6
CONTINUOUS
 10
-11.083333292
 20
36.6879760036
 11
-11.256666708
 21
36.909252573
  0
LINE
  5
42A
100
AcDbEntity
  8
0
100
AcDbLine
 62
7
  6
CONTINUOUS
 10
-8.656666584
 20
34.8624440351
 11
-8.483333416
 21
34.6411674464
  0
LINE
  5
42B
100
AcDbEntity
  8
0
100
AcDbLine
 62
7
  6
CONTINUOUS
 10
-9.306666584
 20
36.6879760036
 11
-9.436666584
 21
36.8539334306
  0
LINE
  5
42C
100
AcDbEntity
  8
0
100
AcDbLine
 62
7
  6
CONTINUOUS
 10
-8.7203390261
 20
40.5436170205
 11
-9.9661016951
 21
42.55
  0
LINE
  5
42D
100
AcDbEntity
  8
0
100
AcDbLine
 62
7
  6
CONTINUOUS
 10
-10.5
 20
42.55
 11
-9.0762711445
 21
40.25
  0
LINE
  5
42E
100
AcDbEntity
  8
0
100
AcDbLine
 62
7
  6
CONTINUOUS
 10
-6.1479164839
 20
46.5117021918
 11
-6.24375
 21
46.7074468493
  0
LINE
  5
42F
100
AcDbEntity
  8
0
100
AcDbLine
 62
7
  6
CONTINUOUS
 10
-2.3135594946
 20
41.1797872603
 11
-2.2245762741
 21
40.9351063699
  0
LINE
  5
430
100
AcDbEntity
  8
0
100
AcDbLine
 62
7
  6
CONTINUOUS
 10
0.8898308439
 20
41.6202127397
 11
0.8008471142
 21
41.8648935616
  0
LINE
  5
431
100
AcDbEntity
  8
0
100
AcDbLine
 62
7
  6
CONTINUOUS
 10
-1.7796606806
 20
40.9351063699
 11
-1.8686444103
 21
41.2287234247
  0
LINE
  5
432
100
AcDbEntity
  8
0
100
AcDbLine
 62
7
  6
CONTINUOUS
 10
0.355932539
 20
41.8648935616
 11
0.4449152504
 21
41.5712765753
  0
LINE
  5
433
100
AcDbEntity
  8
0
100
AcDbLine
 62
7
  6
CONTINUOUS
 10
3.9152542322
 20
40.9351063699
 11
3.8262715208
 21
41.2287234247
  0
LINE
  5
434
100
AcDbEntity
  8
0
100
AcDbLine
 62
7
  6
CONTINUOUS
 10
-2.890758
 20
53.229075
 11
-1.907464
 21
49.79987
  0
LINE
  5
435
100
AcDbEntity
  8
0
100
AcDbLine
 62
7
  6
CONTINUOUS
 10
-1.387451
 20
51.613526
 11
-2.358538
 21
55.000104
  0
LINE
  5
436
100
AcDbEntity
  8
0
100
AcDbLine
 62
7
  6
CONTINUOUS
 10
17.2637992404
 20
-55.7461231729
 11
17.2637992404
 21
-56.0439714802
  0
LINE
  5
437
100
AcDbEntity
  8
0
100
AcDbLine
 62
7
  6
CONTINUOUS
 10
17.8860557581
 20
-55.6726096723
 11
17.8860557581
 21
-57.635658324
  0
LINE
  5
438
100
AcDbEntity
  8
0
100
AcDbLine
 62
7
  6
CONTINUOUS
 10
18.1895955228
 20
-57.635658324
 11
18.1895955228
 21
-55.1162782769
  0
LINE
  5
439
100
AcDbEntity
  8
0
100
AcDbLine
 62
7
  6
CONTINUOUS
 10
18.8725599934
 20
-56.7553930063
 11
18.8725599934
 21
-57.0437557828
  0
LINE
  5
43A
100
AcDbEntity
  8
0
100
AcDbLine
 62
7
  6
CONTINUOUS
 10
19.9804801346
 20
-55.6379871028
 11
19.9804801346
 21
-56.7553930063
  0
LINE
  5
43B
100
AcDbEntity
  8
0
100
AcDbLine
 62
7
  6
CONTINUOUS
 10
19.9804801346
 20
-57.0437557828
 11
19.9804801346
 21
-57.635658324
  0
LINE
  5
43C
100
AcDbEntity
  8
0
100
AcDbLine
 62
7
  6
CONTINUOUS
 10
20.2840198993
 20
-57.635658324
 11
20.2840198993
 21
-57.0437557828
  0
LINE
  5
43D
100
AcDbEntity
  8
0
100
AcDbLine
 62
7
  6
CONTINUOUS
 10
20.2840198993
 20
-56.7553930063
 11
20.2840198993
 21
-55.1314552652
  0
LINE
  5
43E
100
AcDbEntity
  8
0
100
AcDbLine
 62
7
  6
CONTINUOUS
 10
20.6179136404
 20
-57.0437557828
 11
20.6179136404
 21
-56.7553930063
  0
LINE
  5
43F
100
AcDbEntity
  8
0
100
AcDbLine
 62
7
  6
CONTINUOUS
 10
3.7958823059
 20
-61.2874751855
 11
4.0598197074
 21
-60.5286257738
  0
LINE
  5
440
100
AcDbEntity
  8
0
100
AcDbLine
 62
7
  6
CONTINUOUS
 10
6.9738012169
 20
-53.9686644742
 11
7.2377386184
 21
-53.2098150625
  0
LINE
  5
441
100
AcDbEntity
  8
0
100
AcDbLine
 62
7
  6
CONTINUOUS
 10
2.1157423489
 20
-61.2874751855
 11
2.8549090353
 21
-59.1930508091
  0
LINE
  5
442
100
AcDbEntity
  8
0
100
AcDbLine
 62
7
  6
CONTINUOUS
 10
2.7543615751
 20
-58.7832721267
 11
2.1349507861
 21
-60.521748596
  0
LINE
  5
443
100
AcDbEntity
  8
0
100
AcDbLine
 62
7
  6
CONTINUOUS
 10
2.8153064405
 20
-55.1314552652
 11
2.1257021678
 21
-56.9460538197
  0
LINE
  5
444
100
AcDbEntity
  8
0
100
AcDbLine
 62
7
  6
CONTINUOUS
 10
2.1736045731
 20
-57.635658324
 11
3.1724400679
 21
-55.1314552652
  0
LINE
  5
445
100
AcDbEntity
  8
0
100
AcDbLine
 62
7
  6
CONTINUOUS
 10
-10.39
 20
34.6964865887
 11
-10.173333416
 21
34.5305291472
  0
LINE
  5
446
100
AcDbEntity
  8
0
100
AcDbLine
 62
7
  6
CONTINUOUS
 10
-9.436666584
 20
36.8539334306
 11
-9.653333416
 21
37.0198908577
  0
LINE
  5
447
100
AcDbEntity
  8
0
100
AcDbLine
 62
7
  6
CONTINUOUS
 10
-10.13
 20
34.8071248928
 11
-10.26
 21
34.9177631775
  0
LINE
  5
448
100
AcDbEntity
  8
0
100
AcDbLine
 62
7
  6
CONTINUOUS
 10
-11.516666708
 20
36.743295146
 11
-11.386666708
 21
36.6326568613
  0
LINE
  5
449
100
AcDbEntity
  8
0
100
AcDbLine
 62
7
  6
CONTINUOUS
 10
-8.266666832
 20
34.8624440351
 11
-8.396666832
 21
34.9730823586
  0
LINE
  5
44A
100
AcDbEntity
  8
0
100
AcDbLine
 62
7
  6
CONTINUOUS
 10
-9.696666584
 20
36.743295146
 11
-9.566666584
 21
36.6326568613
  0
LINE
  5
44B
100
AcDbEntity
  8
0
100
AcDbLine
 62
7
  6
CONTINUOUS
 10
-6.53125
 20
46.6095745206
 11
-6.4354164839
 21
46.4627658904
  0
LINE
  5
44C
100
AcDbEntity
  8
0
100
AcDbLine
 62
7
  6
CONTINUOUS
 10
0.9916670322
 20
45.0925531849
 11
-0.20625
 21
47.05
  0
LINE
  5
44D
100
AcDbEntity
  8
0
100
AcDbLine
 62
7
  6
CONTINUOUS
 10
-2.2245762741
 20
40.9351063699
 11
-2.1355930536
 21
40.7882978767
  0
LINE
  5
44E
100
AcDbEntity
  8
0
100
AcDbLine
 62
7
  6
CONTINUOUS
 10
0.8008471142
 20
41.8648935616
 11
0.7118644028
 21
42.0117021918
  0
LINE
  5
44F
100
AcDbEntity
  8
0
100
AcDbLine
 62
7
  6
CONTINUOUS
 10
3.4703386387
 20
40.9351063699
 11
3.5593223684
 21
40.7882978767
  0
LINE
  5
450
100
AcDbEntity
  8
0
100
AcDbLine
 62
7
  6
CONTINUOUS
 10
-0.35
 20
46.7563830137
 11
0.8479170322
 21
44.75
  0
LINE
  5
451
100
AcDbEntity
  8
ASSI
100
AcDbLine
 62
7
  6
CONTINUOUS
 10
7.508424
 20
33.453315
 11
7.758672
 21
33.007453
  0
LINE
  5
452
100
AcDbEntity
  8
0
100
AcDbLine
 62
7
  6
CONTINUOUS
 10
3.3813559273
 20
41.1797872603
 11
3.4703386387
 21
40.9351063699
  0
LINE
  5
453
100
AcDbEntity
  8
0
100
AcDbLine
 62
7
  6
CONTINUOUS
 10
6.5847457567
 20
41.6202127397
 11
6.4957630453
 21
41.8648935616
  0
LINE
  5
454
100
AcDbEntity
  8
0
100
AcDbLine
 62
7
  6
CONTINUOUS
 10
8.7541659355
 20
44.75
 11
7.9875
 21
47.05
  0
LINE
  5
455
100
AcDbEntity
  8
0
100
AcDbLine
 62
7
  6
CONTINUOUS
 10
8.275
 20
45.3372340411
 11
8.4666659355
 21
44.75
  0
LINE
  5
456
100
AcDbEntity
  8
0
100
AcDbLine
 62
7
  6
CONTINUOUS
 10
7.7958340645
 20
46.8542553425
 11
8.2270840645
 21
45.5329786986
  0
LINE
  5
457
100
AcDbEntity
  8
0
100
AcDbLine
 62
7
  6
CONTINUOUS
 10
4.860193
 20
50.822541
 11
5.188521
 21
49.799883
  0
LINE
  5
458
100
AcDbEntity
  8
0
100
AcDbLine
 62
7
  6
CONTINUOUS
 10
4.038892
 20
53.380512
 11
4.542941
 21
51.81058
  0
LINE
  5
459
100
AcDbEntity
  8
0
100
AcDbLine
 62
7
  6
CONTINUOUS
 10
6.228573
 20
49.79987
 11
4.558944
 21
55.000117
  0
LINE
  5
45A
100
AcDbEntity
  8
0
100
AcDbLine
 62
7
  6
CONTINUOUS
 10
6.0508474518
 20
41.8648935616
 11
6.1398301632
 21
41.5712765753
  0
LINE
  5
45B
100
AcDbEntity
  8
0
100
AcDbLine
 62
7
  6
CONTINUOUS
 10
24.8767189646
 20
-58.7832721267
 11
24.8767189646
 21
-61.2874751855
  0
LINE
  5
45C
100
AcDbEntity
  8
0
100
AcDbLine
 62
7
  6
CONTINUOUS
 10
25.2106127058
 20
-61.2874751855
 11
25.2106127058
 21
-58.7832721267
  0
LINE
  5
45D
100
AcDbEntity
  8
0
100
AcDbLine
 62
7
  6
CONTINUOUS
 10
13.9400388169
 20
-57.635658324
 11
14.2039762184
 21
-56.8768089122
  0
LINE
  5
45E
100
AcDbEntity
  8
0
100
AcDbLine
 62
7
  6
CONTINUOUS
 10
4.1549130858
 20
-60.2554399855
 11
4.4254902894
 21
-59.5243359656
  0
LINE
  5
45F
100
AcDbEntity
  8
0
100
AcDbLine
 62
7
  6
CONTINUOUS
 10
7.3328319969
 20
-52.9366292742
 11
7.6034092004
 21
-52.2055252543
  0
LINE
  5
460
100
AcDbEntity
  8
0
100
AcDbLine
 62
7
  6
CONTINUOUS
 10
4.3953734569
 20
-58.7832721267
 11
3.4434917912
 21
-61.2874751855
  0
LINE
  5
461
100
AcDbEntity
  8
0
100
AcDbLine
 62
7
  6
CONTINUOUS
 10
7.573292368
 20
-51.4644614154
 11
6.6214107023
 21
-53.9686644742
  0
LINE
  5
462
100
AcDbEntity
  8
0
100
AcDbLine
 62
7
  6
CONTINUOUS
 10
-13.5
 20
29.75
 11
13.5
 21
29.75
  0
LINE
  5
463
100
AcDbEntity
  8
0
100
AcDbLine
 62
7
  6
CONTINUOUS
 10
-10.173333416
 20
34.5305291472
 11
-9.913333416
 21
34.47521
  0
LINE
  5
464
100
AcDbEntity
  8
0
100
AcDbLine
 62
7
  6
CONTINUOUS
 10
-9.913333416
 20
34.7518057505
 11
-10.13
 21
34.8071248928
  0
LINE
  5
465
100
AcDbEntity
  8
0
100
AcDbLine
 62
7
  6
CONTINUOUS
 10
-8.31
 20
34.5305291472
 11
-8.093333168
 21
34.47521
  0
LINE
  5
466
100
AcDbEntity
  8
0
100
AcDbLine
 62
7
  6
CONTINUOUS
 10
-8.093333168
 20
34.8071248928
 11
-8.266666832
 21
34.8624440351
  0
LINE
  5
467
100
AcDbEntity
  8
0
100
AcDbLine
 62
7
  6
CONTINUOUS
 10
-8.483333416
 20
34.6411674464
 11
-8.31
 21
34.5305291472
  0
LINE
  5
468
100
AcDbEntity
  8
0
100
AcDbLine
 62
7
  6
CONTINUOUS
 10
-11.256666708
 20
36.909252573
 11
-11.43
 21
37.0198908577
  0
LINE
  5
469
100
AcDbEntity
  8
0
100
AcDbLine
 62
7
  6
CONTINUOUS
 10
-1.4237288167
 20
40.6414893493
 11
-1.7796606806
 21
40.9351063699
  0
LINE
  5
46A
100
AcDbEntity
  8
ASSI
100
AcDbLine
 62
7
  6
CONTINUOUS
 10
4.752224
 20
36.340998
 11
6.214029
 21
35.109126
  0
LINE
  5
46B
100
AcDbEntity
  8
ASSI
100
AcDbLine
 62
7
  6
CONTINUOUS
 10
6.214029
 20
35.782847
 11
4.684752
 21
37.071578
  0
LINE
  5
46C
100
AcDbEntity
  8
0
100
AcDbLine
 62
7
  6
CONTINUOUS
 10
-6.24375
 20
46.7074468493
 11
-6.4354164839
 21
46.9031915069
  0
LINE
  5
46D
100
AcDbEntity
  8
0
100
AcDbLine
 62
7
  6
CONTINUOUS
 10
-2.1355930536
 20
40.7882978767
 11
-1.9576271216
 21
40.5925531849
  0
LINE
  5
46E
100
AcDbEntity
  8
0
100
AcDbLine
 62
7
  6
CONTINUOUS
 10
0.7118644028
 20
42.0117021918
 11
0.5338979618
 21
42.2074468493
  0
LINE
  5
46F
100
AcDbEntity
  8
0
100
AcDbLine
 62
7
  6
CONTINUOUS
 10
3.5593223684
 20
40.7882978767
 11
3.7372877911
 21
40.5925531849
  0
LINE
  5
470
100
AcDbEntity
  8
0
100
AcDbLine
 62
7
  6
CONTINUOUS
 10
6.4957630453
 20
41.8648935616
 11
6.4067793156
 21
42.0117021918
  0
LINE
  5
471
100
AcDbEntity
  8
0
100
AcDbLine
 62
7
  6
CONTINUOUS
 10
9.9661010088
 20
41.1797872603
 11
10.0550847385
 21
41.0329786986
  0
LINE
  5
472
100
AcDbEntity
  8
0
100
AcDbLine
 62
7
  6
CONTINUOUS
 10
8.869822
 20
51.81058
 11
9.912071
 21
49.799883
  0
LINE
  5
473
100
AcDbEntity
  8
0
100
AcDbLine
 62
7
  6
CONTINUOUS
 10
19.2915872941
 20
-61.2874751855
 11
19.5555246956
 21
-60.5286257738
  0
LINE
  5
474
100
AcDbEntity
  8
0
100
AcDbLine
 62
7
  6
CONTINUOUS
 10
14.2990695968
 20
-56.603623124
 11
14.5696468004
 21
-55.872519104
  0
LINE
  5
475
100
AcDbEntity
  8
0
100
AcDbLine
 62
7
  6
CONTINUOUS
 10
19.650618074
 20
-60.2554399855
 11
19.9211952776
 21
-59.5243359656
  0
LINE
  5
476
100
AcDbEntity
  8
0
100
AcDbLine
 62
7
  6
CONTINUOUS
 10
14.539529968
 20
-55.1314552652
 11
13.5876483023
 21
-57.635658324
  0
LINE
  5
477
100
AcDbEntity
  8
0
100
AcDbLine
 62
7
  6
CONTINUOUS
 10
19.8910784452
 20
-58.7832721267
 11
18.9391967794
 21
-61.2874751855
  0
LINE
  5
478
100
AcDbEntity
  8
0
100
AcDbLine
 62
7
  6
CONTINUOUS
 10
-1.6507593181
 20
-63.9392706004
 11
-0.6490780946
 21
-62.4957969412
  0
LINE
  5
479
100
AcDbEntity
  8
0
100
AcDbLine
 62
7
  6
CONTINUOUS
 10
-7.92
 20
34.47521
 11
-7.703333168
 21
34.5305291472
  0
LINE
  5
47A
100
AcDbEntity
  8
0
100
AcDbLine
 62
7
  6
CONTINUOUS
 10
-9.696666584
 20
34.8071248928
 11
-9.913333416
 21
34.7518057505
  0
LINE
  5
47B
100
AcDbEntity
  8
0
100
AcDbLine
 62
7
  6
CONTINUOUS
 10
-10.13
 20
36.743295146
 11
-9.913333416
 21
36.7986142883
  0
LINE
  5
47C
100
AcDbEntity
  8
0
100
AcDbLine
 62
7
  6
CONTINUOUS
 10
-12.123333323
 20
36.743295146
 11
-11.906666646
 21
36.7986142883
  0
LINE
  5
47D
100
AcDbEntity
  8
0
100
AcDbLine
 62
7
  6
CONTINUOUS
 10
-9.913333416
 20
34.47521
 11
-9.653333416
 21
34.5305291472
  0
LINE
  5
47E
100
AcDbEntity
  8
0
100
AcDbLine
 62
7
  6
CONTINUOUS
 10
-9.913333416
 20
37.07521
 11
-10.173333416
 21
37.0198908577
  0
LINE
  5
47F
100
AcDbEntity
  8
0
100
AcDbLine
 62
7
  6
CONTINUOUS
 10
-11.863333354
 20
37.07521
 11
-12.166666677
 21
37.0198908577
  0
LINE
  5
480
100
AcDbEntity
  8
0
100
AcDbLine
 62
7
  6
CONTINUOUS
 10
9.5211864336
 20
40.5436170205
 11
9.1652535515
 21
40.4946808562
  0
LINE
  5
481
100
AcDbEntity
  8
0
100
AcDbLine
 62
7
  6
CONTINUOUS
 10
8.2754244011
 20
41.4244680822
 11
8.6313552466
 21
41.4734042466
  0
LINE
  5
482
100
AcDbEntity
  8
0
100
AcDbLine
 62
7
  6
CONTINUOUS
 10
9.1652535515
 20
40.25
 11
9.6101701633
 21
40.2989361687
  0
LINE
  5
483
100
AcDbEntity
  8
0
100
AcDbLine
 62
7
  6
CONTINUOUS
 10
5.4279664355
 20
40.5436170205
 11
4.983050842
 21
40.4946808562
  0
LINE
  5
484
100
AcDbEntity
  8
0
100
AcDbLine
 62
7
  6
CONTINUOUS
 10
4.983050842
 20
40.25
 11
5.5169491469
 21
40.2989361687
  0
LINE
  5
485
100
AcDbEntity
  8
0
100
AcDbLine
 62
7
  6
CONTINUOUS
 10
-0.7118640708
 20
40.25
 11
-0.1779657659
 21
40.2989361687
  0
LINE
  5
486
100
AcDbEntity
  8
ASSI
100
AcDbLine
 62
7
  6
CONTINUOUS
 10
5.732239
 20
32.762971
 11
7.274788
 21
32.762971
  0
LINE
  5
487
100
AcDbEntity
  8
ASSI
100
AcDbLine
 62
7
  6
CONTINUOUS
 10
7.274788
 20
33.30662
 11
6.793186
 21
33.30662
  0
LINE
  5
488
100
AcDbEntity
  8
ASSI
100
AcDbLine
 62
7
  6
CONTINUOUS
 10
6.214029
 20
33.30662
 11
5.732239
 21
33.30662
  0
LINE
  5
489
100
AcDbEntity
  8
0
100
AcDbLine
 62
7
  6
CONTINUOUS
 10
-12.6
 20
34.47521
 11
-11.04
 21
34.47521
  0
LINE
  5
48A
100
AcDbEntity
  8
0
100
AcDbLine
 62
7
  6
CONTINUOUS
 10
-8.093333168
 20
34.47521
 11
-7.92
 21
34.47521
  0
LINE
  5
48B
100
AcDbEntity
  8
0
100
AcDbLine
 62
7
  6
CONTINUOUS
 10
-4.92482
 20
34.47521
 11
-4.580327
 21
34.47521
  0
LINE
  5
48C
100
AcDbEntity
  8
0
100
AcDbLine
 62
7
  6
CONTINUOUS
 10
-3.955353
 20
34.47521
 11
-3.610955
 21
34.47521
  0
LINE
  5
48D
100
AcDbEntity
  8
0
100
AcDbLine
 62
7
  6
CONTINUOUS
 10
-0.71335
 20
34.47521
 11
-0.400863
 21
34.47521
  0
LINE
  5
48E
100
AcDbEntity
  8
0
100
AcDbLine
 62
7
  6
CONTINUOUS
 10
-11.04
 20
34.7518057505
 11
-12.253333323
 21
34.7518057505
  0
LINE
  5
48F
100
AcDbEntity
  8
0
100
AcDbLine
 62
7
  6
CONTINUOUS
 10
-7.92
 20
34.8071248928
 11
-8.093333168
 21
34.8071248928
  0
LINE
  5
490
100
AcDbEntity
  8
0
100
AcDbLine
 62
7
  6
CONTINUOUS
 10
-1.803455
 20
35.082457
 11
-0.71335
 21
35.082457
  0
LINE
  5
491
100
AcDbEntity
  8
0
100
AcDbLine
 62
7
  6
CONTINUOUS
 10
-0.400863
 20
35.082457
 11
-0.035064
 21
35.082457
  0
LINE
  5
492
100
AcDbEntity
  8
0
100
AcDbLine
 62
7
  6
CONTINUOUS
 10
-0.035064
 20
35.352304
 11
-0.400863
 21
35.352304
  0
LINE
  5
493
100
AcDbEntity
  8
0
100
AcDbLine
 62
7
  6
CONTINUOUS
 10
-0.71335
 20
35.352304
 11
-1.515873
 21
35.352304
  0
LINE
  5
494
100
AcDbEntity
  8
0
100
AcDbLine
 62
7
  6
CONTINUOUS
 10
-8.526666584
 20
35.360316355
 11
-8.786666584
 21
35.360316355
  0
LINE
  5
495
100
AcDbEntity
  8
0
100
AcDbLine
 62
7
  6
CONTINUOUS
 10
-3.610955
 20
35.551187
 11
-2.8092348557
 21
35.551187
  0
LINE
  5
496
100
AcDbEntity
  8
0
100
AcDbLine
 62
7
  6
CONTINUOUS
 10
-2.8895953055
 20
35.845881
 11
-3.610955
 21
35.845881
  0
LINE
  5
497
100
AcDbEntity
  8
0
100
AcDbLine
 62
7
  6
CONTINUOUS
 10
-12.5566666654
 20
36.4666994342
 11
-12.34
 21
36.4666994342
  0
LINE
  5
498
100
AcDbEntity
  8
0
100
AcDbLine
 62
7
  6
CONTINUOUS
 10
-3.610955
 20
36.730096
 11
-2.8895901017
 21
36.730096
  0
LINE
  5
499
100
AcDbEntity
  8
0
100
AcDbLine
 62
7
  6
CONTINUOUS
 10
-11.906666646
 20
36.7986142883
 11
-11.733333354
 21
36.7986142883
  0
LINE
  5
49A
100
AcDbEntity
  8
0
100
AcDbLine
 62
7
  6
CONTINUOUS
 10
-0.400863
 20
37.02479
 11
-0.621602
 21
37.02479
  0
LINE
  5
49B
100
AcDbEntity
  8
0
100
AcDbLine
 62
7
  6
CONTINUOUS
 10
-2.8092303915
 20
37.02479
 11
-3.955353
 21
37.02479
  0
LINE
  5
49C
100
AcDbEntity
  8
0
100
AcDbLine
 62
7
  6
CONTINUOUS
 10
-4.580327
 20
37.02479
 11
-4.92482
 21
37.02479
  0
LINE
  5
49D
100
AcDbEntity
  8
0
100
AcDbLine
 62
7
  6
CONTINUOUS
 10
-7.226666832
 20
37.07521
 11
-7.486666832
 21
37.07521
  0
LINE
  5
49E
100
AcDbEntity
  8
0
100
AcDbLine
 62
7
  6
CONTINUOUS
 10
-11.69
 20
37.07521
 11
-11.863333354
 21
37.07521
  0
LINE
  5
49F
100
AcDbEntity
  8
ASSI
100
AcDbLine
 62
7
  6
CONTINUOUS
 10
5.749993
 20
37.168974
 11
6.214029
 21
37.168974
  0
LINE
  5
4A0
100
AcDbEntity
  8
ASSI
100
AcDbLine
 62
7
  6
CONTINUOUS
 10
6.793186
 20
37.168974
 11
7.257034
 21
37.168974
  0
LINE
  5
4A1
100
AcDbEntity
  8
ASSI
100
AcDbLine
 62
7
  6
CONTINUOUS
 10
7.257034
 20
37.715613
 11
5.749993
 21
37.715613
  0
LINE
  5
4A2
100
AcDbEntity
  8
0
100
AcDbLine
 62
7
  6
CONTINUOUS
 10
-9.0762711445
 20
40.25
 11
-8.3644067804
 21
40.25
  0
LINE
  5
4A3
100
AcDbEntity
  8
0
100
AcDbLine
 62
7
  6
CONTINUOUS
 10
-5.3389828829
 20
40.25
 11
-4.805084578
 21
40.25
  0
LINE
  5
4A4
100
AcDbEntity
  8
0
100
AcDbLine
 62
7
  6
CONTINUOUS
 10
2.1355928765
 20
40.25
 11
2.6694911814
 21
40.25
  0
LINE
  5
4A5
100
AcDbEntity
  8
0
100
AcDbLine
 62
7
  6
CONTINUOUS
 10
8.6313552466
 20
40.25
 11
9.1652535515
 21
40.25
  0
LINE
  5
4A6
100
AcDbEntity
  8
0
100
AcDbLine
 62
7
  6
CONTINUOUS
 10
-1.2457623757
 20
40.2989361687
 11
-0.7118640708
 21
40.25
  0
LINE
  5
4A7
100
AcDbEntity
  8
0
100
AcDbLine
 62
7
  6
CONTINUOUS
 10
-0.7118640708
 20
40.4946808562
 11
-1.1567796643
 21
40.5436170205
  0
LINE
  5
4A8
100
AcDbEntity
  8
0
100
AcDbLine
 62
7
  6
CONTINUOUS
 10
-11.43
 20
37.0198908577
 11
-11.69
 21
37.07521
  0
LINE
  5
4A9
100
AcDbEntity
  8
0
100
AcDbLine
 62
7
  6
CONTINUOUS
 10
-9.653333416
 20
37.0198908577
 11
-9.913333416
 21
37.07521
  0
LINE
  5
4AA
100
AcDbEntity
  8
0
100
AcDbLine
 62
7
  6
CONTINUOUS
 10
-11.733333354
 20
36.7986142883
 11
-11.516666708
 21
36.743295146
  0
LINE
  5
4AB
100
AcDbEntity
  8
0
100
AcDbLine
 62
7
  6
CONTINUOUS
 10
-9.913333416
 20
36.7986142883
 11
-9.696666584
 21
36.743295146
  0
LINE
  5
4AC
100
AcDbEntity
  8
0
100
AcDbLine
 62
7
  6
CONTINUOUS
 10
-1.6906779692
 20
40.4457446747
 11
-1.2457623757
 21
40.2989361687
  0
LINE
  5
4AD
100
AcDbEntity
  8
0
100
AcDbLine
 62
7
  6
CONTINUOUS
 10
4.0042369436
 20
40.4457446747
 11
4.4491525371
 21
40.2989361687
  0
LINE
  5
4AE
100
AcDbEntity
  8
0
100
AcDbLine
 62
7
  6
CONTINUOUS
 10
-1.1567796643
 20
40.5436170205
 11
-1.4237288167
 21
40.6414893493
  0
LINE
  5
4AF
100
AcDbEntity
  8
0
100
AcDbLine
 62
7
  6
CONTINUOUS
 10
-0.2669494956
 20
42.2563830137
 11
-0.0000003431
 21
42.158510685
  0
LINE
  5
4B0
100
AcDbEntity
  8
0
100
AcDbLine
 62
7
  6
CONTINUOUS
 10
4.5381352485
 20
40.5436170205
 11
4.271186096
 21
40.6414893493
  0
LINE
  5
4B1
100
AcDbEntity
  8
0
100
AcDbLine
 62
7
  6
CONTINUOUS
 10
-6.4354164839
 20
46.9031915069
 11
-6.6270835161
 21
47.0010638356
  0
LINE
  5
4B2
100
AcDbEntity
  8
0
100
AcDbLine
 62
7
  6
CONTINUOUS
 10
-1.9576271216
 20
40.5925531849
 11
-1.6906779692
 21
40.4457446747
  0
LINE
  5
4B3
100
AcDbEntity
  8
0
100
AcDbLine
 62
7
  6
CONTINUOUS
 10
0.5338979618
 20
42.2074468493
 11
0.2669488093
 21
42.3542553425
  0
LINE
  5
4B4
100
AcDbEntity
  8
0
100
AcDbLine
 62
7
  6
CONTINUOUS
 10
3.7372877911
 20
40.5925531849
 11
4.0042369436
 21
40.4457446747
  0
LINE
  5
4B5
100
AcDbEntity
  8
0
100
AcDbLine
 62
7
  6
CONTINUOUS
 10
6.2288138929
 20
42.2074468493
 11
5.9618647404
 21
42.3542553425
  0
LINE
  5
4B6
100
AcDbEntity
  8
0
100
AcDbLine
 62
7
  6
CONTINUOUS
 10
-6.675
 20
46.7074468493
 11
-6.53125
 21
46.6095745206
  0
LINE
  5
4B7
100
AcDbEntity
  8
0
100
AcDbLine
 62
7
  6
CONTINUOUS
 10
7.4745769438
 20
40.6414893493
 11
7.7415260962
 21
40.4457446747
  0
LINE
  5
4B8
100
AcDbEntity
  8
0
100
AcDbLine
 62
7
  6
CONTINUOUS
 10
10.322033891
 20
41.3265957534
 11
10.0550847385
 21
41.5223404109
  0
LINE
  5
4B9
100
AcDbEntity
  8
0
100
AcDbLine
 62
7
  6
CONTINUOUS
 10
-0.0000003431
 20
42.158510685
 11
0.355932539
 21
41.8648935616
  0
LINE
  5
4BA
100
AcDbEntity
  8
0
100
AcDbLine
 62
7
  6
CONTINUOUS
 10
4.271186096
 20
40.6414893493
 11
3.9152542322
 21
40.9351063699
  0
LINE
  5
4BB
100
AcDbEntity
  8
0
100
AcDbLine
 62
7
  6
CONTINUOUS
 10
5.694915588
 20
42.158510685
 11
6.0508474518
 21
41.8648935616
  0
LINE
  5
4BC
100
AcDbEntity
  8
0
100
AcDbLine
 62
7
  6
CONTINUOUS
 10
9.7881355861
 20
41.3265957534
 11
9.9661010088
 21
41.1797872603
  0
LINE
  5
4BD
100
AcDbEntity
  8
0
100
AcDbLine
 62
7
  6
CONTINUOUS
 10
7.2966094844
 20
40.8372340411
 11
7.4745769438
 21
40.6414893493
  0
LINE
  5
4BE
100
AcDbEntity
  8
0
100
AcDbLine
 62
7
  6
CONTINUOUS
 10
6.4067793156
 20
42.0117021918
 11
6.2288138929
 21
42.2074468493
  0
LINE
  5
4BF
100
AcDbEntity
  8
0
100
AcDbLine
 62
7
  6
CONTINUOUS
 10
8.0084752487
 20
40.6414893493
 11
7.8305077892
 21
40.8372340411
  0
LINE
  5
4C0
100
AcDbEntity
  8
0
100
AcDbLine
 62
7
  6
CONTINUOUS
 10
10.4999993137
 20
41.081914863
 11
10.322033891
 21
41.3265957534
  0
LINE
  5
4C1
100
AcDbEntity
  8
0
100
AcDbLine
 62
7
  6
CONTINUOUS
 10
11.2458340645
 20
47.05
 11
12.0125
 21
45.9244680822
  0
LINE
  5
4C2
100
AcDbEntity
  8
0
100
AcDbLine
 62
7
  6
CONTINUOUS
 10
12.15625
 20
46.1202127397
 11
11.5333340645
 21
47.05
  0
LINE
  5
4C3
100
AcDbEntity
  8
0
100
AcDbLine
 62
7
  6
CONTINUOUS
 10
11.083514
 20
49.799896
 11
9.976444921
 21
51.9356570108
  0
LINE
  5
4C4
100
AcDbEntity
  8
0
100
AcDbLine
 62
7
  6
CONTINUOUS
 10
24.2392854588
 20
-58.7832721267
 11
23.5496811861
 21
-60.5978706813
  0
LINE
  5
4C5
100
AcDbEntity
  8
0
100
AcDbLine
 62
7
  6
CONTINUOUS
 10
23.5975835914
 20
-61.2874751855
 11
24.5964190862
 21
-58.7832721267
  0
LINE
  5
4C6
100
AcDbEntity
  8
0
100
AcDbLine
 62
7
  6
CONTINUOUS
 10
12.8057961483
 20
-55.7198006455
 11
11.5268976875
 21
-57.3352012005
  0
LINE
  5
4C7
100
AcDbEntity
  8
0
100
AcDbLine
 62
7
  6
CONTINUOUS
 10
-6.675
 20
45.0925531849
 11
-6.8666664839
 21
45.0436170205
  0
LINE
  5
4C8
100
AcDbEntity
  8
0
100
AcDbLine
 62
7
  6
CONTINUOUS
 10
-6.8666664839
 20
44.75
 11
-6.6270835161
 21
44.7989361687
  0
LINE
  5
4C9
100
AcDbEntity
  8
0
100
AcDbLine
 62
7
  6
CONTINUOUS
 10
-0.2669494956
 20
40.5436170205
 11
-0.7118640708
 21
40.4946808562
  0
LINE
  5
4CA
100
AcDbEntity
  8
0
100
AcDbLine
 62
7
  6
CONTINUOUS
 10
8.6313552466
 20
41.7180850685
 11
8.1864406714
 21
41.6691489041
  0
LINE
  5
4CB
100
AcDbEntity
  8
0
100
AcDbLine
 62
7
  6
CONTINUOUS
 10
4.5381352485
 20
42.2563830137
 11
4.983050842
 21
42.3053191781
  0
LINE
  5
4CC
100
AcDbEntity
  8
0
100
AcDbLine
 62
7
  6
CONTINUOUS
 10
-1.1567796643
 20
42.2563830137
 11
-0.7118640708
 21
42.3053191781
  0
LINE
  5
4CD
100
AcDbEntity
  8
0
100
AcDbLine
 62
7
  6
CONTINUOUS
 10
4.983050842
 20
42.55
 11
4.4491525371
 21
42.5010638356
  0
LINE
  5
4CE
100
AcDbEntity
  8
0
100
AcDbLine
 62
7
  6
CONTINUOUS
 10
-0.7118640708
 20
42.55
 11
-1.2457623757
 21
42.5010638356
  0
LINE
  5
4CF
100
AcDbEntity
  8
0
100
AcDbLine
 62
7
  6
CONTINUOUS
 10
9.1652535515
 20
40.4946808562
 11
8.6313552466
 21
40.4946808562
  0
LINE
  5
4D0
100
AcDbEntity
  8
0
100
AcDbLine
 62
7
  6
CONTINUOUS
 10
7.8305077892
 20
40.8372340411
 11
7.2966094844
 21
40.8372340411
  0
LINE
  5
4D1
100
AcDbEntity
  8
0
100
AcDbLine
 62
7
  6
CONTINUOUS
 10
7.2966094844
 20
41.2776595891
 11
7.919491519
 21
41.2776595891
  0
LINE
  5
4D2
100
AcDbEntity
  8
0
100
AcDbLine
 62
7
  6
CONTINUOUS
 10
8.6313552466
 20
41.4734042466
 11
9.1652535515
 21
41.4734042466
  0
LINE
  5
4D3
100
AcDbEntity
  8
0
100
AcDbLine
 62
7
  6
CONTINUOUS
 10
9.1652535515
 20
41.7180850685
 11
8.6313552466
 21
41.7180850685
  0
LINE
  5
4D4
100
AcDbEntity
  8
0
100
AcDbLine
 62
7
  6
CONTINUOUS
 10
-6.2288135608
 20
42.3053191781
 11
-3.5593220363
 21
42.3053191781
  0
LINE
  5
4D5
100
AcDbEntity
  8
0
100
AcDbLine
 62
7
  6
CONTINUOUS
 10
7.7415260962
 20
42.3053191781
 11
10.322033891
 21
42.3053191781
  0
LINE
  5
4D6
100
AcDbEntity
  8
0
100
AcDbLine
 62
7
  6
CONTINUOUS
 10
10.322033891
 20
42.55
 11
7.2966094844
 21
42.55
  0
LINE
  5
4D7
100
AcDbEntity
  8
0
100
AcDbLine
 62
7
  6
CONTINUOUS
 10
2.6694911814
 20
42.55
 11
2.1355928765
 21
42.55
  0
LINE
  5
4D8
100
AcDbEntity
  8
0
100
AcDbLine
 62
7
  6
CONTINUOUS
 10
-3.0254237314
 20
42.55
 11
-6.2288135608
 21
42.55
  0
LINE
  5
4D9
100
AcDbEntity
  8
0
100
AcDbLine
 62
7
  6
CONTINUOUS
 10
-6.9406780522
 20
42.55
 11
-7.4745763571
 21
42.55
  0
LINE
  5
4DA
100
AcDbEntity
  8
0
100
AcDbLine
 62
7
  6
CONTINUOUS
 10
-9.9661016951
 20
42.55
 11
-10.5
 21
42.55
  0
LINE
  5
4DB
100
AcDbEntity
  8
0
100
AcDbLine
 62
7
  6
CONTINUOUS
 10
-13.0
 20
44.75
 11
-12.7125
 21
44.75
  0
LINE
  5
4DC
100
AcDbEntity
  8
0
100
AcDbLine
 62
7
  6
CONTINUOUS
 10
-12.0416666895
 20
44.75
 11
-11.658333379
 21
44.75
  0
LINE
  5
4DD
100
AcDbEntity
  8
0
100
AcDbLine
 62
7
  6
CONTINUOUS
 10
-10.9875
 20
44.75
 11
-10.7
 21
44.75
  0
LINE
  5
4DE
100
AcDbEntity
  8
0
100
AcDbLine
 62
7
  6
CONTINUOUS
 10
-10.3166667581
 20
44.75
 11
-10.0291667581
 21
44.75
  0
LINE
  5
4DF
100
AcDbEntity
  8
0
100
AcDbLine
 62
7
  6
CONTINUOUS
 10
-8.6875
 20
44.75
 11
-8.4
 21
44.75
  0
LINE
  5
4E0
100
AcDbEntity
  8
0
100
AcDbLine
 62
7
  6
CONTINUOUS
 10
-8.0166664839
 20
44.75
 11
-6.8666664839
 21
44.75
  0
LINE
  5
4E1
100
AcDbEntity
  8
0
100
AcDbLine
 62
7
  6
CONTINUOUS
 10
-5.7166664839
 20
44.75
 11
-3.9916664839
 21
44.75
  0
LINE
  5
4E2
100
AcDbEntity
  8
0
100
AcDbLine
 62
7
  6
CONTINUOUS
 10
-1.3083329678
 20
44.75
 11
-1.0208329678
 21
44.75
  0
LINE
  5
4E3
100
AcDbEntity
  8
0
100
AcDbLine
 62
7
  6
CONTINUOUS
 10
-0.6375
 20
44.75
 11
-0.35
 21
44.75
  0
LINE
  5
4E4
100
AcDbEntity
  8
0
100
AcDbLine
 62
7
  6
CONTINUOUS
 10
0.8479170322
 20
44.75
 11
1.2791670322
 21
44.75
  0
LINE
  5
4E5
100
AcDbEntity
  8
0
100
AcDbLine
 62
7
  6
CONTINUOUS
 10
3.9625
 20
44.75
 11
4.25
 21
44.75
  0
LINE
  5
4E6
100
AcDbEntity
  8
0
100
AcDbLine
 62
7
  6
CONTINUOUS
 10
5.4
 20
44.75
 11
5.6875
 21
44.75
  0
LINE
  5
4E7
100
AcDbEntity
  8
0
100
AcDbLine
 62
7
  6
CONTINUOUS
 10
6.8375
 20
44.75
 11
7.125
 21
44.75
  0
LINE
  5
4E8
100
AcDbEntity
  8
0
100
AcDbLine
 62
7
  6
CONTINUOUS
 10
8.4666659355
 20
44.75
 11
8.7541659355
 21
44.75
  0
LINE
  5
4E9
100
AcDbEntity
  8
0
100
AcDbLine
 62
7
  6
CONTINUOUS
 10
9.1375
 20
44.75
 11
10.8625
 21
44.75
  0
LINE
  5
4EA
100
AcDbEntity
  8
0
100
AcDbLine
 62
7
  6
CONTINUOUS
 10
12.0125
 20
44.75
 11
12.3
 21
44.75
  0
LINE
  5
4EB
100
AcDbEntity
  8
0
100
AcDbLine
 62
7
  6
CONTINUOUS
 10
10.8625
 20
45.0436170205
 11
9.425
 21
45.0436170205
  0
LINE
  5
4EC
100
AcDbEntity
  8
0
100
AcDbLine
 62
7
  6
CONTINUOUS
 10
-3.9916664839
 20
45.0436170205
 11
-5.4291664839
 21
45.0436170205
  0
LINE
  5
4ED
100
AcDbEntity
  8
0
100
AcDbLine
 62
7
  6
CONTINUOUS
 10
-6.8666664839
 20
45.0436170205
 11
-7.7291664839
 21
45.0436170205
  0
LINE
  5
4EE
100
AcDbEntity
  8
0
100
AcDbLine
 62
7
  6
CONTINUOUS
 10
-9.8375
 20
45.3372340411
 11
-8.8791667581
 21
45.3372340411
  0
LINE
  5
4EF
100
AcDbEntity
  8
0
100
AcDbLine
 62
7
  6
CONTINUOUS
 10
7.3166659355
 20
45.3372340411
 11
8.275
 21
45.3372340411
  0
LINE
  5
4F0
100
AcDbEntity
  8
0
100
AcDbLine
 62
7
  6
CONTINUOUS
 10
8.2270840645
 20
45.5329786986
 11
7.3645840645
 21
45.5329786986
  0
LINE
  5
4F1
100
AcDbEntity
  8
0
100
AcDbLine
 62
7
  6
CONTINUOUS
 10
-8.9270832419
 20
45.5329786986
 11
-9.7895832419
 21
45.5329786986
  0
LINE
  5
4F2
100
AcDbEntity
  8
0
100
AcDbLine
 62
7
  6
CONTINUOUS
 10
-5.4291664839
 20
45.8265957534
 11
-4.1833335161
 21
45.8265957534
  0
LINE
  5
4F3
100
AcDbEntity
  8
0
100
AcDbLine
 62
7
  6
CONTINUOUS
 10
-4.1833335161
 20
46.1202127397
 11
-5.4291664839
 21
46.1202127397
  0
LINE
  5
4F4
100
AcDbEntity
  8
0
100
AcDbLine
 62
7
  6
CONTINUOUS
 10
-7.7291664839
 20
46.7563830137
 11
-6.8666664839
 21
46.7563830137
  0
LINE
  5
4F5
100
AcDbEntity
  8
0
100
AcDbLine
 62
7
  6
CONTINUOUS
 10
-5.4291664839
 20
46.7563830137
 11
-3.9916664839
 21
46.7563830137
  0
LINE
  5
4F6
100
AcDbEntity
  8
0
100
AcDbLine
 62
7
  6
CONTINUOUS
 10
4.6333329678
 20
46.8053191781
 11
5.4
 21
46.8053191781
  0
LINE
  5
4F7
100
AcDbEntity
  8
0
100
AcDbLine
 62
7
  6
CONTINUOUS
 10
5.6875
 20
46.8053191781
 11
6.4541659355
 21
46.8053191781
  0
LINE
  5
4F8
100
AcDbEntity
  8
0
100
AcDbLine
 62
7
  6
CONTINUOUS
 10
13.0666659355
 20
47.05
 11
12.7791659355
 21
47.05
  0
LINE
  5
4F9
100
AcDbEntity
  8
0
100
AcDbLine
 62
7
  6
CONTINUOUS
 10
11.5333340645
 20
47.05
 11
11.2458340645
 21
47.05
  0
LINE
  5
4FA
100
AcDbEntity
  8
0
100
AcDbLine
 62
7
  6
CONTINUOUS
 10
9.425
 20
47.05
 11
9.1375
 21
47.05
  0
LINE
  5
4FB
100
AcDbEntity
  8
0
100
AcDbLine
 62
7
  6
CONTINUOUS
 10
7.9875
 20
47.05
 11
7.6041659355
 21
47.05
  0
LINE
  5
4FC
100
AcDbEntity
  8
0
100
AcDbLine
 62
7
  6
CONTINUOUS
 10
6.4541659355
 20
47.05
 11
4.6333329678
 21
47.05
  0
LINE
  5
4FD
100
AcDbEntity
  8
0
100
AcDbLine
 62
7
  6
CONTINUOUS
 10
4.25
 20
47.05
 11
3.9625
 21
47.05
  0
LINE
  5
4FE
100
AcDbEntity
  8
0
100
AcDbLine
 62
7
  6
CONTINUOUS
 10
1.2791670322
 20
47.05
 11
0.9916670322
 21
47.05
  0
LINE
  5
4FF
100
AcDbEntity
  8
0
100
AcDbLine
 62
7
  6
CONTINUOUS
 10
-0.20625
 20
47.05
 11
-0.6375
 21
47.05
  0
LINE
  5
500
100
AcDbEntity
  8
0
100
AcDbLine
 62
7
  6
CONTINUOUS
 10
-1.0208329678
 20
47.05
 11
-1.3083329678
 21
47.05
  0
LINE
  5
501
100
AcDbEntity
  8
0
100
AcDbLine
 62
7
  6
CONTINUOUS
 10
-3.9916664839
 20
47.05
 11
-5.7166664839
 21
47.05
  0
LINE
  5
502
100
AcDbEntity
  8
0
100
AcDbLine
 62
7
  6
CONTINUOUS
 10
-6.8666664839
 20
47.05
 11
-8.0166664839
 21
47.05
  0
LINE
  5
503
100
AcDbEntity
  8
0
100
AcDbLine
 62
7
  6
CONTINUOUS
 10
-9.1666667581
 20
47.05
 11
-9.55
 21
47.05
  0
LINE
  5
504
100
AcDbEntity
  8
0
100
AcDbLine
 62
7
  6
CONTINUOUS
 10
-10.7
 20
47.05
 11
-11.13125
 21
47.05
  0
LINE
  5
505
100
AcDbEntity
  8
0
100
AcDbLine
 62
7
  6
CONTINUOUS
 10
-12.56875
 20
47.05
 11
-13.0
 21
47.05
  0
LINE
  5
506
100
AcDbEntity
  8
0
100
AcDbLine
 62
7
  6
CONTINUOUS
 10
4.4491525371
 20
40.2989361687
 11
4.983050842
 21
40.25
  0
LINE
  5
507
100
AcDbEntity
  8
0
100
AcDbLine
 62
7
  6
CONTINUOUS
 10
-0.1779657659
 20
42.5010638356
 11
-0.7118640708
 21
42.55
  0
LINE
  5
508
100
AcDbEntity
  8
0
100
AcDbLine
 62
7
  6
CONTINUOUS
 10
5.5169491469
 20
42.5010638356
 11
4.983050842
 21
42.55
  0
LINE
  5
509
100
AcDbEntity
  8
0
100
AcDbLine
 62
7
  6
CONTINUOUS
 10
4.983050842
 20
40.4946808562
 11
4.5381352485
 21
40.5436170205
  0
LINE
  5
50A
100
AcDbEntity
  8
0
100
AcDbLine
 62
7
  6
CONTINUOUS
 10
8.1864406714
 20
40.2989361687
 11
8.6313552466
 21
40.25
  0
LINE
  5
50B
100
AcDbEntity
  8
0
100
AcDbLine
 62
7
  6
CONTINUOUS
 10
-0.7118640708
 20
42.3053191781
 11
-0.2669494956
 21
42.2563830137
  0
LINE
  5
50C
100
AcDbEntity
  8
0
100
AcDbLine
 62
7
  6
CONTINUOUS
 10
9.6101701633
 20
41.6691489041
 11
9.1652535515
 21
41.7180850685
  0
LINE
  5
50D
100
AcDbEntity
  8
0
100
AcDbLine
 62
7
  6
CONTINUOUS
 10
4.983050842
 20
42.3053191781
 11
5.4279664355
 21
42.2563830137
  0
LINE
  5
50E
100
AcDbEntity
  8
0
100
AcDbLine
 62
7
  6
CONTINUOUS
 10
8.6313552466
 20
40.4946808562
 11
8.2754244011
 21
40.5436170205
  0
LINE
  5
50F
100
AcDbEntity
  8
0
100
AcDbLine
 62
7
  6
CONTINUOUS
 10
9.1652535515
 20
41.4734042466
 11
9.5211864336
 21
41.4244680822
  0
LINE
  5
510
100
AcDbEntity
  8
0
100
AcDbLine
 62
7
  6
CONTINUOUS
 10
-6.6270835161
 20
47.0010638356
 11
-6.8666664839
 21
47.05
  0
LINE
  5
511
100
AcDbEntity
  8
0
100
AcDbLine
 62
7
  6
CONTINUOUS
 10
-6.8666664839
 20
46.7563830137
 11
-6.675
 21
46.7074468493
  0
LINE
  5
512
100
AcDbEntity
  8
0
100
AcDbLine
 62
7
  6
CONTINUOUS
 10
0.2669488093
 20
42.3542553425
 11
-0.1779657659
 21
42.5010638356
  0
LINE
  5
513
100
AcDbEntity
  8
0
100
AcDbLine
 62
7
  6
CONTINUOUS
 10
7.7415260962
 20
40.4457446747
 11
8.1864406714
 21
40.2989361687
  0
LINE
  5
514
100
AcDbEntity
  8
0
100
AcDbLine
 62
7
  6
CONTINUOUS
 10
5.9618647404
 20
42.3542553425
 11
5.5169491469
 21
42.5010638356
  0
LINE
  5
515
100
AcDbEntity
  8
0
100
AcDbLine
 62
7
  6
CONTINUOUS
 10
10.0550847385
 20
41.5223404109
 11
9.6101701633
 21
41.6691489041
  0
LINE
  5
516
100
AcDbEntity
  8
0
100
AcDbLine
 62
7
  6
CONTINUOUS
 10
8.2754244011
 20
40.5436170205
 11
8.0084752487
 21
40.6414893493
  0
LINE
  5
517
100
AcDbEntity
  8
0
100
AcDbLine
 62
7
  6
CONTINUOUS
 10
5.4279664355
 20
42.2563830137
 11
5.694915588
 21
42.158510685
  0
LINE
  5
518
100
AcDbEntity
  8
0
100
AcDbLine
 62
7
  6
CONTINUOUS
 10
9.5211864336
 20
41.4244680822
 11
9.7881355861
 21
41.3265957534
  0
LINE
  5
519
100
AcDbEntity
  8
0
100
AcDbLine
 62
7
  6
CONTINUOUS
 10
20.0411880875
 20
-55.1314552652
 11
18.8725599934
 21
-56.7553930063
  0
LINE
  5
51A
100
AcDbEntity
  8
0
100
AcDbLine
 62
7
  6
CONTINUOUS
 10
19.1765740462
 20
-56.7553930063
 11
19.9804801346
 21
-55.6379871028
  0
LINE
  5
51B
100
AcDbEntity
  8
0
100
AcDbLine
 62
7
  6
CONTINUOUS
 10
9.912071
 20
49.799883
 11
11.083514
 21
49.799896
  0
LINE
  5
51C
100
AcDbEntity
  8
0
100
AcDbLine
 62
7
  6
CONTINUOUS
 10
1.84925
 20
49.79987
 11
2.889289
 21
49.799883
  0
LINE
  5
51D
100
AcDbEntity
  8
0
100
AcDbLine
 62
7
  6
CONTINUOUS
 10
-3.930797
 20
49.79987
 11
-2.890758
 21
49.79987
  0
LINE
  5
51E
100
AcDbEntity
  8
0
100
AcDbLine
 62
7
  6
CONTINUOUS
 10
0.115856
 20
49.79987
 11
1.155895
 21
49.79987
  0
LINE
  5
51F
100
AcDbEntity
  8
0
100
AcDbLine
 62
7
  6
CONTINUOUS
 10
6.921928
 20
49.799883
 11
7.96198
 21
49.799883
  0
LINE
  5
520
100
AcDbEntity
  8
0
100
AcDbLine
 62
7
  6
CONTINUOUS
 10
-1.907464
 20
49.79987
 11
-0.867451
 21
49.799883
  0
LINE
  5
521
100
AcDbEntity
  8
0
100
AcDbLine
 62
7
  6
CONTINUOUS
 10
-6.010849
 20
49.799857
 11
-4.97081
 21
49.79987
  0
LINE
  5
522
100
AcDbEntity
  8
0
100
AcDbLine
 62
7
  6
CONTINUOUS
 10
5.188521
 20
49.799883
 11
6.228573
 21
49.79987
  0
LINE
  5
523
100
AcDbEntity
  8
0
100
AcDbLine
 62
7
  6
CONTINUOUS
 10
-9.413898
 20
49.799857
 11
-8.37382
 21
49.79987
  0
LINE
  5
524
100
AcDbEntity
  8
0
100
AcDbLine
 62
7
  6
CONTINUOUS
 10
3.21763
 20
50.822541
 11
4.860193
 21
50.822541
  0
LINE
  5
525
100
AcDbEntity
  8
0
100
AcDbLine
 62
7
  6
CONTINUOUS
 10
4.542941
 20
51.81058
 11
3.534869
 21
51.81058
  0
LINE
  5
526
100
AcDbEntity
  8
0
100
AcDbLine
 62
7
  6
CONTINUOUS
 10
7.962097
 20
51.810593
 11
8.869822
 21
51.81058
  0
LINE
  5
527
100
AcDbEntity
  8
0
100
AcDbLine
 62
7
  6
CONTINUOUS
 10
9.213027501
 20
52.772632
 11
7.947641
 21
52.772632
  0
LINE
  5
528
100
AcDbEntity
  8
0
100
AcDbLine
 62
7
  6
CONTINUOUS
 10
7.947628
 20
54.038078
 11
9.212992
 21
54.038078
  0
LINE
  5
529
100
AcDbEntity
  8
0
100
AcDbLine
 62
7
  6
CONTINUOUS
 10
1.155895
 20
55.000104
 11
-0.416364
 21
55.000104
  0
LINE
  5
52A
100
AcDbEntity
  8
0
100
AcDbLine
 62
7
  6
CONTINUOUS
 10
-2.358538
 20
55.000104
 11
-3.930797
 21
55.000104
  0
LINE
  5
52B
100
AcDbEntity
  8
0
100
AcDbLine
 62
7
  6
CONTINUOUS
 10
-4.970797
 20
55.000104
 11
-6.010836
 21
55.000104
  0
LINE
  5
52C
100
AcDbEntity
  8
0
100
AcDbLine
 62
7
  6
CONTINUOUS
 10
-6.704191
 20
55.000104
 11
-7.744243
 21
55.000104
  0
LINE
  5
52D
100
AcDbEntity
  8
0
100
AcDbLine
 62
7
  6
CONTINUOUS
 10
-10.043462
 20
55.000104
 11
-11.083514
 21
55.000104
  0
LINE
  5
52E
100
AcDbEntity
  8
0
100
AcDbLine
 62
7
  6
CONTINUOUS
 10
9.3574087127
 20
55.000117
 11
6.921928
 21
55.000117
  0
LINE
  5
52F
100
AcDbEntity
  8
0
100
AcDbLine
 62
7
  6
CONTINUOUS
 10
4.558944
 20
55.000117
 11
3.518853
 21
55.000117
  0
LINE
  5
530
100
AcDbEntity
  8
0
100
AcDbLine
 62
7
  6
CONTINUOUS
 10
13.5
 20
56.75
 11
-13.5
 21
56.75
  0
LINE
  5
531
100
AcDbEntity
  8
0
100
AcDbLine
 62
250
  6
CONTINUOUS
 10
-83.8913112106
 20
66.5
 11
-82.8913492875
 21
66.5
  0
LINE
  5
532
100
AcDbEntity
  8
0
100
AcDbLine
 62
250
  6
CONTINUOUS
 10
83.8913112106
 20
66.5
 11
82.8913492875
 21
66.5
  0
LINE
  5
533
100
AcDbEntity
  8
0
100
AcDbLine
 62
250
  6
CONTINUOUS
 10
-81.9
 20
66.5
 11
-81.9174537356
 21
66.5
  0
LINE
  5
534
100
AcDbEntity
  8
0
100
AcDbLine
 62
250
  6
CONTINUOUS
 10
81.9
 20
66.5
 11
81.9174537356
 21
66.5
  0
LINE
  5
535
100
AcDbEntity
  8
0
100
AcDbLine
 62
250
  6
CONTINUOUS
 10
82.3868906591
 20
66.5
 11
82.8868716207
 21
66.5
  0
LINE
  5
536
100
AcDbEntity
  8
0
100
AcDbLine
 62
250
  6
CONTINUOUS
 10
-82.3868906591
 20
66.5
 11
-82.8868716207
 21
66.5
  0
LINE
  5
537
100
AcDbEntity
  8
0
100
AcDbLine
 62
250
  6
CONTINUOUS
 10
85.5
 20
66.5
 11
87.0
 21
66.5
  0
LINE
  5
538
100
AcDbEntity
  8
0
100
AcDbLine
 62
250
  6
CONTINUOUS
 10
-85.5
 20
66.5
 11
-87.0
 21
66.5
  0
LINE
  5
539
100
AcDbEntity
  8
0
100
AcDbLine
 62
7
  6
CONTINUOUS
 10
-79.5
 20
68.9
 11
79.5
 21
68.9
  0
LINE
  5
53A
100
AcDbEntity
  8
0
100
AcDbLine
 62
7
  6
CONTINUOUS
 10
-79.5
 20
68.9174537356
 11
79.5
 21
68.9174537356
  0
LINE
  5
53B
100
AcDbEntity
  8
0
100
AcDbLine
 62
250
  6
CONTINUOUS
 10
79.5
 20
69.3868906591
 11
-79.5
 21
69.3868906591
  0
LINE
  5
53C
100
AcDbEntity
  8
0
100
AcDbLine
 62
7
  6
CONTINUOUS
 10
79.5
 20
69.8868716207
 11
-79.5
 21
69.8868716207
  0
LINE
  5
53D
100
AcDbEntity
  8
0
100
AcDbLine
 62
250
  6
CONTINUOUS
 10
79.5
 20
70.8913112106
 11
-79.5
 21
70.8913112106
  0
LINE
  5
53E
100
AcDbEntity
  8
0
100
AcDbLine
 62
250
  6
CONTINUOUS
 10
79.5
 20
70.8913112106
 11
79.5
 21
69.8913492875
  0
LINE
  5
53F
100
AcDbEntity
  8
0
100
AcDbLine
 62
250
  6
CONTINUOUS
 10
79.5
 20
-70.8913112106
 11
79.5
 21
-69.8913492875
  0
LINE
  5
540
100
AcDbEntity
  8
0
100
AcDbLine
 62
250
  6
CONTINUOUS
 10
79.5
 20
-68.9
 11
79.5
 21
-68.9174537356
  0
LINE
  5
541
100
AcDbEntity
  8
0
100
AcDbLine
 62
250
  6
CONTINUOUS
 10
79.5
 20
-69.3868906591
 11
79.5
 21
-69.8868716207
  0
LINE
  5
542
100
AcDbEntity
  8
0
100
AcDbLine
 62
250
  6
CONTINUOUS
 10
79.5
 20
-72.5
 11
79.5
 21
-74.0
  0
LINE
  5
543
100
AcDbEntity
  8
0
100
AcDbLine
 62
250
  6
CONTINUOUS
 10
79.5
 20
68.9
 11
79.5
 21
68.9174537356
  0
LINE
  5
544
100
AcDbEntity
  8
0
100
AcDbLine
 62
250
  6
CONTINUOUS
 10
79.5
 20
69.3868906591
 11
79.5
 21
69.8868716207
  0
LINE
  5
545
100
AcDbEntity
  8
0
100
AcDbLine
 62
250
  6
CONTINUOUS
 10
79.5
 20
72.5
 11
79.5
 21
74.0
  0
LINE
  5
546
100
AcDbEntity
  8
0
100
AcDbLine
 62
250
  6
CONTINUOUS
 10
-79.5
 20
72.5
 11
79.5
 21
72.5
  0
LINE
  5
547
100
AcDbEntity
  8
0
100
AcDbLine
 62
7
  6
CONTINUOUS
 10
-79.5
 20
73.5
 11
79.5
 21
73.5
  0
LINE
  5
548
100
AcDbEntity
  8
0
100
AcDbLine
 62
250
  6
CONTINUOUS
 10
-79.5
 20
74.0
 11
79.5
 21
74.0
  0
LINE
  5
549
100
AcDbEntity
  8
0
100
AcDbLine
 62
7
  6
CONTINUOUS
 10
-79.5
 20
76.5
 11
79.5
 21
76.5
  0
LINE
  5
54A
100
AcDbEntity
  8
0
100
AcDbLine
 62
7
  6
CONTINUOUS
 10
81.9
 20
66.5
 11
81.9
 21
-66.5
  0
LINE
  5
54B
100
AcDbEntity
  8
0
100
AcDbLine
 62
7
  6
CONTINUOUS
 10
81.9174537356
 20
66.5
 11
81.9174537356
 21
-66.5
  0
LINE
  5
54C
100
AcDbEntity
  8
0
100
AcDbLine
 62
250
  6
CONTINUOUS
 10
82.3868906591
 20
-66.5
 11
82.3868906591
 21
66.5
  0
LINE
  5
54D
100
AcDbEntity
  8
0
100
AcDbLine
 62
7
  6
CONTINUOUS
 10
82.8868716207
 20
-66.5
 11
82.8868716207
 21
66.5
  0
LINE
  5
54E
100
AcDbEntity
  8
0
100
AcDbLine
 62
250
  6
CONTINUOUS
 10
83.8913112106
 20
-66.5
 11
83.8913112106
 21
66.5
  0
LINE
  5
54F
100
AcDbEntity
  8
0
100
AcDbLine
 62
250
  6
CONTINUOUS
 10
85.5
 20
66.5
 11
85.5
 21
-66.5
  0
LINE
  5
550
100
AcDbEntity
  8
0
100
AcDbLine
 62
7
  6
CONTINUOUS
 10
86.5
 20
66.5
 11
86.5
 21
-66.5
  0
LINE
  5
551
100
AcDbEntity
  8
0
100
AcDbLine
 62
250
  6
CONTINUOUS
 10
87.0
 20
66.5
 11
87.0
 21
-66.5
  0
LINE
  5
552
100
AcDbEntity
  8
0
100
AcDbLine
 62
7
  6
CONTINUOUS
 10
89.5
 20
66.5
 11
89.5
 21
-66.5
  0
ARC
  5
553
100
AcDbEntity
  8
0
100
AcDbCircle
 62
7
  6
CONTINUOUS
 10
-79.5
 20
-66.5
 40
10.0
100
AcDbArc
 50
180.0
 51
270.0
  0
ARC
  5
554
100
AcDbEntity
  8
0
100
AcDbCircle
 62
250
  6
CONTINUOUS
 10
-79.5
 20
-66.5
 40
7.5
100
AcDbArc
 50
180.0
 51
270.0
  0
ARC
  5
555
100
AcDbEntity
  8
0
100
AcDbCircle
 62
7
  6
CONTINUOUS
 10
-79.5
 20
-66.5
 40
7.0
100
AcDbArc
 50
180.0
 51
270.0
  0
ARC
  5
556
100
AcDbEntity
  8
0
100
AcDbCircle
 62
250
  6
CONTINUOUS
 10
-79.5
 20
-66.5
 40
6.0
100
AcDbArc
 50
180.0
 51
270.0
  0
CIRCLE
  5
557
100
AcDbEntity
  8
RACCORDO
100
AcDbCircle
 62
250
  6
CONTINUOUS
 10
-69.5
 20
-56.5
 40
5.2401747467
  0
ARC
  5
558
100
AcDbEntity
  8
0
100
AcDbCircle
 62
7
  6
CONTINUOUS
 10
-3.8897492875
 20
-55.1336041434
 40
5.1794932403
100
AcDbArc
 50
159.0191965858
 51
163.7921491218
  0
ARC
  5
559
100
AcDbEntity
  8
0
100
AcDbCircle
 62
7
  6
CONTINUOUS
 10
-3.8897492875
 20
-58.8005979932
 40
5.1794932403
100
AcDbArc
 50
159.0191965858
 51
163.7921491218
  0
ARC
  5
55A
100
AcDbEntity
  8
0
100
AcDbCircle
 62
250
  6
CONTINUOUS
 10
-79.5
 20
-66.5
 40
4.3913112106
100
AcDbArc
 50
180.0
 51
270.0
  0
CIRCLE
  5
55B
100
AcDbEntity
  8
RACCORDO
100
AcDbCircle
 62
250
  6
CONTINUOUS
 10
-69.5
 20
-56.5
 40
3.7496451488
  0
ARC
  5
55C
100
AcDbEntity
  8
0
100
AcDbCircle
 62
250
  6
CONTINUOUS
 10
-79.5
 20
-66.5
 40
3.3913492875
100
AcDbArc
 50
180.0
 51
270.0
  0
ARC
  5
55D
100
AcDbEntity
  8
0
100
AcDbCircle
 62
7
  6
CONTINUOUS
 10
-79.5
 20
-66.5
 40
3.3868716207
100
AcDbArc
 50
180.0
 51
270.0
  0
CIRCLE
  5
55E
100
AcDbEntity
  8
ASSI
100
AcDbCircle
 62
7
  6
CONTINUOUS
 10
-69.5
 20
-56.5
 40
3.2
  0
ARC
  5
55F
100
AcDbEntity
  8
0
100
AcDbCircle
 62
250
  6
CONTINUOUS
 10
-79.5
 20
-66.5
 40
2.8868906591
100
AcDbArc
 50
180.0
 51
270.0
  0
ARC
  5
560
100
AcDbEntity
  8
0
100
AcDbCircle
 62
7
  6
CONTINUOUS
 10
-5.4768013928
 20
-51.1145957963
 40
2.8410649431
100
AcDbArc
 50
337.4191892411
 51
347.6454766647
  0
ARC
  5
561
100
AcDbEntity
  8
0
100
AcDbCircle
 62
7
  6
CONTINUOUS
 10
-8.390783134
 20
-54.781589646
 40
2.8410649431
100
AcDbArc
 50
337.4191892411
 51
347.6454766647
  0
ARC
  5
562
100
AcDbEntity
  8
0
100
AcDbCircle
 62
7
  6
CONTINUOUS
 10
-8.8671981392
 20
-62.145931322
 40
2.8410649431
100
AcDbArc
 50
337.4191892411
 51
347.6454766647
  0
ARC
  5
563
100
AcDbEntity
  8
ASSI
100
AcDbCircle
 62
7
  6
CONTINUOUS
 10
-0.967554
 20
-44.0
 40
2.5499985399
100
AcDbArc
 50
87.7525290943
 51
272.2474708978
  0
ARC
  5
564
100
AcDbEntity
  8
0
100
AcDbCircle
 62
7
  6
CONTINUOUS
 10
-79.5
 20
-66.5
 40
2.4174537356
100
AcDbArc
 50
180.0
 51
270.0
  0
ARC
  5
565
100
AcDbEntity
  8
0
100
AcDbCircle
 62
7
  6
CONTINUOUS
 10
-79.5
 20
-66.5
 40
2.4
100
AcDbArc
 50
180.0
 51
270.0
  0
ARC
  5
566
100
AcDbEntity
  8
ASSI
100
AcDbCircle
 62
7
  6
CONTINUOUS
 10
-0.967554
 20
-44.0
 40
1.7999999246
100
AcDbArc
 50
90.1025526385
 51
273.1847386535
  0
CIRCLE
  5
567
100
AcDbEntity
  8
0
100
AcDbCircle
 62
7
  6
CONTINUOUS
 10
-69.5
 20
-56.5
 40
1.65
  0
ARC
  5
568
100
AcDbEntity
  8
0
100
AcDbCircle
 62
7
  6
CONTINUOUS
 10
-79.5
 20
66.5
 40
10.0
100
AcDbArc
 50
90.0
 51
180.0
  0
ARC
  5
569
100
AcDbEntity
  8
0
100
AcDbCircle
 62
250
  6
CONTINUOUS
 10
-79.5
 20
66.5
 40
7.5
100
AcDbArc
 50
90.0
 51
180.0
  0
ARC
  5
56A
100
AcDbEntity
  8
0
100
AcDbCircle
 62
7
  6
CONTINUOUS
 10
-79.5
 20
66.5
 40
7.0
100
AcDbArc
 50
90.0
 51
180.0
  0
ARC
  5
56B
100
AcDbEntity
  8
0
100
AcDbCircle
 62
250
  6
CONTINUOUS
 10
-79.5
 20
66.5
 40
6.0
100
AcDbArc
 50
90.0
 51
180.0
  0
CIRCLE
  5
56C
100
AcDbEntity
  8
RACCORDO
100
AcDbCircle
 62
250
  6
CONTINUOUS
 10
-69.5
 20
56.5
 40
5.2401747467
  0
ARC
  5
56D
100
AcDbEntity
  8
0
100
AcDbCircle
 62
250
  6
CONTINUOUS
 10
-79.5
 20
66.5
 40
4.3913112106
100
AcDbArc
 50
90.0
 51
180.0
  0
CIRCLE
  5
56E
100
AcDbEntity
  8
RACCORDO
100
AcDbCircle
 62
250
  6
CONTINUOUS
 10
-69.5
 20
56.5
 40
3.7496451488
  0
ARC
  5
56F
100
AcDbEntity
  8
0
100
AcDbCircle
 62
250
  6
CONTINUOUS
 10
-79.5
 20
66.5
 40
3.3913492875
100
AcDbArc
 50
90.0
 51
180.0
  0
ARC
  5
570
100
AcDbEntity
  8
0
100
AcDbCircle
 62
7
  6
CONTINUOUS
 10
-79.5
 20
66.5
 40
3.3868716207
100
AcDbArc
 50
90.0
 51
180.0
  0
CIRCLE
  5
571
100
AcDbEntity
  8
ASSI
100
AcDbCircle
 62
7
  6
CONTINUOUS
 10
-69.5
 20
56.5
 40
3.2
  0
ARC
  5
572
100
AcDbEntity
  8
0
100
AcDbCircle
 62
250
  6
CONTINUOUS
 10
-79.5
 20
66.5
 40
2.8868906591
100
AcDbArc
 50
90.0
 51
180.0
  0
ARC
  5
573
100
AcDbEntity
  8
0
100
AcDbCircle
 62
7
  6
CONTINUOUS
 10
-79.5
 20
66.5
 40
2.4174537356
100
AcDbArc
 50
90.0
 51
180.0
  0
ARC
  5
574
100
AcDbEntity
  8
0
100
AcDbCircle
 62
7
  6
CONTINUOUS
 10
-79.5
 20
66.5
 40
2.4
100
AcDbArc
 50
90.0
 51
180.0
  0
CIRCLE
  5
575
100
AcDbEntity
  8
0
100
AcDbCircle
 62
7
  6
CONTINUOUS
 10
-69.5
 20
56.5
 40
1.65
  0
ARC
  5
576
100
AcDbEntity
  8
0
100
AcDbCircle
 62
7
  6
CONTINUOUS
 10
79.5
 20
-66.5
 40
10.0
100
AcDbArc
 50
270.0
 51
360.0
  0
ARC
  5
577
100
AcDbEntity
  8
0
100
AcDbCircle
 62
250
  6
CONTINUOUS
 10
79.5
 20
-66.5
 40
7.5
100
AcDbArc
 50
270.0
 51
360.0
  0
ARC
  5
578
100
AcDbEntity
  8
0
100
AcDbCircle
 62
7
  6
CONTINUOUS
 10
79.5
 20
-66.5
 40
7.0
100
AcDbArc
 50
270.0
 51
360.0
  0
ARC
  5
579
100
AcDbEntity
  8
0
100
AcDbCircle
 62
250
  6
CONTINUOUS
 10
79.5
 20
-66.5
 40
6.0
100
AcDbArc
 50
270.0
 51
360.0
  0
CIRCLE
  5
57A
100
AcDbEntity
  8
RACCORDO
100
AcDbCircle
 62
250
  6
CONTINUOUS
 10
69.5
 20
-56.5
 40
5.2401747467
  0
ARC
  5
57B
100
AcDbEntity
  8
0
100
AcDbCircle
 62
7
  6
CONTINUOUS
 10
28.385776319
 20
-62.4524148547
 40
5.1794932403
100
AcDbArc
 50
159.0191965858
 51
163.7921491218
  0
ARC
  5
57C
100
AcDbEntity
  8
0
100
AcDbCircle
 62
7
  6
CONTINUOUS
 10
6.9617973007
 20
-58.8005979932
 40
5.1794932403
100
AcDbArc
 50
159.0191965858
 51
163.7921491218
  0
ARC
  5
57D
100
AcDbEntity
  8
0
100
AcDbCircle
 62
250
  6
CONTINUOUS
 10
79.5
 20
-66.5
 40
4.3913112106
100
AcDbArc
 50
270.0
 51
360.0
  0
CIRCLE
  5
57E
100
AcDbEntity
  8
RACCORDO
100
AcDbCircle
 62
250
  6
CONTINUOUS
 10
69.5
 20
-56.5
 40
3.7496451488
  0
ARC
  5
57F
100
AcDbEntity
  8
0
100
AcDbCircle
 62
250
  6
CONTINUOUS
 10
79.5
 20
-66.5
 40
3.3913492875
100
AcDbArc
 50
270.0
 51
360.0
  0
ARC
  5
580
100
AcDbEntity
  8
0
100
AcDbCircle
 62
7
  6
CONTINUOUS
 10
79.5
 20
-66.5
 40
3.3868716207
100
AcDbArc
 50
270.0
 51
360.0
  0
CIRCLE
  5
581
100
AcDbEntity
  8
ASSI
100
AcDbCircle
 62
7
  6
CONTINUOUS
 10
69.5
 20
-56.5
 40
3.2
  0
ARC
  5
582
100
AcDbEntity
  8
0
100
AcDbCircle
 62
250
  6
CONTINUOUS
 10
79.5
 20
-66.5
 40
2.8868906591
100
AcDbArc
 50
270.0
 51
360.0
  0
ARC
  5
583
100
AcDbEntity
  8
0
100
AcDbCircle
 62
7
  6
CONTINUOUS
 10
4.9801435013
 20
-51.1145957963
 40
2.8410649431
100
AcDbArc
 50
337.4191892411
 51
347.6454766647
  0
ARC
  5
584
100
AcDbEntity
  8
0
100
AcDbCircle
 62
7
  6
CONTINUOUS
 10
17.2979295784
 20
-58.4334065076
 40
2.8410649431
100
AcDbArc
 50
337.4191892411
 51
347.6454766647
  0
ARC
  5
585
100
AcDbEntity
  8
0
100
AcDbCircle
 62
7
  6
CONTINUOUS
 10
11.9463811012
 20
-54.781589646
 40
2.8410649431
100
AcDbArc
 50
337.4191892411
 51
347.6454766647
  0
ARC
  5
586
100
AcDbEntity
  8
0
100
AcDbCircle
 62
7
  6
CONTINUOUS
 10
1.8022245902
 20
-58.4334065076
 40
2.8410649431
100
AcDbArc
 50
337.4191892411
 51
347.6454766647
  0
ARC
  5
587
100
AcDbEntity
  8
ASSI
100
AcDbCircle
 62
7
  6
CONTINUOUS
 10
3.417556
 20
-44.0
 40
2.5499986575
100
AcDbArc
 50
87.7525289953
 51
272.2474707943
  0
ARC
  5
588
100
AcDbEntity
  8
0
100
AcDbCircle
 62
7
  6
CONTINUOUS
 10
79.5
 20
-66.5
 40
2.4174537356
100
AcDbArc
 50
270.0
 51
360.0
  0
ARC
  5
589
100
AcDbEntity
  8
0
100
AcDbCircle
 62
7
  6
CONTINUOUS
 10
79.5
 20
-66.5
 40
2.4
100
AcDbArc
 50
270.0
 51
360.0
  0
ARC
  5
58A
100
AcDbEntity
  8
ASSI
100
AcDbCircle
 62
7
  6
CONTINUOUS
 10
3.417556
 20
-44.0
 40
1.7999999246
100
AcDbArc
 50
86.8152613297
 51
167.9752999778
  0
ARC
  5
58B
100
AcDbEntity
  8
ASSI
100
AcDbCircle
 62
7
  6
CONTINUOUS
 10
3.417556
 20
-44.0
 40
1.7999968808
100
AcDbArc
 50
192.0247203293
 51
273.1847444946
  0
CIRCLE
  5
58C
100
AcDbEntity
  8
0
100
AcDbCircle
 62
7
  6
CONTINUOUS
 10
69.5
 20
-56.5
 40
1.65
  0
ARC
  5
58D
100
AcDbEntity
  8
0
100
AcDbCircle
 62
7
  6
CONTINUOUS
 10
18.2377517602
 20
-60.0488353275
 40
1.6449561049
100
AcDbArc
 50
196.5290912225
 51
202.9181413189
  0
ARC
  5
58E
100
AcDbEntity
  8
0
100
AcDbCircle
 62
7
  6
CONTINUOUS
 10
5.9199656831
 20
-56.397018466
 40
1.6449561049
100
AcDbArc
 50
196.5290912225
 51
202.9181413189
  0
ARC
  5
58F
100
AcDbEntity
  8
0
100
AcDbCircle
 62
7
  6
CONTINUOUS
 10
79.5
 20
66.5
 40
10.0
100
AcDbArc
 50
0.0
 51
90.0
  0
ARC
  5
590
100
AcDbEntity
  8
0
100
AcDbCircle
 62
250
  6
CONTINUOUS
 10
79.5
 20
66.5
 40
7.5
100
AcDbArc
 50
0.0
 51
90.0
  0
ARC
  5
591
100
AcDbEntity
  8
0
100
AcDbCircle
 62
7
  6
CONTINUOUS
 10
79.5
 20
66.5
 40
7.0
100
AcDbArc
 50
0.0
 51
90.0
  0
ARC
  5
592
100
AcDbEntity
  8
0
100
AcDbCircle
 62
250
  6
CONTINUOUS
 10
79.5
 20
66.5
 40
6.0
100
AcDbArc
 50
0.0
 51
90.0
  0
CIRCLE
  5
593
100
AcDbEntity
  8
RACCORDO
100
AcDbCircle
 62
250
  6
CONTINUOUS
 10
69.5
 20
56.5
 40
5.2401747467
  0
ARC
  5
594
100
AcDbEntity
  8
0
100
AcDbCircle
 62
250
  6
CONTINUOUS
 10
79.5
 20
66.5
 40
4.3913112106
100
AcDbArc
 50
0.0
 51
90.0
  0
CIRCLE
  5
595
100
AcDbEntity
  8
RACCORDO
100
AcDbCircle
 62
250
  6
CONTINUOUS
 10
69.5
 20
56.5
 40
3.7496451488
  0
ARC
  5
596
100
AcDbEntity
  8
ASSI
100
AcDbCircle
 62
7
  6
CONTINUOUS
 10
6.5
 20
35.25
 40
3.4233595751
100
AcDbArc
 50
292.0885368024
 51
273.4298405669
  0
ARC
  5
597
100
AcDbEntity
  8
0
100
AcDbCircle
 62
250
  6
CONTINUOUS
 10
79.5
 20
66.5
 40
3.3913492875
100
AcDbArc
 50
0.0
 51
90.0
  0
ARC
  5
598
100
AcDbEntity
  8
0
100
AcDbCircle
 62
7
  6
CONTINUOUS
 10
79.5
 20
66.5
 40
3.3868716207
100
AcDbArc
 50
0.0
 51
90.0
  0
CIRCLE
  5
599
100
AcDbEntity
  8
ASSI
100
AcDbCircle
 62
7
  6
CONTINUOUS
 10
69.5
 20
56.5
 40
3.2
  0
ARC
  5
59A
100
AcDbEntity
  8
ASSI
100
AcDbCircle
 62
7
  6
CONTINUOUS
 10
6.396458
 20
28.796527
 40
3.051862479
100
AcDbArc
 50
47.231270393
 51
84.2011533667
  0
ARC
  5
59B
100
AcDbEntity
  8
ASSI
100
AcDbCircle
 62
7
  6
CONTINUOUS
 10
6.636638
 20
29.29086
 40
3.0152382548
100
AcDbArc
 50
45.4348897783
 51
67.5658709123
  0
ARC
  5
59C
100
AcDbEntity
  8
0
100
AcDbCircle
 62
250
  6
CONTINUOUS
 10
79.5
 20
66.5
 40
2.8868906591
100
AcDbArc
 50
0.0
 51
90.0
  0
CIRCLE
  5
59D
100
AcDbEntity
  8
ASSI
100
AcDbCircle
 62
7
  6
CONTINUOUS
 10
6.5
 20
35.25
 40
2.875383
  0
ARC
  5
59E
100
AcDbEntity
  8
ASSI
100
AcDbCircle
 62
7
  6
CONTINUOUS
 10
6.5
 20
35.25
 40
2.5716283267
100
AcDbArc
 50
299.3041446576
 51
44.9957783159
  0
ARC
  5
59F
100
AcDbEntity
  8
ASSI
100
AcDbCircle
 62
7
  6
CONTINUOUS
 10
6.5
 20
35.25
 40
2.5716282219
100
AcDbArc
 50
134.9002751525
 51
240.6958553424
  0
ARC
  5
5A0
100
AcDbEntity
  8
0
100
AcDbCircle
 62
7
  6
CONTINUOUS
 10
79.5
 20
66.5
 40
2.4174537356
100
AcDbArc
 50
0.0
 51
90.0
  0
ARC
  5
5A1
100
AcDbEntity
  8
0
100
AcDbCircle
 62
7
  6
CONTINUOUS
 10
79.5
 20
66.5
 40
2.4
100
AcDbArc
 50
0.0
 51
90.0
  0
ARC
  5
5A2
100
AcDbEntity
  8
ASSI
100
AcDbCircle
 62
7
  6
CONTINUOUS
 10
6.5
 20
35.25
 40
2.0603391911
100
AcDbArc
 50
148.0267353487
 51
240.6958433001
  0
ARC
  5
5A3
100
AcDbEntity
  8
ASSI
100
AcDbCircle
 62
7
  6
CONTINUOUS
 10
6.5
 20
35.25
 40
2.0603387957
100
AcDbArc
 50
299.3041566999
 51
31.9732630587
  0
CIRCLE
  5
5A4
100
AcDbEntity
  8
0
100
AcDbCircle
 62
7
  6
CONTINUOUS
 10
69.5
 20
56.5
 40
1.65
  0
ARC
  5
5A5
100
AcDbEntity
  8
0
100
AcDbCircle
 62
7
  6
CONTINUOUS
 10
9.357347
 20
53.405353
 40
1.5947693028
100
AcDbArc
 50
292.8428777305
 51
89.9977828195
  0
ARC
  5
5A6
100
AcDbEntity
  8
0
100
AcDbCircle
 62
7
  6
CONTINUOUS
 10
9.212992
 20
53.405353
 40
0.632725
100
AcDbArc
 50
270.0032147762
 51
90.0
  0
SPLINE
  5
5A7
100
AcDbEntity
  8
0
100
AcDbSpline
 62
7
  6
CONTINUOUS
 70
0
 71
3
 72
9
 73
5
 74
0
 42
0.0000001
 43
0.0000001
 44
0.0000000001
 40
0.0
 40
0.0
 40
0.0
 40
0.0
 40
0.7097160398
 40
1.0
 40
1.0
 40
1.0
 40
1.0
 10
7.7554162268
 20
-51.7224702154
 30
0.0
 10
7.7922485275
 20
-51.8485280073
 30
0.0
 10
7.8515063955
 20
-52.0239696981
 30
0.0
 10
7.9142888455
 20
-52.1980217697
 30
0.0
 10
7.9327972045
 20
-52.2484476343
 30
0.0
  0
SPLINE
  5
5A8
100
AcDbEntity
  8
0
100
AcDbSpline
 62
7
  6
CONTINUOUS
 70
0
 71
3
 72
9
 73
5
 74
0
 42
0.0000001
 43
0.0000001
 44
0.0000000001
 40
0.0
 40
0.0
 40
0.0
 40
0.0
 40
0.8336714283
 40
1.0
 40
1.0
 40
1.0
 40
1.0
 10
5.5450302579
 20
-51.7528241919
 30
0.0
 10
5.6285490242
 20
-51.7528241919
 30
0.0
 10
5.7292912433
 20
-51.753270806
 30
0.0
 10
5.8282374764
 20
-51.7706871124
 30
0.0
 10
5.8443014295
 20
-51.7751152703
 30
0.0
  0
SPLINE
  5
5A9
100
AcDbEntity
  8
0
100
AcDbSpline
 62
7
  6
CONTINUOUS
 70
0
 71
3
 72
17
 73
13
 74
0
 42
0.0000001
 43
0.0000001
 44
0.0000000001
 40
0.0
 40
0.0
 40
0.0
 40
0.0
 40
0.09176738
 40
0.1854935455
 40
0.2845714694
 40
0.3366875922
 40
0.3919669409
 40
0.4667558016
 40
0.5348276636
 40
0.6616161808
 40
0.8052527647
 40
1.0
 40
1.0
 40
1.0
 40
1.0
 10
5.8443014295
 20
-51.7751152703
 30
0.0
 10
5.8847116647
 20
-51.7866283958
 30
0.0
 10
5.9633961198
 20
-51.8240552452
 30
0.0
 10
6.0542565284
 20
-51.9209252441
 30
0.0
 10
6.1023008617
 20
-52.02445771
 30
0.0
 10
6.120983968
 20
-52.1174564805
 30
0.0
 10
6.1258183314
 20
-52.2009221926
 30
0.0
 10
6.1191781784
 20
-52.2919014908
 30
0.0
 10
6.087898096
 20
-52.4117905315
 30
0.0
 10
5.9990157084
 20
-52.5476382143
 30
0.0
 10
5.7969426815
 20
-52.638482978
 30
0.0
 10
5.6408406512
 20
-52.6482664978
 30
0.0
 10
5.55167006
 20
-52.6482664978
 30
0.0
  0
SPLINE
  5
5AA
100
AcDbEntity
  8
0
100
AcDbSpline
 62
7
  6
CONTINUOUS
 70
0
 71
3
 72
16
 73
12
 74
0
 42
0.0000001
 43
0.0000001
 44
0.0000000001
 40
0.0
 40
0.0
 40
0.0
 40
0.0
 40
0.1817932221
 40
0.2741774579
 40
0.3715723252
 40
0.4293106645
 40
0.4852515918
 40
0.5943674147
 40
0.6975878083
 40
0.7935522041
 40
1.0
 40
1.0
 40
1.0
 40
1.0
 10
6.2606013419
 20
-52.7175114053
 30
0.0
 10
6.3241100437
 20
-52.6469376612
 30
0.0
 10
6.4014585163
 20
-52.521004143
 30
0.0
 10
6.4501988429
 20
-52.3323004049
 30
0.0
 10
6.4602009835
 20
-52.2027406123
 30
0.0
 10
6.4548539285
 20
-52.092482033
 30
0.0
 10
6.4365693125
 20
-51.9773315116
 30
0.0
 10
6.3904127582
 20
-51.8437169171
 30
0.0
 10
6.3052618009
 20
-51.705286544
 30
0.0
 10
6.1491643699
 20
-51.5581310094
 30
0.0
 10
5.9918844855
 20
-51.5060820027
 30
0.0
 10
5.8855638011
 20
-51.4881753582
 30
0.0
  0
SPLINE
  5
5AB
100
AcDbEntity
  8
0
100
AcDbSpline
 62
7
  6
CONTINUOUS
 70
0
 71
3
 72
9
 73
5
 74
0
 42
0.0000001
 43
0.0000001
 44
0.0000000001
 40
0.0
 40
0.0
 40
0.0
 40
0.0
 40
0.1935112737
 40
1.0
 40
1.0
 40
1.0
 40
1.0
 10
5.8855638011
 20
-51.4881753582
 30
0.0
 10
5.8618957358
 20
-51.483808571
 30
0.0
 10
5.7385662191
 20
-51.4668810447
 30
0.0
 10
5.6137957975
 20
-51.4644614154
 30
0.0
 10
5.5134905611
 20
-51.4644614154
 30
0.0
  0
SPLINE
  5
5AC
100
AcDbEntity
  8
0
100
AcDbSpline
 62
7
  6
CONTINUOUS
 70
0
 71
3
 72
9
 73
5
 74
0
 42
0.0000001
 43
0.0000001
 44
0.0000000001
 40
0.0
 40
0.0
 40
0.0
 40
0.0
 40
0.3152731366
 40
1.0
 40
1.0
 40
1.0
 40
1.0
 10
5.5481128991
 20
-52.9366292742
 30
0.0
 10
5.6275010344
 20
-52.9366292742
 30
0.0
 10
5.8751380879
 20
-52.9258489359
 30
0.0
 10
6.1452665722
 20
-52.8456766217
 30
0.0
 10
6.2606013419
 20
-52.7175114053
 30
0.0
  0
SPLINE
  5
5AD
100
AcDbEntity
  8
0
100
AcDbSpline
 62
7
  6
CONTINUOUS
 70
0
 71
3
 72
12
 73
8
 74
0
 42
0.0000001
 43
0.0000001
 44
0.0000000001
 40
0.0
 40
0.0
 40
0.0
 40
0.0
 40
0.1606441131
 40
0.3160528741
 40
0.4695579901
 40
0.6257786262
 40
1.0
 40
1.0
 40
1.0
 40
1.0
 10
2.1475189581
 20
-53.1491071095
 30
0.0
 10
2.1497174774
 20
-53.2310575505
 30
0.0
 10
2.1732115687
 20
-53.3928904466
 30
0.0
 10
2.273596656
 20
-53.613800309
 30
0.0
 10
2.4303518053
 20
-53.796869878
 30
0.0
 10
2.7326477861
 20
-53.9814770428
 30
0.0
 10
3.0132442056
 20
-54.0141954389
 30
0.0
 10
3.2042169087
 20
-54.0141954389
 30
0.0
  0
SPLINE
  5
5AE
100
AcDbEntity
  8
0
100
AcDbSpline
 62
7
  6
CONTINUOUS
 70
0
 71
3
 72
16
 73
12
 74
0
 42
0.0000001
 43
0.0000001
 44
0.0000000001
 40
0.0
 40
0.0
 40
0.0
 40
0.0
 40
0.1203129341
 40
0.2330202272
 40
0.338248294
 40
0.4376608643
 40
0.5333866397
 40
0.6266067036
 40
0.7177154286
 40
0.8050016052
 40
1.0
 40
1.0
 40
1.0
 40
1.0
 10
3.2042169087
 20
-54.0141954389
 30
0.0
 10
3.2886419534
 20
-54.0141954389
 30
0.0
 10
3.4528979796
 20
-53.9996656804
 30
0.0
 10
3.6806455505
 20
-53.9264666767
 30
0.0
 10
3.8732841304
 20
-53.8090757694
 30
0.0
 10
4.0139395006
 20
-53.6479989537
 30
0.0
 10
4.1012982185
 20
-53.4623805738
 30
0.0
 10
4.1293276125
 20
-53.2651682015
 30
0.0
 10
4.1045934744
 20
-53.0736939745
 30
0.0
 10
3.9933490011
 20
-52.8314006475
 30
0.0
 10
3.8199044719
 20
-52.7089988377
 30
0.0
 10
3.6958089022
 20
-52.6513491389
 30
0.0
  0
SPLINE
  5
5AF
100
AcDbEntity
  8
0
100
AcDbSpline
 62
7
  6
CONTINUOUS
 70
0
 71
3
 72
9
 73
5
 74
0
 42
0.0000001
 43
0.0000001
 44
0.0000000001
 40
0.0
 40
0.0
 40
0.0
 40
0.0
 40
0.1708537376
 40
1.0
 40
1.0
 40
1.0
 40
1.0
 10
3.6958089022
 20
-52.6513491389
 30
0.0
 10
3.6664829296
 20
-52.6379429996
 30
0.0
 10
3.4897592068
 20
-52.5709261825
 30
0.0
 10
3.3056943621
 20
-52.5265589397
 30
0.0
 10
3.1533502027
 20
-52.490805158
 30
0.0
  0
SPLINE
  5
5B0
100
AcDbEntity
  8
0
100
AcDbSpline
 62
7
  6
CONTINUOUS
 70
0
 71
3
 72
9
 73
5
 74
0
 42
0.0000001
 43
0.0000001
 44
0.0000000001
 40
0.0
 40
0.0
 40
0.0
 40
0.0
 40
0.6350560901
 40
1.0
 40
1.0
 40
1.0
 40
1.0
 10
3.1533502027
 20
-52.490805158
 30
0.0
 10
3.0459848747
 20
-52.4656074969
 30
0.0
 10
2.8808931163
 20
-52.4202391703
 30
0.0
 10
2.7133600195
 20
-52.3541417236
 30
0.0
 10
2.6673308631
 20
-52.3105784516
 30
0.0
  0
SPLINE
  5
5B1
100
AcDbEntity
  8
0
100
AcDbSpline
 62
7
  6
CONTINUOUS
 70
0
 71
3
 72
16
 73
12
 74
0
 42
0.0000001
 43
0.0000001
 44
0.0000000001
 40
0.0
 40
0.0
 40
0.0
 40
0.0
 40
0.1219923656
 40
0.1832732458
 40
0.248197934
 40
0.323728273
 40
0.3974828774
 40
0.4735809367
 40
0.5557901273
 40
0.7471063308
 40
1.0
 40
1.0
 40
1.0
 40
1.0
 10
2.6673308631
 20
-52.3105784516
 30
0.0
 10
2.6373349065
 20
-52.2827572338
 30
0.0
 10
2.5997136696
 20
-52.2310783316
 30
0.0
 10
2.5760830494
 20
-52.1507164837
 30
0.0
 10
2.570253571
 20
-52.0829241803
 30
0.0
 10
2.5777293632
 20
-52.0108875762
 30
0.0
 10
2.6035393231
 20
-51.9389926313
 30
0.0
 10
2.6469941909
 20
-51.8737475664
 30
0.0
 10
2.7302177904
 20
-51.7897998242
 30
0.0
 10
2.8976186789
 20
-51.7169774034
 30
0.0
 10
3.0477891715
 20
-51.7072932272
 30
0.0
 10
3.1326005606
 20
-51.7072932272
 30
0.0
  0
SPLINE
  5
5B2
100
AcDbEntity
  8
0
100
AcDbSpline
 62
7
  6
CONTINUOUS
 70
0
 71
3
 72
9
 73
5
 74
0
 42
0.0000001
 43
0.0000001
 44
0.0000000001
 40
0.0
 40
0.0
 40
0.0
 40
0.0
 40
0.5306823676
 40
1.0
 40
1.0
 40
1.0
 40
1.0
 10
3.1326005606
 20
-51.7072932272
 30
0.0
 10
3.2795806769
 20
-51.7072932272
 30
0.0
 10
3.5923870296
 20
-51.7531146361
 30
0.0
 10
3.7120921103
 20
-52.048533813
 30
0.0
 10
3.7259257346
 20
-52.1777798625
 30
0.0
  0
SPLINE
  5
5B3
100
AcDbEntity
  8
0
100
AcDbSpline
 62
7
  6
CONTINUOUS
 70
0
 71
3
 72
13
 73
9
 74
0
 42
0.0000001
 43
0.0000001
 44
0.0000000001
 40
0.0
 40
0.0
 40
0.0
 40
0.0
 40
0.1571016647
 40
0.3096608808
 40
0.4633596561
 40
0.6259608805
 40
0.8039640154
 40
1.0
 40
1.0
 40
1.0
 40
1.0
 10
4.0598194758
 20
-52.1626028742
 30
0.0
 10
4.0570872658
 20
-52.0924752859
 30
0.0
 10
4.0348478118
 20
-51.9539981771
 30
0.0
 10
3.9452931187
 20
-51.7643426947
 30
0.0
 10
3.8020336223
 20
-51.6067597431
 30
0.0
 10
3.6069986955
 20
-51.4968488715
 30
0.0
 10
3.374567144
 20
-51.4315976538
 30
0.0
 10
3.2068941085
 20
-51.4189304507
 30
0.0
 10
3.1193204933
 20
-51.4189304507
 30
0.0
  0
SPLINE
  5
5B4
100
AcDbEntity
  8
0
100
AcDbSpline
 62
7
  6
CONTINUOUS
 70
0
 71
3
 72
15
 73
11
 74
0
 42
0.0000001
 43
0.0000001
 44
0.0000000001
 40
0.0
 40
0.0
 40
0.0
 40
0.0
 40
0.1249524682
 40
0.2423294566
 40
0.350902176
 40
0.4524669683
 40
0.6444564726
 40
0.7304140431
 40
0.8144496174
 40
1.0
 40
1.0
 40
1.0
 40
1.0
 10
3.1193204933
 20
-51.4189304507
 30
0.0
 10
3.0386524784
 20
-51.4189304507
 30
0.0
 10
2.8816700616
 20
-51.4318940919
 30
0.0
 10
2.662548509
 20
-51.4945776389
 30
0.0
 10
2.4750368064
 20
-51.5987726001
 30
0.0
 10
2.2978127899
 20
-51.7935876957
 30
0.0
 10
2.2219205696
 20
-52.0436127059
 30
0.0
 10
2.252885957
 20
-52.277687833
 30
0.0
 10
2.3484951322
 20
-52.4902965531
 30
0.0
 10
2.4944879913
 20
-52.6042272794
 30
0.0
 10
2.6009316843
 20
-52.6591748929
 30
0.0
  0
SPLINE
  5
5B5
100
AcDbEntity
  8
0
100
AcDbSpline
 62
7
  6
CONTINUOUS
 70
0
 71
3
 72
9
 73
5
 74
0
 42
0.0000001
 43
0.0000001
 44
0.0000000001
 40
0.0
 40
0.0
 40
0.0
 40
0.0
 40
0.1806469784
 40
1.0
 40
1.0
 40
1.0
 40
1.0
 10
2.6009316843
 20
-52.6591748929
 30
0.0
 10
2.6277581942
 20
-52.6731968266
 30
0.0
 10
2.7816223234
 20
-52.7403329269
 30
0.0
 10
2.9444766476
 20
-52.7833405213
 30
0.0
 10
3.0777024056
 20
-52.8165175449
 30
0.0
  0
SPLINE
  5
5B6
100
AcDbEntity
  8
0
100
AcDbSpline
 62
7
  6
CONTINUOUS
 70
0
 71
3
 72
9
 73
5
 74
0
 42
0.0000001
 43
0.0000001
 44
0.0000000001
 40
0.0
 40
0.0
 40
0.0
 40
0.0
 40
0.3500357027
 40
1.0
 40
1.0
 40
1.0
 40
1.0
 10
3.0777024056
 20
-52.8165175449
 30
0.0
 10
3.1287748507
 20
-52.8292360442
 30
0.0
 10
3.2740988486
 20
-52.86719386
 30
0.0
 10
3.4209167118
 20
-52.90315184
 30
0.0
 10
3.5115509784
 20
-52.9397119154
 30
0.0
  0
SPLINE
  5
5B7
100
AcDbEntity
  8
0
100
AcDbSpline
 62
7
  6
CONTINUOUS
 70
0
 71
3
 72
21
 73
17
 74
0
 42
0.0000001
 43
0.0000001
 44
0.0000000001
 40
0.0
 40
0.0
 40
0.0
 40
0.0
 40
0.087943657
 40
0.1580110331
 40
0.2214503177
 40
0.288255512
 40
0.3563384485
 40
0.4263752971
 40
0.5015178583
 40
0.5860339379
 40
0.6807700811
 40
0.7315702884
 40
0.7852200281
 40
0.8459335145
 40
0.9041071268
 40
1.0
 40
1.0
 40
1.0
 40
1.0
 10
3.5115509784
 20
-52.9397119154
 30
0.0
 10
3.5569185381
 20
-52.9576479242
 30
0.0
 10
3.636760191
 20
-52.995734071
 30
0.0
 10
3.7293864268
 20
-53.080455924
 30
0.0
 10
3.7772810922
 20
-53.1833165001
 30
0.0
 10
3.7919129609
 20
-53.2937655932
 30
0.0
 10
3.7749173478
 20
-53.407871688
 30
0.0
 10
3.7214002815
 20
-53.515544246
 30
0.0
 10
3.6310017327
 20
-53.6083580491
 30
0.0
 10
3.5048354179
 20
-53.6752894186
 30
0.0
 10
3.3810827639
 20
-53.7097700476
 30
0.0
 10
3.2713200262
 20
-53.7236084999
 30
0.0
 10
3.1796680399
 20
-53.7271493123
 30
0.0
 10
3.0839091706
 20
-53.7228601748
 30
0.0
 10
2.965817841
 20
-53.7055922309
 30
0.0
 10
2.8835666799
 20
-53.6804214953
 30
0.0
 10
2.8343163513
 20
-53.6598951883
 30
0.0
  0
SPLINE
  5
5B8
100
AcDbEntity
  8
0
100
AcDbSpline
 62
7
  6
CONTINUOUS
 70
0
 71
3
 72
18
 73
14
 74
0
 42
0.0000001
 43
0.0000001
 44
0.0000000001
 40
0.0
 40
0.0
 40
0.0
 40
0.0
 40
0.1519229241
 40
0.2688691096
 40
0.3698366199
 40
0.4199224095
 40
0.4728043776
 40
0.5460050487
 40
0.6198797209
 40
0.6954843994
 40
0.7757756407
 40
0.8738495482
 40
1.0
 40
1.0
 40
1.0
 40
1.0
 10
-0.1029436622
 20
-51.7528241919
 30
0.0
 10
-0.0221778178
 20
-51.7528241919
 30
0.0
 10
0.1223770147
 20
-51.7631018545
 30
0.0
 10
0.306191184
 20
-51.849161401
 30
0.0
 10
0.3950629761
 20
-51.9678012797
 30
0.0
 10
0.4276123295
 20
-52.0719474332
 30
0.0
 10
0.4362444025
 20
-52.1658161874
 30
0.0
 10
0.4214348313
 20
-52.272582261
 30
0.0
 10
0.3703831592
 20
-52.3813260947
 30
0.0
 10
0.2861413886
 20
-52.4729760055
 30
0.0
 10
0.1636941644
 20
-52.5353773844
 30
0.0
 10
0.0038055757
 20
-52.5671778632
 30
0.0
 10
-0.115558324
 20
-52.5723815566
 30
0.0
 10
-0.1826229083
 20
-52.5723815566
 30
0.0
  0
SPLINE
  5
5B9
100
AcDbEntity
  8
0
100
AcDbSpline
 62
7
  6
CONTINUOUS
 70
0
 71
3
 72
12
 73
8
 74
0
 42
0.0000001
 43
0.0000001
 44
0.0000000001
 40
0.0
 40
0.0
 40
0.0
 40
0.0
 40
0.0974412774
 40
0.2003948476
 40
0.4882068918
 40
0.7085912992
 40
1.0
 40
1.0
 40
1.0
 40
1.0
 10
-0.3246701158
 20
-52.8723641604
 30
0.0
 10
-0.2988526886
 20
-52.8785571415
 30
0.0
 10
-0.2469943006
 20
-52.8964124206
 30
0.0
 10
-0.1283807774
 20
-52.9586334405
 30
0.0
 10
-0.0164497092
 20
-53.0876012835
 30
0.0
 10
0.1092743264
 20
-53.2643205084
 30
0.0
 10
0.1858276727
 20
-53.3812327693
 30
0.0
 10
0.2285786384
 20
-53.4481411371
 30
0.0
  0
SPLINE
  5
5BA
100
AcDbEntity
  8
0
100
AcDbSpline
 62
7
  6
CONTINUOUS
 70
0
 71
3
 72
9
 73
5
 74
0
 42
0.0000001
 43
0.0000001
 44
0.0000000001
 40
0.0
 40
0.0
 40
0.0
 40
0.0
 40
0.2659540588
 40
1.0
 40
1.0
 40
1.0
 40
1.0
 10
0.5235812169
 20
-53.2878340686
 30
0.0
 10
0.5028781895
 20
-53.2565666702
 30
0.0
 10
0.4225798041
 20
-53.1406871352
 30
0.0
 10
0.3317223831
 20
-53.0317922525
 30
0.0
 10
0.2582211827
 20
-52.9589203527
 30
0.0
  0
SPLINE
  5
5BB
100
AcDbEntity
  8
0
100
AcDbSpline
 62
7
  6
CONTINUOUS
 70
0
 71
3
 72
9
 73
5
 74
0
 42
0.0000001
 43
0.0000001
 44
0.0000000001
 40
0.0
 40
0.0
 40
0.0
 40
0.0
 40
0.209446698
 40
1.0
 40
1.0
 40
1.0
 40
1.0
 10
0.2582211827
 20
-52.9589203527
 30
0.0
 10
0.2467096627
 20
-52.9477029268
 30
0.0
 10
0.188522799
 20
-52.8974528568
 30
0.0
 10
0.1216263544
 20
-52.8583731815
 30
0.0
 10
0.0677975134
 20
-52.8303903566
 30
0.0
  0
SPLINE
  5
5BC
100
AcDbEntity
  8
0
100
AcDbSpline
 62
7
  6
CONTINUOUS
 70
0
 71
3
 72
21
 73
17
 74
0
 42
0.0000001
 43
0.0000001
 44
0.0000000001
 40
0.0
 40
0.0
 40
0.0
 40
0.0
 40
0.1365200578
 40
0.2486517489
 40
0.3509700259
 40
0.4027637157
 40
0.4573654021
 40
0.5004782595
 40
0.5423967131
 40
0.5839060152
 40
0.6258144236
 40
0.705942642
 40
0.782907869
 40
0.8256733927
 40
0.8758071331
 40
1.0
 40
1.0
 40
1.0
 40
1.0
 10
0.0677975134
 20
-52.8303903566
 30
0.0
 10
0.1738695179
 20
-52.8156600686
 30
0.0
 10
0.3669743199
 20
-52.7716573362
 30
0.0
 10
0.6033457793
 20
-52.6165489591
 30
0.0
 10
0.7172588086
 20
-52.4337766719
 30
0.0
 10
0.7599249985
 20
-52.274920349
 30
0.0
 10
0.7690422893
 20
-52.1573619786
 30
0.0
 10
0.7623181567
 20
-52.0477786718
 30
0.0
 10
0.7429397891
 20
-51.9500992186
 30
0.0
 10
0.7103380034
 20
-51.8569693606
 30
0.0
 10
0.6515335334
 20
-51.7426946938
 30
0.0
 10
0.5520649573
 20
-51.6187317619
 30
0.0
 10
0.4143977549
 20
-51.5367225422
 30
0.0
 10
0.2862022318
 20
-51.4991478783
 30
0.0
 10
0.1181832358
 20
-51.4698752188
 30
0.0
 10
-0.019040492
 20
-51.4644614154
 30
0.0
 10
-0.116460642
 20
-51.4644614154
 30
0.0
  0
SPLINE
  5
5BD
100
AcDbEntity
  8
0
100
AcDbSpline
 62
7
  6
CONTINUOUS
 70
0
 71
3
 72
9
 73
5
 74
0
 42
0.0000001
 43
0.0000001
 44
0.0000000001
 40
0.0
 40
0.0
 40
0.0
 40
0.0
 40
0.3222232674
 40
1.0
 40
1.0
 40
1.0
 40
1.0
 10
-0.5072682628
 20
-52.8607443331
 30
0.0
 10
-0.4876038672
 20
-52.8607443331
 30
0.0
 10
-0.4266789275
 20
-52.8616518478
 30
0.0
 10
-0.3651620988
 20
-52.8639211791
 30
0.0
 10
-0.3246701158
 20
-52.8723641604
 30
0.0
  0
SPLINE
  5
5BE
100
AcDbEntity
  8
0
100
AcDbSpline
 62
7
  6
CONTINUOUS
 70
0
 71
3
 72
9
 73
5
 74
0
 42
0.0000001
 43
0.0000001
 44
0.0000000001
 40
0.0
 40
0.0
 40
0.0
 40
0.0
 40
0.7097160398
 40
1.0
 40
1.0
 40
1.0
 40
1.0
 10
-2.7015286673
 20
-51.7224702154
 30
0.0
 10
-2.6646963666
 20
-51.8485280073
 30
0.0
 10
-2.6054384986
 20
-52.0239696981
 30
0.0
 10
-2.5426560486
 20
-52.1980217697
 30
0.0
 10
-2.5241476896
 20
-52.2484476343
 30
0.0
  0
SPLINE
  5
5BF
100
AcDbEntity
  8
0
100
AcDbSpline
 62
7
  6
CONTINUOUS
 70
0
 71
3
 72
9
 73
5
 74
0
 42
0.0000001
 43
0.0000001
 44
0.0000000001
 40
0.0
 40
0.0
 40
0.0
 40
0.0
 40
0.3106214921
 40
1.0
 40
1.0
 40
1.0
 40
1.0
 10
-5.1440751969
 20
-53.2029378847
 30
0.0
 10
-5.1586960983
 20
-53.2442771835
 30
0.0
 10
-5.2054952892
 20
-53.3774550542
 30
0.0
 10
-5.2516652182
 20
-53.5108762922
 30
0.0
 10
-5.2816166672
 20
-53.6034681803
 30
0.0
  0
SPLINE
  5
5C0
100
AcDbEntity
  8
0
100
AcDbSpline
 62
7
  6
CONTINUOUS
 70
0
 71
3
 72
9
 73
5
 74
0
 42
0.0000001
 43
0.0000001
 44
0.0000000001
 40
0.0
 40
0.0
 40
0.0
 40
0.0
 40
0.1862683768
 40
1.0
 40
1.0
 40
1.0
 40
1.0
 10
-5.2816166672
 20
-53.6034681803
 30
0.0
 10
-5.288709584
 20
-53.5804051138
 30
0.0
 10
-5.3275522791
 20
-53.4568242054
 30
0.0
 10
-5.3681541494
 20
-53.3338056173
 30
0.0
 10
-5.4013725647
 20
-53.2337661493
 30
0.0
  0
SPLINE
  5
5C1
100
AcDbEntity
  8
0
100
AcDbSpline
 62
7
  6
CONTINUOUS
 70
0
 71
3
 72
9
 73
5
 74
0
 42
0.0000001
 43
0.0000001
 44
0.0000000001
 40
0.0
 40
0.0
 40
0.0
 40
0.0
 40
0.2354134851
 40
1.0
 40
1.0
 40
1.0
 40
1.0
 10
-8.8633858908
 20
-53.6878900761
 30
0.0
 10
-8.8723830816
 20
-53.6554115131
 30
0.0
 10
-8.912156992
 20
-53.5178790082
 30
0.0
 10
-8.957670284
 20
-53.3820419338
 30
0.0
 10
-8.9947616156
 20
-53.27905997
 30
0.0
  0
SPLINE
  5
5C2
100
AcDbEntity
  8
0
100
AcDbSpline
 62
7
  6
CONTINUOUS
 70
0
 71
3
 72
9
 73
5
 74
0
 42
0.0000001
 43
0.0000001
 44
0.0000000001
 40
0.0
 40
0.0
 40
0.0
 40
0.0
 40
0.2354134851
 40
1.0
 40
1.0
 40
1.0
 40
1.0
 10
23.4121397157
 20
-61.0067007874
 30
0.0
 10
23.4031425249
 20
-60.9742222244
 30
0.0
 10
23.3633686145
 20
-60.8366897195
 30
0.0
 10
23.3178553225
 20
-60.7008526451
 30
0.0
 10
23.2807639909
 20
-60.5978706813
 30
0.0
  0
SPLINE
  5
5C3
100
AcDbEntity
  8
0
100
AcDbSpline
 62
7
  6
CONTINUOUS
 70
0
 71
3
 72
9
 73
5
 74
0
 42
0.0000001
 43
0.0000001
 44
0.0000000001
 40
0.0
 40
0.0
 40
0.0
 40
0.0
 40
0.7097160398
 40
1.0
 40
1.0
 40
1.0
 40
1.0
 10
20.073202304
 20
-59.0412809267
 30
0.0
 10
20.1100346046
 20
-59.1673387186
 30
0.0
 10
20.1692924726
 20
-59.3427804094
 30
0.0
 10
20.2320749226
 20
-59.516832481
 30
0.0
 10
20.2505832816
 20
-59.5672583456
 30
0.0
  0
SPLINE
  5
5C4
100
AcDbEntity
  8
0
100
AcDbSpline
 62
7
  6
CONTINUOUS
 70
0
 71
3
 72
26
 73
22
 74
0
 42
0.0000001
 43
0.0000001
 44
0.0000000001
 40
0.0
 40
0.0
 40
0.0
 40
0.0
 40
0.0896555928
 40
0.1732903144
 40
0.2152480972
 40
0.2578225541
 40
0.3022775494
 40
0.3497269144
 40
0.392365341
 40
0.4337987014
 40
0.4746908106
 40
0.5157317552
 40
0.5966190081
 40
0.6794627644
 40
0.7231956387
 40
0.7684331139
 40
0.8158711413
 40
0.8661143113
 40
0.9129187838
 40
0.9586187623
 40
1.0
 40
1.0
 40
1.0
 40
1.0
 10
18.7452157176
 20
-59.4709792469
 30
0.0
 10
18.7140211717
 20
-59.3623156815
 30
0.0
 10
18.6269267301
 20
-59.1575983211
 30
0.0
 10
18.4383578098
 20
-58.954201768
 30
0.0
 10
18.2577083042
 20
-58.8413181608
 30
0.0
 10
18.1058560426
 20
-58.7806825381
 30
0.0
 10
17.9393658189
 20
-58.7449381023
 30
0.0
 10
17.7695075271
 20
-58.7343742821
 30
0.0
 10
17.6035722854
 20
-58.7437541517
 30
0.0
 10
17.4481299109
 20
-58.7721514593
 30
0.0
 10
17.2996330017
 20
-58.8200038265
 30
0.0
 10
17.1133655745
 20
-58.907350742
 30
0.0
 10
16.9042071714
 20
-59.066107456
 30
0.0
 10
16.7542474494
 20
-59.2855304565
 30
0.0
 10
16.6694683082
 20
-59.4853488642
 30
0.0
 10
16.6231575503
 20
-59.6515184404
 30
0.0
 10
16.5957465317
 20
-59.8300108685
 30
0.0
 10
16.5872861996
 20
-60.0123015481
 30
0.0
 10
16.5953830895
 20
-60.1923961351
 30
0.0
 10
16.6195012463
 20
-60.3596829481
 30
0.0
 10
16.6458794987
 20
-60.4666903342
 30
0.0
 10
16.6607727985
 20
-60.5168288545
 30
0.0
  0
SPLINE
  5
5C5
100
AcDbEntity
  8
0
100
AcDbSpline
 62
7
  6
CONTINUOUS
 70
0
 71
3
 72
11
 73
7
 74
0
 42
0.0000001
 43
0.0000001
 44
0.0000000001
 40
0.0
 40
0.0
 40
0.0
 40
0.0
 40
0.2450314628
 40
0.4753357612
 40
0.7174932177
 40
1.0
 40
1.0
 40
1.0
 40
1.0
 10
16.7226449491
 20
-60.6894068988
 30
0.0
 10
16.7643030137
 20
-60.7878510243
 30
0.0
 10
16.8687169658
 20
-60.9705416919
 30
0.0
 10
17.1034566544
 20
-61.1863409231
 30
0.0
 10
17.414254978
 20
-61.3129528574
 30
0.0
 10
17.6449530981
 20
-61.3330061502
 30
0.0
 10
17.7681972447
 20
-61.3330061502
 30
0.0
  0
SPLINE
  5
5C6
100
AcDbEntity
  8
0
100
AcDbSpline
 62
7
  6
CONTINUOUS
 70
0
 71
3
 72
11
 73
7
 74
0
 42
0.0000001
 43
0.0000001
 44
0.0000000001
 40
0.0
 40
0.0
 40
0.0
 40
0.0
 40
0.2525992429
 40
0.4888102636
 40
0.730558892
 40
1.0
 40
1.0
 40
1.0
 40
1.0
 10
17.7681972447
 20
-61.3330061502
 30
0.0
 10
17.8899838236
 20
-61.3330061502
 30
0.0
 10
18.1283921836
 20
-61.3021719994
 30
0.0
 10
18.4465639543
 20
-61.1331683459
 30
0.0
 10
18.6856171989
 20
-60.8529204111
 30
0.0
 10
18.7738858706
 20
-60.6182372231
 30
0.0
 10
18.8059236705
 20
-60.4923431958
 30
0.0
  0
SPLINE
  5
5C7
100
AcDbEntity
  8
0
100
AcDbSpline
 62
7
  6
CONTINUOUS
 70
0
 71
3
 72
18
 73
14
 74
0
 42
0.0000001
 43
0.0000001
 44
0.0000000001
 40
0.0
 40
0.0
 40
0.0
 40
0.0
 40
0.1159164268
 40
0.217229043
 40
0.2661318292
 40
0.3148796945
 40
0.3650966775
 40
0.4182723816
 40
0.5929571957
 40
0.6821159461
 40
0.7765883123
 40
0.8819922264
 40
1.0
 40
1.0
 40
1.0
 40
1.0
 10
18.4720299294
 20
-60.4086325007
 30
0.0
 10
18.4512131136
 20
-60.5044332832
 30
0.0
 10
18.3929264585
 20
-60.6819049145
 30
0.0
 10
18.2489199646
 20
-60.8624178025
 30
0.0
 10
18.1090986429
 20
-60.9576832891
 30
0.0
 10
17.9941362654
 20
-61.0086388362
 30
0.0
 10
17.868217516
 20
-61.0384730732
 30
0.0
 10
17.6333959828
 20
-61.0557358015
 30
0.0
 10
17.3581556726
 20
-60.9847448844
 30
0.0
 10
17.122906982
 20
-60.78500709
 30
0.0
 10
17.0040693936
 20
-60.5662901376
 30
0.0
 10
16.9371934882
 20
-60.3042848492
 30
0.0
 10
16.9239771294
 20
-60.1147845098
 30
0.0
 10
16.9239771294
 20
-60.0149793828
 30
0.0
  0
SPLINE
  5
5C8
100
AcDbEntity
  8
0
100
AcDbSpline
 62
7
  6
CONTINUOUS
 70
0
 71
3
 72
15
 73
11
 74
0
 42
0.0000001
 43
0.0000001
 44
0.0000000001
 40
0.0
 40
0.0
 40
0.0
 40
0.0
 40
0.1678404711
 40
0.2512879759
 40
0.33511008
 40
0.4172449098
 40
0.4965963632
 40
0.6544390062
 40
0.8184759151
 40
1.0
 40
1.0
 40
1.0
 40
1.0
 10
16.9239771294
 20
-60.0149793828
 30
0.0
 10
16.9239771294
 20
-59.9335005835
 30
0.0
 10
16.9334854586
 20
-59.8111662341
 30
0.0
 10
16.9663248534
 20
-59.651720819
 30
0.0
 10
16.9994008603
 20
-59.5351179865
 30
0.0
 10
17.0443018485
 20
-59.424359027
 30
0.0
 10
17.1254387136
 20
-59.2915974973
 30
0.0
 10
17.2661119082
 20
-59.1514948721
 30
0.0
 10
17.491045504
 20
-59.0445269512
 30
0.0
 10
17.6606301015
 20
-59.0261039385
 30
0.0
 10
17.7487516634
 20
-59.0261039385
 30
0.0
  0
SPLINE
  5
5C9
100
AcDbEntity
  8
0
100
AcDbSpline
 62
7
  6
CONTINUOUS
 70
0
 71
3
 72
9
 73
5
 74
0
 42
0.0000001
 43
0.0000001
 44
0.0000000001
 40
0.0
 40
0.0
 40
0.0
 40
0.0
 40
0.4786249203
 40
1.0
 40
1.0
 40
1.0
 40
1.0
 10
17.7487516634
 20
-59.0261039385
 30
0.0
 10
17.892379649
 20
-59.0261039385
 30
0.0
 10
18.2145410027
 20
-59.1045747919
 30
0.0
 10
18.3642266355
 20
-59.3986125206
 30
0.0
 10
18.4113219764
 20
-59.5478127643
 30
0.0
  0
SPLINE
  5
5CA
100
AcDbEntity
  8
0
100
AcDbSpline
 62
7
  6
CONTINUOUS
 70
0
 71
3
 72
11
 73
7
 74
0
 42
0.0000001
 43
0.0000001
 44
0.0000000001
 40
0.0
 40
0.0
 40
0.0
 40
0.0
 40
0.2023283395
 40
0.445343536
 40
0.7157738534
 40
1.0
 40
1.0
 40
1.0
 40
1.0
 10
17.9939546842
 20
-55.1162782769
 30
0.0
 10
17.9645612334
 20
-55.1754100598
 30
0.0
 10
17.8810380136
 20
-55.2961502788
 30
0.0
 10
17.7156018543
 20
-55.4620708319
 30
0.0
 10
17.5075038833
 20
-55.6200403536
 30
0.0
 10
17.3478580924
 20
-55.7068906052
 30
0.0
 10
17.2637992404
 20
-55.7461231729
 30
0.0
  0
SPLINE
  5
5CB
100
AcDbEntity
  8
0
100
AcDbSpline
 62
7
  6
CONTINUOUS
 70
0
 71
3
 72
9
 73
5
 74
0
 42
0.0000001
 43
0.0000001
 44
0.0000000001
 40
0.0
 40
0.0
 40
0.0
 40
0.0
 40
0.2212493112
 40
1.0
 40
1.0
 40
1.0
 40
1.0
 10
17.2637992404
 20
-56.0439714802
 30
0.0
 10
17.2890383674
 20
-56.0347336582
 30
0.0
 10
17.4018070742
 20
-55.9894030778
 30
0.0
 10
17.5095268487
 20
-55.9323119653
 30
0.0
 10
17.5912903236
 20
-55.8847317915
 30
0.0
  0
SPLINE
  5
5CC
100
AcDbEntity
  8
0
100
AcDbSpline
 62
7
  6
CONTINUOUS
 70
0
 71
3
 72
9
 73
5
 74
0
 42
0.0000001
 43
0.0000001
 44
0.0000000001
 40
0.0
 40
0.0
 40
0.0
 40
0.0
 40
0.2798369702
 40
1.0
 40
1.0
 40
1.0
 40
1.0
 10
17.5912903236
 20
-55.8847317915
 30
0.0
 10
17.6206008173
 20
-55.8676752955
 30
0.0
 10
17.7240164798
 20
-55.8046325642
 30
0.0
 10
17.8225625791
 20
-55.7324862224
 30
0.0
 10
17.8860557581
 20
-55.6726096723
 30
0.0
  0
SPLINE
  5
5CD
100
AcDbEntity
  8
0
100
AcDbSpline
 62
7
  6
CONTINUOUS
 70
0
 71
3
 72
9
 73
5
 74
0
 42
0.0000001
 43
0.0000001
 44
0.0000000001
 40
0.0
 40
0.0
 40
0.0
 40
0.0
 40
0.7097160398
 40
1.0
 40
1.0
 40
1.0
 40
1.0
 10
14.7216538268
 20
-55.3894640652
 30
0.0
 10
14.7584861275
 20
-55.5155218571
 30
0.0
 10
14.8177439955
 20
-55.6909635479
 30
0.0
 10
14.8805264455
 20
-55.8650156195
 30
0.0
 10
14.8990348045
 20
-55.9154414841
 30
0.0
  0
SPLINE
  5
5CE
100
AcDbEntity
  8
0
100
AcDbSpline
 62
7
  6
CONTINUOUS
 70
0
 71
3
 72
9
 73
5
 74
0
 42
0.0000001
 43
0.0000001
 44
0.0000000001
 40
0.0
 40
0.0
 40
0.0
 40
0.0
 40
0.1806469784
 40
1.0
 40
1.0
 40
1.0
 40
1.0
 10
11.6253113144
 20
-59.9779856042
 30
0.0
 10
11.6521378243
 20
-59.9920075379
 30
0.0
 10
11.8060019534
 20
-60.0591436382
 30
0.0
 10
11.9688562776
 20
-60.1021512326
 30
0.0
 10
12.1020820357
 20
-60.1353282562
 30
0.0
  0
SPLINE
  5
5CF
100
AcDbEntity
  8
0
100
AcDbSpline
 62
7
  6
CONTINUOUS
 70
0
 71
3
 72
9
 73
5
 74
0
 42
0.0000001
 43
0.0000001
 44
0.0000000001
 40
0.0
 40
0.0
 40
0.0
 40
0.0
 40
0.3500357027
 40
1.0
 40
1.0
 40
1.0
 40
1.0
 10
12.1020820357
 20
-60.1353282562
 30
0.0
 10
12.1531544807
 20
-60.1480467555
 30
0.0
 10
12.2984784787
 20
-60.1860045713
 30
0.0
 10
12.4452963419
 20
-60.2219625513
 30
0.0
 10
12.5359306085
 20
-60.2585226267
 30
0.0
  0
SPLINE
  5
5D0
100
AcDbEntity
  8
0
100
AcDbSpline
 62
7
  6
CONTINUOUS
 70
0
 71
3
 72
21
 73
17
 74
0
 42
0.0000001
 43
0.0000001
 44
0.0000000001
 40
0.0
 40
0.0
 40
0.0
 40
0.0
 40
0.087943657
 40
0.1580110331
 40
0.2214503177
 40
0.288255512
 40
0.3563384485
 40
0.4263752971
 40
0.5015178583
 40
0.5860339379
 40
0.6807700811
 40
0.7315702884
 40
0.7852200281
 40
0.8459335145
 40
0.9041071268
 40
1.0
 40
1.0
 40
1.0
 40
1.0
 10
12.5359306085
 20
-60.2585226267
 30
0.0
 10
12.5812981682
 20
-60.2764586355
 30
0.0
 10
12.6611398211
 20
-60.3145447823
 30
0.0
 10
12.7537660569
 20
-60.3992666353
 30
0.0
 10
12.8016607223
 20
-60.5021272114
 30
0.0
 10
12.816292591
 20
-60.6125763045
 30
0.0
 10
12.7992969779
 20
-60.7266823993
 30
0.0
 10
12.7457799116
 20
-60.8343549573
 30
0.0
 10
12.6553813628
 20
-60.9271687604
 30
0.0
 10
12.529215048
 20
-60.9941001299
 30
0.0
 10
12.405462394
 20
-61.0285807589
 30
0.0
 10
12.2956996562
 20
-61.0424192112
 30
0.0
 10
12.20404767
 20
-61.0459600236
 30
0.0
 10
12.1082888007
 20
-61.0416708861
 30
0.0
 10
11.990197471
 20
-61.0244029422
 30
0.0
 10
11.90794631
 20
-60.9992322066
 30
0.0
 10
11.8586959814
 20
-60.9787058996
 30
0.0
  0
SPLINE
  5
5D1
100
AcDbEntity
  8
0
100
AcDbSpline
 62
7
  6
CONTINUOUS
 70
0
 71
3
 72
12
 73
8
 74
0
 42
0.0000001
 43
0.0000001
 44
0.0000000001
 40
0.0
 40
0.0
 40
0.0
 40
0.0
 40
0.1606441131
 40
0.3160528741
 40
0.4695579901
 40
0.6257786262
 40
1.0
 40
1.0
 40
1.0
 40
1.0
 10
11.1718985882
 20
-60.4679178208
 30
0.0
 10
11.1740971074
 20
-60.5498682618
 30
0.0
 10
11.1975911988
 20
-60.7117011579
 30
0.0
 10
11.2979762861
 20
-60.9326110203
 30
0.0
 10
11.4547314353
 20
-61.1156805893
 30
0.0
 10
11.7570274162
 20
-61.3002877541
 30
0.0
 10
12.0376238357
 20
-61.3330061502
 30
0.0
 10
12.2285965388
 20
-61.3330061502
 30
0.0
  0
SPLINE
  5
5D2
100
AcDbEntity
  8
0
100
AcDbSpline
 62
7
  6
CONTINUOUS
 70
0
 71
3
 72
16
 73
12
 74
0
 42
0.0000001
 43
0.0000001
 44
0.0000000001
 40
0.0
 40
0.0
 40
0.0
 40
0.0
 40
0.1203129341
 40
0.2330202272
 40
0.338248294
 40
0.4376608643
 40
0.5333866397
 40
0.6266067036
 40
0.7177154286
 40
0.8050016052
 40
1.0
 40
1.0
 40
1.0
 40
1.0
 10
12.2285965388
 20
-61.3330061502
 30
0.0
 10
12.3130215835
 20
-61.3330061502
 30
0.0
 10
12.4772776097
 20
-61.3184763917
 30
0.0
 10
12.7050251805
 20
-61.245277388
 30
0.0
 10
12.8976637604
 20
-61.1278864807
 30
0.0
 10
13.0383191307
 20
-60.966809665
 30
0.0
 10
13.1256778486
 20
-60.7811912851
 30
0.0
 10
13.1537072426
 20
-60.5839789128
 30
0.0
 10
13.1289731045
 20
-60.3925046858
 30
0.0
 10
13.0177286312
 20
-60.1502113588
 30
0.0
 10
12.844284102
 20
-60.027809549
 30
0.0
 10
12.7201885323
 20
-59.9701598502
 30
0.0
  0
SPLINE
  5
5D3
100
AcDbEntity
  8
0
100
AcDbSpline
 62
7
  6
CONTINUOUS
 70
0
 71
3
 72
9
 73
5
 74
0
 42
0.0000001
 43
0.0000001
 44
0.0000000001
 40
0.0
 40
0.0
 40
0.0
 40
0.0
 40
0.1708537376
 40
1.0
 40
1.0
 40
1.0
 40
1.0
 10
12.7201885323
 20
-59.9701598502
 30
0.0
 10
12.6908625597
 20
-59.9567537109
 30
0.0
 10
12.5141388369
 20
-59.8897368938
 30
0.0
 10
12.3300739922
 20
-59.845369651
 30
0.0
 10
12.1777298328
 20
-59.8096158693
 30
0.0
  0
SPLINE
  5
5D4
100
AcDbEntity
  8
0
100
AcDbSpline
 62
7
  6
CONTINUOUS
 70
0
 71
3
 72
9
 73
5
 74
0
 42
0.0000001
 43
0.0000001
 44
0.0000000001
 40
0.0
 40
0.0
 40
0.0
 40
0.0
 40
0.6350560901
 40
1.0
 40
1.0
 40
1.0
 40
1.0
 10
12.1777298328
 20
-59.8096158693
 30
0.0
 10
12.0703645048
 20
-59.7844182082
 30
0.0
 10
11.9052727464
 20
-59.7390498816
 30
0.0
 10
11.7377396496
 20
-59.6729524349
 30
0.0
 10
11.6917104932
 20
-59.6293891629
 30
0.0
  0
SPLINE
  5
5D5
100
AcDbEntity
  8
0
100
AcDbSpline
 62
7
  6
CONTINUOUS
 70
0
 71
3
 72
16
 73
12
 74
0
 42
0.0000001
 43
0.0000001
 44
0.0000000001
 40
0.0
 40
0.0
 40
0.0
 40
0.0
 40
0.1219923656
 40
0.1832732458
 40
0.248197934
 40
0.323728273
 40
0.3974828774
 40
0.4735809367
 40
0.5557901273
 40
0.7471063308
 40
1.0
 40
1.0
 40
1.0
 40
1.0
 10
11.6917104932
 20
-59.6293891629
 30
0.0
 10
11.6617145366
 20
-59.6015679451
 30
0.0
 10
11.6240932997
 20
-59.5498890429
 30
0.0
 10
11.6004626795
 20
-59.469527195
 30
0.0
 10
11.594633201
 20
-59.4017348916
 30
0.0
 10
11.6021089933
 20
-59.3296982875
 30
0.0
 10
11.6279189532
 20
-59.2578033426
 30
0.0
 10
11.671373821
 20
-59.1925582777
 30
0.0
 10
11.7545974205
 20
-59.1086105355
 30
0.0
 10
11.9219983089
 20
-59.0357881147
 30
0.0
 10
12.0721688016
 20
-59.0261039385
 30
0.0
 10
12.1569801907
 20
-59.0261039385
 30
0.0
  0
SPLINE
  5
5D6
100
AcDbEntity
  8
0
100
AcDbSpline
 62
7
  6
CONTINUOUS
 70
0
 71
3
 72
9
 73
5
 74
0
 42
0.0000001
 43
0.0000001
 44
0.0000000001
 40
0.0
 40
0.0
 40
0.0
 40
0.0
 40
0.5306823676
 40
1.0
 40
1.0
 40
1.0
 40
1.0
 10
12.1569801907
 20
-59.0261039385
 30
0.0
 10
12.303960307
 20
-59.0261039385
 30
0.0
 10
12.6167666597
 20
-59.0719253474
 30
0.0
 10
12.7364717404
 20
-59.3673445243
 30
0.0
 10
12.7503053647
 20
-59.4965905738
 30
0.0
  0
SPLINE
  5
5D7
100
AcDbEntity
  8
0
100
AcDbSpline
 62
7
  6
CONTINUOUS
 70
0
 71
3
 72
13
 73
9
 74
0
 42
0.0000001
 43
0.0000001
 44
0.0000000001
 40
0.0
 40
0.0
 40
0.0
 40
0.0
 40
0.1571016647
 40
0.3096608808
 40
0.4633596561
 40
0.6259608805
 40
0.8039640154
 40
1.0
 40
1.0
 40
1.0
 40
1.0
 10
13.0841991058
 20
-59.4814135855
 30
0.0
 10
13.0814668958
 20
-59.4112859972
 30
0.0
 10
13.0592274419
 20
-59.2728088884
 30
0.0
 10
12.9696727488
 20
-59.083153406
 30
0.0
 10
12.8264132524
 20
-58.9255704544
 30
0.0
 10
12.6313783256
 20
-58.8156595828
 30
0.0
 10
12.3989467741
 20
-58.7504083651
 30
0.0
 10
12.2312737386
 20
-58.737741162
 30
0.0
 10
12.1437001234
 20
-58.737741162
 30
0.0
  0
SPLINE
  5
5D8
100
AcDbEntity
  8
0
100
AcDbSpline
 62
7
  6
CONTINUOUS
 70
0
 71
3
 72
15
 73
11
 74
0
 42
0.0000001
 43
0.0000001
 44
0.0000000001
 40
0.0
 40
0.0
 40
0.0
 40
0.0
 40
0.1249524682
 40
0.2423294566
 40
0.350902176
 40
0.4524669683
 40
0.6444564726
 40
0.7304140431
 40
0.8144496174
 40
1.0
 40
1.0
 40
1.0
 40
1.0
 10
12.1437001234
 20
-58.737741162
 30
0.0
 10
12.0630321085
 20
-58.737741162
 30
0.0
 10
11.9060496917
 20
-58.7507048032
 30
0.0
 10
11.686928139
 20
-58.8133883502
 30
0.0
 10
11.4994164364
 20
-58.9175833114
 30
0.0
 10
11.32219242
 20
-59.112398407
 30
0.0
 10
11.2463001997
 20
-59.3624234172
 30
0.0
 10
11.2772655871
 20
-59.5964985443
 30
0.0
 10
11.3728747623
 20
-59.8091072644
 30
0.0
 10
11.5188676214
 20
-59.9230379907
 30
0.0
 10
11.6253113144
 20
-59.9779856042
 30
0.0
  0
SPLINE
  5
5D9
100
AcDbEntity
  8
0
100
AcDbSpline
 62
7
  6
CONTINUOUS
 70
0
 71
3
 72
21
 73
17
 74
0
 42
0.0000001
 43
0.0000001
 44
0.0000000001
 40
0.0
 40
0.0
 40
0.0
 40
0.0
 40
0.1125495645
 40
0.1681371967
 40
0.2259536191
 40
0.26704625
 40
0.3067901304
 40
0.3852150722
 40
0.4635807736
 40
0.5444690013
 40
0.6321341933
 40
0.6793404105
 40
0.7294223519
 40
0.8066476434
 40
0.8761112543
 40
1.0
 40
1.0
 40
1.0
 40
1.0
 10
9.0433260461
 20
-59.2673943138
 30
0.0
 10
9.123677298
 20
-59.1911281084
 30
0.0
 10
9.2658802986
 20
-59.0963472699
 30
0.0
 10
9.4810604272
 20
-59.0355234253
 30
0.0
 10
9.6334873291
 20
-59.0226324326
 30
0.0
 10
9.7700543447
 20
-59.0310305925
 30
0.0
 10
9.9241627554
 20
-59.0622128423
 30
0.0
 10
10.1036250974
 20
-59.1418128707
 30
0.0
 10
10.2841415373
 20
-59.2962178806
 30
0.0
 10
10.4132860478
 20
-59.5061476603
 30
0.0
 10
10.4753189415
 20
-59.7113274431
 30
0.0
 10
10.500197126
 20
-59.8919087908
 30
0.0
 10
10.5071480701
 20
-60.0637186104
 30
0.0
 10
10.4954518889
 20
-60.2578182584
 30
0.0
 10
10.4393077258
 20
-60.5187011074
 30
0.0
 10
10.3445692836
 20
-60.6925098943
 30
0.0
 10
10.2618721542
 20
-60.7821288366
 30
0.0
  0
SPLINE
  5
5DA
100
AcDbEntity
  8
0
100
AcDbSpline
 62
7
  6
CONTINUOUS
 70
0
 71
3
 72
17
 73
13
 74
0
 42
0.0000001
 43
0.0000001
 44
0.0000000001
 40
0.0
 40
0.0
 40
0.0
 40
0.0
 40
0.1581267217
 40
0.2374466125
 40
0.3214448005
 40
0.4041332889
 40
0.4826014484
 40
0.560340071
 40
0.6409347996
 40
0.7239082795
 40
0.8092205449
 40
1.0
 40
1.0
 40
1.0
 40
1.0
 10
10.2618721542
 20
-60.7821288366
 30
0.0
 10
10.1853538138
 20
-60.8650518207
 30
0.0
 10
10.0431709959
 20
-60.9691710578
 30
0.0
 10
9.8218159715
 20
-61.034686375
 30
0.0
 10
9.6458772184
 20
-61.0497256019
 30
0.0
 10
9.4706103251
 20
-61.0348146106
 30
0.0
 10
9.3059909283
 20
-60.9855647475
 30
0.0
 10
9.1575743009
 20
-60.9020402719
 30
0.0
 10
9.0275413596
 20
-60.7874140324
 30
0.0
 10
8.9196693979
 20
-60.6445903126
 30
0.0
 10
8.813379696
 20
-60.4094937904
 30
0.0
 10
8.7891114353
 20
-60.2089744993
 30
0.0
 10
8.7891114353
 20
-60.0728418386
 30
0.0
  0
SPLINE
  5
5DB
100
AcDbEntity
  8
0
100
AcDbSpline
 62
7
  6
CONTINUOUS
 70
0
 71
3
 72
9
 73
5
 74
0
 42
0.0000001
 43
0.0000001
 44
0.0000000001
 40
0.0
 40
0.0
 40
0.0
 40
0.0
 40
0.7911658617
 40
1.0
 40
1.0
 40
1.0
 40
1.0
 10
8.7891114353
 20
-60.0728418386
 30
0.0
 10
8.7891114353
 20
-59.8462311285
 30
0.0
 10
8.8224845411
 20
-59.5391634099
 30
0.0
 10
8.9999415873
 20
-59.3085731127
 30
0.0
 10
9.0433260461
 20
-59.2673943138
 30
0.0
  0
SPLINE
  5
5DC
100
AcDbEntity
  8
0
100
AcDbSpline
 62
7
  6
CONTINUOUS
 70
0
 71
3
 72
9
 73
5
 74
0
 42
0.0000001
 43
0.0000001
 44
0.0000000001
 40
0.0
 40
0.0
 40
0.0
 40
0.0
 40
0.3222232674
 40
1.0
 40
1.0
 40
1.0
 40
1.0
 10
6.7717577203
 20
-60.1795550444
 30
0.0
 10
6.7914221159
 20
-60.1795550444
 30
0.0
 10
6.8523470555
 20
-60.1804625591
 30
0.0
 10
6.9138638842
 20
-60.1827318904
 30
0.0
 10
6.9543558672
 20
-60.1911748717
 30
0.0
  0
SPLINE
  5
5DD
100
AcDbEntity
  8
0
100
AcDbSpline
 62
7
  6
CONTINUOUS
 70
0
 71
3
 72
12
 73
8
 74
0
 42
0.0000001
 43
0.0000001
 44
0.0000000001
 40
0.0
 40
0.0
 40
0.0
 40
0.0
 40
0.0974412774
 40
0.2003948476
 40
0.4882068918
 40
0.7085912992
 40
1.0
 40
1.0
 40
1.0
 40
1.0
 10
6.9543558672
 20
-60.1911748717
 30
0.0
 10
6.9801732944
 20
-60.1973678528
 30
0.0
 10
7.0320316824
 20
-60.2152231319
 30
0.0
 10
7.1506452056
 20
-60.2774441518
 30
0.0
 10
7.2625762739
 20
-60.4064119948
 30
0.0
 10
7.3883003094
 20
-60.5831312197
 30
0.0
 10
7.4648536557
 20
-60.7000434806
 30
0.0
 10
7.5076046214
 20
-60.7669518484
 30
0.0
  0
SPLINE
  5
5DE
100
AcDbEntity
  8
0
100
AcDbSpline
 62
7
  6
CONTINUOUS
 70
0
 71
3
 72
9
 73
5
 74
0
 42
0.0000001
 43
0.0000001
 44
0.0000000001
 40
0.0
 40
0.0
 40
0.0
 40
0.0
 40
0.2659540588
 40
1.0
 40
1.0
 40
1.0
 40
1.0
 10
7.8026072
 20
-60.6066447799
 30
0.0
 10
7.7819041725
 20
-60.5753773815
 30
0.0
 10
7.7016057872
 20
-60.4594978465
 30
0.0
 10
7.6107483661
 20
-60.3506029638
 30
0.0
 10
7.5372471657
 20
-60.277731064
 30
0.0
  0
SPLINE
  5
5DF
100
AcDbEntity
  8
0
100
AcDbSpline
 62
7
  6
CONTINUOUS
 70
0
 71
3
 72
9
 73
5
 74
0
 42
0.0000001
 43
0.0000001
 44
0.0000000001
 40
0.0
 40
0.0
 40
0.0
 40
0.0
 40
0.209446698
 40
1.0
 40
1.0
 40
1.0
 40
1.0
 10
7.5372471657
 20
-60.277731064
 30
0.0
 10
7.5257356458
 20
-60.2665136381
 30
0.0
 10
7.467548782
 20
-60.2162635681
 30
0.0
 10
7.4006523375
 20
-60.1771838928
 30
0.0
 10
7.3468234964
 20
-60.1492010679
 30
0.0
  0
SPLINE
  5
5E0
100
AcDbEntity
  8
0
100
AcDbSpline
 62
7
  6
CONTINUOUS
 70
0
 71
3
 72
21
 73
17
 74
0
 42
0.0000001
 43
0.0000001
 44
0.0000000001
 40
0.0
 40
0.0
 40
0.0
 40
0.0
 40
0.1365200578
 40
0.2486517489
 40
0.3509700259
 40
0.4027637157
 40
0.4573654021
 40
0.5004782595
 40
0.5423967131
 40
0.5839060152
 40
0.6258144236
 40
0.705942642
 40
0.782907869
 40
0.8256733927
 40
0.8758071331
 40
1.0
 40
1.0
 40
1.0
 40
1.0
 10
7.3468234964
 20
-60.1492010679
 30
0.0
 10
7.4528955009
 20
-60.1344707799
 30
0.0
 10
7.646000303
 20
-60.0904680475
 30
0.0
 10
7.8823717623
 20
-59.9353596704
 30
0.0
 10
7.9962847916
 20
-59.7525873832
 30
0.0
 10
8.0389509815
 20
-59.5937310603
 30
0.0
 10
8.0480682723
 20
-59.4761726899
 30
0.0
 10
8.0413441398
 20
-59.3665893831
 30
0.0
 10
8.0219657721
 20
-59.2689099299
 30
0.0
 10
7.9893639864
 20
-59.1757800719
 30
0.0
 10
7.9305595164
 20
-59.0615054051
 30
0.0
 10
7.8310909403
 20
-58.9375424732
 30
0.0
 10
7.6934237379
 20
-58.8555332535
 30
0.0
 10
7.5652282149
 20
-58.8179585896
 30
0.0
 10
7.3972092188
 20
-58.7886859301
 30
0.0
 10
7.259985491
 20
-58.7832721267
 30
0.0
 10
7.162565341
 20
-58.7832721267
 30
0.0
  0
SPLINE
  5
5E1
100
AcDbEntity
  8
0
100
AcDbSpline
 62
7
  6
CONTINUOUS
 70
0
 71
3
 72
18
 73
14
 74
0
 42
0.0000001
 43
0.0000001
 44
0.0000000001
 40
0.0
 40
0.0
 40
0.0
 40
0.0
 40
0.1519229241
 40
0.2688691096
 40
0.3698366199
 40
0.4199224095
 40
0.4728043776
 40
0.5460050487
 40
0.6198797209
 40
0.6954843994
 40
0.7757756407
 40
0.8738495482
 40
1.0
 40
1.0
 40
1.0
 40
1.0
 10
7.1760823208
 20
-59.0716349032
 30
0.0
 10
7.2568481652
 20
-59.0716349032
 30
0.0
 10
7.4014029977
 20
-59.0819125658
 30
0.0
 10
7.585217167
 20
-59.1679721123
 30
0.0
 10
7.6740889591
 20
-59.286611991
 30
0.0
 10
7.7066383125
 20
-59.3907581445
 30
0.0
 10
7.7152703855
 20
-59.4846268987
 30
0.0
 10
7.7004608143
 20
-59.5913929723
 30
0.0
 10
7.6494091422
 20
-59.700136806
 30
0.0
 10
7.5651673717
 20
-59.7917867168
 30
0.0
 10
7.4427201474
 20
-59.8541880957
 30
0.0
 10
7.2828315588
 20
-59.8859885745
 30
0.0
 10
7.163467659
 20
-59.8911922679
 30
0.0
 10
7.0964030747
 20
-59.8911922679
 30
0.0
  0
SPLINE
  5
5E2
100
AcDbEntity
  8
0
100
AcDbSpline
 62
7
  6
CONTINUOUS
 70
0
 71
3
 72
9
 73
5
 74
0
 42
0.0000001
 43
0.0000001
 44
0.0000000001
 40
0.0
 40
0.0
 40
0.0
 40
0.0
 40
0.7097160398
 40
1.0
 40
1.0
 40
1.0
 40
1.0
 10
4.5774973158
 20
-59.0412809267
 30
0.0
 10
4.6143296164
 20
-59.1673387186
 30
0.0
 10
4.6735874844
 20
-59.3427804094
 30
0.0
 10
4.7363699344
 20
-59.516832481
 30
0.0
 10
4.7548782934
 20
-59.5672583456
 30
0.0
  0
SPLINE
  5
5E3
100
AcDbEntity
  8
0
100
AcDbSpline
 62
7
  6
CONTINUOUS
 70
0
 71
3
 72
9
 73
5
 74
0
 42
0.0000001
 43
0.0000001
 44
0.0000000001
 40
0.0
 40
0.0
 40
0.0
 40
0.0
 40
0.3106214921
 40
1.0
 40
1.0
 40
1.0
 40
1.0
 10
2.1349507861
 20
-60.521748596
 30
0.0
 10
2.1203298847
 20
-60.5630878948
 30
0.0
 10
2.0735306938
 20
-60.6962657655
 30
0.0
 10
2.0273607648
 20
-60.8296870035
 30
0.0
 10
1.9974093158
 20
-60.9222788916
 30
0.0
  0
SPLINE
  5
5E4
100
AcDbEntity
  8
0
100
AcDbSpline
 62
7
  6
CONTINUOUS
 70
0
 71
3
 72
9
 73
5
 74
0
 42
0.0000001
 43
0.0000001
 44
0.0000000001
 40
0.0
 40
0.0
 40
0.0
 40
0.0
 40
0.1862683768
 40
1.0
 40
1.0
 40
1.0
 40
1.0
 10
1.9974093158
 20
-60.9222788916
 30
0.0
 10
1.990316399
 20
-60.8992158251
 30
0.0
 10
1.9514737039
 20
-60.7756349167
 30
0.0
 10
1.9108718337
 20
-60.6526163286
 30
0.0
 10
1.8776534183
 20
-60.5525768606
 30
0.0
  0
SPLINE
  5
5E5
100
AcDbEntity
  8
0
100
AcDbSpline
 62
7
  6
CONTINUOUS
 70
0
 71
3
 72
9
 73
5
 74
0
 42
0.0000001
 43
0.0000001
 44
0.0000000001
 40
0.0
 40
0.0
 40
0.0
 40
0.0
 40
0.0986341094
 40
1.0
 40
1.0
 40
1.0
 40
1.0
 10
11.9051369047
 20
-57.3472955475
 30
0.0
 10
11.9560430576
 20
-57.2838999619
 30
0.0
 10
12.4721210816
 20
-56.6411385239
 30
0.0
 10
12.9888685834
 20
-55.998914958
 30
0.0
 10
13.4543751934
 20
-55.4198180416
 30
0.0
  0
SPLINE
  5
5E6
100
AcDbEntity
  8
0
100
AcDbSpline
 62
7
  6
CONTINUOUS
 70
0
 71
3
 72
9
 73
5
 74
0
 42
0.0000001
 43
0.0000001
 44
0.0000000001
 40
0.0
 40
0.0
 40
0.0
 40
0.0
 40
0.2319301259
 40
1.0
 40
1.0
 40
1.0
 40
1.0
 10
13.066413533
 20
-55.4198180416
 30
0.0
 10
13.0451992765
 20
-55.4420463395
 30
0.0
 10
12.9550062721
 20
-55.5391037053
 30
0.0
 10
12.8695247055
 20
-55.6404718466
 30
0.0
 10
12.8057961483
 20
-55.7198006455
 30
0.0
  0
SPLINE
  5
5E7
100
AcDbEntity
  8
0
100
AcDbSpline
 62
7
  6
CONTINUOUS
 70
0
 71
3
 72
18
 73
14
 74
0
 42
0.0000001
 43
0.0000001
 44
0.0000000001
 40
0.0
 40
0.0
 40
0.0
 40
0.0
 40
0.1159164268
 40
0.217229043
 40
0.2661318292
 40
0.3148796945
 40
0.3650966775
 40
0.4182723816
 40
0.5929571957
 40
0.6821159461
 40
0.7765883123
 40
0.8819922264
 40
1.0
 40
1.0
 40
1.0
 40
1.0
 10
6.1542438522
 20
-56.7568156391
 30
0.0
 10
6.1334270365
 20
-56.8526164217
 30
0.0
 10
6.0751403814
 20
-57.030088053
 30
0.0
 10
5.9311338874
 20
-57.210600941
 30
0.0
 10
5.7913125658
 20
-57.3058664276
 30
0.0
 10
5.6763501882
 20
-57.3568219746
 30
0.0
 10
5.5504314389
 20
-57.3866562117
 30
0.0
 10
5.3156099057
 20
-57.4039189399
 30
0.0
 10
5.0403695955
 20
-57.3329280228
 30
0.0
 10
4.8051209049
 20
-57.1331902285
 30
0.0
 10
4.6862833165
 20
-56.9144732761
 30
0.0
 10
4.6194074111
 20
-56.6524679877
 30
0.0
 10
4.6061910522
 20
-56.4629676483
 30
0.0
 10
4.6061910522
 20
-56.3631625212
 30
0.0
  0
SPLINE
  5
5E8
100
AcDbEntity
  8
0
100
AcDbSpline
 62
7
  6
CONTINUOUS
 70
0
 71
3
 72
15
 73
11
 74
0
 42
0.0000001
 43
0.0000001
 44
0.0000000001
 40
0.0
 40
0.0
 40
0.0
 40
0.0
 40
0.1678404711
 40
0.2512879759
 40
0.33511008
 40
0.4172449098
 40
0.4965963632
 40
0.6544390062
 40
0.8184759151
 40
1.0
 40
1.0
 40
1.0
 40
1.0
 10
4.6061910522
 20
-56.3631625212
 30
0.0
 10
4.6061910522
 20
-56.281683722
 30
0.0
 10
4.6156993815
 20
-56.1593493726
 30
0.0
 10
4.6485387762
 20
-55.9999039575
 30
0.0
 10
4.6816147831
 20
-55.883301125
 30
0.0
 10
4.7265157713
 20
-55.7725421655
 30
0.0
 10
4.8076526365
 20
-55.6397806358
 30
0.0
 10
4.9483258311
 20
-55.4996780106
 30
0.0
 10
5.1732594269
 20
-55.3927100897
 30
0.0
 10
5.3428440243
 20
-55.3742870769
 30
0.0
 10
5.4309655863
 20
-55.3742870769
 30
0.0
  0
SPLINE
  5
5E9
100
AcDbEntity
  8
0
100
AcDbSpline
 62
7
  6
CONTINUOUS
 70
0
 71
3
 72
9
 73
5
 74
0
 42
0.0000001
 43
0.0000001
 44
0.0000000001
 40
0.0
 40
0.0
 40
0.0
 40
0.0
 40
0.4786249203
 40
1.0
 40
1.0
 40
1.0
 40
1.0
 10
5.4309655863
 20
-55.3742870769
 30
0.0
 10
5.5745935719
 20
-55.3742870769
 30
0.0
 10
5.8967549256
 20
-55.4527579304
 30
0.0
 10
6.0464405583
 20
-55.7467956591
 30
0.0
 10
6.0935358993
 20
-55.8959959028
 30
0.0
  0
SPLINE
  5
5EA
100
AcDbEntity
  8
0
100
AcDbSpline
 62
7
  6
CONTINUOUS
 70
0
 71
3
 72
26
 73
22
 74
0
 42
0.0000001
 43
0.0000001
 44
0.0000000001
 40
0.0
 40
0.0
 40
0.0
 40
0.0
 40
0.0896555928
 40
0.1732903144
 40
0.2152480972
 40
0.2578225541
 40
0.3022775494
 40
0.3497269144
 40
0.392365341
 40
0.4337987014
 40
0.4746908106
 40
0.5157317552
 40
0.5966190081
 40
0.6794627644
 40
0.7231956387
 40
0.7684331139
 40
0.8158711413
 40
0.8661143113
 40
0.9129187838
 40
0.9586187623
 40
1.0
 40
1.0
 40
1.0
 40
1.0
 10
6.4274296405
 20
-55.8191623854
 30
0.0
 10
6.3962350946
 20
-55.71049882
 30
0.0
 10
6.3091406529
 20
-55.5057814596
 30
0.0
 10
6.1205717327
 20
-55.3023849065
 30
0.0
 10
5.9399222271
 20
-55.1895012992
 30
0.0
 10
5.7880699654
 20
-55.1288656766
 30
0.0
 10
5.6215797418
 20
-55.0931212407
 30
0.0
 10
5.45172145
 20
-55.0825574206
 30
0.0
 10
5.2857862083
 20
-55.0919372902
 30
0.0
 10
5.1303438338
 20
-55.1203345978
 30
0.0
 10
4.9818469246
 20
-55.1681869649
 30
0.0
 10
4.7955794974
 20
-55.2555338804
 30
0.0
 10
4.5864210943
 20
-55.4142905944
 30
0.0
 10
4.4364613723
 20
-55.633713595
 30
0.0
 10
4.3516822311
 20
-55.8335320027
 30
0.0
 10
4.3053714731
 20
-55.9997015788
 30
0.0
 10
4.2779604545
 20
-56.178194007
 30
0.0
 10
4.2695001224
 20
-56.3604846866
 30
0.0
 10
4.2775970123
 20
-56.5405792736
 30
0.0
 10
4.3017151691
 20
-56.7078660865
 30
0.0
 10
4.3280934216
 20
-56.8148734726
 30
0.0
 10
4.3429867213
 20
-56.865011993
 30
0.0
  0
SPLINE
  5
5EB
100
AcDbEntity
  8
0
100
AcDbSpline
 62
7
  6
CONTINUOUS
 70
0
 71
3
 72
11
 73
7
 74
0
 42
0.0000001
 43
0.0000001
 44
0.0000000001
 40
0.0
 40
0.0
 40
0.0
 40
0.0
 40
0.2450314628
 40
0.4753357612
 40
0.7174932177
 40
1.0
 40
1.0
 40
1.0
 40
1.0
 10
4.404858872
 20
-57.0375900373
 30
0.0
 10
4.4465169365
 20
-57.1360341627
 30
0.0
 10
4.5509308887
 20
-57.3187248304
 30
0.0
 10
4.7856705772
 20
-57.5345240615
 30
0.0
 10
5.0964689009
 20
-57.6611359958
 30
0.0
 10
5.3271670209
 20
-57.6811892887
 30
0.0
 10
5.4504111676
 20
-57.6811892887
 30
0.0
  0
SPLINE
  5
5EC
100
AcDbEntity
  8
0
100
AcDbSpline
 62
7
  6
CONTINUOUS
 70
0
 71
3
 72
11
 73
7
 74
0
 42
0.0000001
 43
0.0000001
 44
0.0000000001
 40
0.0
 40
0.0
 40
0.0
 40
0.0
 40
0.2525992429
 40
0.4888102636
 40
0.730558892
 40
1.0
 40
1.0
 40
1.0
 40
1.0
 10
5.4504111676
 20
-57.6811892887
 30
0.0
 10
5.5721977465
 20
-57.6811892887
 30
0.0
 10
5.8106061064
 20
-57.6503551379
 30
0.0
 10
6.1287778772
 20
-57.4813514843
 30
0.0
 10
6.3678311218
 20
-57.2011035496
 30
0.0
 10
6.4560997934
 20
-56.9664203616
 30
0.0
 10
6.4881375934
 20
-56.8405263343
 30
0.0
  0
SPLINE
  5
5ED
100
AcDbEntity
  8
0
100
AcDbSpline
 62
7
  6
CONTINUOUS
 70
0
 71
3
 72
9
 73
5
 74
0
 42
0.0000001
 43
0.0000001
 44
0.0000000001
 40
0.0
 40
0.0
 40
0.0
 40
0.0
 40
0.2354134851
 40
1.0
 40
1.0
 40
1.0
 40
1.0
 10
1.9881606974
 20
-57.3548839258
 30
0.0
 10
1.9791635066
 20
-57.3224053628
 30
0.0
 10
1.9393895962
 20
-57.1848728579
 30
0.0
 10
1.8938763042
 20
-57.0490357836
 30
0.0
 10
1.8567849726
 20
-56.9460538197
 30
0.0
  0
SPLINE
  5
5EE
100
AcDbEntity
  8
0
100
AcDbSpline
 62
7
  6
CONTINUOUS
 70
0
 71
3
 72
9
 73
5
 74
0
 42
0.0000001
 43
0.0000001
 44
0.0000000001
 40
0.0
 40
0.0
 40
0.0
 40
0.0
 40
0.7097160398
 40
1.0
 40
1.0
 40
1.0
 40
1.0
 10
-5.6155104084
 20
-55.3894640652
 30
0.0
 10
-5.5786781078
 20
-55.5155218571
 30
0.0
 10
-5.5194202398
 20
-55.6909635479
 30
0.0
 10
-5.4566377898
 20
-55.8650156195
 30
0.0
 10
-5.4381294308
 20
-55.9154414841
 30
0.0
  0
SPLINE
  5
5EF
100
AcDbEntity
  8
0
100
AcDbSpline
 62
7
  6
CONTINUOUS
 70
0
 71
3
 72
9
 73
5
 74
0
 42
0.0000001
 43
0.0000001
 44
0.0000000001
 40
0.0
 40
0.0
 40
0.0
 40
0.0
 40
0.2354134851
 40
1.0
 40
1.0
 40
1.0
 40
1.0
 10
-8.8633858908
 20
-57.3548839258
 30
0.0
 10
-8.8723830816
 20
-57.3224053628
 30
0.0
 10
-8.912156992
 20
-57.1848728579
 30
0.0
 10
-8.957670284
 20
-57.0490357836
 30
0.0
 10
-8.9947616156
 20
-56.9460538197
 30
0.0
  0
SPLINE
  5
5F0
100
AcDbEntity
  8
0
100
AcDbSpline
 62
7
  6
CONTINUOUS
 70
0
 71
3
 72
9
 73
5
 74
0
 42
0.0000001
 43
0.0000001
 44
0.0000000001
 40
0.0
 40
0.0
 40
0.0
 40
0.0
 40
0.5205318383
 40
1.0
 40
1.0
 40
1.0
 40
1.0
 10
-1.030399953
 20
-59.4164370395
 30
0.0
 10
-1.030399953
 20
-59.4795378981
 30
0.0
 10
-1.0502234041
 20
-59.6048373993
 30
0.0
 10
-1.1368676749
 20
-59.6996888034
 30
0.0
 10
-1.1853711643
 20
-59.7317152036
 30
0.0
  0
SPLINE
  5
5F1
100
AcDbEntity
  8
0
100
AcDbSpline
 62
7
  6
CONTINUOUS
 70
0
 71
3
 72
8
 73
4
 74
0
 42
0.0000001
 43
0.0000001
 44
0.0000000001
 40
0.0
 40
0.0
 40
0.0
 40
0.0
 40
1.0
 40
1.0
 40
1.0
 40
1.0
 10
-1.1853711643
 20
-59.7317152036
 30
0.0
 10
-1.286461703
 20
-59.7984643403
 30
0.0
 10
-1.412946703
 20
-59.8340412443
 30
0.0
 10
-1.5340860619
 20
-59.8340412443
 30
0.0
  0
SPLINE
  5
5F2
100
AcDbEntity
  8
0
100
AcDbSpline
 62
7
  6
CONTINUOUS
 70
0
 71
3
 72
8
 73
4
 74
0
 42
0.0000001
 43
0.0000001
 44
0.0000000001
 40
0.0
 40
0.0
 40
0.0
 40
0.0
 40
1.0
 40
1.0
 40
1.0
 40
1.0
 10
-1.5340860619
 20
-59.8340412443
 30
0.0
 10
-1.5508070509
 20
-59.8340412443
 30
0.0
 10
-1.5675071038
 20
-59.8323581671
 30
0.0
 10
-1.5841227637
 20
-59.8304843149
 30
0.0
  0
SPLINE
  5
5F3
100
AcDbEntity
  8
0
100
AcDbSpline
 62
7
  6
CONTINUOUS
 70
0
 71
3
 72
9
 73
5
 74
0
 42
0.0000001
 43
0.0000001
 44
0.0000000001
 40
0.0
 40
0.0
 40
0.0
 40
0.0
 40
0.290916541
 40
1.0
 40
1.0
 40
1.0
 40
1.0
 10
-1.6192196214
 20
-60.1036701032
 30
0.0
 10
-1.5980314337
 20
-60.0982410995
 30
0.0
 10
-1.524913638
 20
-60.0810796051
 30
0.0
 10
-1.4498572815
 20
-60.0695218217
 30
0.0
 10
-1.3965445915
 20
-60.0695218217
 30
0.0
  0
SPLINE
  5
5F4
100
AcDbEntity
  8
0
100
AcDbSpline
 62
7
  6
CONTINUOUS
 70
0
 71
3
 72
23
 73
19
 74
0
 42
0.0000001
 43
0.0000001
 44
0.0000000001
 40
0.0
 40
0.0
 40
0.0
 40
0.0
 40
0.1248043578
 40
0.1836565139
 40
0.2431757998
 40
0.3022746704
 40
0.3599158175
 40
0.4187074422
 40
0.4811136631
 40
0.5467112022
 40
0.6090097416
 40
0.6705291439
 40
0.7338823102
 40
0.7974946955
 40
0.8599165966
 40
0.9238650515
 40
0.9918743819
 40
1.0
 40
1.0
 40
1.0
 40
1.0
 10
-1.3965445915
 20
-60.0695218217
 30
0.0
 10
-1.3290256144
 20
-60.0695218217
 30
0.0
 10
-1.2277958333
 20
-60.0846251708
 30
0.0
 10
-1.1094105271
 20
-60.1439336251
 30
0.0
 10
-1.0337725513
 20
-60.2041057241
 30
0.0
 10
-0.9712936911
 20
-60.2769820933
 30
0.0
 10
-0.9258810517
 20
-60.3612422177
 30
0.0
 10
-0.8991067636
 20
-60.4549595135
 30
0.0
 10
-0.8909852062
 20
-60.5562051255
 30
0.0
 10
-0.8994933296
 20
-60.6593429321
 30
0.0
 10
-0.9277285217
 20
-60.7586038448
 30
0.0
 10
-0.9755830408
 20
-60.848696266
 30
0.0
 10
-1.0411628854
 20
-60.9275960033
 30
0.0
 10
-1.1205447766
 20
-60.9934271844
 30
0.0
 10
-1.2124286587
 20
-61.0412376548
 30
0.0
 10
-1.314496017
 20
-61.0693845433
 30
0.0
 10
-1.3904140116
 20
-61.0753905692
 30
0.0
 10
-1.4316745446
 20
-61.0749443723
 30
0.0
 10
-1.4360769192
 20
-61.0748527625
 30
0.0
  0
SPLINE
  5
5F5
100
AcDbEntity
  8
0
100
AcDbSpline
 62
7
  6
CONTINUOUS
 70
0
 71
3
 72
23
 73
19
 74
0
 42
0.0000001
 43
0.0000001
 44
0.0000000001
 40
0.0
 40
0.0
 40
0.0
 40
0.0
 40
0.113382415
 40
0.1678489734
 40
0.2234082436
 40
0.2793927124
 40
0.3352201199
 40
0.3929922362
 40
0.4546121578
 40
0.5229391381
 40
0.587089194
 40
0.6494165745
 40
0.7124799893
 40
0.7746006908
 40
0.8339932736
 40
0.8932769006
 40
0.9550845874
 40
1.0
 40
1.0
 40
1.0
 40
1.0
 10
-2.2293820235
 20
-60.6348646914
 30
0.0
 10
-2.2197575819
 20
-60.7314051766
 30
0.0
 10
-2.1828143162
 20
-60.8745463439
 30
0.0
 10
-2.0811086875
 20
-61.0376844643
 30
0.0
 10
-1.9834969523
 20
-61.1420591682
 30
0.0
 10
-1.8676171325
 20
-61.2276883473
 30
0.0
 10
-1.7352142496
 20
-61.2893817624
 30
0.0
 10
-1.58888227
 20
-61.3257785796
 30
0.0
 10
-1.4280369595
 20
-61.3370615687
 30
0.0
 10
-1.2616729969
 20
-61.3244669963
 30
0.0
 10
-1.0994891644
 20
-61.2816705627
 30
0.0
 10
-0.9531610374
 20
-61.2090051967
 30
0.0
 10
-0.8265210332
 20
-61.1088492892
 30
0.0
 10
-0.7217356938
 20
-60.9894190405
 30
0.0
 10
-0.6449365598
 20
-60.8537546681
 30
0.0
 10
-0.599458996
 20
-60.7049051276
 30
0.0
 10
-0.5868689612
 20
-60.5625168335
 30
0.0
 10
-0.5927267176
 20
-60.4711065511
 30
0.0
 10
-0.5981855591
 20
-60.4330408218
 30
0.0
  0
SPLINE
  5
5F6
100
AcDbEntity
  8
0
100
AcDbSpline
 62
7
  6
CONTINUOUS
 70
0
 71
3
 72
19
 73
15
 74
0
 42
0.0000001
 43
0.0000001
 44
0.0000000001
 40
0.0
 40
0.0
 40
0.0
 40
0.0
 40
0.1589545647
 40
0.306104014
 40
0.4662694337
 40
0.5499252969
 40
0.6372280613
 40
0.6827335247
 40
0.7282066206
 40
0.7743305842
 40
0.8217605318
 40
0.889180038
 40
0.952527713
 40
1.0
 40
1.0
 40
1.0
 40
1.0
 10
-1.0711880365
 20
-59.9307946311
 30
0.0
 10
-0.970184217
 20
-59.8840153805
 30
0.0
 10
-0.787991437
 20
-59.7449736347
 30
0.0
 10
-0.6957904507
 20
-59.4115503363
 30
0.0
 10
-0.776601591
 20
-59.1350737208
 30
0.0
 10
-0.9238242464
 20
-58.9525160538
 30
0.0
 10
-1.0512697005
 20
-58.8665099632
 30
0.0
 10
-1.1656064615
 20
-58.8159509255
 30
0.0
 10
-1.2577867338
 20
-58.7881635467
 30
0.0
 10
-1.353963111
 20
-58.7715847661
 30
0.0
 10
-1.4667340189
 20
-58.7656657111
 30
0.0
 10
-1.5917241877
 20
-58.774528251
 30
0.0
 10
-1.7136607126
 20
-58.8041251462
 30
0.0
 10
-1.785266446
 20
-58.8349177034
 30
0.0
 10
-1.8148040746
 20
-58.8502745671
 30
0.0
  0
SPLINE
  5
5F7
100
AcDbEntity
  8
0
100
AcDbSpline
 62
7
  6
CONTINUOUS
 70
0
 71
3
 72
17
 73
13
 74
0
 42
0.0000001
 43
0.0000001
 44
0.0000000001
 40
0.0
 40
0.0
 40
0.0
 40
0.0
 40
0.2752721262
 40
0.3947823884
 40
0.4562356547
 40
0.5215301736
 40
0.5872068469
 40
0.6484042185
 40
0.7073568031
 40
0.7665538661
 40
0.881399665
 40
1.0
 40
1.0
 40
1.0
 40
1.0
 10
-1.8954882824
 20
-59.4662365973
 30
0.0
 10
-1.8768672424
 20
-59.3462344799
 30
0.0
 10
-1.8100968033
 20
-59.1645590894
 30
0.0
 10
-1.6321363377
 20
-59.0574266056
 30
0.0
 10
-1.5264813664
 20
-59.0302354511
 30
0.0
 10
-1.4414251806
 20
-59.0239805976
 30
0.0
 10
-1.356524411
 20
-59.0301957307
 30
0.0
 10
-1.2766700843
 20
-59.050880882
 30
0.0
 10
-1.2051507422
 20
-59.0861458349
 30
0.0
 10
-1.1240804676
 20
-59.1501775463
 30
0.0
 10
-1.0474365297
 20
-59.2591512724
 30
0.0
 10
-1.030399953
 20
-59.3641156561
 30
0.0
 10
-1.030399953
 20
-59.4164370395
 30
0.0
  0
SPLINE
  5
5F8
100
AcDbEntity
  8
0
100
AcDbSpline
 62
7
  6
CONTINUOUS
 70
0
 71
3
 72
12
 73
8
 74
0
 42
0.0000001
 43
0.0000001
 44
0.0000000001
 40
0.0
 40
0.0
 40
0.0
 40
0.0
 40
0.2240836447
 40
0.4505791617
 40
0.5918779795
 40
0.7268035565
 40
1.0
 40
1.0
 40
1.0
 40
1.0
 10
-3.5739682309
 20
-59.1081543936
 30
0.0
 10
-3.5354434563
 20
-59.0816014977
 30
0.0
 10
-3.449498664
 20
-59.0390976452
 30
0.0
 10
-3.3251874916
 20
-59.0219900228
 30
0.0
 10
-3.2200651064
 20
-59.0311623863
 30
0.0
 10
-3.1094537395
 20
-59.0643790757
 30
0.0
 10
-3.0379838503
 20
-59.116387947
 30
0.0
 10
-2.9986655423
 20
-59.1577168073
 30
0.0
  0
SPLINE
  5
5F9
100
AcDbEntity
  8
0
100
AcDbSpline
 62
7
  6
CONTINUOUS
 70
0
 71
3
 72
9
 73
5
 74
0
 42
0.0000001
 43
0.0000001
 44
0.0000000001
 40
0.0
 40
0.0
 40
0.0
 40
0.0
 40
0.203826354
 40
1.0
 40
1.0
 40
1.0
 40
1.0
 10
-2.9986655423
 20
-59.1577168073
 30
0.0
 10
-2.9853282552
 20
-59.1721864821
 30
0.0
 10
-2.9278668037
 20
-59.250556968
 30
0.0
 10
-2.899061972
 20
-59.3457567859
 30
0.0
 10
-2.8819925177
 20
-59.4207056326
 30
0.0
  0
SPLINE
  5
5FA
100
AcDbEntity
  8
0
100
AcDbSpline
 62
7
  6
CONTINUOUS
 70
0
 71
3
 72
25
 73
21
 74
0
 42
0.0000001
 43
0.0000001
 44
0.0000000001
 40
0.0
 40
0.0
 40
0.0
 40
0.0
 40
0.082155988
 40
0.1574781681
 40
0.1952106948
 40
0.2333186232
 40
0.2732219959
 40
0.3161630998
 40
0.3734911006
 40
0.4269666993
 40
0.4793831028
 40
0.533697178
 40
0.6015281295
 40
0.6786612443
 40
0.7678838397
 40
0.8176430533
 40
0.871043663
 40
0.9187196526
 40
0.9630316906
 40
1.0
 40
1.0
 40
1.0
 40
1.0
 10
-2.578452753
 20
-59.3903516561
 30
0.0
 10
-2.589955019
 20
-59.3008811898
 30
0.0
 10
-2.6346351449
 20
-59.1297717778
 30
0.0
 10
-2.7682256447
 20
-58.9544172296
 30
0.0
 10
-2.9040080581
 20
-58.8573359326
 30
0.0
 10
-3.0207084389
 20
-58.8049425856
 30
0.0
 10
-3.1506428364
 20
-58.7741746209
 30
0.0
 10
-3.3047032446
 20
-58.763938095
 30
0.0
 10
-3.4739693488
 20
-58.7786807611
 30
0.0
 10
-3.6464753685
 20
-58.8330616045
 30
0.0
 10
-3.7978920425
 20
-58.925905145
 30
0.0
 10
-3.934709521
 20
-59.0625130879
 30
0.0
 10
-4.0487547837
 20
-59.2518686826
 30
0.0
 10
-4.1305117532
 20
-59.4972389529
 30
0.0
 10
-4.1689220454
 20
-59.7321728385
 30
0.0
 10
-4.1846908427
 20
-59.9428833719
 30
0.0
 10
-4.1884471305
 20
-60.108528019
 30
0.0
 10
-4.1849758157
 20
-60.2681956865
 30
0.0
 10
-4.1742022353
 20
-60.409419013
 30
0.0
 10
-4.1622141971
 20
-60.4979985358
 30
0.0
 10
-4.1554179757
 20
-60.5380538566
 30
0.0
  0
SPLINE
  5
5FB
100
AcDbEntity
  8
0
100
AcDbSpline
 62
7
  6
CONTINUOUS
 70
0
 71
3
 72
23
 73
19
 74
0
 42
0.0000001
 43
0.0000001
 44
0.0000000001
 40
0.0
 40
0.0
 40
0.0
 40
0.0
 40
0.133865388
 40
0.20037216
 40
0.2707933004
 40
0.3128393088
 40
0.3532679603
 40
0.4320950259
 40
0.5108979706
 40
0.5934174154
 40
0.6364598487
 40
0.6793574615
 40
0.7227184234
 40
0.767131874
 40
0.832840492
 40
0.8940063268
 40
0.9528230231
 40
1.0
 40
1.0
 40
1.0
 40
1.0
 10
-3.9445001504
 20
-61.0493861392
 30
0.0
 10
-3.8686114487
 20
-61.1380650434
 30
0.0
 10
-3.7255416164
 20
-61.2510286585
 30
0.0
 10
-3.4986341496
 20
-61.3222368558
 30
0.0
 10
-3.342098328
 20
-61.3364579932
 30
0.0
 10
-3.208723791
 20
-61.3288197185
 30
0.0
 10
-3.0702408362
 20
-61.3021818193
 30
0.0
 10
-2.9088790344
 20
-61.233895695
 30
0.0
 10
-2.7453037594
 20
-61.0983300596
 30
0.0
 10
-2.6462064515
 20
-60.947412211
 30
0.0
 10
-2.5880997921
 20
-60.8122907499
 30
0.0
 10
-2.5560769606
 20
-60.703892548
 30
0.0
 10
-2.5369656008
 20
-60.5912975438
 30
0.0
 10
-2.5299990967
 20
-60.4574331758
 30
0.0
 10
-2.5409298286
 20
-60.3077926774
 30
0.0
 10
-2.5813388288
 20
-60.1500170423
 30
0.0
 10
-2.6455862379
 20
-60.0179675972
 30
0.0
 10
-2.7014202254
 20
-59.9437806621
 30
0.0
 10
-2.7286536761
 20
-59.9128442681
 30
0.0
  0
SPLINE
  5
5FC
100
AcDbEntity
  8
0
100
AcDbSpline
 62
7
  6
CONTINUOUS
 70
0
 71
3
 72
11
 73
7
 74
0
 42
0.0000001
 43
0.0000001
 44
0.0000000001
 40
0.0
 40
0.0
 40
0.0
 40
0.0
 40
0.3426107936
 40
0.6044566108
 40
0.8143265955
 40
1.0
 40
1.0
 40
1.0
 40
1.0
 10
-3.8836737412
 20
-59.9957711771
 30
0.0
 10
-3.8826912637
 20
-59.8848230476
 30
0.0
 10
-3.8729196247
 20
-59.6887188182
 30
0.0
 10
-3.8117546278
 20
-59.4296783533
 30
0.0
 10
-3.7100786562
 20
-59.2402773268
 30
0.0
 10
-3.62168586
 20
-59.1447406296
 30
0.0
 10
-3.5739682309
 20
-59.1081543936
 30
0.0
  0
SPLINE
  5
5FD
100
AcDbEntity
  8
0
100
AcDbSpline
 62
7
  6
CONTINUOUS
 70
0
 71
3
 72
17
 73
13
 74
0
 42
0.0000001
 43
0.0000001
 44
0.0000000001
 40
0.0
 40
0.0
 40
0.0
 40
0.0
 40
0.0844580526
 40
0.1939587312
 40
0.3316668575
 40
0.4116386184
 40
0.4991820578
 40
0.5872976204
 40
0.6677250704
 40
0.8060064882
 40
0.915671004
 40
1.0
 40
1.0
 40
1.0
 40
1.0
 10
-4.9260244762
 20
-59.2293332712
 30
0.0
 10
-4.89813541
 20
-59.2679142863
 30
0.0
 10
-4.8516940227
 20
-59.3687989166
 30
0.0
 10
-4.808910977
 20
-59.5512031788
 30
0.0
 10
-4.7889237005
 20
-59.7349318642
 30
0.0
 10
-4.7804424981
 20
-59.906769018
 30
0.0
 10
-4.7784186523
 20
-60.0508729393
 30
0.0
 10
-4.7804580525
 20
-60.1952343639
 30
0.0
 10
-4.7890413753
 20
-60.367969384
 30
0.0
 10
-4.8092576311
 20
-60.5523614009
 30
0.0
 10
-4.8525406312
 20
-60.7350063274
 30
0.0
 10
-4.899647625
 20
-60.8356928447
 30
0.0
 10
-4.9279216287
 20
-60.8739021982
 30
0.0
  0
SPLINE
  5
5FE
100
AcDbEntity
  8
0
100
AcDbSpline
 62
7
  6
CONTINUOUS
 70
0
 71
3
 72
13
 73
9
 74
0
 42
0.0000001
 43
0.0000001
 44
0.0000000001
 40
0.0
 40
0.0
 40
0.0
 40
0.0
 40
0.2591154171
 40
0.3783560512
 40
0.500277571
 40
0.6221918694
 40
0.7413669728
 40
1.0
 40
1.0
 40
1.0
 40
1.0
 10
-4.9279216287
 20
-60.8739021982
 30
0.0
 10
-4.9724220601
 20
-60.9340398687
 30
0.0
 10
-5.0540135278
 20
-61.0137124436
 30
0.0
 10
-5.1899488142
 20
-61.0670639996
 30
0.0
 10
-5.2951323385
 20
-61.0790003698
 30
0.0
 10
-5.4002922135
 20
-61.0670965796
 30
0.0
 10
-5.5361473894
 20
-61.0140229467
 30
0.0
 10
-5.6178092482
 20
-60.9346698872
 30
0.0
 10
-5.6623455497
 20
-60.8747322024
 30
0.0
  0
SPLINE
  5
5FF
100
AcDbEntity
  8
0
100
AcDbSpline
 62
7
  6
CONTINUOUS
 70
0
 71
3
 72
9
 73
5
 74
0
 42
0.0000001
 43
0.0000001
 44
0.0000000001
 40
0.0
 40
0.0
 40
0.0
 40
0.0
 40
0.3855604367
 40
1.0
 40
1.0
 40
1.0
 40
1.0
 10
-5.6623455497
 20
-60.8747322024
 30
0.0
 10
-5.7271335274
 20
-60.7875394796
 30
0.0
 10
-5.7995817463
 20
-60.5022732459
 30
0.0
 10
-5.8111512471
 20
-60.2236631316
 30
0.0
 10
-5.8111512471
 20
-60.0505505286
 30
0.0
  0
SPLINE
  5
600
100
AcDbEntity
  8
0
100
AcDbSpline
 62
7
  6
CONTINUOUS
 70
0
 71
3
 72
9
 73
5
 74
0
 42
0.0000001
 43
0.0000001
 44
0.0000000001
 40
0.0
 40
0.0
 40
0.0
 40
0.0
 40
0.6001364234
 40
1.0
 40
1.0
 40
1.0
 40
1.0
 10
-5.8111512471
 20
-60.0505505286
 30
0.0
 10
-5.8111512471
 20
-59.876885458
 30
0.0
 10
-5.7981222502
 20
-59.589166205
 30
0.0
 10
-5.7174042326
 20
-59.3001991982
 30
0.0
 10
-5.6510813226
 20
-59.2053820686
 30
0.0
  0
SPLINE
  5
601
100
AcDbEntity
  8
0
100
AcDbSpline
 62
7
  6
CONTINUOUS
 70
0
 71
3
 72
13
 73
9
 74
0
 42
0.0000001
 43
0.0000001
 44
0.0000000001
 40
0.0
 40
0.0
 40
0.0
 40
0.0
 40
0.2418297111
 40
0.3587506684
 40
0.4819025475
 40
0.6099630364
 40
0.7339475358
 40
1.0
 40
1.0
 40
1.0
 40
1.0
 10
-5.6510813226
 20
-59.2053820686
 30
0.0
 10
-5.6101220269
 20
-59.150576353
 30
0.0
 10
-5.5315509958
 20
-59.0788325598
 30
0.0
 10
-5.4017588137
 20
-59.0329241067
 30
0.0
 10
-5.2973098079
 20
-59.0223632225
 30
0.0
 10
-5.1907825386
 20
-59.0339718923
 30
0.0
 10
-5.0525572134
 20
-59.0874883782
 30
0.0
 10
-4.9701223908
 20
-59.1683293532
 30
0.0
 10
-4.9260244762
 20
-59.2293332712
 30
0.0
  0
SPLINE
  5
602
100
AcDbEntity
  8
0
100
AcDbSpline
 62
7
  6
CONTINUOUS
 70
0
 71
3
 72
11
 73
7
 74
0
 42
0.0000001
 43
0.0000001
 44
0.0000000001
 40
0.0
 40
0.0
 40
0.0
 40
0.0
 40
0.3426107936
 40
0.6044566108
 40
0.8143265955
 40
1.0
 40
1.0
 40
1.0
 40
1.0
 10
-7.7689827294
 20
-59.9957711771
 30
0.0
 10
-7.768000252
 20
-59.8848230476
 30
0.0
 10
-7.7582286129
 20
-59.6887188182
 30
0.0
 10
-7.697063616
 20
-59.4296783533
 30
0.0
 10
-7.5953876444
 20
-59.2402773268
 30
0.0
 10
-7.5069948482
 20
-59.1447406296
 30
0.0
 10
-7.4592772192
 20
-59.1081543936
 30
0.0
  0
SPLINE
  5
603
100
AcDbEntity
  8
0
100
AcDbSpline
 62
7
  6
CONTINUOUS
 70
0
 71
3
 72
12
 73
8
 74
0
 42
0.0000001
 43
0.0000001
 44
0.0000000001
 40
0.0
 40
0.0
 40
0.0
 40
0.0
 40
0.2240836447
 40
0.4505791617
 40
0.5918779795
 40
0.7268035565
 40
1.0
 40
1.0
 40
1.0
 40
1.0
 10
-7.4592772192
 20
-59.1081543936
 30
0.0
 10
-7.4207524445
 20
-59.0816014977
 30
0.0
 10
-7.3348076523
 20
-59.0390976452
 30
0.0
 10
-7.2104964798
 20
-59.0219900228
 30
0.0
 10
-7.1053740947
 20
-59.0311623863
 30
0.0
 10
-6.9947627278
 20
-59.0643790757
 30
0.0
 10
-6.9232928386
 20
-59.116387947
 30
0.0
 10
-6.8839745306
 20
-59.1577168073
 30
0.0
  0
SPLINE
  5
604
100
AcDbEntity
  8
0
100
AcDbSpline
 62
7
  6
CONTINUOUS
 70
0
 71
3
 72
9
 73
5
 74
0
 42
0.0000001
 43
0.0000001
 44
0.0000000001
 40
0.0
 40
0.0
 40
0.0
 40
0.0
 40
0.203826354
 40
1.0
 40
1.0
 40
1.0
 40
1.0
 10
-6.8839745306
 20
-59.1577168073
 30
0.0
 10
-6.8706372434
 20
-59.1721864821
 30
0.0
 10
-6.813175792
 20
-59.250556968
 30
0.0
 10
-6.7843709602
 20
-59.3457567859
 30
0.0
 10
-6.7673015059
 20
-59.4207056326
 30
0.0
  0
SPLINE
  5
605
100
AcDbEntity
  8
0
100
AcDbSpline
 62
7
  6
CONTINUOUS
 70
0
 71
3
 72
25
 73
21
 74
0
 42
0.0000001
 43
0.0000001
 44
0.0000000001
 40
0.0
 40
0.0
 40
0.0
 40
0.0
 40
0.082155988
 40
0.1574781681
 40
0.1952106948
 40
0.2333186232
 40
0.2732219959
 40
0.3161630998
 40
0.3734911006
 40
0.4269666993
 40
0.4793831028
 40
0.533697178
 40
0.6015281295
 40
0.6786612443
 40
0.7678838397
 40
0.8176430533
 40
0.871043663
 40
0.9187196526
 40
0.9630316906
 40
1.0
 40
1.0
 40
1.0
 40
1.0
 10
-6.4637617412
 20
-59.3903516561
 30
0.0
 10
-6.4752640072
 20
-59.3008811898
 30
0.0
 10
-6.5199441332
 20
-59.1297717778
 30
0.0
 10
-6.6535346329
 20
-58.9544172296
 30
0.0
 10
-6.7893170463
 20
-58.8573359326
 30
0.0
 10
-6.9060174271
 20
-58.8049425856
 30
0.0
 10
-7.0359518246
 20
-58.7741746209
 30
0.0
 10
-7.1900122329
 20
-58.763938095
 30
0.0
 10
-7.3592783371
 20
-58.7786807611
 30
0.0
 10
-7.5317843567
 20
-58.8330616045
 30
0.0
 10
-7.6832010307
 20
-58.925905145
 30
0.0
 10
-7.8200185092
 20
-59.0625130879
 30
0.0
 10
-7.934063772
 20
-59.2518686826
 30
0.0
 10
-8.0158207415
 20
-59.4972389529
 30
0.0
 10
-8.0542310336
 20
-59.7321728385
 30
0.0
 10
-8.0699998309
 20
-59.9428833719
 30
0.0
 10
-8.0737561188
 20
-60.108528019
 30
0.0
 10
-8.0702848039
 20
-60.2681956865
 30
0.0
 10
-8.0595112235
 20
-60.409419013
 30
0.0
 10
-8.0475231853
 20
-60.4979985358
 30
0.0
 10
-8.040726964
 20
-60.5380538566
 30
0.0
  0
SPLINE
  5
606
100
AcDbEntity
  8
0
100
AcDbSpline
 62
7
  6
CONTINUOUS
 70
0
 71
3
 72
23
 73
19
 74
0
 42
0.0000001
 43
0.0000001
 44
0.0000000001
 40
0.0
 40
0.0
 40
0.0
 40
0.0
 40
0.133865388
 40
0.20037216
 40
0.2707933004
 40
0.3128393088
 40
0.3532679603
 40
0.4320950259
 40
0.5108979706
 40
0.5934174154
 40
0.6364598487
 40
0.6793574615
 40
0.7227184234
 40
0.767131874
 40
0.832840492
 40
0.8940063268
 40
0.9528230231
 40
1.0
 40
1.0
 40
1.0
 40
1.0
 10
-7.8298091386
 20
-61.0493861392
 30
0.0
 10
-7.7539204369
 20
-61.1380650434
 30
0.0
 10
-7.6108506046
 20
-61.2510286585
 30
0.0
 10
-7.3839431378
 20
-61.3222368558
 30
0.0
 10
-7.2274073163
 20
-61.3364579932
 30
0.0
 10
-7.0940327792
 20
-61.3288197185
 30
0.0
 10
-6.9555498244
 20
-61.3021818193
 30
0.0
 10
-6.7941880226
 20
-61.233895695
 30
0.0
 10
-6.6306127476
 20
-61.0983300596
 30
0.0
 10
-6.5315154397
 20
-60.947412211
 30
0.0
 10
-6.4734087803
 20
-60.8122907499
 30
0.0
 10
-6.4413859489
 20
-60.703892548
 30
0.0
 10
-6.422274589
 20
-60.5912975438
 30
0.0
 10
-6.4153080849
 20
-60.4574331758
 30
0.0
 10
-6.4262388168
 20
-60.3077926774
 30
0.0
 10
-6.466647817
 20
-60.1500170423
 30
0.0
 10
-6.5308952261
 20
-60.0179675972
 30
0.0
 10
-6.5867292136
 20
-59.9437806621
 30
0.0
 10
-6.6139626643
 20
-59.9128442681
 30
0.0
  0
SPLINE
  5
607
100
AcDbEntity
  8
0
100
AcDbSpline
 62
7
  6
CONTINUOUS
 70
0
 71
3
 72
8
 73
4
 74
0
 42
0.0000001
 43
0.0000001
 44
0.0000000001
 40
0.0
 40
0.0
 40
0.0
 40
0.0
 40
1.0
 40
1.0
 40
1.0
 40
1.0
 10
-8.9559891408
 20
-59.7317152036
 30
0.0
 10
-9.0570796795
 20
-59.7984643403
 30
0.0
 10
-9.1835646795
 20
-59.8340412443
 30
0.0
 10
-9.3047040383
 20
-59.8340412443
 30
0.0
  0
SPLINE
  5
608
100
AcDbEntity
  8
0
100
AcDbSpline
 62
7
  6
CONTINUOUS
 70
0
 71
3
 72
8
 73
4
 74
0
 42
0.0000001
 43
0.0000001
 44
0.0000000001
 40
0.0
 40
0.0
 40
0.0
 40
0.0
 40
1.0
 40
1.0
 40
1.0
 40
1.0
 10
-9.3047040383
 20
-59.8340412443
 30
0.0
 10
-9.3214250274
 20
-59.8340412443
 30
0.0
 10
-9.3381250803
 20
-59.8323581671
 30
0.0
 10
-9.3547407401
 20
-59.8304843149
 30
0.0
  0
SPLINE
  5
609
100
AcDbEntity
  8
0
100
AcDbSpline
 62
7
  6
CONTINUOUS
 70
0
 71
3
 72
9
 73
5
 74
0
 42
0.0000001
 43
0.0000001
 44
0.0000000001
 40
0.0
 40
0.0
 40
0.0
 40
0.0
 40
0.290916541
 40
1.0
 40
1.0
 40
1.0
 40
1.0
 10
-9.3898375978
 20
-60.1036701032
 30
0.0
 10
-9.3686494102
 20
-60.0982410995
 30
0.0
 10
-9.2955316145
 20
-60.0810796051
 30
0.0
 10
-9.2204752579
 20
-60.0695218217
 30
0.0
 10
-9.167162568
 20
-60.0695218217
 30
0.0
  0
SPLINE
  5
60A
100
AcDbEntity
  8
0
100
AcDbSpline
 62
7
  6
CONTINUOUS
 70
0
 71
3
 72
23
 73
19
 74
0
 42
0.0000001
 43
0.0000001
 44
0.0000000001
 40
0.0
 40
0.0
 40
0.0
 40
0.0
 40
0.1248043578
 40
0.1836565139
 40
0.2431757998
 40
0.3022746704
 40
0.3599158175
 40
0.4187074422
 40
0.4811136631
 40
0.5467112022
 40
0.6090097416
 40
0.6705291439
 40
0.7338823102
 40
0.7974946955
 40
0.8599165966
 40
0.9238650515
 40
0.9918743819
 40
1.0
 40
1.0
 40
1.0
 40
1.0
 10
-9.167162568
 20
-60.0695218217
 30
0.0
 10
-9.0996435909
 20
-60.0695218217
 30
0.0
 10
-8.9984138098
 20
-60.0846251708
 30
0.0
 10
-8.8800285035
 20
-60.1439336251
 30
0.0
 10
-8.8043905278
 20
-60.2041057241
 30
0.0
 10
-8.7419116676
 20
-60.2769820933
 30
0.0
 10
-8.6964990282
 20
-60.3612422177
 30
0.0
 10
-8.6697247401
 20
-60.4549595135
 30
0.0
 10
-8.6616031827
 20
-60.5562051255
 30
0.0
 10
-8.670111306
 20
-60.6593429321
 30
0.0
 10
-8.6983464982
 20
-60.7586038448
 30
0.0
 10
-8.7462010172
 20
-60.848696266
 30
0.0
 10
-8.8117808618
 20
-60.9275960033
 30
0.0
 10
-8.891162753
 20
-60.9934271844
 30
0.0
 10
-8.9830466352
 20
-61.0412376548
 30
0.0
 10
-9.0851139934
 20
-61.0693845433
 30
0.0
 10
-9.1610319881
 20
-61.0753905692
 30
0.0
 10
-9.2022925211
 20
-61.0749443723
 30
0.0
 10
-9.2066948957
 20
-61.0748527625
 30
0.0
  0
SPLINE
  5
60B
100
AcDbEntity
  8
0
100
AcDbSpline
 62
7
  6
CONTINUOUS
 70
0
 71
3
 72
23
 73
19
 74
0
 42
0.0000001
 43
0.0000001
 44
0.0000000001
 40
0.0
 40
0.0
 40
0.0
 40
0.0
 40
0.113382415
 40
0.1678489734
 40
0.2234082436
 40
0.2793927124
 40
0.3352201199
 40
0.3929922362
 40
0.4546121578
 40
0.5229391381
 40
0.587089194
 40
0.6494165745
 40
0.7124799893
 40
0.7746006908
 40
0.8339932736
 40
0.8932769006
 40
0.9550845874
 40
1.0
 40
1.0
 40
1.0
 40
1.0
 10
-10.0
 20
-60.6348646914
 30
0.0
 10
-9.9903755584
 20
-60.7314051766
 30
0.0
 10
-9.9534322927
 20
-60.8745463439
 30
0.0
 10
-9.851726664
 20
-61.0376844643
 30
0.0
 10
-9.7541149288
 20
-61.1420591682
 30
0.0
 10
-9.638235109
 20
-61.2276883473
 30
0.0
 10
-9.5058322261
 20
-61.2893817624
 30
0.0
 10
-9.3595002464
 20
-61.3257785796
 30
0.0
 10
-9.198654936
 20
-61.3370615687
 30
0.0
 10
-9.0322909733
 20
-61.3244669963
 30
0.0
 10
-8.8701071409
 20
-61.2816705627
 30
0.0
 10
-8.7237790139
 20
-61.2090051967
 30
0.0
 10
-8.5971390097
 20
-61.1088492892
 30
0.0
 10
-8.4923536702
 20
-60.9894190405
 30
0.0
 10
-8.4155545363
 20
-60.8537546681
 30
0.0
 10
-8.3700769725
 20
-60.7049051276
 30
0.0
 10
-8.3574869377
 20
-60.5625168335
 30
0.0
 10
-8.3633446941
 20
-60.4711065511
 30
0.0
 10
-8.3688035355
 20
-60.4330408218
 30
0.0
  0
SPLINE
  5
60C
100
AcDbEntity
  8
0
100
AcDbSpline
 62
7
  6
CONTINUOUS
 70
0
 71
3
 72
19
 73
15
 74
0
 42
0.0000001
 43
0.0000001
 44
0.0000000001
 40
0.0
 40
0.0
 40
0.0
 40
0.0
 40
0.1589545647
 40
0.306104014
 40
0.4662694337
 40
0.5499252969
 40
0.6372280613
 40
0.6827335247
 40
0.7282066206
 40
0.7743305842
 40
0.8217605318
 40
0.889180038
 40
0.952527713
 40
1.0
 40
1.0
 40
1.0
 40
1.0
 10
-8.8418060129
 20
-59.9307946311
 30
0.0
 10
-8.7408021935
 20
-59.8840153805
 30
0.0
 10
-8.5586094135
 20
-59.7449736347
 30
0.0
 10
-8.4664084271
 20
-59.4115503363
 30
0.0
 10
-8.5472195675
 20
-59.1350737208
 30
0.0
 10
-8.6944422228
 20
-58.9525160538
 30
0.0
 10
-8.821887677
 20
-58.8665099632
 30
0.0
 10
-8.9362244379
 20
-58.8159509255
 30
0.0
 10
-9.0284047103
 20
-58.7881635467
 30
0.0
 10
-9.1245810874
 20
-58.7715847661
 30
0.0
 10
-9.2373519954
 20
-58.7656657111
 30
0.0
 10
-9.3623421641
 20
-58.774528251
 30
0.0
 10
-9.4842786891
 20
-58.8041251462
 30
0.0
 10
-9.5558844225
 20
-58.8349177034
 30
0.0
 10
-9.5854220511
 20
-58.8502745671
 30
0.0
  0
SPLINE
  5
60D
100
AcDbEntity
  8
0
100
AcDbSpline
 62
7
  6
CONTINUOUS
 70
0
 71
3
 72
17
 73
13
 74
0
 42
0.0000001
 43
0.0000001
 44
0.0000000001
 40
0.0
 40
0.0
 40
0.0
 40
0.0
 40
0.2752721262
 40
0.3947823884
 40
0.4562356547
 40
0.5215301736
 40
0.5872068469
 40
0.6484042185
 40
0.7073568031
 40
0.7665538661
 40
0.881399665
 40
1.0
 40
1.0
 40
1.0
 40
1.0
 10
-9.6661062588
 20
-59.4662365973
 30
0.0
 10
-9.6474852188
 20
-59.3462344799
 30
0.0
 10
-9.5807147798
 20
-59.1645590894
 30
0.0
 10
-9.4027543142
 20
-59.0574266056
 30
0.0
 10
-9.2970993428
 20
-59.0302354511
 30
0.0
 10
-9.2120431571
 20
-59.0239805976
 30
0.0
 10
-9.1271423875
 20
-59.0301957307
 30
0.0
 10
-9.0472880608
 20
-59.050880882
 30
0.0
 10
-8.9757687187
 20
-59.0861458349
 30
0.0
 10
-8.8946984441
 20
-59.1501775463
 30
0.0
 10
-8.8180545062
 20
-59.2591512724
 30
0.0
 10
-8.8010179294
 20
-59.3641156561
 30
0.0
 10
-8.8010179294
 20
-59.4164370395
 30
0.0
  0
SPLINE
  5
60E
100
AcDbEntity
  8
0
100
AcDbSpline
 62
7
  6
CONTINUOUS
 70
0
 71
3
 72
9
 73
5
 74
0
 42
0.0000001
 43
0.0000001
 44
0.0000000001
 40
0.0
 40
0.0
 40
0.0
 40
0.0
 40
0.5205318383
 40
1.0
 40
1.0
 40
1.0
 40
1.0
 10
-8.8010179294
 20
-59.4164370395
 30
0.0
 10
-8.8010179294
 20
-59.4795378981
 30
0.0
 10
-8.8208413806
 20
-59.6048373993
 30
0.0
 10
-8.9074856513
 20
-59.6996888034
 30
0.0
 10
-8.9559891408
 20
-59.7317152036
 30
0.0
  0
LINE
  5
60F
100
AcDbEntity
  8
0
100
AcDbLine
 62
7
  6
CONTINUOUS
 10
-1.0519795992
 20
-62.4957969412
 11
-1.8063232738
 21
-63.6627650269
  0
SPLINE
  5
610
100
AcDbEntity
  8
0
100
AcDbSpline
 62
7
  6
CONTINUOUS
 70
0
 71
3
 72
9
 73
5
 74
0
 42
0.0000001
 43
0.0000001
 44
0.0000000001
 40
0.0
 40
0.0
 40
0.0
 40
0.0
 40
0.7394757627
 40
1.0
 40
1.0
 40
1.0
 40
1.0
 10
-1.8063232738
 20
-63.6627650269
 30
0.0
 10
-1.8622672037
 20
-63.559398436
 30
0.0
 10
-1.9457335267
 20
-63.4237205484
 30
0.0
 10
-2.0368078394
 20
-63.2934610736
 30
0.0
 10
-2.0610122886
 20
-63.2598632907
 30
0.0
  0
SPLINE
  5
611
100
AcDbEntity
  8
0
100
AcDbSpline
 62
7
  6
CONTINUOUS
 70
0
 71
3
 72
9
 73
5
 74
0
 42
0.0000001
 43
0.0000001
 44
0.0000000001
 40
0.0
 40
0.0
 40
0.0
 40
0.0
 40
0.7097160398
 40
1.0
 40
1.0
 40
1.0
 40
1.0
 10
-6.0919254136
 20
-62.7538057412
 30
0.0
 10
-6.055093113
 20
-62.8798635331
 30
0.0
 10
-5.995835245
 20
-63.0553052239
 30
0.0
 10
-5.933052795
 20
-63.2293572955
 30
0.0
 10
-5.914544436
 20
-63.2797831601
 30
0.0
  0
SPLINE
  5
612
100
AcDbEntity
  8
0
100
AcDbSpline
 62
7
  6
CONTINUOUS
 70
0
 71
3
 72
32
 73
28
 74
0
 42
0.0000001
 43
0.0000001
 44
0.0000000001
 40
0.0
 40
0.0
 40
0.0
 40
0.0
 40
0.0367788149
 40
0.08110934
 40
0.1239547692
 40
0.1659201554
 40
0.2464563924
 40
0.2860313132
 40
0.3262207684
 40
0.366702269
 40
0.4071188602
 40
0.4482590224
 40
0.4908710886
 40
0.5546466371
 40
0.6144434839
 40
0.672822725
 40
0.7325281631
 40
0.7937695176
 40
0.8250316359
 40
0.8570923783
 40
0.8903456461
 40
0.9250864287
 40
0.943096711
 40
0.9615686879
 40
0.9805282153
 40
0.9901987435
 40
1.0
 40
1.0
 40
1.0
 40
1.0
 10
10.8376394787
 20
-60.0017086216
 30
0.0
 10
10.8366849287
 20
-59.9531912958
 30
0.0
 10
10.8304191826
 20
-59.8462886688
 30
0.0
 10
10.8053604791
 20
-59.6844159852
 30
0.0
 10
10.7597919788
 20
-59.5198595464
 30
0.0
 10
10.6766552493
 20
-59.3179078295
 30
0.0
 10
10.5567086196
 20
-59.1368786073
 30
0.0
 10
10.4023738352
 20
-58.9913949986
 30
0.0
 10
10.2718410397
 20
-58.9003897991
 30
0.0
 10
10.1291016365
 20
-58.8276687117
 30
0.0
 10
9.9763367257
 20
-58.7753748975
 30
0.0
 10
9.8150364303
 20
-58.7442120401
 30
0.0
 10
9.6203903572
 20
-58.7329903017
 30
0.0
 10
9.4007222772
 20
-58.7509332611
 30
0.0
 10
9.1682928267
 20
-58.8173157931
 30
0.0
 10
8.9606338003
 20
-58.9304996389
 30
0.0
 10
8.7807881361
 20
-59.0866786826
 30
0.0
 10
8.6588811349
 20
-59.2482678817
 30
0.0
 10
8.582759352
 20
-59.3941508935
 30
0.0
 10
8.5359923639
 20
-59.5128601123
 30
0.0
 10
8.4997081992
 20
-59.6399139724
 30
0.0
 10
8.4784198749
 20
-59.7514695401
 30
0.0
 10
8.4664350153
 20
-59.8446467499
 30
0.0
 10
8.459942088
 20
-59.9174910383
 30
0.0
 10
8.4567215422
 20
-59.9795383642
 30
0.0
 10
8.4554364389
 20
-60.0302056327
 30
0.0
 10
8.4552062894
 20
-60.0558847279
 30
0.0
 10
8.4552176941
 20
-60.0688103896
 30
0.0
  0
SPLINE
  5
613
100
AcDbEntity
  8
0
100
AcDbSpline
 62
7
  6
CONTINUOUS
 70
0
 71
3
 72
35
 73
31
 74
0
 42
0.0000001
 43
0.0000001
 44
0.0000000001
 40
0.0
 40
0.0
 40
0.0
 40
0.0
 40
0.0052067616
 40
0.0103981029
 40
0.0207377112
 40
0.0412680365
 40
0.0819253126
 40
0.1225430005
 40
0.1636383418
 40
0.2044038377
 40
0.244239094
 40
0.2839752345
 40
0.324449489
 40
0.3652859943
 40
0.4061424581
 40
0.4478622272
 40
0.4912383226
 40
0.5316428322
 40
0.5712615201
 40
0.6107398321
 40
0.6507300117
 40
0.6906804145
 40
0.7302593841
 40
0.7704099143
 40
0.8120361729
 40
0.8548388589
 40
0.8984099954
 40
0.9434040879
 40
0.9904162484
 40
1.0
 40
1.0
 40
1.0
 40
1.0
 10
8.4552176941
 20
-60.0688103896
 30
0.0
 10
8.4552237526
 20
-60.0756769417
 30
0.0
 10
8.4553075688
 20
-60.0893896609
 30
0.0
 10
8.4558686071
 20
-60.1167328187
 30
0.0
 10
8.4578088198
 20
-60.1642556
 30
0.0
 10
8.4655635307
 20
-60.2583051665
 30
0.0
 10
8.4878668184
 20
-60.3910215394
 30
0.0
 10
8.5329171669
 20
-60.5463332163
 30
0.0
 10
8.5948600817
 20
-60.6958629088
 30
0.0
 10
8.6738055674
 20
-60.8361523648
 30
0.0
 10
8.7713367588
 20
-60.9620848607
 30
0.0
 10
8.8859275432
 20
-61.072122913
 30
0.0
 10
9.0161755598
 20
-61.1653144436
 30
0.0
 10
9.1593272094
 20
-61.2404112517
 30
0.0
 10
9.3135186342
 20
-61.2942985182
 30
0.0
 10
9.4770453701
 20
-61.3263055172
 30
0.0
 10
9.6426958822
 20
-61.3362805592
 30
0.0
 10
9.8055360288
 20
-61.3267984248
 30
0.0
 10
9.9608711825
 20
-61.2976398256
 30
0.0
 10
10.1105452519
 20
-61.2487032822
 30
0.0
 10
10.2533289618
 20
-61.1812892469
 30
0.0
 10
10.3860691667
 20
-61.0952174838
 30
0.0
 10
10.5036996151
 20
-60.988990903
 30
0.0
 10
10.6050048883
 20
-60.8643107841
 30
0.0
 10
10.6889817804
 20
-60.722488143
 30
0.0
 10
10.7556843418
 20
-60.5669389357
 30
0.0
 10
10.8036014639
 20
-60.3999975354
 30
0.0
 10
10.8320777923
 20
-60.2230769828
 30
0.0
 10
10.8386005849
 20
-60.0890276056
 30
0.0
 10
10.8378882135
 20
-60.0143511714
 30
0.0
 10
10.8376394787
 20
-60.0017086216
 30
0.0
  0
SPLINE
  5
614
100
AcDbEntity
  8
0
100
AcDbSpline
 62
7
  6
CONTINUOUS
 70
0
 71
3
 72
22
 73
18
 74
0
 42
0.0000001
 43
0.0000001
 44
0.0000000001
 40
0.0
 40
0.0
 40
0.0
 40
0.0
 40
0.0569420517
 40
0.125484894
 40
0.1893387342
 40
0.2509995384
 40
0.310181327
 40
0.3663511204
 40
0.4222237488
 40
0.480555548
 40
0.5621237871
 40
0.6432412676
 40
0.7266600561
 40
0.8156789651
 40
0.9079997862
 40
0.9538453978
 40
1.0
 40
1.0
 40
1.0
 40
1.0
 10
-2.836911609
 20
-60.5241780374
 30
0.0
 10
-2.8378939867
 20
-60.5564089533
 30
0.0
 10
-2.8436749905
 20
-60.627297703
 30
0.0
 10
-2.8669360063
 20
-60.7323809486
 30
0.0
 10
-2.9104728264
 20
-60.8339984487
 30
0.0
 10
-2.9716045365
 20
-60.9196617861
 30
0.0
 10
-3.0450739216
 20
-60.9886694457
 30
0.0
 10
-3.1286736256
 20
-61.0391531603
 30
0.0
 10
-3.2212282261
 20
-61.0689867907
 30
0.0
 10
-3.33216646
 20
-61.0793403961
 30
0.0
 10
-3.4578027838
 20
-61.0627297993
 30
0.0
 10
-3.5863243408
 20
-61.0042754355
 30
0.0
 10
-3.6961286911
 20
-60.9086020584
 30
0.0
 10
-3.7755256701
 20
-60.7795493573
 30
0.0
 10
-3.8180438943
 20
-60.6572102239
 30
0.0
 10
-3.8354115058
 20
-60.5541850801
 30
0.0
 10
-3.8381257854
 20
-60.5021028976
 30
0.0
 10
-3.8381427765
 20
-60.4759804873
 30
0.0
  0
SPLINE
  5
615
100
AcDbEntity
  8
0
100
AcDbSpline
 62
7
  6
CONTINUOUS
 70
0
 71
3
 72
25
 73
21
 74
0
 42
0.0000001
 43
0.0000001
 44
0.0000000001
 40
0.0
 40
0.0
 40
0.0
 40
0.0
 40
0.0347427519
 40
0.0680113954
 40
0.1310452939
 40
0.1915853726
 40
0.2522801628
 40
0.3120846078
 40
0.3696195524
 40
0.4273192643
 40
0.4875980526
 40
0.5498557323
 40
0.608045323
 40
0.6647337522
 40
0.7226877622
 40
0.7821834807
 40
0.8435730499
 40
0.9093833809
 40
0.9816793135
 40
1.0
 40
1.0
 40
1.0
 40
1.0
 10
-3.8381427765
 20
-60.4759804873
 30
0.0
 10
-3.8381555665
 20
-60.4563169136
 30
0.0
 10
-3.8366890343
 20
-60.4178308896
 30
0.0
 10
-3.8277052709
 20
-60.3441769743
 30
0.0
 10
-3.8051638793
 20
-60.257752061
 30
0.0
 10
-3.7582343994
 20
-60.163749912
 30
0.0
 10
-3.6931604033
 20
-60.0837369817
 30
0.0
 10
-3.6156701878
 20
-60.0184690308
 30
0.0
 10
-3.5281205198
 20
-59.9707003381
 30
0.0
 10
-3.4321664724
 20
-59.9424084851
 30
0.0
 10
-3.3300154556
 20
-59.9338370437
 30
0.0
 10
-3.2275831568
 20
-59.9422593781
 30
0.0
 10
-3.130560285
 20
-59.9702316447
 30
0.0
 10
-3.0442775192
 20
-60.0179625895
 30
0.0
 10
-2.9701317242
 20
-60.0839455577
 30
0.0
 10
-2.9096395975
 20
-60.1660061592
 30
0.0
 10
-2.8665624086
 20
-60.2632739327
 30
0.0
 10
-2.8413149407
 20
-60.3738802461
 30
0.0
 10
-2.8358723654
 20
-60.4624838358
 30
0.0
 10
-2.8365955361
 20
-60.5138079773
 30
0.0
 10
-2.836911609
 20
-60.5241780374
 30
0.0
  0
SPLINE
  5
616
100
AcDbEntity
  8
0
100
AcDbSpline
 62
7
  6
CONTINUOUS
 70
0
 71
3
 72
28
 73
24
 74
0
 42
0.0000001
 43
0.0000001
 44
0.0000000001
 40
0.0
 40
0.0
 40
0.0
 40
0.0
 40
0.0513630746
 40
0.0973992876
 40
0.1380867478
 40
0.1736132071
 40
0.2056746106
 40
0.2358714497
 40
0.2912743591
 40
0.3421492876
 40
0.392346354
 40
0.4442692697
 40
0.4715335497
 40
0.5001405869
 40
0.5384111228
 40
0.5740628046
 40
0.6411773468
 40
0.7101562827
 40
0.7880294795
 40
0.882583899
 40
0.9382719977
 40
0.9683772648
 40
1.0
 40
1.0
 40
1.0
 40
1.0
 10
-4.4755759775
 20
-60.0509789932
 30
0.0
 10
-4.4755452434
 20
-59.9920817803
 30
0.0
 10
-4.4775703173
 20
-59.8803848848
 30
0.0
 10
-4.4877320035
 20
-59.7223180948
 30
0.0
 10
-4.5046830335
 20
-59.5830565937
 30
0.0
 10
-4.5296232912
 20
-59.4612850771
 30
0.0
 10
-4.5611159812
 20
-59.3535634017
 30
0.0
 10
-4.6071498315
 20
-59.2267138287
 30
0.0
 10
-4.6757388873
 20
-59.0851373067
 30
0.0
 10
-4.7888569167
 20
-58.9432013944
 30
0.0
 10
-4.9346755208
 20
-58.8415211939
 30
0.0
 10
-5.0759660431
 20
-58.7910117337
 30
0.0
 10
-5.1982093267
 20
-58.7712346806
 30
0.0
 10
-5.3062053012
 20
-58.7659759356
 30
0.0
 10
-5.4239398396
 20
-58.7734821858
 30
0.0
 10
-5.582513093
 20
-58.8079779487
 30
0.0
 10
-5.7614338412
 20
-58.9014976193
 30
0.0
 10
-5.9250783348
 20
-59.090421067
 30
0.0
 10
-6.0397235569
 20
-59.3455740748
 30
0.0
 10
-6.0904346621
 20
-59.6038624494
 30
0.0
 10
-6.1083205351
 20
-59.8099112666
 30
0.0
 10
-6.1138018006
 20
-59.9444591708
 30
0.0
 10
-6.1146990607
 20
-60.0152389686
 30
0.0
 10
-6.1146910118
 20
-60.0514991048
 30
0.0
  0
SPLINE
  5
617
100
AcDbEntity
  8
0
100
AcDbSpline
 62
7
  6
CONTINUOUS
 70
0
 71
3
 72
28
 73
24
 74
0
 42
0.0000001
 43
0.0000001
 44
0.0000000001
 40
0.0
 40
0.0
 40
0.0
 40
0.0
 40
0.0252784054
 40
0.0496940235
 40
0.0959870923
 40
0.1390100497
 40
0.178926355
 40
0.2159556052
 40
0.2504018002
 40
0.3127095735
 40
0.358779705
 40
0.403751782
 40
0.4501801417
 40
0.5003973864
 40
0.5388817654
 40
0.5746968283
 40
0.6420254247
 40
0.711110357
 40
0.7889540505
 40
0.8832121718
 40
0.9385981474
 40
0.9684776893
 40
1.0
 40
1.0
 40
1.0
 40
1.0
 10
-6.1146910118
 20
-60.0514991048
 30
0.0
 10
-6.1146845776
 20
-60.0804845299
 30
0.0
 10
-6.1140843997
 20
-60.1374663716
 30
0.0
 10
-6.1103280626
 20
-60.247470531
 30
0.0
 10
-6.1010707205
 20
-60.3776139067
 30
0.0
 10
-6.0819732793
 20
-60.5246588712
 30
0.0
 10
-6.0550442085
 20
-60.6596646103
 30
0.0
 10
-6.0201639185
 20
-60.7827476649
 30
0.0
 10
-5.9653670097
 20
-60.9260095773
 30
0.0
 10
-5.8849452519
 20
-61.0712377474
 30
0.0
 10
-5.7573522819
 20
-61.1949145125
 30
0.0
 10
-5.6207276623
 20
-61.2763634264
 30
0.0
 10
-5.463887566
 20
-61.3238379567
 30
0.0
 10
-5.3085718544
 20
-61.336656941
 30
0.0
 10
-5.1656620844
 20
-61.3276045762
 30
0.0
 10
-5.0064012439
 20
-61.2929342384
 30
0.0
 10
-4.8270946916
 20
-61.1988783637
 30
0.0
 10
-4.6636125845
 20
-61.0093360697
 30
0.0
 10
-4.5498117101
 20
-60.7540880252
 30
0.0
 10
-4.4996179088
 20
-60.496471783
 30
0.0
 10
-4.4819033995
 20
-60.2913580252
 30
0.0
 10
-4.4764376195
 20
-60.1575295005
 30
0.0
 10
-4.4755948396
 20
-60.0871251206
 30
0.0
 10
-4.4755759775
 20
-60.0509789932
 30
0.0
  0
SPLINE
  5
618
100
AcDbEntity
  8
0
100
AcDbSpline
 62
7
  6
CONTINUOUS
 70
0
 71
3
 72
22
 73
18
 74
0
 42
0.0000001
 43
0.0000001
 44
0.0000000001
 40
0.0
 40
0.0
 40
0.0
 40
0.0
 40
0.0569420517
 40
0.125484894
 40
0.1893387342
 40
0.2509995384
 40
0.310181327
 40
0.3663511204
 40
0.4222237488
 40
0.480555548
 40
0.5621237871
 40
0.6432412676
 40
0.7266600561
 40
0.8156789651
 40
0.9079997862
 40
0.9538453978
 40
1.0
 40
1.0
 40
1.0
 40
1.0
 10
-6.7222205972
 20
-60.5241780374
 30
0.0
 10
-6.723202975
 20
-60.5564089533
 30
0.0
 10
-6.7289839787
 20
-60.627297703
 30
0.0
 10
-6.7522449945
 20
-60.7323809486
 30
0.0
 10
-6.7957818146
 20
-60.8339984487
 30
0.0
 10
-6.8569135247
 20
-60.9196617861
 30
0.0
 10
-6.9303829098
 20
-60.9886694457
 30
0.0
 10
-7.0139826138
 20
-61.0391531603
 30
0.0
 10
-7.1065372143
 20
-61.0689867907
 30
0.0
 10
-7.2174754483
 20
-61.0793403961
 30
0.0
 10
-7.3431117721
 20
-61.0627297993
 30
0.0
 10
-7.471633329
 20
-61.0042754355
 30
0.0
 10
-7.5814376793
 20
-60.9086020584
 30
0.0
 10
-7.6608346583
 20
-60.7795493573
 30
0.0
 10
-7.7033528825
 20
-60.6572102239
 30
0.0
 10
-7.720720494
 20
-60.5541850801
 30
0.0
 10
-7.7234347736
 20
-60.5021028976
 30
0.0
 10
-7.7234517647
 20
-60.4759804873
 30
0.0
  0
SPLINE
  5
619
100
AcDbEntity
  8
0
100
AcDbSpline
 62
7
  6
CONTINUOUS
 70
0
 71
3
 72
25
 73
21
 74
0
 42
0.0000001
 43
0.0000001
 44
0.0000000001
 40
0.0
 40
0.0
 40
0.0
 40
0.0
 40
0.0347427519
 40
0.0680113954
 40
0.1310452939
 40
0.1915853726
 40
0.2522801628
 40
0.3120846078
 40
0.3696195524
 40
0.4273192643
 40
0.4875980526
 40
0.5498557323
 40
0.608045323
 40
0.6647337522
 40
0.7226877622
 40
0.7821834807
 40
0.8435730499
 40
0.9093833809
 40
0.9816793135
 40
1.0
 40
1.0
 40
1.0
 40
1.0
 10
-7.7234517647
 20
-60.4759804873
 30
0.0
 10
-7.7234645547
 20
-60.4563169136
 30
0.0
 10
-7.7219980225
 20
-60.4178308896
 30
0.0
 10
-7.7130142591
 20
-60.3441769743
 30
0.0
 10
-7.6904728676
 20
-60.257752061
 30
0.0
 10
-7.6435433876
 20
-60.163749912
 30
0.0
 10
-7.5784693915
 20
-60.0837369817
 30
0.0
 10
-7.500979176
 20
-60.0184690308
 30
0.0
 10
-7.4134295081
 20
-59.9707003381
 30
0.0
 10
-7.3174754607
 20
-59.9424084851
 30
0.0
 10
-7.2153244438
 20
-59.9338370437
 30
0.0
 10
-7.112892145
 20
-59.9422593781
 30
0.0
 10
-7.0158692733
 20
-59.9702316447
 30
0.0
 10
-6.9295865075
 20
-60.0179625895
 30
0.0
 10
-6.8554407124
 20
-60.0839455577
 30
0.0
 10
-6.7949485857
 20
-60.1660061592
 30
0.0
 10
-6.7518713968
 20
-60.2632739327
 30
0.0
 10
-6.7266239289
 20
-60.3738802461
 30
0.0
 10
-6.7211813537
 20
-60.4624838358
 30
0.0
 10
-6.7219045244
 20
-60.5138079773
 30
0.0
 10
-6.7222205972
 20
-60.5241780374
 30
0.0
  0
SPLINE
  5
61A
100
AcDbEntity
  8
0
100
AcDbSpline
 62
7
  6
CONTINUOUS
 70
0
 71
3
 72
13
 73
9
 74
0
 42
0.0000001
 43
0.0000001
 44
0.0000000001
 40
0.0
 40
0.0
 40
0.0
 40
0.0
 40
0.1090102712
 40
0.2629304484
 40
0.3769949454
 40
0.5319518071
 40
0.9696565871
 40
1.0
 40
1.0
 40
1.0
 40
1.0
 10
-2.8895901017
 20
36.7300960417
 30
0.0
 10
-2.8627596027
 20
36.7300960226
 30
0.0
 10
-2.7979633416
 20
36.7264908853
 30
0.0
 10
-2.7067277426
 20
36.7077408534
 30
0.0
 10
-2.6075779466
 20
36.6752213921
 30
0.0
 10
-2.4580184381
 20
36.5791020151
 30
0.0
 10
-2.4058092093
 20
36.4102669169
 30
0.0
 10
-2.4071232261
 20
36.2954570792
 30
0.0
 10
-2.4071232261
 20
36.2879887105
 30
0.0
  0
SPLINE
  5
61B
100
AcDbEntity
  8
0
100
AcDbSpline
 62
7
  6
CONTINUOUS
 70
0
 71
3
 72
13
 73
9
 74
0
 42
0.0000001
 43
0.0000001
 44
0.0000000001
 40
0.0
 40
0.0
 40
0.0
 40
0.0
 40
0.030343199
 40
0.4680448943
 40
0.623000664
 40
0.7370643571
 40
0.8909834496
 40
1.0
 40
1.0
 40
1.0
 40
1.0
 10
-2.4071232261
 20
36.2879887105
 30
0.0
 10
-2.4071232261
 20
36.2805203418
 30
0.0
 10
-2.4058092093
 20
36.1657105041
 30
0.0
 10
-2.4580184381
 20
35.996875406
 30
0.0
 10
-2.6075779466
 20
35.900756029
 30
0.0
 10
-2.7067277426
 20
35.8682365676
 30
0.0
 10
-2.7979650471
 20
35.8494861852
 30
0.0
 10
-2.8627630762
 20
35.8458812052
 30
0.0
 10
-2.8895953055
 20
35.8458813794
 30
0.0
  0
SPLINE
  5
61C
100
AcDbEntity
  8
0
100
AcDbSpline
 62
7
  6
CONTINUOUS
 70
0
 71
3
 72
14
 73
10
 74
0
 42
0.0000001
 43
0.0000001
 44
0.0000000001
 40
0.0
 40
0.0
 40
0.0
 40
0.0
 40
0.0943174529
 40
0.245474485
 40
0.3513651177
 40
0.4920105503
 40
0.6227666105
 40
0.9774609968
 40
1.0
 40
1.0
 40
1.0
 40
1.0
 10
-2.8092348557
 20
35.5511873487
 30
0.0
 10
-2.7720052813
 20
35.5511872001
 30
0.0
 10
-2.6750199787
 20
35.5570279401
 30
0.0
 10
-2.538868547
 20
35.5876466087
 30
0.0
 10
-2.3923932462
 20
35.6459179265
 30
0.0
 10
-2.2694368694
 20
35.7333989812
 30
0.0
 10
-2.1068025071
 20
35.9217575019
 30
0.0
 10
-2.0507425816
 20
36.1303732483
 30
0.0
 10
-2.0520245419
 20
36.2790919738
 30
0.0
 10
-2.0520245419
 20
36.2879887105
 30
0.0
  0
SPLINE
  5
61D
100
AcDbEntity
  8
0
100
AcDbSpline
 62
7
  6
CONTINUOUS
 70
0
 71
3
 72
14
 73
10
 74
0
 42
0.0000001
 43
0.0000001
 44
0.0000000001
 40
0.0
 40
0.0
 40
0.0
 40
0.0
 40
0.0225390881
 40
0.3772348117
 40
0.5079913648
 40
0.6486373276
 40
0.7545283595
 40
0.9056859614
 40
1.0
 40
1.0
 40
1.0
 40
1.0
 10
-2.0520245419
 20
36.2879887105
 30
0.0
 10
-2.0520245419
 20
36.2968854472
 30
0.0
 10
-2.0507425816
 20
36.4456041728
 30
0.0
 10
-2.1068025071
 20
36.6542199191
 30
0.0
 10
-2.2694368694
 20
36.8425784398
 30
0.0
 10
-2.3923932462
 20
36.9300594946
 30
0.0
 10
-2.538868547
 20
36.9883308123
 30
0.0
 10
-2.6750185179
 20
37.0189491525
 30
0.0
 10
-2.7720023024
 20
37.0247900415
 30
0.0
 10
-2.8092303915
 20
37.0247900724
 30
0.0
  0
SPLINE
  5
61E
100
AcDbEntity
  8
0
100
AcDbSpline
 62
7
  6
CONTINUOUS
 70
0
 71
3
 72
16
 73
12
 74
0
 42
0.0000001
 43
0.0000001
 44
0.0000000001
 40
0.0
 40
0.0
 40
0.0
 40
0.0
 40
0.081582199
 40
0.1574553967
 40
0.3066287736
 40
0.384848994
 40
0.5792892447
 40
0.6959714606
 40
0.8475957974
 40
0.961835767
 40
1.0
 40
1.0
 40
1.0
 40
1.0
 10
1.0692455458
 20
34.7557778559
 30
0.0
 10
1.0354138915
 20
34.7557778559
 30
0.0
 10
0.9699759347
 20
34.7643227505
 30
0.0
 10
0.8493332085
 20
34.8083493543
 30
0.0
 10
0.7537895547
 20
34.8967542469
 30
0.0
 10
0.655299564
 20
35.0417787884
 30
0.0
 10
0.6077759961
 20
35.1992668713
 30
0.0
 10
0.5699037615
 20
35.3869336819
 30
0.0
 10
0.5511887863
 20
35.5448941713
 30
0.0
 10
0.5471701667
 20
35.6709723528
 30
0.0
 10
0.5474584928
 20
35.7341735188
 30
0.0
 10
0.5474584928
 20
35.75
 30
0.0
  0
SPLINE
  5
61F
100
AcDbEntity
  8
0
100
AcDbSpline
 62
7
  6
CONTINUOUS
 70
0
 71
3
 72
16
 73
12
 74
0
 42
0.0000001
 43
0.0000001
 44
0.0000000001
 40
0.0
 40
0.0
 40
0.0
 40
0.0
 40
0.038164233
 40
0.1524042026
 40
0.3040285394
 40
0.4207107553
 40
0.615151006
 40
0.6933712264
 40
0.8425446033
 40
0.918417801
 40
1.0
 40
1.0
 40
1.0
 40
1.0
 10
0.5474584928
 20
35.75
 30
0.0
 10
0.5474584928
 20
35.7658264812
 30
0.0
 10
0.5471701667
 20
35.8290276472
 30
0.0
 10
0.5511887863
 20
35.9551058287
 30
0.0
 10
0.5699037615
 20
36.1130663181
 30
0.0
 10
0.6077759961
 20
36.3007331287
 30
0.0
 10
0.655299564
 20
36.4582212116
 30
0.0
 10
0.7537895547
 20
36.6032457531
 30
0.0
 10
0.8493332085
 20
36.6916506457
 30
0.0
 10
0.9699759347
 20
36.7356772495
 30
0.0
 10
1.0354138915
 20
36.7442221441
 30
0.0
 10
1.0692455458
 20
36.7442221441
 30
0.0
  0
SPLINE
  5
620
100
AcDbEntity
  8
0
100
AcDbSpline
 62
7
  6
CONTINUOUS
 70
0
 71
3
 72
16
 73
12
 74
0
 42
0.0000001
 43
0.0000001
 44
0.0000000001
 40
0.0
 40
0.0
 40
0.0
 40
0.0
 40
0.081582199
 40
0.1574553967
 40
0.3066287736
 40
0.384848994
 40
0.5792892447
 40
0.6959714606
 40
0.8475957974
 40
0.961835767
 40
1.0
 40
1.0
 40
1.0
 40
1.0
 10
1.0692455458
 20
36.7442221441
 30
0.0
 10
1.1030772001
 20
36.7442221441
 30
0.0
 10
1.1685151569
 20
36.7356772495
 30
0.0
 10
1.2891578831
 20
36.6916506457
 30
0.0
 10
1.3847015369
 20
36.6032457531
 30
0.0
 10
1.4831915276
 20
36.4582212116
 30
0.0
 10
1.5307150955
 20
36.3007331287
 30
0.0
 10
1.5685873301
 20
36.1130663181
 30
0.0
 10
1.5873023053
 20
35.9551058287
 30
0.0
 10
1.5913209249
 20
35.8290276472
 30
0.0
 10
1.5910325988
 20
35.7658264812
 30
0.0
 10
1.5910325988
 20
35.75
 30
0.0
  0
SPLINE
  5
621
100
AcDbEntity
  8
0
100
AcDbSpline
 62
7
  6
CONTINUOUS
 70
0
 71
3
 72
16
 73
12
 74
0
 42
0.0000001
 43
0.0000001
 44
0.0000000001
 40
0.0
 40
0.0
 40
0.0
 40
0.0
 40
0.038164233
 40
0.1524042026
 40
0.3040285394
 40
0.4207107553
 40
0.615151006
 40
0.6933712264
 40
0.8425446033
 40
0.918417801
 40
1.0
 40
1.0
 40
1.0
 40
1.0
 10
1.5910325988
 20
35.75
 30
0.0
 10
1.5910325988
 20
35.7341735188
 30
0.0
 10
1.5913209249
 20
35.6709723528
 30
0.0
 10
1.5873023053
 20
35.5448941713
 30
0.0
 10
1.5685873301
 20
35.3869336819
 30
0.0
 10
1.5307150955
 20
35.1992668713
 30
0.0
 10
1.4831915276
 20
35.0417787884
 30
0.0
 10
1.3847015369
 20
34.8967542469
 30
0.0
 10
1.2891578831
 20
34.8083493543
 30
0.0
 10
1.1685151569
 20
34.7643227505
 30
0.0
 10
1.1030772001
 20
34.7557778559
 30
0.0
 10
1.0692455458
 20
34.7557778559
 30
0.0
  0
SPLINE
  5
622
100
AcDbEntity
  8
0
100
AcDbSpline
 62
7
  6
CONTINUOUS
 70
0
 71
3
 72
23
 73
19
 74
0
 42
0.0000001
 43
0.0000001
 44
0.0000000001
 40
0.0
 40
0.0
 40
0.0
 40
0.0
 40
0.1175716721
 40
0.2550368586
 40
0.3463162708
 40
0.4140846673
 40
0.5095606694
 40
0.6178461101
 40
0.6617319017
 40
0.7152414415
 40
0.7583771864
 40
0.8078403706
 40
0.8439461126
 40
0.889742133
 40
0.9288974336
 40
0.9679984913
 40
0.9901309194
 40
1.0
 40
1.0
 40
1.0
 40
1.0
 10
1.0692455458
 20
37.0247814038
 30
0.0
 10
1.0017916478
 20
37.0247814038
 30
0.0
 10
0.8550102593
 20
37.0061399503
 30
0.0
 10
0.6689000482
 20
36.9262439106
 30
0.0
 10
0.5378493452
 20
36.8153734425
 30
0.0
 10
0.445176882
 20
36.7021124705
 30
0.0
 10
0.3627042487
 20
36.5690133326
 30
0.0
 10
0.3126302433
 20
36.4351152006
 30
0.0
 10
0.2821029947
 20
36.3211500568
 30
0.0
 10
0.2636545833
 20
36.2426329742
 30
0.0
 10
0.2476345179
 20
36.1603382084
 30
0.0
 10
0.2360499608
 20
36.0873922697
 30
0.0
 10
0.2266646496
 20
36.0126032048
 30
0.0
 10
0.2201604507
 20
35.9434394309
 30
0.0
 10
0.2157963674
 20
35.8723918525
 30
0.0
 10
0.2139518411
 20
35.8148159772
 30
0.0
 10
0.2136457308
 20
35.7740222033
 30
0.0
 10
0.2136708479
 20
35.7556621459
 30
0.0
 10
0.2136708479
 20
35.75
 30
0.0
  0
SPLINE
  5
623
100
AcDbEntity
  8
0
100
AcDbSpline
 62
7
  6
CONTINUOUS
 70
0
 71
3
 72
23
 73
19
 74
0
 42
0.0000001
 43
0.0000001
 44
0.0000000001
 40
0.0
 40
0.0
 40
0.0
 40
0.0
 40
0.0098690806
 40
0.0320015087
 40
0.0711025664
 40
0.110257867
 40
0.1560538874
 40
0.1921596294
 40
0.2416228136
 40
0.2847585585
 40
0.3382680983
 40
0.3821538899
 40
0.4904393306
 40
0.5859153327
 40
0.6536837292
 40
0.7449631414
 40
0.8824283279
 40
1.0
 40
1.0
 40
1.0
 40
1.0
 10
0.2136708479
 20
35.75
 30
0.0
 10
0.2136708479
 20
35.7443378541
 30
0.0
 10
0.2136457308
 20
35.7259777967
 30
0.0
 10
0.2139518411
 20
35.6851840228
 30
0.0
 10
0.2157963674
 20
35.6276081475
 30
0.0
 10
0.2201604507
 20
35.5565605691
 30
0.0
 10
0.2266646496
 20
35.4873967952
 30
0.0
 10
0.2360499608
 20
35.4126077303
 30
0.0
 10
0.2476345179
 20
35.3396617916
 30
0.0
 10
0.2636545833
 20
35.2573670258
 30
0.0
 10
0.2821029947
 20
35.1788499432
 30
0.0
 10
0.3126302433
 20
35.0648847994
 30
0.0
 10
0.3627042487
 20
34.9309866674
 30
0.0
 10
0.445176882
 20
34.7978875295
 30
0.0
 10
0.5378493452
 20
34.6846265575
 30
0.0
 10
0.6689000482
 20
34.5737560894
 30
0.0
 10
0.8550102593
 20
34.4938600497
 30
0.0
 10
1.0017916478
 20
34.4752185962
 30
0.0
 10
1.0692455458
 20
34.4752185962
 30
0.0
  0
SPLINE
  5
624
100
AcDbEntity
  8
0
100
AcDbSpline
 62
7
  6
CONTINUOUS
 70
0
 71
3
 72
23
 73
19
 74
0
 42
0.0000001
 43
0.0000001
 44
0.0000000001
 40
0.0
 40
0.0
 40
0.0
 40
0.0
 40
0.1175716721
 40
0.2550368586
 40
0.3463162708
 40
0.4140846673
 40
0.5095606694
 40
0.6178461101
 40
0.6617319017
 40
0.7152414415
 40
0.7583771864
 40
0.8078403706
 40
0.8439461126
 40
0.889742133
 40
0.9288974336
 40
0.9679984913
 40
0.9901309194
 40
1.0
 40
1.0
 40
1.0
 40
1.0
 10
1.0692455458
 20
34.4752185962
 30
0.0
 10
1.1366994438
 20
34.4752185962
 30
0.0
 10
1.2834808323
 20
34.4938600497
 30
0.0
 10
1.4695910434
 20
34.5737560894
 30
0.0
 10
1.6006417464
 20
34.6846265575
 30
0.0
 10
1.6933142096
 20
34.7978875295
 30
0.0
 10
1.7757868429
 20
34.9309866674
 30
0.0
 10
1.8258608483
 20
35.0648847994
 30
0.0
 10
1.8563880969
 20
35.1788499432
 30
0.0
 10
1.8748365083
 20
35.2573670258
 30
0.0
 10
1.8908565737
 20
35.3396617916
 30
0.0
 10
1.9024411308
 20
35.4126077303
 30
0.0
 10
1.9118264421
 20
35.4873967952
 30
0.0
 10
1.9183306409
 20
35.5565605691
 30
0.0
 10
1.9226947242
 20
35.6276081475
 30
0.0
 10
1.9245392505
 20
35.6851840228
 30
0.0
 10
1.9248453608
 20
35.7259777967
 30
0.0
 10
1.9248202437
 20
35.7443378541
 30
0.0
 10
1.9248202437
 20
35.75
 30
0.0
  0
SPLINE
  5
625
100
AcDbEntity
  8
0
100
AcDbSpline
 62
7
  6
CONTINUOUS
 70
0
 71
3
 72
23
 73
19
 74
0
 42
0.0000001
 43
0.0000001
 44
0.0000000001
 40
0.0
 40
0.0
 40
0.0
 40
0.0
 40
0.0098690806
 40
0.0320015087
 40
0.0711025664
 40
0.110257867
 40
0.1560538874
 40
0.1921596294
 40
0.2416228136
 40
0.2847585585
 40
0.3382680983
 40
0.3821538899
 40
0.4904393306
 40
0.5859153327
 40
0.6536837292
 40
0.7449631414
 40
0.8824283279
 40
1.0
 40
1.0
 40
1.0
 40
1.0
 10
1.9248202437
 20
35.75
 30
0.0
 10
1.9248202437
 20
35.7556621459
 30
0.0
 10
1.9248453608
 20
35.7740222033
 30
0.0
 10
1.9245392505
 20
35.8148159772
 30
0.0
 10
1.9226947242
 20
35.8723918525
 30
0.0
 10
1.9183306409
 20
35.9434394309
 30
0.0
 10
1.9118264421
 20
36.0126032048
 30
0.0
 10
1.9024411308
 20
36.0873922697
 30
0.0
 10
1.8908565737
 20
36.1603382084
 30
0.0
 10
1.8748365083
 20
36.2426329742
 30
0.0
 10
1.8563880969
 20
36.3211500568
 30
0.0
 10
1.8258608483
 20
36.4351152006
 30
0.0
 10
1.7757868429
 20
36.5690133326
 30
0.0
 10
1.6933142096
 20
36.7021124705
 30
0.0
 10
1.6006417464
 20
36.8153734425
 30
0.0
 10
1.4695910434
 20
36.9262439106
 30
0.0
 10
1.2834808323
 20
37.0061399503
 30
0.0
 10
1.1366994438
 20
37.0247814038
 30
0.0
 10
1.0692455458
 20
37.0247814038
 30
0.0
  0
SPLINE
  5
626
100
AcDbEntity
  8
0
100
AcDbSpline
 62
7
  6
CONTINUOUS
 70
0
 71
3
 72
12
 73
8
 74
0
 42
0.0000001
 43
0.0000001
 44
0.0000000001
 40
0.0
 40
0.0
 40
0.0
 40
0.0
 40
0.0375075069
 40
0.2862481542
 40
0.5077779837
 40
0.7361275098
 40
1.0
 40
1.0
 40
1.0
 40
1.0
 10
2.8343163513
 20
-53.6598951883
 30
0.0
 10
2.8264666868
 20
-53.6566236442
 30
0.0
 10
2.7669368035
 20
-53.6307138652
 30
0.0
 10
2.6668527007
 20
-53.5720362201
 30
0.0
 10
2.5584406635
 20
-53.4532838567
 30
0.0
 10
2.4937912402
 20
-53.3031387024
 30
0.0
 10
2.4728786107
 20
-53.1932049355
 30
0.0
 10
2.4662357111
 20
-53.1339301213
 30
0.0
  0
SPLINE
  5
627
100
AcDbEntity
  8
0
100
AcDbSpline
 62
7
  6
CONTINUOUS
 70
0
 71
3
 72
12
 73
8
 74
0
 42
0.0000001
 43
0.0000001
 44
0.0000000001
 40
0.0
 40
0.0
 40
0.0
 40
0.0
 40
0.0375075069
 40
0.2862481542
 40
0.5077779837
 40
0.7361275098
 40
1.0
 40
1.0
 40
1.0
 40
1.0
 10
11.8586959814
 20
-60.9787058996
 30
0.0
 10
11.8508463169
 20
-60.9754343555
 30
0.0
 10
11.7913164335
 20
-60.9495245765
 30
0.0
 10
11.6912323308
 20
-60.8908469314
 30
0.0
 10
11.5828202935
 20
-60.772094568
 30
0.0
 10
11.5181708703
 20
-60.6219494137
 30
0.0
 10
11.4972582408
 20
-60.5120156468
 30
0.0
 10
11.4906153411
 20
-60.4527408326
 30
0.0
  0
SPLINE
  5
628
100
AcDbEntity
  8
0
100
AcDbSpline
 62
7
  6
CONTINUOUS
 70
0
 71
3
 72
12
 73
8
 74
0
 42
0.0000001
 43
0.0000001
 44
0.0000000001
 40
0.0
 40
0.0
 40
0.0
 40
0.0
 40
0.1066671181
 40
0.2226369406
 40
0.4445944869
 40
0.6902061394
 40
1.0
 40
1.0
 40
1.0
 40
1.0
 10
-1.4360769192
 20
-61.0748527625
 30
0.0
 10
-1.4629128669
 20
-61.0742943287
 30
0.0
 10
-1.5188306833
 20
-61.0697170817
 30
0.0
 10
-1.627716016
 20
-61.0429580787
 30
0.0
 10
-1.7584825795
 20
-60.9668300341
 30
0.0
 10
-1.8707358694
 20
-60.8008892199
 30
0.0
 10
-1.9098127772
 20
-60.665491076
 30
0.0
 10
-1.9258422588
 20
-60.5893337267
 30
0.0
  0
SPLINE
  5
629
100
AcDbEntity
  8
0
100
AcDbSpline
 62
7
  6
CONTINUOUS
 70
0
 71
3
 72
12
 73
8
 74
0
 42
0.0000001
 43
0.0000001
 44
0.0000000001
 40
0.0
 40
0.0
 40
0.0
 40
0.0
 40
0.0018029367
 40
0.1503576514
 40
0.4316796475
 40
0.7086927377
 40
1.0
 40
1.0
 40
1.0
 40
1.0
 10
-0.5981855591
 20
-60.4330408218
 30
0.0
 10
-0.5982481543
 20
-60.4326043311
 30
0.0
 10
-0.60350117
 20
-60.3962072148
 30
0.0
 10
-0.6264578909
 20
-60.2927856062
 30
0.0
 10
-0.7094749072
 20
-60.1365180525
 30
0.0
 10
-0.8692101021
 20
-59.9970215462
 30
0.0
 10
-1.0018127874
 20
-59.9468386032
 30
0.0
 10
-1.0711880365
 20
-59.9307946311
 30
0.0
  0
SPLINE
  5
62A
100
AcDbEntity
  8
0
100
AcDbSpline
 62
7
  6
CONTINUOUS
 70
0
 71
3
 72
11
 73
7
 74
0
 42
0.0000001
 43
0.0000001
 44
0.0000000001
 40
0.0
 40
0.0
 40
0.0
 40
0.0
 40
0.0407626874
 40
0.2221563536
 40
0.5911266417
 40
1.0
 40
1.0
 40
1.0
 40
1.0
 10
-1.8148040746
 20
-58.8502745671
 30
0.0
 10
-1.8233846586
 20
-58.8547356856
 30
0.0
 10
-1.8696261595
 20
-58.880045001
 30
0.0
 10
-1.9843838494
 20
-58.9616283734
 30
0.0
 10
-2.1275840978
 20
-59.1455912663
 30
0.0
 10
-2.1819369499
 20
-59.3253593609
 30
0.0
 10
-2.1990280471
 20
-59.4207056326
 30
0.0
  0
SPLINE
  5
62B
100
AcDbEntity
  8
0
100
AcDbSpline
 62
7
  6
CONTINUOUS
 70
0
 71
3
 72
10
 73
6
 74
0
 42
0.0000001
 43
0.0000001
 44
0.0000000001
 40
0.0
 40
0.0
 40
0.0
 40
0.0
 40
0.2484581275
 40
0.6491948522
 40
1.0
 40
1.0
 40
1.0
 40
1.0
 10
-4.1554179757
 20
-60.5380538566
 30
0.0
 10
-4.1476696735
 20
-60.5837205164
 30
0.0
 10
-4.1228604113
 20
-60.7022519143
 30
0.0
 10
-4.0620910396
 20
-60.8794175843
 30
0.0
 10
-3.9869837665
 20
-60.9997423787
 30
0.0
 10
-3.9445001504
 20
-61.0493861392
 30
0.0
  0
SPLINE
  5
62C
100
AcDbEntity
  8
0
100
AcDbSpline
 62
7
  6
CONTINUOUS
 70
0
 71
3
 72
14
 73
10
 74
0
 42
0.0000001
 43
0.0000001
 44
0.0000000001
 40
0.0
 40
0.0
 40
0.0
 40
0.0
 40
0.02301266
 40
0.1361512127
 40
0.2440460352
 40
0.3514230036
 40
0.4630737716
 40
0.7230373337
 40
1.0
 40
1.0
 40
1.0
 40
1.0
 10
-2.7286536761
 20
-59.9128442681
 30
0.0
 10
-2.7354348676
 20
-59.9051410353
 30
0.0
 10
-2.7764286908
 20
-59.8603302636
 30
0.0
 10
-2.8585863003
 20
-59.7883011825
 30
0.0
 10
-2.9865535262
 20
-59.7154141761
 30
0.0
 10
-3.1268069168
 20
-59.672390257
 30
0.0
 10
-3.339978141
 20
-59.6525429012
 30
0.0
 10
-3.6334566063
 20
-59.7194229265
 30
0.0
 10
-3.8157977316
 20
-59.8928717803
 30
0.0
 10
-3.8836737412
 20
-59.9957711771
 30
0.0
  0
SPLINE
  5
62D
100
AcDbEntity
  8
0
100
AcDbSpline
 62
7
  6
CONTINUOUS
 70
0
 71
3
 72
10
 73
6
 74
0
 42
0.0000001
 43
0.0000001
 44
0.0000000001
 40
0.0
 40
0.0
 40
0.0
 40
0.0
 40
0.2484581275
 40
0.6491948522
 40
1.0
 40
1.0
 40
1.0
 40
1.0
 10
-8.040726964
 20
-60.5380538566
 30
0.0
 10
-8.0329786618
 20
-60.5837205164
 30
0.0
 10
-8.0081693995
 20
-60.7022519143
 30
0.0
 10
-7.9474000278
 20
-60.8794175843
 30
0.0
 10
-7.8722927547
 20
-60.9997423787
 30
0.0
 10
-7.8298091386
 20
-61.0493861392
 30
0.0
  0
SPLINE
  5
62E
100
AcDbEntity
  8
0
100
AcDbSpline
 62
7
  6
CONTINUOUS
 70
0
 71
3
 72
14
 73
10
 74
0
 42
0.0000001
 43
0.0000001
 44
0.0000000001
 40
0.0
 40
0.0
 40
0.0
 40
0.0
 40
0.02301266
 40
0.1361512127
 40
0.2440460352
 40
0.3514230036
 40
0.4630737716
 40
0.7230373337
 40
1.0
 40
1.0
 40
1.0
 40
1.0
 10
-6.6139626643
 20
-59.9128442681
 30
0.0
 10
-6.6207438558
 20
-59.9051410353
 30
0.0
 10
-6.661737679
 20
-59.8603302636
 30
0.0
 10
-6.7438952885
 20
-59.7883011825
 30
0.0
 10
-6.8718625144
 20
-59.7154141761
 30
0.0
 10
-7.012115905
 20
-59.672390257
 30
0.0
 10
-7.2252871292
 20
-59.6525429012
 30
0.0
 10
-7.5187655945
 20
-59.7194229265
 30
0.0
 10
-7.7011067198
 20
-59.8928717803
 30
0.0
 10
-7.7689827294
 20
-59.9957711771
 30
0.0
  0
SPLINE
  5
62F
100
AcDbEntity
  8
0
100
AcDbSpline
 62
7
  6
CONTINUOUS
 70
0
 71
3
 72
12
 73
8
 74
0
 42
0.0000001
 43
0.0000001
 44
0.0000000001
 40
0.0
 40
0.0
 40
0.0
 40
0.0
 40
0.1066671181
 40
0.2226369406
 40
0.4445944869
 40
0.6902061394
 40
1.0
 40
1.0
 40
1.0
 40
1.0
 10
-9.2066948957
 20
-61.0748527625
 30
0.0
 10
-9.2335308434
 20
-61.0742943287
 30
0.0
 10
-9.2894486597
 20
-61.0697170817
 30
0.0
 10
-9.3983339924
 20
-61.0429580787
 30
0.0
 10
-9.529100556
 20
-60.9668300341
 30
0.0
 10
-9.6413538459
 20
-60.8008892199
 30
0.0
 10
-9.6804307537
 20
-60.665491076
 30
0.0
 10
-9.6964602353
 20
-60.5893337267
 30
0.0
  0
SPLINE
  5
630
100
AcDbEntity
  8
0
100
AcDbSpline
 62
7
  6
CONTINUOUS
 70
0
 71
3
 72
12
 73
8
 74
0
 42
0.0000001
 43
0.0000001
 44
0.0000000001
 40
0.0
 40
0.0
 40
0.0
 40
0.0
 40
0.0018029367
 40
0.1503576514
 40
0.4316796475
 40
0.7086927377
 40
1.0
 40
1.0
 40
1.0
 40
1.0
 10
-8.3688035355
 20
-60.4330408218
 30
0.0
 10
-8.3688661308
 20
-60.4326043311
 30
0.0
 10
-8.3741191464
 20
-60.3962072148
 30
0.0
 10
-8.3970758674
 20
-60.2927856062
 30
0.0
 10
-8.4800928837
 20
-60.1365180525
 30
0.0
 10
-8.6398280786
 20
-59.9970215462
 30
0.0
 10
-8.7724307638
 20
-59.9468386032
 30
0.0
 10
-8.8418060129
 20
-59.9307946311
 30
0.0
  0
SPLINE
  5
631
100
AcDbEntity
  8
0
100
AcDbSpline
 62
7
  6
CONTINUOUS
 70
0
 71
3
 72
11
 73
7
 74
0
 42
0.0000001
 43
0.0000001
 44
0.0000000001
 40
0.0
 40
0.0
 40
0.0
 40
0.0
 40
0.0407626874
 40
0.2221563536
 40
0.5911266417
 40
1.0
 40
1.0
 40
1.0
 40
1.0
 10
-9.5854220511
 20
-58.8502745671
 30
0.0
 10
-9.5940026351
 20
-58.8547356856
 30
0.0
 10
-9.640244136
 20
-58.880045001
 30
0.0
 10
-9.7550018258
 20
-58.9616283734
 30
0.0
 10
-9.8982020742
 20
-59.1455912663
 30
0.0
 10
-9.9525549264
 20
-59.3253593609
 30
0.0
 10
-9.9696460235
 20
-59.4207056326
 30
0.0
  0
ENDSEC
  0
SECTION
  2
OBJECTS
  0
DICTIONARY
  5
C
100
AcDbDictionary
280
0
281
1
  3
ACAD_GROUP
350
D
  3
ACAD_MLINESTYLE
350
17
  3
ACAD_LAYOUT
350
1A
  3
ACAD_PLOTSETTINGS
350
19
  3
ACAD_PLOTSTYLENAME
350
E
  0
DICTIONARY
  5
D
102
{ACAD_REACTORS
330
C
102
}
100
AcDbDictionary
280
0
281
1
  0
ACDBDICTIONARYWDFLT
  5
E
102
{ACAD_REACTORS
330
C
102
}
100
AcDbDictionary
281
1
  3
Normal
350
F
100
AcDbDictionaryWithDefault
340
F
  0
DICTIONARY
  5
17
102
{ACAD_REACTORS
330
C
102
}
100
AcDbDictionary
280
0
281
1
  3
Standard
350
18
  0
DICTIONARY
  5
19
102
{ACAD_REACTORS
330
C
102
}
100
AcDbDictionary
281
1
  0
DICTIONARY
  5
1A
102
{ACAD_REACTORS
330
C
102
}
100
AcDbDictionary
281
1
  3
Model
350
632
  3
Layout1
350
633
  0
ACDBPLACEHOLDER
  5
F
102
{ACAD_REACTORS
330
E
102
}
  0
MLINESTYLE
  5
18
102
{ACAD_REACTORS
330
17
102
}
100
AcDbMlineStyle
  2
STANDARD
 70
0
  3

 62
256
 51
90.0
 52
90.0
 71
2
 49
0.5
 62
256
  6
BYLAYER
 49
-0.5
 62
256
  6
BYLAYER
  0
LAYOUT
  5
632
102
{ACAD_REACTORS
330
1A
102
}
100
AcDbPlotSettings
  1

  2
none_device
  4
ANSI_C_(22.00_x_17.00_Inches)
  6

 40
0.0
 41
0.0
 42
0.0
 43
0.0
 44
558.8
 45
431.8
 46
0.0
 47
0.0
 48
0.0
 49
0.0
140
0.0
141
0.0
142
1.0
143
1.0
 70
1024
 72
1
 73
0
 74
0
  7

 75
0
147
1.0
148
0.0
149
0.0
100
AcDbLayout
  1
Model
 70
0
 71
0
 10
0.0
 20
0.0
 11
558.8
 21
431.8
 12
0.0
 22
0.0
 32
0.0
 14
0.0
 24
0.0
 34
0.0
 15
0.0
 25
0.0
 35
0.0
146
0.0
 13
0.0
 23
0.0
 33
0.0
 16
1.0
 26
0.0
 36
0.0
 17
0.0
 27
1.0
 37
0.0
 76
0
330
20D
345
0
346
0
  0
LAYOUT
  5
633
102
{ACAD_REACTORS
330
1A
102
}
100
AcDbPlotSettings
  1

  2
none_device
  4
ANSI_C_(22.00_x_17.00_Inches)
  6

 40
0.0
 41
0.0
 42
0.0
 43
0.0
 44
558.8
 45
431.8
 46
0.0
 47
0.0
 48
0.0
 49
0.0
140
0.0
141
0.0
142
1.0
143
1.0
 70
0
 72
1
 73
0
 74
0
  7

 75
0
147
1.0
148
0.0
149
0.0
100
AcDbLayout
  1
Layout1
 70
0
 71
1
 10
0.0
 20
0.0
 11
558.8
 21
431.8
 12
0.0
 22
0.0
 32
0.0
 14
0.0
 24
0.0
 34
0.0
 15
0.0
 25
0.0
 35
0.0
146
0.0
 13
0.0
 23
0.0
 33
0.0
 16
1.0
 26
0.0
 36
0.0
 17
0.0
 27
1.0
 37
0.0
 76
0
330
20E
345
0
346
0
  0
ENDSEC
  0
EOF
