  0
SECTION
  2
HEADER
  9
$ACADVER
  1
AC1024
  9
$DWGCODEPAGE
  3
ANSI_1252
  9
$EXTMAX
 10
558.8
 20
431.8
 30
0.0
  9
$EXTMIN
 10
0.0
 20
0.0
 30
0.0
  9
$LIMMIN
 10
0.0
 20
0.0
  9
$LIMMAX
 10
558.8
 20
431.8
  9
$VIEWCTR
 10
279.4
 20
215.9
  9
$VIEWSIZE
 40
431.8
  9
$CLAYER
  8
0
  9
$LTSCALE
 40
30.734
  9
$CELTYPE
  6
BYLAYER
  9
$DIMSCALE
 40
1.0
  9
$DIMASZ
 40
3.0
  9
$DIMEXO
 40
0.5
  9
$DIMDLI
 40
21.2344
  9
$DIMEXE
 40
1.5
  9
$DIMCEN
 40
5.0292
  9
$DIMLFAC
 40
1.0
  9
$DIMBLK
  1
_FILLED
  9
$DIMALT
 70
0
  9
$DIMALTF
 40
0.0393700787
  9
$DIMTXT
 40
3.0
  9
$DIMTOL
 70
1
  9
$DIMLIM
 70
0
  9
$DIMTFAC
 40
1.0
  9
$DIMTP
 40
0.01
  9
$DIMTM
 40
0.01
  9
$DIMGAP
 40
0.625
  9
$DIMDSEP
 70
44
  9
$AUNITS
 70
0
  9
$PDMODE
 70
3
  9
$PDSIZE
 40
3.0
  9
$HANDSEED
  5
643
  9
$TILEMODE
 70
1
  9
$MEASUREMENT
 70
1
  9
$INSUNITS
 70
4
  0
ENDSEC
  0
SECTION
  2
CLASSES
  0
CLASS
  1
ACDBDICTIONARYWDFLT
  2
AcDbDictionaryWithDefault
  3
AutoCAD 2000
 90
0
 91
1
280
0
281
0
  0
CLASS
  1
ACDBPLACEHOLDER
  2
AcDbPlaceHolder
  3
AutoCAD 2000
 90
0
 91
1
280
0
281
0
  0
CLASS
  1
LAYOUT
  2
AcDbLayout
  3
AutoCAD 2000
 90
0
 91
0
280
0
281
0
  0
ENDSEC
  0
SECTION
  2
TABLES
  0
TABLE
  2
VPORT
  5
8
100
AcDbSymbolTable
 70
2
  0
VPORT
  5
1F4
100
AcDbSymbolTableRecord
100
AcDbViewportTableRecord
  2
*ACTIVE
 70
0
 10
0.0
 20
0.0
 11
1.0
 21
1.0
 12
279.4
 22
215.9
 13
0.0
 23
0.0
 14
1.0
 24
1.0
 15
0.0
 25
0.0
 16
0.0
 26
0.0
 36
1.0
 17
0.0
 27
0.0
 37
0.0
 40
431.8
 41
1.2941176471
 42
50.0
 43
0.0
 44
0.0
 50
0.0
 51
0.0
 71
0
 72
100
 73
1
 74
1
 75
0
 76
0
 77
0
 78
0
  0
ENDTAB
  0
TABLE
  2
LTYPE
  5
5
100
AcDbSymbolTable
 70
6
  0
LTYPE
  5
14
100
AcDbSymbolTableRecord
100
AcDbLinetypeTableRecord
  2
BYBLOCK
 70
0
  3

 72
65
 73
0
 40
0.0
  0
LTYPE
  5
15
100
AcDbSymbolTableRecord
100
AcDbLinetypeTableRecord
  2
BYLAYER
 70
0
  3

 72
65
 73
0
 40
0.0
  0
LTYPE
  5
16
100
AcDbSymbolTableRecord
100
AcDbLinetypeTableRecord
  2
CONTINUOUS
 70
64
  3
Solid line
 72
65
 73
0
 40
0.0
  0
LTYPE
  5
1F5
100
AcDbSymbolTableRecord
100
AcDbLinetypeTableRecord
  2
CENTER
 70
64
  3
____ _ ____ _ ____ _ ____ _ ____ _ ____ _ ____
 72
65
 73
4
 40
0.6
 49
0.375
 74
0
 49
-0.075
 74
0
 49
0.075
 74
0
 49
-0.075
 74
0
  0
LTYPE
  5
1F6
100
AcDbSymbolTableRecord
100
AcDbLinetypeTableRecord
  2
HIDDEN
 70
64
  3
- - - - - - - - - - - - - - - - - - - -
 72
65
 73
2
 40
0.2
 49
0.1
 74
0
 49
-0.1
 74
0
  0
LTYPE
  5
1F7
100
AcDbSymbolTableRecord
100
AcDbLinetypeTableRecord
  2
PHANTOM
 70
64
  3
_____ _ _ _____ _ _ _____ _ _ _____
 72
65
 73
6
 40
0.8
 49
0.45
 74
0
 49
-0.05
 74
0
 49
0.1
 74
0
 49
-0.05
 74
0
 49
0.1
 74
0
 49
-0.05
 74
0
  0
LTYPE
  5
1F8
100
AcDbSymbolTableRecord
100
AcDbLinetypeTableRecord
  2
DOT
 70
64
  3
. . . . . . . . . . . . . . . . . . . .
 72
65
 73
2
 40
0.2
 49
0.1
 74
0
 49
-0.1
 74
0
  0
LTYPE
  5
1F9
100
AcDbSymbolTableRecord
100
AcDbLinetypeTableRecord
  2
DASHED
 70
64
  3
- - - - - - - - - - - - - - - - - - - -
 72
65
 73
2
 40
0.2
 49
0.1
 74
0
 49
-0.1
 74
0
  0
ENDTAB
  0
TABLE
  2
LAYER
  5
2
100
AcDbSymbolTable
 70
36
  0
LAYER
  5
10
100
AcDbSymbolTableRecord
100
AcDbLayerTableRecord
  2
0
 70
0
 62
7
  6
CONTINUOUS
370
-3
390
F
  0
LAYER
  5
1FA
100
AcDbSymbolTableRecord
100
AcDbLayerTableRecord
  2
DEFAULT_1
 70
0
 62
7
  6
CENTER
370
-3
390
F
  0
LAYER
  5
1FB
100
AcDbSymbolTableRecord
100
AcDbLayerTableRecord
  2
DEFAULT_2
 70
0
 62
7
  6
HIDDEN
370
-3
390
F
  0
LAYER
  5
1FC
100
AcDbSymbolTableRecord
100
AcDbLayerTableRecord
  2
DEFAULT_3
 70
0
 62
7
  6
PHANTOM
370
-3
390
F
  0
LAYER
  5
1FD
100
AcDbSymbolTableRecord
100
AcDbLayerTableRecord
  2
ASSI
 70
0
 62
7
  6
CONTINUOUS
370
-3
390
F
  0
LAYER
  5
1FE
100
AcDbSymbolTableRecord
100
AcDbLayerTableRecord
  2
COORDINATE
 70
0
 62
7
  6
CONTINUOUS
370
-3
390
F
  0
LAYER
  5
1FF
100
AcDbSymbolTableRecord
100
AcDbLayerTableRecord
  2
COPY_PUBLISH
 70
0
 62
7
  6
CONTINUOUS
370
-3
390
F
  0
LAYER
  5
200
100
AcDbSymbolTableRecord
100
AcDbLayerTableRecord
  2
COSMETIC
 70
0
 62
7
  6
CONTINUOUS
370
-3
390
F
  0
LAYER
  5
201
100
AcDbSymbolTableRecord
100
AcDbLayerTableRecord
  2
CURVE
 70
0
 62
7
  6
CONTINUOUS
370
-3
390
F
  0
LAYER
  5
202
100
AcDbSymbolTableRecord
100
AcDbLayerTableRecord
  2
IMPORT_IGES
 70
0
 62
7
  6
CONTINUOUS
370
-3
390
F
  0
LAYER
  5
203
100
AcDbSymbolTableRecord
100
AcDbLayerTableRecord
  2
INTF_1
 70
0
 62
7
  6
CONTINUOUS
370
-3
390
F
  0
LAYER
  5
204
100
AcDbSymbolTableRecord
100
AcDbLayerTableRecord
  2
NOTE
 70
0
 62
7
  6
CONTINUOUS
370
-3
390
F
  0
LAYER
  5
205
100
AcDbSymbolTableRecord
100
AcDbLayerTableRecord
  2
PIANI
 70
0
 62
7
  6
CONTINUOUS
370
-3
390
F
  0
LAYER
  5
206
100
AcDbSymbolTableRecord
100
AcDbLayerTableRecord
  2
PUNTI
 70
0
 62
7
  6
CONTINUOUS
370
-3
390
F
  0
LAYER
  5
207
100
AcDbSymbolTableRecord
100
AcDbLayerTableRecord
  2
RACCORDO
 70
0
 62
7
  6
CONTINUOUS
370
-3
390
F
  0
LAYER
  5
208
100
AcDbSymbolTableRecord
100
AcDbLayerTableRecord
  2
RGB____0____0____0__
 70
0
 62
7
  6
CONTINUOUS
370
-3
390
F
  0
LAYER
  5
209
100
AcDbSymbolTableRecord
100
AcDbLayerTableRecord
  2
SNAPLINE
 70
0
 62
7
  6
CONTINUOUS
370
-3
390
F
  0
LAYER
  5
20A
100
AcDbSymbolTableRecord
100
AcDbLayerTableRecord
  2
TRASH
 70
0
 62
7
  6
CONTINUOUS
370
-3
390
F
  0
ENDTAB
  0
TABLE
  2
STYLE
  5
3
100
AcDbSymbolTable
 70
1
  0
STYLE
  5
11
100
AcDbSymbolTableRecord
100
AcDbTextStyleTableRecord
  2
STANDARD
 70
0
 40
0.0
 41
0.8
 50
0.0
 71
0
 42
0.2
  3
txt
  4

  0
STYLE
  5
20B
100
AcDbSymbolTableRecord
100
AcDbTextStyleTableRecord
  2
TEXTSTYLE_1
 70
0
 40
0.0
 41
0.8
 50
0.0
 71
0
 42
0.2
  3
gdt
  4

  0
ENDTAB
  0
TABLE
  2
VIEW
  5
6
100
AcDbSymbolTable
 70
0
  0
ENDTAB
  0
TABLE
  2
UCS
  5
7
100
AcDbSymbolTable
 70
0
  0
ENDTAB
  0
TABLE
  2
APPID
  5
9
100
AcDbSymbolTable
 70
1
  0
APPID
  5
20C
100
AcDbSymbolTableRecord
100
AcDbRegAppTableRecord
  2
ACAD
 70
0
  0
ENDTAB
  0
TABLE
  2
BLOCK_RECORD
  5
1
100
AcDbSymbolTable
 70
0
  0
BLOCK_RECORD
  5
20D
100
AcDbSymbolTableRecord
100
AcDbBlockTableRecord
  2
*Model_Space
  0
BLOCK_RECORD
  5
20E
100
AcDbSymbolTableRecord
100
AcDbBlockTableRecord
  2
*Paper_Space
  0
BLOCK_RECORD
  5
20F
100
AcDbSymbolTableRecord
100
AcDbBlockTableRecord
  2
_FILLED
  0
ENDTAB
  0
TABLE
  2
DIMSTYLE
  5
A
100
AcDbSymbolTable
 70
1
100
AcDbDimStyleTable
 71
0
  0
DIMSTYLE
105
210
100
AcDbSymbolTableRecord
100
AcDbDimStyleTableRecord
  2
STANDARD
 70
0
  3

  4

 40
1.0
 41
3.0
 42
0.5
 43
0.38
 44
1.5
 45
0.0
 46
0.0
 47
0.01
 48
0.01
140
3.0
141
0.09
142
0.0
143
25.4
144
1.0
145
0.0
146
1.0
147
0.625
 71
1.0
 72
0.0
 73
0
 74
0
 75
0
 76
0
 77
1
 78
8
 79
2
170
0
171
1
172
0
173
0
174
0
175
0
176
0
177
0
178
0
270
2
179
2
271
2
272
2
273
2
274
2
275
0
280
0
281
0
282
0
283
1
284
8
285
0
286
0
287
3
288
0
340
11
278
44
341
20F
342
20F
343
20F
344
20F
  0
ENDTAB
  0
ENDSEC
  0
SECTION
  2
BLOCKS
  0
BLOCK
  5
20
100
AcDbEntity
  8
0
100
AcDbBlockBegin
  2
*Model_Space
 70
0
 10
0.0
 20
0.0
 30
0.0
  3
*Model_Space
  1

  0
ENDBLK
  5
21
100
AcDbEntity
  8
0
100
AcDbBlockEnd
  0
BLOCK
  5
1C
100
AcDbEntity
  8
0
100
AcDbBlockBegin
  2
*Paper_Space
 70
0
 10
0.0
 20
0.0
 30
0.0
  3
*Paper_Space
  1

  0
ENDBLK
  5
1D
100
AcDbEntity
  8
0
100
AcDbBlockEnd
  0
BLOCK
  5
211
100
AcDbEntity
  8
0
100
AcDbBlockBegin
  2
_FILLED
 70
64
 10
0.0
 20
0.0
  3
_FILLED
  1

  0
SOLID
  5
212
100
AcDbEntity
  8
0
  6
BYBLOCK
 62
0
100
AcDbTrace
 10
0.0
 20
0.0
 11
-1.0
 21
0.3166666667
 12
-1.0
 22
-0.3166666667
 13
-1.0
 23
-0.3166666667
  0
ENDBLK
  5
213
100
AcDbEntity
  8
0
  6
BYBLOCK
 62
0
100
AcDbBlockEnd
  0
ENDSEC
  0
SECTION
  2
ENTITIES
  0
LINE
  5
214
100
AcDbEntity
  8
0
100
AcDbLine
 62
7
  6
CONTINUOUS
 10
-55.0
 20
-39.75
 11
-55.0
 21
39.75
  0
LINE
  5
215
100
AcDbEntity
  8
0
100
AcDbLine
 62
250
  6
CONTINUOUS
 10
-53.75
 20
-39.75
 11
-53.75
 21
39.75
  0
LINE
  5
216
100
AcDbEntity
  8
0
100
AcDbLine
 62
7
  6
CONTINUOUS
 10
-53.5
 20
-39.75
 11
-53.5
 21
39.75
  0
LINE
  5
217
100
AcDbEntity
  8
0
100
AcDbLine
 62
250
  6
CONTINUOUS
 10
-53.0
 20
-39.75
 11
-53.0
 21
39.75
  0
LINE
  5
218
100
AcDbEntity
  8
0
100
AcDbLine
 62
250
  6
CONTINUOUS
 10
-52.6956556053
 20
39.75
 11
-52.6956556053
 21
-39.75
  0
LINE
  5
219
100
AcDbEntity
  8
0
100
AcDbLine
 62
250
  6
CONTINUOUS
 10
-52.1956746438
 20
39.75
 11
-52.1956746438
 21
-39.75
  0
LINE
  5
21A
100
AcDbEntity
  8
0
100
AcDbLine
 62
7
  6
CONTINUOUS
 10
-52.1912540934
 20
39.75
 11
-52.1912540934
 21
-39.75
  0
LINE
  5
21B
100
AcDbEntity
  8
0
100
AcDbLine
 62
250
  6
CONTINUOUS
 10
-51.9412636126
 20
39.75
 11
-51.9412636126
 21
-39.75
  0
LINE
  5
21C
100
AcDbEntity
  8
0
100
AcDbLine
 62
7
  6
CONTINUOUS
 10
-51.7109085847
 20
-39.75
 11
-51.7109085847
 21
39.75
  0
LINE
  5
21D
100
AcDbEntity
  8
0
100
AcDbLine
 62
7
  6
CONTINUOUS
 10
-51.7
 20
-39.75
 11
-51.7
 21
39.75
  0
LINE
  5
21E
100
AcDbEntity
  8
0
100
AcDbLine
 62
250
  6
CONTINUOUS
 10
-50.0
 20
41.4609085847
 11
-50.0
 21
41.45
  0
LINE
  5
21F
100
AcDbEntity
  8
0
100
AcDbLine
 62
250
  6
CONTINUOUS
 10
-50.0
 20
-41.4609085847
 11
-50.0
 21
-41.45
  0
LINE
  5
220
100
AcDbEntity
  8
0
100
AcDbLine
 62
250
  6
CONTINUOUS
 10
-50.0
 20
-41.6912636126
 11
-50.0
 21
-42.4456556053
  0
LINE
  5
221
100
AcDbEntity
  8
0
100
AcDbLine
 62
250
  6
CONTINUOUS
 10
-50.0
 20
-42.75
 11
-50.0
 21
-43.5
  0
LINE
  5
222
100
AcDbEntity
  8
0
100
AcDbLine
 62
250
  6
CONTINUOUS
 10
-50.0
 20
41.6912636126
 11
-50.0
 21
42.4456556053
  0
LINE
  5
223
100
AcDbEntity
  8
0
100
AcDbLine
 62
250
  6
CONTINUOUS
 10
-50.0
 20
42.75
 11
-50.0
 21
43.5
  0
LINE
  5
224
100
AcDbEntity
  8
0
100
AcDbLine
 62
7
  6
CONTINUOUS
 10
50.0
 20
-44.75
 11
-50.0
 21
-44.75
  0
LINE
  5
225
100
AcDbEntity
  8
0
100
AcDbLine
 62
250
  6
CONTINUOUS
 10
50.0
 20
-43.5
 11
-50.0
 21
-43.5
  0
LINE
  5
226
100
AcDbEntity
  8
0
100
AcDbLine
 62
7
  6
CONTINUOUS
 10
50.0
 20
-43.25
 11
-50.0
 21
-43.25
  0
LINE
  5
227
100
AcDbEntity
  8
0
100
AcDbLine
 62
250
  6
CONTINUOUS
 10
50.0
 20
-42.75
 11
-50.0
 21
-42.75
  0
LINE
  5
228
100
AcDbEntity
  8
0
100
AcDbLine
 62
250
  6
CONTINUOUS
 10
-50.0
 20
-42.4456556053
 11
50.0
 21
-42.4456556053
  0
LINE
  5
229
100
AcDbEntity
  8
0
100
AcDbLine
 62
250
  6
CONTINUOUS
 10
-50.0
 20
-41.9456746438
 11
50.0
 21
-41.9456746438
  0
LINE
  5
22A
100
AcDbEntity
  8
0
100
AcDbLine
 62
7
  6
CONTINUOUS
 10
-50.0
 20
-41.9412540934
 11
50.0
 21
-41.9412540934
  0
LINE
  5
22B
100
AcDbEntity
  8
0
100
AcDbLine
 62
250
  6
CONTINUOUS
 10
-50.0
 20
-41.6912636126
 11
50.0
 21
-41.6912636126
  0
LINE
  5
22C
100
AcDbEntity
  8
0
100
AcDbLine
 62
7
  6
CONTINUOUS
 10
50.0
 20
-41.4609085847
 11
-50.0
 21
-41.4609085847
  0
LINE
  5
22D
100
AcDbEntity
  8
0
100
AcDbLine
 62
7
  6
CONTINUOUS
 10
50.0
 20
-41.45
 11
-50.0
 21
-41.45
  0
LINE
  5
22E
100
AcDbEntity
  8
0
100
AcDbLine
 62
250
  6
CONTINUOUS
 10
-51.7109085847
 20
-39.75
 11
-51.7
 21
-39.75
  0
LINE
  5
22F
100
AcDbEntity
  8
0
100
AcDbLine
 62
250
  6
CONTINUOUS
 10
51.7109085847
 20
-39.75
 11
51.7
 21
-39.75
  0
LINE
  5
230
100
AcDbEntity
  8
0
100
AcDbLine
 62
250
  6
CONTINUOUS
 10
51.9412636126
 20
-39.75
 11
52.6956556053
 21
-39.75
  0
LINE
  5
231
100
AcDbEntity
  8
0
100
AcDbLine
 62
250
  6
CONTINUOUS
 10
-51.9412636126
 20
-39.75
 11
-52.6956556053
 21
-39.75
  0
LINE
  5
232
100
AcDbEntity
  8
0
100
AcDbLine
 62
250
  6
CONTINUOUS
 10
53.0
 20
-39.75
 11
53.75
 21
-39.75
  0
LINE
  5
233
100
AcDbEntity
  8
0
100
AcDbLine
 62
250
  6
CONTINUOUS
 10
-53.0
 20
-39.75
 11
-53.75
 21
-39.75
  0
LINE
  5
234
100
AcDbEntity
  8
0
100
AcDbLine
 62
7
  6
CONTINUOUS
 10
9.2056609882
 20
-32.2739063822
 11
9.3726078588
 21
-32.2354896235
  0
LINE
  5
235
100
AcDbEntity
  8
0
100
AcDbLine
 62
7
  6
CONTINUOUS
 10
5.7453076706
 20
-32.7263704163
 11
5.5859492941
 21
-32.7339589104
  0
LINE
  5
236
100
AcDbEntity
  8
0
100
AcDbLine
 62
7
  6
CONTINUOUS
 10
6.3751526823
 20
-32.2482952869
 11
6.5420995529
 21
-32.2407067928
  0
LINE
  5
237
100
AcDbEntity
  8
0
100
AcDbLine
 62
7
  6
CONTINUOUS
 10
-5.0
 20
-35.0
 11
-4.8330531294
 21
-35.0
  0
LINE
  5
238
100
AcDbEntity
  8
0
100
AcDbLine
 62
7
  6
CONTINUOUS
 10
-4.2183851059
 20
-35.0
 11
-4.0514382353
 21
-35.0
  0
LINE
  5
239
100
AcDbEntity
  8
0
100
AcDbLine
 62
7
  6
CONTINUOUS
 10
-3.6129654691
 20
-35.0
 11
-3.4367702118
 21
-35.0
  0
LINE
  5
23A
100
AcDbEntity
  8
0
100
AcDbLine
 62
7
  6
CONTINUOUS
 10
-2.3212615765
 20
-35.0
 11
-1.5320581882
 21
-35.0
  0
LINE
  5
23B
100
AcDbEntity
  8
0
100
AcDbLine
 62
7
  6
CONTINUOUS
 10
-2.6323898353
 20
-35.0
 11
-2.4548901698
 21
-35.0
  0
LINE
  5
23C
100
AcDbEntity
  8
0
100
AcDbLine
 62
7
  6
CONTINUOUS
 10
-0.9923265297
 20
-35.0
 11
-0.8253796591
 21
-35.0
  0
LINE
  5
23D
100
AcDbEntity
  8
0
100
AcDbLine
 62
7
  6
CONTINUOUS
 10
-1.5320581882
 20
-34.8558186118
 11
-2.1543147059
 21
-34.8558186118
  0
LINE
  5
23E
100
AcDbEntity
  8
0
100
AcDbLine
 62
7
  6
CONTINUOUS
 10
-3.304801511
 20
-34.6205752941
 11
-2.7720654864
 21
-34.6205752941
  0
LINE
  5
23F
100
AcDbEntity
  8
0
100
AcDbLine
 62
7
  6
CONTINUOUS
 10
-2.8224577885
 20
-34.4839824
 11
-3.2572548218
 21
-34.4839824
  0
LINE
  5
240
100
AcDbEntity
  8
0
100
AcDbLine
 62
7
  6
CONTINUOUS
 10
-4.6281637882
 20
-33.8920798588
 11
-4.2183851059
 21
-33.8920798588
  0
LINE
  5
241
100
AcDbEntity
  8
0
100
AcDbLine
 62
7
  6
CONTINUOUS
 10
-4.0514382353
 20
-33.8920798588
 11
-3.6416595529
 21
-33.8920798588
  0
LINE
  5
242
100
AcDbEntity
  8
0
100
AcDbLine
 62
7
  6
CONTINUOUS
 10
-0.3245390473
 20
-33.7478984706
 11
-0.5259897996
 21
-33.7478984706
  0
LINE
  5
243
100
AcDbEntity
  8
0
100
AcDbLine
 62
7
  6
CONTINUOUS
 10
-1.2717965197
 20
-33.7478984706
 11
-1.4704016591
 21
-33.7478984706
  0
LINE
  5
244
100
AcDbEntity
  8
0
100
AcDbLine
 62
7
  6
CONTINUOUS
 10
-2.1543147059
 20
-33.7478984706
 11
-2.3212615765
 21
-33.7478984706
  0
LINE
  5
245
100
AcDbEntity
  8
0
100
AcDbLine
 62
7
  6
CONTINUOUS
 10
-2.9564422138
 20
-33.7478984706
 11
-3.1370246362
 21
-33.7478984706
  0
LINE
  5
246
100
AcDbEntity
  8
0
100
AcDbLine
 62
7
  6
CONTINUOUS
 10
-3.6416595529
 20
-33.7478984706
 11
-4.6281637882
 21
-33.7478984706
  0
LINE
  5
247
100
AcDbEntity
  8
0
100
AcDbLine
 62
7
  6
CONTINUOUS
 10
-4.8330531294
 20
-33.7478984706
 11
-5.0
 21
-33.7478984706
  0
LINE
  5
248
100
AcDbEntity
  8
0
100
AcDbLine
 62
7
  6
CONTINUOUS
 10
0.3878308235
 20
-33.1437375928
 11
0.5547776941
 21
-33.1437375928
  0
LINE
  5
249
100
AcDbEntity
  8
0
100
AcDbLine
 62
7
  6
CONTINUOUS
 10
0.9158240827
 20
-33.1437375928
 11
1.0578711744
 21
-33.1437375928
  0
LINE
  5
24A
100
AcDbEntity
  8
0
100
AcDbLine
 62
7
  6
CONTINUOUS
 10
1.4274545176
 20
-33.1437375928
 11
1.5944013882
 21
-33.1437375928
  0
LINE
  5
24B
100
AcDbEntity
  8
0
100
AcDbLine
 62
7
  6
CONTINUOUS
 10
1.7217458956
 20
-33.1437375928
 11
1.8979411529
 21
-33.1437375928
  0
LINE
  5
24C
100
AcDbEntity
  8
0
100
AcDbLine
 62
7
  6
CONTINUOUS
 10
2.7023215294
 20
-33.1437375928
 11
2.8798211949
 21
-33.1437375928
  0
LINE
  5
24D
100
AcDbEntity
  8
0
100
AcDbLine
 62
7
  6
CONTINUOUS
 10
3.0286267765
 20
-33.1437375928
 11
3.195573647
 21
-33.1437375928
  0
LINE
  5
24E
100
AcDbEntity
  8
0
100
AcDbLine
 62
7
  6
CONTINUOUS
 10
3.9179034526
 20
-33.1437375928
 11
4.1140185793
 21
-33.1437375928
  0
LINE
  5
24F
100
AcDbEntity
  8
0
100
AcDbLine
 62
7
  6
CONTINUOUS
 10
7.1188251059
 20
-33.1437375928
 11
7.2857719764
 21
-33.1437375928
  0
LINE
  5
250
100
AcDbEntity
  8
0
100
AcDbLine
 62
7
  6
CONTINUOUS
 10
7.8852630117
 20
-33.1437375928
 11
8.0522098823
 21
-33.1437375928
  0
LINE
  5
251
100
AcDbEntity
  8
0
100
AcDbLine
 62
7
  6
CONTINUOUS
 10
9.4695983897
 20
-33.1437375928
 11
9.645793647
 21
-33.1437375928
  0
LINE
  5
252
100
AcDbEntity
  8
0
100
AcDbLine
 62
7
  6
CONTINUOUS
 10
10.4501740235
 20
-33.1437375928
 11
10.627673689
 21
-33.1437375928
  0
LINE
  5
253
100
AcDbEntity
  8
0
100
AcDbLine
 62
7
  6
CONTINUOUS
 10
11.6191578337
 20
-33.1437375928
 11
11.7987917957
 21
-33.1437375928
  0
LINE
  5
254
100
AcDbEntity
  8
0
100
AcDbLine
 62
7
  6
CONTINUOUS
 10
12.4383594823
 20
-33.1437375928
 11
12.6053063529
 21
-33.1437375928
  0
LINE
  5
255
100
AcDbEntity
  8
0
100
AcDbLine
 62
7
  6
CONTINUOUS
 10
2.0299098537
 20
-32.7643128869
 11
2.5626458783
 21
-32.7643128869
  0
LINE
  5
256
100
AcDbEntity
  8
0
100
AcDbLine
 62
7
  6
CONTINUOUS
 10
9.7777623478
 20
-32.7643128869
 11
10.3104983724
 21
-32.7643128869
  0
LINE
  5
257
100
AcDbEntity
  8
0
100
AcDbLine
 62
7
  6
CONTINUOUS
 10
10.2601060703
 20
-32.6277199928
 11
9.825309037
 21
-32.6277199928
  0
LINE
  5
258
100
AcDbEntity
  8
0
100
AcDbLine
 62
7
  6
CONTINUOUS
 10
2.5122535762
 20
-32.6277199928
 11
2.0774565429
 21
-32.6277199928
  0
LINE
  5
259
100
AcDbEntity
  8
0
100
AcDbLine
 62
7
  6
CONTINUOUS
 10
3.195573647
 20
-32.5897775222
 11
3.3858788601
 21
-32.5897775222
  0
LINE
  5
25A
100
AcDbEntity
  8
0
100
AcDbLine
 62
7
  6
CONTINUOUS
 10
-4.9848230118
 20
-32.2103528163
 11
-4.8330531294
 21
-32.2331182986
  0
LINE
  5
25B
100
AcDbEntity
  8
0
100
AcDbLine
 62
7
  6
CONTINUOUS
 10
3.0467679496
 20
-30.4479979514
 11
3.2137148202
 21
-30.4095811927
  0
LINE
  5
25C
100
AcDbEntity
  8
0
100
AcDbLine
 62
7
  6
CONTINUOUS
 10
-0.9629211294
 20
-32.7946668634
 11
-1.1146910118
 21
-32.8174323457
  0
LINE
  5
25D
100
AcDbEntity
  8
0
100
AcDbLine
 62
7
  6
CONTINUOUS
 10
-4.8482301176
 20
-32.7946668634
 11
-5.0
 21
-32.8174323457
  0
LINE
  5
25E
100
AcDbEntity
  8
0
100
AcDbLine
 62
7
  6
CONTINUOUS
 10
-1.4409962588
 20
-32.2103528163
 11
-1.2892263765
 21
-32.1951758281
  0
LINE
  5
25F
100
AcDbEntity
  8
0
100
AcDbLine
 62
7
  6
CONTINUOUS
 10
-3.3836507529
 20
-32.2103528163
 11
-3.2318808706
 21
-32.1951758281
  0
LINE
  5
260
100
AcDbEntity
  8
0
100
AcDbLine
 62
7
  6
CONTINUOUS
 10
1.2331178555
 20
-29.0669650606
 11
1.0737594791
 21
-29.0745535548
  0
LINE
  5
261
100
AcDbEntity
  8
0
100
AcDbLine
 62
7
  6
CONTINUOUS
 10
1.8629628673
 20
-28.5888899312
 11
2.0299097379
 21
-28.5813014371
  0
LINE
  5
262
100
AcDbEntity
  8
0
100
AcDbLine
 62
7
  6
CONTINUOUS
 10
3.5482015374
 20
-32.4455961339
 11
3.195573647
 21
-32.4455961339
  0
LINE
  5
263
100
AcDbEntity
  8
0
100
AcDbLine
 62
7
  6
CONTINUOUS
 10
3.195573647
 20
-32.0358174516
 11
3.5880411604
 21
-32.0358174516
  0
LINE
  5
264
100
AcDbEntity
  8
0
100
AcDbLine
 62
7
  6
CONTINUOUS
 10
6.7090464235
 20
-32.0358174516
 11
7.1188251059
 21
-32.0358174516
  0
LINE
  5
265
100
AcDbEntity
  8
0
100
AcDbLine
 62
7
  6
CONTINUOUS
 10
7.2857719764
 20
-32.0358174516
 11
7.6955506588
 21
-32.0358174516
  0
LINE
  5
266
100
AcDbEntity
  8
0
100
AcDbLine
 62
7
  6
CONTINUOUS
 10
12.6053063529
 20
-31.8916360634
 11
12.4383594823
 21
-31.8916360634
  0
LINE
  5
267
100
AcDbEntity
  8
0
100
AcDbLine
 62
7
  6
CONTINUOUS
 10
12.2982095431
 20
-31.8916360634
 11
12.1196427294
 21
-31.8916360634
  0
LINE
  5
268
100
AcDbEntity
  8
0
100
AcDbLine
 62
7
  6
CONTINUOUS
 10
11.3152623529
 20
-31.8916360634
 11
11.1377628033
 21
-31.8916360634
  0
LINE
  5
269
100
AcDbEntity
  8
0
100
AcDbLine
 62
7
  6
CONTINUOUS
 10
10.126121645
 20
-31.8916360634
 11
9.9455392226
 21
-31.8916360634
  0
LINE
  5
26A
100
AcDbEntity
  8
0
100
AcDbLine
 62
7
  6
CONTINUOUS
 10
8.0522098823
 20
-31.8916360634
 11
7.8852630117
 21
-31.8916360634
  0
LINE
  5
26B
100
AcDbEntity
  8
0
100
AcDbLine
 62
7
  6
CONTINUOUS
 10
7.6955506588
 20
-31.8916360634
 11
6.7090464235
 21
-31.8916360634
  0
LINE
  5
26C
100
AcDbEntity
  8
0
100
AcDbLine
 62
7
  6
CONTINUOUS
 10
3.5812826705
 20
-31.8916360634
 11
3.0286267765
 21
-31.8916360634
  0
LINE
  5
26D
100
AcDbEntity
  8
0
100
AcDbLine
 62
7
  6
CONTINUOUS
 10
2.3782691509
 20
-31.8916360634
 11
2.1976867285
 21
-31.8916360634
  0
LINE
  5
26E
100
AcDbEntity
  8
0
100
AcDbLine
 62
7
  6
CONTINUOUS
 10
1.5944013882
 20
-31.8916360634
 11
1.3771807875
 21
-31.8916360634
  0
LINE
  5
26F
100
AcDbEntity
  8
0
100
AcDbLine
 62
7
  6
CONTINUOUS
 10
0.6422825784
 20
-31.8916360634
 11
0.3878308235
 21
-31.8916360634
  0
LINE
  5
270
100
AcDbEntity
  8
0
100
AcDbLine
 62
7
  6
CONTINUOUS
 10
-4.5186049695
 20
-31.317829162
 11
-4.3389710076
 21
-31.317829162
  0
LINE
  5
271
100
AcDbEntity
  8
0
100
AcDbLine
 62
7
  6
CONTINUOUS
 10
-3.3747579665
 20
-31.317829162
 11
-3.1985627092
 21
-31.317829162
  0
LINE
  5
272
100
AcDbEntity
  8
0
100
AcDbLine
 62
7
  6
CONTINUOUS
 10
-3.6994033209
 20
-31.317829162
 11
-3.5324564503
 21
-31.317829162
  0
LINE
  5
273
100
AcDbEntity
  8
0
100
AcDbLine
 62
7
  6
CONTINUOUS
 10
-2.3941823327
 20
-31.317829162
 11
-2.2166826672
 21
-31.317829162
  0
LINE
  5
274
100
AcDbEntity
  8
0
100
AcDbLine
 62
7
  6
CONTINUOUS
 10
-2.0830540739
 20
-31.317829162
 11
-1.2938506856
 21
-31.317829162
  0
LINE
  5
275
100
AcDbEntity
  8
0
100
AcDbLine
 62
7
  6
CONTINUOUS
 10
-1.0965498386
 20
-31.317829162
 11
-0.1707535562
 21
-31.317829162
  0
LINE
  5
276
100
AcDbEntity
  8
0
100
AcDbLine
 62
7
  6
CONTINUOUS
 10
0.9071683246
 20
-31.317829162
 11
1.0868022866
 21
-31.317829162
  0
LINE
  5
277
100
AcDbEntity
  8
0
100
AcDbLine
 62
7
  6
CONTINUOUS
 10
1.7263699732
 20
-31.317829162
 11
1.8933168438
 21
-31.317829162
  0
LINE
  5
278
100
AcDbEntity
  8
0
100
AcDbLine
 62
7
  6
CONTINUOUS
 10
3.456546632
 20
-31.317829162
 11
4.3823429143
 21
-31.317829162
  0
LINE
  5
279
100
AcDbEntity
  8
0
100
AcDbLine
 62
7
  6
CONTINUOUS
 10
4.617586232
 20
-31.317829162
 11
4.7845331026
 21
-31.317829162
  0
LINE
  5
27A
100
AcDbEntity
  8
0
100
AcDbLine
 62
7
  6
CONTINUOUS
 10
5.4114139294
 20
-31.317829162
 11
5.5889134791
 21
-31.317829162
  0
LINE
  5
27B
100
AcDbEntity
  8
0
100
AcDbLine
 62
7
  6
CONTINUOUS
 10
5.7634488438
 20
-31.317829162
 11
6.7575415732
 21
-31.317829162
  0
LINE
  5
27C
100
AcDbEntity
  8
0
100
AcDbLine
 62
7
  6
CONTINUOUS
 10
6.7938241511
 20
-31.317829162
 11
6.9700194085
 21
-31.317829162
  0
LINE
  5
27D
100
AcDbEntity
  8
0
100
AcDbLine
 62
7
  6
CONTINUOUS
 10
7.7743997849
 20
-31.317829162
 11
7.9518994504
 21
-31.317829162
  0
LINE
  5
27E
100
AcDbEntity
  8
0
100
AcDbLine
 62
7
  6
CONTINUOUS
 10
8.943027879
 20
-31.317829162
 11
9.0947977614
 21
-31.317829162
  0
LINE
  5
27F
100
AcDbEntity
  8
0
100
AcDbLine
 62
7
  6
CONTINUOUS
 10
9.9902400673
 20
-31.317829162
 11
10.1420099496
 21
-31.317829162
  0
LINE
  5
280
100
AcDbEntity
  8
0
100
AcDbLine
 62
7
  6
CONTINUOUS
 10
6.7575415732
 20
-31.1736477738
 11
5.9525684523
 21
-31.1736477738
  0
LINE
  5
281
100
AcDbEntity
  8
0
100
AcDbLine
 62
7
  6
CONTINUOUS
 10
4.3823429143
 20
-31.1736477738
 11
3.6234935026
 21
-31.1736477738
  0
LINE
  5
282
100
AcDbEntity
  8
0
100
AcDbLine
 62
7
  6
CONTINUOUS
 10
-0.1707535562
 20
-31.1736477738
 11
-0.929602968
 21
-31.1736477738
  0
LINE
  5
283
100
AcDbEntity
  8
0
100
AcDbLine
 62
7
  6
CONTINUOUS
 10
-1.2938506856
 20
-31.1736477738
 11
-1.9161072033
 21
-31.1736477738
  0
LINE
  5
284
100
AcDbEntity
  8
0
100
AcDbLine
 62
7
  6
CONTINUOUS
 10
9.4362799967
 20
-31.0218778914
 11
9.9902400673
 21
-31.0218778914
  0
LINE
  5
285
100
AcDbEntity
  8
0
100
AcDbLine
 62
7
  6
CONTINUOUS
 10
10.1420099496
 20
-31.0218778914
 11
10.3089568202
 21
-31.0218778914
  0
LINE
  5
286
100
AcDbEntity
  8
0
100
AcDbLine
 62
7
  6
CONTINUOUS
 10
-3.0665940084
 20
-30.9384044561
 11
-2.5338579838
 21
-30.9384044561
  0
LINE
  5
287
100
AcDbEntity
  8
0
100
AcDbLine
 62
7
  6
CONTINUOUS
 10
7.1019881092
 20
-30.9384044561
 11
7.6347241338
 21
-30.9384044561
  0
LINE
  5
288
100
AcDbEntity
  8
0
100
AcDbLine
 62
7
  6
CONTINUOUS
 10
10.3089568202
 20
-30.8776965032
 11
10.1420099496
 21
-30.8776965032
  0
LINE
  5
289
100
AcDbEntity
  8
0
100
AcDbLine
 62
7
  6
CONTINUOUS
 10
9.9902400673
 20
-30.8776965032
 11
9.5882870231
 21
-30.8776965032
  0
LINE
  5
28A
100
AcDbEntity
  8
0
100
AcDbLine
 62
7
  6
CONTINUOUS
 10
7.5843318317
 20
-30.801811562
 11
7.1495347984
 21
-30.801811562
  0
LINE
  5
28B
100
AcDbEntity
  8
0
100
AcDbLine
 62
7
  6
CONTINUOUS
 10
-2.5842502859
 20
-30.801811562
 11
-3.0190473192
 21
-30.801811562
  0
LINE
  5
28C
100
AcDbEntity
  8
0
100
AcDbLine
 62
7
  6
CONTINUOUS
 10
-0.929602968
 20
-30.7411036091
 11
-0.2466384974
 21
-30.7411036091
  0
LINE
  5
28D
100
AcDbEntity
  8
0
100
AcDbLine
 62
7
  6
CONTINUOUS
 10
3.6234935026
 20
-30.7411036091
 11
4.3064579732
 21
-30.7411036091
  0
LINE
  5
28E
100
AcDbEntity
  8
0
100
AcDbLine
 62
7
  6
CONTINUOUS
 10
4.3064579732
 20
-30.5969222208
 11
3.6234935026
 21
-30.5969222208
  0
LINE
  5
28F
100
AcDbEntity
  8
0
100
AcDbLine
 62
7
  6
CONTINUOUS
 10
-0.2466384974
 20
-30.5969222208
 11
-0.929602968
 21
-30.5969222208
  0
LINE
  5
290
100
AcDbEntity
  8
0
100
AcDbLine
 62
7
  6
CONTINUOUS
 10
-0.929602968
 20
-30.2099090208
 11
-0.2011075327
 21
-30.2099090208
  0
LINE
  5
291
100
AcDbEntity
  8
0
100
AcDbLine
 62
7
  6
CONTINUOUS
 10
3.6234935026
 20
-30.2099090208
 11
4.3519889379
 21
-30.2099090208
  0
LINE
  5
292
100
AcDbEntity
  8
0
100
AcDbLine
 62
7
  6
CONTINUOUS
 10
5.8393337849
 20
-30.2099090208
 11
6.5332067665
 21
-30.2099090208
  0
LINE
  5
293
100
AcDbEntity
  8
0
100
AcDbLine
 62
7
  6
CONTINUOUS
 10
10.1420099496
 20
-30.0657276326
 11
10.0205940438
 21
-30.0657276326
  0
LINE
  5
294
100
AcDbEntity
  8
0
100
AcDbLine
 62
7
  6
CONTINUOUS
 10
7.4503474064
 20
-30.0657276326
 11
7.269764984
 21
-30.0657276326
  0
LINE
  5
295
100
AcDbEntity
  8
0
100
AcDbLine
 62
7
  6
CONTINUOUS
 10
6.7271875967
 20
-30.0657276326
 11
5.8393337849
 21
-30.0657276326
  0
LINE
  5
296
100
AcDbEntity
  8
0
100
AcDbLine
 62
7
  6
CONTINUOUS
 10
5.5889134791
 20
-30.0657276326
 11
5.4219666085
 21
-30.0657276326
  0
LINE
  5
297
100
AcDbEntity
  8
0
100
AcDbLine
 62
7
  6
CONTINUOUS
 10
4.7950858974
 20
-30.0657276326
 11
4.617586232
 21
-30.0657276326
  0
LINE
  5
298
100
AcDbEntity
  8
0
100
AcDbLine
 62
7
  6
CONTINUOUS
 10
4.3519889379
 20
-30.0657276326
 11
3.456546632
 21
-30.0657276326
  0
LINE
  5
299
100
AcDbEntity
  8
0
100
AcDbLine
 62
7
  6
CONTINUOUS
 10
1.8933168438
 20
-30.0657276326
 11
1.7263699732
 21
-30.0657276326
  0
LINE
  5
29A
100
AcDbEntity
  8
0
100
AcDbLine
 62
7
  6
CONTINUOUS
 10
1.586220034
 20
-30.0657276326
 11
1.4076532202
 21
-30.0657276326
  0
LINE
  5
29B
100
AcDbEntity
  8
0
100
AcDbLine
 62
7
  6
CONTINUOUS
 10
0.6032728438
 20
-30.0657276326
 11
0.4257732941
 21
-30.0657276326
  0
LINE
  5
29C
100
AcDbEntity
  8
0
100
AcDbLine
 62
7
  6
CONTINUOUS
 10
-0.2011075327
 20
-30.0657276326
 11
-1.0965498386
 21
-30.0657276326
  0
LINE
  5
29D
100
AcDbEntity
  8
0
100
AcDbLine
 62
7
  6
CONTINUOUS
 10
-1.9161072033
 20
-30.0657276326
 11
-2.0830540739
 21
-30.0657276326
  0
LINE
  5
29E
100
AcDbEntity
  8
0
100
AcDbLine
 62
7
  6
CONTINUOUS
 10
-2.7182347112
 20
-30.0657276326
 11
-2.8988171336
 21
-30.0657276326
  0
LINE
  5
29F
100
AcDbEntity
  8
0
100
AcDbLine
 62
7
  6
CONTINUOUS
 10
-3.5324564503
 20
-30.0657276326
 11
-3.6994033209
 21
-30.0657276326
  0
LINE
  5
2A0
100
AcDbEntity
  8
0
100
AcDbLine
 62
7
  6
CONTINUOUS
 10
-3.8395532602
 20
-30.0657276326
 11
-4.0181200739
 21
-30.0657276326
  0
LINE
  5
2A1
100
AcDbEntity
  8
0
100
AcDbLine
 62
7
  6
CONTINUOUS
 10
-4.8225004503
 20
-30.0657276326
 11
-5.0
 21
-30.0657276326
  0
LINE
  5
2A2
100
AcDbEntity
  8
0
100
AcDbLine
 62
7
  6
CONTINUOUS
 10
9.0947977614
 20
-30.0581391385
 11
8.9969773421
 21
-30.0581391385
  0
LINE
  5
2A3
100
AcDbEntity
  8
0
100
AcDbLine
 62
7
  6
CONTINUOUS
 10
-4.5186049695
 20
-29.4843322371
 11
-4.3389710076
 21
-29.4843322371
  0
LINE
  5
2A4
100
AcDbEntity
  8
0
100
AcDbLine
 62
7
  6
CONTINUOUS
 10
-3.6994033209
 20
-29.4843322371
 11
-3.5324564503
 21
-29.4843322371
  0
LINE
  5
2A5
100
AcDbEntity
  8
0
100
AcDbLine
 62
7
  6
CONTINUOUS
 10
-3.251682168
 20
-29.4843322371
 11
-3.0847352974
 21
-29.4843322371
  0
LINE
  5
2A6
100
AcDbEntity
  8
0
100
AcDbLine
 62
7
  6
CONTINUOUS
 10
-2.7236889088
 20
-29.4843322371
 11
-2.5816418171
 21
-29.4843322371
  0
LINE
  5
2A7
100
AcDbEntity
  8
0
100
AcDbLine
 62
7
  6
CONTINUOUS
 10
-1.9177670959
 20
-29.4843322371
 11
-1.7415718386
 21
-29.4843322371
  0
LINE
  5
2A8
100
AcDbEntity
  8
0
100
AcDbLine
 62
7
  6
CONTINUOUS
 10
-2.2120584739
 20
-29.4843322371
 11
-2.0451116033
 21
-29.4843322371
  0
LINE
  5
2A9
100
AcDbEntity
  8
0
100
AcDbLine
 62
7
  6
CONTINUOUS
 10
-0.6108862151
 20
-29.4843322371
 11
-0.4439393445
 21
-29.4843322371
  0
LINE
  5
2AA
100
AcDbEntity
  8
0
100
AcDbLine
 62
7
  6
CONTINUOUS
 10
-0.9371914621
 20
-29.4843322371
 11
-0.7596917967
 21
-29.4843322371
  0
LINE
  5
2AB
100
AcDbEntity
  8
0
100
AcDbLine
 62
7
  6
CONTINUOUS
 10
0.2783904611
 20
-29.4843322371
 11
0.4745055878
 21
-29.4843322371
  0
LINE
  5
2AC
100
AcDbEntity
  8
0
100
AcDbLine
 62
7
  6
CONTINUOUS
 10
2.295507032
 20
-29.4843322371
 11
2.4624539026
 21
-29.4843322371
  0
LINE
  5
2AD
100
AcDbEntity
  8
0
100
AcDbLine
 62
7
  6
CONTINUOUS
 10
3.3107053511
 20
-29.4843322371
 11
3.4869006085
 21
-29.4843322371
  0
LINE
  5
2AE
100
AcDbEntity
  8
0
100
AcDbLine
 62
7
  6
CONTINUOUS
 10
4.2912809849
 20
-29.4843322371
 11
4.4687806504
 21
-29.4843322371
  0
LINE
  5
2AF
100
AcDbEntity
  8
0
100
AcDbLine
 62
7
  6
CONTINUOUS
 10
-1.6096031378
 20
-29.1049075312
 11
-1.0768671132
 21
-29.1049075312
  0
LINE
  5
2B0
100
AcDbEntity
  8
0
100
AcDbLine
 62
7
  6
CONTINUOUS
 10
3.6188693092
 20
-29.1049075312
 11
4.1516053338
 21
-29.1049075312
  0
LINE
  5
2B1
100
AcDbEntity
  8
0
100
AcDbLine
 62
7
  6
CONTINUOUS
 10
4.1012130317
 20
-28.9683146371
 11
3.6664159984
 21
-28.9683146371
  0
LINE
  5
2B2
100
AcDbEntity
  8
0
100
AcDbLine
 62
7
  6
CONTINUOUS
 10
-1.1272594153
 20
-28.9683146371
 11
-1.5620564486
 21
-28.9683146371
  0
LINE
  5
2B3
100
AcDbEntity
  8
0
100
AcDbLine
 62
7
  6
CONTINUOUS
 10
2.4624539026
 20
-28.9683146371
 11
2.7740564495
 21
-28.9683146371
  0
LINE
  5
2B4
100
AcDbEntity
  8
0
100
AcDbLine
 62
7
  6
CONTINUOUS
 10
-0.4439393445
 20
-28.9303721665
 11
-0.2536341314
 21
-28.9303721665
  0
LINE
  5
2B5
100
AcDbEntity
  8
0
100
AcDbLine
 62
7
  6
CONTINUOUS
 10
2.77583503
 20
-28.8241332489
 11
2.4624539026
 21
-28.8241332489
  0
LINE
  5
2B6
100
AcDbEntity
  8
0
100
AcDbLine
 62
7
  6
CONTINUOUS
 10
-0.0913114542
 20
-28.7861907783
 11
-0.4439393445
 21
-28.7861907783
  0
LINE
  5
2B7
100
AcDbEntity
  8
0
100
AcDbLine
 62
7
  6
CONTINUOUS
 10
-0.4439393445
 20
-28.3764120959
 11
-0.0514718311
 21
-28.3764120959
  0
LINE
  5
2B8
100
AcDbEntity
  8
0
100
AcDbLine
 62
7
  6
CONTINUOUS
 10
2.4624539026
 20
-28.3764120959
 11
2.7725151289
 21
-28.3764120959
  0
LINE
  5
2B9
100
AcDbEntity
  8
0
100
AcDbLine
 62
7
  6
CONTINUOUS
 10
3.9672286064
 20
-28.2322307077
 11
3.786646184
 21
-28.2322307077
  0
LINE
  5
2BA
100
AcDbEntity
  8
0
100
AcDbLine
 62
7
  6
CONTINUOUS
 10
2.7567452806
 20
-28.2322307077
 11
2.295507032
 21
-28.2322307077
  0
LINE
  5
2BB
100
AcDbEntity
  8
0
100
AcDbLine
 62
7
  6
CONTINUOUS
 10
-0.058230321
 20
-28.2322307077
 11
-0.6108862151
 21
-28.2322307077
  0
LINE
  5
2BC
100
AcDbEntity
  8
0
100
AcDbLine
 62
7
  6
CONTINUOUS
 10
-1.2612438406
 20
-28.2322307077
 11
-1.441826263
 21
-28.2322307077
  0
LINE
  5
2BD
100
AcDbEntity
  8
0
100
AcDbLine
 62
7
  6
CONTINUOUS
 10
-2.0451116033
 20
-28.2322307077
 11
-2.262332204
 21
-28.2322307077
  0
LINE
  5
2BE
100
AcDbEntity
  8
0
100
AcDbLine
 62
7
  6
CONTINUOUS
 10
-2.9972304131
 20
-28.2322307077
 11
-3.251682168
 21
-28.2322307077
  0
LINE
  5
2BF
100
AcDbEntity
  8
0
100
AcDbLine
 62
7
  6
CONTINUOUS
 10
-3.5324564503
 20
-28.2322307077
 11
-3.6994033209
 21
-28.2322307077
  0
LINE
  5
2C0
100
AcDbEntity
  8
0
100
AcDbLine
 62
7
  6
CONTINUOUS
 10
-3.8395532602
 20
-28.2322307077
 11
-4.0181200739
 21
-28.2322307077
  0
LINE
  5
2C1
100
AcDbEntity
  8
0
100
AcDbLine
 62
7
  6
CONTINUOUS
 10
-4.8225004503
 20
-28.2322307077
 11
-5.0
 21
-28.2322307077
  0
LINE
  5
2C2
100
AcDbEntity
  8
0
100
AcDbLine
 62
7
  6
CONTINUOUS
 10
-1.0995140235
 20
-32.2103528163
 11
-0.9477441412
 21
-32.2331182986
  0
LINE
  5
2C3
100
AcDbEntity
  8
0
100
AcDbLine
 62
7
  6
CONTINUOUS
 10
9.4029618353
 20
-32.7461715979
 11
9.2360149647
 21
-32.7043162503
  0
LINE
  5
2C4
100
AcDbEntity
  8
0
100
AcDbLine
 62
7
  6
CONTINUOUS
 10
3.2440687967
 20
-30.9202631671
 11
3.0771219261
 21
-30.8784078196
  0
LINE
  5
2C5
100
AcDbEntity
  8
0
100
AcDbLine
 62
7
  6
CONTINUOUS
 10
-3.265625
 20
22.595212774
 11
-3.3375
 21
22.5462765925
  0
LINE
  5
2C6
100
AcDbEntity
  8
0
100
AcDbLine
 62
7
  6
CONTINUOUS
 10
-6.0833333385
 20
18.5099454288
 11
-6.17
 21
18.4546262865
  0
LINE
  5
2C7
100
AcDbEntity
  8
0
100
AcDbLine
 62
7
  6
CONTINUOUS
 10
-0.8453389846
 20
21.1521276712
 11
-0.9788135608
 21
21.0787234247
  0
LINE
  5
2C8
100
AcDbEntity
  8
0
100
AcDbLine
 62
7
  6
CONTINUOUS
 10
-3.3135417581
 20
22.3994680843
 11
-3.2177082419
 21
22.4484042551
  0
LINE
  5
2C9
100
AcDbEntity
  8
0
100
AcDbLine
 62
7
  6
CONTINUOUS
 10
-0.7118644084
 20
21.0542553425
 11
-0.5783898322
 21
21.1031915069
  0
LINE
  5
2CA
100
AcDbEntity
  8
0
100
AcDbLine
 62
7
  6
CONTINUOUS
 10
-0.0000001716
 20
20.2957446747
 11
-0.1334747478
 21
20.2468085103
  0
LINE
  5
2CB
100
AcDbEntity
  8
0
100
AcDbLine
 62
7
  6
CONTINUOUS
 10
2.135593048
 20
21.0542553425
 11
2.2690676242
 21
21.1031915069
  0
LINE
  5
2CC
100
AcDbEntity
  8
0
100
AcDbLine
 62
7
  6
CONTINUOUS
 10
4.0487284708
 20
21.0542553425
 11
4.1822030471
 21
21.1031915069
  0
LINE
  5
2CD
100
AcDbEntity
  8
0
100
AcDbLine
 62
7
  6
CONTINUOUS
 10
-0.6228811878
 20
21.2255319178
 11
-0.8453389846
 21
21.1521276712
  0
LINE
  5
2CE
100
AcDbEntity
  8
0
100
AcDbLine
 62
7
  6
CONTINUOUS
 10
2.2245762686
 20
21.2255319178
 11
2.0021184718
 21
21.1521276712
  0
LINE
  5
2CF
100
AcDbEntity
  8
0
100
AcDbLine
 62
7
  6
CONTINUOUS
 10
-0.0889828829
 20
20.1244680843
 11
0.1334744047
 21
20.1978723373
  0
LINE
  5
2D0
100
AcDbEntity
  8
0
100
AcDbLine
 62
7
  6
CONTINUOUS
 10
4.1377122006
 20
21.2255319178
 11
3.9152538946
 21
21.1521276712
  0
LINE
  5
2D1
100
AcDbEntity
  8
ASSI
100
AcDbLine
 62
7
  6
CONTINUOUS
 10
0.8285275
 20
-22.1875
 11
1.558778
 21
-22.1875
  0
LINE
  5
2D2
100
AcDbEntity
  8
ASSI
100
AcDbLine
 62
7
  6
CONTINUOUS
 10
1.558778
 20
-21.8125
 11
0.8285259689
 21
-21.8125
  0
LINE
  5
2D3
100
AcDbEntity
  8
0
100
AcDbLine
 62
7
  6
CONTINUOUS
 10
-1.4704016591
 20
-33.7478984706
 11
-0.9923265297
 21
-34.4696353002
  0
LINE
  5
2D4
100
AcDbEntity
  8
0
100
AcDbLine
 62
7
  6
CONTINUOUS
 10
-1.0305061443
 20
-34.1299316453
 11
-1.2717965197
 21
-33.7478984706
  0
LINE
  5
2D5
100
AcDbEntity
  8
0
100
AcDbLine
 62
7
  6
CONTINUOUS
 10
-6.17
 20
18.2333497171
 11
-6.1266666615
 21
18.3163284306
  0
LINE
  5
2D6
100
AcDbEntity
  8
0
100
AcDbLine
 62
7
  6
CONTINUOUS
 10
-4.1822033902
 20
20.1
 11
-3.4703390261
 21
21.25
  0
LINE
  5
2D7
100
AcDbEntity
  8
0
100
AcDbLine
 62
7
  6
CONTINUOUS
 10
-3.7372881786
 20
21.25
 11
-4.3601695131
 21
20.2468085103
  0
LINE
  5
2D8
100
AcDbEntity
  8
0
100
AcDbLine
 62
7
  6
CONTINUOUS
 10
-3.2177082419
 20
22.6686170205
 11
-3.265625
 21
22.595212774
  0
LINE
  5
2D9
100
AcDbEntity
  8
0
100
AcDbLine
 62
7
  6
CONTINUOUS
 10
-6.17
 20
18.4546262865
 11
-6.2566666654
 21
18.3439880018
  0
LINE
  5
2DA
100
AcDbEntity
  8
0
100
AcDbLine
 62
7
  6
CONTINUOUS
 10
-5.195
 20
18.4269667153
 11
-5.26
 21
18.3439880018
  0
LINE
  5
2DB
100
AcDbEntity
  8
0
100
AcDbLine
 62
7
  6
CONTINUOUS
 10
-4.718333292
 20
17.3482432944
 11
-4.653333292
 21
17.4312220176
  0
LINE
  5
2DC
100
AcDbEntity
  8
0
100
AcDbLine
 62
7
  6
CONTINUOUS
 10
-3.765
 20
17.3205837232
 11
-3.678333416
 21
17.4312220176
  0
LINE
  5
2DD
100
AcDbEntity
  8
0
100
AcDbLine
 62
7
  6
CONTINUOUS
 10
-1.7796610182
 20
21.1276595891
 11
-2.6694914415
 21
20.1
  0
LINE
  5
2DE
100
AcDbEntity
  8
0
100
AcDbLine
 62
7
  6
CONTINUOUS
 10
-2.402542289
 20
20.1
 11
-1.5127118657
 21
21.1276595891
  0
LINE
  5
2DF
100
AcDbEntity
  8
0
100
AcDbLine
 62
7
  6
CONTINUOUS
 10
-5.693333354
 20
18.0673922126
 11
-6.3
 21
17.3759028752
  0
LINE
  5
2E0
100
AcDbEntity
  8
0
100
AcDbLine
 62
7
  6
CONTINUOUS
 10
-6.1266666615
 20
17.3759028752
 11
-5.585
 21
17.9844134991
  0
LINE
  5
2E1
100
AcDbEntity
  8
0
100
AcDbLine
 62
7
  6
CONTINUOUS
 10
-0.9788135608
 20
21.0787234247
 11
-1.0677965268
 21
20.9808510959
  0
LINE
  5
2E2
100
AcDbEntity
  8
0
100
AcDbLine
 62
7
  6
CONTINUOUS
 10
-3.2177082419
 20
22.4484042551
 11
-3.121875
 21
22.5462765925
  0
LINE
  5
2E3
100
AcDbEntity
  8
0
100
AcDbLine
 62
7
  6
CONTINUOUS
 10
-6.1266666615
 20
18.3163284306
 11
-6.0616666615
 21
18.371647573
  0
LINE
  5
2E4
100
AcDbEntity
  8
0
100
AcDbLine
 62
7
  6
CONTINUOUS
 10
-5.13
 20
18.3163284306
 11
-5.065
 21
18.371647573
  0
LINE
  5
2E5
100
AcDbEntity
  8
0
100
AcDbLine
 62
7
  6
CONTINUOUS
 10
-4.783333292
 20
17.4588815887
 11
-4.848333292
 21
17.4035624464
  0
LINE
  5
2E6
100
AcDbEntity
  8
0
100
AcDbLine
 62
7
  6
CONTINUOUS
 10
-3.808333416
 20
17.4865411793
 11
-3.873333416
 21
17.4312220176
  0
LINE
  5
2E7
100
AcDbEntity
  8
0
100
AcDbLine
 62
7
  6
CONTINUOUS
 10
-0.8898303403
 20
20.9074467808
 11
-0.7118644084
 21
21.0542553425
  0
LINE
  5
2E8
100
AcDbEntity
  8
0
100
AcDbLine
 62
7
  6
CONTINUOUS
 10
0.1779662695
 20
20.4425531849
 11
-0.0000001716
 21
20.2957446747
  0
LINE
  5
2E9
100
AcDbEntity
  8
0
100
AcDbLine
 62
7
  6
CONTINUOUS
 10
1.9576271161
 20
20.9074467808
 11
2.135593048
 21
21.0542553425
  0
LINE
  5
2EA
100
AcDbEntity
  8
0
100
AcDbLine
 62
7
  6
CONTINUOUS
 10
3.0254237259
 20
20.4425531849
 11
2.847457794
 21
20.2957446747
  0
LINE
  5
2EB
100
AcDbEntity
  8
0
100
AcDbLine
 62
7
  6
CONTINUOUS
 10
3.9597457595
 20
20.9808510959
 11
4.0487284708
 21
21.0542553425
  0
LINE
  5
2EC
100
AcDbEntity
  8
0
100
AcDbLine
 62
7
  6
CONTINUOUS
 10
-5.086666708
 20
18.5099454288
 11
-5.195
 21
18.4269667153
  0
LINE
  5
2ED
100
AcDbEntity
  8
0
100
AcDbLine
 62
7
  6
CONTINUOUS
 10
-4.826666708
 20
17.2652645736
 11
-4.718333292
 21
17.3482432944
  0
LINE
  5
2EE
100
AcDbEntity
  8
0
100
AcDbLine
 62
7
  6
CONTINUOUS
 10
3.9152538946
 20
21.1521276712
 11
3.7817793184
 21
21.0542553425
  0
LINE
  5
2EF
100
AcDbEntity
  8
0
100
AcDbLine
 62
7
  6
CONTINUOUS
 10
1.0677964382
 20
21.25
 11
0.8008472858
 21
21.0787234247
  0
LINE
  5
2F0
100
AcDbEntity
  8
0
100
AcDbLine
 62
7
  6
CONTINUOUS
 10
0.8008472858
 20
20.8829786986
 11
1.0677964382
 21
21.0542553425
  0
LINE
  5
2F1
100
AcDbEntity
  8
0
100
AcDbLine
 62
7
  6
CONTINUOUS
 10
-3.851666584
 20
17.2652645736
 11
-3.765
 21
17.3205837232
  0
LINE
  5
2F2
100
AcDbEntity
  8
0
100
AcDbLine
 62
7
  6
CONTINUOUS
 10
0.1334744047
 20
20.1978723373
 11
0.2669489809
 21
20.2712765925
  0
LINE
  5
2F3
100
AcDbEntity
  8
0
100
AcDbLine
 62
7
  6
CONTINUOUS
 10
2.0021184718
 20
21.1521276712
 11
1.8686438956
 21
21.0787234247
  0
LINE
  5
2F4
100
AcDbEntity
  8
0
100
AcDbLine
 62
7
  6
CONTINUOUS
 10
2.9809323702
 20
20.1978723373
 11
3.1144069464
 21
20.2712765925
  0
LINE
  5
2F5
100
AcDbEntity
  8
0
100
AcDbLine
 62
7
  6
CONTINUOUS
 10
3.9597457595
 20
20.5893617123
 11
4.0487284708
 21
20.6382978767
  0
LINE
  5
2F6
100
AcDbEntity
  8
0
100
AcDbLine
 62
7
  6
CONTINUOUS
 10
4.1377122006
 20
20.809574452
 11
3.8707630481
 21
20.7117021233
  0
LINE
  5
2F7
100
AcDbEntity
  8
0
100
AcDbLine
 62
7
  6
CONTINUOUS
 10
2.847457794
 20
20.2957446747
 11
2.7139832178
 21
20.2468085103
  0
LINE
  5
2F8
100
AcDbEntity
  8
0
100
AcDbLine
 62
7
  6
CONTINUOUS
 10
4.0487284708
 20
20.6382978767
 11
4.1822030471
 21
20.6872340411
  0
LINE
  5
2F9
100
AcDbEntity
  8
0
100
AcDbLine
 62
7
  6
CONTINUOUS
 10
4.894067793
 20
20.2957446747
 11
4.7605932168
 21
20.2468085103
  0
LINE
  5
2FA
100
AcDbEntity
  8
0
100
AcDbLine
 62
7
  6
CONTINUOUS
 10
2.7584745735
 20
20.1244680843
 11
2.9809323702
 21
20.1978723373
  0
LINE
  5
2FB
100
AcDbEntity
  8
0
100
AcDbLine
 62
7
  6
CONTINUOUS
 10
4.8050850817
 20
20.1244680843
 11
5.0275423693
 21
20.1978723373
  0
LINE
  5
2FC
100
AcDbEntity
  8
0
100
AcDbLine
 62
7
  6
CONTINUOUS
 10
-3.873333416
 20
17.4312220176
 11
-3.96
 21
17.4035624464
  0
LINE
  5
2FD
100
AcDbEntity
  8
0
100
AcDbLine
 62
7
  6
CONTINUOUS
 10
0.1142893192
 20
-29.2240705685
 11
0.2783904611
 21
-29.4843322371
  0
LINE
  5
2FE
100
AcDbEntity
  8
0
100
AcDbLine
 62
7
  6
CONTINUOUS
 10
3.7538023107
 20
-32.8834759242
 11
3.9179034526
 21
-33.1437375928
  0
LINE
  5
2FF
100
AcDbEntity
  8
0
100
AcDbLine
 62
7
  6
CONTINUOUS
 10
0.4745055878
 20
-29.4843322371
 11
0.2617906085
 21
-29.1439170343
  0
LINE
  5
300
100
AcDbEntity
  8
0
100
AcDbLine
 62
7
  6
CONTINUOUS
 10
4.1140185793
 20
-33.1437375928
 11
3.9013036
 21
-32.8033223899
  0
LINE
  5
301
100
AcDbEntity
  8
0
100
AcDbLine
 62
7
  6
CONTINUOUS
 10
-2.4548901698
 20
-35.0
 11
-2.9564422138
 21
-33.7478984706
  0
LINE
  5
302
100
AcDbEntity
  8
0
100
AcDbLine
 62
7
  6
CONTINUOUS
 10
-2.2166826672
 20
-31.317829162
 11
-2.7182347112
 21
-30.0657276326
  0
LINE
  5
303
100
AcDbEntity
  8
0
100
AcDbLine
 62
7
  6
CONTINUOUS
 10
-2.957272218
 20
-34.1398915801
 11
-2.8224577885
 21
-34.4839824
  0
LINE
  5
304
100
AcDbEntity
  8
0
100
AcDbLine
 62
7
  6
CONTINUOUS
 10
-2.7190647154
 20
-30.457720742
 11
-2.5842502859
 21
-30.801811562
  0
LINE
  5
305
100
AcDbEntity
  8
0
100
AcDbLine
 62
7
  6
CONTINUOUS
 10
-5.0
 20
-30.0657276326
 11
-4.5186049695
 21
-31.317829162
  0
LINE
  5
306
100
AcDbEntity
  8
0
100
AcDbLine
 62
7
  6
CONTINUOUS
 10
-5.0
 20
-28.2322307077
 11
-4.5186049695
 21
-29.4843322371
  0
LINE
  5
307
100
AcDbEntity
  8
0
100
AcDbLine
 62
7
  6
CONTINUOUS
 10
-2.7720654864
 20
-34.6205752941
 11
-2.6323898353
 21
-35.0
  0
LINE
  5
308
100
AcDbEntity
  8
0
100
AcDbLine
 62
7
  6
CONTINUOUS
 10
-4.4973808078
 20
-30.9730269099
 11
-4.8225004503
 21
-30.0657276326
  0
LINE
  5
309
100
AcDbEntity
  8
0
100
AcDbLine
 62
7
  6
CONTINUOUS
 10
-4.4973808078
 20
-29.139529985
 11
-4.8225004503
 21
-28.2322307077
  0
LINE
  5
30A
100
AcDbEntity
  8
0
100
AcDbLine
 62
7
  6
CONTINUOUS
 10
-6.2566666654
 20
18.3439880018
 11
-6.2783333327
 21
18.2333497171
  0
LINE
  5
30B
100
AcDbEntity
  8
0
100
AcDbLine
 62
7
  6
CONTINUOUS
 10
-5.541666646
 20
18.0673922126
 11
-5.52
 21
18.1780304973
  0
LINE
  5
30C
100
AcDbEntity
  8
0
100
AcDbLine
 62
7
  6
CONTINUOUS
 10
-5.303333354
 20
18.2333497171
 11
-5.325
 21
18.1503709261
  0
LINE
  5
30D
100
AcDbEntity
  8
0
100
AcDbLine
 62
7
  6
CONTINUOUS
 10
-4.61
 20
17.5418603216
 11
-4.588333292
 21
17.6248390351
  0
LINE
  5
30E
100
AcDbEntity
  8
0
100
AcDbLine
 62
7
  6
CONTINUOUS
 10
-3.8721215
 20
27.500052
 11
-4.446923
 21
25.709731
  0
LINE
  5
30F
100
AcDbEntity
  8
0
100
AcDbLine
 62
7
  6
CONTINUOUS
 10
-4.18691
 20
24.899935
 11
-3.3520955
 21
27.500052
  0
LINE
  5
310
100
AcDbEntity
  8
0
100
AcDbLine
 62
7
  6
CONTINUOUS
 10
-4.894791621
 20
22.7664893493
 11
-4.679166621
 21
23.4271276712
  0
LINE
  5
311
100
AcDbEntity
  8
0
100
AcDbLine
 62
7
  6
CONTINUOUS
 10
-5.014583379
 20
22.375
 11
-4.91875
 21
22.6686170205
  0
LINE
  5
312
100
AcDbEntity
  8
0
100
AcDbLine
 62
7
  6
CONTINUOUS
 10
-4.775
 20
23.525
 11
-5.158333379
 21
22.375
  0
LINE
  5
313
100
AcDbEntity
  8
0
100
AcDbLine
 62
7
  6
CONTINUOUS
 10
-5.565625
 20
23.525
 11
-5.925
 21
22.4973404281
  0
LINE
  5
314
100
AcDbEntity
  8
0
100
AcDbLine
 62
7
  6
CONTINUOUS
 10
-5.8291666895
 20
22.375
 11
-5.49375
 21
23.2803191781
  0
LINE
  5
315
100
AcDbEntity
  8
0
100
AcDbLine
 62
7
  6
CONTINUOUS
 10
-5.65
 20
18.1780304973
 11
-5.693333354
 21
18.0673922126
  0
LINE
  5
316
100
AcDbEntity
  8
0
100
AcDbLine
 62
7
  6
CONTINUOUS
 10
-5.26
 20
18.3439880018
 11
-5.303333354
 21
18.2333497171
  0
LINE
  5
317
100
AcDbEntity
  8
0
100
AcDbLine
 62
7
  6
CONTINUOUS
 10
-4.653333292
 20
17.4312220176
 11
-4.61
 21
17.5418603216
  0
LINE
  5
318
100
AcDbEntity
  8
0
100
AcDbLine
 62
7
  6
CONTINUOUS
 10
-3.678333416
 20
17.4312220176
 11
-3.635
 21
17.5418603216
  0
LINE
  5
319
100
AcDbEntity
  8
0
100
AcDbLine
 62
7
  6
CONTINUOUS
 10
-3.121875
 20
22.5462765925
 11
-3.0739582419
 21
22.6441489384
  0
LINE
  5
31A
100
AcDbEntity
  8
0
100
AcDbLine
 62
7
  6
CONTINUOUS
 10
-5.585
 20
17.9844134991
 11
-5.541666646
 21
18.0673922126
  0
LINE
  5
31B
100
AcDbEntity
  8
0
100
AcDbLine
 62
7
  6
CONTINUOUS
 10
-5.216666708
 20
18.1503709261
 11
-5.13
 21
18.3163284306
  0
LINE
  5
31C
100
AcDbEntity
  8
0
100
AcDbLine
 62
7
  6
CONTINUOUS
 10
-4.696666708
 20
17.6248390351
 11
-4.783333292
 21
17.4588815887
  0
LINE
  5
31D
100
AcDbEntity
  8
0
100
AcDbLine
 62
7
  6
CONTINUOUS
 10
-3.765
 20
17.5695198928
 11
-3.808333416
 21
17.4865411793
  0
LINE
  5
31E
100
AcDbEntity
  8
0
100
AcDbLine
 62
7
  6
CONTINUOUS
 10
-1.0677965268
 20
20.9808510959
 11
-1.112288137
 21
20.9074467808
  0
LINE
  5
31F
100
AcDbEntity
  8
0
100
AcDbLine
 62
7
  6
CONTINUOUS
 10
0.3559322014
 20
20.3691489384
 11
0.4004235571
 21
20.4425531849
  0
LINE
  5
320
100
AcDbEntity
  8
0
100
AcDbLine
 62
7
  6
CONTINUOUS
 10
1.7796611842
 20
20.9808510959
 11
1.7351693193
 21
20.9074467808
  0
LINE
  5
321
100
AcDbEntity
  8
0
100
AcDbLine
 62
7
  6
CONTINUOUS
 10
-0.7579365
 20
17.676152
 11
-0.356675
 21
18.2476105
  0
LINE
  5
322
100
AcDbEntity
  8
0
100
AcDbLine
 62
7
  6
CONTINUOUS
 10
-0.310801
 20
18.512395
 11
-0.9017275
 21
17.693907
  0
LINE
  5
323
100
AcDbEntity
  8
0
100
AcDbLine
 62
7
  6
CONTINUOUS
 10
3.7817793184
 20
21.0542553425
 11
3.692796607
 21
20.931914863
  0
LINE
  5
324
100
AcDbEntity
  8
0
100
AcDbLine
 62
7
  6
CONTINUOUS
 10
0.2669489809
 20
20.2712765925
 11
0.3559322014
 21
20.3691489384
  0
LINE
  5
325
100
AcDbEntity
  8
0
100
AcDbLine
 62
7
  6
CONTINUOUS
 10
1.8686438956
 20
21.0787234247
 11
1.7796611842
 21
20.9808510959
  0
LINE
  5
326
100
AcDbEntity
  8
0
100
AcDbLine
 62
7
  6
CONTINUOUS
 10
3.1144069464
 20
20.2712765925
 11
3.2033896578
 21
20.3691489384
  0
LINE
  5
327
100
AcDbEntity
  8
ASSI
100
AcDbLine
 62
7
  6
CONTINUOUS
 10
4.1592749049
 20
18.5341409198
 11
3.396593
 21
17.8914235
  0
LINE
  5
328
100
AcDbEntity
  8
ASSI
100
AcDbLine
 62
7
  6
CONTINUOUS
 10
3.396593
 20
17.557603
 11
4.1238878455
 21
18.1704988698
  0
LINE
  5
329
100
AcDbEntity
  8
0
100
AcDbLine
 62
7
  6
CONTINUOUS
 10
4.9830505044
 20
20.3691489384
 11
4.894067793
 21
20.2957446747
  0
LINE
  5
32A
100
AcDbEntity
  8
0
100
AcDbLine
 62
7
  6
CONTINUOUS
 10
5.0275423693
 20
20.1978723373
 11
5.1610169455
 21
20.2957446747
  0
LINE
  5
32B
100
AcDbEntity
  8
0
100
AcDbLine
 62
7
  6
CONTINUOUS
 10
4.7845331026
 20
-30.3575288821
 11
5.4114139294
 21
-31.317829162
  0
LINE
  5
32C
100
AcDbEntity
  8
0
100
AcDbLine
 62
7
  6
CONTINUOUS
 10
5.4219666085
 20
-31.0260277967
 11
4.7950858974
 21
-30.0657276326
  0
LINE
  5
32D
100
AcDbEntity
  8
0
100
AcDbLine
 62
7
  6
CONTINUOUS
 10
-0.7596917967
 20
-29.4843322371
 11
-1.2612438406
 21
-28.2322307077
  0
LINE
  5
32E
100
AcDbEntity
  8
0
100
AcDbLine
 62
7
  6
CONTINUOUS
 10
2.8798211949
 20
-33.1437375928
 11
2.3782691509
 21
-31.8916360634
  0
LINE
  5
32F
100
AcDbEntity
  8
0
100
AcDbLine
 62
7
  6
CONTINUOUS
 10
-1.2620738448
 20
-28.6242238172
 11
-1.1272594153
 21
-28.9683146371
  0
LINE
  5
330
100
AcDbEntity
  8
0
100
AcDbLine
 62
7
  6
CONTINUOUS
 10
2.3774391467
 20
-32.2836291728
 11
2.5122535762
 21
-32.6277199928
  0
LINE
  5
331
100
AcDbEntity
  8
0
100
AcDbLine
 62
7
  6
CONTINUOUS
 10
0.4257732941
 20
-30.0657276326
 11
0.9071683246
 21
-31.317829162
  0
LINE
  5
332
100
AcDbEntity
  8
0
100
AcDbLine
 62
7
  6
CONTINUOUS
 10
-2.5338579838
 20
-30.9384044561
 11
-2.3941823327
 21
-31.317829162
  0
LINE
  5
333
100
AcDbEntity
  8
0
100
AcDbLine
 62
7
  6
CONTINUOUS
 10
-1.0768671132
 20
-29.1049075312
 11
-0.9371914621
 21
-29.4843322371
  0
LINE
  5
334
100
AcDbEntity
  8
0
100
AcDbLine
 62
7
  6
CONTINUOUS
 10
2.5626458783
 20
-32.7643128869
 11
2.7023215294
 21
-33.1437375928
  0
LINE
  5
335
100
AcDbEntity
  8
0
100
AcDbLine
 62
7
  6
CONTINUOUS
 10
0.9283924863
 20
-30.9730269099
 11
0.6032728438
 21
-30.0657276326
  0
LINE
  5
336
100
AcDbEntity
  8
0
100
AcDbLine
 62
7
  6
CONTINUOUS
 10
-3.0847352974
 20
-28.4219430606
 11
-2.7236889088
 21
-29.4843322371
  0
LINE
  5
337
100
AcDbEntity
  8
0
100
AcDbLine
 62
7
  6
CONTINUOUS
 10
0.5547776941
 20
-32.0813484163
 11
0.9158240827
 21
-33.1437375928
  0
LINE
  5
338
100
AcDbEntity
  8
0
100
AcDbLine
 62
7
  6
CONTINUOUS
 10
-2.7006862824
 20
-29.1168830747
 11
-2.9972304131
 21
-28.2322307077
  0
LINE
  5
339
100
AcDbEntity
  8
0
100
AcDbLine
 62
7
  6
CONTINUOUS
 10
0.9388267092
 20
-32.7762884303
 11
0.6422825784
 21
-31.8916360634
  0
LINE
  5
33A
100
AcDbEntity
  8
0
100
AcDbLine
 62
7
  6
CONTINUOUS
 10
-6.75
 20
28.375
 11
-6.75
 21
14.875
  0
LINE
  5
33B
100
AcDbEntity
  8
0
100
AcDbLine
 62
7
  6
CONTINUOUS
 10
-6.5
 20
23.525
 11
-6.5
 21
22.375
  0
LINE
  5
33C
100
AcDbEntity
  8
0
100
AcDbLine
 62
7
  6
CONTINUOUS
 10
-6.35625
 20
22.375
 11
-6.35625
 21
23.2803191781
  0
LINE
  5
33D
100
AcDbEntity
  8
0
100
AcDbLine
 62
7
  6
CONTINUOUS
 10
-6.3
 20
17.3759028752
 11
-6.3
 21
17.237605
  0
LINE
  5
33E
100
AcDbEntity
  8
0
100
AcDbLine
 62
7
  6
CONTINUOUS
 10
-5.65
 20
18.2333497171
 11
-5.65
 21
18.1780304973
  0
LINE
  5
33F
100
AcDbEntity
  8
0
100
AcDbLine
 62
7
  6
CONTINUOUS
 10
-5.52
 20
17.237605
 11
-5.52
 21
17.3759028752
  0
LINE
  5
340
100
AcDbEntity
  8
0
100
AcDbLine
 62
7
  6
CONTINUOUS
 10
-5.52
 20
18.1780304973
 11
-5.52
 21
18.2333497171
  0
LINE
  5
341
100
AcDbEntity
  8
0
100
AcDbLine
 62
7
  6
CONTINUOUS
 10
-5.49375
 20
23.2803191781
 11
-5.49375
 21
22.375
  0
LINE
  5
342
100
AcDbEntity
  8
0
100
AcDbLine
 62
7
  6
CONTINUOUS
 10
-5.35
 20
22.375
 11
-5.35
 21
23.525
  0
LINE
  5
343
100
AcDbEntity
  8
0
100
AcDbLine
 62
7
  6
CONTINUOUS
 10
-5.346666646
 20
18.0120730703
 11
-5.346666646
 21
17.7631369297
  0
LINE
  5
344
100
AcDbEntity
  8
0
100
AcDbLine
 62
7
  6
CONTINUOUS
 10
-5.238333292
 20
17.7907965009
 11
-5.238333292
 21
17.9844134991
  0
LINE
  5
345
100
AcDbEntity
  8
0
100
AcDbLine
 62
7
  6
CONTINUOUS
 10
-5.0
 20
-33.7478984706
 11
-5.0
 21
-35.0
  0
LINE
  5
346
100
AcDbEntity
  8
0
100
AcDbLine
 62
7
  6
CONTINUOUS
 10
-4.8330531294
 20
-35.0
 11
-4.8330531294
 21
-33.7478984706
  0
LINE
  5
347
100
AcDbEntity
  8
0
100
AcDbLine
 62
7
  6
CONTINUOUS
 10
-4.675
 20
17.9844134991
 11
-4.675
 21
17.7907965009
  0
LINE
  5
348
100
AcDbEntity
  8
0
100
AcDbLine
 62
7
  6
CONTINUOUS
 10
-4.6281637882
 20
-33.7478984706
 11
-4.6281637882
 21
-33.8920798588
  0
LINE
  5
349
100
AcDbEntity
  8
0
100
AcDbLine
 62
7
  6
CONTINUOUS
 10
-4.566666708
 20
17.7631369297
 11
-4.566666708
 21
18.0120730703
  0
LINE
  5
34A
100
AcDbEntity
  8
0
100
AcDbLine
 62
7
  6
CONTINUOUS
 10
-4.2183851059
 20
-33.8920798588
 11
-4.2183851059
 21
-35.0
  0
LINE
  5
34B
100
AcDbEntity
  8
0
100
AcDbLine
 62
7
  6
CONTINUOUS
 10
-5.238333292
 20
17.9844134991
 11
-5.216666708
 21
18.1503709261
  0
LINE
  5
34C
100
AcDbEntity
  8
0
100
AcDbLine
 62
7
  6
CONTINUOUS
 10
-4.675
 20
17.7907965009
 11
-4.696666708
 21
17.6248390351
  0
LINE
  5
34D
100
AcDbEntity
  8
0
100
AcDbLine
 62
7
  6
CONTINUOUS
 10
-5.325
 20
18.1503709261
 11
-5.346666646
 21
18.0120730703
  0
LINE
  5
34E
100
AcDbEntity
  8
0
100
AcDbLine
 62
7
  6
CONTINUOUS
 10
-4.588333292
 20
17.6248390351
 11
-4.566666708
 21
17.7631369297
  0
LINE
  5
34F
100
AcDbEntity
  8
0
100
AcDbLine
 62
7
  6
CONTINUOUS
 10
-3.635
 20
17.5418603216
 11
-3.613333416
 21
17.6801581775
  0
LINE
  5
350
100
AcDbEntity
  8
0
100
AcDbLine
 62
7
  6
CONTINUOUS
 10
-3.0739582419
 20
22.6441489384
 11
-3.05
 21
22.7664893493
  0
LINE
  5
351
100
AcDbEntity
  8
0
100
AcDbLine
 62
7
  6
CONTINUOUS
 10
-3.743333416
 20
17.6801581775
 11
-3.765
 21
17.5695198928
  0
LINE
  5
352
100
AcDbEntity
  8
0
100
AcDbLine
 62
7
  6
CONTINUOUS
 10
-3.19375
 20
22.7664893493
 11
-3.2177082419
 21
22.6686170205
  0
LINE
  5
353
100
AcDbEntity
  8
0
100
AcDbLine
 62
7
  6
CONTINUOUS
 10
-0.208182
 20
27.500052
 11
-0.6937255
 21
25.806763
  0
LINE
  5
354
100
AcDbEntity
  8
0
100
AcDbLine
 62
7
  6
CONTINUOUS
 10
-0.4337255
 20
24.8999415
 11
0.0579215
 21
26.6145375
  0
LINE
  5
355
100
AcDbEntity
  8
0
100
AcDbLine
 62
7
  6
CONTINUOUS
 10
-0.9343222051
 20
20.7606382877
 11
-0.8898303403
 21
20.9074467808
  0
LINE
  5
356
100
AcDbEntity
  8
0
100
AcDbLine
 62
7
  6
CONTINUOUS
 10
0.2224576252
 20
20.5893617123
 11
0.1779662695
 21
20.4425531849
  0
LINE
  5
357
100
AcDbEntity
  8
0
100
AcDbLine
 62
7
  6
CONTINUOUS
 10
1.9131357604
 20
20.7606382877
 11
1.9576271161
 21
20.9074467808
  0
LINE
  5
358
100
AcDbEntity
  8
0
100
AcDbLine
 62
7
  6
CONTINUOUS
 10
1.7594265
 20
27.5000585
 11
0.924625
 21
24.899935
  0
LINE
  5
359
100
AcDbEntity
  8
0
100
AcDbLine
 62
7
  6
CONTINUOUS
 10
1.4446445
 20
24.8999415
 11
1.608815
 21
25.4112705
  0
LINE
  5
35A
100
AcDbEntity
  8
0
100
AcDbLine
 62
7
  6
CONTINUOUS
 10
1.7674345
 20
25.90529
 11
2.019446
 21
26.690256
  0
LINE
  5
35B
100
AcDbEntity
  8
0
100
AcDbLine
 62
7
  6
CONTINUOUS
 10
-1.112288137
 20
20.9074467808
 11
-1.1567797473
 21
20.7851063699
  0
LINE
  5
35C
100
AcDbEntity
  8
0
100
AcDbLine
 62
7
  6
CONTINUOUS
 10
0.4004235571
 20
20.4425531849
 11
0.444915422
 21
20.5648936301
  0
LINE
  5
35D
100
AcDbEntity
  8
0
100
AcDbLine
 62
7
  6
CONTINUOUS
 10
1.7351693193
 20
20.9074467808
 11
1.6906779637
 21
20.7851063699
  0
LINE
  5
35E
100
AcDbEntity
  8
ASSI
100
AcDbLine
 62
7
  6
CONTINUOUS
 10
2.6206640257
 20
16.5037265457
 11
2.7457879032
 21
16.7266573276
  0
LINE
  5
35F
100
AcDbEntity
  8
0
100
AcDbLine
 62
7
  6
CONTINUOUS
 10
3.2033896578
 20
20.3691489384
 11
3.2478815227
 21
20.4425531849
  0
LINE
  5
360
100
AcDbEntity
  8
0
100
AcDbLine
 62
7
  6
CONTINUOUS
 10
3.9152538946
 20
20.9074467808
 11
3.9597457595
 21
20.9808510959
  0
LINE
  5
361
100
AcDbEntity
  8
0
100
AcDbLine
 62
7
  6
CONTINUOUS
 10
3.9152538946
 20
20.5159574315
 11
3.9597457595
 21
20.5893617123
  0
LINE
  5
362
100
AcDbEntity
  8
0
100
AcDbLine
 62
7
  6
CONTINUOUS
 10
5.0275423693
 20
20.4425531849
 11
4.9830505044
 21
20.3691489384
  0
LINE
  5
363
100
AcDbEntity
  8
0
100
AcDbLine
 62
7
  6
CONTINUOUS
 10
6.3895829678
 20
23.525
 11
6.078125
 21
23.0601063699
  0
LINE
  5
364
100
AcDbEntity
  8
0
100
AcDbLine
 62
7
  6
CONTINUOUS
 10
6.15
 20
22.9622340411
 11
6.5333329678
 21
23.525
  0
LINE
  5
365
100
AcDbEntity
  8
ASSI
100
AcDbLine
 62
7
  6
CONTINUOUS
 10
4.2343985
 20
15.5184505
 11
4.3762445
 21
15.7195385
  0
LINE
  5
366
100
AcDbEntity
  8
0
100
AcDbLine
 62
7
  6
CONTINUOUS
 10
5.1610169455
 20
20.2957446747
 11
5.2499996569
 21
20.4180851027
  0
LINE
  5
367
100
AcDbEntity
  8
0
100
AcDbLine
 62
7
  6
CONTINUOUS
 10
4.4687806504
 20
-29.4843322371
 11
3.9672286064
 21
-28.2322307077
  0
LINE
  5
368
100
AcDbEntity
  8
0
100
AcDbLine
 62
7
  6
CONTINUOUS
 10
7.9518994504
 20
-31.317829162
 11
7.4503474064
 21
-30.0657276326
  0
LINE
  5
369
100
AcDbEntity
  8
0
100
AcDbLine
 62
7
  6
CONTINUOUS
 10
3.9663986022
 20
-28.6242238172
 11
4.1012130317
 21
-28.9683146371
  0
LINE
  5
36A
100
AcDbEntity
  8
0
100
AcDbLine
 62
7
  6
CONTINUOUS
 10
7.4495174022
 20
-30.457720742
 11
7.5843318317
 21
-30.801811562
  0
LINE
  5
36B
100
AcDbEntity
  8
0
100
AcDbLine
 62
7
  6
CONTINUOUS
 10
4.1516053338
 20
-29.1049075312
 11
4.2912809849
 21
-29.4843322371
  0
LINE
  5
36C
100
AcDbEntity
  8
0
100
AcDbLine
 62
7
  6
CONTINUOUS
 10
-4.0514382353
 20
-35.0
 11
-4.0514382353
 21
-33.8920798588
  0
LINE
  5
36D
100
AcDbEntity
  8
0
100
AcDbLine
 62
7
  6
CONTINUOUS
 10
-4.0083332419
 20
23.525
 11
-4.0083332419
 21
22.375
  0
LINE
  5
36E
100
AcDbEntity
  8
0
100
AcDbLine
 62
7
  6
CONTINUOUS
 10
-3.8645832419
 20
22.5218085103
 11
-3.8645832419
 21
23.3781915069
  0
LINE
  5
36F
100
AcDbEntity
  8
0
100
AcDbLine
 62
7
  6
CONTINUOUS
 10
-3.743333416
 20
18.537605
 11
-3.743333416
 21
17.6801581775
  0
LINE
  5
370
100
AcDbEntity
  8
0
100
AcDbLine
 62
7
  6
CONTINUOUS
 10
-3.6994033209
 20
-28.2322307077
 11
-3.6994033209
 21
-29.4843322371
  0
LINE
  5
371
100
AcDbEntity
  8
0
100
AcDbLine
 62
7
  6
CONTINUOUS
 10
-3.6994033209
 20
-30.0657276326
 11
-3.6994033209
 21
-31.317829162
  0
LINE
  5
372
100
AcDbEntity
  8
0
100
AcDbLine
 62
7
  6
CONTINUOUS
 10
-3.6416595529
 20
-33.8920798588
 11
-3.6416595529
 21
-33.7478984706
  0
LINE
  5
373
100
AcDbEntity
  8
0
100
AcDbLine
 62
7
  6
CONTINUOUS
 10
-3.613333416
 20
17.6801581775
 11
-3.613333416
 21
18.537605
  0
LINE
  5
374
100
AcDbEntity
  8
0
100
AcDbLine
 62
7
  6
CONTINUOUS
 10
-3.5324564503
 20
-31.317829162
 11
-3.5324564503
 21
-30.0657276326
  0
LINE
  5
375
100
AcDbEntity
  8
0
100
AcDbLine
 62
7
  6
CONTINUOUS
 10
-3.5324564503
 20
-29.4843322371
 11
-3.5324564503
 21
-28.2322307077
  0
LINE
  5
376
100
AcDbEntity
  8
0
100
AcDbLine
 62
7
  6
CONTINUOUS
 10
-3.251682168
 20
-28.2322307077
 11
-3.251682168
 21
-29.4843322371
  0
LINE
  5
377
100
AcDbEntity
  8
0
100
AcDbLine
 62
7
  6
CONTINUOUS
 10
-3.19375
 20
23.1335106164
 11
-3.19375
 21
22.7664893493
  0
LINE
  5
378
100
AcDbEntity
  8
0
100
AcDbLine
 62
7
  6
CONTINUOUS
 10
-3.1144067804
 20
21.25
 11
-3.1144067804
 21
21.1276595891
  0
LINE
  5
379
100
AcDbEntity
  8
0
100
AcDbLine
 62
7
  6
CONTINUOUS
 10
-3.0847352974
 20
-29.4843322371
 11
-3.0847352974
 21
-28.4219430606
  0
LINE
  5
37A
100
AcDbEntity
  8
0
100
AcDbLine
 62
7
  6
CONTINUOUS
 10
-3.05
 20
22.7664893493
 11
-3.05
 21
23.1335106164
  0
LINE
  5
37B
100
AcDbEntity
  8
0
100
AcDbLine
 62
7
  6
CONTINUOUS
 10
-3.005418
 20
27.500052
 11
-3.0054245
 21
24.8999285
  0
LINE
  5
37C
100
AcDbEntity
  8
0
100
AcDbLine
 62
7
  6
CONTINUOUS
 10
-2.8583332419
 20
23.525
 11
-2.8583332419
 21
22.375
  0
LINE
  5
37D
100
AcDbEntity
  8
0
100
AcDbLine
 62
7
  6
CONTINUOUS
 10
-2.7145832419
 20
22.5218085103
 11
-2.7145832419
 21
22.9132978767
  0
LINE
  5
37E
100
AcDbEntity
  8
0
100
AcDbLine
 62
7
  6
CONTINUOUS
 10
-2.7145832419
 20
23.0601063699
 11
-2.7145832419
 21
23.3781915069
  0
LINE
  5
37F
100
AcDbEntity
  8
0
100
AcDbLine
 62
7
  6
CONTINUOUS
 10
-2.485405
 20
24.899935
 11
-2.4853985
 21
27.500052
  0
LINE
  5
380
100
AcDbEntity
  8
0
100
AcDbLine
 62
7
  6
CONTINUOUS
 10
-2.46241
 20
18.512395
 11
-2.46241
 21
17.237605
  0
LINE
  5
381
100
AcDbEntity
  8
0
100
AcDbLine
 62
7
  6
CONTINUOUS
 10
-2.3212615765
 20
-33.7478984706
 11
-2.3212615765
 21
-35.0
  0
LINE
  5
382
100
AcDbEntity
  8
0
100
AcDbLine
 62
7
  6
CONTINUOUS
 10
-2.2901635
 20
17.237605
 11
-2.2901635
 21
18.512395
  0
LINE
  5
383
100
AcDbEntity
  8
0
100
AcDbLine
 62
7
  6
CONTINUOUS
 10
-2.2120584739
 20
-28.4371200489
 11
-2.2120584739
 21
-29.4843322371
  0
LINE
  5
384
100
AcDbEntity
  8
0
100
AcDbLine
 62
7
  6
CONTINUOUS
 10
-2.1543147059
 20
-34.8558186118
 11
-2.1543147059
 21
-33.7478984706
  0
LINE
  5
385
100
AcDbEntity
  8
0
100
AcDbLine
 62
7
  6
CONTINUOUS
 10
-2.0916667581
 20
22.9132978767
 11
-2.0916667581
 21
23.0601063699
  0
LINE
  5
386
100
AcDbEntity
  8
0
100
AcDbLine
 62
7
  6
CONTINUOUS
 10
-2.0830540739
 20
-30.0657276326
 11
-2.0830540739
 21
-31.317829162
  0
LINE
  5
387
100
AcDbEntity
  8
0
100
AcDbLine
 62
7
  6
CONTINUOUS
 10
-2.0451116033
 20
-29.4843322371
 11
-2.0451116033
 21
-28.2322307077
  0
LINE
  5
388
100
AcDbEntity
  8
0
100
AcDbLine
 62
7
  6
CONTINUOUS
 10
-1.9958332419
 20
22.375
 11
-1.9958332419
 21
22.5218085103
  0
LINE
  5
389
100
AcDbEntity
  8
0
100
AcDbLine
 62
7
  6
CONTINUOUS
 10
-1.9958332419
 20
23.3781915069
 11
-1.9958332419
 21
23.525
  0
LINE
  5
38A
100
AcDbEntity
  8
0
100
AcDbLine
 62
7
  6
CONTINUOUS
 10
-1.9776765
 20
18.512395
 11
-1.9776765
 21
17.237605
  0
LINE
  5
38B
100
AcDbEntity
  8
0
100
AcDbLine
 62
7
  6
CONTINUOUS
 10
-1.9653985
 20
27.500052
 11
-1.9653985
 21
24.899935
  0
LINE
  5
38C
100
AcDbEntity
  8
0
100
AcDbLine
 62
7
  6
CONTINUOUS
 10
-1.9161072033
 20
-31.1736477738
 11
-1.9161072033
 21
-30.0657276326
  0
LINE
  5
38D
100
AcDbEntity
  8
0
100
AcDbLine
 62
7
  6
CONTINUOUS
 10
-1.8054775
 20
17.237605
 11
-1.8054775
 21
17.7755935
  0
LINE
  5
38E
100
AcDbEntity
  8
0
100
AcDbLine
 62
7
  6
CONTINUOUS
 10
-1.8054775
 20
17.9229405
 11
-1.8054775
 21
18.365048
  0
LINE
  5
38F
100
AcDbEntity
  8
0
100
AcDbLine
 62
7
  6
CONTINUOUS
 10
-1.5320581882
 20
-35.0
 11
-1.5320581882
 21
-34.8558186118
  0
LINE
  5
390
100
AcDbEntity
  8
0
100
AcDbLine
 62
7
  6
CONTINUOUS
 10
-1.5127118657
 20
21.1276595891
 11
-1.5127118657
 21
21.25
  0
LINE
  5
391
100
AcDbEntity
  8
0
100
AcDbLine
 62
7
  6
CONTINUOUS
 10
-1.445379
 20
24.899935
 11
-1.445379
 21
26.6145375
  0
LINE
  5
392
100
AcDbEntity
  8
0
100
AcDbLine
 62
7
  6
CONTINUOUS
 10
-1.2938506856
 20
-31.317829162
 11
-1.2938506856
 21
-31.1736477738
  0
LINE
  5
393
100
AcDbEntity
  8
0
100
AcDbLine
 62
7
  6
CONTINUOUS
 10
-1.1567797473
 20
20.7851063699
 11
-1.1567797473
 21
20.5648936301
  0
LINE
  5
394
100
AcDbEntity
  8
0
100
AcDbLine
 62
7
  6
CONTINUOUS
 10
-1.0965498386
 20
-30.0657276326
 11
-1.0965498386
 21
-31.317829162
  0
LINE
  5
395
100
AcDbEntity
  8
0
100
AcDbLine
 62
7
  6
CONTINUOUS
 10
-0.9923265297
 20
-34.4696353002
 11
-0.9923265297
 21
-35.0
  0
LINE
  5
396
100
AcDbEntity
  8
0
100
AcDbLine
 62
7
  6
CONTINUOUS
 10
-0.9343222051
 20
20.5893617123
 11
-0.9343222051
 21
20.7606382877
  0
LINE
  5
397
100
AcDbEntity
  8
0
100
AcDbLine
 62
7
  6
CONTINUOUS
 10
-0.929602968
 20
-31.1736477738
 11
-0.929602968
 21
-30.7411036091
  0
LINE
  5
398
100
AcDbEntity
  8
0
100
AcDbLine
 62
7
  6
CONTINUOUS
 10
-0.929602968
 20
-30.5969222208
 11
-0.929602968
 21
-30.2099090208
  0
LINE
  5
399
100
AcDbEntity
  8
0
100
AcDbLine
 62
7
  6
CONTINUOUS
 10
-0.9017275
 20
17.693907
 11
-0.9017275
 21
17.5412285
  0
LINE
  5
39A
100
AcDbEntity
  8
0
100
AcDbLine
 62
7
  6
CONTINUOUS
 10
-0.8253796591
 20
-35.0
 11
-0.8253796591
 21
-34.4696353002
  0
LINE
  5
39B
100
AcDbEntity
  8
0
100
AcDbLine
 62
7
  6
CONTINUOUS
 10
-0.6541664839
 20
23.525
 11
-0.6541664839
 21
22.375
  0
LINE
  5
39C
100
AcDbEntity
  8
0
100
AcDbLine
 62
7
  6
CONTINUOUS
 10
-0.6108862151
 20
-28.2322307077
 11
-0.6108862151
 21
-29.4843322371
  0
LINE
  5
39D
100
AcDbEntity
  8
0
100
AcDbLine
 62
7
  6
CONTINUOUS
 10
-0.5104164839
 20
22.375
 11
-0.5104164839
 21
23.525
  0
LINE
  5
39E
100
AcDbEntity
  8
0
100
AcDbLine
 62
7
  6
CONTINUOUS
 10
-0.4439393445
 20
-29.4843322371
 11
-0.4439393445
 21
-28.9303721665
  0
LINE
  5
39F
100
AcDbEntity
  8
0
100
AcDbLine
 62
7
  6
CONTINUOUS
 10
-0.4439393445
 20
-28.7861907783
 11
-0.4439393445
 21
-28.3764120959
  0
LINE
  5
3A0
100
AcDbEntity
  8
ASSI
100
AcDbLine
 62
7
  6
CONTINUOUS
 10
-0.433777
 20
-23.2740185043
 11
-0.433777
 21
-22.8986100045
  0
LINE
  5
3A1
100
AcDbEntity
  8
ASSI
100
AcDbLine
 62
7
  6
CONTINUOUS
 10
-0.433777
 20
-21.10139
 11
-0.433777
 21
-20.7259815
  0
LINE
  5
3A2
100
AcDbEntity
  8
0
100
AcDbLine
 62
7
  6
CONTINUOUS
 10
-0.356675
 20
18.2476105
 11
-0.356675
 21
17.676152
  0
LINE
  5
3A3
100
AcDbEntity
  8
0
100
AcDbLine
 62
7
  6
CONTINUOUS
 10
-0.356675
 20
17.5412285
 11
-0.356675
 21
17.237605
  0
LINE
  5
3A4
100
AcDbEntity
  8
0
100
AcDbLine
 62
7
  6
CONTINUOUS
 10
-0.31875
 20
23.525
 11
-0.31875
 21
22.375
  0
LINE
  5
3A5
100
AcDbEntity
  8
0
100
AcDbLine
 62
7
  6
CONTINUOUS
 10
-0.2466384974
 20
-30.7411036091
 11
-0.2466384974
 21
-30.5969222208
  0
LINE
  5
3A6
100
AcDbEntity
  8
0
100
AcDbLine
 62
7
  6
CONTINUOUS
 10
-0.2011075327
 20
-30.2099090208
 11
-0.2011075327
 21
-30.0657276326
  0
LINE
  5
3A7
100
AcDbEntity
  8
0
100
AcDbLine
 62
7
  6
CONTINUOUS
 10
-0.2004315
 20
17.237605
 11
-0.2004315
 21
17.5412285
  0
LINE
  5
3A8
100
AcDbEntity
  8
0
100
AcDbLine
 62
7
  6
CONTINUOUS
 10
-0.2004315
 20
17.676152
 11
-0.2004315
 21
18.512395
  0
LINE
  5
3A9
100
AcDbEntity
  8
0
100
AcDbLine
 62
7
  6
CONTINUOUS
 10
-0.175
 20
22.375
 11
-0.175
 21
23.3781915069
  0
LINE
  5
3AA
100
AcDbEntity
  8
0
100
AcDbLine
 62
7
  6
CONTINUOUS
 10
-0.1707535562
 20
-31.317829162
 11
-0.1707535562
 21
-31.1736477738
  0
LINE
  5
3AB
100
AcDbEntity
  8
0
100
AcDbLine
 62
7
  6
CONTINUOUS
 10
-0.017532
 20
17.5412285
 11
-0.017532
 21
17.676152
  0
LINE
  5
3AC
100
AcDbEntity
  8
0
100
AcDbLine
 62
7
  6
CONTINUOUS
 10
0.0579215
 20
26.6145375
 11
0.057928
 21
24.899935
  0
LINE
  5
3AD
100
AcDbEntity
  8
0
100
AcDbLine
 62
7
  6
CONTINUOUS
 10
0.2224576252
 20
20.7606382877
 11
0.2224576252
 21
20.5893617123
  0
LINE
  5
3AE
100
AcDbEntity
  8
0
100
AcDbLine
 62
7
  6
CONTINUOUS
 10
0.3878308235
 20
-31.8916360634
 11
0.3878308235
 21
-33.1437375928
  0
LINE
  5
3AF
100
AcDbEntity
  8
0
100
AcDbLine
 62
7
  6
CONTINUOUS
 10
0.444915422
 20
20.5648936301
 11
0.444915422
 21
20.7851063699
  0
LINE
  5
3B0
100
AcDbEntity
  8
0
100
AcDbLine
 62
7
  6
CONTINUOUS
 10
0.4958335161
 20
23.525
 11
0.4958335161
 21
22.5462765925
  0
LINE
  5
3B1
100
AcDbEntity
  8
0
100
AcDbLine
 62
7
  6
CONTINUOUS
 10
0.5547776941
 20
-33.1437375928
 11
0.5547776941
 21
-32.0813484163
  0
LINE
  5
3B2
100
AcDbEntity
  8
0
100
AcDbLine
 62
7
  6
CONTINUOUS
 10
0.5779475
 20
24.899935
 11
0.5779475
 21
27.500052
  0
LINE
  5
3B3
100
AcDbEntity
  8
0
100
AcDbLine
 62
7
  6
CONTINUOUS
 10
-4.6773703701
 20
-32.4152421575
 11
-4.6949187989
 21
-32.5518350516
  0
LINE
  5
3B4
100
AcDbEntity
  8
0
100
AcDbLine
 62
7
  6
CONTINUOUS
 10
3.692796607
 20
20.931914863
 11
3.6483047422
 21
20.7606382877
  0
LINE
  5
3B5
100
AcDbEntity
  8
0
100
AcDbLine
 62
7
  6
CONTINUOUS
 10
3.0699150816
 20
20.5893617123
 11
3.0254237259
 21
20.4425531849
  0
LINE
  5
3B6
100
AcDbEntity
  8
0
100
AcDbLine
 62
7
  6
CONTINUOUS
 10
3.8707630481
 20
20.7606382877
 11
3.9152538946
 21
20.9074467808
  0
LINE
  5
3B7
100
AcDbEntity
  8
0
100
AcDbLine
 62
7
  6
CONTINUOUS
 10
3.6822920322
 20
22.7664893493
 11
3.8979170322
 21
23.4271276712
  0
LINE
  5
3B8
100
AcDbEntity
  8
0
100
AcDbLine
 62
7
  6
CONTINUOUS
 10
3.5625
 20
22.375
 11
3.6583329678
 21
22.6686170205
  0
LINE
  5
3B9
100
AcDbEntity
  8
0
100
AcDbLine
 62
7
  6
CONTINUOUS
 10
3.8020829678
 20
23.525
 11
3.41875
 21
22.375
  0
LINE
  5
3BA
100
AcDbEntity
  8
0
100
AcDbLine
 62
7
  6
CONTINUOUS
 10
3.2478815227
 20
20.4425531849
 11
3.2923728784
 21
20.5648936301
  0
LINE
  5
3BB
100
AcDbEntity
  8
0
100
AcDbLine
 62
7
  6
CONTINUOUS
 10
10.627673689
 20
-33.1437375928
 11
10.126121645
 21
-31.8916360634
  0
LINE
  5
3BC
100
AcDbEntity
  8
0
100
AcDbLine
 62
7
  6
CONTINUOUS
 10
10.1252916408
 20
-32.2836291728
 11
10.2601060703
 21
-32.6277199928
  0
LINE
  5
3BD
100
AcDbEntity
  8
0
100
AcDbLine
 62
7
  6
CONTINUOUS
 10
11.1377628033
 20
-31.8916360634
 11
11.6191578337
 21
-33.1437375928
  0
LINE
  5
3BE
100
AcDbEntity
  8
0
100
AcDbLine
 62
7
  6
CONTINUOUS
 10
7.6347241338
 20
-30.9384044561
 11
7.7743997849
 21
-31.317829162
  0
LINE
  5
3BF
100
AcDbEntity
  8
0
100
AcDbLine
 62
7
  6
CONTINUOUS
 10
10.3104983724
 20
-32.7643128869
 11
10.4501740235
 21
-33.1437375928
  0
LINE
  5
3C0
100
AcDbEntity
  8
0
100
AcDbLine
 62
7
  6
CONTINUOUS
 10
11.6403819955
 20
-32.7989353406
 11
11.3152623529
 21
-31.8916360634
  0
LINE
  5
3C1
100
AcDbEntity
  8
0
100
AcDbLine
 62
7
  6
CONTINUOUS
 10
-5.325
 20
17.6248390351
 11
-5.303333354
 21
17.5418603216
  0
LINE
  5
3C2
100
AcDbEntity
  8
0
100
AcDbLine
 62
7
  6
CONTINUOUS
 10
-4.588333292
 20
18.1503709261
 11
-4.61
 21
18.2333497171
  0
LINE
  5
3C3
100
AcDbEntity
  8
0
100
AcDbLine
 62
7
  6
CONTINUOUS
 10
-5.52
 20
18.2333497171
 11
-5.541666646
 21
18.3439880018
  0
LINE
  5
3C4
100
AcDbEntity
  8
0
100
AcDbLine
 62
7
  6
CONTINUOUS
 10
-4.241666708
 20
17.5695198928
 11
-4.263333292
 21
17.6801581775
  0
LINE
  5
3C5
100
AcDbEntity
  8
0
100
AcDbLine
 62
7
  6
CONTINUOUS
 10
-5.346666646
 20
17.7631369297
 11
-5.325
 21
17.6248390351
  0
LINE
  5
3C6
100
AcDbEntity
  8
0
100
AcDbLine
 62
7
  6
CONTINUOUS
 10
-4.566666708
 20
18.0120730703
 11
-4.588333292
 21
18.1503709261
  0
LINE
  5
3C7
100
AcDbEntity
  8
0
100
AcDbLine
 62
7
  6
CONTINUOUS
 10
-4.393333292
 20
17.6801581775
 11
-4.371666708
 21
17.5418603216
  0
LINE
  5
3C8
100
AcDbEntity
  8
0
100
AcDbLine
 62
7
  6
CONTINUOUS
 10
-5.216666708
 20
17.6248390351
 11
-5.238333292
 21
17.7907965009
  0
LINE
  5
3C9
100
AcDbEntity
  8
0
100
AcDbLine
 62
7
  6
CONTINUOUS
 10
-4.696666708
 20
18.1503709261
 11
-4.675
 21
17.9844134991
  0
LINE
  5
3CA
100
AcDbEntity
  8
0
100
AcDbLine
 62
7
  6
CONTINUOUS
 10
0.6395835161
 20
22.375
 11
0.6395835161
 21
23.525
  0
LINE
  5
3CB
100
AcDbEntity
  8
0
100
AcDbLine
 62
7
  6
CONTINUOUS
 10
0.8008472858
 20
21.0787234247
 11
0.8008472858
 21
20.8829786986
  0
LINE
  5
3CC
100
AcDbEntity
  8
0
100
AcDbLine
 62
7
  6
CONTINUOUS
 10
1.0677964382
 20
21.0542553425
 11
1.0677964382
 21
20.1
  0
LINE
  5
3CD
100
AcDbEntity
  8
0
100
AcDbLine
 62
7
  6
CONTINUOUS
 10
1.3347455907
 20
20.1
 11
1.3347455907
 21
21.25
  0
LINE
  5
3CE
100
AcDbEntity
  8
0
100
AcDbLine
 62
7
  6
CONTINUOUS
 10
1.4274545176
 20
-32.0965254045
 11
1.4274545176
 21
-33.1437375928
  0
LINE
  5
3CF
100
AcDbEntity
  8
ASSI
100
AcDbLine
 62
7
  6
CONTINUOUS
 10
1.558778
 20
-22.1875
 11
1.558778
 21
-21.8125
  0
LINE
  5
3D0
100
AcDbEntity
  8
0
100
AcDbLine
 62
7
  6
CONTINUOUS
 10
1.5944013882
 20
-33.1437375928
 11
1.5944013882
 21
-31.8916360634
  0
LINE
  5
3D1
100
AcDbEntity
  8
0
100
AcDbLine
 62
7
  6
CONTINUOUS
 10
1.6906779637
 20
20.7851063699
 11
1.6906779637
 21
20.5648936301
  0
LINE
  5
3D2
100
AcDbEntity
  8
0
100
AcDbLine
 62
7
  6
CONTINUOUS
 10
1.7263699732
 20
-30.0657276326
 11
1.7263699732
 21
-31.317829162
  0
LINE
  5
3D3
100
AcDbEntity
  8
ASSI
100
AcDbLine
 62
7
  6
CONTINUOUS
 10
1.758778
 20
-23.274018563
 11
1.758778
 21
-22.8986083532
  0
LINE
  5
3D4
100
AcDbEntity
  8
ASSI
100
AcDbLine
 62
7
  6
CONTINUOUS
 10
1.758778
 20
-21.10139
 11
1.758778
 21
-20.725981551
  0
LINE
  5
3D5
100
AcDbEntity
  8
0
100
AcDbLine
 62
7
  6
CONTINUOUS
 10
1.8933168438
 20
-31.317829162
 11
1.8933168438
 21
-30.0657276326
  0
LINE
  5
3D6
100
AcDbEntity
  8
0
100
AcDbLine
 62
7
  6
CONTINUOUS
 10
1.9131357604
 20
20.5893617123
 11
1.9131357604
 21
20.7606382877
  0
LINE
  5
3D7
100
AcDbEntity
  8
0
100
AcDbLine
 62
7
  6
CONTINUOUS
 10
1.98125
 20
23.525
 11
1.98125
 21
22.375
  0
LINE
  5
3D8
100
AcDbEntity
  8
0
100
AcDbLine
 62
7
  6
CONTINUOUS
 10
2.125
 20
22.375
 11
2.125
 21
23.525
  0
LINE
  5
3D9
100
AcDbEntity
  8
0
100
AcDbLine
 62
7
  6
CONTINUOUS
 10
2.295507032
 20
-28.2322307077
 11
2.295507032
 21
-29.4843322371
  0
LINE
  5
3DA
100
AcDbEntity
  8
0
100
AcDbLine
 62
7
  6
CONTINUOUS
 10
2.3166664839
 20
23.525
 11
2.3166664839
 21
23.4026595891
  0
LINE
  5
3DB
100
AcDbEntity
  8
0
100
AcDbLine
 62
7
  6
CONTINUOUS
 10
2.4624539026
 20
-29.4843322371
 11
2.4624539026
 21
-28.9683146371
  0
LINE
  5
3DC
100
AcDbEntity
  8
0
100
AcDbLine
 62
7
  6
CONTINUOUS
 10
2.4624539026
 20
-28.8241332489
 11
2.4624539026
 21
-28.3764120959
  0
LINE
  5
3DD
100
AcDbEntity
  8
0
100
AcDbLine
 62
7
  6
CONTINUOUS
 10
2.7
 20
23.4026595891
 11
2.7
 21
22.375
  0
LINE
  5
3DE
100
AcDbEntity
  8
0
100
AcDbLine
 62
7
  6
CONTINUOUS
 10
2.84375
 20
22.375
 11
2.84375
 21
23.4026595891
  0
LINE
  5
3DF
100
AcDbEntity
  8
ASSI
100
AcDbLine
 62
7
  6
CONTINUOUS
 10
2.8661195
 20
16.65331
 11
2.8661195
 21
16.3814855
  0
LINE
  5
3E0
100
AcDbEntity
  8
ASSI
100
AcDbLine
 62
7
  6
CONTINUOUS
 10
2.8749965
 20
18.8578065
 11
2.8749965
 21
18.584487
  0
LINE
  5
3E1
100
AcDbEntity
  8
0
100
AcDbLine
 62
7
  6
CONTINUOUS
 10
3.0286267765
 20
-31.8916360634
 11
3.0286267765
 21
-33.1437375928
  0
LINE
  5
3E2
100
AcDbEntity
  8
0
100
AcDbLine
 62
7
  6
CONTINUOUS
 10
3.0699150816
 20
20.7606382877
 11
3.0699150816
 21
20.5893617123
  0
LINE
  5
3E3
100
AcDbEntity
  8
ASSI
100
AcDbLine
 62
7
  6
CONTINUOUS
 10
3.1070145
 20
18.584487
 11
3.1070145
 21
17.8914235
  0
LINE
  5
3E4
100
AcDbEntity
  8
ASSI
100
AcDbLine
 62
7
  6
CONTINUOUS
 10
3.1070145
 20
17.554563
 11
3.1070145
 21
16.65331
  0
LINE
  5
3E5
100
AcDbEntity
  8
0
100
AcDbLine
 62
7
  6
CONTINUOUS
 10
3.195573647
 20
-33.1437375928
 11
3.195573647
 21
-32.5897775222
  0
LINE
  5
3E6
100
AcDbEntity
  8
0
100
AcDbLine
 62
7
  6
CONTINUOUS
 10
3.195573647
 20
-32.4455961339
 11
3.195573647
 21
-32.0358174516
  0
LINE
  5
3E7
100
AcDbEntity
  8
0
100
AcDbLine
 62
7
  6
CONTINUOUS
 10
3.2270829678
 20
23.4026595891
 11
3.2270829678
 21
23.525
  0
LINE
  5
3E8
100
AcDbEntity
  8
0
100
AcDbLine
 62
7
  6
CONTINUOUS
 10
3.2923728784
 20
20.5648936301
 11
3.2923728784
 21
20.7851063699
  0
LINE
  5
3E9
100
AcDbEntity
  8
ASSI
100
AcDbLine
 62
7
  6
CONTINUOUS
 10
3.396593
 20
16.65331
 11
3.396593
 21
17.557603
  0
LINE
  5
3EA
100
AcDbEntity
  8
ASSI
100
AcDbLine
 62
7
  6
CONTINUOUS
 10
3.396593
 20
17.8914235
 11
3.396593
 21
18.584487
  0
LINE
  5
3EB
100
AcDbEntity
  8
0
100
AcDbLine
 62
7
  6
CONTINUOUS
 10
3.456546632
 20
-30.0657276326
 11
3.456546632
 21
-31.317829162
  0
LINE
  5
3EC
100
AcDbEntity
  8
0
100
AcDbLine
 62
7
  6
CONTINUOUS
 10
3.460964
 20
27.5000585
 11
3.460964
 21
24.8999415
  0
LINE
  5
3ED
100
AcDbEntity
  8
0
100
AcDbLine
 62
7
  6
CONTINUOUS
 10
3.6234935026
 20
-31.1736477738
 11
3.6234935026
 21
-30.7411036091
  0
LINE
  5
3EE
100
AcDbEntity
  8
0
100
AcDbLine
 62
7
  6
CONTINUOUS
 10
3.6234935026
 20
-30.5969222208
 11
3.6234935026
 21
-30.2099090208
  0
LINE
  5
3EF
100
AcDbEntity
  8
ASSI
100
AcDbLine
 62
7
  6
CONTINUOUS
 10
3.628517
 20
18.584487
 11
3.628517
 21
18.8578065
  0
LINE
  5
3F0
100
AcDbEntity
  8
ASSI
100
AcDbLine
 62
7
  6
CONTINUOUS
 10
3.637394
 20
16.3814855
 11
3.637394
 21
16.65331
  0
LINE
  5
3F1
100
AcDbEntity
  8
0
100
AcDbLine
 62
7
  6
CONTINUOUS
 10
3.6483047422
 20
20.7606382877
 11
3.6483047422
 21
20.5893617123
  0
LINE
  5
3F2
100
AcDbEntity
  8
0
100
AcDbLine
 62
7
  6
CONTINUOUS
 10
3.8707630481
 20
20.7117021233
 11
3.8707630481
 21
20.7606382877
  0
LINE
  5
3F3
100
AcDbEntity
  8
0
100
AcDbLine
 62
7
  6
CONTINUOUS
 10
3.9152538946
 20
20.4425531849
 11
3.9152538946
 21
20.5159574315
  0
LINE
  5
3F4
100
AcDbEntity
  8
0
100
AcDbLine
 62
7
  6
CONTINUOUS
 10
3.9738205
 20
26.386316
 11
3.973814
 21
27.019039
  0
LINE
  5
3F5
100
AcDbEntity
  8
0
100
AcDbLine
 62
7
  6
CONTINUOUS
 10
4.3064579732
 20
-30.7411036091
 11
4.3064579732
 21
-30.5969222208
  0
LINE
  5
3F6
100
AcDbEntity
  8
0
100
AcDbLine
 62
7
  6
CONTINUOUS
 10
4.3519889379
 20
-30.2099090208
 11
4.3519889379
 21
-30.0657276326
  0
LINE
  5
3F7
100
AcDbEntity
  8
0
100
AcDbLine
 62
7
  6
CONTINUOUS
 10
4.3823429143
 20
-31.317829162
 11
4.3823429143
 21
-31.1736477738
  0
LINE
  5
3F8
100
AcDbEntity
  8
0
100
AcDbLine
 62
7
  6
CONTINUOUS
 10
4.56875
 20
23.525
 11
4.56875
 21
22.375
  0
LINE
  5
3F9
100
AcDbEntity
  8
0
100
AcDbLine
 62
7
  6
CONTINUOUS
 10
4.617586232
 20
-30.0657276326
 11
4.617586232
 21
-31.317829162
  0
LINE
  5
3FA
100
AcDbEntity
  8
0
100
AcDbLine
 62
7
  6
CONTINUOUS
 10
4.7125
 20
22.5218085103
 11
4.7125
 21
23.525
  0
LINE
  5
3FB
100
AcDbEntity
  8
0
100
AcDbLine
 62
7
  6
CONTINUOUS
 10
4.7845331026
 20
-31.317829162
 11
4.7845331026
 21
-30.3575288821
  0
LINE
  5
3FC
100
AcDbEntity
  8
0
100
AcDbLine
 62
7
  6
CONTINUOUS
 10
5.0275423693
 20
20.5159574315
 11
5.0275423693
 21
20.4425531849
  0
LINE
  5
3FD
100
AcDbEntity
  8
0
100
AcDbLine
 62
7
  6
CONTINUOUS
 10
5.2499996569
 20
20.4180851027
 11
5.2499996569
 21
20.540425548
  0
LINE
  5
3FE
100
AcDbEntity
  8
0
100
AcDbLine
 62
7
  6
CONTINUOUS
 10
3.98099
 20
24.8999415
 11
3.9810485
 21
25.9052965
  0
LINE
  5
3FF
100
AcDbEntity
  8
0
100
AcDbLine
 62
7
  6
CONTINUOUS
 10
-0.7920613818
 20
-32.4152421575
 11
-0.8096098107
 21
-32.5518350516
  0
LINE
  5
400
100
AcDbEntity
  8
0
100
AcDbLine
 62
7
  6
CONTINUOUS
 10
-5.693333354
 20
18.3163284306
 11
-5.65
 21
18.2333497171
  0
LINE
  5
401
100
AcDbEntity
  8
0
100
AcDbLine
 62
7
  6
CONTINUOUS
 10
-5.13
 20
17.4588815887
 11
-5.216666708
 21
17.6248390351
  0
LINE
  5
402
100
AcDbEntity
  8
0
100
AcDbLine
 62
7
  6
CONTINUOUS
 10
-4.783333292
 20
18.3163284306
 11
-4.696666708
 21
18.1503709261
  0
LINE
  5
403
100
AcDbEntity
  8
0
100
AcDbLine
 62
7
  6
CONTINUOUS
 10
-4.198333416
 20
17.4865411793
 11
-4.241666708
 21
17.5695198928
  0
LINE
  5
404
100
AcDbEntity
  8
0
100
AcDbLine
 62
7
  6
CONTINUOUS
 10
-5.303333354
 20
17.5418603216
 11
-5.26
 21
17.4312220176
  0
LINE
  5
405
100
AcDbEntity
  8
0
100
AcDbLine
 62
7
  6
CONTINUOUS
 10
-4.371666708
 20
17.5418603216
 11
-4.328333292
 21
17.4312220176
  0
LINE
  5
406
100
AcDbEntity
  8
0
100
AcDbLine
 62
7
  6
CONTINUOUS
 10
-4.61
 20
18.2333497171
 11
-4.653333292
 21
18.3439880018
  0
LINE
  5
407
100
AcDbEntity
  8
0
100
AcDbLine
 62
7
  6
CONTINUOUS
 10
-6.35625
 20
23.2803191781
 11
-6.0208333448
 21
22.375
  0
LINE
  5
408
100
AcDbEntity
  8
0
100
AcDbLine
 62
7
  6
CONTINUOUS
 10
-5.925
 20
22.4973404281
 11
-6.284375
 21
23.525
  0
LINE
  5
409
100
AcDbEntity
  8
0
100
AcDbLine
 62
7
  6
CONTINUOUS
 10
-4.2
 20
22.375
 11
-4.583333379
 21
23.525
  0
LINE
  5
40A
100
AcDbEntity
  8
0
100
AcDbLine
 62
7
  6
CONTINUOUS
 10
-4.439583379
 20
22.6686170205
 11
-4.34375
 21
22.375
  0
LINE
  5
40B
100
AcDbEntity
  8
0
100
AcDbLine
 62
7
  6
CONTINUOUS
 10
-4.679166621
 20
23.4271276712
 11
-4.463541621
 21
22.7664893493
  0
LINE
  5
40C
100
AcDbEntity
  8
0
100
AcDbLine
 62
7
  6
CONTINUOUS
 10
-5.541757
 20
27.500052
 11
-4.706949
 21
24.8999285
  0
LINE
  5
40D
100
AcDbEntity
  8
0
100
AcDbLine
 62
7
  6
CONTINUOUS
 10
-4.446923
 20
25.709731
 11
-5.021731
 21
27.500052
  0
LINE
  5
40E
100
AcDbEntity
  8
0
100
AcDbLine
 62
7
  6
CONTINUOUS
 10
-0.8898303403
 20
20.4425531849
 11
-0.9343222051
 21
20.5893617123
  0
LINE
  5
40F
100
AcDbEntity
  8
0
100
AcDbLine
 62
7
  6
CONTINUOUS
 10
-3.2177082419
 20
23.2313829452
 11
-3.19375
 21
23.1335106164
  0
LINE
  5
410
100
AcDbEntity
  8
0
100
AcDbLine
 62
7
  6
CONTINUOUS
 10
-3.05
 20
23.1335106164
 11
-3.0739582419
 21
23.2558510959
  0
LINE
  5
411
100
AcDbEntity
  8
0
100
AcDbLine
 62
7
  6
CONTINUOUS
 10
5.4219666085
 20
-30.0657276326
 11
5.4219666085
 21
-31.0260277967
  0
LINE
  5
412
100
AcDbEntity
  8
0
100
AcDbLine
 62
7
  6
CONTINUOUS
 10
5.43125
 20
22.375
 11
5.43125
 21
22.5218085103
  0
LINE
  5
413
100
AcDbEntity
  8
0
100
AcDbLine
 62
7
  6
CONTINUOUS
 10
5.5889134791
 20
-31.317829162
 11
5.5889134791
 21
-30.0657276326
  0
LINE
  5
414
100
AcDbEntity
  8
0
100
AcDbLine
 62
7
  6
CONTINUOUS
 10
5.7634488438
 20
-31.1676006002
 11
5.7634488438
 21
-31.317829162
  0
LINE
  5
415
100
AcDbEntity
  8
0
100
AcDbLine
 62
7
  6
CONTINUOUS
 10
5.8393337849
 20
-30.0657276326
 11
5.8393337849
 21
-30.2099090208
  0
LINE
  5
416
100
AcDbEntity
  8
0
100
AcDbLine
 62
7
  6
CONTINUOUS
 10
6.00625
 20
22.9622340411
 11
6.00625
 21
22.375
  0
LINE
  5
417
100
AcDbEntity
  8
0
100
AcDbLine
 62
7
  6
CONTINUOUS
 10
6.15
 20
22.375
 11
6.15
 21
22.9622340411
  0
LINE
  5
418
100
AcDbEntity
  8
0
100
AcDbLine
 62
7
  6
CONTINUOUS
 10
6.7090464235
 20
-31.8916360634
 11
6.7090464235
 21
-32.0358174516
  0
LINE
  5
419
100
AcDbEntity
  8
0
100
AcDbLine
 62
7
  6
CONTINUOUS
 10
6.7271875967
 20
-30.2099090208
 11
6.7271875967
 21
-30.0657276326
  0
LINE
  5
41A
100
AcDbEntity
  8
0
100
AcDbLine
 62
7
  6
CONTINUOUS
 10
6.75
 20
14.875
 11
6.75
 21
28.375
  0
LINE
  5
41B
100
AcDbEntity
  8
0
100
AcDbLine
 62
7
  6
CONTINUOUS
 10
6.7575415732
 20
-31.317829162
 11
6.7575415732
 21
-31.1736477738
  0
LINE
  5
41C
100
AcDbEntity
  8
0
100
AcDbLine
 62
7
  6
CONTINUOUS
 10
7.1188251059
 20
-32.0358174516
 11
7.1188251059
 21
-33.1437375928
  0
LINE
  5
41D
100
AcDbEntity
  8
0
100
AcDbLine
 62
7
  6
CONTINUOUS
 10
7.2857719764
 20
-33.1437375928
 11
7.2857719764
 21
-32.0358174516
  0
LINE
  5
41E
100
AcDbEntity
  8
0
100
AcDbLine
 62
7
  6
CONTINUOUS
 10
7.6955506588
 20
-32.0358174516
 11
7.6955506588
 21
-31.8916360634
  0
LINE
  5
41F
100
AcDbEntity
  8
0
100
AcDbLine
 62
7
  6
CONTINUOUS
 10
7.8852630117
 20
-31.8916360634
 11
7.8852630117
 21
-33.1437375928
  0
LINE
  5
420
100
AcDbEntity
  8
0
100
AcDbLine
 62
7
  6
CONTINUOUS
 10
8.0522098823
 20
-33.1437375928
 11
8.0522098823
 21
-31.8916360634
  0
LINE
  5
421
100
AcDbEntity
  8
0
100
AcDbLine
 62
7
  6
CONTINUOUS
 10
8.6318996202
 20
-30.3730615865
 11
8.6318996202
 21
-30.5219857401
  0
LINE
  5
422
100
AcDbEntity
  8
0
100
AcDbLine
 62
7
  6
CONTINUOUS
 10
8.943027879
 20
-30.3363048362
 11
8.943027879
 21
-31.317829162
  0
LINE
  5
423
100
AcDbEntity
  8
0
100
AcDbLine
 62
7
  6
CONTINUOUS
 10
9.0947977614
 20
-31.317829162
 11
9.0947977614
 21
-30.0581391385
  0
LINE
  5
424
100
AcDbEntity
  8
0
100
AcDbLine
 62
7
  6
CONTINUOUS
 10
9.4362799967
 20
-30.8776965032
 11
9.4362799967
 21
-31.0218778914
  0
LINE
  5
425
100
AcDbEntity
  8
0
100
AcDbLine
 62
7
  6
CONTINUOUS
 10
9.9902400673
 20
-30.3189935514
 11
9.9902400673
 21
-30.8776965032
  0
LINE
  5
426
100
AcDbEntity
  8
0
100
AcDbLine
 62
7
  6
CONTINUOUS
 10
9.9902400673
 20
-31.0218778914
 11
9.9902400673
 21
-31.317829162
  0
LINE
  5
427
100
AcDbEntity
  8
0
100
AcDbLine
 62
7
  6
CONTINUOUS
 10
-3.1985627092
 20
-31.317829162
 11
-3.0665940084
 21
-30.9384044561
  0
LINE
  5
428
100
AcDbEntity
  8
0
100
AcDbLine
 62
7
  6
CONTINUOUS
 10
-1.7415718386
 20
-29.4843322371
 11
-1.6096031378
 21
-29.1049075312
  0
LINE
  5
429
100
AcDbEntity
  8
0
100
AcDbLine
 62
7
  6
CONTINUOUS
 10
-3.4367702118
 20
-35.0
 11
-3.304801511
 21
-34.6205752941
  0
LINE
  5
42A
100
AcDbEntity
  8
0
100
AcDbLine
 62
7
  6
CONTINUOUS
 10
-2.5816418171
 20
-29.4843322371
 11
-2.2120584739
 21
-28.4371200489
  0
LINE
  5
42B
100
AcDbEntity
  8
0
100
AcDbLine
 62
7
  6
CONTINUOUS
 10
-2.262332204
 20
-28.2322307077
 11
-2.5720375984
 21
-29.1014689424
  0
LINE
  5
42C
100
AcDbEntity
  8
0
100
AcDbLine
 62
7
  6
CONTINUOUS
 10
-3.0190473192
 20
-30.801811562
 11
-2.8837587174
 21
-30.436259552
  0
LINE
  5
42D
100
AcDbEntity
  8
0
100
AcDbLine
 62
7
  6
CONTINUOUS
 10
-1.5620564486
 20
-28.9683146371
 11
-1.4267678468
 21
-28.6027626271
  0
LINE
  5
42E
100
AcDbEntity
  8
0
100
AcDbLine
 62
7
  6
CONTINUOUS
 10
-3.2572548218
 20
-34.4839824
 11
-3.12196622
 21
-34.11843039
  0
LINE
  5
42F
100
AcDbEntity
  8
0
100
AcDbLine
 62
7
  6
CONTINUOUS
 10
-4.0181200739
 20
-28.2322307077
 11
-4.3629222102
 21
-29.139529985
  0
LINE
  5
430
100
AcDbEntity
  8
0
100
AcDbLine
 62
7
  6
CONTINUOUS
 10
-4.0181200739
 20
-30.0657276326
 11
-4.3629222102
 21
-30.9730269099
  0
LINE
  5
431
100
AcDbEntity
  8
0
100
AcDbLine
 62
7
  6
CONTINUOUS
 10
-2.8988171336
 20
-30.0657276326
 11
-3.3747579665
 21
-31.317829162
  0
LINE
  5
432
100
AcDbEntity
  8
0
100
AcDbLine
 62
7
  6
CONTINUOUS
 10
-1.441826263
 20
-28.2322307077
 11
-1.9177670959
 21
-29.4843322371
  0
LINE
  5
433
100
AcDbEntity
  8
0
100
AcDbLine
 62
7
  6
CONTINUOUS
 10
-3.1370246362
 20
-33.7478984706
 11
-3.6129654691
 21
-35.0
  0
LINE
  5
434
100
AcDbEntity
  8
0
100
AcDbLine
 62
7
  6
CONTINUOUS
 10
-4.3389710076
 20
-29.4843322371
 11
-3.8395532602
 21
-28.2322307077
  0
LINE
  5
435
100
AcDbEntity
  8
0
100
AcDbLine
 62
7
  6
CONTINUOUS
 10
-4.3389710076
 20
-31.317829162
 11
-3.8395532602
 21
-30.0657276326
  0
LINE
  5
436
100
AcDbEntity
  8
0
100
AcDbLine
 62
7
  6
CONTINUOUS
 10
-5.065
 20
17.4035624464
 11
-5.13
 21
17.4588815887
  0
LINE
  5
437
100
AcDbEntity
  8
0
100
AcDbLine
 62
7
  6
CONTINUOUS
 10
-5.26
 20
17.4312220176
 11
-5.195
 21
17.3482432944
  0
LINE
  5
438
100
AcDbEntity
  8
0
100
AcDbLine
 62
7
  6
CONTINUOUS
 10
-5.541666646
 20
18.3439880018
 11
-5.628333354
 21
18.4546262865
  0
LINE
  5
439
100
AcDbEntity
  8
0
100
AcDbLine
 62
7
  6
CONTINUOUS
 10
-4.328333292
 20
17.4312220176
 11
-4.241666708
 21
17.3205837232
  0
LINE
  5
43A
100
AcDbEntity
  8
0
100
AcDbLine
 62
7
  6
CONTINUOUS
 10
-4.653333292
 20
18.3439880018
 11
-4.718333292
 21
18.4269667153
  0
LINE
  5
43B
100
AcDbEntity
  8
0
100
AcDbLine
 62
7
  6
CONTINUOUS
 10
-3.265625
 20
23.3047872603
 11
-3.2177082419
 21
23.2313829452
  0
LINE
  5
43C
100
AcDbEntity
  8
0
100
AcDbLine
 62
7
  6
CONTINUOUS
 10
-4.3601695131
 20
20.2468085103
 11
-4.9830508476
 21
21.25
  0
LINE
  5
43D
100
AcDbEntity
  8
0
100
AcDbLine
 62
7
  6
CONTINUOUS
 10
-5.25
 20
21.25
 11
-4.5381355723
 21
20.1
  0
LINE
  5
43E
100
AcDbEntity
  8
0
100
AcDbLine
 62
7
  6
CONTINUOUS
 10
-1.112288137
 20
20.4425531849
 11
-1.0677965268
 21
20.3691489384
  0
LINE
  5
43F
100
AcDbEntity
  8
0
100
AcDbLine
 62
7
  6
CONTINUOUS
 10
-3.0739582419
 20
23.2558510959
 11
-3.121875
 21
23.3537234247
  0
LINE
  5
440
100
AcDbEntity
  8
0
100
AcDbLine
 62
7
  6
CONTINUOUS
 10
-1.1567797473
 20
20.5648936301
 11
-1.112288137
 21
20.4425531849
  0
LINE
  5
441
100
AcDbEntity
  8
0
100
AcDbLine
 62
7
  6
CONTINUOUS
 10
0.444915422
 20
20.7851063699
 11
0.4004235571
 21
20.9074467808
  0
LINE
  5
442
100
AcDbEntity
  8
0
100
AcDbLine
 62
7
  6
CONTINUOUS
 10
1.6906779637
 20
20.5648936301
 11
1.7351693193
 21
20.4425531849
  0
LINE
  5
443
100
AcDbEntity
  8
0
100
AcDbLine
 62
7
  6
CONTINUOUS
 10
2.4300965
 20
25.4112705
 11
2.5942605
 21
24.8999415
  0
LINE
  5
444
100
AcDbEntity
  8
0
100
AcDbLine
 62
7
  6
CONTINUOUS
 10
2.019446
 20
26.690256
 11
2.2714705
 21
25.90529
  0
LINE
  5
445
100
AcDbEntity
  8
0
100
AcDbLine
 62
7
  6
CONTINUOUS
 10
0.1779662695
 20
20.9074467808
 11
0.2224576252
 21
20.7606382877
  0
LINE
  5
446
100
AcDbEntity
  8
0
100
AcDbLine
 62
7
  6
CONTINUOUS
 10
1.9576271161
 20
20.4425531849
 11
1.9131357604
 21
20.5893617123
  0
LINE
  5
447
100
AcDbEntity
  8
0
100
AcDbLine
 62
7
  6
CONTINUOUS
 10
3.0254237259
 20
20.9074467808
 11
3.0699150816
 21
20.7606382877
  0
LINE
  5
448
100
AcDbEntity
  8
0
100
AcDbLine
 62
7
  6
CONTINUOUS
 10
-1.445379
 20
26.6145375
 11
-0.953732
 21
24.899935
  0
LINE
  5
449
100
AcDbEntity
  8
0
100
AcDbLine
 62
7
  6
CONTINUOUS
 10
-0.6937255
 20
25.806763
 11
-1.179269
 21
27.500052
  0
LINE
  5
44A
100
AcDbEntity
  8
0
100
AcDbLine
 62
7
  6
CONTINUOUS
 10
3.6483047422
 20
20.5893617123
 11
3.692796607
 21
20.4180851027
  0
LINE
  5
44B
100
AcDbEntity
  8
0
100
AcDbLine
 62
7
  6
CONTINUOUS
 10
10.1420099496
 20
-31.317829162
 11
10.1420099496
 21
-31.0218778914
  0
LINE
  5
44C
100
AcDbEntity
  8
0
100
AcDbLine
 62
7
  6
CONTINUOUS
 10
10.1420099496
 20
-30.8776965032
 11
10.1420099496
 21
-30.0657276326
  0
LINE
  5
44D
100
AcDbEntity
  8
0
100
AcDbLine
 62
7
  6
CONTINUOUS
 10
10.3089568202
 20
-31.0218778914
 11
10.3089568202
 21
-30.8776965032
  0
LINE
  5
44E
100
AcDbEntity
  8
0
100
AcDbLine
 62
7
  6
CONTINUOUS
 10
12.4383594823
 20
-31.8916360634
 11
12.4383594823
 21
-33.1437375928
  0
LINE
  5
44F
100
AcDbEntity
  8
0
100
AcDbLine
 62
7
  6
CONTINUOUS
 10
12.6053063529
 20
-33.1437375928
 11
12.6053063529
 21
-31.8916360634
  0
LINE
  5
450
100
AcDbEntity
  8
0
100
AcDbLine
 62
7
  6
CONTINUOUS
 10
1.8979411529
 20
-33.1437375928
 11
2.0299098537
 21
-32.7643128869
  0
LINE
  5
451
100
AcDbEntity
  8
0
100
AcDbLine
 62
7
  6
CONTINUOUS
 10
3.4869006085
 20
-29.4843322371
 11
3.6188693092
 21
-29.1049075312
  0
LINE
  5
452
100
AcDbEntity
  8
0
100
AcDbLine
 62
7
  6
CONTINUOUS
 10
1.0578711744
 20
-33.1437375928
 11
1.4274545176
 21
-32.0965254045
  0
LINE
  5
453
100
AcDbEntity
  8
0
100
AcDbLine
 62
7
  6
CONTINUOUS
 10
1.3771807875
 20
-31.8916360634
 11
1.0674753931
 21
-32.760874298
  0
LINE
  5
454
100
AcDbEntity
  8
0
100
AcDbLine
 62
7
  6
CONTINUOUS
 10
2.0774565429
 20
-32.6277199928
 11
2.2127451447
 21
-32.2621679828
  0
LINE
  5
455
100
AcDbEntity
  8
0
100
AcDbLine
 62
7
  6
CONTINUOUS
 10
3.6664159984
 20
-28.9683146371
 11
3.8017046002
 21
-28.6027626271
  0
LINE
  5
456
100
AcDbEntity
  8
0
100
AcDbLine
 62
7
  6
CONTINUOUS
 10
1.4076532202
 20
-30.0657276326
 11
1.0628510839
 21
-30.9730269099
  0
LINE
  5
457
100
AcDbEntity
  8
0
100
AcDbLine
 62
7
  6
CONTINUOUS
 10
2.1976867285
 20
-31.8916360634
 11
1.7217458956
 21
-33.1437375928
  0
LINE
  5
458
100
AcDbEntity
  8
0
100
AcDbLine
 62
7
  6
CONTINUOUS
 10
3.786646184
 20
-28.2322307077
 11
3.3107053511
 21
-29.4843322371
  0
LINE
  5
459
100
AcDbEntity
  8
0
100
AcDbLine
 62
7
  6
CONTINUOUS
 10
1.0868022866
 20
-31.317829162
 11
1.586220034
 21
-30.0657276326
  0
LINE
  5
45A
100
AcDbEntity
  8
0
100
AcDbLine
 62
7
  6
CONTINUOUS
 10
-4.241666708
 20
17.3205837232
 11
-4.155
 21
17.2652645736
  0
LINE
  5
45B
100
AcDbEntity
  8
0
100
AcDbLine
 62
7
  6
CONTINUOUS
 10
-5.628333354
 20
18.4546262865
 11
-5.715
 21
18.5099454288
  0
LINE
  5
45C
100
AcDbEntity
  8
0
100
AcDbLine
 62
7
  6
CONTINUOUS
 10
-5.195
 20
17.3482432944
 11
-5.086666708
 21
17.2652645736
  0
LINE
  5
45D
100
AcDbEntity
  8
0
100
AcDbLine
 62
7
  6
CONTINUOUS
 10
-4.718333292
 20
18.4269667153
 11
-4.826666708
 21
18.5099454288
  0
LINE
  5
45E
100
AcDbEntity
  8
0
100
AcDbLine
 62
7
  6
CONTINUOUS
 10
-5.758333354
 20
18.371647573
 11
-5.693333354
 21
18.3163284306
  0
LINE
  5
45F
100
AcDbEntity
  8
0
100
AcDbLine
 62
7
  6
CONTINUOUS
 10
-4.133333416
 20
17.4312220176
 11
-4.198333416
 21
17.4865411793
  0
LINE
  5
460
100
AcDbEntity
  8
0
100
AcDbLine
 62
7
  6
CONTINUOUS
 10
-4.848333292
 20
18.371647573
 11
-4.783333292
 21
18.3163284306
  0
LINE
  5
461
100
AcDbEntity
  8
0
100
AcDbLine
 62
7
  6
CONTINUOUS
 10
-3.121875
 20
23.3537234247
 11
-3.2177082419
 21
23.4515957534
  0
LINE
  5
462
100
AcDbEntity
  8
0
100
AcDbLine
 62
7
  6
CONTINUOUS
 10
-1.0677965268
 20
20.3691489384
 11
-0.9788135608
 21
20.2712765925
  0
LINE
  5
463
100
AcDbEntity
  8
0
100
AcDbLine
 62
7
  6
CONTINUOUS
 10
0.3559322014
 20
20.9808510959
 11
0.2669489809
 21
21.0787234247
  0
LINE
  5
464
100
AcDbEntity
  8
0
100
AcDbLine
 62
7
  6
CONTINUOUS
 10
0.4958335161
 20
22.5462765925
 11
-0.103125
 21
23.525
  0
LINE
  5
465
100
AcDbEntity
  8
0
100
AcDbLine
 62
7
  6
CONTINUOUS
 10
0.4004235571
 20
20.9074467808
 11
0.3559322014
 21
20.9808510959
  0
LINE
  5
466
100
AcDbEntity
  8
0
100
AcDbLine
 62
7
  6
CONTINUOUS
 10
1.7351693193
 20
20.4425531849
 11
1.7796611842
 21
20.3691489384
  0
LINE
  5
467
100
AcDbEntity
  8
0
100
AcDbLine
 62
7
  6
CONTINUOUS
 10
3.2478815227
 20
20.9074467808
 11
3.2033896578
 21
20.9808510959
  0
LINE
  5
468
100
AcDbEntity
  8
0
100
AcDbLine
 62
7
  6
CONTINUOUS
 10
3.9597457595
 20
20.3691489384
 11
3.9152538946
 21
20.4425531849
  0
LINE
  5
469
100
AcDbEntity
  8
0
100
AcDbLine
 62
7
  6
CONTINUOUS
 10
-0.175
 20
23.3781915069
 11
0.4239585161
 21
22.375
  0
LINE
  5
46A
100
AcDbEntity
  8
ASSI
100
AcDbLine
 62
7
  6
CONTINUOUS
 10
3.754212
 20
16.7266575
 11
3.879336
 21
16.5037265
  0
LINE
  5
46B
100
AcDbEntity
  8
0
100
AcDbLine
 62
7
  6
CONTINUOUS
 10
3.2923728784
 20
20.7851063699
 11
3.2478815227
 21
20.9074467808
  0
LINE
  5
46C
100
AcDbEntity
  8
0
100
AcDbLine
 62
7
  6
CONTINUOUS
 10
4.3770829678
 20
22.375
 11
3.99375
 21
23.525
  0
LINE
  5
46D
100
AcDbEntity
  8
0
100
AcDbLine
 62
7
  6
CONTINUOUS
 10
4.1375
 20
22.6686170205
 11
4.2333329678
 21
22.375
  0
LINE
  5
46E
100
AcDbEntity
  8
0
100
AcDbLine
 62
7
  6
CONTINUOUS
 10
3.8979170322
 20
23.4271276712
 11
4.1135420322
 21
22.7664893493
  0
LINE
  5
46F
100
AcDbEntity
  8
0
100
AcDbLine
 62
7
  6
CONTINUOUS
 10
3.1142865
 20
24.899935
 11
2.279472
 21
27.5000585
  0
LINE
  5
470
100
AcDbEntity
  8
0
100
AcDbLine
 62
7
  6
CONTINUOUS
 10
6.9700194085
 20
-31.317829162
 11
7.1019881092
 21
-30.9384044561
  0
LINE
  5
471
100
AcDbEntity
  8
0
100
AcDbLine
 62
7
  6
CONTINUOUS
 10
7.1495347984
 20
-30.801811562
 11
7.2848234002
 21
-30.436259552
  0
LINE
  5
472
100
AcDbEntity
  8
0
100
AcDbLine
 62
7
  6
CONTINUOUS
 10
7.269764984
 20
-30.0657276326
 11
6.7938241511
 21
-31.317829162
  0
LINE
  5
473
100
AcDbEntity
  8
0
100
AcDbLine
 62
7
  6
CONTINUOUS
 10
-0.8253796591
 20
-34.4696353002
 11
-0.3245390473
 21
-33.7478984706
  0
LINE
  5
474
100
AcDbEntity
  8
0
100
AcDbLine
 62
7
  6
CONTINUOUS
 10
-3.96
 20
17.237605
 11
-3.851666584
 21
17.2652645736
  0
LINE
  5
475
100
AcDbEntity
  8
0
100
AcDbLine
 62
7
  6
CONTINUOUS
 10
-4.848333292
 20
17.4035624464
 11
-4.956666708
 21
17.3759028752
  0
LINE
  5
476
100
AcDbEntity
  8
0
100
AcDbLine
 62
7
  6
CONTINUOUS
 10
-5.065
 20
18.371647573
 11
-4.956666708
 21
18.3993071441
  0
LINE
  5
477
100
AcDbEntity
  8
0
100
AcDbLine
 62
7
  6
CONTINUOUS
 10
-6.0616666615
 20
18.371647573
 11
-5.953333323
 21
18.3993071441
  0
LINE
  5
478
100
AcDbEntity
  8
0
100
AcDbLine
 62
7
  6
CONTINUOUS
 10
-4.956666708
 20
17.237605
 11
-4.826666708
 21
17.2652645736
  0
LINE
  5
479
100
AcDbEntity
  8
0
100
AcDbLine
 62
7
  6
CONTINUOUS
 10
-4.956666708
 20
18.537605
 11
-5.086666708
 21
18.5099454288
  0
LINE
  5
47A
100
AcDbEntity
  8
0
100
AcDbLine
 62
7
  6
CONTINUOUS
 10
4.7605932168
 20
20.2468085103
 11
4.6271186406
 21
20.2223404281
  0
LINE
  5
47B
100
AcDbEntity
  8
0
100
AcDbLine
 62
7
  6
CONTINUOUS
 10
-5.931666677
 20
18.537605
 11
-6.0833333385
 21
18.5099454288
  0
LINE
  5
47C
100
AcDbEntity
  8
0
100
AcDbLine
 62
7
  6
CONTINUOUS
 10
4.5826267757
 20
20.1
 11
4.8050850817
 21
20.1244680843
  0
LINE
  5
47D
100
AcDbEntity
  8
0
100
AcDbLine
 62
7
  6
CONTINUOUS
 10
-6.75
 20
14.875
 11
6.75
 21
14.875
  0
LINE
  5
47E
100
AcDbEntity
  8
ASSI
100
AcDbLine
 62
7
  6
CONTINUOUS
 10
2.8661195
 20
16.3814855
 11
3.637394
 21
16.3814855
  0
LINE
  5
47F
100
AcDbEntity
  8
ASSI
100
AcDbLine
 62
7
  6
CONTINUOUS
 10
3.637394
 20
16.65331
 11
3.396593
 21
16.65331
  0
LINE
  5
480
100
AcDbEntity
  8
ASSI
100
AcDbLine
 62
7
  6
CONTINUOUS
 10
3.1070145
 20
16.65331
 11
2.8661195
 21
16.65331
  0
LINE
  5
481
100
AcDbEntity
  8
0
100
AcDbLine
 62
7
  6
CONTINUOUS
 10
-6.3
 20
17.237605
 11
-5.52
 21
17.237605
  0
LINE
  5
482
100
AcDbEntity
  8
0
100
AcDbLine
 62
7
  6
CONTINUOUS
 10
-4.046666584
 20
17.237605
 11
-3.96
 21
17.237605
  0
LINE
  5
483
100
AcDbEntity
  8
0
100
AcDbLine
 62
7
  6
CONTINUOUS
 10
-2.46241
 20
17.237605
 11
-2.2901635
 21
17.237605
  0
LINE
  5
484
100
AcDbEntity
  8
0
100
AcDbLine
 62
7
  6
CONTINUOUS
 10
-1.9776765
 20
17.237605
 11
-1.8054775
 21
17.237605
  0
LINE
  5
485
100
AcDbEntity
  8
0
100
AcDbLine
 62
7
  6
CONTINUOUS
 10
-0.356675
 20
17.237605
 11
-0.2004315
 21
17.237605
  0
LINE
  5
486
100
AcDbEntity
  8
0
100
AcDbLine
 62
7
  6
CONTINUOUS
 10
-5.52
 20
17.3759028752
 11
-6.1266666615
 21
17.3759028752
  0
LINE
  5
487
100
AcDbEntity
  8
0
100
AcDbLine
 62
7
  6
CONTINUOUS
 10
-3.96
 20
17.4035624464
 11
-4.046666584
 21
17.4035624464
  0
LINE
  5
488
100
AcDbEntity
  8
0
100
AcDbLine
 62
7
  6
CONTINUOUS
 10
-0.9017275
 20
17.5412285
 11
-0.356675
 21
17.5412285
  0
LINE
  5
489
100
AcDbEntity
  8
0
100
AcDbLine
 62
7
  6
CONTINUOUS
 10
-0.2004315
 20
17.5412285
 11
-0.017532
 21
17.5412285
  0
LINE
  5
48A
100
AcDbEntity
  8
0
100
AcDbLine
 62
7
  6
CONTINUOUS
 10
-0.017532
 20
17.676152
 11
-0.2004315
 21
17.676152
  0
LINE
  5
48B
100
AcDbEntity
  8
0
100
AcDbLine
 62
7
  6
CONTINUOUS
 10
-0.356675
 20
17.676152
 11
-0.7579365
 21
17.676152
  0
LINE
  5
48C
100
AcDbEntity
  8
0
100
AcDbLine
 62
7
  6
CONTINUOUS
 10
-4.263333292
 20
17.6801581775
 11
-4.393333292
 21
17.6801581775
  0
LINE
  5
48D
100
AcDbEntity
  8
0
100
AcDbLine
 62
7
  6
CONTINUOUS
 10
-1.8054775
 20
17.7755935
 11
-1.4046176439
 21
17.7755935
  0
LINE
  5
48E
100
AcDbEntity
  8
0
100
AcDbLine
 62
7
  6
CONTINUOUS
 10
-1.4447976337
 20
17.9229405
 11
-1.8054775
 21
17.9229405
  0
LINE
  5
48F
100
AcDbEntity
  8
0
100
AcDbLine
 62
7
  6
CONTINUOUS
 10
-6.2783333327
 20
18.2333497171
 11
-6.17
 21
18.2333497171
  0
LINE
  5
490
100
AcDbEntity
  8
0
100
AcDbLine
 62
7
  6
CONTINUOUS
 10
-1.8054775
 20
18.365048
 11
-1.444795053
 21
18.365048
  0
LINE
  5
491
100
AcDbEntity
  8
0
100
AcDbLine
 62
7
  6
CONTINUOUS
 10
-5.953333323
 20
18.3993071441
 11
-5.866666677
 21
18.3993071441
  0
LINE
  5
492
100
AcDbEntity
  8
0
100
AcDbLine
 62
7
  6
CONTINUOUS
 10
-0.2004315
 20
18.512395
 11
-0.310801
 21
18.512395
  0
LINE
  5
493
100
AcDbEntity
  8
0
100
AcDbLine
 62
7
  6
CONTINUOUS
 10
-1.4046151509
 20
18.512395
 11
-1.9776765
 21
18.512395
  0
LINE
  5
494
100
AcDbEntity
  8
0
100
AcDbLine
 62
7
  6
CONTINUOUS
 10
-2.2901635
 20
18.512395
 11
-2.46241
 21
18.512395
  0
LINE
  5
495
100
AcDbEntity
  8
0
100
AcDbLine
 62
7
  6
CONTINUOUS
 10
-3.613333416
 20
18.537605
 11
-3.743333416
 21
18.537605
  0
LINE
  5
496
100
AcDbEntity
  8
0
100
AcDbLine
 62
7
  6
CONTINUOUS
 10
-5.845
 20
18.537605
 11
-5.931666677
 21
18.537605
  0
LINE
  5
497
100
AcDbEntity
  8
ASSI
100
AcDbLine
 62
7
  6
CONTINUOUS
 10
2.8749965
 20
18.584487
 11
3.1070145
 21
18.584487
  0
LINE
  5
498
100
AcDbEntity
  8
ASSI
100
AcDbLine
 62
7
  6
CONTINUOUS
 10
3.396593
 20
18.584487
 11
3.628517
 21
18.584487
  0
LINE
  5
499
100
AcDbEntity
  8
ASSI
100
AcDbLine
 62
7
  6
CONTINUOUS
 10
3.628517
 20
18.8578065
 11
2.8749965
 21
18.8578065
  0
LINE
  5
49A
100
AcDbEntity
  8
0
100
AcDbLine
 62
7
  6
CONTINUOUS
 10
-5.086666708
 20
17.2652645736
 11
-4.956666708
 21
17.237605
  0
LINE
  5
49B
100
AcDbEntity
  8
0
100
AcDbLine
 62
7
  6
CONTINUOUS
 10
-5.715
 20
18.5099454288
 11
-5.845
 21
18.537605
  0
LINE
  5
49C
100
AcDbEntity
  8
0
100
AcDbLine
 62
7
  6
CONTINUOUS
 10
-4.826666708
 20
18.5099454288
 11
-4.956666708
 21
18.537605
  0
LINE
  5
49D
100
AcDbEntity
  8
0
100
AcDbLine
 62
7
  6
CONTINUOUS
 10
-4.956666708
 20
17.3759028752
 11
-5.065
 21
17.4035624464
  0
LINE
  5
49E
100
AcDbEntity
  8
0
100
AcDbLine
 62
7
  6
CONTINUOUS
 10
-4.155
 20
17.2652645736
 11
-4.046666584
 21
17.237605
  0
LINE
  5
49F
100
AcDbEntity
  8
0
100
AcDbLine
 62
7
  6
CONTINUOUS
 10
-5.866666677
 20
18.3993071441
 11
-5.758333354
 21
18.371647573
  0
LINE
  5
4A0
100
AcDbEntity
  8
0
100
AcDbLine
 62
7
  6
CONTINUOUS
 10
-4.956666708
 20
18.3993071441
 11
-4.848333292
 21
18.371647573
  0
LINE
  5
4A1
100
AcDbEntity
  8
0
100
AcDbLine
 62
7
  6
CONTINUOUS
 10
-4.046666584
 20
17.4035624464
 11
-4.133333416
 21
17.4312220176
  0
LINE
  5
4A2
100
AcDbEntity
  8
0
100
AcDbLine
 62
7
  6
CONTINUOUS
 10
-0.8453389846
 20
20.1978723373
 11
-0.6228811878
 21
20.1244680843
  0
LINE
  5
4A3
100
AcDbEntity
  8
0
100
AcDbLine
 62
7
  6
CONTINUOUS
 10
-0.5783898322
 20
20.2468085103
 11
-0.7118644084
 21
20.2957446747
  0
LINE
  5
4A4
100
AcDbEntity
  8
0
100
AcDbLine
 62
7
  6
CONTINUOUS
 10
-3.2177082419
 20
23.4515957534
 11
-3.3135417581
 21
23.5005319178
  0
LINE
  5
4A5
100
AcDbEntity
  8
0
100
AcDbLine
 62
7
  6
CONTINUOUS
 10
-0.9788135608
 20
20.2712765925
 11
-0.8453389846
 21
20.1978723373
  0
LINE
  5
4A6
100
AcDbEntity
  8
0
100
AcDbLine
 62
7
  6
CONTINUOUS
 10
0.2669489809
 20
21.0787234247
 11
0.1334744047
 21
21.1521276712
  0
LINE
  5
4A7
100
AcDbEntity
  8
0
100
AcDbLine
 62
7
  6
CONTINUOUS
 10
1.8686438956
 20
20.2712765925
 11
2.0021184718
 21
20.1978723373
  0
LINE
  5
4A8
100
AcDbEntity
  8
0
100
AcDbLine
 62
7
  6
CONTINUOUS
 10
-3.3375
 20
23.3537234247
 11
-3.265625
 21
23.3047872603
  0
LINE
  5
4A9
100
AcDbEntity
  8
0
100
AcDbLine
 62
7
  6
CONTINUOUS
 10
3.7817793184
 20
20.2957446747
 11
3.9152538946
 21
20.1978723373
  0
LINE
  5
4AA
100
AcDbEntity
  8
0
100
AcDbLine
 62
7
  6
CONTINUOUS
 10
-0.7118644084
 20
20.2957446747
 11
-0.8898303403
 21
20.4425531849
  0
LINE
  5
4AB
100
AcDbEntity
  8
0
100
AcDbLine
 62
7
  6
CONTINUOUS
 10
-0.0000001716
 20
21.0542553425
 11
0.1779662695
 21
20.9074467808
  0
LINE
  5
4AC
100
AcDbEntity
  8
0
100
AcDbLine
 62
7
  6
CONTINUOUS
 10
2.135593048
 20
20.2957446747
 11
1.9576271161
 21
20.4425531849
  0
LINE
  5
4AD
100
AcDbEntity
  8
0
100
AcDbLine
 62
7
  6
CONTINUOUS
 10
2.847457794
 20
21.0542553425
 11
3.0254237259
 21
20.9074467808
  0
LINE
  5
4AE
100
AcDbEntity
  8
0
100
AcDbLine
 62
7
  6
CONTINUOUS
 10
4.0487284708
 20
20.2957446747
 11
3.9597457595
 21
20.3691489384
  0
LINE
  5
4AF
100
AcDbEntity
  8
0
100
AcDbLine
 62
7
  6
CONTINUOUS
 10
4.8495759282
 20
21.0542553425
 11
4.9385596579
 21
20.9808510959
  0
LINE
  5
4B0
100
AcDbEntity
  8
ASSI
100
AcDbLine
 62
7
  6
CONTINUOUS
 10
2.376112
 20
18.170499
 11
3.1070145
 21
17.554563
  0
LINE
  5
4B1
100
AcDbEntity
  8
ASSI
100
AcDbLine
 62
7
  6
CONTINUOUS
 10
3.1070145
 20
17.8914235
 11
2.342376
 21
18.535789
  0
LINE
  5
4B2
100
AcDbEntity
  8
0
100
AcDbLine
 62
7
  6
CONTINUOUS
 10
1.7796611842
 20
20.3691489384
 11
1.8686438956
 21
20.2712765925
  0
LINE
  5
4B3
100
AcDbEntity
  8
0
100
AcDbLine
 62
7
  6
CONTINUOUS
 10
3.2033896578
 20
20.9808510959
 11
3.1144069464
 21
21.0787234247
  0
LINE
  5
4B4
100
AcDbEntity
  8
0
100
AcDbLine
 62
7
  6
CONTINUOUS
 10
3.692796607
 20
20.4180851027
 11
3.7817793184
 21
20.2957446747
  0
LINE
  5
4B5
100
AcDbEntity
  8
0
100
AcDbLine
 62
7
  6
CONTINUOUS
 10
5.2499996569
 20
20.540425548
 11
5.1610169455
 21
20.6627659589
  0
LINE
  5
4B6
100
AcDbEntity
  8
0
100
AcDbLine
 62
7
  6
CONTINUOUS
 10
5.6229170322
 20
23.525
 11
6.00625
 21
22.9622340411
  0
LINE
  5
4B7
100
AcDbEntity
  8
0
100
AcDbLine
 62
7
  6
CONTINUOUS
 10
6.078125
 20
23.0601063699
 11
5.7666670322
 21
23.525
  0
LINE
  5
4B8
100
AcDbEntity
  8
0
100
AcDbLine
 62
7
  6
CONTINUOUS
 10
4.9830505044
 20
20.5893617123
 11
5.0275423693
 21
20.5159574315
  0
LINE
  5
4B9
100
AcDbEntity
  8
0
100
AcDbLine
 62
7
  6
CONTINUOUS
 10
5.1610169455
 20
20.9808510959
 11
5.1165250806
 21
21.0542553425
  0
LINE
  5
4BA
100
AcDbEntity
  8
0
100
AcDbLine
 62
7
  6
CONTINUOUS
 10
4.434911
 20
25.90529
 11
4.9560355
 21
24.8999415
  0
LINE
  5
4BB
100
AcDbEntity
  8
0
100
AcDbLine
 62
7
  6
CONTINUOUS
 10
5.541757
 20
24.899948
 11
4.9882224605
 21
25.9678285054
  0
LINE
  5
4BC
100
AcDbEntity
  8
0
100
AcDbLine
 62
7
  6
CONTINUOUS
 10
9.645793647
 20
-33.1437375928
 11
9.7777623478
 21
-32.7643128869
  0
LINE
  5
4BD
100
AcDbEntity
  8
0
100
AcDbLine
 62
7
  6
CONTINUOUS
 10
9.825309037
 20
-32.6277199928
 11
9.9605976388
 21
-32.2621679828
  0
LINE
  5
4BE
100
AcDbEntity
  8
0
100
AcDbLine
 62
7
  6
CONTINUOUS
 10
9.9455392226
 20
-31.8916360634
 11
9.4695983897
 21
-33.1437375928
  0
LINE
  5
4BF
100
AcDbEntity
  8
0
100
AcDbLine
 62
7
  6
CONTINUOUS
 10
12.1196427294
 20
-31.8916360634
 11
11.774840593
 21
-32.7989353406
  0
LINE
  5
4C0
100
AcDbEntity
  8
0
100
AcDbLine
 62
7
  6
CONTINUOUS
 10
11.7987917957
 20
-33.1437375928
 11
12.2982095431
 21
-31.8916360634
  0
LINE
  5
4C1
100
AcDbEntity
  8
0
100
AcDbLine
 62
7
  6
CONTINUOUS
 10
6.4028980741
 20
-30.3599003227
 11
5.7634488438
 21
-31.1676006002
  0
LINE
  5
4C2
100
AcDbEntity
  8
0
100
AcDbLine
 62
7
  6
CONTINUOUS
 10
-3.3375
 20
22.5462765925
 11
-3.4333332419
 21
22.5218085103
  0
LINE
  5
4C3
100
AcDbEntity
  8
0
100
AcDbLine
 62
7
  6
CONTINUOUS
 10
-3.4333332419
 20
22.375
 11
-3.3135417581
 21
22.3994680843
  0
LINE
  5
4C4
100
AcDbEntity
  8
0
100
AcDbLine
 62
7
  6
CONTINUOUS
 10
4.1822030471
 20
20.6872340411
 11
4.3156776233
 21
20.7117021233
  0
LINE
  5
4C5
100
AcDbEntity
  8
0
100
AcDbLine
 62
7
  6
CONTINUOUS
 10
4.1822030471
 20
21.1031915069
 11
4.3156776233
 21
21.1276595891
  0
LINE
  5
4C6
100
AcDbEntity
  8
0
100
AcDbLine
 62
7
  6
CONTINUOUS
 10
2.7139832178
 20
20.2468085103
 11
2.491525421
 21
20.2223404281
  0
LINE
  5
4C7
100
AcDbEntity
  8
0
100
AcDbLine
 62
7
  6
CONTINUOUS
 10
-0.1334747478
 20
20.2468085103
 11
-0.3559320354
 21
20.2223404281
  0
LINE
  5
4C8
100
AcDbEntity
  8
0
100
AcDbLine
 62
7
  6
CONTINUOUS
 10
4.3601694881
 20
20.8340425342
 11
4.1377122006
 21
20.809574452
  0
LINE
  5
4C9
100
AcDbEntity
  8
0
100
AcDbLine
 62
7
  6
CONTINUOUS
 10
4.3601694881
 20
21.25
 11
4.1377122006
 21
21.2255319178
  0
LINE
  5
4CA
100
AcDbEntity
  8
0
100
AcDbLine
 62
7
  6
CONTINUOUS
 10
2.2690676242
 20
21.1031915069
 11
2.491525421
 21
21.1276595891
  0
LINE
  5
4CB
100
AcDbEntity
  8
0
100
AcDbLine
 62
7
  6
CONTINUOUS
 10
-0.5783898322
 20
21.1031915069
 11
-0.3559320354
 21
21.1276595891
  0
LINE
  5
4CC
100
AcDbEntity
  8
0
100
AcDbLine
 62
7
  6
CONTINUOUS
 10
2.491525421
 20
20.1
 11
2.7584745735
 21
20.1244680843
  0
LINE
  5
4CD
100
AcDbEntity
  8
0
100
AcDbLine
 62
7
  6
CONTINUOUS
 10
-0.3559320354
 20
20.1
 11
-0.0889828829
 21
20.1244680843
  0
LINE
  5
4CE
100
AcDbEntity
  8
0
100
AcDbLine
 62
7
  6
CONTINUOUS
 10
2.491525421
 20
21.25
 11
2.2245762686
 21
21.2255319178
  0
LINE
  5
4CF
100
AcDbEntity
  8
0
100
AcDbLine
 62
7
  6
CONTINUOUS
 10
-0.3559320354
 20
21.25
 11
-0.6228811878
 21
21.2255319178
  0
LINE
  5
4D0
100
AcDbEntity
  8
0
100
AcDbLine
 62
7
  6
CONTINUOUS
 10
-4.5381355723
 20
20.1
 11
-4.1822033902
 21
20.1
  0
LINE
  5
4D1
100
AcDbEntity
  8
0
100
AcDbLine
 62
7
  6
CONTINUOUS
 10
-2.6694914415
 20
20.1
 11
-2.402542289
 21
20.1
  0
LINE
  5
4D2
100
AcDbEntity
  8
0
100
AcDbLine
 62
7
  6
CONTINUOUS
 10
1.0677964382
 20
20.1
 11
1.3347455907
 21
20.1
  0
LINE
  5
4D3
100
AcDbEntity
  8
0
100
AcDbLine
 62
7
  6
CONTINUOUS
 10
4.3601694881
 20
20.1
 11
4.5826267757
 21
20.1
  0
LINE
  5
4D4
100
AcDbEntity
  8
0
100
AcDbLine
 62
7
  6
CONTINUOUS
 10
4.6271186406
 20
20.2223404281
 11
4.3156776233
 21
20.2223404281
  0
LINE
  5
4D5
100
AcDbEntity
  8
0
100
AcDbLine
 62
7
  6
CONTINUOUS
 10
4.3156776233
 20
20.7117021233
 11
4.6271186406
 21
20.7117021233
  0
LINE
  5
4D6
100
AcDbEntity
  8
0
100
AcDbLine
 62
7
  6
CONTINUOUS
 10
4.5826267757
 20
20.8340425342
 11
4.3601694881
 21
20.8340425342
  0
LINE
  5
4D7
100
AcDbEntity
  8
0
100
AcDbLine
 62
7
  6
CONTINUOUS
 10
4.9385596579
 20
20.9808510959
 11
5.1610169455
 21
20.9808510959
  0
LINE
  5
4D8
100
AcDbEntity
  8
0
100
AcDbLine
 62
7
  6
CONTINUOUS
 10
-3.1144067804
 20
21.1276595891
 11
-1.7796610182
 21
21.1276595891
  0
LINE
  5
4D9
100
AcDbEntity
  8
0
100
AcDbLine
 62
7
  6
CONTINUOUS
 10
4.3156776233
 20
21.1276595891
 11
4.5826267757
 21
21.1276595891
  0
LINE
  5
4DA
100
AcDbEntity
  8
0
100
AcDbLine
 62
7
  6
CONTINUOUS
 10
4.5381359292
 20
21.25
 11
4.3601694881
 21
21.25
  0
LINE
  5
4DB
100
AcDbEntity
  8
0
100
AcDbLine
 62
7
  6
CONTINUOUS
 10
1.3347455907
 20
21.25
 11
1.0677964382
 21
21.25
  0
LINE
  5
4DC
100
AcDbEntity
  8
0
100
AcDbLine
 62
7
  6
CONTINUOUS
 10
-1.5127118657
 20
21.25
 11
-3.1144067804
 21
21.25
  0
LINE
  5
4DD
100
AcDbEntity
  8
0
100
AcDbLine
 62
7
  6
CONTINUOUS
 10
-3.4703390261
 20
21.25
 11
-3.7372881786
 21
21.25
  0
LINE
  5
4DE
100
AcDbEntity
  8
0
100
AcDbLine
 62
7
  6
CONTINUOUS
 10
-4.9830508476
 20
21.25
 11
-5.25
 21
21.25
  0
LINE
  5
4DF
100
AcDbEntity
  8
0
100
AcDbLine
 62
7
  6
CONTINUOUS
 10
-6.5
 20
22.375
 11
-6.35625
 21
22.375
  0
LINE
  5
4E0
100
AcDbEntity
  8
0
100
AcDbLine
 62
7
  6
CONTINUOUS
 10
-6.0208333448
 20
22.375
 11
-5.8291666895
 21
22.375
  0
LINE
  5
4E1
100
AcDbEntity
  8
0
100
AcDbLine
 62
7
  6
CONTINUOUS
 10
-5.49375
 20
22.375
 11
-5.35
 21
22.375
  0
LINE
  5
4E2
100
AcDbEntity
  8
0
100
AcDbLine
 62
7
  6
CONTINUOUS
 10
-5.158333379
 20
22.375
 11
-5.014583379
 21
22.375
  0
LINE
  5
4E3
100
AcDbEntity
  8
0
100
AcDbLine
 62
7
  6
CONTINUOUS
 10
-4.34375
 20
22.375
 11
-4.2
 21
22.375
  0
LINE
  5
4E4
100
AcDbEntity
  8
0
100
AcDbLine
 62
7
  6
CONTINUOUS
 10
-4.0083332419
 20
22.375
 11
-3.4333332419
 21
22.375
  0
LINE
  5
4E5
100
AcDbEntity
  8
0
100
AcDbLine
 62
7
  6
CONTINUOUS
 10
-2.8583332419
 20
22.375
 11
-1.9958332419
 21
22.375
  0
LINE
  5
4E6
100
AcDbEntity
  8
0
100
AcDbLine
 62
7
  6
CONTINUOUS
 10
-0.6541664839
 20
22.375
 11
-0.5104164839
 21
22.375
  0
LINE
  5
4E7
100
AcDbEntity
  8
0
100
AcDbLine
 62
7
  6
CONTINUOUS
 10
-0.31875
 20
22.375
 11
-0.175
 21
22.375
  0
LINE
  5
4E8
100
AcDbEntity
  8
0
100
AcDbLine
 62
7
  6
CONTINUOUS
 10
0.4239585161
 20
22.375
 11
0.6395835161
 21
22.375
  0
LINE
  5
4E9
100
AcDbEntity
  8
0
100
AcDbLine
 62
7
  6
CONTINUOUS
 10
1.98125
 20
22.375
 11
2.125
 21
22.375
  0
LINE
  5
4EA
100
AcDbEntity
  8
0
100
AcDbLine
 62
7
  6
CONTINUOUS
 10
2.7
 20
22.375
 11
2.84375
 21
22.375
  0
LINE
  5
4EB
100
AcDbEntity
  8
0
100
AcDbLine
 62
7
  6
CONTINUOUS
 10
3.41875
 20
22.375
 11
3.5625
 21
22.375
  0
LINE
  5
4EC
100
AcDbEntity
  8
0
100
AcDbLine
 62
7
  6
CONTINUOUS
 10
4.2333329678
 20
22.375
 11
4.3770829678
 21
22.375
  0
LINE
  5
4ED
100
AcDbEntity
  8
0
100
AcDbLine
 62
7
  6
CONTINUOUS
 10
4.56875
 20
22.375
 11
5.43125
 21
22.375
  0
LINE
  5
4EE
100
AcDbEntity
  8
0
100
AcDbLine
 62
7
  6
CONTINUOUS
 10
6.00625
 20
22.375
 11
6.15
 21
22.375
  0
LINE
  5
4EF
100
AcDbEntity
  8
0
100
AcDbLine
 62
7
  6
CONTINUOUS
 10
5.43125
 20
22.5218085103
 11
4.7125
 21
22.5218085103
  0
LINE
  5
4F0
100
AcDbEntity
  8
0
100
AcDbLine
 62
7
  6
CONTINUOUS
 10
-1.9958332419
 20
22.5218085103
 11
-2.7145832419
 21
22.5218085103
  0
LINE
  5
4F1
100
AcDbEntity
  8
0
100
AcDbLine
 62
7
  6
CONTINUOUS
 10
-3.4333332419
 20
22.5218085103
 11
-3.8645832419
 21
22.5218085103
  0
LINE
  5
4F2
100
AcDbEntity
  8
0
100
AcDbLine
 62
7
  6
CONTINUOUS
 10
-4.91875
 20
22.6686170205
 11
-4.439583379
 21
22.6686170205
  0
LINE
  5
4F3
100
AcDbEntity
  8
0
100
AcDbLine
 62
7
  6
CONTINUOUS
 10
3.6583329678
 20
22.6686170205
 11
4.1375
 21
22.6686170205
  0
LINE
  5
4F4
100
AcDbEntity
  8
0
100
AcDbLine
 62
7
  6
CONTINUOUS
 10
4.1135420322
 20
22.7664893493
 11
3.6822920322
 21
22.7664893493
  0
LINE
  5
4F5
100
AcDbEntity
  8
0
100
AcDbLine
 62
7
  6
CONTINUOUS
 10
-4.463541621
 20
22.7664893493
 11
-4.894791621
 21
22.7664893493
  0
LINE
  5
4F6
100
AcDbEntity
  8
0
100
AcDbLine
 62
7
  6
CONTINUOUS
 10
-2.7145832419
 20
22.9132978767
 11
-2.0916667581
 21
22.9132978767
  0
LINE
  5
4F7
100
AcDbEntity
  8
0
100
AcDbLine
 62
7
  6
CONTINUOUS
 10
-2.0916667581
 20
23.0601063699
 11
-2.7145832419
 21
23.0601063699
  0
LINE
  5
4F8
100
AcDbEntity
  8
0
100
AcDbLine
 62
7
  6
CONTINUOUS
 10
-3.8645832419
 20
23.3781915069
 11
-3.4333332419
 21
23.3781915069
  0
LINE
  5
4F9
100
AcDbEntity
  8
0
100
AcDbLine
 62
7
  6
CONTINUOUS
 10
-2.7145832419
 20
23.3781915069
 11
-1.9958332419
 21
23.3781915069
  0
LINE
  5
4FA
100
AcDbEntity
  8
0
100
AcDbLine
 62
7
  6
CONTINUOUS
 10
2.3166664839
 20
23.4026595891
 11
2.7
 21
23.4026595891
  0
LINE
  5
4FB
100
AcDbEntity
  8
0
100
AcDbLine
 62
7
  6
CONTINUOUS
 10
2.84375
 20
23.4026595891
 11
3.2270829678
 21
23.4026595891
  0
LINE
  5
4FC
100
AcDbEntity
  8
0
100
AcDbLine
 62
7
  6
CONTINUOUS
 10
6.5333329678
 20
23.525
 11
6.3895829678
 21
23.525
  0
LINE
  5
4FD
100
AcDbEntity
  8
0
100
AcDbLine
 62
7
  6
CONTINUOUS
 10
5.7666670322
 20
23.525
 11
5.6229170322
 21
23.525
  0
LINE
  5
4FE
100
AcDbEntity
  8
0
100
AcDbLine
 62
7
  6
CONTINUOUS
 10
4.7125
 20
23.525
 11
4.56875
 21
23.525
  0
LINE
  5
4FF
100
AcDbEntity
  8
0
100
AcDbLine
 62
7
  6
CONTINUOUS
 10
3.99375
 20
23.525
 11
3.8020829678
 21
23.525
  0
LINE
  5
500
100
AcDbEntity
  8
0
100
AcDbLine
 62
7
  6
CONTINUOUS
 10
3.2270829678
 20
23.525
 11
2.3166664839
 21
23.525
  0
LINE
  5
501
100
AcDbEntity
  8
0
100
AcDbLine
 62
7
  6
CONTINUOUS
 10
2.125
 20
23.525
 11
1.98125
 21
23.525
  0
LINE
  5
502
100
AcDbEntity
  8
0
100
AcDbLine
 62
7
  6
CONTINUOUS
 10
-0.103125
 20
23.525
 11
-0.31875
 21
23.525
  0
LINE
  5
503
100
AcDbEntity
  8
0
100
AcDbLine
 62
7
  6
CONTINUOUS
 10
0.6395835161
 20
23.525
 11
0.4958335161
 21
23.525
  0
LINE
  5
504
100
AcDbEntity
  8
0
100
AcDbLine
 62
7
  6
CONTINUOUS
 10
-0.5104164839
 20
23.525
 11
-0.6541664839
 21
23.525
  0
LINE
  5
505
100
AcDbEntity
  8
0
100
AcDbLine
 62
7
  6
CONTINUOUS
 10
-1.9958332419
 20
23.525
 11
-2.8583332419
 21
23.525
  0
LINE
  5
506
100
AcDbEntity
  8
0
100
AcDbLine
 62
7
  6
CONTINUOUS
 10
-3.4333332419
 20
23.525
 11
-4.0083332419
 21
23.525
  0
LINE
  5
507
100
AcDbEntity
  8
0
100
AcDbLine
 62
7
  6
CONTINUOUS
 10
-4.583333379
 20
23.525
 11
-4.775
 21
23.525
  0
LINE
  5
508
100
AcDbEntity
  8
0
100
AcDbLine
 62
7
  6
CONTINUOUS
 10
-5.35
 20
23.525
 11
-5.565625
 21
23.525
  0
LINE
  5
509
100
AcDbEntity
  8
0
100
AcDbLine
 62
7
  6
CONTINUOUS
 10
-6.284375
 20
23.525
 11
-6.5
 21
23.525
  0
LINE
  5
50A
100
AcDbEntity
  8
0
100
AcDbLine
 62
7
  6
CONTINUOUS
 10
-0.6228811878
 20
20.1244680843
 11
-0.3559320354
 21
20.1
  0
LINE
  5
50B
100
AcDbEntity
  8
0
100
AcDbLine
 62
7
  6
CONTINUOUS
 10
2.2245762686
 20
20.1244680843
 11
2.491525421
 21
20.1
  0
LINE
  5
50C
100
AcDbEntity
  8
0
100
AcDbLine
 62
7
  6
CONTINUOUS
 10
-0.0889828829
 20
21.2255319178
 11
-0.3559320354
 21
21.25
  0
LINE
  5
50D
100
AcDbEntity
  8
0
100
AcDbLine
 62
7
  6
CONTINUOUS
 10
2.7584745735
 20
21.2255319178
 11
2.491525421
 21
21.25
  0
LINE
  5
50E
100
AcDbEntity
  8
0
100
AcDbLine
 62
7
  6
CONTINUOUS
 10
-0.3559320354
 20
20.2223404281
 11
-0.5783898322
 21
20.2468085103
  0
LINE
  5
50F
100
AcDbEntity
  8
0
100
AcDbLine
 62
7
  6
CONTINUOUS
 10
2.491525421
 20
20.2223404281
 11
2.2690676242
 21
20.2468085103
  0
LINE
  5
510
100
AcDbEntity
  8
0
100
AcDbLine
 62
7
  6
CONTINUOUS
 10
4.1377122006
 20
20.1244680843
 11
4.3601694881
 21
20.1
  0
LINE
  5
511
100
AcDbEntity
  8
0
100
AcDbLine
 62
7
  6
CONTINUOUS
 10
-0.3559320354
 20
21.1276595891
 11
-0.1334747478
 21
21.1031915069
  0
LINE
  5
512
100
AcDbEntity
  8
0
100
AcDbLine
 62
7
  6
CONTINUOUS
 10
4.8050850817
 20
20.809574452
 11
4.5826267757
 21
20.8340425342
  0
LINE
  5
513
100
AcDbEntity
  8
0
100
AcDbLine
 62
7
  6
CONTINUOUS
 10
2.491525421
 20
21.1276595891
 11
2.7139832178
 21
21.1031915069
  0
LINE
  5
514
100
AcDbEntity
  8
0
100
AcDbLine
 62
7
  6
CONTINUOUS
 10
4.7605932168
 20
21.2255319178
 11
4.5381359292
 21
21.25
  0
LINE
  5
515
100
AcDbEntity
  8
0
100
AcDbLine
 62
7
  6
CONTINUOUS
 10
4.3156776233
 20
20.2223404281
 11
4.1822030471
 21
20.2468085103
  0
LINE
  5
516
100
AcDbEntity
  8
0
100
AcDbLine
 62
7
  6
CONTINUOUS
 10
4.6271186406
 20
20.7117021233
 11
4.7605932168
 21
20.6872340411
  0
LINE
  5
517
100
AcDbEntity
  8
0
100
AcDbLine
 62
7
  6
CONTINUOUS
 10
4.5826267757
 20
21.1276595891
 11
4.716101352
 21
21.1031915069
  0
LINE
  5
518
100
AcDbEntity
  8
0
100
AcDbLine
 62
7
  6
CONTINUOUS
 10
-3.3135417581
 20
23.5005319178
 11
-3.4333332419
 21
23.525
  0
LINE
  5
519
100
AcDbEntity
  8
0
100
AcDbLine
 62
7
  6
CONTINUOUS
 10
-3.4333332419
 20
23.3781915069
 11
-3.3375
 21
23.3537234247
  0
LINE
  5
51A
100
AcDbEntity
  8
0
100
AcDbLine
 62
7
  6
CONTINUOUS
 10
2.0021184718
 20
20.1978723373
 11
2.2245762686
 21
20.1244680843
  0
LINE
  5
51B
100
AcDbEntity
  8
0
100
AcDbLine
 62
7
  6
CONTINUOUS
 10
0.1334744047
 20
21.1521276712
 11
-0.0889828829
 21
21.2255319178
  0
LINE
  5
51C
100
AcDbEntity
  8
0
100
AcDbLine
 62
7
  6
CONTINUOUS
 10
3.9152538946
 20
20.1978723373
 11
4.1377122006
 21
20.1244680843
  0
LINE
  5
51D
100
AcDbEntity
  8
0
100
AcDbLine
 62
7
  6
CONTINUOUS
 10
2.9809323702
 20
21.1521276712
 11
2.7584745735
 21
21.2255319178
  0
LINE
  5
51E
100
AcDbEntity
  8
0
100
AcDbLine
 62
7
  6
CONTINUOUS
 10
5.0275423693
 20
20.7361702055
 11
4.8050850817
 21
20.809574452
  0
LINE
  5
51F
100
AcDbEntity
  8
0
100
AcDbLine
 62
7
  6
CONTINUOUS
 10
4.9830505044
 20
21.1521276712
 11
4.7605932168
 21
21.2255319178
  0
LINE
  5
520
100
AcDbEntity
  8
0
100
AcDbLine
 62
7
  6
CONTINUOUS
 10
-0.1334747478
 20
21.1031915069
 11
-0.0000001716
 21
21.0542553425
  0
LINE
  5
521
100
AcDbEntity
  8
0
100
AcDbLine
 62
7
  6
CONTINUOUS
 10
2.2690676242
 20
20.2468085103
 11
2.135593048
 21
20.2957446747
  0
LINE
  5
522
100
AcDbEntity
  8
0
100
AcDbLine
 62
7
  6
CONTINUOUS
 10
4.1822030471
 20
20.2468085103
 11
4.0487284708
 21
20.2957446747
  0
LINE
  5
523
100
AcDbEntity
  8
0
100
AcDbLine
 62
7
  6
CONTINUOUS
 10
2.7139832178
 20
21.1031915069
 11
2.847457794
 21
21.0542553425
  0
LINE
  5
524
100
AcDbEntity
  8
0
100
AcDbLine
 62
7
  6
CONTINUOUS
 10
4.7605932168
 20
20.6872340411
 11
4.894067793
 21
20.6382978767
  0
LINE
  5
525
100
AcDbEntity
  8
0
100
AcDbLine
 62
7
  6
CONTINUOUS
 10
4.716101352
 20
21.1031915069
 11
4.8495759282
 21
21.0542553425
  0
LINE
  5
526
100
AcDbEntity
  8
0
100
AcDbLine
 62
7
  6
CONTINUOUS
 10
3.1144069464
 20
21.0787234247
 11
2.9809323702
 21
21.1521276712
  0
LINE
  5
527
100
AcDbEntity
  8
0
100
AcDbLine
 62
7
  6
CONTINUOUS
 10
4.894067793
 20
20.6382978767
 11
4.9830505044
 21
20.5893617123
  0
LINE
  5
528
100
AcDbEntity
  8
0
100
AcDbLine
 62
7
  6
CONTINUOUS
 10
5.1610169455
 20
20.6627659589
 11
5.0275423693
 21
20.7361702055
  0
LINE
  5
529
100
AcDbEntity
  8
0
100
AcDbLine
 62
7
  6
CONTINUOUS
 10
5.1165250806
 20
21.0542553425
 11
4.9830505044
 21
21.1521276712
  0
LINE
  5
52A
100
AcDbEntity
  8
0
100
AcDbLine
 62
7
  6
CONTINUOUS
 10
10.0205940438
 20
-30.0657276326
 11
9.4362799967
 21
-30.8776965032
  0
LINE
  5
52B
100
AcDbEntity
  8
0
100
AcDbLine
 62
7
  6
CONTINUOUS
 10
9.5882870231
 20
-30.8776965032
 11
9.9902400673
 21
-30.3189935514
  0
LINE
  5
52C
100
AcDbEntity
  8
0
100
AcDbLine
 62
7
  6
CONTINUOUS
 10
4.9560355
 20
24.8999415
 11
5.541757
 21
24.899948
  0
LINE
  5
52D
100
AcDbEntity
  8
0
100
AcDbLine
 62
7
  6
CONTINUOUS
 10
0.924625
 20
24.899935
 11
1.4446445
 21
24.8999415
  0
LINE
  5
52E
100
AcDbEntity
  8
0
100
AcDbLine
 62
7
  6
CONTINUOUS
 10
-1.9653985
 20
24.899935
 11
-1.445379
 21
24.899935
  0
LINE
  5
52F
100
AcDbEntity
  8
0
100
AcDbLine
 62
7
  6
CONTINUOUS
 10
0.057928
 20
24.899935
 11
0.5779475
 21
24.899935
  0
LINE
  5
530
100
AcDbEntity
  8
0
100
AcDbLine
 62
7
  6
CONTINUOUS
 10
3.460964
 20
24.8999415
 11
3.98099
 21
24.8999415
  0
LINE
  5
531
100
AcDbEntity
  8
0
100
AcDbLine
 62
7
  6
CONTINUOUS
 10
-0.953732
 20
24.899935
 11
-0.4337255
 21
24.8999415
  0
LINE
  5
532
100
AcDbEntity
  8
0
100
AcDbLine
 62
7
  6
CONTINUOUS
 10
-3.0054245
 20
24.8999285
 11
-2.485405
 21
24.899935
  0
LINE
  5
533
100
AcDbEntity
  8
0
100
AcDbLine
 62
7
  6
CONTINUOUS
 10
2.5942605
 20
24.8999415
 11
3.1142865
 21
24.899935
  0
LINE
  5
534
100
AcDbEntity
  8
0
100
AcDbLine
 62
7
  6
CONTINUOUS
 10
-4.706949
 20
24.8999285
 11
-4.18691
 21
24.899935
  0
LINE
  5
535
100
AcDbEntity
  8
0
100
AcDbLine
 62
7
  6
CONTINUOUS
 10
1.608815
 20
25.4112705
 11
2.4300965
 21
25.4112705
  0
LINE
  5
536
100
AcDbEntity
  8
0
100
AcDbLine
 62
7
  6
CONTINUOUS
 10
2.2714705
 20
25.90529
 11
1.7674345
 21
25.90529
  0
LINE
  5
537
100
AcDbEntity
  8
0
100
AcDbLine
 62
7
  6
CONTINUOUS
 10
3.9810485
 20
25.9052965
 11
4.434911
 21
25.90529
  0
LINE
  5
538
100
AcDbEntity
  8
0
100
AcDbLine
 62
7
  6
CONTINUOUS
 10
4.6065150287
 20
26.386316
 11
3.9738205
 21
26.386316
  0
LINE
  5
539
100
AcDbEntity
  8
0
100
AcDbLine
 62
7
  6
CONTINUOUS
 10
3.973814
 20
27.019039
 11
4.606496
 21
27.019039
  0
LINE
  5
53A
100
AcDbEntity
  8
0
100
AcDbLine
 62
7
  6
CONTINUOUS
 10
0.5779475
 20
27.500052
 11
-0.208182
 21
27.500052
  0
LINE
  5
53B
100
AcDbEntity
  8
0
100
AcDbLine
 62
7
  6
CONTINUOUS
 10
-1.179269
 20
27.500052
 11
-1.9653985
 21
27.500052
  0
LINE
  5
53C
100
AcDbEntity
  8
0
100
AcDbLine
 62
7
  6
CONTINUOUS
 10
-2.4853985
 20
27.500052
 11
-3.005418
 21
27.500052
  0
LINE
  5
53D
100
AcDbEntity
  8
0
100
AcDbLine
 62
7
  6
CONTINUOUS
 10
-3.3520955
 20
27.500052
 11
-3.8721215
 21
27.500052
  0
LINE
  5
53E
100
AcDbEntity
  8
0
100
AcDbLine
 62
7
  6
CONTINUOUS
 10
-5.021731
 20
27.500052
 11
-5.541757
 21
27.500052
  0
LINE
  5
53F
100
AcDbEntity
  8
0
100
AcDbLine
 62
7
  6
CONTINUOUS
 10
4.6787043564
 20
27.5000585
 11
3.460964
 21
27.5000585
  0
LINE
  5
540
100
AcDbEntity
  8
0
100
AcDbLine
 62
7
  6
CONTINUOUS
 10
2.279472
 20
27.5000585
 11
1.7594265
 21
27.5000585
  0
LINE
  5
541
100
AcDbEntity
  8
0
100
AcDbLine
 62
7
  6
CONTINUOUS
 10
6.75
 20
28.375
 11
-6.75
 21
28.375
  0
LINE
  5
542
100
AcDbEntity
  8
0
100
AcDbLine
 62
250
  6
CONTINUOUS
 10
-51.7109085847
 20
39.75
 11
-51.7
 21
39.75
  0
LINE
  5
543
100
AcDbEntity
  8
0
100
AcDbLine
 62
250
  6
CONTINUOUS
 10
51.7109085847
 20
39.75
 11
51.7
 21
39.75
  0
LINE
  5
544
100
AcDbEntity
  8
0
100
AcDbLine
 62
250
  6
CONTINUOUS
 10
-51.9412636126
 20
39.75
 11
-52.6956556053
 21
39.75
  0
LINE
  5
545
100
AcDbEntity
  8
0
100
AcDbLine
 62
250
  6
CONTINUOUS
 10
51.9412636126
 20
39.75
 11
52.6956556053
 21
39.75
  0
LINE
  5
546
100
AcDbEntity
  8
0
100
AcDbLine
 62
250
  6
CONTINUOUS
 10
53.0
 20
39.75
 11
53.75
 21
39.75
  0
LINE
  5
547
100
AcDbEntity
  8
0
100
AcDbLine
 62
250
  6
CONTINUOUS
 10
-53.0
 20
39.75
 11
-53.75
 21
39.75
  0
LINE
  5
548
100
AcDbEntity
  8
0
100
AcDbLine
 62
7
  6
CONTINUOUS
 10
-50.0
 20
41.45
 11
50.0
 21
41.45
  0
LINE
  5
549
100
AcDbEntity
  8
0
100
AcDbLine
 62
7
  6
CONTINUOUS
 10
-50.0
 20
41.4609085847
 11
50.0
 21
41.4609085847
  0
LINE
  5
54A
100
AcDbEntity
  8
0
100
AcDbLine
 62
250
  6
CONTINUOUS
 10
50.0
 20
41.6912636126
 11
-50.0
 21
41.6912636126
  0
LINE
  5
54B
100
AcDbEntity
  8
0
100
AcDbLine
 62
7
  6
CONTINUOUS
 10
50.0
 20
41.9412540934
 11
-50.0
 21
41.9412540934
  0
LINE
  5
54C
100
AcDbEntity
  8
0
100
AcDbLine
 62
250
  6
CONTINUOUS
 10
50.0
 20
41.9456746438
 11
-50.0
 21
41.9456746438
  0
LINE
  5
54D
100
AcDbEntity
  8
0
100
AcDbLine
 62
250
  6
CONTINUOUS
 10
50.0
 20
42.4456556053
 11
-50.0
 21
42.4456556053
  0
LINE
  5
54E
100
AcDbEntity
  8
0
100
AcDbLine
 62
250
  6
CONTINUOUS
 10
-50.0
 20
42.75
 11
50.0
 21
42.75
  0
LINE
  5
54F
100
AcDbEntity
  8
0
100
AcDbLine
 62
7
  6
CONTINUOUS
 10
-50.0
 20
43.25
 11
50.0
 21
43.25
  0
LINE
  5
550
100
AcDbEntity
  8
0
100
AcDbLine
 62
250
  6
CONTINUOUS
 10
-50.0
 20
43.5
 11
50.0
 21
43.5
  0
LINE
  5
551
100
AcDbEntity
  8
0
100
AcDbLine
 62
7
  6
CONTINUOUS
 10
-50.0
 20
44.75
 11
50.0
 21
44.75
  0
LINE
  5
552
100
AcDbEntity
  8
0
100
AcDbLine
 62
250
  6
CONTINUOUS
 10
50.0
 20
41.4609085847
 11
50.0
 21
41.45
  0
LINE
  5
553
100
AcDbEntity
  8
0
100
AcDbLine
 62
250
  6
CONTINUOUS
 10
50.0
 20
-41.4609085847
 11
50.0
 21
-41.45
  0
LINE
  5
554
100
AcDbEntity
  8
0
100
AcDbLine
 62
250
  6
CONTINUOUS
 10
50.0
 20
-41.6912636126
 11
50.0
 21
-42.4456556053
  0
LINE
  5
555
100
AcDbEntity
  8
0
100
AcDbLine
 62
250
  6
CONTINUOUS
 10
50.0
 20
-42.75
 11
50.0
 21
-43.5
  0
LINE
  5
556
100
AcDbEntity
  8
0
100
AcDbLine
 62
250
  6
CONTINUOUS
 10
50.0
 20
41.6912636126
 11
50.0
 21
42.4456556053
  0
LINE
  5
557
100
AcDbEntity
  8
0
100
AcDbLine
 62
250
  6
CONTINUOUS
 10
50.0
 20
42.75
 11
50.0
 21
43.5
  0
LINE
  5
558
100
AcDbEntity
  8
0
100
AcDbLine
 62
7
  6
CONTINUOUS
 10
51.7
 20
39.75
 11
51.7
 21
-39.75
  0
LINE
  5
559
100
AcDbEntity
  8
0
100
AcDbLine
 62
7
  6
CONTINUOUS
 10
51.7109085847
 20
39.75
 11
51.7109085847
 21
-39.75
  0
LINE
  5
55A
100
AcDbEntity
  8
0
100
AcDbLine
 62
250
  6
CONTINUOUS
 10
51.9412636126
 20
-39.75
 11
51.9412636126
 21
39.75
  0
LINE
  5
55B
100
AcDbEntity
  8
0
100
AcDbLine
 62
7
  6
CONTINUOUS
 10
52.1912540934
 20
-39.75
 11
52.1912540934
 21
39.75
  0
LINE
  5
55C
100
AcDbEntity
  8
0
100
AcDbLine
 62
250
  6
CONTINUOUS
 10
52.1956746438
 20
-39.75
 11
52.1956746438
 21
39.75
  0
LINE
  5
55D
100
AcDbEntity
  8
0
100
AcDbLine
 62
250
  6
CONTINUOUS
 10
52.6956556053
 20
-39.75
 11
52.6956556053
 21
39.75
  0
LINE
  5
55E
100
AcDbEntity
  8
0
100
AcDbLine
 62
250
  6
CONTINUOUS
 10
53.0
 20
39.75
 11
53.0
 21
-39.75
  0
LINE
  5
55F
100
AcDbEntity
  8
0
100
AcDbLine
 62
7
  6
CONTINUOUS
 10
53.5
 20
39.75
 11
53.5
 21
-39.75
  0
LINE
  5
560
100
AcDbEntity
  8
0
100
AcDbLine
 62
250
  6
CONTINUOUS
 10
53.75
 20
39.75
 11
53.75
 21
-39.75
  0
LINE
  5
561
100
AcDbEntity
  8
0
100
AcDbLine
 62
7
  6
CONTINUOUS
 10
55.0
 20
39.75
 11
55.0
 21
-39.75
  0
ARC
  5
562
100
AcDbEntity
  8
0
100
AcDbCircle
 62
7
  6
CONTINUOUS
 10
-50.0
 20
-39.75
 40
5.0
100
AcDbArc
 50
180.0
 51
270.0
  0
ARC
  5
563
100
AcDbEntity
  8
0
100
AcDbCircle
 62
250
  6
CONTINUOUS
 10
-50.0
 20
-39.75
 40
3.75
100
AcDbArc
 50
180.0
 51
270.0
  0
ARC
  5
564
100
AcDbEntity
  8
0
100
AcDbCircle
 62
7
  6
CONTINUOUS
 10
-50.0
 20
-39.75
 40
3.5
100
AcDbArc
 50
180.0
 51
270.0
  0
ARC
  5
565
100
AcDbEntity
  8
0
100
AcDbCircle
 62
250
  6
CONTINUOUS
 10
-50.0
 20
-39.75
 40
3.0
100
AcDbArc
 50
180.0
 51
270.0
  0
ARC
  5
566
100
AcDbEntity
  8
0
100
AcDbCircle
 62
250
  6
CONTINUOUS
 10
-50.0
 20
-39.75
 40
2.6956556053
100
AcDbArc
 50
180.0
 51
270.0
  0
CIRCLE
  5
567
100
AcDbEntity
  8
RACCORDO
100
AcDbCircle
 62
250
  6
CONTINUOUS
 10
-45.0
 20
-34.75
 40
2.6200873914
  0
ARC
  5
568
100
AcDbEntity
  8
0
100
AcDbCircle
 62
7
  6
CONTINUOUS
 10
-1.9448746437
 20
-30.0668020717
 40
2.5897466201
100
AcDbArc
 50
159.0191965858
 51
163.7921491218
  0
ARC
  5
569
100
AcDbEntity
  8
0
100
AcDbCircle
 62
7
  6
CONTINUOUS
 10
-1.9448746437
 20
-31.9002989966
 40
2.5897466201
100
AcDbArc
 50
159.0191965858
 51
163.7921491218
  0
ARC
  5
56A
100
AcDbEntity
  8
0
100
AcDbCircle
 62
250
  6
CONTINUOUS
 10
-50.0
 20
-39.75
 40
2.1956746438
100
AcDbArc
 50
180.0
 51
270.0
  0
ARC
  5
56B
100
AcDbEntity
  8
0
100
AcDbCircle
 62
7
  6
CONTINUOUS
 10
-50.0
 20
-39.75
 40
2.1912540934
100
AcDbArc
 50
180.0
 51
270.0
  0
ARC
  5
56C
100
AcDbEntity
  8
0
100
AcDbCircle
 62
250
  6
CONTINUOUS
 10
-50.0
 20
-39.75
 40
1.9412636126
100
AcDbArc
 50
180.0
 51
270.0
  0
CIRCLE
  5
56D
100
AcDbEntity
  8
RACCORDO
100
AcDbCircle
 62
250
  6
CONTINUOUS
 10
-45.0
 20
-34.75
 40
1.8748225746
  0
ARC
  5
56E
100
AcDbEntity
  8
0
100
AcDbCircle
 62
7
  6
CONTINUOUS
 10
-50.0
 20
-39.75
 40
1.7109085847
100
AcDbArc
 50
180.0
 51
270.0
  0
ARC
  5
56F
100
AcDbEntity
  8
0
100
AcDbCircle
 62
7
  6
CONTINUOUS
 10
-50.0
 20
-39.75
 40
1.7
100
AcDbArc
 50
180.0
 51
270.0
  0
CIRCLE
  5
570
100
AcDbEntity
  8
ASSI
100
AcDbCircle
 62
7
  6
CONTINUOUS
 10
-45.0
 20
-34.75
 40
1.6
  0
ARC
  5
571
100
AcDbEntity
  8
0
100
AcDbCircle
 62
7
  6
CONTINUOUS
 10
-2.7384006964
 20
-28.0572978981
 40
1.4205324715
100
AcDbArc
 50
337.4191892411
 51
347.6454766647
  0
ARC
  5
572
100
AcDbEntity
  8
0
100
AcDbCircle
 62
7
  6
CONTINUOUS
 10
-4.195391567
 20
-29.890794823
 40
1.4205324715
100
AcDbArc
 50
337.4191892411
 51
347.6454766647
  0
ARC
  5
573
100
AcDbEntity
  8
0
100
AcDbCircle
 62
7
  6
CONTINUOUS
 10
-4.4335990696
 20
-33.572965661
 40
1.4205324715
100
AcDbArc
 50
337.4191892411
 51
347.6454766647
  0
ARC
  5
574
100
AcDbEntity
  8
ASSI
100
AcDbCircle
 62
7
  6
CONTINUOUS
 10
-0.483777
 20
-22.0
 40
1.2749992699
100
AcDbArc
 50
87.7525290943
 51
272.2474708981
  0
ARC
  5
575
100
AcDbEntity
  8
ASSI
100
AcDbCircle
 62
7
  6
CONTINUOUS
 10
-0.483777
 20
-22.0
 40
0.8999999623
100
AcDbArc
 50
86.8152613297
 51
273.1847386544
  0
CIRCLE
  5
576
100
AcDbEntity
  8
0
100
AcDbCircle
 62
7
  6
CONTINUOUS
 10
-45.0
 20
-34.75
 40
0.825
  0
ARC
  5
577
100
AcDbEntity
  8
0
100
AcDbCircle
 62
7
  6
CONTINUOUS
 10
-50.0
 20
39.75
 40
5.0
100
AcDbArc
 50
90.0
 51
180.0
  0
ARC
  5
578
100
AcDbEntity
  8
0
100
AcDbCircle
 62
250
  6
CONTINUOUS
 10
-50.0
 20
39.75
 40
3.75
100
AcDbArc
 50
90.0
 51
180.0
  0
ARC
  5
579
100
AcDbEntity
  8
0
100
AcDbCircle
 62
7
  6
CONTINUOUS
 10
-50.0
 20
39.75
 40
3.5
100
AcDbArc
 50
90.0
 51
180.0
  0
ARC
  5
57A
100
AcDbEntity
  8
0
100
AcDbCircle
 62
250
  6
CONTINUOUS
 10
-50.0
 20
39.75
 40
3.0
100
AcDbArc
 50
90.0
 51
180.0
  0
ARC
  5
57B
100
AcDbEntity
  8
0
100
AcDbCircle
 62
250
  6
CONTINUOUS
 10
-50.0
 20
39.75
 40
2.6956556053
100
AcDbArc
 50
90.0
 51
180.0
  0
CIRCLE
  5
57C
100
AcDbEntity
  8
RACCORDO
100
AcDbCircle
 62
250
  6
CONTINUOUS
 10
-45.0
 20
34.75
 40
2.6200873914
  0
ARC
  5
57D
100
AcDbEntity
  8
0
100
AcDbCircle
 62
250
  6
CONTINUOUS
 10
-50.0
 20
39.75
 40
2.1956746438
100
AcDbArc
 50
90.0
 51
180.0
  0
ARC
  5
57E
100
AcDbEntity
  8
0
100
AcDbCircle
 62
7
  6
CONTINUOUS
 10
-50.0
 20
39.75
 40
2.1912540934
100
AcDbArc
 50
90.0
 51
180.0
  0
ARC
  5
57F
100
AcDbEntity
  8
0
100
AcDbCircle
 62
250
  6
CONTINUOUS
 10
-50.0
 20
39.75
 40
1.9412636126
100
AcDbArc
 50
90.0
 51
180.0
  0
CIRCLE
  5
580
100
AcDbEntity
  8
RACCORDO
100
AcDbCircle
 62
250
  6
CONTINUOUS
 10
-45.0
 20
34.75
 40
1.8748225746
  0
ARC
  5
581
100
AcDbEntity
  8
0
100
AcDbCircle
 62
7
  6
CONTINUOUS
 10
-50.0
 20
39.75
 40
1.7109085847
100
AcDbArc
 50
90.0
 51
180.0
  0
ARC
  5
582
100
AcDbEntity
  8
0
100
AcDbCircle
 62
7
  6
CONTINUOUS
 10
-50.0
 20
39.75
 40
1.7
100
AcDbArc
 50
90.0
 51
180.0
  0
CIRCLE
  5
583
100
AcDbEntity
  8
ASSI
100
AcDbCircle
 62
7
  6
CONTINUOUS
 10
-45.0
 20
34.75
 40
1.6
  0
CIRCLE
  5
584
100
AcDbEntity
  8
0
100
AcDbCircle
 62
7
  6
CONTINUOUS
 10
-45.0
 20
34.75
 40
0.825
  0
ARC
  5
585
100
AcDbEntity
  8
0
100
AcDbCircle
 62
7
  6
CONTINUOUS
 10
50.0
 20
-39.75
 40
5.0
100
AcDbArc
 50
270.0
 51
360.0
  0
ARC
  5
586
100
AcDbEntity
  8
0
100
AcDbCircle
 62
250
  6
CONTINUOUS
 10
50.0
 20
-39.75
 40
3.75
100
AcDbArc
 50
270.0
 51
360.0
  0
ARC
  5
587
100
AcDbEntity
  8
0
100
AcDbCircle
 62
7
  6
CONTINUOUS
 10
50.0
 20
-39.75
 40
3.5
100
AcDbArc
 50
270.0
 51
360.0
  0
ARC
  5
588
100
AcDbEntity
  8
0
100
AcDbCircle
 62
250
  6
CONTINUOUS
 10
50.0
 20
-39.75
 40
3.0
100
AcDbArc
 50
270.0
 51
360.0
  0
ARC
  5
589
100
AcDbEntity
  8
0
100
AcDbCircle
 62
250
  6
CONTINUOUS
 10
50.0
 20
-39.75
 40
2.6956556053
100
AcDbArc
 50
270.0
 51
360.0
  0
CIRCLE
  5
58A
100
AcDbEntity
  8
RACCORDO
100
AcDbCircle
 62
250
  6
CONTINUOUS
 10
45.0
 20
-34.75
 40
2.6200873914
  0
ARC
  5
58B
100
AcDbEntity
  8
0
100
AcDbCircle
 62
7
  6
CONTINUOUS
 10
3.4808986504
 20
-31.9002989966
 40
2.5897466201
100
AcDbArc
 50
159.0191965858
 51
163.7921491218
  0
ARC
  5
58C
100
AcDbEntity
  8
0
100
AcDbCircle
 62
7
  6
CONTINUOUS
 10
14.1928881595
 20
-33.7262074274
 40
2.5897466201
100
AcDbArc
 50
159.0191965858
 51
163.7921491218
  0
ARC
  5
58D
100
AcDbEntity
  8
0
100
AcDbCircle
 62
250
  6
CONTINUOUS
 10
50.0
 20
-39.75
 40
2.1956746438
100
AcDbArc
 50
270.0
 51
360.0
  0
ARC
  5
58E
100
AcDbEntity
  8
0
100
AcDbCircle
 62
7
  6
CONTINUOUS
 10
50.0
 20
-39.75
 40
2.1912540934
100
AcDbArc
 50
270.0
 51
360.0
  0
ARC
  5
58F
100
AcDbEntity
  8
0
100
AcDbCircle
 62
250
  6
CONTINUOUS
 10
50.0
 20
-39.75
 40
1.9412636126
100
AcDbArc
 50
270.0
 51
360.0
  0
CIRCLE
  5
590
100
AcDbEntity
  8
RACCORDO
100
AcDbCircle
 62
250
  6
CONTINUOUS
 10
45.0
 20
-34.75
 40
1.8748225746
  0
ARC
  5
591
100
AcDbEntity
  8
0
100
AcDbCircle
 62
7
  6
CONTINUOUS
 10
50.0
 20
-39.75
 40
1.7109085847
100
AcDbArc
 50
270.0
 51
360.0
  0
ARC
  5
592
100
AcDbEntity
  8
0
100
AcDbCircle
 62
7
  6
CONTINUOUS
 10
50.0
 20
-39.75
 40
1.7
100
AcDbArc
 50
270.0
 51
360.0
  0
CIRCLE
  5
593
100
AcDbEntity
  8
ASSI
100
AcDbCircle
 62
7
  6
CONTINUOUS
 10
45.0
 20
-34.75
 40
1.6
  0
ARC
  5
594
100
AcDbEntity
  8
0
100
AcDbCircle
 62
7
  6
CONTINUOUS
 10
2.4900717506
 20
-28.0572978981
 40
1.4205324715
100
AcDbArc
 50
337.4191892411
 51
347.6454766647
  0
ARC
  5
595
100
AcDbEntity
  8
0
100
AcDbCircle
 62
7
  6
CONTINUOUS
 10
5.9731905506
 20
-29.890794823
 40
1.4205324715
100
AcDbArc
 50
337.4191892411
 51
347.6454766647
  0
ARC
  5
596
100
AcDbEntity
  8
0
100
AcDbCircle
 62
7
  6
CONTINUOUS
 10
8.6489647892
 20
-31.7167032538
 40
1.4205324715
100
AcDbArc
 50
337.4191892411
 51
347.6454766647
  0
ARC
  5
597
100
AcDbEntity
  8
0
100
AcDbCircle
 62
7
  6
CONTINUOUS
 10
0.9011122951
 20
-31.7167032538
 40
1.4205324715
100
AcDbArc
 50
337.4191892411
 51
347.6454766647
  0
ARC
  5
598
100
AcDbEntity
  8
ASSI
100
AcDbCircle
 62
7
  6
CONTINUOUS
 10
1.708778
 20
-22.0
 40
1.2749993288
100
AcDbArc
 50
87.7525290045
 51
272.2474707947
  0
ARC
  5
599
100
AcDbEntity
  8
ASSI
100
AcDbCircle
 62
7
  6
CONTINUOUS
 10
1.708778
 20
-22.0
 40
0.8999999623
100
AcDbArc
 50
86.8152613297
 51
167.9752999778
  0
ARC
  5
59A
100
AcDbEntity
  8
ASSI
100
AcDbCircle
 62
7
  6
CONTINUOUS
 10
1.708778
 20
-22.0
 40
0.8999984404
100
AcDbArc
 50
192.0247203293
 51
273.1847444946
  0
CIRCLE
  5
59B
100
AcDbEntity
  8
0
100
AcDbCircle
 62
7
  6
CONTINUOUS
 10
45.0
 20
-34.75
 40
0.825
  0
ARC
  5
59C
100
AcDbEntity
  8
0
100
AcDbCircle
 62
7
  6
CONTINUOUS
 10
2.9593919554
 20
-30.6987337643
 40
0.8218463739
100
AcDbArc
 50
196.865268105
 51
202.9197652111
  0
ARC
  5
59D
100
AcDbEntity
  8
0
100
AcDbCircle
 62
7
  6
CONTINUOUS
 10
9.1182849939
 20
-32.5246421951
 40
0.8218463739
100
AcDbArc
 50
196.865268105
 51
202.9197652111
  0
ARC
  5
59E
100
AcDbEntity
  8
0
100
AcDbCircle
 62
7
  6
CONTINUOUS
 10
50.0
 20
39.75
 40
5.0
100
AcDbArc
 50
0.0
 51
90.0
  0
ARC
  5
59F
100
AcDbEntity
  8
0
100
AcDbCircle
 62
250
  6
CONTINUOUS
 10
50.0
 20
39.75
 40
3.75
100
AcDbArc
 50
0.0
 51
90.0
  0
ARC
  5
5A0
100
AcDbEntity
  8
0
100
AcDbCircle
 62
7
  6
CONTINUOUS
 10
50.0
 20
39.75
 40
3.5
100
AcDbArc
 50
0.0
 51
90.0
  0
ARC
  5
5A1
100
AcDbEntity
  8
0
100
AcDbCircle
 62
250
  6
CONTINUOUS
 10
50.0
 20
39.75
 40
3.0
100
AcDbArc
 50
0.0
 51
90.0
  0
ARC
  5
5A2
100
AcDbEntity
  8
0
100
AcDbCircle
 62
250
  6
CONTINUOUS
 10
50.0
 20
39.75
 40
2.6956556053
100
AcDbArc
 50
0.0
 51
90.0
  0
CIRCLE
  5
5A3
100
AcDbEntity
  8
RACCORDO
100
AcDbCircle
 62
250
  6
CONTINUOUS
 10
45.0
 20
34.75
 40
2.6200873914
  0
ARC
  5
5A4
100
AcDbEntity
  8
0
100
AcDbCircle
 62
250
  6
CONTINUOUS
 10
50.0
 20
39.75
 40
2.1956746438
100
AcDbArc
 50
0.0
 51
90.0
  0
ARC
  5
5A5
100
AcDbEntity
  8
0
100
AcDbCircle
 62
7
  6
CONTINUOUS
 10
50.0
 20
39.75
 40
2.1912540934
100
AcDbArc
 50
0.0
 51
90.0
  0
ARC
  5
5A6
100
AcDbEntity
  8
0
100
AcDbCircle
 62
250
  6
CONTINUOUS
 10
50.0
 20
39.75
 40
1.9412636126
100
AcDbArc
 50
0.0
 51
90.0
  0
CIRCLE
  5
5A7
100
AcDbEntity
  8
RACCORDO
100
AcDbCircle
 62
250
  6
CONTINUOUS
 10
45.0
 20
34.75
 40
1.8748225746
  0
ARC
  5
5A8
100
AcDbEntity
  8
ASSI
100
AcDbCircle
 62
7
  6
CONTINUOUS
 10
3.25
 20
17.625
 40
1.7116797875
100
AcDbArc
 50
292.0885367687
 51
273.4298409191
  0
ARC
  5
5A9
100
AcDbEntity
  8
0
100
AcDbCircle
 62
7
  6
CONTINUOUS
 10
50.0
 20
39.75
 40
1.7109085847
100
AcDbArc
 50
0.0
 51
90.0
  0
ARC
  5
5AA
100
AcDbEntity
  8
0
100
AcDbCircle
 62
7
  6
CONTINUOUS
 10
50.0
 20
39.75
 40
1.7
100
AcDbArc
 50
0.0
 51
90.0
  0
CIRCLE
  5
5AB
100
AcDbEntity
  8
ASSI
100
AcDbCircle
 62
7
  6
CONTINUOUS
 10
45.0
 20
34.75
 40
1.6
  0
ARC
  5
5AC
100
AcDbEntity
  8
ASSI
100
AcDbCircle
 62
7
  6
CONTINUOUS
 10
3.198229
 20
14.3982635
 40
1.5259312395
100
AcDbArc
 50
47.231270393
 51
84.2011529611
  0
ARC
  5
5AD
100
AcDbEntity
  8
ASSI
100
AcDbCircle
 62
7
  6
CONTINUOUS
 10
3.318319
 20
14.64543
 40
1.5076191274
100
AcDbArc
 50
45.4348897783
 51
67.5658709696
  0
CIRCLE
  5
5AE
100
AcDbEntity
  8
ASSI
100
AcDbCircle
 62
7
  6
CONTINUOUS
 10
3.25
 20
17.625
 40
1.4376915
  0
ARC
  5
5AF
100
AcDbEntity
  8
ASSI
100
AcDbCircle
 62
7
  6
CONTINUOUS
 10
3.25
 20
17.625
 40
1.2858141634
100
AcDbArc
 50
299.3041446576
 51
44.9957783159
  0
ARC
  5
5B0
100
AcDbEntity
  8
ASSI
100
AcDbCircle
 62
7
  6
CONTINUOUS
 10
3.25
 20
17.625
 40
1.2858141109
100
AcDbArc
 50
134.9002751525
 51
240.6958553424
  0
ARC
  5
5B1
100
AcDbEntity
  8
ASSI
100
AcDbCircle
 62
7
  6
CONTINUOUS
 10
3.25
 20
17.625
 40
1.0301695955
100
AcDbArc
 50
148.0267353487
 51
240.6958433001
  0
ARC
  5
5B2
100
AcDbEntity
  8
ASSI
100
AcDbCircle
 62
7
  6
CONTINUOUS
 10
3.25
 20
17.625
 40
1.0301693978
100
AcDbArc
 50
299.3041566999
 51
31.9732630587
  0
CIRCLE
  5
5B3
100
AcDbEntity
  8
0
100
AcDbCircle
 62
7
  6
CONTINUOUS
 10
45.0
 20
34.75
 40
0.825
  0
ARC
  5
5B4
100
AcDbEntity
  8
0
100
AcDbCircle
 62
7
  6
CONTINUOUS
 10
4.6786735
 20
26.7026765
 40
0.7973846514
100
AcDbArc
 50
292.8428777305
 51
89.9977828195
  0
ARC
  5
5B5
100
AcDbEntity
  8
0
100
AcDbCircle
 62
7
  6
CONTINUOUS
 10
4.606496
 20
26.7026765
 40
0.3163625
100
AcDbArc
 50
270.0034462768
 51
90.0
  0
SPLINE
  5
5B6
100
AcDbEntity
  8
0
100
AcDbSpline
 62
7
  6
CONTINUOUS
 70
0
 71
3
 72
16
 73
12
 74
0
 42
0.0000001
 43
0.0000001
 44
0.0000000001
 40
0.0
 40
0.0
 40
0.0
 40
0.0
 40
0.081582199
 40
0.1574553967
 40
0.3066287736
 40
0.384848994
 40
0.5792892447
 40
0.6959714606
 40
0.8475957974
 40
0.961835767
 40
1.0
 40
1.0
 40
1.0
 40
1.0
 10
0.5346227729
 20
17.377888928
 30
0.0
 10
0.5177069458
 20
17.377888928
 30
0.0
 10
0.4849879673
 20
17.3821613752
 30
0.0
 10
0.4246666042
 20
17.4041746772
 30
0.0
 10
0.3768947774
 20
17.4483771235
 30
0.0
 10
0.327649782
 20
17.5208893942
 30
0.0
 10
0.303887998
 20
17.5996334357
 30
0.0
 10
0.2849518808
 20
17.693466841
 30
0.0
 10
0.2755943931
 20
17.7724470856
 30
0.0
 10
0.2735850834
 20
17.8354861764
 30
0.0
 10
0.2737292464
 20
17.8670867594
 30
0.0
 10
0.2737292464
 20
17.875
 30
0.0
  0
SPLINE
  5
5B7
100
AcDbEntity
  8
0
100
AcDbSpline
 62
7
  6
CONTINUOUS
 70
0
 71
3
 72
16
 73
12
 74
0
 42
0.0000001
 43
0.0000001
 44
0.0000000001
 40
0.0
 40
0.0
 40
0.0
 40
0.0
 40
0.038164233
 40
0.1524042026
 40
0.3040285394
 40
0.4207107553
 40
0.615151006
 40
0.6933712264
 40
0.8425446033
 40
0.918417801
 40
1.0
 40
1.0
 40
1.0
 40
1.0
 10
0.2737292464
 20
17.875
 30
0.0
 10
0.2737292464
 20
17.8829132406
 30
0.0
 10
0.2735850834
 20
17.9145138236
 30
0.0
 10
0.2755943931
 20
17.9775529144
 30
0.0
 10
0.2849518808
 20
18.056533159
 30
0.0
 10
0.303887998
 20
18.1503665643
 30
0.0
 10
0.327649782
 20
18.2291106058
 30
0.0
 10
0.3768947774
 20
18.3016228765
 30
0.0
 10
0.4246666042
 20
18.3458253228
 30
0.0
 10
0.4849879673
 20
18.3678386248
 30
0.0
 10
0.5177069458
 20
18.372111072
 30
0.0
 10
0.5346227729
 20
18.372111072
 30
0.0
  0
SPLINE
  5
5B8
100
AcDbEntity
  8
0
100
AcDbSpline
 62
7
  6
CONTINUOUS
 70
0
 71
3
 72
16
 73
12
 74
0
 42
0.0000001
 43
0.0000001
 44
0.0000000001
 40
0.0
 40
0.0
 40
0.0
 40
0.0
 40
0.081582199
 40
0.1574553967
 40
0.3066287736
 40
0.384848994
 40
0.5792892447
 40
0.6959714606
 40
0.8475957974
 40
0.961835767
 40
1.0
 40
1.0
 40
1.0
 40
1.0
 10
0.5346227729
 20
18.372111072
 30
0.0
 10
0.5515386
 20
18.372111072
 30
0.0
 10
0.5842575785
 20
18.3678386248
 30
0.0
 10
0.6445789416
 20
18.3458253228
 30
0.0
 10
0.6923507684
 20
18.3016228765
 30
0.0
 10
0.7415957638
 20
18.2291106058
 30
0.0
 10
0.7653575478
 20
18.1503665643
 30
0.0
 10
0.784293665
 20
18.056533159
 30
0.0
 10
0.7936511527
 20
17.9775529144
 30
0.0
 10
0.7956604624
 20
17.9145138236
 30
0.0
 10
0.7955162994
 20
17.8829132406
 30
0.0
 10
0.7955162994
 20
17.875
 30
0.0
  0
SPLINE
  5
5B9
100
AcDbEntity
  8
0
100
AcDbSpline
 62
7
  6
CONTINUOUS
 70
0
 71
3
 72
16
 73
12
 74
0
 42
0.0000001
 43
0.0000001
 44
0.0000000001
 40
0.0
 40
0.0
 40
0.0
 40
0.0
 40
0.038164233
 40
0.1524042026
 40
0.3040285394
 40
0.4207107553
 40
0.615151006
 40
0.6933712264
 40
0.8425446033
 40
0.918417801
 40
1.0
 40
1.0
 40
1.0
 40
1.0
 10
0.7955162994
 20
17.875
 30
0.0
 10
0.7955162994
 20
17.8670867594
 30
0.0
 10
0.7956604624
 20
17.8354861764
 30
0.0
 10
0.7936511527
 20
17.7724470856
 30
0.0
 10
0.784293665
 20
17.693466841
 30
0.0
 10
0.7653575478
 20
17.5996334357
 30
0.0
 10
0.7415957638
 20
17.5208893942
 30
0.0
 10
0.6923507684
 20
17.4483771235
 30
0.0
 10
0.6445789416
 20
17.4041746772
 30
0.0
 10
0.5842575785
 20
17.3821613752
 30
0.0
 10
0.5515386
 20
17.377888928
 30
0.0
 10
0.5346227729
 20
17.377888928
 30
0.0
  0
SPLINE
  5
5BA
100
AcDbEntity
  8
0
100
AcDbSpline
 62
7
  6
CONTINUOUS
 70
0
 71
3
 72
23
 73
19
 74
0
 42
0.0000001
 43
0.0000001
 44
0.0000000001
 40
0.0
 40
0.0
 40
0.0
 40
0.0
 40
0.1175716721
 40
0.2550368586
 40
0.3463162708
 40
0.4140846673
 40
0.5095606694
 40
0.6178461101
 40
0.6617319017
 40
0.7152414415
 40
0.7583771864
 40
0.8078403706
 40
0.8439461126
 40
0.889742133
 40
0.9288974336
 40
0.9679984913
 40
0.9901309194
 40
1.0
 40
1.0
 40
1.0
 40
1.0
 10
0.5346227729
 20
18.5123907019
 30
0.0
 10
0.5008958239
 20
18.5123907019
 30
0.0
 10
0.4275051297
 20
18.5030699751
 30
0.0
 10
0.3344500241
 20
18.4631219553
 30
0.0
 10
0.2689246726
 20
18.4076867212
 30
0.0
 10
0.222588441
 20
18.3510562353
 30
0.0
 10
0.1813521243
 20
18.2845066663
 30
0.0
 10
0.1563151217
 20
18.2175576003
 30
0.0
 10
0.1410514973
 20
18.1605750284
 30
0.0
 10
0.1318272916
 20
18.1213164871
 30
0.0
 10
0.1238172589
 20
18.0801691042
 30
0.0
 10
0.1180249804
 20
18.0436961349
 30
0.0
 10
0.1133323248
 20
18.0063016024
 30
0.0
 10
0.1100802254
 20
17.9717197154
 30
0.0
 10
0.1078981837
 20
17.9361959263
 30
0.0
 10
0.1069759206
 20
17.9074079886
 30
0.0
 10
0.1068228654
 20
17.8870111016
 30
0.0
 10
0.106835424
 20
17.8778310729
 30
0.0
 10
0.106835424
 20
17.875
 30
0.0
  0
SPLINE
  5
5BB
100
AcDbEntity
  8
0
100
AcDbSpline
 62
7
  6
CONTINUOUS
 70
0
 71
3
 72
23
 73
19
 74
0
 42
0.0000001
 43
0.0000001
 44
0.0000000001
 40
0.0
 40
0.0
 40
0.0
 40
0.0
 40
0.0098690806
 40
0.0320015087
 40
0.0711025664
 40
0.110257867
 40
0.1560538874
 40
0.1921596294
 40
0.2416228136
 40
0.2847585585
 40
0.3382680983
 40
0.3821538899
 40
0.4904393306
 40
0.5859153327
 40
0.6536837292
 40
0.7449631414
 40
0.8824283279
 40
1.0
 40
1.0
 40
1.0
 40
1.0
 10
0.106835424
 20
17.875
 30
0.0
 10
0.106835424
 20
17.8721689271
 30
0.0
 10
0.1068228654
 20
17.8629888984
 30
0.0
 10
0.1069759206
 20
17.8425920114
 30
0.0
 10
0.1078981837
 20
17.8138040737
 30
0.0
 10
0.1100802254
 20
17.7782802846
 30
0.0
 10
0.1133323248
 20
17.7436983976
 30
0.0
 10
0.1180249804
 20
17.7063038651
 30
0.0
 10
0.1238172589
 20
17.6698308958
 30
0.0
 10
0.1318272916
 20
17.6286835129
 30
0.0
 10
0.1410514973
 20
17.5894249716
 30
0.0
 10
0.1563151217
 20
17.5324423997
 30
0.0
 10
0.1813521243
 20
17.4654933337
 30
0.0
 10
0.222588441
 20
17.3989437647
 30
0.0
 10
0.2689246726
 20
17.3423132788
 30
0.0
 10
0.3344500241
 20
17.2868780447
 30
0.0
 10
0.4275051297
 20
17.2469300249
 30
0.0
 10
0.5008958239
 20
17.2376092981
 30
0.0
 10
0.5346227729
 20
17.2376092981
 30
0.0
  0
SPLINE
  5
5BC
100
AcDbEntity
  8
0
100
AcDbSpline
 62
7
  6
CONTINUOUS
 70
0
 71
3
 72
23
 73
19
 74
0
 42
0.0000001
 43
0.0000001
 44
0.0000000001
 40
0.0
 40
0.0
 40
0.0
 40
0.0
 40
0.1175716721
 40
0.2550368586
 40
0.3463162708
 40
0.4140846673
 40
0.5095606694
 40
0.6178461101
 40
0.6617319017
 40
0.7152414415
 40
0.7583771864
 40
0.8078403706
 40
0.8439461126
 40
0.889742133
 40
0.9288974336
 40
0.9679984913
 40
0.9901309194
 40
1.0
 40
1.0
 40
1.0
 40
1.0
 10
0.5346227729
 20
17.2376092981
 30
0.0
 10
0.5683497219
 20
17.2376092981
 30
0.0
 10
0.6417404161
 20
17.2469300249
 30
0.0
 10
0.7347955217
 20
17.2868780447
 30
0.0
 10
0.8003208732
 20
17.3423132788
 30
0.0
 10
0.8466571048
 20
17.3989437647
 30
0.0
 10
0.8878934215
 20
17.4654933337
 30
0.0
 10
0.9129304241
 20
17.5324423997
 30
0.0
 10
0.9281940485
 20
17.5894249716
 30
0.0
 10
0.9374182542
 20
17.6286835129
 30
0.0
 10
0.9454282869
 20
17.6698308958
 30
0.0
 10
0.9512205654
 20
17.7063038651
 30
0.0
 10
0.955913221
 20
17.7436983976
 30
0.0
 10
0.9591653204
 20
17.7782802846
 30
0.0
 10
0.9613473621
 20
17.8138040737
 30
0.0
 10
0.9622696252
 20
17.8425920114
 30
0.0
 10
0.9624226804
 20
17.8629888984
 30
0.0
 10
0.9624101218
 20
17.8721689271
 30
0.0
 10
0.9624101218
 20
17.875
 30
0.0
  0
SPLINE
  5
5BD
100
AcDbEntity
  8
0
100
AcDbSpline
 62
7
  6
CONTINUOUS
 70
0
 71
3
 72
23
 73
19
 74
0
 42
0.0000001
 43
0.0000001
 44
0.0000000001
 40
0.0
 40
0.0
 40
0.0
 40
0.0
 40
0.0098690806
 40
0.0320015087
 40
0.0711025664
 40
0.110257867
 40
0.1560538874
 40
0.1921596294
 40
0.2416228136
 40
0.2847585585
 40
0.3382680983
 40
0.3821538899
 40
0.4904393306
 40
0.5859153327
 40
0.6536837292
 40
0.7449631414
 40
0.8824283279
 40
1.0
 40
1.0
 40
1.0
 40
1.0
 10
0.9624101218
 20
17.875
 30
0.0
 10
0.9624101218
 20
17.8778310729
 30
0.0
 10
0.9624226804
 20
17.8870111016
 30
0.0
 10
0.9622696252
 20
17.9074079886
 30
0.0
 10
0.9613473621
 20
17.9361959263
 30
0.0
 10
0.9591653204
 20
17.9717197154
 30
0.0
 10
0.955913221
 20
18.0063016024
 30
0.0
 10
0.9512205654
 20
18.0436961349
 30
0.0
 10
0.9454282869
 20
18.0801691042
 30
0.0
 10
0.9374182542
 20
18.1213164871
 30
0.0
 10
0.9281940485
 20
18.1605750284
 30
0.0
 10
0.9129304241
 20
18.2175576003
 30
0.0
 10
0.8878934215
 20
18.2845066663
 30
0.0
 10
0.8466571048
 20
18.3510562353
 30
0.0
 10
0.8003208732
 20
18.4076867212
 30
0.0
 10
0.7347955217
 20
18.4631219553
 30
0.0
 10
0.6417404161
 20
18.5030699751
 30
0.0
 10
0.5683497219
 20
18.5123907019
 30
0.0
 10
0.5346227729
 20
18.5123907019
 30
0.0
  0
SPLINE
  5
5BE
100
AcDbEntity
  8
0
100
AcDbSpline
 62
7
  6
CONTINUOUS
 70
0
 71
3
 72
13
 73
9
 74
0
 42
0.0000001
 43
0.0000001
 44
0.0000000001
 40
0.0
 40
0.0
 40
0.0
 40
0.0
 40
0.0303432006
 40
0.4680449185
 40
0.6230006961
 40
0.7370643951
 40
0.8909834955
 40
1.0
 40
1.0
 40
1.0
 40
1.0
 10
-1.2035616131
 20
18.1439943553
 30
0.0
 10
-1.2035616131
 20
18.1402601709
 30
0.0
 10
-1.2029046046
 20
18.0828552521
 30
0.0
 10
-1.2290092191
 20
17.998437703
 30
0.0
 10
-1.3037889733
 20
17.9503780145
 30
0.0
 10
-1.3533638713
 20
17.9341182838
 30
0.0
 10
-1.3989825173
 20
17.9247430939
 30
0.0
 10
-1.4313815254
 20
17.9229406033
 30
0.0
 10
-1.4447976337
 20
17.9229406897
 30
0.0
  0
SPLINE
  5
5BF
100
AcDbEntity
  8
0
100
AcDbSpline
 62
7
  6
CONTINUOUS
 70
0
 71
3
 72
13
 73
9
 74
0
 42
0.0000001
 43
0.0000001
 44
0.0000000001
 40
0.0
 40
0.0
 40
0.0
 40
0.0
 40
0.1090102762
 40
0.2629304526
 40
0.3769949489
 40
0.5319518098
 40
0.9696565873
 40
1.0
 40
1.0
 40
1.0
 40
1.0
 10
-1.444795053
 20
18.3650480208
 30
0.0
 10
-1.4313798027
 20
18.3650480114
 30
0.0
 10
-1.3989816715
 20
18.3632454428
 30
0.0
 10
-1.3533638713
 20
18.3538704267
 30
0.0
 10
-1.3037889733
 20
18.337610696
 30
0.0
 10
-1.2290092191
 20
18.2895510075
 30
0.0
 10
-1.2029046046
 20
18.2051334585
 30
0.0
 10
-1.2035616131
 20
18.1477285396
 30
0.0
 10
-1.2035616131
 20
18.1439943553
 30
0.0
  0
SPLINE
  5
5C0
100
AcDbEntity
  8
0
100
AcDbSpline
 62
7
  6
CONTINUOUS
 70
0
 71
3
 72
14
 73
10
 74
0
 42
0.0000001
 43
0.0000001
 44
0.0000000001
 40
0.0
 40
0.0
 40
0.0
 40
0.0
 40
0.0943177834
 40
0.2454747603
 40
0.3513653544
 40
0.4920107357
 40
0.6227667481
 40
0.9774610051
 40
1.0
 40
1.0
 40
1.0
 40
1.0
 10
-1.4046176439
 20
17.7755936743
 30
0.0
 10
-1.3860027848
 20
17.7755935914
 30
0.0
 10
-1.3375100601
 20
17.7785139541
 30
0.0
 10
-1.2694342735
 20
17.7938233044
 30
0.0
 10
-1.1961966231
 20
17.8229589632
 30
0.0
 10
-1.1347184347
 20
17.8666994906
 30
0.0
 10
-1.0534012536
 20
17.960878751
 30
0.0
 10
-1.0253712908
 20
18.0651866241
 30
0.0
 10
-1.026012271
 20
18.1395459869
 30
0.0
 10
-1.026012271
 20
18.1439943553
 30
0.0
  0
SPLINE
  5
5C1
100
AcDbEntity
  8
0
100
AcDbSpline
 62
7
  6
CONTINUOUS
 70
0
 71
3
 72
14
 73
10
 74
0
 42
0.0000001
 43
0.0000001
 44
0.0000000001
 40
0.0
 40
0.0
 40
0.0
 40
0.0
 40
0.0225390898
 40
0.3772348402
 40
0.5079914032
 40
0.6486373767
 40
0.7545284166
 40
0.90568603
 40
1.0
 40
1.0
 40
1.0
 40
1.0
 10
-1.026012271
 20
18.1439943553
 30
0.0
 10
-1.026012271
 20
18.1484427236
 30
0.0
 10
-1.0253712908
 20
18.2228020864
 30
0.0
 10
-1.0534012536
 20
18.3271099596
 30
0.0
 10
-1.1347184347
 20
18.4212892199
 30
0.0
 10
-1.1961966231
 20
18.4650297473
 30
0.0
 10
-1.2694342735
 20
18.4941654062
 30
0.0
 10
-1.3375092443
 20
18.5094745729
 30
0.0
 10
-1.3860011213
 20
18.512395019
 30
0.0
 10
-1.4046151509
 20
18.5123950362
 30
0.0
  0
SPLINE
  5
5C2
100
AcDbEntity
  8
0
100
AcDbSpline
 62
7
  6
CONTINUOUS
 70
0
 71
3
 72
9
 73
5
 74
0
 42
0.0000001
 43
0.0000001
 44
0.0000000001
 40
0.0
 40
0.0
 40
0.0
 40
0.0
 40
0.7097160398
 40
1.0
 40
1.0
 40
1.0
 40
1.0
 10
3.8777081134
 20
-28.3612351077
 30
0.0
 10
3.8961242637
 20
-28.4242640036
 30
0.0
 10
3.9257531978
 20
-28.5119848491
 30
0.0
 10
3.9571444227
 20
-28.5990108849
 30
0.0
 10
3.9663986022
 20
-28.6242238172
 30
0.0
  0
SPLINE
  5
5C3
100
AcDbEntity
  8
0
100
AcDbSpline
 62
7
  6
CONTINUOUS
 70
0
 71
3
 72
9
 73
5
 74
0
 42
0.0000001
 43
0.0000001
 44
0.0000000001
 40
0.0
 40
0.0
 40
0.0
 40
0.0
 40
0.1935112737
 40
1.0
 40
1.0
 40
1.0
 40
1.0
 10
2.9427819006
 20
-28.2440876791
 30
0.0
 10
2.9309478679
 20
-28.2419042855
 30
0.0
 10
2.8692831095
 20
-28.2334405223
 30
0.0
 10
2.8068978988
 20
-28.2322307077
 30
0.0
 10
2.7567452806
 20
-28.2322307077
 30
0.0
  0
SPLINE
  5
5C4
100
AcDbEntity
  8
0
100
AcDbSpline
 62
7
  6
CONTINUOUS
 70
0
 71
3
 72
9
 73
5
 74
0
 42
0.0000001
 43
0.0000001
 44
0.0000000001
 40
0.0
 40
0.0
 40
0.0
 40
0.0
 40
0.3152731366
 40
1.0
 40
1.0
 40
1.0
 40
1.0
 10
2.7740564495
 20
-28.9683146371
 30
0.0
 10
2.8137505172
 20
-28.9683146371
 30
0.0
 10
2.9375690439
 20
-28.962924468
 30
0.0
 10
3.0726332861
 20
-28.9228383109
 30
0.0
 10
3.130300671
 20
-28.8587557026
 30
0.0
  0
SPLINE
  5
5C5
100
AcDbEntity
  8
0
100
AcDbSpline
 62
7
  6
CONTINUOUS
 70
0
 71
3
 72
16
 73
12
 74
0
 42
0.0000001
 43
0.0000001
 44
0.0000000001
 40
0.0
 40
0.0
 40
0.0
 40
0.0
 40
0.1817932221
 40
0.2741774579
 40
0.3715723252
 40
0.4293106645
 40
0.4852515918
 40
0.5943674147
 40
0.6975878083
 40
0.7935522041
 40
1.0
 40
1.0
 40
1.0
 40
1.0
 10
3.130300671
 20
-28.8587557026
 30
0.0
 10
3.1620550219
 20
-28.8234688306
 30
0.0
 10
3.2007292582
 20
-28.7605020715
 30
0.0
 10
3.2250994215
 20
-28.6661502024
 30
0.0
 10
3.2301004917
 20
-28.6013703062
 30
0.0
 10
3.2274269643
 20
-28.5462410165
 30
0.0
 10
3.2182846563
 20
-28.4886657558
 30
0.0
 10
3.1952063791
 20
-28.4218584586
 30
0.0
 10
3.1526309004
 20
-28.352643272
 30
0.0
 10
3.0745821849
 20
-28.2790655047
 30
0.0
 10
2.9959422427
 20
-28.2530410013
 30
0.0
 10
2.9427819006
 20
-28.2440876791
 30
0.0
  0
SPLINE
  5
5C6
100
AcDbEntity
  8
0
100
AcDbSpline
 62
7
  6
CONTINUOUS
 70
0
 71
3
 72
9
 73
5
 74
0
 42
0.0000001
 43
0.0000001
 44
0.0000000001
 40
0.0
 40
0.0
 40
0.0
 40
0.0
 40
0.8336714283
 40
1.0
 40
1.0
 40
1.0
 40
1.0
 10
2.7725151289
 20
-28.3764120959
 30
0.0
 10
2.8142745121
 20
-28.3764120959
 30
0.0
 10
2.8646456217
 20
-28.376635403
 30
0.0
 10
2.9141187382
 20
-28.3853435562
 30
0.0
 10
2.9221507148
 20
-28.3875576352
 30
0.0
  0
SPLINE
  5
5C7
100
AcDbEntity
  8
0
100
AcDbSpline
 62
7
  6
CONTINUOUS
 70
0
 71
3
 72
17
 73
13
 74
0
 42
0.0000001
 43
0.0000001
 44
0.0000000001
 40
0.0
 40
0.0
 40
0.0
 40
0.0
 40
0.09176738
 40
0.1854935455
 40
0.2845714694
 40
0.3366875922
 40
0.3919669409
 40
0.4667558016
 40
0.5348276636
 40
0.6616161808
 40
0.8052527647
 40
1.0
 40
1.0
 40
1.0
 40
1.0
 10
2.9221507148
 20
-28.3875576352
 30
0.0
 10
2.9423558323
 20
-28.3933141979
 30
0.0
 10
2.9816980599
 20
-28.4120276226
 30
0.0
 10
3.0271282642
 20
-28.4604626221
 30
0.0
 10
3.0511504308
 20
-28.512228855
 30
0.0
 10
3.060491984
 20
-28.5587282403
 30
0.0
 10
3.0629091657
 20
-28.6004610963
 30
0.0
 10
3.0595890892
 20
-28.6459507454
 30
0.0
 10
3.043949048
 20
-28.7058952657
 30
0.0
 10
2.9995078542
 20
-28.7738191071
 30
0.0
 10
2.8984713408
 20
-28.819241489
 30
0.0
 10
2.8204203256
 20
-28.8241332489
 30
0.0
 10
2.77583503
 20
-28.8241332489
 30
0.0
  0
SPLINE
  5
5C8
100
AcDbEntity
  8
0
100
AcDbSpline
 62
7
  6
CONTINUOUS
 70
0
 71
3
 72
12
 73
8
 74
0
 42
0.0000001
 43
0.0000001
 44
0.0000000001
 40
0.0
 40
0.0
 40
0.0
 40
0.0
 40
0.1606441131
 40
0.3160528741
 40
0.4695579901
 40
0.6257786262
 40
1.0
 40
1.0
 40
1.0
 40
1.0
 10
1.0737594791
 20
-29.0745535548
 30
0.0
 10
1.0748587387
 20
-29.1155287753
 30
0.0
 10
1.0866057844
 20
-29.1964452233
 30
0.0
 10
1.136798328
 20
-29.3069001545
 30
0.0
 10
1.2151759026
 20
-29.398434939
 30
0.0
 10
1.3663238931
 20
-29.4907385214
 30
0.0
 10
1.5066221028
 20
-29.5070977195
 30
0.0
 10
1.6021084544
 20
-29.5070977195
 30
0.0
  0
SPLINE
  5
5C9
100
AcDbEntity
  8
0
100
AcDbSpline
 62
7
  6
CONTINUOUS
 70
0
 71
3
 72
16
 73
12
 74
0
 42
0.0000001
 43
0.0000001
 44
0.0000000001
 40
0.0
 40
0.0
 40
0.0
 40
0.0
 40
0.1203129341
 40
0.2330202272
 40
0.338248294
 40
0.4376608643
 40
0.5333866397
 40
0.6266067036
 40
0.7177154286
 40
0.8050016052
 40
1.0
 40
1.0
 40
1.0
 40
1.0
 10
1.6021084544
 20
-29.5070977195
 30
0.0
 10
1.6443209767
 20
-29.5070977195
 30
0.0
 10
1.7264489898
 20
-29.4998328402
 30
0.0
 10
1.8403227752
 20
-29.4632333383
 30
0.0
 10
1.9366420652
 20
-29.4045378847
 30
0.0
 10
2.0069697503
 20
-29.3239994768
 30
0.0
 10
2.0506491093
 20
-29.2311902869
 30
0.0
 10
2.0646638063
 20
-29.1325841008
 30
0.0
 10
2.0522967372
 20
-29.0368469872
 30
0.0
 10
1.9966745005
 20
-28.9157003238
 30
0.0
 10
1.909952236
 20
-28.8544994189
 30
0.0
 10
1.8479044511
 20
-28.8256745695
 30
0.0
  0
SPLINE
  5
5CA
100
AcDbEntity
  8
0
100
AcDbSpline
 62
7
  6
CONTINUOUS
 70
0
 71
3
 72
9
 73
5
 74
0
 42
0.0000001
 43
0.0000001
 44
0.0000000001
 40
0.0
 40
0.0
 40
0.0
 40
0.0
 40
0.1708537376
 40
1.0
 40
1.0
 40
1.0
 40
1.0
 10
1.8479044511
 20
-28.8256745695
 30
0.0
 10
1.8332414648
 20
-28.8189714998
 30
0.0
 10
1.7448796034
 20
-28.7854630913
 30
0.0
 10
1.6528471811
 20
-28.7632794698
 30
0.0
 10
1.5766751013
 20
-28.745402579
 30
0.0
  0
SPLINE
  5
5CB
100
AcDbEntity
  8
0
100
AcDbSpline
 62
7
  6
CONTINUOUS
 70
0
 71
3
 72
9
 73
5
 74
0
 42
0.0000001
 43
0.0000001
 44
0.0000000001
 40
0.0
 40
0.0
 40
0.0
 40
0.0
 40
0.6350560901
 40
1.0
 40
1.0
 40
1.0
 40
1.0
 10
1.5766751013
 20
-28.745402579
 30
0.0
 10
1.5229924374
 20
-28.7328037484
 30
0.0
 10
1.4404465581
 20
-28.7101195852
 30
0.0
 10
1.3566800098
 20
-28.6770708618
 30
0.0
 10
1.3336654315
 20
-28.6552892258
 30
0.0
  0
SPLINE
  5
5CC
100
AcDbEntity
  8
0
100
AcDbSpline
 62
7
  6
CONTINUOUS
 70
0
 71
3
 72
16
 73
12
 74
0
 42
0.0000001
 43
0.0000001
 44
0.0000000001
 40
0.0
 40
0.0
 40
0.0
 40
0.0
 40
0.1219923656
 40
0.1832732458
 40
0.248197934
 40
0.323728273
 40
0.3974828774
 40
0.4735809367
 40
0.5557901273
 40
0.7471063308
 40
1.0
 40
1.0
 40
1.0
 40
1.0
 10
1.3336654315
 20
-28.6552892258
 30
0.0
 10
1.3186674533
 20
-28.6413786169
 30
0.0
 10
1.2998568348
 20
-28.6155391658
 30
0.0
 10
1.2880415247
 20
-28.5753582419
 30
0.0
 10
1.2851267855
 20
-28.5414620902
 30
0.0
 10
1.2888646816
 20
-28.5054437881
 30
0.0
 10
1.3017696616
 20
-28.4694963157
 30
0.0
 10
1.3234970955
 20
-28.4368737832
 30
0.0
 10
1.3651088952
 20
-28.3948999121
 30
0.0
 10
1.4488093394
 20
-28.3584887017
 30
0.0
 10
1.5238945857
 20
-28.3536466136
 30
0.0
 10
1.5663002803
 20
-28.3536466136
 30
0.0
  0
SPLINE
  5
5CD
100
AcDbEntity
  8
0
100
AcDbSpline
 62
7
  6
CONTINUOUS
 70
0
 71
3
 72
9
 73
5
 74
0
 42
0.0000001
 43
0.0000001
 44
0.0000000001
 40
0.0
 40
0.0
 40
0.0
 40
0.0
 40
0.5306823676
 40
1.0
 40
1.0
 40
1.0
 40
1.0
 10
1.5663002803
 20
-28.3536466136
 30
0.0
 10
1.6397903384
 20
-28.3536466136
 30
0.0
 10
1.7961935148
 20
-28.376557318
 30
0.0
 10
1.8560460552
 20
-28.5242669065
 30
0.0
 10
1.8629628673
 20
-28.5888899312
 30
0.0
  0
SPLINE
  5
5CE
100
AcDbEntity
  8
0
100
AcDbSpline
 62
7
  6
CONTINUOUS
 70
0
 71
3
 72
13
 73
9
 74
0
 42
0.0000001
 43
0.0000001
 44
0.0000000001
 40
0.0
 40
0.0
 40
0.0
 40
0.0
 40
0.1571016647
 40
0.3096608808
 40
0.4633596561
 40
0.6259608805
 40
0.8039640154
 40
1.0
 40
1.0
 40
1.0
 40
1.0
 10
2.0299097379
 20
-28.5813014371
 30
0.0
 10
2.0285436329
 20
-28.546237643
 30
0.0
 10
2.0174239059
 20
-28.4769990885
 30
0.0
 10
1.9726465593
 20
-28.3821713474
 30
0.0
 10
1.9010168112
 20
-28.3033798715
 30
0.0
 10
1.8034993477
 20
-28.2484244358
 30
0.0
 10
1.687283572
 20
-28.2157988269
 30
0.0
 10
1.6034470543
 20
-28.2094652254
 30
0.0
 10
1.5596602466
 20
-28.2094652254
 30
0.0
  0
SPLINE
  5
5CF
100
AcDbEntity
  8
0
100
AcDbSpline
 62
7
  6
CONTINUOUS
 70
0
 71
3
 72
15
 73
11
 74
0
 42
0.0000001
 43
0.0000001
 44
0.0000000001
 40
0.0
 40
0.0
 40
0.0
 40
0.0
 40
0.1249524682
 40
0.2423294566
 40
0.350902176
 40
0.4524669683
 40
0.6444564726
 40
0.7304140431
 40
0.8144496174
 40
1.0
 40
1.0
 40
1.0
 40
1.0
 10
1.5596602466
 20
-28.2094652254
 30
0.0
 10
1.5193262392
 20
-28.2094652254
 30
0.0
 10
1.4408350308
 20
-28.2159470459
 30
0.0
 10
1.3312742545
 20
-28.2472888195
 30
0.0
 10
1.2375184032
 20
-28.2993863001
 30
0.0
 10
1.148906395
 20
-28.3967938479
 30
0.0
 10
1.1109602848
 20
-28.521806353
 30
0.0
 10
1.1264429785
 20
-28.6388439165
 30
0.0
 10
1.1742475661
 20
-28.7451482766
 30
0.0
 10
1.2472439956
 20
-28.8021136397
 30
0.0
 10
1.3004658421
 20
-28.8295874465
 30
0.0
  0
SPLINE
  5
5D0
100
AcDbEntity
  8
0
100
AcDbSpline
 62
7
  6
CONTINUOUS
 70
0
 71
3
 72
9
 73
5
 74
0
 42
0.0000001
 43
0.0000001
 44
0.0000000001
 40
0.0
 40
0.0
 40
0.0
 40
0.0
 40
0.1806469784
 40
1.0
 40
1.0
 40
1.0
 40
1.0
 10
1.3004658421
 20
-28.8295874465
 30
0.0
 10
1.3138790971
 20
-28.8365984133
 30
0.0
 10
1.3908111617
 20
-28.8701664635
 30
0.0
 10
1.4722383238
 20
-28.8916702606
 30
0.0
 10
1.5388512028
 20
-28.9082587724
 30
0.0
  0
SPLINE
  5
5D1
100
AcDbEntity
  8
0
100
AcDbSpline
 62
7
  6
CONTINUOUS
 70
0
 71
3
 72
9
 73
5
 74
0
 42
0.0000001
 43
0.0000001
 44
0.0000000001
 40
0.0
 40
0.0
 40
0.0
 40
0.0
 40
0.3500357027
 40
1.0
 40
1.0
 40
1.0
 40
1.0
 10
1.5388512028
 20
-28.9082587724
 30
0.0
 10
1.5643874253
 20
-28.9146180221
 30
0.0
 10
1.6370494243
 20
-28.93359693
 30
0.0
 10
1.7104583559
 20
-28.95157592
 30
0.0
 10
1.7557754892
 20
-28.9698559577
 30
0.0
  0
SPLINE
  5
5D2
100
AcDbEntity
  8
0
100
AcDbSpline
 62
7
  6
CONTINUOUS
 70
0
 71
3
 72
21
 73
17
 74
0
 42
0.0000001
 43
0.0000001
 44
0.0000000001
 40
0.0
 40
0.0
 40
0.0
 40
0.0
 40
0.0889783718
 40
0.1598701364
 40
0.2240558258
 40
0.2916470269
 40
0.3605310038
 40
0.4313918817
 40
0.5074185444
 40
0.592929011
 40
0.6887797869
 40
0.7401776919
 40
0.794458656
 40
0.8558864763
 40
0.9147445392
 40
1.0
 40
1.0
 40
1.0
 40
1.0
 10
1.7557754892
 20
-28.9698559577
 30
0.0
 10
1.778459269
 20
-28.9788239621
 30
0.0
 10
1.8183800955
 20
-28.9978670355
 30
0.0
 10
1.8646932134
 20
-29.040227962
 30
0.0
 10
1.8886405461
 20
-29.09165825
 30
0.0
 10
1.8959564805
 20
-29.1468827966
 30
0.0
 10
1.8874586739
 20
-29.203935844
 30
0.0
 10
1.8607001407
 20
-29.257772123
 30
0.0
 10
1.8155008664
 20
-29.3041790245
 30
0.0
 10
1.752417709
 20
-29.3376447093
 30
0.0
 10
1.690541382
 20
-29.3548850238
 30
0.0
 10
1.6356600131
 20
-29.3618042499
 30
0.0
 10
1.58983402
 20
-29.3635746562
 30
0.0
 10
1.5419545853
 20
-29.3614300874
 30
0.0
 10
1.4861058305
 20
-29.3532635847
 30
0.0
 10
1.4479986048
 20
-29.3420742015
 30
0.0
 10
1.4261589786
 20
-29.3335741168
 30
0.0
  0
SPLINE
  5
5D3
100
AcDbEntity
  8
0
100
AcDbSpline
 62
7
  6
CONTINUOUS
 70
0
 71
3
 72
18
 73
14
 74
0
 42
0.0000001
 43
0.0000001
 44
0.0000000001
 40
0.0
 40
0.0
 40
0.0
 40
0.0
 40
0.1519229241
 40
0.2688691096
 40
0.3698366199
 40
0.4199224095
 40
0.4728043776
 40
0.5460050487
 40
0.6198797209
 40
0.6954843994
 40
0.7757756407
 40
0.8738495482
 40
1.0
 40
1.0
 40
1.0
 40
1.0
 10
-0.0514718311
 20
-28.3764120959
 30
0.0
 10
-0.0110889089
 20
-28.3764120959
 30
0.0
 10
0.0611885073
 20
-28.3815509272
 30
0.0
 10
0.153095592
 20
-28.4245807005
 30
0.0
 10
0.197531488
 20
-28.4839006398
 30
0.0
 10
0.2138061647
 20
-28.5359737166
 30
0.0
 10
0.2181222013
 20
-28.5829080937
 30
0.0
 10
0.2107174156
 20
-28.6362911305
 30
0.0
 10
0.1851915796
 20
-28.6906630474
 30
0.0
 10
0.1430706943
 20
-28.7364880028
 30
0.0
 10
0.0818470822
 20
-28.7676886922
 30
0.0
 10
0.0019027879
 20
-28.7835889316
 30
0.0
 10
-0.057779162
 20
-28.7861907783
 30
0.0
 10
-0.0913114542
 20
-28.7861907783
 30
0.0
  0
SPLINE
  5
5D4
100
AcDbEntity
  8
0
100
AcDbSpline
 62
7
  6
CONTINUOUS
 70
0
 71
3
 72
12
 73
8
 74
0
 42
0.0000001
 43
0.0000001
 44
0.0000000001
 40
0.0
 40
0.0
 40
0.0
 40
0.0
 40
0.0974412774
 40
0.2003948476
 40
0.4882068918
 40
0.7085912992
 40
1.0
 40
1.0
 40
1.0
 40
1.0
 10
-0.1623350579
 20
-28.9361820802
 30
0.0
 10
-0.1494263443
 20
-28.9392785707
 30
0.0
 10
-0.1234971503
 20
-28.9482062103
 30
0.0
 10
-0.0641903887
 20
-28.9793167202
 30
0.0
 10
-0.0082248546
 20
-29.0438006418
 30
0.0
 10
0.0546371632
 20
-29.1321602542
 30
0.0
 10
0.0929138363
 20
-29.1906163847
 30
0.0
 10
0.1142893192
 20
-29.2240705685
 30
0.0
  0
SPLINE
  5
5D5
100
AcDbEntity
  8
0
100
AcDbSpline
 62
7
  6
CONTINUOUS
 70
0
 71
3
 72
9
 73
5
 74
0
 42
0.0000001
 43
0.0000001
 44
0.0000000001
 40
0.0
 40
0.0
 40
0.0
 40
0.0
 40
0.2659540588
 40
1.0
 40
1.0
 40
1.0
 40
1.0
 10
0.2617906085
 20
-29.1439170343
 30
0.0
 10
0.2514390948
 20
-29.1282833351
 30
0.0
 10
0.2112899021
 20
-29.0703435676
 30
0.0
 10
0.1658611915
 20
-29.0158961263
 30
0.0
 10
0.1291105913
 20
-28.9794601763
 30
0.0
  0
SPLINE
  5
5D6
100
AcDbEntity
  8
0
100
AcDbSpline
 62
7
  6
CONTINUOUS
 70
0
 71
3
 72
9
 73
5
 74
0
 42
0.0000001
 43
0.0000001
 44
0.0000000001
 40
0.0
 40
0.0
 40
0.0
 40
0.0
 40
0.209446698
 40
1.0
 40
1.0
 40
1.0
 40
1.0
 10
0.1291105913
 20
-28.9794601763
 30
0.0
 10
0.1233548314
 20
-28.9738514634
 30
0.0
 10
0.0942613995
 20
-28.9487264284
 30
0.0
 10
0.0608131772
 20
-28.9291865908
 30
0.0
 10
0.0338987567
 20
-28.9151951783
 30
0.0
  0
SPLINE
  5
5D7
100
AcDbEntity
  8
0
100
AcDbSpline
 62
7
  6
CONTINUOUS
 70
0
 71
3
 72
21
 73
17
 74
0
 42
0.0000001
 43
0.0000001
 44
0.0000000001
 40
0.0
 40
0.0
 40
0.0
 40
0.0
 40
0.1365200578
 40
0.2486517489
 40
0.3509700259
 40
0.4027637157
 40
0.4573654021
 40
0.5004782595
 40
0.5423967131
 40
0.5839060152
 40
0.6258144236
 40
0.705942642
 40
0.782907869
 40
0.8256733927
 40
0.8758071331
 40
1.0
 40
1.0
 40
1.0
 40
1.0
 10
0.0338987567
 20
-28.9151951783
 30
0.0
 10
0.0869347589
 20
-28.9078300343
 30
0.0
 10
0.18348716
 20
-28.8858286681
 30
0.0
 10
0.3016728896
 20
-28.8082744795
 30
0.0
 10
0.3586294043
 20
-28.7168883359
 30
0.0
 10
0.3799624992
 20
-28.6374601745
 30
0.0
 10
0.3845211447
 20
-28.5786809893
 30
0.0
 10
0.3811590784
 20
-28.5238893359
 30
0.0
 10
0.3714698946
 20
-28.4750496093
 30
0.0
 10
0.3551690017
 20
-28.4284846803
 30
0.0
 10
0.3257667667
 20
-28.3713473469
 30
0.0
 10
0.2760324787
 20
-28.3093658809
 30
0.0
 10
0.2071988774
 20
-28.2683612711
 30
0.0
 10
0.1431011159
 20
-28.2495739392
 30
0.0
 10
0.0590916179
 20
-28.2349376094
 30
0.0
 10
-0.009520246
 20
-28.2322307077
 30
0.0
 10
-0.058230321
 20
-28.2322307077
 30
0.0
  0
SPLINE
  5
5D8
100
AcDbEntity
  8
0
100
AcDbSpline
 62
7
  6
CONTINUOUS
 70
0
 71
3
 72
9
 73
5
 74
0
 42
0.0000001
 43
0.0000001
 44
0.0000000001
 40
0.0
 40
0.0
 40
0.0
 40
0.0
 40
0.3222232674
 40
1.0
 40
1.0
 40
1.0
 40
1.0
 10
-0.2536341314
 20
-28.9303721665
 30
0.0
 10
-0.2438019336
 20
-28.9303721665
 30
0.0
 10
-0.2133394637
 20
-28.9308259239
 30
0.0
 10
-0.1825810494
 20
-28.9319605895
 30
0.0
 10
-0.1623350579
 20
-28.9361820802
 30
0.0
  0
SPLINE
  5
5D9
100
AcDbEntity
  8
0
100
AcDbSpline
 62
7
  6
CONTINUOUS
 70
0
 71
3
 72
9
 73
5
 74
0
 42
0.0000001
 43
0.0000001
 44
0.0000000001
 40
0.0
 40
0.0
 40
0.0
 40
0.0
 40
0.7097160398
 40
1.0
 40
1.0
 40
1.0
 40
1.0
 10
-1.3507643336
 20
-28.3612351077
 30
0.0
 10
-1.3323481833
 20
-28.4242640036
 30
0.0
 10
-1.3027192493
 20
-28.5119848491
 30
0.0
 10
-1.2713280243
 20
-28.5990108849
 30
0.0
 10
-1.2620738448
 20
-28.6242238172
 30
0.0
  0
SPLINE
  5
5DA
100
AcDbEntity
  8
0
100
AcDbSpline
 62
7
  6
CONTINUOUS
 70
0
 71
3
 72
9
 73
5
 74
0
 42
0.0000001
 43
0.0000001
 44
0.0000000001
 40
0.0
 40
0.0
 40
0.0
 40
0.0
 40
0.3106214921
 40
1.0
 40
1.0
 40
1.0
 40
1.0
 10
-2.5720375984
 20
-29.1014689424
 30
0.0
 10
-2.5793480492
 20
-29.1221385917
 30
0.0
 10
-2.6027476446
 20
-29.1887275271
 30
0.0
 10
-2.6258326091
 20
-29.2554381461
 30
0.0
 10
-2.6408083336
 20
-29.3017340902
 30
0.0
  0
SPLINE
  5
5DB
100
AcDbEntity
  8
0
100
AcDbSpline
 62
7
  6
CONTINUOUS
 70
0
 71
3
 72
9
 73
5
 74
0
 42
0.0000001
 43
0.0000001
 44
0.0000000001
 40
0.0
 40
0.0
 40
0.0
 40
0.0
 40
0.1862683768
 40
1.0
 40
1.0
 40
1.0
 40
1.0
 10
-2.6408083336
 20
-29.3017340902
 30
0.0
 10
-2.644354792
 20
-29.2902025569
 30
0.0
 10
-2.6637761396
 20
-29.2284121027
 30
0.0
 10
-2.6840770747
 20
-29.1669028087
 30
0.0
 10
-2.7006862824
 20
-29.1168830747
 30
0.0
  0
SPLINE
  5
5DC
100
AcDbEntity
  8
0
100
AcDbSpline
 62
7
  6
CONTINUOUS
 70
0
 71
3
 72
9
 73
5
 74
0
 42
0.0000001
 43
0.0000001
 44
0.0000000001
 40
0.0
 40
0.0
 40
0.0
 40
0.0
 40
0.2354134851
 40
1.0
 40
1.0
 40
1.0
 40
1.0
 10
-4.4316929454
 20
-29.343945038
 30
0.0
 10
-4.4361915408
 20
-29.3277057565
 30
0.0
 10
-4.456078496
 20
-29.2589395041
 30
0.0
 10
-4.478835142
 20
-29.1910209669
 30
0.0
 10
-4.4973808078
 20
-29.139529985
 30
0.0
  0
SPLINE
  5
5DD
100
AcDbEntity
  8
0
100
AcDbSpline
 62
7
  6
CONTINUOUS
 70
0
 71
3
 72
11
 73
7
 74
0
 42
0.0000001
 43
0.0000001
 44
0.0000000001
 40
0.0
 40
0.0
 40
0.0
 40
0.0
 40
0.2023283395
 40
0.445343536
 40
0.7157738534
 40
1.0
 40
1.0
 40
1.0
 40
1.0
 10
8.9969773421
 20
-30.0581391385
 30
0.0
 10
8.9822806167
 20
-30.0877050299
 30
0.0
 10
8.9405190068
 20
-30.1480751394
 30
0.0
 10
8.8578009271
 20
-30.231035416
 30
0.0
 10
8.7537519417
 20
-30.3100201768
 30
0.0
 10
8.6739290462
 20
-30.3534453026
 30
0.0
 10
8.6318996202
 20
-30.3730615865
 30
0.0
  0
SPLINE
  5
5DE
100
AcDbEntity
  8
0
100
AcDbSpline
 62
7
  6
CONTINUOUS
 70
0
 71
3
 72
9
 73
5
 74
0
 42
0.0000001
 43
0.0000001
 44
0.0000000001
 40
0.0
 40
0.0
 40
0.0
 40
0.0
 40
0.2212493112
 40
1.0
 40
1.0
 40
1.0
 40
1.0
 10
8.6318996202
 20
-30.5219857401
 30
0.0
 10
8.6445191837
 20
-30.5173668291
 30
0.0
 10
8.7009035371
 20
-30.4947015389
 30
0.0
 10
8.7547634244
 20
-30.4661559827
 30
0.0
 10
8.7956451618
 20
-30.4423658958
 30
0.0
  0
SPLINE
  5
5DF
100
AcDbEntity
  8
0
100
AcDbSpline
 62
7
  6
CONTINUOUS
 70
0
 71
3
 72
9
 73
5
 74
0
 42
0.0000001
 43
0.0000001
 44
0.0000000001
 40
0.0
 40
0.0
 40
0.0
 40
0.0
 40
0.2798369702
 40
1.0
 40
1.0
 40
1.0
 40
1.0
 10
8.7956451618
 20
-30.4423658958
 30
0.0
 10
8.8103004087
 20
-30.4338376478
 30
0.0
 10
8.8620082399
 20
-30.4023162821
 30
0.0
 10
8.9112812896
 20
-30.3662431112
 30
0.0
 10
8.943027879
 20
-30.3363048362
 30
0.0
  0
SPLINE
  5
5E0
100
AcDbEntity
  8
0
100
AcDbSpline
 62
7
  6
CONTINUOUS
 70
0
 71
3
 72
9
 73
5
 74
0
 42
0.0000001
 43
0.0000001
 44
0.0000000001
 40
0.0
 40
0.0
 40
0.0
 40
0.0
 40
0.7097160398
 40
1.0
 40
1.0
 40
1.0
 40
1.0
 10
7.3608269134
 20
-30.1947320326
 30
0.0
 10
7.3792430637
 20
-30.2577609285
 30
0.0
 10
7.4088719977
 20
-30.3454817739
 30
0.0
 10
7.4402632227
 20
-30.4325078097
 30
0.0
 10
7.4495174022
 20
-30.457720742
 30
0.0
  0
SPLINE
  5
5E1
100
AcDbEntity
  8
0
100
AcDbSpline
 62
7
  6
CONTINUOUS
 70
0
 71
3
 72
9
 73
5
 74
0
 42
0.0000001
 43
0.0000001
 44
0.0000000001
 40
0.0
 40
0.0
 40
0.0
 40
0.0
 40
0.0986341094
 40
1.0
 40
1.0
 40
1.0
 40
1.0
 10
5.9525684523
 20
-31.1736477738
 30
0.0
 10
5.9780215288
 20
-31.141949981
 30
0.0
 10
6.2360605408
 20
-30.8205692619
 30
0.0
 10
6.4944342917
 20
-30.499457479
 30
0.0
 10
6.7271875967
 20
-30.2099090208
 30
0.0
  0
SPLINE
  5
5E2
100
AcDbEntity
  8
0
100
AcDbSpline
 62
7
  6
CONTINUOUS
 70
0
 71
3
 72
9
 73
5
 74
0
 42
0.0000001
 43
0.0000001
 44
0.0000000001
 40
0.0
 40
0.0
 40
0.0
 40
0.0
 40
0.2319301259
 40
1.0
 40
1.0
 40
1.0
 40
1.0
 10
6.5332067665
 20
-30.2099090208
 30
0.0
 10
6.5225996382
 20
-30.2210231697
 30
0.0
 10
6.477503136
 20
-30.2695518527
 30
0.0
 10
6.4347623528
 20
-30.3202359233
 30
0.0
 10
6.4028980741
 20
-30.3599003227
 30
0.0
  0
SPLINE
  5
5E3
100
AcDbEntity
  8
0
100
AcDbSpline
 62
7
  6
CONTINUOUS
 70
0
 71
3
 72
9
 73
5
 74
0
 42
0.0000001
 43
0.0000001
 44
0.0000000001
 40
0.0
 40
0.0
 40
0.0
 40
0.0
 40
0.4786249203
 40
1.0
 40
1.0
 40
1.0
 40
1.0
 10
2.7154827931
 20
-30.1871435385
 30
0.0
 10
2.7872967859
 20
-30.1871435385
 30
0.0
 10
2.9483774628
 20
-30.2263789652
 30
0.0
 10
3.0232202792
 20
-30.3733978295
 30
0.0
 10
3.0467679496
 20
-30.4479979514
 30
0.0
  0
SPLINE
  5
5E4
100
AcDbEntity
  8
0
100
AcDbSpline
 62
7
  6
CONTINUOUS
 70
0
 71
3
 72
26
 73
22
 74
0
 42
0.0000001
 43
0.0000001
 44
0.0000000001
 40
0.0
 40
0.0
 40
0.0
 40
0.0
 40
0.0894259194
 40
0.1728463913
 40
0.2146966896
 40
0.2571620823
 40
0.301503196
 40
0.3488310085
 40
0.391360207
 40
0.4326874262
 40
0.4734747808
 40
0.5144105897
 40
0.5950906313
 40
0.6777221642
 40
0.7213430067
 40
0.7664645957
 40
0.8137810996
 40
0.8638955602
 40
0.9105801323
 40
0.9561630398
 40
1.0
 40
1.0
 40
1.0
 40
1.0
 10
3.2137148202
 20
-30.4095811927
 30
0.0
 10
3.1981175473
 20
-30.35524941
 30
0.0
 10
3.1545703265
 20
-30.2528907298
 30
0.0
 10
3.0602858663
 20
-30.1511924532
 30
0.0
 10
2.9699611135
 20
-30.0947506496
 30
0.0
 10
2.8940349827
 20
-30.0644328383
 30
0.0
 10
2.8107898709
 20
-30.0465606204
 30
0.0
 10
2.725860725
 20
-30.0412787103
 30
0.0
 10
2.6428931042
 20
-30.0459686451
 30
0.0
 10
2.5651719169
 20
-30.0601672989
 30
0.0
 10
2.4909234623
 20
-30.0840934825
 30
0.0
 10
2.3977897487
 20
-30.1277669402
 30
0.0
 10
2.2932105472
 20
-30.2071452972
 30
0.0
 10
2.2182306861
 20
-30.3168567975
 30
0.0
 10
2.1758411156
 20
-30.4167660013
 30
0.0
 10
2.1526857366
 20
-30.4998507894
 30
0.0
 10
2.1389802273
 20
-30.5890970035
 30
0.0
 10
2.1347500612
 20
-30.6802423433
 30
0.0
 10
2.1387985062
 20
-30.7702896368
 30
0.0
 10
2.1510889121
 20
-30.8555375624
 30
0.0
 10
2.1648293416
 20
-30.9105919513
 30
0.0
 10
2.1728934999
 20
-30.9371695876
 30
0.0
  0
SPLINE
  5
5E5
100
AcDbEntity
  8
0
100
AcDbSpline
 62
7
  6
CONTINUOUS
 70
0
 71
3
 72
11
 73
7
 74
0
 42
0.0000001
 43
0.0000001
 44
0.0000000001
 40
0.0
 40
0.0
 40
0.0
 40
0.0
 40
0.2450314628
 40
0.4753357612
 40
0.7174932177
 40
1.0
 40
1.0
 40
1.0
 40
1.0
 10
2.202429436
 20
-31.0187950186
 30
0.0
 10
2.2232584683
 20
-31.0680170814
 30
0.0
 10
2.2754654443
 20
-31.1593624152
 30
0.0
 10
2.3928352886
 20
-31.2672620308
 30
0.0
 10
2.5482344505
 20
-31.3305679979
 30
0.0
 10
2.6635835105
 20
-31.3405946444
 30
0.0
 10
2.7252055838
 20
-31.3405946444
 30
0.0
  0
SPLINE
  5
5E6
100
AcDbEntity
  8
0
100
AcDbSpline
 62
7
  6
CONTINUOUS
 70
0
 71
3
 72
11
 73
7
 74
0
 42
0.0000001
 43
0.0000001
 44
0.0000000001
 40
0.0
 40
0.0
 40
0.0
 40
0.0
 40
0.2525992429
 40
0.4888102636
 40
0.730558892
 40
1.0
 40
1.0
 40
1.0
 40
1.0
 10
2.7252055838
 20
-31.3405946444
 30
0.0
 10
2.7860988732
 20
-31.3405946444
 30
0.0
 10
2.9053030532
 20
-31.325177569
 30
0.0
 10
3.0643889386
 20
-31.2406757422
 30
0.0
 10
3.1839155609
 20
-31.1005517748
 30
0.0
 10
3.2280498967
 20
-30.9832101808
 30
0.0
 10
3.2440687967
 20
-30.9202631671
 30
0.0
  0
SPLINE
  5
5E7
100
AcDbEntity
  8
0
100
AcDbSpline
 62
7
  6
CONTINUOUS
 70
0
 71
3
 72
18
 73
14
 74
0
 42
0.0000001
 43
0.0000001
 44
0.0000000001
 40
0.0
 40
0.0
 40
0.0
 40
0.0
 40
0.1159164268
 40
0.217229043
 40
0.2661318292
 40
0.3148796945
 40
0.3650966775
 40
0.4182723816
 40
0.5929571957
 40
0.6821159461
 40
0.7765883123
 40
0.8819922264
 40
1.0
 40
1.0
 40
1.0
 40
1.0
 10
3.0771219261
 20
-30.8784078196
 30
0.0
 10
3.0667135182
 20
-30.9263082108
 30
0.0
 10
3.0375701907
 20
-31.0150440265
 30
0.0
 10
2.9655669437
 20
-31.1053004705
 30
0.0
 10
2.8956562829
 20
-31.1529332138
 30
0.0
 10
2.8381750941
 20
-31.1784109873
 30
0.0
 10
2.7752157194
 20
-31.1933281058
 30
0.0
 10
2.6578049529
 20
-31.20195947
 30
0.0
 10
2.5201847977
 20
-31.1664640114
 30
0.0
 10
2.4025604525
 20
-31.0665951142
 30
0.0
 10
2.3431416582
 20
-30.9572366381
 30
0.0
 10
2.3097037055
 20
-30.8262339938
 30
0.0
 10
2.3030955261
 20
-30.7314838241
 30
0.0
 10
2.3030955261
 20
-30.6815812606
 30
0.0
  0
SPLINE
  5
5E8
100
AcDbEntity
  8
0
100
AcDbSpline
 62
7
  6
CONTINUOUS
 70
0
 71
3
 72
15
 73
11
 74
0
 42
0.0000001
 43
0.0000001
 44
0.0000000001
 40
0.0
 40
0.0
 40
0.0
 40
0.0
 40
0.1678404711
 40
0.2512879759
 40
0.33511008
 40
0.4172449098
 40
0.4965963632
 40
0.6544390062
 40
0.8184759151
 40
1.0
 40
1.0
 40
1.0
 40
1.0
 10
2.3030955261
 20
-30.6815812606
 30
0.0
 10
2.3030955261
 20
-30.640841861
 30
0.0
 10
2.3078496907
 20
-30.5796746863
 30
0.0
 10
2.3242693881
 20
-30.4999519788
 30
0.0
 10
2.3408073916
 20
-30.4416505625
 30
0.0
 10
2.3632578857
 20
-30.3862710827
 30
0.0
 10
2.4038263182
 20
-30.3198903179
 30
0.0
 10
2.4741629155
 20
-30.2498390053
 30
0.0
 10
2.5866297134
 20
-30.1963550448
 30
0.0
 10
2.6714220122
 20
-30.1871435385
 30
0.0
 10
2.7154827931
 20
-30.1871435385
 30
0.0
  0
SPLINE
  5
5E9
100
AcDbEntity
  8
0
100
AcDbSpline
 62
7
  6
CONTINUOUS
 70
0
 71
3
 72
9
 73
5
 74
0
 42
0.0000001
 43
0.0000001
 44
0.0000000001
 40
0.0
 40
0.0
 40
0.0
 40
0.0
 40
0.2354134851
 40
1.0
 40
1.0
 40
1.0
 40
1.0
 10
0.9940803487
 20
-31.1774419629
 30
0.0
 10
0.9895817533
 20
-31.1612026814
 30
0.0
 10
0.9696947981
 20
-31.092436429
 30
0.0
 10
0.9469381521
 20
-31.0245178918
 30
0.0
 10
0.9283924863
 20
-30.9730269099
 30
0.0
  0
SPLINE
  5
5EA
100
AcDbEntity
  8
0
100
AcDbSpline
 62
7
  6
CONTINUOUS
 70
0
 71
3
 72
9
 73
5
 74
0
 42
0.0000001
 43
0.0000001
 44
0.0000000001
 40
0.0
 40
0.0
 40
0.0
 40
0.0
 40
0.7097160398
 40
1.0
 40
1.0
 40
1.0
 40
1.0
 10
-2.8077552042
 20
-30.1947320326
 30
0.0
 10
-2.7893390539
 20
-30.2577609285
 30
0.0
 10
-2.7597101199
 20
-30.3454817739
 30
0.0
 10
-2.7283188949
 20
-30.4325078097
 30
0.0
 10
-2.7190647154
 20
-30.457720742
 30
0.0
  0
SPLINE
  5
5EB
100
AcDbEntity
  8
0
100
AcDbSpline
 62
7
  6
CONTINUOUS
 70
0
 71
3
 72
9
 73
5
 74
0
 42
0.0000001
 43
0.0000001
 44
0.0000000001
 40
0.0
 40
0.0
 40
0.0
 40
0.0
 40
0.2354134851
 40
1.0
 40
1.0
 40
1.0
 40
1.0
 10
-4.4316929454
 20
-31.1774419629
 30
0.0
 10
-4.4361915408
 20
-31.1612026814
 30
0.0
 10
-4.456078496
 20
-31.092436429
 30
0.0
 10
-4.478835142
 20
-31.0245178918
 30
0.0
 10
-4.4973808078
 20
-30.9730269099
 30
0.0
  0
SPLINE
  5
5EC
100
AcDbEntity
  8
0
100
AcDbSpline
 62
7
  6
CONTINUOUS
 70
0
 71
3
 72
9
 73
5
 74
0
 42
0.0000001
 43
0.0000001
 44
0.0000000001
 40
0.0
 40
0.0
 40
0.0
 40
0.0
 40
0.2354134851
 40
1.0
 40
1.0
 40
1.0
 40
1.0
 10
11.7060698579
 20
-33.0033503937
 30
0.0
 10
11.7015712625
 20
-32.9871111122
 30
0.0
 10
11.6816843073
 20
-32.9183448597
 30
0.0
 10
11.6589276613
 20
-32.8504263225
 30
0.0
 10
11.6403819955
 20
-32.7989353406
 30
0.0
  0
SPLINE
  5
5ED
100
AcDbEntity
  8
0
100
AcDbSpline
 62
7
  6
CONTINUOUS
 70
0
 71
3
 72
9
 73
5
 74
0
 42
0.0000001
 43
0.0000001
 44
0.0000000001
 40
0.0
 40
0.0
 40
0.0
 40
0.0
 40
0.7097160398
 40
1.0
 40
1.0
 40
1.0
 40
1.0
 10
10.036601152
 20
-32.0206404634
 30
0.0
 10
10.0550173023
 20
-32.0836693593
 30
0.0
 10
10.0846462363
 20
-32.1713902047
 30
0.0
 10
10.1160374613
 20
-32.2584162405
 30
0.0
 10
10.1252916408
 20
-32.2836291728
 30
0.0
  0
SPLINE
  5
5EE
100
AcDbEntity
  8
0
100
AcDbSpline
 62
7
  6
CONTINUOUS
 70
0
 71
3
 72
9
 73
5
 74
0
 42
0.0000001
 43
0.0000001
 44
0.0000000001
 40
0.0
 40
0.0
 40
0.0
 40
0.0
 40
0.4786249203
 40
1.0
 40
1.0
 40
1.0
 40
1.0
 10
8.8743758317
 20
-32.0130519692
 30
0.0
 10
8.9461898245
 20
-32.0130519692
 30
0.0
 10
9.1072705014
 20
-32.052287396
 30
0.0
 10
9.1821133177
 20
-32.1993062603
 30
0.0
 10
9.2056609882
 20
-32.2739063822
 30
0.0
  0
SPLINE
  5
5EF
100
AcDbEntity
  8
0
100
AcDbSpline
 62
7
  6
CONTINUOUS
 70
0
 71
3
 72
26
 73
22
 74
0
 42
0.0000001
 43
0.0000001
 44
0.0000000001
 40
0.0
 40
0.0
 40
0.0
 40
0.0
 40
0.0894259194
 40
0.1728463913
 40
0.2146966896
 40
0.2571620823
 40
0.301503196
 40
0.3488310085
 40
0.391360207
 40
0.4326874262
 40
0.4734747808
 40
0.5144105897
 40
0.5950906313
 40
0.6777221642
 40
0.7213430067
 40
0.7664645957
 40
0.8137810996
 40
0.8638955602
 40
0.9105801323
 40
0.9561630398
 40
1.0
 40
1.0
 40
1.0
 40
1.0
 10
9.3726078588
 20
-32.2354896235
 30
0.0
 10
9.3570105859
 20
-32.1811578407
 30
0.0
 10
9.313463365
 20
-32.0787991606
 30
0.0
 10
9.2191789049
 20
-31.977100884
 30
0.0
 10
9.1288541521
 20
-31.9206590804
 30
0.0
 10
9.0529280213
 20
-31.8903412691
 30
0.0
 10
8.9696829095
 20
-31.8724690511
 30
0.0
 10
8.8847537636
 20
-31.867187141
 30
0.0
 10
8.8017861427
 20
-31.8718770759
 30
0.0
 10
8.7240649555
 20
-31.8860757297
 30
0.0
 10
8.6498165009
 20
-31.9100019132
 30
0.0
 10
8.5566827873
 20
-31.953675371
 30
0.0
 10
8.4521035857
 20
-32.033053728
 30
0.0
 10
8.3771237247
 20
-32.1427652283
 30
0.0
 10
8.3347341541
 20
-32.2426744321
 30
0.0
 10
8.3115787751
 20
-32.3257592202
 30
0.0
 10
8.2978732658
 20
-32.4150054342
 30
0.0
 10
8.2936430998
 20
-32.5061507741
 30
0.0
 10
8.2976915447
 20
-32.5961980675
 30
0.0
 10
8.3099819507
 20
-32.6814459931
 30
0.0
 10
8.3237223801
 20
-32.7365003821
 30
0.0
 10
8.3317865385
 20
-32.7630780183
 30
0.0
  0
SPLINE
  5
5F0
100
AcDbEntity
  8
0
100
AcDbSpline
 62
7
  6
CONTINUOUS
 70
0
 71
3
 72
11
 73
7
 74
0
 42
0.0000001
 43
0.0000001
 44
0.0000000001
 40
0.0
 40
0.0
 40
0.0
 40
0.0
 40
0.2450314628
 40
0.4753357612
 40
0.7174932177
 40
1.0
 40
1.0
 40
1.0
 40
1.0
 10
8.3613224745
 20
-32.8447034494
 30
0.0
 10
8.3821515068
 20
-32.8939255121
 30
0.0
 10
8.4343584829
 20
-32.985270846
 30
0.0
 10
8.5517283272
 20
-33.0931704615
 30
0.0
 10
8.707127489
 20
-33.1564764287
 30
0.0
 10
8.822476549
 20
-33.1665030751
 30
0.0
 10
8.8840986223
 20
-33.1665030751
 30
0.0
  0
SPLINE
  5
5F1
100
AcDbEntity
  8
0
100
AcDbSpline
 62
7
  6
CONTINUOUS
 70
0
 71
3
 72
11
 73
7
 74
0
 42
0.0000001
 43
0.0000001
 44
0.0000000001
 40
0.0
 40
0.0
 40
0.0
 40
0.0
 40
0.2525992429
 40
0.4888102636
 40
0.730558892
 40
1.0
 40
1.0
 40
1.0
 40
1.0
 10
8.8840986223
 20
-33.1665030751
 30
0.0
 10
8.9449919118
 20
-33.1665030751
 30
0.0
 10
9.0641960918
 20
-33.1510859997
 30
0.0
 10
9.2232819772
 20
-33.0665841729
 30
0.0
 10
9.3428085995
 20
-32.9264602056
 30
0.0
 10
9.3869429353
 20
-32.8091186115
 30
0.0
 10
9.4029618353
 20
-32.7461715979
 30
0.0
  0
SPLINE
  5
5F2
100
AcDbEntity
  8
0
100
AcDbSpline
 62
7
  6
CONTINUOUS
 70
0
 71
3
 72
18
 73
14
 74
0
 42
0.0000001
 43
0.0000001
 44
0.0000000001
 40
0.0
 40
0.0
 40
0.0
 40
0.0
 40
0.1159164268
 40
0.217229043
 40
0.2661318292
 40
0.3148796945
 40
0.3650966775
 40
0.4182723816
 40
0.5929571957
 40
0.6821159461
 40
0.7765883123
 40
0.8819922264
 40
1.0
 40
1.0
 40
1.0
 40
1.0
 10
9.2360149647
 20
-32.7043162503
 30
0.0
 10
9.2256065568
 20
-32.7522166416
 30
0.0
 10
9.1964632292
 20
-32.8409524573
 30
0.0
 10
9.1244599823
 20
-32.9312089013
 30
0.0
 10
9.0545493215
 20
-32.9788416445
 30
0.0
 10
8.9970681327
 20
-33.0043194181
 30
0.0
 10
8.934108758
 20
-33.0192365366
 30
0.0
 10
8.8166979914
 20
-33.0278679007
 30
0.0
 10
8.6790778363
 20
-32.9923724422
 30
0.0
 10
8.561453491
 20
-32.892503545
 30
0.0
 10
8.5020346968
 20
-32.7831450688
 30
0.0
 10
8.4685967441
 20
-32.6521424246
 30
0.0
 10
8.4619885647
 20
-32.5573922549
 30
0.0
 10
8.4619885647
 20
-32.5074896914
 30
0.0
  0
SPLINE
  5
5F3
100
AcDbEntity
  8
0
100
AcDbSpline
 62
7
  6
CONTINUOUS
 70
0
 71
3
 72
15
 73
11
 74
0
 42
0.0000001
 43
0.0000001
 44
0.0000000001
 40
0.0
 40
0.0
 40
0.0
 40
0.0
 40
0.1678404711
 40
0.2512879759
 40
0.33511008
 40
0.4172449098
 40
0.4965963632
 40
0.6544390062
 40
0.8184759151
 40
1.0
 40
1.0
 40
1.0
 40
1.0
 10
8.4619885647
 20
-32.5074896914
 30
0.0
 10
8.4619885647
 20
-32.4667502918
 30
0.0
 10
8.4667427293
 20
-32.4055831171
 30
0.0
 10
8.4831624267
 20
-32.3258604095
 30
0.0
 10
8.4997004301
 20
-32.2675589933
 30
0.0
 10
8.5221509242
 20
-32.2121795135
 30
0.0
 10
8.5627193568
 20
-32.1457987487
 30
0.0
 10
8.6330559541
 20
-32.0757474361
 30
0.0
 10
8.745522752
 20
-32.0222634756
 30
0.0
 10
8.8303150507
 20
-32.0130519692
 30
0.0
 10
8.8743758317
 20
-32.0130519692
 30
0.0
  0
SPLINE
  5
5F4
100
AcDbEntity
  8
0
100
AcDbSpline
 62
7
  6
CONTINUOUS
 70
0
 71
3
 72
12
 73
8
 74
0
 42
0.0000001
 43
0.0000001
 44
0.0000000001
 40
0.0
 40
0.0
 40
0.0
 40
0.0
 40
0.1606441131
 40
0.3160528741
 40
0.4695579901
 40
0.6257786262
 40
1.0
 40
1.0
 40
1.0
 40
1.0
 10
5.5859492941
 20
-32.7339589104
 30
0.0
 10
5.5870485537
 20
-32.7749341309
 30
0.0
 10
5.5987955994
 20
-32.855850579
 30
0.0
 10
5.648988143
 20
-32.9663055101
 30
0.0
 10
5.7273657177
 20
-33.0578402946
 30
0.0
 10
5.8785137081
 20
-33.1501438771
 30
0.0
 10
6.0188119178
 20
-33.1665030751
 30
0.0
 10
6.1142982694
 20
-33.1665030751
 30
0.0
  0
SPLINE
  5
5F5
100
AcDbEntity
  8
0
100
AcDbSpline
 62
7
  6
CONTINUOUS
 70
0
 71
3
 72
16
 73
12
 74
0
 42
0.0000001
 43
0.0000001
 44
0.0000000001
 40
0.0
 40
0.0
 40
0.0
 40
0.0
 40
0.1203129341
 40
0.2330202272
 40
0.338248294
 40
0.4376608643
 40
0.5333866397
 40
0.6266067036
 40
0.7177154286
 40
0.8050016052
 40
1.0
 40
1.0
 40
1.0
 40
1.0
 10
6.1142982694
 20
-33.1665030751
 30
0.0
 10
6.1565107917
 20
-33.1665030751
 30
0.0
 10
6.2386388049
 20
-33.1592381958
 30
0.0
 10
6.3525125903
 20
-33.122638694
 30
0.0
 10
6.4488318802
 20
-33.0639432403
 30
0.0
 10
6.5191595653
 20
-32.9834048325
 30
0.0
 10
6.5628389243
 20
-32.8905956426
 30
0.0
 10
6.5768536213
 20
-32.7919894564
 30
0.0
 10
6.5644865522
 20
-32.6962523429
 30
0.0
 10
6.5088643156
 20
-32.5751056794
 30
0.0
 10
6.422142051
 20
-32.5139047745
 30
0.0
 10
6.3600942661
 20
-32.4850799251
 30
0.0
  0
SPLINE
  5
5F6
100
AcDbEntity
  8
0
100
AcDbSpline
 62
7
  6
CONTINUOUS
 70
0
 71
3
 72
9
 73
5
 74
0
 42
0.0000001
 43
0.0000001
 44
0.0000000001
 40
0.0
 40
0.0
 40
0.0
 40
0.0
 40
0.1708537376
 40
1.0
 40
1.0
 40
1.0
 40
1.0
 10
6.3600942661
 20
-32.4850799251
 30
0.0
 10
6.3454312799
 20
-32.4783768554
 30
0.0
 10
6.2570694185
 20
-32.4448684469
 30
0.0
 10
6.1650369961
 20
-32.4226848255
 30
0.0
 10
6.0888649164
 20
-32.4048079346
 30
0.0
  0
SPLINE
  5
5F7
100
AcDbEntity
  8
0
100
AcDbSpline
 62
7
  6
CONTINUOUS
 70
0
 71
3
 72
9
 73
5
 74
0
 42
0.0000001
 43
0.0000001
 44
0.0000000001
 40
0.0
 40
0.0
 40
0.0
 40
0.0
 40
0.6350560901
 40
1.0
 40
1.0
 40
1.0
 40
1.0
 10
6.0888649164
 20
-32.4048079346
 30
0.0
 10
6.0351822524
 20
-32.3922091041
 30
0.0
 10
5.9526363732
 20
-32.3695249408
 30
0.0
 10
5.8688698248
 20
-32.3364762174
 30
0.0
 10
5.8458552466
 20
-32.3146945815
 30
0.0
  0
SPLINE
  5
5F8
100
AcDbEntity
  8
0
100
AcDbSpline
 62
7
  6
CONTINUOUS
 70
0
 71
3
 72
16
 73
12
 74
0
 42
0.0000001
 43
0.0000001
 44
0.0000000001
 40
0.0
 40
0.0
 40
0.0
 40
0.0
 40
0.1219923656
 40
0.1832732458
 40
0.248197934
 40
0.323728273
 40
0.3974828774
 40
0.4735809367
 40
0.5557901273
 40
0.7471063308
 40
1.0
 40
1.0
 40
1.0
 40
1.0
 10
5.8458552466
 20
-32.3146945815
 30
0.0
 10
5.8308572683
 20
-32.3007839725
 30
0.0
 10
5.8120466499
 20
-32.2749445214
 30
0.0
 10
5.8002313397
 20
-32.2347635975
 30
0.0
 10
5.7973166005
 20
-32.2008674458
 30
0.0
 10
5.8010544966
 20
-32.1648491438
 30
0.0
 10
5.8139594766
 20
-32.1289016713
 30
0.0
 10
5.8356869105
 20
-32.0962791389
 30
0.0
 10
5.8772987102
 20
-32.0543052678
 30
0.0
 10
5.9609991545
 20
-32.0178940573
 30
0.0
 10
6.0360844008
 20
-32.0130519692
 30
0.0
 10
6.0784900954
 20
-32.0130519692
 30
0.0
  0
SPLINE
  5
5F9
100
AcDbEntity
  8
0
100
AcDbSpline
 62
7
  6
CONTINUOUS
 70
0
 71
3
 72
9
 73
5
 74
0
 42
0.0000001
 43
0.0000001
 44
0.0000000001
 40
0.0
 40
0.0
 40
0.0
 40
0.0
 40
0.5306823676
 40
1.0
 40
1.0
 40
1.0
 40
1.0
 10
6.0784900954
 20
-32.0130519692
 30
0.0
 10
6.1519801535
 20
-32.0130519692
 30
0.0
 10
6.3083833298
 20
-32.0359626737
 30
0.0
 10
6.3682358702
 20
-32.1836722622
 30
0.0
 10
6.3751526823
 20
-32.2482952869
 30
0.0
  0
SPLINE
  5
5FA
100
AcDbEntity
  8
0
100
AcDbSpline
 62
7
  6
CONTINUOUS
 70
0
 71
3
 72
13
 73
9
 74
0
 42
0.0000001
 43
0.0000001
 44
0.0000000001
 40
0.0
 40
0.0
 40
0.0
 40
0.0
 40
0.1571016647
 40
0.3096608808
 40
0.4633596561
 40
0.6259608805
 40
0.8039640154
 40
1.0
 40
1.0
 40
1.0
 40
1.0
 10
6.5420995529
 20
-32.2407067928
 30
0.0
 10
6.5407334479
 20
-32.2056429986
 30
0.0
 10
6.529613721
 20
-32.1364044442
 30
0.0
 10
6.4848363744
 20
-32.041576703
 30
0.0
 10
6.4132066262
 20
-31.9627852272
 30
0.0
 10
6.3156891628
 20
-31.9078297914
 30
0.0
 10
6.1994733871
 20
-31.8752041825
 30
0.0
 10
6.1156368693
 20
-31.868870581
 30
0.0
 10
6.0718500617
 20
-31.868870581
 30
0.0
  0
SPLINE
  5
5FB
100
AcDbEntity
  8
0
100
AcDbSpline
 62
7
  6
CONTINUOUS
 70
0
 71
3
 72
15
 73
11
 74
0
 42
0.0000001
 43
0.0000001
 44
0.0000000001
 40
0.0
 40
0.0
 40
0.0
 40
0.0
 40
0.1249524682
 40
0.2423294566
 40
0.350902176
 40
0.4524669683
 40
0.6444564726
 40
0.7304140431
 40
0.8144496174
 40
1.0
 40
1.0
 40
1.0
 40
1.0
 10
6.0718500617
 20
-31.868870581
 30
0.0
 10
6.0315160543
 20
-31.868870581
 30
0.0
 10
5.9530248459
 20
-31.8753524016
 30
0.0
 10
5.8434640695
 20
-31.9066941751
 30
0.0
 10
5.7497082182
 20
-31.9587916557
 30
0.0
 10
5.66109621
 20
-32.0561992035
 30
0.0
 10
5.6231500998
 20
-32.1812117086
 30
0.0
 10
5.6386327935
 20
-32.2982492722
 30
0.0
 10
5.6864373811
 20
-32.4045536322
 30
0.0
 10
5.7594338107
 20
-32.4615189953
 30
0.0
 10
5.8126556572
 20
-32.4889928021
 30
0.0
  0
SPLINE
  5
5FC
100
AcDbEntity
  8
0
100
AcDbSpline
 62
7
  6
CONTINUOUS
 70
0
 71
3
 72
9
 73
5
 74
0
 42
0.0000001
 43
0.0000001
 44
0.0000000001
 40
0.0
 40
0.0
 40
0.0
 40
0.0
 40
0.1806469784
 40
1.0
 40
1.0
 40
1.0
 40
1.0
 10
5.8126556572
 20
-32.4889928021
 30
0.0
 10
5.8260689121
 20
-32.4960037689
 30
0.0
 10
5.9030009767
 20
-32.5295718191
 30
0.0
 10
5.9844281388
 20
-32.5510756163
 30
0.0
 10
6.0510410178
 20
-32.5676641281
 30
0.0
  0
SPLINE
  5
5FD
100
AcDbEntity
  8
0
100
AcDbSpline
 62
7
  6
CONTINUOUS
 70
0
 71
3
 72
9
 73
5
 74
0
 42
0.0000001
 43
0.0000001
 44
0.0000000001
 40
0.0
 40
0.0
 40
0.0
 40
0.0
 40
0.3500357027
 40
1.0
 40
1.0
 40
1.0
 40
1.0
 10
6.0510410178
 20
-32.5676641281
 30
0.0
 10
6.0765772404
 20
-32.5740233778
 30
0.0
 10
6.1492392394
 20
-32.5930022856
 30
0.0
 10
6.222648171
 20
-32.6109812757
 30
0.0
 10
6.2679653042
 20
-32.6292613134
 30
0.0
  0
SPLINE
  5
5FE
100
AcDbEntity
  8
0
100
AcDbSpline
 62
7
  6
CONTINUOUS
 70
0
 71
3
 72
21
 73
17
 74
0
 42
0.0000001
 43
0.0000001
 44
0.0000000001
 40
0.0
 40
0.0
 40
0.0
 40
0.0
 40
0.0889783718
 40
0.1598701364
 40
0.2240558258
 40
0.2916470269
 40
0.3605310038
 40
0.4313918817
 40
0.5074185444
 40
0.592929011
 40
0.6887797869
 40
0.7401776919
 40
0.794458656
 40
0.8558864763
 40
0.9147445392
 40
1.0
 40
1.0
 40
1.0
 40
1.0
 10
6.2679653042
 20
-32.6292613134
 30
0.0
 10
6.2906490841
 20
-32.6382293177
 30
0.0
 10
6.3305699105
 20
-32.6572723912
 30
0.0
 10
6.3768830284
 20
-32.6996333176
 30
0.0
 10
6.4008303612
 20
-32.7510636057
 30
0.0
 10
6.4081462955
 20
-32.8062881522
 30
0.0
 10
6.3996484889
 20
-32.8633411996
 30
0.0
 10
6.3728899558
 20
-32.9171774787
 30
0.0
 10
6.3276906814
 20
-32.9635843802
 30
0.0
 10
6.264607524
 20
-32.997050065
 30
0.0
 10
6.202731197
 20
-33.0142903794
 30
0.0
 10
6.1478498281
 20
-33.0212096056
 30
0.0
 10
6.102023835
 20
-33.0229800118
 30
0.0
 10
6.0541444004
 20
-33.0208354431
 30
0.0
 10
5.9982956455
 20
-33.0126689403
 30
0.0
 10
5.9601884198
 20
-33.0014795572
 30
0.0
 10
5.9383487936
 20
-32.9929794725
 30
0.0
  0
SPLINE
  5
5FF
100
AcDbEntity
  8
0
100
AcDbSpline
 62
7
  6
CONTINUOUS
 70
0
 71
3
 72
21
 73
17
 74
0
 42
0.0000001
 43
0.0000001
 44
0.0000000001
 40
0.0
 40
0.0
 40
0.0
 40
0.0
 40
0.1125495645
 40
0.1681371967
 40
0.2259536191
 40
0.26704625
 40
0.3067901304
 40
0.3852150722
 40
0.4635807736
 40
0.5444690013
 40
0.6321341933
 40
0.6793404105
 40
0.7294223519
 40
0.8066476434
 40
0.8761112543
 40
1.0
 40
1.0
 40
1.0
 40
1.0
 10
4.521663023
 20
-32.1336971569
 30
0.0
 10
4.561838649
 20
-32.0955640542
 30
0.0
 10
4.6329401493
 20
-32.048173635
 30
0.0
 10
4.7405302136
 20
-32.0177617127
 30
0.0
 10
4.8167436646
 20
-32.0113162163
 30
0.0
 10
4.8850271724
 20
-32.0155152963
 30
0.0
 10
4.9620813777
 20
-32.0311064212
 30
0.0
 10
5.0518125487
 20
-32.0709064353
 30
0.0
 10
5.1420707687
 20
-32.1481089403
 30
0.0
 10
5.2066430239
 20
-32.2530738302
 30
0.0
 10
5.2376594708
 20
-32.3556637215
 30
0.0
 10
5.250098563
 20
-32.4459543954
 30
0.0
 10
5.253574035
 20
-32.5318593052
 30
0.0
 10
5.2477259444
 20
-32.6289091292
 30
0.0
 10
5.2196538629
 20
-32.7593505537
 30
0.0
 10
5.1722846418
 20
-32.8462549472
 30
0.0
 10
5.1309360771
 20
-32.8910644183
 30
0.0
  0
SPLINE
  5
600
100
AcDbEntity
  8
0
100
AcDbSpline
 62
7
  6
CONTINUOUS
 70
0
 71
3
 72
17
 73
13
 74
0
 42
0.0000001
 43
0.0000001
 44
0.0000000001
 40
0.0
 40
0.0
 40
0.0
 40
0.0
 40
0.1581267217
 40
0.2374466125
 40
0.3214448005
 40
0.4041332889
 40
0.4826014484
 40
0.560340071
 40
0.6409347996
 40
0.7239082795
 40
0.8092205449
 40
1.0
 40
1.0
 40
1.0
 40
1.0
 10
5.1309360771
 20
-32.8910644183
 30
0.0
 10
5.0926769069
 20
-32.9325259104
 30
0.0
 10
5.021585498
 20
-32.9845855289
 30
0.0
 10
4.9109079857
 20
-33.0173431875
 30
0.0
 10
4.8229386092
 20
-33.024862801
 30
0.0
 10
4.7353051625
 20
-33.0174073053
 30
0.0
 10
4.6529954642
 20
-32.9927823738
 30
0.0
 10
4.5787871505
 20
-32.9510201359
 30
0.0
 10
4.5137706798
 20
-32.8937070162
 30
0.0
 10
4.459834699
 20
-32.8222951563
 30
0.0
 10
4.406689848
 20
-32.7047468952
 30
0.0
 10
4.3945557176
 20
-32.6044872496
 30
0.0
 10
4.3945557176
 20
-32.5364209193
 30
0.0
  0
SPLINE
  5
601
100
AcDbEntity
  8
0
100
AcDbSpline
 62
7
  6
CONTINUOUS
 70
0
 71
3
 72
9
 73
5
 74
0
 42
0.0000001
 43
0.0000001
 44
0.0000000001
 40
0.0
 40
0.0
 40
0.0
 40
0.0
 40
0.7911658617
 40
1.0
 40
1.0
 40
1.0
 40
1.0
 10
4.3945557176
 20
-32.5364209193
 30
0.0
 10
4.3945557176
 20
-32.4231155643
 30
0.0
 10
4.4112422705
 20
-32.2695817049
 30
0.0
 10
4.4999707937
 20
-32.1542865564
 30
0.0
 10
4.521663023
 20
-32.1336971569
 30
0.0
  0
SPLINE
  5
602
100
AcDbEntity
  8
0
100
AcDbSpline
 62
7
  6
CONTINUOUS
 70
0
 71
3
 72
18
 73
14
 74
0
 42
0.0000001
 43
0.0000001
 44
0.0000000001
 40
0.0
 40
0.0
 40
0.0
 40
0.0
 40
0.1519229241
 40
0.2688691096
 40
0.3698366199
 40
0.4199224095
 40
0.4728043776
 40
0.5460050487
 40
0.6198797209
 40
0.6954843994
 40
0.7757756407
 40
0.8738495482
 40
1.0
 40
1.0
 40
1.0
 40
1.0
 10
3.5880411604
 20
-32.0358174516
 30
0.0
 10
3.6284240826
 20
-32.0358174516
 30
0.0
 10
3.7007014989
 20
-32.0409562829
 30
0.0
 10
3.7926085835
 20
-32.0839860561
 30
0.0
 10
3.8370444795
 20
-32.1433059955
 30
0.0
 10
3.8533191562
 20
-32.1953790723
 30
0.0
 10
3.8576351928
 20
-32.2423134493
 30
0.0
 10
3.8502304071
 20
-32.2956964862
 30
0.0
 10
3.8247045711
 20
-32.350068403
 30
0.0
 10
3.7825836858
 20
-32.3958933584
 30
0.0
 10
3.7213600737
 20
-32.4270940479
 30
0.0
 10
3.6414157794
 20
-32.4429942872
 30
0.0
 10
3.5817338295
 20
-32.4455961339
 30
0.0
 10
3.5482015374
 20
-32.4455961339
 30
0.0
  0
SPLINE
  5
603
100
AcDbEntity
  8
0
100
AcDbSpline
 62
7
  6
CONTINUOUS
 70
0
 71
3
 72
9
 73
5
 74
0
 42
0.0000001
 43
0.0000001
 44
0.0000000001
 40
0.0
 40
0.0
 40
0.0
 40
0.0
 40
0.3222232674
 40
1.0
 40
1.0
 40
1.0
 40
1.0
 10
3.3858788601
 20
-32.5897775222
 30
0.0
 10
3.3957110579
 20
-32.5897775222
 30
0.0
 10
3.4261735278
 20
-32.5902312796
 30
0.0
 10
3.4569319421
 20
-32.5913659452
 30
0.0
 10
3.4771779336
 20
-32.5955874358
 30
0.0
  0
SPLINE
  5
604
100
AcDbEntity
  8
0
100
AcDbSpline
 62
7
  6
CONTINUOUS
 70
0
 71
3
 72
12
 73
8
 74
0
 42
0.0000001
 43
0.0000001
 44
0.0000000001
 40
0.0
 40
0.0
 40
0.0
 40
0.0
 40
0.0974412774
 40
0.2003948476
 40
0.4882068918
 40
0.7085912992
 40
1.0
 40
1.0
 40
1.0
 40
1.0
 10
3.4771779336
 20
-32.5955874358
 30
0.0
 10
3.4900866472
 20
-32.5986839264
 30
0.0
 10
3.5160158412
 20
-32.6076115659
 30
0.0
 10
3.5753226028
 20
-32.6387220759
 30
0.0
 10
3.6312881369
 20
-32.7032059974
 30
0.0
 10
3.6941501547
 20
-32.7915656098
 30
0.0
 10
3.7324268279
 20
-32.8500217403
 30
0.0
 10
3.7538023107
 20
-32.8834759242
 30
0.0
  0
SPLINE
  5
605
100
AcDbEntity
  8
0
100
AcDbSpline
 62
7
  6
CONTINUOUS
 70
0
 71
3
 72
9
 73
5
 74
0
 42
0.0000001
 43
0.0000001
 44
0.0000000001
 40
0.0
 40
0.0
 40
0.0
 40
0.0
 40
0.2659540588
 40
1.0
 40
1.0
 40
1.0
 40
1.0
 10
3.9013036
 20
-32.8033223899
 30
0.0
 10
3.8909520863
 20
-32.7876886908
 30
0.0
 10
3.8508028936
 20
-32.7297489233
 30
0.0
 10
3.8053741831
 20
-32.6753014819
 30
0.0
 10
3.7686235829
 20
-32.638865532
 30
0.0
  0
SPLINE
  5
606
100
AcDbEntity
  8
0
100
AcDbSpline
 62
7
  6
CONTINUOUS
 70
0
 71
3
 72
9
 73
5
 74
0
 42
0.0000001
 43
0.0000001
 44
0.0000000001
 40
0.0
 40
0.0
 40
0.0
 40
0.0
 40
0.209446698
 40
1.0
 40
1.0
 40
1.0
 40
1.0
 10
3.7686235829
 20
-32.638865532
 30
0.0
 10
3.7628678229
 20
-32.6332568191
 30
0.0
 10
3.733774391
 20
-32.608131784
 30
0.0
 10
3.7003261687
 20
-32.5885919464
 30
0.0
 10
3.6734117482
 20
-32.5746005339
 30
0.0
  0
SPLINE
  5
607
100
AcDbEntity
  8
0
100
AcDbSpline
 62
7
  6
CONTINUOUS
 70
0
 71
3
 72
21
 73
17
 74
0
 42
0.0000001
 43
0.0000001
 44
0.0000000001
 40
0.0
 40
0.0
 40
0.0
 40
0.0
 40
0.1365200578
 40
0.2486517489
 40
0.3509700259
 40
0.4027637157
 40
0.4573654021
 40
0.5004782595
 40
0.5423967131
 40
0.5839060152
 40
0.6258144236
 40
0.705942642
 40
0.782907869
 40
0.8256733927
 40
0.8758071331
 40
1.0
 40
1.0
 40
1.0
 40
1.0
 10
3.6734117482
 20
-32.5746005339
 30
0.0
 10
3.7264477504
 20
-32.5672353899
 30
0.0
 10
3.8230001515
 20
-32.5452340238
 30
0.0
 10
3.9411858812
 20
-32.4676798352
 30
0.0
 10
3.9981423958
 20
-32.3762936916
 30
0.0
 10
4.0194754908
 20
-32.2968655302
 30
0.0
 10
4.0240341362
 20
-32.2380863449
 30
0.0
 10
4.0206720699
 20
-32.1832946915
 30
0.0
 10
4.0109828861
 20
-32.134454965
 30
0.0
 10
3.9946819932
 20
-32.087890036
 30
0.0
 10
3.9652797582
 20
-32.0307527026
 30
0.0
 10
3.9155454702
 20
-31.9687712366
 30
0.0
 10
3.8467118689
 20
-31.9277666268
 30
0.0
 10
3.7826141074
 20
-31.9089792948
 30
0.0
 10
3.6986046094
 20
-31.894342965
 30
0.0
 10
3.6299927455
 20
-31.8916360634
 30
0.0
 10
3.5812826705
 20
-31.8916360634
 30
0.0
  0
SPLINE
  5
608
100
AcDbEntity
  8
0
100
AcDbSpline
 62
7
  6
CONTINUOUS
 70
0
 71
3
 72
9
 73
5
 74
0
 42
0.0000001
 43
0.0000001
 44
0.0000000001
 40
0.0
 40
0.0
 40
0.0
 40
0.0
 40
0.7097160398
 40
1.0
 40
1.0
 40
1.0
 40
1.0
 10
2.2887486579
 20
-32.0206404634
 30
0.0
 10
2.3071648082
 20
-32.0836693593
 30
0.0
 10
2.3367937422
 20
-32.1713902047
 30
0.0
 10
2.3681849672
 20
-32.2584162405
 30
0.0
 10
2.3774391467
 20
-32.2836291728
 30
0.0
  0
SPLINE
  5
609
100
AcDbEntity
  8
0
100
AcDbSpline
 62
7
  6
CONTINUOUS
 70
0
 71
3
 72
9
 73
5
 74
0
 42
0.0000001
 43
0.0000001
 44
0.0000000001
 40
0.0
 40
0.0
 40
0.0
 40
0.0
 40
0.3106214921
 40
1.0
 40
1.0
 40
1.0
 40
1.0
 10
1.0674753931
 20
-32.760874298
 30
0.0
 10
1.0601649423
 20
-32.7815439474
 30
0.0
 10
1.0367653469
 20
-32.8481328828
 30
0.0
 10
1.0136803824
 20
-32.9148435017
 30
0.0
 10
0.9987046579
 20
-32.9611394458
 30
0.0
  0
SPLINE
  5
60A
100
AcDbEntity
  8
0
100
AcDbSpline
 62
7
  6
CONTINUOUS
 70
0
 71
3
 72
9
 73
5
 74
0
 42
0.0000001
 43
0.0000001
 44
0.0000000001
 40
0.0
 40
0.0
 40
0.0
 40
0.0
 40
0.1862683768
 40
1.0
 40
1.0
 40
1.0
 40
1.0
 10
0.9987046579
 20
-32.9611394458
 30
0.0
 10
0.9951581995
 20
-32.9496079125
 30
0.0
 10
0.9757368519
 20
-32.8878174584
 30
0.0
 10
0.9554359168
 20
-32.8263081643
 30
0.0
 10
0.9388267092
 20
-32.7762884303
 30
0.0
  0
SPLINE
  5
60B
100
AcDbEntity
  8
0
100
AcDbSpline
 62
7
  6
CONTINUOUS
 70
0
 71
3
 72
23
 73
19
 74
0
 42
0.0000001
 43
0.0000001
 44
0.0000000001
 40
0.0
 40
0.0
 40
0.0
 40
0.0
 40
0.113764675
 40
0.1684148632
 40
0.2241614473
 40
0.2803346634
 40
0.3363502887
 40
0.3943171793
 40
0.4561448477
 40
0.5247021871
 40
0.58906852
 40
0.6516060324
 40
0.7148820607
 40
0.7772121974
 40
0.8368050177
 40
0.8962885149
 40
0.9583045815
 40
1.0
 40
1.0
 40
1.0
 40
1.0
 10
-1.1146910118
 20
-32.8174323457
 30
0.0
 10
-1.109878791
 20
-32.8657025883
 30
0.0
 10
-1.0914071581
 20
-32.9372731719
 30
0.0
 10
-1.0405543437
 20
-33.0188422322
 30
0.0
 10
-0.9917484762
 20
-33.0710295841
 30
0.0
 10
-0.9338085663
 20
-33.1138441737
 30
0.0
 10
-0.8676071248
 20
-33.1446908812
 30
0.0
 10
-0.794441135
 20
-33.1628892898
 30
0.0
 10
-0.7140184798
 20
-33.1685307843
 30
0.0
 10
-0.6308364984
 20
-33.1622334981
 30
0.0
 10
-0.5497445822
 20
-33.1408352814
 30
0.0
 10
-0.4765805187
 20
-33.1045025983
 30
0.0
 10
-0.4132605166
 20
-33.0544246446
 30
0.0
 10
-0.3608678469
 20
-32.9947095203
 30
0.0
 10
-0.3224682799
 20
-32.926877334
 30
0.0
 10
-0.299729498
 20
-32.8524525638
 30
0.0
 10
-0.2935618963
 20
-32.7826994371
 30
0.0
 10
-0.2961858467
 20
-32.7384313219
 30
0.0
 10
-0.2985052411
 20
-32.720795243
 30
0.0
  0
SPLINE
  5
60C
100
AcDbEntity
  8
0
100
AcDbSpline
 62
7
  6
CONTINUOUS
 70
0
 71
3
 72
19
 73
15
 74
0
 42
0.0000001
 43
0.0000001
 44
0.0000000001
 40
0.0
 40
0.0
 40
0.0
 40
0.0
 40
0.1602305348
 40
0.3085611915
 40
0.4700123011
 40
0.5543396919
 40
0.6423432586
 40
0.6882140063
 40
0.7340521267
 40
0.7805463395
 40
0.8283570197
 40
0.8963177201
 40
0.9601739035
 40
1.0
 40
1.0
 40
1.0
 40
1.0
 10
-0.5355940182
 20
-32.4653973155
 30
0.0
 10
-0.4850921085
 20
-32.4420076902
 30
0.0
 10
-0.3939957185
 20
-32.3724868173
 30
0.0
 10
-0.3478952253
 20
-32.2057751682
 30
0.0
 10
-0.3883007955
 20
-32.0675368604
 30
0.0
 10
-0.4619121232
 20
-31.9762580269
 30
0.0
 10
-0.5256348503
 20
-31.9332549816
 30
0.0
 10
-0.5828032307
 20
-31.9079754627
 30
0.0
 10
-0.6288933669
 20
-31.8940817734
 30
0.0
 10
-0.6769815555
 20
-31.885792383
 30
0.0
 10
-0.7333670094
 20
-31.8828328555
 30
0.0
 10
-0.7958620938
 20
-31.8872641255
 30
0.0
 10
-0.8541064312
 20
-31.9014014117
 30
0.0
 10
-0.8874768891
 20
-31.91527814
 30
0.0
 10
-0.8999226554
 20
-31.9213648638
 30
0.0
  0
SPLINE
  5
60D
100
AcDbEntity
  8
0
100
AcDbSpline
 62
7
  6
CONTINUOUS
 70
0
 71
3
 72
17
 73
13
 74
0
 42
0.0000001
 43
0.0000001
 44
0.0000000001
 40
0.0
 40
0.0
 40
0.0
 40
0.0
 40
0.2752721262
 40
0.3947823884
 40
0.4562356547
 40
0.5215301736
 40
0.5872068469
 40
0.6484042185
 40
0.7073568031
 40
0.7665538661
 40
0.881399665
 40
1.0
 40
1.0
 40
1.0
 40
1.0
 10
-0.9477441412
 20
-32.2331182986
 30
0.0
 10
-0.9384336212
 20
-32.17311724
 30
0.0
 10
-0.9050484017
 20
-32.0822795447
 30
0.0
 10
-0.8160681689
 20
-32.0287133028
 30
0.0
 10
-0.7632406832
 20
-32.0151177255
 30
0.0
 10
-0.7207125903
 20
-32.0119902988
 30
0.0
 10
-0.6782622055
 20
-32.0150978653
 30
0.0
 10
-0.6383350422
 20
-32.025440441
 30
0.0
 10
-0.6025753711
 20
-32.0430729175
 30
0.0
 10
-0.5620402338
 20
-32.0750887732
 30
0.0
 10
-0.5237182648
 20
-32.1295756362
 30
0.0
 10
-0.5151999765
 20
-32.182057828
 30
0.0
 10
-0.5151999765
 20
-32.2082185198
 30
0.0
  0
SPLINE
  5
60E
100
AcDbEntity
  8
0
100
AcDbSpline
 62
7
  6
CONTINUOUS
 70
0
 71
3
 72
9
 73
5
 74
0
 42
0.0000001
 43
0.0000001
 44
0.0000000001
 40
0.0
 40
0.0
 40
0.0
 40
0.0
 40
0.5205318383
 40
1.0
 40
1.0
 40
1.0
 40
1.0
 10
-0.5151999765
 20
-32.2082185198
 30
0.0
 10
-0.5151999765
 20
-32.239768949
 30
0.0
 10
-0.525111702
 20
-32.3024186997
 30
0.0
 10
-0.5684338374
 20
-32.3498444017
 30
0.0
 10
-0.5926855822
 20
-32.3658576018
 30
0.0
  0
SPLINE
  5
60F
100
AcDbEntity
  8
0
100
AcDbSpline
 62
7
  6
CONTINUOUS
 70
0
 71
3
 72
8
 73
4
 74
0
 42
0.0000001
 43
0.0000001
 44
0.0000000001
 40
0.0
 40
0.0
 40
0.0
 40
0.0
 40
1.0
 40
1.0
 40
1.0
 40
1.0
 10
-0.5926855822
 20
-32.3658576018
 30
0.0
 10
-0.6432308515
 20
-32.3992321701
 30
0.0
 10
-0.7064733515
 20
-32.4170206221
 30
0.0
 10
-0.7670430309
 20
-32.4170206221
 30
0.0
  0
SPLINE
  5
610
100
AcDbEntity
  8
0
100
AcDbSpline
 62
7
  6
CONTINUOUS
 70
0
 71
3
 72
8
 73
4
 74
0
 42
0.0000001
 43
0.0000001
 44
0.0000000001
 40
0.0
 40
0.0
 40
0.0
 40
0.0
 40
1.0
 40
1.0
 40
1.0
 40
1.0
 10
-0.7670430309
 20
-32.4170206221
 30
0.0
 10
-0.7754035255
 20
-32.4170206221
 30
0.0
 10
-0.7837535519
 20
-32.4161790835
 30
0.0
 10
-0.7920613818
 20
-32.4152421575
 30
0.0
  0
SPLINE
  5
611
100
AcDbEntity
  8
0
100
AcDbSpline
 62
7
  6
CONTINUOUS
 70
0
 71
3
 72
9
 73
5
 74
0
 42
0.0000001
 43
0.0000001
 44
0.0000000001
 40
0.0
 40
0.0
 40
0.0
 40
0.0
 40
0.290916541
 40
1.0
 40
1.0
 40
1.0
 40
1.0
 10
-0.8096098107
 20
-32.5518350516
 30
0.0
 10
-0.7990157169
 20
-32.5491205498
 30
0.0
 10
-0.762456819
 20
-32.5405398026
 30
0.0
 10
-0.7249286407
 20
-32.5347609109
 30
0.0
 10
-0.6982722957
 20
-32.5347609109
 30
0.0
  0
SPLINE
  5
612
100
AcDbEntity
  8
0
100
AcDbSpline
 62
7
  6
CONTINUOUS
 70
0
 71
3
 72
23
 73
19
 74
0
 42
0.0000001
 43
0.0000001
 44
0.0000000001
 40
0.0
 40
0.0
 40
0.0
 40
0.0
 40
0.1250416907
 40
0.1840057623
 40
0.2436382325
 40
0.3028494879
 40
0.3606002476
 40
0.4195036727
 40
0.4820285678
 40
0.5477508497
 40
0.6101678585
 40
0.6718042485
 40
0.7352778897
 40
0.7990112428
 40
0.8615518478
 40
0.9256219096
 40
0.9937605692
 40
1.0
 40
1.0
 40
1.0
 40
1.0
 10
-0.6982722957
 20
-32.5347609109
 30
0.0
 10
-0.6645128072
 20
-32.5347609109
 30
0.0
 10
-0.6138979167
 20
-32.5423125854
 30
0.0
 10
-0.5547052635
 20
-32.5719668125
 30
0.0
 10
-0.5168862756
 20
-32.6020528621
 30
0.0
 10
-0.4856468455
 20
-32.6384910467
 30
0.0
 10
-0.4629405259
 20
-32.6806211088
 30
0.0
 10
-0.4495533818
 20
-32.7274797567
 30
0.0
 10
-0.4454926031
 20
-32.7781025627
 30
0.0
 10
-0.4497466648
 20
-32.829671466
 30
0.0
 10
-0.4638642609
 20
-32.8793019224
 30
0.0
 10
-0.4877915204
 20
-32.924348133
 30
0.0
 10
-0.5205814427
 20
-32.9637980016
 30
0.0
 10
-0.5602723883
 20
-32.9967135922
 30
0.0
 10
-0.6062143294
 20
-33.0206188274
 30
0.0
 10
-0.6572480085
 20
-33.0346922717
 30
0.0
 10
-0.6946926885
 20
-33.0376545959
 30
0.0
 10
-0.7148086548
 20
-33.0374821567
 30
0.0
 10
-0.7164958685
 20
-33.0374548902
 30
0.0
  0
SPLINE
  5
613
100
AcDbEntity
  8
0
100
AcDbSpline
 62
7
  6
CONTINUOUS
 70
0
 71
3
 72
12
 73
8
 74
0
 42
0.0000001
 43
0.0000001
 44
0.0000000001
 40
0.0
 40
0.0
 40
0.0
 40
0.0
 40
0.2240836447
 40
0.4505791617
 40
0.5918779795
 40
0.7268035565
 40
1.0
 40
1.0
 40
1.0
 40
1.0
 10
-1.7869841155
 20
-32.0540771968
 30
0.0
 10
-1.7677217281
 20
-32.0408007489
 30
0.0
 10
-1.724749332
 20
-32.0195488226
 30
0.0
 10
-1.6625937458
 20
-32.0109950114
 30
0.0
 10
-1.6100325532
 20
-32.0155811931
 30
0.0
 10
-1.5547268698
 20
-32.0321895378
 30
0.0
 10
-1.5189919252
 20
-32.0581939735
 30
0.0
 10
-1.4993327712
 20
-32.0788584037
 30
0.0
  0
SPLINE
  5
614
100
AcDbEntity
  8
0
100
AcDbSpline
 62
7
  6
CONTINUOUS
 70
0
 71
3
 72
9
 73
5
 74
0
 42
0.0000001
 43
0.0000001
 44
0.0000000001
 40
0.0
 40
0.0
 40
0.0
 40
0.0
 40
0.203826354
 40
1.0
 40
1.0
 40
1.0
 40
1.0
 10
-1.4993327712
 20
-32.0788584037
 30
0.0
 10
-1.4926641276
 20
-32.086093241
 30
0.0
 10
-1.4639334019
 20
-32.125278484
 30
0.0
 10
-1.449530986
 20
-32.1728783929
 30
0.0
 10
-1.4409962588
 20
-32.2103528163
 30
0.0
  0
SPLINE
  5
615
100
AcDbEntity
  8
0
100
AcDbSpline
 62
7
  6
CONTINUOUS
 70
0
 71
3
 72
25
 73
21
 74
0
 42
0.0000001
 43
0.0000001
 44
0.0000000001
 40
0.0
 40
0.0
 40
0.0
 40
0.0
 40
0.0831575723
 40
0.159398024
 40
0.1975905574
 40
0.2361630692
 40
0.2765529139
 40
0.3200175236
 40
0.3780444245
 40
0.4321719576
 40
0.4852273827
 40
0.5402036145
 40
0.6088615101
 40
0.6869349741
 40
0.7772453046
 40
0.8276111453
 40
0.8816627753
 40
0.9299199948
 40
0.9747722521
 40
1.0
 40
1.0
 40
1.0
 40
1.0
 10
-1.2892263765
 20
-32.1951758281
 30
0.0
 10
-1.2949775095
 20
-32.1504405949
 30
0.0
 10
-1.3173175725
 20
-32.0648858889
 30
0.0
 10
-1.3841128223
 20
-31.9772086148
 30
0.0
 10
-1.452004029
 20
-31.9286679663
 30
0.0
 10
-1.5103542195
 20
-31.9024712928
 30
0.0
 10
-1.5753214182
 20
-31.8870873105
 30
0.0
 10
-1.6523516223
 20
-31.8819690475
 30
0.0
 10
-1.7369846744
 20
-31.8893403806
 30
0.0
 10
-1.8232376843
 20
-31.9165308023
 30
0.0
 10
-1.8989460212
 20
-31.9629525725
 30
0.0
 10
-1.9673547605
 20
-32.031256544
 30
0.0
 10
-2.0243773919
 20
-32.1259343413
 30
0.0
 10
-2.0652558766
 20
-32.2486194764
 30
0.0
 10
-2.0844610227
 20
-32.3660864193
 30
0.0
 10
-2.0923454213
 20
-32.471441686
 30
0.0
 10
-2.0942235653
 20
-32.5542640095
 30
0.0
 10
-2.0924879079
 20
-32.6340978433
 30
0.0
 10
-2.0876042394
 20
-32.6981144357
 30
0.0
 10
-2.0828264647
 20
-32.735868485
 30
0.0
 10
-2.0808210267
 20
-32.7494170722
 30
0.0
  0
SPLINE
  5
616
100
AcDbEntity
  8
0
100
AcDbSpline
 62
7
  6
CONTINUOUS
 70
0
 71
3
 72
23
 73
19
 74
0
 42
0.0000001
 43
0.0000001
 44
0.0000000001
 40
0.0
 40
0.0
 40
0.0
 40
0.0
 40
0.1335797111
 40
0.1999445536
 40
0.270215411
 40
0.3121716907
 40
0.3525140649
 40
0.4311729088
 40
0.5098076832
 40
0.5921510265
 40
0.6351016046
 40
0.6779076712
 40
0.7211760982
 40
0.7654947678
 40
0.8310631596
 40
0.8920984628
 40
0.9507896407
 40
1.0
 40
1.0
 40
1.0
 40
1.0
 10
-1.9722500752
 20
-33.0246930696
 30
0.0
 10
-1.9343057243
 20
-33.0690325217
 30
0.0
 10
-1.8627708082
 20
-33.1255143293
 30
0.0
 10
-1.7493170748
 20
-33.1611184279
 30
0.0
 10
-1.671049164
 20
-33.1682289966
 30
0.0
 10
-1.6043618955
 20
-33.1644098592
 30
0.0
 10
-1.5351204181
 20
-33.1510909097
 30
0.0
 10
-1.4544395172
 20
-33.1169478475
 30
0.0
 10
-1.3726518797
 20
-33.0491650298
 30
0.0
 10
-1.3231032258
 20
-32.9737061055
 30
0.0
 10
-1.2940498961
 20
-32.906145375
 30
0.0
 10
-1.2780384803
 20
-32.851946274
 30
0.0
 10
-1.2684828004
 20
-32.7956487719
 30
0.0
 10
-1.2649995483
 20
-32.7287165879
 30
0.0
 10
-1.2704649143
 20
-32.6538963387
 30
0.0
 10
-1.2906694144
 20
-32.5750085212
 30
0.0
 10
-1.323204107
 20
-32.5081390838
 30
0.0
 10
-1.3518397428
 20
-32.4703954106
 30
0.0
 10
-1.3661859713
 20
-32.4543249547
 30
0.0
  0
SPLINE
  5
617
100
AcDbEntity
  8
0
100
AcDbSpline
 62
7
  6
CONTINUOUS
 70
0
 71
3
 72
11
 73
7
 74
0
 42
0.0000001
 43
0.0000001
 44
0.0000000001
 40
0.0
 40
0.0
 40
0.0
 40
0.0
 40
0.3426107936
 40
0.6044566108
 40
0.8143265955
 40
1.0
 40
1.0
 40
1.0
 40
1.0
 10
-1.9418368706
 20
-32.4978855886
 30
0.0
 10
-1.9413456319
 20
-32.4424115238
 30
0.0
 10
-1.9364598123
 20
-32.3443594091
 30
0.0
 10
-1.9058773139
 20
-32.2148391766
 30
0.0
 10
-1.8550393281
 20
-32.1201386634
 30
0.0
 10
-1.81084293
 20
-32.0723703148
 30
0.0
 10
-1.7869841155
 20
-32.0540771968
 30
0.0
  0
SPLINE
  5
618
100
AcDbEntity
  8
0
100
AcDbSpline
 62
7
  6
CONTINUOUS
 70
0
 71
3
 72
13
 73
9
 74
0
 42
0.0000001
 43
0.0000001
 44
0.0000000001
 40
0.0
 40
0.0
 40
0.0
 40
0.0
 40
0.2418297111
 40
0.3587506684
 40
0.4819025475
 40
0.6099630364
 40
0.7339475358
 40
1.0
 40
1.0
 40
1.0
 40
1.0
 10
-2.8255406613
 20
-32.1026910343
 30
0.0
 10
-2.8050610134
 20
-32.0752881765
 30
0.0
 10
-2.7657754979
 20
-32.0394162799
 30
0.0
 10
-2.7008794068
 20
-32.0164620533
 30
0.0
 10
-2.648654904
 20
-32.0111816112
 30
0.0
 10
-2.5953912693
 20
-32.0169859461
 30
0.0
 10
-2.5262786067
 20
-32.0437441891
 30
0.0
 10
-2.4850611954
 20
-32.0841646766
 30
0.0
 10
-2.4630122381
 20
-32.1146666356
 30
0.0
  0
SPLINE
  5
619
100
AcDbEntity
  8
0
100
AcDbSpline
 62
7
  6
CONTINUOUS
 70
0
 71
3
 72
17
 73
13
 74
0
 42
0.0000001
 43
0.0000001
 44
0.0000000001
 40
0.0
 40
0.0
 40
0.0
 40
0.0
 40
0.0844580526
 40
0.1939587312
 40
0.3316668575
 40
0.4116386184
 40
0.4991820578
 40
0.5872976204
 40
0.6677250704
 40
0.8060064882
 40
0.915671004
 40
1.0
 40
1.0
 40
1.0
 40
1.0
 10
-2.4630122381
 20
-32.1146666356
 30
0.0
 10
-2.449067705
 20
-32.1339571431
 30
0.0
 10
-2.4258470113
 20
-32.1843994583
 30
0.0
 10
-2.4044554885
 20
-32.2756015894
 30
0.0
 10
-2.3944618503
 20
-32.3674659321
 30
0.0
 10
-2.390221249
 20
-32.453384509
 30
0.0
 10
-2.3892093262
 20
-32.5254364696
 30
0.0
 10
-2.3902290263
 20
-32.5976171819
 30
0.0
 10
-2.3945206877
 20
-32.683984692
 30
0.0
 10
-2.4046288156
 20
-32.7761807005
 30
0.0
 10
-2.4262703156
 20
-32.8675031637
 30
0.0
 10
-2.4498238125
 20
-32.9178464224
 30
0.0
 10
-2.4639608143
 20
-32.9369510991
 30
0.0
  0
SPLINE
  5
61A
100
AcDbEntity
  8
0
100
AcDbSpline
 62
7
  6
CONTINUOUS
 70
0
 71
3
 72
13
 73
9
 74
0
 42
0.0000001
 43
0.0000001
 44
0.0000000001
 40
0.0
 40
0.0
 40
0.0
 40
0.0
 40
0.2591154171
 40
0.3783560512
 40
0.500277571
 40
0.6221918694
 40
0.7413669728
 40
1.0
 40
1.0
 40
1.0
 40
1.0
 10
-2.4639608143
 20
-32.9369510991
 30
0.0
 10
-2.4862110301
 20
-32.9670199343
 30
0.0
 10
-2.5270067639
 20
-33.0068562218
 30
0.0
 10
-2.5949744071
 20
-33.0335319998
 30
0.0
 10
-2.6475661692
 20
-33.0395001849
 30
0.0
 10
-2.7001461067
 20
-33.0335482898
 30
0.0
 10
-2.7680736947
 20
-33.0070114734
 30
0.0
 10
-2.8089046241
 20
-32.9673349436
 30
0.0
 10
-2.8311727748
 20
-32.9373661012
 30
0.0
  0
SPLINE
  5
61B
100
AcDbEntity
  8
0
100
AcDbSpline
 62
7
  6
CONTINUOUS
 70
0
 71
3
 72
9
 73
5
 74
0
 42
0.0000001
 43
0.0000001
 44
0.0000000001
 40
0.0
 40
0.0
 40
0.0
 40
0.0
 40
0.3855604367
 40
1.0
 40
1.0
 40
1.0
 40
1.0
 10
-2.8311727748
 20
-32.9373661012
 30
0.0
 10
-2.8635667637
 20
-32.8937697398
 30
0.0
 10
-2.8997908731
 20
-32.751136623
 30
0.0
 10
-2.9055756235
 20
-32.6118315658
 30
0.0
 10
-2.9055756235
 20
-32.5252752643
 30
0.0
  0
SPLINE
  5
61C
100
AcDbEntity
  8
0
100
AcDbSpline
 62
7
  6
CONTINUOUS
 70
0
 71
3
 72
9
 73
5
 74
0
 42
0.0000001
 43
0.0000001
 44
0.0000000001
 40
0.0
 40
0.0
 40
0.0
 40
0.0
 40
0.6001364234
 40
1.0
 40
1.0
 40
1.0
 40
1.0
 10
-2.9055756235
 20
-32.5252752643
 30
0.0
 10
-2.9055756235
 20
-32.438442729
 30
0.0
 10
-2.8990611251
 20
-32.2945831025
 30
0.0
 10
-2.8587021163
 20
-32.1500995991
 30
0.0
 10
-2.8255406613
 20
-32.1026910343
 30
0.0
  0
SPLINE
  5
61D
100
AcDbEntity
  8
0
100
AcDbSpline
 62
7
  6
CONTINUOUS
 70
0
 71
3
 72
17
 73
13
 74
0
 42
0.0000001
 43
0.0000001
 44
0.0000000001
 40
0.0
 40
0.0
 40
0.0
 40
0.0
 40
0.2752721262
 40
0.3947823884
 40
0.4562356547
 40
0.5215301736
 40
0.5872068469
 40
0.6484042185
 40
0.7073568031
 40
0.7665538661
 40
0.881399665
 40
1.0
 40
1.0
 40
1.0
 40
1.0
 10
-4.8330531294
 20
-32.2331182986
 30
0.0
 10
-4.8237426094
 20
-32.17311724
 30
0.0
 10
-4.7903573899
 20
-32.0822795447
 30
0.0
 10
-4.7013771571
 20
-32.0287133028
 30
0.0
 10
-4.6485496714
 20
-32.0151177255
 30
0.0
 10
-4.6060215785
 20
-32.0119902988
 30
0.0
 10
-4.5635711937
 20
-32.0150978653
 30
0.0
 10
-4.5236440304
 20
-32.025440441
 30
0.0
 10
-4.4878843593
 20
-32.0430729175
 30
0.0
 10
-4.447349222
 20
-32.0750887732
 30
0.0
 10
-4.4090272531
 20
-32.1295756362
 30
0.0
 10
-4.4005089647
 20
-32.182057828
 30
0.0
 10
-4.4005089647
 20
-32.2082185198
 30
0.0
  0
SPLINE
  5
61E
100
AcDbEntity
  8
0
100
AcDbSpline
 62
7
  6
CONTINUOUS
 70
0
 71
3
 72
9
 73
5
 74
0
 42
0.0000001
 43
0.0000001
 44
0.0000000001
 40
0.0
 40
0.0
 40
0.0
 40
0.0
 40
0.5205318383
 40
1.0
 40
1.0
 40
1.0
 40
1.0
 10
-4.4005089647
 20
-32.2082185198
 30
0.0
 10
-4.4005089647
 20
-32.239768949
 30
0.0
 10
-4.4104206903
 20
-32.3024186997
 30
0.0
 10
-4.4537428257
 20
-32.3498444017
 30
0.0
 10
-4.4779945704
 20
-32.3658576018
 30
0.0
  0
SPLINE
  5
61F
100
AcDbEntity
  8
0
100
AcDbSpline
 62
7
  6
CONTINUOUS
 70
0
 71
3
 72
8
 73
4
 74
0
 42
0.0000001
 43
0.0000001
 44
0.0000000001
 40
0.0
 40
0.0
 40
0.0
 40
0.0
 40
1.0
 40
1.0
 40
1.0
 40
1.0
 10
-4.4779945704
 20
-32.3658576018
 30
0.0
 10
-4.5285398397
 20
-32.3992321701
 30
0.0
 10
-4.5917823397
 20
-32.4170206221
 30
0.0
 10
-4.6523520192
 20
-32.4170206221
 30
0.0
  0
SPLINE
  5
620
100
AcDbEntity
  8
0
100
AcDbSpline
 62
7
  6
CONTINUOUS
 70
0
 71
3
 72
8
 73
4
 74
0
 42
0.0000001
 43
0.0000001
 44
0.0000000001
 40
0.0
 40
0.0
 40
0.0
 40
0.0
 40
1.0
 40
1.0
 40
1.0
 40
1.0
 10
-4.6523520192
 20
-32.4170206221
 30
0.0
 10
-4.6607125137
 20
-32.4170206221
 30
0.0
 10
-4.6690625401
 20
-32.4161790835
 30
0.0
 10
-4.6773703701
 20
-32.4152421575
 30
0.0
  0
SPLINE
  5
621
100
AcDbEntity
  8
0
100
AcDbSpline
 62
7
  6
CONTINUOUS
 70
0
 71
3
 72
9
 73
5
 74
0
 42
0.0000001
 43
0.0000001
 44
0.0000000001
 40
0.0
 40
0.0
 40
0.0
 40
0.0
 40
0.290916541
 40
1.0
 40
1.0
 40
1.0
 40
1.0
 10
-4.6949187989
 20
-32.5518350516
 30
0.0
 10
-4.6843247051
 20
-32.5491205498
 30
0.0
 10
-4.6477658072
 20
-32.5405398026
 30
0.0
 10
-4.610237629
 20
-32.5347609109
 30
0.0
 10
-4.583581284
 20
-32.5347609109
 30
0.0
  0
SPLINE
  5
622
100
AcDbEntity
  8
0
100
AcDbSpline
 62
7
  6
CONTINUOUS
 70
0
 71
3
 72
23
 73
19
 74
0
 42
0.0000001
 43
0.0000001
 44
0.0000000001
 40
0.0
 40
0.0
 40
0.0
 40
0.0
 40
0.1250416907
 40
0.1840057623
 40
0.2436382325
 40
0.3028494879
 40
0.3606002476
 40
0.4195036727
 40
0.4820285678
 40
0.5477508497
 40
0.6101678585
 40
0.6718042485
 40
0.7352778897
 40
0.7990112428
 40
0.8615518478
 40
0.9256219096
 40
0.9937605692
 40
1.0
 40
1.0
 40
1.0
 40
1.0
 10
-4.583581284
 20
-32.5347609109
 30
0.0
 10
-4.5498217954
 20
-32.5347609109
 30
0.0
 10
-4.4992069049
 20
-32.5423125854
 30
0.0
 10
-4.4400142518
 20
-32.5719668125
 30
0.0
 10
-4.4021952639
 20
-32.6020528621
 30
0.0
 10
-4.3709558338
 20
-32.6384910467
 30
0.0
 10
-4.3482495141
 20
-32.6806211088
 30
0.0
 10
-4.33486237
 20
-32.7274797567
 30
0.0
 10
-4.3308015913
 20
-32.7781025627
 30
0.0
 10
-4.335055653
 20
-32.829671466
 30
0.0
 10
-4.3491732491
 20
-32.8793019224
 30
0.0
 10
-4.3731005086
 20
-32.924348133
 30
0.0
 10
-4.4058904309
 20
-32.9637980016
 30
0.0
 10
-4.4455813765
 20
-32.9967135922
 30
0.0
 10
-4.4915233176
 20
-33.0206188274
 30
0.0
 10
-4.5425569967
 20
-33.0346922717
 30
0.0
 10
-4.5800016767
 20
-33.0376545959
 30
0.0
 10
-4.600117643
 20
-33.0374821567
 30
0.0
 10
-4.6018048568
 20
-33.0374548902
 30
0.0
  0
SPLINE
  5
623
100
AcDbEntity
  8
0
100
AcDbSpline
 62
7
  6
CONTINUOUS
 70
0
 71
3
 72
23
 73
19
 74
0
 42
0.0000001
 43
0.0000001
 44
0.0000000001
 40
0.0
 40
0.0
 40
0.0
 40
0.0
 40
0.113764675
 40
0.1684148632
 40
0.2241614473
 40
0.2803346634
 40
0.3363502887
 40
0.3943171793
 40
0.4561448477
 40
0.5247021871
 40
0.58906852
 40
0.6516060324
 40
0.7148820607
 40
0.7772121974
 40
0.8368050177
 40
0.8962885149
 40
0.9583045815
 40
1.0
 40
1.0
 40
1.0
 40
1.0
 10
-5.0
 20
-32.8174323457
 30
0.0
 10
-4.9951877792
 20
-32.8657025883
 30
0.0
 10
-4.9767161463
 20
-32.9372731719
 30
0.0
 10
-4.925863332
 20
-33.0188422322
 30
0.0
 10
-4.8770574644
 20
-33.0710295841
 30
0.0
 10
-4.8191175545
 20
-33.1138441737
 30
0.0
 10
-4.752916113
 20
-33.1446908812
 30
0.0
 10
-4.6797501232
 20
-33.1628892898
 30
0.0
 10
-4.599327468
 20
-33.1685307843
 30
0.0
 10
-4.5161454867
 20
-33.1622334981
 30
0.0
 10
-4.4350535704
 20
-33.1408352814
 30
0.0
 10
-4.3618895069
 20
-33.1045025983
 30
0.0
 10
-4.2985695048
 20
-33.0544246446
 30
0.0
 10
-4.2461768351
 20
-32.9947095203
 30
0.0
 10
-4.2077772681
 20
-32.926877334
 30
0.0
 10
-4.1850384862
 20
-32.8524525638
 30
0.0
 10
-4.1788708845
 20
-32.7826994371
 30
0.0
 10
-4.1814948349
 20
-32.7384313219
 30
0.0
 10
-4.1838142294
 20
-32.720795243
 30
0.0
  0
SPLINE
  5
624
100
AcDbEntity
  8
0
100
AcDbSpline
 62
7
  6
CONTINUOUS
 70
0
 71
3
 72
19
 73
15
 74
0
 42
0.0000001
 43
0.0000001
 44
0.0000000001
 40
0.0
 40
0.0
 40
0.0
 40
0.0
 40
0.1602305348
 40
0.3085611915
 40
0.4700123011
 40
0.5543396919
 40
0.6423432586
 40
0.6882140063
 40
0.7340521267
 40
0.7805463395
 40
0.8283570197
 40
0.8963177201
 40
0.9601739035
 40
1.0
 40
1.0
 40
1.0
 40
1.0
 10
-4.4209030065
 20
-32.4653973155
 30
0.0
 10
-4.3704010967
 20
-32.4420076902
 30
0.0
 10
-4.2793047067
 20
-32.3724868173
 30
0.0
 10
-4.2332042136
 20
-32.2057751682
 30
0.0
 10
-4.2736097837
 20
-32.0675368604
 30
0.0
 10
-4.3472211114
 20
-31.9762580269
 30
0.0
 10
-4.4109438385
 20
-31.9332549816
 30
0.0
 10
-4.468112219
 20
-31.9079754627
 30
0.0
 10
-4.5142023551
 20
-31.8940817734
 30
0.0
 10
-4.5622905437
 20
-31.885792383
 30
0.0
 10
-4.6186759977
 20
-31.8828328555
 30
0.0
 10
-4.6811710821
 20
-31.8872641255
 30
0.0
 10
-4.7394154195
 20
-31.9014014117
 30
0.0
 10
-4.7727858773
 20
-31.91527814
 30
0.0
 10
-4.7852316436
 20
-31.9213648638
 30
0.0
  0
SPLINE
  5
625
100
AcDbEntity
  8
0
100
AcDbSpline
 62
7
  6
CONTINUOUS
 70
0
 71
3
 72
12
 73
8
 74
0
 42
0.0000001
 43
0.0000001
 44
0.0000000001
 40
0.0
 40
0.0
 40
0.0
 40
0.0
 40
0.2240836447
 40
0.4505791617
 40
0.5918779795
 40
0.7268035565
 40
1.0
 40
1.0
 40
1.0
 40
1.0
 10
-3.7296386096
 20
-32.0540771968
 30
0.0
 10
-3.7103762223
 20
-32.0408007489
 30
0.0
 10
-3.6674038261
 20
-32.0195488226
 30
0.0
 10
-3.6052482399
 20
-32.0109950114
 30
0.0
 10
-3.5526870473
 20
-32.0155811931
 30
0.0
 10
-3.4973813639
 20
-32.0321895378
 30
0.0
 10
-3.4616464193
 20
-32.0581939735
 30
0.0
 10
-3.4419872653
 20
-32.0788584037
 30
0.0
  0
SPLINE
  5
626
100
AcDbEntity
  8
0
100
AcDbSpline
 62
7
  6
CONTINUOUS
 70
0
 71
3
 72
9
 73
5
 74
0
 42
0.0000001
 43
0.0000001
 44
0.0000000001
 40
0.0
 40
0.0
 40
0.0
 40
0.0
 40
0.203826354
 40
1.0
 40
1.0
 40
1.0
 40
1.0
 10
-3.4419872653
 20
-32.0788584037
 30
0.0
 10
-3.4353186217
 20
-32.086093241
 30
0.0
 10
-3.406587896
 20
-32.125278484
 30
0.0
 10
-3.3921854801
 20
-32.1728783929
 30
0.0
 10
-3.3836507529
 20
-32.2103528163
 30
0.0
  0
SPLINE
  5
627
100
AcDbEntity
  8
0
100
AcDbSpline
 62
7
  6
CONTINUOUS
 70
0
 71
3
 72
25
 73
21
 74
0
 42
0.0000001
 43
0.0000001
 44
0.0000000001
 40
0.0
 40
0.0
 40
0.0
 40
0.0
 40
0.0831575723
 40
0.159398024
 40
0.1975905574
 40
0.2361630692
 40
0.2765529139
 40
0.3200175236
 40
0.3780444245
 40
0.4321719576
 40
0.4852273827
 40
0.5402036145
 40
0.6088615101
 40
0.6869349741
 40
0.7772453046
 40
0.8276111453
 40
0.8816627753
 40
0.9299199948
 40
0.9747722521
 40
1.0
 40
1.0
 40
1.0
 40
1.0
 10
-3.2318808706
 20
-32.1951758281
 30
0.0
 10
-3.2376320036
 20
-32.1504405949
 30
0.0
 10
-3.2599720666
 20
-32.0648858889
 30
0.0
 10
-3.3267673165
 20
-31.9772086148
 30
0.0
 10
-3.3946585232
 20
-31.9286679663
 30
0.0
 10
-3.4530087136
 20
-31.9024712928
 30
0.0
 10
-3.5179759123
 20
-31.8870873105
 30
0.0
 10
-3.5950061164
 20
-31.8819690475
 30
0.0
 10
-3.6796391685
 20
-31.8893403806
 30
0.0
 10
-3.7658921784
 20
-31.9165308023
 30
0.0
 10
-3.8416005154
 20
-31.9629525725
 30
0.0
 10
-3.9100092546
 20
-32.031256544
 30
0.0
 10
-3.967031886
 20
-32.1259343413
 30
0.0
 10
-4.0079103707
 20
-32.2486194764
 30
0.0
 10
-4.0271155168
 20
-32.3660864193
 30
0.0
 10
-4.0349999155
 20
-32.471441686
 30
0.0
 10
-4.0368780594
 20
-32.5542640095
 30
0.0
 10
-4.035142402
 20
-32.6340978433
 30
0.0
 10
-4.0302587335
 20
-32.6981144357
 30
0.0
 10
-4.0254809588
 20
-32.735868485
 30
0.0
 10
-4.0234755208
 20
-32.7494170722
 30
0.0
  0
SPLINE
  5
628
100
AcDbEntity
  8
0
100
AcDbSpline
 62
7
  6
CONTINUOUS
 70
0
 71
3
 72
23
 73
19
 74
0
 42
0.0000001
 43
0.0000001
 44
0.0000000001
 40
0.0
 40
0.0
 40
0.0
 40
0.0
 40
0.1335797111
 40
0.1999445536
 40
0.270215411
 40
0.3121716907
 40
0.3525140649
 40
0.4311729088
 40
0.5098076832
 40
0.5921510265
 40
0.6351016046
 40
0.6779076712
 40
0.7211760982
 40
0.7654947678
 40
0.8310631596
 40
0.8920984628
 40
0.9507896407
 40
1.0
 40
1.0
 40
1.0
 40
1.0
 10
-3.9149045693
 20
-33.0246930696
 30
0.0
 10
-3.8769602184
 20
-33.0690325217
 30
0.0
 10
-3.8054253023
 20
-33.1255143293
 30
0.0
 10
-3.6919715689
 20
-33.1611184279
 30
0.0
 10
-3.6137036581
 20
-33.1682289966
 30
0.0
 10
-3.5470163896
 20
-33.1644098592
 30
0.0
 10
-3.4777749122
 20
-33.1510909097
 30
0.0
 10
-3.3970940113
 20
-33.1169478475
 30
0.0
 10
-3.3153063738
 20
-33.0491650298
 30
0.0
 10
-3.2657577199
 20
-32.9737061055
 30
0.0
 10
-3.2367043902
 20
-32.906145375
 30
0.0
 10
-3.2206929744
 20
-32.851946274
 30
0.0
 10
-3.2111372945
 20
-32.7956487719
 30
0.0
 10
-3.2076540425
 20
-32.7287165879
 30
0.0
 10
-3.2131194084
 20
-32.6538963387
 30
0.0
 10
-3.2333239085
 20
-32.5750085212
 30
0.0
 10
-3.2658586011
 20
-32.5081390838
 30
0.0
 10
-3.2944942369
 20
-32.4703954106
 30
0.0
 10
-3.3088404654
 20
-32.4543249547
 30
0.0
  0
SPLINE
  5
629
100
AcDbEntity
  8
0
100
AcDbSpline
 62
7
  6
CONTINUOUS
 70
0
 71
3
 72
11
 73
7
 74
0
 42
0.0000001
 43
0.0000001
 44
0.0000000001
 40
0.0
 40
0.0
 40
0.0
 40
0.0
 40
0.3426107936
 40
0.6044566108
 40
0.8143265955
 40
1.0
 40
1.0
 40
1.0
 40
1.0
 10
-3.8844913647
 20
-32.4978855886
 30
0.0
 10
-3.884000126
 20
-32.4424115238
 30
0.0
 10
-3.8791143064
 20
-32.3443594091
 30
0.0
 10
-3.848531808
 20
-32.2148391766
 30
0.0
 10
-3.7976938222
 20
-32.1201386634
 30
0.0
 10
-3.7534974241
 20
-32.0723703148
 30
0.0
 10
-3.7296386096
 20
-32.0540771968
 30
0.0
  0
LINE
  5
62A
100
AcDbEntity
  8
0
100
AcDbLine
 62
7
  6
CONTINUOUS
 10
-0.5259897996
 20
-33.7478984706
 11
-0.9031616369
 21
-34.3313825134
  0
SPLINE
  5
62B
100
AcDbEntity
  8
0
100
AcDbSpline
 62
7
  6
CONTINUOUS
 70
0
 71
3
 72
9
 73
5
 74
0
 42
0.0000001
 43
0.0000001
 44
0.0000000001
 40
0.0
 40
0.0
 40
0.0
 40
0.0
 40
0.7394757627
 40
1.0
 40
1.0
 40
1.0
 40
1.0
 10
-0.9031616369
 20
-34.3313825134
 30
0.0
 10
-0.9311336019
 20
-34.279699218
 30
0.0
 10
-0.9728667634
 20
-34.2118602742
 30
0.0
 10
-1.0184039197
 20
-34.1467305368
 30
0.0
 10
-1.0305061443
 20
-34.1299316453
 30
0.0
  0
SPLINE
  5
62C
100
AcDbEntity
  8
0
100
AcDbSpline
 62
7
  6
CONTINUOUS
 70
0
 71
3
 72
9
 73
5
 74
0
 42
0.0000001
 43
0.0000001
 44
0.0000000001
 40
0.0
 40
0.0
 40
0.0
 40
0.0
 40
0.7097160398
 40
1.0
 40
1.0
 40
1.0
 40
1.0
 10
-3.0459627068
 20
-33.8769028706
 30
0.0
 10
-3.0275465565
 20
-33.9399317665
 30
0.0
 10
-2.9979176225
 20
-34.0276526119
 30
0.0
 10
-2.9665263975
 20
-34.1146786477
 30
0.0
 10
-2.957272218
 20
-34.1398915801
 30
0.0
  0
SPLINE
  5
62D
100
AcDbEntity
  8
0
100
AcDbSpline
 62
7
  6
CONTINUOUS
 70
0
 71
3
 72
32
 73
28
 74
0
 42
0.0000001
 43
0.0000001
 44
0.0000000001
 40
0.0
 40
0.0
 40
0.0
 40
0.0
 40
0.0367788149
 40
0.08110934
 40
0.1239547692
 40
0.1659201554
 40
0.2464563924
 40
0.2860313132
 40
0.3262207684
 40
0.366702269
 40
0.4071188602
 40
0.4482590224
 40
0.4908710886
 40
0.5546466371
 40
0.6144434839
 40
0.672822725
 40
0.7325281631
 40
0.7937695176
 40
0.8250316359
 40
0.8570923783
 40
0.8903456461
 40
0.9250864287
 40
0.943096711
 40
0.9615686879
 40
0.9805282153
 40
0.9901987435
 40
1.0
 40
1.0
 40
1.0
 40
1.0
 10
5.4188197394
 20
-32.5008543108
 30
0.0
 10
5.4183424644
 20
-32.4765956479
 30
0.0
 10
5.4152095913
 20
-32.4231443344
 30
0.0
 10
5.4026802396
 20
-32.3422079926
 30
0.0
 10
5.3798959894
 20
-32.2599297732
 30
0.0
 10
5.3383276247
 20
-32.1589539147
 30
0.0
 10
5.2783543098
 20
-32.0684393037
 30
0.0
 10
5.2011869176
 20
-31.9956974993
 30
0.0
 10
5.1359205199
 20
-31.9501948996
 30
0.0
 10
5.0645508183
 20
-31.9138343558
 30
0.0
 10
4.9881683628
 20
-31.8876874488
 30
0.0
 10
4.9075182151
 20
-31.8721060201
 30
0.0
 10
4.8101951786
 20
-31.8664951509
 30
0.0
 10
4.7003611386
 20
-31.8754666306
 30
0.0
 10
4.5841464133
 20
-31.9086578966
 30
0.0
 10
4.4803169002
 20
-31.9652498194
 30
0.0
 10
4.390394068
 20
-32.0433393413
 30
0.0
 10
4.3294405674
 20
-32.1241339409
 30
0.0
 10
4.291379676
 20
-32.1970754468
 30
0.0
 10
4.267996182
 20
-32.2564300562
 30
0.0
 10
4.2498540996
 20
-32.3199569862
 30
0.0
 10
4.2392099374
 20
-32.37573477
 30
0.0
 10
4.2332175076
 20
-32.422323375
 30
0.0
 10
4.229971044
 20
-32.4587455192
 30
0.0
 10
4.2283607711
 20
-32.4897691821
 30
0.0
 10
4.2277182195
 20
-32.5151028164
 30
0.0
 10
4.2276031447
 20
-32.527942364
 30
0.0
 10
4.227608847
 20
-32.5344051948
 30
0.0
  0
SPLINE
  5
62E
100
AcDbEntity
  8
0
100
AcDbSpline
 62
7
  6
CONTINUOUS
 70
0
 71
3
 72
35
 73
31
 74
0
 42
0.0000001
 43
0.0000001
 44
0.0000000001
 40
0.0
 40
0.0
 40
0.0
 40
0.0
 40
0.0052067616
 40
0.0103981029
 40
0.0207377112
 40
0.0412680365
 40
0.0819253126
 40
0.1225430005
 40
0.1636383418
 40
0.2044038377
 40
0.244239094
 40
0.2839752345
 40
0.324449489
 40
0.3652859943
 40
0.4061424581
 40
0.4478622272
 40
0.4912383226
 40
0.5316428322
 40
0.5712615201
 40
0.6107398321
 40
0.6507300117
 40
0.6906804145
 40
0.7302593841
 40
0.7704099143
 40
0.8120361729
 40
0.8548388589
 40
0.8984099954
 40
0.9434040879
 40
0.9904162484
 40
1.0
 40
1.0
 40
1.0
 40
1.0
 10
4.227608847
 20
-32.5344051948
 30
0.0
 10
4.2276118763
 20
-32.5378384709
 30
0.0
 10
4.2276537844
 20
-32.5446948305
 30
0.0
 10
4.2279343036
 20
-32.5583664093
 30
0.0
 10
4.2289044099
 20
-32.5821278
 30
0.0
 10
4.2327817653
 20
-32.6291525833
 30
0.0
 10
4.2439334092
 20
-32.6955107697
 30
0.0
 10
4.2664585835
 20
-32.7731666081
 30
0.0
 10
4.2974300409
 20
-32.8479314544
 30
0.0
 10
4.3369027837
 20
-32.9180761824
 30
0.0
 10
4.3856683794
 20
-32.9810424304
 30
0.0
 10
4.4429637716
 20
-33.0360614565
 30
0.0
 10
4.5080877799
 20
-33.0826572218
 30
0.0
 10
4.5796636047
 20
-33.1202056259
 30
0.0
 10
4.6567593171
 20
-33.1471492591
 30
0.0
 10
4.7385226851
 20
-33.1631527586
 30
0.0
 10
4.8213479411
 20
-33.1681402796
 30
0.0
 10
4.9027680144
 20
-33.1633992124
 30
0.0
 10
4.9804355912
 20
-33.1488199128
 30
0.0
 10
5.055272626
 20
-33.1243516411
 30
0.0
 10
5.1266644809
 20
-33.0906446235
 30
0.0
 10
5.1930345833
 20
-33.0476087419
 30
0.0
 10
5.2518498075
 20
-32.9944954515
 30
0.0
 10
5.3025024441
 20
-32.932155392
 30
0.0
 10
5.3444908902
 20
-32.8612440715
 30
0.0
 10
5.3778421709
 20
-32.7834694678
 30
0.0
 10
5.401800732
 20
-32.6999987677
 30
0.0
 10
5.4160388962
 20
-32.6115384914
 30
0.0
 10
5.4193002924
 20
-32.5445138028
 30
0.0
 10
5.4189441067
 20
-32.5071755857
 30
0.0
 10
5.4188197394
 20
-32.5008543108
 30
0.0
  0
SPLINE
  5
62F
100
AcDbEntity
  8
0
100
AcDbSpline
 62
7
  6
CONTINUOUS
 70
0
 71
3
 72
28
 73
24
 74
0
 42
0.0000001
 43
0.0000001
 44
0.0000000001
 40
0.0
 40
0.0
 40
0.0
 40
0.0
 40
0.0513630746
 40
0.0973992876
 40
0.1380867478
 40
0.1736132071
 40
0.2056746106
 40
0.2358714497
 40
0.2912743591
 40
0.3421492876
 40
0.392346354
 40
0.4442692697
 40
0.4715335497
 40
0.5001405869
 40
0.5384111228
 40
0.5740628046
 40
0.6411773468
 40
0.7101562827
 40
0.7880294795
 40
0.882583899
 40
0.9382719977
 40
0.9683772648
 40
1.0
 40
1.0
 40
1.0
 40
1.0
 10
-2.2377879888
 20
-32.5254894966
 30
0.0
 10
-2.2377726217
 20
-32.4960408902
 30
0.0
 10
-2.2387851586
 20
-32.4401924424
 30
0.0
 10
-2.2438660018
 20
-32.3611590474
 30
0.0
 10
-2.2523415168
 20
-32.2915282969
 30
0.0
 10
-2.2648116456
 20
-32.2306425385
 30
0.0
 10
-2.2805579906
 20
-32.1767817008
 30
0.0
 10
-2.3035749157
 20
-32.1133569144
 30
0.0
 10
-2.3378694436
 20
-32.0425686534
 30
0.0
 10
-2.3944284584
 20
-31.9716006972
 30
0.0
 10
-2.4673377604
 20
-31.9207605969
 30
0.0
 10
-2.5379830216
 20
-31.8955058668
 30
0.0
 10
-2.5991046633
 20
-31.8856173403
 30
0.0
 10
-2.6531026506
 20
-31.8829879678
 30
0.0
 10
-2.7119699198
 20
-31.8867410929
 30
0.0
 10
-2.7912565465
 20
-31.9039889744
 30
0.0
 10
-2.8807169206
 20
-31.9507488096
 30
0.0
 10
-2.9625391674
 20
-32.0452105335
 30
0.0
 10
-3.0198617784
 20
-32.1727870374
 30
0.0
 10
-3.045217331
 20
-32.3019312247
 30
0.0
 10
-3.0541602676
 20
-32.4049556333
 30
0.0
 10
-3.0569009003
 20
-32.4722295854
 30
0.0
 10
-3.0573495304
 20
-32.5076194843
 30
0.0
 10
-3.0573455059
 20
-32.5257495524
 30
0.0
  0
SPLINE
  5
630
100
AcDbEntity
  8
0
100
AcDbSpline
 62
7
  6
CONTINUOUS
 70
0
 71
3
 72
28
 73
24
 74
0
 42
0.0000001
 43
0.0000001
 44
0.0000000001
 40
0.0
 40
0.0
 40
0.0
 40
0.0
 40
0.0252784054
 40
0.0496940235
 40
0.0959870923
 40
0.1390100497
 40
0.178926355
 40
0.2159556052
 40
0.2504018002
 40
0.3127095735
 40
0.358779705
 40
0.403751782
 40
0.4501801417
 40
0.5003973864
 40
0.5388817654
 40
0.5746968283
 40
0.6420254247
 40
0.711110357
 40
0.7889540505
 40
0.8832121718
 40
0.9385981474
 40
0.9684776893
 40
1.0
 40
1.0
 40
1.0
 40
1.0
 10
-3.0573455059
 20
-32.5257495524
 30
0.0
 10
-3.0573422888
 20
-32.540242265
 30
0.0
 10
-3.0570421998
 20
-32.5687331858
 30
0.0
 10
-3.0551640313
 20
-32.6237352655
 30
0.0
 10
-3.0505353602
 20
-32.6888069534
 30
0.0
 10
-3.0409866397
 20
-32.7623294356
 30
0.0
 10
-3.0275221042
 20
-32.8298323051
 30
0.0
 10
-3.0100819592
 20
-32.8913738325
 30
0.0
 10
-2.9826835049
 20
-32.9630047886
 30
0.0
 10
-2.942472626
 20
-33.0356188737
 30
0.0
 10
-2.878676141
 20
-33.0974572563
 30
0.0
 10
-2.8103638312
 20
-33.1381817132
 30
0.0
 10
-2.731943783
 20
-33.1619189783
 30
0.0
 10
-2.6542859272
 20
-33.1683284705
 30
0.0
 10
-2.5828310422
 20
-33.1638022881
 30
0.0
 10
-2.503200622
 20
-33.1464671192
 30
0.0
 10
-2.4135473458
 20
-33.0994391819
 30
0.0
 10
-2.3318062922
 20
-33.0046680348
 30
0.0
 10
-2.274905855
 20
-32.8770440126
 30
0.0
 10
-2.2498089544
 20
-32.7482358915
 30
0.0
 10
-2.2409516998
 20
-32.6456790126
 30
0.0
 10
-2.2382188098
 20
-32.5787647503
 30
0.0
 10
-2.2377974198
 20
-32.5435625603
 30
0.0
 10
-2.2377879888
 20
-32.5254894966
 30
0.0
  0
SPLINE
  5
631
100
AcDbEntity
  8
0
100
AcDbSpline
 62
7
  6
CONTINUOUS
 70
0
 71
3
 72
22
 73
18
 74
0
 42
0.0000001
 43
0.0000001
 44
0.0000000001
 40
0.0
 40
0.0
 40
0.0
 40
0.0
 40
0.0569420517
 40
0.125484894
 40
0.1893387342
 40
0.2509995384
 40
0.310181327
 40
0.3663511204
 40
0.4222237488
 40
0.480555548
 40
0.5621237871
 40
0.6432412676
 40
0.7266600561
 40
0.8156789651
 40
0.9079997862
 40
0.9538453978
 40
1.0
 40
1.0
 40
1.0
 40
1.0
 10
-1.4184558045
 20
-32.7620890187
 30
0.0
 10
-1.4189469934
 20
-32.7782044766
 30
0.0
 10
-1.4218374953
 20
-32.8136488515
 30
0.0
 10
-1.4334680031
 20
-32.8661904743
 30
0.0
 10
-1.4552364132
 20
-32.9169992243
 30
0.0
 10
-1.4858022682
 20
-32.9598308931
 30
0.0
 10
-1.5225369608
 20
-32.9943347229
 30
0.0
 10
-1.5643368128
 20
-33.0195765801
 30
0.0
 10
-1.610614113
 20
-33.0344933953
 30
0.0
 10
-1.66608323
 20
-33.0396701981
 30
0.0
 10
-1.7289013919
 20
-33.0313648996
 30
0.0
 10
-1.7931621704
 20
-33.0021377177
 30
0.0
 10
-1.8480643456
 20
-32.9543010292
 30
0.0
 10
-1.8877628351
 20
-32.8897746786
 30
0.0
 10
-1.9090219471
 20
-32.828605112
 30
0.0
 10
-1.9177057529
 20
-32.77709254
 30
0.0
 10
-1.9190628927
 20
-32.7510514488
 30
0.0
 10
-1.9190713882
 20
-32.7379902436
 30
0.0
  0
SPLINE
  5
632
100
AcDbEntity
  8
0
100
AcDbSpline
 62
7
  6
CONTINUOUS
 70
0
 71
3
 72
25
 73
21
 74
0
 42
0.0000001
 43
0.0000001
 44
0.0000000001
 40
0.0
 40
0.0
 40
0.0
 40
0.0
 40
0.0347427519
 40
0.0680113954
 40
0.1310452939
 40
0.1915853726
 40
0.2522801628
 40
0.3120846078
 40
0.3696195524
 40
0.4273192643
 40
0.4875980526
 40
0.5498557323
 40
0.608045323
 40
0.6647337522
 40
0.7226877622
 40
0.7821834807
 40
0.8435730499
 40
0.9093833809
 40
0.9816793135
 40
1.0
 40
1.0
 40
1.0
 40
1.0
 10
-1.9190713882
 20
-32.7379902436
 30
0.0
 10
-1.9190777832
 20
-32.7281584568
 30
0.0
 10
-1.9183445171
 20
-32.7089154448
 30
0.0
 10
-1.9138526354
 20
-32.6720884871
 30
0.0
 10
-1.9025819397
 20
-32.6288760305
 30
0.0
 10
-1.8791171997
 20
-32.581874956
 30
0.0
 10
-1.8465802016
 20
-32.5418684909
 30
0.0
 10
-1.8078350939
 20
-32.5092345154
 30
0.0
 10
-1.7640602599
 20
-32.4853501691
 30
0.0
 10
-1.7160832362
 20
-32.4712042425
 30
0.0
 10
-1.6650077278
 20
-32.4669185219
 30
0.0
 10
-1.6137915784
 20
-32.471129689
 30
0.0
 10
-1.5652801425
 20
-32.4851158224
 30
0.0
 10
-1.5221387596
 20
-32.5089812948
 30
0.0
 10
-1.4850658621
 20
-32.5419727788
 30
0.0
 10
-1.4548197987
 20
-32.5830030796
 30
0.0
 10
-1.4332812043
 20
-32.6316369663
 30
0.0
 10
-1.4206574703
 20
-32.6869401231
 30
0.0
 10
-1.4179361827
 20
-32.7312419179
 30
0.0
 10
-1.4182977681
 20
-32.7569039886
 30
0.0
 10
-1.4184558045
 20
-32.7620890187
 30
0.0
  0
SPLINE
  5
633
100
AcDbEntity
  8
0
100
AcDbSpline
 62
7
  6
CONTINUOUS
 70
0
 71
3
 72
22
 73
18
 74
0
 42
0.0000001
 43
0.0000001
 44
0.0000000001
 40
0.0
 40
0.0
 40
0.0
 40
0.0
 40
0.0569420517
 40
0.125484894
 40
0.1893387342
 40
0.2509995384
 40
0.310181327
 40
0.3663511204
 40
0.4222237488
 40
0.480555548
 40
0.5621237871
 40
0.6432412676
 40
0.7266600561
 40
0.8156789651
 40
0.9079997862
 40
0.9538453978
 40
1.0
 40
1.0
 40
1.0
 40
1.0
 10
-3.3611102986
 20
-32.7620890187
 30
0.0
 10
-3.3616014875
 20
-32.7782044766
 30
0.0
 10
-3.3644919894
 20
-32.8136488515
 30
0.0
 10
-3.3761224973
 20
-32.8661904743
 30
0.0
 10
-3.3978909073
 20
-32.9169992243
 30
0.0
 10
-3.4284567624
 20
-32.9598308931
 30
0.0
 10
-3.4651914549
 20
-32.9943347229
 30
0.0
 10
-3.5069913069
 20
-33.0195765801
 30
0.0
 10
-3.5532686071
 20
-33.0344933953
 30
0.0
 10
-3.6087377241
 20
-33.0396701981
 30
0.0
 10
-3.671555886
 20
-33.0313648996
 30
0.0
 10
-3.7358166645
 20
-33.0021377177
 30
0.0
 10
-3.7907188397
 20
-32.9543010292
 30
0.0
 10
-3.8304173292
 20
-32.8897746786
 30
0.0
 10
-3.8516764413
 20
-32.828605112
 30
0.0
 10
-3.860360247
 20
-32.77709254
 30
0.0
 10
-3.8617173868
 20
-32.7510514488
 30
0.0
 10
-3.8617258824
 20
-32.7379902436
 30
0.0
  0
SPLINE
  5
634
100
AcDbEntity
  8
0
100
AcDbSpline
 62
7
  6
CONTINUOUS
 70
0
 71
3
 72
25
 73
21
 74
0
 42
0.0000001
 43
0.0000001
 44
0.0000000001
 40
0.0
 40
0.0
 40
0.0
 40
0.0
 40
0.0347427519
 40
0.0680113954
 40
0.1310452939
 40
0.1915853726
 40
0.2522801628
 40
0.3120846078
 40
0.3696195524
 40
0.4273192643
 40
0.4875980526
 40
0.5498557323
 40
0.608045323
 40
0.6647337522
 40
0.7226877622
 40
0.7821834807
 40
0.8435730499
 40
0.9093833809
 40
0.9816793135
 40
1.0
 40
1.0
 40
1.0
 40
1.0
 10
-3.8617258824
 20
-32.7379902436
 30
0.0
 10
-3.8617322773
 20
-32.7281584568
 30
0.0
 10
-3.8609990113
 20
-32.7089154448
 30
0.0
 10
-3.8565071295
 20
-32.6720884871
 30
0.0
 10
-3.8452364338
 20
-32.6288760305
 30
0.0
 10
-3.8217716938
 20
-32.581874956
 30
0.0
 10
-3.7892346957
 20
-32.5418684909
 30
0.0
 10
-3.750489588
 20
-32.5092345154
 30
0.0
 10
-3.706714754
 20
-32.4853501691
 30
0.0
 10
-3.6587377303
 20
-32.4712042425
 30
0.0
 10
-3.6076622219
 20
-32.4669185219
 30
0.0
 10
-3.5564460725
 20
-32.471129689
 30
0.0
 10
-3.5079346366
 20
-32.4851158224
 30
0.0
 10
-3.4647932537
 20
-32.5089812948
 30
0.0
 10
-3.4277203562
 20
-32.5419727788
 30
0.0
 10
-3.3974742928
 20
-32.5830030796
 30
0.0
 10
-3.3759356984
 20
-32.6316369663
 30
0.0
 10
-3.3633119645
 20
-32.6869401231
 30
0.0
 10
-3.3605906768
 20
-32.7312419179
 30
0.0
 10
-3.3609522622
 20
-32.7569039886
 30
0.0
 10
-3.3611102986
 20
-32.7620890187
 30
0.0
  0
SPLINE
  5
635
100
AcDbEntity
  8
0
100
AcDbSpline
 62
7
  6
CONTINUOUS
 70
0
 71
3
 72
12
 73
8
 74
0
 42
0.0000001
 43
0.0000001
 44
0.0000000001
 40
0.0
 40
0.0
 40
0.0
 40
0.0
 40
0.0642131485
 40
0.3060521538
 40
0.5214353419
 40
0.7434490049
 40
1.0
 40
1.0
 40
1.0
 40
1.0
 10
1.4261589786
 20
-29.3335741168
 30
0.0
 10
1.4191837667
 20
-29.3308593317
 30
0.0
 10
1.3862808679
 20
-29.3170058347
 30
0.0
 10
1.3334263504
 20
-29.28601811
 30
0.0
 10
1.2792203317
 20
-29.2266419284
 30
0.0
 10
1.2468956201
 20
-29.1515693512
 30
0.0
 10
1.2364393054
 20
-29.0966024677
 30
0.0
 10
1.2331178555
 20
-29.0669650606
 30
0.0
  0
SPLINE
  5
636
100
AcDbEntity
  8
0
100
AcDbSpline
 62
7
  6
CONTINUOUS
 70
0
 71
3
 72
12
 73
8
 74
0
 42
0.0000001
 43
0.0000001
 44
0.0000000001
 40
0.0
 40
0.0
 40
0.0
 40
0.0
 40
0.0642131485
 40
0.3060521538
 40
0.5214353419
 40
0.7434490049
 40
1.0
 40
1.0
 40
1.0
 40
1.0
 10
5.9383487936
 20
-32.9929794725
 30
0.0
 10
5.9313735818
 20
-32.9902646874
 30
0.0
 10
5.898470683
 20
-32.9764111904
 30
0.0
 10
5.8456161654
 20
-32.9454234657
 30
0.0
 10
5.7914101468
 20
-32.886047284
 30
0.0
 10
5.7590854352
 20
-32.8109747069
 30
0.0
 10
5.7486291204
 20
-32.7560078234
 30
0.0
 10
5.7453076706
 20
-32.7263704163
 30
0.0
  0
SPLINE
  5
637
100
AcDbEntity
  8
0
100
AcDbSpline
 62
7
  6
CONTINUOUS
 70
0
 71
3
 72
12
 73
8
 74
0
 42
0.0000001
 43
0.0000001
 44
0.0000000001
 40
0.0
 40
0.0
 40
0.0
 40
0.0
 40
0.0134076278
 40
0.1602352972
 40
0.4382867418
 40
0.7120793744
 40
1.0
 40
1.0
 40
1.0
 40
1.0
 10
-0.2985052411
 20
-32.720795243
 30
0.0
 10
-0.29872153
 20
-32.719150638
 30
0.0
 10
-0.3014378229
 20
-32.6995126222
 30
0.0
 10
-0.3132289455
 20
-32.6463928031
 30
0.0
 10
-0.3547374536
 20
-32.5682590262
 30
0.0
 10
-0.434605051
 20
-32.4985107731
 30
0.0
 10
-0.5009063937
 20
-32.4734193016
 30
0.0
 10
-0.5355940182
 20
-32.4653973155
 30
0.0
  0
SPLINE
  5
638
100
AcDbEntity
  8
0
100
AcDbSpline
 62
7
  6
CONTINUOUS
 70
0
 71
3
 72
11
 73
7
 74
0
 42
0.0000001
 43
0.0000001
 44
0.0000000001
 40
0.0
 40
0.0
 40
0.0
 40
0.0
 40
0.0628223354
 40
0.2400444787
 40
0.6005295311
 40
1.0
 40
1.0
 40
1.0
 40
1.0
 10
-0.8999226554
 20
-31.9213648638
 30
0.0
 10
-0.9067753749
 20
-31.9247162533
 30
0.0
 10
-0.9325282812
 20
-31.9383981948
 30
0.0
 10
-0.9921919247
 20
-31.9808141867
 30
0.0
 10
-1.0637920489
 20
-32.0727956331
 30
0.0
 10
-1.090968475
 20
-32.1626796804
 30
0.0
 10
-1.0995140235
 20
-32.2103528163
 30
0.0
  0
SPLINE
  5
639
100
AcDbEntity
  8
0
100
AcDbSpline
 62
7
  6
CONTINUOUS
 70
0
 71
3
 72
12
 73
8
 74
0
 42
0.0000001
 43
0.0000001
 44
0.0000000001
 40
0.0
 40
0.0
 40
0.0
 40
0.0
 40
0.110303664
 40
0.225801401
 40
0.4468554108
 40
0.6914672366
 40
1.0
 40
1.0
 40
1.0
 40
1.0
 10
-0.7164958685
 20
-33.0374548902
 30
0.0
 10
-0.7304296013
 20
-33.0372297114
 30
0.0
 10
-0.7589148203
 20
-33.0349815459
 30
0.0
 10
-0.813858008
 20
-33.0214790393
 30
0.0
 10
-0.8792412898
 20
-32.9834150171
 30
0.0
 10
-0.9353679347
 20
-32.90044461
 30
0.0
 10
-0.9549063886
 20
-32.832745538
 30
0.0
 10
-0.9629211294
 20
-32.7946668634
 30
0.0
  0
SPLINE
  5
63A
100
AcDbEntity
  8
0
100
AcDbSpline
 62
7
  6
CONTINUOUS
 70
0
 71
3
 72
10
 73
6
 74
0
 42
0.0000001
 43
0.0000001
 44
0.0000000001
 40
0.0
 40
0.0
 40
0.0
 40
0.0
 40
0.2982815104
 40
0.6724514395
 40
1.0
 40
1.0
 40
1.0
 40
1.0
 10
-2.0808210267
 20
-32.7494170722
 30
0.0
 10
-2.0764606366
 20
-32.7788755377
 30
0.0
 10
-2.0635875777
 20
-32.8448364029
 30
0.0
 10
-2.0310455198
 20
-32.9397087922
 30
0.0
 10
-1.9934918833
 20
-32.9998711894
 30
0.0
 10
-1.9722500752
 20
-33.0246930696
 30
0.0
  0
SPLINE
  5
63B
100
AcDbEntity
  8
0
100
AcDbSpline
 62
7
  6
CONTINUOUS
 70
0
 71
3
 72
14
 73
10
 74
0
 42
0.0000001
 43
0.0000001
 44
0.0000000001
 40
0.0
 40
0.0
 40
0.0
 40
0.0
 40
0.0189022962
 40
0.1325168434
 40
0.2408655991
 40
0.348694322
 40
0.4608148251
 40
0.7218721013
 40
1.0
 40
1.0
 40
1.0
 40
1.0
 10
-1.3661859713
 20
-32.4543249547
 30
0.0
 10
-1.3689811609
 20
-32.4511938202
 30
0.0
 10
-1.3889195482
 20
-32.4295468676
 30
0.0
 10
-1.4292931501
 20
-32.3941505912
 30
0.0
 10
-1.4932767631
 20
-32.3577070881
 30
0.0
 10
-1.5634034584
 20
-32.3361951285
 30
0.0
 10
-1.6699890705
 20
-32.3262714506
 30
0.0
 10
-1.8167283031
 20
-32.3597114632
 30
0.0
 10
-1.9078988658
 20
-32.4464358902
 30
0.0
 10
-1.9418368706
 20
-32.4978855886
 30
0.0
  0
SPLINE
  5
63C
100
AcDbEntity
  8
0
100
AcDbSpline
 62
7
  6
CONTINUOUS
 70
0
 71
3
 72
12
 73
8
 74
0
 42
0.0000001
 43
0.0000001
 44
0.0000000001
 40
0.0
 40
0.0
 40
0.0
 40
0.0
 40
0.110303664
 40
0.225801401
 40
0.4468554108
 40
0.6914672366
 40
1.0
 40
1.0
 40
1.0
 40
1.0
 10
-4.6018048568
 20
-33.0374548902
 30
0.0
 10
-4.6157385895
 20
-33.0372297114
 30
0.0
 10
-4.6442238085
 20
-33.0349815459
 30
0.0
 10
-4.6991669962
 20
-33.0214790393
 30
0.0
 10
-4.764550278
 20
-32.9834150171
 30
0.0
 10
-4.820676923
 20
-32.90044461
 30
0.0
 10
-4.8402153768
 20
-32.832745538
 30
0.0
 10
-4.8482301176
 20
-32.7946668634
 30
0.0
  0
SPLINE
  5
63D
100
AcDbEntity
  8
0
100
AcDbSpline
 62
7
  6
CONTINUOUS
 70
0
 71
3
 72
12
 73
8
 74
0
 42
0.0000001
 43
0.0000001
 44
0.0000000001
 40
0.0
 40
0.0
 40
0.0
 40
0.0
 40
0.0134076278
 40
0.1602352972
 40
0.4382867418
 40
0.7120793744
 40
1.0
 40
1.0
 40
1.0
 40
1.0
 10
-4.1838142294
 20
-32.720795243
 30
0.0
 10
-4.1840305182
 20
-32.719150638
 30
0.0
 10
-4.1867468111
 20
-32.6995126222
 30
0.0
 10
-4.1985379337
 20
-32.6463928031
 30
0.0
 10
-4.2400464418
 20
-32.5682590262
 30
0.0
 10
-4.3199140393
 20
-32.4985107731
 30
0.0
 10
-4.3862153819
 20
-32.4734193016
 30
0.0
 10
-4.4209030065
 20
-32.4653973155
 30
0.0
  0
SPLINE
  5
63E
100
AcDbEntity
  8
0
100
AcDbSpline
 62
7
  6
CONTINUOUS
 70
0
 71
3
 72
11
 73
7
 74
0
 42
0.0000001
 43
0.0000001
 44
0.0000000001
 40
0.0
 40
0.0
 40
0.0
 40
0.0
 40
0.0628223354
 40
0.2400444787
 40
0.6005295311
 40
1.0
 40
1.0
 40
1.0
 40
1.0
 10
-4.7852316436
 20
-31.9213648638
 30
0.0
 10
-4.7920843632
 20
-31.9247162533
 30
0.0
 10
-4.8178372694
 20
-31.9383981948
 30
0.0
 10
-4.8775009129
 20
-31.9808141867
 30
0.0
 10
-4.9491010371
 20
-32.0727956331
 30
0.0
 10
-4.9762774632
 20
-32.1626796804
 30
0.0
 10
-4.9848230118
 20
-32.2103528163
 30
0.0
  0
SPLINE
  5
63F
100
AcDbEntity
  8
0
100
AcDbSpline
 62
7
  6
CONTINUOUS
 70
0
 71
3
 72
10
 73
6
 74
0
 42
0.0000001
 43
0.0000001
 44
0.0000000001
 40
0.0
 40
0.0
 40
0.0
 40
0.0
 40
0.2982815104
 40
0.6724514395
 40
1.0
 40
1.0
 40
1.0
 40
1.0
 10
-4.0234755208
 20
-32.7494170722
 30
0.0
 10
-4.0191151307
 20
-32.7788755377
 30
0.0
 10
-4.0062420718
 20
-32.8448364029
 30
0.0
 10
-3.9737000139
 20
-32.9397087922
 30
0.0
 10
-3.9361463774
 20
-32.9998711894
 30
0.0
 10
-3.9149045693
 20
-33.0246930696
 30
0.0
  0
SPLINE
  5
640
100
AcDbEntity
  8
0
100
AcDbSpline
 62
7
  6
CONTINUOUS
 70
0
 71
3
 72
14
 73
10
 74
0
 42
0.0000001
 43
0.0000001
 44
0.0000000001
 40
0.0
 40
0.0
 40
0.0
 40
0.0
 40
0.0189022962
 40
0.1325168434
 40
0.2408655991
 40
0.348694322
 40
0.4608148251
 40
0.7218721013
 40
1.0
 40
1.0
 40
1.0
 40
1.0
 10
-3.3088404654
 20
-32.4543249547
 30
0.0
 10
-3.311635655
 20
-32.4511938202
 30
0.0
 10
-3.3315740423
 20
-32.4295468676
 30
0.0
 10
-3.3719476443
 20
-32.3941505912
 30
0.0
 10
-3.4359312572
 20
-32.3577070881
 30
0.0
 10
-3.5060579525
 20
-32.3361951285
 30
0.0
 10
-3.6126435646
 20
-32.3262714506
 30
0.0
 10
-3.7593827972
 20
-32.3597114632
 30
0.0
 10
-3.8505533599
 20
-32.4464358902
 30
0.0
 10
-3.8844913647
 20
-32.4978855886
 30
0.0
  0
ENDSEC
  0
SECTION
  2
OBJECTS
  0
DICTIONARY
  5
C
100
AcDbDictionary
280
0
281
1
  3
ACAD_GROUP
350
D
  3
ACAD_MLINESTYLE
350
17
  3
ACAD_LAYOUT
350
1A
  3
ACAD_PLOTSETTINGS
350
19
  3
ACAD_PLOTSTYLENAME
350
E
  0
DICTIONARY
  5
D
102
{ACAD_REACTORS
330
C
102
}
100
AcDbDictionary
280
0
281
1
  0
ACDBDICTIONARYWDFLT
  5
E
102
{ACAD_REACTORS
330
C
102
}
100
AcDbDictionary
281
1
  3
Normal
350
F
100
AcDbDictionaryWithDefault
340
F
  0
DICTIONARY
  5
17
102
{ACAD_REACTORS
330
C
102
}
100
AcDbDictionary
280
0
281
1
  3
Standard
350
18
  0
DICTIONARY
  5
19
102
{ACAD_REACTORS
330
C
102
}
100
AcDbDictionary
281
1
  0
DICTIONARY
  5
1A
102
{ACAD_REACTORS
330
C
102
}
100
AcDbDictionary
281
1
  3
Model
350
641
  3
Layout1
350
642
  0
ACDBPLACEHOLDER
  5
F
102
{ACAD_REACTORS
330
E
102
}
  0
MLINESTYLE
  5
18
102
{ACAD_REACTORS
330
17
102
}
100
AcDbMlineStyle
  2
STANDARD
 70
0
  3

 62
256
 51
90.0
 52
90.0
 71
2
 49
0.5
 62
256
  6
BYLAYER
 49
-0.5
 62
256
  6
BYLAYER
  0
LAYOUT
  5
641
102
{ACAD_REACTORS
330
1A
102
}
100
AcDbPlotSettings
  1

  2
none_device
  4
ANSI_C_(22.00_x_17.00_Inches)
  6

 40
0.0
 41
0.0
 42
0.0
 43
0.0
 44
558.8
 45
431.8
 46
0.0
 47
0.0
 48
0.0
 49
0.0
140
0.0
141
0.0
142
1.0
143
1.0
 70
1024
 72
1
 73
0
 74
0
  7

 75
0
147
1.0
148
0.0
149
0.0
100
AcDbLayout
  1
Model
 70
0
 71
0
 10
0.0
 20
0.0
 11
558.8
 21
431.8
 12
0.0
 22
0.0
 32
0.0
 14
0.0
 24
0.0
 34
0.0
 15
0.0
 25
0.0
 35
0.0
146
0.0
 13
0.0
 23
0.0
 33
0.0
 16
1.0
 26
0.0
 36
0.0
 17
0.0
 27
1.0
 37
0.0
 76
0
330
20D
345
0
346
0
  0
LAYOUT
  5
642
102
{ACAD_REACTORS
330
1A
102
}
100
AcDbPlotSettings
  1

  2
none_device
  4
ANSI_C_(22.00_x_17.00_Inches)
  6

 40
0.0
 41
0.0
 42
0.0
 43
0.0
 44
558.8
 45
431.8
 46
0.0
 47
0.0
 48
0.0
 49
0.0
140
0.0
141
0.0
142
1.0
143
1.0
 70
0
 72
1
 73
0
 74
0
  7

 75
0
147
1.0
148
0.0
149
0.0
100
AcDbLayout
  1
Layout1
 70
0
 71
1
 10
0.0
 20
0.0
 11
558.8
 21
431.8
 12
0.0
 22
0.0
 32
0.0
 14
0.0
 24
0.0
 34
0.0
 15
0.0
 25
0.0
 35
0.0
146
0.0
 13
0.0
 23
0.0
 33
0.0
 16
1.0
 26
0.0
 36
0.0
 17
0.0
 27
1.0
 37
0.0
 76
0
330
20E
345
0
346
0
  0
ENDSEC
  0
EOF
