  0
SECTION
  2
HEADER
  9
$ACADVER
  1
AC1024
  9
$DWGCODEPAGE
  3
ANSI_1252
  9
$EXTMAX
 10
558.8
 20
431.8
 30
0.0
  9
$EXTMIN
 10
0.0
 20
0.0
 30
0.0
  9
$LIMMIN
 10
0.0
 20
0.0
  9
$LIMMAX
 10
558.8
 20
431.8
  9
$VIEWCTR
 10
279.4
 20
215.9
  9
$VIEWSIZE
 40
431.8
  9
$CLAYER
  8
0
  9
$LTSCALE
 40
30.734
  9
$CELTYPE
  6
BYLAYER
  9
$DIMSCALE
 40
1.0
  9
$DIMASZ
 40
3.0
  9
$DIMEXO
 40
0.5
  9
$DIMDLI
 40
21.2344
  9
$DIMEXE
 40
1.5
  9
$DIMCEN
 40
5.0292
  9
$DIMLFAC
 40
1.0
  9
$DIMBLK
  1
_FILLED
  9
$DIMALT
 70
0
  9
$DIMALTF
 40
0.0393700787
  9
$DIMTXT
 40
3.0
  9
$DIMTOL
 70
1
  9
$DIMLIM
 70
0
  9
$DIMTFAC
 40
1.0
  9
$DIMTP
 40
0.01
  9
$DIMTM
 40
0.01
  9
$DIMGAP
 40
0.625
  9
$DIMDSEP
 70
44
  9
$AUNITS
 70
0
  9
$PDMODE
 70
3
  9
$PDSIZE
 40
3.0
  9
$HANDSEED
  5
442
  9
$TILEMODE
 70
1
  9
$MEASUREMENT
 70
1
  9
$INSUNITS
 70
4
  0
ENDSEC
  0
SECTION
  2
CLASSES
  0
CLASS
  1
ACDBDICTIONARYWDFLT
  2
AcDbDictionaryWithDefault
  3
AutoCAD 2000
 90
0
 91
1
280
0
281
0
  0
CLASS
  1
ACDBPLACEHOLDER
  2
AcDbPlaceHolder
  3
AutoCAD 2000
 90
0
 91
1
280
0
281
0
  0
CLASS
  1
LAYOUT
  2
AcDbLayout
  3
AutoCAD 2000
 90
0
 91
0
280
0
281
0
  0
ENDSEC
  0
SECTION
  2
TABLES
  0
TABLE
  2
VPORT
  5
8
100
AcDbSymbolTable
 70
2
  0
VPORT
  5
1F4
100
AcDbSymbolTableRecord
100
AcDbViewportTableRecord
  2
*ACTIVE
 70
0
 10
0.0
 20
0.0
 11
1.0
 21
1.0
 12
279.4
 22
215.9
 13
0.0
 23
0.0
 14
1.0
 24
1.0
 15
0.0
 25
0.0
 16
0.0
 26
0.0
 36
1.0
 17
0.0
 27
0.0
 37
0.0
 40
431.8
 41
1.2941176471
 42
50.0
 43
0.0
 44
0.0
 50
0.0
 51
0.0
 71
0
 72
100
 73
1
 74
1
 75
0
 76
0
 77
0
 78
0
  0
ENDTAB
  0
TABLE
  2
LTYPE
  5
5
100
AcDbSymbolTable
 70
6
  0
LTYPE
  5
14
100
AcDbSymbolTableRecord
100
AcDbLinetypeTableRecord
  2
BYBLOCK
 70
0
  3

 72
65
 73
0
 40
0.0
  0
LTYPE
  5
15
100
AcDbSymbolTableRecord
100
AcDbLinetypeTableRecord
  2
BYLAYER
 70
0
  3

 72
65
 73
0
 40
0.0
  0
LTYPE
  5
16
100
AcDbSymbolTableRecord
100
AcDbLinetypeTableRecord
  2
CONTINUOUS
 70
64
  3
Solid line
 72
65
 73
0
 40
0.0
  0
LTYPE
  5
1F5
100
AcDbSymbolTableRecord
100
AcDbLinetypeTableRecord
  2
CENTER
 70
64
  3
____ _ ____ _ ____ _ ____ _ ____ _ ____ _ ____
 72
65
 73
4
 40
0.6
 49
0.375
 74
0
 49
-0.075
 74
0
 49
0.075
 74
0
 49
-0.075
 74
0
  0
LTYPE
  5
1F6
100
AcDbSymbolTableRecord
100
AcDbLinetypeTableRecord
  2
HIDDEN
 70
64
  3
- - - - - - - - - - - - - - - - - - - -
 72
65
 73
2
 40
0.2
 49
0.1
 74
0
 49
-0.1
 74
0
  0
LTYPE
  5
1F7
100
AcDbSymbolTableRecord
100
AcDbLinetypeTableRecord
  2
PHANTOM
 70
64
  3
_____ _ _ _____ _ _ _____ _ _ _____
 72
65
 73
6
 40
0.8
 49
0.45
 74
0
 49
-0.05
 74
0
 49
0.1
 74
0
 49
-0.05
 74
0
 49
0.1
 74
0
 49
-0.05
 74
0
  0
LTYPE
  5
1F8
100
AcDbSymbolTableRecord
100
AcDbLinetypeTableRecord
  2
DOT
 70
64
  3
. . . . . . . . . . . . . . . . . . . .
 72
65
 73
2
 40
0.2
 49
0.1
 74
0
 49
-0.1
 74
0
  0
LTYPE
  5
1F9
100
AcDbSymbolTableRecord
100
AcDbLinetypeTableRecord
  2
DASHED
 70
64
  3
- - - - - - - - - - - - - - - - - - - -
 72
65
 73
2
 40
0.2
 49
0.1
 74
0
 49
-0.1
 74
0
  0
ENDTAB
  0
TABLE
  2
LAYER
  5
2
100
AcDbSymbolTable
 70
36
  0
LAYER
  5
10
100
AcDbSymbolTableRecord
100
AcDbLayerTableRecord
  2
0
 70
0
 62
7
  6
CONTINUOUS
370
-3
390
F
  0
LAYER
  5
1FA
100
AcDbSymbolTableRecord
100
AcDbLayerTableRecord
  2
DEFAULT_1
 70
0
 62
7
  6
CENTER
370
-3
390
F
  0
LAYER
  5
1FB
100
AcDbSymbolTableRecord
100
AcDbLayerTableRecord
  2
DEFAULT_2
 70
0
 62
7
  6
HIDDEN
370
-3
390
F
  0
LAYER
  5
1FC
100
AcDbSymbolTableRecord
100
AcDbLayerTableRecord
  2
DEFAULT_3
 70
0
 62
7
  6
PHANTOM
370
-3
390
F
  0
LAYER
  5
1FD
100
AcDbSymbolTableRecord
100
AcDbLayerTableRecord
  2
ASSI
 70
0
 62
7
  6
CONTINUOUS
370
-3
390
F
  0
LAYER
  5
1FE
100
AcDbSymbolTableRecord
100
AcDbLayerTableRecord
  2
COORDINATE
 70
0
 62
7
  6
CONTINUOUS
370
-3
390
F
  0
LAYER
  5
1FF
100
AcDbSymbolTableRecord
100
AcDbLayerTableRecord
  2
COPY_PUBLISH
 70
0
 62
7
  6
CONTINUOUS
370
-3
390
F
  0
LAYER
  5
200
100
AcDbSymbolTableRecord
100
AcDbLayerTableRecord
  2
COSMETIC
 70
0
 62
7
  6
CONTINUOUS
370
-3
390
F
  0
LAYER
  5
201
100
AcDbSymbolTableRecord
100
AcDbLayerTableRecord
  2
CURVE
 70
0
 62
7
  6
CONTINUOUS
370
-3
390
F
  0
LAYER
  5
202
100
AcDbSymbolTableRecord
100
AcDbLayerTableRecord
  2
IMPORT_IGES
 70
0
 62
7
  6
CONTINUOUS
370
-3
390
F
  0
LAYER
  5
203
100
AcDbSymbolTableRecord
100
AcDbLayerTableRecord
  2
NOTE
 70
0
 62
7
  6
CONTINUOUS
370
-3
390
F
  0
LAYER
  5
204
100
AcDbSymbolTableRecord
100
AcDbLayerTableRecord
  2
PIANI
 70
0
 62
7
  6
CONTINUOUS
370
-3
390
F
  0
LAYER
  5
205
100
AcDbSymbolTableRecord
100
AcDbLayerTableRecord
  2
PUNTI
 70
0
 62
7
  6
CONTINUOUS
370
-3
390
F
  0
LAYER
  5
206
100
AcDbSymbolTableRecord
100
AcDbLayerTableRecord
  2
RACCORDO
 70
0
 62
7
  6
CONTINUOUS
370
-3
390
F
  0
LAYER
  5
207
100
AcDbSymbolTableRecord
100
AcDbLayerTableRecord
  2
SNAPLINE
 70
0
 62
7
  6
CONTINUOUS
370
-3
390
F
  0
LAYER
  5
208
100
AcDbSymbolTableRecord
100
AcDbLayerTableRecord
  2
TRASH
 70
0
 62
7
  6
CONTINUOUS
370
-3
390
F
  0
ENDTAB
  0
TABLE
  2
STYLE
  5
3
100
AcDbSymbolTable
 70
1
  0
STYLE
  5
11
100
AcDbSymbolTableRecord
100
AcDbTextStyleTableRecord
  2
STANDARD
 70
0
 40
0.0
 41
0.8
 50
0.0
 71
0
 42
0.2
  3
txt
  4

  0
STYLE
  5
209
100
AcDbSymbolTableRecord
100
AcDbTextStyleTableRecord
  2
TEXTSTYLE_1
 70
0
 40
0.0
 41
0.8
 50
0.0
 71
0
 42
0.2
  3
gdt
  4

  0
ENDTAB
  0
TABLE
  2
VIEW
  5
6
100
AcDbSymbolTable
 70
0
  0
ENDTAB
  0
TABLE
  2
UCS
  5
7
100
AcDbSymbolTable
 70
0
  0
ENDTAB
  0
TABLE
  2
APPID
  5
9
100
AcDbSymbolTable
 70
1
  0
APPID
  5
20A
100
AcDbSymbolTableRecord
100
AcDbRegAppTableRecord
  2
ACAD
 70
0
  0
ENDTAB
  0
TABLE
  2
BLOCK_RECORD
  5
1
100
AcDbSymbolTable
 70
0
  0
BLOCK_RECORD
  5
20B
100
AcDbSymbolTableRecord
100
AcDbBlockTableRecord
  2
*Model_Space
  0
BLOCK_RECORD
  5
20C
100
AcDbSymbolTableRecord
100
AcDbBlockTableRecord
  2
*Paper_Space
  0
BLOCK_RECORD
  5
20D
100
AcDbSymbolTableRecord
100
AcDbBlockTableRecord
  2
_FILLED
  0
ENDTAB
  0
TABLE
  2
DIMSTYLE
  5
A
100
AcDbSymbolTable
 70
1
100
AcDbDimStyleTable
 71
0
  0
DIMSTYLE
105
20E
100
AcDbSymbolTableRecord
100
AcDbDimStyleTableRecord
  2
STANDARD
 70
0
  3

  4

 40
1.0
 41
3.0
 42
0.5
 43
0.38
 44
1.5
 45
0.0
 46
0.0
 47
0.01
 48
0.01
140
3.0
141
0.09
142
0.0
143
25.4
144
1.0
145
0.0
146
1.0
147
0.625
 71
1.0
 72
0.0
 73
0
 74
0
 75
0
 76
0
 77
1
 78
8
 79
2
170
0
171
1
172
0
173
0
174
0
175
0
176
0
177
0
178
0
270
2
179
2
271
2
272
2
273
2
274
2
275
0
280
0
281
0
282
0
283
1
284
8
285
0
286
0
287
3
288
0
340
11
278
44
341
20D
342
20D
343
20D
344
20D
  0
ENDTAB
  0
ENDSEC
  0
SECTION
  2
BLOCKS
  0
BLOCK
  5
20
100
AcDbEntity
  8
0
100
AcDbBlockBegin
  2
*Model_Space
 70
0
 10
0.0
 20
0.0
 30
0.0
  3
*Model_Space
  1

  0
ENDBLK
  5
21
100
AcDbEntity
  8
0
100
AcDbBlockEnd
  0
BLOCK
  5
1C
100
AcDbEntity
  8
0
100
AcDbBlockBegin
  2
*Paper_Space
 70
0
 10
0.0
 20
0.0
 30
0.0
  3
*Paper_Space
  1

  0
ENDBLK
  5
1D
100
AcDbEntity
  8
0
100
AcDbBlockEnd
  0
BLOCK
  5
20F
100
AcDbEntity
  8
0
100
AcDbBlockBegin
  2
_FILLED
 70
64
 10
0.0
 20
0.0
  3
_FILLED
  1

  0
SOLID
  5
210
100
AcDbEntity
  8
0
  6
BYBLOCK
 62
0
100
AcDbTrace
 10
0.0
 20
0.0
 11
-1.0
 21
0.3166666667
 12
-1.0
 22
-0.3166666667
 13
-1.0
 23
-0.3166666667
  0
ENDBLK
  5
211
100
AcDbEntity
  8
0
  6
BYBLOCK
 62
0
100
AcDbBlockEnd
  0
ENDSEC
  0
SECTION
  2
ENTITIES
  0
LINE
  5
212
100
AcDbEntity
  8
0
100
AcDbLine
 62
7
  6
CONTINUOUS
 10
-104.0
 20
-39.75
 11
-104.0
 21
39.75
  0
LINE
  5
213
100
AcDbEntity
  8
0
100
AcDbLine
 62
7
  6
CONTINUOUS
 10
-102.5
 20
39.75
 11
-102.5
 21
-39.75
  0
LINE
  5
214
100
AcDbEntity
  8
0
100
AcDbLine
 62
7
  6
CONTINUOUS
 10
99.0
 20
-44.75
 11
-99.0
 21
-44.75
  0
LINE
  5
215
100
AcDbEntity
  8
0
100
AcDbLine
 62
7
  6
CONTINUOUS
 10
-99.0
 20
-43.25
 11
99.0
 21
-43.25
  0
LINE
  5
216
100
AcDbEntity
  8
ASSI
100
AcDbLine
 62
7
  6
CONTINUOUS
 10
1.7015798435
 20
-23.2749662965
 11
1.758778
 21
-23.2740185627
  0
LINE
  5
217
100
AcDbEntity
  8
ASSI
100
AcDbLine
 62
7
  6
CONTINUOUS
 10
-0.4909751339
 20
-23.2749662379
 11
-0.433777
 21
-23.2740185039
  0
LINE
  5
218
100
AcDbEntity
  8
ASSI
100
AcDbLine
 62
7
  6
CONTINUOUS
 10
0.8285275
 20
-22.1875
 11
1.558778
 21
-22.1875
  0
LINE
  5
219
100
AcDbEntity
  8
ASSI
100
AcDbLine
 62
7
  6
CONTINUOUS
 10
1.558778
 20
-21.8125
 11
0.8285259638
 21
-21.8125
  0
LINE
  5
21A
100
AcDbEntity
  8
0
100
AcDbLine
 62
7
  6
CONTINUOUS
 10
-4.1822033902
 20
20.125
 11
-3.4703390261
 21
21.275
  0
LINE
  5
21B
100
AcDbEntity
  8
0
100
AcDbLine
 62
7
  6
CONTINUOUS
 10
-3.7372881786
 20
21.275
 11
-4.3601695131
 21
20.2718085103
  0
LINE
  5
21C
100
AcDbEntity
  8
0
100
AcDbLine
 62
7
  6
CONTINUOUS
 10
-3.2177082419
 20
22.6686170205
 11
-3.265625
 21
22.595212774
  0
LINE
  5
21D
100
AcDbEntity
  8
0
100
AcDbLine
 62
7
  6
CONTINUOUS
 10
-6.17
 20
18.4546262865
 11
-6.2566666654
 21
18.3439880018
  0
LINE
  5
21E
100
AcDbEntity
  8
0
100
AcDbLine
 62
7
  6
CONTINUOUS
 10
-5.195
 20
18.4269667153
 11
-5.26
 21
18.3439880018
  0
LINE
  5
21F
100
AcDbEntity
  8
0
100
AcDbLine
 62
7
  6
CONTINUOUS
 10
-4.718333292
 20
17.3482432944
 11
-4.653333292
 21
17.4312220176
  0
LINE
  5
220
100
AcDbEntity
  8
0
100
AcDbLine
 62
7
  6
CONTINUOUS
 10
-1.7796610182
 20
21.1526595891
 11
-2.6694914415
 21
20.125
  0
LINE
  5
221
100
AcDbEntity
  8
0
100
AcDbLine
 62
7
  6
CONTINUOUS
 10
-2.402542289
 20
20.125
 11
-1.5127118657
 21
21.1526595891
  0
LINE
  5
222
100
AcDbEntity
  8
0
100
AcDbLine
 62
7
  6
CONTINUOUS
 10
-5.693333354
 20
18.0673922126
 11
-6.3
 21
17.3759028752
  0
LINE
  5
223
100
AcDbEntity
  8
0
100
AcDbLine
 62
7
  6
CONTINUOUS
 10
-6.1266666615
 20
17.3759028752
 11
-5.585
 21
17.9844134991
  0
LINE
  5
224
100
AcDbEntity
  8
0
100
AcDbLine
 62
7
  6
CONTINUOUS
 10
-0.9788135608
 20
21.1037234247
 11
-1.0677965268
 21
21.0058510959
  0
LINE
  5
225
100
AcDbEntity
  8
0
100
AcDbLine
 62
7
  6
CONTINUOUS
 10
-3.2177082419
 20
22.4484042551
 11
-3.121875
 21
22.5462765925
  0
LINE
  5
226
100
AcDbEntity
  8
0
100
AcDbLine
 62
7
  6
CONTINUOUS
 10
-6.1266666615
 20
18.3163284306
 11
-6.0616666615
 21
18.371647573
  0
LINE
  5
227
100
AcDbEntity
  8
0
100
AcDbLine
 62
7
  6
CONTINUOUS
 10
-5.13
 20
18.3163284306
 11
-5.065
 21
18.371647573
  0
LINE
  5
228
100
AcDbEntity
  8
0
100
AcDbLine
 62
7
  6
CONTINUOUS
 10
-4.783333292
 20
17.4588815887
 11
-4.848333292
 21
17.4035624464
  0
LINE
  5
229
100
AcDbEntity
  8
0
100
AcDbLine
 62
7
  6
CONTINUOUS
 10
-3.808333416
 20
17.4865411793
 11
-3.873333416
 21
17.4312220176
  0
LINE
  5
22A
100
AcDbEntity
  8
0
100
AcDbLine
 62
7
  6
CONTINUOUS
 10
-0.8898303403
 20
20.9324467808
 11
-0.7118644084
 21
21.0792553425
  0
LINE
  5
22B
100
AcDbEntity
  8
0
100
AcDbLine
 62
7
  6
CONTINUOUS
 10
0.1779662695
 20
20.4675531849
 11
-0.0000001716
 21
20.3207446747
  0
LINE
  5
22C
100
AcDbEntity
  8
0
100
AcDbLine
 62
7
  6
CONTINUOUS
 10
1.9576271161
 20
20.9324467808
 11
2.135593048
 21
21.0792553425
  0
LINE
  5
22D
100
AcDbEntity
  8
0
100
AcDbLine
 62
7
  6
CONTINUOUS
 10
-5.086666708
 20
18.5099454288
 11
-5.195
 21
18.4269667153
  0
LINE
  5
22E
100
AcDbEntity
  8
0
100
AcDbLine
 62
7
  6
CONTINUOUS
 10
-4.826666708
 20
17.2652645736
 11
-4.718333292
 21
17.3482432944
  0
LINE
  5
22F
100
AcDbEntity
  8
0
100
AcDbLine
 62
7
  6
CONTINUOUS
 10
3.8707630481
 20
20.4920212671
 11
4.0042376243
 21
20.5898936301
  0
LINE
  5
230
100
AcDbEntity
  8
0
100
AcDbLine
 62
7
  6
CONTINUOUS
 10
-3.265625
 20
22.595212774
 11
-3.3375
 21
22.5462765925
  0
LINE
  5
231
100
AcDbEntity
  8
0
100
AcDbLine
 62
7
  6
CONTINUOUS
 10
1.0677964382
 20
21.275
 11
0.8008472858
 21
21.1037234247
  0
LINE
  5
232
100
AcDbEntity
  8
0
100
AcDbLine
 62
7
  6
CONTINUOUS
 10
0.8008472858
 20
20.9079786986
 11
1.0677964382
 21
21.0792553425
  0
LINE
  5
233
100
AcDbEntity
  8
0
100
AcDbLine
 62
7
  6
CONTINUOUS
 10
-6.0833333385
 20
18.5099454288
 11
-6.17
 21
18.4546262865
  0
LINE
  5
234
100
AcDbEntity
  8
0
100
AcDbLine
 62
7
  6
CONTINUOUS
 10
-3.851666584
 20
17.2652645736
 11
-3.765
 21
17.3205837232
  0
LINE
  5
235
100
AcDbEntity
  8
0
100
AcDbLine
 62
7
  6
CONTINUOUS
 10
-0.8453389846
 20
21.1771276712
 11
-0.9788135608
 21
21.1037234247
  0
LINE
  5
236
100
AcDbEntity
  8
0
100
AcDbLine
 62
7
  6
CONTINUOUS
 10
0.1334744047
 20
20.2228723373
 11
0.2669489809
 21
20.2962765925
  0
LINE
  5
237
100
AcDbEntity
  8
0
100
AcDbLine
 62
7
  6
CONTINUOUS
 10
2.0021184718
 20
21.1771276712
 11
1.8686438956
 21
21.1037234247
  0
LINE
  5
238
100
AcDbEntity
  8
0
100
AcDbLine
 62
7
  6
CONTINUOUS
 10
3.9152538946
 20
21.1771276712
 11
3.7817793184
 21
21.1037234247
  0
LINE
  5
239
100
AcDbEntity
  8
0
100
AcDbLine
 62
7
  6
CONTINUOUS
 10
2.9809323702
 20
20.2228723373
 11
3.1144069464
 21
20.2962765925
  0
LINE
  5
23A
100
AcDbEntity
  8
0
100
AcDbLine
 62
7
  6
CONTINUOUS
 10
4.9830505044
 20
20.7367021233
 11
5.1165250806
 21
20.8101063699
  0
LINE
  5
23B
100
AcDbEntity
  8
0
100
AcDbLine
 62
7
  6
CONTINUOUS
 10
5.0275423693
 20
20.2228723373
 11
5.1610169455
 21
20.2962765925
  0
LINE
  5
23C
100
AcDbEntity
  8
0
100
AcDbLine
 62
7
  6
CONTINUOUS
 10
-3.3135417581
 20
22.3994680843
 11
-3.2177082419
 21
22.4484042551
  0
LINE
  5
23D
100
AcDbEntity
  8
0
100
AcDbLine
 62
7
  6
CONTINUOUS
 10
4.0042376243
 20
21.0547872603
 11
4.1822030471
 21
21.1281915069
  0
LINE
  5
23E
100
AcDbEntity
  8
0
100
AcDbLine
 62
7
  6
CONTINUOUS
 10
3.9152538946
 20
20.6877659589
 11
3.7372884719
 21
20.6143617123
  0
LINE
  5
23F
100
AcDbEntity
  8
0
100
AcDbLine
 62
7
  6
CONTINUOUS
 10
4.894067793
 20
20.8590425342
 11
4.716101352
 21
20.7856382877
  0
LINE
  5
240
100
AcDbEntity
  8
0
100
AcDbLine
 62
7
  6
CONTINUOUS
 10
-0.7118644084
 20
21.0792553425
 11
-0.5783898322
 21
21.1281915069
  0
LINE
  5
241
100
AcDbEntity
  8
0
100
AcDbLine
 62
7
  6
CONTINUOUS
 10
-0.0000001716
 20
20.3207446747
 11
-0.1334747478
 21
20.2718085103
  0
LINE
  5
242
100
AcDbEntity
  8
0
100
AcDbLine
 62
7
  6
CONTINUOUS
 10
2.135593048
 20
21.0792553425
 11
2.2690676242
 21
21.1281915069
  0
LINE
  5
243
100
AcDbEntity
  8
0
100
AcDbLine
 62
7
  6
CONTINUOUS
 10
2.847457794
 20
20.3207446747
 11
2.7139832178
 21
20.2718085103
  0
LINE
  5
244
100
AcDbEntity
  8
0
100
AcDbLine
 62
7
  6
CONTINUOUS
 10
-0.6228811878
 20
21.2505319178
 11
-0.8453389846
 21
21.1771276712
  0
LINE
  5
245
100
AcDbEntity
  8
0
100
AcDbLine
 62
7
  6
CONTINUOUS
 10
2.2245762686
 20
21.2505319178
 11
2.0021184718
 21
21.1771276712
  0
LINE
  5
246
100
AcDbEntity
  8
0
100
AcDbLine
 62
7
  6
CONTINUOUS
 10
-0.0889828829
 20
20.1494680843
 11
0.1334744047
 21
20.2228723373
  0
LINE
  5
247
100
AcDbEntity
  8
0
100
AcDbLine
 62
7
  6
CONTINUOUS
 10
4.1377122006
 20
21.2505319178
 11
3.9152538946
 21
21.1771276712
  0
LINE
  5
248
100
AcDbEntity
  8
0
100
AcDbLine
 62
7
  6
CONTINUOUS
 10
2.7584745735
 20
20.1494680843
 11
2.9809323702
 21
20.2228723373
  0
LINE
  5
249
100
AcDbEntity
  8
0
100
AcDbLine
 62
7
  6
CONTINUOUS
 10
4.8050850817
 20
20.1494680843
 11
5.0275423693
 21
20.2228723373
  0
LINE
  5
24A
100
AcDbEntity
  8
0
100
AcDbLine
 62
7
  6
CONTINUOUS
 10
-3.873333416
 20
17.4312220176
 11
-3.96
 21
17.4035624464
  0
LINE
  5
24B
100
AcDbEntity
  8
0
100
AcDbLine
 62
7
  6
CONTINUOUS
 10
-6.75
 20
28.375
 11
-6.75
 21
14.875
  0
LINE
  5
24C
100
AcDbEntity
  8
0
100
AcDbLine
 62
7
  6
CONTINUOUS
 10
-5.238333292
 20
17.9844134991
 11
-5.216666708
 21
18.1503709261
  0
LINE
  5
24D
100
AcDbEntity
  8
0
100
AcDbLine
 62
7
  6
CONTINUOUS
 10
-4.675
 20
17.7907965009
 11
-4.696666708
 21
17.6248390351
  0
LINE
  5
24E
100
AcDbEntity
  8
0
100
AcDbLine
 62
7
  6
CONTINUOUS
 10
-5.325
 20
18.1503709261
 11
-5.346666646
 21
18.0120730703
  0
LINE
  5
24F
100
AcDbEntity
  8
0
100
AcDbLine
 62
7
  6
CONTINUOUS
 10
-4.588333292
 20
17.6248390351
 11
-4.566666708
 21
17.7631369297
  0
LINE
  5
250
100
AcDbEntity
  8
0
100
AcDbLine
 62
7
  6
CONTINUOUS
 10
-6.2566666654
 20
18.3439880018
 11
-6.2783333327
 21
18.2333497171
  0
LINE
  5
251
100
AcDbEntity
  8
0
100
AcDbLine
 62
7
  6
CONTINUOUS
 10
-5.541666646
 20
18.0673922126
 11
-5.52
 21
18.1780304973
  0
LINE
  5
252
100
AcDbEntity
  8
0
100
AcDbLine
 62
7
  6
CONTINUOUS
 10
-3.0739582419
 20
22.6441489384
 11
-3.05
 21
22.7664893493
  0
LINE
  5
253
100
AcDbEntity
  8
0
100
AcDbLine
 62
7
  6
CONTINUOUS
 10
-3.743333416
 20
17.6801581775
 11
-3.765
 21
17.5695198928
  0
LINE
  5
254
100
AcDbEntity
  8
0
100
AcDbLine
 62
7
  6
CONTINUOUS
 10
-3.19375
 20
22.7664893493
 11
-3.2177082419
 21
22.6686170205
  0
LINE
  5
255
100
AcDbEntity
  8
0
100
AcDbLine
 62
7
  6
CONTINUOUS
 10
-5.303333354
 20
18.2333497171
 11
-5.325
 21
18.1503709261
  0
LINE
  5
256
100
AcDbEntity
  8
0
100
AcDbLine
 62
7
  6
CONTINUOUS
 10
-4.61
 20
17.5418603216
 11
-4.588333292
 21
17.6248390351
  0
LINE
  5
257
100
AcDbEntity
  8
0
100
AcDbLine
 62
7
  6
CONTINUOUS
 10
-0.208182
 20
27.550052
 11
-0.6937255
 21
25.856763
  0
LINE
  5
258
100
AcDbEntity
  8
0
100
AcDbLine
 62
7
  6
CONTINUOUS
 10
-0.4337255
 20
24.9499415
 11
0.0579215
 21
26.6645375
  0
LINE
  5
259
100
AcDbEntity
  8
0
100
AcDbLine
 62
7
  6
CONTINUOUS
 10
-0.9343222051
 20
20.7856382877
 11
-0.8898303403
 21
20.9324467808
  0
LINE
  5
25A
100
AcDbEntity
  8
0
100
AcDbLine
 62
7
  6
CONTINUOUS
 10
-3.8721215
 20
27.550052
 11
-4.446923
 21
25.759731
  0
LINE
  5
25B
100
AcDbEntity
  8
0
100
AcDbLine
 62
7
  6
CONTINUOUS
 10
-4.18691
 20
24.949935
 11
-3.3520955
 21
27.550052
  0
LINE
  5
25C
100
AcDbEntity
  8
0
100
AcDbLine
 62
7
  6
CONTINUOUS
 10
1.7594265
 20
27.5500585
 11
0.924625
 21
24.949935
  0
LINE
  5
25D
100
AcDbEntity
  8
0
100
AcDbLine
 62
7
  6
CONTINUOUS
 10
-4.894791621
 20
22.7664893493
 11
-4.679166621
 21
23.4271276712
  0
LINE
  5
25E
100
AcDbEntity
  8
0
100
AcDbLine
 62
7
  6
CONTINUOUS
 10
-5.014583379
 20
22.375
 11
-4.91875
 21
22.6686170205
  0
LINE
  5
25F
100
AcDbEntity
  8
0
100
AcDbLine
 62
7
  6
CONTINUOUS
 10
-4.775
 20
23.525
 11
-5.158333379
 21
22.375
  0
LINE
  5
260
100
AcDbEntity
  8
0
100
AcDbLine
 62
7
  6
CONTINUOUS
 10
-5.565625
 20
23.525
 11
-5.925
 21
22.4973404281
  0
LINE
  5
261
100
AcDbEntity
  8
0
100
AcDbLine
 62
7
  6
CONTINUOUS
 10
-1.112288137
 20
20.9324467808
 11
-1.1567797473
 21
20.8101063699
  0
LINE
  5
262
100
AcDbEntity
  8
0
100
AcDbLine
 62
7
  6
CONTINUOUS
 10
0.4004235571
 20
20.4675531849
 11
0.444915422
 21
20.5898936301
  0
LINE
  5
263
100
AcDbEntity
  8
0
100
AcDbLine
 62
7
  6
CONTINUOUS
 10
-5.8291666895
 20
22.375
 11
-5.49375
 21
23.2803191781
  0
LINE
  5
264
100
AcDbEntity
  8
0
100
AcDbLine
 62
7
  6
CONTINUOUS
 10
-5.65
 20
18.1780304973
 11
-5.693333354
 21
18.0673922126
  0
LINE
  5
265
100
AcDbEntity
  8
0
100
AcDbLine
 62
7
  6
CONTINUOUS
 10
-5.26
 20
18.3439880018
 11
-5.303333354
 21
18.2333497171
  0
LINE
  5
266
100
AcDbEntity
  8
0
100
AcDbLine
 62
7
  6
CONTINUOUS
 10
-4.653333292
 20
17.4312220176
 11
-4.61
 21
17.5418603216
  0
LINE
  5
267
100
AcDbEntity
  8
0
100
AcDbLine
 62
7
  6
CONTINUOUS
 10
-3.678333416
 20
17.4312220176
 11
-3.635
 21
17.5418603216
  0
LINE
  5
268
100
AcDbEntity
  8
0
100
AcDbLine
 62
7
  6
CONTINUOUS
 10
-3.121875
 20
22.5462765925
 11
-3.0739582419
 21
22.6441489384
  0
LINE
  5
269
100
AcDbEntity
  8
0
100
AcDbLine
 62
7
  6
CONTINUOUS
 10
-6.17
 20
18.2333497171
 11
-6.1266666615
 21
18.3163284306
  0
LINE
  5
26A
100
AcDbEntity
  8
0
100
AcDbLine
 62
7
  6
CONTINUOUS
 10
-5.585
 20
17.9844134991
 11
-5.541666646
 21
18.0673922126
  0
LINE
  5
26B
100
AcDbEntity
  8
0
100
AcDbLine
 62
7
  6
CONTINUOUS
 10
-5.216666708
 20
18.1503709261
 11
-5.13
 21
18.3163284306
  0
LINE
  5
26C
100
AcDbEntity
  8
0
100
AcDbLine
 62
7
  6
CONTINUOUS
 10
-4.696666708
 20
17.6248390351
 11
-4.783333292
 21
17.4588815887
  0
LINE
  5
26D
100
AcDbEntity
  8
0
100
AcDbLine
 62
7
  6
CONTINUOUS
 10
-3.765
 20
17.5695198928
 11
-3.808333416
 21
17.4865411793
  0
LINE
  5
26E
100
AcDbEntity
  8
0
100
AcDbLine
 62
7
  6
CONTINUOUS
 10
-1.0677965268
 20
21.0058510959
 11
-1.112288137
 21
20.9324467808
  0
LINE
  5
26F
100
AcDbEntity
  8
0
100
AcDbLine
 62
7
  6
CONTINUOUS
 10
0.3559322014
 20
20.3941489384
 11
0.4004235571
 21
20.4675531849
  0
LINE
  5
270
100
AcDbEntity
  8
0
100
AcDbLine
 62
7
  6
CONTINUOUS
 10
1.7796611842
 20
21.0058510959
 11
1.7351693193
 21
20.9324467808
  0
LINE
  5
271
100
AcDbEntity
  8
0
100
AcDbLine
 62
7
  6
CONTINUOUS
 10
3.2033896578
 20
20.3941489384
 11
3.2478815227
 21
20.4675531849
  0
LINE
  5
272
100
AcDbEntity
  8
0
100
AcDbLine
 62
7
  6
CONTINUOUS
 10
6.3895829678
 20
23.525
 11
6.078125
 21
23.0601063699
  0
LINE
  5
273
100
AcDbEntity
  8
0
100
AcDbLine
 62
7
  6
CONTINUOUS
 10
6.15
 20
22.9622340411
 11
6.5333329678
 21
23.525
  0
LINE
  5
274
100
AcDbEntity
  8
0
100
AcDbLine
 62
7
  6
CONTINUOUS
 10
-0.7579365
 20
17.676152
 11
-0.356675
 21
18.2476105
  0
LINE
  5
275
100
AcDbEntity
  8
0
100
AcDbLine
 62
7
  6
CONTINUOUS
 10
-0.310801
 20
18.512395
 11
-0.9017275
 21
17.693907
  0
LINE
  5
276
100
AcDbEntity
  8
0
100
AcDbLine
 62
7
  6
CONTINUOUS
 10
3.7817793184
 20
21.1037234247
 11
3.692796607
 21
20.9813829452
  0
LINE
  5
277
100
AcDbEntity
  8
0
100
AcDbLine
 62
7
  6
CONTINUOUS
 10
3.7372884719
 20
20.6143617123
 11
3.6483047422
 21
20.4920212671
  0
LINE
  5
278
100
AcDbEntity
  8
0
100
AcDbLine
 62
7
  6
CONTINUOUS
 10
5.1610169455
 20
20.2962765925
 11
5.2499996569
 21
20.4186170205
  0
LINE
  5
279
100
AcDbEntity
  8
0
100
AcDbLine
 62
7
  6
CONTINUOUS
 10
-3.765
 20
17.3205837232
 11
-3.678333416
 21
17.4312220176
  0
LINE
  5
27A
100
AcDbEntity
  8
0
100
AcDbLine
 62
7
  6
CONTINUOUS
 10
0.2669489809
 20
20.2962765925
 11
0.3559322014
 21
20.3941489384
  0
LINE
  5
27B
100
AcDbEntity
  8
0
100
AcDbLine
 62
7
  6
CONTINUOUS
 10
1.8686438956
 20
21.1037234247
 11
1.7796611842
 21
21.0058510959
  0
LINE
  5
27C
100
AcDbEntity
  8
0
100
AcDbLine
 62
7
  6
CONTINUOUS
 10
3.1144069464
 20
20.2962765925
 11
3.2033896578
 21
20.3941489384
  0
LINE
  5
27D
100
AcDbEntity
  8
0
100
AcDbLine
 62
7
  6
CONTINUOUS
 10
5.1165250806
 20
20.8101063699
 11
5.2055088103
 21
20.9079786986
  0
LINE
  5
27E
100
AcDbEntity
  8
ASSI
100
AcDbLine
 62
7
  6
CONTINUOUS
 10
4.1592749048
 20
18.5341409198
 11
3.396593
 21
17.8914235
  0
LINE
  5
27F
100
AcDbEntity
  8
ASSI
100
AcDbLine
 62
7
  6
CONTINUOUS
 10
3.396593
 20
17.557603
 11
4.1238878457
 21
18.1704988699
  0
LINE
  5
280
100
AcDbEntity
  8
0
100
AcDbLine
 62
7
  6
CONTINUOUS
 10
3.0254237259
 20
20.4675531849
 11
2.847457794
 21
20.3207446747
  0
LINE
  5
281
100
AcDbEntity
  8
0
100
AcDbLine
 62
7
  6
CONTINUOUS
 10
3.9152538946
 20
20.9813829452
 11
4.0042376243
 21
21.0547872603
  0
LINE
  5
282
100
AcDbEntity
  8
0
100
AcDbLine
 62
7
  6
CONTINUOUS
 10
4.9830505044
 20
20.9324467808
 11
4.894067793
 21
20.8590425342
  0
LINE
  5
283
100
AcDbEntity
  8
0
100
AcDbLine
 62
7
  6
CONTINUOUS
 10
5.0275423693
 20
20.4186170205
 11
4.894067793
 21
20.3207446747
  0
LINE
  5
284
100
AcDbEntity
  8
0
100
AcDbLine
 62
7
  6
CONTINUOUS
 10
-6.5
 20
23.525
 11
-6.5
 21
22.375
  0
LINE
  5
285
100
AcDbEntity
  8
0
100
AcDbLine
 62
7
  6
CONTINUOUS
 10
-6.35625
 20
22.375
 11
-6.35625
 21
23.2803191781
  0
LINE
  5
286
100
AcDbEntity
  8
0
100
AcDbLine
 62
7
  6
CONTINUOUS
 10
-6.3
 20
17.3759028752
 11
-6.3
 21
17.237605
  0
LINE
  5
287
100
AcDbEntity
  8
0
100
AcDbLine
 62
7
  6
CONTINUOUS
 10
-5.65
 20
18.2333497171
 11
-5.65
 21
18.1780304973
  0
LINE
  5
288
100
AcDbEntity
  8
0
100
AcDbLine
 62
7
  6
CONTINUOUS
 10
-5.52
 20
17.237605
 11
-5.52
 21
17.3759028752
  0
LINE
  5
289
100
AcDbEntity
  8
0
100
AcDbLine
 62
7
  6
CONTINUOUS
 10
-5.52
 20
18.1780304973
 11
-5.52
 21
18.2333497171
  0
LINE
  5
28A
100
AcDbEntity
  8
0
100
AcDbLine
 62
7
  6
CONTINUOUS
 10
-5.49375
 20
23.2803191781
 11
-5.49375
 21
22.375
  0
LINE
  5
28B
100
AcDbEntity
  8
0
100
AcDbLine
 62
7
  6
CONTINUOUS
 10
-5.35
 20
22.375
 11
-5.35
 21
23.525
  0
LINE
  5
28C
100
AcDbEntity
  8
0
100
AcDbLine
 62
7
  6
CONTINUOUS
 10
-5.346666646
 20
18.0120730703
 11
-5.346666646
 21
17.7631369297
  0
LINE
  5
28D
100
AcDbEntity
  8
0
100
AcDbLine
 62
7
  6
CONTINUOUS
 10
-5.238333292
 20
17.7907965009
 11
-5.238333292
 21
17.9844134991
  0
LINE
  5
28E
100
AcDbEntity
  8
0
100
AcDbLine
 62
7
  6
CONTINUOUS
 10
-4.675
 20
17.9844134991
 11
-4.675
 21
17.7907965009
  0
LINE
  5
28F
100
AcDbEntity
  8
0
100
AcDbLine
 62
7
  6
CONTINUOUS
 10
-4.566666708
 20
17.7631369297
 11
-4.566666708
 21
18.0120730703
  0
LINE
  5
290
100
AcDbEntity
  8
0
100
AcDbLine
 62
7
  6
CONTINUOUS
 10
-4.0083332419
 20
23.525
 11
-4.0083332419
 21
22.375
  0
LINE
  5
291
100
AcDbEntity
  8
0
100
AcDbLine
 62
7
  6
CONTINUOUS
 10
-3.8645832419
 20
22.5218085103
 11
-3.8645832419
 21
23.3781915069
  0
LINE
  5
292
100
AcDbEntity
  8
0
100
AcDbLine
 62
7
  6
CONTINUOUS
 10
-3.743333416
 20
18.537605
 11
-3.743333416
 21
17.6801581775
  0
LINE
  5
293
100
AcDbEntity
  8
0
100
AcDbLine
 62
7
  6
CONTINUOUS
 10
-3.613333416
 20
17.6801581775
 11
-3.613333416
 21
18.537605
  0
LINE
  5
294
100
AcDbEntity
  8
0
100
AcDbLine
 62
7
  6
CONTINUOUS
 10
-3.19375
 20
23.1335106164
 11
-3.19375
 21
22.7664893493
  0
LINE
  5
295
100
AcDbEntity
  8
0
100
AcDbLine
 62
7
  6
CONTINUOUS
 10
-3.1144067804
 20
21.275
 11
-3.1144067804
 21
21.1526595891
  0
LINE
  5
296
100
AcDbEntity
  8
0
100
AcDbLine
 62
7
  6
CONTINUOUS
 10
-3.05
 20
22.7664893493
 11
-3.05
 21
23.1335106164
  0
LINE
  5
297
100
AcDbEntity
  8
0
100
AcDbLine
 62
7
  6
CONTINUOUS
 10
-3.005418
 20
27.550052
 11
-3.0054245
 21
24.9499285
  0
LINE
  5
298
100
AcDbEntity
  8
0
100
AcDbLine
 62
7
  6
CONTINUOUS
 10
-2.8583332419
 20
23.525
 11
-2.8583332419
 21
22.375
  0
LINE
  5
299
100
AcDbEntity
  8
0
100
AcDbLine
 62
7
  6
CONTINUOUS
 10
-2.7145832419
 20
22.5218085103
 11
-2.7145832419
 21
22.9132978767
  0
LINE
  5
29A
100
AcDbEntity
  8
0
100
AcDbLine
 62
7
  6
CONTINUOUS
 10
-2.7145832419
 20
23.0601063699
 11
-2.7145832419
 21
23.3781915069
  0
LINE
  5
29B
100
AcDbEntity
  8
0
100
AcDbLine
 62
7
  6
CONTINUOUS
 10
-2.485405
 20
24.949935
 11
-2.4853985
 21
27.550052
  0
LINE
  5
29C
100
AcDbEntity
  8
0
100
AcDbLine
 62
7
  6
CONTINUOUS
 10
-2.46241
 20
18.512395
 11
-2.46241
 21
17.237605
  0
LINE
  5
29D
100
AcDbEntity
  8
0
100
AcDbLine
 62
7
  6
CONTINUOUS
 10
-2.2901635
 20
17.237605
 11
-2.2901635
 21
18.512395
  0
LINE
  5
29E
100
AcDbEntity
  8
0
100
AcDbLine
 62
7
  6
CONTINUOUS
 10
-2.0916667581
 20
22.9132978767
 11
-2.0916667581
 21
23.0601063699
  0
LINE
  5
29F
100
AcDbEntity
  8
0
100
AcDbLine
 62
7
  6
CONTINUOUS
 10
-1.9958332419
 20
22.375
 11
-1.9958332419
 21
22.5218085103
  0
LINE
  5
2A0
100
AcDbEntity
  8
0
100
AcDbLine
 62
7
  6
CONTINUOUS
 10
-1.9958332419
 20
23.3781915069
 11
-1.9958332419
 21
23.525
  0
LINE
  5
2A1
100
AcDbEntity
  8
0
100
AcDbLine
 62
7
  6
CONTINUOUS
 10
-1.9776765
 20
18.512395
 11
-1.9776765
 21
17.237605
  0
LINE
  5
2A2
100
AcDbEntity
  8
0
100
AcDbLine
 62
7
  6
CONTINUOUS
 10
-1.9653985
 20
27.550052
 11
-1.9653985
 21
24.949935
  0
LINE
  5
2A3
100
AcDbEntity
  8
0
100
AcDbLine
 62
7
  6
CONTINUOUS
 10
-1.8054775
 20
17.237605
 11
-1.8054775
 21
17.7755935
  0
LINE
  5
2A4
100
AcDbEntity
  8
0
100
AcDbLine
 62
7
  6
CONTINUOUS
 10
-1.8054775
 20
17.9229405
 11
-1.8054775
 21
18.365048
  0
LINE
  5
2A5
100
AcDbEntity
  8
0
100
AcDbLine
 62
7
  6
CONTINUOUS
 10
-1.5127118657
 20
21.1526595891
 11
-1.5127118657
 21
21.275
  0
LINE
  5
2A6
100
AcDbEntity
  8
0
100
AcDbLine
 62
7
  6
CONTINUOUS
 10
-1.445379
 20
24.949935
 11
-1.445379
 21
26.6645375
  0
LINE
  5
2A7
100
AcDbEntity
  8
0
100
AcDbLine
 62
7
  6
CONTINUOUS
 10
-1.1567797473
 20
20.8101063699
 11
-1.1567797473
 21
20.5898936301
  0
LINE
  5
2A8
100
AcDbEntity
  8
0
100
AcDbLine
 62
7
  6
CONTINUOUS
 10
-0.9343222051
 20
20.6143617123
 11
-0.9343222051
 21
20.7856382877
  0
LINE
  5
2A9
100
AcDbEntity
  8
0
100
AcDbLine
 62
7
  6
CONTINUOUS
 10
-0.9017275
 20
17.693907
 11
-0.9017275
 21
17.5412285
  0
LINE
  5
2AA
100
AcDbEntity
  8
0
100
AcDbLine
 62
7
  6
CONTINUOUS
 10
-0.6541664839
 20
23.525
 11
-0.6541664839
 21
22.375
  0
LINE
  5
2AB
100
AcDbEntity
  8
0
100
AcDbLine
 62
7
  6
CONTINUOUS
 10
-0.5104164839
 20
22.375
 11
-0.5104164839
 21
23.525
  0
LINE
  5
2AC
100
AcDbEntity
  8
ASSI
100
AcDbLine
 62
7
  6
CONTINUOUS
 10
-0.433777
 20
-23.2740185039
 11
-0.433777
 21
-22.8986100039
  0
LINE
  5
2AD
100
AcDbEntity
  8
ASSI
100
AcDbLine
 62
7
  6
CONTINUOUS
 10
-0.433777
 20
-21.10139
 11
-0.433777
 21
-20.7259815
  0
LINE
  5
2AE
100
AcDbEntity
  8
0
100
AcDbLine
 62
7
  6
CONTINUOUS
 10
-0.356675
 20
18.2476105
 11
-0.356675
 21
17.676152
  0
LINE
  5
2AF
100
AcDbEntity
  8
0
100
AcDbLine
 62
7
  6
CONTINUOUS
 10
-0.356675
 20
17.5412285
 11
-0.356675
 21
17.237605
  0
LINE
  5
2B0
100
AcDbEntity
  8
0
100
AcDbLine
 62
7
  6
CONTINUOUS
 10
-0.31875
 20
23.525
 11
-0.31875
 21
22.375
  0
LINE
  5
2B1
100
AcDbEntity
  8
0
100
AcDbLine
 62
7
  6
CONTINUOUS
 10
-0.2004315
 20
17.237605
 11
-0.2004315
 21
17.5412285
  0
LINE
  5
2B2
100
AcDbEntity
  8
0
100
AcDbLine
 62
7
  6
CONTINUOUS
 10
-0.2004315
 20
17.676152
 11
-0.2004315
 21
18.512395
  0
LINE
  5
2B3
100
AcDbEntity
  8
0
100
AcDbLine
 62
7
  6
CONTINUOUS
 10
-0.175
 20
22.375
 11
-0.175
 21
23.3781915069
  0
LINE
  5
2B4
100
AcDbEntity
  8
0
100
AcDbLine
 62
7
  6
CONTINUOUS
 10
-0.017532
 20
17.5412285
 11
-0.017532
 21
17.676152
  0
LINE
  5
2B5
100
AcDbEntity
  8
0
100
AcDbLine
 62
7
  6
CONTINUOUS
 10
0.0579215
 20
26.6645375
 11
0.057928
 21
24.949935
  0
LINE
  5
2B6
100
AcDbEntity
  8
0
100
AcDbLine
 62
7
  6
CONTINUOUS
 10
0.2224576252
 20
20.7856382877
 11
0.2224576252
 21
20.6143617123
  0
LINE
  5
2B7
100
AcDbEntity
  8
0
100
AcDbLine
 62
7
  6
CONTINUOUS
 10
0.444915422
 20
20.5898936301
 11
0.444915422
 21
20.8101063699
  0
LINE
  5
2B8
100
AcDbEntity
  8
0
100
AcDbLine
 62
7
  6
CONTINUOUS
 10
0.4958335161
 20
23.525
 11
0.4958335161
 21
22.5462765925
  0
LINE
  5
2B9
100
AcDbEntity
  8
0
100
AcDbLine
 62
7
  6
CONTINUOUS
 10
0.5779475
 20
24.949935
 11
0.5779475
 21
27.550052
  0
LINE
  5
2BA
100
AcDbEntity
  8
0
100
AcDbLine
 62
7
  6
CONTINUOUS
 10
0.6395835161
 20
22.375
 11
0.6395835161
 21
23.525
  0
LINE
  5
2BB
100
AcDbEntity
  8
0
100
AcDbLine
 62
7
  6
CONTINUOUS
 10
0.8008472858
 20
21.1037234247
 11
0.8008472858
 21
20.9079786986
  0
LINE
  5
2BC
100
AcDbEntity
  8
0
100
AcDbLine
 62
7
  6
CONTINUOUS
 10
-3.635
 20
17.5418603216
 11
-3.613333416
 21
17.6801581775
  0
LINE
  5
2BD
100
AcDbEntity
  8
0
100
AcDbLine
 62
7
  6
CONTINUOUS
 10
0.2224576252
 20
20.6143617123
 11
0.1779662695
 21
20.4675531849
  0
LINE
  5
2BE
100
AcDbEntity
  8
0
100
AcDbLine
 62
7
  6
CONTINUOUS
 10
1.9131357604
 20
20.7856382877
 11
1.9576271161
 21
20.9324467808
  0
LINE
  5
2BF
100
AcDbEntity
  8
0
100
AcDbLine
 62
7
  6
CONTINUOUS
 10
3.0699150816
 20
20.6143617123
 11
3.0254237259
 21
20.4675531849
  0
LINE
  5
2C0
100
AcDbEntity
  8
0
100
AcDbLine
 62
7
  6
CONTINUOUS
 10
1.4446445
 20
24.9499415
 11
1.608815
 21
25.4612705
  0
LINE
  5
2C1
100
AcDbEntity
  8
0
100
AcDbLine
 62
7
  6
CONTINUOUS
 10
1.7674345
 20
25.95529
 11
2.019446
 21
26.740256
  0
LINE
  5
2C2
100
AcDbEntity
  8
0
100
AcDbLine
 62
7
  6
CONTINUOUS
 10
3.6822920322
 20
22.7664893493
 11
3.8979170322
 21
23.4271276712
  0
LINE
  5
2C3
100
AcDbEntity
  8
0
100
AcDbLine
 62
7
  6
CONTINUOUS
 10
3.5625
 20
22.375
 11
3.6583329678
 21
22.6686170205
  0
LINE
  5
2C4
100
AcDbEntity
  8
0
100
AcDbLine
 62
7
  6
CONTINUOUS
 10
3.8020829678
 20
23.525
 11
3.41875
 21
22.375
  0
LINE
  5
2C5
100
AcDbEntity
  8
0
100
AcDbLine
 62
7
  6
CONTINUOUS
 10
1.7351693193
 20
20.9324467808
 11
1.6906779637
 21
20.8101063699
  0
LINE
  5
2C6
100
AcDbEntity
  8
0
100
AcDbLine
 62
7
  6
CONTINUOUS
 10
3.2478815227
 20
20.4675531849
 11
3.2923728784
 21
20.5898936301
  0
LINE
  5
2C7
100
AcDbEntity
  8
ASSI
100
AcDbLine
 62
7
  6
CONTINUOUS
 10
2.6206640257
 20
16.5037265457
 11
2.7457879032
 21
16.7266573276
  0
LINE
  5
2C8
100
AcDbEntity
  8
ASSI
100
AcDbLine
 62
7
  6
CONTINUOUS
 10
4.2343985
 20
15.5184505
 11
4.3762445
 21
15.7195385
  0
LINE
  5
2C9
100
AcDbEntity
  8
0
100
AcDbLine
 62
7
  6
CONTINUOUS
 10
-5.325
 20
17.6248390351
 11
-5.303333354
 21
17.5418603216
  0
LINE
  5
2CA
100
AcDbEntity
  8
0
100
AcDbLine
 62
7
  6
CONTINUOUS
 10
-4.588333292
 20
18.1503709261
 11
-4.61
 21
18.2333497171
  0
LINE
  5
2CB
100
AcDbEntity
  8
0
100
AcDbLine
 62
7
  6
CONTINUOUS
 10
-5.52
 20
18.2333497171
 11
-5.541666646
 21
18.3439880018
  0
LINE
  5
2CC
100
AcDbEntity
  8
0
100
AcDbLine
 62
7
  6
CONTINUOUS
 10
-4.241666708
 20
17.5695198928
 11
-4.263333292
 21
17.6801581775
  0
LINE
  5
2CD
100
AcDbEntity
  8
0
100
AcDbLine
 62
7
  6
CONTINUOUS
 10
-5.346666646
 20
17.7631369297
 11
-5.325
 21
17.6248390351
  0
LINE
  5
2CE
100
AcDbEntity
  8
0
100
AcDbLine
 62
7
  6
CONTINUOUS
 10
-4.566666708
 20
18.0120730703
 11
-4.588333292
 21
18.1503709261
  0
LINE
  5
2CF
100
AcDbEntity
  8
0
100
AcDbLine
 62
7
  6
CONTINUOUS
 10
-4.393333292
 20
17.6801581775
 11
-4.371666708
 21
17.5418603216
  0
LINE
  5
2D0
100
AcDbEntity
  8
0
100
AcDbLine
 62
7
  6
CONTINUOUS
 10
-5.216666708
 20
17.6248390351
 11
-5.238333292
 21
17.7907965009
  0
LINE
  5
2D1
100
AcDbEntity
  8
0
100
AcDbLine
 62
7
  6
CONTINUOUS
 10
-4.696666708
 20
18.1503709261
 11
-4.675
 21
17.9844134991
  0
LINE
  5
2D2
100
AcDbEntity
  8
0
100
AcDbLine
 62
7
  6
CONTINUOUS
 10
1.0677964382
 20
21.0792553425
 11
1.0677964382
 21
20.125
  0
LINE
  5
2D3
100
AcDbEntity
  8
0
100
AcDbLine
 62
7
  6
CONTINUOUS
 10
1.3347455907
 20
20.125
 11
1.3347455907
 21
21.275
  0
LINE
  5
2D4
100
AcDbEntity
  8
ASSI
100
AcDbLine
 62
7
  6
CONTINUOUS
 10
1.558778
 20
-22.1875
 11
1.558778
 21
-21.8125
  0
LINE
  5
2D5
100
AcDbEntity
  8
0
100
AcDbLine
 62
7
  6
CONTINUOUS
 10
1.6906779637
 20
20.8101063699
 11
1.6906779637
 21
20.5898936301
  0
LINE
  5
2D6
100
AcDbEntity
  8
ASSI
100
AcDbLine
 62
7
  6
CONTINUOUS
 10
1.758778
 20
-23.2740185627
 11
1.758778
 21
-22.8986083777
  0
LINE
  5
2D7
100
AcDbEntity
  8
ASSI
100
AcDbLine
 62
7
  6
CONTINUOUS
 10
1.758778
 20
-21.10139
 11
1.758778
 21
-20.7259815418
  0
LINE
  5
2D8
100
AcDbEntity
  8
0
100
AcDbLine
 62
7
  6
CONTINUOUS
 10
1.9131357604
 20
20.6143617123
 11
1.9131357604
 21
20.7856382877
  0
LINE
  5
2D9
100
AcDbEntity
  8
0
100
AcDbLine
 62
7
  6
CONTINUOUS
 10
1.98125
 20
23.525
 11
1.98125
 21
22.375
  0
LINE
  5
2DA
100
AcDbEntity
  8
0
100
AcDbLine
 62
7
  6
CONTINUOUS
 10
2.125
 20
22.375
 11
2.125
 21
23.525
  0
LINE
  5
2DB
100
AcDbEntity
  8
0
100
AcDbLine
 62
7
  6
CONTINUOUS
 10
2.3166664839
 20
23.525
 11
2.3166664839
 21
23.4026595891
  0
LINE
  5
2DC
100
AcDbEntity
  8
0
100
AcDbLine
 62
7
  6
CONTINUOUS
 10
2.7
 20
23.4026595891
 11
2.7
 21
22.375
  0
LINE
  5
2DD
100
AcDbEntity
  8
0
100
AcDbLine
 62
7
  6
CONTINUOUS
 10
2.84375
 20
22.375
 11
2.84375
 21
23.4026595891
  0
LINE
  5
2DE
100
AcDbEntity
  8
ASSI
100
AcDbLine
 62
7
  6
CONTINUOUS
 10
2.8661195
 20
16.65331
 11
2.8661195
 21
16.3814855
  0
LINE
  5
2DF
100
AcDbEntity
  8
ASSI
100
AcDbLine
 62
7
  6
CONTINUOUS
 10
2.8749965
 20
18.8578065
 11
2.8749965
 21
18.584487
  0
LINE
  5
2E0
100
AcDbEntity
  8
0
100
AcDbLine
 62
7
  6
CONTINUOUS
 10
3.0699150816
 20
20.7856382877
 11
3.0699150816
 21
20.6143617123
  0
LINE
  5
2E1
100
AcDbEntity
  8
ASSI
100
AcDbLine
 62
7
  6
CONTINUOUS
 10
3.1070145
 20
18.584487
 11
3.1070145
 21
17.8914235
  0
LINE
  5
2E2
100
AcDbEntity
  8
ASSI
100
AcDbLine
 62
7
  6
CONTINUOUS
 10
3.1070145
 20
17.554563
 11
3.1070145
 21
16.65331
  0
LINE
  5
2E3
100
AcDbEntity
  8
0
100
AcDbLine
 62
7
  6
CONTINUOUS
 10
3.2270829678
 20
23.4026595891
 11
3.2270829678
 21
23.525
  0
LINE
  5
2E4
100
AcDbEntity
  8
0
100
AcDbLine
 62
7
  6
CONTINUOUS
 10
3.2923728784
 20
20.5898936301
 11
3.2923728784
 21
20.8101063699
  0
LINE
  5
2E5
100
AcDbEntity
  8
ASSI
100
AcDbLine
 62
7
  6
CONTINUOUS
 10
3.396593
 20
16.65331
 11
3.396593
 21
17.557603
  0
LINE
  5
2E6
100
AcDbEntity
  8
ASSI
100
AcDbLine
 62
7
  6
CONTINUOUS
 10
3.396593
 20
17.8914235
 11
3.396593
 21
18.584487
  0
LINE
  5
2E7
100
AcDbEntity
  8
0
100
AcDbLine
 62
7
  6
CONTINUOUS
 10
3.460964
 20
27.5500585
 11
3.460964
 21
24.9499415
  0
LINE
  5
2E8
100
AcDbEntity
  8
ASSI
100
AcDbLine
 62
7
  6
CONTINUOUS
 10
3.628517
 20
18.584487
 11
3.628517
 21
18.8578065
  0
LINE
  5
2E9
100
AcDbEntity
  8
ASSI
100
AcDbLine
 62
7
  6
CONTINUOUS
 10
3.637394
 20
16.3814855
 11
3.637394
 21
16.65331
  0
LINE
  5
2EA
100
AcDbEntity
  8
0
100
AcDbLine
 62
7
  6
CONTINUOUS
 10
3.6483047422
 20
20.4920212671
 11
3.6483047422
 21
20.4186170205
  0
LINE
  5
2EB
100
AcDbEntity
  8
0
100
AcDbLine
 62
7
  6
CONTINUOUS
 10
3.692796607
 20
20.9813829452
 11
3.692796607
 21
20.9079786986
  0
LINE
  5
2EC
100
AcDbEntity
  8
0
100
AcDbLine
 62
7
  6
CONTINUOUS
 10
3.8707630481
 20
20.4186170205
 11
3.8707630481
 21
20.4920212671
  0
LINE
  5
2ED
100
AcDbEntity
  8
0
100
AcDbLine
 62
7
  6
CONTINUOUS
 10
3.9152538946
 20
20.9324467808
 11
3.9152538946
 21
20.9813829452
  0
LINE
  5
2EE
100
AcDbEntity
  8
0
100
AcDbLine
 62
7
  6
CONTINUOUS
 10
3.9738205
 20
26.436316
 11
3.973814
 21
27.069039
  0
LINE
  5
2EF
100
AcDbEntity
  8
0
100
AcDbLine
 62
7
  6
CONTINUOUS
 10
4.56875
 20
23.525
 11
4.56875
 21
22.375
  0
LINE
  5
2F0
100
AcDbEntity
  8
0
100
AcDbLine
 62
7
  6
CONTINUOUS
 10
4.7125
 20
22.5218085103
 11
4.7125
 21
23.525
  0
LINE
  5
2F1
100
AcDbEntity
  8
0
100
AcDbLine
 62
7
  6
CONTINUOUS
 10
4.9830505044
 20
20.9813829452
 11
4.9830505044
 21
20.9324467808
  0
LINE
  5
2F2
100
AcDbEntity
  8
0
100
AcDbLine
 62
7
  6
CONTINUOUS
 10
5.0275423693
 20
20.4920212671
 11
5.0275423693
 21
20.4186170205
  0
LINE
  5
2F3
100
AcDbEntity
  8
0
100
AcDbLine
 62
7
  6
CONTINUOUS
 10
5.2055088103
 20
20.9079786986
 11
5.2055088103
 21
20.9813829452
  0
LINE
  5
2F4
100
AcDbEntity
  8
0
100
AcDbLine
 62
7
  6
CONTINUOUS
 10
5.2499996569
 20
20.4186170205
 11
5.2499996569
 21
20.4920212671
  0
LINE
  5
2F5
100
AcDbEntity
  8
0
100
AcDbLine
 62
7
  6
CONTINUOUS
 10
5.43125
 20
22.375
 11
5.43125
 21
22.5218085103
  0
LINE
  5
2F6
100
AcDbEntity
  8
0
100
AcDbLine
 62
7
  6
CONTINUOUS
 10
6.00625
 20
22.9622340411
 11
6.00625
 21
22.375
  0
LINE
  5
2F7
100
AcDbEntity
  8
0
100
AcDbLine
 62
7
  6
CONTINUOUS
 10
6.15
 20
22.375
 11
6.15
 21
22.9622340411
  0
LINE
  5
2F8
100
AcDbEntity
  8
0
100
AcDbLine
 62
7
  6
CONTINUOUS
 10
6.75
 20
14.875
 11
6.75
 21
28.375
  0
LINE
  5
2F9
100
AcDbEntity
  8
0
100
AcDbLine
 62
7
  6
CONTINUOUS
 10
3.98099
 20
24.9499415
 11
3.9810485
 21
25.9552965
  0
LINE
  5
2FA
100
AcDbEntity
  8
0
100
AcDbLine
 62
7
  6
CONTINUOUS
 10
-5.26
 20
17.4312220176
 11
-5.195
 21
17.3482432944
  0
LINE
  5
2FB
100
AcDbEntity
  8
0
100
AcDbLine
 62
7
  6
CONTINUOUS
 10
-5.541666646
 20
18.3439880018
 11
-5.628333354
 21
18.4546262865
  0
LINE
  5
2FC
100
AcDbEntity
  8
0
100
AcDbLine
 62
7
  6
CONTINUOUS
 10
-4.328333292
 20
17.4312220176
 11
-4.241666708
 21
17.3205837232
  0
LINE
  5
2FD
100
AcDbEntity
  8
0
100
AcDbLine
 62
7
  6
CONTINUOUS
 10
-4.653333292
 20
18.3439880018
 11
-4.718333292
 21
18.4269667153
  0
LINE
  5
2FE
100
AcDbEntity
  8
0
100
AcDbLine
 62
7
  6
CONTINUOUS
 10
-4.3601695131
 20
20.2718085103
 11
-4.9830508476
 21
21.275
  0
LINE
  5
2FF
100
AcDbEntity
  8
0
100
AcDbLine
 62
7
  6
CONTINUOUS
 10
-5.25
 20
21.275
 11
-4.5381355723
 21
20.125
  0
LINE
  5
300
100
AcDbEntity
  8
0
100
AcDbLine
 62
7
  6
CONTINUOUS
 10
-5.693333354
 20
18.3163284306
 11
-5.65
 21
18.2333497171
  0
LINE
  5
301
100
AcDbEntity
  8
0
100
AcDbLine
 62
7
  6
CONTINUOUS
 10
-5.13
 20
17.4588815887
 11
-5.216666708
 21
17.6248390351
  0
LINE
  5
302
100
AcDbEntity
  8
0
100
AcDbLine
 62
7
  6
CONTINUOUS
 10
-4.783333292
 20
18.3163284306
 11
-4.696666708
 21
18.1503709261
  0
LINE
  5
303
100
AcDbEntity
  8
0
100
AcDbLine
 62
7
  6
CONTINUOUS
 10
-4.198333416
 20
17.4865411793
 11
-4.241666708
 21
17.5695198928
  0
LINE
  5
304
100
AcDbEntity
  8
0
100
AcDbLine
 62
7
  6
CONTINUOUS
 10
-3.0739582419
 20
23.2558510959
 11
-3.121875
 21
23.3537234247
  0
LINE
  5
305
100
AcDbEntity
  8
0
100
AcDbLine
 62
7
  6
CONTINUOUS
 10
-5.303333354
 20
17.5418603216
 11
-5.26
 21
17.4312220176
  0
LINE
  5
306
100
AcDbEntity
  8
0
100
AcDbLine
 62
7
  6
CONTINUOUS
 10
-4.371666708
 20
17.5418603216
 11
-4.328333292
 21
17.4312220176
  0
LINE
  5
307
100
AcDbEntity
  8
0
100
AcDbLine
 62
7
  6
CONTINUOUS
 10
-4.61
 20
18.2333497171
 11
-4.653333292
 21
18.3439880018
  0
LINE
  5
308
100
AcDbEntity
  8
0
100
AcDbLine
 62
7
  6
CONTINUOUS
 10
-6.35625
 20
23.2803191781
 11
-6.0208333448
 21
22.375
  0
LINE
  5
309
100
AcDbEntity
  8
0
100
AcDbLine
 62
7
  6
CONTINUOUS
 10
-1.1567797473
 20
20.5898936301
 11
-1.112288137
 21
20.4675531849
  0
LINE
  5
30A
100
AcDbEntity
  8
0
100
AcDbLine
 62
7
  6
CONTINUOUS
 10
0.444915422
 20
20.8101063699
 11
0.4004235571
 21
20.9324467808
  0
LINE
  5
30B
100
AcDbEntity
  8
0
100
AcDbLine
 62
7
  6
CONTINUOUS
 10
-5.925
 20
22.4973404281
 11
-6.284375
 21
23.525
  0
LINE
  5
30C
100
AcDbEntity
  8
0
100
AcDbLine
 62
7
  6
CONTINUOUS
 10
-4.2
 20
22.375
 11
-4.583333379
 21
23.525
  0
LINE
  5
30D
100
AcDbEntity
  8
0
100
AcDbLine
 62
7
  6
CONTINUOUS
 10
-4.439583379
 20
22.6686170205
 11
-4.34375
 21
22.375
  0
LINE
  5
30E
100
AcDbEntity
  8
0
100
AcDbLine
 62
7
  6
CONTINUOUS
 10
-4.679166621
 20
23.4271276712
 11
-4.463541621
 21
22.7664893493
  0
LINE
  5
30F
100
AcDbEntity
  8
0
100
AcDbLine
 62
7
  6
CONTINUOUS
 10
-5.541757
 20
27.550052
 11
-4.706949
 21
24.9499285
  0
LINE
  5
310
100
AcDbEntity
  8
0
100
AcDbLine
 62
7
  6
CONTINUOUS
 10
-4.446923
 20
25.759731
 11
-5.021731
 21
27.550052
  0
LINE
  5
311
100
AcDbEntity
  8
0
100
AcDbLine
 62
7
  6
CONTINUOUS
 10
-0.8898303403
 20
20.4675531849
 11
-0.9343222051
 21
20.6143617123
  0
LINE
  5
312
100
AcDbEntity
  8
0
100
AcDbLine
 62
7
  6
CONTINUOUS
 10
0.1779662695
 20
20.9324467808
 11
0.2224576252
 21
20.7856382877
  0
LINE
  5
313
100
AcDbEntity
  8
0
100
AcDbLine
 62
7
  6
CONTINUOUS
 10
1.9576271161
 20
20.4675531849
 11
1.9131357604
 21
20.6143617123
  0
LINE
  5
314
100
AcDbEntity
  8
0
100
AcDbLine
 62
7
  6
CONTINUOUS
 10
-1.445379
 20
26.6645375
 11
-0.953732
 21
24.949935
  0
LINE
  5
315
100
AcDbEntity
  8
0
100
AcDbLine
 62
7
  6
CONTINUOUS
 10
-0.6937255
 20
25.856763
 11
-1.179269
 21
27.550052
  0
LINE
  5
316
100
AcDbEntity
  8
0
100
AcDbLine
 62
7
  6
CONTINUOUS
 10
-3.2177082419
 20
23.2313829452
 11
-3.19375
 21
23.1335106164
  0
LINE
  5
317
100
AcDbEntity
  8
0
100
AcDbLine
 62
7
  6
CONTINUOUS
 10
-3.05
 20
23.1335106164
 11
-3.0739582419
 21
23.2558510959
  0
LINE
  5
318
100
AcDbEntity
  8
0
100
AcDbLine
 62
7
  6
CONTINUOUS
 10
-6.75
 20
14.875
 11
6.75
 21
14.875
  0
LINE
  5
319
100
AcDbEntity
  8
0
100
AcDbLine
 62
7
  6
CONTINUOUS
 10
-5.086666708
 20
17.2652645736
 11
-4.956666708
 21
17.237605
  0
LINE
  5
31A
100
AcDbEntity
  8
0
100
AcDbLine
 62
7
  6
CONTINUOUS
 10
-4.956666708
 20
17.3759028752
 11
-5.065
 21
17.4035624464
  0
LINE
  5
31B
100
AcDbEntity
  8
0
100
AcDbLine
 62
7
  6
CONTINUOUS
 10
-4.155
 20
17.2652645736
 11
-4.046666584
 21
17.237605
  0
LINE
  5
31C
100
AcDbEntity
  8
0
100
AcDbLine
 62
7
  6
CONTINUOUS
 10
-4.046666584
 20
17.4035624464
 11
-4.133333416
 21
17.4312220176
  0
LINE
  5
31D
100
AcDbEntity
  8
0
100
AcDbLine
 62
7
  6
CONTINUOUS
 10
-4.241666708
 20
17.3205837232
 11
-4.155
 21
17.2652645736
  0
LINE
  5
31E
100
AcDbEntity
  8
0
100
AcDbLine
 62
7
  6
CONTINUOUS
 10
-5.628333354
 20
18.4546262865
 11
-5.715
 21
18.5099454288
  0
LINE
  5
31F
100
AcDbEntity
  8
0
100
AcDbLine
 62
7
  6
CONTINUOUS
 10
-5.195
 20
17.3482432944
 11
-5.086666708
 21
17.2652645736
  0
LINE
  5
320
100
AcDbEntity
  8
0
100
AcDbLine
 62
7
  6
CONTINUOUS
 10
-4.718333292
 20
18.4269667153
 11
-4.826666708
 21
18.5099454288
  0
LINE
  5
321
100
AcDbEntity
  8
0
100
AcDbLine
 62
7
  6
CONTINUOUS
 10
-0.7118644084
 20
20.3207446747
 11
-0.8898303403
 21
20.4675531849
  0
LINE
  5
322
100
AcDbEntity
  8
ASSI
100
AcDbLine
 62
7
  6
CONTINUOUS
 10
2.376112
 20
18.170499
 11
3.1070145
 21
17.554563
  0
LINE
  5
323
100
AcDbEntity
  8
ASSI
100
AcDbLine
 62
7
  6
CONTINUOUS
 10
3.1070145
 20
17.8914235
 11
2.342376
 21
18.535789
  0
LINE
  5
324
100
AcDbEntity
  8
0
100
AcDbLine
 62
7
  6
CONTINUOUS
 10
-5.065
 20
17.4035624464
 11
-5.13
 21
17.4588815887
  0
LINE
  5
325
100
AcDbEntity
  8
0
100
AcDbLine
 62
7
  6
CONTINUOUS
 10
-5.758333354
 20
18.371647573
 11
-5.693333354
 21
18.3163284306
  0
LINE
  5
326
100
AcDbEntity
  8
0
100
AcDbLine
 62
7
  6
CONTINUOUS
 10
-4.133333416
 20
17.4312220176
 11
-4.198333416
 21
17.4865411793
  0
LINE
  5
327
100
AcDbEntity
  8
0
100
AcDbLine
 62
7
  6
CONTINUOUS
 10
-4.848333292
 20
18.371647573
 11
-4.783333292
 21
18.3163284306
  0
LINE
  5
328
100
AcDbEntity
  8
0
100
AcDbLine
 62
7
  6
CONTINUOUS
 10
-3.121875
 20
23.3537234247
 11
-3.2177082419
 21
23.4515957534
  0
LINE
  5
329
100
AcDbEntity
  8
0
100
AcDbLine
 62
7
  6
CONTINUOUS
 10
-1.0677965268
 20
20.3941489384
 11
-0.9788135608
 21
20.2962765925
  0
LINE
  5
32A
100
AcDbEntity
  8
0
100
AcDbLine
 62
7
  6
CONTINUOUS
 10
0.3559322014
 20
21.0058510959
 11
0.2669489809
 21
21.1037234247
  0
LINE
  5
32B
100
AcDbEntity
  8
0
100
AcDbLine
 62
7
  6
CONTINUOUS
 10
1.7796611842
 20
20.3941489384
 11
1.8686438956
 21
20.2962765925
  0
LINE
  5
32C
100
AcDbEntity
  8
0
100
AcDbLine
 62
7
  6
CONTINUOUS
 10
3.6483047422
 20
20.4186170205
 11
3.7372884719
 21
20.2962765925
  0
LINE
  5
32D
100
AcDbEntity
  8
0
100
AcDbLine
 62
7
  6
CONTINUOUS
 10
-3.265625
 20
23.3047872603
 11
-3.2177082419
 21
23.2313829452
  0
LINE
  5
32E
100
AcDbEntity
  8
0
100
AcDbLine
 62
7
  6
CONTINUOUS
 10
0.4958335161
 20
22.5462765925
 11
-0.103125
 21
23.525
  0
LINE
  5
32F
100
AcDbEntity
  8
0
100
AcDbLine
 62
7
  6
CONTINUOUS
 10
-1.112288137
 20
20.4675531849
 11
-1.0677965268
 21
20.3941489384
  0
LINE
  5
330
100
AcDbEntity
  8
0
100
AcDbLine
 62
7
  6
CONTINUOUS
 10
0.4004235571
 20
20.9324467808
 11
0.3559322014
 21
21.0058510959
  0
LINE
  5
331
100
AcDbEntity
  8
0
100
AcDbLine
 62
7
  6
CONTINUOUS
 10
1.7351693193
 20
20.4675531849
 11
1.7796611842
 21
20.3941489384
  0
LINE
  5
332
100
AcDbEntity
  8
0
100
AcDbLine
 62
7
  6
CONTINUOUS
 10
3.2478815227
 20
20.9324467808
 11
3.2033896578
 21
21.0058510959
  0
LINE
  5
333
100
AcDbEntity
  8
0
100
AcDbLine
 62
7
  6
CONTINUOUS
 10
-0.175
 20
23.3781915069
 11
0.4239585161
 21
22.375
  0
LINE
  5
334
100
AcDbEntity
  8
ASSI
100
AcDbLine
 62
7
  6
CONTINUOUS
 10
3.754212
 20
16.7266575
 11
3.879336
 21
16.5037265
  0
LINE
  5
335
100
AcDbEntity
  8
0
100
AcDbLine
 62
7
  6
CONTINUOUS
 10
4.434911
 20
25.95529
 11
4.9560355
 21
24.9499415
  0
LINE
  5
336
100
AcDbEntity
  8
0
100
AcDbLine
 62
7
  6
CONTINUOUS
 10
1.6906779637
 20
20.5898936301
 11
1.7351693193
 21
20.4675531849
  0
LINE
  5
337
100
AcDbEntity
  8
0
100
AcDbLine
 62
7
  6
CONTINUOUS
 10
3.2923728784
 20
20.8101063699
 11
3.2478815227
 21
20.9324467808
  0
LINE
  5
338
100
AcDbEntity
  8
0
100
AcDbLine
 62
7
  6
CONTINUOUS
 10
4.3770829678
 20
22.375
 11
3.99375
 21
23.525
  0
LINE
  5
339
100
AcDbEntity
  8
0
100
AcDbLine
 62
7
  6
CONTINUOUS
 10
4.1375
 20
22.6686170205
 11
4.2333329678
 21
22.375
  0
LINE
  5
33A
100
AcDbEntity
  8
0
100
AcDbLine
 62
7
  6
CONTINUOUS
 10
3.8979170322
 20
23.4271276712
 11
4.1135420322
 21
22.7664893493
  0
LINE
  5
33B
100
AcDbEntity
  8
0
100
AcDbLine
 62
7
  6
CONTINUOUS
 10
2.4300965
 20
25.4612705
 11
2.5942605
 21
24.9499415
  0
LINE
  5
33C
100
AcDbEntity
  8
0
100
AcDbLine
 62
7
  6
CONTINUOUS
 10
2.019446
 20
26.740256
 11
2.2714705
 21
25.95529
  0
LINE
  5
33D
100
AcDbEntity
  8
0
100
AcDbLine
 62
7
  6
CONTINUOUS
 10
3.1142865
 20
24.949935
 11
2.279472
 21
27.5500585
  0
LINE
  5
33E
100
AcDbEntity
  8
0
100
AcDbLine
 62
7
  6
CONTINUOUS
 10
3.0254237259
 20
20.9324467808
 11
3.0699150816
 21
20.7856382877
  0
LINE
  5
33F
100
AcDbEntity
  8
0
100
AcDbLine
 62
7
  6
CONTINUOUS
 10
4.894067793
 20
20.3207446747
 11
4.716101352
 21
20.2718085103
  0
LINE
  5
340
100
AcDbEntity
  8
0
100
AcDbLine
 62
7
  6
CONTINUOUS
 10
4.894067793
 20
20.7122340411
 11
4.9830505044
 21
20.7367021233
  0
LINE
  5
341
100
AcDbEntity
  8
0
100
AcDbLine
 62
7
  6
CONTINUOUS
 10
4.0042376243
 20
20.5898936301
 11
4.1822030471
 21
20.6388297945
  0
LINE
  5
342
100
AcDbEntity
  8
0
100
AcDbLine
 62
7
  6
CONTINUOUS
 10
4.0042376243
 20
20.7122340411
 11
3.9152538946
 21
20.6877659589
  0
LINE
  5
343
100
AcDbEntity
  8
0
100
AcDbLine
 62
7
  6
CONTINUOUS
 10
-3.96
 20
17.237605
 11
-3.851666584
 21
17.2652645736
  0
LINE
  5
344
100
AcDbEntity
  8
0
100
AcDbLine
 62
7
  6
CONTINUOUS
 10
-4.848333292
 20
17.4035624464
 11
-4.956666708
 21
17.3759028752
  0
LINE
  5
345
100
AcDbEntity
  8
0
100
AcDbLine
 62
7
  6
CONTINUOUS
 10
-5.065
 20
18.371647573
 11
-4.956666708
 21
18.3993071441
  0
LINE
  5
346
100
AcDbEntity
  8
0
100
AcDbLine
 62
7
  6
CONTINUOUS
 10
-6.0616666615
 20
18.371647573
 11
-5.953333323
 21
18.3993071441
  0
LINE
  5
347
100
AcDbEntity
  8
0
100
AcDbLine
 62
7
  6
CONTINUOUS
 10
-3.3375
 20
22.5462765925
 11
-3.4333332419
 21
22.5218085103
  0
LINE
  5
348
100
AcDbEntity
  8
0
100
AcDbLine
 62
7
  6
CONTINUOUS
 10
-4.956666708
 20
17.237605
 11
-4.826666708
 21
17.2652645736
  0
LINE
  5
349
100
AcDbEntity
  8
0
100
AcDbLine
 62
7
  6
CONTINUOUS
 10
-4.956666708
 20
18.537605
 11
-5.086666708
 21
18.5099454288
  0
LINE
  5
34A
100
AcDbEntity
  8
0
100
AcDbLine
 62
7
  6
CONTINUOUS
 10
-3.4333332419
 20
22.375
 11
-3.3135417581
 21
22.3994680843
  0
LINE
  5
34B
100
AcDbEntity
  8
0
100
AcDbLine
 62
7
  6
CONTINUOUS
 10
-5.931666677
 20
18.537605
 11
-6.0833333385
 21
18.5099454288
  0
LINE
  5
34C
100
AcDbEntity
  8
0
100
AcDbLine
 62
7
  6
CONTINUOUS
 10
4.716101352
 20
20.2718085103
 11
4.5381359292
 21
20.2473404281
  0
LINE
  5
34D
100
AcDbEntity
  8
0
100
AcDbLine
 62
7
  6
CONTINUOUS
 10
4.1822030471
 20
20.6388297945
 11
4.3601694881
 21
20.6632978767
  0
LINE
  5
34E
100
AcDbEntity
  8
0
100
AcDbLine
 62
7
  6
CONTINUOUS
 10
4.716101352
 20
20.7856382877
 11
4.5381359292
 21
20.7611702055
  0
LINE
  5
34F
100
AcDbEntity
  8
0
100
AcDbLine
 62
7
  6
CONTINUOUS
 10
4.1822030471
 20
21.1281915069
 11
4.3601694881
 21
21.1526595891
  0
LINE
  5
350
100
AcDbEntity
  8
0
100
AcDbLine
 62
7
  6
CONTINUOUS
 10
4.5826267757
 20
20.125
 11
4.8050850817
 21
20.1494680843
  0
LINE
  5
351
100
AcDbEntity
  8
0
100
AcDbLine
 62
7
  6
CONTINUOUS
 10
2.7139832178
 20
20.2718085103
 11
2.491525421
 21
20.2473404281
  0
LINE
  5
352
100
AcDbEntity
  8
0
100
AcDbLine
 62
7
  6
CONTINUOUS
 10
-0.1334747478
 20
20.2718085103
 11
-0.3559320354
 21
20.2473404281
  0
LINE
  5
353
100
AcDbEntity
  8
0
100
AcDbLine
 62
7
  6
CONTINUOUS
 10
4.3601694881
 20
21.275
 11
4.1377122006
 21
21.2505319178
  0
LINE
  5
354
100
AcDbEntity
  8
0
100
AcDbLine
 62
7
  6
CONTINUOUS
 10
2.2690676242
 20
21.1281915069
 11
2.491525421
 21
21.1526595891
  0
LINE
  5
355
100
AcDbEntity
  8
0
100
AcDbLine
 62
7
  6
CONTINUOUS
 10
-0.5783898322
 20
21.1281915069
 11
-0.3559320354
 21
21.1526595891
  0
LINE
  5
356
100
AcDbEntity
  8
0
100
AcDbLine
 62
7
  6
CONTINUOUS
 10
2.491525421
 20
20.125
 11
2.7584745735
 21
20.1494680843
  0
LINE
  5
357
100
AcDbEntity
  8
0
100
AcDbLine
 62
7
  6
CONTINUOUS
 10
-0.3559320354
 20
20.125
 11
-0.0889828829
 21
20.1494680843
  0
LINE
  5
358
100
AcDbEntity
  8
0
100
AcDbLine
 62
7
  6
CONTINUOUS
 10
2.491525421
 20
21.275
 11
2.2245762686
 21
21.2505319178
  0
LINE
  5
359
100
AcDbEntity
  8
0
100
AcDbLine
 62
7
  6
CONTINUOUS
 10
-0.3559320354
 20
21.275
 11
-0.6228811878
 21
21.2505319178
  0
LINE
  5
35A
100
AcDbEntity
  8
ASSI
100
AcDbLine
 62
7
  6
CONTINUOUS
 10
2.8661195
 20
16.3814855
 11
3.637394
 21
16.3814855
  0
LINE
  5
35B
100
AcDbEntity
  8
ASSI
100
AcDbLine
 62
7
  6
CONTINUOUS
 10
3.637394
 20
16.65331
 11
3.396593
 21
16.65331
  0
LINE
  5
35C
100
AcDbEntity
  8
ASSI
100
AcDbLine
 62
7
  6
CONTINUOUS
 10
3.1070145
 20
16.65331
 11
2.8661195
 21
16.65331
  0
LINE
  5
35D
100
AcDbEntity
  8
0
100
AcDbLine
 62
7
  6
CONTINUOUS
 10
-6.3
 20
17.237605
 11
-5.52
 21
17.237605
  0
LINE
  5
35E
100
AcDbEntity
  8
0
100
AcDbLine
 62
7
  6
CONTINUOUS
 10
-4.046666584
 20
17.237605
 11
-3.96
 21
17.237605
  0
LINE
  5
35F
100
AcDbEntity
  8
0
100
AcDbLine
 62
7
  6
CONTINUOUS
 10
-2.46241
 20
17.237605
 11
-2.2901635
 21
17.237605
  0
LINE
  5
360
100
AcDbEntity
  8
0
100
AcDbLine
 62
7
  6
CONTINUOUS
 10
-1.9776765
 20
17.237605
 11
-1.8054775
 21
17.237605
  0
LINE
  5
361
100
AcDbEntity
  8
0
100
AcDbLine
 62
7
  6
CONTINUOUS
 10
-0.356675
 20
17.237605
 11
-0.2004315
 21
17.237605
  0
LINE
  5
362
100
AcDbEntity
  8
0
100
AcDbLine
 62
7
  6
CONTINUOUS
 10
-5.52
 20
17.3759028752
 11
-6.1266666615
 21
17.3759028752
  0
LINE
  5
363
100
AcDbEntity
  8
0
100
AcDbLine
 62
7
  6
CONTINUOUS
 10
-3.96
 20
17.4035624464
 11
-4.046666584
 21
17.4035624464
  0
LINE
  5
364
100
AcDbEntity
  8
0
100
AcDbLine
 62
7
  6
CONTINUOUS
 10
-0.9017275
 20
17.5412285
 11
-0.356675
 21
17.5412285
  0
LINE
  5
365
100
AcDbEntity
  8
0
100
AcDbLine
 62
7
  6
CONTINUOUS
 10
-0.2004315
 20
17.5412285
 11
-0.017532
 21
17.5412285
  0
LINE
  5
366
100
AcDbEntity
  8
0
100
AcDbLine
 62
7
  6
CONTINUOUS
 10
-0.017532
 20
17.676152
 11
-0.2004315
 21
17.676152
  0
LINE
  5
367
100
AcDbEntity
  8
0
100
AcDbLine
 62
7
  6
CONTINUOUS
 10
-0.356675
 20
17.676152
 11
-0.7579365
 21
17.676152
  0
LINE
  5
368
100
AcDbEntity
  8
0
100
AcDbLine
 62
7
  6
CONTINUOUS
 10
-4.263333292
 20
17.6801581775
 11
-4.393333292
 21
17.6801581775
  0
LINE
  5
369
100
AcDbEntity
  8
0
100
AcDbLine
 62
7
  6
CONTINUOUS
 10
-1.8054775
 20
17.7755935
 11
-1.4046178602
 21
17.7755935
  0
LINE
  5
36A
100
AcDbEntity
  8
0
100
AcDbLine
 62
7
  6
CONTINUOUS
 10
-1.4447978495
 20
17.9229405
 11
-1.8054775
 21
17.9229405
  0
LINE
  5
36B
100
AcDbEntity
  8
0
100
AcDbLine
 62
7
  6
CONTINUOUS
 10
-6.2783333327
 20
18.2333497171
 11
-6.17
 21
18.2333497171
  0
LINE
  5
36C
100
AcDbEntity
  8
0
100
AcDbLine
 62
7
  6
CONTINUOUS
 10
-1.8054775
 20
18.365048
 11
-1.444795029
 21
18.365048
  0
LINE
  5
36D
100
AcDbEntity
  8
0
100
AcDbLine
 62
7
  6
CONTINUOUS
 10
-5.953333323
 20
18.3993071441
 11
-5.866666677
 21
18.3993071441
  0
LINE
  5
36E
100
AcDbEntity
  8
0
100
AcDbLine
 62
7
  6
CONTINUOUS
 10
-0.2004315
 20
18.512395
 11
-0.310801
 21
18.512395
  0
LINE
  5
36F
100
AcDbEntity
  8
0
100
AcDbLine
 62
7
  6
CONTINUOUS
 10
-1.404615106
 20
18.512395
 11
-1.9776765
 21
18.512395
  0
LINE
  5
370
100
AcDbEntity
  8
0
100
AcDbLine
 62
7
  6
CONTINUOUS
 10
-2.2901635
 20
18.512395
 11
-2.46241
 21
18.512395
  0
LINE
  5
371
100
AcDbEntity
  8
0
100
AcDbLine
 62
7
  6
CONTINUOUS
 10
-3.613333416
 20
18.537605
 11
-3.743333416
 21
18.537605
  0
LINE
  5
372
100
AcDbEntity
  8
0
100
AcDbLine
 62
7
  6
CONTINUOUS
 10
-5.845
 20
18.537605
 11
-5.931666677
 21
18.537605
  0
LINE
  5
373
100
AcDbEntity
  8
ASSI
100
AcDbLine
 62
7
  6
CONTINUOUS
 10
2.8749965
 20
18.584487
 11
3.1070145
 21
18.584487
  0
LINE
  5
374
100
AcDbEntity
  8
ASSI
100
AcDbLine
 62
7
  6
CONTINUOUS
 10
3.396593
 20
18.584487
 11
3.628517
 21
18.584487
  0
LINE
  5
375
100
AcDbEntity
  8
ASSI
100
AcDbLine
 62
7
  6
CONTINUOUS
 10
3.628517
 20
18.8578065
 11
2.8749965
 21
18.8578065
  0
LINE
  5
376
100
AcDbEntity
  8
0
100
AcDbLine
 62
7
  6
CONTINUOUS
 10
-4.5381355723
 20
20.125
 11
-4.1822033902
 21
20.125
  0
LINE
  5
377
100
AcDbEntity
  8
0
100
AcDbLine
 62
7
  6
CONTINUOUS
 10
-2.6694914415
 20
20.125
 11
-2.402542289
 21
20.125
  0
LINE
  5
378
100
AcDbEntity
  8
0
100
AcDbLine
 62
7
  6
CONTINUOUS
 10
1.0677964382
 20
20.125
 11
1.3347455907
 21
20.125
  0
LINE
  5
379
100
AcDbEntity
  8
0
100
AcDbLine
 62
7
  6
CONTINUOUS
 10
4.3156776233
 20
20.125
 11
4.5826267757
 21
20.125
  0
LINE
  5
37A
100
AcDbEntity
  8
0
100
AcDbLine
 62
7
  6
CONTINUOUS
 10
4.5381359292
 20
20.2473404281
 11
4.3601694881
 21
20.2473404281
  0
LINE
  5
37B
100
AcDbEntity
  8
0
100
AcDbLine
 62
7
  6
CONTINUOUS
 10
4.3601694881
 20
20.6632978767
 11
4.5381359292
 21
20.6632978767
  0
LINE
  5
37C
100
AcDbEntity
  8
0
100
AcDbLine
 62
7
  6
CONTINUOUS
 10
4.5381359292
 20
20.7611702055
 11
4.3601694881
 21
20.7611702055
  0
LINE
  5
37D
100
AcDbEntity
  8
0
100
AcDbLine
 62
7
  6
CONTINUOUS
 10
-3.1144067804
 20
21.1526595891
 11
-1.7796610182
 21
21.1526595891
  0
LINE
  5
37E
100
AcDbEntity
  8
0
100
AcDbLine
 62
7
  6
CONTINUOUS
 10
4.3601694881
 20
21.1526595891
 11
4.5381359292
 21
21.1526595891
  0
LINE
  5
37F
100
AcDbEntity
  8
0
100
AcDbLine
 62
7
  6
CONTINUOUS
 10
4.5381359292
 20
21.275
 11
4.3601694881
 21
21.275
  0
LINE
  5
380
100
AcDbEntity
  8
0
100
AcDbLine
 62
7
  6
CONTINUOUS
 10
1.3347455907
 20
21.275
 11
1.0677964382
 21
21.275
  0
LINE
  5
381
100
AcDbEntity
  8
0
100
AcDbLine
 62
7
  6
CONTINUOUS
 10
-1.5127118657
 20
21.275
 11
-3.1144067804
 21
21.275
  0
LINE
  5
382
100
AcDbEntity
  8
0
100
AcDbLine
 62
7
  6
CONTINUOUS
 10
-3.4703390261
 20
21.275
 11
-3.7372881786
 21
21.275
  0
LINE
  5
383
100
AcDbEntity
  8
0
100
AcDbLine
 62
7
  6
CONTINUOUS
 10
-4.9830508476
 20
21.275
 11
-5.25
 21
21.275
  0
LINE
  5
384
100
AcDbEntity
  8
0
100
AcDbLine
 62
7
  6
CONTINUOUS
 10
-6.5
 20
22.375
 11
-6.35625
 21
22.375
  0
LINE
  5
385
100
AcDbEntity
  8
0
100
AcDbLine
 62
7
  6
CONTINUOUS
 10
-6.0208333448
 20
22.375
 11
-5.8291666895
 21
22.375
  0
LINE
  5
386
100
AcDbEntity
  8
0
100
AcDbLine
 62
7
  6
CONTINUOUS
 10
-5.158333379
 20
22.375
 11
-5.014583379
 21
22.375
  0
LINE
  5
387
100
AcDbEntity
  8
0
100
AcDbLine
 62
7
  6
CONTINUOUS
 10
-5.49375
 20
22.375
 11
-5.35
 21
22.375
  0
LINE
  5
388
100
AcDbEntity
  8
0
100
AcDbLine
 62
7
  6
CONTINUOUS
 10
-4.0083332419
 20
22.375
 11
-3.4333332419
 21
22.375
  0
LINE
  5
389
100
AcDbEntity
  8
0
100
AcDbLine
 62
7
  6
CONTINUOUS
 10
-4.34375
 20
22.375
 11
-4.2
 21
22.375
  0
LINE
  5
38A
100
AcDbEntity
  8
0
100
AcDbLine
 62
7
  6
CONTINUOUS
 10
-2.8583332419
 20
22.375
 11
-1.9958332419
 21
22.375
  0
LINE
  5
38B
100
AcDbEntity
  8
0
100
AcDbLine
 62
7
  6
CONTINUOUS
 10
-0.6541664839
 20
22.375
 11
-0.5104164839
 21
22.375
  0
LINE
  5
38C
100
AcDbEntity
  8
0
100
AcDbLine
 62
7
  6
CONTINUOUS
 10
0.4239585161
 20
22.375
 11
0.6395835161
 21
22.375
  0
LINE
  5
38D
100
AcDbEntity
  8
0
100
AcDbLine
 62
7
  6
CONTINUOUS
 10
-0.31875
 20
22.375
 11
-0.175
 21
22.375
  0
LINE
  5
38E
100
AcDbEntity
  8
0
100
AcDbLine
 62
7
  6
CONTINUOUS
 10
1.98125
 20
22.375
 11
2.125
 21
22.375
  0
LINE
  5
38F
100
AcDbEntity
  8
0
100
AcDbLine
 62
7
  6
CONTINUOUS
 10
2.7
 20
22.375
 11
2.84375
 21
22.375
  0
LINE
  5
390
100
AcDbEntity
  8
0
100
AcDbLine
 62
7
  6
CONTINUOUS
 10
3.41875
 20
22.375
 11
3.5625
 21
22.375
  0
LINE
  5
391
100
AcDbEntity
  8
0
100
AcDbLine
 62
7
  6
CONTINUOUS
 10
4.2333329678
 20
22.375
 11
4.3770829678
 21
22.375
  0
LINE
  5
392
100
AcDbEntity
  8
0
100
AcDbLine
 62
7
  6
CONTINUOUS
 10
4.56875
 20
22.375
 11
5.43125
 21
22.375
  0
LINE
  5
393
100
AcDbEntity
  8
0
100
AcDbLine
 62
7
  6
CONTINUOUS
 10
6.00625
 20
22.375
 11
6.15
 21
22.375
  0
LINE
  5
394
100
AcDbEntity
  8
0
100
AcDbLine
 62
7
  6
CONTINUOUS
 10
5.43125
 20
22.5218085103
 11
4.7125
 21
22.5218085103
  0
LINE
  5
395
100
AcDbEntity
  8
0
100
AcDbLine
 62
7
  6
CONTINUOUS
 10
-1.9958332419
 20
22.5218085103
 11
-2.7145832419
 21
22.5218085103
  0
LINE
  5
396
100
AcDbEntity
  8
0
100
AcDbLine
 62
7
  6
CONTINUOUS
 10
-3.4333332419
 20
22.5218085103
 11
-3.8645832419
 21
22.5218085103
  0
LINE
  5
397
100
AcDbEntity
  8
0
100
AcDbLine
 62
7
  6
CONTINUOUS
 10
-4.91875
 20
22.6686170205
 11
-4.439583379
 21
22.6686170205
  0
LINE
  5
398
100
AcDbEntity
  8
0
100
AcDbLine
 62
7
  6
CONTINUOUS
 10
3.6583329678
 20
22.6686170205
 11
4.1375
 21
22.6686170205
  0
LINE
  5
399
100
AcDbEntity
  8
0
100
AcDbLine
 62
7
  6
CONTINUOUS
 10
4.1135420322
 20
22.7664893493
 11
3.6822920322
 21
22.7664893493
  0
LINE
  5
39A
100
AcDbEntity
  8
0
100
AcDbLine
 62
7
  6
CONTINUOUS
 10
-4.463541621
 20
22.7664893493
 11
-4.894791621
 21
22.7664893493
  0
LINE
  5
39B
100
AcDbEntity
  8
0
100
AcDbLine
 62
7
  6
CONTINUOUS
 10
-2.7145832419
 20
22.9132978767
 11
-2.0916667581
 21
22.9132978767
  0
LINE
  5
39C
100
AcDbEntity
  8
0
100
AcDbLine
 62
7
  6
CONTINUOUS
 10
-2.0916667581
 20
23.0601063699
 11
-2.7145832419
 21
23.0601063699
  0
LINE
  5
39D
100
AcDbEntity
  8
0
100
AcDbLine
 62
7
  6
CONTINUOUS
 10
-3.8645832419
 20
23.3781915069
 11
-3.4333332419
 21
23.3781915069
  0
LINE
  5
39E
100
AcDbEntity
  8
0
100
AcDbLine
 62
7
  6
CONTINUOUS
 10
-2.7145832419
 20
23.3781915069
 11
-1.9958332419
 21
23.3781915069
  0
LINE
  5
39F
100
AcDbEntity
  8
0
100
AcDbLine
 62
7
  6
CONTINUOUS
 10
2.3166664839
 20
23.4026595891
 11
2.7
 21
23.4026595891
  0
LINE
  5
3A0
100
AcDbEntity
  8
0
100
AcDbLine
 62
7
  6
CONTINUOUS
 10
2.84375
 20
23.4026595891
 11
3.2270829678
 21
23.4026595891
  0
LINE
  5
3A1
100
AcDbEntity
  8
0
100
AcDbLine
 62
7
  6
CONTINUOUS
 10
6.5333329678
 20
23.525
 11
6.3895829678
 21
23.525
  0
LINE
  5
3A2
100
AcDbEntity
  8
0
100
AcDbLine
 62
7
  6
CONTINUOUS
 10
5.7666670322
 20
23.525
 11
5.6229170322
 21
23.525
  0
LINE
  5
3A3
100
AcDbEntity
  8
0
100
AcDbLine
 62
7
  6
CONTINUOUS
 10
4.7125
 20
23.525
 11
4.56875
 21
23.525
  0
LINE
  5
3A4
100
AcDbEntity
  8
0
100
AcDbLine
 62
7
  6
CONTINUOUS
 10
3.99375
 20
23.525
 11
3.8020829678
 21
23.525
  0
LINE
  5
3A5
100
AcDbEntity
  8
0
100
AcDbLine
 62
7
  6
CONTINUOUS
 10
3.2270829678
 20
23.525
 11
2.3166664839
 21
23.525
  0
LINE
  5
3A6
100
AcDbEntity
  8
0
100
AcDbLine
 62
7
  6
CONTINUOUS
 10
2.125
 20
23.525
 11
1.98125
 21
23.525
  0
LINE
  5
3A7
100
AcDbEntity
  8
0
100
AcDbLine
 62
7
  6
CONTINUOUS
 10
0.6395835161
 20
23.525
 11
0.4958335161
 21
23.525
  0
LINE
  5
3A8
100
AcDbEntity
  8
0
100
AcDbLine
 62
7
  6
CONTINUOUS
 10
-0.103125
 20
23.525
 11
-0.31875
 21
23.525
  0
LINE
  5
3A9
100
AcDbEntity
  8
0
100
AcDbLine
 62
7
  6
CONTINUOUS
 10
-0.5104164839
 20
23.525
 11
-0.6541664839
 21
23.525
  0
LINE
  5
3AA
100
AcDbEntity
  8
0
100
AcDbLine
 62
7
  6
CONTINUOUS
 10
-1.9958332419
 20
23.525
 11
-2.8583332419
 21
23.525
  0
LINE
  5
3AB
100
AcDbEntity
  8
0
100
AcDbLine
 62
7
  6
CONTINUOUS
 10
-3.4333332419
 20
23.525
 11
-4.0083332419
 21
23.525
  0
LINE
  5
3AC
100
AcDbEntity
  8
0
100
AcDbLine
 62
7
  6
CONTINUOUS
 10
-4.583333379
 20
23.525
 11
-4.775
 21
23.525
  0
LINE
  5
3AD
100
AcDbEntity
  8
0
100
AcDbLine
 62
7
  6
CONTINUOUS
 10
-5.35
 20
23.525
 11
-5.565625
 21
23.525
  0
LINE
  5
3AE
100
AcDbEntity
  8
0
100
AcDbLine
 62
7
  6
CONTINUOUS
 10
-6.284375
 20
23.525
 11
-6.5
 21
23.525
  0
LINE
  5
3AF
100
AcDbEntity
  8
0
100
AcDbLine
 62
7
  6
CONTINUOUS
 10
-0.6228811878
 20
20.1494680843
 11
-0.3559320354
 21
20.125
  0
LINE
  5
3B0
100
AcDbEntity
  8
0
100
AcDbLine
 62
7
  6
CONTINUOUS
 10
2.2245762686
 20
20.1494680843
 11
2.491525421
 21
20.125
  0
LINE
  5
3B1
100
AcDbEntity
  8
0
100
AcDbLine
 62
7
  6
CONTINUOUS
 10
-0.0889828829
 20
21.2505319178
 11
-0.3559320354
 21
21.275
  0
LINE
  5
3B2
100
AcDbEntity
  8
0
100
AcDbLine
 62
7
  6
CONTINUOUS
 10
2.7584745735
 20
21.2505319178
 11
2.491525421
 21
21.275
  0
LINE
  5
3B3
100
AcDbEntity
  8
0
100
AcDbLine
 62
7
  6
CONTINUOUS
 10
-0.3559320354
 20
20.2473404281
 11
-0.5783898322
 21
20.2718085103
  0
LINE
  5
3B4
100
AcDbEntity
  8
0
100
AcDbLine
 62
7
  6
CONTINUOUS
 10
2.491525421
 20
20.2473404281
 11
2.2690676242
 21
20.2718085103
  0
LINE
  5
3B5
100
AcDbEntity
  8
0
100
AcDbLine
 62
7
  6
CONTINUOUS
 10
4.0932203357
 20
20.1494680843
 11
4.3156776233
 21
20.125
  0
LINE
  5
3B6
100
AcDbEntity
  8
0
100
AcDbLine
 62
7
  6
CONTINUOUS
 10
-0.3559320354
 20
21.1526595891
 11
-0.1334747478
 21
21.1281915069
  0
LINE
  5
3B7
100
AcDbEntity
  8
0
100
AcDbLine
 62
7
  6
CONTINUOUS
 10
2.491525421
 20
21.1526595891
 11
2.7139832178
 21
21.1281915069
  0
LINE
  5
3B8
100
AcDbEntity
  8
0
100
AcDbLine
 62
7
  6
CONTINUOUS
 10
4.7605932168
 20
21.2505319178
 11
4.5381359292
 21
21.275
  0
LINE
  5
3B9
100
AcDbEntity
  8
0
100
AcDbLine
 62
7
  6
CONTINUOUS
 10
4.3601694881
 20
20.2473404281
 11
4.1822030471
 21
20.2718085103
  0
LINE
  5
3BA
100
AcDbEntity
  8
0
100
AcDbLine
 62
7
  6
CONTINUOUS
 10
4.5381359292
 20
20.6632978767
 11
4.716101352
 21
20.6388297945
  0
LINE
  5
3BB
100
AcDbEntity
  8
0
100
AcDbLine
 62
7
  6
CONTINUOUS
 10
4.3601694881
 20
20.7611702055
 11
4.1822030471
 21
20.7856382877
  0
LINE
  5
3BC
100
AcDbEntity
  8
0
100
AcDbLine
 62
7
  6
CONTINUOUS
 10
4.5381359292
 20
21.1526595891
 11
4.716101352
 21
21.1281915069
  0
LINE
  5
3BD
100
AcDbEntity
  8
0
100
AcDbLine
 62
7
  6
CONTINUOUS
 10
-3.3135417581
 20
23.5005319178
 11
-3.4333332419
 21
23.525
  0
LINE
  5
3BE
100
AcDbEntity
  8
0
100
AcDbLine
 62
7
  6
CONTINUOUS
 10
-5.715
 20
18.5099454288
 11
-5.845
 21
18.537605
  0
LINE
  5
3BF
100
AcDbEntity
  8
0
100
AcDbLine
 62
7
  6
CONTINUOUS
 10
-4.826666708
 20
18.5099454288
 11
-4.956666708
 21
18.537605
  0
LINE
  5
3C0
100
AcDbEntity
  8
0
100
AcDbLine
 62
7
  6
CONTINUOUS
 10
-5.866666677
 20
18.3993071441
 11
-5.758333354
 21
18.371647573
  0
LINE
  5
3C1
100
AcDbEntity
  8
0
100
AcDbLine
 62
7
  6
CONTINUOUS
 10
-4.956666708
 20
18.3993071441
 11
-4.848333292
 21
18.371647573
  0
LINE
  5
3C2
100
AcDbEntity
  8
0
100
AcDbLine
 62
7
  6
CONTINUOUS
 10
-3.4333332419
 20
23.3781915069
 11
-3.3375
 21
23.3537234247
  0
LINE
  5
3C3
100
AcDbEntity
  8
0
100
AcDbLine
 62
7
  6
CONTINUOUS
 10
4.1822030471
 20
20.2718085103
 11
4.0042376243
 21
20.3207446747
  0
LINE
  5
3C4
100
AcDbEntity
  8
0
100
AcDbLine
 62
7
  6
CONTINUOUS
 10
3.9152538946
 20
20.7367021233
 11
4.0042376243
 21
20.7122340411
  0
LINE
  5
3C5
100
AcDbEntity
  8
0
100
AcDbLine
 62
7
  6
CONTINUOUS
 10
4.716101352
 20
20.6388297945
 11
4.894067793
 21
20.5898936301
  0
LINE
  5
3C6
100
AcDbEntity
  8
0
100
AcDbLine
 62
7
  6
CONTINUOUS
 10
4.9830505044
 20
20.6877659589
 11
4.894067793
 21
20.7122340411
  0
LINE
  5
3C7
100
AcDbEntity
  8
0
100
AcDbLine
 62
7
  6
CONTINUOUS
 10
-0.8453389846
 20
20.2228723373
 11
-0.6228811878
 21
20.1494680843
  0
LINE
  5
3C8
100
AcDbEntity
  8
0
100
AcDbLine
 62
7
  6
CONTINUOUS
 10
2.0021184718
 20
20.2228723373
 11
2.2245762686
 21
20.1494680843
  0
LINE
  5
3C9
100
AcDbEntity
  8
0
100
AcDbLine
 62
7
  6
CONTINUOUS
 10
0.1334744047
 20
21.1771276712
 11
-0.0889828829
 21
21.2505319178
  0
LINE
  5
3CA
100
AcDbEntity
  8
0
100
AcDbLine
 62
7
  6
CONTINUOUS
 10
3.8707630481
 20
20.2228723373
 11
4.0932203357
 21
20.1494680843
  0
LINE
  5
3CB
100
AcDbEntity
  8
0
100
AcDbLine
 62
7
  6
CONTINUOUS
 10
2.9809323702
 20
21.1771276712
 11
2.7584745735
 21
21.2505319178
  0
LINE
  5
3CC
100
AcDbEntity
  8
0
100
AcDbLine
 62
7
  6
CONTINUOUS
 10
4.9830505044
 20
21.1771276712
 11
4.7605932168
 21
21.2505319178
  0
LINE
  5
3CD
100
AcDbEntity
  8
0
100
AcDbLine
 62
7
  6
CONTINUOUS
 10
-0.5783898322
 20
20.2718085103
 11
-0.7118644084
 21
20.3207446747
  0
LINE
  5
3CE
100
AcDbEntity
  8
0
100
AcDbLine
 62
7
  6
CONTINUOUS
 10
-0.1334747478
 20
21.1281915069
 11
-0.0000001716
 21
21.0792553425
  0
LINE
  5
3CF
100
AcDbEntity
  8
0
100
AcDbLine
 62
7
  6
CONTINUOUS
 10
2.2690676242
 20
20.2718085103
 11
2.135593048
 21
20.3207446747
  0
LINE
  5
3D0
100
AcDbEntity
  8
0
100
AcDbLine
 62
7
  6
CONTINUOUS
 10
2.7139832178
 20
21.1281915069
 11
2.847457794
 21
21.0792553425
  0
LINE
  5
3D1
100
AcDbEntity
  8
0
100
AcDbLine
 62
7
  6
CONTINUOUS
 10
4.1822030471
 20
20.7856382877
 11
4.0042376243
 21
20.8590425342
  0
LINE
  5
3D2
100
AcDbEntity
  8
0
100
AcDbLine
 62
7
  6
CONTINUOUS
 10
5.1610169455
 20
20.6143617123
 11
4.9830505044
 21
20.6877659589
  0
LINE
  5
3D3
100
AcDbEntity
  8
0
100
AcDbLine
 62
7
  6
CONTINUOUS
 10
4.716101352
 20
21.1281915069
 11
4.894067793
 21
21.0547872603
  0
LINE
  5
3D4
100
AcDbEntity
  8
0
100
AcDbLine
 62
7
  6
CONTINUOUS
 10
-3.2177082419
 20
23.4515957534
 11
-3.3135417581
 21
23.5005319178
  0
LINE
  5
3D5
100
AcDbEntity
  8
0
100
AcDbLine
 62
7
  6
CONTINUOUS
 10
-0.9788135608
 20
20.2962765925
 11
-0.8453389846
 21
20.2228723373
  0
LINE
  5
3D6
100
AcDbEntity
  8
0
100
AcDbLine
 62
7
  6
CONTINUOUS
 10
0.2669489809
 20
21.1037234247
 11
0.1334744047
 21
21.1771276712
  0
LINE
  5
3D7
100
AcDbEntity
  8
0
100
AcDbLine
 62
7
  6
CONTINUOUS
 10
1.8686438956
 20
20.2962765925
 11
2.0021184718
 21
20.2228723373
  0
LINE
  5
3D8
100
AcDbEntity
  8
0
100
AcDbLine
 62
7
  6
CONTINUOUS
 10
3.7372884719
 20
20.2962765925
 11
3.8707630481
 21
20.2228723373
  0
LINE
  5
3D9
100
AcDbEntity
  8
0
100
AcDbLine
 62
7
  6
CONTINUOUS
 10
3.1144069464
 20
21.1037234247
 11
2.9809323702
 21
21.1771276712
  0
LINE
  5
3DA
100
AcDbEntity
  8
0
100
AcDbLine
 62
7
  6
CONTINUOUS
 10
3.7817793184
 20
20.8101063699
 11
3.9152538946
 21
20.7367021233
  0
LINE
  5
3DB
100
AcDbEntity
  8
0
100
AcDbLine
 62
7
  6
CONTINUOUS
 10
5.1165250806
 20
21.1037234247
 11
4.9830505044
 21
21.1771276712
  0
LINE
  5
3DC
100
AcDbEntity
  8
0
100
AcDbLine
 62
7
  6
CONTINUOUS
 10
-3.3375
 20
23.3537234247
 11
-3.265625
 21
23.3047872603
  0
LINE
  5
3DD
100
AcDbEntity
  8
0
100
AcDbLine
 62
7
  6
CONTINUOUS
 10
4.0042376243
 20
20.3207446747
 11
3.8707630481
 21
20.4186170205
  0
LINE
  5
3DE
100
AcDbEntity
  8
0
100
AcDbLine
 62
7
  6
CONTINUOUS
 10
4.894067793
 20
20.5898936301
 11
5.0275423693
 21
20.4920212671
  0
LINE
  5
3DF
100
AcDbEntity
  8
0
100
AcDbLine
 62
7
  6
CONTINUOUS
 10
-0.0000001716
 20
21.0792553425
 11
0.1779662695
 21
20.9324467808
  0
LINE
  5
3E0
100
AcDbEntity
  8
0
100
AcDbLine
 62
7
  6
CONTINUOUS
 10
2.135593048
 20
20.3207446747
 11
1.9576271161
 21
20.4675531849
  0
LINE
  5
3E1
100
AcDbEntity
  8
0
100
AcDbLine
 62
7
  6
CONTINUOUS
 10
2.847457794
 20
21.0792553425
 11
3.0254237259
 21
20.9324467808
  0
LINE
  5
3E2
100
AcDbEntity
  8
0
100
AcDbLine
 62
7
  6
CONTINUOUS
 10
4.0042376243
 20
20.8590425342
 11
3.9152538946
 21
20.9324467808
  0
LINE
  5
3E3
100
AcDbEntity
  8
0
100
AcDbLine
 62
7
  6
CONTINUOUS
 10
4.894067793
 20
21.0547872603
 11
4.9830505044
 21
20.9813829452
  0
LINE
  5
3E4
100
AcDbEntity
  8
0
100
AcDbLine
 62
7
  6
CONTINUOUS
 10
3.2033896578
 20
21.0058510959
 11
3.1144069464
 21
21.1037234247
  0
LINE
  5
3E5
100
AcDbEntity
  8
0
100
AcDbLine
 62
7
  6
CONTINUOUS
 10
3.692796607
 20
20.9079786986
 11
3.7817793184
 21
20.8101063699
  0
LINE
  5
3E6
100
AcDbEntity
  8
0
100
AcDbLine
 62
7
  6
CONTINUOUS
 10
5.2499996569
 20
20.4920212671
 11
5.1610169455
 21
20.6143617123
  0
LINE
  5
3E7
100
AcDbEntity
  8
0
100
AcDbLine
 62
7
  6
CONTINUOUS
 10
5.2055088103
 20
20.9813829452
 11
5.1165250806
 21
21.1037234247
  0
LINE
  5
3E8
100
AcDbEntity
  8
0
100
AcDbLine
 62
7
  6
CONTINUOUS
 10
5.6229170322
 20
23.525
 11
6.00625
 21
22.9622340411
  0
LINE
  5
3E9
100
AcDbEntity
  8
0
100
AcDbLine
 62
7
  6
CONTINUOUS
 10
6.078125
 20
23.0601063699
 11
5.7666670322
 21
23.525
  0
LINE
  5
3EA
100
AcDbEntity
  8
0
100
AcDbLine
 62
7
  6
CONTINUOUS
 10
5.541757
 20
24.949948
 11
4.9882224652
 21
26.0178284962
  0
LINE
  5
3EB
100
AcDbEntity
  8
0
100
AcDbLine
 62
7
  6
CONTINUOUS
 10
4.9560355
 20
24.9499415
 11
5.541757
 21
24.949948
  0
LINE
  5
3EC
100
AcDbEntity
  8
0
100
AcDbLine
 62
7
  6
CONTINUOUS
 10
0.924625
 20
24.949935
 11
1.4446445
 21
24.9499415
  0
LINE
  5
3ED
100
AcDbEntity
  8
0
100
AcDbLine
 62
7
  6
CONTINUOUS
 10
-1.9653985
 20
24.949935
 11
-1.445379
 21
24.949935
  0
LINE
  5
3EE
100
AcDbEntity
  8
0
100
AcDbLine
 62
7
  6
CONTINUOUS
 10
0.057928
 20
24.949935
 11
0.5779475
 21
24.949935
  0
LINE
  5
3EF
100
AcDbEntity
  8
0
100
AcDbLine
 62
7
  6
CONTINUOUS
 10
3.460964
 20
24.9499415
 11
3.98099
 21
24.9499415
  0
LINE
  5
3F0
100
AcDbEntity
  8
0
100
AcDbLine
 62
7
  6
CONTINUOUS
 10
-0.953732
 20
24.949935
 11
-0.4337255
 21
24.9499415
  0
LINE
  5
3F1
100
AcDbEntity
  8
0
100
AcDbLine
 62
7
  6
CONTINUOUS
 10
-3.0054245
 20
24.9499285
 11
-2.485405
 21
24.949935
  0
LINE
  5
3F2
100
AcDbEntity
  8
0
100
AcDbLine
 62
7
  6
CONTINUOUS
 10
2.5942605
 20
24.9499415
 11
3.1142865
 21
24.949935
  0
LINE
  5
3F3
100
AcDbEntity
  8
0
100
AcDbLine
 62
7
  6
CONTINUOUS
 10
-4.706949
 20
24.9499285
 11
-4.18691
 21
24.949935
  0
LINE
  5
3F4
100
AcDbEntity
  8
0
100
AcDbLine
 62
7
  6
CONTINUOUS
 10
1.608815
 20
25.4612705
 11
2.4300965
 21
25.4612705
  0
LINE
  5
3F5
100
AcDbEntity
  8
0
100
AcDbLine
 62
7
  6
CONTINUOUS
 10
2.2714705
 20
25.95529
 11
1.7674345
 21
25.95529
  0
LINE
  5
3F6
100
AcDbEntity
  8
0
100
AcDbLine
 62
7
  6
CONTINUOUS
 10
3.9810485
 20
25.9552965
 11
4.434911
 21
25.95529
  0
LINE
  5
3F7
100
AcDbEntity
  8
0
100
AcDbLine
 62
7
  6
CONTINUOUS
 10
4.6065175834
 20
26.436316
 11
3.9738205
 21
26.436316
  0
LINE
  5
3F8
100
AcDbEntity
  8
0
100
AcDbLine
 62
7
  6
CONTINUOUS
 10
3.973814
 20
27.069039
 11
4.606496
 21
27.069039
  0
LINE
  5
3F9
100
AcDbEntity
  8
0
100
AcDbLine
 62
7
  6
CONTINUOUS
 10
0.5779475
 20
27.550052
 11
-0.208182
 21
27.550052
  0
LINE
  5
3FA
100
AcDbEntity
  8
0
100
AcDbLine
 62
7
  6
CONTINUOUS
 10
-1.179269
 20
27.550052
 11
-1.9653985
 21
27.550052
  0
LINE
  5
3FB
100
AcDbEntity
  8
0
100
AcDbLine
 62
7
  6
CONTINUOUS
 10
-2.4853985
 20
27.550052
 11
-3.005418
 21
27.550052
  0
LINE
  5
3FC
100
AcDbEntity
  8
0
100
AcDbLine
 62
7
  6
CONTINUOUS
 10
-3.3520955
 20
27.550052
 11
-3.8721215
 21
27.550052
  0
LINE
  5
3FD
100
AcDbEntity
  8
0
100
AcDbLine
 62
7
  6
CONTINUOUS
 10
-5.021731
 20
27.550052
 11
-5.541757
 21
27.550052
  0
LINE
  5
3FE
100
AcDbEntity
  8
0
100
AcDbLine
 62
7
  6
CONTINUOUS
 10
4.6787082313
 20
27.5500585
 11
3.460964
 21
27.5500585
  0
LINE
  5
3FF
100
AcDbEntity
  8
0
100
AcDbLine
 62
7
  6
CONTINUOUS
 10
2.279472
 20
27.5500585
 11
1.7594265
 21
27.5500585
  0
LINE
  5
400
100
AcDbEntity
  8
0
100
AcDbLine
 62
7
  6
CONTINUOUS
 10
6.75
 20
28.375
 11
-6.75
 21
28.375
  0
LINE
  5
401
100
AcDbEntity
  8
0
100
AcDbLine
 62
7
  6
CONTINUOUS
 10
99.0
 20
43.25
 11
-99.0
 21
43.25
  0
LINE
  5
402
100
AcDbEntity
  8
0
100
AcDbLine
 62
7
  6
CONTINUOUS
 10
-99.0
 20
44.75
 11
99.0
 21
44.75
  0
LINE
  5
403
100
AcDbEntity
  8
0
100
AcDbLine
 62
7
  6
CONTINUOUS
 10
102.5
 20
-39.75
 11
102.5
 21
39.75
  0
LINE
  5
404
100
AcDbEntity
  8
0
100
AcDbLine
 62
7
  6
CONTINUOUS
 10
104.0
 20
39.75
 11
104.0
 21
-39.75
  0
ARC
  5
405
100
AcDbEntity
  8
0
100
AcDbCircle
 62
7
  6
CONTINUOUS
 10
-99.0
 20
-39.75
 40
5.0
100
AcDbArc
 50
180.0
 51
270.0
  0
ARC
  5
406
100
AcDbEntity
  8
0
100
AcDbCircle
 62
7
  6
CONTINUOUS
 10
-99.0
 20
-39.75
 40
3.5
100
AcDbArc
 50
180.0
 51
270.0
  0
CIRCLE
  5
407
100
AcDbEntity
  8
RACCORDO
100
AcDbCircle
 62
250
  6
CONTINUOUS
 10
-94.0
 20
-34.75
 40
2.6200874395
  0
CIRCLE
  5
408
100
AcDbEntity
  8
RACCORDO
100
AcDbCircle
 62
250
  6
CONTINUOUS
 10
-94.0
 20
-34.75
 40
1.8748225752
  0
CIRCLE
  5
409
100
AcDbEntity
  8
ASSI
100
AcDbCircle
 62
7
  6
CONTINUOUS
 10
-94.0
 20
-34.75
 40
1.6
  0
ARC
  5
40A
100
AcDbEntity
  8
ASSI
100
AcDbCircle
 62
7
  6
CONTINUOUS
 10
-0.483777
 20
-22.0
 40
1.2749992699
100
AcDbArc
 50
87.7525290943
 51
269.6765260937
  0
ARC
  5
40B
100
AcDbEntity
  8
ASSI
100
AcDbCircle
 62
7
  6
CONTINUOUS
 10
-0.483777
 20
-22.0
 40
0.8999999623
100
AcDbArc
 50
86.8152613297
 51
273.1847386565
  0
CIRCLE
  5
40C
100
AcDbEntity
  8
0
100
AcDbCircle
 62
7
  6
CONTINUOUS
 10
-94.0
 20
-34.75
 40
0.825
  0
ARC
  5
40D
100
AcDbEntity
  8
0
100
AcDbCircle
 62
7
  6
CONTINUOUS
 10
-99.0
 20
39.75
 40
5.0
100
AcDbArc
 50
90.0
 51
180.0
  0
ARC
  5
40E
100
AcDbEntity
  8
0
100
AcDbCircle
 62
7
  6
CONTINUOUS
 10
-99.0
 20
39.75
 40
3.5
100
AcDbArc
 50
90.0
 51
180.0
  0
CIRCLE
  5
40F
100
AcDbEntity
  8
RACCORDO
100
AcDbCircle
 62
250
  6
CONTINUOUS
 10
-94.0
 20
34.75
 40
2.6200874395
  0
CIRCLE
  5
410
100
AcDbEntity
  8
RACCORDO
100
AcDbCircle
 62
250
  6
CONTINUOUS
 10
-94.0
 20
34.75
 40
1.8748225752
  0
CIRCLE
  5
411
100
AcDbEntity
  8
ASSI
100
AcDbCircle
 62
7
  6
CONTINUOUS
 10
-94.0
 20
34.75
 40
1.6
  0
CIRCLE
  5
412
100
AcDbEntity
  8
0
100
AcDbCircle
 62
7
  6
CONTINUOUS
 10
-94.0
 20
34.75
 40
0.825
  0
ARC
  5
413
100
AcDbEntity
  8
0
100
AcDbCircle
 62
7
  6
CONTINUOUS
 10
99.0
 20
-39.75
 40
5.0
100
AcDbArc
 50
270.0
 51
360.0
  0
ARC
  5
414
100
AcDbEntity
  8
0
100
AcDbCircle
 62
7
  6
CONTINUOUS
 10
99.0
 20
-39.75
 40
3.5
100
AcDbArc
 50
270.0
 51
360.0
  0
CIRCLE
  5
415
100
AcDbEntity
  8
RACCORDO
100
AcDbCircle
 62
250
  6
CONTINUOUS
 10
94.0
 20
-34.75
 40
2.6200874395
  0
CIRCLE
  5
416
100
AcDbEntity
  8
RACCORDO
100
AcDbCircle
 62
250
  6
CONTINUOUS
 10
-0.0
 20
-34.75
 40
2.6200874395
  0
CIRCLE
  5
417
100
AcDbEntity
  8
RACCORDO
100
AcDbCircle
 62
250
  6
CONTINUOUS
 10
-0.0
 20
-34.75
 40
1.8748225752
  0
CIRCLE
  5
418
100
AcDbEntity
  8
RACCORDO
100
AcDbCircle
 62
250
  6
CONTINUOUS
 10
94.0
 20
-34.75
 40
1.8748225752
  0
CIRCLE
  5
419
100
AcDbEntity
  8
ASSI
100
AcDbCircle
 62
7
  6
CONTINUOUS
 10
94.0
 20
-34.75
 40
1.6
  0
CIRCLE
  5
41A
100
AcDbEntity
  8
ASSI
100
AcDbCircle
 62
7
  6
CONTINUOUS
 10
-0.0
 20
-34.75
 40
1.6
  0
ARC
  5
41B
100
AcDbEntity
  8
ASSI
100
AcDbCircle
 62
7
  6
CONTINUOUS
 10
1.708778
 20
-22.0
 40
1.2749993288
100
AcDbArc
 50
87.7525290206
 51
269.6765250913
  0
ARC
  5
41C
100
AcDbEntity
  8
ASSI
100
AcDbCircle
 62
7
  6
CONTINUOUS
 10
1.708778
 20
-22.0
 40
0.8999999623
100
AcDbArc
 50
86.8152613297
 51
167.9753000451
  0
ARC
  5
41D
100
AcDbEntity
  8
ASSI
100
AcDbCircle
 62
7
  6
CONTINUOUS
 10
1.708778
 20
-22.0
 40
0.8999984404
100
AcDbArc
 50
192.0247203293
 51
273.1847444079
  0
CIRCLE
  5
41E
100
AcDbEntity
  8
0
100
AcDbCircle
 62
7
  6
CONTINUOUS
 10
94.0
 20
-34.75
 40
0.825
  0
CIRCLE
  5
41F
100
AcDbEntity
  8
0
100
AcDbCircle
 62
7
  6
CONTINUOUS
 10
-0.0
 20
-34.75
 40
0.825
  0
ARC
  5
420
100
AcDbEntity
  8
0
100
AcDbCircle
 62
7
  6
CONTINUOUS
 10
99.0
 20
39.75
 40
5.0
100
AcDbArc
 50
0.0
 51
90.0
  0
ARC
  5
421
100
AcDbEntity
  8
0
100
AcDbCircle
 62
7
  6
CONTINUOUS
 10
99.0
 20
39.75
 40
3.5
100
AcDbArc
 50
0.0
 51
90.0
  0
CIRCLE
  5
422
100
AcDbEntity
  8
RACCORDO
100
AcDbCircle
 62
250
  6
CONTINUOUS
 10
0.0
 20
34.75
 40
2.6200874395
  0
CIRCLE
  5
423
100
AcDbEntity
  8
RACCORDO
100
AcDbCircle
 62
250
  6
CONTINUOUS
 10
94.0
 20
34.75
 40
2.6200874395
  0
CIRCLE
  5
424
100
AcDbEntity
  8
RACCORDO
100
AcDbCircle
 62
250
  6
CONTINUOUS
 10
0.0
 20
34.75
 40
1.8748225752
  0
CIRCLE
  5
425
100
AcDbEntity
  8
RACCORDO
100
AcDbCircle
 62
250
  6
CONTINUOUS
 10
94.0
 20
34.75
 40
1.8748225752
  0
ARC
  5
426
100
AcDbEntity
  8
ASSI
100
AcDbCircle
 62
7
  6
CONTINUOUS
 10
3.25
 20
17.625
 40
1.7116797875
100
AcDbArc
 50
292.0885366959
 51
273.4298397232
  0
CIRCLE
  5
427
100
AcDbEntity
  8
ASSI
100
AcDbCircle
 62
7
  6
CONTINUOUS
 10
0.0
 20
34.75
 40
1.6
  0
CIRCLE
  5
428
100
AcDbEntity
  8
ASSI
100
AcDbCircle
 62
7
  6
CONTINUOUS
 10
94.0
 20
34.75
 40
1.6
  0
ARC
  5
429
100
AcDbEntity
  8
ASSI
100
AcDbCircle
 62
7
  6
CONTINUOUS
 10
3.198229
 20
14.3982635
 40
1.5259312395
100
AcDbArc
 50
47.231270393
 51
84.2011542744
  0
ARC
  5
42A
100
AcDbEntity
  8
ASSI
100
AcDbCircle
 62
7
  6
CONTINUOUS
 10
3.318319
 20
14.64543
 40
1.5076191274
100
AcDbArc
 50
45.4348897783
 51
67.5658710935
  0
CIRCLE
  5
42B
100
AcDbEntity
  8
ASSI
100
AcDbCircle
 62
7
  6
CONTINUOUS
 10
3.25
 20
17.625
 40
1.4376915
  0
ARC
  5
42C
100
AcDbEntity
  8
ASSI
100
AcDbCircle
 62
7
  6
CONTINUOUS
 10
3.25
 20
17.625
 40
1.2858141634
100
AcDbArc
 50
299.3041446576
 51
44.9957783163
  0
ARC
  5
42D
100
AcDbEntity
  8
ASSI
100
AcDbCircle
 62
7
  6
CONTINUOUS
 10
3.25
 20
17.625
 40
1.2858141109
100
AcDbArc
 50
134.9002751525
 51
240.6958553424
  0
ARC
  5
42E
100
AcDbEntity
  8
ASSI
100
AcDbCircle
 62
7
  6
CONTINUOUS
 10
3.25
 20
17.625
 40
1.0301695955
100
AcDbArc
 50
148.0267353487
 51
240.6958433001
  0
ARC
  5
42F
100
AcDbEntity
  8
ASSI
100
AcDbCircle
 62
7
  6
CONTINUOUS
 10
3.25
 20
17.625
 40
1.0301693978
100
AcDbArc
 50
299.3041566999
 51
31.9732630604
  0
CIRCLE
  5
430
100
AcDbEntity
  8
0
100
AcDbCircle
 62
7
  6
CONTINUOUS
 10
94.0
 20
34.75
 40
0.825
  0
CIRCLE
  5
431
100
AcDbEntity
  8
0
100
AcDbCircle
 62
7
  6
CONTINUOUS
 10
0.0
 20
34.75
 40
0.825
  0
ARC
  5
432
100
AcDbEntity
  8
0
100
AcDbCircle
 62
7
  6
CONTINUOUS
 10
4.6786735
 20
26.7526765
 40
0.7973846514
100
AcDbArc
 50
292.8428777896
 51
89.9975043856
  0
ARC
  5
433
100
AcDbEntity
  8
0
100
AcDbCircle
 62
7
  6
CONTINUOUS
 10
4.606496
 20
26.7526765
 40
0.3163625
100
AcDbArc
 50
270.0039089579
 51
90.0
  0
SPLINE
  5
434
100
AcDbEntity
  8
0
100
AcDbSpline
 62
7
  6
CONTINUOUS
 70
0
 71
3
 72
13
 73
9
 74
0
 42
0.0000001
 43
0.0000001
 44
0.0000000001
 40
0.0
 40
0.0
 40
0.0
 40
0.0
 40
0.1090102185
 40
0.2629304048
 40
0.3769949086
 40
0.5319517795
 40
0.9696565853
 40
1.0
 40
1.0
 40
1.0
 40
1.0
 10
-1.444795029
 20
18.3650480208
 30
0.0
 10
-1.4313797868
 20
18.3650480105
 30
0.0
 10
-1.3989816636
 20
18.3632454412
 30
0.0
 10
-1.3533638713
 20
18.3538704267
 30
0.0
 10
-1.3037889733
 20
18.337610696
 30
0.0
 10
-1.2290092191
 20
18.2895510075
 30
0.0
 10
-1.2029046046
 20
18.2051334585
 30
0.0
 10
-1.2035616131
 20
18.1477285396
 30
0.0
 10
-1.2035616131
 20
18.1439943553
 30
0.0
  0
SPLINE
  5
435
100
AcDbEntity
  8
0
100
AcDbSpline
 62
7
  6
CONTINUOUS
 70
0
 71
3
 72
13
 73
9
 74
0
 42
0.0000001
 43
0.0000001
 44
0.0000000001
 40
0.0
 40
0.0
 40
0.0
 40
0.0
 40
0.0303431828
 40
0.4680446448
 40
0.6230003319
 40
0.7370639642
 40
0.8909829747
 40
1.0
 40
1.0
 40
1.0
 40
1.0
 10
-1.2035616131
 20
18.1439943553
 30
0.0
 10
-1.2035616131
 20
18.1402601709
 30
0.0
 10
-1.2029046046
 20
18.0828552521
 30
0.0
 10
-1.2290092191
 20
17.998437703
 30
0.0
 10
-1.3037889733
 20
17.9503780145
 30
0.0
 10
-1.3533638713
 20
17.9341182838
 30
0.0
 10
-1.3989825881
 20
17.9247430794
 30
0.0
 10
-1.4313816695
 20
17.9229405953
 30
0.0
 10
-1.4447978495
 20
17.9229406897
 30
0.0
  0
SPLINE
  5
436
100
AcDbEntity
  8
0
100
AcDbSpline
 62
7
  6
CONTINUOUS
 70
0
 71
3
 72
14
 73
10
 74
0
 42
0.0000001
 43
0.0000001
 44
0.0000000001
 40
0.0
 40
0.0
 40
0.0
 40
0.0
 40
0.0943181143
 40
0.245475036
 40
0.3513655914
 40
0.4920109212
 40
0.6227668859
 40
0.9774610133
 40
1.0
 40
1.0
 40
1.0
 40
1.0
 10
-1.4046178602
 20
17.7755936743
 30
0.0
 10
-1.3860029292
 20
17.7755935827
 30
0.0
 10
-1.3375101308
 20
17.7785139382
 30
0.0
 10
-1.2694342735
 20
17.7938233044
 30
0.0
 10
-1.1961966231
 20
17.8229589632
 30
0.0
 10
-1.1347184347
 20
17.8666994906
 30
0.0
 10
-1.0534012536
 20
17.960878751
 30
0.0
 10
-1.0253712908
 20
18.0651866241
 30
0.0
 10
-1.026012271
 20
18.1395459869
 30
0.0
 10
-1.026012271
 20
18.1439943553
 30
0.0
  0
SPLINE
  5
437
100
AcDbEntity
  8
0
100
AcDbSpline
 62
7
  6
CONTINUOUS
 70
0
 71
3
 72
14
 73
10
 74
0
 42
0.0000001
 43
0.0000001
 44
0.0000000001
 40
0.0
 40
0.0
 40
0.0
 40
0.0
 40
0.0225390915
 40
0.3772348688
 40
0.5079914418
 40
0.6486374259
 40
0.7545284738
 40
0.9056860987
 40
1.0
 40
1.0
 40
1.0
 40
1.0
 10
-1.026012271
 20
18.1439943553
 30
0.0
 10
-1.026012271
 20
18.1484427236
 30
0.0
 10
-1.0253712908
 20
18.2228020864
 30
0.0
 10
-1.0534012536
 20
18.3271099596
 30
0.0
 10
-1.1347184347
 20
18.4212892199
 30
0.0
 10
-1.1961966231
 20
18.4650297473
 30
0.0
 10
-1.2694342735
 20
18.4941654062
 30
0.0
 10
-1.3375092296
 20
18.5094745696
 30
0.0
 10
-1.3860010913
 20
18.5123950172
 30
0.0
 10
-1.404615106
 20
18.5123950362
 30
0.0
  0
SPLINE
  5
438
100
AcDbEntity
  8
0
100
AcDbSpline
 62
7
  6
CONTINUOUS
 70
0
 71
3
 72
16
 73
12
 74
0
 42
0.0000001
 43
0.0000001
 44
0.0000000001
 40
0.0
 40
0.0
 40
0.0
 40
0.0
 40
0.081582199
 40
0.1574553967
 40
0.3066287736
 40
0.384848994
 40
0.5792892447
 40
0.6959714606
 40
0.8475957974
 40
0.961835767
 40
1.0
 40
1.0
 40
1.0
 40
1.0
 10
0.5346227729
 20
17.377888928
 30
0.0
 10
0.5177069458
 20
17.377888928
 30
0.0
 10
0.4849879673
 20
17.3821613752
 30
0.0
 10
0.4246666042
 20
17.4041746772
 30
0.0
 10
0.3768947774
 20
17.4483771235
 30
0.0
 10
0.327649782
 20
17.5208893942
 30
0.0
 10
0.303887998
 20
17.5996334357
 30
0.0
 10
0.2849518808
 20
17.693466841
 30
0.0
 10
0.2755943931
 20
17.7724470856
 30
0.0
 10
0.2735850834
 20
17.8354861764
 30
0.0
 10
0.2737292464
 20
17.8670867594
 30
0.0
 10
0.2737292464
 20
17.875
 30
0.0
  0
SPLINE
  5
439
100
AcDbEntity
  8
0
100
AcDbSpline
 62
7
  6
CONTINUOUS
 70
0
 71
3
 72
16
 73
12
 74
0
 42
0.0000001
 43
0.0000001
 44
0.0000000001
 40
0.0
 40
0.0
 40
0.0
 40
0.0
 40
0.038164233
 40
0.1524042026
 40
0.3040285394
 40
0.4207107553
 40
0.615151006
 40
0.6933712264
 40
0.8425446033
 40
0.918417801
 40
1.0
 40
1.0
 40
1.0
 40
1.0
 10
0.2737292464
 20
17.875
 30
0.0
 10
0.2737292464
 20
17.8829132406
 30
0.0
 10
0.2735850834
 20
17.9145138236
 30
0.0
 10
0.2755943931
 20
17.9775529144
 30
0.0
 10
0.2849518808
 20
18.056533159
 30
0.0
 10
0.303887998
 20
18.1503665643
 30
0.0
 10
0.327649782
 20
18.2291106058
 30
0.0
 10
0.3768947774
 20
18.3016228765
 30
0.0
 10
0.4246666042
 20
18.3458253228
 30
0.0
 10
0.4849879673
 20
18.3678386248
 30
0.0
 10
0.5177069458
 20
18.372111072
 30
0.0
 10
0.5346227729
 20
18.372111072
 30
0.0
  0
SPLINE
  5
43A
100
AcDbEntity
  8
0
100
AcDbSpline
 62
7
  6
CONTINUOUS
 70
0
 71
3
 72
16
 73
12
 74
0
 42
0.0000001
 43
0.0000001
 44
0.0000000001
 40
0.0
 40
0.0
 40
0.0
 40
0.0
 40
0.081582199
 40
0.1574553967
 40
0.3066287736
 40
0.384848994
 40
0.5792892447
 40
0.6959714606
 40
0.8475957974
 40
0.961835767
 40
1.0
 40
1.0
 40
1.0
 40
1.0
 10
0.5346227729
 20
18.372111072
 30
0.0
 10
0.5515386
 20
18.372111072
 30
0.0
 10
0.5842575785
 20
18.3678386248
 30
0.0
 10
0.6445789416
 20
18.3458253228
 30
0.0
 10
0.6923507684
 20
18.3016228765
 30
0.0
 10
0.7415957638
 20
18.2291106058
 30
0.0
 10
0.7653575478
 20
18.1503665643
 30
0.0
 10
0.784293665
 20
18.056533159
 30
0.0
 10
0.7936511527
 20
17.9775529144
 30
0.0
 10
0.7956604624
 20
17.9145138236
 30
0.0
 10
0.7955162994
 20
17.8829132406
 30
0.0
 10
0.7955162994
 20
17.875
 30
0.0
  0
SPLINE
  5
43B
100
AcDbEntity
  8
0
100
AcDbSpline
 62
7
  6
CONTINUOUS
 70
0
 71
3
 72
16
 73
12
 74
0
 42
0.0000001
 43
0.0000001
 44
0.0000000001
 40
0.0
 40
0.0
 40
0.0
 40
0.0
 40
0.038164233
 40
0.1524042026
 40
0.3040285394
 40
0.4207107553
 40
0.615151006
 40
0.6933712264
 40
0.8425446033
 40
0.918417801
 40
1.0
 40
1.0
 40
1.0
 40
1.0
 10
0.7955162994
 20
17.875
 30
0.0
 10
0.7955162994
 20
17.8670867594
 30
0.0
 10
0.7956604624
 20
17.8354861764
 30
0.0
 10
0.7936511527
 20
17.7724470856
 30
0.0
 10
0.784293665
 20
17.693466841
 30
0.0
 10
0.7653575478
 20
17.5996334357
 30
0.0
 10
0.7415957638
 20
17.5208893942
 30
0.0
 10
0.6923507684
 20
17.4483771235
 30
0.0
 10
0.6445789416
 20
17.4041746772
 30
0.0
 10
0.5842575785
 20
17.3821613752
 30
0.0
 10
0.5515386
 20
17.377888928
 30
0.0
 10
0.5346227729
 20
17.377888928
 30
0.0
  0
SPLINE
  5
43C
100
AcDbEntity
  8
0
100
AcDbSpline
 62
7
  6
CONTINUOUS
 70
0
 71
3
 72
23
 73
19
 74
0
 42
0.0000001
 43
0.0000001
 44
0.0000000001
 40
0.0
 40
0.0
 40
0.0
 40
0.0
 40
0.1175716721
 40
0.2550368586
 40
0.3463162708
 40
0.4140846673
 40
0.5095606694
 40
0.6178461101
 40
0.6617319017
 40
0.7152414415
 40
0.7583771864
 40
0.8078403706
 40
0.8439461126
 40
0.889742133
 40
0.9288974336
 40
0.9679984913
 40
0.9901309194
 40
1.0
 40
1.0
 40
1.0
 40
1.0
 10
0.5346227729
 20
18.5123907019
 30
0.0
 10
0.5008958239
 20
18.5123907019
 30
0.0
 10
0.4275051297
 20
18.5030699751
 30
0.0
 10
0.3344500241
 20
18.4631219553
 30
0.0
 10
0.2689246726
 20
18.4076867212
 30
0.0
 10
0.222588441
 20
18.3510562353
 30
0.0
 10
0.1813521243
 20
18.2845066663
 30
0.0
 10
0.1563151217
 20
18.2175576003
 30
0.0
 10
0.1410514973
 20
18.1605750284
 30
0.0
 10
0.1318272916
 20
18.1213164871
 30
0.0
 10
0.1238172589
 20
18.0801691042
 30
0.0
 10
0.1180249804
 20
18.0436961349
 30
0.0
 10
0.1133323248
 20
18.0063016024
 30
0.0
 10
0.1100802254
 20
17.9717197154
 30
0.0
 10
0.1078981837
 20
17.9361959263
 30
0.0
 10
0.1069759206
 20
17.9074079886
 30
0.0
 10
0.1068228654
 20
17.8870111016
 30
0.0
 10
0.106835424
 20
17.8778310729
 30
0.0
 10
0.106835424
 20
17.875
 30
0.0
  0
SPLINE
  5
43D
100
AcDbEntity
  8
0
100
AcDbSpline
 62
7
  6
CONTINUOUS
 70
0
 71
3
 72
23
 73
19
 74
0
 42
0.0000001
 43
0.0000001
 44
0.0000000001
 40
0.0
 40
0.0
 40
0.0
 40
0.0
 40
0.0098690806
 40
0.0320015087
 40
0.0711025664
 40
0.110257867
 40
0.1560538874
 40
0.1921596294
 40
0.2416228136
 40
0.2847585585
 40
0.3382680983
 40
0.3821538899
 40
0.4904393306
 40
0.5859153327
 40
0.6536837292
 40
0.7449631414
 40
0.8824283279
 40
1.0
 40
1.0
 40
1.0
 40
1.0
 10
0.106835424
 20
17.875
 30
0.0
 10
0.106835424
 20
17.8721689271
 30
0.0
 10
0.1068228654
 20
17.8629888984
 30
0.0
 10
0.1069759206
 20
17.8425920114
 30
0.0
 10
0.1078981837
 20
17.8138040737
 30
0.0
 10
0.1100802254
 20
17.7782802846
 30
0.0
 10
0.1133323248
 20
17.7436983976
 30
0.0
 10
0.1180249804
 20
17.7063038651
 30
0.0
 10
0.1238172589
 20
17.6698308958
 30
0.0
 10
0.1318272916
 20
17.6286835129
 30
0.0
 10
0.1410514973
 20
17.5894249716
 30
0.0
 10
0.1563151217
 20
17.5324423997
 30
0.0
 10
0.1813521243
 20
17.4654933337
 30
0.0
 10
0.222588441
 20
17.3989437647
 30
0.0
 10
0.2689246726
 20
17.3423132788
 30
0.0
 10
0.3344500241
 20
17.2868780447
 30
0.0
 10
0.4275051297
 20
17.2469300249
 30
0.0
 10
0.5008958239
 20
17.2376092981
 30
0.0
 10
0.5346227729
 20
17.2376092981
 30
0.0
  0
SPLINE
  5
43E
100
AcDbEntity
  8
0
100
AcDbSpline
 62
7
  6
CONTINUOUS
 70
0
 71
3
 72
23
 73
19
 74
0
 42
0.0000001
 43
0.0000001
 44
0.0000000001
 40
0.0
 40
0.0
 40
0.0
 40
0.0
 40
0.1175716721
 40
0.2550368586
 40
0.3463162708
 40
0.4140846673
 40
0.5095606694
 40
0.6178461101
 40
0.6617319017
 40
0.7152414415
 40
0.7583771864
 40
0.8078403706
 40
0.8439461126
 40
0.889742133
 40
0.9288974336
 40
0.9679984913
 40
0.9901309194
 40
1.0
 40
1.0
 40
1.0
 40
1.0
 10
0.5346227729
 20
17.2376092981
 30
0.0
 10
0.5683497219
 20
17.2376092981
 30
0.0
 10
0.6417404161
 20
17.2469300249
 30
0.0
 10
0.7347955217
 20
17.2868780447
 30
0.0
 10
0.8003208732
 20
17.3423132788
 30
0.0
 10
0.8466571048
 20
17.3989437647
 30
0.0
 10
0.8878934215
 20
17.4654933337
 30
0.0
 10
0.9129304241
 20
17.5324423997
 30
0.0
 10
0.9281940485
 20
17.5894249716
 30
0.0
 10
0.9374182542
 20
17.6286835129
 30
0.0
 10
0.9454282869
 20
17.6698308958
 30
0.0
 10
0.9512205654
 20
17.7063038651
 30
0.0
 10
0.955913221
 20
17.7436983976
 30
0.0
 10
0.9591653204
 20
17.7782802846
 30
0.0
 10
0.9613473621
 20
17.8138040737
 30
0.0
 10
0.9622696252
 20
17.8425920114
 30
0.0
 10
0.9624226804
 20
17.8629888984
 30
0.0
 10
0.9624101218
 20
17.8721689271
 30
0.0
 10
0.9624101218
 20
17.875
 30
0.0
  0
SPLINE
  5
43F
100
AcDbEntity
  8
0
100
AcDbSpline
 62
7
  6
CONTINUOUS
 70
0
 71
3
 72
23
 73
19
 74
0
 42
0.0000001
 43
0.0000001
 44
0.0000000001
 40
0.0
 40
0.0
 40
0.0
 40
0.0
 40
0.0098690806
 40
0.0320015087
 40
0.0711025664
 40
0.110257867
 40
0.1560538874
 40
0.1921596294
 40
0.2416228136
 40
0.2847585585
 40
0.3382680983
 40
0.3821538899
 40
0.4904393306
 40
0.5859153327
 40
0.6536837292
 40
0.7449631414
 40
0.8824283279
 40
1.0
 40
1.0
 40
1.0
 40
1.0
 10
0.9624101218
 20
17.875
 30
0.0
 10
0.9624101218
 20
17.8778310729
 30
0.0
 10
0.9624226804
 20
17.8870111016
 30
0.0
 10
0.9622696252
 20
17.9074079886
 30
0.0
 10
0.9613473621
 20
17.9361959263
 30
0.0
 10
0.9591653204
 20
17.9717197154
 30
0.0
 10
0.955913221
 20
18.0063016024
 30
0.0
 10
0.9512205654
 20
18.0436961349
 30
0.0
 10
0.9454282869
 20
18.0801691042
 30
0.0
 10
0.9374182542
 20
18.1213164871
 30
0.0
 10
0.9281940485
 20
18.1605750284
 30
0.0
 10
0.9129304241
 20
18.2175576003
 30
0.0
 10
0.8878934215
 20
18.2845066663
 30
0.0
 10
0.8466571048
 20
18.3510562353
 30
0.0
 10
0.8003208732
 20
18.4076867212
 30
0.0
 10
0.7347955217
 20
18.4631219553
 30
0.0
 10
0.6417404161
 20
18.5030699751
 30
0.0
 10
0.5683497219
 20
18.5123907019
 30
0.0
 10
0.5346227729
 20
18.5123907019
 30
0.0
  0
ENDSEC
  0
SECTION
  2
OBJECTS
  0
DICTIONARY
  5
C
100
AcDbDictionary
280
0
281
1
  3
ACAD_GROUP
350
D
  3
ACAD_MLINESTYLE
350
17
  3
ACAD_LAYOUT
350
1A
  3
ACAD_PLOTSETTINGS
350
19
  3
ACAD_PLOTSTYLENAME
350
E
  0
DICTIONARY
  5
D
102
{ACAD_REACTORS
330
C
102
}
100
AcDbDictionary
280
0
281
1
  0
ACDBDICTIONARYWDFLT
  5
E
102
{ACAD_REACTORS
330
C
102
}
100
AcDbDictionary
281
1
  3
Normal
350
F
100
AcDbDictionaryWithDefault
340
F
  0
DICTIONARY
  5
17
102
{ACAD_REACTORS
330
C
102
}
100
AcDbDictionary
280
0
281
1
  3
Standard
350
18
  0
DICTIONARY
  5
19
102
{ACAD_REACTORS
330
C
102
}
100
AcDbDictionary
281
1
  0
DICTIONARY
  5
1A
102
{ACAD_REACTORS
330
C
102
}
100
AcDbDictionary
281
1
  3
Model
350
440
  3
Layout1
350
441
  0
ACDBPLACEHOLDER
  5
F
102
{ACAD_REACTORS
330
E
102
}
  0
MLINESTYLE
  5
18
102
{ACAD_REACTORS
330
17
102
}
100
AcDbMlineStyle
  2
STANDARD
 70
0
  3

 62
256
 51
90.0
 52
90.0
 71
2
 49
0.5
 62
256
  6
BYLAYER
 49
-0.5
 62
256
  6
BYLAYER
  0
LAYOUT
  5
440
102
{ACAD_REACTORS
330
1A
102
}
100
AcDbPlotSettings
  1

  2
none_device
  4
ANSI_C_(22.00_x_17.00_Inches)
  6

 40
0.0
 41
0.0
 42
0.0
 43
0.0
 44
558.8
 45
431.8
 46
0.0
 47
0.0
 48
0.0
 49
0.0
140
0.0
141
0.0
142
1.0
143
1.0
 70
1024
 72
1
 73
0
 74
0
  7

 75
0
147
1.0
148
0.0
149
0.0
100
AcDbLayout
  1
Model
 70
0
 71
0
 10
0.0
 20
0.0
 11
558.8
 21
431.8
 12
0.0
 22
0.0
 32
0.0
 14
0.0
 24
0.0
 34
0.0
 15
0.0
 25
0.0
 35
0.0
146
0.0
 13
0.0
 23
0.0
 33
0.0
 16
1.0
 26
0.0
 36
0.0
 17
0.0
 27
1.0
 37
0.0
 76
0
330
20B
345
0
346
0
  0
LAYOUT
  5
441
102
{ACAD_REACTORS
330
1A
102
}
100
AcDbPlotSettings
  1

  2
none_device
  4
ANSI_C_(22.00_x_17.00_Inches)
  6

 40
0.0
 41
0.0
 42
0.0
 43
0.0
 44
558.8
 45
431.8
 46
0.0
 47
0.0
 48
0.0
 49
0.0
140
0.0
141
0.0
142
1.0
143
1.0
 70
0
 72
1
 73
0
 74
0
  7

 75
0
147
1.0
148
0.0
149
0.0
100
AcDbLayout
  1
Layout1
 70
0
 71
1
 10
0.0
 20
0.0
 11
558.8
 21
431.8
 12
0.0
 22
0.0
 32
0.0
 14
0.0
 24
0.0
 34
0.0
 15
0.0
 25
0.0
 35
0.0
146
0.0
 13
0.0
 23
0.0
 33
0.0
 16
1.0
 26
0.0
 36
0.0
 17
0.0
 27
1.0
 37
0.0
 76
0
330
20C
345
0
346
0
  0
ENDSEC
  0
EOF
