  0
SECTION
  2
HEADER
  9
$ACADVER
  1
AC1024
  9
$DWGCODEPAGE
  3
ANSI_1252
  9
$EXTMAX
 10
558.8
 20
431.8
 30
0.0
  9
$EXTMIN
 10
0.0
 20
0.0
 30
0.0
  9
$LIMMIN
 10
0.0
 20
0.0
  9
$LIMMAX
 10
558.8
 20
431.8
  9
$VIEWCTR
 10
279.4
 20
215.9
  9
$VIEWSIZE
 40
431.8
  9
$CLAYER
  8
0
  9
$LTSCALE
 40
30.734
  9
$CELTYPE
  6
BYLAYER
  9
$DIMSCALE
 40
1.0
  9
$DIMASZ
 40
3.0
  9
$DIMEXO
 40
0.5
  9
$DIMDLI
 40
21.2344
  9
$DIMEXE
 40
1.5
  9
$DIMCEN
 40
5.0292
  9
$DIMLFAC
 40
1.0
  9
$DIMBLK
  1
_FILLED
  9
$DIMALT
 70
0
  9
$DIMALTF
 40
0.0393700787
  9
$DIMTXT
 40
3.0
  9
$DIMTOL
 70
1
  9
$DIMLIM
 70
0
  9
$DIMTFAC
 40
1.0
  9
$DIMTP
 40
0.01
  9
$DIMTM
 40
0.01
  9
$DIMGAP
 40
0.625
  9
$DIMDSEP
 70
44
  9
$AUNITS
 70
0
  9
$PDMODE
 70
3
  9
$PDSIZE
 40
3.0
  9
$HANDSEED
  5
40F
  9
$TILEMODE
 70
1
  9
$MEASUREMENT
 70
1
  9
$INSUNITS
 70
4
  0
ENDSEC
  0
SECTION
  2
CLASSES
  0
CLASS
  1
ACDBDICTIONARYWDFLT
  2
AcDbDictionaryWithDefault
  3
AutoCAD 2000
 90
0
 91
1
280
0
281
0
  0
CLASS
  1
ACDBPLACEHOLDER
  2
AcDbPlaceHolder
  3
AutoCAD 2000
 90
0
 91
1
280
0
281
0
  0
CLASS
  1
LAYOUT
  2
AcDbLayout
  3
AutoCAD 2000
 90
0
 91
0
280
0
281
0
  0
ENDSEC
  0
SECTION
  2
TABLES
  0
TABLE
  2
VPORT
  5
8
100
AcDbSymbolTable
 70
2
  0
VPORT
  5
1F4
100
AcDbSymbolTableRecord
100
AcDbViewportTableRecord
  2
*ACTIVE
 70
0
 10
0.0
 20
0.0
 11
1.0
 21
1.0
 12
279.4
 22
215.9
 13
0.0
 23
0.0
 14
1.0
 24
1.0
 15
0.0
 25
0.0
 16
0.0
 26
0.0
 36
1.0
 17
0.0
 27
0.0
 37
0.0
 40
431.8
 41
1.2941176471
 42
50.0
 43
0.0
 44
0.0
 50
0.0
 51
0.0
 71
0
 72
100
 73
1
 74
1
 75
0
 76
0
 77
0
 78
0
  0
ENDTAB
  0
TABLE
  2
LTYPE
  5
5
100
AcDbSymbolTable
 70
6
  0
LTYPE
  5
14
100
AcDbSymbolTableRecord
100
AcDbLinetypeTableRecord
  2
BYBLOCK
 70
0
  3

 72
65
 73
0
 40
0.0
  0
LTYPE
  5
15
100
AcDbSymbolTableRecord
100
AcDbLinetypeTableRecord
  2
BYLAYER
 70
0
  3

 72
65
 73
0
 40
0.0
  0
LTYPE
  5
16
100
AcDbSymbolTableRecord
100
AcDbLinetypeTableRecord
  2
CONTINUOUS
 70
64
  3
Solid line
 72
65
 73
0
 40
0.0
  0
LTYPE
  5
1F5
100
AcDbSymbolTableRecord
100
AcDbLinetypeTableRecord
  2
CENTER
 70
64
  3
____ _ ____ _ ____ _ ____ _ ____ _ ____ _ ____
 72
65
 73
4
 40
0.6
 49
0.375
 74
0
 49
-0.075
 74
0
 49
0.075
 74
0
 49
-0.075
 74
0
  0
LTYPE
  5
1F6
100
AcDbSymbolTableRecord
100
AcDbLinetypeTableRecord
  2
HIDDEN
 70
64
  3
- - - - - - - - - - - - - - - - - - - -
 72
65
 73
2
 40
0.2
 49
0.1
 74
0
 49
-0.1
 74
0
  0
LTYPE
  5
1F7
100
AcDbSymbolTableRecord
100
AcDbLinetypeTableRecord
  2
PHANTOM
 70
64
  3
_____ _ _ _____ _ _ _____ _ _ _____
 72
65
 73
6
 40
0.8
 49
0.45
 74
0
 49
-0.05
 74
0
 49
0.1
 74
0
 49
-0.05
 74
0
 49
0.1
 74
0
 49
-0.05
 74
0
  0
LTYPE
  5
1F8
100
AcDbSymbolTableRecord
100
AcDbLinetypeTableRecord
  2
DOT
 70
64
  3
. . . . . . . . . . . . . . . . . . . .
 72
65
 73
2
 40
0.2
 49
0.1
 74
0
 49
-0.1
 74
0
  0
LTYPE
  5
1F9
100
AcDbSymbolTableRecord
100
AcDbLinetypeTableRecord
  2
DASHED
 70
64
  3
- - - - - - - - - - - - - - - - - - - -
 72
65
 73
2
 40
0.2
 49
0.1
 74
0
 49
-0.1
 74
0
  0
ENDTAB
  0
TABLE
  2
LAYER
  5
2
100
AcDbSymbolTable
 70
36
  0
LAYER
  5
10
100
AcDbSymbolTableRecord
100
AcDbLayerTableRecord
  2
0
 70
0
 62
7
  6
CONTINUOUS
370
-3
390
F
  0
LAYER
  5
1FA
100
AcDbSymbolTableRecord
100
AcDbLayerTableRecord
  2
DEFAULT_1
 70
0
 62
7
  6
CENTER
370
-3
390
F
  0
LAYER
  5
1FB
100
AcDbSymbolTableRecord
100
AcDbLayerTableRecord
  2
DEFAULT_2
 70
0
 62
7
  6
HIDDEN
370
-3
390
F
  0
LAYER
  5
1FC
100
AcDbSymbolTableRecord
100
AcDbLayerTableRecord
  2
DEFAULT_3
 70
0
 62
7
  6
PHANTOM
370
-3
390
F
  0
LAYER
  5
1FD
100
AcDbSymbolTableRecord
100
AcDbLayerTableRecord
  2
ASSI
 70
0
 62
7
  6
CONTINUOUS
370
-3
390
F
  0
LAYER
  5
1FE
100
AcDbSymbolTableRecord
100
AcDbLayerTableRecord
  2
COORDINATE
 70
0
 62
7
  6
CONTINUOUS
370
-3
390
F
  0
LAYER
  5
1FF
100
AcDbSymbolTableRecord
100
AcDbLayerTableRecord
  2
COPY_PUBLISH
 70
0
 62
7
  6
CONTINUOUS
370
-3
390
F
  0
LAYER
  5
200
100
AcDbSymbolTableRecord
100
AcDbLayerTableRecord
  2
COSMETIC
 70
0
 62
7
  6
CONTINUOUS
370
-3
390
F
  0
LAYER
  5
201
100
AcDbSymbolTableRecord
100
AcDbLayerTableRecord
  2
CURVE
 70
0
 62
7
  6
CONTINUOUS
370
-3
390
F
  0
LAYER
  5
202
100
AcDbSymbolTableRecord
100
AcDbLayerTableRecord
  2
IMPORT_IGES
 70
0
 62
7
  6
CONTINUOUS
370
-3
390
F
  0
LAYER
  5
203
100
AcDbSymbolTableRecord
100
AcDbLayerTableRecord
  2
NOTE
 70
0
 62
7
  6
CONTINUOUS
370
-3
390
F
  0
LAYER
  5
204
100
AcDbSymbolTableRecord
100
AcDbLayerTableRecord
  2
PIANI
 70
0
 62
7
  6
CONTINUOUS
370
-3
390
F
  0
LAYER
  5
205
100
AcDbSymbolTableRecord
100
AcDbLayerTableRecord
  2
PUNTI
 70
0
 62
7
  6
CONTINUOUS
370
-3
390
F
  0
LAYER
  5
206
100
AcDbSymbolTableRecord
100
AcDbLayerTableRecord
  2
RACCORDO
 70
0
 62
7
  6
CONTINUOUS
370
-3
390
F
  0
LAYER
  5
207
100
AcDbSymbolTableRecord
100
AcDbLayerTableRecord
  2
SNAPLINE
 70
0
 62
7
  6
CONTINUOUS
370
-3
390
F
  0
LAYER
  5
208
100
AcDbSymbolTableRecord
100
AcDbLayerTableRecord
  2
TRASH
 70
0
 62
7
  6
CONTINUOUS
370
-3
390
F
  0
ENDTAB
  0
TABLE
  2
STYLE
  5
3
100
AcDbSymbolTable
 70
1
  0
STYLE
  5
11
100
AcDbSymbolTableRecord
100
AcDbTextStyleTableRecord
  2
STANDARD
 70
0
 40
0.0
 41
0.8
 50
0.0
 71
0
 42
0.2
  3
txt
  4

  0
STYLE
  5
209
100
AcDbSymbolTableRecord
100
AcDbTextStyleTableRecord
  2
TEXTSTYLE_1
 70
0
 40
0.0
 41
0.8
 50
0.0
 71
0
 42
0.2
  3
gdt
  4

  0
ENDTAB
  0
TABLE
  2
VIEW
  5
6
100
AcDbSymbolTable
 70
0
  0
ENDTAB
  0
TABLE
  2
UCS
  5
7
100
AcDbSymbolTable
 70
0
  0
ENDTAB
  0
TABLE
  2
APPID
  5
9
100
AcDbSymbolTable
 70
1
  0
APPID
  5
20A
100
AcDbSymbolTableRecord
100
AcDbRegAppTableRecord
  2
ACAD
 70
0
  0
ENDTAB
  0
TABLE
  2
BLOCK_RECORD
  5
1
100
AcDbSymbolTable
 70
0
  0
BLOCK_RECORD
  5
20B
100
AcDbSymbolTableRecord
100
AcDbBlockTableRecord
  2
*Model_Space
  0
BLOCK_RECORD
  5
20C
100
AcDbSymbolTableRecord
100
AcDbBlockTableRecord
  2
*Paper_Space
  0
BLOCK_RECORD
  5
20D
100
AcDbSymbolTableRecord
100
AcDbBlockTableRecord
  2
_FILLED
  0
ENDTAB
  0
TABLE
  2
DIMSTYLE
  5
A
100
AcDbSymbolTable
 70
1
100
AcDbDimStyleTable
 71
0
  0
DIMSTYLE
105
20E
100
AcDbSymbolTableRecord
100
AcDbDimStyleTableRecord
  2
STANDARD
 70
0
  3

  4

 40
1.0
 41
3.0
 42
0.5
 43
0.38
 44
1.5
 45
0.0
 46
0.0
 47
0.01
 48
0.01
140
3.0
141
0.09
142
0.0
143
25.4
144
1.0
145
0.0
146
1.0
147
0.625
 71
1.0
 72
0.0
 73
0
 74
0
 75
0
 76
0
 77
1
 78
8
 79
2
170
0
171
1
172
0
173
0
174
0
175
0
176
0
177
0
178
0
270
2
179
2
271
2
272
2
273
2
274
2
275
0
280
0
281
0
282
0
283
1
284
8
285
0
286
0
287
3
288
0
340
11
278
44
341
20D
342
20D
343
20D
344
20D
  0
ENDTAB
  0
ENDSEC
  0
SECTION
  2
BLOCKS
  0
BLOCK
  5
20
100
AcDbEntity
  8
0
100
AcDbBlockBegin
  2
*Model_Space
 70
0
 10
0.0
 20
0.0
 30
0.0
  3
*Model_Space
  1

  0
ENDBLK
  5
21
100
AcDbEntity
  8
0
100
AcDbBlockEnd
  0
BLOCK
  5
1C
100
AcDbEntity
  8
0
100
AcDbBlockBegin
  2
*Paper_Space
 70
0
 10
0.0
 20
0.0
 30
0.0
  3
*Paper_Space
  1

  0
ENDBLK
  5
1D
100
AcDbEntity
  8
0
100
AcDbBlockEnd
  0
BLOCK
  5
20F
100
AcDbEntity
  8
0
100
AcDbBlockBegin
  2
_FILLED
 70
64
 10
0.0
 20
0.0
  3
_FILLED
  1

  0
SOLID
  5
210
100
AcDbEntity
  8
0
  6
BYBLOCK
 62
0
100
AcDbTrace
 10
0.0
 20
0.0
 11
-1.0
 21
0.3166666667
 12
-1.0
 22
-0.3166666667
 13
-1.0
 23
-0.3166666667
  0
ENDBLK
  5
211
100
AcDbEntity
  8
0
  6
BYBLOCK
 62
0
100
AcDbBlockEnd
  0
ENDSEC
  0
SECTION
  2
ENTITIES
  0
LINE
  5
212
100
AcDbEntity
  8
0
100
AcDbLine
 62
7
  6
CONTINUOUS
 10
-133.5
 20
-50.0
 11
-133.5
 21
50.0
  0
LINE
  5
213
100
AcDbEntity
  8
0
100
AcDbLine
 62
7
  6
CONTINUOUS
 10
-132.0
 20
50.0
 11
-132.0
 21
-50.0
  0
LINE
  5
214
100
AcDbEntity
  8
0
100
AcDbLine
 62
7
  6
CONTINUOUS
 10
128.5
 20
-55.0
 11
-128.5
 21
-55.0
  0
LINE
  5
215
100
AcDbEntity
  8
0
100
AcDbLine
 62
7
  6
CONTINUOUS
 10
-128.5
 20
-53.5
 11
128.5
 21
-53.5
  0
LINE
  5
216
100
AcDbEntity
  8
ASSI
100
AcDbLine
 62
7
  6
CONTINUOUS
 10
1.7060064053
 20
-39.2749870825
 11
1.758778
 21
-39.2740185624
  0
LINE
  5
217
100
AcDbEntity
  8
ASSI
100
AcDbLine
 62
7
  6
CONTINUOUS
 10
-0.4865485739
 20
-39.2749870238
 11
-0.433777
 21
-39.2740185036
  0
LINE
  5
218
100
AcDbEntity
  8
ASSI
100
AcDbLine
 62
7
  6
CONTINUOUS
 10
0.8285275
 20
-38.1875
 11
1.558778
 21
-38.1875
  0
LINE
  5
219
100
AcDbEntity
  8
ASSI
100
AcDbLine
 62
7
  6
CONTINUOUS
 10
1.558778
 20
-37.8125
 11
0.8285259638
 21
-37.8125
  0
LINE
  5
21A
100
AcDbEntity
  8
0
100
AcDbLine
 62
7
  6
CONTINUOUS
 10
-3.7771738094
 20
25.8617021274
 11
-3.6684782609
 21
26.0106382929
  0
LINE
  5
21B
100
AcDbEntity
  8
0
100
AcDbLine
 62
7
  6
CONTINUOUS
 10
-6.17
 20
21.3296262865
 11
-6.2566666654
 21
21.2189880018
  0
LINE
  5
21C
100
AcDbEntity
  8
0
100
AcDbLine
 62
7
  6
CONTINUOUS
 10
-5.693333354
 20
20.9423922126
 11
-6.3
 21
20.2509028752
  0
LINE
  5
21D
100
AcDbEntity
  8
0
100
AcDbLine
 62
7
  6
CONTINUOUS
 10
-6.1266666615
 20
20.2509028752
 11
-5.585
 21
20.8594134991
  0
LINE
  5
21E
100
AcDbEntity
  8
0
100
AcDbLine
 62
7
  6
CONTINUOUS
 10
-3.8315217391
 20
26.0851063952
 11
-3.9130434783
 21
26.0106382929
  0
LINE
  5
21F
100
AcDbEntity
  8
0
100
AcDbLine
 62
7
  6
CONTINUOUS
 10
-6.1266666615
 20
21.1913284306
 11
-6.0616666615
 21
21.246647573
  0
LINE
  5
220
100
AcDbEntity
  8
0
100
AcDbLine
 62
7
  6
CONTINUOUS
 10
-5.13
 20
21.1913284306
 11
-5.065
 21
21.246647573
  0
LINE
  5
221
100
AcDbEntity
  8
0
100
AcDbLine
 62
7
  6
CONTINUOUS
 10
-4.783333292
 20
20.3338815887
 11
-4.848333292
 21
20.2785624464
  0
LINE
  5
222
100
AcDbEntity
  8
0
100
AcDbLine
 62
7
  6
CONTINUOUS
 10
-3.808333416
 20
20.3615411793
 11
-3.873333416
 21
20.3062220176
  0
LINE
  5
223
100
AcDbEntity
  8
0
100
AcDbLine
 62
7
  6
CONTINUOUS
 10
-5.086666708
 20
21.3849454288
 11
-5.195
 21
21.3019667153
  0
LINE
  5
224
100
AcDbEntity
  8
0
100
AcDbLine
 62
7
  6
CONTINUOUS
 10
-4.826666708
 20
20.1402645736
 11
-4.718333292
 21
20.2232432944
  0
LINE
  5
225
100
AcDbEntity
  8
0
100
AcDbLine
 62
7
  6
CONTINUOUS
 10
-0.3962262252
 20
24.0574467808
 11
-0.1981132066
 21
24.2042553425
  0
LINE
  5
226
100
AcDbEntity
  8
0
100
AcDbLine
 62
7
  6
CONTINUOUS
 10
0.7924530203
 20
23.5925531849
 11
0.5943394348
 21
23.4457446747
  0
LINE
  5
227
100
AcDbEntity
  8
0
100
AcDbLine
 62
7
  6
CONTINUOUS
 10
-3.8858696689
 20
25.7872340414
 11
-3.7771738094
 21
25.8617021274
  0
LINE
  5
228
100
AcDbEntity
  8
0
100
AcDbLine
 62
7
  6
CONTINUOUS
 10
-6.0833333385
 20
21.3849454288
 11
-6.17
 21
21.3296262865
  0
LINE
  5
229
100
AcDbEntity
  8
0
100
AcDbLine
 62
7
  6
CONTINUOUS
 10
-3.851666584
 20
20.1402645736
 11
-3.765
 21
20.1955837232
  0
LINE
  5
22A
100
AcDbEntity
  8
0
100
AcDbLine
 62
7
  6
CONTINUOUS
 10
1.7830186804
 20
24.4
 11
1.485848869
 21
24.2287234247
  0
LINE
  5
22B
100
AcDbEntity
  8
0
100
AcDbLine
 62
7
  6
CONTINUOUS
 10
1.485848869
 20
24.0329786986
 11
1.7830186804
 21
24.2042553425
  0
LINE
  5
22C
100
AcDbEntity
  8
0
100
AcDbLine
 62
7
  6
CONTINUOUS
 10
2.7735849072
 20
24.4
 11
2.4764150959
 21
24.2287234247
  0
LINE
  5
22D
100
AcDbEntity
  8
0
100
AcDbLine
 62
7
  6
CONTINUOUS
 10
2.4764150959
 20
24.0329786986
 11
2.7735849072
 21
24.2042553425
  0
LINE
  5
22E
100
AcDbEntity
  8
0
100
AcDbLine
 62
7
  6
CONTINUOUS
 10
-0.3466981122
 20
24.3021276712
 11
-0.4952830179
 21
24.2287234247
  0
LINE
  5
22F
100
AcDbEntity
  8
0
100
AcDbLine
 62
7
  6
CONTINUOUS
 10
0.7429243405
 20
23.3478723373
 11
0.8915092462
 21
23.4212765925
  0
LINE
  5
230
100
AcDbEntity
  8
0
100
AcDbLine
 62
7
  6
CONTINUOUS
 10
3.8136792471
 20
24.3021276712
 11
3.6650943414
 21
24.2287234247
  0
LINE
  5
231
100
AcDbEntity
  8
0
100
AcDbLine
 62
7
  6
CONTINUOUS
 10
4.9033022666
 20
23.3478723373
 11
5.0518871723
 21
23.4212765925
  0
LINE
  5
232
100
AcDbEntity
  8
0
100
AcDbLine
 62
7
  6
CONTINUOUS
 10
-3.9130434783
 20
26.0106382929
 11
-4.0217390268
 21
25.9734042548
  0
LINE
  5
233
100
AcDbEntity
  8
0
100
AcDbLine
 62
7
  6
CONTINUOUS
 10
-0.1981132066
 20
24.2042553425
 11
-0.0495283009
 21
24.2531915069
  0
LINE
  5
234
100
AcDbEntity
  8
0
100
AcDbLine
 62
7
  6
CONTINUOUS
 10
0.5943394348
 20
23.4457446747
 11
0.4457545292
 21
23.3968085103
  0
LINE
  5
235
100
AcDbEntity
  8
0
100
AcDbLine
 62
7
  6
CONTINUOUS
 10
3.9622641527
 20
24.2042553425
 11
4.1108490584
 21
24.2531915069
  0
LINE
  5
236
100
AcDbEntity
  8
0
100
AcDbLine
 62
7
  6
CONTINUOUS
 10
4.754717361
 20
23.4457446747
 11
4.6061324553
 21
23.3968085103
  0
LINE
  5
237
100
AcDbEntity
  8
0
100
AcDbLine
 62
7
  6
CONTINUOUS
 10
-3.873333416
 20
20.3062220176
 11
-3.96
 21
20.2785624464
  0
LINE
  5
238
100
AcDbEntity
  8
0
100
AcDbLine
 62
7
  6
CONTINUOUS
 10
-0.0990564138
 20
24.3755319178
 11
-0.3466981122
 21
24.3021276712
  0
LINE
  5
239
100
AcDbEntity
  8
0
100
AcDbLine
 62
7
  6
CONTINUOUS
 10
4.0613209455
 20
24.3755319178
 11
3.8136792471
 21
24.3021276712
  0
LINE
  5
23A
100
AcDbEntity
  8
0
100
AcDbLine
 62
7
  6
CONTINUOUS
 10
0.4952832089
 20
23.2744680843
 11
0.7429243405
 21
23.3478723373
  0
LINE
  5
23B
100
AcDbEntity
  8
0
100
AcDbLine
 62
7
  6
CONTINUOUS
 10
4.6556600014
 20
23.2744680843
 11
4.9033022666
 21
23.3478723373
  0
LINE
  5
23C
100
AcDbEntity
  8
0
100
AcDbLine
 62
7
  6
CONTINUOUS
 10
-5.325
 20
21.0253709261
 11
-5.346666646
 21
20.8870730703
  0
LINE
  5
23D
100
AcDbEntity
  8
0
100
AcDbLine
 62
7
  6
CONTINUOUS
 10
-3.75
 20
26.345744662
 11
-3.7771738094
 21
26.1968085095
  0
LINE
  5
23E
100
AcDbEntity
  8
0
100
AcDbLine
 62
7
  6
CONTINUOUS
 10
-6.2566666654
 20
21.2189880018
 11
-6.2783333327
 21
21.1083497171
  0
LINE
  5
23F
100
AcDbEntity
  8
0
100
AcDbLine
 62
7
  6
CONTINUOUS
 10
-5.541666646
 20
20.9423922126
 11
-5.52
 21
21.0530304973
  0
LINE
  5
240
100
AcDbEntity
  8
0
100
AcDbLine
 62
7
  6
CONTINUOUS
 10
-5.6793477743
 20
26.345744662
 11
-5.4347825569
 21
27.3510638475
  0
LINE
  5
241
100
AcDbEntity
  8
0
100
AcDbLine
 62
7
  6
CONTINUOUS
 10
-5.8152174431
 20
25.75
 11
-5.7065217391
 21
26.1968085095
  0
LINE
  5
242
100
AcDbEntity
  8
0
100
AcDbLine
 62
7
  6
CONTINUOUS
 10
-5.5434782609
 20
27.5
 11
-5.9782609214
 21
25.75
  0
LINE
  5
243
100
AcDbEntity
  8
0
100
AcDbLine
 62
7
  6
CONTINUOUS
 10
-6.4402173913
 20
27.5
 11
-6.847826087
 21
25.9361702166
  0
LINE
  5
244
100
AcDbEntity
  8
0
100
AcDbLine
 62
7
  6
CONTINUOUS
 10
-5.303333354
 20
21.1083497171
 11
-5.325
 21
21.0253709261
  0
LINE
  5
245
100
AcDbEntity
  8
0
100
AcDbLine
 62
7
  6
CONTINUOUS
 10
-4.61
 20
20.4168603216
 11
-4.588333292
 21
20.4998390351
  0
LINE
  5
246
100
AcDbEntity
  8
0
100
AcDbLine
 62
7
  6
CONTINUOUS
 10
-6.7391304607
 20
25.75
 11
-6.3586956522
 21
27.1276596189
  0
LINE
  5
247
100
AcDbEntity
  8
0
100
AcDbLine
 62
7
  6
CONTINUOUS
 10
-0.2702365
 20
31.6875675
 11
-0.900509
 21
29.489548
  0
LINE
  5
248
100
AcDbEntity
  8
0
100
AcDbLine
 62
7
  6
CONTINUOUS
 10
-0.563009
 20
28.312424
 11
0.0751865
 21
30.5381015
  0
LINE
  5
249
100
AcDbEntity
  8
0
100
AcDbLine
 62
7
  6
CONTINUOUS
 10
-5.0263115
 20
31.6875675
 11
-5.772448
 21
29.363593
  0
LINE
  5
24A
100
AcDbEntity
  8
0
100
AcDbLine
 62
7
  6
CONTINUOUS
 10
-5.4349315
 20
28.3124155
 11
-4.351278
 21
31.6875675
  0
LINE
  5
24B
100
AcDbEntity
  8
0
100
AcDbLine
 62
7
  6
CONTINUOUS
 10
-3.6684782609
 20
26.0106382929
 11
-3.6141303311
 21
26.1595744714
  0
LINE
  5
24C
100
AcDbEntity
  8
0
100
AcDbLine
 62
7
  6
CONTINUOUS
 10
-5.65
 20
21.0530304973
 11
-5.693333354
 21
20.9423922126
  0
LINE
  5
24D
100
AcDbEntity
  8
0
100
AcDbLine
 62
7
  6
CONTINUOUS
 10
-5.26
 20
21.2189880018
 11
-5.303333354
 21
21.1083497171
  0
LINE
  5
24E
100
AcDbEntity
  8
0
100
AcDbLine
 62
7
  6
CONTINUOUS
 10
-4.653333292
 20
20.3062220176
 11
-4.61
 21
20.4168603216
  0
LINE
  5
24F
100
AcDbEntity
  8
0
100
AcDbLine
 62
7
  6
CONTINUOUS
 10
-3.678333416
 20
20.3062220176
 11
-3.635
 21
20.4168603216
  0
LINE
  5
250
100
AcDbEntity
  8
0
100
AcDbLine
 62
7
  6
CONTINUOUS
 10
-0.6438679236
 20
24.0574467808
 11
-0.69339632
 21
23.9351063699
  0
LINE
  5
251
100
AcDbEntity
  8
0
100
AcDbLine
 62
7
  6
CONTINUOUS
 10
-3.7771738094
 20
26.1968085095
 11
-3.8315217391
 21
26.0851063952
  0
LINE
  5
252
100
AcDbEntity
  8
0
100
AcDbLine
 62
7
  6
CONTINUOUS
 10
-6.17
 20
21.1083497171
 11
-6.1266666615
 21
21.1913284306
  0
LINE
  5
253
100
AcDbEntity
  8
0
100
AcDbLine
 62
7
  6
CONTINUOUS
 10
-5.585
 20
20.8594134991
 11
-5.541666646
 21
20.9423922126
  0
LINE
  5
254
100
AcDbEntity
  8
0
100
AcDbLine
 62
7
  6
CONTINUOUS
 10
-5.216666708
 20
21.0253709261
 11
-5.13
 21
21.1913284306
  0
LINE
  5
255
100
AcDbEntity
  8
0
100
AcDbLine
 62
7
  6
CONTINUOUS
 10
-4.696666708
 20
20.4998390351
 11
-4.783333292
 21
20.3338815887
  0
LINE
  5
256
100
AcDbEntity
  8
0
100
AcDbLine
 62
7
  6
CONTINUOUS
 10
-3.765
 20
20.4445198928
 11
-3.808333416
 21
20.3615411793
  0
LINE
  5
257
100
AcDbEntity
  8
0
100
AcDbLine
 62
7
  6
CONTINUOUS
 10
-0.5943395273
 20
24.1308510959
 11
-0.6438679236
 21
24.0574467808
  0
LINE
  5
258
100
AcDbEntity
  8
0
100
AcDbLine
 62
7
  6
CONTINUOUS
 10
0.990566039
 20
23.5191489384
 11
1.0400941519
 21
23.5925531849
  0
LINE
  5
259
100
AcDbEntity
  8
0
100
AcDbLine
 62
7
  6
CONTINUOUS
 10
3.5660375486
 20
24.1308510959
 11
3.5165094357
 21
24.0574467808
  0
LINE
  5
25A
100
AcDbEntity
  8
0
100
AcDbLine
 62
7
  6
CONTINUOUS
 10
5.1509433983
 20
23.5191489384
 11
5.200472078
 21
23.5925531849
  0
LINE
  5
25B
100
AcDbEntity
  8
0
100
AcDbLine
 62
7
  6
CONTINUOUS
 10
-4.0613207545
 20
23.25
 11
-3.2688679714
 21
24.4
  0
LINE
  5
25C
100
AcDbEntity
  8
0
100
AcDbLine
 62
7
  6
CONTINUOUS
 10
-3.5660377828
 20
24.4
 11
-4.2594339857
 21
23.3968085103
  0
LINE
  5
25D
100
AcDbEntity
  8
0
100
AcDbLine
 62
7
  6
CONTINUOUS
 10
0.4920635
 20
20.551152
 11
0.893325
 21
21.1226105
  0
LINE
  5
25E
100
AcDbEntity
  8
0
100
AcDbLine
 62
7
  6
CONTINUOUS
 10
0.939199
 20
21.387395
 11
0.3482725
 21
20.568907
  0
LINE
  5
25F
100
AcDbEntity
  8
0
100
AcDbLine
 62
7
  6
CONTINUOUS
 10
-5.195
 20
21.3019667153
 11
-5.26
 21
21.2189880018
  0
LINE
  5
260
100
AcDbEntity
  8
0
100
AcDbLine
 62
7
  6
CONTINUOUS
 10
-4.718333292
 20
20.2232432944
 11
-4.653333292
 21
20.3062220176
  0
LINE
  5
261
100
AcDbEntity
  8
0
100
AcDbLine
 62
7
  6
CONTINUOUS
 10
-3.765
 20
20.1955837232
 11
-3.678333416
 21
20.3062220176
  0
LINE
  5
262
100
AcDbEntity
  8
0
100
AcDbLine
 62
7
  6
CONTINUOUS
 10
-1.3867924521
 20
24.2776595891
 11
-2.3773583955
 21
23.25
  0
LINE
  5
263
100
AcDbEntity
  8
0
100
AcDbLine
 62
7
  6
CONTINUOUS
 10
-2.0801885842
 20
23.25
 11
-1.0896226407
 21
24.2776595891
  0
LINE
  5
264
100
AcDbEntity
  8
0
100
AcDbLine
 62
7
  6
CONTINUOUS
 10
-0.4952830179
 20
24.2287234247
 11
-0.5943395273
 21
24.1308510959
  0
LINE
  5
265
100
AcDbEntity
  8
0
100
AcDbLine
 62
7
  6
CONTINUOUS
 10
0.8915092462
 20
23.4212765925
 11
0.990566039
 21
23.5191489384
  0
LINE
  5
266
100
AcDbEntity
  8
0
100
AcDbLine
 62
7
  6
CONTINUOUS
 10
3.6650943414
 20
24.2287234247
 11
3.5660375486
 21
24.1308510959
  0
LINE
  5
267
100
AcDbEntity
  8
0
100
AcDbLine
 62
7
  6
CONTINUOUS
 10
5.0518871723
 20
23.4212765925
 11
5.1509433983
 21
23.5191489384
  0
LINE
  5
268
100
AcDbEntity
  8
ASSI
100
AcDbLine
 62
7
  6
CONTINUOUS
 10
5.4092749048
 20
21.4091409197
 11
4.646593
 21
20.7664235
  0
LINE
  5
269
100
AcDbEntity
  8
ASSI
100
AcDbLine
 62
7
  6
CONTINUOUS
 10
4.646593
 20
20.432603
 11
5.3738878458
 21
21.0454988701
  0
LINE
  5
26A
100
AcDbEntity
  8
0
100
AcDbLine
 62
7
  6
CONTINUOUS
 10
3.7641511341
 20
24.0574467808
 11
3.9622641527
 21
24.2042553425
  0
LINE
  5
26B
100
AcDbEntity
  8
0
100
AcDbLine
 62
7
  6
CONTINUOUS
 10
4.9528298128
 20
23.5925531849
 11
4.754717361
 21
23.4457446747
  0
LINE
  5
26C
100
AcDbEntity
  8
0
100
AcDbLine
 62
7
  6
CONTINUOUS
 10
-8.0
 20
32.75
 11
-8.0
 21
17.75
  0
LINE
  5
26D
100
AcDbEntity
  8
0
100
AcDbLine
 62
7
  6
CONTINUOUS
 10
-7.5
 20
27.5
 11
-7.5
 21
25.75
  0
LINE
  5
26E
100
AcDbEntity
  8
0
100
AcDbLine
 62
7
  6
CONTINUOUS
 10
-7.3369565217
 20
25.75
 11
-7.3369565217
 21
27.1276596189
  0
LINE
  5
26F
100
AcDbEntity
  8
0
100
AcDbLine
 62
7
  6
CONTINUOUS
 10
-6.3586956522
 20
27.1276596189
 11
-6.3586956522
 21
25.75
  0
LINE
  5
270
100
AcDbEntity
  8
0
100
AcDbLine
 62
7
  6
CONTINUOUS
 10
-6.3
 20
20.2509028752
 11
-6.3
 21
20.112605
  0
LINE
  5
271
100
AcDbEntity
  8
0
100
AcDbLine
 62
7
  6
CONTINUOUS
 10
-6.1956521739
 20
25.75
 11
-6.1956521739
 21
27.5
  0
LINE
  5
272
100
AcDbEntity
  8
0
100
AcDbLine
 62
7
  6
CONTINUOUS
 10
-5.65
 20
21.1083497171
 11
-5.65
 21
21.0530304973
  0
LINE
  5
273
100
AcDbEntity
  8
0
100
AcDbLine
 62
7
  6
CONTINUOUS
 10
-5.52
 20
20.112605
 11
-5.52
 21
20.2509028752
  0
LINE
  5
274
100
AcDbEntity
  8
0
100
AcDbLine
 62
7
  6
CONTINUOUS
 10
-5.52
 20
21.0530304973
 11
-5.52
 21
21.1083497171
  0
LINE
  5
275
100
AcDbEntity
  8
0
100
AcDbLine
 62
7
  6
CONTINUOUS
 10
-5.346666646
 20
20.8870730703
 11
-5.346666646
 21
20.6381369297
  0
LINE
  5
276
100
AcDbEntity
  8
0
100
AcDbLine
 62
7
  6
CONTINUOUS
 10
-5.238333292
 20
20.6657965009
 11
-5.238333292
 21
20.8594134991
  0
LINE
  5
277
100
AcDbEntity
  8
0
100
AcDbLine
 62
7
  6
CONTINUOUS
 10
-4.675
 20
20.8594134991
 11
-4.675
 21
20.6657965009
  0
LINE
  5
278
100
AcDbEntity
  8
0
100
AcDbLine
 62
7
  6
CONTINUOUS
 10
-4.6739129398
 20
27.5
 11
-4.6739129398
 21
25.75
  0
LINE
  5
279
100
AcDbEntity
  8
0
100
AcDbLine
 62
7
  6
CONTINUOUS
 10
-4.566666708
 20
20.6381369297
 11
-4.566666708
 21
20.8870730703
  0
LINE
  5
27A
100
AcDbEntity
  8
0
100
AcDbLine
 62
7
  6
CONTINUOUS
 10
-4.5108694616
 20
25.9734042548
 11
-4.5108694616
 21
27.2765957713
  0
LINE
  5
27B
100
AcDbEntity
  8
0
100
AcDbLine
 62
7
  6
CONTINUOUS
 10
-3.901264
 20
31.6875675
 11
-3.901272
 21
28.312407
  0
LINE
  5
27C
100
AcDbEntity
  8
0
100
AcDbLine
 62
7
  6
CONTINUOUS
 10
-3.75
 20
26.9042552859
 11
-3.75
 21
26.345744662
  0
LINE
  5
27D
100
AcDbEntity
  8
0
100
AcDbLine
 62
7
  6
CONTINUOUS
 10
-3.743333416
 20
21.412605
 11
-3.743333416
 21
20.5551581775
  0
LINE
  5
27E
100
AcDbEntity
  8
0
100
AcDbLine
 62
7
  6
CONTINUOUS
 10
-3.613333416
 20
20.5551581775
 11
-3.613333416
 21
21.412605
  0
LINE
  5
27F
100
AcDbEntity
  8
0
100
AcDbLine
 62
7
  6
CONTINUOUS
 10
-3.5869565217
 20
26.345744662
 11
-3.5869565217
 21
26.9042552859
  0
LINE
  5
280
100
AcDbEntity
  8
0
100
AcDbLine
 62
7
  6
CONTINUOUS
 10
-3.3695651137
 20
27.5
 11
-3.3695651137
 21
25.75
  0
LINE
  5
281
100
AcDbEntity
  8
0
100
AcDbLine
 62
7
  6
CONTINUOUS
 10
-3.226247
 20
28.3124155
 11
-3.2262385
 21
31.6875675
  0
LINE
  5
282
100
AcDbEntity
  8
0
100
AcDbLine
 62
7
  6
CONTINUOUS
 10
-3.2065216355
 20
25.9734042548
 11
-3.2065216355
 21
26.5691489428
  0
LINE
  5
283
100
AcDbEntity
  8
0
100
AcDbLine
 62
7
  6
CONTINUOUS
 10
-3.2065216355
 20
26.7925531715
 11
-3.2065216355
 21
27.2765957713
  0
LINE
  5
284
100
AcDbEntity
  8
0
100
AcDbLine
 62
7
  6
CONTINUOUS
 10
-2.872641509
 20
24.4
 11
-2.872641509
 21
24.2776595891
  0
LINE
  5
285
100
AcDbEntity
  8
0
100
AcDbLine
 62
7
  6
CONTINUOUS
 10
-2.5512385
 20
31.6875675
 11
-2.5512385
 21
28.3124155
  0
LINE
  5
286
100
AcDbEntity
  8
0
100
AcDbLine
 62
7
  6
CONTINUOUS
 10
-2.5000001037
 20
26.5691489428
 11
-2.5000001037
 21
26.7925531715
  0
LINE
  5
287
100
AcDbEntity
  8
0
100
AcDbLine
 62
7
  6
CONTINUOUS
 10
-2.3913042442
 20
25.75
 11
-2.3913042442
 21
25.9734042548
  0
LINE
  5
288
100
AcDbEntity
  8
0
100
AcDbLine
 62
7
  6
CONTINUOUS
 10
-2.3913042442
 20
27.2765957713
 11
-2.3913042442
 21
27.5
  0
LINE
  5
289
100
AcDbEntity
  8
0
100
AcDbLine
 62
7
  6
CONTINUOUS
 10
-1.876213
 20
28.3124155
 11
-1.876213
 21
30.5381015
  0
LINE
  5
28A
100
AcDbEntity
  8
0
100
AcDbLine
 62
7
  6
CONTINUOUS
 10
-1.21241
 20
21.387395
 11
-1.21241
 21
20.112605
  0
LINE
  5
28B
100
AcDbEntity
  8
0
100
AcDbLine
 62
7
  6
CONTINUOUS
 10
-1.0896226407
 20
24.2776595891
 11
-1.0896226407
 21
24.4
  0
LINE
  5
28C
100
AcDbEntity
  8
0
100
AcDbLine
 62
7
  6
CONTINUOUS
 10
-1.0401635
 20
20.112605
 11
-1.0401635
 21
21.387395
  0
LINE
  5
28D
100
AcDbEntity
  8
0
100
AcDbLine
 62
7
  6
CONTINUOUS
 10
-0.8695650101
 20
27.5
 11
-0.8695650101
 21
25.75
  0
LINE
  5
28E
100
AcDbEntity
  8
0
100
AcDbLine
 62
7
  6
CONTINUOUS
 10
-0.7276765
 20
21.387395
 11
-0.7276765
 21
20.112605
  0
LINE
  5
28F
100
AcDbEntity
  8
0
100
AcDbLine
 62
7
  6
CONTINUOUS
 10
-0.7065215318
 20
25.75
 11
-0.7065215318
 21
27.5
  0
LINE
  5
290
100
AcDbEntity
  8
0
100
AcDbLine
 62
7
  6
CONTINUOUS
 10
-0.69339632
 20
23.9351063699
 11
-0.69339632
 21
23.7148936301
  0
LINE
  5
291
100
AcDbEntity
  8
0
100
AcDbLine
 62
7
  6
CONTINUOUS
 10
-0.5554775
 20
20.112605
 11
-0.5554775
 21
20.6505935
  0
LINE
  5
292
100
AcDbEntity
  8
0
100
AcDbLine
 62
7
  6
CONTINUOUS
 10
-0.5554775
 20
20.7979405
 11
-0.5554775
 21
21.240048
  0
LINE
  5
293
100
AcDbEntity
  8
0
100
AcDbLine
 62
7
  6
CONTINUOUS
 10
-0.4891304348
 20
27.5
 11
-0.4891304348
 21
25.75
  0
LINE
  5
294
100
AcDbEntity
  8
0
100
AcDbLine
 62
7
  6
CONTINUOUS
 10
-0.445754905
 20
23.7393617123
 11
-0.445754905
 21
23.9106382877
  0
LINE
  5
295
100
AcDbEntity
  8
ASSI
100
AcDbLine
 62
7
  6
CONTINUOUS
 10
-0.433777
 20
-39.2740185036
 11
-0.433777
 21
-38.8986100038
  0
LINE
  5
296
100
AcDbEntity
  8
ASSI
100
AcDbLine
 62
7
  6
CONTINUOUS
 10
-0.433777
 20
-37.10139
 11
-0.433777
 21
-36.7259815
  0
LINE
  5
297
100
AcDbEntity
  8
0
100
AcDbLine
 62
7
  6
CONTINUOUS
 10
-0.3260869565
 20
25.75
 11
-0.3260869565
 21
27.2765957713
  0
LINE
  5
298
100
AcDbEntity
  8
0
100
AcDbLine
 62
7
  6
CONTINUOUS
 10
0.0751865
 20
30.5381015
 11
0.075195
 21
28.3124155
  0
LINE
  5
299
100
AcDbEntity
  8
0
100
AcDbLine
 62
7
  6
CONTINUOUS
 10
0.3482725
 20
20.568907
 11
0.3482725
 21
20.4162285
  0
LINE
  5
29A
100
AcDbEntity
  8
0
100
AcDbLine
 62
7
  6
CONTINUOUS
 10
0.434782816
 20
27.5
 11
0.434782816
 21
26.0106382929
  0
LINE
  5
29B
100
AcDbEntity
  8
0
100
AcDbLine
 62
7
  6
CONTINUOUS
 10
0.5978262943
 20
25.75
 11
0.5978262943
 21
27.5
  0
LINE
  5
29C
100
AcDbEntity
  8
0
100
AcDbLine
 62
7
  6
CONTINUOUS
 10
0.7502205
 20
28.3124155
 11
0.7502205
 21
31.6875675
  0
LINE
  5
29D
100
AcDbEntity
  8
0
100
AcDbLine
 62
7
  6
CONTINUOUS
 10
0.8419811333
 20
23.9106382877
 11
0.8419811333
 21
23.7393617123
  0
LINE
  5
29E
100
AcDbEntity
  8
0
100
AcDbLine
 62
7
  6
CONTINUOUS
 10
0.893325
 20
21.1226105
 11
0.893325
 21
20.551152
  0
LINE
  5
29F
100
AcDbEntity
  8
0
100
AcDbLine
 62
7
  6
CONTINUOUS
 10
0.893325
 20
20.4162285
 11
0.893325
 21
20.112605
  0
LINE
  5
2A0
100
AcDbEntity
  8
0
100
AcDbLine
 62
7
  6
CONTINUOUS
 10
1.0495685
 20
20.112605
 11
1.0495685
 21
20.4162285
  0
LINE
  5
2A1
100
AcDbEntity
  8
0
100
AcDbLine
 62
7
  6
CONTINUOUS
 10
1.0495685
 20
20.551152
 11
1.0495685
 21
21.387395
  0
LINE
  5
2A2
100
AcDbEntity
  8
0
100
AcDbLine
 62
7
  6
CONTINUOUS
 10
1.0896228317
 20
23.7148936301
 11
1.0896228317
 21
23.9351063699
  0
LINE
  5
2A3
100
AcDbEntity
  8
0
100
AcDbLine
 62
7
  6
CONTINUOUS
 10
1.232468
 20
20.4162285
 11
1.232468
 21
20.551152
  0
LINE
  5
2A4
100
AcDbEntity
  8
0
100
AcDbLine
 62
7
  6
CONTINUOUS
 10
-5.238333292
 20
20.8594134991
 11
-5.216666708
 21
21.0253709261
  0
LINE
  5
2A5
100
AcDbEntity
  8
0
100
AcDbLine
 62
7
  6
CONTINUOUS
 10
-4.675
 20
20.6657965009
 11
-4.696666708
 21
20.4998390351
  0
LINE
  5
2A6
100
AcDbEntity
  8
0
100
AcDbLine
 62
7
  6
CONTINUOUS
 10
-3.6141303311
 20
26.1595744714
 11
-3.5869565217
 21
26.345744662
  0
LINE
  5
2A7
100
AcDbEntity
  8
0
100
AcDbLine
 62
7
  6
CONTINUOUS
 10
-4.588333292
 20
20.4998390351
 11
-4.566666708
 21
20.6381369297
  0
LINE
  5
2A8
100
AcDbEntity
  8
0
100
AcDbLine
 62
7
  6
CONTINUOUS
 10
-3.635
 20
20.4168603216
 11
-3.613333416
 21
20.5551581775
  0
LINE
  5
2A9
100
AcDbEntity
  8
0
100
AcDbLine
 62
7
  6
CONTINUOUS
 10
-3.743333416
 20
20.5551581775
 11
-3.765
 21
20.4445198928
  0
LINE
  5
2AA
100
AcDbEntity
  8
0
100
AcDbLine
 62
7
  6
CONTINUOUS
 10
4.0489134581
 20
26.345744662
 11
4.2934786755
 21
27.3510638475
  0
LINE
  5
2AB
100
AcDbEntity
  8
0
100
AcDbLine
 62
7
  6
CONTINUOUS
 10
3.9130434783
 20
25.75
 11
4.0217387158
 21
26.1968085095
  0
LINE
  5
2AC
100
AcDbEntity
  8
0
100
AcDbLine
 62
7
  6
CONTINUOUS
 10
4.1847821941
 20
27.5
 11
3.75
 21
25.75
  0
LINE
  5
2AD
100
AcDbEntity
  8
0
100
AcDbLine
 62
7
  6
CONTINUOUS
 10
2.283871
 20
31.687576
 11
1.2002345
 21
28.3124155
  0
LINE
  5
2AE
100
AcDbEntity
  8
0
100
AcDbLine
 62
7
  6
CONTINUOUS
 10
1.8752595
 20
28.312424
 11
2.0883655
 21
28.9761685
  0
LINE
  5
2AF
100
AcDbEntity
  8
0
100
AcDbLine
 62
7
  6
CONTINUOUS
 10
2.294266
 20
29.6174435
 11
2.6213965
 21
30.63639
  0
LINE
  5
2B0
100
AcDbEntity
  8
0
100
AcDbLine
 62
7
  6
CONTINUOUS
 10
0.8419811333
 20
23.7393617123
 11
0.7924530203
 21
23.5925531849
  0
LINE
  5
2B1
100
AcDbEntity
  8
0
100
AcDbLine
 62
7
  6
CONTINUOUS
 10
-0.445754905
 20
23.9106382877
 11
-0.3962262252
 21
24.0574467808
  0
LINE
  5
2B2
100
AcDbEntity
  8
0
100
AcDbLine
 62
7
  6
CONTINUOUS
 10
3.7146224543
 20
23.9106382877
 11
3.7641511341
 21
24.0574467808
  0
LINE
  5
2B3
100
AcDbEntity
  8
0
100
AcDbLine
 62
7
  6
CONTINUOUS
 10
5.0023584926
 20
23.7393617123
 11
4.9528298128
 21
23.5925531849
  0
LINE
  5
2B4
100
AcDbEntity
  8
0
100
AcDbLine
 62
7
  6
CONTINUOUS
 10
1.0400941519
 20
23.5925531849
 11
1.0896228317
 21
23.7148936301
  0
LINE
  5
2B5
100
AcDbEntity
  8
0
100
AcDbLine
 62
7
  6
CONTINUOUS
 10
3.5165094357
 20
24.0574467808
 11
3.4669813227
 21
23.9351063699
  0
LINE
  5
2B6
100
AcDbEntity
  8
0
100
AcDbLine
 62
7
  6
CONTINUOUS
 10
5.200472078
 20
23.5925531849
 11
5.2499996242
 21
23.7148936301
  0
LINE
  5
2B7
100
AcDbEntity
  8
0
100
AcDbLine
 62
7
  6
CONTINUOUS
 10
7.1195648028
 20
27.5
 11
6.7663043478
 21
26.7925531715
  0
LINE
  5
2B8
100
AcDbEntity
  8
0
100
AcDbLine
 62
7
  6
CONTINUOUS
 10
6.847826087
 20
26.6436170191
 11
7.282608281
 21
27.5
  0
LINE
  5
2B9
100
AcDbEntity
  8
ASSI
100
AcDbLine
 62
7
  6
CONTINUOUS
 10
3.8706640257
 20
19.3787265457
 11
3.9957879032
 21
19.6016573276
  0
LINE
  5
2BA
100
AcDbEntity
  8
ASSI
100
AcDbLine
 62
7
  6
CONTINUOUS
 10
5.4843985
 20
18.3934505
 11
5.6262445
 21
18.5945385
  0
LINE
  5
2BB
100
AcDbEntity
  8
0
100
AcDbLine
 62
7
  6
CONTINUOUS
 10
-7.3369565217
 20
27.1276596189
 11
-6.9565217521
 21
25.75
  0
LINE
  5
2BC
100
AcDbEntity
  8
0
100
AcDbLine
 62
7
  6
CONTINUOUS
 10
-5.325
 20
20.4998390351
 11
-5.303333354
 21
20.4168603216
  0
LINE
  5
2BD
100
AcDbEntity
  8
0
100
AcDbLine
 62
7
  6
CONTINUOUS
 10
-4.588333292
 20
21.0253709261
 11
-4.61
 21
21.1083497171
  0
LINE
  5
2BE
100
AcDbEntity
  8
0
100
AcDbLine
 62
7
  6
CONTINUOUS
 10
-6.847826087
 20
25.9361702166
 11
-7.2554347826
 21
27.5
  0
LINE
  5
2BF
100
AcDbEntity
  8
0
100
AcDbLine
 62
7
  6
CONTINUOUS
 10
-5.1630435301
 20
26.1968085095
 11
-5.0543478261
 21
25.75
  0
LINE
  5
2C0
100
AcDbEntity
  8
0
100
AcDbLine
 62
7
  6
CONTINUOUS
 10
-5.4347825569
 20
27.3510638475
 11
-5.1902173395
 21
26.345744662
  0
LINE
  5
2C1
100
AcDbEntity
  8
0
100
AcDbLine
 62
7
  6
CONTINUOUS
 10
-5.52
 20
21.1083497171
 11
-5.541666646
 21
21.2189880018
  0
LINE
  5
2C2
100
AcDbEntity
  8
0
100
AcDbLine
 62
7
  6
CONTINUOUS
 10
-4.241666708
 20
20.4445198928
 11
-4.263333292
 21
20.5551581775
  0
LINE
  5
2C3
100
AcDbEntity
  8
0
100
AcDbLine
 62
7
  6
CONTINUOUS
 10
-3.7771738094
 20
27.0531914383
 11
-3.75
 21
26.9042552859
  0
LINE
  5
2C4
100
AcDbEntity
  8
0
100
AcDbLine
 62
7
  6
CONTINUOUS
 10
-5.346666646
 20
20.6381369297
 11
-5.325
 21
20.4998390351
  0
LINE
  5
2C5
100
AcDbEntity
  8
0
100
AcDbLine
 62
7
  6
CONTINUOUS
 10
-4.566666708
 20
20.8870730703
 11
-4.588333292
 21
21.0253709261
  0
LINE
  5
2C6
100
AcDbEntity
  8
0
100
AcDbLine
 62
7
  6
CONTINUOUS
 10
-4.393333292
 20
20.5551581775
 11
-4.371666708
 21
20.4168603216
  0
LINE
  5
2C7
100
AcDbEntity
  8
0
100
AcDbLine
 62
7
  6
CONTINUOUS
 10
-3.5869565217
 20
26.9042552859
 11
-3.6141303311
 21
27.0904255807
  0
LINE
  5
2C8
100
AcDbEntity
  8
0
100
AcDbLine
 62
7
  6
CONTINUOUS
 10
-5.216666708
 20
20.4998390351
 11
-5.238333292
 21
20.6657965009
  0
LINE
  5
2C9
100
AcDbEntity
  8
0
100
AcDbLine
 62
7
  6
CONTINUOUS
 10
-4.696666708
 20
21.0253709261
 11
-4.675
 21
20.8594134991
  0
LINE
  5
2CA
100
AcDbEntity
  8
0
100
AcDbLine
 62
7
  6
CONTINUOUS
 10
1.485848869
 20
24.2287234247
 11
1.485848869
 21
24.0329786986
  0
LINE
  5
2CB
100
AcDbEntity
  8
ASSI
100
AcDbLine
 62
7
  6
CONTINUOUS
 10
1.558778
 20
-38.1875
 11
1.558778
 21
-37.8125
  0
LINE
  5
2CC
100
AcDbEntity
  8
ASSI
100
AcDbLine
 62
7
  6
CONTINUOUS
 10
1.758778
 20
-39.2740185624
 11
1.758778
 21
-38.8986083777
  0
LINE
  5
2CD
100
AcDbEntity
  8
ASSI
100
AcDbLine
 62
7
  6
CONTINUOUS
 10
1.758778
 20
-37.10139
 11
1.758778
 21
-36.7259815341
  0
LINE
  5
2CE
100
AcDbEntity
  8
0
100
AcDbLine
 62
7
  6
CONTINUOUS
 10
1.7830186804
 20
24.2042553425
 11
1.7830186804
 21
23.25
  0
LINE
  5
2CF
100
AcDbEntity
  8
0
100
AcDbLine
 62
7
  6
CONTINUOUS
 10
2.0801884917
 20
23.25
 11
2.0801884917
 21
24.4
  0
LINE
  5
2D0
100
AcDbEntity
  8
0
100
AcDbLine
 62
7
  6
CONTINUOUS
 10
2.1195652174
 20
27.5
 11
2.1195652174
 21
25.75
  0
LINE
  5
2D1
100
AcDbEntity
  8
0
100
AcDbLine
 62
7
  6
CONTINUOUS
 10
2.2826086957
 20
25.75
 11
2.2826086957
 21
27.5
  0
LINE
  5
2D2
100
AcDbEntity
  8
0
100
AcDbLine
 62
7
  6
CONTINUOUS
 10
2.4764150959
 20
24.2287234247
 11
2.4764150959
 21
24.0329786986
  0
LINE
  5
2D3
100
AcDbEntity
  8
0
100
AcDbLine
 62
7
  6
CONTINUOUS
 10
2.4999997927
 20
27.5
 11
2.4999997927
 21
27.3138298094
  0
LINE
  5
2D4
100
AcDbEntity
  8
0
100
AcDbLine
 62
7
  6
CONTINUOUS
 10
2.7735849072
 20
24.2042553425
 11
2.7735849072
 21
23.25
  0
LINE
  5
2D5
100
AcDbEntity
  8
0
100
AcDbLine
 62
7
  6
CONTINUOUS
 10
2.9347826087
 20
27.3138298094
 11
2.9347826087
 21
25.75
  0
LINE
  5
2D6
100
AcDbEntity
  8
0
100
AcDbLine
 62
7
  6
CONTINUOUS
 10
3.0707547186
 20
23.25
 11
3.0707547186
 21
24.4
  0
LINE
  5
2D7
100
AcDbEntity
  8
0
100
AcDbLine
 62
7
  6
CONTINUOUS
 10
3.097826087
 20
25.75
 11
3.097826087
 21
27.3138298094
  0
LINE
  5
2D8
100
AcDbEntity
  8
0
100
AcDbLine
 62
7
  6
CONTINUOUS
 10
3.4669813227
 20
23.9351063699
 11
3.4669813227
 21
23.7148936301
  0
LINE
  5
2D9
100
AcDbEntity
  8
0
100
AcDbLine
 62
7
  6
CONTINUOUS
 10
3.532608281
 20
27.3138298094
 11
3.532608281
 21
27.5
  0
LINE
  5
2DA
100
AcDbEntity
  8
0
100
AcDbLine
 62
7
  6
CONTINUOUS
 10
3.7146224543
 20
23.7393617123
 11
3.7146224543
 21
23.9106382877
  0
LINE
  5
2DB
100
AcDbEntity
  8
ASSI
100
AcDbLine
 62
7
  6
CONTINUOUS
 10
4.1161195
 20
19.52831
 11
4.1161195
 21
19.2564855
  0
LINE
  5
2DC
100
AcDbEntity
  8
ASSI
100
AcDbLine
 62
7
  6
CONTINUOUS
 10
4.1249965
 20
21.7328065
 11
4.1249965
 21
21.459487
  0
LINE
  5
2DD
100
AcDbEntity
  8
ASSI
100
AcDbLine
 62
7
  6
CONTINUOUS
 10
4.3570145
 20
21.459487
 11
4.3570145
 21
20.7664235
  0
LINE
  5
2DE
100
AcDbEntity
  8
ASSI
100
AcDbLine
 62
7
  6
CONTINUOUS
 10
4.3570145
 20
20.429563
 11
4.3570145
 21
19.52831
  0
LINE
  5
2DF
100
AcDbEntity
  8
0
100
AcDbLine
 62
7
  6
CONTINUOUS
 10
4.4925975
 20
31.687576
 11
4.4925975
 21
28.312424
  0
LINE
  5
2E0
100
AcDbEntity
  8
ASSI
100
AcDbLine
 62
7
  6
CONTINUOUS
 10
4.646593
 20
19.52831
 11
4.646593
 21
20.432603
  0
LINE
  5
2E1
100
AcDbEntity
  8
ASSI
100
AcDbLine
 62
7
  6
CONTINUOUS
 10
4.646593
 20
20.7664235
 11
4.646593
 21
21.459487
  0
LINE
  5
2E2
100
AcDbEntity
  8
ASSI
100
AcDbLine
 62
7
  6
CONTINUOUS
 10
4.878517
 20
21.459487
 11
4.878517
 21
21.7328065
  0
LINE
  5
2E3
100
AcDbEntity
  8
ASSI
100
AcDbLine
 62
7
  6
CONTINUOUS
 10
4.887394
 20
19.2564855
 11
4.887394
 21
19.52831
  0
LINE
  5
2E4
100
AcDbEntity
  8
0
100
AcDbLine
 62
7
  6
CONTINUOUS
 10
5.0023584926
 20
23.9106382877
 11
5.0023584926
 21
23.7393617123
  0
LINE
  5
2E5
100
AcDbEntity
  8
0
100
AcDbLine
 62
7
  6
CONTINUOUS
 10
5.0543478261
 20
27.5
 11
5.0543478261
 21
25.75
  0
LINE
  5
2E6
100
AcDbEntity
  8
0
100
AcDbLine
 62
7
  6
CONTINUOUS
 10
5.1583245
 20
30.2418525
 11
5.1583165
 21
31.0631755
  0
LINE
  5
2E7
100
AcDbEntity
  8
0
100
AcDbLine
 62
7
  6
CONTINUOUS
 10
5.2173913043
 20
25.9734042548
 11
5.2173913043
 21
27.5
  0
LINE
  5
2E8
100
AcDbEntity
  8
0
100
AcDbLine
 62
7
  6
CONTINUOUS
 10
5.2499996242
 20
23.7148936301
 11
5.2499996242
 21
23.9351063699
  0
LINE
  5
2E9
100
AcDbEntity
  8
0
100
AcDbLine
 62
7
  6
CONTINUOUS
 10
6.0326086957
 20
25.75
 11
6.0326086957
 21
25.9734042548
  0
LINE
  5
2EA
100
AcDbEntity
  8
0
100
AcDbLine
 62
7
  6
CONTINUOUS
 10
6.6847826087
 20
26.6436170191
 11
6.6847826087
 21
25.75
  0
LINE
  5
2EB
100
AcDbEntity
  8
0
100
AcDbLine
 62
7
  6
CONTINUOUS
 10
6.847826087
 20
25.75
 11
6.847826087
 21
26.6436170191
  0
LINE
  5
2EC
100
AcDbEntity
  8
0
100
AcDbLine
 62
7
  6
CONTINUOUS
 10
8.0
 20
17.75
 11
8.0
 21
32.75
  0
LINE
  5
2ED
100
AcDbEntity
  8
0
100
AcDbLine
 62
7
  6
CONTINUOUS
 10
5.1676315
 20
28.312424
 11
5.167707
 21
29.617452
  0
LINE
  5
2EE
100
AcDbEntity
  8
0
100
AcDbLine
 62
7
  6
CONTINUOUS
 10
-5.26
 20
20.3062220176
 11
-5.195
 21
20.2232432944
  0
LINE
  5
2EF
100
AcDbEntity
  8
0
100
AcDbLine
 62
7
  6
CONTINUOUS
 10
-5.541666646
 20
21.2189880018
 11
-5.628333354
 21
21.3296262865
  0
LINE
  5
2F0
100
AcDbEntity
  8
0
100
AcDbLine
 62
7
  6
CONTINUOUS
 10
-4.328333292
 20
20.3062220176
 11
-4.241666708
 21
20.1955837232
  0
LINE
  5
2F1
100
AcDbEntity
  8
0
100
AcDbLine
 62
7
  6
CONTINUOUS
 10
-4.653333292
 20
21.2189880018
 11
-4.718333292
 21
21.3019667153
  0
LINE
  5
2F2
100
AcDbEntity
  8
0
100
AcDbLine
 62
7
  6
CONTINUOUS
 10
-4.2594339857
 20
23.3968085103
 11
-4.9528301886
 21
24.4
  0
LINE
  5
2F3
100
AcDbEntity
  8
0
100
AcDbLine
 62
7
  6
CONTINUOUS
 10
-5.25
 20
24.4
 11
-4.457547146
 21
23.25
  0
LINE
  5
2F4
100
AcDbEntity
  8
0
100
AcDbLine
 62
7
  6
CONTINUOUS
 10
-5.693333354
 20
21.1913284306
 11
-5.65
 21
21.1083497171
  0
LINE
  5
2F5
100
AcDbEntity
  8
0
100
AcDbLine
 62
7
  6
CONTINUOUS
 10
-5.13
 20
20.3338815887
 11
-5.216666708
 21
20.4998390351
  0
LINE
  5
2F6
100
AcDbEntity
  8
0
100
AcDbLine
 62
7
  6
CONTINUOUS
 10
-4.783333292
 20
21.1913284306
 11
-4.696666708
 21
21.0253709261
  0
LINE
  5
2F7
100
AcDbEntity
  8
0
100
AcDbLine
 62
7
  6
CONTINUOUS
 10
-4.198333416
 20
20.3615411793
 11
-4.241666708
 21
20.4445198928
  0
LINE
  5
2F8
100
AcDbEntity
  8
0
100
AcDbLine
 62
7
  6
CONTINUOUS
 10
-3.8315217391
 20
27.164893657
 11
-3.7771738094
 21
27.0531914383
  0
LINE
  5
2F9
100
AcDbEntity
  8
0
100
AcDbLine
 62
7
  6
CONTINUOUS
 10
-0.3260869565
 20
27.2765957713
 11
0.3532610769
 21
25.75
  0
LINE
  5
2FA
100
AcDbEntity
  8
0
100
AcDbLine
 62
7
  6
CONTINUOUS
 10
-0.69339632
 20
23.7148936301
 11
-0.6438679236
 21
23.5925531849
  0
LINE
  5
2FB
100
AcDbEntity
  8
0
100
AcDbLine
 62
7
  6
CONTINUOUS
 10
1.0896228317
 20
23.9351063699
 11
1.0400941519
 21
24.0574467808
  0
LINE
  5
2FC
100
AcDbEntity
  8
0
100
AcDbLine
 62
7
  6
CONTINUOUS
 10
-5.303333354
 20
20.4168603216
 11
-5.26
 21
20.3062220176
  0
LINE
  5
2FD
100
AcDbEntity
  8
0
100
AcDbLine
 62
7
  6
CONTINUOUS
 10
-4.371666708
 20
20.4168603216
 11
-4.328333292
 21
20.3062220176
  0
LINE
  5
2FE
100
AcDbEntity
  8
0
100
AcDbLine
 62
7
  6
CONTINUOUS
 10
-4.61
 20
21.1083497171
 11
-4.653333292
 21
21.2189880018
  0
LINE
  5
2FF
100
AcDbEntity
  8
0
100
AcDbLine
 62
7
  6
CONTINUOUS
 10
-3.6141303311
 20
27.0904255807
 11
-3.6684782609
 21
27.2393617332
  0
LINE
  5
300
100
AcDbEntity
  8
0
100
AcDbLine
 62
7
  6
CONTINUOUS
 10
-0.3962262252
 20
23.5925531849
 11
-0.445754905
 21
23.7393617123
  0
LINE
  5
301
100
AcDbEntity
  8
0
100
AcDbLine
 62
7
  6
CONTINUOUS
 10
0.7924530203
 20
24.0574467808
 11
0.8419811333
 21
23.9106382877
  0
LINE
  5
302
100
AcDbEntity
  8
0
100
AcDbLine
 62
7
  6
CONTINUOUS
 10
-7.193627
 20
31.6875675
 11
-6.109982
 21
28.312407
  0
LINE
  5
303
100
AcDbEntity
  8
0
100
AcDbLine
 62
7
  6
CONTINUOUS
 10
-5.772448
 20
29.363593
 11
-6.518593
 21
31.6875675
  0
LINE
  5
304
100
AcDbEntity
  8
0
100
AcDbLine
 62
7
  6
CONTINUOUS
 10
-1.876213
 20
30.5381015
 11
-1.2380175
 21
28.3124155
  0
LINE
  5
305
100
AcDbEntity
  8
0
100
AcDbLine
 62
7
  6
CONTINUOUS
 10
-0.900509
 20
29.489548
 11
-1.530782
 21
31.6875675
  0
LINE
  5
306
100
AcDbEntity
  8
0
100
AcDbLine
 62
7
  6
CONTINUOUS
 10
-4.8913043478
 20
25.75
 11
-5.3260870084
 21
27.5
  0
LINE
  5
307
100
AcDbEntity
  8
0
100
AcDbLine
 62
7
  6
CONTINUOUS
 10
4.8369561071
 20
25.75
 11
4.402173913
 21
27.5
  0
LINE
  5
308
100
AcDbEntity
  8
0
100
AcDbLine
 62
7
  6
CONTINUOUS
 10
4.5652173913
 20
26.1968085095
 11
4.6739126288
 21
25.75
  0
LINE
  5
309
100
AcDbEntity
  8
0
100
AcDbLine
 62
7
  6
CONTINUOUS
 10
4.2934786755
 20
27.3510638475
 11
4.5380438929
 21
26.345744662
  0
LINE
  5
30A
100
AcDbEntity
  8
0
100
AcDbLine
 62
7
  6
CONTINUOUS
 10
-3.96
 20
20.112605
 11
-3.851666584
 21
20.1402645736
  0
LINE
  5
30B
100
AcDbEntity
  8
0
100
AcDbLine
 62
7
  6
CONTINUOUS
 10
-8.0
 20
17.75
 11
8.0
 21
17.75
  0
LINE
  5
30C
100
AcDbEntity
  8
ASSI
100
AcDbLine
 62
7
  6
CONTINUOUS
 10
4.1161195
 20
19.2564855
 11
4.887394
 21
19.2564855
  0
LINE
  5
30D
100
AcDbEntity
  8
ASSI
100
AcDbLine
 62
7
  6
CONTINUOUS
 10
4.887394
 20
19.52831
 11
4.646593
 21
19.52831
  0
LINE
  5
30E
100
AcDbEntity
  8
ASSI
100
AcDbLine
 62
7
  6
CONTINUOUS
 10
4.3570145
 20
19.52831
 11
4.1161195
 21
19.52831
  0
LINE
  5
30F
100
AcDbEntity
  8
0
100
AcDbLine
 62
7
  6
CONTINUOUS
 10
-6.3
 20
20.112605
 11
-5.52
 21
20.112605
  0
LINE
  5
310
100
AcDbEntity
  8
0
100
AcDbLine
 62
7
  6
CONTINUOUS
 10
-4.046666584
 20
20.112605
 11
-3.96
 21
20.112605
  0
LINE
  5
311
100
AcDbEntity
  8
0
100
AcDbLine
 62
7
  6
CONTINUOUS
 10
-1.21241
 20
20.112605
 11
-1.0401635
 21
20.112605
  0
LINE
  5
312
100
AcDbEntity
  8
0
100
AcDbLine
 62
7
  6
CONTINUOUS
 10
-0.7276765
 20
20.112605
 11
-0.5554775
 21
20.112605
  0
LINE
  5
313
100
AcDbEntity
  8
0
100
AcDbLine
 62
7
  6
CONTINUOUS
 10
0.893325
 20
20.112605
 11
1.0495685
 21
20.112605
  0
LINE
  5
314
100
AcDbEntity
  8
0
100
AcDbLine
 62
7
  6
CONTINUOUS
 10
-5.52
 20
20.2509028752
 11
-6.1266666615
 21
20.2509028752
  0
LINE
  5
315
100
AcDbEntity
  8
0
100
AcDbLine
 62
7
  6
CONTINUOUS
 10
-3.96
 20
20.2785624464
 11
-4.046666584
 21
20.2785624464
  0
LINE
  5
316
100
AcDbEntity
  8
0
100
AcDbLine
 62
7
  6
CONTINUOUS
 10
0.3482725
 20
20.4162285
 11
0.893325
 21
20.4162285
  0
LINE
  5
317
100
AcDbEntity
  8
0
100
AcDbLine
 62
7
  6
CONTINUOUS
 10
1.0495685
 20
20.4162285
 11
1.232468
 21
20.4162285
  0
LINE
  5
318
100
AcDbEntity
  8
0
100
AcDbLine
 62
7
  6
CONTINUOUS
 10
-5.086666708
 20
20.1402645736
 11
-4.956666708
 21
20.112605
  0
LINE
  5
319
100
AcDbEntity
  8
0
100
AcDbLine
 62
7
  6
CONTINUOUS
 10
-5.715
 20
21.3849454288
 11
-5.845
 21
21.412605
  0
LINE
  5
31A
100
AcDbEntity
  8
0
100
AcDbLine
 62
7
  6
CONTINUOUS
 10
-4.826666708
 20
21.3849454288
 11
-4.956666708
 21
21.412605
  0
LINE
  5
31B
100
AcDbEntity
  8
0
100
AcDbLine
 62
7
  6
CONTINUOUS
 10
-4.956666708
 20
20.2509028752
 11
-5.065
 21
20.2785624464
  0
LINE
  5
31C
100
AcDbEntity
  8
0
100
AcDbLine
 62
7
  6
CONTINUOUS
 10
-4.155
 20
20.1402645736
 11
-4.046666584
 21
20.112605
  0
LINE
  5
31D
100
AcDbEntity
  8
0
100
AcDbLine
 62
7
  6
CONTINUOUS
 10
-5.866666677
 20
21.2743071441
 11
-5.758333354
 21
21.246647573
  0
LINE
  5
31E
100
AcDbEntity
  8
0
100
AcDbLine
 62
7
  6
CONTINUOUS
 10
-4.956666708
 20
21.2743071441
 11
-4.848333292
 21
21.246647573
  0
LINE
  5
31F
100
AcDbEntity
  8
0
100
AcDbLine
 62
7
  6
CONTINUOUS
 10
-4.046666584
 20
20.2785624464
 11
-4.133333416
 21
20.3062220176
  0
LINE
  5
320
100
AcDbEntity
  8
0
100
AcDbLine
 62
7
  6
CONTINUOUS
 10
-4.241666708
 20
20.1955837232
 11
-4.155
 21
20.1402645736
  0
LINE
  5
321
100
AcDbEntity
  8
0
100
AcDbLine
 62
7
  6
CONTINUOUS
 10
-5.628333354
 20
21.3296262865
 11
-5.715
 21
21.3849454288
  0
LINE
  5
322
100
AcDbEntity
  8
0
100
AcDbLine
 62
7
  6
CONTINUOUS
 10
-3.7771738094
 20
27.3882978857
 11
-3.8858696689
 21
27.4627659619
  0
LINE
  5
323
100
AcDbEntity
  8
0
100
AcDbLine
 62
7
  6
CONTINUOUS
 10
-0.1981132066
 20
23.4457446747
 11
-0.3962262252
 21
23.5925531849
  0
LINE
  5
324
100
AcDbEntity
  8
0
100
AcDbLine
 62
7
  6
CONTINUOUS
 10
0.5943394348
 20
24.2042553425
 11
0.7924530203
 21
24.0574467808
  0
LINE
  5
325
100
AcDbEntity
  8
0
100
AcDbLine
 62
7
  6
CONTINUOUS
 10
-5.195
 20
20.2232432944
 11
-5.086666708
 21
20.1402645736
  0
LINE
  5
326
100
AcDbEntity
  8
0
100
AcDbLine
 62
7
  6
CONTINUOUS
 10
-4.718333292
 20
21.3019667153
 11
-4.826666708
 21
21.3849454288
  0
LINE
  5
327
100
AcDbEntity
  8
ASSI
100
AcDbLine
 62
7
  6
CONTINUOUS
 10
3.626112
 20
21.045499
 11
4.3570145
 21
20.429563
  0
LINE
  5
328
100
AcDbEntity
  8
ASSI
100
AcDbLine
 62
7
  6
CONTINUOUS
 10
4.3570145
 20
20.7664235
 11
3.592376
 21
21.410789
  0
LINE
  5
329
100
AcDbEntity
  8
0
100
AcDbLine
 62
7
  6
CONTINUOUS
 10
-5.065
 20
20.2785624464
 11
-5.13
 21
20.3338815887
  0
LINE
  5
32A
100
AcDbEntity
  8
0
100
AcDbLine
 62
7
  6
CONTINUOUS
 10
-5.758333354
 20
21.246647573
 11
-5.693333354
 21
21.1913284306
  0
LINE
  5
32B
100
AcDbEntity
  8
0
100
AcDbLine
 62
7
  6
CONTINUOUS
 10
-4.133333416
 20
20.3062220176
 11
-4.198333416
 21
20.3615411793
  0
LINE
  5
32C
100
AcDbEntity
  8
0
100
AcDbLine
 62
7
  6
CONTINUOUS
 10
-4.848333292
 20
21.246647573
 11
-4.783333292
 21
21.1913284306
  0
LINE
  5
32D
100
AcDbEntity
  8
0
100
AcDbLine
 62
7
  6
CONTINUOUS
 10
-3.9130434783
 20
27.2393617332
 11
-3.8315217391
 21
27.164893657
  0
LINE
  5
32E
100
AcDbEntity
  8
0
100
AcDbLine
 62
7
  6
CONTINUOUS
 10
-0.5943395273
 20
23.5191489384
 11
-0.4952830179
 21
23.4212765925
  0
LINE
  5
32F
100
AcDbEntity
  8
0
100
AcDbLine
 62
7
  6
CONTINUOUS
 10
0.990566039
 20
24.1308510959
 11
0.8915092462
 21
24.2287234247
  0
LINE
  5
330
100
AcDbEntity
  8
0
100
AcDbLine
 62
7
  6
CONTINUOUS
 10
3.5660375486
 20
23.5191489384
 11
3.6650943414
 21
23.4212765925
  0
LINE
  5
331
100
AcDbEntity
  8
0
100
AcDbLine
 62
7
  6
CONTINUOUS
 10
-3.6684782609
 20
27.2393617332
 11
-3.7771738094
 21
27.3882978857
  0
LINE
  5
332
100
AcDbEntity
  8
0
100
AcDbLine
 62
7
  6
CONTINUOUS
 10
-0.6438679236
 20
23.5925531849
 11
-0.5943395273
 21
23.5191489384
  0
LINE
  5
333
100
AcDbEntity
  8
0
100
AcDbLine
 62
7
  6
CONTINUOUS
 10
1.0400941519
 20
24.0574467808
 11
0.990566039
 21
24.1308510959
  0
LINE
  5
334
100
AcDbEntity
  8
0
100
AcDbLine
 62
7
  6
CONTINUOUS
 10
3.5165094357
 20
23.5925531849
 11
3.5660375486
 21
23.5191489384
  0
LINE
  5
335
100
AcDbEntity
  8
0
100
AcDbLine
 62
7
  6
CONTINUOUS
 10
5.200472078
 20
24.0574467808
 11
5.1509433983
 21
24.1308510959
  0
LINE
  5
336
100
AcDbEntity
  8
ASSI
100
AcDbLine
 62
7
  6
CONTINUOUS
 10
5.004212
 20
19.6016575
 11
5.129336
 21
19.3787265
  0
LINE
  5
337
100
AcDbEntity
  8
0
100
AcDbLine
 62
7
  6
CONTINUOUS
 10
5.7568555
 20
29.6174435
 11
6.4333155
 21
28.312424
  0
LINE
  5
338
100
AcDbEntity
  8
0
100
AcDbLine
 62
7
  6
CONTINUOUS
 10
7.193627
 20
28.3124325
 11
6.4750966619
 21
29.6986235815
  0
LINE
  5
339
100
AcDbEntity
  8
0
100
AcDbLine
 62
7
  6
CONTINUOUS
 10
6.2500004146
 20
27.5
 11
6.6847826087
 21
26.6436170191
  0
LINE
  5
33A
100
AcDbEntity
  8
0
100
AcDbLine
 62
7
  6
CONTINUOUS
 10
6.7663043478
 20
26.7925531715
 11
6.4130438929
 21
27.5
  0
LINE
  5
33B
100
AcDbEntity
  8
0
100
AcDbLine
 62
7
  6
CONTINUOUS
 10
0.434782816
 20
26.0106382929
 11
-0.2445652174
 21
27.5
  0
LINE
  5
33C
100
AcDbEntity
  8
0
100
AcDbLine
 62
7
  6
CONTINUOUS
 10
3.4669813227
 20
23.7148936301
 11
3.5165094357
 21
23.5925531849
  0
LINE
  5
33D
100
AcDbEntity
  8
0
100
AcDbLine
 62
7
  6
CONTINUOUS
 10
5.2499996242
 20
23.9351063699
 11
5.200472078
 21
24.0574467808
  0
LINE
  5
33E
100
AcDbEntity
  8
0
100
AcDbLine
 62
7
  6
CONTINUOUS
 10
3.7641511341
 20
23.5925531849
 11
3.7146224543
 21
23.7393617123
  0
LINE
  5
33F
100
AcDbEntity
  8
0
100
AcDbLine
 62
7
  6
CONTINUOUS
 10
4.9528298128
 20
24.0574467808
 11
5.0023584926
 21
23.9106382877
  0
LINE
  5
340
100
AcDbEntity
  8
0
100
AcDbLine
 62
7
  6
CONTINUOUS
 10
3.154452
 20
28.9761685
 11
3.3675495
 21
28.312424
  0
LINE
  5
341
100
AcDbEntity
  8
0
100
AcDbLine
 62
7
  6
CONTINUOUS
 10
2.6213965
 20
30.63639
 11
2.9485435
 21
29.6174435
  0
LINE
  5
342
100
AcDbEntity
  8
0
100
AcDbLine
 62
7
  6
CONTINUOUS
 10
4.0425835
 20
28.3124155
 11
2.95893
 21
31.687576
  0
LINE
  5
343
100
AcDbEntity
  8
0
100
AcDbLine
 62
7
  6
CONTINUOUS
 10
-4.0217390268
 20
25.75
 11
-3.8858696689
 21
25.7872340414
  0
LINE
  5
344
100
AcDbEntity
  8
0
100
AcDbLine
 62
7
  6
CONTINUOUS
 10
-4.848333292
 20
20.2785624464
 11
-4.956666708
 21
20.2509028752
  0
LINE
  5
345
100
AcDbEntity
  8
0
100
AcDbLine
 62
7
  6
CONTINUOUS
 10
-5.065
 20
21.246647573
 11
-4.956666708
 21
21.2743071441
  0
LINE
  5
346
100
AcDbEntity
  8
0
100
AcDbLine
 62
7
  6
CONTINUOUS
 10
-6.0616666615
 20
21.246647573
 11
-5.953333323
 21
21.2743071441
  0
LINE
  5
347
100
AcDbEntity
  8
0
100
AcDbLine
 62
7
  6
CONTINUOUS
 10
-4.956666708
 20
20.112605
 11
-4.826666708
 21
20.1402645736
  0
LINE
  5
348
100
AcDbEntity
  8
0
100
AcDbLine
 62
7
  6
CONTINUOUS
 10
-4.956666708
 20
21.412605
 11
-5.086666708
 21
21.3849454288
  0
LINE
  5
349
100
AcDbEntity
  8
0
100
AcDbLine
 62
7
  6
CONTINUOUS
 10
-5.931666677
 20
21.412605
 11
-6.0833333385
 21
21.3849454288
  0
LINE
  5
34A
100
AcDbEntity
  8
0
100
AcDbLine
 62
7
  6
CONTINUOUS
 10
4.6061324553
 20
23.3968085103
 11
4.35849019
 21
23.3723404281
  0
LINE
  5
34B
100
AcDbEntity
  8
0
100
AcDbLine
 62
7
  6
CONTINUOUS
 10
0.4457545292
 20
23.3968085103
 11
0.1981133975
 21
23.3723404281
  0
LINE
  5
34C
100
AcDbEntity
  8
0
100
AcDbLine
 62
7
  6
CONTINUOUS
 10
4.1108490584
 20
24.2531915069
 11
4.35849019
 21
24.2776595891
  0
LINE
  5
34D
100
AcDbEntity
  8
0
100
AcDbLine
 62
7
  6
CONTINUOUS
 10
-0.0495283009
 20
24.2531915069
 11
0.1981133975
 21
24.2776595891
  0
LINE
  5
34E
100
AcDbEntity
  8
0
100
AcDbLine
 62
7
  6
CONTINUOUS
 10
4.35849019
 20
23.25
 11
4.6556600014
 21
23.2744680843
  0
LINE
  5
34F
100
AcDbEntity
  8
0
100
AcDbLine
 62
7
  6
CONTINUOUS
 10
0.1981133975
 20
23.25
 11
0.4952832089
 21
23.2744680843
  0
LINE
  5
350
100
AcDbEntity
  8
0
100
AcDbLine
 62
7
  6
CONTINUOUS
 10
4.35849019
 20
24.4
 11
4.0613209455
 21
24.3755319178
  0
LINE
  5
351
100
AcDbEntity
  8
0
100
AcDbLine
 62
7
  6
CONTINUOUS
 10
0.1981133975
 20
24.4
 11
-0.0990564138
 21
24.3755319178
  0
LINE
  5
352
100
AcDbEntity
  8
0
100
AcDbLine
 62
7
  6
CONTINUOUS
 10
1.232468
 20
20.551152
 11
1.0495685
 21
20.551152
  0
LINE
  5
353
100
AcDbEntity
  8
0
100
AcDbLine
 62
7
  6
CONTINUOUS
 10
0.893325
 20
20.551152
 11
0.4920635
 21
20.551152
  0
LINE
  5
354
100
AcDbEntity
  8
0
100
AcDbLine
 62
7
  6
CONTINUOUS
 10
-4.263333292
 20
20.5551581775
 11
-4.393333292
 21
20.5551581775
  0
LINE
  5
355
100
AcDbEntity
  8
0
100
AcDbLine
 62
7
  6
CONTINUOUS
 10
-0.5554775
 20
20.6505935
 11
-0.1546178621
 21
20.6505935
  0
LINE
  5
356
100
AcDbEntity
  8
0
100
AcDbLine
 62
7
  6
CONTINUOUS
 10
-0.1947980689
 20
20.7979405
 11
-0.5554775
 21
20.7979405
  0
LINE
  5
357
100
AcDbEntity
  8
0
100
AcDbLine
 62
7
  6
CONTINUOUS
 10
-6.2783333327
 20
21.1083497171
 11
-6.17
 21
21.1083497171
  0
LINE
  5
358
100
AcDbEntity
  8
0
100
AcDbLine
 62
7
  6
CONTINUOUS
 10
-0.5554775
 20
21.240048
 11
-0.1947950048
 21
21.240048
  0
LINE
  5
359
100
AcDbEntity
  8
0
100
AcDbLine
 62
7
  6
CONTINUOUS
 10
-5.953333323
 20
21.2743071441
 11
-5.866666677
 21
21.2743071441
  0
LINE
  5
35A
100
AcDbEntity
  8
0
100
AcDbLine
 62
7
  6
CONTINUOUS
 10
1.0495685
 20
21.387395
 11
0.939199
 21
21.387395
  0
LINE
  5
35B
100
AcDbEntity
  8
0
100
AcDbLine
 62
7
  6
CONTINUOUS
 10
-0.1546151056
 20
21.387395
 11
-0.7276765
 21
21.387395
  0
LINE
  5
35C
100
AcDbEntity
  8
0
100
AcDbLine
 62
7
  6
CONTINUOUS
 10
-1.0401635
 20
21.387395
 11
-1.21241
 21
21.387395
  0
LINE
  5
35D
100
AcDbEntity
  8
0
100
AcDbLine
 62
7
  6
CONTINUOUS
 10
-3.613333416
 20
21.412605
 11
-3.743333416
 21
21.412605
  0
LINE
  5
35E
100
AcDbEntity
  8
0
100
AcDbLine
 62
7
  6
CONTINUOUS
 10
-5.845
 20
21.412605
 11
-5.931666677
 21
21.412605
  0
LINE
  5
35F
100
AcDbEntity
  8
ASSI
100
AcDbLine
 62
7
  6
CONTINUOUS
 10
4.1249965
 20
21.459487
 11
4.3570145
 21
21.459487
  0
LINE
  5
360
100
AcDbEntity
  8
ASSI
100
AcDbLine
 62
7
  6
CONTINUOUS
 10
4.646593
 20
21.459487
 11
4.878517
 21
21.459487
  0
LINE
  5
361
100
AcDbEntity
  8
ASSI
100
AcDbLine
 62
7
  6
CONTINUOUS
 10
4.878517
 20
21.7328065
 11
4.1249965
 21
21.7328065
  0
LINE
  5
362
100
AcDbEntity
  8
0
100
AcDbLine
 62
7
  6
CONTINUOUS
 10
-4.457547146
 20
23.25
 11
-4.0613207545
 21
23.25
  0
LINE
  5
363
100
AcDbEntity
  8
0
100
AcDbLine
 62
7
  6
CONTINUOUS
 10
-2.3773583955
 20
23.25
 11
-2.0801885842
 21
23.25
  0
LINE
  5
364
100
AcDbEntity
  8
0
100
AcDbLine
 62
7
  6
CONTINUOUS
 10
1.7830186804
 20
23.25
 11
2.0801884917
 21
23.25
  0
LINE
  5
365
100
AcDbEntity
  8
0
100
AcDbLine
 62
7
  6
CONTINUOUS
 10
2.7735849072
 20
23.25
 11
3.0707547186
 21
23.25
  0
LINE
  5
366
100
AcDbEntity
  8
0
100
AcDbLine
 62
7
  6
CONTINUOUS
 10
-2.872641509
 20
24.2776595891
 11
-1.3867924521
 21
24.2776595891
  0
LINE
  5
367
100
AcDbEntity
  8
0
100
AcDbLine
 62
7
  6
CONTINUOUS
 10
3.0707547186
 20
24.4
 11
2.7735849072
 21
24.4
  0
LINE
  5
368
100
AcDbEntity
  8
0
100
AcDbLine
 62
7
  6
CONTINUOUS
 10
2.0801884917
 20
24.4
 11
1.7830186804
 21
24.4
  0
LINE
  5
369
100
AcDbEntity
  8
0
100
AcDbLine
 62
7
  6
CONTINUOUS
 10
-1.0896226407
 20
24.4
 11
-2.872641509
 21
24.4
  0
LINE
  5
36A
100
AcDbEntity
  8
0
100
AcDbLine
 62
7
  6
CONTINUOUS
 10
-3.2688679714
 20
24.4
 11
-3.5660377828
 21
24.4
  0
LINE
  5
36B
100
AcDbEntity
  8
0
100
AcDbLine
 62
7
  6
CONTINUOUS
 10
-4.9528301886
 20
24.4
 11
-5.25
 21
24.4
  0
LINE
  5
36C
100
AcDbEntity
  8
0
100
AcDbLine
 62
7
  6
CONTINUOUS
 10
-7.5
 20
25.75
 11
-7.3369565217
 21
25.75
  0
LINE
  5
36D
100
AcDbEntity
  8
0
100
AcDbLine
 62
7
  6
CONTINUOUS
 10
-6.9565217521
 20
25.75
 11
-6.7391304607
 21
25.75
  0
LINE
  5
36E
100
AcDbEntity
  8
0
100
AcDbLine
 62
7
  6
CONTINUOUS
 10
-6.3586956522
 20
25.75
 11
-6.1956521739
 21
25.75
  0
LINE
  5
36F
100
AcDbEntity
  8
0
100
AcDbLine
 62
7
  6
CONTINUOUS
 10
-5.9782609214
 20
25.75
 11
-5.8152174431
 21
25.75
  0
LINE
  5
370
100
AcDbEntity
  8
0
100
AcDbLine
 62
7
  6
CONTINUOUS
 10
-5.0543478261
 20
25.75
 11
-4.8913043478
 21
25.75
  0
LINE
  5
371
100
AcDbEntity
  8
0
100
AcDbLine
 62
7
  6
CONTINUOUS
 10
-4.6739129398
 20
25.75
 11
-4.0217390268
 21
25.75
  0
LINE
  5
372
100
AcDbEntity
  8
0
100
AcDbLine
 62
7
  6
CONTINUOUS
 10
-3.3695651137
 20
25.75
 11
-2.3913042442
 21
25.75
  0
LINE
  5
373
100
AcDbEntity
  8
0
100
AcDbLine
 62
7
  6
CONTINUOUS
 10
-0.8695650101
 20
25.75
 11
-0.7065215318
 21
25.75
  0
LINE
  5
374
100
AcDbEntity
  8
0
100
AcDbLine
 62
7
  6
CONTINUOUS
 10
0.3532610769
 20
25.75
 11
0.5978262943
 21
25.75
  0
LINE
  5
375
100
AcDbEntity
  8
0
100
AcDbLine
 62
7
  6
CONTINUOUS
 10
-0.4891304348
 20
25.75
 11
-0.3260869565
 21
25.75
  0
LINE
  5
376
100
AcDbEntity
  8
0
100
AcDbLine
 62
7
  6
CONTINUOUS
 10
2.1195652174
 20
25.75
 11
2.2826086957
 21
25.75
  0
LINE
  5
377
100
AcDbEntity
  8
0
100
AcDbLine
 62
7
  6
CONTINUOUS
 10
2.9347826087
 20
25.75
 11
3.097826087
 21
25.75
  0
LINE
  5
378
100
AcDbEntity
  8
0
100
AcDbLine
 62
7
  6
CONTINUOUS
 10
3.75
 20
25.75
 11
3.9130434783
 21
25.75
  0
LINE
  5
379
100
AcDbEntity
  8
0
100
AcDbLine
 62
7
  6
CONTINUOUS
 10
4.6739126288
 20
25.75
 11
4.8369561071
 21
25.75
  0
LINE
  5
37A
100
AcDbEntity
  8
0
100
AcDbLine
 62
7
  6
CONTINUOUS
 10
5.0543478261
 20
25.75
 11
6.0326086957
 21
25.75
  0
LINE
  5
37B
100
AcDbEntity
  8
0
100
AcDbLine
 62
7
  6
CONTINUOUS
 10
6.6847826087
 20
25.75
 11
6.847826087
 21
25.75
  0
LINE
  5
37C
100
AcDbEntity
  8
0
100
AcDbLine
 62
7
  6
CONTINUOUS
 10
6.0326086957
 20
25.9734042548
 11
5.2173913043
 21
25.9734042548
  0
LINE
  5
37D
100
AcDbEntity
  8
0
100
AcDbLine
 62
7
  6
CONTINUOUS
 10
-2.3913042442
 20
25.9734042548
 11
-3.2065216355
 21
25.9734042548
  0
LINE
  5
37E
100
AcDbEntity
  8
0
100
AcDbLine
 62
7
  6
CONTINUOUS
 10
-4.0217390268
 20
25.9734042548
 11
-4.5108694616
 21
25.9734042548
  0
LINE
  5
37F
100
AcDbEntity
  8
0
100
AcDbLine
 62
7
  6
CONTINUOUS
 10
-5.7065217391
 20
26.1968085095
 11
-5.1630435301
 21
26.1968085095
  0
LINE
  5
380
100
AcDbEntity
  8
0
100
AcDbLine
 62
7
  6
CONTINUOUS
 10
4.0217387158
 20
26.1968085095
 11
4.5652173913
 21
26.1968085095
  0
LINE
  5
381
100
AcDbEntity
  8
0
100
AcDbLine
 62
7
  6
CONTINUOUS
 10
4.5380438929
 20
26.345744662
 11
4.0489134581
 21
26.345744662
  0
LINE
  5
382
100
AcDbEntity
  8
0
100
AcDbLine
 62
7
  6
CONTINUOUS
 10
-5.1902173395
 20
26.345744662
 11
-5.6793477743
 21
26.345744662
  0
LINE
  5
383
100
AcDbEntity
  8
0
100
AcDbLine
 62
7
  6
CONTINUOUS
 10
-3.2065216355
 20
26.5691489428
 11
-2.5000001037
 21
26.5691489428
  0
LINE
  5
384
100
AcDbEntity
  8
0
100
AcDbLine
 62
7
  6
CONTINUOUS
 10
-2.5000001037
 20
26.7925531715
 11
-3.2065216355
 21
26.7925531715
  0
LINE
  5
385
100
AcDbEntity
  8
0
100
AcDbLine
 62
7
  6
CONTINUOUS
 10
-4.5108694616
 20
27.2765957713
 11
-4.0217390268
 21
27.2765957713
  0
LINE
  5
386
100
AcDbEntity
  8
0
100
AcDbLine
 62
7
  6
CONTINUOUS
 10
-3.2065216355
 20
27.2765957713
 11
-2.3913042442
 21
27.2765957713
  0
LINE
  5
387
100
AcDbEntity
  8
0
100
AcDbLine
 62
7
  6
CONTINUOUS
 10
2.4999997927
 20
27.3138298094
 11
2.9347826087
 21
27.3138298094
  0
LINE
  5
388
100
AcDbEntity
  8
0
100
AcDbLine
 62
7
  6
CONTINUOUS
 10
3.097826087
 20
27.3138298094
 11
3.532608281
 21
27.3138298094
  0
LINE
  5
389
100
AcDbEntity
  8
0
100
AcDbLine
 62
7
  6
CONTINUOUS
 10
7.282608281
 20
27.5
 11
7.1195648028
 21
27.5
  0
LINE
  5
38A
100
AcDbEntity
  8
0
100
AcDbLine
 62
7
  6
CONTINUOUS
 10
6.4130438929
 20
27.5
 11
6.2500004146
 21
27.5
  0
LINE
  5
38B
100
AcDbEntity
  8
0
100
AcDbLine
 62
7
  6
CONTINUOUS
 10
5.2173913043
 20
27.5
 11
5.0543478261
 21
27.5
  0
LINE
  5
38C
100
AcDbEntity
  8
0
100
AcDbLine
 62
7
  6
CONTINUOUS
 10
4.402173913
 20
27.5
 11
4.1847821941
 21
27.5
  0
LINE
  5
38D
100
AcDbEntity
  8
0
100
AcDbLine
 62
7
  6
CONTINUOUS
 10
3.532608281
 20
27.5
 11
2.4999997927
 21
27.5
  0
LINE
  5
38E
100
AcDbEntity
  8
0
100
AcDbLine
 62
7
  6
CONTINUOUS
 10
2.2826086957
 20
27.5
 11
2.1195652174
 21
27.5
  0
LINE
  5
38F
100
AcDbEntity
  8
0
100
AcDbLine
 62
7
  6
CONTINUOUS
 10
0.5978262943
 20
27.5
 11
0.434782816
 21
27.5
  0
LINE
  5
390
100
AcDbEntity
  8
0
100
AcDbLine
 62
7
  6
CONTINUOUS
 10
-0.2445652174
 20
27.5
 11
-0.4891304348
 21
27.5
  0
LINE
  5
391
100
AcDbEntity
  8
0
100
AcDbLine
 62
7
  6
CONTINUOUS
 10
-0.7065215318
 20
27.5
 11
-0.8695650101
 21
27.5
  0
LINE
  5
392
100
AcDbEntity
  8
0
100
AcDbLine
 62
7
  6
CONTINUOUS
 10
-2.3913042442
 20
27.5
 11
-3.3695651137
 21
27.5
  0
LINE
  5
393
100
AcDbEntity
  8
0
100
AcDbLine
 62
7
  6
CONTINUOUS
 10
-4.0217390268
 20
27.5
 11
-4.6739129398
 21
27.5
  0
LINE
  5
394
100
AcDbEntity
  8
0
100
AcDbLine
 62
7
  6
CONTINUOUS
 10
-5.3260870084
 20
27.5
 11
-5.5434782609
 21
27.5
  0
LINE
  5
395
100
AcDbEntity
  8
0
100
AcDbLine
 62
7
  6
CONTINUOUS
 10
-6.1956521739
 20
27.5
 11
-6.4402173913
 21
27.5
  0
LINE
  5
396
100
AcDbEntity
  8
0
100
AcDbLine
 62
7
  6
CONTINUOUS
 10
-7.2554347826
 20
27.5
 11
-7.5
 21
27.5
  0
LINE
  5
397
100
AcDbEntity
  8
0
100
AcDbLine
 62
7
  6
CONTINUOUS
 10
6.4333155
 20
28.312424
 11
7.193627
 21
28.3124325
  0
LINE
  5
398
100
AcDbEntity
  8
0
100
AcDbLine
 62
7
  6
CONTINUOUS
 10
1.2002345
 20
28.3124155
 11
1.8752595
 21
28.312424
  0
LINE
  5
399
100
AcDbEntity
  8
0
100
AcDbLine
 62
7
  6
CONTINUOUS
 10
-2.5512385
 20
28.3124155
 11
-1.876213
 21
28.3124155
  0
LINE
  5
39A
100
AcDbEntity
  8
0
100
AcDbLine
 62
7
  6
CONTINUOUS
 10
0.075195
 20
28.3124155
 11
0.7502205
 21
28.3124155
  0
LINE
  5
39B
100
AcDbEntity
  8
0
100
AcDbLine
 62
7
  6
CONTINUOUS
 10
4.4925975
 20
28.312424
 11
5.1676315
 21
28.312424
  0
LINE
  5
39C
100
AcDbEntity
  8
0
100
AcDbLine
 62
7
  6
CONTINUOUS
 10
-1.2380175
 20
28.3124155
 11
-0.563009
 21
28.312424
  0
LINE
  5
39D
100
AcDbEntity
  8
0
100
AcDbLine
 62
7
  6
CONTINUOUS
 10
-3.901272
 20
28.312407
 11
-3.226247
 21
28.3124155
  0
LINE
  5
39E
100
AcDbEntity
  8
0
100
AcDbLine
 62
7
  6
CONTINUOUS
 10
3.3675495
 20
28.312424
 11
4.0425835
 21
28.3124155
  0
LINE
  5
39F
100
AcDbEntity
  8
0
100
AcDbLine
 62
7
  6
CONTINUOUS
 10
-6.109982
 20
28.312407
 11
-5.4349315
 21
28.3124155
  0
LINE
  5
3A0
100
AcDbEntity
  8
0
100
AcDbLine
 62
7
  6
CONTINUOUS
 10
2.0883655
 20
28.9761685
 11
3.154452
 21
28.9761685
  0
LINE
  5
3A1
100
AcDbEntity
  8
0
100
AcDbLine
 62
7
  6
CONTINUOUS
 10
2.9485435
 20
29.6174435
 11
2.294266
 21
29.6174435
  0
LINE
  5
3A2
100
AcDbEntity
  8
0
100
AcDbLine
 62
7
  6
CONTINUOUS
 10
5.167707
 20
29.617452
 11
5.7568555
 21
29.6174435
  0
LINE
  5
3A3
100
AcDbEntity
  8
0
100
AcDbLine
 62
7
  6
CONTINUOUS
 10
-0.0990564138
 20
23.2744680843
 11
0.1981133975
 21
23.25
  0
LINE
  5
3A4
100
AcDbEntity
  8
0
100
AcDbLine
 62
7
  6
CONTINUOUS
 10
4.0613209455
 20
23.2744680843
 11
4.35849019
 21
23.25
  0
LINE
  5
3A5
100
AcDbEntity
  8
0
100
AcDbLine
 62
7
  6
CONTINUOUS
 10
0.4952832089
 20
24.3755319178
 11
0.1981133975
 21
24.4
  0
LINE
  5
3A6
100
AcDbEntity
  8
0
100
AcDbLine
 62
7
  6
CONTINUOUS
 10
4.6556600014
 20
24.3755319178
 11
4.35849019
 21
24.4
  0
LINE
  5
3A7
100
AcDbEntity
  8
0
100
AcDbLine
 62
7
  6
CONTINUOUS
 10
0.1981133975
 20
23.3723404281
 11
-0.0495283009
 21
23.3968085103
  0
LINE
  5
3A8
100
AcDbEntity
  8
0
100
AcDbLine
 62
7
  6
CONTINUOUS
 10
4.35849019
 20
23.3723404281
 11
4.1108490584
 21
23.3968085103
  0
LINE
  5
3A9
100
AcDbEntity
  8
0
100
AcDbLine
 62
7
  6
CONTINUOUS
 10
0.1981133975
 20
24.2776595891
 11
0.4457545292
 21
24.2531915069
  0
LINE
  5
3AA
100
AcDbEntity
  8
0
100
AcDbLine
 62
7
  6
CONTINUOUS
 10
4.35849019
 20
24.2776595891
 11
4.6061324553
 21
24.2531915069
  0
LINE
  5
3AB
100
AcDbEntity
  8
0
100
AcDbLine
 62
7
  6
CONTINUOUS
 10
-3.8858696689
 20
27.4627659619
 11
-4.0217390268
 21
27.5
  0
LINE
  5
3AC
100
AcDbEntity
  8
0
100
AcDbLine
 62
7
  6
CONTINUOUS
 10
-0.3466981122
 20
23.3478723373
 11
-0.0990564138
 21
23.2744680843
  0
LINE
  5
3AD
100
AcDbEntity
  8
0
100
AcDbLine
 62
7
  6
CONTINUOUS
 10
3.8136792471
 20
23.3478723373
 11
4.0613209455
 21
23.2744680843
  0
LINE
  5
3AE
100
AcDbEntity
  8
0
100
AcDbLine
 62
7
  6
CONTINUOUS
 10
0.7429243405
 20
24.3021276712
 11
0.4952832089
 21
24.3755319178
  0
LINE
  5
3AF
100
AcDbEntity
  8
0
100
AcDbLine
 62
7
  6
CONTINUOUS
 10
4.9033022666
 20
24.3021276712
 11
4.6556600014
 21
24.3755319178
  0
LINE
  5
3B0
100
AcDbEntity
  8
0
100
AcDbLine
 62
7
  6
CONTINUOUS
 10
-0.0495283009
 20
23.3968085103
 11
-0.1981132066
 21
23.4457446747
  0
LINE
  5
3B1
100
AcDbEntity
  8
0
100
AcDbLine
 62
7
  6
CONTINUOUS
 10
0.4457545292
 20
24.2531915069
 11
0.5943394348
 21
24.2042553425
  0
LINE
  5
3B2
100
AcDbEntity
  8
0
100
AcDbLine
 62
7
  6
CONTINUOUS
 10
4.1108490584
 20
23.3968085103
 11
3.9622641527
 21
23.4457446747
  0
LINE
  5
3B3
100
AcDbEntity
  8
0
100
AcDbLine
 62
7
  6
CONTINUOUS
 10
4.6061324553
 20
24.2531915069
 11
4.754717361
 21
24.2042553425
  0
LINE
  5
3B4
100
AcDbEntity
  8
0
100
AcDbLine
 62
7
  6
CONTINUOUS
 10
-4.0217390268
 20
27.2765957713
 11
-3.9130434783
 21
27.2393617332
  0
LINE
  5
3B5
100
AcDbEntity
  8
0
100
AcDbLine
 62
7
  6
CONTINUOUS
 10
-0.4952830179
 20
23.4212765925
 11
-0.3466981122
 21
23.3478723373
  0
LINE
  5
3B6
100
AcDbEntity
  8
0
100
AcDbLine
 62
7
  6
CONTINUOUS
 10
0.8915092462
 20
24.2287234247
 11
0.7429243405
 21
24.3021276712
  0
LINE
  5
3B7
100
AcDbEntity
  8
0
100
AcDbLine
 62
7
  6
CONTINUOUS
 10
3.6650943414
 20
23.4212765925
 11
3.8136792471
 21
23.3478723373
  0
LINE
  5
3B8
100
AcDbEntity
  8
0
100
AcDbLine
 62
7
  6
CONTINUOUS
 10
5.0518871723
 20
24.2287234247
 11
4.9033022666
 21
24.3021276712
  0
LINE
  5
3B9
100
AcDbEntity
  8
0
100
AcDbLine
 62
7
  6
CONTINUOUS
 10
3.9622641527
 20
23.4457446747
 11
3.7641511341
 21
23.5925531849
  0
LINE
  5
3BA
100
AcDbEntity
  8
0
100
AcDbLine
 62
7
  6
CONTINUOUS
 10
4.754717361
 20
24.2042553425
 11
4.9528298128
 21
24.0574467808
  0
LINE
  5
3BB
100
AcDbEntity
  8
0
100
AcDbLine
 62
7
  6
CONTINUOUS
 10
5.1509433983
 20
24.1308510959
 11
5.0518871723
 21
24.2287234247
  0
LINE
  5
3BC
100
AcDbEntity
  8
0
100
AcDbLine
 62
7
  6
CONTINUOUS
 10
5.9796166705
 20
30.2418525
 11
5.1583245
 21
30.2418525
  0
LINE
  5
3BD
100
AcDbEntity
  8
0
100
AcDbLine
 62
7
  6
CONTINUOUS
 10
5.1583165
 20
31.0631755
 11
5.9795804659
 21
31.0631755
  0
LINE
  5
3BE
100
AcDbEntity
  8
0
100
AcDbLine
 62
7
  6
CONTINUOUS
 10
0.7502205
 20
31.6875675
 11
-0.2702365
 21
31.6875675
  0
LINE
  5
3BF
100
AcDbEntity
  8
0
100
AcDbLine
 62
7
  6
CONTINUOUS
 10
-1.530782
 20
31.6875675
 11
-2.5512385
 21
31.6875675
  0
LINE
  5
3C0
100
AcDbEntity
  8
0
100
AcDbLine
 62
7
  6
CONTINUOUS
 10
-3.2262385
 20
31.6875675
 11
-3.901264
 21
31.6875675
  0
LINE
  5
3C1
100
AcDbEntity
  8
0
100
AcDbLine
 62
7
  6
CONTINUOUS
 10
-4.351278
 20
31.6875675
 11
-5.0263115
 21
31.6875675
  0
LINE
  5
3C2
100
AcDbEntity
  8
0
100
AcDbLine
 62
7
  6
CONTINUOUS
 10
-6.518593
 20
31.6875675
 11
-7.193627
 21
31.6875675
  0
LINE
  5
3C3
100
AcDbEntity
  8
0
100
AcDbLine
 62
7
  6
CONTINUOUS
 10
6.0732785
 20
31.68757736
 11
4.4925975
 21
31.687576
  0
LINE
  5
3C4
100
AcDbEntity
  8
0
100
AcDbLine
 62
7
  6
CONTINUOUS
 10
2.95893
 20
31.687576
 11
2.283871
 21
31.687576
  0
LINE
  5
3C5
100
AcDbEntity
  8
0
100
AcDbLine
 62
7
  6
CONTINUOUS
 10
8.0
 20
32.75
 11
-8.0
 21
32.75
  0
LINE
  5
3C6
100
AcDbEntity
  8
0
100
AcDbLine
 62
7
  6
CONTINUOUS
 10
128.5
 20
53.5
 11
-128.5
 21
53.5
  0
LINE
  5
3C7
100
AcDbEntity
  8
0
100
AcDbLine
 62
7
  6
CONTINUOUS
 10
-128.5
 20
55.0
 11
128.5
 21
55.0
  0
LINE
  5
3C8
100
AcDbEntity
  8
0
100
AcDbLine
 62
7
  6
CONTINUOUS
 10
132.0
 20
-50.0
 11
132.0
 21
50.0
  0
LINE
  5
3C9
100
AcDbEntity
  8
0
100
AcDbLine
 62
7
  6
CONTINUOUS
 10
133.5
 20
50.0
 11
133.5
 21
-50.0
  0
ARC
  5
3CA
100
AcDbEntity
  8
0
100
AcDbCircle
 62
7
  6
CONTINUOUS
 10
-128.5
 20
-50.0
 40
5.0
100
AcDbArc
 50
180.0
 51
270.0
  0
ARC
  5
3CB
100
AcDbEntity
  8
0
100
AcDbCircle
 62
7
  6
CONTINUOUS
 10
-128.5
 20
-50.0
 40
3.5
100
AcDbArc
 50
180.0
 51
270.0
  0
CIRCLE
  5
3CC
100
AcDbEntity
  8
RACCORDO
100
AcDbCircle
 62
250
  6
CONTINUOUS
 10
-42.5
 20
-45.0
 40
2.6135290011
  0
CIRCLE
  5
3CD
100
AcDbEntity
  8
RACCORDO
100
AcDbCircle
 62
250
  6
CONTINUOUS
 10
-123.5
 20
-45.0
 40
2.6135290011
  0
CIRCLE
  5
3CE
100
AcDbEntity
  8
RACCORDO
100
AcDbCircle
 62
250
  6
CONTINUOUS
 10
-123.5
 20
-45.0
 40
1.8691215651
  0
CIRCLE
  5
3CF
100
AcDbEntity
  8
RACCORDO
100
AcDbCircle
 62
250
  6
CONTINUOUS
 10
-42.5
 20
-45.0
 40
1.8691215651
  0
CIRCLE
  5
3D0
100
AcDbEntity
  8
ASSI
100
AcDbCircle
 62
7
  6
CONTINUOUS
 10
-42.5
 20
-45.0
 40
1.6
  0
CIRCLE
  5
3D1
100
AcDbEntity
  8
ASSI
100
AcDbCircle
 62
7
  6
CONTINUOUS
 10
-123.5
 20
-45.0
 40
1.6
  0
ARC
  5
3D2
100
AcDbEntity
  8
ASSI
100
AcDbCircle
 62
7
  6
CONTINUOUS
 10
-0.483777
 20
-38.0
 40
1.2749992699
100
AcDbArc
 50
87.7525290943
 51
269.8754503097
  0
ARC
  5
3D3
100
AcDbEntity
  8
ASSI
100
AcDbCircle
 62
7
  6
CONTINUOUS
 10
-0.483777
 20
-38.0
 40
0.8999999623
100
AcDbArc
 50
86.8152613297
 51
273.184738657
  0
CIRCLE
  5
3D4
100
AcDbEntity
  8
0
100
AcDbCircle
 62
7
  6
CONTINUOUS
 10
-123.5
 20
-45.0
 40
0.825
  0
CIRCLE
  5
3D5
100
AcDbEntity
  8
0
100
AcDbCircle
 62
7
  6
CONTINUOUS
 10
-42.5
 20
-45.0
 40
0.825
  0
ARC
  5
3D6
100
AcDbEntity
  8
0
100
AcDbCircle
 62
7
  6
CONTINUOUS
 10
-128.5
 20
50.0
 40
5.0
100
AcDbArc
 50
90.0
 51
180.0
  0
ARC
  5
3D7
100
AcDbEntity
  8
0
100
AcDbCircle
 62
7
  6
CONTINUOUS
 10
-128.5
 20
50.0
 40
3.5
100
AcDbArc
 50
90.0
 51
180.0
  0
CIRCLE
  5
3D8
100
AcDbEntity
  8
RACCORDO
100
AcDbCircle
 62
250
  6
CONTINUOUS
 10
-123.5
 20
45.0
 40
2.6135290011
  0
CIRCLE
  5
3D9
100
AcDbEntity
  8
RACCORDO
100
AcDbCircle
 62
250
  6
CONTINUOUS
 10
-42.5
 20
45.0
 40
2.6135290011
  0
CIRCLE
  5
3DA
100
AcDbEntity
  8
RACCORDO
100
AcDbCircle
 62
250
  6
CONTINUOUS
 10
-123.5
 20
45.0
 40
1.8691215651
  0
CIRCLE
  5
3DB
100
AcDbEntity
  8
RACCORDO
100
AcDbCircle
 62
250
  6
CONTINUOUS
 10
-42.5
 20
45.0
 40
1.8691215651
  0
CIRCLE
  5
3DC
100
AcDbEntity
  8
ASSI
100
AcDbCircle
 62
7
  6
CONTINUOUS
 10
-123.5
 20
45.0
 40
1.6
  0
CIRCLE
  5
3DD
100
AcDbEntity
  8
ASSI
100
AcDbCircle
 62
7
  6
CONTINUOUS
 10
-42.5
 20
45.0
 40
1.6
  0
CIRCLE
  5
3DE
100
AcDbEntity
  8
0
100
AcDbCircle
 62
7
  6
CONTINUOUS
 10
-123.5
 20
45.0
 40
0.825
  0
CIRCLE
  5
3DF
100
AcDbEntity
  8
0
100
AcDbCircle
 62
7
  6
CONTINUOUS
 10
-42.5
 20
45.0
 40
0.825
  0
ARC
  5
3E0
100
AcDbEntity
  8
0
100
AcDbCircle
 62
7
  6
CONTINUOUS
 10
128.5
 20
-50.0
 40
5.0
100
AcDbArc
 50
270.0
 51
360.0
  0
ARC
  5
3E1
100
AcDbEntity
  8
0
100
AcDbCircle
 62
7
  6
CONTINUOUS
 10
128.5
 20
-50.0
 40
3.5
100
AcDbArc
 50
270.0
 51
360.0
  0
CIRCLE
  5
3E2
100
AcDbEntity
  8
RACCORDO
100
AcDbCircle
 62
250
  6
CONTINUOUS
 10
123.5
 20
-45.0
 40
2.6135290011
  0
CIRCLE
  5
3E3
100
AcDbEntity
  8
RACCORDO
100
AcDbCircle
 62
250
  6
CONTINUOUS
 10
42.5
 20
-45.0
 40
2.6135290011
  0
CIRCLE
  5
3E4
100
AcDbEntity
  8
RACCORDO
100
AcDbCircle
 62
250
  6
CONTINUOUS
 10
42.5
 20
-45.0
 40
1.8691215651
  0
CIRCLE
  5
3E5
100
AcDbEntity
  8
RACCORDO
100
AcDbCircle
 62
250
  6
CONTINUOUS
 10
123.5
 20
-45.0
 40
1.8691215651
  0
CIRCLE
  5
3E6
100
AcDbEntity
  8
ASSI
100
AcDbCircle
 62
7
  6
CONTINUOUS
 10
42.5
 20
-45.0
 40
1.6
  0
CIRCLE
  5
3E7
100
AcDbEntity
  8
ASSI
100
AcDbCircle
 62
7
  6
CONTINUOUS
 10
123.5
 20
-45.0
 40
1.6
  0
ARC
  5
3E8
100
AcDbEntity
  8
ASSI
100
AcDbCircle
 62
7
  6
CONTINUOUS
 10
1.708778
 20
-38.0
 40
1.2749993288
100
AcDbArc
 50
87.7525290343
 51
269.8754493812
  0
ARC
  5
3E9
100
AcDbEntity
  8
ASSI
100
AcDbCircle
 62
7
  6
CONTINUOUS
 10
1.708778
 20
-38.0
 40
0.8999999623
100
AcDbArc
 50
86.8152613297
 51
167.9753000451
  0
ARC
  5
3EA
100
AcDbEntity
  8
ASSI
100
AcDbCircle
 62
7
  6
CONTINUOUS
 10
1.708778
 20
-38.0
 40
0.8999984404
100
AcDbArc
 50
192.0247203293
 51
273.1847444079
  0
CIRCLE
  5
3EB
100
AcDbEntity
  8
0
100
AcDbCircle
 62
7
  6
CONTINUOUS
 10
123.5
 20
-45.0
 40
0.825
  0
CIRCLE
  5
3EC
100
AcDbEntity
  8
0
100
AcDbCircle
 62
7
  6
CONTINUOUS
 10
42.5
 20
-45.0
 40
0.825
  0
ARC
  5
3ED
100
AcDbEntity
  8
0
100
AcDbCircle
 62
7
  6
CONTINUOUS
 10
128.5
 20
50.0
 40
5.0
100
AcDbArc
 50
0.0
 51
90.0
  0
ARC
  5
3EE
100
AcDbEntity
  8
0
100
AcDbCircle
 62
7
  6
CONTINUOUS
 10
128.5
 20
50.0
 40
3.5
100
AcDbArc
 50
0.0
 51
90.0
  0
CIRCLE
  5
3EF
100
AcDbEntity
  8
RACCORDO
100
AcDbCircle
 62
250
  6
CONTINUOUS
 10
123.5
 20
45.0
 40
2.6135290011
  0
CIRCLE
  5
3F0
100
AcDbEntity
  8
RACCORDO
100
AcDbCircle
 62
250
  6
CONTINUOUS
 10
42.5
 20
45.0
 40
2.6135290011
  0
CIRCLE
  5
3F1
100
AcDbEntity
  8
RACCORDO
100
AcDbCircle
 62
250
  6
CONTINUOUS
 10
42.5
 20
45.0
 40
1.8691215651
  0
CIRCLE
  5
3F2
100
AcDbEntity
  8
RACCORDO
100
AcDbCircle
 62
250
  6
CONTINUOUS
 10
123.5
 20
45.0
 40
1.8691215651
  0
ARC
  5
3F3
100
AcDbEntity
  8
ASSI
100
AcDbCircle
 62
7
  6
CONTINUOUS
 10
4.5
 20
20.5
 40
1.7116797875
100
AcDbArc
 50
292.0885366586
 51
273.4298401378
  0
CIRCLE
  5
3F4
100
AcDbEntity
  8
ASSI
100
AcDbCircle
 62
7
  6
CONTINUOUS
 10
42.5
 20
45.0
 40
1.6
  0
CIRCLE
  5
3F5
100
AcDbEntity
  8
ASSI
100
AcDbCircle
 62
7
  6
CONTINUOUS
 10
123.5
 20
45.0
 40
1.6
  0
ARC
  5
3F6
100
AcDbEntity
  8
ASSI
100
AcDbCircle
 62
7
  6
CONTINUOUS
 10
4.448229
 20
17.2732635
 40
1.5259312395
100
AcDbArc
 50
47.231270393
 51
84.2011537983
  0
ARC
  5
3F7
100
AcDbEntity
  8
ASSI
100
AcDbCircle
 62
7
  6
CONTINUOUS
 10
4.568319
 20
17.52043
 40
1.5076191274
100
AcDbArc
 50
45.4348897783
 51
67.5658711569
  0
CIRCLE
  5
3F8
100
AcDbEntity
  8
ASSI
100
AcDbCircle
 62
7
  6
CONTINUOUS
 10
4.5
 20
20.5
 40
1.4376915
  0
ARC
  5
3F9
100
AcDbEntity
  8
ASSI
100
AcDbCircle
 62
7
  6
CONTINUOUS
 10
4.5
 20
20.5
 40
1.2858141634
100
AcDbArc
 50
299.3041446576
 51
44.9957783165
  0
ARC
  5
3FA
100
AcDbEntity
  8
ASSI
100
AcDbCircle
 62
7
  6
CONTINUOUS
 10
4.5
 20
20.5
 40
1.2858141109
100
AcDbArc
 50
134.9002751525
 51
240.6958553424
  0
ARC
  5
3FB
100
AcDbEntity
  8
0
100
AcDbCircle
 62
7
  6
CONTINUOUS
 10
6.0732785
 20
30.6525125
 40
1.03506622
100
AcDbArc
 50
292.8428740722
 51
90.0
  0
ARC
  5
3FC
100
AcDbEntity
  8
ASSI
100
AcDbCircle
 62
7
  6
CONTINUOUS
 10
4.5
 20
20.5
 40
1.0301695955
100
AcDbArc
 50
148.0267353487
 51
240.6958433001
  0
ARC
  5
3FD
100
AcDbEntity
  8
ASSI
100
AcDbCircle
 62
7
  6
CONTINUOUS
 10
4.5
 20
20.5
 40
1.0301693978
100
AcDbArc
 50
299.3041566999
 51
31.9732630618
  0
CIRCLE
  5
3FE
100
AcDbEntity
  8
0
100
AcDbCircle
 62
7
  6
CONTINUOUS
 10
123.5
 20
45.0
 40
0.825
  0
CIRCLE
  5
3FF
100
AcDbEntity
  8
0
100
AcDbCircle
 62
7
  6
CONTINUOUS
 10
42.5
 20
45.0
 40
0.825
  0
ARC
  5
400
100
AcDbEntity
  8
0
100
AcDbCircle
 62
7
  6
CONTINUOUS
 10
5.9795865
 20
30.6525125
 40
0.4106625
100
AcDbArc
 50
270.0042094265
 51
90.0008418791
  0
SPLINE
  5
401
100
AcDbEntity
  8
0
100
AcDbSpline
 62
7
  6
CONTINUOUS
 70
0
 71
3
 72
13
 73
9
 74
0
 42
0.0000001
 43
0.0000001
 44
0.0000000001
 40
0.0
 40
0.0
 40
0.0
 40
0.0
 40
0.1090101599
 40
0.2629303563
 40
0.3769948676
 40
0.5319517487
 40
0.9696565833
 40
1.0
 40
1.0
 40
1.0
 40
1.0
 10
-0.1947950048
 20
21.2400480208
 30
0.0
 10
-0.1813797705
 20
21.2400480096
 30
0.0
 10
-0.1489816557
 20
21.2382454395
 30
0.0
 10
-0.1033638713
 20
21.2288704267
 30
0.0
 10
-0.0537889733
 20
21.212610696
 30
0.0
 10
0.0209907809
 20
21.1645510075
 30
0.0
 10
0.0470953954
 20
21.0801334585
 30
0.0
 10
0.0464383869
 20
21.0227285396
 30
0.0
 10
0.0464383869
 20
21.0189943553
 30
0.0
  0
SPLINE
  5
402
100
AcDbEntity
  8
0
100
AcDbSpline
 62
7
  6
CONTINUOUS
 70
0
 71
3
 72
13
 73
9
 74
0
 42
0.0000001
 43
0.0000001
 44
0.0000000001
 40
0.0
 40
0.0
 40
0.0
 40
0.0
 40
0.0303431648
 40
0.4680443668
 40
0.6229999618
 40
0.7370635264
 40
0.8909824454
 40
1.0
 40
1.0
 40
1.0
 40
1.0
 10
0.0464383869
 20
21.0189943553
 30
0.0
 10
0.0464383869
 20
21.0152601709
 30
0.0
 10
0.0470953954
 20
20.9578552521
 30
0.0
 10
0.0209907809
 20
20.873437703
 30
0.0
 10
-0.0537889733
 20
20.8253780145
 30
0.0
 10
-0.1033638713
 20
20.8091182838
 30
0.0
 10
-0.14898266
 20
20.7997430646
 30
0.0
 10
-0.1813818159
 20
20.7979405872
 30
0.0
 10
-0.1947980689
 20
20.7979406897
 30
0.0
  0
SPLINE
  5
403
100
AcDbEntity
  8
0
100
AcDbSpline
 62
7
  6
CONTINUOUS
 70
0
 71
3
 72
14
 73
10
 74
0
 42
0.0000001
 43
0.0000001
 44
0.0000000001
 40
0.0
 40
0.0
 40
0.0
 40
0.0
 40
0.0225390916
 40
0.3772348691
 40
0.5079914421
 40
0.6486374263
 40
0.7545284744
 40
0.9056860993
 40
1.0
 40
1.0
 40
1.0
 40
1.0
 10
0.223987729
 20
21.0189943553
 30
0.0
 10
0.223987729
 20
21.0234427236
 30
0.0
 10
0.2246287092
 20
21.0978020864
 30
0.0
 10
0.1965987464
 20
21.2021099596
 30
0.0
 10
0.1152815653
 20
21.2962892199
 30
0.0
 10
0.0538033769
 20
21.3400297473
 30
0.0
 10
-0.0194342735
 20
21.3691654062
 30
0.0
 10
-0.0875092295
 20
21.3844745696
 30
0.0
 10
-0.136001091
 20
21.3873950171
 30
0.0
 10
-0.1546151056
 20
21.3873950362
 30
0.0
  0
SPLINE
  5
404
100
AcDbEntity
  8
0
100
AcDbSpline
 62
7
  6
CONTINUOUS
 70
0
 71
3
 72
14
 73
10
 74
0
 42
0.0000001
 43
0.0000001
 44
0.0000000001
 40
0.0
 40
0.0
 40
0.0
 40
0.0
 40
0.0943181172
 40
0.2454750384
 40
0.3513655935
 40
0.4920109229
 40
0.6227668872
 40
0.9774610134
 40
1.0
 40
1.0
 40
1.0
 40
1.0
 10
-0.1546178621
 20
20.6505936743
 30
0.0
 10
-0.1360029304
 20
20.6505935826
 30
0.0
 10
-0.0875101315
 20
20.6535139381
 30
0.0
 10
-0.0194342735
 20
20.6688233044
 30
0.0
 10
0.0538033769
 20
20.6979589632
 30
0.0
 10
0.1152815653
 20
20.7416994906
 30
0.0
 10
0.1965987464
 20
20.835878751
 30
0.0
 10
0.2246287092
 20
20.9401866241
 30
0.0
 10
0.223987729
 20
21.0145459869
 30
0.0
 10
0.223987729
 20
21.0189943553
 30
0.0
  0
SPLINE
  5
405
100
AcDbEntity
  8
0
100
AcDbSpline
 62
7
  6
CONTINUOUS
 70
0
 71
3
 72
16
 73
12
 74
0
 42
0.0000001
 43
0.0000001
 44
0.0000000001
 40
0.0
 40
0.0
 40
0.0
 40
0.0
 40
0.081582199
 40
0.1574553967
 40
0.3066287736
 40
0.384848994
 40
0.5792892447
 40
0.6959714606
 40
0.8475957974
 40
0.961835767
 40
1.0
 40
1.0
 40
1.0
 40
1.0
 10
1.7846227729
 20
21.247111072
 30
0.0
 10
1.8015386
 20
21.247111072
 30
0.0
 10
1.8342575785
 20
21.2428386248
 30
0.0
 10
1.8945789416
 20
21.2208253228
 30
0.0
 10
1.9423507684
 20
21.1766228765
 30
0.0
 10
1.9915957638
 20
21.1041106058
 30
0.0
 10
2.0153575478
 20
21.0253665643
 30
0.0
 10
2.034293665
 20
20.931533159
 30
0.0
 10
2.0436511527
 20
20.8525529144
 30
0.0
 10
2.0456604624
 20
20.7895138236
 30
0.0
 10
2.0455162994
 20
20.7579132406
 30
0.0
 10
2.0455162994
 20
20.75
 30
0.0
  0
SPLINE
  5
406
100
AcDbEntity
  8
0
100
AcDbSpline
 62
7
  6
CONTINUOUS
 70
0
 71
3
 72
16
 73
12
 74
0
 42
0.0000001
 43
0.0000001
 44
0.0000000001
 40
0.0
 40
0.0
 40
0.0
 40
0.0
 40
0.038164233
 40
0.1524042026
 40
0.3040285394
 40
0.4207107553
 40
0.615151006
 40
0.6933712264
 40
0.8425446033
 40
0.918417801
 40
1.0
 40
1.0
 40
1.0
 40
1.0
 10
2.0455162994
 20
20.75
 30
0.0
 10
2.0455162994
 20
20.7420867594
 30
0.0
 10
2.0456604624
 20
20.7104861764
 30
0.0
 10
2.0436511527
 20
20.6474470856
 30
0.0
 10
2.034293665
 20
20.568466841
 30
0.0
 10
2.0153575478
 20
20.4746334357
 30
0.0
 10
1.9915957638
 20
20.3958893942
 30
0.0
 10
1.9423507684
 20
20.3233771235
 30
0.0
 10
1.8945789416
 20
20.2791746772
 30
0.0
 10
1.8342575785
 20
20.2571613752
 30
0.0
 10
1.8015386
 20
20.252888928
 30
0.0
 10
1.7846227729
 20
20.252888928
 30
0.0
  0
SPLINE
  5
407
100
AcDbEntity
  8
0
100
AcDbSpline
 62
7
  6
CONTINUOUS
 70
0
 71
3
 72
16
 73
12
 74
0
 42
0.0000001
 43
0.0000001
 44
0.0000000001
 40
0.0
 40
0.0
 40
0.0
 40
0.0
 40
0.081582199
 40
0.1574553967
 40
0.3066287736
 40
0.384848994
 40
0.5792892447
 40
0.6959714606
 40
0.8475957974
 40
0.961835767
 40
1.0
 40
1.0
 40
1.0
 40
1.0
 10
1.7846227729
 20
20.252888928
 30
0.0
 10
1.7677069458
 20
20.252888928
 30
0.0
 10
1.7349879673
 20
20.2571613752
 30
0.0
 10
1.6746666042
 20
20.2791746772
 30
0.0
 10
1.6268947774
 20
20.3233771235
 30
0.0
 10
1.577649782
 20
20.3958893942
 30
0.0
 10
1.553887998
 20
20.4746334357
 30
0.0
 10
1.5349518808
 20
20.568466841
 30
0.0
 10
1.5255943931
 20
20.6474470856
 30
0.0
 10
1.5235850834
 20
20.7104861764
 30
0.0
 10
1.5237292464
 20
20.7420867594
 30
0.0
 10
1.5237292464
 20
20.75
 30
0.0
  0
SPLINE
  5
408
100
AcDbEntity
  8
0
100
AcDbSpline
 62
7
  6
CONTINUOUS
 70
0
 71
3
 72
16
 73
12
 74
0
 42
0.0000001
 43
0.0000001
 44
0.0000000001
 40
0.0
 40
0.0
 40
0.0
 40
0.0
 40
0.038164233
 40
0.1524042026
 40
0.3040285394
 40
0.4207107553
 40
0.615151006
 40
0.6933712264
 40
0.8425446033
 40
0.918417801
 40
1.0
 40
1.0
 40
1.0
 40
1.0
 10
1.5237292464
 20
20.75
 30
0.0
 10
1.5237292464
 20
20.7579132406
 30
0.0
 10
1.5235850834
 20
20.7895138236
 30
0.0
 10
1.5255943931
 20
20.8525529144
 30
0.0
 10
1.5349518808
 20
20.931533159
 30
0.0
 10
1.553887998
 20
21.0253665643
 30
0.0
 10
1.577649782
 20
21.1041106058
 30
0.0
 10
1.6268947774
 20
21.1766228765
 30
0.0
 10
1.6746666042
 20
21.2208253228
 30
0.0
 10
1.7349879673
 20
21.2428386248
 30
0.0
 10
1.7677069458
 20
21.247111072
 30
0.0
 10
1.7846227729
 20
21.247111072
 30
0.0
  0
SPLINE
  5
409
100
AcDbEntity
  8
0
100
AcDbSpline
 62
7
  6
CONTINUOUS
 70
0
 71
3
 72
23
 73
19
 74
0
 42
0.0000001
 43
0.0000001
 44
0.0000000001
 40
0.0
 40
0.0
 40
0.0
 40
0.0
 40
0.1175716721
 40
0.2550368586
 40
0.3463162708
 40
0.4140846673
 40
0.5095606694
 40
0.6178461101
 40
0.6617319017
 40
0.7152414415
 40
0.7583771864
 40
0.8078403706
 40
0.8439461126
 40
0.889742133
 40
0.9288974336
 40
0.9679984913
 40
0.9901309194
 40
1.0
 40
1.0
 40
1.0
 40
1.0
 10
1.7846227729
 20
20.1126092981
 30
0.0
 10
1.8183497219
 20
20.1126092981
 30
0.0
 10
1.8917404161
 20
20.1219300249
 30
0.0
 10
1.9847955217
 20
20.1618780447
 30
0.0
 10
2.0503208732
 20
20.2173132788
 30
0.0
 10
2.0966571048
 20
20.2739437647
 30
0.0
 10
2.1378934215
 20
20.3404933337
 30
0.0
 10
2.1629304241
 20
20.4074423997
 30
0.0
 10
2.1781940485
 20
20.4644249716
 30
0.0
 10
2.1874182542
 20
20.5036835129
 30
0.0
 10
2.1954282869
 20
20.5448308958
 30
0.0
 10
2.2012205654
 20
20.5813038651
 30
0.0
 10
2.205913221
 20
20.6186983976
 30
0.0
 10
2.2091653204
 20
20.6532802846
 30
0.0
 10
2.2113473621
 20
20.6888040737
 30
0.0
 10
2.2122696252
 20
20.7175920114
 30
0.0
 10
2.2124226804
 20
20.7379888984
 30
0.0
 10
2.2124101218
 20
20.7471689271
 30
0.0
 10
2.2124101218
 20
20.75
 30
0.0
  0
SPLINE
  5
40A
100
AcDbEntity
  8
0
100
AcDbSpline
 62
7
  6
CONTINUOUS
 70
0
 71
3
 72
23
 73
19
 74
0
 42
0.0000001
 43
0.0000001
 44
0.0000000001
 40
0.0
 40
0.0
 40
0.0
 40
0.0
 40
0.0098690806
 40
0.0320015087
 40
0.0711025664
 40
0.110257867
 40
0.1560538874
 40
0.1921596294
 40
0.2416228136
 40
0.2847585585
 40
0.3382680983
 40
0.3821538899
 40
0.4904393306
 40
0.5859153327
 40
0.6536837292
 40
0.7449631414
 40
0.8824283279
 40
1.0
 40
1.0
 40
1.0
 40
1.0
 10
2.2124101218
 20
20.75
 30
0.0
 10
2.2124101218
 20
20.7528310729
 30
0.0
 10
2.2124226804
 20
20.7620111016
 30
0.0
 10
2.2122696252
 20
20.7824079886
 30
0.0
 10
2.2113473621
 20
20.8111959263
 30
0.0
 10
2.2091653204
 20
20.8467197154
 30
0.0
 10
2.205913221
 20
20.8813016024
 30
0.0
 10
2.2012205654
 20
20.9186961349
 30
0.0
 10
2.1954282869
 20
20.9551691042
 30
0.0
 10
2.1874182542
 20
20.9963164871
 30
0.0
 10
2.1781940485
 20
21.0355750284
 30
0.0
 10
2.1629304241
 20
21.0925576003
 30
0.0
 10
2.1378934215
 20
21.1595066663
 30
0.0
 10
2.0966571048
 20
21.2260562353
 30
0.0
 10
2.0503208732
 20
21.2826867212
 30
0.0
 10
1.9847955217
 20
21.3381219553
 30
0.0
 10
1.8917404161
 20
21.3780699751
 30
0.0
 10
1.8183497219
 20
21.3873907019
 30
0.0
 10
1.7846227729
 20
21.3873907019
 30
0.0
  0
SPLINE
  5
40B
100
AcDbEntity
  8
0
100
AcDbSpline
 62
7
  6
CONTINUOUS
 70
0
 71
3
 72
23
 73
19
 74
0
 42
0.0000001
 43
0.0000001
 44
0.0000000001
 40
0.0
 40
0.0
 40
0.0
 40
0.0
 40
0.1175716721
 40
0.2550368586
 40
0.3463162708
 40
0.4140846673
 40
0.5095606694
 40
0.6178461101
 40
0.6617319017
 40
0.7152414415
 40
0.7583771864
 40
0.8078403706
 40
0.8439461126
 40
0.889742133
 40
0.9288974336
 40
0.9679984913
 40
0.9901309194
 40
1.0
 40
1.0
 40
1.0
 40
1.0
 10
1.7846227729
 20
21.3873907019
 30
0.0
 10
1.7508958239
 20
21.3873907019
 30
0.0
 10
1.6775051297
 20
21.3780699751
 30
0.0
 10
1.5844500241
 20
21.3381219553
 30
0.0
 10
1.5189246726
 20
21.2826867212
 30
0.0
 10
1.472588441
 20
21.2260562353
 30
0.0
 10
1.4313521243
 20
21.1595066663
 30
0.0
 10
1.4063151217
 20
21.0925576003
 30
0.0
 10
1.3910514973
 20
21.0355750284
 30
0.0
 10
1.3818272916
 20
20.9963164871
 30
0.0
 10
1.3738172589
 20
20.9551691042
 30
0.0
 10
1.3680249804
 20
20.9186961349
 30
0.0
 10
1.3633323248
 20
20.8813016024
 30
0.0
 10
1.3600802254
 20
20.8467197154
 30
0.0
 10
1.3578981837
 20
20.8111959263
 30
0.0
 10
1.3569759206
 20
20.7824079886
 30
0.0
 10
1.3568228654
 20
20.7620111016
 30
0.0
 10
1.356835424
 20
20.7528310729
 30
0.0
 10
1.356835424
 20
20.75
 30
0.0
  0
SPLINE
  5
40C
100
AcDbEntity
  8
0
100
AcDbSpline
 62
7
  6
CONTINUOUS
 70
0
 71
3
 72
23
 73
19
 74
0
 42
0.0000001
 43
0.0000001
 44
0.0000000001
 40
0.0
 40
0.0
 40
0.0
 40
0.0
 40
0.0098690806
 40
0.0320015087
 40
0.0711025664
 40
0.110257867
 40
0.1560538874
 40
0.1921596294
 40
0.2416228136
 40
0.2847585585
 40
0.3382680983
 40
0.3821538899
 40
0.4904393306
 40
0.5859153327
 40
0.6536837292
 40
0.7449631414
 40
0.8824283279
 40
1.0
 40
1.0
 40
1.0
 40
1.0
 10
1.356835424
 20
20.75
 30
0.0
 10
1.356835424
 20
20.7471689271
 30
0.0
 10
1.3568228654
 20
20.7379888984
 30
0.0
 10
1.3569759206
 20
20.7175920114
 30
0.0
 10
1.3578981837
 20
20.6888040737
 30
0.0
 10
1.3600802254
 20
20.6532802846
 30
0.0
 10
1.3633323248
 20
20.6186983976
 30
0.0
 10
1.3680249804
 20
20.5813038651
 30
0.0
 10
1.3738172589
 20
20.5448308958
 30
0.0
 10
1.3818272916
 20
20.5036835129
 30
0.0
 10
1.3910514973
 20
20.4644249716
 30
0.0
 10
1.4063151217
 20
20.4074423997
 30
0.0
 10
1.4313521243
 20
20.3404933337
 30
0.0
 10
1.472588441
 20
20.2739437647
 30
0.0
 10
1.5189246726
 20
20.2173132788
 30
0.0
 10
1.5844500241
 20
20.1618780447
 30
0.0
 10
1.6775051297
 20
20.1219300249
 30
0.0
 10
1.7508958239
 20
20.1126092981
 30
0.0
 10
1.7846227729
 20
20.1126092981
 30
0.0
  0
ENDSEC
  0
SECTION
  2
OBJECTS
  0
DICTIONARY
  5
C
100
AcDbDictionary
280
0
281
1
  3
ACAD_GROUP
350
D
  3
ACAD_MLINESTYLE
350
17
  3
ACAD_LAYOUT
350
1A
  3
ACAD_PLOTSETTINGS
350
19
  3
ACAD_PLOTSTYLENAME
350
E
  0
DICTIONARY
  5
D
102
{ACAD_REACTORS
330
C
102
}
100
AcDbDictionary
280
0
281
1
  0
ACDBDICTIONARYWDFLT
  5
E
102
{ACAD_REACTORS
330
C
102
}
100
AcDbDictionary
281
1
  3
Normal
350
F
100
AcDbDictionaryWithDefault
340
F
  0
DICTIONARY
  5
17
102
{ACAD_REACTORS
330
C
102
}
100
AcDbDictionary
280
0
281
1
  3
Standard
350
18
  0
DICTIONARY
  5
19
102
{ACAD_REACTORS
330
C
102
}
100
AcDbDictionary
281
1
  0
DICTIONARY
  5
1A
102
{ACAD_REACTORS
330
C
102
}
100
AcDbDictionary
281
1
  3
Model
350
40D
  3
Layout1
350
40E
  0
ACDBPLACEHOLDER
  5
F
102
{ACAD_REACTORS
330
E
102
}
  0
MLINESTYLE
  5
18
102
{ACAD_REACTORS
330
17
102
}
100
AcDbMlineStyle
  2
STANDARD
 70
0
  3

 62
256
 51
90.0
 52
90.0
 71
2
 49
0.5
 62
256
  6
BYLAYER
 49
-0.5
 62
256
  6
BYLAYER
  0
LAYOUT
  5
40D
102
{ACAD_REACTORS
330
1A
102
}
100
AcDbPlotSettings
  1

  2
none_device
  4
ANSI_C_(22.00_x_17.00_Inches)
  6

 40
0.0
 41
0.0
 42
0.0
 43
0.0
 44
558.8
 45
431.8
 46
0.0
 47
0.0
 48
0.0
 49
0.0
140
0.0
141
0.0
142
1.0
143
1.0
 70
1024
 72
1
 73
0
 74
0
  7

 75
0
147
1.0
148
0.0
149
0.0
100
AcDbLayout
  1
Model
 70
0
 71
0
 10
0.0
 20
0.0
 11
558.8
 21
431.8
 12
0.0
 22
0.0
 32
0.0
 14
0.0
 24
0.0
 34
0.0
 15
0.0
 25
0.0
 35
0.0
146
0.0
 13
0.0
 23
0.0
 33
0.0
 16
1.0
 26
0.0
 36
0.0
 17
0.0
 27
1.0
 37
0.0
 76
0
330
20B
345
0
346
0
  0
LAYOUT
  5
40E
102
{ACAD_REACTORS
330
1A
102
}
100
AcDbPlotSettings
  1

  2
none_device
  4
ANSI_C_(22.00_x_17.00_Inches)
  6

 40
0.0
 41
0.0
 42
0.0
 43
0.0
 44
558.8
 45
431.8
 46
0.0
 47
0.0
 48
0.0
 49
0.0
140
0.0
141
0.0
142
1.0
143
1.0
 70
0
 72
1
 73
0
 74
0
  7

 75
0
147
1.0
148
0.0
149
0.0
100
AcDbLayout
  1
Layout1
 70
0
 71
1
 10
0.0
 20
0.0
 11
558.8
 21
431.8
 12
0.0
 22
0.0
 32
0.0
 14
0.0
 24
0.0
 34
0.0
 15
0.0
 25
0.0
 35
0.0
146
0.0
 13
0.0
 23
0.0
 33
0.0
 16
1.0
 26
0.0
 36
0.0
 17
0.0
 27
1.0
 37
0.0
 76
0
330
20C
345
0
346
0
  0
ENDSEC
  0
EOF
