  0
SECTION
  2
HEADER
  9
$ACADVER
  1
AC1024
  9
$DWGCODEPAGE
  3
ANSI_1252
  9
$EXTMAX
 10
297.0
 20
210.0
 30
0.0
  9
$EXTMIN
 10
0.0
 20
0.0
 30
0.0
  9
$LIMMIN
 10
0.0
 20
0.0
  9
$LIMMAX
 10
297.0
 20
210.0
  9
$VIEWCTR
 10
148.5
 20
105.0
  9
$VIEWSIZE
 40
210.0
  9
$CLAYER
  8
0
  9
$LTSCALE
 40
16.335
  9
$CELTYPE
  6
BYLAYER
  9
$DIMSCALE
 40
1.0
  9
$DIMASZ
 40
3.0
  9
$DIMEXO
 40
0.5
  9
$DIMDLI
 40
11.286
  9
$DIMEXE
 40
1.5
  9
$DIMCEN
 40
2.673
  9
$DIMLFAC
 40
1.0
  9
$DIMBLK
  1
_FILLED
  9
$DIMALT
 70
0
  9
$DIMALTF
 40
0.0393700787
  9
$DIMTXT
 40
3.0
  9
$DIMTOL
 70
1
  9
$DIMLIM
 70
0
  9
$DIMTFAC
 40
1.0
  9
$DIMTP
 40
0.01
  9
$DIMTM
 40
0.01
  9
$DIMGAP
 40
0.625
  9
$DIMDSEP
 70
44
  9
$AUNITS
 70
0
  9
$PDMODE
 70
3
  9
$PDSIZE
 40
3.0
  9
$HANDSEED
  5
3EA
  9
$TILEMODE
 70
1
  9
$MEASUREMENT
 70
1
  9
$INSUNITS
 70
4
  0
ENDSEC
  0
SECTION
  2
CLASSES
  0
CLASS
  1
ACDBDICTIONARYWDFLT
  2
AcDbDictionaryWithDefault
  3
AutoCAD 2000
 90
0
 91
1
280
0
281
0
  0
CLASS
  1
ACDBPLACEHOLDER
  2
AcDbPlaceHolder
  3
AutoCAD 2000
 90
0
 91
1
280
0
281
0
  0
CLASS
  1
LAYOUT
  2
AcDbLayout
  3
AutoCAD 2000
 90
0
 91
0
280
0
281
0
  0
ENDSEC
  0
SECTION
  2
TABLES
  0
TABLE
  2
VPORT
  5
8
100
AcDbSymbolTable
 70
2
  0
VPORT
  5
1F4
100
AcDbSymbolTableRecord
100
AcDbViewportTableRecord
  2
*ACTIVE
 70
0
 10
0.0
 20
0.0
 11
1.0
 21
1.0
 12
148.5
 22
105.0
 13
0.0
 23
0.0
 14
1.0
 24
1.0
 15
0.0
 25
0.0
 16
0.0
 26
0.0
 36
1.0
 17
0.0
 27
0.0
 37
0.0
 40
210.0
 41
1.4142857143
 42
50.0
 43
0.0
 44
0.0
 50
0.0
 51
0.0
 71
0
 72
100
 73
1
 74
1
 75
0
 76
0
 77
0
 78
0
  0
ENDTAB
  0
TABLE
  2
LTYPE
  5
5
100
AcDbSymbolTable
 70
6
  0
LTYPE
  5
14
100
AcDbSymbolTableRecord
100
AcDbLinetypeTableRecord
  2
BYBLOCK
 70
0
  3

 72
65
 73
0
 40
0.0
  0
LTYPE
  5
15
100
AcDbSymbolTableRecord
100
AcDbLinetypeTableRecord
  2
BYLAYER
 70
0
  3

 72
65
 73
0
 40
0.0
  0
LTYPE
  5
16
100
AcDbSymbolTableRecord
100
AcDbLinetypeTableRecord
  2
CONTINUOUS
 70
64
  3
Solid line
 72
65
 73
0
 40
0.0
  0
LTYPE
  5
1F5
100
AcDbSymbolTableRecord
100
AcDbLinetypeTableRecord
  2
CENTER
 70
64
  3
____ _ ____ _ ____ _ ____ _ ____ _ ____ _ ____
 72
65
 73
4
 40
0.6
 49
0.375
 74
0
 49
-0.075
 74
0
 49
0.075
 74
0
 49
-0.075
 74
0
  0
LTYPE
  5
1F6
100
AcDbSymbolTableRecord
100
AcDbLinetypeTableRecord
  2
HIDDEN
 70
64
  3
- - - - - - - - - - - - - - - - - - - -
 72
65
 73
2
 40
0.2
 49
0.1
 74
0
 49
-0.1
 74
0
  0
LTYPE
  5
1F7
100
AcDbSymbolTableRecord
100
AcDbLinetypeTableRecord
  2
PHANTOM
 70
64
  3
_____ _ _ _____ _ _ _____ _ _ _____
 72
65
 73
6
 40
0.8
 49
0.45
 74
0
 49
-0.05
 74
0
 49
0.1
 74
0
 49
-0.05
 74
0
 49
0.1
 74
0
 49
-0.05
 74
0
  0
LTYPE
  5
1F8
100
AcDbSymbolTableRecord
100
AcDbLinetypeTableRecord
  2
DOT
 70
64
  3
. . . . . . . . . . . . . . . . . . . .
 72
65
 73
2
 40
0.2
 49
0.1
 74
0
 49
-0.1
 74
0
  0
LTYPE
  5
1F9
100
AcDbSymbolTableRecord
100
AcDbLinetypeTableRecord
  2
DASHED
 70
64
  3
- - - - - - - - - - - - - - - - - - - -
 72
65
 73
2
 40
0.2
 49
0.1
 74
0
 49
-0.1
 74
0
  0
ENDTAB
  0
TABLE
  2
LAYER
  5
2
100
AcDbSymbolTable
 70
36
  0
LAYER
  5
10
100
AcDbSymbolTableRecord
100
AcDbLayerTableRecord
  2
0
 70
0
 62
7
  6
CONTINUOUS
370
-3
390
F
  0
LAYER
  5
1FA
100
AcDbSymbolTableRecord
100
AcDbLayerTableRecord
  2
DEFAULT_1
 70
0
 62
7
  6
CENTER
370
-3
390
F
  0
LAYER
  5
1FB
100
AcDbSymbolTableRecord
100
AcDbLayerTableRecord
  2
DEFAULT_2
 70
0
 62
7
  6
HIDDEN
370
-3
390
F
  0
LAYER
  5
1FC
100
AcDbSymbolTableRecord
100
AcDbLayerTableRecord
  2
DEFAULT_3
 70
0
 62
7
  6
PHANTOM
370
-3
390
F
  0
LAYER
  5
1FD
100
AcDbSymbolTableRecord
100
AcDbLayerTableRecord
  2
ASSI
 70
0
 62
7
  6
CONTINUOUS
370
-3
390
F
  0
LAYER
  5
1FE
100
AcDbSymbolTableRecord
100
AcDbLayerTableRecord
  2
COORDINATE
 70
0
 62
7
  6
CONTINUOUS
370
-3
390
F
  0
LAYER
  5
1FF
100
AcDbSymbolTableRecord
100
AcDbLayerTableRecord
  2
COPY_PUBLISH
 70
0
 62
7
  6
CONTINUOUS
370
-3
390
F
  0
LAYER
  5
200
100
AcDbSymbolTableRecord
100
AcDbLayerTableRecord
  2
COSMETIC
 70
0
 62
7
  6
CONTINUOUS
370
-3
390
F
  0
LAYER
  5
201
100
AcDbSymbolTableRecord
100
AcDbLayerTableRecord
  2
CURVE
 70
0
 62
7
  6
CONTINUOUS
370
-3
390
F
  0
LAYER
  5
202
100
AcDbSymbolTableRecord
100
AcDbLayerTableRecord
  2
IMPORT_IGES
 70
0
 62
7
  6
CONTINUOUS
370
-3
390
F
  0
LAYER
  5
203
100
AcDbSymbolTableRecord
100
AcDbLayerTableRecord
  2
NOTE
 70
0
 62
7
  6
CONTINUOUS
370
-3
390
F
  0
LAYER
  5
204
100
AcDbSymbolTableRecord
100
AcDbLayerTableRecord
  2
PIANI
 70
0
 62
7
  6
CONTINUOUS
370
-3
390
F
  0
LAYER
  5
205
100
AcDbSymbolTableRecord
100
AcDbLayerTableRecord
  2
PUNTI
 70
0
 62
7
  6
CONTINUOUS
370
-3
390
F
  0
LAYER
  5
206
100
AcDbSymbolTableRecord
100
AcDbLayerTableRecord
  2
RACCORDO
 70
0
 62
7
  6
CONTINUOUS
370
-3
390
F
  0
LAYER
  5
207
100
AcDbSymbolTableRecord
100
AcDbLayerTableRecord
  2
SNAPLINE
 70
0
 62
7
  6
CONTINUOUS
370
-3
390
F
  0
LAYER
  5
208
100
AcDbSymbolTableRecord
100
AcDbLayerTableRecord
  2
TRASH
 70
0
 62
7
  6
CONTINUOUS
370
-3
390
F
  0
ENDTAB
  0
TABLE
  2
STYLE
  5
3
100
AcDbSymbolTable
 70
1
  0
STYLE
  5
11
100
AcDbSymbolTableRecord
100
AcDbTextStyleTableRecord
  2
STANDARD
 70
0
 40
0.0
 41
0.8
 50
0.0
 71
0
 42
0.2
  3
txt
  4

  0
STYLE
  5
209
100
AcDbSymbolTableRecord
100
AcDbTextStyleTableRecord
  2
TEXTSTYLE_1
 70
0
 40
0.0
 41
0.8
 50
0.0
 71
0
 42
0.2
  3
gdt
  4

  0
ENDTAB
  0
TABLE
  2
VIEW
  5
6
100
AcDbSymbolTable
 70
0
  0
ENDTAB
  0
TABLE
  2
UCS
  5
7
100
AcDbSymbolTable
 70
0
  0
ENDTAB
  0
TABLE
  2
APPID
  5
9
100
AcDbSymbolTable
 70
1
  0
APPID
  5
20A
100
AcDbSymbolTableRecord
100
AcDbRegAppTableRecord
  2
ACAD
 70
0
  0
ENDTAB
  0
TABLE
  2
BLOCK_RECORD
  5
1
100
AcDbSymbolTable
 70
0
  0
BLOCK_RECORD
  5
20B
100
AcDbSymbolTableRecord
100
AcDbBlockTableRecord
  2
*Model_Space
  0
BLOCK_RECORD
  5
20C
100
AcDbSymbolTableRecord
100
AcDbBlockTableRecord
  2
*Paper_Space
  0
BLOCK_RECORD
  5
20D
100
AcDbSymbolTableRecord
100
AcDbBlockTableRecord
  2
_FILLED
  0
ENDTAB
  0
TABLE
  2
DIMSTYLE
  5
A
100
AcDbSymbolTable
 70
1
100
AcDbDimStyleTable
 71
0
  0
DIMSTYLE
105
20E
100
AcDbSymbolTableRecord
100
AcDbDimStyleTableRecord
  2
STANDARD
 70
0
  3

  4

 40
1.0
 41
3.0
 42
0.5
 43
0.38
 44
1.5
 45
0.0
 46
0.0
 47
0.01
 48
0.01
140
3.0
141
0.09
142
0.0
143
25.4
144
1.0
145
0.0
146
1.0
147
0.625
 71
1.0
 72
0.0
 73
0
 74
0
 75
0
 76
0
 77
1
 78
8
 79
2
170
0
171
1
172
0
173
0
174
0
175
0
176
0
177
0
178
0
270
2
179
2
271
2
272
2
273
2
274
2
275
0
280
0
281
0
282
0
283
1
284
8
285
0
286
0
287
3
288
0
340
11
278
44
341
20D
342
20D
343
20D
344
20D
  0
ENDTAB
  0
ENDSEC
  0
SECTION
  2
BLOCKS
  0
BLOCK
  5
20
100
AcDbEntity
  8
0
100
AcDbBlockBegin
  2
*Model_Space
 70
0
 10
0.0
 20
0.0
 30
0.0
  3
*Model_Space
  1

  0
ENDBLK
  5
21
100
AcDbEntity
  8
0
100
AcDbBlockEnd
  0
BLOCK
  5
1C
100
AcDbEntity
  8
0
100
AcDbBlockBegin
  2
*Paper_Space
 70
0
 10
0.0
 20
0.0
 30
0.0
  3
*Paper_Space
  1

  0
ENDBLK
  5
1D
100
AcDbEntity
  8
0
100
AcDbBlockEnd
  0
BLOCK
  5
20F
100
AcDbEntity
  8
0
100
AcDbBlockBegin
  2
_FILLED
 70
64
 10
0.0
 20
0.0
  3
_FILLED
  1

  0
SOLID
  5
210
100
AcDbEntity
  8
0
  6
BYBLOCK
 62
0
100
AcDbTrace
 10
0.0
 20
0.0
 11
-1.0
 21
0.3166666667
 12
-1.0
 22
-0.3166666667
 13
-1.0
 23
-0.3166666667
  0
ENDBLK
  5
211
100
AcDbEntity
  8
0
  6
BYBLOCK
 62
0
100
AcDbBlockEnd
  0
ENDSEC
  0
SECTION
  2
ENTITIES
  0
LINE
  5
212
100
AcDbEntity
  8
0
100
AcDbLine
 62
7
  6
CONTINUOUS
 10
-26.7
 20
-14.6
 11
-26.7
 21
14.6
  0
LINE
  5
213
100
AcDbEntity
  8
0
100
AcDbLine
 62
7
  6
CONTINUOUS
 10
-26.4
 20
14.6
 11
-26.4
 21
-14.6
  0
LINE
  5
214
100
AcDbEntity
  8
0
100
AcDbLine
 62
7
  6
CONTINUOUS
 10
25.7
 20
-15.6
 11
-25.7
 21
-15.6
  0
LINE
  5
215
100
AcDbEntity
  8
0
100
AcDbLine
 62
7
  6
CONTINUOUS
 10
-25.7
 20
-15.3
 11
25.7
 21
-15.3
  0
LINE
  5
216
100
AcDbEntity
  8
0
100
AcDbLine
 62
7
  6
CONTINUOUS
 10
-0.7663043478
 20
7.817021279
 11
-0.7826086957
 21
7.8021276586
  0
LINE
  5
217
100
AcDbEntity
  8
0
100
AcDbLine
 62
7
  6
CONTINUOUS
 10
-1.2253333323
 20
6.8382656861
 11
-1.2123333323
 21
6.8493295146
  0
LINE
  5
218
100
AcDbEntity
  8
0
100
AcDbLine
 62
7
  6
CONTINUOUS
 10
-1.0173333416
 20
6.8769890858
 11
-1.039
 21
6.8603933431
  0
LINE
  5
219
100
AcDbEntity
  8
0
100
AcDbLine
 62
7
  6
CONTINUOUS
 10
-0.7771739338
 20
7.7574468083
 11
-0.7554347619
 21
7.7723404255
  0
LINE
  5
21A
100
AcDbEntity
  8
0
100
AcDbLine
 62
7
  6
CONTINUOUS
 10
0.5361701702
 20
7.55
 11
0.4691488936
 21
7.5053191543
  0
LINE
  5
21B
100
AcDbEntity
  8
0
100
AcDbLine
 62
7
  6
CONTINUOUS
 10
0.4691488936
 20
7.4542553127
 11
0.5361701702
 21
7.4989361763
  0
LINE
  5
21C
100
AcDbEntity
  8
0
100
AcDbLine
 62
7
  6
CONTINUOUS
 10
-1.2166666677
 20
6.8769890858
 11
-1.234
 21
6.8659252573
  0
LINE
  5
21D
100
AcDbEntity
  8
0
100
AcDbLine
 62
7
  6
CONTINUOUS
 10
-0.7703333168
 20
6.6280529147
 11
-0.753
 21
6.6391167446
  0
LINE
  5
21E
100
AcDbEntity
  8
0
100
AcDbLine
 62
7
  6
CONTINUOUS
 10
0.0558510638
 20
7.5244680882
 11
0.0223404255
 21
7.5053191543
  0
LINE
  5
21F
100
AcDbEntity
  8
0
100
AcDbLine
 62
7
  6
CONTINUOUS
 10
0.3015957021
 20
7.2755319141
 11
0.3351063404
 21
7.2946808502
  0
LINE
  5
220
100
AcDbEntity
  8
0
100
AcDbLine
 62
7
  6
CONTINUOUS
 10
0.0893617021
 20
7.4989361763
 11
0.1228723404
 21
7.5117021322
  0
LINE
  5
221
100
AcDbEntity
  8
0
100
AcDbLine
 62
7
  6
CONTINUOUS
 10
0.2680850638
 20
7.3010638282
 11
0.2345744255
 21
7.2882978722
  0
LINE
  5
222
100
AcDbEntity
  8
0
100
AcDbLine
 62
7
  6
CONTINUOUS
 10
0.1117021703
 20
7.543617022
 11
0.0558510638
 21
7.5244680882
  0
LINE
  5
223
100
AcDbEntity
  8
0
100
AcDbLine
 62
7
  6
CONTINUOUS
 10
0.2457447235
 20
7.2563829785
 11
0.3015957021
 21
7.2755319141
  0
LINE
  5
224
100
AcDbEntity
  8
0
100
AcDbLine
 62
7
  6
CONTINUOUS
 10
-0.7826086957
 20
7.8021276586
 11
-0.8043478054
 21
7.794680851
  0
LINE
  5
225
100
AcDbEntity
  8
0
100
AcDbLine
 62
7
  6
CONTINUOUS
 10
-0.7746666832
 20
6.6612444035
 11
-0.792
 21
6.6557124893
  0
LINE
  5
226
100
AcDbEntity
  8
ASSI
100
AcDbLine
 62
7
  6
CONTINUOUS
 10
0.3412012811
 20
-7.8549974165
 11
0.3517556
 21
-7.8548037125
  0
LINE
  5
227
100
AcDbEntity
  8
ASSI
100
AcDbLine
 62
7
  6
CONTINUOUS
 10
-0.0973097148
 20
-7.8549974048
 11
-0.0867554
 21
-7.8548037007
  0
LINE
  5
228
100
AcDbEntity
  8
ASSI
100
AcDbLine
 62
7
  6
CONTINUOUS
 10
0.1657055
 20
-7.6375
 11
0.3117556
 21
-7.6375
  0
LINE
  5
229
100
AcDbEntity
  8
ASSI
100
AcDbLine
 62
7
  6
CONTINUOUS
 10
0.3117556
 20
-7.5625
 11
0.1657051928
 21
-7.5625
  0
LINE
  5
22A
100
AcDbEntity
  8
0
100
AcDbLine
 62
7
  6
CONTINUOUS
 10
-0.7554347619
 20
7.8393617019
 11
-0.7663043478
 21
7.817021279
  0
LINE
  5
22B
100
AcDbEntity
  8
0
100
AcDbLine
 62
7
  6
CONTINUOUS
 10
-1.234
 20
6.8216699434
 11
-1.2253333323
 21
6.8382656861
  0
LINE
  5
22C
100
AcDbEntity
  8
0
100
AcDbLine
 62
7
  6
CONTINUOUS
 10
-1.117
 20
6.7718826998
 11
-1.1083333292
 21
6.7884784425
  0
LINE
  5
22D
100
AcDbEntity
  8
0
100
AcDbLine
 62
7
  6
CONTINUOUS
 10
-1.0433333416
 20
6.8050741852
 11
-1.026
 21
6.8382656861
  0
LINE
  5
22E
100
AcDbEntity
  8
0
100
AcDbLine
 62
7
  6
CONTINUOUS
 10
-0.9393333416
 20
6.699967807
 11
-0.9566666584
 21
6.6667763177
  0
LINE
  5
22F
100
AcDbEntity
  8
0
100
AcDbLine
 62
7
  6
CONTINUOUS
 10
-0.7819148936
 20
7.25
 11
-0.6031915
 21
7.55
  0
LINE
  5
230
100
AcDbEntity
  8
0
100
AcDbLine
 62
7
  6
CONTINUOUS
 10
-0.6702127766
 20
7.55
 11
-0.82659575
 21
7.2882978722
  0
LINE
  5
231
100
AcDbEntity
  8
0
100
AcDbLine
 62
7
  6
CONTINUOUS
 10
0.1878398
 20
6.877479
 11
0.0696545
 21
6.7137814
  0
LINE
  5
232
100
AcDbEntity
  8
0
100
AcDbLine
 62
7
  6
CONTINUOUS
 10
-0.7554347619
 20
7.7723404255
 11
-0.7336956522
 21
7.8021276586
  0
LINE
  5
233
100
AcDbEntity
  8
0
100
AcDbLine
 62
7
  6
CONTINUOUS
 10
-1.234
 20
6.8659252573
 11
-1.2513333331
 21
6.8437976004
  0
LINE
  5
234
100
AcDbEntity
  8
0
100
AcDbLine
 62
7
  6
CONTINUOUS
 10
-1.039
 20
6.8603933431
 11
-1.052
 21
6.8437976004
  0
LINE
  5
235
100
AcDbEntity
  8
0
100
AcDbLine
 62
7
  6
CONTINUOUS
 10
-0.9436666584
 20
6.6446486589
 11
-0.9306666584
 21
6.6612444035
  0
LINE
  5
236
100
AcDbEntity
  8
0
100
AcDbLine
 62
7
  6
CONTINUOUS
 10
-0.753
 20
6.6391167446
 11
-0.7356666832
 21
6.6612444035
  0
LINE
  5
237
100
AcDbEntity
  8
0
100
AcDbLine
 62
7
  6
CONTINUOUS
 10
-0.1787234043
 20
7.5180851102
 11
-0.4021276383
 21
7.25
  0
LINE
  5
238
100
AcDbEntity
  8
0
100
AcDbLine
 62
7
  6
CONTINUOUS
 10
-0.3351063617
 20
7.25
 11
-0.1117021277
 21
7.5180851102
  0
LINE
  5
239
100
AcDbEntity
  8
0
100
AcDbLine
 62
7
  6
CONTINUOUS
 10
0.0223404255
 20
7.5053191543
 11
0.0000000213
 21
7.4797872424
  0
LINE
  5
23A
100
AcDbEntity
  8
0
100
AcDbLine
 62
7
  6
CONTINUOUS
 10
0.3351063404
 20
7.2946808502
 11
0.3574468085
 21
7.3202127665
  0
LINE
  5
23B
100
AcDbEntity
  8
0
100
AcDbLine
 62
7
  6
CONTINUOUS
 10
-1.1386666708
 20
6.7884784425
 11
-1.26
 21
6.650180575
  0
LINE
  5
23C
100
AcDbEntity
  8
0
100
AcDbLine
 62
7
  6
CONTINUOUS
 10
-1.2253333323
 20
6.650180575
 11
-1.117
 21
6.7718826998
  0
LINE
  5
23D
100
AcDbEntity
  8
0
100
AcDbLine
 62
7
  6
CONTINUOUS
 10
0.0446808937
 20
7.4606382906
 11
0.0893617021
 21
7.4989361763
  0
LINE
  5
23E
100
AcDbEntity
  8
0
100
AcDbLine
 62
7
  6
CONTINUOUS
 10
0.3127660001
 20
7.3393617004
 11
0.2680850638
 21
7.3010638282
  0
LINE
  5
23F
100
AcDbEntity
  8
0
100
AcDbLine
 62
7
  6
CONTINUOUS
 10
-1.026
 20
6.8382656861
 11
-1.013
 21
6.8493295146
  0
LINE
  5
240
100
AcDbEntity
  8
0
100
AcDbLine
 62
7
  6
CONTINUOUS
 10
-0.9566666584
 20
6.6667763177
 11
-0.9696666584
 21
6.6557124893
  0
LINE
  5
241
100
AcDbEntity
  8
0
100
AcDbLine
 62
7
  6
CONTINUOUS
 10
-0.7616666832
 20
6.6723082359
 11
-0.7746666832
 21
6.6612444035
  0
LINE
  5
242
100
AcDbEntity
  8
ASSI
100
AcDbLine
 62
7
  6
CONTINUOUS
 10
1.081854981
 20
6.8818281839
 11
0.9293186
 21
6.7532847
  0
LINE
  5
243
100
AcDbEntity
  8
ASSI
100
AcDbLine
 62
7
  6
CONTINUOUS
 10
0.9293186
 20
6.6865206
 11
1.0747775692
 21
6.809099774
  0
LINE
  5
244
100
AcDbEntity
  8
0
100
AcDbLine
 62
7
  6
CONTINUOUS
 10
-0.9653333416
 20
6.6280529147
 11
-0.9436666584
 21
6.6446486589
  0
LINE
  5
245
100
AcDbEntity
  8
0
100
AcDbLine
 62
7
  6
CONTINUOUS
 10
0.7595744681
 20
7.55
 11
0.6925531915
 21
7.5053191543
  0
LINE
  5
246
100
AcDbEntity
  8
0
100
AcDbLine
 62
7
  6
CONTINUOUS
 10
0.6925531915
 20
7.4542553127
 11
0.7595744681
 21
7.4989361763
  0
LINE
  5
247
100
AcDbEntity
  8
0
100
AcDbLine
 62
7
  6
CONTINUOUS
 10
0.982978766
 20
7.55
 11
0.9159574894
 21
7.5053191543
  0
LINE
  5
248
100
AcDbEntity
  8
0
100
AcDbLine
 62
7
  6
CONTINUOUS
 10
0.9159574894
 20
7.4542553127
 11
0.982978766
 21
7.4989361763
  0
LINE
  5
249
100
AcDbEntity
  8
0
100
AcDbLine
 62
7
  6
CONTINUOUS
 10
-1.0476666584
 20
6.7718826998
 11
-1.0433333416
 21
6.8050741852
  0
LINE
  5
24A
100
AcDbEntity
  8
0
100
AcDbLine
 62
7
  6
CONTINUOUS
 10
-0.935
 20
6.7331593002
 11
-0.9393333416
 21
6.699967807
  0
LINE
  5
24B
100
AcDbEntity
  8
0
100
AcDbLine
 62
7
  6
CONTINUOUS
 10
-0.7228260662
 20
7.8319148943
 11
-0.7173913043
 21
7.8691489324
  0
LINE
  5
24C
100
AcDbEntity
  8
0
100
AcDbLine
 62
7
  6
CONTINUOUS
 10
-1.065
 20
6.8050741852
 11
-1.0693333292
 21
6.7774146141
  0
LINE
  5
24D
100
AcDbEntity
  8
0
100
AcDbLine
 62
7
  6
CONTINUOUS
 10
-0.9176666584
 20
6.699967807
 11
-0.9133333416
 21
6.7276273859
  0
LINE
  5
24E
100
AcDbEntity
  8
0
100
AcDbLine
 62
7
  6
CONTINUOUS
 10
-0.75
 20
7.8691489324
 11
-0.7554347619
 21
7.8393617019
  0
LINE
  5
24F
100
AcDbEntity
  8
0
100
AcDbLine
 62
7
  6
CONTINUOUS
 10
-1.2513333331
 20
6.8437976004
 11
-1.2556666665
 21
6.8216699434
  0
LINE
  5
250
100
AcDbEntity
  8
0
100
AcDbLine
 62
7
  6
CONTINUOUS
 10
-1.1083333292
 20
6.7884784425
 11
-1.104
 21
6.8106060995
  0
LINE
  5
251
100
AcDbEntity
  8
0
100
AcDbLine
 62
7
  6
CONTINUOUS
 10
-0.7486666832
 20
6.7110316355
 11
-0.753
 21
6.6889039786
  0
LINE
  5
252
100
AcDbEntity
  8
0
100
AcDbLine
 62
7
  6
CONTINUOUS
 10
-1.1358695549
 20
7.8691489324
 11
-1.0869565114
 21
8.0702127695
  0
LINE
  5
253
100
AcDbEntity
  8
0
100
AcDbLine
 62
7
  6
CONTINUOUS
 10
-1.1630434886
 20
7.75
 11
-1.1413043478
 21
7.8393617019
  0
LINE
  5
254
100
AcDbEntity
  8
0
100
AcDbLine
 62
7
  6
CONTINUOUS
 10
-1.1086956522
 20
8.1
 11
-1.1956521843
 21
7.75
  0
LINE
  5
255
100
AcDbEntity
  8
0
100
AcDbLine
 62
7
  6
CONTINUOUS
 10
-1.2880434783
 20
8.1
 11
-1.3695652174
 21
7.7872340433
  0
LINE
  5
256
100
AcDbEntity
  8
0
100
AcDbLine
 62
7
  6
CONTINUOUS
 10
-1.0606666708
 20
6.8216699434
 11
-1.065
 21
6.8050741852
  0
LINE
  5
257
100
AcDbEntity
  8
0
100
AcDbLine
 62
7
  6
CONTINUOUS
 10
-0.922
 20
6.6833720643
 11
-0.9176666584
 21
6.699967807
  0
LINE
  5
258
100
AcDbEntity
  8
0
100
AcDbLine
 62
7
  6
CONTINUOUS
 10
-1.3478260921
 20
7.75
 11
-1.2717391304
 21
8.0255319238
  0
LINE
  5
259
100
AcDbEntity
  8
0
100
AcDbLine
 62
7
  6
CONTINUOUS
 10
-0.0540473
 20
8.9375135
 11
-0.1801018
 21
8.4979096
  0
LINE
  5
25A
100
AcDbEntity
  8
0
100
AcDbLine
 62
7
  6
CONTINUOUS
 10
-0.1126018
 20
8.2624848
 11
0.0150373
 21
8.7076203
  0
LINE
  5
25B
100
AcDbEntity
  8
0
100
AcDbLine
 62
7
  6
CONTINUOUS
 10
0.0335105957
 20
7.4223404229
 11
0.0446808937
 21
7.4606382906
  0
LINE
  5
25C
100
AcDbEntity
  8
0
100
AcDbLine
 62
7
  6
CONTINUOUS
 10
-1.0052623
 20
8.9375135
 11
-1.1544896
 21
8.4727186
  0
LINE
  5
25D
100
AcDbEntity
  8
0
100
AcDbLine
 62
7
  6
CONTINUOUS
 10
-1.0869863
 20
8.2624831
 11
-0.8702556
 21
8.9375135
  0
LINE
  5
25E
100
AcDbEntity
  8
0
100
AcDbLine
 62
7
  6
CONTINUOUS
 10
0.4567742
 20
8.9375152
 11
0.2400469
 21
8.2624831
  0
LINE
  5
25F
100
AcDbEntity
  8
0
100
AcDbLine
 62
7
  6
CONTINUOUS
 10
0.3750519
 20
8.2624848
 11
0.4176731
 21
8.3952337
  0
LINE
  5
260
100
AcDbEntity
  8
0
100
AcDbLine
 62
7
  6
CONTINUOUS
 10
0.4588532
 20
8.5234887
 11
0.5242793
 21
8.727278
  0
LINE
  5
261
100
AcDbEntity
  8
0
100
AcDbLine
 62
7
  6
CONTINUOUS
 10
-0.0111702128
 20
7.4606382906
 11
-0.0223404468
 21
7.4287234008
  0
LINE
  5
262
100
AcDbEntity
  8
0
100
AcDbLine
 62
7
  6
CONTINUOUS
 10
0.3686169787
 20
7.3393617004
 11
0.3797872767
 21
7.3712765992
  0
LINE
  5
263
100
AcDbEntity
  8
0
100
AcDbLine
 62
7
  6
CONTINUOUS
 10
-0.7336956522
 20
7.8021276586
 11
-0.7228260662
 21
7.8319148943
  0
LINE
  5
264
100
AcDbEntity
  8
0
100
AcDbLine
 62
7
  6
CONTINUOUS
 10
-1.13
 20
6.8106060995
 11
-1.1386666708
 21
6.7884784425
  0
LINE
  5
265
100
AcDbEntity
  8
0
100
AcDbLine
 62
7
  6
CONTINUOUS
 10
-1.052
 20
6.8437976004
 11
-1.0606666708
 21
6.8216699434
  0
LINE
  5
266
100
AcDbEntity
  8
0
100
AcDbLine
 62
7
  6
CONTINUOUS
 10
-0.9306666584
 20
6.6612444035
 11
-0.922
 21
6.6833720643
  0
LINE
  5
267
100
AcDbEntity
  8
0
100
AcDbLine
 62
7
  6
CONTINUOUS
 10
-0.7356666832
 20
6.6612444035
 11
-0.727
 21
6.6833720643
  0
LINE
  5
268
100
AcDbEntity
  8
0
100
AcDbLine
 62
7
  6
CONTINUOUS
 10
1.4239129606
 20
8.1
 11
1.3532608696
 21
7.9585106343
  0
LINE
  5
269
100
AcDbEntity
  8
0
100
AcDbLine
 62
7
  6
CONTINUOUS
 10
1.3695652174
 20
7.9287234038
 11
1.4565216562
 21
8.1
  0
LINE
  5
26A
100
AcDbEntity
  8
0
100
AcDbLine
 62
7
  6
CONTINUOUS
 10
-0.753
 20
6.6889039786
 11
-0.7616666832
 21
6.6723082359
  0
LINE
  5
26B
100
AcDbEntity
  8
ASSI
100
AcDbLine
 62
7
  6
CONTINUOUS
 10
0.7741328051
 20
6.4757453091
 11
0.7991575806
 21
6.5203314655
  0
LINE
  5
26C
100
AcDbEntity
  8
0
100
AcDbLine
 62
7
  6
CONTINUOUS
 10
0.0000000213
 20
7.4797872424
 11
-0.0111702128
 21
7.4606382906
  0
LINE
  5
26D
100
AcDbEntity
  8
0
100
AcDbLine
 62
7
  6
CONTINUOUS
 10
0.3574468085
 20
7.3202127665
 11
0.3686169787
 21
7.3393617004
  0
LINE
  5
26E
100
AcDbEntity
  8
0
100
AcDbLine
 62
7
  6
CONTINUOUS
 10
0.0984127
 20
6.7102304
 11
0.178665
 21
6.8245221
  0
LINE
  5
26F
100
AcDbEntity
  8
ASSI
100
AcDbLine
 62
7
  6
CONTINUOUS
 10
1.0968797
 20
6.2786901
 11
1.1252489
 21
6.3189077
  0
LINE
  5
270
100
AcDbEntity
  8
0
100
AcDbLine
 62
7
  6
CONTINUOUS
 10
-1.6
 20
9.15
 11
-1.6
 21
6.15
  0
LINE
  5
271
100
AcDbEntity
  8
0
100
AcDbLine
 62
7
  6
CONTINUOUS
 10
-1.5
 20
8.1
 11
-1.5
 21
7.75
  0
LINE
  5
272
100
AcDbEntity
  8
0
100
AcDbLine
 62
7
  6
CONTINUOUS
 10
-1.4673913043
 20
7.75
 11
-1.4673913043
 21
8.0255319238
  0
LINE
  5
273
100
AcDbEntity
  8
0
100
AcDbLine
 62
7
  6
CONTINUOUS
 10
-1.2717391304
 20
8.0255319238
 11
-1.2717391304
 21
7.75
  0
LINE
  5
274
100
AcDbEntity
  8
0
100
AcDbLine
 62
7
  6
CONTINUOUS
 10
-1.26
 20
6.650180575
 11
-1.26
 21
6.622521
  0
LINE
  5
275
100
AcDbEntity
  8
0
100
AcDbLine
 62
7
  6
CONTINUOUS
 10
-1.2391304348
 20
7.75
 11
-1.2391304348
 21
8.1
  0
LINE
  5
276
100
AcDbEntity
  8
0
100
AcDbLine
 62
7
  6
CONTINUOUS
 10
-1.13
 20
6.8216699434
 11
-1.13
 21
6.8106060995
  0
LINE
  5
277
100
AcDbEntity
  8
0
100
AcDbLine
 62
7
  6
CONTINUOUS
 10
-1.104
 20
6.622521
 11
-1.104
 21
6.650180575
  0
LINE
  5
278
100
AcDbEntity
  8
0
100
AcDbLine
 62
7
  6
CONTINUOUS
 10
-1.104
 20
6.8106060995
 11
-1.104
 21
6.8216699434
  0
LINE
  5
279
100
AcDbEntity
  8
0
100
AcDbLine
 62
7
  6
CONTINUOUS
 10
-1.0693333292
 20
6.7774146141
 11
-1.0693333292
 21
6.7276273859
  0
LINE
  5
27A
100
AcDbEntity
  8
0
100
AcDbLine
 62
7
  6
CONTINUOUS
 10
-1.0476666584
 20
6.7331593002
 11
-1.0476666584
 21
6.7718826998
  0
LINE
  5
27B
100
AcDbEntity
  8
0
100
AcDbLine
 62
7
  6
CONTINUOUS
 10
-0.935
 20
6.7718826998
 11
-0.935
 21
6.7331593002
  0
LINE
  5
27C
100
AcDbEntity
  8
0
100
AcDbLine
 62
7
  6
CONTINUOUS
 10
-0.934782588
 20
8.1
 11
-0.934782588
 21
7.75
  0
LINE
  5
27D
100
AcDbEntity
  8
0
100
AcDbLine
 62
7
  6
CONTINUOUS
 10
-0.9133333416
 20
6.7276273859
 11
-0.9133333416
 21
6.7774146141
  0
LINE
  5
27E
100
AcDbEntity
  8
0
100
AcDbLine
 62
7
  6
CONTINUOUS
 10
-0.9021738923
 20
7.794680851
 11
-0.9021738923
 21
8.0553191543
  0
LINE
  5
27F
100
AcDbEntity
  8
0
100
AcDbLine
 62
7
  6
CONTINUOUS
 10
-0.7802528
 20
8.9375135
 11
-0.7802544
 21
8.2624814
  0
LINE
  5
280
100
AcDbEntity
  8
0
100
AcDbLine
 62
7
  6
CONTINUOUS
 10
-0.75
 20
7.9808510572
 11
-0.75
 21
7.8691489324
  0
LINE
  5
281
100
AcDbEntity
  8
0
100
AcDbLine
 62
7
  6
CONTINUOUS
 10
-0.7486666832
 20
6.882521
 11
-0.7486666832
 21
6.7110316355
  0
LINE
  5
282
100
AcDbEntity
  8
0
100
AcDbLine
 62
7
  6
CONTINUOUS
 10
-0.7226666832
 20
6.7110316355
 11
-0.7226666832
 21
6.882521
  0
LINE
  5
283
100
AcDbEntity
  8
0
100
AcDbLine
 62
7
  6
CONTINUOUS
 10
-0.7173913043
 20
7.8691489324
 11
-0.7173913043
 21
7.9808510572
  0
LINE
  5
284
100
AcDbEntity
  8
0
100
AcDbLine
 62
7
  6
CONTINUOUS
 10
-0.6739130227
 20
8.1
 11
-0.6739130227
 21
7.75
  0
LINE
  5
285
100
AcDbEntity
  8
0
100
AcDbLine
 62
7
  6
CONTINUOUS
 10
-0.6452494
 20
8.2624831
 11
-0.6452477
 21
8.9375135
  0
LINE
  5
286
100
AcDbEntity
  8
0
100
AcDbLine
 62
7
  6
CONTINUOUS
 10
-0.6413043271
 20
7.794680851
 11
-0.6413043271
 21
7.9138297886
  0
LINE
  5
287
100
AcDbEntity
  8
0
100
AcDbLine
 62
7
  6
CONTINUOUS
 10
-0.6413043271
 20
7.9585106343
 11
-0.6413043271
 21
8.0553191543
  0
LINE
  5
288
100
AcDbEntity
  8
0
100
AcDbLine
 62
7
  6
CONTINUOUS
 10
-0.5138297872
 20
7.55
 11
-0.5138297872
 21
7.5180851102
  0
LINE
  5
289
100
AcDbEntity
  8
0
100
AcDbLine
 62
7
  6
CONTINUOUS
 10
-0.5102477
 20
8.9375135
 11
-0.5102477
 21
8.2624831
  0
LINE
  5
28A
100
AcDbEntity
  8
0
100
AcDbLine
 62
7
  6
CONTINUOUS
 10
-0.5000000207
 20
7.9138297886
 11
-0.5000000207
 21
7.9585106343
  0
LINE
  5
28B
100
AcDbEntity
  8
0
100
AcDbLine
 62
7
  6
CONTINUOUS
 10
-0.4782608488
 20
7.75
 11
-0.4782608488
 21
7.794680851
  0
LINE
  5
28C
100
AcDbEntity
  8
0
100
AcDbLine
 62
7
  6
CONTINUOUS
 10
-0.4782608488
 20
8.0553191543
 11
-0.4782608488
 21
8.1
  0
LINE
  5
28D
100
AcDbEntity
  8
0
100
AcDbLine
 62
7
  6
CONTINUOUS
 10
-0.3752426
 20
8.2624831
 11
-0.3752426
 21
8.7076203
  0
LINE
  5
28E
100
AcDbEntity
  8
0
100
AcDbLine
 62
7
  6
CONTINUOUS
 10
-0.242482
 20
6.877479
 11
-0.242482
 21
6.622521
  0
LINE
  5
28F
100
AcDbEntity
  8
0
100
AcDbLine
 62
7
  6
CONTINUOUS
 10
-0.2080327
 20
6.622521
 11
-0.2080327
 21
6.877479
  0
LINE
  5
290
100
AcDbEntity
  8
0
100
AcDbLine
 62
7
  6
CONTINUOUS
 10
-0.173913002
 20
8.1
 11
-0.173913002
 21
7.75
  0
LINE
  5
291
100
AcDbEntity
  8
0
100
AcDbLine
 62
7
  6
CONTINUOUS
 10
-0.1455353
 20
6.877479
 11
-0.1455353
 21
6.622521
  0
LINE
  5
292
100
AcDbEntity
  8
0
100
AcDbLine
 62
7
  6
CONTINUOUS
 10
-0.1413043064
 20
7.75
 11
-0.1413043064
 21
8.1
  0
LINE
  5
293
100
AcDbEntity
  8
0
100
AcDbLine
 62
7
  6
CONTINUOUS
 10
-0.1117021277
 20
7.5180851102
 11
-0.1117021277
 21
7.55
  0
LINE
  5
294
100
AcDbEntity
  8
0
100
AcDbLine
 62
7
  6
CONTINUOUS
 10
-0.1110955
 20
6.622521
 11
-0.1110955
 21
6.7301187
  0
LINE
  5
295
100
AcDbEntity
  8
0
100
AcDbLine
 62
7
  6
CONTINUOUS
 10
-0.1110955
 20
6.7595881
 11
-0.1110955
 21
6.8480096
  0
LINE
  5
296
100
AcDbEntity
  8
0
100
AcDbLine
 62
7
  6
CONTINUOUS
 10
-0.097826087
 20
8.1
 11
-0.097826087
 21
7.75
  0
LINE
  5
297
100
AcDbEntity
  8
ASSI
100
AcDbLine
 62
7
  6
CONTINUOUS
 10
-0.0867554
 20
-7.8548037007
 11
-0.0867554
 21
-7.7797220008
  0
LINE
  5
298
100
AcDbEntity
  8
ASSI
100
AcDbLine
 62
7
  6
CONTINUOUS
 10
-0.0867554
 20
-7.420278
 11
-0.0867554
 21
-7.3451963
  0
LINE
  5
299
100
AcDbEntity
  8
0
100
AcDbLine
 62
7
  6
CONTINUOUS
 10
-0.0652173913
 20
7.75
 11
-0.0652173913
 21
8.0553191543
  0
LINE
  5
29A
100
AcDbEntity
  8
0
100
AcDbLine
 62
7
  6
CONTINUOUS
 10
-0.0223404468
 20
7.4287234008
 11
-0.0223404468
 21
7.3712765992
  0
LINE
  5
29B
100
AcDbEntity
  8
0
100
AcDbLine
 62
7
  6
CONTINUOUS
 10
0.0150373
 20
8.7076203
 11
0.015039
 21
8.2624831
  0
LINE
  5
29C
100
AcDbEntity
  8
0
100
AcDbLine
 62
7
  6
CONTINUOUS
 10
0.0335105957
 20
7.3776595771
 11
0.0335105957
 21
7.4223404229
  0
LINE
  5
29D
100
AcDbEntity
  8
0
100
AcDbLine
 62
7
  6
CONTINUOUS
 10
0.0696545
 20
6.7137814
 11
0.0696545
 21
6.6832457
  0
LINE
  5
29E
100
AcDbEntity
  8
0
100
AcDbLine
 62
7
  6
CONTINUOUS
 10
0.0869565632
 20
8.1
 11
0.0869565632
 21
7.8021276586
  0
LINE
  5
29F
100
AcDbEntity
  8
0
100
AcDbLine
 62
7
  6
CONTINUOUS
 10
0.1195652589
 20
7.75
 11
0.1195652589
 21
8.1
  0
LINE
  5
2A0
100
AcDbEntity
  8
0
100
AcDbLine
 62
7
  6
CONTINUOUS
 10
0.1500441
 20
8.2624831
 11
0.1500441
 21
8.9375135
  0
LINE
  5
2A1
100
AcDbEntity
  8
0
100
AcDbLine
 62
7
  6
CONTINUOUS
 10
0.178665
 20
6.8245221
 11
0.178665
 21
6.7102304
  0
LINE
  5
2A2
100
AcDbEntity
  8
0
100
AcDbLine
 62
7
  6
CONTINUOUS
 10
0.178665
 20
6.6832457
 11
0.178665
 21
6.622521
  0
LINE
  5
2A3
100
AcDbEntity
  8
0
100
AcDbLine
 62
7
  6
CONTINUOUS
 10
0.2099137
 20
6.622521
 11
0.2099137
 21
6.6832457
  0
LINE
  5
2A4
100
AcDbEntity
  8
0
100
AcDbLine
 62
7
  6
CONTINUOUS
 10
0.2099137
 20
6.7102304
 11
0.2099137
 21
6.877479
  0
LINE
  5
2A5
100
AcDbEntity
  8
0
100
AcDbLine
 62
7
  6
CONTINUOUS
 10
0.2464936
 20
6.6832457
 11
0.2464936
 21
6.7102304
  0
LINE
  5
2A6
100
AcDbEntity
  8
0
100
AcDbLine
 62
7
  6
CONTINUOUS
 10
-0.727
 20
6.6833720643
 11
-0.7226666832
 21
6.7110316355
  0
LINE
  5
2A7
100
AcDbEntity
  8
0
100
AcDbLine
 62
7
  6
CONTINUOUS
 10
0.8097826916
 20
7.8691489324
 11
0.8586957351
 21
8.0702127695
  0
LINE
  5
2A8
100
AcDbEntity
  8
0
100
AcDbLine
 62
7
  6
CONTINUOUS
 10
0.7826086957
 20
7.75
 11
0.8043477432
 21
7.8393617019
  0
LINE
  5
2A9
100
AcDbEntity
  8
0
100
AcDbLine
 62
7
  6
CONTINUOUS
 10
0.8369564388
 20
8.1
 11
0.75
 21
7.75
  0
LINE
  5
2AA
100
AcDbEntity
  8
0
100
AcDbLine
 62
7
  6
CONTINUOUS
 10
0.3239361702
 20
7.3776595771
 11
0.3127660001
 21
7.3393617004
  0
LINE
  5
2AB
100
AcDbEntity
  8
0
100
AcDbLine
 62
7
  6
CONTINUOUS
 10
-1.104
 20
6.8216699434
 11
-1.1083333292
 21
6.8437976004
  0
LINE
  5
2AC
100
AcDbEntity
  8
0
100
AcDbLine
 62
7
  6
CONTINUOUS
 10
-1.0693333292
 20
6.7276273859
 11
-1.065
 21
6.699967807
  0
LINE
  5
2AD
100
AcDbEntity
  8
0
100
AcDbLine
 62
7
  6
CONTINUOUS
 10
-0.9133333416
 20
6.7774146141
 11
-0.9176666584
 21
6.8050741852
  0
LINE
  5
2AE
100
AcDbEntity
  8
0
100
AcDbLine
 62
7
  6
CONTINUOUS
 10
-0.8786666584
 20
6.7110316355
 11
-0.8743333416
 21
6.6833720643
  0
LINE
  5
2AF
100
AcDbEntity
  8
0
100
AcDbLine
 62
7
  6
CONTINUOUS
 10
-1.0433333416
 20
6.699967807
 11
-1.0476666584
 21
6.7331593002
  0
LINE
  5
2B0
100
AcDbEntity
  8
0
100
AcDbLine
 62
7
  6
CONTINUOUS
 10
-0.9393333416
 20
6.8050741852
 11
-0.935
 21
6.7718826998
  0
LINE
  5
2B1
100
AcDbEntity
  8
ASSI
100
AcDbLine
 62
7
  6
CONTINUOUS
 10
0.3117556
 20
-7.6375
 11
0.3117556
 21
-7.5625
  0
LINE
  5
2B2
100
AcDbEntity
  8
0
100
AcDbLine
 62
7
  6
CONTINUOUS
 10
0.3239361702
 20
7.4223404229
 11
0.3239361702
 21
7.3776595771
  0
LINE
  5
2B3
100
AcDbEntity
  8
ASSI
100
AcDbLine
 62
7
  6
CONTINUOUS
 10
0.3517556
 20
-7.8548037125
 11
0.3517556
 21
-7.7797216755
  0
LINE
  5
2B4
100
AcDbEntity
  8
ASSI
100
AcDbLine
 62
7
  6
CONTINUOUS
 10
0.3517556
 20
-7.420278
 11
0.3517556
 21
-7.3451963068
  0
LINE
  5
2B5
100
AcDbEntity
  8
0
100
AcDbLine
 62
7
  6
CONTINUOUS
 10
0.3797872767
 20
7.3712765992
 11
0.3797872767
 21
7.4287234008
  0
LINE
  5
2B6
100
AcDbEntity
  8
0
100
AcDbLine
 62
7
  6
CONTINUOUS
 10
0.4239130435
 20
8.1
 11
0.4239130435
 21
7.75
  0
LINE
  5
2B7
100
AcDbEntity
  8
0
100
AcDbLine
 62
7
  6
CONTINUOUS
 10
0.4565217391
 20
7.75
 11
0.4565217391
 21
8.1
  0
LINE
  5
2B8
100
AcDbEntity
  8
0
100
AcDbLine
 62
7
  6
CONTINUOUS
 10
0.4691488936
 20
7.5053191543
 11
0.4691488936
 21
7.4542553127
  0
LINE
  5
2B9
100
AcDbEntity
  8
0
100
AcDbLine
 62
7
  6
CONTINUOUS
 10
0.4999999585
 20
8.1
 11
0.4999999585
 21
8.0627659619
  0
LINE
  5
2BA
100
AcDbEntity
  8
0
100
AcDbLine
 62
7
  6
CONTINUOUS
 10
0.5361701702
 20
7.4989361763
 11
0.5361701702
 21
7.25
  0
LINE
  5
2BB
100
AcDbEntity
  8
0
100
AcDbLine
 62
7
  6
CONTINUOUS
 10
0.5869565217
 20
8.0627659619
 11
0.5869565217
 21
7.75
  0
LINE
  5
2BC
100
AcDbEntity
  8
0
100
AcDbLine
 62
7
  6
CONTINUOUS
 10
0.6031914468
 20
7.25
 11
0.6031914468
 21
7.55
  0
LINE
  5
2BD
100
AcDbEntity
  8
0
100
AcDbLine
 62
7
  6
CONTINUOUS
 10
0.6195652174
 20
7.75
 11
0.6195652174
 21
8.0627659619
  0
LINE
  5
2BE
100
AcDbEntity
  8
0
100
AcDbLine
 62
7
  6
CONTINUOUS
 10
0.6925531915
 20
7.5053191543
 11
0.6925531915
 21
7.4542553127
  0
LINE
  5
2BF
100
AcDbEntity
  8
0
100
AcDbLine
 62
7
  6
CONTINUOUS
 10
0.7065216562
 20
8.0627659619
 11
0.7065216562
 21
8.1
  0
LINE
  5
2C0
100
AcDbEntity
  8
0
100
AcDbLine
 62
7
  6
CONTINUOUS
 10
0.7595744681
 20
7.4989361763
 11
0.7595744681
 21
7.25
  0
LINE
  5
2C1
100
AcDbEntity
  8
ASSI
100
AcDbLine
 62
7
  6
CONTINUOUS
 10
0.8232239
 20
6.505662
 11
0.8232239
 21
6.4512971
  0
LINE
  5
2C2
100
AcDbEntity
  8
ASSI
100
AcDbLine
 62
7
  6
CONTINUOUS
 10
0.8249993
 20
6.9465613
 11
0.8249993
 21
6.8918974
  0
LINE
  5
2C3
100
AcDbEntity
  8
0
100
AcDbLine
 62
7
  6
CONTINUOUS
 10
0.8265957447
 20
7.25
 11
0.8265957447
 21
7.55
  0
LINE
  5
2C4
100
AcDbEntity
  8
ASSI
100
AcDbLine
 62
7
  6
CONTINUOUS
 10
0.8714029
 20
6.8918974
 11
0.8714029
 21
6.7532847
  0
LINE
  5
2C5
100
AcDbEntity
  8
ASSI
100
AcDbLine
 62
7
  6
CONTINUOUS
 10
0.8714029
 20
6.6859126
 11
0.8714029
 21
6.505662
  0
LINE
  5
2C6
100
AcDbEntity
  8
0
100
AcDbLine
 62
7
  6
CONTINUOUS
 10
0.8985195
 20
8.9375152
 11
0.8985195
 21
8.2624848
  0
LINE
  5
2C7
100
AcDbEntity
  8
0
100
AcDbLine
 62
7
  6
CONTINUOUS
 10
0.9159574894
 20
7.5053191543
 11
0.9159574894
 21
7.4542553127
  0
LINE
  5
2C8
100
AcDbEntity
  8
ASSI
100
AcDbLine
 62
7
  6
CONTINUOUS
 10
0.9293186
 20
6.505662
 11
0.9293186
 21
6.6865206
  0
LINE
  5
2C9
100
AcDbEntity
  8
ASSI
100
AcDbLine
 62
7
  6
CONTINUOUS
 10
0.9293186
 20
6.7532847
 11
0.9293186
 21
6.8918974
  0
LINE
  5
2CA
100
AcDbEntity
  8
ASSI
100
AcDbLine
 62
7
  6
CONTINUOUS
 10
0.9757034
 20
6.8918974
 11
0.9757034
 21
6.9465613
  0
LINE
  5
2CB
100
AcDbEntity
  8
ASSI
100
AcDbLine
 62
7
  6
CONTINUOUS
 10
0.9774788
 20
6.4512971
 11
0.9774788
 21
6.505662
  0
LINE
  5
2CC
100
AcDbEntity
  8
0
100
AcDbLine
 62
7
  6
CONTINUOUS
 10
0.982978766
 20
7.4989361763
 11
0.982978766
 21
7.25
  0
LINE
  5
2CD
100
AcDbEntity
  8
0
100
AcDbLine
 62
7
  6
CONTINUOUS
 10
1.0108695652
 20
8.1
 11
1.0108695652
 21
7.75
  0
LINE
  5
2CE
100
AcDbEntity
  8
0
100
AcDbLine
 62
7
  6
CONTINUOUS
 10
1.0316649
 20
8.6483705
 11
1.0316633
 21
8.8126351
  0
LINE
  5
2CF
100
AcDbEntity
  8
0
100
AcDbLine
 62
7
  6
CONTINUOUS
 10
1.0434782609
 20
7.794680851
 11
1.0434782609
 21
8.1
  0
LINE
  5
2D0
100
AcDbEntity
  8
0
100
AcDbLine
 62
7
  6
CONTINUOUS
 10
1.0500000426
 20
7.25
 11
1.0500000426
 21
7.55
  0
LINE
  5
2D1
100
AcDbEntity
  8
0
100
AcDbLine
 62
7
  6
CONTINUOUS
 10
1.2065217391
 20
7.75
 11
1.2065217391
 21
7.794680851
  0
LINE
  5
2D2
100
AcDbEntity
  8
0
100
AcDbLine
 62
7
  6
CONTINUOUS
 10
1.3369565217
 20
7.9287234038
 11
1.3369565217
 21
7.75
  0
LINE
  5
2D3
100
AcDbEntity
  8
0
100
AcDbLine
 62
7
  6
CONTINUOUS
 10
1.3695652174
 20
7.75
 11
1.3695652174
 21
7.9287234038
  0
LINE
  5
2D4
100
AcDbEntity
  8
0
100
AcDbLine
 62
7
  6
CONTINUOUS
 10
1.6
 20
6.15
 11
1.6
 21
9.15
  0
LINE
  5
2D5
100
AcDbEntity
  8
0
100
AcDbLine
 62
7
  6
CONTINUOUS
 10
1.0335263
 20
8.2624848
 11
1.0335414
 21
8.5234904
  0
LINE
  5
2D6
100
AcDbEntity
  8
0
100
AcDbLine
 62
7
  6
CONTINUOUS
 10
-1.1386666708
 20
6.8382656861
 11
-1.13
 21
6.8216699434
  0
LINE
  5
2D7
100
AcDbEntity
  8
0
100
AcDbLine
 62
7
  6
CONTINUOUS
 10
-1.026
 20
6.6667763177
 11
-1.0433333416
 21
6.699967807
  0
LINE
  5
2D8
100
AcDbEntity
  8
0
100
AcDbLine
 62
7
  6
CONTINUOUS
 10
-0.9566666584
 20
6.8382656861
 11
-0.9393333416
 21
6.8050741852
  0
LINE
  5
2D9
100
AcDbEntity
  8
0
100
AcDbLine
 62
7
  6
CONTINUOUS
 10
-1.0606666708
 20
6.6833720643
 11
-1.052
 21
6.6612444035
  0
LINE
  5
2DA
100
AcDbEntity
  8
0
100
AcDbLine
 62
7
  6
CONTINUOUS
 10
-0.8743333416
 20
6.6833720643
 11
-0.8656666584
 21
6.6612444035
  0
LINE
  5
2DB
100
AcDbEntity
  8
0
100
AcDbLine
 62
7
  6
CONTINUOUS
 10
-0.922
 20
6.8216699434
 11
-0.9306666584
 21
6.8437976004
  0
LINE
  5
2DC
100
AcDbEntity
  8
0
100
AcDbLine
 62
7
  6
CONTINUOUS
 10
-0.7228260662
 20
8.0180851161
 11
-0.7336956522
 21
8.0478723466
  0
LINE
  5
2DD
100
AcDbEntity
  8
0
100
AcDbLine
 62
7
  6
CONTINUOUS
 10
-1.4387254
 20
8.9375135
 11
-1.2219964
 21
8.2624814
  0
LINE
  5
2DE
100
AcDbEntity
  8
0
100
AcDbLine
 62
7
  6
CONTINUOUS
 10
-1.1544896
 20
8.4727186
 11
-1.3037186
 21
8.9375135
  0
LINE
  5
2DF
100
AcDbEntity
  8
0
100
AcDbLine
 62
7
  6
CONTINUOUS
 10
0.0446808937
 20
7.3393617004
 11
0.0335105957
 21
7.3776595771
  0
LINE
  5
2E0
100
AcDbEntity
  8
0
100
AcDbLine
 62
7
  6
CONTINUOUS
 10
-0.3752426
 20
8.7076203
 11
-0.2476035
 21
8.2624831
  0
LINE
  5
2E1
100
AcDbEntity
  8
0
100
AcDbLine
 62
7
  6
CONTINUOUS
 10
-0.1801018
 20
8.4979096
 11
-0.3061564
 21
8.9375135
  0
LINE
  5
2E2
100
AcDbEntity
  8
0
100
AcDbLine
 62
7
  6
CONTINUOUS
 10
-1.4673913043
 20
8.0255319238
 11
-1.3913043504
 21
7.75
  0
LINE
  5
2E3
100
AcDbEntity
  8
0
100
AcDbLine
 62
7
  6
CONTINUOUS
 10
-1.065
 20
6.699967807
 11
-1.0606666708
 21
6.6833720643
  0
LINE
  5
2E4
100
AcDbEntity
  8
0
100
AcDbLine
 62
7
  6
CONTINUOUS
 10
-0.9176666584
 20
6.8050741852
 11
-0.922
 21
6.8216699434
  0
LINE
  5
2E5
100
AcDbEntity
  8
0
100
AcDbLine
 62
7
  6
CONTINUOUS
 10
-1.3695652174
 20
7.7872340433
 11
-1.4510869565
 21
8.1
  0
LINE
  5
2E6
100
AcDbEntity
  8
0
100
AcDbLine
 62
7
  6
CONTINUOUS
 10
-0.9782608696
 20
7.75
 11
-1.0652174017
 21
8.1
  0
LINE
  5
2E7
100
AcDbEntity
  8
0
100
AcDbLine
 62
7
  6
CONTINUOUS
 10
-1.032608706
 20
7.8393617019
 11
-1.0108695652
 21
7.75
  0
LINE
  5
2E8
100
AcDbEntity
  8
0
100
AcDbLine
 62
7
  6
CONTINUOUS
 10
-1.0869565114
 20
8.0702127695
 11
-1.0380434679
 21
7.8691489324
  0
LINE
  5
2E9
100
AcDbEntity
  8
0
100
AcDbLine
 62
7
  6
CONTINUOUS
 10
-0.8483333416
 20
6.6889039786
 11
-0.8526666584
 21
6.7110316355
  0
LINE
  5
2EA
100
AcDbEntity
  8
0
100
AcDbLine
 62
7
  6
CONTINUOUS
 10
-0.7554347619
 20
8.0106382877
 11
-0.75
 21
7.9808510572
  0
LINE
  5
2EB
100
AcDbEntity
  8
0
100
AcDbLine
 62
7
  6
CONTINUOUS
 10
-0.7173913043
 20
7.9808510572
 11
-0.7228260662
 21
8.0180851161
  0
LINE
  5
2EC
100
AcDbEntity
  8
0
100
AcDbLine
 62
7
  6
CONTINUOUS
 10
-1.052
 20
6.6612444035
 11
-1.039
 21
6.6446486589
  0
LINE
  5
2ED
100
AcDbEntity
  8
0
100
AcDbLine
 62
7
  6
CONTINUOUS
 10
-1.1083333292
 20
6.8437976004
 11
-1.1256666708
 21
6.8659252573
  0
LINE
  5
2EE
100
AcDbEntity
  8
0
100
AcDbLine
 62
7
  6
CONTINUOUS
 10
-0.8656666584
 20
6.6612444035
 11
-0.8483333416
 21
6.6391167446
  0
LINE
  5
2EF
100
AcDbEntity
  8
0
100
AcDbLine
 62
7
  6
CONTINUOUS
 10
-0.9306666584
 20
6.8437976004
 11
-0.9436666584
 21
6.8603933431
  0
LINE
  5
2F0
100
AcDbEntity
  8
0
100
AcDbLine
 62
7
  6
CONTINUOUS
 10
-0.7336956522
 20
8.0478723466
 11
-0.7554347619
 21
8.0776595771
  0
LINE
  5
2F1
100
AcDbEntity
  8
0
100
AcDbLine
 62
7
  6
CONTINUOUS
 10
-0.82659575
 20
7.2882978722
 11
-0.9829787234
 21
7.55
  0
LINE
  5
2F2
100
AcDbEntity
  8
0
100
AcDbLine
 62
7
  6
CONTINUOUS
 10
-1.05
 20
7.55
 11
-0.8712765904
 21
7.25
  0
LINE
  5
2F3
100
AcDbEntity
  8
0
100
AcDbLine
 62
7
  6
CONTINUOUS
 10
-0.0111702128
 20
7.3393617004
 11
0.0000000213
 21
7.3202127665
  0
LINE
  5
2F4
100
AcDbEntity
  8
0
100
AcDbLine
 62
7
  6
CONTINUOUS
 10
0.3686169787
 20
7.4606382906
 11
0.3574468085
 21
7.4797872424
  0
LINE
  5
2F5
100
AcDbEntity
  8
ASSI
100
AcDbLine
 62
7
  6
CONTINUOUS
 10
1.0008424
 20
6.5203315
 11
1.0258672
 21
6.4757453
  0
LINE
  5
2F6
100
AcDbEntity
  8
0
100
AcDbLine
 62
7
  6
CONTINUOUS
 10
-0.8396666832
 20
6.6723082359
 11
-0.8483333416
 21
6.6889039786
  0
LINE
  5
2F7
100
AcDbEntity
  8
0
100
AcDbLine
 62
7
  6
CONTINUOUS
 10
-0.7663043478
 20
8.0329787314
 11
-0.7554347619
 21
8.0106382877
  0
LINE
  5
2F8
100
AcDbEntity
  8
0
100
AcDbLine
 62
7
  6
CONTINUOUS
 10
0.0869565632
 20
7.8021276586
 11
-0.0489130435
 21
8.1
  0
LINE
  5
2F9
100
AcDbEntity
  8
0
100
AcDbLine
 62
7
  6
CONTINUOUS
 10
-0.0652173913
 20
8.0553191543
 11
0.0706522154
 21
7.75
  0
LINE
  5
2FA
100
AcDbEntity
  8
0
100
AcDbLine
 62
7
  6
CONTINUOUS
 10
-0.0223404468
 20
7.3712765992
 11
-0.0111702128
 21
7.3393617004
  0
LINE
  5
2FB
100
AcDbEntity
  8
0
100
AcDbLine
 62
7
  6
CONTINUOUS
 10
0.3797872767
 20
7.4287234008
 11
0.3686169787
 21
7.4606382906
  0
LINE
  5
2FC
100
AcDbEntity
  8
0
100
AcDbLine
 62
7
  6
CONTINUOUS
 10
0.6308904
 20
8.3952337
 11
0.6735099
 21
8.2624848
  0
LINE
  5
2FD
100
AcDbEntity
  8
0
100
AcDbLine
 62
7
  6
CONTINUOUS
 10
0.5242793
 20
8.727278
 11
0.5897087
 21
8.5234887
  0
LINE
  5
2FE
100
AcDbEntity
  8
0
100
AcDbLine
 62
7
  6
CONTINUOUS
 10
0.8085167
 20
8.2624831
 11
0.591786
 21
8.9375152
  0
LINE
  5
2FF
100
AcDbEntity
  8
0
100
AcDbLine
 62
7
  6
CONTINUOUS
 10
0.3127660001
 20
7.4606382906
 11
0.3239361702
 21
7.4223404229
  0
LINE
  5
300
100
AcDbEntity
  8
0
100
AcDbLine
 62
7
  6
CONTINUOUS
 10
0.9673912214
 20
7.75
 11
0.8804347826
 21
8.1
  0
LINE
  5
301
100
AcDbEntity
  8
0
100
AcDbLine
 62
7
  6
CONTINUOUS
 10
0.9130434783
 20
7.8393617019
 11
0.9347825258
 21
7.75
  0
LINE
  5
302
100
AcDbEntity
  8
0
100
AcDbLine
 62
7
  6
CONTINUOUS
 10
0.8586957351
 20
8.0702127695
 11
0.9076087786
 21
7.8691489324
  0
LINE
  5
303
100
AcDbEntity
  8
0
100
AcDbLine
 62
7
  6
CONTINUOUS
 10
-1.6
 20
6.15
 11
1.6
 21
6.15
  0
LINE
  5
304
100
AcDbEntity
  8
ASSI
100
AcDbLine
 62
7
  6
CONTINUOUS
 10
0.8232239
 20
6.4512971
 11
0.9774788
 21
6.4512971
  0
LINE
  5
305
100
AcDbEntity
  8
0
100
AcDbLine
 62
7
  6
CONTINUOUS
 10
-1.0173333416
 20
6.6280529147
 11
-0.9913333416
 21
6.622521
  0
LINE
  5
306
100
AcDbEntity
  8
0
100
AcDbLine
 62
7
  6
CONTINUOUS
 10
-0.9913333416
 20
6.650180575
 11
-1.013
 21
6.6557124893
  0
LINE
  5
307
100
AcDbEntity
  8
0
100
AcDbLine
 62
7
  6
CONTINUOUS
 10
-0.831
 20
6.6280529147
 11
-0.8093333168
 21
6.622521
  0
LINE
  5
308
100
AcDbEntity
  8
0
100
AcDbLine
 62
7
  6
CONTINUOUS
 10
-1.1733333354
 20
6.8548614288
 11
-1.1516666708
 21
6.8493295146
  0
LINE
  5
309
100
AcDbEntity
  8
0
100
AcDbLine
 62
7
  6
CONTINUOUS
 10
-0.9913333416
 20
6.8548614288
 11
-0.9696666584
 21
6.8493295146
  0
LINE
  5
30A
100
AcDbEntity
  8
0
100
AcDbLine
 62
7
  6
CONTINUOUS
 10
-0.8093333168
 20
6.6557124893
 11
-0.8266666832
 21
6.6612444035
  0
LINE
  5
30B
100
AcDbEntity
  8
0
100
AcDbLine
 62
7
  6
CONTINUOUS
 10
0.0223404255
 20
7.2946808502
 11
0.0558510638
 21
7.2755319141
  0
LINE
  5
30C
100
AcDbEntity
  8
0
100
AcDbLine
 62
7
  6
CONTINUOUS
 10
-0.8483333416
 20
6.6391167446
 11
-0.831
 21
6.6280529147
  0
LINE
  5
30D
100
AcDbEntity
  8
0
100
AcDbLine
 62
7
  6
CONTINUOUS
 10
-1.1256666708
 20
6.8659252573
 11
-1.143
 21
6.8769890858
  0
LINE
  5
30E
100
AcDbEntity
  8
0
100
AcDbLine
 62
7
  6
CONTINUOUS
 10
-0.7554347619
 20
8.0776595771
 11
-0.7771739338
 21
8.0925531924
  0
LINE
  5
30F
100
AcDbEntity
  8
0
100
AcDbLine
 62
7
  6
CONTINUOUS
 10
-1.039
 20
6.6446486589
 11
-1.0173333416
 21
6.6280529147
  0
LINE
  5
310
100
AcDbEntity
  8
0
100
AcDbLine
 62
7
  6
CONTINUOUS
 10
-0.9436666584
 20
6.8603933431
 11
-0.9653333416
 21
6.8769890858
  0
LINE
  5
311
100
AcDbEntity
  8
ASSI
100
AcDbLine
 62
7
  6
CONTINUOUS
 10
0.7252224
 20
6.8090998
 11
0.8714029
 21
6.6859126
  0
LINE
  5
312
100
AcDbEntity
  8
ASSI
100
AcDbLine
 62
7
  6
CONTINUOUS
 10
0.8714029
 20
6.7532847
 11
0.7184752
 21
6.8821578
  0
LINE
  5
313
100
AcDbEntity
  8
0
100
AcDbLine
 62
7
  6
CONTINUOUS
 10
-1.013
 20
6.6557124893
 11
-1.026
 21
6.6667763177
  0
LINE
  5
314
100
AcDbEntity
  8
0
100
AcDbLine
 62
7
  6
CONTINUOUS
 10
-1.1516666708
 20
6.8493295146
 11
-1.1386666708
 21
6.8382656861
  0
LINE
  5
315
100
AcDbEntity
  8
0
100
AcDbLine
 62
7
  6
CONTINUOUS
 10
-0.8266666832
 20
6.6612444035
 11
-0.8396666832
 21
6.6723082359
  0
LINE
  5
316
100
AcDbEntity
  8
0
100
AcDbLine
 62
7
  6
CONTINUOUS
 10
-0.9696666584
 20
6.8493295146
 11
-0.9566666584
 21
6.8382656861
  0
LINE
  5
317
100
AcDbEntity
  8
0
100
AcDbLine
 62
7
  6
CONTINUOUS
 10
0.0893617021
 20
7.3010638282
 11
0.0446808937
 21
7.3393617004
  0
LINE
  5
318
100
AcDbEntity
  8
0
100
AcDbLine
 62
7
  6
CONTINUOUS
 10
0.2680850638
 20
7.4989361763
 11
0.3127660001
 21
7.4606382906
  0
LINE
  5
319
100
AcDbEntity
  8
0
100
AcDbLine
 62
7
  6
CONTINUOUS
 10
-0.7826086957
 20
8.0478723466
 11
-0.7663043478
 21
8.0329787314
  0
LINE
  5
31A
100
AcDbEntity
  8
0
100
AcDbLine
 62
7
  6
CONTINUOUS
 10
0.0000000213
 20
7.3202127665
 11
0.0223404255
 21
7.2946808502
  0
LINE
  5
31B
100
AcDbEntity
  8
0
100
AcDbLine
 62
7
  6
CONTINUOUS
 10
0.3574468085
 20
7.4797872424
 11
0.3351063404
 21
7.5053191543
  0
LINE
  5
31C
100
AcDbEntity
  8
0
100
AcDbLine
 62
7
  6
CONTINUOUS
 10
1.1513711
 20
8.5234887
 11
1.2866631
 21
8.2624848
  0
LINE
  5
31D
100
AcDbEntity
  8
0
100
AcDbLine
 62
7
  6
CONTINUOUS
 10
1.4387254
 20
8.2624865
 11
1.2950193324
 21
8.5397247163
  0
LINE
  5
31E
100
AcDbEntity
  8
0
100
AcDbLine
 62
7
  6
CONTINUOUS
 10
1.2500000829
 20
8.1
 11
1.3369565217
 21
7.9287234038
  0
LINE
  5
31F
100
AcDbEntity
  8
0
100
AcDbLine
 62
7
  6
CONTINUOUS
 10
1.3532608696
 20
7.9585106343
 11
1.2826087786
 21
8.1
  0
LINE
  5
320
100
AcDbEntity
  8
0
100
AcDbLine
 62
7
  6
CONTINUOUS
 10
-0.8043478054
 20
7.75
 11
-0.7771739338
 21
7.7574468083
  0
LINE
  5
321
100
AcDbEntity
  8
0
100
AcDbLine
 62
7
  6
CONTINUOUS
 10
-0.792
 20
6.622521
 11
-0.7703333168
 21
6.6280529147
  0
LINE
  5
322
100
AcDbEntity
  8
0
100
AcDbLine
 62
7
  6
CONTINUOUS
 10
-0.9696666584
 20
6.6557124893
 11
-0.9913333416
 21
6.650180575
  0
LINE
  5
323
100
AcDbEntity
  8
0
100
AcDbLine
 62
7
  6
CONTINUOUS
 10
-1.013
 20
6.8493295146
 11
-0.9913333416
 21
6.8548614288
  0
LINE
  5
324
100
AcDbEntity
  8
0
100
AcDbLine
 62
7
  6
CONTINUOUS
 10
-1.2123333323
 20
6.8493295146
 11
-1.1906666646
 21
6.8548614288
  0
LINE
  5
325
100
AcDbEntity
  8
0
100
AcDbLine
 62
7
  6
CONTINUOUS
 10
-0.9913333416
 20
6.622521
 11
-0.9653333416
 21
6.6280529147
  0
LINE
  5
326
100
AcDbEntity
  8
0
100
AcDbLine
 62
7
  6
CONTINUOUS
 10
-0.9913333416
 20
6.882521
 11
-1.0173333416
 21
6.8769890858
  0
LINE
  5
327
100
AcDbEntity
  8
0
100
AcDbLine
 62
7
  6
CONTINUOUS
 10
-1.1863333354
 20
6.882521
 11
-1.2166666677
 21
6.8769890858
  0
LINE
  5
328
100
AcDbEntity
  8
0
100
AcDbLine
 62
7
  6
CONTINUOUS
 10
0.2345744255
 20
7.2882978722
 11
0.1787234469
 21
7.2819148943
  0
LINE
  5
329
100
AcDbEntity
  8
0
100
AcDbLine
 62
7
  6
CONTINUOUS
 10
0.1228723404
 20
7.5117021322
 11
0.1787234469
 21
7.5180851102
  0
LINE
  5
32A
100
AcDbEntity
  8
0
100
AcDbLine
 62
7
  6
CONTINUOUS
 10
0.1787234469
 20
7.25
 11
0.2457447235
 21
7.2563829785
  0
LINE
  5
32B
100
AcDbEntity
  8
0
100
AcDbLine
 62
7
  6
CONTINUOUS
 10
0.1787234469
 20
7.55
 11
0.1117021703
 21
7.543617022
  0
LINE
  5
32C
100
AcDbEntity
  8
ASSI
100
AcDbLine
 62
7
  6
CONTINUOUS
 10
0.9774788
 20
6.505662
 11
0.9293186
 21
6.505662
  0
LINE
  5
32D
100
AcDbEntity
  8
ASSI
100
AcDbLine
 62
7
  6
CONTINUOUS
 10
0.8714029
 20
6.505662
 11
0.8232239
 21
6.505662
  0
LINE
  5
32E
100
AcDbEntity
  8
0
100
AcDbLine
 62
7
  6
CONTINUOUS
 10
-1.26
 20
6.622521
 11
-1.104
 21
6.622521
  0
LINE
  5
32F
100
AcDbEntity
  8
0
100
AcDbLine
 62
7
  6
CONTINUOUS
 10
-0.8093333168
 20
6.622521
 11
-0.792
 21
6.622521
  0
LINE
  5
330
100
AcDbEntity
  8
0
100
AcDbLine
 62
7
  6
CONTINUOUS
 10
-0.242482
 20
6.622521
 11
-0.2080327
 21
6.622521
  0
LINE
  5
331
100
AcDbEntity
  8
0
100
AcDbLine
 62
7
  6
CONTINUOUS
 10
-0.1455353
 20
6.622521
 11
-0.1110955
 21
6.622521
  0
LINE
  5
332
100
AcDbEntity
  8
0
100
AcDbLine
 62
7
  6
CONTINUOUS
 10
0.178665
 20
6.622521
 11
0.2099137
 21
6.622521
  0
LINE
  5
333
100
AcDbEntity
  8
0
100
AcDbLine
 62
7
  6
CONTINUOUS
 10
-1.104
 20
6.650180575
 11
-1.2253333323
 21
6.650180575
  0
LINE
  5
334
100
AcDbEntity
  8
0
100
AcDbLine
 62
7
  6
CONTINUOUS
 10
-0.792
 20
6.6557124893
 11
-0.8093333168
 21
6.6557124893
  0
LINE
  5
335
100
AcDbEntity
  8
0
100
AcDbLine
 62
7
  6
CONTINUOUS
 10
0.2099137
 20
6.6832457
 11
0.2464936
 21
6.6832457
  0
LINE
  5
336
100
AcDbEntity
  8
0
100
AcDbLine
 62
7
  6
CONTINUOUS
 10
0.0696545
 20
6.6832457
 11
0.178665
 21
6.6832457
  0
LINE
  5
337
100
AcDbEntity
  8
0
100
AcDbLine
 62
7
  6
CONTINUOUS
 10
0.178665
 20
6.7102304
 11
0.0984127
 21
6.7102304
  0
LINE
  5
338
100
AcDbEntity
  8
0
100
AcDbLine
 62
7
  6
CONTINUOUS
 10
0.2464936
 20
6.7102304
 11
0.2099137
 21
6.7102304
  0
LINE
  5
339
100
AcDbEntity
  8
0
100
AcDbLine
 62
7
  6
CONTINUOUS
 10
-0.8526666584
 20
6.7110316355
 11
-0.8786666584
 21
6.7110316355
  0
LINE
  5
33A
100
AcDbEntity
  8
0
100
AcDbLine
 62
7
  6
CONTINUOUS
 10
-0.1110955
 20
6.7301187
 11
-0.0309235725
 21
6.7301187
  0
LINE
  5
33B
100
AcDbEntity
  8
0
100
AcDbLine
 62
7
  6
CONTINUOUS
 10
-0.0389596112
 20
6.7595881
 11
-0.1110955
 21
6.7595881
  0
LINE
  5
33C
100
AcDbEntity
  8
0
100
AcDbLine
 62
7
  6
CONTINUOUS
 10
-1.2556666665
 20
6.8216699434
 11
-1.234
 21
6.8216699434
  0
LINE
  5
33D
100
AcDbEntity
  8
0
100
AcDbLine
 62
7
  6
CONTINUOUS
 10
-0.1110955
 20
6.8480096
 11
-0.0389590012
 21
6.8480096
  0
LINE
  5
33E
100
AcDbEntity
  8
0
100
AcDbLine
 62
7
  6
CONTINUOUS
 10
-1.1906666646
 20
6.8548614288
 11
-1.1733333354
 21
6.8548614288
  0
LINE
  5
33F
100
AcDbEntity
  8
0
100
AcDbLine
 62
7
  6
CONTINUOUS
 10
-0.2080327
 20
6.877479
 11
-0.242482
 21
6.877479
  0
LINE
  5
340
100
AcDbEntity
  8
0
100
AcDbLine
 62
7
  6
CONTINUOUS
 10
-0.0309230211
 20
6.877479
 11
-0.1455353
 21
6.877479
  0
LINE
  5
341
100
AcDbEntity
  8
0
100
AcDbLine
 62
7
  6
CONTINUOUS
 10
0.2099137
 20
6.877479
 11
0.1878398
 21
6.877479
  0
LINE
  5
342
100
AcDbEntity
  8
0
100
AcDbLine
 62
7
  6
CONTINUOUS
 10
-0.7226666832
 20
6.882521
 11
-0.7486666832
 21
6.882521
  0
LINE
  5
343
100
AcDbEntity
  8
0
100
AcDbLine
 62
7
  6
CONTINUOUS
 10
-1.169
 20
6.882521
 11
-1.1863333354
 21
6.882521
  0
LINE
  5
344
100
AcDbEntity
  8
ASSI
100
AcDbLine
 62
7
  6
CONTINUOUS
 10
0.8249993
 20
6.8918974
 11
0.8714029
 21
6.8918974
  0
LINE
  5
345
100
AcDbEntity
  8
ASSI
100
AcDbLine
 62
7
  6
CONTINUOUS
 10
0.9293186
 20
6.8918974
 11
0.9757034
 21
6.8918974
  0
LINE
  5
346
100
AcDbEntity
  8
ASSI
100
AcDbLine
 62
7
  6
CONTINUOUS
 10
0.9757034
 20
6.9465613
 11
0.8249993
 21
6.9465613
  0
LINE
  5
347
100
AcDbEntity
  8
0
100
AcDbLine
 62
7
  6
CONTINUOUS
 10
-0.8712765904
 20
7.25
 11
-0.7819148936
 21
7.25
  0
LINE
  5
348
100
AcDbEntity
  8
0
100
AcDbLine
 62
7
  6
CONTINUOUS
 10
-0.4021276383
 20
7.25
 11
-0.3351063617
 21
7.25
  0
LINE
  5
349
100
AcDbEntity
  8
0
100
AcDbLine
 62
7
  6
CONTINUOUS
 10
0.5361701702
 20
7.25
 11
0.6031914468
 21
7.25
  0
LINE
  5
34A
100
AcDbEntity
  8
0
100
AcDbLine
 62
7
  6
CONTINUOUS
 10
0.7595744681
 20
7.25
 11
0.8265957447
 21
7.25
  0
LINE
  5
34B
100
AcDbEntity
  8
0
100
AcDbLine
 62
7
  6
CONTINUOUS
 10
0.982978766
 20
7.25
 11
1.0500000426
 21
7.25
  0
LINE
  5
34C
100
AcDbEntity
  8
0
100
AcDbLine
 62
7
  6
CONTINUOUS
 10
-0.5138297872
 20
7.5180851102
 11
-0.1787234043
 21
7.5180851102
  0
LINE
  5
34D
100
AcDbEntity
  8
0
100
AcDbLine
 62
7
  6
CONTINUOUS
 10
1.0500000426
 20
7.55
 11
0.982978766
 21
7.55
  0
LINE
  5
34E
100
AcDbEntity
  8
0
100
AcDbLine
 62
7
  6
CONTINUOUS
 10
0.8265957447
 20
7.55
 11
0.7595744681
 21
7.55
  0
LINE
  5
34F
100
AcDbEntity
  8
0
100
AcDbLine
 62
7
  6
CONTINUOUS
 10
0.6031914468
 20
7.55
 11
0.5361701702
 21
7.55
  0
LINE
  5
350
100
AcDbEntity
  8
0
100
AcDbLine
 62
7
  6
CONTINUOUS
 10
-0.1117021277
 20
7.55
 11
-0.5138297872
 21
7.55
  0
LINE
  5
351
100
AcDbEntity
  8
0
100
AcDbLine
 62
7
  6
CONTINUOUS
 10
-0.6031915
 20
7.55
 11
-0.6702127766
 21
7.55
  0
LINE
  5
352
100
AcDbEntity
  8
0
100
AcDbLine
 62
7
  6
CONTINUOUS
 10
-0.9829787234
 20
7.55
 11
-1.05
 21
7.55
  0
LINE
  5
353
100
AcDbEntity
  8
0
100
AcDbLine
 62
7
  6
CONTINUOUS
 10
-1.5
 20
7.75
 11
-1.4673913043
 21
7.75
  0
LINE
  5
354
100
AcDbEntity
  8
0
100
AcDbLine
 62
7
  6
CONTINUOUS
 10
-1.1956521843
 20
7.75
 11
-1.1630434886
 21
7.75
  0
LINE
  5
355
100
AcDbEntity
  8
0
100
AcDbLine
 62
7
  6
CONTINUOUS
 10
-1.2717391304
 20
7.75
 11
-1.2391304348
 21
7.75
  0
LINE
  5
356
100
AcDbEntity
  8
0
100
AcDbLine
 62
7
  6
CONTINUOUS
 10
-1.3913043504
 20
7.75
 11
-1.3478260921
 21
7.75
  0
LINE
  5
357
100
AcDbEntity
  8
0
100
AcDbLine
 62
7
  6
CONTINUOUS
 10
-0.934782588
 20
7.75
 11
-0.8043478054
 21
7.75
  0
LINE
  5
358
100
AcDbEntity
  8
0
100
AcDbLine
 62
7
  6
CONTINUOUS
 10
-1.0108695652
 20
7.75
 11
-0.9782608696
 21
7.75
  0
LINE
  5
359
100
AcDbEntity
  8
0
100
AcDbLine
 62
7
  6
CONTINUOUS
 10
-0.6739130227
 20
7.75
 11
-0.4782608488
 21
7.75
  0
LINE
  5
35A
100
AcDbEntity
  8
0
100
AcDbLine
 62
7
  6
CONTINUOUS
 10
0.0706522154
 20
7.75
 11
0.1195652589
 21
7.75
  0
LINE
  5
35B
100
AcDbEntity
  8
0
100
AcDbLine
 62
7
  6
CONTINUOUS
 10
-0.097826087
 20
7.75
 11
-0.0652173913
 21
7.75
  0
LINE
  5
35C
100
AcDbEntity
  8
0
100
AcDbLine
 62
7
  6
CONTINUOUS
 10
-0.173913002
 20
7.75
 11
-0.1413043064
 21
7.75
  0
LINE
  5
35D
100
AcDbEntity
  8
0
100
AcDbLine
 62
7
  6
CONTINUOUS
 10
0.5869565217
 20
7.75
 11
0.6195652174
 21
7.75
  0
LINE
  5
35E
100
AcDbEntity
  8
0
100
AcDbLine
 62
7
  6
CONTINUOUS
 10
0.4239130435
 20
7.75
 11
0.4565217391
 21
7.75
  0
LINE
  5
35F
100
AcDbEntity
  8
0
100
AcDbLine
 62
7
  6
CONTINUOUS
 10
0.75
 20
7.75
 11
0.7826086957
 21
7.75
  0
LINE
  5
360
100
AcDbEntity
  8
0
100
AcDbLine
 62
7
  6
CONTINUOUS
 10
1.0108695652
 20
7.75
 11
1.2065217391
 21
7.75
  0
LINE
  5
361
100
AcDbEntity
  8
0
100
AcDbLine
 62
7
  6
CONTINUOUS
 10
0.9347825258
 20
7.75
 11
0.9673912214
 21
7.75
  0
LINE
  5
362
100
AcDbEntity
  8
0
100
AcDbLine
 62
7
  6
CONTINUOUS
 10
1.3369565217
 20
7.75
 11
1.3695652174
 21
7.75
  0
LINE
  5
363
100
AcDbEntity
  8
0
100
AcDbLine
 62
7
  6
CONTINUOUS
 10
1.2065217391
 20
7.794680851
 11
1.0434782609
 21
7.794680851
  0
LINE
  5
364
100
AcDbEntity
  8
0
100
AcDbLine
 62
7
  6
CONTINUOUS
 10
-0.4782608488
 20
7.794680851
 11
-0.6413043271
 21
7.794680851
  0
LINE
  5
365
100
AcDbEntity
  8
0
100
AcDbLine
 62
7
  6
CONTINUOUS
 10
-0.8043478054
 20
7.794680851
 11
-0.9021738923
 21
7.794680851
  0
LINE
  5
366
100
AcDbEntity
  8
0
100
AcDbLine
 62
7
  6
CONTINUOUS
 10
-1.1413043478
 20
7.8393617019
 11
-1.032608706
 21
7.8393617019
  0
LINE
  5
367
100
AcDbEntity
  8
0
100
AcDbLine
 62
7
  6
CONTINUOUS
 10
0.8043477432
 20
7.8393617019
 11
0.9130434783
 21
7.8393617019
  0
LINE
  5
368
100
AcDbEntity
  8
0
100
AcDbLine
 62
7
  6
CONTINUOUS
 10
0.9076087786
 20
7.8691489324
 11
0.8097826916
 21
7.8691489324
  0
LINE
  5
369
100
AcDbEntity
  8
0
100
AcDbLine
 62
7
  6
CONTINUOUS
 10
-1.0380434679
 20
7.8691489324
 11
-1.1358695549
 21
7.8691489324
  0
LINE
  5
36A
100
AcDbEntity
  8
0
100
AcDbLine
 62
7
  6
CONTINUOUS
 10
-0.6413043271
 20
7.9138297886
 11
-0.5000000207
 21
7.9138297886
  0
LINE
  5
36B
100
AcDbEntity
  8
0
100
AcDbLine
 62
7
  6
CONTINUOUS
 10
-0.5000000207
 20
7.9585106343
 11
-0.6413043271
 21
7.9585106343
  0
LINE
  5
36C
100
AcDbEntity
  8
0
100
AcDbLine
 62
7
  6
CONTINUOUS
 10
-0.9021738923
 20
8.0553191543
 11
-0.8043478054
 21
8.0553191543
  0
LINE
  5
36D
100
AcDbEntity
  8
0
100
AcDbLine
 62
7
  6
CONTINUOUS
 10
-0.6413043271
 20
8.0553191543
 11
-0.4782608488
 21
8.0553191543
  0
LINE
  5
36E
100
AcDbEntity
  8
0
100
AcDbLine
 62
7
  6
CONTINUOUS
 10
0.4999999585
 20
8.0627659619
 11
0.5869565217
 21
8.0627659619
  0
LINE
  5
36F
100
AcDbEntity
  8
0
100
AcDbLine
 62
7
  6
CONTINUOUS
 10
0.6195652174
 20
8.0627659619
 11
0.7065216562
 21
8.0627659619
  0
LINE
  5
370
100
AcDbEntity
  8
0
100
AcDbLine
 62
7
  6
CONTINUOUS
 10
1.2826087786
 20
8.1
 11
1.2500000829
 21
8.1
  0
LINE
  5
371
100
AcDbEntity
  8
0
100
AcDbLine
 62
7
  6
CONTINUOUS
 10
1.4565216562
 20
8.1
 11
1.4239129606
 21
8.1
  0
LINE
  5
372
100
AcDbEntity
  8
0
100
AcDbLine
 62
7
  6
CONTINUOUS
 10
1.0434782609
 20
8.1
 11
1.0108695652
 21
8.1
  0
LINE
  5
373
100
AcDbEntity
  8
0
100
AcDbLine
 62
7
  6
CONTINUOUS
 10
0.8804347826
 20
8.1
 11
0.8369564388
 21
8.1
  0
LINE
  5
374
100
AcDbEntity
  8
0
100
AcDbLine
 62
7
  6
CONTINUOUS
 10
0.7065216562
 20
8.1
 11
0.4999999585
 21
8.1
  0
LINE
  5
375
100
AcDbEntity
  8
0
100
AcDbLine
 62
7
  6
CONTINUOUS
 10
0.4565217391
 20
8.1
 11
0.4239130435
 21
8.1
  0
LINE
  5
376
100
AcDbEntity
  8
0
100
AcDbLine
 62
7
  6
CONTINUOUS
 10
0.1195652589
 20
8.1
 11
0.0869565632
 21
8.1
  0
LINE
  5
377
100
AcDbEntity
  8
0
100
AcDbLine
 62
7
  6
CONTINUOUS
 10
-0.0489130435
 20
8.1
 11
-0.097826087
 21
8.1
  0
LINE
  5
378
100
AcDbEntity
  8
0
100
AcDbLine
 62
7
  6
CONTINUOUS
 10
-0.1413043064
 20
8.1
 11
-0.173913002
 21
8.1
  0
LINE
  5
379
100
AcDbEntity
  8
0
100
AcDbLine
 62
7
  6
CONTINUOUS
 10
-0.4782608488
 20
8.1
 11
-0.6739130227
 21
8.1
  0
LINE
  5
37A
100
AcDbEntity
  8
0
100
AcDbLine
 62
7
  6
CONTINUOUS
 10
-0.8043478054
 20
8.1
 11
-0.934782588
 21
8.1
  0
LINE
  5
37B
100
AcDbEntity
  8
0
100
AcDbLine
 62
7
  6
CONTINUOUS
 10
-1.0652174017
 20
8.1
 11
-1.1086956522
 21
8.1
  0
LINE
  5
37C
100
AcDbEntity
  8
0
100
AcDbLine
 62
7
  6
CONTINUOUS
 10
-1.2391304348
 20
8.1
 11
-1.2880434783
 21
8.1
  0
LINE
  5
37D
100
AcDbEntity
  8
0
100
AcDbLine
 62
7
  6
CONTINUOUS
 10
-1.4510869565
 20
8.1
 11
-1.5
 21
8.1
  0
LINE
  5
37E
100
AcDbEntity
  8
0
100
AcDbLine
 62
7
  6
CONTINUOUS
 10
1.2866631
 20
8.2624848
 11
1.4387254
 21
8.2624865
  0
LINE
  5
37F
100
AcDbEntity
  8
0
100
AcDbLine
 62
7
  6
CONTINUOUS
 10
0.2400469
 20
8.2624831
 11
0.3750519
 21
8.2624848
  0
LINE
  5
380
100
AcDbEntity
  8
0
100
AcDbLine
 62
7
  6
CONTINUOUS
 10
-0.5102477
 20
8.2624831
 11
-0.3752426
 21
8.2624831
  0
LINE
  5
381
100
AcDbEntity
  8
0
100
AcDbLine
 62
7
  6
CONTINUOUS
 10
0.015039
 20
8.2624831
 11
0.1500441
 21
8.2624831
  0
LINE
  5
382
100
AcDbEntity
  8
0
100
AcDbLine
 62
7
  6
CONTINUOUS
 10
0.8985195
 20
8.2624848
 11
1.0335263
 21
8.2624848
  0
LINE
  5
383
100
AcDbEntity
  8
0
100
AcDbLine
 62
7
  6
CONTINUOUS
 10
-0.2476035
 20
8.2624831
 11
-0.1126018
 21
8.2624848
  0
LINE
  5
384
100
AcDbEntity
  8
0
100
AcDbLine
 62
7
  6
CONTINUOUS
 10
-0.7802544
 20
8.2624814
 11
-0.6452494
 21
8.2624831
  0
LINE
  5
385
100
AcDbEntity
  8
0
100
AcDbLine
 62
7
  6
CONTINUOUS
 10
0.6735099
 20
8.2624848
 11
0.8085167
 21
8.2624831
  0
LINE
  5
386
100
AcDbEntity
  8
0
100
AcDbLine
 62
7
  6
CONTINUOUS
 10
-1.2219964
 20
8.2624814
 11
-1.0869863
 21
8.2624831
  0
LINE
  5
387
100
AcDbEntity
  8
0
100
AcDbLine
 62
7
  6
CONTINUOUS
 10
0.4176731
 20
8.3952337
 11
0.6308904
 21
8.3952337
  0
LINE
  5
388
100
AcDbEntity
  8
0
100
AcDbLine
 62
7
  6
CONTINUOUS
 10
0.1117021703
 20
7.2563829785
 11
0.1787234469
 21
7.25
  0
LINE
  5
389
100
AcDbEntity
  8
0
100
AcDbLine
 62
7
  6
CONTINUOUS
 10
0.2457447235
 20
7.543617022
 11
0.1787234469
 21
7.55
  0
LINE
  5
38A
100
AcDbEntity
  8
0
100
AcDbLine
 62
7
  6
CONTINUOUS
 10
0.1787234469
 20
7.2819148943
 11
0.1228723404
 21
7.2882978722
  0
LINE
  5
38B
100
AcDbEntity
  8
0
100
AcDbLine
 62
7
  6
CONTINUOUS
 10
0.1787234469
 20
7.5180851102
 11
0.2345744255
 21
7.5117021322
  0
LINE
  5
38C
100
AcDbEntity
  8
0
100
AcDbLine
 62
7
  6
CONTINUOUS
 10
-1.143
 20
6.8769890858
 11
-1.169
 21
6.882521
  0
LINE
  5
38D
100
AcDbEntity
  8
0
100
AcDbLine
 62
7
  6
CONTINUOUS
 10
-0.9653333416
 20
6.8769890858
 11
-0.9913333416
 21
6.882521
  0
LINE
  5
38E
100
AcDbEntity
  8
0
100
AcDbLine
 62
7
  6
CONTINUOUS
 10
-0.7771739338
 20
8.0925531924
 11
-0.8043478054
 21
8.1
  0
LINE
  5
38F
100
AcDbEntity
  8
0
100
AcDbLine
 62
7
  6
CONTINUOUS
 10
-0.8043478054
 20
8.0553191543
 11
-0.7826086957
 21
8.0478723466
  0
LINE
  5
390
100
AcDbEntity
  8
0
100
AcDbLine
 62
7
  6
CONTINUOUS
 10
0.0558510638
 20
7.2755319141
 11
0.1117021703
 21
7.2563829785
  0
LINE
  5
391
100
AcDbEntity
  8
0
100
AcDbLine
 62
7
  6
CONTINUOUS
 10
0.3015957021
 20
7.5244680882
 11
0.2457447235
 21
7.543617022
  0
LINE
  5
392
100
AcDbEntity
  8
0
100
AcDbLine
 62
7
  6
CONTINUOUS
 10
0.1228723404
 20
7.2882978722
 11
0.0893617021
 21
7.3010638282
  0
LINE
  5
393
100
AcDbEntity
  8
0
100
AcDbLine
 62
7
  6
CONTINUOUS
 10
0.2345744255
 20
7.5117021322
 11
0.2680850638
 21
7.4989361763
  0
LINE
  5
394
100
AcDbEntity
  8
0
100
AcDbLine
 62
7
  6
CONTINUOUS
 10
0.3351063404
 20
7.5053191543
 11
0.3015957021
 21
7.5244680882
  0
LINE
  5
395
100
AcDbEntity
  8
0
100
AcDbLine
 62
7
  6
CONTINUOUS
 10
0.5897087
 20
8.5234887
 11
0.4588532
 21
8.5234887
  0
LINE
  5
396
100
AcDbEntity
  8
0
100
AcDbLine
 62
7
  6
CONTINUOUS
 10
1.0335414
 20
8.5234904
 11
1.1513711
 21
8.5234887
  0
LINE
  5
397
100
AcDbEntity
  8
0
100
AcDbLine
 62
7
  6
CONTINUOUS
 10
1.1959233341
 20
8.6483705
 11
1.0316649
 21
8.6483705
  0
LINE
  5
398
100
AcDbEntity
  8
0
100
AcDbLine
 62
7
  6
CONTINUOUS
 10
1.0316633
 20
8.8126351
 11
1.1959160932
 21
8.8126351
  0
LINE
  5
399
100
AcDbEntity
  8
0
100
AcDbLine
 62
7
  6
CONTINUOUS
 10
0.1500441
 20
8.9375135
 11
-0.0540473
 21
8.9375135
  0
LINE
  5
39A
100
AcDbEntity
  8
0
100
AcDbLine
 62
7
  6
CONTINUOUS
 10
-0.3061564
 20
8.9375135
 11
-0.5102477
 21
8.9375135
  0
LINE
  5
39B
100
AcDbEntity
  8
0
100
AcDbLine
 62
7
  6
CONTINUOUS
 10
-0.6452477
 20
8.9375135
 11
-0.7802528
 21
8.9375135
  0
LINE
  5
39C
100
AcDbEntity
  8
0
100
AcDbLine
 62
7
  6
CONTINUOUS
 10
-0.8702556
 20
8.9375135
 11
-1.0052623
 21
8.9375135
  0
LINE
  5
39D
100
AcDbEntity
  8
0
100
AcDbLine
 62
7
  6
CONTINUOUS
 10
-1.3037186
 20
8.9375135
 11
-1.4387254
 21
8.9375135
  0
LINE
  5
39E
100
AcDbEntity
  8
0
100
AcDbLine
 62
7
  6
CONTINUOUS
 10
1.2146557
 20
8.937515472
 11
0.8985195
 21
8.9375152
  0
LINE
  5
39F
100
AcDbEntity
  8
0
100
AcDbLine
 62
7
  6
CONTINUOUS
 10
0.591786
 20
8.9375152
 11
0.4567742
 21
8.9375152
  0
LINE
  5
3A0
100
AcDbEntity
  8
0
100
AcDbLine
 62
7
  6
CONTINUOUS
 10
1.6
 20
9.15
 11
-1.6
 21
9.15
  0
LINE
  5
3A1
100
AcDbEntity
  8
0
100
AcDbLine
 62
7
  6
CONTINUOUS
 10
25.7
 20
15.3
 11
-25.7
 21
15.3
  0
LINE
  5
3A2
100
AcDbEntity
  8
0
100
AcDbLine
 62
7
  6
CONTINUOUS
 10
-25.7
 20
15.6
 11
25.7
 21
15.6
  0
LINE
  5
3A3
100
AcDbEntity
  8
0
100
AcDbLine
 62
7
  6
CONTINUOUS
 10
26.4
 20
-14.6
 11
26.4
 21
14.6
  0
LINE
  5
3A4
100
AcDbEntity
  8
0
100
AcDbLine
 62
7
  6
CONTINUOUS
 10
26.7
 20
14.6
 11
26.7
 21
-14.6
  0
ARC
  5
3A5
100
AcDbEntity
  8
0
100
AcDbCircle
 62
7
  6
CONTINUOUS
 10
-25.7
 20
-14.6
 40
1.0
100
AcDbArc
 50
180.0
 51
270.0
  0
ARC
  5
3A6
100
AcDbEntity
  8
0
100
AcDbCircle
 62
7
  6
CONTINUOUS
 10
-25.7
 20
-14.6
 40
0.7
100
AcDbArc
 50
180.0
 51
270.0
  0
CIRCLE
  5
3A7
100
AcDbEntity
  8
RACCORDO
100
AcDbCircle
 62
250
  6
CONTINUOUS
 10
-8.1
 20
-13.6
 40
0.5227058025
  0
CIRCLE
  5
3A8
100
AcDbEntity
  8
RACCORDO
100
AcDbCircle
 62
250
  6
CONTINUOUS
 10
-24.7
 20
-13.6
 40
0.5227058025
  0
CIRCLE
  5
3A9
100
AcDbEntity
  8
RACCORDO
100
AcDbCircle
 62
250
  6
CONTINUOUS
 10
-8.1
 20
-13.6
 40
0.373824313
  0
CIRCLE
  5
3AA
100
AcDbEntity
  8
RACCORDO
100
AcDbCircle
 62
250
  6
CONTINUOUS
 10
-24.7
 20
-13.6
 40
0.373824313
  0
CIRCLE
  5
3AB
100
AcDbEntity
  8
ASSI
100
AcDbCircle
 62
7
  6
CONTINUOUS
 10
-8.1
 20
-13.6
 40
0.32
  0
CIRCLE
  5
3AC
100
AcDbEntity
  8
ASSI
100
AcDbCircle
 62
7
  6
CONTINUOUS
 10
-24.7
 20
-13.6
 40
0.32
  0
ARC
  5
3AD
100
AcDbEntity
  8
ASSI
100
AcDbCircle
 62
7
  6
CONTINUOUS
 10
-0.0967554
 20
-7.6
 40
0.254999854
100
AcDbArc
 50
87.7525290943
 51
269.8754503097
  0
ARC
  5
3AE
100
AcDbEntity
  8
ASSI
100
AcDbCircle
 62
7
  6
CONTINUOUS
 10
-0.0967554
 20
-7.6
 40
0.1799999925
100
AcDbArc
 50
86.8152613297
 51
273.184738657
  0
CIRCLE
  5
3AF
100
AcDbEntity
  8
0
100
AcDbCircle
 62
7
  6
CONTINUOUS
 10
-24.7
 20
-13.6
 40
0.165
  0
CIRCLE
  5
3B0
100
AcDbEntity
  8
0
100
AcDbCircle
 62
7
  6
CONTINUOUS
 10
-8.1
 20
-13.6
 40
0.165
  0
ARC
  5
3B1
100
AcDbEntity
  8
0
100
AcDbCircle
 62
7
  6
CONTINUOUS
 10
-25.7
 20
14.6
 40
1.0
100
AcDbArc
 50
90.0
 51
180.0
  0
ARC
  5
3B2
100
AcDbEntity
  8
0
100
AcDbCircle
 62
7
  6
CONTINUOUS
 10
-25.7
 20
14.6
 40
0.7
100
AcDbArc
 50
90.0
 51
180.0
  0
CIRCLE
  5
3B3
100
AcDbEntity
  8
RACCORDO
100
AcDbCircle
 62
250
  6
CONTINUOUS
 10
-24.7
 20
13.6
 40
0.5227058025
  0
CIRCLE
  5
3B4
100
AcDbEntity
  8
RACCORDO
100
AcDbCircle
 62
250
  6
CONTINUOUS
 10
-8.1
 20
13.6
 40
0.5227058025
  0
CIRCLE
  5
3B5
100
AcDbEntity
  8
RACCORDO
100
AcDbCircle
 62
250
  6
CONTINUOUS
 10
-8.1
 20
13.6
 40
0.373824313
  0
CIRCLE
  5
3B6
100
AcDbEntity
  8
RACCORDO
100
AcDbCircle
 62
250
  6
CONTINUOUS
 10
-24.7
 20
13.6
 40
0.373824313
  0
CIRCLE
  5
3B7
100
AcDbEntity
  8
ASSI
100
AcDbCircle
 62
7
  6
CONTINUOUS
 10
-8.1
 20
13.6
 40
0.32
  0
CIRCLE
  5
3B8
100
AcDbEntity
  8
ASSI
100
AcDbCircle
 62
7
  6
CONTINUOUS
 10
-24.7
 20
13.6
 40
0.32
  0
CIRCLE
  5
3B9
100
AcDbEntity
  8
0
100
AcDbCircle
 62
7
  6
CONTINUOUS
 10
-24.7
 20
13.6
 40
0.165
  0
CIRCLE
  5
3BA
100
AcDbEntity
  8
0
100
AcDbCircle
 62
7
  6
CONTINUOUS
 10
-8.1
 20
13.6
 40
0.165
  0
ARC
  5
3BB
100
AcDbEntity
  8
0
100
AcDbCircle
 62
7
  6
CONTINUOUS
 10
25.7
 20
-14.6
 40
1.0
100
AcDbArc
 50
270.0
 51
360.0
  0
ARC
  5
3BC
100
AcDbEntity
  8
0
100
AcDbCircle
 62
7
  6
CONTINUOUS
 10
25.7
 20
-14.6
 40
0.7
100
AcDbArc
 50
270.0
 51
360.0
  0
CIRCLE
  5
3BD
100
AcDbEntity
  8
RACCORDO
100
AcDbCircle
 62
250
  6
CONTINUOUS
 10
24.7
 20
-13.6
 40
0.5227058025
  0
CIRCLE
  5
3BE
100
AcDbEntity
  8
RACCORDO
100
AcDbCircle
 62
250
  6
CONTINUOUS
 10
8.1
 20
-13.6
 40
0.5227058025
  0
CIRCLE
  5
3BF
100
AcDbEntity
  8
RACCORDO
100
AcDbCircle
 62
250
  6
CONTINUOUS
 10
24.7
 20
-13.6
 40
0.373824313
  0
CIRCLE
  5
3C0
100
AcDbEntity
  8
RACCORDO
100
AcDbCircle
 62
250
  6
CONTINUOUS
 10
8.1
 20
-13.6
 40
0.373824313
  0
CIRCLE
  5
3C1
100
AcDbEntity
  8
ASSI
100
AcDbCircle
 62
7
  6
CONTINUOUS
 10
24.7
 20
-13.6
 40
0.32
  0
CIRCLE
  5
3C2
100
AcDbEntity
  8
ASSI
100
AcDbCircle
 62
7
  6
CONTINUOUS
 10
8.1
 20
-13.6
 40
0.32
  0
ARC
  5
3C3
100
AcDbEntity
  8
ASSI
100
AcDbCircle
 62
7
  6
CONTINUOUS
 10
0.3417556
 20
-7.6
 40
0.2549998658
100
AcDbArc
 50
87.7525290343
 51
269.8754493812
  0
ARC
  5
3C4
100
AcDbEntity
  8
ASSI
100
AcDbCircle
 62
7
  6
CONTINUOUS
 10
0.3417556
 20
-7.6
 40
0.1799999925
100
AcDbArc
 50
86.8152613297
 51
167.9753000451
  0
ARC
  5
3C5
100
AcDbEntity
  8
ASSI
100
AcDbCircle
 62
7
  6
CONTINUOUS
 10
0.3417556
 20
-7.6
 40
0.1799996881
100
AcDbArc
 50
192.0247203293
 51
273.1847444079
  0
CIRCLE
  5
3C6
100
AcDbEntity
  8
0
100
AcDbCircle
 62
7
  6
CONTINUOUS
 10
24.7
 20
-13.6
 40
0.165
  0
CIRCLE
  5
3C7
100
AcDbEntity
  8
0
100
AcDbCircle
 62
7
  6
CONTINUOUS
 10
8.1
 20
-13.6
 40
0.165
  0
ARC
  5
3C8
100
AcDbEntity
  8
0
100
AcDbCircle
 62
7
  6
CONTINUOUS
 10
25.7
 20
14.6
 40
1.0
100
AcDbArc
 50
0.0
 51
90.0
  0
ARC
  5
3C9
100
AcDbEntity
  8
0
100
AcDbCircle
 62
7
  6
CONTINUOUS
 10
25.7
 20
14.6
 40
0.7
100
AcDbArc
 50
0.0
 51
90.0
  0
CIRCLE
  5
3CA
100
AcDbEntity
  8
RACCORDO
100
AcDbCircle
 62
250
  6
CONTINUOUS
 10
24.7
 20
13.6
 40
0.5227058025
  0
CIRCLE
  5
3CB
100
AcDbEntity
  8
RACCORDO
100
AcDbCircle
 62
250
  6
CONTINUOUS
 10
8.1
 20
13.6
 40
0.5227058025
  0
CIRCLE
  5
3CC
100
AcDbEntity
  8
RACCORDO
100
AcDbCircle
 62
250
  6
CONTINUOUS
 10
8.1
 20
13.6
 40
0.373824313
  0
CIRCLE
  5
3CD
100
AcDbEntity
  8
RACCORDO
100
AcDbCircle
 62
250
  6
CONTINUOUS
 10
24.7
 20
13.6
 40
0.373824313
  0
ARC
  5
3CE
100
AcDbEntity
  8
ASSI
100
AcDbCircle
 62
7
  6
CONTINUOUS
 10
0.9
 20
6.7
 40
0.3423359575
100
AcDbArc
 50
292.088536647
 51
273.4298402621
  0
CIRCLE
  5
3CF
100
AcDbEntity
  8
ASSI
100
AcDbCircle
 62
7
  6
CONTINUOUS
 10
8.1
 20
13.6
 40
0.32
  0
CIRCLE
  5
3D0
100
AcDbEntity
  8
ASSI
100
AcDbCircle
 62
7
  6
CONTINUOUS
 10
24.7
 20
13.6
 40
0.32
  0
ARC
  5
3D1
100
AcDbEntity
  8
ASSI
100
AcDbCircle
 62
7
  6
CONTINUOUS
 10
0.8896458
 20
6.0546527
 40
0.3051862479
100
AcDbArc
 50
47.231270393
 51
84.2011536555
  0
ARC
  5
3D2
100
AcDbEntity
  8
ASSI
100
AcDbCircle
 62
7
  6
CONTINUOUS
 10
0.9136638
 20
6.104086
 40
0.3015238255
100
AcDbArc
 50
45.4348897783
 51
67.5658711765
  0
CIRCLE
  5
3D3
100
AcDbEntity
  8
ASSI
100
AcDbCircle
 62
7
  6
CONTINUOUS
 10
0.9
 20
6.7
 40
0.2875383
  0
ARC
  5
3D4
100
AcDbEntity
  8
ASSI
100
AcDbCircle
 62
7
  6
CONTINUOUS
 10
0.9
 20
6.7
 40
0.2571628327
100
AcDbArc
 50
299.3041446576
 51
44.9957783165
  0
ARC
  5
3D5
100
AcDbEntity
  8
ASSI
100
AcDbCircle
 62
7
  6
CONTINUOUS
 10
0.9
 20
6.7
 40
0.2571628222
100
AcDbArc
 50
134.9002751525
 51
240.6958553424
  0
ARC
  5
3D6
100
AcDbEntity
  8
0
100
AcDbCircle
 62
7
  6
CONTINUOUS
 10
1.2146557
 20
8.7305025
 40
0.207013244
100
AcDbArc
 50
292.8428740722
 51
90.0
  0
ARC
  5
3D7
100
AcDbEntity
  8
ASSI
100
AcDbCircle
 62
7
  6
CONTINUOUS
 10
0.9
 20
6.7
 40
0.2060339191
100
AcDbArc
 50
148.0267353487
 51
240.6958433001
  0
ARC
  5
3D8
100
AcDbEntity
  8
ASSI
100
AcDbCircle
 62
7
  6
CONTINUOUS
 10
0.9
 20
6.7
 40
0.2060338796
100
AcDbArc
 50
299.3041566999
 51
31.9732630618
  0
CIRCLE
  5
3D9
100
AcDbEntity
  8
0
100
AcDbCircle
 62
7
  6
CONTINUOUS
 10
24.7
 20
13.6
 40
0.165
  0
CIRCLE
  5
3DA
100
AcDbEntity
  8
0
100
AcDbCircle
 62
7
  6
CONTINUOUS
 10
8.1
 20
13.6
 40
0.165
  0
ARC
  5
3DB
100
AcDbEntity
  8
0
100
AcDbCircle
 62
7
  6
CONTINUOUS
 10
1.1959173
 20
8.7305025
 40
0.0821325
100
AcDbArc
 50
270.0042094265
 51
90.0008418791
  0
SPLINE
  5
3DC
100
AcDbEntity
  8
0
100
AcDbSpline
 62
7
  6
CONTINUOUS
 70
0
 71
3
 72
13
 73
9
 74
0
 42
0.0000001
 43
0.0000001
 44
0.0000000001
 40
0.0
 40
0.0
 40
0.0
 40
0.0
 40
0.1090101634
 40
0.2629303592
 40
0.37699487
 40
0.5319517505
 40
0.9696565835
 40
1.0
 40
1.0
 40
1.0
 40
1.0
 10
-0.0389590012
 20
6.8480096042
 30
0.0
 10
-0.0362759543
 20
6.8480096019
 30
0.0
 10
-0.0297963312
 20
6.8476490879
 30
0.0
 10
-0.0206727743
 20
6.8457740853
 30
0.0
 10
-0.0107577947
 20
6.8425221392
 30
0.0
 10
0.0041981562
 20
6.8329102015
 30
0.0
 10
0.0094190791
 20
6.8160266917
 30
0.0
 10
0.0092876774
 20
6.8045457079
 30
0.0
 10
0.0092876774
 20
6.8037988711
 30
0.0
  0
SPLINE
  5
3DD
100
AcDbEntity
  8
0
100
AcDbSpline
 62
7
  6
CONTINUOUS
 70
0
 71
3
 72
13
 73
9
 74
0
 42
0.0000001
 43
0.0000001
 44
0.0000000001
 40
0.0
 40
0.0
 40
0.0
 40
0.0
 40
0.0303431659
 40
0.4680443833
 40
0.6229999838
 40
0.7370635524
 40
0.8909824769
 40
1.0
 40
1.0
 40
1.0
 40
1.0
 10
0.0092876774
 20
6.8037988711
 30
0.0
 10
0.0092876774
 20
6.8030520342
 30
0.0
 10
0.0094190791
 20
6.7915710504
 30
0.0
 10
0.0041981562
 20
6.7746875406
 30
0.0
 10
-0.0107577947
 20
6.7650756029
 30
0.0
 10
-0.0206727743
 20
6.7618236568
 30
0.0
 10
-0.0297965311
 20
6.7599486131
 30
0.0
 10
-0.0362763614
 20
6.7595881175
 30
0.0
 10
-0.0389596112
 20
6.7595881379
 30
0.0
  0
SPLINE
  5
3DE
100
AcDbEntity
  8
0
100
AcDbSpline
 62
7
  6
CONTINUOUS
 70
0
 71
3
 72
14
 73
10
 74
0
 42
0.0000001
 43
0.0000001
 44
0.0000000001
 40
0.0
 40
0.0
 40
0.0
 40
0.0
 40
0.0225390916
 40
0.3772348692
 40
0.5079914422
 40
0.6486374264
 40
0.7545284745
 40
0.9056860995
 40
1.0
 40
1.0
 40
1.0
 40
1.0
 10
0.0447975458
 20
6.8037988711
 30
0.0
 10
0.0447975458
 20
6.8046885447
 30
0.0
 10
0.0449257418
 20
6.8195604173
 30
0.0
 10
0.0393197493
 20
6.8404219919
 30
0.0
 10
0.0230563131
 20
6.859257844
 30
0.0
 10
0.0107606754
 20
6.8680059495
 30
0.0
 10
-0.0038868547
 20
6.8738330812
 30
0.0
 10
-0.0175018459
 20
6.8768949139
 30
0.0
 10
-0.0272002182
 20
6.8774790034
 30
0.0
 10
-0.0309230211
 20
6.8774790072
 30
0.0
  0
SPLINE
  5
3DF
100
AcDbEntity
  8
0
100
AcDbSpline
 62
7
  6
CONTINUOUS
 70
0
 71
3
 72
14
 73
10
 74
0
 42
0.0000001
 43
0.0000001
 44
0.0000000001
 40
0.0
 40
0.0
 40
0.0
 40
0.0
 40
0.0943181181
 40
0.2454750391
 40
0.3513655941
 40
0.4920109234
 40
0.6227668875
 40
0.9774610134
 40
1.0
 40
1.0
 40
1.0
 40
1.0
 10
-0.0309235725
 20
6.7301187349
 30
0.0
 10
-0.0272005862
 20
6.7301187165
 30
0.0
 10
-0.0175020263
 20
6.7307027876
 30
0.0
 10
-0.0038868547
 20
6.7337646609
 30
0.0
 10
0.0107606754
 20
6.7395917926
 30
0.0
 10
0.0230563131
 20
6.7483398981
 30
0.0
 10
0.0393197493
 20
6.7671757502
 30
0.0
 10
0.0449257418
 20
6.7880373248
 30
0.0
 10
0.0447975458
 20
6.8029091974
 30
0.0
 10
0.0447975458
 20
6.8037988711
 30
0.0
  0
SPLINE
  5
3E0
100
AcDbEntity
  8
0
100
AcDbSpline
 62
7
  6
CONTINUOUS
 70
0
 71
3
 72
16
 73
12
 74
0
 42
0.0000001
 43
0.0000001
 44
0.0000000001
 40
0.0
 40
0.0
 40
0.0
 40
0.0
 40
0.081582199
 40
0.1574553967
 40
0.3066287736
 40
0.384848994
 40
0.5792892447
 40
0.6959714606
 40
0.8475957974
 40
0.961835767
 40
1.0
 40
1.0
 40
1.0
 40
1.0
 10
0.3569245546
 20
6.8494222144
 30
0.0
 10
0.36030772
 20
6.8494222144
 30
0.0
 10
0.3668515157
 20
6.848567725
 30
0.0
 10
0.3789157883
 20
6.8441650646
 30
0.0
 10
0.3884701537
 20
6.8353245753
 30
0.0
 10
0.3983191528
 20
6.8208221212
 30
0.0
 10
0.4030715096
 20
6.8050733129
 30
0.0
 10
0.406858733
 20
6.7863066318
 30
0.0
 10
0.4087302305
 20
6.7705105829
 30
0.0
 10
0.4091320925
 20
6.7579027647
 30
0.0
 10
0.4091032599
 20
6.7515826481
 30
0.0
 10
0.4091032599
 20
6.75
 30
0.0
  0
SPLINE
  5
3E1
100
AcDbEntity
  8
0
100
AcDbSpline
 62
7
  6
CONTINUOUS
 70
0
 71
3
 72
16
 73
12
 74
0
 42
0.0000001
 43
0.0000001
 44
0.0000000001
 40
0.0
 40
0.0
 40
0.0
 40
0.0
 40
0.038164233
 40
0.1524042026
 40
0.3040285394
 40
0.4207107553
 40
0.615151006
 40
0.6933712264
 40
0.8425446033
 40
0.918417801
 40
1.0
 40
1.0
 40
1.0
 40
1.0
 10
0.4091032599
 20
6.75
 30
0.0
 10
0.4091032599
 20
6.7484173519
 30
0.0
 10
0.4091320925
 20
6.7420972353
 30
0.0
 10
0.4087302305
 20
6.7294894171
 30
0.0
 10
0.406858733
 20
6.7136933682
 30
0.0
 10
0.4030715096
 20
6.6949266871
 30
0.0
 10
0.3983191528
 20
6.6791778788
 30
0.0
 10
0.3884701537
 20
6.6646754247
 30
0.0
 10
0.3789157883
 20
6.6558349354
 30
0.0
 10
0.3668515157
 20
6.651432275
 30
0.0
 10
0.36030772
 20
6.6505777856
 30
0.0
 10
0.3569245546
 20
6.6505777856
 30
0.0
  0
SPLINE
  5
3E2
100
AcDbEntity
  8
0
100
AcDbSpline
 62
7
  6
CONTINUOUS
 70
0
 71
3
 72
16
 73
12
 74
0
 42
0.0000001
 43
0.0000001
 44
0.0000000001
 40
0.0
 40
0.0
 40
0.0
 40
0.0
 40
0.081582199
 40
0.1574553967
 40
0.3066287736
 40
0.384848994
 40
0.5792892447
 40
0.6959714606
 40
0.8475957974
 40
0.961835767
 40
1.0
 40
1.0
 40
1.0
 40
1.0
 10
0.3569245546
 20
6.6505777856
 30
0.0
 10
0.3535413892
 20
6.6505777856
 30
0.0
 10
0.3469975935
 20
6.651432275
 30
0.0
 10
0.3349333208
 20
6.6558349354
 30
0.0
 10
0.3253789555
 20
6.6646754247
 30
0.0
 10
0.3155299564
 20
6.6791778788
 30
0.0
 10
0.3107775996
 20
6.6949266871
 30
0.0
 10
0.3069903762
 20
6.7136933682
 30
0.0
 10
0.3051188786
 20
6.7294894171
 30
0.0
 10
0.3047170167
 20
6.7420972353
 30
0.0
 10
0.3047458493
 20
6.7484173519
 30
0.0
 10
0.3047458493
 20
6.75
 30
0.0
  0
SPLINE
  5
3E3
100
AcDbEntity
  8
0
100
AcDbSpline
 62
7
  6
CONTINUOUS
 70
0
 71
3
 72
16
 73
12
 74
0
 42
0.0000001
 43
0.0000001
 44
0.0000000001
 40
0.0
 40
0.0
 40
0.0
 40
0.0
 40
0.038164233
 40
0.1524042026
 40
0.3040285394
 40
0.4207107553
 40
0.615151006
 40
0.6933712264
 40
0.8425446033
 40
0.918417801
 40
1.0
 40
1.0
 40
1.0
 40
1.0
 10
0.3047458493
 20
6.75
 30
0.0
 10
0.3047458493
 20
6.7515826481
 30
0.0
 10
0.3047170167
 20
6.7579027647
 30
0.0
 10
0.3051188786
 20
6.7705105829
 30
0.0
 10
0.3069903762
 20
6.7863066318
 30
0.0
 10
0.3107775996
 20
6.8050733129
 30
0.0
 10
0.3155299564
 20
6.8208221212
 30
0.0
 10
0.3253789555
 20
6.8353245753
 30
0.0
 10
0.3349333208
 20
6.8441650646
 30
0.0
 10
0.3469975935
 20
6.848567725
 30
0.0
 10
0.3535413892
 20
6.8494222144
 30
0.0
 10
0.3569245546
 20
6.8494222144
 30
0.0
  0
SPLINE
  5
3E4
100
AcDbEntity
  8
0
100
AcDbSpline
 62
7
  6
CONTINUOUS
 70
0
 71
3
 72
23
 73
19
 74
0
 42
0.0000001
 43
0.0000001
 44
0.0000000001
 40
0.0
 40
0.0
 40
0.0
 40
0.0
 40
0.1175716721
 40
0.2550368586
 40
0.3463162708
 40
0.4140846673
 40
0.5095606694
 40
0.6178461101
 40
0.6617319017
 40
0.7152414415
 40
0.7583771864
 40
0.8078403706
 40
0.8439461126
 40
0.889742133
 40
0.9288974336
 40
0.9679984913
 40
0.9901309194
 40
1.0
 40
1.0
 40
1.0
 40
1.0
 10
0.3569245546
 20
6.6225218596
 30
0.0
 10
0.3636699444
 20
6.6225218596
 30
0.0
 10
0.3783480832
 20
6.624386005
 30
0.0
 10
0.3969591043
 20
6.6323756089
 30
0.0
 10
0.4100641746
 20
6.6434626558
 30
0.0
 10
0.419331421
 20
6.6547887529
 30
0.0
 10
0.4275786843
 20
6.6680986667
 30
0.0
 10
0.4325860848
 20
6.6814884799
 30
0.0
 10
0.4356388097
 20
6.6928849943
 30
0.0
 10
0.4374836508
 20
6.7007367026
 30
0.0
 10
0.4390856574
 20
6.7089661792
 30
0.0
 10
0.4402441131
 20
6.716260773
 30
0.0
 10
0.4411826442
 20
6.7237396795
 30
0.0
 10
0.4418330641
 20
6.7306560569
 30
0.0
 10
0.4422694724
 20
6.7377608147
 30
0.0
 10
0.442453925
 20
6.7435184023
 30
0.0
 10
0.4424845361
 20
6.7475977797
 30
0.0
 10
0.4424820244
 20
6.7494337854
 30
0.0
 10
0.4424820244
 20
6.75
 30
0.0
  0
SPLINE
  5
3E5
100
AcDbEntity
  8
0
100
AcDbSpline
 62
7
  6
CONTINUOUS
 70
0
 71
3
 72
23
 73
19
 74
0
 42
0.0000001
 43
0.0000001
 44
0.0000000001
 40
0.0
 40
0.0
 40
0.0
 40
0.0
 40
0.0098690806
 40
0.0320015087
 40
0.0711025664
 40
0.110257867
 40
0.1560538874
 40
0.1921596294
 40
0.2416228136
 40
0.2847585585
 40
0.3382680983
 40
0.3821538899
 40
0.4904393306
 40
0.5859153327
 40
0.6536837292
 40
0.7449631414
 40
0.8824283279
 40
1.0
 40
1.0
 40
1.0
 40
1.0
 10
0.4424820244
 20
6.75
 30
0.0
 10
0.4424820244
 20
6.7505662146
 30
0.0
 10
0.4424845361
 20
6.7524022203
 30
0.0
 10
0.442453925
 20
6.7564815977
 30
0.0
 10
0.4422694724
 20
6.7622391853
 30
0.0
 10
0.4418330641
 20
6.7693439431
 30
0.0
 10
0.4411826442
 20
6.7762603205
 30
0.0
 10
0.4402441131
 20
6.783739227
 30
0.0
 10
0.4390856574
 20
6.7910338208
 30
0.0
 10
0.4374836508
 20
6.7992632974
 30
0.0
 10
0.4356388097
 20
6.8071150057
 30
0.0
 10
0.4325860848
 20
6.8185115201
 30
0.0
 10
0.4275786843
 20
6.8319013333
 30
0.0
 10
0.419331421
 20
6.8452112471
 30
0.0
 10
0.4100641746
 20
6.8565373442
 30
0.0
 10
0.3969591043
 20
6.8676243911
 30
0.0
 10
0.3783480832
 20
6.875613995
 30
0.0
 10
0.3636699444
 20
6.8774781404
 30
0.0
 10
0.3569245546
 20
6.8774781404
 30
0.0
  0
SPLINE
  5
3E6
100
AcDbEntity
  8
0
100
AcDbSpline
 62
7
  6
CONTINUOUS
 70
0
 71
3
 72
23
 73
19
 74
0
 42
0.0000001
 43
0.0000001
 44
0.0000000001
 40
0.0
 40
0.0
 40
0.0
 40
0.0
 40
0.1175716721
 40
0.2550368586
 40
0.3463162708
 40
0.4140846673
 40
0.5095606694
 40
0.6178461101
 40
0.6617319017
 40
0.7152414415
 40
0.7583771864
 40
0.8078403706
 40
0.8439461126
 40
0.889742133
 40
0.9288974336
 40
0.9679984913
 40
0.9901309194
 40
1.0
 40
1.0
 40
1.0
 40
1.0
 10
0.3569245546
 20
6.8774781404
 30
0.0
 10
0.3501791648
 20
6.8774781404
 30
0.0
 10
0.3355010259
 20
6.875613995
 30
0.0
 10
0.3168900048
 20
6.8676243911
 30
0.0
 10
0.3037849345
 20
6.8565373442
 30
0.0
 10
0.2945176882
 20
6.8452112471
 30
0.0
 10
0.2862704249
 20
6.8319013333
 30
0.0
 10
0.2812630243
 20
6.8185115201
 30
0.0
 10
0.2782102995
 20
6.8071150057
 30
0.0
 10
0.2763654583
 20
6.7992632974
 30
0.0
 10
0.2747634518
 20
6.7910338208
 30
0.0
 10
0.2736049961
 20
6.783739227
 30
0.0
 10
0.272666465
 20
6.7762603205
 30
0.0
 10
0.2720160451
 20
6.7693439431
 30
0.0
 10
0.2715796367
 20
6.7622391853
 30
0.0
 10
0.2713951841
 20
6.7564815977
 30
0.0
 10
0.2713645731
 20
6.7524022203
 30
0.0
 10
0.2713670848
 20
6.7505662146
 30
0.0
 10
0.2713670848
 20
6.75
 30
0.0
  0
SPLINE
  5
3E7
100
AcDbEntity
  8
0
100
AcDbSpline
 62
7
  6
CONTINUOUS
 70
0
 71
3
 72
23
 73
19
 74
0
 42
0.0000001
 43
0.0000001
 44
0.0000000001
 40
0.0
 40
0.0
 40
0.0
 40
0.0
 40
0.0098690806
 40
0.0320015087
 40
0.0711025664
 40
0.110257867
 40
0.1560538874
 40
0.1921596294
 40
0.2416228136
 40
0.2847585585
 40
0.3382680983
 40
0.3821538899
 40
0.4904393306
 40
0.5859153327
 40
0.6536837292
 40
0.7449631414
 40
0.8824283279
 40
1.0
 40
1.0
 40
1.0
 40
1.0
 10
0.2713670848
 20
6.75
 30
0.0
 10
0.2713670848
 20
6.7494337854
 30
0.0
 10
0.2713645731
 20
6.7475977797
 30
0.0
 10
0.2713951841
 20
6.7435184023
 30
0.0
 10
0.2715796367
 20
6.7377608147
 30
0.0
 10
0.2720160451
 20
6.7306560569
 30
0.0
 10
0.272666465
 20
6.7237396795
 30
0.0
 10
0.2736049961
 20
6.716260773
 30
0.0
 10
0.2747634518
 20
6.7089661792
 30
0.0
 10
0.2763654583
 20
6.7007367026
 30
0.0
 10
0.2782102995
 20
6.6928849943
 30
0.0
 10
0.2812630243
 20
6.6814884799
 30
0.0
 10
0.2862704249
 20
6.6680986667
 30
0.0
 10
0.2945176882
 20
6.6547887529
 30
0.0
 10
0.3037849345
 20
6.6434626558
 30
0.0
 10
0.3168900048
 20
6.6323756089
 30
0.0
 10
0.3355010259
 20
6.624386005
 30
0.0
 10
0.3501791648
 20
6.6225218596
 30
0.0
 10
0.3569245546
 20
6.6225218596
 30
0.0
  0
ENDSEC
  0
SECTION
  2
OBJECTS
  0
DICTIONARY
  5
C
100
AcDbDictionary
280
0
281
1
  3
ACAD_GROUP
350
D
  3
ACAD_MLINESTYLE
350
17
  3
ACAD_LAYOUT
350
1A
  3
ACAD_PLOTSETTINGS
350
19
  3
ACAD_PLOTSTYLENAME
350
E
  0
DICTIONARY
  5
D
102
{ACAD_REACTORS
330
C
102
}
100
AcDbDictionary
280
0
281
1
  0
ACDBDICTIONARYWDFLT
  5
E
102
{ACAD_REACTORS
330
C
102
}
100
AcDbDictionary
281
1
  3
Normal
350
F
100
AcDbDictionaryWithDefault
340
F
  0
DICTIONARY
  5
17
102
{ACAD_REACTORS
330
C
102
}
100
AcDbDictionary
280
0
281
1
  3
Standard
350
18
  0
DICTIONARY
  5
19
102
{ACAD_REACTORS
330
C
102
}
100
AcDbDictionary
281
1
  0
DICTIONARY
  5
1A
102
{ACAD_REACTORS
330
C
102
}
100
AcDbDictionary
281
1
  3
Model
350
3E8
  3
Layout1
350
3E9
  0
ACDBPLACEHOLDER
  5
F
102
{ACAD_REACTORS
330
E
102
}
  0
MLINESTYLE
  5
18
102
{ACAD_REACTORS
330
17
102
}
100
AcDbMlineStyle
  2
STANDARD
 70
0
  3

 62
256
 51
90.0
 52
90.0
 71
2
 49
0.5
 62
256
  6
BYLAYER
 49
-0.5
 62
256
  6
BYLAYER
  0
LAYOUT
  5
3E8
102
{ACAD_REACTORS
330
1A
102
}
100
AcDbPlotSettings
  1

  2
none_device
  4
ISO_A4_(297.00_x_210.00_MM)
  6

 40
0.0
 41
0.0
 42
0.0
 43
0.0
 44
297.0
 45
210.0
 46
0.0
 47
0.0
 48
0.0
 49
0.0
140
0.0
141
0.0
142
1.0
143
1.0
 70
1024
 72
1
 73
0
 74
0
  7

 75
0
147
1.0
148
0.0
149
0.0
100
AcDbLayout
  1
Model
 70
0
 71
0
 10
0.0
 20
0.0
 11
297.0
 21
210.0
 12
0.0
 22
0.0
 32
0.0
 14
0.0
 24
0.0
 34
0.0
 15
0.0
 25
0.0
 35
0.0
146
0.0
 13
0.0
 23
0.0
 33
0.0
 16
1.0
 26
0.0
 36
0.0
 17
0.0
 27
1.0
 37
0.0
 76
0
330
20B
345
0
346
0
  0
LAYOUT
  5
3E9
102
{ACAD_REACTORS
330
1A
102
}
100
AcDbPlotSettings
  1

  2
none_device
  4
ISO_A4_(297.00_x_210.00_MM)
  6

 40
0.0
 41
0.0
 42
0.0
 43
0.0
 44
297.0
 45
210.0
 46
0.0
 47
0.0
 48
0.0
 49
0.0
140
0.0
141
0.0
142
1.0
143
1.0
 70
0
 72
1
 73
0
 74
0
  7

 75
0
147
1.0
148
0.0
149
0.0
100
AcDbLayout
  1
Layout1
 70
0
 71
1
 10
0.0
 20
0.0
 11
297.0
 21
210.0
 12
0.0
 22
0.0
 32
0.0
 14
0.0
 24
0.0
 34
0.0
 15
0.0
 25
0.0
 35
0.0
146
0.0
 13
0.0
 23
0.0
 33
0.0
 16
1.0
 26
0.0
 36
0.0
 17
0.0
 27
1.0
 37
0.0
 76
0
330
20C
345
0
346
0
  0
ENDSEC
  0
EOF
