0
SECTION
2
HEADER
9
$ACADVER
1
AC1015
9
$DWGCODEPAGE
3
ANSI_1252
9
$EXTMAX
10
431.8000000000
20
558.8000000000
30
0.0000000000
9
$EXTMIN
10
0.0000000000
20
0.0000000000
30
0.0000000000
9
$LIMMIN
10
0.0000000000
20
0.0000000000
9
$LIMMAX
10
431.8000000000
20
558.8000000000
9
$VIEWCTR
10
215.9000000000
20
279.4000000000
9
$VIEWSIZE
40
558.8000000000
9
$CLAYER
8
0
9
$LTSCALE
40
36.4254814815
9
$CELTYPE
6
BYLAYER
9
$DIMSCALE
40
1
9
$DIMASZ
40
3.0000000000
9
$DIMEXO
40
4.1392592593
9
$DIMDLI
40
25.1666962963
9
$DIMEXE
40
11.9210666667
9
$DIMCEN
40
5.9605333333
9
$DIMLFAC
40
1.0000000000
9
$DIMBLK
1
_FILLED
9
$DIMTXT
40
3.0000000000
9
$DIMTOL
70
1
9
$DIMLIM
70
0
9
$DIMTFAC
40
1.0000000000
9
$DIMTP
40
0.0100000000
9
$DIMTM
40
0.0100000000
9
$PDMODE
70
3
9
$PDSIZE
40
3.0000000000
9
$HANDSEED
5
223
9
$MEASUREMENT
70
1
9
$INSUNITS
70
4
0
ENDSEC
0
SECTION
2
CLASSES
0
CLASS
1
ACDBDICTIONARYWDFLT
2
AcDbDictionaryWithDefault
3
AutoCAD 2000
90
0
280
0
281
0
0
CLASS
1
ACDBPLACEHOLDER
2
AcDbPlaceHolder
3
AutoCAD 2000
90
0
280
0
281
0
0
CLASS
1
LAYOUT
2
AcDbLayout
3
AutoCAD 2000
90
0
280
0
281
0
0
ENDSEC
0
SECTION
2
TABLES
0
TABLE
2
VPORT
5
8
100
AcDbSymbolTable
70
2
0
VPORT
5
1F4
100
AcDbSymbolTableRecord
100
AcDbViewportTableRecord
2
*ACTIVE
70
0
10
0.0
20
0.0
11
1.0
21
1.0
12
215.9000000000
22
279.4000000000
13
0.0
23
0.0
14
1.0
24
1.0
15
0.0
25
0.0
16
0.0
26
0.0
36
1.0
17
0.0
27
0.0
37
0.0
40
558.8000000000
41
0.7727272727
42
50.0
43
0.0
44
0.0
50
0.0
51
0.0
71
0
72
100
73
1
74
1
75
0
76
0
77
0
78
0
0
ENDTAB
0
TABLE
2
LTYPE
5
5
100
AcDbSymbolTable
70
6
0
LTYPE
5
14
100
AcDbSymbolTableRecord
100
AcDbLinetypeTableRecord
2
BYBLOCK
70
0
3

72
65
73
0
40
0.0
0
LTYPE
5
15
100
AcDbSymbolTableRecord
100
AcDbLinetypeTableRecord
2
BYLAYER
70
0
3

72
65
73
0
40
0.0
0
LTYPE
5
16
100
AcDbSymbolTableRecord
100
AcDbLinetypeTableRecord
2
CONTINUOUS
70
64
3
Solid line
72
65
73
0
40
0
0
LTYPE
5
1F5
100
AcDbSymbolTableRecord
100
AcDbLinetypeTableRecord
2
CENTER
70
64
3
____ _ ____ _ ____ _ ____ _ ____ _ ____ _ ____
72
65
73
4
40
0.6
49
0.375
74
0
49
-0.075
74
0
49
0.075
74
0
49
-0.075
74
0
0
LTYPE
5
1F6
100
AcDbSymbolTableRecord
100
AcDbLinetypeTableRecord
2
HIDDEN
70
64
3
- - - - - - - - - - - - - - - - - - - -
72
65
73
2
40
0.2
49
0.1
74
0
49
-0.1
74
0
0
LTYPE
5
1F7
100
AcDbSymbolTableRecord
100
AcDbLinetypeTableRecord
2
PHANTOM
70
64
3
_____ _ _ _____ _ _ _____ _ _ _____
72
65
73
6
40
0.8
49
0.45
74
0
49
-0.05
74
0
49
0.1
74
0
49
-0.05
74
0
49
0.1
74
0
49
-0.05
74
0
0
LTYPE
5
1F8
100
AcDbSymbolTableRecord
100
AcDbLinetypeTableRecord
2
DOT
70
64
3
. . . . . . . . . . . . . . . . . . . .
72
65
73
2
40
0.2
49
0.1
74
0
49
-0.1
74
0
0
LTYPE
5
1F9
100
AcDbSymbolTableRecord
100
AcDbLinetypeTableRecord
2
DASHED
70
64
3
- - - - - - - - - - - - - - - - - - - -
72
65
73
2
40
0.2
49
0.1
74
0
49
-0.1
74
0
0
ENDTAB
0
TABLE
2
LAYER
5
2
100
AcDbSymbolTable
70
36
0
LAYER
5
10
100
AcDbSymbolTableRecord
100
AcDbLayerTableRecord
2
0
70
0
62
7
6
CONTINUOUS
370
-3
390
F
0
LAYER
5
1FA
100
AcDbSymbolTableRecord
100
AcDbLayerTableRecord
2
DEFAULT_1
70
0
62
7
6
CENTER
370
-3
390
F
0
LAYER
5
1FB
100
AcDbSymbolTableRecord
100
AcDbLayerTableRecord
2
DEFAULT_2
70
0
62
9
6
HIDDEN
370
-3
390
F
0
LAYER
5
1FC
100
AcDbSymbolTableRecord
100
AcDbLayerTableRecord
2
DEFAULT_3
70
0
62
7
6
PHANTOM
370
-3
390
F
0
LAYER
5
1FD
100
AcDbSymbolTableRecord
100
AcDbLayerTableRecord
2
_2D_DELETED_OBJS
70
0
62
7
6
CONTINUOUS
370
-3
390
F
0
LAYER
5
1FE
100
AcDbSymbolTableRecord
100
AcDbLayerTableRecord
2
ASSI
70
0
62
7
6
CONTINUOUS
370
-3
390
F
0
LAYER
5
1FF
100
AcDbSymbolTableRecord
100
AcDbLayerTableRecord
2
COORDINATE
70
0
62
7
6
CONTINUOUS
370
-3
390
F
0
LAYER
5
200
100
AcDbSymbolTableRecord
100
AcDbLayerTableRecord
2
COORD_ORIGINE
70
0
62
7
6
CONTINUOUS
370
-3
390
F
0
LAYER
5
201
100
AcDbSymbolTableRecord
100
AcDbLayerTableRecord
2
CURVE
70
0
62
7
6
CONTINUOUS
370
-3
390
F
0
LAYER
5
202
100
AcDbSymbolTableRecord
100
AcDbLayerTableRecord
2
NOTE
70
0
62
7
6
CONTINUOUS
370
-3
390
F
0
LAYER
5
203
100
AcDbSymbolTableRecord
100
AcDbLayerTableRecord
2
PIANI
70
0
62
7
6
CONTINUOUS
370
-3
390
F
0
LAYER
5
204
100
AcDbSymbolTableRecord
100
AcDbLayerTableRecord
2
PIANI_ORIGINE
70
0
62
7
6
CONTINUOUS
370
-3
390
F
0
LAYER
5
205
100
AcDbSymbolTableRecord
100
AcDbLayerTableRecord
2
SNAPLINE
70
0
62
7
6
CONTINUOUS
370
-3
390
F
0
LAYER
5
206
100
AcDbSymbolTableRecord
100
AcDbLayerTableRecord
2
TRASH
70
0
62
7
6
CONTINUOUS
370
-3
390
F
0
ENDTAB
0
TABLE
2
STYLE
5
3
100
AcDbSymbolTable
70
1
0
STYLE
5
11
100
AcDbSymbolTableRecord
100
AcDbTextStyleTableRecord
2
STANDARD
70
0
40
0.0
41
0.8000000000
50
0.0
71
0
42
0.2
3
txt
4

0
ENDTAB
0
TABLE
2
VIEW
5
6
100
AcDbSymbolTable
70
0
0
ENDTAB
0
TABLE
2
UCS
5
7
100
AcDbSymbolTable
70
0
0
ENDTAB
0
TABLE
2
APPID
5
9
100
AcDbSymbolTable
70
1
0
APPID
5
207
100
AcDbSymbolTableRecord
100
AcDbRegAppTableRecord
2
ACAD
70
0
0
ENDTAB
0
TABLE
2
BLOCK_RECORD
5
1
100
AcDbSymbolTable
70
0
0
BLOCK_RECORD
5
1F
100
AcDbSymbolTableRecord
100
AcDbBlockTableRecord
2
*MODEL_SPACE
0
BLOCK_RECORD
5
1B
100
AcDbSymbolTableRecord
100
AcDbBlockTableRecord
2
*PAPER_SPACE
0
ENDTAB
0
TABLE
2
DIMSTYLE
5
A
100
AcDbSymbolTable
70
1
100
AcDbDimStyleTable
71
0
0
DIMSTYLE
105
208
100
AcDbSymbolTableRecord
100
AcDbDimStyleTableRecord
2
STANDARD
70
0
3

4

40
1.0
41
3.0000000000
42
0.0625
43
0.38
44
0.18
45
0.0
46
0.0
47
0.0100000000
48
0.0100000000
140
3.0000000000
141
0.09
142
0.0
143
25.4
144
1.0000000000
145
0.0
146
1.0000000000
147
0.09
71
1
72
0
73
0
74
0
75
0
76
0
77
1
78
8
170
0
171
2
172
0
173
0
174
0
175
0
176
0
177
0
178
0
270
2
271
2
272
2
273
2
274
2
275
0
280
0
281
0
282
0
283
1
284
8
285
0
286
0
287
3
288
0
340
11
0
ENDTAB
0
ENDSEC
0
SECTION
2
BLOCKS
0
BLOCK
5
20
100
AcDbEntity
8
0
100
AcDbBlockBegin
2
*MODEL_SPACE
70
0
10
0.0
20
0.0
30
0.0
3
*MODEL_SPACE
1

0
ENDBLK
5
21
100
AcDbEntity
8
0
100
AcDbBlockEnd
0
BLOCK
5
1C
100
AcDbEntity
8
0
100
AcDbBlockBegin
2
*PAPER_SPACE
70
0
10
0.0
20
0.0
30
0.0
3
*PAPER_SPACE
1

0
ENDBLK
5
1D
100
AcDbEntity
8
0
100
AcDbBlockEnd
0
ENDSEC
0
SECTION
2
ENTITIES
0
LINE
5
209
100
AcDbEntity
8
0
100
AcDbLine
62
0
6
CONTINUOUS
10
-0.8328075046
20
-0.5867151349
11
-1.2283788153
21
-0.8925309915
0
LINE
5
20A
100
AcDbEntity
8
0
100
AcDbLine
62
0
6
CONTINUOUS
10
0.7494777381
20
0.6365482916
11
1.1450490488
21
0.9423641482
0
ARC
5
20B
100
AcDbEntity
8
0
100
AcDbCircle
62
0
6
CONTINUOUS
10
-0.0416648832
20
0.0249165783
40
1.0000000000
100
AcDbArc
50
286.9413561805
51
55.0730540808
0
CIRCLE
5
20C
100
AcDbEntity
8
0
100
AcDbCircle
62
0
6
CONTINUOUS
10
-0.0416648832
20
0.0249165783
40
2.7500000000
0
ARC
5
20D
100
AcDbEntity
8
0
100
AcDbCircle
62
0
6
CONTINUOUS
10
-0.0416648832
20
0.0249165783
40
1.0000000000
100
AcDbArc
50
106.9413561805
51
235.0730540808
0
SPLINE
5
20E
100
AcDbEntity
8
0
100
AcDbSpline
62
0
6
CONTINUOUS
70
0
71
3
72
8
73
4
74
2
42
0.0000001000
43
0.0000001000
44
0.0000000001
12
0.0935962773
22
-0.0701972440
32
0.0000000000
13
0.0992693056
23
-0.0624814917
33
0.0000000000
40
0.0000000000
40
0.0000000000
40
0.0000000000
40
0.0000000000
40
1.0000000000
40
1.0000000000
40
1.0000000000
40
1.0000000000
10
-1.2283788153
20
-0.8925309915
30
0.0000000000
10
-1.1971800562
20
-0.9159300729
30
0.0000000000
10
-1.1649757657
20
-0.9381011673
30
0.0000000000
10
-1.1318859972
20
-0.9589283312
30
0.0000000000
11
-1.2283788153
21
-0.8925309915
31
0.0000000000
11
-1.1318859972
21
-0.9589283312
31
0.0000000000
0
SPLINE
5
20F
100
AcDbEntity
8
0
100
AcDbSpline
62
0
6
CONTINUOUS
70
0
71
3
72
13
73
9
74
7
42
0.0000001000
43
0.0000001000
44
0.0000000001
12
1.3805596507
22
-0.8689435865
32
0.0000000000
13
1.0647337387
23
1.2371490308
33
0.0000000000
40
0.0000000000
40
0.0000000000
40
0.0000000000
40
0.0000000000
40
0.1495525649
40
0.3570422160
40
0.5506510459
40
0.7304864609
40
0.8966825726
40
1.0000000000
40
1.0000000000
40
1.0000000000
40
1.0000000000
10
-1.1318859972
20
-0.9589283312
30
0.0000000000
10
-1.0630639183
20
-1.0022459119
30
0.0000000000
10
-0.8896131471
20
-1.0917830280
30
0.0000000000
10
-0.5979313018
20
-1.1695987616
30
0.0000000000
10
-0.2791727656
20
-1.1695378227
30
0.0000000000
10
0.0066608074
20
-1.0920603543
30
0.0000000000
10
0.2191333173
20
-0.9666011462
30
0.0000000000
10
0.3253931241
20
-0.8646727948
30
0.0000000000
10
0.3620616410
20
-0.8220664431
30
0.0000000000
11
-1.1318859972
21
-0.9589283312
31
0.0000000000
11
-0.9150086438
21
-1.0703971256
31
0.0000000000
11
-0.5885395807
21
-1.1563809259
31
0.0000000000
11
-0.2735250193
21
-1.1551358595
31
0.0000000000
11
0.0085738491
21
-1.0774259059
31
0.0000000000
11
0.2408119126
21
-0.9389001043
31
0.0000000000
11
0.3620616410
21
-0.8220664431
31
0.0000000000
0
SPLINE
5
210
100
AcDbEntity
8
0
100
AcDbSpline
62
0
6
CONTINUOUS
70
0
71
3
72
9
73
5
74
3
42
0.0000001000
43
0.0000001000
44
0.0000000001
12
0.0621138033
22
0.0721720640
32
0.0000000000
13
0.0538185949
23
0.0787107191
33
0.0000000000
40
0.0000000000
40
0.0000000000
40
0.0000000000
40
0.0000000000
40
0.8469596371
40
1.0000000000
40
1.0000000000
40
1.0000000000
40
1.0000000000
10
0.3620616410
20
-0.8220664431
30
0.0000000000
10
0.3795976024
20
-0.8016908347
30
0.0000000000
10
0.3992042812
20
-0.7766796471
30
0.0000000000
10
0.4173692447
20
-0.7506014898
30
0.0000000000
10
0.4201147172
20
-0.7465861841
30
0.0000000000
11
0.3620616410
21
-0.8220664431
31
0.0000000000
11
0.4117755326
21
-0.7585585212
31
0.0000000000
11
0.4201147172
21
-0.7465861841
31
0.0000000000
0
SPLINE
5
211
100
AcDbEntity
8
0
100
AcDbSpline
62
0
6
CONTINUOUS
70
0
71
3
72
8
73
4
74
2
42
0.0000001000
43
0.0000001000
44
0.0000000001
12
0.1204366297
22
0.1761408625
32
0.0000000000
13
0.0692989031
23
0.2007913743
33
0.0000000000
40
0.0000000000
40
0.0000000000
40
0.0000000000
40
0.0000000000
40
1.0000000000
40
1.0000000000
40
1.0000000000
40
1.0000000000
10
0.4201147172
20
-0.7465861841
30
0.0000000000
10
0.4602602604
20
-0.6878725632
30
0.0000000000
10
0.4930291094
20
-0.6239642765
30
0.0000000000
10
0.5161287438
20
-0.5570338184
30
0.0000000000
11
0.4201147172
21
-0.7465861841
31
0.0000000000
11
0.5161287438
21
-0.5570338184
31
0.0000000000
0
SPLINE
5
212
100
AcDbEntity
8
0
100
AcDbSpline
62
0
6
CONTINUOUS
70
0
71
3
72
8
73
4
74
2
42
0.0000001000
43
0.0000001000
44
0.0000000001
12
-0.0935962773
22
0.0701972440
32
0.0000000000
13
-0.0992693056
23
0.0624814917
33
0.0000000000
40
0.0000000000
40
0.0000000000
40
0.0000000000
40
0.0000000000
40
1.0000000000
40
1.0000000000
40
1.0000000000
40
1.0000000000
10
1.1450490488
20
0.9423641482
30
0.0000000000
10
1.1138502897
20
0.9657632296
30
0.0000000000
10
1.0816459993
20
0.9879343240
30
0.0000000000
10
1.0485562307
20
1.0087614879
30
0.0000000000
11
1.1450490488
21
0.9423641482
31
0.0000000000
11
1.0485562307
21
1.0087614879
31
0.0000000000
0
SPLINE
5
213
100
AcDbEntity
8
0
100
AcDbSpline
62
0
6
CONTINUOUS
70
0
71
3
72
13
73
9
74
7
42
0.0000001000
43
0.0000001000
44
0.0000000001
12
-1.3805596507
22
0.8689435865
32
0.0000000000
13
-1.0647337387
23
-1.2371490308
33
0.0000000000
40
0.0000000000
40
0.0000000000
40
0.0000000000
40
0.0000000000
40
0.1495525649
40
0.3570422160
40
0.5506510459
40
0.7304864609
40
0.8966825726
40
1.0000000000
40
1.0000000000
40
1.0000000000
40
1.0000000000
10
1.0485562307
20
1.0087614879
30
0.0000000000
10
0.9797341518
20
1.0520790686
30
0.0000000000
10
0.8062833807
20
1.1416161847
30
0.0000000000
10
0.5146015354
20
1.2194319183
30
0.0000000000
10
0.1958429992
20
1.2193709794
30
0.0000000000
10
-0.0899905738
20
1.1418935110
30
0.0000000000
10
-0.3024630838
20
1.0164343029
30
0.0000000000
10
-0.4087228906
20
0.9145059515
30
0.0000000000
10
-0.4453914075
20
0.8718995998
30
0.0000000000
11
1.0485562307
21
1.0087614879
31
0.0000000000
11
0.8316788774
21
1.1202302823
31
0.0000000000
11
0.5052098143
21
1.2062140826
31
0.0000000000
11
0.1901952529
21
1.2049690162
31
0.0000000000
11
-0.0919036155
21
1.1272590626
31
0.0000000000
11
-0.3241416790
21
0.9887332610
31
0.0000000000
11
-0.4453914075
21
0.8718995998
31
0.0000000000
0
SPLINE
5
214
100
AcDbEntity
8
0
100
AcDbSpline
62
0
6
CONTINUOUS
70
0
71
3
72
9
73
5
74
3
42
0.0000001000
43
0.0000001000
44
0.0000000001
12
-0.0621138033
22
-0.0721720640
32
0.0000000000
13
-0.0538185949
23
-0.0787107191
33
0.0000000000
40
0.0000000000
40
0.0000000000
40
0.0000000000
40
0.0000000000
40
0.8469596372
40
1.0000000000
40
1.0000000000
40
1.0000000000
40
1.0000000000
10
-0.4453914075
20
0.8718995998
30
0.0000000000
10
-0.4629273689
20
0.8515239914
30
0.0000000000
10
-0.4825340477
20
0.8265128038
30
0.0000000000
10
-0.5006990112
20
0.8004346465
30
0.0000000000
10
-0.5034444836
20
0.7964193408
30
0.0000000000
11
-0.4453914075
21
0.8718995998
31
0.0000000000
11
-0.4951052991
21
0.8083916779
31
0.0000000000
11
-0.5034444836
21
0.7964193408
31
0.0000000000
0
SPLINE
5
215
100
AcDbEntity
8
0
100
AcDbSpline
62
0
6
CONTINUOUS
70
0
71
3
72
8
73
4
74
2
42
0.0000001000
43
0.0000001000
44
0.0000000001
12
-0.1204366297
22
-0.1761408625
32
0.0000000000
13
-0.0692989031
23
-0.2007913743
33
0.0000000000
40
0.0000000000
40
0.0000000000
40
0.0000000000
40
0.0000000000
40
1.0000000000
40
1.0000000000
40
1.0000000000
40
1.0000000000
10
-0.5034444836
20
0.7964193408
30
0.0000000000
10
-0.5435900269
20
0.7377057199
30
0.0000000000
10
-0.5763588759
20
0.6737974332
30
0.0000000000
10
-0.5994585103
20
0.6068669751
30
0.0000000000
11
-0.5034444836
21
0.7964193408
31
0.0000000000
11
-0.5994585103
21
0.6068669751
31
0.0000000000
0
SPLINE
5
216
100
AcDbEntity
8
0
100
AcDbSpline
62
0
6
CONTINUOUS
70
0
71
3
72
25
73
21
74
19
42
0.0000001000
43
0.0000001000
44
0.0000000001
12
-3.5444684907
22
-5.6782648270
32
0.0000000000
13
-4.6078077309
23
4.8484589390
33
0.0000000000
40
0.0000000000
40
0.0000000000
40
0.0000000000
40
0.0000000000
40
0.0589639572
40
0.1173952326
40
0.1758265024
40
0.2342577666
40
0.2926890254
40
0.3511202790
40
0.4095515276
40
0.4679827713
40
0.5264140103
40
0.5848452446
40
0.6432764746
40
0.7017077002
40
0.7601389218
40
0.8185701394
40
0.8770013532
40
0.9354325634
40
0.9938637701
40
1.0000000000
40
1.0000000000
40
1.0000000000
40
1.0000000000
10
-1.3142752655
20
0.8189321095
30
0.0000000000
10
-1.3839405616
20
0.7073277881
30
0.0000000000
10
-1.4930191900
20
0.4670416711
30
0.0000000000
10
-1.5578490481
20
0.0769778842
30
0.0000000000
10
-1.5200747885
20
-0.3153693136
30
0.0000000000
10
-1.3825094110
20
-0.6847575371
30
0.0000000000
10
-1.1544219541
20
-1.0062331829
30
0.0000000000
10
-0.8512150417
20
-1.2580984461
30
0.0000000000
10
-0.4933564337
20
-1.4233491147
30
0.0000000000
10
-0.1050049511
20
-1.4908297247
30
0.0000000000
10
0.2876225050
20
-1.4559847063
30
0.0000000000
10
0.6580202636
20
-1.3211664383
30
0.0000000000
10
0.9811833862
20
-1.0954762999
30
0.0000000000
10
1.2352956677
20
-0.7941502852
30
0.0000000000
10
1.4032024217
20
-0.4375304338
30
0.0000000000
10
1.4735685589
20
-0.0496915732
30
0.0000000000
10
1.4416437979
20
0.3431839337
30
0.0000000000
10
1.3095833457
20
0.7145737175
30
0.0000000000
10
1.1529133304
20
0.9424993921
30
0.0000000000
10
1.0551735760
20
1.0482099788
30
0.0000000000
10
1.0457487200
20
1.0581270651
30
0.0000000000
11
-1.3142752655
21
0.8189321095
31
0.0000000000
11
-1.4769162147
21
0.4608679694
31
0.0000000000
11
-1.5407810968
21
0.0764003435
31
0.0000000000
11
-1.5034429314
21
-0.3115428359
31
0.0000000000
11
-1.3674223894
21
-0.6767721234
31
0.0000000000
11
-1.1419020330
21
-0.9946314652
31
0.0000000000
11
-0.8421064115
21
-1.2436626894
31
0.0000000000
11
-0.4882742723
21
-1.4070541098
31
0.0000000000
11
-0.1042922730
21
-1.4737754540
31
0.0000000000
11
0.2839175704
21
-1.4393224947
31
0.0000000000
11
0.6501478374
21
-1.3060211198
31
0.0000000000
11
0.9696749232
21
-1.0828703109
31
0.0000000000
11
1.2209280872
21
-0.7849346342
31
0.0000000000
11
1.3869456563
21
-0.4323272530
31
0.0000000000
11
1.4565200765
21
-0.0488521195
31
0.0000000000
11
1.4249545135
21
0.3396029918
31
0.0000000000
11
1.2943799249
21
0.7068141246
31
0.0000000000
11
1.0736111997
21
1.0279914763
31
0.0000000000
11
1.0457487200
21
1.0581270651
31
0.0000000000
0
SPLINE
5
217
100
AcDbEntity
8
0
100
AcDbSpline
62
0
6
CONTINUOUS
70
0
71
3
72
8
73
4
74
2
42
0.0000001000
43
0.0000001000
44
0.0000000001
12
-0.0690108278
22
-0.1105558583
32
0.0000000000
13
-0.0590916160
23
-0.1160664457
33
0.0000000000
40
0.0000000000
40
0.0000000000
40
0.0000000000
40
0.0000000000
40
1.0000000000
40
1.0000000000
40
1.0000000000
40
1.0000000000
10
-1.3142752655
20
0.8189321095
30
0.0000000000
10
-1.3372788747
20
0.7820801567
30
0.0000000000
10
-1.3586602984
20
0.7442377547
30
0.0000000000
10
-1.3783575038
20
0.7055489395
30
0.0000000000
11
-1.3142752655
21
0.8189321095
31
0.0000000000
11
-1.3783575038
21
0.7055489395
31
0.0000000000
0
SPLINE
5
218
100
AcDbEntity
8
0
100
AcDbSpline
62
0
6
CONTINUOUS
70
0
71
3
72
80
73
76
74
74
42
0.0000001000
43
0.0000001000
44
0.0000000001
12
-12.8882821832
22
-25.3148789177
32
0.0000000000
13
-10.6444399852
23
-26.3337643469
33
0.0000000000
40
0.0000000000
40
0.0000000000
40
0.0000000000
40
0.0000000000
40
0.0093002641
40
0.0230599995
40
0.0368197334
40
0.0505794661
40
0.0643391975
40
0.0780989277
40
0.0918586567
40
0.1056183845
40
0.1193781112
40
0.1331378369
40
0.1468975615
40
0.1606572851
40
0.1744170077
40
0.1881767294
40
0.2019364502
40
0.2156961702
40
0.2294558893
40
0.2432156076
40
0.2569753252
40
0.2707350421
40
0.2844947584
40
0.2982544739
40
0.3120141889
40
0.3257739034
40
0.3395336173
40
0.3532933307
40
0.3670530437
40
0.3808127562
40
0.3945724684
40
0.4083321803
40
0.4220918918
40
0.4358516031
40
0.4496113142
40
0.4633710250
40
0.4771307358
40
0.4908904464
40
0.5046501569
40
0.5184098674
40
0.5321695779
40
0.5459292884
40
0.5596889990
40
0.5734487097
40
0.5872084206
40
0.6009681316
40
0.6147278429
40
0.6284875544
40
0.6422472662
40
0.6560069784
40
0.6697666909
40
0.6835264039
40
0.6972861172
40
0.7110458311
40
0.7248055455
40
0.7385652604
40
0.7523249760
40
0.7660846921
40
0.7798444090
40
0.7936041265
40
0.8073638448
40
0.8211235639
40
0.8348832838
40
0.8486430045
40
0.8624027262
40
0.8761624487
40
0.8899221723
40
0.9036818968
40
0.9174416224
40
0.9312013491
40
0.9449610769
40
0.9587208058
40
0.9724805360
40
0.9862402674
40
1.0000000000
40
1.0000000000
40
1.0000000000
40
1.0000000000
10
-1.3783575038
20
0.7055489395
30
0.0000000000
10
-1.4183123133
20
0.6270705860
30
0.0000000000
10
-1.5001980162
20
0.4238482718
30
0.0000000000
10
-1.5578490656
20
0.0769778833
30
0.0000000000
10
-1.5200747838
20
-0.3153693133
30
0.0000000000
10
-1.3825094123
20
-0.6847575372
30
0.0000000000
10
-1.1544219537
20
-1.0062331829
30
0.0000000000
10
-0.8512150418
20
-1.2580984461
30
0.0000000000
10
-0.4933564337
20
-1.4233491147
30
0.0000000000
10
-0.1050049511
20
-1.4908297247
30
0.0000000000
10
0.2876225050
20
-1.4559847063
30
0.0000000000
10
0.6580202636
20
-1.3211664383
30
0.0000000000
10
0.9811833862
20
-1.0954762999
30
0.0000000000
10
1.2352956677
20
-0.7941502852
30
0.0000000000
10
1.4032024217
20
-0.4375304338
30
0.0000000000
10
1.4735685589
20
-0.0496915732
30
0.0000000000
10
1.4416437979
20
0.3431839337
30
0.0000000000
10
1.3095833457
20
0.7145737175
30
0.0000000000
10
1.0863024001
20
1.0394058818
30
0.0000000000
10
0.7868742968
20
1.2957515635
30
0.0000000000
10
0.4315129325
20
1.4663053118
30
0.0000000000
10
0.0442081568
20
1.5395533471
30
0.0000000000
10
-0.3488937419
20
1.5105508344
30
0.0000000000
10
-0.7212551277
20
1.3812556984
30
0.0000000000
10
-1.0477385271
20
1.1603964446
30
0.0000000000
10
-1.3063036153
20
0.8628829118
30
0.0000000000
10
-1.4794951192
20
0.5087997322
30
0.0000000000
10
-1.5556211904
20
0.1220504528
30
0.0000000000
10
-1.5295427005
20
-0.2712561525
30
0.0000000000
10
-1.4030201723
20
-0.6445686407
30
0.0000000000
10
-1.1845949293
20
-0.9726853403
30
0.0000000000
10
-0.8890124839
20
-1.2334556713
30
0.0000000000
10
-0.5362270936
20
-1.4092754911
30
0.0000000000
10
-0.1500546835
20
-1.4882755181
30
0.0000000000
10
0.2434349249
20
-1.4651226045
30
0.0000000000
10
0.6176779413
20
-1.3413797676
30
0.0000000000
10
0.9474098804
20
-1.1254006715
30
0.0000000000
10
1.2103711221
20
-0.8317656868
30
0.0000000000
10
1.3888096187
20
-0.4802975942
30
0.0000000000
10
1.4706793036
20
-0.0947233848
30
0.0000000000
10
1.4504532992
20
0.2989275075
30
0.0000000000
10
1.3294970271
20
0.6740804060
30
0.0000000000
10
1.1159760305
20
1.0054094007
30
0.0000000000
10
0.8243047332
20
1.2705470547
30
0.0000000000
10
0.4741733481
20
1.4515943906
30
0.0000000000
10
0.0892186263
20
1.5363292186
30
0.0000000000
10
-0.3045718177
20
1.5190312351
30
0.0000000000
10
-0.6806138833
20
1.4008681911
30
0.0000000000
10
-1.0135216290
20
1.1898170605
30
0.0000000000
10
-1.2808210326
20
0.9001255291
30
0.0000000000
10
-1.4644671734
20
0.5513501599
30
0.0000000000
10
-1.5520624134
20
0.1670361652
30
0.0000000000
10
-1.5376933410
20
-0.2268720888
30
0.0000000000
10
-1.4223299772
20
-0.6037825402
30
0.0000000000
10
-1.2137602919
20
-0.9382506140
30
0.0000000000
10
-0.9260644541
20
-1.2076969423
30
0.0000000000
10
-0.5786643053
20
-1.3939316580
30
0.0000000000
10
-0.1950122270
20
-1.4843823630
30
0.0000000000
10
0.1989920887
20
-1.4729428709
30
0.0000000000
10
0.5767500812
20
-1.3603854269
30
0.0000000000
10
0.9127599448
20
-1.1543085774
30
0.0000000000
10
1.1843382123
20
-0.8686242079
30
0.0000000000
10
1.3731510787
20
-0.5226183775
30
0.0000000000
10
1.4664520871
20
-0.1396493514
30
0.0000000000
10
1.4579426228
20
0.2544292736
30
0.0000000000
10
1.3481971251
20
0.6330139022
30
0.0000000000
10
1.1446243116
20
0.9705469038
30
0.0000000000
10
0.8609670301
20
1.2442419674
30
0.0000000000
10
0.5163745075
20
1.4356223666
30
0.0000000000
10
0.1341096102
20
1.5317683068
30
0.0000000000
10
-0.2600215583
20
1.5261890794
30
0.0000000000
10
-0.6394119089
20
1.4192614038
30
0.0000000000
10
-0.9784491051
20
1.2182033996
30
0.0000000000
10
-1.2542463415
20
0.9365895450
30
0.0000000000
10
-1.3835360688
20
0.7078138173
30
0.0000000000
10
-1.4323576183
20
0.5870319650
30
0.0000000000
11
-1.3783575038
21
0.7055489395
31
0.0000000000
11
-1.4769162147
21
0.4608679694
31
0.0000000000
11
-1.5407810968
21
0.0764003435
31
0.0000000000
11
-1.5034429314
21
-0.3115428359
31
0.0000000000
11
-1.3674223894
21
-0.6767721234
31
0.0000000000
11
-1.1419020330
21
-0.9946314652
31
0.0000000000
11
-0.8421064115
21
-1.2436626894
31
0.0000000000
11
-0.4882742723
21
-1.4070541098
31
0.0000000000
11
-0.1042922730
21
-1.4737754540
31
0.0000000000
11
0.2839175704
21
-1.4393224947
31
0.0000000000
11
0.6501478374
21
-1.3060211198
31
0.0000000000
11
0.9696749232
21
-1.0828703109
31
0.0000000000
11
1.2209280872
21
-0.7849346342
31
0.0000000000
11
1.3869456563
21
-0.4323272530
31
0.0000000000
11
1.4565200765
21
-0.0488521195
31
0.0000000000
11
1.4249545135
21
0.3396029918
31
0.0000000000
11
1.2943799249
21
0.7068141246
31
0.0000000000
11
1.0736111997
21
1.0279914763
31
0.0000000000
11
0.7775520778
21
1.2814529137
31
0.0000000000
11
0.4261890210
21
1.4500876961
31
0.0000000000
11
0.0432419601
21
1.5225115896
31
0.0000000000
11
-0.3454369986
21
1.4938353954
31
0.0000000000
11
-0.7136088042
21
1.3659950083
31
0.0000000000
11
-1.0364188145
21
1.1476207262
31
0.0000000000
11
-1.2920746887
21
0.8534546311
31
0.0000000000
11
-1.4633175493
21
0.5033553757
31
0.0000000000
11
-1.5385870973
21
0.1209575588
31
0.0000000000
11
-1.5128020263
21
-0.2679238054
31
0.0000000000
11
-1.3877030509
21
-0.6370360141
31
0.0000000000
11
-1.1717353924
21
-0.9614609492
31
0.0000000000
11
-0.8794786562
21
-1.2192972552
31
0.0000000000
11
-0.5306625868
21
-1.3931388602
31
0.0000000000
11
-0.1488351473
21
-1.4712500282
31
0.0000000000
11
0.2402271622
21
-1.4483576168
31
0.0000000000
11
0.6102594304
21
-1.3260070568
31
0.0000000000
11
0.9362814321
21
-1.1124580224
31
0.0000000000
11
1.1962839986
21
-0.8221268346
31
0.0000000000
11
1.3727148170
21
-0.4746132409
31
0.0000000000
11
1.4536633554
21
-0.0933772710
31
0.0000000000
11
1.4336649214
21
0.2958445080
31
0.0000000000
11
1.3140695735
21
0.6667764211
31
0.0000000000
11
1.1029509814
21
0.9943775094
31
0.0000000000
11
0.8145613869
21
1.2565320005
31
0.0000000000
11
0.4683694611
21
1.4355423051
31
0.0000000000
11
0.0877460091
21
1.5193237497
31
0.0000000000
11
-0.3016137510
21
1.5022203923
31
0.0000000000
11
-0.6734248262
21
1.3853868451
31
0.0000000000
11
-1.0025869017
21
1.1767103301
31
0.0000000000
11
-1.2668788191
21
0.8902782271
31
0.0000000000
11
-1.4484586880
21
0.5454270611
31
0.0000000000
11
-1.5350683607
21
0.1654371283
31
0.0000000000
11
-1.5208609603
21
-0.2240391150
31
0.0000000000
11
-1.4067955934
21
-0.5967088039
31
0.0000000000
11
-1.2005726049
21
-0.9274136503
31
0.0000000000
11
-0.9161137425
21
-1.1938283353
31
0.0000000000
11
-0.5726223255
21
-1.3779676530
31
0.0000000000
11
-0.1932868635
21
-1.4674006626
31
0.0000000000
11
0.1962843583
21
-1.4560898805
31
0.0000000000
11
0.5697920501
21
-1.3447988636
31
0.0000000000
11
0.9020213368
21
-1.1410406644
31
0.0000000000
11
1.1705439719
21
-0.8585706405
31
0.0000000000
11
1.3572324313
21
-0.5164578562
31
0.0000000000
11
1.4494836736
21
-0.1377977642
31
0.0000000000
11
1.4410699526
21
0.2518469278
31
0.0000000000
11
1.3325592447
21
0.6261719518
31
0.0000000000
11
1.1312769092
21
0.9599072363
31
0.0000000000
11
0.8508111685
21
1.2305228479
31
0.0000000000
11
0.5100957926
21
1.4197499511
31
0.0000000000
11
0.1321319141
21
1.5148141104
31
0.0000000000
11
-0.2575647391
21
1.5092976738
31
0.0000000000
11
-0.6326863676
21
1.4035730224
31
0.0000000000
11
-0.9679090981
21
1.2047774354
31
0.0000000000
11
-1.2406025580
21
0.9263312672
31
0.0000000000
11
-1.4323576183
21
0.5870319650
31
0.0000000000
0
SPLINE
5
219
100
AcDbEntity
8
0
100
AcDbSpline
62
0
6
CONTINUOUS
70
0
71
3
72
25
73
21
74
19
42
0.0000001000
43
0.0000001000
44
0.0000000001
12
3.5444684907
22
5.6782648270
32
0.0000000000
13
4.6078077309
23
-4.8484589390
33
0.0000000000
40
0.0000000000
40
0.0000000000
40
0.0000000000
40
0.0000000000
40
0.0589639572
40
0.1173952326
40
0.1758265024
40
0.2342577666
40
0.2926890254
40
0.3511202790
40
0.4095515276
40
0.4679827713
40
0.5264140103
40
0.5848452446
40
0.6432764746
40
0.7017077002
40
0.7601389218
40
0.8185701394
40
0.8770013532
40
0.9354325634
40
0.9938637701
40
1.0000000000
40
1.0000000000
40
1.0000000000
40
1.0000000000
10
1.2309454990
20
-0.7690989528
30
0.0000000000
10
1.3006107951
20
-0.6574946314
30
0.0000000000
10
1.4096894236
20
-0.4172085144
30
0.0000000000
10
1.4745192816
20
-0.0271447275
30
0.0000000000
10
1.4367450220
20
0.3652024703
30
0.0000000000
10
1.2991796446
20
0.7345906938
30
0.0000000000
10
1.0710921876
20
1.0560663396
30
0.0000000000
10
0.7678852752
20
1.3079316028
30
0.0000000000
10
0.4100266672
20
1.4731822714
30
0.0000000000
10
0.0216751846
20
1.5406628814
30
0.0000000000
10
-0.3709522714
20
1.5058178630
30
0.0000000000
10
-0.7413500301
20
1.3709995950
30
0.0000000000
10
-1.0645131526
20
1.1453094566
30
0.0000000000
10
-1.3186254342
20
0.8439834419
30
0.0000000000
10
-1.4865321882
20
0.4873635905
30
0.0000000000
10
-1.5568983253
20
0.0995247299
30
0.0000000000
10
-1.5249735643
20
-0.2933507770
30
0.0000000000
10
-1.3929131122
20
-0.6647405608
30
0.0000000000
10
-1.2362430968
20
-0.8926662354
30
0.0000000000
10
-1.1385033424
20
-0.9983768221
30
0.0000000000
10
-1.1290784865
20
-1.0082939084
30
0.0000000000
11
1.2309454990
21
-0.7690989528
31
0.0000000000
11
1.3935864483
21
-0.4110348127
31
0.0000000000
11
1.4574513303
21
-0.0265671868
31
0.0000000000
11
1.4201131649
21
0.3613759926
31
0.0000000000
11
1.2840926229
21
0.7266052801
31
0.0000000000
11
1.0585722666
21
1.0444646219
31
0.0000000000
11
0.7587766450
21
1.2934958461
31
0.0000000000
11
0.4049445058
21
1.4568872665
31
0.0000000000
11
0.0209625066
21
1.5236086107
31
0.0000000000
11
-0.3672473368
21
1.4891556514
31
0.0000000000
11
-0.7334776039
21
1.3558542765
31
0.0000000000
11
-1.0530046897
21
1.1327034676
31
0.0000000000
11
-1.3042578537
21
0.8347677909
31
0.0000000000
11
-1.4702754227
21
0.4821604097
31
0.0000000000
11
-1.5398498429
21
0.0986852762
31
0.0000000000
11
-1.5082842799
21
-0.2897698351
31
0.0000000000
11
-1.3777096913
21
-0.6569809680
31
0.0000000000
11
-1.1569409662
21
-0.9781583196
31
0.0000000000
11
-1.1290784865
21
-1.0082939084
31
0.0000000000
0
SPLINE
5
21A
100
AcDbEntity
8
0
100
AcDbSpline
62
0
6
CONTINUOUS
70
0
71
3
72
8
73
4
74
2
42
0.0000001000
43
0.0000001000
44
0.0000000001
12
0.0690108278
22
0.1105558583
32
0.0000000000
13
0.0590916160
23
0.1160664457
33
0.0000000000
40
0.0000000000
40
0.0000000000
40
0.0000000000
40
0.0000000000
40
1.0000000000
40
1.0000000000
40
1.0000000000
40
1.0000000000
10
1.2309454990
20
-0.7690989528
30
0.0000000000
10
1.2539491083
20
-0.7322470000
30
0.0000000000
10
1.2753305320
20
-0.6944045980
30
0.0000000000
10
1.2950277373
20
-0.6557157828
30
0.0000000000
11
1.2309454990
21
-0.7690989528
31
0.0000000000
11
1.2950277373
21
-0.6557157828
31
0.0000000000
0
SPLINE
5
21B
100
AcDbEntity
8
0
100
AcDbSpline
62
0
6
CONTINUOUS
70
0
71
3
72
80
73
76
74
74
42
0.0000001000
43
0.0000001000
44
0.0000000001
12
12.8882821832
22
25.3148789177
32
0.0000000000
13
10.6444399852
23
26.3337643469
33
0.0000000000
40
0.0000000000
40
0.0000000000
40
0.0000000000
40
0.0000000000
40
0.0093002641
40
0.0230599995
40
0.0368197334
40
0.0505794661
40
0.0643391975
40
0.0780989277
40
0.0918586567
40
0.1056183845
40
0.1193781112
40
0.1331378369
40
0.1468975615
40
0.1606572851
40
0.1744170077
40
0.1881767294
40
0.2019364502
40
0.2156961702
40
0.2294558893
40
0.2432156076
40
0.2569753252
40
0.2707350421
40
0.2844947584
40
0.2982544739
40
0.3120141889
40
0.3257739034
40
0.3395336173
40
0.3532933307
40
0.3670530437
40
0.3808127562
40
0.3945724684
40
0.4083321803
40
0.4220918918
40
0.4358516031
40
0.4496113142
40
0.4633710250
40
0.4771307358
40
0.4908904464
40
0.5046501569
40
0.5184098674
40
0.5321695779
40
0.5459292884
40
0.5596889990
40
0.5734487097
40
0.5872084206
40
0.6009681316
40
0.6147278429
40
0.6284875544
40
0.6422472662
40
0.6560069784
40
0.6697666909
40
0.6835264039
40
0.6972861172
40
0.7110458311
40
0.7248055455
40
0.7385652604
40
0.7523249760
40
0.7660846921
40
0.7798444090
40
0.7936041265
40
0.8073638448
40
0.8211235639
40
0.8348832838
40
0.8486430045
40
0.8624027262
40
0.8761624487
40
0.8899221723
40
0.9036818968
40
0.9174416224
40
0.9312013491
40
0.9449610769
40
0.9587208058
40
0.9724805360
40
0.9862402674
40
1.0000000000
40
1.0000000000
40
1.0000000000
40
1.0000000000
10
1.2950277373
20
-0.6557157828
30
0.0000000000
10
1.3349825469
20
-0.5772374293
30
0.0000000000
10
1.4168682497
20
-0.3740151151
30
0.0000000000
10
1.4745192992
20
-0.0271447266
30
0.0000000000
10
1.4367450174
20
0.3652024700
30
0.0000000000
10
1.2991796458
20
0.7345906939
30
0.0000000000
10
1.0710921873
20
1.0560663396
30
0.0000000000
10
0.7678852753
20
1.3079316028
30
0.0000000000
10
0.4100266672
20
1.4731822714
30
0.0000000000
10
0.0216751846
20
1.5406628814
30
0.0000000000
10
-0.3709522714
20
1.5058178630
30
0.0000000000
10
-0.7413500301
20
1.3709995950
30
0.0000000000
10
-1.0645131526
20
1.1453094566
30
0.0000000000
10
-1.3186254342
20
0.8439834419
30
0.0000000000
10
-1.4865321882
20
0.4873635905
30
0.0000000000
10
-1.5568983253
20
0.0995247299
30
0.0000000000
10
-1.5249735643
20
-0.2933507770
30
0.0000000000
10
-1.3929131122
20
-0.6647405608
30
0.0000000000
10
-1.1696321665
20
-0.9895727251
30
0.0000000000
10
-0.8702040633
20
-1.2459184068
30
0.0000000000
10
-0.5148426989
20
-1.4164721551
30
0.0000000000
10
-0.1275379232
20
-1.4897201904
30
0.0000000000
10
0.2655639754
20
-1.4607176777
30
0.0000000000
10
0.6379253612
20
-1.3314225417
30
0.0000000000
10
0.9644087606
20
-1.1105632879
30
0.0000000000
10
1.2229738489
20
-0.8130497551
30
0.0000000000
10
1.3961653527
20
-0.4589665755
30
0.0000000000
10
1.4722914240
20
-0.0722172961
30
0.0000000000
10
1.4462129340
20
0.3210893092
30
0.0000000000
10
1.3196904059
20
0.6944017974
30
0.0000000000
10
1.1012651628
20
1.0225184970
30
0.0000000000
10
0.8056827174
20
1.2832888280
30
0.0000000000
10
0.4528973272
20
1.4591086478
30
0.0000000000
10
0.0667249171
20
1.5381086748
30
0.0000000000
10
-0.3267646914
20
1.5149557612
30
0.0000000000
10
-0.7010077078
20
1.3912129243
30
0.0000000000
10
-1.0307396469
20
1.1752338282
30
0.0000000000
10
-1.2937008886
20
0.8815988435
30
0.0000000000
10
-1.4721393852
20
0.5301307509
30
0.0000000000
10
-1.5540090700
20
0.1445565415
30
0.0000000000
10
-1.5337830657
20
-0.2490943508
30
0.0000000000
10
-1.4128267936
20
-0.6242472493
30
0.0000000000
10
-1.1993057969
20
-0.9555762440
30
0.0000000000
10
-0.9076344996
20
-1.2207138980
30
0.0000000000
10
-0.5575031146
20
-1.4017612339
30
0.0000000000
10
-0.1725483928
20
-1.4864960619
30
0.0000000000
10
0.2212420513
20
-1.4691980784
30
0.0000000000
10
0.5972841168
20
-1.3510350344
30
0.0000000000
10
0.9301918625
20
-1.1399839038
30
0.0000000000
10
1.1974912662
20
-0.8502923724
30
0.0000000000
10
1.3811374070
20
-0.5015170032
30
0.0000000000
10
1.4687326469
20
-0.1172030085
30
0.0000000000
10
1.4543635746
20
0.2767052455
30
0.0000000000
10
1.3390002108
20
0.6536156969
30
0.0000000000
10
1.1304305255
20
0.9880837707
30
0.0000000000
10
0.8427346876
20
1.2575300990
30
0.0000000000
10
0.4953345389
20
1.4437648147
30
0.0000000000
10
0.1116824605
20
1.5342155197
30
0.0000000000
10
-0.2823218552
20
1.5227760276
30
0.0000000000
10
-0.6600798477
20
1.4102185836
30
0.0000000000
10
-0.9960897112
20
1.2041417341
30
0.0000000000
10
-1.2676679787
20
0.9184573646
30
0.0000000000
10
-1.4564808452
20
0.5724515341
30
0.0000000000
10
-1.5497818536
20
0.1894825081
30
0.0000000000
10
-1.5412723892
20
-0.2045961169
30
0.0000000000
10
-1.4315268916
20
-0.5831807455
30
0.0000000000
10
-1.2279540781
20
-0.9207137471
30
0.0000000000
10
-0.9442967966
20
-1.1944088107
30
0.0000000000
10
-0.5997042739
20
-1.3857892099
30
0.0000000000
10
-0.2174393766
20
-1.4819351501
30
0.0000000000
10
0.1766917918
20
-1.4763559227
30
0.0000000000
10
0.5560821424
20
-1.3694282471
30
0.0000000000
10
0.8951193386
20
-1.1683702429
30
0.0000000000
10
1.1709165751
20
-0.8867563883
30
0.0000000000
10
1.3002063024
20
-0.6579806606
30
0.0000000000
10
1.3490278518
20
-0.5371988083
30
0.0000000000
11
1.2950277373
21
-0.6557157828
31
0.0000000000
11
1.3935864483
21
-0.4110348127
31
0.0000000000
11
1.4574513303
21
-0.0265671868
31
0.0000000000
11
1.4201131649
21
0.3613759926
31
0.0000000000
11
1.2840926229
21
0.7266052801
31
0.0000000000
11
1.0585722666
21
1.0444646219
31
0.0000000000
11
0.7587766450
21
1.2934958461
31
0.0000000000
11
0.4049445058
21
1.4568872665
31
0.0000000000
11
0.0209625066
21
1.5236086107
31
0.0000000000
11
-0.3672473368
21
1.4891556514
31
0.0000000000
11
-0.7334776039
21
1.3558542765
31
0.0000000000
11
-1.0530046897
21
1.1327034676
31
0.0000000000
11
-1.3042578537
21
0.8347677909
31
0.0000000000
11
-1.4702754227
21
0.4821604097
31
0.0000000000
11
-1.5398498429
21
0.0986852762
31
0.0000000000
11
-1.5082842799
21
-0.2897698351
31
0.0000000000
11
-1.3777096913
21
-0.6569809680
31
0.0000000000
11
-1.1569409662
21
-0.9781583196
31
0.0000000000
11
-0.8608818443
21
-1.2316197570
31
0.0000000000
11
-0.5095187875
21
-1.4002545394
31
0.0000000000
11
-0.1265717265
21
-1.4726784329
31
0.0000000000
11
0.2621072321
21
-1.4440022387
31
0.0000000000
11
0.6302790378
21
-1.3161618516
31
0.0000000000
11
0.9530890481
21
-1.0977875695
31
0.0000000000
11
1.2087449223
21
-0.8036214744
31
0.0000000000
11
1.3799877828
21
-0.4535222190
31
0.0000000000
11
1.4552573309
21
-0.0711244021
31
0.0000000000
11
1.4294722599
21
0.3177569621
31
0.0000000000
11
1.3043732844
21
0.6868691708
31
0.0000000000
11
1.0884056260
21
1.0112941058
31
0.0000000000
11
0.7961488898
21
1.2691304119
31
0.0000000000
11
0.4473328203
21
1.4429720169
31
0.0000000000
11
0.0655053808
21
1.5210831849
31
0.0000000000
11
-0.3235569287
21
1.4981907735
31
0.0000000000
11
-0.6935891968
21
1.3758402135
31
0.0000000000
11
-1.0196111985
21
1.1622911791
31
0.0000000000
11
-1.2796137650
21
0.8719599913
31
0.0000000000
11
-1.4560445834
21
0.5244463976
31
0.0000000000
11
-1.5369931219
21
0.1432104277
31
0.0000000000
11
-1.5169946878
21
-0.2460113513
31
0.0000000000
11
-1.3973993399
21
-0.6169432644
31
0.0000000000
11
-1.1862807478
21
-0.9445443527
31
0.0000000000
11
-0.8978911534
21
-1.2066988438
31
0.0000000000
11
-0.5516992276
21
-1.3857091484
31
0.0000000000
11
-0.1710757755
21
-1.4694905930
31
0.0000000000
11
0.2182839846
21
-1.4523872356
31
0.0000000000
11
0.5900950597
21
-1.3355536884
31
0.0000000000
11
0.9192571352
21
-1.1268771734
31
0.0000000000
11
1.1835490527
21
-0.8404450704
31
0.0000000000
11
1.3651289215
21
-0.4955939044
31
0.0000000000
11
1.4517385943
21
-0.1156039716
31
0.0000000000
11
1.4375311938
21
0.2738722716
31
0.0000000000
11
1.3234658269
21
0.6465419606
31
0.0000000000
11
1.1172428384
21
0.9772468070
31
0.0000000000
11
0.8327839760
21
1.2436614920
31
0.0000000000
11
0.4892925590
21
1.4278008097
31
0.0000000000
11
0.1099570971
21
1.5172338192
31
0.0000000000
11
-0.2796141247
21
1.5059230372
31
0.0000000000
11
-0.6531218165
21
1.3946320203
31
0.0000000000
11
-0.9853511032
21
1.1908738211
31
0.0000000000
11
-1.2538737384
21
0.9084037972
31
0.0000000000
11
-1.4405621978
21
0.5662910129
31
0.0000000000
11
-1.5328134401
21
0.1876309209
31
0.0000000000
11
-1.5243997190
21
-0.2020137711
31
0.0000000000
11
-1.4158890111
21
-0.5763387951
31
0.0000000000
11
-1.2146066756
21
-0.9100740796
31
0.0000000000
11
-0.9341409350
21
-1.1806896912
31
0.0000000000
11
-0.5934255591
21
-1.3699167944
31
0.0000000000
11
-0.2154616806
21
-1.4649809537
31
0.0000000000
11
0.1742349726
21
-1.4594645171
31
0.0000000000
11
0.5493566011
21
-1.3537398657
31
0.0000000000
11
0.8845793316
21
-1.1549442787
31
0.0000000000
11
1.1572727915
21
-0.8764981105
31
0.0000000000
11
1.3490278518
21
-0.5371988083
31
0.0000000000
0
SPLINE
5
21C
100
AcDbEntity
8
0
100
AcDbSpline
62
0
6
CONTINUOUS
70
0
71
3
72
11
73
7
74
5
42
0.0000001000
43
0.0000001000
44
0.0000000001
12
0.5858587365
22
1.4493825818
32
0.0000000000
13
-0.9534994117
23
1.2333468179
33
0.0000000000
40
0.0000000000
40
0.0000000000
40
0.0000000000
40
0.0000000000
40
0.2499999627
40
0.4999999498
40
0.7499999620
40
1.0000000000
40
1.0000000000
40
1.0000000000
40
1.0000000000
10
1.3490278518
20
-0.5371988083
30
0.0000000000
10
1.3978494059
20
-0.4164169445
30
0.0000000000
10
1.4638458769
20
-0.1620652357
30
0.0000000000
10
1.4611617374
20
0.2321422663
30
0.0000000000
10
1.3571886777
20
0.6121473608
30
0.0000000000
10
1.2245073452
20
0.8395852311
30
0.0000000000
10
1.1450490488
20
0.9423641482
30
0.0000000000
11
1.3490278518
21
-0.5371988083
31
0.0000000000
11
1.4468994010
21
-0.1599519284
31
0.0000000000
11
1.4442802534
21
0.2297751790
31
0.0000000000
11
1.3413471940
21
0.6056726303
31
0.0000000000
11
1.1450490488
21
0.9423641482
31
0.0000000000
0
SPLINE
5
21D
100
AcDbEntity
8
0
100
AcDbSpline
62
0
6
CONTINUOUS
70
0
71
3
72
8
73
4
74
2
42
0.0000001000
43
0.0000001000
44
0.0000000001
12
-0.1273561022
22
-0.1734825557
32
0.0000000000
13
-0.1689603078
23
-0.1345213928
33
0.0000000000
40
0.0000000000
40
0.0000000000
40
0.0000000000
40
0.0000000000
40
1.0000000000
40
1.0000000000
40
1.0000000000
40
1.0000000000
10
0.5161287438
20
-0.5570338184
30
0.0000000000
10
0.4736767097
20
-0.6148613369
30
0.0000000000
10
0.4230997981
20
-0.6671470107
30
0.0000000000
10
0.3667796955
20
-0.7119874750
30
0.0000000000
11
0.5161287438
21
-0.5570338184
31
0.0000000000
11
0.3667796955
21
-0.7119874750
31
0.0000000000
0
SPLINE
5
21E
100
AcDbEntity
8
0
100
AcDbSpline
62
0
6
CONTINUOUS
70
0
71
3
72
9
73
5
74
3
42
0.0000001000
43
0.0000001000
44
0.0000000001
12
-0.3524584084
22
-0.2806173629
32
0.0000000000
13
-0.4436801165
23
-0.0685161959
33
0.0000000000
40
0.0000000000
40
0.0000000000
40
0.0000000000
40
0.0000000000
40
0.4976073878
40
1.0000000000
40
1.0000000000
40
1.0000000000
40
1.0000000000
10
0.3667796955
20
-0.7119874750
30
0.0000000000
10
0.3083177262
20
-0.7585332326
30
0.0000000000
10
0.1783954259
20
-0.8359506805
30
0.0000000000
10
0.0326356543
20
-0.8775715777
30
0.0000000000
10
-0.0416648832
20
-0.8890455879
30
0.0000000000
11
0.3667796955
21
-0.7119874750
31
0.0000000000
11
0.1750955678
21
-0.8267165253
31
0.0000000000
11
-0.0416648832
21
-0.8890455879
31
0.0000000000
0
SPLINE
5
21F
100
AcDbEntity
8
0
100
AcDbSpline
62
0
6
CONTINUOUS
70
0
71
3
72
10
73
6
74
4
42
0.0000001000
43
0.0000001000
44
0.0000000001
12
0.5817278018
22
0.0898344878
32
0.0000000000
13
0.5249641951
23
-0.2662518816
33
0.0000000000
40
0.0000000000
40
0.0000000000
40
0.0000000000
40
0.0000000000
40
0.3225496214
40
0.6569189444
40
1.0000000000
40
1.0000000000
40
1.0000000000
40
1.0000000000
10
-0.0416648832
20
0.9388787446
30
0.0000000000
10
0.0208804775
20
0.9485374379
30
0.0000000000
10
0.1507256505
20
0.9547878302
30
0.0000000000
10
0.3457136336
20
0.9233959768
30
0.0000000000
10
0.4708315502
20
0.8752479451
30
0.0000000000
10
0.5308666403
20
0.8447992862
30
0.0000000000
11
-0.0416648832
21
0.9388787446
31
0.0000000000
11
0.1479665622
21
0.9481968721
31
0.0000000000
11
0.3423153296
21
0.9171207839
31
0.0000000000
11
0.5308666403
21
0.8447992862
31
0.0000000000
0
SPLINE
5
220
100
AcDbEntity
8
0
100
AcDbSpline
62
0
6
CONTINUOUS
70
0
71
3
72
8
73
4
74
2
42
0.0000001000
43
0.0000001000
44
0.0000000001
12
0.1273561022
22
0.1734825557
32
0.0000000000
13
0.1689603078
23
0.1345213928
33
0.0000000000
40
0.0000000000
40
0.0000000000
40
0.0000000000
40
0.0000000000
40
1.0000000000
40
1.0000000000
40
1.0000000000
40
1.0000000000
10
-0.5994585103
20
0.6068669751
30
0.0000000000
10
-0.5570064762
20
0.6646944936
30
0.0000000000
10
-0.5064295646
20
0.7169801674
30
0.0000000000
10
-0.4501094620
20
0.7618206317
30
0.0000000000
11
-0.5994585103
21
0.6068669751
31
0.0000000000
11
-0.4501094620
21
0.7618206317
31
0.0000000000
0
SPLINE
5
221
100
AcDbEntity
8
0
100
AcDbSpline
62
0
6
CONTINUOUS
70
0
71
3
72
9
73
5
74
3
42
0.0000001000
43
0.0000001000
44
0.0000000001
12
0.3524584084
22
0.2806173629
32
0.0000000000
13
0.4436801165
23
0.0685161959
33
0.0000000000
40
0.0000000000
40
0.0000000000
40
0.0000000000
40
0.0000000000
40
0.4976073878
40
1.0000000000
40
1.0000000000
40
1.0000000000
40
1.0000000000
10
-0.4501094620
20
0.7618206317
30
0.0000000000
10
-0.3916474927
20
0.8083663893
30
0.0000000000
10
-0.2617251924
20
0.8857838372
30
0.0000000000
10
-0.1159654208
20
0.9274047344
30
0.0000000000
10
-0.0416648832
20
0.9388787446
30
0.0000000000
11
-0.4501094620
21
0.7618206317
31
0.0000000000
11
-0.2584253342
21
0.8765496820
31
0.0000000000
11
-0.0416648832
21
0.9388787446
31
0.0000000000
0
SPLINE
5
222
100
AcDbEntity
8
0
100
AcDbSpline
62
0
6
CONTINUOUS
70
0
71
3
72
10
73
6
74
4
42
0.0000001000
43
0.0000001000
44
0.0000000001
12
-0.5817278018
22
-0.0898344878
32
0.0000000000
13
-0.5249641951
23
0.2662518816
33
0.0000000000
40
0.0000000000
40
0.0000000000
40
0.0000000000
40
0.0000000000
40
0.3225496214
40
0.6569189444
40
1.0000000000
40
1.0000000000
40
1.0000000000
40
1.0000000000
10
-0.0416648832
20
-0.8890455879
30
0.0000000000
10
-0.1042102440
20
-0.8987042812
30
0.0000000000
10
-0.2340554170
20
-0.9049546735
30
0.0000000000
10
-0.4290434000
20
-0.8735628201
30
0.0000000000
10
-0.5541613167
20
-0.8254147884
30
0.0000000000
10
-0.6141964067
20
-0.7949661295
30
0.0000000000
11
-0.0416648832
21
-0.8890455879
31
0.0000000000
11
-0.2312963286
21
-0.8983637154
31
0.0000000000
11
-0.4256450960
21
-0.8672876272
31
0.0000000000
11
-0.6141964067
21
-0.7949661295
31
0.0000000000
0
ENDSEC
0
SECTION
2
OBJECTS
0
DICTIONARY
5
C
100
AcDbDictionary
280
0
281
1
3
ACAD_GROUP
350
D
3
ACAD_MLINESTYLE
350
17
3
ACAD_LAYOUT
350
1A
3
ACAD_PLOTSETTINGS
350
19
3
ACAD_PLOTSTYLENAME
350
E
0
DICTIONARY
5
D
102
{ACAD_REACTORS
330
C
102
}
100
AcDbDictionary
280
0
281
1
0
ACDBDICTIONARYWDFLT
5
E
102
{ACAD_REACTORS
330
C
102
}
100
AcDbDictionary
281
1
3
Normal
350
F
100
AcDbDictionaryWithDefault
340
F
0
DICTIONARY
5
17
102
{ACAD_REACTORS
330
C
102
}
100
AcDbDictionary
280
0
281
1
3
Standard
350
18
0
DICTIONARY
5
19
102
{ACAD_REACTORS
330
C
102
}
100
AcDbDictionary
281
1
0
DICTIONARY
5
1A
102
{ACAD_REACTORS
330
C
102
}
100
AcDbDictionary
281
1
3
Layout1
350
1E
3
Model
350
22
0
ACDBPLACEHOLDER
5
F
102
{ACAD_REACTORS
330
E
102
}
0
MLINESTYLE
5
18
102
{ACAD_REACTORS
330
17
102
}
100
AcDbMlineStyle
2
STANDARD
70
0
3

62
256
51
90.0
52
90.0
71
2
49
0.5
62
256
6
BYLAYER
49
-0.5
62
256
6
BYLAYER
0
LAYOUT
5
1E
102
{ACAD_REACTORS
330
1A
102
}
100
AcDbPlotSettings
1

2

4

6

40
0.0
41
0.0
42
0.0
43
0.0
44
0.0
45
0.0
46
0.0
47
0.0
48
0.0
49
0.0
140
0.0
141
0.0
142
1.0
143
1.0
70
0
72
0
73
0
74
0
7

75
0
147
1.0
148
0.0
149
0.0
100
AcDbLayout
1
Layout1
70
0
71
0
10
0.0
20
0.0
11
0.0
21
0.0
12
0.0
22
0.0
32
0.0
14
0.0
24
0.0
34
0.0
15
0.0
25
0.0
35
0.0
146
0.0
13
0.0
23
0.0
33
0.0
16
0.0
26
0.0
36
0.0
17
0.0
27
0.0
37
0.0
76
0
330
1B
331
0
345
0
346
0
0
LAYOUT
5
22
102
{ACAD_REACTORS
330
1A
102
}
100
AcDbPlotSettings
1

2

4

6

40
0.0
41
0.0
42
0.0
43
0.0
44
0.0
45
0.0
46
0.0
47
0.0
48
0.0
49
0.0
140
0.0
141
0.0
142
1.0
143
1.0
70
0
72
0
73
0
74
0
7

75
0
147
1.0
148
0.0
149
0.0
100
AcDbLayout
1
Model
70
0
71
0
10
0.0
20
0.0
11
0.0
21
0.0
12
0.0
22
0.0
32
0.0
14
0.0
24
0.0
34
0.0
15
0.0
25
0.0
35
0.0
146
0.0
13
0.0
23
0.0
33
0.0
16
0.0
26
0.0
36
0.0
17
0.0
27
0.0
37
0.0
76
0
330
1F
331
0
345
0
346
0
0
ENDSEC
0
EOF
