0
SECTION
2
HEADER
9
$ACADVER
1
AC1015
9
$DWGCODEPAGE
3
ANSI_1252
9
$EXTMAX
10
431.8000000000
20
558.8000000000
30
0.0000000000
9
$EXTMIN
10
0.0000000000
20
0.0000000000
30
0.0000000000
9
$LIMMIN
10
0.0000000000
20
0.0000000000
9
$LIMMAX
10
431.8000000000
20
558.8000000000
9
$VIEWCTR
10
215.9000000000
20
279.4000000000
9
$VIEWSIZE
40
558.8000000000
9
$CLAYER
8
0
9
$LTSCALE
40
36.4254814815
9
$CELTYPE
6
BYLAYER
9
$DIMSCALE
40
1
9
$DIMASZ
40
3.0000000000
9
$DIMEXO
40
4.1392592593
9
$DIMDLI
40
25.1666962963
9
$DIMEXE
40
11.9210666667
9
$DIMCEN
40
5.9605333333
9
$DIMLFAC
40
1.0000000000
9
$DIMBLK
1
_FILLED
9
$DIMTXT
40
3.0000000000
9
$DIMTOL
70
1
9
$DIMLIM
70
0
9
$DIMTFAC
40
1.0000000000
9
$DIMTP
40
0.0100000000
9
$DIMTM
40
0.0100000000
9
$PDMODE
70
3
9
$PDSIZE
40
3.0000000000
9
$HANDSEED
5
46B
9
$MEASUREMENT
70
1
9
$INSUNITS
70
4
0
ENDSEC
0
SECTION
2
CLASSES
0
CLASS
1
ACDBDICTIONARYWDFLT
2
AcDbDictionaryWithDefault
3
AutoCAD 2000
90
0
280
0
281
0
0
CLASS
1
ACDBPLACEHOLDER
2
AcDbPlaceHolder
3
AutoCAD 2000
90
0
280
0
281
0
0
CLASS
1
LAYOUT
2
AcDbLayout
3
AutoCAD 2000
90
0
280
0
281
0
0
ENDSEC
0
SECTION
2
TABLES
0
TABLE
2
VPORT
5
8
100
AcDbSymbolTable
70
2
0
VPORT
5
1F4
100
AcDbSymbolTableRecord
100
AcDbViewportTableRecord
2
*ACTIVE
70
0
10
0.0
20
0.0
11
1.0
21
1.0
12
215.9000000000
22
279.4000000000
13
0.0
23
0.0
14
1.0
24
1.0
15
0.0
25
0.0
16
0.0
26
0.0
36
1.0
17
0.0
27
0.0
37
0.0
40
558.8000000000
41
0.7727272727
42
50.0
43
0.0
44
0.0
50
0.0
51
0.0
71
0
72
100
73
1
74
1
75
0
76
0
77
0
78
0
0
ENDTAB
0
TABLE
2
LTYPE
5
5
100
AcDbSymbolTable
70
6
0
LTYPE
5
14
100
AcDbSymbolTableRecord
100
AcDbLinetypeTableRecord
2
BYBLOCK
70
0
3

72
65
73
0
40
0.0
0
LTYPE
5
15
100
AcDbSymbolTableRecord
100
AcDbLinetypeTableRecord
2
BYLAYER
70
0
3

72
65
73
0
40
0.0
0
LTYPE
5
16
100
AcDbSymbolTableRecord
100
AcDbLinetypeTableRecord
2
CONTINUOUS
70
64
3
Solid line
72
65
73
0
40
0
0
LTYPE
5
1F5
100
AcDbSymbolTableRecord
100
AcDbLinetypeTableRecord
2
CENTER
70
64
3
____ _ ____ _ ____ _ ____ _ ____ _ ____ _ ____
72
65
73
4
40
0.6
49
0.375
74
0
49
-0.075
74
0
49
0.075
74
0
49
-0.075
74
0
0
LTYPE
5
1F6
100
AcDbSymbolTableRecord
100
AcDbLinetypeTableRecord
2
HIDDEN
70
64
3
- - - - - - - - - - - - - - - - - - - -
72
65
73
2
40
0.2
49
0.1
74
0
49
-0.1
74
0
0
LTYPE
5
1F7
100
AcDbSymbolTableRecord
100
AcDbLinetypeTableRecord
2
PHANTOM
70
64
3
_____ _ _ _____ _ _ _____ _ _ _____
72
65
73
6
40
0.8
49
0.45
74
0
49
-0.05
74
0
49
0.1
74
0
49
-0.05
74
0
49
0.1
74
0
49
-0.05
74
0
0
LTYPE
5
1F8
100
AcDbSymbolTableRecord
100
AcDbLinetypeTableRecord
2
DOT
70
64
3
. . . . . . . . . . . . . . . . . . . .
72
65
73
2
40
0.2
49
0.1
74
0
49
-0.1
74
0
0
LTYPE
5
1F9
100
AcDbSymbolTableRecord
100
AcDbLinetypeTableRecord
2
DASHED
70
64
3
- - - - - - - - - - - - - - - - - - - -
72
65
73
2
40
0.2
49
0.1
74
0
49
-0.1
74
0
0
ENDTAB
0
TABLE
2
LAYER
5
2
100
AcDbSymbolTable
70
36
0
LAYER
5
10
100
AcDbSymbolTableRecord
100
AcDbLayerTableRecord
2
0
70
0
62
7
6
CONTINUOUS
370
-3
390
F
0
LAYER
5
1FA
100
AcDbSymbolTableRecord
100
AcDbLayerTableRecord
2
DEFAULT_1
70
0
62
7
6
CENTER
370
-3
390
F
0
LAYER
5
1FB
100
AcDbSymbolTableRecord
100
AcDbLayerTableRecord
2
DEFAULT_2
70
0
62
9
6
HIDDEN
370
-3
390
F
0
LAYER
5
1FC
100
AcDbSymbolTableRecord
100
AcDbLayerTableRecord
2
DEFAULT_3
70
0
62
7
6
PHANTOM
370
-3
390
F
0
LAYER
5
1FD
100
AcDbSymbolTableRecord
100
AcDbLayerTableRecord
2
_2D_DELETED_OBJS
70
0
62
7
6
CONTINUOUS
370
-3
390
F
0
LAYER
5
1FE
100
AcDbSymbolTableRecord
100
AcDbLayerTableRecord
2
_BLACK_HOLE
70
0
62
7
6
CONTINUOUS
370
-3
390
F
0
LAYER
5
1FF
100
AcDbSymbolTableRecord
100
AcDbLayerTableRecord
2
ASSI
70
0
62
7
6
CONTINUOUS
370
-3
390
F
0
LAYER
5
200
100
AcDbSymbolTableRecord
100
AcDbLayerTableRecord
2
COORDINATE
70
0
62
7
6
CONTINUOUS
370
-3
390
F
0
LAYER
5
201
100
AcDbSymbolTableRecord
100
AcDbLayerTableRecord
2
COPY_PUBLISH
70
0
62
7
6
CONTINUOUS
370
-3
390
F
0
LAYER
5
202
100
AcDbSymbolTableRecord
100
AcDbLayerTableRecord
2
COSMETIC
70
0
62
7
6
CONTINUOUS
370
-3
390
F
0
LAYER
5
203
100
AcDbSymbolTableRecord
100
AcDbLayerTableRecord
2
CURVE
70
0
62
7
6
CONTINUOUS
370
-3
390
F
0
LAYER
5
204
100
AcDbSymbolTableRecord
100
AcDbLayerTableRecord
2
DRAFT
70
0
62
7
6
CONTINUOUS
370
-3
390
F
0
LAYER
5
205
100
AcDbSymbolTableRecord
100
AcDbLayerTableRecord
2
IMPORT_IGES
70
0
62
7
6
CONTINUOUS
370
-3
390
F
0
LAYER
5
206
100
AcDbSymbolTableRecord
100
AcDbLayerTableRecord
2
NOTE
70
0
62
7
6
CONTINUOUS
370
-3
390
F
0
LAYER
5
207
100
AcDbSymbolTableRecord
100
AcDbLayerTableRecord
2
PIANI
70
0
62
7
6
CONTINUOUS
370
-3
390
F
0
LAYER
5
208
100
AcDbSymbolTableRecord
100
AcDbLayerTableRecord
2
PUNTI
70
0
62
7
6
CONTINUOUS
370
-3
390
F
0
LAYER
5
209
100
AcDbSymbolTableRecord
100
AcDbLayerTableRecord
2
RACCORDO
70
0
62
7
6
CONTINUOUS
370
-3
390
F
0
LAYER
5
20A
100
AcDbSymbolTableRecord
100
AcDbLayerTableRecord
2
SNAPLINE
70
0
62
7
6
CONTINUOUS
370
-3
390
F
0
LAYER
5
20B
100
AcDbSymbolTableRecord
100
AcDbLayerTableRecord
2
TRASH
70
0
62
7
6
CONTINUOUS
370
-3
390
F
0
LAYER
5
20C
100
AcDbSymbolTableRecord
100
AcDbLayerTableRecord
2
XSEC_DATUMS
70
0
62
7
6
CONTINUOUS
370
-3
390
F
0
ENDTAB
0
TABLE
2
STYLE
5
3
100
AcDbSymbolTable
70
1
0
STYLE
5
11
100
AcDbSymbolTableRecord
100
AcDbTextStyleTableRecord
2
STANDARD
70
0
40
0.0
41
0.8000000000
50
0.0
71
0
42
0.2
3
txt
4

0
ENDTAB
0
TABLE
2
VIEW
5
6
100
AcDbSymbolTable
70
0
0
ENDTAB
0
TABLE
2
UCS
5
7
100
AcDbSymbolTable
70
0
0
ENDTAB
0
TABLE
2
APPID
5
9
100
AcDbSymbolTable
70
1
0
APPID
5
20D
100
AcDbSymbolTableRecord
100
AcDbRegAppTableRecord
2
ACAD
70
0
0
ENDTAB
0
TABLE
2
BLOCK_RECORD
5
1
100
AcDbSymbolTable
70
0
0
BLOCK_RECORD
5
1F
100
AcDbSymbolTableRecord
100
AcDbBlockTableRecord
2
*MODEL_SPACE
0
BLOCK_RECORD
5
1B
100
AcDbSymbolTableRecord
100
AcDbBlockTableRecord
2
*PAPER_SPACE
0
ENDTAB
0
TABLE
2
DIMSTYLE
5
A
100
AcDbSymbolTable
70
1
100
AcDbDimStyleTable
71
0
0
DIMSTYLE
105
20E
100
AcDbSymbolTableRecord
100
AcDbDimStyleTableRecord
2
STANDARD
70
0
3

4

40
1.0
41
3.0000000000
42
0.0625
43
0.38
44
0.18
45
0.0
46
0.0
47
0.0100000000
48
0.0100000000
140
3.0000000000
141
0.09
142
0.0
143
25.4
144
1.0000000000
145
0.0
146
1.0000000000
147
0.09
71
1
72
0
73
0
74
0
75
0
76
0
77
1
78
8
170
0
171
2
172
0
173
0
174
0
175
0
176
0
177
0
178
0
270
2
271
2
272
2
273
2
274
2
275
0
280
0
281
0
282
0
283
1
284
8
285
0
286
0
287
3
288
0
340
11
0
ENDTAB
0
ENDSEC
0
SECTION
2
BLOCKS
0
BLOCK
5
20
100
AcDbEntity
8
0
100
AcDbBlockBegin
2
*MODEL_SPACE
70
0
10
0.0
20
0.0
30
0.0
3
*MODEL_SPACE
1

0
ENDBLK
5
21
100
AcDbEntity
8
0
100
AcDbBlockEnd
0
BLOCK
5
1C
100
AcDbEntity
8
0
100
AcDbBlockBegin
2
*PAPER_SPACE
70
0
10
0.0
20
0.0
30
0.0
3
*PAPER_SPACE
1

0
ENDBLK
5
1D
100
AcDbEntity
8
0
100
AcDbBlockEnd
0
ENDSEC
0
SECTION
2
ENTITIES
0
LINE
5
20F
100
AcDbEntity
8
0
100
AcDbLine
62
0
6
CONTINUOUS
10
-142.0000000000
20
-132.0137046525
11
-142.0000000000
21
132.0137046525
0
LINE
5
210
100
AcDbEntity
8
0
100
AcDbLine
62
0
6
CONTINUOUS
10
-139.4965691350
20
-132.0068476243
11
-139.4965691350
21
132.0068476243
0
LINE
5
211
100
AcDbEntity
8
0
100
AcDbLine
62
0
6
CONTINUOUS
10
-139.3026603517
20
-131.8129388410
11
-139.3026603517
21
131.8129388410
0
LINE
5
212
100
AcDbEntity
8
0
100
AcDbLine
62
0
6
CONTINUOUS
10
132.0137046525
20
-142.0000000000
11
-132.0137046525
21
-142.0000000000
0
LINE
5
213
100
AcDbEntity
8
0
100
AcDbLine
62
0
6
CONTINUOUS
10
132.0068476243
20
-139.4965691350
11
-132.0068476243
21
-139.4965691350
0
LINE
5
214
100
AcDbEntity
8
0
100
AcDbLine
62
0
6
CONTINUOUS
10
131.8129388410
20
-139.3026603517
11
-131.8129388410
21
-139.3026603517
0
LINE
5
215
100
AcDbEntity
8
0
100
AcDbLine
62
0
6
CONTINUOUS
10
-6.7212500000
20
79.9319148853
11
-6.5671875000
21
80.0553191692
0
LINE
5
216
100
AcDbEntity
8
0
100
AcDbLine
62
0
6
CONTINUOUS
10
-6.4644789708
20
79.6851063825
11
-6.6698960292
21
79.5617021257
0
LINE
5
217
100
AcDbEntity
8
0
100
AcDbLine
62
0
6
CONTINUOUS
10
-13.1918750000
20
68.7148936391
11
-12.9864583456
21
68.8382978797
0
LINE
5
218
100
AcDbEntity
8
0
100
AcDbLine
62
0
6
CONTINUOUS
10
1.1250002384
20
75.4361702204
11
0.8749997616
21
75.3085106611
0
LINE
5
219
100
AcDbEntity
8
0
100
AcDbLine
62
0
6
CONTINUOUS
10
2.1250000000
20
74.2872340083
11
1.7500000000
21
74.1595744491
0
LINE
5
21A
100
AcDbEntity
8
0
100
AcDbLine
62
0
6
CONTINUOUS
10
-6.9266664708
20
79.8702127650
11
-6.7212500000
21
79.9319148853
0
LINE
5
21B
100
AcDbEntity
8
0
100
AcDbLine
62
0
6
CONTINUOUS
10
-7.9537500000
20
66.3702127650
11
-7.7483335292
21
66.4319148853
0
LINE
5
21C
100
AcDbEntity
8
0
100
AcDbLine
62
0
6
CONTINUOUS
10
1.6570550000
20
-76.3750000000
11
3.1175560000
21
-76.3750000000
0
LINE
5
21D
100
AcDbEntity
8
0
100
AcDbLine
62
0
6
CONTINUOUS
10
3.1175560000
20
-75.6250000000
11
1.6570519549
21
-75.6250000000
0
LINE
5
21E
100
AcDbEntity
8
0
100
AcDbLine
62
0
6
CONTINUOUS
10
-0.9987326157
20
-74.2003920370
11
-0.8675540000
21
-74.2027800000
0
LINE
5
21F
100
AcDbEntity
8
0
100
AcDbLine
62
0
6
CONTINUOUS
10
-6.2590625000
20
79.9319148853
11
-6.4644789708
21
79.6851063825
0
LINE
5
220
100
AcDbEntity
8
0
100
AcDbLine
62
0
6
CONTINUOUS
10
-13.3972916636
20
68.4680851579
11
-13.1918750000
21
68.7148936391
0
LINE
5
221
100
AcDbEntity
8
0
100
AcDbLine
62
0
6
CONTINUOUS
10
-11.0350000000
20
68.4680851579
11
-10.8809375000
21
68.6531915188
0
LINE
5
222
100
AcDbEntity
8
0
100
AcDbLine
62
0
6
CONTINUOUS
10
-13.5000000000
20
66.3085106447
11
-12.0620833823
21
67.8510637820
0
LINE
5
223
100
AcDbEntity
8
0
100
AcDbLine
62
0
6
CONTINUOUS
10
-11.8053125000
20
67.6659574211
11
-13.0891666544
21
66.3085106447
0
LINE
5
224
100
AcDbEntity
8
0
100
AcDbLine
62
0
6
CONTINUOUS
10
-1.8125000000
20
75.2446808815
11
-2.0000000000
21
75.0531915426
0
LINE
5
225
100
AcDbEntity
8
0
100
AcDbLine
62
0
6
CONTINUOUS
10
0.8749997616
20
75.3085106611
11
0.6250000000
21
75.0531915426
0
LINE
5
226
100
AcDbEntity
8
0
100
AcDbLine
62
0
6
CONTINUOUS
10
-12.9351041544
20
68.5297872782
11
-13.0891666544
21
68.4063830376
0
LINE
5
227
100
AcDbEntity
8
0
100
AcDbLine
62
0
6
CONTINUOUS
10
-10.5728125000
20
68.5297872782
11
-10.7268750000
21
68.4063830376
0
LINE
5
228
100
AcDbEntity
8
0
100
AcDbLine
62
0
6
CONTINUOUS
10
-10.0592707354
20
66.3702127650
11
-9.9052082354
21
66.4936170056
0
LINE
5
229
100
AcDbEntity
8
0
100
AcDbLine
62
0
6
CONTINUOUS
10
-7.7483335292
20
66.4319148853
11
-7.5942710292
21
66.5553191692
0
LINE
5
22A
100
AcDbEntity
8
0
100
AcDbLine
62
0
6
CONTINUOUS
10
2.6625000000
20
68.5297872782
11
2.5084375000
21
68.4063830376
0
LINE
5
22B
100
AcDbEntity
8
0
100
AcDbLine
62
0
6
CONTINUOUS
10
2.2500002384
20
74.0319148898
11
2.5000000000
21
74.2234042287
0
LINE
5
22C
100
AcDbEntity
8
0
100
AcDbLine
62
0
6
CONTINUOUS
10
-10.8809375000
20
68.6531915188
11
-10.6241667646
21
68.8382978797
0
LINE
5
22D
100
AcDbEntity
8
0
100
AcDbLine
62
0
6
CONTINUOUS
10
-9.7511457354
20
66.2468085028
11
-10.0079167646
21
66.0617021257
0
LINE
5
22E
100
AcDbEntity
8
0
100
AcDbLine
62
0
6
CONTINUOUS
10
2.3543750000
20
68.6531915188
11
2.6111460292
21
68.8382978797
0
LINE
5
22F
100
AcDbEntity
8
0
100
AcDbLine
62
0
6
CONTINUOUS
10
-1.6250000000
20
74.9893617630
11
-1.4375000000
21
75.1170213223
0
LINE
5
230
100
AcDbEntity
8
0
100
AcDbLine
62
0
6
CONTINUOUS
10
1.0000000000
20
74.9893617630
11
1.1875000000
21
75.1170213223
0
LINE
5
231
100
AcDbEntity
8
0
100
AcDbLine
62
0
6
CONTINUOUS
10
-0.6250002384
20
73.0106382817
11
-0.8125002384
21
72.8829787225
0
LINE
5
232
100
AcDbEntity
8
0
100
AcDbLine
62
0
6
CONTINUOUS
10
3.8749997616
20
74.9893617630
11
4.0625004768
21
75.1170213223
0
LINE
5
233
100
AcDbEntity
8
0
100
AcDbLine
62
0
6
CONTINUOUS
10
2.3749997616
20
72.6914893612
11
2.5624997616
21
72.8191489428
0
LINE
5
234
100
AcDbEntity
8
0
100
AcDbLine
62
0
6
CONTINUOUS
10
4.8749995232
20
73.0106382817
11
4.6874995232
21
72.8829787225
0
LINE
5
235
100
AcDbEntity
8
0
100
AcDbLine
62
0
6
CONTINUOUS
10
-1.4999997616
20
75.4361702204
11
-1.8125000000
21
75.2446808815
0
LINE
5
236
100
AcDbEntity
8
0
100
AcDbLine
62
0
6
CONTINUOUS
10
-0.7499997616
20
72.5638297852
11
-0.4375002384
21
72.7553191409
0
LINE
5
237
100
AcDbEntity
8
0
100
AcDbLine
62
0
6
CONTINUOUS
10
4.0000000000
20
75.4361702204
11
3.6874997616
21
75.2446808815
0
LINE
5
238
100
AcDbEntity
8
0
100
AcDbLine
62
0
6
CONTINUOUS
10
4.7500000000
20
72.5638297852
11
5.0624995232
21
72.7553191409
0
LINE
5
239
100
AcDbEntity
8
0
100
AcDbLine
62
0
6
CONTINUOUS
10
-7.4915625000
20
66.1851063825
11
-7.6969789708
21
66.0617021257
0
LINE
5
23A
100
AcDbEntity
8
0
100
AcDbLine
62
0
6
CONTINUOUS
10
2.2500002384
20
72.9468085021
11
2.1250000000
21
72.8829787225
0
LINE
5
23B
100
AcDbEntity
8
0
100
AcDbLine
62
0
6
CONTINUOUS
10
2.1250000000
20
72.5638297852
11
2.3749997616
21
72.6914893612
0
LINE
5
23C
100
AcDbEntity
8
0
100
AcDbLine
62
0
6
CONTINUOUS
10
-1.4971875000
20
67.6659574211
11
-1.3431250000
21
67.7276595414
0
LINE
5
23D
100
AcDbEntity
8
0
100
AcDbLine
62
0
6
CONTINUOUS
10
-13.0891666544
20
68.4063830376
11
-13.1918750000
21
68.2212766767
0
LINE
5
23E
100
AcDbEntity
8
0
100
AcDbLine
62
0
6
CONTINUOUS
10
-6.5671875000
20
80.0553191692
11
-6.4644789708
21
80.2404255301
0
LINE
5
23F
100
AcDbEntity
8
0
100
AcDbLine
62
0
6
CONTINUOUS
10
-11.7026041177
20
67.8510637820
11
-11.8053125000
21
67.6659574211
0
LINE
5
240
100
AcDbEntity
8
0
100
AcDbLine
62
0
6
CONTINUOUS
10
-10.7268750000
20
68.4063830376
11
-10.9322917646
21
68.0361701429
0
LINE
5
241
100
AcDbEntity
8
0
100
AcDbLine
62
0
6
CONTINUOUS
10
-9.9052082354
20
66.4936170056
11
-9.6997917646
21
66.8638297707
0
LINE
5
242
100
AcDbEntity
8
0
100
AcDbLine
62
0
6
CONTINUOUS
10
-7.5942710292
20
66.5553191692
11
-7.4915625000
21
66.7404255301
0
LINE
5
243
100
AcDbEntity
8
0
100
AcDbLine
62
0
6
CONTINUOUS
10
-1.8749997616
20
74.6063829064
11
-1.6250000000
21
74.9893617630
0
LINE
5
244
100
AcDbEntity
8
0
100
AcDbLine
62
0
6
CONTINUOUS
10
-0.3749997616
20
73.3936170042
11
-0.6250002384
21
73.0106382817
0
LINE
5
245
100
AcDbEntity
8
0
100
AcDbLine
62
0
6
CONTINUOUS
10
0.8749997616
20
74.7978724241
11
1.0000000000
21
74.9893617630
0
LINE
5
246
100
AcDbEntity
8
0
100
AcDbLine
62
0
6
CONTINUOUS
10
2.5000000000
20
74.2234042287
11
2.6250002384
21
74.4148935676
0
LINE
5
247
100
AcDbEntity
8
0
100
AcDbLine
62
0
6
CONTINUOUS
10
-0.4701042646
20
67.2340425789
11
0.7623957354
21
68.9000000000
0
LINE
5
248
100
AcDbEntity
8
0
100
AcDbLine
62
0
6
CONTINUOUS
10
0.7623957354
20
68.4063830376
11
-0.1106250000
21
67.2340425789
0
LINE
5
249
100
AcDbEntity
8
0
100
AcDbLine
62
0
6
CONTINUOUS
10
-9.5970832354
20
66.4319148853
11
-9.7511457354
21
66.2468085028
0
LINE
5
24A
100
AcDbEntity
8
0
100
AcDbLine
62
0
6
CONTINUOUS
10
-7.2861460292
20
66.4319148853
11
-7.4915625000
21
66.1851063825
0
LINE
5
24B
100
AcDbEntity
8
0
100
AcDbLine
62
0
6
CONTINUOUS
10
-1.3431250000
20
67.7276595414
11
-1.2404166177
21
67.8510637820
0
LINE
5
24C
100
AcDbEntity
8
0
100
AcDbLine
62
0
6
CONTINUOUS
10
2.2003125000
20
68.4680851579
11
2.3543750000
21
68.6531915188
0
LINE
5
24D
100
AcDbEntity
8
0
100
AcDbLine
62
0
6
CONTINUOUS
10
3.6382289708
20
66.4319148853
11
3.4841664708
21
66.2468085028
0
LINE
5
24E
100
AcDbEntity
8
0
100
AcDbLine
62
0
6
CONTINUOUS
10
-0.4375002384
20
72.7553191409
11
-0.2500002384
21
72.9468085021
0
LINE
5
24F
100
AcDbEntity
8
0
100
AcDbLine
62
0
6
CONTINUOUS
10
2.2500002384
20
74.4148935676
11
2.1250000000
21
74.2872340083
0
LINE
5
250
100
AcDbEntity
8
0
100
AcDbLine
62
0
6
CONTINUOUS
10
3.6874997616
20
75.2446808815
11
3.4999997616
21
75.0531915426
0
LINE
5
251
100
AcDbEntity
8
0
100
AcDbLine
62
0
6
CONTINUOUS
10
2.3749997616
20
73.0744681060
11
2.2500002384
21
72.9468085021
0
LINE
5
252
100
AcDbEntity
8
0
100
AcDbLine
62
0
6
CONTINUOUS
10
5.0624995232
20
72.7553191409
11
5.2499995232
21
72.9468085021
0
LINE
5
253
100
AcDbEntity
8
0
100
AcDbLine
62
0
6
CONTINUOUS
10
-1.0863541177
20
67.5425531805
11
-1.2917708823
21
67.3574468195
0
LINE
5
254
100
AcDbEntity
8
0
100
AcDbLine
62
0
6
CONTINUOUS
10
10.2931860000
20
68.0328470000
11
11.8185498102
21
69.3182818400
0
LINE
5
255
100
AcDbEntity
8
0
100
AcDbLine
62
0
6
CONTINUOUS
10
11.7477756901
20
68.5909977388
11
10.2931860000
21
67.3652060000
0
LINE
5
256
100
AcDbEntity
8
0
100
AcDbLine
62
0
6
CONTINUOUS
10
3.1760414708
20
66.3702127650
11
3.3301039708
21
66.4936170056
0
LINE
5
257
100
AcDbEntity
8
0
100
AcDbLine
62
0
6
CONTINUOUS
10
3.4841664708
20
66.2468085028
11
3.2273960292
21
66.0617021257
0
LINE
5
258
100
AcDbEntity
8
0
100
AcDbLine
62
0
6
CONTINUOUS
10
-13.4486458318
20
68.2212766767
11
-13.3972916636
21
68.4680851579
0
LINE
5
259
100
AcDbEntity
8
0
100
AcDbLine
62
0
6
CONTINUOUS
10
-11.6512500000
20
68.0978722632
11
-11.7026041177
21
67.8510637820
0
LINE
5
25A
100
AcDbEntity
8
0
100
AcDbLine
62
0
6
CONTINUOUS
10
-9.5970832354
20
82.1531915188
11
-10.0592707354
21
80.4872340113
0
LINE
5
25B
100
AcDbEntity
8
0
100
AcDbLine
62
0
6
CONTINUOUS
10
-10.1106250000
20
80.2404255301
11
-10.3160417646
21
79.5000000000
0
LINE
5
25C
100
AcDbEntity
8
0
100
AcDbLine
62
0
6
CONTINUOUS
10
-11.1890625000
20
68.0361701429
11
-11.1377083823
21
68.2212766767
0
LINE
5
25D
100
AcDbEntity
8
0
100
AcDbLine
62
0
6
CONTINUOUS
10
-9.4430207354
20
66.8638297707
11
-9.4943750000
21
66.6787234098
0
LINE
5
25E
100
AcDbEntity
8
0
100
AcDbLine
62
0
6
CONTINUOUS
10
-10.6241667646
20
79.5000000000
11
-9.8025000000
21
82.4000000000
0
LINE
5
25F
100
AcDbEntity
8
0
100
AcDbLine
62
0
6
CONTINUOUS
10
-10.1574140000
20
88.8285920000
11
-8.8217830000
21
93.5086520000
0
LINE
5
260
100
AcDbEntity
8
0
100
AcDbLine
62
0
6
CONTINUOUS
10
-12.2675000000
20
79.8085106447
11
-11.4971875000
21
82.4000000000
0
LINE
5
261
100
AcDbEntity
8
0
100
AcDbLine
62
0
6
CONTINUOUS
10
-11.3431250000
20
81.7829787970
11
-12.0620833823
21
79.5000000000
0
LINE
5
262
100
AcDbEntity
8
0
100
AcDbLine
62
0
6
CONTINUOUS
10
-7.4035040000
20
93.5086520000
11
-9.5890210000
21
86.7095090000
0
LINE
5
263
100
AcDbEntity
8
0
100
AcDbLine
62
0
6
CONTINUOUS
10
-2.1249998808
20
74.7978724241
11
-2.1875000000
21
74.6063829064
0
LINE
5
264
100
AcDbEntity
8
0
100
AcDbLine
62
0
6
CONTINUOUS
10
-6.5000000000
20
72.5000000000
11
-5.5000000596
21
75.5000000000
0
LINE
5
265
100
AcDbEntity
8
0
100
AcDbLine
62
0
6
CONTINUOUS
10
-5.8750000596
20
75.5000000000
11
-6.7500000298
21
72.8829787225
0
LINE
5
266
100
AcDbEntity
8
0
100
AcDbLine
62
0
6
CONTINUOUS
10
-1.2572890000
20
89.7337470000
11
0.1619590000
21
93.5086520000
0
LINE
5
267
100
AcDbEntity
8
0
100
AcDbLine
62
0
6
CONTINUOUS
10
0.5219710000
20
91.1307140000
11
-1.1655140000
21
86.7095090000
0
LINE
5
268
100
AcDbEntity
8
0
100
AcDbLine
62
0
6
CONTINUOUS
10
-12.0620833823
20
67.8510637820
11
-11.9593750000
21
68.0978722632
0
LINE
5
269
100
AcDbEntity
8
0
100
AcDbLine
62
0
6
CONTINUOUS
10
-11.1377083823
20
68.2212766767
11
-11.0350000000
21
68.4680851579
0
LINE
5
26A
100
AcDbEntity
8
0
100
AcDbLine
62
0
6
CONTINUOUS
10
-6.1563539708
20
80.1787234098
11
-6.2590625000
21
79.9319148853
0
LINE
5
26B
100
AcDbEntity
8
0
100
AcDbLine
62
0
6
CONTINUOUS
10
-9.4943750000
20
66.6787234098
11
-9.5970832354
21
66.4319148853
0
LINE
5
26C
100
AcDbEntity
8
0
100
AcDbLine
62
0
6
CONTINUOUS
10
-7.1834375000
20
66.6787234098
11
-7.2861460292
21
66.4319148853
0
LINE
5
26D
100
AcDbEntity
8
0
100
AcDbLine
62
0
6
CONTINUOUS
10
-3.1250000000
20
75.1808511019
11
-4.3749998808
21
72.5000000000
0
LINE
5
26E
100
AcDbEntity
8
0
100
AcDbLine
62
0
6
CONTINUOUS
10
-3.9999998808
20
72.5000000000
11
-2.7500000000
21
75.1808511019
0
LINE
5
26F
100
AcDbEntity
8
0
100
AcDbLine
62
0
6
CONTINUOUS
10
-2.0000000000
20
75.0531915426
11
-2.1249998808
21
74.7978724241
0
LINE
5
270
100
AcDbEntity
8
0
100
AcDbLine
62
0
6
CONTINUOUS
10
-0.2500002384
20
72.9468085021
11
-0.1250000000
21
73.2021276653
0
LINE
5
271
100
AcDbEntity
8
0
100
AcDbLine
62
0
6
CONTINUOUS
10
2.3749997616
20
74.6702126861
11
2.2500002384
21
74.4148935676
0
LINE
5
272
100
AcDbEntity
8
0
100
AcDbLine
62
0
6
CONTINUOUS
10
2.4375002384
20
73.2021276653
11
2.3749997616
21
73.0744681060
0
LINE
5
273
100
AcDbEntity
8
0
100
AcDbLine
62
0
6
CONTINUOUS
10
3.4999997616
20
75.0531915426
11
3.3750002384
21
74.7978724241
0
LINE
5
274
100
AcDbEntity
8
0
100
AcDbLine
62
0
6
CONTINUOUS
10
5.2499995232
20
72.9468085021
11
5.3750004768
21
73.2021276653
0
LINE
5
275
100
AcDbEntity
8
0
100
AcDbLine
62
0
6
CONTINUOUS
10
2.5084375000
20
68.4063830376
11
2.3030210292
21
68.0361701429
0
LINE
5
276
100
AcDbEntity
8
0
100
AcDbLine
62
0
6
CONTINUOUS
10
3.3301039708
20
66.4936170056
11
3.5355210292
21
66.8638297707
0
LINE
5
277
100
AcDbEntity
8
0
100
AcDbLine
62
0
6
CONTINUOUS
10
13.4609375000
20
81.2276595414
11
14.1285408831
21
82.4000000000
0
LINE
5
278
100
AcDbEntity
8
0
100
AcDbLine
62
0
6
CONTINUOUS
10
14.4366658831
20
82.4000000000
11
13.6150000000
21
80.9808510602
0
LINE
5
279
100
AcDbEntity
8
0
100
AcDbLine
62
0
6
CONTINUOUS
10
-0.9322917646
20
67.7893616617
11
-1.0863541177
21
67.5425531805
0
LINE
5
27A
100
AcDbEntity
8
0
100
AcDbLine
62
0
6
CONTINUOUS
10
3.6250000000
20
74.6063829064
11
3.8749997616
21
74.9893617630
0
LINE
5
27B
100
AcDbEntity
8
0
100
AcDbLine
62
0
6
CONTINUOUS
10
2.5624997616
20
72.8191489428
11
2.6875000000
21
73.0106382817
0
LINE
5
27C
100
AcDbEntity
8
0
100
AcDbLine
62
0
6
CONTINUOUS
10
5.1250000000
20
73.3936170042
11
4.8749995232
21
73.0106382817
0
LINE
5
27D
100
AcDbEntity
8
0
100
AcDbLine
62
0
6
CONTINUOUS
10
12.2524890000
20
63.6890770000
11
11.9687970000
21
63.2869010000
0
LINE
5
27E
100
AcDbEntity
8
0
100
AcDbLine
62
0
6
CONTINUOUS
10
-13.5000000000
20
66.0000000000
11
-13.5000000000
21
66.3085106447
0
LINE
5
27F
100
AcDbEntity
8
0
100
AcDbLine
62
0
6
CONTINUOUS
10
-13.5000000000
20
79.5000000000
11
-13.5000000000
21
82.4000000000
0
LINE
5
280
100
AcDbEntity
8
0
100
AcDbLine
62
0
6
CONTINUOUS
10
-13.1918750000
20
81.7829787970
11
-13.1918750000
21
79.5000000000
0
LINE
5
281
100
AcDbEntity
8
0
100
AcDbLine
62
0
6
CONTINUOUS
10
-11.9593750000
20
68.0978722632
11
-11.9593750000
21
68.2212766767
0
LINE
5
282
100
AcDbEntity
8
0
100
AcDbLine
62
0
6
CONTINUOUS
10
-11.6512500000
20
68.2212766767
11
-11.6512500000
21
68.0978722632
0
LINE
5
283
100
AcDbEntity
8
0
100
AcDbLine
62
0
6
CONTINUOUS
10
-11.6512500000
20
66.3085106447
11
-11.6512500000
21
66.0000000000
0
LINE
5
284
100
AcDbEntity
8
0
100
AcDbLine
62
0
6
CONTINUOUS
10
-4.6935450000
20
86.7095090000
11
-4.0796220000
21
93.5086520000
0
LINE
5
285
100
AcDbEntity
8
0
100
AcDbLine
62
0
6
CONTINUOUS
10
-10.9322917646
20
68.0361701429
11
-10.9836457354
21
67.6659574211
0
LINE
5
286
100
AcDbEntity
8
0
100
AcDbLine
62
0
6
CONTINUOUS
10
-9.6997917646
20
66.8638297707
11
-9.6484375000
21
67.2340425789
0
LINE
5
287
100
AcDbEntity
8
0
100
AcDbLine
62
0
6
CONTINUOUS
10
-1.9375002384
20
74.2234042287
11
-1.8749997616
21
74.6063829064
0
LINE
5
288
100
AcDbEntity
8
0
100
AcDbLine
62
0
6
CONTINUOUS
10
-0.3125000000
20
73.7765957713
11
-0.3749997616
21
73.3936170042
0
LINE
5
289
100
AcDbEntity
8
0
100
AcDbLine
62
0
6
CONTINUOUS
10
-11.2404166177
20
67.7276595414
11
-11.1890625000
21
68.0361701429
0
LINE
5
28A
100
AcDbEntity
8
0
100
AcDbLine
62
0
6
CONTINUOUS
10
-9.3916667646
20
67.1723404586
11
-9.4430207354
21
66.8638297707
0
LINE
5
28B
100
AcDbEntity
8
0
100
AcDbLine
62
0
6
CONTINUOUS
10
-6.1050000000
20
80.4872340113
11
-6.1563539708
21
80.1787234098
0
LINE
5
28C
100
AcDbEntity
8
0
100
AcDbLine
62
0
6
CONTINUOUS
10
-7.1320835292
20
66.9872340113
11
-7.1834375000
21
66.6787234098
0
LINE
5
28D
100
AcDbEntity
8
0
100
AcDbLine
62
0
6
CONTINUOUS
10
-2.1875000000
20
74.6063829064
11
-2.2500001192
21
74.2872340083
0
LINE
5
28E
100
AcDbEntity
8
0
100
AcDbLine
62
0
6
CONTINUOUS
10
-0.0625002384
20
73.3936170042
11
0.0000002384
21
73.7127659917
0
LINE
5
28F
100
AcDbEntity
8
0
100
AcDbLine
62
0
6
CONTINUOUS
10
-6.4644789708
20
80.2404255301
11
-6.4131250000
21
80.4872340113
0
LINE
5
290
100
AcDbEntity
8
0
100
AcDbLine
62
0
6
CONTINUOUS
10
-7.4915625000
20
66.7404255301
11
-7.4402085292
21
66.9872340113
0
LINE
5
291
100
AcDbEntity
8
0
100
AcDbLine
62
0
6
CONTINUOUS
10
0.6250000000
20
75.0531915426
11
0.5625002384
21
74.7978724241
0
LINE
5
292
100
AcDbEntity
8
0
100
AcDbLine
62
0
6
CONTINUOUS
10
2.6250002384
20
74.4148935676
11
2.6875000000
21
74.6702126861
0
LINE
5
293
100
AcDbEntity
8
0
100
AcDbLine
62
0
6
CONTINUOUS
10
-1.2404166177
20
67.8510637820
11
-1.1890625000
21
68.0361701429
0
LINE
5
294
100
AcDbEntity
8
0
100
AcDbLine
62
0
6
CONTINUOUS
10
-0.8809375000
20
67.9744680226
11
-0.9322917646
21
67.7893616617
0
LINE
5
295
100
AcDbEntity
8
0
100
AcDbLine
62
0
6
CONTINUOUS
10
2.0462500000
20
68.0361701429
11
2.0976039708
21
68.2212766767
0
LINE
5
296
100
AcDbEntity
8
0
100
AcDbLine
62
0
6
CONTINUOUS
10
3.7922914708
20
66.8638297707
11
3.7409375000
21
66.6787234098
0
LINE
5
297
100
AcDbEntity
8
0
100
AcDbLine
62
0
6
CONTINUOUS
10
8.7877091169
20
82.1531915188
11
8.3255216169
21
80.4872340113
0
LINE
5
298
100
AcDbEntity
8
0
100
AcDbLine
62
0
6
CONTINUOUS
10
8.2741658831
20
80.2404255301
11
8.0687500000
21
79.5000000000
0
LINE
5
299
100
AcDbEntity
8
0
100
AcDbLine
62
0
6
CONTINUOUS
10
5.2172770000
20
91.6404210000
11
4.5106100000
21
89.1171730000
0
LINE
5
29A
100
AcDbEntity
8
0
100
AcDbLine
62
0
6
CONTINUOUS
10
7.7606250000
20
79.5000000000
11
8.5822908831
21
82.4000000000
0
LINE
5
29B
100
AcDbEntity
8
0
100
AcDbLine
62
0
6
CONTINUOUS
10
4.2202960000
20
88.0668600000
11
3.8286720000
21
86.7095090000
0
LINE
5
29C
100
AcDbEntity
8
0
100
AcDbLine
62
0
6
CONTINUOUS
10
2.4248220000
20
86.7095090000
11
4.5574660000
21
93.5086520000
0
LINE
5
29D
100
AcDbEntity
8
0
100
AcDbLine
62
0
6
CONTINUOUS
10
-0.1250000000
20
73.2021276653
11
-0.0625002384
21
73.3936170042
0
LINE
5
29E
100
AcDbEntity
8
0
100
AcDbLine
62
0
6
CONTINUOUS
10
2.6875000000
20
73.0106382817
11
2.7499997616
21
73.2021276653
0
LINE
5
29F
100
AcDbEntity
8
0
100
AcDbLine
62
0
6
CONTINUOUS
10
3.3750002384
20
74.7978724241
11
3.3124997616
21
74.6063829064
0
LINE
5
2A0
100
AcDbEntity
8
0
100
AcDbLine
62
0
6
CONTINUOUS
10
5.3750004768
20
73.2021276653
11
5.4374995232
21
73.3936170042
0
LINE
5
2A1
100
AcDbEntity
8
0
100
AcDbLine
62
0
6
CONTINUOUS
10
2.0976039708
20
68.2212766767
11
2.2003125000
21
68.4680851579
0
LINE
5
2A2
100
AcDbEntity
8
0
100
AcDbLine
62
0
6
CONTINUOUS
10
3.7409375000
20
66.6787234098
11
3.6382289708
21
66.4319148853
0
LINE
5
2A3
100
AcDbEntity
8
0
100
AcDbLine
62
0
6
CONTINUOUS
10
7.8749995232
20
75.1808511019
11
6.6250000000
21
72.5000000000
0
LINE
5
2A4
100
AcDbEntity
8
0
100
AcDbLine
62
0
6
CONTINUOUS
10
7.0000000000
20
72.5000000000
11
8.2499995232
21
75.1808511019
0
LINE
5
2A5
100
AcDbEntity
8
0
100
AcDbLine
62
0
6
CONTINUOUS
10
8.9915758065
20
65.7033146552
11
8.7413280513
21
65.2574530914
0
LINE
5
2A6
100
AcDbEntity
8
0
100
AcDbLine
62
0
6
CONTINUOUS
10
-11.3431250000
20
79.5000000000
11
-11.3431250000
21
81.7829787970
0
LINE
5
2A7
100
AcDbEntity
8
0
100
AcDbLine
62
0
6
CONTINUOUS
10
-11.2404166177
20
67.1723404586
11
-11.2404166177
21
67.7276595414
0
LINE
5
2A8
100
AcDbEntity
8
0
100
AcDbLine
62
0
6
CONTINUOUS
10
-11.0350000000
20
82.4000000000
11
-11.0350000000
21
79.5000000000
0
LINE
5
2A9
100
AcDbEntity
8
0
100
AcDbLine
62
0
6
CONTINUOUS
10
-10.9836457354
20
67.6659574211
11
-10.9836457354
21
67.2340425789
0
LINE
5
2AA
100
AcDbEntity
8
0
100
AcDbLine
62
0
6
CONTINUOUS
10
-9.6484375000
20
67.2340425789
11
-9.6484375000
21
67.6659574211
0
LINE
5
2AB
100
AcDbEntity
8
0
100
AcDbLine
62
0
6
CONTINUOUS
10
-9.3916667646
20
67.7276595414
11
-9.3916667646
21
67.1723404586
0
LINE
5
2AC
100
AcDbEntity
8
0
100
AcDbLine
62
0
6
CONTINUOUS
10
-8.1591664708
20
79.5000000000
11
-8.1591664708
21
82.4000000000
0
LINE
5
2AD
100
AcDbEntity
8
0
100
AcDbLine
62
0
6
CONTINUOUS
10
-7.8510414708
20
82.0297872782
11
-7.8510414708
21
79.8702127650
0
LINE
5
2AE
100
AcDbEntity
8
0
100
AcDbLine
62
0
6
CONTINUOUS
10
-7.4402085292
20
66.9872340113
11
-7.4402085292
21
68.9000000000
0
LINE
5
2AF
100
AcDbEntity
8
0
100
AcDbLine
62
0
6
CONTINUOUS
10
-7.1320835292
20
68.9000000000
11
-7.1320835292
21
66.9872340113
0
LINE
5
2B0
100
AcDbEntity
8
0
100
AcDbLine
62
0
6
CONTINUOUS
10
-6.8768190000
20
86.7095090000
11
-6.8768190000
21
93.5090600000
0
LINE
5
2B1
100
AcDbEntity
8
0
100
AcDbLine
62
0
6
CONTINUOUS
10
-6.4131250000
20
80.4872340113
11
-6.4131250000
21
81.4127659023
0
LINE
5
2B2
100
AcDbEntity
8
0
100
AcDbLine
62
0
6
CONTINUOUS
10
-6.1050000000
20
81.4127659023
11
-6.1050000000
21
80.4872340113
0
LINE
5
2B3
100
AcDbEntity
8
0
100
AcDbLine
62
0
6
CONTINUOUS
10
-5.6941664708
20
79.5000000000
11
-5.6941664708
21
82.4000000000
0
LINE
5
2B4
100
AcDbEntity
8
0
100
AcDbLine
62
0
6
CONTINUOUS
10
-5.4575710000
20
93.5090600000
11
-5.4575710000
21
86.7095090000
0
LINE
5
2B5
100
AcDbEntity
8
0
100
AcDbLine
62
0
6
CONTINUOUS
10
-5.3860414708
20
82.0297872782
11
-5.3860414708
21
81.2276595414
0
LINE
5
2B6
100
AcDbEntity
8
0
100
AcDbLine
62
0
6
CONTINUOUS
10
-5.3860414708
20
80.8574468195
11
-5.3860414708
21
79.8702127650
0
LINE
5
2B7
100
AcDbEntity
8
0
100
AcDbLine
62
0
6
CONTINUOUS
10
-5.0000000000
20
75.5000000000
11
-5.0000000000
21
75.1808511019
0
LINE
5
2B8
100
AcDbEntity
8
0
100
AcDbLine
62
0
6
CONTINUOUS
10
-4.0508335292
20
81.2276595414
11
-4.0508335292
21
80.8574468195
0
LINE
5
2B9
100
AcDbEntity
8
0
100
AcDbLine
62
0
6
CONTINUOUS
10
-3.8454164708
20
82.4000000000
11
-3.8454164708
21
82.0297872782
0
LINE
5
2BA
100
AcDbEntity
8
0
100
AcDbLine
62
0
6
CONTINUOUS
10
-3.8454164708
20
79.8702127650
11
-3.8454164708
21
79.5000000000
0
LINE
5
2BB
100
AcDbEntity
8
0
100
AcDbLine
62
0
6
CONTINUOUS
10
-3.5000000000
20
66.0000000000
11
-3.5000000000
21
68.9000000000
0
LINE
5
2BC
100
AcDbEntity
8
0
100
AcDbLine
62
0
6
CONTINUOUS
10
-3.1918750000
20
68.9000000000
11
-3.1918750000
21
66.0000000000
0
LINE
5
2BD
100
AcDbEntity
8
0
100
AcDbLine
62
0
6
CONTINUOUS
10
-2.7810416912
20
66.0000000000
11
-2.7810416912
21
68.9000000000
0
LINE
5
2BE
100
AcDbEntity
8
0
100
AcDbLine
62
0
6
CONTINUOUS
10
-2.7500000000
20
75.1808511019
11
-2.7500000000
21
75.5000000000
0
LINE
5
2BF
100
AcDbEntity
8
0
100
AcDbLine
62
0
6
CONTINUOUS
10
-2.4729166912
20
68.5914893985
11
-2.4729166912
21
67.6659574211
0
LINE
5
2C0
100
AcDbEntity
8
0
100
AcDbLine
62
0
6
CONTINUOUS
10
-2.4729166912
20
67.2957446992
11
-2.4729166912
21
66.0000000000
0
LINE
5
2C1
100
AcDbEntity
8
0
100
AcDbLine
62
0
6
CONTINUOUS
10
-2.2500001192
20
74.2872340083
11
-2.2500001192
21
73.7127659917
0
LINE
5
2C2
100
AcDbEntity
8
0
100
AcDbLine
62
0
6
CONTINUOUS
10
-1.9375002384
20
73.7765957713
11
-1.9375002384
21
74.2234042287
0
LINE
5
2C3
100
AcDbEntity
8
0
100
AcDbLine
62
0
6
CONTINUOUS
10
-1.1890625000
20
68.0361701429
11
-1.1890625000
21
68.2212766767
0
LINE
5
2C4
100
AcDbEntity
8
0
100
AcDbLine
62
0
6
CONTINUOUS
10
-0.9695829415
20
79.5000000000
11
-0.9695829415
21
82.4000000000
0
LINE
5
2C5
100
AcDbEntity
8
0
100
AcDbLine
62
0
6
CONTINUOUS
10
-0.8809375000
20
68.2212766767
11
-0.8809375000
21
67.9744680226
0
LINE
5
2C6
100
AcDbEntity
8
0
100
AcDbLine
62
0
6
CONTINUOUS
10
-0.8675540000
20
-78.5480370111
11
-0.8675540000
21
-77.7972200120
0
LINE
5
2C7
100
AcDbEntity
8
0
100
AcDbLine
62
0
6
CONTINUOUS
10
-0.8675540000
20
-74.2027800000
11
-0.8675540000
21
-73.4519630000
0
LINE
5
2C8
100
AcDbEntity
8
0
100
AcDbLine
62
0
6
CONTINUOUS
10
-0.6614579415
20
82.4000000000
11
-0.6614579415
21
79.5000000000
0
LINE
5
2C9
100
AcDbEntity
8
0
100
AcDbLine
62
0
6
CONTINUOUS
10
-0.4701042646
20
66.8638297707
11
-0.4701042646
21
67.2340425789
0
LINE
5
2CA
100
AcDbEntity
8
0
100
AcDbLine
62
0
6
CONTINUOUS
10
-0.3125000000
20
74.2234042287
11
-0.3125000000
21
73.7765957713
0
LINE
5
2CB
100
AcDbEntity
8
0
100
AcDbLine
62
0
6
CONTINUOUS
10
-0.2506250000
20
79.5000000000
11
-0.2506250000
21
82.4000000000
0
LINE
5
2CC
100
AcDbEntity
8
0
100
AcDbLine
62
0
6
CONTINUOUS
10
0.0000002384
20
73.7127659917
11
0.0000002384
21
74.2872340083
0
LINE
5
2CD
100
AcDbEntity
8
0
100
AcDbLine
62
0
6
CONTINUOUS
10
0.0575000000
20
82.0297872782
11
0.0575000000
21
79.5000000000
0
LINE
5
2CE
100
AcDbEntity
8
0
100
AcDbLine
62
0
6
CONTINUOUS
10
0.7623957354
20
66.0000000000
11
0.7623957354
21
66.8638297707
0
LINE
5
2CF
100
AcDbEntity
8
0
100
AcDbLine
62
0
6
CONTINUOUS
10
0.7623957354
20
67.2340425789
11
0.7623957354
21
68.4063830376
0
LINE
5
2D0
100
AcDbEntity
8
0
100
AcDbLine
62
0
6
CONTINUOUS
10
1.0705207354
20
68.9000000000
11
1.0705207354
21
67.2340425789
0
LINE
5
2D1
100
AcDbEntity
8
0
100
AcDbLine
62
0
6
CONTINUOUS
10
1.0705207354
20
66.8638297707
11
1.0705207354
21
66.0000000000
0
LINE
5
2D2
100
AcDbEntity
8
0
100
AcDbLine
62
0
6
CONTINUOUS
10
1.4954170585
20
79.9319148853
11
1.4954170585
21
82.4000000000
0
LINE
5
2D3
100
AcDbEntity
8
0
100
AcDbLine
62
0
6
CONTINUOUS
10
1.5000002384
20
74.1595744491
11
1.5000002384
21
73.9042553306
0
LINE
5
2D4
100
AcDbEntity
8
0
100
AcDbLine
62
0
6
CONTINUOUS
10
1.5840625000
20
67.2340425789
11
1.5840625000
21
66.8638297707
0
LINE
5
2D5
100
AcDbEntity
8
0
100
AcDbLine
62
0
6
CONTINUOUS
10
-3.0295130000
20
91.1492220000
11
-3.3357860000
21
86.7095090000
0
LINE
5
2D6
100
AcDbEntity
8
0
100
AcDbLine
62
0
6
CONTINUOUS
10
2.3030210292
20
68.0361701429
11
2.2516664708
21
67.6659574211
0
LINE
5
2D7
100
AcDbEntity
8
0
100
AcDbLine
62
0
6
CONTINUOUS
10
3.5355210292
20
66.8638297707
11
3.5868750000
21
67.2340425789
0
LINE
5
2D8
100
AcDbEntity
8
0
100
AcDbLine
62
0
6
CONTINUOUS
10
3.5625002384
20
74.2234042287
11
3.6250000000
21
74.6063829064
0
LINE
5
2D9
100
AcDbEntity
8
0
100
AcDbLine
62
0
6
CONTINUOUS
10
5.1875004768
20
73.7765957713
11
5.1250000000
21
73.3936170042
0
LINE
5
2DA
100
AcDbEntity
8
0
100
AcDbLine
62
0
6
CONTINUOUS
10
1.9948960292
20
67.7276595414
11
2.0462500000
21
68.0361701429
0
LINE
5
2DB
100
AcDbEntity
8
0
100
AcDbLine
62
0
6
CONTINUOUS
10
3.8436460292
20
67.1723404586
11
3.7922914708
21
66.8638297707
0
LINE
5
2DC
100
AcDbEntity
8
0
100
AcDbLine
62
0
6
CONTINUOUS
10
3.3124997616
20
74.6063829064
11
3.2500000000
21
74.2872340083
0
LINE
5
2DD
100
AcDbEntity
8
0
100
AcDbLine
62
0
6
CONTINUOUS
10
5.4374995232
20
73.3936170042
11
5.5000000000
21
73.7127659917
0
LINE
5
2DE
100
AcDbEntity
8
0
100
AcDbLine
62
9
6
CONTINUOUS
10
-139.3026603517
20
-131.8129388410
11
-139.4965691350
21
-132.0068476243
0
LINE
5
2DF
100
AcDbEntity
8
0
100
AcDbLine
62
9
6
CONTINUOUS
10
131.8129388410
20
139.3026603517
11
132.0068476243
21
139.4965691350
0
LINE
5
2E0
100
AcDbEntity
8
0
100
AcDbLine
62
9
6
CONTINUOUS
10
-139.3026603517
20
131.8129388410
11
-139.4965691350
21
132.0068476243
0
LINE
5
2E1
100
AcDbEntity
8
0
100
AcDbLine
62
9
6
CONTINUOUS
10
131.8129388410
20
-139.3026603517
11
132.0068476243
21
-139.4965691350
0
LINE
5
2E2
100
AcDbEntity
8
0
100
AcDbLine
62
0
6
CONTINUOUS
10
-11.1890625000
20
66.8638297707
11
-11.2404166177
21
67.1723404586
0
LINE
5
2E3
100
AcDbEntity
8
0
100
AcDbLine
62
0
6
CONTINUOUS
10
-10.9836457354
20
67.2340425789
11
-10.9322917646
21
66.8638297707
0
LINE
5
2E4
100
AcDbEntity
8
0
100
AcDbLine
62
0
6
CONTINUOUS
10
-9.6484375000
20
67.6659574211
11
-9.6997917646
21
68.0361701429
0
LINE
5
2E5
100
AcDbEntity
8
0
100
AcDbLine
62
0
6
CONTINUOUS
10
1.5661660000
20
93.5086520000
11
2.2019620000
21
86.7095090000
0
LINE
5
2E6
100
AcDbEntity
8
0
100
AcDbLine
62
0
6
CONTINUOUS
10
0.8135610000
20
86.7095090000
11
0.5219710000
21
91.1307140000
0
LINE
5
2E7
100
AcDbEntity
8
0
100
AcDbLine
62
0
6
CONTINUOUS
10
1.8035420585
20
82.4000000000
11
1.8035420585
21
79.5000000000
0
LINE
5
2E8
100
AcDbEntity
8
0
100
AcDbLine
62
0
6
CONTINUOUS
10
1.9948960292
20
67.1723404586
11
1.9948960292
21
67.7276595414
0
LINE
5
2E9
100
AcDbEntity
8
0
100
AcDbLine
62
0
6
CONTINUOUS
10
2.2516664708
20
67.6659574211
11
2.2516664708
21
67.2340425789
0
LINE
5
2EA
100
AcDbEntity
8
0
100
AcDbLine
62
0
6
CONTINUOUS
10
2.3749997616
20
74.7978724241
11
2.3749997616
21
74.6702126861
0
LINE
5
2EB
100
AcDbEntity
8
0
100
AcDbLine
62
0
6
CONTINUOUS
10
2.4375002384
20
73.4574467838
11
2.4375002384
21
73.2021276653
0
LINE
5
2EC
100
AcDbEntity
8
0
100
AcDbLine
62
0
6
CONTINUOUS
10
2.6875000000
20
74.6702126861
11
2.6875000000
21
74.7978724241
0
LINE
5
2ED
100
AcDbEntity
8
0
100
AcDbLine
62
0
6
CONTINUOUS
10
2.7499997616
20
73.2021276653
11
2.7499997616
21
73.4574467838
0
LINE
5
2EE
100
AcDbEntity
8
0
100
AcDbLine
62
0
6
CONTINUOUS
10
3.1175560000
20
-76.3750000000
11
3.1175560000
21
-75.6250000000
0
LINE
5
2EF
100
AcDbEntity
8
0
100
AcDbLine
62
0
6
CONTINUOUS
10
3.2500000000
20
74.2872340083
11
3.2500000000
21
73.7127659917
0
LINE
5
2F0
100
AcDbEntity
8
0
100
AcDbLine
62
0
6
CONTINUOUS
10
3.5175560000
20
-78.5480371284
11
3.5175560000
21
-77.7972166247
0
LINE
5
2F1
100
AcDbEntity
8
0
100
AcDbLine
62
0
6
CONTINUOUS
10
3.5175560000
20
-74.2027800000
11
3.5175560000
21
-73.4519631666
0
LINE
5
2F2
100
AcDbEntity
8
0
100
AcDbLine
62
0
6
CONTINUOUS
10
3.5625002384
20
73.7765957713
11
3.5625002384
21
74.2234042287
0
LINE
5
2F3
100
AcDbEntity
8
0
100
AcDbLine
62
0
6
CONTINUOUS
10
3.5868750000
20
67.2340425789
11
3.5868750000
21
67.6659574211
0
LINE
5
2F4
100
AcDbEntity
8
0
100
AcDbLine
62
0
6
CONTINUOUS
10
3.8436460292
20
67.7276595414
11
3.8436460292
21
67.1723404586
0
LINE
5
2F5
100
AcDbEntity
8
0
100
AcDbLine
62
0
6
CONTINUOUS
10
4.6793750000
20
79.5000000000
11
4.6793750000
21
82.4000000000
0
LINE
5
2F6
100
AcDbEntity
8
0
100
AcDbLine
62
0
6
CONTINUOUS
10
4.9875000000
20
82.4000000000
11
4.9875000000
21
79.5000000000
0
LINE
5
2F7
100
AcDbEntity
8
0
100
AcDbLine
62
0
6
CONTINUOUS
10
5.1875004768
20
74.2234042287
11
5.1875004768
21
73.7765957713
0
LINE
5
2F8
100
AcDbEntity
8
0
100
AcDbLine
62
0
6
CONTINUOUS
10
5.3983329415
20
82.0914893985
11
5.3983329415
21
82.4000000000
0
LINE
5
2F9
100
AcDbEntity
8
0
100
AcDbLine
62
0
6
CONTINUOUS
10
5.5000000000
20
73.7127659917
11
5.5000000000
21
74.2872340083
0
LINE
5
2FA
100
AcDbEntity
8
0
100
AcDbLine
62
0
6
CONTINUOUS
10
5.9999995232
20
75.5000000000
11
5.9999995232
21
75.1808511019
0
LINE
5
2FB
100
AcDbEntity
8
0
100
AcDbLine
62
0
6
CONTINUOUS
10
6.2200000000
20
79.5000000000
11
6.2200000000
21
82.0914893985
0
LINE
5
2FC
100
AcDbEntity
8
0
100
AcDbLine
62
0
6
CONTINUOUS
10
6.5281250000
20
82.0914893985
11
6.5281250000
21
79.5000000000
0
LINE
5
2FD
100
AcDbEntity
8
0
100
AcDbLine
62
0
6
CONTINUOUS
10
7.3497908831
20
82.4000000000
11
7.3497908831
21
82.0914893985
0
LINE
5
2FE
100
AcDbEntity
8
0
100
AcDbLine
62
0
6
CONTINUOUS
10
8.2499995232
20
75.1808511019
11
8.2499995232
21
75.5000000000
0
LINE
5
2FF
100
AcDbEntity
8
0
100
AcDbLine
62
0
6
CONTINUOUS
10
8.4333240879
20
86.7095094051
11
8.4333240879
21
93.4292160625
0
LINE
5
300
100
AcDbEntity
8
0
100
AcDbLine
62
0
6
CONTINUOUS
10
9.2322390000
20
65.0129710000
11
9.2322390000
21
65.5566200000
0
LINE
5
301
100
AcDbEntity
8
0
100
AcDbLine
62
0
6
CONTINUOUS
10
9.2499930000
20
69.4189740000
11
9.2499930000
21
69.9656130000
0
LINE
5
302
100
AcDbEntity
8
0
100
AcDbLine
62
0
6
CONTINUOUS
10
9.7140290000
20
65.5566200000
11
9.7140290000
21
67.3591260000
0
LINE
5
303
100
AcDbEntity
8
0
100
AcDbLine
62
0
6
CONTINUOUS
10
9.7140290000
20
68.0328470000
11
9.7140290000
21
69.4189740000
0
LINE
5
304
100
AcDbEntity
8
0
100
AcDbLine
62
0
6
CONTINUOUS
10
9.7998012541
20
92.3503512128
11
9.7998012541
21
90.4838538395
0
LINE
5
305
100
AcDbEntity
8
0
100
AcDbLine
62
0
6
CONTINUOUS
10
9.8468613796
20
89.3703184747
11
9.8468613796
21
86.7095094051
0
LINE
5
306
100
AcDbEntity
8
0
100
AcDbLine
62
0
6
CONTINUOUS
10
10.2256250000
20
79.5000000000
11
10.2256250000
21
82.4000000000
0
LINE
5
307
100
AcDbEntity
8
0
100
AcDbLine
62
0
6
CONTINUOUS
10
10.2931860000
20
69.4189740000
11
10.2931860000
21
68.0328470000
0
LINE
5
308
100
AcDbEntity
8
0
100
AcDbLine
62
0
6
CONTINUOUS
10
10.2931860000
20
67.3652060000
11
10.2931860000
21
65.5566200000
0
LINE
5
309
100
AcDbEntity
8
0
100
AcDbLine
62
0
6
CONTINUOUS
10
10.5337500000
20
82.4000000000
11
10.5337500000
21
79.8702127650
0
LINE
5
30A
100
AcDbEntity
8
0
100
AcDbLine
62
0
6
CONTINUOUS
10
10.7570340000
20
69.9656130000
11
10.7570340000
21
69.4189740000
0
LINE
5
30B
100
AcDbEntity
8
0
100
AcDbLine
62
0
6
CONTINUOUS
10
10.7747880000
20
65.5566200000
11
10.7747880000
21
65.0129710000
0
LINE
5
30C
100
AcDbEntity
8
0
100
AcDbLine
62
0
6
CONTINUOUS
10
12.0743750000
20
79.8702127650
11
12.0743750000
21
79.5000000000
0
LINE
5
30D
100
AcDbEntity
8
0
100
AcDbLine
62
0
6
CONTINUOUS
10
12.0821408634
20
89.9234661474
11
12.0821408634
21
89.8832891389
0
LINE
5
30E
100
AcDbEntity
8
0
100
AcDbLine
62
0
6
CONTINUOUS
10
13.3068750000
20
79.5000000000
11
13.3068750000
21
80.9808510602
0
LINE
5
30F
100
AcDbEntity
8
0
100
AcDbLine
62
0
6
CONTINUOUS
10
13.6150000000
20
80.9808510602
11
13.6150000000
21
79.5000000000
0
LINE
5
310
100
AcDbEntity
8
0
100
AcDbLine
62
9
6
CONTINUOUS
10
-131.8129388410
20
-139.3026603517
11
-132.0068476243
21
-139.4965691350
0
LINE
5
311
100
AcDbEntity
8
0
100
AcDbLine
62
9
6
CONTINUOUS
10
139.3026603517
20
131.8129388410
11
139.4965691350
21
132.0068476243
0
LINE
5
312
100
AcDbEntity
8
0
100
AcDbLine
62
9
6
CONTINUOUS
10
-131.8129388410
20
139.3026603517
11
-132.0068476243
21
139.4965691350
0
LINE
5
313
100
AcDbEntity
8
0
100
AcDbLine
62
9
6
CONTINUOUS
10
139.3026603517
20
-131.8129388410
11
139.4965691350
21
-132.0068476243
0
LINE
5
314
100
AcDbEntity
8
0
100
AcDbLine
62
0
6
CONTINUOUS
10
-12.4729166912
20
79.5000000000
11
-13.1918750000
21
81.7829787970
0
LINE
5
315
100
AcDbEntity
8
0
100
AcDbLine
62
0
6
CONTINUOUS
10
-13.0378125000
20
82.4000000000
11
-12.2675000000
21
79.8085106447
0
LINE
5
316
100
AcDbEntity
8
0
100
AcDbLine
62
0
6
CONTINUOUS
10
-9.3916667646
20
82.4000000000
11
-8.5700000000
21
79.5000000000
0
LINE
5
317
100
AcDbEntity
8
0
100
AcDbLine
62
0
6
CONTINUOUS
10
-11.1377083823
20
66.6787234098
11
-11.1890625000
21
66.8638297707
0
LINE
5
318
100
AcDbEntity
8
0
100
AcDbLine
62
0
6
CONTINUOUS
10
-9.4943750000
20
68.2212766767
11
-9.4430207354
21
68.0361701429
0
LINE
5
319
100
AcDbEntity
8
0
100
AcDbLine
62
0
6
CONTINUOUS
10
-8.8781250000
20
79.5000000000
11
-9.0835417646
21
80.2404255301
0
LINE
5
31A
100
AcDbEntity
8
0
100
AcDbLine
62
0
6
CONTINUOUS
10
-9.1348957354
20
80.4872340113
11
-9.5970832354
21
82.1531915188
0
LINE
5
31B
100
AcDbEntity
8
0
100
AcDbLine
62
0
6
CONTINUOUS
10
-11.4534540000
20
93.5086520000
11
-10.1574140000
21
88.8285920000
0
LINE
5
31C
100
AcDbEntity
8
0
100
AcDbLine
62
0
6
CONTINUOUS
10
-11.7026041177
20
68.4680851579
11
-11.6512500000
21
68.2212766767
0
LINE
5
31D
100
AcDbEntity
8
0
100
AcDbLine
62
0
6
CONTINUOUS
10
-8.6727082354
20
66.9872340113
11
-8.6213542646
21
66.7404255301
0
LINE
5
31E
100
AcDbEntity
8
0
100
AcDbLine
62
0
6
CONTINUOUS
10
-6.4131250000
20
81.4127659023
11
-6.4644789708
21
81.6595743835
0
LINE
5
31F
100
AcDbEntity
8
0
100
AcDbLine
62
0
6
CONTINUOUS
10
-2.2500001192
20
73.7127659917
11
-2.1875000000
21
73.3936170042
0
LINE
5
320
100
AcDbEntity
8
0
100
AcDbLine
62
0
6
CONTINUOUS
10
0.0000002384
20
74.2872340083
11
-0.0625002384
21
74.6063829064
0
LINE
5
321
100
AcDbEntity
8
0
100
AcDbLine
62
0
6
CONTINUOUS
10
-9.4430207354
20
68.0361701429
11
-9.3916667646
21
67.7276595414
0
LINE
5
322
100
AcDbEntity
8
0
100
AcDbLine
62
0
6
CONTINUOUS
10
-8.9294792646
20
66.6787234098
11
-8.9808332354
21
66.9872340113
0
LINE
5
323
100
AcDbEntity
8
0
100
AcDbLine
62
0
6
CONTINUOUS
10
-6.1563539708
20
81.7212766767
11
-6.1050000000
21
81.4127659023
0
LINE
5
324
100
AcDbEntity
8
0
100
AcDbLine
62
0
6
CONTINUOUS
10
2.0462500000
20
66.8638297707
11
1.9948960292
21
67.1723404586
0
LINE
5
325
100
AcDbEntity
8
0
100
AcDbLine
62
0
6
CONTINUOUS
10
3.7922914708
20
68.0361701429
11
3.8436460292
21
67.7276595414
0
LINE
5
326
100
AcDbEntity
8
0
100
AcDbLine
62
0
6
CONTINUOUS
10
-1.8749997616
20
73.3936170042
11
-1.9375002384
21
73.7765957713
0
LINE
5
327
100
AcDbEntity
8
0
100
AcDbLine
62
0
6
CONTINUOUS
10
-0.3749997616
20
74.6063829064
11
-0.3125000000
21
74.2234042287
0
LINE
5
328
100
AcDbEntity
8
0
100
AcDbLine
62
0
6
CONTINUOUS
10
2.2516664708
20
67.2340425789
11
2.3030210292
21
66.8638297707
0
LINE
5
329
100
AcDbEntity
8
0
100
AcDbLine
62
0
6
CONTINUOUS
10
3.5868750000
20
67.6659574211
11
3.5355210292
21
68.0361701429
0
LINE
5
32A
100
AcDbEntity
8
0
100
AcDbLine
62
0
6
CONTINUOUS
10
-11.9593750000
20
68.2212766767
11
-12.0620833823
21
68.4063830376
0
LINE
5
32B
100
AcDbEntity
8
0
100
AcDbLine
62
0
6
CONTINUOUS
10
-10.9322917646
20
66.8638297707
11
-10.7268750000
21
66.4936170056
0
LINE
5
32C
100
AcDbEntity
8
0
100
AcDbLine
62
0
6
CONTINUOUS
10
-9.6997917646
20
68.0361701429
11
-9.9052082354
21
68.4063830376
0
LINE
5
32D
100
AcDbEntity
8
0
100
AcDbLine
62
0
6
CONTINUOUS
10
-8.6213542646
20
66.7404255301
11
-8.5186460292
21
66.5553191692
0
LINE
5
32E
100
AcDbEntity
8
0
100
AcDbLine
62
0
6
CONTINUOUS
10
-11.0350000000
20
66.4319148853
11
-11.1377083823
21
66.6787234098
0
LINE
5
32F
100
AcDbEntity
8
0
100
AcDbLine
62
0
6
CONTINUOUS
10
-8.8267707354
20
66.4319148853
11
-8.9294792646
21
66.6787234098
0
LINE
5
330
100
AcDbEntity
8
0
100
AcDbLine
62
0
6
CONTINUOUS
10
-9.5970832354
20
68.4680851579
11
-9.4943750000
21
68.2212766767
0
LINE
5
331
100
AcDbEntity
8
0
100
AcDbLine
62
0
6
CONTINUOUS
10
-6.2590625000
20
81.9680851579
11
-6.1563539708
21
81.7212766767
0
LINE
5
332
100
AcDbEntity
8
0
100
AcDbLine
62
0
6
CONTINUOUS
10
2.2003125000
20
66.4319148853
11
2.0976039708
21
66.6787234098
0
LINE
5
333
100
AcDbEntity
8
0
100
AcDbLine
62
0
6
CONTINUOUS
10
-6.7500000298
20
72.8829787225
11
-7.6250000000
21
75.5000000000
0
LINE
5
334
100
AcDbEntity
8
0
100
AcDbLine
62
0
6
CONTINUOUS
10
-8.0000000000
20
75.5000000000
11
-6.9999999702
21
72.5000000000
0
LINE
5
335
100
AcDbEntity
8
0
100
AcDbLine
62
0
6
CONTINUOUS
10
-2.1875000000
20
73.3936170042
11
-2.1249998808
21
73.2021276653
0
LINE
5
336
100
AcDbEntity
8
0
100
AcDbLine
62
0
6
CONTINUOUS
10
-0.0625002384
20
74.6063829064
11
-0.1250000000
21
74.7978724241
0
LINE
5
337
100
AcDbEntity
8
0
100
AcDbLine
62
0
6
CONTINUOUS
10
0.4999997616
20
73.2021276653
11
0.5625002384
21
73.0106382817
0
LINE
5
338
100
AcDbEntity
8
0
100
AcDbLine
62
0
6
CONTINUOUS
10
3.3124997616
20
73.3936170042
11
3.3750002384
21
73.2021276653
0
LINE
5
339
100
AcDbEntity
8
0
100
AcDbLine
62
0
6
CONTINUOUS
10
5.4374995232
20
74.6063829064
11
5.3750004768
21
74.7978724241
0
LINE
5
33A
100
AcDbEntity
8
0
100
AcDbLine
62
0
6
CONTINUOUS
10
-10.8397350000
20
86.7095090000
11
-12.9951960000
21
93.5086520000
0
LINE
5
33B
100
AcDbEntity
8
0
100
AcDbLine
62
0
6
CONTINUOUS
10
-1.1890625000
20
68.2212766767
11
-1.2404166177
21
68.4063830376
0
LINE
5
33C
100
AcDbEntity
8
0
100
AcDbLine
62
0
6
CONTINUOUS
10
-0.9322917646
20
68.4063830376
11
-0.8809375000
21
68.2212766767
0
LINE
5
33D
100
AcDbEntity
8
0
100
AcDbLine
62
0
6
CONTINUOUS
10
2.0976039708
20
66.6787234098
11
2.0462500000
21
66.8638297707
0
LINE
5
33E
100
AcDbEntity
8
0
100
AcDbLine
62
0
6
CONTINUOUS
10
3.7409375000
20
68.2212766767
11
3.7922914708
21
68.0361701429
0
LINE
5
33F
100
AcDbEntity
8
0
100
AcDbLine
62
0
6
CONTINUOUS
10
5.8694400000
20
89.1171730000
11
5.2172770000
21
91.6404210000
0
LINE
5
340
100
AcDbEntity
8
0
100
AcDbLine
62
0
6
CONTINUOUS
10
2.7499997616
20
73.4574467838
11
2.6875000000
21
73.7127659917
0
LINE
5
341
100
AcDbEntity
8
0
100
AcDbLine
62
0
6
CONTINUOUS
10
2.6875000000
20
74.7978724241
11
2.6250002384
21
75.0531915426
0
LINE
5
342
100
AcDbEntity
8
0
100
AcDbLine
62
0
6
CONTINUOUS
10
3.2500000000
20
73.7127659917
11
3.3124997616
21
73.3936170042
0
LINE
5
343
100
AcDbEntity
8
0
100
AcDbLine
62
0
6
CONTINUOUS
10
5.5000000000
20
74.2872340083
11
5.4374995232
21
74.6063829064
0
LINE
5
344
100
AcDbEntity
8
0
100
AcDbLine
62
0
6
CONTINUOUS
10
3.6250000000
20
73.3936170042
11
3.5625002384
21
73.7765957713
0
LINE
5
345
100
AcDbEntity
8
0
100
AcDbLine
62
0
6
CONTINUOUS
10
5.1250000000
20
74.6063829064
11
5.1875004768
21
74.2234042287
0
LINE
5
346
100
AcDbEntity
8
0
100
AcDbLine
62
0
6
CONTINUOUS
10
-10.8809375000
20
66.2468085028
11
-11.0350000000
21
66.4319148853
0
LINE
5
347
100
AcDbEntity
8
0
100
AcDbLine
62
0
6
CONTINUOUS
10
-11.9080208823
20
68.7148936391
11
-11.7026041177
21
68.4680851579
0
LINE
5
348
100
AcDbEntity
8
0
100
AcDbLine
62
0
6
CONTINUOUS
10
-8.6213542646
20
66.1851063825
11
-8.8267707354
21
66.4319148853
0
LINE
5
349
100
AcDbEntity
8
0
100
AcDbLine
62
0
6
CONTINUOUS
10
-9.7511457354
20
68.6531915188
11
-9.5970832354
21
68.4680851579
0
LINE
5
34A
100
AcDbEntity
8
0
100
AcDbLine
62
0
6
CONTINUOUS
10
-1.6250000000
20
73.0106382817
11
-1.8749997616
21
73.3936170042
0
LINE
5
34B
100
AcDbEntity
8
0
100
AcDbLine
62
0
6
CONTINUOUS
10
0.5625002384
20
73.0106382817
11
0.6874997616
21
72.8191489428
0
LINE
5
34C
100
AcDbEntity
8
0
100
AcDbLine
62
0
6
CONTINUOUS
10
-0.6250002384
20
74.9893617630
11
-0.3749997616
21
74.6063829064
0
LINE
5
34D
100
AcDbEntity
8
0
100
AcDbLine
62
0
6
CONTINUOUS
10
-1.0863541177
20
68.6531915188
11
-0.9322917646
21
68.4063830376
0
LINE
5
34E
100
AcDbEntity
8
0
100
AcDbLine
62
0
6
CONTINUOUS
10
11.2586720000
20
65.2574530000
11
11.0084240000
21
65.7033150000
0
LINE
5
34F
100
AcDbEntity
8
0
100
AcDbLine
62
0
6
CONTINUOUS
10
-6.4644789708
20
81.6595743835
11
-6.5671875000
21
81.8446809173
0
LINE
5
350
100
AcDbEntity
8
0
100
AcDbLine
62
0
6
CONTINUOUS
10
2.3030210292
20
66.8638297707
11
2.5084375000
21
66.4936170056
0
LINE
5
351
100
AcDbEntity
8
0
100
AcDbLine
62
0
6
CONTINUOUS
10
3.5355210292
20
68.0361701429
11
3.3301039708
21
68.4063830376
0
LINE
5
352
100
AcDbEntity
8
0
100
AcDbLine
62
0
6
CONTINUOUS
10
0.2115625000
20
82.4000000000
11
1.4954170585
21
79.9319148853
0
LINE
5
353
100
AcDbEntity
8
0
100
AcDbLine
62
0
6
CONTINUOUS
10
1.3413545585
20
79.5000000000
11
0.0575000000
21
82.0297872782
0
LINE
5
354
100
AcDbEntity
8
0
100
AcDbLine
62
0
6
CONTINUOUS
10
-2.1249998808
20
73.2021276653
11
-2.0000000000
21
72.9468085021
0
LINE
5
355
100
AcDbEntity
8
0
100
AcDbLine
62
0
6
CONTINUOUS
10
-0.1250000000
20
74.7978724241
11
-0.2500002384
21
75.0531915426
0
LINE
5
356
100
AcDbEntity
8
0
100
AcDbLine
62
0
6
CONTINUOUS
10
0.8749997616
20
73.0744681060
11
0.8125000000
21
73.2021276653
0
LINE
5
357
100
AcDbEntity
8
0
100
AcDbLine
62
0
6
CONTINUOUS
10
2.3125000000
20
73.7127659917
11
2.4375002384
21
73.4574467838
0
LINE
5
358
100
AcDbEntity
8
0
100
AcDbLine
62
0
6
CONTINUOUS
10
3.3750002384
20
73.2021276653
11
3.4999997616
21
72.9468085021
0
LINE
5
359
100
AcDbEntity
8
0
100
AcDbLine
62
0
6
CONTINUOUS
10
5.3750004768
20
74.7978724241
11
5.2499995232
21
75.0531915426
0
LINE
5
35A
100
AcDbEntity
8
0
100
AcDbLine
62
0
6
CONTINUOUS
10
3.6382289708
20
68.4680851579
11
3.7409375000
21
68.2212766767
0
LINE
5
35B
100
AcDbEntity
8
0
100
AcDbLine
62
0
6
CONTINUOUS
10
-1.3645630000
20
86.7095090000
11
-3.0295130000
21
91.1492220000
0
LINE
5
35C
100
AcDbEntity
8
0
100
AcDbLine
62
0
6
CONTINUOUS
10
-2.6615470000
20
93.5086520000
11
-1.2572890000
21
89.7337470000
0
LINE
5
35D
100
AcDbEntity
8
0
100
AcDbLine
62
0
6
CONTINUOUS
10
5.9304190000
20
93.5086520000
11
8.0165640000
21
86.7095090000
0
LINE
5
35E
100
AcDbEntity
8
0
100
AcDbLine
62
0
6
CONTINUOUS
10
8.9931250000
20
82.4000000000
11
9.8147908831
21
79.5000000000
0
LINE
5
35F
100
AcDbEntity
8
0
100
AcDbLine
62
0
6
CONTINUOUS
10
9.5066658831
20
79.5000000000
11
9.3012500000
21
80.2404255301
0
LINE
5
360
100
AcDbEntity
8
0
100
AcDbLine
62
0
6
CONTINUOUS
10
9.2498966169
20
80.4872340113
11
8.7877091169
21
82.1531915188
0
LINE
5
361
100
AcDbEntity
8
0
100
AcDbLine
62
0
6
CONTINUOUS
10
6.5207350000
20
86.7095090000
11
6.1530750000
21
88.0668600000
0
LINE
5
362
100
AcDbEntity
8
0
100
AcDbLine
62
0
6
CONTINUOUS
10
-8.4159375000
20
66.0617021257
11
-8.6213542646
21
66.1851063825
0
LINE
5
363
100
AcDbEntity
8
0
100
AcDbLine
62
0
6
CONTINUOUS
10
-12.1134375000
20
68.8382978797
11
-11.9080208823
21
68.7148936391
0
LINE
5
364
100
AcDbEntity
8
0
100
AcDbLine
62
0
6
CONTINUOUS
10
-10.6241667646
20
66.0617021257
11
-10.8809375000
21
66.2468085028
0
LINE
5
365
100
AcDbEntity
8
0
100
AcDbLine
62
0
6
CONTINUOUS
10
-10.0079167646
20
68.8382978797
11
-9.7511457354
21
68.6531915188
0
LINE
5
366
100
AcDbEntity
8
0
100
AcDbLine
62
0
6
CONTINUOUS
10
2.6111460292
20
66.0617021257
11
2.3543750000
21
66.2468085028
0
LINE
5
367
100
AcDbEntity
8
0
100
AcDbLine
62
0
6
CONTINUOUS
10
-10.7268750000
20
66.4936170056
11
-10.5728125000
21
66.3702127650
0
LINE
5
368
100
AcDbEntity
8
0
100
AcDbLine
62
0
6
CONTINUOUS
10
-12.0620833823
20
68.4063830376
11
-12.2161458823
21
68.5297872782
0
LINE
5
369
100
AcDbEntity
8
0
100
AcDbLine
62
0
6
CONTINUOUS
10
-8.5186460292
20
66.5553191692
11
-8.3645835292
21
66.4319148853
0
LINE
5
36A
100
AcDbEntity
8
0
100
AcDbLine
62
0
6
CONTINUOUS
10
-9.9052082354
20
68.4063830376
11
-10.0592707354
21
68.5297872782
0
LINE
5
36B
100
AcDbEntity
8
0
100
AcDbLine
62
0
6
CONTINUOUS
10
2.5084375000
20
66.4936170056
11
2.6625000000
21
66.3702127650
0
LINE
5
36C
100
AcDbEntity
8
0
100
AcDbLine
62
0
6
CONTINUOUS
10
-1.2917708823
20
68.8382978797
11
-1.0863541177
21
68.6531915188
0
LINE
5
36D
100
AcDbEntity
8
0
100
AcDbLine
62
0
6
CONTINUOUS
10
-2.0000000000
20
72.9468085021
11
-1.8125000000
21
72.7553191409
0
LINE
5
36E
100
AcDbEntity
8
0
100
AcDbLine
62
0
6
CONTINUOUS
10
1.0000000000
20
72.9468085021
11
0.8749997616
21
73.0744681060
0
LINE
5
36F
100
AcDbEntity
8
0
100
AcDbLine
62
0
6
CONTINUOUS
10
-0.2500002384
20
75.0531915426
11
-0.4375002384
21
75.2446808815
0
LINE
5
370
100
AcDbEntity
8
0
100
AcDbLine
62
0
6
CONTINUOUS
10
3.4999997616
20
72.9468085021
11
3.6874997616
21
72.7553191409
0
LINE
5
371
100
AcDbEntity
8
0
100
AcDbLine
62
0
6
CONTINUOUS
10
2.6250002384
20
75.0531915426
11
2.3749997616
21
75.3085106611
0
LINE
5
372
100
AcDbEntity
8
0
100
AcDbLine
62
0
6
CONTINUOUS
10
-1.2404166177
20
68.4063830376
11
-1.3431250000
21
68.5297872782
0
LINE
5
373
100
AcDbEntity
8
0
100
AcDbLine
62
0
6
CONTINUOUS
10
2.3543750000
20
66.2468085028
11
2.2003125000
21
66.4319148853
0
LINE
5
374
100
AcDbEntity
8
0
100
AcDbLine
62
0
6
CONTINUOUS
10
3.4841664708
20
68.6531915188
11
3.6382289708
21
68.4680851579
0
LINE
5
375
100
AcDbEntity
8
0
100
AcDbLine
62
0
6
CONTINUOUS
10
-6.4644789708
20
82.2148936391
11
-6.2590625000
21
81.9680851579
0
LINE
5
376
100
AcDbEntity
8
0
100
AcDbLine
62
0
6
CONTINUOUS
10
2.6875000000
20
73.7127659917
11
2.5624997616
21
73.9042553306
0
LINE
5
377
100
AcDbEntity
8
0
100
AcDbLine
62
0
6
CONTINUOUS
10
2.2500002384
20
74.9893617630
11
2.3749997616
21
74.7978724241
0
LINE
5
378
100
AcDbEntity
8
0
100
AcDbLine
62
0
6
CONTINUOUS
10
3.8749997616
20
73.0106382817
11
3.6250000000
21
73.3936170042
0
LINE
5
379
100
AcDbEntity
8
0
100
AcDbLine
62
0
6
CONTINUOUS
10
4.8749995232
20
74.9893617630
11
5.1250000000
21
74.6063829064
0
LINE
5
37A
100
AcDbEntity
8
0
100
AcDbLine
62
0
6
CONTINUOUS
10
13.3068750000
20
80.9808510602
11
12.4852091169
21
82.4000000000
0
LINE
5
37B
100
AcDbEntity
8
0
100
AcDbLine
62
0
6
CONTINUOUS
10
12.7933341169
20
82.4000000000
11
13.4609375000
21
81.2276595414
0
LINE
5
37C
100
AcDbEntity
8
0
100
AcDbLine
62
0
6
CONTINUOUS
10
2.9192710292
20
66.3085106447
11
3.1760414708
21
66.3702127650
0
LINE
5
37D
100
AcDbEntity
8
0
100
AcDbLine
62
0
6
CONTINUOUS
10
-1.2917708823
20
67.3574468195
11
-1.5485416177
21
67.2957446992
0
LINE
5
37E
100
AcDbEntity
8
0
100
AcDbLine
62
0
6
CONTINUOUS
10
2.9192710292
20
68.5914893985
11
2.6625000000
21
68.5297872782
0
LINE
5
37F
100
AcDbEntity
8
0
100
AcDbLine
62
0
6
CONTINUOUS
10
-7.6969789708
20
66.0617021257
11
-7.9537500000
21
66.0000000000
0
LINE
5
380
100
AcDbEntity
8
0
100
AcDbLine
62
0
6
CONTINUOUS
10
-10.3160417646
20
66.3085106447
11
-10.0592707354
21
66.3702127650
0
LINE
5
381
100
AcDbEntity
8
0
100
AcDbLine
62
0
6
CONTINUOUS
10
3.2273960292
20
66.0617021257
11
2.9192710292
21
66.0000000000
0
LINE
5
382
100
AcDbEntity
8
0
100
AcDbLine
62
0
6
CONTINUOUS
10
-10.0079167646
20
66.0617021257
11
-10.3160417646
21
66.0000000000
0
LINE
5
383
100
AcDbEntity
8
0
100
AcDbLine
62
0
6
CONTINUOUS
10
2.6111460292
20
68.8382978797
11
2.9192710292
21
68.9000000000
0
LINE
5
384
100
AcDbEntity
8
0
100
AcDbLine
62
0
6
CONTINUOUS
10
10.7747880000
20
65.0129710000
11
9.2322390000
21
65.0129710000
0
LINE
5
385
100
AcDbEntity
8
0
100
AcDbLine
62
0
6
CONTINUOUS
10
9.2322390000
20
65.5566200000
11
9.7140290000
21
65.5566200000
0
LINE
5
386
100
AcDbEntity
8
0
100
AcDbLine
62
0
6
CONTINUOUS
10
10.2931860000
20
65.5566200000
11
10.7747880000
21
65.5566200000
0
LINE
5
387
100
AcDbEntity
8
0
100
AcDbLine
62
0
6
CONTINUOUS
10
1.0705207354
20
66.0000000000
11
0.7623957354
21
66.0000000000
0
LINE
5
388
100
AcDbEntity
8
0
100
AcDbLine
62
0
6
CONTINUOUS
10
-2.4729166912
20
66.0000000000
11
-2.7810416912
21
66.0000000000
0
LINE
5
389
100
AcDbEntity
8
0
100
AcDbLine
62
0
6
CONTINUOUS
10
-3.1918750000
20
66.0000000000
11
-3.5000000000
21
66.0000000000
0
LINE
5
38A
100
AcDbEntity
8
0
100
AcDbLine
62
0
6
CONTINUOUS
10
-7.9537500000
20
66.0000000000
11
-8.1591664708
21
66.0000000000
0
LINE
5
38B
100
AcDbEntity
8
0
100
AcDbLine
62
0
6
CONTINUOUS
10
-11.6512500000
20
66.0000000000
11
-13.5000000000
21
66.0000000000
0
LINE
5
38C
100
AcDbEntity
8
0
100
AcDbLine
62
0
6
CONTINUOUS
10
-13.0891666544
20
66.3085106447
11
-11.6512500000
21
66.3085106447
0
LINE
5
38D
100
AcDbEntity
8
0
100
AcDbLine
62
0
6
CONTINUOUS
10
-8.1591664708
20
66.3702127650
11
-7.9537500000
21
66.3702127650
0
LINE
5
38E
100
AcDbEntity
8
0
100
AcDbLine
62
0
6
CONTINUOUS
10
1.5840625000
20
66.8638297707
11
1.0705207354
21
66.8638297707
0
LINE
5
38F
100
AcDbEntity
8
0
100
AcDbLine
62
0
6
CONTINUOUS
10
0.7623957354
20
66.8638297707
11
-0.4701042646
21
66.8638297707
0
LINE
5
390
100
AcDbEntity
8
0
100
AcDbLine
62
0
6
CONTINUOUS
10
-8.9808332354
20
66.9872340113
11
-8.6727082354
21
66.9872340113
0
LINE
5
391
100
AcDbEntity
8
0
100
AcDbLine
62
0
6
CONTINUOUS
10
-0.1106250000
20
67.2340425789
11
0.7623957354
21
67.2340425789
0
LINE
5
392
100
AcDbEntity
8
0
100
AcDbLine
62
0
6
CONTINUOUS
10
1.0705207354
20
67.2340425789
11
1.5840625000
21
67.2340425789
0
LINE
5
393
100
AcDbEntity
8
0
100
AcDbLine
62
0
6
CONTINUOUS
10
-1.5485416177
20
67.2957446992
11
-2.4729166912
21
67.2957446992
0
LINE
5
394
100
AcDbEntity
8
0
100
AcDbLine
62
0
6
CONTINUOUS
10
-2.4729166912
20
67.6659574211
11
-1.4971875000
21
67.6659574211
0
LINE
5
395
100
AcDbEntity
8
0
100
AcDbLine
62
0
6
CONTINUOUS
10
-13.1918750000
20
68.2212766767
11
-13.4486458318
21
68.2212766767
0
LINE
5
396
100
AcDbEntity
8
0
100
AcDbLine
62
0
6
CONTINUOUS
10
-1.4971875000
20
68.5914893985
11
-2.4729166912
21
68.5914893985
0
LINE
5
397
100
AcDbEntity
8
0
100
AcDbLine
62
0
6
CONTINUOUS
10
-12.4729166912
20
68.5914893985
11
-12.6783333088
21
68.5914893985
0
LINE
5
398
100
AcDbEntity
8
0
100
AcDbLine
62
0
6
CONTINUOUS
10
-10.3160417646
20
66.0000000000
11
-10.6241667646
21
66.0617021257
0
LINE
5
399
100
AcDbEntity
8
0
100
AcDbLine
62
0
6
CONTINUOUS
10
-12.4215625000
20
68.9000000000
11
-12.1134375000
21
68.8382978797
0
LINE
5
39A
100
AcDbEntity
8
0
100
AcDbLine
62
0
6
CONTINUOUS
10
2.9192710292
20
66.0000000000
11
2.6111460292
21
66.0617021257
0
LINE
5
39B
100
AcDbEntity
8
0
100
AcDbLine
62
0
6
CONTINUOUS
10
-10.3160417646
20
68.9000000000
11
-10.0079167646
21
68.8382978797
0
LINE
5
39C
100
AcDbEntity
8
0
100
AcDbLine
62
0
6
CONTINUOUS
10
2.9192710292
20
68.9000000000
11
3.2273960292
21
68.8382978797
0
LINE
5
39D
100
AcDbEntity
8
0
100
AcDbLine
62
0
6
CONTINUOUS
10
-10.5728125000
20
66.3702127650
11
-10.3160417646
21
66.3085106447
0
LINE
5
39E
100
AcDbEntity
8
0
100
AcDbLine
62
0
6
CONTINUOUS
10
-8.1591664708
20
66.0000000000
11
-8.4159375000
21
66.0617021257
0
LINE
5
39F
100
AcDbEntity
8
0
100
AcDbLine
62
0
6
CONTINUOUS
10
-12.2161458823
20
68.5297872782
11
-12.4729166912
21
68.5914893985
0
LINE
5
3A0
100
AcDbEntity
8
0
100
AcDbLine
62
0
6
CONTINUOUS
10
-10.0592707354
20
68.5297872782
11
-10.3160417646
21
68.5914893985
0
LINE
5
3A1
100
AcDbEntity
8
0
100
AcDbLine
62
0
6
CONTINUOUS
10
2.6625000000
20
66.3702127650
11
2.9192710292
21
66.3085106447
0
LINE
5
3A2
100
AcDbEntity
8
0
100
AcDbLine
62
0
6
CONTINUOUS
10
-1.5485416177
20
68.9000000000
11
-1.2917708823
21
68.8382978797
0
LINE
5
3A3
100
AcDbEntity
8
0
100
AcDbLine
62
0
6
CONTINUOUS
10
3.1760414708
20
68.5297872782
11
2.9192710292
21
68.5914893985
0
LINE
5
3A4
100
AcDbEntity
8
0
100
AcDbLine
62
0
6
CONTINUOUS
10
-8.3645835292
20
66.4319148853
11
-8.1591664708
21
66.3702127650
0
LINE
5
3A5
100
AcDbEntity
8
0
100
AcDbLine
62
0
6
CONTINUOUS
10
-1.3431250000
20
68.5297872782
11
-1.4971875000
21
68.5914893985
0
LINE
5
3A6
100
AcDbEntity
8
0
100
AcDbLine
62
0
6
CONTINUOUS
10
0.8749997616
20
72.6914893612
11
1.1250002384
21
72.5638297852
0
LINE
5
3A7
100
AcDbEntity
8
0
100
AcDbLine
62
0
6
CONTINUOUS
10
1.1250002384
20
72.8829787225
11
1.0000000000
21
72.9468085021
0
LINE
5
3A8
100
AcDbEntity
8
0
100
AcDbLine
62
0
6
CONTINUOUS
10
2.3749997616
20
75.3085106611
11
2.1250000000
21
75.4361702204
0
LINE
5
3A9
100
AcDbEntity
8
0
100
AcDbLine
62
0
6
CONTINUOUS
10
-6.6698960292
20
82.3382978797
11
-6.4644789708
21
82.2148936391
0
LINE
5
3AA
100
AcDbEntity
8
0
100
AcDbLine
62
0
6
CONTINUOUS
10
-1.8125000000
20
72.7553191409
11
-1.4999997616
21
72.5638297852
0
LINE
5
3AB
100
AcDbEntity
8
0
100
AcDbLine
62
0
6
CONTINUOUS
10
-0.4375002384
20
75.2446808815
11
-0.7499997616
21
75.4361702204
0
LINE
5
3AC
100
AcDbEntity
8
0
100
AcDbLine
62
0
6
CONTINUOUS
10
3.6874997616
20
72.7553191409
11
4.0000000000
21
72.5638297852
0
LINE
5
3AD
100
AcDbEntity
8
0
100
AcDbLine
62
0
6
CONTINUOUS
10
5.0624995232
20
75.2446808815
11
4.7500000000
21
75.4361702204
0
LINE
5
3AE
100
AcDbEntity
8
0
100
AcDbLine
62
0
6
CONTINUOUS
10
-1.4375000000
20
72.8829787225
11
-1.6250000000
21
73.0106382817
0
LINE
5
3AF
100
AcDbEntity
8
0
100
AcDbLine
62
0
6
CONTINUOUS
10
0.6874997616
20
72.8191489428
11
0.8749997616
21
72.6914893612
0
LINE
5
3B0
100
AcDbEntity
8
0
100
AcDbLine
62
0
6
CONTINUOUS
10
-0.8125002384
20
75.1170213223
11
-0.6250002384
21
74.9893617630
0
LINE
5
3B1
100
AcDbEntity
8
0
100
AcDbLine
62
0
6
CONTINUOUS
10
2.1250000000
20
73.8404255509
11
2.3125000000
21
73.7127659917
0
LINE
5
3B2
100
AcDbEntity
8
0
100
AcDbLine
62
0
6
CONTINUOUS
10
4.0625004768
20
72.8829787225
11
3.8749997616
21
73.0106382817
0
LINE
5
3B3
100
AcDbEntity
8
0
100
AcDbLine
62
0
6
CONTINUOUS
10
2.0625002384
20
75.1170213223
11
2.2500002384
21
74.9893617630
0
LINE
5
3B4
100
AcDbEntity
8
0
100
AcDbLine
62
0
6
CONTINUOUS
10
4.6874995232
20
75.1170213223
11
4.8749995232
21
74.9893617630
0
LINE
5
3B5
100
AcDbEntity
8
0
100
AcDbLine
62
0
6
CONTINUOUS
10
3.2273960292
20
68.8382978797
11
3.4841664708
21
68.6531915188
0
LINE
5
3B6
100
AcDbEntity
8
0
100
AcDbLine
62
0
6
CONTINUOUS
10
3.3301039708
20
68.4063830376
11
3.1760414708
21
68.5297872782
0
LINE
5
3B7
100
AcDbEntity
8
0
100
AcDbLine
62
0
6
CONTINUOUS
10
-6.5671875000
20
81.8446809173
11
-6.7212500000
21
81.9680851579
0
LINE
5
3B8
100
AcDbEntity
8
0
100
AcDbLine
62
0
6
CONTINUOUS
10
9.7140290000
20
67.3591260000
11
8.2522240000
21
68.5909980000
0
LINE
5
3B9
100
AcDbEntity
8
0
100
AcDbLine
62
0
6
CONTINUOUS
10
8.1847520000
20
69.3215780000
11
9.7140290000
21
68.0328470000
0
LINE
5
3BA
100
AcDbEntity
8
0
100
AcDbLine
62
0
6
CONTINUOUS
10
5.2499995232
20
75.0531915426
11
5.0624995232
21
75.2446808815
0
LINE
5
3BB
100
AcDbEntity
8
0
100
AcDbLine
62
0
6
CONTINUOUS
10
1.8750002384
20
72.5000000000
11
2.1250000000
21
72.5638297852
0
LINE
5
3BC
100
AcDbEntity
8
0
100
AcDbLine
62
0
6
CONTINUOUS
10
-10.3160417646
20
68.5914893985
11
-10.5728125000
21
68.5297872782
0
LINE
5
3BD
100
AcDbEntity
8
0
100
AcDbLine
62
0
6
CONTINUOUS
10
-12.6783333088
20
68.5914893985
11
-12.9351041544
21
68.5297872782
0
LINE
5
3BE
100
AcDbEntity
8
0
100
AcDbLine
62
0
6
CONTINUOUS
10
-6.6698960292
20
79.5617021257
11
-6.9266664708
21
79.5000000000
0
LINE
5
3BF
100
AcDbEntity
8
0
100
AcDbLine
62
0
6
CONTINUOUS
10
4.6874995232
20
72.8829787225
11
4.3750000000
21
72.8191489428
0
LINE
5
3C0
100
AcDbEntity
8
0
100
AcDbLine
62
0
6
CONTINUOUS
10
2.1250000000
20
72.8829787225
11
1.8124997616
21
72.8191489428
0
LINE
5
3C1
100
AcDbEntity
8
0
100
AcDbLine
62
0
6
CONTINUOUS
10
-0.8125002384
20
72.8829787225
11
-1.1249997616
21
72.8191489428
0
LINE
5
3C2
100
AcDbEntity
8
0
100
AcDbLine
62
0
6
CONTINUOUS
10
4.0625004768
20
75.1170213223
11
4.3750000000
21
75.1808511019
0
LINE
5
3C3
100
AcDbEntity
8
0
100
AcDbLine
62
0
6
CONTINUOUS
10
1.1875000000
20
75.1170213223
11
1.5000002384
21
75.1808511019
0
LINE
5
3C4
100
AcDbEntity
8
0
100
AcDbLine
62
0
6
CONTINUOUS
10
-1.4375000000
20
75.1170213223
11
-1.1249997616
21
75.1808511019
0
LINE
5
3C5
100
AcDbEntity
8
0
100
AcDbLine
62
0
6
CONTINUOUS
10
-10.6241667646
20
68.8382978797
11
-10.3160417646
21
68.9000000000
0
LINE
5
3C6
100
AcDbEntity
8
0
100
AcDbLine
62
0
6
CONTINUOUS
10
-12.9864583456
20
68.8382978797
11
-12.6269791912
21
68.9000000000
0
LINE
5
3C7
100
AcDbEntity
8
0
100
AcDbLine
62
0
6
CONTINUOUS
10
4.3750000000
20
72.5000000000
11
4.7500000000
21
72.5638297852
0
LINE
5
3C8
100
AcDbEntity
8
0
100
AcDbLine
62
0
6
CONTINUOUS
10
-1.1249997616
20
72.5000000000
11
-0.7499997616
21
72.5638297852
0
LINE
5
3C9
100
AcDbEntity
8
0
100
AcDbLine
62
0
6
CONTINUOUS
10
4.3750000000
20
75.5000000000
11
4.0000000000
21
75.4361702204
0
LINE
5
3CA
100
AcDbEntity
8
0
100
AcDbLine
62
0
6
CONTINUOUS
10
-1.1249997616
20
75.5000000000
11
-1.4999997616
21
75.4361702204
0
LINE
5
3CB
100
AcDbEntity
8
0
100
AcDbLine
62
0
6
CONTINUOUS
10
1.5625000000
20
75.5000000000
11
1.1250002384
21
75.4361702204
0
LINE
5
3CC
100
AcDbEntity
8
0
100
AcDbLine
62
0
6
CONTINUOUS
10
-12.6269791912
20
68.9000000000
11
-12.4215625000
21
68.9000000000
0
LINE
5
3CD
100
AcDbEntity
8
0
100
AcDbLine
62
0
6
CONTINUOUS
10
-7.4402085292
20
68.9000000000
11
-7.1320835292
21
68.9000000000
0
LINE
5
3CE
100
AcDbEntity
8
0
100
AcDbLine
62
0
6
CONTINUOUS
10
-3.5000000000
20
68.9000000000
11
-3.1918750000
21
68.9000000000
0
LINE
5
3CF
100
AcDbEntity
8
0
100
AcDbLine
62
0
6
CONTINUOUS
10
-2.7810416912
20
68.9000000000
11
-1.5485416177
21
68.9000000000
0
LINE
5
3D0
100
AcDbEntity
8
0
100
AcDbLine
62
0
6
CONTINUOUS
10
0.7623957354
20
68.9000000000
11
1.0705207354
21
68.9000000000
0
LINE
5
3D1
100
AcDbEntity
8
0
100
AcDbLine
62
0
6
CONTINUOUS
10
10.7570340000
20
69.4189740000
11
10.2931860000
21
69.4189740000
0
LINE
5
3D2
100
AcDbEntity
8
0
100
AcDbLine
62
0
6
CONTINUOUS
10
9.7140290000
20
69.4189740000
11
9.2499930000
21
69.4189740000
0
LINE
5
3D3
100
AcDbEntity
8
0
100
AcDbLine
62
0
6
CONTINUOUS
10
9.2499930000
20
69.9656130000
11
10.7570340000
21
69.9656130000
0
LINE
5
3D4
100
AcDbEntity
8
0
100
AcDbLine
62
0
6
CONTINUOUS
10
-6.9999999702
20
72.5000000000
11
-6.5000000000
21
72.5000000000
0
LINE
5
3D5
100
AcDbEntity
8
0
100
AcDbLine
62
0
6
CONTINUOUS
10
-4.3749998808
20
72.5000000000
11
-3.9999998808
21
72.5000000000
0
LINE
5
3D6
100
AcDbEntity
8
0
100
AcDbLine
62
0
6
CONTINUOUS
10
1.3750000000
20
72.5000000000
11
1.8750002384
21
72.5000000000
0
LINE
5
3D7
100
AcDbEntity
8
0
100
AcDbLine
62
0
6
CONTINUOUS
10
6.6250000000
20
72.5000000000
11
7.0000000000
21
72.5000000000
0
LINE
5
3D8
100
AcDbEntity
8
0
100
AcDbLine
62
0
6
CONTINUOUS
10
1.8124997616
20
72.8191489428
11
1.4374997616
21
72.8191489428
0
LINE
5
3D9
100
AcDbEntity
8
0
100
AcDbLine
62
0
6
CONTINUOUS
10
0.8125000000
20
73.2021276653
11
0.4999997616
21
73.2021276653
0
LINE
5
3DA
100
AcDbEntity
8
0
100
AcDbLine
62
0
6
CONTINUOUS
10
1.5000002384
20
73.9042553306
11
1.7500000000
21
73.9042553306
0
LINE
5
3DB
100
AcDbEntity
8
0
100
AcDbLine
62
0
6
CONTINUOUS
10
1.7500000000
20
74.1595744491
11
1.5000002384
21
74.1595744491
0
LINE
5
3DC
100
AcDbEntity
8
0
100
AcDbLine
62
0
6
CONTINUOUS
10
0.5625002384
20
74.7978724241
11
0.8749997616
21
74.7978724241
0
LINE
5
3DD
100
AcDbEntity
8
0
100
AcDbLine
62
0
6
CONTINUOUS
10
-5.0000000000
20
75.1808511019
11
-3.1250000000
21
75.1808511019
0
LINE
5
3DE
100
AcDbEntity
8
0
100
AcDbLine
62
0
6
CONTINUOUS
10
1.5000002384
20
75.1808511019
11
1.7500000000
21
75.1808511019
0
LINE
5
3DF
100
AcDbEntity
8
0
100
AcDbLine
62
0
6
CONTINUOUS
10
5.9999995232
20
75.1808511019
11
7.8749995232
21
75.1808511019
0
LINE
5
3E0
100
AcDbEntity
8
0
100
AcDbLine
62
0
6
CONTINUOUS
10
8.2499995232
20
75.5000000000
11
5.9999995232
21
75.5000000000
0
LINE
5
3E1
100
AcDbEntity
8
0
100
AcDbLine
62
0
6
CONTINUOUS
10
1.6875002384
20
75.5000000000
11
1.5625000000
21
75.5000000000
0
LINE
5
3E2
100
AcDbEntity
8
0
100
AcDbLine
62
0
6
CONTINUOUS
10
-2.7500000000
20
75.5000000000
11
-5.0000000000
21
75.5000000000
0
LINE
5
3E3
100
AcDbEntity
8
0
100
AcDbLine
62
0
6
CONTINUOUS
10
-5.5000000596
20
75.5000000000
11
-5.8750000596
21
75.5000000000
0
LINE
5
3E4
100
AcDbEntity
8
0
100
AcDbLine
62
0
6
CONTINUOUS
10
-7.6250000000
20
75.5000000000
11
-8.0000000000
21
75.5000000000
0
LINE
5
3E5
100
AcDbEntity
8
0
100
AcDbLine
62
0
6
CONTINUOUS
10
13.6150000000
20
79.5000000000
11
13.3068750000
21
79.5000000000
0
LINE
5
3E6
100
AcDbEntity
8
0
100
AcDbLine
62
0
6
CONTINUOUS
10
12.0743750000
20
79.5000000000
11
10.2256250000
21
79.5000000000
0
LINE
5
3E7
100
AcDbEntity
8
0
100
AcDbLine
62
0
6
CONTINUOUS
10
9.8147908831
20
79.5000000000
11
9.5066658831
21
79.5000000000
0
LINE
5
3E8
100
AcDbEntity
8
0
100
AcDbLine
62
0
6
CONTINUOUS
10
8.0687500000
20
79.5000000000
11
7.7606250000
21
79.5000000000
0
LINE
5
3E9
100
AcDbEntity
8
0
100
AcDbLine
62
0
6
CONTINUOUS
10
6.5281250000
20
79.5000000000
11
6.2200000000
21
79.5000000000
0
LINE
5
3EA
100
AcDbEntity
8
0
100
AcDbLine
62
0
6
CONTINUOUS
10
4.9875000000
20
79.5000000000
11
4.6793750000
21
79.5000000000
0
LINE
5
3EB
100
AcDbEntity
8
0
100
AcDbLine
62
0
6
CONTINUOUS
10
1.8035420585
20
79.5000000000
11
1.3413545585
21
79.5000000000
0
LINE
5
3EC
100
AcDbEntity
8
0
100
AcDbLine
62
0
6
CONTINUOUS
10
0.0575000000
20
79.5000000000
11
-0.2506250000
21
79.5000000000
0
LINE
5
3ED
100
AcDbEntity
8
0
100
AcDbLine
62
0
6
CONTINUOUS
10
-0.6614579415
20
79.5000000000
11
-0.9695829415
21
79.5000000000
0
LINE
5
3EE
100
AcDbEntity
8
0
100
AcDbLine
62
0
6
CONTINUOUS
10
-3.8454164708
20
79.5000000000
11
-5.6941664708
21
79.5000000000
0
LINE
5
3EF
100
AcDbEntity
8
0
100
AcDbLine
62
0
6
CONTINUOUS
10
-6.9266664708
20
79.5000000000
11
-8.1591664708
21
79.5000000000
0
LINE
5
3F0
100
AcDbEntity
8
0
100
AcDbLine
62
0
6
CONTINUOUS
10
-8.5700000000
20
79.5000000000
11
-8.8781250000
21
79.5000000000
0
LINE
5
3F1
100
AcDbEntity
8
0
100
AcDbLine
62
0
6
CONTINUOUS
10
-10.3160417646
20
79.5000000000
11
-10.6241667646
21
79.5000000000
0
LINE
5
3F2
100
AcDbEntity
8
0
100
AcDbLine
62
0
6
CONTINUOUS
10
-11.0350000000
20
79.5000000000
11
-11.3431250000
21
79.5000000000
0
LINE
5
3F3
100
AcDbEntity
8
0
100
AcDbLine
62
0
6
CONTINUOUS
10
-12.0620833823
20
79.5000000000
11
-12.4729166912
21
79.5000000000
0
LINE
5
3F4
100
AcDbEntity
8
0
100
AcDbLine
62
0
6
CONTINUOUS
10
-13.1918750000
20
79.5000000000
11
-13.5000000000
21
79.5000000000
0
LINE
5
3F5
100
AcDbEntity
8
0
100
AcDbLine
62
0
6
CONTINUOUS
10
-7.8510414708
20
79.8702127650
11
-6.9266664708
21
79.8702127650
0
LINE
5
3F6
100
AcDbEntity
8
0
100
AcDbLine
62
0
6
CONTINUOUS
10
-5.3860414708
20
79.8702127650
11
-3.8454164708
21
79.8702127650
0
LINE
5
3F7
100
AcDbEntity
8
0
100
AcDbLine
62
0
6
CONTINUOUS
10
10.5337500000
20
79.8702127650
11
12.0743750000
21
79.8702127650
0
LINE
5
3F8
100
AcDbEntity
8
0
100
AcDbLine
62
0
6
CONTINUOUS
10
9.3012500000
20
80.2404255301
11
8.2741658831
21
80.2404255301
0
LINE
5
3F9
100
AcDbEntity
8
0
100
AcDbLine
62
0
6
CONTINUOUS
10
-9.0835417646
20
80.2404255301
11
-10.1106250000
21
80.2404255301
0
LINE
5
3FA
100
AcDbEntity
8
0
100
AcDbLine
62
0
6
CONTINUOUS
10
-10.0592707354
20
80.4872340113
11
-9.1348957354
21
80.4872340113
0
LINE
5
3FB
100
AcDbEntity
8
0
100
AcDbLine
62
0
6
CONTINUOUS
10
8.3255216169
20
80.4872340113
11
9.2498966169
21
80.4872340113
0
LINE
5
3FC
100
AcDbEntity
8
0
100
AcDbLine
62
0
6
CONTINUOUS
10
-4.0508335292
20
80.8574468195
11
-5.3860414708
21
80.8574468195
0
LINE
5
3FD
100
AcDbEntity
8
0
100
AcDbLine
62
0
6
CONTINUOUS
10
-5.3860414708
20
81.2276595414
11
-4.0508335292
21
81.2276595414
0
LINE
5
3FE
100
AcDbEntity
8
0
100
AcDbLine
62
0
6
CONTINUOUS
10
-3.8454164708
20
82.0297872782
11
-5.3860414708
21
82.0297872782
0
LINE
5
3FF
100
AcDbEntity
8
0
100
AcDbLine
62
0
6
CONTINUOUS
10
-6.9266664708
20
82.0297872782
11
-7.8510414708
21
82.0297872782
0
LINE
5
400
100
AcDbEntity
8
0
100
AcDbLine
62
0
6
CONTINUOUS
10
7.3497908831
20
82.0914893985
11
6.5281250000
21
82.0914893985
0
LINE
5
401
100
AcDbEntity
8
0
100
AcDbLine
62
0
6
CONTINUOUS
10
6.2200000000
20
82.0914893985
11
5.3983329415
21
82.0914893985
0
LINE
5
402
100
AcDbEntity
8
0
100
AcDbLine
62
0
6
CONTINUOUS
10
2.1250000000
20
75.4361702204
11
1.6875002384
21
75.5000000000
0
LINE
5
403
100
AcDbEntity
8
0
100
AcDbLine
62
0
6
CONTINUOUS
10
-1.4999997616
20
72.5638297852
11
-1.1249997616
21
72.5000000000
0
LINE
5
404
100
AcDbEntity
8
0
100
AcDbLine
62
0
6
CONTINUOUS
10
4.0000000000
20
72.5638297852
11
4.3750000000
21
72.5000000000
0
LINE
5
405
100
AcDbEntity
8
0
100
AcDbLine
62
0
6
CONTINUOUS
10
1.7500000000
20
73.9042553306
11
2.1250000000
21
73.8404255509
0
LINE
5
406
100
AcDbEntity
8
0
100
AcDbLine
62
0
6
CONTINUOUS
10
-0.7499997616
20
75.4361702204
11
-1.1249997616
21
75.5000000000
0
LINE
5
407
100
AcDbEntity
8
0
100
AcDbLine
62
0
6
CONTINUOUS
10
4.7500000000
20
75.4361702204
11
4.3750000000
21
75.5000000000
0
LINE
5
408
100
AcDbEntity
8
0
100
AcDbLine
62
0
6
CONTINUOUS
10
-1.1249997616
20
72.8191489428
11
-1.4375000000
21
72.8829787225
0
LINE
5
409
100
AcDbEntity
8
0
100
AcDbLine
62
0
6
CONTINUOUS
10
1.4374997616
20
72.8191489428
11
1.1250002384
21
72.8829787225
0
LINE
5
40A
100
AcDbEntity
8
0
100
AcDbLine
62
0
6
CONTINUOUS
10
4.3750000000
20
72.8191489428
11
4.0625004768
21
72.8829787225
0
LINE
5
40B
100
AcDbEntity
8
0
100
AcDbLine
62
0
6
CONTINUOUS
10
-1.1249997616
20
75.1808511019
11
-0.8125002384
21
75.1170213223
0
LINE
5
40C
100
AcDbEntity
8
0
100
AcDbLine
62
0
6
CONTINUOUS
10
1.7500000000
20
75.1808511019
11
2.0625002384
21
75.1170213223
0
LINE
5
40D
100
AcDbEntity
8
0
100
AcDbLine
62
0
6
CONTINUOUS
10
4.3750000000
20
75.1808511019
11
4.6874995232
21
75.1170213223
0
LINE
5
40E
100
AcDbEntity
8
0
100
AcDbLine
62
0
6
CONTINUOUS
10
-6.9266664708
20
82.4000000000
11
-6.6698960292
21
82.3382978797
0
LINE
5
40F
100
AcDbEntity
8
0
100
AcDbLine
62
0
6
CONTINUOUS
10
1.1250002384
20
72.5638297852
11
1.3750000000
21
72.5000000000
0
LINE
5
410
100
AcDbEntity
8
0
100
AcDbLine
62
0
6
CONTINUOUS
10
-6.7212500000
20
81.9680851579
11
-6.9266664708
21
82.0297872782
0
LINE
5
411
100
AcDbEntity
8
0
100
AcDbLine
62
0
6
CONTINUOUS
10
2.5624997616
20
73.9042553306
11
2.2500002384
21
74.0319148898
0
LINE
5
412
100
AcDbEntity
8
0
100
AcDbLine
62
0
6
CONTINUOUS
10
-13.5000000000
20
82.4000000000
11
-13.0378125000
21
82.4000000000
0
LINE
5
413
100
AcDbEntity
8
0
100
AcDbLine
62
0
6
CONTINUOUS
10
-11.4971875000
20
82.4000000000
11
-11.0350000000
21
82.4000000000
0
LINE
5
414
100
AcDbEntity
8
0
100
AcDbLine
62
0
6
CONTINUOUS
10
-9.8025000000
20
82.4000000000
11
-9.3916667646
21
82.4000000000
0
LINE
5
415
100
AcDbEntity
8
0
100
AcDbLine
62
0
6
CONTINUOUS
10
-8.1591664708
20
82.4000000000
11
-6.9266664708
21
82.4000000000
0
LINE
5
416
100
AcDbEntity
8
0
100
AcDbLine
62
0
6
CONTINUOUS
10
-5.6941664708
20
82.4000000000
11
-3.8454164708
21
82.4000000000
0
LINE
5
417
100
AcDbEntity
8
0
100
AcDbLine
62
0
6
CONTINUOUS
10
-0.9695829415
20
82.4000000000
11
-0.6614579415
21
82.4000000000
0
LINE
5
418
100
AcDbEntity
8
0
100
AcDbLine
62
0
6
CONTINUOUS
10
-0.2506250000
20
82.4000000000
11
0.2115625000
21
82.4000000000
0
LINE
5
419
100
AcDbEntity
8
0
100
AcDbLine
62
0
6
CONTINUOUS
10
1.4954170585
20
82.4000000000
11
1.8035420585
21
82.4000000000
0
LINE
5
41A
100
AcDbEntity
8
0
100
AcDbLine
62
0
6
CONTINUOUS
10
4.6793750000
20
82.4000000000
11
4.9875000000
21
82.4000000000
0
LINE
5
41B
100
AcDbEntity
8
0
100
AcDbLine
62
0
6
CONTINUOUS
10
5.3983329415
20
82.4000000000
11
7.3497908831
21
82.4000000000
0
LINE
5
41C
100
AcDbEntity
8
0
100
AcDbLine
62
0
6
CONTINUOUS
10
8.5822908831
20
82.4000000000
11
8.9931250000
21
82.4000000000
0
LINE
5
41D
100
AcDbEntity
8
0
100
AcDbLine
62
0
6
CONTINUOUS
10
10.2256250000
20
82.4000000000
11
10.5337500000
21
82.4000000000
0
LINE
5
41E
100
AcDbEntity
8
0
100
AcDbLine
62
0
6
CONTINUOUS
10
12.4852091169
20
82.4000000000
11
12.7933341169
21
82.4000000000
0
LINE
5
41F
100
AcDbEntity
8
0
100
AcDbLine
62
0
6
CONTINUOUS
10
14.1285408831
20
82.4000000000
11
14.4366658831
21
82.4000000000
0
LINE
5
420
100
AcDbEntity
8
0
100
AcDbLine
62
0
6
CONTINUOUS
10
13.3853953258
20
86.7095094051
11
12.0202437969
21
86.7095094051
0
LINE
5
421
100
AcDbEntity
8
0
100
AcDbLine
62
0
6
CONTINUOUS
10
9.8468613796
20
86.7095094051
11
8.4333240879
21
86.7095094051
0
LINE
5
422
100
AcDbEntity
8
0
100
AcDbLine
62
0
6
CONTINUOUS
10
8.0165640000
20
86.7095090000
11
6.5207350000
21
86.7095090000
0
LINE
5
423
100
AcDbEntity
8
0
100
AcDbLine
62
0
6
CONTINUOUS
10
3.8286720000
20
86.7095090000
11
2.4248220000
21
86.7095090000
0
LINE
5
424
100
AcDbEntity
8
0
100
AcDbLine
62
0
6
CONTINUOUS
10
2.2019620000
20
86.7095090000
11
0.8135610000
21
86.7095090000
0
LINE
5
425
100
AcDbEntity
8
0
100
AcDbLine
62
0
6
CONTINUOUS
10
-1.1655140000
20
86.7095090000
11
-1.3645630000
21
86.7095090000
0
LINE
5
426
100
AcDbEntity
8
0
100
AcDbLine
62
0
6
CONTINUOUS
10
-3.3357860000
20
86.7095090000
11
-4.6935450000
21
86.7095090000
0
LINE
5
427
100
AcDbEntity
8
0
100
AcDbLine
62
0
6
CONTINUOUS
10
-5.4575710000
20
86.7095090000
11
-6.8768190000
21
86.7095090000
0
LINE
5
428
100
AcDbEntity
8
0
100
AcDbLine
62
0
6
CONTINUOUS
10
-9.5890210000
20
86.7095090000
11
-10.8397350000
21
86.7095090000
0
LINE
5
429
100
AcDbEntity
8
0
100
AcDbLine
62
0
6
CONTINUOUS
10
6.1530750000
20
88.0668600000
11
4.2202960000
21
88.0668600000
0
LINE
5
42A
100
AcDbEntity
8
0
100
AcDbLine
62
0
6
CONTINUOUS
10
4.5106100000
20
89.1171730000
11
5.8694400000
21
89.1171730000
0
LINE
5
42B
100
AcDbEntity
8
0
100
AcDbLine
62
0
6
CONTINUOUS
10
10.6078281983
20
89.3703184747
11
9.8468613796
21
89.3703184747
0
LINE
5
42C
100
AcDbEntity
8
0
100
AcDbLine
62
0
6
CONTINUOUS
10
9.7998012541
20
90.4838538395
11
10.6108873614
21
90.4838538395
0
LINE
5
42D
100
AcDbEntity
8
0
100
AcDbLine
62
0
6
CONTINUOUS
10
-12.9951960000
20
93.5086520000
11
-11.4534540000
21
93.5086520000
0
LINE
5
42E
100
AcDbEntity
8
0
100
AcDbLine
62
0
6
CONTINUOUS
10
-8.8217830000
20
93.5086520000
11
-7.4035040000
21
93.5086520000
0
LINE
5
42F
100
AcDbEntity
8
0
100
AcDbLine
62
0
6
CONTINUOUS
10
-4.0796220000
20
93.5086520000
11
-2.6615470000
21
93.5086520000
0
LINE
5
430
100
AcDbEntity
8
0
100
AcDbLine
62
0
6
CONTINUOUS
10
0.1619590000
20
93.5086520000
11
1.5661660000
21
93.5086520000
0
LINE
5
431
100
AcDbEntity
8
0
100
AcDbLine
62
0
6
CONTINUOUS
10
4.5574660000
20
93.5086520000
11
5.9304190000
21
93.5086520000
0
LINE
5
432
100
AcDbEntity
8
0
100
AcDbLine
62
0
6
CONTINUOUS
10
-6.8768190000
20
93.5090600000
11
-5.4575710000
21
93.5090600000
0
LINE
5
433
100
AcDbEntity
8
0
100
AcDbLine
62
0
6
CONTINUOUS
10
139.3026603517
20
131.8129388410
11
139.3026603517
21
-131.8129388410
0
LINE
5
434
100
AcDbEntity
8
0
100
AcDbLine
62
0
6
CONTINUOUS
10
139.4965691350
20
132.0068476243
11
139.4965691350
21
-132.0068476243
0
LINE
5
435
100
AcDbEntity
8
0
100
AcDbLine
62
0
6
CONTINUOUS
10
142.0000000000
20
-132.0137046525
11
142.0000000000
21
132.0137046525
0
LINE
5
436
100
AcDbEntity
8
0
100
AcDbLine
62
0
6
CONTINUOUS
10
-131.8129388410
20
139.3026603517
11
131.8129388410
21
139.3026603517
0
LINE
5
437
100
AcDbEntity
8
0
100
AcDbLine
62
0
6
CONTINUOUS
10
-132.0068476243
20
139.4965691350
11
132.0068476243
21
139.4965691350
0
LINE
5
438
100
AcDbEntity
8
0
100
AcDbLine
62
0
6
CONTINUOUS
10
132.0137046525
20
142.0000000000
11
-132.0137046525
21
142.0000000000
0
ARC
5
439
100
AcDbEntity
8
0
100
AcDbCircle
62
0
6
CONTINUOUS
10
10.0000000000
20
67.5000000000
40
2.5716282219
100
AcDbArc
50
134.9002751525
51
240.6958553424
0
ARC
5
43A
100
AcDbEntity
8
0
100
AcDbCircle
62
0
6
CONTINUOUS
10
10.0000000000
20
67.5000000000
40
2.0603391911
100
AcDbArc
50
148.0267353487
51
240.6958433001
0
ARC
5
43B
100
AcDbEntity
8
0
100
AcDbCircle
62
0
6
CONTINUOUS
10
10.0000000000
20
67.5000000000
40
2.0603387957
100
AcDbArc
50
299.3041566999
51
31.9732630539
0
ARC
5
43C
100
AcDbEntity
8
0
100
AcDbCircle
62
0
6
CONTINUOUS
10
10.0000000000
20
67.5000000000
40
2.5716283267
100
AcDbArc
50
299.3041446576
51
44.9957783148
0
ARC
5
43D
100
AcDbEntity
8
0
100
AcDbCircle
62
0
6
CONTINUOUS
10
9.8964580000
20
61.0465270000
40
3.0518624790
100
AcDbArc
50
47.2312703930
51
84.2011519485
0
ARC
5
43E
100
AcDbEntity
8
0
100
AcDbCircle
62
0
6
CONTINUOUS
10
10.1366380000
20
61.5408600000
40
3.0152382548
100
AcDbArc
50
45.4348897783
51
67.5658706199
0
CIRCLE
5
43F
100
AcDbEntity
8
0
100
AcDbCircle
62
0
6
CONTINUOUS
10
10.0000000000
20
67.5000000000
40
2.8753830000
0
ARC
5
440
100
AcDbEntity
8
0
100
AcDbCircle
62
0
6
CONTINUOUS
10
3.4175560000
20
-76.0000000000
40
1.7999999246
100
AcDbArc
50
86.8152613297
51
167.9752998640
0
ARC
5
441
100
AcDbEntity
8
0
100
AcDbCircle
62
0
6
CONTINUOUS
10
3.4175560000
20
-76.0000000000
40
2.5499986575
100
AcDbArc
50
87.7525289475
51
272.2474707925
0
ARC
5
442
100
AcDbEntity
8
0
100
AcDbCircle
62
0
6
CONTINUOUS
10
3.4175560000
20
-76.0000000000
40
1.7999968808
100
AcDbArc
50
192.0247203293
51
273.1847446393
0
ARC
5
443
100
AcDbEntity
8
0
100
AcDbCircle
62
0
6
CONTINUOUS
10
-0.9675540000
20
-76.0000000000
40
1.7999999246
100
AcDbArc
50
90.9925630604
51
273.1847386491
0
ARC
5
444
100
AcDbEntity
8
0
100
AcDbCircle
62
0
6
CONTINUOUS
10
-0.9675540000
20
-76.0000000000
40
2.5499985399
100
AcDbArc
50
87.7525290943
51
272.2474708959
0
CIRCLE
5
445
100
AcDbEntity
8
0
100
AcDbCircle
62
0
6
CONTINUOUS
10
-112.0000000000
20
-112.0000000000
40
1.6500000000
0
CIRCLE
5
446
100
AcDbEntity
8
0
100
AcDbCircle
62
0
6
CONTINUOUS
10
112.0000000000
20
-112.0000000000
40
1.6500000000
0
CIRCLE
5
447
100
AcDbEntity
8
0
100
AcDbCircle
62
0
6
CONTINUOUS
10
-112.0000000000
20
112.0000000000
40
1.6500000000
0
CIRCLE
5
448
100
AcDbEntity
8
0
100
AcDbCircle
62
0
6
CONTINUOUS
10
112.0000000000
20
112.0000000000
40
1.6500000000
0
ARC
5
449
100
AcDbEntity
8
0
100
AcDbCircle
62
0
6
CONTINUOUS
10
10.0000000000
20
67.5000000000
40
3.4233595751
100
AcDbArc
50
292.0885369744
51
273.4298418820
0
CIRCLE
5
44A
100
AcDbEntity
8
0
100
AcDbCircle
62
9
6
CONTINUOUS
10
112.0000000000
20
112.0000000000
40
5.6694085785
0
CIRCLE
5
44B
100
AcDbEntity
8
0
100
AcDbCircle
62
9
6
CONTINUOUS
10
112.0000000000
20
-112.0000000000
40
5.6694085785
0
CIRCLE
5
44C
100
AcDbEntity
8
0
100
AcDbCircle
62
9
6
CONTINUOUS
10
-112.0000000000
20
-112.0000000000
40
5.6694085785
0
CIRCLE
5
44D
100
AcDbEntity
8
0
100
AcDbCircle
62
9
6
CONTINUOUS
10
-112.0000000000
20
112.0000000000
40
5.6694085785
0
CIRCLE
5
44E
100
AcDbEntity
8
0
100
AcDbCircle
62
0
6
CONTINUOUS
10
-112.0000000000
20
-112.0000000000
40
3.2000000000
0
CIRCLE
5
44F
100
AcDbEntity
8
0
100
AcDbCircle
62
9
6
CONTINUOUS
10
-112.0000000000
20
-112.0000000000
40
3.6843241450
0
CIRCLE
5
450
100
AcDbEntity
8
0
100
AcDbCircle
62
0
6
CONTINUOUS
10
112.0000000000
20
-112.0000000000
40
3.2000000000
0
CIRCLE
5
451
100
AcDbEntity
8
0
100
AcDbCircle
62
9
6
CONTINUOUS
10
112.0000000000
20
-112.0000000000
40
3.6843241450
0
CIRCLE
5
452
100
AcDbEntity
8
0
100
AcDbCircle
62
0
6
CONTINUOUS
10
-112.0000000000
20
112.0000000000
40
3.2000000000
0
CIRCLE
5
453
100
AcDbEntity
8
0
100
AcDbCircle
62
9
6
CONTINUOUS
10
-112.0000000000
20
112.0000000000
40
3.6843241450
0
CIRCLE
5
454
100
AcDbEntity
8
0
100
AcDbCircle
62
9
6
CONTINUOUS
10
112.0000000000
20
112.0000000000
40
3.6843241450
0
CIRCLE
5
455
100
AcDbEntity
8
0
100
AcDbCircle
62
0
6
CONTINUOUS
10
112.0000000000
20
112.0000000000
40
3.2000000000
0
SPLINE
5
456
100
AcDbEntity
8
0
100
AcDbSpline
62
0
6
CONTINUOUS
70
0
71
3
72
19
73
15
74
13
42
0.0000001000
43
0.0000001000
44
0.0000000001
12
0.0000000000
22
-15.6771721641
32
0.0000000000
13
15.6771721641
23
0.0000000000
33
0.0000000000
40
0.0000000000
40
0.0000000000
40
0.0000000000
40
0.0000000000
40
0.0834625428
40
0.1668608648
40
0.2502017384
40
0.3334957253
40
0.4167565359
40
0.5000001917
40
0.5832438251
40
0.6665045708
40
0.7497984665
40
0.8331392453
40
0.9165374917
40
1.0000000000
40
1.0000000000
40
1.0000000000
40
1.0000000000
10
-142.0000000000
20
-132.0137046525
30
0.0000000000
10
-142.0000000000
20
-132.4498568702
30
0.0000000000
10
-141.9428682151
20
-133.3229028694
30
0.0000000000
10
-141.6872147638
20
-134.6087786957
30
0.0000000000
10
-141.2661857946
20
-135.8496854519
30
0.0000000000
10
-140.6870945269
20
-137.0243054660
30
0.0000000000
10
-139.9598781377
20
-138.1128558625
30
0.0000000000
10
-139.0969209628
20
-139.0969250686
30
0.0000000000
10
-138.1128515082
20
-139.9598814407
30
0.0000000000
10
-137.0243015176
20
-140.6870967439
30
0.0000000000
10
-135.8496824621
20
-141.2661869633
30
0.0000000000
10
-134.6087769078
20
-141.6872151819
30
0.0000000000
10
-133.3229021123
20
-141.9428682765
30
0.0000000000
10
-132.4498566897
20
-142.0000000000
30
0.0000000000
10
-132.0137046525
20
-142.0000000000
30
0.0000000000
11
-142.0000000000
21
-132.0137046525
31
0.0000000000
11
-141.9144831924
21
-133.3193637537
31
0.0000000000
11
-141.6595374073
21
-134.6017161857
31
0.0000000000
11
-141.2397037038
21
-135.8389754707
31
0.0000000000
11
-140.6622793866
21
-137.0101850203
31
0.0000000000
11
-139.9371748530
21
-138.0955494789
31
0.0000000000
11
-139.0767368452
21
-139.0767411035
31
0.0000000000
11
-138.0955449788
21
-139.9371783057
31
0.0000000000
11
-137.0101809918
21
-140.6622817120
31
0.0000000000
11
-135.8389724961
21
-141.2397049356
31
0.0000000000
11
-134.6017145150
21
-141.6595378548
31
0.0000000000
11
-133.3193632158
21
-141.9144832632
31
0.0000000000
11
-132.0137046525
21
-142.0000000000
31
0.0000000000
0
SPLINE
5
457
100
AcDbEntity
8
0
100
AcDbSpline
62
0
6
CONTINUOUS
70
0
71
3
72
19
73
15
74
13
42
0.0000001000
43
0.0000001000
44
0.0000000001
12
-15.6771721641
22
0.0000000000
32
0.0000000000
13
-0.0000000000
23
-15.6771721641
33
0.0000000000
40
0.0000000000
40
0.0000000000
40
0.0000000000
40
0.0000000000
40
0.0834625428
40
0.1668608648
40
0.2502017384
40
0.3334957253
40
0.4167565359
40
0.5000001917
40
0.5832438251
40
0.6665045708
40
0.7497984665
40
0.8331392453
40
0.9165374917
40
1.0000000000
40
1.0000000000
40
1.0000000000
40
1.0000000000
10
-132.0137046525
20
142.0000000000
30
0.0000000000
10
-132.4498568702
20
142.0000000000
30
0.0000000000
10
-133.3229028694
20
141.9428682151
30
0.0000000000
10
-134.6087786957
20
141.6872147638
30
0.0000000000
10
-135.8496854519
20
141.2661857946
30
0.0000000000
10
-137.0243054660
20
140.6870945269
30
0.0000000000
10
-138.1128558625
20
139.9598781377
30
0.0000000000
10
-139.0969250686
20
139.0969209628
30
0.0000000000
10
-139.9598814407
20
138.1128515082
30
0.0000000000
10
-140.6870967439
20
137.0243015176
30
0.0000000000
10
-141.2661869633
20
135.8496824621
30
0.0000000000
10
-141.6872151819
20
134.6087769078
30
0.0000000000
10
-141.9428682765
20
133.3229021123
30
0.0000000000
10
-142.0000000000
20
132.4498566897
30
0.0000000000
10
-142.0000000000
20
132.0137046525
30
0.0000000000
11
-132.0137046525
21
142.0000000000
31
0.0000000000
11
-133.3193637537
21
141.9144831924
31
0.0000000000
11
-134.6017161857
21
141.6595374073
31
0.0000000000
11
-135.8389754707
21
141.2397037038
31
0.0000000000
11
-137.0101850203
21
140.6622793866
31
0.0000000000
11
-138.0955494789
21
139.9371748530
31
0.0000000000
11
-139.0767411035
21
139.0767368452
31
0.0000000000
11
-139.9371783057
21
138.0955449788
31
0.0000000000
11
-140.6622817120
21
137.0101809918
31
0.0000000000
11
-141.2397049356
21
135.8389724961
31
0.0000000000
11
-141.6595378548
21
134.6017145150
31
0.0000000000
11
-141.9144832632
21
133.3193632158
31
0.0000000000
11
-142.0000000000
21
132.0137046525
31
0.0000000000
0
SPLINE
5
458
100
AcDbEntity
8
0
100
AcDbSpline
62
0
6
CONTINUOUS
70
0
71
3
72
19
73
15
74
13
42
0.0000001000
43
0.0000001000
44
0.0000000001
12
0.0000000000
22
15.6771721641
32
0.0000000000
13
-15.6771721641
23
0.0000000000
33
0.0000000000
40
0.0000000000
40
0.0000000000
40
0.0000000000
40
0.0000000000
40
0.0834625428
40
0.1668608648
40
0.2502017384
40
0.3334957253
40
0.4167565359
40
0.5000001917
40
0.5832438251
40
0.6665045708
40
0.7497984665
40
0.8331392453
40
0.9165374917
40
1.0000000000
40
1.0000000000
40
1.0000000000
40
1.0000000000
10
142.0000000000
20
132.0137046525
30
0.0000000000
10
142.0000000000
20
132.4498568702
30
0.0000000000
10
141.9428682151
20
133.3229028694
30
0.0000000000
10
141.6872147638
20
134.6087786957
30
0.0000000000
10
141.2661857946
20
135.8496854519
30
0.0000000000
10
140.6870945269
20
137.0243054660
30
0.0000000000
10
139.9598781377
20
138.1128558625
30
0.0000000000
10
139.0969209628
20
139.0969250686
30
0.0000000000
10
138.1128515082
20
139.9598814407
30
0.0000000000
10
137.0243015176
20
140.6870967439
30
0.0000000000
10
135.8496824621
20
141.2661869633
30
0.0000000000
10
134.6087769078
20
141.6872151819
30
0.0000000000
10
133.3229021123
20
141.9428682765
30
0.0000000000
10
132.4498566897
20
142.0000000000
30
0.0000000000
10
132.0137046525
20
142.0000000000
30
0.0000000000
11
142.0000000000
21
132.0137046525
31
0.0000000000
11
141.9144831924
21
133.3193637537
31
0.0000000000
11
141.6595374073
21
134.6017161857
31
0.0000000000
11
141.2397037038
21
135.8389754707
31
0.0000000000
11
140.6622793866
21
137.0101850203
31
0.0000000000
11
139.9371748530
21
138.0955494789
31
0.0000000000
11
139.0767368452
21
139.0767411035
31
0.0000000000
11
138.0955449788
21
139.9371783057
31
0.0000000000
11
137.0101809918
21
140.6622817120
31
0.0000000000
11
135.8389724961
21
141.2397049356
31
0.0000000000
11
134.6017145150
21
141.6595378548
31
0.0000000000
11
133.3193632158
21
141.9144832632
31
0.0000000000
11
132.0137046525
21
142.0000000000
31
0.0000000000
0
SPLINE
5
459
100
AcDbEntity
8
0
100
AcDbSpline
62
0
6
CONTINUOUS
70
0
71
3
72
19
73
15
74
13
42
0.0000001000
43
0.0000001000
44
0.0000000001
12
15.6771721641
22
0.0000000000
32
0.0000000000
13
0.0000000000
23
15.6771721641
33
0.0000000000
40
0.0000000000
40
0.0000000000
40
0.0000000000
40
0.0000000000
40
0.0834625428
40
0.1668608648
40
0.2502017384
40
0.3334957253
40
0.4167565359
40
0.5000001917
40
0.5832438251
40
0.6665045708
40
0.7497984665
40
0.8331392453
40
0.9165374917
40
1.0000000000
40
1.0000000000
40
1.0000000000
40
1.0000000000
10
132.0137046525
20
-142.0000000000
30
0.0000000000
10
132.4498568702
20
-142.0000000000
30
0.0000000000
10
133.3229028694
20
-141.9428682151
30
0.0000000000
10
134.6087786957
20
-141.6872147638
30
0.0000000000
10
135.8496854519
20
-141.2661857946
30
0.0000000000
10
137.0243054660
20
-140.6870945269
30
0.0000000000
10
138.1128558625
20
-139.9598781377
30
0.0000000000
10
139.0969250686
20
-139.0969209628
30
0.0000000000
10
139.9598814407
20
-138.1128515082
30
0.0000000000
10
140.6870967439
20
-137.0243015176
30
0.0000000000
10
141.2661869633
20
-135.8496824621
30
0.0000000000
10
141.6872151819
20
-134.6087769078
30
0.0000000000
10
141.9428682765
20
-133.3229021123
30
0.0000000000
10
142.0000000000
20
-132.4498566897
30
0.0000000000
10
142.0000000000
20
-132.0137046525
30
0.0000000000
11
132.0137046525
21
-142.0000000000
31
0.0000000000
11
133.3193637537
21
-141.9144831924
31
0.0000000000
11
134.6017161857
21
-141.6595374073
31
0.0000000000
11
135.8389754707
21
-141.2397037038
31
0.0000000000
11
137.0101850203
21
-140.6622793866
31
0.0000000000
11
138.0955494789
21
-139.9371748530
31
0.0000000000
11
139.0767411035
21
-139.0767368452
31
0.0000000000
11
139.9371783057
21
-138.0955449788
31
0.0000000000
11
140.6622817120
21
-137.0101809918
31
0.0000000000
11
141.2397049356
21
-135.8389724961
31
0.0000000000
11
141.6595378548
21
-134.6017145150
31
0.0000000000
11
141.9144832632
21
-133.3193632158
31
0.0000000000
11
142.0000000000
21
-132.0137046525
31
0.0000000000
0
SPLINE
5
45A
100
AcDbEntity
8
0
100
AcDbSpline
62
0
6
CONTINUOUS
70
0
71
3
72
9
73
5
74
3
42
0.0000001000
43
0.0000001000
44
0.0000000001
12
-1.1084365282
22
0.1286591424
32
0.0000000000
13
-1.0999797776
23
-0.1876944346
33
0.0000000000
40
0.0000000000
40
0.0000000000
40
0.0000000000
40
0.0000000000
40
0.4842609893
40
1.0000000000
40
1.0000000000
40
1.0000000000
40
1.0000000000
10
10.9116540792
20
92.3903752632
30
0.0000000000
10
10.7327298893
20
92.4111434644
30
0.0000000000
10
10.3593448749
20
92.4299754081
30
0.0000000000
10
9.9889020816
20
92.3826183268
30
0.0000000000
10
9.7998012541
20
92.3503512128
30
0.0000000000
11
10.9116540792
21
92.3903752632
31
0.0000000000
11
10.3717882729
21
92.4138607132
31
0.0000000000
11
9.7998012541
21
92.3503512128
31
0.0000000000
0
SPLINE
5
45B
100
AcDbEntity
8
0
100
AcDbSpline
62
0
6
CONTINUOUS
70
0
71
3
72
11
73
7
74
5
42
0.0000001000
43
0.0000001000
44
0.0000000001
12
-0.0199228763
22
1.2738013685
32
0.0000000000
13
-1.2654570610
23
0.1469192778
33
0.0000000000
40
0.0000000000
40
0.0000000000
40
0.0000000000
40
0.0000000000
40
0.2569033780
40
0.4995192092
40
0.7436839975
40
1.0000000000
40
1.0000000000
40
1.0000000000
40
1.0000000000
10
11.7133587529
20
91.5404377847
30
0.0000000000
10
11.7116526682
20
91.6495190762
30
0.0000000000
10
11.6701788971
20
91.8638191528
30
0.0000000000
10
11.4918305882
20
92.1335442144
30
0.0000000000
10
11.2289765987
20
92.3196886500
30
0.0000000000
10
11.0197730442
20
92.3778226759
30
0.0000000000
10
10.9116540792
20
92.3903752632
30
0.0000000000
11
11.7133587529
21
91.5404377847
31
0.0000000000
11
11.6482766515
21
91.8611854581
31
0.0000000000
11
11.4784277741
21
92.1194162658
31
0.0000000000
11
11.2256182177
21
92.3006422025
31
0.0000000000
11
10.9116540792
21
92.3903752632
31
0.0000000000
0
SPLINE
5
45C
100
AcDbEntity
8
0
100
AcDbSpline
62
0
6
CONTINUOUS
70
0
71
3
72
12
73
8
74
6
42
0.0000001000
43
0.0000001000
44
0.0000000001
12
1.7324893699
22
0.0386964122
32
0.0000000000
13
-0.0267363248
23
1.7327152097
33
0.0000000000
40
0.0000000000
40
0.0000000000
40
0.0000000000
40
0.0000000000
40
0.2461828215
40
0.4748169077
40
0.5887722877
40
0.7094427184
40
1.0000000000
40
1.0000000000
40
1.0000000000
40
1.0000000000
10
10.6108873614
20
90.4838538395
30
0.0000000000
10
10.7530570685
20
90.4870293035
30
0.0000000000
10
11.0283069357
20
90.5187192433
30
0.0000000000
10
11.3458204821
20
90.6666414441
30
0.0000000000
10
11.5345631284
20
90.8603884493
30
0.0000000000
10
11.6853817717
20
91.1271951595
30
0.0000000000
10
11.7159482309
20
91.3726201110
30
0.0000000000
10
11.7133587529
20
91.5404377847
30
0.0000000000
11
10.6108873614
21
90.4838538395
31
0.0000000000
11
11.0333211379
21
90.5434398039
31
0.0000000000
11
11.3875451373
21
90.7209326057
31
0.0000000000
11
11.5251718260
21
90.8625502474
31
0.0000000000
11
11.6290580967
21
91.0440320107
31
0.0000000000
11
11.7133587529
21
91.5404377847
31
0.0000000000
0
SPLINE
5
45D
100
AcDbEntity
8
0
100
AcDbSpline
62
0
6
CONTINUOUS
70
0
71
3
72
30
73
26
74
24
42
0.0000001000
43
0.0000001000
44
0.0000000001
12
3.9931466858
22
-1.4405417714
32
0.0000000000
13
-4.2101386363
23
-0.5432436950
33
0.0000000000
40
0.0000000000
40
0.0000000000
40
0.0000000000
40
0.0000000000
40
0.0797881799
40
0.1315384647
40
0.1894778454
40
0.2530302088
40
0.3223412832
40
0.3594612417
40
0.3984566782
40
0.4395805625
40
0.4610373312
40
0.4831416449
40
0.5106430220
40
0.5371428810
40
0.5873949815
40
0.6344061030
40
0.6785762786
40
0.7593940158
40
0.8310702949
40
0.8931413421
40
0.9200840425
40
0.9438866826
40
0.9805672369
40
0.9926466110
40
1.0000000000
40
1.0000000000
40
1.0000000000
40
1.0000000000
10
11.9358108956
20
93.3576316462
30
0.0000000000
10
12.0420128643
20
93.3193189108
30
0.0000000000
10
12.2070537976
20
93.2281583520
30
0.0000000000
10
12.4199808774
20
93.0648924990
30
0.0000000000
10
12.5942375332
20
92.8912235202
30
0.0000000000
10
12.7571557102
20
92.6747416829
30
0.0000000000
10
12.8703144045
20
92.4611465258
30
0.0000000000
10
12.9435251962
20
92.2686132763
30
0.0000000000
10
12.9890661566
20
92.1088713600
30
0.0000000000
10
13.0164425951
20
91.9675787705
30
0.0000000000
10
13.0317759770
20
91.8487032607
30
0.0000000000
10
13.0403701299
20
91.7484876557
30
0.0000000000
10
13.0447886114
20
91.6408428649
30
0.0000000000
10
13.0438466796
20
91.4932818550
30
0.0000000000
10
13.0301005515
20
91.3183920949
30
0.0000000000
10
12.9947965266
20
91.1210640342
30
0.0000000000
10
12.9287060876
20
90.8865036664
30
0.0000000000
10
12.8161104981
20
90.6301484572
30
0.0000000000
10
12.6470275372
20
90.3764166565
30
0.0000000000
10
12.4932509612
20
90.2078227939
30
0.0000000000
10
12.3738539714
20
90.1016502355
30
0.0000000000
10
12.2762046141
20
90.0257566648
30
0.0000000000
10
12.1899306019
20
89.9689226929
30
0.0000000000
10
12.1185781526
20
89.9345485598
30
0.0000000000
10
12.0924604592
20
89.9247977082
30
0.0000000000
10
12.0821408634
20
89.9234661474
30
0.0000000000
11
11.9358108956
21
93.3576316462
31
0.0000000000
11
12.2358956750
21
93.2005659279
31
0.0000000000
11
12.4101472776
21
93.0667876903
31
0.0000000000
11
12.5843917102
21
92.8931997031
31
0.0000000000
11
12.7465189891
21
92.6775673431
31
0.0000000000
11
12.8844191303
21
92.4176559874
31
0.0000000000
11
12.9404996543
21
92.2703973664
31
0.0000000000
11
12.9859821499
21
92.1112310128
31
0.0000000000
11
13.0193528691
21
91.9398775988
31
0.0000000000
11
13.0310232664
21
91.8495434542
31
0.0000000000
11
13.0390980640
21
91.7560577965
31
0.0000000000
11
13.0439070812
21
91.6394123877
31
0.0000000000
11
13.0431277297
21
91.5269220745
31
0.0000000000
11
13.0261434245
21
91.3142770043
31
0.0000000000
11
12.9908241568
21
91.1178631244
31
0.0000000000
11
12.9398489348
21
90.9374209737
31
0.0000000000
11
12.8016466615
21
90.6234140148
31
0.0000000000
11
12.6329686708
21
90.3701804377
31
0.0000000000
11
12.4552470293
21
90.1756445523
31
0.0000000000
11
12.3696923609
21
90.0997396288
31
0.0000000000
11
12.2899138032
21
90.0377306688
31
0.0000000000
11
12.1584010588
21
89.9543630782
31
0.0000000000
11
12.1120248885
21
89.9324855181
31
0.0000000000
11
12.0821408634
21
89.9234661474
31
0.0000000000
0
SPLINE
5
45E
100
AcDbEntity
8
0
100
AcDbSpline
62
0
6
CONTINUOUS
70
0
71
3
72
10
73
6
74
4
42
0.0000001000
43
0.0000001000
44
0.0000000001
12
3.4925696977
22
0.5138164739
32
0.0000000000
13
3.3201324088
23
-1.1994879118
33
0.0000000000
40
0.0000000000
40
0.0000000000
40
0.0000000000
40
0.0000000000
40
0.4151262789
40
0.7045762354
40
1.0000000000
40
1.0000000000
40
1.0000000000
40
1.0000000000
10
8.4333240879
20
93.4292160625
30
0.0000000000
10
8.9166099087
20
93.5003156361
30
0.0000000000
10
9.7430580708
20
93.5903595329
30
0.0000000000
10
10.9202150831
20
93.5905804674
30
0.0000000000
10
11.6088622239
20
93.4757507243
30
0.0000000000
10
11.9358108956
20
93.3576316462
30
0.0000000000
11
8.4333240879
21
93.4292160625
31
0.0000000000
11
9.8914964811
21
93.5752170109
31
0.0000000000
11
10.9132219002
21
93.5624234953
31
0.0000000000
11
11.9358108956
21
93.3576316462
31
0.0000000000
0
SPLINE
5
45F
100
AcDbEntity
8
0
100
AcDbSpline
62
0
6
CONTINUOUS
70
0
71
3
72
10
73
6
74
4
42
0.0000001000
43
0.0000001000
44
0.0000000001
12
-0.3706368194
22
0.9876067244
32
0.0000000000
13
-1.0548643013
23
0.0000000000
33
0.0000000000
40
0.0000000000
40
0.0000000000
40
0.0000000000
40
0.0000000000
40
0.3697930287
40
0.6482659948
40
1.0000000000
40
1.0000000000
40
1.0000000000
40
1.0000000000
10
11.3996415781
20
88.7712323696
30
0.0000000000
10
11.3539552741
20
88.8929690636
30
0.0000000000
10
11.2412132996
20
89.0990298034
30
0.0000000000
10
10.9578785941
20
89.3203150840
30
0.0000000000
10
10.7315054135
20
89.3703184747
30
0.0000000000
10
10.6078281983
20
89.3703184747
30
0.0000000000
11
11.3996415781
21
88.7712323696
31
0.0000000000
11
11.2022498763
21
89.1076845435
31
0.0000000000
11
10.9693001836
21
89.2866376177
31
0.0000000000
11
10.6078281983
21
89.3703184747
31
0.0000000000
0
SPLINE
5
460
100
AcDbEntity
8
0
100
AcDbSpline
62
0
6
CONTINUOUS
70
0
71
3
72
12
73
8
74
6
42
0.0000001000
43
0.0000001000
44
0.0000000001
12
-0.5949717756
22
2.0694381423
32
0.0000000000
13
-0.7572755036
23
2.0157131369
33
0.0000000000
40
0.0000000000
40
0.0000000000
40
0.0000000000
40
0.0000000000
40
0.1342633083
40
0.4413587159
40
0.7777549272
40
0.9121016175
40
1.0000000000
40
1.0000000000
40
1.0000000000
40
1.0000000000
10
12.0202437969
20
86.7095094051
30
0.0000000000
10
11.9936161706
20
86.8021259422
30
0.0000000000
10
11.9055458769
20
87.1064274937
30
0.0000000000
10
11.7489346183
20
87.6422327665
30
0.0000000000
10
11.5901818259
20
88.1775433296
30
0.0000000000
10
11.4708658898
20
88.5602878471
30
0.0000000000
10
11.4218293420
20
88.7121730615
30
0.0000000000
10
11.3996415781
20
88.7712323696
30
0.0000000000
11
12.0202437969
21
86.7095094051
31
0.0000000000
11
11.9399590889
21
86.9872431742
31
0.0000000000
11
11.7544343907
21
87.6219430363
31
0.0000000000
11
11.5466638408
21
88.3158568239
31
0.0000000000
11
11.4603720399
21
88.5919713875
31
0.0000000000
11
11.3996415781
21
88.7712323696
31
0.0000000000
0
SPLINE
5
461
100
AcDbEntity
8
0
100
AcDbSpline
62
0
6
CONTINUOUS
70
0
71
3
72
9
73
5
74
3
42
0.0000001000
43
0.0000001000
44
0.0000000001
12
0.5002624781
22
-1.8361981698
32
0.0000000000
13
0.4988132883
23
-1.8365923797
33
0.0000000000
40
0.0000000000
40
0.0000000000
40
0.0000000000
40
0.0000000000
40
0.8019858277
40
1.0000000000
40
1.0000000000
40
1.0000000000
40
1.0000000000
10
12.9002120597
20
88.5497489619
30
0.0000000000
10
13.0339465322
20
88.0588806589
30
0.0000000000
10
13.1913229012
20
87.4443066968
30
0.0000000000
10
13.3524712923
20
86.8307331785
30
0.0000000000
10
13.3853953258
20
86.7095094051
30
0.0000000000
11
12.9002120597
21
88.5497489619
31
0.0000000000
11
13.2887998613
21
87.0737649103
31
0.0000000000
11
13.3853953258
21
86.7095094051
31
0.0000000000
0
SPLINE
5
462
100
AcDbEntity
8
0
100
AcDbSpline
62
0
6
CONTINUOUS
70
0
71
3
72
11
73
7
74
5
42
0.0000001000
43
0.0000001000
44
0.0000000001
12
1.5041490796
22
-0.5997794455
32
0.0000000000
13
0.4256393424
23
-1.5623799113
33
0.0000000000
40
0.0000000000
40
0.0000000000
40
0.0000000000
40
0.0000000000
40
0.2519252755
40
0.5058192897
40
0.7627621832
40
1.0000000000
40
1.0000000000
40
1.0000000000
40
1.0000000000
10
12.0821408634
20
89.8832891389
30
0.0000000000
10
12.2084519205
20
89.8329226049
30
0.0000000000
10
12.4381915458
20
89.6654929329
30
0.0000000000
10
12.6572068013
20
89.3108200585
30
0.0000000000
10
12.7977732368
20
88.9310961081
30
0.0000000000
10
12.8665528103
20
88.6733008283
30
0.0000000000
10
12.9002120597
20
88.5497489619
30
0.0000000000
11
12.0821408634
21
89.8832891389
31
0.0000000000
11
12.4163361079
21
89.6493340650
31
0.0000000000
11
12.6438095800
21
89.3068599604
31
0.0000000000
11
12.7949664929
21
88.9192154008
31
0.0000000000
11
12.9002120597
21
88.5497489619
31
0.0000000000
0
SPLINE
5
463
100
AcDbEntity
8
0
100
AcDbSpline
62
0
6
CONTINUOUS
70
0
71
3
72
18
73
14
74
12
42
0.0000001000
43
0.0000001000
44
0.0000000001
12
11.7562830173
22
0.0000000000
32
0.0000000000
13
0.0000000000
23
-11.7562830173
33
0.0000000000
40
0.0000000000
40
0.0000000000
40
0.0000000000
40
0.0000000000
40
0.0910271321
40
0.1820667041
40
0.2728626681
40
0.3638485749
40
0.4545193613
40
0.5454805948
40
0.6361513749
40
0.7271373022
40
0.8179332548
40
0.9089728574
40
1.0000000000
40
1.0000000000
40
1.0000000000
40
1.0000000000
10
131.8129388410
20
139.3026603517
30
0.0000000000
10
132.1696524168
20
139.3026603517
30
0.0000000000
10
132.8841756338
20
139.2516558772
30
0.0000000000
10
133.9324326252
20
139.0236984263
30
0.0000000000
10
134.9376472786
20
138.6489579559
30
0.0000000000
10
135.8779695702
20
138.1356199869
30
0.0000000000
10
136.7361522706
20
137.4932816297
30
0.0000000000
10
137.4932812720
20
136.7361526807
30
0.0000000000
10
138.1356197258
20
135.8779699839
30
0.0000000000
10
138.6489577603
20
134.9376477132
30
0.0000000000
10
139.0236983408
20
133.9324329359
30
0.0000000000
10
139.2516558598
20
132.8841758366
30
0.0000000000
10
139.3026603517
20
132.1696524579
30
0.0000000000
10
139.3026603517
20
131.8129388410
30
0.0000000000
11
131.8129388410
21
139.3026603517
31
0.0000000000
11
132.8803580184
21
139.2263879725
31
0.0000000000
11
133.9262037935
21
138.9989658517
31
0.0000000000
11
134.9263720827
21
138.6260645778
31
0.0000000000
11
135.8652310298
21
138.1135141050
31
0.0000000000
11
136.7186054400
21
137.4747617588
31
0.0000000000
11
137.4747614198
21
136.7186058314
31
0.0000000000
11
138.1135137851
21
135.8652315277
31
0.0000000000
11
138.6260644322
21
134.9263724016
31
0.0000000000
11
138.9989657150
21
133.9262042592
31
0.0000000000
11
139.2263879549
21
132.8803581410
31
0.0000000000
11
139.3026603517
21
131.8129388410
31
0.0000000000
0
SPLINE
5
464
100
AcDbEntity
8
0
100
AcDbSpline
62
0
6
CONTINUOUS
70
0
71
3
72
18
73
14
74
12
42
0.0000001000
43
0.0000001000
44
0.0000000001
12
0.0000000000
22
-11.7562830173
32
0.0000000000
13
-11.7562830173
23
0.0000000000
33
0.0000000000
40
0.0000000000
40
0.0000000000
40
0.0000000000
40
0.0000000000
40
0.0910271321
40
0.1820667041
40
0.2728626681
40
0.3638485749
40
0.4545193613
40
0.5454805948
40
0.6361513749
40
0.7271373022
40
0.8179332548
40
0.9089728574
40
1.0000000000
40
1.0000000000
40
1.0000000000
40
1.0000000000
10
139.3026603517
20
-131.8129388410
30
0.0000000000
10
139.3026603517
20
-132.1696524168
30
0.0000000000
10
139.2516558772
20
-132.8841756338
30
0.0000000000
10
139.0236984263
20
-133.9324326252
30
0.0000000000
10
138.6489579559
20
-134.9376472786
30
0.0000000000
10
138.1356199869
20
-135.8779695702
30
0.0000000000
10
137.4932816297
20
-136.7361522706
30
0.0000000000
10
136.7361526807
20
-137.4932812720
30
0.0000000000
10
135.8779699839
20
-138.1356197258
30
0.0000000000
10
134.9376477132
20
-138.6489577603
30
0.0000000000
10
133.9324329359
20
-139.0236983408
30
0.0000000000
10
132.8841758366
20
-139.2516558598
30
0.0000000000
10
132.1696524579
20
-139.3026603517
30
0.0000000000
10
131.8129388410
20
-139.3026603517
30
0.0000000000
11
139.3026603517
21
-131.8129388410
31
0.0000000000
11
139.2263879725
21
-132.8803580184
31
0.0000000000
11
138.9989658517
21
-133.9262037935
31
0.0000000000
11
138.6260645778
21
-134.9263720827
31
0.0000000000
11
138.1135141050
21
-135.8652310298
31
0.0000000000
11
137.4747617588
21
-136.7186054400
31
0.0000000000
11
136.7186058314
21
-137.4747614198
31
0.0000000000
11
135.8652315277
21
-138.1135137851
31
0.0000000000
11
134.9263724016
21
-138.6260644322
31
0.0000000000
11
133.9262042592
21
-138.9989657150
31
0.0000000000
11
132.8803581410
21
-139.2263879549
31
0.0000000000
11
131.8129388410
21
-139.3026603517
31
0.0000000000
0
SPLINE
5
465
100
AcDbEntity
8
0
100
AcDbSpline
62
0
6
CONTINUOUS
70
0
71
3
72
18
73
14
74
12
42
0.0000001000
43
0.0000001000
44
0.0000000001
12
-11.7562830173
22
0.0000000000
32
0.0000000000
13
0.0000000000
23
11.7562830173
33
0.0000000000
40
0.0000000000
40
0.0000000000
40
0.0000000000
40
0.0000000000
40
0.0910271321
40
0.1820667041
40
0.2728626681
40
0.3638485749
40
0.4545193613
40
0.5454805948
40
0.6361513749
40
0.7271373022
40
0.8179332548
40
0.9089728574
40
1.0000000000
40
1.0000000000
40
1.0000000000
40
1.0000000000
10
-131.8129388410
20
-139.3026603517
30
0.0000000000
10
-132.1696524168
20
-139.3026603517
30
0.0000000000
10
-132.8841756338
20
-139.2516558772
30
0.0000000000
10
-133.9324326252
20
-139.0236984263
30
0.0000000000
10
-134.9376472786
20
-138.6489579559
30
0.0000000000
10
-135.8779695702
20
-138.1356199869
30
0.0000000000
10
-136.7361522706
20
-137.4932816297
30
0.0000000000
10
-137.4932812720
20
-136.7361526807
30
0.0000000000
10
-138.1356197258
20
-135.8779699839
30
0.0000000000
10
-138.6489577603
20
-134.9376477132
30
0.0000000000
10
-139.0236983408
20
-133.9324329359
30
0.0000000000
10
-139.2516558598
20
-132.8841758366
30
0.0000000000
10
-139.3026603517
20
-132.1696524579
30
0.0000000000
10
-139.3026603517
20
-131.8129388410
30
0.0000000000
11
-131.8129388410
21
-139.3026603517
31
0.0000000000
11
-132.8803580184
21
-139.2263879725
31
0.0000000000
11
-133.9262037935
21
-138.9989658517
31
0.0000000000
11
-134.9263720827
21
-138.6260645778
31
0.0000000000
11
-135.8652310298
21
-138.1135141050
31
0.0000000000
11
-136.7186054400
21
-137.4747617588
31
0.0000000000
11
-137.4747614198
21
-136.7186058314
31
0.0000000000
11
-138.1135137851
21
-135.8652315277
31
0.0000000000
11
-138.6260644322
21
-134.9263724016
31
0.0000000000
11
-138.9989657150
21
-133.9262042592
31
0.0000000000
11
-139.2263879549
21
-132.8803581410
31
0.0000000000
11
-139.3026603517
21
-131.8129388410
31
0.0000000000
0
SPLINE
5
466
100
AcDbEntity
8
0
100
AcDbSpline
62
0
6
CONTINUOUS
70
0
71
3
72
18
73
14
74
12
42
0.0000001000
43
0.0000001000
44
0.0000000001
12
0.0000000000
22
11.7562830627
32
0.0000000000
13
-11.7562830626
23
0.0000000000
33
0.0000000000
40
0.0000000000
40
0.0000000000
40
0.0000000000
40
0.0000000000
40
0.0910466428
40
0.1820175350
40
0.2729222065
40
0.3637752898
40
0.4545956532
40
0.5454047950
40
0.6362250956
40
0.7270780684
40
0.8179826155
40
0.9089534049
40
1.0000000000
40
1.0000000000
40
1.0000000000
40
1.0000000000
10
139.4965691350
20
132.0068476243
30
0.0000000000
10
139.4965691350
20
132.3636376590
30
0.0000000000
10
139.4455670392
20
133.0779693451
30
0.0000000000
10
139.2175864433
20
134.1264525762
30
0.0000000000
10
138.8429605121
20
135.1313340399
30
0.0000000000
10
138.3294039863
20
136.0720813562
30
0.0000000000
10
137.6873719315
20
136.9298504210
30
0.0000000000
10
136.9298465897
20
137.6873752277
30
0.0000000000
10
136.0720776526
20
138.3294063080
30
0.0000000000
10
135.1313311045
20
138.8429617794
30
0.0000000000
10
134.1264507691
20
139.2175869069
30
0.0000000000
10
133.0779685670
20
139.4455671082
30
0.0000000000
10
132.3636374723
20
139.4965691350
30
0.0000000000
10
132.0068476243
20
139.4965691350
30
0.0000000000
11
139.4965691350
21
132.0068476243
31
0.0000000000
11
139.4202640491
21
133.0744944263
31
0.0000000000
11
139.1930378652
21
134.1195565248
31
0.0000000000
11
138.8196819420
21
135.1209192411
31
0.0000000000
11
138.3078898586
21
136.0584131665
31
0.0000000000
11
137.6680817477
21
136.9131938475
31
0.0000000000
11
136.9131898554
21
137.6680852067
31
0.0000000000
11
136.0584093456
21
138.3078923137
31
0.0000000000
11
135.1209162931
21
138.8196832880
31
0.0000000000
11
134.1195548226
21
139.1930383648
31
0.0000000000
11
133.0744938704
21
139.4202641290
31
0.0000000000
11
132.0068476243
21
139.4965691350
31
0.0000000000
0
SPLINE
5
467
100
AcDbEntity
8
0
100
AcDbSpline
62
0
6
CONTINUOUS
70
0
71
3
72
18
73
14
74
12
42
0.0000001000
43
0.0000001000
44
0.0000000001
12
-11.7562830627
22
0.0000000000
32
0.0000000000
13
0.0000000000
23
-11.7562830626
33
0.0000000000
40
0.0000000000
40
0.0000000000
40
0.0000000000
40
0.0000000000
40
0.0910466428
40
0.1820175350
40
0.2729222065
40
0.3637752898
40
0.4545956532
40
0.5454047950
40
0.6362250956
40
0.7270780684
40
0.8179826155
40
0.9089534049
40
1.0000000000
40
1.0000000000
40
1.0000000000
40
1.0000000000
10
-132.0068476243
20
139.4965691350
30
0.0000000000
10
-132.3636376590
20
139.4965691350
30
0.0000000000
10
-133.0779693451
20
139.4455670392
30
0.0000000000
10
-134.1264525762
20
139.2175864433
30
0.0000000000
10
-135.1313340399
20
138.8429605121
30
0.0000000000
10
-136.0720813562
20
138.3294039863
30
0.0000000000
10
-136.9298504210
20
137.6873719315
30
0.0000000000
10
-137.6873752277
20
136.9298465897
30
0.0000000000
10
-138.3294063080
20
136.0720776526
30
0.0000000000
10
-138.8429617794
20
135.1313311045
30
0.0000000000
10
-139.2175869069
20
134.1264507691
30
0.0000000000
10
-139.4455671082
20
133.0779685670
30
0.0000000000
10
-139.4965691350
20
132.3636374723
30
0.0000000000
10
-139.4965691350
20
132.0068476243
30
0.0000000000
11
-132.0068476243
21
139.4965691350
31
0.0000000000
11
-133.0744944263
21
139.4202640491
31
0.0000000000
11
-134.1195565248
21
139.1930378652
31
0.0000000000
11
-135.1209192411
21
138.8196819420
31
0.0000000000
11
-136.0584131665
21
138.3078898586
31
0.0000000000
11
-136.9131938475
21
137.6680817477
31
0.0000000000
11
-137.6680852067
21
136.9131898554
31
0.0000000000
11
-138.3078923137
21
136.0584093456
31
0.0000000000
11
-138.8196832880
21
135.1209162931
31
0.0000000000
11
-139.1930383648
21
134.1195548226
31
0.0000000000
11
-139.4202641290
21
133.0744938704
31
0.0000000000
11
-139.4965691350
21
132.0068476243
31
0.0000000000
0
SPLINE
5
468
100
AcDbEntity
8
0
100
AcDbSpline
62
0
6
CONTINUOUS
70
0
71
3
72
18
73
14
74
12
42
0.0000001000
43
0.0000001000
44
0.0000000001
12
0.0000000000
22
-11.7562830627
32
0.0000000000
13
11.7562830627
23
-0.0000000000
33
0.0000000000
40
0.0000000000
40
0.0000000000
40
0.0000000000
40
0.0000000000
40
0.0910466428
40
0.1820175350
40
0.2729222065
40
0.3637752898
40
0.4545956532
40
0.5454047950
40
0.6362250956
40
0.7270780684
40
0.8179826155
40
0.9089534049
40
1.0000000000
40
1.0000000000
40
1.0000000000
40
1.0000000000
10
-139.4965691350
20
-132.0068476243
30
0.0000000000
10
-139.4965691350
20
-132.3636376590
30
0.0000000000
10
-139.4455670392
20
-133.0779693451
30
0.0000000000
10
-139.2175864433
20
-134.1264525762
30
0.0000000000
10
-138.8429605121
20
-135.1313340399
30
0.0000000000
10
-138.3294039863
20
-136.0720813562
30
0.0000000000
10
-137.6873719315
20
-136.9298504210
30
0.0000000000
10
-136.9298465897
20
-137.6873752277
30
0.0000000000
10
-136.0720776526
20
-138.3294063080
30
0.0000000000
10
-135.1313311045
20
-138.8429617794
30
0.0000000000
10
-134.1264507691
20
-139.2175869069
30
0.0000000000
10
-133.0779685670
20
-139.4455671082
30
0.0000000000
10
-132.3636374723
20
-139.4965691350
30
0.0000000000
10
-132.0068476243
20
-139.4965691350
30
0.0000000000
11
-139.4965691350
21
-132.0068476243
31
0.0000000000
11
-139.4202640491
21
-133.0744944263
31
0.0000000000
11
-139.1930378652
21
-134.1195565248
31
0.0000000000
11
-138.8196819420
21
-135.1209192411
31
0.0000000000
11
-138.3078898586
21
-136.0584131665
31
0.0000000000
11
-137.6680817477
21
-136.9131938475
31
0.0000000000
11
-136.9131898554
21
-137.6680852067
31
0.0000000000
11
-136.0584093456
21
-138.3078923137
31
0.0000000000
11
-135.1209162931
21
-138.8196832880
31
0.0000000000
11
-134.1195548226
21
-139.1930383648
31
0.0000000000
11
-133.0744938704
21
-139.4202641290
31
0.0000000000
11
-132.0068476243
21
-139.4965691350
31
0.0000000000
0
SPLINE
5
469
100
AcDbEntity
8
0
100
AcDbSpline
62
0
6
CONTINUOUS
70
0
71
3
72
18
73
14
74
12
42
0.0000001000
43
0.0000001000
44
0.0000000001
12
11.7562830627
22
0.0000000000
32
0.0000000000
13
0.0000000000
23
11.7562830626
33
0.0000000000
40
0.0000000000
40
0.0000000000
40
0.0000000000
40
0.0000000000
40
0.0910466428
40
0.1820175350
40
0.2729222065
40
0.3637752898
40
0.4545956532
40
0.5454047950
40
0.6362250956
40
0.7270780684
40
0.8179826155
40
0.9089534049
40
1.0000000000
40
1.0000000000
40
1.0000000000
40
1.0000000000
10
132.0068476243
20
-139.4965691350
30
0.0000000000
10
132.3636376590
20
-139.4965691350
30
0.0000000000
10
133.0779693451
20
-139.4455670392
30
0.0000000000
10
134.1264525762
20
-139.2175864433
30
0.0000000000
10
135.1313340399
20
-138.8429605121
30
0.0000000000
10
136.0720813562
20
-138.3294039863
30
0.0000000000
10
136.9298504210
20
-137.6873719315
30
0.0000000000
10
137.6873752277
20
-136.9298465897
30
0.0000000000
10
138.3294063080
20
-136.0720776526
30
0.0000000000
10
138.8429617794
20
-135.1313311045
30
0.0000000000
10
139.2175869069
20
-134.1264507691
30
0.0000000000
10
139.4455671082
20
-133.0779685670
30
0.0000000000
10
139.4965691350
20
-132.3636374723
30
0.0000000000
10
139.4965691350
20
-132.0068476243
30
0.0000000000
11
132.0068476243
21
-139.4965691350
31
0.0000000000
11
133.0744944263
21
-139.4202640491
31
0.0000000000
11
134.1195565248
21
-139.1930378652
31
0.0000000000
11
135.1209192411
21
-138.8196819420
31
0.0000000000
11
136.0584131665
21
-138.3078898586
31
0.0000000000
11
136.9131938475
21
-137.6680817477
31
0.0000000000
11
137.6680852067
21
-136.9131898554
31
0.0000000000
11
138.3078923137
21
-136.0584093456
31
0.0000000000
11
138.8196832880
21
-135.1209162931
31
0.0000000000
11
139.1930383648
21
-134.1195548226
31
0.0000000000
11
139.4202641290
21
-133.0744938704
31
0.0000000000
11
139.4965691350
21
-132.0068476243
31
0.0000000000
0
SPLINE
5
46A
100
AcDbEntity
8
0
100
AcDbSpline
62
0
6
CONTINUOUS
70
0
71
3
72
18
73
14
74
12
42
0.0000001000
43
0.0000001000
44
0.0000000001
12
0.0000000000
22
11.7562830173
32
0.0000000000
13
11.7562830173
23
0.0000000000
33
0.0000000000
40
0.0000000000
40
0.0000000000
40
0.0000000000
40
0.0000000000
40
0.0910271321
40
0.1820667041
40
0.2728626681
40
0.3638485749
40
0.4545193613
40
0.5454805948
40
0.6361513749
40
0.7271373022
40
0.8179332548
40
0.9089728574
40
1.0000000000
40
1.0000000000
40
1.0000000000
40
1.0000000000
10
-139.3026603517
20
131.8129388410
30
0.0000000000
10
-139.3026603517
20
132.1696524168
30
0.0000000000
10
-139.2516558772
20
132.8841756338
30
0.0000000000
10
-139.0236984263
20
133.9324326252
30
0.0000000000
10
-138.6489579559
20
134.9376472786
30
0.0000000000
10
-138.1356199869
20
135.8779695702
30
0.0000000000
10
-137.4932816297
20
136.7361522706
30
0.0000000000
10
-136.7361526807
20
137.4932812720
30
0.0000000000
10
-135.8779699839
20
138.1356197258
30
0.0000000000
10
-134.9376477132
20
138.6489577603
30
0.0000000000
10
-133.9324329359
20
139.0236983408
30
0.0000000000
10
-132.8841758366
20
139.2516558598
30
0.0000000000
10
-132.1696524579
20
139.3026603517
30
0.0000000000
10
-131.8129388410
20
139.3026603517
30
0.0000000000
11
-139.3026603517
21
131.8129388410
31
0.0000000000
11
-139.2263879725
21
132.8803580184
31
0.0000000000
11
-138.9989658517
21
133.9262037935
31
0.0000000000
11
-138.6260645778
21
134.9263720827
31
0.0000000000
11
-138.1135141050
21
135.8652310298
31
0.0000000000
11
-137.4747617588
21
136.7186054400
31
0.0000000000
11
-136.7186058314
21
137.4747614198
31
0.0000000000
11
-135.8652315277
21
138.1135137851
31
0.0000000000
11
-134.9263724016
21
138.6260644322
31
0.0000000000
11
-133.9262042592
21
138.9989657150
31
0.0000000000
11
-132.8803581410
21
139.2263879549
31
0.0000000000
11
-131.8129388410
21
139.3026603517
31
0.0000000000
0
ENDSEC
0
SECTION
2
OBJECTS
0
DICTIONARY
5
C
100
AcDbDictionary
280
0
281
1
3
ACAD_GROUP
350
D
3
ACAD_MLINESTYLE
350
17
3
ACAD_LAYOUT
350
1A
3
ACAD_PLOTSETTINGS
350
19
3
ACAD_PLOTSTYLENAME
350
E
0
DICTIONARY
5
D
102
{ACAD_REACTORS
330
C
102
}
100
AcDbDictionary
280
0
281
1
0
ACDBDICTIONARYWDFLT
5
E
102
{ACAD_REACTORS
330
C
102
}
100
AcDbDictionary
281
1
3
Normal
350
F
100
AcDbDictionaryWithDefault
340
F
0
DICTIONARY
5
17
102
{ACAD_REACTORS
330
C
102
}
100
AcDbDictionary
280
0
281
1
3
Standard
350
18
0
DICTIONARY
5
19
102
{ACAD_REACTORS
330
C
102
}
100
AcDbDictionary
281
1
0
DICTIONARY
5
1A
102
{ACAD_REACTORS
330
C
102
}
100
AcDbDictionary
281
1
3
Layout1
350
1E
3
Model
350
22
0
ACDBPLACEHOLDER
5
F
102
{ACAD_REACTORS
330
E
102
}
0
MLINESTYLE
5
18
102
{ACAD_REACTORS
330
17
102
}
100
AcDbMlineStyle
2
STANDARD
70
0
3

62
256
51
90.0
52
90.0
71
2
49
0.5
62
256
6
BYLAYER
49
-0.5
62
256
6
BYLAYER
0
LAYOUT
5
1E
102
{ACAD_REACTORS
330
1A
102
}
100
AcDbPlotSettings
1

2

4

6

40
0.0
41
0.0
42
0.0
43
0.0
44
0.0
45
0.0
46
0.0
47
0.0
48
0.0
49
0.0
140
0.0
141
0.0
142
1.0
143
1.0
70
0
72
0
73
0
74
0
7

75
0
147
1.0
148
0.0
149
0.0
100
AcDbLayout
1
Layout1
70
0
71
0
10
0.0
20
0.0
11
0.0
21
0.0
12
0.0
22
0.0
32
0.0
14
0.0
24
0.0
34
0.0
15
0.0
25
0.0
35
0.0
146
0.0
13
0.0
23
0.0
33
0.0
16
0.0
26
0.0
36
0.0
17
0.0
27
0.0
37
0.0
76
0
330
1B
331
0
345
0
346
0
0
LAYOUT
5
22
102
{ACAD_REACTORS
330
1A
102
}
100
AcDbPlotSettings
1

2

4

6

40
0.0
41
0.0
42
0.0
43
0.0
44
0.0
45
0.0
46
0.0
47
0.0
48
0.0
49
0.0
140
0.0
141
0.0
142
1.0
143
1.0
70
0
72
0
73
0
74
0
7

75
0
147
1.0
148
0.0
149
0.0
100
AcDbLayout
1
Model
70
0
71
0
10
0.0
20
0.0
11
0.0
21
0.0
12
0.0
22
0.0
32
0.0
14
0.0
24
0.0
34
0.0
15
0.0
25
0.0
35
0.0
146
0.0
13
0.0
23
0.0
33
0.0
16
0.0
26
0.0
36
0.0
17
0.0
27
0.0
37
0.0
76
0
330
1F
331
0
345
0
346
0
0
ENDSEC
0
EOF
