  0
SECTION
  2
HEADER
  9
$ACADVER
  1
AC1015
  9
$DWGCODEPAGE
  3
ANSI_1252
  9
$EXTMAX
 10
297.0
 20
210.0
 30
0.0
  9
$EXTMIN
 10
0.0
 20
0.0
 30
0.0
  9
$LIMMIN
 10
0.0
 20
0.0
  9
$LIMMAX
 10
297.0
 20
210.0
  9
$VIEWCTR
 10
148.5
 20
105.0
  9
$VIEWSIZE
 40
210.0
  9
$CLAYER
  8
0
  9
$LTSCALE
 40
16.335
  9
$CELTYPE
  6
BYLAYER
  9
$DIMSCALE
 40
1.0
  9
$DIMASZ
 40
3.0
  9
$DIMEXO
 40
1.85625
  9
$DIMDLI
 40
11.286
  9
$DIMEXE
 40
5.346
  9
$DIMCEN
 40
2.673
  9
$DIMLFAC
 40
1.0
  9
$DIMBLK
  1
_FILLED
  9
$DIMTXT
 40
3.0
  9
$DIMTOL
 70
1
  9
$DIMLIM
 70
0
  9
$DIMTFAC
 40
1.0
  9
$DIMTP
 40
0.01
  9
$DIMTM
 40
0.01
  9
$PDMODE
 70
3
  9
$PDSIZE
 40
3.0
  9
$HANDSEED
  5
A0F
  9
$TILEMODE
 70
1
  9
$MEASUREMENT
 70
1
  9
$INSUNITS
 70
4
  0
ENDSEC
  0
SECTION
  2
CLASSES
  0
CLASS
  1
ACDBDICTIONARYWDFLT
  2
AcDbDictionaryWithDefault
  3
AutoCAD 2000
 90
0
280
0
281
0
  0
CLASS
  1
ACDBPLACEHOLDER
  2
AcDbPlaceHolder
  3
AutoCAD 2000
 90
0
280
0
281
0
  0
CLASS
  1
LAYOUT
  2
AcDbLayout
  3
AutoCAD 2000
 90
0
280
0
281
0
  0
ENDSEC
  0
SECTION
  2
TABLES
  0
TABLE
  2
VPORT
  5
8
100
AcDbSymbolTable
 70
2
  0
VPORT
  5
1F4
100
AcDbSymbolTableRecord
100
AcDbViewportTableRecord
  2
*ACTIVE
 70
0
 10
0.0
 20
0.0
 11
1.0
 21
1.0
 12
148.5
 22
105.0
 13
0.0
 23
0.0
 14
1.0
 24
1.0
 15
0.0
 25
0.0
 16
0.0
 26
0.0
 36
1.0
 17
0.0
 27
0.0
 37
0.0
 40
210.0
 41
1.4142857143
 42
50.0
 43
0.0
 44
0.0
 50
0.0
 51
0.0
 71
0
 72
100
 73
1
 74
1
 75
0
 76
0
 77
0
 78
0
  0
ENDTAB
  0
TABLE
  2
LTYPE
  5
5
100
AcDbSymbolTable
 70
6
  0
LTYPE
  5
14
100
AcDbSymbolTableRecord
100
AcDbLinetypeTableRecord
  2
BYBLOCK
 70
0
  3

 72
65
 73
0
 40
0.0
  0
LTYPE
  5
15
100
AcDbSymbolTableRecord
100
AcDbLinetypeTableRecord
  2
BYLAYER
 70
0
  3

 72
65
 73
0
 40
0.0
  0
LTYPE
  5
16
100
AcDbSymbolTableRecord
100
AcDbLinetypeTableRecord
  2
CONTINUOUS
 70
64
  3
Solid line
 72
65
 73
0
 40
0.0
  0
LTYPE
  5
1F5
100
AcDbSymbolTableRecord
100
AcDbLinetypeTableRecord
  2
CENTER
 70
64
  3
____ _ ____ _ ____ _ ____ _ ____ _ ____ _ ____
 72
65
 73
4
 40
0.6
 49
0.375
 74
0
 49
-0.075
 74
0
 49
0.075
 74
0
 49
-0.075
 74
0
  0
LTYPE
  5
1F6
100
AcDbSymbolTableRecord
100
AcDbLinetypeTableRecord
  2
HIDDEN
 70
64
  3
- - - - - - - - - - - - - - - - - - - -
 72
65
 73
2
 40
0.2
 49
0.1
 74
0
 49
-0.1
 74
0
  0
LTYPE
  5
1F7
100
AcDbSymbolTableRecord
100
AcDbLinetypeTableRecord
  2
PHANTOM
 70
64
  3
_____ _ _ _____ _ _ _____ _ _ _____
 72
65
 73
6
 40
0.8
 49
0.45
 74
0
 49
-0.05
 74
0
 49
0.1
 74
0
 49
-0.05
 74
0
 49
0.1
 74
0
 49
-0.05
 74
0
  0
LTYPE
  5
1F8
100
AcDbSymbolTableRecord
100
AcDbLinetypeTableRecord
  2
DOT
 70
64
  3
. . . . . . . . . . . . . . . . . . . .
 72
65
 73
2
 40
0.2
 49
0.1
 74
0
 49
-0.1
 74
0
  0
LTYPE
  5
1F9
100
AcDbSymbolTableRecord
100
AcDbLinetypeTableRecord
  2
DASHED
 70
64
  3
- - - - - - - - - - - - - - - - - - - -
 72
65
 73
2
 40
0.2
 49
0.1
 74
0
 49
-0.1
 74
0
  0
ENDTAB
  0
TABLE
  2
LAYER
  5
2
100
AcDbSymbolTable
 70
36
  0
LAYER
  5
10
100
AcDbSymbolTableRecord
100
AcDbLayerTableRecord
  2
0
 70
0
 62
7
  6
CONTINUOUS
370
-3
390
F
  0
LAYER
  5
1FA
100
AcDbSymbolTableRecord
100
AcDbLayerTableRecord
  2
DEFAULT_1
 70
0
 62
7
  6
CENTER
370
-3
390
F
  0
LAYER
  5
1FB
100
AcDbSymbolTableRecord
100
AcDbLayerTableRecord
  2
DEFAULT_2
 70
0
 62
7
  6
HIDDEN
370
-3
390
F
  0
LAYER
  5
1FC
100
AcDbSymbolTableRecord
100
AcDbLayerTableRecord
  2
DEFAULT_3
 70
0
 62
7
  6
PHANTOM
370
-3
390
F
  0
LAYER
  5
1FD
100
AcDbSymbolTableRecord
100
AcDbLayerTableRecord
  2
ASSI
 70
0
 62
7
  6
CONTINUOUS
370
-3
390
F
  0
LAYER
  5
1FE
100
AcDbSymbolTableRecord
100
AcDbLayerTableRecord
  2
COORDINATE
 70
0
 62
7
  6
CONTINUOUS
370
-3
390
F
  0
LAYER
  5
1FF
100
AcDbSymbolTableRecord
100
AcDbLayerTableRecord
  2
COPY_PUBLISH
 70
0
 62
7
  6
CONTINUOUS
370
-3
390
F
  0
LAYER
  5
200
100
AcDbSymbolTableRecord
100
AcDbLayerTableRecord
  2
COSMETIC
 70
0
 62
7
  6
CONTINUOUS
370
-3
390
F
  0
LAYER
  5
201
100
AcDbSymbolTableRecord
100
AcDbLayerTableRecord
  2
COSMETICI
 70
0
 62
7
  6
CONTINUOUS
370
-3
390
F
  0
LAYER
  5
202
100
AcDbSymbolTableRecord
100
AcDbLayerTableRecord
  2
CURVE
 70
0
 62
7
  6
CONTINUOUS
370
-3
390
F
  0
LAYER
  5
203
100
AcDbSymbolTableRecord
100
AcDbLayerTableRecord
  2
DRAFT
 70
0
 62
7
  6
CONTINUOUS
370
-3
390
F
  0
LAYER
  5
204
100
AcDbSymbolTableRecord
100
AcDbLayerTableRecord
  2
IMPORT_IGES
 70
0
 62
7
  6
CONTINUOUS
370
-3
390
F
  0
LAYER
  5
205
100
AcDbSymbolTableRecord
100
AcDbLayerTableRecord
  2
NOTE
 70
0
 62
7
  6
CONTINUOUS
370
-3
390
F
  0
LAYER
  5
206
100
AcDbSymbolTableRecord
100
AcDbLayerTableRecord
  2
PIANI
 70
0
 62
7
  6
CONTINUOUS
370
-3
390
F
  0
LAYER
  5
207
100
AcDbSymbolTableRecord
100
AcDbLayerTableRecord
  2
PUNTI
 70
0
 62
7
  6
CONTINUOUS
370
-3
390
F
  0
LAYER
  5
208
100
AcDbSymbolTableRecord
100
AcDbLayerTableRecord
  2
RACCORDO
 70
0
 62
7
  6
CONTINUOUS
370
-3
390
F
  0
LAYER
  5
209
100
AcDbSymbolTableRecord
100
AcDbLayerTableRecord
  2
SIMBOLI
 70
0
 62
7
  6
CONTINUOUS
370
-3
390
F
  0
LAYER
  5
20A
100
AcDbSymbolTableRecord
100
AcDbLayerTableRecord
  2
SNAPLINE
 70
0
 62
7
  6
CONTINUOUS
370
-3
390
F
  0
LAYER
  5
20B
100
AcDbSymbolTableRecord
100
AcDbLayerTableRecord
  2
SUPERFICI
 70
0
 62
7
  6
CONTINUOUS
370
-3
390
F
  0
LAYER
  5
20C
100
AcDbSymbolTableRecord
100
AcDbLayerTableRecord
  2
TRASH
 70
0
 62
7
  6
CONTINUOUS
370
-3
390
F
  0
ENDTAB
  0
TABLE
  2
STYLE
  5
3
100
AcDbSymbolTable
 70
1
  0
STYLE
  5
11
100
AcDbSymbolTableRecord
100
AcDbTextStyleTableRecord
  2
STANDARD
 70
0
 40
0.0
 41
0.8
 50
0.0
 71
0
 42
0.2
  3
txt
  4

  0
STYLE
  5
20D
100
AcDbSymbolTableRecord
100
AcDbTextStyleTableRecord
  2
TEXTSTYLE_1
 70
0
 40
0.0
 41
0.8
 50
0.0
 71
0
 42
0.2
  3
gdt
  4

  0
ENDTAB
  0
TABLE
  2
VIEW
  5
6
100
AcDbSymbolTable
 70
0
  0
ENDTAB
  0
TABLE
  2
UCS
  5
7
100
AcDbSymbolTable
 70
0
  0
ENDTAB
  0
TABLE
  2
APPID
  5
9
100
AcDbSymbolTable
 70
1
  0
APPID
  5
20E
100
AcDbSymbolTableRecord
100
AcDbRegAppTableRecord
  2
ACAD
 70
0
  0
ENDTAB
  0
TABLE
  2
BLOCK_RECORD
  5
1
100
AcDbSymbolTable
 70
0
  0
BLOCK_RECORD
  5
20F
100
AcDbSymbolTableRecord
100
AcDbBlockTableRecord
  2
*Model_Space
  0
BLOCK_RECORD
  5
210
100
AcDbSymbolTableRecord
100
AcDbBlockTableRecord
  2
*Paper_Space
  0
ENDTAB
  0
TABLE
  2
DIMSTYLE
  5
A
100
AcDbSymbolTable
 70
1
100
AcDbDimStyleTable
 71
0
  0
DIMSTYLE
105
211
100
AcDbSymbolTableRecord
100
AcDbDimStyleTableRecord
  2
STANDARD
 70
0
  3

  4

 40
1.0
 41
3.0
 42
0.0625
 43
0.38
 44
0.18
 45
0.0
 46
0.0
 47
0.01
 48
0.01
140
3.0
141
0.09
142
0.0
143
25.4
144
1.0
145
0.0
146
1.0
147
0.09
 71
1.0
 72
0.0
 73
0
 74
0
 75
0
 76
0
 77
1
 78
8
170
0
171
2
172
0
173
0
174
0
175
0
176
0
177
0
178
0
270
2
271
2
272
2
273
2
274
2
275
0
280
0
281
0
282
0
283
1
284
8
285
0
286
0
287
3
288
0
340
11
  0
ENDTAB
  0
ENDSEC
  0
SECTION
  2
BLOCKS
  0
BLOCK
  5
20
100
AcDbEntity
  8
0
100
AcDbBlockBegin
  2
*Model_Space
 70
0
 10
0.0
 20
0.0
 30
0.0
  3
*Model_Space
  1

  0
ENDBLK
  5
21
100
AcDbEntity
  8
0
100
AcDbBlockEnd
  0
BLOCK
  5
1C
100
AcDbEntity
  8
0
100
AcDbBlockBegin
  2
*Paper_Space
 70
0
 10
0.0
 20
0.0
 30
0.0
  3
*Paper_Space
  1

  0
ENDBLK
  5
1D
100
AcDbEntity
  8
0
100
AcDbBlockEnd
  0
ENDSEC
  0
SECTION
  2
ENTITIES
  0
LINE
  5
212
100
AcDbEntity
  8
0
100
AcDbLine
 62
7
  6
CONTINUOUS
 10
-89.2351884006
 20
46.1917074055
 11
-89.3609031708
 21
45.8767482168
  0
LINE
  5
213
100
AcDbEntity
  8
0
100
AcDbLine
 62
7
  6
CONTINUOUS
 10
-89.2351884006
 20
-64.6382109719
 11
-89.3609031708
 21
-64.3232517832
  0
LINE
  5
214
100
AcDbEntity
  8
0
100
AcDbLine
 62
7
  6
CONTINUOUS
 10
-90.2351884006
 20
41.8617890281
 11
-90.1094736305
 21
42.1767482168
  0
LINE
  5
215
100
AcDbEntity
  8
0
100
AcDbLine
 62
7
  6
CONTINUOUS
 10
-90.2351884006
 20
-60.3082925945
 11
-90.1094736305
 21
-60.6232517832
  0
LINE
  5
216
100
AcDbEntity
  8
0
100
AcDbLine
 62
253
  6
CONTINUOUS
 10
-64.935066566
 20
53.9894462931
 11
-64.8439660433
 21
54.0805468158
  0
LINE
  5
217
100
AcDbEntity
  8
0
100
AcDbLine
 62
253
  6
CONTINUOUS
 10
-89.1478864769
 20
29.5639283059
 11
-89.2351884006
 21
29.4766263822
  0
LINE
  5
218
100
AcDbEntity
  8
0
100
AcDbLine
 62
253
  6
CONTINUOUS
 10
-64.7351884006
 20
53.7895681277
 11
-64.6478864769
 21
53.8768700514
  0
LINE
  5
219
100
AcDbEntity
  8
0
100
AcDbLine
 62
7
  6
CONTINUOUS
 10
-90.1478864769
 20
28.2767482168
 11
-90.2351884006
 21
28.1894462931
  0
LINE
  5
21A
100
AcDbEntity
  8
0
100
AcDbLine
 62
253
  6
CONTINUOUS
 10
-88.9480083115
 20
29.3640501405
 11
-89.0353102352
 21
29.2767482168
  0
LINE
  5
21B
100
AcDbEntity
  8
0
100
AcDbLine
 62
7
  6
CONTINUOUS
 10
-62.0850970247
 20
49.4401984324
 11
-62.9852797766
 21
48.9204776782
  0
LINE
  5
21C
100
AcDbEntity
  8
0
100
AcDbLine
 62
7
  6
CONTINUOUS
 10
8.3648115994
 20
-73.397537013
 11
7.2648115994
 21
-73.4359498595
  0
LINE
  5
21D
100
AcDbEntity
  8
0
100
AcDbLine
 62
7
  6
CONTINUOUS
 10
-65.8351884006
 20
-73.397537013
 11
-64.7351884006
 21
-73.4359498595
  0
LINE
  5
21E
100
AcDbEntity
  8
0
100
AcDbLine
 62
7
  6
CONTINUOUS
 10
-62.9852797766
 20
-67.3669812446
 11
-62.0850970247
 21
-67.8867019987
  0
LINE
  5
21F
100
AcDbEntity
  8
0
100
AcDbLine
 62
253
  6
CONTINUOUS
 10
-64.8439660433
 20
-72.5270503822
 11
-64.935066566
 21
-72.4359498595
  0
LINE
  5
220
100
AcDbEntity
  8
0
100
AcDbLine
 62
253
  6
CONTINUOUS
 10
-89.1478864769
 20
-48.0104318723
 11
-89.2351884006
 21
-47.9231299486
  0
LINE
  5
221
100
AcDbEntity
  8
0
100
AcDbLine
 62
253
  6
CONTINUOUS
 10
-64.6478864769
 20
-72.3233736178
 11
-64.7351884006
 21
-72.2360716941
  0
LINE
  5
222
100
AcDbEntity
  8
0
100
AcDbLine
 62
7
  6
CONTINUOUS
 10
-90.1478864769
 20
-46.7232517832
 11
-90.2351884006
 21
-46.6359498595
  0
LINE
  5
223
100
AcDbEntity
  8
0
100
AcDbLine
 62
253
  6
CONTINUOUS
 10
-88.9480083115
 20
-47.8105537069
 11
-89.0353102352
 21
-47.7232517832
  0
LINE
  5
224
100
AcDbEntity
  8
0
100
AcDbLine
 62
7
  6
CONTINUOUS
 10
-89.241932781
 20
-27.5301179982
 11
-89.2736012471
 21
-26.6232517832
  0
LINE
  5
225
100
AcDbEntity
  8
0
100
AcDbLine
 62
7
  6
CONTINUOUS
 10
-90.1478864769
 20
9.2767482168
 11
-90.1094736305
 21
8.1767482168
  0
LINE
  5
226
100
AcDbEntity
  8
0
100
AcDbLine
 62
7
  6
CONTINUOUS
 10
-90.2351884006
 20
-72.0232517832
 11
-90.2351884006
 21
-46.6359498595
  0
LINE
  5
227
100
AcDbEntity
  8
0
100
AcDbLine
 62
7
  6
CONTINUOUS
 10
-90.2351884006
 20
-28.8105537069
 11
-90.2351884006
 21
10.3640501405
  0
LINE
  5
228
100
AcDbEntity
  8
0
100
AcDbLine
 62
7
  6
CONTINUOUS
 10
-90.2351884006
 20
28.1894462931
 11
-90.2351884006
 21
53.5767482168
  0
LINE
  5
229
100
AcDbEntity
  8
0
100
AcDbLine
 62
7
  6
CONTINUOUS
 10
-90.2002676311
 20
28.1545255236
 11
-90.2002676311
 21
26.8116689863
  0
LINE
  5
22A
100
AcDbEntity
  8
0
100
AcDbLine
 62
7
  6
CONTINUOUS
 10
-90.2002676311
 20
11.7418274473
 11
-90.2002676311
 21
10.39897091
  0
LINE
  5
22B
100
AcDbEntity
  8
0
100
AcDbLine
 62
7
  6
CONTINUOUS
 10
-90.2002676311
 20
-28.8454744764
 11
-90.2002676311
 21
-30.1883310137
  0
LINE
  5
22C
100
AcDbEntity
  8
0
100
AcDbLine
 62
7
  6
CONTINUOUS
 10
-90.2002676311
 20
-45.2581725527
 11
-90.2002676311
 21
-46.60102909
  0
LINE
  5
22D
100
AcDbEntity
  8
0
100
AcDbLine
 62
7
  6
CONTINUOUS
 10
-90.1478864769
 20
-51.5232517832
 11
-90.1478864769
 21
-46.7232517832
  0
LINE
  5
22E
100
AcDbEntity
  8
0
100
AcDbLine
 62
7
  6
CONTINUOUS
 10
-90.1478864769
 20
-28.7232517832
 11
-90.1478864769
 21
-27.7232517832
  0
LINE
  5
22F
100
AcDbEntity
  8
0
100
AcDbLine
 62
7
  6
CONTINUOUS
 10
-90.1478864769
 20
9.2767482168
 11
-90.1478864769
 21
10.2767482168
  0
LINE
  5
230
100
AcDbEntity
  8
0
100
AcDbLine
 62
7
  6
CONTINUOUS
 10
-90.1478864769
 20
28.2767482168
 11
-90.1478864769
 21
33.0767482168
  0
LINE
  5
231
100
AcDbEntity
  8
0
100
AcDbLine
 62
7
  6
CONTINUOUS
 10
-90.1094736305
 20
-64.3232517832
 11
-90.1094736305
 21
-60.6232517832
  0
LINE
  5
232
100
AcDbEntity
  8
0
100
AcDbLine
 62
7
  6
CONTINUOUS
 10
-90.1094736305
 20
-26.6232517832
 11
-90.1094736305
 21
8.1767482168
  0
LINE
  5
233
100
AcDbEntity
  8
0
100
AcDbLine
 62
7
  6
CONTINUOUS
 10
-90.1094736305
 20
42.1767482168
 11
-90.1094736305
 21
45.8767482168
  0
LINE
  5
234
100
AcDbEntity
  8
0
100
AcDbLine
 62
7
  6
CONTINUOUS
 10
-89.7002676311
 20
-45.2581725527
 11
-89.7002676311
 21
-30.1883310137
  0
LINE
  5
235
100
AcDbEntity
  8
0
100
AcDbLine
 62
7
  6
CONTINUOUS
 10
-89.7002676311
 20
11.7418274473
 11
-89.7002676311
 21
26.8116689863
  0
LINE
  5
236
100
AcDbEntity
  8
0
100
AcDbLine
 62
7
  6
CONTINUOUS
 10
-89.3609031708
 20
45.8767482168
 11
-89.3609031708
 21
42.6771314804
  0
LINE
  5
237
100
AcDbEntity
  8
0
100
AcDbLine
 62
7
  6
CONTINUOUS
 10
-89.3609031708
 20
-64.3232517832
 11
-89.3609031708
 21
-61.1236350468
  0
LINE
  5
238
100
AcDbEntity
  8
0
100
AcDbLine
 62
7
  6
CONTINUOUS
 10
-89.2736012471
 20
-26.6232517832
 11
-89.2736012471
 21
8.1767482168
  0
LINE
  5
239
100
AcDbEntity
  8
0
100
AcDbLine
 62
7
  6
CONTINUOUS
 10
-89.2351884006
 20
-64.6382109719
 11
-89.2351884006
 21
-60.8086758581
  0
LINE
  5
23A
100
AcDbEntity
  8
0
100
AcDbLine
 62
7
  6
CONTINUOUS
 10
-89.2351884006
 20
-51.5232517832
 11
-89.2351884006
 21
-47.9231299486
  0
LINE
  5
23B
100
AcDbEntity
  8
0
100
AcDbLine
 62
7
  6
CONTINUOUS
 10
-89.2351884006
 20
-9.9358280249
 11
-89.2351884006
 21
-8.5106755415
  0
LINE
  5
23C
100
AcDbEntity
  8
0
100
AcDbLine
 62
7
  6
CONTINUOUS
 10
-89.2351884006
 20
29.4766263822
 11
-89.2351884006
 21
33.0767482168
  0
LINE
  5
23D
100
AcDbEntity
  8
0
100
AcDbLine
 62
7
  6
CONTINUOUS
 10
-89.2351884006
 20
42.3621722917
 11
-89.2351884006
 21
46.1917074055
  0
LINE
  5
23E
100
AcDbEntity
  8
0
100
AcDbLine
 62
7
  6
CONTINUOUS
 10
-89.1478864769
 20
-51.5232517832
 11
-89.1478864769
 21
-48.0104318723
  0
LINE
  5
23F
100
AcDbEntity
  8
0
100
AcDbLine
 62
7
  6
CONTINUOUS
 10
-89.1478864769
 20
-27.4360716941
 11
-89.1478864769
 21
-10.0231299486
  0
LINE
  5
240
100
AcDbEntity
  8
0
100
AcDbLine
 62
7
  6
CONTINUOUS
 10
-89.1478864769
 20
-8.4233736178
 11
-89.1478864769
 21
8.9895681277
  0
LINE
  5
241
100
AcDbEntity
  8
0
100
AcDbLine
 62
7
  6
CONTINUOUS
 10
-89.1478864769
 20
29.5639283059
 11
-89.1478864769
 21
33.0767482168
  0
LINE
  5
242
100
AcDbEntity
  8
0
100
AcDbLine
 62
7
  6
CONTINUOUS
 10
-87.4351884006
 20
-42.0232517832
 11
-87.4351884006
 21
-40.5651780066
  0
LINE
  5
243
100
AcDbEntity
  8
0
100
AcDbLine
 62
7
  6
CONTINUOUS
 10
-87.4351884006
 20
-34.8813255598
 11
-87.4351884006
 21
-33.4232517832
  0
LINE
  5
244
100
AcDbEntity
  8
0
100
AcDbLine
 62
7
  6
CONTINUOUS
 10
-87.4351884006
 20
14.9767482168
 11
-87.4351884006
 21
16.4348219934
  0
LINE
  5
245
100
AcDbEntity
  8
0
100
AcDbLine
 62
7
  6
CONTINUOUS
 10
-87.4351884006
 20
22.1186744402
 11
-87.4351884006
 21
23.5767482168
  0
LINE
  5
246
100
AcDbEntity
  8
0
100
AcDbLine
 62
7
  6
CONTINUOUS
 10
-89.241932781
 20
9.0836144318
 11
-89.2736012471
 21
8.1767482168
  0
LINE
  5
247
100
AcDbEntity
  8
0
100
AcDbLine
 62
7
  6
CONTINUOUS
 10
-90.1478864769
 20
-27.7232517832
 11
-90.1094736305
 21
-26.6232517832
  0
LINE
  5
248
100
AcDbEntity
  8
0
100
AcDbLine
 62
7
  6
CONTINUOUS
 10
-84.0131082931
 20
23.4598089687
 11
-83.9351884006
 21
23.5767482168
  0
LINE
  5
249
100
AcDbEntity
  8
0
100
AcDbLine
 62
7
  6
CONTINUOUS
 10
-86.8572685081
 20
15.0936874649
 11
-86.9351884006
 21
14.9767482168
  0
LINE
  5
24A
100
AcDbEntity
  8
0
100
AcDbLine
 62
7
  6
CONTINUOUS
 10
-83.9520394267
 20
24.4716436531
 11
-84.0281045196
 21
24.3955785603
  0
LINE
  5
24B
100
AcDbEntity
  8
0
100
AcDbLine
 62
253
  6
CONTINUOUS
 10
-78.435066566
 20
28.2767482168
 11
-78.5572892593
 21
28.1545255236
  0
LINE
  5
24C
100
AcDbEntity
  8
0
100
AcDbLine
 62
253
  6
CONTINUOUS
 10
-78.2351884006
 20
28.0768700514
 11
-78.3574110939
 21
27.9546473582
  0
LINE
  5
24D
100
AcDbEntity
  8
0
100
AcDbLine
 62
253
  6
CONTINUOUS
 10
-64.935066566
 20
39.7767482168
 11
-64.8477646423
 21
39.8640501405
  0
LINE
  5
24E
100
AcDbEntity
  8
0
100
AcDbLine
 62
253
  6
CONTINUOUS
 10
-63.7351884006
 20
40.9766263822
 11
-63.8224903244
 21
40.8893244585
  0
LINE
  5
24F
100
AcDbEntity
  8
0
100
AcDbLine
 62
253
  6
CONTINUOUS
 10
-64.7351884006
 20
39.5768700514
 11
-64.6478864769
 21
39.6641719751
  0
LINE
  5
250
100
AcDbEntity
  8
0
100
AcDbLine
 62
253
  6
CONTINUOUS
 10
-63.5353102352
 20
40.7767482168
 11
-63.622612159
 21
40.6894462931
  0
LINE
  5
251
100
AcDbEntity
  8
0
100
AcDbLine
 62
7
  6
CONTINUOUS
 10
-86.4309688663
 20
23.2647459688
 11
-86.8422722817
 21
22.9767482168
  0
LINE
  5
252
100
AcDbEntity
  8
0
100
AcDbLine
 62
7
  6
CONTINUOUS
 10
-38.7351884006
 20
-73.4359498595
 11
-37.6351884006
 21
-73.397537013
  0
LINE
  5
253
100
AcDbEntity
  8
0
100
AcDbLine
 62
7
  6
CONTINUOUS
 10
-18.8729537696
 20
-72.5280626559
 11
-19.8351884006
 21
-72.5616646296
  0
LINE
  5
254
100
AcDbEntity
  8
0
100
AcDbLine
 62
7
  6
CONTINUOUS
 10
-65.8351884006
 20
-72.5616646296
 11
-64.8439660433
 21
-72.5270503822
  0
LINE
  5
255
100
AcDbEntity
  8
0
100
AcDbLine
 62
7
  6
CONTINUOUS
 10
31.2648115994
 20
-73.5232517832
 11
-88.7351884006
 21
-73.5232517832
  0
LINE
  5
256
100
AcDbEntity
  8
0
100
AcDbLine
 62
7
  6
CONTINUOUS
 10
7.2648115994
 20
-73.4359498595
 11
-18.7351884006
 21
-73.4359498595
  0
LINE
  5
257
100
AcDbEntity
  8
0
100
AcDbLine
 62
7
  6
CONTINUOUS
 10
-38.7351884006
 20
-73.4359498595
 11
-64.7351884006
 21
-73.4359498595
  0
LINE
  5
258
100
AcDbEntity
  8
0
100
AcDbLine
 62
7
  6
CONTINUOUS
 10
10.7648115994
 20
-73.397537013
 11
8.3648115994
 21
-73.397537013
  0
LINE
  5
259
100
AcDbEntity
  8
0
100
AcDbLine
 62
7
  6
CONTINUOUS
 10
-19.8351884006
 20
-73.397537013
 11
-37.6351884006
 21
-73.397537013
  0
LINE
  5
25A
100
AcDbEntity
  8
0
100
AcDbLine
 62
7
  6
CONTINUOUS
 10
-65.8351884006
 20
-73.397537013
 11
-68.2351884007
 21
-73.397537013
  0
LINE
  5
25B
100
AcDbEntity
  8
0
100
AcDbLine
 62
7
  6
CONTINUOUS
 10
10.7648115994
 20
-72.5616646296
 11
8.3648115994
 21
-72.5616646296
  0
LINE
  5
25C
100
AcDbEntity
  8
0
100
AcDbLine
 62
7
  6
CONTINUOUS
 10
-19.8351884006
 20
-72.5616646296
 11
-37.6351884006
 21
-72.5616646296
  0
LINE
  5
25D
100
AcDbEntity
  8
0
100
AcDbLine
 62
7
  6
CONTINUOUS
 10
-65.8351884006
 20
-72.5616646296
 11
-68.2351884006
 21
-72.5616646296
  0
LINE
  5
25E
100
AcDbEntity
  8
0
100
AcDbLine
 62
7
  6
CONTINUOUS
 10
6.1522353577
 20
-72.5232517832
 11
-17.652612159
 21
-72.5232517832
  0
LINE
  5
25F
100
AcDbEntity
  8
0
100
AcDbLine
 62
7
  6
CONTINUOUS
 10
-39.8477646423
 20
-72.5232517832
 11
-63.622612159
 21
-72.5232517832
  0
LINE
  5
260
100
AcDbEntity
  8
0
100
AcDbLine
 62
7
  6
CONTINUOUS
 10
10.7648115994
 20
-72.4359498595
 11
7.4646897648
 21
-72.4359498595
  0
LINE
  5
261
100
AcDbEntity
  8
0
100
AcDbLine
 62
7
  6
CONTINUOUS
 10
6.064933434
 20
-72.4359498595
 11
-17.5653102352
 21
-72.4359498595
  0
LINE
  5
262
100
AcDbEntity
  8
0
100
AcDbLine
 62
7
  6
CONTINUOUS
 10
-18.965066566
 20
-72.4359498595
 11
-38.5353102352
 21
-72.4359498595
  0
LINE
  5
263
100
AcDbEntity
  8
0
100
AcDbLine
 62
7
  6
CONTINUOUS
 10
-39.935066566
 20
-72.4359498595
 11
-63.5353102352
 21
-72.4359498595
  0
LINE
  5
264
100
AcDbEntity
  8
0
100
AcDbLine
 62
7
  6
CONTINUOUS
 10
-64.935066566
 20
-72.4359498595
 11
-68.2351884006
 21
-72.4359498595
  0
LINE
  5
265
100
AcDbEntity
  8
0
100
AcDbLine
 62
7
  6
CONTINUOUS
 10
-61.6353711525
 20
-69.7232517832
 11
-61.0350056487
 21
-69.7232517832
  0
LINE
  5
266
100
AcDbEntity
  8
0
100
AcDbLine
 62
7
  6
CONTINUOUS
 10
-58.9353711525
 20
-69.7232517832
 11
-58.5350056487
 21
-69.7232517832
  0
LINE
  5
267
100
AcDbEntity
  8
0
100
AcDbLine
 62
7
  6
CONTINUOUS
 10
-55.9353711525
 20
-69.7232517832
 11
-55.5350056487
 21
-69.7232517832
  0
LINE
  5
268
100
AcDbEntity
  8
0
100
AcDbLine
 62
7
  6
CONTINUOUS
 10
-53.4353711525
 20
-69.7232517832
 11
-52.8350056487
 21
-69.7232517832
  0
LINE
  5
269
100
AcDbEntity
  8
0
100
AcDbLine
 62
7
  6
CONTINUOUS
 10
-4.6353711525
 20
-69.7232517832
 11
-4.0350056487
 21
-69.7232517832
  0
LINE
  5
26A
100
AcDbEntity
  8
0
100
AcDbLine
 62
7
  6
CONTINUOUS
 10
-1.9353711525
 20
-69.7232517832
 11
-1.5350056487
 21
-69.7232517832
  0
LINE
  5
26B
100
AcDbEntity
  8
0
100
AcDbLine
 62
7
  6
CONTINUOUS
 10
1.0646288475
 20
-69.7232517832
 11
1.4649943513
 21
-69.7232517832
  0
LINE
  5
26C
100
AcDbEntity
  8
0
100
AcDbLine
 62
7
  6
CONTINUOUS
 10
3.5646288475
 20
-69.7232517832
 11
4.1649943513
 21
-69.7232517832
  0
LINE
  5
26D
100
AcDbEntity
  8
0
100
AcDbLine
 62
7
  6
CONTINUOUS
 10
-18.7351884006
 20
-73.4359498595
 11
-19.8351884006
 21
-73.397537013
  0
LINE
  5
26E
100
AcDbEntity
  8
0
100
AcDbLine
 62
7
  6
CONTINUOUS
 10
-38.6264107579
 20
-72.5270503822
 11
-37.6351884006
 21
-72.5616646296
  0
LINE
  5
26F
100
AcDbEntity
  8
0
100
AcDbLine
 62
7
  6
CONTINUOUS
 10
8.3648115994
 20
-72.5616646296
 11
7.3735892421
 21
-72.5270503822
  0
LINE
  5
270
100
AcDbEntity
  8
0
100
AcDbLine
 62
7
  6
CONTINUOUS
 10
-86.4309688663
 20
-41.7112495352
 11
-86.8422722817
 21
-41.4232517832
  0
LINE
  5
271
100
AcDbEntity
  8
0
100
AcDbLine
 62
7
  6
CONTINUOUS
 10
-83.9520394267
 20
-42.9181472195
 11
-84.0281045196
 21
-42.8420821266
  0
LINE
  5
272
100
AcDbEntity
  8
0
100
AcDbLine
 62
253
  6
CONTINUOUS
 10
-78.435066566
 20
-46.7232517832
 11
-78.5572892593
 21
-46.60102909
  0
LINE
  5
273
100
AcDbEntity
  8
0
100
AcDbLine
 62
253
  6
CONTINUOUS
 10
-78.2351884006
 20
-46.5233736178
 11
-78.3574110939
 21
-46.4011509246
  0
LINE
  5
274
100
AcDbEntity
  8
0
100
AcDbLine
 62
253
  6
CONTINUOUS
 10
-64.935066566
 20
-58.2232517832
 11
-64.8477646423
 21
-58.3105537069
  0
LINE
  5
275
100
AcDbEntity
  8
0
100
AcDbLine
 62
253
  6
CONTINUOUS
 10
-63.7351884006
 20
-59.4231299486
 11
-63.8224903244
 21
-59.3358280249
  0
LINE
  5
276
100
AcDbEntity
  8
0
100
AcDbLine
 62
253
  6
CONTINUOUS
 10
-64.7351884006
 20
-58.0233736178
 11
-64.6478864769
 21
-58.1106755415
  0
LINE
  5
277
100
AcDbEntity
  8
0
100
AcDbLine
 62
253
  6
CONTINUOUS
 10
-63.5353102352
 20
-59.2232517832
 11
-63.622612159
 21
-59.1359498595
  0
LINE
  5
278
100
AcDbEntity
  8
0
100
AcDbLine
 62
7
  6
CONTINUOUS
 10
-84.0131082931
 20
-41.9063125351
 11
-83.9351884006
 21
-42.0232517832
  0
LINE
  5
279
100
AcDbEntity
  8
0
100
AcDbLine
 62
7
  6
CONTINUOUS
 10
-86.8572685081
 20
-33.5401910313
 11
-86.9351884006
 21
-33.4232517832
  0
LINE
  5
27A
100
AcDbEntity
  8
0
100
AcDbLine
 62
7
  6
CONTINUOUS
 10
-86.8572685081
 20
-33.5401910313
 11
-86.8527977409
 21
-34.0179906571
  0
LINE
  5
27B
100
AcDbEntity
  8
0
100
AcDbLine
 62
7
  6
CONTINUOUS
 10
-86.8572685081
 20
23.4598089687
 11
-86.8527977409
 21
22.9820093429
  0
LINE
  5
27C
100
AcDbEntity
  8
0
100
AcDbLine
 62
7
  6
CONTINUOUS
 10
-84.0175790604
 20
-41.4285129093
 11
-84.0131082931
 21
-41.9063125351
  0
LINE
  5
27D
100
AcDbEntity
  8
0
100
AcDbLine
 62
7
  6
CONTINUOUS
 10
-84.0175790604
 20
15.5714870907
 11
-84.0131082931
 21
15.0936874649
  0
LINE
  5
27E
100
AcDbEntity
  8
0
100
AcDbLine
 62
7
  6
CONTINUOUS
 10
-86.9351884006
 20
-43.417842633
 11
-86.9351884006
 21
-42.0232517832
  0
LINE
  5
27F
100
AcDbEntity
  8
0
100
AcDbLine
 62
7
  6
CONTINUOUS
 10
-86.9351884006
 20
-33.4232517832
 11
-86.9351884006
 21
-32.0286609334
  0
LINE
  5
280
100
AcDbEntity
  8
0
100
AcDbLine
 62
7
  6
CONTINUOUS
 10
-86.9351884006
 20
13.582157367
 11
-86.9351884006
 21
14.9767482168
  0
LINE
  5
281
100
AcDbEntity
  8
0
100
AcDbLine
 62
7
  6
CONTINUOUS
 10
-86.9351884006
 20
23.5767482168
 11
-86.9351884006
 21
24.9713390666
  0
LINE
  5
282
100
AcDbEntity
  8
0
100
AcDbLine
 62
7
  6
CONTINUOUS
 10
-86.8422722817
 20
-32.6044214397
 11
-86.8422722817
 21
-34.0232517832
  0
LINE
  5
283
100
AcDbEntity
  8
0
100
AcDbLine
 62
7
  6
CONTINUOUS
 10
-86.8422722817
 20
-41.4232517832
 11
-86.8422722817
 21
-42.8420821266
  0
LINE
  5
284
100
AcDbEntity
  8
0
100
AcDbLine
 62
7
  6
CONTINUOUS
 10
-86.8422722817
 20
14.1579178734
 11
-86.8422722817
 21
15.5767482168
  0
LINE
  5
285
100
AcDbEntity
  8
0
100
AcDbLine
 62
7
  6
CONTINUOUS
 10
-86.8422722817
 20
22.9767482168
 11
-86.8422722817
 21
24.3955785603
  0
LINE
  5
286
100
AcDbEntity
  8
0
100
AcDbLine
 62
7
  6
CONTINUOUS
 10
-86.3030417972
 20
-42.8232517832
 11
-86.3030417972
 21
-41.9569951485
  0
LINE
  5
287
100
AcDbEntity
  8
0
100
AcDbLine
 62
7
  6
CONTINUOUS
 10
-86.3030417972
 20
-33.4895084179
 11
-86.3030417972
 21
-32.6232517832
  0
LINE
  5
288
100
AcDbEntity
  8
0
100
AcDbLine
 62
7
  6
CONTINUOUS
 10
-86.3030417972
 20
14.1767482168
 11
-86.3030417972
 21
15.0430048515
  0
LINE
  5
289
100
AcDbEntity
  8
0
100
AcDbLine
 62
7
  6
CONTINUOUS
 10
-86.3030417972
 20
23.5104915821
 11
-86.3030417972
 21
24.3767482168
  0
LINE
  5
28A
100
AcDbEntity
  8
0
100
AcDbLine
 62
7
  6
CONTINUOUS
 10
-84.5673350041
 20
-42.8232517832
 11
-84.5673350041
 21
-41.9569951485
  0
LINE
  5
28B
100
AcDbEntity
  8
0
100
AcDbLine
 62
7
  6
CONTINUOUS
 10
-84.5673350041
 20
-33.4895084179
 11
-84.5673350041
 21
-32.6232517832
  0
LINE
  5
28C
100
AcDbEntity
  8
0
100
AcDbLine
 62
7
  6
CONTINUOUS
 10
-84.5673350041
 20
14.1767482168
 11
-84.5673350041
 21
15.0430048515
  0
LINE
  5
28D
100
AcDbEntity
  8
0
100
AcDbLine
 62
7
  6
CONTINUOUS
 10
-84.5673350041
 20
23.5104915821
 11
-84.5673350041
 21
24.3767482168
  0
LINE
  5
28E
100
AcDbEntity
  8
0
100
AcDbLine
 62
7
  6
CONTINUOUS
 10
-84.0281045196
 20
-32.6044214397
 11
-84.0281045196
 21
-34.0232517832
  0
LINE
  5
28F
100
AcDbEntity
  8
0
100
AcDbLine
 62
7
  6
CONTINUOUS
 10
-84.0281045196
 20
-41.4232517832
 11
-84.0281045196
 21
-42.8420821266
  0
LINE
  5
290
100
AcDbEntity
  8
0
100
AcDbLine
 62
7
  6
CONTINUOUS
 10
-84.0281045196
 20
14.1579178734
 11
-84.0281045196
 21
15.5767482168
  0
LINE
  5
291
100
AcDbEntity
  8
0
100
AcDbLine
 62
7
  6
CONTINUOUS
 10
-84.0281045196
 20
22.9767482168
 11
-84.0281045196
 21
24.3955785603
  0
LINE
  5
292
100
AcDbEntity
  8
0
100
AcDbLine
 62
7
  6
CONTINUOUS
 10
-83.9351884006
 20
24.9713390666
 11
-83.9351884006
 21
23.5767482168
  0
LINE
  5
293
100
AcDbEntity
  8
0
100
AcDbLine
 62
7
  6
CONTINUOUS
 10
-83.9351884006
 20
14.9767482168
 11
-83.9351884006
 21
13.582157367
  0
LINE
  5
294
100
AcDbEntity
  8
0
100
AcDbLine
 62
7
  6
CONTINUOUS
 10
-83.9351884006
 20
-32.0286609334
 11
-83.9351884006
 21
-33.4232517832
  0
LINE
  5
295
100
AcDbEntity
  8
0
100
AcDbLine
 62
7
  6
CONTINUOUS
 10
-83.9351884006
 20
-42.0232517832
 11
-83.9351884006
 21
-43.417842633
  0
LINE
  5
296
100
AcDbEntity
  8
0
100
AcDbLine
 62
7
  6
CONTINUOUS
 10
-83.4771146241
 20
22.9988050372
 11
-83.4771146241
 21
22.1186744402
  0
LINE
  5
297
100
AcDbEntity
  8
0
100
AcDbLine
 62
7
  6
CONTINUOUS
 10
-83.4771146241
 20
16.4348219934
 11
-83.4771146241
 21
15.5546913964
  0
LINE
  5
298
100
AcDbEntity
  8
0
100
AcDbLine
 62
7
  6
CONTINUOUS
 10
-83.4771146241
 20
-41.4453086036
 11
-83.4771146241
 21
-40.5651780066
  0
LINE
  5
299
100
AcDbEntity
  8
0
100
AcDbLine
 62
7
  6
CONTINUOUS
 10
-83.4771146241
 20
-34.0011949628
 11
-83.4771146241
 21
-34.8813255598
  0
LINE
  5
29A
100
AcDbEntity
  8
0
100
AcDbLine
 62
7
  6
CONTINUOUS
 10
-83.4351884006
 20
23.5767482168
 11
-83.4351884006
 21
23.2178774966
  0
LINE
  5
29B
100
AcDbEntity
  8
0
100
AcDbLine
 62
7
  6
CONTINUOUS
 10
-83.4351884006
 20
15.335618937
 11
-83.4351884006
 21
14.9767482168
  0
LINE
  5
29C
100
AcDbEntity
  8
0
100
AcDbLine
 62
7
  6
CONTINUOUS
 10
-83.4351884006
 20
-33.4232517832
 11
-83.4351884006
 21
-33.7821225034
  0
LINE
  5
29D
100
AcDbEntity
  8
0
100
AcDbLine
 62
7
  6
CONTINUOUS
 10
-83.4351884006
 20
-41.664381063
 11
-83.4351884006
 21
-42.0232517832
  0
LINE
  5
29E
100
AcDbEntity
  8
0
100
AcDbLine
 62
7
  6
CONTINUOUS
 10
-81.4875695549
 20
8.9895681277
 11
-81.4875695549
 21
-8.4233736178
  0
LINE
  5
29F
100
AcDbEntity
  8
0
100
AcDbLine
 62
7
  6
CONTINUOUS
 10
-81.4875695549
 20
-10.0231299486
 11
-81.4875695549
 21
-27.4360716941
  0
LINE
  5
2A0
100
AcDbEntity
  8
0
100
AcDbLine
 62
7
  6
CONTINUOUS
 10
-81.4002676311
 20
9.0768700514
 11
-81.4002676311
 21
-8.5106755415
  0
LINE
  5
2A1
100
AcDbEntity
  8
0
100
AcDbLine
 62
7
  6
CONTINUOUS
 10
-81.4002676311
 20
-9.9358280249
 11
-81.4002676311
 21
-27.5233736178
  0
LINE
  5
2A2
100
AcDbEntity
  8
0
100
AcDbLine
 62
7
  6
CONTINUOUS
 10
-86.8527977409
 20
15.5714870907
 11
-86.8572685081
 21
15.0936874649
  0
LINE
  5
2A3
100
AcDbEntity
  8
0
100
AcDbLine
 62
7
  6
CONTINUOUS
 10
-86.8527977409
 20
-41.4285129093
 11
-86.8572685081
 21
-41.9063125351
  0
LINE
  5
2A4
100
AcDbEntity
  8
0
100
AcDbLine
 62
7
  6
CONTINUOUS
 10
-84.0131082931
 20
23.4598089687
 11
-84.0175790604
 21
22.9820093429
  0
LINE
  5
2A5
100
AcDbEntity
  8
0
100
AcDbLine
 62
7
  6
CONTINUOUS
 10
-84.0131082931
 20
-33.5401910313
 11
-84.0175790604
 21
-34.0179906571
  0
LINE
  5
2A6
100
AcDbEntity
  8
0
100
AcDbLine
 62
7
  6
CONTINUOUS
 10
-86.9183373745
 20
14.0818527805
 11
-86.8422722817
 21
14.1579178734
  0
LINE
  5
2A7
100
AcDbEntity
  8
0
100
AcDbLine
 62
7
  6
CONTINUOUS
 10
-90.2002676311
 20
10.39897091
 11
-90.2351884006
 21
10.3640501405
  0
LINE
  5
2A8
100
AcDbEntity
  8
0
100
AcDbLine
 62
253
  6
CONTINUOUS
 10
-39.935066566
 20
53.9894462931
 11
-39.8477646423
 21
54.0767482168
  0
LINE
  5
2A9
100
AcDbEntity
  8
0
100
AcDbLine
 62
7
  6
CONTINUOUS
 10
-52.3852797766
 20
44.1132980013
 11
-51.4850970247
 21
44.6330187554
  0
LINE
  5
2AA
100
AcDbEntity
  8
0
100
AcDbLine
 62
7
  6
CONTINUOUS
 10
-84.0175790604
 20
22.9820093429
 11
-84.0281045196
 21
22.9767482168
  0
LINE
  5
2AB
100
AcDbEntity
  8
0
100
AcDbLine
 62
7
  6
CONTINUOUS
 10
-61.3851884006
 20
-67.2232517832
 11
-60.7351884006
 21
-67.2232517832
  0
LINE
  5
2AC
100
AcDbEntity
  8
0
100
AcDbLine
 62
7
  6
CONTINUOUS
 10
-53.7351884006
 20
-67.2232517832
 11
-53.0851884006
 21
-67.2232517832
  0
LINE
  5
2AD
100
AcDbEntity
  8
0
100
AcDbLine
 62
7
  6
CONTINUOUS
 10
-4.3851884006
 20
-67.2232517832
 11
-3.7351884006
 21
-67.2232517832
  0
LINE
  5
2AE
100
AcDbEntity
  8
0
100
AcDbLine
 62
7
  6
CONTINUOUS
 10
3.2648115994
 20
-67.2232517832
 11
3.9148115994
 21
-67.2232517832
  0
LINE
  5
2AF
100
AcDbEntity
  8
0
100
AcDbLine
 62
7
  6
CONTINUOUS
 10
-90.2351884006
 20
-64.6382109719
 11
-89.2351884006
 21
-64.6382109719
  0
LINE
  5
2B0
100
AcDbEntity
  8
0
100
AcDbLine
 62
7
  6
CONTINUOUS
 10
32.7648115994
 20
-64.6382109719
 11
31.7648115994
 21
-64.6382109719
  0
LINE
  5
2B1
100
AcDbEntity
  8
0
100
AcDbLine
 62
7
  6
CONTINUOUS
 10
-90.1094736305
 20
-64.3232517832
 11
-89.3609031708
 21
-64.3232517832
  0
LINE
  5
2B2
100
AcDbEntity
  8
0
100
AcDbLine
 62
7
  6
CONTINUOUS
 10
32.6390968292
 20
-64.3232517832
 11
31.8905263695
 21
-64.3232517832
  0
LINE
  5
2B3
100
AcDbEntity
  8
0
100
AcDbLine
 62
7
  6
CONTINUOUS
 10
-61.3851884006
 20
-63.2232517832
 11
-60.7351884006
 21
-63.2232517832
  0
LINE
  5
2B4
100
AcDbEntity
  8
0
100
AcDbLine
 62
7
  6
CONTINUOUS
 10
-53.7351884006
 20
-63.2232517832
 11
-53.0851884006
 21
-63.2232517832
  0
LINE
  5
2B5
100
AcDbEntity
  8
0
100
AcDbLine
 62
7
  6
CONTINUOUS
 10
-4.3851884006
 20
-63.2232517832
 11
-3.7351884006
 21
-63.2232517832
  0
LINE
  5
2B6
100
AcDbEntity
  8
0
100
AcDbLine
 62
7
  6
CONTINUOUS
 10
3.2648115994
 20
-63.2232517832
 11
3.9148115994
 21
-63.2232517832
  0
LINE
  5
2B7
100
AcDbEntity
  8
0
100
AcDbLine
 62
7
  6
CONTINUOUS
 10
-84.0281045196
 20
-41.4232517832
 11
-84.0175790604
 21
-41.4285129093
  0
LINE
  5
2B8
100
AcDbEntity
  8
0
100
AcDbLine
 62
7
  6
CONTINUOUS
 10
-51.4850970247
 20
-63.0795223218
 11
-52.3852797766
 21
-62.5598015676
  0
LINE
  5
2B9
100
AcDbEntity
  8
0
100
AcDbLine
 62
7
  6
CONTINUOUS
 10
-86.9183373745
 20
-32.5283563469
 11
-86.8422722817
 21
-32.6044214397
  0
LINE
  5
2BA
100
AcDbEntity
  8
0
100
AcDbLine
 62
7
  6
CONTINUOUS
 10
-90.2002676311
 20
-28.8454744764
 11
-90.2351884006
 21
-28.8105537069
  0
LINE
  5
2BB
100
AcDbEntity
  8
0
100
AcDbLine
 62
253
  6
CONTINUOUS
 10
-39.8477646423
 20
-72.5232517832
 11
-39.935066566
 21
-72.4359498595
  0
LINE
  5
2BC
100
AcDbEntity
  8
0
100
AcDbLine
 62
7
  6
CONTINUOUS
 10
-80.3748714786
 20
-27.5233736178
 11
-80.3748714786
 21
9.0768700514
  0
LINE
  5
2BD
100
AcDbEntity
  8
0
100
AcDbLine
 62
7
  6
CONTINUOUS
 10
-80.2875695549
 20
-27.4360716941
 11
-80.2875695549
 21
-18.7756329374
  0
LINE
  5
2BE
100
AcDbEntity
  8
0
100
AcDbLine
 62
7
  6
CONTINUOUS
 10
-80.2875695549
 20
0.329129371
 11
-80.2875695549
 21
8.9895681277
  0
LINE
  5
2BF
100
AcDbEntity
  8
0
100
AcDbLine
 62
7
  6
CONTINUOUS
 10
-80.2351884006
 20
-18.7232517832
 11
-80.2351884006
 21
0.2767482168
  0
LINE
  5
2C0
100
AcDbEntity
  8
DRAFT
100
AcDbLine
 62
7
  6
CONTINUOUS
 10
-79.2351884006
 20
-0.2232517832
 11
-79.2351884006
 21
-18.2232517832
  0
LINE
  5
2C1
100
AcDbEntity
  8
0
100
AcDbLine
 62
7
  6
CONTINUOUS
 10
-78.5247121698
 20
-0.2232517832
 11
-78.5247121698
 21
-0.2242999388
  0
LINE
  5
2C2
100
AcDbEntity
  8
0
100
AcDbLine
 62
7
  6
CONTINUOUS
 10
-78.5247121698
 20
-18.2232517832
 11
-78.5247121698
 21
-18.2222036276
  0
LINE
  5
2C3
100
AcDbEntity
  8
0
100
AcDbLine
 62
253
  6
CONTINUOUS
 10
-78.5247121698
 20
-18.2232517832
 11
-78.5247121698
 21
-0.2232517832
  0
LINE
  5
2C4
100
AcDbEntity
  8
0
100
AcDbLine
 62
7
  6
CONTINUOUS
 10
-78.3574110939
 20
27.9546473582
 11
-78.3574110939
 21
10.5988490754
  0
LINE
  5
2C5
100
AcDbEntity
  8
0
100
AcDbLine
 62
7
  6
CONTINUOUS
 10
-78.3574110939
 20
-46.4011509246
 11
-78.3574110939
 21
-29.0453526418
  0
LINE
  5
2C6
100
AcDbEntity
  8
0
100
AcDbLine
 62
7
  6
CONTINUOUS
 10
-78.2351884006
 20
28.0768700514
 11
-78.2351884006
 21
10.4766263822
  0
LINE
  5
2C7
100
AcDbEntity
  8
0
100
AcDbLine
 62
7
  6
CONTINUOUS
 10
-78.2351884006
 20
0.2767482168
 11
-78.2351884006
 21
-0.2232517832
  0
LINE
  5
2C8
100
AcDbEntity
  8
0
100
AcDbLine
 62
7
  6
CONTINUOUS
 10
-78.2351884006
 20
-18.2232517832
 11
-78.2351884006
 21
-18.7232517832
  0
LINE
  5
2C9
100
AcDbEntity
  8
0
100
AcDbLine
 62
7
  6
CONTINUOUS
 10
-78.2351884006
 20
-28.9231299486
 11
-78.2351884006
 21
-46.5233736178
  0
LINE
  5
2CA
100
AcDbEntity
  8
0
100
AcDbLine
 62
7
  6
CONTINUOUS
 10
-78.2254429547
 20
-0.2232517832
 11
-78.2254429547
 21
-18.2232517832
  0
LINE
  5
2CB
100
AcDbEntity
  8
0
100
AcDbLine
 62
7
  6
CONTINUOUS
 10
-78.1828072464
 20
0.329129371
 11
-78.1828072464
 21
-18.7756329374
  0
LINE
  5
2CC
100
AcDbEntity
  8
0
100
AcDbLine
 62
7
  6
CONTINUOUS
 10
-77.2351884006
 20
-46.5233736178
 11
-77.2351884006
 21
-28.9231299486
  0
LINE
  5
2CD
100
AcDbEntity
  8
0
100
AcDbLine
 62
7
  6
CONTINUOUS
 10
-77.2351884006
 20
10.4766263822
 11
-77.2351884006
 21
28.0768700514
  0
LINE
  5
2CE
100
AcDbEntity
  8
0
100
AcDbLine
 62
7
  6
CONTINUOUS
 10
-77.1478864769
 20
-46.4360716941
 11
-77.1478864769
 21
-29.0104318723
  0
LINE
  5
2CF
100
AcDbEntity
  8
0
100
AcDbLine
 62
7
  6
CONTINUOUS
 10
-77.1478864769
 20
10.5639283059
 11
-77.1478864769
 21
27.9895681277
  0
LINE
  5
2D0
100
AcDbEntity
  8
0
100
AcDbLine
 62
253
  6
CONTINUOUS
 10
-39.7351884006
 20
53.7895681277
 11
-39.6478864769
 21
53.8768700514
  0
LINE
  5
2D1
100
AcDbEntity
  8
0
100
AcDbLine
 62
253
  6
CONTINUOUS
 10
-64.935066566
 20
28.1894462931
 11
-64.8477646423
 21
28.2767482168
  0
LINE
  5
2D2
100
AcDbEntity
  8
0
100
AcDbLine
 62
253
  6
CONTINUOUS
 10
-64.7351884006
 20
27.9895681277
 11
-64.6478864769
 21
28.0768700514
  0
LINE
  5
2D3
100
AcDbEntity
  8
0
100
AcDbLine
 62
253
  6
CONTINUOUS
 10
-81.6874477203
 20
9.1894462931
 11
-81.6001457965
 21
9.2767482168
  0
LINE
  5
2D4
100
AcDbEntity
  8
0
100
AcDbLine
 62
253
  6
CONTINUOUS
 10
-81.4875695549
 20
8.9895681277
 11
-81.4002676311
 21
9.0768700514
  0
LINE
  5
2D5
100
AcDbEntity
  8
0
100
AcDbLine
 62
253
  6
CONTINUOUS
 10
-77.1478864769
 20
10.5639283059
 11
-77.2351884006
 21
10.4766263822
  0
LINE
  5
2D6
100
AcDbEntity
  8
0
100
AcDbLine
 62
253
  6
CONTINUOUS
 10
-76.9480083115
 20
10.3640501405
 11
-77.0353102352
 21
10.2767482168
  0
LINE
  5
2D7
100
AcDbEntity
  8
0
100
AcDbLine
 62
7
  6
CONTINUOUS
 10
-84.0281045196
 20
15.5767482168
 11
-84.439407935
 21
15.2887504648
  0
LINE
  5
2D8
100
AcDbEntity
  8
0
100
AcDbLine
 62
7
  6
CONTINUOUS
 10
-86.8422722817
 20
15.5767482168
 11
-86.8527977409
 21
15.5714870907
  0
LINE
  5
2D9
100
AcDbEntity
  8
0
100
AcDbLine
 62
7
  6
CONTINUOUS
 10
4.1649943513
 20
-60.7232517832
 11
3.5646288475
 21
-60.7232517832
  0
LINE
  5
2DA
100
AcDbEntity
  8
0
100
AcDbLine
 62
7
  6
CONTINUOUS
 10
1.4649943513
 20
-60.7232517832
 11
1.0646288475
 21
-60.7232517832
  0
LINE
  5
2DB
100
AcDbEntity
  8
0
100
AcDbLine
 62
7
  6
CONTINUOUS
 10
-1.5350056487
 20
-60.7232517832
 11
-1.9353711525
 21
-60.7232517832
  0
LINE
  5
2DC
100
AcDbEntity
  8
0
100
AcDbLine
 62
7
  6
CONTINUOUS
 10
-4.0350056487
 20
-60.7232517832
 11
-4.6353711525
 21
-60.7232517832
  0
LINE
  5
2DD
100
AcDbEntity
  8
0
100
AcDbLine
 62
7
  6
CONTINUOUS
 10
-52.8350056487
 20
-60.7232517832
 11
-53.4353711525
 21
-60.7232517832
  0
LINE
  5
2DE
100
AcDbEntity
  8
0
100
AcDbLine
 62
7
  6
CONTINUOUS
 10
-55.5350056487
 20
-60.7232517832
 11
-55.9353711525
 21
-60.7232517832
  0
LINE
  5
2DF
100
AcDbEntity
  8
0
100
AcDbLine
 62
7
  6
CONTINUOUS
 10
-58.5350056487
 20
-60.7232517832
 11
-58.9353711525
 21
-60.7232517832
  0
LINE
  5
2E0
100
AcDbEntity
  8
0
100
AcDbLine
 62
7
  6
CONTINUOUS
 10
-61.0350056487
 20
-60.7232517832
 11
-61.6353711525
 21
-60.7232517832
  0
LINE
  5
2E1
100
AcDbEntity
  8
0
100
AcDbLine
 62
7
  6
CONTINUOUS
 10
-90.1094736305
 20
-60.6232517832
 11
-89.8596861702
 21
-60.6232517832
  0
LINE
  5
2E2
100
AcDbEntity
  8
0
100
AcDbLine
 62
7
  6
CONTINUOUS
 10
32.6390968292
 20
-60.6232517832
 11
32.3893093689
 21
-60.6232517832
  0
LINE
  5
2E3
100
AcDbEntity
  8
0
100
AcDbLine
 62
7
  6
CONTINUOUS
 10
-90.2351884006
 20
-60.3082925945
 11
-89.7339714
 21
-60.3082925945
  0
LINE
  5
2E4
100
AcDbEntity
  8
0
100
AcDbLine
 62
7
  6
CONTINUOUS
 10
32.7648115994
 20
-60.3082925945
 11
32.2635945987
 21
-60.3082925945
  0
LINE
  5
2E5
100
AcDbEntity
  8
0
100
AcDbLine
 62
7
  6
CONTINUOUS
 10
-87.3823248349
 20
-59.2232517832
 11
-64.935066566
 21
-59.2232517832
  0
LINE
  5
2E6
100
AcDbEntity
  8
0
100
AcDbLine
 62
7
  6
CONTINUOUS
 10
-63.5353102352
 20
-59.2232517832
 11
-39.935066566
 21
-59.2232517832
  0
LINE
  5
2E7
100
AcDbEntity
  8
0
100
AcDbLine
 62
7
  6
CONTINUOUS
 10
-38.5353102352
 20
-59.2232517832
 11
-18.965066566
 21
-59.2232517832
  0
LINE
  5
2E8
100
AcDbEntity
  8
0
100
AcDbLine
 62
7
  6
CONTINUOUS
 10
-17.5653102352
 20
-59.2232517832
 11
6.064933434
 21
-59.2232517832
  0
LINE
  5
2E9
100
AcDbEntity
  8
0
100
AcDbLine
 62
7
  6
CONTINUOUS
 10
7.4646897648
 20
-59.2232517832
 11
29.9119480336
 21
-59.2232517832
  0
LINE
  5
2EA
100
AcDbEntity
  8
0
100
AcDbLine
 62
7
  6
CONTINUOUS
 10
-87.5123438132
 20
-59.1359498595
 11
-64.8477646423
 21
-59.1359498595
  0
LINE
  5
2EB
100
AcDbEntity
  8
0
100
AcDbLine
 62
7
  6
CONTINUOUS
 10
-63.622612159
 20
-59.1359498595
 11
-39.8477646423
 21
-59.1359498595
  0
LINE
  5
2EC
100
AcDbEntity
  8
0
100
AcDbLine
 62
7
  6
CONTINUOUS
 10
-38.622612159
 20
-59.1359498595
 11
-18.8777646423
 21
-59.1359498595
  0
LINE
  5
2ED
100
AcDbEntity
  8
0
100
AcDbLine
 62
7
  6
CONTINUOUS
 10
-17.652612159
 20
-59.1359498595
 11
6.1522353577
 21
-59.1359498595
  0
LINE
  5
2EE
100
AcDbEntity
  8
0
100
AcDbLine
 62
7
  6
CONTINUOUS
 10
7.377387841
 20
-59.1359498595
 11
30.041967012
 21
-59.1359498595
  0
LINE
  5
2EF
100
AcDbEntity
  8
0
100
AcDbLine
 62
7
  6
CONTINUOUS
 10
30.4942544846
 20
-58.3105537069
 11
7.377387841
 21
-58.3105537069
  0
LINE
  5
2F0
100
AcDbEntity
  8
0
100
AcDbLine
 62
7
  6
CONTINUOUS
 10
6.1522353577
 20
-58.3105537069
 11
-17.652612159
 21
-58.3105537069
  0
LINE
  5
2F1
100
AcDbEntity
  8
0
100
AcDbLine
 62
7
  6
CONTINUOUS
 10
-18.8777646423
 20
-58.3105537069
 11
-38.622612159
 21
-58.3105537069
  0
LINE
  5
2F2
100
AcDbEntity
  8
0
100
AcDbLine
 62
7
  6
CONTINUOUS
 10
-39.8477646423
 20
-58.3105537069
 11
-63.622612159
 21
-58.3105537069
  0
LINE
  5
2F3
100
AcDbEntity
  8
0
100
AcDbLine
 62
7
  6
CONTINUOUS
 10
-64.8477646423
 20
-58.3105537069
 11
-87.9646312859
 21
-58.3105537069
  0
LINE
  5
2F4
100
AcDbEntity
  8
0
100
AcDbLine
 62
7
  6
CONTINUOUS
 10
30.4312633585
 20
-58.2232517832
 11
7.4646897648
 21
-58.2232517832
  0
LINE
  5
2F5
100
AcDbEntity
  8
0
100
AcDbLine
 62
7
  6
CONTINUOUS
 10
6.064933434
 20
-58.2232517832
 11
-17.5653102352
 21
-58.2232517832
  0
LINE
  5
2F6
100
AcDbEntity
  8
0
100
AcDbLine
 62
7
  6
CONTINUOUS
 10
-18.965066566
 20
-58.2232517832
 11
-38.5353102352
 21
-58.2232517832
  0
LINE
  5
2F7
100
AcDbEntity
  8
0
100
AcDbLine
 62
7
  6
CONTINUOUS
 10
-39.935066566
 20
-58.2232517832
 11
-63.5353102352
 21
-58.2232517832
  0
LINE
  5
2F8
100
AcDbEntity
  8
0
100
AcDbLine
 62
7
  6
CONTINUOUS
 10
-64.935066566
 20
-58.2232517832
 11
-87.9016401598
 21
-58.2232517832
  0
LINE
  5
2F9
100
AcDbEntity
  8
0
100
AcDbLine
 62
7
  6
CONTINUOUS
 10
-86.8527977409
 20
-34.0179906571
 11
-86.8422722817
 21
-34.0232517832
  0
LINE
  5
2FA
100
AcDbEntity
  8
0
100
AcDbLine
 62
7
  6
CONTINUOUS
 10
-84.0281045196
 20
-34.0232517832
 11
-84.439407935
 21
-33.7352540312
  0
LINE
  5
2FB
100
AcDbEntity
  8
0
100
AcDbLine
 62
253
  6
CONTINUOUS
 10
-39.6478864769
 20
-72.3233736178
 11
-39.7351884006
 21
-72.2360716941
  0
LINE
  5
2FC
100
AcDbEntity
  8
0
100
AcDbLine
 62
253
  6
CONTINUOUS
 10
-64.8477646423
 20
-46.7232517832
 11
-64.935066566
 21
-46.6359498595
  0
LINE
  5
2FD
100
AcDbEntity
  8
0
100
AcDbLine
 62
253
  6
CONTINUOUS
 10
-64.6478864769
 20
-46.5233736178
 11
-64.7351884006
 21
-46.4360716941
  0
LINE
  5
2FE
100
AcDbEntity
  8
0
100
AcDbLine
 62
253
  6
CONTINUOUS
 10
-81.6001457965
 20
-27.7232517832
 11
-81.6874477203
 21
-27.6359498595
  0
LINE
  5
2FF
100
AcDbEntity
  8
0
100
AcDbLine
 62
253
  6
CONTINUOUS
 10
-81.4002676311
 20
-27.5233736178
 11
-81.4875695549
 21
-27.4360716941
  0
LINE
  5
300
100
AcDbEntity
  8
0
100
AcDbLine
 62
253
  6
CONTINUOUS
 10
-77.2351884006
 20
-28.9231299486
 11
-77.1478864769
 21
-29.0104318723
  0
LINE
  5
301
100
AcDbEntity
  8
0
100
AcDbLine
 62
253
  6
CONTINUOUS
 10
-77.0353102352
 20
-28.7232517832
 11
-76.9480083115
 21
-28.8105537069
  0
LINE
  5
302
100
AcDbEntity
  8
0
100
AcDbLine
 62
253
  6
CONTINUOUS
 10
-72.5307073098
 20
-18.4687706924
 11
-72.5307073098
 21
-15.777732874
  0
LINE
  5
303
100
AcDbEntity
  8
0
100
AcDbLine
 62
253
  6
CONTINUOUS
 10
-72.5307073098
 20
-2.6687706924
 11
-72.5307073098
 21
0.022267126
  0
LINE
  5
304
100
AcDbEntity
  8
0
100
AcDbLine
 62
253
  6
CONTINUOUS
 10
-72.3308291444
 20
-18.268892527
 11
-72.3308291444
 21
-15.9776110394
  0
LINE
  5
305
100
AcDbEntity
  8
0
100
AcDbLine
 62
253
  6
CONTINUOUS
 10
-72.3308291444
 20
-2.468892527
 11
-72.3308291444
 21
-0.1776110394
  0
LINE
  5
306
100
AcDbEntity
  8
0
100
AcDbLine
 62
7
  6
CONTINUOUS
 10
-72.2851884006
 20
-0.2232517832
 11
-72.2851884006
 21
-2.4232517832
  0
LINE
  5
307
100
AcDbEntity
  8
0
100
AcDbLine
 62
7
  6
CONTINUOUS
 10
-72.2851884006
 20
-16.0232517832
 11
-72.2851884006
 21
-18.2232517832
  0
LINE
  5
308
100
AcDbEntity
  8
0
100
AcDbLine
 62
7
  6
CONTINUOUS
 10
-70.7351884006
 20
54.8463678042
 11
-70.7351884006
 21
53.9274076788
  0
LINE
  5
309
100
AcDbEntity
  8
0
100
AcDbLine
 62
7
  6
CONTINUOUS
 10
-70.7351884006
 20
-72.3739112452
 11
-70.7351884006
 21
-73.2928713706
  0
LINE
  5
30A
100
AcDbEntity
  8
0
100
AcDbLine
 62
7
  6
CONTINUOUS
 10
-70.6828072464
 20
-18.170870629
 11
-70.6828072464
 21
-17.6232517832
  0
LINE
  5
30B
100
AcDbEntity
  8
0
100
AcDbLine
 62
7
  6
CONTINUOUS
 10
-70.6828072464
 20
-0.8232517832
 11
-70.6828072464
 21
-0.2756329374
  0
LINE
  5
30C
100
AcDbEntity
  8
0
100
AcDbLine
 62
7
  6
CONTINUOUS
 10
-69.6351884006
 20
54.9061860088
 11
-69.6351884006
 21
54.0685279198
  0
LINE
  5
30D
100
AcDbEntity
  8
0
100
AcDbLine
 62
7
  6
CONTINUOUS
 10
-69.6351884006
 20
-72.5150314861
 11
-69.6351884006
 21
-73.3526895752
  0
LINE
  5
30E
100
AcDbEntity
  8
0
100
AcDbLine
 62
253
  6
CONTINUOUS
 10
-63.7351884006
 20
19.9766263822
 11
-63.8224903244
 21
19.8893244585
  0
LINE
  5
30F
100
AcDbEntity
  8
0
100
AcDbLine
 62
253
  6
CONTINUOUS
 10
-63.5353102352
 20
19.7767482168
 11
-63.622612159
 21
19.6894462931
  0
LINE
  5
310
100
AcDbEntity
  8
0
100
AcDbLine
 62
253
  6
CONTINUOUS
 10
-89.2351884006
 20
-8.5106755415
 11
-89.1478864769
 21
-8.4233736178
  0
LINE
  5
311
100
AcDbEntity
  8
0
100
AcDbLine
 62
253
  6
CONTINUOUS
 10
-89.0353102352
 20
-8.7105537069
 11
-88.9480083115
 21
-8.6232517832
  0
LINE
  5
312
100
AcDbEntity
  8
0
100
AcDbLine
 62
253
  6
CONTINUOUS
 10
-38.7351884006
 20
40.9766263822
 11
-38.8224903244
 21
40.8893244585
  0
LINE
  5
313
100
AcDbEntity
  8
0
100
AcDbLine
 62
253
  6
CONTINUOUS
 10
-39.935066566
 20
39.7767482168
 11
-39.8477646423
 21
39.8640501405
  0
LINE
  5
314
100
AcDbEntity
  8
0
100
AcDbLine
 62
253
  6
CONTINUOUS
 10
-38.5353102352
 20
40.7767482168
 11
-38.622612159
 21
40.6894462931
  0
LINE
  5
315
100
AcDbEntity
  8
0
100
AcDbLine
 62
253
  6
CONTINUOUS
 10
-39.7351884006
 20
39.5768700514
 11
-39.6478864769
 21
39.6641719751
  0
LINE
  5
316
100
AcDbEntity
  8
0
100
AcDbLine
 62
7
  6
CONTINUOUS
 10
-78.1828072464
 20
0.329129371
 11
-78.2351884006
 21
0.2767482168
  0
LINE
  5
317
100
AcDbEntity
  8
0
100
AcDbLine
 62
253
  6
CONTINUOUS
 10
-90.2351884006
 20
-51.5234601165
 11
-90.1478864769
 21
-51.5232517832
  0
LINE
  5
318
100
AcDbEntity
  8
0
100
AcDbLine
 62
253
  6
CONTINUOUS
 10
31.6775096756
 20
-51.5232517832
 11
31.7648115994
 21
-51.5232517832
  0
LINE
  5
319
100
AcDbEntity
  8
0
100
AcDbLine
 62
253
  6
CONTINUOUS
 10
-89.1478864769
 20
-51.5232517832
 11
-89.2351884006
 21
-51.5232517832
  0
LINE
  5
31A
100
AcDbEntity
  8
0
100
AcDbLine
 62
253
  6
CONTINUOUS
 10
32.6775096756
 20
-51.5232517832
 11
32.7648115994
 21
-51.5232519066
  0
LINE
  5
31B
100
AcDbEntity
  8
0
100
AcDbLine
 62
253
  6
CONTINUOUS
 10
-63.7351884006
 20
-38.4231299486
 11
-63.8224903244
 21
-38.3358280249
  0
LINE
  5
31C
100
AcDbEntity
  8
0
100
AcDbLine
 62
253
  6
CONTINUOUS
 10
-63.5353102352
 20
-38.2232517832
 11
-63.622612159
 21
-38.1359498595
  0
LINE
  5
31D
100
AcDbEntity
  8
0
100
AcDbLine
 62
253
  6
CONTINUOUS
 10
-89.1478864769
 20
-10.0231299486
 11
-89.2351884006
 21
-9.9358280249
  0
LINE
  5
31E
100
AcDbEntity
  8
0
100
AcDbLine
 62
253
  6
CONTINUOUS
 10
-88.9480083115
 20
-9.8232517832
 11
-89.0353102352
 21
-9.7359498595
  0
LINE
  5
31F
100
AcDbEntity
  8
0
100
AcDbLine
 62
253
  6
CONTINUOUS
 10
-39.935066566
 20
-58.2232517832
 11
-39.8477646423
 21
-58.3105537069
  0
LINE
  5
320
100
AcDbEntity
  8
0
100
AcDbLine
 62
253
  6
CONTINUOUS
 10
-38.7351884006
 20
-59.4231299486
 11
-38.8224903244
 21
-59.3358280249
  0
LINE
  5
321
100
AcDbEntity
  8
0
100
AcDbLine
 62
253
  6
CONTINUOUS
 10
-39.7351884006
 20
-58.0233736178
 11
-39.6478864769
 21
-58.1106755415
  0
LINE
  5
322
100
AcDbEntity
  8
0
100
AcDbLine
 62
253
  6
CONTINUOUS
 10
-38.5353102352
 20
-59.2232517832
 11
-38.622612159
 21
-59.1359498595
  0
LINE
  5
323
100
AcDbEntity
  8
0
100
AcDbLine
 62
7
  6
CONTINUOUS
 10
-78.1828072464
 20
-18.7756329374
 11
-78.2351884006
 21
-18.7232517832
  0
LINE
  5
324
100
AcDbEntity
  8
0
100
AcDbLine
 62
253
  6
CONTINUOUS
 10
-68.235396734
 20
55.0767482168
 11
-68.2351884006
 21
54.9510334466
  0
LINE
  5
325
100
AcDbEntity
  8
0
100
AcDbLine
 62
7
  6
CONTINUOUS
 10
-69.2875695549
 20
-18.170870629
 11
-69.2875695549
 21
-17.6232517832
  0
LINE
  5
326
100
AcDbEntity
  8
0
100
AcDbLine
 62
7
  6
CONTINUOUS
 10
-69.2875695549
 20
-0.8232517832
 11
-69.2875695549
 21
-0.2756329374
  0
LINE
  5
327
100
AcDbEntity
  8
0
100
AcDbLine
 62
253
  6
CONTINUOUS
 10
-68.2351884006
 20
54.1151610632
 11
-68.2351884006
 21
53.9894462931
  0
LINE
  5
328
100
AcDbEntity
  8
0
100
AcDbLine
 62
253
  6
CONTINUOUS
 10
-68.2351884006
 20
-73.5232517832
 11
-68.2351884006
 21
-73.397537013
  0
LINE
  5
329
100
AcDbEntity
  8
0
100
AcDbLine
 62
253
  6
CONTINUOUS
 10
-68.2351884006
 20
-72.4359498595
 11
-68.2351884006
 21
-72.5616646296
  0
LINE
  5
32A
100
AcDbEntity
  8
0
100
AcDbLine
 62
7
  6
CONTINUOUS
 10
-67.6851884006
 20
-18.2232517832
 11
-67.6851884006
 21
-16.0232517832
  0
LINE
  5
32B
100
AcDbEntity
  8
0
100
AcDbLine
 62
7
  6
CONTINUOUS
 10
-67.6851884006
 20
-2.4232517832
 11
-67.6851884006
 21
-0.2232517832
  0
LINE
  5
32C
100
AcDbEntity
  8
0
100
AcDbLine
 62
253
  6
CONTINUOUS
 10
-67.6395476568
 20
-0.1776110394
 11
-67.6395476568
 21
-2.468892527
  0
LINE
  5
32D
100
AcDbEntity
  8
0
100
AcDbLine
 62
253
  6
CONTINUOUS
 10
-67.6395476568
 20
-15.9776110394
 11
-67.6395476568
 21
-18.268892527
  0
LINE
  5
32E
100
AcDbEntity
  8
0
100
AcDbLine
 62
253
  6
CONTINUOUS
 10
-67.4396694914
 20
0.022267126
 11
-67.4396694914
 21
-2.6687706924
  0
LINE
  5
32F
100
AcDbEntity
  8
0
100
AcDbLine
 62
253
  6
CONTINUOUS
 10
-67.4396694914
 20
-15.777732874
 11
-67.4396694914
 21
-18.4687706924
  0
LINE
  5
330
100
AcDbEntity
  8
0
100
AcDbLine
 62
7
  6
CONTINUOUS
 10
-65.8351884006
 20
-73.397537013
 11
-65.8351884006
 21
-72.5616646296
  0
LINE
  5
331
100
AcDbEntity
  8
0
100
AcDbLine
 62
7
  6
CONTINUOUS
 10
-65.8351884006
 20
54.1151610632
 11
-65.8351884006
 21
54.9510334466
  0
LINE
  5
332
100
AcDbEntity
  8
0
100
AcDbLine
 62
7
  6
CONTINUOUS
 10
-64.7351884006
 20
54.9894462931
 11
-64.7351884006
 21
54.0420525242
  0
LINE
  5
333
100
AcDbEntity
  8
0
100
AcDbLine
 62
7
  6
CONTINUOUS
 10
-64.7351884006
 20
53.7895681277
 11
-64.7351884006
 21
40.9766263822
  0
LINE
  5
334
100
AcDbEntity
  8
0
100
AcDbLine
 62
7
  6
CONTINUOUS
 10
-64.7351884006
 20
39.5768700514
 11
-64.7351884006
 21
29.5639283059
  0
LINE
  5
335
100
AcDbEntity
  8
0
100
AcDbLine
 62
7
  6
CONTINUOUS
 10
-64.7351884006
 20
27.9895681277
 11
-64.7351884006
 21
10.5639283059
  0
LINE
  5
336
100
AcDbEntity
  8
0
100
AcDbLine
 62
7
  6
CONTINUOUS
 10
-64.7351884006
 20
8.9895681277
 11
-64.7351884006
 21
-27.4360716941
  0
LINE
  5
337
100
AcDbEntity
  8
0
100
AcDbLine
 62
7
  6
CONTINUOUS
 10
-64.7351884006
 20
-29.0104318723
 11
-64.7351884006
 21
-46.4360716941
  0
LINE
  5
338
100
AcDbEntity
  8
0
100
AcDbLine
 62
7
  6
CONTINUOUS
 10
-64.7351884006
 20
-48.0104318723
 11
-64.7351884006
 21
-58.0233736178
  0
LINE
  5
339
100
AcDbEntity
  8
0
100
AcDbLine
 62
7
  6
CONTINUOUS
 10
-64.7351884006
 20
-59.4231299486
 11
-64.7351884006
 21
-72.2360716941
  0
LINE
  5
33A
100
AcDbEntity
  8
0
100
AcDbLine
 62
7
  6
CONTINUOUS
 10
-64.7351884006
 20
-72.4885560906
 11
-64.7351884006
 21
-73.4359498595
  0
LINE
  5
33B
100
AcDbEntity
  8
0
100
AcDbLine
 62
7
  6
CONTINUOUS
 10
-64.6478864769
 20
53.8768700514
 11
-64.6478864769
 21
40.8893244585
  0
LINE
  5
33C
100
AcDbEntity
  8
0
100
AcDbLine
 62
7
  6
CONTINUOUS
 10
-64.6478864769
 20
39.6641719751
 11
-64.6478864769
 21
29.4766263822
  0
LINE
  5
33D
100
AcDbEntity
  8
0
100
AcDbLine
 62
7
  6
CONTINUOUS
 10
-64.6478864769
 20
28.0768700514
 11
-64.6478864769
 21
10.4766263822
  0
LINE
  5
33E
100
AcDbEntity
  8
0
100
AcDbLine
 62
7
  6
CONTINUOUS
 10
-64.6478864769
 20
9.0768700514
 11
-64.6478864769
 21
-27.5233736178
  0
LINE
  5
33F
100
AcDbEntity
  8
0
100
AcDbLine
 62
7
  6
CONTINUOUS
 10
-64.6478864769
 20
-28.9231299486
 11
-64.6478864769
 21
-46.5233736178
  0
LINE
  5
340
100
AcDbEntity
  8
0
100
AcDbLine
 62
7
  6
CONTINUOUS
 10
-64.6478864769
 20
-47.9231299486
 11
-64.6478864769
 21
-58.1106755415
  0
LINE
  5
341
100
AcDbEntity
  8
0
100
AcDbLine
 62
7
  6
CONTINUOUS
 10
-64.6478864769
 20
-59.3358280249
 11
-64.6478864769
 21
-72.3233736178
  0
LINE
  5
342
100
AcDbEntity
  8
0
100
AcDbLine
 62
7
  6
CONTINUOUS
 10
-63.8224903244
 20
-72.3233736178
 11
-63.8224903244
 21
-59.3358280249
  0
LINE
  5
343
100
AcDbEntity
  8
0
100
AcDbLine
 62
7
  6
CONTINUOUS
 10
-63.8224903244
 20
-58.1106755415
 11
-63.8224903244
 21
-38.3358280249
  0
LINE
  5
344
100
AcDbEntity
  8
0
100
AcDbLine
 62
7
  6
CONTINUOUS
 10
-63.8224903244
 20
-37.1106755415
 11
-63.8224903244
 21
18.6641719751
  0
LINE
  5
345
100
AcDbEntity
  8
0
100
AcDbLine
 62
7
  6
CONTINUOUS
 10
-63.8224903244
 20
19.8893244585
 11
-63.8224903244
 21
39.6641719751
  0
LINE
  5
346
100
AcDbEntity
  8
0
100
AcDbLine
 62
7
  6
CONTINUOUS
 10
-63.8224903244
 20
40.8893244585
 11
-63.8224903244
 21
53.8768700514
  0
LINE
  5
347
100
AcDbEntity
  8
0
100
AcDbLine
 62
7
  6
CONTINUOUS
 10
-63.7351884006
 20
-72.2360716941
 11
-63.7351884006
 21
-59.4231299486
  0
LINE
  5
348
100
AcDbEntity
  8
0
100
AcDbLine
 62
7
  6
CONTINUOUS
 10
-63.7351884006
 20
-58.0233736178
 11
-63.7351884006
 21
-38.4231299486
  0
LINE
  5
349
100
AcDbEntity
  8
0
100
AcDbLine
 62
7
  6
CONTINUOUS
 10
-63.7351884006
 20
-37.0233736178
 11
-63.7351884006
 21
18.5768700514
  0
LINE
  5
34A
100
AcDbEntity
  8
0
100
AcDbLine
 62
7
  6
CONTINUOUS
 10
-63.7351884006
 20
19.9766263822
 11
-63.7351884006
 21
39.5768700514
  0
LINE
  5
34B
100
AcDbEntity
  8
0
100
AcDbLine
 62
7
  6
CONTINUOUS
 10
-63.7351884006
 20
40.9766263822
 11
-63.7351884006
 21
53.7895681277
  0
LINE
  5
34C
100
AcDbEntity
  8
0
100
AcDbLine
 62
253
  6
CONTINUOUS
 10
-89.8596861702
 20
-60.6232517832
 11
-89.7339714
 21
-60.3082925945
  0
LINE
  5
34D
100
AcDbEntity
  8
0
100
AcDbLine
 62
253
  6
CONTINUOUS
 10
-89.3609031708
 20
-61.1236350468
 11
-89.2351884006
 21
-60.8086758581
  0
LINE
  5
34E
100
AcDbEntity
  8
0
100
AcDbLine
 62
7
  6
CONTINUOUS
 10
-90.2351884006
 20
-64.6382109719
 11
-90.1094736305
 21
-64.3232517832
  0
LINE
  5
34F
100
AcDbEntity
  8
0
100
AcDbLine
 62
253
  6
CONTINUOUS
 10
-64.935066566
 20
9.1894462931
 11
-64.8477646423
 21
9.2767482168
  0
LINE
  5
350
100
AcDbEntity
  8
0
100
AcDbLine
 62
253
  6
CONTINUOUS
 10
-64.7351884006
 20
8.9895681277
 11
-64.6478864769
 21
9.0768700514
  0
LINE
  5
351
100
AcDbEntity
  8
0
100
AcDbLine
 62
253
  6
CONTINUOUS
 10
-18.965066566
 20
53.9894462931
 11
-18.8729537696
 21
54.0815590895
  0
LINE
  5
352
100
AcDbEntity
  8
0
100
AcDbLine
 62
253
  6
CONTINUOUS
 10
-18.7651884006
 20
53.7895681277
 11
-18.6778864769
 21
53.8768700514
  0
LINE
  5
353
100
AcDbEntity
  8
0
100
AcDbLine
 62
253
  6
CONTINUOUS
 10
-81.6874477203
 20
-9.8232517832
 11
-81.6001457965
 21
-9.7359498595
  0
LINE
  5
354
100
AcDbEntity
  8
0
100
AcDbLine
 62
253
  6
CONTINUOUS
 10
-81.4875695549
 20
-10.0231299486
 11
-81.4002676311
 21
-9.9358280249
  0
LINE
  5
355
100
AcDbEntity
  8
0
100
AcDbLine
 62
7
  6
CONTINUOUS
 10
-72.2851884006
 20
-2.4232517832
 11
-72.3308291444
 21
-2.468892527
  0
LINE
  5
356
100
AcDbEntity
  8
0
100
AcDbLine
 62
7
  6
CONTINUOUS
 10
-69.2875695549
 20
-0.2756329374
 11
-69.2351884006
 21
-0.2232517832
  0
LINE
  5
357
100
AcDbEntity
  8
0
100
AcDbLine
 62
7
  6
CONTINUOUS
 10
-5.0850970247
 20
49.4401984324
 11
-5.9852797766
 21
48.9204776782
  0
LINE
  5
358
100
AcDbEntity
  8
0
100
AcDbLine
 62
7
  6
CONTINUOUS
 10
27.0969582028
 20
-42.8232517832
 11
26.5577277183
 21
-42.8420821266
  0
LINE
  5
359
100
AcDbEntity
  8
0
100
AcDbLine
 62
7
  6
CONTINUOUS
 10
-88.9480083115
 20
-47.8105537069
 11
-64.935066566
 21
-47.8105537069
  0
LINE
  5
35A
100
AcDbEntity
  8
0
100
AcDbLine
 62
7
  6
CONTINUOUS
 10
7.4646897648
 20
-47.8105537069
 11
31.4776315102
 21
-47.8105537069
  0
LINE
  5
35B
100
AcDbEntity
  8
0
100
AcDbLine
 62
7
  6
CONTINUOUS
 10
-89.0353102352
 20
-47.7232517832
 11
-64.8477646423
 21
-47.7232517832
  0
LINE
  5
35C
100
AcDbEntity
  8
0
100
AcDbLine
 62
7
  6
CONTINUOUS
 10
7.377387841
 20
-47.7232517832
 11
31.564933434
 21
-47.7232517832
  0
LINE
  5
35D
100
AcDbEntity
  8
0
100
AcDbLine
 62
7
  6
CONTINUOUS
 10
-90.1478864769
 20
-46.7232517832
 11
-78.435066566
 21
-46.7232517832
  0
LINE
  5
35E
100
AcDbEntity
  8
0
100
AcDbLine
 62
7
  6
CONTINUOUS
 10
32.6775096756
 20
-46.7232517832
 11
20.9646897648
 21
-46.7232517832
  0
LINE
  5
35F
100
AcDbEntity
  8
0
100
AcDbLine
 62
7
  6
CONTINUOUS
 10
19.564933434
 20
-46.7232517832
 11
7.377387841
 21
-46.7232517832
  0
LINE
  5
360
100
AcDbEntity
  8
0
100
AcDbLine
 62
7
  6
CONTINUOUS
 10
-64.8477646423
 20
-46.7232517832
 11
-77.0353102352
 21
-46.7232517832
  0
LINE
  5
361
100
AcDbEntity
  8
0
100
AcDbLine
 62
7
  6
CONTINUOUS
 10
19.4776315102
 20
-46.6359498595
 11
7.4646897648
 21
-46.6359498595
  0
LINE
  5
362
100
AcDbEntity
  8
0
100
AcDbLine
 62
7
  6
CONTINUOUS
 10
-64.935066566
 20
-46.6359498595
 11
-76.9480083115
 21
-46.6359498595
  0
LINE
  5
363
100
AcDbEntity
  8
0
100
AcDbLine
 62
7
  6
CONTINUOUS
 10
-90.2002676311
 20
-46.60102909
 11
-78.5572892593
 21
-46.60102909
  0
LINE
  5
364
100
AcDbEntity
  8
0
100
AcDbLine
 62
7
  6
CONTINUOUS
 10
32.7298908299
 20
-46.60102909
 11
21.086912458
 21
-46.60102909
  0
LINE
  5
365
100
AcDbEntity
  8
0
100
AcDbLine
 62
7
  6
CONTINUOUS
 10
-90.2002676311
 20
-45.2581725527
 11
-89.7002676311
 21
-45.2581725527
  0
LINE
  5
366
100
AcDbEntity
  8
0
100
AcDbLine
 62
7
  6
CONTINUOUS
 10
32.2298908299
 20
-45.2581725527
 11
32.7298908299
 21
-45.2581725527
  0
LINE
  5
367
100
AcDbEntity
  8
0
100
AcDbLine
 62
7
  6
CONTINUOUS
 10
-84.0281045196
 20
-42.8420821266
 11
-84.5673350041
 21
-42.8232517832
  0
LINE
  5
368
100
AcDbEntity
  8
0
100
AcDbLine
 62
7
  6
CONTINUOUS
 10
-5.9852797766
 20
-67.3669812446
 11
-5.0850970247
 21
-67.8867019987
  0
LINE
  5
369
100
AcDbEntity
  8
0
100
AcDbLine
 62
253
  6
CONTINUOUS
 10
-64.8477646423
 20
-27.7232517832
 11
-64.935066566
 21
-27.6359498595
  0
LINE
  5
36A
100
AcDbEntity
  8
0
100
AcDbLine
 62
253
  6
CONTINUOUS
 10
-64.6478864769
 20
-27.5233736178
 11
-64.7351884006
 21
-27.4360716941
  0
LINE
  5
36B
100
AcDbEntity
  8
0
100
AcDbLine
 62
253
  6
CONTINUOUS
 10
-18.8729537696
 20
-72.5280626559
 11
-18.965066566
 21
-72.4359498595
  0
LINE
  5
36C
100
AcDbEntity
  8
0
100
AcDbLine
 62
253
  6
CONTINUOUS
 10
-18.6778864769
 20
-72.3233736178
 11
-18.7651884006
 21
-72.2360716941
  0
LINE
  5
36D
100
AcDbEntity
  8
0
100
AcDbLine
 62
253
  6
CONTINUOUS
 10
-81.6874477203
 20
-8.6232517832
 11
-81.6001457965
 21
-8.7105537069
  0
LINE
  5
36E
100
AcDbEntity
  8
0
100
AcDbLine
 62
253
  6
CONTINUOUS
 10
-81.4875695549
 20
-8.4233736178
 11
-81.4002676311
 21
-8.5106755415
  0
LINE
  5
36F
100
AcDbEntity
  8
0
100
AcDbLine
 62
7
  6
CONTINUOUS
 10
-72.2851884006
 20
-16.0232517832
 11
-72.3308291444
 21
-15.9776110394
  0
LINE
  5
370
100
AcDbEntity
  8
0
100
AcDbLine
 62
7
  6
CONTINUOUS
 10
-69.2875695549
 20
-18.170870629
 11
-69.2351884006
 21
-18.2232517832
  0
LINE
  5
371
100
AcDbEntity
  8
0
100
AcDbLine
 62
253
  6
CONTINUOUS
 10
-89.7339714
 20
41.8617890281
 11
-89.8596861702
 21
42.1767482168
  0
LINE
  5
372
100
AcDbEntity
  8
0
100
AcDbLine
 62
253
  6
CONTINUOUS
 10
-89.2351884006
 20
42.3621722917
 11
-89.3609031708
 21
42.6771314804
  0
LINE
  5
373
100
AcDbEntity
  8
0
100
AcDbLine
 62
7
  6
CONTINUOUS
 10
-90.2351884006
 20
46.1917074055
 11
-90.1094736305
 21
45.8767482168
  0
LINE
  5
374
100
AcDbEntity
  8
0
100
AcDbLine
 62
7
  6
CONTINUOUS
 10
-63.1351884006
 20
48.6608283249
 11
-63.1351884006
 21
44.8926681087
  0
LINE
  5
375
100
AcDbEntity
  8
0
100
AcDbLine
 62
7
  6
CONTINUOUS
 10
-63.1351884006
 20
-63.3391716751
 11
-63.1351884006
 21
-67.1073318913
  0
LINE
  5
376
100
AcDbEntity
  8
0
100
AcDbLine
 62
7
  6
CONTINUOUS
 10
-61.9351884006
 20
50.9769309687
 11
-61.9351884006
 21
49.6998477857
  0
LINE
  5
377
100
AcDbEntity
  8
0
100
AcDbLine
 62
7
  6
CONTINUOUS
 10
-61.9351884006
 20
43.8536486479
 11
-61.9351884006
 21
42.5765654649
  0
LINE
  5
378
100
AcDbEntity
  8
0
100
AcDbLine
 62
7
  6
CONTINUOUS
 10
-61.9351884006
 20
-61.0230690313
 11
-61.9351884006
 21
-62.3001522143
  0
LINE
  5
379
100
AcDbEntity
  8
0
100
AcDbLine
 62
7
  6
CONTINUOUS
 10
-61.9351884006
 20
-68.1463513521
 11
-61.9351884006
 21
-69.4234345351
  0
LINE
  5
37A
100
AcDbEntity
  8
0
100
AcDbLine
 62
7
  6
CONTINUOUS
 10
-61.3851884006
 20
48.7767482168
 11
-61.3851884006
 21
44.7767482168
  0
LINE
  5
37B
100
AcDbEntity
  8
0
100
AcDbLine
 62
7
  6
CONTINUOUS
 10
-61.3851884006
 20
-63.2232517832
 11
-61.3851884006
 21
-67.2232517832
  0
LINE
  5
37C
100
AcDbEntity
  8
0
100
AcDbLine
 62
7
  6
CONTINUOUS
 10
-60.7351884006
 20
-69.4234345351
 11
-60.7351884006
 21
-67.2232517832
  0
LINE
  5
37D
100
AcDbEntity
  8
0
100
AcDbLine
 62
7
  6
CONTINUOUS
 10
-60.7351884006
 20
-63.2232517832
 11
-60.7351884006
 21
-61.0230690313
  0
LINE
  5
37E
100
AcDbEntity
  8
0
100
AcDbLine
 62
7
  6
CONTINUOUS
 10
-60.7351884006
 20
42.5765654649
 11
-60.7351884006
 21
44.7767482168
  0
LINE
  5
37F
100
AcDbEntity
  8
0
100
AcDbLine
 62
7
  6
CONTINUOUS
 10
-60.7351884006
 20
48.7767482168
 11
-60.7351884006
 21
50.9769309687
  0
LINE
  5
380
100
AcDbEntity
  8
0
100
AcDbLine
 62
7
  6
CONTINUOUS
 10
-59.2351884006
 20
50.9769309687
 11
-59.2351884006
 21
42.5765654649
  0
LINE
  5
381
100
AcDbEntity
  8
0
100
AcDbLine
 62
7
  6
CONTINUOUS
 10
-59.2351884006
 20
-61.0230690313
 11
-59.2351884006
 21
-69.4234345351
  0
LINE
  5
382
100
AcDbEntity
  8
0
100
AcDbLine
 62
7
  6
CONTINUOUS
 10
-58.2351884006
 20
-69.4234345351
 11
-58.2351884006
 21
-61.0230690313
  0
LINE
  5
383
100
AcDbEntity
  8
0
100
AcDbLine
 62
7
  6
CONTINUOUS
 10
-58.2351884006
 20
42.5765654649
 11
-58.2351884006
 21
50.9769309687
  0
LINE
  5
384
100
AcDbEntity
  8
0
100
AcDbLine
 62
7
  6
CONTINUOUS
 10
-84.0131082931
 20
-33.5401910313
 11
-83.9351884006
 21
-33.4232517832
  0
LINE
  5
385
100
AcDbEntity
  8
0
100
AcDbLine
 62
7
  6
CONTINUOUS
 10
-86.8572685081
 20
-41.9063125351
 11
-86.9351884006
 21
-42.0232517832
  0
LINE
  5
386
100
AcDbEntity
  8
0
100
AcDbLine
 62
7
  6
CONTINUOUS
 10
-67.6851884006
 20
-0.2232517832
 11
-67.6395476568
 21
-0.1776110394
  0
LINE
  5
387
100
AcDbEntity
  8
0
100
AcDbLine
 62
253
  6
CONTINUOUS
 10
-89.1478864769
 20
-27.4360716941
 11
-89.241932781
 21
-27.5301179982
  0
LINE
  5
388
100
AcDbEntity
  8
0
100
AcDbLine
 62
7
  6
CONTINUOUS
 10
-80.2875695549
 20
-18.7756329374
 11
-80.2351884006
 21
-18.7232517832
  0
LINE
  5
389
100
AcDbEntity
  8
0
100
AcDbLine
 62
7
  6
CONTINUOUS
 10
-90.1478864769
 20
-28.7232517832
 11
-90.2351884006
 21
-28.8105537069
  0
LINE
  5
38A
100
AcDbEntity
  8
0
100
AcDbLine
 62
253
  6
CONTINUOUS
 10
-88.9480083115
 20
-27.6359498595
 11
-89.0353102352
 21
-27.7232517832
  0
LINE
  5
38B
100
AcDbEntity
  8
0
100
AcDbLine
 62
7
  6
CONTINUOUS
 10
4.6147202234
 20
44.1132980013
 11
5.5149029753
 21
44.6330187554
  0
LINE
  5
38C
100
AcDbEntity
  8
0
100
AcDbLine
 62
7
  6
CONTINUOUS
 10
-86.3030417972
 20
-42.8232517832
 11
-86.8422722817
 21
-42.8420821266
  0
LINE
  5
38D
100
AcDbEntity
  8
0
100
AcDbLine
 62
253
  6
CONTINUOUS
 10
-86.9351884006
 20
-43.417842633
 11
-83.9351884006
 21
-43.417842633
  0
LINE
  5
38E
100
AcDbEntity
  8
0
100
AcDbLine
 62
253
  6
CONTINUOUS
 10
26.4648115994
 20
-43.417842633
 11
29.4648115994
 21
-43.417842633
  0
LINE
  5
38F
100
AcDbEntity
  8
0
100
AcDbLine
 62
253
  6
CONTINUOUS
 10
-86.9183373745
 20
-42.9181472195
 11
-83.9520394267
 21
-42.9181472195
  0
LINE
  5
390
100
AcDbEntity
  8
0
100
AcDbLine
 62
253
  6
CONTINUOUS
 10
26.4816626255
 20
-42.9181472195
 11
29.4479605733
 21
-42.9181472195
  0
LINE
  5
391
100
AcDbEntity
  8
0
100
AcDbLine
 62
7
  6
CONTINUOUS
 10
27.0969582028
 20
-42.8232517832
 11
28.8326649959
 21
-42.8232517832
  0
LINE
  5
392
100
AcDbEntity
  8
0
100
AcDbLine
 62
7
  6
CONTINUOUS
 10
-84.5673350041
 20
-42.8232517832
 11
-86.3030417972
 21
-42.8232517832
  0
LINE
  5
393
100
AcDbEntity
  8
0
100
AcDbLine
 62
7
  6
CONTINUOUS
 10
29.9648115994
 20
-42.0232517832
 11
29.4648115994
 21
-42.0232517832
  0
LINE
  5
394
100
AcDbEntity
  8
0
100
AcDbLine
 62
7
  6
CONTINUOUS
 10
26.4648115994
 20
-42.0232517832
 11
25.9648115994
 21
-42.0232517832
  0
LINE
  5
395
100
AcDbEntity
  8
0
100
AcDbLine
 62
7
  6
CONTINUOUS
 10
-83.4351884006
 20
-42.0232517832
 11
-83.9351884006
 21
-42.0232517832
  0
LINE
  5
396
100
AcDbEntity
  8
0
100
AcDbLine
 62
7
  6
CONTINUOUS
 10
-86.9351884006
 20
-42.0232517832
 11
-87.4351884006
 21
-42.0232517832
  0
LINE
  5
397
100
AcDbEntity
  8
0
100
AcDbLine
 62
253
  6
CONTINUOUS
 10
-86.3030417972
 20
-41.9569951485
 11
-84.5673350041
 21
-41.9569951485
  0
LINE
  5
398
100
AcDbEntity
  8
0
100
AcDbLine
 62
253
  6
CONTINUOUS
 10
27.0969582028
 20
-41.9569951485
 11
28.8326649959
 21
-41.9569951485
  0
LINE
  5
399
100
AcDbEntity
  8
0
100
AcDbLine
 62
253
  6
CONTINUOUS
 10
-86.4309688663
 20
-41.7112495352
 11
-84.439407935
 21
-41.7112495352
  0
LINE
  5
39A
100
AcDbEntity
  8
0
100
AcDbLine
 62
253
  6
CONTINUOUS
 10
26.9690311337
 20
-41.7112495352
 11
28.960592065
 21
-41.7112495352
  0
LINE
  5
39B
100
AcDbEntity
  8
0
100
AcDbLine
 62
7
  6
CONTINUOUS
 10
-86.8422722817
 20
-41.4232517832
 11
-84.0281045196
 21
-41.4232517832
  0
LINE
  5
39C
100
AcDbEntity
  8
0
100
AcDbLine
 62
7
  6
CONTINUOUS
 10
29.3718954804
 20
-41.4232517832
 11
26.5577277183
 21
-41.4232517832
  0
LINE
  5
39D
100
AcDbEntity
  8
0
100
AcDbLine
 62
7
  6
CONTINUOUS
 10
-87.4481041646
 20
-40.5651780066
 11
-83.4771146241
 21
-40.5651780066
  0
LINE
  5
39E
100
AcDbEntity
  8
0
100
AcDbLine
 62
7
  6
CONTINUOUS
 10
26.0067378228
 20
-40.5651780066
 11
29.9777273633
 21
-40.5651780066
  0
LINE
  5
39F
100
AcDbEntity
  8
0
100
AcDbLine
 62
7
  6
CONTINUOUS
 10
-63.5353102352
 20
-38.2232517832
 11
-39.935066566
 21
-38.2232517832
  0
LINE
  5
3A0
100
AcDbEntity
  8
0
100
AcDbLine
 62
7
  6
CONTINUOUS
 10
-38.5353102352
 20
-38.2232517832
 11
-18.965066566
 21
-38.2232517832
  0
LINE
  5
3A1
100
AcDbEntity
  8
0
100
AcDbLine
 62
7
  6
CONTINUOUS
 10
-17.5653102352
 20
-38.2232517832
 11
6.064933434
 21
-38.2232517832
  0
LINE
  5
3A2
100
AcDbEntity
  8
0
100
AcDbLine
 62
7
  6
CONTINUOUS
 10
-63.622612159
 20
-38.1359498595
 11
-39.8477646423
 21
-38.1359498595
  0
LINE
  5
3A3
100
AcDbEntity
  8
0
100
AcDbLine
 62
7
  6
CONTINUOUS
 10
-38.622612159
 20
-38.1359498595
 11
-18.8777646423
 21
-38.1359498595
  0
LINE
  5
3A4
100
AcDbEntity
  8
0
100
AcDbLine
 62
7
  6
CONTINUOUS
 10
-17.652612159
 20
-38.1359498595
 11
6.1522353577
 21
-38.1359498595
  0
LINE
  5
3A5
100
AcDbEntity
  8
0
100
AcDbLine
 62
7
  6
CONTINUOUS
 10
29.3718954804
 20
-42.8420821266
 11
28.8326649959
 21
-42.8232517832
  0
LINE
  5
3A6
100
AcDbEntity
  8
0
100
AcDbLine
 62
7
  6
CONTINUOUS
 10
5.5149029753
 20
-63.0795223218
 11
4.6147202234
 21
-62.5598015676
  0
LINE
  5
3A7
100
AcDbEntity
  8
0
100
AcDbLine
 62
7
  6
CONTINUOUS
 10
-67.6851884006
 20
-18.2232517832
 11
-67.6395476568
 21
-18.268892527
  0
LINE
  5
3A8
100
AcDbEntity
  8
0
100
AcDbLine
 62
253
  6
CONTINUOUS
 10
-89.1478864769
 20
8.9895681277
 11
-89.241932781
 21
9.0836144318
  0
LINE
  5
3A9
100
AcDbEntity
  8
0
100
AcDbLine
 62
7
  6
CONTINUOUS
 10
-80.2875695549
 20
0.329129371
 11
-80.2351884006
 21
0.2767482168
  0
LINE
  5
3AA
100
AcDbEntity
  8
0
100
AcDbLine
 62
7
  6
CONTINUOUS
 10
-90.1478864769
 20
10.2767482168
 11
-90.2351884006
 21
10.3640501405
  0
LINE
  5
3AB
100
AcDbEntity
  8
0
100
AcDbLine
 62
253
  6
CONTINUOUS
 10
-88.9480083115
 20
9.1894462931
 11
-89.0353102352
 21
9.2767482168
  0
LINE
  5
3AC
100
AcDbEntity
  8
0
100
AcDbLine
 62
7
  6
CONTINUOUS
 10
-84.0131082931
 20
15.0936874649
 11
-83.9351884006
 21
14.9767482168
  0
LINE
  5
3AD
100
AcDbEntity
  8
0
100
AcDbLine
 62
7
  6
CONTINUOUS
 10
-86.8572685081
 20
23.4598089687
 11
-86.9351884006
 21
23.5767482168
  0
LINE
  5
3AE
100
AcDbEntity
  8
0
100
AcDbLine
 62
7
  6
CONTINUOUS
 10
-55.7768550901
 20
-24.9296347626
 11
-56.4476884006
 21
-22.9232517832
  0
LINE
  5
3AF
100
AcDbEntity
  8
0
100
AcDbLine
 62
7
  6
CONTINUOUS
 10
-56.7351884006
 20
-22.9232517832
 11
-55.9685217111
 21
-25.2232517832
  0
LINE
  5
3B0
100
AcDbEntity
  8
0
100
AcDbLine
 62
7
  6
CONTINUOUS
 10
-56.2351884006
 20
50.9769309687
 11
-56.2351884006
 21
42.5765654649
  0
LINE
  5
3B1
100
AcDbEntity
  8
0
100
AcDbLine
 62
7
  6
CONTINUOUS
 10
-56.2351884006
 20
-61.0230690313
 11
-56.2351884006
 21
-69.4234345351
  0
LINE
  5
3B2
100
AcDbEntity
  8
0
100
AcDbLine
 62
7
  6
CONTINUOUS
 10
-55.2351884006
 20
-69.4234345351
 11
-55.2351884006
 21
-61.0230690313
  0
LINE
  5
3B3
100
AcDbEntity
  8
0
100
AcDbLine
 62
7
  6
CONTINUOUS
 10
-55.2351884006
 20
42.5765654649
 11
-55.2351884006
 21
50.9769309687
  0
LINE
  5
3B4
100
AcDbEntity
  8
0
100
AcDbLine
 62
7
  6
CONTINUOUS
 10
-54.4351884006
 20
-22.9232517832
 11
-54.4351884006
 21
-23.1679326051
  0
LINE
  5
3B5
100
AcDbEntity
  8
0
100
AcDbLine
 62
7
  6
CONTINUOUS
 10
-53.7351884006
 20
50.9769309687
 11
-53.7351884006
 21
48.7767482168
  0
LINE
  5
3B6
100
AcDbEntity
  8
0
100
AcDbLine
 62
7
  6
CONTINUOUS
 10
-53.7351884006
 20
44.7767482168
 11
-53.7351884006
 21
42.5765654649
  0
LINE
  5
3B7
100
AcDbEntity
  8
0
100
AcDbLine
 62
7
  6
CONTINUOUS
 10
-53.7351884006
 20
-61.0230690313
 11
-53.7351884006
 21
-63.2232517832
  0
LINE
  5
3B8
100
AcDbEntity
  8
0
100
AcDbLine
 62
7
  6
CONTINUOUS
 10
-53.7351884006
 20
-67.2232517832
 11
-53.7351884006
 21
-69.4234345351
  0
LINE
  5
3B9
100
AcDbEntity
  8
0
100
AcDbLine
 62
7
  6
CONTINUOUS
 10
-53.0851884006
 20
48.7767482168
 11
-53.0851884006
 21
44.7767482168
  0
LINE
  5
3BA
100
AcDbEntity
  8
0
100
AcDbLine
 62
7
  6
CONTINUOUS
 10
-53.0851884006
 20
-67.2232517832
 11
-53.0851884006
 21
-63.2232517832
  0
LINE
  5
3BB
100
AcDbEntity
  8
0
100
AcDbLine
 62
7
  6
CONTINUOUS
 10
-52.7101884006
 20
-23.1679326051
 11
-52.7101884006
 21
-22.9232517832
  0
LINE
  5
3BC
100
AcDbEntity
  8
0
100
AcDbLine
 62
7
  6
CONTINUOUS
 10
-52.5351884006
 20
-69.4234345351
 11
-52.5351884006
 21
-68.1463513521
  0
LINE
  5
3BD
100
AcDbEntity
  8
0
100
AcDbLine
 62
7
  6
CONTINUOUS
 10
-52.5351884006
 20
-62.3001522143
 11
-52.5351884006
 21
-61.0230690313
  0
LINE
  5
3BE
100
AcDbEntity
  8
0
100
AcDbLine
 62
7
  6
CONTINUOUS
 10
-52.5351884006
 20
42.5765654649
 11
-52.5351884006
 21
43.8536486479
  0
LINE
  5
3BF
100
AcDbEntity
  8
0
100
AcDbLine
 62
7
  6
CONTINUOUS
 10
-52.5351884006
 20
49.6998477857
 11
-52.5351884006
 21
50.9769309687
  0
LINE
  5
3C0
100
AcDbEntity
  8
0
100
AcDbLine
 62
7
  6
CONTINUOUS
 10
-52.3268551587
 20
-23.2658049338
 11
-52.3268551587
 21
-23.657294386
  0
LINE
  5
3C1
100
AcDbEntity
  8
0
100
AcDbLine
 62
7
  6
CONTINUOUS
 10
-52.0393548845
 20
-23.3147410982
 11
-52.0393548845
 21
-25.2232517832
  0
LINE
  5
3C2
100
AcDbEntity
  8
0
100
AcDbLine
 62
7
  6
CONTINUOUS
 10
-51.7518548845
 20
-25.2232517832
 11
-51.7518548845
 21
-22.9232517832
  0
LINE
  5
3C3
100
AcDbEntity
  8
0
100
AcDbLine
 62
253
  6
CONTINUOUS
 10
-17.7651884006
 20
40.9766263822
 11
-17.8524903244
 21
40.8893244585
  0
LINE
  5
3C4
100
AcDbEntity
  8
0
100
AcDbLine
 62
253
  6
CONTINUOUS
 10
-18.965066566
 20
39.7767482168
 11
-18.8777646423
 21
39.8640501405
  0
LINE
  5
3C5
100
AcDbEntity
  8
0
100
AcDbLine
 62
253
  6
CONTINUOUS
 10
-38.7351884006
 20
19.9766263822
 11
-38.8224903244
 21
19.8893244585
  0
LINE
  5
3C6
100
AcDbEntity
  8
0
100
AcDbLine
 62
253
  6
CONTINUOUS
 10
-39.935066566
 20
18.7767482168
 11
-39.8477646423
 21
18.8640501405
  0
LINE
  5
3C7
100
AcDbEntity
  8
0
100
AcDbLine
 62
253
  6
CONTINUOUS
 10
-17.5653102352
 20
40.7767482168
 11
-17.652612159
 21
40.6894462931
  0
LINE
  5
3C8
100
AcDbEntity
  8
0
100
AcDbLine
 62
253
  6
CONTINUOUS
 10
-18.7651884006
 20
39.5768700514
 11
-18.6778864769
 21
39.6641719751
  0
LINE
  5
3C9
100
AcDbEntity
  8
0
100
AcDbLine
 62
253
  6
CONTINUOUS
 10
-38.5353102352
 20
19.7767482168
 11
-38.622612159
 21
19.6894462931
  0
LINE
  5
3CA
100
AcDbEntity
  8
0
100
AcDbLine
 62
253
  6
CONTINUOUS
 10
-39.7351884006
 20
18.5768700514
 11
-39.6478864769
 21
18.6641719751
  0
LINE
  5
3CB
100
AcDbEntity
  8
0
100
AcDbLine
 62
7
  6
CONTINUOUS
 10
-72.2851884006
 20
-18.2232517832
 11
-72.3308291444
 21
-18.268892527
  0
LINE
  5
3CC
100
AcDbEntity
  8
0
100
AcDbLine
 62
253
  6
CONTINUOUS
 10
-80.2875695549
 20
-27.4360716941
 11
-80.3748714786
 21
-27.5233736178
  0
LINE
  5
3CD
100
AcDbEntity
  8
0
100
AcDbLine
 62
7
  6
CONTINUOUS
 10
-70.6828072464
 20
-18.170870629
 11
-70.7351884006
 21
-18.2232517832
  0
LINE
  5
3CE
100
AcDbEntity
  8
0
100
AcDbLine
 62
253
  6
CONTINUOUS
 10
-80.0876913895
 20
-27.6359498595
 11
-80.1749933132
 21
-27.7232517832
  0
LINE
  5
3CF
100
AcDbEntity
  8
0
100
AcDbLine
 62
7
  6
CONTINUOUS
 10
29.3718954804
 20
-32.6044214397
 11
28.8326649959
 21
-32.6232517832
  0
LINE
  5
3D0
100
AcDbEntity
  8
0
100
AcDbLine
 62
7
  6
CONTINUOUS
 10
6.1522353577
 20
-37.3105537069
 11
-17.652612159
 21
-37.3105537069
  0
LINE
  5
3D1
100
AcDbEntity
  8
0
100
AcDbLine
 62
7
  6
CONTINUOUS
 10
-18.8777646423
 20
-37.3105537069
 11
-38.622612159
 21
-37.3105537069
  0
LINE
  5
3D2
100
AcDbEntity
  8
0
100
AcDbLine
 62
7
  6
CONTINUOUS
 10
-39.8477646423
 20
-37.3105537069
 11
-63.622612159
 21
-37.3105537069
  0
LINE
  5
3D3
100
AcDbEntity
  8
0
100
AcDbLine
 62
7
  6
CONTINUOUS
 10
6.064933434
 20
-37.2232517832
 11
-17.5653102352
 21
-37.2232517832
  0
LINE
  5
3D4
100
AcDbEntity
  8
0
100
AcDbLine
 62
7
  6
CONTINUOUS
 10
-18.965066566
 20
-37.2232517832
 11
-38.5353102352
 21
-37.2232517832
  0
LINE
  5
3D5
100
AcDbEntity
  8
0
100
AcDbLine
 62
7
  6
CONTINUOUS
 10
-39.935066566
 20
-37.2232517832
 11
-63.5353102352
 21
-37.2232517832
  0
LINE
  5
3D6
100
AcDbEntity
  8
0
100
AcDbLine
 62
7
  6
CONTINUOUS
 10
29.9777273633
 20
-34.8813255598
 11
26.0067378228
 21
-34.8813255598
  0
LINE
  5
3D7
100
AcDbEntity
  8
0
100
AcDbLine
 62
7
  6
CONTINUOUS
 10
-83.4771146241
 20
-34.8813255598
 11
-87.4481041646
 21
-34.8813255598
  0
LINE
  5
3D8
100
AcDbEntity
  8
0
100
AcDbLine
 62
7
  6
CONTINUOUS
 10
-86.8422722817
 20
-34.0232517832
 11
-84.0281045196
 21
-34.0232517832
  0
LINE
  5
3D9
100
AcDbEntity
  8
0
100
AcDbLine
 62
7
  6
CONTINUOUS
 10
29.3718954804
 20
-34.0232517832
 11
26.5577277183
 21
-34.0232517832
  0
LINE
  5
3DA
100
AcDbEntity
  8
0
100
AcDbLine
 62
253
  6
CONTINUOUS
 10
-86.4309688663
 20
-33.7352540312
 11
-84.439407935
 21
-33.7352540312
  0
LINE
  5
3DB
100
AcDbEntity
  8
0
100
AcDbLine
 62
253
  6
CONTINUOUS
 10
26.9690311337
 20
-33.7352540312
 11
28.960592065
 21
-33.7352540312
  0
LINE
  5
3DC
100
AcDbEntity
  8
0
100
AcDbLine
 62
253
  6
CONTINUOUS
 10
-86.3030417972
 20
-33.4895084179
 11
-84.5673350041
 21
-33.4895084179
  0
LINE
  5
3DD
100
AcDbEntity
  8
0
100
AcDbLine
 62
253
  6
CONTINUOUS
 10
27.0969582028
 20
-33.4895084179
 11
28.8326649959
 21
-33.4895084179
  0
LINE
  5
3DE
100
AcDbEntity
  8
0
100
AcDbLine
 62
7
  6
CONTINUOUS
 10
25.9648115994
 20
-33.4232517832
 11
26.4648115994
 21
-33.4232517832
  0
LINE
  5
3DF
100
AcDbEntity
  8
0
100
AcDbLine
 62
7
  6
CONTINUOUS
 10
29.4648115994
 20
-33.4232517832
 11
29.9648115994
 21
-33.4232517832
  0
LINE
  5
3E0
100
AcDbEntity
  8
0
100
AcDbLine
 62
7
  6
CONTINUOUS
 10
-83.4351884006
 20
-33.4232517832
 11
-83.9351884006
 21
-33.4232517832
  0
LINE
  5
3E1
100
AcDbEntity
  8
0
100
AcDbLine
 62
7
  6
CONTINUOUS
 10
-86.9351884006
 20
-33.4232517832
 11
-87.4351884006
 21
-33.4232517832
  0
LINE
  5
3E2
100
AcDbEntity
  8
0
100
AcDbLine
 62
7
  6
CONTINUOUS
 10
27.0969582028
 20
-32.6232517832
 11
28.8326649959
 21
-32.6232517832
  0
LINE
  5
3E3
100
AcDbEntity
  8
0
100
AcDbLine
 62
7
  6
CONTINUOUS
 10
-84.5673350041
 20
-32.6232517832
 11
-86.3030417972
 21
-32.6232517832
  0
LINE
  5
3E4
100
AcDbEntity
  8
0
100
AcDbLine
 62
253
  6
CONTINUOUS
 10
29.4479605733
 20
-32.5283563469
 11
26.4816626255
 21
-32.5283563469
  0
LINE
  5
3E5
100
AcDbEntity
  8
0
100
AcDbLine
 62
253
  6
CONTINUOUS
 10
-83.9520394267
 20
-32.5283563469
 11
-86.9183373745
 21
-32.5283563469
  0
LINE
  5
3E6
100
AcDbEntity
  8
0
100
AcDbLine
 62
7
  6
CONTINUOUS
 10
-86.3030417972
 20
-32.6232517832
 11
-86.8422722817
 21
-32.6044214397
  0
LINE
  5
3E7
100
AcDbEntity
  8
0
100
AcDbLine
 62
7
  6
CONTINUOUS
 10
-51.0810219168
 20
-25.0764432729
 11
-50.8893548845
 21
-25.1743156145
  0
LINE
  5
3E8
100
AcDbEntity
  8
0
100
AcDbLine
 62
7
  6
CONTINUOUS
 10
-50.8893548845
 20
-24.9296347626
 11
-50.9851884006
 21
-24.8806985983
  0
LINE
  5
3E9
100
AcDbEntity
  8
0
100
AcDbLine
 62
7
  6
CONTINUOUS
 10
-46.9122713684
 20
-25.0275071085
 11
-46.6726884006
 21
-25.1743156145
  0
LINE
  5
3EA
100
AcDbEntity
  8
0
100
AcDbLine
 62
7
  6
CONTINUOUS
 10
-51.2247719168
 20
-24.978570927
 11
-51.0810219168
 21
-25.0764432729
  0
LINE
  5
3EB
100
AcDbEntity
  8
0
100
AcDbLine
 62
7
  6
CONTINUOUS
 10
-50.1226884006
 20
-24.1955921941
 11
-49.9789384006
 21
-24.2934645229
  0
LINE
  5
3EC
100
AcDbEntity
  8
0
100
AcDbLine
 62
7
  6
CONTINUOUS
 10
-50.1706048845
 20
-23.2168687695
 11
-50.0268548845
 21
-23.3147410982
  0
LINE
  5
3ED
100
AcDbEntity
  8
0
100
AcDbLine
 62
253
  6
CONTINUOUS
 10
-17.7651884006
 20
-59.4231299486
 11
-17.8524903244
 21
-59.3358280249
  0
LINE
  5
3EE
100
AcDbEntity
  8
0
100
AcDbLine
 62
253
  6
CONTINUOUS
 10
-18.965066566
 20
-58.2232517832
 11
-18.8777646423
 21
-58.3105537069
  0
LINE
  5
3EF
100
AcDbEntity
  8
0
100
AcDbLine
 62
253
  6
CONTINUOUS
 10
-39.935066566
 20
-37.2232517832
 11
-39.8477646423
 21
-37.3105537069
  0
LINE
  5
3F0
100
AcDbEntity
  8
0
100
AcDbLine
 62
253
  6
CONTINUOUS
 10
-38.7351884006
 20
-38.4231299486
 11
-38.8224903244
 21
-38.3358280249
  0
LINE
  5
3F1
100
AcDbEntity
  8
0
100
AcDbLine
 62
253
  6
CONTINUOUS
 10
-17.5653102352
 20
-59.2232517832
 11
-17.652612159
 21
-59.1359498595
  0
LINE
  5
3F2
100
AcDbEntity
  8
0
100
AcDbLine
 62
253
  6
CONTINUOUS
 10
-18.7651884006
 20
-58.0233736178
 11
-18.6778864769
 21
-58.1106755415
  0
LINE
  5
3F3
100
AcDbEntity
  8
0
100
AcDbLine
 62
253
  6
CONTINUOUS
 10
-39.7351884006
 20
-37.0233736178
 11
-39.6478864769
 21
-37.1106755415
  0
LINE
  5
3F4
100
AcDbEntity
  8
0
100
AcDbLine
 62
253
  6
CONTINUOUS
 10
-38.5353102352
 20
-38.2232517832
 11
-38.622612159
 21
-38.1359498595
  0
LINE
  5
3F5
100
AcDbEntity
  8
0
100
AcDbLine
 62
7
  6
CONTINUOUS
 10
-72.2851884006
 20
-0.2232517832
 11
-72.3308291444
 21
-0.1776110394
  0
LINE
  5
3F6
100
AcDbEntity
  8
0
100
AcDbLine
 62
253
  6
CONTINUOUS
 10
-80.3748714786
 20
9.0768700514
 11
-80.2875695549
 21
8.9895681277
  0
LINE
  5
3F7
100
AcDbEntity
  8
0
100
AcDbLine
 62
7
  6
CONTINUOUS
 10
-70.6828072464
 20
-0.2756329374
 11
-70.7351884006
 21
-0.2232517832
  0
LINE
  5
3F8
100
AcDbEntity
  8
0
100
AcDbLine
 62
253
  6
CONTINUOUS
 10
-80.1749933132
 20
9.2767482168
 11
-80.0876913895
 21
9.1894462931
  0
LINE
  5
3F9
100
AcDbEntity
  8
0
100
AcDbLine
 62
7
  6
CONTINUOUS
 10
-50.9851884006
 20
-24.8806985983
 11
-51.0810219168
 21
-24.7828262352
  0
LINE
  5
3FA
100
AcDbEntity
  8
0
100
AcDbLine
 62
7
  6
CONTINUOUS
 10
-49.7393548845
 20
-23.2658049338
 11
-49.9310219168
 21
-23.0700602763
  0
LINE
  5
3FB
100
AcDbEntity
  8
0
100
AcDbLine
 62
7
  6
CONTINUOUS
 10
-47.0560213684
 20
-24.8806985983
 11
-46.9122713684
 21
-25.0275071085
  0
LINE
  5
3FC
100
AcDbEntity
  8
0
100
AcDbLine
 62
7
  6
CONTINUOUS
 10
-47.0081054329
 20
-23.8530390435
 11
-46.8643554329
 21
-23.9998475366
  0
LINE
  5
3FD
100
AcDbEntity
  8
0
100
AcDbLine
 62
7
  6
CONTINUOUS
 10
-47.5831048845
 20
-23.2658049338
 11
-47.7747719168
 21
-23.0700602763
  0
LINE
  5
3FE
100
AcDbEntity
  8
0
100
AcDbLine
 62
7
  6
CONTINUOUS
 10
-46.7685213684
 20
-24.8317624339
 11
-46.9122713684
 21
-24.6360177421
  0
LINE
  5
3FF
100
AcDbEntity
  8
0
100
AcDbLine
 62
7
  6
CONTINUOUS
 10
-51.3206048845
 20
-24.8317624339
 11
-51.2247719168
 21
-24.978570927
  0
LINE
  5
400
100
AcDbEntity
  8
0
100
AcDbLine
 62
7
  6
CONTINUOUS
 10
-49.6914384006
 20
-24.2934645229
 11
-49.7872719168
 21
-24.1466560298
  0
LINE
  5
401
100
AcDbEntity
  8
0
100
AcDbLine
 62
7
  6
CONTINUOUS
 10
-50.0268548845
 20
-23.3147410982
 11
-49.9310219168
 21
-23.4615495914
  0
LINE
  5
402
100
AcDbEntity
  8
0
100
AcDbLine
 62
7
  6
CONTINUOUS
 10
-47.9185219168
 20
-23.3147410982
 11
-47.8226884006
 21
-23.4615495914
  0
LINE
  5
403
100
AcDbEntity
  8
0
100
AcDbLine
 62
7
  6
CONTINUOUS
 10
-46.7685213684
 20
-23.7551667147
 11
-46.8643554329
 21
-23.6083582216
  0
LINE
  5
404
100
AcDbEntity
  8
0
100
AcDbLine
 62
7
  6
CONTINUOUS
 10
-51.0810219168
 20
-24.7828262352
 11
-51.1289384006
 21
-24.6849539065
  0
LINE
  5
405
100
AcDbEntity
  8
0
100
AcDbLine
 62
7
  6
CONTINUOUS
 10
-49.9789384006
 20
-24.2934645229
 11
-49.8831048845
 21
-24.489209249
  0
LINE
  5
406
100
AcDbEntity
  8
0
100
AcDbLine
 62
7
  6
CONTINUOUS
 10
-51.3685219168
 20
-24.6849539065
 11
-51.3206048845
 21
-24.8317624339
  0
LINE
  5
407
100
AcDbEntity
  8
0
100
AcDbLine
 62
7
  6
CONTINUOUS
 10
-49.6435219168
 20
-24.489209249
 11
-49.6914384006
 21
-24.2934645229
  0
LINE
  5
408
100
AcDbEntity
  8
0
100
AcDbLine
 62
7
  6
CONTINUOUS
 10
-49.6914384006
 20
-23.4615495914
 11
-49.7393548845
 21
-23.2658049338
  0
LINE
  5
409
100
AcDbEntity
  8
0
100
AcDbLine
 62
7
  6
CONTINUOUS
 10
-51.3351884006
 20
-67.1073318913
 11
-51.3351884006
 21
-63.3391716751
  0
LINE
  5
40A
100
AcDbEntity
  8
0
100
AcDbLine
 62
7
  6
CONTINUOUS
 10
-51.3351884006
 20
44.8926681087
 11
-51.3351884006
 21
48.6608283249
  0
LINE
  5
40B
100
AcDbEntity
  8
0
100
AcDbLine
 62
7
  6
CONTINUOUS
 10
-50.6018548845
 20
-23.9509113722
 11
-50.6018548845
 21
-24.1466560298
  0
LINE
  5
40C
100
AcDbEntity
  8
0
100
AcDbLine
 62
7
  6
CONTINUOUS
 10
-49.9310219168
 20
-23.4615495914
 11
-49.9310219168
 21
-23.5594220572
  0
LINE
  5
40D
100
AcDbEntity
  8
0
100
AcDbLine
 62
7
  6
CONTINUOUS
 10
-49.8831048845
 20
-24.489209249
 11
-49.8831048845
 21
-24.6849539065
  0
LINE
  5
40E
100
AcDbEntity
  8
0
100
AcDbLine
 62
7
  6
CONTINUOUS
 10
-49.6914384006
 20
-23.5594220572
 11
-49.6914384006
 21
-23.4615495914
  0
LINE
  5
40F
100
AcDbEntity
  8
0
100
AcDbLine
 62
7
  6
CONTINUOUS
 10
-49.6435219168
 20
-24.6849539065
 11
-49.6435219168
 21
-24.489209249
  0
LINE
  5
410
100
AcDbEntity
  8
0
100
AcDbLine
 62
7
  6
CONTINUOUS
 10
-49.2601884006
 20
-24.978570927
 11
-49.2601884006
 21
-25.2232517832
  0
LINE
  5
411
100
AcDbEntity
  8
0
100
AcDbLine
 62
7
  6
CONTINUOUS
 10
-47.8226884006
 20
-23.4615495914
 11
-47.8226884006
 21
-23.5594220572
  0
LINE
  5
412
100
AcDbEntity
  8
0
100
AcDbLine
 62
7
  6
CONTINUOUS
 10
-47.5351884006
 20
-25.2232517832
 11
-47.5351884006
 21
-24.978570927
  0
LINE
  5
413
100
AcDbEntity
  8
0
100
AcDbLine
 62
7
  6
CONTINUOUS
 10
-47.5351884006
 20
-23.5594220572
 11
-47.5351884006
 21
-23.4615495914
  0
LINE
  5
414
100
AcDbEntity
  8
0
100
AcDbLine
 62
7
  6
CONTINUOUS
 10
-47.1518554329
 20
-24.489209249
 11
-47.1518554329
 21
-24.6360177421
  0
LINE
  5
415
100
AcDbEntity
  8
0
100
AcDbLine
 62
7
  6
CONTINUOUS
 10
-47.1039384006
 20
-23.5104858928
 11
-47.1039384006
 21
-23.657294386
  0
LINE
  5
416
100
AcDbEntity
  8
0
100
AcDbLine
 62
7
  6
CONTINUOUS
 10
-46.9122713684
 20
-24.6360177421
 11
-46.9122713684
 21
-24.489209249
  0
LINE
  5
417
100
AcDbEntity
  8
0
100
AcDbLine
 62
7
  6
CONTINUOUS
 10
-46.8643554329
 20
-23.6083582216
 11
-46.8643554329
 21
-23.5104858928
  0
LINE
  5
418
100
AcDbEntity
  8
0
100
AcDbLine
 62
7
  6
CONTINUOUS
 10
-51.2726884006
 20
-23.2658049338
 11
-51.3206048845
 21
-23.4615495914
  0
LINE
  5
419
100
AcDbEntity
  8
0
100
AcDbLine
 62
7
  6
CONTINUOUS
 10
-55.5851884006
 20
-25.2232517832
 11
-54.8185217797
 21
-22.9232517832
  0
LINE
  5
41A
100
AcDbEntity
  8
0
100
AcDbLine
 62
7
  6
CONTINUOUS
 10
-55.1060217797
 20
-22.9232517832
 11
-55.7768550901
 21
-24.9296347626
  0
LINE
  5
41B
100
AcDbEntity
  8
0
100
AcDbLine
 62
7
  6
CONTINUOUS
 10
-67.6851884006
 20
-16.0232517832
 11
-67.6395476568
 21
-15.9776110394
  0
LINE
  5
41C
100
AcDbEntity
  8
0
100
AcDbLine
 62
7
  6
CONTINUOUS
 10
-83.9520394267
 20
-32.5283563469
 11
-84.0281045196
 21
-32.6044214397
  0
LINE
  5
41D
100
AcDbEntity
  8
0
100
AcDbLine
 62
253
  6
CONTINUOUS
 10
-78.435066566
 20
-28.7232517832
 11
-78.5572892593
 21
-28.8454744764
  0
LINE
  5
41E
100
AcDbEntity
  8
0
100
AcDbLine
 62
253
  6
CONTINUOUS
 10
-78.2351884006
 20
-28.9231299486
 11
-78.3574110939
 21
-29.0453526418
  0
LINE
  5
41F
100
AcDbEntity
  8
0
100
AcDbLine
 62
253
  6
CONTINUOUS
 10
6.064933434
 20
53.9894462931
 11
6.1522353577
 21
54.0767482168
  0
LINE
  5
420
100
AcDbEntity
  8
0
100
AcDbLine
 62
253
  6
CONTINUOUS
 10
6.2648115994
 20
53.7895681277
 11
6.3521135231
 21
53.8768700514
  0
LINE
  5
421
100
AcDbEntity
  8
0
100
AcDbLine
 62
7
  6
CONTINUOUS
 10
-86.9183373745
 20
-42.9181472195
 11
-86.8422722817
 21
-42.8420821266
  0
LINE
  5
422
100
AcDbEntity
  8
0
100
AcDbLine
 62
7
  6
CONTINUOUS
 10
-90.2002676311
 20
-46.60102909
 11
-90.2351884006
 21
-46.6359498595
  0
LINE
  5
423
100
AcDbEntity
  8
0
100
AcDbLine
 62
7
  6
CONTINUOUS
 10
-84.0281045196
 20
-32.6044214397
 11
-84.5673350041
 21
-32.6232517832
  0
LINE
  5
424
100
AcDbEntity
  8
0
100
AcDbLine
 62
253
  6
CONTINUOUS
 10
29.4648115994
 20
-32.0286609334
 11
26.4648115994
 21
-32.0286609334
  0
LINE
  5
425
100
AcDbEntity
  8
0
100
AcDbLine
 62
253
  6
CONTINUOUS
 10
-83.9351884006
 20
-32.0286609334
 11
-86.9351884006
 21
-32.0286609334
  0
LINE
  5
426
100
AcDbEntity
  8
0
100
AcDbLine
 62
7
  6
CONTINUOUS
 10
32.7298908299
 20
-30.1883310137
 11
32.2298908299
 21
-30.1883310137
  0
LINE
  5
427
100
AcDbEntity
  8
0
100
AcDbLine
 62
7
  6
CONTINUOUS
 10
-89.7002676311
 20
-30.1883310137
 11
-90.2002676311
 21
-30.1883310137
  0
LINE
  5
428
100
AcDbEntity
  8
0
100
AcDbLine
 62
7
  6
CONTINUOUS
 10
-90.2002676311
 20
-28.8454744764
 11
-78.5572892593
 21
-28.8454744764
  0
LINE
  5
429
100
AcDbEntity
  8
0
100
AcDbLine
 62
7
  6
CONTINUOUS
 10
32.7298908299
 20
-28.8454744764
 11
21.086912458
 21
-28.8454744764
  0
LINE
  5
42A
100
AcDbEntity
  8
0
100
AcDbLine
 62
7
  6
CONTINUOUS
 10
-76.9480083115
 20
-28.8105537069
 11
-64.935066566
 21
-28.8105537069
  0
LINE
  5
42B
100
AcDbEntity
  8
0
100
AcDbLine
 62
7
  6
CONTINUOUS
 10
7.4646897648
 20
-28.8105537069
 11
19.4776315102
 21
-28.8105537069
  0
LINE
  5
42C
100
AcDbEntity
  8
0
100
AcDbLine
 62
7
  6
CONTINUOUS
 10
-90.1478864769
 20
-28.7232517832
 11
-78.435066566
 21
-28.7232517832
  0
LINE
  5
42D
100
AcDbEntity
  8
0
100
AcDbLine
 62
7
  6
CONTINUOUS
 10
-77.0353102352
 20
-28.7232517832
 11
-64.8477646423
 21
-28.7232517832
  0
LINE
  5
42E
100
AcDbEntity
  8
0
100
AcDbLine
 62
7
  6
CONTINUOUS
 10
32.6775096756
 20
-28.7232517832
 11
20.9646897648
 21
-28.7232517832
  0
LINE
  5
42F
100
AcDbEntity
  8
0
100
AcDbLine
 62
7
  6
CONTINUOUS
 10
7.377387841
 20
-28.7232517832
 11
19.564933434
 21
-28.7232517832
  0
LINE
  5
430
100
AcDbEntity
  8
0
100
AcDbLine
 62
7
  6
CONTINUOUS
 10
32.6775096756
 20
-27.7232517832
 11
24.1297689953
 21
-27.7232517832
  0
LINE
  5
431
100
AcDbEntity
  8
0
100
AcDbLine
 62
7
  6
CONTINUOUS
 10
22.7046165119
 20
-27.7232517832
 11
7.377387841
 21
-27.7232517832
  0
LINE
  5
432
100
AcDbEntity
  8
0
100
AcDbLine
 62
7
  6
CONTINUOUS
 10
-64.8477646423
 20
-27.7232517832
 11
-80.1749933132
 21
-27.7232517832
  0
LINE
  5
433
100
AcDbEntity
  8
0
100
AcDbLine
 62
7
  6
CONTINUOUS
 10
-81.6001457965
 20
-27.7232517832
 11
-90.1478864769
 21
-27.7232517832
  0
LINE
  5
434
100
AcDbEntity
  8
0
100
AcDbLine
 62
7
  6
CONTINUOUS
 10
31.4776315102
 20
-27.6359498595
 11
24.217070919
 21
-27.6359498595
  0
LINE
  5
435
100
AcDbEntity
  8
0
100
AcDbLine
 62
7
  6
CONTINUOUS
 10
22.6173145882
 20
-27.6359498595
 11
7.4646897648
 21
-27.6359498595
  0
LINE
  5
436
100
AcDbEntity
  8
0
100
AcDbLine
 62
7
  6
CONTINUOUS
 10
-64.935066566
 20
-27.6359498595
 11
-80.0876913895
 21
-27.6359498595
  0
LINE
  5
437
100
AcDbEntity
  8
0
100
AcDbLine
 62
7
  6
CONTINUOUS
 10
-81.6874477203
 20
-27.6359498595
 11
-88.9480083115
 21
-27.6359498595
  0
LINE
  5
438
100
AcDbEntity
  8
0
100
AcDbLine
 62
7
  6
CONTINUOUS
 10
32.6390968292
 20
-26.6232517832
 11
31.8032244458
 21
-26.6232517832
  0
LINE
  5
439
100
AcDbEntity
  8
0
100
AcDbLine
 62
7
  6
CONTINUOUS
 10
-89.2736012471
 20
-26.6232517832
 11
-90.1094736305
 21
-26.6232517832
  0
LINE
  5
43A
100
AcDbEntity
  8
0
100
AcDbLine
 62
7
  6
CONTINUOUS
 10
27.0969582028
 20
-32.6232517832
 11
26.5577277183
 21
-32.6044214397
  0
LINE
  5
43B
100
AcDbEntity
  8
0
100
AcDbLine
 62
7
  6
CONTINUOUS
 10
-50.4101884006
 20
-24.1466560298
 11
-50.1226884006
 21
-24.1955921941
  0
LINE
  5
43C
100
AcDbEntity
  8
0
100
AcDbLine
 62
7
  6
CONTINUOUS
 10
-50.6497719168
 20
-24.978570927
 11
-50.8893548845
 21
-24.9296347626
  0
LINE
  5
43D
100
AcDbEntity
  8
0
100
AcDbLine
 62
7
  6
CONTINUOUS
 10
-46.6726884006
 20
-25.1743156145
 11
-46.4331054329
 21
-25.2232517832
  0
LINE
  5
43E
100
AcDbEntity
  8
0
100
AcDbLine
 62
7
  6
CONTINUOUS
 10
-50.4101884006
 20
-23.1679326051
 11
-50.1706048845
 21
-23.2168687695
  0
LINE
  5
43F
100
AcDbEntity
  8
0
100
AcDbLine
 62
7
  6
CONTINUOUS
 10
-48.3018548845
 20
-23.1679326051
 11
-48.0622719168
 21
-23.2168687695
  0
LINE
  5
440
100
AcDbEntity
  8
0
100
AcDbLine
 62
7
  6
CONTINUOUS
 10
-50.8893548845
 20
-25.1743156145
 11
-50.6976884006
 21
-25.2232517832
  0
LINE
  5
441
100
AcDbEntity
  8
0
100
AcDbLine
 62
7
  6
CONTINUOUS
 10
-46.3851884006
 20
-24.978570927
 11
-46.5768554329
 21
-24.9296347626
  0
LINE
  5
442
100
AcDbEntity
  8
0
100
AcDbLine
 62
7
  6
CONTINUOUS
 10
-46.1935213684
 20
-24.1466560298
 11
-46.0018554329
 21
-24.1955921941
  0
LINE
  5
443
100
AcDbEntity
  8
0
100
AcDbLine
 62
7
  6
CONTINUOUS
 10
-46.3851884006
 20
-23.9509113722
 11
-46.5768554329
 21
-23.9019752079
  0
LINE
  5
444
100
AcDbEntity
  8
0
100
AcDbLine
 62
7
  6
CONTINUOUS
 10
-46.1935213684
 20
-23.1679326051
 11
-46.0018554329
 21
-23.2168687695
  0
LINE
  5
445
100
AcDbEntity
  8
0
100
AcDbLine
 62
7
  6
CONTINUOUS
 10
-49.7872719168
 20
-24.1466560298
 11
-50.0268548845
 21
-24.048783701
  0
LINE
  5
446
100
AcDbEntity
  8
0
100
AcDbLine
 62
7
  6
CONTINUOUS
 10
-46.5768554329
 20
-24.9296347626
 11
-46.7685213684
 21
-24.8317624339
  0
LINE
  5
447
100
AcDbEntity
  8
0
100
AcDbLine
 62
7
  6
CONTINUOUS
 10
-49.9310219168
 20
-23.0700602763
 11
-50.1226884006
 21
-22.9721879476
  0
LINE
  5
448
100
AcDbEntity
  8
0
100
AcDbLine
 62
7
  6
CONTINUOUS
 10
-46.8643554329
 20
-23.9998475366
 11
-46.7685213684
 21
-24.048783701
  0
LINE
  5
449
100
AcDbEntity
  8
0
100
AcDbLine
 62
7
  6
CONTINUOUS
 10
-46.0018554329
 20
-24.1955921941
 11
-45.8101884006
 21
-24.2934645229
  0
LINE
  5
44A
100
AcDbEntity
  8
0
100
AcDbLine
 62
7
  6
CONTINUOUS
 10
-47.7747719168
 20
-23.0700602763
 11
-47.9664384006
 21
-22.9721879476
  0
LINE
  5
44B
100
AcDbEntity
  8
0
100
AcDbLine
 62
7
  6
CONTINUOUS
 10
-45.7143554329
 20
-24.0977198654
 11
-45.8101884006
 21
-24.048783701
  0
LINE
  5
44C
100
AcDbEntity
  8
0
100
AcDbLine
 62
7
  6
CONTINUOUS
 10
-45.7143554329
 20
-23.1189964407
 11
-45.9539384006
 21
-22.9721879476
  0
LINE
  5
44D
100
AcDbEntity
  8
0
100
AcDbLine
 62
7
  6
CONTINUOUS
 10
-48.0622719168
 20
-23.2168687695
 11
-47.9185219168
 21
-23.3147410982
  0
LINE
  5
44E
100
AcDbEntity
  8
0
100
AcDbLine
 62
7
  6
CONTINUOUS
 10
-46.5768554329
 20
-23.9019752079
 11
-46.7685213684
 21
-23.7551667147
  0
LINE
  5
44F
100
AcDbEntity
  8
0
100
AcDbLine
 62
7
  6
CONTINUOUS
 10
-45.5226884006
 20
-24.2445283585
 11
-45.7143554329
 21
-24.0977198654
  0
LINE
  5
450
100
AcDbEntity
  8
0
100
AcDbLine
 62
7
  6
CONTINUOUS
 10
-46.0018554329
 20
-23.2168687695
 11
-45.8101884006
 21
-23.3636772626
  0
LINE
  5
451
100
AcDbEntity
  8
0
100
AcDbLine
 62
7
  6
CONTINUOUS
 10
-67.6851884006
 20
-2.4232517832
 11
-67.6395476568
 21
-2.468892527
  0
LINE
  5
452
100
AcDbEntity
  8
0
100
AcDbLine
 62
7
  6
CONTINUOUS
 10
-83.9520394267
 20
14.0818527805
 11
-84.0281045196
 21
14.1579178734
  0
LINE
  5
453
100
AcDbEntity
  8
0
100
AcDbLine
 62
253
  6
CONTINUOUS
 10
-78.435066566
 20
10.2767482168
 11
-78.5572892593
 21
10.39897091
  0
LINE
  5
454
100
AcDbEntity
  8
0
100
AcDbLine
 62
253
  6
CONTINUOUS
 10
-78.2351884006
 20
10.4766263822
 11
-78.3574110939
 21
10.5988490754
  0
LINE
  5
455
100
AcDbEntity
  8
0
100
AcDbLine
 62
253
  6
CONTINUOUS
 10
6.1522353577
 20
-72.5232517832
 11
6.064933434
 21
-72.4359498595
  0
LINE
  5
456
100
AcDbEntity
  8
0
100
AcDbLine
 62
253
  6
CONTINUOUS
 10
6.3521135231
 20
-72.3233736178
 11
6.2648115994
 21
-72.2360716941
  0
LINE
  5
457
100
AcDbEntity
  8
0
100
AcDbLine
 62
7
  6
CONTINUOUS
 10
-86.9183373745
 20
24.4716436531
 11
-86.8422722817
 21
24.3955785603
  0
LINE
  5
458
100
AcDbEntity
  8
0
100
AcDbLine
 62
7
  6
CONTINUOUS
 10
-90.2002676311
 20
28.1545255236
 11
-90.2351884006
 21
28.1894462931
  0
LINE
  5
459
100
AcDbEntity
  8
0
100
AcDbLine
 62
7
  6
CONTINUOUS
 10
-45.5706054329
 20
-23.2658049338
 11
-45.7143554329
 21
-23.1189964407
  0
LINE
  5
45A
100
AcDbEntity
  8
0
100
AcDbLine
 62
7
  6
CONTINUOUS
 10
-45.8101884006
 20
-24.2934645229
 11
-45.6664384006
 21
-24.489209249
  0
LINE
  5
45B
100
AcDbEntity
  8
0
100
AcDbLine
 62
7
  6
CONTINUOUS
 10
-45.8101884006
 20
-23.3636772626
 11
-45.7143554329
 21
-23.5104858928
  0
LINE
  5
45C
100
AcDbEntity
  8
0
100
AcDbLine
 62
7
  6
CONTINUOUS
 10
-47.1039384006
 20
-23.657294386
 11
-47.0081054329
 21
-23.8530390435
  0
LINE
  5
45D
100
AcDbEntity
  8
0
100
AcDbLine
 62
7
  6
CONTINUOUS
 10
-47.1518554329
 20
-24.6360177421
 11
-47.0560213684
 21
-24.8806985983
  0
LINE
  5
45E
100
AcDbEntity
  8
0
100
AcDbLine
 62
7
  6
CONTINUOUS
 10
-45.4268554329
 20
-24.489209249
 11
-45.5226884006
 21
-24.2445283585
  0
LINE
  5
45F
100
AcDbEntity
  8
0
100
AcDbLine
 62
7
  6
CONTINUOUS
 10
-45.4747713684
 20
-23.5104858928
 11
-45.5706054329
 21
-23.2658049338
  0
LINE
  5
460
100
AcDbEntity
  8
0
100
AcDbLine
 62
7
  6
CONTINUOUS
 10
-47.5351884006
 20
-23.4615495914
 11
-47.5831048845
 21
-23.2658049338
  0
LINE
  5
461
100
AcDbEntity
  8
0
100
AcDbLine
 62
7
  6
CONTINUOUS
 10
-45.7143554329
 20
-23.5104858928
 11
-45.7143554329
 21
-23.6083582216
  0
LINE
  5
462
100
AcDbEntity
  8
0
100
AcDbLine
 62
7
  6
CONTINUOUS
 10
-45.6664384006
 20
-24.489209249
 11
-45.6664384006
 21
-24.6360177421
  0
LINE
  5
463
100
AcDbEntity
  8
0
100
AcDbLine
 62
7
  6
CONTINUOUS
 10
-45.4747713684
 20
-23.657294386
 11
-45.4747713684
 21
-23.5104858928
  0
LINE
  5
464
100
AcDbEntity
  8
0
100
AcDbLine
 62
7
  6
CONTINUOUS
 10
-45.4268554329
 20
-24.6360177421
 11
-45.4268554329
 21
-24.489209249
  0
LINE
  5
465
100
AcDbEntity
  8
0
100
AcDbLine
 62
7
  6
CONTINUOUS
 10
-49.7393548845
 20
-23.7551667147
 11
-49.6914384006
 21
-23.5594220572
  0
LINE
  5
466
100
AcDbEntity
  8
0
100
AcDbLine
 62
7
  6
CONTINUOUS
 10
-49.1643548845
 20
-23.2658049338
 11
-49.2122719168
 21
-23.4615495914
  0
LINE
  5
467
100
AcDbEntity
  8
0
100
AcDbLine
 62
7
  6
CONTINUOUS
 10
-47.5831048845
 20
-23.7551667147
 11
-47.5351884006
 21
-23.5594220572
  0
LINE
  5
468
100
AcDbEntity
  8
0
100
AcDbLine
 62
7
  6
CONTINUOUS
 10
-49.6914384006
 20
-24.8317624339
 11
-49.6435219168
 21
-24.6849539065
  0
LINE
  5
469
100
AcDbEntity
  8
0
100
AcDbLine
 62
7
  6
CONTINUOUS
 10
-47.0081054329
 20
-23.2658049338
 11
-47.1039384006
 21
-23.5104858928
  0
LINE
  5
46A
100
AcDbEntity
  8
0
100
AcDbLine
 62
7
  6
CONTINUOUS
 10
-47.0560213684
 20
-24.2445283585
 11
-47.1518554329
 21
-24.489209249
  0
LINE
  5
46B
100
AcDbEntity
  8
0
100
AcDbLine
 62
7
  6
CONTINUOUS
 10
-52.9976884006
 20
-23.1679326051
 11
-53.9560216426
 21
-25.2232517832
  0
LINE
  5
46C
100
AcDbEntity
  8
0
100
AcDbLine
 62
7
  6
CONTINUOUS
 10
-53.6685216426
 20
-25.2232517832
 11
-52.7101884006
 21
-23.1679326051
  0
LINE
  5
46D
100
AcDbEntity
  8
0
100
AcDbLine
 62
7
  6
CONTINUOUS
 10
-49.9310219168
 20
-23.5594220572
 11
-50.0268548845
 21
-23.7551667147
  0
LINE
  5
46E
100
AcDbEntity
  8
0
100
AcDbLine
 62
7
  6
CONTINUOUS
 10
-49.8831048845
 20
-24.6849539065
 11
-49.9310219168
 21
-24.7828262352
  0
LINE
  5
46F
100
AcDbEntity
  8
0
100
AcDbLine
 62
253
  6
CONTINUOUS
 10
-17.7651884006
 20
19.9766263822
 11
-17.8524903244
 21
19.8893244585
  0
LINE
  5
470
100
AcDbEntity
  8
0
100
AcDbLine
 62
253
  6
CONTINUOUS
 10
-18.965066566
 20
18.7767482168
 11
-18.8777646423
 21
18.8640501405
  0
LINE
  5
471
100
AcDbEntity
  8
0
100
AcDbLine
 62
253
  6
CONTINUOUS
 10
-17.5653102352
 20
19.7767482168
 11
-17.652612159
 21
19.6894462931
  0
LINE
  5
472
100
AcDbEntity
  8
0
100
AcDbLine
 62
253
  6
CONTINUOUS
 10
-18.7651884006
 20
18.5768700514
 11
-18.6778864769
 21
18.6641719751
  0
LINE
  5
473
100
AcDbEntity
  8
0
100
AcDbLine
 62
253
  6
CONTINUOUS
 10
-64.935066566
 20
-28.8105537069
 11
-64.8477646423
 21
-28.7232517832
  0
LINE
  5
474
100
AcDbEntity
  8
0
100
AcDbLine
 62
253
  6
CONTINUOUS
 10
-64.7351884006
 20
-29.0104318723
 11
-64.6478864769
 21
-28.9231299486
  0
LINE
  5
475
100
AcDbEntity
  8
0
100
AcDbLine
 62
7
  6
CONTINUOUS
 10
-86.4309688663
 20
-33.7352540312
 11
-86.8422722817
 21
-34.0232517832
  0
LINE
  5
476
100
AcDbEntity
  8
0
100
AcDbLine
 62
7
  6
CONTINUOUS
 10
-46.1456054329
 20
-25.2232517832
 11
-45.9060213684
 21
-25.1743156145
  0
LINE
  5
477
100
AcDbEntity
  8
0
100
AcDbLine
 62
7
  6
CONTINUOUS
 10
-50.1226884006
 20
-24.9296347626
 11
-50.3622719168
 21
-24.978570927
  0
LINE
  5
478
100
AcDbEntity
  8
0
100
AcDbLine
 62
7
  6
CONTINUOUS
 10
-16.9181954006
 20
-25.3482517832
 11
-16.6236394006
 21
-25.3482517832
  0
LINE
  5
479
100
AcDbEntity
  8
0
100
AcDbLine
 62
7
  6
CONTINUOUS
 10
-15.9905764006
 20
-25.3482517832
 11
-15.6897284006
 21
-25.3482517832
  0
LINE
  5
47A
100
AcDbEntity
  8
0
100
AcDbLine
 62
7
  6
CONTINUOUS
 10
-15.0567874006
 20
-25.3482517832
 11
-14.7621134006
 21
-25.3482517832
  0
LINE
  5
47B
100
AcDbEntity
  8
0
100
AcDbLine
 62
7
  6
CONTINUOUS
 10
-14.4926044006
 20
-25.3482517832
 11
-14.1792604006
 21
-25.3482517832
  0
LINE
  5
47C
100
AcDbEntity
  8
0
100
AcDbLine
 62
7
  6
CONTINUOUS
 10
-12.8192524006
 20
-25.3482517832
 11
-12.4870384006
 21
-25.3482517832
  0
LINE
  5
47D
100
AcDbEntity
  8
0
100
AcDbLine
 62
7
  6
CONTINUOUS
 10
-12.1924914006
 20
-25.3482517832
 11
-11.2805361261
 21
-25.3482517832
  0
LINE
  5
47E
100
AcDbEntity
  8
0
100
AcDbLine
 62
7
  6
CONTINUOUS
 10
-9.9141954006
 20
-25.3482517832
 11
-8.2532174006
 21
-25.3482517832
  0
LINE
  5
47F
100
AcDbEntity
  8
0
100
AcDbLine
 62
7
  6
CONTINUOUS
 10
-6.9369894006
 20
-25.3482517832
 11
-6.6330354006
 21
-25.3482517832
  0
LINE
  5
480
100
AcDbEntity
  8
0
100
AcDbLine
 62
7
  6
CONTINUOUS
 10
-6.1129054006
 20
-25.3482517832
 11
-5.8182134006
 21
-25.3482517832
  0
LINE
  5
481
100
AcDbEntity
  8
0
100
AcDbLine
 62
7
  6
CONTINUOUS
 10
-4.6681014006
 20
-25.3482517832
 11
-4.3265354006
 21
-25.3482517832
  0
LINE
  5
482
100
AcDbEntity
  8
0
100
AcDbLine
 62
7
  6
CONTINUOUS
 10
-2.9320624006
 20
-25.3482517832
 11
-2.6280174006
 21
-25.3482517832
  0
LINE
  5
483
100
AcDbEntity
  8
0
100
AcDbLine
 62
7
  6
CONTINUOUS
 10
-1.5405744006
 20
-25.3482517832
 11
-1.2366384006
 21
-25.3482517832
  0
LINE
  5
484
100
AcDbEntity
  8
0
100
AcDbLine
 62
7
  6
CONTINUOUS
 10
-0.3873704006
 20
-25.3482517832
 11
-0.0740444006
 21
-25.3482517832
  0
LINE
  5
485
100
AcDbEntity
  8
0
100
AcDbLine
 62
7
  6
CONTINUOUS
 10
1.2860915994
 20
-25.3482517832
 11
1.6183595994
 21
-25.3482517832
  0
LINE
  5
486
100
AcDbEntity
  8
0
100
AcDbLine
 62
7
  6
CONTINUOUS
 10
1.8971305994
 20
-25.3482517832
 11
3.3419345994
 21
-25.3482517832
  0
LINE
  5
487
100
AcDbEntity
  8
0
100
AcDbLine
 62
7
  6
CONTINUOUS
 10
4.2945225994
 20
-25.3482517832
 11
4.5984045994
 21
-25.3482517832
  0
LINE
  5
488
100
AcDbEntity
  8
0
100
AcDbLine
 62
7
  6
CONTINUOUS
 10
-55.9685217111
 20
-25.2232517832
 11
-55.5851884006
 21
-25.2232517832
  0
LINE
  5
489
100
AcDbEntity
  8
0
100
AcDbLine
 62
7
  6
CONTINUOUS
 10
-53.9560216426
 20
-25.2232517832
 11
-53.6685216426
 21
-25.2232517832
  0
LINE
  5
48A
100
AcDbEntity
  8
0
100
AcDbLine
 62
7
  6
CONTINUOUS
 10
-52.0393548845
 20
-25.2232517832
 11
-51.7518548845
 21
-25.2232517832
  0
LINE
  5
48B
100
AcDbEntity
  8
0
100
AcDbLine
 62
7
  6
CONTINUOUS
 10
-50.6976884006
 20
-25.2232517832
 11
-50.3143548845
 21
-25.2232517832
  0
LINE
  5
48C
100
AcDbEntity
  8
0
100
AcDbLine
 62
7
  6
CONTINUOUS
 10
-49.2601884006
 20
-25.2232517832
 11
-47.5351884006
 21
-25.2232517832
  0
LINE
  5
48D
100
AcDbEntity
  8
0
100
AcDbLine
 62
7
  6
CONTINUOUS
 10
-46.4331054329
 20
-25.2232517832
 11
-46.1456054329
 21
-25.2232517832
  0
LINE
  5
48E
100
AcDbEntity
  8
0
100
AcDbLine
 62
7
  6
CONTINUOUS
 10
-11.2882739563
 20
-25.0882237832
 11
-11.8884274006
 21
-25.0882237832
  0
LINE
  5
48F
100
AcDbEntity
  8
0
100
AcDbLine
 62
7
  6
CONTINUOUS
 10
3.3419345994
 20
-25.0787617832
 11
2.2011945994
 21
-25.0787617832
  0
LINE
  5
490
100
AcDbEntity
  8
0
100
AcDbLine
 62
7
  6
CONTINUOUS
 10
-8.2532174006
 20
-25.0787617832
 11
-9.6101504006
 21
-25.0787617832
  0
LINE
  5
491
100
AcDbEntity
  8
0
100
AcDbLine
 62
7
  6
CONTINUOUS
 10
-46.1935213684
 20
-24.978570927
 11
-46.3851884006
 21
-24.978570927
  0
LINE
  5
492
100
AcDbEntity
  8
0
100
AcDbLine
 62
7
  6
CONTINUOUS
 10
-47.5351884006
 20
-24.978570927
 11
-48.8768548845
 21
-24.978570927
  0
LINE
  5
493
100
AcDbEntity
  8
0
100
AcDbLine
 62
7
  6
CONTINUOUS
 10
-50.3622719168
 20
-24.978570927
 11
-50.6497719168
 21
-24.978570927
  0
LINE
  5
494
100
AcDbEntity
  8
0
100
AcDbLine
 62
7
  6
CONTINUOUS
 10
-13.9441974006
 20
-24.6933587832
 11
-13.0417234006
 21
-24.6933587832
  0
LINE
  5
495
100
AcDbEntity
  8
0
100
AcDbLine
 62
7
  6
CONTINUOUS
 10
0.1610365994
 20
-24.6933587832
 11
1.0636025994
 21
-24.6933587832
  0
LINE
  5
496
100
AcDbEntity
  8
0
100
AcDbLine
 62
7
  6
CONTINUOUS
 10
-51.1289384006
 20
-24.6849539065
 11
-51.3685219168
 21
-24.6849539065
  0
LINE
  5
497
100
AcDbEntity
  8
0
100
AcDbLine
 62
7
  6
CONTINUOUS
 10
0.9538955994
 20
-24.4238687832
 11
0.2550585994
 21
-24.4238687832
  0
LINE
  5
498
100
AcDbEntity
  8
0
100
AcDbLine
 62
7
  6
CONTINUOUS
 10
-13.1513204006
 20
-24.4238687832
 11
-13.8501584006
 21
-24.4238687832
  0
LINE
  5
499
100
AcDbEntity
  8
0
100
AcDbLine
 62
7
  6
CONTINUOUS
 10
-9.6101504006
 20
-24.3266987832
 11
-8.3785914006
 21
-24.3266987832
  0
LINE
  5
49A
100
AcDbEntity
  8
0
100
AcDbLine
 62
7
  6
CONTINUOUS
 10
-50.6018548845
 20
-24.1466560298
 11
-50.4101884006
 21
-24.1466560298
  0
LINE
  5
49B
100
AcDbEntity
  8
0
100
AcDbLine
 62
7
  6
CONTINUOUS
 10
-46.3851884006
 20
-24.1466560298
 11
-46.1935213684
 21
-24.1466560298
  0
LINE
  5
49C
100
AcDbEntity
  8
0
100
AcDbLine
 62
7
  6
CONTINUOUS
 10
-8.3785914006
 20
-24.0572087832
 11
-9.6101504006
 21
-24.0572087832
  0
LINE
  5
49D
100
AcDbEntity
  8
0
100
AcDbLine
 62
7
  6
CONTINUOUS
 10
-46.1935213684
 20
-23.9509113722
 11
-46.3851884006
 21
-23.9509113722
  0
LINE
  5
49E
100
AcDbEntity
  8
0
100
AcDbLine
 62
7
  6
CONTINUOUS
 10
-50.4101884006
 20
-23.9509113722
 11
-50.6018548845
 21
-23.9509113722
  0
LINE
  5
49F
100
AcDbEntity
  8
0
100
AcDbLine
 62
7
  6
CONTINUOUS
 10
-51.3206048845
 20
-23.4615495914
 11
-51.0810219168
 21
-23.4615495914
  0
LINE
  5
4A0
100
AcDbEntity
  8
0
100
AcDbLine
 62
7
  6
CONTINUOUS
 10
-49.2122719168
 20
-23.4615495914
 11
-48.9726884006
 21
-23.4615495914
  0
LINE
  5
4A1
100
AcDbEntity
  8
0
100
AcDbLine
 62
7
  6
CONTINUOUS
 10
-9.6101504006
 20
-23.3677417832
 11
-8.2751804006
 21
-23.3677417832
  0
LINE
  5
4A2
100
AcDbEntity
  8
0
100
AcDbLine
 62
7
  6
CONTINUOUS
 10
-2.3020994006
 20
-23.3677417832
 11
-1.5405744006
 21
-23.3677417832
  0
LINE
  5
4A3
100
AcDbEntity
  8
0
100
AcDbLine
 62
7
  6
CONTINUOUS
 10
-1.2366384006
 20
-23.3677417832
 11
-0.4751134006
 21
-23.3677417832
  0
LINE
  5
4A4
100
AcDbEntity
  8
0
100
AcDbLine
 62
7
  6
CONTINUOUS
 10
-11.8884274006
 20
-23.3582797832
 11
-11.2882739563
 21
-23.3582797832
  0
LINE
  5
4A5
100
AcDbEntity
  8
0
100
AcDbLine
 62
7
  6
CONTINUOUS
 10
-54.4351884006
 20
-23.1679326051
 11
-52.9976884006
 21
-23.1679326051
  0
LINE
  5
4A6
100
AcDbEntity
  8
0
100
AcDbLine
 62
7
  6
CONTINUOUS
 10
-50.6018548845
 20
-23.1679326051
 11
-50.4101884006
 21
-23.1679326051
  0
LINE
  5
4A7
100
AcDbEntity
  8
0
100
AcDbLine
 62
7
  6
CONTINUOUS
 10
-48.4935219168
 20
-23.1679326051
 11
-48.3018548845
 21
-23.1679326051
  0
LINE
  5
4A8
100
AcDbEntity
  8
0
100
AcDbLine
 62
7
  6
CONTINUOUS
 10
-46.3851884006
 20
-23.1679326051
 11
-46.1935213684
 21
-23.1679326051
  0
LINE
  5
4A9
100
AcDbEntity
  8
0
100
AcDbLine
 62
7
  6
CONTINUOUS
 10
5.4478185994
 20
-23.0982517832
 11
5.0904385994
 21
-23.0982517832
  0
LINE
  5
4AA
100
AcDbEntity
  8
0
100
AcDbLine
 62
7
  6
CONTINUOUS
 10
3.7993955994
 20
-23.0982517832
 11
3.4452905994
 21
-23.0982517832
  0
LINE
  5
4AB
100
AcDbEntity
  8
0
100
AcDbLine
 62
7
  6
CONTINUOUS
 10
2.2011945994
 20
-23.0982517832
 11
1.8971305994
 21
-23.0982517832
  0
LINE
  5
4AC
100
AcDbEntity
  8
0
100
AcDbLine
 62
7
  6
CONTINUOUS
 10
0.8034645994
 20
-23.0982517832
 11
0.4588045994
 21
-23.0982517832
  0
LINE
  5
4AD
100
AcDbEntity
  8
0
100
AcDbLine
 62
7
  6
CONTINUOUS
 10
-0.4751134006
 20
-23.0982517832
 11
-2.3020994006
 21
-23.0982517832
  0
LINE
  5
4AE
100
AcDbEntity
  8
0
100
AcDbLine
 62
7
  6
CONTINUOUS
 10
-2.6280174006
 20
-23.0982517832
 11
-2.9320624006
 21
-23.0982517832
  0
LINE
  5
4AF
100
AcDbEntity
  8
0
100
AcDbLine
 62
7
  6
CONTINUOUS
 10
-4.3265354006
 20
-23.0982517832
 11
-4.6210824006
 21
-23.0982517832
  0
LINE
  5
4B0
100
AcDbEntity
  8
0
100
AcDbLine
 62
7
  6
CONTINUOUS
 10
-5.7524504006
 20
-23.0982517832
 11
-6.1129054006
 21
-23.0982517832
  0
LINE
  5
4B1
100
AcDbEntity
  8
0
100
AcDbLine
 62
7
  6
CONTINUOUS
 10
-6.6330354006
 20
-23.0982517832
 11
-6.9369894006
 21
-23.0982517832
  0
LINE
  5
4B2
100
AcDbEntity
  8
0
100
AcDbLine
 62
7
  6
CONTINUOUS
 10
-8.2751804006
 20
-23.0982517832
 11
-9.9141954006
 21
-23.0982517832
  0
LINE
  5
4B3
100
AcDbEntity
  8
0
100
AcDbLine
 62
7
  6
CONTINUOUS
 10
-11.2709696353
 20
-23.0982517832
 11
-12.1924914006
 21
-23.0982517832
  0
LINE
  5
4B4
100
AcDbEntity
  8
0
100
AcDbLine
 62
7
  6
CONTINUOUS
 10
-13.3017694006
 20
-23.0982517832
 11
-13.6465394006
 21
-23.0982517832
  0
LINE
  5
4B5
100
AcDbEntity
  8
0
100
AcDbLine
 62
7
  6
CONTINUOUS
 10
-14.7621134006
 20
-23.0982517832
 11
-15.1946264006
 21
-23.0982517832
  0
LINE
  5
4B6
100
AcDbEntity
  8
0
100
AcDbLine
 62
7
  6
CONTINUOUS
 10
-16.4825904006
 20
-23.0982517832
 11
-16.9181954006
 21
-23.0982517832
  0
LINE
  5
4B7
100
AcDbEntity
  8
0
100
AcDbLine
 62
7
  6
CONTINUOUS
 10
-46.1935213684
 20
-22.9232517832
 11
-46.3851884006
 21
-22.9232517832
  0
LINE
  5
4B8
100
AcDbEntity
  8
0
100
AcDbLine
 62
7
  6
CONTINUOUS
 10
-48.2539384006
 20
-22.9232517832
 11
-48.4456048845
 21
-22.9232517832
  0
LINE
  5
4B9
100
AcDbEntity
  8
0
100
AcDbLine
 62
7
  6
CONTINUOUS
 10
-50.4581048845
 20
-22.9232517832
 11
-50.5539384006
 21
-22.9232517832
  0
LINE
  5
4BA
100
AcDbEntity
  8
0
100
AcDbLine
 62
7
  6
CONTINUOUS
 10
-51.7518548845
 20
-22.9232517832
 11
-52.0393548845
 21
-22.9232517832
  0
LINE
  5
4BB
100
AcDbEntity
  8
0
100
AcDbLine
 62
7
  6
CONTINUOUS
 10
-52.7101884006
 20
-22.9232517832
 11
-54.4351884006
 21
-22.9232517832
  0
LINE
  5
4BC
100
AcDbEntity
  8
0
100
AcDbLine
 62
7
  6
CONTINUOUS
 10
-54.8185217797
 20
-22.9232517832
 11
-55.1060217797
 21
-22.9232517832
  0
LINE
  5
4BD
100
AcDbEntity
  8
0
100
AcDbLine
 62
7
  6
CONTINUOUS
 10
-56.4476884006
 20
-22.9232517832
 11
-56.7351884006
 21
-22.9232517832
  0
LINE
  5
4BE
100
AcDbEntity
  8
0
100
AcDbLine
 62
7
  6
CONTINUOUS
 10
-50.1226884006
 20
-22.9721879476
 11
-50.4581048845
 21
-22.9232517832
  0
LINE
  5
4BF
100
AcDbEntity
  8
0
100
AcDbLine
 62
7
  6
CONTINUOUS
 10
-47.9664384006
 20
-22.9721879476
 11
-48.2539384006
 21
-22.9232517832
  0
LINE
  5
4C0
100
AcDbEntity
  8
0
100
AcDbLine
 62
7
  6
CONTINUOUS
 10
-45.9539384006
 20
-22.9721879476
 11
-46.1935213684
 21
-22.9232517832
  0
LINE
  5
4C1
100
AcDbEntity
  8
0
100
AcDbLine
 62
7
  6
CONTINUOUS
 10
-86.4309688663
 20
15.2887504648
 11
-86.8422722817
 21
15.5767482168
  0
LINE
  5
4C2
100
AcDbEntity
  8
0
100
AcDbLine
 62
253
  6
CONTINUOUS
 10
-18.965066566
 20
-37.2232517832
 11
-18.8777646423
 21
-37.3105537069
  0
LINE
  5
4C3
100
AcDbEntity
  8
0
100
AcDbLine
 62
253
  6
CONTINUOUS
 10
-17.7651884006
 20
-38.4231299486
 11
-17.8524903244
 21
-38.3358280249
  0
LINE
  5
4C4
100
AcDbEntity
  8
0
100
AcDbLine
 62
253
  6
CONTINUOUS
 10
-18.7651884006
 20
-37.0233736178
 11
-18.6778864769
 21
-37.1106755415
  0
LINE
  5
4C5
100
AcDbEntity
  8
0
100
AcDbLine
 62
253
  6
CONTINUOUS
 10
-17.5653102352
 20
-38.2232517832
 11
-17.652612159
 21
-38.1359498595
  0
LINE
  5
4C6
100
AcDbEntity
  8
0
100
AcDbLine
 62
253
  6
CONTINUOUS
 10
-64.8477646423
 20
10.2767482168
 11
-64.935066566
 21
10.3640501405
  0
LINE
  5
4C7
100
AcDbEntity
  8
0
100
AcDbLine
 62
253
  6
CONTINUOUS
 10
-64.6478864769
 20
10.4766263822
 11
-64.7351884006
 21
10.5639283059
  0
LINE
  5
4C8
100
AcDbEntity
  8
0
100
AcDbLine
 62
7
  6
CONTINUOUS
 10
-39.7351884006
 20
53.7895681277
 11
-39.7351884006
 21
40.9766263822
  0
LINE
  5
4C9
100
AcDbEntity
  8
0
100
AcDbLine
 62
7
  6
CONTINUOUS
 10
-39.7351884006
 20
39.5768700514
 11
-39.7351884006
 21
19.9766263822
  0
LINE
  5
4CA
100
AcDbEntity
  8
0
100
AcDbLine
 62
7
  6
CONTINUOUS
 10
-39.7351884006
 20
18.5768700514
 11
-39.7351884006
 21
-37.0233736178
  0
LINE
  5
4CB
100
AcDbEntity
  8
0
100
AcDbLine
 62
7
  6
CONTINUOUS
 10
-39.7351884006
 20
-38.4231299486
 11
-39.7351884006
 21
-58.0233736178
  0
LINE
  5
4CC
100
AcDbEntity
  8
0
100
AcDbLine
 62
7
  6
CONTINUOUS
 10
-39.7351884006
 20
-59.4231299486
 11
-39.7351884006
 21
-72.2360716941
  0
LINE
  5
4CD
100
AcDbEntity
  8
0
100
AcDbLine
 62
7
  6
CONTINUOUS
 10
-39.6478864769
 20
53.8768700514
 11
-39.6478864769
 21
40.8893244585
  0
LINE
  5
4CE
100
AcDbEntity
  8
0
100
AcDbLine
 62
7
  6
CONTINUOUS
 10
-39.6478864769
 20
39.6641719751
 11
-39.6478864769
 21
19.8893244585
  0
LINE
  5
4CF
100
AcDbEntity
  8
0
100
AcDbLine
 62
7
  6
CONTINUOUS
 10
-39.6478864769
 20
18.6641719751
 11
-39.6478864769
 21
-37.1106755415
  0
LINE
  5
4D0
100
AcDbEntity
  8
0
100
AcDbLine
 62
7
  6
CONTINUOUS
 10
-39.6478864769
 20
-38.3358280249
 11
-39.6478864769
 21
-58.1106755415
  0
LINE
  5
4D1
100
AcDbEntity
  8
0
100
AcDbLine
 62
7
  6
CONTINUOUS
 10
-39.6478864769
 20
-59.3358280249
 11
-39.6478864769
 21
-72.3233736178
  0
LINE
  5
4D2
100
AcDbEntity
  8
0
100
AcDbLine
 62
7
  6
CONTINUOUS
 10
-38.8224903244
 20
-72.3233736178
 11
-38.8224903244
 21
-59.3358280249
  0
LINE
  5
4D3
100
AcDbEntity
  8
0
100
AcDbLine
 62
7
  6
CONTINUOUS
 10
-38.8224903244
 20
-58.1106755415
 11
-38.8224903244
 21
-38.3358280249
  0
LINE
  5
4D4
100
AcDbEntity
  8
0
100
AcDbLine
 62
7
  6
CONTINUOUS
 10
-38.8224903244
 20
-37.1106755415
 11
-38.8224903244
 21
18.6641719751
  0
LINE
  5
4D5
100
AcDbEntity
  8
0
100
AcDbLine
 62
7
  6
CONTINUOUS
 10
-38.8224903244
 20
19.8893244585
 11
-38.8224903244
 21
39.6641719751
  0
LINE
  5
4D6
100
AcDbEntity
  8
0
100
AcDbLine
 62
7
  6
CONTINUOUS
 10
-38.8224903244
 20
40.8893244585
 11
-38.8224903244
 21
53.8768700514
  0
LINE
  5
4D7
100
AcDbEntity
  8
0
100
AcDbLine
 62
7
  6
CONTINUOUS
 10
-38.7351884006
 20
-72.2360716941
 11
-38.7351884006
 21
-59.4231299486
  0
LINE
  5
4D8
100
AcDbEntity
  8
0
100
AcDbLine
 62
7
  6
CONTINUOUS
 10
-38.7351884006
 20
-58.0233736178
 11
-38.7351884006
 21
-38.4231299486
  0
LINE
  5
4D9
100
AcDbEntity
  8
0
100
AcDbLine
 62
7
  6
CONTINUOUS
 10
-38.7351884006
 20
-37.0233736178
 11
-38.7351884006
 21
18.5768700514
  0
LINE
  5
4DA
100
AcDbEntity
  8
0
100
AcDbLine
 62
7
  6
CONTINUOUS
 10
-38.7351884006
 20
-72.4885560906
 11
-38.7351884006
 21
-73.4359498595
  0
LINE
  5
4DB
100
AcDbEntity
  8
0
100
AcDbLine
 62
7
  6
CONTINUOUS
 10
-38.7351884006
 20
19.9766263822
 11
-38.7351884006
 21
39.5768700514
  0
LINE
  5
4DC
100
AcDbEntity
  8
0
100
AcDbLine
 62
7
  6
CONTINUOUS
 10
-38.7351884006
 20
40.9766263822
 11
-38.7351884006
 21
53.7895681277
  0
LINE
  5
4DD
100
AcDbEntity
  8
0
100
AcDbLine
 62
7
  6
CONTINUOUS
 10
-38.7351884006
 20
54.0420525242
 11
-38.7351884006
 21
54.9894462931
  0
LINE
  5
4DE
100
AcDbEntity
  8
0
100
AcDbLine
 62
7
  6
CONTINUOUS
 10
-37.6351884006
 20
-73.397537013
 11
-37.6351884006
 21
-72.5616646296
  0
LINE
  5
4DF
100
AcDbEntity
  8
0
100
AcDbLine
 62
7
  6
CONTINUOUS
 10
-37.6351884006
 20
54.1151610632
 11
-37.6351884006
 21
54.9510334466
  0
LINE
  5
4E0
100
AcDbEntity
  8
0
100
AcDbLine
 62
7
  6
CONTINUOUS
 10
-45.5226884006
 20
-24.8806985983
 11
-45.4268554329
 21
-24.6360177421
  0
LINE
  5
4E1
100
AcDbEntity
  8
0
100
AcDbLine
 62
7
  6
CONTINUOUS
 10
-47.8226884006
 20
-23.5594220572
 11
-47.9185219168
 21
-23.7551667147
  0
LINE
  5
4E2
100
AcDbEntity
  8
0
100
AcDbLine
 62
7
  6
CONTINUOUS
 10
-45.5706054329
 20
-23.8530390435
 11
-45.4747713684
 21
-23.657294386
  0
LINE
  5
4E3
100
AcDbEntity
  8
0
100
AcDbLine
 62
7
  6
CONTINUOUS
 10
-51.0810219168
 20
-23.4615495914
 11
-50.9851884006
 21
-23.3147410982
  0
LINE
  5
4E4
100
AcDbEntity
  8
0
100
AcDbLine
 62
7
  6
CONTINUOUS
 10
-49.8351884006
 20
-23.9019752079
 11
-49.7393548845
 21
-23.7551667147
  0
LINE
  5
4E5
100
AcDbEntity
  8
0
100
AcDbLine
 62
7
  6
CONTINUOUS
 10
-48.9726884006
 20
-23.4615495914
 11
-48.8768548845
 21
-23.3147410982
  0
LINE
  5
4E6
100
AcDbEntity
  8
0
100
AcDbLine
 62
7
  6
CONTINUOUS
 10
-49.7872719168
 20
-24.978570927
 11
-49.6914384006
 21
-24.8317624339
  0
LINE
  5
4E7
100
AcDbEntity
  8
0
100
AcDbLine
 62
7
  6
CONTINUOUS
 10
-47.6789384006
 20
-23.9019752079
 11
-47.5831048845
 21
-23.7551667147
  0
LINE
  5
4E8
100
AcDbEntity
  8
0
100
AcDbLine
 62
7
  6
CONTINUOUS
 10
-46.8643554329
 20
-23.5104858928
 11
-46.7685213684
 21
-23.3636772626
  0
LINE
  5
4E9
100
AcDbEntity
  8
0
100
AcDbLine
 62
7
  6
CONTINUOUS
 10
-45.7143554329
 20
-23.6083582216
 11
-45.8101884006
 21
-23.7551667147
  0
LINE
  5
4EA
100
AcDbEntity
  8
0
100
AcDbLine
 62
7
  6
CONTINUOUS
 10
-46.9122713684
 20
-24.489209249
 11
-46.7685213684
 21
-24.2934645229
  0
LINE
  5
4EB
100
AcDbEntity
  8
0
100
AcDbLine
 62
7
  6
CONTINUOUS
 10
-52.0393548845
 20
-22.9232517832
 11
-52.3268551587
 21
-23.2658049338
  0
LINE
  5
4EC
100
AcDbEntity
  8
0
100
AcDbLine
 62
7
  6
CONTINUOUS
 10
-52.3268551587
 20
-23.657294386
 11
-52.0393548845
 21
-23.3147410982
  0
LINE
  5
4ED
100
AcDbEntity
  8
0
100
AcDbLine
 62
7
  6
CONTINUOUS
 10
-51.0810219168
 20
-23.0700602763
 11
-51.2726884006
 21
-23.2658049338
  0
LINE
  5
4EE
100
AcDbEntity
  8
0
100
AcDbLine
 62
253
  6
CONTINUOUS
 10
7.2648115994
 20
40.9766263822
 11
7.1775096756
 21
40.8893244585
  0
LINE
  5
4EF
100
AcDbEntity
  8
0
100
AcDbLine
 62
253
  6
CONTINUOUS
 10
6.064933434
 20
39.7767482168
 11
6.1522353577
 21
39.8640501405
  0
LINE
  5
4F0
100
AcDbEntity
  8
0
100
AcDbLine
 62
253
  6
CONTINUOUS
 10
7.4646897648
 20
40.7767482168
 11
7.377387841
 21
40.6894462931
  0
LINE
  5
4F1
100
AcDbEntity
  8
0
100
AcDbLine
 62
253
  6
CONTINUOUS
 10
6.2648115994
 20
39.5768700514
 11
6.3521135231
 21
39.6641719751
  0
LINE
  5
4F2
100
AcDbEntity
  8
0
100
AcDbLine
 62
253
  6
CONTINUOUS
 10
-77.1478864769
 20
-46.4360716941
 11
-77.2351884006
 21
-46.5233736178
  0
LINE
  5
4F3
100
AcDbEntity
  8
0
100
AcDbLine
 62
253
  6
CONTINUOUS
 10
-76.9480083115
 20
-46.6359498595
 11
-77.0353102352
 21
-46.7232517832
  0
LINE
  5
4F4
100
AcDbEntity
  8
0
100
AcDbLine
 62
7
  6
CONTINUOUS
 10
-84.0281045196
 20
-41.4232517832
 11
-84.439407935
 21
-41.7112495352
  0
LINE
  5
4F5
100
AcDbEntity
  8
0
100
AcDbLine
 62
7
  6
CONTINUOUS
 10
-46.0018554329
 20
-24.9296347626
 11
-46.1935213684
 21
-24.978570927
  0
LINE
  5
4F6
100
AcDbEntity
  8
0
100
AcDbLine
 62
7
  6
CONTINUOUS
 10
-50.3143548845
 20
-25.2232517832
 11
-50.1226884006
 21
-25.1743156145
  0
LINE
  5
4F7
100
AcDbEntity
  8
0
100
AcDbLine
 62
7
  6
CONTINUOUS
 10
-46.5768554329
 20
-24.1955921941
 11
-46.3851884006
 21
-24.1466560298
  0
LINE
  5
4F8
100
AcDbEntity
  8
0
100
AcDbLine
 62
7
  6
CONTINUOUS
 10
-46.0018554329
 20
-23.9019752079
 11
-46.1935213684
 21
-23.9509113722
  0
LINE
  5
4F9
100
AcDbEntity
  8
0
100
AcDbLine
 62
7
  6
CONTINUOUS
 10
-46.5768554329
 20
-23.2168687695
 11
-46.3851884006
 21
-23.1679326051
  0
LINE
  5
4FA
100
AcDbEntity
  8
0
100
AcDbLine
 62
7
  6
CONTINUOUS
 10
-46.3851884006
 20
-22.9232517832
 11
-46.6247713684
 21
-22.9721879476
  0
LINE
  5
4FB
100
AcDbEntity
  8
0
100
AcDbLine
 62
7
  6
CONTINUOUS
 10
-48.7331048845
 20
-23.2168687695
 11
-48.4935219168
 21
-23.1679326051
  0
LINE
  5
4FC
100
AcDbEntity
  8
0
100
AcDbLine
 62
7
  6
CONTINUOUS
 10
-50.8414384006
 20
-23.2168687695
 11
-50.6018548845
 21
-23.1679326051
  0
LINE
  5
4FD
100
AcDbEntity
  8
0
100
AcDbLine
 62
7
  6
CONTINUOUS
 10
-48.4456048845
 20
-22.9232517832
 11
-48.7810219168
 21
-22.9721879476
  0
LINE
  5
4FE
100
AcDbEntity
  8
0
100
AcDbLine
 62
7
  6
CONTINUOUS
 10
-50.5539384006
 20
-22.9232517832
 11
-50.8893548845
 21
-22.9721879476
  0
LINE
  5
4FF
100
AcDbEntity
  8
0
100
AcDbLine
 62
7
  6
CONTINUOUS
 10
20.7124304451
 20
-18.7756329374
 11
22.8171927536
 21
-18.7756329374
  0
LINE
  5
500
100
AcDbEntity
  8
0
100
AcDbLine
 62
7
  6
CONTINUOUS
 10
-78.1828072464
 20
-18.7756329374
 11
-80.2875695549
 21
-18.7756329374
  0
LINE
  5
501
100
AcDbEntity
  8
0
100
AcDbLine
 62
7
  6
CONTINUOUS
 10
20.7648115994
 20
-18.7232517832
 11
22.7648115994
 21
-18.7232517832
  0
LINE
  5
502
100
AcDbEntity
  8
0
100
AcDbLine
 62
7
  6
CONTINUOUS
 10
-78.2351884006
 20
-18.7232517832
 11
-80.2351884006
 21
-18.7232517832
  0
LINE
  5
503
100
AcDbEntity
  8
0
100
AcDbLine
 62
253
  6
CONTINUOUS
 10
15.0603305086
 20
-18.4687706924
 11
9.9692926902
 21
-18.4687706924
  0
LINE
  5
504
100
AcDbEntity
  8
0
100
AcDbLine
 62
253
  6
CONTINUOUS
 10
-67.4396694914
 20
-18.4687706924
 11
-72.5307073098
 21
-18.4687706924
  0
LINE
  5
505
100
AcDbEntity
  8
0
100
AcDbLine
 62
253
  6
CONTINUOUS
 10
14.8604523432
 20
-18.268892527
 11
10.1691708556
 21
-18.268892527
  0
LINE
  5
506
100
AcDbEntity
  8
0
100
AcDbLine
 62
253
  6
CONTINUOUS
 10
-67.6395476568
 20
-18.268892527
 11
-72.3308291444
 21
-18.268892527
  0
LINE
  5
507
100
AcDbEntity
  8
0
100
AcDbLine
 62
7
  6
CONTINUOUS
 10
10.2148115994
 20
-18.2232517832
 11
11.7648115994
 21
-18.2232517832
  0
LINE
  5
508
100
AcDbEntity
  8
0
100
AcDbLine
 62
7
  6
CONTINUOUS
 10
13.2648115994
 20
-18.2232517832
 11
14.8148115994
 21
-18.2232517832
  0
LINE
  5
509
100
AcDbEntity
  8
0
100
AcDbLine
 62
7
  6
CONTINUOUS
 10
20.7550661534
 20
-18.2232517832
 11
21.7648115994
 21
-18.2232517832
  0
LINE
  5
50A
100
AcDbEntity
  8
0
100
AcDbLine
 62
7
  6
CONTINUOUS
 10
-67.6851884006
 20
-18.2232517832
 11
-69.2351884006
 21
-18.2232517832
  0
LINE
  5
50B
100
AcDbEntity
  8
0
100
AcDbLine
 62
7
  6
CONTINUOUS
 10
-70.7351884006
 20
-18.2232517832
 11
-72.2851884006
 21
-18.2232517832
  0
LINE
  5
50C
100
AcDbEntity
  8
0
100
AcDbLine
 62
7
  6
CONTINUOUS
 10
-78.2254429547
 20
-18.2232517832
 11
-79.2351884006
 21
-18.2232517832
  0
LINE
  5
50D
100
AcDbEntity
  8
0
100
AcDbLine
 62
7
  6
CONTINUOUS
 10
-70.6828072464
 20
-18.170870629
 11
-69.2875695549
 21
-18.170870629
  0
LINE
  5
50E
100
AcDbEntity
  8
0
100
AcDbLine
 62
7
  6
CONTINUOUS
 10
13.2124304451
 20
-18.170870629
 11
11.8171927536
 21
-18.170870629
  0
LINE
  5
50F
100
AcDbEntity
  8
0
100
AcDbLine
 62
7
  6
CONTINUOUS
 10
-70.6828072464
 20
-17.6232517832
 11
-69.2875695549
 21
-17.6232517832
  0
LINE
  5
510
100
AcDbEntity
  8
0
100
AcDbLine
 62
7
  6
CONTINUOUS
 10
13.2124304451
 20
-17.6232517832
 11
11.8171927536
 21
-17.6232517832
  0
LINE
  5
511
100
AcDbEntity
  8
0
100
AcDbLine
 62
7
  6
CONTINUOUS
 10
10.2148115994
 20
-16.0232517832
 11
14.8148115994
 21
-16.0232517832
  0
LINE
  5
512
100
AcDbEntity
  8
0
100
AcDbLine
 62
7
  6
CONTINUOUS
 10
-67.6851884006
 20
-16.0232517832
 11
-72.2851884006
 21
-16.0232517832
  0
LINE
  5
513
100
AcDbEntity
  8
0
100
AcDbLine
 62
253
  6
CONTINUOUS
 10
-72.3308291444
 20
-15.9776110394
 11
-67.6395476568
 21
-15.9776110394
  0
LINE
  5
514
100
AcDbEntity
  8
0
100
AcDbLine
 62
253
  6
CONTINUOUS
 10
10.1691708556
 20
-15.9776110394
 11
14.8604523432
 21
-15.9776110394
  0
LINE
  5
515
100
AcDbEntity
  8
0
100
AcDbLine
 62
253
  6
CONTINUOUS
 10
-72.5307073098
 20
-15.777732874
 11
-67.4396694914
 21
-15.777732874
  0
LINE
  5
516
100
AcDbEntity
  8
0
100
AcDbLine
 62
253
  6
CONTINUOUS
 10
9.9692926902
 20
-15.777732874
 11
15.0603305086
 21
-15.777732874
  0
LINE
  5
517
100
AcDbEntity
  8
0
100
AcDbLine
 62
7
  6
CONTINUOUS
 10
-84.0281045196
 20
22.9767482168
 11
-84.439407935
 21
23.2647459688
  0
LINE
  5
518
100
AcDbEntity
  8
0
100
AcDbLine
 62
253
  6
CONTINUOUS
 10
7.2648115994
 20
-59.4231299486
 11
7.1775096756
 21
-59.3358280249
  0
LINE
  5
519
100
AcDbEntity
  8
0
100
AcDbLine
 62
253
  6
CONTINUOUS
 10
6.064933434
 20
-58.2232517832
 11
6.1522353577
 21
-58.3105537069
  0
LINE
  5
51A
100
AcDbEntity
  8
0
100
AcDbLine
 62
253
  6
CONTINUOUS
 10
7.4646897648
 20
-59.2232517832
 11
7.377387841
 21
-59.1359498595
  0
LINE
  5
51B
100
AcDbEntity
  8
0
100
AcDbLine
 62
253
  6
CONTINUOUS
 10
6.2648115994
 20
-58.0233736178
 11
6.3521135231
 21
-58.1106755415
  0
LINE
  5
51C
100
AcDbEntity
  8
0
100
AcDbLine
 62
253
  6
CONTINUOUS
 10
-77.2351884006
 20
28.0768700514
 11
-77.1478864769
 21
27.9895681277
  0
LINE
  5
51D
100
AcDbEntity
  8
0
100
AcDbLine
 62
253
  6
CONTINUOUS
 10
-77.0353102352
 20
28.2767482168
 11
-76.9480083115
 21
28.1894462931
  0
LINE
  5
51E
100
AcDbEntity
  8
0
100
AcDbLine
 62
7
  6
CONTINUOUS
 10
-45.6664384006
 20
-24.6360177421
 11
-45.8101884006
 21
-24.8317624339
  0
LINE
  5
51F
100
AcDbEntity
  8
0
100
AcDbLine
 62
7
  6
CONTINUOUS
 10
-50.0268548845
 20
-23.7551667147
 11
-50.1226884006
 21
-23.8530390435
  0
LINE
  5
520
100
AcDbEntity
  8
0
100
AcDbLine
 62
7
  6
CONTINUOUS
 10
-48.9726884006
 20
-23.0700602763
 11
-49.1643548845
 21
-23.2658049338
  0
LINE
  5
521
100
AcDbEntity
  8
0
100
AcDbLine
 62
7
  6
CONTINUOUS
 10
-49.9310219168
 20
-24.7828262352
 11
-50.0268548845
 21
-24.8806985983
  0
LINE
  5
522
100
AcDbEntity
  8
0
100
AcDbLine
 62
7
  6
CONTINUOUS
 10
-46.8643554329
 20
-23.1189964407
 11
-47.0081054329
 21
-23.2658049338
  0
LINE
  5
523
100
AcDbEntity
  8
0
100
AcDbLine
 62
7
  6
CONTINUOUS
 10
-45.7143554329
 20
-23.9998475366
 11
-45.5706054329
 21
-23.8530390435
  0
LINE
  5
524
100
AcDbEntity
  8
0
100
AcDbLine
 62
7
  6
CONTINUOUS
 10
-45.6664384006
 20
-25.0275071085
 11
-45.5226884006
 21
-24.8806985983
  0
LINE
  5
525
100
AcDbEntity
  8
0
100
AcDbLine
 62
253
  6
CONTINUOUS
 10
-63.7351884006
 20
-37.0233736178
 11
-63.8224903244
 21
-37.1106755415
  0
LINE
  5
526
100
AcDbEntity
  8
0
100
AcDbLine
 62
253
  6
CONTINUOUS
 10
-63.5353102352
 20
-37.2232517832
 11
-63.622612159
 21
-37.3105537069
  0
LINE
  5
527
100
AcDbEntity
  8
0
100
AcDbLine
 62
253
  6
CONTINUOUS
 10
7.2648115994
 20
29.5639283059
 11
7.1775096756
 21
29.4766263822
  0
LINE
  5
528
100
AcDbEntity
  8
0
100
AcDbLine
 62
253
  6
CONTINUOUS
 10
7.4646897648
 20
29.3640501405
 11
7.377387841
 21
29.2767482168
  0
LINE
  5
529
100
AcDbEntity
  8
0
100
AcDbLine
 62
7
  6
CONTINUOUS
 10
-47.9185219168
 20
-23.7551667147
 11
-49.2601884006
 21
-24.978570927
  0
LINE
  5
52A
100
AcDbEntity
  8
0
100
AcDbLine
 62
7
  6
CONTINUOUS
 10
-48.8768548845
 20
-24.978570927
 11
-47.6789384006
 21
-23.9019752079
  0
LINE
  5
52B
100
AcDbEntity
  8
0
100
AcDbLine
 62
7
  6
CONTINUOUS
 10
-50.0268548845
 20
-24.048783701
 11
-49.8351884006
 21
-23.9019752079
  0
LINE
  5
52C
100
AcDbEntity
  8
0
100
AcDbLine
 62
7
  6
CONTINUOUS
 10
-46.7685213684
 20
-23.3636772626
 11
-46.5768554329
 21
-23.2168687695
  0
LINE
  5
52D
100
AcDbEntity
  8
0
100
AcDbLine
 62
7
  6
CONTINUOUS
 10
-46.8643554329
 20
-24.0977198654
 11
-47.0560213684
 21
-24.2445283585
  0
LINE
  5
52E
100
AcDbEntity
  8
0
100
AcDbLine
 62
7
  6
CONTINUOUS
 10
-50.9851884006
 20
-23.3147410982
 11
-50.8414384006
 21
-23.2168687695
  0
LINE
  5
52F
100
AcDbEntity
  8
0
100
AcDbLine
 62
7
  6
CONTINUOUS
 10
-48.8768548845
 20
-23.3147410982
 11
-48.7331048845
 21
-23.2168687695
  0
LINE
  5
530
100
AcDbEntity
  8
0
100
AcDbLine
 62
7
  6
CONTINUOUS
 10
29.3824209396
 20
22.9820093429
 11
29.3718954804
 21
22.9767482168
  0
LINE
  5
531
100
AcDbEntity
  8
0
100
AcDbLine
 62
7
  6
CONTINUOUS
 10
-84.0175790604
 20
-34.0179906571
 11
-84.0281045196
 21
-34.0232517832
  0
LINE
  5
532
100
AcDbEntity
  8
0
100
AcDbLine
 62
7
  6
CONTINUOUS
 10
-88.9480083115
 20
-9.8232517832
 11
-81.6874477203
 21
-9.8232517832
  0
LINE
  5
533
100
AcDbEntity
  8
0
100
AcDbLine
 62
7
  6
CONTINUOUS
 10
24.217070919
 20
-9.8232517832
 11
31.4776315102
 21
-9.8232517832
  0
LINE
  5
534
100
AcDbEntity
  8
0
100
AcDbLine
 62
7
  6
CONTINUOUS
 10
-89.0353102352
 20
-9.7359498595
 11
-81.6001457965
 21
-9.7359498595
  0
LINE
  5
535
100
AcDbEntity
  8
0
100
AcDbLine
 62
7
  6
CONTINUOUS
 10
24.1297689953
 20
-9.7359498595
 11
31.564933434
 21
-9.7359498595
  0
LINE
  5
536
100
AcDbEntity
  8
0
100
AcDbLine
 62
7
  6
CONTINUOUS
 10
31.564933434
 20
-8.7105537069
 11
24.1297689953
 21
-8.7105537069
  0
LINE
  5
537
100
AcDbEntity
  8
0
100
AcDbLine
 62
7
  6
CONTINUOUS
 10
-81.6001457965
 20
-8.7105537069
 11
-89.0353102352
 21
-8.7105537069
  0
LINE
  5
538
100
AcDbEntity
  8
0
100
AcDbLine
 62
7
  6
CONTINUOUS
 10
31.4776315102
 20
-8.6232517832
 11
24.217070919
 21
-8.6232517832
  0
LINE
  5
539
100
AcDbEntity
  8
0
100
AcDbLine
 62
7
  6
CONTINUOUS
 10
-81.6874477203
 20
-8.6232517832
 11
-88.9480083115
 21
-8.6232517832
  0
LINE
  5
53A
100
AcDbEntity
  8
0
100
AcDbLine
 62
7
  6
CONTINUOUS
 10
29.3718954804
 20
-41.4232517832
 11
29.3824209396
 21
-41.4285129093
  0
LINE
  5
53B
100
AcDbEntity
  8
0
100
AcDbLine
 62
7
  6
CONTINUOUS
 10
-84.0281045196
 20
15.5767482168
 11
-84.0175790604
 21
15.5714870907
  0
LINE
  5
53C
100
AcDbEntity
  8
0
100
AcDbLine
 62
253
  6
CONTINUOUS
 10
-63.7351884006
 20
18.5768700514
 11
-63.8224903244
 21
18.6641719751
  0
LINE
  5
53D
100
AcDbEntity
  8
0
100
AcDbLine
 62
253
  6
CONTINUOUS
 10
-63.5353102352
 20
18.7767482168
 11
-63.622612159
 21
18.8640501405
  0
LINE
  5
53E
100
AcDbEntity
  8
0
100
AcDbLine
 62
253
  6
CONTINUOUS
 10
7.1775096756
 20
-47.9231299486
 11
7.2648115994
 21
-48.0104318723
  0
LINE
  5
53F
100
AcDbEntity
  8
0
100
AcDbLine
 62
253
  6
CONTINUOUS
 10
7.377387841
 20
-47.7232517832
 11
7.4646897648
 21
-47.8105537069
  0
LINE
  5
540
100
AcDbEntity
  8
0
100
AcDbLine
 62
253
  6
CONTINUOUS
 10
-64.935066566
 20
-47.8105537069
 11
-64.8477646423
 21
-47.7232517832
  0
LINE
  5
541
100
AcDbEntity
  8
0
100
AcDbLine
 62
253
  6
CONTINUOUS
 10
-64.7351884006
 20
-48.0104318723
 11
-64.6478864769
 21
-47.9231299486
  0
LINE
  5
542
100
AcDbEntity
  8
0
100
AcDbLine
 62
253
  6
CONTINUOUS
 10
6.064933434
 20
18.7767482168
 11
6.1522353577
 21
18.8640501405
  0
LINE
  5
543
100
AcDbEntity
  8
0
100
AcDbLine
 62
253
  6
CONTINUOUS
 10
6.2648115994
 20
18.5768700514
 11
6.3521135231
 21
18.6641719751
  0
LINE
  5
544
100
AcDbEntity
  8
0
100
AcDbLine
 62
7
  6
CONTINUOUS
 10
-45.8101884006
 20
-23.7551667147
 11
-46.0018554329
 21
-23.9019752079
  0
LINE
  5
545
100
AcDbEntity
  8
0
100
AcDbLine
 62
7
  6
CONTINUOUS
 10
26.9690311337
 20
23.2647459688
 11
26.5577277183
 21
22.9767482168
  0
LINE
  5
546
100
AcDbEntity
  8
0
100
AcDbLine
 62
7
  6
CONTINUOUS
 10
-49.9310219168
 20
-25.0764432729
 11
-49.7872719168
 21
-24.978570927
  0
LINE
  5
547
100
AcDbEntity
  8
0
100
AcDbLine
 62
7
  6
CONTINUOUS
 10
-46.6247713684
 20
-22.9721879476
 11
-46.8643554329
 21
-23.1189964407
  0
LINE
  5
548
100
AcDbEntity
  8
0
100
AcDbLine
 62
7
  6
CONTINUOUS
 10
-45.9060213684
 20
-25.1743156145
 11
-45.6664384006
 21
-25.0275071085
  0
LINE
  5
549
100
AcDbEntity
  8
0
100
AcDbLine
 62
7
  6
CONTINUOUS
 10
-50.8893548845
 20
-22.9721879476
 11
-51.0810219168
 21
-23.0700602763
  0
LINE
  5
54A
100
AcDbEntity
  8
0
100
AcDbLine
 62
7
  6
CONTINUOUS
 10
-48.7810219168
 20
-22.9721879476
 11
-48.9726884006
 21
-23.0700602763
  0
LINE
  5
54B
100
AcDbEntity
  8
0
100
AcDbLine
 62
7
  6
CONTINUOUS
 10
-50.0268548845
 20
-24.8806985983
 11
-50.1226884006
 21
-24.9296347626
  0
LINE
  5
54C
100
AcDbEntity
  8
0
100
AcDbLine
 62
7
  6
CONTINUOUS
 10
-50.1226884006
 20
-25.1743156145
 11
-49.9310219168
 21
-25.0764432729
  0
LINE
  5
54D
100
AcDbEntity
  8
0
100
AcDbLine
 62
7
  6
CONTINUOUS
 10
-46.7685213684
 20
-24.048783701
 11
-46.8643554329
 21
-24.0977198654
  0
LINE
  5
54E
100
AcDbEntity
  8
0
100
AcDbLine
 62
7
  6
CONTINUOUS
 10
-46.7685213684
 20
-24.2934645229
 11
-46.5768554329
 21
-24.1955921941
  0
LINE
  5
54F
100
AcDbEntity
  8
0
100
AcDbLine
 62
7
  6
CONTINUOUS
 10
-45.8101884006
 20
-24.048783701
 11
-45.7143554329
 21
-23.9998475366
  0
LINE
  5
550
100
AcDbEntity
  8
0
100
AcDbLine
 62
7
  6
CONTINUOUS
 10
-45.8101884006
 20
-24.8317624339
 11
-46.0018554329
 21
-24.9296347626
  0
LINE
  5
551
100
AcDbEntity
  8
0
100
AcDbLine
 62
7
  6
CONTINUOUS
 10
26.5577277183
 20
15.5767482168
 11
26.5472022591
 21
15.5714870907
  0
LINE
  5
552
100
AcDbEntity
  8
0
100
AcDbLine
 62
7
  6
CONTINUOUS
 10
-86.8422722817
 20
-41.4232517832
 11
-86.8527977409
 21
-41.4285129093
  0
LINE
  5
553
100
AcDbEntity
  8
0
100
AcDbLine
 62
253
  6
CONTINUOUS
 10
15.0603305086
 20
-2.6687706924
 11
9.9692926902
 21
-2.6687706924
  0
LINE
  5
554
100
AcDbEntity
  8
0
100
AcDbLine
 62
253
  6
CONTINUOUS
 10
-67.4396694914
 20
-2.6687706924
 11
-72.5307073098
 21
-2.6687706924
  0
LINE
  5
555
100
AcDbEntity
  8
0
100
AcDbLine
 62
7
  6
CONTINUOUS
 10
26.5472022591
 20
-34.0179906571
 11
26.5577277183
 21
-34.0232517832
  0
LINE
  5
556
100
AcDbEntity
  8
0
100
AcDbLine
 62
7
  6
CONTINUOUS
 10
-86.8527977409
 20
22.9820093429
 11
-86.8422722817
 21
22.9767482168
  0
LINE
  5
557
100
AcDbEntity
  8
0
100
AcDbLine
 62
7
  6
CONTINUOUS
 10
26.9690311337
 20
-41.7112495352
 11
26.5577277183
 21
-41.4232517832
  0
LINE
  5
558
100
AcDbEntity
  8
0
100
AcDbLine
 62
253
  6
CONTINUOUS
 10
-64.8477646423
 20
29.2767482168
 11
-64.935066566
 21
29.3640501405
  0
LINE
  5
559
100
AcDbEntity
  8
0
100
AcDbLine
 62
253
  6
CONTINUOUS
 10
-64.6478864769
 20
29.4766263822
 11
-64.7351884006
 21
29.5639283059
  0
LINE
  5
55A
100
AcDbEntity
  8
0
100
AcDbLine
 62
253
  6
CONTINUOUS
 10
6.064933434
 20
-37.2232517832
 11
6.1522353577
 21
-37.3105537069
  0
LINE
  5
55B
100
AcDbEntity
  8
0
100
AcDbLine
 62
253
  6
CONTINUOUS
 10
6.2648115994
 20
-37.0233736178
 11
6.3521135231
 21
-37.1106755415
  0
LINE
  5
55C
100
AcDbEntity
  8
0
100
AcDbLine
 62
7
  6
CONTINUOUS
 10
-19.8351884006
 20
54.9510334466
 11
-19.8351884006
 21
54.1151610632
  0
LINE
  5
55D
100
AcDbEntity
  8
0
100
AcDbLine
 62
7
  6
CONTINUOUS
 10
-19.8351884006
 20
-72.5616646296
 11
-19.8351884006
 21
-73.397537013
  0
LINE
  5
55E
100
AcDbEntity
  8
0
100
AcDbLine
 62
7
  6
CONTINUOUS
 10
-18.7651884006
 20
53.7895681277
 11
-18.7651884006
 21
40.9766263822
  0
LINE
  5
55F
100
AcDbEntity
  8
0
100
AcDbLine
 62
7
  6
CONTINUOUS
 10
-18.7651884006
 20
39.5768700514
 11
-18.7651884006
 21
19.9766263822
  0
LINE
  5
560
100
AcDbEntity
  8
0
100
AcDbLine
 62
7
  6
CONTINUOUS
 10
-18.7651884006
 20
18.5768700514
 11
-18.7651884006
 21
-37.0233736178
  0
LINE
  5
561
100
AcDbEntity
  8
0
100
AcDbLine
 62
7
  6
CONTINUOUS
 10
-18.7651884006
 20
-38.4231299486
 11
-18.7651884006
 21
-58.0233736178
  0
LINE
  5
562
100
AcDbEntity
  8
0
100
AcDbLine
 62
7
  6
CONTINUOUS
 10
-18.7651884006
 20
-59.4231299486
 11
-18.7651884006
 21
-72.2360716941
  0
LINE
  5
563
100
AcDbEntity
  8
0
100
AcDbLine
 62
7
  6
CONTINUOUS
 10
-18.7351884006
 20
54.9894462931
 11
-18.7351884006
 21
54.0169830009
  0
LINE
  5
564
100
AcDbEntity
  8
0
100
AcDbLine
 62
7
  6
CONTINUOUS
 10
-18.7351884006
 20
-72.4634865673
 11
-18.7351884006
 21
-73.4359498595
  0
LINE
  5
565
100
AcDbEntity
  8
0
100
AcDbLine
 62
7
  6
CONTINUOUS
 10
-18.6778864769
 20
53.8768700514
 11
-18.6778864769
 21
40.8893244585
  0
LINE
  5
566
100
AcDbEntity
  8
0
100
AcDbLine
 62
7
  6
CONTINUOUS
 10
-18.6778864769
 20
39.6641719751
 11
-18.6778864769
 21
19.8893244585
  0
LINE
  5
567
100
AcDbEntity
  8
0
100
AcDbLine
 62
7
  6
CONTINUOUS
 10
-18.6778864769
 20
18.6641719751
 11
-18.6778864769
 21
-37.1106755415
  0
LINE
  5
568
100
AcDbEntity
  8
0
100
AcDbLine
 62
7
  6
CONTINUOUS
 10
-18.6778864769
 20
-38.3358280249
 11
-18.6778864769
 21
-58.1106755415
  0
LINE
  5
569
100
AcDbEntity
  8
0
100
AcDbLine
 62
7
  6
CONTINUOUS
 10
-18.6778864769
 20
-59.3358280249
 11
-18.6778864769
 21
-72.3233736178
  0
LINE
  5
56A
100
AcDbEntity
  8
0
100
AcDbLine
 62
7
  6
CONTINUOUS
 10
-17.8524903244
 20
-72.3233736178
 11
-17.8524903244
 21
-59.3358280249
  0
LINE
  5
56B
100
AcDbEntity
  8
0
100
AcDbLine
 62
7
  6
CONTINUOUS
 10
-17.8524903244
 20
-58.1106755415
 11
-17.8524903244
 21
-38.3358280249
  0
LINE
  5
56C
100
AcDbEntity
  8
0
100
AcDbLine
 62
7
  6
CONTINUOUS
 10
-17.8524903244
 20
-37.1106755415
 11
-17.8524903244
 21
18.6641719751
  0
LINE
  5
56D
100
AcDbEntity
  8
0
100
AcDbLine
 62
7
  6
CONTINUOUS
 10
-17.8524903244
 20
19.8893244585
 11
-17.8524903244
 21
39.6641719751
  0
LINE
  5
56E
100
AcDbEntity
  8
0
100
AcDbLine
 62
7
  6
CONTINUOUS
 10
-17.8524903244
 20
40.8893244585
 11
-17.8524903244
 21
53.8768700514
  0
LINE
  5
56F
100
AcDbEntity
  8
0
100
AcDbLine
 62
7
  6
CONTINUOUS
 10
-17.7651884006
 20
-72.2360716941
 11
-17.7651884006
 21
-59.4231299486
  0
LINE
  5
570
100
AcDbEntity
  8
0
100
AcDbLine
 62
7
  6
CONTINUOUS
 10
-17.7651884006
 20
-58.0233736178
 11
-17.7651884006
 21
-38.4231299486
  0
LINE
  5
571
100
AcDbEntity
  8
0
100
AcDbLine
 62
7
  6
CONTINUOUS
 10
-17.7651884006
 20
-37.0233736178
 11
-17.7651884006
 21
18.5768700514
  0
LINE
  5
572
100
AcDbEntity
  8
0
100
AcDbLine
 62
7
  6
CONTINUOUS
 10
-17.7651884006
 20
19.9766263822
 11
-17.7651884006
 21
39.5768700514
  0
LINE
  5
573
100
AcDbEntity
  8
0
100
AcDbLine
 62
7
  6
CONTINUOUS
 10
-17.7651884006
 20
40.9766263822
 11
-17.7651884006
 21
53.7895681277
  0
LINE
  5
574
100
AcDbEntity
  8
0
100
AcDbLine
 62
7
  6
CONTINUOUS
 10
-16.9181954006
 20
-23.0982517832
 11
-16.9181954006
 21
-25.3482517832
  0
LINE
  5
575
100
AcDbEntity
  8
0
100
AcDbLine
 62
7
  6
CONTINUOUS
 10
-16.6236394006
 20
-25.3482517832
 11
-16.6236394006
 21
-23.4616367832
  0
LINE
  5
576
100
AcDbEntity
  8
0
100
AcDbLine
 62
253
  6
CONTINUOUS
 10
19.4776315102
 20
28.1894462931
 11
19.564933434
 21
28.2767482168
  0
LINE
  5
577
100
AcDbEntity
  8
0
100
AcDbLine
 62
253
  6
CONTINUOUS
 10
19.6775096756
 20
27.9895681277
 11
19.7648115994
 21
28.0768700514
  0
LINE
  5
578
100
AcDbEntity
  8
0
100
AcDbLine
 62
253
  6
CONTINUOUS
 10
-64.935066566
 20
-59.2232517832
 11
-64.8477646423
 21
-59.1359498595
  0
LINE
  5
579
100
AcDbEntity
  8
0
100
AcDbLine
 62
253
  6
CONTINUOUS
 10
-63.7351884006
 20
-58.0233736178
 11
-63.8224903244
 21
-58.1106755415
  0
LINE
  5
57A
100
AcDbEntity
  8
0
100
AcDbLine
 62
253
  6
CONTINUOUS
 10
-64.7351884006
 20
-59.4231299486
 11
-64.6478864769
 21
-59.3358280249
  0
LINE
  5
57B
100
AcDbEntity
  8
0
100
AcDbLine
 62
253
  6
CONTINUOUS
 10
-63.5353102352
 20
-58.2232517832
 11
-63.622612159
 21
-58.3105537069
  0
LINE
  5
57C
100
AcDbEntity
  8
0
100
AcDbLine
 62
253
  6
CONTINUOUS
 10
7.2648115994
 20
10.5639283059
 11
7.1775096756
 21
10.4766263822
  0
LINE
  5
57D
100
AcDbEntity
  8
0
100
AcDbLine
 62
253
  6
CONTINUOUS
 10
7.4646897648
 20
10.3640501405
 11
7.377387841
 21
10.2767482168
  0
LINE
  5
57E
100
AcDbEntity
  8
0
100
AcDbLine
 62
253
  6
CONTINUOUS
 10
-39.935066566
 20
-38.2232517832
 11
-39.8477646423
 21
-38.1359498595
  0
LINE
  5
57F
100
AcDbEntity
  8
0
100
AcDbLine
 62
253
  6
CONTINUOUS
 10
-38.7351884006
 20
-37.0233736178
 11
-38.8224903244
 21
-37.1106755415
  0
LINE
  5
580
100
AcDbEntity
  8
0
100
AcDbLine
 62
7
  6
CONTINUOUS
 10
-50.1226884006
 20
-23.8530390435
 11
-50.4101884006
 21
-23.9509113722
  0
LINE
  5
581
100
AcDbEntity
  8
0
100
AcDbLine
 62
253
  6
CONTINUOUS
 10
14.8604523432
 20
-2.468892527
 11
10.1691708556
 21
-2.468892527
  0
LINE
  5
582
100
AcDbEntity
  8
0
100
AcDbLine
 62
253
  6
CONTINUOUS
 10
-67.6395476568
 20
-2.468892527
 11
-72.3308291444
 21
-2.468892527
  0
LINE
  5
583
100
AcDbEntity
  8
0
100
AcDbLine
 62
7
  6
CONTINUOUS
 10
-72.2851884006
 20
-2.4232517832
 11
-67.6851884006
 21
-2.4232517832
  0
LINE
  5
584
100
AcDbEntity
  8
0
100
AcDbLine
 62
7
  6
CONTINUOUS
 10
14.8148115994
 20
-2.4232517832
 11
10.2148115994
 21
-2.4232517832
  0
LINE
  5
585
100
AcDbEntity
  8
0
100
AcDbLine
 62
7
  6
CONTINUOUS
 10
-70.6828072464
 20
-0.8232517832
 11
-69.2875695549
 21
-0.8232517832
  0
LINE
  5
586
100
AcDbEntity
  8
0
100
AcDbLine
 62
7
  6
CONTINUOUS
 10
13.2124304451
 20
-0.8232517832
 11
11.8171927536
 21
-0.8232517832
  0
LINE
  5
587
100
AcDbEntity
  8
0
100
AcDbLine
 62
7
  6
CONTINUOUS
 10
-70.6828072464
 20
-0.2756329374
 11
-69.2875695549
 21
-0.2756329374
  0
LINE
  5
588
100
AcDbEntity
  8
0
100
AcDbLine
 62
7
  6
CONTINUOUS
 10
13.2124304451
 20
-0.2756329374
 11
11.8171927536
 21
-0.2756329374
  0
LINE
  5
589
100
AcDbEntity
  8
0
100
AcDbLine
 62
7
  6
CONTINUOUS
 10
-72.2851884006
 20
-0.2232517832
 11
-70.7351884006
 21
-0.2232517832
  0
LINE
  5
58A
100
AcDbEntity
  8
0
100
AcDbLine
 62
7
  6
CONTINUOUS
 10
-69.2351884006
 20
-0.2232517832
 11
-67.6851884006
 21
-0.2232517832
  0
LINE
  5
58B
100
AcDbEntity
  8
0
100
AcDbLine
 62
7
  6
CONTINUOUS
 10
14.8148115994
 20
-0.2232517832
 11
13.2648115994
 21
-0.2232517832
  0
LINE
  5
58C
100
AcDbEntity
  8
0
100
AcDbLine
 62
7
  6
CONTINUOUS
 10
11.7648115994
 20
-0.2232517832
 11
10.2148115994
 21
-0.2232517832
  0
LINE
  5
58D
100
AcDbEntity
  8
0
100
AcDbLine
 62
7
  6
CONTINUOUS
 10
20.7550661534
 20
-0.2232517832
 11
21.7648115994
 21
-0.2232517832
  0
LINE
  5
58E
100
AcDbEntity
  8
0
100
AcDbLine
 62
7
  6
CONTINUOUS
 10
-78.2254429547
 20
-0.2232517832
 11
-79.2351884006
 21
-0.2232517832
  0
LINE
  5
58F
100
AcDbEntity
  8
0
100
AcDbLine
 62
253
  6
CONTINUOUS
 10
-72.3308291444
 20
-0.1776110394
 11
-67.6395476568
 21
-0.1776110394
  0
LINE
  5
590
100
AcDbEntity
  8
0
100
AcDbLine
 62
253
  6
CONTINUOUS
 10
10.1691708556
 20
-0.1776110394
 11
14.8604523432
 21
-0.1776110394
  0
LINE
  5
591
100
AcDbEntity
  8
0
100
AcDbLine
 62
253
  6
CONTINUOUS
 10
-72.5307073098
 20
0.022267126
 11
-67.4396694914
 21
0.022267126
  0
LINE
  5
592
100
AcDbEntity
  8
0
100
AcDbLine
 62
253
  6
CONTINUOUS
 10
9.9692926902
 20
0.022267126
 11
15.0603305086
 21
0.022267126
  0
LINE
  5
593
100
AcDbEntity
  8
0
100
AcDbLine
 62
7
  6
CONTINUOUS
 10
-80.2351884006
 20
0.2767482168
 11
-78.2351884006
 21
0.2767482168
  0
LINE
  5
594
100
AcDbEntity
  8
0
100
AcDbLine
 62
7
  6
CONTINUOUS
 10
22.7648115994
 20
0.2767482168
 11
20.7648115994
 21
0.2767482168
  0
LINE
  5
595
100
AcDbEntity
  8
0
100
AcDbLine
 62
7
  6
CONTINUOUS
 10
-80.2875695549
 20
0.329129371
 11
-78.1828072464
 21
0.329129371
  0
LINE
  5
596
100
AcDbEntity
  8
0
100
AcDbLine
 62
7
  6
CONTINUOUS
 10
22.8171927536
 20
0.329129371
 11
20.7124304451
 21
0.329129371
  0
LINE
  5
597
100
AcDbEntity
  8
0
100
AcDbLine
 62
253
  6
CONTINUOUS
 10
19.564933434
 20
-46.7232517832
 11
19.4776315102
 21
-46.6359498595
  0
LINE
  5
598
100
AcDbEntity
  8
0
100
AcDbLine
 62
253
  6
CONTINUOUS
 10
19.7648115994
 20
-46.5233736178
 11
19.6775096756
 21
-46.4360716941
  0
LINE
  5
599
100
AcDbEntity
  8
0
100
AcDbLine
 62
253
  6
CONTINUOUS
 10
-64.935066566
 20
40.7767482168
 11
-64.8477646423
 21
40.6894462931
  0
LINE
  5
59A
100
AcDbEntity
  8
0
100
AcDbLine
 62
253
  6
CONTINUOUS
 10
-63.7351884006
 20
39.5768700514
 11
-63.8224903244
 21
39.6641719751
  0
LINE
  5
59B
100
AcDbEntity
  8
0
100
AcDbLine
 62
253
  6
CONTINUOUS
 10
-64.7351884006
 20
40.9766263822
 11
-64.6478864769
 21
40.8893244585
  0
LINE
  5
59C
100
AcDbEntity
  8
0
100
AcDbLine
 62
253
  6
CONTINUOUS
 10
-63.5353102352
 20
39.7767482168
 11
-63.622612159
 21
39.8640501405
  0
LINE
  5
59D
100
AcDbEntity
  8
0
100
AcDbLine
 62
253
  6
CONTINUOUS
 10
7.1775096756
 20
-28.9231299486
 11
7.2648115994
 21
-29.0104318723
  0
LINE
  5
59E
100
AcDbEntity
  8
0
100
AcDbLine
 62
253
  6
CONTINUOUS
 10
7.377387841
 20
-28.7232517832
 11
7.4646897648
 21
-28.8105537069
  0
LINE
  5
59F
100
AcDbEntity
  8
0
100
AcDbLine
 62
253
  6
CONTINUOUS
 10
-39.935066566
 20
19.7767482168
 11
-39.8477646423
 21
19.6894462931
  0
LINE
  5
5A0
100
AcDbEntity
  8
0
100
AcDbLine
 62
253
  6
CONTINUOUS
 10
-38.7351884006
 20
18.5768700514
 11
-38.8224903244
 21
18.6641719751
  0
LINE
  5
5A1
100
AcDbEntity
  8
0
100
AcDbLine
 62
7
  6
CONTINUOUS
 10
-5.8182134006
 20
-23.5209827832
 11
-4.6681014006
 21
-25.3482517832
  0
LINE
  5
5A2
100
AcDbEntity
  8
0
100
AcDbLine
 62
7
  6
CONTINUOUS
 10
-4.6210824006
 20
-24.9258907832
 11
-5.7524504006
 21
-23.0982517832
  0
LINE
  5
5A3
100
AcDbEntity
  8
0
100
AcDbLine
 62
7
  6
CONTINUOUS
 10
-12.4870384006
 20
-25.3482517832
 11
-13.3017694006
 21
-23.0982517832
  0
LINE
  5
5A4
100
AcDbEntity
  8
0
100
AcDbLine
 62
7
  6
CONTINUOUS
 10
-13.0417234006
 20
-24.6933587832
 11
-12.8192524006
 21
-25.3482517832
  0
LINE
  5
5A5
100
AcDbEntity
  8
0
100
AcDbLine
 62
7
  6
CONTINUOUS
 10
-15.8370604006
 20
-25.0096677832
 11
-16.4825904006
 21
-23.0982517832
  0
LINE
  5
5A6
100
AcDbEntity
  8
0
100
AcDbLine
 62
7
  6
CONTINUOUS
 10
-16.6236394006
 20
-23.4616367832
 11
-15.9905764006
 21
-25.3482517832
  0
LINE
  5
5A7
100
AcDbEntity
  8
0
100
AcDbLine
 62
7
  6
CONTINUOUS
 10
-13.4865364006
 20
-23.4246107832
 11
-13.1513204006
 21
-24.4238687832
  0
LINE
  5
5A8
100
AcDbEntity
  8
0
100
AcDbLine
 62
7
  6
CONTINUOUS
 10
-15.0567874006
 20
-23.4585427832
 11
-15.0567874006
 21
-25.3482517832
  0
LINE
  5
5A9
100
AcDbEntity
  8
0
100
AcDbLine
 62
7
  6
CONTINUOUS
 10
-14.7621134006
 20
-25.3482517832
 11
-14.7621134006
 21
-23.0982517832
  0
LINE
  5
5AA
100
AcDbEntity
  8
0
100
AcDbLine
 62
7
  6
CONTINUOUS
 10
-12.1924914006
 20
-23.0982517832
 11
-12.1924914006
 21
-25.3482517832
  0
LINE
  5
5AB
100
AcDbEntity
  8
0
100
AcDbLine
 62
7
  6
CONTINUOUS
 10
-11.8884274006
 20
-25.0882237832
 11
-11.8884274006
 21
-23.3582797832
  0
LINE
  5
5AC
100
AcDbEntity
  8
0
100
AcDbLine
 62
7
  6
CONTINUOUS
 10
-15.6897284006
 20
-25.3482517832
 11
-15.0567874006
 21
-23.4585427832
  0
LINE
  5
5AD
100
AcDbEntity
  8
0
100
AcDbLine
 62
7
  6
CONTINUOUS
 10
-15.1946264006
 20
-23.0982517832
 11
-15.8370604006
 21
-25.0096677832
  0
LINE
  5
5AE
100
AcDbEntity
  8
0
100
AcDbLine
 62
253
  6
CONTINUOUS
 10
-39.7351884006
 20
-38.4231299486
 11
-39.6478864769
 21
-38.3358280249
  0
LINE
  5
5AF
100
AcDbEntity
  8
0
100
AcDbLine
 62
253
  6
CONTINUOUS
 10
-38.5353102352
 20
-37.2232517832
 11
-38.622612159
 21
-37.3105537069
  0
LINE
  5
5B0
100
AcDbEntity
  8
0
100
AcDbLine
 62
7
  6
CONTINUOUS
 10
32.7298908299
 20
28.1545255236
 11
32.7648115994
 21
28.1894462931
  0
LINE
  5
5B1
100
AcDbEntity
  8
0
100
AcDbLine
 62
7
  6
CONTINUOUS
 10
29.4479605733
 20
24.4716436531
 11
29.3718954804
 21
24.3955785603
  0
LINE
  5
5B2
100
AcDbEntity
  8
0
100
AcDbLine
 62
7
  6
CONTINUOUS
 10
29.3718954804
 20
15.5767482168
 11
28.960592065
 21
15.2887504648
  0
LINE
  5
5B3
100
AcDbEntity
  8
0
100
AcDbLine
 62
7
  6
CONTINUOUS
 10
-90.1094736305
 20
8.1767482168
 11
-89.2736012471
 21
8.1767482168
  0
LINE
  5
5B4
100
AcDbEntity
  8
0
100
AcDbLine
 62
7
  6
CONTINUOUS
 10
31.8032244458
 20
8.1767482168
 11
32.6390968292
 21
8.1767482168
  0
LINE
  5
5B5
100
AcDbEntity
  8
0
100
AcDbLine
 62
7
  6
CONTINUOUS
 10
-88.9480083115
 20
9.1894462931
 11
-81.6874477203
 21
9.1894462931
  0
LINE
  5
5B6
100
AcDbEntity
  8
0
100
AcDbLine
 62
7
  6
CONTINUOUS
 10
-80.0876913895
 20
9.1894462931
 11
-64.935066566
 21
9.1894462931
  0
LINE
  5
5B7
100
AcDbEntity
  8
0
100
AcDbLine
 62
7
  6
CONTINUOUS
 10
7.4646897648
 20
9.1894462931
 11
22.6173145882
 21
9.1894462931
  0
LINE
  5
5B8
100
AcDbEntity
  8
0
100
AcDbLine
 62
7
  6
CONTINUOUS
 10
24.217070919
 20
9.1894462931
 11
31.4776315102
 21
9.1894462931
  0
LINE
  5
5B9
100
AcDbEntity
  8
0
100
AcDbLine
 62
7
  6
CONTINUOUS
 10
-90.1478864769
 20
9.2767482168
 11
-81.6001457965
 21
9.2767482168
  0
LINE
  5
5BA
100
AcDbEntity
  8
0
100
AcDbLine
 62
7
  6
CONTINUOUS
 10
-80.1749933132
 20
9.2767482168
 11
-64.8477646423
 21
9.2767482168
  0
LINE
  5
5BB
100
AcDbEntity
  8
0
100
AcDbLine
 62
7
  6
CONTINUOUS
 10
7.377387841
 20
9.2767482168
 11
22.7046165119
 21
9.2767482168
  0
LINE
  5
5BC
100
AcDbEntity
  8
0
100
AcDbLine
 62
7
  6
CONTINUOUS
 10
24.1297689953
 20
9.2767482168
 11
32.6775096756
 21
9.2767482168
  0
LINE
  5
5BD
100
AcDbEntity
  8
0
100
AcDbLine
 62
7
  6
CONTINUOUS
 10
29.3718954804
 20
-34.0232517832
 11
28.960592065
 21
-33.7352540312
  0
LINE
  5
5BE
100
AcDbEntity
  8
0
100
AcDbLine
 62
253
  6
CONTINUOUS
 10
-39.7351884006
 20
19.9766263822
 11
-39.6478864769
 21
19.8893244585
  0
LINE
  5
5BF
100
AcDbEntity
  8
0
100
AcDbLine
 62
253
  6
CONTINUOUS
 10
-38.5353102352
 20
18.7767482168
 11
-38.622612159
 21
18.8640501405
  0
LINE
  5
5C0
100
AcDbEntity
  8
0
100
AcDbLine
 62
7
  6
CONTINUOUS
 10
32.7298908299
 20
-46.60102909
 11
32.7648115994
 21
-46.6359498595
  0
LINE
  5
5C1
100
AcDbEntity
  8
0
100
AcDbLine
 62
7
  6
CONTINUOUS
 10
29.4479605733
 20
-42.9181472195
 11
29.3718954804
 21
-42.8420821266
  0
LINE
  5
5C2
100
AcDbEntity
  8
0
100
AcDbLine
 62
7
  6
CONTINUOUS
 10
-9.9141954006
 20
-23.0982517832
 11
-9.9141954006
 21
-25.3482517832
  0
LINE
  5
5C3
100
AcDbEntity
  8
0
100
AcDbLine
 62
7
  6
CONTINUOUS
 10
-9.6101504006
 20
-25.0787617832
 11
-9.6101504006
 21
-24.3266987832
  0
LINE
  5
5C4
100
AcDbEntity
  8
0
100
AcDbLine
 62
7
  6
CONTINUOUS
 10
-9.6101504006
 20
-24.0572087832
 11
-9.6101504006
 21
-23.3677417832
  0
LINE
  5
5C5
100
AcDbEntity
  8
0
100
AcDbLine
 62
7
  6
CONTINUOUS
 10
-8.3785914006
 20
-24.3266987832
 11
-8.3785914006
 21
-24.0572087832
  0
LINE
  5
5C6
100
AcDbEntity
  8
0
100
AcDbLine
 62
7
  6
CONTINUOUS
 10
-8.2751804006
 20
-23.3677417832
 11
-8.2751804006
 21
-23.0982517832
  0
LINE
  5
5C7
100
AcDbEntity
  8
0
100
AcDbLine
 62
7
  6
CONTINUOUS
 10
-8.2532174006
 20
-25.3482517832
 11
-8.2532174006
 21
-25.0787617832
  0
LINE
  5
5C8
100
AcDbEntity
  8
0
100
AcDbLine
 62
7
  6
CONTINUOUS
 10
-6.9369894006
 20
-23.0982517832
 11
-6.9369894006
 21
-25.3482517832
  0
LINE
  5
5C9
100
AcDbEntity
  8
0
100
AcDbLine
 62
7
  6
CONTINUOUS
 10
-6.6330354006
 20
-25.3482517832
 11
-6.6330354006
 21
-23.0982517832
  0
LINE
  5
5CA
100
AcDbEntity
  8
0
100
AcDbLine
 62
7
  6
CONTINUOUS
 10
-6.1351884006
 20
48.6608283249
 11
-6.1351884006
 21
44.8926681087
  0
LINE
  5
5CB
100
AcDbEntity
  8
0
100
AcDbLine
 62
7
  6
CONTINUOUS
 10
-6.1351884006
 20
-63.3391716751
 11
-6.1351884006
 21
-67.1073318913
  0
LINE
  5
5CC
100
AcDbEntity
  8
0
100
AcDbLine
 62
7
  6
CONTINUOUS
 10
-6.1129054006
 20
-23.0982517832
 11
-6.1129054006
 21
-25.3482517832
  0
LINE
  5
5CD
100
AcDbEntity
  8
0
100
AcDbLine
 62
7
  6
CONTINUOUS
 10
-5.8182134006
 20
-25.3482517832
 11
-5.8182134006
 21
-23.5209827832
  0
LINE
  5
5CE
100
AcDbEntity
  8
0
100
AcDbLine
 62
7
  6
CONTINUOUS
 10
-4.9351884006
 20
50.9769309687
 11
-4.9351884006
 21
49.6998477857
  0
LINE
  5
5CF
100
AcDbEntity
  8
0
100
AcDbLine
 62
7
  6
CONTINUOUS
 10
-4.9351884006
 20
43.8536486479
 11
-4.9351884006
 21
42.5765654649
  0
LINE
  5
5D0
100
AcDbEntity
  8
0
100
AcDbLine
 62
7
  6
CONTINUOUS
 10
-4.9351884006
 20
-61.0230690313
 11
-4.9351884006
 21
-62.3001522143
  0
LINE
  5
5D1
100
AcDbEntity
  8
0
100
AcDbLine
 62
7
  6
CONTINUOUS
 10
-4.9351884006
 20
-68.1463513521
 11
-4.9351884006
 21
-69.4234345351
  0
LINE
  5
5D2
100
AcDbEntity
  8
0
100
AcDbLine
 62
7
  6
CONTINUOUS
 10
-4.6210824006
 20
-23.0982517832
 11
-4.6210824006
 21
-24.9258907832
  0
LINE
  5
5D3
100
AcDbEntity
  8
0
100
AcDbLine
 62
7
  6
CONTINUOUS
 10
-4.3851884006
 20
48.7767482168
 11
-4.3851884006
 21
44.7767482168
  0
LINE
  5
5D4
100
AcDbEntity
  8
0
100
AcDbLine
 62
7
  6
CONTINUOUS
 10
-4.3851884006
 20
-63.2232517832
 11
-4.3851884006
 21
-67.2232517832
  0
LINE
  5
5D5
100
AcDbEntity
  8
0
100
AcDbLine
 62
7
  6
CONTINUOUS
 10
-4.3265354006
 20
-25.3482517832
 11
-4.3265354006
 21
-23.0982517832
  0
LINE
  5
5D6
100
AcDbEntity
  8
0
100
AcDbLine
 62
7
  6
CONTINUOUS
 10
-14.1792604006
 20
-25.3482517832
 11
-13.9441974006
 21
-24.6933587832
  0
LINE
  5
5D7
100
AcDbEntity
  8
0
100
AcDbLine
 62
7
  6
CONTINUOUS
 10
-13.8501584006
 20
-24.4238687832
 11
-13.4865364006
 21
-23.4246107832
  0
LINE
  5
5D8
100
AcDbEntity
  8
0
100
AcDbLine
 62
7
  6
CONTINUOUS
 10
-13.6465394006
 20
-23.0982517832
 11
-14.4926044006
 21
-25.3482517832
  0
LINE
  5
5D9
100
AcDbEntity
  8
0
100
AcDbLine
 62
253
  6
CONTINUOUS
 10
-63.7351884006
 20
-72.2360716941
 11
-63.8224903244
 21
-72.3233736178
  0
LINE
  5
5DA
100
AcDbEntity
  8
0
100
AcDbLine
 62
253
  6
CONTINUOUS
 10
-63.5353102352
 20
-72.4359498595
 11
-63.622612159
 21
-72.5232517832
  0
LINE
  5
5DB
100
AcDbEntity
  8
0
100
AcDbLine
 62
253
  6
CONTINUOUS
 10
20.7648115994
 20
10.4766263822
 11
20.8870342926
 21
10.5988490754
  0
LINE
  5
5DC
100
AcDbEntity
  8
0
100
AcDbLine
 62
253
  6
CONTINUOUS
 10
20.9646897648
 20
10.2767482168
 11
21.086912458
 21
10.39897091
  0
LINE
  5
5DD
100
AcDbEntity
  8
0
100
AcDbLine
 62
7
  6
CONTINUOUS
 10
26.4816626255
 20
14.0818527805
 11
26.5577277183
 21
14.1579178734
  0
LINE
  5
5DE
100
AcDbEntity
  8
0
100
AcDbLine
 62
7
  6
CONTINUOUS
 10
10.2148115994
 20
-2.4232517832
 11
10.1691708556
 21
-2.468892527
  0
LINE
  5
5DF
100
AcDbEntity
  8
0
100
AcDbLine
 62
253
  6
CONTINUOUS
 10
22.6173145882
 20
9.1894462931
 11
22.7046165119
 21
9.2767482168
  0
LINE
  5
5E0
100
AcDbEntity
  8
0
100
AcDbLine
 62
7
  6
CONTINUOUS
 10
13.2124304451
 20
-0.2756329374
 11
13.2648115994
 21
-0.2232517832
  0
LINE
  5
5E1
100
AcDbEntity
  8
0
100
AcDbLine
 62
253
  6
CONTINUOUS
 10
22.8171927536
 20
8.9895681277
 11
22.9044946773
 21
9.0768700514
  0
LINE
  5
5E2
100
AcDbEntity
  8
0
100
AcDbLine
 62
7
  6
CONTINUOUS
 10
14.8148115994
 20
-0.2232517832
 11
14.8604523432
 21
-0.1776110394
  0
LINE
  5
5E3
100
AcDbEntity
  8
0
100
AcDbLine
 62
7
  6
CONTINUOUS
 10
27.0969582028
 20
14.1767482168
 11
26.5577277183
 21
14.1579178734
  0
LINE
  5
5E4
100
AcDbEntity
  8
0
100
AcDbLine
 62
7
  6
CONTINUOUS
 10
-90.1478864769
 20
10.2767482168
 11
-78.435066566
 21
10.2767482168
  0
LINE
  5
5E5
100
AcDbEntity
  8
0
100
AcDbLine
 62
7
  6
CONTINUOUS
 10
32.6775096756
 20
10.2767482168
 11
20.9646897648
 21
10.2767482168
  0
LINE
  5
5E6
100
AcDbEntity
  8
0
100
AcDbLine
 62
7
  6
CONTINUOUS
 10
19.564933434
 20
10.2767482168
 11
7.377387841
 21
10.2767482168
  0
LINE
  5
5E7
100
AcDbEntity
  8
0
100
AcDbLine
 62
7
  6
CONTINUOUS
 10
-64.8477646423
 20
10.2767482168
 11
-77.0353102352
 21
10.2767482168
  0
LINE
  5
5E8
100
AcDbEntity
  8
0
100
AcDbLine
 62
7
  6
CONTINUOUS
 10
19.4776315102
 20
10.3640501405
 11
7.4646897648
 21
10.3640501405
  0
LINE
  5
5E9
100
AcDbEntity
  8
0
100
AcDbLine
 62
7
  6
CONTINUOUS
 10
-64.935066566
 20
10.3640501405
 11
-76.9480083115
 21
10.3640501405
  0
LINE
  5
5EA
100
AcDbEntity
  8
0
100
AcDbLine
 62
7
  6
CONTINUOUS
 10
-90.2002676311
 20
10.39897091
 11
-78.5572892593
 21
10.39897091
  0
LINE
  5
5EB
100
AcDbEntity
  8
0
100
AcDbLine
 62
7
  6
CONTINUOUS
 10
32.7298908299
 20
10.39897091
 11
21.086912458
 21
10.39897091
  0
LINE
  5
5EC
100
AcDbEntity
  8
0
100
AcDbLine
 62
7
  6
CONTINUOUS
 10
-90.2002676311
 20
11.7418274473
 11
-89.7002676311
 21
11.7418274473
  0
LINE
  5
5ED
100
AcDbEntity
  8
0
100
AcDbLine
 62
7
  6
CONTINUOUS
 10
32.2298908299
 20
11.7418274473
 11
32.7298908299
 21
11.7418274473
  0
LINE
  5
5EE
100
AcDbEntity
  8
0
100
AcDbLine
 62
253
  6
CONTINUOUS
 10
-86.9351884006
 20
13.582157367
 11
-83.9351884006
 21
13.582157367
  0
LINE
  5
5EF
100
AcDbEntity
  8
0
100
AcDbLine
 62
253
  6
CONTINUOUS
 10
26.4648115994
 20
13.582157367
 11
29.4648115994
 21
13.582157367
  0
LINE
  5
5F0
100
AcDbEntity
  8
0
100
AcDbLine
 62
253
  6
CONTINUOUS
 10
-86.9183373745
 20
14.0818527805
 11
-83.9520394267
 21
14.0818527805
  0
LINE
  5
5F1
100
AcDbEntity
  8
0
100
AcDbLine
 62
253
  6
CONTINUOUS
 10
26.4816626255
 20
14.0818527805
 11
29.4479605733
 21
14.0818527805
  0
LINE
  5
5F2
100
AcDbEntity
  8
0
100
AcDbLine
 62
7
  6
CONTINUOUS
 10
27.0969582028
 20
14.1767482168
 11
28.8326649959
 21
14.1767482168
  0
LINE
  5
5F3
100
AcDbEntity
  8
0
100
AcDbLine
 62
7
  6
CONTINUOUS
 10
-84.5673350041
 20
14.1767482168
 11
-86.3030417972
 21
14.1767482168
  0
LINE
  5
5F4
100
AcDbEntity
  8
0
100
AcDbLine
 62
7
  6
CONTINUOUS
 10
29.9648115994
 20
14.9767482168
 11
29.4648115994
 21
14.9767482168
  0
LINE
  5
5F5
100
AcDbEntity
  8
0
100
AcDbLine
 62
7
  6
CONTINUOUS
 10
26.4648115994
 20
14.9767482168
 11
25.9648115994
 21
14.9767482168
  0
LINE
  5
5F6
100
AcDbEntity
  8
0
100
AcDbLine
 62
7
  6
CONTINUOUS
 10
-83.4351884006
 20
14.9767482168
 11
-83.9351884006
 21
14.9767482168
  0
LINE
  5
5F7
100
AcDbEntity
  8
0
100
AcDbLine
 62
7
  6
CONTINUOUS
 10
-86.9351884006
 20
14.9767482168
 11
-87.4351884006
 21
14.9767482168
  0
LINE
  5
5F8
100
AcDbEntity
  8
0
100
AcDbLine
 62
253
  6
CONTINUOUS
 10
-86.3030417972
 20
15.0430048515
 11
-84.5673350041
 21
15.0430048515
  0
LINE
  5
5F9
100
AcDbEntity
  8
0
100
AcDbLine
 62
253
  6
CONTINUOUS
 10
27.0969582028
 20
15.0430048515
 11
28.8326649959
 21
15.0430048515
  0
LINE
  5
5FA
100
AcDbEntity
  8
0
100
AcDbLine
 62
253
  6
CONTINUOUS
 10
-86.4309688663
 20
15.2887504648
 11
-84.439407935
 21
15.2887504648
  0
LINE
  5
5FB
100
AcDbEntity
  8
0
100
AcDbLine
 62
253
  6
CONTINUOUS
 10
26.9690311337
 20
15.2887504648
 11
28.960592065
 21
15.2887504648
  0
LINE
  5
5FC
100
AcDbEntity
  8
0
100
AcDbLine
 62
7
  6
CONTINUOUS
 10
-84.0281045196
 20
14.1579178734
 11
-84.5673350041
 21
14.1767482168
  0
LINE
  5
5FD
100
AcDbEntity
  8
0
100
AcDbLine
 62
253
  6
CONTINUOUS
 10
-63.8224903244
 20
53.8768700514
 11
-63.7351884006
 21
53.7895681277
  0
LINE
  5
5FE
100
AcDbEntity
  8
0
100
AcDbLine
 62
253
  6
CONTINUOUS
 10
-63.622612159
 20
54.0767482168
 11
-63.5353102352
 21
53.9894462931
  0
LINE
  5
5FF
100
AcDbEntity
  8
0
100
AcDbLine
 62
253
  6
CONTINUOUS
 10
20.7648115994
 20
-28.9231299486
 11
20.8870342926
 21
-29.0453526418
  0
LINE
  5
600
100
AcDbEntity
  8
0
100
AcDbLine
 62
253
  6
CONTINUOUS
 10
20.9646897648
 20
-28.7232517832
 11
21.086912458
 21
-28.8454744764
  0
LINE
  5
601
100
AcDbEntity
  8
0
100
AcDbLine
 62
7
  6
CONTINUOUS
 10
26.4816626255
 20
-32.5283563469
 11
26.5577277183
 21
-32.6044214397
  0
LINE
  5
602
100
AcDbEntity
  8
0
100
AcDbLine
 62
7
  6
CONTINUOUS
 10
10.2148115994
 20
-16.0232517832
 11
10.1691708556
 21
-15.9776110394
  0
LINE
  5
603
100
AcDbEntity
  8
0
100
AcDbLine
 62
253
  6
CONTINUOUS
 10
22.7046165119
 20
-27.7232517832
 11
22.6173145882
 21
-27.6359498595
  0
LINE
  5
604
100
AcDbEntity
  8
0
100
AcDbLine
 62
7
  6
CONTINUOUS
 10
13.2124304451
 20
-18.170870629
 11
13.2648115994
 21
-18.2232517832
  0
LINE
  5
605
100
AcDbEntity
  8
0
100
AcDbLine
 62
253
  6
CONTINUOUS
 10
22.9044946773
 20
-27.5233736178
 11
22.8171927536
 21
-27.4360716941
  0
LINE
  5
606
100
AcDbEntity
  8
0
100
AcDbLine
 62
7
  6
CONTINUOUS
 10
14.8148115994
 20
-18.2232517832
 11
14.8604523432
 21
-18.268892527
  0
LINE
  5
607
100
AcDbEntity
  8
0
100
AcDbLine
 62
7
  6
CONTINUOUS
 10
3.4452905994
 20
-23.0982517832
 11
4.2945225994
 21
-24.4426107832
  0
LINE
  5
608
100
AcDbEntity
  8
0
100
AcDbLine
 62
7
  6
CONTINUOUS
 10
4.4450075994
 20
-24.1794887832
 11
3.7993955994
 21
-23.0982517832
  0
LINE
  5
609
100
AcDbEntity
  8
0
100
AcDbLine
 62
7
  6
CONTINUOUS
 10
1.6183595994
 20
-25.3482517832
 11
0.8034645994
 21
-23.0982517832
  0
LINE
  5
60A
100
AcDbEntity
  8
0
100
AcDbLine
 62
7
  6
CONTINUOUS
 10
1.0636025994
 20
-24.6933587832
 11
1.2860915994
 21
-25.3482517832
  0
LINE
  5
60B
100
AcDbEntity
  8
0
100
AcDbLine
 62
7
  6
CONTINUOUS
 10
0.6186615994
 20
-23.4246107832
 11
0.9538955994
 21
-24.4238687832
  0
LINE
  5
60C
100
AcDbEntity
  8
0
100
AcDbLine
 62
7
  6
CONTINUOUS
 10
-3.7351884006
 20
-69.4234345351
 11
-3.7351884006
 21
-67.2232517832
  0
LINE
  5
60D
100
AcDbEntity
  8
0
100
AcDbLine
 62
7
  6
CONTINUOUS
 10
-3.7351884006
 20
-63.2232517832
 11
-3.7351884006
 21
-61.0230690313
  0
LINE
  5
60E
100
AcDbEntity
  8
0
100
AcDbLine
 62
7
  6
CONTINUOUS
 10
-3.7351884006
 20
42.5765654649
 11
-3.7351884006
 21
44.7767482168
  0
LINE
  5
60F
100
AcDbEntity
  8
0
100
AcDbLine
 62
7
  6
CONTINUOUS
 10
-3.7351884006
 20
48.7767482168
 11
-3.7351884006
 21
50.9769309687
  0
LINE
  5
610
100
AcDbEntity
  8
0
100
AcDbLine
 62
7
  6
CONTINUOUS
 10
-2.9320624006
 20
-23.0982517832
 11
-2.9320624006
 21
-25.3482517832
  0
LINE
  5
611
100
AcDbEntity
  8
0
100
AcDbLine
 62
7
  6
CONTINUOUS
 10
-2.6280174006
 20
-25.3482517832
 11
-2.6280174006
 21
-23.0982517832
  0
LINE
  5
612
100
AcDbEntity
  8
0
100
AcDbLine
 62
7
  6
CONTINUOUS
 10
-2.3020994006
 20
-23.0982517832
 11
-2.3020994006
 21
-23.3677417832
  0
LINE
  5
613
100
AcDbEntity
  8
0
100
AcDbLine
 62
7
  6
CONTINUOUS
 10
-2.2351884006
 20
50.9769309687
 11
-2.2351884006
 21
42.5765654649
  0
LINE
  5
614
100
AcDbEntity
  8
0
100
AcDbLine
 62
7
  6
CONTINUOUS
 10
-2.2351884006
 20
-61.0230690313
 11
-2.2351884006
 21
-69.4234345351
  0
LINE
  5
615
100
AcDbEntity
  8
0
100
AcDbLine
 62
7
  6
CONTINUOUS
 10
-1.5405744006
 20
-23.3677417832
 11
-1.5405744006
 21
-25.3482517832
  0
LINE
  5
616
100
AcDbEntity
  8
0
100
AcDbLine
 62
7
  6
CONTINUOUS
 10
-1.2366384006
 20
-25.3482517832
 11
-1.2366384006
 21
-23.3677417832
  0
LINE
  5
617
100
AcDbEntity
  8
0
100
AcDbLine
 62
7
  6
CONTINUOUS
 10
-1.2351884006
 20
-69.4234345351
 11
-1.2351884006
 21
-61.0230690313
  0
LINE
  5
618
100
AcDbEntity
  8
0
100
AcDbLine
 62
7
  6
CONTINUOUS
 10
-1.2351884006
 20
42.5765654649
 11
-1.2351884006
 21
50.9769309687
  0
LINE
  5
619
100
AcDbEntity
  8
0
100
AcDbLine
 62
7
  6
CONTINUOUS
 10
-0.4751134006
 20
-23.3677417832
 11
-0.4751134006
 21
-23.0982517832
  0
LINE
  5
61A
100
AcDbEntity
  8
0
100
AcDbLine
 62
7
  6
CONTINUOUS
 10
0.7648115994
 20
50.9769309687
 11
0.7648115994
 21
42.5765654649
  0
LINE
  5
61B
100
AcDbEntity
  8
0
100
AcDbLine
 62
7
  6
CONTINUOUS
 10
0.7648115994
 20
-61.0230690313
 11
0.7648115994
 21
-69.4234345351
  0
LINE
  5
61C
100
AcDbEntity
  8
0
100
AcDbLine
 62
7
  6
CONTINUOUS
 10
29.3868917069
 20
23.4598089687
 11
29.4648115994
 21
23.5767482168
  0
LINE
  5
61D
100
AcDbEntity
  8
0
100
AcDbLine
 62
253
  6
CONTINUOUS
 10
-18.965066566
 20
-38.2232517832
 11
-18.8777646423
 21
-38.1359498595
  0
LINE
  5
61E
100
AcDbEntity
  8
0
100
AcDbLine
 62
253
  6
CONTINUOUS
 10
-17.7651884006
 20
-37.0233736178
 11
-17.8524903244
 21
-37.1106755415
  0
LINE
  5
61F
100
AcDbEntity
  8
0
100
AcDbLine
 62
253
  6
CONTINUOUS
 10
-39.935066566
 20
-59.2232517832
 11
-39.8477646423
 21
-59.1359498595
  0
LINE
  5
620
100
AcDbEntity
  8
0
100
AcDbLine
 62
253
  6
CONTINUOUS
 10
-38.7351884006
 20
-58.0233736178
 11
-38.8224903244
 21
-58.1106755415
  0
LINE
  5
621
100
AcDbEntity
  8
0
100
AcDbLine
 62
253
  6
CONTINUOUS
 10
-18.7651884006
 20
-38.4231299486
 11
-18.6778864769
 21
-38.3358280249
  0
LINE
  5
622
100
AcDbEntity
  8
0
100
AcDbLine
 62
253
  6
CONTINUOUS
 10
-17.5653102352
 20
-37.2232517832
 11
-17.652612159
 21
-37.3105537069
  0
LINE
  5
623
100
AcDbEntity
  8
0
100
AcDbLine
 62
253
  6
CONTINUOUS
 10
-39.7351884006
 20
-59.4231299486
 11
-39.6478864769
 21
-59.3358280249
  0
LINE
  5
624
100
AcDbEntity
  8
0
100
AcDbLine
 62
253
  6
CONTINUOUS
 10
-38.5353102352
 20
-58.2232517832
 11
-38.622612159
 21
-58.3105537069
  0
LINE
  5
625
100
AcDbEntity
  8
0
100
AcDbLine
 62
253
  6
CONTINUOUS
 10
31.4776315102
 20
9.1894462931
 11
31.564933434
 21
9.2767482168
  0
LINE
  5
626
100
AcDbEntity
  8
0
100
AcDbLine
 62
7
  6
CONTINUOUS
 10
32.6775096756
 20
10.2767482168
 11
32.7648115994
 21
10.3640501405
  0
LINE
  5
627
100
AcDbEntity
  8
0
100
AcDbLine
 62
7
  6
CONTINUOUS
 10
22.8171927536
 20
0.329129371
 11
22.7648115994
 21
0.2767482168
  0
LINE
  5
628
100
AcDbEntity
  8
0
100
AcDbLine
 62
253
  6
CONTINUOUS
 10
31.6775096756
 20
8.9895681277
 11
31.7715559798
 21
9.0836144318
  0
LINE
  5
629
100
AcDbEntity
  8
0
100
AcDbLine
 62
7
  6
CONTINUOUS
 10
-62.0850970247
 20
-62.5598015676
 11
-62.9852797766
 21
-63.0795223218
  0
LINE
  5
62A
100
AcDbEntity
  8
0
100
AcDbLine
 62
7
  6
CONTINUOUS
 10
-86.3030417972
 20
14.1767482168
 11
-86.8422722817
 21
14.1579178734
  0
LINE
  5
62B
100
AcDbEntity
  8
0
100
AcDbLine
 62
7
  6
CONTINUOUS
 10
-86.8422722817
 20
15.5767482168
 11
-84.0281045196
 21
15.5767482168
  0
LINE
  5
62C
100
AcDbEntity
  8
0
100
AcDbLine
 62
7
  6
CONTINUOUS
 10
29.3718954804
 20
15.5767482168
 11
26.5577277183
 21
15.5767482168
  0
LINE
  5
62D
100
AcDbEntity
  8
0
100
AcDbLine
 62
7
  6
CONTINUOUS
 10
-87.4481041646
 20
16.4348219934
 11
-83.4771146241
 21
16.4348219934
  0
LINE
  5
62E
100
AcDbEntity
  8
0
100
AcDbLine
 62
7
  6
CONTINUOUS
 10
26.0067378228
 20
16.4348219934
 11
29.9777273633
 21
16.4348219934
  0
LINE
  5
62F
100
AcDbEntity
  8
0
100
AcDbLine
 62
7
  6
CONTINUOUS
 10
-63.5353102352
 20
18.7767482168
 11
-39.935066566
 21
18.7767482168
  0
LINE
  5
630
100
AcDbEntity
  8
0
100
AcDbLine
 62
7
  6
CONTINUOUS
 10
-38.5353102352
 20
18.7767482168
 11
-18.965066566
 21
18.7767482168
  0
LINE
  5
631
100
AcDbEntity
  8
0
100
AcDbLine
 62
7
  6
CONTINUOUS
 10
-17.5653102352
 20
18.7767482168
 11
6.064933434
 21
18.7767482168
  0
LINE
  5
632
100
AcDbEntity
  8
0
100
AcDbLine
 62
7
  6
CONTINUOUS
 10
-63.622612159
 20
18.8640501405
 11
-39.8477646423
 21
18.8640501405
  0
LINE
  5
633
100
AcDbEntity
  8
0
100
AcDbLine
 62
7
  6
CONTINUOUS
 10
-38.622612159
 20
18.8640501405
 11
-18.8777646423
 21
18.8640501405
  0
LINE
  5
634
100
AcDbEntity
  8
0
100
AcDbLine
 62
7
  6
CONTINUOUS
 10
-17.652612159
 20
18.8640501405
 11
6.1522353577
 21
18.8640501405
  0
LINE
  5
635
100
AcDbEntity
  8
0
100
AcDbLine
 62
7
  6
CONTINUOUS
 10
6.1522353577
 20
19.6894462931
 11
-17.652612159
 21
19.6894462931
  0
LINE
  5
636
100
AcDbEntity
  8
0
100
AcDbLine
 62
7
  6
CONTINUOUS
 10
-18.8777646423
 20
19.6894462931
 11
-38.622612159
 21
19.6894462931
  0
LINE
  5
637
100
AcDbEntity
  8
0
100
AcDbLine
 62
7
  6
CONTINUOUS
 10
-39.8477646423
 20
19.6894462931
 11
-63.622612159
 21
19.6894462931
  0
LINE
  5
638
100
AcDbEntity
  8
0
100
AcDbLine
 62
7
  6
CONTINUOUS
 10
6.064933434
 20
19.7767482168
 11
-17.5653102352
 21
19.7767482168
  0
LINE
  5
639
100
AcDbEntity
  8
0
100
AcDbLine
 62
7
  6
CONTINUOUS
 10
-18.965066566
 20
19.7767482168
 11
-38.5353102352
 21
19.7767482168
  0
LINE
  5
63A
100
AcDbEntity
  8
0
100
AcDbLine
 62
7
  6
CONTINUOUS
 10
-39.935066566
 20
19.7767482168
 11
-63.5353102352
 21
19.7767482168
  0
LINE
  5
63B
100
AcDbEntity
  8
0
100
AcDbLine
 62
7
  6
CONTINUOUS
 10
29.3718954804
 20
14.1579178734
 11
28.8326649959
 21
14.1767482168
  0
LINE
  5
63C
100
AcDbEntity
  8
0
100
AcDbLine
 62
7
  6
CONTINUOUS
 10
-62.9852797766
 20
44.6330187554
 11
-62.0850970247
 21
44.1132980013
  0
LINE
  5
63D
100
AcDbEntity
  8
0
100
AcDbLine
 62
253
  6
CONTINUOUS
 10
-18.965066566
 20
19.7767482168
 11
-18.8777646423
 21
19.6894462931
  0
LINE
  5
63E
100
AcDbEntity
  8
0
100
AcDbLine
 62
253
  6
CONTINUOUS
 10
-17.7651884006
 20
18.5768700514
 11
-17.8524903244
 21
18.6641719751
  0
LINE
  5
63F
100
AcDbEntity
  8
0
100
AcDbLine
 62
253
  6
CONTINUOUS
 10
-39.935066566
 20
40.7767482168
 11
-39.8477646423
 21
40.6894462931
  0
LINE
  5
640
100
AcDbEntity
  8
0
100
AcDbLine
 62
253
  6
CONTINUOUS
 10
-38.7351884006
 20
39.5768700514
 11
-38.8224903244
 21
39.6641719751
  0
LINE
  5
641
100
AcDbEntity
  8
0
100
AcDbLine
 62
253
  6
CONTINUOUS
 10
-18.7651884006
 20
19.9766263822
 11
-18.6778864769
 21
19.8893244585
  0
LINE
  5
642
100
AcDbEntity
  8
0
100
AcDbLine
 62
253
  6
CONTINUOUS
 10
-17.5653102352
 20
18.7767482168
 11
-17.652612159
 21
18.8640501405
  0
LINE
  5
643
100
AcDbEntity
  8
0
100
AcDbLine
 62
253
  6
CONTINUOUS
 10
-39.7351884006
 20
40.9766263822
 11
-39.6478864769
 21
40.8893244585
  0
LINE
  5
644
100
AcDbEntity
  8
0
100
AcDbLine
 62
253
  6
CONTINUOUS
 10
-38.5353102352
 20
39.7767482168
 11
-38.622612159
 21
39.8640501405
  0
LINE
  5
645
100
AcDbEntity
  8
0
100
AcDbLine
 62
253
  6
CONTINUOUS
 10
31.4776315102
 20
-27.6359498595
 11
31.564933434
 21
-27.7232517832
  0
LINE
  5
646
100
AcDbEntity
  8
0
100
AcDbLine
 62
7
  6
CONTINUOUS
 10
32.6775096756
 20
-28.7232517832
 11
32.7648115994
 21
-28.8105537069
  0
LINE
  5
647
100
AcDbEntity
  8
0
100
AcDbLine
 62
7
  6
CONTINUOUS
 10
22.8171927536
 20
-18.7756329374
 11
22.7648115994
 21
-18.7232517832
  0
LINE
  5
648
100
AcDbEntity
  8
0
100
AcDbLine
 62
253
  6
CONTINUOUS
 10
31.6775096756
 20
-27.4360716941
 11
31.7715559798
 21
-27.5301179982
  0
LINE
  5
649
100
AcDbEntity
  8
0
100
AcDbLine
 62
7
  6
CONTINUOUS
 10
29.3868917069
 20
-41.9063125351
 11
29.4648115994
 21
-42.0232517832
  0
LINE
  5
64A
100
AcDbEntity
  8
0
100
AcDbLine
 62
7
  6
CONTINUOUS
 10
1.7648115994
 20
-69.4234345351
 11
1.7648115994
 21
-61.0230690313
  0
LINE
  5
64B
100
AcDbEntity
  8
0
100
AcDbLine
 62
7
  6
CONTINUOUS
 10
1.7648115994
 20
42.5765654649
 11
1.7648115994
 21
50.9769309687
  0
LINE
  5
64C
100
AcDbEntity
  8
0
100
AcDbLine
 62
7
  6
CONTINUOUS
 10
1.8971305994
 20
-23.0982517832
 11
1.8971305994
 21
-25.3482517832
  0
LINE
  5
64D
100
AcDbEntity
  8
0
100
AcDbLine
 62
7
  6
CONTINUOUS
 10
2.2011945994
 20
-25.0787617832
 11
2.2011945994
 21
-23.0982517832
  0
LINE
  5
64E
100
AcDbEntity
  8
0
100
AcDbLine
 62
7
  6
CONTINUOUS
 10
3.2648115994
 20
50.9769309687
 11
3.2648115994
 21
48.7767482168
  0
LINE
  5
64F
100
AcDbEntity
  8
0
100
AcDbLine
 62
7
  6
CONTINUOUS
 10
3.2648115994
 20
44.7767482168
 11
3.2648115994
 21
42.5765654649
  0
LINE
  5
650
100
AcDbEntity
  8
0
100
AcDbLine
 62
7
  6
CONTINUOUS
 10
3.2648115994
 20
-61.0230690313
 11
3.2648115994
 21
-63.2232517832
  0
LINE
  5
651
100
AcDbEntity
  8
0
100
AcDbLine
 62
7
  6
CONTINUOUS
 10
3.2648115994
 20
-67.2232517832
 11
3.2648115994
 21
-69.4234345351
  0
LINE
  5
652
100
AcDbEntity
  8
0
100
AcDbLine
 62
7
  6
CONTINUOUS
 10
3.3419345994
 20
-25.3482517832
 11
3.3419345994
 21
-25.0787617832
  0
LINE
  5
653
100
AcDbEntity
  8
0
100
AcDbLine
 62
7
  6
CONTINUOUS
 10
3.9148115994
 20
48.7767482168
 11
3.9148115994
 21
44.7767482168
  0
LINE
  5
654
100
AcDbEntity
  8
0
100
AcDbLine
 62
7
  6
CONTINUOUS
 10
3.9148115994
 20
-67.2232517832
 11
3.9148115994
 21
-63.2232517832
  0
LINE
  5
655
100
AcDbEntity
  8
0
100
AcDbLine
 62
7
  6
CONTINUOUS
 10
4.2945225994
 20
-24.4426107832
 11
4.2945225994
 21
-25.3482517832
  0
LINE
  5
656
100
AcDbEntity
  8
0
100
AcDbLine
 62
7
  6
CONTINUOUS
 10
4.4648115994
 20
-69.4234345351
 11
4.4648115994
 21
-68.1463513521
  0
LINE
  5
657
100
AcDbEntity
  8
0
100
AcDbLine
 62
7
  6
CONTINUOUS
 10
4.4648115994
 20
-62.3001522143
 11
4.4648115994
 21
-61.0230690313
  0
LINE
  5
658
100
AcDbEntity
  8
0
100
AcDbLine
 62
7
  6
CONTINUOUS
 10
4.4648115994
 20
42.5765654649
 11
4.4648115994
 21
43.8536486479
  0
LINE
  5
659
100
AcDbEntity
  8
0
100
AcDbLine
 62
7
  6
CONTINUOUS
 10
4.4648115994
 20
49.6998477857
 11
4.4648115994
 21
50.9769309687
  0
LINE
  5
65A
100
AcDbEntity
  8
0
100
AcDbLine
 62
7
  6
CONTINUOUS
 10
4.5984045994
 20
-25.3482517832
 11
4.5984045994
 21
-24.4426107832
  0
LINE
  5
65B
100
AcDbEntity
  8
0
100
AcDbLine
 62
7
  6
CONTINUOUS
 10
5.6648115994
 20
-67.1073318913
 11
5.6648115994
 21
-63.3391716751
  0
LINE
  5
65C
100
AcDbEntity
  8
0
100
AcDbLine
 62
7
  6
CONTINUOUS
 10
5.6648115994
 20
44.8926681087
 11
5.6648115994
 21
48.6608283249
  0
LINE
  5
65D
100
AcDbEntity
  8
0
100
AcDbLine
 62
7
  6
CONTINUOUS
 10
6.2648115994
 20
53.7895681277
 11
6.2648115994
 21
40.9766263822
  0
LINE
  5
65E
100
AcDbEntity
  8
0
100
AcDbLine
 62
7
  6
CONTINUOUS
 10
6.2648115994
 20
39.5768700514
 11
6.2648115994
 21
19.9766263822
  0
LINE
  5
65F
100
AcDbEntity
  8
0
100
AcDbLine
 62
7
  6
CONTINUOUS
 10
6.2648115994
 20
18.5768700514
 11
6.2648115994
 21
-37.0233736178
  0
LINE
  5
660
100
AcDbEntity
  8
0
100
AcDbLine
 62
7
  6
CONTINUOUS
 10
6.2648115994
 20
-38.4231299486
 11
6.2648115994
 21
-58.0233736178
  0
LINE
  5
661
100
AcDbEntity
  8
0
100
AcDbLine
 62
7
  6
CONTINUOUS
 10
6.2648115994
 20
-59.4231299486
 11
6.2648115994
 21
-72.2360716941
  0
LINE
  5
662
100
AcDbEntity
  8
0
100
AcDbLine
 62
7
  6
CONTINUOUS
 10
6.3521135231
 20
53.8768700514
 11
6.3521135231
 21
40.8893244585
  0
LINE
  5
663
100
AcDbEntity
  8
0
100
AcDbLine
 62
7
  6
CONTINUOUS
 10
6.3521135231
 20
39.6641719751
 11
6.3521135231
 21
19.8893244585
  0
LINE
  5
664
100
AcDbEntity
  8
0
100
AcDbLine
 62
7
  6
CONTINUOUS
 10
6.3521135231
 20
18.6641719751
 11
6.3521135231
 21
-37.1106755415
  0
LINE
  5
665
100
AcDbEntity
  8
0
100
AcDbLine
 62
7
  6
CONTINUOUS
 10
6.3521135231
 20
-38.3358280249
 11
6.3521135231
 21
-58.1106755415
  0
LINE
  5
666
100
AcDbEntity
  8
0
100
AcDbLine
 62
7
  6
CONTINUOUS
 10
6.3521135231
 20
-59.3358280249
 11
6.3521135231
 21
-72.3233736178
  0
LINE
  5
667
100
AcDbEntity
  8
0
100
AcDbLine
 62
7
  6
CONTINUOUS
 10
7.1775096756
 20
-72.3233736178
 11
7.1775096756
 21
-59.3358280249
  0
LINE
  5
668
100
AcDbEntity
  8
0
100
AcDbLine
 62
7
  6
CONTINUOUS
 10
7.1775096756
 20
-58.1106755415
 11
7.1775096756
 21
-47.9231299486
  0
LINE
  5
669
100
AcDbEntity
  8
0
100
AcDbLine
 62
7
  6
CONTINUOUS
 10
7.1775096756
 20
-46.5233736178
 11
7.1775096756
 21
-28.9231299486
  0
LINE
  5
66A
100
AcDbEntity
  8
0
100
AcDbLine
 62
7
  6
CONTINUOUS
 10
7.1775096756
 20
-27.5233736178
 11
7.1775096756
 21
9.0768700514
  0
LINE
  5
66B
100
AcDbEntity
  8
0
100
AcDbLine
 62
7
  6
CONTINUOUS
 10
7.1775096756
 20
10.4766263822
 11
7.1775096756
 21
28.0768700514
  0
LINE
  5
66C
100
AcDbEntity
  8
0
100
AcDbLine
 62
7
  6
CONTINUOUS
 10
7.1775096756
 20
29.4766263822
 11
7.1775096756
 21
39.6641719751
  0
LINE
  5
66D
100
AcDbEntity
  8
0
100
AcDbLine
 62
7
  6
CONTINUOUS
 10
7.1775096756
 20
40.8893244585
 11
7.1775096756
 21
53.8768700514
  0
LINE
  5
66E
100
AcDbEntity
  8
0
100
AcDbLine
 62
7
  6
CONTINUOUS
 10
7.2648115994
 20
-73.4359498595
 11
7.2648115994
 21
-72.4885560906
  0
LINE
  5
66F
100
AcDbEntity
  8
0
100
AcDbLine
 62
7
  6
CONTINUOUS
 10
7.2648115994
 20
-72.2360716941
 11
7.2648115994
 21
-59.4231299486
  0
LINE
  5
670
100
AcDbEntity
  8
0
100
AcDbLine
 62
7
  6
CONTINUOUS
 10
7.2648115994
 20
-58.0233736178
 11
7.2648115994
 21
-48.0104318723
  0
LINE
  5
671
100
AcDbEntity
  8
0
100
AcDbLine
 62
7
  6
CONTINUOUS
 10
7.2648115994
 20
-46.4360716941
 11
7.2648115994
 21
-29.0104318723
  0
LINE
  5
672
100
AcDbEntity
  8
0
100
AcDbLine
 62
7
  6
CONTINUOUS
 10
7.2648115994
 20
-27.4360716941
 11
7.2648115994
 21
8.9895681277
  0
LINE
  5
673
100
AcDbEntity
  8
0
100
AcDbLine
 62
7
  6
CONTINUOUS
 10
7.2648115994
 20
10.5639283059
 11
7.2648115994
 21
27.9895681277
  0
LINE
  5
674
100
AcDbEntity
  8
0
100
AcDbLine
 62
7
  6
CONTINUOUS
 10
7.2648115994
 20
29.5639283059
 11
7.2648115994
 21
39.5768700514
  0
LINE
  5
675
100
AcDbEntity
  8
0
100
AcDbLine
 62
7
  6
CONTINUOUS
 10
7.2648115994
 20
40.9766263822
 11
7.2648115994
 21
53.7895681277
  0
LINE
  5
676
100
AcDbEntity
  8
0
100
AcDbLine
 62
7
  6
CONTINUOUS
 10
7.2648115994
 20
54.0420525242
 11
7.2648115994
 21
54.9894462931
  0
LINE
  5
677
100
AcDbEntity
  8
0
100
AcDbLine
 62
7
  6
CONTINUOUS
 10
-0.0740444006
 20
-25.3482517832
 11
0.1610365994
 21
-24.6933587832
  0
LINE
  5
678
100
AcDbEntity
  8
0
100
AcDbLine
 62
7
  6
CONTINUOUS
 10
0.2550585994
 20
-24.4238687832
 11
0.6186615994
 21
-23.4246107832
  0
LINE
  5
679
100
AcDbEntity
  8
0
100
AcDbLine
 62
7
  6
CONTINUOUS
 10
0.4588045994
 20
-23.0982517832
 11
-0.3873704006
 21
-25.3482517832
  0
LINE
  5
67A
100
AcDbEntity
  8
0
100
AcDbLine
 62
7
  6
CONTINUOUS
 10
5.0904385994
 20
-23.0982517832
 11
4.4450075994
 21
-24.1794887832
  0
LINE
  5
67B
100
AcDbEntity
  8
0
100
AcDbLine
 62
7
  6
CONTINUOUS
 10
4.5984045994
 20
-24.4426107832
 11
5.4478185994
 21
-23.0982517832
  0
LINE
  5
67C
100
AcDbEntity
  8
0
100
AcDbLine
 62
7
  6
CONTINUOUS
 10
26.5427314919
 20
15.0936874649
 11
26.4648115994
 21
14.9767482168
  0
LINE
  5
67D
100
AcDbEntity
  8
0
100
AcDbLine
 62
7
  6
CONTINUOUS
 10
10.2148115994
 20
-18.2232517832
 11
10.1691708556
 21
-18.268892527
  0
LINE
  5
67E
100
AcDbEntity
  8
0
100
AcDbLine
 62
7
  6
CONTINUOUS
 10
11.8171927536
 20
-18.170870629
 11
11.7648115994
 21
-18.2232517832
  0
LINE
  5
67F
100
AcDbEntity
  8
0
100
AcDbLine
 62
7
  6
CONTINUOUS
 10
14.8148115994
 20
-16.0232517832
 11
14.8604523432
 21
-15.9776110394
  0
LINE
  5
680
100
AcDbEntity
  8
0
100
AcDbLine
 62
7
  6
CONTINUOUS
 10
29.3718954804
 20
24.3955785603
 11
28.8326649959
 21
24.3767482168
  0
LINE
  5
681
100
AcDbEntity
  8
0
100
AcDbLine
 62
7
  6
CONTINUOUS
 10
-84.0281045196
 20
24.3955785603
 11
-84.5673350041
 21
24.3767482168
  0
LINE
  5
682
100
AcDbEntity
  8
0
100
AcDbLine
 62
7
  6
CONTINUOUS
 10
29.9777273633
 20
22.1186744402
 11
26.0067378228
 21
22.1186744402
  0
LINE
  5
683
100
AcDbEntity
  8
0
100
AcDbLine
 62
7
  6
CONTINUOUS
 10
-83.4771146241
 20
22.1186744402
 11
-87.4481041646
 21
22.1186744402
  0
LINE
  5
684
100
AcDbEntity
  8
0
100
AcDbLine
 62
7
  6
CONTINUOUS
 10
-86.8422722817
 20
22.9767482168
 11
-84.0281045196
 21
22.9767482168
  0
LINE
  5
685
100
AcDbEntity
  8
0
100
AcDbLine
 62
7
  6
CONTINUOUS
 10
29.3718954804
 20
22.9767482168
 11
26.5577277183
 21
22.9767482168
  0
LINE
  5
686
100
AcDbEntity
  8
0
100
AcDbLine
 62
253
  6
CONTINUOUS
 10
-86.4309688663
 20
23.2647459688
 11
-84.439407935
 21
23.2647459688
  0
LINE
  5
687
100
AcDbEntity
  8
0
100
AcDbLine
 62
253
  6
CONTINUOUS
 10
26.9690311337
 20
23.2647459688
 11
28.960592065
 21
23.2647459688
  0
LINE
  5
688
100
AcDbEntity
  8
0
100
AcDbLine
 62
253
  6
CONTINUOUS
 10
-86.3030417972
 20
23.5104915821
 11
-84.5673350041
 21
23.5104915821
  0
LINE
  5
689
100
AcDbEntity
  8
0
100
AcDbLine
 62
253
  6
CONTINUOUS
 10
27.0969582028
 20
23.5104915821
 11
28.8326649959
 21
23.5104915821
  0
LINE
  5
68A
100
AcDbEntity
  8
0
100
AcDbLine
 62
7
  6
CONTINUOUS
 10
25.9648115994
 20
23.5767482168
 11
26.4648115994
 21
23.5767482168
  0
LINE
  5
68B
100
AcDbEntity
  8
0
100
AcDbLine
 62
7
  6
CONTINUOUS
 10
29.4648115994
 20
23.5767482168
 11
29.9648115994
 21
23.5767482168
  0
LINE
  5
68C
100
AcDbEntity
  8
0
100
AcDbLine
 62
7
  6
CONTINUOUS
 10
-83.4351884006
 20
23.5767482168
 11
-83.9351884006
 21
23.5767482168
  0
LINE
  5
68D
100
AcDbEntity
  8
0
100
AcDbLine
 62
7
  6
CONTINUOUS
 10
-86.9351884006
 20
23.5767482168
 11
-87.4351884006
 21
23.5767482168
  0
LINE
  5
68E
100
AcDbEntity
  8
0
100
AcDbLine
 62
7
  6
CONTINUOUS
 10
27.0969582028
 20
24.3767482168
 11
28.8326649959
 21
24.3767482168
  0
LINE
  5
68F
100
AcDbEntity
  8
0
100
AcDbLine
 62
7
  6
CONTINUOUS
 10
-84.5673350041
 20
24.3767482168
 11
-86.3030417972
 21
24.3767482168
  0
LINE
  5
690
100
AcDbEntity
  8
0
100
AcDbLine
 62
253
  6
CONTINUOUS
 10
29.4479605733
 20
24.4716436531
 11
26.4816626255
 21
24.4716436531
  0
LINE
  5
691
100
AcDbEntity
  8
0
100
AcDbLine
 62
253
  6
CONTINUOUS
 10
-83.9520394267
 20
24.4716436531
 11
-86.9183373745
 21
24.4716436531
  0
LINE
  5
692
100
AcDbEntity
  8
0
100
AcDbLine
 62
253
  6
CONTINUOUS
 10
29.4648115994
 20
24.9713390666
 11
26.4648115994
 21
24.9713390666
  0
LINE
  5
693
100
AcDbEntity
  8
0
100
AcDbLine
 62
253
  6
CONTINUOUS
 10
-83.9351884006
 20
24.9713390666
 11
-86.9351884006
 21
24.9713390666
  0
LINE
  5
694
100
AcDbEntity
  8
0
100
AcDbLine
 62
7
  6
CONTINUOUS
 10
32.7298908299
 20
26.8116689863
 11
32.2298908299
 21
26.8116689863
  0
LINE
  5
695
100
AcDbEntity
  8
0
100
AcDbLine
 62
7
  6
CONTINUOUS
 10
-89.7002676311
 20
26.8116689863
 11
-90.2002676311
 21
26.8116689863
  0
LINE
  5
696
100
AcDbEntity
  8
0
100
AcDbLine
 62
7
  6
CONTINUOUS
 10
-86.3030417972
 20
24.3767482168
 11
-86.8422722817
 21
24.3955785603
  0
LINE
  5
697
100
AcDbEntity
  8
0
100
AcDbLine
 62
7
  6
CONTINUOUS
 10
27.0969582028
 20
24.3767482168
 11
26.5577277183
 21
24.3955785603
  0
LINE
  5
698
100
AcDbEntity
  8
0
100
AcDbLine
 62
7
  6
CONTINUOUS
 10
10.2148115994
 20
-0.2232517832
 11
10.1691708556
 21
-0.1776110394
  0
LINE
  5
699
100
AcDbEntity
  8
0
100
AcDbLine
 62
7
  6
CONTINUOUS
 10
11.8171927536
 20
-0.2756329374
 11
11.7648115994
 21
-0.2232517832
  0
LINE
  5
69A
100
AcDbEntity
  8
0
100
AcDbLine
 62
7
  6
CONTINUOUS
 10
14.8148115994
 20
-2.4232517832
 11
14.8604523432
 21
-2.468892527
  0
LINE
  5
69B
100
AcDbEntity
  8
0
100
AcDbLine
 62
7
  6
CONTINUOUS
 10
26.5427314919
 20
-33.5401910313
 11
26.4648115994
 21
-33.4232517832
  0
LINE
  5
69C
100
AcDbEntity
  8
0
100
AcDbLine
 62
253
  6
CONTINUOUS
 10
10.7650199327
 20
-73.5232517832
 11
10.7648115994
 21
-73.397537013
  0
LINE
  5
69D
100
AcDbEntity
  8
0
100
AcDbLine
 62
7
  6
CONTINUOUS
 10
8.3648115994
 20
54.9510334466
 11
8.3648115994
 21
54.1151610632
  0
LINE
  5
69E
100
AcDbEntity
  8
0
100
AcDbLine
 62
7
  6
CONTINUOUS
 10
8.3648115994
 20
-72.5616646296
 11
8.3648115994
 21
-73.397537013
  0
LINE
  5
69F
100
AcDbEntity
  8
0
100
AcDbLine
 62
253
  6
CONTINUOUS
 10
9.9692926902
 20
-18.4687706924
 11
9.9692926902
 21
-15.777732874
  0
LINE
  5
6A0
100
AcDbEntity
  8
0
100
AcDbLine
 62
253
  6
CONTINUOUS
 10
9.9692926902
 20
-2.6687706924
 11
9.9692926902
 21
0.022267126
  0
LINE
  5
6A1
100
AcDbEntity
  8
0
100
AcDbLine
 62
253
  6
CONTINUOUS
 10
10.1691708556
 20
-18.268892527
 11
10.1691708556
 21
-15.9776110394
  0
LINE
  5
6A2
100
AcDbEntity
  8
0
100
AcDbLine
 62
253
  6
CONTINUOUS
 10
10.1691708556
 20
-2.468892527
 11
10.1691708556
 21
-0.1776110394
  0
LINE
  5
6A3
100
AcDbEntity
  8
0
100
AcDbLine
 62
7
  6
CONTINUOUS
 10
10.2148115994
 20
-18.2232517832
 11
10.2148115994
 21
-16.0232517832
  0
LINE
  5
6A4
100
AcDbEntity
  8
0
100
AcDbLine
 62
7
  6
CONTINUOUS
 10
10.2148115994
 20
-2.4232517832
 11
10.2148115994
 21
-0.2232517832
  0
LINE
  5
6A5
100
AcDbEntity
  8
0
100
AcDbLine
 62
253
  6
CONTINUOUS
 10
10.7648115994
 20
-72.5616646296
 11
10.7648115994
 21
-72.4359498595
  0
LINE
  5
6A6
100
AcDbEntity
  8
0
100
AcDbLine
 62
253
  6
CONTINUOUS
 10
10.7648115994
 20
53.9894462931
 11
10.7648115994
 21
54.1151610632
  0
LINE
  5
6A7
100
AcDbEntity
  8
0
100
AcDbLine
 62
253
  6
CONTINUOUS
 10
10.7648115994
 20
54.9510334466
 11
10.7648115994
 21
55.0767482168
  0
LINE
  5
6A8
100
AcDbEntity
  8
0
100
AcDbLine
 62
7
  6
CONTINUOUS
 10
11.8171927536
 20
-18.170870629
 11
11.8171927536
 21
-17.6232517832
  0
LINE
  5
6A9
100
AcDbEntity
  8
0
100
AcDbLine
 62
7
  6
CONTINUOUS
 10
11.8171927536
 20
-0.8232517832
 11
11.8171927536
 21
-0.2756329374
  0
LINE
  5
6AA
100
AcDbEntity
  8
0
100
AcDbLine
 62
7
  6
CONTINUOUS
 10
12.1648115994
 20
-73.3526895752
 11
12.1648115994
 21
-72.5150314861
  0
LINE
  5
6AB
100
AcDbEntity
  8
0
100
AcDbLine
 62
7
  6
CONTINUOUS
 10
12.1648115994
 20
54.0685279198
 11
12.1648115994
 21
54.9061860088
  0
LINE
  5
6AC
100
AcDbEntity
  8
0
100
AcDbLine
 62
7
  6
CONTINUOUS
 10
13.2124304451
 20
-18.170870629
 11
13.2124304451
 21
-17.6232517832
  0
LINE
  5
6AD
100
AcDbEntity
  8
0
100
AcDbLine
 62
7
  6
CONTINUOUS
 10
13.2124304451
 20
-0.8232517832
 11
13.2124304451
 21
-0.2756329374
  0
LINE
  5
6AE
100
AcDbEntity
  8
0
100
AcDbLine
 62
7
  6
CONTINUOUS
 10
13.2648115994
 20
-73.2928713706
 11
13.2648115994
 21
-72.3739112452
  0
LINE
  5
6AF
100
AcDbEntity
  8
0
100
AcDbLine
 62
7
  6
CONTINUOUS
 10
13.2648115994
 20
53.9274076788
 11
13.2648115994
 21
54.8463678042
  0
LINE
  5
6B0
100
AcDbEntity
  8
0
100
AcDbLine
 62
7
  6
CONTINUOUS
 10
32.7648115994
 20
46.1917074055
 11
32.6390968292
 21
45.8767482168
  0
LINE
  5
6B1
100
AcDbEntity
  8
0
100
AcDbLine
 62
253
  6
CONTINUOUS
 10
31.8905263695
 20
42.6771314804
 11
31.7648115994
 21
42.3621722917
  0
LINE
  5
6B2
100
AcDbEntity
  8
0
100
AcDbLine
 62
253
  6
CONTINUOUS
 10
32.3893093689
 20
42.1767482168
 11
32.2635945987
 21
41.8617890281
  0
LINE
  5
6B3
100
AcDbEntity
  8
0
100
AcDbLine
 62
253
  6
CONTINUOUS
 10
24.0171927536
 20
-8.4233736178
 11
23.9298908299
 21
-8.5106755415
  0
LINE
  5
6B4
100
AcDbEntity
  8
0
100
AcDbLine
 62
253
  6
CONTINUOUS
 10
24.217070919
 20
-8.6232517832
 11
24.1297689953
 21
-8.7105537069
  0
LINE
  5
6B5
100
AcDbEntity
  8
0
100
AcDbLine
 62
253
  6
CONTINUOUS
 10
-38.7351884006
 20
-72.2360716941
 11
-38.8224903244
 21
-72.3233736178
  0
LINE
  5
6B6
100
AcDbEntity
  8
0
100
AcDbLine
 62
253
  6
CONTINUOUS
 10
-38.5353102352
 20
-72.4359498595
 11
-38.6264107579
 21
-72.5270503822
  0
LINE
  5
6B7
100
AcDbEntity
  8
0
100
AcDbLine
 62
253
  6
CONTINUOUS
 10
7.2648115994
 20
-27.4360716941
 11
7.1775096756
 21
-27.5233736178
  0
LINE
  5
6B8
100
AcDbEntity
  8
0
100
AcDbLine
 62
253
  6
CONTINUOUS
 10
7.4646897648
 20
-27.6359498595
 11
7.377387841
 21
-27.7232517832
  0
LINE
  5
6B9
100
AcDbEntity
  8
0
100
AcDbLine
 62
7
  6
CONTINUOUS
 10
20.7124304451
 20
-18.7756329374
 11
20.7648115994
 21
-18.7232517832
  0
LINE
  5
6BA
100
AcDbEntity
  8
0
100
AcDbLine
 62
253
  6
CONTINUOUS
 10
-18.965066566
 20
-59.2232517832
 11
-18.8777646423
 21
-59.1359498595
  0
LINE
  5
6BB
100
AcDbEntity
  8
0
100
AcDbLine
 62
253
  6
CONTINUOUS
 10
-17.7651884006
 20
-58.0233736178
 11
-17.8524903244
 21
-58.1106755415
  0
LINE
  5
6BC
100
AcDbEntity
  8
0
100
AcDbLine
 62
7
  6
CONTINUOUS
 10
-52.3852797766
 20
-67.8867019987
 11
-51.4850970247
 21
-67.3669812446
  0
LINE
  5
6BD
100
AcDbEntity
  8
0
100
AcDbLine
 62
253
  6
CONTINUOUS
 10
32.7648115994
 20
33.0769565501
 11
32.6775096756
 21
33.0767482168
  0
LINE
  5
6BE
100
AcDbEntity
  8
0
100
AcDbLine
 62
7
  6
CONTINUOUS
 10
-90.2002676311
 20
28.1545255236
 11
-78.5572892593
 21
28.1545255236
  0
LINE
  5
6BF
100
AcDbEntity
  8
0
100
AcDbLine
 62
7
  6
CONTINUOUS
 10
32.7298908299
 20
28.1545255236
 11
21.086912458
 21
28.1545255236
  0
LINE
  5
6C0
100
AcDbEntity
  8
0
100
AcDbLine
 62
7
  6
CONTINUOUS
 10
-76.9480083115
 20
28.1894462931
 11
-64.935066566
 21
28.1894462931
  0
LINE
  5
6C1
100
AcDbEntity
  8
0
100
AcDbLine
 62
7
  6
CONTINUOUS
 10
7.4646897648
 20
28.1894462931
 11
19.4776315102
 21
28.1894462931
  0
LINE
  5
6C2
100
AcDbEntity
  8
0
100
AcDbLine
 62
7
  6
CONTINUOUS
 10
-90.1478864769
 20
28.2767482168
 11
-78.435066566
 21
28.2767482168
  0
LINE
  5
6C3
100
AcDbEntity
  8
0
100
AcDbLine
 62
7
  6
CONTINUOUS
 10
-77.0353102352
 20
28.2767482168
 11
-64.8477646423
 21
28.2767482168
  0
LINE
  5
6C4
100
AcDbEntity
  8
0
100
AcDbLine
 62
7
  6
CONTINUOUS
 10
32.6775096756
 20
28.2767482168
 11
20.9646897648
 21
28.2767482168
  0
LINE
  5
6C5
100
AcDbEntity
  8
0
100
AcDbLine
 62
7
  6
CONTINUOUS
 10
7.377387841
 20
28.2767482168
 11
19.564933434
 21
28.2767482168
  0
LINE
  5
6C6
100
AcDbEntity
  8
0
100
AcDbLine
 62
7
  6
CONTINUOUS
 10
31.564933434
 20
29.2767482168
 11
7.377387841
 21
29.2767482168
  0
LINE
  5
6C7
100
AcDbEntity
  8
0
100
AcDbLine
 62
7
  6
CONTINUOUS
 10
-64.8477646423
 20
29.2767482168
 11
-89.0353102352
 21
29.2767482168
  0
LINE
  5
6C8
100
AcDbEntity
  8
0
100
AcDbLine
 62
7
  6
CONTINUOUS
 10
31.4776315102
 20
29.3640501405
 11
7.4646897648
 21
29.3640501405
  0
LINE
  5
6C9
100
AcDbEntity
  8
0
100
AcDbLine
 62
7
  6
CONTINUOUS
 10
-64.935066566
 20
29.3640501405
 11
-88.9480083115
 21
29.3640501405
  0
LINE
  5
6CA
100
AcDbEntity
  8
0
100
AcDbLine
 62
253
  6
CONTINUOUS
 10
31.6775096756
 20
33.0767482168
 11
31.7648115994
 21
33.0767482168
  0
LINE
  5
6CB
100
AcDbEntity
  8
0
100
AcDbLine
 62
253
  6
CONTINUOUS
 10
-89.1478864769
 20
33.0767482168
 11
-89.2351884006
 21
33.0767482168
  0
LINE
  5
6CC
100
AcDbEntity
  8
0
100
AcDbLine
 62
253
  6
CONTINUOUS
 10
-90.1478864769
 20
33.0767482168
 11
-90.2351884006
 21
33.0767482207
  0
LINE
  5
6CD
100
AcDbEntity
  8
0
100
AcDbLine
 62
7
  6
CONTINUOUS
 10
-51.4850970247
 20
48.9204776782
 11
-52.3852797766
 21
49.4401984324
  0
LINE
  5
6CE
100
AcDbEntity
  8
0
100
AcDbLine
 62
253
  6
CONTINUOUS
 10
24.0171927536
 20
-10.0231299486
 11
23.9298908299
 21
-9.9358280249
  0
LINE
  5
6CF
100
AcDbEntity
  8
0
100
AcDbLine
 62
253
  6
CONTINUOUS
 10
24.217070919
 20
-9.8232517832
 11
24.1297689953
 21
-9.7359498595
  0
LINE
  5
6D0
100
AcDbEntity
  8
0
100
AcDbLine
 62
253
  6
CONTINUOUS
 10
-38.8224903244
 20
53.8768700514
 11
-38.7351884006
 21
53.7895681277
  0
LINE
  5
6D1
100
AcDbEntity
  8
0
100
AcDbLine
 62
253
  6
CONTINUOUS
 10
-38.6264107579
 20
54.0805468158
 11
-38.5353102352
 21
53.9894462931
  0
LINE
  5
6D2
100
AcDbEntity
  8
0
100
AcDbLine
 62
253
  6
CONTINUOUS
 10
7.1775096756
 20
9.0768700514
 11
7.2648115994
 21
8.9895681277
  0
LINE
  5
6D3
100
AcDbEntity
  8
0
100
AcDbLine
 62
253
  6
CONTINUOUS
 10
7.377387841
 20
9.2767482168
 11
7.4646897648
 21
9.1894462931
  0
LINE
  5
6D4
100
AcDbEntity
  8
0
100
AcDbLine
 62
7
  6
CONTINUOUS
 10
20.7124304451
 20
0.329129371
 11
20.7648115994
 21
0.2767482168
  0
LINE
  5
6D5
100
AcDbEntity
  8
0
100
AcDbLine
 62
253
  6
CONTINUOUS
 10
-18.965066566
 20
40.7767482168
 11
-18.8777646423
 21
40.6894462931
  0
LINE
  5
6D6
100
AcDbEntity
  8
0
100
AcDbLine
 62
253
  6
CONTINUOUS
 10
-17.7651884006
 20
39.5768700514
 11
-17.8524903244
 21
39.6641719751
  0
LINE
  5
6D7
100
AcDbEntity
  8
0
100
AcDbLine
 62
7
  6
CONTINUOUS
 10
32.7648115994
 20
-64.6382109719
 11
32.6390968292
 21
-64.3232517832
  0
LINE
  5
6D8
100
AcDbEntity
  8
0
100
AcDbLine
 62
253
  6
CONTINUOUS
 10
31.7648115994
 20
-60.8086758581
 11
31.8905263695
 21
-61.1236350468
  0
LINE
  5
6D9
100
AcDbEntity
  8
0
100
AcDbLine
 62
253
  6
CONTINUOUS
 10
32.2635945987
 20
-60.3082925945
 11
32.3893093689
 21
-60.6232517832
  0
LINE
  5
6DA
100
AcDbEntity
  8
0
100
AcDbLine
 62
7
  6
CONTINUOUS
 10
14.8148115994
 20
-0.2232517832
 11
14.8148115994
 21
-2.4232517832
  0
LINE
  5
6DB
100
AcDbEntity
  8
0
100
AcDbLine
 62
7
  6
CONTINUOUS
 10
14.8148115994
 20
-16.0232517832
 11
14.8148115994
 21
-18.2232517832
  0
LINE
  5
6DC
100
AcDbEntity
  8
0
100
AcDbLine
 62
253
  6
CONTINUOUS
 10
14.8604523432
 20
-0.1776110394
 11
14.8604523432
 21
-2.468892527
  0
LINE
  5
6DD
100
AcDbEntity
  8
0
100
AcDbLine
 62
253
  6
CONTINUOUS
 10
14.8604523432
 20
-15.9776110394
 11
14.8604523432
 21
-18.268892527
  0
LINE
  5
6DE
100
AcDbEntity
  8
0
100
AcDbLine
 62
253
  6
CONTINUOUS
 10
15.0603305086
 20
0.022267126
 11
15.0603305086
 21
-2.6687706924
  0
LINE
  5
6DF
100
AcDbEntity
  8
0
100
AcDbLine
 62
253
  6
CONTINUOUS
 10
15.0603305086
 20
-15.777732874
 11
15.0603305086
 21
-18.4687706924
  0
LINE
  5
6E0
100
AcDbEntity
  8
0
100
AcDbLine
 62
253
  6
CONTINUOUS
 10
-18.7651884006
 20
-59.4231299486
 11
-18.6778864769
 21
-59.3358280249
  0
LINE
  5
6E1
100
AcDbEntity
  8
0
100
AcDbLine
 62
253
  6
CONTINUOUS
 10
-17.5653102352
 20
-58.2232517832
 11
-17.652612159
 21
-58.3105537069
  0
LINE
  5
6E2
100
AcDbEntity
  8
0
100
AcDbLine
 62
253
  6
CONTINUOUS
 10
31.564933434
 20
-9.7359498595
 11
31.4776315102
 21
-9.8232517832
  0
LINE
  5
6E3
100
AcDbEntity
  8
0
100
AcDbLine
 62
253
  6
CONTINUOUS
 10
31.7648115994
 20
-9.9358280249
 11
31.6775096756
 21
-10.0231299486
  0
LINE
  5
6E4
100
AcDbEntity
  8
0
100
AcDbLine
 62
253
  6
CONTINUOUS
 10
6.064933434
 20
-38.2232517832
 11
6.1522353577
 21
-38.1359498595
  0
LINE
  5
6E5
100
AcDbEntity
  8
0
100
AcDbLine
 62
253
  6
CONTINUOUS
 10
6.2648115994
 20
-38.4231299486
 11
6.3521135231
 21
-38.3358280249
  0
LINE
  5
6E6
100
AcDbEntity
  8
0
100
AcDbLine
 62
253
  6
CONTINUOUS
 10
19.4776315102
 20
-28.8105537069
 11
19.564933434
 21
-28.7232517832
  0
LINE
  5
6E7
100
AcDbEntity
  8
0
100
AcDbLine
 62
253
  6
CONTINUOUS
 10
19.6775096756
 20
-29.0104318723
 11
19.7648115994
 21
-28.9231299486
  0
LINE
  5
6E8
100
AcDbEntity
  8
0
100
AcDbLine
 62
7
  6
CONTINUOUS
 10
29.3824209396
 20
-34.0179906571
 11
29.3718954804
 21
-34.0232517832
  0
LINE
  5
6E9
100
AcDbEntity
  8
0
100
AcDbLine
 62
7
  6
CONTINUOUS
 10
29.3718954804
 20
15.5767482168
 11
29.3824209396
 21
15.5714870907
  0
LINE
  5
6EA
100
AcDbEntity
  8
0
100
AcDbLine
 62
253
  6
CONTINUOUS
 10
-18.7651884006
 20
40.9766263822
 11
-18.6778864769
 21
40.8893244585
  0
LINE
  5
6EB
100
AcDbEntity
  8
0
100
AcDbLine
 62
253
  6
CONTINUOUS
 10
-17.5653102352
 20
39.7767482168
 11
-17.652612159
 21
39.8640501405
  0
LINE
  5
6EC
100
AcDbEntity
  8
0
100
AcDbLine
 62
253
  6
CONTINUOUS
 10
31.4776315102
 20
-8.6232517832
 11
31.564933434
 21
-8.7105537069
  0
LINE
  5
6ED
100
AcDbEntity
  8
0
100
AcDbLine
 62
253
  6
CONTINUOUS
 10
31.6775096756
 20
-8.4233736178
 11
31.7648115994
 21
-8.5106755415
  0
LINE
  5
6EE
100
AcDbEntity
  8
0
100
AcDbLine
 62
253
  6
CONTINUOUS
 10
6.064933434
 20
19.7767482168
 11
6.1522353577
 21
19.6894462931
  0
LINE
  5
6EF
100
AcDbEntity
  8
0
100
AcDbLine
 62
253
  6
CONTINUOUS
 10
6.2648115994
 20
19.9766263822
 11
6.3521135231
 21
19.8893244585
  0
LINE
  5
6F0
100
AcDbEntity
  8
0
100
AcDbLine
 62
253
  6
CONTINUOUS
 10
19.564933434
 20
10.2767482168
 11
19.4776315102
 21
10.3640501405
  0
LINE
  5
6F1
100
AcDbEntity
  8
0
100
AcDbLine
 62
253
  6
CONTINUOUS
 10
19.7648115994
 20
10.4766263822
 11
19.6775096756
 21
10.5639283059
  0
LINE
  5
6F2
100
AcDbEntity
  8
0
100
AcDbLine
 62
7
  6
CONTINUOUS
 10
19.6775096756
 20
27.9895681277
 11
19.6775096756
 21
10.5639283059
  0
LINE
  5
6F3
100
AcDbEntity
  8
0
100
AcDbLine
 62
7
  6
CONTINUOUS
 10
19.6775096756
 20
-29.0104318723
 11
19.6775096756
 21
-46.4360716941
  0
LINE
  5
6F4
100
AcDbEntity
  8
0
100
AcDbLine
 62
7
  6
CONTINUOUS
 10
19.7648115994
 20
28.0768700514
 11
19.7648115994
 21
10.4766263822
  0
LINE
  5
6F5
100
AcDbEntity
  8
0
100
AcDbLine
 62
7
  6
CONTINUOUS
 10
19.7648115994
 20
-28.9231299486
 11
19.7648115994
 21
-46.5233736178
  0
LINE
  5
6F6
100
AcDbEntity
  8
0
100
AcDbLine
 62
7
  6
CONTINUOUS
 10
20.7124304451
 20
0.329129371
 11
20.7124304451
 21
-18.7756329374
  0
LINE
  5
6F7
100
AcDbEntity
  8
0
100
AcDbLine
 62
7
  6
CONTINUOUS
 10
20.7550661534
 20
-18.2232517832
 11
20.7550661534
 21
-0.2232517832
  0
LINE
  5
6F8
100
AcDbEntity
  8
0
100
AcDbLine
 62
7
  6
CONTINUOUS
 10
20.7648115994
 20
0.2767482168
 11
20.7648115994
 21
-0.2232517832
  0
LINE
  5
6F9
100
AcDbEntity
  8
0
100
AcDbLine
 62
7
  6
CONTINUOUS
 10
20.7648115994
 20
-46.5233736178
 11
20.7648115994
 21
-28.9231299486
  0
LINE
  5
6FA
100
AcDbEntity
  8
0
100
AcDbLine
 62
7
  6
CONTINUOUS
 10
20.7648115994
 20
-18.2232517832
 11
20.7648115994
 21
-18.7232517832
  0
LINE
  5
6FB
100
AcDbEntity
  8
0
100
AcDbLine
 62
7
  6
CONTINUOUS
 10
20.7648115994
 20
10.4766263822
 11
20.7648115994
 21
28.0768700514
  0
LINE
  5
6FC
100
AcDbEntity
  8
0
100
AcDbLine
 62
7
  6
CONTINUOUS
 10
20.8870342926
 20
27.9546473582
 11
20.8870342926
 21
10.5988490754
  0
LINE
  5
6FD
100
AcDbEntity
  8
0
100
AcDbLine
 62
7
  6
CONTINUOUS
 10
20.8870342926
 20
-46.4011509246
 11
20.8870342926
 21
-29.0453526418
  0
LINE
  5
6FE
100
AcDbEntity
  8
0
100
AcDbLine
 62
7
  6
CONTINUOUS
 10
21.0543353685
 20
-0.2232517832
 11
21.0543353685
 21
-0.2242999388
  0
LINE
  5
6FF
100
AcDbEntity
  8
0
100
AcDbLine
 62
7
  6
CONTINUOUS
 10
21.0543353685
 20
-18.2232517832
 11
21.0543353685
 21
-18.2222036276
  0
LINE
  5
700
100
AcDbEntity
  8
0
100
AcDbLine
 62
253
  6
CONTINUOUS
 10
21.0543353685
 20
-18.2232517832
 11
21.0543353685
 21
-0.2232517832
  0
LINE
  5
701
100
AcDbEntity
  8
0
100
AcDbLine
 62
7
  6
CONTINUOUS
 10
21.7648115994
 20
-18.2232517832
 11
21.7648115994
 21
-0.2232517832
  0
LINE
  5
702
100
AcDbEntity
  8
0
100
AcDbLine
 62
7
  6
CONTINUOUS
 10
22.7648115994
 20
-18.7232517832
 11
22.7648115994
 21
0.2767482168
  0
LINE
  5
703
100
AcDbEntity
  8
0
100
AcDbLine
 62
7
  6
CONTINUOUS
 10
22.8171927536
 20
8.9895681277
 11
22.8171927536
 21
0.329129371
  0
LINE
  5
704
100
AcDbEntity
  8
0
100
AcDbLine
 62
7
  6
CONTINUOUS
 10
22.8171927536
 20
-18.7756329374
 11
22.8171927536
 21
-27.4360716941
  0
LINE
  5
705
100
AcDbEntity
  8
0
100
AcDbLine
 62
7
  6
CONTINUOUS
 10
22.9044946773
 20
9.0768700514
 11
22.9044946773
 21
-27.5233736178
  0
LINE
  5
706
100
AcDbEntity
  8
0
100
AcDbLine
 62
7
  6
CONTINUOUS
 10
23.9298908299
 20
-27.5233736178
 11
23.9298908299
 21
-9.9358280249
  0
LINE
  5
707
100
AcDbEntity
  8
0
100
AcDbLine
 62
7
  6
CONTINUOUS
 10
23.9298908299
 20
-8.5106755415
 11
23.9298908299
 21
9.0768700514
  0
LINE
  5
708
100
AcDbEntity
  8
0
100
AcDbLine
 62
7
  6
CONTINUOUS
 10
24.0171927536
 20
-27.4360716941
 11
24.0171927536
 21
-10.0231299486
  0
LINE
  5
709
100
AcDbEntity
  8
0
100
AcDbLine
 62
7
  6
CONTINUOUS
 10
24.0171927536
 20
-8.4233736178
 11
24.0171927536
 21
8.9895681277
  0
LINE
  5
70A
100
AcDbEntity
  8
0
100
AcDbLine
 62
253
  6
CONTINUOUS
 10
24.0171927536
 20
-27.4360716941
 11
23.9298908299
 21
-27.5233736178
  0
LINE
  5
70B
100
AcDbEntity
  8
0
100
AcDbLine
 62
253
  6
CONTINUOUS
 10
24.217070919
 20
-27.6359498595
 11
24.1297689953
 21
-27.7232517832
  0
LINE
  5
70C
100
AcDbEntity
  8
0
100
AcDbLine
 62
253
  6
CONTINUOUS
 10
7.2648115994
 20
-46.4360716941
 11
7.1775096756
 21
-46.5233736178
  0
LINE
  5
70D
100
AcDbEntity
  8
0
100
AcDbLine
 62
253
  6
CONTINUOUS
 10
7.4646897648
 20
-46.6359498595
 11
7.377387841
 21
-46.7232517832
  0
LINE
  5
70E
100
AcDbEntity
  8
0
100
AcDbLine
 62
253
  6
CONTINUOUS
 10
-17.7651884006
 20
-72.2360716941
 11
-17.8524903244
 21
-72.3233736178
  0
LINE
  5
70F
100
AcDbEntity
  8
0
100
AcDbLine
 62
253
  6
CONTINUOUS
 10
-17.5653102352
 20
-72.4359498595
 11
-17.652612159
 21
-72.5232517832
  0
LINE
  5
710
100
AcDbEntity
  8
0
100
AcDbLine
 62
7
  6
CONTINUOUS
 10
26.9690311337
 20
-33.7352540312
 11
26.5577277183
 21
-34.0232517832
  0
LINE
  5
711
100
AcDbEntity
  8
0
100
AcDbLine
 62
7
  6
CONTINUOUS
 10
26.5577277183
 20
-41.4232517832
 11
26.5472022591
 21
-41.4285129093
  0
LINE
  5
712
100
AcDbEntity
  8
0
100
AcDbLine
 62
7
  6
CONTINUOUS
 10
-87.9016401598
 20
39.7767482168
 11
-64.935066566
 21
39.7767482168
  0
LINE
  5
713
100
AcDbEntity
  8
0
100
AcDbLine
 62
7
  6
CONTINUOUS
 10
-63.5353102352
 20
39.7767482168
 11
-39.935066566
 21
39.7767482168
  0
LINE
  5
714
100
AcDbEntity
  8
0
100
AcDbLine
 62
7
  6
CONTINUOUS
 10
-38.5353102352
 20
39.7767482168
 11
-18.965066566
 21
39.7767482168
  0
LINE
  5
715
100
AcDbEntity
  8
0
100
AcDbLine
 62
7
  6
CONTINUOUS
 10
-17.5653102352
 20
39.7767482168
 11
6.064933434
 21
39.7767482168
  0
LINE
  5
716
100
AcDbEntity
  8
0
100
AcDbLine
 62
7
  6
CONTINUOUS
 10
7.4646897648
 20
39.7767482168
 11
30.4312633585
 21
39.7767482168
  0
LINE
  5
717
100
AcDbEntity
  8
0
100
AcDbLine
 62
7
  6
CONTINUOUS
 10
-87.9646312859
 20
39.8640501405
 11
-64.8477646423
 21
39.8640501405
  0
LINE
  5
718
100
AcDbEntity
  8
0
100
AcDbLine
 62
7
  6
CONTINUOUS
 10
-63.622612159
 20
39.8640501405
 11
-39.8477646423
 21
39.8640501405
  0
LINE
  5
719
100
AcDbEntity
  8
0
100
AcDbLine
 62
7
  6
CONTINUOUS
 10
-38.622612159
 20
39.8640501405
 11
-18.8777646423
 21
39.8640501405
  0
LINE
  5
71A
100
AcDbEntity
  8
0
100
AcDbLine
 62
7
  6
CONTINUOUS
 10
-17.652612159
 20
39.8640501405
 11
6.1522353577
 21
39.8640501405
  0
LINE
  5
71B
100
AcDbEntity
  8
0
100
AcDbLine
 62
7
  6
CONTINUOUS
 10
7.377387841
 20
39.8640501405
 11
30.4942544846
 21
39.8640501405
  0
LINE
  5
71C
100
AcDbEntity
  8
0
100
AcDbLine
 62
7
  6
CONTINUOUS
 10
30.041967012
 20
40.6894462931
 11
7.377387841
 21
40.6894462931
  0
LINE
  5
71D
100
AcDbEntity
  8
0
100
AcDbLine
 62
7
  6
CONTINUOUS
 10
6.1522353577
 20
40.6894462931
 11
-17.652612159
 21
40.6894462931
  0
LINE
  5
71E
100
AcDbEntity
  8
0
100
AcDbLine
 62
7
  6
CONTINUOUS
 10
-18.8777646423
 20
40.6894462931
 11
-38.622612159
 21
40.6894462931
  0
LINE
  5
71F
100
AcDbEntity
  8
0
100
AcDbLine
 62
7
  6
CONTINUOUS
 10
-39.8477646423
 20
40.6894462931
 11
-63.622612159
 21
40.6894462931
  0
LINE
  5
720
100
AcDbEntity
  8
0
100
AcDbLine
 62
7
  6
CONTINUOUS
 10
-64.8477646423
 20
40.6894462931
 11
-87.5123438132
 21
40.6894462931
  0
LINE
  5
721
100
AcDbEntity
  8
0
100
AcDbLine
 62
7
  6
CONTINUOUS
 10
29.9119480336
 20
40.7767482168
 11
7.4646897648
 21
40.7767482168
  0
LINE
  5
722
100
AcDbEntity
  8
0
100
AcDbLine
 62
7
  6
CONTINUOUS
 10
6.064933434
 20
40.7767482168
 11
-17.5653102352
 21
40.7767482168
  0
LINE
  5
723
100
AcDbEntity
  8
0
100
AcDbLine
 62
7
  6
CONTINUOUS
 10
-18.965066566
 20
40.7767482168
 11
-38.5353102352
 21
40.7767482168
  0
LINE
  5
724
100
AcDbEntity
  8
0
100
AcDbLine
 62
7
  6
CONTINUOUS
 10
-39.935066566
 20
40.7767482168
 11
-63.5353102352
 21
40.7767482168
  0
LINE
  5
725
100
AcDbEntity
  8
0
100
AcDbLine
 62
7
  6
CONTINUOUS
 10
-64.935066566
 20
40.7767482168
 11
-87.3823248349
 21
40.7767482168
  0
LINE
  5
726
100
AcDbEntity
  8
0
100
AcDbLine
 62
7
  6
CONTINUOUS
 10
-90.2351884006
 20
41.8617890281
 11
-89.7339714
 21
41.8617890281
  0
LINE
  5
727
100
AcDbEntity
  8
0
100
AcDbLine
 62
7
  6
CONTINUOUS
 10
32.7648115994
 20
41.8617890281
 11
32.2635945987
 21
41.8617890281
  0
LINE
  5
728
100
AcDbEntity
  8
0
100
AcDbLine
 62
7
  6
CONTINUOUS
 10
-90.1094736305
 20
42.1767482168
 11
-89.8596861702
 21
42.1767482168
  0
LINE
  5
729
100
AcDbEntity
  8
0
100
AcDbLine
 62
7
  6
CONTINUOUS
 10
32.6390968292
 20
42.1767482168
 11
32.3893093689
 21
42.1767482168
  0
LINE
  5
72A
100
AcDbEntity
  8
0
100
AcDbLine
 62
7
  6
CONTINUOUS
 10
-61.6353711525
 20
42.2767482168
 11
-61.0350056487
 21
42.2767482168
  0
LINE
  5
72B
100
AcDbEntity
  8
0
100
AcDbLine
 62
7
  6
CONTINUOUS
 10
-58.9353711525
 20
42.2767482168
 11
-58.5350056487
 21
42.2767482168
  0
LINE
  5
72C
100
AcDbEntity
  8
0
100
AcDbLine
 62
7
  6
CONTINUOUS
 10
-55.9353711525
 20
42.2767482168
 11
-55.5350056487
 21
42.2767482168
  0
LINE
  5
72D
100
AcDbEntity
  8
0
100
AcDbLine
 62
7
  6
CONTINUOUS
 10
-53.4353711525
 20
42.2767482168
 11
-52.8350056487
 21
42.2767482168
  0
LINE
  5
72E
100
AcDbEntity
  8
0
100
AcDbLine
 62
7
  6
CONTINUOUS
 10
-4.6353711525
 20
42.2767482168
 11
-4.0350056487
 21
42.2767482168
  0
LINE
  5
72F
100
AcDbEntity
  8
0
100
AcDbLine
 62
7
  6
CONTINUOUS
 10
-1.9353711525
 20
42.2767482168
 11
-1.5350056487
 21
42.2767482168
  0
LINE
  5
730
100
AcDbEntity
  8
0
100
AcDbLine
 62
7
  6
CONTINUOUS
 10
1.0646288475
 20
42.2767482168
 11
1.4649943513
 21
42.2767482168
  0
LINE
  5
731
100
AcDbEntity
  8
0
100
AcDbLine
 62
7
  6
CONTINUOUS
 10
3.5646288475
 20
42.2767482168
 11
4.1649943513
 21
42.2767482168
  0
LINE
  5
732
100
AcDbEntity
  8
0
100
AcDbLine
 62
7
  6
CONTINUOUS
 10
-61.3851884006
 20
44.7767482168
 11
-60.7351884006
 21
44.7767482168
  0
LINE
  5
733
100
AcDbEntity
  8
0
100
AcDbLine
 62
7
  6
CONTINUOUS
 10
-53.7351884006
 20
44.7767482168
 11
-53.0851884006
 21
44.7767482168
  0
LINE
  5
734
100
AcDbEntity
  8
0
100
AcDbLine
 62
7
  6
CONTINUOUS
 10
-4.3851884006
 20
44.7767482168
 11
-3.7351884006
 21
44.7767482168
  0
LINE
  5
735
100
AcDbEntity
  8
0
100
AcDbLine
 62
7
  6
CONTINUOUS
 10
3.2648115994
 20
44.7767482168
 11
3.9148115994
 21
44.7767482168
  0
LINE
  5
736
100
AcDbEntity
  8
0
100
AcDbLine
 62
7
  6
CONTINUOUS
 10
26.5472022591
 20
22.9820093429
 11
26.5577277183
 21
22.9767482168
  0
LINE
  5
737
100
AcDbEntity
  8
0
100
AcDbLine
 62
7
  6
CONTINUOUS
 10
26.9690311337
 20
15.2887504648
 11
26.5577277183
 21
15.5767482168
  0
LINE
  5
738
100
AcDbEntity
  8
0
100
AcDbLine
 62
253
  6
CONTINUOUS
 10
23.9298908299
 20
9.0768700514
 11
24.0171927536
 21
8.9895681277
  0
LINE
  5
739
100
AcDbEntity
  8
0
100
AcDbLine
 62
253
  6
CONTINUOUS
 10
24.1297689953
 20
9.2767482168
 11
24.217070919
 21
9.1894462931
  0
LINE
  5
73A
100
AcDbEntity
  8
0
100
AcDbLine
 62
253
  6
CONTINUOUS
 10
7.1775096756
 20
28.0768700514
 11
7.2648115994
 21
27.9895681277
  0
LINE
  5
73B
100
AcDbEntity
  8
0
100
AcDbLine
 62
253
  6
CONTINUOUS
 10
7.377387841
 20
28.2767482168
 11
7.4646897648
 21
28.1894462931
  0
LINE
  5
73C
100
AcDbEntity
  8
0
100
AcDbLine
 62
253
  6
CONTINUOUS
 10
-17.8524903244
 20
53.8768700514
 11
-17.7651884006
 21
53.7895681277
  0
LINE
  5
73D
100
AcDbEntity
  8
0
100
AcDbLine
 62
253
  6
CONTINUOUS
 10
-17.652612159
 20
54.0767482168
 11
-17.5653102352
 21
53.9894462931
  0
LINE
  5
73E
100
AcDbEntity
  8
0
100
AcDbLine
 62
7
  6
CONTINUOUS
 10
26.5427314919
 20
-33.5401910313
 11
26.5472022591
 21
-34.0179906571
  0
LINE
  5
73F
100
AcDbEntity
  8
0
100
AcDbLine
 62
7
  6
CONTINUOUS
 10
26.5427314919
 20
23.4598089687
 11
26.5472022591
 21
22.9820093429
  0
LINE
  5
740
100
AcDbEntity
  8
0
100
AcDbLine
 62
7
  6
CONTINUOUS
 10
29.3824209396
 20
-41.4285129093
 11
29.3868917069
 21
-41.9063125351
  0
LINE
  5
741
100
AcDbEntity
  8
0
100
AcDbLine
 62
7
  6
CONTINUOUS
 10
29.3824209396
 20
15.5714870907
 11
29.3868917069
 21
15.0936874649
  0
LINE
  5
742
100
AcDbEntity
  8
0
100
AcDbLine
 62
7
  6
CONTINUOUS
 10
25.9648115994
 20
-42.0232517832
 11
25.9648115994
 21
-41.664381063
  0
LINE
  5
743
100
AcDbEntity
  8
0
100
AcDbLine
 62
7
  6
CONTINUOUS
 10
25.9648115994
 20
-33.7821225034
 11
25.9648115994
 21
-33.4232517832
  0
LINE
  5
744
100
AcDbEntity
  8
0
100
AcDbLine
 62
7
  6
CONTINUOUS
 10
25.9648115994
 20
14.9767482168
 11
25.9648115994
 21
15.335618937
  0
LINE
  5
745
100
AcDbEntity
  8
0
100
AcDbLine
 62
7
  6
CONTINUOUS
 10
25.9648115994
 20
23.2178774966
 11
25.9648115994
 21
23.5767482168
  0
LINE
  5
746
100
AcDbEntity
  8
0
100
AcDbLine
 62
7
  6
CONTINUOUS
 10
26.0067378228
 20
22.9988050372
 11
26.0067378228
 21
22.1186744402
  0
LINE
  5
747
100
AcDbEntity
  8
0
100
AcDbLine
 62
7
  6
CONTINUOUS
 10
26.0067378228
 20
-41.4453086036
 11
26.0067378228
 21
-40.5651780066
  0
LINE
  5
748
100
AcDbEntity
  8
0
100
AcDbLine
 62
7
  6
CONTINUOUS
 10
26.0067378228
 20
-34.8813255598
 11
26.0067378228
 21
-34.0011949628
  0
LINE
  5
749
100
AcDbEntity
  8
0
100
AcDbLine
 62
7
  6
CONTINUOUS
 10
26.0067378228
 20
15.5546913964
 11
26.0067378228
 21
16.4348219934
  0
LINE
  5
74A
100
AcDbEntity
  8
0
100
AcDbLine
 62
7
  6
CONTINUOUS
 10
26.4648115994
 20
-43.417842633
 11
26.4648115994
 21
-42.0232517832
  0
LINE
  5
74B
100
AcDbEntity
  8
0
100
AcDbLine
 62
7
  6
CONTINUOUS
 10
26.4648115994
 20
-33.4232517832
 11
26.4648115994
 21
-32.0286609334
  0
LINE
  5
74C
100
AcDbEntity
  8
0
100
AcDbLine
 62
7
  6
CONTINUOUS
 10
26.4648115994
 20
13.582157367
 11
26.4648115994
 21
14.9767482168
  0
LINE
  5
74D
100
AcDbEntity
  8
0
100
AcDbLine
 62
7
  6
CONTINUOUS
 10
26.4648115994
 20
23.5767482168
 11
26.4648115994
 21
24.9713390666
  0
LINE
  5
74E
100
AcDbEntity
  8
0
100
AcDbLine
 62
7
  6
CONTINUOUS
 10
26.5577277183
 20
-32.6044214397
 11
26.5577277183
 21
-34.0232517832
  0
LINE
  5
74F
100
AcDbEntity
  8
0
100
AcDbLine
 62
7
  6
CONTINUOUS
 10
26.5577277183
 20
-41.4232517832
 11
26.5577277183
 21
-42.8420821266
  0
LINE
  5
750
100
AcDbEntity
  8
0
100
AcDbLine
 62
7
  6
CONTINUOUS
 10
26.5577277183
 20
14.1579178734
 11
26.5577277183
 21
15.5767482168
  0
LINE
  5
751
100
AcDbEntity
  8
0
100
AcDbLine
 62
7
  6
CONTINUOUS
 10
26.5577277183
 20
22.9767482168
 11
26.5577277183
 21
24.3955785603
  0
LINE
  5
752
100
AcDbEntity
  8
0
100
AcDbLine
 62
7
  6
CONTINUOUS
 10
27.0969582028
 20
-42.8232517832
 11
27.0969582028
 21
-41.9569951485
  0
LINE
  5
753
100
AcDbEntity
  8
0
100
AcDbLine
 62
7
  6
CONTINUOUS
 10
27.0969582028
 20
-33.4895084179
 11
27.0969582028
 21
-32.6232517832
  0
LINE
  5
754
100
AcDbEntity
  8
0
100
AcDbLine
 62
7
  6
CONTINUOUS
 10
27.0969582028
 20
14.1767482168
 11
27.0969582028
 21
15.0430048515
  0
LINE
  5
755
100
AcDbEntity
  8
0
100
AcDbLine
 62
7
  6
CONTINUOUS
 10
27.0969582028
 20
23.5104915821
 11
27.0969582028
 21
24.3767482168
  0
LINE
  5
756
100
AcDbEntity
  8
0
100
AcDbLine
 62
7
  6
CONTINUOUS
 10
28.8326649959
 20
-42.8232517832
 11
28.8326649959
 21
-41.9569951485
  0
LINE
  5
757
100
AcDbEntity
  8
0
100
AcDbLine
 62
7
  6
CONTINUOUS
 10
28.8326649959
 20
-33.4895084179
 11
28.8326649959
 21
-32.6232517832
  0
LINE
  5
758
100
AcDbEntity
  8
0
100
AcDbLine
 62
7
  6
CONTINUOUS
 10
28.8326649959
 20
14.1767482168
 11
28.8326649959
 21
15.0430048515
  0
LINE
  5
759
100
AcDbEntity
  8
0
100
AcDbLine
 62
7
  6
CONTINUOUS
 10
28.8326649959
 20
23.5104915821
 11
28.8326649959
 21
24.3767482168
  0
LINE
  5
75A
100
AcDbEntity
  8
0
100
AcDbLine
 62
7
  6
CONTINUOUS
 10
29.3718954804
 20
-32.6044214397
 11
29.3718954804
 21
-34.0232517832
  0
LINE
  5
75B
100
AcDbEntity
  8
0
100
AcDbLine
 62
7
  6
CONTINUOUS
 10
29.3718954804
 20
-41.4232517832
 11
29.3718954804
 21
-42.8420821266
  0
LINE
  5
75C
100
AcDbEntity
  8
0
100
AcDbLine
 62
7
  6
CONTINUOUS
 10
29.3718954804
 20
14.1579178734
 11
29.3718954804
 21
15.5767482168
  0
LINE
  5
75D
100
AcDbEntity
  8
0
100
AcDbLine
 62
7
  6
CONTINUOUS
 10
29.3718954804
 20
22.9767482168
 11
29.3718954804
 21
24.3955785603
  0
LINE
  5
75E
100
AcDbEntity
  8
0
100
AcDbLine
 62
7
  6
CONTINUOUS
 10
29.4648115994
 20
24.9713390666
 11
29.4648115994
 21
23.5767482168
  0
LINE
  5
75F
100
AcDbEntity
  8
0
100
AcDbLine
 62
7
  6
CONTINUOUS
 10
29.4648115994
 20
14.9767482168
 11
29.4648115994
 21
13.582157367
  0
LINE
  5
760
100
AcDbEntity
  8
0
100
AcDbLine
 62
7
  6
CONTINUOUS
 10
29.4648115994
 20
-32.0286609334
 11
29.4648115994
 21
-33.4232517832
  0
LINE
  5
761
100
AcDbEntity
  8
0
100
AcDbLine
 62
7
  6
CONTINUOUS
 10
29.4648115994
 20
-42.0232517832
 11
29.4648115994
 21
-43.417842633
  0
LINE
  5
762
100
AcDbEntity
  8
0
100
AcDbLine
 62
7
  6
CONTINUOUS
 10
29.9648115994
 20
23.5767482168
 11
29.9648115994
 21
22.1186744402
  0
LINE
  5
763
100
AcDbEntity
  8
0
100
AcDbLine
 62
7
  6
CONTINUOUS
 10
29.9648115994
 20
16.4348219934
 11
29.9648115994
 21
14.9767482168
  0
LINE
  5
764
100
AcDbEntity
  8
0
100
AcDbLine
 62
7
  6
CONTINUOUS
 10
29.9648115994
 20
-33.4232517832
 11
29.9648115994
 21
-34.8813255598
  0
LINE
  5
765
100
AcDbEntity
  8
0
100
AcDbLine
 62
7
  6
CONTINUOUS
 10
29.9648115994
 20
-40.5651780066
 11
29.9648115994
 21
-42.0232517832
  0
LINE
  5
766
100
AcDbEntity
  8
0
100
AcDbLine
 62
7
  6
CONTINUOUS
 10
26.5472022591
 20
15.5714870907
 11
26.5427314919
 21
15.0936874649
  0
LINE
  5
767
100
AcDbEntity
  8
0
100
AcDbLine
 62
7
  6
CONTINUOUS
 10
26.5472022591
 20
-41.4285129093
 11
26.5427314919
 21
-41.9063125351
  0
LINE
  5
768
100
AcDbEntity
  8
0
100
AcDbLine
 62
7
  6
CONTINUOUS
 10
29.3868917069
 20
23.4598089687
 11
29.3824209396
 21
22.9820093429
  0
LINE
  5
769
100
AcDbEntity
  8
0
100
AcDbLine
 62
7
  6
CONTINUOUS
 10
29.3868917069
 20
-33.5401910313
 11
29.3824209396
 21
-34.0179906571
  0
LINE
  5
76A
100
AcDbEntity
  8
0
100
AcDbLine
 62
7
  6
CONTINUOUS
 10
32.7298908299
 20
-28.8454744764
 11
32.7648115994
 21
-28.8105537069
  0
LINE
  5
76B
100
AcDbEntity
  8
0
100
AcDbLine
 62
7
  6
CONTINUOUS
 10
29.4479605733
 20
-32.5283563469
 11
29.3718954804
 21
-32.6044214397
  0
LINE
  5
76C
100
AcDbEntity
  8
0
100
AcDbLine
 62
253
  6
CONTINUOUS
 10
6.064933434
 20
-59.2232517832
 11
6.1522353577
 21
-59.1359498595
  0
LINE
  5
76D
100
AcDbEntity
  8
0
100
AcDbLine
 62
253
  6
CONTINUOUS
 10
7.2648115994
 20
-58.0233736178
 11
7.1775096756
 21
-58.1106755415
  0
LINE
  5
76E
100
AcDbEntity
  8
0
100
AcDbLine
 62
7
  6
CONTINUOUS
 10
29.3718954804
 20
-41.4232517832
 11
28.960592065
 21
-41.7112495352
  0
LINE
  5
76F
100
AcDbEntity
  8
0
100
AcDbLine
 62
7
  6
CONTINUOUS
 10
-5.0850970247
 20
-62.5598015676
 11
-5.9852797766
 21
-63.0795223218
  0
LINE
  5
770
100
AcDbEntity
  8
0
100
AcDbLine
 62
7
  6
CONTINUOUS
 10
-90.1094736305
 20
45.8767482168
 11
-89.3609031708
 21
45.8767482168
  0
LINE
  5
771
100
AcDbEntity
  8
0
100
AcDbLine
 62
7
  6
CONTINUOUS
 10
32.6390968292
 20
45.8767482168
 11
31.8905263695
 21
45.8767482168
  0
LINE
  5
772
100
AcDbEntity
  8
0
100
AcDbLine
 62
7
  6
CONTINUOUS
 10
-90.2351884006
 20
46.1917074055
 11
-89.2351884006
 21
46.1917074055
  0
LINE
  5
773
100
AcDbEntity
  8
0
100
AcDbLine
 62
7
  6
CONTINUOUS
 10
32.7648115994
 20
46.1917074055
 11
31.7648115994
 21
46.1917074055
  0
LINE
  5
774
100
AcDbEntity
  8
0
100
AcDbLine
 62
7
  6
CONTINUOUS
 10
-61.3851884006
 20
48.7767482168
 11
-60.7351884006
 21
48.7767482168
  0
LINE
  5
775
100
AcDbEntity
  8
0
100
AcDbLine
 62
7
  6
CONTINUOUS
 10
-53.7351884006
 20
48.7767482168
 11
-53.0851884006
 21
48.7767482168
  0
LINE
  5
776
100
AcDbEntity
  8
0
100
AcDbLine
 62
7
  6
CONTINUOUS
 10
-4.3851884006
 20
48.7767482168
 11
-3.7351884006
 21
48.7767482168
  0
LINE
  5
777
100
AcDbEntity
  8
0
100
AcDbLine
 62
7
  6
CONTINUOUS
 10
3.2648115994
 20
48.7767482168
 11
3.9148115994
 21
48.7767482168
  0
LINE
  5
778
100
AcDbEntity
  8
0
100
AcDbLine
 62
7
  6
CONTINUOUS
 10
-5.9852797766
 20
44.6330187554
 11
-5.0850970247
 21
44.1132980013
  0
LINE
  5
779
100
AcDbEntity
  8
0
100
AcDbLine
 62
7
  6
CONTINUOUS
 10
29.3718954804
 20
22.9767482168
 11
28.960592065
 21
23.2647459688
  0
LINE
  5
77A
100
AcDbEntity
  8
0
100
AcDbLine
 62
7
  6
CONTINUOUS
 10
32.7298908299
 20
10.39897091
 11
32.7648115994
 21
10.3640501405
  0
LINE
  5
77B
100
AcDbEntity
  8
0
100
AcDbLine
 62
7
  6
CONTINUOUS
 10
29.4479605733
 20
14.0818527805
 11
29.3718954804
 21
14.1579178734
  0
LINE
  5
77C
100
AcDbEntity
  8
0
100
AcDbLine
 62
253
  6
CONTINUOUS
 10
6.064933434
 20
40.7767482168
 11
6.1522353577
 21
40.6894462931
  0
LINE
  5
77D
100
AcDbEntity
  8
0
100
AcDbLine
 62
253
  6
CONTINUOUS
 10
7.2648115994
 20
39.5768700514
 11
7.1775096756
 21
39.6641719751
  0
LINE
  5
77E
100
AcDbEntity
  8
0
100
AcDbLine
 62
7
  6
CONTINUOUS
 10
32.6775096756
 20
-27.7232517832
 11
32.6390968292
 21
-26.6232517832
  0
LINE
  5
77F
100
AcDbEntity
  8
0
100
AcDbLine
 62
7
  6
CONTINUOUS
 10
31.7715559798
 20
9.0836144318
 11
31.8032244458
 21
8.1767482168
  0
LINE
  5
780
100
AcDbEntity
  8
0
100
AcDbLine
 62
7
  6
CONTINUOUS
 10
31.6775096756
 20
33.0767482168
 11
31.6775096756
 21
29.5639283059
  0
LINE
  5
781
100
AcDbEntity
  8
0
100
AcDbLine
 62
7
  6
CONTINUOUS
 10
31.6775096756
 20
8.9895681277
 11
31.6775096756
 21
-8.4233736178
  0
LINE
  5
782
100
AcDbEntity
  8
0
100
AcDbLine
 62
7
  6
CONTINUOUS
 10
31.6775096756
 20
-10.0231299486
 11
31.6775096756
 21
-27.4360716941
  0
LINE
  5
783
100
AcDbEntity
  8
0
100
AcDbLine
 62
7
  6
CONTINUOUS
 10
31.6775096756
 20
-48.0104318723
 11
31.6775096756
 21
-51.5232517832
  0
LINE
  5
784
100
AcDbEntity
  8
0
100
AcDbLine
 62
7
  6
CONTINUOUS
 10
31.7648115994
 20
46.1917074055
 11
31.7648115994
 21
42.3621722917
  0
LINE
  5
785
100
AcDbEntity
  8
0
100
AcDbLine
 62
7
  6
CONTINUOUS
 10
31.7648115994
 20
33.0767482168
 11
31.7648115994
 21
29.4766263822
  0
LINE
  5
786
100
AcDbEntity
  8
0
100
AcDbLine
 62
7
  6
CONTINUOUS
 10
31.7648115994
 20
-8.5106755415
 11
31.7648115994
 21
-9.9358280249
  0
LINE
  5
787
100
AcDbEntity
  8
0
100
AcDbLine
 62
7
  6
CONTINUOUS
 10
31.7648115994
 20
-47.9231299486
 11
31.7648115994
 21
-51.5232517832
  0
LINE
  5
788
100
AcDbEntity
  8
0
100
AcDbLine
 62
7
  6
CONTINUOUS
 10
31.7648115994
 20
-60.8086758581
 11
31.7648115994
 21
-64.6382109719
  0
LINE
  5
789
100
AcDbEntity
  8
0
100
AcDbLine
 62
7
  6
CONTINUOUS
 10
31.8032244458
 20
-26.6232517832
 11
31.8032244458
 21
8.1767482168
  0
LINE
  5
78A
100
AcDbEntity
  8
0
100
AcDbLine
 62
7
  6
CONTINUOUS
 10
31.8905263695
 20
45.8767482168
 11
31.8905263695
 21
42.6771314804
  0
LINE
  5
78B
100
AcDbEntity
  8
0
100
AcDbLine
 62
7
  6
CONTINUOUS
 10
31.8905263695
 20
-64.3232517832
 11
31.8905263695
 21
-61.1236350468
  0
LINE
  5
78C
100
AcDbEntity
  8
0
100
AcDbLine
 62
7
  6
CONTINUOUS
 10
32.2298908299
 20
26.8116689863
 11
32.2298908299
 21
11.7418274473
  0
LINE
  5
78D
100
AcDbEntity
  8
0
100
AcDbLine
 62
7
  6
CONTINUOUS
 10
32.2298908299
 20
-30.1883310137
 11
32.2298908299
 21
-45.2581725527
  0
LINE
  5
78E
100
AcDbEntity
  8
0
100
AcDbLine
 62
7
  6
CONTINUOUS
 10
32.6390968292
 20
-64.3232517832
 11
32.6390968292
 21
-60.6232517832
  0
LINE
  5
78F
100
AcDbEntity
  8
0
100
AcDbLine
 62
7
  6
CONTINUOUS
 10
32.6390968292
 20
-26.6232517832
 11
32.6390968292
 21
8.1767482168
  0
LINE
  5
790
100
AcDbEntity
  8
0
100
AcDbLine
 62
7
  6
CONTINUOUS
 10
32.6390968292
 20
42.1767482168
 11
32.6390968292
 21
45.8767482168
  0
LINE
  5
791
100
AcDbEntity
  8
0
100
AcDbLine
 62
7
  6
CONTINUOUS
 10
32.6775096756
 20
33.0767482168
 11
32.6775096756
 21
28.2767482168
  0
LINE
  5
792
100
AcDbEntity
  8
0
100
AcDbLine
 62
7
  6
CONTINUOUS
 10
32.6775096756
 20
10.2767482168
 11
32.6775096756
 21
9.2767482168
  0
LINE
  5
793
100
AcDbEntity
  8
0
100
AcDbLine
 62
7
  6
CONTINUOUS
 10
32.6775096756
 20
-27.7232517832
 11
32.6775096756
 21
-28.7232517832
  0
LINE
  5
794
100
AcDbEntity
  8
0
100
AcDbLine
 62
7
  6
CONTINUOUS
 10
32.6775096756
 20
-46.7232517832
 11
32.6775096756
 21
-51.5232517832
  0
LINE
  5
795
100
AcDbEntity
  8
0
100
AcDbLine
 62
7
  6
CONTINUOUS
 10
32.7298908299
 20
28.1545255236
 11
32.7298908299
 21
26.8116689863
  0
LINE
  5
796
100
AcDbEntity
  8
0
100
AcDbLine
 62
7
  6
CONTINUOUS
 10
32.7298908299
 20
11.7418274473
 11
32.7298908299
 21
10.39897091
  0
LINE
  5
797
100
AcDbEntity
  8
0
100
AcDbLine
 62
7
  6
CONTINUOUS
 10
32.7298908299
 20
-28.8454744764
 11
32.7298908299
 21
-30.1883310137
  0
LINE
  5
798
100
AcDbEntity
  8
0
100
AcDbLine
 62
7
  6
CONTINUOUS
 10
32.7298908299
 20
-45.2581725527
 11
32.7298908299
 21
-46.60102909
  0
LINE
  5
799
100
AcDbEntity
  8
0
100
AcDbLine
 62
7
  6
CONTINUOUS
 10
32.7648115994
 20
53.5767482168
 11
32.7648115994
 21
28.1894462931
  0
LINE
  5
79A
100
AcDbEntity
  8
0
100
AcDbLine
 62
7
  6
CONTINUOUS
 10
32.7648115994
 20
10.3640501405
 11
32.7648115994
 21
-28.8105537069
  0
LINE
  5
79B
100
AcDbEntity
  8
0
100
AcDbLine
 62
7
  6
CONTINUOUS
 10
32.7648115994
 20
-46.6359498595
 11
32.7648115994
 21
-72.0232517832
  0
LINE
  5
79C
100
AcDbEntity
  8
0
100
AcDbLine
 62
7
  6
CONTINUOUS
 10
32.6775096756
 20
9.2767482168
 11
32.6390968292
 21
8.1767482168
  0
LINE
  5
79D
100
AcDbEntity
  8
0
100
AcDbLine
 62
7
  6
CONTINUOUS
 10
31.7715559798
 20
-27.5301179982
 11
31.8032244458
 21
-26.6232517832
  0
LINE
  5
79E
100
AcDbEntity
  8
0
100
AcDbLine
 62
7
  6
CONTINUOUS
 10
29.3868917069
 20
-33.5401910313
 11
29.4648115994
 21
-33.4232517832
  0
LINE
  5
79F
100
AcDbEntity
  8
0
100
AcDbLine
 62
7
  6
CONTINUOUS
 10
26.5427314919
 20
-41.9063125351
 11
26.4648115994
 21
-42.0232517832
  0
LINE
  5
7A0
100
AcDbEntity
  8
0
100
AcDbLine
 62
253
  6
CONTINUOUS
 10
6.2648115994
 20
-59.4231299486
 11
6.3521135231
 21
-59.3358280249
  0
LINE
  5
7A1
100
AcDbEntity
  8
0
100
AcDbLine
 62
253
  6
CONTINUOUS
 10
7.4646897648
 20
-58.2232517832
 11
7.377387841
 21
-58.3105537069
  0
LINE
  5
7A2
100
AcDbEntity
  8
0
100
AcDbLine
 62
253
  6
CONTINUOUS
 10
20.7648115994
 20
-46.5233736178
 11
20.8870342926
 21
-46.4011509246
  0
LINE
  5
7A3
100
AcDbEntity
  8
0
100
AcDbLine
 62
253
  6
CONTINUOUS
 10
20.9646897648
 20
-46.7232517832
 11
21.086912458
 21
-46.60102909
  0
LINE
  5
7A4
100
AcDbEntity
  8
0
100
AcDbLine
 62
7
  6
CONTINUOUS
 10
26.4816626255
 20
-42.9181472195
 11
26.5577277183
 21
-42.8420821266
  0
LINE
  5
7A5
100
AcDbEntity
  8
0
100
AcDbLine
 62
7
  6
CONTINUOUS
 10
8.3648115994
 20
54.1151610632
 11
7.3735892421
 21
54.0805468158
  0
LINE
  5
7A6
100
AcDbEntity
  8
0
100
AcDbLine
 62
7
  6
CONTINUOUS
 10
-38.6264107579
 20
54.0805468158
 11
-37.6351884006
 21
54.1151610632
  0
LINE
  5
7A7
100
AcDbEntity
  8
0
100
AcDbLine
 62
7
  6
CONTINUOUS
 10
-18.7351884006
 20
54.9894462931
 11
-19.8351884006
 21
54.9510334466
  0
LINE
  5
7A8
100
AcDbEntity
  8
0
100
AcDbLine
 62
7
  6
CONTINUOUS
 10
-65.8351884006
 20
54.9510334466
 11
-64.7351884006
 21
54.9894462931
  0
LINE
  5
7A9
100
AcDbEntity
  8
0
100
AcDbLine
 62
7
  6
CONTINUOUS
 10
4.1649943513
 20
51.2767482168
 11
3.5646288475
 21
51.2767482168
  0
LINE
  5
7AA
100
AcDbEntity
  8
0
100
AcDbLine
 62
7
  6
CONTINUOUS
 10
1.4649943513
 20
51.2767482168
 11
1.0646288475
 21
51.2767482168
  0
LINE
  5
7AB
100
AcDbEntity
  8
0
100
AcDbLine
 62
7
  6
CONTINUOUS
 10
-1.5350056487
 20
51.2767482168
 11
-1.9353711525
 21
51.2767482168
  0
LINE
  5
7AC
100
AcDbEntity
  8
0
100
AcDbLine
 62
7
  6
CONTINUOUS
 10
-4.0350056487
 20
51.2767482168
 11
-4.6353711525
 21
51.2767482168
  0
LINE
  5
7AD
100
AcDbEntity
  8
0
100
AcDbLine
 62
7
  6
CONTINUOUS
 10
-52.8350056487
 20
51.2767482168
 11
-53.4353711525
 21
51.2767482168
  0
LINE
  5
7AE
100
AcDbEntity
  8
0
100
AcDbLine
 62
7
  6
CONTINUOUS
 10
-55.5350056487
 20
51.2767482168
 11
-55.9353711525
 21
51.2767482168
  0
LINE
  5
7AF
100
AcDbEntity
  8
0
100
AcDbLine
 62
7
  6
CONTINUOUS
 10
-58.5350056487
 20
51.2767482168
 11
-58.9353711525
 21
51.2767482168
  0
LINE
  5
7B0
100
AcDbEntity
  8
0
100
AcDbLine
 62
7
  6
CONTINUOUS
 10
-61.0350056487
 20
51.2767482168
 11
-61.6353711525
 21
51.2767482168
  0
LINE
  5
7B1
100
AcDbEntity
  8
0
100
AcDbLine
 62
7
  6
CONTINUOUS
 10
-68.2351884006
 20
53.9894462931
 11
-64.935066566
 21
53.9894462931
  0
LINE
  5
7B2
100
AcDbEntity
  8
0
100
AcDbLine
 62
7
  6
CONTINUOUS
 10
-63.5353102352
 20
53.9894462931
 11
-39.935066566
 21
53.9894462931
  0
LINE
  5
7B3
100
AcDbEntity
  8
0
100
AcDbLine
 62
7
  6
CONTINUOUS
 10
-38.5353102352
 20
53.9894462931
 11
-18.965066566
 21
53.9894462931
  0
LINE
  5
7B4
100
AcDbEntity
  8
0
100
AcDbLine
 62
7
  6
CONTINUOUS
 10
-17.5653102352
 20
53.9894462931
 11
6.064933434
 21
53.9894462931
  0
LINE
  5
7B5
100
AcDbEntity
  8
0
100
AcDbLine
 62
7
  6
CONTINUOUS
 10
7.4646897648
 20
53.9894462931
 11
10.7648115994
 21
53.9894462931
  0
LINE
  5
7B6
100
AcDbEntity
  8
0
100
AcDbLine
 62
7
  6
CONTINUOUS
 10
-63.622612159
 20
54.0767482168
 11
-39.8477646423
 21
54.0767482168
  0
LINE
  5
7B7
100
AcDbEntity
  8
0
100
AcDbLine
 62
7
  6
CONTINUOUS
 10
-17.652612159
 20
54.0767482168
 11
6.1522353577
 21
54.0767482168
  0
LINE
  5
7B8
100
AcDbEntity
  8
0
100
AcDbLine
 62
7
  6
CONTINUOUS
 10
-68.2351884006
 20
54.1151610632
 11
-65.8351884006
 21
54.1151610632
  0
LINE
  5
7B9
100
AcDbEntity
  8
0
100
AcDbLine
 62
7
  6
CONTINUOUS
 10
8.3648115994
 20
54.1151610632
 11
10.7648115994
 21
54.1151610632
  0
LINE
  5
7BA
100
AcDbEntity
  8
0
100
AcDbLine
 62
7
  6
CONTINUOUS
 10
-19.8351884006
 20
54.1151610632
 11
-37.6351884006
 21
54.1151610632
  0
LINE
  5
7BB
100
AcDbEntity
  8
0
100
AcDbLine
 62
7
  6
CONTINUOUS
 10
-68.2351884007
 20
54.9510334466
 11
-65.8351884006
 21
54.9510334466
  0
LINE
  5
7BC
100
AcDbEntity
  8
0
100
AcDbLine
 62
7
  6
CONTINUOUS
 10
8.3648115994
 20
54.9510334466
 11
10.7648115994
 21
54.9510334466
  0
LINE
  5
7BD
100
AcDbEntity
  8
0
100
AcDbLine
 62
7
  6
CONTINUOUS
 10
-19.8351884006
 20
54.9510334466
 11
-37.6351884006
 21
54.9510334466
  0
LINE
  5
7BE
100
AcDbEntity
  8
0
100
AcDbLine
 62
7
  6
CONTINUOUS
 10
-64.7351884006
 20
54.9894462931
 11
-38.7351884006
 21
54.9894462931
  0
LINE
  5
7BF
100
AcDbEntity
  8
0
100
AcDbLine
 62
7
  6
CONTINUOUS
 10
-18.7351884006
 20
54.9894462931
 11
7.2648115994
 21
54.9894462931
  0
LINE
  5
7C0
100
AcDbEntity
  8
0
100
AcDbLine
 62
7
  6
CONTINUOUS
 10
-88.7351884006
 20
55.0767482168
 11
31.2648115994
 21
55.0767482168
  0
LINE
  5
7C1
100
AcDbEntity
  8
0
100
AcDbLine
 62
7
  6
CONTINUOUS
 10
-65.8351884006
 20
54.1151610632
 11
-64.8439660433
 21
54.0805468158
  0
LINE
  5
7C2
100
AcDbEntity
  8
0
100
AcDbLine
 62
7
  6
CONTINUOUS
 10
-18.8729537696
 20
54.0815590895
 11
-19.8351884006
 21
54.1151610632
  0
LINE
  5
7C3
100
AcDbEntity
  8
0
100
AcDbLine
 62
7
  6
CONTINUOUS
 10
-38.7351884006
 20
54.9894462931
 11
-37.6351884006
 21
54.9510334466
  0
LINE
  5
7C4
100
AcDbEntity
  8
0
100
AcDbLine
 62
7
  6
CONTINUOUS
 10
8.3648115994
 20
54.9510334466
 11
7.2648115994
 21
54.9894462931
  0
LINE
  5
7C5
100
AcDbEntity
  8
0
100
AcDbLine
 62
253
  6
CONTINUOUS
 10
6.2648115994
 20
40.9766263822
 11
6.3521135231
 21
40.8893244585
  0
LINE
  5
7C6
100
AcDbEntity
  8
0
100
AcDbLine
 62
253
  6
CONTINUOUS
 10
7.4646897648
 20
39.7767482168
 11
7.377387841
 21
39.8640501405
  0
LINE
  5
7C7
100
AcDbEntity
  8
0
100
AcDbLine
 62
253
  6
CONTINUOUS
 10
20.7648115994
 20
28.0768700514
 11
20.8870342926
 21
27.9546473582
  0
LINE
  5
7C8
100
AcDbEntity
  8
0
100
AcDbLine
 62
253
  6
CONTINUOUS
 10
20.9646897648
 20
28.2767482168
 11
21.086912458
 21
28.1545255236
  0
LINE
  5
7C9
100
AcDbEntity
  8
0
100
AcDbLine
 62
7
  6
CONTINUOUS
 10
26.4816626255
 20
24.4716436531
 11
26.5577277183
 21
24.3955785603
  0
LINE
  5
7CA
100
AcDbEntity
  8
0
100
AcDbLine
 62
7
  6
CONTINUOUS
 10
29.3868917069
 20
15.0936874649
 11
29.4648115994
 21
14.9767482168
  0
LINE
  5
7CB
100
AcDbEntity
  8
0
100
AcDbLine
 62
7
  6
CONTINUOUS
 10
26.5427314919
 20
23.4598089687
 11
26.4648115994
 21
23.5767482168
  0
LINE
  5
7CC
100
AcDbEntity
  8
0
100
AcDbLine
 62
253
  6
CONTINUOUS
 10
31.4776315102
 20
-47.8105537069
 11
31.564933434
 21
-47.7232517832
  0
LINE
  5
7CD
100
AcDbEntity
  8
0
100
AcDbLine
 62
7
  6
CONTINUOUS
 10
32.6775096756
 20
-46.7232517832
 11
32.7648115994
 21
-46.6359498595
  0
LINE
  5
7CE
100
AcDbEntity
  8
0
100
AcDbLine
 62
253
  6
CONTINUOUS
 10
7.2648115994
 20
-72.2360716941
 11
7.1775096756
 21
-72.3233736178
  0
LINE
  5
7CF
100
AcDbEntity
  8
0
100
AcDbLine
 62
253
  6
CONTINUOUS
 10
31.6775096756
 20
-48.0104318723
 11
31.7648115994
 21
-47.9231299486
  0
LINE
  5
7D0
100
AcDbEntity
  8
0
100
AcDbLine
 62
253
  6
CONTINUOUS
 10
7.4646897648
 20
-72.4359498595
 11
7.3735892421
 21
-72.5270503822
  0
LINE
  5
7D1
100
AcDbEntity
  8
0
100
AcDbLine
 62
7
  6
CONTINUOUS
 10
4.6147202234
 20
-67.8867019987
 11
5.5149029753
 21
-67.3669812446
  0
LINE
  5
7D2
100
AcDbEntity
  8
0
100
AcDbLine
 62
7
  6
CONTINUOUS
 10
5.5149029753
 20
48.9204776782
 11
4.6147202234
 21
49.4401984324
  0
LINE
  5
7D3
100
AcDbEntity
  8
0
100
AcDbLine
 62
253
  6
CONTINUOUS
 10
31.4776315102
 20
29.3640501405
 11
31.564933434
 21
29.2767482168
  0
LINE
  5
7D4
100
AcDbEntity
  8
0
100
AcDbLine
 62
7
  6
CONTINUOUS
 10
32.6775096756
 20
28.2767482168
 11
32.7648115994
 21
28.1894462931
  0
LINE
  5
7D5
100
AcDbEntity
  8
0
100
AcDbLine
 62
253
  6
CONTINUOUS
 10
7.1775096756
 20
53.8768700514
 11
7.2648115994
 21
53.7895681277
  0
LINE
  5
7D6
100
AcDbEntity
  8
0
100
AcDbLine
 62
253
  6
CONTINUOUS
 10
31.6775096756
 20
29.5639283059
 11
31.7648115994
 21
29.4766263822
  0
LINE
  5
7D7
100
AcDbEntity
  8
0
100
AcDbLine
 62
253
  6
CONTINUOUS
 10
7.3735892421
 20
54.0805468158
 11
7.4646897648
 21
53.9894462931
  0
LINE
  5
7D8
100
AcDbEntity
  8
0
100
AcDbLine
 62
7
  6
CONTINUOUS
 10
32.7648115994
 20
-60.3082925945
 11
32.6390968292
 21
-60.6232517832
  0
LINE
  5
7D9
100
AcDbEntity
  8
0
100
AcDbLine
 62
7
  6
CONTINUOUS
 10
31.7648115994
 20
-64.6382109719
 11
31.8905263695
 21
-64.3232517832
  0
LINE
  5
7DA
100
AcDbEntity
  8
0
100
AcDbLine
 62
7
  6
CONTINUOUS
 10
32.7648115994
 20
41.8617890281
 11
32.6390968292
 21
42.1767482168
  0
LINE
  5
7DB
100
AcDbEntity
  8
0
100
AcDbLine
 62
7
  6
CONTINUOUS
 10
31.7648115994
 20
46.1917074055
 11
31.8905263695
 21
45.8767482168
  0
ARC
  5
7DC
100
AcDbEntity
  8
0
100
AcDbCircle
 62
253
  6
CONTINUOUS
 10
-59.3247817024
 20
-17.6972666769
 40
50.4484243478
100
AcDbArc
 50
235.7772232818
 51
235.9562718273
  0
ARC
  5
7DD
100
AcDbEntity
  8
0
100
AcDbCircle
 62
253
  6
CONTINUOUS
 10
-59.573379407
 20
-17.6668484504
 40
50.0027209637
100
AcDbArc
 50
236.0306813564
 51
236.2101330237
  0
ARC
  5
7DE
100
AcDbEntity
  8
0
100
AcDbCircle
 62
7
  6
CONTINUOUS
 10
-68.2351884006
 20
-51.5232517832
 40
22.0
100
AcDbArc
 50
180.00013564
 51
270.0
  0
ARC
  5
7DF
100
AcDbEntity
  8
0
100
AcDbCircle
 62
7
  6
CONTINUOUS
 10
-68.2351884006
 20
-51.5232517832
 40
21.9126980763
100
AcDbArc
 50
180.0
 51
263.4489114737
  0
ARC
  5
7E0
100
AcDbEntity
  8
0
100
AcDbCircle
 62
7
  6
CONTINUOUS
 10
-68.2351884006
 20
-51.5232517832
 40
21.8742852298
100
AcDbArc
 50
266.3304421272
 51
269.9999999999
  0
ARC
  5
7E1
100
AcDbEntity
  8
0
100
AcDbCircle
 62
7
  6
CONTINUOUS
 10
-68.2351884006
 20
-51.5232517832
 40
21.0384128464
100
AcDbArc
 50
266.1844360003
 51
270.0
  0
ARC
  5
7E2
100
AcDbEntity
  8
0
100
AcDbCircle
 62
7
  6
CONTINUOUS
 10
-68.2351884006
 20
-51.5232517832
 40
21.0
100
AcDbArc
 50
180.0
 51
198.463544893
  0
ARC
  5
7E3
100
AcDbEntity
  8
0
100
AcDbCircle
 62
7
  6
CONTINUOUS
 10
-68.2351884006
 20
-51.5232517832
 40
21.0
100
AcDbArc
 50
202.0615513888
 51
263.1628588319
  0
ARC
  5
7E4
100
AcDbEntity
  8
0
100
AcDbCircle
 62
7
  6
CONTINUOUS
 10
-68.2351884006
 20
-51.5232517832
 40
20.9126980763
100
AcDbArc
 50
202.42045476
 51
270.0
  0
ARC
  5
7E5
100
AcDbEntity
  8
0
100
AcDbCircle
 62
7
  6
CONTINUOUS
 10
-68.2351884006
 20
-51.5232517832
 40
20.9126980763
100
AcDbArc
 50
180.0
 51
198.2896648986
  0
ARC
  5
7E6
100
AcDbEntity
  8
0
100
AcDbCircle
 62
7
  6
CONTINUOUS
 10
-84.7351884006
 20
-37.7232517832
 40
4.15
100
AcDbArc
 50
288.2553818956
 51
71.7446181044
  0
ARC
  5
7E7
100
AcDbEntity
  8
0
100
AcDbCircle
 62
7
  6
CONTINUOUS
 10
-84.7351884006
 20
-37.7232517832
 40
4.15
100
AcDbArc
 50
137.5692357122
 51
222.4307642878
  0
ARC
  5
7E8
100
AcDbEntity
  8
0
100
AcDbCircle
 62
253
  6
CONTINUOUS
 10
-84.7351884006
 20
-37.7232517832
 40
4.1288037948
100
AcDbArc
 50
136.6961662717
 51
223.3038337283
  0
ARC
  5
7E9
100
AcDbEntity
  8
0
100
AcDbCircle
 62
253
  6
CONTINUOUS
 10
-84.7351884006
 20
-37.7232517832
 40
4.1288037948
100
AcDbArc
 50
287.8879601319
 51
72.1120398681
  0
ARC
  5
7EA
100
AcDbEntity
  8
0
100
AcDbCircle
 62
253
  6
CONTINUOUS
 10
-84.7351884006
 20
-37.7232517832
 40
3.9289256294
100
AcDbArc
 50
133.6695523898
 51
226.3304476102
  0
ARC
  5
7EB
100
AcDbEntity
  8
0
100
AcDbCircle
 62
253
  6
CONTINUOUS
 10
-84.7351884006
 20
-37.7232517832
 40
3.9289256294
100
AcDbArc
 50
288.6755098264
 51
71.3244901736
  0
CIRCLE
  5
7EC
100
AcDbEntity
  8
0
100
AcDbCircle
 62
7
  6
CONTINUOUS
 10
-84.7351884006
 20
-37.7232517832
 40
1.9279366156
  0
CIRCLE
  5
7ED
100
AcDbEntity
  8
0
100
AcDbCircle
 62
7
  6
CONTINUOUS
 10
-84.7351884006
 20
-37.7232517832
 40
1.9
  0
ARC
  5
7EE
100
AcDbEntity
  8
0
100
AcDbCircle
 62
7
  6
CONTINUOUS
 10
-88.7351884006
 20
-72.0232517832
 40
1.5
100
AcDbArc
 50
180.0
 51
270.0
  0
ARC
  5
7EF
100
AcDbEntity
  8
0
100
AcDbCircle
 62
7
  6
CONTINUOUS
 10
-87.9646411198
 20
-58.1106891925
 40
0.1998645147
100
AcDbArc
 50
198.4607257846
 51
270.0028191084
  0
ARC
  5
7F0
100
AcDbEntity
  8
0
100
AcDbCircle
 62
7
  6
CONTINUOUS
 10
-87.9016501136
 20
-58.0233873912
 40
0.1998643923
100
AcDbArc
 50
198.2868113945
 51
270.0028535041
  0
ARC
  5
7F1
100
AcDbEntity
  8
0
100
AcDbCircle
 62
7
  6
CONTINUOUS
 10
-87.5124670416
 20
-59.3357450026
 40
0.1997936711
100
AcDbArc
 50
89.9646614811
 51
202.0968899063
  0
ARC
  5
7F2
100
AcDbEntity
  8
0
100
AcDbCircle
 62
7
  6
CONTINUOUS
 10
-87.3824502472
 20
-59.4230460248
 40
0.1997927342
100
AcDbArc
 50
89.9640350343
 51
202.456419724
  0
ARC
  5
7F3
100
AcDbEntity
  8
0
100
AcDbCircle
 62
253
  6
CONTINUOUS
 10
-59.3247762932
 20
-0.7492448687
 40
50.4484339877
100
AcDbArc
 50
124.0437281898
 51
124.2227767011
  0
ARC
  5
7F4
100
AcDbEntity
  8
0
100
AcDbCircle
 62
253
  6
CONTINUOUS
 10
-59.5733623816
 20
-0.779680472
 40
50.0027515052
100
AcDbArc
 50
123.7898670311
 51
123.9693185888
  0
ARC
  5
7F5
100
AcDbEntity
  8
0
100
AcDbCircle
 62
7
  6
CONTINUOUS
 10
-68.2351884006
 20
33.0767482168
 40
22.0
100
AcDbArc
 50
90.00013564
 51
179.9999999975
  0
ARC
  5
7F6
100
AcDbEntity
  8
0
100
AcDbCircle
 62
7
  6
CONTINUOUS
 10
-68.2351884006
 20
33.0767482168
 40
21.9126980763
100
AcDbArc
 50
96.5510885263
 51
180.0
  0
ARC
  5
7F7
100
AcDbEntity
  8
0
100
AcDbCircle
 62
7
  6
CONTINUOUS
 10
-68.2351884006
 20
33.0767482168
 40
21.8742852298
100
AcDbArc
 50
90.0000000001
 51
93.6695578728
  0
ARC
  5
7F8
100
AcDbEntity
  8
0
100
AcDbCircle
 62
7
  6
CONTINUOUS
 10
-68.2351884006
 20
33.0767482168
 40
21.0384128464
100
AcDbArc
 50
90.0
 51
93.8155639997
  0
ARC
  5
7F9
100
AcDbEntity
  8
0
100
AcDbCircle
 62
7
  6
CONTINUOUS
 10
-68.2351884006
 20
33.0767482168
 40
21.0
100
AcDbArc
 50
161.536455107
 51
180.0
  0
ARC
  5
7FA
100
AcDbEntity
  8
0
100
AcDbCircle
 62
7
  6
CONTINUOUS
 10
-68.2351884006
 20
33.0767482168
 40
21.0
100
AcDbArc
 50
96.8371411681
 51
157.9384486112
  0
ARC
  5
7FB
100
AcDbEntity
  8
0
100
AcDbCircle
 62
7
  6
CONTINUOUS
 10
-68.2351884006
 20
33.0767482168
 40
20.9126980763
100
AcDbArc
 50
161.7103351014
 51
180.0
  0
ARC
  5
7FC
100
AcDbEntity
  8
0
100
AcDbCircle
 62
7
  6
CONTINUOUS
 10
-68.2351884006
 20
33.0767482168
 40
20.9126980763
100
AcDbArc
 50
90.0
 51
157.57954524
  0
ARC
  5
7FD
100
AcDbEntity
  8
0
100
AcDbCircle
 62
7
  6
CONTINUOUS
 10
-84.7351884006
 20
19.2767482168
 40
4.15
100
AcDbArc
 50
137.5692357122
 51
222.4307642878
  0
ARC
  5
7FE
100
AcDbEntity
  8
0
100
AcDbCircle
 62
7
  6
CONTINUOUS
 10
-84.7351884006
 20
19.2767482168
 40
4.15
100
AcDbArc
 50
288.2553818956
 51
71.7446181044
  0
ARC
  5
7FF
100
AcDbEntity
  8
0
100
AcDbCircle
 62
253
  6
CONTINUOUS
 10
-84.7351884006
 20
19.2767482168
 40
4.1288037948
100
AcDbArc
 50
136.6961662717
 51
223.3038337283
  0
ARC
  5
800
100
AcDbEntity
  8
0
100
AcDbCircle
 62
253
  6
CONTINUOUS
 10
-84.7351884006
 20
19.2767482168
 40
4.1288037948
100
AcDbArc
 50
287.8879601319
 51
72.1120398681
  0
ARC
  5
801
100
AcDbEntity
  8
0
100
AcDbCircle
 62
253
  6
CONTINUOUS
 10
-84.7351884006
 20
19.2767482168
 40
3.9289256294
100
AcDbArc
 50
288.6755098264
 51
71.3244901736
  0
ARC
  5
802
100
AcDbEntity
  8
0
100
AcDbCircle
 62
253
  6
CONTINUOUS
 10
-84.7351884006
 20
19.2767482168
 40
3.9289256294
100
AcDbArc
 50
133.6695523898
 51
226.3304476102
  0
CIRCLE
  5
803
100
AcDbEntity
  8
0
100
AcDbCircle
 62
7
  6
CONTINUOUS
 10
-84.7351884006
 20
19.2767482168
 40
1.9279366156
  0
CIRCLE
  5
804
100
AcDbEntity
  8
0
100
AcDbCircle
 62
7
  6
CONTINUOUS
 10
-84.7351884006
 20
19.2767482168
 40
1.9
  0
ARC
  5
805
100
AcDbEntity
  8
0
100
AcDbCircle
 62
7
  6
CONTINUOUS
 10
-88.7351884006
 20
53.5767482168
 40
1.5
100
AcDbArc
 50
90.0
 51
180.0
  0
ARC
  5
806
100
AcDbEntity
  8
0
100
AcDbCircle
 62
7
  6
CONTINUOUS
 10
-87.9646411198
 20
39.6641856261
 40
0.1998645147
100
AcDbArc
 50
89.9971808916
 51
161.5392742155
  0
ARC
  5
807
100
AcDbEntity
  8
0
100
AcDbCircle
 62
7
  6
CONTINUOUS
 10
-87.9016501136
 20
39.5768838248
 40
0.1998643923
100
AcDbArc
 50
89.9971464968
 51
161.7131886045
  0
ARC
  5
808
100
AcDbEntity
  8
0
100
AcDbCircle
 62
7
  6
CONTINUOUS
 10
-87.5124670416
 20
40.8892414362
 40
0.1997936711
100
AcDbArc
 50
157.9031100957
 51
270.0353385169
  0
ARC
  5
809
100
AcDbEntity
  8
0
100
AcDbCircle
 62
7
  6
CONTINUOUS
 10
-87.3824502472
 20
40.9765424584
 40
0.1997927342
100
AcDbArc
 50
157.5435802709
 51
270.0359649716
  0
ARC
  5
80A
100
AcDbEntity
  8
0
100
AcDbCircle
 62
253
  6
CONTINUOUS
 10
1.8543994942
 20
-17.6972587009
 40
50.4484339838
100
AcDbArc
 50
304.0437281898
 51
304.2227767011
  0
ARC
  5
80B
100
AcDbEntity
  8
0
100
AcDbCircle
 62
253
  6
CONTINUOUS
 10
2.1029855772
 20
-17.6668230897
 40
50.0027515109
100
AcDbArc
 50
303.7898670311
 51
303.9693185888
  0
ARC
  5
80C
100
AcDbEntity
  8
0
100
AcDbCircle
 62
7
  6
CONTINUOUS
 10
10.7648115994
 20
-51.5232517832
 40
22.0
100
AcDbArc
 50
270.00013564
 51
359.9999999196
  0
ARC
  5
80D
100
AcDbEntity
  8
0
100
AcDbCircle
 62
7
  6
CONTINUOUS
 10
10.7648115994
 20
-51.5232517832
 40
21.9126980763
100
AcDbArc
 50
276.5510885263
 51
360.0
  0
ARC
  5
80E
100
AcDbEntity
  8
0
100
AcDbCircle
 62
7
  6
CONTINUOUS
 10
10.7648115994
 20
-51.5232517832
 40
21.8742852298
100
AcDbArc
 50
270.0000000001
 51
273.6695578728
  0
ARC
  5
80F
100
AcDbEntity
  8
0
100
AcDbCircle
 62
7
  6
CONTINUOUS
 10
10.7648115994
 20
-51.5232517832
 40
21.0384128464
100
AcDbArc
 50
270.0
 51
273.8155639997
  0
ARC
  5
810
100
AcDbEntity
  8
0
100
AcDbCircle
 62
7
  6
CONTINUOUS
 10
10.7648115994
 20
-51.5232517832
 40
21.0
100
AcDbArc
 50
341.536455107
 51
360.0
  0
ARC
  5
811
100
AcDbEntity
  8
0
100
AcDbCircle
 62
7
  6
CONTINUOUS
 10
10.7648115994
 20
-51.5232517832
 40
21.0
100
AcDbArc
 50
276.8371411681
 51
337.9384486112
  0
ARC
  5
812
100
AcDbEntity
  8
0
100
AcDbCircle
 62
7
  6
CONTINUOUS
 10
10.7648115994
 20
-51.5232517832
 40
20.9126980763
100
AcDbArc
 50
341.7103351014
 51
360.0
  0
ARC
  5
813
100
AcDbEntity
  8
0
100
AcDbCircle
 62
7
  6
CONTINUOUS
 10
10.7648115994
 20
-51.5232517832
 40
20.9126980763
100
AcDbArc
 50
270.0
 51
337.57954524
  0
ARC
  5
814
100
AcDbEntity
  8
0
100
AcDbCircle
 62
7
  6
CONTINUOUS
 10
27.2648115994
 20
-37.7232517832
 40
4.15
100
AcDbArc
 50
317.5692357122
 51
42.4307642878
  0
ARC
  5
815
100
AcDbEntity
  8
0
100
AcDbCircle
 62
7
  6
CONTINUOUS
 10
27.2648115994
 20
-37.7232517832
 40
4.15
100
AcDbArc
 50
108.2553818956
 51
251.7446181044
  0
ARC
  5
816
100
AcDbEntity
  8
0
100
AcDbCircle
 62
253
  6
CONTINUOUS
 10
27.2648115994
 20
-37.7232517832
 40
4.1288037948
100
AcDbArc
 50
316.6961662717
 51
43.3038337283
  0
ARC
  5
817
100
AcDbEntity
  8
0
100
AcDbCircle
 62
253
  6
CONTINUOUS
 10
27.2648115994
 20
-37.7232517832
 40
4.1288037948
100
AcDbArc
 50
107.8879601319
 51
252.1120398681
  0
ARC
  5
818
100
AcDbEntity
  8
0
100
AcDbCircle
 62
253
  6
CONTINUOUS
 10
27.2648115994
 20
-37.7232517832
 40
3.9289256294
100
AcDbArc
 50
108.6755098264
 51
251.3244901736
  0
ARC
  5
819
100
AcDbEntity
  8
0
100
AcDbCircle
 62
253
  6
CONTINUOUS
 10
27.2648115994
 20
-37.7232517832
 40
3.9289256294
100
AcDbArc
 50
313.6695523898
 51
46.3304476102
  0
CIRCLE
  5
81A
100
AcDbEntity
  8
0
100
AcDbCircle
 62
7
  6
CONTINUOUS
 10
27.2648115994
 20
-37.7232517832
 40
1.9279366156
  0
CIRCLE
  5
81B
100
AcDbEntity
  8
0
100
AcDbCircle
 62
7
  6
CONTINUOUS
 10
27.2648115994
 20
-37.7232517832
 40
1.9
  0
ARC
  5
81C
100
AcDbEntity
  8
0
100
AcDbCircle
 62
7
  6
CONTINUOUS
 10
31.2648115994
 20
-72.0232517832
 40
1.5
100
AcDbArc
 50
270.0
 51
360.0
  0
ARC
  5
81D
100
AcDbEntity
  8
0
100
AcDbCircle
 62
7
  6
CONTINUOUS
 10
30.4942643185
 20
-58.1106891925
 40
0.1998645147
100
AcDbArc
 50
269.9971808916
 51
341.5392742155
  0
ARC
  5
81E
100
AcDbEntity
  8
0
100
AcDbCircle
 62
7
  6
CONTINUOUS
 10
30.4312733124
 20
-58.0233873912
 40
0.1998643923
100
AcDbArc
 50
269.9971464969
 51
341.7131886045
  0
ARC
  5
81F
100
AcDbEntity
  8
0
100
AcDbCircle
 62
7
  6
CONTINUOUS
 10
30.0420902404
 20
-59.3357450026
 40
0.1997936711
100
AcDbArc
 50
337.9031100919
 51
90.0353385207
  0
ARC
  5
820
100
AcDbEntity
  8
0
100
AcDbCircle
 62
7
  6
CONTINUOUS
 10
29.912073446
 20
-59.4230460248
 40
0.1997927341
100
AcDbArc
 50
337.5435802548
 51
90.0359649877
  0
ARC
  5
821
100
AcDbEntity
  8
0
100
AcDbCircle
 62
253
  6
CONTINUOUS
 10
1.8544048989
 20
-0.7492368927
 40
50.4484243517
100
AcDbArc
 50
55.7772232818
 51
55.9562718273
  0
ARC
  5
822
100
AcDbEntity
  8
0
100
AcDbCircle
 62
253
  6
CONTINUOUS
 10
2.1030026089
 20
-0.7796551112
 40
50.0027209579
100
AcDbArc
 50
56.0306813564
 51
56.2101330237
  0
ARC
  5
823
100
AcDbEntity
  8
0
100
AcDbCircle
 62
7
  6
CONTINUOUS
 10
10.7648115994
 20
33.0767482168
 40
22.0
100
AcDbArc
 50
0.00013564
 51
90.0
  0
ARC
  5
824
100
AcDbEntity
  8
0
100
AcDbCircle
 62
7
  6
CONTINUOUS
 10
10.7648115994
 20
33.0767482168
 40
21.9126980763
100
AcDbArc
 50
0.0
 51
83.4489114737
  0
ARC
  5
825
100
AcDbEntity
  8
0
100
AcDbCircle
 62
7
  6
CONTINUOUS
 10
10.7648115994
 20
33.0767482168
 40
21.8742852298
100
AcDbArc
 50
86.3304421272
 51
89.9999999999
  0
ARC
  5
826
100
AcDbEntity
  8
0
100
AcDbCircle
 62
7
  6
CONTINUOUS
 10
10.7648115994
 20
33.0767482168
 40
21.0384128464
100
AcDbArc
 50
86.1844360003
 51
90.0
  0
ARC
  5
827
100
AcDbEntity
  8
0
100
AcDbCircle
 62
7
  6
CONTINUOUS
 10
10.7648115994
 20
33.0767482168
 40
21.0
100
AcDbArc
 50
0.0
 51
18.463544893
  0
ARC
  5
828
100
AcDbEntity
  8
0
100
AcDbCircle
 62
7
  6
CONTINUOUS
 10
10.7648115994
 20
33.0767482168
 40
21.0
100
AcDbArc
 50
22.0615513888
 51
83.1628588319
  0
ARC
  5
829
100
AcDbEntity
  8
0
100
AcDbCircle
 62
7
  6
CONTINUOUS
 10
10.7648115994
 20
33.0767482168
 40
20.9126980763
100
AcDbArc
 50
22.42045476
 51
90.0
  0
ARC
  5
82A
100
AcDbEntity
  8
0
100
AcDbCircle
 62
7
  6
CONTINUOUS
 10
10.7648115994
 20
33.0767482168
 40
20.9126980763
100
AcDbArc
 50
0.0
 51
18.2896648986
  0
CIRCLE
  5
82B
100
AcDbEntity
  8
0
100
AcDbCircle
 62
7
  6
CONTINUOUS
 10
-28.7351884006
 20
-9.2232517832
 40
5.8103356185
  0
ARC
  5
82C
100
AcDbEntity
  8
0
100
AcDbCircle
 62
7
  6
CONTINUOUS
 10
27.2648115994
 20
19.2767482168
 40
4.15
100
AcDbArc
 50
108.2553818956
 51
251.7446181044
  0
ARC
  5
82D
100
AcDbEntity
  8
0
100
AcDbCircle
 62
7
  6
CONTINUOUS
 10
27.2648115994
 20
19.2767482168
 40
4.15
100
AcDbArc
 50
317.5692357122
 51
42.4307642878
  0
ARC
  5
82E
100
AcDbEntity
  8
0
100
AcDbCircle
 62
253
  6
CONTINUOUS
 10
27.2648115994
 20
19.2767482168
 40
4.1288037948
100
AcDbArc
 50
316.6961662717
 51
43.3038337283
  0
ARC
  5
82F
100
AcDbEntity
  8
0
100
AcDbCircle
 62
253
  6
CONTINUOUS
 10
27.2648115994
 20
19.2767482168
 40
4.1288037948
100
AcDbArc
 50
107.8879601319
 51
252.1120398681
  0
ARC
  5
830
100
AcDbEntity
  8
0
100
AcDbCircle
 62
253
  6
CONTINUOUS
 10
27.2648115994
 20
19.2767482168
 40
3.9289256294
100
AcDbArc
 50
108.6755098264
 51
251.3244901736
  0
ARC
  5
831
100
AcDbEntity
  8
0
100
AcDbCircle
 62
253
  6
CONTINUOUS
 10
27.2648115994
 20
19.2767482168
 40
3.9289256294
100
AcDbArc
 50
313.6695523898
 51
46.3304476102
  0
CIRCLE
  5
832
100
AcDbEntity
  8
0
100
AcDbCircle
 62
7
  6
CONTINUOUS
 10
27.2648115994
 20
19.2767482168
 40
1.9279366156
  0
CIRCLE
  5
833
100
AcDbEntity
  8
0
100
AcDbCircle
 62
7
  6
CONTINUOUS
 10
27.2648115994
 20
19.2767482168
 40
1.9
  0
ARC
  5
834
100
AcDbEntity
  8
0
100
AcDbCircle
 62
7
  6
CONTINUOUS
 10
31.2648115994
 20
53.5767482168
 40
1.5
100
AcDbArc
 50
0.0
 51
90.0
  0
ARC
  5
835
100
AcDbEntity
  8
0
100
AcDbCircle
 62
7
  6
CONTINUOUS
 10
30.4942643185
 20
39.6641856261
 40
0.1998645147
100
AcDbArc
 50
18.4607257846
 51
90.0028191084
  0
ARC
  5
836
100
AcDbEntity
  8
0
100
AcDbCircle
 62
7
  6
CONTINUOUS
 10
30.4312733124
 20
39.5768838248
 40
0.1998643923
100
AcDbArc
 50
18.2868113945
 51
90.0028535041
  0
ARC
  5
837
100
AcDbEntity
  8
0
100
AcDbCircle
 62
7
  6
CONTINUOUS
 10
30.0420902404
 20
40.8892414362
 40
0.1997936711
100
AcDbArc
 50
269.9646614765
 51
22.0968899109
  0
ARC
  5
838
100
AcDbEntity
  8
0
100
AcDbCircle
 62
7
  6
CONTINUOUS
 10
29.9120734459
 20
40.9765424584
 40
0.1997927341
100
AcDbArc
 50
269.9640350299
 51
22.4564197284
  0
SPLINE
  5
839
100
AcDbEntity
  8
0
100
AcDbSpline
 62
7
  6
CONTINUOUS
 70
0
 71
3
 72
14
 73
10
 74
8
 42
0.0000001
 43
0.0000001
 44
0.0000000001
 12
0.0325747568
 22
-1.2072263908
 32
0.0
 13
-1.2072994316
 23
-0.0297376313
 33
0.0
 40
0.0
 40
0.0
 40
0.0
 40
0.0
 40
0.1229416785
 40
0.2742257934
 40
0.4101326143
 40
0.6067710059
 40
0.7535108585
 40
0.8655835058
 40
1.0
 40
1.0
 40
1.0
 40
1.0
 10
-10.6479610755
 20
-24.2232517832
 30
0.0
 10
-10.6466261438
 20
-24.2727245961
 30
0.0
 10
-10.6504330959
 20
-24.3833619762
 30
0.0
 10
-10.6768817879
 20
-24.5467279041
 30
0.0
 10
-10.7308036612
 20
-24.7346520805
 30
0.0
 10
-10.8377333494
 20
-24.901505114
 30
0.0
 10
-10.9866087871
 20
-25.01344169
 30
0.0
 10
-11.1347711427
 20
-25.0723678887
 30
0.0
 10
-11.2341803101
 20
-25.0868911252
 30
0.0
 10
-11.2882739624
 20
-25.0882235346
 30
0.0
 11
-10.6479610755
 21
-24.2232517832
 31
0.0
 11
-10.6528288879
 21
-24.3716444237
 31
0.0
 11
-10.6816157864
 21
-24.5520629437
 31
0.0
 11
-10.7302368944
 21
-24.7088259846
 31
0.0
 11
-10.8605512898
 21
-24.9073500444
 31
0.0
 11
-11.0020929397
 21
-25.0139816659
 31
0.0
 11
-11.1277035341
 21
-25.0643860331
 31
0.0
 11
-11.2882739624
 21
-25.0882235346
 31
0.0
  0
SPLINE
  5
83A
100
AcDbEntity
  8
0
100
AcDbSpline
 62
7
  6
CONTINUOUS
 70
0
 71
3
 72
14
 73
10
 74
8
 42
0.0000001
 43
0.0000001
 44
0.0000000001
 12
1.2072994316
 22
-0.0297376313
 32
0.0
 13
-0.0325747568
 23
-1.2072263908
 33
0.0
 40
0.0
 40
0.0
 40
0.0
 40
0.0
 40
0.1344164942
 40
0.2464891415
 40
0.3932289941
 40
0.5898673857
 40
0.7257742066
 40
0.8770583215
 40
1.0
 40
1.0
 40
1.0
 40
1.0
 10
-11.2882739624
 20
-23.3582800318
 30
0.0
 10
-11.2341803101
 20
-23.3596124412
 30
0.0
 10
-11.1347711427
 20
-23.3741356777
 30
0.0
 10
-10.9866087871
 20
-23.4330618764
 30
0.0
 10
-10.8377333494
 20
-23.5449984524
 30
0.0
 10
-10.7308036612
 20
-23.7118514859
 30
0.0
 10
-10.6768817879
 20
-23.8997756623
 30
0.0
 10
-10.6504330959
 20
-24.0631415902
 30
0.0
 10
-10.6466261438
 20
-24.1737789703
 30
0.0
 10
-10.6479610755
 20
-24.2232517832
 30
0.0
 11
-11.2882739624
 21
-23.3582800318
 31
0.0
 11
-11.1277035341
 21
-23.3821175333
 31
0.0
 11
-11.0020929397
 21
-23.4325219005
 31
0.0
 11
-10.8605512898
 21
-23.539153522
 31
0.0
 11
-10.7302368944
 21
-23.7376775818
 31
0.0
 11
-10.6816157864
 21
-23.8944406227
 31
0.0
 11
-10.6528288879
 21
-24.0748591427
 31
0.0
 11
-10.6479610755
 21
-24.2232517832
 31
0.0
  0
SPLINE
  5
83B
100
AcDbEntity
  8
0
100
AcDbSpline
 62
7
  6
CONTINUOUS
 70
0
 71
3
 72
15
 73
11
 74
9
 42
0.0000001
 43
0.0000001
 44
0.0000000001
 12
1.656188499
 22
-0.0076064713
 32
0.0
 13
-0.0285533064
 23
1.6559598157
 33
0.0
 40
0.0
 40
0.0
 40
0.0
 40
0.0
 40
0.1666104649
 40
0.3201400637
 40
0.432791991
 40
0.5473463999
 40
0.6677209668
 40
0.7950987643
 40
0.8857287116
 40
1.0
 40
1.0
 40
1.0
 40
1.0
 10
-11.2805361261
 20
-25.3482517832
 30
0.0
 10
-11.1885566808
 20
-25.3486742224
 30
0.0
 10
-11.0108169817
 20
-25.3266137258
 30
0.0
 10
-10.7873975317
 20
-25.2303676124
 30
0.0
 10
-10.6269480619
 20
-25.0923384409
 30
0.0
 10
-10.5030314876
 20
-24.9437899949
 30
0.0
 10
-10.4187348302
 20
-24.7607074032
 30
0.0
 10
-10.3630843607
 20
-24.5817495326
 30
0.0
 10
-10.3370506617
 20
-24.3996497496
 30
0.0
 10
-10.334109107
 20
-24.2863280037
 30
0.0
 10
-10.3351967147
 20
-24.2232517832
 30
0.0
 11
-11.2805361261
 21
-25.3482517832
 31
0.0
 11
-11.0069332146
 21
-25.312404634
 31
0.0
 11
-10.7746909987
 21
-25.2088664213
 31
0.0
 11
-10.6313751879
 21
-25.0894062514
 31
0.0
 11
-10.5120241972
 21
-24.9419234371
 31
0.0
 11
-10.4243533521
 21
-24.7628696562
 31
0.0
 11
-10.3634495915
 21
-24.5608882571
 31
0.0
 11
-10.3414681924
 21
-24.412404634
 31
0.0
 11
-10.3351967147
 21
-24.2232517832
 31
0.0
  0
SPLINE
  5
83C
100
AcDbEntity
  8
0
100
AcDbSpline
 62
7
  6
CONTINUOUS
 70
0
 71
3
 72
15
 73
11
 74
9
 42
0.0000001
 43
0.0000001
 44
0.0000000001
 12
0.0283898259
 22
1.6464786991
 32
0.0
 13
-1.6467060863
 23
0.00756004
 33
0.0
 40
0.0
 40
0.0
 40
0.0
 40
0.0
 40
0.1149293105
 40
0.2060811432
 40
0.3341924356
 40
0.4552601699
 40
0.5704742312
 40
0.6837748557
 40
0.8381885424
 40
1.0
 40
1.0
 40
1.0
 40
1.0
 10
-10.3351967147
 20
-24.2232517832
 30
0.0
 10
-10.334109107
 20
-24.1601755627
 30
0.0
 10
-10.3370506667
 20
-24.0468538143
 30
0.0
 10
-10.3630843446
 20
-23.8647540416
 30
0.0
 10
-10.4187349162
 20
-23.6857961213
 30
0.0
 10
-10.5030311955
 20
-23.5027137138
 30
0.0
 10
-10.6269490876
 20
-23.354164626
 30
0.0
 10
-10.787393192
 20
-23.2161380673
 30
0.0
 10
-11.0078846978
 20
-23.1211517173
 30
0.0
 10
-11.1821509979
 20
-23.0986595502
 30
0.0
 10
-11.2709696353
 20
-23.0982517832
 30
0.0
 11
-10.3351967147
 21
-24.2232517832
 31
0.0
 11
-10.3414681924
 21
-24.0340989324
 31
0.0
 11
-10.3634495915
 21
-23.8856153093
 31
0.0
 11
-10.4243533521
 21
-23.6836339102
 31
0.0
 11
-10.5120241972
 21
-23.5045801293
 31
0.0
 11
-10.6313751879
 21
-23.3570973149
 31
0.0
 11
-10.7746909987
 21
-23.2376371451
 31
0.0
 11
-11.0069332146
 21
-23.1340989324
 31
0.0
 11
-11.2709696353
 21
-23.0982517832
 31
0.0
  0
SPLINE
  5
83D
100
AcDbEntity
  8
0
100
AcDbSpline
 62
7
  6
CONTINUOUS
 70
0
 71
3
 72
16
 73
12
 74
10
 42
0.0000001
 43
0.0000001
 44
0.0000000001
 12
-0.2572868675
 22
-0.1384671314
 32
0.0
 13
-0.2921809006
 23
0.0
 33
0.0
 40
0.0
 40
0.0
 40
0.0
 40
0.0
 40
0.0149488201
 40
0.0416994548
 40
0.0790501721
 40
0.12544081
 40
0.2394797365
 40
0.3737672547
 40
0.5211699723
 40
0.6768055191
 40
1.0
 40
1.0
 40
1.0
 40
1.0
 10
30.2694530499
 20
16.4449377482
 30
0.0
 10
30.2681710049
 20
16.4442477748
 30
0.0
 10
30.2640968595
 20
16.4434680405
 30
0.0
 10
30.2565398756
 20
16.4423131629
 30
0.0
 10
30.2457965461
 20
16.4413059092
 30
0.0
 10
30.2266006719
 20
16.4398675832
 30
0.0
 10
30.1979207389
 20
16.4384381659
 30
0.0
 10
30.1594061223
 20
16.4370852067
 30
0.0
 10
30.1168237933
 20
16.4360595355
 30
0.0
 10
30.0558405262
 20
16.4350868399
 30
0.0
 10
30.0092044481
 20
16.4348219934
 30
0.0
 10
29.9777273633
 20
16.4348219934
 30
0.0
 11
30.2694530499
 21
16.4449377482
 31
0.0
 11
30.2652612098
 21
16.4437106371
 31
0.0
 11
30.2575349689
 21
16.4425293491
 31
0.0
 11
30.2466784319
 21
16.4414190333
 31
0.0
 11
30.2331629363
 21
16.4403920376
 31
0.0
 11
30.199890557
 21
16.438611328
 31
0.0
 11
30.1606797441
 21
16.4371987741
 31
0.0
 11
30.1176246091
 21
16.4361356353
 31
0.0
 11
30.0721568629
 21
16.4353976943
 31
0.0
 11
29.9777273633
 21
16.4348219934
 31
0.0
  0
SPLINE
  5
83E
100
AcDbEntity
  8
0
100
AcDbSpline
 62
7
  6
CONTINUOUS
 70
0
 71
3
 72
17
 73
13
 74
11
 42
0.0000001
 43
0.0000001
 44
0.0000000001
 12
0.0
 22
-0.2079515269
 32
0.0
 13
-0.1945561095
 23
-0.07342859
 33
0.0
 40
0.0
 40
0.0
 40
0.0
 40
0.0
 40
0.1877007616
 40
0.3695818143
 40
0.5391459986
 40
0.6902640614
 40
0.8167091647
 40
0.9129152694
 40
0.9482720899
 40
0.9745732046
 40
0.9916608948
 40
1.0
 40
1.0
 40
1.0
 40
1.0
 10
26.0067378228
 20
15.5546913964
 30
0.0
 10
26.0067378228
 20
15.5416805097
 30
0.0
 10
26.0066208275
 20
15.5160621295
 30
0.0
 10
26.0060949293
 20
15.4786924965
 30
0.0
 10
26.005228559
 20
15.4438683465
 30
0.0
 10
26.0040553574
 20
15.4128891693
 30
0.0
 10
26.0026091233
 20
15.3870378071
 30
0.0
 10
26.0011530313
 20
15.3691678554
 30
0.0
 10
25.999789361
 20
15.3583638877
 30
0.0
 10
25.9988542283
 20
15.3528841291
 30
0.0
 10
25.9979556284
 20
15.3496041168
 30
0.0
 10
25.9971628759
 20
15.3477391623
 30
0.0
 10
25.996622068
 20
15.3475350527
 30
0.0
 11
26.0067378228
 21
15.5546913964
 31
0.0
 11
26.0065561766
 21
15.5156591591
 31
0.0
 11
26.0060124629
 21
15.4778406247
 31
0.0
 11
26.0051160701
 21
15.4425908894
 31
0.0
 11
26.003888148
 21
15.4111896568
 31
0.0
 11
26.0023647103
 21
15.3849393737
 31
0.0
 11
26.0005989443
 21
15.3650112438
 31
0.0
 11
25.9996455037
 21
15.35772082
 31
0.0
 11
25.9986571879
 21
15.3523414988
 31
0.0
 11
25.9976451074
 21
15.3489352655
 31
0.0
 11
25.996622068
 21
15.3475350527
 31
0.0
  0
SPLINE
  5
83F
100
AcDbEntity
  8
0
100
AcDbSpline
 62
7
  6
CONTINUOUS
 70
0
 71
3
 72
16
 73
12
 74
10
 42
0.0000001
 43
0.0000001
 44
0.0000000001
 12
0.2921809006
 22
0.0
 32
0.0
 13
0.2572868675
 23
-0.1384671314
 33
0.0
 40
0.0
 40
0.0
 40
0.0
 40
0.0
 40
0.3231944809
 40
0.4788300277
 40
0.6262327453
 40
0.7605202635
 40
0.87455919
 40
0.9209498279
 40
0.9583005452
 40
0.9850511799
 40
1.0
 40
1.0
 40
1.0
 40
1.0
 10
29.9777273633
 20
22.1186744402
 30
0.0
 10
30.0092044481
 20
22.1186744402
 30
0.0
 10
30.0558405262
 20
22.1184095937
 30
0.0
 10
30.1168237933
 20
22.1174368981
 30
0.0
 10
30.1594061223
 20
22.1164112269
 30
0.0
 10
30.1979207389
 20
22.1150582677
 30
0.0
 10
30.2266006719
 20
22.1136288504
 30
0.0
 10
30.2457965461
 20
22.1121905244
 30
0.0
 10
30.2565398756
 20
22.1111832707
 30
0.0
 10
30.2640968595
 20
22.1100283931
 30
0.0
 10
30.2681710049
 20
22.1092486588
 30
0.0
 10
30.2694530499
 20
22.1085586854
 30
0.0
 11
29.9777273633
 21
22.1186744402
 31
0.0
 11
30.0721568629
 21
22.1180987393
 31
0.0
 11
30.1176246091
 21
22.1173607983
 31
0.0
 11
30.1606797441
 21
22.1162976595
 31
0.0
 11
30.199890557
 21
22.1148851056
 31
0.0
 11
30.2331629363
 21
22.113104396
 31
0.0
 11
30.2466784319
 21
22.1120774003
 31
0.0
 11
30.2575349689
 21
22.1109670845
 31
0.0
 11
30.2652612098
 21
22.1097857965
 31
0.0
 11
30.2694530499
 21
22.1085586854
 31
0.0
  0
SPLINE
  5
840
100
AcDbEntity
  8
0
100
AcDbSpline
 62
7
  6
CONTINUOUS
 70
0
 71
3
 72
17
 73
13
 74
11
 42
0.0000001
 43
0.0000001
 44
0.0000000001
 12
0.1945561091
 22
-0.0734285899
 32
0.0
 13
0.0
 23
-0.2079515266
 33
0.0
 40
0.0
 40
0.0
 40
0.0
 40
0.0
 40
0.0083391131
 40
0.0254268186
 40
0.0517279431
 40
0.0870848286
 40
0.1832915439
 40
0.3097370377
 40
0.4608541111
 40
0.6304179471
 40
0.8122991892
 40
1.0
 40
1.0
 40
1.0
 40
1.0
 10
25.996622068
 20
23.2059613809
 30
0.0
 10
25.9971628764
 20
23.2057572711
 30
0.0
 10
25.997955628
 20
23.2038923136
 30
0.0
 10
25.9988542287
 20
23.2006123
 30
0.0
 10
25.9997893634
 20
23.195132535
 30
0.0
 10
26.0011530392
 20
23.1843285205
 30
0.0
 10
26.0026091282
 20
23.166458494
 30
0.0
 10
26.0040553662
 20
23.1406071314
 30
0.0
 10
26.0052285615
 20
23.1096280197
 30
0.0
 10
26.006094927
 20
23.0748039493
 30
0.0
 10
26.0066208283
 20
23.037434324
 30
0.0
 10
26.0067378228
 20
23.0118159273
 30
0.0
 10
26.0067378228
 20
22.9988050372
 30
0.0
 11
25.996622068
 21
23.2059613809
 31
0.0
 11
25.9976451075
 21
23.2045611661
 31
0.0
 11
25.9986571883
 21
23.2011549297
 31
0.0
 11
25.9996455052
 21
23.1957756065
 31
0.0
 11
26.0005989474
 21
23.1884851694
 31
0.0
 11
26.0023647189
 21
23.1685569125
 31
0.0
 11
26.0038881603
 21
23.1423065483
 31
0.0
 11
26.0051160719
 21
23.1109055213
 31
0.0
 11
26.0060124609
 21
23.0756558584
 31
0.0
 11
26.0065561767
 21
23.0378372847
 31
0.0
 11
26.0067378228
 21
22.9988050372
 31
0.0
  0
SPLINE
  5
841
100
AcDbEntity
  8
0
100
AcDbSpline
 62
7
  6
CONTINUOUS
 70
0
 71
3
 72
16
 73
12
 74
10
 42
0.0000001
 43
0.0000001
 44
0.0000000001
 12
0.2921809006
 22
0.0
 32
0.0
 13
0.2572868675
 23
-0.1384671314
 33
0.0
 40
0.0
 40
0.0
 40
0.0
 40
0.0
 40
0.3231944809
 40
0.4788300277
 40
0.6262327453
 40
0.7605202635
 40
0.87455919
 40
0.9209498279
 40
0.9583005452
 40
0.9850511799
 40
1.0
 40
1.0
 40
1.0
 40
1.0
 10
29.9777273633
 20
-34.8813255598
 30
0.0
 10
30.0092044481
 20
-34.8813255598
 30
0.0
 10
30.0558405262
 20
-34.8815904063
 30
0.0
 10
30.1168237933
 20
-34.8825631019
 30
0.0
 10
30.1594061223
 20
-34.8835887731
 30
0.0
 10
30.1979207389
 20
-34.8849417323
 30
0.0
 10
30.2266006719
 20
-34.8863711496
 30
0.0
 10
30.2457965461
 20
-34.8878094756
 30
0.0
 10
30.2565398756
 20
-34.8888167293
 30
0.0
 10
30.2640968595
 20
-34.8899716069
 30
0.0
 10
30.2681710049
 20
-34.8907513412
 30
0.0
 10
30.2694530499
 20
-34.8914413146
 30
0.0
 11
29.9777273633
 21
-34.8813255598
 31
0.0
 11
30.0721568629
 21
-34.8819012607
 31
0.0
 11
30.1176246091
 21
-34.8826392017
 31
0.0
 11
30.1606797441
 21
-34.8837023405
 31
0.0
 11
30.199890557
 21
-34.8851148944
 31
0.0
 11
30.2331629363
 21
-34.886895604
 31
0.0
 11
30.2466784319
 21
-34.8879225997
 31
0.0
 11
30.2575349689
 21
-34.8890329155
 31
0.0
 11
30.2652612098
 21
-34.8902142035
 31
0.0
 11
30.2694530499
 21
-34.8914413146
 31
0.0
  0
SPLINE
  5
842
100
AcDbEntity
  8
0
100
AcDbSpline
 62
7
  6
CONTINUOUS
 70
0
 71
3
 72
17
 73
13
 74
11
 42
0.0000001
 43
0.0000001
 44
0.0000000001
 12
0.1945561091
 22
-0.0734285899
 32
0.0
 13
-0.0
 23
-0.2079515266
 33
0.0
 40
0.0
 40
0.0
 40
0.0
 40
0.0
 40
0.0083391131
 40
0.0254268186
 40
0.0517279431
 40
0.0870848286
 40
0.1832915439
 40
0.3097370377
 40
0.4608541111
 40
0.6304179471
 40
0.8122991892
 40
1.0
 40
1.0
 40
1.0
 40
1.0
 10
25.996622068
 20
-33.7940386191
 30
0.0
 10
25.9971628764
 20
-33.7942427289
 30
0.0
 10
25.997955628
 20
-33.7961076864
 30
0.0
 10
25.9988542287
 20
-33.7993877
 30
0.0
 10
25.9997893634
 20
-33.804867465
 30
0.0
 10
26.0011530392
 20
-33.8156714795
 30
0.0
 10
26.0026091282
 20
-33.833541506
 30
0.0
 10
26.0040553662
 20
-33.8593928686
 30
0.0
 10
26.0052285615
 20
-33.8903719803
 30
0.0
 10
26.006094927
 20
-33.9251960507
 30
0.0
 10
26.0066208283
 20
-33.962565676
 30
0.0
 10
26.0067378228
 20
-33.9881840727
 30
0.0
 10
26.0067378228
 20
-34.0011949628
 30
0.0
 11
25.996622068
 21
-33.7940386191
 31
0.0
 11
25.9976451075
 21
-33.7954388339
 31
0.0
 11
25.9986571883
 21
-33.7988450703
 31
0.0
 11
25.9996455052
 21
-33.8042243935
 31
0.0
 11
26.0005989474
 21
-33.8115148306
 31
0.0
 11
26.0023647189
 21
-33.8314430875
 31
0.0
 11
26.0038881603
 21
-33.8576934517
 31
0.0
 11
26.0051160719
 21
-33.8890944787
 31
0.0
 11
26.0060124609
 21
-33.9243441416
 31
0.0
 11
26.0065561767
 21
-33.9621627153
 31
0.0
 11
26.0067378228
 21
-34.0011949628
 31
0.0
  0
SPLINE
  5
843
100
AcDbEntity
  8
0
100
AcDbSpline
 62
7
  6
CONTINUOUS
 70
0
 71
3
 72
16
 73
12
 74
10
 42
0.0000001
 43
0.0000001
 44
0.0000000001
 12
-0.2572868675
 22
-0.1384671314
 32
0.0
 13
-0.2921809006
 23
-0.0
 33
0.0
 40
0.0
 40
0.0
 40
0.0
 40
0.0
 40
0.0149488201
 40
0.0416994548
 40
0.0790501721
 40
0.12544081
 40
0.2394797365
 40
0.3737672547
 40
0.5211699723
 40
0.6768055191
 40
1.0
 40
1.0
 40
1.0
 40
1.0
 10
30.2694530499
 20
-40.5550622518
 30
0.0
 10
30.2681710049
 20
-40.5557522252
 30
0.0
 10
30.2640968595
 20
-40.5565319595
 30
0.0
 10
30.2565398756
 20
-40.5576868371
 30
0.0
 10
30.2457965461
 20
-40.5586940908
 30
0.0
 10
30.2266006719
 20
-40.5601324168
 30
0.0
 10
30.1979207389
 20
-40.5615618341
 30
0.0
 10
30.1594061223
 20
-40.5629147933
 30
0.0
 10
30.1168237933
 20
-40.5639404645
 30
0.0
 10
30.0558405262
 20
-40.5649131601
 30
0.0
 10
30.0092044481
 20
-40.5651780066
 30
0.0
 10
29.9777273633
 20
-40.5651780066
 30
0.0
 11
30.2694530499
 21
-40.5550622518
 31
0.0
 11
30.2652612098
 21
-40.5562893629
 31
0.0
 11
30.2575349689
 21
-40.5574706509
 31
0.0
 11
30.2466784319
 21
-40.5585809667
 31
0.0
 11
30.2331629363
 21
-40.5596079624
 31
0.0
 11
30.199890557
 21
-40.561388672
 31
0.0
 11
30.1606797441
 21
-40.5628012259
 31
0.0
 11
30.1176246091
 21
-40.5638643647
 31
0.0
 11
30.0721568629
 21
-40.5646023057
 31
0.0
 11
29.9777273633
 21
-40.5651780066
 31
0.0
  0
SPLINE
  5
844
100
AcDbEntity
  8
0
100
AcDbSpline
 62
7
  6
CONTINUOUS
 70
0
 71
3
 72
17
 73
13
 74
11
 42
0.0000001
 43
0.0000001
 44
0.0000000001
 12
0.0
 22
-0.2079515269
 32
0.0
 13
-0.1945561095
 23
-0.07342859
 33
0.0
 40
0.0
 40
0.0
 40
0.0
 40
0.0
 40
0.1877007616
 40
0.3695818143
 40
0.5391459986
 40
0.6902640614
 40
0.8167091647
 40
0.9129152694
 40
0.9482720899
 40
0.9745732046
 40
0.9916608948
 40
1.0
 40
1.0
 40
1.0
 40
1.0
 10
26.0067378228
 20
-41.4453086036
 30
0.0
 10
26.0067378228
 20
-41.4583194903
 30
0.0
 10
26.0066208275
 20
-41.4839378705
 30
0.0
 10
26.0060949293
 20
-41.5213075035
 30
0.0
 10
26.005228559
 20
-41.5561316535
 30
0.0
 10
26.0040553574
 20
-41.5871108307
 30
0.0
 10
26.0026091233
 20
-41.6129621929
 30
0.0
 10
26.0011530313
 20
-41.6308321446
 30
0.0
 10
25.999789361
 20
-41.6416361123
 30
0.0
 10
25.9988542283
 20
-41.6471158709
 30
0.0
 10
25.9979556284
 20
-41.6503958832
 30
0.0
 10
25.9971628759
 20
-41.6522608377
 30
0.0
 10
25.996622068
 20
-41.6524649473
 30
0.0
 11
26.0067378228
 21
-41.4453086036
 31
0.0
 11
26.0065561766
 21
-41.4843408409
 31
0.0
 11
26.0060124629
 21
-41.5221593753
 31
0.0
 11
26.0051160701
 21
-41.5574091106
 31
0.0
 11
26.003888148
 21
-41.5888103432
 31
0.0
 11
26.0023647103
 21
-41.6150606263
 31
0.0
 11
26.0005989443
 21
-41.6349887562
 31
0.0
 11
25.9996455037
 21
-41.64227918
 31
0.0
 11
25.9986571879
 21
-41.6476585012
 31
0.0
 11
25.9976451074
 21
-41.6510647345
 31
0.0
 11
25.996622068
 21
-41.6524649473
 31
0.0
  0
SPLINE
  5
845
100
AcDbEntity
  8
0
100
AcDbSpline
 62
7
  6
CONTINUOUS
 70
0
 71
3
 72
16
 73
12
 74
10
 42
0.0000001
 43
0.0000001
 44
0.0000000001
 12
-0.2921809006
 22
0.0
 32
0.0
 13
-0.2572868675
 23
0.1384671314
 33
0.0
 40
0.0
 40
0.0
 40
0.0
 40
0.0
 40
0.3231944809
 40
0.4788300277
 40
0.6262327453
 40
0.7605202635
 40
0.87455919
 40
0.9209498279
 40
0.9583005452
 40
0.9850511799
 40
1.0
 40
1.0
 40
1.0
 40
1.0
 10
-87.4481041646
 20
16.4348219934
 30
0.0
 10
-87.4795812494
 20
16.4348219934
 30
0.0
 10
-87.5262173275
 20
16.4350868399
 30
0.0
 10
-87.5872005946
 20
16.4360595355
 30
0.0
 10
-87.6297829236
 20
16.4370852067
 30
0.0
 10
-87.6682975401
 20
16.4384381659
 30
0.0
 10
-87.6969774731
 20
16.4398675832
 30
0.0
 10
-87.7161733474
 20
16.4413059092
 30
0.0
 10
-87.7269166769
 20
16.4423131629
 30
0.0
 10
-87.7344736608
 20
16.4434680405
 30
0.0
 10
-87.7385478061
 20
16.4442477748
 30
0.0
 10
-87.7398298512
 20
16.4449377482
 30
0.0
 11
-87.4481041646
 21
16.4348219934
 31
0.0
 11
-87.5425336642
 21
16.4353976943
 31
0.0
 11
-87.5880014104
 21
16.4361356353
 31
0.0
 11
-87.6310565454
 21
16.4371987741
 31
0.0
 11
-87.6702673583
 21
16.438611328
 31
0.0
 11
-87.7035397376
 21
16.4403920376
 31
0.0
 11
-87.7170552332
 21
16.4414190333
 31
0.0
 11
-87.7279117702
 21
16.4425293491
 31
0.0
 11
-87.7356380111
 21
16.4437106371
 31
0.0
 11
-87.7398298512
 21
16.4449377482
 31
0.0
  0
SPLINE
  5
846
100
AcDbEntity
  8
0
100
AcDbSpline
 62
7
  6
CONTINUOUS
 70
0
 71
3
 72
17
 73
13
 74
11
 42
0.0000001
 43
0.0000001
 44
0.0000000001
 12
-0.1945561091
 22
0.0734285899
 32
0.0
 13
0.0
 23
0.2079515266
 33
0.0
 40
0.0
 40
0.0
 40
0.0
 40
0.0
 40
0.0083391131
 40
0.0254268186
 40
0.0517279431
 40
0.0870848286
 40
0.1832915439
 40
0.3097370377
 40
0.4608541111
 40
0.6304179471
 40
0.8122991892
 40
1.0
 40
1.0
 40
1.0
 40
1.0
 10
-83.4669988692
 20
15.3475350527
 30
0.0
 10
-83.4675396777
 20
15.3477391625
 30
0.0
 10
-83.4683324292
 20
15.34960412
 30
0.0
 10
-83.46923103
 20
15.3528841336
 30
0.0
 10
-83.4701661647
 20
15.3583638986
 30
0.0
 10
-83.4715298405
 20
15.3691679131
 30
0.0
 10
-83.4729859295
 20
15.3870379396
 30
0.0
 10
-83.4744321675
 20
15.4128893022
 30
0.0
 10
-83.4756053628
 20
15.4438684139
 30
0.0
 10
-83.4764717282
 20
15.4786924843
 30
0.0
 10
-83.4769976296
 20
15.5160621096
 30
0.0
 10
-83.4771146241
 20
15.5416805063
 30
0.0
 10
-83.4771146241
 20
15.5546913964
 30
0.0
 11
-83.4669988692
 21
15.3475350527
 31
0.0
 11
-83.4680219088
 21
15.3489352675
 31
0.0
 11
-83.4690339896
 21
15.352341504
 31
0.0
 11
-83.4700223065
 21
15.3577208271
 31
0.0
 11
-83.4709757487
 21
15.3650112642
 31
0.0
 11
-83.4727415201
 21
15.3849395212
 31
0.0
 11
-83.4742649616
 21
15.4111898853
 31
0.0
 11
-83.4754928731
 21
15.4425909123
 31
0.0
 11
-83.4763892622
 21
15.4778405752
 31
0.0
 11
-83.476932978
 21
15.5156591489
 31
0.0
 11
-83.4771146241
 21
15.5546913964
 31
0.0
  0
SPLINE
  5
847
100
AcDbEntity
  8
0
100
AcDbSpline
 62
7
  6
CONTINUOUS
 70
0
 71
3
 72
16
 73
12
 74
10
 42
0.0000001
 43
0.0000001
 44
0.0000000001
 12
0.2572868675
 22
0.1384671314
 32
0.0
 13
0.2921809006
 23
0.0
 33
0.0
 40
0.0
 40
0.0
 40
0.0
 40
0.0
 40
0.0149488201
 40
0.0416994548
 40
0.0790501721
 40
0.12544081
 40
0.2394797365
 40
0.3737672547
 40
0.5211699723
 40
0.6768055191
 40
1.0
 40
1.0
 40
1.0
 40
1.0
 10
-87.7398298512
 20
22.1085586854
 30
0.0
 10
-87.7385478061
 20
22.1092486588
 30
0.0
 10
-87.7344736608
 20
22.1100283931
 30
0.0
 10
-87.7269166769
 20
22.1111832707
 30
0.0
 10
-87.7161733474
 20
22.1121905244
 30
0.0
 10
-87.6969774731
 20
22.1136288504
 30
0.0
 10
-87.6682975401
 20
22.1150582677
 30
0.0
 10
-87.6297829236
 20
22.1164112269
 30
0.0
 10
-87.5872005946
 20
22.1174368981
 30
0.0
 10
-87.5262173275
 20
22.1184095937
 30
0.0
 10
-87.4795812494
 20
22.1186744402
 30
0.0
 10
-87.4481041646
 20
22.1186744402
 30
0.0
 11
-87.7398298512
 21
22.1085586854
 31
0.0
 11
-87.7356380111
 21
22.1097857965
 31
0.0
 11
-87.7279117702
 21
22.1109670845
 31
0.0
 11
-87.7170552332
 21
22.1120774003
 31
0.0
 11
-87.7035397376
 21
22.113104396
 31
0.0
 11
-87.6702673583
 21
22.1148851056
 31
0.0
 11
-87.6310565454
 21
22.1162976595
 31
0.0
 11
-87.5880014104
 21
22.1173607983
 31
0.0
 11
-87.5425336642
 21
22.1180987393
 31
0.0
 11
-87.4481041646
 21
22.1186744402
 31
0.0
  0
SPLINE
  5
848
100
AcDbEntity
  8
0
100
AcDbSpline
 62
7
  6
CONTINUOUS
 70
0
 71
3
 72
17
 73
13
 74
11
 42
0.0000001
 43
0.0000001
 44
0.0000000001
 12
0.0
 22
0.2079515269
 32
0.0
 13
0.1945561095
 23
0.07342859
 33
0.0
 40
0.0
 40
0.0
 40
0.0
 40
0.0
 40
0.1877007616
 40
0.3695818143
 40
0.5391459986
 40
0.6902640614
 40
0.8167091647
 40
0.9129152694
 40
0.9482720899
 40
0.9745732046
 40
0.9916608948
 40
1.0
 40
1.0
 40
1.0
 40
1.0
 10
-83.4771146241
 20
22.9988050372
 30
0.0
 10
-83.4771146241
 20
23.0118159239
 30
0.0
 10
-83.4769976287
 20
23.0374343041
 30
0.0
 10
-83.4764717305
 20
23.0748039371
 30
0.0
 10
-83.4756053602
 20
23.1096280871
 30
0.0
 10
-83.4744321586
 20
23.1406072643
 30
0.0
 10
-83.4729859246
 20
23.1664586265
 30
0.0
 10
-83.4715298326
 20
23.1843285782
 30
0.0
 10
-83.4701661623
 20
23.1951325459
 30
0.0
 10
-83.4692310296
 20
23.2006123045
 30
0.0
 10
-83.4683324297
 20
23.2038923168
 30
0.0
 10
-83.4675396772
 20
23.2057572713
 30
0.0
 10
-83.4669988692
 20
23.2059613809
 30
0.0
 11
-83.4771146241
 21
22.9988050372
 31
0.0
 11
-83.4769329778
 21
23.0378372745
 31
0.0
 11
-83.4763892641
 21
23.0756558089
 31
0.0
 11
-83.4754928713
 21
23.1109055443
 31
0.0
 11
-83.4742649493
 21
23.1423067768
 31
0.0
 11
-83.4727415116
 21
23.1685570599
 31
0.0
 11
-83.4709757456
 21
23.1884851898
 31
0.0
 11
-83.470022305
 21
23.1957756136
 31
0.0
 11
-83.4690339891
 21
23.2011549348
 31
0.0
 11
-83.4680219087
 21
23.2045611681
 31
0.0
 11
-83.4669988692
 21
23.2059613809
 31
0.0
  0
SPLINE
  5
849
100
AcDbEntity
  8
0
100
AcDbSpline
 62
7
  6
CONTINUOUS
 70
0
 71
3
 72
16
 73
12
 74
10
 42
0.0000001
 43
0.0000001
 44
0.0000000001
 12
0.2572868675
 22
0.1384671314
 32
0.0
 13
0.2921809006
 23
0.0
 33
0.0
 40
0.0
 40
0.0
 40
0.0
 40
0.0
 40
0.0149488201
 40
0.0416994548
 40
0.0790501721
 40
0.12544081
 40
0.2394797365
 40
0.3737672547
 40
0.5211699723
 40
0.6768055191
 40
1.0
 40
1.0
 40
1.0
 40
1.0
 10
-87.7398298512
 20
-34.8914413146
 30
0.0
 10
-87.7385478061
 20
-34.8907513412
 30
0.0
 10
-87.7344736608
 20
-34.8899716069
 30
0.0
 10
-87.7269166769
 20
-34.8888167293
 30
0.0
 10
-87.7161733474
 20
-34.8878094756
 30
0.0
 10
-87.6969774731
 20
-34.8863711496
 30
0.0
 10
-87.6682975401
 20
-34.8849417323
 30
0.0
 10
-87.6297829236
 20
-34.8835887731
 30
0.0
 10
-87.5872005946
 20
-34.8825631019
 30
0.0
 10
-87.5262173275
 20
-34.8815904063
 30
0.0
 10
-87.4795812494
 20
-34.8813255598
 30
0.0
 10
-87.4481041646
 20
-34.8813255598
 30
0.0
 11
-87.7398298512
 21
-34.8914413146
 31
0.0
 11
-87.7356380111
 21
-34.8902142035
 31
0.0
 11
-87.7279117702
 21
-34.8890329155
 31
0.0
 11
-87.7170552332
 21
-34.8879225997
 31
0.0
 11
-87.7035397376
 21
-34.886895604
 31
0.0
 11
-87.6702673583
 21
-34.8851148944
 31
0.0
 11
-87.6310565454
 21
-34.8837023405
 31
0.0
 11
-87.5880014104
 21
-34.8826392017
 31
0.0
 11
-87.5425336642
 21
-34.8819012607
 31
0.0
 11
-87.4481041646
 21
-34.8813255598
 31
0.0
  0
SPLINE
  5
84A
100
AcDbEntity
  8
0
100
AcDbSpline
 62
7
  6
CONTINUOUS
 70
0
 71
3
 72
17
 73
13
 74
11
 42
0.0000001
 43
0.0000001
 44
0.0000000001
 12
0.0
 22
0.2079515269
 32
0.0
 13
0.1945561095
 23
0.07342859
 33
0.0
 40
0.0
 40
0.0
 40
0.0
 40
0.0
 40
0.1877007616
 40
0.3695818143
 40
0.5391459986
 40
0.6902640614
 40
0.8167091647
 40
0.9129152694
 40
0.9482720899
 40
0.9745732046
 40
0.9916608948
 40
1.0
 40
1.0
 40
1.0
 40
1.0
 10
-83.4771146241
 20
-34.0011949628
 30
0.0
 10
-83.4771146241
 20
-33.9881840761
 30
0.0
 10
-83.4769976287
 20
-33.9625656959
 30
0.0
 10
-83.4764717305
 20
-33.9251960629
 30
0.0
 10
-83.4756053602
 20
-33.8903719129
 30
0.0
 10
-83.4744321586
 20
-33.8593927357
 30
0.0
 10
-83.4729859246
 20
-33.8335413735
 30
0.0
 10
-83.4715298326
 20
-33.8156714218
 30
0.0
 10
-83.4701661623
 20
-33.8048674541
 30
0.0
 10
-83.4692310296
 20
-33.7993876955
 30
0.0
 10
-83.4683324297
 20
-33.7961076832
 30
0.0
 10
-83.4675396772
 20
-33.7942427287
 30
0.0
 10
-83.4669988692
 20
-33.7940386191
 30
0.0
 11
-83.4771146241
 21
-34.0011949628
 31
0.0
 11
-83.4769329778
 21
-33.9621627255
 31
0.0
 11
-83.4763892641
 21
-33.9243441911
 31
0.0
 11
-83.4754928713
 21
-33.8890944557
 31
0.0
 11
-83.4742649493
 21
-33.8576932232
 31
0.0
 11
-83.4727415116
 21
-33.8314429401
 31
0.0
 11
-83.4709757456
 21
-33.8115148102
 31
0.0
 11
-83.470022305
 21
-33.8042243864
 31
0.0
 11
-83.4690339891
 21
-33.7988450652
 31
0.0
 11
-83.4680219087
 21
-33.7954388319
 31
0.0
 11
-83.4669988692
 21
-33.7940386191
 31
0.0
  0
SPLINE
  5
84B
100
AcDbEntity
  8
0
100
AcDbSpline
 62
7
  6
CONTINUOUS
 70
0
 71
3
 72
16
 73
12
 74
10
 42
0.0000001
 43
0.0000001
 44
0.0000000001
 12
-0.2921809006
 22
0.0
 32
0.0
 13
-0.2572868675
 23
0.1384671314
 33
0.0
 40
0.0
 40
0.0
 40
0.0
 40
0.0
 40
0.3231944809
 40
0.4788300277
 40
0.6262327453
 40
0.7605202635
 40
0.87455919
 40
0.9209498279
 40
0.9583005452
 40
0.9850511799
 40
1.0
 40
1.0
 40
1.0
 40
1.0
 10
-87.4481041646
 20
-40.5651780066
 30
0.0
 10
-87.4795812494
 20
-40.5651780066
 30
0.0
 10
-87.5262173275
 20
-40.5649131601
 30
0.0
 10
-87.5872005946
 20
-40.5639404645
 30
0.0
 10
-87.6297829236
 20
-40.5629147933
 30
0.0
 10
-87.6682975401
 20
-40.5615618341
 30
0.0
 10
-87.6969774731
 20
-40.5601324168
 30
0.0
 10
-87.7161733474
 20
-40.5586940908
 30
0.0
 10
-87.7269166769
 20
-40.5576868371
 30
0.0
 10
-87.7344736608
 20
-40.5565319595
 30
0.0
 10
-87.7385478061
 20
-40.5557522252
 30
0.0
 10
-87.7398298512
 20
-40.5550622518
 30
0.0
 11
-87.4481041646
 21
-40.5651780066
 31
0.0
 11
-87.5425336642
 21
-40.5646023057
 31
0.0
 11
-87.5880014104
 21
-40.5638643647
 31
0.0
 11
-87.6310565454
 21
-40.5628012259
 31
0.0
 11
-87.6702673583
 21
-40.561388672
 31
0.0
 11
-87.7035397376
 21
-40.5596079624
 31
0.0
 11
-87.7170552332
 21
-40.5585809667
 31
0.0
 11
-87.7279117702
 21
-40.5574706509
 31
0.0
 11
-87.7356380111
 21
-40.5562893629
 31
0.0
 11
-87.7398298512
 21
-40.5550622518
 31
0.0
  0
SPLINE
  5
84C
100
AcDbEntity
  8
0
100
AcDbSpline
 62
7
  6
CONTINUOUS
 70
0
 71
3
 72
17
 73
13
 74
11
 42
0.0000001
 43
0.0000001
 44
0.0000000001
 12
-0.1945561091
 22
0.0734285899
 32
0.0
 13
0.0
 23
0.2079515266
 33
0.0
 40
0.0
 40
0.0
 40
0.0
 40
0.0
 40
0.0083391131
 40
0.0254268186
 40
0.0517279431
 40
0.0870848286
 40
0.1832915439
 40
0.3097370377
 40
0.4608541111
 40
0.6304179471
 40
0.8122991892
 40
1.0
 40
1.0
 40
1.0
 40
1.0
 10
-83.4669988692
 20
-41.6524649473
 30
0.0
 10
-83.4675396777
 20
-41.6522608375
 30
0.0
 10
-83.4683324292
 20
-41.65039588
 30
0.0
 10
-83.46923103
 20
-41.6471158664
 30
0.0
 10
-83.4701661647
 20
-41.6416361014
 30
0.0
 10
-83.4715298405
 20
-41.6308320869
 30
0.0
 10
-83.4729859295
 20
-41.6129620604
 30
0.0
 10
-83.4744321675
 20
-41.5871106978
 30
0.0
 10
-83.4756053628
 20
-41.5561315861
 30
0.0
 10
-83.4764717282
 20
-41.5213075157
 30
0.0
 10
-83.4769976296
 20
-41.4839378904
 30
0.0
 10
-83.4771146241
 20
-41.4583194937
 30
0.0
 10
-83.4771146241
 20
-41.4453086036
 30
0.0
 11
-83.4669988692
 21
-41.6524649473
 31
0.0
 11
-83.4680219088
 21
-41.6510647325
 31
0.0
 11
-83.4690339896
 21
-41.647658496
 31
0.0
 11
-83.4700223065
 21
-41.6422791729
 31
0.0
 11
-83.4709757487
 21
-41.6349887358
 31
0.0
 11
-83.4727415201
 21
-41.6150604788
 31
0.0
 11
-83.4742649616
 21
-41.5888101147
 31
0.0
 11
-83.4754928731
 21
-41.5574090877
 31
0.0
 11
-83.4763892622
 21
-41.5221594248
 31
0.0
 11
-83.476932978
 21
-41.4843408511
 31
0.0
 11
-83.4771146241
 21
-41.4453086036
 31
0.0
  0
SPLINE
  5
84D
100
AcDbEntity
  8
0
100
AcDbSpline
 62
7
  6
CONTINUOUS
 70
0
 71
3
 72
11
 73
7
 74
5
 42
0.0000001
 43
0.0000001
 44
0.0000000001
 12
0.0108273506
 22
0.3100547545
 32
0.0
 13
0.3102437466
 23
0.0
 33
0.0
 40
0.0
 40
0.0
 40
0.0
 40
0.0
 40
0.2163533369
 40
0.4474759707
 40
0.7072885615
 40
1.0
 40
1.0
 40
1.0
 40
1.0
 10
-89.241932781
 20
9.0836144318
 30
0.0
 10
-89.2411519365
 20
9.105974892
 30
0.0
 10
-89.2310571888
 20
9.152300379
 30
0.0
 10
-89.1905996629
 20
9.2150662092
 30
0.0
 10
-89.1234830635
 20
9.263860636
 30
0.0
 10
-89.0655811237
 20
9.2767482168
 30
0.0
 10
-89.0353104926
 20
9.2767482168
 30
0.0
 11
-89.241932781
 21
9.0836144318
 31
0.0
 11
-89.2277666505
 21
9.1492247957
 31
0.0
 11
-89.189145642
 21
9.2096394609
 31
0.0
 11
-89.1239612978
 21
9.2570546972
 31
0.0
 11
-89.0353104926
 21
9.2767482168
 31
0.0
  0
SPLINE
  5
84E
100
AcDbEntity
  8
0
100
AcDbSpline
 62
7
  6
CONTINUOUS
 70
0
 71
3
 72
11
 73
7
 74
5
 42
0.0000001
 43
0.0000001
 44
0.0000000001
 12
-0.3102437468
 22
0.0
 32
0.0
 13
-0.0108273506
 23
0.3100547547
 33
0.0
 40
0.0
 40
0.0
 40
0.0
 40
0.0
 40
0.2927109388
 40
0.5525238961
 40
0.7836466025
 40
1.0
 40
1.0
 40
1.0
 40
1.0
 10
-89.0353104926
 20
-27.7232517832
 30
0.0
 10
-89.0655810721
 20
-27.7232517832
 30
0.0
 10
-89.1234829948
 20
-27.7103642307
 30
0.0
 10
-89.190599617
 20
-27.6615698333
 30
0.0
 10
-89.2310571825
 20
-27.5988039657
 30
0.0
 10
-89.2411519363
 20
-27.5524784647
 30
0.0
 10
-89.241932781
 20
-27.5301179982
 30
0.0
 11
-89.0353104926
 21
-27.7232517832
 31
0.0
 11
-89.123961154
 21
-27.7035583308
 31
0.0
 11
-89.1891456119
 21
-27.6561430575
 31
0.0
 11
-89.2277666427
 21
-27.5957283797
 31
0.0
 11
-89.241932781
 21
-27.5301179982
 31
0.0
  0
LINE
  5
84F
100
AcDbEntity
  8
0
100
AcDbLine
 62
253
  6
CONTINUOUS
 10
30.6838439918
 20
39.727473632
 11
30.6210440989
 21
39.6395960555
  0
LINE
  5
850
100
AcDbEntity
  8
0
100
AcDbLine
 62
253
  6
CONTINUOUS
 10
-88.0914209002
 20
39.6395960555
 11
-88.1542207931
 21
39.727473632
  0
LINE
  5
851
100
AcDbEntity
  8
0
100
AcDbLine
 62
253
  6
CONTINUOUS
 10
30.6210440989
 20
-58.0860996219
 11
30.6838439918
 21
-58.1739771984
  0
LINE
  5
852
100
AcDbEntity
  8
0
100
AcDbLine
 62
253
  6
CONTINUOUS
 10
-88.1542207931
 20
-58.1739771984
 11
-88.0914209002
 21
-58.0860996219
  0
LINE
  5
853
100
AcDbEntity
  8
0
100
AcDbLine
 62
7
  6
CONTINUOUS
 10
-67.6395476568
 20
-18.268892527
 11
-67.4396694914
 21
-18.4687706924
  0
LINE
  5
854
100
AcDbEntity
  8
0
100
AcDbLine
 62
7
  6
CONTINUOUS
 10
-72.3308291444
 20
-18.268892527
 11
-72.5307073098
 21
-18.4687706924
  0
LINE
  5
855
100
AcDbEntity
  8
0
100
AcDbLine
 62
7
  6
CONTINUOUS
 10
-72.3308291444
 20
-15.9776110394
 11
-72.5307073098
 21
-15.777732874
  0
LINE
  5
856
100
AcDbEntity
  8
0
100
AcDbLine
 62
7
  6
CONTINUOUS
 10
-67.6395476568
 20
-15.9776110394
 11
-67.4396694914
 21
-15.777732874
  0
LINE
  5
857
100
AcDbEntity
  8
0
100
AcDbLine
 62
7
  6
CONTINUOUS
 10
-67.6395476568
 20
-2.468892527
 11
-67.4396694914
 21
-2.6687706924
  0
LINE
  5
858
100
AcDbEntity
  8
0
100
AcDbLine
 62
7
  6
CONTINUOUS
 10
-67.6395476568
 20
-0.1776110394
 11
-67.4396694914
 21
0.022267126
  0
LINE
  5
859
100
AcDbEntity
  8
0
100
AcDbLine
 62
7
  6
CONTINUOUS
 10
-72.3308291444
 20
-0.1776110394
 11
-72.5307073098
 21
0.022267126
  0
LINE
  5
85A
100
AcDbEntity
  8
0
100
AcDbLine
 62
7
  6
CONTINUOUS
 10
-72.3308291444
 20
-2.468892527
 11
-72.5307073098
 21
-2.6687706924
  0
LINE
  5
85B
100
AcDbEntity
  8
0
100
AcDbLine
 62
7
  6
CONTINUOUS
 10
10.1691708556
 20
-0.1776110394
 11
9.9692926902
 21
0.022267126
  0
LINE
  5
85C
100
AcDbEntity
  8
0
100
AcDbLine
 62
7
  6
CONTINUOUS
 10
14.8604523432
 20
-0.1776110394
 11
15.0603305086
 21
0.022267126
  0
LINE
  5
85D
100
AcDbEntity
  8
0
100
AcDbLine
 62
7
  6
CONTINUOUS
 10
14.8604523432
 20
-2.468892527
 11
15.0603305086
 21
-2.6687706924
  0
LINE
  5
85E
100
AcDbEntity
  8
0
100
AcDbLine
 62
7
  6
CONTINUOUS
 10
10.1691708556
 20
-2.468892527
 11
9.9692926902
 21
-2.6687706924
  0
LINE
  5
85F
100
AcDbEntity
  8
0
100
AcDbLine
 62
7
  6
CONTINUOUS
 10
14.8604523432
 20
-18.268892527
 11
15.0603305086
 21
-18.4687706924
  0
LINE
  5
860
100
AcDbEntity
  8
0
100
AcDbLine
 62
7
  6
CONTINUOUS
 10
10.1691708556
 20
-18.268892527
 11
9.9692926902
 21
-18.4687706924
  0
LINE
  5
861
100
AcDbEntity
  8
0
100
AcDbLine
 62
7
  6
CONTINUOUS
 10
10.1691708556
 20
-15.9776110394
 11
9.9692926902
 21
-15.777732874
  0
LINE
  5
862
100
AcDbEntity
  8
0
100
AcDbLine
 62
7
  6
CONTINUOUS
 10
14.8604523432
 20
-15.9776110394
 11
15.0603305086
 21
-15.777732874
  0
LINE
  5
863
100
AcDbEntity
  8
0
100
AcDbLine
 62
253
  6
CONTINUOUS
 10
-87.9646312859
 20
-58.3105537069
 11
-87.9016401598
 21
-58.2232517832
  0
LINE
  5
864
100
AcDbEntity
  8
0
100
AcDbLine
 62
253
  6
CONTINUOUS
 10
-87.9016401598
 20
39.7767482168
 11
-87.9646312859
 21
39.8640501405
  0
LINE
  5
865
100
AcDbEntity
  8
0
100
AcDbLine
 62
253
  6
CONTINUOUS
 10
30.4942544846
 20
39.8640501405
 11
30.4312633585
 21
39.7767482168
  0
LINE
  5
866
100
AcDbEntity
  8
0
100
AcDbLine
 62
253
  6
CONTINUOUS
 10
30.4312633585
 20
-58.2232517832
 11
30.4942544846
 21
-58.3105537069
  0
SPLINE
  5
867
100
AcDbEntity
  8
0
100
AcDbSpline
 62
7
  6
CONTINUOUS
 70
0
 71
3
 72
11
 73
7
 74
5
 42
0.0000001
 43
0.0000001
 44
0.0000000001
 12
-0.0108273506
 22
-0.3100547545
 32
0.0
 13
-0.3102437466
 23
-0.0
 33
0.0
 40
0.0
 40
0.0
 40
0.0
 40
0.0
 40
0.2163533369
 40
0.4474759707
 40
0.7072885615
 40
1.0
 40
1.0
 40
1.0
 40
1.0
 10
31.7715559798
 20
-27.5301179982
 30
0.0
 10
31.7707751353
 20
-27.5524784584
 30
0.0
 10
31.7606803876
 20
-27.5988039454
 30
0.0
 10
31.7202228617
 20
-27.6615697756
 30
0.0
 10
31.6531062623
 20
-27.7103642024
 30
0.0
 10
31.5952043225
 20
-27.7232517832
 30
0.0
 10
31.5649336913
 20
-27.7232517832
 30
0.0
 11
31.7715559798
 21
-27.5301179982
 31
0.0
 11
31.7573898492
 21
-27.5957283621
 31
0.0
 11
31.7187688407
 21
-27.6561430273
 31
0.0
 11
31.6535844965
 21
-27.7035582636
 31
0.0
 11
31.5649336913
 21
-27.7232517832
 31
0.0
  0
SPLINE
  5
868
100
AcDbEntity
  8
0
100
AcDbSpline
 62
7
  6
CONTINUOUS
 70
0
 71
3
 72
11
 73
7
 74
5
 42
0.0000001
 43
0.0000001
 44
0.0000000001
 12
0.3102437468
 22
0.0
 32
0.0
 13
0.0108273506
 23
-0.3100547547
 33
0.0
 40
0.0
 40
0.0
 40
0.0
 40
0.0
 40
0.2927109388
 40
0.5525238961
 40
0.7836466025
 40
1.0
 40
1.0
 40
1.0
 40
1.0
 10
31.5649336913
 20
9.2767482168
 30
0.0
 10
31.5952042708
 20
9.2767482168
 30
0.0
 10
31.6531061936
 20
9.2638606643
 30
0.0
 10
31.7202228158
 20
9.215066267
 30
0.0
 10
31.7606803812
 20
9.1523003993
 30
0.0
 10
31.7707751351
 20
9.1059748983
 30
0.0
 10
31.7715559798
 20
9.0836144318
 30
0.0
 11
31.5649336913
 21
9.2767482168
 31
0.0
 11
31.6535843527
 21
9.2570547644
 31
0.0
 11
31.7187688107
 21
9.2096394911
 31
0.0
 11
31.7573898414
 21
9.1492248133
 31
0.0
 11
31.7715559798
 21
9.0836144318
 31
0.0
  0
ELLIPSE
  5
869
100
AcDbEntity
  8
0
100
AcDbEllipse
 62
7
  6
CONTINUOUS
 10
-52.2350055373
 20
-62.2999411263
 30
0.0
 11
-0.260018752
 21
-0.1501218965
 31
0.0
 40
0.9991880166
 41
-0.5232471051
 42
0.5232471051
  0
ELLIPSE
  5
86A
100
AcDbEntity
  8
0
100
AcDbEllipse
 62
7
  6
CONTINUOUS
 10
-52.2350055373
 20
-68.1465624401
 30
0.0
 11
-0.260018752
 21
0.1501218965
 31
0.0
 40
0.9991880166
 41
-0.5232471051
 42
0.5232471051
  0
ELLIPSE
  5
86B
100
AcDbEntity
  8
0
100
AcDbEllipse
 62
7
  6
CONTINUOUS
 10
-62.2353712639
 20
-68.1465624401
 30
0.0
 11
0.260018752
 21
0.1501218965
 31
0.0
 40
0.9991880166
 41
-0.5232471051
 42
0.5232471051
  0
ELLIPSE
  5
86C
100
AcDbEntity
  8
0
100
AcDbEllipse
 62
7
  6
CONTINUOUS
 10
-62.2353712639
 20
-62.2999411263
 30
0.0
 11
0.260018752
 21
-0.1501218965
 31
0.0
 40
0.9991880166
 41
-0.5232471051
 42
0.5232471051
  0
ELLIPSE
  5
86D
100
AcDbEntity
  8
0
100
AcDbEllipse
 62
7
  6
CONTINUOUS
 10
4.7649944627
 20
43.8534375599
 30
0.0
 11
-0.260018752
 21
0.1501218965
 31
0.0
 40
0.9991880166
 41
-0.5232471051
 42
0.5232471051
  0
ELLIPSE
  5
86E
100
AcDbEntity
  8
0
100
AcDbEllipse
 62
7
  6
CONTINUOUS
 10
4.7649944627
 20
49.7000588737
 30
0.0
 11
-0.260018752
 21
-0.1501218965
 31
0.0
 40
0.9991880166
 41
-0.5232471051
 42
0.5232471051
  0
ELLIPSE
  5
86F
100
AcDbEntity
  8
0
100
AcDbEllipse
 62
7
  6
CONTINUOUS
 10
-5.2353712639
 20
49.7000588737
 30
0.0
 11
0.260018752
 21
-0.1501218965
 31
0.0
 40
0.9991880166
 41
-0.5232471051
 42
0.5232471051
  0
ELLIPSE
  5
870
100
AcDbEntity
  8
0
100
AcDbEllipse
 62
7
  6
CONTINUOUS
 10
-5.2353712639
 20
43.8534375599
 30
0.0
 11
0.260018752
 21
0.1501218965
 31
0.0
 40
0.9991880166
 41
-0.5232471051
 42
0.5232471051
  0
ELLIPSE
  5
871
100
AcDbEntity
  8
0
100
AcDbEllipse
 62
7
  6
CONTINUOUS
 10
-62.2353712639
 20
49.7000588737
 30
0.0
 11
0.260018752
 21
-0.1501218965
 31
0.0
 40
0.9991880166
 41
-0.5232471051
 42
0.5232471051
  0
ELLIPSE
  5
872
100
AcDbEntity
  8
0
100
AcDbEllipse
 62
7
  6
CONTINUOUS
 10
-62.2353712639
 20
43.8534375599
 30
0.0
 11
0.260018752
 21
0.1501218965
 31
0.0
 40
0.9991880166
 41
-0.5232471051
 42
0.5232471051
  0
ELLIPSE
  5
873
100
AcDbEntity
  8
0
100
AcDbEllipse
 62
7
  6
CONTINUOUS
 10
-52.2350055373
 20
43.8534375599
 30
0.0
 11
-0.260018752
 21
0.1501218965
 31
0.0
 40
0.9991880166
 41
-0.5232471051
 42
0.5232471051
  0
ELLIPSE
  5
874
100
AcDbEntity
  8
0
100
AcDbEllipse
 62
7
  6
CONTINUOUS
 10
-52.2350055373
 20
49.7000588737
 30
0.0
 11
-0.260018752
 21
-0.1501218965
 31
0.0
 40
0.9991880166
 41
-0.5232471051
 42
0.5232471051
  0
ELLIPSE
  5
875
100
AcDbEntity
  8
0
100
AcDbEllipse
 62
7
  6
CONTINUOUS
 10
4.7649944627
 20
-68.1465624401
 30
0.0
 11
-0.260018752
 21
0.1501218965
 31
0.0
 40
0.9991880166
 41
-0.5232471051
 42
0.5232471051
  0
ELLIPSE
  5
876
100
AcDbEntity
  8
0
100
AcDbEllipse
 62
7
  6
CONTINUOUS
 10
4.7649944627
 20
-62.2999411263
 30
0.0
 11
-0.260018752
 21
-0.1501218965
 31
0.0
 40
0.9991880166
 41
-0.5232471051
 42
0.5232471051
  0
ELLIPSE
  5
877
100
AcDbEntity
  8
0
100
AcDbEllipse
 62
7
  6
CONTINUOUS
 10
-5.2353712639
 20
-68.1465624401
 30
0.0
 11
0.260018752
 21
0.1501218965
 31
0.0
 40
0.9991880166
 41
-0.5232471051
 42
0.5232471051
  0
ELLIPSE
  5
878
100
AcDbEntity
  8
0
100
AcDbEllipse
 62
7
  6
CONTINUOUS
 10
-5.2353712639
 20
-62.2999411263
 30
0.0
 11
0.260018752
 21
-0.1501218965
 31
0.0
 40
0.9991880166
 41
-0.5232471051
 42
0.5232471051
  0
ELLIPSE
  5
879
100
AcDbEntity
  8
0
100
AcDbEllipse
 62
7
  6
CONTINUOUS
 10
27.2648115994
 20
26.4860840968
 30
0.0
 11
0.0
 21
10.8195005171
 31
0.0
 40
0.7456587883
 41
-2.7599660442
 42
-2.7521477524
  0
ELLIPSE
  5
87A
100
AcDbEntity
  8
0
100
AcDbEllipse
 62
7
  6
CONTINUOUS
 10
27.2648115994
 20
12.0674123368
 30
0.0
 11
-0.0
 21
10.8195005171
 31
0.0
 40
0.7456587883
 41
-0.3894449012
 42
-0.3816266094
  0
ELLIPSE
  5
87B
100
AcDbEntity
  8
0
100
AcDbEllipse
 62
7
  6
CONTINUOUS
 10
23.3294832224
 20
19.2767482168
 30
0.0
 11
5.9059930233
 21
0.0
 31
0.0
 40
0.7456587883
 41
1.1022399642
 42
1.1082675758
  0
ELLIPSE
  5
87C
100
AcDbEntity
  8
0
100
AcDbEllipse
 62
7
  6
CONTINUOUS
 10
23.3294832224
 20
19.2767482168
 30
0.0
 11
5.9059930233
 21
0.0
 31
0.0
 40
0.7456587883
 41
-1.1082675758
 42
-1.1022399642
  0
ELLIPSE
  5
87D
100
AcDbEntity
  8
0
100
AcDbEllipse
 62
7
  6
CONTINUOUS
 10
27.2648115994
 20
-30.5139159032
 30
0.0
 11
0.0
 21
10.8195005171
 31
0.0
 40
0.7456587883
 41
-2.7599660442
 42
-2.7521477524
  0
ELLIPSE
  5
87E
100
AcDbEntity
  8
0
100
AcDbEllipse
 62
7
  6
CONTINUOUS
 10
27.2648115994
 20
-44.9325876632
 30
0.0
 11
-0.0
 21
10.8195005171
 31
0.0
 40
0.7456587883
 41
-0.3894449012
 42
-0.3816266094
  0
ELLIPSE
  5
87F
100
AcDbEntity
  8
0
100
AcDbEllipse
 62
7
  6
CONTINUOUS
 10
23.3294832224
 20
-37.7232517832
 30
0.0
 11
5.9059930233
 21
-0.0
 31
0.0
 40
0.7456587883
 41
1.1022399642
 42
1.1082675758
  0
ELLIPSE
  5
880
100
AcDbEntity
  8
0
100
AcDbEllipse
 62
7
  6
CONTINUOUS
 10
23.3294832224
 20
-37.7232517832
 30
0.0
 11
5.9059930233
 21
0.0
 31
0.0
 40
0.7456587883
 41
-1.1082675758
 42
-1.1022399642
  0
ELLIPSE
  5
881
100
AcDbEntity
  8
0
100
AcDbEllipse
 62
7
  6
CONTINUOUS
 10
-84.7351884006
 20
12.0674123368
 30
0.0
 11
-0.0
 21
10.8195005171
 31
0.0
 40
0.7456587883
 41
0.3816266094
 42
0.3894449012
  0
ELLIPSE
  5
882
100
AcDbEntity
  8
0
100
AcDbEllipse
 62
7
  6
CONTINUOUS
 10
-84.7351884006
 20
26.4860840968
 30
0.0
 11
0.0
 21
10.8195005171
 31
0.0
 40
0.7456587883
 41
-3.5310375548
 42
-3.523219263
  0
ELLIPSE
  5
883
100
AcDbEntity
  8
0
100
AcDbEllipse
 62
7
  6
CONTINUOUS
 10
-80.7998600237
 20
19.2767482168
 30
0.0
 11
5.9059930233
 21
0.0
 31
0.0
 40
0.7456587883
 41
-2.0393526894
 42
-2.0333250778
  0
ELLIPSE
  5
884
100
AcDbEntity
  8
0
100
AcDbEllipse
 62
7
  6
CONTINUOUS
 10
-80.7998600237
 20
19.2767482168
 30
0.0
 11
5.9059930233
 21
-0.0
 31
0.0
 40
0.7456587883
 41
2.0333250778
 42
2.0393526894
  0
ELLIPSE
  5
885
100
AcDbEntity
  8
0
100
AcDbEllipse
 62
7
  6
CONTINUOUS
 10
-84.7351884006
 20
-44.9325876632
 30
0.0
 11
-0.0
 21
10.8195005171
 31
0.0
 40
0.7456587883
 41
0.3816266094
 42
0.3894449012
  0
ELLIPSE
  5
886
100
AcDbEntity
  8
0
100
AcDbEllipse
 62
7
  6
CONTINUOUS
 10
-84.7351884006
 20
-30.5139159032
 30
0.0
 11
0.0
 21
10.8195005171
 31
0.0
 40
0.7456587883
 41
-3.5310375548
 42
-3.523219263
  0
ELLIPSE
  5
887
100
AcDbEntity
  8
0
100
AcDbEllipse
 62
7
  6
CONTINUOUS
 10
-80.7998600237
 20
-37.7232517832
 30
0.0
 11
5.9059930233
 21
-0.0
 31
0.0
 40
0.7456587883
 41
-2.0393526894
 42
-2.0333250778
  0
ELLIPSE
  5
888
100
AcDbEntity
  8
0
100
AcDbEllipse
 62
7
  6
CONTINUOUS
 10
-80.7998600237
 20
-37.7232517832
 30
0.0
 11
5.9059930233
 21
-0.0
 31
0.0
 40
0.7456587883
 41
2.0333250778
 42
2.0393526894
  0
ELLIPSE
  5
889
100
AcDbEntity
  8
0
100
AcDbEllipse
 62
7
  6
CONTINUOUS
 10
-58.5353712639
 20
-61.0234346465
 30
0.0
 11
0.2123905634
 21
0.2123905634
 31
0.0
 40
0.998782766
 41
-0.7847891758
 42
0.7847891758
  0
ELLIPSE
  5
88A
100
AcDbEntity
  8
0
100
AcDbEllipse
 62
7
  6
CONTINUOUS
 10
-58.9350055373
 20
-61.0234346465
 30
0.0
 11
0.2123905634
 21
-0.2123905634
 31
0.0
 40
0.998782766
 41
2.3568034778
 42
3.9263818294
  0
ELLIPSE
  5
88B
100
AcDbEntity
  8
0
100
AcDbEllipse
 62
7
  6
CONTINUOUS
 10
-58.9350055373
 20
-69.4230689199
 30
0.0
 11
0.2123905634
 21
0.2123905634
 31
0.0
 40
0.998782766
 41
-3.9263818294
 42
-2.3568034778
  0
ELLIPSE
  5
88C
100
AcDbEntity
  8
0
100
AcDbEllipse
 62
7
  6
CONTINUOUS
 10
-58.5353712639
 20
-69.4230689199
 30
0.0
 11
0.2123905634
 21
-0.2123905634
 31
0.0
 40
0.998782766
 41
-0.7847891758
 42
0.7847891758
  0
ELLIPSE
  5
88D
100
AcDbEntity
  8
0
100
AcDbEllipse
 62
7
  6
CONTINUOUS
 10
-61.0353712639
 20
-61.0234346465
 30
0.0
 11
0.2123905634
 21
0.2123905634
 31
0.0
 40
0.998782766
 41
-0.7847891758
 42
0.7847891758
  0
ELLIPSE
  5
88E
100
AcDbEntity
  8
0
100
AcDbEllipse
 62
7
  6
CONTINUOUS
 10
-61.6350055373
 20
-61.0234346465
 30
0.0
 11
0.2123905634
 21
-0.2123905634
 31
0.0
 40
0.998782766
 41
2.3568034778
 42
3.9263818294
  0
ELLIPSE
  5
88F
100
AcDbEntity
  8
0
100
AcDbEllipse
 62
7
  6
CONTINUOUS
 10
-62.8350055373
 20
-63.3393827631
 30
0.0
 11
0.260018752
 21
-0.1501218965
 31
0.0
 40
0.9991880166
 41
2.6183455485
 42
3.6648397587
  0
ELLIPSE
  5
890
100
AcDbEntity
  8
0
100
AcDbEllipse
 62
7
  6
CONTINUOUS
 10
-62.8350055373
 20
-67.1071208032
 30
0.0
 11
0.260018752
 21
0.1501218965
 31
0.0
 40
0.9991880166
 41
2.6183455485
 42
3.6648397587
  0
ELLIPSE
  5
891
100
AcDbEntity
  8
0
100
AcDbEllipse
 62
7
  6
CONTINUOUS
 10
-61.0353712639
 20
-69.4230689199
 30
0.0
 11
0.2123905634
 21
-0.2123905634
 31
0.0
 40
0.998782766
 41
-0.7847891758
 42
0.7847891758
  0
ELLIPSE
  5
892
100
AcDbEntity
  8
0
100
AcDbEllipse
 62
7
  6
CONTINUOUS
 10
-61.6350055373
 20
-69.4230689199
 30
0.0
 11
0.2123905634
 21
0.2123905634
 31
0.0
 40
0.998782766
 41
-3.9263818294
 42
-2.3568034778
  0
ELLIPSE
  5
893
100
AcDbEntity
  8
0
100
AcDbEllipse
 62
7
  6
CONTINUOUS
 10
-53.4350055373
 20
-69.4230689199
 30
0.0
 11
0.2123905634
 21
0.2123905634
 31
0.0
 40
0.998782766
 41
-3.9263818294
 42
-2.3568034778
  0
ELLIPSE
  5
894
100
AcDbEntity
  8
0
100
AcDbEllipse
 62
7
  6
CONTINUOUS
 10
-52.8353712639
 20
-69.4230689199
 30
0.0
 11
0.2123905634
 21
-0.2123905634
 31
0.0
 40
0.998782766
 41
-0.7847891758
 42
0.7847891758
  0
ELLIPSE
  5
895
100
AcDbEntity
  8
0
100
AcDbEllipse
 62
7
  6
CONTINUOUS
 10
-51.6353712639
 20
-67.1071208032
 30
0.0
 11
0.260018752
 21
-0.1501218965
 31
0.0
 40
0.9991880166
 41
-0.5232471051
 42
0.5232471051
  0
ELLIPSE
  5
896
100
AcDbEntity
  8
0
100
AcDbEllipse
 62
7
  6
CONTINUOUS
 10
-51.6353712639
 20
-63.3393827631
 30
0.0
 11
0.260018752
 21
0.1501218965
 31
0.0
 40
0.9991880166
 41
-0.5232471051
 42
0.5232471051
  0
ELLIPSE
  5
897
100
AcDbEntity
  8
0
100
AcDbEllipse
 62
7
  6
CONTINUOUS
 10
-52.8353712639
 20
-61.0234346465
 30
0.0
 11
0.2123905634
 21
0.2123905634
 31
0.0
 40
0.998782766
 41
-0.7847891758
 42
0.7847891758
  0
ELLIPSE
  5
898
100
AcDbEntity
  8
0
100
AcDbEllipse
 62
7
  6
CONTINUOUS
 10
-53.4350055373
 20
-61.0234346465
 30
0.0
 11
0.2123905634
 21
-0.2123905634
 31
0.0
 40
0.998782766
 41
2.3568034778
 42
3.9263818294
  0
ELLIPSE
  5
899
100
AcDbEntity
  8
0
100
AcDbEllipse
 62
7
  6
CONTINUOUS
 10
-55.5353712639
 20
-61.0234346465
 30
0.0
 11
0.2123905634
 21
0.2123905634
 31
0.0
 40
0.998782766
 41
-0.7847891758
 42
0.7847891758
  0
ELLIPSE
  5
89A
100
AcDbEntity
  8
0
100
AcDbEllipse
 62
7
  6
CONTINUOUS
 10
-55.9350055373
 20
-61.0234346465
 30
0.0
 11
0.2123905634
 21
-0.2123905634
 31
0.0
 40
0.998782766
 41
2.3568034778
 42
3.9263818294
  0
ELLIPSE
  5
89B
100
AcDbEntity
  8
0
100
AcDbEllipse
 62
7
  6
CONTINUOUS
 10
-55.9350055373
 20
-69.4230689199
 30
0.0
 11
0.2123905634
 21
0.2123905634
 31
0.0
 40
0.998782766
 41
-3.9263818294
 42
-2.3568034778
  0
ELLIPSE
  5
89C
100
AcDbEntity
  8
0
100
AcDbEllipse
 62
7
  6
CONTINUOUS
 10
-55.5353712639
 20
-69.4230689199
 30
0.0
 11
0.2123905634
 21
-0.2123905634
 31
0.0
 40
0.998782766
 41
-0.7847891758
 42
0.7847891758
  0
ELLIPSE
  5
89D
100
AcDbEntity
  8
0
100
AcDbEllipse
 62
7
  6
CONTINUOUS
 10
5.3646287361
 20
-67.1071208032
 30
0.0
 11
0.260018752
 21
-0.1501218965
 31
0.0
 40
0.9991880166
 41
-0.5232471051
 42
0.5232471051
  0
ELLIPSE
  5
89E
100
AcDbEntity
  8
0
100
AcDbEllipse
 62
7
  6
CONTINUOUS
 10
4.1646287361
 20
-69.4230689199
 30
0.0
 11
0.2123905634
 21
-0.2123905634
 31
0.0
 40
0.998782766
 41
-0.7847891758
 42
0.7847891758
  0
ELLIPSE
  5
89F
100
AcDbEntity
  8
0
100
AcDbEllipse
 62
7
  6
CONTINUOUS
 10
1.4646287361
 20
-69.4230689199
 30
0.0
 11
0.2123905634
 21
-0.2123905634
 31
0.0
 40
0.998782766
 41
-0.7847891758
 42
0.7847891758
  0
ELLIPSE
  5
8A0
100
AcDbEntity
  8
0
100
AcDbEllipse
 62
7
  6
CONTINUOUS
 10
-1.5353712639
 20
-69.4230689199
 30
0.0
 11
0.2123905634
 21
-0.2123905634
 31
0.0
 40
0.998782766
 41
-0.7847891758
 42
0.7847891758
  0
ELLIPSE
  5
8A1
100
AcDbEntity
  8
0
100
AcDbEllipse
 62
7
  6
CONTINUOUS
 10
-4.0353712639
 20
-61.0234346465
 30
0.0
 11
0.2123905634
 21
0.2123905634
 31
0.0
 40
0.998782766
 41
-0.7847891758
 42
0.7847891758
  0
ELLIPSE
  5
8A2
100
AcDbEntity
  8
0
100
AcDbEllipse
 62
7
  6
CONTINUOUS
 10
-4.6350055373
 20
-61.0234346465
 30
0.0
 11
0.2123905634
 21
-0.2123905634
 31
0.0
 40
0.998782766
 41
2.3568034778
 42
3.9263818294
  0
ELLIPSE
  5
8A3
100
AcDbEntity
  8
0
100
AcDbEllipse
 62
7
  6
CONTINUOUS
 10
-5.8350055373
 20
-63.3393827631
 30
0.0
 11
0.260018752
 21
-0.1501218965
 31
0.0
 40
0.9991880166
 41
2.6183455485
 42
3.6648397587
  0
ELLIPSE
  5
8A4
100
AcDbEntity
  8
0
100
AcDbEllipse
 62
7
  6
CONTINUOUS
 10
-5.8350055373
 20
-67.1071208032
 30
0.0
 11
0.260018752
 21
0.1501218965
 31
0.0
 40
0.9991880166
 41
2.6183455485
 42
3.6648397587
  0
ELLIPSE
  5
8A5
100
AcDbEntity
  8
0
100
AcDbEllipse
 62
7
  6
CONTINUOUS
 10
-4.6350055373
 20
-69.4230689199
 30
0.0
 11
0.2123905634
 21
0.2123905634
 31
0.0
 40
0.998782766
 41
2.3568034778
 42
3.9263818294
  0
ELLIPSE
  5
8A6
100
AcDbEntity
  8
0
100
AcDbEllipse
 62
7
  6
CONTINUOUS
 10
-4.0353712639
 20
-69.4230689199
 30
0.0
 11
0.2123905634
 21
-0.2123905634
 31
0.0
 40
0.998782766
 41
-0.7847891758
 42
0.7847891758
  0
ELLIPSE
  5
8A7
100
AcDbEntity
  8
0
100
AcDbEllipse
 62
7
  6
CONTINUOUS
 10
5.3646287361
 20
-63.3393827631
 30
0.0
 11
0.260018752
 21
0.1501218965
 31
0.0
 40
0.9991880166
 41
-0.5232471051
 42
0.5232471051
  0
ELLIPSE
  5
8A8
100
AcDbEntity
  8
0
100
AcDbEllipse
 62
7
  6
CONTINUOUS
 10
4.1646287361
 20
-61.0234346465
 30
0.0
 11
0.2123905634
 21
0.2123905634
 31
0.0
 40
0.998782766
 41
-0.7847891758
 42
0.7847891758
  0
ELLIPSE
  5
8A9
100
AcDbEntity
  8
0
100
AcDbEllipse
 62
7
  6
CONTINUOUS
 10
3.5649944627
 20
-61.0234346465
 30
0.0
 11
0.2123905634
 21
-0.2123905634
 31
0.0
 40
0.998782766
 41
2.3568034778
 42
3.9263818294
  0
ELLIPSE
  5
8AA
100
AcDbEntity
  8
0
100
AcDbEllipse
 62
7
  6
CONTINUOUS
 10
3.5649944627
 20
-69.4230689199
 30
0.0
 11
0.2123905634
 21
0.2123905634
 31
0.0
 40
0.998782766
 41
-3.9263818294
 42
-2.3568034778
  0
ELLIPSE
  5
8AB
100
AcDbEntity
  8
0
100
AcDbEllipse
 62
7
  6
CONTINUOUS
 10
1.0649944627
 20
-69.4230689199
 30
0.0
 11
0.2123905634
 21
0.2123905634
 31
0.0
 40
0.998782766
 41
-3.9263818294
 42
-2.3568034778
  0
ELLIPSE
  5
8AC
100
AcDbEntity
  8
0
100
AcDbEllipse
 62
7
  6
CONTINUOUS
 10
1.4646287361
 20
-61.0234346465
 30
0.0
 11
0.2123905634
 21
0.2123905634
 31
0.0
 40
0.998782766
 41
-0.7847891758
 42
0.7847891758
  0
ELLIPSE
  5
8AD
100
AcDbEntity
  8
0
100
AcDbEllipse
 62
7
  6
CONTINUOUS
 10
1.0649944627
 20
-61.0234346465
 30
0.0
 11
0.2123905634
 21
-0.2123905634
 31
0.0
 40
0.998782766
 41
2.3568034778
 42
3.9263818294
  0
ELLIPSE
  5
8AE
100
AcDbEntity
  8
0
100
AcDbEllipse
 62
7
  6
CONTINUOUS
 10
-1.5353712639
 20
-61.0234346465
 30
0.0
 11
0.2123905634
 21
0.2123905634
 31
0.0
 40
0.998782766
 41
-0.7847891758
 42
0.7847891758
  0
ELLIPSE
  5
8AF
100
AcDbEntity
  8
0
100
AcDbEllipse
 62
7
  6
CONTINUOUS
 10
-1.9350055373
 20
-61.0234346465
 30
0.0
 11
0.2123905634
 21
-0.2123905634
 31
0.0
 40
0.998782766
 41
2.3568034778
 42
3.9263818294
  0
ELLIPSE
  5
8B0
100
AcDbEntity
  8
0
100
AcDbEllipse
 62
7
  6
CONTINUOUS
 10
-1.9350055373
 20
-69.4230689199
 30
0.0
 11
0.2123905634
 21
0.2123905634
 31
0.0
 40
0.998782766
 41
2.3568034778
 42
3.9263818294
  0
ELLIPSE
  5
8B1
100
AcDbEntity
  8
0
100
AcDbEllipse
 62
7
  6
CONTINUOUS
 10
-1.5353712639
 20
50.9765653535
 30
0.0
 11
0.2123905634
 21
0.2123905634
 31
0.0
 40
0.998782766
 41
-0.7847891758
 42
0.7847891758
  0
ELLIPSE
  5
8B2
100
AcDbEntity
  8
0
100
AcDbEllipse
 62
7
  6
CONTINUOUS
 10
-1.9350055373
 20
50.9765653535
 30
0.0
 11
0.2123905634
 21
-0.2123905634
 31
0.0
 40
0.998782766
 41
2.3568034778
 42
3.9263818294
  0
ELLIPSE
  5
8B3
100
AcDbEntity
  8
0
100
AcDbEllipse
 62
7
  6
CONTINUOUS
 10
-1.5353712639
 20
42.5769310801
 30
0.0
 11
0.2123905634
 21
-0.2123905634
 31
0.0
 40
0.998782766
 41
-0.7847891758
 42
0.7847891758
  0
ELLIPSE
  5
8B4
100
AcDbEntity
  8
0
100
AcDbEllipse
 62
7
  6
CONTINUOUS
 10
-1.9350055373
 20
42.5769310801
 30
0.0
 11
0.2123905634
 21
0.2123905634
 31
0.0
 40
0.998782766
 41
2.3568034778
 42
3.9263818294
  0
ELLIPSE
  5
8B5
100
AcDbEntity
  8
0
100
AcDbEllipse
 62
7
  6
CONTINUOUS
 10
-5.8350055373
 20
44.8928791968
 30
0.0
 11
0.260018752
 21
0.1501218965
 31
0.0
 40
0.9991880166
 41
2.6183455485
 42
3.6648397587
  0
ELLIPSE
  5
8B6
100
AcDbEntity
  8
0
100
AcDbEllipse
 62
7
  6
CONTINUOUS
 10
-4.6350055373
 20
42.5769310801
 30
0.0
 11
0.2123905634
 21
0.2123905634
 31
0.0
 40
0.998782766
 41
2.3568034778
 42
3.9263818294
  0
ELLIPSE
  5
8B7
100
AcDbEntity
  8
0
100
AcDbEllipse
 62
7
  6
CONTINUOUS
 10
-4.0353712639
 20
42.5769310801
 30
0.0
 11
-0.2123905634
 21
0.2123905634
 31
0.0
 40
0.998782766
 41
-3.9263818294
 42
-2.3568034778
  0
ELLIPSE
  5
8B8
100
AcDbEntity
  8
0
100
AcDbEllipse
 62
7
  6
CONTINUOUS
 10
-5.8350055373
 20
48.6606172369
 30
0.0
 11
0.260018752
 21
-0.1501218965
 31
0.0
 40
0.9991880166
 41
2.6183455485
 42
3.6648397587
  0
ELLIPSE
  5
8B9
100
AcDbEntity
  8
0
100
AcDbEllipse
 62
7
  6
CONTINUOUS
 10
-4.0353712639
 20
50.9765653535
 30
0.0
 11
0.2123905634
 21
0.2123905634
 31
0.0
 40
0.998782766
 41
-0.7847891758
 42
0.7847891758
  0
ELLIPSE
  5
8BA
100
AcDbEntity
  8
0
100
AcDbEllipse
 62
7
  6
CONTINUOUS
 10
-4.6350055373
 20
50.9765653535
 30
0.0
 11
0.2123905634
 21
-0.2123905634
 31
0.0
 40
0.998782766
 41
2.3568034778
 42
3.9263818294
  0
ELLIPSE
  5
8BB
100
AcDbEntity
  8
0
100
AcDbEllipse
 62
7
  6
CONTINUOUS
 10
4.1646287361
 20
50.9765653535
 30
0.0
 11
0.2123905634
 21
0.2123905634
 31
0.0
 40
0.998782766
 41
-0.7847891758
 42
0.7847891758
  0
ELLIPSE
  5
8BC
100
AcDbEntity
  8
0
100
AcDbEllipse
 62
7
  6
CONTINUOUS
 10
5.3646287361
 20
48.6606172369
 30
0.0
 11
0.260018752
 21
0.1501218965
 31
0.0
 40
0.9991880166
 41
-0.5232471051
 42
0.5232471051
  0
ELLIPSE
  5
8BD
100
AcDbEntity
  8
0
100
AcDbEllipse
 62
7
  6
CONTINUOUS
 10
5.3646287361
 20
44.8928791968
 30
0.0
 11
0.260018752
 21
-0.1501218965
 31
0.0
 40
0.9991880166
 41
-0.5232471051
 42
0.5232471051
  0
ELLIPSE
  5
8BE
100
AcDbEntity
  8
0
100
AcDbEllipse
 62
7
  6
CONTINUOUS
 10
4.1646287361
 20
42.5769310801
 30
0.0
 11
0.2123905634
 21
-0.2123905634
 31
0.0
 40
0.998782766
 41
-0.7847891758
 42
0.7847891758
  0
ELLIPSE
  5
8BF
100
AcDbEntity
  8
0
100
AcDbEllipse
 62
7
  6
CONTINUOUS
 10
3.5649944627
 20
42.5769310801
 30
0.0
 11
0.2123905634
 21
0.2123905634
 31
0.0
 40
0.998782766
 41
2.3568034778
 42
3.9263818294
  0
ELLIPSE
  5
8C0
100
AcDbEntity
  8
0
100
AcDbEllipse
 62
7
  6
CONTINUOUS
 10
3.5649944627
 20
50.9765653535
 30
0.0
 11
-0.2123905634
 21
0.2123905634
 31
0.0
 40
0.998782766
 41
-0.7847891758
 42
0.7847891758
  0
ELLIPSE
  5
8C1
100
AcDbEntity
  8
0
100
AcDbEllipse
 62
7
  6
CONTINUOUS
 10
1.4646287361
 20
50.9765653535
 30
0.0
 11
0.2123905634
 21
0.2123905634
 31
0.0
 40
0.998782766
 41
-0.7847891758
 42
0.7847891758
  0
ELLIPSE
  5
8C2
100
AcDbEntity
  8
0
100
AcDbEllipse
 62
7
  6
CONTINUOUS
 10
1.0649944627
 20
50.9765653535
 30
0.0
 11
-0.2123905634
 21
0.2123905634
 31
0.0
 40
0.998782766
 41
-0.7847891758
 42
0.7847891758
  0
ELLIPSE
  5
8C3
100
AcDbEntity
  8
0
100
AcDbEllipse
 62
7
  6
CONTINUOUS
 10
1.4646287361
 20
42.5769310801
 30
0.0
 11
-0.2123905634
 21
0.2123905634
 31
0.0
 40
0.998782766
 41
-3.9263818294
 42
-2.3568034778
  0
ELLIPSE
  5
8C4
100
AcDbEntity
  8
0
100
AcDbEllipse
 62
7
  6
CONTINUOUS
 10
1.0649944627
 20
42.5769310801
 30
0.0
 11
0.2123905634
 21
0.2123905634
 31
0.0
 40
0.998782766
 41
-3.9263818294
 42
-2.3568034778
  0
ELLIPSE
  5
8C5
100
AcDbEntity
  8
0
100
AcDbEllipse
 62
7
  6
CONTINUOUS
 10
-55.9350055373
 20
50.9765653535
 30
0.0
 11
0.2123905634
 21
-0.2123905634
 31
0.0
 40
0.998782766
 41
2.3568034778
 42
3.9263818294
  0
ELLIPSE
  5
8C6
100
AcDbEntity
  8
0
100
AcDbEllipse
 62
7
  6
CONTINUOUS
 10
-55.5353712639
 20
50.9765653535
 30
0.0
 11
0.2123905634
 21
0.2123905634
 31
0.0
 40
0.998782766
 41
-0.7847891758
 42
0.7847891758
  0
ELLIPSE
  5
8C7
100
AcDbEntity
  8
0
100
AcDbEllipse
 62
7
  6
CONTINUOUS
 10
-55.9350055373
 20
42.5769310801
 30
0.0
 11
0.2123905634
 21
0.2123905634
 31
0.0
 40
0.998782766
 41
-3.9263818294
 42
-2.3568034778
  0
ELLIPSE
  5
8C8
100
AcDbEntity
  8
0
100
AcDbEllipse
 62
7
  6
CONTINUOUS
 10
-55.5353712639
 20
42.5769310801
 30
0.0
 11
0.2123905634
 21
-0.2123905634
 31
0.0
 40
0.998782766
 41
-0.7847891758
 42
0.7847891758
  0
ELLIPSE
  5
8C9
100
AcDbEntity
  8
0
100
AcDbEllipse
 62
7
  6
CONTINUOUS
 10
-51.6353712639
 20
44.8928791968
 30
0.0
 11
0.260018752
 21
-0.1501218965
 31
0.0
 40
0.9991880166
 41
-0.5232471051
 42
0.5232471051
  0
ELLIPSE
  5
8CA
100
AcDbEntity
  8
0
100
AcDbEllipse
 62
7
  6
CONTINUOUS
 10
-53.4350055373
 20
42.5769310801
 30
0.0
 11
0.2123905634
 21
0.2123905634
 31
0.0
 40
0.998782766
 41
-3.9263818294
 42
-2.3568034778
  0
ELLIPSE
  5
8CB
100
AcDbEntity
  8
0
100
AcDbEllipse
 62
7
  6
CONTINUOUS
 10
-53.4350055373
 20
50.9765653535
 30
0.0
 11
0.2123905634
 21
-0.2123905634
 31
0.0
 40
0.998782766
 41
2.3568034778
 42
3.9263818294
  0
ELLIPSE
  5
8CC
100
AcDbEntity
  8
0
100
AcDbEllipse
 62
7
  6
CONTINUOUS
 10
-52.8353712639
 20
50.9765653535
 30
0.0
 11
0.2123905634
 21
0.2123905634
 31
0.0
 40
0.998782766
 41
-0.7847891758
 42
0.7847891758
  0
ELLIPSE
  5
8CD
100
AcDbEntity
  8
0
100
AcDbEllipse
 62
7
  6
CONTINUOUS
 10
-51.6353712639
 20
48.6606172369
 30
0.0
 11
0.260018752
 21
0.1501218965
 31
0.0
 40
0.9991880166
 41
-0.5232471051
 42
0.5232471051
  0
ELLIPSE
  5
8CE
100
AcDbEntity
  8
0
100
AcDbEllipse
 62
7
  6
CONTINUOUS
 10
-52.8353712639
 20
42.5769310801
 30
0.0
 11
0.2123905634
 21
-0.2123905634
 31
0.0
 40
0.998782766
 41
-0.7847891758
 42
0.7847891758
  0
ELLIPSE
  5
8CF
100
AcDbEntity
  8
0
100
AcDbEllipse
 62
7
  6
CONTINUOUS
 10
-62.8350055373
 20
44.8928791968
 30
0.0
 11
0.260018752
 21
0.1501218965
 31
0.0
 40
0.9991880166
 41
2.6183455485
 42
3.6648397587
  0
ELLIPSE
  5
8D0
100
AcDbEntity
  8
0
100
AcDbEllipse
 62
7
  6
CONTINUOUS
 10
-62.8350055373
 20
48.6606172369
 30
0.0
 11
0.260018752
 21
-0.1501218965
 31
0.0
 40
0.9991880166
 41
2.6183455485
 42
3.6648397587
  0
ELLIPSE
  5
8D1
100
AcDbEntity
  8
0
100
AcDbEllipse
 62
7
  6
CONTINUOUS
 10
-61.0353712639
 20
42.5769310801
 30
0.0
 11
0.2123905634
 21
-0.2123905634
 31
0.0
 40
0.998782766
 41
-0.7847891758
 42
0.7847891758
  0
ELLIPSE
  5
8D2
100
AcDbEntity
  8
0
100
AcDbEllipse
 62
7
  6
CONTINUOUS
 10
-61.6350055373
 20
42.5769310801
 30
0.0
 11
0.2123905634
 21
0.2123905634
 31
0.0
 40
0.998782766
 41
-3.9263818294
 42
-2.3568034778
  0
ELLIPSE
  5
8D3
100
AcDbEntity
  8
0
100
AcDbEllipse
 62
7
  6
CONTINUOUS
 10
-61.6350055373
 20
50.9765653535
 30
0.0
 11
0.2123905634
 21
-0.2123905634
 31
0.0
 40
0.998782766
 41
2.3568034778
 42
3.9263818294
  0
ELLIPSE
  5
8D4
100
AcDbEntity
  8
0
100
AcDbEllipse
 62
7
  6
CONTINUOUS
 10
-61.0353712639
 20
50.9765653535
 30
0.0
 11
0.2123905634
 21
0.2123905634
 31
0.0
 40
0.998782766
 41
-0.7847891758
 42
0.7847891758
  0
ELLIPSE
  5
8D5
100
AcDbEntity
  8
0
100
AcDbEllipse
 62
7
  6
CONTINUOUS
 10
-58.9350055373
 20
50.9765653535
 30
0.0
 11
0.2123905634
 21
-0.2123905634
 31
0.0
 40
0.998782766
 41
2.3568034778
 42
3.9263818294
  0
ELLIPSE
  5
8D6
100
AcDbEntity
  8
0
100
AcDbEllipse
 62
7
  6
CONTINUOUS
 10
-58.5353712639
 20
50.9765653535
 30
0.0
 11
0.2123905634
 21
0.2123905634
 31
0.0
 40
0.998782766
 41
-0.7847891758
 42
0.7847891758
  0
ELLIPSE
  5
8D7
100
AcDbEntity
  8
0
100
AcDbEllipse
 62
7
  6
CONTINUOUS
 10
-58.9350055373
 20
42.5769310801
 30
0.0
 11
0.2123905634
 21
0.2123905634
 31
0.0
 40
0.998782766
 41
-3.9263818294
 42
-2.3568034778
  0
ELLIPSE
  5
8D8
100
AcDbEntity
  8
0
100
AcDbEllipse
 62
7
  6
CONTINUOUS
 10
-58.5353712639
 20
42.5769310801
 30
0.0
 11
0.2123905634
 21
-0.2123905634
 31
0.0
 40
0.998782766
 41
-0.7847891758
 42
0.7847891758
  0
ELLIPSE
  5
8D9
100
AcDbEntity
  8
0
100
AcDbEllipse
 62
7
  6
CONTINUOUS
 10
-81.6876914637
 20
-27.4358279506
 30
0.0
 11
0.1415937089
 21
-0.1415937089
 31
0.0
 40
0.998782766
 41
-0.7847891758
 42
0.7847891758
  0
ELLIPSE
  5
8DA
100
AcDbEntity
  8
0
100
AcDbEllipse
 62
7
  6
CONTINUOUS
 10
-88.947764568
 20
-27.4358279506
 30
0.0
 11
0.1415937089
 21
0.1415937089
 31
0.0
 40
0.998782766
 41
2.3568034778
 42
3.9263818294
  0
ELLIPSE
  5
8DB
100
AcDbEntity
  8
0
100
AcDbEllipse
 62
7
  6
CONTINUOUS
 10
-88.947764568
 20
-8.4231298743
 30
0.0
 11
-0.1415937089
 21
-0.1415937089
 31
0.0
 40
0.998782766
 41
-0.7847891758
 42
0.7847891758
  0
ELLIPSE
  5
8DC
100
AcDbEntity
  8
0
100
AcDbEllipse
 62
7
  6
CONTINUOUS
 10
-88.947764568
 20
8.9893243842
 30
0.0
 11
0.1415937089
 21
-0.1415937089
 31
0.0
 40
0.998782766
 41
2.3568034778
 42
3.9263818294
  0
ELLIPSE
  5
8DD
100
AcDbEntity
  8
0
100
AcDbEllipse
 62
7
  6
CONTINUOUS
 10
-81.6876914637
 20
8.9893243842
 30
0.0
 11
-0.1415937089
 21
-0.1415937089
 31
0.0
 40
0.998782766
 41
2.3568034778
 42
3.9263818294
  0
ELLIPSE
  5
8DE
100
AcDbEntity
  8
0
100
AcDbEllipse
 62
7
  6
CONTINUOUS
 10
-81.6876914637
 20
-8.4231298743
 30
0.0
 11
-0.1415937089
 21
0.1415937089
 31
0.0
 40
0.998782766
 41
2.3568034778
 42
3.9263818294
  0
ELLIPSE
  5
8DF
100
AcDbEntity
  8
0
100
AcDbEllipse
 62
7
  6
CONTINUOUS
 10
-80.087447646
 20
8.9893243842
 30
0.0
 11
-0.1415937089
 21
0.1415937089
 31
0.0
 40
0.998782766
 41
-0.7847891758
 42
0.7847891758
  0
ELLIPSE
  5
8E0
100
AcDbEntity
  8
0
100
AcDbEllipse
 62
7
  6
CONTINUOUS
 10
-64.9353103095
 20
8.9893243842
 30
0.0
 11
-0.1415937089
 21
-0.1415937089
 31
0.0
 40
0.998782766
 41
2.3568034778
 42
3.9263818294
  0
ELLIPSE
  5
8E1
100
AcDbEntity
  8
0
100
AcDbEllipse
 62
7
  6
CONTINUOUS
 10
-64.9353103095
 20
-27.4358279506
 30
0.0
 11
0.1415937089
 21
-0.1415937089
 31
0.0
 40
0.998782766
 41
-0.7847891758
 42
0.7847891758
  0
ELLIPSE
  5
8E2
100
AcDbEntity
  8
0
100
AcDbEllipse
 62
7
  6
CONTINUOUS
 10
-80.087447646
 20
-27.4358279506
 30
0.0
 11
0.1415937089
 21
0.1415937089
 31
0.0
 40
0.998782766
 41
2.3568034778
 42
3.9263818294
  0
ELLIPSE
  5
8E3
100
AcDbEntity
  8
0
100
AcDbEllipse
 62
7
  6
CONTINUOUS
 10
31.4773877668
 20
-10.0233736921
 30
0.0
 11
0.1415937089
 21
0.1415937089
 31
0.0
 40
0.998782766
 41
-0.7847891758
 42
0.7847891758
  0
ELLIPSE
  5
8E4
100
AcDbEntity
  8
0
100
AcDbEllipse
 62
7
  6
CONTINUOUS
 10
31.4773877668
 20
-27.4358279506
 30
0.0
 11
-0.1415937089
 21
0.1415937089
 31
0.0
 40
0.998782766
 41
2.3568034778
 42
3.9263818294
  0
ELLIPSE
  5
8E5
100
AcDbEntity
  8
0
100
AcDbEllipse
 62
7
  6
CONTINUOUS
 10
24.2173146625
 20
-27.4358279506
 30
0.0
 11
0.1415937089
 21
0.1415937089
 31
0.0
 40
0.998782766
 41
2.3568034778
 42
3.9263818294
  0
ELLIPSE
  5
8E6
100
AcDbEntity
  8
0
100
AcDbEllipse
 62
7
  6
CONTINUOUS
 10
24.2173146625
 20
-10.0233736921
 30
0.0
 11
0.1415937089
 21
-0.1415937089
 31
0.0
 40
0.998782766
 41
2.3568034778
 42
3.9263818294
  0
ELLIPSE
  5
8E7
100
AcDbEntity
  8
0
100
AcDbEllipse
 62
7
  6
CONTINUOUS
 10
31.4773877668
 20
-8.4231298743
 30
0.0
 11
-0.1415937089
 21
0.1415937089
 31
0.0
 40
0.998782766
 41
2.3568034778
 42
3.9263818294
  0
ELLIPSE
  5
8E8
100
AcDbEntity
  8
0
100
AcDbEllipse
 62
7
  6
CONTINUOUS
 10
24.2173146625
 20
-8.4231298743
 30
0.0
 11
0.1415937089
 21
0.1415937089
 31
0.0
 40
0.998782766
 41
2.3568034778
 42
3.9263818294
  0
ELLIPSE
  5
8E9
100
AcDbEntity
  8
0
100
AcDbEllipse
 62
7
  6
CONTINUOUS
 10
24.2173146625
 20
8.9893243842
 30
0.0
 11
-0.1415937089
 21
0.1415937089
 31
0.0
 40
0.998782766
 41
-0.7847891758
 42
0.7847891758
  0
ELLIPSE
  5
8EA
100
AcDbEntity
  8
0
100
AcDbEllipse
 62
7
  6
CONTINUOUS
 10
31.4773877668
 20
8.9893243842
 30
0.0
 11
-0.1415937089
 21
-0.1415937089
 31
0.0
 40
0.998782766
 41
2.3568034778
 42
3.9263818294
  0
ELLIPSE
  5
8EB
100
AcDbEntity
  8
0
100
AcDbEllipse
 62
7
  6
CONTINUOUS
 10
22.6170708447
 20
8.9893243842
 30
0.0
 11
-0.1415937089
 21
-0.1415937089
 31
0.0
 40
0.998782766
 41
2.3568034778
 42
3.9263818294
  0
ELLIPSE
  5
8EC
100
AcDbEntity
  8
0
100
AcDbEllipse
 62
7
  6
CONTINUOUS
 10
22.6170708447
 20
-27.4358279506
 30
0.0
 11
0.1415937089
 21
-0.1415937089
 31
0.0
 40
0.998782766
 41
-0.7847891758
 42
0.7847891758
  0
ELLIPSE
  5
8ED
100
AcDbEntity
  8
0
100
AcDbEllipse
 62
7
  6
CONTINUOUS
 10
7.4649335082
 20
-27.4358279506
 30
0.0
 11
0.1415937089
 21
0.1415937089
 31
0.0
 40
0.998782766
 41
2.3568034778
 42
3.9263818294
  0
ELLIPSE
  5
8EE
100
AcDbEntity
  8
0
100
AcDbEllipse
 62
7
  6
CONTINUOUS
 10
7.4649335082
 20
8.9893243842
 30
0.0
 11
-0.1415937089
 21
0.1415937089
 31
0.0
 40
0.998782766
 41
-0.7847891758
 42
0.7847891758
  0
ELLIPSE
  5
8EF
100
AcDbEntity
  8
0
100
AcDbEllipse
 62
7
  6
CONTINUOUS
 10
-38.5350664918
 20
-38.4233736921
 30
0.0
 11
0.1415937089
 21
-0.1415937089
 31
0.0
 40
0.998782766
 41
2.3568034778
 42
3.9263818294
  0
ELLIPSE
  5
8F0
100
AcDbEntity
  8
0
100
AcDbEllipse
 62
7
  6
CONTINUOUS
 10
-18.9653103095
 20
-38.4233736921
 30
0.0
 11
-0.1415937089
 21
-0.1415937089
 31
0.0
 40
0.998782766
 41
2.3568034778
 42
3.9263818294
  0
ELLIPSE
  5
8F1
100
AcDbEntity
  8
0
100
AcDbEllipse
 62
7
  6
CONTINUOUS
 10
-18.9653103095
 20
-58.0231298743
 30
0.0
 11
-0.1415937089
 21
0.1415937089
 31
0.0
 40
0.998782766
 41
2.3568034778
 42
3.9263818294
  0
ELLIPSE
  5
8F2
100
AcDbEntity
  8
0
100
AcDbEllipse
 62
7
  6
CONTINUOUS
 10
-38.5350664918
 20
-58.0231298743
 30
0.0
 11
0.1415937089
 21
0.1415937089
 31
0.0
 40
0.998782766
 41
2.3568034778
 42
3.9263818294
  0
ELLIPSE
  5
8F3
100
AcDbEntity
  8
0
100
AcDbEllipse
 62
7
  6
CONTINUOUS
 10
-38.5350664918
 20
-59.4233736921
 30
0.0
 11
0.1415937089
 21
-0.1415937089
 31
0.0
 40
0.998782766
 41
2.3568034778
 42
3.9263818294
  0
ELLIPSE
  5
8F4
100
AcDbEntity
  8
0
100
AcDbEllipse
 62
7
  6
CONTINUOUS
 10
-18.9653103095
 20
-59.4233736921
 30
0.0
 11
-0.1415937089
 21
-0.1415937089
 31
0.0
 40
0.998782766
 41
2.3568034778
 42
3.9263818294
  0
ELLIPSE
  5
8F5
100
AcDbEntity
  8
0
100
AcDbEllipse
 62
7
  6
CONTINUOUS
 10
-18.9653103095
 20
-72.2358279506
 30
0.0
 11
0.1415937089
 21
-0.1415937089
 31
0.0
 40
0.998782766
 41
-0.7847891758
 42
0.7847891758
  0
ELLIPSE
  5
8F6
100
AcDbEntity
  8
0
100
AcDbEllipse
 62
7
  6
CONTINUOUS
 10
-38.5350664918
 20
-72.2358279506
 30
0.0
 11
0.1415937089
 21
0.1415937089
 31
0.0
 40
0.998782766
 41
2.3568034778
 42
3.9263818294
  0
ELLIPSE
  5
8F7
100
AcDbEntity
  8
0
100
AcDbEllipse
 62
7
  6
CONTINUOUS
 10
20.9649335082
 20
28.0766263079
 30
0.0
 11
0.1415937089
 21
-0.1415937089
 31
0.0
 40
0.998782766
 41
2.3568034778
 42
3.9263818294
  0
ELLIPSE
  5
8F8
100
AcDbEntity
  8
0
100
AcDbEllipse
 62
7
  6
CONTINUOUS
 10
20.9649335082
 20
10.4768701257
 30
0.0
 11
0.1415937089
 21
0.1415937089
 31
0.0
 40
0.998782766
 41
-3.9263818294
 42
-2.3568034778
  0
ELLIPSE
  5
8F9
100
AcDbEntity
  8
0
100
AcDbEllipse
 62
7
  6
CONTINUOUS
 10
19.5646896905
 20
10.4768701257
 30
0.0
 11
0.1415937089
 21
-0.1415937089
 31
0.0
 40
0.998782766
 41
-0.7847891758
 42
0.7847891758
  0
ELLIPSE
  5
8FA
100
AcDbEntity
  8
0
100
AcDbEllipse
 62
7
  6
CONTINUOUS
 10
6.1519916142
 20
-37.1104317981
 30
0.0
 11
0.1415937089
 21
-0.1415937089
 31
0.0
 40
0.998782766
 41
-0.7847891758
 42
0.7847891758
  0
ELLIPSE
  5
8FB
100
AcDbEntity
  8
0
100
AcDbEllipse
 62
7
  6
CONTINUOUS
 10
6.1519916142
 20
-38.3360717683
 30
0.0
 11
0.1415937089
 21
0.1415937089
 31
0.0
 40
0.998782766
 41
-0.7847891758
 42
0.7847891758
  0
ELLIPSE
  5
8FC
100
AcDbEntity
  8
0
100
AcDbEllipse
 62
7
  6
CONTINUOUS
 10
7.3776315845
 20
-27.5231298743
 30
0.0
 11
0.1415937089
 21
0.1415937089
 31
0.0
 40
0.998782766
 41
-3.9263818294
 42
-2.3568034778
  0
ELLIPSE
  5
8FD
100
AcDbEntity
  8
0
100
AcDbEllipse
 62
7
  6
CONTINUOUS
 10
7.3776315845
 20
-28.9233736921
 30
0.0
 11
0.1415937089
 21
-0.1415937089
 31
0.0
 40
0.998782766
 41
2.3568034778
 42
3.9263818294
  0
ELLIPSE
  5
8FE
100
AcDbEntity
  8
0
100
AcDbEllipse
 62
7
  6
CONTINUOUS
 10
19.5646896905
 20
-28.9233736921
 30
0.0
 11
0.1415937089
 21
0.1415937089
 31
0.0
 40
0.998782766
 41
-0.7847891758
 42
0.7847891758
  0
ELLIPSE
  5
8FF
100
AcDbEntity
  8
0
100
AcDbEllipse
 62
7
  6
CONTINUOUS
 10
20.9649335082
 20
-28.9233736921
 30
0.0
 11
0.1415937089
 21
-0.1415937089
 31
0.0
 40
0.998782766
 41
2.3568034778
 42
3.9263818294
  0
ELLIPSE
  5
900
100
AcDbEntity
  8
0
100
AcDbEllipse
 62
7
  6
CONTINUOUS
 10
20.9649335082
 20
-46.5231298743
 30
0.0
 11
0.1415937089
 21
0.1415937089
 31
0.0
 40
0.998782766
 41
-3.9263818294
 42
-2.3568034778
  0
ELLIPSE
  5
901
100
AcDbEntity
  8
0
100
AcDbEllipse
 62
7
  6
CONTINUOUS
 10
-77.0350664918
 20
-46.5231298743
 30
0.0
 11
0.1415937089
 21
0.1415937089
 31
0.0
 40
0.998782766
 41
2.3568034778
 42
3.9263818294
  0
ELLIPSE
  5
902
100
AcDbEntity
  8
0
100
AcDbEllipse
 62
7
  6
CONTINUOUS
 10
-78.4353103095
 20
-46.5231298743
 30
0.0
 11
0.1415937089
 21
-0.1415937089
 31
0.0
 40
0.998782766
 41
-0.7847891758
 42
0.7847891758
  0
ELLIPSE
  5
903
100
AcDbEntity
  8
0
100
AcDbEllipse
 62
7
  6
CONTINUOUS
 10
-89.0350664918
 20
-47.9233736921
 30
0.0
 11
-0.1415937089
 21
0.1415937089
 31
0.0
 40
0.998782766
 41
-0.7847891758
 42
0.7847891758
  0
ELLIPSE
  5
904
100
AcDbEntity
  8
0
100
AcDbEllipse
 62
7
  6
CONTINUOUS
 10
-64.8442015623
 20
-72.3269366978
 30
0.0
 11
0.0738360047
 21
0.187443618
 31
0.0
 40
0.9534465161
 41
-2.7485890781
 42
-2.1508803828
  0
ELLIPSE
  5
905
100
AcDbEntity
  8
0
100
AcDbEllipse
 62
7
  6
CONTINUOUS
 10
-64.8480083858
 20
-72.3231298743
 30
0.0
 11
0.1415937089
 21
-0.1415937089
 31
0.0
 40
0.998782766
 41
-0.1870804805
 42
0.7847891758
  0
ELLIPSE
  5
906
100
AcDbEntity
  8
0
100
AcDbEllipse
 62
7
  6
CONTINUOUS
 10
-63.6223684155
 20
-72.3231298743
 30
0.0
 11
0.1415937089
 21
0.1415937089
 31
0.0
 40
0.998782766
 41
-3.9263818294
 42
-2.3568034778
  0
ELLIPSE
  5
907
100
AcDbEntity
  8
0
100
AcDbEllipse
 62
7
  6
CONTINUOUS
 10
-64.8480083858
 20
-58.1104317981
 30
0.0
 11
-0.1415937089
 21
0.1415937089
 31
0.0
 40
0.998782766
 41
-3.9263818294
 42
-2.3568034778
  0
ELLIPSE
  5
908
100
AcDbEntity
  8
0
100
AcDbEllipse
 62
7
  6
CONTINUOUS
 10
-63.6223684155
 20
-58.1104317981
 30
0.0
 11
0.1415937089
 21
0.1415937089
 31
0.0
 40
0.998782766
 41
2.3568034778
 42
3.9263818294
  0
ELLIPSE
  5
909
100
AcDbEntity
  8
0
100
AcDbEllipse
 62
7
  6
CONTINUOUS
 10
-63.6223684155
 20
-59.3360717683
 30
0.0
 11
0.1415937089
 21
-0.1415937089
 31
0.0
 40
0.998782766
 41
2.3568034778
 42
3.9263818294
  0
ELLIPSE
  5
90A
100
AcDbEntity
  8
0
100
AcDbEllipse
 62
7
  6
CONTINUOUS
 10
-64.8480083858
 20
-59.3360717683
 30
0.0
 11
0.1415937089
 21
0.1415937089
 31
0.0
 40
0.998782766
 41
-0.7847891758
 42
0.7847891758
  0
ELLIPSE
  5
90B
100
AcDbEntity
  8
0
100
AcDbEllipse
 62
7
  6
CONTINUOUS
 10
-64.8480083858
 20
-47.9233736921
 30
0.0
 11
0.1415937089
 21
0.1415937089
 31
0.0
 40
0.998782766
 41
-0.7847891758
 42
0.7847891758
  0
ELLIPSE
  5
90C
100
AcDbEntity
  8
0
100
AcDbEllipse
 62
7
  6
CONTINUOUS
 10
-64.8480083858
 20
-46.5231298743
 30
0.0
 11
0.1415937089
 21
-0.1415937089
 31
0.0
 40
0.998782766
 41
-0.7847891758
 42
0.7847891758
  0
ELLIPSE
  5
90D
100
AcDbEntity
  8
0
100
AcDbEllipse
 62
7
  6
CONTINUOUS
 10
-63.6223684155
 20
-37.1104317981
 30
0.0
 11
0.1415937089
 21
0.1415937089
 31
0.0
 40
0.998782766
 41
2.3568034778
 42
3.9263818294
  0
ELLIPSE
  5
90E
100
AcDbEntity
  8
0
100
AcDbEllipse
 62
7
  6
CONTINUOUS
 10
-63.6223684155
 20
-38.3360717683
 30
0.0
 11
0.1415937089
 21
-0.1415937089
 31
0.0
 40
0.998782766
 41
2.3568034778
 42
3.9263818294
  0
ELLIPSE
  5
90F
100
AcDbEntity
  8
0
100
AcDbEllipse
 62
7
  6
CONTINUOUS
 10
7.3776315845
 20
10.4768701257
 30
0.0
 11
0.1415937089
 21
0.1415937089
 31
0.0
 40
0.998782766
 41
2.3568034778
 42
3.9263818294
  0
ELLIPSE
  5
910
100
AcDbEntity
  8
0
100
AcDbEllipse
 62
7
  6
CONTINUOUS
 10
7.3776315845
 20
9.0766263079
 30
0.0
 11
0.1415937089
 21
-0.1415937089
 31
0.0
 40
0.998782766
 41
2.3568034778
 42
3.9263818294
  0
ELLIPSE
  5
911
100
AcDbEntity
  8
0
100
AcDbEllipse
 62
7
  6
CONTINUOUS
 10
-89.0350664918
 20
29.4768701257
 30
0.0
 11
0.1415937089
 21
0.1415937089
 31
0.0
 40
0.998782766
 41
2.3568034778
 42
3.9263818294
  0
ELLIPSE
  5
912
100
AcDbEntity
  8
0
100
AcDbEllipse
 62
7
  6
CONTINUOUS
 10
-77.0350664918
 20
28.0766263079
 30
0.0
 11
0.1415937089
 21
-0.1415937089
 31
0.0
 40
0.998782766
 41
2.3568034778
 42
3.9263818294
  0
ELLIPSE
  5
913
100
AcDbEntity
  8
0
100
AcDbEllipse
 62
7
  6
CONTINUOUS
 10
-78.4353103095
 20
28.0766263079
 30
0.0
 11
0.1415937089
 21
0.1415937089
 31
0.0
 40
0.998782766
 41
-0.7847891758
 42
0.7847891758
  0
ELLIPSE
  5
914
100
AcDbEntity
  8
0
100
AcDbEllipse
 62
7
  6
CONTINUOUS
 10
-77.0350664918
 20
10.4768701257
 30
0.0
 11
0.1415937089
 21
0.1415937089
 31
0.0
 40
0.998782766
 41
-3.9263818294
 42
-2.3568034778
  0
ELLIPSE
  5
915
100
AcDbEntity
  8
0
100
AcDbEllipse
 62
7
  6
CONTINUOUS
 10
-78.4353103095
 20
10.4768701257
 30
0.0
 11
-0.1415937089
 21
0.1415937089
 31
0.0
 40
0.998782766
 41
-3.9263818294
 42
-2.3568034778
  0
ELLIPSE
  5
916
100
AcDbEntity
  8
0
100
AcDbEllipse
 62
7
  6
CONTINUOUS
 10
-64.8480083858
 20
-27.5231298743
 30
0.0
 11
0.1415937089
 21
-0.1415937089
 31
0.0
 40
0.998782766
 41
-0.7847891758
 42
0.7847891758
  0
ELLIPSE
  5
917
100
AcDbEntity
  8
0
100
AcDbEllipse
 62
7
  6
CONTINUOUS
 10
-64.8480083858
 20
-28.9233736921
 30
0.0
 11
0.1415937089
 21
0.1415937089
 31
0.0
 40
0.998782766
 41
-0.7847891758
 42
0.7847891758
  0
ELLIPSE
  5
918
100
AcDbEntity
  8
0
100
AcDbEllipse
 62
7
  6
CONTINUOUS
 10
-77.0350664918
 20
-28.9233736921
 30
0.0
 11
0.1415937089
 21
-0.1415937089
 31
0.0
 40
0.998782766
 41
2.3568034778
 42
3.9263818294
  0
ELLIPSE
  5
919
100
AcDbEntity
  8
0
100
AcDbEllipse
 62
7
  6
CONTINUOUS
 10
-78.4353103095
 20
-28.9233736921
 30
0.0
 11
0.1415937089
 21
0.1415937089
 31
0.0
 40
0.998782766
 41
-0.7847891758
 42
0.7847891758
  0
ELLIPSE
  5
91A
100
AcDbEntity
  8
0
100
AcDbEllipse
 62
7
  6
CONTINUOUS
 10
-38.6223684155
 20
39.6639282317
 30
0.0
 11
-0.1415937089
 21
0.1415937089
 31
0.0
 40
0.998782766
 41
-0.7847891758
 42
0.7847891758
  0
ELLIPSE
  5
91B
100
AcDbEntity
  8
0
100
AcDbEllipse
 62
7
  6
CONTINUOUS
 10
-39.8480083858
 20
40.8895682019
 30
0.0
 11
-0.1415937089
 21
0.1415937089
 31
0.0
 40
0.998782766
 41
-3.9263818294
 42
-2.3568034778
  0
ELLIPSE
  5
91C
100
AcDbEntity
  8
0
100
AcDbEllipse
 62
7
  6
CONTINUOUS
 10
-38.6223684155
 20
40.8895682019
 30
0.0
 11
0.1415937089
 21
0.1415937089
 31
0.0
 40
0.998782766
 41
-3.9263818294
 42
-2.3568034778
  0
ELLIPSE
  5
91D
100
AcDbEntity
  8
0
100
AcDbEllipse
 62
7
  6
CONTINUOUS
 10
-39.8480083858
 20
18.6639282317
 30
0.0
 11
0.1415937089
 21
0.1415937089
 31
0.0
 40
0.998782766
 41
-0.7847891758
 42
0.7847891758
  0
ELLIPSE
  5
91E
100
AcDbEntity
  8
0
100
AcDbEllipse
 62
7
  6
CONTINUOUS
 10
-38.6223684155
 20
18.6639282317
 30
0.0
 11
0.1415937089
 21
-0.1415937089
 31
0.0
 40
0.998782766
 41
2.3568034778
 42
3.9263818294
  0
ELLIPSE
  5
91F
100
AcDbEntity
  8
0
100
AcDbEllipse
 62
7
  6
CONTINUOUS
 10
-39.8480083858
 20
19.8895682019
 30
0.0
 11
0.1415937089
 21
-0.1415937089
 31
0.0
 40
0.998782766
 41
-0.7847891758
 42
0.7847891758
  0
ELLIPSE
  5
920
100
AcDbEntity
  8
0
100
AcDbEllipse
 62
7
  6
CONTINUOUS
 10
-38.6223684155
 20
19.8895682019
 30
0.0
 11
0.1415937089
 21
0.1415937089
 31
0.0
 40
0.998782766
 41
-3.9263818294
 42
-2.3568034778
  0
ELLIPSE
  5
921
100
AcDbEntity
  8
0
100
AcDbEllipse
 62
7
  6
CONTINUOUS
 10
-39.8480083858
 20
-38.3360717683
 30
0.0
 11
0.1415937089
 21
0.1415937089
 31
0.0
 40
0.998782766
 41
-0.7847891758
 42
0.7847891758
  0
ELLIPSE
  5
922
100
AcDbEntity
  8
0
100
AcDbEllipse
 62
7
  6
CONTINUOUS
 10
-38.6223684155
 20
-38.3360717683
 30
0.0
 11
-0.1415937089
 21
0.1415937089
 31
0.0
 40
0.998782766
 41
-0.7847891758
 42
0.7847891758
  0
ELLIPSE
  5
923
100
AcDbEntity
  8
0
100
AcDbEllipse
 62
7
  6
CONTINUOUS
 10
-39.8480083858
 20
-37.1104317981
 30
0.0
 11
-0.1415937089
 21
0.1415937089
 31
0.0
 40
0.998782766
 41
-3.9263818294
 42
-2.3568034778
  0
ELLIPSE
  5
924
100
AcDbEntity
  8
0
100
AcDbEllipse
 62
7
  6
CONTINUOUS
 10
-38.6223684155
 20
-37.1104317981
 30
0.0
 11
0.1415937089
 21
0.1415937089
 31
0.0
 40
0.998782766
 41
-3.9263818294
 42
-2.3568034778
  0
ELLIPSE
  5
925
100
AcDbEntity
  8
0
100
AcDbEllipse
 62
7
  6
CONTINUOUS
 10
-39.8480083858
 20
-59.3360717683
 30
0.0
 11
0.1415937089
 21
0.1415937089
 31
0.0
 40
0.998782766
 41
-0.7847891758
 42
0.7847891758
  0
ELLIPSE
  5
926
100
AcDbEntity
  8
0
100
AcDbEllipse
 62
7
  6
CONTINUOUS
 10
-38.6223684155
 20
-59.3360717683
 30
0.0
 11
0.1415937089
 21
-0.1415937089
 31
0.0
 40
0.998782766
 41
2.3568034778
 42
3.9263818294
  0
ELLIPSE
  5
927
100
AcDbEntity
  8
0
100
AcDbEllipse
 62
7
  6
CONTINUOUS
 10
-38.6223684155
 20
-58.1104317981
 30
0.0
 11
0.1415937089
 21
0.1415937089
 31
0.0
 40
0.998782766
 41
-3.9263818294
 42
-2.3568034778
  0
ELLIPSE
  5
928
100
AcDbEntity
  8
0
100
AcDbEllipse
 62
7
  6
CONTINUOUS
 10
-39.8480083858
 20
-58.1104317981
 30
0.0
 11
0.1415937089
 21
-0.1415937089
 31
0.0
 40
0.998782766
 41
-0.7847891758
 42
0.7847891758
  0
ELLIPSE
  5
929
100
AcDbEntity
  8
0
100
AcDbEllipse
 62
7
  6
CONTINUOUS
 10
-64.8480083858
 20
10.4768701257
 30
0.0
 11
0.1415937089
 21
-0.1415937089
 31
0.0
 40
0.998782766
 41
-0.7847891758
 42
0.7847891758
  0
ELLIPSE
  5
92A
100
AcDbEntity
  8
0
100
AcDbEllipse
 62
7
  6
CONTINUOUS
 10
-64.8480083858
 20
9.0766263079
 30
0.0
 11
0.1415937089
 21
0.1415937089
 31
0.0
 40
0.998782766
 41
-0.7847891758
 42
0.7847891758
  0
ELLIPSE
  5
92B
100
AcDbEntity
  8
0
100
AcDbEllipse
 62
7
  6
CONTINUOUS
 10
-63.6223684155
 20
18.6639282317
 30
0.0
 11
0.1415937089
 21
-0.1415937089
 31
0.0
 40
0.998782766
 41
2.3568034778
 42
3.9263818294
  0
ELLIPSE
  5
92C
100
AcDbEntity
  8
0
100
AcDbEllipse
 62
7
  6
CONTINUOUS
 10
-63.6223684155
 20
19.8895682019
 30
0.0
 11
0.1415937089
 21
0.1415937089
 31
0.0
 40
0.998782766
 41
2.3568034778
 42
3.9263818294
  0
ELLIPSE
  5
92D
100
AcDbEntity
  8
0
100
AcDbEllipse
 62
7
  6
CONTINUOUS
 10
-64.8480083858
 20
29.4768701257
 30
0.0
 11
0.1415937089
 21
-0.1415937089
 31
0.0
 40
0.998782766
 41
-0.7847891758
 42
0.7847891758
  0
ELLIPSE
  5
92E
100
AcDbEntity
  8
0
100
AcDbEllipse
 62
7
  6
CONTINUOUS
 10
-64.8480083858
 20
28.0766263079
 30
0.0
 11
0.1415937089
 21
0.1415937089
 31
0.0
 40
0.998782766
 41
-0.7847891758
 42
0.7847891758
  0
ELLIPSE
  5
92F
100
AcDbEntity
  8
0
100
AcDbEllipse
 62
7
  6
CONTINUOUS
 10
-64.8480083858
 20
39.6639282317
 30
0.0
 11
0.1415937089
 21
0.1415937089
 31
0.0
 40
0.998782766
 41
-0.7847891758
 42
0.7847891758
  0
ELLIPSE
  5
930
100
AcDbEntity
  8
0
100
AcDbEllipse
 62
7
  6
CONTINUOUS
 10
-63.6223684155
 20
39.6639282317
 30
0.0
 11
0.1415937089
 21
-0.1415937089
 31
0.0
 40
0.998782766
 41
2.3568034778
 42
3.9263818294
  0
ELLIPSE
  5
931
100
AcDbEntity
  8
0
100
AcDbEllipse
 62
7
  6
CONTINUOUS
 10
-63.6223684155
 20
40.8895682019
 30
0.0
 11
0.1415937089
 21
0.1415937089
 31
0.0
 40
0.998782766
 41
-3.9263818294
 42
-2.3568034778
  0
ELLIPSE
  5
932
100
AcDbEntity
  8
0
100
AcDbEllipse
 62
7
  6
CONTINUOUS
 10
-64.8480083858
 20
40.8895682019
 30
0.0
 11
0.1415937089
 21
-0.1415937089
 31
0.0
 40
0.998782766
 41
-0.7847891758
 42
0.7847891758
  0
ELLIPSE
  5
933
100
AcDbEntity
  8
0
100
AcDbEllipse
 62
7
  6
CONTINUOUS
 10
-63.6223684155
 20
53.8766263079
 30
0.0
 11
0.1415937089
 21
-0.1415937089
 31
0.0
 40
0.998782766
 41
2.3568034778
 42
3.9263818294
  0
ELLIPSE
  5
934
100
AcDbEntity
  8
0
100
AcDbEllipse
 62
7
  6
CONTINUOUS
 10
-64.8480083858
 20
53.8766263079
 30
0.0
 11
0.1415937089
 21
0.1415937089
 31
0.0
 40
0.998782766
 41
-0.7847891758
 42
0.1870804805
  0
ELLIPSE
  5
935
100
AcDbEntity
  8
0
100
AcDbEllipse
 62
7
  6
CONTINUOUS
 10
-64.8442015623
 20
53.8804331314
 30
0.0
 11
-0.0738360047
 21
0.187443618
 31
0.0
 40
0.9534465161
 41
-0.9907122708
 42
-0.3930035755
  0
ELLIPSE
  5
936
100
AcDbEntity
  8
0
100
AcDbEllipse
 62
7
  6
CONTINUOUS
 10
-38.626175239
 20
53.8804331314
 30
0.0
 11
0.0738360047
 21
0.187443618
 31
0.0
 40
0.9534465161
 41
0.3930035755
 42
0.9907122708
  0
ELLIPSE
  5
937
100
AcDbEntity
  8
0
100
AcDbEllipse
 62
7
  6
CONTINUOUS
 10
-38.6223684155
 20
53.8766263079
 30
0.0
 11
-0.1415937089
 21
0.1415937089
 31
0.0
 40
0.998782766
 41
-0.1870804805
 42
0.7847891758
  0
ELLIPSE
  5
938
100
AcDbEntity
  8
0
100
AcDbEllipse
 62
7
  6
CONTINUOUS
 10
-39.8480083858
 20
53.8766263079
 30
0.0
 11
0.1415937089
 21
0.1415937089
 31
0.0
 40
0.998782766
 41
-0.7847891758
 42
0.7847891758
  0
ELLIPSE
  5
939
100
AcDbEntity
  8
0
100
AcDbEllipse
 62
7
  6
CONTINUOUS
 10
-39.8480083858
 20
39.6639282317
 30
0.0
 11
0.1415937089
 21
0.1415937089
 31
0.0
 40
0.998782766
 41
-0.7847891758
 42
0.7847891758
  0
ELLIPSE
  5
93A
100
AcDbEntity
  8
0
100
AcDbEllipse
 62
7
  6
CONTINUOUS
 10
26.7969582028
 20
-41.9569951485
 30
0.0
 11
-0.0217519446
 21
0.2992103823
 31
0.0
 40
1.0
 41
-1.6433664897
 42
-0.6834354011
  0
ELLIPSE
  5
93B
100
AcDbEntity
  8
0
100
AcDbEllipse
 62
7
  6
CONTINUOUS
 10
26.7969582028
 20
-33.4895084179
 30
0.0
 11
-0.0197473314
 21
0.299349366
 31
0.0
 40
1.0
 41
-2.5965994809
 42
-1.6366683923
  0
ELLIPSE
  5
93C
100
AcDbEntity
  8
0
100
AcDbEllipse
 62
7
  6
CONTINUOUS
 10
29.1326649959
 20
-41.9569951485
 30
0.0
 11
0.2995096296
 21
0.0171458974
 31
0.0
 40
1.0
 41
2.124477413
 42
3.0844085016
  0
ELLIPSE
  5
93D
100
AcDbEntity
  8
0
100
AcDbEllipse
 62
7
  6
CONTINUOUS
 10
29.1326649959
 20
-33.4895084179
 30
0.0
 11
0.2996974837
 21
0.0134691592
 31
0.0
 40
1.0
 41
3.0966803589
 42
4.0566114475
  0
ELLIPSE
  5
93E
100
AcDbEntity
  8
0
100
AcDbEllipse
 62
7
  6
CONTINUOUS
 10
-84.2673350041
 20
-33.4895084179
 30
0.0
 11
0.0235760382
 21
0.2990721826
 31
0.0
 40
1.0
 41
-4.6337210704
 42
-3.6737899818
  0
ELLIPSE
  5
93F
100
AcDbEntity
  8
0
100
AcDbEllipse
 62
7
  6
CONTINUOUS
 10
-84.2673350041
 20
-41.9569951485
 30
0.0
 11
0.0149443171
 21
0.2996275478
 31
0.0
 40
1.0
 41
0.6607002538
 42
1.6206313424
  0
ELLIPSE
  5
940
100
AcDbEntity
  8
0
100
AcDbEllipse
 62
7
  6
CONTINUOUS
 10
-86.6030417972
 20
-33.4895084179
 30
0.0
 11
0.2999446467
 21
-0.0057627165
 31
0.0
 40
1.0
 41
-0.9407208521
 42
0.0192102365
  0
ELLIPSE
  5
941
100
AcDbEntity
  8
0
100
AcDbEllipse
 62
7
  6
CONTINUOUS
 10
-86.6030417972
 20
-41.9569951485
 30
0.0
 11
0.2999655652
 21
-0.0045452968
 31
0.0
 40
1.0
 41
0.0151515691
 42
0.9750826577
  0
ELLIPSE
  5
942
100
AcDbEntity
  8
0
100
AcDbEllipse
 62
7
  6
CONTINUOUS
 10
26.7969582028
 20
15.0430048515
 30
0.0
 11
0.0261410006
 21
0.29885891
 31
0.0
 40
1.0
 41
-1.483549011
 42
-0.5236179224
  0
ELLIPSE
  5
943
100
AcDbEntity
  8
0
100
AcDbEllipse
 62
7
  6
CONTINUOUS
 10
26.7969582028
 20
23.5104915821
 30
0.0
 11
0.0120103792
 21
0.2997594882
 31
0.0
 40
1.0
 41
-2.4906821159
 42
-1.5307510273
  0
ELLIPSE
  5
944
100
AcDbEntity
  8
0
100
AcDbEllipse
 62
7
  6
CONTINUOUS
 10
29.1326649959
 20
15.0430048515
 30
0.0
 11
0.2998078067
 21
-0.0107368073
 31
0.0
 40
1.0
 41
2.2174585673
 42
3.1773896559
  0
ELLIPSE
  5
945
100
AcDbEntity
  8
0
100
AcDbEllipse
 62
7
  6
CONTINUOUS
 10
29.1326649959
 20
23.5104915821
 30
0.0
 11
0.2994257033
 21
-0.0185539274
 31
0.0
 40
1.0
 41
-3.0797067339
 42
-2.1197756453
  0
ELLIPSE
  5
946
100
AcDbEntity
  8
0
100
AcDbEllipse
 62
7
  6
CONTINUOUS
 10
-84.2673350041
 20
23.5104915821
 30
0.0
 11
-0.0355171731
 21
0.2978901315
 31
0.0
 40
1.0
 41
1.4521274239
 42
2.4120585125
  0
ELLIPSE
  5
947
100
AcDbEntity
  8
0
100
AcDbEllipse
 62
7
  6
CONTINUOUS
 10
-84.2673350041
 20
15.0430048515
 30
0.0
 11
-0.0348724473
 21
0.2979662941
 31
0.0
 40
1.0
 41
0.494360365
 42
1.4542914536
  0
ELLIPSE
  5
948
100
AcDbEntity
  8
0
100
AcDbEllipse
 62
7
  6
CONTINUOUS
 10
-86.6030417972
 20
23.5104915821
 30
0.0
 11
0.2982295483
 21
0.0325443774
 31
0.0
 40
1.0
 41
-1.0686262525
 42
-0.1086951639
  0
ELLIPSE
  5
949
100
AcDbEntity
  8
0
100
AcDbEllipse
 62
7
  6
CONTINUOUS
 10
-86.6030417972
 20
15.0430048515
 30
0.0
 11
0.2999096857
 21
0.007360735
 31
0.0
 40
1.0
 41
-0.0245382456
 42
0.935392843
  0
ELLIPSE
  5
94A
100
AcDbEntity
  8
0
100
AcDbEllipse
 62
7
  6
CONTINUOUS
 10
-39.9353103095
 20
-59.4233736921
 30
0.0
 11
-0.1415937089
 21
-0.1415937089
 31
0.0
 40
0.998782766
 41
2.3568034778
 42
3.9263818294
  0
ELLIPSE
  5
94B
100
AcDbEntity
  8
0
100
AcDbEllipse
 62
7
  6
CONTINUOUS
 10
-39.9353103095
 20
-72.2358279506
 30
0.0
 11
0.1415937089
 21
-0.1415937089
 31
0.0
 40
0.998782766
 41
-0.7847891758
 42
0.7847891758
  0
ELLIPSE
  5
94C
100
AcDbEntity
  8
0
100
AcDbEllipse
 62
7
  6
CONTINUOUS
 10
-63.5350664918
 20
-72.2358279506
 30
0.0
 11
0.1415937089
 21
0.1415937089
 31
0.0
 40
0.998782766
 41
2.3568034778
 42
3.9263818294
  0
ELLIPSE
  5
94D
100
AcDbEntity
  8
0
100
AcDbEllipse
 62
7
  6
CONTINUOUS
 10
-63.5350664918
 20
-59.4233736921
 30
0.0
 11
0.1415937089
 21
-0.1415937089
 31
0.0
 40
0.998782766
 41
2.3568034778
 42
3.9263818294
  0
ELLIPSE
  5
94E
100
AcDbEntity
  8
0
100
AcDbEllipse
 62
7
  6
CONTINUOUS
 10
-81.6876914637
 20
-10.0233736921
 30
0.0
 11
-0.1415937089
 21
-0.1415937089
 31
0.0
 40
0.998782766
 41
2.3568034778
 42
3.9263818294
  0
ELLIPSE
  5
94F
100
AcDbEntity
  8
0
100
AcDbEllipse
 62
7
  6
CONTINUOUS
 10
-89.7354931728
 20
-60.8102025133
 30
0.0
 11
0.1861740724
 21
0.466430752
 31
0.0
 40
0.9955924488
 41
-1.1895028981
 42
0.3782517324
  0
ELLIPSE
  5
950
100
AcDbEntity
  8
0
100
AcDbEllipse
 62
7
  6
CONTINUOUS
 10
-89.7354931728
 20
42.3636989469
 30
0.0
 11
-0.1861740724
 21
0.466430752
 31
0.0
 40
0.9955924488
 41
-3.519844386
 42
-1.9520897555
  0
ELLIPSE
  5
951
100
AcDbEntity
  8
0
100
AcDbEllipse
 62
7
  6
CONTINUOUS
 10
32.2651163715
 20
42.3636989469
 30
0.0
 11
0.1861740724
 21
0.466430752
 31
0.0
 40
0.9955924488
 41
-4.3310955517
 42
-2.7633409212
  0
ELLIPSE
  5
952
100
AcDbEntity
  8
0
100
AcDbEllipse
 62
7
  6
CONTINUOUS
 10
32.2651163715
 20
-60.8102025133
 30
0.0
 11
-0.1861740724
 21
0.466430752
 31
0.0
 40
0.9955924488
 41
-0.3782517324
 42
1.1895028981
  0
ELLIPSE
  5
953
100
AcDbEntity
  8
0
100
AcDbEllipse
 62
7
  6
CONTINUOUS
 10
24.1300127387
 20
-9.9360717683
 30
0.0
 11
-0.1415937089
 21
0.1415937089
 31
0.0
 40
0.998782766
 41
-0.7847891758
 42
0.7847891758
  0
ELLIPSE
  5
954
100
AcDbEntity
  8
0
100
AcDbEllipse
 62
7
  6
CONTINUOUS
 10
24.1300127387
 20
-8.5104317981
 30
0.0
 11
0.1415937089
 21
0.1415937089
 31
0.0
 40
0.998782766
 41
-3.9263818294
 42
-2.3568034778
  0
ELLIPSE
  5
955
100
AcDbEntity
  8
0
100
AcDbEllipse
 62
7
  6
CONTINUOUS
 10
24.1300127387
 20
-27.5231298743
 30
0.0
 11
0.1415937089
 21
0.1415937089
 31
0.0
 40
0.998782766
 41
-3.9263818294
 42
-2.3568034778
  0
ELLIPSE
  5
956
100
AcDbEntity
  8
0
100
AcDbEllipse
 62
7
  6
CONTINUOUS
 10
22.7043727685
 20
-27.5231298743
 30
0.0
 11
-0.1415937089
 21
0.1415937089
 31
0.0
 40
0.998782766
 41
-3.9263818294
 42
-2.3568034778
  0
ELLIPSE
  5
957
100
AcDbEntity
  8
0
100
AcDbEllipse
 62
7
  6
CONTINUOUS
 10
22.7043727685
 20
9.0766263079
 30
0.0
 11
0.1415937089
 21
0.1415937089
 31
0.0
 40
0.998782766
 41
-0.7847891758
 42
0.7847891758
  0
ELLIPSE
  5
958
100
AcDbEntity
  8
0
100
AcDbEllipse
 62
7
  6
CONTINUOUS
 10
24.1300127387
 20
9.0766263079
 30
0.0
 11
-0.1415937089
 21
0.1415937089
 31
0.0
 40
0.998782766
 41
-0.7847891758
 42
0.7847891758
  0
ELLIPSE
  5
959
100
AcDbEntity
  8
0
100
AcDbEllipse
 62
7
  6
CONTINUOUS
 10
31.5646896905
 20
-8.5104317981
 30
0.0
 11
0.1415937089
 21
-0.1415937089
 31
0.0
 40
0.998782766
 41
-0.7847891758
 42
0.7847891758
  0
ELLIPSE
  5
95A
100
AcDbEntity
  8
0
100
AcDbEllipse
 62
7
  6
CONTINUOUS
 10
31.5646896905
 20
-9.9360717683
 30
0.0
 11
0.1415937089
 21
0.1415937089
 31
0.0
 40
0.998782766
 41
-0.7847891758
 42
0.7847891758
  0
ELLIPSE
  5
95B
100
AcDbEntity
  8
0
100
AcDbEllipse
 62
7
  6
CONTINUOUS
 10
-80.1747495697
 20
-27.5231298743
 30
0.0
 11
0.1415937089
 21
0.1415937089
 31
0.0
 40
0.998782766
 41
2.3568034778
 42
3.9263818294
  0
ELLIPSE
  5
95C
100
AcDbEntity
  8
0
100
AcDbEllipse
 62
7
  6
CONTINUOUS
 10
-81.60038954
 20
-27.5231298743
 30
0.0
 11
0.1415937089
 21
-0.1415937089
 31
0.0
 40
0.998782766
 41
-0.7847891758
 42
0.7847891758
  0
ELLIPSE
  5
95D
100
AcDbEntity
  8
0
100
AcDbEllipse
 62
7
  6
CONTINUOUS
 10
-81.60038954
 20
-9.9360717683
 30
0.0
 11
0.1415937089
 21
0.1415937089
 31
0.0
 40
0.998782766
 41
-0.7847891758
 42
0.7847891758
  0
ELLIPSE
  5
95E
100
AcDbEntity
  8
0
100
AcDbEllipse
 62
7
  6
CONTINUOUS
 10
-81.60038954
 20
-8.5104317981
 30
0.0
 11
0.1415937089
 21
-0.1415937089
 31
0.0
 40
0.998782766
 41
-0.7847891758
 42
0.7847891758
  0
ELLIPSE
  5
95F
100
AcDbEntity
  8
0
100
AcDbEllipse
 62
7
  6
CONTINUOUS
 10
-81.60038954
 20
9.0766263079
 30
0.0
 11
0.1415937089
 21
0.1415937089
 31
0.0
 40
0.998782766
 41
-0.7847891758
 42
0.7847891758
  0
ELLIPSE
  5
960
100
AcDbEntity
  8
0
100
AcDbEllipse
 62
7
  6
CONTINUOUS
 10
-80.1747495697
 20
9.0766263079
 30
0.0
 11
0.1415937089
 21
-0.1415937089
 31
0.0
 40
0.998782766
 41
2.3568034778
 42
3.9263818294
  0
ELLIPSE
  5
961
100
AcDbEntity
  8
0
100
AcDbEllipse
 62
7
  6
CONTINUOUS
 10
-89.0350664918
 20
-8.5104317981
 30
0.0
 11
0.1415937089
 21
0.1415937089
 31
0.0
 40
0.998782766
 41
2.3568034778
 42
3.9263818294
  0
ELLIPSE
  5
962
100
AcDbEntity
  8
0
100
AcDbEllipse
 62
7
  6
CONTINUOUS
 10
-89.0350664918
 20
-9.9360717683
 30
0.0
 11
0.1415937089
 21
-0.1415937089
 31
0.0
 40
0.998782766
 41
2.3568034778
 42
3.9263818294
  0
ELLIPSE
  5
963
100
AcDbEntity
  8
0
100
AcDbEllipse
 62
7
  6
CONTINUOUS
 10
-86.9177280159
 20
-32.0286609334
 30
0.0
 11
0.0
 21
0.5
 31
0.0
 40
0.0349207695
 41
-4.7123889804
 42
-3.1764992386
  0
ELLIPSE
  5
964
100
AcDbEntity
  8
0
100
AcDbEllipse
 62
7
  6
CONTINUOUS
 10
-83.9526487854
 20
-32.0286609334
 30
0.0
 11
0.0
 21
0.5
 31
0.0
 40
0.0349207695
 41
-3.1066860685
 42
-1.5707963268
  0
ELLIPSE
  5
965
100
AcDbEntity
  8
0
100
AcDbEllipse
 62
7
  6
CONTINUOUS
 10
-83.9526487854
 20
-43.417842633
 30
0.0
 11
-0.0
 21
0.5
 31
0.0
 40
0.0349207695
 41
-1.5707963268
 42
-0.034906585
  0
ELLIPSE
  5
966
100
AcDbEntity
  8
0
100
AcDbEllipse
 62
7
  6
CONTINUOUS
 10
-86.9177280159
 20
-43.417842633
 30
0.0
 11
-0.0
 21
0.5
 31
0.0
 40
0.0349207695
 41
0.034906585
 42
1.5707963268
  0
ELLIPSE
  5
967
100
AcDbEntity
  8
0
100
AcDbEllipse
 62
7
  6
CONTINUOUS
 10
-83.9526487854
 20
13.582157367
 30
0.0
 11
0.0
 21
0.5
 31
0.0
 40
0.0349207695
 41
-1.5707963268
 42
-0.034906585
  0
ELLIPSE
  5
968
100
AcDbEntity
  8
0
100
AcDbEllipse
 62
7
  6
CONTINUOUS
 10
-86.9177280159
 20
13.582157367
 30
0.0
 11
-0.0
 21
0.5
 31
0.0
 40
0.0349207695
 41
0.034906585
 42
1.5707963268
  0
ELLIPSE
  5
969
100
AcDbEntity
  8
0
100
AcDbEllipse
 62
7
  6
CONTINUOUS
 10
-86.9177280159
 20
24.9713390666
 30
0.0
 11
0.0
 21
0.5
 31
0.0
 40
0.0349207695
 41
-4.7123889804
 42
-3.1764992386
  0
ELLIPSE
  5
96A
100
AcDbEntity
  8
0
100
AcDbEllipse
 62
7
  6
CONTINUOUS
 10
-83.9526487854
 20
24.9713390666
 30
0.0
 11
0.0
 21
0.5
 31
0.0
 40
0.0349207695
 41
-3.1066860685
 42
-1.5707963268
  0
ELLIPSE
  5
96B
100
AcDbEntity
  8
0
100
AcDbEllipse
 62
7
  6
CONTINUOUS
 10
29.4473512146
 20
13.582157367
 30
0.0
 11
-0.0
 21
0.5
 31
0.0
 40
0.0349207695
 41
-1.5707963268
 42
-0.034906585
  0
ELLIPSE
  5
96C
100
AcDbEntity
  8
0
100
AcDbEllipse
 62
7
  6
CONTINUOUS
 10
26.4822719841
 20
13.582157367
 30
0.0
 11
0.0
 21
0.5
 31
0.0
 40
0.0349207695
 41
0.034906585
 42
1.5707963268
  0
ELLIPSE
  5
96D
100
AcDbEntity
  8
0
100
AcDbEllipse
 62
7
  6
CONTINUOUS
 10
-64.9353103095
 20
-72.2358279506
 30
0.0
 11
0.1415937089
 21
-0.1415937089
 31
0.0
 40
0.998782766
 41
-0.7847891758
 42
0.7847891758
  0
ELLIPSE
  5
96E
100
AcDbEntity
  8
0
100
AcDbEllipse
 62
7
  6
CONTINUOUS
 10
-64.9353103095
 20
-59.4233736921
 30
0.0
 11
-0.1415937089
 21
-0.1415937089
 31
0.0
 40
0.998782766
 41
2.3568034778
 42
3.9263818294
  0
ELLIPSE
  5
96F
100
AcDbEntity
  8
0
100
AcDbEllipse
 62
7
  6
CONTINUOUS
 10
-64.9353103095
 20
-58.0231298743
 30
0.0
 11
-0.1415937089
 21
0.1415937089
 31
0.0
 40
0.998782766
 41
2.3568034778
 42
3.9263818294
  0
ELLIPSE
  5
970
100
AcDbEntity
  8
0
100
AcDbEllipse
 62
7
  6
CONTINUOUS
 10
-88.947764568
 20
-48.0106756158
 30
0.0
 11
0.1415937089
 21
-0.1415937089
 31
0.0
 40
0.998782766
 41
2.3568034778
 42
3.9263818294
  0
ELLIPSE
  5
971
100
AcDbEntity
  8
0
100
AcDbEllipse
 62
7
  6
CONTINUOUS
 10
-64.9353103095
 20
-48.0106756158
 30
0.0
 11
-0.1415937089
 21
-0.1415937089
 31
0.0
 40
0.998782766
 41
2.3568034778
 42
3.9263818294
  0
ELLIPSE
  5
972
100
AcDbEntity
  8
0
100
AcDbEllipse
 62
7
  6
CONTINUOUS
 10
-18.9653103095
 20
39.5766263079
 30
0.0
 11
-0.1415937089
 21
-0.1415937089
 31
0.0
 40
0.998782766
 41
2.3568034778
 42
3.9263818294
  0
ELLIPSE
  5
973
100
AcDbEntity
  8
0
100
AcDbEllipse
 62
7
  6
CONTINUOUS
 10
-18.9653103095
 20
19.9768701257
 30
0.0
 11
-0.1415937089
 21
0.1415937089
 31
0.0
 40
0.998782766
 41
2.3568034778
 42
3.9263818294
  0
ELLIPSE
  5
974
100
AcDbEntity
  8
0
100
AcDbEllipse
 62
7
  6
CONTINUOUS
 10
-38.5350664918
 20
19.9768701257
 30
0.0
 11
0.1415937089
 21
0.1415937089
 31
0.0
 40
0.998782766
 41
2.3568034778
 42
3.9263818294
  0
ELLIPSE
  5
975
100
AcDbEntity
  8
0
100
AcDbEllipse
 62
7
  6
CONTINUOUS
 10
-38.5350664918
 20
39.5766263079
 30
0.0
 11
0.1415937089
 21
-0.1415937089
 31
0.0
 40
0.998782766
 41
2.3568034778
 42
3.9263818294
  0
ELLIPSE
  5
976
100
AcDbEntity
  8
0
100
AcDbEllipse
 62
7
  6
CONTINUOUS
 10
-17.5650664918
 20
53.7893243842
 30
0.0
 11
-0.1415937089
 21
0.1415937089
 31
0.0
 40
0.998782766
 41
-0.7847891758
 42
0.7847891758
  0
ELLIPSE
  5
977
100
AcDbEntity
  8
0
100
AcDbEllipse
 62
7
  6
CONTINUOUS
 10
6.0646896905
 20
53.7893243842
 30
0.0
 11
-0.1415937089
 21
-0.1415937089
 31
0.0
 40
0.998782766
 41
2.3568034778
 42
3.9263818294
  0
ELLIPSE
  5
978
100
AcDbEntity
  8
0
100
AcDbEllipse
 62
7
  6
CONTINUOUS
 10
6.0646896905
 20
40.9768701257
 30
0.0
 11
-0.1415937089
 21
0.1415937089
 31
0.0
 40
0.998782766
 41
2.3568034778
 42
3.9263818294
  0
ELLIPSE
  5
979
100
AcDbEntity
  8
0
100
AcDbEllipse
 62
7
  6
CONTINUOUS
 10
-17.5650664918
 20
40.9768701257
 30
0.0
 11
0.1415937089
 21
0.1415937089
 31
0.0
 40
0.998782766
 41
2.3568034778
 42
3.9263818294
  0
ELLIPSE
  5
97A
100
AcDbEntity
  8
0
100
AcDbEllipse
 62
7
  6
CONTINUOUS
 10
26.4822719841
 20
24.9713390666
 30
0.0
 11
0.0
 21
0.5
 31
0.0
 40
0.0349207695
 41
-4.7123889804
 42
-3.1764992386
  0
ELLIPSE
  5
97B
100
AcDbEntity
  8
0
100
AcDbEllipse
 62
7
  6
CONTINUOUS
 10
29.4473512146
 20
24.9713390666
 30
0.0
 11
0.0
 21
0.5
 31
0.0
 40
0.0349207695
 41
-3.1066860685
 42
-1.5707963268
  0
ELLIPSE
  5
97C
100
AcDbEntity
  8
0
100
AcDbEllipse
 62
7
  6
CONTINUOUS
 10
26.4822719841
 20
-32.0286609334
 30
0.0
 11
0.0
 21
0.5
 31
0.0
 40
0.0349207695
 41
-4.7123889804
 42
-3.1764992386
  0
ELLIPSE
  5
97D
100
AcDbEntity
  8
0
100
AcDbEllipse
 62
7
  6
CONTINUOUS
 10
29.4473512146
 20
-32.0286609334
 30
0.0
 11
0.0
 21
0.5
 31
0.0
 40
0.0349207695
 41
-3.1066860685
 42
-1.5707963268
  0
ELLIPSE
  5
97E
100
AcDbEntity
  8
0
100
AcDbEllipse
 62
7
  6
CONTINUOUS
 10
29.4473512146
 20
-43.417842633
 30
0.0
 11
-0.0
 21
0.5
 31
0.0
 40
0.0349207695
 41
-1.5707963268
 42
-0.034906585
  0
ELLIPSE
  5
97F
100
AcDbEntity
  8
0
100
AcDbEllipse
 62
7
  6
CONTINUOUS
 10
-78.5575330027
 20
27.9544036147
 30
0.0
 11
-0.1415937089
 21
-0.1415937089
 31
0.0
 40
0.998782766
 41
2.3568034778
 42
3.9263818294
  0
ELLIPSE
  5
980
100
AcDbEntity
  8
0
100
AcDbEllipse
 62
7
  6
CONTINUOUS
 10
-78.5575330027
 20
10.5990928189
 30
0.0
 11
-0.1415937089
 21
0.1415937089
 31
0.0
 40
0.998782766
 41
2.3568034778
 42
3.9263818294
  0
ELLIPSE
  5
981
100
AcDbEntity
  8
0
100
AcDbEllipse
 62
7
  6
CONTINUOUS
 10
26.4822719841
 20
-43.417842633
 30
0.0
 11
-0.0
 21
0.5
 31
0.0
 40
0.0349207695
 41
0.034906585
 42
1.5707963268
  0
ELLIPSE
  5
982
100
AcDbEntity
  8
0
100
AcDbEllipse
 62
7
  6
CONTINUOUS
 10
-78.5575330027
 20
-29.0455963853
 30
0.0
 11
-0.1415937089
 21
-0.1415937089
 31
0.0
 40
0.998782766
 41
2.3568034778
 42
3.9263818294
  0
ELLIPSE
  5
983
100
AcDbEntity
  8
0
100
AcDbEllipse
 62
7
  6
CONTINUOUS
 10
-78.5575330027
 20
-46.4009071811
 30
0.0
 11
-0.1415937089
 21
0.1415937089
 31
0.0
 40
0.998782766
 41
2.3568034778
 42
3.9263818294
  0
ELLIPSE
  5
984
100
AcDbEntity
  8
0
100
AcDbEllipse
 62
7
  6
CONTINUOUS
 10
21.0871562014
 20
10.5990928189
 30
0.0
 11
0.1415937089
 21
0.1415937089
 31
0.0
 40
0.998782766
 41
2.3568034778
 42
3.9263818294
  0
ELLIPSE
  5
985
100
AcDbEntity
  8
0
100
AcDbEllipse
 62
7
  6
CONTINUOUS
 10
21.0871562014
 20
27.9544036147
 30
0.0
 11
0.1415937089
 21
-0.1415937089
 31
0.0
 40
0.998782766
 41
2.3568034778
 42
3.9263818294
  0
ELLIPSE
  5
986
100
AcDbEntity
  8
0
100
AcDbEllipse
 62
7
  6
CONTINUOUS
 10
21.0871562014
 20
-46.4009071811
 30
0.0
 11
0.1415937089
 21
0.1415937089
 31
0.0
 40
0.998782766
 41
2.3568034778
 42
3.9263818294
  0
ELLIPSE
  5
987
100
AcDbEntity
  8
0
100
AcDbEllipse
 62
7
  6
CONTINUOUS
 10
21.0871562014
 20
-29.0455963853
 30
0.0
 11
0.1415937089
 21
-0.1415937089
 31
0.0
 40
0.998782766
 41
2.3568034778
 42
3.9263818294
  0
ELLIPSE
  5
988
100
AcDbEntity
  8
0
100
AcDbEllipse
 62
7
  6
CONTINUOUS
 10
-18.8780083858
 20
18.6639282317
 30
0.0
 11
0.1415937089
 21
0.1415937089
 31
0.0
 40
0.998782766
 41
-0.7847891758
 42
0.7847891758
  0
ELLIPSE
  5
989
100
AcDbEntity
  8
0
100
AcDbEllipse
 62
7
  6
CONTINUOUS
 10
-18.8780083858
 20
19.8895682019
 30
0.0
 11
0.1415937089
 21
-0.1415937089
 31
0.0
 40
0.998782766
 41
-0.7847891758
 42
0.7847891758
  0
ELLIPSE
  5
98A
100
AcDbEntity
  8
0
100
AcDbEllipse
 62
7
  6
CONTINUOUS
 10
-17.6523684155
 20
19.8895682019
 30
0.0
 11
0.1415937089
 21
0.1415937089
 31
0.0
 40
0.998782766
 41
2.3568034778
 42
3.9263818294
  0
ELLIPSE
  5
98B
100
AcDbEntity
  8
0
100
AcDbEllipse
 62
7
  6
CONTINUOUS
 10
-18.8780083858
 20
40.8895682019
 30
0.0
 11
-0.1415937089
 21
0.1415937089
 31
0.0
 40
0.998782766
 41
-3.9263818294
 42
-2.3568034778
  0
ELLIPSE
  5
98C
100
AcDbEntity
  8
0
100
AcDbEllipse
 62
7
  6
CONTINUOUS
 10
-18.8780083858
 20
39.6639282317
 30
0.0
 11
0.1415937089
 21
0.1415937089
 31
0.0
 40
0.998782766
 41
-0.7847891758
 42
0.7847891758
  0
ELLIPSE
  5
98D
100
AcDbEntity
  8
0
100
AcDbEllipse
 62
7
  6
CONTINUOUS
 10
-17.6523684155
 20
39.6639282317
 30
0.0
 11
-0.1415937089
 21
0.1415937089
 31
0.0
 40
0.998782766
 41
-0.7847891758
 42
0.7847891758
  0
ELLIPSE
  5
98E
100
AcDbEntity
  8
0
100
AcDbEllipse
 62
7
  6
CONTINUOUS
 10
-17.6523684155
 20
40.8895682019
 30
0.0
 11
0.1415937089
 21
0.1415937089
 31
0.0
 40
0.998782766
 41
-3.9263818294
 42
-2.3568034778
  0
ELLIPSE
  5
98F
100
AcDbEntity
  8
0
100
AcDbEllipse
 62
7
  6
CONTINUOUS
 10
-17.6523684155
 20
53.8766263079
 30
0.0
 11
-0.1415937089
 21
0.1415937089
 31
0.0
 40
0.998782766
 41
-0.7847891758
 42
0.7847891758
  0
ELLIPSE
  5
990
100
AcDbEntity
  8
0
100
AcDbEllipse
 62
7
  6
CONTINUOUS
 10
-18.8780083858
 20
53.8766263079
 30
0.0
 11
0.1415937089
 21
0.1415937089
 31
0.0
 40
0.998782766
 41
-0.7847891758
 42
-0.0087091631
  0
ELLIPSE
  5
991
100
AcDbEntity
  8
0
100
AcDbEllipse
 62
7
  6
CONTINUOUS
 10
-18.9653103095
 20
53.7893243842
 30
0.0
 11
-0.1415937089
 21
-0.1415937089
 31
0.0
 40
0.998782766
 41
2.3568034778
 42
3.9263818294
  0
ELLIPSE
  5
992
100
AcDbEntity
  8
0
100
AcDbEllipse
 62
7
  6
CONTINUOUS
 10
-18.9653103095
 20
40.9768701257
 30
0.0
 11
-0.1415937089
 21
0.1415937089
 31
0.0
 40
0.998782766
 41
2.3568034778
 42
3.9263818294
  0
ELLIPSE
  5
993
100
AcDbEntity
  8
0
100
AcDbEllipse
 62
7
  6
CONTINUOUS
 10
-38.5350664918
 20
40.9768701257
 30
0.0
 11
0.1415937089
 21
0.1415937089
 31
0.0
 40
0.998782766
 41
2.3568034778
 42
3.9263818294
  0
ELLIPSE
  5
994
100
AcDbEntity
  8
0
100
AcDbEllipse
 62
7
  6
CONTINUOUS
 10
-38.5350664918
 20
53.7893243842
 30
0.0
 11
-0.1415937089
 21
0.1415937089
 31
0.0
 40
0.998782766
 41
-0.7847891758
 42
0.7847891758
  0
ELLIPSE
  5
995
100
AcDbEntity
  8
0
100
AcDbEllipse
 62
7
  6
CONTINUOUS
 10
-39.9353103095
 20
53.7893243842
 30
0.0
 11
-0.1415937089
 21
-0.1415937089
 31
0.0
 40
0.998782766
 41
2.3568034778
 42
3.9263818294
  0
ELLIPSE
  5
996
100
AcDbEntity
  8
0
100
AcDbEllipse
 62
7
  6
CONTINUOUS
 10
-39.9353103095
 20
40.9768701257
 30
0.0
 11
-0.1415937089
 21
0.1415937089
 31
0.0
 40
0.998782766
 41
2.3568034778
 42
3.9263818294
  0
ELLIPSE
  5
997
100
AcDbEntity
  8
0
100
AcDbEllipse
 62
7
  6
CONTINUOUS
 10
-63.5350664918
 20
40.9768701257
 30
0.0
 11
0.1415937089
 21
0.1415937089
 31
0.0
 40
0.998782766
 41
2.3568034778
 42
3.9263818294
  0
ELLIPSE
  5
998
100
AcDbEntity
  8
0
100
AcDbEllipse
 62
7
  6
CONTINUOUS
 10
-63.5350664918
 20
53.7893243842
 30
0.0
 11
-0.1415937089
 21
0.1415937089
 31
0.0
 40
0.998782766
 41
-0.7847891758
 42
0.7847891758
  0
ELLIPSE
  5
999
100
AcDbEntity
  8
0
100
AcDbEllipse
 62
7
  6
CONTINUOUS
 10
-18.8731892886
 20
53.8814454051
 30
0.0
 11
-0.0738360047
 21
0.187443618
 31
0.0
 40
0.9534465161
 41
-1.1865019144
 42
-0.3930035755
  0
ELLIPSE
  5
99A
100
AcDbEntity
  8
0
100
AcDbEllipse
 62
7
  6
CONTINUOUS
 10
6.1519916142
 20
53.8766263079
 30
0.0
 11
0.1415937089
 21
0.1415937089
 31
0.0
 40
0.998782766
 41
-0.7847891758
 42
0.7847891758
  0
ELLIPSE
  5
99B
100
AcDbEntity
  8
0
100
AcDbEllipse
 62
7
  6
CONTINUOUS
 10
7.373824761
 20
53.8804331314
 30
0.0
 11
0.0738360047
 21
0.187443618
 31
0.0
 40
0.9534465161
 41
0.3930035755
 42
0.9907122708
  0
ELLIPSE
  5
99C
100
AcDbEntity
  8
0
100
AcDbEllipse
 62
7
  6
CONTINUOUS
 10
7.3776315845
 20
53.8766263079
 30
0.0
 11
-0.1415937089
 21
0.1415937089
 31
0.0
 40
0.998782766
 41
-0.1870804805
 42
0.7847891758
  0
ELLIPSE
  5
99D
100
AcDbEntity
  8
0
100
AcDbEllipse
 62
7
  6
CONTINUOUS
 10
6.1519916142
 20
39.6639282317
 30
0.0
 11
0.1415937089
 21
0.1415937089
 31
0.0
 40
0.998782766
 41
-0.7847891758
 42
0.7847891758
  0
ELLIPSE
  5
99E
100
AcDbEntity
  8
0
100
AcDbEllipse
 62
7
  6
CONTINUOUS
 10
6.1519916142
 20
40.8895682019
 30
0.0
 11
-0.1415937089
 21
0.1415937089
 31
0.0
 40
0.998782766
 41
-3.9263818294
 42
-2.3568034778
  0
ELLIPSE
  5
99F
100
AcDbEntity
  8
0
100
AcDbEllipse
 62
7
  6
CONTINUOUS
 10
7.3776315845
 20
40.8895682019
 30
0.0
 11
0.1415937089
 21
0.1415937089
 31
0.0
 40
0.998782766
 41
-3.9263818294
 42
-2.3568034778
  0
ELLIPSE
  5
9A0
100
AcDbEntity
  8
0
100
AcDbEllipse
 62
7
  6
CONTINUOUS
 10
7.3776315845
 20
39.6639282317
 30
0.0
 11
-0.1415937089
 21
0.1415937089
 31
0.0
 40
0.998782766
 41
-0.7847891758
 42
0.7847891758
  0
ELLIPSE
  5
9A1
100
AcDbEntity
  8
0
100
AcDbEllipse
 62
7
  6
CONTINUOUS
 10
-38.6223684155
 20
-72.3231298743
 30
0.0
 11
0.1415937089
 21
0.1415937089
 31
0.0
 40
0.998782766
 41
2.3568034778
 42
3.3286731341
  0
ELLIPSE
  5
9A2
100
AcDbEntity
  8
0
100
AcDbEllipse
 62
7
  6
CONTINUOUS
 10
-38.626175239
 20
-72.3269366978
 30
0.0
 11
-0.0738360047
 21
0.187443618
 31
0.0
 40
0.9534465161
 41
-4.1323049244
 42
-3.5345962291
  0
ELLIPSE
  5
9A3
100
AcDbEntity
  8
0
100
AcDbEllipse
 62
7
  6
CONTINUOUS
 10
-39.8480083858
 20
-72.3231298743
 30
0.0
 11
-0.1415937089
 21
0.1415937089
 31
0.0
 40
0.998782766
 41
-3.9263818294
 42
-2.3568034778
  0
ELLIPSE
  5
9A4
100
AcDbEntity
  8
0
100
AcDbEllipse
 62
7
  6
CONTINUOUS
 10
-17.6523684155
 20
-72.3231298743
 30
0.0
 11
0.1415937089
 21
0.1415937089
 31
0.0
 40
0.998782766
 41
-3.9263818294
 42
-2.3568034778
  0
ELLIPSE
  5
9A5
100
AcDbEntity
  8
0
100
AcDbEllipse
 62
7
  6
CONTINUOUS
 10
-18.8731892886
 20
-72.3279489715
 30
0.0
 11
0.0738360047
 21
0.187443618
 31
0.0
 40
0.9534465161
 41
-2.7485890781
 42
-1.9550907392
  0
ELLIPSE
  5
9A6
100
AcDbEntity
  8
0
100
AcDbEllipse
 62
7
  6
CONTINUOUS
 10
-18.8780083858
 20
-72.3231298743
 30
0.0
 11
-0.1415937089
 21
0.1415937089
 31
0.0
 40
0.998782766
 41
-3.1328834905
 42
-2.3568034778
  0
ELLIPSE
  5
9A7
100
AcDbEntity
  8
0
100
AcDbEllipse
 62
7
  6
CONTINUOUS
 10
6.1519916142
 20
-72.3231298743
 30
0.0
 11
-0.1415937089
 21
0.1415937089
 31
0.0
 40
0.998782766
 41
-3.9263818294
 42
-2.3568034778
  0
ELLIPSE
  5
9A8
100
AcDbEntity
  8
0
100
AcDbEllipse
 62
7
  6
CONTINUOUS
 10
7.3776315845
 20
-72.3231298743
 30
0.0
 11
0.1415937089
 21
0.1415937089
 31
0.0
 40
0.998782766
 41
-3.9263818294
 42
-2.9545121731
  0
ELLIPSE
  5
9A9
100
AcDbEntity
  8
0
100
AcDbEllipse
 62
7
  6
CONTINUOUS
 10
7.373824761
 20
-72.3269366978
 30
0.0
 11
-0.0738360047
 21
0.187443618
 31
0.0
 40
0.9534465161
 41
-4.1323049244
 42
-3.5345962291
  0
ELLIPSE
  5
9AA
100
AcDbEntity
  8
0
100
AcDbEllipse
 62
7
  6
CONTINUOUS
 10
-17.6523684155
 20
-59.3360717683
 30
0.0
 11
0.1415937089
 21
-0.1415937089
 31
0.0
 40
0.998782766
 41
2.3568034778
 42
3.9263818294
  0
ELLIPSE
  5
9AB
100
AcDbEntity
  8
0
100
AcDbEllipse
 62
7
  6
CONTINUOUS
 10
-18.8780083858
 20
-59.3360717683
 30
0.0
 11
0.1415937089
 21
0.1415937089
 31
0.0
 40
0.998782766
 41
-0.7847891758
 42
0.7847891758
  0
ELLIPSE
  5
9AC
100
AcDbEntity
  8
0
100
AcDbEllipse
 62
7
  6
CONTINUOUS
 10
-18.8780083858
 20
-58.1104317981
 30
0.0
 11
0.1415937089
 21
-0.1415937089
 31
0.0
 40
0.998782766
 41
-0.7847891758
 42
0.7847891758
  0
ELLIPSE
  5
9AD
100
AcDbEntity
  8
0
100
AcDbEllipse
 62
7
  6
CONTINUOUS
 10
-17.6523684155
 20
-58.1104317981
 30
0.0
 11
0.1415937089
 21
0.1415937089
 31
0.0
 40
0.998782766
 41
-3.9263818294
 42
-2.3568034778
  0
ELLIPSE
  5
9AE
100
AcDbEntity
  8
0
100
AcDbEllipse
 62
7
  6
CONTINUOUS
 10
-17.6523684155
 20
-38.3360717683
 30
0.0
 11
0.1415937089
 21
-0.1415937089
 31
0.0
 40
0.998782766
 41
2.3568034778
 42
3.9263818294
  0
ELLIPSE
  5
9AF
100
AcDbEntity
  8
0
100
AcDbEllipse
 62
7
  6
CONTINUOUS
 10
-18.8780083858
 20
-38.3360717683
 30
0.0
 11
0.1415937089
 21
0.1415937089
 31
0.0
 40
0.998782766
 41
-0.7847891758
 42
0.7847891758
  0
ELLIPSE
  5
9B0
100
AcDbEntity
  8
0
100
AcDbEllipse
 62
7
  6
CONTINUOUS
 10
-18.8780083858
 20
-37.1104317981
 30
0.0
 11
0.1415937089
 21
-0.1415937089
 31
0.0
 40
0.998782766
 41
-0.7847891758
 42
0.7847891758
  0
ELLIPSE
  5
9B1
100
AcDbEntity
  8
0
100
AcDbEllipse
 62
7
  6
CONTINUOUS
 10
-17.6523684155
 20
-37.1104317981
 30
0.0
 11
0.1415937089
 21
0.1415937089
 31
0.0
 40
0.998782766
 41
2.3568034778
 42
3.9263818294
  0
ELLIPSE
  5
9B2
100
AcDbEntity
  8
0
100
AcDbEllipse
 62
7
  6
CONTINUOUS
 10
-17.6523684155
 20
18.6639282317
 30
0.0
 11
0.1415937089
 21
-0.1415937089
 31
0.0
 40
0.998782766
 41
2.3568034778
 42
3.9263818294
  0
ELLIPSE
  5
9B3
100
AcDbEntity
  8
0
100
AcDbEllipse
 62
7
  6
CONTINUOUS
 10
19.5646896905
 20
-46.5231298743
 30
0.0
 11
0.1415937089
 21
-0.1415937089
 31
0.0
 40
0.998782766
 41
-0.7847891758
 42
0.7847891758
  0
ELLIPSE
  5
9B4
100
AcDbEntity
  8
0
100
AcDbEllipse
 62
7
  6
CONTINUOUS
 10
7.3776315845
 20
-47.9233736921
 30
0.0
 11
0.1415937089
 21
-0.1415937089
 31
0.0
 40
0.998782766
 41
2.3568034778
 42
3.9263818294
  0
ELLIPSE
  5
9B5
100
AcDbEntity
  8
0
100
AcDbEllipse
 62
7
  6
CONTINUOUS
 10
7.3776315845
 20
-46.5231298743
 30
0.0
 11
0.1415937089
 21
0.1415937089
 31
0.0
 40
0.998782766
 41
-3.9263818294
 42
-2.3568034778
  0
ELLIPSE
  5
9B6
100
AcDbEntity
  8
0
100
AcDbEllipse
 62
7
  6
CONTINUOUS
 10
6.1519916142
 20
-58.1104317981
 30
0.0
 11
0.1415937089
 21
-0.1415937089
 31
0.0
 40
0.998782766
 41
-0.7847891758
 42
0.7847891758
  0
ELLIPSE
  5
9B7
100
AcDbEntity
  8
0
100
AcDbEllipse
 62
7
  6
CONTINUOUS
 10
7.3776315845
 20
-58.1104317981
 30
0.0
 11
0.1415937089
 21
0.1415937089
 31
0.0
 40
0.998782766
 41
-3.9263818294
 42
-2.3568034778
  0
ELLIPSE
  5
9B8
100
AcDbEntity
  8
0
100
AcDbEllipse
 62
7
  6
CONTINUOUS
 10
-39.9353103095
 20
39.5766263079
 30
0.0
 11
-0.1415937089
 21
-0.1415937089
 31
0.0
 40
0.998782766
 41
2.3568034778
 42
3.9263818294
  0
ELLIPSE
  5
9B9
100
AcDbEntity
  8
0
100
AcDbEllipse
 62
7
  6
CONTINUOUS
 10
-39.9353103095
 20
19.9768701257
 30
0.0
 11
-0.1415937089
 21
0.1415937089
 31
0.0
 40
0.998782766
 41
2.3568034778
 42
3.9263818294
  0
ELLIPSE
  5
9BA
100
AcDbEntity
  8
0
100
AcDbEllipse
 62
7
  6
CONTINUOUS
 10
-63.5350664918
 20
19.9768701257
 30
0.0
 11
0.1415937089
 21
0.1415937089
 31
0.0
 40
0.998782766
 41
2.3568034778
 42
3.9263818294
  0
ELLIPSE
  5
9BB
100
AcDbEntity
  8
0
100
AcDbEllipse
 62
7
  6
CONTINUOUS
 10
-63.5350664918
 20
39.5766263079
 30
0.0
 11
0.1415937089
 21
-0.1415937089
 31
0.0
 40
0.998782766
 41
2.3568034778
 42
3.9263818294
  0
ELLIPSE
  5
9BC
100
AcDbEntity
  8
0
100
AcDbEllipse
 62
7
  6
CONTINUOUS
 10
-38.5350664918
 20
18.5766263079
 30
0.0
 11
0.1415937089
 21
-0.1415937089
 31
0.0
 40
0.998782766
 41
2.3568034778
 42
3.9263818294
  0
ELLIPSE
  5
9BD
100
AcDbEntity
  8
0
100
AcDbEllipse
 62
7
  6
CONTINUOUS
 10
-18.9653103095
 20
18.5766263079
 30
0.0
 11
-0.1415937089
 21
-0.1415937089
 31
0.0
 40
0.998782766
 41
2.3568034778
 42
3.9263818294
  0
ELLIPSE
  5
9BE
100
AcDbEntity
  8
0
100
AcDbEllipse
 62
7
  6
CONTINUOUS
 10
-18.9653103095
 20
-37.0231298743
 30
0.0
 11
-0.1415937089
 21
0.1415937089
 31
0.0
 40
0.998782766
 41
2.3568034778
 42
3.9263818294
  0
ELLIPSE
  5
9BF
100
AcDbEntity
  8
0
100
AcDbEllipse
 62
7
  6
CONTINUOUS
 10
-38.5350664918
 20
-37.0231298743
 30
0.0
 11
0.1415937089
 21
0.1415937089
 31
0.0
 40
0.998782766
 41
2.3568034778
 42
3.9263818294
  0
ELLIPSE
  5
9C0
100
AcDbEntity
  8
0
100
AcDbEllipse
 62
7
  6
CONTINUOUS
 10
-88.947764568
 20
29.5641720494
 30
0.0
 11
0.1415937089
 21
0.1415937089
 31
0.0
 40
0.998782766
 41
2.3568034778
 42
3.9263818294
  0
ELLIPSE
  5
9C1
100
AcDbEntity
  8
0
100
AcDbEllipse
 62
7
  6
CONTINUOUS
 10
-64.9353103095
 20
39.5766263079
 30
0.0
 11
-0.1415937089
 21
-0.1415937089
 31
0.0
 40
0.998782766
 41
2.3568034778
 42
3.9263818294
  0
ELLIPSE
  5
9C2
100
AcDbEntity
  8
0
100
AcDbEllipse
 62
7
  6
CONTINUOUS
 10
-64.9353103095
 20
29.5641720494
 30
0.0
 11
0.1415937089
 21
-0.1415937089
 31
0.0
 40
0.998782766
 41
-0.7847891758
 42
0.7847891758
  0
ELLIPSE
  5
9C3
100
AcDbEntity
  8
0
100
AcDbEllipse
 62
7
  6
CONTINUOUS
 10
-76.947764568
 20
27.9893243842
 30
0.0
 11
-0.1415937089
 21
0.1415937089
 31
0.0
 40
0.998782766
 41
-0.7847891758
 42
0.7847891758
  0
ELLIPSE
  5
9C4
100
AcDbEntity
  8
0
100
AcDbEllipse
 62
7
  6
CONTINUOUS
 10
-64.9353103095
 20
27.9893243842
 30
0.0
 11
-0.1415937089
 21
-0.1415937089
 31
0.0
 40
0.998782766
 41
2.3568034778
 42
3.9263818294
  0
ELLIPSE
  5
9C5
100
AcDbEntity
  8
0
100
AcDbEllipse
 62
7
  6
CONTINUOUS
 10
-64.9353103095
 20
10.5641720494
 30
0.0
 11
0.1415937089
 21
-0.1415937089
 31
0.0
 40
0.998782766
 41
-0.7847891758
 42
0.7847891758
  0
ELLIPSE
  5
9C6
100
AcDbEntity
  8
0
100
AcDbEllipse
 62
7
  6
CONTINUOUS
 10
-76.947764568
 20
10.5641720494
 30
0.0
 11
0.1415937089
 21
0.1415937089
 31
0.0
 40
0.998782766
 41
2.3568034778
 42
3.9263818294
  0
ELLIPSE
  5
9C7
100
AcDbEntity
  8
0
100
AcDbEllipse
 62
7
  6
CONTINUOUS
 10
-76.947764568
 20
-29.0106756158
 30
0.0
 11
-0.1415937089
 21
0.1415937089
 31
0.0
 40
0.998782766
 41
-0.7847891758
 42
0.7847891758
  0
ELLIPSE
  5
9C8
100
AcDbEntity
  8
0
100
AcDbEllipse
 62
7
  6
CONTINUOUS
 10
-64.9353103095
 20
-29.0106756158
 30
0.0
 11
-0.1415937089
 21
-0.1415937089
 31
0.0
 40
0.998782766
 41
2.3568034778
 42
3.9263818294
  0
ELLIPSE
  5
9C9
100
AcDbEntity
  8
0
100
AcDbEllipse
 62
7
  6
CONTINUOUS
 10
-64.9353103095
 20
-46.4358279506
 30
0.0
 11
0.1415937089
 21
-0.1415937089
 31
0.0
 40
0.998782766
 41
-0.7847891758
 42
0.7847891758
  0
ELLIPSE
  5
9CA
100
AcDbEntity
  8
0
100
AcDbEllipse
 62
7
  6
CONTINUOUS
 10
-76.947764568
 20
-46.4358279506
 30
0.0
 11
0.1415937089
 21
0.1415937089
 31
0.0
 40
0.998782766
 41
2.3568034778
 42
3.9263818294
  0
ELLIPSE
  5
9CB
100
AcDbEntity
  8
0
100
AcDbEllipse
 62
7
  6
CONTINUOUS
 10
-64.9353103095
 20
40.9768701257
 30
0.0
 11
-0.1415937089
 21
0.1415937089
 31
0.0
 40
0.998782766
 41
2.3568034778
 42
3.9263818294
  0
ELLIPSE
  5
9CC
100
AcDbEntity
  8
0
100
AcDbEllipse
 62
7
  6
CONTINUOUS
 10
-64.9353103095
 20
53.7893243842
 30
0.0
 11
-0.1415937089
 21
-0.1415937089
 31
0.0
 40
0.998782766
 41
2.3568034778
 42
3.9263818294
  0
ELLIPSE
  5
9CD
100
AcDbEntity
  8
0
100
AcDbEllipse
 62
7
  6
CONTINUOUS
 10
19.4773877668
 20
10.5641720494
 30
0.0
 11
0.1415937089
 21
-0.1415937089
 31
0.0
 40
0.998782766
 41
-0.7847891758
 42
0.7847891758
  0
ELLIPSE
  5
9CE
100
AcDbEntity
  8
0
100
AcDbEllipse
 62
7
  6
CONTINUOUS
 10
7.4649335082
 20
10.5641720494
 30
0.0
 11
0.1415937089
 21
0.1415937089
 31
0.0
 40
0.998782766
 41
2.3568034778
 42
3.9263818294
  0
ELLIPSE
  5
9CF
100
AcDbEntity
  8
0
100
AcDbEllipse
 62
7
  6
CONTINUOUS
 10
7.4649335082
 20
27.9893243842
 30
0.0
 11
-0.1415937089
 21
0.1415937089
 31
0.0
 40
0.998782766
 41
-0.7847891758
 42
0.7847891758
  0
ELLIPSE
  5
9D0
100
AcDbEntity
  8
0
100
AcDbEllipse
 62
7
  6
CONTINUOUS
 10
19.4773877668
 20
27.9893243842
 30
0.0
 11
-0.1415937089
 21
-0.1415937089
 31
0.0
 40
0.998782766
 41
2.3568034778
 42
3.9263818294
  0
ELLIPSE
  5
9D1
100
AcDbEntity
  8
0
100
AcDbEllipse
 62
7
  6
CONTINUOUS
 10
7.4649335082
 20
53.7893243842
 30
0.0
 11
-0.1415937089
 21
0.1415937089
 31
0.0
 40
0.998782766
 41
-0.7847891758
 42
0.7847891758
  0
ELLIPSE
  5
9D2
100
AcDbEntity
  8
0
100
AcDbEllipse
 62
7
  6
CONTINUOUS
 10
7.4649335082
 20
40.9768701257
 30
0.0
 11
0.1415937089
 21
0.1415937089
 31
0.0
 40
0.998782766
 41
2.3568034778
 42
3.9263818294
  0
ELLIPSE
  5
9D3
100
AcDbEntity
  8
0
100
AcDbEllipse
 62
7
  6
CONTINUOUS
 10
7.4649335082
 20
39.5766263079
 30
0.0
 11
0.1415937089
 21
-0.1415937089
 31
0.0
 40
0.998782766
 41
2.3568034778
 42
3.9263818294
  0
ELLIPSE
  5
9D4
100
AcDbEntity
  8
0
100
AcDbEllipse
 62
7
  6
CONTINUOUS
 10
31.4773877668
 20
29.5641720494
 30
0.0
 11
-0.1415937089
 21
0.1415937089
 31
0.0
 40
0.998782766
 41
2.3568034778
 42
3.9263818294
  0
ELLIPSE
  5
9D5
100
AcDbEntity
  8
0
100
AcDbEllipse
 62
7
  6
CONTINUOUS
 10
7.4649335082
 20
29.5641720494
 30
0.0
 11
0.1415937089
 21
0.1415937089
 31
0.0
 40
0.998782766
 41
2.3568034778
 42
3.9263818294
  0
ELLIPSE
  5
9D6
100
AcDbEntity
  8
0
100
AcDbEllipse
 62
7
  6
CONTINUOUS
 10
-67.4979045026
 20
33.0767482168
 30
0.0
 11
21.1130484448
 21
0.0
 31
0.0
 40
0.9993900839
 41
1.6722004979
 42
1.7247345409
  0
ELLIPSE
  5
9D7
100
AcDbEntity
  8
0
100
AcDbEllipse
 62
7
  6
CONTINUOUS
 10
-68.9982785868
 20
33.0767482168
 30
0.0
 11
21.852043849
 21
0.0
 31
0.0
 40
0.9993900839
 41
1.5999469193
 42
1.6503652665
  0
ELLIPSE
  5
9D8
100
AcDbEntity
  8
0
100
AcDbEllipse
 62
7
  6
CONTINUOUS
 10
6.0646896905
 20
39.5766263079
 30
0.0
 11
-0.1415937089
 21
-0.1415937089
 31
0.0
 40
0.998782766
 41
2.3568034778
 42
3.9263818294
  0
ELLIPSE
  5
9D9
100
AcDbEntity
  8
0
100
AcDbEllipse
 62
7
  6
CONTINUOUS
 10
10.0275277014
 20
33.0767482168
 30
0.0
 11
21.1130484448
 21
0.0
 31
0.0
 40
0.9993900839
 41
1.4168581126
 42
1.4693921557
  0
ELLIPSE
  5
9DA
100
AcDbEntity
  8
0
100
AcDbEllipse
 62
7
  6
CONTINUOUS
 10
11.5279017855
 20
33.0767482168
 30
0.0
 11
21.852043849
 21
-0.0
 31
0.0
 40
0.9993900839
 41
1.491227387
 42
1.5416457343
  0
ELLIPSE
  5
9DB
100
AcDbEntity
  8
0
100
AcDbEllipse
 62
7
  6
CONTINUOUS
 10
-67.4979045026
 20
-51.5232517832
 30
0.0
 11
21.1130484448
 21
0.0
 31
0.0
 40
0.9993900839
 41
-1.7247345409
 42
-1.6722004979
  0
ELLIPSE
  5
9DC
100
AcDbEntity
  8
0
100
AcDbEllipse
 62
7
  6
CONTINUOUS
 10
-68.9982785868
 20
-51.5232517832
 30
0.0
 11
21.852043849
 21
-0.0
 31
0.0
 40
0.9993900839
 41
-1.6503652665
 42
-1.5999469193
  0
ELLIPSE
  5
9DD
100
AcDbEntity
  8
0
100
AcDbEllipse
 62
7
  6
CONTINUOUS
 10
10.0275277014
 20
-51.5232517832
 30
0.0
 11
21.1130484448
 21
0.0
 31
0.0
 40
0.9993900839
 41
-1.4693921557
 42
-1.4168581126
  0
ELLIPSE
  5
9DE
100
AcDbEntity
  8
0
100
AcDbEllipse
 62
7
  6
CONTINUOUS
 10
11.5279017855
 20
-51.5232517832
 30
0.0
 11
21.852043849
 21
0.0
 31
0.0
 40
0.9993900839
 41
-1.5416457343
 42
-1.491227387
  0
ELLIPSE
  5
9DF
100
AcDbEntity
  8
0
100
AcDbEllipse
 62
7
  6
CONTINUOUS
 10
-89.861207943
 20
-61.125161702
 30
0.0
 11
0.1861740724
 21
0.466430752
 31
0.0
 40
0.9955924488
 41
-1.1895028981
 42
0.3782517324
  0
ELLIPSE
  5
9E0
100
AcDbEntity
  8
0
100
AcDbEllipse
 62
7
  6
CONTINUOUS
 10
-89.861207943
 20
42.6786581356
 30
0.0
 11
-0.1861740724
 21
0.466430752
 31
0.0
 40
0.9955924488
 41
2.7633409212
 42
4.3310955517
  0
ELLIPSE
  5
9E1
100
AcDbEntity
  8
0
100
AcDbEllipse
 62
7
  6
CONTINUOUS
 10
32.3908311417
 20
42.6786581356
 30
0.0
 11
-0.1861740724
 21
-0.466430752
 31
0.0
 40
0.9955924488
 41
-1.1895028981
 42
0.3782517324
  0
ELLIPSE
  5
9E2
100
AcDbEntity
  8
0
100
AcDbEllipse
 62
7
  6
CONTINUOUS
 10
32.3908311417
 20
-61.125161702
 30
0.0
 11
0.1861740724
 21
-0.466430752
 31
0.0
 40
0.9955924488
 41
2.7633409212
 42
4.3310955517
  0
ELLIPSE
  5
9E3
100
AcDbEntity
  8
0
100
AcDbEllipse
 62
7
  6
CONTINUOUS
 10
6.0646896905
 20
19.9768701257
 30
0.0
 11
-0.1415937089
 21
0.1415937089
 31
0.0
 40
0.998782766
 41
2.3568034778
 42
3.9263818294
  0
ELLIPSE
  5
9E4
100
AcDbEntity
  8
0
100
AcDbEllipse
 62
7
  6
CONTINUOUS
 10
-17.5650664918
 20
19.9768701257
 30
0.0
 11
0.1415937089
 21
0.1415937089
 31
0.0
 40
0.998782766
 41
2.3568034778
 42
3.9263818294
  0
ELLIPSE
  5
9E5
100
AcDbEntity
  8
0
100
AcDbEllipse
 62
7
  6
CONTINUOUS
 10
-17.5650664918
 20
39.5766263079
 30
0.0
 11
0.1415937089
 21
-0.1415937089
 31
0.0
 40
0.998782766
 41
2.3568034778
 42
3.9263818294
  0
ELLIPSE
  5
9E6
100
AcDbEntity
  8
0
100
AcDbEllipse
 62
7
  6
CONTINUOUS
 10
6.0646896905
 20
18.5766263079
 30
0.0
 11
-0.1415937089
 21
-0.1415937089
 31
0.0
 40
0.998782766
 41
2.3568034778
 42
3.9263818294
  0
ELLIPSE
  5
9E7
100
AcDbEntity
  8
0
100
AcDbEllipse
 62
7
  6
CONTINUOUS
 10
6.0646896905
 20
-37.0231298743
 30
0.0
 11
-0.1415937089
 21
0.1415937089
 31
0.0
 40
0.998782766
 41
2.3568034778
 42
3.9263818294
  0
ELLIPSE
  5
9E8
100
AcDbEntity
  8
0
100
AcDbEllipse
 62
7
  6
CONTINUOUS
 10
-17.5650664918
 20
-37.0231298743
 30
0.0
 11
0.1415937089
 21
0.1415937089
 31
0.0
 40
0.998782766
 41
2.3568034778
 42
3.9263818294
  0
ELLIPSE
  5
9E9
100
AcDbEntity
  8
0
100
AcDbEllipse
 62
7
  6
CONTINUOUS
 10
-17.5650664918
 20
18.5766263079
 30
0.0
 11
0.1415937089
 21
-0.1415937089
 31
0.0
 40
0.998782766
 41
2.3568034778
 42
3.9263818294
  0
ELLIPSE
  5
9EA
100
AcDbEntity
  8
0
100
AcDbEllipse
 62
7
  6
CONTINUOUS
 10
6.0646896905
 20
-38.4233736921
 30
0.0
 11
-0.1415937089
 21
-0.1415937089
 31
0.0
 40
0.998782766
 41
2.3568034778
 42
3.9263818294
  0
ELLIPSE
  5
9EB
100
AcDbEntity
  8
0
100
AcDbEllipse
 62
7
  6
CONTINUOUS
 10
6.0646896905
 20
-58.0231298743
 30
0.0
 11
-0.1415937089
 21
0.1415937089
 31
0.0
 40
0.998782766
 41
2.3568034778
 42
3.9263818294
  0
ELLIPSE
  5
9EC
100
AcDbEntity
  8
0
100
AcDbEllipse
 62
7
  6
CONTINUOUS
 10
-17.5650664918
 20
-58.0231298743
 30
0.0
 11
0.1415937089
 21
0.1415937089
 31
0.0
 40
0.998782766
 41
2.3568034778
 42
3.9263818294
  0
ELLIPSE
  5
9ED
100
AcDbEntity
  8
0
100
AcDbEllipse
 62
7
  6
CONTINUOUS
 10
-17.5650664918
 20
-38.4233736921
 30
0.0
 11
0.1415937089
 21
-0.1415937089
 31
0.0
 40
0.998782766
 41
2.3568034778
 42
3.9263818294
  0
ELLIPSE
  5
9EE
100
AcDbEntity
  8
0
100
AcDbEllipse
 62
7
  6
CONTINUOUS
 10
31.4773877668
 20
-48.0106756158
 30
0.0
 11
-0.1415937089
 21
-0.1415937089
 31
0.0
 40
0.998782766
 41
2.3568034778
 42
3.9263818294
  0
ELLIPSE
  5
9EF
100
AcDbEntity
  8
0
100
AcDbEllipse
 62
7
  6
CONTINUOUS
 10
7.4649335082
 20
-58.0231298743
 30
0.0
 11
0.1415937089
 21
0.1415937089
 31
0.0
 40
0.998782766
 41
2.3568034778
 42
3.9263818294
  0
ELLIPSE
  5
9F0
100
AcDbEntity
  8
0
100
AcDbEllipse
 62
7
  6
CONTINUOUS
 10
7.4649335082
 20
-48.0106756158
 30
0.0
 11
-0.1415937089
 21
0.1415937089
 31
0.0
 40
0.998782766
 41
-0.7847891758
 42
0.7847891758
  0
ELLIPSE
  5
9F1
100
AcDbEntity
  8
0
100
AcDbEllipse
 62
7
  6
CONTINUOUS
 10
6.0646896905
 20
-72.2358279506
 30
0.0
 11
0.1415937089
 21
-0.1415937089
 31
0.0
 40
0.998782766
 41
-0.7847891758
 42
0.7847891758
  0
ELLIPSE
  5
9F2
100
AcDbEntity
  8
0
100
AcDbEllipse
 62
7
  6
CONTINUOUS
 10
-17.5650664918
 20
-72.2358279506
 30
0.0
 11
0.1415937089
 21
0.1415937089
 31
0.0
 40
0.998782766
 41
2.3568034778
 42
3.9263818294
  0
ELLIPSE
  5
9F3
100
AcDbEntity
  8
0
100
AcDbEllipse
 62
7
  6
CONTINUOUS
 10
-17.5650664918
 20
-59.4233736921
 30
0.0
 11
0.1415937089
 21
-0.1415937089
 31
0.0
 40
0.998782766
 41
2.3568034778
 42
3.9263818294
  0
ELLIPSE
  5
9F4
100
AcDbEntity
  8
0
100
AcDbEllipse
 62
7
  6
CONTINUOUS
 10
6.0646896905
 20
-59.4233736921
 30
0.0
 11
-0.1415937089
 21
-0.1415937089
 31
0.0
 40
0.998782766
 41
2.3568034778
 42
3.9263818294
  0
ELLIPSE
  5
9F5
100
AcDbEntity
  8
0
100
AcDbEllipse
 62
7
  6
CONTINUOUS
 10
7.3776315845
 20
-59.3360717683
 30
0.0
 11
0.1415937089
 21
-0.1415937089
 31
0.0
 40
0.998782766
 41
2.3568034778
 42
3.9263818294
  0
ELLIPSE
  5
9F6
100
AcDbEntity
  8
0
100
AcDbEllipse
 62
7
  6
CONTINUOUS
 10
6.1519916142
 20
-59.3360717683
 30
0.0
 11
0.1415937089
 21
0.1415937089
 31
0.0
 40
0.998782766
 41
-0.7847891758
 42
0.7847891758
  0
ELLIPSE
  5
9F7
100
AcDbEntity
  8
0
100
AcDbEllipse
 62
7
  6
CONTINUOUS
 10
31.5646896905
 20
-47.9233736921
 30
0.0
 11
0.1415937089
 21
0.1415937089
 31
0.0
 40
0.998782766
 41
-0.7847891758
 42
0.7847891758
  0
ELLIPSE
  5
9F8
100
AcDbEntity
  8
0
100
AcDbEllipse
 62
7
  6
CONTINUOUS
 10
31.5646896905
 20
29.4768701257
 30
0.0
 11
0.1415937089
 21
-0.1415937089
 31
0.0
 40
0.998782766
 41
-0.7847891758
 42
0.7847891758
  0
ELLIPSE
  5
9F9
100
AcDbEntity
  8
0
100
AcDbEllipse
 62
7
  6
CONTINUOUS
 10
7.3776315845
 20
29.4768701257
 30
0.0
 11
0.1415937089
 21
0.1415937089
 31
0.0
 40
0.998782766
 41
-3.9263818294
 42
-2.3568034778
  0
ELLIPSE
  5
9FA
100
AcDbEntity
  8
0
100
AcDbEllipse
 62
7
  6
CONTINUOUS
 10
7.3776315845
 20
28.0766263079
 30
0.0
 11
0.1415937089
 21
-0.1415937089
 31
0.0
 40
0.998782766
 41
2.3568034778
 42
3.9263818294
  0
ELLIPSE
  5
9FB
100
AcDbEntity
  8
0
100
AcDbEllipse
 62
7
  6
CONTINUOUS
 10
6.1519916142
 20
19.8895682019
 30
0.0
 11
0.1415937089
 21
-0.1415937089
 31
0.0
 40
0.998782766
 41
-0.7847891758
 42
0.7847891758
  0
ELLIPSE
  5
9FC
100
AcDbEntity
  8
0
100
AcDbEllipse
 62
7
  6
CONTINUOUS
 10
6.1519916142
 20
18.6639282317
 30
0.0
 11
0.1415937089
 21
0.1415937089
 31
0.0
 40
0.998782766
 41
-0.7847891758
 42
0.7847891758
  0
ELLIPSE
  5
9FD
100
AcDbEntity
  8
0
100
AcDbEllipse
 62
7
  6
CONTINUOUS
 10
19.5646896905
 20
28.0766263079
 30
0.0
 11
0.1415937089
 21
0.1415937089
 31
0.0
 40
0.998782766
 41
-0.7847891758
 42
0.7847891758
  0
ELLIPSE
  5
9FE
100
AcDbEntity
  8
0
100
AcDbEllipse
 62
7
  6
CONTINUOUS
 10
-39.9353103095
 20
-37.0231298743
 30
0.0
 11
-0.1415937089
 21
0.1415937089
 31
0.0
 40
0.998782766
 41
2.3568034778
 42
3.9263818294
  0
ELLIPSE
  5
9FF
100
AcDbEntity
  8
0
100
AcDbEllipse
 62
7
  6
CONTINUOUS
 10
-63.5350664918
 20
-37.0231298743
 30
0.0
 11
0.1415937089
 21
0.1415937089
 31
0.0
 40
0.998782766
 41
2.3568034778
 42
3.9263818294
  0
ELLIPSE
  5
A00
100
AcDbEntity
  8
0
100
AcDbEllipse
 62
7
  6
CONTINUOUS
 10
-63.5350664918
 20
18.5766263079
 30
0.0
 11
0.1415937089
 21
-0.1415937089
 31
0.0
 40
0.998782766
 41
2.3568034778
 42
3.9263818294
  0
ELLIPSE
  5
A01
100
AcDbEntity
  8
0
100
AcDbEllipse
 62
7
  6
CONTINUOUS
 10
-39.9353103095
 20
18.5766263079
 30
0.0
 11
-0.1415937089
 21
-0.1415937089
 31
0.0
 40
0.998782766
 41
2.3568034778
 42
3.9263818294
  0
ELLIPSE
  5
A02
100
AcDbEntity
  8
0
100
AcDbEllipse
 62
7
  6
CONTINUOUS
 10
-39.9353103095
 20
-38.4233736921
 30
0.0
 11
-0.1415937089
 21
-0.1415937089
 31
0.0
 40
0.998782766
 41
2.3568034778
 42
3.9263818294
  0
ELLIPSE
  5
A03
100
AcDbEntity
  8
0
100
AcDbEllipse
 62
7
  6
CONTINUOUS
 10
-39.9353103095
 20
-58.0231298743
 30
0.0
 11
-0.1415937089
 21
0.1415937089
 31
0.0
 40
0.998782766
 41
2.3568034778
 42
3.9263818294
  0
ELLIPSE
  5
A04
100
AcDbEntity
  8
0
100
AcDbEllipse
 62
7
  6
CONTINUOUS
 10
-63.5350664918
 20
-58.0231298743
 30
0.0
 11
0.1415937089
 21
0.1415937089
 31
0.0
 40
0.998782766
 41
2.3568034778
 42
3.9263818294
  0
ELLIPSE
  5
A05
100
AcDbEntity
  8
0
100
AcDbEllipse
 62
7
  6
CONTINUOUS
 10
-63.5350664918
 20
-38.4233736921
 30
0.0
 11
0.1415937089
 21
-0.1415937089
 31
0.0
 40
0.998782766
 41
2.3568034778
 42
3.9263818294
  0
ELLIPSE
  5
A06
100
AcDbEntity
  8
0
100
AcDbEllipse
 62
7
  6
CONTINUOUS
 10
7.4649335082
 20
-72.2358279506
 30
0.0
 11
0.1415937089
 21
0.1415937089
 31
0.0
 40
0.998782766
 41
2.3568034778
 42
3.9263818294
  0
ELLIPSE
  5
A07
100
AcDbEntity
  8
0
100
AcDbEllipse
 62
7
  6
CONTINUOUS
 10
7.4649335082
 20
-59.4233736921
 30
0.0
 11
0.1415937089
 21
-0.1415937089
 31
0.0
 40
0.998782766
 41
2.3568034778
 42
3.9263818294
  0
ELLIPSE
  5
A08
100
AcDbEntity
  8
0
100
AcDbEllipse
 62
7
  6
CONTINUOUS
 10
19.4773877668
 20
-46.4358279506
 30
0.0
 11
0.1415937089
 21
-0.1415937089
 31
0.0
 40
0.998782766
 41
-0.7847891758
 42
0.7847891758
  0
ELLIPSE
  5
A09
100
AcDbEntity
  8
0
100
AcDbEllipse
 62
7
  6
CONTINUOUS
 10
7.4649335082
 20
-46.4358279506
 30
0.0
 11
0.1415937089
 21
0.1415937089
 31
0.0
 40
0.998782766
 41
2.3568034778
 42
3.9263818294
  0
ELLIPSE
  5
A0A
100
AcDbEntity
  8
0
100
AcDbEllipse
 62
7
  6
CONTINUOUS
 10
7.4649335082
 20
-29.0106756158
 30
0.0
 11
-0.1415937089
 21
0.1415937089
 31
0.0
 40
0.998782766
 41
-0.7847891758
 42
0.7847891758
  0
ELLIPSE
  5
A0B
100
AcDbEntity
  8
0
100
AcDbEllipse
 62
7
  6
CONTINUOUS
 10
19.4773877668
 20
-29.0106756158
 30
0.0
 11
-0.1415937089
 21
-0.1415937089
 31
0.0
 40
0.998782766
 41
2.3568034778
 42
3.9263818294
  0
ELLIPSE
  5
A0C
100
AcDbEntity
  8
0
100
AcDbEllipse
 62
7
  6
CONTINUOUS
 10
-88.947764568
 20
-10.0233736921
 30
0.0
 11
0.1415937089
 21
-0.1415937089
 31
0.0
 40
0.998782766
 41
2.3568034778
 42
3.9263818294
  0
ENDSEC
  0
SECTION
  2
OBJECTS
  0
DICTIONARY
  5
C
100
AcDbDictionary
280
0
281
1
  3
ACAD_GROUP
350
D
  3
ACAD_MLINESTYLE
350
17
  3
ACAD_LAYOUT
350
1A
  3
ACAD_PLOTSETTINGS
350
19
  3
ACAD_PLOTSTYLENAME
350
E
  0
DICTIONARY
  5
D
102
{ACAD_REACTORS
330
C
102
}
100
AcDbDictionary
280
0
281
1
  0
ACDBDICTIONARYWDFLT
  5
E
102
{ACAD_REACTORS
330
C
102
}
100
AcDbDictionary
281
1
  3
Normal
350
F
100
AcDbDictionaryWithDefault
340
F
  0
DICTIONARY
  5
17
102
{ACAD_REACTORS
330
C
102
}
100
AcDbDictionary
280
0
281
1
  3
Standard
350
18
  0
DICTIONARY
  5
19
102
{ACAD_REACTORS
330
C
102
}
100
AcDbDictionary
281
1
  0
DICTIONARY
  5
1A
102
{ACAD_REACTORS
330
C
102
}
100
AcDbDictionary
281
1
  3
Model
350
A0D
  3
Layout1
350
A0E
  0
ACDBPLACEHOLDER
  5
F
102
{ACAD_REACTORS
330
E
102
}
  0
MLINESTYLE
  5
18
102
{ACAD_REACTORS
330
17
102
}
100
AcDbMlineStyle
  2
STANDARD
 70
0
  3

 62
256
 51
90.0
 52
90.0
 71
2
 49
0.5
 62
256
  6
BYLAYER
 49
-0.5
 62
256
  6
BYLAYER
  0
LAYOUT
  5
A0D
102
{ACAD_REACTORS
330
1A
102
}
100
AcDbPlotSettings
  1

  2
none_device
  4
ISO_A4_(297.00_x_210.00_MM)
  6

 40
0.0
 41
0.0
 42
0.0
 43
0.0
 44
297.0
 45
210.0
 46
0.0
 47
0.0
 48
0.0
 49
0.0
140
0.0
141
0.0
142
1.0
143
1.0
 70
1024
 72
1
 73
0
 74
0
  7

 75
0
147
1.0
148
0.0
149
0.0
100
AcDbLayout
  1
Model
 70
0
 71
0
 10
0.0
 20
0.0
 11
297.0
 21
210.0
 12
0.0
 22
0.0
 32
0.0
 14
0.0
 24
0.0
 34
0.0
 15
0.0
 25
0.0
 35
0.0
146
0.0
 13
0.0
 23
0.0
 33
0.0
 16
1.0
 26
0.0
 36
0.0
 17
0.0
 27
1.0
 37
0.0
 76
0
330
20F
345
0
346
0
  0
LAYOUT
  5
A0E
102
{ACAD_REACTORS
330
1A
102
}
100
AcDbPlotSettings
  1

  2
none_device
  4
ISO_A4_(297.00_x_210.00_MM)
  6

 40
0.0
 41
0.0
 42
0.0
 43
0.0
 44
297.0
 45
210.0
 46
0.0
 47
0.0
 48
0.0
 49
0.0
140
0.0
141
0.0
142
1.0
143
1.0
 70
0
 72
1
 73
0
 74
0
  7

 75
0
147
1.0
148
0.0
149
0.0
100
AcDbLayout
  1
Layout1
 70
0
 71
1
 10
0.0
 20
0.0
 11
297.0
 21
210.0
 12
0.0
 22
0.0
 32
0.0
 14
0.0
 24
0.0
 34
0.0
 15
0.0
 25
0.0
 35
0.0
146
0.0
 13
0.0
 23
0.0
 33
0.0
 16
1.0
 26
0.0
 36
0.0
 17
0.0
 27
1.0
 37
0.0
 76
0
330
210
345
0
346
0
  0
ENDSEC
  0
EOF
