  0
SECTION
  2
HEADER
  9
$ACADVER
  1
AC1015
  9
$DWGCODEPAGE
  3
ANSI_1252
  9
$EXTMAX
 10
297.0
 20
210.0
 30
0.0
  9
$EXTMIN
 10
0.0
 20
0.0
 30
0.0
  9
$LIMMIN
 10
0.0
 20
0.0
  9
$LIMMAX
 10
297.0
 20
210.0
  9
$VIEWCTR
 10
148.5
 20
105.0
  9
$VIEWSIZE
 40
210.0
  9
$CLAYER
  8
0
  9
$LTSCALE
 40
16.335
  9
$CELTYPE
  6
BYLAYER
  9
$DIMSCALE
 40
1.0
  9
$DIMASZ
 40
3.0
  9
$DIMEXO
 40
1.85625
  9
$DIMDLI
 40
11.286
  9
$DIMEXE
 40
5.346
  9
$DIMCEN
 40
2.673
  9
$DIMLFAC
 40
1.0
  9
$DIMBLK
  1
_FILLED
  9
$DIMTXT
 40
3.0
  9
$DIMTOL
 70
1
  9
$DIMLIM
 70
0
  9
$DIMTFAC
 40
1.0
  9
$DIMTP
 40
0.01
  9
$DIMTM
 40
0.01
  9
$PDMODE
 70
3
  9
$PDSIZE
 40
3.0
  9
$HANDSEED
  5
3EC
  9
$TILEMODE
 70
1
  9
$MEASUREMENT
 70
1
  9
$INSUNITS
 70
4
  0
ENDSEC
  0
SECTION
  2
CLASSES
  0
CLASS
  1
ACDBDICTIONARYWDFLT
  2
AcDbDictionaryWithDefault
  3
AutoCAD 2000
 90
0
280
0
281
0
  0
CLASS
  1
ACDBPLACEHOLDER
  2
AcDbPlaceHolder
  3
AutoCAD 2000
 90
0
280
0
281
0
  0
CLASS
  1
LAYOUT
  2
AcDbLayout
  3
AutoCAD 2000
 90
0
280
0
281
0
  0
ENDSEC
  0
SECTION
  2
TABLES
  0
TABLE
  2
VPORT
  5
8
100
AcDbSymbolTable
 70
2
  0
VPORT
  5
1F4
100
AcDbSymbolTableRecord
100
AcDbViewportTableRecord
  2
*ACTIVE
 70
0
 10
0.0
 20
0.0
 11
1.0
 21
1.0
 12
148.5
 22
105.0
 13
0.0
 23
0.0
 14
1.0
 24
1.0
 15
0.0
 25
0.0
 16
0.0
 26
0.0
 36
1.0
 17
0.0
 27
0.0
 37
0.0
 40
210.0
 41
1.4142857143
 42
50.0
 43
0.0
 44
0.0
 50
0.0
 51
0.0
 71
0
 72
100
 73
1
 74
1
 75
0
 76
0
 77
0
 78
0
  0
ENDTAB
  0
TABLE
  2
LTYPE
  5
5
100
AcDbSymbolTable
 70
6
  0
LTYPE
  5
14
100
AcDbSymbolTableRecord
100
AcDbLinetypeTableRecord
  2
BYBLOCK
 70
0
  3

 72
65
 73
0
 40
0.0
  0
LTYPE
  5
15
100
AcDbSymbolTableRecord
100
AcDbLinetypeTableRecord
  2
BYLAYER
 70
0
  3

 72
65
 73
0
 40
0.0
  0
LTYPE
  5
16
100
AcDbSymbolTableRecord
100
AcDbLinetypeTableRecord
  2
CONTINUOUS
 70
64
  3
Solid line
 72
65
 73
0
 40
0.0
  0
LTYPE
  5
1F5
100
AcDbSymbolTableRecord
100
AcDbLinetypeTableRecord
  2
CENTER
 70
64
  3
____ _ ____ _ ____ _ ____ _ ____ _ ____ _ ____
 72
65
 73
4
 40
0.6
 49
0.375
 74
0
 49
-0.075
 74
0
 49
0.075
 74
0
 49
-0.075
 74
0
  0
LTYPE
  5
1F6
100
AcDbSymbolTableRecord
100
AcDbLinetypeTableRecord
  2
HIDDEN
 70
64
  3
- - - - - - - - - - - - - - - - - - - -
 72
65
 73
2
 40
0.2
 49
0.1
 74
0
 49
-0.1
 74
0
  0
LTYPE
  5
1F7
100
AcDbSymbolTableRecord
100
AcDbLinetypeTableRecord
  2
PHANTOM
 70
64
  3
_____ _ _ _____ _ _ _____ _ _ _____
 72
65
 73
6
 40
0.8
 49
0.45
 74
0
 49
-0.05
 74
0
 49
0.1
 74
0
 49
-0.05
 74
0
 49
0.1
 74
0
 49
-0.05
 74
0
  0
LTYPE
  5
1F8
100
AcDbSymbolTableRecord
100
AcDbLinetypeTableRecord
  2
DOT
 70
64
  3
. . . . . . . . . . . . . . . . . . . .
 72
65
 73
2
 40
0.2
 49
0.1
 74
0
 49
-0.1
 74
0
  0
LTYPE
  5
1F9
100
AcDbSymbolTableRecord
100
AcDbLinetypeTableRecord
  2
DASHED
 70
64
  3
- - - - - - - - - - - - - - - - - - - -
 72
65
 73
2
 40
0.2
 49
0.1
 74
0
 49
-0.1
 74
0
  0
ENDTAB
  0
TABLE
  2
LAYER
  5
2
100
AcDbSymbolTable
 70
36
  0
LAYER
  5
10
100
AcDbSymbolTableRecord
100
AcDbLayerTableRecord
  2
0
 70
0
 62
7
  6
CONTINUOUS
370
-3
390
F
  0
LAYER
  5
1FA
100
AcDbSymbolTableRecord
100
AcDbLayerTableRecord
  2
DEFAULT_1
 70
0
 62
7
  6
CENTER
370
-3
390
F
  0
LAYER
  5
1FB
100
AcDbSymbolTableRecord
100
AcDbLayerTableRecord
  2
DEFAULT_2
 70
0
 62
7
  6
HIDDEN
370
-3
390
F
  0
LAYER
  5
1FC
100
AcDbSymbolTableRecord
100
AcDbLayerTableRecord
  2
DEFAULT_3
 70
0
 62
7
  6
PHANTOM
370
-3
390
F
  0
LAYER
  5
1FD
100
AcDbSymbolTableRecord
100
AcDbLayerTableRecord
  2
ASSI
 70
0
 62
7
  6
CONTINUOUS
370
-3
390
F
  0
LAYER
  5
1FE
100
AcDbSymbolTableRecord
100
AcDbLayerTableRecord
  2
COORDINATE
 70
0
 62
7
  6
CONTINUOUS
370
-3
390
F
  0
LAYER
  5
1FF
100
AcDbSymbolTableRecord
100
AcDbLayerTableRecord
  2
COORD_ORIGINE
 70
0
 62
7
  6
CONTINUOUS
370
-3
390
F
  0
LAYER
  5
200
100
AcDbSymbolTableRecord
100
AcDbLayerTableRecord
  2
COSMETICI
 70
0
 62
7
  6
CONTINUOUS
370
-3
390
F
  0
LAYER
  5
201
100
AcDbSymbolTableRecord
100
AcDbLayerTableRecord
  2
CURVE
 70
0
 62
7
  6
CONTINUOUS
370
-3
390
F
  0
LAYER
  5
202
100
AcDbSymbolTableRecord
100
AcDbLayerTableRecord
  2
IGES
 70
0
 62
7
  6
CONTINUOUS
370
-3
390
F
  0
LAYER
  5
203
100
AcDbSymbolTableRecord
100
AcDbLayerTableRecord
  2
NOTE
 70
0
 62
7
  6
CONTINUOUS
370
-3
390
F
  0
LAYER
  5
204
100
AcDbSymbolTableRecord
100
AcDbLayerTableRecord
  2
PIANI
 70
0
 62
7
  6
CONTINUOUS
370
-3
390
F
  0
LAYER
  5
205
100
AcDbSymbolTableRecord
100
AcDbLayerTableRecord
  2
PIANI_ORIGINE
 70
0
 62
7
  6
CONTINUOUS
370
-3
390
F
  0
LAYER
  5
206
100
AcDbSymbolTableRecord
100
AcDbLayerTableRecord
  2
PUNTI
 70
0
 62
7
  6
CONTINUOUS
370
-3
390
F
  0
LAYER
  5
207
100
AcDbSymbolTableRecord
100
AcDbLayerTableRecord
  2
RACCORDO
 70
0
 62
7
  6
CONTINUOUS
370
-3
390
F
  0
LAYER
  5
208
100
AcDbSymbolTableRecord
100
AcDbLayerTableRecord
  2
SIMBOLI
 70
0
 62
7
  6
CONTINUOUS
370
-3
390
F
  0
LAYER
  5
209
100
AcDbSymbolTableRecord
100
AcDbLayerTableRecord
  2
SNAPLINE
 70
0
 62
7
  6
CONTINUOUS
370
-3
390
F
  0
LAYER
  5
20A
100
AcDbSymbolTableRecord
100
AcDbLayerTableRecord
  2
SUPERFICI
 70
0
 62
7
  6
CONTINUOUS
370
-3
390
F
  0
LAYER
  5
20B
100
AcDbSymbolTableRecord
100
AcDbLayerTableRecord
  2
TRASH
 70
0
 62
7
  6
CONTINUOUS
370
-3
390
F
  0
LAYER
  5
20C
100
AcDbSymbolTableRecord
100
AcDbLayerTableRecord
  2
XSEC_DATUMS
 70
0
 62
7
  6
CONTINUOUS
370
-3
390
F
  0
ENDTAB
  0
TABLE
  2
STYLE
  5
3
100
AcDbSymbolTable
 70
1
  0
STYLE
  5
11
100
AcDbSymbolTableRecord
100
AcDbTextStyleTableRecord
  2
STANDARD
 70
0
 40
0.0
 41
0.8
 50
0.0
 71
0
 42
0.2
  3
txt
  4

  0
STYLE
  5
20D
100
AcDbSymbolTableRecord
100
AcDbTextStyleTableRecord
  2
TEXTSTYLE_1
 70
0
 40
0.0
 41
0.8
 50
0.0
 71
0
 42
0.2
  3
gdt
  4

  0
ENDTAB
  0
TABLE
  2
VIEW
  5
6
100
AcDbSymbolTable
 70
0
  0
ENDTAB
  0
TABLE
  2
UCS
  5
7
100
AcDbSymbolTable
 70
0
  0
ENDTAB
  0
TABLE
  2
APPID
  5
9
100
AcDbSymbolTable
 70
1
  0
APPID
  5
20E
100
AcDbSymbolTableRecord
100
AcDbRegAppTableRecord
  2
ACAD
 70
0
  0
ENDTAB
  0
TABLE
  2
BLOCK_RECORD
  5
1
100
AcDbSymbolTable
 70
0
  0
BLOCK_RECORD
  5
20F
100
AcDbSymbolTableRecord
100
AcDbBlockTableRecord
  2
*Model_Space
  0
BLOCK_RECORD
  5
210
100
AcDbSymbolTableRecord
100
AcDbBlockTableRecord
  2
*Paper_Space
  0
ENDTAB
  0
TABLE
  2
DIMSTYLE
  5
A
100
AcDbSymbolTable
 70
1
100
AcDbDimStyleTable
 71
0
  0
DIMSTYLE
105
211
100
AcDbSymbolTableRecord
100
AcDbDimStyleTableRecord
  2
STANDARD
 70
0
  3

  4

 40
1.0
 41
3.0
 42
0.0625
 43
0.38
 44
0.18
 45
0.0
 46
0.0
 47
0.01
 48
0.01
140
3.0
141
0.09
142
0.0
143
25.4
144
1.0
145
0.0
146
1.0
147
0.09
 71
1.0
 72
0.0
 73
0
 74
0
 75
0
 76
0
 77
1
 78
8
170
0
171
2
172
0
173
0
174
0
175
0
176
0
177
0
178
0
270
2
271
2
272
2
273
2
274
2
275
0
280
0
281
0
282
0
283
1
284
8
285
0
286
0
287
3
288
0
340
11
  0
ENDTAB
  0
ENDSEC
  0
SECTION
  2
BLOCKS
  0
BLOCK
  5
20
100
AcDbEntity
  8
0
100
AcDbBlockBegin
  2
*Model_Space
 70
0
 10
0.0
 20
0.0
 30
0.0
  3
*Model_Space
  1

  0
ENDBLK
  5
21
100
AcDbEntity
  8
0
100
AcDbBlockEnd
  0
BLOCK
  5
1C
100
AcDbEntity
  8
0
100
AcDbBlockBegin
  2
*Paper_Space
 70
0
 10
0.0
 20
0.0
 30
0.0
  3
*Paper_Space
  1

  0
ENDBLK
  5
1D
100
AcDbEntity
  8
0
100
AcDbBlockEnd
  0
ENDSEC
  0
SECTION
  2
ENTITIES
  0
LINE
  5
212
100
AcDbEntity
  8
0
100
AcDbLine
 62
7
  6
CONTINUOUS
 10
-52.2380457379
 20
29.9095732752
 11
-51.2380457379
 21
-7.0904267248
  0
LINE
  5
213
100
AcDbEntity
  8
0
100
AcDbLine
 62
253
  6
CONTINUOUS
 10
-51.7382282529
 20
29.9230818559
 11
-50.7382282529
 21
-7.0769181441
  0
LINE
  5
214
100
AcDbEntity
  8
0
100
AcDbLine
 62
253
  6
CONTINUOUS
 10
-51.238410768
 20
30.4365904366
 11
-51.2384107835
 21
30.9365904366
  0
LINE
  5
215
100
AcDbEntity
  8
0
100
AcDbLine
 62
253
  6
CONTINUOUS
 10
-50.238410768
 20
-7.5634095634
 11
-50.238410768
 21
-8.0634095634
  0
LINE
  5
216
100
AcDbEntity
  8
0
100
AcDbLine
 62
253
  6
CONTINUOUS
 10
-39.9380457379
 20
-4.4634095634
 11
-39.9380457379
 21
-2.4634095634
  0
LINE
  5
217
100
AcDbEntity
  8
0
100
AcDbLine
 62
7
  6
CONTINUOUS
 10
-39.4380457379
 20
-4.4634095634
 11
-39.4380457379
 21
-2.4634095634
  0
LINE
  5
218
100
AcDbEntity
  8
0
100
AcDbLine
 62
253
  6
CONTINUOUS
 10
-38.9380457379
 20
-1.4634095634
 11
-38.9380457379
 21
-1.9634095634
  0
LINE
  5
219
100
AcDbEntity
  8
0
100
AcDbLine
 62
253
  6
CONTINUOUS
 10
-38.9380457379
 20
-5.4634095634
 11
-38.9380457378
 21
-4.9634095634
  0
LINE
  5
21A
100
AcDbEntity
  8
0
100
AcDbLine
 62
253
  6
CONTINUOUS
 10
-38.1706610542
 20
30.4365904366
 11
-38.1706610542
 21
30.9365904366
  0
LINE
  5
21B
100
AcDbEntity
  8
0
100
AcDbLine
 62
7
  6
CONTINUOUS
 10
-34.7380457379
 20
7.8365904366
 11
-34.7380457379
 21
4.9365904366
  0
LINE
  5
21C
100
AcDbEntity
  8
0
100
AcDbLine
 62
7
  6
CONTINUOUS
 10
-34.3583957379
 20
4.9365904366
 11
-34.3583957379
 21
7.3682284366
  0
LINE
  5
21D
100
AcDbEntity
  8
0
100
AcDbLine
 62
7
  6
CONTINUOUS
 10
-30.8249854734
 20
38.5793780463
 11
-36.6385721679
 21
31.6510152172
  0
LINE
  5
21E
100
AcDbEntity
  8
0
100
AcDbLine
 62
253
  6
CONTINUOUS
 10
-30.4419632519
 20
38.2579842414
 11
-36.2555499464
 21
31.3296214124
  0
LINE
  5
21F
100
AcDbEntity
  8
0
100
AcDbLine
 62
7
  6
CONTINUOUS
 10
-33.3445837379
 20
5.3729874366
 11
-34.1766007379
 21
7.8365904366
  0
LINE
  5
220
100
AcDbEntity
  8
0
100
AcDbLine
 62
7
  6
CONTINUOUS
 10
-34.3583957379
 20
7.3682284366
 11
-33.5424487379
 21
4.9365904366
  0
LINE
  5
221
100
AcDbEntity
  8
0
100
AcDbLine
 62
253
  6
CONTINUOUS
 10
-33.5380457379
 20
-1.4634095634
 11
-33.5380457379
 21
-1.9634095634
  0
LINE
  5
222
100
AcDbEntity
  8
0
100
AcDbLine
 62
253
  6
CONTINUOUS
 10
-33.5380457379
 20
-5.4634095634
 11
-33.5380457379
 21
-4.9634095634
  0
LINE
  5
223
100
AcDbEntity
  8
0
100
AcDbLine
 62
7
  6
CONTINUOUS
 10
-33.0380457379
 20
-2.4634095634
 11
-33.0380457379
 21
-4.4634095634
  0
LINE
  5
224
100
AcDbEntity
  8
0
100
AcDbLine
 62
253
  6
CONTINUOUS
 10
-32.5380457379
 20
-2.4634095634
 11
-32.5380457379
 21
-4.4634095634
  0
LINE
  5
225
100
AcDbEntity
  8
0
100
AcDbLine
 62
7
  6
CONTINUOUS
 10
-32.3388987379
 20
7.3722154366
 11
-32.3388987379
 21
4.9365904366
  0
LINE
  5
226
100
AcDbEntity
  8
0
100
AcDbLine
 62
7
  6
CONTINUOUS
 10
-31.9590957379
 20
4.9365904366
 11
-31.9590957379
 21
7.8365904366
  0
LINE
  5
227
100
AcDbEntity
  8
0
100
AcDbLine
 62
253
  6
CONTINUOUS
 10
-30.0589410303
 20
38.4365904366
 11
-30.0589410422
 21
38.9365904366
  0
LINE
  5
228
100
AcDbEntity
  8
0
100
AcDbLine
 62
7
  6
CONTINUOUS
 10
-29.0267777379
 20
4.9365904366
 11
-30.0768747379
 21
7.8365904366
  0
LINE
  5
229
100
AcDbEntity
  8
0
100
AcDbLine
 62
7
  6
CONTINUOUS
 10
-29.7417037379
 20
5.7806744366
 11
-29.4549637379
 21
4.9365904366
  0
LINE
  5
22A
100
AcDbEntity
  8
0
100
AcDbLine
 62
7
  6
CONTINUOUS
 10
-30.3150187379
 20
7.4159494366
 11
-29.8829637379
 21
6.1280174366
  0
LINE
  5
22B
100
AcDbEntity
  8
0
100
AcDbLine
 62
7
  6
CONTINUOUS
 10
-28.6471387379
 20
7.8365904366
 11
-28.6471387379
 21
4.9365904366
  0
LINE
  5
22C
100
AcDbEntity
  8
0
100
AcDbLine
 62
7
  6
CONTINUOUS
 10
-28.2552337379
 20
5.2717384366
 11
-28.2552337379
 21
7.5014424366
  0
LINE
  5
22D
100
AcDbEntity
  8
0
100
AcDbLine
 62
7
  6
CONTINUOUS
 10
-25.7106687379
 20
7.8365904366
 11
-25.7106687379
 21
4.9365904366
  0
LINE
  5
22E
100
AcDbEntity
  8
0
100
AcDbLine
 62
7
  6
CONTINUOUS
 10
-25.3187877379
 20
5.2839334366
 11
-25.3187877379
 21
6.2532584366
  0
LINE
  5
22F
100
AcDbEntity
  8
0
100
AcDbLine
 62
7
  6
CONTINUOUS
 10
-25.3187877379
 20
6.6006014366
 11
-25.3187877379
 21
7.4892474366
  0
LINE
  5
230
100
AcDbEntity
  8
0
100
AcDbLine
 62
7
  6
CONTINUOUS
 10
-33.1546887379
 20
4.9365904366
 11
-32.3388987379
 21
7.3722154366
  0
LINE
  5
231
100
AcDbEntity
  8
0
100
AcDbLine
 62
7
  6
CONTINUOUS
 10
-32.5165577379
 20
7.8365904366
 11
-33.3445837379
 21
5.3729874366
  0
LINE
  5
232
100
AcDbEntity
  8
0
100
AcDbLine
 62
7
  6
CONTINUOUS
 10
-31.2078637379
 20
4.9365904366
 11
-30.9048937379
 21
5.7806744366
  0
LINE
  5
233
100
AcDbEntity
  8
0
100
AcDbLine
 62
7
  6
CONTINUOUS
 10
-30.5212447379
 20
7.8365904366
 11
-31.6117287379
 21
4.9365904366
  0
LINE
  5
234
100
AcDbEntity
  8
0
100
AcDbLine
 62
7
  6
CONTINUOUS
 10
-23.7314457379
 20
6.2532584366
 11
-23.7314457379
 21
6.6006014366
  0
LINE
  5
235
100
AcDbEntity
  8
0
100
AcDbLine
 62
7
  6
CONTINUOUS
 10
-23.5981597379
 20
7.4892474366
 11
-23.5981597379
 21
7.8365904366
  0
LINE
  5
236
100
AcDbEntity
  8
0
100
AcDbLine
 62
7
  6
CONTINUOUS
 10
-23.5698517379
 20
4.9365904366
 11
-23.5698517379
 21
5.2839334366
  0
LINE
  5
237
100
AcDbEntity
  8
0
100
AcDbLine
 62
7
  6
CONTINUOUS
 10
-21.8733817379
 20
7.8365904366
 11
-21.8733817379
 21
4.9365904366
  0
LINE
  5
238
100
AcDbEntity
  8
0
100
AcDbLine
 62
7
  6
CONTINUOUS
 10
-21.4816177379
 20
4.9365904366
 11
-21.4816177379
 21
7.8365904366
  0
LINE
  5
239
100
AcDbEntity
  8
0
100
AcDbLine
 62
253
  6
CONTINUOUS
 10
-21.4380457379
 20
-4.4634095634
 11
-21.4380457379
 21
-2.4634095634
  0
LINE
  5
23A
100
AcDbEntity
  8
0
100
AcDbLine
 62
7
  6
CONTINUOUS
 10
-21.3264757379
 20
14.4471384366
 11
-21.3264757379
 21
14.0304734366
  0
LINE
  5
23B
100
AcDbEntity
  8
0
100
AcDbLine
 62
7
  6
CONTINUOUS
 10
-21.3128687379
 20
17.8262934366
 11
-21.3128687379
 21
17.4073364366
  0
LINE
  5
23C
100
AcDbEntity
  8
0
100
AcDbLine
 62
7
  6
CONTINUOUS
 10
-20.9572207379
 20
17.4073364366
 11
-20.9572207379
 21
16.3449774366
  0
LINE
  5
23D
100
AcDbEntity
  8
0
100
AcDbLine
 62
7
  6
CONTINUOUS
 10
-20.9572207379
 20
15.8286214366
 11
-20.9572207379
 21
14.4471384366
  0
LINE
  5
23E
100
AcDbEntity
  8
0
100
AcDbLine
 62
7
  6
CONTINUOUS
 10
-20.9380457379
 20
-4.4634095634
 11
-20.9380457379
 21
-2.4634095634
  0
LINE
  5
23F
100
AcDbEntity
  8
0
100
AcDbLine
 62
7
  6
CONTINUOUS
 10
-30.7836867379
 20
6.1280174366
 11
-30.3150187379
 21
7.4159494366
  0
LINE
  5
240
100
AcDbEntity
  8
0
100
AcDbLine
 62
7
  6
CONTINUOUS
 10
-20.8112287379
 20
7.8365904366
 11
-20.8112287379
 21
4.9365904366
  0
LINE
  5
241
100
AcDbEntity
  8
0
100
AcDbLine
 62
7
  6
CONTINUOUS
 10
-20.5133417379
 20
14.4471384366
 11
-20.5133417379
 21
15.8332814366
  0
LINE
  5
242
100
AcDbEntity
  8
0
100
AcDbLine
 62
7
  6
CONTINUOUS
 10
-20.5133417379
 20
16.3449774366
 11
-20.5133417379
 21
17.4073364366
  0
LINE
  5
243
100
AcDbEntity
  8
0
100
AcDbLine
 62
253
  6
CONTINUOUS
 10
-20.4380457379
 20
-1.4634095634
 11
-20.4380457379
 21
-1.9634095634
  0
LINE
  5
244
100
AcDbEntity
  8
0
100
AcDbLine
 62
253
  6
CONTINUOUS
 10
-20.4380457379
 20
-5.4634095634
 11
-20.4380457378
 21
-4.9634095634
  0
LINE
  5
245
100
AcDbEntity
  8
0
100
AcDbLine
 62
7
  6
CONTINUOUS
 10
-20.4314027379
 20
4.9365904366
 11
-20.4314027379
 21
7.2917374366
  0
LINE
  5
246
100
AcDbEntity
  8
0
100
AcDbLine
 62
7
  6
CONTINUOUS
 10
-20.1578367379
 20
17.4073364366
 11
-20.1578367379
 21
17.8262934366
  0
LINE
  5
247
100
AcDbEntity
  8
0
100
AcDbLine
 62
7
  6
CONTINUOUS
 10
-20.1442297379
 20
14.0304734366
 11
-20.1442297379
 21
14.4471384366
  0
LINE
  5
248
100
AcDbEntity
  8
0
100
AcDbLine
 62
7
  6
CONTINUOUS
 10
-18.8884337379
 20
7.8365904366
 11
-18.8884337379
 21
5.4809664366
  0
LINE
  5
249
100
AcDbEntity
  8
0
100
AcDbLine
 62
7
  6
CONTINUOUS
 10
-18.5087947379
 20
4.9365904366
 11
-18.5087947379
 21
7.8365904366
  0
LINE
  5
24A
100
AcDbEntity
  8
0
100
AcDbLine
 62
7
  6
CONTINUOUS
 10
-16.7114747379
 20
7.8365904366
 11
-16.7114747379
 21
4.9365904366
  0
LINE
  5
24B
100
AcDbEntity
  8
0
100
AcDbLine
 62
7
  6
CONTINUOUS
 10
-21.7027215616
 20
14.2178497507
 11
-21.5109248014
 21
14.5595683234
  0
LINE
  5
24C
100
AcDbEntity
  8
0
100
AcDbLine
 62
7
  6
CONTINUOUS
 10
-20.4314027379
 20
7.2917374366
 11
-18.9490367379
 21
4.9365904366
  0
LINE
  5
24D
100
AcDbEntity
  8
0
100
AcDbLine
 62
7
  6
CONTINUOUS
 10
-18.8884337379
 20
5.4809664366
 11
-20.3466417379
 21
7.8365904366
  0
LINE
  5
24E
100
AcDbEntity
  8
0
100
AcDbLine
 62
7
  6
CONTINUOUS
 10
-19.9651667379
 20
14.5595684366
 11
-19.7733697379
 21
14.2178494366
  0
LINE
  5
24F
100
AcDbEntity
  8
0
100
AcDbLine
 62
7
  6
CONTINUOUS
 10
-16.3195937379
 20
4.9365904366
 11
-16.3195937379
 21
7.8365904366
  0
LINE
  5
250
100
AcDbEntity
  8
0
100
AcDbLine
 62
7
  6
CONTINUOUS
 10
-15.8995217379
 20
7.8365904366
 11
-15.8995217379
 21
7.4892474366
  0
LINE
  5
251
100
AcDbEntity
  8
0
100
AcDbLine
 62
253
  6
CONTINUOUS
 10
-15.0380457379
 20
-1.4634095634
 11
-15.0380457379
 21
-1.9634095634
  0
LINE
  5
252
100
AcDbEntity
  8
0
100
AcDbLine
 62
253
  6
CONTINUOUS
 10
-15.0380457379
 20
-5.4634095634
 11
-15.0380457379
 21
-4.9634095634
  0
LINE
  5
253
100
AcDbEntity
  8
0
100
AcDbLine
 62
7
  6
CONTINUOUS
 10
-14.9180017379
 20
7.4892474366
 11
-14.9180017379
 21
4.9365904366
  0
LINE
  5
254
100
AcDbEntity
  8
0
100
AcDbLine
 62
7
  6
CONTINUOUS
 10
-14.5380457379
 20
-2.4634095634
 11
-14.5380457379
 21
-4.4634095634
  0
LINE
  5
255
100
AcDbEntity
  8
0
100
AcDbLine
 62
7
  6
CONTINUOUS
 10
-14.5262617379
 20
4.9365904366
 11
-14.5262617379
 21
7.4892474366
  0
LINE
  5
256
100
AcDbEntity
  8
0
100
AcDbLine
 62
253
  6
CONTINUOUS
 10
-14.0380457379
 20
-2.4634095634
 11
-14.0380457379
 21
-4.4634095634
  0
LINE
  5
257
100
AcDbEntity
  8
0
100
AcDbLine
 62
7
  6
CONTINUOUS
 10
-13.5447407379
 20
7.4892474366
 11
-13.5447407379
 21
7.8365904366
  0
LINE
  5
258
100
AcDbEntity
  8
0
100
AcDbLine
 62
7
  6
CONTINUOUS
 10
-19.2291137379
 20
12.7075724366
 11
-19.0116857379
 21
13.0158104366
  0
LINE
  5
259
100
AcDbEntity
  8
0
100
AcDbLine
 62
7
  6
CONTINUOUS
 10
-50.238410768
 20
-8.0634095634
 11
-0.7380457379
 21
-8.0634095634
  0
LINE
  5
25A
100
AcDbEntity
  8
0
100
AcDbLine
 62
7
  6
CONTINUOUS
 10
19.2619542621
 20
-8.0634095634
 11
68.7623192923
 21
-8.0634095634
  0
LINE
  5
25B
100
AcDbEntity
  8
0
100
AcDbLine
 62
253
  6
CONTINUOUS
 10
-50.238410768
 20
-7.5634095634
 11
-0.9451525191
 21
-7.5634095634
  0
LINE
  5
25C
100
AcDbEntity
  8
0
100
AcDbLine
 62
253
  6
CONTINUOUS
 10
19.4690610433
 20
-7.5634095634
 11
68.7623192923
 21
-7.5634095634
  0
LINE
  5
25D
100
AcDbEntity
  8
0
100
AcDbLine
 62
7
  6
CONTINUOUS
 10
1.2619542621
 20
-6.0634095634
 11
17.2619542621
 21
-6.0634095634
  0
LINE
  5
25E
100
AcDbEntity
  8
0
100
AcDbLine
 62
7
  6
CONTINUOUS
 10
-10.8464857379
 20
4.9365904366
 11
-11.8967947379
 21
7.8365904366
  0
LINE
  5
25F
100
AcDbEntity
  8
0
100
AcDbLine
 62
7
  6
CONTINUOUS
 10
-11.5615067379
 20
5.7806744366
 11
-11.2747437379
 21
4.9365904366
  0
LINE
  5
260
100
AcDbEntity
  8
0
100
AcDbLine
 62
7
  6
CONTINUOUS
 10
-12.1349857379
 20
7.4159494366
 11
-11.7029067379
 21
6.1280174366
  0
LINE
  5
261
100
AcDbEntity
  8
0
100
AcDbLine
 62
7
  6
CONTINUOUS
 10
-10.4871817379
 20
7.8365904366
 11
-10.4871817379
 21
4.9365904366
  0
LINE
  5
262
100
AcDbEntity
  8
0
100
AcDbLine
 62
7
  6
CONTINUOUS
 10
-10.0952767379
 20
5.2839334366
 11
-10.0952767379
 21
7.8365904366
  0
LINE
  5
263
100
AcDbEntity
  8
0
100
AcDbLine
 62
7
  6
CONTINUOUS
 10
-8.6249897379
 20
4.9365904366
 11
-8.6249897379
 21
5.2839334366
  0
LINE
  5
264
100
AcDbEntity
  8
0
100
AcDbLine
 62
7
  6
CONTINUOUS
 10
-3.4081597379
 20
35.2370194366
 11
-5.2431027379
 21
29.5217634366
  0
LINE
  5
265
100
AcDbEntity
  8
0
100
AcDbLine
 62
7
  6
CONTINUOUS
 10
-13.0278067379
 20
4.9365904366
 11
-12.7248137379
 21
5.7806744366
  0
LINE
  5
266
100
AcDbEntity
  8
0
100
AcDbLine
 62
7
  6
CONTINUOUS
 10
-12.6036307379
 20
6.1280174366
 11
-12.1349857379
 21
7.4159494366
  0
LINE
  5
267
100
AcDbEntity
  8
0
100
AcDbLine
 62
7
  6
CONTINUOUS
 10
-12.3410237379
 20
7.8365904366
 11
-13.4316487379
 21
4.9365904366
  0
LINE
  5
268
100
AcDbEntity
  8
0
100
AcDbLine
 62
7
  6
CONTINUOUS
 10
-19.3442663505
 20
17.330164763
 11
-20.5133417379
 21
16.3449774366
  0
LINE
  5
269
100
AcDbEntity
  8
0
100
AcDbLine
 62
7
  6
CONTINUOUS
 10
-20.5133417379
 20
15.8332814366
 11
-19.3985098406
 21
16.77275735
  0
LINE
  5
26A
100
AcDbEntity
  8
0
100
AcDbLine
 62
7
  6
CONTINUOUS
 10
43.1973706983
 20
5.3068032016
 11
42.9557042621
 21
5.2451010813
  0
LINE
  5
26B
100
AcDbEntity
  8
0
100
AcDbLine
 62
7
  6
CONTINUOUS
 10
40.5390378259
 20
5.3068032016
 11
40.2973706983
 21
5.2451010813
  0
LINE
  5
26C
100
AcDbEntity
  8
0
100
AcDbLine
 62
7
  6
CONTINUOUS
 10
42.9557042621
 20
4.9365904366
 11
43.2577878259
 21
4.9982925623
  0
LINE
  5
26D
100
AcDbEntity
  8
0
100
AcDbLine
 62
253
  6
CONTINUOUS
 10
-50.7382282529
 20
-7.0769181441
 11
-51.2380457376
 21
-7.090426734
  0
LINE
  5
26E
100
AcDbEntity
  8
0
100
AcDbLine
 62
253
  6
CONTINUOUS
 10
1.0548474809
 20
-5.5634095634
 11
17.4690610433
 21
-5.5634095634
  0
LINE
  5
26F
100
AcDbEntity
  8
0
100
AcDbLine
 62
253
  6
CONTINUOUS
 10
57.4619542621
 20
-5.4634095634
 11
52.0619542621
 21
-5.4634095634
  0
LINE
  5
270
100
AcDbEntity
  8
0
100
AcDbLine
 62
253
  6
CONTINUOUS
 10
38.9619542621
 20
-5.4634095634
 11
33.5619542621
 21
-5.4634095634
  0
LINE
  5
271
100
AcDbEntity
  8
0
100
AcDbLine
 62
253
  6
CONTINUOUS
 10
-15.0380457379
 20
-5.4634095634
 11
-20.4380457379
 21
-5.4634095634
  0
LINE
  5
272
100
AcDbEntity
  8
0
100
AcDbLine
 62
253
  6
CONTINUOUS
 10
-33.5380457379
 20
-5.4634095634
 11
-38.9380457379
 21
-5.4634095634
  0
LINE
  5
273
100
AcDbEntity
  8
0
100
AcDbLine
 62
7
  6
CONTINUOUS
 10
57.4619542621
 20
-4.9634095634
 11
52.0619542621
 21
-4.9634095634
  0
LINE
  5
274
100
AcDbEntity
  8
0
100
AcDbLine
 62
7
  6
CONTINUOUS
 10
38.9619542621
 20
-4.9634095634
 11
33.5619542621
 21
-4.9634095634
  0
LINE
  5
275
100
AcDbEntity
  8
0
100
AcDbLine
 62
7
  6
CONTINUOUS
 10
-15.0380457379
 20
-4.9634095634
 11
-20.4380457379
 21
-4.9634095634
  0
LINE
  5
276
100
AcDbEntity
  8
0
100
AcDbLine
 62
7
  6
CONTINUOUS
 10
-33.5380457379
 20
-4.9634095634
 11
-38.9380457379
 21
-4.9634095634
  0
LINE
  5
277
100
AcDbEntity
  8
0
100
AcDbLine
 62
253
  6
CONTINUOUS
 10
58.4619542621
 20
-4.4634095634
 11
57.9619542621
 21
-4.4634095634
  0
LINE
  5
278
100
AcDbEntity
  8
0
100
AcDbLine
 62
253
  6
CONTINUOUS
 10
-39.9380457379
 20
-4.4634095634
 11
-39.4380457379
 21
-4.4634095634
  0
LINE
  5
279
100
AcDbEntity
  8
0
100
AcDbLine
 62
253
  6
CONTINUOUS
 10
39.9619542621
 20
-4.4634095634
 11
39.4619542621
 21
-4.4634095634
  0
LINE
  5
27A
100
AcDbEntity
  8
0
100
AcDbLine
 62
253
  6
CONTINUOUS
 10
-21.4380457379
 20
-4.4634095634
 11
-20.9380457379
 21
-4.4634095634
  0
LINE
  5
27B
100
AcDbEntity
  8
0
100
AcDbLine
 62
253
  6
CONTINUOUS
 10
-14.0380457379
 20
-4.4634095634
 11
-14.5380457379
 21
-4.4634095634
  0
LINE
  5
27C
100
AcDbEntity
  8
0
100
AcDbLine
 62
253
  6
CONTINUOUS
 10
32.5619542621
 20
-4.4634095634
 11
33.0619542621
 21
-4.4634095634
  0
LINE
  5
27D
100
AcDbEntity
  8
0
100
AcDbLine
 62
253
  6
CONTINUOUS
 10
-32.5380457379
 20
-4.4634095634
 11
-33.0380457379
 21
-4.4634095634
  0
LINE
  5
27E
100
AcDbEntity
  8
0
100
AcDbLine
 62
253
  6
CONTINUOUS
 10
51.0619542621
 20
-4.4634095634
 11
51.5619542621
 21
-4.4634095634
  0
LINE
  5
27F
100
AcDbEntity
  8
0
100
AcDbLine
 62
253
  6
CONTINUOUS
 10
58.4619542621
 20
-2.4634095634
 11
57.9619542621
 21
-2.4634095634
  0
LINE
  5
280
100
AcDbEntity
  8
0
100
AcDbLine
 62
253
  6
CONTINUOUS
 10
-39.9380457379
 20
-2.4634095634
 11
-39.4380457379
 21
-2.4634095634
  0
LINE
  5
281
100
AcDbEntity
  8
0
100
AcDbLine
 62
253
  6
CONTINUOUS
 10
39.9619542621
 20
-2.4634095634
 11
39.4619542621
 21
-2.4634095634
  0
LINE
  5
282
100
AcDbEntity
  8
0
100
AcDbLine
 62
253
  6
CONTINUOUS
 10
-21.4380457379
 20
-2.4634095634
 11
-20.9380457379
 21
-2.4634095634
  0
LINE
  5
283
100
AcDbEntity
  8
0
100
AcDbLine
 62
253
  6
CONTINUOUS
 10
-14.0380457379
 20
-2.4634095634
 11
-14.5380457379
 21
-2.4634095634
  0
LINE
  5
284
100
AcDbEntity
  8
0
100
AcDbLine
 62
253
  6
CONTINUOUS
 10
32.5619542621
 20
-2.4634095634
 11
33.0619542621
 21
-2.4634095634
  0
LINE
  5
285
100
AcDbEntity
  8
0
100
AcDbLine
 62
253
  6
CONTINUOUS
 10
-32.5380457379
 20
-2.4634095634
 11
-33.0380457379
 21
-2.4634095634
  0
LINE
  5
286
100
AcDbEntity
  8
0
100
AcDbLine
 62
253
  6
CONTINUOUS
 10
51.0619542621
 20
-2.4634095634
 11
51.5619542621
 21
-2.4634095634
  0
LINE
  5
287
100
AcDbEntity
  8
0
100
AcDbLine
 62
7
  6
CONTINUOUS
 10
-38.9380457379
 20
-1.9634095634
 11
-33.5380457379
 21
-1.9634095634
  0
LINE
  5
288
100
AcDbEntity
  8
0
100
AcDbLine
 62
7
  6
CONTINUOUS
 10
-20.4380457379
 20
-1.9634095634
 11
-15.0380457379
 21
-1.9634095634
  0
LINE
  5
289
100
AcDbEntity
  8
0
100
AcDbLine
 62
7
  6
CONTINUOUS
 10
33.5619542621
 20
-1.9634095634
 11
38.9619542621
 21
-1.9634095634
  0
LINE
  5
28A
100
AcDbEntity
  8
0
100
AcDbLine
 62
7
  6
CONTINUOUS
 10
52.0619542621
 20
-1.9634095634
 11
57.4619542621
 21
-1.9634095634
  0
LINE
  5
28B
100
AcDbEntity
  8
0
100
AcDbLine
 62
253
  6
CONTINUOUS
 10
69.2621367772
 20
-7.0769181441
 11
69.7619542621
 21
-7.0904267248
  0
LINE
  5
28C
100
AcDbEntity
  8
0
100
AcDbLine
 62
253
  6
CONTINUOUS
 10
-36.2555499464
 20
31.3296214124
 11
-36.6385721679
 21
31.6510152172
  0
LINE
  5
28D
100
AcDbEntity
  8
0
100
AcDbLine
 62
7
  6
CONTINUOUS
 10
-22.0775817379
 20
16.7727574366
 11
-20.9572207379
 21
15.8286214366
  0
LINE
  5
28E
100
AcDbEntity
  8
0
100
AcDbLine
 62
7
  6
CONTINUOUS
 10
-20.9572207379
 20
16.3449774366
 11
-22.1292947379
 21
17.3326904366
  0
LINE
  5
28F
100
AcDbEntity
  8
0
100
AcDbLine
 62
7
  6
CONTINUOUS
 10
-8.4917757379
 20
7.8365904366
 11
-7.3972097379
 21
6.1038614366
  0
LINE
  5
290
100
AcDbEntity
  8
0
100
AcDbLine
 62
7
  6
CONTINUOUS
 10
-7.2032507379
 20
6.4429954366
 11
-8.0353737379
 21
7.8365904366
  0
LINE
  5
291
100
AcDbEntity
  8
0
100
AcDbLine
 62
7
  6
CONTINUOUS
 10
-7.3972097379
 20
6.1038614366
 11
-7.3972097379
 21
4.9365904366
  0
LINE
  5
292
100
AcDbEntity
  8
0
100
AcDbLine
 62
7
  6
CONTINUOUS
 10
-7.0055397379
 20
4.9365904366
 11
-7.0055397379
 21
6.1038614366
  0
LINE
  5
293
100
AcDbEntity
  8
0
100
AcDbLine
 62
7
  6
CONTINUOUS
 10
-4.4130627379
 20
26.9366454366
 11
-1.7480777379
 21
35.2370194366
  0
LINE
  5
294
100
AcDbEntity
  8
0
100
AcDbLine
 62
7
  6
CONTINUOUS
 10
42.3515378259
 20
6.4174414967
 11
42.5932042621
 21
6.479143617
  0
LINE
  5
295
100
AcDbEntity
  8
0
100
AcDbLine
 62
7
  6
CONTINUOUS
 10
39.6932042621
 20
6.4174414967
 11
39.9348706983
 21
6.479143617
  0
LINE
  5
296
100
AcDbEntity
  8
0
100
AcDbLine
 62
7
  6
CONTINUOUS
 10
40.2973706983
 20
4.9365904366
 11
40.5994542621
 21
4.9982925623
  0
LINE
  5
297
100
AcDbEntity
  8
0
100
AcDbLine
 62
7
  6
CONTINUOUS
 10
42.5932042621
 20
6.7876542186
 11
42.2911206983
 21
6.7259520983
  0
LINE
  5
298
100
AcDbEntity
  8
0
100
AcDbLine
 62
7
  6
CONTINUOUS
 10
45.0098713897
 20
7.4663777148
 11
45.3119542621
 21
7.5280798351
  0
LINE
  5
299
100
AcDbEntity
  8
0
100
AcDbLine
 62
7
  6
CONTINUOUS
 10
39.9348706983
 20
6.7876542186
 11
39.6327878259
 21
6.7259520983
  0
LINE
  5
29A
100
AcDbEntity
  8
0
100
AcDbLine
 62
7
  6
CONTINUOUS
 10
45.3723713897
 20
7.8365904366
 11
44.9494542621
 21
7.7748883163
  0
LINE
  5
29B
100
AcDbEntity
  8
0
100
AcDbLine
 62
253
  6
CONTINUOUS
 10
-38.9380457379
 20
-1.4634095634
 11
-33.5380457379
 21
-1.4634095634
  0
LINE
  5
29C
100
AcDbEntity
  8
0
100
AcDbLine
 62
253
  6
CONTINUOUS
 10
-20.4380457379
 20
-1.4634095634
 11
-15.0380457379
 21
-1.4634095634
  0
LINE
  5
29D
100
AcDbEntity
  8
0
100
AcDbLine
 62
253
  6
CONTINUOUS
 10
33.5619542621
 20
-1.4634095634
 11
38.9619542621
 21
-1.4634095634
  0
LINE
  5
29E
100
AcDbEntity
  8
0
100
AcDbLine
 62
253
  6
CONTINUOUS
 10
52.0619542621
 20
-1.4634095634
 11
57.4619542621
 21
-1.4634095634
  0
LINE
  5
29F
100
AcDbEntity
  8
0
100
AcDbLine
 62
7
  6
CONTINUOUS
 10
-0.6413767379
 20
35.2370194366
 11
-0.6413957379
 21
26.9366244366
  0
LINE
  5
2A0
100
AcDbEntity
  8
0
100
AcDbLine
 62
7
  6
CONTINUOUS
 10
1.0186652621
 20
26.9366454366
 11
1.0186862621
 21
35.2370194366
  0
LINE
  5
2A1
100
AcDbEntity
  8
0
100
AcDbLine
 62
7
  6
CONTINUOUS
 10
-6.3713627379
 20
7.8365904366
 11
-7.2032507379
 21
6.4429954366
  0
LINE
  5
2A2
100
AcDbEntity
  8
0
100
AcDbLine
 62
7
  6
CONTINUOUS
 10
-7.0055397379
 20
6.1038614366
 11
-5.9107397379
 21
7.8365904366
  0
LINE
  5
2A3
100
AcDbEntity
  8
0
100
AcDbLine
 62
7
  6
CONTINUOUS
 10
-34.7380457379
 20
4.9365904366
 11
-34.3583957379
 21
4.9365904366
  0
LINE
  5
2A4
100
AcDbEntity
  8
0
100
AcDbLine
 62
7
  6
CONTINUOUS
 10
-33.5424487379
 20
4.9365904366
 11
-33.1546887379
 21
4.9365904366
  0
LINE
  5
2A5
100
AcDbEntity
  8
0
100
AcDbLine
 62
7
  6
CONTINUOUS
 10
-32.3388987379
 20
4.9365904366
 11
-31.9590957379
 21
4.9365904366
  0
LINE
  5
2A6
100
AcDbEntity
  8
0
100
AcDbLine
 62
7
  6
CONTINUOUS
 10
-31.6117287379
 20
4.9365904366
 11
-31.2078637379
 21
4.9365904366
  0
LINE
  5
2A7
100
AcDbEntity
  8
0
100
AcDbLine
 62
7
  6
CONTINUOUS
 10
-29.4549637379
 20
4.9365904366
 11
-29.0267777379
 21
4.9365904366
  0
LINE
  5
2A8
100
AcDbEntity
  8
0
100
AcDbLine
 62
7
  6
CONTINUOUS
 10
-28.6471387379
 20
4.9365904366
 11
-27.4717299837
 21
4.9365904366
  0
LINE
  5
2A9
100
AcDbEntity
  8
0
100
AcDbLine
 62
7
  6
CONTINUOUS
 10
-25.7106687379
 20
4.9365904366
 11
-23.5698517379
 21
4.9365904366
  0
LINE
  5
2AA
100
AcDbEntity
  8
0
100
AcDbLine
 62
7
  6
CONTINUOUS
 10
-21.8733817379
 20
4.9365904366
 11
-21.4816177379
 21
4.9365904366
  0
LINE
  5
2AB
100
AcDbEntity
  8
0
100
AcDbLine
 62
7
  6
CONTINUOUS
 10
-20.8112287379
 20
4.9365904366
 11
-20.4314027379
 21
4.9365904366
  0
LINE
  5
2AC
100
AcDbEntity
  8
0
100
AcDbLine
 62
7
  6
CONTINUOUS
 10
-18.9490367379
 20
4.9365904366
 11
-18.5087947379
 21
4.9365904366
  0
LINE
  5
2AD
100
AcDbEntity
  8
0
100
AcDbLine
 62
7
  6
CONTINUOUS
 10
-16.7114747379
 20
4.9365904366
 11
-16.3195937379
 21
4.9365904366
  0
LINE
  5
2AE
100
AcDbEntity
  8
0
100
AcDbLine
 62
7
  6
CONTINUOUS
 10
-14.9180017379
 20
4.9365904366
 11
-14.5262617379
 21
4.9365904366
  0
LINE
  5
2AF
100
AcDbEntity
  8
0
100
AcDbLine
 62
7
  6
CONTINUOUS
 10
-13.4316487379
 20
4.9365904366
 11
-13.0278067379
 21
4.9365904366
  0
LINE
  5
2B0
100
AcDbEntity
  8
0
100
AcDbLine
 62
7
  6
CONTINUOUS
 10
-11.2747437379
 20
4.9365904366
 11
-10.8464857379
 21
4.9365904366
  0
LINE
  5
2B1
100
AcDbEntity
  8
0
100
AcDbLine
 62
7
  6
CONTINUOUS
 10
-10.4871817379
 20
4.9365904366
 11
-8.6249897379
 21
4.9365904366
  0
LINE
  5
2B2
100
AcDbEntity
  8
0
100
AcDbLine
 62
7
  6
CONTINUOUS
 10
-7.3972097379
 20
4.9365904366
 11
-7.0055397379
 21
4.9365904366
  0
LINE
  5
2B3
100
AcDbEntity
  8
0
100
AcDbLine
 62
7
  6
CONTINUOUS
 10
33.2286209576
 20
4.9365904366
 11
33.7119542621
 21
4.9365904366
  0
LINE
  5
2B4
100
AcDbEntity
  8
0
100
AcDbLine
 62
7
  6
CONTINUOUS
 10
35.766121044
 20
4.9365904366
 11
36.128621044
 21
4.9365904366
  0
LINE
  5
2B5
100
AcDbEntity
  8
0
100
AcDbLine
 62
7
  6
CONTINUOUS
 10
38.1827878259
 20
4.9365904366
 11
38.5452878259
 21
4.9365904366
  0
LINE
  5
2B6
100
AcDbEntity
  8
0
100
AcDbLine
 62
7
  6
CONTINUOUS
 10
39.9348706983
 20
4.9365904366
 11
40.2973706983
 21
4.9365904366
  0
LINE
  5
2B7
100
AcDbEntity
  8
0
100
AcDbLine
 62
7
  6
CONTINUOUS
 10
42.5932042621
 20
4.9365904366
 11
42.9557042621
 21
4.9365904366
  0
LINE
  5
2B8
100
AcDbEntity
  8
0
100
AcDbLine
 62
7
  6
CONTINUOUS
 10
44.3452871345
 20
4.9365904366
 11
46.5202871345
 21
4.9365904366
  0
LINE
  5
2B9
100
AcDbEntity
  8
0
100
AcDbLine
 62
7
  6
CONTINUOUS
 10
46.5202871345
 20
5.2451010813
 11
44.8286213897
 21
5.2451010813
  0
LINE
  5
2BA
100
AcDbEntity
  8
0
100
AcDbLine
 62
7
  6
CONTINUOUS
 10
42.9557042621
 20
5.2451010813
 11
42.5932042621
 21
5.2451010813
  0
LINE
  5
2BB
100
AcDbEntity
  8
0
100
AcDbLine
 62
7
  6
CONTINUOUS
 10
40.2973706983
 20
5.2451010813
 11
39.9348706983
 21
5.2451010813
  0
LINE
  5
2BC
100
AcDbEntity
  8
0
100
AcDbLine
 62
7
  6
CONTINUOUS
 10
-27.4816982059
 20
5.2717384366
 11
-28.2552337379
 21
5.2717384366
  0
LINE
  5
2BD
100
AcDbEntity
  8
0
100
AcDbLine
 62
7
  6
CONTINUOUS
 10
-8.6249897379
 20
5.2839334366
 11
-10.0952767379
 21
5.2839334366
  0
LINE
  5
2BE
100
AcDbEntity
  8
0
100
AcDbLine
 62
7
  6
CONTINUOUS
 10
-23.5698517379
 20
5.2839334366
 11
-25.3187877379
 21
5.2839334366
  0
LINE
  5
2BF
100
AcDbEntity
  8
0
100
AcDbLine
 62
7
  6
CONTINUOUS
 10
42.0494542621
 20
5.6770159667
 11
41.6869542621
 21
5.6770159667
  0
LINE
  5
2C0
100
AcDbEntity
  8
0
100
AcDbLine
 62
7
  6
CONTINUOUS
 10
39.3911206983
 20
5.6770159667
 11
39.0286206983
 21
5.6770159667
  0
LINE
  5
2C1
100
AcDbEntity
  8
0
100
AcDbLine
 62
7
  6
CONTINUOUS
 10
-30.9048937379
 20
5.7806744366
 11
-29.7417037379
 21
5.7806744366
  0
LINE
  5
2C2
100
AcDbEntity
  8
0
100
AcDbLine
 62
7
  6
CONTINUOUS
 10
-12.7248137379
 20
5.7806744366
 11
-11.5615067379
 21
5.7806744366
  0
LINE
  5
2C3
100
AcDbEntity
  8
0
100
AcDbLine
 62
7
  6
CONTINUOUS
 10
-11.7029067379
 20
6.1280174366
 11
-12.6036307379
 21
6.1280174366
  0
LINE
  5
2C4
100
AcDbEntity
  8
0
100
AcDbLine
 62
7
  6
CONTINUOUS
 10
-29.8829637379
 20
6.1280174366
 11
-30.7836867379
 21
6.1280174366
  0
LINE
  5
2C5
100
AcDbEntity
  8
0
100
AcDbLine
 62
7
  6
CONTINUOUS
 10
39.0286206983
 20
6.2323351358
 11
39.4515378259
 21
6.2323351358
  0
LINE
  5
2C6
100
AcDbEntity
  8
0
100
AcDbLine
 62
7
  6
CONTINUOUS
 10
41.6869542621
 20
6.2323351358
 11
42.1098706983
 21
6.2323351358
  0
LINE
  5
2C7
100
AcDbEntity
  8
0
100
AcDbLine
 62
7
  6
CONTINUOUS
 10
-25.3187877379
 20
6.2532584366
 11
-23.7314457379
 21
6.2532584366
  0
LINE
  5
2C8
100
AcDbEntity
  8
0
100
AcDbLine
 62
7
  6
CONTINUOUS
 10
39.9348706983
 20
6.479143617
 11
40.2973706983
 21
6.479143617
  0
LINE
  5
2C9
100
AcDbEntity
  8
0
100
AcDbLine
 62
7
  6
CONTINUOUS
 10
42.5932042621
 20
6.479143617
 11
42.9557042621
 21
6.479143617
  0
LINE
  5
2CA
100
AcDbEntity
  8
0
100
AcDbLine
 62
7
  6
CONTINUOUS
 10
-23.7314457379
 20
6.6006014366
 11
-25.3187877379
 21
6.6006014366
  0
LINE
  5
2CB
100
AcDbEntity
  8
0
100
AcDbLine
 62
7
  6
CONTINUOUS
 10
42.9557042621
 20
6.7876542186
 11
42.5932042621
 21
6.7876542186
  0
LINE
  5
2CC
100
AcDbEntity
  8
0
100
AcDbLine
 62
7
  6
CONTINUOUS
 10
40.2973706983
 20
6.7876542186
 11
39.9348706983
 21
6.7876542186
  0
LINE
  5
2CD
100
AcDbEntity
  8
0
100
AcDbLine
 62
7
  6
CONTINUOUS
 10
44.4057042621
 20
7.1578671132
 11
44.7077871345
 21
7.1578671132
  0
LINE
  5
2CE
100
AcDbEntity
  8
0
100
AcDbLine
 62
7
  6
CONTINUOUS
 10
17.2619542621
 20
-6.0634095634
 11
19.2619542621
 21
-8.0634095634
  0
LINE
  5
2CF
100
AcDbEntity
  8
0
100
AcDbLine
 62
253
  6
CONTINUOUS
 10
17.4690610433
 20
-5.5634095634
 11
19.4690610433
 21
-7.5634095634
  0
LINE
  5
2D0
100
AcDbEntity
  8
0
100
AcDbLine
 62
7
  6
CONTINUOUS
 10
-8.7381507379
 20
35.2370194366
 11
-6.0731867379
 21
26.9366244366
  0
LINE
  5
2D1
100
AcDbEntity
  8
0
100
AcDbLine
 62
7
  6
CONTINUOUS
 10
-5.2431027379
 20
29.5217634366
 11
-7.0780667379
 21
35.2370194366
  0
LINE
  5
2D2
100
AcDbEntity
  8
0
100
AcDbLine
 62
7
  6
CONTINUOUS
 10
2.6786862621
 20
35.2370194366
 11
2.6786862621
 21
26.9366454366
  0
LINE
  5
2D3
100
AcDbEntity
  8
0
100
AcDbLine
 62
7
  6
CONTINUOUS
 10
4.3387492621
 20
26.9366454366
 11
4.3387492621
 21
32.4101844366
  0
LINE
  5
2D4
100
AcDbEntity
  8
0
100
AcDbLine
 62
7
  6
CONTINUOUS
 10
8.2882612621
 20
35.2370194366
 11
6.7382582621
 21
29.8315194366
  0
LINE
  5
2D5
100
AcDbEntity
  8
0
100
AcDbLine
 62
7
  6
CONTINUOUS
 10
7.5682582621
 20
26.9366664366
 11
9.1377462621
 21
32.4101844366
  0
LINE
  5
2D6
100
AcDbEntity
  8
0
100
AcDbLine
 62
7
  6
CONTINUOUS
 10
-25.3187877379
 20
7.4892474366
 11
-23.5981597379
 21
7.4892474366
  0
LINE
  5
2D7
100
AcDbEntity
  8
0
100
AcDbLine
 62
7
  6
CONTINUOUS
 10
-15.8995217379
 20
7.4892474366
 11
-14.9180017379
 21
7.4892474366
  0
LINE
  5
2D8
100
AcDbEntity
  8
0
100
AcDbLine
 62
7
  6
CONTINUOUS
 10
-14.5262617379
 20
7.4892474366
 11
-13.5447407379
 21
7.4892474366
  0
LINE
  5
2D9
100
AcDbEntity
  8
0
100
AcDbLine
 62
7
  6
CONTINUOUS
 10
-28.2552337379
 20
7.5014424366
 11
-27.4816982058
 21
7.5014424366
  0
LINE
  5
2DA
100
AcDbEntity
  8
0
100
AcDbLine
 62
7
  6
CONTINUOUS
 10
35.1619542621
 20
7.5280798351
 11
36.9744542621
 21
7.5280798351
  0
LINE
  5
2DB
100
AcDbEntity
  8
0
100
AcDbLine
 62
7
  6
CONTINUOUS
 10
39.3307042621
 20
7.5280798351
 11
41.0827878259
 21
7.5280798351
  0
LINE
  5
2DC
100
AcDbEntity
  8
0
100
AcDbLine
 62
7
  6
CONTINUOUS
 10
41.9890378259
 20
7.5280798351
 11
43.7411206983
 21
7.5280798351
  0
LINE
  5
2DD
100
AcDbEntity
  8
0
100
AcDbLine
 62
7
  6
CONTINUOUS
 10
45.3119542621
 20
7.5280798351
 11
45.5536213897
 21
7.5280798351
  0
LINE
  5
2DE
100
AcDbEntity
  8
0
100
AcDbLine
 62
7
  6
CONTINUOUS
 10
45.6140371345
 20
7.8365904366
 11
45.3723713897
 21
7.8365904366
  0
LINE
  5
2DF
100
AcDbEntity
  8
0
100
AcDbLine
 62
7
  6
CONTINUOUS
 10
43.7411206983
 20
7.8365904366
 11
41.6869542621
 21
7.8365904366
  0
LINE
  5
2E0
100
AcDbEntity
  8
0
100
AcDbLine
 62
7
  6
CONTINUOUS
 10
41.0827878259
 20
7.8365904366
 11
39.0286206983
 21
7.8365904366
  0
LINE
  5
2E1
100
AcDbEntity
  8
0
100
AcDbLine
 62
7
  6
CONTINUOUS
 10
38.5452878259
 20
7.8365904366
 11
38.1827878259
 21
7.8365904366
  0
LINE
  5
2E2
100
AcDbEntity
  8
0
100
AcDbLine
 62
7
  6
CONTINUOUS
 10
37.3369542621
 20
7.8365904366
 11
35.1619542621
 21
7.8365904366
  0
LINE
  5
2E3
100
AcDbEntity
  8
0
100
AcDbLine
 62
7
  6
CONTINUOUS
 10
34.6786208712
 20
7.8365904366
 11
34.3161208712
 21
7.8365904366
  0
LINE
  5
2E4
100
AcDbEntity
  8
0
100
AcDbLine
 62
7
  6
CONTINUOUS
 10
32.6244542621
 20
7.8365904366
 11
32.2619542621
 21
7.8365904366
  0
LINE
  5
2E5
100
AcDbEntity
  8
0
100
AcDbLine
 62
7
  6
CONTINUOUS
 10
-5.9107397379
 20
7.8365904366
 11
-6.3713627379
 21
7.8365904366
  0
LINE
  5
2E6
100
AcDbEntity
  8
0
100
AcDbLine
 62
7
  6
CONTINUOUS
 10
-8.0353737379
 20
7.8365904366
 11
-8.4917757379
 21
7.8365904366
  0
LINE
  5
2E7
100
AcDbEntity
  8
0
100
AcDbLine
 62
7
  6
CONTINUOUS
 10
-10.0952767379
 20
7.8365904366
 11
-10.4871817379
 21
7.8365904366
  0
LINE
  5
2E8
100
AcDbEntity
  8
0
100
AcDbLine
 62
7
  6
CONTINUOUS
 10
-11.8967947379
 20
7.8365904366
 11
-12.3410237379
 21
7.8365904366
  0
LINE
  5
2E9
100
AcDbEntity
  8
0
100
AcDbLine
 62
7
  6
CONTINUOUS
 10
-13.5447407379
 20
7.8365904366
 11
-15.8995217379
 21
7.8365904366
  0
LINE
  5
2EA
100
AcDbEntity
  8
0
100
AcDbLine
 62
7
  6
CONTINUOUS
 10
-16.3195937379
 20
7.8365904366
 11
-16.7114747379
 21
7.8365904366
  0
LINE
  5
2EB
100
AcDbEntity
  8
0
100
AcDbLine
 62
7
  6
CONTINUOUS
 10
-18.5087947379
 20
7.8365904366
 11
-18.8884337379
 21
7.8365904366
  0
LINE
  5
2EC
100
AcDbEntity
  8
0
100
AcDbLine
 62
7
  6
CONTINUOUS
 10
-20.3466417379
 20
7.8365904366
 11
-20.8112287379
 21
7.8365904366
  0
LINE
  5
2ED
100
AcDbEntity
  8
0
100
AcDbLine
 62
7
  6
CONTINUOUS
 10
-21.4816177379
 20
7.8365904366
 11
-21.8733817379
 21
7.8365904366
  0
LINE
  5
2EE
100
AcDbEntity
  8
0
100
AcDbLine
 62
7
  6
CONTINUOUS
 10
-23.5981597379
 20
7.8365904366
 11
-25.7106687379
 21
7.8365904366
  0
LINE
  5
2EF
100
AcDbEntity
  8
0
100
AcDbLine
 62
7
  6
CONTINUOUS
 10
-27.45939984
 20
7.8365904366
 11
-28.6471387379
 21
7.8365904366
  0
LINE
  5
2F0
100
AcDbEntity
  8
0
100
AcDbLine
 62
7
  6
CONTINUOUS
 10
-30.0768747379
 20
7.8365904366
 11
-30.5212447379
 21
7.8365904366
  0
LINE
  5
2F1
100
AcDbEntity
  8
0
100
AcDbLine
 62
7
  6
CONTINUOUS
 10
-31.9590957379
 20
7.8365904366
 11
-32.5165577379
 21
7.8365904366
  0
LINE
  5
2F2
100
AcDbEntity
  8
0
100
AcDbLine
 62
7
  6
CONTINUOUS
 10
-34.1766007379
 20
7.8365904366
 11
-34.7380457379
 21
7.8365904366
  0
LINE
  5
2F3
100
AcDbEntity
  8
0
100
AcDbLine
 62
7
  6
CONTINUOUS
 10
39.6327878259
 20
4.9982925623
 11
39.9348706983
 21
4.9365904366
  0
LINE
  5
2F4
100
AcDbEntity
  8
0
100
AcDbLine
 62
253
  6
CONTINUOUS
 10
-30.4419632519
 20
38.2579842414
 11
-30.8249854734
 21
38.5793780463
  0
LINE
  5
2F5
100
AcDbEntity
  8
0
100
AcDbLine
 62
7
  6
CONTINUOUS
 10
9.1377462621
 20
32.4101844366
 11
9.1377672621
 21
26.9366454366
  0
LINE
  5
2F6
100
AcDbEntity
  8
0
100
AcDbLine
 62
7
  6
CONTINUOUS
 10
14.5694742621
 20
35.2370404366
 11
11.9045312621
 21
26.9366454366
  0
LINE
  5
2F7
100
AcDbEntity
  8
0
100
AcDbLine
 62
7
  6
CONTINUOUS
 10
13.5645922621
 20
26.9366664366
 11
14.0886752621
 21
28.5689864366
  0
LINE
  5
2F8
100
AcDbEntity
  8
0
100
AcDbLine
 62
7
  6
CONTINUOUS
 10
14.5950382621
 20
30.1460474366
 11
15.3995372621
 21
32.6519014366
  0
LINE
  5
2F9
100
AcDbEntity
  8
0
100
AcDbLine
 62
7
  6
CONTINUOUS
 10
-21.3264757379
 20
14.0304734366
 11
-20.1442297379
 21
14.0304734366
  0
LINE
  5
2FA
100
AcDbEntity
  8
0
100
AcDbLine
 62
7
  6
CONTINUOUS
 10
-20.1442297379
 20
14.4471384366
 11
-20.5133417379
 21
14.4471384366
  0
LINE
  5
2FB
100
AcDbEntity
  8
0
100
AcDbLine
 62
7
  6
CONTINUOUS
 10
-20.9572207379
 20
14.4471384366
 11
-21.3264757379
 21
14.4471384366
  0
LINE
  5
2FC
100
AcDbEntity
  8
0
100
AcDbLine
 62
7
  6
CONTINUOUS
 10
40.9190092621
 20
15.5615904366
 11
42.3795102621
 21
15.5615904366
  0
LINE
  5
2FD
100
AcDbEntity
  8
0
100
AcDbLine
 62
7
  6
CONTINUOUS
 10
45.9765371345
 20
7.7748883163
 11
45.6140371345
 21
7.8365904366
  0
LINE
  5
2FE
100
AcDbEntity
  8
0
100
AcDbLine
 62
7
  6
CONTINUOUS
 10
42.2911206983
 20
4.9982925623
 11
42.5932042621
 21
4.9365904366
  0
LINE
  5
2FF
100
AcDbEntity
  8
0
100
AcDbLine
 62
7
  6
CONTINUOUS
 10
40.5994542621
 20
6.7259520983
 11
40.2973706983
 21
6.7876542186
  0
LINE
  5
300
100
AcDbEntity
  8
0
100
AcDbLine
 62
7
  6
CONTINUOUS
 10
43.2577878259
 20
6.7259520983
 11
42.9557042621
 21
6.7876542186
  0
LINE
  5
301
100
AcDbEntity
  8
0
100
AcDbLine
 62
7
  6
CONTINUOUS
 10
45.5536213897
 20
7.5280798351
 11
45.8557042621
 21
7.4663777148
  0
LINE
  5
302
100
AcDbEntity
  8
0
100
AcDbLine
 62
7
  6
CONTINUOUS
 10
39.9348706983
 20
5.2451010813
 11
39.6932042621
 21
5.3068032016
  0
LINE
  5
303
100
AcDbEntity
  8
0
100
AcDbLine
 62
7
  6
CONTINUOUS
 10
42.5932042621
 20
5.2451010813
 11
42.3515378259
 21
5.3068032016
  0
LINE
  5
304
100
AcDbEntity
  8
0
100
AcDbLine
 62
7
  6
CONTINUOUS
 10
40.2973706983
 20
6.479143617
 11
40.5390378259
 21
6.4174414967
  0
LINE
  5
305
100
AcDbEntity
  8
0
100
AcDbLine
 62
7
  6
CONTINUOUS
 10
42.9557042621
 20
6.479143617
 11
43.1973706983
 21
6.4174414967
  0
LINE
  5
306
100
AcDbEntity
  8
0
100
AcDbLine
 62
7
  6
CONTINUOUS
 10
4.3387492621
 20
32.4101844366
 11
5.9082372621
 21
26.9366454366
  0
LINE
  5
307
100
AcDbEntity
  8
0
100
AcDbLine
 62
7
  6
CONTINUOUS
 10
10.7978302621
 20
26.9366454366
 11
10.7978302621
 21
35.2370194366
  0
LINE
  5
308
100
AcDbEntity
  8
0
100
AcDbLine
 62
7
  6
CONTINUOUS
 10
42.3795102621
 20
16.3115904366
 11
40.9190062525
 21
16.3115904366
  0
LINE
  5
309
100
AcDbEntity
  8
0
100
AcDbLine
 62
7
  6
CONTINUOUS
 10
-21.3128687379
 20
17.4073364366
 11
-20.9572207379
 21
17.4073364366
  0
LINE
  5
30A
100
AcDbEntity
  8
0
100
AcDbLine
 62
7
  6
CONTINUOUS
 10
-20.5133417379
 20
17.4073364366
 11
-20.1578367379
 21
17.4073364366
  0
LINE
  5
30B
100
AcDbEntity
  8
0
100
AcDbLine
 62
7
  6
CONTINUOUS
 10
-20.1578367379
 20
17.8262934366
 11
-21.3128687379
 21
17.8262934366
  0
LINE
  5
30C
100
AcDbEntity
  8
0
100
AcDbLine
 62
7
  6
CONTINUOUS
 10
6.7382582621
 20
29.8315194366
 11
5.1882532621
 21
35.2370194366
  0
LINE
  5
30D
100
AcDbEntity
  8
0
100
AcDbLine
 62
253
  6
CONTINUOUS
 10
-0.9451525191
 20
-7.5634095634
 11
1.0548474809
 21
-5.5634095634
  0
LINE
  5
30E
100
AcDbEntity
  8
0
100
AcDbLine
 62
253
  6
CONTINUOUS
 10
48.9658717761
 20
38.2579842414
 11
49.3488939901
 21
38.5793780554
  0
LINE
  5
30F
100
AcDbEntity
  8
0
100
AcDbLine
 62
7
  6
CONTINUOUS
 10
39.3307042621
 20
5.1833989394
 11
39.6327878259
 21
4.9982925623
  0
LINE
  5
310
100
AcDbEntity
  8
0
100
AcDbLine
 62
7
  6
CONTINUOUS
 10
41.9890378259
 20
5.1833989394
 11
42.2911206983
 21
4.9982925623
  0
LINE
  5
311
100
AcDbEntity
  8
0
100
AcDbLine
 62
7
  6
CONTINUOUS
 10
40.9015378259
 20
6.5408457374
 11
40.5994542621
 21
6.7259520983
  0
LINE
  5
312
100
AcDbEntity
  8
0
100
AcDbLine
 62
7
  6
CONTINUOUS
 10
39.6932042621
 20
5.3068032016
 11
39.5119542621
 21
5.4302074422
  0
LINE
  5
313
100
AcDbEntity
  8
0
100
AcDbLine
 62
7
  6
CONTINUOUS
 10
20.0013052621
 20
35.2370404366
 11
20.0013052621
 21
26.9366664366
  0
LINE
  5
314
100
AcDbEntity
  8
0
100
AcDbLine
 62
7
  6
CONTINUOUS
 10
21.6385002621
 20
31.6816314366
 11
21.6384812621
 21
33.7014774366
  0
LINE
  5
315
100
AcDbEntity
  8
0
100
AcDbLine
 62
7
  6
CONTINUOUS
 10
21.6613892621
 20
26.9366664366
 11
21.6615742621
 21
30.1460684366
  0
LINE
  5
316
100
AcDbEntity
  8
0
100
AcDbLine
 62
7
  6
CONTINUOUS
 10
-0.7380457379
 20
-8.0634095634
 11
1.2619542621
 21
-6.0634095634
  0
LINE
  5
317
100
AcDbEntity
  8
0
100
AcDbLine
 62
7
  6
CONTINUOUS
 10
24.7740342621
 20
26.9366664366
 11
26.6438372621
 21
26.9366874366
  0
LINE
  5
318
100
AcDbEntity
  8
0
100
AcDbLine
 62
7
  6
CONTINUOUS
 10
11.9045312621
 20
26.9366454366
 11
13.5645922621
 21
26.9366664366
  0
LINE
  5
319
100
AcDbEntity
  8
0
100
AcDbLine
 62
7
  6
CONTINUOUS
 10
2.6786862621
 20
26.9366454366
 11
4.3387492621
 21
26.9366454366
  0
LINE
  5
31A
100
AcDbEntity
  8
0
100
AcDbLine
 62
7
  6
CONTINUOUS
 10
9.1377672621
 20
26.9366454366
 11
10.7978302621
 21
26.9366454366
  0
LINE
  5
31B
100
AcDbEntity
  8
0
100
AcDbLine
 62
7
  6
CONTINUOUS
 10
20.0013052621
 20
26.9366664366
 11
21.6613892621
 21
26.9366664366
  0
LINE
  5
31C
100
AcDbEntity
  8
0
100
AcDbLine
 62
7
  6
CONTINUOUS
 10
5.9082372621
 20
26.9366454366
 11
7.5682582621
 21
26.9366664366
  0
LINE
  5
31D
100
AcDbEntity
  8
0
100
AcDbLine
 62
7
  6
CONTINUOUS
 10
-0.6413957379
 20
26.9366244366
 11
1.0186652621
 21
26.9366454366
  0
LINE
  5
31E
100
AcDbEntity
  8
0
100
AcDbLine
 62
7
  6
CONTINUOUS
 10
17.2345202621
 20
26.9366664366
 11
18.8946042621
 21
26.9366454366
  0
LINE
  5
31F
100
AcDbEntity
  8
0
100
AcDbLine
 62
7
  6
CONTINUOUS
 10
-6.0731867379
 20
26.9366244366
 11
-4.4130627379
 21
26.9366454366
  0
LINE
  5
320
100
AcDbEntity
  8
0
100
AcDbLine
 62
7
  6
CONTINUOUS
 10
14.0886752621
 20
28.5689864366
 11
16.7104582621
 21
28.5689864366
  0
LINE
  5
321
100
AcDbEntity
  8
0
100
AcDbLine
 62
7
  6
CONTINUOUS
 10
46.2182042621
 20
7.6514840757
 11
45.9765371345
 21
7.7748883163
  0
LINE
  5
322
100
AcDbEntity
  8
0
100
AcDbLine
 62
7
  6
CONTINUOUS
 10
43.5598706983
 20
6.5408457374
 11
43.2577878259
 21
6.7259520983
  0
LINE
  5
323
100
AcDbEntity
  8
0
100
AcDbLine
 62
7
  6
CONTINUOUS
 10
40.5390378259
 20
6.4174414967
 11
40.7202878259
 21
6.2940372561
  0
LINE
  5
324
100
AcDbEntity
  8
0
100
AcDbLine
 62
7
  6
CONTINUOUS
 10
42.3515378259
 20
5.3068032016
 11
42.1702878259
 21
5.4302074422
  0
LINE
  5
325
100
AcDbEntity
  8
0
100
AcDbLine
 62
7
  6
CONTINUOUS
 10
43.1973706983
 20
6.4174414967
 11
43.3786206983
 21
6.2940372561
  0
LINE
  5
326
100
AcDbEntity
  8
0
100
AcDbLine
 62
7
  6
CONTINUOUS
 10
16.7104582621
 20
28.5689864366
 11
17.2345202621
 21
26.9366664366
  0
LINE
  5
327
100
AcDbEntity
  8
0
100
AcDbLine
 62
7
  6
CONTINUOUS
 10
15.3995372621
 20
32.6519014366
 11
16.2040762621
 21
30.1460474366
  0
LINE
  5
328
100
AcDbEntity
  8
0
100
AcDbLine
 62
7
  6
CONTINUOUS
 10
18.8946042621
 20
26.9366454366
 11
16.2296192621
 21
35.2370404366
  0
LINE
  5
329
100
AcDbEntity
  8
0
100
AcDbLine
 62
253
  6
CONTINUOUS
 10
54.7794584706
 20
31.3296214124
 11
55.1624806922
 21
31.6510152172
  0
LINE
  5
32A
100
AcDbEntity
  8
0
100
AcDbLine
 62
253
  6
CONTINUOUS
 10
-51.7382282529
 20
29.9230818559
 11
-52.2380457379
 21
29.9095732752
  0
LINE
  5
32B
100
AcDbEntity
  8
0
100
AcDbLine
 62
7
  6
CONTINUOUS
 10
16.2040762621
 20
30.1460474366
 11
14.5950382621
 21
30.1460474366
  0
LINE
  5
32C
100
AcDbEntity
  8
0
100
AcDbLine
 62
7
  6
CONTINUOUS
 10
21.6615742621
 20
30.1460684366
 11
23.1104432621
 21
30.1460474366
  0
LINE
  5
32D
100
AcDbEntity
  8
0
100
AcDbLine
 62
253
  6
CONTINUOUS
 10
69.7623192923
 20
30.4365904366
 11
56.6945695784
 21
30.4365904366
  0
LINE
  5
32E
100
AcDbEntity
  8
0
100
AcDbLine
 62
253
  6
CONTINUOUS
 10
-38.1706610542
 20
30.4365904366
 11
-51.238410768
 21
30.4365904366
  0
LINE
  5
32F
100
AcDbEntity
  8
0
100
AcDbLine
 62
7
  6
CONTINUOUS
 10
69.7623192923
 20
30.9365904366
 11
56.6945695784
 21
30.9365904366
  0
LINE
  5
330
100
AcDbEntity
  8
0
100
AcDbLine
 62
7
  6
CONTINUOUS
 10
-38.1706610542
 20
30.9365904366
 11
-51.238410768
 21
30.9365904366
  0
LINE
  5
331
100
AcDbEntity
  8
0
100
AcDbLine
 62
7
  6
CONTINUOUS
 10
23.6582264262
 20
31.6816314366
 11
21.6385002621
 21
31.6816314366
  0
LINE
  5
332
100
AcDbEntity
  8
0
100
AcDbLine
 62
253
  6
CONTINUOUS
 10
70.2621367772
 20
29.9230818559
 11
70.7619542625
 21
29.9095732907
  0
LINE
  5
333
100
AcDbEntity
  8
0
100
AcDbLine
 62
7
  6
CONTINUOUS
 10
45.8557042621
 20
7.4663777148
 11
46.0369542621
 21
7.3429734742
  0
LINE
  5
334
100
AcDbEntity
  8
0
100
AcDbLine
 62
7
  6
CONTINUOUS
 10
21.6384812621
 20
33.7014774366
 11
23.6581862074
 21
33.7014774366
  0
LINE
  5
335
100
AcDbEntity
  8
0
100
AcDbLine
 62
7
  6
CONTINUOUS
 10
10.7978302621
 20
35.2370194366
 11
8.2882612621
 21
35.2370194366
  0
LINE
  5
336
100
AcDbEntity
  8
0
100
AcDbLine
 62
7
  6
CONTINUOUS
 10
5.1882532621
 20
35.2370194366
 11
2.6786862621
 21
35.2370194366
  0
LINE
  5
337
100
AcDbEntity
  8
0
100
AcDbLine
 62
7
  6
CONTINUOUS
 10
1.0186862621
 20
35.2370194366
 11
-0.6413767379
 21
35.2370194366
  0
LINE
  5
338
100
AcDbEntity
  8
0
100
AcDbLine
 62
7
  6
CONTINUOUS
 10
-1.7480777379
 20
35.2370194366
 11
-3.4081597379
 21
35.2370194366
  0
LINE
  5
339
100
AcDbEntity
  8
0
100
AcDbLine
 62
7
  6
CONTINUOUS
 10
-7.0780667379
 20
35.2370194366
 11
-8.7381507379
 21
35.2370194366
  0
LINE
  5
33A
100
AcDbEntity
  8
0
100
AcDbLine
 62
7
  6
CONTINUOUS
 10
23.8886471051
 20
35.2370404366
 11
20.0013052621
 21
35.2370404366
  0
LINE
  5
33B
100
AcDbEntity
  8
0
100
AcDbLine
 62
7
  6
CONTINUOUS
 10
16.2296192621
 20
35.2370404366
 11
14.5694742621
 21
35.2370404366
  0
LINE
  5
33C
100
AcDbEntity
  8
0
100
AcDbLine
 62
7
  6
CONTINUOUS
 10
46.4598713897
 20
7.4046755945
 11
46.2182042621
 21
7.6514840757
  0
LINE
  5
33D
100
AcDbEntity
  8
0
100
AcDbLine
 62
7
  6
CONTINUOUS
 10
39.1494542621
 20
5.4302074422
 11
39.3307042621
 21
5.1833989394
  0
LINE
  5
33E
100
AcDbEntity
  8
0
100
AcDbLine
 62
7
  6
CONTINUOUS
 10
41.0827878259
 20
6.2940372561
 11
40.9015378259
 21
6.5408457374
  0
LINE
  5
33F
100
AcDbEntity
  8
0
100
AcDbLine
 62
7
  6
CONTINUOUS
 10
41.8077878259
 20
5.4302074422
 11
41.9890378259
 21
5.1833989394
  0
LINE
  5
340
100
AcDbEntity
  8
0
100
AcDbLine
 62
7
  6
CONTINUOUS
 10
43.7411206983
 20
6.2940372561
 11
43.5598706983
 21
6.5408457374
  0
LINE
  5
341
100
AcDbEntity
  8
0
100
AcDbLine
 62
7
  6
CONTINUOUS
 10
40.7202878259
 20
6.2940372561
 11
40.8411206983
 21
6.1089308952
  0
LINE
  5
342
100
AcDbEntity
  8
0
100
AcDbLine
 62
7
  6
CONTINUOUS
 10
23.1104432621
 20
30.1460474366
 11
24.7740342621
 21
26.9366664366
  0
LINE
  5
343
100
AcDbEntity
  8
0
100
AcDbLine
 62
7
  6
CONTINUOUS
 10
26.6438372621
 20
26.9366874366
 11
24.876784847
 21
30.3456910252
  0
LINE
  5
344
100
AcDbEntity
  8
0
100
AcDbLine
 62
7
  6
CONTINUOUS
 10
39.0286206983
 20
5.6770159667
 11
39.1494542621
 21
5.4302074422
  0
LINE
  5
345
100
AcDbEntity
  8
0
100
AcDbLine
 62
7
  6
CONTINUOUS
 10
33.4702875667
 20
5.3068032016
 11
32.6244542621
 21
7.8365904366
  0
LINE
  5
346
100
AcDbEntity
  8
0
100
AcDbLine
 62
7
  6
CONTINUOUS
 10
32.2619542621
 20
7.8365904366
 11
33.2286209576
 21
4.9365904366
  0
LINE
  5
347
100
AcDbEntity
  8
0
100
AcDbLine
 62
253
  6
CONTINUOUS
 10
32.5619542621
 20
-4.4634095634
 11
32.5619542621
 21
-2.4634095634
  0
LINE
  5
348
100
AcDbEntity
  8
0
100
AcDbLine
 62
7
  6
CONTINUOUS
 10
33.0619542621
 20
-4.4634095634
 11
33.0619542621
 21
-2.4634095634
  0
LINE
  5
349
100
AcDbEntity
  8
0
100
AcDbLine
 62
253
  6
CONTINUOUS
 10
33.5619542621
 20
-1.4634095634
 11
33.5619542621
 21
-1.9634095634
  0
LINE
  5
34A
100
AcDbEntity
  8
0
100
AcDbLine
 62
253
  6
CONTINUOUS
 10
33.5619542621
 20
-5.4634095634
 11
33.5619542622
 21
-4.9634095634
  0
LINE
  5
34B
100
AcDbEntity
  8
0
100
AcDbLine
 62
7
  6
CONTINUOUS
 10
35.1619542621
 20
7.8365904366
 11
35.1619542621
 21
7.5280798351
  0
LINE
  5
34C
100
AcDbEntity
  8
0
100
AcDbLine
 62
7
  6
CONTINUOUS
 10
33.7119542621
 20
4.9365904366
 11
34.6786208712
 21
7.8365904366
  0
LINE
  5
34D
100
AcDbEntity
  8
0
100
AcDbLine
 62
7
  6
CONTINUOUS
 10
34.3161208712
 20
7.8365904366
 11
33.4702875667
 21
5.3068032016
  0
LINE
  5
34E
100
AcDbEntity
  8
0
100
AcDbLine
 62
7
  6
CONTINUOUS
 10
39.4515378259
 20
6.2323351358
 11
39.6932042621
 21
6.4174414967
  0
LINE
  5
34F
100
AcDbEntity
  8
0
100
AcDbLine
 62
7
  6
CONTINUOUS
 10
40.7202878259
 20
5.4302074422
 11
40.5390378259
 21
5.3068032016
  0
LINE
  5
350
100
AcDbEntity
  8
0
100
AcDbLine
 62
7
  6
CONTINUOUS
 10
44.8286213897
 20
7.3429734742
 11
45.0098713897
 21
7.4663777148
  0
LINE
  5
351
100
AcDbEntity
  8
0
100
AcDbLine
 62
7
  6
CONTINUOUS
 10
39.6327878259
 20
6.7259520983
 11
39.3307042621
 21
6.5408457374
  0
LINE
  5
352
100
AcDbEntity
  8
0
100
AcDbLine
 62
7
  6
CONTINUOUS
 10
42.2911206983
 20
6.7259520983
 11
41.9890378259
 21
6.5408457374
  0
LINE
  5
353
100
AcDbEntity
  8
0
100
AcDbLine
 62
7
  6
CONTINUOUS
 10
40.5994542621
 20
4.9982925623
 11
40.9015378259
 21
5.1833989394
  0
LINE
  5
354
100
AcDbEntity
  8
0
100
AcDbLine
 62
7
  6
CONTINUOUS
 10
43.2577878259
 20
4.9982925623
 11
43.5598706983
 21
5.1833989394
  0
LINE
  5
355
100
AcDbEntity
  8
0
100
AcDbLine
 62
7
  6
CONTINUOUS
 10
44.9494542621
 20
7.7748883163
 11
44.7077871345
 21
7.6514840757
  0
LINE
  5
356
100
AcDbEntity
  8
0
100
AcDbLine
 62
253
  6
CONTINUOUS
 10
48.5828495546
 20
38.4365904366
 11
-30.0589410303
 21
38.4365904366
  0
LINE
  5
357
100
AcDbEntity
  8
0
100
AcDbLine
 62
7
  6
CONTINUOUS
 10
48.5828495546
 20
38.9365904366
 11
-30.0589410303
 21
38.9365904366
  0
LINE
  5
358
100
AcDbEntity
  8
0
100
AcDbLine
 62
7
  6
CONTINUOUS
 10
43.3786206983
 20
6.2940372561
 11
43.4994542621
 21
6.1089308952
  0
LINE
  5
359
100
AcDbEntity
  8
0
100
AcDbLine
 62
7
  6
CONTINUOUS
 10
46.0369542621
 20
7.3429734742
 11
46.1577871345
 21
7.1578671132
  0
LINE
  5
35A
100
AcDbEntity
  8
0
100
AcDbLine
 62
7
  6
CONTINUOUS
 10
39.5119542621
 20
5.4302074422
 11
39.3911206983
 21
5.6770159667
  0
LINE
  5
35B
100
AcDbEntity
  8
0
100
AcDbLine
 62
7
  6
CONTINUOUS
 10
41.6869542621
 20
5.6770159667
 11
41.8077878259
 21
5.4302074422
  0
LINE
  5
35C
100
AcDbEntity
  8
0
100
AcDbLine
 62
7
  6
CONTINUOUS
 10
42.1702878259
 20
5.4302074422
 11
42.0494542621
 21
5.6770159667
  0
LINE
  5
35D
100
AcDbEntity
  8
0
100
AcDbLine
 62
7
  6
CONTINUOUS
 10
41.2036206983
 20
5.9855265682
 11
41.0827878259
 21
6.2940372561
  0
LINE
  5
35E
100
AcDbEntity
  8
0
100
AcDbLine
 62
7
  6
CONTINUOUS
 10
37.3369542621
 20
7.5280798351
 11
37.3369542621
 21
7.8365904366
  0
LINE
  5
35F
100
AcDbEntity
  8
0
100
AcDbLine
 62
7
  6
CONTINUOUS
 10
37.8202874802
 20
7.4046755945
 11
37.8202874802
 21
6.9110584592
  0
LINE
  5
360
100
AcDbEntity
  8
0
100
AcDbLine
 62
7
  6
CONTINUOUS
 10
38.1827878259
 20
7.3429734742
 11
38.1827878259
 21
4.9365904366
  0
LINE
  5
361
100
AcDbEntity
  8
0
100
AcDbLine
 62
7
  6
CONTINUOUS
 10
38.3944002621
 20
13.3885534193
 11
38.3944002621
 21
14.1393704185
  0
LINE
  5
362
100
AcDbEntity
  8
0
100
AcDbLine
 62
7
  6
CONTINUOUS
 10
38.3944002621
 20
17.7338104366
 11
38.3944002621
 21
18.4846274366
  0
LINE
  5
363
100
AcDbEntity
  8
0
100
AcDbLine
 62
7
  6
CONTINUOUS
 10
38.5452878259
 20
4.9365904366
 11
38.5452878259
 21
7.8365904366
  0
LINE
  5
364
100
AcDbEntity
  8
0
100
AcDbLine
 62
253
  6
CONTINUOUS
 10
38.9619542621
 20
-1.4634095634
 11
38.9619542621
 21
-1.9634095634
  0
LINE
  5
365
100
AcDbEntity
  8
0
100
AcDbLine
 62
253
  6
CONTINUOUS
 10
38.9619542621
 20
-5.4634095634
 11
38.9619542621
 21
-4.9634095634
  0
LINE
  5
366
100
AcDbEntity
  8
0
100
AcDbLine
 62
7
  6
CONTINUOUS
 10
39.0286206983
 20
7.8365904366
 11
39.0286206983
 21
6.2323351358
  0
LINE
  5
367
100
AcDbEntity
  8
0
100
AcDbLine
 62
7
  6
CONTINUOUS
 10
39.3307042621
 20
6.5408457374
 11
39.3307042621
 21
7.5280798351
  0
LINE
  5
368
100
AcDbEntity
  8
0
100
AcDbLine
 62
7
  6
CONTINUOUS
 10
39.4619542621
 20
-2.4634095634
 11
39.4619542621
 21
-4.4634095634
  0
LINE
  5
369
100
AcDbEntity
  8
0
100
AcDbLine
 62
253
  6
CONTINUOUS
 10
39.9619542621
 20
-2.4634095634
 11
39.9619542621
 21
-4.4634095634
  0
LINE
  5
36A
100
AcDbEntity
  8
0
100
AcDbLine
 62
7
  6
CONTINUOUS
 10
36.9744542621
 20
7.5280798351
 11
35.766121044
 21
4.9365904366
  0
LINE
  5
36B
100
AcDbEntity
  8
0
100
AcDbLine
 62
7
  6
CONTINUOUS
 10
36.128621044
 20
4.9365904366
 11
37.3369542621
 21
7.5280798351
  0
LINE
  5
36C
100
AcDbEntity
  8
0
100
AcDbLine
 62
7
  6
CONTINUOUS
 10
38.1827878259
 20
7.8365904366
 11
37.8202874802
 21
7.4046755945
  0
LINE
  5
36D
100
AcDbEntity
  8
0
100
AcDbLine
 62
7
  6
CONTINUOUS
 10
37.8202874802
 20
6.9110584592
 11
38.1827878259
 21
7.3429734742
  0
LINE
  5
36E
100
AcDbEntity
  8
0
100
AcDbLine
 62
7
  6
CONTINUOUS
 10
44.7077871345
 20
7.6514840757
 11
44.4661213897
 21
7.4046755945
  0
LINE
  5
36F
100
AcDbEntity
  8
0
100
AcDbLine
 62
7
  6
CONTINUOUS
 10
46.0369542621
 20
6.7876542186
 11
44.3452871345
 21
5.2451010813
  0
LINE
  5
370
100
AcDbEntity
  8
0
100
AcDbLine
 62
7
  6
CONTINUOUS
 10
42.1098706983
 20
6.2323351358
 11
42.3515378259
 21
6.4174414967
  0
LINE
  5
371
100
AcDbEntity
  8
0
100
AcDbLine
 62
7
  6
CONTINUOUS
 10
43.3786206983
 20
5.4302074422
 11
43.1973706983
 21
5.3068032016
  0
LINE
  5
372
100
AcDbEntity
  8
0
100
AcDbLine
 62
7
  6
CONTINUOUS
 10
43.8619542621
 20
5.9855265682
 11
43.7411206983
 21
6.2940372561
  0
LINE
  5
373
100
AcDbEntity
  8
0
100
AcDbLine
 62
7
  6
CONTINUOUS
 10
40.8411206983
 20
6.1089308952
 11
40.9015378259
 21
5.9238244479
  0
LINE
  5
374
100
AcDbEntity
  8
0
100
AcDbLine
 62
7
  6
CONTINUOUS
 10
43.4994542621
 20
6.1089308952
 11
43.5598706983
 21
5.9238244479
  0
LINE
  5
375
100
AcDbEntity
  8
0
100
AcDbLine
 62
7
  6
CONTINUOUS
 10
40.9015378259
 20
5.9238244479
 11
40.9015378259
 21
5.8004202073
  0
LINE
  5
376
100
AcDbEntity
  8
0
100
AcDbLine
 62
7
  6
CONTINUOUS
 10
41.0827878259
 20
7.5280798351
 11
41.0827878259
 21
7.8365904366
  0
LINE
  5
377
100
AcDbEntity
  8
0
100
AcDbLine
 62
7
  6
CONTINUOUS
 10
41.2036206983
 20
5.738718087
 11
41.2036206983
 21
5.9855265682
  0
LINE
  5
378
100
AcDbEntity
  8
0
100
AcDbLine
 62
7
  6
CONTINUOUS
 10
41.6869542621
 20
7.8365904366
 11
41.6869542621
 21
6.2323351358
  0
LINE
  5
379
100
AcDbEntity
  8
0
100
AcDbLine
 62
7
  6
CONTINUOUS
 10
41.9890378259
 20
6.5408457374
 11
41.9890378259
 21
7.5280798351
  0
LINE
  5
37A
100
AcDbEntity
  8
0
100
AcDbLine
 62
7
  6
CONTINUOUS
 10
42.3795102621
 20
15.5615904366
 11
42.3795102621
 21
16.3115904366
  0
LINE
  5
37B
100
AcDbEntity
  8
0
100
AcDbLine
 62
7
  6
CONTINUOUS
 10
42.7795102621
 20
13.3885533023
 11
42.7795102621
 21
14.1393739766
  0
LINE
  5
37C
100
AcDbEntity
  8
0
100
AcDbLine
 62
7
  6
CONTINUOUS
 10
42.7795102621
 20
17.7338104366
 11
42.7795102621
 21
18.4846271139
  0
LINE
  5
37D
100
AcDbEntity
  8
0
100
AcDbLine
 62
7
  6
CONTINUOUS
 10
43.5598706983
 20
5.9238244479
 11
43.5598706983
 21
5.8004202073
  0
LINE
  5
37E
100
AcDbEntity
  8
0
100
AcDbLine
 62
7
  6
CONTINUOUS
 10
43.7411206983
 20
7.5280798351
 11
43.7411206983
 21
7.8365904366
  0
LINE
  5
37F
100
AcDbEntity
  8
0
100
AcDbLine
 62
7
  6
CONTINUOUS
 10
43.8619542621
 20
5.738718087
 11
43.8619542621
 21
5.9855265682
  0
LINE
  5
380
100
AcDbEntity
  8
0
100
AcDbLine
 62
7
  6
CONTINUOUS
 10
44.3452871345
 20
5.2451010813
 11
44.3452871345
 21
4.9365904366
  0
LINE
  5
381
100
AcDbEntity
  8
0
100
AcDbLine
 62
7
  6
CONTINUOUS
 10
40.9015378259
 20
5.8004202073
 11
40.8411206983
 21
5.6153138464
  0
LINE
  5
382
100
AcDbEntity
  8
0
100
AcDbLine
 62
7
  6
CONTINUOUS
 10
43.5598706983
 20
5.8004202073
 11
43.4994542621
 21
5.6153138464
  0
LINE
  5
383
100
AcDbEntity
  8
0
100
AcDbLine
 62
7
  6
CONTINUOUS
 10
41.0827878259
 20
5.4302074422
 11
41.2036206983
 21
5.738718087
  0
LINE
  5
384
100
AcDbEntity
  8
0
100
AcDbLine
 62
7
  6
CONTINUOUS
 10
40.8411206983
 20
5.6153138464
 11
40.7202878259
 21
5.4302074422
  0
LINE
  5
385
100
AcDbEntity
  8
0
100
AcDbLine
 62
7
  6
CONTINUOUS
 10
43.4994542621
 20
5.6153138464
 11
43.3786206983
 21
5.4302074422
  0
LINE
  5
386
100
AcDbEntity
  8
0
100
AcDbLine
 62
7
  6
CONTINUOUS
 10
44.7077871345
 20
7.1578671132
 11
44.8286213897
 21
7.3429734742
  0
LINE
  5
387
100
AcDbEntity
  8
0
100
AcDbLine
 62
7
  6
CONTINUOUS
 10
40.9015378259
 20
5.1833989394
 11
41.0827878259
 21
5.4302074422
  0
LINE
  5
388
100
AcDbEntity
  8
0
100
AcDbLine
 62
7
  6
CONTINUOUS
 10
43.5598706983
 20
5.1833989394
 11
43.7411206983
 21
5.4302074422
  0
LINE
  5
389
100
AcDbEntity
  8
0
100
AcDbLine
 62
7
  6
CONTINUOUS
 10
44.8286213897
 20
5.2451010813
 11
46.3390371345
 21
6.6025478577
  0
LINE
  5
38A
100
AcDbEntity
  8
0
100
AcDbLine
 62
7
  6
CONTINUOUS
 10
46.5202871345
 20
7.1578671132
 11
46.4598713897
 21
7.4046755945
  0
LINE
  5
38B
100
AcDbEntity
  8
0
100
AcDbLine
 62
7
  6
CONTINUOUS
 10
46.1577871345
 20
7.1578671132
 11
46.1577871345
 21
7.0344626998
  0
LINE
  5
38C
100
AcDbEntity
  8
0
100
AcDbLine
 62
7
  6
CONTINUOUS
 10
46.5202871345
 20
4.9365904366
 11
46.5202871345
 21
5.2451010813
  0
LINE
  5
38D
100
AcDbEntity
  8
0
100
AcDbLine
 62
7
  6
CONTINUOUS
 10
46.5202871345
 20
7.0344626998
 11
46.5202871345
 21
7.1578671132
  0
LINE
  5
38E
100
AcDbEntity
  8
0
100
AcDbLine
 62
253
  6
CONTINUOUS
 10
48.5828495546
 20
38.4365904366
 11
48.5828495546
 21
38.9365904366
  0
LINE
  5
38F
100
AcDbEntity
  8
0
100
AcDbLine
 62
7
  6
CONTINUOUS
 10
44.4661213897
 20
7.4046755945
 11
44.4057042621
 21
7.1578671132
  0
LINE
  5
390
100
AcDbEntity
  8
0
100
AcDbLine
 62
7
  6
CONTINUOUS
 10
46.4598713897
 20
6.7876542186
 11
46.5202871345
 21
7.0344626998
  0
LINE
  5
391
100
AcDbEntity
  8
0
100
AcDbLine
 62
7
  6
CONTINUOUS
 10
43.7411206983
 20
5.4302074422
 11
43.8619542621
 21
5.738718087
  0
LINE
  5
392
100
AcDbEntity
  8
0
100
AcDbLine
 62
7
  6
CONTINUOUS
 10
46.1577871345
 20
7.0344626998
 11
46.0369542621
 21
6.7876542186
  0
LINE
  5
393
100
AcDbEntity
  8
0
100
AcDbLine
 62
7
  6
CONTINUOUS
 10
46.3390371345
 20
6.6025478577
 11
46.4598713897
 21
6.7876542186
  0
LINE
  5
394
100
AcDbEntity
  8
0
100
AcDbLine
 62
253
  6
CONTINUOUS
 10
51.0619542621
 20
-4.4634095634
 11
51.0619542621
 21
-2.4634095634
  0
LINE
  5
395
100
AcDbEntity
  8
0
100
AcDbLine
 62
7
  6
CONTINUOUS
 10
51.5619542621
 20
-4.4634095634
 11
51.5619542621
 21
-2.4634095634
  0
LINE
  5
396
100
AcDbEntity
  8
0
100
AcDbLine
 62
253
  6
CONTINUOUS
 10
52.0619542621
 20
-1.4634095634
 11
52.0619542621
 21
-1.9634095634
  0
LINE
  5
397
100
AcDbEntity
  8
0
100
AcDbLine
 62
253
  6
CONTINUOUS
 10
52.0619542621
 20
-5.4634095634
 11
52.0619542622
 21
-4.9634095634
  0
LINE
  5
398
100
AcDbEntity
  8
0
100
AcDbLine
 62
253
  6
CONTINUOUS
 10
56.6945695784
 20
30.4365904366
 11
56.6945695784
 21
30.9365904366
  0
LINE
  5
399
100
AcDbEntity
  8
0
100
AcDbLine
 62
253
  6
CONTINUOUS
 10
57.4619542621
 20
-1.4634095634
 11
57.4619542621
 21
-1.9634095634
  0
LINE
  5
39A
100
AcDbEntity
  8
0
100
AcDbLine
 62
253
  6
CONTINUOUS
 10
57.4619542621
 20
-5.4634095634
 11
57.4619542621
 21
-4.9634095634
  0
LINE
  5
39B
100
AcDbEntity
  8
0
100
AcDbLine
 62
7
  6
CONTINUOUS
 10
57.9619542621
 20
-2.4634095634
 11
57.9619542621
 21
-4.4634095634
  0
LINE
  5
39C
100
AcDbEntity
  8
0
100
AcDbLine
 62
253
  6
CONTINUOUS
 10
54.7794584706
 20
31.3296214124
 11
48.9658717761
 21
38.2579842414
  0
LINE
  5
39D
100
AcDbEntity
  8
0
100
AcDbLine
 62
7
  6
CONTINUOUS
 10
55.1624806922
 20
31.6510152172
 11
49.3488939977
 21
38.5793780463
  0
LINE
  5
39E
100
AcDbEntity
  8
0
100
AcDbLine
 62
253
  6
CONTINUOUS
 10
58.4619542621
 20
-2.4634095634
 11
58.4619542621
 21
-4.4634095634
  0
LINE
  5
39F
100
AcDbEntity
  8
0
100
AcDbLine
 62
253
  6
CONTINUOUS
 10
68.7623192923
 20
-7.5634095634
 11
68.7623193015
 21
-8.0634095634
  0
LINE
  5
3A0
100
AcDbEntity
  8
0
100
AcDbLine
 62
253
  6
CONTINUOUS
 10
69.7623192923
 20
30.4365904366
 11
69.7623192923
 21
30.9365904366
  0
LINE
  5
3A1
100
AcDbEntity
  8
0
100
AcDbLine
 62
253
  6
CONTINUOUS
 10
69.2621367772
 20
-7.0769181441
 11
70.2621367772
 21
29.9230818559
  0
LINE
  5
3A2
100
AcDbEntity
  8
0
100
AcDbLine
 62
7
  6
CONTINUOUS
 10
69.7619542621
 20
-7.0904267248
 11
70.7619542621
 21
29.9095732752
  0
ARC
  5
3A3
100
AcDbEntity
  8
0
100
AcDbCircle
 62
7
  6
CONTINUOUS
 10
-20.8174027379
 20
10.9904974366
 40
2.3390187052
100
AcDbArc
 50
47.2312712626
 51
84.2013274301
  0
ARC
  5
3A4
100
AcDbEntity
  8
0
100
AcDbCircle
 62
7
  6
CONTINUOUS
 10
-20.6333237379
 20
11.3693664366
 40
2.3109495123
100
AcDbArc
 50
45.4348886633
 51
67.5658628982
  0
ARC
  5
3A5
100
AcDbEntity
  8
0
100
AcDbCircle
 62
7
  6
CONTINUOUS
 10
-50.238410768
 20
-7.0634095634
 40
1.0
100
AcDbArc
 50
181.548157699
 51
270.0
  0
ARC
  5
3A6
100
AcDbEntity
  8
0
100
AcDbCircle
 62
253
  6
CONTINUOUS
 10
-38.9380457379
 20
-2.4634095634
 40
1.0
100
AcDbArc
 50
90.0
 51
180.0
  0
ARC
  5
3A7
100
AcDbEntity
  8
0
100
AcDbCircle
 62
253
  6
CONTINUOUS
 10
-38.9380457379
 20
-4.4634095634
 40
1.0
100
AcDbArc
 50
180.0
 51
270.0
  0
ARC
  5
3A8
100
AcDbEntity
  8
0
100
AcDbCircle
 62
253
  6
CONTINUOUS
 10
-33.5380457379
 20
-4.4634095634
 40
1.0
100
AcDbArc
 50
270.0
 51
360.0
  0
ARC
  5
3A9
100
AcDbEntity
  8
0
100
AcDbCircle
 62
253
  6
CONTINUOUS
 10
-33.5380457379
 20
-2.4634095634
 40
1.0
100
AcDbArc
 50
0.0
 51
90.0
  0
ARC
  5
3AA
100
AcDbEntity
  8
0
100
AcDbCircle
 62
253
  6
CONTINUOUS
 10
-15.0380457379
 20
-2.4634095634
 40
1.0
100
AcDbArc
 50
0.0
 51
90.0
  0
ARC
  5
3AB
100
AcDbEntity
  8
0
100
AcDbCircle
 62
253
  6
CONTINUOUS
 10
-20.4380457379
 20
-2.4634095634
 40
1.0
100
AcDbArc
 50
90.0
 51
180.0
  0
ARC
  5
3AC
100
AcDbEntity
  8
0
100
AcDbCircle
 62
253
  6
CONTINUOUS
 10
-20.4380457379
 20
-4.4634095634
 40
1.0
100
AcDbArc
 50
180.0
 51
270.0
  0
ARC
  5
3AD
100
AcDbEntity
  8
0
100
AcDbCircle
 62
253
  6
CONTINUOUS
 10
-15.0380457379
 20
-4.4634095634
 40
1.0
100
AcDbArc
 50
270.0
 51
360.0
  0
ARC
  5
3AE
100
AcDbEntity
  8
0
100
AcDbCircle
 62
7
  6
CONTINUOUS
 10
-33.5380457379
 20
-4.4634095634
 40
0.5
100
AcDbArc
 50
270.0
 51
360.0
  0
ARC
  5
3AF
100
AcDbEntity
  8
0
100
AcDbCircle
 62
7
  6
CONTINUOUS
 10
-38.9380457379
 20
-4.4634095634
 40
0.5
100
AcDbArc
 50
180.0
 51
270.0
  0
ARC
  5
3B0
100
AcDbEntity
  8
0
100
AcDbCircle
 62
7
  6
CONTINUOUS
 10
-38.9380457379
 20
-2.4634095634
 40
0.5
100
AcDbArc
 50
90.0
 51
180.0
  0
ARC
  5
3B1
100
AcDbEntity
  8
0
100
AcDbCircle
 62
7
  6
CONTINUOUS
 10
-33.5380457379
 20
-2.4634095634
 40
0.5
100
AcDbArc
 50
0.0
 51
90.0
  0
ARC
  5
3B2
100
AcDbEntity
  8
0
100
AcDbCircle
 62
7
  6
CONTINUOUS
 10
-15.0380457379
 20
-4.4634095634
 40
0.5
100
AcDbArc
 50
270.0
 51
360.0
  0
ARC
  5
3B3
100
AcDbEntity
  8
0
100
AcDbCircle
 62
7
  6
CONTINUOUS
 10
-15.0380457379
 20
-2.4634095634
 40
0.5
100
AcDbArc
 50
0.0
 51
90.0
  0
ARC
  5
3B4
100
AcDbEntity
  8
0
100
AcDbCircle
 62
7
  6
CONTINUOUS
 10
-20.4380457379
 20
-2.4634095634
 40
0.5
100
AcDbArc
 50
90.0
 51
180.0
  0
ARC
  5
3B5
100
AcDbEntity
  8
0
100
AcDbCircle
 62
7
  6
CONTINUOUS
 10
-20.4380457379
 20
-4.4634095634
 40
0.5
100
AcDbArc
 50
180.0
 51
270.0
  0
ARC
  5
3B6
100
AcDbEntity
  8
0
100
AcDbCircle
 62
253
  6
CONTINUOUS
 10
-50.238410768
 20
-7.0634095634
 40
0.5
100
AcDbArc
 50
181.548157699
 51
270.0
  0
ARC
  5
3B7
100
AcDbEntity
  8
0
100
AcDbCircle
 62
7
  6
CONTINUOUS
 10
-20.7380457379
 20
15.9365904366
 40
2.6237424326
100
AcDbArc
 50
292.0885382275
 51
273.4296897698
  0
ARC
  5
3B8
100
AcDbEntity
  8
0
100
AcDbCircle
 62
253
  6
CONTINUOUS
 10
-38.1706610542
 20
32.9365904366
 40
2.5
100
AcDbArc
 50
270.0
 51
320.0
  0
CIRCLE
  5
3B9
100
AcDbEntity
  8
0
100
AcDbCircle
 62
7
  6
CONTINUOUS
 10
-20.7380457379
 20
15.9365904366
 40
2.20376
  0
ARC
  5
3BA
100
AcDbEntity
  8
0
100
AcDbCircle
 62
7
  6
CONTINUOUS
 10
-38.1706610542
 20
32.9365904366
 40
2.0
100
AcDbArc
 50
270.0
 51
320.0
  0
ARC
  5
3BB
100
AcDbEntity
  8
0
100
AcDbCircle
 62
7
  6
CONTINUOUS
 10
-20.7380457379
 20
15.9365904366
 40
1.9709567246
100
AcDbArc
 50
299.3041457634
 51
44.9957848459
  0
ARC
  5
3BC
100
AcDbEntity
  8
0
100
AcDbCircle
 62
7
  6
CONTINUOUS
 10
-20.7380457379
 20
15.9365904366
 40
1.9709563643
100
AcDbArc
 50
134.9002846268
 51
240.6958542366
  0
ARC
  5
3BD
100
AcDbEntity
  8
0
100
AcDbCircle
 62
7
  6
CONTINUOUS
 10
-20.7380457379
 20
15.9365904366
 40
1.5790921275
100
AcDbArc
 50
148.0267086216
 51
240.6958772397
  0
ARC
  5
3BE
100
AcDbEntity
  8
0
100
AcDbCircle
 62
7
  6
CONTINUOUS
 10
-20.7380457379
 20
15.9365904366
 40
1.5790919977
100
AcDbArc
 50
299.3041227603
 51
31.9732906878
  0
ARC
  5
3BF
100
AcDbEntity
  8
0
100
AcDbCircle
 62
7
  6
CONTINUOUS
 10
-30.0589410303
 20
37.9365904366
 40
1.0
100
AcDbArc
 50
90.0
 51
140.0
  0
ARC
  5
3C0
100
AcDbEntity
  8
0
100
AcDbCircle
 62
7
  6
CONTINUOUS
 10
-51.238410768
 20
29.9365904366
 40
1.0
100
AcDbArc
 50
90.0
 51
181.548157699
  0
ARC
  5
3C1
100
AcDbEntity
  8
0
100
AcDbCircle
 62
253
  6
CONTINUOUS
 10
-51.238410768
 20
29.9365904366
 40
0.5
100
AcDbArc
 50
90.0
 51
181.548157699
  0
ARC
  5
3C2
100
AcDbEntity
  8
0
100
AcDbCircle
 62
253
  6
CONTINUOUS
 10
-30.0589410303
 20
37.9365904366
 40
0.5
100
AcDbArc
 50
90.0
 51
140.0
  0
ARC
  5
3C3
100
AcDbEntity
  8
0
100
AcDbCircle
 62
7
  6
CONTINUOUS
 10
68.7623192923
 20
-7.0634095634
 40
1.0
100
AcDbArc
 50
270.0
 51
358.451842301
  0
ARC
  5
3C4
100
AcDbEntity
  8
0
100
AcDbCircle
 62
253
  6
CONTINUOUS
 10
38.9619542621
 20
-4.4634095634
 40
1.0
100
AcDbArc
 50
270.0
 51
360.0
  0
ARC
  5
3C5
100
AcDbEntity
  8
0
100
AcDbCircle
 62
253
  6
CONTINUOUS
 10
38.9619542621
 20
-2.4634095634
 40
1.0
100
AcDbArc
 50
0.0
 51
90.0
  0
ARC
  5
3C6
100
AcDbEntity
  8
0
100
AcDbCircle
 62
253
  6
CONTINUOUS
 10
33.5619542621
 20
-2.4634095634
 40
1.0
100
AcDbArc
 50
90.0
 51
180.0
  0
ARC
  5
3C7
100
AcDbEntity
  8
0
100
AcDbCircle
 62
253
  6
CONTINUOUS
 10
33.5619542621
 20
-4.4634095634
 40
1.0
100
AcDbArc
 50
180.0
 51
270.0
  0
ARC
  5
3C8
100
AcDbEntity
  8
0
100
AcDbCircle
 62
253
  6
CONTINUOUS
 10
57.4619542621
 20
-2.4634095634
 40
1.0
100
AcDbArc
 50
0.0
 51
90.0
  0
ARC
  5
3C9
100
AcDbEntity
  8
0
100
AcDbCircle
 62
253
  6
CONTINUOUS
 10
52.0619542621
 20
-2.4634095634
 40
1.0
100
AcDbArc
 50
90.0
 51
180.0
  0
ARC
  5
3CA
100
AcDbEntity
  8
0
100
AcDbCircle
 62
253
  6
CONTINUOUS
 10
52.0619542621
 20
-4.4634095634
 40
1.0
100
AcDbArc
 50
180.0
 51
270.0
  0
ARC
  5
3CB
100
AcDbEntity
  8
0
100
AcDbCircle
 62
253
  6
CONTINUOUS
 10
57.4619542621
 20
-4.4634095634
 40
1.0
100
AcDbArc
 50
270.0
 51
360.0
  0
ARC
  5
3CC
100
AcDbEntity
  8
0
100
AcDbCircle
 62
7
  6
CONTINUOUS
 10
33.5619542621
 20
-4.4634095634
 40
0.5
100
AcDbArc
 50
180.0
 51
270.0
  0
ARC
  5
3CD
100
AcDbEntity
  8
0
100
AcDbCircle
 62
7
  6
CONTINUOUS
 10
38.9619542621
 20
-4.4634095634
 40
0.5
100
AcDbArc
 50
270.0
 51
360.0
  0
ARC
  5
3CE
100
AcDbEntity
  8
0
100
AcDbCircle
 62
7
  6
CONTINUOUS
 10
38.9619542621
 20
-2.4634095634
 40
0.5
100
AcDbArc
 50
0.0
 51
90.0
  0
ARC
  5
3CF
100
AcDbEntity
  8
0
100
AcDbCircle
 62
7
  6
CONTINUOUS
 10
33.5619542621
 20
-2.4634095634
 40
0.5
100
AcDbArc
 50
90.0
 51
180.0
  0
ARC
  5
3D0
100
AcDbEntity
  8
0
100
AcDbCircle
 62
7
  6
CONTINUOUS
 10
57.4619542621
 20
-4.4634095634
 40
0.5
100
AcDbArc
 50
270.0
 51
360.0
  0
ARC
  5
3D1
100
AcDbEntity
  8
0
100
AcDbCircle
 62
7
  6
CONTINUOUS
 10
57.4619542621
 20
-2.4634095634
 40
0.5
100
AcDbArc
 50
0.0
 51
90.0
  0
ARC
  5
3D2
100
AcDbEntity
  8
0
100
AcDbCircle
 62
7
  6
CONTINUOUS
 10
52.0619542621
 20
-2.4634095634
 40
0.5
100
AcDbArc
 50
90.0
 51
180.0
  0
ARC
  5
3D3
100
AcDbEntity
  8
0
100
AcDbCircle
 62
7
  6
CONTINUOUS
 10
52.0619542621
 20
-4.4634095634
 40
0.5
100
AcDbArc
 50
180.0
 51
270.0
  0
ARC
  5
3D4
100
AcDbEntity
  8
0
100
AcDbCircle
 62
253
  6
CONTINUOUS
 10
68.7623192923
 20
-7.0634095634
 40
0.5
100
AcDbArc
 50
270.0
 51
358.451842301
  0
ARC
  5
3D5
100
AcDbEntity
  8
0
100
AcDbCircle
 62
7
  6
CONTINUOUS
 10
42.6795102621
 20
15.9365904366
 40
2.5499986575
100
AcDbArc
 50
87.75252881
 51
272.2474707873
  0
ARC
  5
3D6
100
AcDbEntity
  8
0
100
AcDbCircle
 62
7
  6
CONTINUOUS
 10
38.2944002621
 20
15.9365904366
 40
2.5499985399
100
AcDbArc
 50
87.7525290943
 51
272.2474708905
  0
ARC
  5
3D7
100
AcDbEntity
  8
0
100
AcDbCircle
 62
7
  6
CONTINUOUS
 10
23.8886092621
 20
32.6915504366
 40
2.5454959653
100
AcDbArc
 50
292.8428919725
 51
89.9991482015
  0
ARC
  5
3D8
100
AcDbEntity
  8
0
100
AcDbCircle
 62
253
  6
CONTINUOUS
 10
56.6945695784
 20
32.9365904366
 40
2.5
100
AcDbArc
 50
220.0
 51
270.0
  0
ARC
  5
3D9
100
AcDbEntity
  8
0
100
AcDbCircle
 62
7
  6
CONTINUOUS
 10
56.6945695784
 20
32.9365904366
 40
2.0
100
AcDbArc
 50
220.0
 51
270.0
  0
ARC
  5
3DA
100
AcDbEntity
  8
0
100
AcDbCircle
 62
7
  6
CONTINUOUS
 10
38.2944002621
 20
15.9365904366
 40
1.7999999246
100
AcDbArc
 50
86.8152613297
 51
273.1847386383
  0
ARC
  5
3DB
100
AcDbEntity
  8
0
100
AcDbCircle
 62
7
  6
CONTINUOUS
 10
42.6795102621
 20
15.9365904366
 40
1.7999999246
100
AcDbArc
 50
86.8152613297
 51
167.9752996292
  0
ARC
  5
3DC
100
AcDbEntity
  8
0
100
AcDbCircle
 62
7
  6
CONTINUOUS
 10
42.6795102621
 20
15.9365904366
 40
1.7999968808
100
AcDbArc
 50
192.0247203293
 51
273.1847449305
  0
ARC
  5
3DD
100
AcDbEntity
  8
0
100
AcDbCircle
 62
7
  6
CONTINUOUS
 10
23.6581962621
 20
32.6915504366
 40
1.009925
100
AcDbArc
 50
270.0017112976
 51
90.000570428
  0
ARC
  5
3DE
100
AcDbEntity
  8
0
100
AcDbCircle
 62
7
  6
CONTINUOUS
 10
69.7623192923
 20
29.9365904366
 40
1.0
100
AcDbArc
 50
358.451842301
 51
90.0
  0
ARC
  5
3DF
100
AcDbEntity
  8
0
100
AcDbCircle
 62
7
  6
CONTINUOUS
 10
48.5828495546
 20
37.9365904366
 40
1.0
100
AcDbArc
 50
40.0
 51
90.0
  0
ARC
  5
3E0
100
AcDbEntity
  8
0
100
AcDbCircle
 62
253
  6
CONTINUOUS
 10
48.5828495546
 20
37.9365904366
 40
0.5
100
AcDbArc
 50
40.0
 51
90.0
  0
ARC
  5
3E1
100
AcDbEntity
  8
0
100
AcDbCircle
 62
253
  6
CONTINUOUS
 10
69.7623192923
 20
29.9365904366
 40
0.5
100
AcDbArc
 50
358.451842301
 51
90.0
  0
SPLINE
  5
3E2
100
AcDbEntity
  8
0
100
AcDbSpline
 62
7
  6
CONTINUOUS
 70
0
 71
3
 72
15
 73
11
 74
9
 42
0.0000001
 43
0.0000001
 44
0.0000000001
 12
0.0365913311
 22
2.1221281011
 32
0.0
 13
-2.1224211779
 23
0.0097440516
 33
0.0
 40
0.0
 40
0.0
 40
0.0
 40
0.0
 40
0.1149293105
 40
0.2060811432
 40
0.3341924356
 40
0.4552601699
 40
0.5704742312
 40
0.6837748557
 40
0.8381885424
 40
1.0
 40
1.0
 40
1.0
 40
1.0
 10
-26.2532925201
 20
6.3865904366
 30
0.0
 10
-26.2518907147
 20
6.4678886764
 30
0.0
 10
-26.2556820584
 20
6.6139478187
 30
0.0
 10
-26.2892365765
 20
6.8486541924
 30
0.0
 10
-26.3609639799
 20
7.0793110675
 30
0.0
 10
-26.4696125176
 20
7.3152839483
 30
0.0
 10
-26.6293289119
 20
7.5067472169
 30
0.0
 10
-26.8361235353
 20
7.6846481149
 30
0.0
 10
-27.1203125873
 20
7.8070749659
 30
0.0
 10
-27.3449224852
 20
7.8360648702
 30
0.0
 10
-27.45939984
 20
7.8365904366
 30
0.0
 11
-26.2532925201
 21
6.3865904366
 31
0.0
 11
-26.2613757581
 21
6.6303874443
 31
0.0
 11
-26.2897073392
 21
6.8217663363
 31
0.0
 11
-26.3682055195
 21
7.0820979174
 31
0.0
 11
-26.4812034977
 21
7.312878346
 31
0.0
 11
-26.6350336635
 21
7.5029673068
 31
0.0
 11
-26.8197518196
 21
7.6569381924
 31
0.0
 11
-27.1190862312
 21
7.7903874443
 31
0.0
 11
-27.45939984
 21
7.8365904366
 31
0.0
  0
SPLINE
  5
3E3
100
AcDbEntity
  8
0
100
AcDbSpline
 62
7
  6
CONTINUOUS
 70
0
 71
3
 72
15
 73
11
 74
9
 42
0.0000001
 43
0.0000001
 44
0.0000000001
 12
2.1346429542
 22
-0.0098038964
 32
0.0
 13
-0.0368020393
 23
2.1343482069
 33
0.0
 40
0.0
 40
0.0
 40
0.0
 40
0.0
 40
0.1666104649
 40
0.3201400637
 40
0.432791991
 40
0.5473463999
 40
0.6677209668
 40
0.7950987643
 40
0.8857287116
 40
1.0
 40
1.0
 40
1.0
 40
1.0
 10
-27.4717299837
 20
4.9365904366
 30
0.0
 10
-27.3531786987
 20
4.9360459593
 30
0.0
 10
-27.1240919754
 20
4.9644794884
 30
0.0
 10
-26.8361291287
 20
5.0885300346
 30
0.0
 10
-26.6293275899
 20
5.2664343
 30
0.0
 10
-26.4696128942
 20
5.4578967415
 30
0.0
 10
-26.360963869
 20
5.6938698597
 30
0.0
 10
-26.2892365972
 20
5.9245266706
 30
0.0
 10
-26.2556820519
 20
6.1592330577
 30
0.0
 10
-26.2518907147
 20
6.3052921968
 30
0.0
 10
-26.2532925201
 20
6.3865904366
 30
0.0
 11
-27.4717299837
 21
4.9365904366
 31
0.0
 11
-27.1190862312
 21
4.9827934289
 31
0.0
 11
-26.8197518196
 21
5.1162426808
 31
0.0
 11
-26.6350336635
 21
5.2702135664
 31
0.0
 11
-26.4812034977
 21
5.4603025272
 31
0.0
 11
-26.3682055195
 21
5.6910829558
 31
0.0
 11
-26.2897073392
 21
5.9514145369
 31
0.0
 11
-26.2613757581
 21
6.1427934289
 31
0.0
 11
-26.2532925201
 21
6.3865904366
 31
0.0
  0
SPLINE
  5
3E4
100
AcDbEntity
  8
0
100
AcDbSpline
 62
7
  6
CONTINUOUS
 70
0
 71
3
 72
14
 73
10
 74
8
 42
0.0000001
 43
0.0000001
 44
0.0000000001
 12
1.5560699852
 22
-0.0383374356
 32
0.0
 13
-0.0419851072
 23
-1.5559756837
 33
0.0
 40
0.0
 40
0.0
 40
0.0
 40
0.0
 40
0.134413714
 40
0.2464867212
 40
0.3932270452
 40
0.5898660683
 40
0.7257733257
 40
0.8770579266
 40
1.0
 40
1.0
 40
1.0
 40
1.0
 10
-27.481698197
 20
7.501442793
 30
0.0
 10
-27.4119791484
 20
7.4997251006
 30
0.0
 10
-27.2838535564
 20
7.48100613
 30
0.0
 10
-27.0928903024
 20
7.4050574276
 30
0.0
 10
-26.9010064049
 20
7.2607836185
 30
0.0
 10
-26.7631859178
 20
7.0457285976
 30
0.0
 10
-26.6936866145
 20
6.8035152146
 30
0.0
 10
-26.6595971893
 20
6.5929546853
 30
0.0
 10
-26.654690451
 20
6.4503553955
 30
0.0
 10
-26.6564110297
 20
6.3865904366
 30
0.0
 11
-27.481698197
 21
7.501442793
 31
0.0
 11
-27.274745754
 21
7.4707190253
 31
0.0
 11
-27.1128476546
 21
7.4057533966
 31
0.0
 11
-26.9304161948
 21
7.2683170844
 31
0.0
 11
-26.7624554184
 21
7.0124416295
 31
0.0
 11
-26.6997882126
 21
6.8103914879
 31
0.0
 11
-26.662685099
 21
6.5778520621
 31
0.0
 11
-26.6564110297
 21
6.3865904366
 31
0.0
  0
SPLINE
  5
3E5
100
AcDbEntity
  8
0
100
AcDbSpline
 62
7
  6
CONTINUOUS
 70
0
 71
3
 72
14
 73
10
 74
8
 42
0.0000001
 43
0.0000001
 44
0.0000000001
 12
0.0419851072
 22
-1.5559756838
 32
0.0
 13
-1.5560699853
 23
-0.0383374355
 33
0.0
 40
0.0
 40
0.0
 40
0.0
 40
0.0
 40
0.1229420734
 40
0.2742266742
 40
0.4101339316
 40
0.6067729548
 40
0.7535132787
 40
0.865586286
 40
1.0
 40
1.0
 40
1.0
 40
1.0
 10
-26.6564110297
 20
6.3865904366
 30
0.0
 10
-26.654690451
 20
6.3228254777
 30
0.0
 10
-26.6595971893
 20
6.1802261879
 30
0.0
 10
-26.6936866145
 20
5.9696656586
 30
0.0
 10
-26.7631859178
 20
5.7274522756
 30
0.0
 10
-26.9010064049
 20
5.5123972547
 30
0.0
 10
-27.0928903024
 20
5.3681234456
 30
0.0
 10
-27.2838535564
 20
5.2921747432
 30
0.0
 10
-27.4119791484
 20
5.2734557725
 30
0.0
 10
-27.4816981971
 20
5.2717380802
 30
0.0
 11
-26.6564110297
 21
6.3865904366
 31
0.0
 11
-26.662685099
 21
6.195328811
 31
0.0
 11
-26.6997882126
 21
5.9627893852
 31
0.0
 11
-26.7624554184
 21
5.7607392437
 31
0.0
 11
-26.9304161948
 21
5.5048637888
 31
0.0
 11
-27.1128476546
 21
5.3674274766
 31
0.0
 11
-27.274745754
 21
5.3024618478
 31
0.0
 11
-27.4816981971
 21
5.2717380802
 31
0.0
  0
LINE
  5
3E6
100
AcDbEntity
  8
0
100
AcDbLine
 62
7
  6
CONTINUOUS
 10
1.2619542621
 20
-6.0634095634
 11
1.0548474809
 21
-5.5634095634
  0
LINE
  5
3E7
100
AcDbEntity
  8
0
100
AcDbLine
 62
7
  6
CONTINUOUS
 10
17.2619542621
 20
-6.0634095634
 11
17.4690610433
 21
-5.5634095634
  0
LINE
  5
3E8
100
AcDbEntity
  8
0
100
AcDbLine
 62
7
  6
CONTINUOUS
 10
19.2619542621
 20
-8.0634095634
 11
19.4690610433
 21
-7.5634095634
  0
LINE
  5
3E9
100
AcDbEntity
  8
0
100
AcDbLine
 62
7
  6
CONTINUOUS
 10
-0.7380457379
 20
-8.0634095634
 11
-0.9451525191
 21
-7.5634095634
  0
ENDSEC
  0
SECTION
  2
OBJECTS
  0
DICTIONARY
  5
C
100
AcDbDictionary
280
0
281
1
  3
ACAD_GROUP
350
D
  3
ACAD_MLINESTYLE
350
17
  3
ACAD_LAYOUT
350
1A
  3
ACAD_PLOTSETTINGS
350
19
  3
ACAD_PLOTSTYLENAME
350
E
  0
DICTIONARY
  5
D
102
{ACAD_REACTORS
330
C
102
}
100
AcDbDictionary
280
0
281
1
  0
ACDBDICTIONARYWDFLT
  5
E
102
{ACAD_REACTORS
330
C
102
}
100
AcDbDictionary
281
1
  3
Normal
350
F
100
AcDbDictionaryWithDefault
340
F
  0
DICTIONARY
  5
17
102
{ACAD_REACTORS
330
C
102
}
100
AcDbDictionary
280
0
281
1
  3
Standard
350
18
  0
DICTIONARY
  5
19
102
{ACAD_REACTORS
330
C
102
}
100
AcDbDictionary
281
1
  0
DICTIONARY
  5
1A
102
{ACAD_REACTORS
330
C
102
}
100
AcDbDictionary
281
1
  3
Model
350
3EA
  3
Layout1
350
3EB
  0
ACDBPLACEHOLDER
  5
F
102
{ACAD_REACTORS
330
E
102
}
  0
MLINESTYLE
  5
18
102
{ACAD_REACTORS
330
17
102
}
100
AcDbMlineStyle
  2
STANDARD
 70
0
  3

 62
256
 51
90.0
 52
90.0
 71
2
 49
0.5
 62
256
  6
BYLAYER
 49
-0.5
 62
256
  6
BYLAYER
  0
LAYOUT
  5
3EA
102
{ACAD_REACTORS
330
1A
102
}
100
AcDbPlotSettings
  1

  2
none_device
  4
ISO_A4_(297.00_x_210.00_MM)
  6

 40
0.0
 41
0.0
 42
0.0
 43
0.0
 44
297.0
 45
210.0
 46
0.0
 47
0.0
 48
0.0
 49
0.0
140
0.0
141
0.0
142
1.0
143
1.0
 70
1024
 72
1
 73
0
 74
0
  7

 75
0
147
1.0
148
0.0
149
0.0
100
AcDbLayout
  1
Model
 70
0
 71
0
 10
0.0
 20
0.0
 11
297.0
 21
210.0
 12
0.0
 22
0.0
 32
0.0
 14
0.0
 24
0.0
 34
0.0
 15
0.0
 25
0.0
 35
0.0
146
0.0
 13
0.0
 23
0.0
 33
0.0
 16
1.0
 26
0.0
 36
0.0
 17
0.0
 27
1.0
 37
0.0
 76
0
330
20F
345
0
346
0
  0
LAYOUT
  5
3EB
102
{ACAD_REACTORS
330
1A
102
}
100
AcDbPlotSettings
  1

  2
none_device
  4
ISO_A4_(297.00_x_210.00_MM)
  6

 40
0.0
 41
0.0
 42
0.0
 43
0.0
 44
297.0
 45
210.0
 46
0.0
 47
0.0
 48
0.0
 49
0.0
140
0.0
141
0.0
142
1.0
143
1.0
 70
0
 72
1
 73
0
 74
0
  7

 75
0
147
1.0
148
0.0
149
0.0
100
AcDbLayout
  1
Layout1
 70
0
 71
1
 10
0.0
 20
0.0
 11
297.0
 21
210.0
 12
0.0
 22
0.0
 32
0.0
 14
0.0
 24
0.0
 34
0.0
 15
0.0
 25
0.0
 35
0.0
146
0.0
 13
0.0
 23
0.0
 33
0.0
 16
1.0
 26
0.0
 36
0.0
 17
0.0
 27
1.0
 37
0.0
 76
0
330
210
345
0
346
0
  0
ENDSEC
  0
EOF
