  0
SECTION
  2
HEADER
  9
$ACADVER
  1
AC1024
  9
$DWGCODEPAGE
  3
ANSI_1252
  9
$EXTMAX
 10
297.0
 20
210.0
 30
0.0
  9
$EXTMIN
 10
0.0
 20
0.0
 30
0.0
  9
$LIMMIN
 10
0.0
 20
0.0
  9
$LIMMAX
 10
297.0
 20
210.0
  9
$VIEWCTR
 10
148.5
 20
105.0
  9
$VIEWSIZE
 40
210.0
  9
$CLAYER
  8
0
  9
$LTSCALE
 40
16.335
  9
$CELTYPE
  6
BYLAYER
  9
$DIMSCALE
 40
1.0
  9
$DIMASZ
 40
3.0
  9
$DIMEXO
 40
0.5
  9
$DIMDLI
 40
11.286
  9
$DIMEXE
 40
1.5
  9
$DIMCEN
 40
2.673
  9
$DIMLFAC
 40
1.0
  9
$DIMBLK
  1
_FILLED
  9
$DIMALT
 70
0
  9
$DIMALTF
 40
0.0393700787
  9
$DIMTXT
 40
3.0
  9
$DIMTOL
 70
1
  9
$DIMLIM
 70
0
  9
$DIMTFAC
 40
1.0
  9
$DIMTP
 40
0.01
  9
$DIMTM
 40
0.01
  9
$DIMGAP
 40
0.625
  9
$DIMDSEP
 70
44
  9
$AUNITS
 70
0
  9
$PDMODE
 70
3
  9
$PDSIZE
 40
3.0
  9
$HANDSEED
  5
3BC
  9
$TILEMODE
 70
1
  9
$MEASUREMENT
 70
1
  9
$INSUNITS
 70
4
  0
ENDSEC
  0
SECTION
  2
CLASSES
  0
CLASS
  1
ACDBDICTIONARYWDFLT
  2
AcDbDictionaryWithDefault
  3
AutoCAD 2000
 90
0
 91
1
280
0
281
0
  0
CLASS
  1
ACDBPLACEHOLDER
  2
AcDbPlaceHolder
  3
AutoCAD 2000
 90
0
 91
1
280
0
281
0
  0
CLASS
  1
LAYOUT
  2
AcDbLayout
  3
AutoCAD 2000
 90
0
 91
0
280
0
281
0
  0
ENDSEC
  0
SECTION
  2
TABLES
  0
TABLE
  2
VPORT
  5
8
100
AcDbSymbolTable
 70
2
  0
VPORT
  5
1F4
100
AcDbSymbolTableRecord
100
AcDbViewportTableRecord
  2
*ACTIVE
 70
0
 10
0.0
 20
0.0
 11
1.0
 21
1.0
 12
148.5
 22
105.0
 13
0.0
 23
0.0
 14
1.0
 24
1.0
 15
0.0
 25
0.0
 16
0.0
 26
0.0
 36
1.0
 17
0.0
 27
0.0
 37
0.0
 40
210.0
 41
1.4142857143
 42
50.0
 43
0.0
 44
0.0
 50
0.0
 51
0.0
 71
0
 72
100
 73
1
 74
1
 75
0
 76
0
 77
0
 78
0
  0
ENDTAB
  0
TABLE
  2
LTYPE
  5
5
100
AcDbSymbolTable
 70
6
  0
LTYPE
  5
14
100
AcDbSymbolTableRecord
100
AcDbLinetypeTableRecord
  2
BYBLOCK
 70
0
  3

 72
65
 73
0
 40
0.0
  0
LTYPE
  5
15
100
AcDbSymbolTableRecord
100
AcDbLinetypeTableRecord
  2
BYLAYER
 70
0
  3

 72
65
 73
0
 40
0.0
  0
LTYPE
  5
16
100
AcDbSymbolTableRecord
100
AcDbLinetypeTableRecord
  2
CONTINUOUS
 70
64
  3
Solid line
 72
65
 73
0
 40
0.0
  0
LTYPE
  5
1F5
100
AcDbSymbolTableRecord
100
AcDbLinetypeTableRecord
  2
CENTER
 70
64
  3
____ _ ____ _ ____ _ ____ _ ____ _ ____ _ ____
 72
65
 73
4
 40
0.6
 49
0.375
 74
0
 49
-0.075
 74
0
 49
0.075
 74
0
 49
-0.075
 74
0
  0
LTYPE
  5
1F6
100
AcDbSymbolTableRecord
100
AcDbLinetypeTableRecord
  2
HIDDEN
 70
64
  3
- - - - - - - - - - - - - - - - - - - -
 72
65
 73
2
 40
0.2
 49
0.1
 74
0
 49
-0.1
 74
0
  0
LTYPE
  5
1F7
100
AcDbSymbolTableRecord
100
AcDbLinetypeTableRecord
  2
PHANTOM
 70
64
  3
_____ _ _ _____ _ _ _____ _ _ _____
 72
65
 73
6
 40
0.8
 49
0.45
 74
0
 49
-0.05
 74
0
 49
0.1
 74
0
 49
-0.05
 74
0
 49
0.1
 74
0
 49
-0.05
 74
0
  0
LTYPE
  5
1F8
100
AcDbSymbolTableRecord
100
AcDbLinetypeTableRecord
  2
DOT
 70
64
  3
. . . . . . . . . . . . . . . . . . . .
 72
65
 73
2
 40
0.2
 49
0.1
 74
0
 49
-0.1
 74
0
  0
LTYPE
  5
1F9
100
AcDbSymbolTableRecord
100
AcDbLinetypeTableRecord
  2
DASHED
 70
64
  3
- - - - - - - - - - - - - - - - - - - -
 72
65
 73
2
 40
0.2
 49
0.1
 74
0
 49
-0.1
 74
0
  0
ENDTAB
  0
TABLE
  2
LAYER
  5
2
100
AcDbSymbolTable
 70
36
  0
LAYER
  5
10
100
AcDbSymbolTableRecord
100
AcDbLayerTableRecord
  2
0
 70
0
 62
7
  6
CONTINUOUS
370
-3
390
F
  0
LAYER
  5
1FA
100
AcDbSymbolTableRecord
100
AcDbLayerTableRecord
  2
DEFAULT_1
 70
0
 62
7
  6
CENTER
370
-3
390
F
  0
LAYER
  5
1FB
100
AcDbSymbolTableRecord
100
AcDbLayerTableRecord
  2
DEFAULT_2
 70
0
 62
7
  6
HIDDEN
370
-3
390
F
  0
LAYER
  5
1FC
100
AcDbSymbolTableRecord
100
AcDbLayerTableRecord
  2
DEFAULT_3
 70
0
 62
7
  6
PHANTOM
370
-3
390
F
  0
LAYER
  5
1FD
100
AcDbSymbolTableRecord
100
AcDbLayerTableRecord
  2
ASSI
 70
0
 62
7
  6
CONTINUOUS
370
-3
390
F
  0
LAYER
  5
1FE
100
AcDbSymbolTableRecord
100
AcDbLayerTableRecord
  2
COORDINATE
 70
0
 62
7
  6
CONTINUOUS
370
-3
390
F
  0
LAYER
  5
1FF
100
AcDbSymbolTableRecord
100
AcDbLayerTableRecord
  2
COORD_ORIGINE
 70
0
 62
7
  6
CONTINUOUS
370
-3
390
F
  0
LAYER
  5
200
100
AcDbSymbolTableRecord
100
AcDbLayerTableRecord
  2
COSMETICI
 70
0
 62
7
  6
CONTINUOUS
370
-3
390
F
  0
LAYER
  5
201
100
AcDbSymbolTableRecord
100
AcDbLayerTableRecord
  2
CURVE
 70
0
 62
7
  6
CONTINUOUS
370
-3
390
F
  0
LAYER
  5
202
100
AcDbSymbolTableRecord
100
AcDbLayerTableRecord
  2
DRAFT
 70
0
 62
7
  6
CONTINUOUS
370
-3
390
F
  0
LAYER
  5
203
100
AcDbSymbolTableRecord
100
AcDbLayerTableRecord
  2
NOTE
 70
0
 62
7
  6
CONTINUOUS
370
-3
390
F
  0
LAYER
  5
204
100
AcDbSymbolTableRecord
100
AcDbLayerTableRecord
  2
PIANI
 70
0
 62
7
  6
CONTINUOUS
370
-3
390
F
  0
LAYER
  5
205
100
AcDbSymbolTableRecord
100
AcDbLayerTableRecord
  2
PIANI_ORIGINE
 70
0
 62
7
  6
CONTINUOUS
370
-3
390
F
  0
LAYER
  5
206
100
AcDbSymbolTableRecord
100
AcDbLayerTableRecord
  2
PUNTI
 70
0
 62
7
  6
CONTINUOUS
370
-3
390
F
  0
LAYER
  5
207
100
AcDbSymbolTableRecord
100
AcDbLayerTableRecord
  2
RACCORDO
 70
0
 62
7
  6
CONTINUOUS
370
-3
390
F
  0
LAYER
  5
208
100
AcDbSymbolTableRecord
100
AcDbLayerTableRecord
  2
SIMBOLI
 70
0
 62
7
  6
CONTINUOUS
370
-3
390
F
  0
LAYER
  5
209
100
AcDbSymbolTableRecord
100
AcDbLayerTableRecord
  2
SNAPLINE
 70
0
 62
7
  6
CONTINUOUS
370
-3
390
F
  0
LAYER
  5
20A
100
AcDbSymbolTableRecord
100
AcDbLayerTableRecord
  2
SUPERFICI
 70
0
 62
7
  6
CONTINUOUS
370
-3
390
F
  0
LAYER
  5
20B
100
AcDbSymbolTableRecord
100
AcDbLayerTableRecord
  2
TRASH
 70
0
 62
7
  6
CONTINUOUS
370
-3
390
F
  0
LAYER
  5
20C
100
AcDbSymbolTableRecord
100
AcDbLayerTableRecord
  2
XSEC_DATUMS
 70
0
 62
7
  6
CONTINUOUS
370
-3
390
F
  0
ENDTAB
  0
TABLE
  2
STYLE
  5
3
100
AcDbSymbolTable
 70
1
  0
STYLE
  5
11
100
AcDbSymbolTableRecord
100
AcDbTextStyleTableRecord
  2
STANDARD
 70
0
 40
0.0
 41
0.8
 50
0.0
 71
0
 42
0.2
  3
txt
  4

  0
STYLE
  5
20D
100
AcDbSymbolTableRecord
100
AcDbTextStyleTableRecord
  2
TEXTSTYLE_1
 70
0
 40
0.0
 41
0.8
 50
0.0
 71
0
 42
0.2
  3
gdt
  4

  0
ENDTAB
  0
TABLE
  2
VIEW
  5
6
100
AcDbSymbolTable
 70
0
  0
ENDTAB
  0
TABLE
  2
UCS
  5
7
100
AcDbSymbolTable
 70
0
  0
ENDTAB
  0
TABLE
  2
APPID
  5
9
100
AcDbSymbolTable
 70
1
  0
APPID
  5
20E
100
AcDbSymbolTableRecord
100
AcDbRegAppTableRecord
  2
ACAD
 70
0
  0
ENDTAB
  0
TABLE
  2
BLOCK_RECORD
  5
1
100
AcDbSymbolTable
 70
0
  0
BLOCK_RECORD
  5
20F
100
AcDbSymbolTableRecord
100
AcDbBlockTableRecord
  2
*Model_Space
  0
BLOCK_RECORD
  5
210
100
AcDbSymbolTableRecord
100
AcDbBlockTableRecord
  2
*Paper_Space
  0
BLOCK_RECORD
  5
211
100
AcDbSymbolTableRecord
100
AcDbBlockTableRecord
  2
_FILLED
  0
ENDTAB
  0
TABLE
  2
DIMSTYLE
  5
A
100
AcDbSymbolTable
 70
1
100
AcDbDimStyleTable
 71
0
  0
DIMSTYLE
105
212
100
AcDbSymbolTableRecord
100
AcDbDimStyleTableRecord
  2
STANDARD
 70
0
  3

  4

 40
1.0
 41
3.0
 42
0.5
 43
0.38
 44
1.5
 45
0.0
 46
0.0
 47
0.01
 48
0.01
140
3.0
141
0.09
142
0.0
143
25.4
144
1.0
145
0.0
146
1.0
147
0.625
 71
1.0
 72
0.0
 73
0
 74
0
 75
0
 76
0
 77
1
 78
8
 79
2
170
0
171
1
172
0
173
0
174
0
175
0
176
0
177
0
178
0
270
2
179
2
271
2
272
2
273
2
274
2
275
0
280
0
281
0
282
0
283
1
284
8
285
0
286
0
287
3
288
0
340
11
278
44
341
211
342
211
343
211
344
211
  0
ENDTAB
  0
ENDSEC
  0
SECTION
  2
BLOCKS
  0
BLOCK
  5
20
100
AcDbEntity
  8
0
100
AcDbBlockBegin
  2
*Model_Space
 70
0
 10
0.0
 20
0.0
 30
0.0
  3
*Model_Space
  1

  0
ENDBLK
  5
21
100
AcDbEntity
  8
0
100
AcDbBlockEnd
  0
BLOCK
  5
1C
100
AcDbEntity
  8
0
100
AcDbBlockBegin
  2
*Paper_Space
 70
0
 10
0.0
 20
0.0
 30
0.0
  3
*Paper_Space
  1

  0
ENDBLK
  5
1D
100
AcDbEntity
  8
0
100
AcDbBlockEnd
  0
BLOCK
  5
213
100
AcDbEntity
  8
0
100
AcDbBlockBegin
  2
_FILLED
 70
64
 10
0.0
 20
0.0
  3
_FILLED
  1

  0
SOLID
  5
214
100
AcDbEntity
  8
0
  6
BYBLOCK
 62
0
100
AcDbTrace
 10
0.0
 20
0.0
 11
-1.0
 21
0.3166666667
 12
-1.0
 22
-0.3166666667
 13
-1.0
 23
-0.3166666667
  0
ENDBLK
  5
215
100
AcDbEntity
  8
0
  6
BYBLOCK
 62
0
100
AcDbBlockEnd
  0
ENDSEC
  0
SECTION
  2
ENTITIES
  0
LINE
  5
216
100
AcDbEntity
  8
RACCORDO
100
AcDbLine
 62
250
  6
CONTINUOUS
 10
1.7653457612
 20
-27.2664491504
 11
1.7664139101
 21
-27.2664465443
  0
LINE
  5
217
100
AcDbEntity
  8
RACCORDO
100
AcDbLine
 62
250
  6
CONTINUOUS
 10
1.6402971401
 20
-28.5203404255
 11
-0.0
 21
-28.5203404255
  0
LINE
  5
218
100
AcDbEntity
  8
RACCORDO
100
AcDbLine
 62
7
  6
CONTINUOUS
 10
1.8570008079
 20
-28.3203431671
 11
-0.0
 21
-28.3203431671
  0
LINE
  5
219
100
AcDbEntity
  8
RACCORDO
100
AcDbLine
 62
250
  6
CONTINUOUS
 10
1.7664999541
 20
-27.4664431597
 11
2.4055325723
 21
-27.4664431597
  0
LINE
  5
21A
100
AcDbEntity
  8
RACCORDO
100
AcDbLine
 62
7
  6
CONTINUOUS
 10
1.7664139124
 20
-27.2664465443
 11
2.4744586685
 21
-27.2664465443
  0
LINE
  5
21B
100
AcDbEntity
  8
RACCORDO
100
AcDbLine
 62
7
  6
CONTINUOUS
 10
1.7599696099
 20
-27.2530587665
 11
2.4575605678
 21
-27.2530587665
  0
LINE
  5
21C
100
AcDbEntity
  8
RACCORDO
100
AcDbLine
 62
7
  6
CONTINUOUS
 10
0.0658592425
 20
-28.3152214683
 11
-0.0
 21
-28.3151071315
  0
LINE
  5
21D
100
AcDbEntity
  8
RACCORDO
100
AcDbLine
 62
7
  6
CONTINUOUS
 10
2.4575605678
 20
-25.7530587665
 11
1.7599696099
 21
-25.7530587665
  0
LINE
  5
21E
100
AcDbEntity
  8
RACCORDO
100
AcDbLine
 62
7
  6
CONTINUOUS
 10
2.5895379128
 20
-25.7396709886
 11
1.7664139124
 21
-25.7396709886
  0
LINE
  5
21F
100
AcDbEntity
  8
RACCORDO
100
AcDbLine
 62
250
  6
CONTINUOUS
 10
2.5912731322
 20
-25.5396743732
 11
1.7664854213
 21
-25.5396743732
  0
LINE
  5
220
100
AcDbEntity
  8
RACCORDO
100
AcDbLine
 62
7
  6
CONTINUOUS
 10
-0.0
 20
-24.6910104014
 11
0.0796374884
 21
-24.690872262
  0
LINE
  5
221
100
AcDbEntity
  8
RACCORDO
100
AcDbLine
 62
7
  6
CONTINUOUS
 10
-0.0
 20
-24.6857743658
 11
2.5982637652
 21
-24.6857743658
  0
LINE
  5
222
100
AcDbEntity
  8
RACCORDO
100
AcDbLine
 62
250
  6
CONTINUOUS
 10
-0.0
 20
-24.4857771074
 11
2.6
 21
-24.4857771074
  0
LINE
  5
223
100
AcDbEntity
  8
RACCORDO
100
AcDbLine
 62
250
  6
CONTINUOUS
 10
1.7664139101
 20
-27.4664431597
 11
1.5917504404
 21
-27.3711834588
  0
LINE
  5
224
100
AcDbEntity
  8
DRAFT
100
AcDbLine
 62
7
  6
CONTINUOUS
 10
0.8464181415
 20
28.8320345671
 11
0.3
 21
28.3735353061
  0
LINE
  5
225
100
AcDbEntity
  8
0
100
AcDbLine
 62
7
  6
CONTINUOUS
 10
0.45109
 20
-22.3737247665
 11
-1.269556
 21
-22.8502197665
  0
LINE
  5
226
100
AcDbEntity
  8
0
100
AcDbLine
 62
7
  6
CONTINUOUS
 10
-1.269706
 20
-21.1675987665
 11
1.23018
 21
-21.1675987665
  0
LINE
  5
227
100
AcDbEntity
  8
0
100
AcDbLine
 62
7
  6
CONTINUOUS
 10
-1.269556
 20
-21.8826737665
 11
0.45109
 21
-22.3737247665
  0
LINE
  5
228
100
AcDbEntity
  8
0
100
AcDbLine
 62
7
  6
CONTINUOUS
 10
1.23018
 20
-20.6458057665
 11
-1.269706
 21
-20.6458057665
  0
LINE
  5
229
100
AcDbEntity
  8
0
100
AcDbLine
 62
7
  6
CONTINUOUS
 10
1.23018
 20
-19.8657227665
 11
-0.4021
 21
-19.7531197665
  0
LINE
  5
22A
100
AcDbEntity
  8
0
100
AcDbLine
 62
7
  6
CONTINUOUS
 10
-1.269556
 20
-20.1391967665
 11
1.23018
 21
-20.3649087665
  0
LINE
  5
22B
100
AcDbEntity
  8
0
100
AcDbLine
 62
7
  6
CONTINUOUS
 10
1.23018
 20
-22.1647527665
 11
-1.269556
 21
-21.3612377665
  0
LINE
  5
22C
100
AcDbEntity
  8
RACCORDO
100
AcDbLine
 62
7
  6
CONTINUOUS
 10
2.4744586685
 20
-27.2664465443
 11
2.4575605678
 21
-27.2530587665
  0
LINE
  5
22D
100
AcDbEntity
  8
ASSI
100
AcDbLine
 62
7
  6
CONTINUOUS
 10
-0.7
 20
21.2092392335
 11
0.13649
 21
21.7376502335
  0
LINE
  5
22E
100
AcDbEntity
  8
ASSI
100
AcDbLine
 62
7
  6
CONTINUOUS
 10
-0.02723
 20
21.8312852335
 11
-0.7
 21
21.4295712335
  0
LINE
  5
22F
100
AcDbEntity
  8
ASSI
100
AcDbLine
 62
7
  6
CONTINUOUS
 10
0.7
 20
20.0724822335
 11
-0.7
 21
19.5654372335
  0
LINE
  5
230
100
AcDbEntity
  8
ASSI
100
AcDbLine
 62
7
  6
CONTINUOUS
 10
0.292511
 20
19.7273002335
 11
0.7
 21
19.8657372335
  0
LINE
  5
231
100
AcDbEntity
  8
ASSI
100
AcDbLine
 62
7
  6
CONTINUOUS
 10
-0.496932
 20
19.4504482335
 11
0.124828
 21
19.6590382335
  0
LINE
  5
232
100
AcDbEntity
  8
0
100
AcDbLine
 62
7
  6
CONTINUOUS
 10
1.23018
 20
-17.8297447665
 11
-1.269556
 21
-18.0634977665
  0
LINE
  5
233
100
AcDbEntity
  8
0
100
AcDbLine
 62
7
  6
CONTINUOUS
 10
-0.395296
 20
-18.4474007665
 11
1.23018
 21
-18.3401967665
  0
LINE
  5
234
100
AcDbEntity
  8
0
100
AcDbLine
 62
7
  6
CONTINUOUS
 10
-1.269556
 20
-18.5797607665
 11
0.118305
 21
-19.1015537665
  0
LINE
  5
235
100
AcDbEntity
  8
0
100
AcDbLine
 62
7
  6
CONTINUOUS
 10
1.23018
 20
-19.0678117665
 11
-0.395296
 21
-18.4474007665
  0
LINE
  5
236
100
AcDbEntity
  8
0
100
AcDbLine
 62
7
  6
CONTINUOUS
 10
0.731144
 20
-16.3770997665
 11
1.23018
 21
-16.2419277665
  0
LINE
  5
237
100
AcDbEntity
  8
0
100
AcDbLine
 62
7
  6
CONTINUOUS
 10
-0.582692
 20
-16.7211507665
 11
0.344992
 21
-16.4813797665
  0
LINE
  5
238
100
AcDbEntity
  8
0
100
AcDbLine
 62
7
  6
CONTINUOUS
 10
-1.2403505884
 20
-15.5387562644
 11
1.2301797807
 21
-15.5387562644
  0
LINE
  5
239
100
AcDbEntity
  8
0
100
AcDbLine
 62
7
  6
CONTINUOUS
 10
0.344992
 20
-16.9809597665
 11
-0.582692
 21
-16.7211507665
  0
LINE
  5
23A
100
AcDbEntity
  8
0
100
AcDbLine
 62
7
  6
CONTINUOUS
 10
1.23018
 20
-17.2316777665
 11
0.731144
 21
-17.0876947665
  0
LINE
  5
23B
100
AcDbEntity
  8
0
100
AcDbLine
 62
7
  6
CONTINUOUS
 10
-1.269556
 20
-16.9637327665
 11
1.23018
 21
-17.7478087665
  0
LINE
  5
23C
100
AcDbEntity
  8
ASSI
100
AcDbLine
 62
7
  6
CONTINUOUS
 10
0.437198
 20
16.1901632335
 11
-0.7
 21
15.4862002335
  0
LINE
  5
23D
100
AcDbEntity
  8
0
100
AcDbLine
 62
7
  6
CONTINUOUS
 10
-0.1574749227
 20
-15.0363647896
 11
-0.843701075
 21
-15.0363647896
  0
LINE
  5
23E
100
AcDbEntity
  8
0
100
AcDbLine
 62
7
  6
CONTINUOUS
 10
1.2301797807
 20
-15.0190629228
 11
0.2519213614
 21
-15.0190629228
  0
LINE
  5
23F
100
AcDbEntity
  8
0
100
AcDbLine
 62
7
  6
CONTINUOUS
 10
0.0633253901
 20
-14.1972523692
 11
0.0485541322
 21
-14.1972523692
  0
LINE
  5
240
100
AcDbEntity
  8
ASSI
100
AcDbLine
 62
7
  6
CONTINUOUS
 10
-0.436968
 20
15.4452812335
 11
0.7
 21
16.1609062335
  0
LINE
  5
241
100
AcDbEntity
  8
RACCORDO
100
AcDbLine
 62
250
  6
CONTINUOUS
 10
1.5839751144
 20
-27.3580575015
 11
1.5900733509
 21
-27.3692808186
  0
LINE
  5
242
100
AcDbEntity
  8
ASSI
100
AcDbLine
 62
7
  6
CONTINUOUS
 10
0.7
 20
11.2957902335
 11
-0.7
 21
10.7888462335
  0
LINE
  5
243
100
AcDbEntity
  8
ASSI
100
AcDbLine
 62
7
  6
CONTINUOUS
 10
0.292511
 20
10.9506532335
 11
0.7
 21
11.0890792335
  0
LINE
  5
244
100
AcDbEntity
  8
ASSI
100
AcDbLine
 62
7
  6
CONTINUOUS
 10
-0.496932
 20
10.6738802335
 11
0.124828
 21
10.8824592335
  0
LINE
  5
245
100
AcDbEntity
  8
ASSI
100
AcDbLine
 62
7
  6
CONTINUOUS
 10
0.489326
 20
9.2113322335
 11
-0.7
 21
8.8096682335
  0
LINE
  5
246
100
AcDbEntity
  8
ASSI
100
AcDbLine
 62
7
  6
CONTINUOUS
 10
-0.473894
 20
8.7219052335
 11
0.7
 21
9.1158102335
  0
LINE
  5
247
100
AcDbEntity
  8
0
100
AcDbLine
 62
7
  6
CONTINUOUS
 10
-0.75
 20
-4.0030587665
 11
-0.5904255509
 21
-4.0030587665
  0
LINE
  5
248
100
AcDbEntity
  8
0
100
AcDbLine
 62
7
  6
CONTINUOUS
 10
0.75
 20
-4.7530587665
 11
-0.75
 21
-4.2530587963
  0
LINE
  5
249
100
AcDbEntity
  8
0
100
AcDbLine
 62
7
  6
CONTINUOUS
 10
-0.75
 20
-4.4405587963
 11
0.5585106388
 21
-4.8780587814
  0
LINE
  5
24A
100
AcDbEntity
  8
0
100
AcDbLine
 62
7
  6
CONTINUOUS
 10
-2.6
 20
-26.5030587665
 11
-2.6
 21
-4.9308749585
  0
LINE
  5
24B
100
AcDbEntity
  8
0
100
AcDbLine
 62
7
  6
CONTINUOUS
 10
-2.6
 20
1.9247574255
 11
-2.6
 21
23.6969488489
  0
LINE
  5
24C
100
AcDbEntity
  8
RACCORDO
100
AcDbLine
 62
7
  6
CONTINUOUS
 10
-1.775
 20
24.0969336182
 11
-1.775
 21
26.4969412335
  0
LINE
  5
24D
100
AcDbEntity
  8
0
100
AcDbLine
 62
7
  6
CONTINUOUS
 10
-0.5904255509
 20
-2.8780587665
 11
-0.75
 21
-2.8780587665
  0
LINE
  5
24E
100
AcDbEntity
  8
0
100
AcDbLine
 62
7
  6
CONTINUOUS
 10
-0.5265957713
 20
-2.6280588261
 11
-0.2712765634
 21
-2.6280588261
  0
LINE
  5
24F
100
AcDbEntity
  8
0
100
AcDbLine
 62
7
  6
CONTINUOUS
 10
-0.4946808815
 20
-2.4405586473
 11
0.75
 21
-2.4405586473
  0
LINE
  5
250
100
AcDbEntity
  8
0
100
AcDbLine
 62
7
  6
CONTINUOUS
 10
0.75
 20
-2.2530586473
 11
-0.75
 21
-2.2530586473
  0
LINE
  5
251
100
AcDbEntity
  8
0
100
AcDbLine
 62
7
  6
CONTINUOUS
 10
-0.75
 20
-2.0030588857
 11
0.0797872245
 21
-2.0030588857
  0
LINE
  5
252
100
AcDbEntity
  8
0
100
AcDbLine
 62
7
  6
CONTINUOUS
 10
-0.0797872245
 20
-1.8468087665
 11
-0.5904255509
 21
-1.8468087665
  0
LINE
  5
253
100
AcDbEntity
  8
0
100
AcDbLine
 62
7
  6
CONTINUOUS
 10
-0.5904255509
 20
-3.0655587665
 11
0.75
 21
-3.6905587069
  0
LINE
  5
254
100
AcDbEntity
  8
0
100
AcDbLine
 62
7
  6
CONTINUOUS
 10
0.75
 20
-3.5030587069
 11
-0.5904255509
 21
-2.8780587665
  0
LINE
  5
255
100
AcDbEntity
  8
0
100
AcDbLine
 62
7
  6
CONTINUOUS
 10
-0.75
 20
-2.4405586473
 11
-0.5265957713
 21
-2.6280588261
  0
LINE
  5
256
100
AcDbEntity
  8
0
100
AcDbLine
 62
7
  6
CONTINUOUS
 10
-0.2712765634
 20
-2.6280588261
 11
-0.4946808815
 21
-2.4405586473
  0
LINE
  5
257
100
AcDbEntity
  8
0
100
AcDbLine
 62
7
  6
CONTINUOUS
 10
-1.269706
 20
-20.6458057665
 11
-1.269706
 21
-21.1675987665
  0
LINE
  5
258
100
AcDbEntity
  8
0
100
AcDbLine
 62
7
  6
CONTINUOUS
 10
-1.269556
 20
-16.4589607665
 11
-1.269556
 21
-16.9637327665
  0
LINE
  5
259
100
AcDbEntity
  8
0
100
AcDbLine
 62
7
  6
CONTINUOUS
 10
-1.269556
 20
-18.0634977665
 11
-1.269556
 21
-18.5797607665
  0
LINE
  5
25A
100
AcDbEntity
  8
0
100
AcDbLine
 62
7
  6
CONTINUOUS
 10
-1.269556
 20
-19.6178357665
 11
-1.269556
 21
-20.1391967665
  0
LINE
  5
25B
100
AcDbEntity
  8
0
100
AcDbLine
 62
7
  6
CONTINUOUS
 10
-1.269556
 20
-21.3612377665
 11
-1.269556
 21
-21.8826737665
  0
LINE
  5
25C
100
AcDbEntity
  8
0
100
AcDbLine
 62
7
  6
CONTINUOUS
 10
-1.269556
 20
-22.8502197665
 11
-1.269556
 21
-23.4170477665
  0
LINE
  5
25D
100
AcDbEntity
  8
DRAFT
100
AcDbLine
 62
7
  6
CONTINUOUS
 10
-0.9
 20
25.8644857015
 11
-0.9
 21
27.1293967656
  0
LINE
  5
25E
100
AcDbEntity
  8
0
100
AcDbLine
 62
7
  6
CONTINUOUS
 10
-0.75
 20
1.3406912335
 11
-0.75
 21
1.278191472
  0
LINE
  5
25F
100
AcDbEntity
  8
0
100
AcDbLine
 62
7
  6
CONTINUOUS
 10
-0.75
 20
-0.0030586473
 11
-0.75
 21
-0.1280588857
  0
LINE
  5
260
100
AcDbEntity
  8
0
100
AcDbLine
 62
7
  6
CONTINUOUS
 10
-0.75
 20
-0.9405586473
 11
-0.75
 21
-2.0030588857
  0
LINE
  5
261
100
AcDbEntity
  8
0
100
AcDbLine
 62
7
  6
CONTINUOUS
 10
-0.75
 20
-2.2530586473
 11
-0.75
 21
-2.4405586473
  0
LINE
  5
262
100
AcDbEntity
  8
0
100
AcDbLine
 62
7
  6
CONTINUOUS
 10
-0.75
 20
-2.8780587665
 11
-0.75
 21
-4.0030587665
  0
LINE
  5
263
100
AcDbEntity
  8
0
100
AcDbLine
 62
7
  6
CONTINUOUS
 10
-0.75
 20
-4.2530587963
 11
-0.75
 21
-4.4405587963
  0
LINE
  5
264
100
AcDbEntity
  8
0
100
AcDbLine
 62
7
  6
CONTINUOUS
 10
-0.75
 20
-5.3155587665
 11
-0.75
 21
-5.5030587665
  0
LINE
  5
265
100
AcDbEntity
  8
ASSI
100
AcDbLine
 62
7
  6
CONTINUOUS
 10
-0.7
 20
22.4552562335
 11
-0.7
 21
22.2328872335
  0
LINE
  5
266
100
AcDbEntity
  8
ASSI
100
AcDbLine
 62
7
  6
CONTINUOUS
 10
-0.7
 20
21.4295712335
 11
-0.7
 21
21.2092392335
  0
LINE
  5
267
100
AcDbEntity
  8
ASSI
100
AcDbLine
 62
7
  6
CONTINUOUS
 10
-0.7
 20
20.4351352335
 11
-0.7
 21
20.2459402335
  0
LINE
  5
268
100
AcDbEntity
  8
ASSI
100
AcDbLine
 62
7
  6
CONTINUOUS
 10
-0.7
 20
19.5654372335
 11
-0.7
 21
19.3509812335
  0
LINE
  5
269
100
AcDbEntity
  8
ASSI
100
AcDbLine
 62
7
  6
CONTINUOUS
 10
-0.7
 20
18.7698762335
 11
-0.7
 21
17.6330862335
  0
LINE
  5
26A
100
AcDbEntity
  8
ASSI
100
AcDbLine
 62
7
  6
CONTINUOUS
 10
-0.7
 20
17.4302922335
 11
-0.7
 21
17.2411082335
  0
LINE
  5
26B
100
AcDbEntity
  8
ASSI
100
AcDbLine
 62
7
  6
CONTINUOUS
 10
-0.7
 20
16.3734372335
 11
-0.7
 21
16.1901632335
  0
LINE
  5
26C
100
AcDbEntity
  8
ASSI
100
AcDbLine
 62
7
  6
CONTINUOUS
 10
-0.7
 20
15.4862002335
 11
-0.7
 21
15.2619172335
  0
LINE
  5
26D
100
AcDbEntity
  8
ASSI
100
AcDbLine
 62
7
  6
CONTINUOUS
 10
-0.7
 20
14.9382812335
 11
-0.7
 21
14.7491532335
  0
LINE
  5
26E
100
AcDbEntity
  8
ASSI
100
AcDbLine
 62
7
  6
CONTINUOUS
 10
-0.7
 20
13.9165022335
 11
-0.7
 21
12.8966702335
  0
LINE
  5
26F
100
AcDbEntity
  8
ASSI
100
AcDbLine
 62
7
  6
CONTINUOUS
 10
-0.7
 20
12.052455132
 11
-0.7
 21
11.4790642335
  0
LINE
  5
270
100
AcDbEntity
  8
ASSI
100
AcDbLine
 62
7
  6
CONTINUOUS
 10
-0.7
 20
10.7888462335
 11
-0.7
 21
10.5743232335
  0
LINE
  5
271
100
AcDbEntity
  8
ASSI
100
AcDbLine
 62
7
  6
CONTINUOUS
 10
-0.7
 20
9.8801882335
 11
-0.7
 21
9.6110692335
  0
LINE
  5
272
100
AcDbEntity
  8
ASSI
100
AcDbLine
 62
7
  6
CONTINUOUS
 10
-0.7
 20
8.8096682335
 11
-0.7
 21
8.5386262335
  0
LINE
  5
273
100
AcDbEntity
  8
0
100
AcDbLine
 62
7
  6
CONTINUOUS
 10
-0.5904255509
 20
-4.0030587665
 11
-0.5904255509
 21
-3.0655587665
  0
LINE
  5
274
100
AcDbEntity
  8
0
100
AcDbLine
 62
7
  6
CONTINUOUS
 10
-0.5904255509
 20
-1.8468087665
 11
-0.5904255509
 21
-0.9405586473
  0
LINE
  5
275
100
AcDbEntity
  8
0
100
AcDbLine
 62
7
  6
CONTINUOUS
 10
-0.5904255509
 20
-0.1593087665
 11
-0.5904255509
 21
0.0281912335
  0
LINE
  5
276
100
AcDbEntity
  8
0
100
AcDbLine
 62
7
  6
CONTINUOUS
 10
-0.5904255509
 20
1.2469412335
 11
-0.5904255509
 21
1.371941472
  0
LINE
  5
277
100
AcDbEntity
  8
ASSI
100
AcDbLine
 62
7
  6
CONTINUOUS
 10
-0.538205
 20
11.6682592335
 11
-0.538205
 21
12.0416871672
  0
LINE
  5
278
100
AcDbEntity
  8
ASSI
100
AcDbLine
 62
7
  6
CONTINUOUS
 10
-0.532317
 20
13.0858542335
 11
-0.532317
 21
13.9165022335
  0
LINE
  5
279
100
AcDbEntity
  8
ASSI
100
AcDbLine
 62
7
  6
CONTINUOUS
 10
-0.532317
 20
17.6330862335
 11
-0.532317
 21
18.1069232335
  0
LINE
  5
27A
100
AcDbEntity
  8
ASSI
100
AcDbLine
 62
7
  6
CONTINUOUS
 10
-0.532317
 20
18.2960392335
 11
-0.532317
 21
18.7698762335
  0
LINE
  5
27B
100
AcDbEntity
  8
0
100
AcDbLine
 62
7
  6
CONTINUOUS
 10
-0.3989362121
 20
0.2781913527
 11
-0.3989362121
 21
0.4344411143
  0
LINE
  5
27C
100
AcDbEntity
  8
0
100
AcDbLine
 62
7
  6
CONTINUOUS
 10
-0.3989362121
 20
0.7781912335
 11
-0.3989362121
 21
0.9344409951
  0
LINE
  5
27D
100
AcDbEntity
  8
DRAFT
100
AcDbLine
 62
7
  6
CONTINUOUS
 10
-0.3
 20
28.2464054372
 11
-0.3
 21
28.3735353061
  0
LINE
  5
27E
100
AcDbEntity
  8
0
100
AcDbLine
 62
7
  6
CONTINUOUS
 10
-0.2074467838
 20
0.0281912335
 11
-0.2074467838
 21
-0.1280588857
  0
LINE
  5
27F
100
AcDbEntity
  8
0
100
AcDbLine
 62
7
  6
CONTINUOUS
 10
-0.2074467838
 20
-1.3468088857
 11
-0.2074467838
 21
-1.5343088857
  0
LINE
  5
280
100
AcDbEntity
  8
0
100
AcDbLine
 62
7
  6
CONTINUOUS
 10
-0.1574749227
 20
-14.7381653351
 11
-0.1574749227
 21
-15.0363647896
  0
LINE
  5
281
100
AcDbEntity
  8
ASSI
100
AcDbLine
 62
7
  6
CONTINUOUS
 10
-0.103316
 20
13.8521572335
 11
-0.103316
 21
13.0858542335
  0
LINE
  5
282
100
AcDbEntity
  8
0
100
AcDbLine
 62
7
  6
CONTINUOUS
 10
-0.0797872245
 20
1.371941472
 11
-0.0797872245
 21
1.2469412335
  0
LINE
  5
283
100
AcDbEntity
  8
0
100
AcDbLine
 62
7
  6
CONTINUOUS
 10
-0.0478723347
 20
-1.5343088857
 11
-0.0478723347
 21
-1.3468088857
  0
LINE
  5
284
100
AcDbEntity
  8
0
100
AcDbLine
 62
7
  6
CONTINUOUS
 10
-0.0478723347
 20
-0.1593087665
 11
-0.0478723347
 21
0.0594411143
  0
LINE
  5
285
100
AcDbEntity
  8
RACCORDO
100
AcDbLine
 62
250
  6
CONTINUOUS
 10
-0.0
 20
-24.4857771074
 11
-0.0
 21
-24.6857743658
  0
LINE
  5
286
100
AcDbEntity
  8
RACCORDO
100
AcDbLine
 62
250
  6
CONTINUOUS
 10
-0.0
 20
-28.5203404255
 11
0.0
 21
-28.3203431671
  0
LINE
  5
287
100
AcDbEntity
  8
0
100
AcDbLine
 62
7
  6
CONTINUOUS
 10
0.0478723347
 20
1.2469412335
 11
0.0478723347
 21
1.371941472
  0
LINE
  5
288
100
AcDbEntity
  8
ASSI
100
AcDbLine
 62
7
  6
CONTINUOUS
 10
0.064367
 20
13.0858542335
 11
0.064367
 21
13.8521572335
  0
LINE
  5
289
100
AcDbEntity
  8
0
100
AcDbLine
 62
7
  6
CONTINUOUS
 10
0.0797872245
 20
-2.0030588857
 11
0.0797872245
 21
-1.7843086473
  0
LINE
  5
28A
100
AcDbEntity
  8
ASSI
100
AcDbLine
 62
7
  6
CONTINUOUS
 10
0.124828
 20
19.6590382335
 11
0.124828
 21
19.2242062335
  0
LINE
  5
28B
100
AcDbEntity
  8
ASSI
100
AcDbLine
 62
7
  6
CONTINUOUS
 10
0.124828
 20
10.8824592335
 11
0.124828
 21
10.4476272335
  0
LINE
  5
28C
100
AcDbEntity
  8
0
100
AcDbLine
 62
7
  6
CONTINUOUS
 10
0.2519213614
 20
-15.0190629228
 11
0.2519213614
 21
-14.7392900501
  0
LINE
  5
28D
100
AcDbEntity
  8
0
100
AcDbLine
 62
7
  6
CONTINUOUS
 10
-0.7180851102
 20
1.559441472
 11
-0.75
 21
1.3406912335
  0
LINE
  5
28E
100
AcDbEntity
  8
0
100
AcDbLine
 62
7
  6
CONTINUOUS
 10
0.0478723347
 20
1.371941472
 11
0.0797872245
 21
1.559441472
  0
LINE
  5
28F
100
AcDbEntity
  8
0
100
AcDbLine
 62
7
  6
CONTINUOUS
 10
-0.5904255509
 20
1.371941472
 11
-0.5585106611
 21
1.5281912335
  0
LINE
  5
290
100
AcDbEntity
  8
0
100
AcDbLine
 62
7
  6
CONTINUOUS
 10
-0.7180851102
 20
0.1531911143
 11
-0.75
 21
-0.0030586473
  0
LINE
  5
291
100
AcDbEntity
  8
0
100
AcDbLine
 62
7
  6
CONTINUOUS
 10
-0.175531894
 20
0.1844413527
 11
-0.2074467838
 21
0.0281912335
  0
LINE
  5
292
100
AcDbEntity
  8
0
100
AcDbLine
 62
7
  6
CONTINUOUS
 10
-0.175531894
 20
-1.1905587665
 11
-0.2074467838
 21
-1.3468088857
  0
LINE
  5
293
100
AcDbEntity
  8
0
100
AcDbLine
 62
7
  6
CONTINUOUS
 10
-0.5904255509
 20
0.0281912335
 11
-0.5585106611
 21
0.1219412335
  0
LINE
  5
294
100
AcDbEntity
  8
0
100
AcDbLine
 62
7
  6
CONTINUOUS
 10
-0.0478723347
 20
0.0594411143
 11
-0.0159574449
 21
0.1531911143
  0
LINE
  5
295
100
AcDbEntity
  8
0
100
AcDbLine
 62
7
  6
CONTINUOUS
 10
0.0478723347
 20
1.7781909951
 11
-0.0159574449
 21
1.6219412335
  0
LINE
  5
296
100
AcDbEntity
  8
0
100
AcDbLine
 62
7
  6
CONTINUOUS
 10
-0.6542553306
 20
1.6844409951
 11
-0.7180851102
 21
1.559441472
  0
LINE
  5
297
100
AcDbEntity
  8
0
100
AcDbLine
 62
7
  6
CONTINUOUS
 10
0.5585106388
 20
1.0594412335
 11
0.526595749
 21
0.996941472
  0
LINE
  5
298
100
AcDbEntity
  8
0
100
AcDbLine
 62
7
  6
CONTINUOUS
 10
0.6542553194
 20
0.9344409951
 11
0.7180851074
 21
1.0594412335
  0
LINE
  5
299
100
AcDbEntity
  8
0
100
AcDbLine
 62
7
  6
CONTINUOUS
 10
-0.6223404408
 20
0.3094412335
 11
-0.7180851102
 21
0.1531911143
  0
LINE
  5
29A
100
AcDbEntity
  8
0
100
AcDbLine
 62
7
  6
CONTINUOUS
 10
-0.0797872245
 20
0.3406911143
 11
-0.175531894
 21
0.1844413527
  0
LINE
  5
29B
100
AcDbEntity
  8
0
100
AcDbLine
 62
7
  6
CONTINUOUS
 10
-0.5585106611
 20
1.5281912335
 11
-0.4946808815
 21
1.6219412335
  0
LINE
  5
29C
100
AcDbEntity
  8
0
100
AcDbLine
 62
7
  6
CONTINUOUS
 10
0.0797872245
 20
1.559441472
 11
0.1436170042
 21
1.653191472
  0
LINE
  5
29D
100
AcDbEntity
  8
0
100
AcDbLine
 62
7
  6
CONTINUOUS
 10
-0.5585106611
 20
0.1219412335
 11
-0.4946808815
 21
0.2156912335
  0
LINE
  5
29E
100
AcDbEntity
  8
0
100
AcDbLine
 62
7
  6
CONTINUOUS
 10
-0.0159574449
 20
0.1531911143
 11
0.0478723347
 21
0.2469411143
  0
LINE
  5
29F
100
AcDbEntity
  8
0
100
AcDbLine
 62
7
  6
CONTINUOUS
 10
0.5904255286
 20
0.8406909951
 11
0.6542553194
 21
0.9344409951
  0
LINE
  5
2A0
100
AcDbEntity
  8
0
100
AcDbLine
 62
7
  6
CONTINUOUS
 10
-0.5265957713
 20
1.8094412335
 11
-0.6542553306
 21
1.6844409951
  0
LINE
  5
2A1
100
AcDbEntity
  8
0
100
AcDbLine
 62
7
  6
CONTINUOUS
 10
0.526595749
 20
0.996941472
 11
0.462765947
 21
0.9344409951
  0
LINE
  5
2A2
100
AcDbEntity
  8
0
100
AcDbLine
 62
7
  6
CONTINUOUS
 10
0.0159574449
 20
0.4344411143
 11
-0.0797872245
 21
0.3406911143
  0
LINE
  5
2A3
100
AcDbEntity
  8
0
100
AcDbLine
 62
7
  6
CONTINUOUS
 10
0.0478723347
 20
0.2469411143
 11
0.1117021143
 21
0.3094412335
  0
LINE
  5
2A4
100
AcDbEntity
  8
0
100
AcDbLine
 62
7
  6
CONTINUOUS
 10
-0.4946808815
 20
0.4031912335
 11
-0.6223404408
 21
0.3094412335
  0
LINE
  5
2A5
100
AcDbEntity
  8
0
100
AcDbLine
 62
7
  6
CONTINUOUS
 10
-0.4946808815
 20
1.6219412335
 11
-0.3989362121
 21
1.6844409951
  0
LINE
  5
2A6
100
AcDbEntity
  8
0
100
AcDbLine
 62
7
  6
CONTINUOUS
 10
0.1436170042
 20
1.840691472
 11
0.0478723347
 21
1.7781909951
  0
LINE
  5
2A7
100
AcDbEntity
  8
0
100
AcDbLine
 62
7
  6
CONTINUOUS
 10
-0.4946808815
 20
0.2156912335
 11
-0.3989362121
 21
0.2781913527
  0
LINE
  5
2A8
100
AcDbEntity
  8
0
100
AcDbLine
 62
7
  6
CONTINUOUS
 10
0.4946808591
 20
0.7781912335
 11
0.5904255286
 21
0.8406909951
  0
LINE
  5
2A9
100
AcDbEntity
  8
0
100
AcDbLine
 62
7
  6
CONTINUOUS
 10
0.1436170042
 20
1.653191472
 11
0.2712766081
 21
1.7156912335
  0
LINE
  5
2AA
100
AcDbEntity
  8
0
100
AcDbLine
 62
7
  6
CONTINUOUS
 10
0.462765947
 20
0.9344409951
 11
0.3989361674
 21
0.903191472
  0
LINE
  5
2AB
100
AcDbEntity
  8
0
100
AcDbLine
 62
7
  6
CONTINUOUS
 10
0.175531894
 20
0.4969412335
 11
0.0159574449
 21
0.4344411143
  0
LINE
  5
2AC
100
AcDbEntity
  8
0
100
AcDbLine
 62
7
  6
CONTINUOUS
 10
0.3989361674
 20
0.7469409951
 11
0.4946808591
 21
0.7781912335
  0
LINE
  5
2AD
100
AcDbEntity
  8
0
100
AcDbLine
 62
7
  6
CONTINUOUS
 10
-0.3989362121
 20
0.4344411143
 11
-0.4946808815
 21
0.4031912335
  0
LINE
  5
2AE
100
AcDbEntity
  8
0
100
AcDbLine
 62
7
  6
CONTINUOUS
 10
0.1117021143
 20
0.3094412335
 11
0.2074468285
 21
0.3406911143
  0
LINE
  5
2AF
100
AcDbEntity
  8
0
100
AcDbLine
 62
7
  6
CONTINUOUS
 10
0.1117021143
 20
-0.6280587665
 11
0.3351063877
 21
-0.5968088857
  0
LINE
  5
2B0
100
AcDbEntity
  8
0
100
AcDbLine
 62
7
  6
CONTINUOUS
 10
0.2393617183
 20
-1.0343086473
 11
0.3031914979
 21
-1.0343086473
  0
LINE
  5
2B1
100
AcDbEntity
  8
0
100
AcDbLine
 62
7
  6
CONTINUOUS
 10
-0.5904255509
 20
-0.9405586473
 11
-0.75
 21
-0.9405586473
  0
LINE
  5
2B2
100
AcDbEntity
  8
0
100
AcDbLine
 62
7
  6
CONTINUOUS
 10
0.3351063877
 20
-0.8780588857
 11
0.2074468285
 21
-0.8780588857
  0
LINE
  5
2B3
100
AcDbEntity
  8
0
100
AcDbLine
 62
7
  6
CONTINUOUS
 10
-0.1117021143
 20
-0.6280587665
 11
0.1117021143
 21
-0.6280587665
  0
LINE
  5
2B4
100
AcDbEntity
  8
0
100
AcDbLine
 62
7
  6
CONTINUOUS
 10
-0.0478723347
 20
-0.4718086473
 11
-0.1117021143
 21
-0.4718086473
  0
LINE
  5
2B5
100
AcDbEntity
  8
0
100
AcDbLine
 62
7
  6
CONTINUOUS
 10
0.3031914979
 20
-0.4405587665
 11
0.2074468285
 21
-0.4405587665
  0
LINE
  5
2B6
100
AcDbEntity
  8
0
100
AcDbLine
 62
7
  6
CONTINUOUS
 10
-0.335106343
 20
-0.5968088857
 11
-0.1117021143
 21
-0.6280587665
  0
LINE
  5
2B7
100
AcDbEntity
  8
0
100
AcDbLine
 62
7
  6
CONTINUOUS
 10
-0.1117021143
 20
-0.4718086473
 11
-0.3031914532
 21
-0.4405587665
  0
LINE
  5
2B8
100
AcDbEntity
  8
0
100
AcDbLine
 62
7
  6
CONTINUOUS
 10
0.3031914979
 20
-1.0343086473
 11
0.3989361674
 21
-1.0655588857
  0
LINE
  5
2B9
100
AcDbEntity
  8
0
100
AcDbLine
 62
7
  6
CONTINUOUS
 10
-0.3031914532
 20
-0.4405587665
 11
-0.3989362121
 21
-0.4093088857
  0
LINE
  5
2BA
100
AcDbEntity
  8
0
100
AcDbLine
 62
7
  6
CONTINUOUS
 10
0.2074468285
 20
-0.4405587665
 11
0.1117021143
 21
-0.4093088857
  0
LINE
  5
2BB
100
AcDbEntity
  8
0
100
AcDbLine
 62
7
  6
CONTINUOUS
 10
0.4946808591
 20
-0.9405586473
 11
0.3351063877
 21
-0.8780588857
  0
LINE
  5
2BC
100
AcDbEntity
  8
0
100
AcDbLine
 62
7
  6
CONTINUOUS
 10
-0.4946808815
 20
-0.5343087665
 11
-0.335106343
 21
-0.5968088857
  0
LINE
  5
2BD
100
AcDbEntity
  8
0
100
AcDbLine
 62
7
  6
CONTINUOUS
 10
0.3989361674
 20
-1.0655588857
 11
0.4946808591
 21
-1.1280586473
  0
LINE
  5
2BE
100
AcDbEntity
  8
0
100
AcDbLine
 62
7
  6
CONTINUOUS
 10
-0.3989362121
 20
-0.4093088857
 11
-0.4946808815
 21
-0.3468087665
  0
LINE
  5
2BF
100
AcDbEntity
  8
0
100
AcDbLine
 62
7
  6
CONTINUOUS
 10
-0.6223404408
 20
-0.4405587665
 11
-0.4946808815
 21
-0.5343087665
  0
LINE
  5
2C0
100
AcDbEntity
  8
0
100
AcDbLine
 62
7
  6
CONTINUOUS
 10
0.6223404296
 20
-1.0343086473
 11
0.4946808591
 21
-0.9405586473
  0
LINE
  5
2C1
100
AcDbEntity
  8
0
100
AcDbLine
 62
7
  6
CONTINUOUS
 10
0.1117021143
 20
-0.4093088857
 11
0.0478723347
 21
-0.3468087665
  0
LINE
  5
2C2
100
AcDbEntity
  8
0
100
AcDbLine
 62
7
  6
CONTINUOUS
 10
-0.6542553306
 20
0.9344409951
 11
-0.5265957713
 21
0.809441472
  0
LINE
  5
2C3
100
AcDbEntity
  8
0
100
AcDbLine
 62
7
  6
CONTINUOUS
 10
0.0797872245
 20
-1.7843086473
 11
-0.0159574449
 21
-1.6593087665
  0
LINE
  5
2C4
100
AcDbEntity
  8
0
100
AcDbLine
 62
7
  6
CONTINUOUS
 10
-0.4946808815
 20
-0.3468087665
 11
-0.5585106611
 21
-0.2530587665
  0
LINE
  5
2C5
100
AcDbEntity
  8
0
100
AcDbLine
 62
7
  6
CONTINUOUS
 10
-0.175531894
 20
-0.2843086473
 11
-0.0478723347
 21
-0.4718086473
  0
LINE
  5
2C6
100
AcDbEntity
  8
0
100
AcDbLine
 62
7
  6
CONTINUOUS
 10
0.4946808591
 20
-1.1280586473
 11
0.5585106388
 21
-1.2218086473
  0
LINE
  5
2C7
100
AcDbEntity
  8
0
100
AcDbLine
 62
7
  6
CONTINUOUS
 10
0.0478723347
 20
-0.3468087665
 11
-0.0159574449
 21
-0.2530587665
  0
LINE
  5
2C8
100
AcDbEntity
  8
0
100
AcDbLine
 62
7
  6
CONTINUOUS
 10
-0.4946808815
 20
0.996941472
 11
-0.5585106611
 21
1.090691472
  0
LINE
  5
2C9
100
AcDbEntity
  8
0
100
AcDbLine
 62
7
  6
CONTINUOUS
 10
-0.175531894
 20
-1.6905586473
 11
-0.0797872245
 21
-1.8468087665
  0
LINE
  5
2CA
100
AcDbEntity
  8
0
100
AcDbLine
 62
7
  6
CONTINUOUS
 10
-0.7180851102
 20
-0.2843086473
 11
-0.6223404408
 21
-0.4405587665
  0
LINE
  5
2CB
100
AcDbEntity
  8
0
100
AcDbLine
 62
7
  6
CONTINUOUS
 10
0.7180851074
 20
-1.1905587665
 11
0.6223404296
 21
-1.0343086473
  0
LINE
  5
2CC
100
AcDbEntity
  8
0
100
AcDbLine
 62
7
  6
CONTINUOUS
 10
-0.7180851102
 20
1.0594412335
 11
-0.6542553306
 21
0.9344409951
  0
LINE
  5
2CD
100
AcDbEntity
  8
0
100
AcDbLine
 62
7
  6
CONTINUOUS
 10
-0.5585106611
 20
-0.2530587665
 11
-0.5904255509
 21
-0.1593087665
  0
LINE
  5
2CE
100
AcDbEntity
  8
0
100
AcDbLine
 62
7
  6
CONTINUOUS
 10
-0.0159574449
 20
-0.2530587665
 11
-0.0478723347
 21
-0.1593087665
  0
LINE
  5
2CF
100
AcDbEntity
  8
0
100
AcDbLine
 62
7
  6
CONTINUOUS
 10
-0.0159574449
 20
-1.6593087665
 11
-0.0478723347
 21
-1.5343088857
  0
LINE
  5
2D0
100
AcDbEntity
  8
0
100
AcDbLine
 62
7
  6
CONTINUOUS
 10
0.5585106388
 20
-1.2218086473
 11
0.5904255286
 21
-1.3468088857
  0
LINE
  5
2D1
100
AcDbEntity
  8
0
100
AcDbLine
 62
7
  6
CONTINUOUS
 10
-0.75
 20
-0.1280588857
 11
-0.7180851102
 21
-0.2843086473
  0
LINE
  5
2D2
100
AcDbEntity
  8
0
100
AcDbLine
 62
7
  6
CONTINUOUS
 10
-0.2074467838
 20
-1.5343088857
 11
-0.175531894
 21
-1.6905586473
  0
LINE
  5
2D3
100
AcDbEntity
  8
0
100
AcDbLine
 62
7
  6
CONTINUOUS
 10
-0.5585106611
 20
1.090691472
 11
-0.5904255509
 21
1.2469412335
  0
LINE
  5
2D4
100
AcDbEntity
  8
0
100
AcDbLine
 62
7
  6
CONTINUOUS
 10
-0.2074467838
 20
-0.1280588857
 11
-0.175531894
 21
-0.2843086473
  0
LINE
  5
2D5
100
AcDbEntity
  8
0
100
AcDbLine
 62
7
  6
CONTINUOUS
 10
-0.75
 20
1.278191472
 11
-0.7180851102
 21
1.0594412335
  0
LINE
  5
2D6
100
AcDbEntity
  8
ASSI
100
AcDbLine
 62
7
  6
CONTINUOUS
 10
0.292511
 20
10.3891132335
 11
0.292511
 21
10.9506532335
  0
LINE
  5
2D7
100
AcDbEntity
  8
ASSI
100
AcDbLine
 62
7
  6
CONTINUOUS
 10
0.292511
 20
19.1657032335
 11
0.292511
 21
19.7273002335
  0
LINE
  5
2D8
100
AcDbEntity
  8
DRAFT
100
AcDbLine
 62
7
  6
CONTINUOUS
 10
0.3
 20
28.3735353061
 11
0.3
 21
28.2464054372
  0
LINE
  5
2D9
100
AcDbEntity
  8
0
100
AcDbLine
 62
7
  6
CONTINUOUS
 10
0.344992
 20
-16.4813797665
 11
0.344992
 21
-16.9809597665
  0
LINE
  5
2DA
100
AcDbEntity
  8
0
100
AcDbLine
 62
7
  6
CONTINUOUS
 10
0.3670212775
 20
-1.8155588857
 11
0.3670212775
 21
-2.0030588857
  0
LINE
  5
2DB
100
AcDbEntity
  8
0
100
AcDbLine
 62
7
  6
CONTINUOUS
 10
0.3989361674
 20
0.903191472
 11
0.3989361674
 21
0.7469409951
  0
LINE
  5
2DC
100
AcDbEntity
  8
ASSI
100
AcDbLine
 62
7
  6
CONTINUOUS
 10
0.532317
 20
21.1449292335
 11
0.532317
 21
20.4351352335
  0
LINE
  5
2DD
100
AcDbEntity
  8
ASSI
100
AcDbLine
 62
7
  6
CONTINUOUS
 10
0.532317
 20
13.9301682335
 11
0.532317
 21
13.0858542335
  0
LINE
  5
2DE
100
AcDbEntity
  8
ASSI
100
AcDbLine
 62
7
  6
CONTINUOUS
 10
0.538205
 20
12.0416871673
 11
0.538205
 21
11.6682592335
  0
LINE
  5
2DF
100
AcDbEntity
  8
0
100
AcDbLine
 62
7
  6
CONTINUOUS
 10
0.5904255286
 20
1.4031909951
 11
0.5904255286
 21
1.2156909951
  0
LINE
  5
2E0
100
AcDbEntity
  8
0
100
AcDbLine
 62
7
  6
CONTINUOUS
 10
0.5904255286
 20
0.0594411143
 11
0.5904255286
 21
-0.1593087665
  0
LINE
  5
2E1
100
AcDbEntity
  8
0
100
AcDbLine
 62
7
  6
CONTINUOUS
 10
0.5904255286
 20
-1.3468088857
 11
0.5904255286
 21
-1.5343088857
  0
LINE
  5
2E2
100
AcDbEntity
  8
ASSI
100
AcDbLine
 62
7
  6
CONTINUOUS
 10
0.7
 20
8.5386262335
 11
0.7
 21
8.7219052335
  0
LINE
  5
2E3
100
AcDbEntity
  8
ASSI
100
AcDbLine
 62
7
  6
CONTINUOUS
 10
0.7
 20
9.1158102335
 11
0.7
 21
9.3030052335
  0
LINE
  5
2E4
100
AcDbEntity
  8
ASSI
100
AcDbLine
 62
7
  6
CONTINUOUS
 10
0.7
 20
9.6968352335
 11
0.7
 21
9.8801882335
  0
LINE
  5
2E5
100
AcDbEntity
  8
ASSI
100
AcDbLine
 62
7
  6
CONTINUOUS
 10
0.7
 20
10.0478822335
 11
0.7
 21
10.2428522335
  0
LINE
  5
2E6
100
AcDbEntity
  8
ASSI
100
AcDbLine
 62
7
  6
CONTINUOUS
 10
0.7
 20
11.0890792335
 11
0.7
 21
11.2957902335
  0
LINE
  5
2E7
100
AcDbEntity
  8
ASSI
100
AcDbLine
 62
7
  6
CONTINUOUS
 10
0.7
 20
11.4790642335
 11
0.7
 21
12.0465026488
  0
LINE
  5
2E8
100
AcDbEntity
  8
ASSI
100
AcDbLine
 62
7
  6
CONTINUOUS
 10
0.7
 20
12.8966702335
 11
0.7
 21
13.9301682335
  0
LINE
  5
2E9
100
AcDbEntity
  8
ASSI
100
AcDbLine
 62
7
  6
CONTINUOUS
 10
0.7
 20
14.7491532335
 11
0.7
 21
14.9382812335
  0
LINE
  5
2EA
100
AcDbEntity
  8
ASSI
100
AcDbLine
 62
7
  6
CONTINUOUS
 10
0.7
 20
15.2619172335
 11
0.7
 21
15.4452812335
  0
LINE
  5
2EB
100
AcDbEntity
  8
ASSI
100
AcDbLine
 62
7
  6
CONTINUOUS
 10
0.7
 20
16.1609062335
 11
0.7
 21
16.3734372335
  0
LINE
  5
2EC
100
AcDbEntity
  8
ASSI
100
AcDbLine
 62
7
  6
CONTINUOUS
 10
0.7
 20
17.2411082335
 11
0.7
 21
17.4302922335
  0
LINE
  5
2ED
100
AcDbEntity
  8
ASSI
100
AcDbLine
 62
7
  6
CONTINUOUS
 10
0.7
 20
18.1069232335
 11
0.7
 21
18.2960392335
  0
LINE
  5
2EE
100
AcDbEntity
  8
ASSI
100
AcDbLine
 62
7
  6
CONTINUOUS
 10
0.7
 20
18.8244732335
 11
0.7
 21
19.0194312335
  0
LINE
  5
2EF
100
AcDbEntity
  8
ASSI
100
AcDbLine
 62
7
  6
CONTINUOUS
 10
0.7
 20
19.8657372335
 11
0.7
 21
20.0724822335
  0
LINE
  5
2F0
100
AcDbEntity
  8
ASSI
100
AcDbLine
 62
7
  6
CONTINUOUS
 10
0.7
 20
20.2459402335
 11
0.7
 21
21.1449292335
  0
LINE
  5
2F1
100
AcDbEntity
  8
ASSI
100
AcDbLine
 62
7
  6
CONTINUOUS
 10
0.7
 20
21.7376502335
 11
0.7
 21
21.9267322335
  0
LINE
  5
2F2
100
AcDbEntity
  8
0
100
AcDbLine
 62
7
  6
CONTINUOUS
 10
0.731144
 20
-17.0876947665
 11
0.731144
 21
-16.3770997665
  0
LINE
  5
2F3
100
AcDbEntity
  8
0
100
AcDbLine
 62
7
  6
CONTINUOUS
 10
0.75
 20
-5.0030587516
 11
0.75
 21
-4.7530587665
  0
LINE
  5
2F4
100
AcDbEntity
  8
0
100
AcDbLine
 62
7
  6
CONTINUOUS
 10
0.75
 20
-3.6905587069
 11
0.75
 21
-3.5030587069
  0
LINE
  5
2F5
100
AcDbEntity
  8
0
100
AcDbLine
 62
7
  6
CONTINUOUS
 10
0.75
 20
-2.4405586473
 11
0.75
 21
-2.2530586473
  0
LINE
  5
2F6
100
AcDbEntity
  8
0
100
AcDbLine
 62
7
  6
CONTINUOUS
 10
0.75
 20
-1.5343088857
 11
0.75
 21
-1.3468088857
  0
LINE
  5
2F7
100
AcDbEntity
  8
0
100
AcDbLine
 62
7
  6
CONTINUOUS
 10
0.75
 20
-0.1280588857
 11
0.75
 21
0.0281912335
  0
LINE
  5
2F8
100
AcDbEntity
  8
0
100
AcDbLine
 62
7
  6
CONTINUOUS
 10
0.75
 20
1.184441472
 11
0.75
 21
1.4344412335
  0
LINE
  5
2F9
100
AcDbEntity
  8
DRAFT
100
AcDbLine
 62
7
  6
CONTINUOUS
 10
0.9
 20
27.1293967656
 11
0.9
 21
25.8644857015
  0
LINE
  5
2FA
100
AcDbEntity
  8
0
100
AcDbLine
 62
7
  6
CONTINUOUS
 10
1.2301797807
 20
-15.5387562644
 11
1.2301797807
 21
-15.0190629228
  0
LINE
  5
2FB
100
AcDbEntity
  8
0
100
AcDbLine
 62
7
  6
CONTINUOUS
 10
1.2301797807
 20
-14.2200091041
 11
1.2301797807
 21
-13.7181050058
  0
LINE
  5
2FC
100
AcDbEntity
  8
0
100
AcDbLine
 62
7
  6
CONTINUOUS
 10
1.23018
 20
-22.6245827665
 11
1.23018
 21
-22.1647527665
  0
LINE
  5
2FD
100
AcDbEntity
  8
0
100
AcDbLine
 62
7
  6
CONTINUOUS
 10
1.23018
 20
-21.1675987665
 11
1.23018
 21
-20.6458057665
  0
LINE
  5
2FE
100
AcDbEntity
  8
0
100
AcDbLine
 62
7
  6
CONTINUOUS
 10
1.23018
 20
-20.3649087665
 11
1.23018
 21
-19.8657227665
  0
LINE
  5
2FF
100
AcDbEntity
  8
0
100
AcDbLine
 62
7
  6
CONTINUOUS
 10
1.23018
 20
-19.1409937665
 11
1.23018
 21
-19.0678117665
  0
LINE
  5
300
100
AcDbEntity
  8
0
100
AcDbLine
 62
7
  6
CONTINUOUS
 10
1.23018
 20
-18.3401967665
 11
1.23018
 21
-17.8297447665
  0
LINE
  5
301
100
AcDbEntity
  8
0
100
AcDbLine
 62
7
  6
CONTINUOUS
 10
1.23018
 20
-17.7478087665
 11
1.23018
 21
-17.2316777665
  0
LINE
  5
302
100
AcDbEntity
  8
0
100
AcDbLine
 62
7
  6
CONTINUOUS
 10
1.23018
 20
-16.2419277665
 11
1.23018
 21
-15.6919797665
  0
LINE
  5
303
100
AcDbEntity
  8
RACCORDO
100
AcDbLine
 62
250
  6
CONTINUOUS
 10
1.7664139101
 20
-25.5396743732
 11
1.7664139101
 21
-25.7396709886
  0
LINE
  5
304
100
AcDbEntity
  8
RACCORDO
100
AcDbLine
 62
250
  6
CONTINUOUS
 10
1.7664139101
 20
-27.2664465443
 11
1.7664139101
 21
-27.4664431597
  0
LINE
  5
305
100
AcDbEntity
  8
RACCORDO
100
AcDbLine
 62
7
  6
CONTINUOUS
 10
1.775
 20
26.4969412335
 11
1.775
 21
24.0969336182
  0
LINE
  5
306
100
AcDbEntity
  8
0
100
AcDbLine
 62
7
  6
CONTINUOUS
 10
0.5904255286
 20
1.2156909951
 11
0.5585106388
 21
1.0594412335
  0
LINE
  5
307
100
AcDbEntity
  8
0
100
AcDbLine
 62
7
  6
CONTINUOUS
 10
0.7180851074
 20
-0.2843086473
 11
0.75
 21
-0.1280588857
  0
LINE
  5
308
100
AcDbEntity
  8
0
100
AcDbLine
 62
7
  6
CONTINUOUS
 10
0.7180851074
 20
-1.6905586473
 11
0.75
 21
-1.5343088857
  0
LINE
  5
309
100
AcDbEntity
  8
0
100
AcDbLine
 62
7
  6
CONTINUOUS
 10
-0.0478723347
 20
-1.3468088857
 11
-0.0159574449
 21
-1.2218086473
  0
LINE
  5
30A
100
AcDbEntity
  8
0
100
AcDbLine
 62
7
  6
CONTINUOUS
 10
0.7180851074
 20
1.0594412335
 11
0.75
 21
1.184441472
  0
LINE
  5
30B
100
AcDbEntity
  8
0
100
AcDbLine
 62
7
  6
CONTINUOUS
 10
0.5904255286
 20
-1.5343088857
 11
0.5585106388
 21
-1.6593087665
  0
LINE
  5
30C
100
AcDbEntity
  8
0
100
AcDbLine
 62
7
  6
CONTINUOUS
 10
0.5904255286
 20
-0.1593087665
 11
0.5585106388
 21
-0.2530587665
  0
LINE
  5
30D
100
AcDbEntity
  8
0
100
AcDbLine
 62
7
  6
CONTINUOUS
 10
-0.0797872245
 20
-1.0343086473
 11
-0.175531894
 21
-1.1905587665
  0
LINE
  5
30E
100
AcDbEntity
  8
0
100
AcDbLine
 62
7
  6
CONTINUOUS
 10
0.6223404296
 20
-0.4405587665
 11
0.7180851074
 21
-0.2843086473
  0
LINE
  5
30F
100
AcDbEntity
  8
0
100
AcDbLine
 62
7
  6
CONTINUOUS
 10
0.6223404296
 20
-1.8468087665
 11
0.7180851074
 21
-1.6905586473
  0
LINE
  5
310
100
AcDbEntity
  8
0
100
AcDbLine
 62
7
  6
CONTINUOUS
 10
0.5585106388
 20
-0.2530587665
 11
0.4946808591
 21
-0.3468087665
  0
LINE
  5
311
100
AcDbEntity
  8
0
100
AcDbLine
 62
7
  6
CONTINUOUS
 10
-0.0159574449
 20
-1.2218086473
 11
0.0478723347
 21
-1.1280586473
  0
LINE
  5
312
100
AcDbEntity
  8
0
100
AcDbLine
 62
7
  6
CONTINUOUS
 10
0.5585106388
 20
-1.6593087665
 11
0.4946808591
 21
-1.7530587665
  0
LINE
  5
313
100
AcDbEntity
  8
0
100
AcDbLine
 62
7
  6
CONTINUOUS
 10
0.4946808591
 20
-0.5343087665
 11
0.6223404296
 21
-0.4405587665
  0
LINE
  5
314
100
AcDbEntity
  8
0
100
AcDbLine
 62
7
  6
CONTINUOUS
 10
0.0478723347
 20
-0.9405586473
 11
-0.0797872245
 21
-1.0343086473
  0
LINE
  5
315
100
AcDbEntity
  8
0
100
AcDbLine
 62
7
  6
CONTINUOUS
 10
0.4946808591
 20
-1.9405587665
 11
0.6223404296
 21
-1.8468087665
  0
LINE
  5
316
100
AcDbEntity
  8
0
100
AcDbLine
 62
7
  6
CONTINUOUS
 10
0.4946808591
 20
-0.3468087665
 11
0.3989361674
 21
-0.4093088857
  0
LINE
  5
317
100
AcDbEntity
  8
0
100
AcDbLine
 62
7
  6
CONTINUOUS
 10
0.0478723347
 20
-1.1280586473
 11
0.1436170042
 21
-1.0655588857
  0
LINE
  5
318
100
AcDbEntity
  8
0
100
AcDbLine
 62
7
  6
CONTINUOUS
 10
0.4946808591
 20
-1.7530587665
 11
0.3670212775
 21
-1.8155588857
  0
LINE
  5
319
100
AcDbEntity
  8
0
100
AcDbLine
 62
7
  6
CONTINUOUS
 10
0.3670212775
 20
-2.0030588857
 11
0.4946808591
 21
-1.9405587665
  0
LINE
  5
31A
100
AcDbEntity
  8
0
100
AcDbLine
 62
7
  6
CONTINUOUS
 10
0.3351063877
 20
-0.5968088857
 11
0.4946808591
 21
-0.5343087665
  0
LINE
  5
31B
100
AcDbEntity
  8
0
100
AcDbLine
 62
7
  6
CONTINUOUS
 10
0.2074468285
 20
-0.8780588857
 11
0.0478723347
 21
-0.9405586473
  0
LINE
  5
31C
100
AcDbEntity
  8
0
100
AcDbLine
 62
7
  6
CONTINUOUS
 10
0.3989361674
 20
-0.4093088857
 11
0.3031914979
 21
-0.4405587665
  0
LINE
  5
31D
100
AcDbEntity
  8
0
100
AcDbLine
 62
7
  6
CONTINUOUS
 10
0.1436170042
 20
-1.0655588857
 11
0.2393617183
 21
-1.0343086473
  0
LINE
  5
31E
100
AcDbEntity
  8
0
100
AcDbLine
 62
7
  6
CONTINUOUS
 10
0.2712766081
 20
1.8719409951
 11
0.1436170042
 21
1.840691472
  0
LINE
  5
31F
100
AcDbEntity
  8
0
100
AcDbLine
 62
7
  6
CONTINUOUS
 10
-0.3989362121
 20
1.840691472
 11
-0.5265957713
 21
1.8094412335
  0
LINE
  5
320
100
AcDbEntity
  8
0
100
AcDbLine
 62
7
  6
CONTINUOUS
 10
0.2074468285
 20
0.3406911143
 11
0.3031914979
 21
0.3406911143
  0
LINE
  5
321
100
AcDbEntity
  8
0
100
AcDbLine
 62
7
  6
CONTINUOUS
 10
0.3351063877
 20
0.4969412335
 11
0.175531894
 21
0.4969412335
  0
LINE
  5
322
100
AcDbEntity
  8
0
100
AcDbLine
 62
7
  6
CONTINUOUS
 10
-0.0797872245
 20
1.2469412335
 11
0.0478723347
 21
1.2469412335
  0
LINE
  5
323
100
AcDbEntity
  8
0
100
AcDbLine
 62
7
  6
CONTINUOUS
 10
-0.3989362121
 20
1.6844409951
 11
-0.335106343
 21
1.6844409951
  0
LINE
  5
324
100
AcDbEntity
  8
0
100
AcDbLine
 62
7
  6
CONTINUOUS
 10
0.2712766081
 20
1.7156912335
 11
0.3989361674
 21
1.7156912335
  0
LINE
  5
325
100
AcDbEntity
  8
0
100
AcDbLine
 62
7
  6
CONTINUOUS
 10
-0.335106343
 20
1.840691472
 11
-0.3989362121
 21
1.840691472
  0
LINE
  5
326
100
AcDbEntity
  8
0
100
AcDbLine
 62
7
  6
CONTINUOUS
 10
0.3989361674
 20
1.8719409951
 11
0.2712766081
 21
1.8719409951
  0
LINE
  5
327
100
AcDbEntity
  8
0
100
AcDbLine
 62
7
  6
CONTINUOUS
 10
-0.5265957713
 20
0.809441472
 11
-0.3989362121
 21
0.7781912335
  0
LINE
  5
328
100
AcDbEntity
  8
0
100
AcDbLine
 62
7
  6
CONTINUOUS
 10
-0.2074467838
 20
1.8094412335
 11
-0.335106343
 21
1.840691472
  0
LINE
  5
329
100
AcDbEntity
  8
0
100
AcDbLine
 62
7
  6
CONTINUOUS
 10
0.3031914979
 20
0.3406911143
 11
0.3989361674
 21
0.3094412335
  0
LINE
  5
32A
100
AcDbEntity
  8
0
100
AcDbLine
 62
7
  6
CONTINUOUS
 10
0.4946808591
 20
1.840691472
 11
0.3989361674
 21
1.8719409951
  0
LINE
  5
32B
100
AcDbEntity
  8
0
100
AcDbLine
 62
7
  6
CONTINUOUS
 10
0.4946808591
 20
0.4344411143
 11
0.3351063877
 21
0.4969412335
  0
LINE
  5
32C
100
AcDbEntity
  8
0
100
AcDbLine
 62
7
  6
CONTINUOUS
 10
-0.335106343
 20
1.6844409951
 11
-0.2074467838
 21
1.6219412335
  0
LINE
  5
32D
100
AcDbEntity
  8
0
100
AcDbLine
 62
7
  6
CONTINUOUS
 10
0.3989361674
 20
1.7156912335
 11
0.462765947
 21
1.6844409951
  0
LINE
  5
32E
100
AcDbEntity
  8
0
100
AcDbLine
 62
7
  6
CONTINUOUS
 10
0.3989361674
 20
0.3094412335
 11
0.4946808591
 21
0.2469411143
  0
LINE
  5
32F
100
AcDbEntity
  8
0
100
AcDbLine
 62
7
  6
CONTINUOUS
 10
-0.3989362121
 20
0.9344409951
 11
-0.4946808815
 21
0.996941472
  0
LINE
  5
330
100
AcDbEntity
  8
0
100
AcDbLine
 62
7
  6
CONTINUOUS
 10
-0.1117021143
 20
1.746941472
 11
-0.2074467838
 21
1.8094412335
  0
LINE
  5
331
100
AcDbEntity
  8
0
100
AcDbLine
 62
7
  6
CONTINUOUS
 10
0.5904255286
 20
1.7781909951
 11
0.4946808591
 21
1.840691472
  0
LINE
  5
332
100
AcDbEntity
  8
0
100
AcDbLine
 62
7
  6
CONTINUOUS
 10
0.6223404296
 20
0.3406911143
 11
0.4946808591
 21
0.4344411143
  0
LINE
  5
333
100
AcDbEntity
  8
0
100
AcDbLine
 62
7
  6
CONTINUOUS
 10
-0.2074467838
 20
1.6219412335
 11
-0.1436170042
 21
1.559441472
  0
LINE
  5
334
100
AcDbEntity
  8
0
100
AcDbLine
 62
7
  6
CONTINUOUS
 10
0.462765947
 20
1.6844409951
 11
0.526595749
 21
1.6219412335
  0
LINE
  5
335
100
AcDbEntity
  8
0
100
AcDbLine
 62
7
  6
CONTINUOUS
 10
-0.0159574449
 20
1.6219412335
 11
-0.1117021143
 21
1.746941472
  0
LINE
  5
336
100
AcDbEntity
  8
0
100
AcDbLine
 62
7
  6
CONTINUOUS
 10
0.4946808591
 20
0.2469411143
 11
0.5585106388
 21
0.1531911143
  0
LINE
  5
337
100
AcDbEntity
  8
0
100
AcDbLine
 62
7
  6
CONTINUOUS
 10
0.6542553194
 20
1.6844409951
 11
0.5904255286
 21
1.7781909951
  0
LINE
  5
338
100
AcDbEntity
  8
0
100
AcDbLine
 62
7
  6
CONTINUOUS
 10
0.7180851074
 20
0.1844413527
 11
0.6223404296
 21
0.3406911143
  0
LINE
  5
339
100
AcDbEntity
  8
0
100
AcDbLine
 62
7
  6
CONTINUOUS
 10
0.526595749
 20
1.6219412335
 11
0.5585106388
 21
1.559441472
  0
LINE
  5
33A
100
AcDbEntity
  8
0
100
AcDbLine
 62
7
  6
CONTINUOUS
 10
0.7180851074
 20
1.559441472
 11
0.6542553194
 21
1.6844409951
  0
LINE
  5
33B
100
AcDbEntity
  8
0
100
AcDbLine
 62
7
  6
CONTINUOUS
 10
-0.1436170042
 20
1.559441472
 11
-0.0797872245
 21
1.371941472
  0
LINE
  5
33C
100
AcDbEntity
  8
0
100
AcDbLine
 62
7
  6
CONTINUOUS
 10
0.5585106388
 20
0.1531911143
 11
0.5904255286
 21
0.0594411143
  0
LINE
  5
33D
100
AcDbEntity
  8
0
100
AcDbLine
 62
7
  6
CONTINUOUS
 10
0.75
 20
1.4344412335
 11
0.7180851074
 21
1.559441472
  0
LINE
  5
33E
100
AcDbEntity
  8
0
100
AcDbLine
 62
7
  6
CONTINUOUS
 10
0.75
 20
-1.3468088857
 11
0.7180851074
 21
-1.1905587665
  0
LINE
  5
33F
100
AcDbEntity
  8
0
100
AcDbLine
 62
7
  6
CONTINUOUS
 10
0.75
 20
0.0281912335
 11
0.7180851074
 21
0.1844413527
  0
LINE
  5
340
100
AcDbEntity
  8
0
100
AcDbLine
 62
7
  6
CONTINUOUS
 10
0.5585106388
 20
1.559441472
 11
0.5904255286
 21
1.4031909951
  0
LINE
  5
341
100
AcDbEntity
  8
RACCORDO
100
AcDbLine
 62
7
  6
CONTINUOUS
 10
2.5912731322
 20
-25.5396743732
 11
2.5912731322
 21
-24.6899686774
  0
LINE
  5
342
100
AcDbEntity
  8
0
100
AcDbLine
 62
7
  6
CONTINUOUS
 10
2.6
 20
23.6969488489
 11
2.6
 21
1.9247574255
  0
LINE
  5
343
100
AcDbEntity
  8
0
100
AcDbLine
 62
7
  6
CONTINUOUS
 10
2.6
 20
-4.9308749585
 11
2.6
 21
-24.4857771074
  0
LINE
  5
344
100
AcDbEntity
  8
0
100
AcDbLine
 62
7
  6
CONTINUOUS
 10
0.5585106388
 20
-4.8780587814
 11
-0.75
 21
-5.3155587665
  0
LINE
  5
345
100
AcDbEntity
  8
0
100
AcDbLine
 62
7
  6
CONTINUOUS
 10
-0.75
 20
-5.5030587665
 11
0.75
 21
-5.0030587516
  0
LINE
  5
346
100
AcDbEntity
  8
ASSI
100
AcDbLine
 62
7
  6
CONTINUOUS
 10
-0.7
 20
8.5386262335
 11
0.7
 21
8.5386262335
  0
LINE
  5
347
100
AcDbEntity
  8
ASSI
100
AcDbLine
 62
7
  6
CONTINUOUS
 10
0.7
 20
8.7219052335
 11
-0.473894
 21
8.7219052335
  0
LINE
  5
348
100
AcDbEntity
  8
ASSI
100
AcDbLine
 62
7
  6
CONTINUOUS
 10
-0.475819
 20
9.6968352335
 11
0.7
 21
9.6968352335
  0
LINE
  5
349
100
AcDbEntity
  8
ASSI
100
AcDbLine
 62
7
  6
CONTINUOUS
 10
0.7
 20
9.8801882335
 11
-0.7
 21
9.8801882335
  0
LINE
  5
34A
100
AcDbEntity
  8
ASSI
100
AcDbLine
 62
7
  6
CONTINUOUS
 10
0.7
 20
9.3030052335
 11
-0.475819
 21
9.6968352335
  0
LINE
  5
34B
100
AcDbEntity
  8
ASSI
100
AcDbLine
 62
7
  6
CONTINUOUS
 10
-0.7
 20
9.6110692335
 11
0.489326
 21
9.2113322335
  0
LINE
  5
34C
100
AcDbEntity
  8
ASSI
100
AcDbLine
 62
7
  6
CONTINUOUS
 10
0.7
 20
10.2428522335
 11
0.292511
 21
10.3891132335
  0
LINE
  5
34D
100
AcDbEntity
  8
ASSI
100
AcDbLine
 62
7
  6
CONTINUOUS
 10
0.124828
 20
10.4476272335
 11
-0.496932
 21
10.6738802335
  0
LINE
  5
34E
100
AcDbEntity
  8
ASSI
100
AcDbLine
 62
7
  6
CONTINUOUS
 10
-0.7
 20
10.5743232335
 11
0.7
 21
10.0478822335
  0
LINE
  5
34F
100
AcDbEntity
  8
ASSI
100
AcDbLine
 62
7
  6
CONTINUOUS
 10
-0.7
 20
11.4790642335
 11
0.7
 21
11.4790642335
  0
LINE
  5
350
100
AcDbEntity
  8
ASSI
100
AcDbLine
 62
7
  6
CONTINUOUS
 10
0.538205
 20
11.6682592335
 11
-0.538205
 21
11.6682592335
  0
LINE
  5
351
100
AcDbEntity
  8
RACCORDO
100
AcDbLine
 62
250
  6
CONTINUOUS
 10
1.5839751144
 20
-25.6480600314
 11
1.590832432
 21
-25.6354347405
  0
LINE
  5
352
100
AcDbEntity
  8
ASSI
100
AcDbLine
 62
7
  6
CONTINUOUS
 10
-0.7
 20
12.8966702335
 11
0.7
 21
12.8966702335
  0
LINE
  5
353
100
AcDbEntity
  8
ASSI
100
AcDbLine
 62
7
  6
CONTINUOUS
 10
0.532317
 20
13.0858542335
 11
0.064367
 21
13.0858542335
  0
LINE
  5
354
100
AcDbEntity
  8
ASSI
100
AcDbLine
 62
7
  6
CONTINUOUS
 10
-0.103316
 20
13.0858542335
 11
-0.532317
 21
13.0858542335
  0
LINE
  5
355
100
AcDbEntity
  8
ASSI
100
AcDbLine
 62
7
  6
CONTINUOUS
 10
0.064367
 20
13.8521572335
 11
-0.103316
 21
13.8521572335
  0
LINE
  5
356
100
AcDbEntity
  8
RACCORDO
100
AcDbLine
 62
250
  6
CONTINUOUS
 10
1.5908324346
 20
-27.3706827877
 11
1.6015164967
 21
-27.3532769017
  0
LINE
  5
357
100
AcDbEntity
  8
0
100
AcDbLine
 62
7
  6
CONTINUOUS
 10
1.23018
 20
-15.6919797665
 11
-1.269556
 21
-16.4589607665
  0
LINE
  5
358
100
AcDbEntity
  8
ASSI
100
AcDbLine
 62
7
  6
CONTINUOUS
 10
-0.532317
 20
13.9165022335
 11
-0.7
 21
13.9165022335
  0
LINE
  5
359
100
AcDbEntity
  8
ASSI
100
AcDbLine
 62
7
  6
CONTINUOUS
 10
0.7
 20
13.9301682335
 11
0.532317
 21
13.9301682335
  0
LINE
  5
35A
100
AcDbEntity
  8
ASSI
100
AcDbLine
 62
7
  6
CONTINUOUS
 10
-0.7
 20
14.7491532335
 11
0.7
 21
14.7491532335
  0
LINE
  5
35B
100
AcDbEntity
  8
ASSI
100
AcDbLine
 62
7
  6
CONTINUOUS
 10
0.7
 20
14.9382812335
 11
-0.7
 21
14.9382812335
  0
LINE
  5
35C
100
AcDbEntity
  8
ASSI
100
AcDbLine
 62
7
  6
CONTINUOUS
 10
-0.7
 20
15.2619172335
 11
0.7
 21
15.2619172335
  0
LINE
  5
35D
100
AcDbEntity
  8
ASSI
100
AcDbLine
 62
7
  6
CONTINUOUS
 10
0.7
 20
15.4452812335
 11
-0.436968
 21
15.4452812335
  0
LINE
  5
35E
100
AcDbEntity
  8
ASSI
100
AcDbLine
 62
7
  6
CONTINUOUS
 10
-0.7
 20
16.1901632335
 11
0.437198
 21
16.1901632335
  0
LINE
  5
35F
100
AcDbEntity
  8
ASSI
100
AcDbLine
 62
7
  6
CONTINUOUS
 10
0.7
 20
16.3734372335
 11
-0.7
 21
16.3734372335
  0
LINE
  5
360
100
AcDbEntity
  8
ASSI
100
AcDbLine
 62
7
  6
CONTINUOUS
 10
-0.7
 20
17.2411082335
 11
0.7
 21
17.2411082335
  0
LINE
  5
361
100
AcDbEntity
  8
ASSI
100
AcDbLine
 62
7
  6
CONTINUOUS
 10
0.7
 20
17.4302922335
 11
-0.7
 21
17.4302922335
  0
LINE
  5
362
100
AcDbEntity
  8
ASSI
100
AcDbLine
 62
7
  6
CONTINUOUS
 10
-0.7
 20
17.6330862335
 11
-0.532317
 21
17.6330862335
  0
LINE
  5
363
100
AcDbEntity
  8
0
100
AcDbLine
 62
7
  6
CONTINUOUS
 10
-0.4021
 20
-19.7531197665
 11
1.23018
 21
-19.1409937665
  0
LINE
  5
364
100
AcDbEntity
  8
0
100
AcDbLine
 62
7
  6
CONTINUOUS
 10
0.118305
 20
-19.1015537665
 11
-1.269556
 21
-19.6178357665
  0
LINE
  5
365
100
AcDbEntity
  8
ASSI
100
AcDbLine
 62
7
  6
CONTINUOUS
 10
-0.532317
 20
18.1069232335
 11
0.7
 21
18.1069232335
  0
LINE
  5
366
100
AcDbEntity
  8
ASSI
100
AcDbLine
 62
7
  6
CONTINUOUS
 10
0.7
 20
18.2960392335
 11
-0.532317
 21
18.2960392335
  0
LINE
  5
367
100
AcDbEntity
  8
ASSI
100
AcDbLine
 62
7
  6
CONTINUOUS
 10
-0.532317
 20
18.7698762335
 11
-0.7
 21
18.7698762335
  0
LINE
  5
368
100
AcDbEntity
  8
ASSI
100
AcDbLine
 62
7
  6
CONTINUOUS
 10
0.7
 20
19.0194312335
 11
0.292511
 21
19.1657032335
  0
LINE
  5
369
100
AcDbEntity
  8
ASSI
100
AcDbLine
 62
7
  6
CONTINUOUS
 10
0.124828
 20
19.2242062335
 11
-0.496932
 21
19.4504482335
  0
LINE
  5
36A
100
AcDbEntity
  8
ASSI
100
AcDbLine
 62
7
  6
CONTINUOUS
 10
-0.7
 20
19.3509812335
 11
0.7
 21
18.8244732335
  0
LINE
  5
36B
100
AcDbEntity
  8
ASSI
100
AcDbLine
 62
7
  6
CONTINUOUS
 10
-0.7
 20
22.2328872335
 11
-0.02723
 21
21.8312852335
  0
LINE
  5
36C
100
AcDbEntity
  8
ASSI
100
AcDbLine
 62
7
  6
CONTINUOUS
 10
0.13649
 20
21.9267322335
 11
-0.7
 21
22.4552562335
  0
LINE
  5
36D
100
AcDbEntity
  8
ASSI
100
AcDbLine
 62
7
  6
CONTINUOUS
 10
-0.7
 20
20.2459402335
 11
0.7
 21
20.2459402335
  0
LINE
  5
36E
100
AcDbEntity
  8
ASSI
100
AcDbLine
 62
7
  6
CONTINUOUS
 10
0.532317
 20
20.4351352335
 11
-0.7
 21
20.4351352335
  0
LINE
  5
36F
100
AcDbEntity
  8
ASSI
100
AcDbLine
 62
7
  6
CONTINUOUS
 10
0.7
 20
21.1449292335
 11
0.532317
 21
21.1449292335
  0
LINE
  5
370
100
AcDbEntity
  8
DRAFT
100
AcDbLine
 62
7
  6
CONTINUOUS
 10
-0.3
 20
28.3735353061
 11
-0.8464181415
 21
28.8320345671
  0
LINE
  5
371
100
AcDbEntity
  8
RACCORDO
100
AcDbLine
 62
7
  6
CONTINUOUS
 10
2.467122717
 20
-25.7454854338
 11
2.4575605678
 21
-25.7530587665
  0
LINE
  5
372
100
AcDbEntity
  8
RACCORDO
100
AcDbLine
 62
250
  6
CONTINUOUS
 10
1.5908324346
 20
-25.6354347453
 11
1.7664139101
 21
-25.5396743732
  0
LINE
  5
373
100
AcDbEntity
  8
0
100
AcDbLine
 62
7
  6
CONTINUOUS
 10
-1.269556
 20
-23.4170477665
 11
1.23018
 21
-22.6245827665
  0
LINE
  5
374
100
AcDbEntity
  8
ASSI
100
AcDbLine
 62
7
  6
CONTINUOUS
 10
0.13649
 20
21.7376502335
 11
0.7
 21
21.7376502335
  0
LINE
  5
375
100
AcDbEntity
  8
ASSI
100
AcDbLine
 62
7
  6
CONTINUOUS
 10
0.7
 20
21.9267322335
 11
0.13649
 21
21.9267322335
  0
LINE
  5
376
100
AcDbEntity
  8
RACCORDO
100
AcDbLine
 62
7
  6
CONTINUOUS
 10
-2.4000076154
 20
23.8969412335
 11
-1.9749923846
 21
23.8969412335
  0
LINE
  5
377
100
AcDbEntity
  8
RACCORDO
100
AcDbLine
 62
7
  6
CONTINUOUS
 10
1.9749923846
 20
23.8969412335
 11
2.4000076154
 21
23.8969412335
  0
LINE
  5
378
100
AcDbEntity
  8
DRAFT
100
AcDbLine
 62
7
  6
CONTINUOUS
 10
0.632455532
 20
25.5969412335
 11
-0.632455532
 21
25.5969412335
  0
LINE
  5
379
100
AcDbEntity
  8
DRAFT
100
AcDbLine
 62
7
  6
CONTINUOUS
 10
-0.632455532
 20
27.3969412335
 11
0.632455532
 21
27.3969412335
  0
LINE
  5
37A
100
AcDbEntity
  8
DRAFT
100
AcDbLine
 62
7
  6
CONTINUOUS
 10
-0.75
 20
29.0969412335
 11
0.75
 21
29.0969412335
  0
ARC
  5
37B
100
AcDbEntity
  8
0
100
AcDbCircle
 62
7
  6
CONTINUOUS
 10
-12.1
 20
-1.5030587665
 40
10.0
100
AcDbArc
 50
343.4021048262
 51
16.5978951738
  0
ARC
  5
37C
100
AcDbEntity
  8
RACCORDO
100
AcDbCircle
 62
250
  6
CONTINUOUS
 10
-3.3866481024
 20
-29.7386648715
 40
5.7154100103
100
AcDbArc
 50
25.6296958374
 51
25.7786446898
  0
ARC
  5
37D
100
AcDbEntity
  8
RACCORDO
100
AcDbCircle
 62
250
  6
CONTINUOUS
 10
-3.3866480527
 20
-23.2674527029
 40
5.7154099475
100
AcDbArc
 50
334.2213554678
 51
334.3703043216
  0
ARC
  5
37E
100
AcDbEntity
  8
0
100
AcDbCircle
 62
7
  6
CONTINUOUS
 10
-0.5999699737
 20
-4.9308904465
 40
2.0000300264
100
AcDbArc
 50
163.4025485187
 51
179.9995563075
  0
ARC
  5
37F
100
AcDbEntity
  8
0
100
AcDbCircle
 62
7
  6
CONTINUOUS
 10
-0.5999700109
 20
1.9247729081
 40
2.0000299892
100
AcDbArc
 50
180.0004435371
 51
196.5974516367
  0
ARC
  5
380
100
AcDbEntity
  8
DRAFT
100
AcDbCircle
 62
7
  6
CONTINUOUS
 10
-1.1136931804
 20
27.6106344139
 40
0.3
100
AcDbArc
 50
82.8616290878
 51
187.1383709122
  0
ARC
  5
381
100
AcDbEntity
  8
DRAFT
100
AcDbCircle
 62
7
  6
CONTINUOUS
 10
-0.75
 20
28.9469412335
 40
0.15
100
AcDbArc
 50
90.0
 51
230.0
  0
ARC
  5
382
100
AcDbEntity
  8
0
100
AcDbCircle
 62
7
  6
CONTINUOUS
 10
12.1
 20
-1.5030587665
 40
10.0
100
AcDbArc
 50
163.4021048262
 51
196.5978951738
  0
ARC
  5
383
100
AcDbEntity
  8
RACCORDO
100
AcDbCircle
 62
7
  6
CONTINUOUS
 10
-0.0
 20
-26.5030587665
 40
2.6
100
AcDbArc
 50
180.0
 51
309.1153368233
  0
ARC
  5
384
100
AcDbEntity
  8
RACCORDO
100
AcDbCircle
 62
7
  6
CONTINUOUS
 10
-0.0
 20
-26.5030587665
 40
2.5912731322
100
AcDbArc
 50
315.5977942415
 51
338.1745428744
  0
ARC
  5
385
100
AcDbEntity
  8
DRAFT
100
AcDbCircle
 62
7
  6
CONTINUOUS
 10
-0.0
 20
-26.5030587665
 40
2.5694559627
100
AcDbArc
 50
343.0288235545
 51
16.9711764455
  0
ARC
  5
386
100
AcDbEntity
  8
RACCORDO
100
AcDbCircle
 62
250
  6
CONTINUOUS
 10
-0.0
 20
-26.5030587665
 40
2.017281327
100
AcDbArc
 50
90.0
 51
270.0
  0
ARC
  5
387
100
AcDbEntity
  8
RACCORDO
100
AcDbCircle
 62
250
  6
CONTINUOUS
 10
-0.0
 20
-26.5030587665
 40
2.0120456235
100
AcDbArc
 50
28.6066321628
 51
64.3053858636
  0
ARC
  5
388
100
AcDbEntity
  8
RACCORDO
100
AcDbCircle
 62
250
  6
CONTINUOUS
 10
-0.0
 20
-26.5030587665
 40
2.0120456235
100
AcDbArc
 50
295.6946141364
 51
331.3935659745
  0
ARC
  5
389
100
AcDbEntity
  8
0
100
AcDbCircle
 62
7
  6
CONTINUOUS
 10
0.5999700109
 20
-4.9308904411
 40
2.0000299892
100
AcDbArc
 50
0.0004435371
 51
16.5974516367
  0
ARC
  5
38A
100
AcDbEntity
  8
RACCORDO
100
AcDbCircle
 62
7
  6
CONTINUOUS
 10
-0.0
 20
-26.5030587665
 40
1.8172844006
100
AcDbArc
 50
90.0
 51
270.0
  0
ARC
  5
38B
100
AcDbEntity
  8
RACCORDO
100
AcDbCircle
 62
7
  6
CONTINUOUS
 10
-0.0
 20
-26.5030587665
 40
1.812048365
100
AcDbArc
 50
28.6076073409
 51
90.0
  0
ARC
  5
38C
100
AcDbEntity
  8
RACCORDO
100
AcDbCircle
 62
7
  6
CONTINUOUS
 10
-0.0
 20
-26.5030587665
 40
1.812048365
100
AcDbArc
 50
270.0
 51
331.3923926556
  0
ARC
  5
38D
100
AcDbEntity
  8
DRAFT
100
AcDbCircle
 62
7
  6
CONTINUOUS
 10
-0.0
 20
-26.5030587665
 40
1.8
100
AcDbArc
 50
90.0
 51
270.0
  0
ARC
  5
38E
100
AcDbEntity
  8
RACCORDO
100
AcDbCircle
 62
7
  6
CONTINUOUS
 10
-0.0
 20
-26.5030587665
 40
1.8
100
AcDbArc
 50
331.6406957268
 51
28.3593042732
  0
ARC
  5
38F
100
AcDbEntity
  8
RACCORDO
100
AcDbCircle
 62
7
  6
CONTINUOUS
 10
1.7683293712
 20
-27.4680240267
 40
0.2024549276
100
AcDbArc
 50
137.6610404336
 51
145.4766427789
  0
ARC
  5
390
100
AcDbEntity
  8
RACCORDO
100
AcDbCircle
 62
7
  6
CONTINUOUS
 10
1.7602079192
 20
-25.5528374181
 40
0.2003131238
100
AcDbArc
 50
208.3833665868
 51
242.5619961786
  0
ARC
  5
391
100
AcDbEntity
  8
RACCORDO
100
AcDbCircle
 62
7
  6
CONTINUOUS
 10
1.7663914038
 20
-25.5397110503
 40
0.1999599395
100
AcDbArc
 50
208.6014686109
 51
270.0064488843
  0
ARC
  5
392
100
AcDbEntity
  8
RACCORDO
100
AcDbCircle
 62
7
  6
CONTINUOUS
 10
1.7663600622
 20
-27.4662532948
 40
0.1998066527
100
AcDbArc
 50
90.2908603315
 51
137.6560273714
  0
ARC
  5
393
100
AcDbEntity
  8
RACCORDO
100
AcDbCircle
 62
7
  6
CONTINUOUS
 10
1.7595293557
 20
-27.4522126765
 40
0.1990530885
100
AcDbArc
 50
110.5056755509
 51
117.3383213219
  0
ARC
  5
394
100
AcDbEntity
  8
RACCORDO
100
AcDbCircle
 62
7
  6
CONTINUOUS
 10
1.7590383929
 20
-27.4526371666
 40
0.1989785529
100
AcDbArc
 50
144.5467960684
 51
151.6194268064
  0
ARC
  5
395
100
AcDbEntity
  8
RACCORDO
100
AcDbCircle
 62
7
  6
CONTINUOUS
 10
1.7600434772
 20
-25.5540820306
 40
0.1989767496
100
AcDbArc
 50
262.9060781263
 51
269.9787297327
  0
ARC
  5
396
100
AcDbEntity
  8
0
100
AcDbCircle
 62
7
  6
CONTINUOUS
 10
0.5999699737
 20
1.9247729136
 40
2.0000300264
100
AcDbArc
 50
343.4025485187
 51
359.9995563075
  0
ARC
  5
397
100
AcDbEntity
  8
DRAFT
100
AcDbCircle
 62
7
  6
CONTINUOUS
 10
0.0
 20
26.4969412335
 40
1.775
100
AcDbArc
 50
142.6681809076
 51
180.0
  0
ARC
  5
398
100
AcDbEntity
  8
DRAFT
100
AcDbCircle
 62
7
  6
CONTINUOUS
 10
0.0
 20
26.4969412335
 40
1.775
100
AcDbArc
 50
99.7305008036
 51
127.3318190924
  0
ARC
  5
399
100
AcDbEntity
  8
DRAFT
100
AcDbCircle
 62
7
  6
CONTINUOUS
 10
0.0
 20
26.4969412335
 40
1.775
100
AcDbArc
 50
52.6681809076
 51
80.2694991964
  0
ARC
  5
39A
100
AcDbEntity
  8
DRAFT
100
AcDbCircle
 62
7
  6
CONTINUOUS
 10
0.0
 20
26.4969412335
 40
1.775
100
AcDbArc
 50
0.0
 51
37.3318190924
  0
ARC
  5
39B
100
AcDbEntity
  8
DRAFT
100
AcDbCircle
 62
7
  6
CONTINUOUS
 10
0.0
 20
26.4969412335
 40
1.1
100
AcDbArc
 50
35.0968012276
 51
54.9031987724
  0
ARC
  5
39C
100
AcDbEntity
  8
DRAFT
100
AcDbCircle
 62
7
  6
CONTINUOUS
 10
0.0
 20
26.4969412335
 40
1.1
100
AcDbArc
 50
125.0968012276
 51
144.9031987724
  0
ARC
  5
39D
100
AcDbEntity
  8
DRAFT
100
AcDbCircle
 62
7
  6
CONTINUOUS
 10
0.0
 20
26.4969412335
 40
1.1
100
AcDbArc
 50
215.0968012276
 51
234.9031987724
  0
ARC
  5
39E
100
AcDbEntity
  8
DRAFT
100
AcDbCircle
 62
7
  6
CONTINUOUS
 10
0.0
 20
26.4969412335
 40
1.1
100
AcDbArc
 50
305.0968012276
 51
324.9031987724
  0
ARC
  5
39F
100
AcDbEntity
  8
DRAFT
100
AcDbCircle
 62
7
  6
CONTINUOUS
 10
1.1136931804
 20
27.6106344139
 40
0.3
100
AcDbArc
 50
352.8616290878
 51
97.1383709122
  0
ARC
  5
3A0
100
AcDbEntity
  8
DRAFT
100
AcDbCircle
 62
7
  6
CONTINUOUS
 10
0.75
 20
28.9469412335
 40
0.15
100
AcDbArc
 50
310.0
 51
90.0
  0
SPLINE
  5
3A1
100
AcDbEntity
  8
ASSI
100
AcDbSpline
 62
7
  6
CONTINUOUS
 70
0
 71
3
 72
14
 73
10
 74
0
 42
0.0000001
 43
0.0000001
 44
0.0000000001
 40
0.0
 40
0.0
 40
0.0
 40
0.0
 40
0.1344174576
 40
0.2464899801
 40
0.3932296694
 40
0.5898678421
 40
0.7257745118
 40
0.8770584584
 40
1.0
 40
1.0
 40
1.0
 40
1.0
 10
-0.5382046659
 20
12.041687159
 30
0.0
 10
-0.5373756722
 20
12.0753457091
 30
0.0
 10
-0.5283390139
 20
12.1372005998
 30
0.0
 10
-0.4916737198
 20
12.2293907709
 30
0.0
 10
-0.4220242947
 20
12.3220243765
 30
0.0
 10
-0.3182046294
 20
12.3885584048
 30
0.0
 10
-0.2012740308
 20
12.4221097926
 30
0.0
 10
-0.0996241201
 20
12.4385667565
 30
0.0
 10
-0.0307830836
 20
12.4409355267
 30
0.0
 10
0.0
 20
12.4401049025
 30
0.0
  0
SPLINE
  5
3A2
100
AcDbEntity
  8
ASSI
100
AcDbSpline
 62
7
  6
CONTINUOUS
 70
0
 71
3
 72
14
 73
10
 74
0
 42
0.0000001
 43
0.0000001
 44
0.0000000001
 40
0.0
 40
0.0
 40
0.0
 40
0.0
 40
0.1229415417
 40
0.2742254883
 40
0.4101321579
 40
0.6067703306
 40
0.7535100199
 40
0.8655825425
 40
1.0
 40
1.0
 40
1.0
 40
1.0
 10
0.0
 20
12.4401049025
 30
0.0
 10
0.0307830836
 20
12.4409355267
 30
0.0
 10
0.0996241201
 20
12.4385667565
 30
0.0
 10
0.2012740308
 20
12.4221097926
 30
0.0
 10
0.3182046294
 20
12.3885584048
 30
0.0
 10
0.4220242947
 20
12.3220243765
 30
0.0
 10
0.4916737198
 20
12.2293907709
 30
0.0
 10
0.5283390139
 20
12.1372005998
 30
0.0
 10
0.5373756722
 20
12.0753457091
 30
0.0
 10
0.5382046659
 20
12.0416871591
 30
0.0
  0
SPLINE
  5
3A3
100
AcDbEntity
  8
ASSI
100
AcDbSpline
 62
7
  6
CONTINUOUS
 70
0
 71
3
 72
15
 73
11
 74
0
 42
0.0000001
 43
0.0000001
 44
0.0000000001
 40
0.0
 40
0.0
 40
0.0
 40
0.0
 40
0.1149293105
 40
0.2060811432
 40
0.3341924356
 40
0.4552601699
 40
0.5704742312
 40
0.6837748557
 40
0.8381885424
 40
1.0
 40
1.0
 40
1.0
 40
1.0
 10
0.0
 20
12.6347138381
 30
0.0
 10
-0.0392474261
 20
12.6353905718
 30
0.0
 10
-0.1097587362
 20
12.633560268
 30
0.0
 10
-0.2230652614
 20
12.6173615351
 30
0.0
 10
-0.3344168563
 20
12.5827345128
 30
0.0
 10
-0.4483347987
 20
12.5302834945
 30
0.0
 10
-0.5407653422
 20
12.4531790283
 30
0.0
 10
-0.6266485343
 20
12.3533471411
 30
0.0
 10
-0.6857511521
 20
12.2161524264
 30
0.0
 10
-0.6997462783
 20
12.1077200619
 30
0.0
 10
-0.7
 20
12.052455132
 30
0.0
  0
SPLINE
  5
3A4
100
AcDbEntity
  8
ASSI
100
AcDbSpline
 62
7
  6
CONTINUOUS
 70
0
 71
3
 72
15
 73
11
 74
0
 42
0.0000001
 43
0.0000001
 44
0.0000000001
 40
0.0
 40
0.0
 40
0.0
 40
0.0
 40
0.1666104649
 40
0.3201400637
 40
0.432791991
 40
0.5473463999
 40
0.6677209668
 40
0.7950987643
 40
0.8857287116
 40
1.0
 40
1.0
 40
1.0
 40
1.0
 10
0.7
 20
12.0465026488
 30
0.0
 10
0.7002628511
 20
12.1037343037
 30
0.0
 10
0.6865363198
 20
12.2143278942
 30
0.0
 10
0.6266498493
 20
12.3533444409
 30
0.0
 10
0.5407650315
 20
12.4531796665
 30
0.0
 10
0.4483348873
 20
12.5302833127
 30
0.0
 10
0.3344168302
 20
12.5827345663
 30
0.0
 10
0.2230652663
 20
12.6173615251
 30
0.0
 10
0.1097587346
 20
12.6335602711
 30
0.0
 10
0.0392474261
 20
12.6353905718
 30
0.0
 10
0.0
 20
12.6347138381
 30
0.0
  0
SPLINE
  5
3A5
100
AcDbEntity
  8
0
100
AcDbSpline
 62
7
  6
CONTINUOUS
 70
0
 71
3
 72
9
 73
5
 74
0
 42
0.0000001
 43
0.0000001
 44
0.0000000001
 40
0.0
 40
0.0
 40
0.0
 40
0.0
 40
0.5157390107
 40
1.0
 40
1.0
 40
1.0
 40
1.0
 10
-0.843701075
 20
-15.0363647896
 30
0.0
 10
-0.8555642246
 20
-14.9668410201
 30
0.0
 10
-0.8729752685
 20
-14.8306460613
 30
0.0
 10
-0.8660516197
 20
-14.6933693818
 30
0.0
 10
-0.8584160972
 20
-14.6275870988
 30
0.0
  0
SPLINE
  5
3A6
100
AcDbEntity
  8
0
100
AcDbSpline
 62
7
  6
CONTINUOUS
 70
0
 71
3
 72
10
 73
6
 74
0
 42
0.0000001
 43
0.0000001
 44
0.0000000001
 40
0.0
 40
0.0
 40
0.0
 40
0.0
 40
0.4967762503
 40
0.741191372
 40
1.0
 40
1.0
 40
1.0
 40
1.0
 10
-0.8584160972
 20
-14.6275870988
 30
0.0
 10
-0.8495373988
 20
-14.5511123727
 30
0.0
 10
-0.7971627258
 20
-14.4354666605
 30
0.0
 10
-0.6648306067
 20
-14.3488736712
 30
0.0
 10
-0.5860369886
 20
-14.3334640202
 30
0.0
 10
-0.5459327613
 20
-14.3328367705
 30
0.0
  0
SPLINE
  5
3A7
100
AcDbEntity
  8
0
100
AcDbSpline
 62
7
  6
CONTINUOUS
 70
0
 71
3
 72
10
 73
6
 74
0
 42
0.0000001
 43
0.0000001
 44
0.0000000001
 40
0.0
 40
0.0
 40
0.0
 40
0.0
 40
0.2929210355
 40
0.5275938042
 40
1.0
 40
1.0
 40
1.0
 40
1.0
 10
-0.5459327613
 20
-14.3328367705
 30
0.0
 10
-0.4842338389
 20
-14.3318847373
 30
0.0
 10
-0.3695818543
 20
-14.3451928148
 30
0.0
 10
-0.1922576966
 20
-14.475982801
 30
0.0
 10
-0.1596971379
 20
-14.6386738316
 30
0.0
 10
-0.1574749227
 20
-14.7381653351
 30
0.0
  0
SPLINE
  5
3A8
100
AcDbEntity
  8
0
100
AcDbSpline
 62
7
  6
CONTINUOUS
 70
0
 71
3
 72
23
 73
19
 74
0
 42
0.0000001
 43
0.0000001
 44
0.0000000001
 40
0.0
 40
0.0
 40
0.0
 40
0.0
 40
0.0193928962
 40
0.0560918278
 40
0.1068350589
 40
0.1689387844
 40
0.2406513391
 40
0.3215099784
 40
0.4126293501
 40
0.4629068833
 40
0.5169198095
 40
0.5604931843
 40
0.6016378815
 40
0.677722206
 40
0.747068359
 40
0.8106528864
 40
0.920171439
 40
1.0
 40
1.0
 40
1.0
 40
1.0
 10
0.0485541322
 20
-14.1972523692
 30
0.0
 10
0.0472636968
 20
-14.1872514953
 30
0.0
 10
0.0328513339
 20
-14.1608403285
 30
0.0
 10
0.0037471392
 20
-14.1141372672
 30
0.0
 10
-0.046981792
 20
-14.0544621558
 30
0.0
 10
-0.1179164447
 20
-13.9895730806
 30
0.0
 10
-0.2112932321
 20
-13.9274029069
 30
0.0
 10
-0.3279176661
 20
-13.8761417654
 30
0.0
 10
-0.4414383338
 20
-13.8505059472
 30
0.0
 10
-0.5428603262
 20
-13.8425775548
 30
0.0
 10
-0.6198615738
 20
-13.8439726459
 30
0.0
 10
-0.691681644
 20
-13.8515537397
 30
0.0
 10
-0.7738491636
 20
-13.8674851922
 30
0.0
 10
-0.8664975258
 20
-13.8979533096
 30
0.0
 10
-0.9629503899
 20
-13.9490859762
 30
0.0
 10
-1.0640711872
 20
-14.0251211475
 30
0.0
 10
-1.1518985372
 20
-14.1248239993
 30
0.0
 10
-1.1999464064
 20
-14.2120056085
 30
0.0
 10
-1.2140322558
 20
-14.2510512399
 30
0.0
  0
SPLINE
  5
3A9
100
AcDbEntity
  8
0
100
AcDbSpline
 62
7
  6
CONTINUOUS
 70
0
 71
3
 72
10
 73
6
 74
0
 42
0.0000001
 43
0.0000001
 44
0.0000000001
 40
0.0
 40
0.0
 40
0.0
 40
0.0
 40
0.2954237646
 40
0.5848737211
 40
1.0
 40
1.0
 40
1.0
 40
1.0
 10
-1.2140322558
 20
-14.2510512399
 30
0.0
 10
-1.2574592661
 20
-14.3712553892
 30
0.0
 10
-1.2996769375
 20
-14.6244396072
 30
0.0
 10
-1.2995957099
 20
-15.0572266761
 30
0.0
 10
-1.2664906663
 20
-15.3610740592
 30
0.0
 10
-1.2403505884
 20
-15.5387562644
 30
0.0
  0
SPLINE
  5
3AA
100
AcDbEntity
  8
0
100
AcDbSpline
 62
7
  6
CONTINUOUS
 70
0
 71
3
 72
10
 73
6
 74
0
 42
0.0000001
 43
0.0000001
 44
0.0000000001
 40
0.0
 40
0.0
 40
0.0
 40
0.0
 40
0.3517340052
 40
0.6302069713
 40
1.0
 40
1.0
 40
1.0
 40
1.0
 10
0.2519213614
 20
-14.7392900501
 30
0.0
 10
0.2519213614
 20
-14.6938195658
 30
0.0
 10
0.2703053329
 20
-14.610592448
 30
0.0
 10
0.3516618613
 20
-14.5064231695
 30
0.0
 10
0.4274210189
 20
-14.4649730756
 30
0.0
 10
0.4721780619
 20
-14.4481763005
 30
0.0
  0
SPLINE
  5
3AB
100
AcDbEntity
  8
0
100
AcDbSpline
 62
7
  6
CONTINUOUS
 70
0
 71
3
 72
11
 73
7
 74
0
 42
0.0000001
 43
0.0000001
 44
0.0000000001
 40
0.0
 40
0.0
 40
0.0
 40
0.0
 40
0.2222334256
 40
0.5586346745
 40
0.8657346811
 40
1.0
 40
1.0
 40
1.0
 40
1.0
 10
0.4721780619
 20
-14.4481763005
 30
0.0
 10
0.5270752665
 20
-14.4275521812
 30
0.0
 10
0.6686034731
 20
-14.385718871
 30
0.0
 10
0.8871460141
 20
-14.3194644325
 30
0.0
 10
1.0842639615
 20
-14.2622114848
 30
0.0
 10
1.1961288944
 20
-14.2297988706
 30
0.0
 10
1.2301797807
 20
-14.2200091041
 30
0.0
  0
SPLINE
  5
3AC
100
AcDbEntity
  8
0
100
AcDbSpline
 62
7
  6
CONTINUOUS
 70
0
 71
3
 72
9
 73
5
 74
0
 42
0.0000001
 43
0.0000001
 44
0.0000000001
 40
0.0
 40
0.0
 40
0.0
 40
0.0
 40
0.1980141723
 40
1.0
 40
1.0
 40
1.0
 40
1.0
 10
1.2301797807
 20
-13.7181050058
 30
0.0
 10
1.1856113153
 20
-13.7302096748
 30
0.0
 10
0.9600282522
 20
-13.7894566054
 30
0.0
 10
0.7340773715
 20
-13.8473167351
 30
0.0
 10
0.5536074326
 20
-13.8964848153
 30
0.0
  0
SPLINE
  5
3AD
100
AcDbEntity
  8
0
100
AcDbSpline
 62
7
  6
CONTINUOUS
 70
0
 71
3
 72
10
 73
6
 74
0
 42
0.0000001
 43
0.0000001
 44
0.0000000001
 40
0.0
 40
0.0
 40
0.0
 40
0.0
 40
0.4939032387
 40
0.7479365287
 40
1.0
 40
1.0
 40
1.0
 40
1.0
 10
0.5536074326
 20
-13.8964848153
 30
0.0
 10
0.4590906397
 20
-13.9222340363
 30
0.0
 10
0.3142826689
 20
-13.960746766
 30
0.0
 10
0.1433944108
 20
-14.0663676103
 30
0.0
 10
0.0818428728
 20
-14.1508135411
 30
0.0
 10
0.0633253901
 20
-14.1972523692
 30
0.0
  0
SPLINE
  5
3AE
100
AcDbEntity
  8
RACCORDO
100
AcDbSpline
 62
7
  6
CONTINUOUS
 70
0
 71
3
 72
14
 73
10
 74
0
 42
0.0000001
 43
0.0000001
 44
0.0000000001
 40
0.0
 40
0.0
 40
0.0
 40
0.0
 40
0.0189050876
 40
0.0700788578
 40
0.1529755224
 40
0.2667194488
 40
0.409998512
 40
0.5813997753
 40
1.0
 40
1.0
 40
1.0
 40
1.0
 10
2.467122717
 20
-25.7454854338
 30
0.0
 10
2.4673994797
 20
-25.7452661428
 30
0.0
 10
2.4688707948
 20
-25.7455325027
 30
0.0
 10
2.4715777245
 20
-25.7451283006
 30
0.0
 10
2.4762870185
 20
-25.7452009777
 30
0.0
 10
2.4826002323
 20
-25.7450295534
 30
0.0
 10
2.4906150009
 20
-25.7449616485
 30
0.0
 10
2.5043044512
 20
-25.7448180678
 30
0.0
 10
2.5153269773
 20
-25.7447480774
 30
0.0
 10
2.523145452
 20
-25.744701357
 30
0.0
  0
SPLINE
  5
3AF
100
AcDbEntity
  8
RACCORDO
100
AcDbSpline
 62
7
  6
CONTINUOUS
 70
0
 71
3
 72
22
 73
18
 74
0
 42
0.0000001
 43
0.0000001
 44
0.0000000001
 40
0.0
 40
0.0
 40
0.0
 40
0.0
 40
0.0018339458
 40
0.0072384766
 40
0.0160828302
 40
0.0282198042
 40
0.0435004285
 40
0.0617620421
 40
0.1063099422
 40
0.1599364367
 40
0.2207361343
 40
0.2872571424
 40
0.3583417664
 40
0.5099494401
 40
0.6698120264
 40
0.8340618767
 40
1.0
 40
1.0
 40
1.0
 40
1.0
 10
1.8570008079
 20
-28.3203431671
 30
0.0
 10
1.8571459072
 20
-28.3204503797
 30
0.0
 10
1.8561898273
 20
-28.3211670098
 30
0.0
 10
1.8556394033
 20
-28.3222104416
 30
0.0
 10
1.8536196178
 20
-28.3242137599
 30
0.0
 10
1.8513066822
 20
-28.3267890939
 30
0.0
 10
1.8481755622
 20
-28.3300681609
 30
0.0
 10
1.8428860274
 20
-28.3356136849
 30
0.0
 10
1.8348922942
 20
-28.343833533
 30
0.0
 10
1.8239058657
 20
-28.3549570382
 30
0.0
 10
1.8112814674
 20
-28.3675086002
 30
0.0
 10
1.7973206132
 20
-28.381147947
 30
0.0
 10
1.7767963623
 20
-28.4008517264
 30
0.0
 10
1.749275346
 20
-28.4265233522
 30
0.0
 10
1.7144564747
 20
-28.4577962808
 30
0.0
 10
1.6779609804
 20
-28.4892982707
 30
0.0
 10
1.6529624981
 20
-28.5100419378
 30
0.0
 10
1.6402971401
 20
-28.5203404255
 30
0.0
  0
SPLINE
  5
3B0
100
AcDbEntity
  8
RACCORDO
100
AcDbSpline
 62
7
  6
CONTINUOUS
 70
0
 71
3
 72
18
 73
14
 74
0
 42
0.0000001
 43
0.0000001
 44
0.0000000001
 40
0.0
 40
0.0
 40
0.0
 40
0.0
 40
0.0054349629
 40
0.0207910821
 40
0.0459005186
 40
0.0805145891
 40
0.1241409757
 40
0.1762199942
 40
0.3032411172
 40
0.4555740908
 40
0.6268357834
 40
0.8106118592
 40
1.0
 40
1.0
 40
1.0
 40
1.0
 10
2.4744586685
 20
-27.2664465443
 30
0.0
 10
2.4747591396
 20
-27.2666847723
 30
0.0
 10
2.4737414145
 20
-27.2684739451
 30
0.0
 10
2.4735828284
 20
-27.2712781512
 30
0.0
 10
2.4717926042
 20
-27.2765634313
 30
0.0
 10
2.4699161447
 20
-27.2834863869
 30
0.0
 10
2.4672183789
 20
-27.292324124
 30
0.0
 10
2.4626245571
 20
-27.3073298677
 30
0.0
 10
2.4554838586
 20
-27.3296111709
 30
0.0
 10
2.4453720266
 20
-27.3597479948
 30
0.0
 10
2.4334558948
 20
-27.3935064039
 30
0.0
 10
2.4200775324
 20
-27.4295132812
 30
0.0
 10
2.410500253
 20
-27.4540390583
 30
0.0
 10
2.4055325723
 20
-27.4664431597
 30
0.0
  0
SPLINE
  5
3B1
100
AcDbEntity
  8
RACCORDO
100
AcDbSpline
 62
7
  6
CONTINUOUS
 70
0
 71
3
 72
8
 73
4
 74
0
 42
0.0000001
 43
0.0000001
 44
0.0000000001
 40
0.0
 40
0.0
 40
0.0
 40
0.0
 40
1.0
 40
1.0
 40
1.0
 40
1.0
 10
1.7354706035
 20
-25.751535622
 30
0.0
 10
1.7120740776
 20
-25.7486299725
 30
0.0
 10
1.6888365683
 20
-25.7414684957
 30
0.0
 10
1.6679059225
 20
-25.7306173072
 30
0.0
  0
SPLINE
  5
3B2
100
AcDbEntity
  8
RACCORDO
100
AcDbSpline
 62
7
  6
CONTINUOUS
 70
0
 71
3
 72
8
 73
4
 74
0
 42
0.0000001
 43
0.0000001
 44
0.0000000001
 40
0.0
 40
0.0
 40
0.0
 40
0.0
 40
1.0
 40
1.0
 40
1.0
 40
1.0
 10
1.5969525464
 20
-27.3372220771
 30
0.0
 10
1.6151731031
 20
-27.3116198881
 30
0.0
 10
1.6402007406
 20
-27.2898219202
 30
0.0
 10
1.6681154612
 20
-27.275391773
 30
0.0
  0
SPLINE
  5
3B3
100
AcDbEntity
  8
RACCORDO
100
AcDbSpline
 62
7
  6
CONTINUOUS
 70
0
 71
3
 72
8
 73
4
 74
0
 42
0.0000001
 43
0.0000001
 44
0.0000000001
 40
0.0
 40
0.0
 40
0.0
 40
0.0
 40
1.0
 40
1.0
 40
1.0
 40
1.0
 10
1.6898010262
 20
-27.2657720905
 30
0.0
 10
1.7120664173
 20
-27.2574485631
 30
0.0
 10
1.7361992765
 20
-27.2530587665
 30
0.0
 10
1.7599696099
 20
-27.2530587665
 30
0.0
  0
ELLIPSE
  5
3B4
100
AcDbEntity
  8
RACCORDO
100
AcDbEllipse
 62
7
  6
CONTINUOUS
 10
-2.3999923843
 20
23.6969336179
 30
0.0
 11
0.1414321262
 21
-0.1414321262
 31
0.0
 40
0.9999238505
 41
2.3562325664
 42
3.9269527408
  0
ELLIPSE
  5
3B5
100
AcDbEntity
  8
RACCORDO
100
AcDbEllipse
 62
7
  6
CONTINUOUS
 10
2.3999923843
 20
23.6969336179
 30
0.0
 11
-0.1414321262
 21
-0.1414321262
 31
0.0
 40
0.9999238505
 41
2.3562325664
 42
3.9269527408
  0
ELLIPSE
  5
3B6
100
AcDbEntity
  8
RACCORDO
100
AcDbEllipse
 62
7
  6
CONTINUOUS
 10
-1.9750076157
 20
24.0969488492
 30
0.0
 11
0.1414321262
 21
-0.1414321262
 31
0.0
 40
0.9999238505
 41
-0.7853600872
 42
0.7853600872
  0
ELLIPSE
  5
3B7
100
AcDbEntity
  8
RACCORDO
100
AcDbEllipse
 62
7
  6
CONTINUOUS
 10
1.9750076157
 20
24.0969488492
 30
0.0
 11
0.1414321262
 21
0.1414321262
 31
0.0
 40
0.9999238505
 41
-3.9269527408
 42
-2.3562325664
  0
ELLIPSE
  5
3B8
100
AcDbEntity
  8
RACCORDO
100
AcDbEllipse
 62
7
  6
CONTINUOUS
 10
2.5895277587
 20
-25.5396743732
 30
0.0
 11
0.0
 21
0.2
 31
0.0
 40
0.0087268678
 41
-3.1357748894
 42
-1.5707963268
  0
ELLIPSE
  5
3B9
100
AcDbEntity
  8
RACCORDO
100
AcDbEllipse
 62
7
  6
CONTINUOUS
 10
2.5982546264
 20
-24.4857771074
 30
0.0
 11
0.0
 21
0.2
 31
0.0
 40
0.0087268678
 41
-3.1363566658
 42
-1.5707963268
  0
ENDSEC
  0
SECTION
  2
OBJECTS
  0
DICTIONARY
  5
C
100
AcDbDictionary
280
0
281
1
  3
ACAD_GROUP
350
D
  3
ACAD_MLINESTYLE
350
17
  3
ACAD_LAYOUT
350
1A
  3
ACAD_PLOTSETTINGS
350
19
  3
ACAD_PLOTSTYLENAME
350
E
  0
DICTIONARY
  5
D
102
{ACAD_REACTORS
330
C
102
}
100
AcDbDictionary
280
0
281
1
  0
ACDBDICTIONARYWDFLT
  5
E
102
{ACAD_REACTORS
330
C
102
}
100
AcDbDictionary
281
1
  3
Normal
350
F
100
AcDbDictionaryWithDefault
340
F
  0
DICTIONARY
  5
17
102
{ACAD_REACTORS
330
C
102
}
100
AcDbDictionary
280
0
281
1
  3
Standard
350
18
  0
DICTIONARY
  5
19
102
{ACAD_REACTORS
330
C
102
}
100
AcDbDictionary
281
1
  0
DICTIONARY
  5
1A
102
{ACAD_REACTORS
330
C
102
}
100
AcDbDictionary
281
1
  3
Model
350
3BA
  3
Layout1
350
3BB
  0
ACDBPLACEHOLDER
  5
F
102
{ACAD_REACTORS
330
E
102
}
  0
MLINESTYLE
  5
18
102
{ACAD_REACTORS
330
17
102
}
100
AcDbMlineStyle
  2
STANDARD
 70
0
  3

 62
256
 51
90.0
 52
90.0
 71
2
 49
0.5
 62
256
  6
BYLAYER
 49
-0.5
 62
256
  6
BYLAYER
  0
LAYOUT
  5
3BA
102
{ACAD_REACTORS
330
1A
102
}
100
AcDbPlotSettings
  1

  2
none_device
  4
ISO_A4_(297.00_x_210.00_MM)
  6

 40
0.0
 41
0.0
 42
0.0
 43
0.0
 44
297.0
 45
210.0
 46
0.0
 47
0.0
 48
0.0
 49
0.0
140
0.0
141
0.0
142
1.0
143
1.0
 70
1024
 72
1
 73
0
 74
0
  7

 75
0
147
1.0
148
0.0
149
0.0
100
AcDbLayout
  1
Model
 70
0
 71
0
 10
0.0
 20
0.0
 11
297.0
 21
210.0
 12
0.0
 22
0.0
 32
0.0
 14
0.0
 24
0.0
 34
0.0
 15
0.0
 25
0.0
 35
0.0
146
0.0
 13
0.0
 23
0.0
 33
0.0
 16
1.0
 26
0.0
 36
0.0
 17
0.0
 27
1.0
 37
0.0
 76
0
330
20F
345
0
346
0
  0
LAYOUT
  5
3BB
102
{ACAD_REACTORS
330
1A
102
}
100
AcDbPlotSettings
  1

  2
none_device
  4
ISO_A4_(297.00_x_210.00_MM)
  6

 40
0.0
 41
0.0
 42
0.0
 43
0.0
 44
297.0
 45
210.0
 46
0.0
 47
0.0
 48
0.0
 49
0.0
140
0.0
141
0.0
142
1.0
143
1.0
 70
0
 72
1
 73
0
 74
0
  7

 75
0
147
1.0
148
0.0
149
0.0
100
AcDbLayout
  1
Layout1
 70
0
 71
1
 10
0.0
 20
0.0
 11
297.0
 21
210.0
 12
0.0
 22
0.0
 32
0.0
 14
0.0
 24
0.0
 34
0.0
 15
0.0
 25
0.0
 35
0.0
146
0.0
 13
0.0
 23
0.0
 33
0.0
 16
1.0
 26
0.0
 36
0.0
 17
0.0
 27
1.0
 37
0.0
 76
0
330
210
345
0
346
0
  0
ENDSEC
  0
EOF
