  0
SECTION
  2
HEADER
  9
$ACADVER
  1
AC1024
  9
$DWGCODEPAGE
  3
ANSI_1252
  9
$EXTMAX
 10
297.0
 20
210.0
 30
0.0
  9
$EXTMIN
 10
0.0
 20
0.0
 30
0.0
  9
$LIMMIN
 10
0.0
 20
0.0
  9
$LIMMAX
 10
297.0
 20
210.0
  9
$VIEWCTR
 10
148.5
 20
105.0
  9
$VIEWSIZE
 40
210.0
  9
$CLAYER
  8
0
  9
$LTSCALE
 40
16.335
  9
$CELTYPE
  6
BYLAYER
  9
$DIMSCALE
 40
1.0
  9
$DIMASZ
 40
3.0
  9
$DIMEXO
 40
0.5
  9
$DIMDLI
 40
11.286
  9
$DIMEXE
 40
1.5
  9
$DIMCEN
 40
2.673
  9
$DIMLFAC
 40
1.0
  9
$DIMBLK
  1
_FILLED
  9
$DIMALT
 70
0
  9
$DIMALTF
 40
0.0393700787
  9
$DIMTXT
 40
3.0
  9
$DIMTOL
 70
1
  9
$DIMLIM
 70
0
  9
$DIMTFAC
 40
1.0
  9
$DIMTP
 40
0.01
  9
$DIMTM
 40
0.01
  9
$DIMGAP
 40
0.625
  9
$DIMDSEP
 70
44
  9
$AUNITS
 70
0
  9
$PDMODE
 70
3
  9
$PDSIZE
 40
3.0
  9
$HANDSEED
  5
6B4
  9
$TILEMODE
 70
1
  9
$MEASUREMENT
 70
1
  9
$INSUNITS
 70
4
  0
ENDSEC
  0
SECTION
  2
CLASSES
  0
CLASS
  1
ACDBDICTIONARYWDFLT
  2
AcDbDictionaryWithDefault
  3
AutoCAD 2000
 90
0
 91
1
280
0
281
0
  0
CLASS
  1
ACDBPLACEHOLDER
  2
AcDbPlaceHolder
  3
AutoCAD 2000
 90
0
 91
1
280
0
281
0
  0
CLASS
  1
LAYOUT
  2
AcDbLayout
  3
AutoCAD 2000
 90
0
 91
0
280
0
281
0
  0
ENDSEC
  0
SECTION
  2
TABLES
  0
TABLE
  2
VPORT
  5
8
100
AcDbSymbolTable
 70
2
  0
VPORT
  5
1F4
100
AcDbSymbolTableRecord
100
AcDbViewportTableRecord
  2
*ACTIVE
 70
0
 10
0.0
 20
0.0
 11
1.0
 21
1.0
 12
148.5
 22
105.0
 13
0.0
 23
0.0
 14
1.0
 24
1.0
 15
0.0
 25
0.0
 16
0.0
 26
0.0
 36
1.0
 17
0.0
 27
0.0
 37
0.0
 40
210.0
 41
1.4142857143
 42
50.0
 43
0.0
 44
0.0
 50
0.0
 51
0.0
 71
0
 72
100
 73
1
 74
1
 75
0
 76
0
 77
0
 78
0
  0
ENDTAB
  0
TABLE
  2
LTYPE
  5
5
100
AcDbSymbolTable
 70
6
  0
LTYPE
  5
14
100
AcDbSymbolTableRecord
100
AcDbLinetypeTableRecord
  2
BYBLOCK
 70
0
  3

 72
65
 73
0
 40
0.0
  0
LTYPE
  5
15
100
AcDbSymbolTableRecord
100
AcDbLinetypeTableRecord
  2
BYLAYER
 70
0
  3

 72
65
 73
0
 40
0.0
  0
LTYPE
  5
16
100
AcDbSymbolTableRecord
100
AcDbLinetypeTableRecord
  2
CONTINUOUS
 70
64
  3
Solid line
 72
65
 73
0
 40
0.0
  0
LTYPE
  5
1F5
100
AcDbSymbolTableRecord
100
AcDbLinetypeTableRecord
  2
CENTER
 70
64
  3
____ _ ____ _ ____ _ ____ _ ____ _ ____ _ ____
 72
65
 73
4
 40
0.6
 49
0.375
 74
0
 49
-0.075
 74
0
 49
0.075
 74
0
 49
-0.075
 74
0
  0
LTYPE
  5
1F6
100
AcDbSymbolTableRecord
100
AcDbLinetypeTableRecord
  2
HIDDEN
 70
64
  3
- - - - - - - - - - - - - - - - - - - -
 72
65
 73
2
 40
0.2
 49
0.1
 74
0
 49
-0.1
 74
0
  0
LTYPE
  5
1F7
100
AcDbSymbolTableRecord
100
AcDbLinetypeTableRecord
  2
PHANTOM
 70
64
  3
_____ _ _ _____ _ _ _____ _ _ _____
 72
65
 73
6
 40
0.8
 49
0.45
 74
0
 49
-0.05
 74
0
 49
0.1
 74
0
 49
-0.05
 74
0
 49
0.1
 74
0
 49
-0.05
 74
0
  0
LTYPE
  5
1F8
100
AcDbSymbolTableRecord
100
AcDbLinetypeTableRecord
  2
DOT
 70
64
  3
. . . . . . . . . . . . . . . . . . . .
 72
65
 73
2
 40
0.2
 49
0.1
 74
0
 49
-0.1
 74
0
  0
LTYPE
  5
1F9
100
AcDbSymbolTableRecord
100
AcDbLinetypeTableRecord
  2
DASHED
 70
64
  3
- - - - - - - - - - - - - - - - - - - -
 72
65
 73
2
 40
0.2
 49
0.1
 74
0
 49
-0.1
 74
0
  0
ENDTAB
  0
TABLE
  2
LAYER
  5
2
100
AcDbSymbolTable
 70
36
  0
LAYER
  5
10
100
AcDbSymbolTableRecord
100
AcDbLayerTableRecord
  2
0
 70
0
 62
7
  6
CONTINUOUS
370
-3
390
F
  0
LAYER
  5
1FA
100
AcDbSymbolTableRecord
100
AcDbLayerTableRecord
  2
DEFAULT_1
 70
0
 62
7
  6
CENTER
370
-3
390
F
  0
LAYER
  5
1FB
100
AcDbSymbolTableRecord
100
AcDbLayerTableRecord
  2
DEFAULT_2
 70
0
 62
7
  6
HIDDEN
370
-3
390
F
  0
LAYER
  5
1FC
100
AcDbSymbolTableRecord
100
AcDbLayerTableRecord
  2
DEFAULT_3
 70
0
 62
7
  6
PHANTOM
370
-3
390
F
  0
LAYER
  5
1FD
100
AcDbSymbolTableRecord
100
AcDbLayerTableRecord
  2
ASSI
 70
0
 62
7
  6
CONTINUOUS
370
-3
390
F
  0
LAYER
  5
1FE
100
AcDbSymbolTableRecord
100
AcDbLayerTableRecord
  2
COLOR5
 70
0
 62
7
  6
CONTINUOUS
370
-3
390
F
  0
LAYER
  5
1FF
100
AcDbSymbolTableRecord
100
AcDbLayerTableRecord
  2
COORDINATE
 70
0
 62
7
  6
CONTINUOUS
370
-3
390
F
  0
LAYER
  5
200
100
AcDbSymbolTableRecord
100
AcDbLayerTableRecord
  2
COORD_ORIGINE
 70
0
 62
7
  6
CONTINUOUS
370
-3
390
F
  0
LAYER
  5
201
100
AcDbSymbolTableRecord
100
AcDbLayerTableRecord
  2
COPY_PUBLISH
 70
0
 62
7
  6
CONTINUOUS
370
-3
390
F
  0
LAYER
  5
202
100
AcDbSymbolTableRecord
100
AcDbLayerTableRecord
  2
COSMETICI
 70
0
 62
7
  6
CONTINUOUS
370
-3
390
F
  0
LAYER
  5
203
100
AcDbSymbolTableRecord
100
AcDbLayerTableRecord
  2
CURVE
 70
0
 62
7
  6
CONTINUOUS
370
-3
390
F
  0
LAYER
  5
204
100
AcDbSymbolTableRecord
100
AcDbLayerTableRecord
  2
DRAFT
 70
0
 62
7
  6
CONTINUOUS
370
-3
390
F
  0
LAYER
  5
205
100
AcDbSymbolTableRecord
100
AcDbLayerTableRecord
  2
IMPORT_IGES
 70
0
 62
7
  6
CONTINUOUS
370
-3
390
F
  0
LAYER
  5
206
100
AcDbSymbolTableRecord
100
AcDbLayerTableRecord
  2
INTF_1
 70
0
 62
7
  6
CONTINUOUS
370
-3
390
F
  0
LAYER
  5
207
100
AcDbSymbolTableRecord
100
AcDbLayerTableRecord
  2
NOTE
 70
0
 62
7
  6
CONTINUOUS
370
-3
390
F
  0
LAYER
  5
208
100
AcDbSymbolTableRecord
100
AcDbLayerTableRecord
  2
PIANI
 70
0
 62
7
  6
CONTINUOUS
370
-3
390
F
  0
LAYER
  5
209
100
AcDbSymbolTableRecord
100
AcDbLayerTableRecord
  2
PIANI_ORIGINE
 70
0
 62
7
  6
CONTINUOUS
370
-3
390
F
  0
LAYER
  5
20A
100
AcDbSymbolTableRecord
100
AcDbLayerTableRecord
  2
PUNTI
 70
0
 62
7
  6
CONTINUOUS
370
-3
390
F
  0
LAYER
  5
20B
100
AcDbSymbolTableRecord
100
AcDbLayerTableRecord
  2
RACCORDO
 70
0
 62
7
  6
CONTINUOUS
370
-3
390
F
  0
LAYER
  5
20C
100
AcDbSymbolTableRecord
100
AcDbLayerTableRecord
  2
SIMBOLI
 70
0
 62
7
  6
CONTINUOUS
370
-3
390
F
  0
LAYER
  5
20D
100
AcDbSymbolTableRecord
100
AcDbLayerTableRecord
  2
SMUSSO
 70
0
 62
7
  6
CONTINUOUS
370
-3
390
F
  0
LAYER
  5
20E
100
AcDbSymbolTableRecord
100
AcDbLayerTableRecord
  2
SUPERFICI
 70
0
 62
7
  6
CONTINUOUS
370
-3
390
F
  0
LAYER
  5
20F
100
AcDbSymbolTableRecord
100
AcDbLayerTableRecord
  2
TRASH
 70
0
 62
7
  6
CONTINUOUS
370
-3
390
F
  0
ENDTAB
  0
TABLE
  2
STYLE
  5
3
100
AcDbSymbolTable
 70
1
  0
STYLE
  5
11
100
AcDbSymbolTableRecord
100
AcDbTextStyleTableRecord
  2
STANDARD
 70
0
 40
0.0
 41
0.8
 50
0.0
 71
0
 42
0.2
  3
txt
  4

  0
STYLE
  5
210
100
AcDbSymbolTableRecord
100
AcDbTextStyleTableRecord
  2
TEXTSTYLE_1
 70
0
 40
0.0
 41
0.8
 50
0.0
 71
0
 42
0.2
  3
gdt
  4

  0
ENDTAB
  0
TABLE
  2
VIEW
  5
6
100
AcDbSymbolTable
 70
0
  0
ENDTAB
  0
TABLE
  2
UCS
  5
7
100
AcDbSymbolTable
 70
0
  0
ENDTAB
  0
TABLE
  2
APPID
  5
9
100
AcDbSymbolTable
 70
1
  0
APPID
  5
211
100
AcDbSymbolTableRecord
100
AcDbRegAppTableRecord
  2
ACAD
 70
0
  0
ENDTAB
  0
TABLE
  2
BLOCK_RECORD
  5
1
100
AcDbSymbolTable
 70
0
  0
BLOCK_RECORD
  5
212
100
AcDbSymbolTableRecord
100
AcDbBlockTableRecord
  2
*Model_Space
  0
BLOCK_RECORD
  5
213
100
AcDbSymbolTableRecord
100
AcDbBlockTableRecord
  2
*Paper_Space
  0
BLOCK_RECORD
  5
214
100
AcDbSymbolTableRecord
100
AcDbBlockTableRecord
  2
_FILLED
  0
ENDTAB
  0
TABLE
  2
DIMSTYLE
  5
A
100
AcDbSymbolTable
 70
1
100
AcDbDimStyleTable
 71
0
  0
DIMSTYLE
105
215
100
AcDbSymbolTableRecord
100
AcDbDimStyleTableRecord
  2
STANDARD
 70
0
  3

  4

 40
1.0
 41
3.0
 42
0.5
 43
0.38
 44
1.5
 45
0.0
 46
0.0
 47
0.01
 48
0.01
140
3.0
141
0.09
142
0.0
143
25.4
144
1.0
145
0.0
146
1.0
147
0.625
 71
1.0
 72
0.0
 73
0
 74
0
 75
0
 76
0
 77
1
 78
8
 79
2
170
0
171
1
172
0
173
0
174
0
175
0
176
0
177
0
178
0
270
2
179
2
271
2
272
2
273
2
274
2
275
0
280
0
281
0
282
0
283
1
284
8
285
0
286
0
287
3
288
0
340
11
278
44
341
214
342
214
343
214
344
214
  0
ENDTAB
  0
ENDSEC
  0
SECTION
  2
BLOCKS
  0
BLOCK
  5
20
100
AcDbEntity
  8
0
100
AcDbBlockBegin
  2
*Model_Space
 70
0
 10
0.0
 20
0.0
 30
0.0
  3
*Model_Space
  1

  0
ENDBLK
  5
21
100
AcDbEntity
  8
0
100
AcDbBlockEnd
  0
BLOCK
  5
1C
100
AcDbEntity
  8
0
100
AcDbBlockBegin
  2
*Paper_Space
 70
0
 10
0.0
 20
0.0
 30
0.0
  3
*Paper_Space
  1

  0
ENDBLK
  5
1D
100
AcDbEntity
  8
0
100
AcDbBlockEnd
  0
BLOCK
  5
216
100
AcDbEntity
  8
0
100
AcDbBlockBegin
  2
_FILLED
 70
64
 10
0.0
 20
0.0
  3
_FILLED
  1

  0
SOLID
  5
217
100
AcDbEntity
  8
0
  6
BYBLOCK
 62
0
100
AcDbTrace
 10
0.0
 20
0.0
 11
-1.0
 21
0.3166666667
 12
-1.0
 22
-0.3166666667
 13
-1.0
 23
-0.3166666667
  0
ENDBLK
  5
218
100
AcDbEntity
  8
0
  6
BYBLOCK
 62
0
100
AcDbBlockEnd
  0
ENDSEC
  0
SECTION
  2
ENTITIES
  0
LWPOLYLINE
  5
219
100
AcDbEntity
  8
RACCORDO
100
AcDbPolyline
 62
250
  6
CONTINUOUS
 90
25
 70
0
 10
224.8473528917
 20
127.4009799093
 10
224.8512602435
 20
127.3037176759
 10
224.8614880964
 20
127.2068679173
 10
224.8779930757
 20
127.110841359
 10
224.9007051862
 20
127.0160452355
 10
224.9295281091
 20
126.9228815632
 10
224.9643396107
 20
126.8317454352
 10
225.0049920604
 20
126.7430233466
 10
225.0513130574
 20
126.6570915546
 10
225.1031061614
 20
126.5743144826
 10
225.160151726
 20
126.4950431756
 10
225.2222078291
 20
126.419613812
 10
225.2890112998
 20
126.3483462771
 10
225.3602788344
 20
126.2815428059
 10
225.4357081977
 20
126.2194867022
 10
225.5149795047
 20
126.1624411369
 10
225.5977565773
 20
126.1106480319
 10
225.6836883702
 20
126.0643270339
 10
225.7724104596
 20
126.0236745833
 10
225.8635465883
 20
125.9888630811
 10
225.9567102614
 20
125.9600401577
 10
226.0515063857
 20
125.9373280468
 10
226.1475329449
 20
125.9208230672
 10
226.2443827044
 20
125.910595214
 10
226.3416449388
 20
125.9066878622
  0
LINE
  5
21A
100
AcDbEntity
  8
RACCORDO
100
AcDbLine
 62
7
  6
CONTINUOUS
 10
224.2672388696
 20
177.3379897458
 11
224.2672388696
 21
126.8208658872
  0
LINE
  5
21B
100
AcDbEntity
  8
RACCORDO
100
AcDbLine
 62
7
  6
CONTINUOUS
 10
224.3109832013
 20
126.864610219
 11
224.3109832013
 21
177.2942454141
  0
LINE
  5
21C
100
AcDbEntity
  8
RACCORDO
100
AcDbLine
 62
250
  6
CONTINUOUS
 10
224.8473528917
 20
176.7578757237
 11
224.8473528917
 21
127.4009799093
  0
LINE
  5
21D
100
AcDbEntity
  8
RACCORDO
100
AcDbLine
 62
250
  6
CONTINUOUS
 10
226.3416449388
 20
176.7578757237
 11
226.3416449388
 21
125.9066878622
  0
LINE
  5
21E
100
AcDbEntity
  8
RACCORDO
100
AcDbLine
 62
250
  6
CONTINUOUS
 10
227.835936986
 20
178.2521677709
 11
227.835936986
 21
179.746459818
  0
LINE
  5
21F
100
AcDbEntity
  8
0
100
AcDbLine
 62
7
  6
CONTINUOUS
 10
231.7672388696
 20
156.971987
 11
231.7672388696
 21
151.6811606802
  0
LINE
  5
220
100
AcDbEntity
  8
0
100
AcDbLine
 62
7
  6
CONTINUOUS
 10
232.7672388696
 20
151.6811606802
 11
232.7672388696
 21
156.971987
  0
LINE
  5
221
100
AcDbEntity
  8
DRAFT
100
AcDbLine
 62
7
  6
CONTINUOUS
 10
236.7997784848
 20
125.3703181719
 11
236.7172388696
 21
125.5771085929
  0
LINE
  5
222
100
AcDbEntity
  8
0
100
AcDbLine
 62
7
  6
CONTINUOUS
 10
236.2172388696
 20
114.1265738401
 11
236.2172388696
 21
125.6809029274
  0
LINE
  5
223
100
AcDbEntity
  8
0
100
AcDbLine
 62
7
  6
CONTINUOUS
 10
236.7172388696
 20
114.1265738401
 11
236.7172388696
 21
125.6809029274
  0
LINE
  5
224
100
AcDbEntity
  8
RACCORDO
100
AcDbLine
 62
250
  6
CONTINUOUS
 10
236.9428328003
 20
125.9066878622
 11
236.9428328003
 21
152.4009799093
  0
LINE
  5
225
100
AcDbEntity
  8
0
100
AcDbLine
 62
250
  6
CONTINUOUS
 10
237.2172388696
 20
113.1265738401
 11
237.2172388696
 21
113.6265738401
  0
LINE
  5
226
100
AcDbEntity
  8
RACCORDO
100
AcDbLine
 62
250
  6
CONTINUOUS
 10
235.8621247919
 20
125.6327841624
 11
235.8183804602
 21
125.6765284942
  0
LINE
  5
227
100
AcDbEntity
  8
RACCORDO
100
AcDbLine
 62
250
  6
CONTINUOUS
 10
237.4792024907
 20
125.3703181719
 11
236.9428328003
 21
125.9066878622
  0
LINE
  5
228
100
AcDbEntity
  8
RACCORDO
100
AcDbLine
 62
250
  6
CONTINUOUS
 10
238.9734945378
 20
126.864610219
 11
238.4371248475
 21
127.4009799093
  0
LINE
  5
229
100
AcDbEntity
  8
RACCORDO
100
AcDbLine
 62
250
  6
CONTINUOUS
 10
238.4371248475
 20
127.4009799093
 11
238.4371248475
 21
150.9066878622
  0
LINE
  5
22A
100
AcDbEntity
  8
RACCORDO
100
AcDbLine
 62
7
  6
CONTINUOUS
 10
238.9734945378
 20
150.3703181719
 11
238.9734945378
 21
126.864610219
  0
LINE
  5
22B
100
AcDbEntity
  8
RACCORDO
100
AcDbLine
 62
7
  6
CONTINUOUS
 10
239.0172388696
 20
150.3265738401
 11
239.0172388696
 21
126.8208658872
  0
LINE
  5
22C
100
AcDbEntity
  8
DRAFT
100
AcDbLine
 62
7
  6
CONTINUOUS
 10
234.3346992543
 20
125.3703181719
 11
234.458667986
 21
125.6809029274
  0
LINE
  5
22D
100
AcDbEntity
  8
RACCORDO
100
AcDbLine
 62
250
  6
CONTINUOUS
 10
234.8561917472
 20
125.6765284942
 11
234.7165086692
 21
125.3265738401
  0
LINE
  5
22E
100
AcDbEntity
  8
0
100
AcDbLine
 62
7
  6
CONTINUOUS
 10
326.3172388696
 20
113.1265738401
 11
237.2172388696
 21
113.1265738401
  0
LINE
  5
22F
100
AcDbEntity
  8
0
100
AcDbLine
 62
7
  6
CONTINUOUS
 10
326.3172388696
 20
113.6265738401
 11
237.2172388696
 21
113.6265738401
  0
LINE
  5
230
100
AcDbEntity
  8
0
100
AcDbLine
 62
250
  6
CONTINUOUS
 10
327.3172388696
 20
114.1265738401
 11
326.8172388696
 21
114.1265738401
  0
LINE
  5
231
100
AcDbEntity
  8
0
100
AcDbLine
 62
250
  6
CONTINUOUS
 10
236.2172388696
 20
114.1265738401
 11
236.7172388696
 21
114.1265738401
  0
LINE
  5
232
100
AcDbEntity
  8
RACCORDO
100
AcDbLine
 62
250
  6
CONTINUOUS
 10
224.3109832013
 20
126.864610219
 11
224.8473528917
 21
127.4009799093
  0
LINE
  5
233
100
AcDbEntity
  8
RACCORDO
100
AcDbLine
 62
7
  6
CONTINUOUS
 10
238.4371248475
 20
150.9066878622
 11
238.4287834227
 21
150.914807168
  0
LWPOLYLINE
  5
234
100
AcDbEntity
  8
RACCORDO
100
AcDbPolyline
 62
7
  6
CONTINUOUS
 90
3
 70
0
 10
237.3813125576
 20
151.9627536676
 10
237.0562137277
 20
152.2867229789
 10
236.9428328003
 20
152.4009799093
  0
LINE
  5
235
100
AcDbEntity
  8
RACCORDO
100
AcDbLine
 62
7
  6
CONTINUOUS
 10
238.9734945378
 20
150.3703181719
 11
238.4371248475
 21
150.9066878622
  0
LINE
  5
236
100
AcDbEntity
  8
RACCORDO
100
AcDbLine
 62
7
  6
CONTINUOUS
 10
238.3260118468
 20
151.0178008629
 11
237.8407345037
 21
151.5030782059
  0
LINE
  5
237
100
AcDbEntity
  8
RACCORDO
100
AcDbLine
 62
7
  6
CONTINUOUS
 10
237.8407345037
 20
151.5030782059
 11
237.3813125576
 21
151.9627536676
  0
LWPOLYLINE
  5
238
100
AcDbEntity
  8
RACCORDO
100
AcDbPolyline
 62
7
  6
CONTINUOUS
 90
3
 70
0
 10
238.4287834227
 20
150.914807168
 10
238.4002874969
 20
150.9435252128
 10
238.3260118468
 20
151.0178008629
  0
LINE
  5
239
100
AcDbEntity
  8
RACCORDO
100
AcDbLine
 62
250
  6
CONTINUOUS
 10
225.8052752485
 20
125.3703181719
 11
226.3416449388
 21
125.9066878622
  0
LWPOLYLINE
  5
23A
100
AcDbEntity
  8
RACCORDO
100
AcDbPolyline
 62
250
  6
CONTINUOUS
 90
25
 70
0
 10
337.1928328003
 20
125.9066878622
 10
337.2900950338
 20
125.910595214
 10
337.3869447924
 20
125.9208230669
 10
337.4829713506
 20
125.9373280462
 10
337.5777674741
 20
125.9600401567
 10
337.6709311465
 20
125.9888630796
 10
337.7620672745
 20
126.0236745812
 10
337.850789363
 20
126.0643270309
 10
337.9367211551
 20
126.1106480279
 10
338.0194982271
 20
126.1624411319
 10
338.0987695341
 20
126.2194866965
 10
338.1741988977
 20
126.2815427996
 10
338.2454664326
 20
126.3483462703
 10
338.3122699038
 20
126.4196138049
 10
338.3743260075
 20
126.4950431682
 10
338.4313715728
 20
126.5743144752
 10
338.4831646778
 20
126.6570915478
 10
338.5294856758
 20
126.7430233407
 10
338.5701381264
 20
126.8317454301
 10
338.6049496286
 20
126.9228815588
 10
338.633772552
 20
127.0160452319
 10
338.6564846629
 20
127.1108413562
 10
338.6729896425
 20
127.2068679154
 10
338.6832174956
 20
127.3037176749
 10
338.6871248475
 20
127.4009799093
  0
LWPOLYLINE
  5
23B
100
AcDbEntity
  8
RACCORDO
100
AcDbPolyline
 62
250
  6
CONTINUOUS
 90
25
 70
0
 10
236.9428328003
 20
125.9066878622
 10
237.0400950338
 20
125.910595214
 10
237.1369447924
 20
125.9208230669
 10
237.2329713506
 20
125.9373280462
 10
237.3277674741
 20
125.9600401567
 10
237.4209311465
 20
125.9888630796
 10
237.5120672745
 20
126.0236745812
 10
237.600789363
 20
126.0643270309
 10
237.6867211551
 20
126.1106480279
 10
237.7694982271
 20
126.1624411319
 10
237.8487695341
 20
126.2194866965
 10
237.9241988977
 20
126.2815427996
 10
237.9954664326
 20
126.3483462703
 10
238.0622699038
 20
126.4196138049
 10
238.1243260075
 20
126.4950431682
 10
238.1813715728
 20
126.5743144752
 10
238.2331646778
 20
126.6570915478
 10
238.2794856758
 20
126.7430233407
 10
238.3201381264
 20
126.8317454301
 10
238.3549496286
 20
126.9228815588
 10
238.383772552
 20
127.0160452319
 10
238.4064846629
 20
127.1108413562
 10
238.4229896425
 20
127.2068679154
 10
238.4332174956
 20
127.3037176749
 10
238.4371248475
 20
127.4009799093
  0
LINE
  5
23C
100
AcDbEntity
  8
RACCORDO
100
AcDbLine
 62
7
  6
CONTINUOUS
 10
337.7729468224
 20
125.3265738401
 11
327.3172388696
 21
125.3265738401
  0
LINE
  5
23D
100
AcDbEntity
  8
RACCORDO
100
AcDbLine
 62
7
  6
CONTINUOUS
 10
326.8172388696
 20
125.3265738401
 11
326.0115309167
 21
125.3265738401
  0
LINE
  5
23E
100
AcDbEntity
  8
RACCORDO
100
AcDbLine
 62
7
  6
CONTINUOUS
 10
237.5229468224
 20
125.3265738401
 11
236.7172388696
 21
125.3265738401
  0
LINE
  5
23F
100
AcDbEntity
  8
RACCORDO
100
AcDbLine
 62
7
  6
CONTINUOUS
 10
236.2172388696
 20
125.3265738401
 11
225.7615309167
 21
125.3265738401
  0
LINE
  5
240
100
AcDbEntity
  8
RACCORDO
100
AcDbLine
 62
7
  6
CONTINUOUS
 10
337.7292024907
 20
125.3703181719
 11
329.1997784848
 21
125.3703181719
  0
LINE
  5
241
100
AcDbEntity
  8
RACCORDO
100
AcDbLine
 62
7
  6
CONTINUOUS
 10
326.7346992543
 20
125.3703181719
 11
326.0552752485
 21
125.3703181719
  0
LINE
  5
242
100
AcDbEntity
  8
RACCORDO
100
AcDbLine
 62
7
  6
CONTINUOUS
 10
237.4792024907
 20
125.3703181719
 11
236.7997784848
 21
125.3703181719
  0
LINE
  5
243
100
AcDbEntity
  8
RACCORDO
100
AcDbLine
 62
7
  6
CONTINUOUS
 10
234.3346992543
 20
125.3703181719
 11
225.8052752485
 21
125.3703181719
  0
LINE
  5
244
100
AcDbEntity
  8
RACCORDO
100
AcDbLine
 62
7
  6
CONTINUOUS
 10
327.6723529472
 20
125.6327841624
 11
327.3172388696
 21
125.6327841624
  0
LINE
  5
245
100
AcDbEntity
  8
RACCORDO
100
AcDbLine
 62
7
  6
CONTINUOUS
 10
236.2172388696
 20
125.6327841624
 11
235.8621247919
 21
125.6327841624
  0
LINE
  5
246
100
AcDbEntity
  8
RACCORDO
100
AcDbLine
 62
7
  6
CONTINUOUS
 10
234.8561917472
 20
125.6765284942
 11
235.8183804602
 21
125.6765284942
  0
LINE
  5
247
100
AcDbEntity
  8
RACCORDO
100
AcDbLine
 62
7
  6
CONTINUOUS
 10
327.716097279
 20
125.6765284942
 11
328.678285992
 21
125.6765284942
  0
LINE
  5
248
100
AcDbEntity
  8
DRAFT
100
AcDbLine
 62
7
  6
CONTINUOUS
 10
236.6758097531
 20
125.6809029274
 11
234.458667986
 21
125.6809029274
  0
LINE
  5
249
100
AcDbEntity
  8
DRAFT
100
AcDbLine
 62
7
  6
CONTINUOUS
 10
326.858667986
 20
125.6809029274
 11
329.0758097531
 21
125.6809029274
  0
LINE
  5
24A
100
AcDbEntity
  8
RACCORDO
100
AcDbLine
 62
250
  6
CONTINUOUS
 10
226.3416449388
 20
125.9066878622
 11
236.9428328003
 21
125.9066878622
  0
LINE
  5
24B
100
AcDbEntity
  8
RACCORDO
100
AcDbLine
 62
250
  6
CONTINUOUS
 10
326.5916449388
 20
125.9066878622
 11
337.1928328003
 21
125.9066878622
  0
LINE
  5
24C
100
AcDbEntity
  8
RACCORDO
100
AcDbLine
 62
250
  6
CONTINUOUS
 10
224.8473528917
 20
127.4009799093
 11
238.4371248475
 21
127.4009799093
  0
LINE
  5
24D
100
AcDbEntity
  8
RACCORDO
100
AcDbLine
 62
250
  6
CONTINUOUS
 10
325.0973528917
 20
127.4009799098
 11
338.6871248475
 21
127.4009799093
  0
LINE
  5
24E
100
AcDbEntity
  8
RACCORDO
100
AcDbLine
 62
250
  6
CONTINUOUS
 10
224.3109832013
 20
177.2942454141
 11
224.8473528917
 21
176.7578757237
  0
LINE
  5
24F
100
AcDbEntity
  8
RACCORDO
100
AcDbLine
 62
250
  6
CONTINUOUS
 10
269.2453667037
 20
154.6035600836
 11
269.2672388696
 21
154.6254322495
  0
LINE
  5
250
100
AcDbEntity
  8
RACCORDO
100
AcDbLine
 62
250
  6
CONTINUOUS
 10
269.5442251131
 20
154.3047016742
 11
269.566097279
 21
154.3265738401
  0
LINE
  5
251
100
AcDbEntity
  8
DRAFT
100
AcDbLine
 62
7
  6
CONTINUOUS
 10
279.3740945961
 20
161.1994078621
 11
279.3706276708
 21
161.1976746742
  0
LINE
  5
252
100
AcDbEntity
  8
DRAFT
100
AcDbLine
 62
250
  6
CONTINUOUS
 10
275.7412790158
 20
161.4401156064
 11
275.7618750413
 21
161.4474773571
  0
LINE
  5
253
100
AcDbEntity
  8
DRAFT
100
AcDbLine
 62
250
  6
CONTINUOUS
 10
276.4561500166
 20
159.4401156067
 11
276.4767460421
 21
159.4474773574
  0
LINE
  5
254
100
AcDbEntity
  8
DRAFT
100
AcDbLine
 62
250
  6
CONTINUOUS
 10
276.324870687
 20
161.6096831937
 11
276.3041749541
 21
161.602606593
  0
LINE
  5
255
100
AcDbEntity
  8
RACCORDO
100
AcDbLine
 62
250
  6
CONTINUOUS
 10
227.2995672956
 20
180.2828295083
 11
227.835936986
 21
179.746459818
  0
LINE
  5
256
100
AcDbEntity
  8
DRAFT
100
AcDbLine
 62
7
  6
CONTINUOUS
 10
272.7623858696
 20
156.8216038401
 11
272.7625057479
 21
156.7360675106
  0
LINE
  5
257
100
AcDbEntity
  8
RACCORDO
100
AcDbLine
 62
7
  6
CONTINUOUS
 10
269.2453667037
 20
163.0495875965
 11
269.2453667037
 21
154.6035600836
  0
LINE
  5
258
100
AcDbEntity
  8
RACCORDO
100
AcDbLine
 62
7
  6
CONTINUOUS
 10
269.2672388696
 20
163.0277154307
 11
269.2672388696
 21
154.6254322495
  0
LINE
  5
259
100
AcDbEntity
  8
DRAFT
100
AcDbLine
 62
7
  6
CONTINUOUS
 10
271.7440398696
 20
157.5765738401
 11
271.7440398696
 21
155.9765738401
  0
LINE
  5
25A
100
AcDbEntity
  8
INTF_1
100
AcDbLine
 62
7
  6
CONTINUOUS
 10
271.7440398696
 20
157.5765738401
 11
271.7440398696
 21
155.9765738401
  0
LINE
  5
25B
100
AcDbEntity
  8
DRAFT
100
AcDbLine
 62
7
  6
CONTINUOUS
 10
271.7659120355
 20
157.5765738401
 11
271.7659120355
 21
155.9765738401
  0
LINE
  5
25C
100
AcDbEntity
  8
DRAFT
100
AcDbLine
 62
250
  6
CONTINUOUS
 10
271.9940398696
 20
157.8265738401
 11
271.9940398696
 21
157.8047016742
  0
LINE
  5
25D
100
AcDbEntity
  8
DRAFT
100
AcDbLine
 62
250
  6
CONTINUOUS
 10
271.9940398696
 20
155.7265738401
 11
271.9940398696
 21
155.748446006
  0
LINE
  5
25E
100
AcDbEntity
  8
DRAFT
100
AcDbLine
 62
250
  6
CONTINUOUS
 10
272.0504518696
 20
155.7265738401
 11
272.0504518696
 21
155.748446006
  0
LINE
  5
25F
100
AcDbEntity
  8
DRAFT
100
AcDbLine
 62
7
  6
CONTINUOUS
 10
272.2785797037
 20
155.9765738401
 11
272.2785797037
 21
156.6907528206
  0
LINE
  5
260
100
AcDbEntity
  8
DRAFT
100
AcDbLine
 62
7
  6
CONTINUOUS
 10
272.3004518696
 20
155.9765738401
 11
272.3004518696
 21
156.5139738401
  0
LINE
  5
261
100
AcDbEntity
  8
INTF_1
100
AcDbLine
 62
7
  6
CONTINUOUS
 10
272.3004518696
 20
155.9765738401
 11
272.3004518696
 21
156.5139738401
  0
LINE
  5
262
100
AcDbEntity
  8
DRAFT
100
AcDbLine
 62
250
  6
CONTINUOUS
 10
272.3028708696
 20
157.8265738406
 11
272.3028708696
 21
157.8047016747
  0
LINE
  5
263
100
AcDbEntity
  8
DRAFT
100
AcDbLine
 62
250
  6
CONTINUOUS
 10
272.6932728696
 20
155.7265738407
 11
272.6932728696
 21
155.7484460066
  0
LINE
  5
264
100
AcDbEntity
  8
DRAFT
100
AcDbLine
 62
250
  6
CONTINUOUS
 10
272.8288058696
 20
155.7265738401
 11
272.8288058696
 21
155.748446006
  0
LINE
  5
265
100
AcDbEntity
  8
DRAFT
100
AcDbLine
 62
250
  6
CONTINUOUS
 10
273.2194448696
 20
157.8265738401
 11
273.2194448696
 21
157.8047016742
  0
LINE
  5
266
100
AcDbEntity
  8
DRAFT
100
AcDbLine
 62
7
  6
CONTINUOUS
 10
273.2228248696
 20
156.5166668401
 11
273.2228248696
 21
155.9765738401
  0
LINE
  5
267
100
AcDbEntity
  8
INTF_1
100
AcDbLine
 62
7
  6
CONTINUOUS
 10
273.2228248696
 20
156.5166668401
 11
273.2228248696
 21
155.9765738401
  0
LINE
  5
268
100
AcDbEntity
  8
DRAFT
100
AcDbLine
 62
7
  6
CONTINUOUS
 10
273.2446970355
 20
156.6928569529
 11
273.2446970355
 21
155.9765738401
  0
LINE
  5
269
100
AcDbEntity
  8
DRAFT
100
AcDbLine
 62
250
  6
CONTINUOUS
 10
273.4728248696
 20
155.7265738401
 11
273.4728248696
 21
155.748446006
  0
LINE
  5
26A
100
AcDbEntity
  8
DRAFT
100
AcDbLine
 62
7
  6
CONTINUOUS
 10
273.2228248696
 20
156.5166668401
 11
273.2446970355
 21
156.6928569529
  0
LINE
  5
26B
100
AcDbEntity
  8
DRAFT
100
AcDbLine
 62
7
  6
CONTINUOUS
 10
273.0500094288
 20
155.9207940054
 11
273.2446970355
 21
156.6928569529
  0
LINE
  5
26C
100
AcDbEntity
  8
DRAFT
100
AcDbLine
 62
7
  6
CONTINUOUS
 10
273.0712176979
 20
155.9154460185
 11
273.2228248696
 21
156.5166668401
  0
LINE
  5
26D
100
AcDbEntity
  8
INTF_1
100
AcDbLine
 62
7
  6
CONTINUOUS
 10
273.2228248696
 20
156.5166668401
 11
273.0712178696
 21
155.9154458401
  0
LINE
  5
26E
100
AcDbEntity
  8
DRAFT
100
AcDbLine
 62
7
  6
CONTINUOUS
 10
272.9776668264
 20
157.6401615381
 11
272.7623858696
 21
156.8216038401
  0
LINE
  5
26F
100
AcDbEntity
  8
INTF_1
100
AcDbLine
 62
7
  6
CONTINUOUS
 10
272.7623858696
 20
156.8216038401
 11
272.9776668696
 21
157.6401618401
  0
LINE
  5
270
100
AcDbEntity
  8
DRAFT
100
AcDbLine
 62
7
  6
CONTINUOUS
 10
272.9988196613
 20
157.6345983362
 11
272.7625057479
 21
156.7360675106
  0
LINE
  5
271
100
AcDbEntity
  8
DRAFT
100
AcDbLine
 62
7
  6
CONTINUOUS
 10
277.3205040877
 20
161.6072644012
 11
276.8312770956
 21
160.1286823415
  0
LINE
  5
272
100
AcDbEntity
  8
DRAFT
100
AcDbLine
 62
7
  6
CONTINUOUS
 10
277.3412691058
 20
161.6003937633
 11
276.8316178696
 21
160.0600838401
  0
LINE
  5
273
100
AcDbEntity
  8
DRAFT
100
AcDbLine
 62
7
  6
CONTINUOUS
 10
277.154881796
 20
159.4473435493
 11
277.8711171164
 21
161.4473434345
  0
LINE
  5
274
100
AcDbEntity
  8
DRAFT
100
AcDbLine
 62
7
  6
CONTINUOUS
 10
277.1754733655
 20
159.4399693438
 11
277.8917086859
 21
161.4399692291
  0
LINE
  5
275
100
AcDbEntity
  8
DRAFT
100
AcDbLine
 62
7
  6
CONTINUOUS
 10
274.4734416658
 20
155.8986643257
 11
274.5756790853
 21
156.180028006
  0
LINE
  5
276
100
AcDbEntity
  8
DRAFT
100
AcDbLine
 62
7
  6
CONTINUOUS
 10
274.4939987815
 20
155.8911946112
 11
274.5910028696
 21
156.1581558401
  0
LINE
  5
277
100
AcDbEntity
  8
INTF_1
100
AcDbLine
 62
7
  6
CONTINUOUS
 10
274.5910028696
 20
156.1581558401
 11
274.4939988696
 21
155.8911948401
  0
LINE
  5
278
100
AcDbEntity
  8
DRAFT
100
AcDbLine
 62
7
  6
CONTINUOUS
 10
274.7504611944
 20
156.6564066742
 11
274.8962325789
 21
157.0569108217
  0
LINE
  5
279
100
AcDbEntity
  8
INTF_1
100
AcDbLine
 62
7
  6
CONTINUOUS
 10
274.8964378696
 20
156.9935248401
 11
274.7816978696
 21
156.6782788401
  0
LINE
  5
27A
100
AcDbEntity
  8
DRAFT
100
AcDbLine
 62
7
  6
CONTINUOUS
 10
274.7816978696
 20
156.6782788401
 11
274.8964378696
 21
156.9935248401
  0
LINE
  5
27B
100
AcDbEntity
  8
DRAFT
100
AcDbLine
 62
7
  6
CONTINUOUS
 10
274.5668032084
 20
157.6673080905
 11
273.9435167582
 21
156.0670655844
  0
LINE
  5
27C
100
AcDbEntity
  8
INTF_1
100
AcDbLine
 62
7
  6
CONTINUOUS
 10
273.9433458696
 20
156.0666268401
 11
274.5668028696
 21
157.6673078401
  0
LINE
  5
27D
100
AcDbEntity
  8
DRAFT
100
AcDbLine
 62
7
  6
CONTINUOUS
 10
274.5871839946
 20
157.6593698794
 11
273.9639017649
 21
156.0591382091
  0
LWPOLYLINE
  5
27E
100
AcDbEntity
  8
DRAFT
100
AcDbPolyline
 62
7
  6
CONTINUOUS
 90
10
 70
0
 10
279.6420141461
 20
160.7405202768
 10
279.6803818254
 20
160.8097163881
 10
279.7191993215
 20
160.8765038663
 10
279.7584666343
 20
160.9408827115
 10
279.7981363892
 20
161.0029605156
 10
279.8382559609
 20
161.0626296867
 10
279.878967473
 20
161.1195674486
 10
279.9203183
 20
161.1736662094
 10
279.9622610674
 20
161.225033561
 10
280.0047957752
 20
161.2736695035
  0
LWPOLYLINE
  5
27F
100
AcDbEntity
  8
DRAFT
100
AcDbPolyline
 62
7
  6
CONTINUOUS
 90
10
 70
0
 10
279.6611476318
 20
160.7299197162
 10
279.6992105061
 20
160.7985711697
 10
279.7377141335
 20
160.8648335914
 10
279.7766585142
 20
160.9287069811
 10
279.8159946749
 20
160.9902989385
 10
279.8557715888
 20
161.049501864
 10
279.8961361757
 20
161.1059929591
 10
279.9371374086
 20
161.1596646244
 10
279.9787263145
 20
161.2106244593
 10
280.0209028934
 20
161.2588724638
  0
LINE
  5
280
100
AcDbEntity
  8
DRAFT
100
AcDbLine
 62
7
  6
CONTINUOUS
 10
275.2117288696
 20
156.1581558401
 11
275.226753882
 21
156.180028006
  0
LINE
  5
281
100
AcDbEntity
  8
DRAFT
100
AcDbLine
 62
7
  6
CONTINUOUS
 10
282.8476121983
 20
160.9002254301
 11
282.8414248679
 21
160.8929228306
  0
LINE
  5
282
100
AcDbEntity
  8
DRAFT
100
AcDbLine
 62
7
  6
CONTINUOUS
 10
282.8538079063
 20
160.9074489926
 11
282.8476121983
 21
160.9002254301
  0
LINE
  5
283
100
AcDbEntity
  8
DRAFT
100
AcDbLine
 62
7
  6
CONTINUOUS
 10
282.8600120854
 20
160.914594513
 11
282.8538079063
 21
160.9074489926
  0
LWPOLYLINE
  5
284
100
AcDbEntity
  8
DRAFT
100
AcDbPolyline
 62
7
  6
CONTINUOUS
 90
3
 70
0
 10
282.8693349145
 20
160.9251736777
 10
282.8662251091
 20
160.9216659709
 10
282.8600120854
 20
160.914594513
  0
LINE
  5
285
100
AcDbEntity
  8
DRAFT
100
AcDbLine
 62
250
  6
CONTINUOUS
 10
277.165663322
 20
157.2248820244
 11
277.1806812656
 21
157.2407833769
  0
LINE
  5
286
100
AcDbEntity
  8
DRAFT
100
AcDbLine
 62
7
  6
CONTINUOUS
 10
282.3990961062
 20
159.4660930475
 11
282.4141285735
 21
159.481985965
  0
LWPOLYLINE
  5
287
100
AcDbEntity
  8
DRAFT
100
AcDbPolyline
 62
7
  6
CONTINUOUS
 90
13
 70
0
 10
277.1759167733
 20
156.3182164576
 10
277.1832606678
 20
156.3258607606
 10
277.1903123284
 20
156.334153542
 10
277.1970717553
 20
156.3430948018
 10
277.2035311955
 20
156.3527151012
 10
277.2096984019
 20
156.3629838791
 10
277.2155966331
 20
156.3738094516
 10
277.2212266816
 20
156.3851770989
 10
277.2265877547
 20
156.3971015408
 10
277.2317007337
 20
156.4095352528
 10
277.2365725789
 20
156.4224623935
 10
277.2411963298
 20
156.4358988043
 10
277.2455719866
 20
156.4498444853
  0
LWPOLYLINE
  5
288
100
AcDbEntity
  8
DRAFT
100
AcDbPolyline
 62
7
  6
CONTINUOUS
 90
10
 70
0
 10
277.5711760045
 20
155.9625738494
 10
277.6006839895
 20
155.9925853821
 10
277.6291170578
 20
156.025267508
 10
277.6564752095
 20
156.060620227
 10
277.682905886
 20
156.0986595192
 10
277.7082616457
 20
156.1393694045
 10
277.7321001646
 20
156.1827019431
 10
277.7542740011
 20
156.2286411548
 10
277.7749305967
 20
156.2772030198
 10
277.7940699514
 20
156.3283875379
  0
LWPOLYLINE
  5
289
100
AcDbEntity
  8
DRAFT
100
AcDbPolyline
 62
7
  6
CONTINUOUS
 90
10
 70
0
 10
277.5863863523
 20
155.9468564395
 10
277.6165968509
 20
155.9775545765
 10
277.6457128573
 20
156.0109881623
 10
277.6737343716
 20
156.047157197
 10
277.7008146416
 20
156.0860755853
 10
277.7268004194
 20
156.1277294225
 10
277.7512319617
 20
156.1720769945
 10
277.7739560208
 20
156.2191043964
 10
277.7951258444
 20
156.2688255331
 10
277.8147414325
 20
156.3212404044
  0
LINE
  5
28A
100
AcDbEntity
  8
DRAFT
100
AcDbLine
 62
7
  6
CONTINUOUS
 10
276.6694558696
 20
156.2466968401
 11
276.6475837037
 21
156.2248246742
  0
LINE
  5
28B
100
AcDbEntity
  8
DRAFT
100
AcDbLine
 62
7
  6
CONTINUOUS
 10
278.6775998696
 20
157.0839408401
 11
278.6557277037
 21
157.0620686742
  0
LINE
  5
28C
100
AcDbEntity
  8
DRAFT
100
AcDbLine
 62
7
  6
CONTINUOUS
 10
278.6775998696
 20
156.2466968401
 11
278.6557277037
 21
156.2248246742
  0
LWPOLYLINE
  5
28D
100
AcDbEntity
  8
INTF_1
100
AcDbPolyline
 62
7
  6
CONTINUOUS
 90
29
 70
0
 10
277.5861911843
 20
155.9466663945
 10
277.5771572267
 20
155.9381163675
 10
277.5679413206
 20
155.9297511632
 10
277.5585499742
 20
155.921569959
 10
277.5489896959
 20
155.9135719327
 10
277.5392669941
 20
155.9057562618
 10
277.529388377
 20
155.898122124
 10
277.5193603532
 20
155.8906686969
 10
277.5091894309
 20
155.883395158
 10
277.4988821184
 20
155.876300685
 10
277.4884449241
 20
155.8693844554
 10
277.4778843564
 20
155.862645647
 10
277.4672069236
 20
155.8560834372
 10
277.4564191341
 20
155.8496970038
 10
277.4455274962
 20
155.8434855243
 10
277.4345385183
 20
155.8374481762
 10
277.4234587086
 20
155.8315841373
 10
277.4122945757
 20
155.8258925852
 10
277.4010526278
 20
155.8203726973
 10
277.3897393732
 20
155.8150236515
 10
277.3783613204
 20
155.8098446251
 10
277.3669249776
 20
155.804834796
 10
277.3543631205
 20
155.7995499591
 10
277.341740138
 20
155.7944593786
 10
277.3290567819
 20
155.7895561095
 10
277.3163138038
 20
155.7848332069
 10
277.3035119554
 20
155.7802837259
 10
277.2906519883
 20
155.7759007215
 10
277.2777346542
 20
155.7716772487
  0
LWPOLYLINE
  5
28E
100
AcDbEntity
  8
INTF_1
100
AcDbPolyline
 62
7
  6
CONTINUOUS
 90
34
 70
0
 10
277.1759167108
 20
156.3182164018
 10
277.1781827398
 20
156.3203069807
 10
277.1803782038
 20
156.3224716316
 10
277.182508264
 20
156.3247031543
 10
277.184578082
 20
156.3269943485
 10
277.1865928188
 20
156.3293380141
 10
277.188557636
 20
156.3317269507
 10
277.1904776948
 20
156.3341539581
 10
277.1923581565
 20
156.336611836
 10
277.195445016
 20
156.3408045533
 10
277.1984369128
 20
156.3450615635
 10
277.2013364743
 20
156.3493800783
 10
277.2041463282
 20
156.3537573093
 10
277.2068691017
 20
156.3581904683
 10
277.2095074225
 20
156.362676767
 10
277.212063918
 20
156.3672134171
 10
277.2145412158
 20
156.3717976302
 10
277.2169419432
 20
156.3764266181
 10
277.2192687277
 20
156.3810975924
 10
277.221524197
 20
156.3858077649
 10
277.2237109784
 20
156.3905543472
 10
277.2258316993
 20
156.3953345511
 10
277.2278889875
 20
156.4001455882
 10
277.2298854702
 20
156.4049846703
 10
277.2318237749
 20
156.4098490089
 10
277.2337065293
 20
156.414735816
 10
277.2355363607
 20
156.419642303
 10
277.2373158966
 20
156.4245656818
 10
277.2390477645
 20
156.429503164
 10
277.240734592
 20
156.4344519613
 10
277.2423790064
 20
156.4394092854
 10
277.2439836353
 20
156.444372348
 10
277.2455511062
 20
156.4493383609
 10
277.2470840465
 20
156.4543045356
  0
LWPOLYLINE
  5
28F
100
AcDbEntity
  8
DRAFT
100
AcDbPolyline
 62
7
  6
CONTINUOUS
 90
10
 70
0
 10
277.1904637277
 20
156.3018831248
 10
277.1798380394
 20
156.292948012
 10
277.1684599221
 20
156.2845057185
 10
277.1563293756
 20
156.2765562443
 10
277.143420941
 20
156.2690716514
 10
277.1297600772
 20
156.2620798779
 10
277.1154231611
 20
156.2556647376
 10
277.1004356516
 20
156.2498541684
 10
277.0847720898
 20
156.2446202324
 10
277.0684324757
 20
156.2399629295
  0
LINE
  5
290
100
AcDbEntity
  8
DRAFT
100
AcDbLine
 62
250
  6
CONTINUOUS
 10
277.6390926299
 20
157.5466622146
 11
277.6222039667
 21
157.5327638444
  0
LWPOLYLINE
  5
291
100
AcDbEntity
  8
DRAFT
100
AcDbPolyline
 62
7
  6
CONTINUOUS
 90
10
 70
0
 10
286.8666164039
 20
161.3013268975
 10
286.8803407633
 20
161.3118462262
 10
286.8949998127
 20
161.3213099206
 10
286.910593552
 20
161.3297179808
 10
286.9274129496
 20
161.337183283
 10
286.9451670372
 20
161.3435929509
 10
286.9629829098
 20
161.3486083553
 10
286.9805695992
 20
161.3521166197
 10
286.9982180737
 20
161.3542306207
 10
287.0159283333
 20
161.3549503581
  0
LWPOLYLINE
  5
292
100
AcDbEntity
  8
DRAFT
100
AcDbPolyline
 62
7
  6
CONTINUOUS
 90
37
 70
0
 10
284.5392039202
 20
160.5848546516
 10
284.5130198969
 20
160.564845184
 10
284.4875164185
 20
160.5438793394
 10
284.462693485
 20
160.5219571178
 10
284.4384488623
 20
160.4990521769
 10
284.4148847845
 20
160.4751908591
 10
284.3923079539
 20
160.4504521906
 10
284.3707072672
 20
160.4247978517
 10
284.3500938278
 20
160.3982661623
 10
284.3308076479
 20
160.3710511083
 10
284.3129229396
 20
160.3431962983
 10
284.2963654908
 20
160.3146581238
 10
284.2812526773
 20
160.2854997446
 10
284.2676507098
 20
160.2558826468
 10
284.2554933777
 20
160.2256453443
 10
284.2446994248
 20
160.1943665385
 10
284.2351876132
 20
160.1620531079
 10
284.2270391809
 20
160.1286981739
 10
284.2204165857
 20
160.0938598026
 10
284.2152392122
 20
160.0575108593
 10
284.2115876758
 20
160.0196784786
 10
284.209866281
 20
159.98000213
 10
284.2098861378
 20
159.9382089313
 10
284.2118361362
 20
159.8945717646
 10
284.2166872505
 20
159.8495487453
 10
284.2245720619
 20
159.8027137607
 10
284.2353579891
 20
159.7544929234
 10
284.2496182623
 20
159.7066226861
 10
284.2676009981
 20
159.6592413924
 10
284.2890580798
 20
159.6122106988
 10
284.3138183872
 20
159.5668520266
 10
284.3421318613
 20
159.5231149554
 10
284.373748561
 20
159.4810499057
 10
284.4077475429
 20
159.4421295604
 10
284.4438218256
 20
159.4068448138
 10
284.4822783905
 20
159.3747047716
 10
284.5231172375
 20
159.3457094338
  0
LWPOLYLINE
  5
293
100
AcDbEntity
  8
DRAFT
100
AcDbPolyline
 62
7
  6
CONTINUOUS
 90
25
 70
0
 10
285.2062960409
 20
159.8172988619
 10
285.2277538992
 20
159.8324265188
 10
285.2464077522
 20
159.8487960051
 10
285.2622576
 20
159.8664073206
 10
285.2751866531
 20
159.8855061693
 10
285.2853117009
 20
159.9058468473
 10
285.2929831118
 20
159.9266922427
 10
285.2981428783
 20
159.9479170427
 10
285.3008490078
 20
159.9696465601
 10
285.3016258908
 20
159.9915196215
 10
285.300873476
 20
160.0135349887
 10
285.2981918147
 20
160.0356938998
 10
285.2929054519
 20
160.0576388963
 10
285.2848208079
 20
160.0796282855
 10
285.2741314625
 20
160.10140376
 10
285.2607426993
 20
160.1218329396
 10
285.2443556274
 20
160.1407787351
 10
285.2252691377
 20
160.1583782356
 10
285.2042851867
 20
160.173910328
 10
285.1814270705
 20
160.187222159
 10
285.156671493
 20
160.1984665819
 10
285.1307505223
 20
160.2073810434
 10
285.1039081813
 20
160.2138780257
 10
285.0759004471
 20
160.2180450466
 10
285.0467273198
 20
160.219882106
  0
LINE
  5
294
100
AcDbEntity
  8
DRAFT
100
AcDbLine
 62
7
  6
CONTINUOUS
 10
274.7816978696
 20
156.6782788401
 11
274.7504611944
 21
156.6564066742
  0
LINE
  5
295
100
AcDbEntity
  8
DRAFT
100
AcDbLine
 62
250
  6
CONTINUOUS
 10
282.8450583738
 20
159.8912219167
 11
282.827023656
 21
159.8788469128
  0
LINE
  5
296
100
AcDbEntity
  8
DRAFT
100
AcDbLine
 62
250
  6
CONTINUOUS
 10
281.8555667769
 20
157.7072089913
 11
281.8369182699
 21
157.6957798695
  0
LWPOLYLINE
  5
297
100
AcDbEntity
  8
DRAFT
100
AcDbPolyline
 62
7
  6
CONTINUOUS
 90
10
 70
0
 10
285.2175903212
 20
159.7985679445
 10
285.2020022179
 20
159.7898855517
 10
285.1856468726
 20
159.7821861865
 10
285.1685242852
 20
159.7754698491
 10
285.1506313079
 20
159.7697135694
 10
285.1319710886
 20
159.7649403174
 10
285.1125530711
 20
159.7612190029
 10
285.0923804034
 20
159.7585725958
 10
285.0714499375
 20
159.7569781262
 10
285.0497616735
 20
159.7564355941
  0
LINE
  5
298
100
AcDbEntity
  8
DRAFT
100
AcDbLine
 62
7
  6
CONTINUOUS
 10
282.2468017846
 20
159.665345314
 11
282.2661945432
 21
159.6754615719
  0
LINE
  5
299
100
AcDbEntity
  8
DRAFT
100
AcDbLine
 62
250
  6
CONTINUOUS
 10
275.233435728
 20
157.6695031936
 11
275.2131307994
 21
157.6613729098
  0
LINE
  5
29A
100
AcDbEntity
  8
DRAFT
100
AcDbLine
 62
250
  6
CONTINUOUS
 10
275.8740907314
 20
156.069503195
 11
275.8537858028
 21
156.0613729112
  0
LINE
  5
29B
100
AcDbEntity
  8
DRAFT
100
AcDbLine
 62
250
  6
CONTINUOUS
 10
275.3160049344
 20
155.8868756713
 11
275.3364207989
 21
155.8947232262
  0
LINE
  5
29C
100
AcDbEntity
  8
DRAFT
100
AcDbLine
 62
250
  6
CONTINUOUS
 10
277.7992376441
 20
157.272006039
 11
277.7787965218
 21
157.2642229419
  0
LWPOLYLINE
  5
29D
100
AcDbEntity
  8
DRAFT
100
AcDbPolyline
 62
7
  6
CONTINUOUS
 90
10
 70
0
 10
277.2777346538
 20
155.7716772486
 10
277.3202395127
 20
155.7863390009
 10
277.3607205297
 20
155.8022706333
 10
277.3991777046
 20
155.8194721456
 10
277.4356493235
 20
155.8380358441
 10
277.4700971003
 20
155.8578694225
 10
277.5024061774
 20
155.8786959631
 10
277.5325382688
 20
155.9004231598
 10
277.5605316604
 20
155.9231433186
 10
277.5863863523
 20
155.9468564395
  0
LWPOLYLINE
  5
29E
100
AcDbEntity
  8
DRAFT
100
AcDbPolyline
 62
7
  6
CONTINUOUS
 90
10
 70
0
 10
277.2710636206
 20
155.79250725
 10
277.3123649268
 20
155.8067388414
 10
277.3517069559
 20
155.8222019065
 10
277.3890897078
 20
155.8388964453
 10
277.4245526416
 20
155.8569095236
 10
277.4580562982
 20
155.8761540755
 10
277.4894823005
 20
155.8963689038
 10
277.5187911895
 20
155.9174669426
 10
277.5460224241
 20
155.9395352578
 10
277.5711760045
 20
155.9625738494
  0
LINE
  5
29F
100
AcDbEntity
  8
DRAFT
100
AcDbLine
 62
250
  6
CONTINUOUS
 10
287.2480859174
 20
161.0885673204
 11
287.2689492559
 21
161.0951759964
  0
LWPOLYLINE
  5
2A0
100
AcDbEntity
  8
INTF_1
100
AcDbPolyline
 62
7
  6
CONTINUOUS
 90
24
 70
0
 10
277.2777346542
 20
155.7716772487
 10
277.2646170318
 20
155.7676221499
 10
277.2514200861
 20
155.7638241456
 10
277.2381519914
 20
155.7602717171
 10
277.2248209218
 20
155.7569533457
 10
277.2114350515
 20
155.7538575126
 10
277.1980025548
 20
155.7509726991
 10
277.182118703
 20
155.7478289151
 10
277.1661853497
 20
155.7449517781
 10
277.1502064204
 20
155.7423307391
 10
277.134185841
 20
155.7399552495
 10
277.1181275372
 20
155.7378147606
 10
277.1020354348
 20
155.7358987234
 10
277.0859134594
 20
155.7341965894
 10
277.0697655368
 20
155.7326978098
 10
277.0535955927
 20
155.7313918358
 10
277.0374075529
 20
155.7302681186
 10
277.0212053431
 20
155.7293161096
 10
277.0049928891
 20
155.7285252599
 10
276.9887741166
 20
155.7278850208
 10
276.9725529513
 20
155.7273848436
 10
276.956333319
 20
155.7270141796
 10
276.9401191454
 20
155.7267624799
 10
276.9239143562
 20
155.7266191958
  0
LWPOLYLINE
  5
2A1
100
AcDbEntity
  8
DRAFT
100
AcDbPolyline
 62
7
  6
CONTINUOUS
 90
10
 70
0
 10
277.0629520492
 20
156.2611373614
 10
277.0780541701
 20
156.265443308
 10
277.0925374519
 20
156.2702748624
 10
277.1064018945
 20
156.2756320246
 10
277.1196725407
 20
156.28153688
 10
277.1323243477
 20
156.2879673433
 10
277.1442821873
 20
156.2948571583
 10
277.1555210168
 20
156.3021842396
 10
277.1660658788
 20
156.3099706727
 10
277.1759167733
 20
156.3182164576
  0
LWPOLYLINE
  5
2A2
100
AcDbEntity
  8
INTF_1
100
AcDbPolyline
 62
7
  6
CONTINUOUS
 90
26
 70
0
 10
277.2819784973
 20
156.7742631525
 10
277.2818145067
 20
156.7925246479
 10
277.2814530976
 20
156.8107764061
 10
277.2809123828
 20
156.829028605
 10
277.2802104754
 20
156.8472914222
 10
277.2793654881
 20
156.8655750355
 10
277.2787967358
 20
156.876529659
 10
277.2781741522
 20
156.8874917033
 10
277.2774886589
 20
156.8984574969
 10
277.2767311773
 20
156.9094233681
 10
277.275892629
 20
156.9203856455
 10
277.2749639355
 20
156.9313406577
 10
277.2739360182
 20
156.9422847331
 10
277.2727997986
 20
156.9532142002
 10
277.2715461982
 20
156.9641253876
 10
277.2701661386
 20
156.9750146237
 10
277.2686505412
 20
156.9858782369
 10
277.2669903275
 20
156.996712556
 10
277.265176419
 20
157.0075139092
 10
277.2631997372
 20
157.0182786252
 10
277.2610512036
 20
157.0290030324
 10
277.2587217397
 20
157.0396834593
 10
277.256202267
 20
157.0503162345
 10
277.2534837069
 20
157.0608976864
 10
277.250556981
 20
157.0714241436
 10
277.2474130108
 20
157.0818919344
  0
LINE
  5
2A3
100
AcDbEntity
  8
DRAFT
100
AcDbLine
 62
7
  6
CONTINUOUS
 10
276.8312770956
 20
160.1286823415
 11
276.8316178696
 21
160.0600838401
  0
LWPOLYLINE
  5
2A4
100
AcDbEntity
  8
DRAFT
100
AcDbPolyline
 62
7
  6
CONTINUOUS
 90
10
 70
0
 10
277.2819377508
 20
156.7558983902
 10
277.2817161554
 20
156.8040146788
 10
277.2802952165
 20
156.8505762034
 10
277.2776749342
 20
156.8955829639
 10
277.2741256568
 20
156.9391389592
 10
277.269377036
 20
156.9811401905
 10
277.2626180265
 20
157.021274661
 10
277.25357828
 20
157.0594383718
 10
277.2425281449
 20
157.0957353217
 10
277.2294676212
 20
157.1301655108
  0
LINE
  5
2A5
100
AcDbEntity
  8
DRAFT
100
AcDbLine
 62
7
  6
CONTINUOUS
 10
274.8964378696
 20
156.9935248401
 11
274.8962325789
 21
157.0569108217
  0
LINE
  5
2A6
100
AcDbEntity
  8
DRAFT
100
AcDbLine
 62
7
  6
CONTINUOUS
 10
275.6424344042
 20
155.7265738401
 11
275.6424151845
 21
155.748446006
  0
LINE
  5
2A7
100
AcDbEntity
  8
DRAFT
100
AcDbLine
 62
250
  6
CONTINUOUS
 10
273.5292368696
 20
157.8265738401
 11
273.5292368696
 21
157.8047016742
  0
LINE
  5
2A8
100
AcDbEntity
  8
DRAFT
100
AcDbLine
 62
250
  6
CONTINUOUS
 10
273.5292368696
 20
155.7265738401
 11
273.5292368696
 21
155.748446006
  0
LINE
  5
2A9
100
AcDbEntity
  8
DRAFT
100
AcDbLine
 62
7
  6
CONTINUOUS
 10
273.7573647037
 20
155.9765738401
 11
273.7573647037
 21
157.5765738401
  0
LINE
  5
2AA
100
AcDbEntity
  8
DRAFT
100
AcDbLine
 62
7
  6
CONTINUOUS
 10
273.7792368696
 20
155.9765738401
 11
273.7792368696
 21
157.5765738401
  0
LINE
  5
2AB
100
AcDbEntity
  8
INTF_1
100
AcDbLine
 62
7
  6
CONTINUOUS
 10
273.7792368696
 20
155.9765738401
 11
273.7792368696
 21
157.5765738401
  0
LINE
  5
2AC
100
AcDbEntity
  8
DRAFT
100
AcDbLine
 62
250
  6
CONTINUOUS
 10
274.1765638696
 20
155.7265738423
 11
274.1765638696
 21
155.7484460082
  0
LINE
  5
2AD
100
AcDbEntity
  8
DRAFT
100
AcDbLine
 62
250
  6
CONTINUOUS
 10
274.2590298696
 20
155.7265738401
 11
274.2590298696
 21
155.748446006
  0
LINE
  5
2AE
100
AcDbEntity
  8
DRAFT
100
AcDbLine
 62
250
  6
CONTINUOUS
 10
274.7997568696
 20
157.8265738401
 11
274.7997568696
 21
157.8047016742
  0
LINE
  5
2AF
100
AcDbEntity
  8
DRAFT
100
AcDbLine
 62
250
  6
CONTINUOUS
 10
275.0013498696
 20
157.8265738379
 11
275.0013498696
 21
157.804701672
  0
LINE
  5
2B0
100
AcDbEntity
  8
DRAFT
100
AcDbLine
 62
250
  6
CONTINUOUS
 10
275.5493598696
 20
155.7265738379
 11
275.5493598696
 21
155.7484460038
  0
LINE
  5
2B1
100
AcDbEntity
  8
DRAFT
100
AcDbLine
 62
250
  6
CONTINUOUS
 10
276.0818148696
 20
161.7834460059
 11
276.0818148696
 21
161.76157384
  0
LINE
  5
2B2
100
AcDbEntity
  8
DRAFT
100
AcDbLine
 62
7
  6
CONTINUOUS
 10
276.0858268696
 20
157.5765738401
 11
276.0858268696
 21
155.9765738401
  0
LINE
  5
2B3
100
AcDbEntity
  8
INTF_1
100
AcDbLine
 62
7
  6
CONTINUOUS
 10
276.0858268696
 20
157.5765738401
 11
276.0858268696
 21
155.9765738401
  0
LINE
  5
2B4
100
AcDbEntity
  8
DRAFT
100
AcDbLine
 62
7
  6
CONTINUOUS
 10
276.1076990355
 20
157.5765738401
 11
276.1076990355
 21
155.9765738401
  0
LINE
  5
2B5
100
AcDbEntity
  8
DRAFT
100
AcDbLine
 62
250
  6
CONTINUOUS
 10
276.3358268696
 20
157.8265738401
 11
276.3358268696
 21
157.8047016742
  0
LINE
  5
2B6
100
AcDbEntity
  8
DRAFT
100
AcDbLine
 62
250
  6
CONTINUOUS
 10
276.3358268696
 20
155.7265738401
 11
276.3358268696
 21
155.748446006
  0
LINE
  5
2B7
100
AcDbEntity
  8
DRAFT
100
AcDbLine
 62
7
  6
CONTINUOUS
 10
276.6475837037
 20
156.2248246742
 11
276.6475837037
 21
157.327027006
  0
LINE
  5
2B8
100
AcDbEntity
  8
DRAFT
100
AcDbLine
 62
7
  6
CONTINUOUS
 10
276.6694558696
 20
156.2466968401
 11
276.6694558696
 21
157.3051548401
  0
LINE
  5
2B9
100
AcDbEntity
  8
INTF_1
100
AcDbLine
 62
7
  6
CONTINUOUS
 10
276.6694558696
 20
156.2466968401
 11
276.6694558696
 21
157.3051548401
  0
LINE
  5
2BA
100
AcDbEntity
  8
DRAFT
100
AcDbLine
 62
250
  6
CONTINUOUS
 10
276.6980348696
 20
159.2697016742
 11
276.6980348696
 21
159.2915738401
  0
LINE
  5
2BB
100
AcDbEntity
  8
DRAFT
100
AcDbLine
 62
250
  6
CONTINUOUS
 10
276.7418292038
 20
157.3051548404
 11
276.7418292038
 21
157.3270270063
  0
LINE
  5
2BC
100
AcDbEntity
  8
DRAFT
100
AcDbLine
 62
250
  6
CONTINUOUS
 10
276.8558811891
 20
156.246696839
 11
276.8558811891
 21
156.2248246731
  0
LINE
  5
2BD
100
AcDbEntity
  8
DRAFT
100
AcDbLine
 62
250
  6
CONTINUOUS
 10
276.8869861113
 20
157.8265738399
 11
276.8869861113
 21
157.804701674
  0
LINE
  5
2BE
100
AcDbEntity
  8
DRAFT
100
AcDbLine
 62
250
  6
CONTINUOUS
 10
276.9077228772
 20
155.7265738399
 11
276.9077228772
 21
155.7484460057
  0
LINE
  5
2BF
100
AcDbEntity
  8
DRAFT
100
AcDbLine
 62
250
  6
CONTINUOUS
 10
276.9336408696
 20
159.2697016742
 11
276.9336408696
 21
159.2915738401
  0
LINE
  5
2C0
100
AcDbEntity
  8
DRAFT
100
AcDbLine
 62
250
  6
CONTINUOUS
 10
277.5643738696
 20
161.783446006
 11
277.5643738696
 21
161.7615738401
  0
LINE
  5
2C1
100
AcDbEntity
  8
DRAFT
100
AcDbLine
 62
250
  6
CONTINUOUS
 10
277.6498758696
 20
161.7834460053
 11
277.6498758696
 21
161.7615738394
  0
LINE
  5
2C2
100
AcDbEntity
  8
DRAFT
100
AcDbLine
 62
250
  6
CONTINUOUS
 10
275.9835084872
 20
161.783446006
 11
275.9834934891
 21
161.7615738401
  0
LWPOLYLINE
  5
2C3
100
AcDbEntity
  8
INTF_1
100
AcDbPolyline
 62
7
  6
CONTINUOUS
 90
25
 70
0
 10
277.8786643254
 20
156.7584291652
 10
277.8785644135
 20
156.7383948331
 10
277.8782591754
 20
156.718366543
 10
277.877740357
 20
156.6983416685
 10
277.8769997046
 20
156.6783175832
 10
277.8760289641
 20
156.6582916608
 10
277.8748198817
 20
156.638261275
 10
277.8735302716
 20
156.6203495392
 10
277.8720367172
 20
156.6024387984
 10
277.8703323642
 20
156.5845357139
 10
277.8684103582
 20
156.5666469474
 10
277.8662638446
 20
156.5487791601
 10
277.8638859691
 20
156.5309390135
 10
277.8612698773
 20
156.5131331691
 10
277.8584087147
 20
156.4953682882
 10
277.8552956269
 20
156.4776510324
 10
277.8519237595
 20
156.459988063
 10
277.8482862581
 20
156.4423860416
 10
277.8443762681
 20
156.4248516294
 10
277.8401869353
 20
156.407391488
 10
277.8357114052
 20
156.3900122789
 10
277.8309428233
 20
156.3727206633
 10
277.8258743353
 20
156.3555233029
 10
277.8204990866
 20
156.3384268589
 10
277.814810223
 20
156.321437993
  0
LWPOLYLINE
  5
2C4
100
AcDbEntity
  8
DRAFT
100
AcDbPolyline
 62
7
  6
CONTINUOUS
 90
10
 70
0
 10
277.3038136353
 20
156.7560794287
 10
277.3032469725
 20
156.7172536421
 10
277.3018303773
 20
156.679436799
 10
277.2995638498
 20
156.6426288996
 10
277.2965020185
 20
156.6067940018
 10
277.2925902548
 20
156.5719680477
 10
277.2876646731
 20
156.5382588625
 10
277.2816706448
 20
156.5057023881
 10
277.2746627985
 20
156.4742626826
 10
277.2666411342
 20
156.4439397461
  0
LINE
  5
2C5
100
AcDbEntity
  8
DRAFT
100
AcDbLine
 62
250
  6
CONTINUOUS
 10
277.0355836264
 20
157.2891597185
 11
277.0402116162
 21
157.3105366535
  0
LWPOLYLINE
  5
2C6
100
AcDbEntity
  8
DRAFT
100
AcDbPolyline
 62
7
  6
CONTINUOUS
 90
10
 70
0
 10
277.2455719866
 20
156.4498444853
 10
277.25342405
 20
156.4795162628
 10
277.2602805602
 20
156.51029757
 10
277.2661415174
 20
156.5421884069
 10
277.2709499916
 20
156.5752234092
 10
277.2747629127
 20
156.6093679412
 10
277.2777510702
 20
156.644518096
 10
277.279971394
 20
156.6806392379
 10
277.2813669542
 20
156.7177660027
 10
277.2819377508
 20
156.7558983902
  0
LINE
  5
2C7
100
AcDbEntity
  8
DRAFT
100
AcDbLine
 62
7
  6
CONTINUOUS
 10
277.246055369
 20
157.7935466797
 11
277.2400191727
 21
157.772505319
  0
LWPOLYLINE
  5
2C8
100
AcDbEntity
  8
INTF_1
100
AcDbPolyline
 62
7
  6
CONTINUOUS
 90
24
 70
0
 10
277.2469471826
 20
156.454345786
 10
277.2498942464
 20
156.4646070272
 10
277.2526184949
 20
156.474930833
 10
277.2551405164
 20
156.4853088225
 10
277.2574808991
 20
156.4957326149
 10
277.2596602312
 20
156.5061938296
 10
277.2616991011
 20
156.5166840855
 10
277.2643914409
 20
156.5316547168
 10
277.266850175
 20
156.5466640122
 10
277.2690846257
 20
156.5617087669
 10
277.2711041157
 20
156.5767857755
 10
277.2729179674
 20
156.5918918331
 10
277.2745355033
 20
156.6070237346
 10
277.2759660461
 20
156.6221782748
 10
277.2772189181
 20
156.6373522487
 10
277.2783034419
 20
156.6525424512
 10
277.2792289399
 20
156.6677456772
 10
277.2800047348
 20
156.6829587215
 10
277.280640149
 20
156.6981783792
 10
277.281144505
 20
156.7134014451
 10
277.2815271254
 20
156.7286247141
 10
277.2817973326
 20
156.7438449811
 10
277.2819644492
 20
156.759059041
 10
277.2820377976
 20
156.7742636888
  0
LWPOLYLINE
  5
2C9
100
AcDbEntity
  8
DRAFT
100
AcDbPolyline
 62
7
  6
CONTINUOUS
 90
13
 70
0
 10
277.2666411342
 20
156.4439397461
 10
277.2620089501
 20
156.4289899716
 10
277.2570726491
 20
156.4145666904
 10
277.251832231
 20
156.4006699025
 10
277.2462945845
 20
156.3872792727
 10
277.240452821
 20
156.3744151362
 10
277.2342862753
 20
156.3621384982
 10
277.2277866339
 20
156.3504346948
 10
277.2209622104
 20
156.3393183899
 10
277.2138172804
 20
156.3288945808
 10
277.2063532692
 20
156.3191982664
 10
277.1985687517
 20
156.3101944477
 10
277.1904637277
 20
156.3018831248
  0
LWPOLYLINE
  5
2CA
100
AcDbEntity
  8
DRAFT
100
AcDbPolyline
 62
7
  6
CONTINUOUS
 90
10
 70
0
 10
277.7940699514
 20
156.3283875379
 10
277.8073272986
 20
156.3698178802
 10
277.819009137
 20
156.4128779661
 10
277.8291154665
 20
156.4575677957
 10
277.8376416799
 20
156.5039430071
 10
277.8445923844
 20
156.5519479622
 10
277.8499814024
 20
156.601415747
 10
277.8538133413
 20
156.6522907234
 10
277.8560835937
 20
156.7046285294
 10
277.8567921595
 20
156.7584291652
  0
LWPOLYLINE
  5
2CB
100
AcDbEntity
  8
DRAFT
100
AcDbPolyline
 62
7
  6
CONTINUOUS
 90
10
 70
0
 10
277.8147414325
 20
156.3212404044
 10
277.8282341155
 20
156.36335235
 10
277.8401273804
 20
156.4071224605
 10
277.8504212273
 20
156.4525507359
 10
277.8591131452
 20
156.4996932017
 10
277.866205645
 20
156.5484938323
 10
277.8717062597
 20
156.5987845516
 10
277.8756175001
 20
156.6505093341
 10
277.8779368553
 20
156.7037242053
 10
277.8786643254
 20
156.7584291652
  0
LWPOLYLINE
  5
2CC
100
AcDbEntity
  8
INTF_1
100
AcDbPolyline
 62
7
  6
CONTINUOUS
 90
28
 70
0
 10
277.8148092883
 20
156.3214383159
 10
277.809089692
 20
156.3052320907
 10
277.8031497908
 20
156.2891096317
 10
277.7969809197
 20
156.2730731323
 10
277.7905744132
 20
156.2571247857
 10
277.7839216063
 20
156.2412667852
 10
277.7770138338
 20
156.2255013242
 10
277.7698424303
 20
156.2098305958
 10
277.7629039257
 20
156.1952913009
 10
277.7557283089
 20
156.180845165
 10
277.748315728
 20
156.1665008923
 10
277.7406663311
 20
156.152267187
 10
277.7327802664
 20
156.1381527534
 10
277.724657682
 20
156.1241662957
 10
277.7162987261
 20
156.1103165181
 10
277.7077035468
 20
156.0966121248
 10
277.6988722923
 20
156.0830618202
 10
277.6898051108
 20
156.0696743083
 10
277.6805021503
 20
156.0564582935
 10
277.670963559
 20
156.04342248
 10
277.6611894851
 20
156.0305755719
 10
277.6511800767
 20
156.0179262736
 10
277.6409354819
 20
156.0054832893
 10
277.630455849
 20
155.9932553231
 10
277.6197413259
 20
155.9812510793
 10
277.608792061
 20
155.9694792622
 10
277.5976082024
 20
155.9579485759
 10
277.5861898981
 20
155.9466677248
  0
LINE
  5
2CD
100
AcDbEntity
  8
DRAFT
100
AcDbLine
 62
7
  6
CONTINUOUS
 10
280.9866744203
 20
160.8695930194
 11
280.9963588696
 21
160.8893231553
  0
LWPOLYLINE
  5
2CE
100
AcDbEntity
  8
DRAFT
100
AcDbPolyline
 62
7
  6
CONTINUOUS
 90
3
 70
0
 10
280.9744867037
 20
160.8451653279
 10
280.9769315185
 20
160.8500303472
 10
280.9866744203
 20
160.8695930194
  0
LWPOLYLINE
  5
2CF
100
AcDbEntity
  8
DRAFT
100
AcDbPolyline
 62
7
  6
CONTINUOUS
 90
10
 70
0
 10
281.0406029307
 20
161.64775982
 10
281.0221382004
 20
161.6152343865
 10
281.0013408896
 20
161.5829400095
 10
280.9782109985
 20
161.5508766891
 10
280.9527668551
 20
161.5189326242
 10
280.9249901313
 20
161.487219616
 10
280.8948258423
 20
161.4560730673
 10
280.8622556598
 20
161.4256047792
 10
280.8272979122
 20
161.3957029507
 10
280.7899525993
 20
161.3663675817
  0
LWPOLYLINE
  5
2D0
100
AcDbEntity
  8
DRAFT
100
AcDbPolyline
 62
7
  6
CONTINUOUS
 90
10
 70
0
 10
281.0213425904
 20
161.6581247094
 10
281.0033106093
 20
161.6263904217
 10
280.9830018034
 20
161.5948872317
 10
280.9604161728
 20
161.5636151396
 10
280.9355686897
 20
161.5324659772
 10
280.9084443819
 20
161.5015479126
 10
280.8789983325
 20
161.4711854504
 10
280.8472155695
 20
161.4414867588
 10
280.8131110649
 20
161.4123436697
 10
280.7766848189
 20
161.383756183
  0
LINE
  5
2D1
100
AcDbEntity
  8
DRAFT
100
AcDbLine
 62
250
  6
CONTINUOUS
 10
284.5112347791
 20
159.3273464595
 11
284.5231172375
 21
159.3457094338
  0
LINE
  5
2D2
100
AcDbEntity
  8
DRAFT
100
AcDbLine
 62
250
  6
CONTINUOUS
 10
287.4404912032
 20
161.633515231
 11
287.4268677213
 21
161.6163760238
  0
LINE
  5
2D3
100
AcDbEntity
  8
DRAFT
100
AcDbLine
 62
250
  6
CONTINUOUS
 10
287.1473528546
 20
161.2856324956
 11
287.1610360022
 21
161.3026994335
  0
LWPOLYLINE
  5
2D4
100
AcDbEntity
  8
DRAFT
100
AcDbPolyline
 62
7
  6
CONTINUOUS
 90
28
 70
0
 10
286.490259182
 20
161.5450152271
 10
286.4648480031
 20
161.5155977261
 10
286.4409236075
 20
161.4850420217
 10
286.4184859953
 20
161.4533481139
 10
286.3975510618
 20
161.4203633177
 10
286.3781029117
 20
161.3862403181
 10
286.3600938587
 20
161.3514371698
 10
286.3435705805
 20
161.3160038069
 10
286.3284863994
 20
161.2798902953
 10
286.3146535968
 20
161.2434048877
 10
286.3020808853
 20
161.2065654684
 10
286.2907595523
 20
161.169354153
 10
286.2804757418
 20
161.1320255407
 10
286.2712452328
 20
161.0947257491
 10
286.2630522464
 20
161.0573086606
 10
286.2556355893
 20
161.0195905207
 10
286.2489691188
 20
160.9816040084
 10
286.2430789775
 20
160.9433164447
 10
286.2377824001
 20
160.9044460386
 10
286.2330414132
 20
160.8650131041
 10
286.2288939903
 20
160.8249973272
 10
286.2252712857
 20
160.7840559745
 10
286.2221363818
 20
160.7421922565
 10
286.2195261963
 20
160.6994029629
 10
286.2174826371
 20
160.6553357291
 10
286.2160196734
 20
160.6098731005
 10
286.2151233359
 20
160.5631325317
 10
286.2147936247
 20
160.5151140229
  0
LWPOLYLINE
  5
2D5
100
AcDbEntity
  8
DRAFT
100
AcDbPolyline
 62
7
  6
CONTINUOUS
 90
28
 70
0
 10
286.5086454798
 20
161.532709397
 10
286.4834708899
 20
161.5038006551
 10
286.4597874116
 20
161.473746075
 10
286.4375950449
 20
161.4425456566
 10
286.416913576
 20
161.4100423626
 10
286.3977232188
 20
161.3763932304
 10
286.3799646143
 20
161.3420693714
 10
286.3636837634
 20
161.3071238446
 10
286.3488346652
 20
161.271503591
 10
286.3352199578
 20
161.2355205455
 10
286.3228462738
 20
161.1991961484
 10
286.3117069806
 20
161.1625089594
 10
286.3015848181
 20
161.1257065923
 10
286.2924934912
 20
161.0889365908
 10
286.284419295
 20
161.0520514113
 10
286.2771038549
 20
161.0148560362
 10
286.2705194586
 20
160.9773824473
 10
286.2646938184
 20
160.939598663
 10
286.259451696
 20
160.9012137202
 10
286.2547558086
 20
160.8622475855
 10
286.250643439
 20
160.8226802924
 10
286.2470511974
 20
160.7821609783
 10
286.243944171
 20
160.7406925746
 10
286.2413572727
 20
160.69827215
 10
286.2393318506
 20
160.6545400482
 10
286.2378816876
 20
160.6093763837
 10
286.236993001
 20
160.5629010419
 10
286.2366657906
 20
160.5151140229
  0
LINE
  5
2D6
100
AcDbEntity
  8
DRAFT
100
AcDbLine
 62
7
  6
CONTINUOUS
 10
282.8776728316
 20
159.8553847978
 11
282.863141477
 21
159.8390256355
  0
LINE
  5
2D7
100
AcDbEntity
  8
DRAFT
100
AcDbLine
 62
7
  6
CONTINUOUS
 10
283.5632228041
 20
160.7618256626
 11
283.5483955065
 21
160.7457452774
  0
LWPOLYLINE
  5
2D8
100
AcDbEntity
  8
DRAFT
100
AcDbPolyline
 62
7
  6
CONTINUOUS
 90
31
 70
0
 10
285.5344452527
 20
160.5848546516
 10
285.5553595881
 20
160.6073827471
 10
285.5756905954
 20
160.6304089546
 10
285.5954382746
 20
160.6539332742
 10
285.6147297858
 20
160.6778935737
 10
285.6334379688
 20
160.7023519853
 10
285.6511813428
 20
160.7274949048
 10
285.6679928718
 20
160.7533927181
 10
285.6838395916
 20
160.7799750393
 10
285.6982411295
 20
160.8072171061
 10
285.7110792733
 20
160.8351319543
 10
285.722472235
 20
160.863706548
 10
285.7322942787
 20
160.8928770177
 10
285.7405082589
 20
160.9225706633
 10
285.7471513209
 20
160.9528601848
 10
285.7522091654
 20
160.9838998132
 10
285.7557349226
 20
161.0157128847
 10
285.7576754622
 20
161.048276063
 10
285.7578570941
 20
161.0816735703
 10
285.7563562853
 20
161.1159341727
 10
285.7530965689
 20
161.1510291042
 10
285.7476748538
 20
161.1869562883
 10
285.7402468951
 20
161.2236856479
 10
285.7306569378
 20
161.2612472601
 10
285.7180346259
 20
161.2997292804
 10
285.7024233842
 20
161.3394798994
 10
285.6837797879
 20
161.3801509265
 10
285.6611032066
 20
161.4207859454
 10
285.6340600965
 20
161.4610661507
 10
285.6029840013
 20
161.5013103477
 10
285.567874921
 20
161.5415185366
  0
LINE
  5
2D9
100
AcDbEntity
  8
DRAFT
100
AcDbLine
 62
7
  6
CONTINUOUS
 10
285.0687048696
 20
157.3051548401
 11
285.0905770355
 21
157.327027006
  0
LINE
  5
2DA
100
AcDbEntity
  8
DRAFT
100
AcDbLine
 62
250
  6
CONTINUOUS
 10
285.5835249947
 20
161.5567981581
 11
285.567874921
 21
161.5415185366
  0
LWPOLYLINE
  5
2DB
100
AcDbEntity
  8
DRAFT
100
AcDbPolyline
 62
7
  6
CONTINUOUS
 90
13
 70
0
 10
286.8805873516
 20
161.2844982237
 10
286.8698212972
 20
161.2746487238
 10
286.8595741748
 20
161.2637940276
 10
286.8498459844
 20
161.2519341352
 10
286.8406314652
 20
161.2390130804
 10
286.831935878
 20
161.2250868293
 10
286.8237750054
 20
161.2103232806
 10
286.8161775993
 20
161.1947320473
 10
286.8091149079
 20
161.1783035163
 10
286.8025164579
 20
161.1611767474
 10
286.7963587584
 20
161.1433980938
 10
286.7906653003
 20
161.1249212024
 10
286.7854360837
 20
161.105746073
  0
LWPOLYLINE
  5
2DC
100
AcDbEntity
  8
DRAFT
100
AcDbPolyline
 62
7
  6
CONTINUOUS
 90
13
 70
0
 10
287.1483009775
 20
159.7349416023
 10
287.1590003672
 20
159.7445895281
 10
287.169197094
 20
159.7552640926
 10
287.1788911579
 20
159.7669652958
 10
287.1880836215
 20
159.779749263
 10
287.1967734221
 20
159.793559869
 10
287.2049573723
 20
159.8082287375
 10
287.2126133852
 20
159.8237419694
 10
287.2197635476
 20
159.840113464
 10
287.226470932
 20
159.8572165422
 10
287.2327565627
 20
159.875008978
 10
287.2385994155
 20
159.8935329974
 10
287.2439994903
 20
159.9127886006
  0
LINE
  5
2DD
100
AcDbEntity
  8
DRAFT
100
AcDbLine
 62
7
  6
CONTINUOUS
 10
287.5695998793
 20
161.5117598712
 11
287.5528119709
 21
161.4977383106
  0
LINE
  5
2DE
100
AcDbEntity
  8
DRAFT
100
AcDbLine
 62
250
  6
CONTINUOUS
 10
286.4335077094
 20
159.5401175765
 11
286.4506248671
 21
159.5537335433
  0
LWPOLYLINE
  5
2DF
100
AcDbEntity
  8
DRAFT
100
AcDbPolyline
 62
7
  6
CONTINUOUS
 90
10
 70
0
 10
287.1620609003
 20
159.7179390977
 10
287.1487864483
 20
159.7080078704
 10
287.1345710381
 20
159.699065779
 10
287.1194146696
 20
159.6911128236
 10
287.1030502317
 20
159.6840406616
 10
287.0857448357
 20
159.6779576356
 10
287.0682998144
 20
159.673188773
 10
287.0509822792
 20
159.6698424164
 10
287.0335251188
 20
159.6678102234
 10
287.0159283333
 20
159.6670921938
  0
LINE
  5
2E0
100
AcDbEntity
  8
DRAFT
100
AcDbLine
 62
7
  6
CONTINUOUS
 10
286.9937848696
 20
156.6782788401
 11
286.9625482283
 21
156.6564066742
  0
LINE
  5
2E1
100
AcDbEntity
  8
DRAFT
100
AcDbLine
 62
250
  6
CONTINUOUS
 10
289.7646415089
 20
157.4429354087
 11
289.7831264242
 21
157.4546272669
  0
LINE
  5
2E2
100
AcDbEntity
  8
DRAFT
100
AcDbLine
 62
250
  6
CONTINUOUS
 10
282.3464989072
 20
155.8451157792
 11
282.3651030887
 21
155.8566169127
  0
LINE
  5
2E3
100
AcDbEntity
  8
DRAFT
100
AcDbLine
 62
250
  6
CONTINUOUS
 10
290.282843817
 20
157.7043799285
 11
290.2640458403
 21
157.6931983493
  0
LINE
  5
2E4
100
AcDbEntity
  8
DRAFT
100
AcDbLine
 62
250
  6
CONTINUOUS
 10
287.4455237781
 20
157.6695030686
 11
287.4252188451
 21
157.6613727958
  0
LINE
  5
2E5
100
AcDbEntity
  8
DRAFT
100
AcDbLine
 62
250
  6
CONTINUOUS
 10
288.0861777814
 20
156.0695030699
 11
288.0658728484
 21
156.0613727971
  0
LINE
  5
2E6
100
AcDbEntity
  8
DRAFT
100
AcDbLine
 62
250
  6
CONTINUOUS
 10
287.528092092
 20
155.8868762615
 11
287.548507972
 21
155.894723776
  0
LINE
  5
2E7
100
AcDbEntity
  8
DRAFT
100
AcDbLine
 62
7
  6
CONTINUOUS
 10
290.2995368696
 20
156.5972618401
 11
290.3214090355
 21
156.6035984297
  0
LINE
  5
2E8
100
AcDbEntity
  8
DRAFT
100
AcDbLine
 62
7
  6
CONTINUOUS
 10
272.7625057479
 20
156.7360675106
 11
272.5233326657
 21
157.6352165406
  0
LINE
  5
2E9
100
AcDbEntity
  8
INTF_1
100
AcDbLine
 62
7
  6
CONTINUOUS
 10
272.5444698696
 20
157.6408388401
 11
272.7623858696
 21
156.8216038401
  0
LINE
  5
2EA
100
AcDbEntity
  8
DRAFT
100
AcDbLine
 62
7
  6
CONTINUOUS
 10
272.7623858696
 20
156.8216038401
 11
272.544469824
 21
157.6408390116
  0
LINE
  5
2EB
100
AcDbEntity
  8
DRAFT
100
AcDbLine
 62
7
  6
CONTINUOUS
 10
272.3004518696
 20
156.5139738401
 11
272.4508116838
 21
155.9156435793
  0
LINE
  5
2EC
100
AcDbEntity
  8
INTF_1
100
AcDbLine
 62
7
  6
CONTINUOUS
 10
272.4508118696
 20
155.9156428401
 11
272.3004518696
 21
156.5139738401
  0
LINE
  5
2ED
100
AcDbEntity
  8
DRAFT
100
AcDbLine
 62
7
  6
CONTINUOUS
 10
272.2785797037
 20
156.6907528206
 11
272.4720243019
 21
155.9209742896
  0
LINE
  5
2EE
100
AcDbEntity
  8
DRAFT
100
AcDbLine
 62
7
  6
CONTINUOUS
 10
272.3004518696
 20
156.5139738401
 11
272.2785797037
 21
156.6907528206
  0
LWPOLYLINE
  5
2EF
100
AcDbEntity
  8
DRAFT
100
AcDbPolyline
 62
7
  6
CONTINUOUS
 90
10
 70
0
 10
277.8567921595
 20
156.7584291652
 10
277.8560411834
 20
156.8226789827
 10
277.8533256076
 20
156.8849785384
 10
277.8486454323
 20
156.9453278323
 10
277.8420195931
 20
157.0038100182
 10
277.8334291543
 20
157.0603419423
 10
277.8228173086
 20
157.1146741429
 10
277.81016512
 20
157.1667234661
 10
277.7954915244
 20
157.2165730658
 10
277.7787965218
 20
157.2642229419
  0
LWPOLYLINE
  5
2F0
100
AcDbEntity
  8
DRAFT
100
AcDbPolyline
 62
7
  6
CONTINUOUS
 90
10
 70
0
 10
277.8786643254
 20
156.7584291652
 10
277.877896267
 20
156.8236748916
 10
277.8751249014
 20
156.8869378344
 10
277.8703502286
 20
156.9482179936
 10
277.8635868816
 20
157.0075988673
 10
277.8548202273
 20
157.0649969574
 10
277.8440063663
 20
157.1201617691
 10
277.8311306656
 20
157.1730098041
 10
277.8162077582
 20
157.2236245607
 10
277.7992376441
 20
157.272006039
  0
LINE
  5
2F1
100
AcDbEntity
  8
DRAFT
100
AcDbLine
 62
7
  6
CONTINUOUS
 10
278.0939708696
 20
157.5765738401
 11
278.0939708696
 21
155.9765738401
  0
LINE
  5
2F2
100
AcDbEntity
  8
INTF_1
100
AcDbLine
 62
7
  6
CONTINUOUS
 10
278.0939708696
 20
157.5765738401
 11
278.0939708696
 21
155.9765738401
  0
LINE
  5
2F3
100
AcDbEntity
  8
DRAFT
100
AcDbLine
 62
7
  6
CONTINUOUS
 10
278.1158430355
 20
157.5765738401
 11
278.1158430355
 21
155.9765738401
  0
LINE
  5
2F4
100
AcDbEntity
  8
DRAFT
100
AcDbLine
 62
250
  6
CONTINUOUS
 10
278.3439708696
 20
157.8265738401
 11
278.3439708696
 21
157.8047016742
  0
LINE
  5
2F5
100
AcDbEntity
  8
DRAFT
100
AcDbLine
 62
250
  6
CONTINUOUS
 10
278.3439708696
 20
155.7265738401
 11
278.3439708696
 21
155.748446006
  0
LINE
  5
2F6
100
AcDbEntity
  8
DRAFT
100
AcDbLine
 62
7
  6
CONTINUOUS
 10
278.3807677037
 20
161.4938318401
 11
278.3807677037
 21
161.4665468401
  0
LINE
  5
2F7
100
AcDbEntity
  8
DRAFT
100
AcDbLine
 62
7
  6
CONTINUOUS
 10
278.4026398696
 20
161.4938318401
 11
278.4026398696
 21
161.4665468401
  0
LINE
  5
2F8
100
AcDbEntity
  8
DRAFT
100
AcDbLine
 62
250
  6
CONTINUOUS
 10
278.6496398696
 20
161.762704006
 11
278.6496398696
 21
161.7408318401
  0
LINE
  5
2F9
100
AcDbEntity
  8
DRAFT
100
AcDbLine
 62
250
  6
CONTINUOUS
 10
278.6496398696
 20
161.1976746742
 11
278.6496398696
 21
161.2195468401
  0
LINE
  5
2FA
100
AcDbEntity
  8
DRAFT
100
AcDbLine
 62
7
  6
CONTINUOUS
 10
278.6557277037
 20
156.2248246742
 11
278.6557277037
 21
156.585690006
  0
LINE
  5
2FB
100
AcDbEntity
  8
DRAFT
100
AcDbLine
 62
7
  6
CONTINUOUS
 10
278.6557277037
 20
157.0620686742
 11
278.6557277037
 21
157.327027006
  0
LINE
  5
2FC
100
AcDbEntity
  8
DRAFT
100
AcDbLine
 62
7
  6
CONTINUOUS
 10
278.6775998696
 20
156.2466968401
 11
278.6775998696
 21
156.5638178401
  0
LINE
  5
2FD
100
AcDbEntity
  8
INTF_1
100
AcDbLine
 62
7
  6
CONTINUOUS
 10
278.6775998696
 20
156.2466968401
 11
278.6775998696
 21
156.5638178401
  0
LINE
  5
2FE
100
AcDbEntity
  8
DRAFT
100
AcDbLine
 62
7
  6
CONTINUOUS
 10
278.6775998696
 20
157.0839408401
 11
278.6775998696
 21
157.3051548401
  0
LINE
  5
2FF
100
AcDbEntity
  8
INTF_1
100
AcDbLine
 62
7
  6
CONTINUOUS
 10
278.6775998696
 20
157.0839408401
 11
278.6775998696
 21
157.3051548401
  0
LINE
  5
300
100
AcDbEntity
  8
DRAFT
100
AcDbLine
 62
250
  6
CONTINUOUS
 10
278.9845458696
 20
159.257701672
 11
278.9845458696
 21
159.2795738379
  0
LINE
  5
301
100
AcDbEntity
  8
DRAFT
100
AcDbLine
 62
250
  6
CONTINUOUS
 10
279.0235188696
 20
159.2577016742
 11
279.0235188696
 21
159.2795738401
  0
LINE
  5
302
100
AcDbEntity
  8
DRAFT
100
AcDbLine
 62
250
  6
CONTINUOUS
 10
279.3814878696
 20
157.0839408401
 11
279.3814878696
 21
157.0620686742
  0
LINE
  5
303
100
AcDbEntity
  8
DRAFT
100
AcDbLine
 62
250
  6
CONTINUOUS
 10
279.3814878696
 20
156.5638178401
 11
279.3814878696
 21
156.585690006
  0
LINE
  5
304
100
AcDbEntity
  8
DRAFT
100
AcDbLine
 62
250
  6
CONTINUOUS
 10
279.4527708696
 20
157.8265738401
 11
279.4527708696
 21
157.8047016742
  0
LINE
  5
305
100
AcDbEntity
  8
DRAFT
100
AcDbLine
 62
250
  6
CONTINUOUS
 10
279.4527708696
 20
157.3051548401
 11
279.4527708696
 21
157.327027006
  0
LINE
  5
306
100
AcDbEntity
  8
DRAFT
100
AcDbLine
 62
250
  6
CONTINUOUS
 10
279.4890598696
 20
156.2466968401
 11
279.4890598696
 21
156.2248246742
  0
LINE
  5
307
100
AcDbEntity
  8
DRAFT
100
AcDbLine
 62
250
  6
CONTINUOUS
 10
279.4890598696
 20
155.7265738401
 11
279.4890598696
 21
155.748446006
  0
LINE
  5
308
100
AcDbEntity
  8
DRAFT
100
AcDbLine
 62
7
  6
CONTINUOUS
 10
279.6096157037
 20
156.8138178401
 11
279.6096157037
 21
156.8339408401
  0
LINE
  5
309
100
AcDbEntity
  8
DRAFT
100
AcDbLine
 62
7
  6
CONTINUOUS
 10
279.6314878696
 20
156.8138178401
 11
279.6314878696
 21
156.8339408401
  0
LINE
  5
30A
100
AcDbEntity
  8
INTF_1
100
AcDbLine
 62
7
  6
CONTINUOUS
 10
279.6314878696
 20
156.8138178401
 11
279.6314878696
 21
156.8339408401
  0
LINE
  5
30B
100
AcDbEntity
  8
DRAFT
100
AcDbLine
 62
7
  6
CONTINUOUS
 10
279.6808987037
 20
157.5551548401
 11
279.6808987037
 21
157.5765738401
  0
LINE
  5
30C
100
AcDbEntity
  8
DRAFT
100
AcDbLine
 62
7
  6
CONTINUOUS
 10
279.7027708696
 20
157.5551548401
 11
279.7027708696
 21
157.5765738401
  0
LINE
  5
30D
100
AcDbEntity
  8
INTF_1
100
AcDbLine
 62
7
  6
CONTINUOUS
 10
279.7027708696
 20
157.5551548401
 11
279.7027708696
 21
157.5765738401
  0
LINE
  5
30E
100
AcDbEntity
  8
DRAFT
100
AcDbLine
 62
7
  6
CONTINUOUS
 10
279.7171877037
 20
155.9765738401
 11
279.7171877037
 21
155.9966968401
  0
LINE
  5
30F
100
AcDbEntity
  8
DRAFT
100
AcDbLine
 62
7
  6
CONTINUOUS
 10
279.7390598696
 20
155.9765738401
 11
279.7390598696
 21
155.9966968401
  0
LINE
  5
310
100
AcDbEntity
  8
INTF_1
100
AcDbLine
 62
7
  6
CONTINUOUS
 10
279.7390598696
 20
155.9765738401
 11
279.7390598696
 21
155.9966968401
  0
LINE
  5
311
100
AcDbEntity
  8
DRAFT
100
AcDbLine
 62
250
  6
CONTINUOUS
 10
279.8228998696
 20
161.762704006
 11
279.8228998696
 21
161.7408318401
  0
LINE
  5
312
100
AcDbEntity
  8
DRAFT
100
AcDbLine
 62
7
  6
CONTINUOUS
 10
280.0698997674
 20
161.4407708401
 11
280.0698998696
 21
161.4938318401
  0
LINE
  5
313
100
AcDbEntity
  8
DRAFT
100
AcDbLine
 62
7
  6
CONTINUOUS
 10
280.0917719333
 20
161.4407708401
 11
280.0917720355
 21
161.4938318401
  0
LINE
  5
314
100
AcDbEntity
  8
DRAFT
100
AcDbLine
 62
7
  6
CONTINUOUS
 10
280.3802167037
 20
161.0146882314
 11
280.3802167037
 21
160.8781568401
  0
LINE
  5
315
100
AcDbEntity
  8
DRAFT
100
AcDbLine
 62
7
  6
CONTINUOUS
 10
280.4020888696
 20
161.0146665177
 11
280.4020888696
 21
160.8781568401
  0
LINE
  5
316
100
AcDbEntity
  8
DRAFT
100
AcDbLine
 62
7
  6
CONTINUOUS
 10
280.5001518696
 20
157.5765738401
 11
280.5001518696
 21
155.9765738401
  0
LINE
  5
317
100
AcDbEntity
  8
INTF_1
100
AcDbLine
 62
7
  6
CONTINUOUS
 10
280.5001518696
 20
155.9765738401
 11
280.5001518696
 21
157.5765738401
  0
LINE
  5
318
100
AcDbEntity
  8
DRAFT
100
AcDbLine
 62
7
  6
CONTINUOUS
 10
280.5220240355
 20
157.5765738401
 11
280.5220240355
 21
155.9765738401
  0
LINE
  5
319
100
AcDbEntity
  8
DRAFT
100
AcDbLine
 62
250
  6
CONTINUOUS
 10
280.7501518696
 20
157.8265738401
 11
280.7501518696
 21
157.8047016742
  0
LINE
  5
31A
100
AcDbEntity
  8
DRAFT
100
AcDbLine
 62
250
  6
CONTINUOUS
 10
280.7501518696
 20
155.7265738401
 11
280.7501518696
 21
155.748446006
  0
LINE
  5
31B
100
AcDbEntity
  8
DRAFT
100
AcDbLine
 62
250
  6
CONTINUOUS
 10
280.8337808696
 20
157.8265738401
 11
280.8337808696
 21
157.8047016742
  0
LINE
  5
31C
100
AcDbEntity
  8
DRAFT
100
AcDbLine
 62
250
  6
CONTINUOUS
 10
280.8337808696
 20
155.7265738401
 11
280.8337808696
 21
155.748446006
  0
LINE
  5
31D
100
AcDbEntity
  8
DRAFT
100
AcDbLine
 62
7
  6
CONTINUOUS
 10
280.9744867037
 20
160.8451653279
 11
280.9744867037
 21
159.5265738401
  0
LINE
  5
31E
100
AcDbEntity
  8
DRAFT
100
AcDbLine
 62
7
  6
CONTINUOUS
 10
280.9963588696
 20
160.8893231553
 11
280.9963588696
 21
159.5265738401
  0
LINE
  5
31F
100
AcDbEntity
  8
DRAFT
100
AcDbLine
 62
7
  6
CONTINUOUS
 10
281.0619087037
 20
155.9765738401
 11
281.0619087037
 21
157.5765738401
  0
LINE
  5
320
100
AcDbEntity
  8
DRAFT
100
AcDbLine
 62
7
  6
CONTINUOUS
 10
281.0837808696
 20
155.9765738401
 11
281.0837808696
 21
157.5765738401
  0
LINE
  5
321
100
AcDbEntity
  8
INTF_1
100
AcDbLine
 62
7
  6
CONTINUOUS
 10
281.0837808696
 20
155.9765738401
 11
281.0837808696
 21
157.5765738401
  0
LINE
  5
322
100
AcDbEntity
  8
DRAFT
100
AcDbLine
 62
250
  6
CONTINUOUS
 10
281.2313588696
 20
159.2697016742
 11
281.2313588696
 21
159.2915738401
  0
LINE
  5
323
100
AcDbEntity
  8
DRAFT
100
AcDbLine
 62
250
  6
CONTINUOUS
 10
281.2475408696
 20
161.793269006
 11
281.2475408696
 21
161.7713968401
  0
LINE
  5
324
100
AcDbEntity
  8
DRAFT
100
AcDbLine
 62
7
  6
CONTINUOUS
 10
281.2531528696
 20
157.5765738401
 11
281.2531528696
 21
155.9765738401
  0
LINE
  5
325
100
AcDbEntity
  8
INTF_1
100
AcDbLine
 62
7
  6
CONTINUOUS
 10
281.2531528696
 20
155.9765738401
 11
281.2531528696
 21
157.5765738401
  0
LINE
  5
326
100
AcDbEntity
  8
DRAFT
100
AcDbLine
 62
7
  6
CONTINUOUS
 10
281.2750250355
 20
157.5765738401
 11
281.2750250355
 21
155.9765738401
  0
LINE
  5
327
100
AcDbEntity
  8
DRAFT
100
AcDbLine
 62
250
  6
CONTINUOUS
 10
281.2913858696
 20
161.793269006
 11
281.2913858696
 21
161.7713968401
  0
LINE
  5
328
100
AcDbEntity
  8
DRAFT
100
AcDbLine
 62
250
  6
CONTINUOUS
 10
281.2913858696
 20
159.2697016742
 11
281.2913858696
 21
159.2915738401
  0
LINE
  5
329
100
AcDbEntity
  8
DRAFT
100
AcDbLine
 62
250
  6
CONTINUOUS
 10
281.5031528696
 20
157.8265738401
 11
281.5031528696
 21
157.8047016742
  0
LINE
  5
32A
100
AcDbEntity
  8
DRAFT
100
AcDbLine
 62
250
  6
CONTINUOUS
 10
281.5031528696
 20
155.7265738401
 11
281.5031528696
 21
155.748446006
  0
LINE
  5
32B
100
AcDbEntity
  8
DRAFT
100
AcDbLine
 62
7
  6
CONTINUOUS
 10
281.5263858696
 20
159.5265738401
 11
281.5263858696
 21
161.5363968401
  0
LINE
  5
32C
100
AcDbEntity
  8
DRAFT
100
AcDbLine
 62
7
  6
CONTINUOUS
 10
281.5482580355
 20
159.5265738401
 11
281.5482580355
 21
161.5363968401
  0
LINE
  5
32D
100
AcDbEntity
  8
DRAFT
100
AcDbLine
 62
250
  6
CONTINUOUS
 10
281.5595648696
 20
155.7265738401
 11
281.5595648696
 21
155.748446006
  0
LINE
  5
32E
100
AcDbEntity
  8
DRAFT
100
AcDbLine
 62
250
  6
CONTINUOUS
 10
281.6424138696
 20
157.8265738378
 11
281.6424138696
 21
157.804701672
  0
LINE
  5
32F
100
AcDbEntity
  8
DRAFT
100
AcDbLine
 62
7
  6
CONTINUOUS
 10
281.7876927037
 20
155.9765738401
 11
281.7876927037
 21
156.7906333293
  0
LINE
  5
330
100
AcDbEntity
  8
DRAFT
100
AcDbLine
 62
7
  6
CONTINUOUS
 10
281.8095648696
 20
155.9765738401
 11
281.8095648696
 21
156.7136578401
  0
LINE
  5
331
100
AcDbEntity
  8
INTF_1
100
AcDbLine
 62
7
  6
CONTINUOUS
 10
281.8095648696
 20
155.9765738401
 11
281.8095648696
 21
156.7136578401
  0
LWPOLYLINE
  5
332
100
AcDbEntity
  8
DRAFT
100
AcDbPolyline
 62
7
  6
CONTINUOUS
 90
19
 70
0
 10
278.7368185555
 20
159.5558715672
 10
278.7361959237
 20
159.5342167601
 10
278.7373018882
 20
159.512556323
 10
278.7401364488
 20
159.490890256
 10
278.7445896358
 20
159.4690056041
 10
278.7507714191
 20
159.4471153222
 10
278.7590117079
 20
159.4258582751
 10
278.7695049898
 20
159.405206529
 10
278.7820567772
 20
159.3851880178
 10
278.7964135168
 20
159.3665254069
 10
278.8126787303
 20
159.3492694285
 10
278.8307488959
 20
159.3333693505
 10
278.8500598944
 20
159.3193956423
 10
278.8706573627
 20
159.3074486287
 10
278.8924956638
 20
159.297427985
 10
278.914873768
 20
159.289603206
 10
278.9375579988
 20
159.2840641237
 10
278.9607820326
 20
159.2807209062
 10
278.9845458696
 20
159.2795735535
  0
LWPOLYLINE
  5
333
100
AcDbEntity
  8
DRAFT
100
AcDbPolyline
 62
7
  6
CONTINUOUS
 90
19
 70
0
 10
278.7150977649
 20
159.5584403989
 10
278.7143223965
 20
159.5349223346
 10
278.7154493053
 20
159.5113871922
 10
278.7184784911
 20
159.4878349717
 10
278.7232959645
 20
159.4640331472
 10
278.7300157149
 20
159.4402142446
 10
278.7389797114
 20
159.4170758411
 10
278.7503930927
 20
159.3945859581
 10
278.76405072
 20
159.3727765741
 10
278.7796791465
 20
159.3524412022
 10
278.797394553
 20
159.3336349897
 10
278.8170807586
 20
159.3163027893
 10
278.8381157736
 20
159.3010726721
 10
278.8605463795
 20
159.2880573457
 10
278.8843257947
 20
159.2771441026
 10
278.9086916848
 20
159.2686228904
 10
278.9333899382
 20
159.2625903585
 10
278.9586746665
 20
159.2589498576
 10
278.9845458696
 20
159.2577013876
  0
LINE
  5
334
100
AcDbEntity
  8
DRAFT
100
AcDbLine
 62
250
  6
CONTINUOUS
 10
282.9987630313
 20
160.4023057144
 11
283.0012238492
 21
160.4240390072
  0
LINE
  5
335
100
AcDbEntity
  8
DRAFT
100
AcDbLine
 62
250
  6
CONTINUOUS
 10
282.4446421166
 20
160.3931704784
 11
282.4477752698
 21
160.4148170715
  0
LINE
  5
336
100
AcDbEntity
  8
DRAFT
100
AcDbLine
 62
250
  6
CONTINUOUS
 10
282.7029155742
 20
160.3557876757
 11
282.7060487275
 21
160.3774342688
  0
LINE
  5
337
100
AcDbEntity
  8
DRAFT
100
AcDbLine
 62
7
  6
CONTINUOUS
 10
282.8414248679
 20
160.8929228306
 11
282.9068688696
 21
161.2632718401
  0
LINE
  5
338
100
AcDbEntity
  8
DRAFT
100
AcDbLine
 62
7
  6
CONTINUOUS
 10
282.8693349145
 20
160.9251736777
 11
282.9252148928
 21
161.2413996742
  0
LINE
  5
339
100
AcDbEntity
  8
DRAFT
100
AcDbLine
 62
7
  6
CONTINUOUS
 10
282.4378973185
 20
161.6049789777
 11
282.2584020676
 21
160.6539008363
  0
LINE
  5
33A
100
AcDbEntity
  8
DRAFT
100
AcDbLine
 62
7
  6
CONTINUOUS
 10
282.4593900665
 20
161.6009226954
 11
282.2798948156
 21
160.649844554
  0
LWPOLYLINE
  5
33B
100
AcDbEntity
  8
DRAFT
100
AcDbPolyline
 62
7
  6
CONTINUOUS
 90
55
 70
0
 10
283.0857634196
 20
160.367392461
 10
283.0858985283
 20
160.3677989704
 10
283.0860303894
 20
160.3682078085
 10
283.086158979
 20
160.3686189824
 10
283.0862839453
 20
160.3690327485
 10
283.0864055905
 20
160.3694488639
 10
283.0865248809
 20
160.3698665824
 10
283.086642174
 20
160.370285626
 10
283.0867570834
 20
160.370706279
 10
283.0868694669
 20
160.3711286366
 10
283.0869793111
 20
160.3715526995
 10
283.0870865957
 20
160.3719784738
 10
283.0871911654
 20
160.3724060627
 10
283.0872930075
 20
160.3728354657
 10
283.0873920982
 20
160.3732666897
 10
283.0874882628
 20
160.37369985
 10
283.0875814809
 20
160.3741349493
 10
283.087671733
 20
160.374571991
 10
283.0877588426
 20
160.3750110919
 10
283.0878428105
 20
160.3754522351
 10
283.0879235928
 20
160.3758954433
 10
283.0880009423
 20
160.3763408926
 10
283.0880748336
 20
160.3767885926
 10
283.088145244
 20
160.3772385389
 10
283.0882119257
 20
160.3776908876
 10
283.0882748661
 20
160.3781456331
 10
283.0883340251
 20
160.3786027854
 10
283.0883891088
 20
160.379062524
 10
283.0884400903
 20
160.379524841
 10
283.0884869382
 20
160.3799897476
 10
283.0885293469
 20
160.3804574518
 10
283.0885673319
 20
160.380927922
 10
283.0886008133
 20
160.3814011915
 10
283.0886293345
 20
160.3818775657
 10
283.088652838
 20
160.3823570659
 10
283.0886713073
 20
160.3828396705
 10
283.08868434
 20
160.3833256199
 10
283.0886919466
 20
160.3838148739
 10
283.0886940347
 20
160.3843074696
 10
283.0886900394
 20
160.3848037628
 10
283.0886799403
 20
160.3853037316
 10
283.088663664
 20
160.3858073911
 10
283.0886405553
 20
160.3863151515
 10
283.0886106074
 20
160.386826976
 10
283.0885737195
 20
160.3873428896
 10
283.0885290808
 20
160.3878633935
 10
283.0884765142
 20
160.3883885559
 10
283.0884160708
 20
160.3889182897
 10
283.0883472693
 20
160.3894528605
 10
283.0882758298
 20
160.3899884351
 10
283.0881959335
 20
160.3905288259
 10
283.0880896108
 20
160.3910857373
 10
283.0879506223
 20
160.3916630167
 10
283.087784654
 20
160.3922566845
 10
283.087591438
 20
160.3928666581
  0
LWPOLYLINE
  5
33C
100
AcDbEntity
  8
DRAFT
100
AcDbPolyline
 62
250
  6
CONTINUOUS
 90
7
 70
0
 10
286.8861874544
 20
159.731568963
 10
286.8841124695
 20
159.7285065218
 10
286.8820663268
 20
159.7254459937
 10
286.8800496939
 20
159.7223869353
 10
286.8780632397
 20
159.7193289097
 10
286.8761076342
 20
159.7162714865
 10
286.8741835495
 20
159.7132142418
  0
LINE
  5
33D
100
AcDbEntity
  8
DRAFT
100
AcDbLine
 62
7
  6
CONTINUOUS
 10
287.4238168696
 20
156.1581558401
 11
287.4388419139
 21
156.180028006
  0
LWPOLYLINE
  5
33E
100
AcDbEntity
  8
DRAFT
100
AcDbPolyline
 62
7
  6
CONTINUOUS
 90
28
 70
0
 10
287.5590856078
 20
159.5315005573
 10
287.5809205789
 20
159.5605416219
 10
287.6014406845
 20
159.5904813394
 10
287.6206459246
 20
159.6213197096
 10
287.6385106661
 20
159.6531827775
 10
287.6550605421
 20
159.6859444983
 10
287.6703724519
 20
159.7192267372
 10
287.6844118176
 20
159.7529886012
 10
287.6972132172
 20
159.7872709834
 10
287.708957283
 20
159.8218184283
 10
287.7196401229
 20
159.8566074741
 10
287.7292656292
 20
159.8916615826
 10
287.7380261104
 20
159.9267956834
 10
287.7459119933
 20
159.9618770721
 10
287.7529328513
 20
159.9970384531
 10
287.7593097124
 20
160.0324928692
 10
287.7650663588
 20
160.0682113705
 10
287.7701790084
 20
160.1042229069
 10
287.7747973435
 20
160.1408273708
 10
287.7789582225
 20
160.1780075892
 10
287.782624787
 20
160.215780735
 10
287.7858361451
 20
160.2544982197
 10
287.7886213117
 20
160.2941596895
 10
287.7909512719
 20
160.3347654981
 10
287.7927780887
 20
160.3766681177
 10
287.7940857831
 20
160.4199850389
 10
287.794890334
 20
160.464598771
 10
287.7951917415
 20
160.5105093141
  0
LWPOLYLINE
  5
33F
100
AcDbEntity
  8
DRAFT
100
AcDbPolyline
 62
7
  6
CONTINUOUS
 90
28
 70
0
 10
287.5761950617
 20
159.5178749112
 10
287.5984208787
 20
159.5473844746
 10
287.6193240337
 20
159.5778014454
 10
287.6389045267
 20
159.6091258236
 10
287.6571409422
 20
159.6414821053
 10
287.6740546957
 20
159.6747457944
 10
287.6897100339
 20
159.7085434023
 10
287.7040698503
 20
159.7428359589
 10
287.7171712514
 20
159.7776624343
 10
287.7291898032
 20
159.8127662511
 10
287.7401199008
 20
159.8481269961
 10
287.7499671491
 20
159.8837650824
 10
287.7589239289
 20
159.9194851719
 10
287.7669788863
 20
159.9551548061
 10
287.7741433752
 20
159.9909064434
 10
287.7806438389
 20
160.0269421211
 10
287.7865029929
 20
160.0632320342
 10
287.7916981216
 20
160.0998059877
 10
287.7963875216
 20
160.1369554336
 10
287.8006092332
 20
160.1746627111
 10
287.8043252159
 20
160.2129454811
 10
287.807579645
 20
160.2521481786
 10
287.810403469
 20
160.2922701677
 10
287.8127657392
 20
160.3333120843
 10
287.8146177854
 20
160.3756202712
 10
287.815943384
 20
160.419310176
 10
287.8167587586
 20
160.464266351
 10
287.8170639091
 20
160.5104887963
  0
LINE
  5
340
100
AcDbEntity
  8
RACCORDO
100
AcDbLine
 62
250
  6
CONTINUOUS
 10
293.990252626
 20
163.348446006
 11
293.9683804602
 21
163.3265738401
  0
LINE
  5
341
100
AcDbEntity
  8
RACCORDO
100
AcDbLine
 62
250
  6
CONTINUOUS
 10
294.2891110355
 20
163.0495875965
 11
294.2672388696
 21
163.0277154307
  0
LINE
  5
342
100
AcDbEntity
  8
DRAFT
100
AcDbLine
 62
7
  6
CONTINUOUS
 10
288.9832058696
 20
156.2466968401
 11
288.9613337037
 21
156.2248246742
  0
LINE
  5
343
100
AcDbEntity
  8
DRAFT
100
AcDbLine
 62
7
  6
CONTINUOUS
 10
274.5910028696
 20
156.1581558401
 11
274.5756790853
 21
156.180028006
  0
LWPOLYLINE
  5
344
100
AcDbEntity
  8
DRAFT
100
AcDbPolyline
 62
7
  6
CONTINUOUS
 90
10
 70
0
 10
277.2294676212
 20
157.1301655108
 10
277.2235866831
 20
157.142779202
 10
277.2174010446
 20
157.1548901191
 10
277.2109107056
 20
157.1664982621
 10
277.2041122086
 20
157.1776298103
 10
277.1970090111
 20
157.1882585844
 10
277.1896114863
 20
157.1983060466
 10
277.1819230921
 20
157.2077460177
 10
277.1739403707
 20
157.216604677
 10
277.165663322
 20
157.2248820244
  0
LINE
  5
345
100
AcDbEntity
  8
DRAFT
100
AcDbLine
 62
7
  6
CONTINUOUS
 10
275.8537862395
 20
156.0613730861
 11
275.2131307994
 21
157.6613729098
  0
LINE
  5
346
100
AcDbEntity
  8
INTF_1
100
AcDbLine
 62
7
  6
CONTINUOUS
 10
275.2334358696
 20
157.6695028401
 11
275.8740908696
 21
156.0695028401
  0
LINE
  5
347
100
AcDbEntity
  8
DRAFT
100
AcDbLine
 62
7
  6
CONTINUOUS
 10
275.8740911681
 20
156.0695033698
 11
275.233435728
 21
157.6695031936
  0
LINE
  5
348
100
AcDbEntity
  8
DRAFT
100
AcDbLine
 62
7
  6
CONTINUOUS
 10
275.2117288696
 20
156.1581558401
 11
275.3160049344
 21
155.8868756713
  0
LINE
  5
349
100
AcDbEntity
  8
INTF_1
100
AcDbLine
 62
7
  6
CONTINUOUS
 10
275.3160048696
 20
155.8868758401
 11
275.2117288696
 21
156.1581558401
  0
LINE
  5
34A
100
AcDbEntity
  8
DRAFT
100
AcDbLine
 62
7
  6
CONTINUOUS
 10
275.226753882
 20
156.180028006
 11
275.3364207989
 21
155.8947232262
  0
LINE
  5
34B
100
AcDbEntity
  8
DRAFT
100
AcDbLine
 62
7
  6
CONTINUOUS
 10
274.8964378696
 20
156.9935248401
 11
275.0134958696
 21
156.6782788401
  0
LINE
  5
34C
100
AcDbEntity
  8
INTF_1
100
AcDbLine
 62
7
  6
CONTINUOUS
 10
275.0134958696
 20
156.6782788401
 11
274.8964378696
 21
156.9935248401
  0
LINE
  5
34D
100
AcDbEntity
  8
DRAFT
100
AcDbLine
 62
7
  6
CONTINUOUS
 10
274.8962325789
 20
157.0569108217
 11
275.0449488656
 21
156.6564066742
  0
LWPOLYLINE
  5
34E
100
AcDbEntity
  8
DRAFT
100
AcDbPolyline
 62
7
  6
CONTINUOUS
 90
10
 70
0
 10
277.2513542099
 20
157.1347602998
 10
277.2643765871
 20
157.0995877458
 10
277.2754020306
 20
157.0626098193
 10
277.2844305405
 20
157.0238265203
 10
277.2911973892
 20
156.9831317181
 10
277.2959673043
 20
156.9406315434
 10
277.2995344682
 20
156.896644388
 10
277.3021636084
 20
156.8512763823
 10
277.3035899974
 20
156.8044213959
 10
277.3038136353
 20
156.7560794287
  0
LINE
  5
34F
100
AcDbEntity
  8
DRAFT
100
AcDbLine
 62
7
  6
CONTINUOUS
 10
275.7412789065
 20
161.4401155674
 11
276.4561500166
 21
159.4401156067
  0
LINE
  5
350
100
AcDbEntity
  8
DRAFT
100
AcDbLine
 62
7
  6
CONTINUOUS
 10
275.761874932
 20
161.447477318
 11
276.4767460421
 21
159.4474773574
  0
LINE
  5
351
100
AcDbEntity
  8
DRAFT
100
AcDbLine
 62
7
  6
CONTINUOUS
 10
276.8316178696
 20
160.0600838401
 11
276.3041749541
 21
161.602606593
  0
LINE
  5
352
100
AcDbEntity
  8
DRAFT
100
AcDbLine
 62
7
  6
CONTINUOUS
 10
276.8312770956
 20
160.1286823415
 11
276.324870687
 21
161.6096831937
  0
LWPOLYLINE
  5
353
100
AcDbEntity
  8
INTF_1
100
AcDbPolyline
 62
7
  6
CONTINUOUS
 90
31
 70
0
 10
277.2480546135
 20
157.0820920654
 10
277.2457980409
 20
157.0887761533
 10
277.2434563907
 20
157.095426459
 10
277.2410258696
 20
157.1020441776
 10
277.2385026844
 20
157.1086305047
 10
277.2358830418
 20
157.1151866354
 10
277.2331631486
 20
157.1217137651
 10
277.2303392115
 20
157.128213089
 10
277.2282498535
 20
157.1328526565
 10
277.2261038464
 20
157.1374753103
 10
277.2238998979
 20
157.1420777969
 10
277.2216367159
 20
157.1466568628
 10
277.2193130082
 20
157.1512092546
 10
277.2169274827
 20
157.1557317187
 10
277.2144788473
 20
157.1602210016
 10
277.2119658096
 20
157.1646738498
 10
277.2093870777
 20
157.1690870099
 10
277.2067413593
 20
157.1734572282
 10
277.2040273623
 20
157.1777812514
 10
277.2012437944
 20
157.1820558258
 10
277.1983893636
 20
157.1862776981
 10
277.1954627777
 20
157.1904436146
 10
277.1924627445
 20
157.1945503219
 10
277.1893879719
 20
157.1985945665
 10
277.1862371676
 20
157.202573095
 10
277.1830090396
 20
157.2064826536
 10
277.1797022957
 20
157.2103199891
 10
277.1763156436
 20
157.2140818479
 10
277.1728477914
 20
157.2177649764
 10
277.1692974467
 20
157.2213661212
 10
277.1656633174
 20
157.2248820287
  0
LWPOLYLINE
  5
354
100
AcDbEntity
  8
INTF_1
100
AcDbPolyline
 62
7
  6
CONTINUOUS
 90
25
 70
0
 10
277.8117814506
 20
157.2371341325
 10
277.8174958952
 20
157.2197045918
 10
277.8228959337
 20
157.2021724299
 10
277.8279907323
 20
157.184545878
 10
277.8327894571
 20
157.1668331673
 10
277.8373012742
 20
157.149042529
 10
277.84153535
 20
157.1311821943
 10
277.8460140741
 20
157.1108423862
 10
277.850156756
 20
157.0904290948
 10
277.8539731094
 20
157.0699479654
 10
277.857472848
 20
157.0494046429
 10
277.8606656855
 20
157.0288047727
 10
277.8635613358
 20
157.0081539999
 10
277.8661695124
 20
156.9874579696
 10
277.8684999292
 20
156.9667223271
 10
277.8705622998
 20
156.9459527174
 10
277.8723663381
 20
156.9251547859
 10
277.8739217576
 20
156.9043341776
 10
277.8752382723
 20
156.8834965377
 10
277.8763255957
 20
156.8626475115
 10
277.8771934417
 20
156.841792744
 10
277.8778515239
 20
156.8209378804
 10
277.8783095561
 20
156.800088566
 10
277.878577252
 20
156.7792504458
 10
277.8786643254
 20
156.7584291652
  0
LINE
  5
355
100
AcDbEntity
  8
DRAFT
100
AcDbLine
 62
250
  6
CONTINUOUS
 10
277.2777346538
 20
155.7716772486
 11
277.2710636206
 21
155.79250725
  0
LINE
  5
356
100
AcDbEntity
  8
DRAFT
100
AcDbLine
 62
250
  6
CONTINUOUS
 10
277.0629520492
 20
156.2611373614
 11
277.0684324757
 21
156.2399629295
  0
LINE
  5
357
100
AcDbEntity
  8
DRAFT
100
AcDbLine
 62
250
  6
CONTINUOUS
 10
282.4199357305
 20
159.9900317476
 11
282.4221889856
 21
159.9682759557
  0
LINE
  5
358
100
AcDbEntity
  8
DRAFT
100
AcDbLine
 62
250
  6
CONTINUOUS
 10
282.592802773
 20
160.0079356468
 11
282.5950560281
 21
159.9861798549
  0
LINE
  5
359
100
AcDbEntity
  8
DRAFT
100
AcDbLine
 62
250
  6
CONTINUOUS
 10
285.0412364046
 20
160.8894542419
 11
285.041437319
 21
160.8675829988
  0
LWPOLYLINE
  5
35A
100
AcDbEntity
  8
DRAFT
100
AcDbPolyline
 62
7
  6
CONTINUOUS
 90
25
 70
0
 10
286.2147936247
 20
160.5151140229
 10
286.2149939576
 20
160.4635779162
 10
286.2157606833
 20
160.413554605
 10
286.217093802
 20
160.3650440893
 10
286.218974866
 20
160.3181859465
 10
286.2214223228
 20
160.2728405992
 10
286.2244915154
 20
160.2285893157
 10
286.2281807915
 20
160.1854222555
 10
286.2324918034
 20
160.1433492591
 10
286.2374848513
 20
160.1019811161
 10
286.2431441645
 20
160.0613072779
 10
286.2494855138
 20
160.0213382932
 10
286.2566165117
 20
159.9817165973
 10
286.2644836478
 20
159.9423380793
 10
286.2731404326
 20
159.9033068502
 10
286.2828550099
 20
159.8645776774
 10
286.2935752633
 20
159.8260564481
 10
286.3053533092
 20
159.7878372751
 10
286.3186136408
 20
159.7501572644
 10
286.3333734931
 20
159.712938275
 10
286.349615631
 20
159.6762584478
 10
286.3677128428
 20
159.6405893115
 10
286.3877893911
 20
159.6060880423
 10
286.4097210133
 20
159.572597464
 10
286.4335077094
 20
159.5401175765
  0
LWPOLYLINE
  5
35B
100
AcDbEntity
  8
DRAFT
100
AcDbPolyline
 62
7
  6
CONTINUOUS
 90
28
 70
0
 10
286.2366657906
 20
160.5151140229
 10
286.2368271725
 20
160.469564925
 10
286.2374216167
 20
160.4252678407
 10
286.238449123
 20
160.3822227698
 10
286.2398976355
 20
160.34052891
 10
286.2417792101
 20
160.3000870638
 10
286.2441300149
 20
160.2605996383
 10
286.2469497588
 20
160.222064423
 10
286.2502387329
 20
160.1844836284
 10
286.2540339781
 20
160.1475662937
 10
286.2583285261
 20
160.1113033771
 10
286.2631293453
 20
160.0757039203
 10
286.2684943818
 20
160.0405040878
 10
286.2744047221
 20
160.0056853862
 10
286.2808792798
 20
159.9712663088
 10
286.2880327414
 20
159.9370384998
 10
286.2958259181
 20
159.9028992974
 10
286.3042979989
 20
159.8689513634
 10
286.313681237
 20
159.8352943272
 10
286.3239476691
 20
159.8019072986
 10
286.3351252586
 20
159.7688111678
 10
286.3475301491
 20
159.7361682347
 10
286.3611840265
 20
159.7038999636
 10
286.3760652049
 20
159.6720848902
 10
286.3924247696
 20
159.6411209208
 10
286.4103464158
 20
159.6111406909
 10
286.4297464483
 20
159.5820115651
 10
286.4506248671
 20
159.5537335433
  0
LWPOLYLINE
  5
35C
100
AcDbEntity
  8
DRAFT
100
AcDbPolyline
 62
7
  6
CONTINUOUS
 90
13
 70
0
 10
286.7182734039
 20
160.4393944261
 10
286.7178452499
 20
160.5674202863
 10
286.7182893173
 20
160.623393139
 10
286.7193078834
 20
160.6781212775
 10
286.7208088669
 20
160.7316304149
 10
286.722884349
 20
160.7838948382
 10
286.7258105746
 20
160.8348374077
 10
286.7295870261
 20
160.8844790455
 10
286.734214221
 20
160.9327988296
 10
286.7399699558
 20
160.9796568548
 10
286.7469468294
 20
161.0250064858
 10
286.755052243
 20
161.0688943578
 10
286.7642861965
 20
161.1113204709
  0
LINE
  5
35D
100
AcDbEntity
  8
DRAFT
100
AcDbLine
 62
7
  6
CONTINUOUS
 10
282.4040388696
 20
157.5765738401
 11
282.4040388696
 21
156.8122858401
  0
LINE
  5
35E
100
AcDbEntity
  8
INTF_1
100
AcDbLine
 62
7
  6
CONTINUOUS
 10
282.4040388696
 20
157.5765738401
 11
282.4040388696
 21
156.8122858401
  0
LINE
  5
35F
100
AcDbEntity
  8
DRAFT
100
AcDbLine
 62
7
  6
CONTINUOUS
 10
282.4259110355
 20
157.5765738401
 11
282.4259110355
 21
156.7347405224
  0
LINE
  5
360
100
AcDbEntity
  8
DRAFT
100
AcDbLine
 62
250
  6
CONTINUOUS
 10
282.5591448696
 20
155.7265738437
 11
282.5591448696
 21
155.7484460096
  0
LINE
  5
361
100
AcDbEntity
  8
DRAFT
100
AcDbLine
 62
250
  6
CONTINUOUS
 10
282.6540388696
 20
157.8265738401
 11
282.6540388696
 21
157.8047016742
  0
LINE
  5
362
100
AcDbEntity
  8
DRAFT
100
AcDbLine
 62
250
  6
CONTINUOUS
 10
282.6559208696
 20
161.785704006
 11
282.6559208696
 21
161.7638318401
  0
LINE
  5
363
100
AcDbEntity
  8
DRAFT
100
AcDbLine
 62
250
  6
CONTINUOUS
 10
282.7104508696
 20
157.8265738401
 11
282.7104508696
 21
157.8047016742
  0
LINE
  5
364
100
AcDbEntity
  8
DRAFT
100
AcDbLine
 62
250
  6
CONTINUOUS
 10
282.7104508696
 20
155.7265738401
 11
282.7104508696
 21
155.748446006
  0
LINE
  5
365
100
AcDbEntity
  8
DRAFT
100
AcDbLine
 62
7
  6
CONTINUOUS
 10
282.9385787037
 20
155.9765738401
 11
282.9385787037
 21
157.5765738401
  0
LINE
  5
366
100
AcDbEntity
  8
DRAFT
100
AcDbLine
 62
7
  6
CONTINUOUS
 10
282.9604508696
 20
155.9765738401
 11
282.9604508696
 21
157.5765738401
  0
LINE
  5
367
100
AcDbEntity
  8
INTF_1
100
AcDbLine
 62
7
  6
CONTINUOUS
 10
282.9604508696
 20
155.9765738401
 11
282.9604508696
 21
157.5765738401
  0
LINE
  5
368
100
AcDbEntity
  8
DRAFT
100
AcDbLine
 62
250
  6
CONTINUOUS
 10
282.9778795126
 20
159.2637739196
 11
282.9778795126
 21
159.2856460855
  0
LINE
  5
369
100
AcDbEntity
  8
DRAFT
100
AcDbLine
 62
250
  6
CONTINUOUS
 10
283.4932958696
 20
161.785704006
 11
283.4932958696
 21
161.7638318401
  0
LINE
  5
36A
100
AcDbEntity
  8
DRAFT
100
AcDbLine
 62
250
  6
CONTINUOUS
 10
283.4932958696
 20
161.2413996742
 11
283.4932958696
 21
161.2632718401
  0
LINE
  5
36B
100
AcDbEntity
  8
DRAFT
100
AcDbLine
 62
7
  6
CONTINUOUS
 10
283.6932958696
 20
161.4632718401
 11
283.6932958696
 21
161.5638318401
  0
LINE
  5
36C
100
AcDbEntity
  8
DRAFT
100
AcDbLine
 62
7
  6
CONTINUOUS
 10
283.7151680355
 20
161.4632718401
 11
283.7151680355
 21
161.5638318401
  0
LINE
  5
36D
100
AcDbEntity
  8
DRAFT
100
AcDbLine
 62
7
  6
CONTINUOUS
 10
283.8118978696
 20
157.5765738401
 11
283.8118978696
 21
155.9765738401
  0
LINE
  5
36E
100
AcDbEntity
  8
INTF_1
100
AcDbLine
 62
7
  6
CONTINUOUS
 10
283.8118978696
 20
157.5765738401
 11
283.8118978696
 21
155.9765738401
  0
LINE
  5
36F
100
AcDbEntity
  8
DRAFT
100
AcDbLine
 62
7
  6
CONTINUOUS
 10
283.8337700355
 20
157.5765738401
 11
283.8337700355
 21
155.9765738401
  0
LINE
  5
370
100
AcDbEntity
  8
DRAFT
100
AcDbLine
 62
250
  6
CONTINUOUS
 10
284.0618978696
 20
157.8265738401
 11
284.0618978696
 21
157.8047016742
  0
LINE
  5
371
100
AcDbEntity
  8
DRAFT
100
AcDbLine
 62
250
  6
CONTINUOUS
 10
284.0618978696
 20
155.7265738401
 11
284.0618978696
 21
155.748446006
  0
LINE
  5
372
100
AcDbEntity
  8
DRAFT
100
AcDbLine
 62
250
  6
CONTINUOUS
 10
284.1455268696
 20
157.8265738401
 11
284.1455268696
 21
157.8047016742
  0
LINE
  5
373
100
AcDbEntity
  8
DRAFT
100
AcDbLine
 62
250
  6
CONTINUOUS
 10
284.1455268696
 20
155.7265738401
 11
284.1455268696
 21
155.748446006
  0
LINE
  5
374
100
AcDbEntity
  8
DRAFT
100
AcDbLine
 62
7
  6
CONTINUOUS
 10
284.3736547037
 20
155.9765738401
 11
284.3736547037
 21
157.5765738401
  0
LINE
  5
375
100
AcDbEntity
  8
INTF_1
100
AcDbLine
 62
7
  6
CONTINUOUS
 10
284.3955268696
 20
157.5765738401
 11
284.3955268696
 21
155.9765738401
  0
LINE
  5
376
100
AcDbEntity
  8
DRAFT
100
AcDbLine
 62
7
  6
CONTINUOUS
 10
284.3955268696
 20
155.9765738401
 11
284.3955268696
 21
157.5765738401
  0
LINE
  5
377
100
AcDbEntity
  8
DRAFT
100
AcDbLine
 62
7
  6
CONTINUOUS
 10
284.5049258696
 20
157.5765738401
 11
284.5049258696
 21
157.5551548401
  0
LINE
  5
378
100
AcDbEntity
  8
INTF_1
100
AcDbLine
 62
7
  6
CONTINUOUS
 10
284.5049258696
 20
157.5765738401
 11
284.5049258696
 21
157.5551548401
  0
LINE
  5
379
100
AcDbEntity
  8
DRAFT
100
AcDbLine
 62
7
  6
CONTINUOUS
 10
284.5267980355
 20
157.5765738401
 11
284.5267980355
 21
157.5551548401
  0
LINE
  5
37A
100
AcDbEntity
  8
DRAFT
100
AcDbLine
 62
250
  6
CONTINUOUS
 10
284.7549258696
 20
157.8265738401
 11
284.7549258696
 21
157.8047016742
  0
LINE
  5
37B
100
AcDbEntity
  8
DRAFT
100
AcDbLine
 62
250
  6
CONTINUOUS
 10
284.7549258696
 20
157.3051548401
 11
284.7549258696
 21
157.327027006
  0
LINE
  5
37C
100
AcDbEntity
  8
DRAFT
100
AcDbLine
 62
7
  6
CONTINUOUS
 10
285.0687048696
 20
157.3051548401
 11
285.0687048696
 21
155.9765738401
  0
LINE
  5
37D
100
AcDbEntity
  8
INTF_1
100
AcDbLine
 62
7
  6
CONTINUOUS
 10
285.0687048696
 20
155.9765738401
 11
285.0687048696
 21
157.3051548401
  0
LINE
  5
37E
100
AcDbEntity
  8
DRAFT
100
AcDbLine
 62
7
  6
CONTINUOUS
 10
285.0905770355
 20
157.327027006
 11
285.0905770355
 21
155.9765738401
  0
LINE
  5
37F
100
AcDbEntity
  8
DRAFT
100
AcDbLine
 62
250
  6
CONTINUOUS
 10
285.3187048696
 20
155.7265738401
 11
285.3187048696
 21
155.748446006
  0
LINE
  5
380
100
AcDbEntity
  8
DRAFT
100
AcDbLine
 62
250
  6
CONTINUOUS
 10
285.4023338696
 20
155.7265738401
 11
285.4023338696
 21
155.748446006
  0
LINE
  5
381
100
AcDbEntity
  8
DRAFT
100
AcDbLine
 62
7
  6
CONTINUOUS
 10
285.6304617037
 20
155.9765738401
 11
285.6304617037
 21
157.327027006
  0
LINE
  5
382
100
AcDbEntity
  8
DRAFT
100
AcDbLine
 62
7
  6
CONTINUOUS
 10
285.6523338696
 20
155.9765738401
 11
285.6523338696
 21
157.3051548401
  0
LINE
  5
383
100
AcDbEntity
  8
INTF_1
100
AcDbLine
 62
7
  6
CONTINUOUS
 10
285.6523338696
 20
155.9765738401
 11
285.6523338696
 21
157.3051548401
  0
LINE
  5
384
100
AcDbEntity
  8
DRAFT
100
AcDbLine
 62
250
  6
CONTINUOUS
 10
285.9648168696
 20
157.8265738401
 11
285.9648168696
 21
157.8047016742
  0
LINE
  5
385
100
AcDbEntity
  8
DRAFT
100
AcDbLine
 62
250
  6
CONTINUOUS
 10
285.9648168696
 20
157.3051548401
 11
285.9648168696
 21
157.327027006
  0
LINE
  5
386
100
AcDbEntity
  8
DRAFT
100
AcDbLine
 62
7
  6
CONTINUOUS
 10
286.1929447037
 20
157.5551548401
 11
286.1929447037
 21
157.5765738401
  0
LINE
  5
387
100
AcDbEntity
  8
DRAFT
100
AcDbLine
 62
7
  6
CONTINUOUS
 10
286.2148168696
 20
157.5551548401
 11
286.2148168696
 21
157.5765738401
  0
LINE
  5
388
100
AcDbEntity
  8
INTF_1
100
AcDbLine
 62
7
  6
CONTINUOUS
 10
286.2148168696
 20
157.5551548401
 11
286.2148168696
 21
157.5765738401
  0
LINE
  5
389
100
AcDbEntity
  8
DRAFT
100
AcDbLine
 62
250
  6
CONTINUOUS
 10
286.3886518696
 20
155.7265738387
 11
286.3886518696
 21
155.7484460046
  0
LINE
  5
38A
100
AcDbEntity
  8
DRAFT
100
AcDbLine
 62
250
  6
CONTINUOUS
 10
286.4711178696
 20
155.7265738401
 11
286.4711178696
 21
155.748446006
  0
LINE
  5
38B
100
AcDbEntity
  8
DRAFT
100
AcDbLine
 62
250
  6
CONTINUOUS
 10
285.0286414302
 20
161.1824929807
 11
285.0286668706
 21
161.2043651886
  0
LINE
  5
38C
100
AcDbEntity
  8
DRAFT
100
AcDbLine
 62
250
  6
CONTINUOUS
 10
285.0498118138
 20
159.7783077025
 11
285.0497616735
 21
159.7564355941
  0
LINE
  5
38D
100
AcDbEntity
  8
DRAFT
100
AcDbLine
 62
250
  6
CONTINUOUS
 10
285.0467273199
 20
160.219882115
 11
285.0468255125
 21
160.241754076
  0
LWPOLYLINE
  5
38E
100
AcDbEntity
  8
DRAFT
100
AcDbPolyline
 62
7
  6
CONTINUOUS
 90
16
 70
0
 10
283.1865245086
 20
160.1257983988
 10
283.1863351691
 20
160.1025958564
 10
283.1855045271
 20
160.0800106231
 10
283.1840325826
 20
160.058042699
 10
283.1819509839
 20
160.0366604955
 10
283.1792280826
 20
160.0158956012
 10
283.1757689344
 20
159.995842781
 10
283.1715485734
 20
159.9765081582
 10
283.1665919654
 20
159.9578856095
 10
283.1608790628
 20
159.9400515303
 10
283.1543806432
 20
159.9229300188
 10
283.1471259289
 20
159.9065969769
 10
283.1391825397
 20
159.8913565054
 10
283.1305730155
 20
159.8773099711
 10
283.1212748164
 20
159.8643560072
 10
283.1112879424
 20
159.8524946137
  0
LWPOLYLINE
  5
38F
100
AcDbEntity
  8
DRAFT
100
AcDbPolyline
 62
7
  6
CONTINUOUS
 90
16
 70
0
 10
283.164652175
 20
160.12578279
 10
283.164443672
 20
160.1036893042
 10
283.1636477788
 20
160.0822018446
 10
283.1622644954
 20
160.0613204113
 10
283.1603190557
 20
160.0410156897
 10
283.1577862259
 20
160.0213169945
 10
283.154590304
 20
160.0023122694
 10
283.1507187164
 20
159.9840071304
 10
283.1461840368
 20
159.9663959616
 10
283.1409482841
 20
159.949549859
 10
283.1349866695
 20
159.9334001893
 10
283.1283239817
 20
159.9180155859
 10
283.1209966054
 20
159.9036730443
 10
283.1130166688
 20
159.8904648967
 10
283.1043720437
 20
159.8782988111
 10
283.0950627301
 20
159.8671747874
  0
LWPOLYLINE
  5
390
100
AcDbEntity
  8
DRAFT
100
AcDbPolyline
 62
7
  6
CONTINUOUS
 90
10
 70
0
 10
283.8174787583
 20
160.0473399598
 10
283.82046615
 20
160.1228323735
 10
283.8191436542
 20
160.1948934263
 10
283.8135112709
 20
160.2635231182
 10
283.8033582589
 20
160.3286314372
 10
283.7888953593
 20
160.3903083952
 10
283.7707547958
 20
160.4488240286
 10
283.7491473094
 20
160.5042683496
 10
283.7238621591
 20
160.5565513459
 10
283.6948993447
 20
160.6056730176
  0
LWPOLYLINE
  5
391
100
AcDbEntity
  8
DRAFT
100
AcDbPolyline
 62
7
  6
CONTINUOUS
 90
10
 70
0
 10
283.7956106075
 20
160.0482179277
 10
283.7985973066
 20
160.1220364223
 10
283.7973787456
 20
160.1924865744
 10
283.7919549244
 20
160.2595683839
 10
283.782127119
 20
160.3231865097
 10
283.7680940535
 20
160.3834362931
 10
283.7504518999
 20
160.4406037574
 10
283.729399382
 20
160.494784244
 10
283.704737776
 20
160.5458824115
 10
283.6764670818
 20
160.5938982601
  0
LWPOLYLINE
  5
392
100
AcDbEntity
  8
DRAFT
100
AcDbPolyline
 62
7
  6
CONTINUOUS
 90
13
 70
0
 10
286.7854360837
 20
161.105746073
 10
286.7763353955
 20
161.0637904836
 10
286.7683511934
 20
161.0203777544
 10
286.7614834772
 20
160.9755078856
 10
286.7558263646
 20
160.9291383894
 10
286.7512857381
 20
160.8813117536
 10
286.7475792446
 20
160.8321554411
 10
286.7447033049
 20
160.7816877383
 10
286.7426614983
 20
160.7298903588
 10
286.7411822106
 20
160.6768359068
 10
286.7401749039
 20
160.6225485836
 10
286.739730116
 20
160.5670041878
 10
286.7401499262
 20
160.4395076527
  0
LWPOLYLINE
  5
393
100
AcDbEntity
  8
DRAFT
100
AcDbPolyline
 62
7
  6
CONTINUOUS
 90
13
 70
0
 10
287.2439994903
 20
159.9127886006
 10
287.2533496056
 20
159.9546333478
 10
287.2615820678
 20
159.9979574098
 10
287.2686968768
 20
160.0427607867
 10
287.2746029377
 20
160.0890819274
 10
287.2793913454
 20
160.1368823829
 10
287.2833353847
 20
160.1860468067
 10
287.2864449278
 20
160.2365566702
 10
287.2887101025
 20
160.288430502
 10
287.2903745768
 20
160.3416085404
 10
287.2915195731
 20
160.3960708649
 10
287.292063869
 20
160.451837396
 10
287.291686976
 20
160.5816253095
  0
LWPOLYLINE
  5
394
100
AcDbEntity
  8
DRAFT
100
AcDbPolyline
 62
7
  6
CONTINUOUS
 90
10
 70
0
 10
286.7642861965
 20
161.1113204709
 10
286.771734261
 20
161.1384720836
 10
286.7801609196
 20
161.164207933
 10
286.7895661721
 20
161.1885280191
 10
286.799947491
 20
161.2115579199
 10
286.8113074039
 20
161.2331720573
 10
286.8236534934
 20
161.2529936972
 10
286.836988287
 20
161.2708972615
 10
286.8513092572
 20
161.2870083283
 10
286.8666164039
 20
161.3013268975
  0
LWPOLYLINE
  5
395
100
AcDbEntity
  8
DRAFT
100
AcDbPolyline
 62
7
  6
CONTINUOUS
 90
13
 70
0
 10
287.2652202989
 20
159.907473333
 10
287.2595033329
 20
159.8869598135
 10
287.2532810891
 20
159.8672236887
 10
287.2465535673
 20
159.8482649586
 10
287.2393401352
 20
159.8300364912
 10
287.2316214252
 20
159.8125854186
 10
287.2233393348
 20
159.796053136
 10
287.2144611153
 20
159.7804311354
 10
287.2050195155
 20
159.765727925
 10
287.1950546796
 20
159.752110424
 10
287.1845799892
 20
159.7396342724
 10
287.1735820628
 20
159.7282438303
 10
287.1620609003
 20
159.7179390977
  0
LINE
  5
396
100
AcDbEntity
  8
DRAFT
100
AcDbLine
 62
7
  6
CONTINUOUS
 10
286.6855296658
 20
155.8986643257
 11
286.7877670853
 21
156.180028006
  0
LINE
  5
397
100
AcDbEntity
  8
DRAFT
100
AcDbLine
 62
7
  6
CONTINUOUS
 10
286.7060867815
 20
155.8911946112
 11
286.8030908696
 21
156.1581558401
  0
LINE
  5
398
100
AcDbEntity
  8
INTF_1
100
AcDbLine
 62
7
  6
CONTINUOUS
 10
286.8030908696
 20
156.1581558401
 11
286.7060868696
 21
155.8911948401
  0
LINE
  5
399
100
AcDbEntity
  8
DRAFT
100
AcDbLine
 62
7
  6
CONTINUOUS
 10
286.9625482283
 20
156.6564066742
 11
287.1083194913
 21
157.0569117582
  0
LINE
  5
39A
100
AcDbEntity
  8
INTF_1
100
AcDbLine
 62
7
  6
CONTINUOUS
 10
287.1085248696
 20
156.9935258401
 11
286.9937848696
 21
156.6782788401
  0
LINE
  5
39B
100
AcDbEntity
  8
DRAFT
100
AcDbLine
 62
7
  6
CONTINUOUS
 10
286.9937848696
 20
156.6782788401
 11
287.1085248696
 21
156.9935258401
  0
LINE
  5
39C
100
AcDbEntity
  8
DRAFT
100
AcDbLine
 62
7
  6
CONTINUOUS
 10
286.7788902084
 20
157.6673080905
 11
286.1556035216
 21
156.0670649768
  0
LINE
  5
39D
100
AcDbEntity
  8
INTF_1
100
AcDbLine
 62
7
  6
CONTINUOUS
 10
286.1554328696
 20
156.0666268401
 11
286.7788898696
 21
157.6673078401
  0
LINE
  5
39E
100
AcDbEntity
  8
DRAFT
100
AcDbLine
 62
7
  6
CONTINUOUS
 10
286.7992709946
 20
157.6593698794
 11
286.1759885447
 21
156.0591376438
  0
LINE
  5
39F
100
AcDbEntity
  8
INTF_1
100
AcDbLine
 62
7
  6
CONTINUOUS
 10
290.5995408696
 20
157.1719628401
 11
290.9086868696
 21
157.7024488401
  0
LINE
  5
3A0
100
AcDbEntity
  8
DRAFT
100
AcDbLine
 62
7
  6
CONTINUOUS
 10
290.9086865624
 20
157.7024490049
 11
290.5995408696
 21
157.1719628401
  0
LINE
  5
3A1
100
AcDbEntity
  8
DRAFT
100
AcDbLine
 62
7
  6
CONTINUOUS
 10
290.927583992
 20
157.6914363396
 11
290.5997340403
 21
157.1288541832
  0
LINE
  5
3A2
100
AcDbEntity
  8
DRAFT
100
AcDbLine
 62
7
  6
CONTINUOUS
 10
290.8599987037
 20
156.6009797372
 11
291.400599311
 21
157.4545083212
  0
LINE
  5
3A3
100
AcDbEntity
  8
INTF_1
100
AcDbLine
 62
7
  6
CONTINUOUS
 10
291.4190768696
 20
157.4428048401
 11
290.8818708696
 21
156.5946358401
  0
LINE
  5
3A4
100
AcDbEntity
  8
DRAFT
100
AcDbLine
 62
7
  6
CONTINUOUS
 10
290.8818708696
 20
156.5946358401
 11
291.4190770159
 21
157.4428050711
  0
LINE
  5
3A5
100
AcDbEntity
  8
DRAFT
100
AcDbLine
 62
7
  6
CONTINUOUS
 10
324.5172388696
 20
150.3265738401
 11
239.0172388696
 21
150.3265738401
  0
LINE
  5
3A6
100
AcDbEntity
  8
DRAFT
100
AcDbLine
 62
7
  6
CONTINUOUS
 10
324.5609832013
 20
150.3703181719
 11
238.9734945378
 21
150.3703181719
  0
LINE
  5
3A7
100
AcDbEntity
  8
RACCORDO
100
AcDbLine
 62
250
  6
CONTINUOUS
 10
238.4371248475
 20
150.9066878622
 11
325.0973528917
 21
150.9066878622
  0
LINE
  5
3A8
100
AcDbEntity
  8
DRAFT
100
AcDbLine
 62
7
  6
CONTINUOUS
 10
275.0134958696
 20
156.6782788401
 11
275.0449488656
 21
156.6564066742
  0
LWPOLYLINE
  5
3A9
100
AcDbEntity
  8
DRAFT
100
AcDbPolyline
 62
7
  6
CONTINUOUS
 90
10
 70
0
 10
277.165663322
 20
157.2248820244
 10
277.1547271193
 20
157.2345176864
 10
277.1428870613
 20
157.2435590572
 10
277.130143148
 20
157.2520061369
 10
277.1164626047
 20
157.2598977691
 10
277.101878206
 20
157.2671951102
 10
277.0864882764
 20
157.2737816288
 10
277.0703255907
 20
157.2796184812
 10
277.053357374
 20
157.2847445111
 10
277.0355836264
 20
157.2891597185
  0
LWPOLYLINE
  5
3AA
100
AcDbEntity
  8
INTF_1
100
AcDbPolyline
 62
7
  6
CONTINUOUS
 90
32
 70
0
 10
277.1656633174
 20
157.2248820287
 10
277.1622220134
 20
157.2280571777
 10
277.1587053419
 20
157.2311554344
 10
277.1551158937
 20
157.2341771555
 10
277.15145626
 20
157.2371226975
 10
277.1477290317
 20
157.2399924172
 10
277.1439367999
 20
157.242786671
 10
277.1400821556
 20
157.2455058156
 10
277.1361676899
 20
157.2481502076
 10
277.1321959938
 20
157.2507202037
 10
277.1281696583
 20
157.2532161604
 10
277.1240912744
 20
157.2556384343
 10
277.1199634332
 20
157.2579873822
 10
277.1157887257
 20
157.2602633605
 10
277.1115697429
 20
157.2624667258
 10
277.1073090758
 20
157.2645978349
 10
277.1030093156
 20
157.2666570443
 10
277.0986730532
 20
157.2686447106
 10
277.0943028796
 20
157.2705611905
 10
277.0899013859
 20
157.2724068405
 10
277.0854711631
 20
157.2741820172
 10
277.0810148023
 20
157.2758870773
 10
277.0765348944
 20
157.2775223774
 10
277.0720340305
 20
157.2790882741
 10
277.0675148016
 20
157.280585124
 10
277.0629797988
 20
157.2820132837
 10
277.0584316131
 20
157.2833731099
 10
277.0538728354
 20
157.2846649591
 10
277.049306057
 20
157.2858891879
 10
277.0447338687
 20
157.287046153
 10
277.0401588616
 20
157.288136211
 10
277.0355836267
 20
157.2891597184
  0
LWPOLYLINE
  5
3AB
100
AcDbEntity
  8
DRAFT
100
AcDbPolyline
 62
7
  6
CONTINUOUS
 90
10
 70
0
 10
277.1806812656
 20
157.2407833769
 10
277.1899042726
 20
157.2315817975
 10
277.1987900346
 20
157.2217139393
 10
277.2073385516
 20
157.2111798024
 10
277.2155569827
 20
157.1999506024
 10
277.2234381688
 20
157.1880551236
 10
277.2309606324
 20
157.1755797186
 10
277.2381172141
 20
157.1625531718
 10
277.2449150733
 20
157.1489466989
 10
277.2513542099
 20
157.1347602998
  0
LINE
  5
3AC
100
AcDbEntity
  8
RACCORDO
100
AcDbLine
 62
250
  6
CONTINUOUS
 10
269.2453667037
 20
163.0495875965
 11
269.2672388696
 21
163.0277154307
  0
LINE
  5
3AD
100
AcDbEntity
  8
RACCORDO
100
AcDbLine
 62
250
  6
CONTINUOUS
 10
269.5442251131
 20
163.348446006
 11
269.566097279
 21
163.3265738401
  0
LINE
  5
3AE
100
AcDbEntity
  8
DRAFT
100
AcDbLine
 62
7
  6
CONTINUOUS
 10
276.6694558696
 20
157.3051548401
 11
276.6475837037
 21
157.327027006
  0
LINE
  5
3AF
100
AcDbEntity
  8
DRAFT
100
AcDbLine
 62
7
  6
CONTINUOUS
 10
278.6775998696
 20
156.5638178401
 11
278.6557277037
 21
156.585690006
  0
LINE
  5
3B0
100
AcDbEntity
  8
DRAFT
100
AcDbLine
 62
250
  6
CONTINUOUS
 10
277.5863857093
 20
155.9468571041
 11
277.5711753615
 21
155.9625745139
  0
LWPOLYLINE
  5
3B1
100
AcDbEntity
  8
DRAFT
100
AcDbPolyline
 62
7
  6
CONTINUOUS
 90
10
 70
0
 10
277.6235041164
 20
157.5338337907
 10
277.588831166
 20
157.5718005918
 10
277.5520431113
 20
157.6070416244
 10
277.5131399524
 20
157.6395568887
 10
277.4719470461
 20
157.6695279407
 10
277.4286390356
 20
157.6967732243
 10
277.3837398501
 20
157.7207480707
 10
277.3374241327
 20
157.7412709239
 10
277.2895172402
 20
157.75852334
 10
277.2400191727
 20
157.772505319
  0
LWPOLYLINE
  5
3B2
100
AcDbEntity
  8
DRAFT
100
AcDbPolyline
 62
7
  6
CONTINUOUS
 90
10
 70
0
 10
277.6403927796
 20
157.547732161
 10
277.6047446593
 20
157.5868046594
 10
277.566919654
 20
157.6230761405
 10
277.5269177639
 20
157.6565466044
 10
277.4845588582
 20
157.687401286
 10
277.4400230677
 20
157.7154549504
 10
277.3938507843
 20
157.7401518925
 10
277.3462221387
 20
157.7613068772
 10
277.2969570003
 20
157.7791051396
 10
277.246055369
 20
157.7935466797
  0
LINE
  5
3B3
100
AcDbEntity
  8
DRAFT
100
AcDbLine
 62
250
  6
CONTINUOUS
 10
277.1759167733
 20
156.3182164576
 11
277.1904637277
 21
156.3018831248
  0
LINE
  5
3B4
100
AcDbEntity
  8
DRAFT
100
AcDbLine
 62
7
  6
CONTINUOUS
 10
281.8095648696
 20
156.7136578401
 11
281.7876927037
 21
156.7906333293
  0
LINE
  5
3B5
100
AcDbEntity
  8
DRAFT
100
AcDbLine
 62
7
  6
CONTINUOUS
 10
282.4040388696
 20
156.8122858401
 11
282.4259110355
 21
156.7347405224
  0
LINE
  5
3B6
100
AcDbEntity
  8
DRAFT
100
AcDbLine
 62
7
  6
CONTINUOUS
 10
282.983485606
 20
160.949236549
 11
282.9862270102
 21
160.9275367977
  0
LWPOLYLINE
  5
3B7
100
AcDbEntity
  8
DRAFT
100
AcDbPolyline
 62
7
  6
CONTINUOUS
 90
6
 70
0
 10
287.2867568237
 20
160.7878696207
 10
287.2839643747
 20
160.8526824675
 10
287.2788590842
 20
160.9151895348
 10
287.2709194592
 20
160.9752893773
 10
287.2606669927
 20
161.0330834402
 10
287.2481016845
 20
161.0885717237
  0
LWPOLYLINE
  5
3B8
100
AcDbEntity
  8
DRAFT
100
AcDbPolyline
 62
7
  6
CONTINUOUS
 90
6
 70
0
 10
286.7441844063
 20
160.2386187004
 10
286.7464001949
 20
160.1753577756
 10
286.7507693229
 20
160.1142481146
 10
286.7578071478
 20
160.0553797876
 10
286.7669983121
 20
159.9986627245
 10
286.7783428159
 20
159.9440969253
  0
LWPOLYLINE
  5
3B9
100
AcDbEntity
  8
DRAFT
100
AcDbPolyline
 62
7
  6
CONTINUOUS
 90
3
 70
0
 10
287.308578095
 20
160.789996948
 10
287.3124915166
 20
160.6532138867
 10
287.3135685576
 20
160.5820311584
  0
LWPOLYLINE
  5
3BA
100
AcDbEntity
  8
DRAFT
100
AcDbPolyline
 62
7
  6
CONTINUOUS
 90
3
 70
0
 10
286.7223182451
 20
160.2374316507
 10
286.7191846805
 20
160.3703469562
 10
286.7182734039
 20
160.4393944261
  0
LWPOLYLINE
  5
3BB
100
AcDbEntity
  8
DRAFT
100
AcDbPolyline
 62
7
  6
CONTINUOUS
 90
3
 70
0
 10
287.291686976
 20
160.5816253095
 10
287.2906181243
 20
160.6523410417
 10
287.2867568237
 20
160.7878696207
  0
LWPOLYLINE
  5
3BC
100
AcDbEntity
  8
DRAFT
100
AcDbPolyline
 62
7
  6
CONTINUOUS
 90
3
 70
0
 10
286.7401499262
 20
160.4395076527
 10
286.741059272
 20
160.370693639
 10
286.7441844063
 20
160.2386187004
  0
LINE
  5
3BD
100
AcDbEntity
  8
DRAFT
100
AcDbLine
 62
7
  6
CONTINUOUS
 10
290.5995408696
 20
157.1719628401
 11
290.5997340403
 21
157.1288541832
  0
LWPOLYLINE
  5
3BE
100
AcDbEntity
  8
DRAFT
100
AcDbPolyline
 62
7
  6
CONTINUOUS
 90
25
 70
0
 10
287.8170639091
 20
160.5104887963
 10
287.8168693216
 20
160.5637224852
 10
287.8160387514
 20
160.6154154949
 10
287.8145721983
 20
160.6655678254
 10
287.8125025319
 20
160.7140413748
 10
287.8097968826
 20
160.7609742451
 10
287.8063566422
 20
160.8067807422
 10
287.8021867656
 20
160.8514798895
 10
287.797282298
 20
160.8950526637
 10
287.7915297671
 20
160.9378563011
 10
287.7849498332
 20
160.9799058804
 10
287.7775218361
 20
161.0211863229
 10
287.7690703223
 20
161.0620096296
 10
287.7595985069
 20
161.1024651372
 10
287.7491031748
 20
161.142463509
 10
287.7373992283
 20
161.1820487361
 10
287.7244800503
 20
161.2212890119
 10
287.710352258
 20
161.2601161429
 10
287.6948506048
 20
161.2983695393
 10
287.6780333137
 20
161.3361349466
 10
287.6598421619
 20
161.3733266191
 10
287.639937234
 20
161.4095267306
 10
287.6182052251
 20
161.4445960053
 10
287.5947594402
 20
161.4786737188
 10
287.5695998793
 20
161.5117598712
  0
LWPOLYLINE
  5
3BF
100
AcDbEntity
  8
DRAFT
100
AcDbPolyline
 62
7
  6
CONTINUOUS
 90
28
 70
0
 10
287.7951917415
 20
160.5105093141
 10
287.7950213101
 20
160.5579027459
 10
287.7943602319
 20
160.6039686479
 10
287.7932085071
 20
160.6487070201
 10
287.7915853736
 20
160.6920150633
 10
287.7894715933
 20
160.7339955769
 10
287.7868094526
 20
160.774956958
 10
287.7836014172
 20
160.8149045618
 10
287.7798450213
 20
160.8538330333
 10
287.7754751533
 20
160.8920347042
 10
287.7705028685
 20
160.9295244827
 10
287.7649171116
 20
160.9662874607
 10
287.758619605
 20
161.002571246
 10
287.7516267728
 20
161.0383931947
 10
287.7439221909
 20
161.0737359507
 10
287.7353583091
 20
161.1087950537
 10
287.7259233297
 20
161.1436618788
 10
287.7156290503
 20
161.1782450508
 10
287.7043633145
 20
161.2124659838
 10
287.6921363814
 20
161.2463346789
 10
287.6789379918
 20
161.2798411351
 10
287.6646252111
 20
161.3128767634
 10
287.6492336715
 20
161.3455256516
 10
287.6327277409
 20
161.3777037119
 10
287.6148575886
 20
161.4090500931
 10
287.5955399378
 20
161.4394445114
 10
287.5748580652
 20
161.4690072506
 10
287.5528119709
 20
161.4977383106
  0
LINE
  5
3C0
100
AcDbEntity
  8
DRAFT
100
AcDbLine
 62
7
  6
CONTINUOUS
 10
287.1085248696
 20
156.9935258401
 11
287.1083194913
 21
157.0569117582
  0
LWPOLYLINE
  5
3C1
100
AcDbEntity
  8
DRAFT
100
AcDbPolyline
 62
7
  6
CONTINUOUS
 90
13
 70
0
 10
287.3135685576
 20
160.5820311584
 10
287.3139483012
 20
160.4515077165
 10
287.313405178
 20
160.3953532611
 10
287.3122502687
 20
160.3404856393
 10
287.3105662457
 20
160.2868834098
 10
287.3082704367
 20
160.2345680139
 10
287.3051148252
 20
160.183603775
 10
287.3011059604
 20
160.1339694655
 10
287.2962372932
 20
160.0856863131
 10
287.2902411598
 20
160.038882323
 10
287.283028339
 20
159.9936001639
 10
287.274688052
 20
159.9497971673
 10
287.2652202989
 20
159.907473333
  0
LINE
  5
3C2
100
AcDbEntity
  8
DRAFT
100
AcDbLine
 62
7
  6
CONTINUOUS
 10
287.8545214042
 20
155.7265738401
 11
287.8545021845
 21
155.748446006
  0
LINE
  5
3C3
100
AcDbEntity
  8
DRAFT
100
AcDbLine
 62
250
  6
CONTINUOUS
 10
287.0118438696
 20
157.8265738401
 11
287.0118438696
 21
157.8047016742
  0
LINE
  5
3C4
100
AcDbEntity
  8
DRAFT
100
AcDbLine
 62
250
  6
CONTINUOUS
 10
287.0159283333
 20
159.6889643597
 11
287.0159283333
 21
159.6670921938
  0
LINE
  5
3C5
100
AcDbEntity
  8
DRAFT
100
AcDbLine
 62
250
  6
CONTINUOUS
 10
287.0159283329
 20
159.2637739197
 11
287.0159283329
 21
159.2856460856
  0
LINE
  5
3C6
100
AcDbEntity
  8
DRAFT
100
AcDbLine
 62
250
  6
CONTINUOUS
 10
287.0159283333
 20
161.3330781923
 11
287.0159283333
 21
161.3549503581
  0
LINE
  5
3C7
100
AcDbEntity
  8
DRAFT
100
AcDbLine
 62
250
  6
CONTINUOUS
 10
287.2134378696
 20
157.8265738379
 11
287.2134378696
 21
157.804701672
  0
LINE
  5
3C8
100
AcDbEntity
  8
DRAFT
100
AcDbLine
 62
250
  6
CONTINUOUS
 10
287.7614468696
 20
155.7265738393
 11
287.7614468696
 21
155.7484460052
  0
LINE
  5
3C9
100
AcDbEntity
  8
DRAFT
100
AcDbLine
 62
7
  6
CONTINUOUS
 10
288.3995788696
 20
157.5610208401
 11
288.3995788696
 21
155.9765738401
  0
LINE
  5
3CA
100
AcDbEntity
  8
INTF_1
100
AcDbLine
 62
7
  6
CONTINUOUS
 10
288.3995788696
 20
157.5610208401
 11
288.3995788696
 21
155.9765738401
  0
LINE
  5
3CB
100
AcDbEntity
  8
DRAFT
100
AcDbLine
 62
7
  6
CONTINUOUS
 10
288.4214510355
 20
157.5610208401
 11
288.4214510355
 21
155.9765738401
  0
LINE
  5
3CC
100
AcDbEntity
  8
DRAFT
100
AcDbLine
 62
250
  6
CONTINUOUS
 10
288.6495788696
 20
157.8110208401
 11
288.6495788696
 21
157.7891486742
  0
LINE
  5
3CD
100
AcDbEntity
  8
DRAFT
100
AcDbLine
 62
250
  6
CONTINUOUS
 10
288.6495788696
 20
155.7265738401
 11
288.6495788696
 21
155.748446006
  0
LINE
  5
3CE
100
AcDbEntity
  8
DRAFT
100
AcDbLine
 62
250
  6
CONTINUOUS
 10
288.7332058696
 20
157.8110208401
 11
288.7332058696
 21
157.7891486742
  0
LINE
  5
3CF
100
AcDbEntity
  8
DRAFT
100
AcDbLine
 62
7
  6
CONTINUOUS
 10
288.9613337037
 20
156.2248246742
 11
288.9613337037
 21
157.5610208401
  0
LINE
  5
3D0
100
AcDbEntity
  8
DRAFT
100
AcDbLine
 62
7
  6
CONTINUOUS
 10
288.9832058696
 20
156.2466968401
 11
288.9832058696
 21
157.5610208401
  0
LINE
  5
3D1
100
AcDbEntity
  8
INTF_1
100
AcDbLine
 62
7
  6
CONTINUOUS
 10
288.9832058696
 20
156.2466968401
 11
288.9832058696
 21
157.5610208401
  0
LINE
  5
3D2
100
AcDbEntity
  8
DRAFT
100
AcDbLine
 62
250
  6
CONTINUOUS
 10
289.6870948696
 20
156.2466968401
 11
289.6870948696
 21
156.2248246742
  0
LINE
  5
3D3
100
AcDbEntity
  8
DRAFT
100
AcDbLine
 62
250
  6
CONTINUOUS
 10
289.6870948696
 20
155.7265738401
 11
289.6870948696
 21
155.748446006
  0
LINE
  5
3D4
100
AcDbEntity
  8
DRAFT
100
AcDbLine
 62
7
  6
CONTINUOUS
 10
289.9152227037
 20
155.9765738401
 11
289.9152227037
 21
155.9966968401
  0
LINE
  5
3D5
100
AcDbEntity
  8
DRAFT
100
AcDbLine
 62
7
  6
CONTINUOUS
 10
289.9370948696
 20
155.9765738401
 11
289.9370948696
 21
155.9966968401
  0
LINE
  5
3D6
100
AcDbEntity
  8
INTF_1
100
AcDbLine
 62
7
  6
CONTINUOUS
 10
289.9370948696
 20
155.9765738401
 11
289.9370948696
 21
155.9966968401
  0
LINE
  5
3D7
100
AcDbEntity
  8
DRAFT
100
AcDbLine
 62
250
  6
CONTINUOUS
 10
289.9759248696
 20
157.8265738401
 11
289.9759248696
 21
157.8047016742
  0
LINE
  5
3D8
100
AcDbEntity
  8
DRAFT
100
AcDbLine
 62
250
  6
CONTINUOUS
 10
290.0679818696
 20
157.8265738405
 11
290.0679818696
 21
157.8047016746
  0
LINE
  5
3D9
100
AcDbEntity
  8
DRAFT
100
AcDbLine
 62
7
  6
CONTINUOUS
 10
290.2995368696
 20
156.5972618401
 11
290.2995368696
 21
155.9765738401
  0
LINE
  5
3DA
100
AcDbEntity
  8
INTF_1
100
AcDbLine
 62
7
  6
CONTINUOUS
 10
290.2995368696
 20
155.9765738401
 11
290.2995368696
 21
156.5972618401
  0
LINE
  5
3DB
100
AcDbEntity
  8
DRAFT
100
AcDbLine
 62
7
  6
CONTINUOUS
 10
290.3214090355
 20
156.6035984297
 11
290.3214090355
 21
155.9765738401
  0
LINE
  5
3DC
100
AcDbEntity
  8
DRAFT
100
AcDbLine
 62
250
  6
CONTINUOUS
 10
290.5495368696
 20
155.7265738401
 11
290.5495368696
 21
155.748446006
  0
LINE
  5
3DD
100
AcDbEntity
  8
DRAFT
100
AcDbLine
 62
250
  6
CONTINUOUS
 10
290.6318708696
 20
155.7265738401
 11
290.6318708696
 21
155.748446006
  0
LINE
  5
3DE
100
AcDbEntity
  8
DRAFT
100
AcDbLine
 62
7
  6
CONTINUOUS
 10
290.8599987037
 20
155.9765738401
 11
290.8599987037
 21
156.6009797372
  0
LINE
  5
3DF
100
AcDbEntity
  8
DRAFT
100
AcDbLine
 62
7
  6
CONTINUOUS
 10
290.8818708696
 20
155.9765738401
 11
290.8818708696
 21
156.5946358401
  0
LINE
  5
3E0
100
AcDbEntity
  8
INTF_1
100
AcDbLine
 62
7
  6
CONTINUOUS
 10
290.8818708696
 20
155.9765738401
 11
290.8818708696
 21
156.5946358401
  0
LINE
  5
3E1
100
AcDbEntity
  8
DRAFT
100
AcDbLine
 62
250
  6
CONTINUOUS
 10
291.1246848696
 20
157.8265738401
 11
291.1246848696
 21
157.8047016742
  0
LINE
  5
3E2
100
AcDbEntity
  8
DRAFT
100
AcDbLine
 62
250
  6
CONTINUOUS
 10
291.2078758696
 20
157.8265738401
 11
291.2078758696
 21
157.8047016743
  0
LINE
  5
3E3
100
AcDbEntity
  8
DRAFT
100
AcDbLine
 62
250
  6
CONTINUOUS
 10
287.0166731909
 20
161.7582677896
 11
287.0166021901
 21
161.7363956681
  0
LWPOLYLINE
  5
3E4
100
AcDbEntity
  8
DRAFT
100
AcDbPolyline
 62
7
  6
CONTINUOUS
 90
9
 70
0
 10
276.9536727957
 20
155.7267574013
 10
276.9984654103
 20
155.7280913486
 10
277.0421007212
 20
155.7305756513
 10
277.0846481562
 20
155.734134816
 10
277.1260382874
 20
155.7388443361
 10
277.1660628311
 20
155.7449306915
 10
277.2046523595
 20
155.7524693753
 10
277.2418763004
 20
155.7613848943
 10
277.2777346538
 20
155.7716772486
  0
LWPOLYLINE
  5
3E5
100
AcDbEntity
  8
DRAFT
100
AcDbPolyline
 62
7
  6
CONTINUOUS
 90
9
 70
0
 10
276.9528476396
 20
155.7486272412
 10
276.9968352068
 20
155.7499281381
 10
277.0396855787
 20
155.752348666
 10
277.081467018
 20
155.755810189
 10
277.1221112619
 20
155.7603913429
 10
277.1614135229
 20
155.7663280352
 10
277.1993055384
 20
155.7736989018
 10
277.235855571
 20
155.7824253067
 10
277.2710636206
 20
155.79250725
  0
LINE
  5
3E6
100
AcDbEntity
  8
RACCORDO
100
AcDbLine
 62
250
  6
CONTINUOUS
 10
236.9428328003
 20
152.4009799093
 11
326.5916449388
 21
152.4009799093
  0
LINE
  5
3E7
100
AcDbEntity
  8
RACCORDO
100
AcDbLine
 62
7
  6
CONTINUOUS
 10
269.5442251131
 20
154.3047016742
 11
293.990252626
 21
154.3047016742
  0
LINE
  5
3E8
100
AcDbEntity
  8
RACCORDO
100
AcDbLine
 62
7
  6
CONTINUOUS
 10
269.566097279
 20
154.3265738401
 11
293.9683804602
 21
154.3265738401
  0
LINE
  5
3E9
100
AcDbEntity
  8
DRAFT
100
AcDbLine
 62
7
  6
CONTINUOUS
 10
274.1765638696
 20
155.7265741282
 11
274.2590298696
 21
155.7265738401
  0
LINE
  5
3EA
100
AcDbEntity
  8
DRAFT
100
AcDbLine
 62
7
  6
CONTINUOUS
 10
286.3886518696
 20
155.7265736618
 11
286.4711178696
 21
155.7265738401
  0
LINE
  5
3EB
100
AcDbEntity
  8
DRAFT
100
AcDbLine
 62
7
  6
CONTINUOUS
 10
287.7614468696
 20
155.7265737323
 11
287.8545214042
 21
155.7265738401
  0
LINE
  5
3EC
100
AcDbEntity
  8
DRAFT
100
AcDbLine
 62
7
  6
CONTINUOUS
 10
272.6932728696
 20
155.7265739168
 11
272.8288058696
 21
155.7265738401
  0
LINE
  5
3ED
100
AcDbEntity
  8
INTF_1
100
AcDbLine
 62
7
  6
CONTINUOUS
 10
289.6870948696
 20
155.7265738401
 11
288.6495788696
 21
155.7265738401
  0
LINE
  5
3EE
100
AcDbEntity
  8
INTF_1
100
AcDbLine
 62
7
  6
CONTINUOUS
 10
287.8555698696
 20
155.7265738401
 11
287.7614468696
 21
155.7265738401
  0
LINE
  5
3EF
100
AcDbEntity
  8
INTF_1
100
AcDbLine
 62
7
  6
CONTINUOUS
 10
284.1455268696
 20
155.7265738401
 11
284.0618978696
 21
155.7265738401
  0
LINE
  5
3F0
100
AcDbEntity
  8
INTF_1
100
AcDbLine
 62
7
  6
CONTINUOUS
 10
279.4890598696
 20
155.7265738401
 11
278.3439708696
 21
155.7265738401
  0
LINE
  5
3F1
100
AcDbEntity
  8
DRAFT
100
AcDbLine
 62
7
  6
CONTINUOUS
 10
271.9940398696
 20
155.7265738401
 11
272.0504518696
 21
155.7265738401
  0
LINE
  5
3F2
100
AcDbEntity
  8
INTF_1
100
AcDbLine
 62
7
  6
CONTINUOUS
 10
271.9940398696
 20
155.7265738401
 11
272.0504518696
 21
155.7265738401
  0
LINE
  5
3F3
100
AcDbEntity
  8
INTF_1
100
AcDbLine
 62
7
  6
CONTINUOUS
 10
272.6932728696
 20
155.7265738401
 11
272.8288058696
 21
155.7265738401
  0
LINE
  5
3F4
100
AcDbEntity
  8
DRAFT
100
AcDbLine
 62
7
  6
CONTINUOUS
 10
273.4728248696
 20
155.7265738401
 11
273.5292368696
 21
155.7265738401
  0
LINE
  5
3F5
100
AcDbEntity
  8
INTF_1
100
AcDbLine
 62
7
  6
CONTINUOUS
 10
273.4728248696
 20
155.7265738401
 11
273.5292368696
 21
155.7265738401
  0
LINE
  5
3F6
100
AcDbEntity
  8
INTF_1
100
AcDbLine
 62
7
  6
CONTINUOUS
 10
274.1765638696
 20
155.7265738401
 11
274.2590298696
 21
155.7265738401
  0
LINE
  5
3F7
100
AcDbEntity
  8
INTF_1
100
AcDbLine
 62
7
  6
CONTINUOUS
 10
275.5493598696
 20
155.7265738401
 11
275.6434828696
 21
155.7265738401
  0
LINE
  5
3F8
100
AcDbEntity
  8
DRAFT
100
AcDbLine
 62
7
  6
CONTINUOUS
 10
276.3358268696
 20
155.7265738401
 11
276.9536727957
 21
155.7267574013
  0
LINE
  5
3F9
100
AcDbEntity
  8
INTF_1
100
AcDbLine
 62
7
  6
CONTINUOUS
 10
276.3358268696
 20
155.7265738401
 11
276.9239143562
 21
155.7266191958
  0
LINE
  5
3FA
100
AcDbEntity
  8
DRAFT
100
AcDbLine
 62
7
  6
CONTINUOUS
 10
278.3439708696
 20
155.7265738401
 11
279.4890598696
 21
155.7265738401
  0
LINE
  5
3FB
100
AcDbEntity
  8
DRAFT
100
AcDbLine
 62
7
  6
CONTINUOUS
 10
280.7501518696
 20
155.7265738401
 11
280.8337808696
 21
155.7265738401
  0
LINE
  5
3FC
100
AcDbEntity
  8
INTF_1
100
AcDbLine
 62
7
  6
CONTINUOUS
 10
280.7501518696
 20
155.7265738401
 11
280.8337808696
 21
155.7265738401
  0
LINE
  5
3FD
100
AcDbEntity
  8
DRAFT
100
AcDbLine
 62
7
  6
CONTINUOUS
 10
281.5031528696
 20
155.7265738401
 11
281.5595648696
 21
155.7265738401
  0
LINE
  5
3FE
100
AcDbEntity
  8
INTF_1
100
AcDbLine
 62
7
  6
CONTINUOUS
 10
281.5031528696
 20
155.7265738401
 11
281.5595648696
 21
155.7265738401
  0
LINE
  5
3FF
100
AcDbEntity
  8
INTF_1
100
AcDbLine
 62
7
  6
CONTINUOUS
 10
282.5591448696
 20
155.7265738401
 11
282.7104508696
 21
155.7265738401
  0
LINE
  5
400
100
AcDbEntity
  8
DRAFT
100
AcDbLine
 62
7
  6
CONTINUOUS
 10
284.0618978696
 20
155.7265738401
 11
284.1455268696
 21
155.7265738401
  0
LINE
  5
401
100
AcDbEntity
  8
DRAFT
100
AcDbLine
 62
7
  6
CONTINUOUS
 10
285.3187048696
 20
155.7265738401
 11
285.4023338696
 21
155.7265738401
  0
LINE
  5
402
100
AcDbEntity
  8
INTF_1
100
AcDbLine
 62
7
  6
CONTINUOUS
 10
285.3187048696
 20
155.7265738401
 11
285.4023338696
 21
155.7265738401
  0
LINE
  5
403
100
AcDbEntity
  8
INTF_1
100
AcDbLine
 62
7
  6
CONTINUOUS
 10
286.3886518696
 20
155.7265738401
 11
286.4711178696
 21
155.7265738401
  0
LINE
  5
404
100
AcDbEntity
  8
DRAFT
100
AcDbLine
 62
7
  6
CONTINUOUS
 10
288.6495788696
 20
155.7265738401
 11
289.6870948696
 21
155.7265738401
  0
LINE
  5
405
100
AcDbEntity
  8
DRAFT
100
AcDbLine
 62
7
  6
CONTINUOUS
 10
290.5495368696
 20
155.7265738401
 11
290.6318708696
 21
155.7265738401
  0
LINE
  5
406
100
AcDbEntity
  8
INTF_1
100
AcDbLine
 62
7
  6
CONTINUOUS
 10
290.5495368696
 20
155.7265738401
 11
290.6318708696
 21
155.7265738401
  0
LINE
  5
407
100
AcDbEntity
  8
DRAFT
100
AcDbLine
 62
7
  6
CONTINUOUS
 10
282.5591448696
 20
155.726574313
 11
282.7104508696
 21
155.7265738401
  0
LINE
  5
408
100
AcDbEntity
  8
DRAFT
100
AcDbLine
 62
7
  6
CONTINUOUS
 10
275.5493598696
 20
155.7265735529
 11
275.6424344042
 21
155.7265738401
  0
LINE
  5
409
100
AcDbEntity
  8
DRAFT
100
AcDbLine
 62
7
  6
CONTINUOUS
 10
274.1765638696
 20
155.7484462941
 11
274.2590298696
 21
155.748446006
  0
LINE
  5
40A
100
AcDbEntity
  8
DRAFT
100
AcDbLine
 62
7
  6
CONTINUOUS
 10
286.3886518696
 20
155.7484458276
 11
286.4711178696
 21
155.748446006
  0
LINE
  5
40B
100
AcDbEntity
  8
DRAFT
100
AcDbLine
 62
7
  6
CONTINUOUS
 10
287.7614468696
 20
155.7484458981
 11
287.8545021845
 21
155.748446006
  0
LINE
  5
40C
100
AcDbEntity
  8
DRAFT
100
AcDbLine
 62
7
  6
CONTINUOUS
 10
272.6932728696
 20
155.7484460827
 11
272.8288058696
 21
155.748446006
  0
LINE
  5
40D
100
AcDbEntity
  8
DRAFT
100
AcDbLine
 62
7
  6
CONTINUOUS
 10
276.3358268696
 20
155.748446006
 11
276.9528476396
 21
155.7486272412
  0
LINE
  5
40E
100
AcDbEntity
  8
DRAFT
100
AcDbLine
 62
7
  6
CONTINUOUS
 10
271.9940398696
 20
155.748446006
 11
272.0504518696
 21
155.748446006
  0
LINE
  5
40F
100
AcDbEntity
  8
DRAFT
100
AcDbLine
 62
7
  6
CONTINUOUS
 10
273.4728248696
 20
155.748446006
 11
273.5292368696
 21
155.748446006
  0
LINE
  5
410
100
AcDbEntity
  8
DRAFT
100
AcDbLine
 62
7
  6
CONTINUOUS
 10
278.3439708696
 20
155.748446006
 11
279.4890598696
 21
155.748446006
  0
LINE
  5
411
100
AcDbEntity
  8
DRAFT
100
AcDbLine
 62
7
  6
CONTINUOUS
 10
280.7501518696
 20
155.748446006
 11
280.8337808696
 21
155.748446006
  0
LINE
  5
412
100
AcDbEntity
  8
DRAFT
100
AcDbLine
 62
7
  6
CONTINUOUS
 10
281.5031528696
 20
155.748446006
 11
281.5595648696
 21
155.748446006
  0
LINE
  5
413
100
AcDbEntity
  8
DRAFT
100
AcDbLine
 62
7
  6
CONTINUOUS
 10
284.0618978696
 20
155.748446006
 11
284.1455268696
 21
155.748446006
  0
LINE
  5
414
100
AcDbEntity
  8
DRAFT
100
AcDbLine
 62
7
  6
CONTINUOUS
 10
285.3187048696
 20
155.748446006
 11
285.4023338696
 21
155.748446006
  0
LINE
  5
415
100
AcDbEntity
  8
DRAFT
100
AcDbLine
 62
7
  6
CONTINUOUS
 10
288.6495788696
 20
155.748446006
 11
289.6870948696
 21
155.748446006
  0
LINE
  5
416
100
AcDbEntity
  8
DRAFT
100
AcDbLine
 62
7
  6
CONTINUOUS
 10
290.5495368696
 20
155.748446006
 11
290.6318708696
 21
155.748446006
  0
LINE
  5
417
100
AcDbEntity
  8
DRAFT
100
AcDbLine
 62
7
  6
CONTINUOUS
 10
282.5591448696
 20
155.7484464789
 11
282.7104508696
 21
155.748446006
  0
LINE
  5
418
100
AcDbEntity
  8
DRAFT
100
AcDbLine
 62
7
  6
CONTINUOUS
 10
275.5493598696
 20
155.7484457187
 11
275.6424151845
 21
155.748446006
  0
LINE
  5
419
100
AcDbEntity
  8
DRAFT
100
AcDbLine
 62
250
  6
CONTINUOUS
 10
290.8818708696
 20
155.9765738401
 11
290.8599987037
 21
155.9765738401
  0
LINE
  5
41A
100
AcDbEntity
  8
DRAFT
100
AcDbLine
 62
250
  6
CONTINUOUS
 10
289.9370948696
 20
155.9765738401
 11
289.9152227037
 21
155.9765738401
  0
LINE
  5
41B
100
AcDbEntity
  8
DRAFT
100
AcDbLine
 62
250
  6
CONTINUOUS
 10
285.6523338696
 20
155.9765738401
 11
285.6304617037
 21
155.9765738401
  0
LINE
  5
41C
100
AcDbEntity
  8
DRAFT
100
AcDbLine
 62
250
  6
CONTINUOUS
 10
284.3955268696
 20
155.9765738401
 11
284.3736547037
 21
155.9765738401
  0
LINE
  5
41D
100
AcDbEntity
  8
DRAFT
100
AcDbLine
 62
250
  6
CONTINUOUS
 10
282.9604508696
 20
155.9765738401
 11
282.9385787037
 21
155.9765738401
  0
LINE
  5
41E
100
AcDbEntity
  8
DRAFT
100
AcDbLine
 62
250
  6
CONTINUOUS
 10
281.8095648696
 20
155.9765738401
 11
281.7876927037
 21
155.9765738401
  0
LINE
  5
41F
100
AcDbEntity
  8
DRAFT
100
AcDbLine
 62
250
  6
CONTINUOUS
 10
281.0837808696
 20
155.9765738401
 11
281.0619087037
 21
155.9765738401
  0
LINE
  5
420
100
AcDbEntity
  8
DRAFT
100
AcDbLine
 62
250
  6
CONTINUOUS
 10
279.7390598696
 20
155.9765738401
 11
279.7171877037
 21
155.9765738401
  0
LINE
  5
421
100
AcDbEntity
  8
DRAFT
100
AcDbLine
 62
250
  6
CONTINUOUS
 10
273.7792368696
 20
155.9765738401
 11
273.7573647037
 21
155.9765738401
  0
LINE
  5
422
100
AcDbEntity
  8
DRAFT
100
AcDbLine
 62
250
  6
CONTINUOUS
 10
272.3004518696
 20
155.9765738401
 11
272.2785797037
 21
155.9765738401
  0
LINE
  5
423
100
AcDbEntity
  8
DRAFT
100
AcDbLine
 62
250
  6
CONTINUOUS
 10
271.7440398696
 20
155.9765738401
 11
271.7659120355
 21
155.9765738401
  0
LINE
  5
424
100
AcDbEntity
  8
DRAFT
100
AcDbLine
 62
250
  6
CONTINUOUS
 10
273.2228248696
 20
155.9765738401
 11
273.2446970355
 21
155.9765738401
  0
LINE
  5
425
100
AcDbEntity
  8
DRAFT
100
AcDbLine
 62
250
  6
CONTINUOUS
 10
276.0858268696
 20
155.9765738401
 11
276.1076990355
 21
155.9765738401
  0
LINE
  5
426
100
AcDbEntity
  8
DRAFT
100
AcDbLine
 62
250
  6
CONTINUOUS
 10
278.0939708696
 20
155.9765738401
 11
278.1158430355
 21
155.9765738401
  0
LINE
  5
427
100
AcDbEntity
  8
DRAFT
100
AcDbLine
 62
250
  6
CONTINUOUS
 10
280.5001518696
 20
155.9765738401
 11
280.5220240355
 21
155.9765738401
  0
LINE
  5
428
100
AcDbEntity
  8
DRAFT
100
AcDbLine
 62
250
  6
CONTINUOUS
 10
281.2531528696
 20
155.9765738401
 11
281.2750250355
 21
155.9765738401
  0
LINE
  5
429
100
AcDbEntity
  8
DRAFT
100
AcDbLine
 62
250
  6
CONTINUOUS
 10
283.8118978696
 20
155.9765738401
 11
283.8337700355
 21
155.9765738401
  0
LINE
  5
42A
100
AcDbEntity
  8
DRAFT
100
AcDbLine
 62
250
  6
CONTINUOUS
 10
285.0687048696
 20
155.9765738401
 11
285.0905770355
 21
155.9765738401
  0
LINE
  5
42B
100
AcDbEntity
  8
DRAFT
100
AcDbLine
 62
250
  6
CONTINUOUS
 10
288.3995788696
 20
155.9765738401
 11
288.4214510355
 21
155.9765738401
  0
LINE
  5
42C
100
AcDbEntity
  8
DRAFT
100
AcDbLine
 62
250
  6
CONTINUOUS
 10
290.2995368696
 20
155.9765738401
 11
290.3214090355
 21
155.9765738401
  0
LINE
  5
42D
100
AcDbEntity
  8
DRAFT
100
AcDbLine
 62
250
  6
CONTINUOUS
 10
289.9370948696
 20
155.9966968401
 11
289.9152227037
 21
155.9966968401
  0
LINE
  5
42E
100
AcDbEntity
  8
DRAFT
100
AcDbLine
 62
250
  6
CONTINUOUS
 10
279.7390598696
 20
155.9966968401
 11
279.7171877037
 21
155.9966968401
  0
LINE
  5
42F
100
AcDbEntity
  8
INTF_1
100
AcDbLine
 62
7
  6
CONTINUOUS
 10
275.2117288696
 20
156.1581558401
 11
274.5910028696
 21
156.1581558401
  0
LINE
  5
430
100
AcDbEntity
  8
DRAFT
100
AcDbLine
 62
7
  6
CONTINUOUS
 10
274.5910028696
 20
156.1581558401
 11
275.2117288696
 21
156.1581558401
  0
LINE
  5
431
100
AcDbEntity
  8
DRAFT
100
AcDbLine
 62
7
  6
CONTINUOUS
 10
286.8030908696
 20
156.1581558401
 11
287.4238168696
 21
156.1581558401
  0
LINE
  5
432
100
AcDbEntity
  8
INTF_1
100
AcDbLine
 62
7
  6
CONTINUOUS
 10
286.8030908696
 20
156.1581558401
 11
287.4238168696
 21
156.1581558401
  0
LINE
  5
433
100
AcDbEntity
  8
DRAFT
100
AcDbLine
 62
7
  6
CONTINUOUS
 10
274.5756790853
 20
156.180028006
 11
275.226753882
 21
156.180028006
  0
LINE
  5
434
100
AcDbEntity
  8
DRAFT
100
AcDbLine
 62
7
  6
CONTINUOUS
 10
286.7877670853
 20
156.180028006
 11
287.4388419139
 21
156.180028006
  0
LWPOLYLINE
  5
435
100
AcDbEntity
  8
INTF_1
100
AcDbPolyline
 62
7
  6
CONTINUOUS
 90
19
 70
0
 10
277.0355836267
 20
157.2891597184
 10
277.0290572107
 20
157.2904694042
 10
277.0224975587
 20
157.2916004476
 10
277.0159109322
 20
157.2925824795
 10
277.0093035929
 20
157.2934451308
 10
277.0026818024
 20
157.2942180322
 10
276.9960518224
 20
157.2949308146
 10
276.9779437089
 20
157.2967098088
 10
276.9598225475
 20
157.2982748391
 10
276.9416896521
 20
157.2996390618
 10
276.923546337
 20
157.3008156333
 10
276.9053939162
 20
157.3018177099
 10
276.8872337038
 20
157.3026584479
 10
276.869067014
 20
157.3033510037
 10
276.8508951609
 20
157.3039085337
 10
276.8327194586
 20
157.3043441943
 10
276.8145412212
 20
157.3046711417
 10
276.7963617628
 20
157.3049025323
 10
276.7600044398
 20
157.3051312686
  0
LWPOLYLINE
  5
436
100
AcDbEntity
  8
DRAFT
100
AcDbPolyline
 62
7
  6
CONTINUOUS
 90
10
 70
0
 10
277.0402116162
 20
157.3105366535
 10
277.0594368442
 20
157.3057671799
 10
277.0777829583
 20
157.300216847
 10
277.0952499585
 20
157.2938856546
 10
277.1118715229
 20
157.2867260872
 10
277.1276139734
 20
157.2787856604
 10
277.1423762763
 20
157.2702069212
 10
277.1561247537
 20
157.2610373854
 10
277.1688930834
 20
157.2512295373
 10
277.1806812656
 20
157.2407833769
  0
LINE
  5
437
100
AcDbEntity
  8
DRAFT
100
AcDbLine
 62
250
  6
CONTINUOUS
 10
273.0712179001
 20
155.9154459675
 11
273.050009631
 21
155.9207939544
  0
LINE
  5
438
100
AcDbEntity
  8
DRAFT
100
AcDbLine
 62
250
  6
CONTINUOUS
 10
272.9776667928
 20
157.640161547
 11
272.9988196277
 21
157.634598345
  0
LINE
  5
439
100
AcDbEntity
  8
DRAFT
100
AcDbLine
 62
250
  6
CONTINUOUS
 10
277.2456958131
 20
156.4498059271
 11
277.266766531
 21
156.4439009031
  0
LINE
  5
43A
100
AcDbEntity
  8
DRAFT
100
AcDbLine
 62
250
  6
CONTINUOUS
 10
277.8147418992
 20
156.3212402431
 11
277.7940704181
 21
156.3283873766
  0
LINE
  5
43B
100
AcDbEntity
  8
DRAFT
100
AcDbLine
 62
250
  6
CONTINUOUS
 10
274.4939987858
 20
155.8911946096
 11
274.4734416701
 21
155.8986643241
  0
LINE
  5
43C
100
AcDbEntity
  8
DRAFT
100
AcDbLine
 62
250
  6
CONTINUOUS
 10
273.9435167582
 20
156.0670655844
 11
273.9639017649
 21
156.0591382091
  0
LINE
  5
43D
100
AcDbEntity
  8
DRAFT
100
AcDbLine
 62
250
  6
CONTINUOUS
 10
274.5668030005
 20
157.6673081715
 11
274.5871837866
 21
157.6593699603
  0
LINE
  5
43E
100
AcDbEntity
  8
DRAFT
100
AcDbLine
 62
7
  6
CONTINUOUS
 10
278.6775998696
 20
157.3051548401
 11
278.6557277037
 21
157.327027006
  0
LINE
  5
43F
100
AcDbEntity
  8
DRAFT
100
AcDbLine
 62
250
  6
CONTINUOUS
 10
280.7766848189
 20
161.383756183
 11
280.7899525993
 21
161.3663675817
  0
LINE
  5
440
100
AcDbEntity
  8
DRAFT
100
AcDbLine
 62
7
  6
CONTINUOUS
 10
281.8095648696
 20
156.7136578401
 11
282.3464989072
 21
155.8451157792
  0
LINE
  5
441
100
AcDbEntity
  8
INTF_1
100
AcDbLine
 62
7
  6
CONTINUOUS
 10
282.3464988696
 20
155.8451158401
 11
281.8095648696
 21
156.7136578401
  0
LINE
  5
442
100
AcDbEntity
  8
DRAFT
100
AcDbLine
 62
7
  6
CONTINUOUS
 10
281.7876927037
 20
156.7906333293
 11
282.3651030887
 21
155.8566169127
  0
LINE
  5
443
100
AcDbEntity
  8
DRAFT
100
AcDbLine
 62
7
  6
CONTINUOUS
 10
282.4259110355
 20
156.7347405224
 11
281.8369182699
 21
157.6957798695
  0
LINE
  5
444
100
AcDbEntity
  8
INTF_1
100
AcDbLine
 62
7
  6
CONTINUOUS
 10
281.8555668696
 20
157.7072088401
 11
282.4040388696
 21
156.8122858401
  0
LINE
  5
445
100
AcDbEntity
  8
DRAFT
100
AcDbLine
 62
7
  6
CONTINUOUS
 10
282.4040388696
 20
156.8122858401
 11
281.8555667769
 21
157.7072089913
  0
LINE
  5
446
100
AcDbEntity
  8
DRAFT
100
AcDbLine
 62
7
  6
CONTINUOUS
 10
280.5028982885
 20
161.2127246331
 11
280.5126573738
 21
161.193150354
  0
LINE
  5
447
100
AcDbEntity
  8
DRAFT
100
AcDbLine
 62
250
  6
CONTINUOUS
 10
280.6984717249
 20
160.6783134222
 11
280.6889702792
 21
160.6980140356
  0
LINE
  5
448
100
AcDbEntity
  8
DRAFT
100
AcDbLine
 62
250
  6
CONTINUOUS
 10
282.8585450786
 20
160.3792288437
 11
282.8491734175
 21
160.398991526
  0
LINE
  5
449
100
AcDbEntity
  8
DRAFT
100
AcDbLine
 62
7
  6
CONTINUOUS
 10
288.0658732852
 20
156.061372972
 11
287.4252188451
 21
157.6613727958
  0
LINE
  5
44A
100
AcDbEntity
  8
INTF_1
100
AcDbLine
 62
7
  6
CONTINUOUS
 10
287.4455238696
 20
157.6695028401
 11
288.0861778696
 21
156.0695028401
  0
LINE
  5
44B
100
AcDbEntity
  8
DRAFT
100
AcDbLine
 62
7
  6
CONTINUOUS
 10
288.0861782182
 20
156.0695032448
 11
287.4455237781
 21
157.6695030686
  0
LINE
  5
44C
100
AcDbEntity
  8
DRAFT
100
AcDbLine
 62
7
  6
CONTINUOUS
 10
287.4238168696
 20
156.1581558401
 11
287.528092092
 21
155.8868762615
  0
LINE
  5
44D
100
AcDbEntity
  8
INTF_1
100
AcDbLine
 62
7
  6
CONTINUOUS
 10
287.5280918696
 20
155.8868768401
 11
287.4238168696
 21
156.1581558401
  0
LINE
  5
44E
100
AcDbEntity
  8
DRAFT
100
AcDbLine
 62
7
  6
CONTINUOUS
 10
287.4388419139
 20
156.180028006
 11
287.548507972
 21
155.894723776
  0
LINE
  5
44F
100
AcDbEntity
  8
DRAFT
100
AcDbLine
 62
7
  6
CONTINUOUS
 10
287.1085248696
 20
156.9935258401
 11
287.2255838696
 21
156.6782788401
  0
LINE
  5
450
100
AcDbEntity
  8
INTF_1
100
AcDbLine
 62
7
  6
CONTINUOUS
 10
287.2255838696
 20
156.6782788401
 11
287.1085248696
 21
156.9935258401
  0
LINE
  5
451
100
AcDbEntity
  8
DRAFT
100
AcDbLine
 62
7
  6
CONTINUOUS
 10
287.1083194913
 20
157.0569117582
 11
287.2570369244
 21
156.6564066742
  0
LWPOLYLINE
  5
452
100
AcDbEntity
  8
DRAFT
100
AcDbPolyline
 62
7
  6
CONTINUOUS
 90
13
 70
0
 10
287.2481016845
 20
161.0885717237
 10
287.2420234131
 20
161.1095055098
 10
287.2356185304
 20
161.1297246181
 10
287.2288870364
 20
161.1492290486
 10
287.2218881121
 20
161.1680721014
 10
287.2145625765
 20
161.1862004765
 10
287.2067328862
 20
161.2034542737
 10
287.198392302
 20
161.2198767001
 10
287.1895475632
 20
161.2354245486
 10
287.1800413448
 20
161.2498082974
 10
287.1698212049
 20
161.2629314392
 10
287.1589395854
 20
161.2748904812
 10
287.1473964862
 20
161.2856854235
  0
LWPOLYLINE
  5
453
100
AcDbEntity
  8
DRAFT
100
AcDbPolyline
 62
7
  6
CONTINUOUS
 90
13
 70
0
 10
286.7783428159
 20
159.9440969253
 10
286.7846568878
 20
159.9212884091
 10
286.7913413546
 20
159.8992766928
 10
286.7983962165
 20
159.8780617763
 10
286.8057437304
 20
159.8575937266
 10
286.8134616393
 20
159.8379224768
 10
286.8217831722
 20
159.8191978259
 10
286.8307406424
 20
159.8013067083
 10
286.8403017365
 20
159.7843621896
 10
286.8506027434
 20
159.7688532664
 10
286.8616890927
 20
159.7549429376
 10
286.8735153547
 20
159.7424682043
 10
286.8860815296
 20
159.7314290666
  0
LWPOLYLINE
  5
454
100
AcDbEntity
  8
DRAFT
100
AcDbPolyline
 62
7
  6
CONTINUOUS
 90
6
 70
0
 10
287.2689647675
 20
161.0951803431
 10
287.2818660099
 20
161.0386841423
 10
287.2923856718
 20
160.9799408782
 10
287.3005237534
 20
160.918950551
 10
287.3057417144
 20
160.8555972811
 10
287.308578095
 20
160.789996948
  0
LWPOLYLINE
  5
455
100
AcDbEntity
  8
DRAFT
100
AcDbPolyline
 62
7
  6
CONTINUOUS
 90
6
 70
0
 10
286.7570437099
 20
159.9390943112
 10
286.745481742
 20
159.9945819787
 10
286.7361222814
 20
160.0521389791
 10
286.7289653281
 20
160.1117653124
 10
286.724540533
 20
160.1735638151
 10
286.7223182451
 20
160.2374316507
  0
LINE
  5
456
100
AcDbEntity
  8
DRAFT
100
AcDbLine
 62
7
  6
CONTINUOUS
 10
285.0718018971
 20
160.8924178381
 11
285.0761025493
 21
160.8709721741
  0
LINE
  5
457
100
AcDbEntity
  8
RACCORDO
100
AcDbLine
 62
7
  6
CONTINUOUS
 10
294.2672388696
 20
154.6254322495
 11
294.2672388696
 21
163.0277154307
  0
LINE
  5
458
100
AcDbEntity
  8
RACCORDO
100
AcDbLine
 62
7
  6
CONTINUOUS
 10
294.2891110355
 20
154.6035600836
 11
294.2891110355
 21
163.0495875965
  0
LINE
  5
459
100
AcDbEntity
  8
DRAFT
100
AcDbLine
 62
250
  6
CONTINUOUS
 10
272.544469824
 20
157.6408390116
 11
272.5233326657
 21
157.6352165406
  0
LWPOLYLINE
  5
45A
100
AcDbEntity
  8
INTF_1
100
AcDbPolyline
 62
7
  6
CONTINUOUS
 90
30
 70
0
 10
277.0629520488
 20
156.2611373613
 10
277.0671760077
 20
156.2622590933
 10
277.0713961666
 20
156.2634374533
 10
277.0756103395
 20
156.2646728675
 10
277.0798163406
 20
156.2659657623
 10
277.0840119838
 20
156.2673165641
 10
277.0881950834
 20
156.2687256992
 10
277.0923634533
 20
156.270193594
 10
277.0965149077
 20
156.2717206748
 10
277.1006472607
 20
156.2733073679
 10
277.1047583263
 20
156.2749540997
 10
277.1088459187
 20
156.2766612966
 10
277.1129078518
 20
156.2784293849
 10
277.1169419399
 20
156.2802587909
 10
277.120945997
 20
156.282149941
 10
277.1249178371
 20
156.2841032616
 10
277.1288552744
 20
156.2861191789
 10
277.132756123
 20
156.2881981195
 10
277.1366181968
 20
156.2903405095
 10
277.1404393102
 20
156.2925467753
 10
277.144217277
 20
156.2948173434
 10
277.1479499114
 20
156.2971526399
 10
277.1516350275
 20
156.2995530914
 10
277.1552704394
 20
156.3020191241
 10
277.1588539612
 20
156.3045511644
 10
277.1623834068
 20
156.3071496386
 10
277.1658565906
 20
156.3098149731
 10
277.1692713264
 20
156.3125475943
 10
277.1726254284
 20
156.3153479284
 10
277.1759167108
 20
156.3182164018
  0
LINE
  5
45B
100
AcDbEntity
  8
DRAFT
100
AcDbLine
 62
250
  6
CONTINUOUS
 10
272.4508116838
 20
155.9156435793
 11
272.4720243019
 21
155.9209742896
  0
LINE
  5
45C
100
AcDbEntity
  8
DRAFT
100
AcDbLine
 62
7
  6
CONTINUOUS
 10
286.7783428159
 20
159.9440969253
 11
286.7570437099
 21
159.9390943112
  0
LWPOLYLINE
  5
45D
100
AcDbEntity
  8
DRAFT
100
AcDbPolyline
 62
7
  6
CONTINUOUS
 90
28
 70
0
 10
285.0718018971
 20
160.8924178381
 10
285.0854573725
 20
160.8955817245
 10
285.0986828444
 20
160.9005195166
 10
285.1114783126
 20
160.9072312145
 10
285.1241718615
 20
160.915872339
 10
285.1364354068
 20
160.9262873692
 10
285.1472846956
 20
160.9380097421
 10
285.1564551709
 20
160.9510527166
 10
285.1642113898
 20
160.9654030339
 10
285.1703627705
 20
160.9805543547
 10
285.1747437373
 20
160.9966079858
 10
285.1775198659
 20
161.0134626204
 10
285.1789973018
 20
161.0303079992
 10
285.1794330278
 20
161.047012257
 10
285.178570061
 20
161.063707259
 10
285.1759435985
 20
161.0799783418
 10
285.1713907622
 20
161.096012784
 10
285.16507443
 20
161.1116233069
 10
285.1570184328
 20
161.1258334114
 10
285.1470283613
 20
161.1383958329
 10
285.1352986247
 20
161.149557836
 10
285.1224362811
 20
161.1590847154
 10
285.1084233186
 20
161.166859199
 10
285.093277749
 20
161.1729985589
 10
285.0776606661
 20
161.177619906
 10
285.0617924342
 20
161.1807622771
 10
285.0454526889
 20
161.1823866353
 10
285.0286414302
 20
161.1824929807
  0
LWPOLYLINE
  5
45E
100
AcDbEntity
  8
DRAFT
100
AcDbPolyline
 62
7
  6
CONTINUOUS
 90
6
 70
0
 10
277.0684324757
 20
156.2399629295
 10
277.0472391706
 20
156.235538513
 10
277.0254136475
 20
156.2319599179
 10
277.0029559064
 20
156.2292271442
 10
276.9798308249
 20
156.2275538297
 10
276.9560735255
 20
156.2267263365
  0
LWPOLYLINE
  5
45F
100
AcDbEntity
  8
DRAFT
100
AcDbPolyline
 62
7
  6
CONTINUOUS
 90
10
 70
0
 10
285.0761025493
 20
160.8709721741
 10
285.0724283319
 20
160.8702919442
 10
285.0687085608
 20
160.86968777
 10
285.0649432362
 20
160.8691596516
 10
285.061130778
 20
160.8687077783
 10
285.0572727662
 20
160.8683319608
 10
285.0533739404
 20
160.8680316309
 10
285.0494358806
 20
160.8678065992
 10
285.0454570068
 20
160.8676570552
 10
285.041437319
 20
160.8675829988
  0
LWPOLYLINE
  5
460
100
AcDbEntity
  8
DRAFT
100
AcDbPolyline
 62
7
  6
CONTINUOUS
 90
10
 70
0
 10
277.2294676212
 20
157.1301655108
 10
277.2319295818
 20
157.1306146774
 10
277.2343836806
 20
157.1310793955
 10
277.2368298406
 20
157.1315601082
 10
277.2392673006
 20
157.1320588438
 10
277.2416966589
 20
157.1325744659
 10
277.2441198903
 20
157.1331025765
 10
277.2465376141
 20
157.1336418955
 10
277.2489490773
 20
157.1341943587
 10
277.2513542099
 20
157.1347602998
  0
LINE
  5
461
100
AcDbEntity
  8
DRAFT
100
AcDbLine
 62
7
  6
CONTINUOUS
 10
285.5493473003
 20
160.5867106275
 11
285.5344452527
 21
160.5848546516
  0
LWPOLYLINE
  5
462
100
AcDbEntity
  8
DRAFT
100
AcDbPolyline
 62
7
  6
CONTINUOUS
 90
3
 70
0
 10
285.5678613868
 20
160.5889117053
 10
285.5641683705
 20
160.5884813565
 10
285.5493473003
 20
160.5867106275
  0
LINE
  5
463
100
AcDbEntity
  8
DRAFT
100
AcDbLine
 62
7
  6
CONTINUOUS
 10
282.5950560493
 20
159.9861796501
 11
282.4221889856
 21
159.9682759557
  0
LINE
  5
464
100
AcDbEntity
  8
DRAFT
100
AcDbLine
 62
7
  6
CONTINUOUS
 10
282.5928027942
 20
160.007935442
 11
282.4199357305
 21
159.9900317476
  0
LWPOLYLINE
  5
465
100
AcDbEntity
  8
DRAFT
100
AcDbPolyline
 62
7
  6
CONTINUOUS
 90
34
 70
0
 10
285.0467273198
 20
160.219882106
 10
285.0136028843
 20
160.2183443981
 10
284.9826207418
 20
160.2143093697
 10
284.9537808921
 20
160.2077770207
 10
284.9270851521
 20
160.1983831543
 10
284.9025317051
 20
160.1864919673
 10
284.8801151007
 20
160.1731960506
 10
284.8598032668
 20
160.1586986782
 10
284.8416282755
 20
160.1427965759
 10
284.8256808936
 20
160.1259725121
 10
284.8119213112
 20
160.1082312151
 10
284.8003893381
 20
160.0895679564
 10
284.7912951701
 20
160.0704513194
 10
284.7848734996
 20
160.0509044676
 10
284.7808896341
 20
160.0309042373
 10
284.7788496918
 20
160.0108497208
 10
284.7785948515
 20
159.9906994151
 10
284.7802839344
 20
159.9704948232
 10
284.7838995213
 20
159.9507595452
 10
284.7894162137
 20
159.9315915
 10
284.79685941
 20
159.9128927687
 10
284.8062878865
 20
159.8948931959
 10
284.8178395563
 20
159.8774862772
 10
284.8313765062
 20
159.8607785169
 10
284.846543773
 20
159.8453192721
 10
284.8632493106
 20
159.8311161042
 10
284.8815851651
 20
159.8181614519
 10
284.9014725115
 20
159.8069819878
 10
284.9230113141
 20
159.7977506693
 10
284.9461016086
 20
159.790294539
 10
284.9703646776
 20
159.7846213972
 10
284.9956742819
 20
159.7807338438
 10
285.0221566606
 20
159.7786292789
 10
285.0498118138
 20
159.7783077025
  0
LWPOLYLINE
  5
466
100
AcDbEntity
  8
DRAFT
100
AcDbPolyline
 62
7
  6
CONTINUOUS
 90
10
 70
0
 10
287.0159283333
 20
159.6889643597
 10
287.0319042179
 20
159.6896680954
 10
287.0477442744
 20
159.6915482802
 10
287.063448503
 20
159.694604914
 10
287.079258404
 20
159.6989383133
 10
287.0949324769
 20
159.7044481615
 10
287.1097462209
 20
159.7108335095
 10
287.1234581354
 20
159.7179940408
 10
287.1363097209
 20
159.7260300717
 10
287.1483009775
 20
159.7349416023
  0
LWPOLYLINE
  5
467
100
AcDbEntity
  8
INTF_1
100
AcDbPolyline
 62
7
  6
CONTINUOUS
 90
16
 70
0
 10
276.9617422683
 20
156.2488089611
 10
276.9685770799
 20
156.2490714919
 10
276.9754080039
 20
156.2493789078
 10
276.982233053
 20
156.2497392911
 10
276.98905024
 20
156.2501607244
 10
276.9958575776
 20
156.25065129
 10
277.0026530787
 20
156.2512190704
 10
277.0094347559
 20
156.2518721481
 10
277.0162006221
 20
156.2526186054
 10
277.02294869
 20
156.2534665248
 10
277.0296769724
 20
156.2544239887
 10
277.0363834821
 20
156.2554990795
 10
277.0430662318
 20
156.2566998798
 10
277.0497232343
 20
156.2580344719
 10
277.0563525024
 20
156.2595109383
 10
277.0629520488
 20
156.2611373613
  0
LWPOLYLINE
  5
468
100
AcDbEntity
  8
DRAFT
100
AcDbPolyline
 62
7
  6
CONTINUOUS
 90
6
 70
0
 10
276.9539917958
 20
156.2485552624
 10
276.9771142023
 20
156.249354603
 10
276.9995800208
 20
156.2509520949
 10
277.0213606182
 20
156.2535490325
 10
277.0424846276
 20
156.2569441213
 10
277.0629520492
 20
156.2611373614
  0
LINE
  5
469
100
AcDbEntity
  8
INTF_1
100
AcDbLine
 62
7
  6
CONTINUOUS
 10
276.9480689311
 20
156.248386225
 11
276.9617422683
 21
156.2488089611
  0
LWPOLYLINE
  5
46A
100
AcDbEntity
  8
DRAFT
100
AcDbPolyline
 62
7
  6
CONTINUOUS
 90
4
 70
0
 10
276.9560735255
 20
156.2267263365
 10
276.9070134972
 20
156.2254724366
 10
276.8817107685
 20
156.2250460299
 10
276.8558811891
 20
156.2248245312
  0
LWPOLYLINE
  5
46B
100
AcDbEntity
  8
DRAFT
100
AcDbPolyline
 62
7
  6
CONTINUOUS
 90
13
 70
0
 10
287.0159283329
 20
159.2856460856
 10
287.0711167484
 20
159.2869992628
 10
287.1249394278
 20
159.2919328135
 10
287.1773963711
 20
159.3004467377
 10
287.2287833301
 20
159.3125120663
 10
287.278804553
 20
159.3281577685
 10
287.3265727839
 20
159.3474707518
 10
287.3719777974
 20
159.3708146081
 10
287.4151298189
 20
159.3978257456
 10
287.4554722687
 20
159.4275002961
 10
287.4928196202
 20
159.4595036368
 10
287.5273573999
 20
159.4941703906
 10
287.5590856078
 20
159.5315005573
  0
LWPOLYLINE
  5
46C
100
AcDbEntity
  8
DRAFT
100
AcDbPolyline
 62
7
  6
CONTINUOUS
 90
10
 70
0
 10
285.0498118138
 20
159.7783077025
 10
285.0699891039
 20
159.7787941407
 10
285.0894730971
 20
159.7802534476
 10
285.1082637936
 20
159.7826856232
 10
285.1263668488
 20
159.786105855
 10
285.1437766073
 20
159.7904989554
 10
285.1604761024
 20
159.7958193626
 10
285.1764596786
 20
159.802051889
 10
285.1917329915
 20
159.8092117221
 10
285.2062960409
 20
159.8172988619
  0
LWPOLYLINE
  5
46D
100
AcDbEntity
  8
DRAFT
100
AcDbPolyline
 62
7
  6
CONTINUOUS
 90
25
 70
0
 10
282.9778795126
 20
159.2637739196
 10
283.0129429639
 20
159.2643229883
 10
283.0477670318
 20
159.2661029693
 10
283.0823517162
 20
159.2691138624
 10
283.1167445631
 20
159.2733244702
 10
283.1508980266
 20
159.2787659902
 10
283.1846694688
 20
159.2855320154
 10
283.2180921138
 20
159.293625736
 10
283.2511327375
 20
159.3030439618
 10
283.2835490295
 20
159.3138707156
 10
283.315328725
 20
159.3261464616
 10
283.3464840889
 20
159.3398307357
 10
283.3768096052
 20
159.3548861677
 10
283.4062559578
 20
159.3713695464
 10
283.4348724628
 20
159.3892240831
 10
283.4626015528
 20
159.4082420422
 10
283.4894368878
 20
159.4284133943
 10
283.5153848077
 20
159.4497481687
 10
283.5404067648
 20
159.4720687175
 10
283.5645024992
 20
159.4953491029
 10
283.5876722708
 20
159.5196152626
 10
283.6098783119
 20
159.5447673617
 10
283.631108033
 20
159.5707721221
 10
283.6513740235
 20
159.597662822
 10
283.6706762834
 20
159.6254394613
  0
LWPOLYLINE
  5
46E
100
AcDbEntity
  8
DRAFT
100
AcDbPolyline
 62
7
  6
CONTINUOUS
 90
25
 70
0
 10
282.9778795126
 20
159.2856460855
 10
283.0120632341
 20
159.286172363
 10
283.0460142523
 20
159.28789587
 10
283.0797325673
 20
159.2908166064
 10
283.1132646762
 20
159.2949023768
 10
283.1465640819
 20
159.3001853766
 10
283.1794912926
 20
159.3067621923
 10
283.2120791674
 20
159.3146370112
 10
283.2442948471
 20
159.323805646
 10
283.275900263
 20
159.3343521209
 10
283.3068832999
 20
159.3463166831
 10
283.3372560729
 20
159.3596590853
 10
283.3668168586
 20
159.3743426098
 10
283.3955174851
 20
159.390422747
 10
283.4234061243
 20
159.4078440065
 10
283.4504255682
 20
159.4264031988
 10
283.4765690701
 20
159.44609124
 10
283.5018433769
 20
159.466917214
 10
283.5262115209
 20
159.4887051834
 10
283.5496721252
 20
159.5114300339
 10
283.5722265669
 20
159.5351168799
 10
283.5938420093
 20
159.5596651262
 10
283.614507507
 20
159.5850412413
 10
283.6342340054
 20
159.6112787568
 10
283.6530215046
 20
159.6383776728
  0
LWPOLYLINE
  5
46F
100
AcDbEntity
  8
DRAFT
100
AcDbPolyline
 62
7
  6
CONTINUOUS
 90
22
 70
0
 10
287.0159283329
 20
159.2637739197
 10
287.0455754247
 20
159.2641824645
 10
287.0750246205
 20
159.2655658103
 10
287.1042759202
 20
159.2679239573
 10
287.1333299446
 20
159.2712127932
 10
287.1621860729
 20
159.2754764302
 10
287.1908424427
 20
159.2808472052
 10
287.2193399436
 20
159.287312589
 10
287.2476376858
 20
159.2948851109
 10
287.2756111384
 20
159.3037346952
 10
287.3032419467
 20
159.3138676893
 10
287.3305484654
 20
159.3252777457
 10
287.3574612272
 20
159.3381157468
 10
287.3839991544
 20
159.3524327716
 10
287.4101433248
 20
159.3681777411
 10
287.4357675053
 20
159.3853482999
 10
287.4609090729
 20
159.403959567
 10
287.4855306506
 20
159.4239964234
 10
287.5093938747
 20
159.4454111572
 10
287.5324192906
 20
159.4681878645
 10
287.554686353
 20
159.4923424491
 10
287.5761950617
 20
159.5178749112
  0
LWPOLYLINE
  5
470
100
AcDbEntity
  8
DRAFT
100
AcDbPolyline
 62
7
  6
CONTINUOUS
 90
4
 70
0
 10
276.8558811891
 20
156.2466966971
 10
276.8812577146
 20
156.2469202599
 10
276.906063552
 20
156.2473380908
 10
276.9539917958
 20
156.2485552624
  0
LINE
  5
471
100
AcDbEntity
  8
DRAFT
100
AcDbLine
 62
250
  6
CONTINUOUS
 10
277.2819377508
 20
156.7558983902
 11
277.3038136353
 21
156.7560794287
  0
LWPOLYLINE
  5
472
100
AcDbEntity
  8
INTF_1
100
AcDbPolyline
 62
7
  6
CONTINUOUS
 90
5
 70
0
 10
276.8558811891
 20
156.2466965541
 10
276.8702151165
 20
156.2467664124
 10
276.884540949
 20
156.2469537347
 10
276.8988696437
 20
156.2472251422
 10
276.9480689311
 20
156.248386225
  0
LINE
  5
473
100
AcDbEntity
  8
DRAFT
100
AcDbLine
 62
250
  6
CONTINUOUS
 10
287.2920072908
 20
160.5089081338
 11
287.3138794671
 21
160.5089490054
  0
LINE
  5
474
100
AcDbEntity
  8
DRAFT
100
AcDbLine
 62
250
  6
CONTINUOUS
 10
283.164652175
 20
160.12578279
 11
283.1865245086
 21
160.1257983988
  0
LINE
  5
475
100
AcDbEntity
  8
DRAFT
100
AcDbLine
 62
7
  6
CONTINUOUS
 10
276.8558811891
 20
156.2248245312
 11
276.6475837037
 21
156.2248246742
  0
LINE
  5
476
100
AcDbEntity
  8
DRAFT
100
AcDbLine
 62
7
  6
CONTINUOUS
 10
289.6870948696
 20
156.2248246742
 11
288.9613337037
 21
156.2248246742
  0
LINE
  5
477
100
AcDbEntity
  8
DRAFT
100
AcDbLine
 62
7
  6
CONTINUOUS
 10
279.4890598696
 20
156.2248246742
 11
278.6557277037
 21
156.2248246742
  0
LINE
  5
478
100
AcDbEntity
  8
DRAFT
100
AcDbLine
 62
7
  6
CONTINUOUS
 10
276.8558811891
 20
156.2466966971
 11
276.6694558696
 21
156.2466968401
  0
LINE
  5
479
100
AcDbEntity
  8
DRAFT
100
AcDbLine
 62
7
  6
CONTINUOUS
 10
289.6870948696
 20
156.2466968401
 11
288.9832058696
 21
156.2466968401
  0
LINE
  5
47A
100
AcDbEntity
  8
INTF_1
100
AcDbLine
 62
7
  6
CONTINUOUS
 10
289.6870948696
 20
156.2466968401
 11
288.9832058696
 21
156.2466968401
  0
LINE
  5
47B
100
AcDbEntity
  8
DRAFT
100
AcDbLine
 62
7
  6
CONTINUOUS
 10
279.4890598696
 20
156.2466968401
 11
278.6775998696
 21
156.2466968401
  0
LINE
  5
47C
100
AcDbEntity
  8
INTF_1
100
AcDbLine
 62
7
  6
CONTINUOUS
 10
279.4890598696
 20
156.2466968401
 11
278.6775998696
 21
156.2466968401
  0
LINE
  5
47D
100
AcDbEntity
  8
INTF_1
100
AcDbLine
 62
7
  6
CONTINUOUS
 10
276.8558808696
 20
156.2466968401
 11
276.6694558696
 21
156.2466968401
  0
LINE
  5
47E
100
AcDbEntity
  8
DRAFT
100
AcDbLine
 62
7
  6
CONTINUOUS
 10
278.6775998696
 20
156.5638178401
 11
279.3814878696
 21
156.5638178401
  0
LINE
  5
47F
100
AcDbEntity
  8
INTF_1
100
AcDbLine
 62
7
  6
CONTINUOUS
 10
278.6775998696
 20
156.5638178401
 11
279.3814878696
 21
156.5638178401
  0
LINE
  5
480
100
AcDbEntity
  8
DRAFT
100
AcDbLine
 62
7
  6
CONTINUOUS
 10
278.6557277037
 20
156.585690006
 11
279.3814878696
 21
156.585690006
  0
LINE
  5
481
100
AcDbEntity
  8
DRAFT
100
AcDbLine
 62
7
  6
CONTINUOUS
 10
287.2570369244
 20
156.6564066742
 11
286.9625482283
 21
156.6564066742
  0
LINE
  5
482
100
AcDbEntity
  8
DRAFT
100
AcDbLine
 62
7
  6
CONTINUOUS
 10
275.0449488656
 20
156.6564066742
 11
274.7504611944
 21
156.6564066742
  0
LINE
  5
483
100
AcDbEntity
  8
DRAFT
100
AcDbLine
 62
7
  6
CONTINUOUS
 10
287.2255838696
 20
156.6782788401
 11
286.9937848696
 21
156.6782788401
  0
LINE
  5
484
100
AcDbEntity
  8
INTF_1
100
AcDbLine
 62
7
  6
CONTINUOUS
 10
287.2255838696
 20
156.6782788401
 11
286.9937848696
 21
156.6782788401
  0
LINE
  5
485
100
AcDbEntity
  8
DRAFT
100
AcDbLine
 62
7
  6
CONTINUOUS
 10
275.0134958696
 20
156.6782788401
 11
274.7816978696
 21
156.6782788401
  0
LINE
  5
486
100
AcDbEntity
  8
INTF_1
100
AcDbLine
 62
7
  6
CONTINUOUS
 10
275.0134958696
 20
156.6782788401
 11
274.7816978696
 21
156.6782788401
  0
LINE
  5
487
100
AcDbEntity
  8
DRAFT
100
AcDbLine
 62
250
  6
CONTINUOUS
 10
277.8786643254
 20
156.7584291652
 11
277.8567921595
 21
156.7584291652
  0
LINE
  5
488
100
AcDbEntity
  8
DRAFT
100
AcDbLine
 62
250
  6
CONTINUOUS
 10
279.6314878696
 20
156.8138178401
 11
279.6096157037
 21
156.8138178401
  0
LINE
  5
489
100
AcDbEntity
  8
DRAFT
100
AcDbLine
 62
250
  6
CONTINUOUS
 10
279.6314878696
 20
156.8339408401
 11
279.6096157037
 21
156.8339408401
  0
LINE
  5
48A
100
AcDbEntity
  8
DRAFT
100
AcDbLine
 62
7
  6
CONTINUOUS
 10
279.3814878696
 20
157.0620686742
 11
278.6557277037
 21
157.0620686742
  0
LINE
  5
48B
100
AcDbEntity
  8
DRAFT
100
AcDbLine
 62
7
  6
CONTINUOUS
 10
279.3814878696
 20
157.0839408401
 11
278.6775998696
 21
157.0839408401
  0
LINE
  5
48C
100
AcDbEntity
  8
INTF_1
100
AcDbLine
 62
7
  6
CONTINUOUS
 10
279.3814878696
 20
157.0839408401
 11
278.6775998696
 21
157.0839408401
  0
LINE
  5
48D
100
AcDbEntity
  8
DRAFT
100
AcDbLine
 62
7
  6
CONTINUOUS
 10
278.6775998696
 20
157.3051548401
 11
279.4527708696
 21
157.3051548401
  0
LINE
  5
48E
100
AcDbEntity
  8
INTF_1
100
AcDbLine
 62
7
  6
CONTINUOUS
 10
278.6775998696
 20
157.3051548401
 11
279.4527708696
 21
157.3051548401
  0
LINE
  5
48F
100
AcDbEntity
  8
DRAFT
100
AcDbLine
 62
7
  6
CONTINUOUS
 10
284.7549258696
 20
157.3051548401
 11
285.0687048696
 21
157.3051548401
  0
LINE
  5
490
100
AcDbEntity
  8
INTF_1
100
AcDbLine
 62
7
  6
CONTINUOUS
 10
284.7549258696
 20
157.3051548401
 11
285.0687048696
 21
157.3051548401
  0
LINE
  5
491
100
AcDbEntity
  8
DRAFT
100
AcDbLine
 62
7
  6
CONTINUOUS
 10
285.6523338696
 20
157.3051548401
 11
285.9648168696
 21
157.3051548401
  0
LINE
  5
492
100
AcDbEntity
  8
INTF_1
100
AcDbLine
 62
7
  6
CONTINUOUS
 10
285.6523338696
 20
157.3051548401
 11
285.9648168696
 21
157.3051548401
  0
LINE
  5
493
100
AcDbEntity
  8
DRAFT
100
AcDbLine
 62
7
  6
CONTINUOUS
 10
278.6557277037
 20
157.327027006
 11
279.4527708696
 21
157.327027006
  0
LINE
  5
494
100
AcDbEntity
  8
DRAFT
100
AcDbLine
 62
7
  6
CONTINUOUS
 10
284.7549258696
 20
157.327027006
 11
285.0905770355
 21
157.327027006
  0
LINE
  5
495
100
AcDbEntity
  8
DRAFT
100
AcDbLine
 62
7
  6
CONTINUOUS
 10
285.6304617037
 20
157.327027006
 11
285.9648168696
 21
157.327027006
  0
LINE
  5
496
100
AcDbEntity
  8
DRAFT
100
AcDbLine
 62
250
  6
CONTINUOUS
 10
286.2148168696
 20
157.5551548401
 11
286.1929447037
 21
157.5551548401
  0
LINE
  5
497
100
AcDbEntity
  8
DRAFT
100
AcDbLine
 62
250
  6
CONTINUOUS
 10
279.7027708696
 20
157.5551548401
 11
279.6808987037
 21
157.5551548401
  0
LINE
  5
498
100
AcDbEntity
  8
DRAFT
100
AcDbLine
 62
250
  6
CONTINUOUS
 10
284.5049258696
 20
157.5551548401
 11
284.5267980355
 21
157.5551548401
  0
LINE
  5
499
100
AcDbEntity
  8
DRAFT
100
AcDbLine
 62
250
  6
CONTINUOUS
 10
288.9832058696
 20
157.5610208401
 11
288.9613337037
 21
157.5610208401
  0
LINE
  5
49A
100
AcDbEntity
  8
DRAFT
100
AcDbLine
 62
250
  6
CONTINUOUS
 10
288.3995788696
 20
157.5610208401
 11
288.4214510355
 21
157.5610208401
  0
LINE
  5
49B
100
AcDbEntity
  8
DRAFT
100
AcDbLine
 62
250
  6
CONTINUOUS
 10
286.2148168696
 20
157.5765738401
 11
286.1929447037
 21
157.5765738401
  0
LINE
  5
49C
100
AcDbEntity
  8
DRAFT
100
AcDbLine
 62
250
  6
CONTINUOUS
 10
284.3955268696
 20
157.5765738401
 11
284.3736547037
 21
157.5765738401
  0
LINE
  5
49D
100
AcDbEntity
  8
DRAFT
100
AcDbLine
 62
250
  6
CONTINUOUS
 10
282.9604508696
 20
157.5765738401
 11
282.9385787037
 21
157.5765738401
  0
LINE
  5
49E
100
AcDbEntity
  8
DRAFT
100
AcDbLine
 62
250
  6
CONTINUOUS
 10
281.0837808696
 20
157.5765738401
 11
281.0619087037
 21
157.5765738401
  0
LINE
  5
49F
100
AcDbEntity
  8
DRAFT
100
AcDbLine
 62
250
  6
CONTINUOUS
 10
279.7027708696
 20
157.5765738401
 11
279.6808987037
 21
157.5765738401
  0
LINE
  5
4A0
100
AcDbEntity
  8
DRAFT
100
AcDbLine
 62
250
  6
CONTINUOUS
 10
273.7792368696
 20
157.5765738401
 11
273.7573647037
 21
157.5765738401
  0
LINE
  5
4A1
100
AcDbEntity
  8
DRAFT
100
AcDbLine
 62
250
  6
CONTINUOUS
 10
271.7440398696
 20
157.5765738401
 11
271.7659120355
 21
157.5765738401
  0
LINE
  5
4A2
100
AcDbEntity
  8
DRAFT
100
AcDbLine
 62
250
  6
CONTINUOUS
 10
276.0858268696
 20
157.5765738401
 11
276.1076990355
 21
157.5765738401
  0
LINE
  5
4A3
100
AcDbEntity
  8
DRAFT
100
AcDbLine
 62
250
  6
CONTINUOUS
 10
278.0939708696
 20
157.5765738401
 11
278.1158430355
 21
157.5765738401
  0
LINE
  5
4A4
100
AcDbEntity
  8
DRAFT
100
AcDbLine
 62
250
  6
CONTINUOUS
 10
280.5001518696
 20
157.5765738401
 11
280.5220240355
 21
157.5765738401
  0
LINE
  5
4A5
100
AcDbEntity
  8
DRAFT
100
AcDbLine
 62
250
  6
CONTINUOUS
 10
281.2531528696
 20
157.5765738401
 11
281.2750250355
 21
157.5765738401
  0
LINE
  5
4A6
100
AcDbEntity
  8
DRAFT
100
AcDbLine
 62
250
  6
CONTINUOUS
 10
282.4040388696
 20
157.5765738401
 11
282.4259110355
 21
157.5765738401
  0
LINE
  5
4A7
100
AcDbEntity
  8
DRAFT
100
AcDbLine
 62
250
  6
CONTINUOUS
 10
283.8118978696
 20
157.5765738401
 11
283.8337700355
 21
157.5765738401
  0
LINE
  5
4A8
100
AcDbEntity
  8
DRAFT
100
AcDbLine
 62
250
  6
CONTINUOUS
 10
284.5049258696
 20
157.5765738401
 11
284.5267980355
 21
157.5765738401
  0
LINE
  5
4A9
100
AcDbEntity
  8
DRAFT
100
AcDbLine
 62
7
  6
CONTINUOUS
 10
288.7332058696
 20
157.7891486742
 11
288.6495788696
 21
157.7891486742
  0
LINE
  5
4AA
100
AcDbEntity
  8
DRAFT
100
AcDbLine
 62
7
  6
CONTINUOUS
 10
275.0013498696
 20
157.8047013846
 11
274.7997568696
 21
157.8047016742
  0
LINE
  5
4AB
100
AcDbEntity
  8
DRAFT
100
AcDbLine
 62
7
  6
CONTINUOUS
 10
290.0679818696
 20
157.8047017269
 11
289.9759248696
 21
157.8047016742
  0
LINE
  5
4AC
100
AcDbEntity
  8
DRAFT
100
AcDbLine
 62
7
  6
CONTINUOUS
 10
291.2078758696
 20
157.804701682
 11
291.1246848696
 21
157.8047016742
  0
LINE
  5
4AD
100
AcDbEntity
  8
DRAFT
100
AcDbLine
 62
7
  6
CONTINUOUS
 10
281.6424138696
 20
157.8047013788
 11
281.5031528696
 21
157.8047016742
  0
LINE
  5
4AE
100
AcDbEntity
  8
DRAFT
100
AcDbLine
 62
7
  6
CONTINUOUS
 10
285.9648168696
 20
157.8047016742
 11
284.7549258696
 21
157.8047016742
  0
LINE
  5
4AF
100
AcDbEntity
  8
DRAFT
100
AcDbLine
 62
7
  6
CONTINUOUS
 10
284.1455268696
 20
157.8047016742
 11
284.0618978696
 21
157.8047016742
  0
LINE
  5
4B0
100
AcDbEntity
  8
DRAFT
100
AcDbLine
 62
7
  6
CONTINUOUS
 10
282.7104508696
 20
157.8047016742
 11
282.6540388696
 21
157.8047016742
  0
LINE
  5
4B1
100
AcDbEntity
  8
DRAFT
100
AcDbLine
 62
7
  6
CONTINUOUS
 10
280.8337808696
 20
157.8047016742
 11
280.7501518696
 21
157.8047016742
  0
LINE
  5
4B2
100
AcDbEntity
  8
DRAFT
100
AcDbLine
 62
7
  6
CONTINUOUS
 10
279.4527708696
 20
157.8047016742
 11
278.3439708696
 21
157.8047016742
  0
LINE
  5
4B3
100
AcDbEntity
  8
DRAFT
100
AcDbLine
 62
7
  6
CONTINUOUS
 10
276.8869861113
 20
157.8047016435
 11
276.3358268696
 21
157.8047016742
  0
LINE
  5
4B4
100
AcDbEntity
  8
DRAFT
100
AcDbLine
 62
7
  6
CONTINUOUS
 10
273.5292368696
 20
157.8047016742
 11
273.2194448696
 21
157.8047016742
  0
LINE
  5
4B5
100
AcDbEntity
  8
DRAFT
100
AcDbLine
 62
7
  6
CONTINUOUS
 10
272.3028708696
 20
157.8047017412
 11
271.9940398696
 21
157.8047016742
  0
LINE
  5
4B6
100
AcDbEntity
  8
DRAFT
100
AcDbLine
 62
7
  6
CONTINUOUS
 10
287.2134378696
 20
157.8047013846
 11
287.0118438696
 21
157.8047016742
  0
LINE
  5
4B7
100
AcDbEntity
  8
DRAFT
100
AcDbLine
 62
7
  6
CONTINUOUS
 10
288.7332058696
 20
157.8110208401
 11
288.6495788696
 21
157.8110208401
  0
LINE
  5
4B8
100
AcDbEntity
  8
INTF_1
100
AcDbLine
 62
7
  6
CONTINUOUS
 10
288.7332058696
 20
157.8110208401
 11
288.6495788696
 21
157.8110208401
  0
LINE
  5
4B9
100
AcDbEntity
  8
DRAFT
100
AcDbLine
 62
7
  6
CONTINUOUS
 10
275.0013498696
 20
157.8265735505
 11
274.7997568696
 21
157.8265738401
  0
LINE
  5
4BA
100
AcDbEntity
  8
DRAFT
100
AcDbLine
 62
7
  6
CONTINUOUS
 10
290.0679818696
 20
157.8265738928
 11
289.9759248696
 21
157.8265738401
  0
LINE
  5
4BB
100
AcDbEntity
  8
DRAFT
100
AcDbLine
 62
7
  6
CONTINUOUS
 10
291.2078758696
 20
157.8265738479
 11
291.1246848696
 21
157.8265738401
  0
LINE
  5
4BC
100
AcDbEntity
  8
INTF_1
100
AcDbLine
 62
7
  6
CONTINUOUS
 10
291.2078758696
 20
157.8265738401
 11
291.1246848696
 21
157.8265738401
  0
LINE
  5
4BD
100
AcDbEntity
  8
INTF_1
100
AcDbLine
 62
7
  6
CONTINUOUS
 10
290.0679818696
 20
157.8265738401
 11
289.9759248696
 21
157.8265738401
  0
LINE
  5
4BE
100
AcDbEntity
  8
INTF_1
100
AcDbLine
 62
7
  6
CONTINUOUS
 10
287.2134378696
 20
157.8265738401
 11
287.0118438696
 21
157.8265738401
  0
LINE
  5
4BF
100
AcDbEntity
  8
DRAFT
100
AcDbLine
 62
7
  6
CONTINUOUS
 10
285.9648168696
 20
157.8265738401
 11
284.7549258696
 21
157.8265738401
  0
LINE
  5
4C0
100
AcDbEntity
  8
INTF_1
100
AcDbLine
 62
7
  6
CONTINUOUS
 10
285.9648168696
 20
157.8265738401
 11
284.7549258696
 21
157.8265738401
  0
LINE
  5
4C1
100
AcDbEntity
  8
DRAFT
100
AcDbLine
 62
7
  6
CONTINUOUS
 10
284.1455268696
 20
157.8265738401
 11
284.0618978696
 21
157.8265738401
  0
LINE
  5
4C2
100
AcDbEntity
  8
DRAFT
100
AcDbLine
 62
7
  6
CONTINUOUS
 10
282.7104508696
 20
157.8265738401
 11
282.6540388696
 21
157.8265738401
  0
LINE
  5
4C3
100
AcDbEntity
  8
INTF_1
100
AcDbLine
 62
7
  6
CONTINUOUS
 10
282.7104508696
 20
157.8265738401
 11
282.6540388696
 21
157.8265738401
  0
LINE
  5
4C4
100
AcDbEntity
  8
DRAFT
100
AcDbLine
 62
7
  6
CONTINUOUS
 10
281.6424138696
 20
157.8265735447
 11
281.5031528696
 21
157.8265738401
  0
LINE
  5
4C5
100
AcDbEntity
  8
DRAFT
100
AcDbLine
 62
7
  6
CONTINUOUS
 10
280.8337808696
 20
157.8265738401
 11
280.7501518696
 21
157.8265738401
  0
LINE
  5
4C6
100
AcDbEntity
  8
INTF_1
100
AcDbLine
 62
7
  6
CONTINUOUS
 10
280.8337808696
 20
157.8265738401
 11
280.7501518696
 21
157.8265738401
  0
LINE
  5
4C7
100
AcDbEntity
  8
DRAFT
100
AcDbLine
 62
7
  6
CONTINUOUS
 10
279.4527708696
 20
157.8265738401
 11
278.3439708696
 21
157.8265738401
  0
LINE
  5
4C8
100
AcDbEntity
  8
INTF_1
100
AcDbLine
 62
7
  6
CONTINUOUS
 10
279.4527708696
 20
157.8265738401
 11
278.3439708696
 21
157.8265738401
  0
LINE
  5
4C9
100
AcDbEntity
  8
DRAFT
100
AcDbLine
 62
7
  6
CONTINUOUS
 10
276.8869861113
 20
157.8265738094
 11
276.3358268696
 21
157.8265738401
  0
LINE
  5
4CA
100
AcDbEntity
  8
INTF_1
100
AcDbLine
 62
7
  6
CONTINUOUS
 10
275.0013498696
 20
157.8265738401
 11
274.7997568696
 21
157.8265738401
  0
LINE
  5
4CB
100
AcDbEntity
  8
DRAFT
100
AcDbLine
 62
7
  6
CONTINUOUS
 10
273.5292368696
 20
157.8265738401
 11
273.2194448696
 21
157.8265738401
  0
LINE
  5
4CC
100
AcDbEntity
  8
INTF_1
100
AcDbLine
 62
7
  6
CONTINUOUS
 10
273.5292368696
 20
157.8265738401
 11
273.2194448696
 21
157.8265738401
  0
LINE
  5
4CD
100
AcDbEntity
  8
INTF_1
100
AcDbLine
 62
7
  6
CONTINUOUS
 10
271.9940398696
 20
157.8265738401
 11
272.3028708696
 21
157.8265738401
  0
LINE
  5
4CE
100
AcDbEntity
  8
INTF_1
100
AcDbLine
 62
7
  6
CONTINUOUS
 10
281.5031528696
 20
157.8265738401
 11
281.6424138696
 21
157.8265738401
  0
LINE
  5
4CF
100
AcDbEntity
  8
INTF_1
100
AcDbLine
 62
7
  6
CONTINUOUS
 10
284.0618978696
 20
157.8265738401
 11
284.1455268696
 21
157.8265738401
  0
LINE
  5
4D0
100
AcDbEntity
  8
DRAFT
100
AcDbLine
 62
7
  6
CONTINUOUS
 10
272.3028708696
 20
157.8265739071
 11
271.9940398696
 21
157.8265738401
  0
LINE
  5
4D1
100
AcDbEntity
  8
DRAFT
100
AcDbLine
 62
7
  6
CONTINUOUS
 10
287.2134378696
 20
157.8265735505
 11
287.0118438696
 21
157.8265738401
  0
LINE
  5
4D2
100
AcDbEntity
  8
DRAFT
100
AcDbLine
 62
7
  6
CONTINUOUS
 10
278.9845458696
 20
159.2577013876
 11
279.0235188696
 21
159.2577016742
  0
LINE
  5
4D3
100
AcDbEntity
  8
DRAFT
100
AcDbLine
 62
7
  6
CONTINUOUS
 10
276.6980348696
 20
159.2697016756
 11
276.9336408696
 21
159.2697016742
  0
LINE
  5
4D4
100
AcDbEntity
  8
DRAFT
100
AcDbLine
 62
7
  6
CONTINUOUS
 10
281.2313588696
 20
159.2697016742
 11
281.2913858696
 21
159.2697016742
  0
LINE
  5
4D5
100
AcDbEntity
  8
DRAFT
100
AcDbLine
 62
7
  6
CONTINUOUS
 10
278.9845458696
 20
159.2795735535
 11
279.0235188696
 21
159.2795738401
  0
LINE
  5
4D6
100
AcDbEntity
  8
DRAFT
100
AcDbLine
 62
7
  6
CONTINUOUS
 10
276.6980348696
 20
159.2915738414
 11
276.9336408696
 21
159.2915738401
  0
LINE
  5
4D7
100
AcDbEntity
  8
DRAFT
100
AcDbLine
 62
7
  6
CONTINUOUS
 10
281.2313588696
 20
159.2915738401
 11
281.2913858696
 21
159.2915738401
  0
LINE
  5
4D8
100
AcDbEntity
  8
DRAFT
100
AcDbLine
 62
250
  6
CONTINUOUS
 10
281.5482580355
 20
159.5265738401
 11
281.5263858696
 21
159.5265738401
  0
LINE
  5
4D9
100
AcDbEntity
  8
DRAFT
100
AcDbLine
 62
250
  6
CONTINUOUS
 10
280.9744867037
 20
159.5265738401
 11
280.9963588696
 21
159.5265738401
  0
LINE
  5
4DA
100
AcDbEntity
  8
DRAFT
100
AcDbLine
 62
250
  6
CONTINUOUS
 10
286.7398478472
 20
160.5102027194
 11
286.7179756813
 21
160.5102027194
  0
LINE
  5
4DB
100
AcDbEntity
  8
DRAFT
100
AcDbLine
 62
250
  6
CONTINUOUS
 10
286.2147936247
 20
160.5151140229
 11
286.2366657906
 21
160.5151140229
  0
LWPOLYLINE
  5
4DC
100
AcDbEntity
  8
DRAFT
100
AcDbPolyline
 62
7
  6
CONTINUOUS
 90
13
 70
0
 10
276.6475837037
 20
157.327027006
 10
276.7701310541
 20
157.3270233525
 10
276.7978061745
 20
157.326811774
 10
276.8248545649
 20
157.3263923141
 10
276.8512711814
 20
157.325783588
 10
276.8770610681
 20
157.3249669803
 10
276.9022393563
 20
157.3238866455
 10
276.9268216145
 20
157.3225690799
 10
276.9507922743
 20
157.3209877872
 10
276.9741197617
 20
157.3190074317
 10
276.9967935522
 20
157.3165829017
 10
277.0188241704
 20
157.313759309
 10
277.0402116162
 20
157.3105366535
  0
LINE
  5
4DD
100
AcDbEntity
  8
DRAFT
100
AcDbLine
 62
250
  6
CONTINUOUS
 10
287.8170636442
 20
160.5104887963
 11
287.7951914765
 21
160.5105093141
  0
LINE
  5
4DE
100
AcDbEntity
  8
INTF_1
100
AcDbLine
 62
7
  6
CONTINUOUS
 10
276.7600044398
 20
157.3051312686
 11
276.6694558696
 21
157.3051548401
  0
LWPOLYLINE
  5
4DF
100
AcDbEntity
  8
INTF_1
100
AcDbPolyline
 62
7
  6
CONTINUOUS
 90
25
 70
0
 10
276.3358268696
 20
157.8265738401
 10
276.9101977816
 20
157.8264840448
 10
276.9334009367
 20
157.8262093399
 10
276.9566054194
 20
157.8257414089
 10
276.9798210726
 20
157.8250719969
 10
277.0030577392
 20
157.8241928488
 10
277.0176281804
 20
157.8235302051
 10
277.0322060822
 20
157.8227717365
 10
277.0467867962
 20
157.8219071652
 10
277.0613656737
 20
157.8209262135
 10
277.0759380663
 20
157.8198186039
 10
277.0904993256
 20
157.8185740586
 10
277.105044803
 20
157.8171823
 10
277.11956985
 20
157.8156330504
 10
277.1340698182
 20
157.8139160321
 10
277.148540059
 20
157.8120209674
 10
277.1629759239
 20
157.8099375787
 10
277.1773727645
 20
157.8076555884
 10
277.1917259323
 20
157.8051647187
 10
277.2060307788
 20
157.802454692
 10
277.2202826554
 20
157.7995152306
 10
277.2344769137
 20
157.7963360569
 10
277.2486089053
 20
157.7929068931
 10
277.2626739815
 20
157.7892174617
 10
277.2766674939
 20
157.7852574849
  0
LWPOLYLINE
  5
4E0
100
AcDbEntity
  8
DRAFT
100
AcDbPolyline
 62
7
  6
CONTINUOUS
 90
34
 70
0
 10
285.0497616735
 20
159.7564355941
 10
285.0198880128
 20
159.7568013109
 10
284.9912298789
 20
159.759186194
 10
284.9637872717
 20
159.7635902433
 10
284.9373920392
 20
159.7700426258
 10
284.9122123334
 20
159.7785141746
 10
284.8887526106
 20
159.7889173885
 10
284.8671573416
 20
159.8014097355
 10
284.8472820557
 20
159.8158337476
 10
284.8291977963
 20
159.8316295202
 10
284.812796798
 20
159.8488204401
 10
284.7981868263
 20
159.8673831204
 10
284.7857622209
 20
159.8866874966
 10
284.7756816563
 20
159.9066137817
 10
284.7677864581
 20
159.9272817626
 10
284.7619949431
 20
159.9484207361
 10
284.758278874
 20
159.9701361183
 10
284.756666488
 20
159.9923224931
 10
284.7571608138
 20
160.0143929084
 10
284.7596203119
 20
160.0363000468
 10
284.7641865217
 20
160.0580912258
 10
284.7712870901
 20
160.079321446
 10
284.7811147321
 20
160.0999724135
 10
284.7934767327
 20
160.1200624221
 10
284.8082225944
 20
160.1392013549
 10
284.8253291463
 20
160.15744771
 10
284.8448195592
 20
160.1747429892
 10
284.8666128489
 20
160.1905215805
 10
284.8906355583
 20
160.2049822572
 10
284.9169611445
 20
160.217926246
 10
284.9457289944
 20
160.2281916145
 10
284.9769855701
 20
160.2353910519
 10
285.0106844095
 20
160.239911869
 10
285.0468255125
 20
160.2417540658
  0
LWPOLYLINE
  5
4E1
100
AcDbEntity
  8
DRAFT
100
AcDbPolyline
 62
7
  6
CONTINUOUS
 90
10
 70
0
 10
287.0159283333
 20
159.6670921938
 10
286.9985623574
 20
159.6677851029
 10
286.9814334611
 20
159.6696568552
 10
286.9645416443
 20
159.6727074507
 10
286.9476679254
 20
159.6770364633
 10
286.9310312859
 20
159.6825443192
 10
286.9152886713
 20
159.6889322963
 10
286.9006590634
 20
159.6961008208
 10
286.8869234803
 20
159.7041494665
 10
286.8740819221
 20
159.7130782336
  0
LINE
  5
4E2
100
AcDbEntity
  8
DRAFT
100
AcDbLine
 62
250
  6
CONTINUOUS
 10
283.8174787583
 20
160.0473399598
 11
283.7956106075
 21
160.0482179277
  0
LWPOLYLINE
  5
4E3
100
AcDbEntity
  8
DRAFT
100
AcDbPolyline
 62
7
  6
CONTINUOUS
 90
28
 70
0
 10
285.0468255125
 20
160.2417540658
 10
285.0748777296
 20
160.2402356294
 10
285.1020383972
 20
160.2366166037
 10
285.1283075155
 20
160.2308969888
 10
285.1539123702
 20
160.2229754553
 10
285.1786256754
 20
160.2129533327
 10
285.2017655735
 20
160.2011346081
 10
285.2232621294
 20
160.1875321173
 10
285.2431852782
 20
160.1721330246
 10
285.2610629665
 20
160.1552028109
 10
285.2768673581
 20
160.1364941215
 10
285.2906262894
 20
160.1162543111
 10
285.3019512161
 20
160.0954909239
 10
285.3105523989
 20
160.0743860467
 10
285.3167195773
 20
160.0527575927
 10
285.3209334252
 20
160.0310668462
 10
285.3232783289
 20
160.0093628666
 10
285.3236699021
 20
159.9875965945
 10
285.3223356598
 20
159.9660821355
 10
285.3195430467
 20
159.9448280845
 10
285.315024618
 20
159.9238258466
 10
285.308205555
 20
159.9033637432
 10
285.2989030622
 20
159.8833135347
 10
285.287299935
 20
159.8638034606
 10
285.2733697406
 20
159.8455065606
 10
285.257103668
 20
159.8286471811
 10
285.2385105282
 20
159.8130009758
 10
285.2175903212
 20
159.7985679445
  0
LINE
  5
4E4
100
AcDbEntity
  8
DRAFT
100
AcDbLine
 62
250
  6
CONTINUOUS
 10
279.2911743398
 20
159.5035003975
 11
279.2693829945
 21
159.5053789369
  0
LINE
  5
4E5
100
AcDbEntity
  8
DRAFT
100
AcDbLine
 62
250
  6
CONTINUOUS
 10
278.7175154689
 20
159.5581544667
 11
278.7392362595
 21
159.5555856349
  0
LINE
  5
4E6
100
AcDbEntity
  8
DRAFT
100
AcDbLine
 62
7
  6
CONTINUOUS
 10
282.4446421132
 20
160.3931704547
 11
282.7029155736
 21
160.3557876715
  0
LINE
  5
4E7
100
AcDbEntity
  8
DRAFT
100
AcDbLine
 62
7
  6
CONTINUOUS
 10
282.4477752664
 20
160.4148170477
 11
282.7060487268
 21
160.3774342646
  0
LWPOLYLINE
  5
4E8
100
AcDbEntity
  8
DRAFT
100
AcDbPolyline
 62
7
  6
CONTINUOUS
 90
13
 70
0
 10
277.0355836264
 20
157.2891597185
 10
277.0147077434
 20
157.2922682358
 10
276.9931767504
 20
157.2949933358
 10
276.9709906474
 20
157.2973350185
 10
276.9481475978
 20
157.2992496758
 10
276.9246494382
 20
157.3007809158
 10
276.9005016785
 20
157.3020595628
 10
276.8757119085
 20
157.303111957
 10
276.8502725385
 20
157.3039117582
 10
276.8241663089
 20
157.3045107711
 10
276.7973874667
 20
157.3049262636
 10
276.769941765
 20
157.3051409678
 10
276.6694558696
 20
157.3051548401
  0
LWPOLYLINE
  5
4E9
100
AcDbEntity
  8
DRAFT
100
AcDbPolyline
 62
7
  6
CONTINUOUS
 90
10
 70
0
 10
283.0012556241
 20
160.424319636
 10
283.0114745256
 20
160.4227614394
 10
283.0215579792
 20
160.4207198271
 10
283.0315059849
 20
160.4181947989
 10
283.0413466233
 20
160.415187327
 10
283.0510518138
 20
160.4116964392
 10
283.0605373147
 20
160.40771922
 10
283.0697750454
 20
160.4032546975
 10
283.0787930865
 20
160.3983038435
 10
283.087591438
 20
160.3928666581
  0
LINE
  5
4EA
100
AcDbEntity
  8
DRAFT
100
AcDbLine
 62
250
  6
CONTINUOUS
 10
282.2584020676
 20
160.6539008363
 11
282.2798948156
 21
160.649844554
  0
LWPOLYLINE
  5
4EB
100
AcDbEntity
  8
DRAFT
100
AcDbPolyline
 62
7
  6
CONTINUOUS
 90
10
 70
0
 10
277.2400191727
 20
157.772505319
 10
277.2048143133
 20
157.7801875822
 10
277.16856688
 20
157.7867529722
 10
277.1312768727
 20
157.7922014888
 10
277.0928945386
 20
157.7964122657
 10
277.0534696306
 20
157.7995061692
 10
277.0131514079
 20
157.8018457988
 10
276.9719896237
 20
157.8035520209
 10
276.9299345248
 20
157.8045039692
 10
276.8869861113
 20
157.8047016435
  0
LWPOLYLINE
  5
4EC
100
AcDbEntity
  8
DRAFT
100
AcDbPolyline
 62
7
  6
CONTINUOUS
 90
10
 70
0
 10
277.246055369
 20
157.7935466797
 10
277.2102618374
 20
157.8014209989
 10
277.1734040214
 20
157.8081518651
 10
277.1354819212
 20
157.8137392783
 10
277.096444175
 20
157.8180601805
 10
277.0563421446
 20
157.8212376297
 10
277.0153299145
 20
157.8236407998
 10
276.9734588464
 20
157.8253927487
 10
276.9306775787
 20
157.8263704186
 10
276.8869861113
 20
157.8265738094
  0
LINE
  5
4ED
100
AcDbEntity
  8
DRAFT
100
AcDbLine
 62
7
  6
CONTINUOUS
 10
279.3557456484
 20
159.9050279583
 11
279.3344199069
 21
159.9098901314
  0
LINE
  5
4EE
100
AcDbEntity
  8
DRAFT
100
AcDbLine
 62
7
  6
CONTINUOUS
 10
290.8818708696
 20
156.5946358401
 11
290.8599987037
 21
156.6009797372
  0
LINE
  5
4EF
100
AcDbEntity
  8
DRAFT
100
AcDbLine
 62
250
  6
CONTINUOUS
 10
277.3205038537
 20
161.6072644786
 11
277.3412688718
 21
161.6003938408
  0
LINE
  5
4F0
100
AcDbEntity
  8
DRAFT
100
AcDbLine
 62
250
  6
CONTINUOUS
 10
277.1754733386
 20
159.4399693535
 11
277.1548817691
 21
159.4473435589
  0
LINE
  5
4F1
100
AcDbEntity
  8
DRAFT
100
AcDbLine
 62
250
  6
CONTINUOUS
 10
277.8917086859
 20
161.4399692291
 11
277.8711171164
 21
161.4473434345
  0
LINE
  5
4F2
100
AcDbEntity
  8
DRAFT
100
AcDbLine
 62
250
  6
CONTINUOUS
 10
286.7060867858
 20
155.8911946096
 11
286.6855296701
 21
155.8986643241
  0
LINE
  5
4F3
100
AcDbEntity
  8
DRAFT
100
AcDbLine
 62
250
  6
CONTINUOUS
 10
286.1556035216
 20
156.0670649768
 11
286.1759885447
 21
156.0591376438
  0
LINE
  5
4F4
100
AcDbEntity
  8
DRAFT
100
AcDbLine
 62
250
  6
CONTINUOUS
 10
286.7788900005
 20
157.6673081715
 11
286.7992707866
 21
157.6593699603
  0
LINE
  5
4F5
100
AcDbEntity
  8
DRAFT
100
AcDbLine
 62
250
  6
CONTINUOUS
 10
281.0213426348
 20
161.6581246856
 11
281.040602975
 21
161.6477597962
  0
LINE
  5
4F6
100
AcDbEntity
  8
DRAFT
100
AcDbLine
 62
250
  6
CONTINUOUS
 10
279.6611476318
 20
160.7299197162
 11
279.6420141461
 21
160.7405202768
  0
LWPOLYLINE
  5
4F7
100
AcDbEntity
  8
DRAFT
100
AcDbPolyline
 62
7
  6
CONTINUOUS
 90
55
 70
0
 10
284.5231172375
 20
159.3457094338
 10
284.5506724978
 20
159.328993205
 10
284.5789382843
 20
159.3136912288
 10
284.6079145971
 20
159.2998035052
 10
284.6377231403
 20
159.287392814
 10
284.6682422097
 20
159.2763963754
 10
284.6991066928
 20
159.2666258503
 10
284.7302840087
 20
159.2580993878
 10
284.7618067382
 20
159.2507988388
 10
284.793407512
 20
159.2444814174
 10
284.8249738644
 20
159.239130888
 10
284.8566182612
 20
159.2347634862
 10
284.8884107293
 20
159.2311851333
 10
284.9202310111
 20
159.2283755626
 10
284.9521993642
 20
159.2263550407
 10
284.9847465893
 20
159.2249902889
 10
285.0178690309
 20
159.2241874857
 10
285.0515703443
 20
159.2240404525
 10
285.0862922965
 20
159.2246973749
 10
285.1220588131
 20
159.2259862702
 10
285.1588459684
 20
159.2280791211
 10
285.1970237523
 20
159.2316400615
 10
285.2367145205
 20
159.236506917
 10
285.2777959173
 20
159.2428418619
 10
285.3202708649
 20
159.251795554
 10
285.3646166575
 20
159.2633396492
 10
285.4103560009
 20
159.2775024914
 10
285.4560599354
 20
159.2955197708
 10
285.5017779258
 20
159.3176393101
 10
285.5474605074
 20
159.3436132865
 10
285.5915303262
 20
159.3739339211
 10
285.6339654441
 20
159.408962224
 10
285.6747877992
 20
159.4483371851
 10
285.7124858519
 20
159.4914679959
 10
285.7468895797
 20
159.5385968638
 10
285.778169005
 20
159.5894815814
 10
285.8053226559
 20
159.6428047182
 10
285.8281986958
 20
159.6986426914
 10
285.8469489611
 20
159.7569190837
 10
285.8610274896
 20
159.8160872136
 10
285.8702774145
 20
159.876130577
 10
285.8748556025
 20
159.9370656779
 10
285.8746866913
 20
159.9973953471
 10
285.86964873
 20
160.0569699064
 10
285.8598636694
 20
160.1159390341
 10
285.845622001
 20
160.1732545959
 10
285.8268911236
 20
160.2288313796
 10
285.8037036384
 20
160.2827545974
 10
285.7764478393
 20
160.3342317522
 10
285.7450238908
 20
160.3831945194
 10
285.7095316285
 20
160.4297112236
 10
285.6706588534
 20
160.4731943412
 10
285.6286348326
 20
160.5134480312
 10
285.583230299
 20
160.5506681347
 10
285.5344452527
 20
160.5848546516
  0
LWPOLYLINE
  5
4F8
100
AcDbEntity
  8
DRAFT
100
AcDbPolyline
 62
7
  6
CONTINUOUS
 90
25
 70
0
 10
284.5112347791
 20
159.3273464595
 10
284.4706300659
 20
159.3551132698
 10
284.4314039614
 20
159.3877671185
 10
284.3935564656
 20
159.4253080055
 10
284.3563284168
 20
159.4681448825
 10
284.3204789766
 20
159.5158687978
 10
284.2882856302
 20
159.5672528966
 10
284.2600735524
 20
159.6225516195
 10
284.2355175684
 20
159.6815105259
 10
284.2159196381
 20
159.7421394392
 10
284.2018041902
 20
159.8044664654
 10
284.1926467961
 20
159.8684634985
 10
284.1881761304
 20
159.9320560436
 10
284.1882450414
 20
159.9948346778
 10
284.1930006809
 20
160.057208824
 10
284.2026131786
 20
160.1183322557
 10
284.2171046634
 20
160.1781647907
 10
284.2364530063
 20
160.2367466111
 10
284.2607619508
 20
160.2933520367
 10
284.2902350389
 20
160.3478366399
 10
284.3246687285
 20
160.4003448484
 10
284.3635561364
 20
160.4505842643
 10
284.4067283015
 20
160.498457422
 10
284.4543541848
 20
160.5440617872
 10
284.5064337863
 20
160.58739736
  0
LINE
  5
4F9
100
AcDbEntity
  8
DRAFT
100
AcDbLine
 62
7
  6
CONTINUOUS
 10
287.2255838696
 20
156.6782788401
 11
287.2570369244
 21
156.6564066742
  0
LWPOLYLINE
  5
4FA
100
AcDbEntity
  8
DRAFT
100
AcDbPolyline
 62
7
  6
CONTINUOUS
 90
10
 70
0
 10
286.8860815296
 20
159.7314290666
 10
286.8976366807
 20
159.7233102354
 10
286.9100673586
 20
159.7159642434
 10
286.923373563
 20
159.7093910906
 10
286.9377652392
 20
159.7034877192
 10
286.9530324419
 20
159.698357187
 10
286.9685453362
 20
159.6943086677
 10
286.9840939771
 20
159.6914452189
 10
286.9998883094
 20
159.6896637829
 10
287.0159283333
 20
159.6889643597
  0
LWPOLYLINE
  5
4FB
100
AcDbEntity
  8
DRAFT
100
AcDbPolyline
 62
7
  6
CONTINUOUS
 90
10
 70
0
 10
283.0857634196
 20
160.367392461
 10
283.0771305582
 20
160.3735539082
 10
283.0682123926
 20
160.3791553027
 10
283.0590089227
 20
160.3841966447
 10
283.0494831823
 20
160.3886815358
 10
283.0396721377
 20
160.3926063743
 10
283.0296866878
 20
160.3959603548
 10
283.0195637991
 20
160.3987398756
 10
283.0092665053
 20
160.4009485384
 10
282.9987948063
 20
160.4025863432
  0
LINE
  5
4FC
100
AcDbEntity
  8
DRAFT
100
AcDbLine
 62
7
  6
CONTINUOUS
 10
283.6706762834
 20
159.6254394613
 11
283.6530215046
 21
159.6383776728
  0
LWPOLYLINE
  5
4FD
100
AcDbEntity
  8
DRAFT
100
AcDbPolyline
 62
7
  6
CONTINUOUS
 90
55
 70
0
 10
285.5678613868
 20
160.5889117053
 10
285.6161009641
 20
160.5526955168
 10
285.6608352451
 20
160.5136224643
 10
285.7020642299
 20
160.4716925478
 10
285.7399848082
 20
160.4267104427
 10
285.7744000903
 20
160.3788714735
 10
285.8047194068
 20
160.3287616146
 10
285.8308394646
 20
160.2763268361
 10
285.8528635568
 20
160.2216211679
 10
285.8705108928
 20
160.1653926734
 10
285.883776446
 20
160.1075462244
 10
285.8926652431
 20
160.048176949
 10
285.8969115736
 20
159.9883182952
 10
285.8964180415
 20
159.927893015
 10
285.8912820429
 20
159.8669783563
 10
285.8815300554
 20
159.8068395102
 10
285.8670008606
 20
159.7473636236
 10
285.8478556769
 20
159.6886635497
 10
285.8246046381
 20
159.6323430387
 10
285.7971306933
 20
159.5785253157
 10
285.7655508933
 20
159.5270871556
 10
285.7307265236
 20
159.4792626336
 10
285.6924015989
 20
159.4352010293
 10
285.6508321044
 20
159.3947530632
 10
285.607647281
 20
159.3587049715
 10
285.5629228765
 20
159.3274915844
 10
285.516583143
 20
159.3006780718
 10
285.4700300777
 20
159.2777461797
 10
285.4232311932
 20
159.2589090791
 10
285.3762189768
 20
159.243953599
 10
285.3304928879
 20
159.2317219723
 10
285.2864647629
 20
159.2222114704
 10
285.2437227653
 20
159.2154248218
 10
285.2025308454
 20
159.2102124459
 10
285.1631229947
 20
159.2064352486
 10
285.1252652216
 20
159.2042323238
 10
285.088519501
 20
159.2028713725
 10
285.0529081473
 20
159.2021634816
 10
285.0184088461
 20
159.2022975641
 10
284.9845166296
 20
159.2031080603
 10
284.9512245388
 20
159.2044919581
 10
284.9185395326
 20
159.2065522695
 10
284.8859775202
 20
159.209432471
 10
284.8533944434
 20
159.2131147812
 10
284.8209343603
 20
159.2176169814
 10
284.7885453537
 20
159.2231358921
 10
284.7561141147
 20
159.2296558078
 10
284.7237539521
 20
159.2371924338
 10
284.6917528757
 20
159.2459897071
 10
284.6600820168
 20
159.2560692491
 10
284.628770244
 20
159.2674094383
 10
284.5981921723
 20
159.2801893468
 10
284.5684726735
 20
159.2944686651
 10
284.5394868757
 20
159.3101877027
 10
284.5112347791
 20
159.3273464595
  0
LINE
  5
4FE
100
AcDbEntity
  8
DRAFT
100
AcDbLine
 62
250
  6
CONTINUOUS
 10
287.5761950617
 20
159.5178749112
 11
287.5590856078
 21
159.5315005573
  0
LWPOLYLINE
  5
4FF
100
AcDbEntity
  8
DRAFT
100
AcDbPolyline
 62
7
  6
CONTINUOUS
 90
22
 70
0
 10
283.087591438
 20
160.3928666581
 10
283.1002581136
 20
160.3826578513
 10
283.1117922308
 20
160.3720337313
 10
283.1221937896
 20
160.3609942981
 10
283.1313728476
 20
160.3494970179
 10
283.1394193473
 20
160.3375844244
 10
283.1466031158
 20
160.3253841195
 10
283.1529337494
 20
160.3128955882
 10
283.1584016518
 20
160.3001193455
 10
283.1632478614
 20
160.2871845382
 10
283.1674977358
 20
160.274102194
 10
283.1711259174
 20
160.2608612852
 10
283.174297372
 20
160.2475578756
 10
283.1770267015
 20
160.2342152799
 10
283.179299304
 20
160.2208101834
 10
283.1812363388
 20
160.2073687057
 10
283.1828607642
 20
160.1939073189
 10
283.184149622
 20
160.1804095508
 10
283.1851551969
 20
160.1668521045
 10
283.1858949171
 20
160.1532272142
 10
283.1863513543
 20
160.1395426456
 10
283.1865245086
 20
160.1257983988
  0
LWPOLYLINE
  5
500
100
AcDbEntity
  8
DRAFT
100
AcDbPolyline
 62
7
  6
CONTINUOUS
 90
13
 70
0
 10
286.8740819221
 20
159.7130782336
 10
286.8603335161
 20
159.7247176741
 10
286.847388591
 20
159.7379010195
 10
286.8352471467
 20
159.7526282697
 10
286.8239392632
 20
159.7690686678
 10
286.8134348606
 20
159.7870529707
 10
286.8036436995
 20
159.8060734493
 10
286.794633871
 20
159.8260292397
 10
286.786337284
 20
159.8470212057
 10
286.7784594257
 20
159.8688442097
 10
286.7709021251
 20
159.8914298723
 10
286.7637635532
 20
159.9148465728
 10
286.7570437099
 20
159.9390943112
  0
LWPOLYLINE
  5
501
100
AcDbEntity
  8
DRAFT
100
AcDbPolyline
 62
7
  6
CONTINUOUS
 90
13
 70
0
 10
282.4141285735
 20
159.481985965
 10
282.4457338091
 20
159.4542307838
 10
282.4802558994
 20
159.4281789637
 10
282.5176948442
 20
159.4038305047
 10
282.5581136223
 20
159.3809654105
 10
282.6014492549
 20
159.3598036775
 10
282.6475128063
 20
159.3410052942
 10
282.6963495579
 20
159.3245502284
 10
282.7479142281
 20
159.3104585124
 10
282.8018820368
 20
159.2994502316
 10
282.8581447237
 20
159.2917654144
 10
282.916810549
 20
159.2871640324
 10
282.9778795126
 20
159.2856460855
  0
LWPOLYLINE
  5
502
100
AcDbEntity
  8
DRAFT
100
AcDbPolyline
 62
7
  6
CONTINUOUS
 90
13
 70
0
 10
282.3990961062
 20
159.4660930475
 10
282.4318061874
 20
159.4373572683
 10
282.4674816371
 20
159.4104088244
 10
282.5061224553
 20
159.3852477159
 10
282.5478047776
 20
159.3616489652
 10
282.5924524683
 20
159.3398375499
 10
282.6398371207
 20
159.3204884025
 10
282.6900042623
 20
159.3035923187
 10
282.7429083654
 20
159.2891585028
 10
282.798184441
 20
159.2778895004
 10
282.8557108258
 20
159.2700194933
 10
282.915609183
 20
159.2653142998
 10
282.9778795126
 20
159.2637739196
  0
LINE
  5
503
100
AcDbEntity
  8
DRAFT
100
AcDbLine
 62
7
  6
CONTINUOUS
 10
283.0950627301
 20
159.8671747874
 11
283.1112879424
 21
159.8524946137
  0
LINE
  5
504
100
AcDbEntity
  8
DRAFT
100
AcDbLine
 62
250
  6
CONTINUOUS
 10
280.0209027777
 20
161.25887257
 11
280.0047956596
 21
161.2736696097
  0
LWPOLYLINE
  5
505
100
AcDbEntity
  8
DRAFT
100
AcDbPolyline
 62
7
  6
CONTINUOUS
 90
16
 70
0
 10
283.0857634196
 20
160.367392461
 10
283.0961763857
 20
160.3576470827
 10
283.1058718555
 20
160.3468509641
 10
283.114849829
 20
160.3350041052
 10
283.123145323
 20
160.3220482089
 10
283.1307233207
 20
160.3080415724
 10
283.1374787712
 20
160.2931590865
 10
283.1433380726
 20
160.2774108541
 10
283.1483748269
 20
160.2607867723
 10
283.1527047885
 20
160.2434314239
 10
283.1563451072
 20
160.2253355625
 10
283.1592786334
 20
160.2065084344
 10
283.1615696727
 20
160.1871223609
 10
283.1632396603
 20
160.1672347826
 10
283.1642671611
 20
160.146788259
 10
283.164652175
 20
160.12578279
  0
LWPOLYLINE
  5
506
100
AcDbEntity
  8
DRAFT
100
AcDbPolyline
 62
7
  6
CONTINUOUS
 90
40
 70
0
 10
285.567874921
 20
161.5415185366
 10
285.5302697955
 20
161.5780598817
 10
285.488598688
 20
161.6113985366
 10
285.4428615987
 20
161.6415345013
 10
285.3925346404
 20
161.6689012682
 10
285.3381417003
 20
161.6930653448
 10
285.2812544392
 20
161.7127262541
 10
285.2217334314
 20
161.7273709778
 10
285.1597181026
 20
161.7375125341
 10
285.0971983917
 20
161.7433894999
 10
285.034277245
 20
161.7451065133
 10
284.9708517161
 20
161.7425589361
 10
284.9086029045
 20
161.7356714301
 10
284.8473510816
 20
161.7242842425
 10
284.7872759759
 20
161.708557126
 10
284.7305978729
 20
161.6888940015
 10
284.6779748627
 20
161.6650882254
 10
284.628748855
 20
161.6373464412
 10
284.5831658652
 20
161.6066925003
 10
284.5414053657
 20
161.5734147603
 10
284.503287884
 20
161.5372248635
 10
284.4685210176
 20
161.4982815884
 10
284.4368433901
 20
161.4565468942
 10
284.4085163778
 20
161.4120588217
 10
284.3840317074
 20
161.3650902704
 10
284.3633942128
 20
161.3151532909
 10
284.34659906
 20
161.2627358328
 10
284.3341234737
 20
161.2095746443
 10
284.3260961988
 20
161.1560121545
 10
284.3223884903
 20
161.1017059342
 10
284.323091338
 20
161.0473654445
 10
284.3281021429
 20
160.9929571942
 10
284.337523504
 20
160.9385146744
 10
284.3517542072
 20
160.8848478192
 10
284.370917117
 20
160.8320747865
 10
284.3948893689
 20
160.7800774184
 10
284.4237011558
 20
160.7293111748
 10
284.4573625422
 20
160.6799278758
 10
284.4958634636
 20
160.6317757014
 10
284.5392039202
 20
160.5848546516
  0
LINE
  5
507
100
AcDbEntity
  8
DRAFT
100
AcDbLine
 62
7
  6
CONTINUOUS
 10
285.6523338696
 20
157.3051548401
 11
285.6304617037
 21
157.327027006
  0
LWPOLYLINE
  5
508
100
AcDbEntity
  8
DRAFT
100
AcDbPolyline
 62
250
  6
CONTINUOUS
 90
7
 70
0
 10
283.6948993447
 20
160.6056730176
 10
283.6792554577
 20
160.6223284406
 10
283.6684768484
 20
160.6312097265
 10
283.6628822374
 20
160.6327001443
 10
283.6625248436
 20
160.6269992108
 10
283.6672042299
 20
160.6141194748
 10
283.6764670818
 20
160.5938982601
  0
LWPOLYLINE
  5
509
100
AcDbEntity
  8
DRAFT
100
AcDbPolyline
 62
7
  6
CONTINUOUS
 90
31
 70
0
 10
285.5835249947
 20
161.5567981581
 10
285.6186365689
 20
161.5167405355
 10
285.6498172058
 20
161.4766882514
 10
285.6770669053
 20
161.4366413058
 10
285.7000628648
 20
161.3963104088
 10
285.719127887
 20
161.3559848502
 10
285.7352303794
 20
161.3165324997
 10
285.748410255
 20
161.2782742235
 10
285.7586276007
 20
161.2408891553
 10
285.7667310856
 20
161.2042825657
 10
285.7728697862
 20
161.1684293189
 10
285.7768946259
 20
161.1333545507
 10
285.7792070437
 20
161.0990389387
 10
285.7798890993
 20
161.0655147296
 10
285.7788587329
 20
161.0327496767
 10
285.7762712039
 20
161.0006277164
 10
285.7721843651
 20
160.9691736513
 10
285.7665403635
 20
160.938362679
 10
285.7593208998
 20
160.9080043283
 10
285.7505014828
 20
160.8779747934
 10
285.7401066037
 20
160.8483978802
 10
285.7281914355
 20
160.8194545363
 10
285.7146330831
 20
160.7911777656
 10
285.6995544417
 20
160.7635345642
 10
285.6833793704
 20
160.7366068683
 10
285.6661117576
 20
160.7104708225
 10
285.6477477149
 20
160.6850502823
 10
285.6286994371
 20
160.6601987502
 10
285.6091043222
 20
160.6358673938
 10
285.5888249721
 20
160.6121050455
 10
285.5678613868
 20
160.5889117053
  0
LWPOLYLINE
  5
50A
100
AcDbEntity
  8
DRAFT
100
AcDbPolyline
 62
7
  6
CONTINUOUS
 90
40
 70
0
 10
284.5064337863
 20
160.58739736
 10
284.4616701099
 20
160.6388562197
 10
284.4224763368
 20
160.691379918
 10
284.3888524672
 20
160.744968455
 10
284.3609373954
 20
160.7999844354
 10
284.338592227
 20
160.8560652545
 10
284.3214002783
 20
160.9121230978
 10
284.309488943
 20
160.9679603421
 10
284.3027308274
 20
161.0237746106
 10
284.3003270671
 20
161.0790709595
 10
284.3021100639
 20
161.133920589
 10
284.308247416
 20
161.1882522989
 10
284.3184430542
 20
161.2413575439
 10
284.332533745
 20
161.293145876
 10
284.3506827219
 20
161.3437077434
 10
284.3730836163
 20
161.3926059446
 10
284.3999528329
 20
161.4400529919
 10
284.431073967
 20
161.4858363731
 10
284.4659914354
 20
161.5288813508
 10
284.5046507614
 20
161.5691011549
 10
284.5471064217
 20
161.6065825556
 10
284.5930662626
 20
161.6405111252
 10
284.642907712
 20
161.6708921054
 10
284.6962533419
 20
161.6977202545
 10
284.7516787147
 20
161.7201654205
 10
284.8090868081
 20
161.7378379589
 10
284.8685746444
 20
161.751127514
 10
284.9290088525
 20
161.7603728666
 10
284.9905536835
 20
161.7656882205
 10
285.0530448863
 20
161.7669593718
 10
285.1148563371
 20
161.7641824894
 10
285.175892416
 20
161.7574845718
 10
285.2362487428
 20
161.7467386204
 10
285.2945860525
 20
161.7315598081
 10
285.3510507766
 20
161.7114431571
 10
285.4054964835
 20
161.6868936451
 10
285.4561446147
 20
161.6590413785
 10
285.5024023172
 20
161.6282630596
 10
285.5448624438
 20
161.5941819861
 10
285.5835249947
 20
161.5567981581
  0
LWPOLYLINE
  5
50B
100
AcDbEntity
  8
DRAFT
100
AcDbPolyline
 62
7
  6
CONTINUOUS
 90
13
 70
0
 10
286.4335077094
 20
159.5401175765
 10
286.4689110039
 20
159.4981771536
 10
286.50705886
 20
159.4592580541
 10
286.5479512777
 20
159.4233602781
 10
286.5917642639
 20
159.3901374178
 10
286.6383218116
 20
159.3599358808
 10
286.6870959004
 20
159.3337948909
 10
286.7382550945
 20
159.3120802989
 10
286.7916308297
 20
159.2944262538
 10
286.8461893924
 20
159.2807744263
 10
286.9015862116
 20
159.2711053732
 10
286.9581658585
 20
159.2654385377
 10
287.0159283329
 20
159.2637739197
  0
LWPOLYLINE
  5
50C
100
AcDbEntity
  8
DRAFT
100
AcDbPolyline
 62
7
  6
CONTINUOUS
 90
13
 70
0
 10
286.4506248671
 20
159.5537335433
 10
286.4851358484
 20
159.5128483935
 10
286.5222934645
 20
159.474942785
 10
286.5620977153
 20
159.440016718
 10
286.6047261377
 20
159.4077400108
 10
286.6500011949
 20
159.3784428451
 10
286.6973902763
 20
159.3531157649
 10
286.7470538348
 20
159.3321208067
 10
286.7988314176
 20
159.315095934
 10
286.8517090557
 20
159.3019455821
 10
286.9053487594
 20
159.2926378959
 10
286.9600885185
 20
159.2872047304
 10
287.0159283329
 20
159.2856460856
  0
LINE
  5
50D
100
AcDbEntity
  8
DRAFT
100
AcDbLine
 62
7
  6
CONTINUOUS
 10
282.9252148928
 20
161.2413996742
 11
282.9068688696
 21
161.2632718401
  0
LINE
  5
50E
100
AcDbEntity
  8
DRAFT
100
AcDbLine
 62
250
  6
CONTINUOUS
 10
286.8805873516
 20
161.2844982237
 11
286.8666164039
 21
161.3013268975
  0
LINE
  5
50F
100
AcDbEntity
  8
DRAFT
100
AcDbLine
 62
250
  6
CONTINUOUS
 10
287.1483528351
 20
159.7348769713
 11
287.1621129642
 21
159.7178743309
  0
LINE
  5
510
100
AcDbEntity
  8
DRAFT
100
AcDbLine
 62
7
  6
CONTINUOUS
 10
286.8030908696
 20
156.1581558401
 11
286.7877670853
 21
156.180028006
  0
LINE
  5
511
100
AcDbEntity
  8
DRAFT
100
AcDbLine
 62
250
  6
CONTINUOUS
 10
286.6168960458
 20
161.6518333464
 11
286.6286718696
 21
161.6334018401
  0
LINE
  5
512
100
AcDbEntity
  8
INTF_1
100
AcDbLine
 62
7
  6
CONTINUOUS
 10
290.2995368696
 20
156.5972618401
 11
289.7646418696
 21
157.4429348401
  0
LINE
  5
513
100
AcDbEntity
  8
DRAFT
100
AcDbLine
 62
7
  6
CONTINUOUS
 10
289.7646414153
 20
157.4429353495
 11
290.2995368696
 21
156.5972618401
  0
LINE
  5
514
100
AcDbEntity
  8
DRAFT
100
AcDbLine
 62
7
  6
CONTINUOUS
 10
289.7831263306
 20
157.4546272077
 11
290.3214090355
 21
156.6035984297
  0
LINE
  5
515
100
AcDbEntity
  8
DRAFT
100
AcDbLine
 62
7
  6
CONTINUOUS
 10
285.2062960409
 20
159.8172988619
 11
285.2175903212
 21
159.7985679445
  0
LINE
  5
516
100
AcDbEntity
  8
DRAFT
100
AcDbLine
 62
7
  6
CONTINUOUS
 10
290.5997340403
 20
157.1288541832
 11
290.2640458403
 21
157.6931983493
  0
LINE
  5
517
100
AcDbEntity
  8
INTF_1
100
AcDbLine
 62
7
  6
CONTINUOUS
 10
290.2828438696
 20
157.7043798401
 11
290.5995408696
 21
157.1719628401
  0
LINE
  5
518
100
AcDbEntity
  8
DRAFT
100
AcDbLine
 62
7
  6
CONTINUOUS
 10
290.5995408696
 20
157.1719628401
 11
290.282843817
 21
157.7043799285
  0
LINE
  5
519
100
AcDbEntity
  8
RACCORDO
100
AcDbLine
 62
250
  6
CONTINUOUS
 10
336.2349104435
 20
180.2828295083
 11
335.6985407532
 21
179.746459818
  0
LWPOLYLINE
  5
51A
100
AcDbEntity
  8
DRAFT
100
AcDbPolyline
 62
7
  6
CONTINUOUS
 90
10
 70
0
 10
287.0159283333
 20
161.3330781923
 10
286.9998565961
 20
161.3323695214
 10
286.9838490201
 20
161.3304124456
 10
286.9679056052
 20
161.327206965
 10
286.9517672827
 20
161.3226515741
 10
286.9356931214
 20
161.3168477784
 10
286.920460327
 20
161.3101000939
 10
286.9063279683
 20
161.3025100259
 10
286.8930369764
 20
161.2939760692
 10
286.8805873516
 20
161.2844982237
  0
LWPOLYLINE
  5
51B
100
AcDbEntity
  8
DRAFT
100
AcDbPolyline
 62
7
  6
CONTINUOUS
 90
25
 70
0
 10
285.0286414302
 20
161.1824929807
 10
285.0090476539
 20
161.1818213319
 10
284.990657047
 20
161.1788103248
 10
284.9734696094
 20
161.1734599593
 10
284.9572607419
 20
161.1655288037
 10
284.9422550438
 20
161.1552582897
 10
284.9291263128
 20
161.1433727127
 10
284.9180377224
 20
161.1299485717
 10
284.9088260992
 20
161.1149093677
 10
284.9016757203
 20
161.098749898
 10
284.8967199128
 20
161.0813678073
 10
284.8938253497
 20
161.062865451
 10
284.8927763266
 20
161.0440446925
 10
284.8932479854
 20
161.024865308
 10
284.8955651843
 20
161.0053675214
 10
284.9004867938
 20
160.9864738671
 10
284.9084362022
 20
160.9680693902
 10
284.9189900211
 20
160.9502690455
 10
284.9316369563
 20
160.9343402326
 10
284.9465478732
 20
160.9203776429
 10
284.9635519064
 20
160.9082865849
 10
284.9816251651
 20
160.8990503833
 10
285.0004263527
 20
160.8929968131
 10
285.0202967658
 20
160.8897980993
 10
285.0412364046
 20
160.8894542419
  0
LWPOLYLINE
  5
51C
100
AcDbEntity
  8
DRAFT
100
AcDbPolyline
 62
7
  6
CONTINUOUS
 90
10
 70
0
 10
287.016673191
 20
161.7582679193
 10
286.9634208665
 20
161.7565606038
 10
286.9124370994
 20
161.7522733839
 10
286.8637218897
 20
161.7454062595
 10
286.8173556912
 20
161.735892392
 10
286.7732580503
 20
161.7237986201
 10
286.731187605
 20
161.7093254597
 10
286.6910639015
 20
161.6925397492
 10
286.6529673937
 20
161.6733746502
 10
286.6168980816
 20
161.6518301627
  0
LWPOLYLINE
  5
51D
100
AcDbEntity
  8
DRAFT
100
AcDbPolyline
 62
7
  6
CONTINUOUS
 90
10
 70
0
 10
287.0166021901
 20
161.7363957987
 10
286.9649978746
 20
161.7347564962
 10
286.9155745269
 20
161.7306235167
 10
286.8683321472
 20
161.7239968603
 10
286.8233450438
 20
161.714819781
 10
286.7805389083
 20
161.7031490248
 10
286.7396908156
 20
161.6891548288
 10
286.7007264574
 20
161.6728939389
 10
286.6637201421
 20
161.6543096094
 10
286.6286718696
 20
161.6334018401
  0
LWPOLYLINE
  5
51E
100
AcDbEntity
  8
DRAFT
100
AcDbPolyline
 62
7
  6
CONTINUOUS
 90
10
 70
0
 10
285.0412364046
 20
160.8894542419
 10
285.0447770029
 20
160.8895188577
 10
285.0482825682
 20
160.8896492991
 10
285.0517531004
 20
160.8898455661
 10
285.0551900332
 20
160.8901072018
 10
285.0585919328
 20
160.8904346632
 10
285.0619544991
 20
160.8908293205
 10
285.0652762985
 20
160.8912916305
 10
285.0685587645
 20
160.8918211364
 10
285.0718018971
 20
160.8924178381
  0
LINE
  5
51F
100
AcDbEntity
  8
DRAFT
100
AcDbLine
 62
250
  6
CONTINUOUS
 10
280.3802167037
 20
160.8781568401
 11
280.4020888696
 21
160.8781568401
  0
LINE
  5
520
100
AcDbEntity
  8
DRAFT
100
AcDbLine
 62
7
  6
CONTINUOUS
 10
278.6496398696
 20
161.1976746742
 11
279.3706276708
 21
161.1976746742
  0
LINE
  5
521
100
AcDbEntity
  8
DRAFT
100
AcDbLine
 62
7
  6
CONTINUOUS
 10
278.6496398696
 20
161.2195468401
 11
279.3999867651
 21
161.2195468401
  0
LINE
  5
522
100
AcDbEntity
  8
DRAFT
100
AcDbLine
 62
7
  6
CONTINUOUS
 10
282.9252148928
 20
161.2413996742
 11
283.4932958696
 21
161.2413996742
  0
LINE
  5
523
100
AcDbEntity
  8
DRAFT
100
AcDbLine
 62
7
  6
CONTINUOUS
 10
282.9068688696
 20
161.2632718401
 11
283.4932958696
 21
161.2632718401
  0
LINE
  5
524
100
AcDbEntity
  8
DRAFT
100
AcDbLine
 62
250
  6
CONTINUOUS
 10
280.0917720347
 20
161.4407708401
 11
280.0698998688
 21
161.4407708401
  0
LINE
  5
525
100
AcDbEntity
  8
DRAFT
100
AcDbLine
 62
250
  6
CONTINUOUS
 10
283.7151680355
 20
161.4632718401
 11
283.6932958696
 21
161.4632718401
  0
LINE
  5
526
100
AcDbEntity
  8
DRAFT
100
AcDbLine
 62
250
  6
CONTINUOUS
 10
278.3807677037
 20
161.4665468401
 11
278.4026398696
 21
161.4665468401
  0
LINE
  5
527
100
AcDbEntity
  8
DRAFT
100
AcDbLine
 62
250
  6
CONTINUOUS
 10
280.0917720355
 20
161.4938318401
 11
280.0698998696
 21
161.4938318401
  0
LINE
  5
528
100
AcDbEntity
  8
DRAFT
100
AcDbLine
 62
250
  6
CONTINUOUS
 10
278.3807677037
 20
161.4938318401
 11
278.4026398696
 21
161.4938318401
  0
LINE
  5
529
100
AcDbEntity
  8
DRAFT
100
AcDbLine
 62
250
  6
CONTINUOUS
 10
281.5482580355
 20
161.5363968401
 11
281.5263858696
 21
161.5363968401
  0
LINE
  5
52A
100
AcDbEntity
  8
DRAFT
100
AcDbLine
 62
250
  6
CONTINUOUS
 10
283.7151680355
 20
161.5638318401
 11
283.6932958696
 21
161.5638318401
  0
LINE
  5
52B
100
AcDbEntity
  8
DRAFT
100
AcDbLine
 62
7
  6
CONTINUOUS
 10
279.8228998696
 20
161.7408318401
 11
278.6496398696
 21
161.7408318401
  0
LINE
  5
52C
100
AcDbEntity
  8
DRAFT
100
AcDbLine
 62
7
  6
CONTINUOUS
 10
277.6498758696
 20
161.7615737507
 11
277.5643738696
 21
161.7615738401
  0
LINE
  5
52D
100
AcDbEntity
  8
DRAFT
100
AcDbLine
 62
7
  6
CONTINUOUS
 10
276.0818148696
 20
161.7615738259
 11
275.9834934891
 21
161.7615738401
  0
LINE
  5
52E
100
AcDbEntity
  8
DRAFT
100
AcDbLine
 62
7
  6
CONTINUOUS
 10
279.8228998696
 20
161.762704006
 11
278.6496398696
 21
161.762704006
  0
LINE
  5
52F
100
AcDbEntity
  8
DRAFT
100
AcDbLine
 62
7
  6
CONTINUOUS
 10
283.4932958696
 20
161.7638318401
 11
282.6559208696
 21
161.7638318401
  0
LINE
  5
530
100
AcDbEntity
  8
DRAFT
100
AcDbLine
 62
7
  6
CONTINUOUS
 10
281.2913858696
 20
161.7713968401
 11
281.2475408696
 21
161.7713968401
  0
LINE
  5
531
100
AcDbEntity
  8
DRAFT
100
AcDbLine
 62
7
  6
CONTINUOUS
 10
277.6498758696
 20
161.7834459166
 11
277.5643738696
 21
161.783446006
  0
LINE
  5
532
100
AcDbEntity
  8
DRAFT
100
AcDbLine
 62
7
  6
CONTINUOUS
 10
276.0818148696
 20
161.7834459918
 11
275.9835084872
 21
161.783446006
  0
LINE
  5
533
100
AcDbEntity
  8
DRAFT
100
AcDbLine
 62
7
  6
CONTINUOUS
 10
283.4932958696
 20
161.785704006
 11
282.6559208696
 21
161.785704006
  0
LINE
  5
534
100
AcDbEntity
  8
DRAFT
100
AcDbLine
 62
7
  6
CONTINUOUS
 10
281.2913858696
 20
161.793269006
 11
281.2475408696
 21
161.793269006
  0
LINE
  5
535
100
AcDbEntity
  8
RACCORDO
100
AcDbLine
 62
7
  6
CONTINUOUS
 10
293.9683804602
 20
163.3265738401
 11
269.566097279
 21
163.3265738401
  0
LINE
  5
536
100
AcDbEntity
  8
RACCORDO
100
AcDbLine
 62
7
  6
CONTINUOUS
 10
293.990252626
 20
163.348446006
 11
269.5442251131
 21
163.348446006
  0
LINE
  5
537
100
AcDbEntity
  8
DRAFT
100
AcDbLine
 62
7
  6
CONTINUOUS
 10
280.3802167037
 20
161.0146882314
 11
280.4020888696
 21
161.0146665177
  0
LWPOLYLINE
  5
538
100
AcDbEntity
  8
DRAFT
100
AcDbPolyline
 62
7
  6
CONTINUOUS
 90
28
 70
0
 10
285.041437319
 20
160.8675829988
 10
285.0209729141
 20
160.8677478695
 10
285.0011899376
 20
160.870437755
 10
284.9820883894
 20
160.8756526551
 10
284.9633445766
 20
160.8835974411
 10
284.9452821921
 20
160.8940672417
 10
284.9288723149
 20
160.9064474439
 10
284.9142368071
 20
160.9207821349
 10
284.9012538066
 20
160.9370272275
 10
284.8905288056
 20
160.9544358468
 10
284.8823394172
 20
160.973160561
 10
284.8764080282
 20
160.9930488019
 10
284.8725072917
 20
161.0128959905
 10
284.8706229477
 20
161.0324187659
 10
284.8707692562
 20
161.0519004891
 10
284.87276165
 20
161.0709866639
 10
284.8765186322
 20
161.0898591894
 10
284.8821216997
 20
161.1083361664
 10
284.8896307756
 20
161.1255174016
 10
284.8991664552
 20
161.1412282751
 10
284.9106081433
 20
161.1556434068
 10
284.9236539775
 20
161.1683864626
 10
284.9384383538
 20
161.1795028627
 10
284.9548268761
 20
161.1889471869
 10
284.972114494
 20
161.1962068411
 10
284.9900661907
 20
161.2011109604
 10
285.0089169828
 20
161.2038304095
 10
285.0286668706
 20
161.2043651886
  0
LWPOLYLINE
  5
539
100
AcDbEntity
  8
DRAFT
100
AcDbPolyline
 62
7
  6
CONTINUOUS
 90
28
 70
0
 10
285.0286668706
 20
161.2043651886
 10
285.0481089388
 20
161.2041421728
 10
285.0669492434
 20
161.2021266711
 10
285.0851877843
 20
161.1983186837
 10
285.1030686107
 20
161.1927223689
 10
285.1203476736
 20
161.1853335684
 10
285.1362928253
 20
161.1761398065
 10
285.1508569468
 20
161.1650537946
 10
285.1640871572
 20
161.1521628215
 10
285.1753926672
 20
161.137716278
 10
285.1846070259
 20
161.1214484544
 10
285.1918966842
 20
161.1036250604
 10
285.1971702051
 20
161.0852926167
 10
285.2002525087
 20
161.0666433693
 10
285.201318675
 20
161.0474850721
 10
285.2008025066
 20
161.0282875071
 10
285.1989506597
 20
161.0088738583
 10
285.1955164782
 20
160.9894209417
 10
285.1901937966
 20
160.9709289876
 10
285.182764761
 20
160.953532735
 10
285.1734472252
 20
160.9370974449
 10
285.1625885854
 20
160.9222191311
 10
285.1499218919
 20
160.9089433391
 10
285.1357140942
 20
160.8972245234
 10
285.1211134367
 20
160.8875220613
 10
285.1065026674
 20
160.8799890786
 10
285.0914990383
 20
160.8744724495
 10
285.0761025493
 20
160.8709721741
  0
LWPOLYLINE
  5
53A
100
AcDbEntity
  8
DRAFT
100
AcDbPolyline
 62
7
  6
CONTINUOUS
 90
10
 70
0
 10
287.0159283333
 20
161.3549503581
 10
287.0328012149
 20
161.3542924887
 10
287.0497005823
 20
161.3522767551
 10
287.0666264356
 20
161.3489031574
 10
287.0838624174
 20
161.3440751856
 10
287.1011248851
 20
161.3378893496
 10
287.1175629103
 20
161.3306351796
 10
287.1328928501
 20
161.3224091858
 10
287.1473983474
 20
161.3131148579
 10
287.1610794022
 20
161.3027521961
  0
LINE
  5
53B
100
AcDbEntity
  8
DRAFT
100
AcDbLine
 62
7
  6
CONTINUOUS
 10
284.5064337863
 20
160.58739736
 11
284.5392039202
 21
160.5848546516
  0
LINE
  5
53C
100
AcDbEntity
  8
DRAFT
100
AcDbLine
 62
250
  6
CONTINUOUS
 10
282.4378971037
 20
161.6049790182
 11
282.4593898516
 21
161.600922736
  0
LINE
  5
53D
100
AcDbEntity
  8
DRAFT
100
AcDbLine
 62
250
  6
CONTINUOUS
 10
287.2440078012
 20
159.9127863446
 11
287.2652290089
 21
159.9074709755
  0
LINE
  5
53E
100
AcDbEntity
  8
DRAFT
100
AcDbLine
 62
250
  6
CONTINUOUS
 10
286.7854360837
 20
161.105746073
 11
286.7642861965
 21
161.1113204709
  0
LINE
  5
53F
100
AcDbEntity
  8
DRAFT
100
AcDbLine
 62
250
  6
CONTINUOUS
 10
290.9086868611
 20
157.7024488308
 11
290.9275842907
 21
157.6914361655
  0
LINE
  5
540
100
AcDbEntity
  8
DRAFT
100
AcDbLine
 62
250
  6
CONTINUOUS
 10
291.4190770159
 20
157.4428050711
 11
291.400599311
 21
157.4545083212
  0
LINE
  5
541
100
AcDbEntity
  8
DRAFT
100
AcDbLine
 62
250
  6
CONTINUOUS
 10
286.490259182
 20
161.5450152271
 11
286.5086454798
 21
161.532709397
  0
LWPOLYLINE
  5
542
100
AcDbEntity
  8
DRAFT
100
AcDbPolyline
 62
7
  6
CONTINUOUS
 90
10
 70
0
 10
287.4268677213
 20
161.6163760238
 10
287.3926773705
 20
161.639324338
 10
287.3555726526
 20
161.6600765392
 10
287.3155535677
 20
161.6786326275
 10
287.2725325292
 20
161.6952687136
 10
287.2265971238
 20
161.7097086867
 10
287.1780101112
 20
161.7211242149
 10
287.126859078
 20
161.7292391877
 10
287.0730564377
 20
161.7343297156
 10
287.0166021901
 20
161.7363957987
  0
LWPOLYLINE
  5
543
100
AcDbEntity
  8
DRAFT
100
AcDbPolyline
 62
7
  6
CONTINUOUS
 90
10
 70
0
 10
287.4404912032
 20
161.633515231
 10
287.4050462381
 20
161.6574064173
 10
287.3666146528
 20
161.6790023603
 10
287.3251964473
 20
161.6983030598
 10
287.2806914363
 20
161.7155914501
 10
287.2331998052
 20
161.730584597
 10
287.1830221096
 20
161.7424336977
 10
287.1302585346
 20
161.7508558178
 10
287.0748088951
 20
161.7561338917
 10
287.016673191
 20
161.7582679193
  0
LWPOLYLINE
  5
544
100
AcDbEntity
  8
DRAFT
100
AcDbPolyline
 62
7
  6
CONTINUOUS
 90
10
 70
0
 10
287.1473964862
 20
161.2856854235
 10
287.1349560203
 20
161.2950589851
 10
287.1217836331
 20
161.3034696162
 10
287.1078793246
 20
161.3109173166
 10
287.0929895687
 20
161.3174874116
 10
287.0773678915
 20
161.323094576
 10
287.0617748715
 20
161.3274828339
 10
287.0464640349
 20
161.3305668599
 10
287.0311818555
 20
161.3324319794
 10
287.0159283333
 20
161.3330781923
  0
LWPOLYLINE
  5
545
100
AcDbEntity
  8
DRAFT
100
AcDbPolyline
 62
7
  6
CONTINUOUS
 90
13
 70
0
 10
287.1610794022
 20
161.3027521961
 10
287.1734812009
 20
161.291398711
 10
287.1851842433
 20
161.2788178611
 10
287.1961885294
 20
161.2650096464
 10
287.2064544528
 20
161.2498771055
 10
287.21602162
 20
161.2335171998
 10
287.2250088502
 20
161.2162208137
 10
287.2333826547
 20
161.1980174214
 10
287.2411765223
 20
161.1788775489
 10
287.2486097388
 20
161.1590036585
 10
287.2557553995
 20
161.1384632378
 10
287.2625404091
 20
161.1171887993
 10
287.2689647675
 20
161.0951803431
  0
LINE
  5
546
100
AcDbEntity
  8
RACCORDO
100
AcDbLine
 62
250
  6
CONTINUOUS
 10
293.990252626
 20
154.3047016742
 11
293.9683804602
 21
154.3265738401
  0
LINE
  5
547
100
AcDbEntity
  8
RACCORDO
100
AcDbLine
 62
250
  6
CONTINUOUS
 10
294.2891110355
 20
154.6035600836
 11
294.2672388696
 21
154.6254322495
  0
LINE
  5
548
100
AcDbEntity
  8
RACCORDO
100
AcDbLine
 62
250
  6
CONTINUOUS
 10
339.2234945378
 20
177.2942454141
 11
338.6871248475
 21
176.7578757237
  0
LINE
  5
549
100
AcDbEntity
  8
RACCORDO
100
AcDbLine
 62
250
  6
CONTINUOUS
 10
337.7292024907
 20
125.3703181719
 11
337.1928328003
 21
125.9066878622
  0
LINE
  5
54A
100
AcDbEntity
  8
RACCORDO
100
AcDbLine
 62
250
  6
CONTINUOUS
 10
339.2234945378
 20
126.864610219
 11
338.6871248475
 21
127.4009799093
  0
LINE
  5
54B
100
AcDbEntity
  8
RACCORDO
100
AcDbLine
 62
7
  6
CONTINUOUS
 10
325.0973528917
 20
150.9066878622
 11
325.1054721975
 21
150.915029287
  0
LWPOLYLINE
  5
54C
100
AcDbEntity
  8
RACCORDO
100
AcDbPolyline
 62
7
  6
CONTINUOUS
 90
3
 70
0
 10
326.1534186971
 20
151.9625001521
 10
326.4773880084
 20
152.287598982
 10
326.5916449388
 20
152.4009799093
  0
LINE
  5
54D
100
AcDbEntity
  8
RACCORDO
100
AcDbLine
 62
7
  6
CONTINUOUS
 10
324.5609832013
 20
150.3703181719
 11
325.0973528917
 21
150.9066878622
  0
LINE
  5
54E
100
AcDbEntity
  8
RACCORDO
100
AcDbLine
 62
7
  6
CONTINUOUS
 10
325.2084658924
 20
151.0178008629
 11
325.6937432354
 21
151.5030782059
  0
LINE
  5
54F
100
AcDbEntity
  8
RACCORDO
100
AcDbLine
 62
7
  6
CONTINUOUS
 10
325.6937432354
 20
151.5030782059
 11
326.1534186971
 21
151.9625001521
  0
LWPOLYLINE
  5
550
100
AcDbEntity
  8
RACCORDO
100
AcDbPolyline
 62
7
  6
CONTINUOUS
 90
3
 70
0
 10
325.1054721975
 20
150.915029287
 10
325.1341902423
 20
150.9435252128
 10
325.2084658924
 20
151.0178008629
  0
LINE
  5
551
100
AcDbEntity
  8
RACCORDO
100
AcDbLine
 62
250
  6
CONTINUOUS
 10
226.3416449388
 20
176.7578757237
 11
224.8473528917
 21
176.7578757237
  0
LINE
  5
552
100
AcDbEntity
  8
RACCORDO
100
AcDbLine
 62
250
  6
CONTINUOUS
 10
337.1928328003
 20
176.7578757237
 11
338.6871248475
 21
176.7578757237
  0
LINE
  5
553
100
AcDbEntity
  8
RACCORDO
100
AcDbLine
 62
250
  6
CONTINUOUS
 10
335.6985407532
 20
178.2521677709
 11
227.835936986
 21
178.2521677709
  0
LWPOLYLINE
  5
554
100
AcDbEntity
  8
RACCORDO
100
AcDbPolyline
 62
250
  6
CONTINUOUS
 90
31
 70
0
 10
227.835936986
 20
179.746459818
 10
227.6773733131
 20
179.7416669003
 10
227.5203785208
 20
179.7286177354
 10
227.3653704199
 20
179.7075214403
 10
227.2131209071
 20
179.6786881256
 10
227.0636236423
 20
179.6423195282
 10
226.9161392267
 20
179.598316845
 10
226.7706787737
 20
179.5466442981
 10
226.6280201304
 20
179.4875376911
 10
226.488602932
 20
179.4211732918
 10
226.3528174887
 20
179.3477415455
 10
226.2209982207
 20
179.2674290537
 10
226.0934838726
 20
179.1804414965
 10
225.970615126
 20
179.0870115812
 10
225.8527134428
 20
178.9873849467
 10
225.7400739626
 20
178.8818075234
 10
225.6329703306
 20
178.7705254613
 10
225.5317195553
 20
178.6538585761
 10
225.4366513211
 20
178.5321929937
 10
225.3482170641
 20
178.4061711089
 10
225.2664020249
 20
178.2758400464
 10
225.1909327007
 20
178.1406365173
 10
225.1220113143
 20
178.0005712124
 10
225.0601144949
 20
177.8562203206
 10
225.0055135304
 20
177.7078130396
 10
224.9584651298
 20
177.5555077993
 10
224.9193396854
 20
177.3998725238
 10
224.888495973
 20
177.2417985961
 10
224.8661329966
 20
177.0818867936
 10
224.8523737621
 20
176.9204252043
 10
224.8473528917
 20
176.7578757237
  0
LWPOLYLINE
  5
555
100
AcDbEntity
  8
RACCORDO
100
AcDbPolyline
 62
250
  6
CONTINUOUS
 90
31
 70
0
 10
227.835936986
 20
178.2521677709
 10
227.7560314037
 20
178.2498742188
 10
227.6773304343
 20
178.2436576842
 10
227.5998340777
 20
178.2335181671
 10
227.5235358058
 20
178.2194124465
 10
227.4484421468
 20
178.2013837433
 10
227.3745726848
 20
178.1795617206
 10
227.3017349436
 20
178.1539094699
 10
227.2301213994
 20
178.1244638996
 10
227.1603290658
 20
178.0914653984
 10
227.0923846193
 20
178.0548890546
 10
227.0262613834
 20
178.0147597799
 10
226.9624763419
 20
177.9713926978
 10
226.9010484292
 20
177.9247647662
 10
226.8419587108
 20
177.8748990271
 10
226.7856673671
 20
177.8221797308
 10
226.7321849808
 20
177.7665674865
 10
226.681500969
 20
177.708101685
 10
226.6340437637
 20
177.6472847482
 10
226.5899079796
 20
177.5842717844
 10
226.5489990019
 20
177.5189076854
 10
226.5114614178
 20
177.451229549
 10
226.4771933723
 20
177.3811001921
 10
226.4462967205
 20
177.3086567978
 10
226.4192216139
 20
177.234348013
 10
226.3959802804
 20
177.1580398189
 10
226.3765604923
 20
177.0798662343
 10
226.3613757172
 20
177.0006779622
 10
226.3505637779
 20
176.9207585702
 10
226.3439868518
 20
176.8398244907
 10
226.3416449388
 20
176.7578757237
  0
LINE
  5
556
100
AcDbEntity
  8
RACCORDO
100
AcDbLine
 62
250
  6
CONTINUOUS
 10
335.6985407532
 20
179.746459818
 11
227.835936986
 21
179.746459818
  0
LINE
  5
557
100
AcDbEntity
  8
RACCORDO
100
AcDbLine
 62
7
  6
CONTINUOUS
 10
227.2995672956
 20
180.2828295083
 11
336.2349104435
 21
180.2828295083
  0
LINE
  5
558
100
AcDbEntity
  8
RACCORDO
100
AcDbLine
 62
7
  6
CONTINUOUS
 10
227.2558229639
 20
180.3265738401
 11
336.2786547753
 21
180.3265738401
  0
LINE
  5
559
100
AcDbEntity
  8
RACCORDO
100
AcDbLine
 62
250
  6
CONTINUOUS
 10
328.678285992
 20
125.6765284942
 11
328.81796907
 21
125.3265738401
  0
LINE
  5
55A
100
AcDbEntity
  8
DRAFT
100
AcDbLine
 62
7
  6
CONTINUOUS
 10
329.1997784848
 20
125.3703181719
 11
329.0758097531
 21
125.6809029274
  0
LWPOLYLINE
  5
55B
100
AcDbEntity
  8
RACCORDO
100
AcDbPolyline
 62
250
  6
CONTINUOUS
 90
25
 70
0
 10
325.0973528917
 20
127.4009799093
 10
325.1012602435
 20
127.3037176759
 10
325.1114880964
 20
127.2068679173
 10
325.1279930757
 20
127.110841359
 10
325.1507051862
 20
127.0160452355
 10
325.1795281091
 20
126.9228815632
 10
325.2143396107
 20
126.8317454352
 10
325.2549920604
 20
126.7430233466
 10
325.3013130574
 20
126.6570915546
 10
325.3531061614
 20
126.5743144826
 10
325.410151726
 20
126.4950431756
 10
325.4722078291
 20
126.419613812
 10
325.5390112998
 20
126.3483462771
 10
325.6102788344
 20
126.2815428059
 10
325.6857081977
 20
126.2194867022
 10
325.7649795047
 20
126.1624411369
 10
325.8477565773
 20
126.1106480319
 10
325.9336883702
 20
126.0643270339
 10
326.0224104596
 20
126.0236745833
 10
326.1135465883
 20
125.9888630811
 10
326.2067102614
 20
125.9600401577
 10
326.3015063857
 20
125.9373280468
 10
326.3975329449
 20
125.9208230672
 10
326.4943827044
 20
125.910595214
 10
326.5916449388
 20
125.9066878622
  0
LINE
  5
55C
100
AcDbEntity
  8
RACCORDO
100
AcDbLine
 62
7
  6
CONTINUOUS
 10
324.5172388696
 20
126.8208658872
 11
324.5172388696
 21
150.3265738401
  0
LINE
  5
55D
100
AcDbEntity
  8
RACCORDO
100
AcDbLine
 62
7
  6
CONTINUOUS
 10
324.5609832013
 20
126.864610219
 11
324.5609832013
 21
150.3703181719
  0
LINE
  5
55E
100
AcDbEntity
  8
RACCORDO
100
AcDbLine
 62
250
  6
CONTINUOUS
 10
325.0973528917
 20
150.9066878622
 11
325.0973528917
 21
127.4009799093
  0
LINE
  5
55F
100
AcDbEntity
  8
0
100
AcDbLine
 62
250
  6
CONTINUOUS
 10
326.3172388696
 20
113.1265738401
 11
326.3172388696
 21
113.6265738401
  0
LINE
  5
560
100
AcDbEntity
  8
RACCORDO
100
AcDbLine
 62
250
  6
CONTINUOUS
 10
326.5916449388
 20
152.4009799093
 11
326.5916449388
 21
125.9066878622
  0
LINE
  5
561
100
AcDbEntity
  8
RACCORDO
100
AcDbLine
 62
250
  6
CONTINUOUS
 10
324.5609832013
 20
126.864610219
 11
325.0973528917
 21
127.4009799093
  0
LINE
  5
562
100
AcDbEntity
  8
0
100
AcDbLine
 62
7
  6
CONTINUOUS
 10
326.8172388696
 20
125.6809029274
 11
326.8172388696
 21
114.1265738401
  0
LINE
  5
563
100
AcDbEntity
  8
0
100
AcDbLine
 62
7
  6
CONTINUOUS
 10
327.3172388696
 20
125.6809029274
 11
327.3172388696
 21
114.1265738401
  0
LINE
  5
564
100
AcDbEntity
  8
0
100
AcDbLine
 62
7
  6
CONTINUOUS
 10
330.7672388696
 20
156.971987
 11
330.7672388696
 21
151.6811606802
  0
LINE
  5
565
100
AcDbEntity
  8
RACCORDO
100
AcDbLine
 62
250
  6
CONTINUOUS
 10
326.0552752485
 20
125.3703181719
 11
326.5916449388
 21
125.9066878622
  0
LINE
  5
566
100
AcDbEntity
  8
RACCORDO
100
AcDbLine
 62
250
  6
CONTINUOUS
 10
327.716097279
 20
125.6765284942
 11
327.6723529472
 21
125.6327841624
  0
LINE
  5
567
100
AcDbEntity
  8
0
100
AcDbLine
 62
7
  6
CONTINUOUS
 10
331.7672388696
 20
151.6811606802
 11
331.7672388696
 21
156.971987
  0
LINE
  5
568
100
AcDbEntity
  8
DRAFT
100
AcDbLine
 62
7
  6
CONTINUOUS
 10
326.7346992543
 20
125.3703181719
 11
326.8172388696
 21
125.5771085929
  0
LWPOLYLINE
  5
569
100
AcDbEntity
  8
RACCORDO
100
AcDbPolyline
 62
250
  6
CONTINUOUS
 90
31
 70
0
 10
338.6871248475
 20
176.7578757237
 10
338.6823319298
 20
176.9164393966
 10
338.6692827649
 20
177.0734341889
 10
338.6481864697
 20
177.2284422898
 10
338.6193531551
 20
177.3806918025
 10
338.5829845577
 20
177.5301890674
 10
338.5389818745
 20
177.6776734829
 10
338.4873093276
 20
177.8231339359
 10
338.4282027206
 20
177.9657925793
 10
338.3618383213
 20
178.1052097777
 10
338.288406575
 20
178.240995221
 10
338.2080940831
 20
178.372814489
 10
338.121106526
 20
178.500328837
 10
338.0276766107
 20
178.6231975837
 10
337.9280499762
 20
178.7410992669
 10
337.8224725529
 20
178.8537387471
 10
337.7111904908
 20
178.9608423791
 10
337.5945236056
 20
179.0620931544
 10
337.4728580232
 20
179.1571613886
 10
337.3468361384
 20
179.2455956456
 10
337.2165050759
 20
179.3274106848
 10
337.0813015468
 20
179.4028800089
 10
336.9412362419
 20
179.4718013954
 10
336.7968853501
 20
179.5336982148
 10
336.6484780691
 20
179.5882991793
 10
336.4961728288
 20
179.6353475799
 10
336.3405375533
 20
179.6744730242
 10
336.1824636256
 20
179.7053167366
 10
336.0225518231
 20
179.727679713
 10
335.8610902338
 20
179.7414389476
 10
335.6985407532
 20
179.746459818
  0
LWPOLYLINE
  5
56A
100
AcDbEntity
  8
RACCORDO
100
AcDbPolyline
 62
250
  6
CONTINUOUS
 90
31
 70
0
 10
337.1928328003
 20
176.7578757237
 10
337.1905392483
 20
176.837781306
 10
337.1843227137
 20
176.9164822754
 10
337.1741831966
 20
176.993978632
 10
337.160077476
 20
177.0702769038
 10
337.1420487728
 20
177.1453705629
 10
337.1202267501
 20
177.2192400249
 10
337.0945744994
 20
177.2920777661
 10
337.0651289291
 20
177.3636913103
 10
337.0321304279
 20
177.4334836438
 10
336.9955540841
 20
177.5014280903
 10
336.9554248094
 20
177.5675513262
 10
336.9120577273
 20
177.6313363678
 10
336.8654297956
 20
177.6927642805
 10
336.8155640566
 20
177.7518539988
 10
336.7628447603
 20
177.8081453426
 10
336.707232516
 20
177.8616277289
 10
336.6487667144
 20
177.9123117406
 10
336.5879497777
 20
177.959768946
 10
336.5249368139
 20
178.0039047301
 10
336.4595727149
 20
178.0448137078
 10
336.3918945785
 20
178.0823512919
 10
336.3217652216
 20
178.1166193373
 10
336.2493218273
 20
178.1475159892
 10
336.1750130425
 20
178.1745910958
 10
336.0987048484
 20
178.1978324292
 10
336.0205312638
 20
178.2172522174
 10
335.9413429917
 20
178.2324369925
 10
335.8614235997
 20
178.2432489317
 10
335.7804895202
 20
178.2498258579
 10
335.6985407532
 20
178.2521677709
  0
LINE
  5
56B
100
AcDbEntity
  8
RACCORDO
100
AcDbLine
 62
250
  6
CONTINUOUS
 10
335.6985407532
 20
178.2521677709
 11
335.6985407532
 21
179.746459818
  0
LINE
  5
56C
100
AcDbEntity
  8
RACCORDO
100
AcDbLine
 62
250
  6
CONTINUOUS
 10
337.1928328003
 20
125.9066878622
 11
337.1928328003
 21
176.7578757237
  0
LINE
  5
56D
100
AcDbEntity
  8
RACCORDO
100
AcDbLine
 62
250
  6
CONTINUOUS
 10
338.6871248475
 20
127.4009799093
 11
338.6871248475
 21
176.7578757237
  0
LINE
  5
56E
100
AcDbEntity
  8
RACCORDO
100
AcDbLine
 62
7
  6
CONTINUOUS
 10
339.2234945378
 20
177.2942454141
 11
339.2234945378
 21
126.864610219
  0
LINE
  5
56F
100
AcDbEntity
  8
RACCORDO
100
AcDbLine
 62
7
  6
CONTINUOUS
 10
339.2672388696
 20
126.8208658872
 11
339.2672388696
 21
177.3379897458
  0
ARC
  5
570
100
AcDbEntity
  8
0
100
AcDbCircle
 62
7
  6
CONTINUOUS
 10
237.2172388696
 20
114.1265738401
 40
1.0
100
AcDbArc
 50
180.0
 51
270.0
  0
ARC
  5
571
100
AcDbEntity
  8
0
100
AcDbCircle
 62
7
  6
CONTINUOUS
 10
237.2172388696
 20
114.1265738401
 40
0.5
100
AcDbArc
 50
180.0
 51
270.0
  0
CIRCLE
  5
572
100
AcDbEntity
  8
RACCORDO
100
AcDbCircle
 62
250
  6
CONTINUOUS
 10
232.2672388696
 20
154.3265738401
 40
3.0328427125
  0
CIRCLE
  5
573
100
AcDbEntity
  8
RACCORDO
100
AcDbCircle
 62
7
  6
CONTINUOUS
 10
232.2672388696
 20
154.3265738401
 40
2.75
  0
ARC
  5
574
100
AcDbEntity
  8
0
100
AcDbCircle
 62
7
  6
CONTINUOUS
 10
232.2672388696
 20
154.3265738401
 40
2.6922501345
100
AcDbArc
 50
280.7030111662
 51
79.2969888338
  0
ARC
  5
575
100
AcDbEntity
  8
0
100
AcDbCircle
 62
7
  6
CONTINUOUS
 10
232.2672388696
 20
154.3265738401
 40
2.6922501345
100
AcDbArc
 50
100.7030111662
 51
259.2969888338
  0
ARC
  5
576
100
AcDbEntity
  8
0
100
AcDbCircle
 62
7
  6
CONTINUOUS
 10
232.2672388696
 20
154.3265738401
 40
2.2520008006
100
AcDbArc
 50
257.1720135841
 51
282.8279864159
  0
ARC
  5
577
100
AcDbEntity
  8
0
100
AcDbCircle
 62
7
  6
CONTINUOUS
 10
232.2672388696
 20
154.3265738401
 40
2.2520008006
100
AcDbArc
 50
77.1720135841
 51
102.8279864159
  0
ARC
  5
578
100
AcDbEntity
  8
DRAFT
100
AcDbCircle
 62
7
  6
CONTINUOUS
 10
275.5493598696
 20
155.9765738401
 40
0.2500005745
100
AcDbArc
 50
201.0260179566
 51
270.0
  0
ARC
  5
579
100
AcDbEntity
  8
INTF_1
100
AcDbCircle
 62
7
  6
CONTINUOUS
 10
275.5493598696
 20
155.9765738401
 40
0.2500005745
100
AcDbArc
 50
201.0259765252
 51
270.0
  0
ARC
  5
57A
100
AcDbEntity
  8
DRAFT
100
AcDbCircle
 62
7
  6
CONTINUOUS
 10
275.6420048696
 20
155.9765738401
 40
0.250000369
100
AcDbArc
 50
270.0984419894
 51
21.8216268555
  0
ARC
  5
57B
100
AcDbEntity
  8
INTF_1
100
AcDbCircle
 62
7
  6
CONTINUOUS
 10
275.6420048696
 20
155.9765738401
 40
0.250000369
100
AcDbArc
 50
270.3387341217
 51
21.8214543882
  0
ARC
  5
57C
100
AcDbEntity
  8
DRAFT
100
AcDbCircle
 62
7
  6
CONTINUOUS
 10
271.9940398696
 20
155.9765738401
 40
0.25
100
AcDbArc
 50
180.0
 51
270.0
  0
ARC
  5
57D
100
AcDbEntity
  8
DRAFT
100
AcDbCircle
 62
7
  6
CONTINUOUS
 10
272.0504518696
 20
155.9765738401
 40
0.25
100
AcDbArc
 50
270.0
 51
360.0
  0
ARC
  5
57E
100
AcDbEntity
  8
DRAFT
100
AcDbCircle
 62
7
  6
CONTINUOUS
 10
272.8288058696
 20
155.9765738401
 40
0.25
100
AcDbArc
 50
270.0
 51
345.8470580139
  0
ARC
  5
57F
100
AcDbEntity
  8
DRAFT
100
AcDbCircle
 62
7
  6
CONTINUOUS
 10
273.4728248696
 20
155.9765738401
 40
0.25
100
AcDbArc
 50
180.0
 51
270.0
  0
ARC
  5
580
100
AcDbEntity
  8
DRAFT
100
AcDbCircle
 62
7
  6
CONTINUOUS
 10
273.5292368696
 20
155.9765738401
 40
0.25
100
AcDbArc
 50
270.0
 51
360.0
  0
ARC
  5
581
100
AcDbEntity
  8
DRAFT
100
AcDbCircle
 62
7
  6
CONTINUOUS
 10
274.2590298696
 20
155.9765738401
 40
0.25
100
AcDbArc
 50
270.0
 51
340.0306806411
  0
ARC
  5
582
100
AcDbEntity
  8
DRAFT
100
AcDbCircle
 62
7
  6
CONTINUOUS
 10
276.3358268696
 20
155.9765738401
 40
0.25
100
AcDbArc
 50
180.0
 51
270.0
  0
ARC
  5
583
100
AcDbEntity
  8
INTF_1
100
AcDbCircle
 62
7
  6
CONTINUOUS
 10
274.2590298696
 20
155.9765738401
 40
0.25
100
AcDbArc
 50
270.0
 51
340.0307368454
  0
ARC
  5
584
100
AcDbEntity
  8
INTF_1
100
AcDbCircle
 62
7
  6
CONTINUOUS
 10
273.5292368696
 20
155.9765738401
 40
0.25
100
AcDbArc
 50
270.0
 51
360.0
  0
ARC
  5
585
100
AcDbEntity
  8
INTF_1
100
AcDbCircle
 62
7
  6
CONTINUOUS
 10
273.4728248696
 20
155.9765738401
 40
0.25
100
AcDbArc
 50
180.0
 51
270.0
  0
ARC
  5
586
100
AcDbEntity
  8
INTF_1
100
AcDbCircle
 62
7
  6
CONTINUOUS
 10
272.8288058696
 20
155.9765738401
 40
0.25
100
AcDbArc
 50
270.0
 51
345.8470279989
  0
ARC
  5
587
100
AcDbEntity
  8
INTF_1
100
AcDbCircle
 62
7
  6
CONTINUOUS
 10
272.0504518696
 20
155.9765738401
 40
0.25
100
AcDbArc
 50
270.0
 51
360.0
  0
ARC
  5
588
100
AcDbEntity
  8
INTF_1
100
AcDbCircle
 62
7
  6
CONTINUOUS
 10
271.9940398696
 20
155.9765738401
 40
0.25
100
AcDbArc
 50
180.0
 51
270.0
  0
ARC
  5
589
100
AcDbEntity
  8
INTF_1
100
AcDbCircle
 62
7
  6
CONTINUOUS
 10
276.3358268696
 20
155.9765738401
 40
0.25
100
AcDbArc
 50
180.0
 51
270.0
  0
ARC
  5
58A
100
AcDbEntity
  8
DRAFT
100
AcDbCircle
 62
7
  6
CONTINUOUS
 10
272.6932728696
 20
155.9765738401
 40
0.2499998466
100
AcDbArc
 50
194.1062727993
 51
270.0
  0
ARC
  5
58B
100
AcDbEntity
  8
INTF_1
100
AcDbCircle
 62
7
  6
CONTINUOUS
 10
272.6932728696
 20
155.9765738401
 40
0.2499998466
100
AcDbArc
 50
194.106447473
 51
270.0
  0
ARC
  5
58C
100
AcDbEntity
  8
DRAFT
100
AcDbCircle
 62
7
  6
CONTINUOUS
 10
274.1765638696
 20
155.9765738401
 40
0.2499994238
100
AcDbArc
 50
158.7789046668
 51
270.0
  0
ARC
  5
58D
100
AcDbEntity
  8
INTF_1
100
AcDbCircle
 62
7
  6
CONTINUOUS
 10
274.1765638696
 20
155.9765738401
 40
0.2499994238
100
AcDbArc
 50
158.8867327712
 51
270.0
  0
ARC
  5
58E
100
AcDbEntity
  8
DRAFT
100
AcDbCircle
 62
7
  6
CONTINUOUS
 10
275.5493598696
 20
155.9765738401
 40
0.2281284086
100
AcDbArc
 50
201.0260179566
 51
270.0
  0
ARC
  5
58F
100
AcDbEntity
  8
DRAFT
100
AcDbCircle
 62
7
  6
CONTINUOUS
 10
275.6420048696
 20
155.9765738401
 40
0.2281282031
100
AcDbArc
 50
270.1030531382
 51
21.8216268555
  0
ARC
  5
590
100
AcDbEntity
  8
DRAFT
100
AcDbCircle
 62
7
  6
CONTINUOUS
 10
276.3358268696
 20
155.9765738401
 40
0.2281278341
100
AcDbArc
 50
180.0
 51
270.0
  0
ARC
  5
591
100
AcDbEntity
  8
DRAFT
100
AcDbCircle
 62
7
  6
CONTINUOUS
 10
274.2590298696
 20
155.9765738401
 40
0.2281278341
100
AcDbArc
 50
270.0
 51
340.0306806411
  0
ARC
  5
592
100
AcDbEntity
  8
DRAFT
100
AcDbCircle
 62
7
  6
CONTINUOUS
 10
271.9940398696
 20
155.9765738401
 40
0.2281278341
100
AcDbArc
 50
180.0
 51
270.0
  0
ARC
  5
593
100
AcDbEntity
  8
DRAFT
100
AcDbCircle
 62
7
  6
CONTINUOUS
 10
272.0504518696
 20
155.9765738401
 40
0.2281278341
100
AcDbArc
 50
270.0
 51
360.0
  0
ARC
  5
594
100
AcDbEntity
  8
DRAFT
100
AcDbCircle
 62
7
  6
CONTINUOUS
 10
272.8288058696
 20
155.9765738401
 40
0.2281278341
100
AcDbArc
 50
270.0
 51
345.8470580139
  0
ARC
  5
595
100
AcDbEntity
  8
DRAFT
100
AcDbCircle
 62
7
  6
CONTINUOUS
 10
273.4728248696
 20
155.9765738401
 40
0.2281278341
100
AcDbArc
 50
180.0
 51
270.0
  0
ARC
  5
596
100
AcDbEntity
  8
DRAFT
100
AcDbCircle
 62
7
  6
CONTINUOUS
 10
273.5292368696
 20
155.9765738401
 40
0.2281278341
100
AcDbArc
 50
270.0
 51
360.0
  0
ARC
  5
597
100
AcDbEntity
  8
DRAFT
100
AcDbCircle
 62
7
  6
CONTINUOUS
 10
272.6932728696
 20
155.9765738401
 40
0.2281276807
100
AcDbArc
 50
194.1062727993
 51
270.0
  0
ARC
  5
598
100
AcDbEntity
  8
DRAFT
100
AcDbCircle
 62
7
  6
CONTINUOUS
 10
274.1765638696
 20
155.9765738401
 40
0.2281272579
100
AcDbArc
 50
158.7816946324
 51
270.0
  0
ARC
  5
599
100
AcDbEntity
  8
DRAFT
100
AcDbCircle
 62
7
  6
CONTINUOUS
 10
272.3028708696
 20
157.5765738401
 40
0.2500001341
100
AcDbArc
 50
14.8957166778
 51
90.0
  0
ARC
  5
59A
100
AcDbEntity
  8
INTF_1
100
AcDbCircle
 62
7
  6
CONTINUOUS
 10
272.3028708696
 20
157.5765738401
 40
0.2500001341
100
AcDbArc
 50
14.8956760146
 51
90.0
  0
ARC
  5
59B
100
AcDbEntity
  8
DRAFT
100
AcDbCircle
 62
7
  6
CONTINUOUS
 10
273.5292368696
 20
157.5765738401
 40
0.25
100
AcDbArc
 50
0.0
 51
90.0
  0
ARC
  5
59C
100
AcDbEntity
  8
DRAFT
100
AcDbCircle
 62
7
  6
CONTINUOUS
 10
273.2194448696
 20
157.5765738401
 40
0.25
100
AcDbArc
 50
90.0
 51
165.264882163
  0
ARC
  5
59D
100
AcDbEntity
  8
DRAFT
100
AcDbCircle
 62
7
  6
CONTINUOUS
 10
271.9940398696
 20
157.5765738401
 40
0.25
100
AcDbArc
 50
90.0
 51
180.0
  0
ARC
  5
59E
100
AcDbEntity
  8
DRAFT
100
AcDbCircle
 62
7
  6
CONTINUOUS
 10
274.7997568696
 20
157.5765738401
 40
0.25
100
AcDbArc
 50
90.0
 51
158.7193427825
  0
ARC
  5
59F
100
AcDbEntity
  8
DRAFT
100
AcDbCircle
 62
7
  6
CONTINUOUS
 10
276.3358268696
 20
157.5765738401
 40
0.25
100
AcDbArc
 50
90.0
 51
180.0
  0
ARC
  5
5A0
100
AcDbEntity
  8
INTF_1
100
AcDbCircle
 62
7
  6
CONTINUOUS
 10
274.7997568696
 20
157.5765738401
 40
0.25
100
AcDbArc
 50
90.0
 51
158.7194244493
  0
ARC
  5
5A1
100
AcDbEntity
  8
INTF_1
100
AcDbCircle
 62
7
  6
CONTINUOUS
 10
271.9940398696
 20
157.5765738401
 40
0.25
100
AcDbArc
 50
90.0
 51
180.0
  0
ARC
  5
5A2
100
AcDbEntity
  8
INTF_1
100
AcDbCircle
 62
7
  6
CONTINUOUS
 10
273.2194448696
 20
157.5765738401
 40
0.25
100
AcDbArc
 50
90.0
 51
165.2648127128
  0
ARC
  5
5A3
100
AcDbEntity
  8
INTF_1
100
AcDbCircle
 62
7
  6
CONTINUOUS
 10
273.5292368696
 20
157.5765738401
 40
0.25
100
AcDbArc
 50
0.0
 51
90.0
  0
ARC
  5
5A4
100
AcDbEntity
  8
INTF_1
100
AcDbCircle
 62
7
  6
CONTINUOUS
 10
276.3358268696
 20
157.5765738401
 40
0.25
100
AcDbArc
 50
90.0
 51
180.0
  0
ARC
  5
5A5
100
AcDbEntity
  8
DRAFT
100
AcDbCircle
 62
7
  6
CONTINUOUS
 10
275.0013498696
 20
157.5765738401
 40
0.2499994209
100
AcDbArc
 50
21.8216268555
 51
90.0
  0
ARC
  5
5A6
100
AcDbEntity
  8
INTF_1
100
AcDbCircle
 62
7
  6
CONTINUOUS
 10
275.0013498696
 20
157.5765738401
 40
0.2499994209
100
AcDbArc
 50
21.8215395793
 51
90.0
  0
ARC
  5
5A7
100
AcDbEntity
  8
DRAFT
100
AcDbCircle
 62
7
  6
CONTINUOUS
 10
272.3028708696
 20
157.5765738401
 40
0.2281279682
100
AcDbArc
 50
14.8957166779
 51
90.0
  0
ARC
  5
5A8
100
AcDbEntity
  8
DRAFT
100
AcDbCircle
 62
7
  6
CONTINUOUS
 10
276.3358268696
 20
157.5765738401
 40
0.2281278341
100
AcDbArc
 50
90.0
 51
180.0
  0
ARC
  5
5A9
100
AcDbEntity
  8
DRAFT
100
AcDbCircle
 62
7
  6
CONTINUOUS
 10
274.7997568696
 20
157.5765738401
 40
0.2281278341
100
AcDbArc
 50
90.0
 51
158.7193427825
  0
ARC
  5
5AA
100
AcDbEntity
  8
DRAFT
100
AcDbCircle
 62
7
  6
CONTINUOUS
 10
273.2194448696
 20
157.5765738401
 40
0.2281278341
100
AcDbArc
 50
90.0
 51
165.264882163
  0
ARC
  5
5AB
100
AcDbEntity
  8
DRAFT
100
AcDbCircle
 62
7
  6
CONTINUOUS
 10
271.9940398696
 20
157.5765738401
 40
0.2281278341
100
AcDbArc
 50
90.0
 51
180.0
  0
ARC
  5
5AC
100
AcDbEntity
  8
DRAFT
100
AcDbCircle
 62
7
  6
CONTINUOUS
 10
273.5292368696
 20
157.5765738401
 40
0.2281278341
100
AcDbArc
 50
0.0
 51
90.0
  0
ARC
  5
5AD
100
AcDbEntity
  8
DRAFT
100
AcDbCircle
 62
7
  6
CONTINUOUS
 10
275.0013498696
 20
157.5765738401
 40
0.228127255
100
AcDbArc
 50
21.8216268555
 51
90.0
  0
ARC
  5
5AE
100
AcDbEntity
  8
DRAFT
100
AcDbCircle
 62
7
  6
CONTINUOUS
 10
278.3439708696
 20
155.9765738401
 40
0.25
100
AcDbArc
 50
180.0
 51
270.0
  0
ARC
  5
5AF
100
AcDbEntity
  8
DRAFT
100
AcDbCircle
 62
7
  6
CONTINUOUS
 10
279.4890598696
 20
155.9765738401
 40
0.25
100
AcDbArc
 50
270.0
 51
360.0
  0
ARC
  5
5B0
100
AcDbEntity
  8
DRAFT
100
AcDbCircle
 62
7
  6
CONTINUOUS
 10
279.4890598696
 20
155.9966968401
 40
0.25
100
AcDbArc
 50
0.0
 51
90.0
  0
ARC
  5
5B1
100
AcDbEntity
  8
DRAFT
100
AcDbCircle
 62
7
  6
CONTINUOUS
 10
280.7501518696
 20
155.9765738401
 40
0.25
100
AcDbArc
 50
180.0
 51
270.0
  0
ARC
  5
5B2
100
AcDbEntity
  8
DRAFT
100
AcDbCircle
 62
7
  6
CONTINUOUS
 10
280.8337808696
 20
155.9765738401
 40
0.25
100
AcDbArc
 50
270.0
 51
360.0
  0
ARC
  5
5B3
100
AcDbEntity
  8
DRAFT
100
AcDbCircle
 62
7
  6
CONTINUOUS
 10
281.5031528696
 20
155.9765738401
 40
0.25
100
AcDbArc
 50
180.0
 51
270.0
  0
ARC
  5
5B4
100
AcDbEntity
  8
DRAFT
100
AcDbCircle
 62
7
  6
CONTINUOUS
 10
281.5595648696
 20
155.9765738401
 40
0.25
100
AcDbArc
 50
270.0
 51
360.0
  0
ARC
  5
5B5
100
AcDbEntity
  8
INTF_1
100
AcDbCircle
 62
7
  6
CONTINUOUS
 10
279.4890598696
 20
155.9765738401
 40
0.25
100
AcDbArc
 50
270.0
 51
360.0
  0
ARC
  5
5B6
100
AcDbEntity
  8
INTF_1
100
AcDbCircle
 62
7
  6
CONTINUOUS
 10
278.3439708696
 20
155.9765738401
 40
0.25
100
AcDbArc
 50
180.0
 51
270.0
  0
ARC
  5
5B7
100
AcDbEntity
  8
INTF_1
100
AcDbCircle
 62
7
  6
CONTINUOUS
 10
279.4890598696
 20
155.9966968401
 40
0.25
100
AcDbArc
 50
0.0
 51
90.0
  0
ARC
  5
5B8
100
AcDbEntity
  8
INTF_1
100
AcDbCircle
 62
7
  6
CONTINUOUS
 10
280.8337808696
 20
155.9765738401
 40
0.25
100
AcDbArc
 50
270.0
 51
360.0
  0
ARC
  5
5B9
100
AcDbEntity
  8
INTF_1
100
AcDbCircle
 62
7
  6
CONTINUOUS
 10
280.7501518696
 20
155.9765738401
 40
0.25
100
AcDbArc
 50
180.0
 51
270.0
  0
ARC
  5
5BA
100
AcDbEntity
  8
INTF_1
100
AcDbCircle
 62
7
  6
CONTINUOUS
 10
281.5595648696
 20
155.9765738401
 40
0.25
100
AcDbArc
 50
270.0
 51
360.0
  0
ARC
  5
5BB
100
AcDbEntity
  8
INTF_1
100
AcDbCircle
 62
7
  6
CONTINUOUS
 10
281.5031528696
 20
155.9765738401
 40
0.25
100
AcDbArc
 50
180.0
 51
270.0
  0
ARC
  5
5BC
100
AcDbEntity
  8
DRAFT
100
AcDbCircle
 62
7
  6
CONTINUOUS
 10
281.5031528696
 20
155.9765738401
 40
0.2281278341
100
AcDbArc
 50
180.0
 51
270.0
  0
ARC
  5
5BD
100
AcDbEntity
  8
DRAFT
100
AcDbCircle
 62
7
  6
CONTINUOUS
 10
281.5595648696
 20
155.9765738401
 40
0.2281278341
100
AcDbArc
 50
270.0
 51
360.0
  0
ARC
  5
5BE
100
AcDbEntity
  8
DRAFT
100
AcDbCircle
 62
7
  6
CONTINUOUS
 10
280.7501518696
 20
155.9765738401
 40
0.2281278341
100
AcDbArc
 50
180.0
 51
270.0
  0
ARC
  5
5BF
100
AcDbEntity
  8
DRAFT
100
AcDbCircle
 62
7
  6
CONTINUOUS
 10
280.8337808696
 20
155.9765738401
 40
0.2281278341
100
AcDbArc
 50
270.0
 51
360.0
  0
ARC
  5
5C0
100
AcDbEntity
  8
DRAFT
100
AcDbCircle
 62
7
  6
CONTINUOUS
 10
278.3439708696
 20
155.9765738401
 40
0.2281278341
100
AcDbArc
 50
180.0
 51
270.0
  0
ARC
  5
5C1
100
AcDbEntity
  8
DRAFT
100
AcDbCircle
 62
7
  6
CONTINUOUS
 10
279.4890598696
 20
155.9765738401
 40
0.2281278341
100
AcDbArc
 50
270.0
 51
360.0
  0
ARC
  5
5C2
100
AcDbEntity
  8
DRAFT
100
AcDbCircle
 62
7
  6
CONTINUOUS
 10
279.4890598696
 20
155.9966968401
 40
0.2281278341
100
AcDbArc
 50
0.0
 51
90.0
  0
ARC
  5
5C3
100
AcDbEntity
  8
DRAFT
100
AcDbCircle
 62
7
  6
CONTINUOUS
 10
276.8965308696
 20
156.9355778401
 40
0.9633605004
100
AcDbArc
 50
20.4398329096
 51
39.4523583875
  0
ARC
  5
5C4
100
AcDbEntity
  8
INTF_1
100
AcDbCircle
 62
7
  6
CONTINUOUS
 10
276.8965308696
 20
156.9355778401
 40
0.9633605004
100
AcDbArc
 50
18.2358697851
 51
42.2360742604
  0
ARC
  5
5C5
100
AcDbEntity
  8
DRAFT
100
AcDbCircle
 62
7
  6
CONTINUOUS
 10
276.8965308696
 20
156.9355778401
 40
0.9414883346
100
AcDbArc
 50
20.4304277053
 51
39.452358382
  0
ARC
  5
5C6
100
AcDbEntity
  8
INTF_1
100
AcDbCircle
 62
7
  6
CONTINUOUS
 10
277.0717208696
 20
157.0797488401
 40
0.7347787922
100
AcDbArc
 50
43.0952928969
 51
73.8016746975
  0
ARC
  5
5C7
100
AcDbEntity
  8
DRAFT
100
AcDbCircle
 62
7
  6
CONTINUOUS
 10
279.4527708696
 20
157.5551548401
 40
0.25
100
AcDbArc
 50
270.0
 51
360.0
  0
ARC
  5
5C8
100
AcDbEntity
  8
DRAFT
100
AcDbCircle
 62
7
  6
CONTINUOUS
 10
279.4527708696
 20
157.5765738401
 40
0.25
100
AcDbArc
 50
0.0
 51
90.0
  0
ARC
  5
5C9
100
AcDbEntity
  8
DRAFT
100
AcDbCircle
 62
7
  6
CONTINUOUS
 10
278.3439708696
 20
157.5765738401
 40
0.25
100
AcDbArc
 50
90.0
 51
180.0
  0
ARC
  5
5CA
100
AcDbEntity
  8
DRAFT
100
AcDbCircle
 62
7
  6
CONTINUOUS
 10
279.3814878696
 20
156.8138178401
 40
0.25
100
AcDbArc
 50
270.0
 51
360.0
  0
ARC
  5
5CB
100
AcDbEntity
  8
DRAFT
100
AcDbCircle
 62
7
  6
CONTINUOUS
 10
279.3814878696
 20
156.8339408401
 40
0.25
100
AcDbArc
 50
0.0
 51
90.0
  0
ARC
  5
5CC
100
AcDbEntity
  8
DRAFT
100
AcDbCircle
 62
7
  6
CONTINUOUS
 10
280.7501518696
 20
157.5765738401
 40
0.25
100
AcDbArc
 50
90.0
 51
180.0
  0
ARC
  5
5CD
100
AcDbEntity
  8
DRAFT
100
AcDbCircle
 62
7
  6
CONTINUOUS
 10
280.8337808696
 20
157.5765738401
 40
0.25
100
AcDbArc
 50
0.0
 51
90.0
  0
ARC
  5
5CE
100
AcDbEntity
  8
DRAFT
100
AcDbCircle
 62
7
  6
CONTINUOUS
 10
281.5031528696
 20
157.5765738401
 40
0.25
100
AcDbArc
 50
90.0
 51
180.0
  0
ARC
  5
5CF
100
AcDbEntity
  8
INTF_1
100
AcDbCircle
 62
7
  6
CONTINUOUS
 10
278.3439708696
 20
157.5765738401
 40
0.25
100
AcDbArc
 50
90.0
 51
180.0
  0
ARC
  5
5D0
100
AcDbEntity
  8
INTF_1
100
AcDbCircle
 62
7
  6
CONTINUOUS
 10
279.4527708696
 20
157.5765738401
 40
0.25
100
AcDbArc
 50
0.0
 51
90.0
  0
ARC
  5
5D1
100
AcDbEntity
  8
INTF_1
100
AcDbCircle
 62
7
  6
CONTINUOUS
 10
279.4527708696
 20
157.5551548401
 40
0.25
100
AcDbArc
 50
270.0
 51
360.0
  0
ARC
  5
5D2
100
AcDbEntity
  8
INTF_1
100
AcDbCircle
 62
7
  6
CONTINUOUS
 10
279.3814878696
 20
156.8339408401
 40
0.25
100
AcDbArc
 50
0.0
 51
90.0
  0
ARC
  5
5D3
100
AcDbEntity
  8
INTF_1
100
AcDbCircle
 62
7
  6
CONTINUOUS
 10
279.3814878696
 20
156.8138178401
 40
0.25
100
AcDbArc
 50
270.0
 51
360.0
  0
ARC
  5
5D4
100
AcDbEntity
  8
INTF_1
100
AcDbCircle
 62
7
  6
CONTINUOUS
 10
280.7501518696
 20
157.5765738401
 40
0.25
100
AcDbArc
 50
90.0
 51
180.0
  0
ARC
  5
5D5
100
AcDbEntity
  8
INTF_1
100
AcDbCircle
 62
7
  6
CONTINUOUS
 10
280.8337808696
 20
157.5765738401
 40
0.25
100
AcDbArc
 50
0.0
 51
90.0
  0
ARC
  5
5D6
100
AcDbEntity
  8
INTF_1
100
AcDbCircle
 62
7
  6
CONTINUOUS
 10
281.5031528696
 20
157.5765738401
 40
0.25
100
AcDbArc
 50
90.0
 51
180.0
  0
ARC
  5
5D7
100
AcDbEntity
  8
DRAFT
100
AcDbCircle
 62
7
  6
CONTINUOUS
 10
281.6424138696
 20
157.5765738401
 40
0.2499994093
100
AcDbArc
 50
31.5029080238
 51
90.0
  0
ARC
  5
5D8
100
AcDbEntity
  8
INTF_1
100
AcDbCircle
 62
7
  6
CONTINUOUS
 10
281.6424138696
 20
157.5765738401
 40
0.2499994093
100
AcDbArc
 50
31.5028673868
 51
90.0
  0
ARC
  5
5D9
100
AcDbEntity
  8
DRAFT
100
AcDbCircle
 62
7
  6
CONTINUOUS
 10
281.5031528696
 20
157.5765738401
 40
0.2281278341
100
AcDbArc
 50
90.0
 51
180.0
  0
ARC
  5
5DA
100
AcDbEntity
  8
DRAFT
100
AcDbCircle
 62
7
  6
CONTINUOUS
 10
280.8337808696
 20
157.5765738401
 40
0.2281278341
100
AcDbArc
 50
0.0
 51
90.0
  0
ARC
  5
5DB
100
AcDbEntity
  8
DRAFT
100
AcDbCircle
 62
7
  6
CONTINUOUS
 10
280.7501518696
 20
157.5765738401
 40
0.2281278341
100
AcDbArc
 50
90.0
 51
180.0
  0
ARC
  5
5DC
100
AcDbEntity
  8
DRAFT
100
AcDbCircle
 62
7
  6
CONTINUOUS
 10
279.4527708696
 20
157.5551548401
 40
0.2281278341
100
AcDbArc
 50
270.0
 51
360.0
  0
ARC
  5
5DD
100
AcDbEntity
  8
DRAFT
100
AcDbCircle
 62
7
  6
CONTINUOUS
 10
279.4527708696
 20
157.5765738401
 40
0.2281278341
100
AcDbArc
 50
0.0
 51
90.0
  0
ARC
  5
5DE
100
AcDbEntity
  8
DRAFT
100
AcDbCircle
 62
7
  6
CONTINUOUS
 10
278.3439708696
 20
157.5765738401
 40
0.2281278341
100
AcDbArc
 50
90.0
 51
180.0
  0
ARC
  5
5DF
100
AcDbEntity
  8
DRAFT
100
AcDbCircle
 62
7
  6
CONTINUOUS
 10
279.3814878696
 20
156.8138178401
 40
0.2281278341
100
AcDbArc
 50
270.0
 51
360.0
  0
ARC
  5
5E0
100
AcDbEntity
  8
DRAFT
100
AcDbCircle
 62
7
  6
CONTINUOUS
 10
279.3814878696
 20
156.8339408401
 40
0.2281278341
100
AcDbArc
 50
0.0
 51
90.0
  0
ARC
  5
5E1
100
AcDbEntity
  8
DRAFT
100
AcDbCircle
 62
7
  6
CONTINUOUS
 10
281.6424138696
 20
157.5765738401
 40
0.2281272434
100
AcDbArc
 50
31.5029080238
 51
90.0
  0
ARC
  5
5E2
100
AcDbEntity
  8
DRAFT
100
AcDbCircle
 62
7
  6
CONTINUOUS
 10
279.9548208696
 20
162.2202238401
 40
1.7118715855
100
AcDbArc
 50
295.7476352877
 51
306.5585465024
  0
ARC
  5
5E3
100
AcDbEntity
  8
DRAFT
100
AcDbCircle
 62
7
  6
CONTINUOUS
 10
279.7601398696
 20
162.7063828401
 40
1.6900163168
100
AcDbArc
 50
296.4407637154
 51
307.542573593
  0
ARC
  5
5E4
100
AcDbEntity
  8
DRAFT
100
AcDbCircle
 62
7
  6
CONTINUOUS
 10
279.9548208696
 20
162.2202238401
 40
1.6899994196
100
AcDbArc
 50
295.7476352877
 51
308.0460693928
  0
ARC
  5
5E5
100
AcDbEntity
  8
DRAFT
100
AcDbCircle
 62
7
  6
CONTINUOUS
 10
279.7601398696
 20
162.7063828401
 40
1.6681441509
100
AcDbArc
 50
296.4399959513
 51
307.5451744846
  0
ARC
  5
5E6
100
AcDbEntity
  8
DRAFT
100
AcDbCircle
 62
7
  6
CONTINUOUS
 10
279.8228998696
 20
161.4938318401
 40
0.2688721659
100
AcDbArc
 50
0.0
 51
90.0
  0
ARC
  5
5E7
100
AcDbEntity
  8
DRAFT
100
AcDbCircle
 62
7
  6
CONTINUOUS
 10
278.6496398696
 20
161.4938318401
 40
0.2688721659
100
AcDbArc
 50
90.0
 51
180.0
  0
ARC
  5
5E8
100
AcDbEntity
  8
DRAFT
100
AcDbCircle
 62
7
  6
CONTINUOUS
 10
278.6496398696
 20
161.4665468401
 40
0.2688721659
100
AcDbArc
 50
180.0
 51
270.0
  0
ARC
  5
5E9
100
AcDbEntity
  8
DRAFT
100
AcDbCircle
 62
7
  6
CONTINUOUS
 10
279.0235188696
 20
159.5265738401
 40
0.2688721659
100
AcDbArc
 50
270.0
 51
355.0729548195
  0
ARC
  5
5EA
100
AcDbEntity
  8
DRAFT
100
AcDbCircle
 62
7
  6
CONTINUOUS
 10
279.8228998696
 20
161.4407708401
 40
0.2688719615
100
AcDbArc
 50
317.4274093068
 51
360.0
  0
ARC
  5
5EB
100
AcDbEntity
  8
DRAFT
100
AcDbCircle
 62
7
  6
CONTINUOUS
 10
275.9831638696
 20
161.5265738401
 40
0.256872397
100
AcDbArc
 50
89.923132497
 51
199.6686931379
  0
ARC
  5
5EC
100
AcDbEntity
  8
DRAFT
100
AcDbCircle
 62
7
  6
CONTINUOUS
 10
276.9336408696
 20
159.5265738401
 40
0.2568721659
100
AcDbArc
 50
270.0
 51
340.2966554339
  0
ARC
  5
5ED
100
AcDbEntity
  8
DRAFT
100
AcDbCircle
 62
7
  6
CONTINUOUS
 10
277.5643738696
 20
161.5265738401
 40
0.2568721659
100
AcDbArc
 50
90.0
 51
161.6918803033
  0
ARC
  5
5EE
100
AcDbEntity
  8
DRAFT
100
AcDbCircle
 62
7
  6
CONTINUOUS
 10
281.2313588696
 20
159.5265738401
 40
0.2568721659
100
AcDbArc
 50
180.0
 51
270.0
  0
ARC
  5
5EF
100
AcDbEntity
  8
DRAFT
100
AcDbCircle
 62
7
  6
CONTINUOUS
 10
281.2913858696
 20
159.5265738401
 40
0.2568721659
100
AcDbArc
 50
270.0
 51
360.0
  0
ARC
  5
5F0
100
AcDbEntity
  8
DRAFT
100
AcDbCircle
 62
7
  6
CONTINUOUS
 10
281.2913858696
 20
161.5363968401
 40
0.2568721659
100
AcDbArc
 50
0.0
 51
90.0
  0
ARC
  5
5F1
100
AcDbEntity
  8
DRAFT
100
AcDbCircle
 62
7
  6
CONTINUOUS
 10
281.2475408696
 20
161.5363968401
 40
0.2568721659
100
AcDbArc
 50
90.0
 51
151.7132280344
  0
ARC
  5
5F2
100
AcDbEntity
  8
DRAFT
100
AcDbCircle
 62
7
  6
CONTINUOUS
 10
276.6980348696
 20
159.5265738401
 40
0.2568721632
100
AcDbArc
 50
199.6686931379
 51
270.0
  0
ARC
  5
5F3
100
AcDbEntity
  8
DRAFT
100
AcDbCircle
 62
7
  6
CONTINUOUS
 10
276.0818148696
 20
161.5265738401
 40
0.2568721376
100
AcDbArc
 50
18.877366895
 51
90.0
  0
ARC
  5
5F4
100
AcDbEntity
  8
DRAFT
100
AcDbCircle
 62
7
  6
CONTINUOUS
 10
277.6498758696
 20
161.5265738401
 40
0.2568719871
100
AcDbArc
 50
340.2966554339
 51
90.0
  0
ARC
  5
5F5
100
AcDbEntity
  8
DRAFT
100
AcDbCircle
 62
7
  6
CONTINUOUS
 10
278.6496398696
 20
161.4665468401
 40
0.247
100
AcDbArc
 50
180.0
 51
270.0
  0
ARC
  5
5F6
100
AcDbEntity
  8
DRAFT
100
AcDbCircle
 62
7
  6
CONTINUOUS
 10
278.6496398696
 20
161.4938318401
 40
0.247
100
AcDbArc
 50
90.0
 51
180.0
  0
ARC
  5
5F7
100
AcDbEntity
  8
DRAFT
100
AcDbCircle
 62
7
  6
CONTINUOUS
 10
279.8228998696
 20
161.4938318401
 40
0.247
100
AcDbArc
 50
0.0
 51
90.0
  0
ARC
  5
5F8
100
AcDbEntity
  8
DRAFT
100
AcDbCircle
 62
7
  6
CONTINUOUS
 10
279.0235188696
 20
159.5265738401
 40
0.247
100
AcDbArc
 50
270.0
 51
355.0729548195
  0
ARC
  5
5F9
100
AcDbEntity
  8
DRAFT
100
AcDbCircle
 62
7
  6
CONTINUOUS
 10
279.8228998696
 20
161.4407708401
 40
0.2469997956
100
AcDbArc
 50
317.42740929
 51
360.0
  0
ARC
  5
5FA
100
AcDbEntity
  8
DRAFT
100
AcDbCircle
 62
7
  6
CONTINUOUS
 10
275.9831638696
 20
161.5265738401
 40
0.2350002312
100
AcDbArc
 50
89.9196349258
 51
199.6686931379
  0
ARC
  5
5FB
100
AcDbEntity
  8
DRAFT
100
AcDbCircle
 62
7
  6
CONTINUOUS
 10
276.9336408696
 20
159.5265738401
 40
0.235
100
AcDbArc
 50
270.0
 51
340.2966554339
  0
ARC
  5
5FC
100
AcDbEntity
  8
DRAFT
100
AcDbCircle
 62
7
  6
CONTINUOUS
 10
277.5643738696
 20
161.5265738401
 40
0.235
100
AcDbArc
 50
90.0
 51
161.6918803033
  0
ARC
  5
5FD
100
AcDbEntity
  8
DRAFT
100
AcDbCircle
 62
7
  6
CONTINUOUS
 10
281.2313588696
 20
159.5265738401
 40
0.235
100
AcDbArc
 50
180.0
 51
270.0
  0
ARC
  5
5FE
100
AcDbEntity
  8
DRAFT
100
AcDbCircle
 62
7
  6
CONTINUOUS
 10
281.2475408696
 20
161.5363968401
 40
0.235
100
AcDbArc
 50
90.0
 51
151.7132280041
  0
ARC
  5
5FF
100
AcDbEntity
  8
DRAFT
100
AcDbCircle
 62
7
  6
CONTINUOUS
 10
281.2913858696
 20
161.5363968401
 40
0.235
100
AcDbArc
 50
0.0
 51
90.0
  0
ARC
  5
600
100
AcDbEntity
  8
DRAFT
100
AcDbCircle
 62
7
  6
CONTINUOUS
 10
281.2913858696
 20
159.5265738401
 40
0.235
100
AcDbArc
 50
270.0
 51
360.0
  0
ARC
  5
601
100
AcDbEntity
  8
DRAFT
100
AcDbCircle
 62
7
  6
CONTINUOUS
 10
276.6980348696
 20
159.5265738401
 40
0.2349999973
100
AcDbArc
 50
199.6686931379
 51
270.0
  0
ARC
  5
602
100
AcDbEntity
  8
DRAFT
100
AcDbCircle
 62
7
  6
CONTINUOUS
 10
276.0818148696
 20
161.5265738401
 40
0.2349999717
100
AcDbArc
 50
18.877366895
 51
90.0
  0
ARC
  5
603
100
AcDbEntity
  8
DRAFT
100
AcDbCircle
 62
7
  6
CONTINUOUS
 10
277.6498758696
 20
161.5265738401
 40
0.2349998212
100
AcDbArc
 50
340.2966554339
 51
90.0
  0
ARC
  5
604
100
AcDbEntity
  8
DRAFT
100
AcDbCircle
 62
7
  6
CONTINUOUS
 10
280.6020888696
 20
161.0142588401
 40
0.2218725814
100
AcDbArc
 50
116.5552773929
 51
179.8891150833
  0
ARC
  5
605
100
AcDbEntity
  8
DRAFT
100
AcDbCircle
 62
7
  6
CONTINUOUS
 10
280.6020888696
 20
160.8781568401
 40
0.2218721659
100
AcDbArc
 50
180.0
 51
295.7476352877
  0
ARC
  5
606
100
AcDbEntity
  8
DRAFT
100
AcDbCircle
 62
7
  6
CONTINUOUS
 10
280.6020888696
 20
161.0142588401
 40
0.2000004155
100
AcDbArc
 50
116.5613969894
 51
179.8832091414
  0
ARC
  5
607
100
AcDbEntity
  8
DRAFT
100
AcDbCircle
 62
7
  6
CONTINUOUS
 10
280.6020888696
 20
160.8781568401
 40
0.2
100
AcDbArc
 50
180.0
 51
295.7476352877
  0
ARC
  5
608
100
AcDbEntity
  8
0
100
AcDbCircle
 62
7
  6
CONTINUOUS
 10
326.3172388696
 20
114.1265738401
 40
1.0
100
AcDbArc
 50
270.0
 51
360.0
  0
ARC
  5
609
100
AcDbEntity
  8
0
100
AcDbCircle
 62
7
  6
CONTINUOUS
 10
326.3172388696
 20
114.1265738401
 40
0.5
100
AcDbArc
 50
270.0
 51
360.0
  0
ARC
  5
60A
100
AcDbEntity
  8
DRAFT
100
AcDbCircle
 62
7
  6
CONTINUOUS
 10
286.3886518696
 20
155.9765738401
 40
0.2500003567
100
AcDbArc
 50
158.7791370448
 51
270.0
  0
ARC
  5
60B
100
AcDbEntity
  8
INTF_1
100
AcDbCircle
 62
7
  6
CONTINUOUS
 10
286.3886518696
 20
155.9765738401
 40
0.2500003567
100
AcDbArc
 50
158.8868153258
 51
270.0
  0
ARC
  5
60C
100
AcDbEntity
  8
DRAFT
100
AcDbCircle
 62
7
  6
CONTINUOUS
 10
282.7104508696
 20
155.9765738401
 40
0.25
100
AcDbArc
 50
270.0
 51
360.0
  0
ARC
  5
60D
100
AcDbEntity
  8
DRAFT
100
AcDbCircle
 62
7
  6
CONTINUOUS
 10
284.0618978696
 20
155.9765738401
 40
0.25
100
AcDbArc
 50
180.0
 51
270.0
  0
ARC
  5
60E
100
AcDbEntity
  8
DRAFT
100
AcDbCircle
 62
7
  6
CONTINUOUS
 10
284.1455268696
 20
155.9765738401
 40
0.25
100
AcDbArc
 50
270.0
 51
360.0
  0
ARC
  5
60F
100
AcDbEntity
  8
DRAFT
100
AcDbCircle
 62
7
  6
CONTINUOUS
 10
285.3187048696
 20
155.9765738401
 40
0.25
100
AcDbArc
 50
180.0
 51
270.0
  0
ARC
  5
610
100
AcDbEntity
  8
DRAFT
100
AcDbCircle
 62
7
  6
CONTINUOUS
 10
285.4023338696
 20
155.9765738401
 40
0.25
100
AcDbArc
 50
270.0
 51
360.0
  0
ARC
  5
611
100
AcDbEntity
  8
DRAFT
100
AcDbCircle
 62
7
  6
CONTINUOUS
 10
286.4711178696
 20
155.9765738401
 40
0.25
100
AcDbArc
 50
270.0
 51
340.0306806411
  0
ARC
  5
612
100
AcDbEntity
  8
INTF_1
100
AcDbCircle
 62
7
  6
CONTINUOUS
 10
284.1455268696
 20
155.9765738401
 40
0.25
100
AcDbArc
 50
270.0
 51
360.0
  0
ARC
  5
613
100
AcDbEntity
  8
INTF_1
100
AcDbCircle
 62
7
  6
CONTINUOUS
 10
284.0618978696
 20
155.9765738401
 40
0.25
100
AcDbArc
 50
180.0
 51
270.0
  0
ARC
  5
614
100
AcDbEntity
  8
INTF_1
100
AcDbCircle
 62
7
  6
CONTINUOUS
 10
282.7104508696
 20
155.9765738401
 40
0.25
100
AcDbArc
 50
270.0
 51
360.0
  0
ARC
  5
615
100
AcDbEntity
  8
INTF_1
100
AcDbCircle
 62
7
  6
CONTINUOUS
 10
285.4023338696
 20
155.9765738401
 40
0.25
100
AcDbArc
 50
270.0
 51
360.0
  0
ARC
  5
616
100
AcDbEntity
  8
INTF_1
100
AcDbCircle
 62
7
  6
CONTINUOUS
 10
285.3187048696
 20
155.9765738401
 40
0.25
100
AcDbArc
 50
180.0
 51
270.0
  0
ARC
  5
617
100
AcDbEntity
  8
INTF_1
100
AcDbCircle
 62
7
  6
CONTINUOUS
 10
286.4711178696
 20
155.9765738401
 40
0.25
100
AcDbArc
 50
270.0
 51
340.0307368454
  0
ARC
  5
618
100
AcDbEntity
  8
DRAFT
100
AcDbCircle
 62
7
  6
CONTINUOUS
 10
282.5591448696
 20
155.9765738401
 40
0.2499990542
100
AcDbArc
 50
211.7244204081
 51
270.0
  0
ARC
  5
619
100
AcDbEntity
  8
INTF_1
100
AcDbCircle
 62
7
  6
CONTINUOUS
 10
282.5591448696
 20
155.9765738401
 40
0.2499990542
100
AcDbArc
 50
211.7244039948
 51
270.0
  0
ARC
  5
61A
100
AcDbEntity
  8
DRAFT
100
AcDbCircle
 62
7
  6
CONTINUOUS
 10
286.3886518696
 20
155.9765738401
 40
0.2281281908
100
AcDbArc
 50
158.7819378843
 51
270.0
  0
ARC
  5
61B
100
AcDbEntity
  8
DRAFT
100
AcDbCircle
 62
7
  6
CONTINUOUS
 10
286.4711178696
 20
155.9765738401
 40
0.2281278341
100
AcDbArc
 50
270.0
 51
340.0306806411
  0
ARC
  5
61C
100
AcDbEntity
  8
DRAFT
100
AcDbCircle
 62
7
  6
CONTINUOUS
 10
285.3187048696
 20
155.9765738401
 40
0.2281278341
100
AcDbArc
 50
180.0
 51
270.0
  0
ARC
  5
61D
100
AcDbEntity
  8
DRAFT
100
AcDbCircle
 62
7
  6
CONTINUOUS
 10
285.4023338696
 20
155.9765738401
 40
0.2281278341
100
AcDbArc
 50
270.0
 51
360.0
  0
ARC
  5
61E
100
AcDbEntity
  8
DRAFT
100
AcDbCircle
 62
7
  6
CONTINUOUS
 10
284.1455268696
 20
155.9765738401
 40
0.2281278341
100
AcDbArc
 50
270.0
 51
360.0
  0
ARC
  5
61F
100
AcDbEntity
  8
DRAFT
100
AcDbCircle
 62
7
  6
CONTINUOUS
 10
284.0618978696
 20
155.9765738401
 40
0.2281278341
100
AcDbArc
 50
180.0
 51
270.0
  0
ARC
  5
620
100
AcDbEntity
  8
DRAFT
100
AcDbCircle
 62
7
  6
CONTINUOUS
 10
282.7104508696
 20
155.9765738401
 40
0.2281278341
100
AcDbArc
 50
270.0
 51
360.0
  0
ARC
  5
621
100
AcDbEntity
  8
DRAFT
100
AcDbCircle
 62
7
  6
CONTINUOUS
 10
282.5591448696
 20
155.9765738401
 40
0.2281268883
100
AcDbArc
 50
211.7244204081
 51
270.0
  0
ARC
  5
622
100
AcDbEntity
  8
DRAFT
100
AcDbCircle
 62
7
  6
CONTINUOUS
 10
282.7104508696
 20
157.5765738401
 40
0.25
100
AcDbArc
 50
0.0
 51
90.0
  0
ARC
  5
623
100
AcDbEntity
  8
DRAFT
100
AcDbCircle
 62
7
  6
CONTINUOUS
 10
282.6540388696
 20
157.5765738401
 40
0.25
100
AcDbArc
 50
90.0
 51
180.0
  0
ARC
  5
624
100
AcDbEntity
  8
DRAFT
100
AcDbCircle
 62
7
  6
CONTINUOUS
 10
284.1455268696
 20
157.5765738401
 40
0.25
100
AcDbArc
 50
0.0
 51
90.0
  0
ARC
  5
625
100
AcDbEntity
  8
DRAFT
100
AcDbCircle
 62
7
  6
CONTINUOUS
 10
284.0618978696
 20
157.5765738401
 40
0.25
100
AcDbArc
 50
90.0
 51
180.0
  0
ARC
  5
626
100
AcDbEntity
  8
DRAFT
100
AcDbCircle
 62
7
  6
CONTINUOUS
 10
285.9648168696
 20
157.5551548401
 40
0.25
100
AcDbArc
 50
270.0
 51
360.0
  0
ARC
  5
627
100
AcDbEntity
  8
DRAFT
100
AcDbCircle
 62
7
  6
CONTINUOUS
 10
285.9648168696
 20
157.5765738401
 40
0.25
100
AcDbArc
 50
0.0
 51
90.0
  0
ARC
  5
628
100
AcDbEntity
  8
DRAFT
100
AcDbCircle
 62
7
  6
CONTINUOUS
 10
284.7549258696
 20
157.5765738401
 40
0.25
100
AcDbArc
 50
90.0
 51
180.0
  0
ARC
  5
629
100
AcDbEntity
  8
DRAFT
100
AcDbCircle
 62
7
  6
CONTINUOUS
 10
284.7549258696
 20
157.5551548401
 40
0.25
100
AcDbArc
 50
180.0
 51
270.0
  0
ARC
  5
62A
100
AcDbEntity
  8
INTF_1
100
AcDbCircle
 62
7
  6
CONTINUOUS
 10
284.0618978696
 20
157.5765738401
 40
0.25
100
AcDbArc
 50
90.0
 51
180.0
  0
ARC
  5
62B
100
AcDbEntity
  8
INTF_1
100
AcDbCircle
 62
7
  6
CONTINUOUS
 10
284.1455268696
 20
157.5765738401
 40
0.25
100
AcDbArc
 50
0.0
 51
90.0
  0
ARC
  5
62C
100
AcDbEntity
  8
INTF_1
100
AcDbCircle
 62
7
  6
CONTINUOUS
 10
282.6540388696
 20
157.5765738401
 40
0.25
100
AcDbArc
 50
90.0
 51
180.0
  0
ARC
  5
62D
100
AcDbEntity
  8
INTF_1
100
AcDbCircle
 62
7
  6
CONTINUOUS
 10
282.7104508696
 20
157.5765738401
 40
0.25
100
AcDbArc
 50
0.0
 51
90.0
  0
ARC
  5
62E
100
AcDbEntity
  8
INTF_1
100
AcDbCircle
 62
7
  6
CONTINUOUS
 10
284.7549258696
 20
157.5551548401
 40
0.25
100
AcDbArc
 50
180.0
 51
270.0
  0
ARC
  5
62F
100
AcDbEntity
  8
INTF_1
100
AcDbCircle
 62
7
  6
CONTINUOUS
 10
284.7549258696
 20
157.5765738401
 40
0.25
100
AcDbArc
 50
90.0
 51
180.0
  0
ARC
  5
630
100
AcDbEntity
  8
INTF_1
100
AcDbCircle
 62
7
  6
CONTINUOUS
 10
285.9648168696
 20
157.5765738401
 40
0.25
100
AcDbArc
 50
0.0
 51
90.0
  0
ARC
  5
631
100
AcDbEntity
  8
INTF_1
100
AcDbCircle
 62
7
  6
CONTINUOUS
 10
285.9648168696
 20
157.5551548401
 40
0.25
100
AcDbArc
 50
270.0
 51
360.0
  0
ARC
  5
632
100
AcDbEntity
  8
DRAFT
100
AcDbCircle
 62
7
  6
CONTINUOUS
 10
285.9648168696
 20
157.5551548401
 40
0.2281278341
100
AcDbArc
 50
270.0
 51
360.0
  0
ARC
  5
633
100
AcDbEntity
  8
DRAFT
100
AcDbCircle
 62
7
  6
CONTINUOUS
 10
285.9648168696
 20
157.5765738401
 40
0.2281278341
100
AcDbArc
 50
0.0
 51
90.0
  0
ARC
  5
634
100
AcDbEntity
  8
DRAFT
100
AcDbCircle
 62
7
  6
CONTINUOUS
 10
284.7549258696
 20
157.5765738401
 40
0.2281278341
100
AcDbArc
 50
90.0
 51
180.0
  0
ARC
  5
635
100
AcDbEntity
  8
DRAFT
100
AcDbCircle
 62
7
  6
CONTINUOUS
 10
284.7549258696
 20
157.5551548401
 40
0.2281278341
100
AcDbArc
 50
180.0
 51
270.0
  0
ARC
  5
636
100
AcDbEntity
  8
DRAFT
100
AcDbCircle
 62
7
  6
CONTINUOUS
 10
284.1455268696
 20
157.5765738401
 40
0.2281278341
100
AcDbArc
 50
0.0
 51
90.0
  0
ARC
  5
637
100
AcDbEntity
  8
DRAFT
100
AcDbCircle
 62
7
  6
CONTINUOUS
 10
284.0618978696
 20
157.5765738401
 40
0.2281278341
100
AcDbArc
 50
90.0
 51
180.0
  0
ARC
  5
638
100
AcDbEntity
  8
DRAFT
100
AcDbCircle
 62
7
  6
CONTINUOUS
 10
282.7104508696
 20
157.5765738401
 40
0.2281278341
100
AcDbArc
 50
0.0
 51
90.0
  0
ARC
  5
639
100
AcDbEntity
  8
DRAFT
100
AcDbCircle
 62
7
  6
CONTINUOUS
 10
282.6540388696
 20
157.5765738401
 40
0.2281278341
100
AcDbArc
 50
90.0
 51
180.0
  0
ARC
  5
63A
100
AcDbEntity
  8
DRAFT
100
AcDbCircle
 62
7
  6
CONTINUOUS
 10
287.8540918696
 20
155.9765738401
 40
0.250000369
100
AcDbArc
 50
270.0984419894
 51
21.8215959936
  0
ARC
  5
63B
100
AcDbEntity
  8
INTF_1
100
AcDbCircle
 62
7
  6
CONTINUOUS
 10
287.8540918696
 20
155.9765738401
 40
0.250000369
100
AcDbArc
 50
270.3387341217
 51
21.8214543882
  0
ARC
  5
63C
100
AcDbEntity
  8
DRAFT
100
AcDbCircle
 62
7
  6
CONTINUOUS
 10
287.7614468696
 20
155.9765738401
 40
0.2500002157
100
AcDbArc
 50
201.0259046728
 51
270.0
  0
ARC
  5
63D
100
AcDbEntity
  8
INTF_1
100
AcDbCircle
 62
7
  6
CONTINUOUS
 10
287.7614468696
 20
155.9765738401
 40
0.2500002157
100
AcDbArc
 50
201.0257626018
 51
270.0
  0
ARC
  5
63E
100
AcDbEntity
  8
DRAFT
100
AcDbCircle
 62
7
  6
CONTINUOUS
 10
288.6495788696
 20
155.9765738401
 40
0.25
100
AcDbArc
 50
180.0
 51
270.0
  0
ARC
  5
63F
100
AcDbEntity
  8
DRAFT
100
AcDbCircle
 62
7
  6
CONTINUOUS
 10
289.6870948696
 20
155.9765738401
 40
0.25
100
AcDbArc
 50
270.0
 51
360.0
  0
ARC
  5
640
100
AcDbEntity
  8
DRAFT
100
AcDbCircle
 62
7
  6
CONTINUOUS
 10
289.6870948696
 20
155.9966968401
 40
0.25
100
AcDbArc
 50
0.0
 51
90.0
  0
ARC
  5
641
100
AcDbEntity
  8
DRAFT
100
AcDbCircle
 62
7
  6
CONTINUOUS
 10
290.5495368696
 20
155.9765738401
 40
0.25
100
AcDbArc
 50
180.0
 51
270.0
  0
ARC
  5
642
100
AcDbEntity
  8
DRAFT
100
AcDbCircle
 62
7
  6
CONTINUOUS
 10
290.6318708696
 20
155.9765738401
 40
0.25
100
AcDbArc
 50
270.0
 51
360.0
  0
ARC
  5
643
100
AcDbEntity
  8
INTF_1
100
AcDbCircle
 62
7
  6
CONTINUOUS
 10
290.6318708696
 20
155.9765738401
 40
0.25
100
AcDbArc
 50
270.0
 51
360.0
  0
ARC
  5
644
100
AcDbEntity
  8
INTF_1
100
AcDbCircle
 62
7
  6
CONTINUOUS
 10
290.5495368696
 20
155.9765738401
 40
0.25
100
AcDbArc
 50
180.0
 51
270.0
  0
ARC
  5
645
100
AcDbEntity
  8
INTF_1
100
AcDbCircle
 62
7
  6
CONTINUOUS
 10
289.6870948696
 20
155.9966968401
 40
0.25
100
AcDbArc
 50
0.0
 51
90.0
  0
ARC
  5
646
100
AcDbEntity
  8
INTF_1
100
AcDbCircle
 62
7
  6
CONTINUOUS
 10
289.6870948696
 20
155.9765738401
 40
0.25
100
AcDbArc
 50
270.0
 51
360.0
  0
ARC
  5
647
100
AcDbEntity
  8
INTF_1
100
AcDbCircle
 62
7
  6
CONTINUOUS
 10
288.6495788696
 20
155.9765738401
 40
0.25
100
AcDbArc
 50
180.0
 51
270.0
  0
ARC
  5
648
100
AcDbEntity
  8
DRAFT
100
AcDbCircle
 62
7
  6
CONTINUOUS
 10
287.8540918696
 20
155.9765738401
 40
0.2281282031
100
AcDbArc
 50
270.1030531382
 51
21.8215959936
  0
ARC
  5
649
100
AcDbEntity
  8
DRAFT
100
AcDbCircle
 62
7
  6
CONTINUOUS
 10
287.7614468696
 20
155.9765738401
 40
0.2281280498
100
AcDbArc
 50
201.0259046728
 51
270.0
  0
ARC
  5
64A
100
AcDbEntity
  8
DRAFT
100
AcDbCircle
 62
7
  6
CONTINUOUS
 10
290.5495368696
 20
155.9765738401
 40
0.2281278341
100
AcDbArc
 50
180.0
 51
270.0
  0
ARC
  5
64B
100
AcDbEntity
  8
DRAFT
100
AcDbCircle
 62
7
  6
CONTINUOUS
 10
290.6318708696
 20
155.9765738401
 40
0.2281278341
100
AcDbArc
 50
270.0
 51
360.0
  0
ARC
  5
64C
100
AcDbEntity
  8
DRAFT
100
AcDbCircle
 62
7
  6
CONTINUOUS
 10
288.6495788696
 20
155.9765738401
 40
0.2281278341
100
AcDbArc
 50
180.0
 51
270.0
  0
ARC
  5
64D
100
AcDbEntity
  8
DRAFT
100
AcDbCircle
 62
7
  6
CONTINUOUS
 10
289.6870948696
 20
155.9765738401
 40
0.2281278341
100
AcDbArc
 50
270.0
 51
360.0
  0
ARC
  5
64E
100
AcDbEntity
  8
DRAFT
100
AcDbCircle
 62
7
  6
CONTINUOUS
 10
289.6870948696
 20
155.9966968401
 40
0.2281278341
100
AcDbArc
 50
0.0
 51
90.0
  0
ARC
  5
64F
100
AcDbEntity
  8
DRAFT
100
AcDbCircle
 62
7
  6
CONTINUOUS
 10
290.0679818696
 20
157.5765738401
 40
0.2500001054
100
AcDbArc
 50
30.7454034168
 51
90.0
  0
ARC
  5
650
100
AcDbEntity
  8
INTF_1
100
AcDbCircle
 62
7
  6
CONTINUOUS
 10
290.0679818696
 20
157.5765738401
 40
0.2500001054
100
AcDbArc
 50
30.7453798462
 51
90.0
  0
ARC
  5
651
100
AcDbEntity
  8
DRAFT
100
AcDbCircle
 62
7
  6
CONTINUOUS
 10
291.2078758696
 20
157.5765738401
 40
0.2500000155
100
AcDbArc
 50
327.6509992349
 51
90.0
  0
ARC
  5
652
100
AcDbEntity
  8
INTF_1
100
AcDbCircle
 62
7
  6
CONTINUOUS
 10
291.2078758696
 20
157.5765738401
 40
0.2500000155
100
AcDbArc
 50
327.6509365611
 51
90.0
  0
ARC
  5
653
100
AcDbEntity
  8
DRAFT
100
AcDbCircle
 62
7
  6
CONTINUOUS
 10
287.0118438696
 20
157.5765738401
 40
0.25
100
AcDbArc
 50
90.0
 51
158.7193427825
  0
ARC
  5
654
100
AcDbEntity
  8
DRAFT
100
AcDbCircle
 62
7
  6
CONTINUOUS
 10
288.7332058696
 20
157.5610208401
 40
0.25
100
AcDbArc
 50
0.0
 51
90.0
  0
ARC
  5
655
100
AcDbEntity
  8
DRAFT
100
AcDbCircle
 62
7
  6
CONTINUOUS
 10
288.6495788696
 20
157.5610208401
 40
0.25
100
AcDbArc
 50
90.0
 51
180.0
  0
ARC
  5
656
100
AcDbEntity
  8
DRAFT
100
AcDbCircle
 62
7
  6
CONTINUOUS
 10
289.9759248696
 20
157.5765738401
 40
0.25
100
AcDbArc
 50
90.0
 51
212.3136834732
  0
ARC
  5
657
100
AcDbEntity
  8
DRAFT
100
AcDbCircle
 62
7
  6
CONTINUOUS
 10
291.1246848696
 20
157.5765738401
 40
0.25
100
AcDbArc
 50
90.0
 51
149.768080206
  0
ARC
  5
658
100
AcDbEntity
  8
INTF_1
100
AcDbCircle
 62
7
  6
CONTINUOUS
 10
291.1246848696
 20
157.5765738401
 40
0.25
100
AcDbArc
 50
90.0
 51
149.7681927847
  0
ARC
  5
659
100
AcDbEntity
  8
INTF_1
100
AcDbCircle
 62
7
  6
CONTINUOUS
 10
289.9759248696
 20
157.5765738401
 40
0.25
100
AcDbArc
 50
90.0
 51
212.3138377898
  0
ARC
  5
65A
100
AcDbEntity
  8
INTF_1
100
AcDbCircle
 62
7
  6
CONTINUOUS
 10
287.0118438696
 20
157.5765738401
 40
0.25
100
AcDbArc
 50
90.0
 51
158.7194244493
  0
ARC
  5
65B
100
AcDbEntity
  8
INTF_1
100
AcDbCircle
 62
7
  6
CONTINUOUS
 10
288.6495788696
 20
157.5610208401
 40
0.25
100
AcDbArc
 50
90.0
 51
180.0
  0
ARC
  5
65C
100
AcDbEntity
  8
INTF_1
100
AcDbCircle
 62
7
  6
CONTINUOUS
 10
288.7332058696
 20
157.5610208401
 40
0.25
100
AcDbArc
 50
0.0
 51
90.0
  0
ARC
  5
65D
100
AcDbEntity
  8
DRAFT
100
AcDbCircle
 62
7
  6
CONTINUOUS
 10
287.2134378696
 20
157.5765738401
 40
0.2499994209
100
AcDbArc
 50
21.8215959936
 51
90.0
  0
ARC
  5
65E
100
AcDbEntity
  8
INTF_1
100
AcDbCircle
 62
7
  6
CONTINUOUS
 10
287.2134378696
 20
157.5765738401
 40
0.2499994209
100
AcDbArc
 50
21.8215395793
 51
90.0
  0
ARC
  5
65F
100
AcDbEntity
  8
DRAFT
100
AcDbCircle
 62
7
  6
CONTINUOUS
 10
290.0679818696
 20
157.5765738401
 40
0.2281279395
100
AcDbArc
 50
30.7454034168
 51
90.0
  0
ARC
  5
660
100
AcDbEntity
  8
DRAFT
100
AcDbCircle
 62
7
  6
CONTINUOUS
 10
291.2078758696
 20
157.5765738401
 40
0.2281278496
100
AcDbArc
 50
327.6509992349
 51
90.0
  0
ARC
  5
661
100
AcDbEntity
  8
DRAFT
100
AcDbCircle
 62
7
  6
CONTINUOUS
 10
291.1246848696
 20
157.5765738401
 40
0.2281278341
100
AcDbArc
 50
90.0
 51
149.768080206
  0
ARC
  5
662
100
AcDbEntity
  8
DRAFT
100
AcDbCircle
 62
7
  6
CONTINUOUS
 10
289.9759248696
 20
157.5765738401
 40
0.2281278341
100
AcDbArc
 50
90.0
 51
212.3136834732
  0
ARC
  5
663
100
AcDbEntity
  8
DRAFT
100
AcDbCircle
 62
7
  6
CONTINUOUS
 10
288.6495788696
 20
157.5610208401
 40
0.2281278341
100
AcDbArc
 50
90.0
 51
180.0
  0
ARC
  5
664
100
AcDbEntity
  8
DRAFT
100
AcDbCircle
 62
7
  6
CONTINUOUS
 10
288.7332058696
 20
157.5610208401
 40
0.2281278341
100
AcDbArc
 50
0.0
 51
90.0
  0
ARC
  5
665
100
AcDbEntity
  8
DRAFT
100
AcDbCircle
 62
7
  6
CONTINUOUS
 10
287.0118438696
 20
157.5765738401
 40
0.2281278341
100
AcDbArc
 50
90.0
 51
158.7193427825
  0
ARC
  5
666
100
AcDbEntity
  8
DRAFT
100
AcDbCircle
 62
7
  6
CONTINUOUS
 10
287.2134378696
 20
157.5765738401
 40
0.228127255
100
AcDbArc
 50
21.8215959936
 51
90.0
  0
ARC
  5
667
100
AcDbEntity
  8
DRAFT
100
AcDbCircle
 62
7
  6
CONTINUOUS
 10
282.0907208696
 20
159.1592188401
 40
3.3991483048
100
AcDbArc
 50
143.1518675977
 51
173.2551851699
  0
ARC
  5
668
100
AcDbEntity
  8
DRAFT
100
AcDbCircle
 62
7
  6
CONTINUOUS
 10
282.0907208696
 20
159.1592188401
 40
3.3772761389
100
AcDbArc
 50
157.1092156287
 51
173.2551851695
  0
ARC
  5
669
100
AcDbEntity
  8
DRAFT
100
AcDbCircle
 62
7
  6
CONTINUOUS
 10
282.1039858696
 20
159.2046548401
 40
3.3721507867
100
AcDbArc
 50
143.3082665828
 51
157.9081112774
  0
ARC
  5
66A
100
AcDbEntity
  8
DRAFT
100
AcDbCircle
 62
7
  6
CONTINUOUS
 10
282.4529858696
 20
159.2273088401
 40
3.1923926579
100
AcDbArc
 50
151.7053869525
 51
167.6539874121
  0
ARC
  5
66B
100
AcDbEntity
  8
DRAFT
100
AcDbCircle
 62
7
  6
CONTINUOUS
 10
282.4529858696
 20
159.2273088401
 40
3.1705204921
100
AcDbArc
 50
151.7101695524
 51
167.6574204181
  0
ARC
  5
66C
100
AcDbEntity
  8
DRAFT
100
AcDbCircle
 62
7
  6
CONTINUOUS
 10
282.0515068696
 20
159.2655438401
 40
2.792444038
100
AcDbArc
 50
166.6589830752
 51
175.0729548195
  0
ARC
  5
66D
100
AcDbEntity
  8
DRAFT
100
AcDbCircle
 62
7
  6
CONTINUOUS
 10
282.0515068696
 20
159.2655438401
 40
2.7705718722
100
AcDbArc
 50
166.6550564356
 51
175.0729548195
  0
ARC
  5
66E
100
AcDbEntity
  8
DRAFT
100
AcDbCircle
 62
7
  6
CONTINUOUS
 10
282.9508198696
 20
160.1124078401
 40
0.8690980718
100
AcDbArc
 50
325.9224395693
 51
355.706345807
  0
ARC
  5
66F
100
AcDbEntity
  8
DRAFT
100
AcDbCircle
 62
7
  6
CONTINUOUS
 10
282.9508198696
 20
160.1124078401
 40
0.8472259059
100
AcDbArc
 50
325.9781801097
 51
355.654832098
  0
ARC
  5
670
100
AcDbEntity
  8
DRAFT
100
AcDbCircle
 62
7
  6
CONTINUOUS
 10
283.0494198696
 20
160.1949638401
 40
0.7650658673
100
AcDbArc
 50
32.4680023405
 51
47.8108726775
  0
ARC
  5
671
100
AcDbEntity
  8
DRAFT
100
AcDbCircle
 62
7
  6
CONTINUOUS
 10
283.0494198696
 20
160.1949638401
 40
0.7431937014
100
AcDbArc
 50
32.4649727764
 51
47.8252703683
  0
ARC
  5
672
100
AcDbEntity
  8
DRAFT
100
AcDbCircle
 62
7
  6
CONTINUOUS
 10
283.0746938696
 20
160.2409948401
 40
0.7140905164
100
AcDbArc
 50
46.8329742248
 51
97.3382336092
  0
ARC
  5
673
100
AcDbEntity
  8
DRAFT
100
AcDbCircle
 62
7
  6
CONTINUOUS
 10
282.8733618696
 20
159.9864158401
 40
0.7040339642
100
AcDbArc
 50
207.1321327348
 51
227.6513371173
  0
ARC
  5
674
100
AcDbEntity
  8
DRAFT
100
AcDbCircle
 62
7
  6
CONTINUOUS
 10
283.0746938696
 20
160.2409948401
 40
0.6922183505
100
AcDbArc
 50
46.8175325259
 51
97.3425941787
  0
ARC
  5
675
100
AcDbEntity
  8
DRAFT
100
AcDbCircle
 62
7
  6
CONTINUOUS
 10
283.0684598696
 20
160.2633428401
 40
0.6911373274
100
AcDbArc
 50
97.0622967822
 51
106.7449577063
  0
ARC
  5
676
100
AcDbEntity
  8
DRAFT
100
AcDbCircle
 62
7
  6
CONTINUOUS
 10
282.8733618696
 20
159.9864158401
 40
0.6821617984
100
AcDbArc
 50
207.1187710705
 51
227.6852504691
  0
ARC
  5
677
100
AcDbEntity
  8
DRAFT
100
AcDbCircle
 62
7
  6
CONTINUOUS
 10
283.0684598696
 20
160.2633428401
 40
0.6692651615
100
AcDbArc
 50
97.0577890292
 51
109.8299849271
  0
ARC
  5
678
100
AcDbEntity
  8
DRAFT
100
AcDbCircle
 62
7
  6
CONTINUOUS
 10
282.9696268696
 20
160.1449828401
 40
0.281121724
100
AcDbArc
 50
83.5400250065
 51
115.3707744433
  0
ARC
  5
679
100
AcDbEntity
  8
DRAFT
100
AcDbCircle
 62
7
  6
CONTINUOUS
 10
282.6208108696
 20
159.7375098401
 40
0.2718719287
100
AcDbArc
 50
34.4289709175
 51
95.9130615439
  0
ARC
  5
67A
100
AcDbEntity
  8
DRAFT
100
AcDbCircle
 62
7
  6
CONTINUOUS
 10
282.9696268696
 20
160.1449828401
 40
0.2592495581
100
AcDbArc
 50
83.5400250042
 51
115.3707744433
  0
ARC
  5
67B
100
AcDbEntity
  8
DRAFT
100
AcDbCircle
 62
7
  6
CONTINUOUS
 10
282.6208108696
 20
159.7375098401
 40
0.2499997629
100
AcDbArc
 50
34.4265180033
 51
95.9130615439
  0
ARC
  5
67C
100
AcDbEntity
  8
DRAFT
100
AcDbCircle
 62
7
  6
CONTINUOUS
 10
282.4427928696
 20
159.7693398401
 40
0.2218724112
100
AcDbArc
 50
95.9130615439
 51
207.9507994295
  0
ARC
  5
67D
100
AcDbEntity
  8
DRAFT
100
AcDbCircle
 62
7
  6
CONTINUOUS
 10
282.9918938696
 20
159.9920938401
 40
0.2000176338
100
AcDbArc
 50
214.4846006219
 51
229.9313343093
  0
ARC
  5
67E
100
AcDbEntity
  8
DRAFT
100
AcDbCircle
 62
7
  6
CONTINUOUS
 10
282.4427928696
 20
159.7693398401
 40
0.2000002453
100
AcDbArc
 50
95.9130615439
 51
207.994757046
  0
ARC
  5
67F
100
AcDbEntity
  8
DRAFT
100
AcDbCircle
 62
7
  6
CONTINUOUS
 10
282.9918938696
 20
159.9920938401
 40
0.178145468
100
AcDbArc
 50
214.4879883829
 51
230.1210872176
  0
ARC
  5
680
100
AcDbEntity
  8
DRAFT
100
AcDbCircle
 62
7
  6
CONTINUOUS
 10
282.9807678696
 20
159.9645338401
 40
0.1720124346
100
AcDbArc
 50
226.8567348017
 51
319.3570073865
  0
ARC
  5
681
100
AcDbEntity
  8
DRAFT
100
AcDbCircle
 62
7
  6
CONTINUOUS
 10
282.9807678696
 20
159.9645338401
 40
0.1501402687
100
AcDbArc
 50
226.6338494473
 51
319.5748613147
  0
ARC
  5
682
100
AcDbEntity
  8
DRAFT
100
AcDbCircle
 62
7
  6
CONTINUOUS
 10
282.7419088696
 20
160.6251878401
 40
0.2722075134
100
AcDbArc
 50
261.7641377145
 51
295.3707744433
  0
ARC
  5
683
100
AcDbEntity
  8
DRAFT
100
AcDbCircle
 62
7
  6
CONTINUOUS
 10
282.7419088696
 20
160.6251878401
 40
0.2503353475
100
AcDbArc
 50
261.7641377145
 51
295.3707744433
  0
ARC
  5
684
100
AcDbEntity
  8
DRAFT
100
AcDbCircle
 62
7
  6
CONTINUOUS
 10
282.6559208696
 20
161.5638318401
 40
0.2218721659
100
AcDbArc
 50
90.0
 51
169.3123930497
  0
ARC
  5
685
100
AcDbEntity
  8
DRAFT
100
AcDbCircle
 62
7
  6
CONTINUOUS
 10
283.4932958696
 20
161.4632718401
 40
0.2218721659
100
AcDbArc
 50
270.0
 51
360.0
  0
ARC
  5
686
100
AcDbEntity
  8
DRAFT
100
AcDbCircle
 62
7
  6
CONTINUOUS
 10
283.4932958696
 20
161.5638318401
 40
0.2218721659
100
AcDbArc
 50
0.0
 51
90.0
  0
ARC
  5
687
100
AcDbEntity
  8
DRAFT
100
AcDbCircle
 62
7
  6
CONTINUOUS
 10
282.4764248696
 20
160.6127538401
 40
0.2218716238
100
AcDbArc
 50
169.3123930497
 51
261.7641377145
  0
ARC
  5
688
100
AcDbEntity
  8
DRAFT
100
AcDbCircle
 62
7
  6
CONTINUOUS
 10
282.6559208696
 20
161.5638318401
 40
0.2
100
AcDbArc
 50
90.0
 51
169.3123930497
  0
ARC
  5
689
100
AcDbEntity
  8
DRAFT
100
AcDbCircle
 62
7
  6
CONTINUOUS
 10
283.4932958696
 20
161.5638318401
 40
0.2
100
AcDbArc
 50
0.0
 51
90.0
  0
ARC
  5
68A
100
AcDbEntity
  8
DRAFT
100
AcDbCircle
 62
7
  6
CONTINUOUS
 10
283.4932958696
 20
161.4632718401
 40
0.2
100
AcDbArc
 50
270.0
 51
360.0
  0
ARC
  5
68B
100
AcDbEntity
  8
DRAFT
100
AcDbCircle
 62
7
  6
CONTINUOUS
 10
282.4764248696
 20
160.6127538401
 40
0.199999458
100
AcDbArc
 50
169.3123930497
 51
261.7641377145
  0
ARC
  5
68C
100
AcDbEntity
  8
DRAFT
100
AcDbCircle
 62
7
  6
CONTINUOUS
 10
287.0340558696
 20
161.0732028401
 40
0.6921991446
100
AcDbArc
 50
39.3140493818
 51
54.0438921713
  0
ARC
  5
68D
100
AcDbEntity
  8
DRAFT
100
AcDbCircle
 62
7
  6
CONTINUOUS
 10
287.0340558696
 20
161.0732028401
 40
0.6703269787
100
AcDbArc
 50
39.2959335901
 51
54.1263075681
  0
ARC
  5
68E
100
AcDbEntity
  8
DRAFT
100
AcDbCircle
 62
7
  6
CONTINUOUS
 10
286.9564958696
 20
161.1207498401
 40
0.6303790665
100
AcDbArc
 50
122.5967650073
 51
137.6984777765
  0
ARC
  5
68F
100
AcDbEntity
  8
DRAFT
100
AcDbCircle
 62
7
  6
CONTINUOUS
 10
286.9564958696
 20
161.1207498401
 40
0.6085069006
100
AcDbArc
 50
122.5975701706
 51
137.3902957974
  0
CIRCLE
  5
690
100
AcDbEntity
  8
RACCORDO
100
AcDbCircle
 62
250
  6
CONTINUOUS
 10
331.2672388696
 20
154.3265738401
 40
3.0328427125
  0
CIRCLE
  5
691
100
AcDbEntity
  8
RACCORDO
100
AcDbCircle
 62
7
  6
CONTINUOUS
 10
331.2672388696
 20
154.3265738401
 40
2.75
  0
ARC
  5
692
100
AcDbEntity
  8
0
100
AcDbCircle
 62
7
  6
CONTINUOUS
 10
331.2672388696
 20
154.3265738401
 40
2.6922501345
100
AcDbArc
 50
280.7030111662
 51
79.2969888338
  0
ARC
  5
693
100
AcDbEntity
  8
0
100
AcDbCircle
 62
7
  6
CONTINUOUS
 10
331.2672388696
 20
154.3265738401
 40
2.6922501345
100
AcDbArc
 50
100.7030111662
 51
259.2969888338
  0
ARC
  5
694
100
AcDbEntity
  8
0
100
AcDbCircle
 62
7
  6
CONTINUOUS
 10
331.2672388696
 20
154.3265738401
 40
2.2520008006
100
AcDbArc
 50
257.1720135841
 51
282.8279864159
  0
ARC
  5
695
100
AcDbEntity
  8
0
100
AcDbCircle
 62
7
  6
CONTINUOUS
 10
331.2672388696
 20
154.3265738401
 40
2.2520008006
100
AcDbArc
 50
77.1720135841
 51
102.8279864159
  0
ELLIPSE
  5
696
100
AcDbEntity
  8
RACCORDO
100
AcDbEllipse
 62
7
  6
CONTINUOUS
 10
225.7729686259
 20
126.8323035964
 30
0.0
 11
1.0687479118
 21
1.0687479118
 31
0.0
 40
0.9924325091
 41
2.3599925885
 42
3.9231927187
  0
ELLIPSE
  5
697
100
AcDbEntity
  8
RACCORDO
100
AcDbEllipse
 62
7
  6
CONTINUOUS
 10
227.2786983822
 20
177.3151143275
 30
0.0
 11
2.1374958237
 21
-2.1374958237
 31
0.0
 40
0.9924325091
 41
2.3599925885
 42
3.9231927187
  0
ELLIPSE
  5
698
100
AcDbEntity
  8
RACCORDO
100
AcDbEllipse
 62
7
  6
CONTINUOUS
 10
336.255779357
 20
177.3151143275
 30
0.0
 11
-2.1374958237
 21
-2.1374958237
 31
0.0
 40
0.9924325091
 41
2.3599925885
 42
3.9231927187
  0
ELLIPSE
  5
699
100
AcDbEntity
  8
RACCORDO
100
AcDbEllipse
 62
7
  6
CONTINUOUS
 10
337.7615091133
 20
126.8323035964
 30
0.0
 11
-1.0687479118
 21
1.0687479118
 31
0.0
 40
0.9924325091
 41
2.3599925885
 42
3.9231927187
  0
ELLIPSE
  5
69A
100
AcDbEntity
  8
RACCORDO
100
AcDbEllipse
 62
7
  6
CONTINUOUS
 10
326.0229686259
 20
126.8323035964
 30
0.0
 11
1.0687479118
 21
1.0687479118
 31
0.0
 40
0.9924325091
 41
2.3599925885
 42
3.9231927187
  0
ELLIPSE
  5
69B
100
AcDbEntity
  8
RACCORDO
100
AcDbEllipse
 62
7
  6
CONTINUOUS
 10
237.5115091133
 20
126.8323035964
 30
0.0
 11
-1.0687479118
 21
1.0687479118
 31
0.0
 40
0.9924325091
 41
2.3599925885
 42
3.9231927187
  0
ELLIPSE
  5
69C
100
AcDbEntity
  8
RACCORDO
100
AcDbEllipse
 62
7
  6
CONTINUOUS
 10
328.6773729283
 20
125.9776744455
 30
0.0
 11
0.1117044434
 21
-0.2798584512
 31
0.0
 40
0.9955924488
 41
-0.3782517324
 42
-0.2094034267
  0
ELLIPSE
  5
69D
100
AcDbEntity
  8
RACCORDO
100
AcDbEllipse
 62
7
  6
CONTINUOUS
 10
327.7183848208
 20
125.9776744455
 30
0.0
 11
-0.2137495824
 21
-0.2137495824
 31
0.0
 40
0.9924325091
 41
0.6128915223
 42
0.7816000651
  0
ELLIPSE
  5
69E
100
AcDbEntity
  8
RACCORDO
100
AcDbEllipse
 62
7
  6
CONTINUOUS
 10
235.8160929183
 20
125.9776744455
 30
0.0
 11
-0.2137495824
 21
0.2137495824
 31
0.0
 40
0.9924325091
 41
2.3599925885
 42
2.5287011313
  0
ELLIPSE
  5
69F
100
AcDbEntity
  8
RACCORDO
100
AcDbEllipse
 62
7
  6
CONTINUOUS
 10
234.8571048108
 20
125.9776744455
 30
0.0
 11
-0.1117044434
 21
-0.2798584512
 31
0.0
 40
0.9955924488
 41
0.209403911
 42
0.3782517324
  0
ELLIPSE
  5
6A0
100
AcDbEntity
  8
RACCORDO
100
AcDbEllipse
 62
7
  6
CONTINUOUS
 10
234.7174217329
 20
125.6277197914
 30
0.0
 11
0.1117044434
 21
0.2798584512
 31
0.0
 40
0.9955924488
 41
-4.1920950568
 42
-2.7633409212
  0
ELLIPSE
  5
6A1
100
AcDbEntity
  8
RACCORDO
100
AcDbEllipse
 62
7
  6
CONTINUOUS
 10
235.8598372501
 20
125.9339301137
 30
0.0
 11
0.2137495824
 21
-0.2137495824
 31
0.0
 40
0.9924325091
 41
-0.7816000651
 42
-0.2099699588
  0
ELLIPSE
  5
6A2
100
AcDbEntity
  8
RACCORDO
100
AcDbEllipse
 62
7
  6
CONTINUOUS
 10
327.6746404891
 20
125.9339301137
 30
0.0
 11
0.2137495824
 21
0.2137495824
 31
0.0
 40
0.9924325091
 41
-2.9316226948
 42
-2.3599925885
  0
ELLIPSE
  5
6A3
100
AcDbEntity
  8
RACCORDO
100
AcDbEllipse
 62
7
  6
CONTINUOUS
 10
328.8170560063
 20
125.6277197914
 30
0.0
 11
-0.1117044434
 21
0.2798584512
 31
0.0
 40
0.9955924488
 41
-3.519844386
 42
-2.0910903624
  0
ELLIPSE
  5
6A4
100
AcDbEntity
  8
RACCORDO
100
AcDbEllipse
 62
7
  6
CONTINUOUS
 10
337.7177647815
 20
126.8760479282
 30
0.0
 11
1.0687479118
 21
-1.0687479118
 31
0.0
 40
0.9924325091
 41
-0.7816000651
 42
0.7816000651
  0
ELLIPSE
  5
6A5
100
AcDbEntity
  8
RACCORDO
100
AcDbEllipse
 62
7
  6
CONTINUOUS
 10
336.2120350252
 20
177.2713699957
 30
0.0
 11
2.1374958237
 21
2.1374958237
 31
0.0
 40
0.9924325091
 41
-0.7816000651
 42
0.7816000651
  0
ELLIPSE
  5
6A6
100
AcDbEntity
  8
RACCORDO
100
AcDbEllipse
 62
7
  6
CONTINUOUS
 10
227.322442714
 20
177.2713699957
 30
0.0
 11
2.1374958237
 21
-2.1374958237
 31
0.0
 40
0.9924325091
 41
2.3599925885
 42
3.9231927187
  0
ELLIPSE
  5
6A7
100
AcDbEntity
  8
RACCORDO
100
AcDbEllipse
 62
7
  6
CONTINUOUS
 10
225.8167129577
 20
126.8760479282
 30
0.0
 11
1.0687479118
 21
1.0687479118
 31
0.0
 40
0.9924325091
 41
2.3599925885
 42
3.9231927187
  0
ELLIPSE
  5
6A8
100
AcDbEntity
  8
RACCORDO
100
AcDbEllipse
 62
7
  6
CONTINUOUS
 10
237.4677647815
 20
126.8760479282
 30
0.0
 11
1.0687479118
 21
-1.0687479118
 31
0.0
 40
0.9924325091
 41
-0.7816000651
 42
0.7816000651
  0
ELLIPSE
  5
6A9
100
AcDbEntity
  8
RACCORDO
100
AcDbEllipse
 62
7
  6
CONTINUOUS
 10
326.0667129577
 20
126.8760479282
 30
0.0
 11
1.0687479118
 21
1.0687479118
 31
0.0
 40
0.9924325091
 41
-3.9231927187
 42
-2.3599925885
  0
ELLIPSE
  5
6AA
100
AcDbEntity
  8
RACCORDO
100
AcDbEllipse
 62
7
  6
CONTINUOUS
 10
269.546512655
 20
154.6058476255
 30
0.0
 11
0.2137495824
 21
0.2137495824
 31
0.0
 40
0.9924325091
 41
-3.9231927187
 42
-2.3599925885
  0
ELLIPSE
  5
6AB
100
AcDbEntity
  8
RACCORDO
100
AcDbEllipse
 62
7
  6
CONTINUOUS
 10
293.9879650842
 20
154.6058476255
 30
0.0
 11
0.2137495824
 21
-0.2137495824
 31
0.0
 40
0.9924325091
 41
-0.7816000651
 42
0.7816000651
  0
ELLIPSE
  5
6AC
100
AcDbEntity
  8
RACCORDO
100
AcDbEllipse
 62
7
  6
CONTINUOUS
 10
293.9879650842
 20
163.0473000547
 30
0.0
 11
0.2137495824
 21
0.2137495824
 31
0.0
 40
0.9924325091
 41
-0.7816000651
 42
0.7816000651
  0
ELLIPSE
  5
6AD
100
AcDbEntity
  8
RACCORDO
100
AcDbEllipse
 62
7
  6
CONTINUOUS
 10
269.546512655
 20
163.0473000547
 30
0.0
 11
0.2137495824
 21
-0.2137495824
 31
0.0
 40
0.9924325091
 41
2.3599925885
 42
3.9231927187
  0
ELLIPSE
  5
6AE
100
AcDbEntity
  8
RACCORDO
100
AcDbEllipse
 62
7
  6
CONTINUOUS
 10
269.5683848208
 20
163.0254278888
 30
0.0
 11
0.2137495824
 21
-0.2137495824
 31
0.0
 40
0.9924325091
 41
2.3599925885
 42
3.9231927187
  0
ELLIPSE
  5
6AF
100
AcDbEntity
  8
RACCORDO
100
AcDbEllipse
 62
7
  6
CONTINUOUS
 10
293.9660929183
 20
163.0254278888
 30
0.0
 11
-0.2137495824
 21
-0.2137495824
 31
0.0
 40
0.9924325091
 41
2.3599925885
 42
3.9231927187
  0
ELLIPSE
  5
6B0
100
AcDbEntity
  8
RACCORDO
100
AcDbEllipse
 62
7
  6
CONTINUOUS
 10
293.9660929183
 20
154.6277197914
 30
0.0
 11
-0.2137495824
 21
0.2137495824
 31
0.0
 40
0.9924325091
 41
2.3599925885
 42
3.9231927187
  0
ELLIPSE
  5
6B1
100
AcDbEntity
  8
RACCORDO
100
AcDbEllipse
 62
7
  6
CONTINUOUS
 10
269.5683848208
 20
154.6277197914
 30
0.0
 11
0.2137495824
 21
0.2137495824
 31
0.0
 40
0.9924325091
 41
2.3599925885
 42
3.9231927187
  0
ENDSEC
  0
SECTION
  2
OBJECTS
  0
DICTIONARY
  5
C
100
AcDbDictionary
280
0
281
1
  3
ACAD_GROUP
350
D
  3
ACAD_MLINESTYLE
350
17
  3
ACAD_LAYOUT
350
1A
  3
ACAD_PLOTSETTINGS
350
19
  3
ACAD_PLOTSTYLENAME
350
E
  0
DICTIONARY
  5
D
102
{ACAD_REACTORS
330
C
102
}
100
AcDbDictionary
280
0
281
1
  0
ACDBDICTIONARYWDFLT
  5
E
102
{ACAD_REACTORS
330
C
102
}
100
AcDbDictionary
281
1
  3
Normal
350
F
100
AcDbDictionaryWithDefault
340
F
  0
DICTIONARY
  5
17
102
{ACAD_REACTORS
330
C
102
}
100
AcDbDictionary
280
0
281
1
  3
Standard
350
18
  0
DICTIONARY
  5
19
102
{ACAD_REACTORS
330
C
102
}
100
AcDbDictionary
281
1
  0
DICTIONARY
  5
1A
102
{ACAD_REACTORS
330
C
102
}
100
AcDbDictionary
281
1
  3
Model
350
6B2
  3
Layout1
350
6B3
  0
ACDBPLACEHOLDER
  5
F
102
{ACAD_REACTORS
330
E
102
}
  0
MLINESTYLE
  5
18
102
{ACAD_REACTORS
330
17
102
}
100
AcDbMlineStyle
  2
STANDARD
 70
0
  3

 62
256
 51
90.0
 52
90.0
 71
2
 49
0.5
 62
256
  6
BYLAYER
 49
-0.5
 62
256
  6
BYLAYER
  0
LAYOUT
  5
6B2
102
{ACAD_REACTORS
330
1A
102
}
100
AcDbPlotSettings
  1

  2
none_device
  4
ISO_A4_(297.00_x_210.00_MM)
  6

 40
0.0
 41
0.0
 42
0.0
 43
0.0
 44
297.0
 45
210.0
 46
0.0
 47
0.0
 48
0.0
 49
0.0
140
0.0
141
0.0
142
1.0
143
1.0
 70
1024
 72
1
 73
0
 74
0
  7

 75
0
147
1.0
148
0.0
149
0.0
100
AcDbLayout
  1
Model
 70
0
 71
0
 10
0.0
 20
0.0
 11
297.0
 21
210.0
 12
0.0
 22
0.0
 32
0.0
 14
0.0
 24
0.0
 34
0.0
 15
0.0
 25
0.0
 35
0.0
146
0.0
 13
0.0
 23
0.0
 33
0.0
 16
1.0
 26
0.0
 36
0.0
 17
0.0
 27
1.0
 37
0.0
 76
0
330
212
345
0
346
0
  0
LAYOUT
  5
6B3
102
{ACAD_REACTORS
330
1A
102
}
100
AcDbPlotSettings
  1

  2
none_device
  4
ISO_A4_(297.00_x_210.00_MM)
  6

 40
0.0
 41
0.0
 42
0.0
 43
0.0
 44
297.0
 45
210.0
 46
0.0
 47
0.0
 48
0.0
 49
0.0
140
0.0
141
0.0
142
1.0
143
1.0
 70
0
 72
1
 73
0
 74
0
  7

 75
0
147
1.0
148
0.0
149
0.0
100
AcDbLayout
  1
Layout1
 70
0
 71
1
 10
0.0
 20
0.0
 11
297.0
 21
210.0
 12
0.0
 22
0.0
 32
0.0
 14
0.0
 24
0.0
 34
0.0
 15
0.0
 25
0.0
 35
0.0
146
0.0
 13
0.0
 23
0.0
 33
0.0
 16
1.0
 26
0.0
 36
0.0
 17
0.0
 27
1.0
 37
0.0
 76
0
330
213
345
0
346
0
  0
ENDSEC
  0
EOF
