  0
SECTION
  2
HEADER
  9
$ACADVER
  1
AC1015
  9
$DWGCODEPAGE
  3
ANSI_1252
  9
$EXTMAX
 10
297.0
 20
210.0
 30
0.0
  9
$EXTMIN
 10
0.0
 20
0.0
 30
0.0
  9
$LIMMIN
 10
0.0
 20
0.0
  9
$LIMMAX
 10
297.0
 20
210.0
  9
$VIEWCTR
 10
148.5
 20
105.0
  9
$VIEWSIZE
 40
210.0
  9
$CLAYER
  8
0
  9
$LTSCALE
 40
16.335
  9
$CELTYPE
  6
BYLAYER
  9
$DIMSCALE
 40
1.0
  9
$DIMASZ
 40
3.0
  9
$DIMEXO
 40
1.85625
  9
$DIMDLI
 40
11.286
  9
$DIMEXE
 40
5.346
  9
$DIMCEN
 40
2.673
  9
$DIMLFAC
 40
1.0
  9
$DIMBLK
  1
_FILLED
  9
$DIMTXT
 40
3.0
  9
$DIMTOL
 70
1
  9
$DIMLIM
 70
0
  9
$DIMTFAC
 40
1.0
  9
$DIMTP
 40
0.01
  9
$DIMTM
 40
0.01
  9
$PDMODE
 70
3
  9
$PDSIZE
 40
3.0
  9
$HANDSEED
  5
871
  9
$TILEMODE
 70
1
  9
$MEASUREMENT
 70
1
  9
$INSUNITS
 70
4
  0
ENDSEC
  0
SECTION
  2
CLASSES
  0
CLASS
  1
ACDBDICTIONARYWDFLT
  2
AcDbDictionaryWithDefault
  3
AutoCAD 2000
 90
0
280
0
281
0
  0
CLASS
  1
ACDBPLACEHOLDER
  2
AcDbPlaceHolder
  3
AutoCAD 2000
 90
0
280
0
281
0
  0
CLASS
  1
LAYOUT
  2
AcDbLayout
  3
AutoCAD 2000
 90
0
280
0
281
0
  0
ENDSEC
  0
SECTION
  2
TABLES
  0
TABLE
  2
VPORT
  5
8
100
AcDbSymbolTable
 70
2
  0
VPORT
  5
1F4
100
AcDbSymbolTableRecord
100
AcDbViewportTableRecord
  2
*ACTIVE
 70
0
 10
0.0
 20
0.0
 11
1.0
 21
1.0
 12
148.5
 22
105.0
 13
0.0
 23
0.0
 14
1.0
 24
1.0
 15
0.0
 25
0.0
 16
0.0
 26
0.0
 36
1.0
 17
0.0
 27
0.0
 37
0.0
 40
210.0
 41
1.4142857143
 42
50.0
 43
0.0
 44
0.0
 50
0.0
 51
0.0
 71
0
 72
100
 73
1
 74
1
 75
0
 76
0
 77
0
 78
0
  0
ENDTAB
  0
TABLE
  2
LTYPE
  5
5
100
AcDbSymbolTable
 70
6
  0
LTYPE
  5
14
100
AcDbSymbolTableRecord
100
AcDbLinetypeTableRecord
  2
BYBLOCK
 70
0
  3

 72
65
 73
0
 40
0.0
  0
LTYPE
  5
15
100
AcDbSymbolTableRecord
100
AcDbLinetypeTableRecord
  2
BYLAYER
 70
0
  3

 72
65
 73
0
 40
0.0
  0
LTYPE
  5
16
100
AcDbSymbolTableRecord
100
AcDbLinetypeTableRecord
  2
CONTINUOUS
 70
64
  3
Solid line
 72
65
 73
0
 40
0.0
  0
LTYPE
  5
1F5
100
AcDbSymbolTableRecord
100
AcDbLinetypeTableRecord
  2
CENTER
 70
64
  3
____ _ ____ _ ____ _ ____ _ ____ _ ____ _ ____
 72
65
 73
4
 40
0.6
 49
0.375
 74
0
 49
-0.075
 74
0
 49
0.075
 74
0
 49
-0.075
 74
0
  0
LTYPE
  5
1F6
100
AcDbSymbolTableRecord
100
AcDbLinetypeTableRecord
  2
HIDDEN
 70
64
  3
- - - - - - - - - - - - - - - - - - - -
 72
65
 73
2
 40
0.2
 49
0.1
 74
0
 49
-0.1
 74
0
  0
LTYPE
  5
1F7
100
AcDbSymbolTableRecord
100
AcDbLinetypeTableRecord
  2
PHANTOM
 70
64
  3
_____ _ _ _____ _ _ _____ _ _ _____
 72
65
 73
6
 40
0.8
 49
0.45
 74
0
 49
-0.05
 74
0
 49
0.1
 74
0
 49
-0.05
 74
0
 49
0.1
 74
0
 49
-0.05
 74
0
  0
LTYPE
  5
1F8
100
AcDbSymbolTableRecord
100
AcDbLinetypeTableRecord
  2
DOT
 70
64
  3
. . . . . . . . . . . . . . . . . . . .
 72
65
 73
2
 40
0.2
 49
0.1
 74
0
 49
-0.1
 74
0
  0
LTYPE
  5
1F9
100
AcDbSymbolTableRecord
100
AcDbLinetypeTableRecord
  2
DASHED
 70
64
  3
- - - - - - - - - - - - - - - - - - - -
 72
65
 73
2
 40
0.2
 49
0.1
 74
0
 49
-0.1
 74
0
  0
ENDTAB
  0
TABLE
  2
LAYER
  5
2
100
AcDbSymbolTable
 70
36
  0
LAYER
  5
10
100
AcDbSymbolTableRecord
100
AcDbLayerTableRecord
  2
0
 70
0
 62
7
  6
CONTINUOUS
370
-3
390
F
  0
LAYER
  5
1FA
100
AcDbSymbolTableRecord
100
AcDbLayerTableRecord
  2
DEFAULT_1
 70
0
 62
7
  6
CENTER
370
-3
390
F
  0
LAYER
  5
1FB
100
AcDbSymbolTableRecord
100
AcDbLayerTableRecord
  2
DEFAULT_2
 70
0
 62
7
  6
HIDDEN
370
-3
390
F
  0
LAYER
  5
1FC
100
AcDbSymbolTableRecord
100
AcDbLayerTableRecord
  2
DEFAULT_3
 70
0
 62
7
  6
PHANTOM
370
-3
390
F
  0
LAYER
  5
1FD
100
AcDbSymbolTableRecord
100
AcDbLayerTableRecord
  2
ASSI
 70
0
 62
7
  6
CONTINUOUS
370
-3
390
F
  0
LAYER
  5
1FE
100
AcDbSymbolTableRecord
100
AcDbLayerTableRecord
  2
COORDINATE
 70
0
 62
7
  6
CONTINUOUS
370
-3
390
F
  0
LAYER
  5
1FF
100
AcDbSymbolTableRecord
100
AcDbLayerTableRecord
  2
COPY_PUBLISH
 70
0
 62
7
  6
CONTINUOUS
370
-3
390
F
  0
LAYER
  5
200
100
AcDbSymbolTableRecord
100
AcDbLayerTableRecord
  2
COSMETIC
 70
0
 62
7
  6
CONTINUOUS
370
-3
390
F
  0
LAYER
  5
201
100
AcDbSymbolTableRecord
100
AcDbLayerTableRecord
  2
CURVE
 70
0
 62
7
  6
CONTINUOUS
370
-3
390
F
  0
LAYER
  5
202
100
AcDbSymbolTableRecord
100
AcDbLayerTableRecord
  2
DRAFT
 70
0
 62
7
  6
CONTINUOUS
370
-3
390
F
  0
LAYER
  5
203
100
AcDbSymbolTableRecord
100
AcDbLayerTableRecord
  2
IMPORT_IGES
 70
0
 62
7
  6
CONTINUOUS
370
-3
390
F
  0
LAYER
  5
204
100
AcDbSymbolTableRecord
100
AcDbLayerTableRecord
  2
PIANI
 70
0
 62
7
  6
CONTINUOUS
370
-3
390
F
  0
LAYER
  5
205
100
AcDbSymbolTableRecord
100
AcDbLayerTableRecord
  2
RACCORDO
 70
0
 62
7
  6
CONTINUOUS
370
-3
390
F
  0
LAYER
  5
206
100
AcDbSymbolTableRecord
100
AcDbLayerTableRecord
  2
SNAPLINE
 70
0
 62
7
  6
CONTINUOUS
370
-3
390
F
  0
LAYER
  5
207
100
AcDbSymbolTableRecord
100
AcDbLayerTableRecord
  2
TRASH
 70
0
 62
7
  6
CONTINUOUS
370
-3
390
F
  0
ENDTAB
  0
TABLE
  2
STYLE
  5
3
100
AcDbSymbolTable
 70
1
  0
STYLE
  5
11
100
AcDbSymbolTableRecord
100
AcDbTextStyleTableRecord
  2
STANDARD
 70
0
 40
0.0
 41
0.8
 50
0.0
 71
0
 42
0.2
  3
txt
  4

  0
STYLE
  5
208
100
AcDbSymbolTableRecord
100
AcDbTextStyleTableRecord
  2
TEXTSTYLE_1
 70
0
 40
0.0
 41
0.8
 50
0.0
 71
0
 42
0.2
  3
gdt
  4

  0
ENDTAB
  0
TABLE
  2
VIEW
  5
6
100
AcDbSymbolTable
 70
0
  0
ENDTAB
  0
TABLE
  2
UCS
  5
7
100
AcDbSymbolTable
 70
0
  0
ENDTAB
  0
TABLE
  2
APPID
  5
9
100
AcDbSymbolTable
 70
1
  0
APPID
  5
209
100
AcDbSymbolTableRecord
100
AcDbRegAppTableRecord
  2
ACAD
 70
0
  0
ENDTAB
  0
TABLE
  2
BLOCK_RECORD
  5
1
100
AcDbSymbolTable
 70
0
  0
BLOCK_RECORD
  5
20A
100
AcDbSymbolTableRecord
100
AcDbBlockTableRecord
  2
*Model_Space
  0
BLOCK_RECORD
  5
20B
100
AcDbSymbolTableRecord
100
AcDbBlockTableRecord
  2
*Paper_Space
  0
ENDTAB
  0
TABLE
  2
DIMSTYLE
  5
A
100
AcDbSymbolTable
 70
1
100
AcDbDimStyleTable
 71
0
  0
DIMSTYLE
105
20C
100
AcDbSymbolTableRecord
100
AcDbDimStyleTableRecord
  2
STANDARD
 70
0
  3

  4

 40
1.0
 41
3.0
 42
0.0625
 43
0.38
 44
0.18
 45
0.0
 46
0.0
 47
0.01
 48
0.01
140
3.0
141
0.09
142
0.0
143
25.4
144
1.0
145
0.0
146
1.0
147
0.09
 71
1.0
 72
0.0
 73
0
 74
0
 75
0
 76
0
 77
1
 78
8
170
0
171
2
172
0
173
0
174
0
175
0
176
0
177
0
178
0
270
2
271
2
272
2
273
2
274
2
275
0
280
0
281
0
282
0
283
1
284
8
285
0
286
0
287
3
288
0
340
11
  0
ENDTAB
  0
ENDSEC
  0
SECTION
  2
BLOCKS
  0
BLOCK
  5
20
100
AcDbEntity
  8
0
100
AcDbBlockBegin
  2
*Model_Space
 70
0
 10
0.0
 20
0.0
 30
0.0
  3
*Model_Space
  1

  0
ENDBLK
  5
21
100
AcDbEntity
  8
0
100
AcDbBlockEnd
  0
BLOCK
  5
1C
100
AcDbEntity
  8
0
100
AcDbBlockBegin
  2
*Paper_Space
 70
0
 10
0.0
 20
0.0
 30
0.0
  3
*Paper_Space
  1

  0
ENDBLK
  5
1D
100
AcDbEntity
  8
0
100
AcDbBlockEnd
  0
ENDSEC
  0
SECTION
  2
ENTITIES
  0
LINE
  5
20D
100
AcDbEntity
  8
DRAFT
100
AcDbLine
 62
7
  6
CONTINUOUS
 10
-116.4237103847
 20
46.8017151767
 11
-116.4237103847
 21
-73.1982848233
  0
LINE
  5
20E
100
AcDbEntity
  8
0
100
AcDbLine
 62
7
  6
CONTINUOUS
 10
-115.40625
 20
-73.1982848233
 11
-115.40625
 21
46.8017151767
  0
LINE
  5
20F
100
AcDbEntity
  8
0
100
AcDbLine
 62
253
  6
CONTINUOUS
 10
-114.90625
 20
-73.1982848233
 11
-114.90625
 21
46.8017151767
  0
LINE
  5
210
100
AcDbEntity
  8
DRAFT
100
AcDbLine
 62
7
  6
CONTINUOUS
 10
-106.40625
 20
-83.215745208
 11
13.59375
 21
-83.215745208
  0
LINE
  5
211
100
AcDbEntity
  8
0
100
AcDbLine
 62
7
  6
CONTINUOUS
 10
13.59375
 20
-82.1982848233
 11
-106.40625
 21
-82.1982848233
  0
LINE
  5
212
100
AcDbEntity
  8
0
100
AcDbLine
 62
253
  6
CONTINUOUS
 10
13.59375
 20
-81.6982848233
 11
-106.40625
 21
-81.6982848233
  0
LINE
  5
213
100
AcDbEntity
  8
0
100
AcDbLine
 62
7
  6
CONTINUOUS
 10
-104.4364922735
 20
-45.6982848233
 11
-104.40625
 21
-46.1982848233
  0
LINE
  5
214
100
AcDbEntity
  8
0
100
AcDbLine
 62
7
  6
CONTINUOUS
 10
-104.6512550059
 20
-45.5482848233
 11
-104.6460168904
 21
-45.6982848233
  0
LINE
  5
215
100
AcDbEntity
  8
0
100
AcDbLine
 62
7
  6
CONTINUOUS
 10
-104.6337946211
 20
-45.5482848233
 11
-104.6285565057
 21
-45.6982848233
  0
LINE
  5
216
100
AcDbEntity
  8
0
100
AcDbLine
 62
7
  6
CONTINUOUS
 10
-104.6163342364
 20
-45.5482848233
 11
-104.611096121
 21
-45.6982848233
  0
LINE
  5
217
100
AcDbEntity
  8
0
100
AcDbLine
 62
7
  6
CONTINUOUS
 10
-104.5988738516
 20
-45.5482848233
 11
-104.5936357362
 21
-45.6982848233
  0
LINE
  5
218
100
AcDbEntity
  8
0
100
AcDbLine
 62
7
  6
CONTINUOUS
 10
-104.5814134669
 20
-45.5482848233
 11
-104.5761753515
 21
-45.6982848233
  0
LINE
  5
219
100
AcDbEntity
  8
0
100
AcDbLine
 62
7
  6
CONTINUOUS
 10
-104.5639530821
 20
-45.5482848233
 11
-104.5587149667
 21
-45.6982848233
  0
LINE
  5
21A
100
AcDbEntity
  8
0
100
AcDbLine
 62
7
  6
CONTINUOUS
 10
-104.5464926974
 20
-45.5482848233
 11
-104.541254582
 21
-45.6982848233
  0
LINE
  5
21B
100
AcDbEntity
  8
0
100
AcDbLine
 62
7
  6
CONTINUOUS
 10
-104.5290323127
 20
-45.5482848233
 11
-104.5237941972
 21
-45.6982848233
  0
LINE
  5
21C
100
AcDbEntity
  8
0
100
AcDbLine
 62
7
  6
CONTINUOUS
 10
-104.5115719279
 20
-45.5482848233
 11
-104.5063338125
 21
-45.6982848233
  0
LINE
  5
21D
100
AcDbEntity
  8
0
100
AcDbLine
 62
7
  6
CONTINUOUS
 10
-104.4941115432
 20
-45.5482848233
 11
-104.4888734277
 21
-45.6982848233
  0
LINE
  5
21E
100
AcDbEntity
  8
0
100
AcDbLine
 62
7
  6
CONTINUOUS
 10
-104.4766511584
 20
-45.5482848233
 11
-104.471413043
 21
-45.6982848233
  0
LINE
  5
21F
100
AcDbEntity
  8
0
100
AcDbLine
 62
7
  6
CONTINUOUS
 10
-104.4591907737
 20
-45.5482848233
 11
-104.4539526582
 21
-45.6982848233
  0
LINE
  5
220
100
AcDbEntity
  8
0
100
AcDbLine
 62
7
  6
CONTINUOUS
 10
-104.4364922735
 20
-45.6982848233
 11
-104.4417303889
 21
-45.5482848233
  0
LINE
  5
221
100
AcDbEntity
  8
0
100
AcDbLine
 62
7
  6
CONTINUOUS
 10
-104.6582391598
 20
-37.8482848233
 11
-104.6634772752
 21
-37.6982848233
  0
LINE
  5
222
100
AcDbEntity
  8
0
100
AcDbLine
 62
7
  6
CONTINUOUS
 10
-104.640778775
 20
-37.8482848233
 11
-104.6460168904
 21
-37.6982848233
  0
LINE
  5
223
100
AcDbEntity
  8
0
100
AcDbLine
 62
7
  6
CONTINUOUS
 10
-104.6233183903
 20
-37.8482848233
 11
-104.6285565057
 21
-37.6982848233
  0
LINE
  5
224
100
AcDbEntity
  8
0
100
AcDbLine
 62
7
  6
CONTINUOUS
 10
-104.6058580055
 20
-37.8482848233
 11
-104.611096121
 21
-37.6982848233
  0
LINE
  5
225
100
AcDbEntity
  8
0
100
AcDbLine
 62
7
  6
CONTINUOUS
 10
-104.5883976208
 20
-37.8482848233
 11
-104.5936357362
 21
-37.6982848233
  0
LINE
  5
226
100
AcDbEntity
  8
0
100
AcDbLine
 62
7
  6
CONTINUOUS
 10
-104.570937236
 20
-37.8482848233
 11
-104.5761753515
 21
-37.6982848233
  0
LINE
  5
227
100
AcDbEntity
  8
0
100
AcDbLine
 62
7
  6
CONTINUOUS
 10
-104.5534768513
 20
-37.8482848233
 11
-104.5587149667
 21
-37.6982848233
  0
LINE
  5
228
100
AcDbEntity
  8
0
100
AcDbLine
 62
7
  6
CONTINUOUS
 10
-104.5360164666
 20
-37.8482848233
 11
-104.541254582
 21
-37.6982848233
  0
LINE
  5
229
100
AcDbEntity
  8
0
100
AcDbLine
 62
7
  6
CONTINUOUS
 10
-104.5185560818
 20
-37.8482848233
 11
-104.5237941972
 21
-37.6982848233
  0
LINE
  5
22A
100
AcDbEntity
  8
0
100
AcDbLine
 62
7
  6
CONTINUOUS
 10
-104.5010956971
 20
-37.8482848233
 11
-104.5063338125
 21
-37.6982848233
  0
LINE
  5
22B
100
AcDbEntity
  8
0
100
AcDbLine
 62
7
  6
CONTINUOUS
 10
-104.4836353123
 20
-37.8482848233
 11
-104.4888734277
 21
-37.6982848233
  0
LINE
  5
22C
100
AcDbEntity
  8
0
100
AcDbLine
 62
7
  6
CONTINUOUS
 10
-104.4661749276
 20
-37.8482848233
 11
-104.471413043
 21
-37.6982848233
  0
LINE
  5
22D
100
AcDbEntity
  8
0
100
AcDbLine
 62
7
  6
CONTINUOUS
 10
-104.4487145428
 20
-37.8482848233
 11
-104.4539526582
 21
-37.6982848233
  0
LINE
  5
22E
100
AcDbEntity
  8
0
100
AcDbLine
 62
253
  6
CONTINUOUS
 10
-106.40625
 20
-81.6982848233
 11
-106.40625
 21
-82.1982848233
  0
LINE
  5
22F
100
AcDbEntity
  8
0
100
AcDbLine
 62
253
  6
CONTINUOUS
 10
-106.40625
 20
55.3017151767
 11
-106.40625
 21
55.8017151767
  0
LINE
  5
230
100
AcDbEntity
  8
0
100
AcDbLine
 62
7
  6
CONTINUOUS
 10
-106.20625
 20
30.8017151767
 11
-106.20625
 21
-57.1982848233
  0
LINE
  5
231
100
AcDbEntity
  8
0
100
AcDbLine
 62
253
  6
CONTINUOUS
 10
-105.6991432188
 20
30.8017151742
 11
-105.6991432188
 21
-57.1982848202
  0
LINE
  5
232
100
AcDbEntity
  8
0
100
AcDbLine
 62
253
  6
CONTINUOUS
 10
-105.0329332607
 20
20.3889911557
 11
-105.0329332607
 21
19.3017151767
  0
LINE
  5
233
100
AcDbEntity
  8
0
100
AcDbLine
 62
253
  6
CONTINUOUS
 10
-105.0329332607
 20
11.3017151767
 11
-105.0329332607
 21
10.2144391977
  0
LINE
  5
234
100
AcDbEntity
  8
0
100
AcDbLine
 62
253
  6
CONTINUOUS
 10
-105.0329332607
 20
-36.6110088443
 11
-105.0329332607
 21
-37.6982848233
  0
LINE
  5
235
100
AcDbEntity
  8
0
100
AcDbLine
 62
253
  6
CONTINUOUS
 10
-105.0329332607
 20
-45.6982848233
 11
-105.0329332607
 21
-46.7855608023
  0
LINE
  5
236
100
AcDbEntity
  8
0
100
AcDbLine
 62
253
  6
CONTINUOUS
 10
-104.9920364376
 20
19.3017151767
 11
-104.9920364376
 21
11.3017151767
  0
LINE
  5
237
100
AcDbEntity
  8
0
100
AcDbLine
 62
253
  6
CONTINUOUS
 10
-104.9920364376
 20
-37.6982848233
 11
-104.9920364376
 21
-45.6982848233
  0
LINE
  5
238
100
AcDbEntity
  8
0
100
AcDbLine
 62
253
  6
CONTINUOUS
 10
-104.9920364375
 20
-47.2208138845
 11
-104.9920364376
 21
-57.1982848233
  0
LINE
  5
239
100
AcDbEntity
  8
0
100
AcDbLine
 62
253
  6
CONTINUOUS
 10
-104.9920364375
 20
-36.1757557621
 11
-104.9920364375
 21
9.7791861155
  0
LINE
  5
23A
100
AcDbEntity
  8
0
100
AcDbLine
 62
253
  6
CONTINUOUS
 10
-104.9920364375
 20
20.8242442379
 11
-104.9920364376
 21
30.8017151767
  0
LINE
  5
23B
100
AcDbEntity
  8
0
100
AcDbLine
 62
7
  6
CONTINUOUS
 10
-104.6460168904
 20
19.3017151767
 11
-104.6512550059
 21
19.1517151767
  0
LINE
  5
23C
100
AcDbEntity
  8
0
100
AcDbLine
 62
7
  6
CONTINUOUS
 10
-104.6285565057
 20
19.3017151767
 11
-104.6337946211
 21
19.1517151767
  0
LINE
  5
23D
100
AcDbEntity
  8
0
100
AcDbLine
 62
7
  6
CONTINUOUS
 10
-104.611096121
 20
19.3017151767
 11
-104.6163342364
 21
19.1517151767
  0
LINE
  5
23E
100
AcDbEntity
  8
0
100
AcDbLine
 62
7
  6
CONTINUOUS
 10
-104.5936357362
 20
19.3017151767
 11
-104.5988738516
 21
19.1517151767
  0
LINE
  5
23F
100
AcDbEntity
  8
0
100
AcDbLine
 62
7
  6
CONTINUOUS
 10
-104.5761753515
 20
19.3017151767
 11
-104.5814134669
 21
19.1517151767
  0
LINE
  5
240
100
AcDbEntity
  8
0
100
AcDbLine
 62
7
  6
CONTINUOUS
 10
-104.5587149667
 20
19.3017151767
 11
-104.5639530821
 21
19.1517151767
  0
LINE
  5
241
100
AcDbEntity
  8
0
100
AcDbLine
 62
7
  6
CONTINUOUS
 10
-104.541254582
 20
19.3017151767
 11
-104.5464926974
 21
19.1517151767
  0
LINE
  5
242
100
AcDbEntity
  8
0
100
AcDbLine
 62
7
  6
CONTINUOUS
 10
-104.5237941972
 20
19.3017151767
 11
-104.5290323127
 21
19.1517151767
  0
LINE
  5
243
100
AcDbEntity
  8
0
100
AcDbLine
 62
7
  6
CONTINUOUS
 10
-104.5063338125
 20
19.3017151767
 11
-104.5115719279
 21
19.1517151767
  0
LINE
  5
244
100
AcDbEntity
  8
0
100
AcDbLine
 62
7
  6
CONTINUOUS
 10
-104.4888734277
 20
19.3017151767
 11
-104.4941115432
 21
19.1517151767
  0
LINE
  5
245
100
AcDbEntity
  8
0
100
AcDbLine
 62
7
  6
CONTINUOUS
 10
-104.471413043
 20
19.3017151767
 11
-104.4766511584
 21
19.1517151767
  0
LINE
  5
246
100
AcDbEntity
  8
0
100
AcDbLine
 62
7
  6
CONTINUOUS
 10
-104.4539526582
 20
19.3017151767
 11
-104.4591907737
 21
19.1517151767
  0
LINE
  5
247
100
AcDbEntity
  8
0
100
AcDbLine
 62
7
  6
CONTINUOUS
 10
-104.4417303889
 20
19.1517151767
 11
-104.4364922735
 21
19.3017151767
  0
LINE
  5
248
100
AcDbEntity
  8
0
100
AcDbLine
 62
7
  6
CONTINUOUS
 10
-104.6634772752
 20
11.3017151767
 11
-104.6582391598
 21
11.4517151767
  0
LINE
  5
249
100
AcDbEntity
  8
0
100
AcDbLine
 62
7
  6
CONTINUOUS
 10
-104.6460168904
 20
11.3017151767
 11
-104.640778775
 21
11.4517151767
  0
LINE
  5
24A
100
AcDbEntity
  8
0
100
AcDbLine
 62
7
  6
CONTINUOUS
 10
-104.6285565057
 20
11.3017151767
 11
-104.6233183903
 21
11.4517151767
  0
LINE
  5
24B
100
AcDbEntity
  8
0
100
AcDbLine
 62
7
  6
CONTINUOUS
 10
-104.611096121
 20
11.3017151767
 11
-104.6058580055
 21
11.4517151767
  0
LINE
  5
24C
100
AcDbEntity
  8
0
100
AcDbLine
 62
7
  6
CONTINUOUS
 10
-104.5936357362
 20
11.3017151767
 11
-104.5883976208
 21
11.4517151767
  0
LINE
  5
24D
100
AcDbEntity
  8
0
100
AcDbLine
 62
7
  6
CONTINUOUS
 10
-104.5761753515
 20
11.3017151767
 11
-104.570937236
 21
11.4517151767
  0
LINE
  5
24E
100
AcDbEntity
  8
0
100
AcDbLine
 62
7
  6
CONTINUOUS
 10
-104.5587149667
 20
11.3017151767
 11
-104.5534768513
 21
11.4517151767
  0
LINE
  5
24F
100
AcDbEntity
  8
0
100
AcDbLine
 62
7
  6
CONTINUOUS
 10
-104.541254582
 20
11.3017151767
 11
-104.5360164666
 21
11.4517151767
  0
LINE
  5
250
100
AcDbEntity
  8
0
100
AcDbLine
 62
7
  6
CONTINUOUS
 10
-104.5237941972
 20
11.3017151767
 11
-104.5185560818
 21
11.4517151767
  0
LINE
  5
251
100
AcDbEntity
  8
0
100
AcDbLine
 62
7
  6
CONTINUOUS
 10
-104.5063338125
 20
11.3017151767
 11
-104.5010956971
 21
11.4517151767
  0
LINE
  5
252
100
AcDbEntity
  8
0
100
AcDbLine
 62
7
  6
CONTINUOUS
 10
-104.4888734277
 20
11.3017151767
 11
-104.4836353123
 21
11.4517151767
  0
LINE
  5
253
100
AcDbEntity
  8
0
100
AcDbLine
 62
7
  6
CONTINUOUS
 10
-104.471413043
 20
11.3017151767
 11
-104.4661749276
 21
11.4517151767
  0
LINE
  5
254
100
AcDbEntity
  8
0
100
AcDbLine
 62
7
  6
CONTINUOUS
 10
-104.4539526582
 20
11.3017151767
 11
-104.4487145428
 21
11.4517151767
  0
LINE
  5
255
100
AcDbEntity
  8
0
100
AcDbLine
 62
7
  6
CONTINUOUS
 10
-104.40625
 20
19.8017151767
 11
-104.4364922735
 21
19.3017151767
  0
LINE
  5
256
100
AcDbEntity
  8
0
100
AcDbLine
 62
7
  6
CONTINUOUS
 10
-103.0233066783
 20
20.3846584984
 11
-103.10625
 21
20.3017151767
  0
LINE
  5
257
100
AcDbEntity
  8
0
100
AcDbLine
 62
7
  6
CONTINUOUS
 10
-100.8233066783
 20
20.3846584984
 11
-100.90625
 21
20.3017151767
  0
LINE
  5
258
100
AcDbEntity
  8
0
100
AcDbLine
 62
253
  6
CONTINUOUS
 10
22.09375
 20
-73.1982848233
 11
22.59375
 21
-73.1982848233
  0
LINE
  5
259
100
AcDbEntity
  8
0
100
AcDbLine
 62
253
  6
CONTINUOUS
 10
-114.90625
 20
-73.1982848233
 11
-115.40625
 21
-73.1982848233
  0
LINE
  5
25A
100
AcDbEntity
  8
0
100
AcDbLine
 62
7
  6
CONTINUOUS
 10
-90.40625
 20
-72.9982848233
 11
-2.40625
 21
-72.9982848233
  0
LINE
  5
25B
100
AcDbEntity
  8
0
100
AcDbLine
 62
253
  6
CONTINUOUS
 10
-90.4062499975
 20
-72.4911780421
 11
-2.4062500031
 21
-72.4911780421
  0
LINE
  5
25C
100
AcDbEntity
  8
0
100
AcDbLine
 62
253
  6
CONTINUOUS
 10
-90.40625
 20
-71.7840712609
 11
-2.40625
 21
-71.7840712609
  0
LINE
  5
25D
100
AcDbEntity
  8
0
100
AcDbLine
 62
7
  6
CONTINUOUS
 10
-103.0233066783
 20
-46.781228145
 11
-103.10625
 21
-46.6982848233
  0
LINE
  5
25E
100
AcDbEntity
  8
0
100
AcDbLine
 62
7
  6
CONTINUOUS
 10
-100.8233066783
 20
-46.781228145
 11
-100.90625
 21
-46.6982848233
  0
LINE
  5
25F
100
AcDbEntity
  8
0
100
AcDbLine
 62
7
  6
CONTINUOUS
 10
-104.4364922735
 20
11.3017151767
 11
-104.40625
 21
10.8017151767
  0
LINE
  5
260
100
AcDbEntity
  8
0
100
AcDbLine
 62
7
  6
CONTINUOUS
 10
-100.3760077265
 20
-37.6982848233
 11
-100.40625
 21
-37.1982848233
  0
LINE
  5
261
100
AcDbEntity
  8
0
100
AcDbLine
 62
7
  6
CONTINUOUS
 10
-104.6512550059
 20
11.4517151767
 11
-104.6460168904
 21
11.3017151767
  0
LINE
  5
262
100
AcDbEntity
  8
0
100
AcDbLine
 62
7
  6
CONTINUOUS
 10
-104.6337946211
 20
11.4517151767
 11
-104.6285565057
 21
11.3017151767
  0
LINE
  5
263
100
AcDbEntity
  8
0
100
AcDbLine
 62
7
  6
CONTINUOUS
 10
-104.6163342364
 20
11.4517151767
 11
-104.611096121
 21
11.3017151767
  0
LINE
  5
264
100
AcDbEntity
  8
0
100
AcDbLine
 62
7
  6
CONTINUOUS
 10
-104.5988738516
 20
11.4517151767
 11
-104.5936357362
 21
11.3017151767
  0
LINE
  5
265
100
AcDbEntity
  8
0
100
AcDbLine
 62
7
  6
CONTINUOUS
 10
-104.5814134669
 20
11.4517151767
 11
-104.5761753515
 21
11.3017151767
  0
LINE
  5
266
100
AcDbEntity
  8
0
100
AcDbLine
 62
7
  6
CONTINUOUS
 10
-104.5639530821
 20
11.4517151767
 11
-104.5587149667
 21
11.3017151767
  0
LINE
  5
267
100
AcDbEntity
  8
0
100
AcDbLine
 62
7
  6
CONTINUOUS
 10
-104.5464926974
 20
11.4517151767
 11
-104.541254582
 21
11.3017151767
  0
LINE
  5
268
100
AcDbEntity
  8
0
100
AcDbLine
 62
7
  6
CONTINUOUS
 10
-104.5290323127
 20
11.4517151767
 11
-104.5237941972
 21
11.3017151767
  0
LINE
  5
269
100
AcDbEntity
  8
0
100
AcDbLine
 62
7
  6
CONTINUOUS
 10
-104.5115719279
 20
11.4517151767
 11
-104.5063338125
 21
11.3017151767
  0
LINE
  5
26A
100
AcDbEntity
  8
0
100
AcDbLine
 62
7
  6
CONTINUOUS
 10
-104.4941115432
 20
11.4517151767
 11
-104.4888734277
 21
11.3017151767
  0
LINE
  5
26B
100
AcDbEntity
  8
0
100
AcDbLine
 62
7
  6
CONTINUOUS
 10
-104.4766511584
 20
11.4517151767
 11
-104.471413043
 21
11.3017151767
  0
LINE
  5
26C
100
AcDbEntity
  8
0
100
AcDbLine
 62
7
  6
CONTINUOUS
 10
-104.4591907737
 20
11.4517151767
 11
-104.4539526582
 21
11.3017151767
  0
LINE
  5
26D
100
AcDbEntity
  8
0
100
AcDbLine
 62
7
  6
CONTINUOUS
 10
-104.4364922735
 20
11.3017151767
 11
-104.4417303889
 21
11.4517151767
  0
LINE
  5
26E
100
AcDbEntity
  8
0
100
AcDbLine
 62
7
  6
CONTINUOUS
 10
-104.6582391598
 20
19.1517151767
 11
-104.6634772752
 21
19.3017151767
  0
LINE
  5
26F
100
AcDbEntity
  8
0
100
AcDbLine
 62
7
  6
CONTINUOUS
 10
-104.640778775
 20
19.1517151767
 11
-104.6460168904
 21
19.3017151767
  0
LINE
  5
270
100
AcDbEntity
  8
0
100
AcDbLine
 62
7
  6
CONTINUOUS
 10
-104.6233183903
 20
19.1517151767
 11
-104.6285565057
 21
19.3017151767
  0
LINE
  5
271
100
AcDbEntity
  8
0
100
AcDbLine
 62
7
  6
CONTINUOUS
 10
-104.6058580055
 20
19.1517151767
 11
-104.611096121
 21
19.3017151767
  0
LINE
  5
272
100
AcDbEntity
  8
0
100
AcDbLine
 62
7
  6
CONTINUOUS
 10
-104.5883976208
 20
19.1517151767
 11
-104.5936357362
 21
19.3017151767
  0
LINE
  5
273
100
AcDbEntity
  8
0
100
AcDbLine
 62
7
  6
CONTINUOUS
 10
-104.570937236
 20
19.1517151767
 11
-104.5761753515
 21
19.3017151767
  0
LINE
  5
274
100
AcDbEntity
  8
0
100
AcDbLine
 62
7
  6
CONTINUOUS
 10
-104.5534768513
 20
19.1517151767
 11
-104.5587149667
 21
19.3017151767
  0
LINE
  5
275
100
AcDbEntity
  8
0
100
AcDbLine
 62
7
  6
CONTINUOUS
 10
-104.5360164666
 20
19.1517151767
 11
-104.541254582
 21
19.3017151767
  0
LINE
  5
276
100
AcDbEntity
  8
0
100
AcDbLine
 62
7
  6
CONTINUOUS
 10
-104.5185560818
 20
19.1517151767
 11
-104.5237941972
 21
19.3017151767
  0
LINE
  5
277
100
AcDbEntity
  8
0
100
AcDbLine
 62
7
  6
CONTINUOUS
 10
-104.5010956971
 20
19.1517151767
 11
-104.5063338125
 21
19.3017151767
  0
LINE
  5
278
100
AcDbEntity
  8
0
100
AcDbLine
 62
7
  6
CONTINUOUS
 10
-104.4836353123
 20
19.1517151767
 11
-104.4888734277
 21
19.3017151767
  0
LINE
  5
279
100
AcDbEntity
  8
0
100
AcDbLine
 62
7
  6
CONTINUOUS
 10
-104.4661749276
 20
19.1517151767
 11
-104.471413043
 21
19.3017151767
  0
LINE
  5
27A
100
AcDbEntity
  8
0
100
AcDbLine
 62
7
  6
CONTINUOUS
 10
-104.4487145428
 20
19.1517151767
 11
-104.4539526582
 21
19.3017151767
  0
LINE
  5
27B
100
AcDbEntity
  8
0
100
AcDbLine
 62
7
  6
CONTINUOUS
 10
-100.3637854572
 20
-45.5482848233
 11
-100.3585473418
 21
-45.6982848233
  0
LINE
  5
27C
100
AcDbEntity
  8
0
100
AcDbLine
 62
7
  6
CONTINUOUS
 10
-100.3463250724
 20
-45.5482848233
 11
-100.341086957
 21
-45.6982848233
  0
LINE
  5
27D
100
AcDbEntity
  8
0
100
AcDbLine
 62
7
  6
CONTINUOUS
 10
-100.3288646877
 20
-45.5482848233
 11
-100.3236265723
 21
-45.6982848233
  0
LINE
  5
27E
100
AcDbEntity
  8
0
100
AcDbLine
 62
7
  6
CONTINUOUS
 10
-100.3114043029
 20
-45.5482848233
 11
-100.3061661875
 21
-45.6982848233
  0
LINE
  5
27F
100
AcDbEntity
  8
0
100
AcDbLine
 62
7
  6
CONTINUOUS
 10
-100.2939439182
 20
-45.5482848233
 11
-100.2887058028
 21
-45.6982848233
  0
LINE
  5
280
100
AcDbEntity
  8
0
100
AcDbLine
 62
7
  6
CONTINUOUS
 10
-100.2764835334
 20
-45.5482848233
 11
-100.271245418
 21
-45.6982848233
  0
LINE
  5
281
100
AcDbEntity
  8
0
100
AcDbLine
 62
7
  6
CONTINUOUS
 10
-100.2590231487
 20
-45.5482848233
 11
-100.2537850333
 21
-45.6982848233
  0
LINE
  5
282
100
AcDbEntity
  8
0
100
AcDbLine
 62
7
  6
CONTINUOUS
 10
-100.241562764
 20
-45.5482848233
 11
-100.2363246485
 21
-45.6982848233
  0
LINE
  5
283
100
AcDbEntity
  8
0
100
AcDbLine
 62
7
  6
CONTINUOUS
 10
-100.2241023792
 20
-45.5482848233
 11
-100.2188642638
 21
-45.6982848233
  0
LINE
  5
284
100
AcDbEntity
  8
0
100
AcDbLine
 62
7
  6
CONTINUOUS
 10
-100.2066419945
 20
-45.5482848233
 11
-100.201403879
 21
-45.6982848233
  0
LINE
  5
285
100
AcDbEntity
  8
0
100
AcDbLine
 62
7
  6
CONTINUOUS
 10
-100.1891816097
 20
-45.5482848233
 11
-100.1839434943
 21
-45.6982848233
  0
LINE
  5
286
100
AcDbEntity
  8
0
100
AcDbLine
 62
7
  6
CONTINUOUS
 10
-100.171721225
 20
-45.5482848233
 11
-100.1664831095
 21
-45.6982848233
  0
LINE
  5
287
100
AcDbEntity
  8
0
100
AcDbLine
 62
7
  6
CONTINUOUS
 10
-100.1542608402
 20
-45.5482848233
 11
-100.1490227248
 21
-45.6982848233
  0
LINE
  5
288
100
AcDbEntity
  8
0
100
AcDbLine
 62
7
  6
CONTINUOUS
 10
-100.3707696111
 20
-37.8482848233
 11
-100.3760077265
 21
-37.6982848233
  0
LINE
  5
289
100
AcDbEntity
  8
0
100
AcDbLine
 62
7
  6
CONTINUOUS
 10
-100.3533092263
 20
-37.8482848233
 11
-100.3585473418
 21
-37.6982848233
  0
LINE
  5
28A
100
AcDbEntity
  8
0
100
AcDbLine
 62
7
  6
CONTINUOUS
 10
-100.3358488416
 20
-37.8482848233
 11
-100.341086957
 21
-37.6982848233
  0
LINE
  5
28B
100
AcDbEntity
  8
0
100
AcDbLine
 62
7
  6
CONTINUOUS
 10
-100.3183884568
 20
-37.8482848233
 11
-100.3236265723
 21
-37.6982848233
  0
LINE
  5
28C
100
AcDbEntity
  8
0
100
AcDbLine
 62
7
  6
CONTINUOUS
 10
-100.3009280721
 20
-37.8482848233
 11
-100.3061661875
 21
-37.6982848233
  0
LINE
  5
28D
100
AcDbEntity
  8
0
100
AcDbLine
 62
7
  6
CONTINUOUS
 10
-100.2834676873
 20
-37.8482848233
 11
-100.2887058028
 21
-37.6982848233
  0
LINE
  5
28E
100
AcDbEntity
  8
0
100
AcDbLine
 62
7
  6
CONTINUOUS
 10
-100.2660073026
 20
-37.8482848233
 11
-100.271245418
 21
-37.6982848233
  0
LINE
  5
28F
100
AcDbEntity
  8
0
100
AcDbLine
 62
7
  6
CONTINUOUS
 10
-100.2485469179
 20
-37.8482848233
 11
-100.2537850333
 21
-37.6982848233
  0
LINE
  5
290
100
AcDbEntity
  8
0
100
AcDbLine
 62
7
  6
CONTINUOUS
 10
-100.2310865331
 20
-37.8482848233
 11
-100.2363246485
 21
-37.6982848233
  0
LINE
  5
291
100
AcDbEntity
  8
0
100
AcDbLine
 62
7
  6
CONTINUOUS
 10
-100.2136261484
 20
-37.8482848233
 11
-100.2188642638
 21
-37.6982848233
  0
LINE
  5
292
100
AcDbEntity
  8
0
100
AcDbLine
 62
7
  6
CONTINUOUS
 10
-100.1961657636
 20
-37.8482848233
 11
-100.201403879
 21
-37.6982848233
  0
LINE
  5
293
100
AcDbEntity
  8
0
100
AcDbLine
 62
7
  6
CONTINUOUS
 10
-100.1787053789
 20
-37.8482848233
 11
-100.1839434943
 21
-37.6982848233
  0
LINE
  5
294
100
AcDbEntity
  8
0
100
AcDbLine
 62
7
  6
CONTINUOUS
 10
-100.1612449941
 20
-37.8482848233
 11
-100.1664831095
 21
-37.6982848233
  0
LINE
  5
295
100
AcDbEntity
  8
0
100
AcDbLine
 62
7
  6
CONTINUOUS
 10
-100.3637854572
 20
11.4517151767
 11
-100.3585473418
 21
11.3017151767
  0
LINE
  5
296
100
AcDbEntity
  8
0
100
AcDbLine
 62
7
  6
CONTINUOUS
 10
-100.3463250724
 20
11.4517151767
 11
-100.341086957
 21
11.3017151767
  0
LINE
  5
297
100
AcDbEntity
  8
0
100
AcDbLine
 62
7
  6
CONTINUOUS
 10
-100.3288646877
 20
11.4517151767
 11
-100.3236265723
 21
11.3017151767
  0
LINE
  5
298
100
AcDbEntity
  8
0
100
AcDbLine
 62
7
  6
CONTINUOUS
 10
-100.3114043029
 20
11.4517151767
 11
-100.3061661875
 21
11.3017151767
  0
LINE
  5
299
100
AcDbEntity
  8
0
100
AcDbLine
 62
7
  6
CONTINUOUS
 10
-100.2939439182
 20
11.4517151767
 11
-100.2887058028
 21
11.3017151767
  0
LINE
  5
29A
100
AcDbEntity
  8
0
100
AcDbLine
 62
7
  6
CONTINUOUS
 10
-100.2764835334
 20
11.4517151767
 11
-100.271245418
 21
11.3017151767
  0
LINE
  5
29B
100
AcDbEntity
  8
0
100
AcDbLine
 62
7
  6
CONTINUOUS
 10
-100.2590231487
 20
11.4517151767
 11
-100.2537850333
 21
11.3017151767
  0
LINE
  5
29C
100
AcDbEntity
  8
0
100
AcDbLine
 62
7
  6
CONTINUOUS
 10
-100.241562764
 20
11.4517151767
 11
-100.2363246485
 21
11.3017151767
  0
LINE
  5
29D
100
AcDbEntity
  8
0
100
AcDbLine
 62
7
  6
CONTINUOUS
 10
-100.2241023792
 20
11.4517151767
 11
-100.2188642638
 21
11.3017151767
  0
LINE
  5
29E
100
AcDbEntity
  8
0
100
AcDbLine
 62
7
  6
CONTINUOUS
 10
-100.2066419945
 20
11.4517151767
 11
-100.201403879
 21
11.3017151767
  0
LINE
  5
29F
100
AcDbEntity
  8
0
100
AcDbLine
 62
7
  6
CONTINUOUS
 10
-100.1891816097
 20
11.4517151767
 11
-100.1839434943
 21
11.3017151767
  0
LINE
  5
2A0
100
AcDbEntity
  8
0
100
AcDbLine
 62
7
  6
CONTINUOUS
 10
-100.171721225
 20
11.4517151767
 11
-100.1664831095
 21
11.3017151767
  0
LINE
  5
2A1
100
AcDbEntity
  8
0
100
AcDbLine
 62
7
  6
CONTINUOUS
 10
-100.1542608402
 20
11.4517151767
 11
-100.1490227248
 21
11.3017151767
  0
LINE
  5
2A2
100
AcDbEntity
  8
0
100
AcDbLine
 62
7
  6
CONTINUOUS
 10
-100.3707696111
 20
19.1517151767
 11
-100.3760077265
 21
19.3017151767
  0
LINE
  5
2A3
100
AcDbEntity
  8
0
100
AcDbLine
 62
7
  6
CONTINUOUS
 10
-100.3533092263
 20
19.1517151767
 11
-100.3585473418
 21
19.3017151767
  0
LINE
  5
2A4
100
AcDbEntity
  8
0
100
AcDbLine
 62
7
  6
CONTINUOUS
 10
-100.3358488416
 20
19.1517151767
 11
-100.341086957
 21
19.3017151767
  0
LINE
  5
2A5
100
AcDbEntity
  8
0
100
AcDbLine
 62
7
  6
CONTINUOUS
 10
-100.3183884568
 20
19.1517151767
 11
-100.3236265723
 21
19.3017151767
  0
LINE
  5
2A6
100
AcDbEntity
  8
0
100
AcDbLine
 62
7
  6
CONTINUOUS
 10
-100.3009280721
 20
19.1517151767
 11
-100.3061661875
 21
19.3017151767
  0
LINE
  5
2A7
100
AcDbEntity
  8
0
100
AcDbLine
 62
7
  6
CONTINUOUS
 10
-100.2834676873
 20
19.1517151767
 11
-100.2887058028
 21
19.3017151767
  0
LINE
  5
2A8
100
AcDbEntity
  8
0
100
AcDbLine
 62
7
  6
CONTINUOUS
 10
-100.2660073026
 20
19.1517151767
 11
-100.271245418
 21
19.3017151767
  0
LINE
  5
2A9
100
AcDbEntity
  8
0
100
AcDbLine
 62
7
  6
CONTINUOUS
 10
-100.2485469179
 20
19.1517151767
 11
-100.2537850333
 21
19.3017151767
  0
LINE
  5
2AA
100
AcDbEntity
  8
0
100
AcDbLine
 62
7
  6
CONTINUOUS
 10
-100.2310865331
 20
19.1517151767
 11
-100.2363246485
 21
19.3017151767
  0
LINE
  5
2AB
100
AcDbEntity
  8
0
100
AcDbLine
 62
7
  6
CONTINUOUS
 10
-100.2136261484
 20
19.1517151767
 11
-100.2188642638
 21
19.3017151767
  0
LINE
  5
2AC
100
AcDbEntity
  8
0
100
AcDbLine
 62
7
  6
CONTINUOUS
 10
-100.1961657636
 20
19.1517151767
 11
-100.201403879
 21
19.3017151767
  0
LINE
  5
2AD
100
AcDbEntity
  8
0
100
AcDbLine
 62
7
  6
CONTINUOUS
 10
-100.1787053789
 20
19.1517151767
 11
-100.1839434943
 21
19.3017151767
  0
LINE
  5
2AE
100
AcDbEntity
  8
0
100
AcDbLine
 62
7
  6
CONTINUOUS
 10
-100.1612449941
 20
19.1517151767
 11
-100.1664831095
 21
19.3017151767
  0
LINE
  5
2AF
100
AcDbEntity
  8
0
100
AcDbLine
 62
253
  6
CONTINUOUS
 10
-104.7453850595
 20
20.4316014478
 11
-104.7453850595
 21
19.3017151767
  0
LINE
  5
2B0
100
AcDbEntity
  8
0
100
AcDbLine
 62
253
  6
CONTINUOUS
 10
-104.7453850595
 20
-36.5683985522
 11
-104.7453850595
 21
-37.6982848233
  0
LINE
  5
2B1
100
AcDbEntity
  8
0
100
AcDbLine
 62
253
  6
CONTINUOUS
 10
-104.7453850595
 20
-45.6982848233
 11
-104.7453850595
 21
-46.8281710943
  0
LINE
  5
2B2
100
AcDbEntity
  8
0
100
AcDbLine
 62
253
  6
CONTINUOUS
 10
-104.7453850595
 20
10.218771855
 11
-104.7453850595
 21
11.3017151767
  0
LINE
  5
2B3
100
AcDbEntity
  8
0
100
AcDbLine
 62
7
  6
CONTINUOUS
 10
-104.40625
 20
20.3017151767
 11
-104.40625
 21
19.8017151767
  0
LINE
  5
2B4
100
AcDbEntity
  8
0
100
AcDbLine
 62
7
  6
CONTINUOUS
 10
-104.40625
 20
10.8017151767
 11
-104.40625
 21
10.3017151767
  0
LINE
  5
2B5
100
AcDbEntity
  8
0
100
AcDbLine
 62
7
  6
CONTINUOUS
 10
-104.40625
 20
-36.6982848233
 11
-104.40625
 21
-37.1982848233
  0
LINE
  5
2B6
100
AcDbEntity
  8
0
100
AcDbLine
 62
7
  6
CONTINUOUS
 10
-104.40625
 20
-46.1982848233
 11
-104.40625
 21
-46.6982848233
  0
LINE
  5
2B7
100
AcDbEntity
  8
0
100
AcDbLine
 62
7
  6
CONTINUOUS
 10
-103.9891933217
 20
20.5017151767
 11
-103.9891933217
 21
20.3846584984
  0
LINE
  5
2B8
100
AcDbEntity
  8
0
100
AcDbLine
 62
7
  6
CONTINUOUS
 10
-103.9891933217
 20
10.218771855
 11
-103.9891933217
 21
10.1017151767
  0
LINE
  5
2B9
100
AcDbEntity
  8
0
100
AcDbLine
 62
7
  6
CONTINUOUS
 10
-103.9891933217
 20
-36.4982848233
 11
-103.9891933217
 21
-36.6153415016
  0
LINE
  5
2BA
100
AcDbEntity
  8
0
100
AcDbLine
 62
7
  6
CONTINUOUS
 10
-103.9891933217
 20
-46.781228145
 11
-103.9891933217
 21
-46.8982848233
  0
LINE
  5
2BB
100
AcDbEntity
  8
0
100
AcDbLine
 62
7
  6
CONTINUOUS
 10
-103.90625
 20
20.5017151767
 11
-103.90625
 21
20.3017151767
  0
LINE
  5
2BC
100
AcDbEntity
  8
0
100
AcDbLine
 62
7
  6
CONTINUOUS
 10
-103.90625
 20
10.3017151767
 11
-103.90625
 21
10.1017151767
  0
LINE
  5
2BD
100
AcDbEntity
  8
0
100
AcDbLine
 62
7
  6
CONTINUOUS
 10
-103.90625
 20
-36.4982848233
 11
-103.90625
 21
-36.6982848233
  0
LINE
  5
2BE
100
AcDbEntity
  8
0
100
AcDbLine
 62
7
  6
CONTINUOUS
 10
-103.90625
 20
-46.6982848233
 11
-103.90625
 21
-46.8982848233
  0
LINE
  5
2BF
100
AcDbEntity
  8
0
100
AcDbLine
 62
7
  6
CONTINUOUS
 10
-103.10625
 20
-46.8982848233
 11
-103.10625
 21
-46.6982848233
  0
LINE
  5
2C0
100
AcDbEntity
  8
0
100
AcDbLine
 62
7
  6
CONTINUOUS
 10
-103.10625
 20
-36.6982848233
 11
-103.10625
 21
-36.4982848233
  0
LINE
  5
2C1
100
AcDbEntity
  8
0
100
AcDbLine
 62
7
  6
CONTINUOUS
 10
-103.10625
 20
10.1017151767
 11
-103.10625
 21
10.3017151767
  0
LINE
  5
2C2
100
AcDbEntity
  8
0
100
AcDbLine
 62
7
  6
CONTINUOUS
 10
-103.10625
 20
20.3017151767
 11
-103.10625
 21
20.5017151767
  0
LINE
  5
2C3
100
AcDbEntity
  8
0
100
AcDbLine
 62
7
  6
CONTINUOUS
 10
-103.0233066783
 20
-46.8982848233
 11
-103.0233066783
 21
-46.781228145
  0
LINE
  5
2C4
100
AcDbEntity
  8
0
100
AcDbLine
 62
7
  6
CONTINUOUS
 10
-103.0233066783
 20
-36.6153415016
 11
-103.0233066783
 21
-36.4982848233
  0
LINE
  5
2C5
100
AcDbEntity
  8
0
100
AcDbLine
 62
7
  6
CONTINUOUS
 10
-103.0233066783
 20
10.1017151767
 11
-103.0233066783
 21
10.218771855
  0
LINE
  5
2C6
100
AcDbEntity
  8
0
100
AcDbLine
 62
7
  6
CONTINUOUS
 10
-103.0233066783
 20
20.3846584984
 11
-103.0233066783
 21
20.5017151767
  0
LINE
  5
2C7
100
AcDbEntity
  8
0
100
AcDbLine
 62
7
  6
CONTINUOUS
 10
-101.7891933217
 20
20.5017151767
 11
-101.7891933217
 21
20.3846584984
  0
LINE
  5
2C8
100
AcDbEntity
  8
0
100
AcDbLine
 62
7
  6
CONTINUOUS
 10
-101.7891933217
 20
10.218771855
 11
-101.7891933217
 21
10.1017151767
  0
LINE
  5
2C9
100
AcDbEntity
  8
0
100
AcDbLine
 62
7
  6
CONTINUOUS
 10
-101.7891933217
 20
-36.4982848233
 11
-101.7891933217
 21
-36.6153415016
  0
LINE
  5
2CA
100
AcDbEntity
  8
0
100
AcDbLine
 62
7
  6
CONTINUOUS
 10
-101.7891933217
 20
-46.781228145
 11
-101.7891933217
 21
-46.8982848233
  0
LINE
  5
2CB
100
AcDbEntity
  8
0
100
AcDbLine
 62
7
  6
CONTINUOUS
 10
-101.70625
 20
20.5017151767
 11
-101.70625
 21
20.3017151767
  0
LINE
  5
2CC
100
AcDbEntity
  8
0
100
AcDbLine
 62
7
  6
CONTINUOUS
 10
-101.70625
 20
10.3017151767
 11
-101.70625
 21
10.1017151767
  0
LINE
  5
2CD
100
AcDbEntity
  8
0
100
AcDbLine
 62
7
  6
CONTINUOUS
 10
-101.70625
 20
-36.4982848233
 11
-101.70625
 21
-36.6982848233
  0
LINE
  5
2CE
100
AcDbEntity
  8
0
100
AcDbLine
 62
7
  6
CONTINUOUS
 10
-101.70625
 20
-46.6982848233
 11
-101.70625
 21
-46.8982848233
  0
LINE
  5
2CF
100
AcDbEntity
  8
0
100
AcDbLine
 62
7
  6
CONTINUOUS
 10
-100.90625
 20
-46.8982848233
 11
-100.90625
 21
-46.6982848233
  0
LINE
  5
2D0
100
AcDbEntity
  8
0
100
AcDbLine
 62
7
  6
CONTINUOUS
 10
-100.90625
 20
-36.6982848233
 11
-100.90625
 21
-36.4982848233
  0
LINE
  5
2D1
100
AcDbEntity
  8
0
100
AcDbLine
 62
7
  6
CONTINUOUS
 10
-100.90625
 20
10.1017151767
 11
-100.90625
 21
10.3017151767
  0
LINE
  5
2D2
100
AcDbEntity
  8
0
100
AcDbLine
 62
7
  6
CONTINUOUS
 10
-100.90625
 20
20.3017151767
 11
-100.90625
 21
20.5017151767
  0
LINE
  5
2D3
100
AcDbEntity
  8
0
100
AcDbLine
 62
7
  6
CONTINUOUS
 10
-100.8233066783
 20
-46.8982848233
 11
-100.8233066783
 21
-46.781228145
  0
LINE
  5
2D4
100
AcDbEntity
  8
0
100
AcDbLine
 62
7
  6
CONTINUOUS
 10
-100.8233066783
 20
-36.6153415016
 11
-100.8233066783
 21
-36.4982848233
  0
LINE
  5
2D5
100
AcDbEntity
  8
0
100
AcDbLine
 62
7
  6
CONTINUOUS
 10
-100.8233066783
 20
10.1017151767
 11
-100.8233066783
 21
10.218771855
  0
LINE
  5
2D6
100
AcDbEntity
  8
0
100
AcDbLine
 62
7
  6
CONTINUOUS
 10
-100.8233066783
 20
20.3846584984
 11
-100.8233066783
 21
20.5017151767
  0
LINE
  5
2D7
100
AcDbEntity
  8
0
100
AcDbLine
 62
7
  6
CONTINUOUS
 10
-100.40625
 20
-46.6982848233
 11
-100.40625
 21
-46.1982848233
  0
LINE
  5
2D8
100
AcDbEntity
  8
0
100
AcDbLine
 62
7
  6
CONTINUOUS
 10
-100.40625
 20
-37.1982848233
 11
-100.40625
 21
-36.6982848233
  0
LINE
  5
2D9
100
AcDbEntity
  8
0
100
AcDbLine
 62
7
  6
CONTINUOUS
 10
-100.40625
 20
10.3017151767
 11
-100.40625
 21
10.8017151767
  0
LINE
  5
2DA
100
AcDbEntity
  8
0
100
AcDbLine
 62
7
  6
CONTINUOUS
 10
-100.40625
 20
19.8017151767
 11
-100.40625
 21
20.3017151767
  0
LINE
  5
2DB
100
AcDbEntity
  8
0
100
AcDbLine
 62
253
  6
CONTINUOUS
 10
-100.0671529207
 20
-46.8276647948
 11
-100.0671529207
 21
-45.6982848233
  0
LINE
  5
2DC
100
AcDbEntity
  8
0
100
AcDbLine
 62
253
  6
CONTINUOUS
 10
-100.0671529207
 20
-37.6982848233
 11
-100.0671529207
 21
-36.5689048518
  0
LINE
  5
2DD
100
AcDbEntity
  8
0
100
AcDbLine
 62
253
  6
CONTINUOUS
 10
-100.0671529207
 20
10.1723352052
 11
-100.0671529207
 21
11.3017151767
  0
LINE
  5
2DE
100
AcDbEntity
  8
0
100
AcDbLine
 62
253
  6
CONTINUOUS
 10
-100.0671529207
 20
19.3017151767
 11
-100.0671529207
 21
20.3846584984
  0
LINE
  5
2DF
100
AcDbEntity
  8
0
100
AcDbLine
 62
253
  6
CONTINUOUS
 10
-99.7673356726
 20
20.8846394599
 11
-99.7673356726
 21
19.3017151767
  0
LINE
  5
2E0
100
AcDbEntity
  8
0
100
AcDbLine
 62
253
  6
CONTINUOUS
 10
-99.7673356726
 20
11.3017151767
 11
-99.7673356726
 21
9.7187908935
  0
LINE
  5
2E1
100
AcDbEntity
  8
0
100
AcDbLine
 62
253
  6
CONTINUOUS
 10
-99.7673356726
 20
-36.1153605401
 11
-99.7673356726
 21
-37.6982848233
  0
LINE
  5
2E2
100
AcDbEntity
  8
0
100
AcDbLine
 62
253
  6
CONTINUOUS
 10
-99.7673356726
 20
-45.6982848233
 11
-99.7673356726
 21
-47.2812091065
  0
LINE
  5
2E3
100
AcDbEntity
  8
0
100
AcDbLine
 62
7
  6
CONTINUOUS
 10
-104.6460168904
 20
-37.6982848233
 11
-104.6512550059
 21
-37.8482848233
  0
LINE
  5
2E4
100
AcDbEntity
  8
0
100
AcDbLine
 62
7
  6
CONTINUOUS
 10
-104.6285565057
 20
-37.6982848233
 11
-104.6337946211
 21
-37.8482848233
  0
LINE
  5
2E5
100
AcDbEntity
  8
0
100
AcDbLine
 62
7
  6
CONTINUOUS
 10
-104.611096121
 20
-37.6982848233
 11
-104.6163342364
 21
-37.8482848233
  0
LINE
  5
2E6
100
AcDbEntity
  8
0
100
AcDbLine
 62
7
  6
CONTINUOUS
 10
-104.5936357362
 20
-37.6982848233
 11
-104.5988738516
 21
-37.8482848233
  0
LINE
  5
2E7
100
AcDbEntity
  8
0
100
AcDbLine
 62
7
  6
CONTINUOUS
 10
-104.5761753515
 20
-37.6982848233
 11
-104.5814134669
 21
-37.8482848233
  0
LINE
  5
2E8
100
AcDbEntity
  8
0
100
AcDbLine
 62
7
  6
CONTINUOUS
 10
-104.5587149667
 20
-37.6982848233
 11
-104.5639530821
 21
-37.8482848233
  0
LINE
  5
2E9
100
AcDbEntity
  8
0
100
AcDbLine
 62
7
  6
CONTINUOUS
 10
-104.541254582
 20
-37.6982848233
 11
-104.5464926974
 21
-37.8482848233
  0
LINE
  5
2EA
100
AcDbEntity
  8
0
100
AcDbLine
 62
7
  6
CONTINUOUS
 10
-104.5237941972
 20
-37.6982848233
 11
-104.5290323127
 21
-37.8482848233
  0
LINE
  5
2EB
100
AcDbEntity
  8
0
100
AcDbLine
 62
7
  6
CONTINUOUS
 10
-104.5063338125
 20
-37.6982848233
 11
-104.5115719279
 21
-37.8482848233
  0
LINE
  5
2EC
100
AcDbEntity
  8
0
100
AcDbLine
 62
7
  6
CONTINUOUS
 10
-104.4888734277
 20
-37.6982848233
 11
-104.4941115432
 21
-37.8482848233
  0
LINE
  5
2ED
100
AcDbEntity
  8
0
100
AcDbLine
 62
7
  6
CONTINUOUS
 10
-104.471413043
 20
-37.6982848233
 11
-104.4766511584
 21
-37.8482848233
  0
LINE
  5
2EE
100
AcDbEntity
  8
0
100
AcDbLine
 62
7
  6
CONTINUOUS
 10
-104.4539526582
 20
-37.6982848233
 11
-104.4591907737
 21
-37.8482848233
  0
LINE
  5
2EF
100
AcDbEntity
  8
0
100
AcDbLine
 62
7
  6
CONTINUOUS
 10
-104.4417303889
 20
-37.8482848233
 11
-104.4364922735
 21
-37.6982848233
  0
LINE
  5
2F0
100
AcDbEntity
  8
0
100
AcDbLine
 62
7
  6
CONTINUOUS
 10
-104.6634772752
 20
-45.6982848233
 11
-104.6582391598
 21
-45.5482848233
  0
LINE
  5
2F1
100
AcDbEntity
  8
0
100
AcDbLine
 62
7
  6
CONTINUOUS
 10
-104.6460168904
 20
-45.6982848233
 11
-104.640778775
 21
-45.5482848233
  0
LINE
  5
2F2
100
AcDbEntity
  8
0
100
AcDbLine
 62
7
  6
CONTINUOUS
 10
-104.6285565057
 20
-45.6982848233
 11
-104.6233183903
 21
-45.5482848233
  0
LINE
  5
2F3
100
AcDbEntity
  8
0
100
AcDbLine
 62
7
  6
CONTINUOUS
 10
-104.611096121
 20
-45.6982848233
 11
-104.6058580055
 21
-45.5482848233
  0
LINE
  5
2F4
100
AcDbEntity
  8
0
100
AcDbLine
 62
7
  6
CONTINUOUS
 10
-104.5936357362
 20
-45.6982848233
 11
-104.5883976208
 21
-45.5482848233
  0
LINE
  5
2F5
100
AcDbEntity
  8
0
100
AcDbLine
 62
7
  6
CONTINUOUS
 10
-104.5761753515
 20
-45.6982848233
 11
-104.570937236
 21
-45.5482848233
  0
LINE
  5
2F6
100
AcDbEntity
  8
0
100
AcDbLine
 62
7
  6
CONTINUOUS
 10
-104.5587149667
 20
-45.6982848233
 11
-104.5534768513
 21
-45.5482848233
  0
LINE
  5
2F7
100
AcDbEntity
  8
0
100
AcDbLine
 62
7
  6
CONTINUOUS
 10
-104.541254582
 20
-45.6982848233
 11
-104.5360164666
 21
-45.5482848233
  0
LINE
  5
2F8
100
AcDbEntity
  8
0
100
AcDbLine
 62
7
  6
CONTINUOUS
 10
-104.5237941972
 20
-45.6982848233
 11
-104.5185560818
 21
-45.5482848233
  0
LINE
  5
2F9
100
AcDbEntity
  8
0
100
AcDbLine
 62
7
  6
CONTINUOUS
 10
-104.5063338125
 20
-45.6982848233
 11
-104.5010956971
 21
-45.5482848233
  0
LINE
  5
2FA
100
AcDbEntity
  8
0
100
AcDbLine
 62
7
  6
CONTINUOUS
 10
-104.4888734277
 20
-45.6982848233
 11
-104.4836353123
 21
-45.5482848233
  0
LINE
  5
2FB
100
AcDbEntity
  8
0
100
AcDbLine
 62
7
  6
CONTINUOUS
 10
-104.471413043
 20
-45.6982848233
 11
-104.4661749276
 21
-45.5482848233
  0
LINE
  5
2FC
100
AcDbEntity
  8
0
100
AcDbLine
 62
7
  6
CONTINUOUS
 10
-104.4539526582
 20
-45.6982848233
 11
-104.4487145428
 21
-45.5482848233
  0
LINE
  5
2FD
100
AcDbEntity
  8
0
100
AcDbLine
 62
7
  6
CONTINUOUS
 10
-100.3585473418
 20
19.3017151767
 11
-100.3637854572
 21
19.1517151767
  0
LINE
  5
2FE
100
AcDbEntity
  8
0
100
AcDbLine
 62
7
  6
CONTINUOUS
 10
-100.341086957
 20
19.3017151767
 11
-100.3463250724
 21
19.1517151767
  0
LINE
  5
2FF
100
AcDbEntity
  8
0
100
AcDbLine
 62
7
  6
CONTINUOUS
 10
-100.3236265723
 20
19.3017151767
 11
-100.3288646877
 21
19.1517151767
  0
LINE
  5
300
100
AcDbEntity
  8
0
100
AcDbLine
 62
7
  6
CONTINUOUS
 10
-100.3061661875
 20
19.3017151767
 11
-100.3114043029
 21
19.1517151767
  0
LINE
  5
301
100
AcDbEntity
  8
0
100
AcDbLine
 62
7
  6
CONTINUOUS
 10
-100.2887058028
 20
19.3017151767
 11
-100.2939439182
 21
19.1517151767
  0
LINE
  5
302
100
AcDbEntity
  8
0
100
AcDbLine
 62
7
  6
CONTINUOUS
 10
-100.271245418
 20
19.3017151767
 11
-100.2764835334
 21
19.1517151767
  0
LINE
  5
303
100
AcDbEntity
  8
0
100
AcDbLine
 62
7
  6
CONTINUOUS
 10
-100.2537850333
 20
19.3017151767
 11
-100.2590231487
 21
19.1517151767
  0
LINE
  5
304
100
AcDbEntity
  8
0
100
AcDbLine
 62
7
  6
CONTINUOUS
 10
-100.2363246485
 20
19.3017151767
 11
-100.241562764
 21
19.1517151767
  0
LINE
  5
305
100
AcDbEntity
  8
0
100
AcDbLine
 62
7
  6
CONTINUOUS
 10
-100.2188642638
 20
19.3017151767
 11
-100.2241023792
 21
19.1517151767
  0
LINE
  5
306
100
AcDbEntity
  8
0
100
AcDbLine
 62
7
  6
CONTINUOUS
 10
-100.201403879
 20
19.3017151767
 11
-100.2066419945
 21
19.1517151767
  0
LINE
  5
307
100
AcDbEntity
  8
0
100
AcDbLine
 62
7
  6
CONTINUOUS
 10
-100.1839434943
 20
19.3017151767
 11
-100.1891816097
 21
19.1517151767
  0
LINE
  5
308
100
AcDbEntity
  8
0
100
AcDbLine
 62
7
  6
CONTINUOUS
 10
-100.1664831095
 20
19.3017151767
 11
-100.171721225
 21
19.1517151767
  0
LINE
  5
309
100
AcDbEntity
  8
0
100
AcDbLine
 62
7
  6
CONTINUOUS
 10
-100.1490227248
 20
19.3017151767
 11
-100.1542608402
 21
19.1517151767
  0
LINE
  5
30A
100
AcDbEntity
  8
0
100
AcDbLine
 62
7
  6
CONTINUOUS
 10
-100.3760077265
 20
11.3017151767
 11
-100.3707696111
 21
11.4517151767
  0
LINE
  5
30B
100
AcDbEntity
  8
0
100
AcDbLine
 62
7
  6
CONTINUOUS
 10
-100.3585473418
 20
11.3017151767
 11
-100.3533092263
 21
11.4517151767
  0
LINE
  5
30C
100
AcDbEntity
  8
0
100
AcDbLine
 62
7
  6
CONTINUOUS
 10
-100.341086957
 20
11.3017151767
 11
-100.3358488416
 21
11.4517151767
  0
LINE
  5
30D
100
AcDbEntity
  8
0
100
AcDbLine
 62
7
  6
CONTINUOUS
 10
-100.3236265723
 20
11.3017151767
 11
-100.3183884568
 21
11.4517151767
  0
LINE
  5
30E
100
AcDbEntity
  8
0
100
AcDbLine
 62
7
  6
CONTINUOUS
 10
-100.3061661875
 20
11.3017151767
 11
-100.3009280721
 21
11.4517151767
  0
LINE
  5
30F
100
AcDbEntity
  8
0
100
AcDbLine
 62
7
  6
CONTINUOUS
 10
-100.2887058028
 20
11.3017151767
 11
-100.2834676873
 21
11.4517151767
  0
LINE
  5
310
100
AcDbEntity
  8
0
100
AcDbLine
 62
7
  6
CONTINUOUS
 10
-100.271245418
 20
11.3017151767
 11
-100.2660073026
 21
11.4517151767
  0
LINE
  5
311
100
AcDbEntity
  8
0
100
AcDbLine
 62
7
  6
CONTINUOUS
 10
-100.2537850333
 20
11.3017151767
 11
-100.2485469179
 21
11.4517151767
  0
LINE
  5
312
100
AcDbEntity
  8
0
100
AcDbLine
 62
7
  6
CONTINUOUS
 10
-100.2363246485
 20
11.3017151767
 11
-100.2310865331
 21
11.4517151767
  0
LINE
  5
313
100
AcDbEntity
  8
0
100
AcDbLine
 62
7
  6
CONTINUOUS
 10
-100.2188642638
 20
11.3017151767
 11
-100.2136261484
 21
11.4517151767
  0
LINE
  5
314
100
AcDbEntity
  8
0
100
AcDbLine
 62
7
  6
CONTINUOUS
 10
-100.201403879
 20
11.3017151767
 11
-100.1961657636
 21
11.4517151767
  0
LINE
  5
315
100
AcDbEntity
  8
0
100
AcDbLine
 62
7
  6
CONTINUOUS
 10
-100.1839434943
 20
11.3017151767
 11
-100.1787053789
 21
11.4517151767
  0
LINE
  5
316
100
AcDbEntity
  8
0
100
AcDbLine
 62
7
  6
CONTINUOUS
 10
-100.1664831095
 20
11.3017151767
 11
-100.1612449941
 21
11.4517151767
  0
LINE
  5
317
100
AcDbEntity
  8
0
100
AcDbLine
 62
7
  6
CONTINUOUS
 10
-100.3585473418
 20
-37.6982848233
 11
-100.3637854572
 21
-37.8482848233
  0
LINE
  5
318
100
AcDbEntity
  8
0
100
AcDbLine
 62
7
  6
CONTINUOUS
 10
-100.341086957
 20
-37.6982848233
 11
-100.3463250724
 21
-37.8482848233
  0
LINE
  5
319
100
AcDbEntity
  8
0
100
AcDbLine
 62
7
  6
CONTINUOUS
 10
-100.3236265723
 20
-37.6982848233
 11
-100.3288646877
 21
-37.8482848233
  0
LINE
  5
31A
100
AcDbEntity
  8
0
100
AcDbLine
 62
7
  6
CONTINUOUS
 10
-100.3061661875
 20
-37.6982848233
 11
-100.3114043029
 21
-37.8482848233
  0
LINE
  5
31B
100
AcDbEntity
  8
0
100
AcDbLine
 62
7
  6
CONTINUOUS
 10
-100.2887058028
 20
-37.6982848233
 11
-100.2939439182
 21
-37.8482848233
  0
LINE
  5
31C
100
AcDbEntity
  8
0
100
AcDbLine
 62
7
  6
CONTINUOUS
 10
-100.271245418
 20
-37.6982848233
 11
-100.2764835334
 21
-37.8482848233
  0
LINE
  5
31D
100
AcDbEntity
  8
0
100
AcDbLine
 62
7
  6
CONTINUOUS
 10
-100.2537850333
 20
-37.6982848233
 11
-100.2590231487
 21
-37.8482848233
  0
LINE
  5
31E
100
AcDbEntity
  8
0
100
AcDbLine
 62
7
  6
CONTINUOUS
 10
-100.2363246485
 20
-37.6982848233
 11
-100.241562764
 21
-37.8482848233
  0
LINE
  5
31F
100
AcDbEntity
  8
0
100
AcDbLine
 62
7
  6
CONTINUOUS
 10
-100.2188642638
 20
-37.6982848233
 11
-100.2241023792
 21
-37.8482848233
  0
LINE
  5
320
100
AcDbEntity
  8
0
100
AcDbLine
 62
7
  6
CONTINUOUS
 10
-100.201403879
 20
-37.6982848233
 11
-100.2066419945
 21
-37.8482848233
  0
LINE
  5
321
100
AcDbEntity
  8
0
100
AcDbLine
 62
7
  6
CONTINUOUS
 10
-100.1839434943
 20
-37.6982848233
 11
-100.1891816097
 21
-37.8482848233
  0
LINE
  5
322
100
AcDbEntity
  8
0
100
AcDbLine
 62
7
  6
CONTINUOUS
 10
-100.1664831095
 20
-37.6982848233
 11
-100.171721225
 21
-37.8482848233
  0
LINE
  5
323
100
AcDbEntity
  8
0
100
AcDbLine
 62
7
  6
CONTINUOUS
 10
-100.1490227248
 20
-37.6982848233
 11
-100.1542608402
 21
-37.8482848233
  0
LINE
  5
324
100
AcDbEntity
  8
0
100
AcDbLine
 62
7
  6
CONTINUOUS
 10
-100.3760077265
 20
-45.6982848233
 11
-100.3707696111
 21
-45.5482848233
  0
LINE
  5
325
100
AcDbEntity
  8
0
100
AcDbLine
 62
7
  6
CONTINUOUS
 10
-100.3585473418
 20
-45.6982848233
 11
-100.3533092263
 21
-45.5482848233
  0
LINE
  5
326
100
AcDbEntity
  8
0
100
AcDbLine
 62
7
  6
CONTINUOUS
 10
-100.341086957
 20
-45.6982848233
 11
-100.3358488416
 21
-45.5482848233
  0
LINE
  5
327
100
AcDbEntity
  8
0
100
AcDbLine
 62
7
  6
CONTINUOUS
 10
-100.3236265723
 20
-45.6982848233
 11
-100.3183884568
 21
-45.5482848233
  0
LINE
  5
328
100
AcDbEntity
  8
0
100
AcDbLine
 62
7
  6
CONTINUOUS
 10
-100.3061661875
 20
-45.6982848233
 11
-100.3009280721
 21
-45.5482848233
  0
LINE
  5
329
100
AcDbEntity
  8
0
100
AcDbLine
 62
7
  6
CONTINUOUS
 10
-100.2887058028
 20
-45.6982848233
 11
-100.2834676873
 21
-45.5482848233
  0
LINE
  5
32A
100
AcDbEntity
  8
0
100
AcDbLine
 62
7
  6
CONTINUOUS
 10
-100.271245418
 20
-45.6982848233
 11
-100.2660073026
 21
-45.5482848233
  0
LINE
  5
32B
100
AcDbEntity
  8
0
100
AcDbLine
 62
7
  6
CONTINUOUS
 10
-100.2537850333
 20
-45.6982848233
 11
-100.2485469179
 21
-45.5482848233
  0
LINE
  5
32C
100
AcDbEntity
  8
0
100
AcDbLine
 62
7
  6
CONTINUOUS
 10
-100.2363246485
 20
-45.6982848233
 11
-100.2310865331
 21
-45.5482848233
  0
LINE
  5
32D
100
AcDbEntity
  8
0
100
AcDbLine
 62
7
  6
CONTINUOUS
 10
-100.2188642638
 20
-45.6982848233
 11
-100.2136261484
 21
-45.5482848233
  0
LINE
  5
32E
100
AcDbEntity
  8
0
100
AcDbLine
 62
7
  6
CONTINUOUS
 10
-100.201403879
 20
-45.6982848233
 11
-100.1961657636
 21
-45.5482848233
  0
LINE
  5
32F
100
AcDbEntity
  8
0
100
AcDbLine
 62
7
  6
CONTINUOUS
 10
-100.1839434943
 20
-45.6982848233
 11
-100.1787053789
 21
-45.5482848233
  0
LINE
  5
330
100
AcDbEntity
  8
0
100
AcDbLine
 62
7
  6
CONTINUOUS
 10
-100.1664831095
 20
-45.6982848233
 11
-100.1612449941
 21
-45.5482848233
  0
LINE
  5
331
100
AcDbEntity
  8
0
100
AcDbLine
 62
7
  6
CONTINUOUS
 10
-104.40625
 20
-37.1982848233
 11
-104.4364922735
 21
-37.6982848233
  0
LINE
  5
332
100
AcDbEntity
  8
0
100
AcDbLine
 62
7
  6
CONTINUOUS
 10
-100.40625
 20
10.8017151767
 11
-100.3760077265
 21
11.3017151767
  0
LINE
  5
333
100
AcDbEntity
  8
0
100
AcDbLine
 62
7
  6
CONTINUOUS
 10
-103.9891933217
 20
10.218771855
 11
-103.90625
 21
10.3017151767
  0
LINE
  5
334
100
AcDbEntity
  8
0
100
AcDbLine
 62
7
  6
CONTINUOUS
 10
-101.7891933217
 20
10.218771855
 11
-101.70625
 21
10.3017151767
  0
LINE
  5
335
100
AcDbEntity
  8
0
100
AcDbLine
 62
7
  6
CONTINUOUS
 10
-103.9891933217
 20
-36.6153415016
 11
-103.90625
 21
-36.6982848233
  0
LINE
  5
336
100
AcDbEntity
  8
0
100
AcDbLine
 62
7
  6
CONTINUOUS
 10
-101.7891933217
 20
-36.6153415016
 11
-101.70625
 21
-36.6982848233
  0
LINE
  5
337
100
AcDbEntity
  8
0
100
AcDbLine
 62
7
  6
CONTINUOUS
 10
-100.3760077265
 20
19.3017151767
 11
-100.40625
 21
19.8017151767
  0
LINE
  5
338
100
AcDbEntity
  8
0
100
AcDbLine
 62
7
  6
CONTINUOUS
 10
-100.40625
 20
-46.1982848233
 11
-100.3760077265
 21
-45.6982848233
  0
LINE
  5
339
100
AcDbEntity
  8
0
100
AcDbLine
 62
7
  6
CONTINUOUS
 10
7.59375
 20
-46.6982848233
 11
7.2618503212
 21
-46.781228145
  0
LINE
  5
33A
100
AcDbEntity
  8
0
100
AcDbLine
 62
7
  6
CONTINUOUS
 10
-100.0743503212
 20
-46.781228145
 11
-100.40625
 21
-46.6982848233
  0
LINE
  5
33B
100
AcDbEntity
  8
0
100
AcDbLine
 62
253
  6
CONTINUOUS
 10
-90.40625
 20
-71.7840712609
 11
-90.40625
 21
-72.9982848233
  0
LINE
  5
33C
100
AcDbEntity
  8
0
100
AcDbLine
 62
253
  6
CONTINUOUS
 10
-90.40625
 20
45.3875016143
 11
-90.40625
 21
46.6017151767
  0
LINE
  5
33D
100
AcDbEntity
  8
0
100
AcDbLine
 62
253
  6
CONTINUOUS
 10
12.1795364376
 20
-57.1982848233
 11
13.39375
 21
-57.1982848233
  0
LINE
  5
33E
100
AcDbEntity
  8
0
100
AcDbLine
 62
253
  6
CONTINUOUS
 10
-104.9920364376
 20
-57.1982848233
 11
-106.20625
 21
-57.1982848233
  0
LINE
  5
33F
100
AcDbEntity
  8
0
100
AcDbLine
 62
253
  6
CONTINUOUS
 10
-35.6598033906
 20
-56.5053916045
 11
-57.1526966094
 21
-56.5053916045
  0
LINE
  5
340
100
AcDbEntity
  8
0
100
AcDbLine
 62
253
  6
CONTINUOUS
 10
-35.6598375319
 20
-56.1518382139
 11
-57.1526786261
 21
-56.1518382139
  0
LINE
  5
341
100
AcDbEntity
  8
0
100
AcDbLine
 62
253
  6
CONTINUOUS
 10
-35.966910171
 20
-55.8447314327
 11
-56.8456188818
 21
-55.8447314327
  0
LINE
  5
342
100
AcDbEntity
  8
0
100
AcDbLine
 62
253
  6
CONTINUOUS
 10
-35.9669101718
 20
-55.4911780421
 11
-56.8455898282
 21
-55.4911780421
  0
LINE
  5
343
100
AcDbEntity
  8
0
100
AcDbLine
 62
253
  6
CONTINUOUS
 10
-58.2133567812
 20
-55.4447314327
 11
-57.8598033906
 21
-55.4447314327
  0
LINE
  5
344
100
AcDbEntity
  8
0
100
AcDbLine
 62
253
  6
CONTINUOUS
 10
-34.5991432188
 20
-55.4447314327
 11
-34.9526966094
 21
-55.4447314327
  0
LINE
  5
345
100
AcDbEntity
  8
0
100
AcDbLine
 62
253
  6
CONTINUOUS
 10
-35.6133567812
 20
-55.1376246515
 11
-35.2598033906
 21
-55.1376246515
  0
LINE
  5
346
100
AcDbEntity
  8
0
100
AcDbLine
 62
253
  6
CONTINUOUS
 10
-57.1991432188
 20
-55.1376246515
 11
-57.5526966094
 21
-55.1376246515
  0
LINE
  5
347
100
AcDbEntity
  8
0
100
AcDbLine
 62
253
  6
CONTINUOUS
 10
-35.6133567812
 20
-53.7589449951
 11
-35.2598033906
 21
-53.7589449951
  0
LINE
  5
348
100
AcDbEntity
  8
0
100
AcDbLine
 62
253
  6
CONTINUOUS
 10
-57.1991432188
 20
-53.7589449951
 11
-57.5526966094
 21
-53.7589449951
  0
LINE
  5
349
100
AcDbEntity
  8
0
100
AcDbLine
 62
253
  6
CONTINUOUS
 10
-58.2133567812
 20
-53.4518382139
 11
-57.8598033906
 21
-53.4518382138
  0
LINE
  5
34A
100
AcDbEntity
  8
0
100
AcDbLine
 62
253
  6
CONTINUOUS
 10
-34.5991432188
 20
-53.4518382139
 11
-34.9526966094
 21
-53.4518382139
  0
LINE
  5
34B
100
AcDbEntity
  8
0
100
AcDbLine
 62
253
  6
CONTINUOUS
 10
-56.8455898282
 20
-53.4053916045
 11
-35.9669101718
 21
-53.4053916045
  0
LINE
  5
34C
100
AcDbEntity
  8
0
100
AcDbLine
 62
253
  6
CONTINUOUS
 10
-56.845589829
 20
-53.0518382139
 11
-35.9668811182
 21
-53.0518382139
  0
LINE
  5
34D
100
AcDbEntity
  8
0
100
AcDbLine
 62
253
  6
CONTINUOUS
 10
-57.1526624681
 20
-52.7447314327
 11
-35.6598213739
 21
-52.7447314327
  0
LINE
  5
34E
100
AcDbEntity
  8
0
100
AcDbLine
 62
253
  6
CONTINUOUS
 10
-57.1526966094
 20
-52.3911780421
 11
-35.6598033906
 21
-52.3911780421
  0
LINE
  5
34F
100
AcDbEntity
  8
0
100
AcDbLine
 62
253
  6
CONTINUOUS
 10
-57.1526786261
 20
26.3481617861
 11
-56.8456188818
 21
26.6552685673
  0
LINE
  5
350
100
AcDbEntity
  8
0
100
AcDbLine
 62
253
  6
CONTINUOUS
 10
-57.8598033906
 20
27.0553027086
 11
-57.5526966094
 21
27.3623753478
  0
LINE
  5
351
100
AcDbEntity
  8
0
100
AcDbLine
 62
7
  6
CONTINUOUS
 10
11.59375
 20
-36.6982848233
 11
11.9256496788
 21
-36.6153415016
  0
LINE
  5
352
100
AcDbEntity
  8
0
100
AcDbLine
 62
253
  6
CONTINUOUS
 10
-102.6009825589
 20
-47.2812091065
 11
-102.2115174411
 21
-47.2812091065
  0
LINE
  5
353
100
AcDbEntity
  8
0
100
AcDbLine
 62
253
  6
CONTINUOUS
 10
7.5884825589
 20
-47.2812091065
 11
6.9548356726
 21
-47.2812091065
  0
LINE
  5
354
100
AcDbEntity
  8
0
100
AcDbLine
 62
253
  6
CONTINUOUS
 10
9.3990174411
 20
-47.2812091065
 11
9.7884825589
 21
-47.2812091065
  0
LINE
  5
355
100
AcDbEntity
  8
0
100
AcDbLine
 62
253
  6
CONTINUOUS
 10
-99.7673356726
 20
-47.2812091065
 11
-100.4009825589
 21
-47.2812091065
  0
LINE
  5
356
100
AcDbEntity
  8
0
100
AcDbLine
 62
253
  6
CONTINUOUS
 10
-104.4115174411
 20
-47.2812091065
 11
-105.0329332607
 21
-47.2812201107
  0
LINE
  5
357
100
AcDbEntity
  8
0
100
AcDbLine
 62
253
  6
CONTINUOUS
 10
7.8937499999
 20
-46.8982848234
 11
8.09375
 21
-46.8982848233
  0
LINE
  5
358
100
AcDbEntity
  8
0
100
AcDbLine
 62
253
  6
CONTINUOUS
 10
8.89375
 20
-46.8982848233
 11
9.09375
 21
-46.8982848233
  0
LINE
  5
359
100
AcDbEntity
  8
0
100
AcDbLine
 62
253
  6
CONTINUOUS
 10
10.0937499999
 20
-46.8982848234
 11
10.29375
 21
-46.8982848233
  0
LINE
  5
35A
100
AcDbEntity
  8
0
100
AcDbLine
 62
253
  6
CONTINUOUS
 10
11.09375
 20
-46.8982848233
 11
11.29375
 21
-46.8982848233
  0
LINE
  5
35B
100
AcDbEntity
  8
0
100
AcDbLine
 62
253
  6
CONTINUOUS
 10
-100.70625
 20
-46.8982848233
 11
-100.90625
 21
-46.8982848233
  0
LINE
  5
35C
100
AcDbEntity
  8
0
100
AcDbLine
 62
253
  6
CONTINUOUS
 10
-101.70625
 20
-46.8982848233
 11
-101.9062500001
 21
-46.8982848234
  0
LINE
  5
35D
100
AcDbEntity
  8
0
100
AcDbLine
 62
253
  6
CONTINUOUS
 10
-102.90625
 20
-46.8982848233
 11
-103.10625
 21
-46.8982848233
  0
LINE
  5
35E
100
AcDbEntity
  8
0
100
AcDbLine
 62
253
  6
CONTINUOUS
 10
-103.90625
 20
-46.8982848233
 11
-104.1062500001
 21
-46.8982848234
  0
LINE
  5
35F
100
AcDbEntity
  8
0
100
AcDbLine
 62
7
  6
CONTINUOUS
 10
-103.0233066783
 20
-46.781228145
 11
-101.7891933217
 21
-46.781228145
  0
LINE
  5
360
100
AcDbEntity
  8
0
100
AcDbLine
 62
7
  6
CONTINUOUS
 10
11.9256496788
 20
-46.781228145
 11
11.1766933217
 21
-46.781228145
  0
LINE
  5
361
100
AcDbEntity
  8
0
100
AcDbLine
 62
7
  6
CONTINUOUS
 10
8.0108066783
 20
-46.781228145
 11
7.2618503212
 21
-46.781228145
  0
LINE
  5
362
100
AcDbEntity
  8
0
100
AcDbLine
 62
7
  6
CONTINUOUS
 10
8.9766933217
 20
-46.781228145
 11
10.2108066783
 21
-46.781228145
  0
LINE
  5
363
100
AcDbEntity
  8
0
100
AcDbLine
 62
7
  6
CONTINUOUS
 10
-100.0743503212
 20
-46.781228145
 11
-100.8233066783
 21
-46.781228145
  0
LINE
  5
364
100
AcDbEntity
  8
0
100
AcDbLine
 62
7
  6
CONTINUOUS
 10
-103.9891933217
 20
-46.781228145
 11
-104.7381496788
 21
-46.781228145
  0
LINE
  5
365
100
AcDbEntity
  8
0
100
AcDbLine
 62
7
  6
CONTINUOUS
 10
-105.0329332607
 20
-46.7855608023
 11
-104.9920364376
 21
-46.7855535012
  0
LINE
  5
366
100
AcDbEntity
  8
0
100
AcDbLine
 62
7
  6
CONTINUOUS
 10
-104.40625
 20
-46.6982848233
 11
-103.90625
 21
-46.6982848233
  0
LINE
  5
367
100
AcDbEntity
  8
0
100
AcDbLine
 62
7
  6
CONTINUOUS
 10
-103.10625
 20
-46.6982848233
 11
-101.70625
 21
-46.6982848233
  0
LINE
  5
368
100
AcDbEntity
  8
0
100
AcDbLine
 62
7
  6
CONTINUOUS
 10
-100.90625
 20
-46.6982848233
 11
-100.40625
 21
-46.6982848233
  0
LINE
  5
369
100
AcDbEntity
  8
0
100
AcDbLine
 62
7
  6
CONTINUOUS
 10
7.59375
 20
-46.6982848233
 11
8.09375
 21
-46.6982848233
  0
LINE
  5
36A
100
AcDbEntity
  8
0
100
AcDbLine
 62
7
  6
CONTINUOUS
 10
8.89375
 20
-46.6982848233
 11
10.29375
 21
-46.6982848233
  0
LINE
  5
36B
100
AcDbEntity
  8
0
100
AcDbLine
 62
7
  6
CONTINUOUS
 10
11.09375
 20
-46.6982848233
 11
11.59375
 21
-46.6982848233
  0
LINE
  5
36C
100
AcDbEntity
  8
0
100
AcDbLine
 62
7
  6
CONTINUOUS
 10
11.59375
 20
-46.1982848233
 11
7.59375
 21
-46.1982848233
  0
LINE
  5
36D
100
AcDbEntity
  8
0
100
AcDbLine
 62
7
  6
CONTINUOUS
 10
-100.40625
 20
-46.1982848233
 11
-104.40625
 21
-46.1982848233
  0
LINE
  5
36E
100
AcDbEntity
  8
0
100
AcDbLine
 62
7
  6
CONTINUOUS
 10
-100.1490227248
 20
-45.6982848233
 11
-99.7673356726
 21
-45.6982848233
  0
LINE
  5
36F
100
AcDbEntity
  8
0
100
AcDbLine
 62
7
  6
CONTINUOUS
 10
11.6239922735
 20
-45.6982848233
 11
7.5635077265
 21
-45.6982848233
  0
LINE
  5
370
100
AcDbEntity
  8
0
100
AcDbLine
 62
7
  6
CONTINUOUS
 10
6.9548356726
 20
-45.6982848233
 11
7.3365227248
 21
-45.6982848233
  0
LINE
  5
371
100
AcDbEntity
  8
0
100
AcDbLine
 62
7
  6
CONTINUOUS
 10
11.8509772752
 20
-45.6982848233
 11
12.2204332607
 21
-45.6982848233
  0
LINE
  5
372
100
AcDbEntity
  8
0
100
AcDbLine
 62
7
  6
CONTINUOUS
 10
-100.3760077265
 20
-45.6982848233
 11
-104.4364922735
 21
-45.6982848233
  0
LINE
  5
373
100
AcDbEntity
  8
0
100
AcDbLine
 62
7
  6
CONTINUOUS
 10
-104.6634772752
 20
-45.6982848233
 11
-105.0329332607
 21
-45.6982848233
  0
LINE
  5
374
100
AcDbEntity
  8
0
100
AcDbLine
 62
7
  6
CONTINUOUS
 10
-104.5464926974
 20
-45.5482848233
 11
-104.5360164666
 21
-45.5482848233
  0
LINE
  5
375
100
AcDbEntity
  8
0
100
AcDbLine
 62
7
  6
CONTINUOUS
 10
-104.5639530821
 20
-45.5482848233
 11
-104.5534768513
 21
-45.5482848233
  0
LINE
  5
376
100
AcDbEntity
  8
0
100
AcDbLine
 62
7
  6
CONTINUOUS
 10
-104.5814134669
 20
-45.5482848233
 11
-104.570937236
 21
-45.5482848233
  0
LINE
  5
377
100
AcDbEntity
  8
0
100
AcDbLine
 62
7
  6
CONTINUOUS
 10
-104.5988738516
 20
-45.5482848233
 11
-104.5883976208
 21
-45.5482848233
  0
LINE
  5
378
100
AcDbEntity
  8
0
100
AcDbLine
 62
7
  6
CONTINUOUS
 10
-104.6163342364
 20
-45.5482848233
 11
-104.6058580055
 21
-45.5482848233
  0
LINE
  5
379
100
AcDbEntity
  8
0
100
AcDbLine
 62
7
  6
CONTINUOUS
 10
-104.6337946211
 20
-45.5482848233
 11
-104.6233183903
 21
-45.5482848233
  0
LINE
  5
37A
100
AcDbEntity
  8
0
100
AcDbLine
 62
7
  6
CONTINUOUS
 10
-104.6512550059
 20
-45.5482848233
 11
-104.640778775
 21
-45.5482848233
  0
LINE
  5
37B
100
AcDbEntity
  8
0
100
AcDbLine
 62
7
  6
CONTINUOUS
 10
-104.4417303889
 20
-45.5482848233
 11
-100.3707696111
 21
-45.5482848233
  0
LINE
  5
37C
100
AcDbEntity
  8
0
100
AcDbLine
 62
7
  6
CONTINUOUS
 10
-104.4591907737
 20
-45.5482848233
 11
-104.4487145428
 21
-45.5482848233
  0
LINE
  5
37D
100
AcDbEntity
  8
0
100
AcDbLine
 62
7
  6
CONTINUOUS
 10
-104.4766511584
 20
-45.5482848233
 11
-104.4661749276
 21
-45.5482848233
  0
LINE
  5
37E
100
AcDbEntity
  8
0
100
AcDbLine
 62
7
  6
CONTINUOUS
 10
-104.4941115432
 20
-45.5482848233
 11
-104.4836353123
 21
-45.5482848233
  0
LINE
  5
37F
100
AcDbEntity
  8
0
100
AcDbLine
 62
7
  6
CONTINUOUS
 10
-104.5115719279
 20
-45.5482848233
 11
-104.5010956971
 21
-45.5482848233
  0
LINE
  5
380
100
AcDbEntity
  8
0
100
AcDbLine
 62
7
  6
CONTINUOUS
 10
-104.5290323127
 20
-45.5482848233
 11
-104.5185560818
 21
-45.5482848233
  0
LINE
  5
381
100
AcDbEntity
  8
0
100
AcDbLine
 62
7
  6
CONTINUOUS
 10
-100.3637854572
 20
-45.5482848233
 11
-100.3533092263
 21
-45.5482848233
  0
LINE
  5
382
100
AcDbEntity
  8
0
100
AcDbLine
 62
7
  6
CONTINUOUS
 10
-100.3463250724
 20
-45.5482848233
 11
-100.3358488416
 21
-45.5482848233
  0
LINE
  5
383
100
AcDbEntity
  8
0
100
AcDbLine
 62
7
  6
CONTINUOUS
 10
-100.3288646877
 20
-45.5482848233
 11
-100.3183884568
 21
-45.5482848233
  0
LINE
  5
384
100
AcDbEntity
  8
0
100
AcDbLine
 62
7
  6
CONTINUOUS
 10
-100.3114043029
 20
-45.5482848233
 11
-100.3009280721
 21
-45.5482848233
  0
LINE
  5
385
100
AcDbEntity
  8
0
100
AcDbLine
 62
7
  6
CONTINUOUS
 10
-100.2939439182
 20
-45.5482848233
 11
-100.2834676873
 21
-45.5482848233
  0
LINE
  5
386
100
AcDbEntity
  8
0
100
AcDbLine
 62
7
  6
CONTINUOUS
 10
-100.2764835334
 20
-45.5482848233
 11
-100.2660073026
 21
-45.5482848233
  0
LINE
  5
387
100
AcDbEntity
  8
0
100
AcDbLine
 62
7
  6
CONTINUOUS
 10
-100.2590231487
 20
-45.5482848233
 11
-100.2485469179
 21
-45.5482848233
  0
LINE
  5
388
100
AcDbEntity
  8
0
100
AcDbLine
 62
7
  6
CONTINUOUS
 10
-100.241562764
 20
-45.5482848233
 11
-100.2310865331
 21
-45.5482848233
  0
LINE
  5
389
100
AcDbEntity
  8
0
100
AcDbLine
 62
7
  6
CONTINUOUS
 10
-100.2241023792
 20
-45.5482848233
 11
-100.2136261484
 21
-45.5482848233
  0
LINE
  5
38A
100
AcDbEntity
  8
0
100
AcDbLine
 62
7
  6
CONTINUOUS
 10
-100.2066419945
 20
-45.5482848233
 11
-100.1961657636
 21
-45.5482848233
  0
LINE
  5
38B
100
AcDbEntity
  8
0
100
AcDbLine
 62
7
  6
CONTINUOUS
 10
-100.1891816097
 20
-45.5482848233
 11
-100.1787053789
 21
-45.5482848233
  0
LINE
  5
38C
100
AcDbEntity
  8
0
100
AcDbLine
 62
7
  6
CONTINUOUS
 10
-100.171721225
 20
-45.5482848233
 11
-100.1612449941
 21
-45.5482848233
  0
LINE
  5
38D
100
AcDbEntity
  8
0
100
AcDbLine
 62
7
  6
CONTINUOUS
 10
11.6466907737
 20
-45.5482848233
 11
11.6362145428
 21
-45.5482848233
  0
LINE
  5
38E
100
AcDbEntity
  8
0
100
AcDbLine
 62
7
  6
CONTINUOUS
 10
11.6641511584
 20
-45.5482848233
 11
11.6536749276
 21
-45.5482848233
  0
LINE
  5
38F
100
AcDbEntity
  8
0
100
AcDbLine
 62
7
  6
CONTINUOUS
 10
11.6816115432
 20
-45.5482848233
 11
11.6711353123
 21
-45.5482848233
  0
LINE
  5
390
100
AcDbEntity
  8
0
100
AcDbLine
 62
7
  6
CONTINUOUS
 10
11.6990719279
 20
-45.5482848233
 11
11.6885956971
 21
-45.5482848233
  0
LINE
  5
391
100
AcDbEntity
  8
0
100
AcDbLine
 62
7
  6
CONTINUOUS
 10
11.7165323127
 20
-45.5482848233
 11
11.7060560818
 21
-45.5482848233
  0
LINE
  5
392
100
AcDbEntity
  8
0
100
AcDbLine
 62
7
  6
CONTINUOUS
 10
11.7339926974
 20
-45.5482848233
 11
11.7235164666
 21
-45.5482848233
  0
LINE
  5
393
100
AcDbEntity
  8
0
100
AcDbLine
 62
7
  6
CONTINUOUS
 10
11.7514530821
 20
-45.5482848233
 11
11.7409768513
 21
-45.5482848233
  0
LINE
  5
394
100
AcDbEntity
  8
0
100
AcDbLine
 62
7
  6
CONTINUOUS
 10
11.7689134669
 20
-45.5482848233
 11
11.758437236
 21
-45.5482848233
  0
LINE
  5
395
100
AcDbEntity
  8
0
100
AcDbLine
 62
7
  6
CONTINUOUS
 10
11.7863738516
 20
-45.5482848233
 11
11.7758976208
 21
-45.5482848233
  0
LINE
  5
396
100
AcDbEntity
  8
0
100
AcDbLine
 62
7
  6
CONTINUOUS
 10
11.8038342364
 20
-45.5482848233
 11
11.7933580055
 21
-45.5482848233
  0
LINE
  5
397
100
AcDbEntity
  8
0
100
AcDbLine
 62
7
  6
CONTINUOUS
 10
11.8212946211
 20
-45.5482848233
 11
11.8108183903
 21
-45.5482848233
  0
LINE
  5
398
100
AcDbEntity
  8
0
100
AcDbLine
 62
7
  6
CONTINUOUS
 10
11.8387550059
 20
-45.5482848233
 11
11.828278775
 21
-45.5482848233
  0
LINE
  5
399
100
AcDbEntity
  8
0
100
AcDbLine
 62
7
  6
CONTINUOUS
 10
11.6292303889
 20
-45.5482848233
 11
7.5582696111
 21
-45.5482848233
  0
LINE
  5
39A
100
AcDbEntity
  8
0
100
AcDbLine
 62
7
  6
CONTINUOUS
 10
7.5512854572
 20
-45.5482848233
 11
7.5408092263
 21
-45.5482848233
  0
LINE
  5
39B
100
AcDbEntity
  8
0
100
AcDbLine
 62
7
  6
CONTINUOUS
 10
7.5338250724
 20
-45.5482848233
 11
7.5233488416
 21
-45.5482848233
  0
LINE
  5
39C
100
AcDbEntity
  8
0
100
AcDbLine
 62
7
  6
CONTINUOUS
 10
7.5163646877
 20
-45.5482848233
 11
7.5058884568
 21
-45.5482848233
  0
LINE
  5
39D
100
AcDbEntity
  8
0
100
AcDbLine
 62
7
  6
CONTINUOUS
 10
7.4989043029
 20
-45.5482848233
 11
7.4884280721
 21
-45.5482848233
  0
LINE
  5
39E
100
AcDbEntity
  8
0
100
AcDbLine
 62
7
  6
CONTINUOUS
 10
7.4814439182
 20
-45.5482848233
 11
7.4709676873
 21
-45.5482848233
  0
LINE
  5
39F
100
AcDbEntity
  8
0
100
AcDbLine
 62
7
  6
CONTINUOUS
 10
7.4639835334
 20
-45.5482848233
 11
7.4535073026
 21
-45.5482848233
  0
LINE
  5
3A0
100
AcDbEntity
  8
0
100
AcDbLine
 62
7
  6
CONTINUOUS
 10
7.4465231487
 20
-45.5482848233
 11
7.4360469179
 21
-45.5482848233
  0
LINE
  5
3A1
100
AcDbEntity
  8
0
100
AcDbLine
 62
7
  6
CONTINUOUS
 10
7.429062764
 20
-45.5482848233
 11
7.4185865331
 21
-45.5482848233
  0
LINE
  5
3A2
100
AcDbEntity
  8
0
100
AcDbLine
 62
7
  6
CONTINUOUS
 10
7.4116023792
 20
-45.5482848233
 11
7.4011261484
 21
-45.5482848233
  0
LINE
  5
3A3
100
AcDbEntity
  8
0
100
AcDbLine
 62
7
  6
CONTINUOUS
 10
7.3941419945
 20
-45.5482848233
 11
7.3836657636
 21
-45.5482848233
  0
LINE
  5
3A4
100
AcDbEntity
  8
0
100
AcDbLine
 62
7
  6
CONTINUOUS
 10
7.3766816097
 20
-45.5482848233
 11
7.3662053789
 21
-45.5482848233
  0
LINE
  5
3A5
100
AcDbEntity
  8
0
100
AcDbLine
 62
7
  6
CONTINUOUS
 10
7.359221225
 20
-45.5482848233
 11
7.3487449941
 21
-45.5482848233
  0
LINE
  5
3A6
100
AcDbEntity
  8
0
100
AcDbLine
 62
253
  6
CONTINUOUS
 10
12.2204332607
 20
-47.2812201104
 11
11.5990174411
 21
-47.2812091065
  0
LINE
  5
3A7
100
AcDbEntity
  8
0
100
AcDbLine
 62
7
  6
CONTINUOUS
 10
12.1795364376
 20
-46.7855535012
 11
12.2204332607
 21
-46.7855608023
  0
LINE
  5
3A8
100
AcDbEntity
  8
0
100
AcDbLine
 62
7
  6
CONTINUOUS
 10
-104.7381496788
 20
-36.6153415016
 11
-104.40625
 21
-36.6982848233
  0
LINE
  5
3A9
100
AcDbEntity
  8
0
100
AcDbLine
 62
253
  6
CONTINUOUS
 10
-57.8598033906
 20
-53.4518561972
 11
-57.5526966094
 21
-53.7589159415
  0
LINE
  5
3AA
100
AcDbEntity
  8
0
100
AcDbLine
 62
253
  6
CONTINUOUS
 10
-57.1526624681
 20
-52.7447314327
 11
-56.845589829
 21
-53.0518382139
  0
LINE
  5
3AB
100
AcDbEntity
  8
0
100
AcDbLine
 62
7
  6
CONTINUOUS
 10
-76.78125
 20
-14.8553398233
 11
-76.78125
 21
-16.3158408233
  0
LINE
  5
3AC
100
AcDbEntity
  8
0
100
AcDbLine
 62
7
  6
CONTINUOUS
 10
-76.03125
 20
-16.3158408233
 11
-76.03125
 21
-14.855336761
  0
LINE
  5
3AD
100
AcDbEntity
  8
0
100
AcDbLine
 62
7
  6
CONTINUOUS
 10
-74.6063316266
 20
-12.2217055168
 11
-74.60903
 21
-12.3307308233
  0
LINE
  5
3AE
100
AcDbEntity
  8
0
100
AcDbLine
 62
7
  6
CONTINUOUS
 10
-103.0233066783
 20
-36.6153415016
 11
-103.10625
 21
-36.6982848233
  0
LINE
  5
3AF
100
AcDbEntity
  8
0
100
AcDbLine
 62
253
  6
CONTINUOUS
 10
-35.6598213739
 20
29.7552685673
 11
-35.9668811182
 21
29.4481617861
  0
LINE
  5
3B0
100
AcDbEntity
  8
0
100
AcDbLine
 62
7
  6
CONTINUOUS
 10
-100.8233066783
 20
-36.6153415016
 11
-100.90625
 21
-36.6982848233
  0
LINE
  5
3B1
100
AcDbEntity
  8
0
100
AcDbLine
 62
253
  6
CONTINUOUS
 10
-34.9526966094
 20
29.0481276448
 11
-35.2598033906
 21
28.7410550057
  0
LINE
  5
3B2
100
AcDbEntity
  8
0
100
AcDbLine
 62
7
  6
CONTINUOUS
 10
-104.5464926974
 20
-37.8482848233
 11
-104.5360164666
 21
-37.8482848233
  0
LINE
  5
3B3
100
AcDbEntity
  8
0
100
AcDbLine
 62
7
  6
CONTINUOUS
 10
-104.5639530821
 20
-37.8482848233
 11
-104.5534768513
 21
-37.8482848233
  0
LINE
  5
3B4
100
AcDbEntity
  8
0
100
AcDbLine
 62
7
  6
CONTINUOUS
 10
-104.5814134669
 20
-37.8482848233
 11
-104.570937236
 21
-37.8482848233
  0
LINE
  5
3B5
100
AcDbEntity
  8
0
100
AcDbLine
 62
7
  6
CONTINUOUS
 10
-104.5988738516
 20
-37.8482848233
 11
-104.5883976208
 21
-37.8482848233
  0
LINE
  5
3B6
100
AcDbEntity
  8
0
100
AcDbLine
 62
7
  6
CONTINUOUS
 10
-104.6163342364
 20
-37.8482848233
 11
-104.6058580055
 21
-37.8482848233
  0
LINE
  5
3B7
100
AcDbEntity
  8
0
100
AcDbLine
 62
7
  6
CONTINUOUS
 10
-104.6337946211
 20
-37.8482848233
 11
-104.6233183903
 21
-37.8482848233
  0
LINE
  5
3B8
100
AcDbEntity
  8
0
100
AcDbLine
 62
7
  6
CONTINUOUS
 10
-104.6512550059
 20
-37.8482848233
 11
-104.640778775
 21
-37.8482848233
  0
LINE
  5
3B9
100
AcDbEntity
  8
0
100
AcDbLine
 62
7
  6
CONTINUOUS
 10
-104.4417303889
 20
-37.8482848233
 11
-100.3707696111
 21
-37.8482848233
  0
LINE
  5
3BA
100
AcDbEntity
  8
0
100
AcDbLine
 62
7
  6
CONTINUOUS
 10
-104.4591907737
 20
-37.8482848233
 11
-104.4487145428
 21
-37.8482848233
  0
LINE
  5
3BB
100
AcDbEntity
  8
0
100
AcDbLine
 62
7
  6
CONTINUOUS
 10
-104.4766511584
 20
-37.8482848233
 11
-104.4661749276
 21
-37.8482848233
  0
LINE
  5
3BC
100
AcDbEntity
  8
0
100
AcDbLine
 62
7
  6
CONTINUOUS
 10
-104.4941115432
 20
-37.8482848233
 11
-104.4836353123
 21
-37.8482848233
  0
LINE
  5
3BD
100
AcDbEntity
  8
0
100
AcDbLine
 62
7
  6
CONTINUOUS
 10
-104.5115719279
 20
-37.8482848233
 11
-104.5010956971
 21
-37.8482848233
  0
LINE
  5
3BE
100
AcDbEntity
  8
0
100
AcDbLine
 62
7
  6
CONTINUOUS
 10
-104.5290323127
 20
-37.8482848233
 11
-104.5185560818
 21
-37.8482848233
  0
LINE
  5
3BF
100
AcDbEntity
  8
0
100
AcDbLine
 62
7
  6
CONTINUOUS
 10
-100.3637854572
 20
-37.8482848233
 11
-100.3533092263
 21
-37.8482848233
  0
LINE
  5
3C0
100
AcDbEntity
  8
0
100
AcDbLine
 62
7
  6
CONTINUOUS
 10
-100.3463250724
 20
-37.8482848233
 11
-100.3358488416
 21
-37.8482848233
  0
LINE
  5
3C1
100
AcDbEntity
  8
0
100
AcDbLine
 62
7
  6
CONTINUOUS
 10
-100.3288646877
 20
-37.8482848233
 11
-100.3183884568
 21
-37.8482848233
  0
LINE
  5
3C2
100
AcDbEntity
  8
0
100
AcDbLine
 62
7
  6
CONTINUOUS
 10
-100.3114043029
 20
-37.8482848233
 11
-100.3009280721
 21
-37.8482848233
  0
LINE
  5
3C3
100
AcDbEntity
  8
0
100
AcDbLine
 62
7
  6
CONTINUOUS
 10
-100.2939439182
 20
-37.8482848233
 11
-100.2834676873
 21
-37.8482848233
  0
LINE
  5
3C4
100
AcDbEntity
  8
0
100
AcDbLine
 62
7
  6
CONTINUOUS
 10
-100.2764835334
 20
-37.8482848233
 11
-100.2660073026
 21
-37.8482848233
  0
LINE
  5
3C5
100
AcDbEntity
  8
0
100
AcDbLine
 62
7
  6
CONTINUOUS
 10
-100.2590231487
 20
-37.8482848233
 11
-100.2485469179
 21
-37.8482848233
  0
LINE
  5
3C6
100
AcDbEntity
  8
0
100
AcDbLine
 62
7
  6
CONTINUOUS
 10
-100.241562764
 20
-37.8482848233
 11
-100.2310865331
 21
-37.8482848233
  0
LINE
  5
3C7
100
AcDbEntity
  8
0
100
AcDbLine
 62
7
  6
CONTINUOUS
 10
-100.2241023792
 20
-37.8482848233
 11
-100.2136261484
 21
-37.8482848233
  0
LINE
  5
3C8
100
AcDbEntity
  8
0
100
AcDbLine
 62
7
  6
CONTINUOUS
 10
-100.2066419945
 20
-37.8482848233
 11
-100.1961657636
 21
-37.8482848233
  0
LINE
  5
3C9
100
AcDbEntity
  8
0
100
AcDbLine
 62
7
  6
CONTINUOUS
 10
-100.1891816097
 20
-37.8482848233
 11
-100.1787053789
 21
-37.8482848233
  0
LINE
  5
3CA
100
AcDbEntity
  8
0
100
AcDbLine
 62
7
  6
CONTINUOUS
 10
-100.171721225
 20
-37.8482848233
 11
-100.1612449941
 21
-37.8482848233
  0
LINE
  5
3CB
100
AcDbEntity
  8
0
100
AcDbLine
 62
7
  6
CONTINUOUS
 10
11.6466907737
 20
-37.8482848233
 11
11.6362145428
 21
-37.8482848233
  0
LINE
  5
3CC
100
AcDbEntity
  8
0
100
AcDbLine
 62
7
  6
CONTINUOUS
 10
11.6641511584
 20
-37.8482848233
 11
11.6536749276
 21
-37.8482848233
  0
LINE
  5
3CD
100
AcDbEntity
  8
0
100
AcDbLine
 62
7
  6
CONTINUOUS
 10
11.6816115432
 20
-37.8482848233
 11
11.6711353123
 21
-37.8482848233
  0
LINE
  5
3CE
100
AcDbEntity
  8
0
100
AcDbLine
 62
7
  6
CONTINUOUS
 10
11.6990719279
 20
-37.8482848233
 11
11.6885956971
 21
-37.8482848233
  0
LINE
  5
3CF
100
AcDbEntity
  8
0
100
AcDbLine
 62
7
  6
CONTINUOUS
 10
11.7165323127
 20
-37.8482848233
 11
11.7060560818
 21
-37.8482848233
  0
LINE
  5
3D0
100
AcDbEntity
  8
0
100
AcDbLine
 62
7
  6
CONTINUOUS
 10
11.7339926974
 20
-37.8482848233
 11
11.7235164666
 21
-37.8482848233
  0
LINE
  5
3D1
100
AcDbEntity
  8
0
100
AcDbLine
 62
7
  6
CONTINUOUS
 10
11.7514530821
 20
-37.8482848233
 11
11.7409768513
 21
-37.8482848233
  0
LINE
  5
3D2
100
AcDbEntity
  8
0
100
AcDbLine
 62
7
  6
CONTINUOUS
 10
11.7689134669
 20
-37.8482848233
 11
11.758437236
 21
-37.8482848233
  0
LINE
  5
3D3
100
AcDbEntity
  8
0
100
AcDbLine
 62
7
  6
CONTINUOUS
 10
11.7863738516
 20
-37.8482848233
 11
11.7758976208
 21
-37.8482848233
  0
LINE
  5
3D4
100
AcDbEntity
  8
0
100
AcDbLine
 62
7
  6
CONTINUOUS
 10
11.8038342364
 20
-37.8482848233
 11
11.7933580055
 21
-37.8482848233
  0
LINE
  5
3D5
100
AcDbEntity
  8
0
100
AcDbLine
 62
7
  6
CONTINUOUS
 10
11.8212946211
 20
-37.8482848233
 11
11.8108183903
 21
-37.8482848233
  0
LINE
  5
3D6
100
AcDbEntity
  8
0
100
AcDbLine
 62
7
  6
CONTINUOUS
 10
11.8387550059
 20
-37.8482848233
 11
11.828278775
 21
-37.8482848233
  0
LINE
  5
3D7
100
AcDbEntity
  8
0
100
AcDbLine
 62
7
  6
CONTINUOUS
 10
11.6292303889
 20
-37.8482848233
 11
7.5582696111
 21
-37.8482848233
  0
LINE
  5
3D8
100
AcDbEntity
  8
0
100
AcDbLine
 62
7
  6
CONTINUOUS
 10
7.5512854572
 20
-37.8482848233
 11
7.5408092263
 21
-37.8482848233
  0
LINE
  5
3D9
100
AcDbEntity
  8
0
100
AcDbLine
 62
7
  6
CONTINUOUS
 10
7.5338250724
 20
-37.8482848233
 11
7.5233488416
 21
-37.8482848233
  0
LINE
  5
3DA
100
AcDbEntity
  8
0
100
AcDbLine
 62
7
  6
CONTINUOUS
 10
7.5163646877
 20
-37.8482848233
 11
7.5058884568
 21
-37.8482848233
  0
LINE
  5
3DB
100
AcDbEntity
  8
0
100
AcDbLine
 62
7
  6
CONTINUOUS
 10
7.4989043029
 20
-37.8482848233
 11
7.4884280721
 21
-37.8482848233
  0
LINE
  5
3DC
100
AcDbEntity
  8
0
100
AcDbLine
 62
7
  6
CONTINUOUS
 10
7.4814439182
 20
-37.8482848233
 11
7.4709676873
 21
-37.8482848233
  0
LINE
  5
3DD
100
AcDbEntity
  8
0
100
AcDbLine
 62
7
  6
CONTINUOUS
 10
7.4639835334
 20
-37.8482848233
 11
7.4535073026
 21
-37.8482848233
  0
LINE
  5
3DE
100
AcDbEntity
  8
0
100
AcDbLine
 62
7
  6
CONTINUOUS
 10
7.4465231487
 20
-37.8482848233
 11
7.4360469179
 21
-37.8482848233
  0
LINE
  5
3DF
100
AcDbEntity
  8
0
100
AcDbLine
 62
7
  6
CONTINUOUS
 10
7.429062764
 20
-37.8482848233
 11
7.4185865331
 21
-37.8482848233
  0
LINE
  5
3E0
100
AcDbEntity
  8
0
100
AcDbLine
 62
7
  6
CONTINUOUS
 10
7.4116023792
 20
-37.8482848233
 11
7.4011261484
 21
-37.8482848233
  0
LINE
  5
3E1
100
AcDbEntity
  8
0
100
AcDbLine
 62
7
  6
CONTINUOUS
 10
7.3941419945
 20
-37.8482848233
 11
7.3836657636
 21
-37.8482848233
  0
LINE
  5
3E2
100
AcDbEntity
  8
0
100
AcDbLine
 62
7
  6
CONTINUOUS
 10
7.3766816097
 20
-37.8482848233
 11
7.3662053789
 21
-37.8482848233
  0
LINE
  5
3E3
100
AcDbEntity
  8
0
100
AcDbLine
 62
7
  6
CONTINUOUS
 10
7.359221225
 20
-37.8482848233
 11
7.3487449941
 21
-37.8482848233
  0
LINE
  5
3E4
100
AcDbEntity
  8
0
100
AcDbLine
 62
7
  6
CONTINUOUS
 10
-104.4364922735
 20
-37.6982848233
 11
-100.3760077265
 21
-37.6982848233
  0
LINE
  5
3E5
100
AcDbEntity
  8
0
100
AcDbLine
 62
7
  6
CONTINUOUS
 10
7.3365227248
 20
-37.6982848233
 11
6.9548356726
 21
-37.6982848233
  0
LINE
  5
3E6
100
AcDbEntity
  8
0
100
AcDbLine
 62
7
  6
CONTINUOUS
 10
7.5635077265
 20
-37.6982848233
 11
11.6239922735
 21
-37.6982848233
  0
LINE
  5
3E7
100
AcDbEntity
  8
0
100
AcDbLine
 62
7
  6
CONTINUOUS
 10
11.8509772752
 20
-37.6982848233
 11
12.2204332607
 21
-37.6982848233
  0
LINE
  5
3E8
100
AcDbEntity
  8
0
100
AcDbLine
 62
7
  6
CONTINUOUS
 10
-99.7673356726
 20
-37.6982848233
 11
-100.1490227248
 21
-37.6982848233
  0
LINE
  5
3E9
100
AcDbEntity
  8
0
100
AcDbLine
 62
7
  6
CONTINUOUS
 10
-104.6634772752
 20
-37.6982848233
 11
-105.0329332607
 21
-37.6982848233
  0
LINE
  5
3EA
100
AcDbEntity
  8
0
100
AcDbLine
 62
7
  6
CONTINUOUS
 10
-104.40625
 20
-37.1982848233
 11
-100.40625
 21
-37.1982848233
  0
LINE
  5
3EB
100
AcDbEntity
  8
0
100
AcDbLine
 62
7
  6
CONTINUOUS
 10
7.59375
 20
-37.1982848233
 11
11.59375
 21
-37.1982848233
  0
LINE
  5
3EC
100
AcDbEntity
  8
0
100
AcDbLine
 62
7
  6
CONTINUOUS
 10
11.59375
 20
-36.6982848233
 11
11.09375
 21
-36.6982848233
  0
LINE
  5
3ED
100
AcDbEntity
  8
0
100
AcDbLine
 62
7
  6
CONTINUOUS
 10
10.29375
 20
-36.6982848233
 11
8.89375
 21
-36.6982848233
  0
LINE
  5
3EE
100
AcDbEntity
  8
0
100
AcDbLine
 62
7
  6
CONTINUOUS
 10
8.09375
 20
-36.6982848233
 11
7.59375
 21
-36.6982848233
  0
LINE
  5
3EF
100
AcDbEntity
  8
0
100
AcDbLine
 62
7
  6
CONTINUOUS
 10
-100.40625
 20
-36.6982848233
 11
-100.90625
 21
-36.6982848233
  0
LINE
  5
3F0
100
AcDbEntity
  8
0
100
AcDbLine
 62
7
  6
CONTINUOUS
 10
-101.70625
 20
-36.6982848233
 11
-103.10625
 21
-36.6982848233
  0
LINE
  5
3F1
100
AcDbEntity
  8
0
100
AcDbLine
 62
7
  6
CONTINUOUS
 10
-103.90625
 20
-36.6982848233
 11
-104.40625
 21
-36.6982848233
  0
LINE
  5
3F2
100
AcDbEntity
  8
0
100
AcDbLine
 62
7
  6
CONTINUOUS
 10
12.2204332607
 20
-36.6110088443
 11
12.1795364376
 21
-36.6110161454
  0
LINE
  5
3F3
100
AcDbEntity
  8
0
100
AcDbLine
 62
7
  6
CONTINUOUS
 10
-104.7381496788
 20
-36.6153415016
 11
-103.9891933217
 21
-36.6153415016
  0
LINE
  5
3F4
100
AcDbEntity
  8
0
100
AcDbLine
 62
7
  6
CONTINUOUS
 10
-100.8233066783
 20
-36.6153415016
 11
-100.0743503212
 21
-36.6153415016
  0
LINE
  5
3F5
100
AcDbEntity
  8
0
100
AcDbLine
 62
7
  6
CONTINUOUS
 10
10.2108066783
 20
-36.6153415016
 11
8.9766933217
 21
-36.6153415016
  0
LINE
  5
3F6
100
AcDbEntity
  8
0
100
AcDbLine
 62
7
  6
CONTINUOUS
 10
7.2618503212
 20
-36.6153415016
 11
8.0108066783
 21
-36.6153415016
  0
LINE
  5
3F7
100
AcDbEntity
  8
0
100
AcDbLine
 62
7
  6
CONTINUOUS
 10
11.1766933217
 20
-36.6153415016
 11
11.9256496788
 21
-36.6153415016
  0
LINE
  5
3F8
100
AcDbEntity
  8
0
100
AcDbLine
 62
7
  6
CONTINUOUS
 10
-101.7891933217
 20
-36.6153415016
 11
-103.0233066783
 21
-36.6153415016
  0
LINE
  5
3F9
100
AcDbEntity
  8
0
100
AcDbLine
 62
253
  6
CONTINUOUS
 10
7.89375
 20
-36.4982848233
 11
8.09375
 21
-36.4982848233
  0
LINE
  5
3FA
100
AcDbEntity
  8
0
100
AcDbLine
 62
253
  6
CONTINUOUS
 10
8.89375
 20
-36.4982848233
 11
9.0937500001
 21
-36.4982848232
  0
LINE
  5
3FB
100
AcDbEntity
  8
0
100
AcDbLine
 62
253
  6
CONTINUOUS
 10
10.09375
 20
-36.4982848233
 11
10.29375
 21
-36.4982848233
  0
LINE
  5
3FC
100
AcDbEntity
  8
0
100
AcDbLine
 62
253
  6
CONTINUOUS
 10
11.09375
 20
-36.4982848233
 11
11.2937500001
 21
-36.4982848232
  0
LINE
  5
3FD
100
AcDbEntity
  8
0
100
AcDbLine
 62
253
  6
CONTINUOUS
 10
-100.7062499999
 20
-36.4982848232
 11
-100.90625
 21
-36.4982848233
  0
LINE
  5
3FE
100
AcDbEntity
  8
0
100
AcDbLine
 62
253
  6
CONTINUOUS
 10
-101.70625
 20
-36.4982848233
 11
-101.90625
 21
-36.4982848233
  0
LINE
  5
3FF
100
AcDbEntity
  8
0
100
AcDbLine
 62
253
  6
CONTINUOUS
 10
-102.9062499999
 20
-36.4982848232
 11
-103.10625
 21
-36.4982848233
  0
LINE
  5
400
100
AcDbEntity
  8
0
100
AcDbLine
 62
253
  6
CONTINUOUS
 10
-103.90625
 20
-36.4982848233
 11
-104.10625
 21
-36.4982848233
  0
LINE
  5
401
100
AcDbEntity
  8
0
100
AcDbLine
 62
253
  6
CONTINUOUS
 10
-100.4009825589
 20
-36.1153605401
 11
-99.7673356726
 21
-36.1153605401
  0
LINE
  5
402
100
AcDbEntity
  8
0
100
AcDbLine
 62
253
  6
CONTINUOUS
 10
9.7884825589
 20
-36.1153605401
 11
9.3990174411
 21
-36.1153605401
  0
LINE
  5
403
100
AcDbEntity
  8
0
100
AcDbLine
 62
253
  6
CONTINUOUS
 10
6.9548356726
 20
-36.1153605401
 11
7.5884825589
 21
-36.1153605401
  0
LINE
  5
404
100
AcDbEntity
  8
0
100
AcDbLine
 62
253
  6
CONTINUOUS
 10
11.5990174411
 20
-36.1153605401
 11
12.2204332607
 21
-36.1153495359
  0
LINE
  5
405
100
AcDbEntity
  8
0
100
AcDbLine
 62
253
  6
CONTINUOUS
 10
-102.2115174411
 20
-36.1153605401
 11
-102.6009825589
 21
-36.1153605401
  0
LINE
  5
406
100
AcDbEntity
  8
0
100
AcDbLine
 62
7
  6
CONTINUOUS
 10
-104.9920364376
 20
-36.6110161454
 11
-105.0329332607
 21
-36.6110088443
  0
LINE
  5
407
100
AcDbEntity
  8
0
100
AcDbLine
 62
253
  6
CONTINUOUS
 10
-105.0329332607
 20
-36.1153495362
 11
-104.4115174411
 21
-36.1153605401
  0
LINE
  5
408
100
AcDbEntity
  8
0
100
AcDbLine
 62
7
  6
CONTINUOUS
 10
-103.0233066783
 20
10.218771855
 11
-103.10625
 21
10.3017151767
  0
LINE
  5
409
100
AcDbEntity
  8
0
100
AcDbLine
 62
7
  6
CONTINUOUS
 10
-100.8233066783
 20
10.218771855
 11
-100.90625
 21
10.3017151767
  0
LINE
  5
40A
100
AcDbEntity
  8
0
100
AcDbLine
 62
253
  6
CONTINUOUS
 10
-34.9526966094
 20
-55.4447134493
 11
-35.2598033906
 21
-55.1376537051
  0
LINE
  5
40B
100
AcDbEntity
  8
0
100
AcDbLine
 62
253
  6
CONTINUOUS
 10
-35.6598375319
 20
-56.1518382139
 11
-35.966910171
 21
-55.8447314327
  0
LINE
  5
40C
100
AcDbEntity
  8
0
100
AcDbLine
 62
7
  6
CONTINUOUS
 10
-103.9891933217
 20
-46.781228145
 11
-103.90625
 21
-46.6982848233
  0
LINE
  5
40D
100
AcDbEntity
  8
0
100
AcDbLine
 62
7
  6
CONTINUOUS
 10
-101.7891933217
 20
-46.781228145
 11
-101.70625
 21
-46.6982848233
  0
LINE
  5
40E
100
AcDbEntity
  8
0
100
AcDbLine
 62
7
  6
CONTINUOUS
 10
-7.985984
 20
-18.0313578233
 11
-9.04392
 21
-18.3179168233
  0
LINE
  5
40F
100
AcDbEntity
  8
0
100
AcDbLine
 62
7
  6
CONTINUOUS
 10
-5.200707
 20
-17.3019848233
 11
-7.167358
 21
-17.8102888233
  0
LINE
  5
410
100
AcDbEntity
  8
0
100
AcDbLine
 62
7
  6
CONTINUOUS
 10
-104.40625
 20
-46.6982848233
 11
-104.7381496788
 21
-46.781228145
  0
LINE
  5
411
100
AcDbEntity
  8
0
100
AcDbLine
 62
7
  6
CONTINUOUS
 10
11.9256496788
 20
-46.781228145
 11
11.59375
 21
-46.6982848233
  0
LINE
  5
412
100
AcDbEntity
  8
0
100
AcDbLine
 62
7
  6
CONTINUOUS
 10
-103.9891933217
 20
20.3846584984
 11
-103.90625
 21
20.3017151767
  0
LINE
  5
413
100
AcDbEntity
  8
0
100
AcDbLine
 62
7
  6
CONTINUOUS
 10
-101.7891933217
 20
20.3846584984
 11
-101.70625
 21
20.3017151767
  0
LINE
  5
414
100
AcDbEntity
  8
0
100
AcDbLine
 62
253
  6
CONTINUOUS
 10
-58.2133567812
 20
-55.4447314327
 11
-58.2133567812
 21
-53.4518382139
  0
LINE
  5
415
100
AcDbEntity
  8
0
100
AcDbLine
 62
253
  6
CONTINUOUS
 10
-58.2133567812
 20
27.0552685673
 11
-58.2133567812
 21
29.0481617861
  0
LINE
  5
416
100
AcDbEntity
  8
0
100
AcDbLine
 62
253
  6
CONTINUOUS
 10
-57.8598033906
 20
-55.4446972914
 11
-57.8598033906
 21
-53.4518561972
  0
LINE
  5
417
100
AcDbEntity
  8
0
100
AcDbLine
 62
253
  6
CONTINUOUS
 10
-57.8598033906
 20
27.0553027086
 11
-57.8598033906
 21
29.0481438028
  0
LINE
  5
418
100
AcDbEntity
  8
0
100
AcDbLine
 62
253
  6
CONTINUOUS
 10
-57.5526966094
 20
-55.1376246522
 11
-57.5526966094
 21
-53.7589159415
  0
LINE
  5
419
100
AcDbEntity
  8
0
100
AcDbLine
 62
253
  6
CONTINUOUS
 10
-57.5526966094
 20
27.3623753478
 11
-57.5526966094
 21
28.7410840585
  0
LINE
  5
41A
100
AcDbEntity
  8
0
100
AcDbLine
 62
253
  6
CONTINUOUS
 10
-57.1991432188
 20
-55.1376246515
 11
-57.1991432188
 21
-53.7589449951
  0
LINE
  5
41B
100
AcDbEntity
  8
0
100
AcDbLine
 62
253
  6
CONTINUOUS
 10
-57.1991432188
 20
27.3623753485
 11
-57.1991432188
 21
28.7410550049
  0
LINE
  5
41C
100
AcDbEntity
  8
0
100
AcDbLine
 62
253
  6
CONTINUOUS
 10
-57.1526966094
 20
30.1088219579
 11
-57.1526966094
 21
29.7552685673
  0
LINE
  5
41D
100
AcDbEntity
  8
0
100
AcDbLine
 62
253
  6
CONTINUOUS
 10
-57.1526966094
 20
-56.5053916045
 11
-57.1526966094
 21
-56.1518382139
  0
LINE
  5
41E
100
AcDbEntity
  8
0
100
AcDbLine
 62
253
  6
CONTINUOUS
 10
-57.1526966094
 20
-52.3911780421
 11
-57.1526966094
 21
-52.7447314327
  0
LINE
  5
41F
100
AcDbEntity
  8
0
100
AcDbLine
 62
253
  6
CONTINUOUS
 10
-57.1526966094
 20
25.9946083955
 11
-57.1526966094
 21
26.3481617861
  0
LINE
  5
420
100
AcDbEntity
  8
0
100
AcDbLine
 62
253
  6
CONTINUOUS
 10
-56.8455898282
 20
27.0088219579
 11
-56.8455898282
 21
26.6552685673
  0
LINE
  5
421
100
AcDbEntity
  8
0
100
AcDbLine
 62
253
  6
CONTINUOUS
 10
-56.8455898282
 20
-53.4053916045
 11
-56.8455898282
 21
-53.0518382139
  0
LINE
  5
422
100
AcDbEntity
  8
0
100
AcDbLine
 62
253
  6
CONTINUOUS
 10
-56.8455898282
 20
-55.4911780421
 11
-56.8455898282
 21
-55.8447314327
  0
LINE
  5
423
100
AcDbEntity
  8
0
100
AcDbLine
 62
253
  6
CONTINUOUS
 10
-56.8455898282
 20
29.0946083955
 11
-56.8455898282
 21
29.4481617861
  0
LINE
  5
424
100
AcDbEntity
  8
0
100
AcDbLine
 62
7
  6
CONTINUOUS
 10
-100.40625
 20
-36.6982848233
 11
-100.0743503212
 21
-36.6153415016
  0
LINE
  5
425
100
AcDbEntity
  8
0
100
AcDbLine
 62
7
  6
CONTINUOUS
 10
-15.68125
 20
-24.9096898233
 11
-14.654857
 21
-24.9096898233
  0
LINE
  5
426
100
AcDbEntity
  8
0
100
AcDbLine
 62
7
  6
CONTINUOUS
 10
-14.654857
 20
-24.5652908233
 11
-15.68125
 21
-24.5652908233
  0
LINE
  5
427
100
AcDbEntity
  8
0
100
AcDbLine
 62
7
  6
CONTINUOUS
 10
-15.68125
 20
-23.4856908233
 11
-15.375827
 21
-23.4856908233
  0
LINE
  5
428
100
AcDbEntity
  8
0
100
AcDbLine
 62
7
  6
CONTINUOUS
 10
-6.5702371221
 20
-22.6525442869
 11
-6.5389226677
 21
-22.6525442869
  0
LINE
  5
429
100
AcDbEntity
  8
0
100
AcDbLine
 62
7
  6
CONTINUOUS
 10
-15.375827
 20
-22.1928518233
 11
-13.13125
 21
-22.1928518233
  0
LINE
  5
42A
100
AcDbEntity
  8
0
100
AcDbLine
 62
7
  6
CONTINUOUS
 10
-13.13125
 20
-21.8482468233
 11
-15.68125
 21
-21.8482468233
  0
LINE
  5
42B
100
AcDbEntity
  8
0
100
AcDbLine
 62
7
  6
CONTINUOUS
 10
-21.40625
 20
-21.1266176194
 11
-18.80625
 21
-21.1266176194
  0
LINE
  5
42C
100
AcDbEntity
  8
0
100
AcDbLine
 62
7
  6
CONTINUOUS
 10
-9.0439200585
 20
-20.9103399813
 11
-6.9700527631
 21
-20.9103399813
  0
LINE
  5
42D
100
AcDbEntity
  8
0
100
AcDbLine
 62
7
  6
CONTINUOUS
 10
-6.1021496123
 20
-20.873660741
 11
-4.6473786167
 21
-20.873660741
  0
LINE
  5
42E
100
AcDbEntity
  8
0
100
AcDbLine
 62
7
  6
CONTINUOUS
 10
-19.2488031387
 20
-20.7041176194
 11
-21.40625
 21
-20.7041176194
  0
LINE
  5
42F
100
AcDbEntity
  8
0
100
AcDbLine
 62
7
  6
CONTINUOUS
 10
-19.1934839964
 20
-20.2816176194
 11
-19.6360372901
 21
-20.2816176194
  0
LINE
  5
430
100
AcDbEntity
  8
0
100
AcDbLine
 62
7
  6
CONTINUOUS
 10
-3.8064980914
 20
-19.808611641
 11
-9.0439200585
 21
-19.808611641
  0
LINE
  5
431
100
AcDbEntity
  8
0
100
AcDbLine
 62
7
  6
CONTINUOUS
 10
-20.7977393568
 20
-19.7182848233
 11
-20.5764627874
 21
-19.7182848233
  0
LINE
  5
432
100
AcDbEntity
  8
0
100
AcDbLine
 62
7
  6
CONTINUOUS
 10
-19.5253990054
 20
-19.6478684252
 11
-19.4147605658
 21
-19.6478684252
  0
LINE
  5
433
100
AcDbEntity
  8
0
100
AcDbLine
 62
7
  6
CONTINUOUS
 10
-20.5764627874
 20
-19.3662012213
 11
-20.7977393568
 21
-19.3662012213
  0
LINE
  5
434
100
AcDbEntity
  8
0
100
AcDbLine
 62
7
  6
CONTINUOUS
 10
-19.4147605658
 20
-19.2957848233
 11
-19.5253990054
 21
-19.2957848233
  0
LINE
  5
435
100
AcDbEntity
  8
0
100
AcDbLine
 62
7
  6
CONTINUOUS
 10
-13.436673
 20
-19.1597028233
 11
-13.13125
 21
-19.1597028233
  0
LINE
  5
436
100
AcDbEntity
  8
0
100
AcDbLine
 62
7
  6
CONTINUOUS
 10
7.2618503212
 20
-36.6153415016
 11
7.59375
 21
-36.6982848233
  0
LINE
  5
437
100
AcDbEntity
  8
0
100
AcDbLine
 62
7
  6
CONTINUOUS
 10
-15.297522
 20
-1.7494958233
 11
-13.13125
 21
-1.0178958233
  0
LINE
  5
438
100
AcDbEntity
  8
0
100
AcDbLine
 62
7
  6
CONTINUOUS
 10
-13.543086
 20
-0.8580408233
 11
-15.68125
 21
-1.5755118233
  0
LINE
  5
439
100
AcDbEntity
  8
0
100
AcDbLine
 62
7
  6
CONTINUOUS
 10
-7.392281
 20
-5.3187618233
 11
-3.744584
 21
-4.3086128233
  0
LINE
  5
43A
100
AcDbEntity
  8
0
100
AcDbLine
 62
7
  6
CONTINUOUS
 10
-20.2998669982
 20
-14.0849512213
 11
-20.6871010721
 21
-14.1553684252
  0
LINE
  5
43B
100
AcDbEntity
  8
0
100
AcDbLine
 62
7
  6
CONTINUOUS
 10
-9.04392
 20
-14.9518118233
 11
-3.744584
 21
-14.4562638233
  0
LINE
  5
43C
100
AcDbEntity
  8
0
100
AcDbLine
 62
7
  6
CONTINUOUS
 10
-5.597979
 20
-13.6424058233
 11
-9.04392
 21
-13.8696748233
  0
LINE
  5
43D
100
AcDbEntity
  8
0
100
AcDbLine
 62
7
  6
CONTINUOUS
 10
-19.9679521441
 20
-18.3099512213
 11
-20.1892287135
 21
-18.3099512213
  0
LINE
  5
43E
100
AcDbEntity
  8
0
100
AcDbLine
 62
7
  6
CONTINUOUS
 10
-15.68125
 20
-18.2966418233
 11
-13.436673
 21
-18.2966418233
  0
LINE
  5
43F
100
AcDbEntity
  8
0
100
AcDbLine
 62
7
  6
CONTINUOUS
 10
-13.436673
 20
-17.9521808233
 11
-15.68125
 21
-17.9521808233
  0
LINE
  5
440
100
AcDbEntity
  8
0
100
AcDbLine
 62
7
  6
CONTINUOUS
 10
-13.13125
 20
-17.0891198233
 11
-13.436673
 21
-17.0891198233
  0
LINE
  5
441
100
AcDbEntity
  8
0
100
AcDbLine
 62
7
  6
CONTINUOUS
 10
-15.68125
 20
-16.7197458233
 11
-13.13125
 21
-16.7197458233
  0
LINE
  5
442
100
AcDbEntity
  8
0
100
AcDbLine
 62
7
  6
CONTINUOUS
 10
-78.9542871268
 20
-16.7158408233
 11
-78.2034667065
 21
-16.7158408233
  0
LINE
  5
443
100
AcDbEntity
  8
0
100
AcDbLine
 62
7
  6
CONTINUOUS
 10
-74.60903
 20
-16.7158408233
 11
-73.8582131239
 21
-16.7158408233
  0
LINE
  5
444
100
AcDbEntity
  8
0
100
AcDbLine
 62
7
  6
CONTINUOUS
 10
-20.6871010721
 20
-16.6199512213
 11
-20.4105052829
 21
-16.6199512213
  0
LINE
  5
445
100
AcDbEntity
  8
0
100
AcDbLine
 62
7
  6
CONTINUOUS
 10
-13.13125
 20
-16.3751608233
 11
-15.68125
 21
-16.3751608233
  0
LINE
  5
446
100
AcDbEntity
  8
0
100
AcDbLine
 62
7
  6
CONTINUOUS
 10
-76.78125
 20
-16.3158408233
 11
-76.03125
 21
-16.3158408233
  0
LINE
  5
447
100
AcDbEntity
  8
0
100
AcDbLine
 62
7
  6
CONTINUOUS
 10
-20.4658245027
 20
-16.2678684252
 11
-20.6317819297
 21
-16.2678684252
  0
LINE
  5
448
100
AcDbEntity
  8
0
100
AcDbLine
 62
7
  6
CONTINUOUS
 10
-15.68125
 20
-14.7947588233
 11
-13.13125
 21
-14.7947588233
  0
LINE
  5
449
100
AcDbEntity
  8
0
100
AcDbLine
 62
7
  6
CONTINUOUS
 10
-20.6317819297
 20
-14.5074512213
 11
-20.4658245027
 21
-14.5074512213
  0
LINE
  5
44A
100
AcDbEntity
  8
0
100
AcDbLine
 62
7
  6
CONTINUOUS
 10
-13.13125
 20
-14.4609388233
 11
-15.202575
 21
-14.4609388233
  0
LINE
  5
44B
100
AcDbEntity
  8
0
100
AcDbLine
 62
7
  6
CONTINUOUS
 10
-20.0232712865
 20
-14.4370348233
 11
-19.9126330018
 21
-14.4370348233
  0
LINE
  5
44C
100
AcDbEntity
  8
0
100
AcDbLine
 62
7
  6
CONTINUOUS
 10
-19.9126330018
 20
-14.0849512213
 11
-20.2998669982
 21
-14.0849512213
  0
LINE
  5
44D
100
AcDbEntity
  8
0
100
AcDbLine
 62
7
  6
CONTINUOUS
 10
-28.566516
 20
-13.8712758233
 11
-28.094295
 21
-13.8712758233
  0
LINE
  5
44E
100
AcDbEntity
  8
0
100
AcDbLine
 62
7
  6
CONTINUOUS
 10
-24.739404
 20
-13.8558548233
 11
-24.264587
 21
-13.8558548233
  0
LINE
  5
44F
100
AcDbEntity
  8
0
100
AcDbLine
 62
7
  6
CONTINUOUS
 10
-21.40625
 20
-13.5216184252
 11
-18.80625
 21
-13.5216184252
  0
LINE
  5
450
100
AcDbEntity
  8
0
100
AcDbLine
 62
7
  6
CONTINUOUS
 10
-28.094295
 20
-13.4529498233
 11
-26.523334
 21
-13.4529498233
  0
LINE
  5
451
100
AcDbEntity
  8
0
100
AcDbLine
 62
7
  6
CONTINUOUS
 10
-25.943412
 20
-13.4529498233
 11
-24.739404
 21
-13.4529498233
  0
LINE
  5
452
100
AcDbEntity
  8
0
100
AcDbLine
 62
7
  6
CONTINUOUS
 10
-15.68125
 20
-13.1041898233
 11
-13.610345
 21
-13.1041898233
  0
LINE
  5
453
100
AcDbEntity
  8
0
100
AcDbLine
 62
7
  6
CONTINUOUS
 10
-19.2488031387
 20
-13.0991184252
 11
-21.40625
 21
-13.0991184252
  0
LINE
  5
454
100
AcDbEntity
  8
0
100
AcDbLine
 62
7
  6
CONTINUOUS
 10
-24.739404
 20
-12.9498868233
 11
-25.943412
 21
-12.9498868233
  0
LINE
  5
455
100
AcDbEntity
  8
0
100
AcDbLine
 62
7
  6
CONTINUOUS
 10
-26.528615
 20
-12.9498868233
 11
-28.094295
 21
-12.9498868233
  0
LINE
  5
456
100
AcDbEntity
  8
0
100
AcDbLine
 62
7
  6
CONTINUOUS
 10
-13.13125
 20
-12.7702048233
 11
-15.68125
 21
-12.7702048233
  0
LINE
  5
457
100
AcDbEntity
  8
0
100
AcDbLine
 62
7
  6
CONTINUOUS
 10
-19.1934839964
 20
-12.6766180223
 11
-19.6360372901
 21
-12.6766180223
  0
LINE
  5
458
100
AcDbEntity
  8
0
100
AcDbLine
 62
7
  6
CONTINUOUS
 10
-24.264587
 20
-12.5468188233
 11
-24.739404
 21
-12.5468188233
  0
LINE
  5
459
100
AcDbEntity
  8
0
100
AcDbLine
 62
7
  6
CONTINUOUS
 10
-28.094295
 20
-12.5313978233
 11
-28.566516
 21
-12.5313978233
  0
LINE
  5
45A
100
AcDbEntity
  8
0
100
AcDbLine
 62
7
  6
CONTINUOUS
 10
-78.9542870095
 20
-12.3307308233
 11
-78.20347001
 21
-12.3307308233
  0
LINE
  5
45B
100
AcDbEntity
  8
0
100
AcDbLine
 62
7
  6
CONTINUOUS
 10
-74.60903
 20
-12.3307308233
 11
-73.858213
 21
-12.3307308233
  0
LINE
  5
45C
100
AcDbEntity
  8
0
100
AcDbLine
 62
7
  6
CONTINUOUS
 10
-21.0743351072
 20
-7.606618123
 11
-18.80625
 21
-6.6207848233
  0
LINE
  5
45D
100
AcDbEntity
  8
0
100
AcDbLine
 62
7
  6
CONTINUOUS
 10
-18.80625
 20
-6.1982848233
 11
-21.40625
 21
-7.3249515235
  0
LINE
  5
45E
100
AcDbEntity
  8
0
100
AcDbLine
 62
7
  6
CONTINUOUS
 10
-15.68125
 20
-5.5461878233
 11
-13.13125
 21
-4.6228258233
  0
LINE
  5
45F
100
AcDbEntity
  8
0
100
AcDbLine
 62
7
  6
CONTINUOUS
 10
-14.939038
 20
-4.9175458233
 11
-15.68125
 21
-5.1696788233
  0
LINE
  5
460
100
AcDbEntity
  8
0
100
AcDbLine
 62
7
  6
CONTINUOUS
 10
-13.501124
 20
-4.4134238233
 11
-14.633616
 21
-4.7933348233
  0
LINE
  5
461
100
AcDbEntity
  8
0
100
AcDbLine
 62
7
  6
CONTINUOUS
 10
-3.744584
 20
-3.1069598233
 11
-9.04392
 21
-4.7869528233
  0
LINE
  5
462
100
AcDbEntity
  8
0
100
AcDbLine
 62
7
  6
CONTINUOUS
 10
-15.68125
 20
-12.1807248233
 11
-13.13125
 21
-12.1807248233
  0
LINE
  5
463
100
AcDbEntity
  8
0
100
AcDbLine
 62
7
  6
CONTINUOUS
 10
-19.0828457117
 20
-12.1132848233
 11
-18.80625
 21
-12.1132848233
  0
LINE
  5
464
100
AcDbEntity
  8
0
100
AcDbLine
 62
7
  6
CONTINUOUS
 10
-13.13125
 20
-11.8362428233
 11
-15.68125
 21
-11.8362428233
  0
LINE
  5
465
100
AcDbEntity
  8
0
100
AcDbLine
 62
7
  6
CONTINUOUS
 10
-15.68125
 20
-10.3445188233
 11
-15.375827
 21
-10.3445188233
  0
LINE
  5
466
100
AcDbEntity
  8
0
100
AcDbLine
 62
7
  6
CONTINUOUS
 10
-13.436673
 20
-10.3196278233
 11
-13.13125
 21
-10.3196278233
  0
LINE
  5
467
100
AcDbEntity
  8
0
100
AcDbLine
 62
7
  6
CONTINUOUS
 10
-14.52349
 20
-10.2024288233
 11
-14.218068
 21
-10.2024288233
  0
LINE
  5
468
100
AcDbEntity
  8
0
100
AcDbLine
 62
7
  6
CONTINUOUS
 10
-18.80625
 20
-9.5782848233
 11
-19.0828457117
 21
-9.5782848233
  0
LINE
  5
469
100
AcDbEntity
  8
0
100
AcDbLine
 62
7
  6
CONTINUOUS
 10
-9.04392
 20
-8.9818778233
 11
-3.744267
 21
-8.9818778233
  0
LINE
  5
46A
100
AcDbEntity
  8
0
100
AcDbLine
 62
7
  6
CONTINUOUS
 10
-15.375827
 20
-8.8066618233
 11
-14.52349
 21
-8.8066618233
  0
LINE
  5
46B
100
AcDbEntity
  8
0
100
AcDbLine
 62
7
  6
CONTINUOUS
 10
-14.218068
 20
-8.8066618233
 11
-13.436673
 21
-8.8066618233
  0
LINE
  5
46C
100
AcDbEntity
  8
0
100
AcDbLine
 62
7
  6
CONTINUOUS
 10
-13.13125
 20
-8.4620768233
 11
-15.68125
 21
-8.4620768233
  0
LINE
  5
46D
100
AcDbEntity
  8
0
100
AcDbLine
 62
7
  6
CONTINUOUS
 10
-3.744267
 20
-7.8756978233
 11
-9.04392
 21
-7.8756978233
  0
LINE
  5
46E
100
AcDbEntity
  8
0
100
AcDbLine
 62
7
  6
CONTINUOUS
 10
-15.386551
 20
-6.2246138233
 11
-13.425949
 21
-6.2246138233
  0
LINE
  5
46F
100
AcDbEntity
  8
0
100
AcDbLine
 62
7
  6
CONTINUOUS
 10
-13.13125
 20
-5.8800078233
 11
-15.68125
 21
-5.8800078233
  0
LINE
  5
470
100
AcDbEntity
  8
0
100
AcDbLine
 62
7
  6
CONTINUOUS
 10
-9.04392
 20
-10.6356228233
 11
-5.583554
 21
-10.8743358233
  0
LINE
  5
471
100
AcDbEntity
  8
0
100
AcDbLine
 62
7
  6
CONTINUOUS
 10
-3.744584
 20
-10.0558678233
 11
-9.04392
 21
-9.5773688233
  0
LINE
  5
472
100
AcDbEntity
  8
0
100
AcDbLine
 62
7
  6
CONTINUOUS
 10
-19.5253990054
 20
-14.1553684252
 11
-19.9126330018
 21
-14.0849512213
  0
LINE
  5
473
100
AcDbEntity
  8
0
100
AcDbLine
 62
7
  6
CONTINUOUS
 10
-19.9126330018
 20
-14.4370348233
 11
-19.5807181478
 21
-14.5074512213
  0
LINE
  5
474
100
AcDbEntity
  8
0
100
AcDbLine
 62
7
  6
CONTINUOUS
 10
-7.167358
 20
-16.7511998233
 11
-5.200707
 21
-17.3019848233
  0
LINE
  5
475
100
AcDbEntity
  8
0
100
AcDbLine
 62
7
  6
CONTINUOUS
 10
-9.04392
 20
-16.2196888233
 11
-7.985984
 21
-16.5249258233
  0
LINE
  5
476
100
AcDbEntity
  8
0
100
AcDbLine
 62
7
  6
CONTINUOUS
 10
-19.7466755748
 20
-19.5774512213
 11
-19.5253990054
 21
-19.6478684252
  0
LINE
  5
477
100
AcDbEntity
  8
0
100
AcDbLine
 62
7
  6
CONTINUOUS
 10
-19.1934839964
 20
-17.3241184252
 11
-19.4147605658
 21
-17.2537012213
  0
LINE
  5
478
100
AcDbEntity
  8
0
100
AcDbLine
 62
7
  6
CONTINUOUS
 10
-15.68125
 20
-19.6142488233
 11
-14.939038
 21
-19.8806738233
  0
LINE
  5
479
100
AcDbEntity
  8
0
100
AcDbLine
 62
7
  6
CONTINUOUS
 10
-14.633616
 20
-19.9872308233
 11
-13.501124
 21
-20.3993148233
  0
LINE
  5
47A
100
AcDbEntity
  8
0
100
AcDbLine
 62
7
  6
CONTINUOUS
 10
-13.13125
 20
-20.2181438233
 11
-15.68125
 21
-19.2591458233
  0
LINE
  5
47B
100
AcDbEntity
  8
0
100
AcDbLine
 62
7
  6
CONTINUOUS
 10
-20.9636968225
 20
-19.6478684252
 11
-20.7977393568
 21
-19.7182848233
  0
LINE
  5
47C
100
AcDbEntity
  8
0
100
AcDbLine
 62
7
  6
CONTINUOUS
 10
-20.6317819297
 20
-16.2678684252
 11
-20.7977393568
 21
-16.1974512213
  0
LINE
  5
47D
100
AcDbEntity
  8
0
100
AcDbLine
 62
7
  6
CONTINUOUS
 10
-13.13125
 20
-25.4673288233
 11
-14.356652
 21
-24.7358408233
  0
LINE
  5
47E
100
AcDbEntity
  8
0
100
AcDbLine
 62
7
  6
CONTINUOUS
 10
-14.654857
 20
-24.9096898233
 11
-13.13125
 21
-25.8723588233
  0
LINE
  5
47F
100
AcDbEntity
  8
0
100
AcDbLine
 62
253
  6
CONTINUOUS
 10
-35.9669101718
 20
27.0088219579
 11
-35.9669101718
 21
26.6552685673
  0
LINE
  5
480
100
AcDbEntity
  8
0
100
AcDbLine
 62
253
  6
CONTINUOUS
 10
-35.9669101718
 20
-53.4053916045
 11
-35.9669101718
 21
-53.0518382139
  0
LINE
  5
481
100
AcDbEntity
  8
0
100
AcDbLine
 62
253
  6
CONTINUOUS
 10
-35.9669101718
 20
-55.4911780421
 11
-35.9669101718
 21
-55.8447314327
  0
LINE
  5
482
100
AcDbEntity
  8
0
100
AcDbLine
 62
253
  6
CONTINUOUS
 10
-35.9669101718
 20
29.0946083955
 11
-35.9669101718
 21
29.4481617861
  0
LINE
  5
483
100
AcDbEntity
  8
0
100
AcDbLine
 62
253
  6
CONTINUOUS
 10
-35.6598033906
 20
30.1088219579
 11
-35.6598033906
 21
29.7552685673
  0
LINE
  5
484
100
AcDbEntity
  8
0
100
AcDbLine
 62
253
  6
CONTINUOUS
 10
-35.6598033906
 20
-56.5053916045
 11
-35.6598033906
 21
-56.1518382139
  0
LINE
  5
485
100
AcDbEntity
  8
0
100
AcDbLine
 62
253
  6
CONTINUOUS
 10
-35.6598033906
 20
-52.3911780421
 11
-35.6598033906
 21
-52.7447314327
  0
LINE
  5
486
100
AcDbEntity
  8
0
100
AcDbLine
 62
253
  6
CONTINUOUS
 10
-35.6598033906
 20
25.9946083955
 11
-35.6598033906
 21
26.3481617861
  0
LINE
  5
487
100
AcDbEntity
  8
0
100
AcDbLine
 62
253
  6
CONTINUOUS
 10
-35.6133567812
 20
28.7410550049
 11
-35.6133567812
 21
27.3623753485
  0
LINE
  5
488
100
AcDbEntity
  8
0
100
AcDbLine
 62
253
  6
CONTINUOUS
 10
-35.6133567812
 20
-53.7589449951
 11
-35.6133567812
 21
-55.1376246515
  0
LINE
  5
489
100
AcDbEntity
  8
0
100
AcDbLine
 62
253
  6
CONTINUOUS
 10
-35.2598033906
 20
28.7410550057
 11
-35.2598033906
 21
27.3623462949
  0
LINE
  5
48A
100
AcDbEntity
  8
0
100
AcDbLine
 62
253
  6
CONTINUOUS
 10
-35.2598033906
 20
-53.7589449943
 11
-35.2598033906
 21
-55.1376537051
  0
LINE
  5
48B
100
AcDbEntity
  8
0
100
AcDbLine
 62
253
  6
CONTINUOUS
 10
-34.9526966094
 20
29.0481276448
 11
-34.9526966094
 21
27.0552865507
  0
LINE
  5
48C
100
AcDbEntity
  8
0
100
AcDbLine
 62
253
  6
CONTINUOUS
 10
-34.9526966094
 20
-53.4518723552
 11
-34.9526966094
 21
-55.4447134493
  0
LINE
  5
48D
100
AcDbEntity
  8
0
100
AcDbLine
 62
253
  6
CONTINUOUS
 10
-34.5991432188
 20
29.0481617861
 11
-34.5991432188
 21
27.0552685673
  0
LINE
  5
48E
100
AcDbEntity
  8
0
100
AcDbLine
 62
253
  6
CONTINUOUS
 10
-34.5991432188
 20
-53.4518382139
 11
-34.5991432188
 21
-55.4447314327
  0
LINE
  5
48F
100
AcDbEntity
  8
0
100
AcDbLine
 62
7
  6
CONTINUOUS
 10
-27.966875
 20
-14.0742148233
 11
-28.354156
 21
-14.2915838233
  0
LINE
  5
490
100
AcDbEntity
  8
0
100
AcDbLine
 62
7
  6
CONTINUOUS
 10
-20.6871010721
 20
-14.1553684252
 11
-20.9636968225
 21
-14.2962012213
  0
LINE
  5
491
100
AcDbEntity
  8
0
100
AcDbLine
 62
7
  6
CONTINUOUS
 10
-20.7977393568
 20
-14.5778684252
 11
-20.6317819297
 21
-14.5074512213
  0
LINE
  5
492
100
AcDbEntity
  8
0
100
AcDbLine
 62
7
  6
CONTINUOUS
 10
-20.2998669982
 20
-16.1974512213
 11
-20.4658245027
 21
-16.2678684252
  0
LINE
  5
493
100
AcDbEntity
  8
0
100
AcDbLine
 62
7
  6
CONTINUOUS
 10
-19.4147605658
 20
-16.4791184252
 11
-19.2488031387
 21
-16.4087012213
  0
LINE
  5
494
100
AcDbEntity
  8
0
100
AcDbLine
 62
7
  6
CONTINUOUS
 10
-20.7977393568
 20
-17.1832848233
 11
-20.9636968225
 21
-17.2537012213
  0
LINE
  5
495
100
AcDbEntity
  8
0
100
AcDbLine
 62
7
  6
CONTINUOUS
 10
-5.583554
 20
-10.8743358233
 11
-9.04392
 21
-12.1720178233
  0
LINE
  5
496
100
AcDbEntity
  8
0
100
AcDbLine
 62
7
  6
CONTINUOUS
 10
-6.686792
 20
-12.2556288233
 11
-3.744584
 21
-11.1611328233
  0
LINE
  5
497
100
AcDbEntity
  8
0
100
AcDbLine
 62
7
  6
CONTINUOUS
 10
-20.5764627874
 20
-19.7182848233
 11
-20.3551861405
 21
-19.6478684252
  0
LINE
  5
498
100
AcDbEntity
  8
0
100
AcDbLine
 62
7
  6
CONTINUOUS
 10
7.59375
 20
10.3017151767
 11
7.2618503212
 21
10.218771855
  0
LINE
  5
499
100
AcDbEntity
  8
0
100
AcDbLine
 62
7
  6
CONTINUOUS
 10
-15.68125
 20
-2.9677698233
 11
-13.13125
 21
-2.9677698233
  0
LINE
  5
49A
100
AcDbEntity
  8
0
100
AcDbLine
 62
7
  6
CONTINUOUS
 10
-13.53958
 20
-2.6338058233
 11
-15.68125
 21
-2.6338058233
  0
LINE
  5
49B
100
AcDbEntity
  8
0
100
AcDbLine
 62
7
  6
CONTINUOUS
 10
-15.68125
 20
-0.8580408233
 11
-13.543086
 21
-0.8580408233
  0
LINE
  5
49C
100
AcDbEntity
  8
0
100
AcDbLine
 62
7
  6
CONTINUOUS
 10
-13.13125
 20
-0.5242108233
 11
-15.68125
 21
-0.5242108233
  0
LINE
  5
49D
100
AcDbEntity
  8
0
100
AcDbLine
 62
7
  6
CONTINUOUS
 10
-100.0743503212
 20
10.218771855
 11
-100.40625
 21
10.3017151767
  0
LINE
  5
49E
100
AcDbEntity
  8
0
100
AcDbLine
 62
7
  6
CONTINUOUS
 10
-3.744584
 20
-16.7877208233
 11
-9.04392
 21
-15.1255108233
  0
LINE
  5
49F
100
AcDbEntity
  8
0
100
AcDbLine
 62
7
  6
CONTINUOUS
 10
-20.4658245027
 20
-14.5074512213
 11
-20.2998669982
 21
-14.5778684252
  0
LINE
  5
4A0
100
AcDbEntity
  8
0
100
AcDbLine
 62
7
  6
CONTINUOUS
 10
-19.5807181478
 20
-14.5074512213
 11
-19.4147605658
 21
-14.5778684252
  0
LINE
  5
4A1
100
AcDbEntity
  8
0
100
AcDbLine
 62
7
  6
CONTINUOUS
 10
-20.9636968225
 20
-16.4791184252
 11
-20.6871010721
 21
-16.6199512213
  0
LINE
  5
4A2
100
AcDbEntity
  8
0
100
AcDbLine
 62
7
  6
CONTINUOUS
 10
-19.2488031387
 20
-14.2962012213
 11
-19.5253990054
 21
-14.1553684252
  0
LINE
  5
4A3
100
AcDbEntity
  8
0
100
AcDbLine
 62
7
  6
CONTINUOUS
 10
-28.3541558704
 20
-12.104985896
 11
-27.9668745954
 21
-12.3223550504
  0
LINE
  5
4A4
100
AcDbEntity
  8
0
100
AcDbLine
 62
7
  6
CONTINUOUS
 10
-20.7977393568
 20
-19.3662012213
 11
-20.9083776414
 21
-19.2957848233
  0
LINE
  5
4A5
100
AcDbEntity
  8
0
100
AcDbLine
 62
7
  6
CONTINUOUS
 10
-19.5253990054
 20
-19.2957848233
 11
-19.7466755748
 21
-19.1549512213
  0
LINE
  5
4A6
100
AcDbEntity
  8
0
100
AcDbLine
 62
7
  6
CONTINUOUS
 10
-30.065803
 20
-14.9084078233
 11
-29.716467
 21
-15.1548258233
  0
LINE
  5
4A7
100
AcDbEntity
  8
0
100
AcDbLine
 62
7
  6
CONTINUOUS
 10
-21.1296542495
 20
-19.5070348233
 11
-20.9636968225
 21
-19.6478684252
  0
LINE
  5
4A8
100
AcDbEntity
  8
0
100
AcDbLine
 62
7
  6
CONTINUOUS
 10
-19.9126330018
 20
-19.4366184252
 11
-19.7466755748
 21
-19.5774512213
  0
LINE
  5
4A9
100
AcDbEntity
  8
0
100
AcDbLine
 62
7
  6
CONTINUOUS
 10
-28.566516
 20
-12.5313978233
 11
-28.566516
 21
-13.8712758233
  0
LINE
  5
4AA
100
AcDbEntity
  8
0
100
AcDbLine
 62
7
  6
CONTINUOUS
 10
-28.094295
 20
-13.8712758233
 11
-28.094295
 21
-13.4529498233
  0
LINE
  5
4AB
100
AcDbEntity
  8
0
100
AcDbLine
 62
7
  6
CONTINUOUS
 10
-28.094295
 20
-12.9498868233
 11
-28.094295
 21
-12.5313978233
  0
LINE
  5
4AC
100
AcDbEntity
  8
0
100
AcDbLine
 62
7
  6
CONTINUOUS
 10
-25.458595
 20
-11.6801438233
 11
-26.528615
 21
-12.9498868233
  0
LINE
  5
4AD
100
AcDbEntity
  8
0
100
AcDbLine
 62
7
  6
CONTINUOUS
 10
-25.943412
 20
-12.9498868233
 11
-24.824003
 21
-11.6215368233
  0
LINE
  5
4AE
100
AcDbEntity
  8
0
100
AcDbLine
 62
7
  6
CONTINUOUS
 10
8.9766933217
 20
20.3846584984
 11
8.89375
 21
20.3017151767
  0
LINE
  5
4AF
100
AcDbEntity
  8
0
100
AcDbLine
 62
7
  6
CONTINUOUS
 10
11.1766933217
 20
20.3846584984
 11
11.09375
 21
20.3017151767
  0
LINE
  5
4B0
100
AcDbEntity
  8
0
100
AcDbLine
 62
7
  6
CONTINUOUS
 10
-20.9636968225
 20
-14.2962012213
 11
-21.1849734113
 21
-14.5074512213
  0
LINE
  5
4B1
100
AcDbEntity
  8
0
100
AcDbLine
 62
7
  6
CONTINUOUS
 10
-20.9636968225
 20
-14.7187012213
 11
-20.7977393568
 21
-14.5778684252
  0
LINE
  5
4B2
100
AcDbEntity
  8
0
100
AcDbLine
 62
7
  6
CONTINUOUS
 10
-20.9636968225
 20
-17.2537012213
 11
-21.1296542495
 21
-17.3945348233
  0
LINE
  5
4B3
100
AcDbEntity
  8
0
100
AcDbLine
 62
7
  6
CONTINUOUS
 10
-19.2488031387
 20
-15.9862012213
 11
-19.4147605658
 21
-16.1270348233
  0
LINE
  5
4B4
100
AcDbEntity
  8
0
100
AcDbLine
 62
7
  6
CONTINUOUS
 10
-20.9083776414
 20
-17.6057848233
 11
-20.7977393568
 21
-17.5353684252
  0
LINE
  5
4B5
100
AcDbEntity
  8
0
100
AcDbLine
 62
7
  6
CONTINUOUS
 10
-20.3551861405
 20
-19.2253684252
 11
-20.5764627874
 21
-19.3662012213
  0
LINE
  5
4B6
100
AcDbEntity
  8
0
100
AcDbLine
 62
7
  6
CONTINUOUS
 10
-13.610345
 20
-13.1041898233
 11
-15.68125
 21
-14.4076498233
  0
LINE
  5
4B7
100
AcDbEntity
  8
0
100
AcDbLine
 62
7
  6
CONTINUOUS
 10
-15.202575
 20
-14.4609388233
 11
-13.13125
 21
-13.1787208233
  0
LINE
  5
4B8
100
AcDbEntity
  8
0
100
AcDbLine
 62
7
  6
CONTINUOUS
 10
-20.4105052829
 20
-16.6199512213
 11
-20.1339095712
 21
-16.4791184252
  0
LINE
  5
4B9
100
AcDbEntity
  8
0
100
AcDbLine
 62
7
  6
CONTINUOUS
 10
-15.68125
 20
-21.5323058233
 11
-13.13125
 21
-20.6087588233
  0
LINE
  5
4BA
100
AcDbEntity
  8
0
100
AcDbLine
 62
7
  6
CONTINUOUS
 10
-14.939038
 20
-20.9035808233
 11
-15.68125
 21
-21.1557358233
  0
LINE
  5
4BB
100
AcDbEntity
  8
0
100
AcDbLine
 62
7
  6
CONTINUOUS
 10
-13.501124
 20
-20.3993148233
 11
-14.633616
 21
-20.7792468233
  0
LINE
  5
4BC
100
AcDbEntity
  8
0
100
AcDbLine
 62
7
  6
CONTINUOUS
 10
-19.4147605658
 20
-19.6478684252
 11
-19.1934839964
 21
-19.5774512213
  0
LINE
  5
4BD
100
AcDbEntity
  8
0
100
AcDbLine
 62
7
  6
CONTINUOUS
 10
-9.04392
 20
-19.4837838233
 11
-3.744584
 21
-17.8578168233
  0
LINE
  5
4BE
100
AcDbEntity
  8
0
100
AcDbLine
 62
7
  6
CONTINUOUS
 10
11.59375
 20
20.3017151767
 11
11.9256496788
 21
20.3846584984
  0
LINE
  5
4BF
100
AcDbEntity
  8
0
100
AcDbLine
 62
7
  6
CONTINUOUS
 10
-104.7381496788
 20
20.3846584984
 11
-104.40625
 21
20.3017151767
  0
LINE
  5
4C0
100
AcDbEntity
  8
0
100
AcDbLine
 62
7
  6
CONTINUOUS
 10
-3.744584
 20
-6.3597688233
 11
-7.392281
 21
-5.3187618233
  0
LINE
  5
4C1
100
AcDbEntity
  8
0
100
AcDbLine
 62
7
  6
CONTINUOUS
 10
-9.04392
 20
-5.7617738233
 11
-3.744584
 21
-7.4651928233
  0
LINE
  5
4C2
100
AcDbEntity
  8
0
100
AcDbLine
 62
7
  6
CONTINUOUS
 10
-15.68125
 20
-1.9164728233
 11
-13.53958
 21
-2.6338058233
  0
LINE
  5
4C3
100
AcDbEntity
  8
0
100
AcDbLine
 62
7
  6
CONTINUOUS
 10
-15.68125
 20
-3.6283368233
 11
-14.939038
 21
-3.8947408233
  0
LINE
  5
4C4
100
AcDbEntity
  8
0
100
AcDbLine
 62
7
  6
CONTINUOUS
 10
-14.633616
 20
-4.0013188233
 11
-13.501124
 21
-4.4134238233
  0
LINE
  5
4C5
100
AcDbEntity
  8
0
100
AcDbLine
 62
7
  6
CONTINUOUS
 10
-3.744584
 20
-13.3618078233
 11
-6.686792
 21
-12.2556288233
  0
LINE
  5
4C6
100
AcDbEntity
  8
0
100
AcDbLine
 62
7
  6
CONTINUOUS
 10
-13.13125
 20
-4.2320878233
 11
-15.68125
 21
-3.2732128233
  0
LINE
  5
4C7
100
AcDbEntity
  8
0
100
AcDbLine
 62
7
  6
CONTINUOUS
 10
-9.04392
 20
-12.3271588233
 11
-5.597979
 21
-13.6424058233
  0
LINE
  5
4C8
100
AcDbEntity
  8
0
100
AcDbLine
 62
7
  6
CONTINUOUS
 10
-21.40625
 20
-7.8882848233
 11
-18.80625
 21
-9.0149514228
  0
LINE
  5
4C9
100
AcDbEntity
  8
0
100
AcDbLine
 62
7
  6
CONTINUOUS
 10
-18.80625
 20
-8.5924514228
 11
-21.0743351072
 21
-7.606618123
  0
LINE
  5
4CA
100
AcDbEntity
  8
0
100
AcDbLine
 62
7
  6
CONTINUOUS
 10
-21.40625
 20
-10.7049516243
 11
-19.0828457117
 21
-12.1132848233
  0
LINE
  5
4CB
100
AcDbEntity
  8
0
100
AcDbLine
 62
7
  6
CONTINUOUS
 10
-19.0828457117
 20
-11.6907848233
 11
-21.40625
 21
-10.2824516243
  0
LINE
  5
4CC
100
AcDbEntity
  8
0
100
AcDbLine
 62
7
  6
CONTINUOUS
 10
-19.4147605658
 20
-17.6057848233
 11
-19.2488031387
 21
-17.7466184252
  0
LINE
  5
4CD
100
AcDbEntity
  8
0
100
AcDbLine
 62
7
  6
CONTINUOUS
 10
-20.7977393568
 20
-16.1974512213
 11
-20.9636968225
 21
-16.0566184252
  0
LINE
  5
4CE
100
AcDbEntity
  8
0
100
AcDbLine
 62
7
  6
CONTINUOUS
 10
-19.4147605658
 20
-14.5778684252
 11
-19.2488031387
 21
-14.7187012213
  0
LINE
  5
4CF
100
AcDbEntity
  8
0
100
AcDbLine
 62
7
  6
CONTINUOUS
 10
-21.1849734113
 20
-16.2678684252
 11
-20.9636968225
 21
-16.4791184252
  0
LINE
  5
4D0
100
AcDbEntity
  8
0
100
AcDbLine
 62
7
  6
CONTINUOUS
 10
-19.0275265694
 20
-14.5074512213
 11
-19.2488031387
 21
-14.2962012213
  0
LINE
  5
4D1
100
AcDbEntity
  8
0
100
AcDbLine
 62
7
  6
CONTINUOUS
 10
8.9766933217
 20
-46.781228145
 11
8.89375
 21
-46.6982848233
  0
LINE
  5
4D2
100
AcDbEntity
  8
0
100
AcDbLine
 62
7
  6
CONTINUOUS
 10
11.1766933217
 20
-46.781228145
 11
11.09375
 21
-46.6982848233
  0
LINE
  5
4D3
100
AcDbEntity
  8
0
100
AcDbLine
 62
7
  6
CONTINUOUS
 10
-19.6360372901
 20
-20.2816176194
 11
-19.2488031387
 21
-20.7041176194
  0
LINE
  5
4D4
100
AcDbEntity
  8
0
100
AcDbLine
 62
7
  6
CONTINUOUS
 10
-18.80625
 20
-20.7041176194
 11
-19.1934839964
 21
-20.2816176194
  0
LINE
  5
4D5
100
AcDbEntity
  8
0
100
AcDbLine
 62
7
  6
CONTINUOUS
 10
-19.6360372901
 20
-12.6766180223
 11
-19.2488031387
 21
-13.0991184252
  0
LINE
  5
4D6
100
AcDbEntity
  8
0
100
AcDbLine
 62
7
  6
CONTINUOUS
 10
-18.80625
 20
-13.0991184252
 11
-19.1934839964
 21
-12.6766180223
  0
LINE
  5
4D7
100
AcDbEntity
  8
0
100
AcDbLine
 62
7
  6
CONTINUOUS
 10
-26.523334
 20
-13.4529498233
 11
-25.458594694
 21
-14.7164261864
  0
LINE
  5
4D8
100
AcDbEntity
  8
0
100
AcDbLine
 62
7
  6
CONTINUOUS
 10
-24.8268670056
 20
-14.7779018166
 11
-25.943412
 21
-13.4529498233
  0
LINE
  5
4D9
100
AcDbEntity
  8
0
100
AcDbLine
 62
7
  6
CONTINUOUS
 10
-20.9083776414
 20
-19.2957848233
 11
-21.0190159649
 21
-19.1549512213
  0
LINE
  5
4DA
100
AcDbEntity
  8
0
100
AcDbLine
 62
7
  6
CONTINUOUS
 10
-19.7466755748
 20
-19.1549512213
 11
-19.8573138595
 21
-19.0141184252
  0
LINE
  5
4DB
100
AcDbEntity
  8
0
100
AcDbLine
 62
7
  6
CONTINUOUS
 10
-18.972207427
 20
-17.6057848233
 11
-19.1934839964
 21
-17.3241184252
  0
LINE
  5
4DC
100
AcDbEntity
  8
0
100
AcDbLine
 62
7
  6
CONTINUOUS
 10
-20.2998669982
 20
-14.5778684252
 11
-20.1892287135
 21
-14.7187012213
  0
LINE
  5
4DD
100
AcDbEntity
  8
0
100
AcDbLine
 62
7
  6
CONTINUOUS
 10
-20.0785904288
 20
-19.1549512213
 11
-19.9126330018
 21
-19.4366184252
  0
LINE
  5
4DE
100
AcDbEntity
  8
0
100
AcDbLine
 62
7
  6
CONTINUOUS
 10
-21.2402925536
 20
-19.2957848233
 11
-21.1296542495
 21
-19.5070348233
  0
LINE
  5
4DF
100
AcDbEntity
  8
0
100
AcDbLine
 62
7
  6
CONTINUOUS
 10
-24.739404
 20
-12.5468188233
 11
-24.739404
 21
-12.9498868233
  0
LINE
  5
4E0
100
AcDbEntity
  8
0
100
AcDbLine
 62
7
  6
CONTINUOUS
 10
-24.739404
 20
-13.4529498233
 11
-24.739404
 21
-13.8558548233
  0
LINE
  5
4E1
100
AcDbEntity
  8
0
100
AcDbLine
 62
7
  6
CONTINUOUS
 10
-24.264587
 20
-13.8558548233
 11
-24.264587
 21
-12.5468188233
  0
LINE
  5
4E2
100
AcDbEntity
  8
0
100
AcDbLine
 62
7
  6
CONTINUOUS
 10
-21.40625
 20
-7.3249515235
 11
-21.40625
 21
-7.8882848233
  0
LINE
  5
4E3
100
AcDbEntity
  8
0
100
AcDbLine
 62
7
  6
CONTINUOUS
 10
-21.40625
 20
-10.2824516243
 11
-21.40625
 21
-10.7049516243
  0
LINE
  5
4E4
100
AcDbEntity
  8
0
100
AcDbLine
 62
7
  6
CONTINUOUS
 10
-21.40625
 20
-13.0991184252
 11
-21.40625
 21
-13.5216184252
  0
LINE
  5
4E5
100
AcDbEntity
  8
0
100
AcDbLine
 62
7
  6
CONTINUOUS
 10
-21.40625
 20
-15.2116184252
 11
-21.40625
 21
-15.5637012213
  0
LINE
  5
4E6
100
AcDbEntity
  8
0
100
AcDbLine
 62
7
  6
CONTINUOUS
 10
-21.40625
 20
-18.1691184252
 11
-21.40625
 21
-18.7324512213
  0
LINE
  5
4E7
100
AcDbEntity
  8
0
100
AcDbLine
 62
7
  6
CONTINUOUS
 10
-21.40625
 20
-20.7041176194
 11
-21.40625
 21
-21.1266176194
  0
LINE
  5
4E8
100
AcDbEntity
  8
0
100
AcDbLine
 62
7
  6
CONTINUOUS
 10
-21.1296542495
 20
-18.6620348233
 11
-21.1296542495
 21
-18.2395348233
  0
LINE
  5
4E9
100
AcDbEntity
  8
0
100
AcDbLine
 62
7
  6
CONTINUOUS
 10
-21.1296542495
 20
-15.6341184252
 11
-21.1296542495
 21
-15.1412012213
  0
LINE
  5
4EA
100
AcDbEntity
  8
0
100
AcDbLine
 62
7
  6
CONTINUOUS
 10
-20.7977393568
 20
-17.5353684252
 11
-20.7977393568
 21
-17.1832848233
  0
LINE
  5
4EB
100
AcDbEntity
  8
0
100
AcDbLine
 62
7
  6
CONTINUOUS
 10
-20.1892287135
 20
-18.3099512213
 11
-20.1892287135
 21
-18.5916184252
  0
LINE
  5
4EC
100
AcDbEntity
  8
0
100
AcDbLine
 62
7
  6
CONTINUOUS
 10
-20.0232712865
 20
-15.1412012213
 11
-20.0232712865
 21
-15.6341184252
  0
LINE
  5
4ED
100
AcDbEntity
  8
0
100
AcDbLine
 62
7
  6
CONTINUOUS
 10
-19.9679521441
 20
-18.5916184252
 11
-19.9679521441
 21
-18.3099512213
  0
LINE
  5
4EE
100
AcDbEntity
  8
0
100
AcDbLine
 62
7
  6
CONTINUOUS
 10
-19.7466755748
 20
-15.5637012213
 11
-19.7466755748
 21
-15.2116184252
  0
LINE
  5
4EF
100
AcDbEntity
  8
0
100
AcDbLine
 62
7
  6
CONTINUOUS
 10
-19.4147605658
 20
-16.1270348233
 11
-19.4147605658
 21
-16.4791184252
  0
LINE
  5
4F0
100
AcDbEntity
  8
0
100
AcDbLine
 62
7
  6
CONTINUOUS
 10
-19.4147605658
 20
-17.2537012213
 11
-19.4147605658
 21
-17.6057848233
  0
LINE
  5
4F1
100
AcDbEntity
  8
0
100
AcDbLine
 62
7
  6
CONTINUOUS
 10
-20.1892287135
 20
-18.5916184252
 11
-20.2445478559
 21
-19.0141184252
  0
LINE
  5
4F2
100
AcDbEntity
  8
0
100
AcDbLine
 62
7
  6
CONTINUOUS
 10
-21.3509308528
 20
-14.8595348233
 11
-21.40625
 21
-15.2116184252
  0
LINE
  5
4F3
100
AcDbEntity
  8
0
100
AcDbLine
 62
7
  6
CONTINUOUS
 10
-21.1296542495
 20
-18.2395348233
 11
-21.0743351072
 21
-17.8874512213
  0
LINE
  5
4F4
100
AcDbEntity
  8
0
100
AcDbLine
 62
7
  6
CONTINUOUS
 10
-19.8019947171
 20
-15.9157848233
 11
-19.7466755748
 21
-15.5637012213
  0
LINE
  5
4F5
100
AcDbEntity
  8
0
100
AcDbLine
 62
7
  6
CONTINUOUS
 10
-21.3509308528
 20
-17.8874512213
 11
-21.40625
 21
-18.1691184252
  0
LINE
  5
4F6
100
AcDbEntity
  8
0
100
AcDbLine
 62
7
  6
CONTINUOUS
 10
-21.1296542495
 20
-15.1412012213
 11
-21.0743351072
 21
-14.9299512213
  0
LINE
  5
4F7
100
AcDbEntity
  8
0
100
AcDbLine
 62
7
  6
CONTINUOUS
 10
-20.0232712865
 20
-15.6341184252
 11
-20.0785904288
 21
-15.8453684252
  0
LINE
  5
4F8
100
AcDbEntity
  8
0
100
AcDbLine
 62
7
  6
CONTINUOUS
 10
-19.0828457117
 20
-15.5637012213
 11
-19.138164854
 21
-15.7749512213
  0
LINE
  5
4F9
100
AcDbEntity
  8
0
100
AcDbLine
 62
7
  6
CONTINUOUS
 10
-20.1892287135
 20
-19.5070348233
 11
-20.0785904288
 21
-19.1549512213
  0
LINE
  5
4FA
100
AcDbEntity
  8
0
100
AcDbLine
 62
7
  6
CONTINUOUS
 10
-21.2402925536
 20
-17.6057848233
 11
-21.3509308528
 21
-17.8874512213
  0
LINE
  5
4FB
100
AcDbEntity
  8
0
100
AcDbLine
 62
7
  6
CONTINUOUS
 10
-21.0743351072
 20
-17.8874512213
 11
-21.0190159649
 21
-17.7466184252
  0
LINE
  5
4FC
100
AcDbEntity
  8
0
100
AcDbLine
 62
7
  6
CONTINUOUS
 10
-21.1849734113
 20
-14.5074512213
 11
-21.3509308528
 21
-14.8595348233
  0
LINE
  5
4FD
100
AcDbEntity
  8
0
100
AcDbLine
 62
7
  6
CONTINUOUS
 10
-19.9679521441
 20
-16.2678684252
 11
-19.8019947171
 21
-15.9157848233
  0
LINE
  5
4FE
100
AcDbEntity
  8
0
100
AcDbLine
 62
7
  6
CONTINUOUS
 10
-19.0275265694
 20
-16.1974512213
 11
-18.8615691423
 21
-15.8453684252
  0
LINE
  5
4FF
100
AcDbEntity
  8
0
100
AcDbLine
 62
7
  6
CONTINUOUS
 10
-21.0743351072
 20
-14.9299512213
 11
-20.9636968225
 21
-14.7187012213
  0
LINE
  5
500
100
AcDbEntity
  8
0
100
AcDbLine
 62
7
  6
CONTINUOUS
 10
-21.1296542495
 20
-17.3945348233
 11
-21.2402925536
 21
-17.6057848233
  0
LINE
  5
501
100
AcDbEntity
  8
0
100
AcDbLine
 62
7
  6
CONTINUOUS
 10
-20.0785904288
 20
-15.8453684252
 11
-20.1892287135
 21
-16.0566184252
  0
LINE
  5
502
100
AcDbEntity
  8
0
100
AcDbLine
 62
7
  6
CONTINUOUS
 10
-19.138164854
 20
-15.7749512213
 11
-19.2488031387
 21
-15.9862012213
  0
LINE
  5
503
100
AcDbEntity
  8
0
100
AcDbLine
 62
7
  6
CONTINUOUS
 10
-20.2445478559
 20
-19.0141184252
 11
-20.3551861405
 21
-19.2253684252
  0
LINE
  5
504
100
AcDbEntity
  8
0
100
AcDbLine
 62
7
  6
CONTINUOUS
 10
-19.138164854
 20
-18.9437012213
 11
-19.2488031387
 21
-19.1549512213
  0
LINE
  5
505
100
AcDbEntity
  8
0
100
AcDbLine
 62
7
  6
CONTINUOUS
 10
-20.1892287135
 20
-16.0566184252
 11
-20.2998669982
 21
-16.1974512213
  0
LINE
  5
506
100
AcDbEntity
  8
0
100
AcDbLine
 62
7
  6
CONTINUOUS
 10
-20.1339095712
 20
-16.4791184252
 11
-19.9679521441
 21
-16.2678684252
  0
LINE
  5
507
100
AcDbEntity
  8
0
100
AcDbLine
 62
7
  6
CONTINUOUS
 10
-21.0190159649
 20
-17.7466184252
 11
-20.9083776414
 21
-17.6057848233
  0
LINE
  5
508
100
AcDbEntity
  8
0
100
AcDbLine
 62
7
  6
CONTINUOUS
 10
-19.1934839964
 20
-19.5774512213
 11
-18.972207427
 21
-19.2957848233
  0
LINE
  5
509
100
AcDbEntity
  8
0
100
AcDbLine
 62
7
  6
CONTINUOUS
 10
8.0108066783
 20
10.218771855
 11
8.09375
 21
10.3017151767
  0
LINE
  5
50A
100
AcDbEntity
  8
0
100
AcDbLine
 62
253
  6
CONTINUOUS
 10
-57.1526786261
 20
-56.1518382139
 11
-56.8456188818
 21
-55.8447314327
  0
LINE
  5
50B
100
AcDbEntity
  8
0
100
AcDbLine
 62
7
  6
CONTINUOUS
 10
10.2108066783
 20
10.218771855
 11
10.29375
 21
10.3017151767
  0
LINE
  5
50C
100
AcDbEntity
  8
0
100
AcDbLine
 62
253
  6
CONTINUOUS
 10
-57.8598033906
 20
-55.4446972914
 11
-57.5526966094
 21
-55.1376246522
  0
LINE
  5
50D
100
AcDbEntity
  8
0
100
AcDbLine
 62
7
  6
CONTINUOUS
 10
-19.2488031387
 20
-16.4087012213
 11
-19.0275265694
 21
-16.1974512213
  0
LINE
  5
50E
100
AcDbEntity
  8
0
100
AcDbLine
 62
7
  6
CONTINUOUS
 10
-20.3551861405
 20
-19.6478684252
 11
-20.1892287135
 21
-19.5070348233
  0
LINE
  5
50F
100
AcDbEntity
  8
0
100
AcDbLine
 62
7
  6
CONTINUOUS
 10
-19.2488031387
 20
-19.1549512213
 11
-19.4147605658
 21
-19.2957848233
  0
LINE
  5
510
100
AcDbEntity
  8
0
100
AcDbLine
 62
7
  6
CONTINUOUS
 10
-13.13125
 20
-23.6028278233
 11
-14.654857
 21
-24.5652908233
  0
LINE
  5
511
100
AcDbEntity
  8
0
100
AcDbLine
 62
7
  6
CONTINUOUS
 10
-14.356652
 20
-24.7358408233
 11
-13.13125
 21
-24.0041458233
  0
LINE
  5
512
100
AcDbEntity
  8
0
100
AcDbLine
 62
253
  6
CONTINUOUS
 10
-102.6009825589
 20
9.7187908935
 11
-102.2115174411
 21
9.7187908935
  0
LINE
  5
513
100
AcDbEntity
  8
0
100
AcDbLine
 62
253
  6
CONTINUOUS
 10
7.5884825589
 20
9.7187908935
 11
6.9548356726
 21
9.7187908935
  0
LINE
  5
514
100
AcDbEntity
  8
0
100
AcDbLine
 62
253
  6
CONTINUOUS
 10
9.3990174411
 20
9.7187908935
 11
9.7884825589
 21
9.7187908935
  0
LINE
  5
515
100
AcDbEntity
  8
0
100
AcDbLine
 62
253
  6
CONTINUOUS
 10
-99.7673356726
 20
9.7187908935
 11
-100.4009825589
 21
9.7187908935
  0
LINE
  5
516
100
AcDbEntity
  8
0
100
AcDbLine
 62
253
  6
CONTINUOUS
 10
-104.4115174411
 20
9.7187908935
 11
-105.0329332607
 21
9.7187798893
  0
LINE
  5
517
100
AcDbEntity
  8
0
100
AcDbLine
 62
253
  6
CONTINUOUS
 10
7.8937499999
 20
10.1017151766
 11
8.09375
 21
10.1017151767
  0
LINE
  5
518
100
AcDbEntity
  8
0
100
AcDbLine
 62
253
  6
CONTINUOUS
 10
8.89375
 20
10.1017151767
 11
9.09375
 21
10.1017151767
  0
LINE
  5
519
100
AcDbEntity
  8
0
100
AcDbLine
 62
253
  6
CONTINUOUS
 10
10.0937499999
 20
10.1017151766
 11
10.29375
 21
10.1017151767
  0
LINE
  5
51A
100
AcDbEntity
  8
0
100
AcDbLine
 62
253
  6
CONTINUOUS
 10
11.09375
 20
10.1017151767
 11
11.29375
 21
10.1017151767
  0
LINE
  5
51B
100
AcDbEntity
  8
0
100
AcDbLine
 62
253
  6
CONTINUOUS
 10
-100.70625
 20
10.1017151767
 11
-100.90625
 21
10.1017151767
  0
LINE
  5
51C
100
AcDbEntity
  8
0
100
AcDbLine
 62
253
  6
CONTINUOUS
 10
-101.70625
 20
10.1017151767
 11
-101.9062500001
 21
10.1017151766
  0
LINE
  5
51D
100
AcDbEntity
  8
0
100
AcDbLine
 62
253
  6
CONTINUOUS
 10
-102.90625
 20
10.1017151767
 11
-103.10625
 21
10.1017151767
  0
LINE
  5
51E
100
AcDbEntity
  8
0
100
AcDbLine
 62
253
  6
CONTINUOUS
 10
-103.90625
 20
10.1017151767
 11
-104.1062500001
 21
10.1017151766
  0
LINE
  5
51F
100
AcDbEntity
  8
0
100
AcDbLine
 62
7
  6
CONTINUOUS
 10
-103.0233066783
 20
10.218771855
 11
-101.7891933217
 21
10.218771855
  0
LINE
  5
520
100
AcDbEntity
  8
0
100
AcDbLine
 62
7
  6
CONTINUOUS
 10
11.9256496788
 20
10.218771855
 11
11.1766933217
 21
10.218771855
  0
LINE
  5
521
100
AcDbEntity
  8
0
100
AcDbLine
 62
7
  6
CONTINUOUS
 10
8.0108066783
 20
10.218771855
 11
7.2618503212
 21
10.218771855
  0
LINE
  5
522
100
AcDbEntity
  8
0
100
AcDbLine
 62
7
  6
CONTINUOUS
 10
8.9766933217
 20
10.218771855
 11
10.2108066783
 21
10.218771855
  0
LINE
  5
523
100
AcDbEntity
  8
0
100
AcDbLine
 62
7
  6
CONTINUOUS
 10
-100.0743503212
 20
10.218771855
 11
-100.8233066783
 21
10.218771855
  0
LINE
  5
524
100
AcDbEntity
  8
0
100
AcDbLine
 62
7
  6
CONTINUOUS
 10
-103.9891933217
 20
10.218771855
 11
-104.7381496788
 21
10.218771855
  0
LINE
  5
525
100
AcDbEntity
  8
0
100
AcDbLine
 62
7
  6
CONTINUOUS
 10
-105.0329332607
 20
10.2144391977
 11
-104.9920364376
 21
10.2144464988
  0
LINE
  5
526
100
AcDbEntity
  8
0
100
AcDbLine
 62
7
  6
CONTINUOUS
 10
-104.40625
 20
10.3017151767
 11
-103.90625
 21
10.3017151767
  0
LINE
  5
527
100
AcDbEntity
  8
0
100
AcDbLine
 62
7
  6
CONTINUOUS
 10
-103.10625
 20
10.3017151767
 11
-101.70625
 21
10.3017151767
  0
LINE
  5
528
100
AcDbEntity
  8
0
100
AcDbLine
 62
7
  6
CONTINUOUS
 10
-100.90625
 20
10.3017151767
 11
-100.40625
 21
10.3017151767
  0
LINE
  5
529
100
AcDbEntity
  8
0
100
AcDbLine
 62
7
  6
CONTINUOUS
 10
7.59375
 20
10.3017151767
 11
8.09375
 21
10.3017151767
  0
LINE
  5
52A
100
AcDbEntity
  8
0
100
AcDbLine
 62
7
  6
CONTINUOUS
 10
8.89375
 20
10.3017151767
 11
10.29375
 21
10.3017151767
  0
LINE
  5
52B
100
AcDbEntity
  8
0
100
AcDbLine
 62
7
  6
CONTINUOUS
 10
11.09375
 20
10.3017151767
 11
11.59375
 21
10.3017151767
  0
LINE
  5
52C
100
AcDbEntity
  8
0
100
AcDbLine
 62
7
  6
CONTINUOUS
 10
11.59375
 20
10.8017151767
 11
7.59375
 21
10.8017151767
  0
LINE
  5
52D
100
AcDbEntity
  8
0
100
AcDbLine
 62
7
  6
CONTINUOUS
 10
-100.40625
 20
10.8017151767
 11
-104.40625
 21
10.8017151767
  0
LINE
  5
52E
100
AcDbEntity
  8
0
100
AcDbLine
 62
7
  6
CONTINUOUS
 10
-100.1490227248
 20
11.3017151767
 11
-99.7673356726
 21
11.3017151767
  0
LINE
  5
52F
100
AcDbEntity
  8
0
100
AcDbLine
 62
7
  6
CONTINUOUS
 10
11.6239922735
 20
11.3017151767
 11
7.5635077265
 21
11.3017151767
  0
LINE
  5
530
100
AcDbEntity
  8
0
100
AcDbLine
 62
7
  6
CONTINUOUS
 10
6.9548356726
 20
11.3017151767
 11
7.3365227248
 21
11.3017151767
  0
LINE
  5
531
100
AcDbEntity
  8
0
100
AcDbLine
 62
7
  6
CONTINUOUS
 10
11.8509772752
 20
11.3017151767
 11
12.2204332607
 21
11.3017151767
  0
LINE
  5
532
100
AcDbEntity
  8
0
100
AcDbLine
 62
7
  6
CONTINUOUS
 10
-100.3760077265
 20
11.3017151767
 11
-104.4364922735
 21
11.3017151767
  0
LINE
  5
533
100
AcDbEntity
  8
0
100
AcDbLine
 62
7
  6
CONTINUOUS
 10
-104.6634772752
 20
11.3017151767
 11
-105.0329332607
 21
11.3017151767
  0
LINE
  5
534
100
AcDbEntity
  8
0
100
AcDbLine
 62
7
  6
CONTINUOUS
 10
-104.5464926974
 20
11.4517151767
 11
-104.5360164666
 21
11.4517151767
  0
LINE
  5
535
100
AcDbEntity
  8
0
100
AcDbLine
 62
7
  6
CONTINUOUS
 10
-104.5639530821
 20
11.4517151767
 11
-104.5534768513
 21
11.4517151767
  0
LINE
  5
536
100
AcDbEntity
  8
0
100
AcDbLine
 62
7
  6
CONTINUOUS
 10
-104.5814134669
 20
11.4517151767
 11
-104.570937236
 21
11.4517151767
  0
LINE
  5
537
100
AcDbEntity
  8
0
100
AcDbLine
 62
7
  6
CONTINUOUS
 10
-104.5988738516
 20
11.4517151767
 11
-104.5883976208
 21
11.4517151767
  0
LINE
  5
538
100
AcDbEntity
  8
0
100
AcDbLine
 62
7
  6
CONTINUOUS
 10
-104.6163342364
 20
11.4517151767
 11
-104.6058580055
 21
11.4517151767
  0
LINE
  5
539
100
AcDbEntity
  8
0
100
AcDbLine
 62
7
  6
CONTINUOUS
 10
-104.6337946211
 20
11.4517151767
 11
-104.6233183903
 21
11.4517151767
  0
LINE
  5
53A
100
AcDbEntity
  8
0
100
AcDbLine
 62
7
  6
CONTINUOUS
 10
-104.6512550059
 20
11.4517151767
 11
-104.640778775
 21
11.4517151767
  0
LINE
  5
53B
100
AcDbEntity
  8
0
100
AcDbLine
 62
7
  6
CONTINUOUS
 10
-104.4417303889
 20
11.4517151767
 11
-100.3707696111
 21
11.4517151767
  0
LINE
  5
53C
100
AcDbEntity
  8
0
100
AcDbLine
 62
7
  6
CONTINUOUS
 10
-104.4591907737
 20
11.4517151767
 11
-104.4487145428
 21
11.4517151767
  0
LINE
  5
53D
100
AcDbEntity
  8
0
100
AcDbLine
 62
7
  6
CONTINUOUS
 10
-104.4766511584
 20
11.4517151767
 11
-104.4661749276
 21
11.4517151767
  0
LINE
  5
53E
100
AcDbEntity
  8
0
100
AcDbLine
 62
7
  6
CONTINUOUS
 10
-104.4941115432
 20
11.4517151767
 11
-104.4836353123
 21
11.4517151767
  0
LINE
  5
53F
100
AcDbEntity
  8
0
100
AcDbLine
 62
7
  6
CONTINUOUS
 10
-104.5115719279
 20
11.4517151767
 11
-104.5010956971
 21
11.4517151767
  0
LINE
  5
540
100
AcDbEntity
  8
0
100
AcDbLine
 62
7
  6
CONTINUOUS
 10
-104.5290323127
 20
11.4517151767
 11
-104.5185560818
 21
11.4517151767
  0
LINE
  5
541
100
AcDbEntity
  8
0
100
AcDbLine
 62
7
  6
CONTINUOUS
 10
-100.3637854572
 20
11.4517151767
 11
-100.3533092263
 21
11.4517151767
  0
LINE
  5
542
100
AcDbEntity
  8
0
100
AcDbLine
 62
7
  6
CONTINUOUS
 10
-100.3463250724
 20
11.4517151767
 11
-100.3358488416
 21
11.4517151767
  0
LINE
  5
543
100
AcDbEntity
  8
0
100
AcDbLine
 62
7
  6
CONTINUOUS
 10
-100.3288646877
 20
11.4517151767
 11
-100.3183884568
 21
11.4517151767
  0
LINE
  5
544
100
AcDbEntity
  8
0
100
AcDbLine
 62
7
  6
CONTINUOUS
 10
-100.3114043029
 20
11.4517151767
 11
-100.3009280721
 21
11.4517151767
  0
LINE
  5
545
100
AcDbEntity
  8
0
100
AcDbLine
 62
7
  6
CONTINUOUS
 10
-100.2939439182
 20
11.4517151767
 11
-100.2834676873
 21
11.4517151767
  0
LINE
  5
546
100
AcDbEntity
  8
0
100
AcDbLine
 62
7
  6
CONTINUOUS
 10
-100.2764835334
 20
11.4517151767
 11
-100.2660073026
 21
11.4517151767
  0
LINE
  5
547
100
AcDbEntity
  8
0
100
AcDbLine
 62
7
  6
CONTINUOUS
 10
-100.2590231487
 20
11.4517151767
 11
-100.2485469179
 21
11.4517151767
  0
LINE
  5
548
100
AcDbEntity
  8
0
100
AcDbLine
 62
7
  6
CONTINUOUS
 10
-100.241562764
 20
11.4517151767
 11
-100.2310865331
 21
11.4517151767
  0
LINE
  5
549
100
AcDbEntity
  8
0
100
AcDbLine
 62
7
  6
CONTINUOUS
 10
-100.2241023792
 20
11.4517151767
 11
-100.2136261484
 21
11.4517151767
  0
LINE
  5
54A
100
AcDbEntity
  8
0
100
AcDbLine
 62
7
  6
CONTINUOUS
 10
-100.2066419945
 20
11.4517151767
 11
-100.1961657636
 21
11.4517151767
  0
LINE
  5
54B
100
AcDbEntity
  8
0
100
AcDbLine
 62
7
  6
CONTINUOUS
 10
-100.1891816097
 20
11.4517151767
 11
-100.1787053789
 21
11.4517151767
  0
LINE
  5
54C
100
AcDbEntity
  8
0
100
AcDbLine
 62
7
  6
CONTINUOUS
 10
-100.171721225
 20
11.4517151767
 11
-100.1612449941
 21
11.4517151767
  0
LINE
  5
54D
100
AcDbEntity
  8
0
100
AcDbLine
 62
7
  6
CONTINUOUS
 10
11.6466907737
 20
11.4517151767
 11
11.6362145428
 21
11.4517151767
  0
LINE
  5
54E
100
AcDbEntity
  8
0
100
AcDbLine
 62
7
  6
CONTINUOUS
 10
11.6641511584
 20
11.4517151767
 11
11.6536749276
 21
11.4517151767
  0
LINE
  5
54F
100
AcDbEntity
  8
0
100
AcDbLine
 62
7
  6
CONTINUOUS
 10
11.6816115432
 20
11.4517151767
 11
11.6711353123
 21
11.4517151767
  0
LINE
  5
550
100
AcDbEntity
  8
0
100
AcDbLine
 62
7
  6
CONTINUOUS
 10
11.6990719279
 20
11.4517151767
 11
11.6885956971
 21
11.4517151767
  0
LINE
  5
551
100
AcDbEntity
  8
0
100
AcDbLine
 62
7
  6
CONTINUOUS
 10
11.7165323127
 20
11.4517151767
 11
11.7060560818
 21
11.4517151767
  0
LINE
  5
552
100
AcDbEntity
  8
0
100
AcDbLine
 62
7
  6
CONTINUOUS
 10
11.7339926974
 20
11.4517151767
 11
11.7235164666
 21
11.4517151767
  0
LINE
  5
553
100
AcDbEntity
  8
0
100
AcDbLine
 62
7
  6
CONTINUOUS
 10
11.7514530821
 20
11.4517151767
 11
11.7409768513
 21
11.4517151767
  0
LINE
  5
554
100
AcDbEntity
  8
0
100
AcDbLine
 62
7
  6
CONTINUOUS
 10
11.7689134669
 20
11.4517151767
 11
11.758437236
 21
11.4517151767
  0
LINE
  5
555
100
AcDbEntity
  8
0
100
AcDbLine
 62
7
  6
CONTINUOUS
 10
11.7863738516
 20
11.4517151767
 11
11.7758976208
 21
11.4517151767
  0
LINE
  5
556
100
AcDbEntity
  8
0
100
AcDbLine
 62
7
  6
CONTINUOUS
 10
11.8038342364
 20
11.4517151767
 11
11.7933580055
 21
11.4517151767
  0
LINE
  5
557
100
AcDbEntity
  8
0
100
AcDbLine
 62
7
  6
CONTINUOUS
 10
11.8212946211
 20
11.4517151767
 11
11.8108183903
 21
11.4517151767
  0
LINE
  5
558
100
AcDbEntity
  8
0
100
AcDbLine
 62
7
  6
CONTINUOUS
 10
11.8387550059
 20
11.4517151767
 11
11.828278775
 21
11.4517151767
  0
LINE
  5
559
100
AcDbEntity
  8
0
100
AcDbLine
 62
7
  6
CONTINUOUS
 10
11.6292303889
 20
11.4517151767
 11
7.5582696111
 21
11.4517151767
  0
LINE
  5
55A
100
AcDbEntity
  8
0
100
AcDbLine
 62
7
  6
CONTINUOUS
 10
7.5512854572
 20
11.4517151767
 11
7.5408092263
 21
11.4517151767
  0
LINE
  5
55B
100
AcDbEntity
  8
0
100
AcDbLine
 62
7
  6
CONTINUOUS
 10
7.5338250724
 20
11.4517151767
 11
7.5233488416
 21
11.4517151767
  0
LINE
  5
55C
100
AcDbEntity
  8
0
100
AcDbLine
 62
7
  6
CONTINUOUS
 10
7.5163646877
 20
11.4517151767
 11
7.5058884568
 21
11.4517151767
  0
LINE
  5
55D
100
AcDbEntity
  8
0
100
AcDbLine
 62
7
  6
CONTINUOUS
 10
7.4989043029
 20
11.4517151767
 11
7.4884280721
 21
11.4517151767
  0
LINE
  5
55E
100
AcDbEntity
  8
0
100
AcDbLine
 62
7
  6
CONTINUOUS
 10
7.4814439182
 20
11.4517151767
 11
7.4709676873
 21
11.4517151767
  0
LINE
  5
55F
100
AcDbEntity
  8
0
100
AcDbLine
 62
7
  6
CONTINUOUS
 10
7.4639835334
 20
11.4517151767
 11
7.4535073026
 21
11.4517151767
  0
LINE
  5
560
100
AcDbEntity
  8
0
100
AcDbLine
 62
7
  6
CONTINUOUS
 10
7.4465231487
 20
11.4517151767
 11
7.4360469179
 21
11.4517151767
  0
LINE
  5
561
100
AcDbEntity
  8
0
100
AcDbLine
 62
7
  6
CONTINUOUS
 10
7.429062764
 20
11.4517151767
 11
7.4185865331
 21
11.4517151767
  0
LINE
  5
562
100
AcDbEntity
  8
0
100
AcDbLine
 62
7
  6
CONTINUOUS
 10
7.4116023792
 20
11.4517151767
 11
7.4011261484
 21
11.4517151767
  0
LINE
  5
563
100
AcDbEntity
  8
0
100
AcDbLine
 62
7
  6
CONTINUOUS
 10
7.3941419945
 20
11.4517151767
 11
7.3836657636
 21
11.4517151767
  0
LINE
  5
564
100
AcDbEntity
  8
0
100
AcDbLine
 62
7
  6
CONTINUOUS
 10
7.3766816097
 20
11.4517151767
 11
7.3662053789
 21
11.4517151767
  0
LINE
  5
565
100
AcDbEntity
  8
0
100
AcDbLine
 62
7
  6
CONTINUOUS
 10
7.359221225
 20
11.4517151767
 11
7.3487449941
 21
11.4517151767
  0
LINE
  5
566
100
AcDbEntity
  8
0
100
AcDbLine
 62
253
  6
CONTINUOUS
 10
12.2204332607
 20
9.7187798896
 11
11.5990174411
 21
9.7187908935
  0
LINE
  5
567
100
AcDbEntity
  8
0
100
AcDbLine
 62
7
  6
CONTINUOUS
 10
12.1795364376
 20
10.2144464988
 11
12.2204332607
 21
10.2144391977
  0
LINE
  5
568
100
AcDbEntity
  8
0
100
AcDbLine
 62
7
  6
CONTINUOUS
 10
-13.13125
 20
-2.4775888233
 11
-15.297522
 21
-1.7494958233
  0
LINE
  5
569
100
AcDbEntity
  8
0
100
AcDbLine
 62
253
  6
CONTINUOUS
 10
-57.8598033906
 20
29.0481438028
 11
-57.5526966094
 21
28.7410840585
  0
LINE
  5
56A
100
AcDbEntity
  8
0
100
AcDbLine
 62
7
  6
CONTINUOUS
 10
8.0108066783
 20
-36.6153415016
 11
8.09375
 21
-36.6982848233
  0
LINE
  5
56B
100
AcDbEntity
  8
0
100
AcDbLine
 62
7
  6
CONTINUOUS
 10
10.2108066783
 20
-36.6153415016
 11
10.29375
 21
-36.6982848233
  0
LINE
  5
56C
100
AcDbEntity
  8
0
100
AcDbLine
 62
253
  6
CONTINUOUS
 10
-57.1526624681
 20
29.7552685673
 11
-56.845589829
 21
29.4481617861
  0
LINE
  5
56D
100
AcDbEntity
  8
0
100
AcDbLine
 62
7
  6
CONTINUOUS
 10
-20.9636968225
 20
-16.0566184252
 11
-21.0743351072
 21
-15.8453684252
  0
LINE
  5
56E
100
AcDbEntity
  8
0
100
AcDbLine
 62
7
  6
CONTINUOUS
 10
-19.2488031387
 20
-17.7466184252
 11
-19.138164854
 21
-17.9578684252
  0
LINE
  5
56F
100
AcDbEntity
  8
0
100
AcDbLine
 62
7
  6
CONTINUOUS
 10
-20.1892287135
 20
-14.7187012213
 11
-20.0785904288
 21
-14.9299512213
  0
LINE
  5
570
100
AcDbEntity
  8
0
100
AcDbLine
 62
7
  6
CONTINUOUS
 10
-19.8019947171
 20
-14.8595348233
 11
-20.0232712865
 21
-14.4370348233
  0
LINE
  5
571
100
AcDbEntity
  8
0
100
AcDbLine
 62
7
  6
CONTINUOUS
 10
-19.2488031387
 20
-14.7187012213
 11
-19.138164854
 21
-14.9299512213
  0
LINE
  5
572
100
AcDbEntity
  8
0
100
AcDbLine
 62
7
  6
CONTINUOUS
 10
-21.3509308528
 20
-15.9157848233
 11
-21.1849734113
 21
-16.2678684252
  0
LINE
  5
573
100
AcDbEntity
  8
0
100
AcDbLine
 62
7
  6
CONTINUOUS
 10
-18.8615691423
 20
-14.8595348233
 11
-19.0275265694
 21
-14.5074512213
  0
LINE
  5
574
100
AcDbEntity
  8
0
100
AcDbLine
 62
7
  6
CONTINUOUS
 10
-21.3509308528
 20
-19.0141184252
 11
-21.2402925536
 21
-19.2957848233
  0
LINE
  5
575
100
AcDbEntity
  8
0
100
AcDbLine
 62
7
  6
CONTINUOUS
 10
-21.0190159649
 20
-19.1549512213
 11
-21.0743351072
 21
-19.0141184252
  0
LINE
  5
576
100
AcDbEntity
  8
0
100
AcDbLine
 62
7
  6
CONTINUOUS
 10
-18.8615691423
 20
-17.8874512213
 11
-18.972207427
 21
-17.6057848233
  0
LINE
  5
577
100
AcDbEntity
  8
0
100
AcDbLine
 62
7
  6
CONTINUOUS
 10
-21.0743351072
 20
-15.8453684252
 11
-21.1296542495
 21
-15.6341184252
  0
LINE
  5
578
100
AcDbEntity
  8
0
100
AcDbLine
 62
7
  6
CONTINUOUS
 10
-19.8573138595
 20
-19.0141184252
 11
-19.9679521441
 21
-18.5916184252
  0
LINE
  5
579
100
AcDbEntity
  8
0
100
AcDbLine
 62
7
  6
CONTINUOUS
 10
-20.0785904288
 20
-14.9299512213
 11
-20.0232712865
 21
-15.1412012213
  0
LINE
  5
57A
100
AcDbEntity
  8
0
100
AcDbLine
 62
7
  6
CONTINUOUS
 10
-19.138164854
 20
-14.9299512213
 11
-19.0828457117
 21
-15.1412012213
  0
LINE
  5
57B
100
AcDbEntity
  8
0
100
AcDbLine
 62
7
  6
CONTINUOUS
 10
-21.40625
 20
-18.7324512213
 11
-21.3509308528
 21
-19.0141184252
  0
LINE
  5
57C
100
AcDbEntity
  8
0
100
AcDbLine
 62
7
  6
CONTINUOUS
 10
-21.0743351072
 20
-19.0141184252
 11
-21.1296542495
 21
-18.6620348233
  0
LINE
  5
57D
100
AcDbEntity
  8
0
100
AcDbLine
 62
7
  6
CONTINUOUS
 10
-21.40625
 20
-15.5637012213
 11
-21.3509308528
 21
-15.9157848233
  0
LINE
  5
57E
100
AcDbEntity
  8
0
100
AcDbLine
 62
7
  6
CONTINUOUS
 10
-19.7466755748
 20
-15.2116184252
 11
-19.8019947171
 21
-14.8595348233
  0
LINE
  5
57F
100
AcDbEntity
  8
0
100
AcDbLine
 62
7
  6
CONTINUOUS
 10
-19.138164854
 20
-17.9578684252
 11
-19.0828457117
 21
-18.3099512213
  0
LINE
  5
580
100
AcDbEntity
  8
0
100
AcDbLine
 62
7
  6
CONTINUOUS
 10
-18.80625
 20
-15.2116184252
 11
-18.8615691423
 21
-14.8595348233
  0
LINE
  5
581
100
AcDbEntity
  8
0
100
AcDbLine
 62
7
  6
CONTINUOUS
 10
-18.80625
 20
-18.3803684252
 11
-18.8615691423
 21
-17.8874512213
  0
LINE
  5
582
100
AcDbEntity
  8
0
100
AcDbLine
 62
7
  6
CONTINUOUS
 10
-19.0828457117
 20
-9.5782848233
 11
-19.0828457117
 21
-11.6907848233
  0
LINE
  5
583
100
AcDbEntity
  8
0
100
AcDbLine
 62
7
  6
CONTINUOUS
 10
-19.0828457117
 20
-15.1412012213
 11
-19.0828457117
 21
-15.5637012213
  0
LINE
  5
584
100
AcDbEntity
  8
0
100
AcDbLine
 62
7
  6
CONTINUOUS
 10
-19.0828457117
 20
-18.3099512213
 11
-19.0828457117
 21
-18.5916184252
  0
LINE
  5
585
100
AcDbEntity
  8
0
100
AcDbLine
 62
7
  6
CONTINUOUS
 10
-18.80625
 20
-21.1266176194
 11
-18.80625
 21
-20.7041176194
  0
LINE
  5
586
100
AcDbEntity
  8
0
100
AcDbLine
 62
7
  6
CONTINUOUS
 10
-18.80625
 20
-18.5212012213
 11
-18.80625
 21
-18.3803684252
  0
LINE
  5
587
100
AcDbEntity
  8
0
100
AcDbLine
 62
7
  6
CONTINUOUS
 10
-18.80625
 20
-15.4932848233
 11
-18.80625
 21
-15.2116184252
  0
LINE
  5
588
100
AcDbEntity
  8
0
100
AcDbLine
 62
7
  6
CONTINUOUS
 10
-18.80625
 20
-13.5216184252
 11
-18.80625
 21
-13.0991184252
  0
LINE
  5
589
100
AcDbEntity
  8
0
100
AcDbLine
 62
7
  6
CONTINUOUS
 10
-18.80625
 20
-12.1132848233
 11
-18.80625
 21
-9.5782848233
  0
LINE
  5
58A
100
AcDbEntity
  8
0
100
AcDbLine
 62
7
  6
CONTINUOUS
 10
-18.80625
 20
-9.0149514228
 11
-18.80625
 21
-8.5924514228
  0
LINE
  5
58B
100
AcDbEntity
  8
0
100
AcDbLine
 62
7
  6
CONTINUOUS
 10
-18.80625
 20
-6.6207848233
 11
-18.80625
 21
-6.1982848233
  0
LINE
  5
58C
100
AcDbEntity
  8
0
100
AcDbLine
 62
7
  6
CONTINUOUS
 10
-15.68125
 20
-0.5242108233
 11
-15.68125
 21
-0.8580408233
  0
LINE
  5
58D
100
AcDbEntity
  8
0
100
AcDbLine
 62
7
  6
CONTINUOUS
 10
-15.68125
 20
-1.5755118233
 11
-15.68125
 21
-1.9164728233
  0
LINE
  5
58E
100
AcDbEntity
  8
0
100
AcDbLine
 62
7
  6
CONTINUOUS
 10
-15.68125
 20
-2.6338058233
 11
-15.68125
 21
-2.9677698233
  0
LINE
  5
58F
100
AcDbEntity
  8
0
100
AcDbLine
 62
7
  6
CONTINUOUS
 10
-15.68125
 20
-3.2732128233
 11
-15.68125
 21
-3.6283368233
  0
LINE
  5
590
100
AcDbEntity
  8
0
100
AcDbLine
 62
7
  6
CONTINUOUS
 10
-15.68125
 20
-5.1696788233
 11
-15.68125
 21
-5.5461878233
  0
LINE
  5
591
100
AcDbEntity
  8
0
100
AcDbLine
 62
7
  6
CONTINUOUS
 10
-15.68125
 20
-5.8800078233
 11
-15.68125
 21
-6.9135574011
  0
LINE
  5
592
100
AcDbEntity
  8
0
100
AcDbLine
 62
7
  6
CONTINUOUS
 10
-15.68125
 20
-8.4620768233
 11
-15.68125
 21
-10.3445188233
  0
LINE
  5
593
100
AcDbEntity
  8
0
100
AcDbLine
 62
7
  6
CONTINUOUS
 10
-15.68125
 20
-11.8362428233
 11
-15.68125
 21
-12.1807248233
  0
LINE
  5
594
100
AcDbEntity
  8
0
100
AcDbLine
 62
7
  6
CONTINUOUS
 10
-15.68125
 20
-12.7702048233
 11
-15.68125
 21
-13.1041898233
  0
LINE
  5
595
100
AcDbEntity
  8
0
100
AcDbLine
 62
7
  6
CONTINUOUS
 10
-15.68125
 20
-14.4076498233
 11
-15.68125
 21
-14.7947588233
  0
LINE
  5
596
100
AcDbEntity
  8
0
100
AcDbLine
 62
7
  6
CONTINUOUS
 10
-15.68125
 20
-16.3751608233
 11
-15.68125
 21
-16.7197458233
  0
LINE
  5
597
100
AcDbEntity
  8
0
100
AcDbLine
 62
7
  6
CONTINUOUS
 10
-15.68125
 20
-17.9521808233
 11
-15.68125
 21
-18.2966418233
  0
LINE
  5
598
100
AcDbEntity
  8
0
100
AcDbLine
 62
7
  6
CONTINUOUS
 10
-15.68125
 20
-19.2591458233
 11
-15.68125
 21
-19.6142488233
  0
LINE
  5
599
100
AcDbEntity
  8
0
100
AcDbLine
 62
7
  6
CONTINUOUS
 10
-15.68125
 20
-21.1557358233
 11
-15.68125
 21
-21.5323058233
  0
LINE
  5
59A
100
AcDbEntity
  8
0
100
AcDbLine
 62
7
  6
CONTINUOUS
 10
-15.68125
 20
-21.8482468233
 11
-15.68125
 21
-23.4856908233
  0
LINE
  5
59B
100
AcDbEntity
  8
0
100
AcDbLine
 62
7
  6
CONTINUOUS
 10
-15.68125
 20
-24.5652908233
 11
-15.68125
 21
-24.9096898233
  0
LINE
  5
59C
100
AcDbEntity
  8
0
100
AcDbLine
 62
7
  6
CONTINUOUS
 10
-15.386551
 20
-6.9047925866
 11
-15.386551
 21
-6.2246138233
  0
LINE
  5
59D
100
AcDbEntity
  8
0
100
AcDbLine
 62
7
  6
CONTINUOUS
 10
-15.375827
 20
-23.4856908233
 11
-15.375827
 21
-22.1928518233
  0
LINE
  5
59E
100
AcDbEntity
  8
0
100
AcDbLine
 62
7
  6
CONTINUOUS
 10
-15.375827
 20
-10.3445188233
 11
-15.375827
 21
-8.8066618233
  0
LINE
  5
59F
100
AcDbEntity
  8
0
100
AcDbLine
 62
7
  6
CONTINUOUS
 10
-14.939038
 20
-3.8947408233
 11
-14.939038
 21
-4.9175458233
  0
LINE
  5
5A0
100
AcDbEntity
  8
0
100
AcDbLine
 62
7
  6
CONTINUOUS
 10
-14.939038
 20
-19.8806738233
 11
-14.939038
 21
-20.9035808233
  0
LINE
  5
5A1
100
AcDbEntity
  8
0
100
AcDbLine
 62
7
  6
CONTINUOUS
 10
-14.633616
 20
-20.7792468233
 11
-14.633616
 21
-19.9872308233
  0
LINE
  5
5A2
100
AcDbEntity
  8
0
100
AcDbLine
 62
7
  6
CONTINUOUS
 10
-14.633616
 20
-4.7933348233
 11
-14.633616
 21
-4.0013188233
  0
LINE
  5
5A3
100
AcDbEntity
  8
0
100
AcDbLine
 62
7
  6
CONTINUOUS
 10
-14.52349
 20
-8.8066618233
 11
-14.52349
 21
-10.2024288233
  0
LINE
  5
5A4
100
AcDbEntity
  8
0
100
AcDbLine
 62
7
  6
CONTINUOUS
 10
-14.218068
 20
-10.2024288233
 11
-14.218068
 21
-8.8066618233
  0
LINE
  5
5A5
100
AcDbEntity
  8
0
100
AcDbLine
 62
7
  6
CONTINUOUS
 10
-13.436673
 20
-8.8066618233
 11
-13.436673
 21
-10.3196278233
  0
LINE
  5
5A6
100
AcDbEntity
  8
0
100
AcDbLine
 62
7
  6
CONTINUOUS
 10
-13.436673
 20
-17.0891198233
 11
-13.436673
 21
-17.9521808233
  0
LINE
  5
5A7
100
AcDbEntity
  8
0
100
AcDbLine
 62
7
  6
CONTINUOUS
 10
-13.436673
 20
-18.2966418233
 11
-13.436673
 21
-19.1597028233
  0
LINE
  5
5A8
100
AcDbEntity
  8
0
100
AcDbLine
 62
7
  6
CONTINUOUS
 10
-13.425949
 20
-6.2246138233
 11
-13.425949
 21
-6.9047925866
  0
LINE
  5
5A9
100
AcDbEntity
  8
0
100
AcDbLine
 62
7
  6
CONTINUOUS
 10
-13.13125
 20
-25.8723588233
 11
-13.13125
 21
-25.4673288233
  0
LINE
  5
5AA
100
AcDbEntity
  8
0
100
AcDbLine
 62
7
  6
CONTINUOUS
 10
-13.13125
 20
-24.0041458233
 11
-13.13125
 21
-23.6028278233
  0
LINE
  5
5AB
100
AcDbEntity
  8
0
100
AcDbLine
 62
7
  6
CONTINUOUS
 10
-13.13125
 20
-22.1928518233
 11
-13.13125
 21
-21.8482468233
  0
LINE
  5
5AC
100
AcDbEntity
  8
0
100
AcDbLine
 62
7
  6
CONTINUOUS
 10
-13.13125
 20
-20.6087588233
 11
-13.13125
 21
-20.2181438233
  0
LINE
  5
5AD
100
AcDbEntity
  8
0
100
AcDbLine
 62
7
  6
CONTINUOUS
 10
-13.13125
 20
-19.1597028233
 11
-13.13125
 21
-17.0891198233
  0
LINE
  5
5AE
100
AcDbEntity
  8
0
100
AcDbLine
 62
7
  6
CONTINUOUS
 10
-13.13125
 20
-16.7197458233
 11
-13.13125
 21
-16.3751608233
  0
LINE
  5
5AF
100
AcDbEntity
  8
0
100
AcDbLine
 62
7
  6
CONTINUOUS
 10
-13.13125
 20
-14.7947588233
 11
-13.13125
 21
-14.4609388233
  0
LINE
  5
5B0
100
AcDbEntity
  8
0
100
AcDbLine
 62
7
  6
CONTINUOUS
 10
-13.13125
 20
-13.1787208233
 11
-13.13125
 21
-12.7702048233
  0
LINE
  5
5B1
100
AcDbEntity
  8
0
100
AcDbLine
 62
7
  6
CONTINUOUS
 10
-13.13125
 20
-12.1807248233
 11
-13.13125
 21
-11.8362428233
  0
LINE
  5
5B2
100
AcDbEntity
  8
0
100
AcDbLine
 62
7
  6
CONTINUOUS
 10
-13.13125
 20
-10.3196278233
 11
-13.13125
 21
-8.4620768233
  0
LINE
  5
5B3
100
AcDbEntity
  8
0
100
AcDbLine
 62
7
  6
CONTINUOUS
 10
-13.13125
 20
-6.924399424
 11
-13.13125
 21
-5.8800078233
  0
LINE
  5
5B4
100
AcDbEntity
  8
0
100
AcDbLine
 62
7
  6
CONTINUOUS
 10
-13.13125
 20
-4.6228258233
 11
-13.13125
 21
-4.2320878233
  0
LINE
  5
5B5
100
AcDbEntity
  8
0
100
AcDbLine
 62
7
  6
CONTINUOUS
 10
-13.13125
 20
-2.9677698233
 11
-13.13125
 21
-2.4775888233
  0
LINE
  5
5B6
100
AcDbEntity
  8
0
100
AcDbLine
 62
7
  6
CONTINUOUS
 10
-13.13125
 20
-1.0178958233
 11
-13.13125
 21
-0.5242108233
  0
LINE
  5
5B7
100
AcDbEntity
  8
0
100
AcDbLine
 62
7
  6
CONTINUOUS
 10
-18.8615691423
 20
-19.0141184252
 11
-18.80625
 21
-18.5212012213
  0
LINE
  5
5B8
100
AcDbEntity
  8
0
100
AcDbLine
 62
7
  6
CONTINUOUS
 10
-18.8615691423
 20
-15.8453684252
 11
-18.80625
 21
-15.4932848233
  0
LINE
  5
5B9
100
AcDbEntity
  8
0
100
AcDbLine
 62
7
  6
CONTINUOUS
 10
-19.0828457117
 20
-18.5916184252
 11
-19.138164854
 21
-18.9437012213
  0
LINE
  5
5BA
100
AcDbEntity
  8
0
100
AcDbLine
 62
7
  6
CONTINUOUS
 10
-18.972207427
 20
-19.2957848233
 11
-18.8615691423
 21
-19.0141184252
  0
LINE
  5
5BB
100
AcDbEntity
  8
0
100
AcDbLine
 62
7
  6
CONTINUOUS
 10
-104.5464926974
 20
19.1517151767
 11
-104.5360164666
 21
19.1517151767
  0
LINE
  5
5BC
100
AcDbEntity
  8
0
100
AcDbLine
 62
7
  6
CONTINUOUS
 10
-104.5639530821
 20
19.1517151767
 11
-104.5534768513
 21
19.1517151767
  0
LINE
  5
5BD
100
AcDbEntity
  8
0
100
AcDbLine
 62
7
  6
CONTINUOUS
 10
-104.5814134669
 20
19.1517151767
 11
-104.570937236
 21
19.1517151767
  0
LINE
  5
5BE
100
AcDbEntity
  8
0
100
AcDbLine
 62
7
  6
CONTINUOUS
 10
-104.5988738516
 20
19.1517151767
 11
-104.5883976208
 21
19.1517151767
  0
LINE
  5
5BF
100
AcDbEntity
  8
0
100
AcDbLine
 62
7
  6
CONTINUOUS
 10
-104.6163342364
 20
19.1517151767
 11
-104.6058580055
 21
19.1517151767
  0
LINE
  5
5C0
100
AcDbEntity
  8
0
100
AcDbLine
 62
7
  6
CONTINUOUS
 10
-104.6337946211
 20
19.1517151767
 11
-104.6233183903
 21
19.1517151767
  0
LINE
  5
5C1
100
AcDbEntity
  8
0
100
AcDbLine
 62
7
  6
CONTINUOUS
 10
-104.6512550059
 20
19.1517151767
 11
-104.640778775
 21
19.1517151767
  0
LINE
  5
5C2
100
AcDbEntity
  8
0
100
AcDbLine
 62
7
  6
CONTINUOUS
 10
-104.4417303889
 20
19.1517151767
 11
-100.3707696111
 21
19.1517151767
  0
LINE
  5
5C3
100
AcDbEntity
  8
0
100
AcDbLine
 62
7
  6
CONTINUOUS
 10
-104.4591907737
 20
19.1517151767
 11
-104.4487145428
 21
19.1517151767
  0
LINE
  5
5C4
100
AcDbEntity
  8
0
100
AcDbLine
 62
7
  6
CONTINUOUS
 10
-104.4766511584
 20
19.1517151767
 11
-104.4661749276
 21
19.1517151767
  0
LINE
  5
5C5
100
AcDbEntity
  8
0
100
AcDbLine
 62
7
  6
CONTINUOUS
 10
-104.4941115432
 20
19.1517151767
 11
-104.4836353123
 21
19.1517151767
  0
LINE
  5
5C6
100
AcDbEntity
  8
0
100
AcDbLine
 62
7
  6
CONTINUOUS
 10
-104.5115719279
 20
19.1517151767
 11
-104.5010956971
 21
19.1517151767
  0
LINE
  5
5C7
100
AcDbEntity
  8
0
100
AcDbLine
 62
7
  6
CONTINUOUS
 10
-104.5290323127
 20
19.1517151767
 11
-104.5185560818
 21
19.1517151767
  0
LINE
  5
5C8
100
AcDbEntity
  8
0
100
AcDbLine
 62
7
  6
CONTINUOUS
 10
-100.3637854572
 20
19.1517151767
 11
-100.3533092263
 21
19.1517151767
  0
LINE
  5
5C9
100
AcDbEntity
  8
0
100
AcDbLine
 62
7
  6
CONTINUOUS
 10
-100.3463250724
 20
19.1517151767
 11
-100.3358488416
 21
19.1517151767
  0
LINE
  5
5CA
100
AcDbEntity
  8
0
100
AcDbLine
 62
7
  6
CONTINUOUS
 10
-100.3288646877
 20
19.1517151767
 11
-100.3183884568
 21
19.1517151767
  0
LINE
  5
5CB
100
AcDbEntity
  8
0
100
AcDbLine
 62
7
  6
CONTINUOUS
 10
-100.3114043029
 20
19.1517151767
 11
-100.3009280721
 21
19.1517151767
  0
LINE
  5
5CC
100
AcDbEntity
  8
0
100
AcDbLine
 62
7
  6
CONTINUOUS
 10
-100.2939439182
 20
19.1517151767
 11
-100.2834676873
 21
19.1517151767
  0
LINE
  5
5CD
100
AcDbEntity
  8
0
100
AcDbLine
 62
7
  6
CONTINUOUS
 10
-100.2764835334
 20
19.1517151767
 11
-100.2660073026
 21
19.1517151767
  0
LINE
  5
5CE
100
AcDbEntity
  8
0
100
AcDbLine
 62
7
  6
CONTINUOUS
 10
-100.2590231487
 20
19.1517151767
 11
-100.2485469179
 21
19.1517151767
  0
LINE
  5
5CF
100
AcDbEntity
  8
0
100
AcDbLine
 62
7
  6
CONTINUOUS
 10
-100.241562764
 20
19.1517151767
 11
-100.2310865331
 21
19.1517151767
  0
LINE
  5
5D0
100
AcDbEntity
  8
0
100
AcDbLine
 62
7
  6
CONTINUOUS
 10
-100.2241023792
 20
19.1517151767
 11
-100.2136261484
 21
19.1517151767
  0
LINE
  5
5D1
100
AcDbEntity
  8
0
100
AcDbLine
 62
7
  6
CONTINUOUS
 10
-100.2066419945
 20
19.1517151767
 11
-100.1961657636
 21
19.1517151767
  0
LINE
  5
5D2
100
AcDbEntity
  8
0
100
AcDbLine
 62
7
  6
CONTINUOUS
 10
-100.1891816097
 20
19.1517151767
 11
-100.1787053789
 21
19.1517151767
  0
LINE
  5
5D3
100
AcDbEntity
  8
0
100
AcDbLine
 62
7
  6
CONTINUOUS
 10
-100.171721225
 20
19.1517151767
 11
-100.1612449941
 21
19.1517151767
  0
LINE
  5
5D4
100
AcDbEntity
  8
0
100
AcDbLine
 62
7
  6
CONTINUOUS
 10
11.6466907737
 20
19.1517151767
 11
11.6362145428
 21
19.1517151767
  0
LINE
  5
5D5
100
AcDbEntity
  8
0
100
AcDbLine
 62
7
  6
CONTINUOUS
 10
11.6641511584
 20
19.1517151767
 11
11.6536749276
 21
19.1517151767
  0
LINE
  5
5D6
100
AcDbEntity
  8
0
100
AcDbLine
 62
7
  6
CONTINUOUS
 10
11.6816115432
 20
19.1517151767
 11
11.6711353123
 21
19.1517151767
  0
LINE
  5
5D7
100
AcDbEntity
  8
0
100
AcDbLine
 62
7
  6
CONTINUOUS
 10
11.6990719279
 20
19.1517151767
 11
11.6885956971
 21
19.1517151767
  0
LINE
  5
5D8
100
AcDbEntity
  8
0
100
AcDbLine
 62
7
  6
CONTINUOUS
 10
11.7165323127
 20
19.1517151767
 11
11.7060560818
 21
19.1517151767
  0
LINE
  5
5D9
100
AcDbEntity
  8
0
100
AcDbLine
 62
7
  6
CONTINUOUS
 10
11.7339926974
 20
19.1517151767
 11
11.7235164666
 21
19.1517151767
  0
LINE
  5
5DA
100
AcDbEntity
  8
0
100
AcDbLine
 62
7
  6
CONTINUOUS
 10
11.7514530821
 20
19.1517151767
 11
11.7409768513
 21
19.1517151767
  0
LINE
  5
5DB
100
AcDbEntity
  8
0
100
AcDbLine
 62
7
  6
CONTINUOUS
 10
11.7689134669
 20
19.1517151767
 11
11.758437236
 21
19.1517151767
  0
LINE
  5
5DC
100
AcDbEntity
  8
0
100
AcDbLine
 62
7
  6
CONTINUOUS
 10
11.7863738516
 20
19.1517151767
 11
11.7758976208
 21
19.1517151767
  0
LINE
  5
5DD
100
AcDbEntity
  8
0
100
AcDbLine
 62
7
  6
CONTINUOUS
 10
11.8038342364
 20
19.1517151767
 11
11.7933580055
 21
19.1517151767
  0
LINE
  5
5DE
100
AcDbEntity
  8
0
100
AcDbLine
 62
7
  6
CONTINUOUS
 10
11.8212946211
 20
19.1517151767
 11
11.8108183903
 21
19.1517151767
  0
LINE
  5
5DF
100
AcDbEntity
  8
0
100
AcDbLine
 62
7
  6
CONTINUOUS
 10
11.8387550059
 20
19.1517151767
 11
11.828278775
 21
19.1517151767
  0
LINE
  5
5E0
100
AcDbEntity
  8
0
100
AcDbLine
 62
7
  6
CONTINUOUS
 10
11.6292303889
 20
19.1517151767
 11
7.5582696111
 21
19.1517151767
  0
LINE
  5
5E1
100
AcDbEntity
  8
0
100
AcDbLine
 62
7
  6
CONTINUOUS
 10
7.5512854572
 20
19.1517151767
 11
7.5408092263
 21
19.1517151767
  0
LINE
  5
5E2
100
AcDbEntity
  8
0
100
AcDbLine
 62
7
  6
CONTINUOUS
 10
7.5338250724
 20
19.1517151767
 11
7.5233488416
 21
19.1517151767
  0
LINE
  5
5E3
100
AcDbEntity
  8
0
100
AcDbLine
 62
7
  6
CONTINUOUS
 10
7.5163646877
 20
19.1517151767
 11
7.5058884568
 21
19.1517151767
  0
LINE
  5
5E4
100
AcDbEntity
  8
0
100
AcDbLine
 62
7
  6
CONTINUOUS
 10
7.4989043029
 20
19.1517151767
 11
7.4884280721
 21
19.1517151767
  0
LINE
  5
5E5
100
AcDbEntity
  8
0
100
AcDbLine
 62
7
  6
CONTINUOUS
 10
7.4814439182
 20
19.1517151767
 11
7.4709676873
 21
19.1517151767
  0
LINE
  5
5E6
100
AcDbEntity
  8
0
100
AcDbLine
 62
7
  6
CONTINUOUS
 10
7.4639835334
 20
19.1517151767
 11
7.4535073026
 21
19.1517151767
  0
LINE
  5
5E7
100
AcDbEntity
  8
0
100
AcDbLine
 62
7
  6
CONTINUOUS
 10
7.4465231487
 20
19.1517151767
 11
7.4360469179
 21
19.1517151767
  0
LINE
  5
5E8
100
AcDbEntity
  8
0
100
AcDbLine
 62
7
  6
CONTINUOUS
 10
7.429062764
 20
19.1517151767
 11
7.4185865331
 21
19.1517151767
  0
LINE
  5
5E9
100
AcDbEntity
  8
0
100
AcDbLine
 62
7
  6
CONTINUOUS
 10
7.4116023792
 20
19.1517151767
 11
7.4011261484
 21
19.1517151767
  0
LINE
  5
5EA
100
AcDbEntity
  8
0
100
AcDbLine
 62
7
  6
CONTINUOUS
 10
7.3941419945
 20
19.1517151767
 11
7.3836657636
 21
19.1517151767
  0
LINE
  5
5EB
100
AcDbEntity
  8
0
100
AcDbLine
 62
7
  6
CONTINUOUS
 10
7.3766816097
 20
19.1517151767
 11
7.3662053789
 21
19.1517151767
  0
LINE
  5
5EC
100
AcDbEntity
  8
0
100
AcDbLine
 62
7
  6
CONTINUOUS
 10
7.359221225
 20
19.1517151767
 11
7.3487449941
 21
19.1517151767
  0
LINE
  5
5ED
100
AcDbEntity
  8
0
100
AcDbLine
 62
7
  6
CONTINUOUS
 10
-104.4364922735
 20
19.3017151767
 11
-100.3760077265
 21
19.3017151767
  0
LINE
  5
5EE
100
AcDbEntity
  8
0
100
AcDbLine
 62
7
  6
CONTINUOUS
 10
7.3365227248
 20
19.3017151767
 11
6.9548356726
 21
19.3017151767
  0
LINE
  5
5EF
100
AcDbEntity
  8
0
100
AcDbLine
 62
7
  6
CONTINUOUS
 10
7.5635077265
 20
19.3017151767
 11
11.6239922735
 21
19.3017151767
  0
LINE
  5
5F0
100
AcDbEntity
  8
0
100
AcDbLine
 62
7
  6
CONTINUOUS
 10
11.8509772752
 20
19.3017151767
 11
12.2204332607
 21
19.3017151767
  0
LINE
  5
5F1
100
AcDbEntity
  8
0
100
AcDbLine
 62
7
  6
CONTINUOUS
 10
-99.7673356726
 20
19.3017151767
 11
-100.1490227248
 21
19.3017151767
  0
LINE
  5
5F2
100
AcDbEntity
  8
0
100
AcDbLine
 62
7
  6
CONTINUOUS
 10
-104.6634772752
 20
19.3017151767
 11
-105.0329332607
 21
19.3017151767
  0
LINE
  5
5F3
100
AcDbEntity
  8
0
100
AcDbLine
 62
7
  6
CONTINUOUS
 10
-104.40625
 20
19.8017151767
 11
-100.40625
 21
19.8017151767
  0
LINE
  5
5F4
100
AcDbEntity
  8
0
100
AcDbLine
 62
7
  6
CONTINUOUS
 10
7.59375
 20
19.8017151767
 11
11.59375
 21
19.8017151767
  0
LINE
  5
5F5
100
AcDbEntity
  8
0
100
AcDbLine
 62
7
  6
CONTINUOUS
 10
11.59375
 20
20.3017151767
 11
11.09375
 21
20.3017151767
  0
LINE
  5
5F6
100
AcDbEntity
  8
0
100
AcDbLine
 62
7
  6
CONTINUOUS
 10
10.29375
 20
20.3017151767
 11
8.89375
 21
20.3017151767
  0
LINE
  5
5F7
100
AcDbEntity
  8
0
100
AcDbLine
 62
7
  6
CONTINUOUS
 10
8.09375
 20
20.3017151767
 11
7.59375
 21
20.3017151767
  0
LINE
  5
5F8
100
AcDbEntity
  8
0
100
AcDbLine
 62
7
  6
CONTINUOUS
 10
-100.40625
 20
20.3017151767
 11
-100.90625
 21
20.3017151767
  0
LINE
  5
5F9
100
AcDbEntity
  8
0
100
AcDbLine
 62
7
  6
CONTINUOUS
 10
-101.70625
 20
20.3017151767
 11
-103.10625
 21
20.3017151767
  0
LINE
  5
5FA
100
AcDbEntity
  8
0
100
AcDbLine
 62
7
  6
CONTINUOUS
 10
-103.90625
 20
20.3017151767
 11
-104.40625
 21
20.3017151767
  0
LINE
  5
5FB
100
AcDbEntity
  8
0
100
AcDbLine
 62
7
  6
CONTINUOUS
 10
12.2204332607
 20
20.3889911557
 11
12.1795364376
 21
20.3889838546
  0
LINE
  5
5FC
100
AcDbEntity
  8
0
100
AcDbLine
 62
7
  6
CONTINUOUS
 10
-104.7381496788
 20
20.3846584984
 11
-103.9891933217
 21
20.3846584984
  0
LINE
  5
5FD
100
AcDbEntity
  8
0
100
AcDbLine
 62
7
  6
CONTINUOUS
 10
-100.8233066783
 20
20.3846584984
 11
-100.0743503212
 21
20.3846584984
  0
LINE
  5
5FE
100
AcDbEntity
  8
0
100
AcDbLine
 62
7
  6
CONTINUOUS
 10
10.2108066783
 20
20.3846584984
 11
8.9766933217
 21
20.3846584984
  0
LINE
  5
5FF
100
AcDbEntity
  8
0
100
AcDbLine
 62
7
  6
CONTINUOUS
 10
7.2618503212
 20
20.3846584984
 11
8.0108066783
 21
20.3846584984
  0
LINE
  5
600
100
AcDbEntity
  8
0
100
AcDbLine
 62
7
  6
CONTINUOUS
 10
11.1766933217
 20
20.3846584984
 11
11.9256496788
 21
20.3846584984
  0
LINE
  5
601
100
AcDbEntity
  8
0
100
AcDbLine
 62
7
  6
CONTINUOUS
 10
-101.7891933217
 20
20.3846584984
 11
-103.0233066783
 21
20.3846584984
  0
LINE
  5
602
100
AcDbEntity
  8
0
100
AcDbLine
 62
253
  6
CONTINUOUS
 10
7.89375
 20
20.5017151767
 11
8.09375
 21
20.5017151767
  0
LINE
  5
603
100
AcDbEntity
  8
0
100
AcDbLine
 62
253
  6
CONTINUOUS
 10
8.89375
 20
20.5017151767
 11
9.0937500001
 21
20.5017151768
  0
LINE
  5
604
100
AcDbEntity
  8
0
100
AcDbLine
 62
253
  6
CONTINUOUS
 10
10.09375
 20
20.5017151767
 11
10.29375
 21
20.5017151767
  0
LINE
  5
605
100
AcDbEntity
  8
0
100
AcDbLine
 62
253
  6
CONTINUOUS
 10
11.09375
 20
20.5017151767
 11
11.2937500001
 21
20.5017151768
  0
LINE
  5
606
100
AcDbEntity
  8
0
100
AcDbLine
 62
253
  6
CONTINUOUS
 10
-100.7062499999
 20
20.5017151768
 11
-100.90625
 21
20.5017151767
  0
LINE
  5
607
100
AcDbEntity
  8
0
100
AcDbLine
 62
253
  6
CONTINUOUS
 10
-101.70625
 20
20.5017151767
 11
-101.90625
 21
20.5017151767
  0
LINE
  5
608
100
AcDbEntity
  8
0
100
AcDbLine
 62
253
  6
CONTINUOUS
 10
-102.9062499999
 20
20.5017151768
 11
-103.10625
 21
20.5017151767
  0
LINE
  5
609
100
AcDbEntity
  8
0
100
AcDbLine
 62
253
  6
CONTINUOUS
 10
-103.90625
 20
20.5017151767
 11
-104.10625
 21
20.5017151767
  0
LINE
  5
60A
100
AcDbEntity
  8
0
100
AcDbLine
 62
7
  6
CONTINUOUS
 10
-104.9920364376
 20
20.3889838546
 11
-105.0329332607
 21
20.3889911557
  0
LINE
  5
60B
100
AcDbEntity
  8
0
100
AcDbLine
 62
7
  6
CONTINUOUS
 10
-9.04392
 20
-4.7869528233
 11
-9.04392
 21
-5.7617738233
  0
LINE
  5
60C
100
AcDbEntity
  8
0
100
AcDbLine
 62
7
  6
CONTINUOUS
 10
-9.04392
 20
-7.8756978233
 11
-9.04392
 21
-8.9818778233
  0
LINE
  5
60D
100
AcDbEntity
  8
0
100
AcDbLine
 62
7
  6
CONTINUOUS
 10
-9.04392
 20
-9.5773688233
 11
-9.04392
 21
-10.6356228233
  0
LINE
  5
60E
100
AcDbEntity
  8
0
100
AcDbLine
 62
7
  6
CONTINUOUS
 10
-9.04392
 20
-12.1720178233
 11
-9.04392
 21
-12.3271588233
  0
LINE
  5
60F
100
AcDbEntity
  8
0
100
AcDbLine
 62
7
  6
CONTINUOUS
 10
-9.04392
 20
-13.8696748233
 11
-9.04392
 21
-14.9518118233
  0
LINE
  5
610
100
AcDbEntity
  8
0
100
AcDbLine
 62
7
  6
CONTINUOUS
 10
-9.04392
 20
-15.1255108233
 11
-9.04392
 21
-16.2196888233
  0
LINE
  5
611
100
AcDbEntity
  8
0
100
AcDbLine
 62
7
  6
CONTINUOUS
 10
-9.04392
 20
-18.3179168233
 11
-9.04392
 21
-19.4837838233
  0
LINE
  5
612
100
AcDbEntity
  8
0
100
AcDbLine
 62
7
  6
CONTINUOUS
 10
-9.0439200585
 20
-19.808611641
 11
-9.0439200585
 21
-20.9103399813
  0
LINE
  5
613
100
AcDbEntity
  8
0
100
AcDbLine
 62
7
  6
CONTINUOUS
 10
-9.0439200585
 20
-22.6043009525
 11
-9.0439200585
 21
-23.6683168345
  0
LINE
  5
614
100
AcDbEntity
  8
0
100
AcDbLine
 62
7
  6
CONTINUOUS
 10
-7.985984
 20
-16.5249258233
 11
-7.985984
 21
-18.0313578233
  0
LINE
  5
615
100
AcDbEntity
  8
0
100
AcDbLine
 62
7
  6
CONTINUOUS
 10
-7.167358
 20
-17.8102888233
 11
-7.167358
 21
-16.7511998233
  0
LINE
  5
616
100
AcDbEntity
  8
0
100
AcDbLine
 62
7
  6
CONTINUOUS
 10
-6.9700527631
 20
-20.9103399813
 11
-6.9700527631
 21
-21.5034468735
  0
LINE
  5
617
100
AcDbEntity
  8
0
100
AcDbLine
 62
7
  6
CONTINUOUS
 10
-6.1021496123
 20
-21.5058312228
 11
-6.1021496123
 21
-20.873660741
  0
LINE
  5
618
100
AcDbEntity
  8
0
100
AcDbLine
 62
253
  6
CONTINUOUS
 10
-35.6598213739
 20
-52.7447314327
 11
-35.9668811182
 21
-53.0518382139
  0
LINE
  5
619
100
AcDbEntity
  8
0
100
AcDbLine
 62
253
  6
CONTINUOUS
 10
-34.9526966094
 20
-53.4518723552
 11
-35.2598033906
 21
-53.7589449943
  0
LINE
  5
61A
100
AcDbEntity
  8
0
100
AcDbLine
 62
7
  6
CONTINUOUS
 10
-104.40625
 20
10.3017151767
 11
-104.7381496788
 21
10.218771855
  0
LINE
  5
61B
100
AcDbEntity
  8
0
100
AcDbLine
 62
253
  6
CONTINUOUS
 10
-100.4009825589
 20
20.8846394599
 11
-99.7673356726
 21
20.8846394599
  0
LINE
  5
61C
100
AcDbEntity
  8
0
100
AcDbLine
 62
253
  6
CONTINUOUS
 10
9.7884825589
 20
20.8846394599
 11
9.3990174411
 21
20.8846394599
  0
LINE
  5
61D
100
AcDbEntity
  8
0
100
AcDbLine
 62
253
  6
CONTINUOUS
 10
6.9548356726
 20
20.8846394599
 11
7.5884825589
 21
20.8846394599
  0
LINE
  5
61E
100
AcDbEntity
  8
0
100
AcDbLine
 62
253
  6
CONTINUOUS
 10
11.5990174411
 20
20.8846394599
 11
12.2204332607
 21
20.8846504641
  0
LINE
  5
61F
100
AcDbEntity
  8
0
100
AcDbLine
 62
253
  6
CONTINUOUS
 10
-102.2115174411
 20
20.8846394599
 11
-102.6009825589
 21
20.8846394599
  0
LINE
  5
620
100
AcDbEntity
  8
0
100
AcDbLine
 62
253
  6
CONTINUOUS
 10
-35.6598033906
 20
25.9946083955
 11
-57.1526966094
 21
25.9946083955
  0
LINE
  5
621
100
AcDbEntity
  8
0
100
AcDbLine
 62
253
  6
CONTINUOUS
 10
-35.6598375319
 20
26.3481617861
 11
-57.1526786261
 21
26.3481617861
  0
LINE
  5
622
100
AcDbEntity
  8
0
100
AcDbLine
 62
253
  6
CONTINUOUS
 10
-35.966910171
 20
26.6552685673
 11
-56.8456188818
 21
26.6552685673
  0
LINE
  5
623
100
AcDbEntity
  8
0
100
AcDbLine
 62
253
  6
CONTINUOUS
 10
-35.9669101718
 20
27.0088219579
 11
-56.8455898282
 21
27.0088219579
  0
LINE
  5
624
100
AcDbEntity
  8
0
100
AcDbLine
 62
253
  6
CONTINUOUS
 10
-58.2133567812
 20
27.0552685673
 11
-57.8598033906
 21
27.0552685673
  0
LINE
  5
625
100
AcDbEntity
  8
0
100
AcDbLine
 62
253
  6
CONTINUOUS
 10
-34.5991432188
 20
27.0552685673
 11
-34.9526966094
 21
27.0552685673
  0
LINE
  5
626
100
AcDbEntity
  8
0
100
AcDbLine
 62
253
  6
CONTINUOUS
 10
-105.0329332607
 20
20.8846504638
 11
-104.4115174411
 21
20.8846394599
  0
LINE
  5
627
100
AcDbEntity
  8
0
100
AcDbLine
 62
7
  6
CONTINUOUS
 10
11.9256496788
 20
10.218771855
 11
11.59375
 21
10.3017151767
  0
LINE
  5
628
100
AcDbEntity
  8
0
100
AcDbLine
 62
253
  6
CONTINUOUS
 10
-34.9526966094
 20
27.0552865507
 11
-35.2598033906
 21
27.3623462949
  0
LINE
  5
629
100
AcDbEntity
  8
0
100
AcDbLine
 62
253
  6
CONTINUOUS
 10
-35.6598375319
 20
26.3481617861
 11
-35.966910171
 21
26.6552685673
  0
LINE
  5
62A
100
AcDbEntity
  8
0
100
AcDbLine
 62
7
  6
CONTINUOUS
 10
-3.744584
 20
-17.8578168233
 11
-3.744584
 21
-16.7877208233
  0
LINE
  5
62B
100
AcDbEntity
  8
0
100
AcDbLine
 62
7
  6
CONTINUOUS
 10
-3.744584
 20
-14.4562638233
 11
-3.744584
 21
-13.3618078233
  0
LINE
  5
62C
100
AcDbEntity
  8
0
100
AcDbLine
 62
7
  6
CONTINUOUS
 10
-3.744584
 20
-11.1611328233
 11
-3.744584
 21
-10.0558678233
  0
LINE
  5
62D
100
AcDbEntity
  8
0
100
AcDbLine
 62
7
  6
CONTINUOUS
 10
-3.744584
 20
-7.4651928233
 11
-3.744584
 21
-6.3597688233
  0
LINE
  5
62E
100
AcDbEntity
  8
0
100
AcDbLine
 62
7
  6
CONTINUOUS
 10
-3.744584
 20
-4.3086128233
 11
-3.744584
 21
-3.1069598233
  0
LINE
  5
62F
100
AcDbEntity
  8
0
100
AcDbLine
 62
7
  6
CONTINUOUS
 10
-3.744267
 20
-8.9818778233
 11
-3.744267
 21
-7.8756978233
  0
LINE
  5
630
100
AcDbEntity
  8
0
100
AcDbLine
 62
253
  6
CONTINUOUS
 10
-2.40625
 20
-71.7840712609
 11
-2.40625
 21
-72.9982848233
  0
LINE
  5
631
100
AcDbEntity
  8
0
100
AcDbLine
 62
253
  6
CONTINUOUS
 10
-2.40625
 20
45.3875016143
 11
-2.40625
 21
46.6017151767
  0
LINE
  5
632
100
AcDbEntity
  8
0
100
AcDbLine
 62
7
  6
CONTINUOUS
 10
-100.40625
 20
20.3017151767
 11
-100.0743503212
 21
20.3846584984
  0
LINE
  5
633
100
AcDbEntity
  8
0
100
AcDbLine
 62
253
  6
CONTINUOUS
 10
-35.6133567812
 20
27.3623753485
 11
-35.2598033906
 21
27.3623753485
  0
LINE
  5
634
100
AcDbEntity
  8
0
100
AcDbLine
 62
253
  6
CONTINUOUS
 10
-57.1991432188
 20
27.3623753485
 11
-57.5526966094
 21
27.3623753485
  0
LINE
  5
635
100
AcDbEntity
  8
0
100
AcDbLine
 62
253
  6
CONTINUOUS
 10
-35.6133567812
 20
28.7410550049
 11
-35.2598033906
 21
28.7410550049
  0
LINE
  5
636
100
AcDbEntity
  8
0
100
AcDbLine
 62
253
  6
CONTINUOUS
 10
-57.1991432188
 20
28.7410550049
 11
-57.5526966094
 21
28.7410550049
  0
LINE
  5
637
100
AcDbEntity
  8
0
100
AcDbLine
 62
253
  6
CONTINUOUS
 10
-58.2133567812
 20
29.0481617861
 11
-57.8598033906
 21
29.0481617862
  0
LINE
  5
638
100
AcDbEntity
  8
0
100
AcDbLine
 62
253
  6
CONTINUOUS
 10
-34.5991432188
 20
29.0481617861
 11
-34.9526966094
 21
29.0481617861
  0
LINE
  5
639
100
AcDbEntity
  8
0
100
AcDbLine
 62
253
  6
CONTINUOUS
 10
-56.8455898282
 20
29.0946083955
 11
-35.9669101718
 21
29.0946083955
  0
LINE
  5
63A
100
AcDbEntity
  8
0
100
AcDbLine
 62
253
  6
CONTINUOUS
 10
-56.845589829
 20
29.4481617861
 11
-35.9668811182
 21
29.4481617861
  0
LINE
  5
63B
100
AcDbEntity
  8
0
100
AcDbLine
 62
253
  6
CONTINUOUS
 10
-57.1526624681
 20
29.7552685673
 11
-35.6598213739
 21
29.7552685673
  0
LINE
  5
63C
100
AcDbEntity
  8
0
100
AcDbLine
 62
253
  6
CONTINUOUS
 10
-57.1526966094
 20
30.1088219579
 11
-35.6598033906
 21
30.1088219579
  0
LINE
  5
63D
100
AcDbEntity
  8
0
100
AcDbLine
 62
253
  6
CONTINUOUS
 10
12.1795364376
 20
30.8017151767
 11
13.39375
 21
30.8017151767
  0
LINE
  5
63E
100
AcDbEntity
  8
0
100
AcDbLine
 62
253
  6
CONTINUOUS
 10
-104.9920364376
 20
30.8017151767
 11
-106.20625
 21
30.8017151767
  0
LINE
  5
63F
100
AcDbEntity
  8
0
100
AcDbLine
 62
7
  6
CONTINUOUS
 10
7.2618503212
 20
20.3846584984
 11
7.59375
 21
20.3017151767
  0
LINE
  5
640
100
AcDbEntity
  8
0
100
AcDbLine
 62
7
  6
CONTINUOUS
 10
7.5635077265
 20
-45.6982848233
 11
7.59375
 21
-46.1982848233
  0
LINE
  5
641
100
AcDbEntity
  8
0
100
AcDbLine
 62
7
  6
CONTINUOUS
 10
7.3487449941
 20
-45.5482848233
 11
7.3539831096
 21
-45.6982848233
  0
LINE
  5
642
100
AcDbEntity
  8
0
100
AcDbLine
 62
7
  6
CONTINUOUS
 10
7.3662053789
 20
-45.5482848233
 11
7.3714434943
 21
-45.6982848233
  0
LINE
  5
643
100
AcDbEntity
  8
0
100
AcDbLine
 62
7
  6
CONTINUOUS
 10
7.3836657636
 20
-45.5482848233
 11
7.388903879
 21
-45.6982848233
  0
LINE
  5
644
100
AcDbEntity
  8
0
100
AcDbLine
 62
7
  6
CONTINUOUS
 10
7.4011261484
 20
-45.5482848233
 11
7.4063642638
 21
-45.6982848233
  0
LINE
  5
645
100
AcDbEntity
  8
0
100
AcDbLine
 62
7
  6
CONTINUOUS
 10
7.4185865331
 20
-45.5482848233
 11
7.4238246485
 21
-45.6982848233
  0
LINE
  5
646
100
AcDbEntity
  8
0
100
AcDbLine
 62
7
  6
CONTINUOUS
 10
7.4360469179
 20
-45.5482848233
 11
7.4412850333
 21
-45.6982848233
  0
LINE
  5
647
100
AcDbEntity
  8
0
100
AcDbLine
 62
7
  6
CONTINUOUS
 10
7.4535073026
 20
-45.5482848233
 11
7.458745418
 21
-45.6982848233
  0
LINE
  5
648
100
AcDbEntity
  8
0
100
AcDbLine
 62
7
  6
CONTINUOUS
 10
7.4709676873
 20
-45.5482848233
 11
7.4762058028
 21
-45.6982848233
  0
LINE
  5
649
100
AcDbEntity
  8
0
100
AcDbLine
 62
7
  6
CONTINUOUS
 10
7.4884280721
 20
-45.5482848233
 11
7.4936661875
 21
-45.6982848233
  0
LINE
  5
64A
100
AcDbEntity
  8
0
100
AcDbLine
 62
7
  6
CONTINUOUS
 10
7.5058884568
 20
-45.5482848233
 11
7.5111265723
 21
-45.6982848233
  0
LINE
  5
64B
100
AcDbEntity
  8
0
100
AcDbLine
 62
7
  6
CONTINUOUS
 10
7.5233488416
 20
-45.5482848233
 11
7.528586957
 21
-45.6982848233
  0
LINE
  5
64C
100
AcDbEntity
  8
0
100
AcDbLine
 62
7
  6
CONTINUOUS
 10
7.5408092263
 20
-45.5482848233
 11
7.5460473418
 21
-45.6982848233
  0
LINE
  5
64D
100
AcDbEntity
  8
0
100
AcDbLine
 62
7
  6
CONTINUOUS
 10
7.5582696111
 20
-45.5482848233
 11
7.5635077265
 21
-45.6982848233
  0
LINE
  5
64E
100
AcDbEntity
  8
0
100
AcDbLine
 62
7
  6
CONTINUOUS
 10
7.3417608402
 20
-37.8482848233
 11
7.3365227248
 21
-37.6982848233
  0
LINE
  5
64F
100
AcDbEntity
  8
0
100
AcDbLine
 62
7
  6
CONTINUOUS
 10
7.359221225
 20
-37.8482848233
 11
7.3539831096
 21
-37.6982848233
  0
LINE
  5
650
100
AcDbEntity
  8
0
100
AcDbLine
 62
7
  6
CONTINUOUS
 10
7.3766816097
 20
-37.8482848233
 11
7.3714434943
 21
-37.6982848233
  0
LINE
  5
651
100
AcDbEntity
  8
0
100
AcDbLine
 62
7
  6
CONTINUOUS
 10
7.3941419945
 20
-37.8482848233
 11
7.388903879
 21
-37.6982848233
  0
LINE
  5
652
100
AcDbEntity
  8
0
100
AcDbLine
 62
7
  6
CONTINUOUS
 10
7.4116023792
 20
-37.8482848233
 11
7.4063642638
 21
-37.6982848233
  0
LINE
  5
653
100
AcDbEntity
  8
0
100
AcDbLine
 62
7
  6
CONTINUOUS
 10
7.429062764
 20
-37.8482848233
 11
7.4238246485
 21
-37.6982848233
  0
LINE
  5
654
100
AcDbEntity
  8
0
100
AcDbLine
 62
7
  6
CONTINUOUS
 10
7.4465231487
 20
-37.8482848233
 11
7.4412850333
 21
-37.6982848233
  0
LINE
  5
655
100
AcDbEntity
  8
0
100
AcDbLine
 62
7
  6
CONTINUOUS
 10
7.4639835334
 20
-37.8482848233
 11
7.458745418
 21
-37.6982848233
  0
LINE
  5
656
100
AcDbEntity
  8
0
100
AcDbLine
 62
7
  6
CONTINUOUS
 10
7.4814439182
 20
-37.8482848233
 11
7.4762058028
 21
-37.6982848233
  0
LINE
  5
657
100
AcDbEntity
  8
0
100
AcDbLine
 62
7
  6
CONTINUOUS
 10
7.4989043029
 20
-37.8482848233
 11
7.4936661875
 21
-37.6982848233
  0
LINE
  5
658
100
AcDbEntity
  8
0
100
AcDbLine
 62
7
  6
CONTINUOUS
 10
7.5163646877
 20
-37.8482848233
 11
7.5111265723
 21
-37.6982848233
  0
LINE
  5
659
100
AcDbEntity
  8
0
100
AcDbLine
 62
7
  6
CONTINUOUS
 10
7.5338250724
 20
-37.8482848233
 11
7.528586957
 21
-37.6982848233
  0
LINE
  5
65A
100
AcDbEntity
  8
0
100
AcDbLine
 62
7
  6
CONTINUOUS
 10
7.5512854572
 20
-37.8482848233
 11
7.5460473418
 21
-37.6982848233
  0
LINE
  5
65B
100
AcDbEntity
  8
0
100
AcDbLine
 62
253
  6
CONTINUOUS
 10
6.9548356726
 20
-47.2812091065
 11
6.9548356726
 21
-45.6982848233
  0
LINE
  5
65C
100
AcDbEntity
  8
0
100
AcDbLine
 62
253
  6
CONTINUOUS
 10
6.9548356726
 20
-37.6982848233
 11
6.9548356726
 21
-36.1153605401
  0
LINE
  5
65D
100
AcDbEntity
  8
0
100
AcDbLine
 62
253
  6
CONTINUOUS
 10
6.9548356726
 20
9.7187908935
 11
6.9548356726
 21
11.3017151767
  0
LINE
  5
65E
100
AcDbEntity
  8
0
100
AcDbLine
 62
253
  6
CONTINUOUS
 10
6.9548356726
 20
19.3017151767
 11
6.9548356726
 21
20.8846394599
  0
LINE
  5
65F
100
AcDbEntity
  8
0
100
AcDbLine
 62
253
  6
CONTINUOUS
 10
7.2546529207
 20
20.3846584984
 11
7.2546529207
 21
19.3017151767
  0
LINE
  5
660
100
AcDbEntity
  8
0
100
AcDbLine
 62
253
  6
CONTINUOUS
 10
7.2546529207
 20
-36.6153415016
 11
7.2546529207
 21
-37.6982848233
  0
LINE
  5
661
100
AcDbEntity
  8
0
100
AcDbLine
 62
253
  6
CONTINUOUS
 10
7.2546529207
 20
-45.6982848233
 11
7.2546529207
 21
-46.781228145
  0
LINE
  5
662
100
AcDbEntity
  8
0
100
AcDbLine
 62
253
  6
CONTINUOUS
 10
7.2546529207
 20
10.218771855
 11
7.2546529207
 21
11.3017151767
  0
LINE
  5
663
100
AcDbEntity
  8
0
100
AcDbLine
 62
7
  6
CONTINUOUS
 10
7.3539831096
 20
19.3017151767
 11
7.3487449941
 21
19.1517151767
  0
LINE
  5
664
100
AcDbEntity
  8
0
100
AcDbLine
 62
7
  6
CONTINUOUS
 10
7.3714434943
 20
19.3017151767
 11
7.3662053789
 21
19.1517151767
  0
LINE
  5
665
100
AcDbEntity
  8
0
100
AcDbLine
 62
7
  6
CONTINUOUS
 10
7.388903879
 20
19.3017151767
 11
7.3836657636
 21
19.1517151767
  0
LINE
  5
666
100
AcDbEntity
  8
0
100
AcDbLine
 62
7
  6
CONTINUOUS
 10
7.4063642638
 20
19.3017151767
 11
7.4011261484
 21
19.1517151767
  0
LINE
  5
667
100
AcDbEntity
  8
0
100
AcDbLine
 62
7
  6
CONTINUOUS
 10
7.4238246485
 20
19.3017151767
 11
7.4185865331
 21
19.1517151767
  0
LINE
  5
668
100
AcDbEntity
  8
0
100
AcDbLine
 62
7
  6
CONTINUOUS
 10
7.4412850333
 20
19.3017151767
 11
7.4360469179
 21
19.1517151767
  0
LINE
  5
669
100
AcDbEntity
  8
0
100
AcDbLine
 62
7
  6
CONTINUOUS
 10
7.458745418
 20
19.3017151767
 11
7.4535073026
 21
19.1517151767
  0
LINE
  5
66A
100
AcDbEntity
  8
0
100
AcDbLine
 62
7
  6
CONTINUOUS
 10
7.4762058028
 20
19.3017151767
 11
7.4709676873
 21
19.1517151767
  0
LINE
  5
66B
100
AcDbEntity
  8
0
100
AcDbLine
 62
7
  6
CONTINUOUS
 10
7.4936661875
 20
19.3017151767
 11
7.4884280721
 21
19.1517151767
  0
LINE
  5
66C
100
AcDbEntity
  8
0
100
AcDbLine
 62
7
  6
CONTINUOUS
 10
7.5111265723
 20
19.3017151767
 11
7.5058884568
 21
19.1517151767
  0
LINE
  5
66D
100
AcDbEntity
  8
0
100
AcDbLine
 62
7
  6
CONTINUOUS
 10
7.528586957
 20
19.3017151767
 11
7.5233488416
 21
19.1517151767
  0
LINE
  5
66E
100
AcDbEntity
  8
0
100
AcDbLine
 62
7
  6
CONTINUOUS
 10
7.5460473418
 20
19.3017151767
 11
7.5408092263
 21
19.1517151767
  0
LINE
  5
66F
100
AcDbEntity
  8
0
100
AcDbLine
 62
7
  6
CONTINUOUS
 10
7.5635077265
 20
19.3017151767
 11
7.5582696111
 21
19.1517151767
  0
LINE
  5
670
100
AcDbEntity
  8
0
100
AcDbLine
 62
7
  6
CONTINUOUS
 10
7.3365227248
 20
11.3017151767
 11
7.3417608402
 21
11.4517151767
  0
LINE
  5
671
100
AcDbEntity
  8
0
100
AcDbLine
 62
7
  6
CONTINUOUS
 10
7.3539831096
 20
11.3017151767
 11
7.359221225
 21
11.4517151767
  0
LINE
  5
672
100
AcDbEntity
  8
0
100
AcDbLine
 62
7
  6
CONTINUOUS
 10
7.3714434943
 20
11.3017151767
 11
7.3766816097
 21
11.4517151767
  0
LINE
  5
673
100
AcDbEntity
  8
0
100
AcDbLine
 62
7
  6
CONTINUOUS
 10
7.388903879
 20
11.3017151767
 11
7.3941419945
 21
11.4517151767
  0
LINE
  5
674
100
AcDbEntity
  8
0
100
AcDbLine
 62
7
  6
CONTINUOUS
 10
7.4063642638
 20
11.3017151767
 11
7.4116023792
 21
11.4517151767
  0
LINE
  5
675
100
AcDbEntity
  8
0
100
AcDbLine
 62
7
  6
CONTINUOUS
 10
7.4238246485
 20
11.3017151767
 11
7.429062764
 21
11.4517151767
  0
LINE
  5
676
100
AcDbEntity
  8
0
100
AcDbLine
 62
7
  6
CONTINUOUS
 10
7.4412850333
 20
11.3017151767
 11
7.4465231487
 21
11.4517151767
  0
LINE
  5
677
100
AcDbEntity
  8
0
100
AcDbLine
 62
7
  6
CONTINUOUS
 10
7.458745418
 20
11.3017151767
 11
7.4639835334
 21
11.4517151767
  0
LINE
  5
678
100
AcDbEntity
  8
0
100
AcDbLine
 62
7
  6
CONTINUOUS
 10
7.4762058028
 20
11.3017151767
 11
7.4814439182
 21
11.4517151767
  0
LINE
  5
679
100
AcDbEntity
  8
0
100
AcDbLine
 62
7
  6
CONTINUOUS
 10
7.4936661875
 20
11.3017151767
 11
7.4989043029
 21
11.4517151767
  0
LINE
  5
67A
100
AcDbEntity
  8
0
100
AcDbLine
 62
7
  6
CONTINUOUS
 10
7.5111265723
 20
11.3017151767
 11
7.5163646877
 21
11.4517151767
  0
LINE
  5
67B
100
AcDbEntity
  8
0
100
AcDbLine
 62
7
  6
CONTINUOUS
 10
7.528586957
 20
11.3017151767
 11
7.5338250724
 21
11.4517151767
  0
LINE
  5
67C
100
AcDbEntity
  8
0
100
AcDbLine
 62
7
  6
CONTINUOUS
 10
7.5460473418
 20
11.3017151767
 11
7.5512854572
 21
11.4517151767
  0
LINE
  5
67D
100
AcDbEntity
  8
0
100
AcDbLine
 62
7
  6
CONTINUOUS
 10
7.59375
 20
19.8017151767
 11
7.5635077265
 21
19.3017151767
  0
LINE
  5
67E
100
AcDbEntity
  8
0
100
AcDbLine
 62
7
  6
CONTINUOUS
 10
7.5635077265
 20
11.3017151767
 11
7.59375
 21
10.8017151767
  0
LINE
  5
67F
100
AcDbEntity
  8
0
100
AcDbLine
 62
7
  6
CONTINUOUS
 10
11.6239922735
 20
-37.6982848233
 11
11.59375
 21
-37.1982848233
  0
LINE
  5
680
100
AcDbEntity
  8
0
100
AcDbLine
 62
7
  6
CONTINUOUS
 10
11.6239922735
 20
19.3017151767
 11
11.59375
 21
19.8017151767
  0
LINE
  5
681
100
AcDbEntity
  8
0
100
AcDbLine
 62
7
  6
CONTINUOUS
 10
7.3487449941
 20
11.4517151767
 11
7.3539831096
 21
11.3017151767
  0
LINE
  5
682
100
AcDbEntity
  8
0
100
AcDbLine
 62
7
  6
CONTINUOUS
 10
7.3662053789
 20
11.4517151767
 11
7.3714434943
 21
11.3017151767
  0
LINE
  5
683
100
AcDbEntity
  8
0
100
AcDbLine
 62
7
  6
CONTINUOUS
 10
7.3836657636
 20
11.4517151767
 11
7.388903879
 21
11.3017151767
  0
LINE
  5
684
100
AcDbEntity
  8
0
100
AcDbLine
 62
7
  6
CONTINUOUS
 10
7.4011261484
 20
11.4517151767
 11
7.4063642638
 21
11.3017151767
  0
LINE
  5
685
100
AcDbEntity
  8
0
100
AcDbLine
 62
7
  6
CONTINUOUS
 10
7.4185865331
 20
11.4517151767
 11
7.4238246485
 21
11.3017151767
  0
LINE
  5
686
100
AcDbEntity
  8
0
100
AcDbLine
 62
7
  6
CONTINUOUS
 10
7.4360469179
 20
11.4517151767
 11
7.4412850333
 21
11.3017151767
  0
LINE
  5
687
100
AcDbEntity
  8
0
100
AcDbLine
 62
7
  6
CONTINUOUS
 10
7.4535073026
 20
11.4517151767
 11
7.458745418
 21
11.3017151767
  0
LINE
  5
688
100
AcDbEntity
  8
0
100
AcDbLine
 62
7
  6
CONTINUOUS
 10
7.4709676873
 20
11.4517151767
 11
7.4762058028
 21
11.3017151767
  0
LINE
  5
689
100
AcDbEntity
  8
0
100
AcDbLine
 62
7
  6
CONTINUOUS
 10
7.4884280721
 20
11.4517151767
 11
7.4936661875
 21
11.3017151767
  0
LINE
  5
68A
100
AcDbEntity
  8
0
100
AcDbLine
 62
7
  6
CONTINUOUS
 10
7.5058884568
 20
11.4517151767
 11
7.5111265723
 21
11.3017151767
  0
LINE
  5
68B
100
AcDbEntity
  8
0
100
AcDbLine
 62
7
  6
CONTINUOUS
 10
7.5233488416
 20
11.4517151767
 11
7.528586957
 21
11.3017151767
  0
LINE
  5
68C
100
AcDbEntity
  8
0
100
AcDbLine
 62
7
  6
CONTINUOUS
 10
7.5408092263
 20
11.4517151767
 11
7.5460473418
 21
11.3017151767
  0
LINE
  5
68D
100
AcDbEntity
  8
0
100
AcDbLine
 62
7
  6
CONTINUOUS
 10
7.5582696111
 20
11.4517151767
 11
7.5635077265
 21
11.3017151767
  0
LINE
  5
68E
100
AcDbEntity
  8
0
100
AcDbLine
 62
7
  6
CONTINUOUS
 10
7.3417608402
 20
19.1517151767
 11
7.3365227248
 21
19.3017151767
  0
LINE
  5
68F
100
AcDbEntity
  8
0
100
AcDbLine
 62
7
  6
CONTINUOUS
 10
7.359221225
 20
19.1517151767
 11
7.3539831096
 21
19.3017151767
  0
LINE
  5
690
100
AcDbEntity
  8
0
100
AcDbLine
 62
7
  6
CONTINUOUS
 10
7.3766816097
 20
19.1517151767
 11
7.3714434943
 21
19.3017151767
  0
LINE
  5
691
100
AcDbEntity
  8
0
100
AcDbLine
 62
7
  6
CONTINUOUS
 10
7.3941419945
 20
19.1517151767
 11
7.388903879
 21
19.3017151767
  0
LINE
  5
692
100
AcDbEntity
  8
0
100
AcDbLine
 62
7
  6
CONTINUOUS
 10
7.4116023792
 20
19.1517151767
 11
7.4063642638
 21
19.3017151767
  0
LINE
  5
693
100
AcDbEntity
  8
0
100
AcDbLine
 62
7
  6
CONTINUOUS
 10
7.429062764
 20
19.1517151767
 11
7.4238246485
 21
19.3017151767
  0
LINE
  5
694
100
AcDbEntity
  8
0
100
AcDbLine
 62
7
  6
CONTINUOUS
 10
7.4465231487
 20
19.1517151767
 11
7.4412850333
 21
19.3017151767
  0
LINE
  5
695
100
AcDbEntity
  8
0
100
AcDbLine
 62
7
  6
CONTINUOUS
 10
7.4639835334
 20
19.1517151767
 11
7.458745418
 21
19.3017151767
  0
LINE
  5
696
100
AcDbEntity
  8
0
100
AcDbLine
 62
7
  6
CONTINUOUS
 10
7.4814439182
 20
19.1517151767
 11
7.4762058028
 21
19.3017151767
  0
LINE
  5
697
100
AcDbEntity
  8
0
100
AcDbLine
 62
7
  6
CONTINUOUS
 10
7.4989043029
 20
19.1517151767
 11
7.4936661875
 21
19.3017151767
  0
LINE
  5
698
100
AcDbEntity
  8
0
100
AcDbLine
 62
7
  6
CONTINUOUS
 10
7.5163646877
 20
19.1517151767
 11
7.5111265723
 21
19.3017151767
  0
LINE
  5
699
100
AcDbEntity
  8
0
100
AcDbLine
 62
7
  6
CONTINUOUS
 10
7.5338250724
 20
19.1517151767
 11
7.528586957
 21
19.3017151767
  0
LINE
  5
69A
100
AcDbEntity
  8
0
100
AcDbLine
 62
7
  6
CONTINUOUS
 10
7.5512854572
 20
19.1517151767
 11
7.5460473418
 21
19.3017151767
  0
LINE
  5
69B
100
AcDbEntity
  8
0
100
AcDbLine
 62
7
  6
CONTINUOUS
 10
11.6362145428
 20
-45.5482848233
 11
11.6414526582
 21
-45.6982848233
  0
LINE
  5
69C
100
AcDbEntity
  8
0
100
AcDbLine
 62
7
  6
CONTINUOUS
 10
11.6536749276
 20
-45.5482848233
 11
11.658913043
 21
-45.6982848233
  0
LINE
  5
69D
100
AcDbEntity
  8
0
100
AcDbLine
 62
7
  6
CONTINUOUS
 10
11.6711353123
 20
-45.5482848233
 11
11.6763734277
 21
-45.6982848233
  0
LINE
  5
69E
100
AcDbEntity
  8
0
100
AcDbLine
 62
7
  6
CONTINUOUS
 10
11.6885956971
 20
-45.5482848233
 11
11.6938338125
 21
-45.6982848233
  0
LINE
  5
69F
100
AcDbEntity
  8
0
100
AcDbLine
 62
7
  6
CONTINUOUS
 10
11.7060560818
 20
-45.5482848233
 11
11.7112941972
 21
-45.6982848233
  0
LINE
  5
6A0
100
AcDbEntity
  8
0
100
AcDbLine
 62
7
  6
CONTINUOUS
 10
11.7235164666
 20
-45.5482848233
 11
11.728754582
 21
-45.6982848233
  0
LINE
  5
6A1
100
AcDbEntity
  8
0
100
AcDbLine
 62
7
  6
CONTINUOUS
 10
11.7409768513
 20
-45.5482848233
 11
11.7462149667
 21
-45.6982848233
  0
LINE
  5
6A2
100
AcDbEntity
  8
0
100
AcDbLine
 62
7
  6
CONTINUOUS
 10
11.758437236
 20
-45.5482848233
 11
11.7636753515
 21
-45.6982848233
  0
LINE
  5
6A3
100
AcDbEntity
  8
0
100
AcDbLine
 62
7
  6
CONTINUOUS
 10
11.7758976208
 20
-45.5482848233
 11
11.7811357362
 21
-45.6982848233
  0
LINE
  5
6A4
100
AcDbEntity
  8
0
100
AcDbLine
 62
7
  6
CONTINUOUS
 10
11.7933580055
 20
-45.5482848233
 11
11.798596121
 21
-45.6982848233
  0
LINE
  5
6A5
100
AcDbEntity
  8
0
100
AcDbLine
 62
7
  6
CONTINUOUS
 10
11.8108183903
 20
-45.5482848233
 11
11.8160565057
 21
-45.6982848233
  0
LINE
  5
6A6
100
AcDbEntity
  8
0
100
AcDbLine
 62
7
  6
CONTINUOUS
 10
11.828278775
 20
-45.5482848233
 11
11.8335168905
 21
-45.6982848233
  0
LINE
  5
6A7
100
AcDbEntity
  8
0
100
AcDbLine
 62
7
  6
CONTINUOUS
 10
11.8457391598
 20
-45.5482848233
 11
11.8509772752
 21
-45.6982848233
  0
LINE
  5
6A8
100
AcDbEntity
  8
0
100
AcDbLine
 62
7
  6
CONTINUOUS
 10
11.6292303889
 20
-37.8482848233
 11
11.6239922735
 21
-37.6982848233
  0
LINE
  5
6A9
100
AcDbEntity
  8
0
100
AcDbLine
 62
7
  6
CONTINUOUS
 10
11.6466907737
 20
-37.8482848233
 11
11.6414526582
 21
-37.6982848233
  0
LINE
  5
6AA
100
AcDbEntity
  8
0
100
AcDbLine
 62
7
  6
CONTINUOUS
 10
11.6641511584
 20
-37.8482848233
 11
11.658913043
 21
-37.6982848233
  0
LINE
  5
6AB
100
AcDbEntity
  8
0
100
AcDbLine
 62
7
  6
CONTINUOUS
 10
11.6816115432
 20
-37.8482848233
 11
11.6763734277
 21
-37.6982848233
  0
LINE
  5
6AC
100
AcDbEntity
  8
0
100
AcDbLine
 62
7
  6
CONTINUOUS
 10
11.6990719279
 20
-37.8482848233
 11
11.6938338125
 21
-37.6982848233
  0
LINE
  5
6AD
100
AcDbEntity
  8
0
100
AcDbLine
 62
7
  6
CONTINUOUS
 10
11.7165323127
 20
-37.8482848233
 11
11.7112941972
 21
-37.6982848233
  0
LINE
  5
6AE
100
AcDbEntity
  8
0
100
AcDbLine
 62
7
  6
CONTINUOUS
 10
11.7339926974
 20
-37.8482848233
 11
11.728754582
 21
-37.6982848233
  0
LINE
  5
6AF
100
AcDbEntity
  8
0
100
AcDbLine
 62
7
  6
CONTINUOUS
 10
11.7514530821
 20
-37.8482848233
 11
11.7462149667
 21
-37.6982848233
  0
LINE
  5
6B0
100
AcDbEntity
  8
0
100
AcDbLine
 62
7
  6
CONTINUOUS
 10
11.7689134669
 20
-37.8482848233
 11
11.7636753515
 21
-37.6982848233
  0
LINE
  5
6B1
100
AcDbEntity
  8
0
100
AcDbLine
 62
7
  6
CONTINUOUS
 10
11.7863738516
 20
-37.8482848233
 11
11.7811357362
 21
-37.6982848233
  0
LINE
  5
6B2
100
AcDbEntity
  8
0
100
AcDbLine
 62
7
  6
CONTINUOUS
 10
11.8038342364
 20
-37.8482848233
 11
11.798596121
 21
-37.6982848233
  0
LINE
  5
6B3
100
AcDbEntity
  8
0
100
AcDbLine
 62
7
  6
CONTINUOUS
 10
11.8212946211
 20
-37.8482848233
 11
11.8160565057
 21
-37.6982848233
  0
LINE
  5
6B4
100
AcDbEntity
  8
0
100
AcDbLine
 62
7
  6
CONTINUOUS
 10
11.8387550059
 20
-37.8482848233
 11
11.8335168905
 21
-37.6982848233
  0
LINE
  5
6B5
100
AcDbEntity
  8
0
100
AcDbLine
 62
7
  6
CONTINUOUS
 10
11.6362145428
 20
11.4517151767
 11
11.6414526582
 21
11.3017151767
  0
LINE
  5
6B6
100
AcDbEntity
  8
0
100
AcDbLine
 62
7
  6
CONTINUOUS
 10
11.6536749276
 20
11.4517151767
 11
11.658913043
 21
11.3017151767
  0
LINE
  5
6B7
100
AcDbEntity
  8
0
100
AcDbLine
 62
7
  6
CONTINUOUS
 10
11.6711353123
 20
11.4517151767
 11
11.6763734277
 21
11.3017151767
  0
LINE
  5
6B8
100
AcDbEntity
  8
0
100
AcDbLine
 62
7
  6
CONTINUOUS
 10
11.6885956971
 20
11.4517151767
 11
11.6938338125
 21
11.3017151767
  0
LINE
  5
6B9
100
AcDbEntity
  8
0
100
AcDbLine
 62
7
  6
CONTINUOUS
 10
11.7060560818
 20
11.4517151767
 11
11.7112941972
 21
11.3017151767
  0
LINE
  5
6BA
100
AcDbEntity
  8
0
100
AcDbLine
 62
7
  6
CONTINUOUS
 10
11.7235164666
 20
11.4517151767
 11
11.728754582
 21
11.3017151767
  0
LINE
  5
6BB
100
AcDbEntity
  8
0
100
AcDbLine
 62
7
  6
CONTINUOUS
 10
11.7409768513
 20
11.4517151767
 11
11.7462149667
 21
11.3017151767
  0
LINE
  5
6BC
100
AcDbEntity
  8
0
100
AcDbLine
 62
7
  6
CONTINUOUS
 10
11.758437236
 20
11.4517151767
 11
11.7636753515
 21
11.3017151767
  0
LINE
  5
6BD
100
AcDbEntity
  8
0
100
AcDbLine
 62
7
  6
CONTINUOUS
 10
11.7758976208
 20
11.4517151767
 11
11.7811357362
 21
11.3017151767
  0
LINE
  5
6BE
100
AcDbEntity
  8
0
100
AcDbLine
 62
7
  6
CONTINUOUS
 10
11.7933580055
 20
11.4517151767
 11
11.798596121
 21
11.3017151767
  0
LINE
  5
6BF
100
AcDbEntity
  8
0
100
AcDbLine
 62
7
  6
CONTINUOUS
 10
11.8108183903
 20
11.4517151767
 11
11.8160565057
 21
11.3017151767
  0
LINE
  5
6C0
100
AcDbEntity
  8
0
100
AcDbLine
 62
7
  6
CONTINUOUS
 10
11.828278775
 20
11.4517151767
 11
11.8335168905
 21
11.3017151767
  0
LINE
  5
6C1
100
AcDbEntity
  8
0
100
AcDbLine
 62
7
  6
CONTINUOUS
 10
11.8457391598
 20
11.4517151767
 11
11.8509772752
 21
11.3017151767
  0
LINE
  5
6C2
100
AcDbEntity
  8
0
100
AcDbLine
 62
7
  6
CONTINUOUS
 10
11.6292303889
 20
19.1517151767
 11
11.6239922735
 21
19.3017151767
  0
LINE
  5
6C3
100
AcDbEntity
  8
0
100
AcDbLine
 62
7
  6
CONTINUOUS
 10
11.6466907737
 20
19.1517151767
 11
11.6414526582
 21
19.3017151767
  0
LINE
  5
6C4
100
AcDbEntity
  8
0
100
AcDbLine
 62
7
  6
CONTINUOUS
 10
11.6641511584
 20
19.1517151767
 11
11.658913043
 21
19.3017151767
  0
LINE
  5
6C5
100
AcDbEntity
  8
0
100
AcDbLine
 62
7
  6
CONTINUOUS
 10
11.6816115432
 20
19.1517151767
 11
11.6763734277
 21
19.3017151767
  0
LINE
  5
6C6
100
AcDbEntity
  8
0
100
AcDbLine
 62
7
  6
CONTINUOUS
 10
11.6990719279
 20
19.1517151767
 11
11.6938338125
 21
19.3017151767
  0
LINE
  5
6C7
100
AcDbEntity
  8
0
100
AcDbLine
 62
7
  6
CONTINUOUS
 10
11.7165323127
 20
19.1517151767
 11
11.7112941972
 21
19.3017151767
  0
LINE
  5
6C8
100
AcDbEntity
  8
0
100
AcDbLine
 62
7
  6
CONTINUOUS
 10
11.7339926974
 20
19.1517151767
 11
11.728754582
 21
19.3017151767
  0
LINE
  5
6C9
100
AcDbEntity
  8
0
100
AcDbLine
 62
7
  6
CONTINUOUS
 10
11.7514530821
 20
19.1517151767
 11
11.7462149667
 21
19.3017151767
  0
LINE
  5
6CA
100
AcDbEntity
  8
0
100
AcDbLine
 62
7
  6
CONTINUOUS
 10
11.7689134669
 20
19.1517151767
 11
11.7636753515
 21
19.3017151767
  0
LINE
  5
6CB
100
AcDbEntity
  8
0
100
AcDbLine
 62
7
  6
CONTINUOUS
 10
11.7863738516
 20
19.1517151767
 11
11.7811357362
 21
19.3017151767
  0
LINE
  5
6CC
100
AcDbEntity
  8
0
100
AcDbLine
 62
7
  6
CONTINUOUS
 10
11.8038342364
 20
19.1517151767
 11
11.798596121
 21
19.3017151767
  0
LINE
  5
6CD
100
AcDbEntity
  8
0
100
AcDbLine
 62
7
  6
CONTINUOUS
 10
11.8212946211
 20
19.1517151767
 11
11.8160565057
 21
19.3017151767
  0
LINE
  5
6CE
100
AcDbEntity
  8
0
100
AcDbLine
 62
7
  6
CONTINUOUS
 10
11.8387550059
 20
19.1517151767
 11
11.8335168905
 21
19.3017151767
  0
LINE
  5
6CF
100
AcDbEntity
  8
0
100
AcDbLine
 62
7
  6
CONTINUOUS
 10
7.59375
 20
20.3017151767
 11
7.59375
 21
19.8017151767
  0
LINE
  5
6D0
100
AcDbEntity
  8
0
100
AcDbLine
 62
7
  6
CONTINUOUS
 10
7.59375
 20
10.8017151767
 11
7.59375
 21
10.3017151767
  0
LINE
  5
6D1
100
AcDbEntity
  8
0
100
AcDbLine
 62
7
  6
CONTINUOUS
 10
7.59375
 20
-36.6982848233
 11
7.59375
 21
-37.1982848233
  0
LINE
  5
6D2
100
AcDbEntity
  8
0
100
AcDbLine
 62
7
  6
CONTINUOUS
 10
7.59375
 20
-46.1982848233
 11
7.59375
 21
-46.6982848233
  0
LINE
  5
6D3
100
AcDbEntity
  8
0
100
AcDbLine
 62
7
  6
CONTINUOUS
 10
8.0108066783
 20
20.5017151767
 11
8.0108066783
 21
20.3846584984
  0
LINE
  5
6D4
100
AcDbEntity
  8
0
100
AcDbLine
 62
7
  6
CONTINUOUS
 10
8.0108066783
 20
10.218771855
 11
8.0108066783
 21
10.1017151767
  0
LINE
  5
6D5
100
AcDbEntity
  8
0
100
AcDbLine
 62
7
  6
CONTINUOUS
 10
8.0108066783
 20
-36.4982848233
 11
8.0108066783
 21
-36.6153415016
  0
LINE
  5
6D6
100
AcDbEntity
  8
0
100
AcDbLine
 62
7
  6
CONTINUOUS
 10
8.0108066783
 20
-46.781228145
 11
8.0108066783
 21
-46.8982848233
  0
LINE
  5
6D7
100
AcDbEntity
  8
0
100
AcDbLine
 62
7
  6
CONTINUOUS
 10
8.09375
 20
20.5017151767
 11
8.09375
 21
20.3017151767
  0
LINE
  5
6D8
100
AcDbEntity
  8
0
100
AcDbLine
 62
7
  6
CONTINUOUS
 10
8.09375
 20
10.3017151767
 11
8.09375
 21
10.1017151767
  0
LINE
  5
6D9
100
AcDbEntity
  8
0
100
AcDbLine
 62
7
  6
CONTINUOUS
 10
8.09375
 20
-36.4982848233
 11
8.09375
 21
-36.6982848233
  0
LINE
  5
6DA
100
AcDbEntity
  8
0
100
AcDbLine
 62
7
  6
CONTINUOUS
 10
8.09375
 20
-46.6982848233
 11
8.09375
 21
-46.8982848233
  0
LINE
  5
6DB
100
AcDbEntity
  8
0
100
AcDbLine
 62
7
  6
CONTINUOUS
 10
8.89375
 20
-46.8982848233
 11
8.89375
 21
-46.6982848233
  0
LINE
  5
6DC
100
AcDbEntity
  8
0
100
AcDbLine
 62
7
  6
CONTINUOUS
 10
8.89375
 20
-36.6982848233
 11
8.89375
 21
-36.4982848233
  0
LINE
  5
6DD
100
AcDbEntity
  8
0
100
AcDbLine
 62
7
  6
CONTINUOUS
 10
8.89375
 20
10.1017151767
 11
8.89375
 21
10.3017151767
  0
LINE
  5
6DE
100
AcDbEntity
  8
0
100
AcDbLine
 62
7
  6
CONTINUOUS
 10
8.89375
 20
20.3017151767
 11
8.89375
 21
20.5017151767
  0
LINE
  5
6DF
100
AcDbEntity
  8
0
100
AcDbLine
 62
7
  6
CONTINUOUS
 10
8.9766933217
 20
-46.8982848233
 11
8.9766933217
 21
-46.781228145
  0
LINE
  5
6E0
100
AcDbEntity
  8
0
100
AcDbLine
 62
7
  6
CONTINUOUS
 10
8.9766933217
 20
-36.6153415016
 11
8.9766933217
 21
-36.4982848233
  0
LINE
  5
6E1
100
AcDbEntity
  8
0
100
AcDbLine
 62
7
  6
CONTINUOUS
 10
8.9766933217
 20
10.1017151767
 11
8.9766933217
 21
10.218771855
  0
LINE
  5
6E2
100
AcDbEntity
  8
0
100
AcDbLine
 62
7
  6
CONTINUOUS
 10
8.9766933217
 20
20.3846584984
 11
8.9766933217
 21
20.5017151767
  0
LINE
  5
6E3
100
AcDbEntity
  8
0
100
AcDbLine
 62
7
  6
CONTINUOUS
 10
10.2108066783
 20
20.5017151767
 11
10.2108066783
 21
20.3846584984
  0
LINE
  5
6E4
100
AcDbEntity
  8
0
100
AcDbLine
 62
7
  6
CONTINUOUS
 10
10.2108066783
 20
10.218771855
 11
10.2108066783
 21
10.1017151767
  0
LINE
  5
6E5
100
AcDbEntity
  8
0
100
AcDbLine
 62
7
  6
CONTINUOUS
 10
10.2108066783
 20
-36.4982848233
 11
10.2108066783
 21
-36.6153415016
  0
LINE
  5
6E6
100
AcDbEntity
  8
0
100
AcDbLine
 62
7
  6
CONTINUOUS
 10
10.2108066783
 20
-46.781228145
 11
10.2108066783
 21
-46.8982848233
  0
LINE
  5
6E7
100
AcDbEntity
  8
0
100
AcDbLine
 62
7
  6
CONTINUOUS
 10
10.29375
 20
20.5017151767
 11
10.29375
 21
20.3017151767
  0
LINE
  5
6E8
100
AcDbEntity
  8
0
100
AcDbLine
 62
7
  6
CONTINUOUS
 10
10.29375
 20
10.3017151767
 11
10.29375
 21
10.1017151767
  0
LINE
  5
6E9
100
AcDbEntity
  8
0
100
AcDbLine
 62
7
  6
CONTINUOUS
 10
10.29375
 20
-36.4982848233
 11
10.29375
 21
-36.6982848233
  0
LINE
  5
6EA
100
AcDbEntity
  8
0
100
AcDbLine
 62
7
  6
CONTINUOUS
 10
10.29375
 20
-46.6982848233
 11
10.29375
 21
-46.8982848233
  0
LINE
  5
6EB
100
AcDbEntity
  8
0
100
AcDbLine
 62
7
  6
CONTINUOUS
 10
11.09375
 20
-46.8982848233
 11
11.09375
 21
-46.6982848233
  0
LINE
  5
6EC
100
AcDbEntity
  8
0
100
AcDbLine
 62
7
  6
CONTINUOUS
 10
11.09375
 20
-36.6982848233
 11
11.09375
 21
-36.4982848233
  0
LINE
  5
6ED
100
AcDbEntity
  8
0
100
AcDbLine
 62
7
  6
CONTINUOUS
 10
11.09375
 20
10.1017151767
 11
11.09375
 21
10.3017151767
  0
LINE
  5
6EE
100
AcDbEntity
  8
0
100
AcDbLine
 62
7
  6
CONTINUOUS
 10
11.09375
 20
20.3017151767
 11
11.09375
 21
20.5017151767
  0
LINE
  5
6EF
100
AcDbEntity
  8
0
100
AcDbLine
 62
7
  6
CONTINUOUS
 10
11.1766933217
 20
-46.8982848233
 11
11.1766933217
 21
-46.781228145
  0
LINE
  5
6F0
100
AcDbEntity
  8
0
100
AcDbLine
 62
7
  6
CONTINUOUS
 10
11.1766933217
 20
-36.6153415016
 11
11.1766933217
 21
-36.4982848233
  0
LINE
  5
6F1
100
AcDbEntity
  8
0
100
AcDbLine
 62
7
  6
CONTINUOUS
 10
11.1766933217
 20
10.1017151767
 11
11.1766933217
 21
10.218771855
  0
LINE
  5
6F2
100
AcDbEntity
  8
0
100
AcDbLine
 62
7
  6
CONTINUOUS
 10
11.1766933217
 20
20.3846584984
 11
11.1766933217
 21
20.5017151767
  0
LINE
  5
6F3
100
AcDbEntity
  8
0
100
AcDbLine
 62
7
  6
CONTINUOUS
 10
11.59375
 20
-46.6982848233
 11
11.59375
 21
-46.1982848233
  0
LINE
  5
6F4
100
AcDbEntity
  8
0
100
AcDbLine
 62
7
  6
CONTINUOUS
 10
11.59375
 20
-37.1982848233
 11
11.59375
 21
-36.6982848233
  0
LINE
  5
6F5
100
AcDbEntity
  8
0
100
AcDbLine
 62
7
  6
CONTINUOUS
 10
11.59375
 20
10.3017151767
 11
11.59375
 21
10.8017151767
  0
LINE
  5
6F6
100
AcDbEntity
  8
0
100
AcDbLine
 62
7
  6
CONTINUOUS
 10
11.59375
 20
19.8017151767
 11
11.59375
 21
20.3017151767
  0
LINE
  5
6F7
100
AcDbEntity
  8
0
100
AcDbLine
 62
253
  6
CONTINUOUS
 10
11.9328850595
 20
-46.781228145
 11
11.9328850595
 21
-45.6982848233
  0
LINE
  5
6F8
100
AcDbEntity
  8
0
100
AcDbLine
 62
253
  6
CONTINUOUS
 10
11.9328850595
 20
-37.6982848233
 11
11.9328850595
 21
-36.6153415016
  0
LINE
  5
6F9
100
AcDbEntity
  8
0
100
AcDbLine
 62
253
  6
CONTINUOUS
 10
11.9328850595
 20
10.218771855
 11
11.9328850595
 21
11.3017151767
  0
LINE
  5
6FA
100
AcDbEntity
  8
0
100
AcDbLine
 62
253
  6
CONTINUOUS
 10
11.9328850595
 20
19.3017151767
 11
11.9328850595
 21
20.3846584984
  0
LINE
  5
6FB
100
AcDbEntity
  8
0
100
AcDbLine
 62
253
  6
CONTINUOUS
 10
12.1795364376
 20
-45.6982848233
 11
12.1795364376
 21
-37.6982848233
  0
LINE
  5
6FC
100
AcDbEntity
  8
0
100
AcDbLine
 62
253
  6
CONTINUOUS
 10
12.1795364375
 20
-47.2208138845
 11
12.1795364376
 21
-57.1982848233
  0
LINE
  5
6FD
100
AcDbEntity
  8
0
100
AcDbLine
 62
253
  6
CONTINUOUS
 10
12.1795364375
 20
-36.1757557621
 11
12.1795364375
 21
9.7791861155
  0
LINE
  5
6FE
100
AcDbEntity
  8
0
100
AcDbLine
 62
253
  6
CONTINUOUS
 10
12.1795364376
 20
11.3017151767
 11
12.1795364376
 21
19.3017151767
  0
LINE
  5
6FF
100
AcDbEntity
  8
0
100
AcDbLine
 62
253
  6
CONTINUOUS
 10
12.1795364375
 20
20.8242442379
 11
12.1795364376
 21
30.8017151767
  0
LINE
  5
700
100
AcDbEntity
  8
0
100
AcDbLine
 62
253
  6
CONTINUOUS
 10
12.2204332607
 20
-46.7855608023
 11
12.2204332607
 21
-45.6982848233
  0
LINE
  5
701
100
AcDbEntity
  8
0
100
AcDbLine
 62
253
  6
CONTINUOUS
 10
12.2204332607
 20
-37.6982848233
 11
12.2204332607
 21
-36.6110088443
  0
LINE
  5
702
100
AcDbEntity
  8
0
100
AcDbLine
 62
253
  6
CONTINUOUS
 10
12.2204332607
 20
10.2144391977
 11
12.2204332607
 21
11.3017151767
  0
LINE
  5
703
100
AcDbEntity
  8
0
100
AcDbLine
 62
253
  6
CONTINUOUS
 10
12.2204332607
 20
19.3017151767
 11
12.2204332607
 21
20.3889911557
  0
LINE
  5
704
100
AcDbEntity
  8
0
100
AcDbLine
 62
253
  6
CONTINUOUS
 10
12.8866432188
 20
-57.1982848208
 11
12.8866432188
 21
30.8017151736
  0
LINE
  5
705
100
AcDbEntity
  8
0
100
AcDbLine
 62
7
  6
CONTINUOUS
 10
13.39375
 20
-57.1982848233
 11
13.39375
 21
30.8017151767
  0
LINE
  5
706
100
AcDbEntity
  8
0
100
AcDbLine
 62
253
  6
CONTINUOUS
 10
13.59375
 20
-81.6982848233
 11
13.59375
 21
-82.1982848233
  0
LINE
  5
707
100
AcDbEntity
  8
0
100
AcDbLine
 62
253
  6
CONTINUOUS
 10
13.59375
 20
55.3017151767
 11
13.59375
 21
55.8017151767
  0
LINE
  5
708
100
AcDbEntity
  8
0
100
AcDbLine
 62
7
  6
CONTINUOUS
 10
7.3539831096
 20
-37.6982848233
 11
7.3487449941
 21
-37.8482848233
  0
LINE
  5
709
100
AcDbEntity
  8
0
100
AcDbLine
 62
7
  6
CONTINUOUS
 10
7.3714434943
 20
-37.6982848233
 11
7.3662053789
 21
-37.8482848233
  0
LINE
  5
70A
100
AcDbEntity
  8
0
100
AcDbLine
 62
7
  6
CONTINUOUS
 10
7.388903879
 20
-37.6982848233
 11
7.3836657636
 21
-37.8482848233
  0
LINE
  5
70B
100
AcDbEntity
  8
0
100
AcDbLine
 62
7
  6
CONTINUOUS
 10
7.4063642638
 20
-37.6982848233
 11
7.4011261484
 21
-37.8482848233
  0
LINE
  5
70C
100
AcDbEntity
  8
0
100
AcDbLine
 62
7
  6
CONTINUOUS
 10
7.4238246485
 20
-37.6982848233
 11
7.4185865331
 21
-37.8482848233
  0
LINE
  5
70D
100
AcDbEntity
  8
0
100
AcDbLine
 62
7
  6
CONTINUOUS
 10
7.4412850333
 20
-37.6982848233
 11
7.4360469179
 21
-37.8482848233
  0
LINE
  5
70E
100
AcDbEntity
  8
0
100
AcDbLine
 62
7
  6
CONTINUOUS
 10
7.458745418
 20
-37.6982848233
 11
7.4535073026
 21
-37.8482848233
  0
LINE
  5
70F
100
AcDbEntity
  8
0
100
AcDbLine
 62
7
  6
CONTINUOUS
 10
7.4762058028
 20
-37.6982848233
 11
7.4709676873
 21
-37.8482848233
  0
LINE
  5
710
100
AcDbEntity
  8
0
100
AcDbLine
 62
7
  6
CONTINUOUS
 10
7.4936661875
 20
-37.6982848233
 11
7.4884280721
 21
-37.8482848233
  0
LINE
  5
711
100
AcDbEntity
  8
0
100
AcDbLine
 62
7
  6
CONTINUOUS
 10
7.5111265723
 20
-37.6982848233
 11
7.5058884568
 21
-37.8482848233
  0
LINE
  5
712
100
AcDbEntity
  8
0
100
AcDbLine
 62
7
  6
CONTINUOUS
 10
7.528586957
 20
-37.6982848233
 11
7.5233488416
 21
-37.8482848233
  0
LINE
  5
713
100
AcDbEntity
  8
0
100
AcDbLine
 62
7
  6
CONTINUOUS
 10
7.5460473418
 20
-37.6982848233
 11
7.5408092263
 21
-37.8482848233
  0
LINE
  5
714
100
AcDbEntity
  8
0
100
AcDbLine
 62
7
  6
CONTINUOUS
 10
7.5635077265
 20
-37.6982848233
 11
7.5582696111
 21
-37.8482848233
  0
LINE
  5
715
100
AcDbEntity
  8
0
100
AcDbLine
 62
7
  6
CONTINUOUS
 10
7.3365227248
 20
-45.6982848233
 11
7.3417608402
 21
-45.5482848233
  0
LINE
  5
716
100
AcDbEntity
  8
0
100
AcDbLine
 62
7
  6
CONTINUOUS
 10
7.3539831096
 20
-45.6982848233
 11
7.359221225
 21
-45.5482848233
  0
LINE
  5
717
100
AcDbEntity
  8
0
100
AcDbLine
 62
7
  6
CONTINUOUS
 10
7.3714434943
 20
-45.6982848233
 11
7.3766816097
 21
-45.5482848233
  0
LINE
  5
718
100
AcDbEntity
  8
0
100
AcDbLine
 62
7
  6
CONTINUOUS
 10
7.388903879
 20
-45.6982848233
 11
7.3941419945
 21
-45.5482848233
  0
LINE
  5
719
100
AcDbEntity
  8
0
100
AcDbLine
 62
7
  6
CONTINUOUS
 10
7.4063642638
 20
-45.6982848233
 11
7.4116023792
 21
-45.5482848233
  0
LINE
  5
71A
100
AcDbEntity
  8
0
100
AcDbLine
 62
7
  6
CONTINUOUS
 10
7.4238246485
 20
-45.6982848233
 11
7.429062764
 21
-45.5482848233
  0
LINE
  5
71B
100
AcDbEntity
  8
0
100
AcDbLine
 62
7
  6
CONTINUOUS
 10
7.4412850333
 20
-45.6982848233
 11
7.4465231487
 21
-45.5482848233
  0
LINE
  5
71C
100
AcDbEntity
  8
0
100
AcDbLine
 62
7
  6
CONTINUOUS
 10
7.458745418
 20
-45.6982848233
 11
7.4639835334
 21
-45.5482848233
  0
LINE
  5
71D
100
AcDbEntity
  8
0
100
AcDbLine
 62
7
  6
CONTINUOUS
 10
7.4762058028
 20
-45.6982848233
 11
7.4814439182
 21
-45.5482848233
  0
LINE
  5
71E
100
AcDbEntity
  8
0
100
AcDbLine
 62
7
  6
CONTINUOUS
 10
7.4936661875
 20
-45.6982848233
 11
7.4989043029
 21
-45.5482848233
  0
LINE
  5
71F
100
AcDbEntity
  8
0
100
AcDbLine
 62
7
  6
CONTINUOUS
 10
7.5111265723
 20
-45.6982848233
 11
7.5163646877
 21
-45.5482848233
  0
LINE
  5
720
100
AcDbEntity
  8
0
100
AcDbLine
 62
7
  6
CONTINUOUS
 10
7.528586957
 20
-45.6982848233
 11
7.5338250724
 21
-45.5482848233
  0
LINE
  5
721
100
AcDbEntity
  8
0
100
AcDbLine
 62
7
  6
CONTINUOUS
 10
7.5460473418
 20
-45.6982848233
 11
7.5512854572
 21
-45.5482848233
  0
LINE
  5
722
100
AcDbEntity
  8
0
100
AcDbLine
 62
7
  6
CONTINUOUS
 10
11.6414526582
 20
19.3017151767
 11
11.6362145428
 21
19.1517151767
  0
LINE
  5
723
100
AcDbEntity
  8
0
100
AcDbLine
 62
7
  6
CONTINUOUS
 10
11.658913043
 20
19.3017151767
 11
11.6536749276
 21
19.1517151767
  0
LINE
  5
724
100
AcDbEntity
  8
0
100
AcDbLine
 62
7
  6
CONTINUOUS
 10
11.6763734277
 20
19.3017151767
 11
11.6711353123
 21
19.1517151767
  0
LINE
  5
725
100
AcDbEntity
  8
0
100
AcDbLine
 62
7
  6
CONTINUOUS
 10
11.6938338125
 20
19.3017151767
 11
11.6885956971
 21
19.1517151767
  0
LINE
  5
726
100
AcDbEntity
  8
0
100
AcDbLine
 62
7
  6
CONTINUOUS
 10
11.7112941972
 20
19.3017151767
 11
11.7060560818
 21
19.1517151767
  0
LINE
  5
727
100
AcDbEntity
  8
0
100
AcDbLine
 62
7
  6
CONTINUOUS
 10
11.728754582
 20
19.3017151767
 11
11.7235164666
 21
19.1517151767
  0
LINE
  5
728
100
AcDbEntity
  8
0
100
AcDbLine
 62
7
  6
CONTINUOUS
 10
11.7462149667
 20
19.3017151767
 11
11.7409768513
 21
19.1517151767
  0
LINE
  5
729
100
AcDbEntity
  8
0
100
AcDbLine
 62
7
  6
CONTINUOUS
 10
11.7636753515
 20
19.3017151767
 11
11.758437236
 21
19.1517151767
  0
LINE
  5
72A
100
AcDbEntity
  8
0
100
AcDbLine
 62
7
  6
CONTINUOUS
 10
11.7811357362
 20
19.3017151767
 11
11.7758976208
 21
19.1517151767
  0
LINE
  5
72B
100
AcDbEntity
  8
0
100
AcDbLine
 62
7
  6
CONTINUOUS
 10
11.798596121
 20
19.3017151767
 11
11.7933580055
 21
19.1517151767
  0
LINE
  5
72C
100
AcDbEntity
  8
0
100
AcDbLine
 62
7
  6
CONTINUOUS
 10
11.8160565057
 20
19.3017151767
 11
11.8108183903
 21
19.1517151767
  0
LINE
  5
72D
100
AcDbEntity
  8
0
100
AcDbLine
 62
7
  6
CONTINUOUS
 10
11.8335168905
 20
19.3017151767
 11
11.828278775
 21
19.1517151767
  0
LINE
  5
72E
100
AcDbEntity
  8
0
100
AcDbLine
 62
7
  6
CONTINUOUS
 10
11.8509772752
 20
19.3017151767
 11
11.8457391598
 21
19.1517151767
  0
LINE
  5
72F
100
AcDbEntity
  8
0
100
AcDbLine
 62
7
  6
CONTINUOUS
 10
11.6239922735
 20
11.3017151767
 11
11.6292303889
 21
11.4517151767
  0
LINE
  5
730
100
AcDbEntity
  8
0
100
AcDbLine
 62
7
  6
CONTINUOUS
 10
11.6414526582
 20
11.3017151767
 11
11.6466907737
 21
11.4517151767
  0
LINE
  5
731
100
AcDbEntity
  8
0
100
AcDbLine
 62
7
  6
CONTINUOUS
 10
11.658913043
 20
11.3017151767
 11
11.6641511584
 21
11.4517151767
  0
LINE
  5
732
100
AcDbEntity
  8
0
100
AcDbLine
 62
7
  6
CONTINUOUS
 10
11.6763734277
 20
11.3017151767
 11
11.6816115432
 21
11.4517151767
  0
LINE
  5
733
100
AcDbEntity
  8
0
100
AcDbLine
 62
7
  6
CONTINUOUS
 10
11.6938338125
 20
11.3017151767
 11
11.6990719279
 21
11.4517151767
  0
LINE
  5
734
100
AcDbEntity
  8
0
100
AcDbLine
 62
7
  6
CONTINUOUS
 10
11.7112941972
 20
11.3017151767
 11
11.7165323127
 21
11.4517151767
  0
LINE
  5
735
100
AcDbEntity
  8
0
100
AcDbLine
 62
7
  6
CONTINUOUS
 10
11.728754582
 20
11.3017151767
 11
11.7339926974
 21
11.4517151767
  0
LINE
  5
736
100
AcDbEntity
  8
0
100
AcDbLine
 62
7
  6
CONTINUOUS
 10
11.7462149667
 20
11.3017151767
 11
11.7514530821
 21
11.4517151767
  0
LINE
  5
737
100
AcDbEntity
  8
0
100
AcDbLine
 62
7
  6
CONTINUOUS
 10
11.7636753515
 20
11.3017151767
 11
11.7689134669
 21
11.4517151767
  0
LINE
  5
738
100
AcDbEntity
  8
0
100
AcDbLine
 62
7
  6
CONTINUOUS
 10
11.7811357362
 20
11.3017151767
 11
11.7863738516
 21
11.4517151767
  0
LINE
  5
739
100
AcDbEntity
  8
0
100
AcDbLine
 62
7
  6
CONTINUOUS
 10
11.798596121
 20
11.3017151767
 11
11.8038342364
 21
11.4517151767
  0
LINE
  5
73A
100
AcDbEntity
  8
0
100
AcDbLine
 62
7
  6
CONTINUOUS
 10
11.8160565057
 20
11.3017151767
 11
11.8212946211
 21
11.4517151767
  0
LINE
  5
73B
100
AcDbEntity
  8
0
100
AcDbLine
 62
7
  6
CONTINUOUS
 10
11.8335168905
 20
11.3017151767
 11
11.8387550059
 21
11.4517151767
  0
LINE
  5
73C
100
AcDbEntity
  8
0
100
AcDbLine
 62
7
  6
CONTINUOUS
 10
11.6414526582
 20
-37.6982848233
 11
11.6362145428
 21
-37.8482848233
  0
LINE
  5
73D
100
AcDbEntity
  8
0
100
AcDbLine
 62
7
  6
CONTINUOUS
 10
11.658913043
 20
-37.6982848233
 11
11.6536749276
 21
-37.8482848233
  0
LINE
  5
73E
100
AcDbEntity
  8
0
100
AcDbLine
 62
7
  6
CONTINUOUS
 10
11.6763734277
 20
-37.6982848233
 11
11.6711353123
 21
-37.8482848233
  0
LINE
  5
73F
100
AcDbEntity
  8
0
100
AcDbLine
 62
7
  6
CONTINUOUS
 10
11.6938338125
 20
-37.6982848233
 11
11.6885956971
 21
-37.8482848233
  0
LINE
  5
740
100
AcDbEntity
  8
0
100
AcDbLine
 62
7
  6
CONTINUOUS
 10
11.7112941972
 20
-37.6982848233
 11
11.7060560818
 21
-37.8482848233
  0
LINE
  5
741
100
AcDbEntity
  8
0
100
AcDbLine
 62
7
  6
CONTINUOUS
 10
11.728754582
 20
-37.6982848233
 11
11.7235164666
 21
-37.8482848233
  0
LINE
  5
742
100
AcDbEntity
  8
0
100
AcDbLine
 62
7
  6
CONTINUOUS
 10
11.7462149667
 20
-37.6982848233
 11
11.7409768513
 21
-37.8482848233
  0
LINE
  5
743
100
AcDbEntity
  8
0
100
AcDbLine
 62
7
  6
CONTINUOUS
 10
11.7636753515
 20
-37.6982848233
 11
11.758437236
 21
-37.8482848233
  0
LINE
  5
744
100
AcDbEntity
  8
0
100
AcDbLine
 62
7
  6
CONTINUOUS
 10
11.7811357362
 20
-37.6982848233
 11
11.7758976208
 21
-37.8482848233
  0
LINE
  5
745
100
AcDbEntity
  8
0
100
AcDbLine
 62
7
  6
CONTINUOUS
 10
11.798596121
 20
-37.6982848233
 11
11.7933580055
 21
-37.8482848233
  0
LINE
  5
746
100
AcDbEntity
  8
0
100
AcDbLine
 62
7
  6
CONTINUOUS
 10
11.8160565057
 20
-37.6982848233
 11
11.8108183903
 21
-37.8482848233
  0
LINE
  5
747
100
AcDbEntity
  8
0
100
AcDbLine
 62
7
  6
CONTINUOUS
 10
11.8335168905
 20
-37.6982848233
 11
11.828278775
 21
-37.8482848233
  0
LINE
  5
748
100
AcDbEntity
  8
0
100
AcDbLine
 62
7
  6
CONTINUOUS
 10
11.8509772752
 20
-37.6982848233
 11
11.8457391598
 21
-37.8482848233
  0
LINE
  5
749
100
AcDbEntity
  8
0
100
AcDbLine
 62
7
  6
CONTINUOUS
 10
11.6239922735
 20
-45.6982848233
 11
11.6292303889
 21
-45.5482848233
  0
LINE
  5
74A
100
AcDbEntity
  8
0
100
AcDbLine
 62
7
  6
CONTINUOUS
 10
11.6414526582
 20
-45.6982848233
 11
11.6466907737
 21
-45.5482848233
  0
LINE
  5
74B
100
AcDbEntity
  8
0
100
AcDbLine
 62
7
  6
CONTINUOUS
 10
11.658913043
 20
-45.6982848233
 11
11.6641511584
 21
-45.5482848233
  0
LINE
  5
74C
100
AcDbEntity
  8
0
100
AcDbLine
 62
7
  6
CONTINUOUS
 10
11.6763734277
 20
-45.6982848233
 11
11.6816115432
 21
-45.5482848233
  0
LINE
  5
74D
100
AcDbEntity
  8
0
100
AcDbLine
 62
7
  6
CONTINUOUS
 10
11.6938338125
 20
-45.6982848233
 11
11.6990719279
 21
-45.5482848233
  0
LINE
  5
74E
100
AcDbEntity
  8
0
100
AcDbLine
 62
7
  6
CONTINUOUS
 10
11.7112941972
 20
-45.6982848233
 11
11.7165323127
 21
-45.5482848233
  0
LINE
  5
74F
100
AcDbEntity
  8
0
100
AcDbLine
 62
7
  6
CONTINUOUS
 10
11.728754582
 20
-45.6982848233
 11
11.7339926974
 21
-45.5482848233
  0
LINE
  5
750
100
AcDbEntity
  8
0
100
AcDbLine
 62
7
  6
CONTINUOUS
 10
11.7462149667
 20
-45.6982848233
 11
11.7514530821
 21
-45.5482848233
  0
LINE
  5
751
100
AcDbEntity
  8
0
100
AcDbLine
 62
7
  6
CONTINUOUS
 10
11.7636753515
 20
-45.6982848233
 11
11.7689134669
 21
-45.5482848233
  0
LINE
  5
752
100
AcDbEntity
  8
0
100
AcDbLine
 62
7
  6
CONTINUOUS
 10
11.7811357362
 20
-45.6982848233
 11
11.7863738516
 21
-45.5482848233
  0
LINE
  5
753
100
AcDbEntity
  8
0
100
AcDbLine
 62
7
  6
CONTINUOUS
 10
11.798596121
 20
-45.6982848233
 11
11.8038342364
 21
-45.5482848233
  0
LINE
  5
754
100
AcDbEntity
  8
0
100
AcDbLine
 62
7
  6
CONTINUOUS
 10
11.8160565057
 20
-45.6982848233
 11
11.8212946211
 21
-45.5482848233
  0
LINE
  5
755
100
AcDbEntity
  8
0
100
AcDbLine
 62
7
  6
CONTINUOUS
 10
11.8335168905
 20
-45.6982848233
 11
11.8387550059
 21
-45.5482848233
  0
LINE
  5
756
100
AcDbEntity
  8
0
100
AcDbLine
 62
7
  6
CONTINUOUS
 10
7.59375
 20
-37.1982848233
 11
7.5635077265
 21
-37.6982848233
  0
LINE
  5
757
100
AcDbEntity
  8
0
100
AcDbLine
 62
7
  6
CONTINUOUS
 10
11.59375
 20
10.8017151767
 11
11.6239922735
 21
11.3017151767
  0
LINE
  5
758
100
AcDbEntity
  8
0
100
AcDbLine
 62
7
  6
CONTINUOUS
 10
11.59375
 20
-46.1982848233
 11
11.6239922735
 21
-45.6982848233
  0
LINE
  5
759
100
AcDbEntity
  8
0
100
AcDbLine
 62
7
  6
CONTINUOUS
 10
8.9766933217
 20
-36.6153415016
 11
8.89375
 21
-36.6982848233
  0
LINE
  5
75A
100
AcDbEntity
  8
0
100
AcDbLine
 62
7
  6
CONTINUOUS
 10
11.1766933217
 20
-36.6153415016
 11
11.09375
 21
-36.6982848233
  0
LINE
  5
75B
100
AcDbEntity
  8
0
100
AcDbLine
 62
253
  6
CONTINUOUS
 10
-2.40625
 20
45.3875016143
 11
-90.40625
 21
45.3875016143
  0
LINE
  5
75C
100
AcDbEntity
  8
0
100
AcDbLine
 62
253
  6
CONTINUOUS
 10
-2.4062500025
 20
46.0946083955
 11
-90.4062499969
 21
46.0946083955
  0
LINE
  5
75D
100
AcDbEntity
  8
0
100
AcDbLine
 62
7
  6
CONTINUOUS
 10
-2.40625
 20
46.6017151767
 11
-90.40625
 21
46.6017151767
  0
LINE
  5
75E
100
AcDbEntity
  8
0
100
AcDbLine
 62
253
  6
CONTINUOUS
 10
22.09375
 20
46.8017151767
 11
22.59375
 21
46.8017151767
  0
LINE
  5
75F
100
AcDbEntity
  8
0
100
AcDbLine
 62
253
  6
CONTINUOUS
 10
-114.90625
 20
46.8017151767
 11
-115.40625
 21
46.8017151767
  0
LINE
  5
760
100
AcDbEntity
  8
0
100
AcDbLine
 62
7
  6
CONTINUOUS
 10
8.9766933217
 20
10.218771855
 11
8.89375
 21
10.3017151767
  0
LINE
  5
761
100
AcDbEntity
  8
0
100
AcDbLine
 62
7
  6
CONTINUOUS
 10
11.1766933217
 20
10.218771855
 11
11.09375
 21
10.3017151767
  0
LINE
  5
762
100
AcDbEntity
  8
0
100
AcDbLine
 62
7
  6
CONTINUOUS
 10
8.0108066783
 20
-46.781228145
 11
8.09375
 21
-46.6982848233
  0
LINE
  5
763
100
AcDbEntity
  8
0
100
AcDbLine
 62
7
  6
CONTINUOUS
 10
10.2108066783
 20
-46.781228145
 11
10.29375
 21
-46.6982848233
  0
LINE
  5
764
100
AcDbEntity
  8
0
100
AcDbLine
 62
7
  6
CONTINUOUS
 10
8.0108066783
 20
20.3846584984
 11
8.09375
 21
20.3017151767
  0
LINE
  5
765
100
AcDbEntity
  8
0
100
AcDbLine
 62
7
  6
CONTINUOUS
 10
10.2108066783
 20
20.3846584984
 11
10.29375
 21
20.3017151767
  0
LINE
  5
766
100
AcDbEntity
  8
0
100
AcDbLine
 62
253
  6
CONTINUOUS
 10
22.09375
 20
46.8017151767
 11
22.09375
 21
-73.1982848233
  0
LINE
  5
767
100
AcDbEntity
  8
0
100
AcDbLine
 62
7
  6
CONTINUOUS
 10
22.59375
 20
46.8017151767
 11
22.59375
 21
-73.1982848233
  0
LINE
  5
768
100
AcDbEntity
  8
DRAFT
100
AcDbLine
 62
7
  6
CONTINUOUS
 10
23.6112103847
 20
-73.1982848233
 11
23.6112103847
 21
46.8017151767
  0
LINE
  5
769
100
AcDbEntity
  8
0
100
AcDbLine
 62
253
  6
CONTINUOUS
 10
-106.40625
 20
55.3017151767
 11
13.59375
 21
55.3017151767
  0
LINE
  5
76A
100
AcDbEntity
  8
0
100
AcDbLine
 62
7
  6
CONTINUOUS
 10
-106.40625
 20
55.8017151767
 11
13.59375
 21
55.8017151767
  0
LINE
  5
76B
100
AcDbEntity
  8
DRAFT
100
AcDbLine
 62
7
  6
CONTINUOUS
 10
13.59375
 20
56.8191755615
 11
-106.40625
 21
56.8191755615
  0
ARC
  5
76C
100
AcDbEntity
  8
0
100
AcDbCircle
 62
7
  6
CONTINUOUS
 10
-90.40625
 20
-57.1982848233
 40
15.8
100
AcDbArc
 50
180.0
 51
270.0
  0
ARC
  5
76D
100
AcDbEntity
  8
0
100
AcDbCircle
 62
253
  6
CONTINUOUS
 10
-90.40625
 20
-57.1982848233
 40
15.2928932188
100
AcDbArc
 50
179.9999999884
 51
270.0000000095
  0
ARC
  5
76E
100
AcDbEntity
  8
0
100
AcDbCircle
 62
253
  6
CONTINUOUS
 10
-90.40625
 20
-57.1982848233
 40
14.5857864376
100
AcDbArc
 50
180.0
 51
270.0
  0
ARC
  5
76F
100
AcDbEntity
  8
DRAFT
100
AcDbCircle
 62
7
  6
CONTINUOUS
 10
-106.40625
 20
-73.1982848233
 40
10.0174603847
100
AcDbArc
 50
180.0
 51
270.0
  0
ARC
  5
770
100
AcDbEntity
  8
0
100
AcDbCircle
 62
7
  6
CONTINUOUS
 10
-106.40625
 20
-73.1982848233
 40
9.0
100
AcDbArc
 50
180.0
 51
270.0
  0
ARC
  5
771
100
AcDbEntity
  8
0
100
AcDbCircle
 62
253
  6
CONTINUOUS
 10
-106.40625
 20
-73.1982848233
 40
8.5
100
AcDbArc
 50
180.0
 51
270.0
  0
ARC
  5
772
100
AcDbEntity
  8
0
100
AcDbCircle
 62
7
  6
CONTINUOUS
 10
-76.40625
 20
-16.6158408233
 40
2.5499986575
100
AcDbArc
 50
357.7525289851
 51
182.2474707939
  0
ARC
  5
773
100
AcDbEntity
  8
0
100
AcDbCircle
 62
7
  6
CONTINUOUS
 10
-76.40625
 20
-16.6158408233
 40
1.7999999246
100
AcDbArc
 50
356.8152613297
 51
77.9752999778
  0
ARC
  5
774
100
AcDbEntity
  8
0
100
AcDbCircle
 62
7
  6
CONTINUOUS
 10
-76.40625
 20
-16.6158408233
 40
1.7999968808
100
AcDbArc
 50
102.0247203293
 51
183.1847444946
  0
ARC
  5
775
100
AcDbEntity
  8
0
100
AcDbCircle
 62
253
  6
CONTINUOUS
 10
-103.50625
 20
-46.8982848233
 40
0.9829242832
100
AcDbArc
 50
202.9281557029
 51
337.0718442971
  0
ARC
  5
776
100
AcDbEntity
  8
0
100
AcDbCircle
 62
253
  6
CONTINUOUS
 10
-101.30625
 20
-46.8982848233
 40
0.9829242832
100
AcDbArc
 50
202.9281557029
 51
337.0718442971
  0
ARC
  5
777
100
AcDbEntity
  8
0
100
AcDbCircle
 62
253
  6
CONTINUOUS
 10
-101.30625
 20
-36.4982848233
 40
0.9829242832
100
AcDbArc
 50
22.9281557029
 51
157.0718442971
  0
ARC
  5
778
100
AcDbEntity
  8
0
100
AcDbCircle
 62
253
  6
CONTINUOUS
 10
-103.50625
 20
-36.4982848233
 40
0.9829242832
100
AcDbArc
 50
22.9281557029
 51
157.0718442971
  0
ARC
  5
779
100
AcDbEntity
  8
0
100
AcDbCircle
 62
7
  6
CONTINUOUS
 10
-103.50625
 20
-46.8982848233
 40
0.4829433217
100
AcDbArc
 50
180.0
 51
360.0
  0
ARC
  5
77A
100
AcDbEntity
  8
0
100
AcDbCircle
 62
7
  6
CONTINUOUS
 10
-101.30625
 20
-46.8982848233
 40
0.4829433217
100
AcDbArc
 50
180.0
 51
360.0
  0
ARC
  5
77B
100
AcDbEntity
  8
0
100
AcDbCircle
 62
7
  6
CONTINUOUS
 10
-103.50625
 20
-36.4982848233
 40
0.4829433217
100
AcDbArc
 50
0.0
 51
180.0
  0
ARC
  5
77C
100
AcDbEntity
  8
0
100
AcDbCircle
 62
7
  6
CONTINUOUS
 10
-101.30625
 20
-36.4982848233
 40
0.4829433217
100
AcDbArc
 50
0.0
 51
180.0
  0
ARC
  5
77D
100
AcDbEntity
  8
0
100
AcDbCircle
 62
7
  6
CONTINUOUS
 10
-101.30625
 20
-46.8982848233
 40
0.4
100
AcDbArc
 50
180.0
 51
360.0
  0
ARC
  5
77E
100
AcDbEntity
  8
0
100
AcDbCircle
 62
7
  6
CONTINUOUS
 10
-103.50625
 20
-46.8982848233
 40
0.4
100
AcDbArc
 50
180.0
 51
360.0
  0
ARC
  5
77F
100
AcDbEntity
  8
0
100
AcDbCircle
 62
7
  6
CONTINUOUS
 10
-101.30625
 20
-36.4982848233
 40
0.4
100
AcDbArc
 50
0.0
 51
180.0
  0
ARC
  5
780
100
AcDbEntity
  8
0
100
AcDbCircle
 62
7
  6
CONTINUOUS
 10
-103.50625
 20
-36.4982848233
 40
0.4
100
AcDbArc
 50
0.0
 51
180.0
  0
ARC
  5
781
100
AcDbEntity
  8
0
100
AcDbCircle
 62
7
  6
CONTINUOUS
 10
-90.40625
 20
30.8017151767
 40
15.8
100
AcDbArc
 50
90.0
 51
180.0
  0
ARC
  5
782
100
AcDbEntity
  8
0
100
AcDbCircle
 62
253
  6
CONTINUOUS
 10
-90.40625
 20
30.8017151767
 40
15.2928932188
100
AcDbArc
 50
89.9999999884
 51
180.0000000095
  0
ARC
  5
783
100
AcDbEntity
  8
0
100
AcDbCircle
 62
253
  6
CONTINUOUS
 10
-90.40625
 20
30.8017151767
 40
14.5857864376
100
AcDbArc
 50
90.0
 51
180.0
  0
ARC
  5
784
100
AcDbEntity
  8
DRAFT
100
AcDbCircle
 62
7
  6
CONTINUOUS
 10
-106.40625
 20
46.8017151767
 40
10.0174603847
100
AcDbArc
 50
90.0
 51
180.0
  0
ARC
  5
785
100
AcDbEntity
  8
0
100
AcDbCircle
 62
7
  6
CONTINUOUS
 10
-106.40625
 20
46.8017151767
 40
9.0
100
AcDbArc
 50
90.0
 51
180.0
  0
ARC
  5
786
100
AcDbEntity
  8
0
100
AcDbCircle
 62
253
  6
CONTINUOUS
 10
-106.40625
 20
46.8017151767
 40
8.5
100
AcDbArc
 50
90.0
 51
180.0
  0
CIRCLE
  5
787
100
AcDbEntity
  8
0
100
AcDbCircle
 62
253
  6
CONTINUOUS
 10
-101.40625
 20
-13.1982848233
 40
3.2
  0
CIRCLE
  5
788
100
AcDbEntity
  8
0
100
AcDbCircle
 62
7
  6
CONTINUOUS
 10
-101.40625
 20
-13.1982848233
 40
3.0
  0
ARC
  5
789
100
AcDbEntity
  8
0
100
AcDbCircle
 62
7
  6
CONTINUOUS
 10
-76.40625
 20
-12.2307308233
 40
2.5499985399
100
AcDbArc
 50
357.7525290943
 51
182.2474708974
  0
CIRCLE
  5
78A
100
AcDbEntity
  8
0
100
AcDbCircle
 62
7
  6
CONTINUOUS
 10
-101.40625
 20
-13.1982848233
 40
2.5
  0
CIRCLE
  5
78B
100
AcDbEntity
  8
0
100
AcDbCircle
 62
253
  6
CONTINUOUS
 10
-101.40625
 20
-13.1982848233
 40
2.3
  0
ARC
  5
78C
100
AcDbEntity
  8
0
100
AcDbCircle
 62
7
  6
CONTINUOUS
 10
-76.40625
 20
-12.2307308233
 40
1.7999999246
100
AcDbArc
 50
0.2872950472
 51
183.1847386526
  0
ARC
  5
78D
100
AcDbEntity
  8
0
100
AcDbCircle
 62
253
  6
CONTINUOUS
 10
-103.50625
 20
10.1017151767
 40
0.9829242832
100
AcDbArc
 50
202.9281557029
 51
337.0718442971
  0
ARC
  5
78E
100
AcDbEntity
  8
0
100
AcDbCircle
 62
253
  6
CONTINUOUS
 10
-101.30625
 20
10.1017151767
 40
0.9829242832
100
AcDbArc
 50
202.9281557029
 51
337.0718442971
  0
ARC
  5
78F
100
AcDbEntity
  8
0
100
AcDbCircle
 62
253
  6
CONTINUOUS
 10
-101.30625
 20
20.5017151767
 40
0.9829242832
100
AcDbArc
 50
22.9281557029
 51
157.0718442971
  0
ARC
  5
790
100
AcDbEntity
  8
0
100
AcDbCircle
 62
253
  6
CONTINUOUS
 10
-103.50625
 20
20.5017151767
 40
0.9829242832
100
AcDbArc
 50
22.9281557029
 51
157.0718442971
  0
ARC
  5
791
100
AcDbEntity
  8
0
100
AcDbCircle
 62
7
  6
CONTINUOUS
 10
-103.50625
 20
20.5017151767
 40
0.4829433217
100
AcDbArc
 50
0.0
 51
180.0
  0
ARC
  5
792
100
AcDbEntity
  8
0
100
AcDbCircle
 62
7
  6
CONTINUOUS
 10
-101.30625
 20
20.5017151767
 40
0.4829433217
100
AcDbArc
 50
0.0
 51
180.0
  0
ARC
  5
793
100
AcDbEntity
  8
0
100
AcDbCircle
 62
7
  6
CONTINUOUS
 10
-103.50625
 20
10.1017151767
 40
0.4829433217
100
AcDbArc
 50
180.0
 51
360.0
  0
ARC
  5
794
100
AcDbEntity
  8
0
100
AcDbCircle
 62
7
  6
CONTINUOUS
 10
-101.30625
 20
10.1017151767
 40
0.4829433217
100
AcDbArc
 50
180.0
 51
360.0
  0
ARC
  5
795
100
AcDbEntity
  8
0
100
AcDbCircle
 62
7
  6
CONTINUOUS
 10
-101.30625
 20
20.5017151767
 40
0.4
100
AcDbArc
 50
0.0
 51
180.0
  0
ARC
  5
796
100
AcDbEntity
  8
0
100
AcDbCircle
 62
7
  6
CONTINUOUS
 10
-103.50625
 20
20.5017151767
 40
0.4
100
AcDbArc
 50
0.0
 51
180.0
  0
ARC
  5
797
100
AcDbEntity
  8
0
100
AcDbCircle
 62
7
  6
CONTINUOUS
 10
-101.30625
 20
10.1017151767
 40
0.4
100
AcDbArc
 50
180.0
 51
360.0
  0
ARC
  5
798
100
AcDbEntity
  8
0
100
AcDbCircle
 62
7
  6
CONTINUOUS
 10
-103.50625
 20
10.1017151767
 40
0.4
100
AcDbArc
 50
180.0
 51
360.0
  0
ARC
  5
799
100
AcDbEntity
  8
0
100
AcDbCircle
 62
7
  6
CONTINUOUS
 10
-2.40625
 20
-57.1982848233
 40
15.8
100
AcDbArc
 50
270.0
 51
360.0
  0
ARC
  5
79A
100
AcDbEntity
  8
0
100
AcDbCircle
 62
253
  6
CONTINUOUS
 10
-2.40625
 20
-57.1982848233
 40
15.2928932188
100
AcDbArc
 50
269.9999999884
 51
360.0
  0
ARC
  5
79B
100
AcDbEntity
  8
0
100
AcDbCircle
 62
253
  6
CONTINUOUS
 10
-2.40625
 20
-57.1982848233
 40
14.5857864376
100
AcDbArc
 50
270.0
 51
360.0
  0
ARC
  5
79C
100
AcDbEntity
  8
DRAFT
100
AcDbCircle
 62
7
  6
CONTINUOUS
 10
13.59375
 20
-73.1982848233
 40
10.0174603847
100
AcDbArc
 50
270.0
 51
360.0
  0
ARC
  5
79D
100
AcDbEntity
  8
0
100
AcDbCircle
 62
7
  6
CONTINUOUS
 10
13.59375
 20
-73.1982848233
 40
9.0
100
AcDbArc
 50
270.0
 51
360.0
  0
ARC
  5
79E
100
AcDbEntity
  8
0
100
AcDbCircle
 62
253
  6
CONTINUOUS
 10
13.59375
 20
-73.1982848233
 40
8.5
100
AcDbArc
 50
270.0
 51
360.0
  0
CIRCLE
  5
79F
100
AcDbEntity
  8
0
100
AcDbCircle
 62
253
  6
CONTINUOUS
 10
-46.40625
 20
-68.1982848233
 40
3.2
  0
CIRCLE
  5
7A0
100
AcDbEntity
  8
0
100
AcDbCircle
 62
7
  6
CONTINUOUS
 10
-46.40625
 20
-68.1982848233
 40
3.0
  0
ARC
  5
7A1
100
AcDbEntity
  8
0
100
AcDbCircle
 62
7
  6
CONTINUOUS
 10
-31.582437
 20
-13.3169698233
 40
2.6190759282
100
AcDbArc
 50
315.4348969444
 51
337.5658553844
  0
CIRCLE
  5
7A2
100
AcDbEntity
  8
0
100
AcDbCircle
 62
7
  6
CONTINUOUS
 10
-46.40625
 20
-68.1982848233
 40
2.5
  0
CIRCLE
  5
7A3
100
AcDbEntity
  8
0
100
AcDbCircle
 62
253
  6
CONTINUOUS
 10
-46.40625
 20
-68.1982848233
 40
2.3
  0
ARC
  5
7A4
100
AcDbEntity
  8
0
100
AcDbCircle
 62
253
  6
CONTINUOUS
 10
10.69375
 20
-36.4982848233
 40
0.9829242832
100
AcDbArc
 50
22.9281557029
 51
157.0718442971
  0
ARC
  5
7A5
100
AcDbEntity
  8
0
100
AcDbCircle
 62
253
  6
CONTINUOUS
 10
8.49375
 20
-36.4982848233
 40
0.9829242832
100
AcDbArc
 50
22.9281557029
 51
157.0718442971
  0
ARC
  5
7A6
100
AcDbEntity
  8
0
100
AcDbCircle
 62
253
  6
CONTINUOUS
 10
8.49375
 20
-46.8982848233
 40
0.9829242832
100
AcDbArc
 50
202.9281557029
 51
337.0718442971
  0
ARC
  5
7A7
100
AcDbEntity
  8
0
100
AcDbCircle
 62
253
  6
CONTINUOUS
 10
10.69375
 20
-46.8982848233
 40
0.9829242832
100
AcDbArc
 50
202.9281557029
 51
337.0718442971
  0
ARC
  5
7A8
100
AcDbEntity
  8
0
100
AcDbCircle
 62
7
  6
CONTINUOUS
 10
10.69375
 20
-46.8982848233
 40
0.4829433217
100
AcDbArc
 50
180.0
 51
360.0
  0
ARC
  5
7A9
100
AcDbEntity
  8
0
100
AcDbCircle
 62
7
  6
CONTINUOUS
 10
8.49375
 20
-46.8982848233
 40
0.4829433217
100
AcDbArc
 50
180.0
 51
360.0
  0
ARC
  5
7AA
100
AcDbEntity
  8
0
100
AcDbCircle
 62
7
  6
CONTINUOUS
 10
10.69375
 20
-36.4982848233
 40
0.4829433217
100
AcDbArc
 50
0.0
 51
180.0
  0
ARC
  5
7AB
100
AcDbEntity
  8
0
100
AcDbCircle
 62
7
  6
CONTINUOUS
 10
8.49375
 20
-36.4982848233
 40
0.4829433217
100
AcDbArc
 50
0.0
 51
180.0
  0
ARC
  5
7AC
100
AcDbEntity
  8
0
100
AcDbCircle
 62
7
  6
CONTINUOUS
 10
8.49375
 20
-46.8982848233
 40
0.4
100
AcDbArc
 50
180.0
 51
360.0
  0
ARC
  5
7AD
100
AcDbEntity
  8
0
100
AcDbCircle
 62
7
  6
CONTINUOUS
 10
10.69375
 20
-46.8982848233
 40
0.4
100
AcDbArc
 50
180.0
 51
360.0
  0
ARC
  5
7AE
100
AcDbEntity
  8
0
100
AcDbCircle
 62
7
  6
CONTINUOUS
 10
8.49375
 20
-36.4982848233
 40
0.4
100
AcDbArc
 50
0.0
 51
180.0
  0
ARC
  5
7AF
100
AcDbEntity
  8
0
100
AcDbCircle
 62
7
  6
CONTINUOUS
 10
10.69375
 20
-36.4982848233
 40
0.4
100
AcDbArc
 50
0.0
 51
180.0
  0
CIRCLE
  5
7B0
100
AcDbEntity
  8
0
100
AcDbCircle
 62
7
  6
CONTINUOUS
 10
-46.40625
 20
-13.1982848233
 40
3.2403703492
  0
ARC
  5
7B1
100
AcDbEntity
  8
0
100
AcDbCircle
 62
7
  6
CONTINUOUS
 10
-26.40625
 20
-13.1982848233
 40
2.9735749324
100
AcDbArc
 50
202.0885431658
 51
183.4298241508
  0
ARC
  5
7B2
100
AcDbEntity
  8
0
100
AcDbCircle
 62
7
  6
CONTINUOUS
 10
-32.011822
 20
-13.1083468233
 40
2.6508884458
100
AcDbArc
 50
317.2312789315
 51
354.2011723825
  0
CIRCLE
  5
7B3
100
AcDbEntity
  8
0
100
AcDbCircle
 62
7
  6
CONTINUOUS
 10
-26.40625
 20
-13.1982848233
 40
2.497595
  0
ARC
  5
7B4
100
AcDbEntity
  8
0
100
AcDbCircle
 62
7
  6
CONTINUOUS
 10
-26.40625
 20
-13.1982848233
 40
2.2337503191
100
AcDbArc
 50
209.3041411838
 51
314.9957558872
  0
ARC
  5
7B5
100
AcDbEntity
  8
0
100
AcDbCircle
 62
7
  6
CONTINUOUS
 10
-26.40625
 20
-13.1982848233
 40
2.2337501706
100
AcDbArc
 50
44.9002628452
 51
150.6958588162
  0
ARC
  5
7B6
100
AcDbEntity
  8
0
100
AcDbCircle
 62
7
  6
CONTINUOUS
 10
-26.40625
 20
-13.1982848233
 40
1.7896378839
100
AcDbArc
 50
209.3041347443
 51
301.9732647944
  0
ARC
  5
7B7
100
AcDbEntity
  8
0
100
AcDbCircle
 62
7
  6
CONTINUOUS
 10
-26.40625
 20
-13.1982848233
 40
1.78963742
100
AcDbArc
 50
58.02673736
 51
150.6958652557
  0
CIRCLE
  5
7B8
100
AcDbEntity
  8
0
100
AcDbCircle
 62
253
  6
CONTINUOUS
 10
-46.40625
 20
41.8017151767
 40
3.2
  0
CIRCLE
  5
7B9
100
AcDbEntity
  8
0
100
AcDbCircle
 62
7
  6
CONTINUOUS
 10
-46.40625
 20
41.8017151767
 40
3.0
  0
CIRCLE
  5
7BA
100
AcDbEntity
  8
0
100
AcDbCircle
 62
7
  6
CONTINUOUS
 10
-46.40625
 20
41.8017151767
 40
2.5
  0
CIRCLE
  5
7BB
100
AcDbEntity
  8
0
100
AcDbCircle
 62
253
  6
CONTINUOUS
 10
-46.40625
 20
41.8017151767
 40
2.3
  0
CIRCLE
  5
7BC
100
AcDbEntity
  8
0
100
AcDbCircle
 62
253
  6
CONTINUOUS
 10
8.59375
 20
-13.1982848233
 40
3.2
  0
CIRCLE
  5
7BD
100
AcDbEntity
  8
0
100
AcDbCircle
 62
7
  6
CONTINUOUS
 10
8.59375
 20
-13.1982848233
 40
3.0
  0
CIRCLE
  5
7BE
100
AcDbEntity
  8
0
100
AcDbCircle
 62
7
  6
CONTINUOUS
 10
8.59375
 20
-13.1982848233
 40
2.5
  0
CIRCLE
  5
7BF
100
AcDbEntity
  8
0
100
AcDbCircle
 62
253
  6
CONTINUOUS
 10
8.59375
 20
-13.1982848233
 40
2.3
  0
ARC
  5
7C0
100
AcDbEntity
  8
0
100
AcDbCircle
 62
253
  6
CONTINUOUS
 10
8.49375
 20
10.1017151767
 40
0.9829242832
100
AcDbArc
 50
202.9281557029
 51
337.0718442971
  0
ARC
  5
7C1
100
AcDbEntity
  8
0
100
AcDbCircle
 62
253
  6
CONTINUOUS
 10
10.69375
 20
10.1017151767
 40
0.9829242832
100
AcDbArc
 50
202.9281557029
 51
337.0718442971
  0
ARC
  5
7C2
100
AcDbEntity
  8
0
100
AcDbCircle
 62
7
  6
CONTINUOUS
 10
10.69375
 20
10.1017151767
 40
0.4829433217
100
AcDbArc
 50
180.0
 51
360.0
  0
ARC
  5
7C3
100
AcDbEntity
  8
0
100
AcDbCircle
 62
7
  6
CONTINUOUS
 10
8.49375
 20
10.1017151767
 40
0.4829433217
100
AcDbArc
 50
180.0
 51
360.0
  0
ARC
  5
7C4
100
AcDbEntity
  8
0
100
AcDbCircle
 62
7
  6
CONTINUOUS
 10
8.49375
 20
10.1017151767
 40
0.4
100
AcDbArc
 50
180.0
 51
360.0
  0
ARC
  5
7C5
100
AcDbEntity
  8
0
100
AcDbCircle
 62
7
  6
CONTINUOUS
 10
10.69375
 20
10.1017151767
 40
0.4
100
AcDbArc
 50
180.0
 51
360.0
  0
ARC
  5
7C6
100
AcDbEntity
  8
0
100
AcDbCircle
 62
7
  6
CONTINUOUS
 10
-2.40625
 20
30.8017151767
 40
15.8
100
AcDbArc
 50
0.0
 51
90.0
  0
ARC
  5
7C7
100
AcDbEntity
  8
0
100
AcDbCircle
 62
253
  6
CONTINUOUS
 10
-2.40625
 20
30.8017151767
 40
15.2928932188
100
AcDbArc
 50
0.0
 51
90.0000000095
  0
ARC
  5
7C8
100
AcDbEntity
  8
0
100
AcDbCircle
 62
253
  6
CONTINUOUS
 10
-2.40625
 20
30.8017151767
 40
14.5857864376
100
AcDbArc
 50
0.0
 51
90.0
  0
ARC
  5
7C9
100
AcDbEntity
  8
DRAFT
100
AcDbCircle
 62
7
  6
CONTINUOUS
 10
13.59375
 20
46.8017151767
 40
10.0174603847
100
AcDbArc
 50
0.0
 51
90.0
  0
ARC
  5
7CA
100
AcDbEntity
  8
0
100
AcDbCircle
 62
7
  6
CONTINUOUS
 10
13.59375
 20
46.8017151767
 40
9.0
100
AcDbArc
 50
0.0
 51
90.0
  0
ARC
  5
7CB
100
AcDbEntity
  8
0
100
AcDbCircle
 62
253
  6
CONTINUOUS
 10
13.59375
 20
46.8017151767
 40
8.5
100
AcDbArc
 50
0.0
 51
90.0
  0
ARC
  5
7CC
100
AcDbEntity
  8
0
100
AcDbCircle
 62
253
  6
CONTINUOUS
 10
10.69375
 20
20.5017151767
 40
0.9829242832
100
AcDbArc
 50
22.9281557029
 51
157.0718442971
  0
ARC
  5
7CD
100
AcDbEntity
  8
0
100
AcDbCircle
 62
253
  6
CONTINUOUS
 10
8.49375
 20
20.5017151767
 40
0.9829242832
100
AcDbArc
 50
22.9281557029
 51
157.0718442971
  0
ARC
  5
7CE
100
AcDbEntity
  8
0
100
AcDbCircle
 62
7
  6
CONTINUOUS
 10
10.69375
 20
20.5017151767
 40
0.4829433217
100
AcDbArc
 50
0.0
 51
180.0
  0
ARC
  5
7CF
100
AcDbEntity
  8
0
100
AcDbCircle
 62
7
  6
CONTINUOUS
 10
8.49375
 20
20.5017151767
 40
0.4829433217
100
AcDbArc
 50
0.0
 51
180.0
  0
ARC
  5
7D0
100
AcDbEntity
  8
0
100
AcDbCircle
 62
7
  6
CONTINUOUS
 10
8.49375
 20
20.5017151767
 40
0.4
100
AcDbArc
 50
0.0
 51
180.0
  0
ARC
  5
7D1
100
AcDbEntity
  8
0
100
AcDbCircle
 62
7
  6
CONTINUOUS
 10
10.69375
 20
20.5017151767
 40
0.4
100
AcDbArc
 50
0.0
 51
180.0
  0
SPLINE
  5
7D2
100
AcDbEntity
  8
0
100
AcDbSpline
 62
7
  6
CONTINUOUS
 70
0
 71
3
 72
14
 73
10
 74
8
 42
0.0000001
 43
0.0000001
 44
0.0000000001
 12
-1.3681851715
 22
-0.0369179298
 32
0.0
 13
-0.0337111178
 23
1.3682681027
 33
0.0
 40
0.0
 40
0.0
 40
0.0
 40
0.0
 40
0.1229421042
 40
0.2742267431
 40
0.4101340346
 40
0.6067731072
 40
0.753513468
 40
0.8655865034
 40
1.0
 40
1.0
 40
1.0
 40
1.0
 10
-14.40625
 20
-7.6304757917
 30
0.0
 10
-14.462319188
 20
-7.6319887144
 30
0.0
 10
-14.5877082187
 20
-7.6276741686
 30
0.0
 10
-14.7728562703
 20
-7.5976989844
 30
0.0
 10
-14.9858370036
 20
-7.536587528
 30
0.0
 10
-15.1749371082
 20
-7.415400548
 30
0.0
 10
-15.301798561
 20
-7.246675052
 30
0.0
 10
-15.3685809981
 20
-7.0787591944
 30
0.0
 10
-15.3850407918
 20
-6.9660971583
 30
0.0
 10
-15.3865512015
 20
-6.9047925916
 30
0.0
 11
-14.40625
 21
-7.6304757917
 31
0.0
 11
-14.5744283259
 21
-7.6249589377
 31
0.0
 11
-14.7789026486
 21
-7.5923337861
 31
0.0
 11
-14.9565674282
 21
-7.5372298637
 31
0.0
 11
-15.1815613627
 21
-7.3895402155
 31
0.0
 11
-15.3024105338
 21
-7.2291263457
 31
0.0
 11
-15.3595354832
 21
-7.0867676721
 31
0.0
 11
-15.3865512015
 21
-6.9047925916
 31
0.0
  0
SPLINE
  5
7D3
100
AcDbEntity
  8
0
100
AcDbSpline
 62
7
  6
CONTINUOUS
 70
0
 71
3
 72
14
 73
10
 74
8
 42
0.0000001
 43
0.0000001
 44
0.0000000001
 12
-0.0337111178
 22
-1.3682681027
 32
0.0
 13
-1.3681851715
 23
0.0369179298
 33
0.0
 40
0.0
 40
0.0
 40
0.0
 40
0.0
 40
0.1344134966
 40
0.246486532
 40
0.3932268928
 40
0.5898659654
 40
0.7257732569
 40
0.8770578958
 40
1.0
 40
1.0
 40
1.0
 40
1.0
 10
-13.4259487985
 20
-6.9047925916
 30
0.0
 10
-13.4274592082
 20
-6.9660971583
 30
0.0
 10
-13.4439190019
 20
-7.0787591944
 30
0.0
 10
-13.510701439
 20
-7.246675052
 30
0.0
 10
-13.6375628918
 20
-7.415400548
 30
0.0
 10
-13.8266629964
 20
-7.536587528
 30
0.0
 10
-14.0396437297
 20
-7.5976989844
 30
0.0
 10
-14.2247917813
 20
-7.6276741686
 30
0.0
 10
-14.350180812
 20
-7.6319887144
 30
0.0
 10
-14.40625
 20
-7.6304757917
 30
0.0
 11
-13.4259487985
 21
-6.9047925916
 31
0.0
 11
-13.4529645168
 21
-7.0867676721
 31
0.0
 11
-13.5100894662
 21
-7.2291263457
 31
0.0
 11
-13.6309386373
 21
-7.3895402155
 31
0.0
 11
-13.8559325718
 21
-7.5372298637
 31
0.0
 11
-14.0335973514
 21
-7.5923337861
 31
0.0
 11
-14.2380716741
 21
-7.6249589377
 31
0.0
 11
-14.40625
 21
-7.6304757917
 31
0.0
  0
SPLINE
  5
7D4
100
AcDbEntity
  8
0
100
AcDbSpline
 62
7
  6
CONTINUOUS
 70
0
 71
3
 72
15
 73
11
 74
9
 42
0.0000001
 43
0.0000001
 44
0.0000000001
 12
-0.0086206675
 22
-1.8770136322
 32
0.0
 13
1.8767544578
 23
0.0323604139
 33
0.0
 40
0.0
 40
0.0
 40
0.0
 40
0.0
 40
0.1666104649
 40
0.3201400637
 40
0.432791991
 40
0.5473463999
 40
0.6677209668
 40
0.7950987643
 40
0.8857287116
 40
1.0
 40
1.0
 40
1.0
 40
1.0
 10
-15.68125
 20
-6.9135574011
 30
0.0
 10
-15.6817287645
 20
-7.0178007724
 30
0.0
 10
-15.6567268682
 20
-7.2192390981
 30
0.0
 10
-15.5476479397
 20
-7.4724478081
 30
0.0
 10
-15.3912148787
 20
-7.6542905405
 30
0.0
 10
-15.2228599732
 20
-7.7947293247
 30
0.0
 10
-15.0153663694
 20
-7.8902655365
 30
0.0
 10
-14.8125474494
 20
-7.9533360686
 30
0.0
 10
-14.6061676953
 20
-7.9828409274
 30
0.0
 10
-14.4777363833
 20
-7.9861746894
 30
0.0
 10
-14.40625
 20
-7.9849420674
 30
0.0
 11
-15.68125
 21
-6.9135574011
 31
0.0
 11
-15.6406232309
 21
-7.2236407008
 31
0.0
 11
-15.5232799232
 21
-7.4868485455
 31
0.0
 11
-15.3878917307
 21
-7.649273131
 31
0.0
 11
-15.220744541
 21
-7.7845375871
 31
0.0
 11
-15.0178169228
 21
-7.8838978783
 31
0.0
 11
-14.7889046704
 21
-7.9529221403
 31
0.0
 11
-14.6206232309
 21
-7.9778343926
 31
0.0
 11
-14.40625
 21
-7.9849420674
 31
0.0
  0
SPLINE
  5
7D5
100
AcDbEntity
  8
0
100
AcDbSpline
 62
7
  6
CONTINUOUS
 70
0
 71
3
 72
15
 73
11
 74
9
 42
0.0000001
 43
0.0000001
 44
0.0000000001
 12
1.8660091923
 22
-0.0321751359
 32
0.0
 13
0.0085680454
 23
1.8662668978
 33
0.0
 40
0.0
 40
0.0
 40
0.0
 40
0.0
 40
0.1149293105
 40
0.2060811432
 40
0.3341924356
 40
0.4552601699
 40
0.5704742312
 40
0.6837748557
 40
0.8381885424
 40
1.0
 40
1.0
 40
1.0
 40
1.0
 10
-14.40625
 20
-7.9849420674
 30
0.0
 10
-14.3347636167
 20
-7.9861746894
 30
0.0
 10
-14.206332302
 20
-7.9828409217
 30
0.0
 10
-13.9999525595
 20
-7.9533360868
 30
0.0
 10
-13.7971335832
 20
-7.890265439
 30
0.0
 10
-13.589640188
 20
-7.7947296558
 30
0.0
 10
-13.4212845552
 20
-7.6542893781
 30
0.0
 10
-13.2648544553
 20
-7.4724527264
 30
0.0
 10
-13.1572032587
 20
-7.2225623531
 30
0.0
 10
-13.131712136
 20
-7.0250605464
 30
0.0
 10
-13.13125
 20
-6.924399424
 30
0.0
 11
-14.40625
 21
-7.9849420674
 31
0.0
 11
-14.1918767691
 21
-7.9778343926
 31
0.0
 11
-14.0235953296
 21
-7.9529221403
 31
0.0
 11
-13.7946830772
 21
-7.8838978783
 31
0.0
 11
-13.591755459
 21
-7.7845375871
 31
0.0
 11
-13.4246082693
 21
-7.649273131
 31
0.0
 11
-13.2892200768
 21
-7.4868485455
 31
0.0
 11
-13.1718767691
 21
-7.2236407008
 31
0.0
 11
-13.13125
 21
-6.924399424
 31
0.0
  0
SPLINE
  5
7D6
100
AcDbEntity
  8
0
100
AcDbSpline
 62
7
  6
CONTINUOUS
 70
0
 71
3
 72
9
 73
5
 74
3
 42
0.0000001
 43
0.0000001
 44
0.0000000001
 12
0.146164801
 22
-0.8565961247
 32
0.0
 13
-0.1001917717
 23
-0.8631817183
 33
0.0
 40
0.0
 40
0.0
 40
0.0
 40
0.0
 40
0.2703953699
 40
1.0
 40
1.0
 40
1.0
 40
1.0
 10
-4.6473786167
 20
-20.873660741
 30
0.0
 10
-4.6342045215
 20
-20.950867283
 30
0.0
 10
-4.5908759726
 20
-21.2372926717
 30
0.0
 10
-4.5918165863
 20
-21.5303253736
 30
0.0
 10
-4.6161833798
 20
-21.7402524997
 30
0.0
 11
-4.6473786167
 21
-20.873660741
 31
0.0
 11
-4.6140095238
 21
-21.1062465656
 31
0.0
 11
-4.6161833798
 21
-21.7402524997
 31
0.0
  0
SPLINE
  5
7D7
100
AcDbEntity
  8
0
100
AcDbSpline
 62
7
  6
CONTINUOUS
 70
0
 71
3
 72
9
 73
5
 74
3
 42
0.0000001
 43
0.0000001
 44
0.0000000001
 12
-0.1126304985
 22
-0.9701181605
 32
0.0
 13
-0.9765150305
 23
-0.0152731726
 33
0.0
 40
0.0
 40
0.0
 40
0.0
 40
0.0
 40
0.5013510385
 40
1.0
 40
1.0
 40
1.0
 40
1.0
 10
-4.6161833798
 20
-21.7402524997
 30
0.0
 10
-4.6350058522
 20
-21.9023757488
 30
0.0
 10
-4.7777789296
 20
-22.2302889587
 30
0.0
 10
-5.1163223626
 20
-22.3625723264
 30
0.0
 10
-5.2786350979
 20
-22.365110977
 30
0.0
 11
-4.6161833798
 21
-21.7402524997
 31
0.0
 11
-4.827372153
 21
-22.1820028843
 31
0.0
 11
-5.2786350979
 21
-22.365110977
 31
0.0
  0
SPLINE
  5
7D8
100
AcDbEntity
  8
0
100
AcDbSpline
 62
7
  6
CONTINUOUS
 70
0
 71
3
 72
10
 73
6
 74
4
 42
0.0000001
 43
0.0000001
 44
0.0000000001
 12
-1.3396015497
 22
-0.020670461
 32
0.0
 13
-0.0299170767
 23
1.3394269478
 33
0.0
 40
0.0
 40
0.0
 40
0.0
 40
0.0
 40
0.2929210355
 40
0.5275938042
 40
1.0
 40
1.0
 40
1.0
 40
1.0
 10
-5.2786350979
 20
-22.365110977
 30
0.0
 10
-5.4094342556
 20
-22.3671292479
 30
0.0
 10
-5.6524917102
 20
-22.3389166751
 30
0.0
 10
-6.0284115736
 20
-22.0616473264
 30
0.0
 10
-6.0974386082
 20
-21.7167490858
 30
0.0
 10
-6.1021496123
 20
-21.5058312228
 30
0.0
 11
-5.2786350979
 21
-22.365110977
 31
0.0
 11
-5.66553986
 21
-22.2994060093
 31
0.0
 11
-5.9173675078
 21
-22.1111678401
 31
0.0
 11
-6.1021496123
 21
-21.5058312228
 31
0.0
  0
SPLINE
  5
7D9
100
AcDbEntity
  8
0
100
AcDbSpline
 62
7
  6
CONTINUOUS
 70
0
 71
3
 72
22
 73
18
 74
16
 42
0.0000001
 43
0.0000001
 44
0.0000000001
 12
0.4230884145
 22
-3.2789352127
 32
0.0
 13
1.1219210453
 23
3.1099377974
 33
0.0
 40
0.0
 40
0.0
 40
0.0
 40
0.0
 40
0.0193978565
 40
0.056106175
 40
0.1687262153
 40
0.2404571126
 40
0.321336434
 40
0.4124791122
 40
0.4627695054
 40
0.5167962471
 40
0.5603807671
 40
0.6015359883
 40
0.6776397736
 40
0.747003664
 40
0.8106044552
 40
0.9201510205
 40
1.0
 40
1.0
 40
1.0
 40
1.0
 10
-6.5389226677
 20
-22.6525442869
 30
0.0
 10
-6.5361869983
 20
-22.6737457252
 30
0.0
 10
-6.505666051
 20
-22.7297470813
 30
0.0
 10
-6.4077777112
 20
-22.8859177159
 30
0.0
 10
-6.2316296933
 20
-23.0618695599
 30
0.0
 10
-5.9882884011
 20
-23.2246015586
 30
0.0
 10
-5.7407424202
 20
-23.33328951
 30
0.0
 10
-5.5001699427
 20
-23.3876317383
 30
0.0
 10
-5.2851461393
 20
-23.404440319
 30
0.0
 10
-5.1219096009
 20
-23.4014826273
 30
0.0
 10
-4.9696533922
 20
-23.385411057
 30
0.0
 10
-4.7954618335
 20
-23.3516370286
 30
0.0
 10
-4.5990510678
 20
-23.2870458869
 30
0.0
 10
-4.3945750168
 20
-23.1786467524
 30
0.0
 10
-4.1802031124
 20
-23.0174553415
 30
0.0
 10
-3.9940127737
 20
-22.8060894288
 30
0.0
 10
-3.8921532823
 20
-22.6212680312
 30
0.0
 10
-3.8622918654
 20
-22.5384929114
 30
0.0
 11
-6.5389226677
 21
-22.6525442869
 31
0.0
 11
-6.5148400817
 21
-22.7119824304
 31
0.0
 11
-6.4498634953
 21
-22.8144850702
 31
0.0
 11
-6.190748059
 21
-23.0818662508
 31
0.0
 11
-5.9933746962
 21
-23.2133359501
 31
0.0
 11
-5.7486338127
 21
-23.3210525007
 31
0.0
 11
-5.4549075902
 21
-23.3883114867
 31
0.0
 11
-5.2891694086
 21
-23.4015492629
 31
0.0
 11
-5.1105782103
 21
-23.398408492
 31
0.0
 11
-4.9673067969
 21
-23.3830188443
 31
0.0
 11
-4.8337518397
 21
-23.3570092956
 31
0.0
 11
-4.594920448
 21
-23.2778498297
 31
0.0
 11
-4.3923423426
 21
-23.1703687646
 31
0.0
 11
-4.2242758307
 21
-23.0440047706
 31
0.0
 11
-3.9847108169
 21
-22.772382677
 31
0.0
 11
-3.8622918654
 21
-22.5384929114
 31
0.0
  0
SPLINE
  5
7DA
100
AcDbEntity
  8
0
100
AcDbSpline
 62
7
  6
CONTINUOUS
 70
0
 71
3
 72
9
 73
5
 74
3
 42
0.0000001
 43
0.0000001
 44
0.0000000001
 12
0.9338903049
 22
2.5849693333
 32
0.0
 13
-0.4000442345
 23
2.7192245524
 33
0.0
 40
0.0
 40
0.0
 40
0.0
 40
0.0
 40
0.2957417834
 40
1.0
 40
1.0
 40
1.0
 40
1.0
 10
-3.8622918654
 20
-22.5384929114
 30
0.0
 10
-3.770228404
 20
-22.2836650978
 30
0.0
 10
-3.6201594746
 20
-21.3677133718
 30
0.0
 10
-3.7125866117
 20
-20.4469570522
 30
0.0
 10
-3.8064980914
 20
-19.808611641
 30
0.0
 11
-3.8622918654
 21
-22.5384929114
 31
0.0
 11
-3.7026745809
 21
-21.7414744787
 31
0.0
 11
-3.8064980914
 21
-19.808611641
 31
0.0
  0
SPLINE
  5
7DB
100
AcDbEntity
  8
0
100
AcDbSpline
 62
7
  6
CONTINUOUS
 70
0
 71
3
 72
9
 73
5
 74
3
 42
0.0000001
 43
0.0000001
 44
0.0000000001
 12
0.0
 22
-0.8125178914
 32
0.0
 13
-0.7607121904
 23
-0.2854860541
 33
0.0
 40
0.0
 40
0.0
 40
0.0
 40
0.0
 40
0.3559141631
 40
1.0
 40
1.0
 40
1.0
 40
1.0
 10
-6.9700527631
 20
-21.5034468735
 30
0.0
 10
-6.9700527631
 20
-21.5998424153
 30
0.0
 10
-7.0284233217
 20
-21.8771465388
 30
0.0
 10
-7.2736665214
 20
-22.0593034466
 30
0.0
 10
-7.4369878374
 20
-22.1205959547
 30
0.0
 11
-6.9700527631
 21
-21.5034468735
 31
0.0
 11
-7.0352746517
 21
-21.7851825821
 31
0.0
 11
-7.4369878374
 21
-22.1205959547
 31
0.0
  0
SPLINE
  5
7DC
100
AcDbEntity
  8
0
100
AcDbSpline
 62
7
  6
CONTINUOUS
 70
0
 71
3
 72
10
 73
6
 74
4
 42
0.0000001
 43
0.0000001
 44
0.0000000001
 12
-1.5710474169
 22
-0.5902207522
 32
0.0
 13
-1.612920702
 23
-0.4637211784
 33
0.0
 40
0.0
 40
0.0
 40
0.0
 40
0.0
 40
0.2222335178
 40
0.5586349063
 40
1.0
 40
1.0
 40
1.0
 40
1.0
 10
-7.4369878374
 20
-22.1205959547
 30
0.0
 10
-7.5533676354
 20
-22.1643182327
 30
0.0
 10
-7.8533924463
 20
-22.2530299226
 30
0.0
 10
-8.3886116861
 20
-22.4150764425
 30
0.0
 10
-8.8066244262
 20
-22.5360775053
 30
0.0
 10
-9.0439200585
 20
-22.6043009525
 30
0.0
 11
-7.4369878374
 21
-22.1205959547
 31
0.0
 11
-7.7919131352
 21
-22.2351869135
 31
0.0
 11
-8.3327580708
 21
-22.3971258339
 31
0.0
 11
-9.0439200585
 21
-22.6043009525
 31
0.0
  0
SPLINE
  5
7DD
100
AcDbEntity
  8
0
100
AcDbSpline
 62
7
  6
CONTINUOUS
 70
0
 71
3
 72
9
 73
5
 74
3
 42
0.0000001
 43
0.0000001
 44
0.0000000001
 12
1.431462676
 22
0.3887812083
 32
0.0
 13
1.431155424
 23
0.3899107246
 33
0.0
 40
0.0
 40
0.0
 40
0.0
 40
0.0
 40
0.1980141723
 40
1.0
 40
1.0
 40
1.0
 40
1.0
 10
-9.0439200585
 20
-23.6683168345
 30
0.0
 10
-8.9494367595
 20
-23.6426554381
 30
0.0
 10
-8.4712100173
 20
-23.5170544012
 30
0.0
 10
-7.9922035169
 20
-23.3943933248
 30
0.0
 10
-7.6096147278
 20
-23.290159033
 30
0.0
 11
-9.0439200585
 21
-23.6683168345
 31
0.0
 11
-8.7600148404
 21
-23.593029142
 31
0.0
 11
-7.6096147278
 21
-23.290159033
 31
0.0
  0
SPLINE
  5
7DE
100
AcDbEntity
  8
0
100
AcDbSpline
 62
7
  6
CONTINUOUS
 70
0
 71
3
 72
9
 73
5
 74
3
 42
0.0000001
 43
0.0000001
 44
0.0000000001
 12
1.2063474196
 22
0.3286453689
 32
0.0
 13
0.4631027199
 23
1.1613861314
 33
0.0
 40
0.0
 40
0.0
 40
0.0
 40
0.0
 40
0.4982934755
 40
1.0
 40
1.0
 40
1.0
 40
1.0
 10
-7.6096147278
 20
-23.290159033
 30
0.0
 10
-7.409243045
 20
-23.235571752
 30
0.0
 10
-7.0079630495
 20
-23.1381351855
 30
0.0
 10
-6.6476843408
 20
-22.8467692868
 30
0.0
 10
-6.5702371221
 20
-22.6525442869
 30
0.0
 11
-7.6096147278
 21
-23.290159033
 31
0.0
 11
-7.0195131092
 21
-23.0903157886
 31
0.0
 11
-6.5702371221
 21
-22.6525442869
 31
0.0
  0
SPLINE
  5
7DF
100
AcDbEntity
  8
0
100
AcDbSpline
 62
253
  6
CONTINUOUS
 70
0
 71
3
 72
15
 73
11
 74
9
 42
0.0000001
 43
0.0000001
 44
0.0000000001
 12
-1.2043018064
 22
-0.17194345
 32
0.0
 13
0.1720417212
 23
1.2042877717
 33
0.0
 40
0.0
 40
0.0
 40
0.0
 40
0.0
 40
0.12463123
 40
0.2495269767
 40
0.3746946941
 40
0.4999980918
 40
0.6253015944
 40
0.7504702474
 40
0.8753674984
 40
1.0
 40
1.0
 40
1.0
 40
1.0
 10
-57.1526765459
 20
-56.1518361333
 30
0.0
 10
-57.202707751
 20
-56.1589793079
 30
0.0
 10
-57.3038688748
 20
-56.1675476544
 30
0.0
 10
-57.4562314612
 20
-56.1565214189
 30
0.0
 10
-57.6036339954
 20
-56.11197922
 30
0.0
 10
-57.7316537119
 20
-56.0236783911
 30
0.0
 10
-57.8199561907
 20
-55.8956585991
 30
0.0
 10
-57.8644910976
 20
-55.7482515398
 30
0.0
 10
-57.8755040899
 20
-55.5958878019
 30
0.0
 10
-57.8669467803
 20
-55.4947244843
 30
0.0
 10
-57.8597994503
 20
-55.4446933518
 30
0.0
 11
-57.1526765459
 21
-56.1518361333
 31
0.0
 11
-57.3038375635
 21
-56.1635691904
 31
0.0
 11
-57.4552511661
 21
-56.1509628936
 31
0.0
 11
-57.6003276748
 21
-56.1047194858
 31
0.0
 11
-57.7250317145
 21
-56.0170562561
 31
0.0
 11
-57.8126947732
 21
-55.8923519404
 31
0.0
 11
-57.8589315052
 21
-55.7472721092
 31
0.0
 11
-57.8715305883
 21
-55.5958560699
 31
0.0
 11
-57.8597994503
 21
-55.4446933518
 31
0.0
  0
SPLINE
  5
7E0
100
AcDbEntity
  8
0
100
AcDbSpline
 62
253
  6
CONTINUOUS
 70
0
 71
3
 72
11
 73
7
 74
5
 42
0.0000001
 43
0.0000001
 44
0.0000000001
 12
-1.0375927036
 22
0.2080380024
 32
0.0
 13
-0.2082726629
 23
1.0375456264
 33
0.0
 40
0.0
 40
0.0
 40
0.0
 40
0.0
 40
0.2488387626
 40
0.5000010441
 40
0.7511592399
 40
1.0
 40
1.0
 40
1.0
 40
1.0
 10
-56.8456133548
 20
-55.8447259046
 30
0.0
 10
-56.9316777829
 20
-55.8274699316
 30
0.0
 10
-57.1010471084
 20
-55.7690729339
 30
0.0
 10
-57.3182862927
 20
-55.6103054074
 30
0.0
 10
-57.4770815876
 20
-55.3930694183
 30
0.0
 10
-57.5354210334
 20
-55.2236858662
 30
0.0
 10
-57.5526966093
 20
-55.1376246521
 30
0.0
 11
-56.8456133548
 21
-55.8447259046
 31
0.0
 11
-57.0941258542
 21
-55.7576326948
 31
0.0
 11
-57.3085164928
 21
-55.6005296213
 31
0.0
 11
-57.4656214325
 21
-55.3861457104
 31
0.0
 11
-57.5526966093
 21
-55.1376246521
 31
0.0
  0
SPLINE
  5
7E1
100
AcDbEntity
  8
0
100
AcDbSpline
 62
253
  6
CONTINUOUS
 70
0
 71
3
 72
15
 73
11
 74
9
 42
0.0000001
 43
0.0000001
 44
0.0000000001
 12
-0.17194345
 22
1.2043018064
 32
0.0
 13
1.2042877717
 23
-0.1720417212
 33
0.0
 40
0.0
 40
0.0
 40
0.0
 40
0.0
 40
0.12463123
 40
0.2495269767
 40
0.3746946941
 40
0.4999980918
 40
0.6253015944
 40
0.7504702474
 40
0.8753674984
 40
1.0
 40
1.0
 40
1.0
 40
1.0
 10
-57.85980131
 20
-53.4518582774
 30
0.0
 10
-57.8669444846
 20
-53.4018270722
 30
0.0
 10
-57.8755128311
 20
-53.3006659485
 30
0.0
 10
-57.8644865956
 20
-53.1483033621
 30
0.0
 10
-57.8199443967
 20
-53.0009008279
 30
0.0
 10
-57.7316435678
 20
-52.8728811113
 30
0.0
 10
-57.6036237758
 20
-52.7845786326
 30
0.0
 10
-57.4562167165
 20
-52.7400437256
 30
0.0
 10
-57.3038529787
 20
-52.7290307334
 30
0.0
 10
-57.202689661
 20
-52.737588043
 30
0.0
 10
-57.1526585285
 20
-52.744735373
 30
0.0
 11
-57.85980131
 21
-53.4518582774
 31
0.0
 11
-57.8715343671
 21
-53.3006972598
 31
0.0
 11
-57.8589280703
 21
-53.1492836572
 31
0.0
 11
-57.8126846625
 21
-53.0042071484
 31
0.0
 11
-57.7250214328
 21
-52.8795031088
 31
0.0
 11
-57.6003171171
 21
-52.7918400501
 31
0.0
 11
-57.4552372859
 21
-52.7456033181
 31
0.0
 11
-57.3038212466
 21
-52.733004235
 31
0.0
 11
-57.1526585285
 21
-52.744735373
 31
0.0
  0
SPLINE
  5
7E2
100
AcDbEntity
  8
0
100
AcDbSpline
 62
253
  6
CONTINUOUS
 70
0
 71
3
 72
11
 73
7
 74
5
 42
0.0000001
 43
0.0000001
 44
0.0000000001
 12
0.2080380024
 22
1.0375927036
 32
0.0
 13
1.0375456264
 23
0.2082726629
 33
0.0
 40
0.0
 40
0.0
 40
0.0
 40
0.0
 40
0.2488387626
 40
0.5000010441
 40
0.7511592399
 40
1.0
 40
1.0
 40
1.0
 40
1.0
 10
-57.5526910813
 20
-53.7589214685
 30
0.0
 10
-57.5354351083
 20
-53.6728570404
 30
0.0
 10
-57.4770381106
 20
-53.5034877149
 30
0.0
 10
-57.3182705842
 20
-53.2862485305
 30
0.0
 10
-57.1010345951
 20
-53.1274532357
 30
0.0
 10
-56.9316510429
 20
-53.0691137899
 30
0.0
 10
-56.8455898288
 20
-53.051838214
 30
0.0
 11
-57.5526910813
 21
-53.7589214685
 31
0.0
 11
-57.4655978716
 21
-53.510408969
 31
0.0
 11
-57.308494798
 21
-53.2960183305
 31
0.0
 11
-57.0941108871
 21
-53.1389133908
 31
0.0
 11
-56.8455898288
 21
-53.051838214
 31
0.0
  0
SPLINE
  5
7E3
100
AcDbEntity
  8
0
100
AcDbSpline
 62
253
  6
CONTINUOUS
 70
0
 71
3
 72
15
 73
11
 74
9
 42
0.0000001
 43
0.0000001
 44
0.0000000001
 12
0.17194345
 22
-1.2043018064
 32
0.0
 13
-1.2042877717
 23
0.1720417212
 33
0.0
 40
0.0
 40
0.0
 40
0.0
 40
0.0
 40
0.12463123
 40
0.2495269767
 40
0.3746946941
 40
0.4999980918
 40
0.6253015944
 40
0.7504702474
 40
0.8753674984
 40
1.0
 40
1.0
 40
1.0
 40
1.0
 10
-34.95269869
 20
-55.4447113692
 30
0.0
 10
-34.9455555154
 20
-55.4947425743
 30
0.0
 10
-34.9369871689
 20
-55.5959036981
 30
0.0
 10
-34.9480134044
 20
-55.7482662844
 30
0.0
 10
-34.9925556033
 20
-55.8956688187
 30
0.0
 10
-35.0808564322
 20
-56.0236885352
 30
0.0
 10
-35.2088762242
 20
-56.111991014
 30
0.0
 10
-35.3562832835
 20
-56.1565259209
 30
0.0
 10
-35.5086470213
 20
-56.1675389131
 30
0.0
 10
-35.609810339
 20
-56.1589816036
 30
0.0
 10
-35.6598414715
 20
-56.1518342735
 30
0.0
 11
-34.95269869
 21
-55.4447113692
 31
0.0
 11
-34.9409656329
 21
-55.5958723868
 31
0.0
 11
-34.9535719297
 21
-55.7472859894
 31
0.0
 11
-34.9998153375
 21
-55.8923624981
 31
0.0
 11
-35.0874785672
 21
-56.0170665377
 31
0.0
 11
-35.2121828829
 21
-56.1047295965
 31
0.0
 11
-35.3572627141
 21
-56.1509663285
 31
0.0
 11
-35.5086787534
 21
-56.1635654116
 31
0.0
 11
-35.6598414715
 21
-56.1518342735
 31
0.0
  0
SPLINE
  5
7E4
100
AcDbEntity
  8
0
100
AcDbSpline
 62
253
  6
CONTINUOUS
 70
0
 71
3
 72
11
 73
7
 74
5
 42
0.0000001
 43
0.0000001
 44
0.0000000001
 12
-0.2080380024
 22
-1.0375927036
 32
0.0
 13
-1.0375456264
 23
-0.2082726629
 33
0.0
 40
0.0
 40
0.0
 40
0.0
 40
0.0
 40
0.2488387626
 40
0.5000010441
 40
0.7511592399
 40
1.0
 40
1.0
 40
1.0
 40
1.0
 10
-35.2598089187
 20
-55.1376481781
 30
0.0
 10
-35.2770648917
 20
-55.2237126062
 30
0.0
 10
-35.3354618894
 20
-55.3930819317
 30
0.0
 10
-35.4942294158
 20
-55.610321116
 30
0.0
 10
-35.7114654049
 20
-55.7691164109
 30
0.0
 10
-35.8808489571
 20
-55.8274558566
 30
0.0
 10
-35.9669101712
 20
-55.8447314325
 30
0.0
 11
-35.2598089187
 21
-55.1376481781
 31
0.0
 11
-35.3469021284
 21
-55.3861606775
 31
0.0
 11
-35.504005202
 21
-55.6005513161
 31
0.0
 11
-35.7183891129
 21
-55.7576562558
 31
0.0
 11
-35.9669101712
 21
-55.8447314325
 31
0.0
  0
SPLINE
  5
7E5
100
AcDbEntity
  8
0
100
AcDbSpline
 62
253
  6
CONTINUOUS
 70
0
 71
3
 72
15
 73
11
 74
9
 42
0.0000001
 43
0.0000001
 44
0.0000000001
 12
1.2043018064
 22
0.17194345
 32
0.0
 13
-0.1720417212
 23
-1.2042877717
 33
0.0
 40
0.0
 40
0.0
 40
0.0
 40
0.0
 40
0.12463123
 40
0.2495269767
 40
0.3746946941
 40
0.4999980918
 40
0.6253015944
 40
0.7504702474
 40
0.8753674984
 40
1.0
 40
1.0
 40
1.0
 40
1.0
 10
-35.6598234541
 20
-52.7447335133
 30
0.0
 10
-35.609792249
 20
-52.7375903387
 30
0.0
 10
-35.5086311252
 20
-52.7290219922
 30
0.0
 10
-35.3562685388
 20
-52.7400482276
 30
0.0
 10
-35.2088660046
 20
-52.7845904266
 30
0.0
 10
-35.0808462881
 20
-52.8728912555
 30
0.0
 10
-34.9925438093
 20
-53.0009110475
 30
0.0
 10
-34.9480089024
 20
-53.1483181068
 30
0.0
 10
-34.9369959101
 20
-53.3006818446
 30
0.0
 10
-34.9455532197
 20
-53.4018451622
 30
0.0
 10
-34.9527005497
 20
-53.4518762948
 30
0.0
 11
-35.6598234541
 21
-52.7447335133
 31
0.0
 11
-35.5086624365
 21
-52.7330004562
 31
0.0
 11
-35.3572488339
 21
-52.745606753
 31
0.0
 11
-35.2121723252
 21
-52.7918501608
 31
0.0
 11
-35.0874682855
 21
-52.8795133905
 31
0.0
 11
-34.9998052268
 21
-53.0042177062
 31
0.0
 11
-34.9535684948
 21
-53.1492975373
 31
0.0
 11
-34.9409694117
 21
-53.3007135767
 31
0.0
 11
-34.9527005497
 21
-53.4518762948
 31
0.0
  0
SPLINE
  5
7E6
100
AcDbEntity
  8
0
100
AcDbSpline
 62
253
  6
CONTINUOUS
 70
0
 71
3
 72
11
 73
7
 74
5
 42
0.0000001
 43
0.0000001
 44
0.0000000001
 12
1.0375927036
 22
-0.2080380024
 32
0.0
 13
0.2082726629
 23
-1.0375456264
 33
0.0
 40
0.0
 40
0.0
 40
0.0
 40
0.0
 40
0.2488387626
 40
0.5000010441
 40
0.7511592399
 40
1.0
 40
1.0
 40
1.0
 40
1.0
 10
-35.9668866452
 20
-53.051843742
 30
0.0
 10
-35.8808222171
 20
-53.069099715
 30
0.0
 10
-35.7114528916
 20
-53.1274967127
 30
0.0
 10
-35.4942137073
 20
-53.2862642391
 30
0.0
 10
-35.3354184124
 20
-53.5035002282
 30
0.0
 10
-35.2770789666
 20
-53.6728837804
 30
0.0
 10
-35.2598033907
 20
-53.7589449945
 30
0.0
 11
-35.9668866452
 21
-53.051843742
 31
0.0
 11
-35.7183741458
 21
-53.1389369517
 31
0.0
 11
-35.5039835072
 21
-53.2960400253
 31
0.0
 11
-35.3468785675
 21
-53.5104239361
 31
0.0
 11
-35.2598033907
 21
-53.7589449945
 31
0.0
  0
SPLINE
  5
7E7
100
AcDbEntity
  8
0
100
AcDbSpline
 62
253
  6
CONTINUOUS
 70
0
 71
3
 72
15
 73
11
 74
9
 42
0.0000001
 43
0.0000001
 44
0.0000000001
 12
-1.2043018064
 22
-0.17194345
 32
0.0
 13
0.1720417212
 23
1.2042877717
 33
0.0
 40
0.0
 40
0.0
 40
0.0
 40
0.0
 40
0.12463123
 40
0.2495269767
 40
0.3746946941
 40
0.4999980918
 40
0.6253015944
 40
0.7504702474
 40
0.8753674984
 40
1.0
 40
1.0
 40
1.0
 40
1.0
 10
-57.1526765459
 20
26.3481638667
 30
0.0
 10
-57.202707751
 20
26.3410206921
 30
0.0
 10
-57.3038688748
 20
26.3324523456
 30
0.0
 10
-57.4562314612
 20
26.3434785811
 30
0.0
 10
-57.6036339954
 20
26.38802078
 30
0.0
 10
-57.7316537119
 20
26.4763216089
 30
0.0
 10
-57.8199561907
 20
26.6043414009
 30
0.0
 10
-57.8644910976
 20
26.7517484602
 30
0.0
 10
-57.8755040899
 20
26.9041121981
 30
0.0
 10
-57.8669467803
 20
27.0052755157
 30
0.0
 10
-57.8597994503
 20
27.0553066482
 30
0.0
 11
-57.1526765459
 21
26.3481638667
 31
0.0
 11
-57.3038375635
 21
26.3364308096
 31
0.0
 11
-57.4552511661
 21
26.3490371064
 31
0.0
 11
-57.6003276748
 21
26.3952805142
 31
0.0
 11
-57.7250317145
 21
26.4829437439
 31
0.0
 11
-57.8126947732
 21
26.6076480596
 31
0.0
 11
-57.8589315052
 21
26.7527278908
 31
0.0
 11
-57.8715305883
 21
26.9041439301
 31
0.0
 11
-57.8597994503
 21
27.0553066482
 31
0.0
  0
SPLINE
  5
7E8
100
AcDbEntity
  8
0
100
AcDbSpline
 62
253
  6
CONTINUOUS
 70
0
 71
3
 72
11
 73
7
 74
5
 42
0.0000001
 43
0.0000001
 44
0.0000000001
 12
-1.0375927036
 22
0.2080380024
 32
0.0
 13
-0.2082726629
 23
1.0375456264
 33
0.0
 40
0.0
 40
0.0
 40
0.0
 40
0.0
 40
0.2488387626
 40
0.5000010441
 40
0.7511592399
 40
1.0
 40
1.0
 40
1.0
 40
1.0
 10
-56.8456133548
 20
26.6552740954
 30
0.0
 10
-56.9316777829
 20
26.6725300684
 30
0.0
 10
-57.1010471084
 20
26.7309270661
 30
0.0
 10
-57.3182862927
 20
26.8896945926
 30
0.0
 10
-57.4770815876
 20
27.1069305817
 30
0.0
 10
-57.5354210334
 20
27.2763141338
 30
0.0
 10
-57.5526966093
 20
27.3623753479
 30
0.0
 11
-56.8456133548
 21
26.6552740954
 31
0.0
 11
-57.0941258542
 21
26.7423673052
 31
0.0
 11
-57.3085164928
 21
26.8994703787
 31
0.0
 11
-57.4656214325
 21
27.1138542896
 31
0.0
 11
-57.5526966093
 21
27.3623753479
 31
0.0
  0
SPLINE
  5
7E9
100
AcDbEntity
  8
0
100
AcDbSpline
 62
253
  6
CONTINUOUS
 70
0
 71
3
 72
15
 73
11
 74
9
 42
0.0000001
 43
0.0000001
 44
0.0000000001
 12
-0.17194345
 22
1.2043018064
 32
0.0
 13
1.2042877717
 23
-0.1720417212
 33
0.0
 40
0.0
 40
0.0
 40
0.0
 40
0.0
 40
0.12463123
 40
0.2495269767
 40
0.3746946941
 40
0.4999980918
 40
0.6253015944
 40
0.7504702474
 40
0.8753674984
 40
1.0
 40
1.0
 40
1.0
 40
1.0
 10
-57.85980131
 20
29.0481417226
 30
0.0
 10
-57.8669444846
 20
29.0981729278
 30
0.0
 10
-57.8755128311
 20
29.1993340515
 30
0.0
 10
-57.8644865956
 20
29.3516966379
 30
0.0
 10
-57.8199443967
 20
29.4990991721
 30
0.0
 10
-57.7316435678
 20
29.6271188887
 30
0.0
 10
-57.6036237758
 20
29.7154213674
 30
0.0
 10
-57.4562167165
 20
29.7599562744
 30
0.0
 10
-57.3038529787
 20
29.7709692666
 30
0.0
 10
-57.202689661
 20
29.762411957
 30
0.0
 10
-57.1526585285
 20
29.755264627
 30
0.0
 11
-57.85980131
 21
29.0481417226
 31
0.0
 11
-57.8715343671
 21
29.1993027402
 31
0.0
 11
-57.8589280703
 21
29.3507163428
 31
0.0
 11
-57.8126846625
 21
29.4957928516
 31
0.0
 11
-57.7250214328
 21
29.6204968912
 31
0.0
 11
-57.6003171171
 21
29.7081599499
 31
0.0
 11
-57.4552372859
 21
29.7543966819
 31
0.0
 11
-57.3038212466
 21
29.766995765
 31
0.0
 11
-57.1526585285
 21
29.755264627
 31
0.0
  0
SPLINE
  5
7EA
100
AcDbEntity
  8
0
100
AcDbSpline
 62
253
  6
CONTINUOUS
 70
0
 71
3
 72
11
 73
7
 74
5
 42
0.0000001
 43
0.0000001
 44
0.0000000001
 12
0.2080380024
 22
1.0375927036
 32
0.0
 13
1.0375456264
 23
0.2082726629
 33
0.0
 40
0.0
 40
0.0
 40
0.0
 40
0.0
 40
0.2488387626
 40
0.5000010441
 40
0.7511592399
 40
1.0
 40
1.0
 40
1.0
 40
1.0
 10
-57.5526910813
 20
28.7410785315
 30
0.0
 10
-57.5354351083
 20
28.8271429596
 30
0.0
 10
-57.4770381106
 20
28.9965122851
 30
0.0
 10
-57.3182705842
 20
29.2137514695
 30
0.0
 10
-57.1010345951
 20
29.3725467643
 30
0.0
 10
-56.9316510429
 20
29.4308862101
 30
0.0
 10
-56.8455898288
 20
29.448161786
 30
0.0
 11
-57.5526910813
 21
28.7410785315
 31
0.0
 11
-57.4655978716
 21
28.989591031
 31
0.0
 11
-57.308494798
 21
29.2039816695
 31
0.0
 11
-57.0941108871
 21
29.3610866092
 31
0.0
 11
-56.8455898288
 21
29.448161786
 31
0.0
  0
SPLINE
  5
7EB
100
AcDbEntity
  8
0
100
AcDbSpline
 62
253
  6
CONTINUOUS
 70
0
 71
3
 72
15
 73
11
 74
9
 42
0.0000001
 43
0.0000001
 44
0.0000000001
 12
1.2043018064
 22
0.17194345
 32
0.0
 13
-0.1720417212
 23
-1.2042877717
 33
0.0
 40
0.0
 40
0.0
 40
0.0
 40
0.0
 40
0.12463123
 40
0.2495269767
 40
0.3746946941
 40
0.4999980918
 40
0.6253015944
 40
0.7504702474
 40
0.8753674984
 40
1.0
 40
1.0
 40
1.0
 40
1.0
 10
-35.6598234541
 20
29.7552664867
 30
0.0
 10
-35.609792249
 20
29.7624096613
 30
0.0
 10
-35.5086311252
 20
29.7709780078
 30
0.0
 10
-35.3562685388
 20
29.7599517724
 30
0.0
 10
-35.2088660046
 20
29.7154095734
 30
0.0
 10
-35.080846288
 20
29.6271087445
 30
0.0
 10
-34.9925438093
 20
29.4990889525
 30
0.0
 10
-34.9480089024
 20
29.3516818932
 30
0.0
 10
-34.9369959101
 20
29.1993181554
 30
0.0
 10
-34.9455532197
 20
29.0981548378
 30
0.0
 10
-34.9527005497
 20
29.0481237052
 30
0.0
 11
-35.6598234541
 21
29.7552664867
 31
0.0
 11
-35.5086624365
 21
29.7669995438
 31
0.0
 11
-35.3572488339
 21
29.754393247
 31
0.0
 11
-35.2121723252
 21
29.7081498392
 31
0.0
 11
-35.0874682855
 21
29.6204866095
 31
0.0
 11
-34.9998052268
 21
29.4957822938
 31
0.0
 11
-34.9535684948
 21
29.3507024627
 31
0.0
 11
-34.9409694117
 21
29.1992864233
 31
0.0
 11
-34.9527005497
 21
29.0481237052
 31
0.0
  0
SPLINE
  5
7EC
100
AcDbEntity
  8
0
100
AcDbSpline
 62
253
  6
CONTINUOUS
 70
0
 71
3
 72
11
 73
7
 74
5
 42
0.0000001
 43
0.0000001
 44
0.0000000001
 12
1.0375927036
 22
-0.2080380024
 32
0.0
 13
0.2082726629
 23
-1.0375456264
 33
0.0
 40
0.0
 40
0.0
 40
0.0
 40
0.0
 40
0.2488387626
 40
0.5000010441
 40
0.7511592399
 40
1.0
 40
1.0
 40
1.0
 40
1.0
 10
-35.9668866452
 20
29.448156258
 30
0.0
 10
-35.8808222171
 20
29.430900285
 30
0.0
 10
-35.7114528916
 20
29.3725032873
 30
0.0
 10
-35.4942137073
 20
29.2137357609
 30
0.0
 10
-35.3354184124
 20
28.9964997718
 30
0.0
 10
-35.2770789666
 20
28.8271162196
 30
0.0
 10
-35.2598033907
 20
28.7410550055
 30
0.0
 11
-35.9668866452
 21
29.448156258
 31
0.0
 11
-35.7183741458
 21
29.3610630483
 31
0.0
 11
-35.5039835072
 21
29.2039599747
 31
0.0
 11
-35.3468785675
 21
28.9895760639
 31
0.0
 11
-35.2598033907
 21
28.7410550055
 31
0.0
  0
SPLINE
  5
7ED
100
AcDbEntity
  8
0
100
AcDbSpline
 62
253
  6
CONTINUOUS
 70
0
 71
3
 72
15
 73
11
 74
9
 42
0.0000001
 43
0.0000001
 44
0.0000000001
 12
0.17194345
 22
-1.2043018064
 32
0.0
 13
-1.2042877717
 23
0.1720417212
 33
0.0
 40
0.0
 40
0.0
 40
0.0
 40
0.0
 40
0.12463123
 40
0.2495269767
 40
0.3746946941
 40
0.4999980918
 40
0.6253015944
 40
0.7504702474
 40
0.8753674984
 40
1.0
 40
1.0
 40
1.0
 40
1.0
 10
-34.95269869
 20
27.0552886308
 30
0.0
 10
-34.9455555154
 20
27.0052574257
 30
0.0
 10
-34.9369871689
 20
26.9040963019
 30
0.0
 10
-34.9480134044
 20
26.7517337156
 30
0.0
 10
-34.9925556033
 20
26.6043311813
 30
0.0
 10
-35.0808564322
 20
26.4763114648
 30
0.0
 10
-35.2088762242
 20
26.388008986
 30
0.0
 10
-35.3562832835
 20
26.3434740791
 30
0.0
 10
-35.5086470213
 20
26.3324610869
 30
0.0
 10
-35.609810339
 20
26.3410183964
 30
0.0
 10
-35.6598414715
 20
26.3481657265
 30
0.0
 11
-34.95269869
 21
27.0552886308
 31
0.0
 11
-34.9409656329
 21
26.9041276132
 31
0.0
 11
-34.9535719297
 21
26.7527140106
 31
0.0
 11
-34.9998153375
 21
26.6076375019
 31
0.0
 11
-35.0874785672
 21
26.4829334623
 31
0.0
 11
-35.2121828829
 21
26.3952704035
 31
0.0
 11
-35.3572627141
 21
26.3490336715
 31
0.0
 11
-35.5086787534
 21
26.3364345884
 31
0.0
 11
-35.6598414715
 21
26.3481657265
 31
0.0
  0
SPLINE
  5
7EE
100
AcDbEntity
  8
0
100
AcDbSpline
 62
253
  6
CONTINUOUS
 70
0
 71
3
 72
11
 73
7
 74
5
 42
0.0000001
 43
0.0000001
 44
0.0000000001
 12
-0.2080380024
 22
-1.0375927036
 32
0.0
 13
-1.0375456264
 23
-0.2082726629
 33
0.0
 40
0.0
 40
0.0
 40
0.0
 40
0.0
 40
0.2488387626
 40
0.5000010441
 40
0.7511592399
 40
1.0
 40
1.0
 40
1.0
 40
1.0
 10
-35.2598089187
 20
27.3623518219
 30
0.0
 10
-35.2770648917
 20
27.2762873938
 30
0.0
 10
-35.3354618894
 20
27.1069180683
 30
0.0
 10
-35.4942294158
 20
26.889678884
 30
0.0
 10
-35.7114654049
 20
26.7308835891
 30
0.0
 10
-35.8808489571
 20
26.6725441434
 30
0.0
 10
-35.9669101712
 20
26.6552685675
 30
0.0
 11
-35.2598089187
 21
27.3623518219
 31
0.0
 11
-35.3469021284
 21
27.1138393225
 31
0.0
 11
-35.504005202
 21
26.8994486839
 31
0.0
 11
-35.7183891129
 21
26.7423437442
 31
0.0
 11
-35.9669101712
 21
26.6552685675
 31
0.0
  0
SPLINE
  5
7EF
100
AcDbEntity
  8
0
100
AcDbSpline
 62
253
  6
CONTINUOUS
 70
0
 71
3
 72
18
 73
14
 74
12
 42
0.0000001
 43
0.0000001
 44
0.0000000001
 12
0.0
 22
0.5067711817
 32
0.0
 13
-0.3245156582
 23
0.3892385107
 33
0.0
 40
0.0
 40
0.0
 40
0.0
 40
0.0
 40
0.2495065342
 40
0.3743172845
 40
0.499027574
 40
0.5612474309
 40
0.6236326212
 40
0.6865614519
 40
0.7496051975
 40
0.811591692
 40
0.8735527664
 40
0.9367959082
 40
1.0
 40
1.0
 40
1.0
 40
1.0
 10
12.2204332607
 20
-47.2812201104
 30
0.0
 10
12.2204332607
 20
-47.2390725367
 30
0.0
 10
12.2202741035
 20
-47.1758403698
 30
0.0
 10
12.2205456271
 20
-47.0915457258
 30
0.0
 10
12.2207255136
 20
-47.038878989
 30
0.0
 10
12.219716884
 20
-46.996777148
 30
0.0
 10
12.2194890853
 20
-46.9650881417
 30
0.0
 10
12.2212716119
 20
-46.9333005852
 30
0.0
 10
12.2238158932
 20
-46.9016714246
 30
0.0
 10
12.2229909638
 20
-46.8698945441
 30
0.0
 10
12.214242491
 20
-46.8391545617
 30
0.0
 10
12.1991298676
 20
-46.8109648232
 30
0.0
 10
12.1863733434
 20
-46.7937539901
 30
0.0
 10
12.1795364376
 20
-46.7855535012
 30
0.0
 11
12.2204332607
 21
-47.2812201104
 31
0.0
 11
12.2203822899
 21
-47.1547773995
 31
0.0
 11
12.2205477378
 21
-47.0915271244
 31
0.0
 11
12.2203769679
 21
-47.0283277744
 31
0.0
 11
12.2198055048
 21
-46.9968017229
 31
0.0
 11
12.2198213821
 21
-46.9651867103
 31
0.0
 11
12.2213985571
 21
-46.9333352166
 31
0.0
 11
12.2232596675
 21
-46.9014407168
 31
0.0
 11
12.2216788237
 21
-46.8700675506
 31
0.0
 11
12.21327591
 21
-46.8398126915
 31
0.0
 11
12.1984728497
 21
-46.8113863095
 31
0.0
 11
12.1795364376
 21
-46.7855535012
 31
0.0
  0
SPLINE
  5
7F0
100
AcDbEntity
  8
0
100
AcDbSpline
 62
253
  6
CONTINUOUS
 70
0
 71
3
 72
18
 73
14
 74
12
 42
0.0000001
 43
0.0000001
 44
0.0000000001
 12
0.0
 22
-0.5067700642
 32
0.0
 13
-0.3244806338
 23
-0.3892662537
 33
0.0
 40
0.0
 40
0.0
 40
0.0
 40
0.0
 40
0.2495066166
 40
0.374317404
 40
0.4990277206
 40
0.5612476145
 40
0.6236328778
 40
0.6865617846
 40
0.7496053449
 40
0.811591647
 40
0.8735528253
 40
0.9367959413
 40
1.0
 40
1.0
 40
1.0
 40
1.0
 10
12.2204332607
 20
-36.1153495359
 30
0.0
 10
12.2204332607
 20
-36.1574970306
 30
0.0
 10
12.2202741064
 20
-36.2207290781
 30
0.0
 10
12.2205456415
 20
-36.3050235614
 30
0.0
 10
12.2207254227
 20
-36.3576901984
 30
0.0
 10
12.2197168964
 20
-36.3997919708
 30
0.0
 10
12.2194892769
 20
-36.4314809439
 30
0.0
 10
12.2212720637
 20
-36.4632684017
 30
0.0
 10
12.223815784
 20
-36.4948974923
 30
0.0
 10
12.2229897097
 20
-36.5266742582
 30
0.0
 10
12.2142402142
 20
-36.5574137823
 30
0.0
 10
12.1991280825
 20
-36.5856036007
 30
0.0
 10
12.186372602
 20
-36.6028150763
 30
0.0
 10
12.1795364376
 20
-36.6110161454
 30
0.0
 11
12.2204332607
 21
-36.1153495359
 31
0.0
 11
12.2203822963
 21
-36.2417920097
 31
0.0
 11
12.2205477297
 21
-36.3050421642
 31
0.0
 11
12.2203769186
 21
-36.3682413885
 31
0.0
 11
12.2198055341
 21
-36.3997673906
 31
0.0
 11
12.2198215869
 21
-36.4313823704
 31
0.0
 11
12.221398875
 21
-36.4632338267
 31
0.0
 11
12.2232594563
 21
-36.4951281927
 31
0.0
 11
12.2216775977
 21
-36.5265011408
 31
0.0
 11
12.2132738804
 21
-36.5567557594
 31
0.0
 11
12.1984712408
 21
-36.5851822661
 31
0.0
 11
12.1795364376
 21
-36.6110161454
 31
0.0
  0
SPLINE
  5
7F1
100
AcDbEntity
  8
0
100
AcDbSpline
 62
253
  6
CONTINUOUS
 70
0
 71
3
 72
18
 73
14
 74
12
 42
0.0000001
 43
0.0000001
 44
0.0000000001
 12
0.0
 22
0.5067711817
 32
0.0
 13
-0.3245156582
 23
0.3892385107
 33
0.0
 40
0.0
 40
0.0
 40
0.0
 40
0.0
 40
0.2495065342
 40
0.3743172845
 40
0.499027574
 40
0.5612474309
 40
0.6236326212
 40
0.6865614519
 40
0.7496051975
 40
0.811591692
 40
0.8735527664
 40
0.9367959082
 40
1.0
 40
1.0
 40
1.0
 40
1.0
 10
12.2204332607
 20
9.7187798896
 30
0.0
 10
12.2204332607
 20
9.7609274633
 30
0.0
 10
12.2202741035
 20
9.8241596302
 30
0.0
 10
12.2205456271
 20
9.9084542742
 30
0.0
 10
12.2207255136
 20
9.961121011
 30
0.0
 10
12.219716884
 20
10.003222852
 30
0.0
 10
12.2194890853
 20
10.0349118583
 30
0.0
 10
12.2212716119
 20
10.0666994148
 30
0.0
 10
12.2238158932
 20
10.0983285754
 30
0.0
 10
12.2229909638
 20
10.1301054559
 30
0.0
 10
12.214242491
 20
10.1608454383
 30
0.0
 10
12.1991298676
 20
10.1890351768
 30
0.0
 10
12.1863733434
 20
10.2062460099
 30
0.0
 10
12.1795364376
 20
10.2144464988
 30
0.0
 11
12.2204332607
 21
9.7187798896
 31
0.0
 11
12.2203822899
 21
9.8452226005
 31
0.0
 11
12.2205477378
 21
9.9084728756
 31
0.0
 11
12.2203769679
 21
9.9716722256
 31
0.0
 11
12.2198055048
 21
10.0031982771
 31
0.0
 11
12.2198213821
 21
10.0348132897
 31
0.0
 11
12.2213985571
 21
10.0666647834
 31
0.0
 11
12.2232596675
 21
10.0985592832
 31
0.0
 11
12.2216788237
 21
10.1299324494
 31
0.0
 11
12.21327591
 21
10.1601873085
 31
0.0
 11
12.1984728497
 21
10.1886136905
 31
0.0
 11
12.1795364376
 21
10.2144464988
 31
0.0
  0
SPLINE
  5
7F2
100
AcDbEntity
  8
0
100
AcDbSpline
 62
253
  6
CONTINUOUS
 70
0
 71
3
 72
18
 73
14
 74
12
 42
0.0000001
 43
0.0000001
 44
0.0000000001
 12
0.0
 22
-0.5067700642
 32
0.0
 13
-0.3244806338
 23
-0.3892662537
 33
0.0
 40
0.0
 40
0.0
 40
0.0
 40
0.0
 40
0.2495066166
 40
0.374317404
 40
0.4990277206
 40
0.5612476145
 40
0.6236328778
 40
0.6865617846
 40
0.7496053449
 40
0.811591647
 40
0.8735528253
 40
0.9367959413
 40
1.0
 40
1.0
 40
1.0
 40
1.0
 10
12.2204332607
 20
20.8846504641
 30
0.0
 10
12.2204332607
 20
20.8425029694
 30
0.0
 10
12.2202741064
 20
20.7792709219
 30
0.0
 10
12.2205456415
 20
20.6949764386
 30
0.0
 10
12.2207254227
 20
20.6423098016
 30
0.0
 10
12.2197168964
 20
20.6002080292
 30
0.0
 10
12.2194892769
 20
20.5685190561
 30
0.0
 10
12.2212720637
 20
20.5367315983
 30
0.0
 10
12.223815784
 20
20.5051025077
 30
0.0
 10
12.2229897097
 20
20.4733257418
 30
0.0
 10
12.2142402142
 20
20.4425862177
 30
0.0
 10
12.1991280825
 20
20.4143963993
 30
0.0
 10
12.186372602
 20
20.3971849237
 30
0.0
 10
12.1795364376
 20
20.3889838546
 30
0.0
 11
12.2204332607
 21
20.8846504641
 31
0.0
 11
12.2203822963
 21
20.7582079903
 31
0.0
 11
12.2205477297
 21
20.6949578358
 31
0.0
 11
12.2203769186
 21
20.6317586115
 31
0.0
 11
12.2198055341
 21
20.6002326094
 31
0.0
 11
12.2198215869
 21
20.5686176296
 31
0.0
 11
12.221398875
 21
20.5367661733
 31
0.0
 11
12.2232594563
 21
20.5048718073
 31
0.0
 11
12.2216775977
 21
20.4734988592
 31
0.0
 11
12.2132738804
 21
20.4432442406
 31
0.0
 11
12.1984712408
 21
20.4148177339
 31
0.0
 11
12.1795364376
 21
20.3889838546
 31
0.0
  0
SPLINE
  5
7F3
100
AcDbEntity
  8
0
100
AcDbSpline
 62
253
  6
CONTINUOUS
 70
0
 71
3
 72
18
 73
14
 74
12
 42
0.0000001
 43
0.0000001
 44
0.0000000001
 12
0.0
 22
-0.5067711817
 32
0.0
 13
0.3245156582
 23
-0.3892385107
 33
0.0
 40
0.0
 40
0.0
 40
0.0
 40
0.0
 40
0.2495065342
 40
0.3743172845
 40
0.499027574
 40
0.5612474309
 40
0.6236326212
 40
0.6865614519
 40
0.7496051975
 40
0.811591692
 40
0.8735527664
 40
0.9367959082
 40
1.0
 40
1.0
 40
1.0
 40
1.0
 10
-105.0329332607
 20
20.8846504638
 30
0.0
 10
-105.0329332607
 20
20.8425028901
 30
0.0
 10
-105.0327741035
 20
20.7792707233
 30
0.0
 10
-105.0330456271
 20
20.6949760792
 30
0.0
 10
-105.0332255136
 20
20.6423093425
 30
0.0
 10
-105.032216884
 20
20.6002075015
 30
0.0
 10
-105.0319890853
 20
20.5685184951
 30
0.0
 10
-105.0337716119
 20
20.5367309387
 30
0.0
 10
-105.0363158932
 20
20.505101778
 30
0.0
 10
-105.0354909638
 20
20.4733248975
 30
0.0
 10
-105.026742491
 20
20.4425849151
 30
0.0
 10
-105.0116298676
 20
20.4143951767
 30
0.0
 10
-104.9988733434
 20
20.3971843435
 30
0.0
 10
-104.9920364376
 20
20.3889838546
 30
0.0
 11
-105.0329332607
 21
20.8846504638
 31
0.0
 11
-105.0328822899
 21
20.7582077529
 31
0.0
 11
-105.0330477378
 21
20.6949574779
 31
0.0
 11
-105.0328769679
 21
20.6317581278
 31
0.0
 11
-105.0323055048
 21
20.6002320764
 31
0.0
 11
-105.0323213821
 21
20.5686170637
 31
0.0
 11
-105.0338985571
 21
20.5367655701
 31
0.0
 11
-105.0357596675
 21
20.5048710703
 31
0.0
 11
-105.0341788237
 21
20.473497904
 31
0.0
 11
-105.02577591
 21
20.4432430449
 31
0.0
 11
-105.0109728497
 21
20.414816663
 31
0.0
 11
-104.9920364376
 21
20.3889838546
 31
0.0
  0
SPLINE
  5
7F4
100
AcDbEntity
  8
0
100
AcDbSpline
 62
253
  6
CONTINUOUS
 70
0
 71
3
 72
18
 73
14
 74
12
 42
0.0000001
 43
0.0000001
 44
0.0000000001
 12
0.0
 22
0.5067700642
 32
0.0
 13
0.3244806338
 23
0.3892662537
 33
0.0
 40
0.0
 40
0.0
 40
0.0
 40
0.0
 40
0.2495066166
 40
0.374317404
 40
0.4990277206
 40
0.5612476145
 40
0.6236328778
 40
0.6865617846
 40
0.7496053449
 40
0.811591647
 40
0.8735528253
 40
0.9367959413
 40
1.0
 40
1.0
 40
1.0
 40
1.0
 10
-105.0329332607
 20
9.7187798893
 30
0.0
 10
-105.0329332607
 20
9.760927384
 30
0.0
 10
-105.0327741064
 20
9.8241594315
 30
0.0
 10
-105.0330456415
 20
9.9084539148
 30
0.0
 10
-105.0332254227
 20
9.9611205518
 30
0.0
 10
-105.0322168964
 20
10.0032223242
 30
0.0
 10
-105.0319892769
 20
10.0349112973
 30
0.0
 10
-105.0337720637
 20
10.0666987552
 30
0.0
 10
-105.036315784
 20
10.0983278457
 30
0.0
 10
-105.0354897097
 20
10.1301046117
 30
0.0
 10
-105.0267402142
 20
10.1608441357
 30
0.0
 10
-105.0116280825
 20
10.1890339542
 30
0.0
 10
-104.998872602
 20
10.2062454298
 30
0.0
 10
-104.9920364376
 20
10.2144464988
 30
0.0
 11
-105.0329332607
 21
9.7187798893
 31
0.0
 11
-105.0328822963
 21
9.8452223632
 31
0.0
 11
-105.0330477296
 21
9.9084725176
 31
0.0
 11
-105.0328769186
 21
9.9716717419
 31
0.0
 11
-105.0323055341
 21
10.003197744
 31
0.0
 11
-105.0323215869
 21
10.0348127238
 31
0.0
 11
-105.033898875
 21
10.0666641801
 31
0.0
 11
-105.0357594563
 21
10.0985585461
 31
0.0
 11
-105.0341775977
 21
10.1299314942
 31
0.0
 11
-105.0257738804
 21
10.1601861129
 31
0.0
 11
-105.0109712408
 21
10.1886126195
 31
0.0
 11
-104.9920364376
 21
10.2144464988
 31
0.0
  0
SPLINE
  5
7F5
100
AcDbEntity
  8
0
100
AcDbSpline
 62
253
  6
CONTINUOUS
 70
0
 71
3
 72
18
 73
14
 74
12
 42
0.0000001
 43
0.0000001
 44
0.0000000001
 12
0.0
 22
-0.5067711817
 32
0.0
 13
0.3245156582
 23
-0.3892385107
 33
0.0
 40
0.0
 40
0.0
 40
0.0
 40
0.0
 40
0.2495065342
 40
0.3743172845
 40
0.499027574
 40
0.5612474309
 40
0.6236326212
 40
0.6865614519
 40
0.7496051975
 40
0.811591692
 40
0.8735527664
 40
0.9367959082
 40
1.0
 40
1.0
 40
1.0
 40
1.0
 10
-105.0329332607
 20
-36.1153495362
 30
0.0
 10
-105.0329332607
 20
-36.1574971099
 30
0.0
 10
-105.0327741035
 20
-36.2207292767
 30
0.0
 10
-105.0330456271
 20
-36.3050239208
 30
0.0
 10
-105.0332255136
 20
-36.3576906575
 30
0.0
 10
-105.032216884
 20
-36.3997924985
 30
0.0
 10
-105.0319890853
 20
-36.4314815049
 30
0.0
 10
-105.0337716119
 20
-36.4632690613
 30
0.0
 10
-105.0363158932
 20
-36.494898222
 30
0.0
 10
-105.0354909638
 20
-36.5266751025
 30
0.0
 10
-105.026742491
 20
-36.5574150849
 30
0.0
 10
-105.0116298676
 20
-36.5856048233
 30
0.0
 10
-104.9988733434
 20
-36.6028156565
 30
0.0
 10
-104.9920364376
 20
-36.6110161454
 30
0.0
 11
-105.0329332607
 21
-36.1153495362
 31
0.0
 11
-105.0328822899
 21
-36.2417922471
 31
0.0
 11
-105.0330477378
 21
-36.3050425221
 31
0.0
 11
-105.0328769679
 21
-36.3682418722
 31
0.0
 11
-105.0323055048
 21
-36.3997679236
 31
0.0
 11
-105.0323213821
 21
-36.4313829363
 31
0.0
 11
-105.0338985571
 21
-36.4632344299
 31
0.0
 11
-105.0357596675
 21
-36.4951289297
 31
0.0
 11
-105.0341788237
 21
-36.526502096
 31
0.0
 11
-105.02577591
 21
-36.5567569551
 31
0.0
 11
-105.0109728497
 21
-36.585183337
 31
0.0
 11
-104.9920364376
 21
-36.6110161454
 31
0.0
  0
SPLINE
  5
7F6
100
AcDbEntity
  8
0
100
AcDbSpline
 62
253
  6
CONTINUOUS
 70
0
 71
3
 72
18
 73
14
 74
12
 42
0.0000001
 43
0.0000001
 44
0.0000000001
 12
0.0
 22
0.5067700642
 32
0.0
 13
0.3244806338
 23
0.3892662537
 33
0.0
 40
0.0
 40
0.0
 40
0.0
 40
0.0
 40
0.2495066166
 40
0.374317404
 40
0.4990277206
 40
0.5612476145
 40
0.6236328778
 40
0.6865617846
 40
0.7496053449
 40
0.811591647
 40
0.8735528253
 40
0.9367959413
 40
1.0
 40
1.0
 40
1.0
 40
1.0
 10
-105.0329332607
 20
-47.2812201107
 30
0.0
 10
-105.0329332607
 20
-47.239072616
 30
0.0
 10
-105.0327741064
 20
-47.1758405685
 30
0.0
 10
-105.0330456415
 20
-47.0915460852
 30
0.0
 10
-105.0332254227
 20
-47.0388794482
 30
0.0
 10
-105.0322168964
 20
-46.9967776758
 30
0.0
 10
-105.0319892769
 20
-46.9650887027
 30
0.0
 10
-105.0337720637
 20
-46.9333012448
 30
0.0
 10
-105.036315784
 20
-46.9016721543
 30
0.0
 10
-105.0354897097
 20
-46.8698953883
 30
0.0
 10
-105.0267402142
 20
-46.8391558643
 30
0.0
 10
-105.0116280825
 20
-46.8109660458
 30
0.0
 10
-104.998872602
 20
-46.7937545702
 30
0.0
 10
-104.9920364376
 20
-46.7855535012
 30
0.0
 11
-105.0329332607
 21
-47.2812201107
 31
0.0
 11
-105.0328822963
 21
-47.1547776368
 31
0.0
 11
-105.0330477296
 21
-47.0915274824
 31
0.0
 11
-105.0328769186
 21
-47.0283282581
 31
0.0
 11
-105.0323055341
 21
-46.996802256
 31
0.0
 11
-105.0323215869
 21
-46.9651872762
 31
0.0
 11
-105.033898875
 21
-46.9333358199
 31
0.0
 11
-105.0357594563
 21
-46.9014414539
 31
0.0
 11
-105.0341775977
 21
-46.8700685058
 31
0.0
 11
-105.0257738804
 21
-46.8398138871
 31
0.0
 11
-105.0109712408
 21
-46.8113873805
 31
0.0
 11
-104.9920364376
 21
-46.7855535012
 31
0.0
  0
SPLINE
  5
7F7
100
AcDbEntity
  8
0
100
AcDbSpline
 62
7
  6
CONTINUOUS
 70
0
 71
3
 72
9
 73
5
 74
3
 42
0.0000001
 43
0.0000001
 44
0.0000000001
 12
-0.3467040221
 22
-0.3467040221
 32
0.0
 13
-0.2708784607
 23
-0.4086957516
 33
0.0
 40
0.0
 40
0.0
 40
0.0
 40
0.0
 40
0.4683843223
 40
1.0
 40
1.0
 40
1.0
 40
1.0
 10
-101.9062500001
 20
-46.8982848234
 30
0.0
 10
-101.9603802429
 20
-46.9524150662
 30
0.0
 10
-102.0682643082
 20
-47.0757252024
 30
0.0
 10
-102.1635163622
 20
-47.2087860835
 30
0.0
 10
-102.2115174411
 20
-47.2812091065
 30
0.0
 11
-101.9062500001
 21
-46.8982848234
 31
0.0
 11
-102.0586713929
 21
-47.0700672915
 31
0.0
 11
-102.2115174411
 21
-47.2812091065
 31
0.0
  0
LINE
  5
7F8
100
AcDbEntity
  8
0
100
AcDbLine
 62
7
  6
CONTINUOUS
 10
-103.0233066783
 20
-46.781228145
 11
-102.90625
 21
-46.8982848233
  0
LINE
  5
7F9
100
AcDbEntity
  8
0
100
AcDbLine
 62
7
  6
CONTINUOUS
 10
-103.9891933217
 20
-46.781228145
 11
-104.1062500001
 21
-46.8982848234
  0
SPLINE
  5
7FA
100
AcDbEntity
  8
0
100
AcDbSpline
 62
253
  6
CONTINUOUS
 70
0
 71
3
 72
13
 73
9
 74
7
 42
0.0000001
 43
0.0000001
 44
0.0000000001
 12
-0.5640412635
 22
-0.0000097519
 32
0.0
 13
0.0000237641
 23
0.5640412631
 33
0.0
 40
0.0
 40
0.0
 40
0.0
 40
0.0
 40
0.2496693899
 40
0.3748544704
 40
0.5000021108
 40
0.6251489127
 40
0.7503319114
 40
1.0
 40
1.0
 40
1.0
 40
1.0
 10
-56.8455898282
 20
27.0088219579
 30
0.0
 10
-56.8925311076
 20
27.0088211463
 30
0.0
 10
-56.9641100817
 20
27.0183090539
 30
0.0
 10
-57.0501995418
 20
27.0576894065
 30
0.0
 10
-57.1064815463
 20
27.101485515
 30
0.0
 10
-57.150277595
 20
27.1577670644
 30
0.0
 10
-57.1896579066
 20
27.2438556572
 30
0.0
 10
-57.1991451965
 20
27.3154343138
 30
0.0
 10
-57.1991432188
 20
27.3623753485
 30
0.0
 11
-56.8455898282
 21
27.0088219579
 31
0.0
 11
-56.9847587269
 21
27.0303480125
 31
0.0
 11
-57.0488109348
 21
27.0600637215
 31
0.0
 11
-57.1044009157
 21
27.1035663757
 31
0.0
 11
-57.1479034351
 21
27.1591558616
 31
0.0
 11
-57.1776187844
 21
27.2232069419
 31
0.0
 11
-57.1991432188
 21
27.3623753485
 31
0.0
  0
SPLINE
  5
7FB
100
AcDbEntity
  8
0
100
AcDbSpline
 62
7
  6
CONTINUOUS
 70
0
 71
3
 72
9
 73
5
 74
3
 42
0.0000001
 43
0.0000001
 44
0.0000000001
 12
0.3467040222
 22
-0.3467040222
 32
0.0
 13
0.2708784608
 23
-0.4086957517
 33
0.0
 40
0.0
 40
0.0
 40
0.0
 40
0.0
 40
0.4683843223
 40
1.0
 40
1.0
 40
1.0
 40
1.0
 10
-102.90625
 20
-46.8982848233
 30
0.0
 10
-102.8521197572
 20
-46.9524150661
 30
0.0
 10
-102.7442356919
 20
-47.0757252023
 30
0.0
 10
-102.6489836378
 20
-47.2087860835
 30
0.0
 10
-102.6009825589
 20
-47.2812091065
 30
0.0
 11
-102.90625
 21
-46.8982848233
 31
0.0
 11
-102.7538286071
 21
-47.0700672915
 31
0.0
 11
-102.6009825589
 21
-47.2812091065
 31
0.0
  0
SPLINE
  5
7FC
100
AcDbEntity
  8
0
100
AcDbSpline
 62
253
  6
CONTINUOUS
 70
0
 71
3
 72
13
 73
9
 74
7
 42
0.0000001
 43
0.0000001
 44
0.0000000001
 12
-0.0000097519
 22
0.5640412635
 32
0.0
 13
0.5640412631
 23
-0.0000237641
 33
0.0
 40
0.0
 40
0.0
 40
0.0
 40
0.0
 40
0.2496693899
 40
0.3748544704
 40
0.5000021108
 40
0.6251489127
 40
0.7503319114
 40
1.0
 40
1.0
 40
1.0
 40
1.0
 10
-57.1991432188
 20
28.7410550049
 30
0.0
 10
-57.1991440304
 20
28.7879962843
 30
0.0
 10
-57.1896561228
 20
28.8595752584
 30
0.0
 10
-57.1502757702
 20
28.9456647185
 30
0.0
 10
-57.1064796617
 20
29.001946723
 30
0.0
 10
-57.0501981124
 20
29.0457427718
 30
0.0
 10
-56.9641095195
 20
29.0851230833
 30
0.0
 10
-56.8925308629
 20
29.0946103732
 30
0.0
 10
-56.8455898282
 20
29.0946083955
 30
0.0
 11
-57.1991432188
 21
28.7410550049
 31
0.0
 11
-57.1776171642
 21
28.8802239036
 31
0.0
 11
-57.1479014552
 21
28.9442761115
 31
0.0
 11
-57.104398801
 21
28.9998660924
 31
0.0
 11
-57.0488093151
 21
29.0433686118
 31
0.0
 11
-56.9847582348
 21
29.0730839611
 31
0.0
 11
-56.8455898282
 21
29.0946083955
 31
0.0
  0
SPLINE
  5
7FD
100
AcDbEntity
  8
0
100
AcDbSpline
 62
7
  6
CONTINUOUS
 70
0
 71
3
 72
14
 73
10
 74
8
 42
0.0000001
 43
0.0000001
 44
0.0000000001
 12
0.261102071
 22
0.3863910923
 32
0.0
 13
0.034776126
 23
0.4650408463
 33
0.0
 40
0.0
 40
0.0
 40
0.0
 40
0.0
 40
0.1513403236
 40
0.2998999112
 40
0.5816953106
 40
0.710136097
 40
0.8257092643
 40
0.9238202276
 40
1.0
 40
1.0
 40
1.0
 40
1.0
 10
-104.9920364375
 20
-47.2208138845
 30
0.0
 10
-104.9788646802
 20
-47.2013217002
 30
0.0
 10
-104.9512946044
 20
-47.1637071126
 30
0.0
 10
-104.8976339871
 20
-47.0909447938
 30
0.0
 10
-104.8466210459
 20
-47.0205975738
 30
0.0
 10
-104.8014719259
 20
-46.9524658736
 30
0.0
 10
-104.7741620543
 20
-46.9067424576
 30
0.0
 10
-104.7543500838
 20
-46.8663254912
 30
0.0
 10
-104.7462681386
 20
-46.8399799963
 30
0.0
 10
-104.7453850595
 20
-46.8281710943
 30
0.0
 11
-104.9920364375
 21
-47.2208138845
 31
0.0
 11
-104.9510147021
 21
-47.163384091
 31
0.0
 11
-104.9099739331
 21
-47.1075695786
 31
0.0
 11
-104.8336712605
 21
-47.0005785105
 31
0.0
 11
-104.8007754951
 21
-46.9505233608
 31
0.0
 11
-104.7734854394
 21
-46.9040468568
 31
0.0
 11
-104.7540649498
 21
-46.8626200341
 31
0.0
 11
-104.7453850595
 21
-46.8281710943
 31
0.0
  0
SPLINE
  5
7FE
100
AcDbEntity
  8
0
100
AcDbSpline
 62
7
  6
CONTINUOUS
 70
0
 71
3
 72
9
 73
5
 74
3
 42
0.0000001
 43
0.0000001
 44
0.0000000001
 12
-0.3467040221
 22
-0.3467040221
 32
0.0
 13
-0.2708784607
 23
-0.4086957516
 33
0.0
 40
0.0
 40
0.0
 40
0.0
 40
0.0
 40
0.4683843223
 40
1.0
 40
1.0
 40
1.0
 40
1.0
 10
-104.1062500001
 20
-46.8982848234
 30
0.0
 10
-104.1603802429
 20
-46.9524150662
 30
0.0
 10
-104.2682643082
 20
-47.0757252024
 30
0.0
 10
-104.3635163622
 20
-47.2087860835
 30
0.0
 10
-104.4115174411
 20
-47.2812091065
 30
0.0
 11
-104.1062500001
 21
-46.8982848234
 31
0.0
 11
-104.2586713929
 21
-47.0700672915
 31
0.0
 11
-104.4115174411
 21
-47.2812091065
 31
0.0
  0
LINE
  5
7FF
100
AcDbEntity
  8
0
100
AcDbLine
 62
7
  6
CONTINUOUS
 10
-105.0329332607
 20
9.7187798893
 11
-104.9920364375
 21
9.7791861155
  0
SPLINE
  5
800
100
AcDbEntity
  8
0
100
AcDbSpline
 62
7
  6
CONTINUOUS
 70
0
 71
3
 72
13
 73
9
 74
7
 42
0.0000001
 43
0.0000001
 44
0.0000000001
 12
0.0410313234
 22
-0.5452577979
 32
0.0
 13
0.3348449094
 23
-0.4322829193
 33
0.0
 40
0.0
 40
0.0
 40
0.0
 40
0.0
 40
0.0753635142
 40
0.1746028585
 40
0.2918698037
 40
0.4216857393
 40
0.703857945
 40
1.0
 40
1.0
 40
1.0
 40
1.0
 10
-100.0671529207
 20
10.1723352052
 30
0.0
 10
-100.0661221658
 20
10.1586376906
 30
0.0
 10
-100.0556575451
 20
10.1278881824
 30
0.0
 10
-100.0309843347
 20
10.0808968593
 30
0.0
 10
-99.9972674097
 20
10.0274066251
 30
0.0
 10
-99.9423562491
 20
9.9481115271
 30
0.0
 10
-99.8649266814
 20
9.8447930014
 30
0.0
 10
-99.8003895592
 20
9.7614632775
 30
0.0
 10
-99.7673356726
 20
9.7187908935
 30
0.0
 11
-100.0671529207
 21
10.1723352052
 31
0.0
 11
-100.0562882644
 21
10.1325845008
 31
0.0
 11
-100.0319250453
 21
10.084097211
 31
0.0
 11
-99.9981332427
 21
10.029602432
 31
0.0
 11
-99.9579347502
 21
9.9710985218
 31
0.0
 11
-99.8661442063
 21
9.8470807981
 31
0.0
 11
-99.7673356726
 21
9.7187908935
 31
0.0
  0
SPLINE
  5
801
100
AcDbEntity
  8
0
100
AcDbSpline
 62
253
  6
CONTINUOUS
 70
0
 71
3
 72
13
 73
9
 74
7
 42
0.0000001
 43
0.0000001
 44
0.0000000001
 12
0.5640412635
 22
0.0000097519
 32
0.0
 13
-0.0000237641
 23
-0.5640412631
 33
0.0
 40
0.0
 40
0.0
 40
0.0
 40
0.0
 40
0.2496693899
 40
0.3748544704
 40
0.5000021108
 40
0.6251489127
 40
0.7503319114
 40
1.0
 40
1.0
 40
1.0
 40
1.0
 10
-35.9669101718
 20
29.0946083955
 30
0.0
 10
-35.9199688924
 20
29.0946092071
 30
0.0
 10
-35.8483899183
 20
29.0851212995
 30
0.0
 10
-35.7623004582
 20
29.0457409469
 30
0.0
 10
-35.7060184537
 20
29.0019448384
 30
0.0
 10
-35.662222405
 20
28.9456632891
 30
0.0
 10
-35.6228420934
 20
28.8595746963
 30
0.0
 10
-35.6133548035
 20
28.7879960396
 30
0.0
 10
-35.6133567812
 20
28.7410550049
 30
0.0
 11
-35.9669101718
 21
29.0946083955
 31
0.0
 11
-35.8277412731
 21
29.0730823409
 31
0.0
 11
-35.7636890652
 21
29.0433666319
 31
0.0
 11
-35.7080990843
 21
28.9998639777
 31
0.0
 11
-35.6645965649
 21
28.9442744918
 31
0.0
 11
-35.6348812156
 21
28.8802234115
 31
0.0
 11
-35.6133567812
 21
28.7410550049
 31
0.0
  0
LINE
  5
802
100
AcDbEntity
  8
0
100
AcDbLine
 62
7
  6
CONTINUOUS
 10
-100.8233066783
 20
10.218771855
 11
-100.70625
 21
10.1017151767
  0
LINE
  5
803
100
AcDbEntity
  8
0
100
AcDbLine
 62
7
  6
CONTINUOUS
 10
-101.7891933217
 20
10.218771855
 11
-101.9062500001
 21
10.1017151766
  0
SPLINE
  5
804
100
AcDbEntity
  8
0
100
AcDbSpline
 62
253
  6
CONTINUOUS
 70
0
 71
3
 72
13
 73
9
 74
7
 42
0.0000001
 43
0.0000001
 44
0.0000000001
 12
0.0000097519
 22
-0.5640412635
 32
0.0
 13
-0.5640412631
 23
0.0000237641
 33
0.0
 40
0.0
 40
0.0
 40
0.0
 40
0.0
 40
0.2496693899
 40
0.3748544704
 40
0.5000021108
 40
0.6251489127
 40
0.7503319114
 40
1.0
 40
1.0
 40
1.0
 40
1.0
 10
-35.6133567812
 20
27.3623753485
 30
0.0
 10
-35.6133559696
 20
27.3154340691
 30
0.0
 10
-35.6228438772
 20
27.243855095
 30
0.0
 10
-35.6622242298
 20
27.1577656349
 30
0.0
 10
-35.7060203383
 20
27.1014836305
 30
0.0
 10
-35.7623018876
 20
27.0576875817
 30
0.0
 10
-35.8483904805
 20
27.0183072701
 30
0.0
 10
-35.9199691371
 20
27.0088199802
 30
0.0
 10
-35.9669101718
 20
27.0088219579
 30
0.0
 11
-35.6133567812
 21
27.3623753485
 31
0.0
 11
-35.6348828358
 21
27.2232064498
 31
0.0
 11
-35.6645985448
 21
27.159154242
 31
0.0
 11
-35.708101199
 21
27.103564261
 31
0.0
 11
-35.7636906849
 21
27.0600617416
 31
0.0
 11
-35.8277417652
 21
27.0303463923
 31
0.0
 11
-35.9669101718
 21
27.0088219579
 31
0.0
  0
SPLINE
  5
805
100
AcDbEntity
  8
0
100
AcDbSpline
 62
7
  6
CONTINUOUS
 70
0
 71
3
 72
9
 73
5
 74
3
 42
0.0000001
 43
0.0000001
 44
0.0000000001
 12
0.3467040222
 22
-0.3467040222
 32
0.0
 13
0.2708784608
 23
-0.4086957517
 33
0.0
 40
0.0
 40
0.0
 40
0.0
 40
0.0
 40
0.4683843223
 40
1.0
 40
1.0
 40
1.0
 40
1.0
 10
-100.70625
 20
10.1017151767
 30
0.0
 10
-100.6521197572
 20
10.0475849339
 30
0.0
 10
-100.5442356919
 20
9.9242747977
 30
0.0
 10
-100.4489836378
 20
9.7912139165
 30
0.0
 10
-100.4009825589
 20
9.7187908935
 30
0.0
 11
-100.70625
 21
10.1017151767
 31
0.0
 11
-100.5538286071
 21
9.9299327085
 31
0.0
 11
-100.4009825589
 21
9.7187908935
 31
0.0
  0
SPLINE
  5
806
100
AcDbEntity
  8
0
100
AcDbSpline
 62
253
  6
CONTINUOUS
 70
0
 71
3
 72
13
 73
9
 74
7
 42
0.0000001
 43
0.0000001
 44
0.0000000001
 12
-0.5640412635
 22
-0.0000097519
 32
0.0
 13
0.0000237641
 23
0.5640412631
 33
0.0
 40
0.0
 40
0.0
 40
0.0
 40
0.0
 40
0.2496693899
 40
0.3748544704
 40
0.5000021108
 40
0.6251489127
 40
0.7503319114
 40
1.0
 40
1.0
 40
1.0
 40
1.0
 10
-56.8455898282
 20
-55.4911780421
 30
0.0
 10
-56.8925311076
 20
-55.4911788537
 30
0.0
 10
-56.9641100817
 20
-55.4816909461
 30
0.0
 10
-57.0501995418
 20
-55.4423105935
 30
0.0
 10
-57.1064815463
 20
-55.398514485
 30
0.0
 10
-57.150277595
 20
-55.3422329356
 30
0.0
 10
-57.1896579066
 20
-55.2561443428
 30
0.0
 10
-57.1991451965
 20
-55.1845656862
 30
0.0
 10
-57.1991432188
 20
-55.1376246515
 30
0.0
 11
-56.8455898282
 21
-55.4911780421
 31
0.0
 11
-56.9847587269
 21
-55.4696519875
 31
0.0
 11
-57.0488109348
 21
-55.4399362785
 31
0.0
 11
-57.1044009157
 21
-55.3964336243
 31
0.0
 11
-57.1479034351
 21
-55.3408441384
 31
0.0
 11
-57.1776187844
 21
-55.2767930581
 31
0.0
 11
-57.1991432188
 21
-55.1376246515
 31
0.0
  0
SPLINE
  5
807
100
AcDbEntity
  8
0
100
AcDbSpline
 62
7
  6
CONTINUOUS
 70
0
 71
3
 72
9
 73
5
 74
3
 42
0.0000001
 43
0.0000001
 44
0.0000000001
 12
-0.3467040221
 22
-0.3467040221
 32
0.0
 13
-0.2708784607
 23
-0.4086957516
 33
0.0
 40
0.0
 40
0.0
 40
0.0
 40
0.0
 40
0.4683843223
 40
1.0
 40
1.0
 40
1.0
 40
1.0
 10
-101.9062500001
 20
10.1017151766
 30
0.0
 10
-101.9603802429
 20
10.0475849338
 30
0.0
 10
-102.0682643082
 20
9.9242747976
 30
0.0
 10
-102.1635163622
 20
9.7912139165
 30
0.0
 10
-102.2115174411
 20
9.7187908935
 30
0.0
 11
-101.9062500001
 21
10.1017151766
 31
0.0
 11
-102.0586713929
 21
9.9299327085
 31
0.0
 11
-102.2115174411
 21
9.7187908935
 31
0.0
  0
SPLINE
  5
808
100
AcDbEntity
  8
0
100
AcDbSpline
 62
253
  6
CONTINUOUS
 70
0
 71
3
 72
13
 73
9
 74
7
 42
0.0000001
 43
0.0000001
 44
0.0000000001
 12
-0.0000097519
 22
0.5640412635
 32
0.0
 13
0.5640412631
 23
-0.0000237641
 33
0.0
 40
0.0
 40
0.0
 40
0.0
 40
0.0
 40
0.2496693899
 40
0.3748544704
 40
0.5000021108
 40
0.6251489127
 40
0.7503319114
 40
1.0
 40
1.0
 40
1.0
 40
1.0
 10
-57.1991432188
 20
-53.7589449951
 30
0.0
 10
-57.1991440304
 20
-53.7120037157
 30
0.0
 10
-57.1896561228
 20
-53.6404247416
 30
0.0
 10
-57.1502757702
 20
-53.5543352815
 30
0.0
 10
-57.1064796617
 20
-53.498053277
 30
0.0
 10
-57.0501981124
 20
-53.4542572282
 30
0.0
 10
-56.9641095195
 20
-53.4148769167
 30
0.0
 10
-56.8925308629
 20
-53.4053896268
 30
0.0
 10
-56.8455898282
 20
-53.4053916045
 30
0.0
 11
-57.1991432188
 21
-53.7589449951
 31
0.0
 11
-57.1776171642
 21
-53.6197760964
 31
0.0
 11
-57.1479014552
 21
-53.5557238885
 31
0.0
 11
-57.104398801
 21
-53.5001339076
 31
0.0
 11
-57.0488093151
 21
-53.4566313882
 31
0.0
 11
-56.9847582348
 21
-53.4269160389
 31
0.0
 11
-56.8455898282
 21
-53.4053916045
 31
0.0
  0
SPLINE
  5
809
100
AcDbEntity
  8
0
100
AcDbSpline
 62
253
  6
CONTINUOUS
 70
0
 71
3
 72
13
 73
9
 74
7
 42
0.0000001
 43
0.0000001
 44
0.0000000001
 12
0.5640412635
 22
0.0000097519
 32
0.0
 13
-0.0000237641
 23
-0.5640412631
 33
0.0
 40
0.0
 40
0.0
 40
0.0
 40
0.0
 40
0.2496693899
 40
0.3748544704
 40
0.5000021108
 40
0.6251489127
 40
0.7503319114
 40
1.0
 40
1.0
 40
1.0
 40
1.0
 10
-35.9669101718
 20
-53.4053916045
 30
0.0
 10
-35.9199688924
 20
-53.4053907929
 30
0.0
 10
-35.8483899183
 20
-53.4148787005
 30
0.0
 10
-35.7623004582
 20
-53.4542590531
 30
0.0
 10
-35.7060184537
 20
-53.4980551616
 30
0.0
 10
-35.662222405
 20
-53.5543367109
 30
0.0
 10
-35.6228420934
 20
-53.6404253037
 30
0.0
 10
-35.6133548035
 20
-53.7120039604
 30
0.0
 10
-35.6133567812
 20
-53.7589449951
 30
0.0
 11
-35.9669101718
 21
-53.4053916045
 31
0.0
 11
-35.8277412731
 21
-53.4269176591
 31
0.0
 11
-35.7636890652
 21
-53.4566333681
 31
0.0
 11
-35.7080990843
 21
-53.5001360223
 31
0.0
 11
-35.6645965649
 21
-53.5557255082
 31
0.0
 11
-35.6348812156
 21
-53.6197765885
 31
0.0
 11
-35.6133567812
 21
-53.7589449951
 31
0.0
  0
SPLINE
  5
80A
100
AcDbEntity
  8
0
100
AcDbSpline
 62
253
  6
CONTINUOUS
 70
0
 71
3
 72
13
 73
9
 74
7
 42
0.0000001
 43
0.0000001
 44
0.0000000001
 12
0.0000097519
 22
-0.5640412635
 32
0.0
 13
-0.5640412631
 23
0.0000237641
 33
0.0
 40
0.0
 40
0.0
 40
0.0
 40
0.0
 40
0.2496693899
 40
0.3748544704
 40
0.5000021108
 40
0.6251489127
 40
0.7503319114
 40
1.0
 40
1.0
 40
1.0
 40
1.0
 10
-35.6133567812
 20
-55.1376246515
 30
0.0
 10
-35.6133559696
 20
-55.1845659309
 30
0.0
 10
-35.6228438772
 20
-55.256144905
 30
0.0
 10
-35.6622242298
 20
-55.3422343651
 30
0.0
 10
-35.7060203383
 20
-55.3985163695
 30
0.0
 10
-35.7623018876
 20
-55.4423124183
 30
0.0
 10
-35.8483904805
 20
-55.4816927299
 30
0.0
 10
-35.9199691371
 20
-55.4911800198
 30
0.0
 10
-35.9669101718
 20
-55.4911780421
 30
0.0
 11
-35.6133567812
 21
-55.1376246515
 31
0.0
 11
-35.6348828358
 21
-55.2767935502
 31
0.0
 11
-35.6645985448
 21
-55.340845758
 31
0.0
 11
-35.708101199
 21
-55.396435739
 31
0.0
 11
-35.7636906849
 21
-55.4399382584
 31
0.0
 11
-35.8277417652
 21
-55.4696536077
 31
0.0
 11
-35.9669101718
 21
-55.4911780421
 31
0.0
  0
SPLINE
  5
80B
100
AcDbEntity
  8
0
100
AcDbSpline
 62
7
  6
CONTINUOUS
 70
0
 71
3
 72
9
 73
5
 74
3
 42
0.0000001
 43
0.0000001
 44
0.0000000001
 12
0.3467040221
 22
0.3467040221
 32
0.0
 13
0.2708784607
 23
0.4086957516
 33
0.0
 40
0.0
 40
0.0
 40
0.0
 40
0.0
 40
0.4683843223
 40
1.0
 40
1.0
 40
1.0
 40
1.0
 10
-102.9062499999
 20
-36.4982848232
 30
0.0
 10
-102.8521197571
 20
-36.4441545804
 30
0.0
 10
-102.7442356918
 20
-36.3208444442
 30
0.0
 10
-102.6489836378
 20
-36.1877835631
 30
0.0
 10
-102.6009825589
 20
-36.1153605401
 30
0.0
 11
-102.9062499999
 21
-36.4982848232
 31
0.0
 11
-102.7538286071
 21
-36.3265023551
 31
0.0
 11
-102.6009825589
 21
-36.1153605401
 31
0.0
  0
LINE
  5
80C
100
AcDbEntity
  8
0
100
AcDbLine
 62
7
  6
CONTINUOUS
 10
-101.7891933217
 20
-36.6153415016
 11
-101.90625
 21
-36.4982848233
  0
LINE
  5
80D
100
AcDbEntity
  8
0
100
AcDbLine
 62
7
  6
CONTINUOUS
 10
-100.8233066783
 20
-36.6153415016
 11
-100.7062499999
 21
-36.4982848232
  0
LINE
  5
80E
100
AcDbEntity
  8
0
100
AcDbLine
 62
7
  6
CONTINUOUS
 10
-103.9891933217
 20
-36.6153415016
 11
-104.10625
 21
-36.4982848233
  0
SPLINE
  5
80F
100
AcDbEntity
  8
0
100
AcDbSpline
 62
7
  6
CONTINUOUS
 70
0
 71
3
 72
9
 73
5
 74
3
 42
0.0000001
 43
0.0000001
 44
0.0000000001
 12
-0.3467040222
 22
0.3467040222
 32
0.0
 13
-0.2708784608
 23
0.4086957517
 33
0.0
 40
0.0
 40
0.0
 40
0.0
 40
0.0
 40
0.4683843223
 40
1.0
 40
1.0
 40
1.0
 40
1.0
 10
-101.90625
 20
-36.4982848233
 30
0.0
 10
-101.9603802428
 20
-36.4441545805
 30
0.0
 10
-102.0682643081
 20
-36.3208444442
 30
0.0
 10
-102.1635163622
 20
-36.1877835631
 30
0.0
 10
-102.2115174411
 20
-36.1153605401
 30
0.0
 11
-101.90625
 21
-36.4982848233
 31
0.0
 11
-102.0586713929
 21
-36.3265023551
 31
0.0
 11
-102.2115174411
 21
-36.1153605401
 31
0.0
  0
LINE
  5
810
100
AcDbEntity
  8
0
100
AcDbLine
 62
7
  6
CONTINUOUS
 10
-104.9920364375
 20
-36.1757557621
 11
-105.0329332607
 21
-36.1153495362
  0
LINE
  5
811
100
AcDbEntity
  8
0
100
AcDbLine
 62
7
  6
CONTINUOUS
 10
-103.0233066783
 20
-36.6153415016
 11
-102.9062499999
 21
-36.4982848232
  0
SPLINE
  5
812
100
AcDbEntity
  8
0
100
AcDbSpline
 62
7
  6
CONTINUOUS
 70
0
 71
3
 72
13
 73
9
 74
7
 42
0.0000001
 43
0.0000001
 44
0.0000000001
 12
-0.3348449166
 22
-0.4322829285
 32
0.0
 13
-0.0410313243
 23
-0.5452578096
 33
0.0
 40
0.0
 40
0.0
 40
0.0
 40
0.0
 40
0.2961462431
 40
0.5783179617
 40
0.7081332356
 40
0.8253995191
 40
0.9246377988
 40
1.0
 40
1.0
 40
1.0
 40
1.0
 10
-99.7673356726
 20
-36.1153605401
 30
0.0
 10
-99.8003900273
 20
-36.1580335285
 30
0.0
 10
-99.8649275716
 20
-36.2413637819
 30
0.0
 10
-99.9423574241
 20
-36.3446827894
 30
0.0
 10
-99.9972683669
 20
-36.423977641
 30
0.0
 10
-100.0309849855
 20
-36.4774675533
 30
0.0
 10
-100.0556578208
 20
-36.5244584622
 30
0.0
 10
-100.0661221838
 20
-36.5552075755
 30
0.0
 10
-100.0671529207
 20
-36.5689048518
 30
0.0
 11
-99.7673356726
 21
-36.1153605401
 31
0.0
 11
-99.8661455985
 21
-36.2436522674
 31
0.0
 11
-99.9579359368
 21
-36.3676698159
 31
0.0
 11
-99.9981341906
 21
-36.426173453
 31
0.0
 11
-100.031925722
 21
-36.4806679761
 31
0.0
 11
-100.0562885479
 21
-36.5291548132
 31
0.0
 11
-100.0671529207
 21
-36.5689048518
 31
0.0
  0
SPLINE
  5
813
100
AcDbEntity
  8
0
100
AcDbSpline
 62
7
  6
CONTINUOUS
 70
0
 71
3
 72
9
 73
5
 74
3
 42
0.0000001
 43
0.0000001
 44
0.0000000001
 12
-0.3467040222
 22
0.3467040222
 32
0.0
 13
-0.2708784608
 23
0.4086957517
 33
0.0
 40
0.0
 40
0.0
 40
0.0
 40
0.0
 40
0.4683843223
 40
1.0
 40
1.0
 40
1.0
 40
1.0
 10
-104.10625
 20
-36.4982848233
 30
0.0
 10
-104.1603802428
 20
-36.4441545805
 30
0.0
 10
-104.2682643081
 20
-36.3208444442
 30
0.0
 10
-104.3635163622
 20
-36.1877835631
 30
0.0
 10
-104.4115174411
 20
-36.1153605401
 30
0.0
 11
-104.10625
 21
-36.4982848233
 31
0.0
 11
-104.2586713929
 21
-36.3265023551
 31
0.0
 11
-104.4115174411
 21
-36.1153605401
 31
0.0
  0
SPLINE
  5
814
100
AcDbEntity
  8
0
100
AcDbSpline
 62
7
  6
CONTINUOUS
 70
0
 71
3
 72
9
 73
5
 74
3
 42
0.0000001
 43
0.0000001
 44
0.0000000001
 12
0.3467040221
 22
0.3467040221
 32
0.0
 13
0.2708784607
 23
0.4086957516
 33
0.0
 40
0.0
 40
0.0
 40
0.0
 40
0.0
 40
0.4683843223
 40
1.0
 40
1.0
 40
1.0
 40
1.0
 10
-100.7062499999
 20
-36.4982848232
 30
0.0
 10
-100.6521197571
 20
-36.4441545804
 30
0.0
 10
-100.5442356918
 20
-36.3208444442
 30
0.0
 10
-100.4489836378
 20
-36.1877835631
 30
0.0
 10
-100.4009825589
 20
-36.1153605401
 30
0.0
 11
-100.7062499999
 21
-36.4982848232
 31
0.0
 11
-100.5538286071
 21
-36.3265023551
 31
0.0
 11
-100.4009825589
 21
-36.1153605401
 31
0.0
  0
LINE
  5
815
100
AcDbEntity
  8
0
100
AcDbLine
 62
7
  6
CONTINUOUS
 10
-105.0329332607
 20
-47.2812201107
 11
-104.9920364375
 21
-47.2208138845
  0
SPLINE
  5
816
100
AcDbEntity
  8
0
100
AcDbSpline
 62
7
  6
CONTINUOUS
 70
0
 71
3
 72
13
 73
9
 74
7
 42
0.0000001
 43
0.0000001
 44
0.0000000001
 12
0.0410313234
 22
-0.5452577979
 32
0.0
 13
0.3348449094
 23
-0.4322829193
 33
0.0
 40
0.0
 40
0.0
 40
0.0
 40
0.0
 40
0.0753635142
 40
0.1746028585
 40
0.2918698037
 40
0.4216857393
 40
0.703857945
 40
1.0
 40
1.0
 40
1.0
 40
1.0
 10
-100.0671529207
 20
-46.8276647948
 30
0.0
 10
-100.0661221658
 20
-46.8413623094
 30
0.0
 10
-100.0556575451
 20
-46.8721118176
 30
0.0
 10
-100.0309843347
 20
-46.9191031407
 30
0.0
 10
-99.9972674097
 20
-46.9725933749
 30
0.0
 10
-99.9423562491
 20
-47.0518884729
 30
0.0
 10
-99.8649266814
 20
-47.1552069986
 30
0.0
 10
-99.8003895592
 20
-47.2385367225
 30
0.0
 10
-99.7673356726
 20
-47.2812091065
 30
0.0
 11
-100.0671529207
 21
-46.8276647948
 31
0.0
 11
-100.0562882644
 21
-46.8674154992
 31
0.0
 11
-100.0319250453
 21
-46.915902789
 31
0.0
 11
-99.9981332427
 21
-46.970397568
 31
0.0
 11
-99.9579347502
 21
-47.0289014782
 31
0.0
 11
-99.8661442063
 21
-47.1529192019
 31
0.0
 11
-99.7673356726
 21
-47.2812091065
 31
0.0
  0
LINE
  5
817
100
AcDbEntity
  8
0
100
AcDbLine
 62
7
  6
CONTINUOUS
 10
-100.8233066783
 20
-46.781228145
 11
-100.70625
 21
-46.8982848233
  0
LINE
  5
818
100
AcDbEntity
  8
0
100
AcDbLine
 62
7
  6
CONTINUOUS
 10
-101.7891933217
 20
-46.781228145
 11
-101.9062500001
 21
-46.8982848234
  0
SPLINE
  5
819
100
AcDbEntity
  8
0
100
AcDbSpline
 62
7
  6
CONTINUOUS
 70
0
 71
3
 72
14
 73
10
 74
8
 42
0.0000001
 43
0.0000001
 44
0.0000000001
 12
-0.0347761249
 22
0.4650408308
 32
0.0
 13
-0.2611020623
 23
0.3863910794
 33
0.0
 40
0.0
 40
0.0
 40
0.0
 40
0.0
 40
0.0761815082
 40
0.1742933192
 40
0.2898659863
 40
0.4183057524
 40
0.7000997906
 40
0.8486593537
 40
1.0
 40
1.0
 40
1.0
 40
1.0
 10
-104.7453850595
 20
-36.5683985522
 30
0.0
 10
-104.7462681587
 20
-36.5565893816
 30
0.0
 10
-104.7543504775
 20
-36.5302435612
 30
0.0
 10
-104.7741624155
 20
-36.4898262466
 30
0.0
 10
-104.8014724626
 20
-36.4441030426
 30
0.0
 10
-104.8466212797
 20
-36.3759716933
 30
0.0
 10
-104.8976341765
 20
-36.3056249004
 30
0.0
 10
-104.951294384
 20
-36.2328624916
 30
0.0
 10
-104.9788646526
 20
-36.1952479873
 30
0.0
 10
-104.9920364375
 20
-36.1757557621
 30
0.0
 11
-104.7453850595
 21
-36.5683985522
 31
0.0
 11
-104.7540653066
 21
-36.5339488688
 31
0.0
 11
-104.7734859687
 21
-36.4925216921
 31
0.0
 11
-104.8007760214
 21
-36.4460454589
 31
0.0
 11
-104.8336715544
 21
-36.3959907282
 31
0.0
 11
-104.9099738844
 21
-36.2890002008
 31
0.0
 11
-104.9510145312
 21
-36.2331856156
 31
0.0
 11
-104.9920364375
 21
-36.1757557621
 31
0.0
  0
SPLINE
  5
81A
100
AcDbEntity
  8
0
100
AcDbSpline
 62
7
  6
CONTINUOUS
 70
0
 71
3
 72
9
 73
5
 74
3
 42
0.0000001
 43
0.0000001
 44
0.0000000001
 12
0.3467040222
 22
-0.3467040222
 32
0.0
 13
0.2708784608
 23
-0.4086957517
 33
0.0
 40
0.0
 40
0.0
 40
0.0
 40
0.0
 40
0.4683843223
 40
1.0
 40
1.0
 40
1.0
 40
1.0
 10
-100.70625
 20
-46.8982848233
 30
0.0
 10
-100.6521197572
 20
-46.9524150661
 30
0.0
 10
-100.5442356919
 20
-47.0757252023
 30
0.0
 10
-100.4489836378
 20
-47.2087860835
 30
0.0
 10
-100.4009825589
 20
-47.2812091065
 30
0.0
 11
-100.70625
 21
-46.8982848233
 31
0.0
 11
-100.5538286071
 21
-47.0700672915
 31
0.0
 11
-100.4009825589
 21
-47.2812091065
 31
0.0
  0
SPLINE
  5
81B
100
AcDbEntity
  8
0
100
AcDbSpline
 62
253
  6
CONTINUOUS
 70
0
 71
3
 72
13
 73
9
 74
7
 42
0.0000001
 43
0.0000001
 44
0.0000000001
 12
-1.6921466485
 22
0.000192337
 32
0.0
 13
-0.0002770652
 23
1.6921466368
 33
0.0
 40
0.0
 40
0.0
 40
0.0
 40
0.0
 40
0.2496868338
 40
0.3748739693
 40
0.499997839
 40
0.6251215754
 40
0.7503094394
 40
1.0
 40
1.0
 40
1.0
 40
1.0
 10
-57.1526966094
 20
-56.5053916045
 30
0.0
 10
-57.2935321891
 20
-56.5053755965
 30
0.0
 10
-57.5082831152
 20
-56.4769385415
 30
0.0
 10
-57.7665563083
 20
-56.3587959221
 30
0.0
 10
-57.9353786185
 20
-56.2274167795
 30
0.0
 10
-58.0667679826
 20
-56.0586009729
 30
0.0
 10
-58.1849085457
 20
-55.8003221967
 30
0.0
 10
-58.213333721
 20
-55.5855691135
 30
0.0
 10
-58.2133567812
 20
-55.4447314327
 30
0.0
 11
-57.1526966094
 21
-56.5053916045
 31
0.0
 11
-57.5702390635
 21
-56.440814164
 31
0.0
 11
-57.7624018538
 21
-56.351665264
 31
0.0
 11
-57.9291408573
 21
-56.2211783894
 31
0.0
 11
-58.059635008
 21
-56.0544453664
 31
0.0
 11
-58.1487831226
 21
-55.862280853
 31
0.0
 11
-58.2133567812
 21
-55.4447314327
 31
0.0
  0
SPLINE
  5
81C
100
AcDbEntity
  8
0
100
AcDbSpline
 62
253
  6
CONTINUOUS
 70
0
 71
3
 72
13
 73
9
 74
7
 42
0.0000001
 43
0.0000001
 44
0.0000000001
 12
-0.000192337
 22
-1.6921466485
 32
0.0
 13
-1.6921466368
 23
-0.0002770652
 33
0.0
 40
0.0
 40
0.0
 40
0.0
 40
0.0
 40
0.2496868338
 40
0.3748739693
 40
0.499997839
 40
0.6251215754
 40
0.7503094394
 40
1.0
 40
1.0
 40
1.0
 40
1.0
 10
-34.5991432188
 20
-55.4447314327
 30
0.0
 10
-34.5991592268
 20
-55.5855670124
 30
0.0
 10
-34.6275962818
 20
-55.8003179385
 30
0.0
 10
-34.7457389011
 20
-56.0585911315
 30
0.0
 10
-34.8771180437
 20
-56.2274134418
 30
0.0
 10
-35.0459338504
 20
-56.3588028059
 30
0.0
 10
-35.3042126266
 20
-56.476943369
 30
0.0
 10
-35.5189657098
 20
-56.5053685443
 30
0.0
 10
-35.6598033906
 20
-56.5053916045
 30
0.0
 11
-34.5991432188
 21
-55.4447314327
 31
0.0
 11
-34.6637206593
 21
-55.8622738868
 31
0.0
 11
-34.7528695593
 21
-56.0544366771
 31
0.0
 11
-34.8833564339
 21
-56.2211756806
 31
0.0
 11
-35.0500894569
 21
-56.3516698313
 31
0.0
 11
-35.2422539703
 21
-56.4408179458
 31
0.0
 11
-35.6598033906
 21
-56.5053916045
 31
0.0
  0
SPLINE
  5
81D
100
AcDbEntity
  8
0
100
AcDbSpline
 62
253
  6
CONTINUOUS
 70
0
 71
3
 72
13
 73
9
 74
7
 42
0.0000001
 43
0.0000001
 44
0.0000000001
 12
1.6921466485
 22
-0.000192337
 32
0.0
 13
0.0002770652
 23
-1.6921466368
 33
0.0
 40
0.0
 40
0.0
 40
0.0
 40
0.0
 40
0.2496868338
 40
0.3748739693
 40
0.499997839
 40
0.6251215754
 40
0.7503094394
 40
1.0
 40
1.0
 40
1.0
 40
1.0
 10
-35.6598033906
 20
-52.3911780421
 30
0.0
 10
-35.5189678109
 20
-52.3911940501
 30
0.0
 10
-35.3042168848
 20
-52.4196311051
 30
0.0
 10
-35.0459436917
 20
-52.5377737244
 30
0.0
 10
-34.8771213815
 20
-52.669152867
 30
0.0
 10
-34.7457320174
 20
-52.8379686737
 30
0.0
 10
-34.6275914543
 20
-53.0962474498
 30
0.0
 10
-34.599166279
 20
-53.3110005331
 30
0.0
 10
-34.5991432188
 20
-53.4518382139
 30
0.0
 11
-35.6598033906
 21
-52.3911780421
 31
0.0
 11
-35.2422609365
 21
-52.4557554826
 31
0.0
 11
-35.0500981462
 21
-52.5449043826
 31
0.0
 11
-34.8833591427
 21
-52.6753912572
 31
0.0
 11
-34.752864992
 21
-52.8421242802
 31
0.0
 11
-34.6637168774
 21
-53.0342887936
 31
0.0
 11
-34.5991432188
 21
-53.4518382139
 31
0.0
  0
SPLINE
  5
81E
100
AcDbEntity
  8
0
100
AcDbSpline
 62
253
  6
CONTINUOUS
 70
0
 71
3
 72
13
 73
9
 74
7
 42
0.0000001
 43
0.0000001
 44
0.0000000001
 12
0.000192337
 22
1.6921466485
 32
0.0
 13
1.6921466368
 23
0.0002770652
 33
0.0
 40
0.0
 40
0.0
 40
0.0
 40
0.0
 40
0.2496868338
 40
0.3748739693
 40
0.499997839
 40
0.6251215754
 40
0.7503094394
 40
1.0
 40
1.0
 40
1.0
 40
1.0
 10
-58.2133567812
 20
-53.4518382139
 30
0.0
 10
-58.2133407732
 20
-53.3110026342
 30
0.0
 10
-58.1849037182
 20
-53.0962517081
 30
0.0
 10
-58.0667610989
 20
-52.837978515
 30
0.0
 10
-57.9353819563
 20
-52.6691562048
 30
0.0
 10
-57.7665661496
 20
-52.5377668406
 30
0.0
 10
-57.5082873734
 20
-52.4196262776
 30
0.0
 10
-57.2935342902
 20
-52.3912011023
 30
0.0
 10
-57.1526966094
 20
-52.3911780421
 30
0.0
 11
-58.2133567812
 21
-53.4518382139
 31
0.0
 11
-58.1487793407
 21
-53.0342957598
 31
0.0
 11
-58.0596304407
 21
-52.8421329695
 31
0.0
 11
-57.9291435661
 21
-52.6753939659
 31
0.0
 11
-57.7624105431
 21
-52.5448998153
 31
0.0
 11
-57.5702460297
 21
-52.4557517007
 31
0.0
 11
-57.1526966094
 21
-52.3911780421
 31
0.0
  0
SPLINE
  5
81F
100
AcDbEntity
  8
0
100
AcDbSpline
 62
253
  6
CONTINUOUS
 70
0
 71
3
 72
13
 73
9
 74
7
 42
0.0000001
 43
0.0000001
 44
0.0000000001
 12
-1.6921466485
 22
0.000192337
 32
0.0
 13
-0.0002770652
 23
1.6921466368
 33
0.0
 40
0.0
 40
0.0
 40
0.0
 40
0.0
 40
0.2496868338
 40
0.3748739693
 40
0.499997839
 40
0.6251215754
 40
0.7503094394
 40
1.0
 40
1.0
 40
1.0
 40
1.0
 10
-57.1526966094
 20
25.9946083955
 30
0.0
 10
-57.2935321891
 20
25.9946244035
 30
0.0
 10
-57.5082831152
 20
26.0230614585
 30
0.0
 10
-57.7665563083
 20
26.1412040779
 30
0.0
 10
-57.9353786185
 20
26.2725832205
 30
0.0
 10
-58.0667679826
 20
26.4413990271
 30
0.0
 10
-58.1849085457
 20
26.6996778033
 30
0.0
 10
-58.213333721
 20
26.9144308865
 30
0.0
 10
-58.2133567812
 20
27.0552685673
 30
0.0
 11
-57.1526966094
 21
25.9946083955
 31
0.0
 11
-57.5702390635
 21
26.059185836
 31
0.0
 11
-57.7624018538
 21
26.148334736
 31
0.0
 11
-57.9291408573
 21
26.2788216106
 31
0.0
 11
-58.059635008
 21
26.4455546336
 31
0.0
 11
-58.1487831226
 21
26.637719147
 31
0.0
 11
-58.2133567812
 21
27.0552685673
 31
0.0
  0
SPLINE
  5
820
100
AcDbEntity
  8
0
100
AcDbSpline
 62
253
  6
CONTINUOUS
 70
0
 71
3
 72
13
 73
9
 74
7
 42
0.0000001
 43
0.0000001
 44
0.0000000001
 12
-0.000192337
 22
-1.6921466485
 32
0.0
 13
-1.6921466368
 23
-0.0002770652
 33
0.0
 40
0.0
 40
0.0
 40
0.0
 40
0.0
 40
0.2496868338
 40
0.3748739693
 40
0.499997839
 40
0.6251215754
 40
0.7503094394
 40
1.0
 40
1.0
 40
1.0
 40
1.0
 10
-34.5991432188
 20
27.0552685673
 30
0.0
 10
-34.5991592268
 20
26.9144329876
 30
0.0
 10
-34.6275962818
 20
26.6996820615
 30
0.0
 10
-34.7457389011
 20
26.4414088685
 30
0.0
 10
-34.8771180437
 20
26.2725865582
 30
0.0
 10
-35.0459338504
 20
26.1411971941
 30
0.0
 10
-35.3042126266
 20
26.023056631
 30
0.0
 10
-35.5189657098
 20
25.9946314557
 30
0.0
 10
-35.6598033906
 20
25.9946083955
 30
0.0
 11
-34.5991432188
 21
27.0552685673
 31
0.0
 11
-34.6637206593
 21
26.6377261132
 31
0.0
 11
-34.7528695593
 21
26.4455633229
 31
0.0
 11
-34.8833564339
 21
26.2788243194
 31
0.0
 11
-35.0500894569
 21
26.1483301687
 31
0.0
 11
-35.2422539703
 21
26.0591820542
 31
0.0
 11
-35.6598033906
 21
25.9946083955
 31
0.0
  0
SPLINE
  5
821
100
AcDbEntity
  8
0
100
AcDbSpline
 62
253
  6
CONTINUOUS
 70
0
 71
3
 72
13
 73
9
 74
7
 42
0.0000001
 43
0.0000001
 44
0.0000000001
 12
1.6921466485
 22
-0.000192337
 32
0.0
 13
0.0002770652
 23
-1.6921466368
 33
0.0
 40
0.0
 40
0.0
 40
0.0
 40
0.0
 40
0.2496868338
 40
0.3748739693
 40
0.499997839
 40
0.6251215754
 40
0.7503094394
 40
1.0
 40
1.0
 40
1.0
 40
1.0
 10
-35.6598033906
 20
30.1088219579
 30
0.0
 10
-35.5189678109
 20
30.1088059499
 30
0.0
 10
-35.3042168848
 20
30.0803688949
 30
0.0
 10
-35.0459436917
 20
29.9622262756
 30
0.0
 10
-34.8771213815
 20
29.830847133
 30
0.0
 10
-34.7457320174
 20
29.6620313263
 30
0.0
 10
-34.6275914543
 20
29.4037525502
 30
0.0
 10
-34.599166279
 20
29.1889994669
 30
0.0
 10
-34.5991432188
 20
29.0481617861
 30
0.0
 11
-35.6598033906
 21
30.1088219579
 31
0.0
 11
-35.2422609365
 21
30.0442445174
 31
0.0
 11
-35.0500981462
 21
29.9550956174
 31
0.0
 11
-34.8833591427
 21
29.8246087428
 31
0.0
 11
-34.752864992
 21
29.6578757198
 31
0.0
 11
-34.6637168774
 21
29.4657112064
 31
0.0
 11
-34.5991432188
 21
29.0481617861
 31
0.0
  0
SPLINE
  5
822
100
AcDbEntity
  8
0
100
AcDbSpline
 62
253
  6
CONTINUOUS
 70
0
 71
3
 72
13
 73
9
 74
7
 42
0.0000001
 43
0.0000001
 44
0.0000000001
 12
0.000192337
 22
1.6921466485
 32
0.0
 13
1.6921466368
 23
0.0002770652
 33
0.0
 40
0.0
 40
0.0
 40
0.0
 40
0.0
 40
0.2496868338
 40
0.3748739693
 40
0.499997839
 40
0.6251215754
 40
0.7503094394
 40
1.0
 40
1.0
 40
1.0
 40
1.0
 10
-58.2133567812
 20
29.0481617861
 30
0.0
 10
-58.2133407732
 20
29.1889973658
 30
0.0
 10
-58.1849037182
 20
29.4037482919
 30
0.0
 10
-58.0667610989
 20
29.662021485
 30
0.0
 10
-57.9353819563
 20
29.8308437952
 30
0.0
 10
-57.7665661496
 20
29.9622331594
 30
0.0
 10
-57.5082873734
 20
30.0803737224
 30
0.0
 10
-57.2935342902
 20
30.1087988977
 30
0.0
 10
-57.1526966094
 20
30.1088219579
 30
0.0
 11
-58.2133567812
 21
29.0481617861
 31
0.0
 11
-58.1487793407
 21
29.4657042402
 31
0.0
 11
-58.0596304407
 21
29.6578670305
 31
0.0
 11
-57.9291435661
 21
29.8246060341
 31
0.0
 11
-57.7624105431
 21
29.9551001847
 31
0.0
 11
-57.5702460297
 21
30.0442482993
 31
0.0
 11
-57.1526966094
 21
30.1088219579
 31
0.0
  0
LINE
  5
823
100
AcDbEntity
  8
0
100
AcDbLine
 62
7
  6
CONTINUOUS
 10
-103.0233066783
 20
10.218771855
 11
-102.90625
 21
10.1017151767
  0
LINE
  5
824
100
AcDbEntity
  8
0
100
AcDbLine
 62
7
  6
CONTINUOUS
 10
-103.9891933217
 20
10.218771855
 11
-104.1062500001
 21
10.1017151766
  0
SPLINE
  5
825
100
AcDbEntity
  8
0
100
AcDbSpline
 62
7
  6
CONTINUOUS
 70
0
 71
3
 72
9
 73
5
 74
3
 42
0.0000001
 43
0.0000001
 44
0.0000000001
 12
0.3467040222
 22
-0.3467040222
 32
0.0
 13
0.2708784608
 23
-0.4086957517
 33
0.0
 40
0.0
 40
0.0
 40
0.0
 40
0.0
 40
0.4683843223
 40
1.0
 40
1.0
 40
1.0
 40
1.0
 10
-102.90625
 20
10.1017151767
 30
0.0
 10
-102.8521197572
 20
10.0475849339
 30
0.0
 10
-102.7442356919
 20
9.9242747977
 30
0.0
 10
-102.6489836378
 20
9.7912139165
 30
0.0
 10
-102.6009825589
 20
9.7187908935
 30
0.0
 11
-102.90625
 21
10.1017151767
 31
0.0
 11
-102.7538286071
 21
9.9299327085
 31
0.0
 11
-102.6009825589
 21
9.7187908935
 31
0.0
  0
SPLINE
  5
826
100
AcDbEntity
  8
0
100
AcDbSpline
 62
7
  6
CONTINUOUS
 70
0
 71
3
 72
14
 73
10
 74
8
 42
0.0000001
 43
0.0000001
 44
0.0000000001
 12
0.261102071
 22
0.3863910923
 32
0.0
 13
0.034776126
 23
0.4650408463
 33
0.0
 40
0.0
 40
0.0
 40
0.0
 40
0.0
 40
0.1513403236
 40
0.2998999112
 40
0.5816953106
 40
0.710136097
 40
0.8257092643
 40
0.9238202276
 40
1.0
 40
1.0
 40
1.0
 40
1.0
 10
-104.9920364375
 20
9.7791861155
 30
0.0
 10
-104.9788646802
 20
9.7986782998
 30
0.0
 10
-104.9512946044
 20
9.8362928874
 30
0.0
 10
-104.8976339871
 20
9.9090552062
 30
0.0
 10
-104.8466210459
 20
9.9794024262
 30
0.0
 10
-104.8014719259
 20
10.0475341264
 30
0.0
 10
-104.7741620543
 20
10.0932575424
 30
0.0
 10
-104.7543500838
 20
10.1336745088
 30
0.0
 10
-104.7462681386
 20
10.1600200037
 30
0.0
 10
-104.7453850595
 20
10.1718289057
 30
0.0
 11
-104.9920364375
 21
9.7791861155
 31
0.0
 11
-104.9510147021
 21
9.836615909
 31
0.0
 11
-104.9099739331
 21
9.8924304214
 31
0.0
 11
-104.8336712605
 21
9.9994214895
 31
0.0
 11
-104.8007754951
 21
10.0494766392
 31
0.0
 11
-104.7734854394
 21
10.0959531432
 31
0.0
 11
-104.7540649498
 21
10.1373799659
 31
0.0
 11
-104.7453850595
 21
10.1718289057
 31
0.0
  0
SPLINE
  5
827
100
AcDbEntity
  8
0
100
AcDbSpline
 62
7
  6
CONTINUOUS
 70
0
 71
3
 72
9
 73
5
 74
3
 42
0.0000001
 43
0.0000001
 44
0.0000000001
 12
-0.3467040221
 22
-0.3467040221
 32
0.0
 13
-0.2708784607
 23
-0.4086957516
 33
0.0
 40
0.0
 40
0.0
 40
0.0
 40
0.0
 40
0.4683843223
 40
1.0
 40
1.0
 40
1.0
 40
1.0
 10
-104.1062500001
 20
10.1017151766
 30
0.0
 10
-104.1603802429
 20
10.0475849338
 30
0.0
 10
-104.2682643082
 20
9.9242747976
 30
0.0
 10
-104.3635163622
 20
9.7912139165
 30
0.0
 10
-104.4115174411
 20
9.7187908935
 30
0.0
 11
-104.1062500001
 21
10.1017151766
 31
0.0
 11
-104.2586713929
 21
9.9299327085
 31
0.0
 11
-104.4115174411
 21
9.7187908935
 31
0.0
  0
LINE
  5
828
100
AcDbEntity
  8
0
100
AcDbLine
 62
7
  6
CONTINUOUS
 10
-104.9920364375
 20
20.8242442379
 11
-105.0329332607
 21
20.8846504638
  0
SPLINE
  5
829
100
AcDbEntity
  8
0
100
AcDbSpline
 62
7
  6
CONTINUOUS
 70
0
 71
3
 72
14
 73
10
 74
8
 42
0.0000001
 43
0.0000001
 44
0.0000000001
 12
-0.0347761249
 22
0.4650408308
 32
0.0
 13
-0.2611020623
 23
0.3863910794
 33
0.0
 40
0.0
 40
0.0
 40
0.0
 40
0.0
 40
0.0761815082
 40
0.1742933192
 40
0.2898659863
 40
0.4183057524
 40
0.7000997906
 40
0.8486593537
 40
1.0
 40
1.0
 40
1.0
 40
1.0
 10
-104.7453850595
 20
20.4316014478
 30
0.0
 10
-104.7462681587
 20
20.4434106184
 30
0.0
 10
-104.7543504775
 20
20.4697564388
 30
0.0
 10
-104.7741624155
 20
20.5101737534
 30
0.0
 10
-104.8014724626
 20
20.5558969574
 30
0.0
 10
-104.8466212797
 20
20.6240283067
 30
0.0
 10
-104.8976341765
 20
20.6943750996
 30
0.0
 10
-104.951294384
 20
20.7671375084
 30
0.0
 10
-104.9788646526
 20
20.8047520127
 30
0.0
 10
-104.9920364375
 20
20.8242442379
 30
0.0
 11
-104.7453850595
 21
20.4316014478
 31
0.0
 11
-104.7540653066
 21
20.4660511312
 31
0.0
 11
-104.7734859687
 21
20.5074783079
 31
0.0
 11
-104.8007760214
 21
20.5539545411
 31
0.0
 11
-104.8336715544
 21
20.6040092718
 31
0.0
 11
-104.9099738844
 21
20.7109997992
 31
0.0
 11
-104.9510145312
 21
20.7668143844
 31
0.0
 11
-104.9920364375
 21
20.8242442379
 31
0.0
  0
LINE
  5
82A
100
AcDbEntity
  8
0
100
AcDbLine
 62
7
  6
CONTINUOUS
 10
-103.9891933217
 20
20.3846584984
 11
-104.10625
 21
20.5017151767
  0
LINE
  5
82B
100
AcDbEntity
  8
0
100
AcDbLine
 62
7
  6
CONTINUOUS
 10
-103.0233066783
 20
20.3846584984
 11
-102.9062499999
 21
20.5017151768
  0
SPLINE
  5
82C
100
AcDbEntity
  8
0
100
AcDbSpline
 62
7
  6
CONTINUOUS
 70
0
 71
3
 72
9
 73
5
 74
3
 42
0.0000001
 43
0.0000001
 44
0.0000000001
 12
-0.3467040222
 22
0.3467040222
 32
0.0
 13
-0.2708784608
 23
0.4086957517
 33
0.0
 40
0.0
 40
0.0
 40
0.0
 40
0.0
 40
0.4683843223
 40
1.0
 40
1.0
 40
1.0
 40
1.0
 10
-104.10625
 20
20.5017151767
 30
0.0
 10
-104.1603802428
 20
20.5558454195
 30
0.0
 10
-104.2682643081
 20
20.6791555558
 30
0.0
 10
-104.3635163622
 20
20.8122164369
 30
0.0
 10
-104.4115174411
 20
20.8846394599
 30
0.0
 11
-104.10625
 21
20.5017151767
 31
0.0
 11
-104.2586713929
 21
20.6734976449
 31
0.0
 11
-104.4115174411
 21
20.8846394599
 31
0.0
  0
SPLINE
  5
82D
100
AcDbEntity
  8
0
100
AcDbSpline
 62
7
  6
CONTINUOUS
 70
0
 71
3
 72
9
 73
5
 74
3
 42
0.0000001
 43
0.0000001
 44
0.0000000001
 12
0.3467040221
 22
0.3467040221
 32
0.0
 13
0.2708784607
 23
0.4086957516
 33
0.0
 40
0.0
 40
0.0
 40
0.0
 40
0.0
 40
0.4683843223
 40
1.0
 40
1.0
 40
1.0
 40
1.0
 10
-102.9062499999
 20
20.5017151768
 30
0.0
 10
-102.8521197571
 20
20.5558454196
 30
0.0
 10
-102.7442356918
 20
20.6791555558
 30
0.0
 10
-102.6489836378
 20
20.8122164369
 30
0.0
 10
-102.6009825589
 20
20.8846394599
 30
0.0
 11
-102.9062499999
 21
20.5017151768
 31
0.0
 11
-102.7538286071
 21
20.6734976449
 31
0.0
 11
-102.6009825589
 21
20.8846394599
 31
0.0
  0
LINE
  5
82E
100
AcDbEntity
  8
0
100
AcDbLine
 62
7
  6
CONTINUOUS
 10
-101.7891933217
 20
20.3846584984
 11
-101.90625
 21
20.5017151767
  0
LINE
  5
82F
100
AcDbEntity
  8
0
100
AcDbLine
 62
7
  6
CONTINUOUS
 10
-100.8233066783
 20
20.3846584984
 11
-100.7062499999
 21
20.5017151768
  0
SPLINE
  5
830
100
AcDbEntity
  8
0
100
AcDbSpline
 62
7
  6
CONTINUOUS
 70
0
 71
3
 72
9
 73
5
 74
3
 42
0.0000001
 43
0.0000001
 44
0.0000000001
 12
-0.3467040222
 22
0.3467040222
 32
0.0
 13
-0.2708784608
 23
0.4086957517
 33
0.0
 40
0.0
 40
0.0
 40
0.0
 40
0.0
 40
0.4683843223
 40
1.0
 40
1.0
 40
1.0
 40
1.0
 10
-101.90625
 20
20.5017151767
 30
0.0
 10
-101.9603802428
 20
20.5558454195
 30
0.0
 10
-102.0682643081
 20
20.6791555558
 30
0.0
 10
-102.1635163622
 20
20.8122164369
 30
0.0
 10
-102.2115174411
 20
20.8846394599
 30
0.0
 11
-101.90625
 21
20.5017151767
 31
0.0
 11
-102.0586713929
 21
20.6734976449
 31
0.0
 11
-102.2115174411
 21
20.8846394599
 31
0.0
  0
SPLINE
  5
831
100
AcDbEntity
  8
0
100
AcDbSpline
 62
7
  6
CONTINUOUS
 70
0
 71
3
 72
9
 73
5
 74
3
 42
0.0000001
 43
0.0000001
 44
0.0000000001
 12
0.3467040221
 22
0.3467040221
 32
0.0
 13
0.2708784607
 23
0.4086957516
 33
0.0
 40
0.0
 40
0.0
 40
0.0
 40
0.0
 40
0.4683843223
 40
1.0
 40
1.0
 40
1.0
 40
1.0
 10
11.2937500001
 20
20.5017151768
 30
0.0
 10
11.3478802429
 20
20.5558454196
 30
0.0
 10
11.4557643082
 20
20.6791555558
 30
0.0
 10
11.5510163622
 20
20.8122164369
 30
0.0
 10
11.5990174411
 20
20.8846394599
 30
0.0
 11
11.2937500001
 21
20.5017151768
 31
0.0
 11
11.4461713929
 21
20.6734976449
 31
0.0
 11
11.5990174411
 21
20.8846394599
 31
0.0
  0
SPLINE
  5
832
100
AcDbEntity
  8
0
100
AcDbSpline
 62
7
  6
CONTINUOUS
 70
0
 71
3
 72
14
 73
10
 74
8
 42
0.0000001
 43
0.0000001
 44
0.0000000001
 12
-0.261102071
 22
-0.3863910923
 32
0.0
 13
-0.034776126
 23
-0.4650408463
 33
0.0
 40
0.0
 40
0.0
 40
0.0
 40
0.0
 40
0.1513403236
 40
0.2998999112
 40
0.5816953106
 40
0.710136097
 40
0.8257092643
 40
0.9238202276
 40
1.0
 40
1.0
 40
1.0
 40
1.0
 10
12.1795364375
 20
20.8242442379
 30
0.0
 10
12.1663646802
 20
20.8047520536
 30
0.0
 10
12.1387946044
 20
20.767137466
 30
0.0
 10
12.0851339871
 20
20.6943751472
 30
0.0
 10
12.0341210459
 20
20.6240279273
 30
0.0
 10
11.9889719259
 20
20.555896227
 30
0.0
 10
11.9616620543
 20
20.5101728111
 30
0.0
 10
11.9418500838
 20
20.4697558446
 30
0.0
 10
11.9337681386
 20
20.4434103497
 30
0.0
 10
11.9328850595
 20
20.4316014478
 30
0.0
 11
12.1795364375
 21
20.8242442379
 31
0.0
 11
12.1385147021
 21
20.7668144444
 31
0.0
 11
12.0974739331
 21
20.710999932
 31
0.0
 11
12.0211712605
 21
20.6040088639
 31
0.0
 11
11.9882754951
 21
20.5539537142
 31
0.0
 11
11.9609854394
 21
20.5074772102
 31
0.0
 11
11.9415649498
 21
20.4660503875
 31
0.0
 11
11.9328850595
 21
20.4316014478
 31
0.0
  0
SPLINE
  5
833
100
AcDbEntity
  8
0
100
AcDbSpline
 62
7
  6
CONTINUOUS
 70
0
 71
3
 72
9
 73
5
 74
3
 42
0.0000001
 43
0.0000001
 44
0.0000000001
 12
-0.3467040222
 22
0.3467040222
 32
0.0
 13
-0.2708784608
 23
0.4086957517
 33
0.0
 40
0.0
 40
0.0
 40
0.0
 40
0.0
 40
0.4683843223
 40
1.0
 40
1.0
 40
1.0
 40
1.0
 10
10.09375
 20
20.5017151767
 30
0.0
 10
10.0396197572
 20
20.5558454195
 30
0.0
 10
9.9317356919
 20
20.6791555558
 30
0.0
 10
9.8364836378
 20
20.8122164369
 30
0.0
 10
9.7884825589
 20
20.8846394599
 30
0.0
 11
10.09375
 21
20.5017151767
 31
0.0
 11
9.9413286071
 21
20.6734976449
 31
0.0
 11
9.7884825589
 21
20.8846394599
 31
0.0
  0
LINE
  5
834
100
AcDbEntity
  8
0
100
AcDbLine
 62
7
  6
CONTINUOUS
 10
11.1766933217
 20
20.3846584984
 11
11.2937500001
 21
20.5017151768
  0
LINE
  5
835
100
AcDbEntity
  8
0
100
AcDbLine
 62
7
  6
CONTINUOUS
 10
10.2108066783
 20
20.3846584984
 11
10.09375
 21
20.5017151767
  0
SPLINE
  5
836
100
AcDbEntity
  8
0
100
AcDbSpline
 62
7
  6
CONTINUOUS
 70
0
 71
3
 72
9
 73
5
 74
3
 42
0.0000001
 43
0.0000001
 44
0.0000000001
 12
0.3467040221
 22
0.3467040221
 32
0.0
 13
0.2708784607
 23
0.4086957516
 33
0.0
 40
0.0
 40
0.0
 40
0.0
 40
0.0
 40
0.4683843223
 40
1.0
 40
1.0
 40
1.0
 40
1.0
 10
9.0937500001
 20
20.5017151768
 30
0.0
 10
9.1478802429
 20
20.5558454196
 30
0.0
 10
9.2557643082
 20
20.6791555558
 30
0.0
 10
9.3510163622
 20
20.8122164369
 30
0.0
 10
9.3990174411
 20
20.8846394599
 30
0.0
 11
9.0937500001
 21
20.5017151768
 31
0.0
 11
9.2461713929
 21
20.6734976449
 31
0.0
 11
9.3990174411
 21
20.8846394599
 31
0.0
  0
SPLINE
  5
837
100
AcDbEntity
  8
0
100
AcDbSpline
 62
7
  6
CONTINUOUS
 70
0
 71
3
 72
9
 73
5
 74
3
 42
0.0000001
 43
0.0000001
 44
0.0000000001
 12
-0.3467040222
 22
0.3467040222
 32
0.0
 13
-0.2708784608
 23
0.4086957517
 33
0.0
 40
0.0
 40
0.0
 40
0.0
 40
0.0
 40
0.4683843223
 40
1.0
 40
1.0
 40
1.0
 40
1.0
 10
7.89375
 20
20.5017151767
 30
0.0
 10
7.8396197572
 20
20.5558454195
 30
0.0
 10
7.7317356919
 20
20.6791555558
 30
0.0
 10
7.6364836378
 20
20.8122164369
 30
0.0
 10
7.5884825589
 20
20.8846394599
 30
0.0
 11
7.89375
 21
20.5017151767
 31
0.0
 11
7.7413286071
 21
20.6734976449
 31
0.0
 11
7.5884825589
 21
20.8846394599
 31
0.0
  0
LINE
  5
838
100
AcDbEntity
  8
0
100
AcDbLine
 62
7
  6
CONTINUOUS
 10
8.9766933217
 20
20.3846584984
 11
9.0937500001
 21
20.5017151768
  0
LINE
  5
839
100
AcDbEntity
  8
0
100
AcDbLine
 62
7
  6
CONTINUOUS
 10
8.0108066783
 20
20.3846584984
 11
7.89375
 21
20.5017151767
  0
SPLINE
  5
83A
100
AcDbEntity
  8
0
100
AcDbSpline
 62
7
  6
CONTINUOUS
 70
0
 71
3
 72
13
 73
9
 74
7
 42
0.0000001
 43
0.0000001
 44
0.0000000001
 12
-0.0410313234
 22
0.5452577979
 32
0.0
 13
-0.3348449094
 23
0.4322829193
 33
0.0
 40
0.0
 40
0.0
 40
0.0
 40
0.0
 40
0.0753635142
 40
0.1746028585
 40
0.2918698037
 40
0.4216857393
 40
0.703857945
 40
1.0
 40
1.0
 40
1.0
 40
1.0
 10
7.2546529207
 20
20.4310951482
 30
0.0
 10
7.2536221658
 20
20.4447926628
 30
0.0
 10
7.2431575451
 20
20.475542171
 30
0.0
 10
7.2184843347
 20
20.5225334942
 30
0.0
 10
7.1847674097
 20
20.5760237283
 30
0.0
 10
7.1298562491
 20
20.6553188263
 30
0.0
 10
7.0524266814
 20
20.758637352
 30
0.0
 10
6.9878895592
 20
20.8419670759
 30
0.0
 10
6.9548356726
 20
20.8846394599
 30
0.0
 11
7.2546529207
 21
20.4310951482
 31
0.0
 11
7.2437882644
 21
20.4708458527
 31
0.0
 11
7.2194250453
 21
20.5193331424
 31
0.0
 11
7.1856332427
 21
20.5738279214
 31
0.0
 11
7.1454347502
 21
20.6323318316
 31
0.0
 11
7.0536442063
 21
20.7563495553
 31
0.0
 11
6.9548356726
 21
20.8846394599
 31
0.0
  0
LINE
  5
83B
100
AcDbEntity
  8
0
100
AcDbLine
 62
7
  6
CONTINUOUS
 10
12.2204332607
 20
20.8846504641
 11
12.1795364375
 21
20.8242442379
  0
SPLINE
  5
83C
100
AcDbEntity
  8
0
100
AcDbSpline
 62
7
  6
CONTINUOUS
 70
0
 71
3
 72
9
 73
5
 74
3
 42
0.0000001
 43
0.0000001
 44
0.0000000001
 12
-0.3467040221
 22
-0.3467040221
 32
0.0
 13
-0.2708784607
 23
-0.4086957516
 33
0.0
 40
0.0
 40
0.0
 40
0.0
 40
0.0
 40
0.4683843223
 40
1.0
 40
1.0
 40
1.0
 40
1.0
 10
7.8937499999
 20
10.1017151766
 30
0.0
 10
7.8396197571
 20
10.0475849338
 30
0.0
 10
7.7317356918
 20
9.9242747976
 30
0.0
 10
7.6364836378
 20
9.7912139165
 30
0.0
 10
7.5884825589
 20
9.7187908935
 30
0.0
 11
7.8937499999
 21
10.1017151766
 31
0.0
 11
7.7413286071
 21
9.9299327085
 31
0.0
 11
7.5884825589
 21
9.7187908935
 31
0.0
  0
SPLINE
  5
83D
100
AcDbEntity
  8
0
100
AcDbSpline
 62
7
  6
CONTINUOUS
 70
0
 71
3
 72
13
 73
9
 74
7
 42
0.0000001
 43
0.0000001
 44
0.0000000001
 12
0.3348449166
 22
0.4322829285
 32
0.0
 13
0.0410313243
 23
0.5452578096
 33
0.0
 40
0.0
 40
0.0
 40
0.0
 40
0.0
 40
0.2961462431
 40
0.5783179617
 40
0.7081332356
 40
0.8253995191
 40
0.9246377988
 40
1.0
 40
1.0
 40
1.0
 40
1.0
 10
6.9548356726
 20
9.7187908935
 30
0.0
 10
6.9878900273
 20
9.7614638819
 30
0.0
 10
7.0524275716
 20
9.8447941353
 30
0.0
 10
7.1298574241
 20
9.9481131429
 30
0.0
 10
7.1847683669
 20
10.0274079944
 30
0.0
 10
7.2184849855
 20
10.0808979068
 30
0.0
 10
7.2431578208
 20
10.1278888157
 30
0.0
 10
7.2536221838
 20
10.1586379289
 30
0.0
 10
7.2546529207
 20
10.1723352052
 30
0.0
 11
6.9548356726
 21
9.7187908935
 31
0.0
 11
7.0536455985
 21
9.8470826208
 31
0.0
 11
7.1454359368
 21
9.9711001694
 31
0.0
 11
7.1856341906
 21
10.0296038064
 31
0.0
 11
7.219425722
 21
10.0840983295
 31
0.0
 11
7.2437885479
 21
10.1325851667
 31
0.0
 11
7.2546529207
 21
10.1723352052
 31
0.0
  0
SPLINE
  5
83E
100
AcDbEntity
  8
0
100
AcDbSpline
 62
7
  6
CONTINUOUS
 70
0
 71
3
 72
9
 73
5
 74
3
 42
0.0000001
 43
0.0000001
 44
0.0000000001
 12
0.3467040222
 22
-0.3467040222
 32
0.0
 13
0.2708784608
 23
-0.4086957517
 33
0.0
 40
0.0
 40
0.0
 40
0.0
 40
0.0
 40
0.4683843223
 40
1.0
 40
1.0
 40
1.0
 40
1.0
 10
9.09375
 20
10.1017151767
 30
0.0
 10
9.1478802428
 20
10.0475849339
 30
0.0
 10
9.2557643081
 20
9.9242747977
 30
0.0
 10
9.3510163622
 20
9.7912139165
 30
0.0
 10
9.3990174411
 20
9.7187908935
 30
0.0
 11
9.09375
 21
10.1017151767
 31
0.0
 11
9.2461713929
 21
9.9299327085
 31
0.0
 11
9.3990174411
 21
9.7187908935
 31
0.0
  0
LINE
  5
83F
100
AcDbEntity
  8
0
100
AcDbLine
 62
7
  6
CONTINUOUS
 10
8.0108066783
 20
10.218771855
 11
7.8937499999
 21
10.1017151766
  0
LINE
  5
840
100
AcDbEntity
  8
0
100
AcDbLine
 62
7
  6
CONTINUOUS
 10
8.9766933217
 20
10.218771855
 11
9.09375
 21
10.1017151767
  0
SPLINE
  5
841
100
AcDbEntity
  8
0
100
AcDbSpline
 62
7
  6
CONTINUOUS
 70
0
 71
3
 72
9
 73
5
 74
3
 42
0.0000001
 43
0.0000001
 44
0.0000000001
 12
-0.3467040221
 22
-0.3467040221
 32
0.0
 13
-0.2708784607
 23
-0.4086957516
 33
0.0
 40
0.0
 40
0.0
 40
0.0
 40
0.0
 40
0.4683843223
 40
1.0
 40
1.0
 40
1.0
 40
1.0
 10
10.0937499999
 20
10.1017151766
 30
0.0
 10
10.0396197571
 20
10.0475849338
 30
0.0
 10
9.9317356918
 20
9.9242747976
 30
0.0
 10
9.8364836378
 20
9.7912139165
 30
0.0
 10
9.7884825589
 20
9.7187908935
 30
0.0
 11
10.0937499999
 21
10.1017151766
 31
0.0
 11
9.9413286071
 21
9.9299327085
 31
0.0
 11
9.7884825589
 21
9.7187908935
 31
0.0
  0
SPLINE
  5
842
100
AcDbEntity
  8
0
100
AcDbSpline
 62
7
  6
CONTINUOUS
 70
0
 71
3
 72
9
 73
5
 74
3
 42
0.0000001
 43
0.0000001
 44
0.0000000001
 12
0.3467040222
 22
-0.3467040222
 32
0.0
 13
0.2708784608
 23
-0.4086957517
 33
0.0
 40
0.0
 40
0.0
 40
0.0
 40
0.0
 40
0.4683843223
 40
1.0
 40
1.0
 40
1.0
 40
1.0
 10
11.29375
 20
10.1017151767
 30
0.0
 10
11.3478802428
 20
10.0475849339
 30
0.0
 10
11.4557643081
 20
9.9242747977
 30
0.0
 10
11.5510163622
 20
9.7912139165
 30
0.0
 10
11.5990174411
 20
9.7187908935
 30
0.0
 11
11.29375
 21
10.1017151767
 31
0.0
 11
11.4461713929
 21
9.9299327085
 31
0.0
 11
11.5990174411
 21
9.7187908935
 31
0.0
  0
LINE
  5
843
100
AcDbEntity
  8
0
100
AcDbLine
 62
7
  6
CONTINUOUS
 10
10.2108066783
 20
10.218771855
 11
10.0937499999
 21
10.1017151766
  0
LINE
  5
844
100
AcDbEntity
  8
0
100
AcDbLine
 62
7
  6
CONTINUOUS
 10
11.1766933217
 20
10.218771855
 11
11.29375
 21
10.1017151767
  0
SPLINE
  5
845
100
AcDbEntity
  8
0
100
AcDbSpline
 62
7
  6
CONTINUOUS
 70
0
 71
3
 72
14
 73
10
 74
8
 42
0.0000001
 43
0.0000001
 44
0.0000000001
 12
0.0347761249
 22
-0.4650408308
 32
0.0
 13
0.2611020623
 23
-0.3863910794
 33
0.0
 40
0.0
 40
0.0
 40
0.0
 40
0.0
 40
0.0761815082
 40
0.1742933192
 40
0.2898659863
 40
0.4183057524
 40
0.7000997906
 40
0.8486593537
 40
1.0
 40
1.0
 40
1.0
 40
1.0
 10
11.9328850595
 20
10.1718289057
 30
0.0
 10
11.9337681587
 20
10.160019735
 30
0.0
 10
11.9418504775
 20
10.1336739147
 30
0.0
 10
11.9616624155
 20
10.0932566
 30
0.0
 10
11.9889724626
 20
10.047533396
 30
0.0
 10
12.0341212797
 20
9.9794020467
 30
0.0
 10
12.0851341765
 20
9.9090552538
 30
0.0
 10
12.138794384
 20
9.8362928451
 30
0.0
 10
12.1663646526
 20
9.7986783408
 30
0.0
 10
12.1795364375
 20
9.7791861155
 30
0.0
 11
11.9328850595
 21
10.1718289057
 31
0.0
 11
11.9415653066
 21
10.1373792223
 31
0.0
 11
11.9609859688
 21
10.0959520455
 31
0.0
 11
11.9882760214
 21
10.0494758123
 31
0.0
 11
12.0211715544
 21
9.9994210816
 31
0.0
 11
12.0974738844
 21
9.8924305542
 31
0.0
 11
12.1385145312
 21
9.836615969
 31
0.0
 11
12.1795364375
 21
9.7791861155
 31
0.0
  0
LINE
  5
846
100
AcDbEntity
  8
0
100
AcDbLine
 62
7
  6
CONTINUOUS
 10
12.1795364375
 20
9.7791861155
 11
12.2204332607
 21
9.7187798896
  0
SPLINE
  5
847
100
AcDbEntity
  8
0
100
AcDbSpline
 62
7
  6
CONTINUOUS
 70
0
 71
3
 72
9
 73
5
 74
3
 42
0.0000001
 43
0.0000001
 44
0.0000000001
 12
-0.3467040221
 22
-0.3467040221
 32
0.0
 13
-0.2708784607
 23
-0.4086957516
 33
0.0
 40
0.0
 40
0.0
 40
0.0
 40
0.0
 40
0.4683843223
 40
1.0
 40
1.0
 40
1.0
 40
1.0
 10
7.8937499999
 20
-46.8982848234
 30
0.0
 10
7.8396197571
 20
-46.9524150662
 30
0.0
 10
7.7317356918
 20
-47.0757252024
 30
0.0
 10
7.6364836378
 20
-47.2087860835
 30
0.0
 10
7.5884825589
 20
-47.2812091065
 30
0.0
 11
7.8937499999
 21
-46.8982848234
 31
0.0
 11
7.7413286071
 21
-47.0700672915
 31
0.0
 11
7.5884825589
 21
-47.2812091065
 31
0.0
  0
SPLINE
  5
848
100
AcDbEntity
  8
0
100
AcDbSpline
 62
7
  6
CONTINUOUS
 70
0
 71
3
 72
13
 73
9
 74
7
 42
0.0000001
 43
0.0000001
 44
0.0000000001
 12
0.3348449166
 22
0.4322829285
 32
0.0
 13
0.0410313243
 23
0.5452578096
 33
0.0
 40
0.0
 40
0.0
 40
0.0
 40
0.0
 40
0.2961462431
 40
0.5783179617
 40
0.7081332356
 40
0.8253995191
 40
0.9246377988
 40
1.0
 40
1.0
 40
1.0
 40
1.0
 10
6.9548356726
 20
-47.2812091065
 30
0.0
 10
6.9878900273
 20
-47.2385361181
 30
0.0
 10
7.0524275716
 20
-47.1552058647
 30
0.0
 10
7.1298574241
 20
-47.0518868571
 30
0.0
 10
7.1847683669
 20
-46.9725920056
 30
0.0
 10
7.2184849855
 20
-46.9191020932
 30
0.0
 10
7.2431578208
 20
-46.8721111843
 30
0.0
 10
7.2536221838
 20
-46.8413620711
 30
0.0
 10
7.2546529207
 20
-46.8276647948
 30
0.0
 11
6.9548356726
 21
-47.2812091065
 31
0.0
 11
7.0536455985
 21
-47.1529173792
 31
0.0
 11
7.1454359368
 21
-47.0288998306
 31
0.0
 11
7.1856341906
 21
-46.9703961936
 31
0.0
 11
7.219425722
 21
-46.9159016705
 31
0.0
 11
7.2437885479
 21
-46.8674148333
 31
0.0
 11
7.2546529207
 21
-46.8276647948
 31
0.0
  0
SPLINE
  5
849
100
AcDbEntity
  8
0
100
AcDbSpline
 62
7
  6
CONTINUOUS
 70
0
 71
3
 72
9
 73
5
 74
3
 42
0.0000001
 43
0.0000001
 44
0.0000000001
 12
0.3467040222
 22
-0.3467040222
 32
0.0
 13
0.2708784608
 23
-0.4086957517
 33
0.0
 40
0.0
 40
0.0
 40
0.0
 40
0.0
 40
0.4683843223
 40
1.0
 40
1.0
 40
1.0
 40
1.0
 10
9.09375
 20
-46.8982848233
 30
0.0
 10
9.1478802428
 20
-46.9524150661
 30
0.0
 10
9.2557643081
 20
-47.0757252023
 30
0.0
 10
9.3510163622
 20
-47.2087860835
 30
0.0
 10
9.3990174411
 20
-47.2812091065
 30
0.0
 11
9.09375
 21
-46.8982848233
 31
0.0
 11
9.2461713929
 21
-47.0700672915
 31
0.0
 11
9.3990174411
 21
-47.2812091065
 31
0.0
  0
LINE
  5
84A
100
AcDbEntity
  8
0
100
AcDbLine
 62
7
  6
CONTINUOUS
 10
8.0108066783
 20
-46.781228145
 11
7.8937499999
 21
-46.8982848234
  0
LINE
  5
84B
100
AcDbEntity
  8
0
100
AcDbLine
 62
7
  6
CONTINUOUS
 10
8.9766933217
 20
-46.781228145
 11
9.09375
 21
-46.8982848233
  0
SPLINE
  5
84C
100
AcDbEntity
  8
0
100
AcDbSpline
 62
7
  6
CONTINUOUS
 70
0
 71
3
 72
9
 73
5
 74
3
 42
0.0000001
 43
0.0000001
 44
0.0000000001
 12
-0.3467040221
 22
-0.3467040221
 32
0.0
 13
-0.2708784607
 23
-0.4086957516
 33
0.0
 40
0.0
 40
0.0
 40
0.0
 40
0.0
 40
0.4683843223
 40
1.0
 40
1.0
 40
1.0
 40
1.0
 10
10.0937499999
 20
-46.8982848234
 30
0.0
 10
10.0396197571
 20
-46.9524150662
 30
0.0
 10
9.9317356918
 20
-47.0757252024
 30
0.0
 10
9.8364836378
 20
-47.2087860835
 30
0.0
 10
9.7884825589
 20
-47.2812091065
 30
0.0
 11
10.0937499999
 21
-46.8982848234
 31
0.0
 11
9.9413286071
 21
-47.0700672915
 31
0.0
 11
9.7884825589
 21
-47.2812091065
 31
0.0
  0
SPLINE
  5
84D
100
AcDbEntity
  8
0
100
AcDbSpline
 62
7
  6
CONTINUOUS
 70
0
 71
3
 72
9
 73
5
 74
3
 42
0.0000001
 43
0.0000001
 44
0.0000000001
 12
0.3467040222
 22
-0.3467040222
 32
0.0
 13
0.2708784608
 23
-0.4086957517
 33
0.0
 40
0.0
 40
0.0
 40
0.0
 40
0.0
 40
0.4683843223
 40
1.0
 40
1.0
 40
1.0
 40
1.0
 10
11.29375
 20
-46.8982848233
 30
0.0
 10
11.3478802428
 20
-46.9524150661
 30
0.0
 10
11.4557643081
 20
-47.0757252023
 30
0.0
 10
11.5510163622
 20
-47.2087860835
 30
0.0
 10
11.5990174411
 20
-47.2812091065
 30
0.0
 11
11.29375
 21
-46.8982848233
 31
0.0
 11
11.4461713929
 21
-47.0700672915
 31
0.0
 11
11.5990174411
 21
-47.2812091065
 31
0.0
  0
LINE
  5
84E
100
AcDbEntity
  8
0
100
AcDbLine
 62
7
  6
CONTINUOUS
 10
10.2108066783
 20
-46.781228145
 11
10.0937499999
 21
-46.8982848234
  0
LINE
  5
84F
100
AcDbEntity
  8
0
100
AcDbLine
 62
7
  6
CONTINUOUS
 10
11.1766933217
 20
-46.781228145
 11
11.29375
 21
-46.8982848233
  0
SPLINE
  5
850
100
AcDbEntity
  8
0
100
AcDbSpline
 62
7
  6
CONTINUOUS
 70
0
 71
3
 72
14
 73
10
 74
8
 42
0.0000001
 43
0.0000001
 44
0.0000000001
 12
0.0347761249
 22
-0.4650408308
 32
0.0
 13
0.2611020623
 23
-0.3863910794
 33
0.0
 40
0.0
 40
0.0
 40
0.0
 40
0.0
 40
0.0761815082
 40
0.1742933192
 40
0.2898659863
 40
0.4183057524
 40
0.7000997906
 40
0.8486593537
 40
1.0
 40
1.0
 40
1.0
 40
1.0
 10
11.9328850595
 20
-46.8281710943
 30
0.0
 10
11.9337681587
 20
-46.839980265
 30
0.0
 10
11.9418504775
 20
-46.8663260853
 30
0.0
 10
11.9616624155
 20
-46.9067434
 30
0.0
 10
11.9889724626
 20
-46.952466604
 30
0.0
 10
12.0341212797
 20
-47.0205979533
 30
0.0
 10
12.0851341765
 20
-47.0909447462
 30
0.0
 10
12.138794384
 20
-47.1637071549
 30
0.0
 10
12.1663646526
 20
-47.2013216592
 30
0.0
 10
12.1795364375
 20
-47.2208138845
 30
0.0
 11
11.9328850595
 21
-46.8281710943
 31
0.0
 11
11.9415653066
 21
-46.8626207777
 31
0.0
 11
11.9609859688
 21
-46.9040479545
 31
0.0
 11
11.9882760214
 21
-46.9505241877
 31
0.0
 11
12.0211715544
 21
-47.0005789184
 31
0.0
 11
12.0974738844
 21
-47.1075694458
 31
0.0
 11
12.1385145312
 21
-47.163384031
 31
0.0
 11
12.1795364375
 21
-47.2208138845
 31
0.0
  0
LINE
  5
851
100
AcDbEntity
  8
0
100
AcDbLine
 62
7
  6
CONTINUOUS
 10
12.1795364375
 20
-47.2208138845
 11
12.2204332607
 21
-47.2812201104
  0
SPLINE
  5
852
100
AcDbEntity
  8
0
100
AcDbSpline
 62
7
  6
CONTINUOUS
 70
0
 71
3
 72
9
 73
5
 74
3
 42
0.0000001
 43
0.0000001
 44
0.0000000001
 12
0.3467040221
 22
0.3467040221
 32
0.0
 13
0.2708784607
 23
0.4086957516
 33
0.0
 40
0.0
 40
0.0
 40
0.0
 40
0.0
 40
0.4683843223
 40
1.0
 40
1.0
 40
1.0
 40
1.0
 10
11.2937500001
 20
-36.4982848232
 30
0.0
 10
11.3478802429
 20
-36.4441545804
 30
0.0
 10
11.4557643082
 20
-36.3208444442
 30
0.0
 10
11.5510163622
 20
-36.1877835631
 30
0.0
 10
11.5990174411
 20
-36.1153605401
 30
0.0
 11
11.2937500001
 21
-36.4982848232
 31
0.0
 11
11.4461713929
 21
-36.3265023551
 31
0.0
 11
11.5990174411
 21
-36.1153605401
 31
0.0
  0
SPLINE
  5
853
100
AcDbEntity
  8
0
100
AcDbSpline
 62
7
  6
CONTINUOUS
 70
0
 71
3
 72
14
 73
10
 74
8
 42
0.0000001
 43
0.0000001
 44
0.0000000001
 12
-0.261102071
 22
-0.3863910923
 32
0.0
 13
-0.034776126
 23
-0.4650408463
 33
0.0
 40
0.0
 40
0.0
 40
0.0
 40
0.0
 40
0.1513403236
 40
0.2998999112
 40
0.5816953106
 40
0.710136097
 40
0.8257092643
 40
0.9238202276
 40
1.0
 40
1.0
 40
1.0
 40
1.0
 10
12.1795364375
 20
-36.1757557621
 30
0.0
 10
12.1663646802
 20
-36.1952479464
 30
0.0
 10
12.1387946044
 20
-36.232862534
 30
0.0
 10
12.0851339871
 20
-36.3056248528
 30
0.0
 10
12.0341210459
 20
-36.3759720727
 30
0.0
 10
11.9889719259
 20
-36.444103773
 30
0.0
 10
11.9616620543
 20
-36.4898271889
 30
0.0
 10
11.9418500838
 20
-36.5302441554
 30
0.0
 10
11.9337681386
 20
-36.5565896503
 30
0.0
 10
11.9328850595
 20
-36.5683985522
 30
0.0
 11
12.1795364375
 21
-36.1757557621
 31
0.0
 11
12.1385147021
 21
-36.2331855556
 31
0.0
 11
12.0974739331
 21
-36.289000068
 31
0.0
 11
12.0211712605
 21
-36.3959911361
 31
0.0
 11
11.9882754951
 21
-36.4460462858
 31
0.0
 11
11.9609854394
 21
-36.4925227898
 31
0.0
 11
11.9415649498
 21
-36.5339496125
 31
0.0
 11
11.9328850595
 21
-36.5683985522
 31
0.0
  0
SPLINE
  5
854
100
AcDbEntity
  8
0
100
AcDbSpline
 62
7
  6
CONTINUOUS
 70
0
 71
3
 72
9
 73
5
 74
3
 42
0.0000001
 43
0.0000001
 44
0.0000000001
 12
-0.3467040222
 22
0.3467040222
 32
0.0
 13
-0.2708784608
 23
0.4086957517
 33
0.0
 40
0.0
 40
0.0
 40
0.0
 40
0.0
 40
0.4683843223
 40
1.0
 40
1.0
 40
1.0
 40
1.0
 10
10.09375
 20
-36.4982848233
 30
0.0
 10
10.0396197572
 20
-36.4441545805
 30
0.0
 10
9.9317356919
 20
-36.3208444442
 30
0.0
 10
9.8364836378
 20
-36.1877835631
 30
0.0
 10
9.7884825589
 20
-36.1153605401
 30
0.0
 11
10.09375
 21
-36.4982848233
 31
0.0
 11
9.9413286071
 21
-36.3265023551
 31
0.0
 11
9.7884825589
 21
-36.1153605401
 31
0.0
  0
LINE
  5
855
100
AcDbEntity
  8
0
100
AcDbLine
 62
7
  6
CONTINUOUS
 10
11.1766933217
 20
-36.6153415016
 11
11.2937500001
 21
-36.4982848232
  0
LINE
  5
856
100
AcDbEntity
  8
0
100
AcDbLine
 62
7
  6
CONTINUOUS
 10
10.2108066783
 20
-36.6153415016
 11
10.09375
 21
-36.4982848233
  0
SPLINE
  5
857
100
AcDbEntity
  8
0
100
AcDbSpline
 62
7
  6
CONTINUOUS
 70
0
 71
3
 72
9
 73
5
 74
3
 42
0.0000001
 43
0.0000001
 44
0.0000000001
 12
0.3467040221
 22
0.3467040221
 32
0.0
 13
0.2708784607
 23
0.4086957516
 33
0.0
 40
0.0
 40
0.0
 40
0.0
 40
0.0
 40
0.4683843223
 40
1.0
 40
1.0
 40
1.0
 40
1.0
 10
9.0937500001
 20
-36.4982848232
 30
0.0
 10
9.1478802429
 20
-36.4441545804
 30
0.0
 10
9.2557643082
 20
-36.3208444442
 30
0.0
 10
9.3510163622
 20
-36.1877835631
 30
0.0
 10
9.3990174411
 20
-36.1153605401
 30
0.0
 11
9.0937500001
 21
-36.4982848232
 31
0.0
 11
9.2461713929
 21
-36.3265023551
 31
0.0
 11
9.3990174411
 21
-36.1153605401
 31
0.0
  0
SPLINE
  5
858
100
AcDbEntity
  8
0
100
AcDbSpline
 62
7
  6
CONTINUOUS
 70
0
 71
3
 72
9
 73
5
 74
3
 42
0.0000001
 43
0.0000001
 44
0.0000000001
 12
-0.3467040222
 22
0.3467040222
 32
0.0
 13
-0.2708784608
 23
0.4086957517
 33
0.0
 40
0.0
 40
0.0
 40
0.0
 40
0.0
 40
0.4683843223
 40
1.0
 40
1.0
 40
1.0
 40
1.0
 10
7.89375
 20
-36.4982848233
 30
0.0
 10
7.8396197572
 20
-36.4441545805
 30
0.0
 10
7.7317356919
 20
-36.3208444442
 30
0.0
 10
7.6364836378
 20
-36.1877835631
 30
0.0
 10
7.5884825589
 20
-36.1153605401
 30
0.0
 11
7.89375
 21
-36.4982848233
 31
0.0
 11
7.7413286071
 21
-36.3265023551
 31
0.0
 11
7.5884825589
 21
-36.1153605401
 31
0.0
  0
LINE
  5
859
100
AcDbEntity
  8
0
100
AcDbLine
 62
7
  6
CONTINUOUS
 10
8.9766933217
 20
-36.6153415016
 11
9.0937500001
 21
-36.4982848232
  0
LINE
  5
85A
100
AcDbEntity
  8
0
100
AcDbLine
 62
7
  6
CONTINUOUS
 10
8.0108066783
 20
-36.6153415016
 11
7.89375
 21
-36.4982848233
  0
SPLINE
  5
85B
100
AcDbEntity
  8
0
100
AcDbSpline
 62
7
  6
CONTINUOUS
 70
0
 71
3
 72
13
 73
9
 74
7
 42
0.0000001
 43
0.0000001
 44
0.0000000001
 12
-0.0410313234
 22
0.5452577979
 32
0.0
 13
-0.3348449094
 23
0.4322829193
 33
0.0
 40
0.0
 40
0.0
 40
0.0
 40
0.0
 40
0.0753635142
 40
0.1746028585
 40
0.2918698037
 40
0.4216857393
 40
0.703857945
 40
1.0
 40
1.0
 40
1.0
 40
1.0
 10
7.2546529207
 20
-36.5689048518
 30
0.0
 10
7.2536221658
 20
-36.5552073372
 30
0.0
 10
7.2431575451
 20
-36.524457829
 30
0.0
 10
7.2184843347
 20
-36.4774665058
 30
0.0
 10
7.1847674097
 20
-36.4239762717
 30
0.0
 10
7.1298562491
 20
-36.3446811737
 30
0.0
 10
7.0524266814
 20
-36.241362648
 30
0.0
 10
6.9878895592
 20
-36.1580329241
 30
0.0
 10
6.9548356726
 20
-36.1153605401
 30
0.0
 11
7.2546529207
 21
-36.5689048518
 31
0.0
 11
7.2437882644
 21
-36.5291541473
 31
0.0
 11
7.2194250453
 21
-36.4806668576
 31
0.0
 11
7.1856332427
 21
-36.4261720785
 31
0.0
 11
7.1454347502
 21
-36.3676681684
 31
0.0
 11
7.0536442063
 21
-36.2436504447
 31
0.0
 11
6.9548356726
 21
-36.1153605401
 31
0.0
  0
LINE
  5
85C
100
AcDbEntity
  8
0
100
AcDbLine
 62
7
  6
CONTINUOUS
 10
12.2204332607
 20
-36.1153495359
 11
12.1795364375
 21
-36.1757557621
  0
SPLINE
  5
85D
100
AcDbEntity
  8
0
100
AcDbSpline
 62
7
  6
CONTINUOUS
 70
0
 71
3
 72
9
 73
5
 74
3
 42
0.0000001
 43
0.0000001
 44
0.0000000001
 12
0.3467040221
 22
0.3467040221
 32
0.0
 13
0.2708784607
 23
0.4086957516
 33
0.0
 40
0.0
 40
0.0
 40
0.0
 40
0.0
 40
0.4683843223
 40
1.0
 40
1.0
 40
1.0
 40
1.0
 10
-100.7062499999
 20
20.5017151768
 30
0.0
 10
-100.6521197571
 20
20.5558454196
 30
0.0
 10
-100.5442356918
 20
20.6791555558
 30
0.0
 10
-100.4489836378
 20
20.8122164369
 30
0.0
 10
-100.4009825589
 20
20.8846394599
 30
0.0
 11
-100.7062499999
 21
20.5017151768
 31
0.0
 11
-100.5538286071
 21
20.6734976449
 31
0.0
 11
-100.4009825589
 21
20.8846394599
 31
0.0
  0
SPLINE
  5
85E
100
AcDbEntity
  8
0
100
AcDbSpline
 62
7
  6
CONTINUOUS
 70
0
 71
3
 72
13
 73
9
 74
7
 42
0.0000001
 43
0.0000001
 44
0.0000000001
 12
-0.3348449166
 22
-0.4322829285
 32
0.0
 13
-0.0410313243
 23
-0.5452578096
 33
0.0
 40
0.0
 40
0.0
 40
0.0
 40
0.0
 40
0.2961462431
 40
0.5783179617
 40
0.7081332356
 40
0.8253995191
 40
0.9246377988
 40
1.0
 40
1.0
 40
1.0
 40
1.0
 10
-99.7673356726
 20
20.8846394599
 30
0.0
 10
-99.8003900273
 20
20.8419664715
 30
0.0
 10
-99.8649275716
 20
20.7586362181
 30
0.0
 10
-99.9423574241
 20
20.6553172106
 30
0.0
 10
-99.9972683669
 20
20.576022359
 30
0.0
 10
-100.0309849855
 20
20.5225324467
 30
0.0
 10
-100.0556578208
 20
20.4755415378
 30
0.0
 10
-100.0661221838
 20
20.4447924245
 30
0.0
 10
-100.0671529207
 20
20.4310951482
 30
0.0
 11
-99.7673356726
 21
20.8846394599
 31
0.0
 11
-99.8661455985
 21
20.7563477326
 31
0.0
 11
-99.9579359368
 21
20.6323301841
 31
0.0
 11
-99.9981341906
 21
20.573826547
 31
0.0
 11
-100.031925722
 21
20.5193320239
 31
0.0
 11
-100.0562885479
 21
20.4708451868
 31
0.0
 11
-100.0671529207
 21
20.4310951482
 31
0.0
  0
ELLIPSE
  5
85F
100
AcDbEntity
  8
0
100
AcDbEllipse
 62
7
  6
CONTINUOUS
 10
-104.7379973102
 20
-36.1153605401
 30
0.0
 11
0.0
 21
0.5
 31
0.0
 40
0.0349207695
 41
-3.5784730419
 42
-3.1503192998
  0
ELLIPSE
  5
860
100
AcDbEntity
  8
0
100
AcDbEllipse
 62
7
  6
CONTINUOUS
 10
-104.7379973102
 20
-47.2812091065
 30
0.0
 11
-0.0
 21
0.5
 31
0.0
 40
0.0349207695
 41
0.0087266463
 42
0.4368803883
  0
ELLIPSE
  5
861
100
AcDbEntity
  8
0
100
AcDbEllipse
 62
7
  6
CONTINUOUS
 10
-100.0745026898
 20
9.7187908935
 30
0.0
 11
0.0
 21
0.5
 31
0.0
 40
0.0349207695
 41
-0.4344810209
 42
-0.0087266463
  0
ELLIPSE
  5
862
100
AcDbEntity
  8
0
100
AcDbEllipse
 62
7
  6
CONTINUOUS
 10
-100.0745026898
 20
-36.1153605401
 30
0.0
 11
0.0
 21
0.5
 31
0.0
 40
0.0349207695
 41
-3.1328660073
 42
-2.7071116327
  0
ELLIPSE
  5
863
100
AcDbEntity
  8
0
100
AcDbEllipse
 62
7
  6
CONTINUOUS
 10
-100.0745026898
 20
-47.2812091065
 30
0.0
 11
0.0
 21
0.5
 31
0.0
 40
0.0349207695
 41
-0.4344810209
 42
-0.0087266463
  0
ELLIPSE
  5
864
100
AcDbEntity
  8
0
100
AcDbEllipse
 62
7
  6
CONTINUOUS
 10
-104.7379973102
 20
9.7187908935
 30
0.0
 11
0.0
 21
0.5
 31
0.0
 40
0.0349207695
 41
0.0087266463
 42
0.4368803883
  0
ELLIPSE
  5
865
100
AcDbEntity
  8
0
100
AcDbEllipse
 62
7
  6
CONTINUOUS
 10
-104.7379973102
 20
20.8846394599
 30
0.0
 11
-0.0
 21
0.5
 31
0.0
 40
0.0349207695
 41
-3.5784730419
 42
-3.1503192998
  0
ELLIPSE
  5
866
100
AcDbEntity
  8
0
100
AcDbEllipse
 62
7
  6
CONTINUOUS
 10
11.9254973102
 20
20.8846394599
 30
0.0
 11
0.0
 21
0.5
 31
0.0
 40
0.0349207695
 41
-3.1328660073
 42
-2.7047122653
  0
ELLIPSE
  5
867
100
AcDbEntity
  8
0
100
AcDbEllipse
 62
7
  6
CONTINUOUS
 10
7.2620026898
 20
20.8846394599
 30
0.0
 11
-0.0
 21
0.5
 31
0.0
 40
0.0349207695
 41
-3.5760736745
 42
-3.1503192998
  0
ELLIPSE
  5
868
100
AcDbEntity
  8
0
100
AcDbEllipse
 62
7
  6
CONTINUOUS
 10
7.2620026898
 20
9.7187908935
 30
0.0
 11
-0.0
 21
0.5
 31
0.0
 40
0.0349207695
 41
0.0087266463
 42
0.4344810209
  0
ELLIPSE
  5
869
100
AcDbEntity
  8
0
100
AcDbEllipse
 62
7
  6
CONTINUOUS
 10
11.9254973102
 20
9.7187908935
 30
0.0
 11
0.0
 21
0.5
 31
0.0
 40
0.0349207695
 41
-0.4368803883
 42
-0.0087266463
  0
ELLIPSE
  5
86A
100
AcDbEntity
  8
0
100
AcDbEllipse
 62
7
  6
CONTINUOUS
 10
7.2620026898
 20
-47.2812091065
 30
0.0
 11
-0.0
 21
0.5
 31
0.0
 40
0.0349207695
 41
0.0087266463
 42
0.4344810209
  0
ELLIPSE
  5
86B
100
AcDbEntity
  8
0
100
AcDbEllipse
 62
7
  6
CONTINUOUS
 10
11.9254973102
 20
-47.2812091065
 30
0.0
 11
0.0
 21
0.5
 31
0.0
 40
0.0349207695
 41
-0.4368803883
 42
-0.0087266463
  0
ELLIPSE
  5
86C
100
AcDbEntity
  8
0
100
AcDbEllipse
 62
7
  6
CONTINUOUS
 10
11.9254973102
 20
-36.1153605401
 30
0.0
 11
-0.0
 21
0.5
 31
0.0
 40
0.0349207695
 41
-3.1328660073
 42
-2.7047122653
  0
ELLIPSE
  5
86D
100
AcDbEntity
  8
0
100
AcDbEllipse
 62
7
  6
CONTINUOUS
 10
7.2620026898
 20
-36.1153605401
 30
0.0
 11
-0.0
 21
0.5
 31
0.0
 40
0.0349207695
 41
-3.5760736745
 42
-3.1503192998
  0
ELLIPSE
  5
86E
100
AcDbEntity
  8
0
100
AcDbEllipse
 62
7
  6
CONTINUOUS
 10
-100.0745026898
 20
20.8846394599
 30
0.0
 11
0.0
 21
0.5
 31
0.0
 40
0.0349207695
 41
-3.1328660073
 42
-2.7071116327
  0
ENDSEC
  0
SECTION
  2
OBJECTS
  0
DICTIONARY
  5
C
100
AcDbDictionary
280
0
281
1
  3
ACAD_GROUP
350
D
  3
ACAD_MLINESTYLE
350
17
  3
ACAD_LAYOUT
350
1A
  3
ACAD_PLOTSETTINGS
350
19
  3
ACAD_PLOTSTYLENAME
350
E
  0
DICTIONARY
  5
D
102
{ACAD_REACTORS
330
C
102
}
100
AcDbDictionary
280
0
281
1
  0
ACDBDICTIONARYWDFLT
  5
E
102
{ACAD_REACTORS
330
C
102
}
100
AcDbDictionary
281
1
  3
Normal
350
F
100
AcDbDictionaryWithDefault
340
F
  0
DICTIONARY
  5
17
102
{ACAD_REACTORS
330
C
102
}
100
AcDbDictionary
280
0
281
1
  3
Standard
350
18
  0
DICTIONARY
  5
19
102
{ACAD_REACTORS
330
C
102
}
100
AcDbDictionary
281
1
  0
DICTIONARY
  5
1A
102
{ACAD_REACTORS
330
C
102
}
100
AcDbDictionary
281
1
  3
Model
350
86F
  3
Layout1
350
870
  0
ACDBPLACEHOLDER
  5
F
102
{ACAD_REACTORS
330
E
102
}
  0
MLINESTYLE
  5
18
102
{ACAD_REACTORS
330
17
102
}
100
AcDbMlineStyle
  2
STANDARD
 70
0
  3

 62
256
 51
90.0
 52
90.0
 71
2
 49
0.5
 62
256
  6
BYLAYER
 49
-0.5
 62
256
  6
BYLAYER
  0
LAYOUT
  5
86F
102
{ACAD_REACTORS
330
1A
102
}
100
AcDbPlotSettings
  1

  2
none_device
  4
ISO_A4_(297.00_x_210.00_MM)
  6

 40
0.0
 41
0.0
 42
0.0
 43
0.0
 44
297.0
 45
210.0
 46
0.0
 47
0.0
 48
0.0
 49
0.0
140
0.0
141
0.0
142
1.0
143
1.0
 70
1024
 72
1
 73
0
 74
0
  7

 75
0
147
1.0
148
0.0
149
0.0
100
AcDbLayout
  1
Model
 70
0
 71
0
 10
0.0
 20
0.0
 11
297.0
 21
210.0
 12
0.0
 22
0.0
 32
0.0
 14
0.0
 24
0.0
 34
0.0
 15
0.0
 25
0.0
 35
0.0
146
0.0
 13
0.0
 23
0.0
 33
0.0
 16
1.0
 26
0.0
 36
0.0
 17
0.0
 27
1.0
 37
0.0
 76
0
330
20A
345
0
346
0
  0
LAYOUT
  5
870
102
{ACAD_REACTORS
330
1A
102
}
100
AcDbPlotSettings
  1

  2
none_device
  4
ISO_A4_(297.00_x_210.00_MM)
  6

 40
0.0
 41
0.0
 42
0.0
 43
0.0
 44
297.0
 45
210.0
 46
0.0
 47
0.0
 48
0.0
 49
0.0
140
0.0
141
0.0
142
1.0
143
1.0
 70
0
 72
1
 73
0
 74
0
  7

 75
0
147
1.0
148
0.0
149
0.0
100
AcDbLayout
  1
Layout1
 70
0
 71
1
 10
0.0
 20
0.0
 11
297.0
 21
210.0
 12
0.0
 22
0.0
 32
0.0
 14
0.0
 24
0.0
 34
0.0
 15
0.0
 25
0.0
 35
0.0
146
0.0
 13
0.0
 23
0.0
 33
0.0
 16
1.0
 26
0.0
 36
0.0
 17
0.0
 27
1.0
 37
0.0
 76
0
330
20B
345
0
346
0
  0
ENDSEC
  0
EOF
