  0
SECTION
  2
HEADER
  9
$ACADVER
  1
AC1024
  9
$DWGCODEPAGE
  3
ANSI_1252
  9
$EXTMAX
 10
297.0
 20
210.0
 30
0.0
  9
$EXTMIN
 10
0.0
 20
0.0
 30
0.0
  9
$LIMMIN
 10
0.0
 20
0.0
  9
$LIMMAX
 10
297.0
 20
210.0
  9
$VIEWCTR
 10
148.5
 20
105.0
  9
$VIEWSIZE
 40
210.0
  9
$CLAYER
  8
0
  9
$LTSCALE
 40
16.335
  9
$CELTYPE
  6
BYLAYER
  9
$DIMSCALE
 40
1.0
  9
$DIMASZ
 40
3.0
  9
$DIMEXO
 40
0.5
  9
$DIMDLI
 40
11.286
  9
$DIMEXE
 40
1.5
  9
$DIMCEN
 40
2.673
  9
$DIMLFAC
 40
1.0
  9
$DIMBLK
  1
_FILLED
  9
$DIMALT
 70
0
  9
$DIMALTF
 40
0.0393700787
  9
$DIMTXT
 40
3.0
  9
$DIMTOL
 70
1
  9
$DIMLIM
 70
0
  9
$DIMTFAC
 40
1.0
  9
$DIMTP
 40
0.01
  9
$DIMTM
 40
0.01
  9
$DIMGAP
 40
0.625
  9
$DIMDSEP
 70
44
  9
$AUNITS
 70
0
  9
$PDMODE
 70
3
  9
$PDSIZE
 40
3.0
  9
$HANDSEED
  5
7E7
  9
$TILEMODE
 70
1
  9
$MEASUREMENT
 70
1
  9
$INSUNITS
 70
4
  0
ENDSEC
  0
SECTION
  2
CLASSES
  0
CLASS
  1
ACDBDICTIONARYWDFLT
  2
AcDbDictionaryWithDefault
  3
AutoCAD 2000
 90
0
 91
1
280
0
281
0
  0
CLASS
  1
ACDBPLACEHOLDER
  2
AcDbPlaceHolder
  3
AutoCAD 2000
 90
0
 91
1
280
0
281
0
  0
CLASS
  1
LAYOUT
  2
AcDbLayout
  3
AutoCAD 2000
 90
0
 91
0
280
0
281
0
  0
ENDSEC
  0
SECTION
  2
TABLES
  0
TABLE
  2
VPORT
  5
8
100
AcDbSymbolTable
 70
2
  0
VPORT
  5
1F4
100
AcDbSymbolTableRecord
100
AcDbViewportTableRecord
  2
*ACTIVE
 70
0
 10
0.0
 20
0.0
 11
1.0
 21
1.0
 12
148.5
 22
105.0
 13
0.0
 23
0.0
 14
1.0
 24
1.0
 15
0.0
 25
0.0
 16
0.0
 26
0.0
 36
1.0
 17
0.0
 27
0.0
 37
0.0
 40
210.0
 41
1.4142857143
 42
50.0
 43
0.0
 44
0.0
 50
0.0
 51
0.0
 71
0
 72
100
 73
1
 74
1
 75
0
 76
0
 77
0
 78
0
  0
ENDTAB
  0
TABLE
  2
LTYPE
  5
5
100
AcDbSymbolTable
 70
6
  0
LTYPE
  5
14
100
AcDbSymbolTableRecord
100
AcDbLinetypeTableRecord
  2
BYBLOCK
 70
0
  3

 72
65
 73
0
 40
0.0
  0
LTYPE
  5
15
100
AcDbSymbolTableRecord
100
AcDbLinetypeTableRecord
  2
BYLAYER
 70
0
  3

 72
65
 73
0
 40
0.0
  0
LTYPE
  5
16
100
AcDbSymbolTableRecord
100
AcDbLinetypeTableRecord
  2
CONTINUOUS
 70
64
  3
Solid line
 72
65
 73
0
 40
0.0
  0
LTYPE
  5
1F5
100
AcDbSymbolTableRecord
100
AcDbLinetypeTableRecord
  2
CENTER
 70
64
  3
____ _ ____ _ ____ _ ____ _ ____ _ ____ _ ____
 72
65
 73
4
 40
0.6
 49
0.375
 74
0
 49
-0.075
 74
0
 49
0.075
 74
0
 49
-0.075
 74
0
  0
LTYPE
  5
1F6
100
AcDbSymbolTableRecord
100
AcDbLinetypeTableRecord
  2
HIDDEN
 70
64
  3
- - - - - - - - - - - - - - - - - - - -
 72
65
 73
2
 40
0.2
 49
0.1
 74
0
 49
-0.1
 74
0
  0
LTYPE
  5
1F7
100
AcDbSymbolTableRecord
100
AcDbLinetypeTableRecord
  2
PHANTOM
 70
64
  3
_____ _ _ _____ _ _ _____ _ _ _____
 72
65
 73
6
 40
0.8
 49
0.45
 74
0
 49
-0.05
 74
0
 49
0.1
 74
0
 49
-0.05
 74
0
 49
0.1
 74
0
 49
-0.05
 74
0
  0
LTYPE
  5
1F8
100
AcDbSymbolTableRecord
100
AcDbLinetypeTableRecord
  2
DOT
 70
64
  3
. . . . . . . . . . . . . . . . . . . .
 72
65
 73
2
 40
0.2
 49
0.1
 74
0
 49
-0.1
 74
0
  0
LTYPE
  5
1F9
100
AcDbSymbolTableRecord
100
AcDbLinetypeTableRecord
  2
DASHED
 70
64
  3
- - - - - - - - - - - - - - - - - - - -
 72
65
 73
2
 40
0.2
 49
0.1
 74
0
 49
-0.1
 74
0
  0
ENDTAB
  0
TABLE
  2
LAYER
  5
2
100
AcDbSymbolTable
 70
36
  0
LAYER
  5
10
100
AcDbSymbolTableRecord
100
AcDbLayerTableRecord
  2
0
 70
0
 62
7
  6
CONTINUOUS
370
-3
390
F
  0
LAYER
  5
1FA
100
AcDbSymbolTableRecord
100
AcDbLayerTableRecord
  2
DEFAULT_1
 70
0
 62
7
  6
CENTER
370
-3
390
F
  0
LAYER
  5
1FB
100
AcDbSymbolTableRecord
100
AcDbLayerTableRecord
  2
DEFAULT_2
 70
0
 62
7
  6
HIDDEN
370
-3
390
F
  0
LAYER
  5
1FC
100
AcDbSymbolTableRecord
100
AcDbLayerTableRecord
  2
DEFAULT_3
 70
0
 62
7
  6
PHANTOM
370
-3
390
F
  0
LAYER
  5
1FD
100
AcDbSymbolTableRecord
100
AcDbLayerTableRecord
  2
ASSI
 70
0
 62
7
  6
CONTINUOUS
370
-3
390
F
  0
LAYER
  5
1FE
100
AcDbSymbolTableRecord
100
AcDbLayerTableRecord
  2
COORDINATE
 70
0
 62
7
  6
CONTINUOUS
370
-3
390
F
  0
LAYER
  5
1FF
100
AcDbSymbolTableRecord
100
AcDbLayerTableRecord
  2
COORD_ORIGINE
 70
0
 62
7
  6
CONTINUOUS
370
-3
390
F
  0
LAYER
  5
200
100
AcDbSymbolTableRecord
100
AcDbLayerTableRecord
  2
COPY_PUBLISH
 70
0
 62
7
  6
CONTINUOUS
370
-3
390
F
  0
LAYER
  5
201
100
AcDbSymbolTableRecord
100
AcDbLayerTableRecord
  2
COSMETICI
 70
0
 62
7
  6
CONTINUOUS
370
-3
390
F
  0
LAYER
  5
202
100
AcDbSymbolTableRecord
100
AcDbLayerTableRecord
  2
CURVE
 70
0
 62
7
  6
CONTINUOUS
370
-3
390
F
  0
LAYER
  5
203
100
AcDbSymbolTableRecord
100
AcDbLayerTableRecord
  2
DRAFT
 70
0
 62
7
  6
CONTINUOUS
370
-3
390
F
  0
LAYER
  5
204
100
AcDbSymbolTableRecord
100
AcDbLayerTableRecord
  2
IMPORT
 70
0
 62
7
  6
CONTINUOUS
370
-3
390
F
  0
LAYER
  5
205
100
AcDbSymbolTableRecord
100
AcDbLayerTableRecord
  2
IMPORT_IGES
 70
0
 62
7
  6
CONTINUOUS
370
-3
390
F
  0
LAYER
  5
206
100
AcDbSymbolTableRecord
100
AcDbLayerTableRecord
  2
NOTE
 70
0
 62
7
  6
CONTINUOUS
370
-3
390
F
  0
LAYER
  5
207
100
AcDbSymbolTableRecord
100
AcDbLayerTableRecord
  2
PIANI
 70
0
 62
7
  6
CONTINUOUS
370
-3
390
F
  0
LAYER
  5
208
100
AcDbSymbolTableRecord
100
AcDbLayerTableRecord
  2
PIANI_ORIGINE
 70
0
 62
7
  6
CONTINUOUS
370
-3
390
F
  0
LAYER
  5
209
100
AcDbSymbolTableRecord
100
AcDbLayerTableRecord
  2
PUNTI
 70
0
 62
7
  6
CONTINUOUS
370
-3
390
F
  0
LAYER
  5
20A
100
AcDbSymbolTableRecord
100
AcDbLayerTableRecord
  2
RACCORDO
 70
0
 62
7
  6
CONTINUOUS
370
-3
390
F
  0
LAYER
  5
20B
100
AcDbSymbolTableRecord
100
AcDbLayerTableRecord
  2
SIMBOLI
 70
0
 62
7
  6
CONTINUOUS
370
-3
390
F
  0
LAYER
  5
20C
100
AcDbSymbolTableRecord
100
AcDbLayerTableRecord
  2
SMUSSO
 70
0
 62
7
  6
CONTINUOUS
370
-3
390
F
  0
LAYER
  5
20D
100
AcDbSymbolTableRecord
100
AcDbLayerTableRecord
  2
SUPERFICI
 70
0
 62
7
  6
CONTINUOUS
370
-3
390
F
  0
LAYER
  5
20E
100
AcDbSymbolTableRecord
100
AcDbLayerTableRecord
  2
TRASH
 70
0
 62
7
  6
CONTINUOUS
370
-3
390
F
  0
ENDTAB
  0
TABLE
  2
STYLE
  5
3
100
AcDbSymbolTable
 70
1
  0
STYLE
  5
11
100
AcDbSymbolTableRecord
100
AcDbTextStyleTableRecord
  2
STANDARD
 70
0
 40
0.0
 41
0.8
 50
0.0
 71
0
 42
0.2
  3
txt
  4

  0
STYLE
  5
20F
100
AcDbSymbolTableRecord
100
AcDbTextStyleTableRecord
  2
TEXTSTYLE_1
 70
0
 40
0.0
 41
0.8
 50
0.0
 71
0
 42
0.2
  3
gdt
  4

  0
ENDTAB
  0
TABLE
  2
VIEW
  5
6
100
AcDbSymbolTable
 70
0
  0
ENDTAB
  0
TABLE
  2
UCS
  5
7
100
AcDbSymbolTable
 70
0
  0
ENDTAB
  0
TABLE
  2
APPID
  5
9
100
AcDbSymbolTable
 70
1
  0
APPID
  5
210
100
AcDbSymbolTableRecord
100
AcDbRegAppTableRecord
  2
ACAD
 70
0
  0
ENDTAB
  0
TABLE
  2
BLOCK_RECORD
  5
1
100
AcDbSymbolTable
 70
0
  0
BLOCK_RECORD
  5
211
100
AcDbSymbolTableRecord
100
AcDbBlockTableRecord
  2
*Model_Space
  0
BLOCK_RECORD
  5
212
100
AcDbSymbolTableRecord
100
AcDbBlockTableRecord
  2
*Paper_Space
  0
BLOCK_RECORD
  5
213
100
AcDbSymbolTableRecord
100
AcDbBlockTableRecord
  2
_FILLED
  0
ENDTAB
  0
TABLE
  2
DIMSTYLE
  5
A
100
AcDbSymbolTable
 70
1
100
AcDbDimStyleTable
 71
0
  0
DIMSTYLE
105
214
100
AcDbSymbolTableRecord
100
AcDbDimStyleTableRecord
  2
STANDARD
 70
0
  3

  4

 40
1.0
 41
3.0
 42
0.5
 43
0.38
 44
1.5
 45
0.0
 46
0.0
 47
0.01
 48
0.01
140
3.0
141
0.09
142
0.0
143
25.4
144
1.0
145
0.0
146
1.0
147
0.625
 71
1.0
 72
0.0
 73
0
 74
0
 75
0
 76
0
 77
1
 78
8
 79
2
170
0
171
1
172
0
173
0
174
0
175
0
176
0
177
0
178
0
270
2
179
2
271
2
272
2
273
2
274
2
275
0
280
0
281
0
282
0
283
1
284
8
285
0
286
0
287
3
288
0
340
11
278
44
341
213
342
213
343
213
344
213
  0
ENDTAB
  0
ENDSEC
  0
SECTION
  2
BLOCKS
  0
BLOCK
  5
20
100
AcDbEntity
  8
0
100
AcDbBlockBegin
  2
*Model_Space
 70
0
 10
0.0
 20
0.0
 30
0.0
  3
*Model_Space
  1

  0
ENDBLK
  5
21
100
AcDbEntity
  8
0
100
AcDbBlockEnd
  0
BLOCK
  5
1C
100
AcDbEntity
  8
0
100
AcDbBlockBegin
  2
*Paper_Space
 70
0
 10
0.0
 20
0.0
 30
0.0
  3
*Paper_Space
  1

  0
ENDBLK
  5
1D
100
AcDbEntity
  8
0
100
AcDbBlockEnd
  0
BLOCK
  5
215
100
AcDbEntity
  8
0
100
AcDbBlockBegin
  2
_FILLED
 70
64
 10
0.0
 20
0.0
  3
_FILLED
  1

  0
SOLID
  5
216
100
AcDbEntity
  8
0
  6
BYBLOCK
 62
0
100
AcDbTrace
 10
0.0
 20
0.0
 11
-1.0
 21
0.3166666667
 12
-1.0
 22
-0.3166666667
 13
-1.0
 23
-0.3166666667
  0
ENDBLK
  5
217
100
AcDbEntity
  8
0
  6
BYBLOCK
 62
0
100
AcDbBlockEnd
  0
ENDSEC
  0
SECTION
  2
ENTITIES
  0
LINE
  5
218
100
AcDbEntity
  8
0
100
AcDbLine
 62
7
  6
CONTINUOUS
 10
109.4337890625
 20
51.2918791118
 11
184.4337890625
 21
51.2918791118
  0
LINE
  5
219
100
AcDbEntity
  8
RACCORDO
100
AcDbLine
 62
7
  6
CONTINUOUS
 10
106.9337890625
 20
69.5418791118
 11
106.9337890625
 21
148.0418791118
  0
LINE
  5
21A
100
AcDbEntity
  8
0
100
AcDbLine
 62
7
  6
CONTINUOUS
 10
109.4337890625
 20
65.1572601686
 11
109.4337890625
 21
61.5771331497
  0
LINE
  5
21B
100
AcDbEntity
  8
0
100
AcDbLine
 62
7
  6
CONTINUOUS
 10
109.4337890625
 20
60.8271331497
 11
109.4337890625
 21
57.2470061308
  0
LINE
  5
21C
100
AcDbEntity
  8
0
100
AcDbLine
 62
7
  6
CONTINUOUS
 10
109.4337890625
 20
56.4970061308
 11
109.4337890625
 21
52.9168791118
  0
LINE
  5
21D
100
AcDbEntity
  8
0
100
AcDbLine
 62
7
  6
CONTINUOUS
 10
109.4337890625
 20
52.1668791118
 11
109.4337890625
 21
51.2918791118
  0
LINE
  5
21E
100
AcDbEntity
  8
0
100
AcDbLine
 62
7
  6
CONTINUOUS
 10
109.4337890625
 20
65.9072601686
 11
109.4337890625
 21
69.4873871875
  0
LINE
  5
21F
100
AcDbEntity
  8
0
100
AcDbLine
 62
7
  6
CONTINUOUS
 10
109.4337890625
 20
70.2373871875
 11
109.4337890625
 21
73.8175142065
  0
LINE
  5
220
100
AcDbEntity
  8
0
100
AcDbLine
 62
7
  6
CONTINUOUS
 10
109.4337890625
 20
74.5675142065
 11
109.4337890625
 21
78.1476412254
  0
LINE
  5
221
100
AcDbEntity
  8
0
100
AcDbLine
 62
7
  6
CONTINUOUS
 10
109.4337890625
 20
78.8976412254
 11
109.4337890625
 21
82.4777682443
  0
LINE
  5
222
100
AcDbEntity
  8
0
100
AcDbLine
 62
7
  6
CONTINUOUS
 10
109.4337890625
 20
83.2277682443
 11
109.4337890625
 21
83.5418791118
  0
LINE
  5
223
100
AcDbEntity
  8
0
100
AcDbLine
 62
7
  6
CONTINUOUS
 10
109.4337890625
 20
134.0418791118
 11
109.4337890625
 21
166.2918791118
  0
LINE
  5
224
100
AcDbEntity
  8
RACCORDO
100
AcDbLine
 62
7
  6
CONTINUOUS
 10
186.1837890625
 20
68.7918791118
 11
184.4337890625
 21
68.7918791118
  0
LINE
  5
225
100
AcDbEntity
  8
0
100
AcDbLine
 62
250
  6
CONTINUOUS
 10
184.4337890625
 20
68.7918791118
 11
109.4337890625
 21
68.7918791118
  0
LINE
  5
226
100
AcDbEntity
  8
RACCORDO
100
AcDbLine
 62
7
  6
CONTINUOUS
 10
109.4337890625
 20
68.7918791118
 11
107.6837890625
 21
68.7918791118
  0
LINE
  5
227
100
AcDbEntity
  8
0
100
AcDbLine
 62
7
  6
CONTINUOUS
 10
184.4337890625
 20
69.1918791118
 11
109.4337890625
 21
69.1918791118
  0
LINE
  5
228
100
AcDbEntity
  8
0
100
AcDbLine
 62
250
  6
CONTINUOUS
 10
179.4337890625
 20
83.5418791118
 11
114.4337890625
 21
83.5418791118
  0
LINE
  5
229
100
AcDbEntity
  8
0
100
AcDbLine
 62
7
  6
CONTINUOUS
 10
109.4337890625
 20
83.5418791118
 11
114.4337890625
 21
83.5418791118
  0
LINE
  5
22A
100
AcDbEntity
  8
0
100
AcDbLine
 62
7
  6
CONTINUOUS
 10
179.4337890625
 20
83.5418791118
 11
184.4337890625
 21
83.5418791118
  0
LINE
  5
22B
100
AcDbEntity
  8
ASSI
100
AcDbLine
 62
7
  6
CONTINUOUS
 10
133.0972935625
 20
109.8720121118
 11
133.0972935625
 21
109.6359016118
  0
LINE
  5
22C
100
AcDbEntity
  8
ASSI
100
AcDbLine
 62
7
  6
CONTINUOUS
 10
133.1050040625
 20
107.9584561118
 11
133.1050040625
 21
107.7210476118
  0
LINE
  5
22D
100
AcDbEntity
  8
ASSI
100
AcDbLine
 62
7
  6
CONTINUOUS
 10
133.3064565625
 20
109.6359016118
 11
133.3064565625
 21
108.8504211118
  0
LINE
  5
22E
100
AcDbEntity
  8
ASSI
100
AcDbLine
 62
7
  6
CONTINUOUS
 10
133.3064565625
 20
108.5604601118
 11
133.3064565625
 21
107.9584561118
  0
LINE
  5
22F
100
AcDbEntity
  8
ASSI
100
AcDbLine
 62
7
  6
CONTINUOUS
 10
133.5579880625
 20
107.9584561118
 11
133.5579880625
 21
108.5604601118
  0
LINE
  5
230
100
AcDbEntity
  8
ASSI
100
AcDbLine
 62
7
  6
CONTINUOUS
 10
133.5579880625
 20
108.8530616118
 11
133.5579880625
 21
109.6359016118
  0
LINE
  5
231
100
AcDbEntity
  8
ASSI
100
AcDbLine
 62
7
  6
CONTINUOUS
 10
133.7595220625
 20
107.7210476118
 11
133.7595220625
 21
107.9584561118
  0
LINE
  5
232
100
AcDbEntity
  8
ASSI
100
AcDbLine
 62
7
  6
CONTINUOUS
 10
133.7672325625
 20
109.6359016118
 11
133.7672325625
 21
109.8720121118
  0
LINE
  5
233
100
AcDbEntity
  8
ASSI
100
AcDbLine
 62
7
  6
CONTINUOUS
 10
140.1837890625
 20
124.9376990043
 11
140.0837890625
 21
124.3705708223
  0
LINE
  5
234
100
AcDbEntity
  8
ASSI
100
AcDbLine
 62
7
  6
CONTINUOUS
 10
133.9804385261
 20
109.7658320471
 11
133.871753949
 21
109.5721914096
  0
LINE
  5
235
100
AcDbEntity
  8
ASSI
100
AcDbLine
 62
7
  6
CONTINUOUS
 10
132.5787275625
 20
110.6216556118
 11
132.4555185625
 21
110.4469876118
  0
LINE
  5
236
100
AcDbEntity
  8
ASSI
100
AcDbLine
 62
7
  6
CONTINUOUS
 10
133.3064565625
 20
108.8504211118
 11
132.6747183833
 21
108.3180514608
  0
LWPOLYLINE
  5
237
100
AcDbEntity
  8
0
100
AcDbPolyline
 62
7
  6
CONTINUOUS
 90
19
 70
0
 10
146.2894765625
 20
119.9565566638
 10
146.2753179137
 20
119.9511043537
 10
146.2607228517
 20
119.9450262635
 10
146.2456913765
 20
119.9383223931
 10
146.2300774319
 20
119.9309058918
 10
146.2140270742
 20
119.9228636104
 10
146.1979784719
 20
119.9144561011
 10
146.1818551365
 20
119.9056349082
 10
146.1657335566
 20
119.8964484875
 10
146.150281367
 20
119.8873027582
 10
146.1357186
 20
119.878330122
 10
146.1218252233
 20
119.8693981772
 10
146.1086087752
 20
119.8605156384
 10
146.0960796424
 20
119.8516833883
 10
146.0842274381
 20
119.8429005442
 10
146.0730285402
 20
119.8341731715
 10
146.0624750746
 20
119.8255032921
 10
146.0525749154
 20
119.8168888843
 10
146.0433280625
 20
119.8083299479
  0
LWPOLYLINE
  5
238
100
AcDbEntity
  8
0
100
AcDbPolyline
 62
7
  6
CONTINUOUS
 90
19
 70
0
 10
148.6222920625
 20
119.9565567286
 10
148.6081333445
 20
119.9511043897
 10
148.5935382306
 20
119.9450262779
 10
148.5785067208
 20
119.9383223931
 10
148.5628927647
 20
119.930905887
 10
148.5468424127
 20
119.922863608
 10
148.5307938162
 20
119.9144561011
 10
148.5146704808
 20
119.9056349082
 10
148.4985489008
 20
119.8964484875
 10
148.4830967113
 20
119.8873027582
 10
148.4685339443
 20
119.878330122
 10
148.4546405676
 20
119.8693981772
 10
148.4414241195
 20
119.8605156384
 10
148.4288949809
 20
119.8516833833
 10
148.4170427709
 20
119.8429005341
 10
148.4058438845
 20
119.8341731715
 10
148.3952904535
 20
119.8255033222
 10
148.3853903462
 20
119.8168889595
 10
148.3761435625
 20
119.8083300833
  0
LINE
  5
239
100
AcDbEntity
  8
0
100
AcDbLine
 62
7
  6
CONTINUOUS
 10
162.512480773
 20
101.9418791118
 11
163.079608955
 21
102.0418791118
  0
LINE
  5
23A
100
AcDbEntity
  8
ASSI
100
AcDbLine
 62
7
  6
CONTINUOUS
 10
144.6543170625
 20
95.6918206118
 11
145.1743625625
 21
95.6918206118
  0
LINE
  5
23B
100
AcDbEntity
  8
ASSI
100
AcDbLine
 62
7
  6
CONTINUOUS
 10
142.2551153125
 20
95.6918192862
 11
143.4728250625
 21
95.6918206118
  0
LINE
  5
23C
100
AcDbEntity
  8
ASSI
100
AcDbLine
 62
7
  6
CONTINUOUS
 10
146.3558415625
 20
95.6918271118
 11
147.1419710625
 21
95.6918271118
  0
LINE
  5
23D
100
AcDbEntity
  8
ASSI
100
AcDbLine
 62
7
  6
CONTINUOUS
 10
148.1130580625
 20
95.6918271118
 11
148.8991875625
 21
95.6918271118
  0
LINE
  5
23E
100
AcDbEntity
  8
ASSI
100
AcDbLine
 62
7
  6
CONTINUOUS
 10
149.4191875625
 20
95.6918271118
 11
149.9392070625
 21
95.6918271118
  0
LINE
  5
23F
100
AcDbEntity
  8
ASSI
100
AcDbLine
 62
7
  6
CONTINUOUS
 10
150.2858845625
 20
95.6918271118
 11
150.8059105625
 21
95.6918271118
  0
LINE
  5
240
100
AcDbEntity
  8
ASSI
100
AcDbLine
 62
7
  6
CONTINUOUS
 10
151.9555200625
 20
95.6918271118
 11
152.4755460625
 21
95.6918271118
  0
LINE
  5
241
100
AcDbEntity
  8
ASSI
100
AcDbLine
 62
7
  6
CONTINUOUS
 10
142.9599750625
 20
96.1728401118
 11
142.3272930625
 21
96.1728401118
  0
LINE
  5
242
100
AcDbEntity
  8
ASSI
100
AcDbLine
 62
7
  6
CONTINUOUS
 10
142.3272574492
 20
96.8055631118
 11
142.9599685625
 21
96.8055631118
  0
LINE
  5
243
100
AcDbEntity
  8
ASSI
100
AcDbLine
 62
7
  6
CONTINUOUS
 10
142.9527405625
 20
97.2865826118
 11
142.4988780625
 21
97.2865891118
  0
LINE
  5
244
100
AcDbEntity
  8
ASSI
100
AcDbLine
 62
7
  6
CONTINUOUS
 10
144.6623185625
 20
97.2865891118
 11
145.1663545625
 21
97.2865891118
  0
LINE
  5
245
100
AcDbEntity
  8
ASSI
100
AcDbLine
 62
7
  6
CONTINUOUS
 10
145.3249740625
 20
97.7806086118
 11
144.5036925625
 21
97.7806086118
  0
LINE
  5
246
100
AcDbEntity
  8
ASSI
100
AcDbLine
 62
7
  6
CONTINUOUS
 10
151.6407380625
 20
98.2919506118
 11
151.1206990625
 21
98.2919441118
  0
LINE
  5
247
100
AcDbEntity
  8
ASSI
100
AcDbLine
 62
7
  6
CONTINUOUS
 10
144.3395285625
 20
98.2919376118
 11
143.8195025625
 21
98.2919441118
  0
LINE
  5
248
100
AcDbEntity
  8
ASSI
100
AcDbLine
 62
7
  6
CONTINUOUS
 10
149.9392135625
 20
98.2919506118
 11
149.4191940625
 21
98.2919441118
  0
LINE
  5
249
100
AcDbEntity
  8
ASSI
100
AcDbLine
 62
7
  6
CONTINUOUS
 10
147.8875210625
 20
98.2919441118
 11
147.3675145625
 21
98.2919376118
  0
LINE
  5
24A
100
AcDbEntity
  8
ASSI
100
AcDbLine
 62
7
  6
CONTINUOUS
 10
143.4728250625
 20
98.2919376118
 11
142.9527990625
 21
98.2919376118
  0
LINE
  5
24B
100
AcDbEntity
  8
ASSI
100
AcDbLine
 62
7
  6
CONTINUOUS
 10
148.8991875625
 20
98.2919441118
 11
148.3791680625
 21
98.2919441118
  0
LINE
  5
24C
100
AcDbEntity
  8
ASSI
100
AcDbLine
 62
7
  6
CONTINUOUS
 10
146.8758610625
 20
98.2919441118
 11
146.3558415625
 21
98.2919441118
  0
LINE
  5
24D
100
AcDbEntity
  8
ASSI
100
AcDbLine
 62
7
  6
CONTINUOUS
 10
146.0091640625
 20
98.2919441118
 11
145.4891445625
 21
98.2919376118
  0
LINE
  5
24E
100
AcDbEntity
  8
ASSI
100
AcDbLine
 62
7
  6
CONTINUOUS
 10
141.9777535625
 20
98.2919376118
 11
141.3920320625
 21
98.2919311118
  0
LINE
  5
24F
100
AcDbEntity
  8
ASSI
100
AcDbLine
 62
7
  6
CONTINUOUS
 10
154.8750110625
 20
99.6043791118
 11
155.6052615625
 21
99.6043791118
  0
LINE
  5
250
100
AcDbEntity
  8
ASSI
100
AcDbLine
 62
7
  6
CONTINUOUS
 10
155.6052631185
 20
99.9793791118
 11
154.8750110625
 21
99.9793791118
  0
LINE
  5
251
100
AcDbEntity
  8
0
100
AcDbLine
 62
7
  6
CONTINUOUS
 10
130.78796917
 20
102.0418791118
 11
131.355097352
 21
101.9418791118
  0
LINE
  5
252
100
AcDbEntity
  8
RACCORDO
100
AcDbLine
 62
7
  6
CONTINUOUS
 10
141.6955050148
 20
99.9838266347
 11
141.8462762559
 21
99.889614307
  0
LINE
  5
253
100
AcDbEntity
  8
ASSI
100
AcDbLine
 62
7
  6
CONTINUOUS
 10
133.5579880625
 20
108.5604601118
 11
134.2221630625
 21
108.0007556118
  0
LINE
  5
254
100
AcDbEntity
  8
RACCORDO
100
AcDbLine
 62
7
  6
CONTINUOUS
 10
138.1257365854
 20
103.5535950641
 11
138.0315242577
 21
103.7043663052
  0
LINE
  5
255
100
AcDbEntity
  8
ASSI
100
AcDbLine
 62
7
  6
CONTINUOUS
 10
132.9958240625
 20
109.5721916118
 11
132.8871395625
 21
109.7658321118
  0
LINE
  5
256
100
AcDbEntity
  8
ASSI
100
AcDbLine
 62
7
  6
CONTINUOUS
 10
141.3920320625
 20
98.2919311118
 11
141.9455665591
 21
97.2240506892
  0
LINE
  5
257
100
AcDbEntity
  8
ASSI
100
AcDbLine
 62
7
  6
CONTINUOUS
 10
142.4988780625
 20
97.2865891118
 11
141.9777535625
 21
98.2919376118
  0
LINE
  5
258
100
AcDbEntity
  8
ASSI
100
AcDbLine
 62
7
  6
CONTINUOUS
 10
140.0837890625
 20
93.2131874013
 11
140.1837890625
 21
92.6460592194
  0
LINE
  5
259
100
AcDbEntity
  8
ASSI
100
AcDbLine
 62
7
  6
CONTINUOUS
 10
140.1837890625
 20
93.1695990154
 11
140.1837890625
 21
92.6460592194
  0
LINE
  5
25A
100
AcDbEntity
  8
ASSI
100
AcDbLine
 62
7
  6
CONTINUOUS
 10
140.1837890625
 20
124.4141592083
 11
140.1837890625
 21
124.9376990043
  0
LINE
  5
25B
100
AcDbEntity
  8
ASSI
100
AcDbLine
 62
7
  6
CONTINUOUS
 10
140.6837890625
 20
92.9629298286
 11
140.6837890625
 21
92.4460080736
  0
LINE
  5
25C
100
AcDbEntity
  8
ASSI
100
AcDbLine
 62
7
  6
CONTINUOUS
 10
140.6837890625
 20
124.6208283951
 11
140.6837890625
 21
125.1377501501
  0
LINE
  5
25D
100
AcDbEntity
  8
ASSI
100
AcDbLine
 62
7
  6
CONTINUOUS
 10
141.6837890625
 20
92.5177431901
 11
141.6837890625
 21
92.097943087
  0
LINE
  5
25E
100
AcDbEntity
  8
ASSI
100
AcDbLine
 62
7
  6
CONTINUOUS
 10
141.6837890625
 20
125.0660150336
 11
141.6837890625
 21
125.4858151366
  0
LINE
  5
25F
100
AcDbEntity
  8
0
100
AcDbLine
 62
7
  6
CONTINUOUS
 10
142.1837890625
 20
91.9488538491
 11
142.1837890625
 21
92.3648434693
  0
LINE
  5
260
100
AcDbEntity
  8
0
100
AcDbLine
 62
7
  6
CONTINUOUS
 10
142.1837890625
 20
125.2189147543
 11
142.1837890625
 21
125.6349043745
  0
LINE
  5
261
100
AcDbEntity
  8
RACCORDO
100
AcDbLine
 62
7
  6
CONTINUOUS
 10
137.9854893772
 20
103.6334788057
 11
137.9431413408
 21
103.3321568697
  0
LINE
  5
262
100
AcDbEntity
  8
RACCORDO
100
AcDbLine
 62
250
  6
CONTINUOUS
 10
138.1257365854
 20
103.5535950641
 11
138.0916815511
 21
103.3112809046
  0
LINE
  5
263
100
AcDbEntity
  8
ASSI
100
AcDbLine
 62
7
  6
CONTINUOUS
 10
141.6837890625
 20
125.4858151366
 11
141.6052632805
 21
125.0404732969
  0
LWPOLYLINE
  5
264
100
AcDbEntity
  8
0
100
AcDbPolyline
 62
7
  6
CONTINUOUS
 90
88
 70
0
 10
143.7927276473
 20
121.6585080905
 10
143.7966380925
 20
121.6750740556
 10
143.8008373511
 20
121.6908011481
 10
143.8053254233
 20
121.7056893679
 10
143.8101239995
 20
121.7196934382
 10
143.8152113892
 20
121.7328586358
 10
143.8205225207
 20
121.7453207916
 10
143.8260479872
 20
121.7570844961
 10
143.8317971954
 20
121.7681451587
 10
143.8377332934
 20
121.7786248378
 10
143.8438391723
 20
121.7885197197
 10
143.850131941
 20
121.7978336181
 10
143.8566260747
 20
121.8067000321
 10
143.8633078693
 20
121.8151288944
 10
143.8701910289
 20
121.8231102724
 10
143.8773311407
 20
121.8307478673
 10
143.8847151766
 20
121.8380456168
 10
143.8923561647
 20
121.8449995832
 10
143.9003487766
 20
121.8517016546
 10
143.9087843418
 20
121.8582287095
 10
143.9175715309
 20
121.8645038694
 10
143.926531027
 20
121.8703883862
 10
143.9355862254
 20
121.8758267006
 10
143.944813731
 20
121.8808743719
 10
143.9542640419
 20
121.8855593296
 10
143.9639311153
 20
121.8898892647
 10
143.973820994
 20
121.8938564861
 10
143.9840023046
 20
121.8974658508
 10
143.9944695796
 20
121.9007266818
 10
144.0052282864
 20
121.9036296559
 10
144.0163634547
 20
121.906151661
 10
144.0278965076
 20
121.9083027712
 10
144.0398060219
 20
121.9100729123
 10
144.052112758
 20
121.911408749
 10
144.0650195353
 20
121.9123037658
 10
144.0783235343
 20
121.9127644781
 10
144.0914370567
 20
121.9127570972
 10
144.1041685876
 20
121.9122627222
 10
144.1167096417
 20
121.9113002539
 10
144.1290470648
 20
121.9098926067
 10
144.1411529382
 20
121.9080466969
 10
144.1530551804
 20
121.9057556081
 10
144.1648243933
 20
121.9030215052
 10
144.1764789272
 20
121.8998463723
 10
144.1880004318
 20
121.8962282252
 10
144.1994044571
 20
121.8921632769
 10
144.2108276968
 20
121.8875677637
 10
144.2221334572
 20
121.8825254493
 10
144.2329272069
 20
121.8772838373
 10
144.2430555821
 20
121.8719257562
 10
144.2526719466
 20
121.8663683775
 10
144.2618418606
 20
121.8606107201
 10
144.2705278648
 20
121.8546911901
 10
144.2787674186
 20
121.8485713814
 10
144.2867384592
 20
121.8421350945
 10
144.2944888529
 20
121.8353597593
 10
144.3019707335
 20
121.8282679459
 10
144.3092184403
 20
121.8208111654
 10
144.3162370161
 20
121.8129983477
 10
144.3230214182
 20
121.8048205629
 10
144.3295908569
 20
121.7962025316
 10
144.3359526222
 20
121.7871529356
 10
144.3420994243
 20
121.777663093
 10
144.3480286045
 20
121.7676316792
 10
144.3537374667
 20
121.7570791064
 10
144.3592287071
 20
121.7459849623
 10
144.3645077557
 20
121.734186685
 10
144.3695861991
 20
121.7216651643
 10
144.3744524507
 20
121.7084395103
 10
144.3790771808
 20
121.6944044916
 10
144.3834893335
 20
121.6795591233
 10
144.3876599647
 20
121.6639043902
 10
144.3914729122
 20
121.6473380157
 10
144.3949333049
 20
121.6298399872
 10
144.398036014
 20
121.6114303173
 10
144.4006494903
 20
121.5920667665
 10
144.4027622308
 20
121.5713191824
 10
144.4043857384
 20
121.5496177176
 10
144.4054229736
 20
121.5282105901
 10
144.4058428514
 20
121.5074388583
 10
144.4056764567
 20
121.4869614639
 10
144.4049200045
 20
121.4670034497
 10
144.4035118566
 20
121.4475284817
 10
144.4015136511
 20
121.4285728939
 10
144.3991065173
 20
121.4104707325
 10
144.3962941328
 20
121.3933651543
 10
144.39307282
 20
121.3771130024
 10
144.3896126756
 20
121.3616188514
  0
LWPOLYLINE
  5
265
100
AcDbEntity
  8
0
100
AcDbPolyline
 62
7
  6
CONTINUOUS
 90
70
 70
0
 10
144.3896126756
 20
121.3616188514
 10
144.3859487482
 20
121.3468831725
 10
144.3820459892
 20
121.3329054944
 10
144.3779693487
 20
121.319588978
 10
144.3737773435
 20
121.3069525784
 10
144.3694114567
 20
121.2949773405
 10
144.364761089
 20
121.2835095606
 10
144.3597956974
 20
121.2725446189
 10
144.3545458249
 20
121.2620871352
 10
144.3489925002
 20
121.251997265
 10
144.3431359393
 20
121.2422509617
 10
144.3369759262
 20
121.2328722718
 10
144.3304928424
 20
121.2237934902
 10
144.3236943579
 20
121.2150079364
 10
144.3165728025
 20
121.2065222908
 10
144.3090855469
 20
121.19828889
 10
144.3011933415
 20
121.1902686765
 10
144.2929354358
 20
121.1825007078
 10
144.2843869493
 20
121.175054493
 10
144.2755045361
 20
121.1679038493
 10
144.2663315421
 20
121.1610749596
 10
144.2570731239
 20
121.1547158812
 10
144.2478733607
 20
121.1489228886
 10
144.2385881732
 20
121.1435997073
 10
144.2289904805
 20
121.1386055714
 10
144.2190329757
 20
121.1338917744
 10
144.2087629656
 20
121.1295070227
 10
144.1980952908
 20
121.12545667
 10
144.1870389281
 20
121.1217312141
 10
144.1755849006
 20
121.1183401571
 10
144.1636211184
 20
121.1153173592
 10
144.1511249583
 20
121.1126505867
 10
144.1381190434
 20
121.1103520732
 10
144.1245591533
 20
121.1084923803
 10
144.1101295785
 20
121.107080237
 10
144.0951460286
 20
121.1061069142
 10
144.0805114112
 20
121.1056167861
 10
144.0664358455
 20
121.1056451784
 10
144.0527092124
 20
121.1061567655
 10
144.0396040629
 20
121.1070899436
 10
144.0272544543
 20
121.1084488724
 10
144.0155263294
 20
121.1102293923
 10
144.004290068
 20
121.1123574212
 10
143.9935397965
 20
121.1148211098
 10
143.9832813885
 20
121.1176323073
 10
143.9734028453
 20
121.1207524802
 10
143.9638968632
 20
121.1241705934
 10
143.9547707459
 20
121.1278976818
 10
143.9459344057
 20
121.1319283171
 10
143.9373537829
 20
121.1362739886
 10
143.9290629372
 20
121.140923207
 10
143.9210739591
 20
121.1458360749
 10
143.9134185467
 20
121.150978126
 10
143.9060650019
 20
121.1563838267
 10
143.8989303211
 20
121.1621166794
 10
143.8920330035
 20
121.1681393317
 10
143.8853545498
 20
121.1744891359
 10
143.8787564586
 20
121.181341652
 10
143.8721944165
 20
121.1887120684
 10
143.8657127369
 20
121.1965851967
 10
143.8593058589
 20
121.2050910312
 10
143.8529589829
 20
121.2142346642
 10
143.8466869084
 20
121.2240110033
 10
143.8405284732
 20
121.2345347655
 10
143.8344724713
 20
121.2458224134
 10
143.8285301087
 20
121.2578574844
 10
143.8227738414
 20
121.270705307
 10
143.8172278215
 20
121.2843876574
 10
143.8118678968
 20
121.2988827594
 10
143.8066940675
 20
121.314190613
  0
LINE
  5
266
100
AcDbEntity
  8
RACCORDO
100
AcDbLine
 62
250
  6
CONTINUOUS
 10
138.3462656337
 20
103.4819408327
 11
138.3926181829
 21
103.6245993102
  0
LINE
  5
267
100
AcDbEntity
  8
0
100
AcDbLine
 62
7
  6
CONTINUOUS
 10
145.1259508787
 20
120.5918791118
 11
145.0241057088
 21
120.2895546619
  0
LWPOLYLINE
  5
268
100
AcDbEntity
  8
0
100
AcDbPolyline
 62
7
  6
CONTINUOUS
 90
8
 70
0
 10
144.8865325807
 20
119.9095770058
 10
144.8753310136
 20
119.8785056545
 10
144.864867591
 20
119.8476949247
 10
144.8550451435
 20
119.8171630999
 10
144.8459464398
 20
119.7865621889
 10
144.8375990692
 20
119.7557761945
 10
144.8299754422
 20
119.7249211139
 10
144.823075559
 20
119.6939969469
  0
LINE
  5
269
100
AcDbEntity
  8
0
100
AcDbLine
 62
7
  6
CONTINUOUS
 10
144.9880413696
 20
120.1806996118
 11
144.9104843645
 21
119.9729592647
  0
LINE
  5
26A
100
AcDbEntity
  8
0
100
AcDbLine
 62
7
  6
CONTINUOUS
 10
144.9104843645
 20
119.9729592647
 11
144.8865325807
 21
119.9095770058
  0
LINE
  5
26B
100
AcDbEntity
  8
0
100
AcDbLine
 62
7
  6
CONTINUOUS
 10
144.9015971879
 20
119.5863071118
 11
145.2937844923
 21
120.5918791118
  0
LWPOLYLINE
  5
26C
100
AcDbEntity
  8
0
100
AcDbPolyline
 62
7
  6
CONTINUOUS
 90
25
 70
0
 10
145.9995792117
 20
119.5863071118
 10
146.0041301313
 20
119.5951632156
 10
146.0092326469
 20
119.6042131724
 10
146.0148867586
 20
119.6134569822
 10
146.0210759197
 20
119.6228994762
 10
146.0278166768
 20
119.6325358232
 10
146.0351586697
 20
119.6423515295
 10
146.0431033616
 20
119.6523452239
 10
146.0516492892
 20
119.6625182777
 10
146.0608417022
 20
119.6728603113
 10
146.0706730509
 20
119.6833687726
 10
146.081150885
 20
119.6940462136
 10
146.0923431028
 20
119.7048899115
 10
146.1042166737
 20
119.7159175475
 10
146.1168046283
 20
119.7271114404
 10
146.1302739564
 20
119.7384158237
 10
146.1447021602
 20
119.7498864154
 10
146.1600117375
 20
119.7614674975
 10
146.176137172
 20
119.7729361494
 10
146.1930720023
 20
119.7842640325
 10
146.2108226898
 20
119.7954794854
 10
146.2293431028
 20
119.8064446026
 10
146.2486178639
 20
119.8171134157
 10
146.2686623505
 20
119.8275318932
 10
146.2894765625
 20
119.837700035
  0
LWPOLYLINE
  5
26D
100
AcDbEntity
  8
0
100
AcDbPolyline
 62
7
  6
CONTINUOUS
 90
31
 70
0
 10
148.9957100715
 20
119.7205696118
 10
149.0138796588
 20
119.7417614468
 10
149.0322527042
 20
119.7645853196
 10
149.0508292078
 20
119.7890412301
 10
149.0696497094
 20
119.8150989608
 10
149.0886736692
 20
119.8427887292
 10
149.1077794675
 20
119.8722011883
 10
149.1272195082
 20
119.903829833
 10
149.1467413875
 20
119.9371811683
 10
149.1654662746
 20
119.9708653619
 10
149.1831487249
 20
120.0044777699
 10
149.200034183
 20
120.0384230361
 10
149.2159801522
 20
120.0725252599
 10
149.2309548361
 20
120.1068148118
 10
149.244990031
 20
120.1412613212
 10
149.2580386299
 20
120.1755977757
 10
149.270113063
 20
120.2100653699
 10
149.2812009001
 20
120.2444229092
 10
149.2912177431
 20
120.2776797977
 10
149.3000378469
 20
120.3094903753
 10
149.3077869566
 20
120.3402003021
 10
149.3147579097
 20
120.3698559624
 10
149.3210282712
 20
120.3984476194
 10
149.3265204761
 20
120.4259850099
 10
149.3312946666
 20
120.452543728
 10
149.3353571493
 20
120.4781347491
 10
149.3387016175
 20
120.5027470978
 10
149.3413692942
 20
120.5264234416
 10
149.3433739202
 20
120.5491780032
 10
149.3447017546
 20
120.5709965599
 10
149.3453527973
 20
120.5918791118
  0
LWPOLYLINE
  5
26E
100
AcDbEntity
  8
0
100
AcDbPolyline
 62
7
  6
CONTINUOUS
 90
93
 70
0
 10
149.4254090625
 20
121.8042393426
 10
149.4324761487
 20
121.8103201015
 10
149.4401367579
 20
121.8163821232
 10
149.4483908901
 20
121.8224254077
 10
149.4572326463
 20
121.8284537566
 10
149.4666679254
 20
121.8344633683
 10
149.4767144248
 20
121.8404428377
 10
149.4873600246
 20
121.8463858511
 10
149.4986168446
 20
121.8522987222
 10
149.5105389415
 20
121.8581889863
 10
149.5231727763
 20
121.8641226851
 10
149.536471888
 20
121.8700337769
 10
149.5503509501
 20
121.8757316723
 10
149.5649725987
 20
121.8812701616
 10
149.5801741976
 20
121.8865954544
 10
149.595382512
 20
121.89135559
 10
149.6103987524
 20
121.8954260031
 10
149.6254217083
 20
121.8989312591
 10
149.6404745131
 20
121.9018930934
 10
149.6555474601
 20
121.9043155493
 10
149.6706502559
 20
121.9061945835
 10
149.6858351537
 20
121.9075398016
 10
149.7011959725
 20
121.9083521387
 10
149.7166388932
 20
121.9086306596
 10
149.7319347123
 20
121.9083821651
 10
149.7470230453
 20
121.9076016468
 10
149.7619642765
 20
121.9062941131
 10
149.776710356
 20
121.9044813904
 10
149.7912312288
 20
121.9021682561
 10
149.8055569497
 20
121.8993499328
 10
149.8197296332
 20
121.8960339144
 10
149.8339030274
 20
121.8921514025
 10
149.8479233842
 20
121.8877711955
 10
149.8613715731
 20
121.8831071824
 10
149.8741165817
 20
121.8781912666
 10
149.8862894225
 20
121.8729915447
 10
149.8978640025
 20
121.8676261961
 10
149.9087536986
 20
121.8621782267
 10
149.9190451339
 20
121.8565646305
 10
149.9289720847
 20
121.8506545695
 10
149.9385976714
 20
121.8444082692
 10
149.9478587736
 20
121.837865504
 10
149.9567998065
 20
121.8310147588
 10
149.9654203129
 20
121.8238655966
 10
149.97372075
 20
121.8164084543
 10
149.9817469041
 20
121.8086031274
 10
149.989504167
 20
121.8004587789
 10
149.9969871469
 20
121.7919662456
 10
150.0042254551
 20
121.7830578334
 10
150.0112326021
 20
121.7737296804
 10
150.0179950773
 20
121.7639856484
 10
150.024501961
 20
121.7537696281
 10
150.0307705552
 20
121.7430624515
 10
150.0367835579
 20
121.7318832865
 10
150.0424781423
 20
121.7202335277
 10
150.0478325071
 20
121.7081844131
 10
150.0528684537
 20
121.6956647047
 10
150.0575885603
 20
121.682462082
 10
150.0620172279
 20
121.668560494
 10
150.0661300554
 20
121.6539759918
 10
150.0698564185
 20
121.6385444088
 10
150.0732095427
 20
121.6222470877
 10
150.0761762024
 20
121.6051026857
 10
150.0786460961
 20
121.5870030079
 10
150.0806137665
 20
121.5675563065
 10
150.0820846708
 20
121.5471543292
 10
150.0829648801
 20
121.5268641238
 10
150.0832209016
 20
121.5069017493
 10
150.082886228
 20
121.4870511467
 10
150.0819674085
 20
121.467731186
 10
150.08044043
 20
121.4490855924
 10
150.0783293055
 20
121.4309706407
 10
150.0757126227
 20
121.4133740254
 10
150.0725483153
 20
121.3961926231
 10
150.0688784496
 20
121.3795295572
 10
150.0649078116
 20
121.3636818928
 10
150.0606713726
 20
121.3487862884
 10
150.0561341613
 20
121.3347060855
 10
150.0513960496
 20
121.3213283732
 10
150.0465522778
 20
121.3087463376
 10
150.0415076057
 20
121.2968667926
 10
150.0360761851
 20
121.2852972695
 10
150.0301517094
 20
121.273867377
 10
150.0238404852
 20
121.2627475065
 10
150.0172755847
 20
121.2520563633
 10
150.0104079697
 20
121.2417716844
 10
150.0032866783
 20
121.2319157327
 10
149.9961918979
 20
121.222674003
 10
149.9892962676
 20
121.2141938912
 10
149.9824271483
 20
121.2063280014
 10
149.9753468093
 20
121.1988196394
 10
149.9680690282
 20
121.1916521122
 10
149.9605800275
 20
121.1848421128
  0
LINE
  5
26F
100
AcDbEntity
  8
ASSI
100
AcDbLine
 62
7
  6
CONTINUOUS
 10
132.6439805659
 20
108.0021876147
 11
133.3064565625
 21
108.5604601118
  0
LWPOLYLINE
  5
270
100
AcDbEntity
  8
0
100
AcDbPolyline
 62
7
  6
CONTINUOUS
 90
56
 70
0
 10
149.9605800275
 20
121.1848421128
 10
149.952600744
 20
121.1781830267
 10
149.944077981
 20
121.1716056451
 10
149.9350649353
 20
121.1651791768
 10
149.9254421334
 20
121.1589046321
 10
149.9150151991
 20
121.1526941853
 10
149.9039785086
 20
121.1466356623
 10
149.8927957178
 20
121.1409935512
 10
149.8816649193
 20
121.1358585976
 10
149.8703880205
 20
121.131140056
 10
149.8588343991
 20
121.1268301781
 10
149.8471036658
 20
121.1229466318
 10
149.8350962099
 20
121.1194717493
 10
149.8223825768
 20
121.1163447785
 10
149.8088018364
 20
121.1135113132
 10
149.794514919
 20
121.1110257597
 10
149.7795751601
 20
121.1089905847
 10
149.7636335787
 20
121.1074251058
 10
149.7470391558
 20
121.1063100054
 10
149.7308921711
 20
121.1056897976
 10
149.7155324549
 20
121.105588301
 10
149.7006201768
 20
121.1059816971
 10
149.6862361251
 20
121.1068430436
 10
149.6724480245
 20
121.1081814854
 10
149.6591881503
 20
121.1099878777
 10
149.6463341169
 20
121.1122078436
 10
149.6338813647
 20
121.1148294821
 10
149.6218344533
 20
121.1178646942
 10
149.6100846756
 20
121.1212948069
 10
149.598556544
 20
121.1251475791
 10
149.5873255462
 20
121.1293952518
 10
149.5765094369
 20
121.1339358754
 10
149.566077638
 20
121.138794419
 10
149.5560607278
 20
121.1439459134
 10
149.5466681961
 20
121.1492135012
 10
149.5380119688
 20
121.1545423407
 10
149.5299801202
 20
121.1599872736
 10
149.5224463621
 20
121.1655359677
 10
149.5154065188
 20
121.1711739778
 10
149.5088647662
 20
121.1769157491
 10
149.5027073435
 20
121.1827922844
 10
149.4969848679
 20
121.1887129586
 10
149.4916467223
 20
121.1947683968
 10
149.4864272951
 20
121.2012614777
 10
149.4812557369
 20
121.2082544979
 10
149.4762028972
 20
121.2156851607
 10
149.4712157123
 20
121.2236694545
 10
149.4662662078
 20
121.2322356908
 10
149.4613823582
 20
121.241355558
 10
149.4565950233
 20
121.2510601097
 10
149.4519068231
 20
121.2613490413
 10
149.4473151376
 20
121.2722226574
 10
149.4428429674
 20
121.2837129253
 10
149.4384979791
 20
121.295830501
 10
149.4342725061
 20
121.3085647285
 10
149.4301665484
 20
121.321915608
  0
LINE
  5
271
100
AcDbEntity
  8
RACCORDO
100
AcDbLine
 62
250
  6
CONTINUOUS
 10
152.2437273416
 20
117.3794025406
 11
152.1010688642
 21
117.3330499915
  0
LINE
  5
272
100
AcDbEntity
  8
0
100
AcDbLine
 62
7
  6
CONTINUOUS
 10
163.1823832476
 20
103.4633533299
 11
163.6277250873
 21
103.5418791118
  0
LINE
  5
273
100
AcDbEntity
  8
RACCORDO
100
AcDbLine
 62
7
  6
CONTINUOUS
 10
141.4740668204
 20
99.8012313902
 11
141.7753887563
 21
99.8435794266
  0
LINE
  5
274
100
AcDbEntity
  8
RACCORDO
100
AcDbLine
 62
250
  6
CONTINUOUS
 10
141.4531908552
 20
99.9497716005
 11
141.6955050148
 21
99.9838266347
  0
LINE
  5
275
100
AcDbEntity
  8
0
100
AcDbLine
 62
7
  6
CONTINUOUS
 10
163.079608955
 20
102.0418791118
 11
162.5560691589
 21
102.0418791118
  0
LINE
  5
276
100
AcDbEntity
  8
0
100
AcDbLine
 62
7
  6
CONTINUOUS
 10
131.3115089661
 20
102.0418791118
 11
130.78796917
 21
102.0418791118
  0
LINE
  5
277
100
AcDbEntity
  8
0
100
AcDbLine
 62
7
  6
CONTINUOUS
 10
163.2796601008
 20
102.5418791118
 11
162.7627383457
 21
102.5418791118
  0
LINE
  5
278
100
AcDbEntity
  8
0
100
AcDbLine
 62
7
  6
CONTINUOUS
 10
131.1048397793
 20
102.5418791118
 11
130.5879180242
 21
102.5418791118
  0
LINE
  5
279
100
AcDbEntity
  8
0
100
AcDbLine
 62
7
  6
CONTINUOUS
 10
163.6277250873
 20
103.5418791118
 11
163.2079249843
 21
103.5418791118
  0
LINE
  5
27A
100
AcDbEntity
  8
0
100
AcDbLine
 62
7
  6
CONTINUOUS
 10
130.6596531407
 20
103.5418791118
 11
130.2398530377
 21
103.5418791118
  0
LINE
  5
27B
100
AcDbEntity
  8
0
100
AcDbLine
 62
7
  6
CONTINUOUS
 10
130.0907637998
 20
104.0418791118
 11
130.50675342
 21
104.0418791118
  0
LINE
  5
27C
100
AcDbEntity
  8
0
100
AcDbLine
 62
7
  6
CONTINUOUS
 10
163.360824705
 20
104.0418791118
 11
163.7768143252
 21
104.0418791118
  0
LINE
  5
27D
100
AcDbEntity
  8
RACCORDO
100
AcDbLine
 62
250
  6
CONTINUOUS
 10
138.0916815511
 20
103.3112809046
 11
137.9431413408
 21
103.3321568697
  0
LINE
  5
27E
100
AcDbEntity
  8
0
100
AcDbLine
 62
7
  6
CONTINUOUS
 10
130.2398530377
 20
103.5418791118
 11
130.6851948774
 21
103.4633533299
  0
LINE
  5
27F
100
AcDbEntity
  8
RACCORDO
100
AcDbLine
 62
250
  6
CONTINUOUS
 10
138.3462656337
 20
103.4819408327
 11
138.1257365854
 21
103.5535950641
  0
LINE
  5
280
100
AcDbEntity
  8
RACCORDO
100
AcDbLine
 62
7
  6
CONTINUOUS
 10
138.3926181829
 20
103.6245993102
 11
138.1154178835
 21
103.7146671472
  0
LINE
  5
281
100
AcDbEntity
  8
ASSI
100
AcDbLine
 62
7
  6
CONTINUOUS
 10
134.1928595625
 20
108.3180516118
 11
133.5579880625
 21
108.8530616118
  0
LINE
  5
282
100
AcDbEntity
  8
RACCORDO
100
AcDbLine
 62
250
  6
CONTINUOUS
 10
141.6955050148
 20
99.9838266347
 11
141.6238507834
 21
100.2043556831
  0
LINE
  5
283
100
AcDbEntity
  8
RACCORDO
100
AcDbLine
 62
7
  6
CONTINUOUS
 10
141.8565770979
 20
99.9735079329
 11
141.7665092608
 21
100.2507082322
  0
LINE
  5
284
100
AcDbEntity
  8
ASSI
100
AcDbLine
 62
7
  6
CONTINUOUS
 10
143.8195025625
 20
98.2919441118
 11
144.6543170625
 21
95.6918206118
  0
LINE
  5
285
100
AcDbEntity
  8
ASSI
100
AcDbLine
 62
7
  6
CONTINUOUS
 10
144.9143430625
 20
96.5016231118
 11
144.6623185625
 21
97.2865891118
  0
LINE
  5
286
100
AcDbEntity
  8
ASSI
100
AcDbLine
 62
7
  6
CONTINUOUS
 10
144.5036925625
 20
97.7806086118
 11
144.3395285625
 21
98.2919376118
  0
LINE
  5
287
100
AcDbEntity
  8
ASSI
100
AcDbLine
 62
7
  6
CONTINUOUS
 10
141.6052632805
 20
92.5432849268
 11
141.6837890625
 21
92.097943087
  0
LINE
  5
288
100
AcDbEntity
  8
RACCORDO
100
AcDbLine
 62
250
  6
CONTINUOUS
 10
141.4531908552
 20
99.9497716005
 11
141.4740668204
 21
99.8012313902
  0
LWPOLYLINE
  5
289
100
AcDbEntity
  8
0
100
AcDbPolyline
 62
7
  6
CONTINUOUS
 90
3
 70
0
 10
145.3957448902
 20
120.5915779515
 10
145.3957901566
 20
120.5910323502
 10
145.3957901281
 20
120.4520220768
  0
LWPOLYLINE
  5
28A
100
AcDbEntity
  8
0
100
AcDbPolyline
 62
7
  6
CONTINUOUS
 90
82
 70
0
 10
146.9086493977
 20
121.5381779892
 10
146.908240979
 20
121.5477539235
 10
146.9080136811
 20
121.557458412
 10
146.907967504
 20
121.5672914547
 10
146.908093761
 20
121.5771639195
 10
146.9084011387
 20
121.5871649385
 10
146.9089156974
 20
121.5975619082
 10
146.909618853
 20
121.6084224198
 10
146.9105291895
 20
121.6196788822
 10
146.9117285195
 20
121.6313959179
 10
146.9132062584
 20
121.643570288
 10
146.9149729909
 20
121.6562052316
 10
146.9171422835
 20
121.6693750883
 10
146.919789579
 20
121.6833423876
 10
146.9228394347
 20
121.6978446
 10
146.9261790886
 20
121.7121684776
 10
146.9298195546
 20
121.7262328174
 10
146.9337498189
 20
121.7401188224
 10
146.9378240779
 20
121.7533568525
 10
146.9419973143
 20
121.7657839986
 10
146.9463145454
 20
121.7775631697
 10
146.9507650188
 20
121.7887134535
 10
146.9553469323
 20
121.7992281756
 10
146.9600620881
 20
121.8091140104
 10
146.96490514
 20
121.8184100683
 10
146.9698499066
 20
121.8270645406
 10
146.9749225693
 20
121.835129236
 10
146.9801963261
 20
121.8427986921
 10
146.9856850822
 20
121.850109069
 10
146.9913749325
 20
121.8570242065
 10
146.997297359
 20
121.8636301607
 10
147.0034663267
 20
121.8699521383
 10
147.0098678705
 20
121.8759649325
 10
147.0164915779
 20
121.88167898
 10
147.0234269823
 20
121.8871476577
 10
147.0305845501
 20
121.8923175887
 10
147.0376852685
 20
121.8970390784
 10
147.0445716672
 20
121.9012218985
 10
147.0514012164
 20
121.9049562772
 10
147.0583673143
 20
121.9083632045
 10
147.0654976699
 20
121.9114731194
 10
147.0727645741
 20
121.9142555829
 10
147.0802782972
 20
121.9167402685
 10
147.0880464909
 20
121.9189460694
 10
147.0960615035
 20
121.9208540923
 10
147.1044106503
 20
121.9224373309
 10
147.1132076221
 20
121.9237024396
 10
147.1223387281
 20
121.924642764
 10
147.1315502123
 20
121.9252113341
 10
147.1409255411
 20
121.9253810792
 10
147.1503812481
 20
121.9251790701
 10
147.1594131771
 20
121.9246395486
 10
147.1678290745
 20
121.9237538871
 10
147.1758211939
 20
121.9225307133
 10
147.1834621402
 20
121.9210301521
 10
147.1907478201
 20
121.9192626491
 10
147.1976823268
 20
121.9172177587
 10
147.2043505448
 20
121.91492427
 10
147.2107508933
 20
121.9123976167
 10
147.216884953
 20
121.909622365
 10
147.2228423511
 20
121.9065810028
 10
147.2286783715
 20
121.9032432195
 10
147.2343377302
 20
121.8996393256
 10
147.2397442028
 20
121.8958427406
 10
147.2448594897
 20
121.8918893538
 10
147.2497218904
 20
121.8877432757
 10
147.2543700787
 20
121.8833702579
 10
147.2587736423
 20
121.8788237951
 10
147.2629629934
 20
121.8740503925
 10
147.2670680422
 20
121.868855317
 10
147.2711428055
 20
121.863198298
 10
147.2751332664
 20
121.8571196061
 10
147.2790072846
 20
121.85054532
 10
147.2827713662
 20
121.8434635053
 10
147.286419005
 20
121.8358860965
 10
147.2898985421
 20
121.8277749751
 10
147.2932093602
 20
121.8191265622
 10
147.2963520765
 20
121.8099444367
 10
147.2992768844
 20
121.800201217
 10
147.3019671816
 20
121.7898877759
 10
147.3044395703
 20
121.7790132405
 10
147.3066940506
 20
121.7675776109
  0
LWPOLYLINE
  5
28B
100
AcDbEntity
  8
0
100
AcDbPolyline
 62
7
  6
CONTINUOUS
 90
73
 70
0
 10
145.0846270513
 20
121.1813344031
 10
145.0844126326
 20
121.1904668497
 10
145.0838612908
 20
121.1993272255
 10
145.082973026
 20
121.2079155307
 10
145.0817401519
 20
121.216208168
 10
145.0801703548
 20
121.2242287346
 10
145.0782866932
 20
121.2320480221
 10
145.0760980633
 20
121.2396712349
 10
145.0735955689
 20
121.2470931685
 10
145.0707755807
 20
121.2543690021
 10
145.067648986
 20
121.2614994351
 10
145.0642048975
 20
121.268483768
 10
145.0604070234
 20
121.2753750812
 10
145.0562637842
 20
121.2821802494
 10
145.0517667594
 20
121.2888923978
 10
145.0468543955
 20
121.295543982
 10
145.0414645399
 20
121.3022011022
 10
145.0356593453
 20
121.3087976583
 10
145.0295637155
 20
121.3151678049
 10
145.0231405454
 20
121.3213219259
 10
145.0164269403
 20
121.3272496375
 10
145.0096591199
 20
121.3327539424
 10
145.0029230864
 20
121.3377501335
 10
144.9961328377
 20
121.3423229179
 10
144.9892665871
 20
121.3465294198
 10
144.9823344075
 20
121.3503749738
 10
144.9753262259
 20
121.3538542452
 10
144.9681900374
 20
121.3570083541
 10
144.9609258675
 20
121.3598484296
 10
144.9535336907
 20
121.3623633426
 10
144.9459614247
 20
121.3645608251
 10
144.9382181515
 20
121.366449597
 10
144.9302947892
 20
121.3680209385
 10
144.9221120094
 20
121.3692564215
 10
144.9135636633
 20
121.3701601688
 10
144.9047558998
 20
121.3707280577
 10
144.8959278373
 20
121.3709292919
 10
144.8870648223
 20
121.3707437234
 10
144.8781815083
 20
121.3701915001
 10
144.8695609737
 20
121.3693022693
 10
144.8613222554
 20
121.3680790313
 10
144.8533463167
 20
121.3665187858
 10
144.8455591249
 20
121.3646421788
 10
144.8379538881
 20
121.3624581161
 10
144.8305373983
 20
121.3599576921
 10
144.8232559991
 20
121.3571348357
 10
144.8161092098
 20
121.3540004696
 10
144.8090975112
 20
121.3505436713
 10
144.8021686895
 20
121.3467256016
 10
144.7953149029
 20
121.3425536909
 10
144.7885439932
 20
121.3380205088
 10
144.7818272717
 20
121.3330649253
 10
144.7750884527
 20
121.3276136665
 10
144.7684038219
 20
121.3217400062
 10
144.7619735482
 20
121.3156026355
 10
144.7558079561
 20
121.3091846736
 10
144.7498967211
 20
121.3025030013
 10
144.7444090376
 20
121.2957669522
 10
144.7394216135
 20
121.2890554244
 10
144.7348577409
 20
121.2822895199
 10
144.7306564911
 20
121.2754418779
 10
144.7268107833
 20
121.2685207427
 10
144.7233276982
 20
121.26151787
 10
144.7201675485
 20
121.254381166
 10
144.7173193544
 20
121.2471110591
 10
144.7147940956
 20
121.239707121
 10
144.7125850247
 20
121.232115973
 10
144.7106832665
 20
121.2243465503
 10
144.7090976962
 20
121.2163899178
 10
144.7078481916
 20
121.2081658915
 10
144.7069413786
 20
121.1996477433
 10
144.7063706314
 20
121.1908622013
 10
144.7061359499
 20
121.1818092654
  0
LWPOLYLINE
  5
28C
100
AcDbEntity
  8
0
100
AcDbPolyline
 62
7
  6
CONTINUOUS
 90
73
 70
0
 10
144.7061359499
 20
121.1818092654
 10
144.7063319876
 20
121.1727042531
 10
144.706865546
 20
121.1638705817
 10
144.7077366252
 20
121.1553082514
 10
144.7089529316
 20
121.1470418802
 10
144.7105067588
 20
121.1390468501
 10
144.7123749877
 20
121.1312493062
 10
144.7145476536
 20
121.1236446637
 10
144.7170347212
 20
121.1162375076
 10
144.719842966
 20
121.1089677377
 10
144.7229631722
 20
121.1018308585
 10
144.7264045555
 20
121.0948313655
 10
144.7302015382
 20
121.0879226451
 10
144.7343430405
 20
121.0811021454
 10
144.7388401422
 20
121.0743724182
 10
144.7437605043
 20
121.0676945058
 10
144.7491827049
 20
121.0609849357
 10
144.7550281659
 20
121.0543271803
 10
144.761128815
 20
121.0479326999
 10
144.7674944079
 20
121.0418199837
 10
144.7741151889
 20
121.0359705424
 10
144.7807938177
 20
121.0305403678
 10
144.7874515879
 20
121.0256036077
 10
144.7941672059
 20
121.0210861144
 10
144.8009794511
 20
121.0169214363
 10
144.8078853359
 20
121.0130986816
 10
144.8148878478
 20
121.0096287422
 10
144.8220347288
 20
121.006477842
 10
144.8293218278
 20
121.003636598
 10
144.8367532957
 20
121.0011143932
 10
144.8443893279
 20
120.9989056011
 10
144.8522262118
 20
120.9970003841
 10
144.8602676599
 20
120.9954085797
 10
144.8685850044
 20
120.9941540733
 10
144.8773078735
 20
120.9932343607
 10
144.886306639
 20
120.992651946
 10
144.8952637481
 20
120.9924382277
 10
144.9041481959
 20
120.9926141911
 10
144.9129909873
 20
120.9931588507
 10
144.9215675844
 20
120.994040649
 10
144.9297757823
 20
120.9952557906
 10
144.9377177859
 20
120.9968080709
 10
144.9454756714
 20
120.9986773184
 10
144.9530574372
 20
121.0008537303
 10
144.9604550849
 20
121.0033471095
 10
144.9677266955
 20
121.0061666926
 10
144.9748760826
 20
121.0093029315
 10
144.9818994326
 20
121.0127653744
 10
144.9888433852
 20
121.0165919025
 10
144.9957112593
 20
121.0207719396
 10
145.0024997361
 20
121.0253160619
 10
145.0092454989
 20
121.03029388
 10
145.0160405068
 20
121.035793381
 10
145.0227928006
 20
121.0417265778
 10
145.0292631859
 20
121.0478991197
 10
145.0354207706
 20
121.0543101857
 10
145.0412964468
 20
121.0609605968
 10
145.0467436967
 20
121.0676584662
 10
145.0516901838
 20
121.0743266848
 10
145.0562082445
 20
121.0810423617
 10
145.0603683705
 20
121.0878449368
 10
145.0641818233
 20
121.0947313775
 10
145.0676373413
 20
121.1017047164
 10
145.070771631
 20
121.1088134914
 10
145.0735949688
 20
121.1160563748
 10
145.0760970783
 20
121.1234346943
 10
145.0782838358
 20
121.1310009716
 10
145.0801633741
 20
121.1387399876
 10
145.0817275605
 20
121.1466669614
 10
145.0829578736
 20
121.154880072
 10
145.0838481395
 20
121.1634120457
 10
145.0844045321
 20
121.172230156
 10
145.0846270513
 20
121.1813344031
  0
LWPOLYLINE
  5
28D
100
AcDbEntity
  8
0
100
AcDbPolyline
 62
7
  6
CONTINUOUS
 90
96
 70
0
 10
144.2307364764
 20
120.1794207676
 10
144.2303582687
 20
120.2016408399
 10
144.2295589861
 20
120.222947222
 10
144.2284272573
 20
120.2434115055
 10
144.2269434953
 20
120.2630287812
 10
144.2250889751
 20
120.2817818123
 10
144.2228824217
 20
120.2996878357
 10
144.2203604225
 20
120.3167936528
 10
144.2175211765
 20
120.3331010118
 10
144.2143664848
 20
120.3486081645
 10
144.2109383378
 20
120.3633566677
 10
144.2072350314
 20
120.3773450275
 10
144.2032582698
 20
120.3905747379
 10
144.1990551554
 20
120.4030918368
 10
144.1946528105
 20
120.4148365108
 10
144.1900241129
 20
120.4258685735
 10
144.1851347986
 20
120.4364135027
 10
144.1799840231
 20
120.4464966973
 10
144.1745726308
 20
120.4560927585
 10
144.1688688908
 20
120.4653509687
 10
144.1628699308
 20
120.4743027911
 10
144.156578623
 20
120.4829167625
 10
144.1499718538
 20
120.4912477754
 10
144.1430611588
 20
120.4992972146
 10
144.1358350022
 20
120.5070636953
 10
144.1282356631
 20
120.5145979562
 10
144.1202649857
 20
120.5219135677
 10
144.1119211258
 20
120.5289969594
 10
144.1031408293
 20
120.5358581583
 10
144.0938910776
 20
120.5425230199
 10
144.0842048895
 20
120.5489656888
 10
144.0741180672
 20
120.5551186258
 10
144.0636893893
 20
120.5609580221
 10
144.0528600772
 20
120.5665076865
 10
144.0414895979
 20
120.5717715066
 10
144.029605223
 20
120.5767547728
 10
144.0171796808
 20
120.5814521946
 10
144.0039906237
 20
120.5858517883
 10
143.9900022939
 20
120.5899801717
 10
143.9752504492
 20
120.593810727
 10
143.9596200147
 20
120.5972516168
 10
143.9430957075
 20
120.6003072526
 10
143.9256928105
 20
120.602973223
 10
143.9073420979
 20
120.6051444557
 10
143.8877180656
 20
120.6068118299
 10
143.8671462177
 20
120.6079844665
 10
143.8465338402
 20
120.6085846552
 10
143.825858525
 20
120.6085699907
 10
143.8051426803
 20
120.6079828785
 10
143.7853608164
 20
120.606872824
 10
143.7668583897
 20
120.605220712
 10
143.7492899438
 20
120.6030456578
 10
143.7325936209
 20
120.6004545131
 10
143.7167872737
 20
120.5974514347
 10
143.7018530495
 20
120.5940322657
 10
143.687675532
 20
120.5902913869
 10
143.6742701958
 20
120.5862438028
 10
143.6616215662
 20
120.5818745089
 10
143.6495678032
 20
120.5772328731
 10
143.6381661961
 20
120.5723725617
 10
143.6273594556
 20
120.5672399084
 10
143.6168138743
 20
120.5617232822
 10
143.6064704784
 20
120.5558084877
 10
143.5963882418
 20
120.5495097203
 10
143.5864103783
 20
120.5427579357
 10
143.5763454692
 20
120.5354286817
 10
143.5663849333
 20
120.5276464104
 10
143.556946241
 20
120.5197154343
 10
143.5481909646
 20
120.5117385294
 10
143.5399575319
 20
120.5036129198
 10
143.532178697
 20
120.4953345896
 10
143.5248530728
 20
120.4869147587
 10
143.5179820465
 20
120.4783422071
 10
143.5115025337
 20
120.46957926
 10
143.5054061389
 20
120.4606325003
 10
143.4997012577
 20
120.451495345
 10
143.4943499926
 20
120.4421103704
 10
143.4893720228
 20
120.4325438191
 10
143.4847476692
 20
120.4227294485
 10
143.4803799968
 20
120.4124111065
 10
143.476249814
 20
120.4015565047
 10
143.4723763125
 20
120.3901979315
 10
143.4687201327
 20
120.3781760994
 10
143.4652556041
 20
120.3654494345
 10
143.4620083972
 20
120.3520595107
 10
143.4590161633
 20
120.3379717628
 10
143.4562806657
 20
120.3231885095
 10
143.4538001411
 20
120.3077074321
 10
143.4516069515
 20
120.2914870088
 10
143.4497018757
 20
120.2745290246
 10
143.4480841348
 20
120.2568316945
 10
143.4467837549
 20
120.2383481417
 10
143.4458448786
 20
120.2190357212
 10
143.4452233633
 20
120.198937078
 10
143.4448168069
 20
120.1781332701
 10
143.4446615315
 20
120.15660533
  0
LWPOLYLINE
  5
28E
100
AcDbEntity
  8
0
100
AcDbPolyline
 62
7
  6
CONTINUOUS
 90
4
 70
0
 10
145.5356549669
 20
120.4528981865
 10
145.5356471956
 20
120.4534378552
 10
145.535647174
 20
120.4537139622
 10
145.5356471631
 20
120.5918791118
  0
LWPOLYLINE
  5
28F
100
AcDbEntity
  8
0
100
AcDbPolyline
 62
7
  6
CONTINUOUS
 90
91
 70
0
 10
145.8890963251
 20
121.5158316205
 10
145.8887702765
 20
121.5457791056
 10
145.8879270716
 20
121.5745034098
 10
145.8865667102
 20
121.6020045331
 10
145.8846659255
 20
121.6282547159
 10
145.8822479844
 20
121.6532817177
 10
145.8793826879
 20
121.6771688176
 10
145.8760683054
 20
121.6999173353
 10
145.8723065676
 20
121.7215259511
 10
145.8681724671
 20
121.7420739845
 10
145.8636637642
 20
121.7615613951
 10
145.8587826988
 20
121.7799882232
 10
145.8536109834
 20
121.7974339099
 10
145.8481465088
 20
121.81389668
 10
145.8423913843
 20
121.8293783088
 10
145.83643365
 20
121.8439635624
 10
145.8302819749
 20
121.8576365317
 10
145.8239276901
 20
121.8704131258
 10
145.8174328288
 20
121.882425839
 10
145.8108426631
 20
121.8936429623
 10
145.8041119209
 20
121.9040962046
 10
145.7971668183
 20
121.9140131872
 10
145.7899668082
 20
121.9234517414
 10
145.7825524378
 20
121.932354036
 10
145.7749715654
 20
121.940774198
 10
145.767237748
 20
121.9487111221
 10
145.7593374286
 20
121.9561659137
 10
145.7512777938
 20
121.9631960161
 10
145.7430758803
 20
121.9698021692
 10
145.7347146514
 20
121.9759836332
 10
145.7261501838
 20
121.9817956321
 10
145.717386855
 20
121.9872478897
 10
145.7084202875
 20
121.9923306822
 10
145.6991934254
 20
121.9970700631
 10
145.6897124613
 20
122.001474652
 10
145.6799712026
 20
122.0055358292
 10
145.6698940156
 20
122.0092537892
 10
145.6594885582
 20
122.0126380444
 10
145.6487471726
 20
122.0156790824
 10
145.6375712517
 20
122.0183485611
 10
145.6259683459
 20
122.0206579358
 10
145.6139309049
 20
122.0225957512
 10
145.6013376706
 20
122.0240992998
 10
145.5879364381
 20
122.0251651332
 10
145.5739794124
 20
122.0257966999
 10
145.5601019505
 20
122.0259416367
 10
145.5463494886
 20
122.0255590736
 10
145.5326765906
 20
122.0246898808
 10
145.5195823052
 20
122.0234043054
 10
145.5072767574
 20
122.0217050149
 10
145.4955498223
 20
122.0195893419
 10
145.4842701743
 20
122.0171195309
 10
145.4734274657
 20
122.0143069052
 10
145.4630320442
 20
122.0111401415
 10
145.4529836271
 20
122.0076475138
 10
145.4432736108
 20
122.0038379234
 10
145.4339105989
 20
121.9997024692
 10
145.4248201198
 20
121.9952427214
 10
145.4160228733
 20
121.9904894542
 10
145.4074981595
 20
121.9854118936
 10
145.3991094071
 20
121.9799192877
 10
145.390848716
 20
121.9740259904
 10
145.3827239864
 20
121.9677176479
 10
145.3746223469
 20
121.9608604474
 10
145.3664506563
 20
121.953383612
 10
145.3583020558
 20
121.9453579186
 10
145.3503430977
 20
121.9368618854
 10
145.3426338489
 20
121.9279578928
 10
145.3351142425
 20
121.9185835603
 10
145.3277706309
 20
121.9086302649
 10
145.3205949019
 20
121.8981094681
 10
145.3135951677
 20
121.8870097082
 10
145.3067821166
 20
121.8751879774
 10
145.3001361836
 20
121.8626246793
 10
145.2936769337
 20
121.8493394101
 10
145.2874737502
 20
121.8352479509
 10
145.2815053897
 20
121.820298978
 10
145.2757930955
 20
121.8045438151
 10
145.2704699808
 20
121.7880522142
 10
145.2655859998
 20
121.7709419426
 10
145.2610911983
 20
121.7530952329
 10
145.2569688269
 20
121.7342285356
 10
145.2531972556
 20
121.7142653031
 10
145.2497981144
 20
121.6932820829
 10
145.2468195433
 20
121.6712249676
 10
145.2442634414
 20
121.6480978476
 10
145.2421279096
 20
121.6238968326
 10
145.2404553899
 20
121.5985563436
 10
145.2392600298
 20
121.572054521
 10
145.2385276819
 20
121.5444132244
 10
145.2382583461
 20
121.5156324539
  0
LWPOLYLINE
  5
290
100
AcDbEntity
  8
0
100
AcDbPolyline
 62
7
  6
CONTINUOUS
 90
91
 70
0
 10
147.1593873398
 20
120.0978341303
 10
147.1590606921
 20
120.1278280902
 10
147.1582160428
 20
120.1565965377
 10
147.1568533919
 20
120.1841394726
 10
147.1549494134
 20
120.2104290574
 10
147.1525274333
 20
120.2354931297
 10
147.1496574297
 20
120.2594152025
 10
147.1463376709
 20
120.2821965978
 10
147.1425698886
 20
120.3038359935
 10
147.138429255
 20
120.3244129362
 10
147.1339135304
 20
120.3439273855
 10
147.1290249546
 20
120.3623793818
 10
147.1238454186
 20
120.3798485927
 10
147.1183728181
 20
120.3963332375
 10
147.1126092574
 20
120.411835097
 10
147.1066429411
 20
120.4264391802
 10
147.1004825918
 20
120.440129518
 10
147.0941194868
 20
120.4529220796
 10
147.0876156631
 20
120.4649497818
 10
147.0810164564
 20
120.4761809315
 10
147.074276531
 20
120.4866472218
 10
147.0673219158
 20
120.4965766486
 10
147.0601119496
 20
120.506027177
 10
147.0526872936
 20
120.5149408419
 10
147.0450959608
 20
120.5233717442
 10
147.0373515755
 20
120.5313187357
 10
147.0294405134
 20
120.5387829646
 10
147.0213699146
 20
120.5458219766
 10
147.0131568203
 20
120.5524365257
 10
147.0047841893
 20
120.5586258578
 10
146.9962080378
 20
120.5644452565
 10
146.9874327493
 20
120.5699044568
 10
146.9784539404
 20
120.5749937236
 10
146.9692144767
 20
120.579739135
 10
146.9597205584
 20
120.5841493216
 10
146.9499659853
 20
120.5882156528
 10
146.9398750228
 20
120.5919383155
 10
146.9294553392
 20
120.5953268338
 10
146.9186992661
 20
120.5983716835
 10
146.907508064
 20
120.6010444791
 10
146.8958892849
 20
120.6033566904
 10
146.8838353768
 20
120.6052968476
 10
146.8712249437
 20
120.6068021552
 10
146.8578053938
 20
120.6078691525
 10
146.8438293188
 20
120.6085013002
 10
146.8299330979
 20
120.6086461849
 10
146.8161623575
 20
120.608262886
 10
146.8024714713
 20
120.607392324
 10
146.7893599394
 20
120.6061048469
 10
146.7770380936
 20
120.6044031309
 10
146.7652956021
 20
120.6022844998
 10
146.7540009706
 20
120.5998112727
 10
146.7431438366
 20
120.5969947866
 10
146.7327345625
 20
120.5938237046
 10
146.7226727409
 20
120.5903263343
 10
146.7129497578
 20
120.5865115881
 10
146.703574227
 20
120.5823705537
 10
146.6944715831
 20
120.5779048025
 10
146.6856625512
 20
120.5731451463
 10
146.6771264061
 20
120.5680607732
 10
146.6687264062
 20
120.5625608192
 10
146.6604546505
 20
120.5566596633
 10
146.65231904
 20
120.5503429263
 10
146.6442065362
 20
120.543476607
 10
146.6360238652
 20
120.5359898261
 10
146.6278643008
 20
120.5279534629
 10
146.6198946269
 20
120.5194461531
 10
146.6121749933
 20
120.510530361
 10
146.6046452501
 20
120.5011436223
 10
146.5972917312
 20
120.4911771804
 10
146.5901063169
 20
120.4806425153
 10
146.5830971268
 20
120.4695281469
 10
146.5762748543
 20
120.457690879
 10
146.5696199222
 20
120.4451111347
 10
146.5631519076
 20
120.4318084909
 10
146.556940235
 20
120.4176984811
 10
146.5509635953
 20
120.4027296316
 10
146.5452432976
 20
120.3869534161
 10
146.5399126945
 20
120.3704397901
 10
146.53502184
 20
120.3533068326
 10
146.5305206799
 20
120.3354364645
 10
146.5263924043
 20
120.316544404
 10
146.5226153207
 20
120.2965539184
 10
146.5192111215
 20
120.2755417405
 10
146.5162280739
 20
120.2534537866
 10
146.5136680796
 20
120.2302939517
 10
146.5115292367
 20
120.2060583408
 10
146.5098541078
 20
120.180681186
 10
146.5086568802
 20
120.1541405645
 10
146.5079233664
 20
120.1264583991
 10
146.5076535665
 20
120.0976346896
  0
LWPOLYLINE
  5
291
100
AcDbEntity
  8
0
100
AcDbPolyline
 62
7
  6
CONTINUOUS
 90
94
 70
0
 10
145.2382583461
 20
121.5156324539
 10
145.2384401125
 20
121.4894729447
 10
145.2389851673
 20
121.464279494
 10
145.2398935106
 20
121.4400521017
 10
145.2411620823
 20
121.4168005078
 10
145.2427939425
 20
121.3945149723
 10
145.2447982713
 20
121.3731662756
 10
145.2471576627
 20
121.3528130272
 10
145.2498895227
 20
121.3333966176
 10
145.2530552494
 20
121.3147119983
 10
145.2566688371
 20
121.2968444549
 10
145.2607162916
 20
121.2797087019
 10
145.265217028
 20
121.2628438333
 10
145.2702633261
 20
121.2459025111
 10
145.275762906
 20
121.2292320733
 10
145.2814583439
 20
121.2134136289
 10
145.287289764
 20
121.1986656043
 10
145.2933170421
 20
121.184769573
 10
145.2994623811
 20
121.171651365
 10
145.3057131541
 20
121.1593175046
 10
145.3120819881
 20
121.1477614676
 10
145.3185289675
 20
121.1368895104
 10
145.3250060362
 20
121.1267399768
 10
145.3315612502
 20
121.117274523
 10
145.3382988624
 20
121.1082843744
 10
145.3452516218
 20
121.0997234103
 10
145.3523867793
 20
121.0916377514
 10
145.3597103402
 20
121.0839569847
 10
145.3672011898
 20
121.0766848413
 10
145.3748804429
 20
121.0698175901
 10
145.3828174491
 20
121.063273625
 10
145.3910536876
 20
121.057015084
 10
145.3995476792
 20
121.0510798291
 10
145.4082443371
 20
121.0454998406
 10
145.4171209061
 20
121.0402849583
 10
145.4262001413
 20
121.0354253424
 10
145.4354952212
 20
121.0309234531
 10
145.4449694582
 20
121.0267870743
 10
145.45465954
 20
121.0230084222
 10
145.4646887076
 20
121.019566605
 10
145.475064828
 20
121.016443971
 10
145.4857800343
 20
121.0136581719
 10
145.4969339672
 20
121.0112412716
 10
145.5085325102
 20
121.0091821056
 10
145.5205697798
 20
121.0074918384
 10
145.5331277666
 20
121.006236027
 10
145.5464756697
 20
121.0054253363
 10
145.56034429
 20
121.0050491015
 10
145.5740080207
 20
121.0051408855
 10
145.5873358798
 20
121.0057361146
 10
145.6004588493
 20
121.0067993625
 10
145.6130442675
 20
121.0082579122
 10
145.624940851
 20
121.010105595
 10
145.6362998833
 20
121.0123485796
 10
145.6472425534
 20
121.0149326551
 10
145.6577771944
 20
121.0178467257
 10
145.6678954732
 20
121.0211018871
 10
145.6776935788
 20
121.0246772158
 10
145.6871812319
 20
121.0285648738
 10
145.6963487117
 20
121.0327726991
 10
145.7052630449
 20
121.0373032823
 10
145.7139055393
 20
121.042128834
 10
145.7222948871
 20
121.0472771435
 10
145.7305541918
 20
121.0528341692
 10
145.7386935035
 20
121.0587900304
 10
145.7467027722
 20
121.0651546079
 10
145.754674951
 20
121.0720435026
 10
145.7626872839
 20
121.0795122786
 10
145.770662527
 20
121.0875053717
 10
145.7784619018
 20
121.0959716912
 10
145.7860362174
 20
121.104858726
 10
145.7934346646
 20
121.1142189872
 10
145.8006660373
 20
121.124158916
 10
145.8077365965
 20
121.1346653747
 10
145.8146400811
 20
121.1457515011
 10
145.8213665025
 20
121.1575631498
 10
145.8279377496
 20
121.1701249315
 10
145.8343319335
 20
121.1834122355
 10
145.840473398
 20
121.1974970839
 10
145.8463815118
 20
121.2124230107
 10
145.8520369062
 20
121.228146482
 10
145.8573058191
 20
121.2446089182
 10
145.8621386928
 20
121.261702459
 10
145.866585085
 20
121.2795349646
 10
145.8706599068
 20
121.2983714367
 10
145.874383054
 20
121.31828284
 10
145.8777346308
 20
121.3391982098
 10
145.8806698608
 20
121.3611696534
 10
145.8831868589
 20
121.3841941124
 10
145.8852875103
 20
121.4082746452
 10
145.8869326946
 20
121.4334725341
 10
145.8881093718
 20
121.4598082067
 10
145.888830582
 20
121.4872612355
 10
145.8890963251
 20
121.5158316205
  0
LWPOLYLINE
  5
292
100
AcDbEntity
  8
0
100
AcDbPolyline
 62
7
  6
CONTINUOUS
 90
94
 70
0
 10
146.5076535665
 20
120.0976346896
 10
146.5078356382
 20
120.0714367507
 10
146.508381536
 20
120.0462065992
 10
146.5092912601
 20
120.0219442352
 10
146.5105617598
 20
119.9986594346
 10
146.5121960857
 20
119.9763424214
 10
146.5142033893
 20
119.9549638679
 10
146.5165662307
 20
119.9345825257
 10
146.5193020498
 20
119.9151396432
 10
146.5224723179
 20
119.8964296375
 10
146.5260909867
 20
119.8785380201
 10
146.5301441046
 20
119.8613792796
 10
146.5346512885
 20
119.8444912983
 10
146.5397050727
 20
119.8275258077
 10
146.5452129229
 20
119.8108310762
 10
146.5509168538
 20
119.7949897921
 10
146.5567568545
 20
119.780220963
 10
146.5627929359
 20
119.7663055812
 10
146.5689471444
 20
119.7531693108
 10
146.5752068115
 20
119.7408187024
 10
146.5815846057
 20
119.7292472055
 10
146.5880405789
 20
119.7183608323
 10
146.5945265929
 20
119.7081979925
 10
146.6010907858
 20
119.6987202765
 10
146.6078376244
 20
119.6897184678
 10
146.6147999267
 20
119.6811463256
 10
146.6219448748
 20
119.6730500908
 10
146.6292784809
 20
119.6653592694
 10
146.6367795992
 20
119.6580776006
 10
146.6444693755
 20
119.6512013452
 10
146.6524172594
 20
119.6446487918
 10
146.6606647997
 20
119.6383820201
 10
146.6691704475
 20
119.6324389504
 10
146.6778790056
 20
119.6268516321
 10
146.6867676604
 20
119.6216299353
 10
146.6958592254
 20
119.6167639899
 10
146.7051669436
 20
119.6122562357
 10
146.714654097
 20
119.6081144557
 10
146.7243574036
 20
119.604330867
 10
146.7344002611
 20
119.6008845604
 10
146.7447905454
 20
119.5977578625
 10
146.7555203805
 20
119.5949684467
 10
146.7666895365
 20
119.5925484241
 10
146.778303911
 20
119.5904866165
 10
146.7903576063
 20
119.588794202
 10
146.8029326988
 20
119.5875368261
 10
146.8162987583
 20
119.5867251715
 10
146.8301862151
 20
119.5863485555
 10
146.8438684364
 20
119.5864405755
 10
146.8572142187
 20
119.5870367023
 10
146.8703547655
 20
119.588101465
 10
146.8829570551
 20
119.5895620491
 10
146.8948696313
 20
119.5914122762
 10
146.9062439501
 20
119.5936583247
 10
146.917201358
 20
119.5962459145
 10
146.9277501991
 20
119.5991639357
 10
146.9378821293
 20
119.6024234983
 10
146.947693462
 20
119.6060036518
 10
146.9571939308
 20
119.6098965484
 10
146.9663738022
 20
119.6141100359
 10
146.9753001898
 20
119.6186467076
 10
146.9839543719
 20
119.6234787335
 10
146.9923550703
 20
119.6286339436
 10
147.0006255637
 20
119.6341984203
 10
147.0087759251
 20
119.6401622782
 10
147.0167960815
 20
119.6465354027
 10
147.0247790927
 20
119.6534335324
 10
147.032802298
 20
119.6609123009
 10
147.0407883581
 20
119.6689160745
 10
147.0485983143
 20
119.6773936906
 10
147.0561829111
 20
119.6862925698
 10
147.063591404
 20
119.6956652915
 10
147.0708326007
 20
119.7056184313
 10
147.0779127684
 20
119.7161388311
 10
147.0848256399
 20
119.727239649
 10
147.0915612221
 20
119.7390669346
 10
147.0981414279
 20
119.7516453134
 10
147.1045443444
 20
119.76495016
 10
147.1106942392
 20
119.7790536471
 10
147.1166105217
 20
119.7939993924
 10
147.1222737826
 20
119.8097437783
 10
147.1275500613
 20
119.826228125
 10
147.1323897185
 20
119.8433443117
 10
147.1368423936
 20
119.8612004592
 10
147.1409230439
 20
119.8800622494
 10
147.1446516206
 20
119.9000008156
 10
147.1480081725
 20
119.9209450245
 10
147.1509478033
 20
119.9429471584
 10
147.1534686259
 20
119.9660041567
 10
147.1555725273
 20
119.9901190799
 10
147.1572202729
 20
120.0153533925
 10
147.1583987844
 20
120.0417275824
 10
147.15912114
 20
120.0692211617
 10
147.1593873398
 20
120.0978341303
  0
LWPOLYLINE
  5
293
100
AcDbEntity
  8
0
100
AcDbPolyline
 62
7
  6
CONTINUOUS
 90
94
 70
0
 10
147.2852586812
 20
120.0976346896
 10
147.2854407529
 20
120.0714367507
 10
147.2859866508
 20
120.0462065992
 10
147.2868963748
 20
120.0219442352
 10
147.2881668746
 20
119.9986594346
 10
147.2898012005
 20
119.9763424214
 10
147.2918085041
 20
119.9549638679
 10
147.2941713454
 20
119.9345825257
 10
147.2969071645
 20
119.9151396432
 10
147.3000774327
 20
119.8964296375
 10
147.3036961015
 20
119.8785380201
 10
147.3077492194
 20
119.8613792796
 10
147.3122564033
 20
119.8444912983
 10
147.3173101875
 20
119.8275258077
 10
147.3228180377
 20
119.8108310762
 10
147.3285219685
 20
119.7949897921
 10
147.3343619693
 20
119.780220963
 10
147.3403980507
 20
119.7663055812
 10
147.3465522591
 20
119.7531693108
 10
147.3528119263
 20
119.7408187024
 10
147.3591897205
 20
119.7292472055
 10
147.3656456937
 20
119.7183608323
 10
147.3721317076
 20
119.7081979925
 10
147.3786959006
 20
119.6987202765
 10
147.3854427391
 20
119.6897184678
 10
147.3924050415
 20
119.6811463256
 10
147.3995499896
 20
119.6730500908
 10
147.4068835956
 20
119.6653592694
 10
147.414384714
 20
119.6580776006
 10
147.4220744903
 20
119.6512013452
 10
147.4300223742
 20
119.6446487918
 10
147.4382699145
 20
119.6383820201
 10
147.4467755623
 20
119.6324389504
 10
147.4554841204
 20
119.6268516321
 10
147.4643727751
 20
119.6216299353
 10
147.4734643401
 20
119.6167639899
 10
147.4827720584
 20
119.6122562357
 10
147.4922592117
 20
119.6081144557
 10
147.5019625184
 20
119.604330867
 10
147.5120053759
 20
119.6008845604
 10
147.5223956602
 20
119.5977578625
 10
147.5331254953
 20
119.5949684467
 10
147.5442946513
 20
119.5925484241
 10
147.5559090258
 20
119.5904866165
 10
147.567962721
 20
119.588794202
 10
147.5805378136
 20
119.5875368261
 10
147.5939038731
 20
119.5867251715
 10
147.6077913299
 20
119.5863485555
 10
147.6214735512
 20
119.5864405755
 10
147.6348193335
 20
119.5870367023
 10
147.6479598803
 20
119.588101465
 10
147.6605621699
 20
119.5895620491
 10
147.672474746
 20
119.5914122762
 10
147.6838490649
 20
119.5936583247
 10
147.6948064728
 20
119.5962459145
 10
147.7053553139
 20
119.5991639357
 10
147.715487244
 20
119.6024234983
 10
147.7252985768
 20
119.6060036518
 10
147.7347990455
 20
119.6098965484
 10
147.7439789169
 20
119.6141100359
 10
147.7529053046
 20
119.6186467076
 10
147.7615594867
 20
119.6234787335
 10
147.7699601851
 20
119.6286339436
 10
147.7782306785
 20
119.6341984203
 10
147.7863810399
 20
119.6401622782
 10
147.7944011963
 20
119.6465354027
 10
147.8023842075
 20
119.6534335324
 10
147.8104074128
 20
119.6609123009
 10
147.8183934729
 20
119.6689160745
 10
147.8262034291
 20
119.6773936906
 10
147.8337880258
 20
119.6862925698
 10
147.8411965187
 20
119.6956652915
 10
147.8484377155
 20
119.7056184313
 10
147.8555178831
 20
119.7161388311
 10
147.8624307547
 20
119.727239649
 10
147.8691663368
 20
119.7390669346
 10
147.8757465427
 20
119.7516453134
 10
147.8821494592
 20
119.76495016
 10
147.888299354
 20
119.7790536471
 10
147.8942156365
 20
119.7939993924
 10
147.8998788973
 20
119.8097437783
 10
147.905155176
 20
119.8262281249
 10
147.9099948333
 20
119.8433443117
 10
147.9144475084
 20
119.8612004592
 10
147.9185281586
 20
119.8800622494
 10
147.9222567353
 20
119.9000008156
 10
147.9256132873
 20
119.9209450245
 10
147.9285529181
 20
119.9429471584
 10
147.9310737406
 20
119.9660041567
 10
147.9331776421
 20
119.9901190799
 10
147.9348253877
 20
120.0153533925
 10
147.9360038992
 20
120.0417275824
 10
147.9367262548
 20
120.0692211617
 10
147.9369924546
 20
120.0978341303
  0
LINE
  5
294
100
AcDbEntity
  8
ASSI
100
AcDbLine
 62
7
  6
CONTINUOUS
 10
142.9599685625
 20
96.8055631118
 11
142.9599750625
 21
96.1728401118
  0
LINE
  5
295
100
AcDbEntity
  8
0
100
AcDbLine
 62
7
  6
CONTINUOUS
 10
143.1837890625
 20
122.2918791118
 11
143.1837890625
 21
119.2918791118
  0
LINE
  5
296
100
AcDbEntity
  8
0
100
AcDbLine
 62
7
  6
CONTINUOUS
 10
143.4447844894
 20
120.0399057202
 11
143.4447844894
 21
119.5905026118
  0
LINE
  5
297
100
AcDbEntity
  8
ASSI
100
AcDbLine
 62
7
  6
CONTINUOUS
 10
143.4728250625
 20
95.6918206118
 11
143.4728250625
 21
98.2919376118
  0
LINE
  5
298
100
AcDbEntity
  8
0
100
AcDbLine
 62
7
  6
CONTINUOUS
 10
145.9202540625
 20
120.5918791118
 11
145.9202540625
 21
119.5863071118
  0
LINE
  5
299
100
AcDbEntity
  8
0
100
AcDbLine
 62
7
  6
CONTINUOUS
 10
146.0433280625
 20
119.8083299479
 11
146.0433280625
 21
120.5918791118
  0
LINE
  5
29A
100
AcDbEntity
  8
0
100
AcDbLine
 62
7
  6
CONTINUOUS
 10
146.2894765625
 20
119.837700035
 11
146.2894765625
 21
119.9565566638
  0
LINE
  5
29B
100
AcDbEntity
  8
ASSI
100
AcDbLine
 62
7
  6
CONTINUOUS
 10
146.3558415625
 20
98.2919441118
 11
146.3558415625
 21
95.6918271118
  0
LINE
  5
29C
100
AcDbEntity
  8
0
100
AcDbLine
 62
7
  6
CONTINUOUS
 10
146.420968379
 20
91.2993945843
 11
146.420968379
 21
91.699570463
  0
LINE
  5
29D
100
AcDbEntity
  8
0
100
AcDbLine
 62
7
  6
CONTINUOUS
 10
146.420968379
 20
125.8841877607
 11
146.420968379
 21
126.2843636394
  0
LINE
  5
29E
100
AcDbEntity
  8
ASSI
100
AcDbLine
 62
7
  6
CONTINUOUS
 10
146.5587890625
 20
91.2958974303
 11
146.5587890625
 21
91.6959914484
  0
LINE
  5
29F
100
AcDbEntity
  8
ASSI
100
AcDbLine
 62
7
  6
CONTINUOUS
 10
146.5587890625
 20
125.8877667753
 11
146.5587890625
 21
126.2878607934
  0
LINE
  5
2A0
100
AcDbEntity
  8
ASSI
100
AcDbLine
 62
7
  6
CONTINUOUS
 10
146.8758675625
 20
96.5773416118
 11
146.8758610625
 21
98.2919441118
  0
LINE
  5
2A1
100
AcDbEntity
  8
ASSI
100
AcDbLine
 62
7
  6
CONTINUOUS
 10
147.3087890625
 20
126.2878607934
 11
147.3087890625
 21
125.8877667753
  0
LINE
  5
2A2
100
AcDbEntity
  8
ASSI
100
AcDbLine
 62
7
  6
CONTINUOUS
 10
147.3087890625
 20
91.6959914484
 11
147.3087890625
 21
91.2958974303
  0
LINE
  5
2A3
100
AcDbEntity
  8
0
100
AcDbLine
 62
7
  6
CONTINUOUS
 10
147.446609746
 20
91.2993945843
 11
147.446609746
 21
91.699570463
  0
LINE
  5
2A4
100
AcDbEntity
  8
0
100
AcDbLine
 62
7
  6
CONTINUOUS
 10
147.446609746
 20
125.8841877607
 11
147.446609746
 21
126.2843636394
  0
LINE
  5
2A5
100
AcDbEntity
  8
ASSI
100
AcDbLine
 62
7
  6
CONTINUOUS
 10
142.9527990625
 20
98.2919376118
 11
142.9527405625
 21
97.2865826118
  0
LINE
  5
2A6
100
AcDbEntity
  8
0
100
AcDbLine
 62
7
  6
CONTINUOUS
 10
143.4446615315
 20
120.15660533
 11
143.4447844894
 21
120.0399057202
  0
LINE
  5
2A7
100
AcDbEntity
  8
0
100
AcDbLine
 62
7
  6
CONTINUOUS
 10
144.2307810263
 20
119.5905026118
 11
144.2307364764
 21
120.1794207676
  0
LINE
  5
2A8
100
AcDbEntity
  8
0
100
AcDbLine
 62
7
  6
CONTINUOUS
 10
144.0979250058
 20
120.1730554648
 11
144.097916843
 21
119.5905026118
  0
LWPOLYLINE
  5
2A9
100
AcDbEntity
  8
0
100
AcDbPolyline
 62
7
  6
CONTINUOUS
 90
93
 70
0
 10
143.5776486727
 20
119.5905026118
 10
143.5776486727
 20
120.159581206
 10
143.5777704779
 20
120.1767077973
 10
143.5779789215
 20
120.1933623854
 10
143.5784284175
 20
120.209415784
 10
143.579174888
 20
120.2248186938
 10
143.5801624109
 20
120.2396204142
 10
143.5813776343
 20
120.2538396566
 10
143.5828220431
 20
120.2674725864
 10
143.5844941524
 20
120.2805230383
 10
143.586376156
 20
120.2930212276
 10
143.5884688524
 20
120.3049690186
 10
143.5907714431
 20
120.3163645471
 10
143.5932637267
 20
120.3272324357
 10
143.5959475861
 20
120.3375737765
 10
143.5988211385
 20
120.3473874775
 10
143.6018585346
 20
120.3566948858
 10
143.6050624052
 20
120.365495613
 10
143.6084301195
 20
120.3737900475
 10
143.6119279352
 20
120.3816007011
 10
143.6155577946
 20
120.3889239762
 10
143.6193177554
 20
120.3957634703
 10
143.6231682484
 20
120.4021524878
 10
143.627035422
 20
120.4080141142
 10
143.6309931277
 20
120.4134252639
 10
143.635223351
 20
120.4186499839
 10
143.6397560552
 20
120.4237512833
 10
143.6445612769
 20
120.4286661529
 10
143.6497311109
 20
120.4334696128
 10
143.6552838993
 20
120.4381996919
 10
143.6612013
 20
120.4428183612
 10
143.6675203822
 20
120.4472865532
 10
143.6742167298
 20
120.4515960408
 10
143.6813147588
 20
120.455755051
 10
143.6889247873
 20
120.4597491982
 10
143.6970581125
 20
120.4635922859
 10
143.7057034371
 20
120.4672705107
 10
143.7149371867
 20
120.4707280763
 10
143.7247722719
 20
120.4739687327
 10
143.735195782
 20
120.47698873
 10
143.7462454115
 20
120.4797210229
 10
143.7579215095
 20
120.4821621795
 10
143.7702237268
 20
120.4843156317
 10
143.7831887098
 20
120.4861246299
 10
143.7970055419
 20
120.4875888254
 10
143.8114851396
 20
120.4887085669
 10
143.8260968993
 20
120.4894281515
 10
143.8409293208
 20
120.4897428568
 10
143.8558939043
 20
120.4896574051
 10
143.8701945468
 20
120.4891302608
 10
143.8835490699
 20
120.4881210425
 10
143.8962396521
 20
120.4866701315
 10
143.908316726
 20
120.4848571358
 10
143.9197529977
 20
120.4826882387
 10
143.9305757612
 20
120.4801572568
 10
143.9409173316
 20
120.477325248
 10
143.950786115
 20
120.4742034321
 10
143.9601737054
 20
120.4707805892
 10
143.9691871991
 20
120.4670841182
 10
143.9778650177
 20
120.4631030322
 10
143.9861687397
 20
120.4588483181
 10
143.9940901977
 20
120.4543803349
 10
144.0016221223
 20
120.4497061451
 10
144.008771783
 20
120.4448186862
 10
144.0155528198
 20
120.4397571294
 10
144.0219481176
 20
120.4345412665
 10
144.0279747916
 20
120.4291513057
 10
144.0336978276
 20
120.4235670426
 10
144.03912476
 20
120.4177957223
 10
144.0442480544
 20
120.4118300997
 10
144.0491100934
 20
120.4056282351
 10
144.0537194546
 20
120.3991959209
 10
144.0580675603
 20
120.3925273647
 10
144.0621710605
 20
120.385563249
 10
144.0660404368
 20
120.3783023158
 10
144.0696652076
 20
120.3707458232
 10
144.0730305775
 20
120.362838228
 10
144.0761155813
 20
120.354606081
 10
144.0789411842
 20
120.3460228315
 10
144.0815554868
 20
120.336953284
 10
144.0839690224
 20
120.3273550876
 10
144.0861712576
 20
120.3172705932
 10
144.0881786929
 20
120.3066916586
 10
144.0899942575
 20
120.2956189717
 10
144.0916150222
 20
120.2840518446
 10
144.093048699
 20
120.2719800706
 10
144.0942967548
 20
120.259407239
 10
144.0953577227
 20
120.2463297605
 10
144.0962349154
 20
120.2327266603
 10
144.0969193842
 20
120.2185822263
 10
144.0974200777
 20
120.2039121706
 10
144.0977671545
 20
120.1887426551
 10
144.0979250058
 20
120.1730554648
  0
LWPOLYLINE
  5
2AA
100
AcDbEntity
  8
0
100
AcDbPolyline
 62
7
  6
CONTINUOUS
 90
100
 70
0
 10
145.3639567455
 20
121.5155709936
 10
145.3640473317
 20
121.5348236245
 10
145.3643094837
 20
121.5534587164
 10
145.3647432016
 20
121.5714762692
 10
145.3653515044
 20
121.588862567
 10
145.3661313732
 20
121.6056313257
 10
145.3670737509
 20
121.6218236932
 10
145.3681780878
 20
121.6374412756
 10
145.3694449337
 20
121.6524824667
 10
145.3708668814
 20
121.6669835957
 10
145.3724433181
 20
121.6809469074
 10
145.3741748567
 20
121.6943701571
 10
145.3760559283
 20
121.7072829401
 10
145.3780863461
 20
121.7196870061
 10
145.3802662969
 20
121.7315806054
 10
145.3825907734
 20
121.742988084
 10
145.3850597979
 20
121.7539124144
 10
145.3876733479
 20
121.7643506242
 10
145.3904263491
 20
121.7743181418
 10
145.3933208457
 20
121.7838179873
 10
145.3963547933
 20
121.7928471407
 10
145.399516985
 20
121.8014119699
 10
145.4027907975
 20
121.8094860862
 10
145.406192854
 20
121.8170958785
 10
145.4097618171
 20
121.8243268809
 10
145.4134366151
 20
121.8310775022
 10
145.4172783198
 20
121.8374493336
 10
145.4215088088
 20
121.8438326842
 10
145.4262195319
 20
121.8503879285
 10
145.4313190393
 20
121.8569546918
 10
145.4367548595
 20
121.8634421596
 10
145.442605625
 20
121.8699385625
 10
145.4487927033
 20
121.8763556698
 10
145.455027725
 20
121.8823379749
 10
145.4612273287
 20
121.8877583994
 10
145.4674748759
 20
121.8927440217
 10
145.4737320818
 20
121.8973205709
 10
145.479972624
 20
121.9014739064
 10
145.486222825
 20
121.9052181688
 10
145.4925233675
 20
121.908621509
 10
145.4988746181
 20
121.9116956105
 10
145.5052762102
 20
121.9144287898
 10
145.5117677277
 20
121.9168541469
 10
145.5183400109
 20
121.9189798852
 10
145.5250022194
 20
121.9207978013
 10
145.5318214157
 20
121.9223163851
 10
145.5388304115
 20
121.923545635
 10
145.5459963952
 20
121.9244755527
 10
145.5532879938
 20
121.9250846327
 10
145.5607820023
 20
121.9253650657
 10
145.5684016257
 20
121.9253246609
 10
145.5758851068
 20
121.9249653406
 10
145.5831494015
 20
121.9242813777
 10
145.590277554
 20
121.9232784992
 10
145.5972569384
 20
121.9219758084
 10
145.6040632677
 20
121.920382885
 10
145.6107208289
 20
121.9184901493
 10
145.6172898581
 20
121.9162879652
 10
145.623777244
 20
121.9137847128
 10
145.6301760977
 20
121.9109720121
 10
145.6365259886
 20
121.9078150873
 10
145.6428260702
 20
121.904326311
 10
145.6490771889
 20
121.9004933105
 10
145.6553214537
 20
121.8962441929
 10
145.661597701
 20
121.8915503126
 10
145.6678670944
 20
121.8864403151
 10
145.6740552328
 20
121.8809282431
 10
145.6802319066
 20
121.87489291
 10
145.6863273255
 20
121.8684555025
 10
145.6920577167
 20
121.8619936236
 10
145.6973273981
 20
121.8556327525
 10
145.7022320519
 20
121.84924741
 10
145.7067749522
 20
121.8428387625
 10
145.7108871692
 20
121.8365307846
 10
145.7146376327
 20
121.8301995016
 10
145.7182364067
 20
121.8234741562
 10
145.7217454014
 20
121.8162520895
 10
145.7251027065
 20
121.8086359604
 10
145.728332655
 20
121.800562988
 10
145.7314466086
 20
121.792015072
 10
145.7344332056
 20
121.7830103128
 10
145.7372826942
 20
121.7735402301
 10
145.7399934377
 20
121.7636071791
 10
145.7425670728
 20
121.7532088047
 10
145.7449987574
 20
121.7423295617
 10
145.7472885491
 20
121.730972501
 10
145.7494363904
 20
121.7191345717
 10
145.7514372664
 20
121.7067910761
 10
145.7532911541
 20
121.693943397
 10
145.7549980765
 20
121.6805901516
 10
145.7565530882
 20
121.6667024936
 10
145.7579564598
 20
121.6522829589
 10
145.7592079206
 20
121.6373290115
 10
145.7603017128
 20
121.621804197
 10
145.761241247
 20
121.605711675
 10
145.7620231124
 20
121.5890482859
 10
145.7626313196
 20
121.571768096
 10
145.7630605384
 20
121.5538557941
 10
145.7633160989
 20
121.5353266913
 10
145.763398001
 20
121.5161807878
  0
LWPOLYLINE
  5
2AB
100
AcDbEntity
  8
0
100
AcDbPolyline
 62
7
  6
CONTINUOUS
 90
100
 70
0
 10
146.6335249735
 20
120.0975731447
 10
146.633615721
 20
120.1168553696
 10
146.6338783171
 20
120.1355189166
 10
146.6343127617
 20
120.1535637854
 10
146.6349220826
 20
120.1709762285
 10
146.6357032521
 20
120.1877699935
 10
146.6366471867
 20
120.2039863237
 10
146.6377533357
 20
120.2196268286
 10
146.6390222498
 20
120.2346898985
 10
146.6404464981
 20
120.2492119486
 10
146.6420254672
 20
120.2631952278
 10
146.6437597704
 20
120.276637487
 10
146.6456438166
 20
120.2895683937
 10
146.6476774187
 20
120.3019897001
 10
146.6498607636
 20
120.313899654
 10
146.6521888216
 20
120.3253226661
 10
146.6546616155
 20
120.3362617136
 10
146.6572791225
 20
120.3467138193
 10
146.660036243
 20
120.3566944633
 10
146.6629350286
 20
120.3662066743
 10
146.6659734279
 20
120.3752474236
 10
146.669140187
 20
120.3838231049
 10
146.6724186167
 20
120.391907224
 10
146.6758254062
 20
120.399526275
 10
146.6793993695
 20
120.4067661343
 10
146.6830793687
 20
120.4135251078
 10
146.6869265418
 20
120.4199048895
 10
146.6911631166
 20
120.4262964384
 10
146.6958807714
 20
120.4328605416
 10
146.7009878279
 20
120.439436412
 10
146.7064314791
 20
120.4459326465
 10
146.7122903629
 20
120.4524373814
 10
146.7184858413
 20
120.4588624804
 10
146.7247291936
 20
120.4648521315
 10
146.7309369081
 20
120.4702790942
 10
146.7371924965
 20
120.475270609
 10
146.7434577729
 20
120.4798525857
 10
146.7497064343
 20
120.4840109236
 10
146.7559647837
 20
120.4877597233
 10
146.7622735454
 20
120.4911671972
 10
146.7686330841
 20
120.4942450386
 10
146.775043035
 20
120.4969815541
 10
146.7815430281
 20
120.4994098756
 10
146.7881238906
 20
120.5015382151
 10
146.7947947952
 20
120.5033583605
 10
146.8016228895
 20
120.5048788087
 10
146.8086410302
 20
120.5061095694
 10
146.8158163606
 20
120.5070406328
 10
146.8231174575
 20
120.5076504658
 10
146.8306212037
 20
120.5079312493
 10
146.8382507165
 20
120.5078908024
 10
146.8457439251
 20
120.5075310492
 10
146.8530176913
 20
120.5068462549
 10
146.8601551534
 20
120.5058421543
 10
146.8671436548
 20
120.5045378758
 10
146.8739588727
 20
120.50294301
 10
146.8806251299
 20
120.5010479662
 10
146.8872027388
 20
120.4988431014
 10
146.8936985979
 20
120.4963368043
 10
146.9001058086
 20
120.493520686
 10
146.9064639875
 20
120.4903599372
 10
146.9127722889
 20
120.486866941
 10
146.9190315586
 20
120.4830293143
 10
146.9252839498
 20
120.4787750975
 10
146.9315682844
 20
120.4740756834
 10
146.9378457406
 20
120.4689596793
 10
146.9440420064
 20
120.4634409472
 10
146.9502270446
 20
120.4573980974
 10
146.9563308924
 20
120.4509525196
 10
146.9620693495
 20
120.4444822452
 10
146.9673466667
 20
120.4381127471
 10
146.9722585933
 20
120.4317185524
 10
146.9768081762
 20
120.4253012739
 10
146.9809262907
 20
120.4189852584
 10
146.9846820615
 20
120.4126461592
 10
146.9882859107
 20
120.4059125486
 10
146.9917998294
 20
120.3986816394
 10
146.9951618264
 20
120.3910562188
 10
146.9983963497
 20
120.382973221
 10
147.0015148137
 20
120.3744144604
 10
147.004505804
 20
120.3653981226
 10
147.0073595253
 20
120.3559156981
 10
147.0100743345
 20
120.3459695488
 10
147.0126518747
 20
120.3355573129
 10
147.0150872796
 20
120.3246633952
 10
147.017380606
 20
120.3132908513
 10
147.0195317971
 20
120.3014366255
 10
147.0215358164
 20
120.2890759556
 10
147.0233926409
 20
120.2762102267
 10
147.0251022935
 20
120.2628380536
 10
147.0266598064
 20
120.2489305183
 10
147.0280654489
 20
120.2344901604
 10
147.0293189517
 20
120.2195144404
 10
147.0304145379
 20
120.2039668206
 10
147.0313556246
 20
120.1878504684
 10
147.0321387946
 20
120.1711622166
 10
147.0327480208
 20
120.1538560255
 10
147.0331779606
 20
120.1359165489
 10
147.0334339564
 20
120.1173591331
 10
147.0335160083
 20
120.0981837782
  0
LWPOLYLINE
  5
2AC
100
AcDbEntity
  8
0
100
AcDbPolyline
 62
7
  6
CONTINUOUS
 90
100
 70
0
 10
147.4111300883
 20
120.0975731447
 10
147.4112208358
 20
120.1168553696
 10
147.4114834319
 20
120.1355189165
 10
147.4119178765
 20
120.1535637854
 10
147.4125271974
 20
120.1709762285
 10
147.4133083669
 20
120.1877699935
 10
147.4142523015
 20
120.2039863237
 10
147.4153584505
 20
120.2196268285
 10
147.4166273646
 20
120.2346898985
 10
147.4180516128
 20
120.2492119486
 10
147.4196305819
 20
120.2631952277
 10
147.4213648852
 20
120.276637487
 10
147.4232489314
 20
120.2895683937
 10
147.4252825334
 20
120.3019897001
 10
147.4274658784
 20
120.313899654
 10
147.4297939363
 20
120.3253226661
 10
147.4322667303
 20
120.3362617136
 10
147.4348842372
 20
120.3467138193
 10
147.4376413578
 20
120.3566944633
 10
147.4405401434
 20
120.3662066743
 10
147.4435785427
 20
120.3752474236
 10
147.4467453018
 20
120.3838231049
 10
147.4500237314
 20
120.3919072239
 10
147.4534305209
 20
120.399526275
 10
147.4570044842
 20
120.4067661343
 10
147.4606844835
 20
120.4135251078
 10
147.4645316565
 20
120.4199048895
 10
147.4687682313
 20
120.4262964384
 10
147.4734858861
 20
120.4328605416
 10
147.4785929427
 20
120.439436412
 10
147.4840365939
 20
120.4459326465
 10
147.4898954776
 20
120.4524373814
 10
147.496090956
 20
120.4588624804
 10
147.5023343083
 20
120.4648521315
 10
147.5085420228
 20
120.4702790942
 10
147.5147976112
 20
120.475270609
 10
147.5210628877
 20
120.4798525857
 10
147.527311549
 20
120.4840109236
 10
147.5335698985
 20
120.4877597233
 10
147.5398786602
 20
120.4911671972
 10
147.5462381988
 20
120.4942450386
 10
147.5526481498
 20
120.4969815541
 10
147.5591481428
 20
120.4994098756
 10
147.5657290054
 20
120.501538215
 10
147.57239991
 20
120.5033583605
 10
147.5792280042
 20
120.5048788087
 10
147.586246145
 20
120.5061095694
 10
147.5934214753
 20
120.5070406328
 10
147.6007225723
 20
120.5076504658
 10
147.6082263184
 20
120.5079312493
 10
147.6158558312
 20
120.5078908024
 10
147.6233490398
 20
120.5075310492
 10
147.630622806
 20
120.5068462549
 10
147.6377602681
 20
120.5058421543
 10
147.6447487695
 20
120.5045378758
 10
147.6515639874
 20
120.50294301
 10
147.6582302447
 20
120.5010479662
 10
147.6648078536
 20
120.4988431014
 10
147.6713037127
 20
120.4963368043
 10
147.6777109234
 20
120.493520686
 10
147.6840691022
 20
120.4903599372
 10
147.6903774037
 20
120.4868669411
 10
147.6966366733
 20
120.4830293143
 10
147.7028890645
 20
120.4787750975
 10
147.7091733991
 20
120.4740756834
 10
147.7154508554
 20
120.4689596793
 10
147.7216471212
 20
120.4634409472
 10
147.7278321594
 20
120.4573980974
 10
147.7339360071
 20
120.4509525196
 10
147.7396744642
 20
120.4444822452
 10
147.7449517815
 20
120.4381127471
 10
147.749863708
 20
120.4317185524
 10
147.754413291
 20
120.4253012739
 10
147.7585314054
 20
120.4189852585
 10
147.7622871763
 20
120.4126461592
 10
147.7658910254
 20
120.4059125486
 10
147.7694049442
 20
120.3986816394
 10
147.7727669412
 20
120.3910562188
 10
147.7760014645
 20
120.382973221
 10
147.7791199285
 20
120.3744144605
 10
147.7821109188
 20
120.3653981226
 10
147.78496464
 20
120.3559156981
 10
147.7876794493
 20
120.3459695489
 10
147.7902569894
 20
120.335557313
 10
147.7926923943
 20
120.3246633952
 10
147.7949857208
 20
120.3132908513
 10
147.7971369119
 20
120.3014366256
 10
147.7991409312
 20
120.2890759556
 10
147.8009977557
 20
120.2762102267
 10
147.8027074083
 20
120.2628380536
 10
147.8042649211
 20
120.2489305183
 10
147.8056705637
 20
120.2344901605
 10
147.8069240665
 20
120.2195144404
 10
147.8080196527
 20
120.2039668206
 10
147.8089607393
 20
120.1878504684
 10
147.8097439094
 20
120.1711622166
 10
147.8103531356
 20
120.1538560256
 10
147.8107830753
 20
120.1359165489
 10
147.8110390712
 20
120.1173591331
 10
147.8111211231
 20
120.0981837782
  0
LWPOLYLINE
  5
2AD
100
AcDbEntity
  8
0
100
AcDbPolyline
 62
7
  6
CONTINUOUS
 90
97
 70
0
 10
145.763398001
 20
121.5161807878
 10
145.7632637025
 20
121.4945519237
 10
145.7628933857
 20
121.4736671988
 10
145.7622870505
 20
121.4535266133
 10
145.7614394586
 20
121.434146136
 10
145.7603558485
 20
121.4155097981
 10
145.7590519348
 20
121.3975696928
 10
145.7575282901
 20
121.3803239074
 10
145.7557843419
 20
121.3637743546
 10
145.7538340881
 20
121.347878867
 10
145.751677546
 20
121.332635032
 10
145.7493146983
 20
121.3180452622
 10
145.7467594918
 20
121.3040746271
 10
145.7440112586
 20
121.2907208039
 10
145.7410706665
 20
121.2779861156
 10
145.7379536667
 20
121.2658426003
 10
145.7346589026
 20
121.254288841
 10
145.7311877306
 20
121.2433262549
 10
145.7275601713
 20
121.2329311318
 10
145.7237734491
 20
121.2231027294
 10
145.7198303396
 20
121.2138417901
 10
145.7157591896
 20
121.2051268303
 10
145.7116240235
 20
121.1970377523
 10
145.707360817
 20
121.1894946538
 10
145.7028058439
 20
121.1822363447
 10
145.6978527161
 20
121.1751408469
 10
145.6926078217
 20
121.1683301385
 10
145.6872265995
 20
121.1619089638
 10
145.6817357885
 20
121.1559070199
 10
145.6761086498
 20
121.1502946097
 10
145.6704204044
 20
121.1450873862
 10
145.6647081005
 20
121.1403149487
 10
145.6589346899
 20
121.1359476979
 10
145.6530642498
 20
121.1319124889
 10
145.6470978856
 20
121.1281969269
 10
145.6410344918
 20
121.1248134069
 10
145.6348348293
 20
121.1217259685
 10
145.6285071432
 20
121.1189264853
 10
145.6220431883
 20
121.1164230839
 10
145.6153789893
 20
121.1142041841
 10
145.6085164029
 20
121.1122587084
 10
145.6014535724
 20
121.1105977344
 10
145.5941209528
 20
121.1092429145
 10
145.5864072549
 20
121.1081893352
 10
145.578423768
 20
121.10744191
 10
145.570434814
 20
121.1070370323
 10
145.5624511415
 20
121.1069928596
 10
145.5544620021
 20
121.1072912343
 10
145.546699472
 20
121.1079140773
 10
145.5392660602
 20
121.1088611182
 10
145.5320592578
 20
121.1101326274
 10
145.5250036143
 20
121.1117113365
 10
145.5180926615
 20
121.113587112
 10
145.5113328677
 20
121.1157700875
 10
145.5046681865
 20
121.1182733952
 10
145.4980945209
 20
121.1210872799
 10
145.491615968
 20
121.1242214969
 10
145.485188773
 20
121.1277184448
 10
145.4788085654
 20
121.1315685958
 10
145.4724797158
 20
121.1357814777
 10
145.4661715805
 20
121.1404280723
 10
145.4597908693
 20
121.1456110458
 10
145.4534308724
 20
121.1512277322
 10
145.4473408167
 20
121.1570411151
 10
145.4415601404
 20
121.1630714183
 10
145.4360494052
 20
121.1692984182
 10
145.4309395235
 20
121.1754244273
 10
145.4263261896
 20
121.1812654613
 10
145.4221137091
 20
121.1870055045
 10
145.4181459116
 20
121.1928988223
 10
145.414417354
 20
121.1989375161
 10
145.4109334794
 20
121.2051294845
 10
145.4075544471
 20
121.2117526892
 10
145.4042291008
 20
121.2188966967
 10
145.4010085968
 20
121.2264719405
 10
145.3979065636
 20
121.2344876831
 10
145.3949245916
 20
121.2429419033
 10
145.3920610903
 20
121.2518366222
 10
145.3893249166
 20
121.2611871658
 10
145.386716983
 20
121.2709922767
 10
145.3842363769
 20
121.2812532121
 10
145.3818892175
 20
121.2919890704
 10
145.379675469
 20
121.3031973873
 10
145.3775951673
 20
121.314880627
 10
145.3756545388
 20
121.3270652801
 10
145.373853453
 20
121.339749803
 10
145.3721920405
 20
121.3529357394
 10
145.37067692
 20
121.3666542103
 10
145.3693075215
 20
121.3809030797
 10
145.368084415
 20
121.3956844835
 10
145.3670159283
 20
121.4110359516
 10
145.3661015755
 20
121.4269559261
 10
145.3653418424
 20
121.4434459649
 10
145.3647465143
 20
121.4605482707
 10
145.3643188531
 20
121.4782769112
 10
145.3640555968
 20
121.4966178189
 10
145.3639567455
 20
121.5155709936
  0
LWPOLYLINE
  5
2AE
100
AcDbEntity
  8
0
100
AcDbPolyline
 62
7
  6
CONTINUOUS
 90
97
 70
0
 10
147.0335160083
 20
120.0981837782
 10
147.0333814715
 20
120.0765216205
 10
147.0330105278
 20
120.0556049807
 10
147.0324031774
 20
120.0354338587
 10
147.0315541671
 20
120.0160242622
 10
147.0304687499
 20
119.9973601835
 10
147.0291626855
 20
119.9793936001
 10
147.0276365472
 20
119.9621225948
 10
147.0258897617
 20
119.9455490847
 10
147.0239363685
 20
119.929630798
 10
147.0217763842
 20
119.9143653176
 10
147.0194097922
 20
119.8997550606
 10
147.0168505825
 20
119.8857650063
 10
147.014098085
 20
119.8723928295
 10
147.0111529698
 20
119.8596408554
 10
147.0080312361
 20
119.8474810382
 10
147.0047315254
 20
119.8359119595
 10
147.0012551962
 20
119.8249350378
 10
146.9976223237
 20
119.8145264819
 10
146.9938301341
 20
119.8046855592
 10
146.9898814011
 20
119.7954130024
 10
146.9858045205
 20
119.7866872185
 10
146.9816636446
 20
119.7785882554
 10
146.9773946211
 20
119.7710360652
 10
146.9728333895
 20
119.7637689104
 10
146.9678733084
 20
119.7566645087
 10
146.9626210191
 20
119.7498451425
 10
146.957232385
 20
119.7434159216
 10
146.9517343101
 20
119.7374067169
 10
146.9460998905
 20
119.7317876575
 10
146.940404278
 20
119.7265742401
 10
146.9346845123
 20
119.7217960352
 10
146.9289035537
 20
119.7174234724
 10
146.9230254352
 20
119.7133833378
 10
146.9170512616
 20
119.7096632238
 10
146.9109799281
 20
119.7062755381
 10
146.9047721526
 20
119.7031842893
 10
146.8984361928
 20
119.7003813437
 10
146.8919637912
 20
119.6978748351
 10
146.8852908934
 20
119.6956531731
 10
146.8784193566
 20
119.6937052677
 10
146.8713473236
 20
119.6920422089
 10
146.8640051689
 20
119.6906856767
 10
146.856281475
 20
119.689630752
 10
146.8482876594
 20
119.688882354
 10
146.8402883489
 20
119.6884769199
 10
146.8322942892
 20
119.6884326287
 10
146.8242947346
 20
119.6887313014
 10
146.8165220754
 20
119.6893548396
 10
146.8090789556
 20
119.6903029742
 10
146.801862731
 20
119.6915759743
 10
146.7947978597
 20
119.6931565476
 10
146.787877864
 20
119.6950345505
 10
146.7811092214
 20
119.6972201266
 10
146.7744358226
 20
119.6997264148
 10
146.7678535676
 20
119.7025436488
 10
146.7613665564
 20
119.7056815948
 10
146.7549309789
 20
119.7091826904
 10
146.7485424744
 20
119.7130373835
 10
146.7422054036
 20
119.7172552263
 10
146.7358890396
 20
119.7219073123
 10
146.7295000382
 20
119.7270963307
 10
146.7231317437
 20
119.7327195924
 10
146.7170334616
 20
119.7385401244
 10
146.7112444762
 20
119.7445784151
 10
146.7057255033
 20
119.7508139762
 10
146.7006079963
 20
119.7569483695
 10
146.6959878864
 20
119.76279733
 10
146.6917692425
 20
119.7685451228
 10
146.6877957241
 20
119.7744461051
 10
146.6840619462
 20
119.7804921733
 10
146.6805732938
 20
119.7866914311
 10
146.6771895811
 20
119.7933225468
 10
146.6738595295
 20
119.8004752973
 10
146.6706344176
 20
119.8080599056
 10
146.6675278955
 20
119.8160857092
 10
146.6645415506
 20
119.8245506925
 10
146.6616737956
 20
119.8334568711
 10
146.6589335182
 20
119.8428196287
 10
146.656321633
 20
119.8526377095
 10
146.6538372255
 20
119.8629123693
 10
146.6514864398
 20
119.8736627596
 10
146.6492692409
 20
119.8848864115
 10
146.6471856638
 20
119.8965857937
 10
146.6452419585
 20
119.9087874643
 10
146.6434379941
 20
119.9214898773
 10
146.6417739014
 20
119.9346945786
 10
146.6402563222
 20
119.9484327637
 10
146.6388846863
 20
119.9627022922
 10
146.6376595639
 20
119.9775053045
 10
146.6365893075
 20
119.9928794174
 10
146.6356734306
 20
120.0088230701
 10
146.6349124197
 20
120.0253378235
 10
146.6343160873
 20
120.0424659776
 10
146.6338877042
 20
120.0602216326
 10
146.6336239996
 20
120.0785906883
 10
146.6335249735
 20
120.0975731447
  0
LWPOLYLINE
  5
2AF
100
AcDbEntity
  8
0
100
AcDbPolyline
 62
7
  6
CONTINUOUS
 90
82
 70
0
 10
146.5497108502
 20
121.4927432712
 10
146.5493785068
 20
121.4730714352
 10
146.5487744784
 20
121.4541125803
 10
146.5478987651
 20
121.4358667064
 10
146.5467452329
 20
121.4183466497
 10
146.5453200158
 20
121.4015395741
 10
146.5436415155
 20
121.3854069709
 10
146.5417104988
 20
121.3699458569
 10
146.5395261988
 20
121.3551592154
 10
146.5371047173
 20
121.3410174874
 10
146.5344441247
 20
121.3275177229
 10
146.5315463506
 20
121.314662872
 10
146.5284332851
 20
121.302432226
 10
146.5251468583
 20
121.2909453209
 10
146.5216451401
 20
121.2800826207
 10
146.5178242312
 20
121.2694648097
 10
146.5136975189
 20
121.2590752277
 10
146.5092516159
 20
121.2489305347
 10
146.5043424603
 20
121.2387013952
 10
146.4988161042
 20
121.2280607201
 10
146.4928264956
 20
121.2173355983
 10
146.4866914172
 20
121.2071779617
 10
146.4805026845
 20
121.1978235529
 10
146.4741684821
 20
121.1890366292
 10
146.467731146
 20
121.1807618945
 10
146.4611607812
 20
121.172976126
 10
146.4544872828
 20
121.1657025465
 10
146.4478426722
 20
121.1589555278
 10
146.4412599715
 20
121.1527614238
 10
146.4347061587
 20
121.1470938806
 10
146.428214189
 20
121.1418882079
 10
146.4218397732
 20
121.1371633706
 10
146.4155272005
 20
121.1329004037
 10
146.409142294
 20
121.1289777218
 10
146.4026578778
 20
121.1253693342
 10
146.3961011278
 20
121.1221012315
 10
146.3894193947
 20
121.1191298005
 10
146.3826132424
 20
121.1164429679
 10
146.3756821072
 20
121.1140528069
 10
146.3685716482
 20
121.1119519244
 10
146.3612849697
 20
121.1101314546
 10
146.3538189674
 20
121.1086002632
 10
146.3461099881
 20
121.1073775547
 10
146.3380461052
 20
121.1064604572
 10
146.3297392453
 20
121.1058518426
 10
146.321461534
 20
121.1055795316
 10
146.3132221206
 20
121.1056631438
 10
146.3050118558
 20
121.1060830595
 10
146.2970754184
 20
121.1068082414
 10
146.2895207604
 20
121.1078367638
 10
146.2822399297
 20
121.1091705523
 10
146.2751537482
 20
121.1107843457
 10
146.2682531171
 20
121.1126698494
 10
146.2615471353
 20
121.1148353581
 10
146.2549839211
 20
121.1172804948
 10
146.2485386757
 20
121.1200135536
 10
146.242236198
 20
121.1230262404
 10
146.236099002
 20
121.1262932954
 10
146.23007182
 20
121.1298729689
 10
146.2242099198
 20
121.1337070106
 10
146.2187016194
 20
121.1375954099
 10
146.2136264731
 20
121.1414944437
 10
146.2089049266
 20
121.1454478351
 10
146.2044866351
 20
121.1493867429
 10
146.2004092618
 20
121.1532076158
 10
146.1966351434
 20
121.1570140051
 10
146.193000946
 20
121.1610477229
 10
146.1894792088
 20
121.1653433039
 10
146.1860973925
 20
121.1698662134
 10
146.1827745452
 20
121.1747546596
 10
146.1794760366
 20
121.1800516141
 10
146.1762364969
 20
121.1857141052
 10
146.1730788652
 20
121.191751426
 10
146.170006157
 20
121.198163096
 10
146.1670153566
 20
121.2049495958
 10
146.1641203559
 20
121.21212166
 10
146.1613227147
 20
121.2196785992
 10
146.1586208732
 20
121.2276211029
 10
146.1560240433
 20
121.2359619739
 10
146.1535352956
 20
121.2447054798
 10
146.1511515594
 20
121.253847353
 10
146.1488728348
 20
121.2633875935
  0
LWPOLYLINE
  5
2B0
100
AcDbEntity
  8
0
100
AcDbPolyline
 62
7
  6
CONTINUOUS
 90
76
 70
0
 10
146.9226158781
 20
121.3362968672
 10
146.9228944476
 20
121.3498294829
 10
146.92356336
 20
121.3627417099
 10
146.9246226151
 20
121.3750335482
 10
146.9261013637
 20
121.386685241
 10
146.9279704551
 20
121.3977165451
 10
146.9301424372
 20
121.4081867308
 10
146.9326031948
 20
121.4180721809
 10
146.9353668432
 20
121.4273965126
 10
146.9383882761
 20
121.4362898487
 10
146.9416575267
 20
121.4447627521
 10
146.9451845618
 20
121.4528046598
 10
146.9489541748
 20
121.4605140061
 10
146.9529536787
 20
121.4678955188
 10
146.9571957604
 20
121.4749444701
 10
146.9617032743
 20
121.4817451111
 10
146.9664654977
 20
121.4883007524
 10
146.9714931533
 20
121.4946080835
 10
146.9768412628
 20
121.5007414234
 10
146.9825957914
 20
121.5067886
 10
146.988670774
 20
121.5126617853
 10
146.9948633363
 20
121.5181718151
 10
147.0011044017
 20
121.5232459041
 10
147.0074630469
 20
121.5279568376
 10
147.0139436274
 20
121.5323338064
 10
147.0205325894
 20
121.5363759012
 10
147.0272434867
 20
121.5400840313
 10
147.0341213367
 20
121.5434901156
 10
147.0411597639
 20
121.54660258
 10
147.0483651438
 20
121.5494129985
 10
147.0558016209
 20
121.5519280127
 10
147.0634636961
 20
121.5541576578
 10
147.0713568685
 20
121.5560918985
 10
147.0795617799
 20
121.5577072699
 10
147.0881335208
 20
121.55901228
 10
147.0970170008
 20
121.5599984208
 10
147.1061275899
 20
121.5606167041
 10
147.1156039396
 20
121.5608484349
 10
147.1253073985
 20
121.5607123081
 10
147.1347373821
 20
121.5602154209
 10
147.1437245367
 20
121.5593465831
 10
147.1524382161
 20
121.5581169849
 10
147.1608858974
 20
121.5565672933
 10
147.169046773
 20
121.5547069389
 10
147.1769416505
 20
121.5525264912
 10
147.1846404304
 20
121.5500383263
 10
147.192146912
 20
121.5472523836
 10
147.1994572959
 20
121.5441587237
 10
147.2066300844
 20
121.5407399044
 10
147.21367079
 20
121.5370048418
 10
147.2205739001
 20
121.5329446198
 10
147.2273813795
 20
121.5285150475
 10
147.2341217743
 20
121.5236993288
 10
147.2407665384
 20
121.5185142599
 10
147.247271998
 20
121.5129660382
 10
147.2536962747
 20
121.5069858331
 10
147.259981247
 20
121.5006424752
 10
147.2659088756
 20
121.4941486542
 10
147.2713927382
 20
121.4875863111
 10
147.2765192572
 20
121.480873505
 10
147.2813296605
 20
121.4739771021
 10
147.2858300527
 20
121.4669037263
 10
147.2900143291
 20
121.4596467537
 10
147.293905404
 20
121.4521531801
 10
147.2975114588
 20
121.444430014
 10
147.3008243122
 20
121.4364702469
 10
147.303842334
 20
121.4281998485
 10
147.3065753443
 20
121.4196265451
 10
147.3090135232
 20
121.4107426105
 10
147.3111257805
 20
121.4014508353
 10
147.3129230749
 20
121.3917578692
 10
147.3143944479
 20
121.3816570626
 10
147.3154759341
 20
121.3710312571
 10
147.3161462118
 20
121.3598414001
 10
147.3164266027
 20
121.3481265443
 10
147.3163171068
 20
121.3358866896
  0
LWPOLYLINE
  5
2B1
100
AcDbEntity
  8
0
100
AcDbPolyline
 62
7
  6
CONTINUOUS
 90
76
 70
0
 10
146.5301577776
 20
121.6851097324
 10
146.5298919159
 20
121.6732990237
 10
146.5292543839
 20
121.6619745129
 10
146.5282451816
 20
121.6511362001
 10
146.5268448842
 20
121.6408150556
 10
146.5250729166
 20
121.6309801091
 10
146.522987553
 20
121.6215384492
 10
146.5205998249
 20
121.6124900529
 10
146.5178987009
 20
121.6038349432
 10
146.5149093612
 20
121.5954802784
 10
146.5116423757
 20
121.5874200104
 10
146.5080871745
 20
121.5796601873
 10
146.5042372283
 20
121.5721261115
 10
146.5001041164
 20
121.5648134015
 10
146.4956762596
 20
121.5577264388
 10
146.4909123903
 20
121.5508036711
 10
146.4858120108
 20
121.5440318544
 10
146.4803756189
 20
121.5374242328
 10
146.4745634407
 20
121.5309589858
 10
146.4682673479
 20
121.5245416293
 10
146.4615954688
 20
121.5182666475
 10
146.4548324152
 20
121.5123956718
 10
146.4480704783
 20
121.5070259345
 10
146.4412173667
 20
121.5020602033
 10
146.4342808187
 20
121.4974684134
 10
146.4272762632
 20
121.4932540364
 10
146.4201882712
 20
121.4894136006
 10
146.4129782942
 20
121.4859066266
 10
146.4056548217
 20
121.4827255823
 10
146.3982093642
 20
121.4798779997
 10
146.3905779049
 20
121.4773459953
 10
146.3827611307
 20
121.4751184529
 10
146.3747583546
 20
121.4732064887
 10
146.3665034986
 20
121.4716255671
 10
146.3579599401
 20
121.4703679794
 10
146.3491643017
 20
121.4694414343
 10
146.3401603729
 20
121.4688845228
 10
146.3307934676
 20
121.4687155509
 10
146.3212182718
 20
121.4689162127
 10
146.3119426332
 20
121.4694701814
 10
146.3031437941
 20
121.4703863784
 10
146.2946445122
 20
121.4716558823
 10
146.2864209074
 20
121.4732356028
 10
146.2784889729
 20
121.4751154979
 10
146.2708327156
 20
121.4773056095
 10
146.2633802764
 20
121.4797929736
 10
146.2561262994
 20
121.4825684277
 10
146.2490761405
 20
121.4856411341
 10
146.242174008
 20
121.4890256161
 10
146.2354168047
 20
121.4927112113
 10
146.228807628
 20
121.4967085821
 10
146.2222999781
 20
121.5010642378
 10
146.215856717
 20
121.5058047627
 10
146.2095149827
 20
121.5109035726
 10
146.2033396904
 20
121.5163274251
 10
146.1972989267
 20
121.5221167278
 10
146.1914246048
 20
121.5282310731
 10
146.1858773797
 20
121.5345159957
 10
146.180733456
 20
121.540888476
 10
146.1759166291
 20
121.5474315337
 10
146.1713589395
 20
121.5542397632
 10
146.1670400753
 20
121.5613186668
 10
146.1629803485
 20
121.5686627423
 10
146.1591727352
 20
121.5763500773
 10
146.1556082288
 20
121.5843732577
 10
146.1522958359
 20
121.5927396976
 10
146.1492555527
 20
121.6015497277
 10
146.1464745942
 20
121.6108026049
 10
146.1439657455
 20
121.6204990723
 10
146.1417873585
 20
121.6307416895
 10
146.1399321041
 20
121.6415419465
 10
146.1384073114
 20
121.6528883532
 10
146.1372933197
 20
121.6648489992
 10
146.1366169087
 20
121.6774465809
 10
146.1363512987
 20
121.6906584018
 10
146.1364964897
 20
121.7044844619
  0
LWPOLYLINE
  5
2B2
100
AcDbEntity
  8
0
100
AcDbPolyline
 62
7
  6
CONTINUOUS
 90
67
 70
0
 10
145.010604705
 20
121.1816835705
 10
145.0104506556
 20
121.1756909652
 10
145.0100533423
 20
121.1698831235
 10
145.009412765
 20
121.1642600455
 10
145.0085235827
 20
121.1588392183
 10
145.0073911364
 20
121.1536031548
 10
145.0060314491
 20
121.1484993935
 10
145.0044536353
 20
121.1435248135
 10
145.0026485805
 20
121.1386825358
 10
145.0006049641
 20
121.1339294622
 10
144.9983322813
 20
121.129264985
 10
144.9958210369
 20
121.1246897119
 10
144.9930314251
 20
121.120162368
 10
144.9899523284
 20
121.1156590272
 10
144.9865948642
 20
121.1112036155
 10
144.9829525792
 20
121.1068266365
 10
144.9789555789
 20
121.1024704351
 10
144.9746737578
 20
121.0981926664
 10
144.9703103465
 20
121.0941967982
 10
144.9659239893
 20
121.0905527441
 10
144.9614560419
 20
121.0871905905
 10
144.9569338023
 20
121.0841040651
 10
144.952377261
 20
121.081302761
 10
144.9477664274
 20
121.078777085
 10
144.9430686275
 20
121.0764919856
 10
144.9382872584
 20
121.0744395274
 10
144.9334189231
 20
121.0726276458
 10
144.9284207561
 20
121.071045095
 10
144.923295724
 20
121.0696837964
 10
144.9180408603
 20
121.0685518287
 10
144.9126044006
 20
121.0676621819
 10
144.9068992814
 20
121.0670122513
 10
144.9010125662
 20
121.0666046416
 10
144.8951536816
 20
121.0664601574
 10
144.8893429148
 20
121.0665930172
 10
144.8835599785
 20
121.0669890025
 10
144.8779534376
 20
121.0676262621
 10
144.8725921111
 20
121.0685009784
 10
144.8674071799
 20
121.069616969
 10
144.8623407518
 20
121.0709638356
 10
144.8573871193
 20
121.0725336952
 10
144.8525519899
 20
121.0743344308
 10
144.847794593
 20
121.0763792935
 10
144.8431121565
 20
121.0786600942
 10
144.8385074526
 20
121.0811850219
 10
144.8339480267
 20
121.0839918945
 10
144.8294107862
 20
121.0870933831
 10
144.8249188237
 20
121.0904768164
 10
144.8205089618
 20
121.094141999
 10
144.8161236852
 20
121.0981588093
 10
144.8118205092
 20
121.1024573688
 10
144.8078088018
 20
121.1068278462
 10
144.804162897
 20
121.1112079247
 10
144.8008084609
 20
121.1156599211
 10
144.7977318594
 20
121.1201609546
 10
144.7949415607
 20
121.1246906436
 10
144.7924290966
 20
121.1292693698
 10
144.7901554285
 20
121.1339353968
 10
144.7881111954
 20
121.138686276
 10
144.7863057583
 20
121.143524456
 10
144.7847281618
 20
121.1484955463
 10
144.7833698486
 20
121.1535970035
 10
144.782239376
 20
121.1588313709
 10
144.7813514609
 20
121.1642518888
 10
144.780711009
 20
121.1698763037
 10
144.7803131145
 20
121.1756868691
 10
144.7801577776
 20
121.1816835848
  0
LWPOLYLINE
  5
2B3
100
AcDbEntity
  8
0
100
AcDbPolyline
 62
7
  6
CONTINUOUS
 90
67
 70
0
 10
144.7801577776
 20
121.1816835848
 10
144.7803131157
 20
121.1876802991
 10
144.7807110113
 20
121.1934908634
 10
144.7813514644
 20
121.1991152776
 10
144.7822393806
 20
121.204535795
 10
144.7833698543
 20
121.2097701623
 10
144.7847281686
 20
121.2148716195
 10
144.7863057663
 20
121.2198427102
 10
144.7881112047
 20
121.2246808907
 10
144.7901554392
 20
121.2294317706
 10
144.7924291087
 20
121.2340977984
 10
144.7949415743
 20
121.2386765254
 10
144.7977318747
 20
121.2432062156
 10
144.8008084783
 20
121.2477072506
 10
144.8041629168
 20
121.2521592487
 10
144.8078088235
 20
121.2565393284
 10
144.8118205325
 20
121.2609098065
 10
144.8161237097
 20
121.2652083662
 10
144.8205089869
 20
121.2692251763
 10
144.8249188487
 20
121.2728903581
 10
144.8294108105
 20
121.2762737901
 10
144.8339480502
 20
121.2793752774
 10
144.8385074755
 20
121.282182149
 10
144.8431121788
 20
121.2847070757
 10
144.8477946146
 20
121.2869878755
 10
144.8525520109
 20
121.2890327373
 10
144.8573871396
 20
121.2908334721
 10
144.8623407713
 20
121.2924033309
 10
144.8674071986
 20
121.2937501967
 10
144.8725921288
 20
121.2948661865
 10
144.8779534543
 20
121.2957409021
 10
144.8835599943
 20
121.296378161
 10
144.8893429295
 20
121.2967741456
 10
144.8951536949
 20
121.2969070049
 10
144.9010125777
 20
121.2967625201
 10
144.9068992907
 20
121.29635491
 10
144.912604408
 20
121.2957049789
 10
144.918040866
 20
121.2948153318
 10
144.9232957282
 20
121.2936833638
 10
144.9284207589
 20
121.292322065
 10
144.9334189245
 20
121.290739514
 10
144.9382872586
 20
121.2889276322
 10
144.9430686266
 20
121.2868751739
 10
144.9477664255
 20
121.2845900743
 10
144.9523772582
 20
121.2820643982
 10
144.9569337988
 20
121.2792630938
 10
144.9614560377
 20
121.2761765683
 10
144.9659239844
 20
121.2728144145
 10
144.9703103413
 20
121.2691703598
 10
144.9746737527
 20
121.2651744906
 10
144.9789555743
 20
121.2608967206
 10
144.9829525752
 20
121.2565405177
 10
144.9865948609
 20
121.2521635371
 10
144.9899523259
 20
121.2477081237
 10
144.9930314233
 20
121.2432047812
 10
144.9958210356
 20
121.2386774359
 10
144.9983322804
 20
121.2341021615
 10
145.0006049635
 20
121.2294376831
 10
145.0026485801
 20
121.2246846084
 10
145.0044536351
 20
121.2198423298
 10
145.006031449
 20
121.214867749
 10
145.0073911364
 20
121.2097639871
 10
145.0085235827
 20
121.204527923
 10
145.0094127651
 20
121.1991070955
 10
145.0100533424
 20
121.1934840173
 10
145.0104506557
 20
121.1876761756
 10
145.010604705
 20
121.1816835705
  0
LWPOLYLINE
  5
2B4
100
AcDbEntity
  8
0
100
AcDbPolyline
 62
7
  6
CONTINUOUS
 90
76
 70
0
 10
147.3163171068
 20
121.3358866896
 10
147.3156762305
 20
121.3233434163
 10
147.3146679955
 20
121.3113148631
 10
147.3132924019
 20
121.2998010302
 10
147.3115322335
 20
121.2888412125
 10
147.3094047065
 20
121.2783961151
 10
147.3069614691
 20
121.2683478526
 10
147.3042122287
 20
121.2586860304
 10
147.301147278
 20
121.2494210432
 10
147.2977891428
 20
121.2404661898
 10
147.2941477033
 20
121.2318170201
 10
147.2902130794
 20
121.2234779842
 10
147.285978157
 20
121.2153757317
 10
147.2814527678
 20
121.2075052049
 10
147.2766270801
 20
121.1998714615
 10
147.2714644844
 20
121.1924163234
 10
147.2659512425
 20
121.1851186827
 10
147.2601010926
 20
121.1779996474
 10
147.2539186396
 20
121.1710643637
 10
147.2472949229
 20
121.1642138549
 10
147.2403389032
 20
121.1575470976
 10
147.2333820668
 20
121.1513661682
 10
147.2265420361
 20
121.1457985929
 10
147.2197011888
 20
121.1407168454
 10
147.2128381445
 20
121.1360404234
 10
147.2059577105
 20
121.1317615031
 10
147.1990550795
 20
121.1278879081
 10
147.1920944482
 20
121.1243626071
 10
147.1850813185
 20
121.1211771619
 10
147.1780101885
 20
121.1183400106
 10
147.17082875
 20
121.1158194352
 10
147.1635368143
 20
121.1136052146
 10
147.15613457
 20
121.11170757
 10
147.148570275
 20
121.1101254474
 10
147.1408168903
 20
121.1088516316
 10
147.1329014549
 20
121.1078933378
 10
147.1248533433
 20
121.1072711572
 10
147.1165783746
 20
121.1069938603
 10
147.1081707298
 20
121.1070526766
 10
147.0999423267
 20
121.1074418857
 10
147.0919932653
 20
121.1081685732
 10
147.0842234457
 20
121.1092256536
 10
147.0766444856
 20
121.1105861496
 10
147.0692793159
 20
121.1122418294
 10
147.0621050057
 20
121.1142009248
 10
147.0550643798
 20
121.1164611535
 10
147.048156064
 20
121.1190123848
 10
147.0413814325
 20
121.1218647494
 10
147.0346874325
 20
121.1250463565
 10
147.0280671358
 20
121.1285498309
 10
147.0215274707
 20
121.1323825478
 10
147.0150361695
 20
121.1365947428
 10
147.0085810233
 20
121.1411874412
 10
147.002174241
 20
121.1461596178
 10
146.9958201817
 20
121.1515584321
 10
146.9894145169
 20
121.1575009395
 10
146.9830615751
 20
121.1638700847
 10
146.9770787005
 20
121.1703618618
 10
146.9716004306
 20
121.1768416507
 10
146.9664922281
 20
121.1834440715
 10
146.9616678247
 20
121.1902689789
 10
146.9571087812
 20
121.1973207402
 10
146.9528335368
 20
121.2045949881
 10
146.9488111414
 20
121.2121784748
 10
146.9450269412
 20
121.2200711228
 10
146.9414955899
 20
121.2282730096
 10
146.9382300991
 20
121.2368711207
 10
146.9352215766
 20
121.2458550137
 10
146.9324789146
 20
121.2552351309
 10
146.9300418005
 20
121.2651297845
 10
146.9278975047
 20
121.2755503646
 10
146.9260587568
 20
121.286485481
 10
146.9246034326
 20
121.2980192754
 10
146.9235574908
 20
121.3101797948
 10
146.9228949726
 20
121.322938992
 10
146.9226158781
 20
121.3362968672
  0
LWPOLYLINE
  5
2B5
100
AcDbEntity
  8
0
100
AcDbPolyline
 62
7
  6
CONTINUOUS
 90
76
 70
0
 10
146.1364964897
 20
121.7044844619
 10
146.1371901275
 20
121.7176728193
 10
146.1382458084
 20
121.7302520752
 10
146.1396635325
 20
121.7422222298
 10
146.1414667718
 20
121.7535482123
 10
146.1436320542
 20
121.7642650934
 10
146.1460889633
 20
121.7744780854
 10
146.148825882
 20
121.7841847765
 10
146.1518544274
 20
121.7933875785
 10
146.1551390352
 20
121.8021989392
 10
146.1586700963
 20
121.8106272409
 10
146.1624572198
 20
121.8186641012
 10
146.1664936682
 20
121.8263968217
 10
146.1707559061
 20
121.8338161363
 10
146.175267469
 20
121.840931311
 10
146.1800922265
 20
121.8478574453
 10
146.1852579233
 20
121.8546356906
 10
146.1907368146
 20
121.8612248956
 10
146.1965095353
 20
121.8676167058
 10
146.2026613326
 20
121.8738906808
 10
146.2091069592
 20
121.8799672611
 10
146.2155713082
 20
121.8855994133
 10
146.2219551896
 20
121.8906806019
 10
146.2283577933
 20
121.8953173625
 10
146.2348015827
 20
121.8995822683
 10
146.2412798251
 20
121.9034825574
 10
146.2477992531
 20
121.9070109917
 10
146.254402527
 20
121.910218431
 10
146.2610882198
 20
121.913115104
 10
146.2678577586
 20
121.9156907819
 10
146.2747580851
 20
121.917965639
 10
146.2817838041
 20
121.9199481878
 10
146.2889403107
 20
121.9216299156
 10
146.2962907329
 20
121.9230054581
 10
146.3038848407
 20
121.9240825298
 10
146.3116728639
 20
121.9248534162
 10
146.3195686196
 20
121.9252896089
 10
146.3276139586
 20
121.9253821538
 10
146.33576703
 20
121.9251400051
 10
146.3438160983
 20
121.9245615174
 10
146.3516723285
 20
121.9236475539
 10
146.3594245556
 20
121.9223972514
 10
146.3671275482
 20
121.9208063749
 10
146.3747828445
 20
121.9188844109
 10
146.3823889063
 20
121.9166218729
 10
146.3899958883
 20
121.9139860666
 10
146.3976607228
 20
121.9109505689
 10
146.4053264775
 20
121.907541803
 10
146.4128725097
 20
121.9038063433
 10
146.4203316605
 20
121.8997152551
 10
146.4276710888
 20
121.8952974731
 10
146.4346716289
 20
121.8906863768
 10
146.4412099273
 20
121.8859615077
 10
146.4474093375
 20
121.8810433242
 10
146.4534207538
 20
121.8758265806
 10
146.4592853236
 20
121.8702972958
 10
146.4649618995
 20
121.8644694508
 10
146.4704779335
 20
121.8582797432
 10
146.4758396376
 20
121.8517382783
 10
146.4810407999
 20
121.8448349507
 10
146.4860902362
 20
121.8374761413
 10
146.4909971823
 20
121.8296596412
 10
146.4957524025
 20
121.8213876594
 10
146.5003370057
 20
121.8125732034
 10
146.504807629
 20
121.8030762529
 10
146.5091076354
 20
121.7930368283
 10
146.5130482221
 20
121.7827879978
 10
146.5165867129
 20
121.772396378
 10
146.519765784
 20
121.7617953522
 10
146.5225246619
 20
121.7511181389
 10
146.5248421463
 20
121.7404317969
 10
146.5267394376
 20
121.7296692672
 10
146.5282193636
 20
121.7187625918
 10
146.5292828669
 20
121.7076891178
 10
146.5299290049
 20
121.696471498
 10
146.5301577776
 20
121.6851097324
  0
LINE
  5
2B6
100
AcDbEntity
  8
ASSI
100
AcDbLine
 62
7
  6
CONTINUOUS
 10
140.6837890625
 20
92.4460080736
 11
140.7712890625
 21
92.9286597299
  0
LWPOLYLINE
  5
2B7
100
AcDbEntity
  8
0
100
AcDbPolyline
 62
7
  6
CONTINUOUS
 90
7
 70
0
 10
148.0374683565
 20
121.0091976118
 10
148.166324021
 20
121.5390003147
 10
148.1834511077
 20
121.6088431195
 10
148.1998736972
 20
121.6768388299
 10
148.2154680425
 20
121.7428590341
 10
148.2303578907
 20
121.807032144
 10
148.2445432418
 20
121.8693581595
  0
LINE
  5
2B8
100
AcDbEntity
  8
0
100
AcDbLine
 62
7
  6
CONTINUOUS
 10
148.8439156723
 20
121.8020101645
 11
148.8604650295
 21
121.8693581595
  0
LINE
  5
2B9
100
AcDbEntity
  8
0
100
AcDbLine
 62
7
  6
CONTINUOUS
 10
146.2971413292
 20
117.2680032062
 11
146.4337890625
 21
117.7779794896
  0
LINE
  5
2BA
100
AcDbEntity
  8
0
100
AcDbLine
 62
7
  6
CONTINUOUS
 10
146.4219832761
 20
115.0208882495
 11
146.5587890625
 21
115.5314543952
  0
LINE
  5
2BB
100
AcDbEntity
  8
0
100
AcDbLine
 62
7
  6
CONTINUOUS
 10
146.5471877403
 20
113.5261202778
 11
146.6837890625
 21
114.0359233527
  0
LWPOLYLINE
  5
2BC
100
AcDbEntity
  8
0
100
AcDbPolyline
 62
7
  6
CONTINUOUS
 90
5
 70
0
 10
148.6220909252
 20
121.4020632407
 10
148.6032124871
 20
121.3330051698
 10
148.5847340616
 20
121.2644980947
 10
148.5666674044
 20
121.1968104128
 10
148.5490125155
 20
121.1299421239
  0
LINE
  5
2BD
100
AcDbEntity
  8
0
100
AcDbLine
 62
7
  6
CONTINUOUS
 10
148.1782460625
 20
122.0091976118
 11
147.9044595625
 21
121.0091976118
  0
LINE
  5
2BE
100
AcDbEntity
  8
0
100
AcDbLine
 62
7
  6
CONTINUOUS
 10
148.7892796428
 20
122.0091976118
 11
148.6220909252
 21
121.4020632407
  0
LWPOLYLINE
  5
2BF
100
AcDbEntity
  8
0
100
AcDbPolyline
 62
7
  6
CONTINUOUS
 90
6
 70
0
 10
148.6254135397
 20
121.0091976118
 10
148.7951874041
 20
121.6158878282
 10
148.8038752446
 20
121.6466490307
 10
148.8122895131
 20
121.6773331364
 10
148.8202761735
 20
121.7078580301
 10
148.8439156723
 20
121.8020101645
  0
LWPOLYLINE
  5
2C0
100
AcDbEntity
  8
0
100
AcDbPolyline
 62
7
  6
CONTINUOUS
 90
7
 70
0
 10
149.6977924777
 20
119.5905026118
 10
149.9486221653
 20
120.2661853538
 10
149.9651723131
 20
120.3104007599
 10
149.9807940166
 20
120.3540544489
 10
149.9953116391
 20
120.397295126
 10
150.0089008172
 20
120.439974086
 10
150.0215615511
 20
120.4820913287
  0
LINE
  5
2C1
100
AcDbEntity
  8
0
100
AcDbLine
 62
7
  6
CONTINUOUS
 10
149.9530535625
 20
120.5918791118
 11
149.5625025625
 21
119.5905026118
  0
LWPOLYLINE
  5
2C2
100
AcDbEntity
  8
0
100
AcDbPolyline
 62
7
  6
CONTINUOUS
 90
25
 70
0
 10
148.332394556
 20
119.5863071118
 10
148.3369454756
 20
119.5951632156
 10
148.3420479912
 20
119.6042131724
 10
148.3477021029
 20
119.6134569822
 10
148.353891264
 20
119.6228994762
 10
148.3606320211
 20
119.6325358231
 10
148.367974014
 20
119.6423515295
 10
148.3759187059
 20
119.6523452239
 10
148.3844646335
 20
119.6625182777
 10
148.3936570465
 20
119.6728603113
 10
148.4034883952
 20
119.6833687725
 10
148.4139662293
 20
119.6940462136
 10
148.4251584471
 20
119.7048899115
 10
148.437032018
 20
119.7159175475
 10
148.4496199726
 20
119.7271114404
 10
148.4630893007
 20
119.7384158236
 10
148.4775175044
 20
119.7498864154
 10
148.4928270817
 20
119.7614674975
 10
148.5089525163
 20
119.7729361493
 10
148.5258873408
 20
119.7842640295
 10
148.5436380226
 20
119.7954794794
 10
148.5621584471
 20
119.8064446026
 10
148.5814332428
 20
119.8171134337
 10
148.6014777813
 20
119.8275319381
 10
148.6222920625
 20
119.8377001159
  0
LINE
  5
2C3
100
AcDbEntity
  8
RACCORDO
100
AcDbLine
 62
250
  6
CONTINUOUS
 10
152.326618653
 20
117.2724385868
 11
152.2461286591
 21
117.1458630722
  0
LINE
  5
2C4
100
AcDbEntity
  8
RACCORDO
100
AcDbLine
 62
250
  6
CONTINUOUS
 10
141.540959472
 20
100.3113196369
 11
141.6214494659
 21
100.4378951515
  0
LINE
  5
2C5
100
AcDbEntity
  8
RACCORDO
100
AcDbLine
 62
250
  6
CONTINUOUS
 10
152.5497035061
 20
117.6045974758
 11
152.6303147182
 21
117.7310958255
  0
LINE
  5
2C6
100
AcDbEntity
  8
RACCORDO
100
AcDbLine
 62
250
  6
CONTINUOUS
 10
141.3178746189
 20
99.9791607479
 11
141.2372634068
 21
99.8526623982
  0
LINE
  5
2C7
100
AcDbEntity
  8
RACCORDO
100
AcDbLine
 62
250
  6
CONTINUOUS
 10
138.1210706986
 20
103.1759646682
 11
137.9945723489
 21
103.0953534561
  0
LINE
  5
2C8
100
AcDbEntity
  8
RACCORDO
100
AcDbLine
 62
250
  6
CONTINUOUS
 10
155.7465074264
 20
114.4077935555
 11
155.8730057761
 21
114.4884047676
  0
LINE
  5
2C9
100
AcDbEntity
  8
RACCORDO
100
AcDbLine
 62
250
  6
CONTINUOUS
 10
155.4143485374
 20
114.1847087024
 11
155.2877730229
 21
114.1042187085
  0
LINE
  5
2CA
100
AcDbEntity
  8
RACCORDO
100
AcDbLine
 62
250
  6
CONTINUOUS
 10
138.4532295876
 20
103.3990495213
 11
138.5798051021
 21
103.4795395152
  0
LINE
  5
2CB
100
AcDbEntity
  8
0
100
AcDbLine
 62
7
  6
CONTINUOUS
 10
155.9198894403
 20
108.2918791118
 11
155.4099131569
 21
108.1552313785
  0
LINE
  5
2CC
100
AcDbEntity
  8
0
100
AcDbLine
 62
7
  6
CONTINUOUS
 10
153.6733643459
 20
108.4168791118
 11
153.1627982002
 21
108.2800733254
  0
LINE
  5
2CD
100
AcDbEntity
  8
0
100
AcDbLine
 62
7
  6
CONTINUOUS
 10
151.6823421365
 20
108.9091126538
 11
152.1778333034
 21
109.0418791118
  0
LINE
  5
2CE
100
AcDbEntity
  8
0
100
AcDbLine
 62
7
  6
CONTINUOUS
 10
131.0705696805
 20
102.6293791118
 11
130.5879180242
 21
102.5418791118
  0
LWPOLYLINE
  5
2CF
100
AcDbEntity
  8
0
100
AcDbPolyline
 62
7
  6
CONTINUOUS
 90
49
 70
0
 10
158.9476703797
 20
107.5561111118
 10
158.9297732254
 20
107.5557741882
 10
158.9122353693
 20
107.5549087451
 10
158.8950568114
 20
107.5535147825
 10
158.8782353319
 20
107.5515738281
 10
158.8617731506
 20
107.5491043542
 10
158.8456769273
 20
107.5461617779
 10
158.8299572506
 20
107.5427559151
 10
158.8146035318
 20
107.53887695
 10
158.7995906644
 20
107.5345508523
 10
158.7849128798
 20
107.5297822633
 10
158.7705759465
 20
107.5245665417
 10
158.7565720638
 20
107.5189157345
 10
158.7429021895
 20
107.5128287803
 10
158.7295653658
 20
107.5063067403
 10
158.7165509179
 20
107.4993648458
 10
158.703859212
 20
107.4920093187
 10
158.6914898819
 20
107.484233937
 10
158.6794311549
 20
107.4760352663
 10
158.6676787447
 20
107.4674172179
 10
158.6562369375
 20
107.4583758805
 10
158.6451068195
 20
107.4488960851
 10
158.63429778
 20
107.4389819548
 10
158.6238004296
 20
107.4286293665
 10
158.6135876865
 20
107.4178107821
 10
158.6036517863
 20
107.406528337
 10
158.5940004933
 20
107.3947798956
 10
158.5846300193
 20
107.3825315133
 10
158.5755299463
 20
107.3697845434
 10
158.5667106922
 20
107.3565376325
 10
158.5581997223
 20
107.3427527753
 10
158.5499939797
 20
107.3284305817
 10
158.5420965213
 20
107.3135704418
 10
158.5345439833
 20
107.2981325199
 10
158.5273372149
 20
107.2821114586
 10
158.5204753668
 20
107.2655126153
 10
158.5139925274
 20
107.2483122275
 10
158.5078778042
 20
107.2305070599
 10
158.5021420897
 20
107.2121003478
 10
158.4968521492
 20
107.1930780337
 10
158.4919640672
 20
107.1734407764
 10
158.4875217593
 20
107.1531879171
 10
158.4837237376
 20
107.1323034221
 10
158.4806355724
 20
107.1107795686
 10
158.4781916934
 20
107.0886240794
 10
158.4763939024
 20
107.065844089
 10
158.4752428
 20
107.0424419755
 10
158.4747377855
 20
107.0184153608
 10
158.474878859
 20
106.993764245
  0
LINE
  5
2D0
100
AcDbEntity
  8
0
100
AcDbLine
 62
7
  6
CONTINUOUS
 10
157.4447995625
 20
106.4314176118
 11
158.2643880625
 21
106.4314176118
  0
LINE
  5
2D1
100
AcDbEntity
  8
0
100
AcDbLine
 62
7
  6
CONTINUOUS
 10
158.9476656411
 20
106.4314176118
 11
159.4036400625
 21
106.4314176118
  0
LINE
  5
2D2
100
AcDbEntity
  8
0
100
AcDbLine
 62
7
  6
CONTINUOUS
 10
159.9584345625
 20
106.4314176118
 11
160.1307780625
 21
106.4314176118
  0
LINE
  5
2D3
100
AcDbEntity
  8
0
100
AcDbLine
 62
7
  6
CONTINUOUS
 10
160.6886660625
 20
106.4314176118
 11
160.9049605625
 21
106.4314176118
  0
LINE
  5
2D4
100
AcDbEntity
  8
0
100
AcDbLine
 62
7
  6
CONTINUOUS
 10
161.5490200625
 20
106.4314176118
 11
161.7668610625
 21
106.4314176118
  0
LINE
  5
2D5
100
AcDbEntity
  8
0
100
AcDbLine
 62
7
  6
CONTINUOUS
 10
159.2516790625
 20
106.5615396118
 11
158.9680542673
 21
106.5615396118
  0
LINE
  5
2D6
100
AcDbEntity
  8
0
100
AcDbLine
 62
7
  6
CONTINUOUS
 10
158.1123360625
 20
106.5660896118
 11
157.4447995625
 21
106.5660896118
  0
LINE
  5
2D7
100
AcDbEntity
  8
0
100
AcDbLine
 62
7
  6
CONTINUOUS
 10
157.4964845625
 20
106.9109591118
 11
158.1123360625
 21
106.9109591118
  0
LINE
  5
2D8
100
AcDbEntity
  8
0
100
AcDbLine
 62
7
  6
CONTINUOUS
 10
158.1123360625
 20
107.0456311118
 11
157.4964845625
 21
107.0456311118
  0
LINE
  5
2D9
100
AcDbEntity
  8
0
100
AcDbLine
 62
7
  6
CONTINUOUS
 10
159.8831820625
 20
107.0938581118
 11
160.2326010625
 21
107.0938581118
  0
LINE
  5
2DA
100
AcDbEntity
  8
0
100
AcDbLine
 62
7
  6
CONTINUOUS
 10
160.2796455625
 20
107.2285301118
 11
159.8283120625
 21
107.2285301118
  0
LINE
  5
2DB
100
AcDbEntity
  8
0
100
AcDbLine
 62
7
  6
CONTINUOUS
 10
157.4337890625
 20
107.4214391118
 11
158.1123360625
 21
107.4214391118
  0
LINE
  5
2DC
100
AcDbEntity
  8
0
100
AcDbLine
 62
7
  6
CONTINUOUS
 10
158.9680488537
 20
107.4259886118
 11
159.2516790625
 21
107.4259886118
  0
LINE
  5
2DD
100
AcDbEntity
  8
0
100
AcDbLine
 62
7
  6
CONTINUOUS
 10
161.7668610625
 20
107.5561111118
 11
161.6195410625
 21
107.5561111118
  0
LINE
  5
2DE
100
AcDbEntity
  8
0
100
AcDbLine
 62
7
  6
CONTINUOUS
 10
161.3029705625
 20
107.5561111118
 11
161.1525565625
 21
107.5561111118
  0
LINE
  5
2DF
100
AcDbEntity
  8
0
100
AcDbLine
 62
7
  6
CONTINUOUS
 10
160.8359865625
 20
107.5561111118
 11
160.6886660625
 21
107.5561111118
  0
LINE
  5
2E0
100
AcDbEntity
  8
0
100
AcDbLine
 62
7
  6
CONTINUOUS
 10
160.5539030625
 20
107.5561111118
 11
160.3972105625
 21
107.5561111118
  0
LINE
  5
2E1
100
AcDbEntity
  8
0
100
AcDbLine
 62
7
  6
CONTINUOUS
 10
159.7170255625
 20
107.5561111118
 11
159.5509605625
 21
107.5561111118
  0
LINE
  5
2E2
100
AcDbEntity
  8
0
100
AcDbLine
 62
7
  6
CONTINUOUS
 10
159.4036400625
 20
107.5561111118
 11
158.9476703797
 21
107.5561111118
  0
LINE
  5
2E3
100
AcDbEntity
  8
0
100
AcDbLine
 62
7
  6
CONTINUOUS
 10
158.2643880625
 20
107.5561111118
 11
157.4337890625
 21
107.5561111118
  0
LINE
  5
2E4
100
AcDbEntity
  8
ASSI
100
AcDbLine
 62
7
  6
CONTINUOUS
 10
133.1050040625
 20
107.7210476118
 11
133.7595220625
 21
107.7210476118
  0
LINE
  5
2E5
100
AcDbEntity
  8
ASSI
100
AcDbLine
 62
7
  6
CONTINUOUS
 10
133.7595220625
 20
107.9584561118
 11
133.5579880625
 21
107.9584561118
  0
LINE
  5
2E6
100
AcDbEntity
  8
ASSI
100
AcDbLine
 62
7
  6
CONTINUOUS
 10
133.3064565625
 20
107.9584561118
 11
133.1050040625
 21
107.9584561118
  0
LINE
  5
2E7
100
AcDbEntity
  8
0
100
AcDbLine
 62
7
  6
CONTINUOUS
 10
158.9531260625
 20
108.0493016118
 11
159.1003550625
 21
108.0493016118
  0
LINE
  5
2E8
100
AcDbEntity
  8
0
100
AcDbLine
 62
7
  6
CONTINUOUS
 10
159.6661595625
 20
108.0493016118
 11
159.8464200625
 21
108.0493016118
  0
LINE
  5
2E9
100
AcDbEntity
  8
0
100
AcDbLine
 62
7
  6
CONTINUOUS
 10
160.1064825625
 20
108.0493016118
 11
160.2585345625
 21
108.0493016118
  0
LINE
  5
2EA
100
AcDbEntity
  8
0
100
AcDbLine
 62
7
  6
CONTINUOUS
 10
129.441304535
 20
108.2790584283
 11
129.8414804137
 21
108.2790584283
  0
LINE
  5
2EB
100
AcDbEntity
  8
0
100
AcDbLine
 62
7
  6
CONTINUOUS
 10
164.0260977113
 20
108.2790584283
 11
164.42627359
 21
108.2790584283
  0
LINE
  5
2EC
100
AcDbEntity
  8
0
100
AcDbLine
 62
7
  6
CONTINUOUS
 10
164.429770744
 20
108.4168791118
 11
164.0296767259
 21
108.4168791118
  0
LINE
  5
2ED
100
AcDbEntity
  8
0
100
AcDbLine
 62
7
  6
CONTINUOUS
 10
129.8379013991
 20
108.4168791118
 11
129.437807381
 21
108.4168791118
  0
LINE
  5
2EE
100
AcDbEntity
  8
0
100
AcDbLine
 62
7
  6
CONTINUOUS
 10
129.437807381
 20
109.1668791118
 11
129.8379013991
 21
109.1668791118
  0
LINE
  5
2EF
100
AcDbEntity
  8
0
100
AcDbLine
 62
7
  6
CONTINUOUS
 10
164.0296767259
 20
109.1668791118
 11
164.429770744
 21
109.1668791118
  0
LINE
  5
2F0
100
AcDbEntity
  8
0
100
AcDbLine
 62
7
  6
CONTINUOUS
 10
160.2585345625
 20
109.1739951118
 11
160.1064825625
 21
109.1739951118
  0
LINE
  5
2F1
100
AcDbEntity
  8
0
100
AcDbLine
 62
7
  6
CONTINUOUS
 10
159.8464200625
 20
109.1739951118
 11
159.6990085625
 21
109.1739951118
  0
LINE
  5
2F2
100
AcDbEntity
  8
0
100
AcDbLine
 62
7
  6
CONTINUOUS
 10
159.1239230625
 20
109.1739951118
 11
158.9531260625
 21
109.1739951118
  0
LINE
  5
2F3
100
AcDbEntity
  8
0
100
AcDbLine
 62
7
  6
CONTINUOUS
 10
129.441304535
 20
109.3046997954
 11
129.8414804137
 21
109.3046997954
  0
LINE
  5
2F4
100
AcDbEntity
  8
0
100
AcDbLine
 62
7
  6
CONTINUOUS
 10
164.0260977113
 20
109.3046997954
 11
164.42627359
 21
109.3046997954
  0
LWPOLYLINE
  5
2F5
100
AcDbEntity
  8
0
100
AcDbPolyline
 62
7
  6
CONTINUOUS
 90
46
 70
0
 10
158.9680542673
 20
106.5615396118
 10
158.9536748666
 20
106.5617996571
 10
158.9396810347
 20
106.5624879094
 10
158.9260727718
 20
106.5636043686
 10
158.9128607328
 20
106.5651608408
 10
158.9000342627
 20
106.56714552
 10
158.8875613963
 20
106.569522988
 10
158.8754430173
 20
106.572287722
 10
158.8636782419
 20
106.5754452449
 10
158.8522324543
 20
106.5789767069
 10
158.8410958982
 20
106.5828773351
 10
158.8302783299
 20
106.5871519025
 10
158.8197744013
 20
106.591795878
 10
158.809587777
 20
106.5968029016
 10
158.7997147924
 20
106.6021793333
 10
158.7901391062
 20
106.607939722
 10
158.7808677431
 20
106.6140920533
 10
158.7718936785
 20
106.6206283415
 10
158.7631794972
 20
106.6275391782
 10
158.7547185902
 20
106.6348252505
 10
158.7465175666
 20
106.6424858713
 10
158.7385588379
 20
106.6505095706
 10
158.730843145
 20
106.6588803264
 10
158.7233697471
 20
106.6676141607
 10
158.7161188333
 20
106.6767476688
 10
158.7090782765
 20
106.6862768596
 10
158.7022602038
 20
106.6962057242
 10
158.6956811863
 20
106.7065828324
 10
158.6893341366
 20
106.7174001181
 10
158.6832261422
 20
106.7286656473
 10
158.6773950364
 20
106.7404521885
 10
158.671829118
 20
106.7527594554
 10
158.6665400883
 20
106.7655877342
 10
158.6616008847
 20
106.7790106521
 10
158.6570250557
 20
106.7930259135
 10
158.6527990528
 20
106.807635814
 10
158.6489551676
 20
106.8229208678
 10
158.645523983
 20
106.8388853455
 10
158.6424749161
 20
106.8555249766
 10
158.6397485095
 20
106.8729074633
 10
158.6372952116
 20
106.8910247622
 10
158.6351645741
 20
106.9098849166
 10
158.6334457944
 20
106.9295797589
 10
158.6321686051
 20
106.9501398998
 10
158.6313032737
 20
106.9715347285
 10
158.6308498001
 20
106.993764245
  0
LINE
  5
2F6
100
AcDbEntity
  8
0
100
AcDbLine
 62
7
  6
CONTINUOUS
 10
163.2796601008
 20
102.5418791118
 11
162.7970084445
 21
102.6293791118
  0
LINE
  5
2F7
100
AcDbEntity
  8
0
100
AcDbLine
 62
7
  6
CONTINUOUS
 10
138.4576649681
 20
108.1552313785
 11
137.9476886847
 21
108.2918791118
  0
LINE
  5
2F8
100
AcDbEntity
  8
0
100
AcDbLine
 62
7
  6
CONTINUOUS
 10
140.7047799248
 20
108.2800733254
 11
140.1942137791
 21
108.4168791118
  0
LINE
  5
2F9
100
AcDbEntity
  8
0
100
AcDbLine
 62
7
  6
CONTINUOUS
 10
141.6897448216
 20
109.0418791118
 11
142.1852359885
 21
108.9091126538
  0
LWPOLYLINE
  5
2FA
100
AcDbEntity
  8
0
100
AcDbPolyline
 62
7
  6
CONTINUOUS
 90
92
 70
0
 10
143.6768057855
 20
121.2835080464
 10
143.682086325
 20
121.2665821285
 10
143.6876831478
 20
121.2503892695
 10
143.6935962539
 20
121.2349294696
 10
143.6998242965
 20
121.2202668412
 10
143.7063686224
 20
121.2063372717
 10
143.7132332715
 20
121.1929484241
 10
143.7204303826
 20
121.1800521774
 10
143.727947817
 20
121.1676966525
 10
143.735753199
 20
121.1558338754
 10
143.7438210323
 20
121.1444820997
 10
143.7521768132
 20
121.1336230719
 10
143.7608646548
 20
121.1231540569
 10
143.7698905159
 20
121.1130538828
 10
143.7792484376
 20
121.1033437216
 10
143.7889646565
 20
121.0939843552
 10
143.7990831034
 20
121.0849351031
 10
143.8095598476
 20
121.0762366456
 10
143.8202893331
 20
121.0679718055
 10
143.8312288372
 20
121.060172833
 10
143.8424210827
 20
121.0528074778
 10
143.8538886816
 20
121.0458618117
 10
143.8656133295
 20
121.0393380133
 10
143.8776133308
 20
121.033233904
 10
143.8899662105
 20
121.0275290195
 10
143.9026656788
 20
121.0222134278
 10
143.9157180256
 20
121.017297061
 10
143.9292196453
 20
121.0127892509
 10
143.9431632717
 20
121.0086792353
 10
143.957556171
 20
121.0049777766
 10
143.9725165369
 20
121.0017264938
 10
143.9880444088
 20
120.9989134275
 10
144.0041397472
 20
120.9965505373
 10
144.0209206271
 20
120.9947153204
 10
144.0386438612
 20
120.9934102447
 10
144.0570526368
 20
120.9926328424
 10
144.0754945907
 20
120.9924532075
 10
144.0938958266
 20
120.9929059557
 10
144.1123302408
 20
120.9939564713
 10
144.1303671597
 20
120.9955710004
 10
144.1478320872
 20
120.9977482494
 10
144.1648995194
 20
121.0004895119
 10
144.1816622713
 20
121.0037649144
 10
144.1981240435
 20
121.0075640709
 10
144.2142811354
 20
121.0118973673
 10
144.2302152604
 20
121.016766089
 10
144.2460059095
 20
121.0222029306
 10
144.2615735917
 20
121.0281751974
 10
144.2767615473
 20
121.0345860899
 10
144.2916059343
 20
121.0414656656
 10
144.3060705947
 20
121.0487838671
 10
144.319890294
 20
121.0563537224
 10
144.3328965587
 20
121.0640768806
 10
144.3452578624
 20
121.0720516926
 10
144.3572143906
 20
121.0803862396
 10
144.3688284465
 20
121.0891062682
 10
144.3800377271
 20
121.0981860318
 10
144.3908955083
 20
121.1076563712
 10
144.4014057922
 20
121.1175082526
 10
144.4115645769
 20
121.1277507099
 10
144.4214131329
 20
121.1384416852
 10
144.4309572373
 20
121.1495713636
 10
144.4401911131
 20
121.1611495601
 10
144.4491386998
 20
121.1732636621
 10
144.4578224965
 20
121.1859353747
 10
144.4662200042
 20
121.1991429929
 10
144.4742876652
 20
121.212908788
 10
144.4820464972
 20
121.227272309
 10
144.4894754826
 20
121.2421940071
 10
144.4964680114
 20
121.2575775064
 10
144.5029960898
 20
121.2733576871
 10
144.5090877116
 20
121.2895996692
 10
144.5147202489
 20
121.3064024363
 10
144.5199022647
 20
121.3237540752
 10
144.524625196
 20
121.3416664991
 10
144.5288407259
 20
121.3602744319
 10
144.532561052
 20
121.3795651125
 10
144.5357739767
 20
121.3995513018
 10
144.538394591
 20
121.4204060065
 10
144.5404287808
 20
121.4423909431
 10
144.5418706601
 20
121.465244395
 10
144.542617662
 20
121.4883542185
 10
144.5426288873
 20
121.5117722639
 10
144.5419452353
 20
121.535446681
 10
144.5405868368
 20
121.5586097749
 10
144.538546645
 20
121.5809588534
 10
144.5358317067
 20
121.6027966089
 10
144.5324832933
 20
121.6242634234
 10
144.5284965073
 20
121.6454166192
 10
144.5238762461
 20
121.6661988742
 10
144.5186784735
 20
121.6865786041
 10
144.5128230622
 20
121.7067230853
  0
LINE
  5
2FB
100
AcDbEntity
  8
ASSI
100
AcDbLine
 62
7
  6
CONTINUOUS
 10
147.6275145625
 20
97.3851161118
 11
148.1130580625
 21
95.6918271118
  0
LINE
  5
2FC
100
AcDbEntity
  8
ASSI
100
AcDbLine
 62
7
  6
CONTINUOUS
 10
148.3791680625
 20
96.5773416118
 11
147.8875210625
 21
98.2919441118
  0
LINE
  5
2FD
100
AcDbEntity
  8
0
100
AcDbLine
 62
7
  6
CONTINUOUS
 10
146.4337890625
 20
99.805778734
 11
146.2971413292
 21
100.3157550174
  0
LINE
  5
2FE
100
AcDbEntity
  8
0
100
AcDbLine
 62
7
  6
CONTINUOUS
 10
146.5587890625
 20
102.0523038285
 11
146.4219832761
 21
102.5628699742
  0
LINE
  5
2FF
100
AcDbEntity
  8
0
100
AcDbLine
 62
7
  6
CONTINUOUS
 10
146.6837890625
 20
103.547834871
 11
146.5471877403
 21
104.0576379459
  0
LINE
  5
300
100
AcDbEntity
  8
ASSI
100
AcDbLine
 62
7
  6
CONTINUOUS
 10
140.7712890625
 20
124.6550984938
 11
140.6837890625
 21
125.1377501501
  0
LWPOLYLINE
  5
301
100
AcDbEntity
  8
0
100
AcDbPolyline
 62
7
  6
CONTINUOUS
 90
91
 70
0
 10
147.9369924546
 20
120.0978341303
 10
147.9366658069
 20
120.1278280902
 10
147.9358211576
 20
120.1565965377
 10
147.9344585067
 20
120.1841394727
 10
147.9325545282
 20
120.2104290575
 10
147.9301325481
 20
120.2354931297
 10
147.9272625444
 20
120.2594152025
 10
147.9239427857
 20
120.2821965978
 10
147.9201750034
 20
120.3038359935
 10
147.9160343697
 20
120.3244129362
 10
147.9115186452
 20
120.3439273855
 10
147.9066300694
 20
120.3623793818
 10
147.9014505334
 20
120.3798485927
 10
147.8959779328
 20
120.3963332375
 10
147.8902143722
 20
120.411835097
 10
147.8842480559
 20
120.4264391802
 10
147.8780877065
 20
120.440129518
 10
147.8717246016
 20
120.4529220796
 10
147.8652207778
 20
120.4649497818
 10
147.8586215712
 20
120.4761809315
 10
147.8518816458
 20
120.4866472218
 10
147.8449270306
 20
120.4965766486
 10
147.8377170644
 20
120.506027177
 10
147.8302924084
 20
120.5149408419
 10
147.8227010756
 20
120.5233717441
 10
147.8149566903
 20
120.5313187356
 10
147.8070456282
 20
120.5387829646
 10
147.7989750293
 20
120.5458219766
 10
147.7907619351
 20
120.5524365256
 10
147.7823893041
 20
120.5586258578
 10
147.7738131526
 20
120.5644452565
 10
147.7650378641
 20
120.5699044568
 10
147.7560590551
 20
120.5749937236
 10
147.7468195915
 20
120.579739135
 10
147.7373256731
 20
120.5841493216
 10
147.7275711001
 20
120.5882156528
 10
147.7174801376
 20
120.5919383155
 10
147.707060454
 20
120.5953268338
 10
147.6963043809
 20
120.5983716835
 10
147.6851131788
 20
120.6010444791
 10
147.6734943997
 20
120.6033566904
 10
147.6614404916
 20
120.6052968476
 10
147.6488300585
 20
120.6068021552
 10
147.6354105086
 20
120.6078691525
 10
147.6214344336
 20
120.6085013002
 10
147.6075382127
 20
120.6086461849
 10
147.5937674723
 20
120.608262886
 10
147.5800765861
 20
120.607392324
 10
147.5669650542
 20
120.6061048469
 10
147.5546432083
 20
120.604403131
 10
147.5429007169
 20
120.6022844998
 10
147.5316060854
 20
120.5998112727
 10
147.5207489514
 20
120.5969947866
 10
147.5103396773
 20
120.5938237046
 10
147.5002778557
 20
120.5903263343
 10
147.4905548725
 20
120.5865115881
 10
147.4811793418
 20
120.5823705537
 10
147.4720766978
 20
120.5779048025
 10
147.463267666
 20
120.5731451463
 10
147.4547315209
 20
120.5680607732
 10
147.446331521
 20
120.5625608192
 10
147.4380597653
 20
120.5566596633
 10
147.4299241548
 20
120.5503429263
 10
147.421811651
 20
120.543476607
 10
147.41362898
 20
120.5359898261
 10
147.4054694156
 20
120.5279534629
 10
147.3974997417
 20
120.5194461531
 10
147.3897801081
 20
120.510530361
 10
147.3822503649
 20
120.5011436223
 10
147.374896846
 20
120.4911771805
 10
147.3677114317
 20
120.4806425153
 10
147.3607022416
 20
120.4695281469
 10
147.3538799691
 20
120.457690879
 10
147.347225037
 20
120.4451111347
 10
147.3407570223
 20
120.4318084909
 10
147.3345453498
 20
120.4176984811
 10
147.3285687101
 20
120.4027296316
 10
147.3228484124
 20
120.3869534162
 10
147.3175178092
 20
120.3704397902
 10
147.3126269547
 20
120.3533068326
 10
147.3081257947
 20
120.3354364645
 10
147.3039975191
 20
120.316544404
 10
147.3002204355
 20
120.2965539184
 10
147.2968162363
 20
120.2755417405
 10
147.2938331887
 20
120.2534537866
 10
147.2912731943
 20
120.2302939517
 10
147.2891343515
 20
120.2060583409
 10
147.2874592226
 20
120.180681186
 10
147.2862619949
 20
120.1541405645
 10
147.2855284812
 20
120.1264583991
 10
147.2852586812
 20
120.0976346896
  0
LINE
  5
302
100
AcDbEntity
  8
0
100
AcDbLine
 62
7
  6
CONTINUOUS
 10
148.2530695625
 20
120.5918791118
 11
148.2530695625
 21
119.5863071118
  0
LINE
  5
303
100
AcDbEntity
  8
0
100
AcDbLine
 62
7
  6
CONTINUOUS
 10
148.3761435625
 20
119.8083300833
 11
148.3761435625
 21
120.5918791118
  0
LINE
  5
304
100
AcDbEntity
  8
ASSI
100
AcDbLine
 62
7
  6
CONTINUOUS
 10
148.3791680625
 20
98.2919441118
 11
148.3791680625
 21
96.5773416118
  0
LINE
  5
305
100
AcDbEntity
  8
0
100
AcDbLine
 62
7
  6
CONTINUOUS
 10
148.6222920625
 20
119.8377001159
 11
148.6222920625
 21
119.9565567286
  0
LINE
  5
306
100
AcDbEntity
  8
0
100
AcDbLine
 62
7
  6
CONTINUOUS
 10
148.8376715625
 20
119.6981705762
 11
148.8376715625
 21
119.6030901118
  0
LINE
  5
307
100
AcDbEntity
  8
ASSI
100
AcDbLine
 62
7
  6
CONTINUOUS
 10
148.8991875625
 20
95.6918271118
 11
148.8991875625
 21
98.2919441118
  0
LINE
  5
308
100
AcDbEntity
  8
0
100
AcDbLine
 62
7
  6
CONTINUOUS
 10
149.2955210625
 20
121.8699692947
 11
149.2955210625
 21
121.4994211118
  0
LINE
  5
309
100
AcDbEntity
  8
ASSI
100
AcDbLine
 62
7
  6
CONTINUOUS
 10
149.4191940625
 20
98.2919441118
 11
149.4191875625
 21
95.6918271118
  0
LINE
  5
30A
100
AcDbEntity
  8
0
100
AcDbLine
 62
7
  6
CONTINUOUS
 10
149.4254090625
 20
121.6167396118
 11
149.4254090625
 21
121.8042393426
  0
LINE
  5
30B
100
AcDbEntity
  8
0
100
AcDbLine
 62
7
  6
CONTINUOUS
 10
149.4852100625
 20
119.6030901118
 11
149.4852100625
 21
119.7205696118
  0
LINE
  5
30C
100
AcDbEntity
  8
0
100
AcDbLine
 62
7
  6
CONTINUOUS
 10
149.7187050625
 20
121.4994211118
 11
149.7187050625
 21
121.6167396118
  0
LINE
  5
30D
100
AcDbEntity
  8
ASSI
100
AcDbLine
 62
7
  6
CONTINUOUS
 10
149.9392070625
 20
95.6918271118
 11
149.9392135625
 21
98.2919506118
  0
LINE
  5
30E
100
AcDbEntity
  8
0
100
AcDbLine
 62
7
  6
CONTINUOUS
 10
150.6837890625
 20
119.2918791118
 11
150.6837890625
 21
122.2918791118
  0
LINE
  5
30F
100
AcDbEntity
  8
0
100
AcDbLine
 62
7
  6
CONTINUOUS
 10
151.6837890625
 20
91.9488538491
 11
151.6837890625
 21
92.3648434693
  0
LINE
  5
310
100
AcDbEntity
  8
0
100
AcDbLine
 62
7
  6
CONTINUOUS
 10
151.6837890625
 20
125.2189147543
 11
151.6837890625
 21
125.6349043745
  0
LINE
  5
311
100
AcDbEntity
  8
ASSI
100
AcDbLine
 62
7
  6
CONTINUOUS
 10
152.1837890625
 20
92.5177431901
 11
152.1837890625
 21
92.097943087
  0
LINE
  5
312
100
AcDbEntity
  8
ASSI
100
AcDbLine
 62
7
  6
CONTINUOUS
 10
152.1837890625
 20
125.0660150336
 11
152.1837890625
 21
125.4858151366
  0
LWPOLYLINE
  5
313
100
AcDbEntity
  8
0
100
AcDbPolyline
 62
7
  6
CONTINUOUS
 90
97
 70
0
 10
147.8111211231
 20
120.0981837782
 10
147.8109865862
 20
120.0765216204
 10
147.8106156426
 20
120.0556049805
 10
147.8100082922
 20
120.0354338585
 10
147.8091592818
 20
120.0160242619
 10
147.8080738647
 20
119.9973601832
 10
147.8067678003
 20
119.9793935996
 10
147.805241662
 20
119.9621225943
 10
147.8034948764
 20
119.9455490841
 10
147.8015414832
 20
119.9296307973
 10
147.7993814989
 20
119.9143653169
 10
147.7970149069
 20
119.8997550599
 10
147.7944556971
 20
119.8857650055
 10
147.7917031996
 20
119.8723928287
 10
147.7887580843
 20
119.8596408546
 10
147.7856363506
 20
119.8474810373
 10
147.7823366399
 20
119.8359119586
 10
147.7788603107
 20
119.8249350368
 10
147.7752274381
 20
119.8145264809
 10
147.7714352484
 20
119.8046855582
 10
147.7674865154
 20
119.7954130014
 10
147.7634096348
 20
119.7866872175
 10
147.7592687588
 20
119.7785882544
 10
147.7549997353
 20
119.7710360642
 10
147.7504385036
 20
119.7637689094
 10
147.7454784224
 20
119.7566645077
 10
147.740226133
 20
119.7498451415
 10
147.7348374989
 20
119.7434159205
 10
147.729339424
 20
119.7374067159
 10
147.7237050044
 20
119.7317876566
 10
147.7180093919
 20
119.7265742394
 10
147.7122896262
 20
119.7217960345
 10
147.7065086677
 20
119.7174234718
 10
147.7006305491
 20
119.7133833372
 10
147.6946563756
 20
119.7096632233
 10
147.688585042
 20
119.7062755376
 10
147.6823772665
 20
119.7031842889
 10
147.6760413067
 20
119.7003813434
 10
147.6695689051
 20
119.6978748348
 10
147.6628960073
 20
119.6956531729
 10
147.6560244704
 20
119.6937052675
 10
147.6489524374
 20
119.6920422087
 10
147.6416102827
 20
119.6906856766
 10
147.6338865888
 20
119.6896307519
 10
147.6258927732
 20
119.6888823539
 10
147.6178934627
 20
119.6884769199
 10
147.609899403
 20
119.6884326287
 10
147.6018998485
 20
119.6887313015
 10
147.5941271893
 20
119.6893548397
 10
147.5866840695
 20
119.6903029744
 10
147.579467845
 20
119.6915759744
 10
147.5724029737
 20
119.6931565478
 10
147.5654829781
 20
119.6950345507
 10
147.5587143355
 20
119.6972201268
 10
147.5520409367
 20
119.699726415
 10
147.5454586818
 20
119.702543649
 10
147.5389716706
 20
119.7056815951
 10
147.5325360931
 20
119.7091826908
 10
147.5261475886
 20
119.7130373839
 10
147.5198105178
 20
119.7172552266
 10
147.5134941539
 20
119.7219073127
 10
147.5071051525
 20
119.7270963311
 10
147.5007368579
 20
119.7327195928
 10
147.4946385759
 20
119.7385401249
 10
147.4888495905
 20
119.7445784156
 10
147.4833306177
 20
119.7508139766
 10
147.4782131107
 20
119.7569483699
 10
147.4735930009
 20
119.7627973304
 10
147.469374357
 20
119.7685451231
 10
147.4654008386
 20
119.7744461055
 10
147.4616670608
 20
119.7804921737
 10
147.4581784084
 20
119.7866914315
 10
147.4547946957
 20
119.7933225472
 10
147.4514646441
 20
119.8004752977
 10
147.4482395322
 20
119.808059906
 10
147.4451330101
 20
119.8160857096
 10
147.4421466653
 20
119.8245506929
 10
147.4392789102
 20
119.8334568715
 10
147.4365386329
 20
119.8428196291
 10
147.4339267477
 20
119.8526377099
 10
147.4314423402
 20
119.8629123697
 10
147.4290915545
 20
119.87366276
 10
147.4268743556
 20
119.8848864118
 10
147.4247907786
 20
119.8965857941
 10
147.4228470732
 20
119.9087874647
 10
147.4210431088
 20
119.9214898776
 10
147.4193790161
 20
119.9346945789
 10
147.4178614369
 20
119.948432764
 10
147.416489801
 20
119.9627022924
 10
147.4152646786
 20
119.9775053047
 10
147.4141944223
 20
119.9928794177
 10
147.4132785453
 20
120.0088230703
 10
147.4125175345
 20
120.0253378237
 10
147.4119212021
 20
120.0424659778
 10
147.411492819
 20
120.0602216327
 10
147.4112291144
 20
120.0785906883
 10
147.4111300883
 20
120.0975731447
  0
LWPOLYLINE
  5
314
100
AcDbEntity
  8
0
100
AcDbPolyline
 62
7
  6
CONTINUOUS
 90
31
 70
0
 10
149.2194814658
 20
120.5918791118
 10
149.2163771377
 20
120.5544062678
 10
149.212602819
 20
120.5183384194
 10
149.2081585099
 20
120.4836755665
 10
149.2030106755
 20
120.4505182201
 10
149.1971928507
 20
120.4187658692
 10
149.1908056397
 20
120.3881169816
 10
149.1839546332
 20
120.3589893833
 10
149.1765342406
 20
120.3309652481
 10
149.1683282935
 20
120.3024895655
 10
149.1593892387
 20
120.2732695515
 10
149.1496646295
 20
120.24359799
 10
149.1387809576
 20
120.2127982221
 10
149.1266760873
 20
120.1805735376
 10
149.1134121543
 20
120.1472206468
 10
149.0988020578
 20
120.1129530209
 10
149.0824393647
 20
120.0771368762
 10
149.0647305081
 20
120.0404059964
 10
149.0467076865
 20
120.0048752044
 10
149.028548703
 20
119.971111646
 10
149.0100757545
 20
119.9385481754
 10
148.9917876301
 20
119.9075981776
 10
148.9738446551
 20
119.8784449332
 10
148.9560865042
 20
119.8509051616
 10
148.9385309899
 20
119.8248424068
 10
148.9211772841
 20
119.8002496925
 10
148.9040262149
 20
119.7771339951
 10
148.8870980785
 20
119.7553797874
 10
148.8703996404
 20
119.7349485605
 10
148.853924135
 20
119.7158788235
 10
148.8376715625
 20
119.6981705762
  0
LINE
  5
315
100
AcDbEntity
  8
ASSI
100
AcDbLine
 62
7
  6
CONTINUOUS
 10
153.1837890625
 20
125.1377501501
 11
153.0962890625
 21
124.6550984938
  0
LINE
  5
316
100
AcDbEntity
  8
0
100
AcDbLine
 62
7
  6
CONTINUOUS
 10
147.3203903847
 20
104.0576379459
 11
147.1837890625
 21
103.547834871
  0
LINE
  5
317
100
AcDbEntity
  8
0
100
AcDbLine
 62
7
  6
CONTINUOUS
 10
147.4455948489
 20
102.5628699742
 11
147.3087890625
 21
102.0523038285
  0
LINE
  5
318
100
AcDbEntity
  8
0
100
AcDbLine
 62
7
  6
CONTINUOUS
 10
147.5704367958
 20
100.3157550174
 11
147.4337890625
 21
99.805778734
  0
LINE
  5
319
100
AcDbEntity
  8
ASSI
100
AcDbLine
 62
7
  6
CONTINUOUS
 10
147.3675145625
 20
98.2919376118
 11
146.8758675625
 21
96.5773416118
  0
LINE
  5
31A
100
AcDbEntity
  8
ASSI
100
AcDbLine
 62
7
  6
CONTINUOUS
 10
147.1419710625
 20
95.6918271118
 11
147.6275145625
 21
97.3851161118
  0
LINE
  5
31B
100
AcDbEntity
  8
ASSI
100
AcDbLine
 62
7
  6
CONTINUOUS
 10
145.1663545625
 20
97.2865891118
 11
144.9143430625
 21
96.5016231118
  0
LINE
  5
31C
100
AcDbEntity
  8
ASSI
100
AcDbLine
 62
7
  6
CONTINUOUS
 10
145.4891445625
 20
98.2919376118
 11
145.3249740625
 21
97.7806086118
  0
LINE
  5
31D
100
AcDbEntity
  8
ASSI
100
AcDbLine
 62
7
  6
CONTINUOUS
 10
145.1743625625
 20
95.6918206118
 11
146.0091640625
 21
98.2919441118
  0
LINE
  5
31E
100
AcDbEntity
  8
0
100
AcDbLine
 62
7
  6
CONTINUOUS
 10
142.1852359885
 20
108.6746455699
 11
141.6897448216
 21
108.5418791118
  0
LINE
  5
31F
100
AcDbEntity
  8
0
100
AcDbLine
 62
7
  6
CONTINUOUS
 10
140.1942137791
 20
109.1668791118
 11
140.7047799248
 21
109.3036848983
  0
LINE
  5
320
100
AcDbEntity
  8
0
100
AcDbLine
 62
7
  6
CONTINUOUS
 10
137.9476886847
 20
109.2918791118
 11
138.4576649681
 21
109.4285268451
  0
LINE
  5
321
100
AcDbEntity
  8
0
100
AcDbLine
 62
7
  6
CONTINUOUS
 10
162.7970084445
 20
114.9543791118
 11
163.2796601008
 21
115.0418791118
  0
LINE
  5
322
100
AcDbEntity
  8
ASSI
100
AcDbLine
 62
7
  6
CONTINUOUS
 10
133.0972935625
 20
109.6359016118
 11
133.3064565625
 21
109.6359016118
  0
LINE
  5
323
100
AcDbEntity
  8
ASSI
100
AcDbLine
 62
7
  6
CONTINUOUS
 10
133.5579880625
 20
109.6359016118
 11
133.7672325625
 21
109.6359016118
  0
LINE
  5
324
100
AcDbEntity
  8
0
100
AcDbLine
 62
7
  6
CONTINUOUS
 10
157.5795625625
 20
109.6662756118
 11
157.7581850625
 21
109.6662756118
  0
LINE
  5
325
100
AcDbEntity
  8
0
100
AcDbLine
 62
7
  6
CONTINUOUS
 10
158.4038825625
 20
109.6662756118
 11
158.5809580625
 21
109.6662756118
  0
LINE
  5
326
100
AcDbEntity
  8
0
100
AcDbLine
 62
7
  6
CONTINUOUS
 10
158.9680490625
 20
109.6662756118
 11
159.1200100625
 21
109.6662756118
  0
LINE
  5
327
100
AcDbEntity
  8
0
100
AcDbLine
 62
7
  6
CONTINUOUS
 10
159.6669785625
 20
109.6662756118
 11
159.8393225625
 21
109.6662756118
  0
LINE
  5
328
100
AcDbEntity
  8
0
100
AcDbLine
 62
7
  6
CONTINUOUS
 10
160.3063065625
 20
109.6662756118
 11
161.2198925625
 21
109.6662756118
  0
LINE
  5
329
100
AcDbEntity
  8
0
100
AcDbLine
 62
7
  6
CONTINUOUS
 10
161.3829550625
 20
109.6662756118
 11
161.5350070625
 21
109.6662756118
  0
LINE
  5
32A
100
AcDbEntity
  8
0
100
AcDbLine
 62
7
  6
CONTINUOUS
 10
161.2198925625
 20
109.8009476118
 11
160.8390800625
 21
109.8009476118
  0
LINE
  5
32B
100
AcDbEntity
  8
0
100
AcDbLine
 62
7
  6
CONTINUOUS
 10
160.6871190625
 20
109.8009476118
 11
160.3063065625
 21
109.8009476118
  0
LINE
  5
32C
100
AcDbEntity
  8
ASSI
100
AcDbLine
 62
7
  6
CONTINUOUS
 10
133.7672325625
 20
109.8720121118
 11
133.0972935625
 21
109.8720121118
  0
LINE
  5
32D
100
AcDbEntity
  8
0
100
AcDbLine
 62
7
  6
CONTINUOUS
 10
159.5917260625
 20
110.3296266118
 11
159.9412365625
 21
110.3296266118
  0
LINE
  5
32E
100
AcDbEntity
  8
0
100
AcDbLine
 62
7
  6
CONTINUOUS
 10
159.9881895625
 20
110.4642986118
 11
159.5368565625
 21
110.4642986118
  0
LINE
  5
32F
100
AcDbEntity
  8
0
100
AcDbLine
 62
7
  6
CONTINUOUS
 10
158.3976040625
 20
110.6572071118
 11
158.9680490625
 21
110.6572071118
  0
LINE
  5
330
100
AcDbEntity
  8
0
100
AcDbLine
 62
7
  6
CONTINUOUS
 10
161.5350070625
 20
110.7918791118
 11
161.3829550625
 21
110.7918791118
  0
LINE
  5
331
100
AcDbEntity
  8
0
100
AcDbLine
 62
7
  6
CONTINUOUS
 10
160.8390800625
 20
110.7918791118
 11
160.6871190625
 21
110.7918791118
  0
LINE
  5
332
100
AcDbEntity
  8
0
100
AcDbLine
 62
7
  6
CONTINUOUS
 10
160.2624475625
 20
110.7918791118
 11
160.1057545625
 21
110.7918791118
  0
LINE
  5
333
100
AcDbEntity
  8
0
100
AcDbLine
 62
7
  6
CONTINUOUS
 10
159.4255700625
 20
110.7918791118
 11
159.2595050625
 21
110.7918791118
  0
LINE
  5
334
100
AcDbEntity
  8
0
100
AcDbLine
 62
7
  6
CONTINUOUS
 10
159.1200100625
 20
110.7918791118
 11
158.3976040625
 21
110.7918791118
  0
LINE
  5
335
100
AcDbEntity
  8
0
100
AcDbLine
 62
7
  6
CONTINUOUS
 10
158.1561950625
 20
110.7918791118
 11
158.0042340625
 21
110.7918791118
  0
LINE
  5
336
100
AcDbEntity
  8
0
100
AcDbLine
 62
7
  6
CONTINUOUS
 10
130.0907637998
 20
113.5418791118
 11
130.50675342
 21
113.5418791118
  0
LINE
  5
337
100
AcDbEntity
  8
0
100
AcDbLine
 62
7
  6
CONTINUOUS
 10
163.360824705
 20
113.5418791118
 11
163.7768143252
 21
113.5418791118
  0
LINE
  5
338
100
AcDbEntity
  8
0
100
AcDbLine
 62
7
  6
CONTINUOUS
 10
163.6277250873
 20
114.0418791118
 11
163.2079249843
 21
114.0418791118
  0
LINE
  5
339
100
AcDbEntity
  8
0
100
AcDbLine
 62
7
  6
CONTINUOUS
 10
130.6596531407
 20
114.0418791118
 11
130.2398530377
 21
114.0418791118
  0
LINE
  5
33A
100
AcDbEntity
  8
0
100
AcDbLine
 62
7
  6
CONTINUOUS
 10
130.5879180242
 20
115.0418791118
 11
131.0705696805
 21
114.9543791118
  0
LINE
  5
33B
100
AcDbEntity
  8
0
100
AcDbLine
 62
7
  6
CONTINUOUS
 10
152.1778333034
 20
108.5418791118
 11
151.6823421365
 21
108.6746455699
  0
LINE
  5
33C
100
AcDbEntity
  8
0
100
AcDbLine
 62
7
  6
CONTINUOUS
 10
153.1627982002
 20
109.3036848983
 11
153.6733643459
 21
109.1668791118
  0
LINE
  5
33D
100
AcDbEntity
  8
0
100
AcDbLine
 62
7
  6
CONTINUOUS
 10
155.4099131569
 20
109.4285268451
 11
155.9198894403
 21
109.2918791118
  0
LINE
  5
33E
100
AcDbEntity
  8
0
100
AcDbLine
 62
7
  6
CONTINUOUS
 10
144.3453947014
 20
120.5918791118
 11
144.7337635743
 21
119.5863071118
  0
LINE
  5
33F
100
AcDbEntity
  8
0
100
AcDbLine
 62
7
  6
CONTINUOUS
 10
144.6056640324
 20
120.2895546619
 11
144.4889012289
 21
120.5918791118
  0
LWPOLYLINE
  5
340
100
AcDbEntity
  8
0
100
AcDbPolyline
 62
7
  6
CONTINUOUS
 90
75
 70
0
 10
144.5128230622
 20
121.7067230853
 10
144.5063901393
 20
121.7264650415
 10
144.4996760503
 20
121.7452710598
 10
144.4927687081
 20
121.7629241258
 10
144.4855801997
 20
121.779641254
 10
144.4781431314
 20
121.7955400736
 10
144.4704685653
 20
121.8106034065
 10
144.4625454393
 20
121.824848431
 10
144.4543731732
 20
121.8384443115
 10
144.4459536148
 20
121.8514094049
 10
144.4372849164
 20
121.8637253544
 10
144.4283609551
 20
121.8755062535
 10
144.4191876055
 20
121.8867630313
 10
144.4097589931
 20
121.8974847589
 10
144.4000513711
 20
121.9077527428
 10
144.3900548197
 20
121.9175859894
 10
144.3797792587
 20
121.9269654923
 10
144.3692307016
 20
121.9359155394
 10
144.3583479649
 20
121.9444818501
 10
144.3471922321
 20
121.952618705
 10
144.3359530669
 20
121.9602132334
 10
144.3248222698
 20
121.9671572817
 10
144.3136080403
 20
121.9735590036
 10
144.3019245407
 20
121.9796299891
 10
144.2896993843
 20
121.9854404332
 10
144.2770049578
 20
121.9909201409
 10
144.2636725831
 20
121.9960701178
 10
144.2497032732
 20
122.0009094532
 10
144.2350960152
 20
122.0054190578
 10
144.2196790923
 20
122.0095426685
 10
144.2034379662
 20
122.0132958042
 10
144.1863871751
 20
122.016662946
 10
144.1683986172
 20
122.019541275
 10
144.1490436064
 20
122.0219275977
 10
144.1287508288
 20
122.0238251075
 10
144.1086782405
 20
122.0251405665
 10
144.0890292845
 20
122.0258344922
 10
144.0696005178
 20
122.025946367
 10
144.050939568
 20
122.0255013999
 10
144.0332951709
 20
122.0244863195
 10
144.0164185906
 20
122.0229143972
 10
144.0001112471
 20
122.0208506573
 10
143.9843482732
 20
122.0183005537
 10
143.9691545359
 20
122.0152586325
 10
143.9544060565
 20
122.011773555
 10
143.9400921086
 20
122.0078551872
 10
143.9262234186
 20
122.0034936632
 10
143.9127081864
 20
121.9987080472
 10
143.8995423808
 20
121.9935087906
 10
143.886730033
 20
121.987885442
 10
143.874191437
 20
121.981825711
 10
143.8619083991
 20
121.9753289281
 10
143.8498991128
 20
121.9683957629
 10
143.8381384535
 20
121.9610159339
 10
143.8265725061
 20
121.9531513128
 10
143.8152551855
 20
121.9448400279
 10
143.8043231117
 20
121.9361861831
 10
143.7938516012
 20
121.9272536918
 10
143.7837653374
 20
121.9179786405
 10
143.7739749911
 20
121.9082733928
 10
143.7644601269
 20
121.8981349175
 10
143.7552411802
 20
121.8875662459
 10
143.7462901282
 20
121.8764888354
 10
143.737600295
 20
121.864913154
 10
143.7291783565
 20
121.8528287336
 10
143.7210163173
 20
121.8401256281
 10
143.7131063056
 20
121.8268162002
 10
143.7054561933
 20
121.812888087
 10
143.6980816005
 20
121.7981942547
 10
143.6909731075
 20
121.7827500802
 10
143.684140134
 20
121.7665401865
 10
143.6776265596
 20
121.7493714081
 10
143.6714470107
 20
121.7311793567
 10
143.665586861
 20
121.7120284206
 10
143.6600461103
 20
121.6919185998
  0
LINE
  5
341
100
AcDbEntity
  8
ASSI
100
AcDbLine
 62
7
  6
CONTINUOUS
 10
151.3807120625
 20
97.4821481118
 11
151.9555200625
 21
95.6918271118
  0
LINE
  5
342
100
AcDbEntity
  8
ASSI
100
AcDbLine
 62
7
  6
CONTINUOUS
 10
152.4755460625
 20
95.6918271118
 11
151.6407380625
 21
98.2919506118
  0
LWPOLYLINE
  5
343
100
AcDbEntity
  8
0
100
AcDbPolyline
 62
7
  6
CONTINUOUS
 90
8
 70
0
 10
144.823075559
 20
119.6939969469
 10
144.8122082376
 20
119.7287573011
 10
144.8004973393
 20
119.7646425168
 10
144.7879428641
 20
119.801652594
 10
144.7744487694
 20
119.8398349664
 10
144.7601110977
 20
119.8791422003
 10
144.7452179768
 20
119.9194319954
 10
144.6467463609
 20
120.1806996118
  0
LINE
  5
344
100
AcDbEntity
  8
0
100
AcDbLine
 62
7
  6
CONTINUOUS
 10
148.3572857481
 20
121.3928725312
 11
148.4658464805
 21
121.0091976118
  0
LINE
  5
345
100
AcDbEntity
  8
0
100
AcDbLine
 62
7
  6
CONTINUOUS
 10
148.5490125155
 20
121.1299421239
 11
148.3069559269
 21
122.0091976118
  0
LINE
  5
346
100
AcDbEntity
  8
0
100
AcDbLine
 62
7
  6
CONTINUOUS
 10
147.1837890625
 20
114.0359233527
 11
147.3203903847
 21
113.5261202778
  0
LINE
  5
347
100
AcDbEntity
  8
0
100
AcDbLine
 62
7
  6
CONTINUOUS
 10
147.3087890625
 20
115.5314543952
 11
147.4455948489
 21
115.0208882495
  0
LINE
  5
348
100
AcDbEntity
  8
0
100
AcDbLine
 62
7
  6
CONTINUOUS
 10
147.4337890625
 20
117.7779794896
 11
147.5704367958
 21
117.2680032062
  0
LINE
  5
349
100
AcDbEntity
  8
0
100
AcDbLine
 62
7
  6
CONTINUOUS
 10
149.1907720625
 20
121.0091976118
 11
148.9276130625
 21
122.0091976118
  0
LWPOLYLINE
  5
34A
100
AcDbEntity
  8
0
100
AcDbPolyline
 62
7
  6
CONTINUOUS
 90
3
 70
0
 10
148.9168233699
 20
121.6052255445
 10
148.9491383009
 20
121.4654611241
 10
148.9656555799
 20
121.3933060046
  0
LINE
  5
34B
100
AcDbEntity
  8
0
100
AcDbLine
 62
7
  6
CONTINUOUS
 10
148.9656555799
 20
121.3933060046
 11
149.0535516123
 21
121.0091976118
  0
LWPOLYLINE
  5
34C
100
AcDbEntity
  8
0
100
AcDbPolyline
 62
7
  6
CONTINUOUS
 90
5
 70
0
 10
148.8604650295
 20
121.8693581595
 10
148.8734396407
 20
121.8052032354
 10
148.8871359589
 20
121.7397838119
 10
148.901553984
 20
121.673099889
 10
148.9168233699
 20
121.6052255445
  0
LINE
  5
34D
100
AcDbEntity
  8
ASSI
100
AcDbLine
 62
7
  6
CONTINUOUS
 10
153.0962890625
 20
92.9286597299
 11
153.1837890625
 21
92.4460080736
  0
LWPOLYLINE
  5
34E
100
AcDbEntity
  8
0
100
AcDbPolyline
 62
7
  6
CONTINUOUS
 90
63
 70
0
 10
146.0154944487
 20
121.6186854438
 10
146.0178510282
 20
121.6054204246
 10
146.0205988441
 20
121.5926161439
 10
146.0237269787
 20
121.5802657394
 10
146.0272463498
 20
121.5683760734
 10
146.0311291325
 20
121.5568479192
 10
146.0353653355
 20
121.5456751166
 10
146.0399649501
 20
121.5348638257
 10
146.0449301253
 20
121.524333301
 10
146.0502526058
 20
121.5140762558
 10
146.0559406468
 20
121.5040999768
 10
146.062021163
 20
121.4943455775
 10
146.0684703342
 20
121.4848237609
 10
146.0753119805
 20
121.4755238241
 10
146.0826444774
 20
121.4663547723
 10
146.0905752376
 20
121.457206051
 10
146.0989968483
 20
121.4481882147
 10
146.1076854468
 20
121.4395419322
 10
146.116640017
 20
121.4312936024
 10
146.125861575
 20
121.4234168265
 10
146.1351293059
 20
121.4160730766
 10
146.1443532806
 20
121.4093444661
 10
146.1536234282
 20
121.4031488816
 10
146.1629887211
 20
121.3974014558
 10
146.1724480951
 20
121.3920891247
 10
146.1820026144
 20
121.3872249522
 10
146.1917044431
 20
121.3827632634
 10
146.2015503921
 20
121.378694115
 10
146.2115436506
 20
121.3750274503
 10
146.2217459503
 20
121.3717474231
 10
146.2321526394
 20
121.3688445527
 10
146.2427683697
 20
121.3663283198
 10
146.2536688294
 20
121.3642113211
 10
146.2649365047
 20
121.36248546
 10
146.2764889094
 20
121.361158833
 10
146.288154272
 20
121.3602683262
 10
146.2999778881
 20
121.359825158
 10
146.3119144622
 20
121.3598181101
 10
146.323656336
 20
121.3602504132
 10
146.3350650261
 20
121.361124518
 10
146.3462790158
 20
121.3624379739
 10
146.357406097
 20
121.3641866596
 10
146.3684657294
 20
121.3663627197
 10
146.3794384532
 20
121.3689740096
 10
146.3903736801
 20
121.3720399739
 10
146.4013976246
 20
121.3756203045
 10
146.4123840723
 20
121.3796553094
 10
146.4230037912
 20
121.3839853578
 10
146.4331419071
 20
121.3885601232
 10
146.4429132944
 20
121.3934299322
 10
146.4523333442
 20
121.3985861336
 10
146.4613400378
 20
121.4039819802
 10
146.4699953939
 20
121.4096642192
 10
146.4785008608
 20
121.4157644419
 10
146.4869161722
 20
121.4223035053
 10
146.4951815943
 20
121.4292605524
 10
146.5033193737
 20
121.436704602
 10
146.5113294887
 20
121.44462128
 10
146.519211961
 20
121.4530249606
 10
146.5269891021
 20
121.4620277859
 10
146.5346683493
 20
121.4716671364
 10
146.5422422653
 20
121.4819056315
 10
146.5497108502
 20
121.4927432712
  0
LWPOLYLINE
  5
34F
100
AcDbEntity
  8
0
100
AcDbPolyline
 62
7
  6
CONTINUOUS
 90
63
 70
0
 10
147.4374175661
 20
121.4088098776
 10
147.4350503766
 20
121.4226198889
 10
147.4322911954
 20
121.4358957423
 10
147.4291550133
 20
121.4486431222
 10
147.4256268396
 20
121.4608563442
 10
147.4217357051
 20
121.4726661794
 10
147.4174850583
 20
121.4840944611
 10
147.4128714507
 20
121.4951193561
 10
147.4079135678
 20
121.5058061353
 10
147.4026271008
 20
121.5161496018
 10
147.3969963586
 20
121.5261549525
 10
147.390992953
 20
121.5359030498
 10
147.3846402831
 20
121.5453861289
 10
147.37791495
 20
121.5546119547
 10
147.3707183679
 20
121.5636846832
 10
147.3629586175
 20
121.5727022765
 10
147.3547276182
 20
121.5815667726
 10
147.3462025433
 20
121.5900884415
 10
147.3373676678
 20
121.5982621062
 10
147.3282387168
 20
121.6060929438
 10
147.3190400376
 20
121.6134067557
 10
147.3098599351
 20
121.6201210636
 10
147.3006101044
 20
121.6263183457
 10
147.2912499797
 20
121.6320718393
 10
147.281784037
 20
121.6373915747
 10
147.2722078001
 20
121.6422675214
 10
147.2624672745
 20
121.6467428255
 10
147.2525660599
 20
121.6508274862
 10
147.2425005565
 20
121.6545115042
 10
147.2322059703
 20
121.6578080281
 10
147.2216869553
 20
121.6607269362
 10
147.2109388574
 20
121.6632583502
 10
147.1998829211
 20
121.6653857832
 10
147.1884114565
 20
121.6671167028
 10
147.1766321534
 20
121.6684436414
 10
147.1647893251
 20
121.6693277095
 10
147.1528429433
 20
121.6697528408
 10
147.1408330362
 20
121.6697351016
 10
147.1291240018
 20
121.6692838011
 10
147.1178785855
 20
121.6683948221
 10
147.1069340418
 20
121.6670722819
 10
147.0961665321
 20
121.6653378413
 10
147.0855571683
 20
121.6632014059
 10
147.0751248385
 20
121.6606530702
 10
147.0648023683
 20
121.6576847782
 10
147.0545917057
 20
121.6543096376
 10
147.0444909027
 20
121.6505145407
 10
147.0344269417
 20
121.6462521083
 10
147.0243624083
 20
121.6415057495
 10
147.0143347169
 20
121.6362920553
 10
147.0043830927
 20
121.6306134189
 10
146.9944008744
 20
121.6243937007
 10
146.9844947234
 20
121.6177090403
 10
146.9750238489
 20
121.610790251
 10
146.9661243141
 20
121.603715646
 10
146.9576600559
 20
121.5964069121
 10
146.9495820942
 20
121.5888599227
 10
146.9418918502
 20
121.5810876868
 10
146.9345879028
 20
121.5730771953
 10
146.9276170082
 20
121.5647852952
 10
146.9209614185
 20
121.5561976019
 10
146.9146388817
 20
121.5473284999
 10
146.9086493977
 20
121.5381779892
  0
LWPOLYLINE
  5
350
100
AcDbEntity
  8
0
100
AcDbPolyline
 62
7
  6
CONTINUOUS
 90
85
 70
0
 10
146.7971063244
 20
121.3202971729
 10
146.8000147775
 20
121.3032237033
 10
146.8032156497
 20
121.2869547533
 10
146.8067081899
 20
121.2714955698
 10
146.8104931492
 20
121.256840906
 10
146.8145464524
 20
121.2429375075
 10
146.8187859503
 20
121.2299893169
 10
146.8232937919
 20
121.2177923917
 10
146.8282923494
 20
121.2056816493
 10
146.8339074797
 20
121.1933349404
 10
146.8400133259
 20
121.1810744143
 10
146.8464546896
 20
121.1692014372
 10
146.8532094352
 20
121.1577847974
 10
146.8602996982
 20
121.1467557065
 10
146.8676366863
 20
121.1362091651
 10
146.8751853674
 20
121.126201729
 10
146.8829807736
 20
121.1166768425
 10
146.8910392093
 20
121.1075598387
 10
146.8993496696
 20
121.0988466944
 10
146.9079231593
 20
121.0905414329
 10
146.9168089975
 20
121.0825814569
 10
146.9259793965
 20
121.0749716076
 10
146.935462144
 20
121.0677070439
 10
146.9453899214
 20
121.0607106449
 10
146.9559204336
 20
121.0538862835
 10
146.9668959759
 20
121.0473300868
 10
146.9779761157
 20
121.0412533161
 10
146.9890451318
 20
121.0357326923
 10
147.0002187455
 20
121.0306914945
 10
147.0115036879
 20
121.0261108208
 10
147.0228810381
 20
121.0219911058
 10
147.034369717
 20
121.018331915
 10
147.046033219
 20
121.0151130424
 10
147.0578679801
 20
121.0123245785
 10
147.0698775643
 20
121.0099764329
 10
147.0821361577
 20
121.0080781284
 10
147.0946747079
 20
121.006622808
 10
147.1074622672
 20
121.0056173288
 10
147.1204801795
 20
121.0050917852
 10
147.133915671
 20
121.0050646149
 10
147.1475815155
 20
121.0055173803
 10
147.1608973774
 20
121.0064248629
 10
147.1736724584
 20
121.0077949957
 10
147.186097557
 20
121.0096198457
 10
147.1981647329
 20
121.0118503958
 10
147.2098431609
 20
121.0144763978
 10
147.2211636663
 20
121.0175081
 10
147.2322107847
 20
121.0209272291
 10
147.2429899804
 20
121.024724139
 10
147.2534957891
 20
121.0289084759
 10
147.2637963547
 20
121.0334909056
 10
147.2738965799
 20
121.0384622598
 10
147.283791562
 20
121.0438317069
 10
147.2935347361
 20
121.0496374184
 10
147.303129831
 20
121.0558690412
 10
147.312573118
 20
121.0625369284
 10
147.3219068456
 20
121.0697103113
 10
147.3312366725
 20
121.0774921208
 10
147.3404569401
 20
121.0857794259
 10
147.3492929215
 20
121.0943326646
 10
147.3576691563
 20
121.1030939371
 10
147.3656611049
 20
121.1121211432
 10
147.3732204218
 20
121.1213484208
 10
147.3803109381
 20
121.1307301465
 10
147.3869688227
 20
121.1403119437
 10
147.3932542377
 20
121.1501648198
 10
147.3991818864
 20
121.1602886979
 10
147.4047370654
 20
121.170683655
 10
147.4099358265
 20
121.1814209305
 10
147.4147872719
 20
121.1924937121
 10
147.4192822994
 20
121.2039088121
 10
147.4234096546
 20
121.2157579057
 10
147.4271793495
 20
121.2280315109
 10
147.4305813721
 20
121.2407391098
 10
147.4335744319
 20
121.2540008236
 10
147.4361710479
 20
121.2678139364
 10
147.438358701
 20
121.282181164
 10
147.4400585441
 20
121.2972307756
 10
147.4412641888
 20
121.3132943112
 10
147.4419820235
 20
121.3300402308
 10
147.4421523662
 20
121.346602183
 10
147.4417281573
 20
121.362857389
 10
147.4407564564
 20
121.3789286277
 10
147.4393187601
 20
121.3943178838
 10
147.4374175661
 20
121.4088098776
  0
LWPOLYLINE
  5
351
100
AcDbEntity
  8
0
100
AcDbPolyline
 62
7
  6
CONTINUOUS
 90
86
 70
0
 10
146.6607512053
 20
121.6956154517
 10
146.657420692
 20
121.7158669214
 10
146.6536720589
 20
121.7350796709
 10
146.6495808742
 20
121.7533247374
 10
146.6451447048
 20
121.7706012051
 10
146.6403659839
 20
121.78690999
 10
146.6353275802
 20
121.802324877
 10
146.6300306295
 20
121.8168386465
 10
146.6244739959
 20
121.8304585182
 10
146.6187371404
 20
121.8432799367
 10
146.6128318985
 20
121.855288497
 10
146.6067464346
 20
121.8664986041
 10
146.6005247035
 20
121.8770489173
 10
146.5942398538
 20
121.8868652079
 10
146.5878187368
 20
121.8960217045
 10
146.5810858614
 20
121.904879753
 10
146.5740686917
 20
121.9134581444
 10
146.5667397636
 20
121.9217380876
 10
146.5588411937
 20
121.9300245555
 10
146.5501557248
 20
121.9385715318
 10
146.540900614
 20
121.9471250328
 10
146.5314697493
 20
121.95522808
 10
146.5219871228
 20
121.9627259789
 10
146.5123287423
 20
121.969773424
 10
146.5025165191
 20
121.9763775204
 10
146.4925756669
 20
121.9825267388
 10
146.4824809719
 20
121.9882326085
 10
146.4721787043
 20
121.9935368234
 10
146.4616729796
 20
121.9984488322
 10
146.4509596823
 20
122.002959186
 10
146.4399727365
 20
122.0070812328
 10
146.428718327
 20
122.0108241044
 10
146.4171902689
 20
122.0141786688
 10
146.405303932
 20
122.0171308783
 10
146.3930506078
 20
122.0196913719
 10
146.3804390047
 20
122.0218495105
 10
146.3674106183
 20
122.0235593295
 10
146.3537295905
 20
122.0248173069
 10
146.3396317793
 20
122.0256269648
 10
146.3257662543
 20
122.025952905
 10
146.3122942555
 20
122.0257684759
 10
146.2990545429
 20
122.0251003292
 10
146.2862124659
 20
122.0239930216
 10
146.273855664
 20
122.0224488665
 10
146.2618964977
 20
122.0204655504
 10
146.2502373984
 20
122.0180806894
 10
146.238871174
 20
122.0153044848
 10
146.2278050166
 20
122.0121267354
 10
146.2169629331
 20
122.0085544532
 10
146.206331114
 20
122.0045913146
 10
146.1959233689
 20
122.0002336433
 10
146.1857051336
 20
121.9954774224
 10
146.1756246056
 20
121.9902957965
 10
146.1657335874
 20
121.984715621
 10
146.1561529231
 20
121.9788134454
 10
146.1469358641
 20
121.9726216738
 10
146.1380291589
 20
121.9661079021
 10
146.1293938972
 20
121.9592514682
 10
146.121031684
 20
121.9520654355
 10
146.1129409144
 20
121.9445367405
 10
146.1050778631
 20
121.9366055305
 10
146.0974342876
 20
121.9282790825
 10
146.0900184305
 20
121.9195501193
 10
146.082811294
 20
121.9103369567
 10
146.0758067648
 20
121.9006507088
 10
146.0690109563
 20
121.8904802615
 10
146.0624232107
 20
121.8797105872
 10
146.055975557
 20
121.8682004648
 10
146.0497359663
 20
121.8560911154
 10
146.043907694
 20
121.8436911762
 10
146.0385355591
 20
121.8310604191
 10
146.0335747426
 20
121.8181390722
 10
146.0290940439
 20
121.8050564557
 10
146.0251182592
 20
121.7918795794
 10
146.0216225923
 20
121.7785414336
 10
146.0186014537
 20
121.7649703096
 10
146.0160448945
 20
121.7511732949
 10
146.0139628636
 20
121.737143302
 10
146.0123796181
 20
121.7227873596
 10
146.0112963352
 20
121.7079666923
 10
146.0107118378
 20
121.6928200756
 10
146.0106468513
 20
121.6776708641
 10
146.01113085
 20
121.6624324602
 10
146.0121343596
 20
121.6471914616
 10
146.0135896836
 20
121.6325310159
 10
146.0154944487
 20
121.6186854438
  0
LWPOLYLINE
  5
352
100
AcDbEntity
  8
0
100
AcDbPolyline
 62
7
  6
CONTINUOUS
 90
9
 70
0
 10
148.2445432418
 20
121.8693581595
 10
148.2518896613
 20
121.8236415635
 10
148.2605567339
 20
121.7760877644
 10
148.2705444594
 20
121.7266967622
 10
148.2818868667
 20
121.6754277033
 10
148.2945499271
 20
121.6223214414
 10
148.308431554
 20
121.5675005371
 10
148.3237649884
 20
121.5108523865
 10
148.3572857481
 20
121.3928725312
  0
LWPOLYLINE
  5
353
100
AcDbEntity
  8
0
100
AcDbPolyline
 62
7
  6
CONTINUOUS
 90
91
 70
0
 10
146.0273644543
 20
121.2536111031
 10
146.0295089301
 20
121.239421709
 10
146.0320026707
 20
121.2258541002
 10
146.0348456761
 20
121.2129082767
 10
146.0380562841
 20
121.200620288
 10
146.0416161569
 20
121.1889540847
 10
146.0454702811
 20
121.1778015186
 10
146.0496027191
 20
121.1671704688
 10
146.0540294086
 20
121.1570530562
 10
146.0587431485
 20
121.147317496
 10
146.0637400062
 20
121.137942449
 10
146.0690239143
 20
121.1289492544
 10
146.0745994707
 20
121.1202701441
 10
146.0804575945
 20
121.1119011491
 10
146.0866073666
 20
121.1038462386
 10
146.0930806268
 20
121.0960495522
 10
146.0998978255
 20
121.0884822718
 10
146.1070385125
 20
121.0811732156
 10
146.1144731763
 20
121.0741529785
 10
146.1222193196
 20
121.0674087804
 10
146.1302594398
 20
121.0609534014
 10
146.1385115184
 20
121.054855777
 10
146.1469312003
 20
121.0491476656
 10
146.1555628406
 20
121.0437973089
 10
146.1644574856
 20
121.0387783674
 10
146.1736071723
 20
121.0340836317
 10
146.1830198639
 20
121.0297203113
 10
146.1927704959
 20
121.0256836948
 10
146.2028519157
 20
121.0219643713
 10
146.2132712761
 20
121.0185717518
 10
146.2241249708
 20
121.0155293575
 10
146.2354030274
 20
121.0128263628
 10
146.2471154183
 20
121.0104735933
 10
146.2593884553
 20
121.0085270474
 10
146.272310064
 20
121.0069778407
 10
146.2857923187
 20
121.0058348576
 10
146.2996977546
 20
121.0051807501
 10
146.3142793741
 20
121.0050488915
 10
146.3292841748
 20
121.0054059084
 10
146.3438156839
 20
121.0062343326
 10
146.3575677993
 20
121.007550263
 10
146.3708466231
 20
121.0093376006
 10
146.3836739892
 20
121.011530581
 10
146.3960235507
 20
121.0141181802
 10
146.4079216545
 20
121.017111422
 10
146.4194691752
 20
121.0204776138
 10
146.4306731244
 20
121.0242068447
 10
146.4415264905
 20
121.0283090256
 10
146.4521091133
 20
121.0327811959
 10
146.4624273901
 20
121.0376146964
 10
146.4724749236
 20
121.0428181863
 10
146.4823123616
 20
121.0484146823
 10
146.4919443669
 20
121.0543950793
 10
146.5013662767
 20
121.0607684824
 10
146.5106247504
 20
121.0675852243
 10
146.5198040269
 20
121.0749311205
 10
146.5288198674
 20
121.0827203555
 10
146.5374662154
 20
121.0907458153
 10
146.5456738838
 20
121.098962116
 10
146.5535120598
 20
121.1074146415
 10
146.5609822476
 20
121.11603243
 10
146.5679745548
 20
121.1246181333
 10
146.5745988739
 20
121.1333690997
 10
146.5811863865
 20
121.1428064113
 10
146.5878721047
 20
121.153065647
 10
146.5945210165
 20
121.164011228
 10
146.6010592673
 20
121.1757575008
 10
146.6074920677
 20
121.1883088875
 10
146.6138142071
 20
121.2016609659
 10
146.619936199
 20
121.2159148157
 10
146.6258588997
 20
121.2310729099
 10
146.631581453
 20
121.2471327755
 10
146.6370118036
 20
121.264188073
 10
146.6421491145
 20
121.2822405022
 10
146.6469942227
 20
121.3012883633
 10
146.6514575845
 20
121.3214202167
 10
146.6555376233
 20
121.3426356057
 10
146.6592359156
 20
121.3649349869
 10
146.6624676468
 20
121.3884082912
 10
146.6652308808
 20
121.4131816174
 10
146.6675275536
 20
121.4391288665
 10
146.6692786594
 20
121.4659616731
 10
146.670458304
 20
121.4941920928
 10
146.6710923816
 20
121.5233080699
 10
146.6711795681
 20
121.5514850708
 10
146.6706995749
 20
121.578172846
 10
146.6696726906
 20
121.6039216449
 10
146.6681584573
 20
121.6285576834
 10
146.666153646
 20
121.6519983533
 10
146.6636614856
 20
121.6743262626
 10
146.6607512053
 20
121.6956154517
  0
LWPOLYLINE
  5
354
100
AcDbEntity
  8
0
100
AcDbPolyline
 62
7
  6
CONTINUOUS
 90
92
 70
0
 10
147.4240125018
 20
121.7773541068
 10
147.4218186624
 20
121.7920705846
 10
147.4192764693
 20
121.8060982927
 10
147.4163859226
 20
121.8194372311
 10
147.413126626
 20
121.8320448438
 10
147.4095189757
 20
121.8439636868
 10
147.4056241605
 20
121.8553214279
 10
147.4014584997
 20
121.8661131559
 10
147.397005674
 20
121.8763437821
 10
147.3922779141
 20
121.8861557079
 10
147.3872789601
 20
121.8955718582
 10
147.382005072
 20
121.9045693082
 10
147.3764572602
 20
121.9132216839
 10
147.3706463146
 20
121.9215315161
 10
147.3645614454
 20
121.9294962741
 10
147.358171294
 20
121.9371819918
 10
147.3514666451
 20
121.9446097311
 10
147.344456714
 20
121.95175843
 10
147.3371377886
 20
121.9586309374
 10
147.3294796321
 20
121.9652532617
 10
147.3215124813
 20
121.9715993944
 10
147.3133233341
 20
121.9775941585
 10
147.3049586011
 20
121.9832048007
 10
147.2963718716
 20
121.9884640742
 10
147.2875109122
 20
121.9933950612
 10
147.2783842748
 20
121.9980048128
 10
147.2689834074
 20
122.002286278
 10
147.2592304203
 20
122.0062413861
 10
147.2491332814
 20
122.0098797562
 10
147.2386840229
 20
122.0131917693
 10
147.2277808523
 20
122.0161504982
 10
147.2164338189
 20
122.018767374
 10
147.2046328734
 20
122.0210309655
 10
147.1922460762
 20
122.0228800527
 10
147.1791035577
 20
122.0243205799
 10
147.1653751876
 20
122.0253466028
 10
147.1514386354
 20
122.0258790678
 10
147.1372032896
 20
122.0258829959
 10
147.1227597619
 20
122.0253933663
 10
147.1087575569
 20
122.0244360627
 10
147.0954409295
 20
122.0230034319
 10
147.0825656249
 20
122.0211031273
 10
147.0700483831
 20
122.0187839926
 10
147.0578888107
 20
122.0160559662
 10
147.046087301
 20
122.0129091097
 10
147.0345617746
 20
122.0093624521
 10
147.023310466
 20
122.0054275033
 10
147.0123351407
 20
122.0010927533
 10
147.0015590151
 20
121.996342701
 10
146.9909542318
 20
121.9911709744
 10
146.9805486483
 20
121.9855839455
 10
146.9703490529
 20
121.9795852286
 10
146.9603280915
 20
121.973158004
 10
146.9505131182
 20
121.9663190914
 10
146.9409929835
 20
121.9591225644
 10
146.9318195818
 20
121.9516117878
 10
146.9229410187
 20
121.9437433967
 10
146.9142904612
 20
121.9354413701
 10
146.9058549607
 20
121.9267114654
 10
146.8976474658
 20
121.9175479252
 10
146.889639989
 20
121.9078574562
 10
146.8818239598
 20
121.8976496763
 10
146.8742079487
 20
121.8869149676
 10
146.8667896796
 20
121.875531183
 10
146.8595567692
 20
121.8634999253
 10
146.8525216008
 20
121.8508195916
 10
146.8457190491
 20
121.837363226
 10
146.8390935542
 20
121.8229956432
 10
146.832700676
 20
121.8078520285
 10
146.8267419688
 20
121.7922109812
 10
146.8213150751
 20
121.7763174438
 10
146.8163223524
 20
121.7599264737
 10
146.8116724265
 20
121.7425818425
 10
146.807320793
 20
121.7241590736
 10
146.8033119563
 20
121.7047826436
 10
146.7996880564
 20
121.6843697537
 10
146.7964482745
 20
121.6629185558
 10
146.7935934294
 20
121.6404308981
 10
146.7911681165
 20
121.6168295263
 10
146.7891793176
 20
121.5916366346
 10
146.7876200509
 20
121.5653300289
 10
146.786513967
 20
121.5392658725
 10
146.785896923
 20
121.5136605088
 10
146.7857330617
 20
121.4882975945
 10
146.7859384629
 20
121.4638842627
 10
146.7864940762
 20
121.4406764875
 10
146.7874189518
 20
121.4184182948
 10
146.7886863209
 20
121.3970488962
 10
146.7902951755
 20
121.3765636156
 10
146.7922465235
 20
121.3569671291
 10
146.7945166194
 20
121.3382126756
 10
146.7971063244
 20
121.3202971729
  0
LINE
  5
355
100
AcDbEntity
  8
ASSI
100
AcDbLine
 62
7
  6
CONTINUOUS
 10
153.1837890625
 20
92.9629298286
 11
153.1837890625
 21
92.4460080736
  0
LINE
  5
356
100
AcDbEntity
  8
ASSI
100
AcDbLine
 62
7
  6
CONTINUOUS
 10
153.1837890625
 20
124.6208283951
 11
153.1837890625
 21
125.1377501501
  0
LINE
  5
357
100
AcDbEntity
  8
ASSI
100
AcDbLine
 62
7
  6
CONTINUOUS
 10
153.6837890625
 20
93.1695990154
 11
153.6837890625
 21
92.6460592194
  0
LINE
  5
358
100
AcDbEntity
  8
ASSI
100
AcDbLine
 62
7
  6
CONTINUOUS
 10
153.6837890625
 20
124.4141592083
 11
153.6837890625
 21
124.9376990043
  0
LINE
  5
359
100
AcDbEntity
  8
ASSI
100
AcDbLine
 62
7
  6
CONTINUOUS
 10
154.6750110625
 20
101.0658976707
 11
154.6750110625
 21
100.6904891118
  0
LINE
  5
35A
100
AcDbEntity
  8
ASSI
100
AcDbLine
 62
7
  6
CONTINUOUS
 10
154.6750110625
 20
98.8932706361
 11
154.6750110625
 21
98.517860553
  0
LINE
  5
35B
100
AcDbEntity
  8
ASSI
100
AcDbLine
 62
7
  6
CONTINUOUS
 10
154.8750110625
 20
99.9793791118
 11
154.8750110625
 21
99.6043791118
  0
LINE
  5
35C
100
AcDbEntity
  8
ASSI
100
AcDbLine
 62
7
  6
CONTINUOUS
 10
156.8675660625
 20
101.0658976118
 11
156.8675660625
 21
100.6904891118
  0
LINE
  5
35D
100
AcDbEntity
  8
ASSI
100
AcDbLine
 62
7
  6
CONTINUOUS
 10
156.8675660625
 20
98.8932691118
 11
156.8675660625
 21
98.5178606118
  0
LINE
  5
35E
100
AcDbEntity
  8
RACCORDO
100
AcDbLine
 62
250
  6
CONTINUOUS
 10
155.7418415396
 20
114.0301631596
 11
155.7758965739
 21
114.2724773191
  0
LINE
  5
35F
100
AcDbEntity
  8
RACCORDO
100
AcDbLine
 62
7
  6
CONTINUOUS
 10
155.8820887478
 20
113.950279418
 11
155.9244367842
 21
114.251601354
  0
LINE
  5
360
100
AcDbEntity
  8
ASSI
100
AcDbLine
 62
7
  6
CONTINUOUS
 10
152.1837890625
 20
92.097943087
 11
152.2623148445
 21
92.5432849268
  0
LINE
  5
361
100
AcDbEntity
  8
ASSI
100
AcDbLine
 62
7
  6
CONTINUOUS
 10
153.6837890625
 20
92.6460592194
 11
153.7837890625
 21
93.2131874013
  0
LINE
  5
362
100
AcDbEntity
  8
ASSI
100
AcDbLine
 62
7
  6
CONTINUOUS
 10
151.1206990625
 20
98.2919441118
 11
150.2858845625
 21
95.6918271118
  0
LINE
  5
363
100
AcDbEntity
  8
ASSI
100
AcDbLine
 62
7
  6
CONTINUOUS
 10
150.8059105625
 20
95.6918271118
 11
151.3807120625
 21
97.4821481118
  0
LINE
  5
364
100
AcDbEntity
  8
RACCORDO
100
AcDbLine
 62
250
  6
CONTINUOUS
 10
155.5213124913
 20
114.101817391
 11
155.4749599421
 21
113.9591589135
  0
LINE
  5
365
100
AcDbEntity
  8
0
100
AcDbLine
 62
7
  6
CONTINUOUS
 10
157.7581850625
 20
109.6662756118
 11
158.0810335625
 21
110.2067836118
  0
LINE
  5
366
100
AcDbEntity
  8
0
100
AcDbLine
 62
7
  6
CONTINUOUS
 10
158.0042340625
 20
110.3387261118
 11
157.5795625625
 21
109.6662756118
  0
LINE
  5
367
100
AcDbEntity
  8
RACCORDO
100
AcDbLine
 62
250
  6
CONTINUOUS
 10
141.6238507834
 20
100.2043556831
 11
141.7665092608
 21
100.2507082322
  0
LINE
  5
368
100
AcDbEntity
  8
0
100
AcDbLine
 62
7
  6
CONTINUOUS
 10
130.6851948774
 20
114.1204048938
 11
130.2398530377
 21
114.0418791118
  0
LINE
  5
369
100
AcDbEntity
  8
0
100
AcDbLine
 62
7
  6
CONTINUOUS
 10
131.355097352
 20
115.6418791118
 11
130.78796917
 21
115.5418791118
  0
LINE
  5
36A
100
AcDbEntity
  8
RACCORDO
100
AcDbLine
 62
250
  6
CONTINUOUS
 10
152.4143872698
 20
117.6339866232
 11
152.1720731102
 21
117.599931589
  0
LINE
  5
36B
100
AcDbEntity
  8
RACCORDO
100
AcDbLine
 62
7
  6
CONTINUOUS
 10
152.3935113046
 20
117.7825268335
 11
152.0921893687
 21
117.7401787971
  0
LINE
  5
36C
100
AcDbEntity
  8
0
100
AcDbLine
 62
7
  6
CONTINUOUS
 10
163.2796601008
 20
115.0418791118
 11
162.7627383457
 21
115.0418791118
  0
LINE
  5
36D
100
AcDbEntity
  8
0
100
AcDbLine
 62
7
  6
CONTINUOUS
 10
131.1048397793
 20
115.0418791118
 11
130.5879180242
 21
115.0418791118
  0
LINE
  5
36E
100
AcDbEntity
  8
0
100
AcDbLine
 62
7
  6
CONTINUOUS
 10
163.079608955
 20
115.5418791118
 11
162.5560691589
 21
115.5418791118
  0
LINE
  5
36F
100
AcDbEntity
  8
0
100
AcDbLine
 62
7
  6
CONTINUOUS
 10
131.3115089661
 20
115.5418791118
 11
130.78796917
 21
115.5418791118
  0
LINE
  5
370
100
AcDbEntity
  8
RACCORDO
100
AcDbLine
 62
250
  6
CONTINUOUS
 10
155.7758965739
 20
114.2724773191
 11
155.9244367842
 21
114.251601354
  0
LINE
  5
371
100
AcDbEntity
  8
0
100
AcDbLine
 62
7
  6
CONTINUOUS
 10
163.6277250873
 20
114.0418791118
 11
163.1823832476
 21
114.1204048938
  0
LINE
  5
372
100
AcDbEntity
  8
0
100
AcDbLine
 62
7
  6
CONTINUOUS
 10
163.079608955
 20
115.5418791118
 11
162.512480773
 21
115.6418791118
  0
LINE
  5
373
100
AcDbEntity
  8
RACCORDO
100
AcDbLine
 62
7
  6
CONTINUOUS
 10
155.4749599421
 20
113.9591589135
 11
155.7521602415
 21
113.8690910765
  0
LINE
  5
374
100
AcDbEntity
  8
RACCORDO
100
AcDbLine
 62
250
  6
CONTINUOUS
 10
155.5213124913
 20
114.101817391
 11
155.7418415396
 21
114.0301631596
  0
LINE
  5
375
100
AcDbEntity
  8
0
100
AcDbLine
 62
7
  6
CONTINUOUS
 10
150.4776485625
 20
119.5905026118
 11
150.0909000625
 21
120.5918791118
  0
LINE
  5
376
100
AcDbEntity
  8
0
100
AcDbLine
 62
7
  6
CONTINUOUS
 10
150.107030659
 20
120.2260289828
 11
150.3341420812
 21
119.5905026118
  0
LINE
  5
377
100
AcDbEntity
  8
RACCORDO
100
AcDbLine
 62
7
  6
CONTINUOUS
 10
152.0110010271
 20
117.6102502908
 11
152.1010688642
 21
117.3330499915
  0
LINE
  5
378
100
AcDbEntity
  8
RACCORDO
100
AcDbLine
 62
250
  6
CONTINUOUS
 10
152.1720731102
 20
117.599931589
 11
152.2437273416
 21
117.3794025406
  0
LWPOLYLINE
  5
379
100
AcDbEntity
  8
0
100
AcDbPolyline
 62
7
  6
CONTINUOUS
 90
6
 70
0
 10
150.0215615511
 20
120.4820913287
 10
150.0330886863
 20
120.442794899
 10
150.045702908
 20
120.4021462182
 10
150.0594042161
 20
120.3601452862
 10
150.0744198619
 20
120.3166882067
 10
150.107030659
 20
120.2260289828
  0
LWPOLYLINE
  5
37A
100
AcDbEntity
  8
0
100
AcDbPolyline
 62
7
  6
CONTINUOUS
 90
60
 70
0
 10
150.1991988256
 20
121.6763755976
 10
150.1940232073
 20
121.6940892224
 10
150.1883233282
 20
121.7114425611
 10
150.1820265631
 20
121.7285803192
 10
150.1752055373
 20
121.7453577912
 10
150.1681032845
 20
121.7613980291
 10
150.1608060181
 20
121.7765274669
 10
150.1532275247
 20
121.7909196706
 10
150.1453521973
 20
121.8047183897
 10
150.1371912078
 20
121.81792082
 10
150.1287333843
 20
121.8305297657
 10
150.1199296039
 20
121.8426973889
 10
150.1107767784
 20
121.854451503
 10
150.101277996
 20
121.8657642945
 10
150.0913933982
 20
121.8767044855
 10
150.0811282504
 20
121.8872817913
 10
150.0704772872
 20
121.8974864965
 10
150.0593848541
 20
121.9073581775
 10
150.0478647378
 20
121.9169000658
 10
150.0359031516
 20
121.9261089298
 10
150.0234030805
 20
121.9350146515
 10
150.0104136068
 20
121.9436036962
 10
149.9968856481
 20
121.9518895986
 10
149.9825749431
 20
121.9599428438
 10
149.967267239
 20
121.9678725689
 10
149.9511767885
 20
121.9755696368
 10
149.9347020875
 20
121.982777122
 10
149.9179565852
 20
121.9894293238
 10
149.9008268323
 20
121.9955919429
 10
149.8833709771
 20
122.0012051554
 10
149.8656397447
 20
122.0062543449
 10
149.8475824099
 20
122.0107541277
 10
149.8291049451
 20
122.0146885291
 10
149.8101725073
 20
122.0180682486
 10
149.7908199395
 20
122.0208825868
 10
149.7710577433
 20
122.0230834701
 10
149.7506511262
 20
122.0246646015
 10
149.7298348807
 20
122.0256322781
 10
149.7093238857
 20
122.0259573181
 10
149.6894158687
 20
122.0256282527
 10
149.6698131023
 20
122.0246565508
 10
149.6503372831
 20
122.0230474365
 10
149.6309569525
 20
122.0208073468
 10
149.6117035691
 20
122.0179298448
 10
149.5924932063
 20
122.0144008447
 10
149.5733283108
 20
122.010233071
 10
149.5542064358
 20
122.0054137992
 10
149.5350363142
 20
121.9998907703
 10
149.5158113077
 20
121.9936736478
 10
149.4965380546
 20
121.9867527681
 10
149.4771452021
 20
121.9790468817
 10
149.4576196331
 20
121.9705624383
 10
149.4379744647
 20
121.9612929881
 10
149.4181776956
 20
121.9511379322
 10
149.3982419328
 20
121.940117048
 10
149.3781545692
 20
121.9282105581
 10
149.3578457826
 20
121.9152585309
 10
149.3372922989
 20
121.901207656
 10
149.3165173922
 20
121.8861112439
 10
149.2955210625
 20
121.8699692947
  0
LWPOLYLINE
  5
37B
100
AcDbEntity
  8
0
100
AcDbPolyline
 62
7
  6
CONTINUOUS
 90
92
 70
0
 10
149.3105567402
 20
121.2891816605
 10
149.3157480063
 20
121.2703752894
 10
149.3211992115
 20
121.2525502904
 10
149.326910356
 20
121.2357066636
 10
149.3329101112
 20
121.2198782255
 10
149.3391698056
 20
121.2050311596
 10
149.3456034246
 20
121.1910640161
 10
149.352202553
 20
121.1779873576
 10
149.358975606
 20
121.1657906215
 10
149.3658618146
 20
121.1543406704
 10
149.3728315613
 20
121.1436519835
 10
149.3799144636
 20
121.1337100815
 10
149.3871386045
 20
121.1243383901
 10
149.394421717
 20
121.1155921512
 10
149.401846068
 20
121.1074161228
 10
149.409686541
 20
121.0994680044
 10
149.4179978821
 20
121.0916477566
 10
149.4267253452
 20
121.0840554188
 10
149.4359795747
 20
121.0766488085
 10
149.4457532911
 20
121.0694142466
 10
149.4560537738
 20
121.0623654122
 10
149.4670135059
 20
121.0555011599
 10
149.4786576839
 20
121.0487979623
 10
149.4909611113
 20
121.0422793468
 10
149.5039806809
 20
121.0360147501
 10
149.5178143561
 20
121.0299676378
 10
149.5323641734
 20
121.0241745443
 10
149.5473931359
 20
121.0188145101
 10
149.5627983512
 20
121.0139303622
 10
149.5786827115
 20
121.0094792737
 10
149.5951178968
 20
121.0055118041
 10
149.6120805519
 20
121.0020225839
 10
149.629594032
 20
120.9990169828
 10
149.6478000823
 20
120.9965616694
 10
149.6667763225
 20
120.9946487716
 10
149.6864451329
 20
120.9932861615
 10
149.7067153999
 20
120.9925641244
 10
149.7279468918
 20
120.9925200297
 10
149.7497798402
 20
120.993116508
 10
149.7710438266
 20
120.9943317356
 10
149.7913628394
 20
120.9961850206
 10
149.8111128901
 20
120.998657055
 10
149.8302515951
 20
121.0016680904
 10
149.8487250196
 20
121.0052070023
 10
149.8665870983
 20
121.0092849153
 10
149.8839572521
 20
121.0138554547
 10
149.9008827044
 20
121.0189293576
 10
149.9173162316
 20
121.0244958869
 10
149.9332355842
 20
121.0304764568
 10
149.9487138918
 20
121.0369136074
 10
149.9636780247
 20
121.0437647984
 10
149.9778863439
 20
121.0508238236
 10
149.9911433647
 20
121.0579709252
 10
150.0036445717
 20
121.065325861
 10
150.01573478
 20
121.0730416976
 10
150.0275011761
 20
121.0811540879
 10
150.0388565736
 20
121.089627379
 10
150.0498842274
 20
121.09850768
 10
150.0605971578
 20
121.1077903036
 10
150.0709823446
 20
121.117479937
 10
150.0810839819
 20
121.1276367513
 10
150.0909090061
 20
121.138252333
 10
150.1004504808
 20
121.1493350956
 10
150.1097317913
 20
121.1609704498
 10
150.1187554088
 20
121.1731394367
 10
150.1275188621
 20
121.1858610152
 10
150.1360381227
 20
121.1992774736
 10
150.1443031189
 20
121.2133557908
 10
150.1523239224
 20
121.2281289878
 10
150.1601467199
 20
121.243838416
 10
150.1678921208
 20
121.2607368423
 10
150.1754395156
 20
121.2785714997
 10
150.1824732632
 20
121.2968254381
 10
150.1889213444
 20
121.3153856605
 10
150.1948557783
 20
121.3343651638
 10
150.200176981
 20
121.3535859885
 10
150.2048542439
 20
121.3729591229
 10
150.2089182756
 20
121.3925735788
 10
150.2123616181
 20
121.412518431
 10
150.2151944717
 20
121.4328125611
 10
150.2174066362
 20
121.4534370876
 10
150.2189600527
 20
121.4744244413
 10
150.219841619
 20
121.4960351882
 10
150.2200644373
 20
121.5180087624
 10
150.2196297551
 20
121.5395958963
 10
150.2185154558
 20
121.5605935155
 10
150.216743656
 20
121.5812046945
 10
150.2143819533
 20
121.6012893888
 10
150.2114393854
 20
121.6207645732
 10
150.2079069147
 20
121.639713273
 10
150.2038250251
 20
121.6582445186
 10
150.1991988256
 20
121.6763755976
  0
LINE
  5
37C
100
AcDbEntity
  8
ASSI
100
AcDbLine
 62
7
  6
CONTINUOUS
 10
152.2623148445
 20
125.0404732969
 11
152.1837890625
 21
125.4858151366
  0
LINE
  5
37D
100
AcDbEntity
  8
ASSI
100
AcDbLine
 62
7
  6
CONTINUOUS
 10
153.7837890625
 20
124.3705708223
 11
153.6837890625
 21
124.9376990043
  0
LINE
  5
37E
100
AcDbEntity
  8
RACCORDO
100
AcDbLine
 62
250
  6
CONTINUOUS
 10
152.4143872698
 20
117.6339866232
 11
152.3935113046
 21
117.7825268335
  0
LINE
  5
37F
100
AcDbEntity
  8
0
100
AcDbLine
 62
7
  6
CONTINUOUS
 10
157.4337890625
 20
107.5561111118
 11
157.4337890625
 21
107.4214391118
  0
LINE
  5
380
100
AcDbEntity
  8
0
100
AcDbLine
 62
7
  6
CONTINUOUS
 10
157.4447995625
 20
106.5660896118
 11
157.4447995625
 21
106.4314176118
  0
LINE
  5
381
100
AcDbEntity
  8
0
100
AcDbLine
 62
7
  6
CONTINUOUS
 10
157.4964845625
 20
107.0456311118
 11
157.4964845625
 21
106.9109591118
  0
LINE
  5
382
100
AcDbEntity
  8
0
100
AcDbLine
 62
7
  6
CONTINUOUS
 10
158.0042340625
 20
110.7918791118
 11
158.0042340625
 21
110.3387261118
  0
LINE
  5
383
100
AcDbEntity
  8
0
100
AcDbLine
 62
7
  6
CONTINUOUS
 10
158.1123360625
 20
107.4214391118
 11
158.1123360625
 21
107.0456311118
  0
LINE
  5
384
100
AcDbEntity
  8
0
100
AcDbLine
 62
7
  6
CONTINUOUS
 10
158.1123360625
 20
106.9109591118
 11
158.1123360625
 21
106.5660896118
  0
LINE
  5
385
100
AcDbEntity
  8
0
100
AcDbLine
 62
7
  6
CONTINUOUS
 10
158.1561950625
 20
110.3387261118
 11
158.1561950625
 21
110.7918791118
  0
LINE
  5
386
100
AcDbEntity
  8
0
100
AcDbLine
 62
7
  6
CONTINUOUS
 10
158.2643880625
 20
106.4314176118
 11
158.2643880625
 21
107.5561111118
  0
LINE
  5
387
100
AcDbEntity
  8
0
100
AcDbLine
 62
7
  6
CONTINUOUS
 10
158.3976040625
 20
110.7918791118
 11
158.3976040625
 21
110.6572071118
  0
LINE
  5
388
100
AcDbEntity
  8
0
100
AcDbLine
 62
7
  6
CONTINUOUS
 10
158.9531260625
 20
109.1739951118
 11
158.9531260625
 21
108.0493016118
  0
LINE
  5
389
100
AcDbEntity
  8
0
100
AcDbLine
 62
7
  6
CONTINUOUS
 10
158.9680490625
 20
110.6572071118
 11
158.9680490625
 21
109.6662756118
  0
LINE
  5
38A
100
AcDbEntity
  8
0
100
AcDbLine
 62
7
  6
CONTINUOUS
 10
159.1003550625
 20
108.0493016118
 11
159.1003550625
 21
108.9625686118
  0
LINE
  5
38B
100
AcDbEntity
  8
0
100
AcDbLine
 62
7
  6
CONTINUOUS
 10
159.1200100625
 20
109.6662756118
 11
159.1200100625
 21
110.7918791118
  0
LINE
  5
38C
100
AcDbEntity
  8
0
100
AcDbLine
 62
7
  6
CONTINUOUS
 10
159.2516790625
 20
107.4259886118
 11
159.2516790625
 21
106.5615396118
  0
LINE
  5
38D
100
AcDbEntity
  8
0
100
AcDbLine
 62
7
  6
CONTINUOUS
 10
159.4036400625
 20
106.4314176118
 11
159.4036400625
 21
107.5561111118
  0
LINE
  5
38E
100
AcDbEntity
  8
0
100
AcDbLine
 62
7
  6
CONTINUOUS
 10
159.6990085625
 20
109.1739951118
 11
159.6990085625
 21
108.2600421118
  0
LINE
  5
38F
100
AcDbEntity
  8
0
100
AcDbLine
 62
7
  6
CONTINUOUS
 10
159.8464200625
 20
108.0493016118
 11
159.8464200625
 21
109.1739951118
  0
LINE
  5
390
100
AcDbEntity
  8
0
100
AcDbLine
 62
7
  6
CONTINUOUS
 10
160.1064825625
 20
109.1739951118
 11
160.1064825625
 21
108.0493016118
  0
LINE
  5
391
100
AcDbEntity
  8
0
100
AcDbLine
 62
7
  6
CONTINUOUS
 10
160.2585345625
 20
108.0493016118
 11
160.2585345625
 21
109.1739951118
  0
LINE
  5
392
100
AcDbEntity
  8
0
100
AcDbLine
 62
7
  6
CONTINUOUS
 10
160.3063065625
 20
109.8009476118
 11
160.3063065625
 21
109.6662756118
  0
LINE
  5
393
100
AcDbEntity
  8
0
100
AcDbLine
 62
7
  6
CONTINUOUS
 10
160.6871190625
 20
110.7918791118
 11
160.6871190625
 21
109.8009476118
  0
LINE
  5
394
100
AcDbEntity
  8
0
100
AcDbLine
 62
7
  6
CONTINUOUS
 10
160.6886660625
 20
107.5561111118
 11
160.6886660625
 21
106.4314176118
  0
LINE
  5
395
100
AcDbEntity
  8
0
100
AcDbLine
 62
7
  6
CONTINUOUS
 10
160.8359865625
 20
106.6115871118
 11
160.8359865625
 21
107.5561111118
  0
LINE
  5
396
100
AcDbEntity
  8
0
100
AcDbLine
 62
7
  6
CONTINUOUS
 10
160.8390800625
 20
109.8009476118
 11
160.8390800625
 21
110.7918791118
  0
LINE
  5
397
100
AcDbEntity
  8
0
100
AcDbLine
 62
7
  6
CONTINUOUS
 10
161.2198925625
 20
109.6662756118
 11
161.2198925625
 21
109.8009476118
  0
LINE
  5
398
100
AcDbEntity
  8
0
100
AcDbLine
 62
7
  6
CONTINUOUS
 10
161.3829550625
 20
110.7918791118
 11
161.3829550625
 21
109.6662756118
  0
LINE
  5
399
100
AcDbEntity
  8
0
100
AcDbLine
 62
7
  6
CONTINUOUS
 10
161.5350070625
 20
109.6662756118
 11
161.5350070625
 21
110.7918791118
  0
LWPOLYLINE
  5
39A
100
AcDbEntity
  8
0
100
AcDbPolyline
 62
7
  6
CONTINUOUS
 90
49
 70
0
 10
158.474878859
 20
106.993764245
 10
158.4747380395
 20
106.9691005069
 10
158.4752436189
 20
106.9450638427
 10
158.4763955972
 20
106.9216542522
 10
158.478194727
 20
106.8988698927
 10
158.4806402558
 20
106.8767126071
 10
158.4837299256
 20
106.8551879235
 10
158.4875290506
 20
106.8343035493
 10
158.4919723167
 20
106.8140517773
 10
158.4968615239
 20
106.7944150143
 10
158.5021525607
 20
106.7753925385
 10
158.5078895386
 20
106.7569850718
 10
158.5140065924
 20
106.7391771867
 10
158.5204926914
 20
106.721971966
 10
158.5273588662
 20
106.7053663269
 10
158.5345723438
 20
106.6893355936
 10
158.5421343177
 20
106.6738843273
 10
158.5500435945
 20
106.6590079668
 10
158.5582638197
 20
106.6446681531
 10
158.5667924323
 20
106.6308638737
 10
158.5756319935
 20
106.6175961411
 10
158.5847538322
 20
106.6048296329
 10
158.5941477797
 20
106.5925632169
 10
158.6038240048
 20
106.5807980254
 10
158.6137843424
 20
106.5695021331
 10
158.6240211948
 20
106.5586738401
 10
158.6345421597
 20
106.5483148463
 10
158.6453718664
 20
106.5383983265
 10
158.6565191313
 20
106.5289208714
 10
158.6679751379
 20
106.5198858902
 10
158.679738066
 20
106.5112767857
 10
158.69180334
 20
106.5030896386
 10
158.7041755356
 20
106.4953283682
 10
158.7168665595
 20
106.4879881355
 10
158.7298767183
 20
106.481062688
 10
158.7432057055
 20
106.4745582782
 10
158.7568645078
 20
106.4684888248
 10
158.7708538289
 20
106.4628552995
 10
158.785172965
 20
106.4576567305
 10
158.7998307921
 20
106.4529041218
 10
158.8148216172
 20
106.448592636
 10
158.8301511333
 20
106.4447271104
 10
158.845845294
 20
106.4413330606
 10
158.861914753
 20
106.4384005907
 10
158.8783488568
 20
106.4359395966
 10
158.8951415982
 20
106.4340052813
 10
158.9122909748
 20
106.4326160459
 10
158.9297989892
 20
106.4317534895
 10
158.9476656411
 20
106.4314176118
  0
LWPOLYLINE
  5
39B
100
AcDbEntity
  8
0
100
AcDbPolyline
 62
7
  6
CONTINUOUS
 90
46
 70
0
 10
158.6308498001
 20
106.993764245
 10
158.6313040532
 20
107.0159932231
 10
158.6321687525
 20
107.0373800755
 10
158.6334438978
 20
107.0579248022
 10
158.6351595232
 20
107.0775949887
 10
158.6372855946
 20
107.0964230494
 10
158.6397320109
 20
107.1145062276
 10
158.642448817
 20
107.1318525677
 10
158.6454859679
 20
107.1484540253
 10
158.6489032269
 20
107.1643837103
 10
158.6527301094
 20
107.1796375353
 10
158.6569371
 20
107.1942195876
 10
158.6614954154
 20
107.2082152389
 10
158.6664186272
 20
107.2216281684
 10
158.6716931638
 20
107.2344546969
 10
158.6772495277
 20
107.2467691583
 10
158.6830770794
 20
107.2585736559
 10
158.6891864583
 20
107.2698660865
 10
158.6955400855
 20
107.2807144738
 10
158.7021315681
 20
107.2911268979
 10
158.708967299
 20
107.3010952787
 10
158.7160288779
 20
107.3106633997
 10
158.7233045976
 20
107.3198348395
 10
158.7308061654
 20
107.3286060195
 10
158.7385503025
 20
107.3370099872
 10
158.7465373294
 20
107.3450617551
 10
158.7547669257
 20
107.3527463106
 10
158.7632548505
 20
107.360051663
 10
158.7719942716
 20
107.3669765968
 10
158.7809920213
 20
107.3735223276
 10
158.7902843558
 20
107.3796805115
 10
158.7998782947
 20
107.3854430479
 10
158.8097668185
 20
107.3908180375
 10
158.8199651255
 20
107.3958214389
 10
158.8304766361
 20
107.4004596275
 10
158.8412979299
 20
107.4047262279
 10
158.8524339436
 20
107.4086180719
 10
158.8638748339
 20
107.4121399581
 10
158.8756304442
 20
107.4152870879
 10
158.8877352408
 20
107.4180418978
 10
158.9001902316
 20
107.4204099516
 10
158.9129944087
 20
107.4223856854
 10
158.9261792152
 20
107.4239348439
 10
158.9397551321
 20
107.4250460086
 10
158.9537116782
 20
107.4257305979
 10
158.9680488537
 20
107.4259886118
  0
LINE
  5
39C
100
AcDbEntity
  8
0
100
AcDbLine
 62
7
  6
CONTINUOUS
 10
161.1525565625
 20
107.5561111118
 11
160.8359865625
 21
106.6115871118
  0
LINE
  5
39D
100
AcDbEntity
  8
0
100
AcDbLine
 62
7
  6
CONTINUOUS
 10
160.9049605625
 20
106.4314176118
 11
161.2262130625
 21
107.3870366118
  0
LINE
  5
39E
100
AcDbEntity
  8
0
100
AcDbLine
 62
7
  6
CONTINUOUS
 10
160.1057545625
 20
110.7918791118
 11
159.9881895625
 21
110.4642986118
  0
LINE
  5
39F
100
AcDbEntity
  8
0
100
AcDbLine
 62
7
  6
CONTINUOUS
 10
160.3972105625
 20
107.5561111118
 11
160.2796455625
 21
107.2285301118
  0
LINE
  5
3A0
100
AcDbEntity
  8
0
100
AcDbLine
 62
7
  6
CONTINUOUS
 10
160.2326010625
 20
107.0938581118
 11
160.0508225625
 21
106.5944256118
  0
LINE
  5
3A1
100
AcDbEntity
  8
0
100
AcDbLine
 62
7
  6
CONTINUOUS
 10
159.9412365625
 20
110.3296266118
 11
159.7593660625
 21
109.8301951118
  0
LINE
  5
3A2
100
AcDbEntity
  8
0
100
AcDbLine
 62
7
  6
CONTINUOUS
 10
159.8393225625
 20
109.6662756118
 11
160.2624475625
 21
110.7918791118
  0
LINE
  5
3A3
100
AcDbEntity
  8
0
100
AcDbLine
 62
7
  6
CONTINUOUS
 10
160.1307780625
 20
106.4314176118
 11
160.5539030625
 21
107.5561111118
  0
LINE
  5
3A4
100
AcDbEntity
  8
0
100
AcDbLine
 62
7
  6
CONTINUOUS
 10
149.4301665484
 20
121.321915608
 11
149.3105567402
 21
121.2891816605
  0
LINE
  5
3A5
100
AcDbEntity
  8
0
100
AcDbLine
 62
7
  6
CONTINUOUS
 10
143.8066940675
 20
121.314190613
 11
143.6768057855
 21
121.2835080464
  0
LINE
  5
3A6
100
AcDbEntity
  8
0
100
AcDbLine
 62
7
  6
CONTINUOUS
 10
147.3066940506
 20
121.7675776109
 11
147.4240125018
 21
121.7773541068
  0
LINE
  5
3A7
100
AcDbEntity
  8
0
100
AcDbLine
 62
7
  6
CONTINUOUS
 10
146.1488728348
 20
121.2633875935
 11
146.0273644543
 21
121.2536111031
  0
LINE
  5
3A8
100
AcDbEntity
  8
0
100
AcDbLine
 62
7
  6
CONTINUOUS
 10
143.1837890625
 20
119.2918791118
 11
150.6837890625
 21
119.2918791118
  0
LINE
  5
3A9
100
AcDbEntity
  8
0
100
AcDbLine
 62
7
  6
CONTINUOUS
 10
144.7337635743
 20
119.5863071118
 11
144.9015971879
 21
119.5863071118
  0
LINE
  5
3AA
100
AcDbEntity
  8
0
100
AcDbLine
 62
7
  6
CONTINUOUS
 10
145.9202540625
 20
119.5863071118
 11
145.9995792117
 21
119.5863071118
  0
LINE
  5
3AB
100
AcDbEntity
  8
0
100
AcDbLine
 62
7
  6
CONTINUOUS
 10
148.2530695625
 20
119.5863071118
 11
148.332394556
 21
119.5863071118
  0
LINE
  5
3AC
100
AcDbEntity
  8
0
100
AcDbLine
 62
7
  6
CONTINUOUS
 10
143.4447844894
 20
119.5905026118
 11
143.5776486727
 21
119.5905026118
  0
LINE
  5
3AD
100
AcDbEntity
  8
0
100
AcDbLine
 62
7
  6
CONTINUOUS
 10
144.097916843
 20
119.5905026118
 11
144.2307810263
 21
119.5905026118
  0
LINE
  5
3AE
100
AcDbEntity
  8
0
100
AcDbLine
 62
7
  6
CONTINUOUS
 10
149.5625025625
 20
119.5905026118
 11
149.6977924777
 21
119.5905026118
  0
LINE
  5
3AF
100
AcDbEntity
  8
0
100
AcDbLine
 62
7
  6
CONTINUOUS
 10
150.3341420812
 20
119.5905026118
 11
150.4776485625
 21
119.5905026118
  0
LINE
  5
3B0
100
AcDbEntity
  8
0
100
AcDbLine
 62
7
  6
CONTINUOUS
 10
148.8376715625
 20
119.6030901118
 11
149.4852100625
 21
119.6030901118
  0
LINE
  5
3B1
100
AcDbEntity
  8
0
100
AcDbLine
 62
7
  6
CONTINUOUS
 10
149.4852100625
 20
119.7205696118
 11
148.9957100715
 21
119.7205696118
  0
LINE
  5
3B2
100
AcDbEntity
  8
0
100
AcDbLine
 62
7
  6
CONTINUOUS
 10
144.6467463609
 20
120.1806996118
 11
144.9880413696
 21
120.1806996118
  0
LINE
  5
3B3
100
AcDbEntity
  8
0
100
AcDbLine
 62
7
  6
CONTINUOUS
 10
145.0241057088
 20
120.2895546619
 11
144.6056640324
 21
120.2895546619
  0
LINE
  5
3B4
100
AcDbEntity
  8
0
100
AcDbLine
 62
7
  6
CONTINUOUS
 10
150.0909000625
 20
120.5918791118
 11
149.9530535625
 21
120.5918791118
  0
LINE
  5
3B5
100
AcDbEntity
  8
0
100
AcDbLine
 62
7
  6
CONTINUOUS
 10
149.3453527973
 20
120.5918791118
 11
149.2194814658
 21
120.5918791118
  0
LINE
  5
3B6
100
AcDbEntity
  8
0
100
AcDbLine
 62
7
  6
CONTINUOUS
 10
148.3761435625
 20
120.5918791118
 11
148.2530695625
 21
120.5918791118
  0
LINE
  5
3B7
100
AcDbEntity
  8
0
100
AcDbLine
 62
7
  6
CONTINUOUS
 10
146.0433280625
 20
120.5918791118
 11
145.9202540625
 21
120.5918791118
  0
LINE
  5
3B8
100
AcDbEntity
  8
0
100
AcDbLine
 62
7
  6
CONTINUOUS
 10
145.2937844923
 20
120.5918791118
 11
145.1259508787
 21
120.5918791118
  0
LINE
  5
3B9
100
AcDbEntity
  8
0
100
AcDbLine
 62
7
  6
CONTINUOUS
 10
144.4889012289
 20
120.5918791118
 11
144.3453947014
 21
120.5918791118
  0
LINE
  5
3BA
100
AcDbEntity
  8
0
100
AcDbLine
 62
7
  6
CONTINUOUS
 10
147.9044595625
 20
121.0091976118
 11
148.0374683565
 21
121.0091976118
  0
LINE
  5
3BB
100
AcDbEntity
  8
0
100
AcDbLine
 62
7
  6
CONTINUOUS
 10
148.4658464805
 20
121.0091976118
 11
148.6254135397
 21
121.0091976118
  0
LINE
  5
3BC
100
AcDbEntity
  8
0
100
AcDbLine
 62
7
  6
CONTINUOUS
 10
149.0535516123
 20
121.0091976118
 11
149.1907720625
 21
121.0091976118
  0
LINE
  5
3BD
100
AcDbEntity
  8
0
100
AcDbLine
 62
7
  6
CONTINUOUS
 10
149.2955210625
 20
121.4994211118
 11
149.7187050625
 21
121.4994211118
  0
LINE
  5
3BE
100
AcDbEntity
  8
0
100
AcDbLine
 62
7
  6
CONTINUOUS
 10
149.7187050625
 20
121.6167396118
 11
149.4254090625
 21
121.6167396118
  0
LINE
  5
3BF
100
AcDbEntity
  8
0
100
AcDbLine
 62
7
  6
CONTINUOUS
 10
148.9276130625
 20
122.0091976118
 11
148.7892796428
 21
122.0091976118
  0
LINE
  5
3C0
100
AcDbEntity
  8
0
100
AcDbLine
 62
7
  6
CONTINUOUS
 10
148.3069559269
 20
122.0091976118
 11
148.1782460625
 21
122.0091976118
  0
LINE
  5
3C1
100
AcDbEntity
  8
0
100
AcDbLine
 62
7
  6
CONTINUOUS
 10
150.6837890625
 20
122.2918791118
 11
143.1837890625
 21
122.2918791118
  0
LINE
  5
3C2
100
AcDbEntity
  8
0
100
AcDbLine
 62
7
  6
CONTINUOUS
 10
145.5356471631
 20
120.5918791118
 11
145.3972059297
 21
120.5918791443
  0
LINE
  5
3C3
100
AcDbEntity
  8
0
100
AcDbLine
 62
7
  6
CONTINUOUS
 10
145.3957901281
 20
120.4520220768
 11
145.5348004953
 21
120.4520221053
  0
LWPOLYLINE
  5
3C4
100
AcDbEntity
  8
0
100
AcDbPolyline
 62
7
  6
CONTINUOUS
 90
7
 70
0
 10
145.3972059297
 20
120.5918791443
 10
145.396666261
 20
120.5918869144
 10
145.3964178239
 20
120.5918793155
 10
145.3961739959
 20
120.5918762793
 10
145.3959481695
 20
120.5918617514
 10
145.3957917335
 20
120.5917760616
 10
145.3957448902
 20
120.5915779515
  0
LWPOLYLINE
  5
3C5
100
AcDbEntity
  8
0
100
AcDbPolyline
 62
7
  6
CONTINUOUS
 90
7
 70
0
 10
145.5348004953
 20
120.4520221053
 10
145.5353459237
 20
120.4519768403
 10
145.5355440959
 20
120.4520236819
 10
145.5356297826
 20
120.4521801118
 10
145.5356443214
 20
120.4524059298
 10
145.5356473668
 20
120.4526497515
 10
145.5356549669
 20
120.4528981865
  0
LINE
  5
3C6
100
AcDbEntity
  8
0
100
AcDbLine
 62
7
  6
CONTINUOUS
 10
143.6600461103
 20
121.6919185998
 11
143.7927276473
 21
121.6585080905
  0
LINE
  5
3C7
100
AcDbEntity
  8
RACCORDO
100
AcDbLine
 62
7
  6
CONTINUOUS
 10
152.1720731102
 20
117.599931589
 11
152.0213018691
 21
117.6941439167
  0
LINE
  5
3C8
100
AcDbEntity
  8
0
100
AcDbLine
 62
7
  6
CONTINUOUS
 10
158.5809580625
 20
109.6662756118
 11
158.1561950625
 21
110.3387261118
  0
LINE
  5
3C9
100
AcDbEntity
  8
0
100
AcDbLine
 62
7
  6
CONTINUOUS
 10
159.6990085625
 20
108.2600421118
 11
159.1239230625
 21
109.1739951118
  0
LINE
  5
3CA
100
AcDbEntity
  8
RACCORDO
100
AcDbLine
 62
7
  6
CONTINUOUS
 10
155.7418415396
 20
114.0301631596
 11
155.8360538673
 21
113.8793919185
  0
LINE
  5
3CB
100
AcDbEntity
  8
0
100
AcDbLine
 62
7
  6
CONTINUOUS
 10
159.1003550625
 20
108.9625686118
 11
159.6661595625
 21
108.0493016118
  0
LINE
  5
3CC
100
AcDbEntity
  8
0
100
AcDbLine
 62
7
  6
CONTINUOUS
 10
158.0810335625
 20
110.2067836118
 11
158.4038825625
 21
109.6662756118
  0
LINE
  5
3CD
100
AcDbEntity
  8
0
100
AcDbLine
 62
7
  6
CONTINUOUS
 10
159.5509605625
 20
107.5561111118
 11
159.9584345625
 21
106.4314176118
  0
LINE
  5
3CE
100
AcDbEntity
  8
0
100
AcDbLine
 62
7
  6
CONTINUOUS
 10
159.2595050625
 20
110.7918791118
 11
159.6669785625
 21
109.6662756118
  0
LINE
  5
3CF
100
AcDbEntity
  8
0
100
AcDbLine
 62
7
  6
CONTINUOUS
 10
159.8283120625
 20
107.2285301118
 11
159.7170255625
 21
107.5561111118
  0
LINE
  5
3D0
100
AcDbEntity
  8
0
100
AcDbLine
 62
7
  6
CONTINUOUS
 10
159.5368565625
 20
110.4642986118
 11
159.4255700625
 21
110.7918791118
  0
LINE
  5
3D1
100
AcDbEntity
  8
0
100
AcDbLine
 62
7
  6
CONTINUOUS
 10
161.2262130625
 20
107.3870366118
 11
161.5490200625
 21
106.4314176118
  0
LINE
  5
3D2
100
AcDbEntity
  8
0
100
AcDbLine
 62
7
  6
CONTINUOUS
 10
161.6195410625
 20
106.6134066118
 11
161.3029705625
 21
107.5561111118
  0
LINE
  5
3D3
100
AcDbEntity
  8
0
100
AcDbLine
 62
7
  6
CONTINUOUS
 10
160.0508225625
 20
106.5944256118
 11
159.8831820625
 21
107.0938581118
  0
LINE
  5
3D4
100
AcDbEntity
  8
0
100
AcDbLine
 62
7
  6
CONTINUOUS
 10
159.7593660625
 20
109.8301951118
 11
159.5917260625
 21
110.3296266118
  0
LINE
  5
3D5
100
AcDbEntity
  8
0
100
AcDbLine
 62
7
  6
CONTINUOUS
 10
161.6195410625
 20
107.5561111118
 11
161.6195410625
 21
106.6134066118
  0
LINE
  5
3D6
100
AcDbEntity
  8
0
100
AcDbLine
 62
7
  6
CONTINUOUS
 10
161.7668610625
 20
106.4314176118
 11
161.7668610625
 21
107.5561111118
  0
LINE
  5
3D7
100
AcDbEntity
  8
0
100
AcDbLine
 62
7
  6
CONTINUOUS
 10
184.4337890625
 20
134.0418791118
 11
179.4337890625
 21
134.0418791118
  0
LINE
  5
3D8
100
AcDbEntity
  8
0
100
AcDbLine
 62
7
  6
CONTINUOUS
 10
114.4337890625
 20
134.0418791118
 11
109.4337890625
 21
134.0418791118
  0
LINE
  5
3D9
100
AcDbEntity
  8
0
100
AcDbLine
 62
250
  6
CONTINUOUS
 10
114.4337890625
 20
134.0418791118
 11
179.4337890625
 21
134.0418791118
  0
LINE
  5
3DA
100
AcDbEntity
  8
0
100
AcDbLine
 62
7
  6
CONTINUOUS
 10
184.4337890625
 20
147.3463710362
 11
184.4337890625
 21
143.7662440172
  0
LINE
  5
3DB
100
AcDbEntity
  8
0
100
AcDbLine
 62
7
  6
CONTINUOUS
 10
184.4337890625
 20
143.0162440172
 11
184.4337890625
 21
139.4361169983
  0
LINE
  5
3DC
100
AcDbEntity
  8
0
100
AcDbLine
 62
7
  6
CONTINUOUS
 10
184.4337890625
 20
138.6861169983
 11
184.4337890625
 21
135.1059899794
  0
LINE
  5
3DD
100
AcDbEntity
  8
0
100
AcDbLine
 62
7
  6
CONTINUOUS
 10
184.4337890625
 20
134.3559899794
 11
184.4337890625
 21
134.0418791118
  0
LINE
  5
3DE
100
AcDbEntity
  8
0
100
AcDbLine
 62
7
  6
CONTINUOUS
 10
184.4337890625
 20
51.2918791118
 11
184.4337890625
 21
83.5418791118
  0
LINE
  5
3DF
100
AcDbEntity
  8
0
100
AcDbLine
 62
7
  6
CONTINUOUS
 10
184.4337890625
 20
148.0963710362
 11
184.4337890625
 21
151.6764980551
  0
LINE
  5
3E0
100
AcDbEntity
  8
0
100
AcDbLine
 62
7
  6
CONTINUOUS
 10
184.4337890625
 20
152.4264980551
 11
184.4337890625
 21
156.006625074
  0
LINE
  5
3E1
100
AcDbEntity
  8
0
100
AcDbLine
 62
7
  6
CONTINUOUS
 10
184.4337890625
 20
156.756625074
 11
184.4337890625
 21
160.3367520929
  0
LINE
  5
3E2
100
AcDbEntity
  8
0
100
AcDbLine
 62
7
  6
CONTINUOUS
 10
184.4337890625
 20
161.0867520929
 11
184.4337890625
 21
164.6668791118
  0
LINE
  5
3E3
100
AcDbEntity
  8
0
100
AcDbLine
 62
7
  6
CONTINUOUS
 10
184.4337890625
 20
165.4168791118
 11
184.4337890625
 21
166.2918791118
  0
LINE
  5
3E4
100
AcDbEntity
  8
RACCORDO
100
AcDbLine
 62
7
  6
CONTINUOUS
 10
186.9337890625
 20
148.0418791118
 11
186.9337890625
 21
69.5418791118
  0
LINE
  5
3E5
100
AcDbEntity
  8
0
100
AcDbLine
 62
7
  6
CONTINUOUS
 10
109.4337890625
 20
148.3918791118
 11
184.4337890625
 21
148.3918791118
  0
LINE
  5
3E6
100
AcDbEntity
  8
RACCORDO
100
AcDbLine
 62
7
  6
CONTINUOUS
 10
107.6837890625
 20
148.7918791118
 11
109.4337890625
 21
148.7918791118
  0
LINE
  5
3E7
100
AcDbEntity
  8
0
100
AcDbLine
 62
250
  6
CONTINUOUS
 10
109.4337890625
 20
148.7918791118
 11
184.4337890625
 21
148.7918791118
  0
LINE
  5
3E8
100
AcDbEntity
  8
RACCORDO
100
AcDbLine
 62
7
  6
CONTINUOUS
 10
184.4337890625
 20
148.7918791118
 11
186.1837890625
 21
148.7918791118
  0
LINE
  5
3E9
100
AcDbEntity
  8
0
100
AcDbLine
 62
7
  6
CONTINUOUS
 10
184.4337890625
 20
166.2918791118
 11
109.4337890625
 21
166.2918791118
  0
CIRCLE
  5
3EA
100
AcDbEntity
  8
ASSI
100
AcDbCircle
 62
7
  6
CONTINUOUS
 10
114.9337890625
 20
52.5418791118
 40
0.625
  0
CIRCLE
  5
3EB
100
AcDbEntity
  8
ASSI
100
AcDbCircle
 62
7
  6
CONTINUOUS
 10
116.1837890625
 20
54.7069426213
 40
0.625
  0
CIRCLE
  5
3EC
100
AcDbEntity
  8
ASSI
100
AcDbCircle
 62
7
  6
CONTINUOUS
 10
112.4337890625
 20
52.5418791118
 40
0.625
  0
CIRCLE
  5
3ED
100
AcDbEntity
  8
ASSI
100
AcDbCircle
 62
7
  6
CONTINUOUS
 10
113.6837890625
 20
54.7069426213
 40
0.625
  0
CIRCLE
  5
3EE
100
AcDbEntity
  8
ASSI
100
AcDbCircle
 62
7
  6
CONTINUOUS
 10
114.9337890625
 20
56.8720061308
 40
0.625
  0
CIRCLE
  5
3EF
100
AcDbEntity
  8
ASSI
100
AcDbCircle
 62
7
  6
CONTINUOUS
 10
116.1837890625
 20
59.0370696402
 40
0.625
  0
CIRCLE
  5
3F0
100
AcDbEntity
  8
ASSI
100
AcDbCircle
 62
7
  6
CONTINUOUS
 10
111.1837890625
 20
54.7069426213
 40
0.625
  0
CIRCLE
  5
3F1
100
AcDbEntity
  8
ASSI
100
AcDbCircle
 62
7
  6
CONTINUOUS
 10
112.4337890625
 20
56.8720061308
 40
0.625
  0
CIRCLE
  5
3F2
100
AcDbEntity
  8
ASSI
100
AcDbCircle
 62
7
  6
CONTINUOUS
 10
113.6837890625
 20
59.0370696402
 40
0.625
  0
CIRCLE
  5
3F3
100
AcDbEntity
  8
ASSI
100
AcDbCircle
 62
7
  6
CONTINUOUS
 10
114.9337890625
 20
61.2021331497
 40
0.625
  0
CIRCLE
  5
3F4
100
AcDbEntity
  8
ASSI
100
AcDbCircle
 62
7
  6
CONTINUOUS
 10
116.1837890625
 20
63.3671966591
 40
0.625
  0
CIRCLE
  5
3F5
100
AcDbEntity
  8
ASSI
100
AcDbCircle
 62
7
  6
CONTINUOUS
 10
111.1837890625
 20
59.0370696402
 40
0.625
  0
CIRCLE
  5
3F6
100
AcDbEntity
  8
ASSI
100
AcDbCircle
 62
7
  6
CONTINUOUS
 10
112.4337890625
 20
61.2021331497
 40
0.625
  0
CIRCLE
  5
3F7
100
AcDbEntity
  8
ASSI
100
AcDbCircle
 62
7
  6
CONTINUOUS
 10
113.6837890625
 20
63.3671966591
 40
0.625
  0
CIRCLE
  5
3F8
100
AcDbEntity
  8
ASSI
100
AcDbCircle
 62
7
  6
CONTINUOUS
 10
111.1837890625
 20
63.3671966591
 40
0.625
  0
ARC
  5
3F9
100
AcDbEntity
  8
0
100
AcDbCircle
 62
7
  6
CONTINUOUS
 10
109.9337890625
 20
61.2021331497
 40
0.625
100
AcDbArc
 50
216.8698976458
 51
143.1301023542
  0
ARC
  5
3FA
100
AcDbEntity
  8
0
100
AcDbCircle
 62
7
  6
CONTINUOUS
 10
109.9337890625
 20
56.8720061308
 40
0.625
100
AcDbArc
 50
216.8698976458
 51
143.1301023542
  0
ARC
  5
3FB
100
AcDbEntity
  8
0
100
AcDbCircle
 62
7
  6
CONTINUOUS
 10
109.9337890625
 20
52.5418791118
 40
0.625
100
AcDbArc
 50
216.8698976458
 51
143.1301023542
  0
ARC
  5
3FC
100
AcDbEntity
  8
RACCORDO
100
AcDbCircle
 62
7
  6
CONTINUOUS
 10
107.6837890625
 20
69.5418791118
 40
0.75
100
AcDbArc
 50
180.0
 51
270.0
  0
CIRCLE
  5
3FD
100
AcDbEntity
  8
ASSI
100
AcDbCircle
 62
7
  6
CONTINUOUS
 10
114.9337890625
 20
69.8623871875
 40
0.625
  0
CIRCLE
  5
3FE
100
AcDbEntity
  8
ASSI
100
AcDbCircle
 62
7
  6
CONTINUOUS
 10
116.1837890625
 20
72.027450697
 40
0.625
  0
CIRCLE
  5
3FF
100
AcDbEntity
  8
ASSI
100
AcDbCircle
 62
7
  6
CONTINUOUS
 10
112.4337890625
 20
69.8623871875
 40
0.625
  0
CIRCLE
  5
400
100
AcDbEntity
  8
ASSI
100
AcDbCircle
 62
7
  6
CONTINUOUS
 10
113.6837890625
 20
72.027450697
 40
0.625
  0
CIRCLE
  5
401
100
AcDbEntity
  8
ASSI
100
AcDbCircle
 62
7
  6
CONTINUOUS
 10
114.9337890625
 20
74.1925142065
 40
0.625
  0
CIRCLE
  5
402
100
AcDbEntity
  8
ASSI
100
AcDbCircle
 62
7
  6
CONTINUOUS
 10
116.1837890625
 20
76.3575777159
 40
0.625
  0
CIRCLE
  5
403
100
AcDbEntity
  8
ASSI
100
AcDbCircle
 62
7
  6
CONTINUOUS
 10
111.1837890625
 20
72.027450697
 40
0.625
  0
CIRCLE
  5
404
100
AcDbEntity
  8
ASSI
100
AcDbCircle
 62
7
  6
CONTINUOUS
 10
112.4337890625
 20
74.1925142065
 40
0.625
  0
CIRCLE
  5
405
100
AcDbEntity
  8
ASSI
100
AcDbCircle
 62
7
  6
CONTINUOUS
 10
113.6837890625
 20
76.3575777159
 40
0.625
  0
CIRCLE
  5
406
100
AcDbEntity
  8
ASSI
100
AcDbCircle
 62
7
  6
CONTINUOUS
 10
111.1837890625
 20
76.3575777159
 40
0.625
  0
CIRCLE
  5
407
100
AcDbEntity
  8
ASSI
100
AcDbCircle
 62
7
  6
CONTINUOUS
 10
114.9337890625
 20
65.5322601686
 40
0.625
  0
CIRCLE
  5
408
100
AcDbEntity
  8
ASSI
100
AcDbCircle
 62
7
  6
CONTINUOUS
 10
116.1837890625
 20
67.6973236781
 40
0.625
  0
CIRCLE
  5
409
100
AcDbEntity
  8
ASSI
100
AcDbCircle
 62
7
  6
CONTINUOUS
 10
112.4337890625
 20
65.5322601686
 40
0.625
  0
CIRCLE
  5
40A
100
AcDbEntity
  8
ASSI
100
AcDbCircle
 62
7
  6
CONTINUOUS
 10
113.6837890625
 20
67.6973236781
 40
0.625
  0
CIRCLE
  5
40B
100
AcDbEntity
  8
ASSI
100
AcDbCircle
 62
7
  6
CONTINUOUS
 10
111.1837890625
 20
67.6973236781
 40
0.625
  0
ARC
  5
40C
100
AcDbEntity
  8
0
100
AcDbCircle
 62
7
  6
CONTINUOUS
 10
109.9337890625
 20
74.1925142065
 40
0.625
100
AcDbArc
 50
216.8698976458
 51
143.1301023542
  0
ARC
  5
40D
100
AcDbEntity
  8
0
100
AcDbCircle
 62
7
  6
CONTINUOUS
 10
109.9337890625
 20
69.8623871875
 40
0.625
100
AcDbArc
 50
216.8698976458
 51
143.1301023542
  0
ARC
  5
40E
100
AcDbEntity
  8
0
100
AcDbCircle
 62
7
  6
CONTINUOUS
 10
109.9337890625
 20
65.5322601686
 40
0.625
100
AcDbArc
 50
216.8698976458
 51
143.1301023542
  0
CIRCLE
  5
40F
100
AcDbEntity
  8
ASSI
100
AcDbCircle
 62
7
  6
CONTINUOUS
 10
119.9337890625
 20
52.5418791118
 40
0.625
  0
CIRCLE
  5
410
100
AcDbEntity
  8
ASSI
100
AcDbCircle
 62
7
  6
CONTINUOUS
 10
121.1837890625
 20
54.7069426213
 40
0.625
  0
CIRCLE
  5
411
100
AcDbEntity
  8
ASSI
100
AcDbCircle
 62
7
  6
CONTINUOUS
 10
117.4337890625
 20
52.5418791118
 40
0.625
  0
CIRCLE
  5
412
100
AcDbEntity
  8
ASSI
100
AcDbCircle
 62
7
  6
CONTINUOUS
 10
118.6837890625
 20
54.7069426213
 40
0.625
  0
CIRCLE
  5
413
100
AcDbEntity
  8
ASSI
100
AcDbCircle
 62
7
  6
CONTINUOUS
 10
119.9337890625
 20
56.8720061308
 40
0.625
  0
CIRCLE
  5
414
100
AcDbEntity
  8
ASSI
100
AcDbCircle
 62
7
  6
CONTINUOUS
 10
117.4337890625
 20
56.8720061308
 40
0.625
  0
CIRCLE
  5
415
100
AcDbEntity
  8
ASSI
100
AcDbCircle
 62
7
  6
CONTINUOUS
 10
121.1837890625
 20
59.0370696402
 40
0.625
  0
CIRCLE
  5
416
100
AcDbEntity
  8
ASSI
100
AcDbCircle
 62
7
  6
CONTINUOUS
 10
118.6837890625
 20
59.0370696402
 40
0.625
  0
CIRCLE
  5
417
100
AcDbEntity
  8
ASSI
100
AcDbCircle
 62
7
  6
CONTINUOUS
 10
119.9337890625
 20
61.2021331497
 40
0.625
  0
CIRCLE
  5
418
100
AcDbEntity
  8
ASSI
100
AcDbCircle
 62
7
  6
CONTINUOUS
 10
121.1837890625
 20
63.3671966591
 40
0.625
  0
CIRCLE
  5
419
100
AcDbEntity
  8
ASSI
100
AcDbCircle
 62
7
  6
CONTINUOUS
 10
117.4337890625
 20
61.2021331497
 40
0.625
  0
CIRCLE
  5
41A
100
AcDbEntity
  8
ASSI
100
AcDbCircle
 62
7
  6
CONTINUOUS
 10
118.6837890625
 20
63.3671966591
 40
0.625
  0
CIRCLE
  5
41B
100
AcDbEntity
  8
ASSI
100
AcDbCircle
 62
7
  6
CONTINUOUS
 10
124.9337890625
 20
52.5418791118
 40
0.625
  0
CIRCLE
  5
41C
100
AcDbEntity
  8
ASSI
100
AcDbCircle
 62
7
  6
CONTINUOUS
 10
126.1837890625
 20
54.7069426213
 40
0.625
  0
CIRCLE
  5
41D
100
AcDbEntity
  8
ASSI
100
AcDbCircle
 62
7
  6
CONTINUOUS
 10
122.4337890625
 20
52.5418791118
 40
0.625
  0
CIRCLE
  5
41E
100
AcDbEntity
  8
ASSI
100
AcDbCircle
 62
7
  6
CONTINUOUS
 10
123.6837890625
 20
54.7069426213
 40
0.625
  0
CIRCLE
  5
41F
100
AcDbEntity
  8
ASSI
100
AcDbCircle
 62
7
  6
CONTINUOUS
 10
124.9337890625
 20
56.8720061308
 40
0.625
  0
CIRCLE
  5
420
100
AcDbEntity
  8
ASSI
100
AcDbCircle
 62
7
  6
CONTINUOUS
 10
122.4337890625
 20
56.8720061308
 40
0.625
  0
CIRCLE
  5
421
100
AcDbEntity
  8
ASSI
100
AcDbCircle
 62
7
  6
CONTINUOUS
 10
126.1837890625
 20
59.0370696402
 40
0.625
  0
CIRCLE
  5
422
100
AcDbEntity
  8
ASSI
100
AcDbCircle
 62
7
  6
CONTINUOUS
 10
123.6837890625
 20
59.0370696402
 40
0.625
  0
CIRCLE
  5
423
100
AcDbEntity
  8
ASSI
100
AcDbCircle
 62
7
  6
CONTINUOUS
 10
124.9337890625
 20
61.2021331497
 40
0.625
  0
CIRCLE
  5
424
100
AcDbEntity
  8
ASSI
100
AcDbCircle
 62
7
  6
CONTINUOUS
 10
126.1837890625
 20
63.3671966591
 40
0.625
  0
CIRCLE
  5
425
100
AcDbEntity
  8
ASSI
100
AcDbCircle
 62
7
  6
CONTINUOUS
 10
122.4337890625
 20
61.2021331497
 40
0.625
  0
CIRCLE
  5
426
100
AcDbEntity
  8
ASSI
100
AcDbCircle
 62
7
  6
CONTINUOUS
 10
123.6837890625
 20
63.3671966591
 40
0.625
  0
CIRCLE
  5
427
100
AcDbEntity
  8
ASSI
100
AcDbCircle
 62
7
  6
CONTINUOUS
 10
119.9337890625
 20
69.8623871875
 40
0.625
  0
CIRCLE
  5
428
100
AcDbEntity
  8
ASSI
100
AcDbCircle
 62
7
  6
CONTINUOUS
 10
117.4337890625
 20
69.8623871875
 40
0.625
  0
CIRCLE
  5
429
100
AcDbEntity
  8
ASSI
100
AcDbCircle
 62
7
  6
CONTINUOUS
 10
119.9337890625
 20
65.5322601686
 40
0.625
  0
CIRCLE
  5
42A
100
AcDbEntity
  8
ASSI
100
AcDbCircle
 62
7
  6
CONTINUOUS
 10
121.1837890625
 20
67.6973236781
 40
0.625
  0
CIRCLE
  5
42B
100
AcDbEntity
  8
ASSI
100
AcDbCircle
 62
7
  6
CONTINUOUS
 10
117.4337890625
 20
65.5322601686
 40
0.625
  0
CIRCLE
  5
42C
100
AcDbEntity
  8
ASSI
100
AcDbCircle
 62
7
  6
CONTINUOUS
 10
118.6837890625
 20
67.6973236781
 40
0.625
  0
CIRCLE
  5
42D
100
AcDbEntity
  8
ASSI
100
AcDbCircle
 62
7
  6
CONTINUOUS
 10
121.1837890625
 20
72.027450697
 40
0.625
  0
CIRCLE
  5
42E
100
AcDbEntity
  8
ASSI
100
AcDbCircle
 62
7
  6
CONTINUOUS
 10
118.6837890625
 20
72.027450697
 40
0.625
  0
CIRCLE
  5
42F
100
AcDbEntity
  8
ASSI
100
AcDbCircle
 62
7
  6
CONTINUOUS
 10
119.9337890625
 20
74.1925142065
 40
0.625
  0
CIRCLE
  5
430
100
AcDbEntity
  8
ASSI
100
AcDbCircle
 62
7
  6
CONTINUOUS
 10
121.1837890625
 20
76.3575777159
 40
0.625
  0
CIRCLE
  5
431
100
AcDbEntity
  8
ASSI
100
AcDbCircle
 62
7
  6
CONTINUOUS
 10
117.4337890625
 20
74.1925142065
 40
0.625
  0
CIRCLE
  5
432
100
AcDbEntity
  8
ASSI
100
AcDbCircle
 62
7
  6
CONTINUOUS
 10
118.6837890625
 20
76.3575777159
 40
0.625
  0
CIRCLE
  5
433
100
AcDbEntity
  8
ASSI
100
AcDbCircle
 62
7
  6
CONTINUOUS
 10
124.9337890625
 20
69.8623871875
 40
0.625
  0
CIRCLE
  5
434
100
AcDbEntity
  8
ASSI
100
AcDbCircle
 62
7
  6
CONTINUOUS
 10
122.4337890625
 20
69.8623871875
 40
0.625
  0
CIRCLE
  5
435
100
AcDbEntity
  8
ASSI
100
AcDbCircle
 62
7
  6
CONTINUOUS
 10
124.9337890625
 20
65.5322601686
 40
0.625
  0
CIRCLE
  5
436
100
AcDbEntity
  8
ASSI
100
AcDbCircle
 62
7
  6
CONTINUOUS
 10
126.1837890625
 20
67.6973236781
 40
0.625
  0
CIRCLE
  5
437
100
AcDbEntity
  8
ASSI
100
AcDbCircle
 62
7
  6
CONTINUOUS
 10
122.4337890625
 20
65.5322601686
 40
0.625
  0
CIRCLE
  5
438
100
AcDbEntity
  8
ASSI
100
AcDbCircle
 62
7
  6
CONTINUOUS
 10
123.6837890625
 20
67.6973236781
 40
0.625
  0
CIRCLE
  5
439
100
AcDbEntity
  8
ASSI
100
AcDbCircle
 62
7
  6
CONTINUOUS
 10
126.1837890625
 20
72.027450697
 40
0.625
  0
CIRCLE
  5
43A
100
AcDbEntity
  8
ASSI
100
AcDbCircle
 62
7
  6
CONTINUOUS
 10
123.6837890625
 20
72.027450697
 40
0.625
  0
CIRCLE
  5
43B
100
AcDbEntity
  8
ASSI
100
AcDbCircle
 62
7
  6
CONTINUOUS
 10
124.9337890625
 20
74.1925142065
 40
0.625
  0
CIRCLE
  5
43C
100
AcDbEntity
  8
ASSI
100
AcDbCircle
 62
7
  6
CONTINUOUS
 10
122.4337890625
 20
74.1925142065
 40
0.625
  0
CIRCLE
  5
43D
100
AcDbEntity
  8
ASSI
100
AcDbCircle
 62
7
  6
CONTINUOUS
 10
123.6837890625
 20
76.3575777159
 40
0.625
  0
CIRCLE
  5
43E
100
AcDbEntity
  8
ASSI
100
AcDbCircle
 62
7
  6
CONTINUOUS
 10
126.1837890625
 20
76.3575777159
 40
0.625
  0
CIRCLE
  5
43F
100
AcDbEntity
  8
ASSI
100
AcDbCircle
 62
7
  6
CONTINUOUS
 10
117.4337890625
 20
78.5226412254
 40
0.625
  0
CIRCLE
  5
440
100
AcDbEntity
  8
ASSI
100
AcDbCircle
 62
7
  6
CONTINUOUS
 10
114.9337890625
 20
78.5226412254
 40
0.625
  0
CIRCLE
  5
441
100
AcDbEntity
  8
ASSI
100
AcDbCircle
 62
7
  6
CONTINUOUS
 10
112.4337890625
 20
78.5226412254
 40
0.625
  0
ARC
  5
442
100
AcDbEntity
  8
0
100
AcDbCircle
 62
7
  6
CONTINUOUS
 10
109.9337890625
 20
78.5226412254
 40
0.625
100
AcDbArc
 50
216.8698976458
 51
143.1301023542
  0
CIRCLE
  5
443
100
AcDbEntity
  8
ASSI
100
AcDbCircle
 62
7
  6
CONTINUOUS
 10
116.1837890625
 20
80.6877047348
 40
0.625
  0
CIRCLE
  5
444
100
AcDbEntity
  8
ASSI
100
AcDbCircle
 62
7
  6
CONTINUOUS
 10
117.4337890625
 20
82.8527682443
 40
0.625
  0
CIRCLE
  5
445
100
AcDbEntity
  8
ASSI
100
AcDbCircle
 62
7
  6
CONTINUOUS
 10
113.6837890625
 20
80.6877047348
 40
0.625
  0
CIRCLE
  5
446
100
AcDbEntity
  8
ASSI
100
AcDbCircle
 62
7
  6
CONTINUOUS
 10
114.9337890625
 20
82.8527682443
 40
0.625
  0
CIRCLE
  5
447
100
AcDbEntity
  8
ASSI
100
AcDbCircle
 62
7
  6
CONTINUOUS
 10
111.1837890625
 20
80.6877047348
 40
0.625
  0
CIRCLE
  5
448
100
AcDbEntity
  8
ASSI
100
AcDbCircle
 62
7
  6
CONTINUOUS
 10
112.4337890625
 20
82.8527682443
 40
0.625
  0
ARC
  5
449
100
AcDbEntity
  8
0
100
AcDbCircle
 62
7
  6
CONTINUOUS
 10
109.9337890625
 20
82.8527682443
 40
0.625
100
AcDbArc
 50
216.8698976458
 51
143.1301023542
  0
CIRCLE
  5
44A
100
AcDbEntity
  8
ASSI
100
AcDbCircle
 62
7
  6
CONTINUOUS
 10
122.4337890625
 20
78.5226412254
 40
0.625
  0
CIRCLE
  5
44B
100
AcDbEntity
  8
ASSI
100
AcDbCircle
 62
7
  6
CONTINUOUS
 10
124.9337890625
 20
78.5226412254
 40
0.625
  0
CIRCLE
  5
44C
100
AcDbEntity
  8
ASSI
100
AcDbCircle
 62
7
  6
CONTINUOUS
 10
119.9337890625
 20
78.5226412254
 40
0.625
  0
CIRCLE
  5
44D
100
AcDbEntity
  8
ASSI
100
AcDbCircle
 62
7
  6
CONTINUOUS
 10
121.1837890625
 20
80.6877047348
 40
0.625
  0
CIRCLE
  5
44E
100
AcDbEntity
  8
ASSI
100
AcDbCircle
 62
7
  6
CONTINUOUS
 10
123.6837890625
 20
80.6877047348
 40
0.625
  0
CIRCLE
  5
44F
100
AcDbEntity
  8
ASSI
100
AcDbCircle
 62
7
  6
CONTINUOUS
 10
126.1837890625
 20
80.6877047348
 40
0.625
  0
CIRCLE
  5
450
100
AcDbEntity
  8
ASSI
100
AcDbCircle
 62
7
  6
CONTINUOUS
 10
118.6837890625
 20
80.6877047348
 40
0.625
  0
CIRCLE
  5
451
100
AcDbEntity
  8
ASSI
100
AcDbCircle
 62
7
  6
CONTINUOUS
 10
119.9337890625
 20
82.8527682443
 40
0.625
  0
CIRCLE
  5
452
100
AcDbEntity
  8
ASSI
100
AcDbCircle
 62
7
  6
CONTINUOUS
 10
122.4337890625
 20
82.8527682443
 40
0.625
  0
CIRCLE
  5
453
100
AcDbEntity
  8
ASSI
100
AcDbCircle
 62
7
  6
CONTINUOUS
 10
124.9337890625
 20
82.8527682443
 40
0.625
  0
CIRCLE
  5
454
100
AcDbEntity
  8
ASSI
100
AcDbCircle
 62
7
  6
CONTINUOUS
 10
129.9337890625
 20
52.5418791118
 40
0.625
  0
CIRCLE
  5
455
100
AcDbEntity
  8
ASSI
100
AcDbCircle
 62
7
  6
CONTINUOUS
 10
131.1837890625
 20
54.7069426213
 40
0.625
  0
CIRCLE
  5
456
100
AcDbEntity
  8
ASSI
100
AcDbCircle
 62
7
  6
CONTINUOUS
 10
127.4337890625
 20
52.5418791118
 40
0.625
  0
CIRCLE
  5
457
100
AcDbEntity
  8
ASSI
100
AcDbCircle
 62
7
  6
CONTINUOUS
 10
128.6837890625
 20
54.7069426213
 40
0.625
  0
CIRCLE
  5
458
100
AcDbEntity
  8
ASSI
100
AcDbCircle
 62
7
  6
CONTINUOUS
 10
129.9337890625
 20
56.8720061308
 40
0.625
  0
CIRCLE
  5
459
100
AcDbEntity
  8
ASSI
100
AcDbCircle
 62
7
  6
CONTINUOUS
 10
127.4337890625
 20
56.8720061308
 40
0.625
  0
CIRCLE
  5
45A
100
AcDbEntity
  8
ASSI
100
AcDbCircle
 62
7
  6
CONTINUOUS
 10
131.1837890625
 20
59.0370696402
 40
0.625
  0
CIRCLE
  5
45B
100
AcDbEntity
  8
ASSI
100
AcDbCircle
 62
7
  6
CONTINUOUS
 10
128.6837890625
 20
59.0370696402
 40
0.625
  0
CIRCLE
  5
45C
100
AcDbEntity
  8
ASSI
100
AcDbCircle
 62
7
  6
CONTINUOUS
 10
129.9337890625
 20
61.2021331497
 40
0.625
  0
CIRCLE
  5
45D
100
AcDbEntity
  8
ASSI
100
AcDbCircle
 62
7
  6
CONTINUOUS
 10
131.1837890625
 20
63.3671966591
 40
0.625
  0
CIRCLE
  5
45E
100
AcDbEntity
  8
ASSI
100
AcDbCircle
 62
7
  6
CONTINUOUS
 10
127.4337890625
 20
61.2021331497
 40
0.625
  0
CIRCLE
  5
45F
100
AcDbEntity
  8
ASSI
100
AcDbCircle
 62
7
  6
CONTINUOUS
 10
128.6837890625
 20
63.3671966591
 40
0.625
  0
CIRCLE
  5
460
100
AcDbEntity
  8
ASSI
100
AcDbCircle
 62
7
  6
CONTINUOUS
 10
134.9337890625
 20
52.5418791118
 40
0.625
  0
CIRCLE
  5
461
100
AcDbEntity
  8
ASSI
100
AcDbCircle
 62
7
  6
CONTINUOUS
 10
136.1837890625
 20
54.7069426213
 40
0.625
  0
CIRCLE
  5
462
100
AcDbEntity
  8
ASSI
100
AcDbCircle
 62
7
  6
CONTINUOUS
 10
132.4337890625
 20
52.5418791118
 40
0.625
  0
CIRCLE
  5
463
100
AcDbEntity
  8
ASSI
100
AcDbCircle
 62
7
  6
CONTINUOUS
 10
133.6837890625
 20
54.7069426213
 40
0.625
  0
CIRCLE
  5
464
100
AcDbEntity
  8
ASSI
100
AcDbCircle
 62
7
  6
CONTINUOUS
 10
134.9337890625
 20
56.8720061308
 40
0.625
  0
CIRCLE
  5
465
100
AcDbEntity
  8
ASSI
100
AcDbCircle
 62
7
  6
CONTINUOUS
 10
132.4337890625
 20
56.8720061308
 40
0.625
  0
CIRCLE
  5
466
100
AcDbEntity
  8
ASSI
100
AcDbCircle
 62
7
  6
CONTINUOUS
 10
133.6837890625
 20
59.0370696402
 40
0.625
  0
CIRCLE
  5
467
100
AcDbEntity
  8
ASSI
100
AcDbCircle
 62
7
  6
CONTINUOUS
 10
136.1837890625
 20
59.0370696402
 40
0.625
  0
CIRCLE
  5
468
100
AcDbEntity
  8
ASSI
100
AcDbCircle
 62
7
  6
CONTINUOUS
 10
132.4337890625
 20
61.2021331497
 40
0.625
  0
CIRCLE
  5
469
100
AcDbEntity
  8
ASSI
100
AcDbCircle
 62
7
  6
CONTINUOUS
 10
134.9337890625
 20
61.2021331497
 40
0.625
  0
CIRCLE
  5
46A
100
AcDbEntity
  8
ASSI
100
AcDbCircle
 62
7
  6
CONTINUOUS
 10
133.6837890625
 20
63.3671966591
 40
0.625
  0
CIRCLE
  5
46B
100
AcDbEntity
  8
ASSI
100
AcDbCircle
 62
7
  6
CONTINUOUS
 10
136.1837890625
 20
63.3671966591
 40
0.625
  0
CIRCLE
  5
46C
100
AcDbEntity
  8
ASSI
100
AcDbCircle
 62
7
  6
CONTINUOUS
 10
127.4337890625
 20
69.8623871875
 40
0.625
  0
CIRCLE
  5
46D
100
AcDbEntity
  8
ASSI
100
AcDbCircle
 62
7
  6
CONTINUOUS
 10
129.9337890625
 20
69.8623871875
 40
0.625
  0
CIRCLE
  5
46E
100
AcDbEntity
  8
ASSI
100
AcDbCircle
 62
7
  6
CONTINUOUS
 10
129.9337890625
 20
65.5322601686
 40
0.625
  0
CIRCLE
  5
46F
100
AcDbEntity
  8
ASSI
100
AcDbCircle
 62
7
  6
CONTINUOUS
 10
127.4337890625
 20
65.5322601686
 40
0.625
  0
CIRCLE
  5
470
100
AcDbEntity
  8
ASSI
100
AcDbCircle
 62
7
  6
CONTINUOUS
 10
128.6837890625
 20
67.6973236781
 40
0.625
  0
CIRCLE
  5
471
100
AcDbEntity
  8
ASSI
100
AcDbCircle
 62
7
  6
CONTINUOUS
 10
131.1837890625
 20
67.6973236781
 40
0.625
  0
CIRCLE
  5
472
100
AcDbEntity
  8
ASSI
100
AcDbCircle
 62
7
  6
CONTINUOUS
 10
128.6837890625
 20
72.027450697
 40
0.625
  0
CIRCLE
  5
473
100
AcDbEntity
  8
ASSI
100
AcDbCircle
 62
7
  6
CONTINUOUS
 10
131.1837890625
 20
72.027450697
 40
0.625
  0
CIRCLE
  5
474
100
AcDbEntity
  8
ASSI
100
AcDbCircle
 62
7
  6
CONTINUOUS
 10
127.4337890625
 20
74.1925142065
 40
0.625
  0
CIRCLE
  5
475
100
AcDbEntity
  8
ASSI
100
AcDbCircle
 62
7
  6
CONTINUOUS
 10
129.9337890625
 20
74.1925142065
 40
0.625
  0
CIRCLE
  5
476
100
AcDbEntity
  8
ASSI
100
AcDbCircle
 62
7
  6
CONTINUOUS
 10
128.6837890625
 20
76.3575777159
 40
0.625
  0
CIRCLE
  5
477
100
AcDbEntity
  8
ASSI
100
AcDbCircle
 62
7
  6
CONTINUOUS
 10
131.1837890625
 20
76.3575777159
 40
0.625
  0
CIRCLE
  5
478
100
AcDbEntity
  8
ASSI
100
AcDbCircle
 62
7
  6
CONTINUOUS
 10
132.4337890625
 20
69.8623871875
 40
0.625
  0
CIRCLE
  5
479
100
AcDbEntity
  8
ASSI
100
AcDbCircle
 62
7
  6
CONTINUOUS
 10
134.9337890625
 20
69.8623871875
 40
0.625
  0
CIRCLE
  5
47A
100
AcDbEntity
  8
ASSI
100
AcDbCircle
 62
7
  6
CONTINUOUS
 10
132.4337890625
 20
65.5322601686
 40
0.625
  0
CIRCLE
  5
47B
100
AcDbEntity
  8
ASSI
100
AcDbCircle
 62
7
  6
CONTINUOUS
 10
134.9337890625
 20
65.5322601686
 40
0.625
  0
CIRCLE
  5
47C
100
AcDbEntity
  8
ASSI
100
AcDbCircle
 62
7
  6
CONTINUOUS
 10
133.6837890625
 20
67.6973236781
 40
0.625
  0
CIRCLE
  5
47D
100
AcDbEntity
  8
ASSI
100
AcDbCircle
 62
7
  6
CONTINUOUS
 10
136.1837890625
 20
67.6973236781
 40
0.625
  0
CIRCLE
  5
47E
100
AcDbEntity
  8
ASSI
100
AcDbCircle
 62
7
  6
CONTINUOUS
 10
133.6837890625
 20
72.027450697
 40
0.625
  0
CIRCLE
  5
47F
100
AcDbEntity
  8
ASSI
100
AcDbCircle
 62
7
  6
CONTINUOUS
 10
136.1837890625
 20
72.027450697
 40
0.625
  0
CIRCLE
  5
480
100
AcDbEntity
  8
ASSI
100
AcDbCircle
 62
7
  6
CONTINUOUS
 10
132.4337890625
 20
74.1925142065
 40
0.625
  0
CIRCLE
  5
481
100
AcDbEntity
  8
ASSI
100
AcDbCircle
 62
7
  6
CONTINUOUS
 10
134.9337890625
 20
74.1925142065
 40
0.625
  0
CIRCLE
  5
482
100
AcDbEntity
  8
ASSI
100
AcDbCircle
 62
7
  6
CONTINUOUS
 10
133.6837890625
 20
76.3575777159
 40
0.625
  0
CIRCLE
  5
483
100
AcDbEntity
  8
ASSI
100
AcDbCircle
 62
7
  6
CONTINUOUS
 10
136.1837890625
 20
76.3575777159
 40
0.625
  0
CIRCLE
  5
484
100
AcDbEntity
  8
ASSI
100
AcDbCircle
 62
7
  6
CONTINUOUS
 10
137.4337890625
 20
52.5418791118
 40
0.625
  0
CIRCLE
  5
485
100
AcDbEntity
  8
ASSI
100
AcDbCircle
 62
7
  6
CONTINUOUS
 10
139.9337890625
 20
52.5418791118
 40
0.625
  0
CIRCLE
  5
486
100
AcDbEntity
  8
ASSI
100
AcDbCircle
 62
7
  6
CONTINUOUS
 10
138.6837890625
 20
54.7069426213
 40
0.625
  0
CIRCLE
  5
487
100
AcDbEntity
  8
ASSI
100
AcDbCircle
 62
7
  6
CONTINUOUS
 10
137.4337890625
 20
56.8720061308
 40
0.625
  0
CIRCLE
  5
488
100
AcDbEntity
  8
ASSI
100
AcDbCircle
 62
7
  6
CONTINUOUS
 10
139.9337890625
 20
56.8720061308
 40
0.625
  0
CIRCLE
  5
489
100
AcDbEntity
  8
ASSI
100
AcDbCircle
 62
7
  6
CONTINUOUS
 10
141.1837890625
 20
54.7069426213
 40
0.625
  0
CIRCLE
  5
48A
100
AcDbEntity
  8
ASSI
100
AcDbCircle
 62
7
  6
CONTINUOUS
 10
138.6837890625
 20
59.0370696402
 40
0.625
  0
CIRCLE
  5
48B
100
AcDbEntity
  8
ASSI
100
AcDbCircle
 62
7
  6
CONTINUOUS
 10
141.1837890625
 20
59.0370696402
 40
0.625
  0
CIRCLE
  5
48C
100
AcDbEntity
  8
ASSI
100
AcDbCircle
 62
7
  6
CONTINUOUS
 10
137.4337890625
 20
61.2021331497
 40
0.625
  0
CIRCLE
  5
48D
100
AcDbEntity
  8
ASSI
100
AcDbCircle
 62
7
  6
CONTINUOUS
 10
139.9337890625
 20
61.2021331497
 40
0.625
  0
CIRCLE
  5
48E
100
AcDbEntity
  8
ASSI
100
AcDbCircle
 62
7
  6
CONTINUOUS
 10
138.6837890625
 20
63.3671966591
 40
0.625
  0
CIRCLE
  5
48F
100
AcDbEntity
  8
ASSI
100
AcDbCircle
 62
7
  6
CONTINUOUS
 10
141.1837890625
 20
63.3671966591
 40
0.625
  0
CIRCLE
  5
490
100
AcDbEntity
  8
ASSI
100
AcDbCircle
 62
7
  6
CONTINUOUS
 10
142.4337890625
 20
52.5418791118
 40
0.625
  0
CIRCLE
  5
491
100
AcDbEntity
  8
ASSI
100
AcDbCircle
 62
7
  6
CONTINUOUS
 10
144.9337890625
 20
52.5418791118
 40
0.625
  0
CIRCLE
  5
492
100
AcDbEntity
  8
ASSI
100
AcDbCircle
 62
7
  6
CONTINUOUS
 10
142.4337890625
 20
56.8720061308
 40
0.625
  0
CIRCLE
  5
493
100
AcDbEntity
  8
ASSI
100
AcDbCircle
 62
7
  6
CONTINUOUS
 10
143.6837890625
 20
54.7069426213
 40
0.625
  0
CIRCLE
  5
494
100
AcDbEntity
  8
ASSI
100
AcDbCircle
 62
7
  6
CONTINUOUS
 10
144.9337890625
 20
56.8720061308
 40
0.625
  0
CIRCLE
  5
495
100
AcDbEntity
  8
ASSI
100
AcDbCircle
 62
7
  6
CONTINUOUS
 10
146.1837890625
 20
54.7069426213
 40
0.625
  0
CIRCLE
  5
496
100
AcDbEntity
  8
ASSI
100
AcDbCircle
 62
7
  6
CONTINUOUS
 10
142.4337890625
 20
61.2021331497
 40
0.625
  0
CIRCLE
  5
497
100
AcDbEntity
  8
ASSI
100
AcDbCircle
 62
7
  6
CONTINUOUS
 10
143.6837890625
 20
59.0370696402
 40
0.625
  0
CIRCLE
  5
498
100
AcDbEntity
  8
ASSI
100
AcDbCircle
 62
7
  6
CONTINUOUS
 10
143.6837890625
 20
63.3671966591
 40
0.625
  0
CIRCLE
  5
499
100
AcDbEntity
  8
ASSI
100
AcDbCircle
 62
7
  6
CONTINUOUS
 10
144.9337890625
 20
61.2021331497
 40
0.625
  0
CIRCLE
  5
49A
100
AcDbEntity
  8
ASSI
100
AcDbCircle
 62
7
  6
CONTINUOUS
 10
146.1837890625
 20
59.0370696402
 40
0.625
  0
CIRCLE
  5
49B
100
AcDbEntity
  8
ASSI
100
AcDbCircle
 62
7
  6
CONTINUOUS
 10
146.1837890625
 20
63.3671966591
 40
0.625
  0
CIRCLE
  5
49C
100
AcDbEntity
  8
ASSI
100
AcDbCircle
 62
7
  6
CONTINUOUS
 10
137.4337890625
 20
69.8623871875
 40
0.625
  0
CIRCLE
  5
49D
100
AcDbEntity
  8
ASSI
100
AcDbCircle
 62
7
  6
CONTINUOUS
 10
139.9337890625
 20
69.8623871875
 40
0.625
  0
CIRCLE
  5
49E
100
AcDbEntity
  8
ASSI
100
AcDbCircle
 62
7
  6
CONTINUOUS
 10
137.4337890625
 20
65.5322601686
 40
0.625
  0
CIRCLE
  5
49F
100
AcDbEntity
  8
ASSI
100
AcDbCircle
 62
7
  6
CONTINUOUS
 10
139.9337890625
 20
65.5322601686
 40
0.625
  0
CIRCLE
  5
4A0
100
AcDbEntity
  8
ASSI
100
AcDbCircle
 62
7
  6
CONTINUOUS
 10
138.6837890625
 20
67.6973236781
 40
0.625
  0
CIRCLE
  5
4A1
100
AcDbEntity
  8
ASSI
100
AcDbCircle
 62
7
  6
CONTINUOUS
 10
141.1837890625
 20
67.6973236781
 40
0.625
  0
CIRCLE
  5
4A2
100
AcDbEntity
  8
ASSI
100
AcDbCircle
 62
7
  6
CONTINUOUS
 10
138.6837890625
 20
72.027450697
 40
0.625
  0
CIRCLE
  5
4A3
100
AcDbEntity
  8
ASSI
100
AcDbCircle
 62
7
  6
CONTINUOUS
 10
141.1837890625
 20
72.027450697
 40
0.625
  0
CIRCLE
  5
4A4
100
AcDbEntity
  8
ASSI
100
AcDbCircle
 62
7
  6
CONTINUOUS
 10
137.4337890625
 20
74.1925142065
 40
0.625
  0
CIRCLE
  5
4A5
100
AcDbEntity
  8
ASSI
100
AcDbCircle
 62
7
  6
CONTINUOUS
 10
139.9337890625
 20
74.1925142065
 40
0.625
  0
CIRCLE
  5
4A6
100
AcDbEntity
  8
ASSI
100
AcDbCircle
 62
7
  6
CONTINUOUS
 10
138.6837890625
 20
76.3575777159
 40
0.625
  0
CIRCLE
  5
4A7
100
AcDbEntity
  8
ASSI
100
AcDbCircle
 62
7
  6
CONTINUOUS
 10
141.1837890625
 20
76.3575777159
 40
0.625
  0
CIRCLE
  5
4A8
100
AcDbEntity
  8
ASSI
100
AcDbCircle
 62
7
  6
CONTINUOUS
 10
142.4337890625
 20
69.8623871875
 40
0.625
  0
CIRCLE
  5
4A9
100
AcDbEntity
  8
ASSI
100
AcDbCircle
 62
7
  6
CONTINUOUS
 10
144.9337890625
 20
69.8623871875
 40
0.625
  0
CIRCLE
  5
4AA
100
AcDbEntity
  8
ASSI
100
AcDbCircle
 62
7
  6
CONTINUOUS
 10
142.4337890625
 20
65.5322601686
 40
0.625
  0
CIRCLE
  5
4AB
100
AcDbEntity
  8
ASSI
100
AcDbCircle
 62
7
  6
CONTINUOUS
 10
144.9337890625
 20
65.5322601686
 40
0.625
  0
CIRCLE
  5
4AC
100
AcDbEntity
  8
ASSI
100
AcDbCircle
 62
7
  6
CONTINUOUS
 10
143.6837890625
 20
67.6973236781
 40
0.625
  0
CIRCLE
  5
4AD
100
AcDbEntity
  8
ASSI
100
AcDbCircle
 62
7
  6
CONTINUOUS
 10
146.1837890625
 20
67.6973236781
 40
0.625
  0
CIRCLE
  5
4AE
100
AcDbEntity
  8
ASSI
100
AcDbCircle
 62
7
  6
CONTINUOUS
 10
143.6837890625
 20
72.027450697
 40
0.625
  0
CIRCLE
  5
4AF
100
AcDbEntity
  8
ASSI
100
AcDbCircle
 62
7
  6
CONTINUOUS
 10
146.1837890625
 20
72.027450697
 40
0.625
  0
CIRCLE
  5
4B0
100
AcDbEntity
  8
ASSI
100
AcDbCircle
 62
7
  6
CONTINUOUS
 10
142.4337890625
 20
74.1925142065
 40
0.625
  0
CIRCLE
  5
4B1
100
AcDbEntity
  8
ASSI
100
AcDbCircle
 62
7
  6
CONTINUOUS
 10
144.9337890625
 20
74.1925142065
 40
0.625
  0
CIRCLE
  5
4B2
100
AcDbEntity
  8
ASSI
100
AcDbCircle
 62
7
  6
CONTINUOUS
 10
143.6837890625
 20
76.3575777159
 40
0.625
  0
CIRCLE
  5
4B3
100
AcDbEntity
  8
ASSI
100
AcDbCircle
 62
7
  6
CONTINUOUS
 10
146.1837890625
 20
76.3575777159
 40
0.625
  0
CIRCLE
  5
4B4
100
AcDbEntity
  8
ASSI
100
AcDbCircle
 62
7
  6
CONTINUOUS
 10
127.4337890625
 20
78.5226412254
 40
0.625
  0
CIRCLE
  5
4B5
100
AcDbEntity
  8
ASSI
100
AcDbCircle
 62
7
  6
CONTINUOUS
 10
129.9337890625
 20
78.5226412254
 40
0.625
  0
CIRCLE
  5
4B6
100
AcDbEntity
  8
ASSI
100
AcDbCircle
 62
7
  6
CONTINUOUS
 10
132.4337890625
 20
78.5226412254
 40
0.625
  0
CIRCLE
  5
4B7
100
AcDbEntity
  8
ASSI
100
AcDbCircle
 62
7
  6
CONTINUOUS
 10
134.9337890625
 20
78.5226412254
 40
0.625
  0
CIRCLE
  5
4B8
100
AcDbEntity
  8
ASSI
100
AcDbCircle
 62
7
  6
CONTINUOUS
 10
128.6837890625
 20
80.6877047348
 40
0.625
  0
CIRCLE
  5
4B9
100
AcDbEntity
  8
ASSI
100
AcDbCircle
 62
7
  6
CONTINUOUS
 10
131.1837890625
 20
80.6877047348
 40
0.625
  0
CIRCLE
  5
4BA
100
AcDbEntity
  8
ASSI
100
AcDbCircle
 62
7
  6
CONTINUOUS
 10
133.6837890625
 20
80.6877047348
 40
0.625
  0
CIRCLE
  5
4BB
100
AcDbEntity
  8
ASSI
100
AcDbCircle
 62
7
  6
CONTINUOUS
 10
136.1837890625
 20
80.6877047348
 40
0.625
  0
CIRCLE
  5
4BC
100
AcDbEntity
  8
ASSI
100
AcDbCircle
 62
7
  6
CONTINUOUS
 10
127.4337890625
 20
82.8527682443
 40
0.625
  0
CIRCLE
  5
4BD
100
AcDbEntity
  8
ASSI
100
AcDbCircle
 62
7
  6
CONTINUOUS
 10
129.9337890625
 20
82.8527682443
 40
0.625
  0
CIRCLE
  5
4BE
100
AcDbEntity
  8
ASSI
100
AcDbCircle
 62
7
  6
CONTINUOUS
 10
132.4337890625
 20
82.8527682443
 40
0.625
  0
CIRCLE
  5
4BF
100
AcDbEntity
  8
ASSI
100
AcDbCircle
 62
7
  6
CONTINUOUS
 10
134.9337890625
 20
82.8527682443
 40
0.625
  0
CIRCLE
  5
4C0
100
AcDbEntity
  8
ASSI
100
AcDbCircle
 62
7
  6
CONTINUOUS
 10
137.4337890625
 20
78.5226412254
 40
0.625
  0
CIRCLE
  5
4C1
100
AcDbEntity
  8
ASSI
100
AcDbCircle
 62
7
  6
CONTINUOUS
 10
139.9337890625
 20
78.5226412254
 40
0.625
  0
CIRCLE
  5
4C2
100
AcDbEntity
  8
ASSI
100
AcDbCircle
 62
7
  6
CONTINUOUS
 10
142.4337890625
 20
78.5226412254
 40
0.625
  0
CIRCLE
  5
4C3
100
AcDbEntity
  8
ASSI
100
AcDbCircle
 62
7
  6
CONTINUOUS
 10
144.9337890625
 20
78.5226412254
 40
0.625
  0
CIRCLE
  5
4C4
100
AcDbEntity
  8
ASSI
100
AcDbCircle
 62
7
  6
CONTINUOUS
 10
138.6837890625
 20
80.6877047348
 40
0.625
  0
CIRCLE
  5
4C5
100
AcDbEntity
  8
ASSI
100
AcDbCircle
 62
7
  6
CONTINUOUS
 10
141.1837890625
 20
80.6877047348
 40
0.625
  0
CIRCLE
  5
4C6
100
AcDbEntity
  8
ASSI
100
AcDbCircle
 62
7
  6
CONTINUOUS
 10
143.6837890625
 20
80.6877047348
 40
0.625
  0
CIRCLE
  5
4C7
100
AcDbEntity
  8
ASSI
100
AcDbCircle
 62
7
  6
CONTINUOUS
 10
146.1837890625
 20
80.6877047348
 40
0.625
  0
CIRCLE
  5
4C8
100
AcDbEntity
  8
ASSI
100
AcDbCircle
 62
7
  6
CONTINUOUS
 10
137.4337890625
 20
82.8527682443
 40
0.625
  0
CIRCLE
  5
4C9
100
AcDbEntity
  8
ASSI
100
AcDbCircle
 62
7
  6
CONTINUOUS
 10
139.9337890625
 20
82.8527682443
 40
0.625
  0
CIRCLE
  5
4CA
100
AcDbEntity
  8
ASSI
100
AcDbCircle
 62
7
  6
CONTINUOUS
 10
142.4337890625
 20
82.8527682443
 40
0.625
  0
CIRCLE
  5
4CB
100
AcDbEntity
  8
ASSI
100
AcDbCircle
 62
7
  6
CONTINUOUS
 10
144.9337890625
 20
82.8527682443
 40
0.625
  0
ARC
  5
4CC
100
AcDbEntity
  8
ASSI
100
AcDbCircle
 62
7
  6
CONTINUOUS
 10
142.2551155625
 20
96.4892026118
 40
0.7973846514
100
AcDbArc
 50
112.8428782627
 51
269.9999820363
  0
ARC
  5
4CD
100
AcDbEntity
  8
RACCORDO
100
AcDbCircle
 62
7
  6
CONTINUOUS
 10
138.2897351649
 20
103.2834462844
 40
0.35
100
AcDbArc
 50
172.0
 51
212.5073693709
  0
ARC
  5
4CE
100
AcDbEntity
  8
RACCORDO
100
AcDbCircle
 62
7
  6
CONTINUOUS
 10
138.2844622349
 20
103.2917295295
 40
0.35
100
AcDbArc
 50
32.452481902
 51
72.0
  0
ARC
  5
4CF
100
AcDbEntity
  8
RACCORDO
100
AcDbCircle
 62
7
  6
CONTINUOUS
 10
141.4336394801
 20
100.1425522842
 40
0.35
100
AcDbArc
 50
18.0
 51
57.547518098
  0
ARC
  5
4D0
100
AcDbEntity
  8
RACCORDO
100
AcDbCircle
 62
7
  6
CONTINUOUS
 10
141.425356235
 20
100.1478252142
 40
0.35
100
AcDbArc
 50
237.4926306291
 51
278.0
  0
ARC
  5
4D1
100
AcDbEntity
  8
ASSI
100
AcDbCircle
 62
7
  6
CONTINUOUS
 10
142.3272930625
 20
96.4892026118
 40
0.3163625
100
AcDbArc
 50
90.0064498942
 51
270.0
  0
ARC
  5
4D2
100
AcDbEntity
  8
RACCORDO
100
AcDbCircle
 62
250
  6
CONTINUOUS
 10
138.2844622349
 20
103.2917295295
 40
0.1999999968
100
AcDbArc
 50
32.452481902
 51
72.0
  0
ARC
  5
4D3
100
AcDbEntity
  8
RACCORDO
100
AcDbCircle
 62
250
  6
CONTINUOUS
 10
141.4336394801
 20
100.1425522842
 40
0.1999999968
100
AcDbArc
 50
18.0
 51
57.547518098
  0
ARC
  5
4D4
100
AcDbEntity
  8
RACCORDO
100
AcDbCircle
 62
250
  6
CONTINUOUS
 10
141.425356235
 20
100.1478252142
 40
0.1999999968
100
AcDbArc
 50
237.4926306291
 51
278.0
  0
ARC
  5
4D5
100
AcDbEntity
  8
RACCORDO
100
AcDbCircle
 62
250
  6
CONTINUOUS
 10
138.2897351649
 20
103.2834462844
 40
0.1999999968
100
AcDbArc
 50
172.0
 51
212.5073693709
  0
ARC
  5
4D6
100
AcDbEntity
  8
RACCORDO
100
AcDbCircle
 62
7
  6
CONTINUOUS
 10
138.0845161841
 20
103.6195614956
 40
0.1
100
AcDbArc
 50
72.0
 51
172.0
  0
ARC
  5
4D7
100
AcDbEntity
  8
RACCORDO
100
AcDbCircle
 62
7
  6
CONTINUOUS
 10
141.7614714463
 20
99.9426062334
 40
0.1
100
AcDbArc
 50
278.0
 51
18.0
  0
CIRCLE
  5
4D8
100
AcDbEntity
  8
ASSI
100
AcDbCircle
 62
7
  6
CONTINUOUS
 10
126.4337890625
 20
134.7309899794
 40
0.625
  0
CIRCLE
  5
4D9
100
AcDbEntity
  8
ASSI
100
AcDbCircle
 62
7
  6
CONTINUOUS
 10
125.1837890625
 20
136.8960534888
 40
0.625
  0
CIRCLE
  5
4DA
100
AcDbEntity
  8
ASSI
100
AcDbCircle
 62
7
  6
CONTINUOUS
 10
123.9337890625
 20
134.7309899794
 40
0.625
  0
CIRCLE
  5
4DB
100
AcDbEntity
  8
ASSI
100
AcDbCircle
 62
7
  6
CONTINUOUS
 10
122.6837890625
 20
136.8960534888
 40
0.625
  0
CIRCLE
  5
4DC
100
AcDbEntity
  8
ASSI
100
AcDbCircle
 62
7
  6
CONTINUOUS
 10
121.4337890625
 20
134.7309899794
 40
0.625
  0
CIRCLE
  5
4DD
100
AcDbEntity
  8
ASSI
100
AcDbCircle
 62
7
  6
CONTINUOUS
 10
120.1837890625
 20
136.8960534888
 40
0.625
  0
CIRCLE
  5
4DE
100
AcDbEntity
  8
ASSI
100
AcDbCircle
 62
7
  6
CONTINUOUS
 10
118.9337890625
 20
134.7309899794
 40
0.625
  0
CIRCLE
  5
4DF
100
AcDbEntity
  8
ASSI
100
AcDbCircle
 62
7
  6
CONTINUOUS
 10
117.6837890625
 20
136.8960534888
 40
0.625
  0
CIRCLE
  5
4E0
100
AcDbEntity
  8
ASSI
100
AcDbCircle
 62
7
  6
CONTINUOUS
 10
116.4337890625
 20
134.7309899794
 40
0.625
  0
CIRCLE
  5
4E1
100
AcDbEntity
  8
ASSI
100
AcDbCircle
 62
7
  6
CONTINUOUS
 10
115.1837890625
 20
136.8960534888
 40
0.625
  0
CIRCLE
  5
4E2
100
AcDbEntity
  8
ASSI
100
AcDbCircle
 62
7
  6
CONTINUOUS
 10
113.9337890625
 20
134.7309899794
 40
0.625
  0
CIRCLE
  5
4E3
100
AcDbEntity
  8
ASSI
100
AcDbCircle
 62
7
  6
CONTINUOUS
 10
112.6837890625
 20
136.8960534888
 40
0.625
  0
CIRCLE
  5
4E4
100
AcDbEntity
  8
ASSI
100
AcDbCircle
 62
7
  6
CONTINUOUS
 10
111.4337890625
 20
134.7309899794
 40
0.625
  0
CIRCLE
  5
4E5
100
AcDbEntity
  8
ASSI
100
AcDbCircle
 62
7
  6
CONTINUOUS
 10
110.1837890625
 20
136.8960534888
 40
0.625
  0
ARC
  5
4E6
100
AcDbEntity
  8
RACCORDO
100
AcDbCircle
 62
7
  6
CONTINUOUS
 10
107.6837890625
 20
148.0418791118
 40
0.75
100
AcDbArc
 50
90.0
 51
180.0
  0
CIRCLE
  5
4E7
100
AcDbEntity
  8
ASSI
100
AcDbCircle
 62
7
  6
CONTINUOUS
 10
116.4337890625
 20
147.7213710362
 40
0.625
  0
CIRCLE
  5
4E8
100
AcDbEntity
  8
ASSI
100
AcDbCircle
 62
7
  6
CONTINUOUS
 10
116.4337890625
 20
143.3912440172
 40
0.625
  0
CIRCLE
  5
4E9
100
AcDbEntity
  8
ASSI
100
AcDbCircle
 62
7
  6
CONTINUOUS
 10
115.1837890625
 20
145.5563075267
 40
0.625
  0
CIRCLE
  5
4EA
100
AcDbEntity
  8
ASSI
100
AcDbCircle
 62
7
  6
CONTINUOUS
 10
113.9337890625
 20
147.7213710362
 40
0.625
  0
CIRCLE
  5
4EB
100
AcDbEntity
  8
ASSI
100
AcDbCircle
 62
7
  6
CONTINUOUS
 10
116.4337890625
 20
139.0611169983
 40
0.625
  0
CIRCLE
  5
4EC
100
AcDbEntity
  8
ASSI
100
AcDbCircle
 62
7
  6
CONTINUOUS
 10
115.1837890625
 20
141.2261805078
 40
0.625
  0
CIRCLE
  5
4ED
100
AcDbEntity
  8
ASSI
100
AcDbCircle
 62
7
  6
CONTINUOUS
 10
113.9337890625
 20
143.3912440172
 40
0.625
  0
CIRCLE
  5
4EE
100
AcDbEntity
  8
ASSI
100
AcDbCircle
 62
7
  6
CONTINUOUS
 10
112.6837890625
 20
145.5563075267
 40
0.625
  0
CIRCLE
  5
4EF
100
AcDbEntity
  8
ASSI
100
AcDbCircle
 62
7
  6
CONTINUOUS
 10
111.4337890625
 20
147.7213710362
 40
0.625
  0
CIRCLE
  5
4F0
100
AcDbEntity
  8
ASSI
100
AcDbCircle
 62
7
  6
CONTINUOUS
 10
113.9337890625
 20
139.0611169983
 40
0.625
  0
CIRCLE
  5
4F1
100
AcDbEntity
  8
ASSI
100
AcDbCircle
 62
7
  6
CONTINUOUS
 10
112.6837890625
 20
141.2261805078
 40
0.625
  0
CIRCLE
  5
4F2
100
AcDbEntity
  8
ASSI
100
AcDbCircle
 62
7
  6
CONTINUOUS
 10
111.4337890625
 20
143.3912440172
 40
0.625
  0
CIRCLE
  5
4F3
100
AcDbEntity
  8
ASSI
100
AcDbCircle
 62
7
  6
CONTINUOUS
 10
110.1837890625
 20
145.5563075267
 40
0.625
  0
CIRCLE
  5
4F4
100
AcDbEntity
  8
ASSI
100
AcDbCircle
 62
7
  6
CONTINUOUS
 10
111.4337890625
 20
139.0611169983
 40
0.625
  0
CIRCLE
  5
4F5
100
AcDbEntity
  8
ASSI
100
AcDbCircle
 62
7
  6
CONTINUOUS
 10
110.1837890625
 20
141.2261805078
 40
0.625
  0
CIRCLE
  5
4F6
100
AcDbEntity
  8
ASSI
100
AcDbCircle
 62
7
  6
CONTINUOUS
 10
115.1837890625
 20
149.8864345456
 40
0.625
  0
CIRCLE
  5
4F7
100
AcDbEntity
  8
ASSI
100
AcDbCircle
 62
7
  6
CONTINUOUS
 10
112.6837890625
 20
149.8864345456
 40
0.625
  0
CIRCLE
  5
4F8
100
AcDbEntity
  8
ASSI
100
AcDbCircle
 62
7
  6
CONTINUOUS
 10
110.1837890625
 20
149.8864345456
 40
0.625
  0
CIRCLE
  5
4F9
100
AcDbEntity
  8
ASSI
100
AcDbCircle
 62
7
  6
CONTINUOUS
 10
112.6837890625
 20
154.2165615645
 40
0.625
  0
CIRCLE
  5
4FA
100
AcDbEntity
  8
ASSI
100
AcDbCircle
 62
7
  6
CONTINUOUS
 10
111.4337890625
 20
156.381625074
 40
0.625
  0
CIRCLE
  5
4FB
100
AcDbEntity
  8
ASSI
100
AcDbCircle
 62
7
  6
CONTINUOUS
 10
111.4337890625
 20
152.0514980551
 40
0.625
  0
CIRCLE
  5
4FC
100
AcDbEntity
  8
ASSI
100
AcDbCircle
 62
7
  6
CONTINUOUS
 10
110.1837890625
 20
154.2165615645
 40
0.625
  0
CIRCLE
  5
4FD
100
AcDbEntity
  8
ASSI
100
AcDbCircle
 62
7
  6
CONTINUOUS
 10
111.4337890625
 20
165.0418791118
 40
0.625
  0
CIRCLE
  5
4FE
100
AcDbEntity
  8
ASSI
100
AcDbCircle
 62
7
  6
CONTINUOUS
 10
112.6837890625
 20
162.8768156024
 40
0.625
  0
CIRCLE
  5
4FF
100
AcDbEntity
  8
ASSI
100
AcDbCircle
 62
7
  6
CONTINUOUS
 10
112.6837890625
 20
158.5466885835
 40
0.625
  0
CIRCLE
  5
500
100
AcDbEntity
  8
ASSI
100
AcDbCircle
 62
7
  6
CONTINUOUS
 10
111.4337890625
 20
160.7117520929
 40
0.625
  0
CIRCLE
  5
501
100
AcDbEntity
  8
ASSI
100
AcDbCircle
 62
7
  6
CONTINUOUS
 10
110.1837890625
 20
162.8768156024
 40
0.625
  0
CIRCLE
  5
502
100
AcDbEntity
  8
ASSI
100
AcDbCircle
 62
7
  6
CONTINUOUS
 10
110.1837890625
 20
158.5466885835
 40
0.625
  0
CIRCLE
  5
503
100
AcDbEntity
  8
ASSI
100
AcDbCircle
 62
7
  6
CONTINUOUS
 10
116.4337890625
 20
156.381625074
 40
0.625
  0
CIRCLE
  5
504
100
AcDbEntity
  8
ASSI
100
AcDbCircle
 62
7
  6
CONTINUOUS
 10
116.4337890625
 20
152.0514980551
 40
0.625
  0
CIRCLE
  5
505
100
AcDbEntity
  8
ASSI
100
AcDbCircle
 62
7
  6
CONTINUOUS
 10
115.1837890625
 20
154.2165615645
 40
0.625
  0
CIRCLE
  5
506
100
AcDbEntity
  8
ASSI
100
AcDbCircle
 62
7
  6
CONTINUOUS
 10
113.9337890625
 20
156.381625074
 40
0.625
  0
CIRCLE
  5
507
100
AcDbEntity
  8
ASSI
100
AcDbCircle
 62
7
  6
CONTINUOUS
 10
113.9337890625
 20
152.0514980551
 40
0.625
  0
CIRCLE
  5
508
100
AcDbEntity
  8
ASSI
100
AcDbCircle
 62
7
  6
CONTINUOUS
 10
116.4337890625
 20
165.0418791118
 40
0.625
  0
CIRCLE
  5
509
100
AcDbEntity
  8
ASSI
100
AcDbCircle
 62
7
  6
CONTINUOUS
 10
113.9337890625
 20
165.0418791118
 40
0.625
  0
CIRCLE
  5
50A
100
AcDbEntity
  8
ASSI
100
AcDbCircle
 62
7
  6
CONTINUOUS
 10
116.4337890625
 20
160.7117520929
 40
0.625
  0
CIRCLE
  5
50B
100
AcDbEntity
  8
ASSI
100
AcDbCircle
 62
7
  6
CONTINUOUS
 10
115.1837890625
 20
162.8768156024
 40
0.625
  0
CIRCLE
  5
50C
100
AcDbEntity
  8
ASSI
100
AcDbCircle
 62
7
  6
CONTINUOUS
 10
115.1837890625
 20
158.5466885835
 40
0.625
  0
CIRCLE
  5
50D
100
AcDbEntity
  8
ASSI
100
AcDbCircle
 62
7
  6
CONTINUOUS
 10
113.9337890625
 20
160.7117520929
 40
0.625
  0
CIRCLE
  5
50E
100
AcDbEntity
  8
ASSI
100
AcDbCircle
 62
7
  6
CONTINUOUS
 10
121.4337890625
 20
143.3912440172
 40
0.625
  0
CIRCLE
  5
50F
100
AcDbEntity
  8
ASSI
100
AcDbCircle
 62
7
  6
CONTINUOUS
 10
121.4337890625
 20
139.0611169983
 40
0.625
  0
CIRCLE
  5
510
100
AcDbEntity
  8
ASSI
100
AcDbCircle
 62
7
  6
CONTINUOUS
 10
120.1837890625
 20
141.2261805078
 40
0.625
  0
CIRCLE
  5
511
100
AcDbEntity
  8
ASSI
100
AcDbCircle
 62
7
  6
CONTINUOUS
 10
118.9337890625
 20
143.3912440172
 40
0.625
  0
CIRCLE
  5
512
100
AcDbEntity
  8
ASSI
100
AcDbCircle
 62
7
  6
CONTINUOUS
 10
118.9337890625
 20
139.0611169983
 40
0.625
  0
CIRCLE
  5
513
100
AcDbEntity
  8
ASSI
100
AcDbCircle
 62
7
  6
CONTINUOUS
 10
117.6837890625
 20
141.2261805078
 40
0.625
  0
CIRCLE
  5
514
100
AcDbEntity
  8
ASSI
100
AcDbCircle
 62
7
  6
CONTINUOUS
 10
121.4337890625
 20
147.7213710362
 40
0.625
  0
CIRCLE
  5
515
100
AcDbEntity
  8
ASSI
100
AcDbCircle
 62
7
  6
CONTINUOUS
 10
120.1837890625
 20
145.5563075267
 40
0.625
  0
CIRCLE
  5
516
100
AcDbEntity
  8
ASSI
100
AcDbCircle
 62
7
  6
CONTINUOUS
 10
118.9337890625
 20
147.7213710362
 40
0.625
  0
CIRCLE
  5
517
100
AcDbEntity
  8
ASSI
100
AcDbCircle
 62
7
  6
CONTINUOUS
 10
117.6837890625
 20
145.5563075267
 40
0.625
  0
CIRCLE
  5
518
100
AcDbEntity
  8
ASSI
100
AcDbCircle
 62
7
  6
CONTINUOUS
 10
120.1837890625
 20
149.8864345456
 40
0.625
  0
CIRCLE
  5
519
100
AcDbEntity
  8
ASSI
100
AcDbCircle
 62
7
  6
CONTINUOUS
 10
117.6837890625
 20
149.8864345456
 40
0.625
  0
CIRCLE
  5
51A
100
AcDbEntity
  8
ASSI
100
AcDbCircle
 62
7
  6
CONTINUOUS
 10
126.4337890625
 20
143.3912440172
 40
0.625
  0
CIRCLE
  5
51B
100
AcDbEntity
  8
ASSI
100
AcDbCircle
 62
7
  6
CONTINUOUS
 10
126.4337890625
 20
139.0611169983
 40
0.625
  0
CIRCLE
  5
51C
100
AcDbEntity
  8
ASSI
100
AcDbCircle
 62
7
  6
CONTINUOUS
 10
125.1837890625
 20
141.2261805078
 40
0.625
  0
CIRCLE
  5
51D
100
AcDbEntity
  8
ASSI
100
AcDbCircle
 62
7
  6
CONTINUOUS
 10
123.9337890625
 20
143.3912440172
 40
0.625
  0
CIRCLE
  5
51E
100
AcDbEntity
  8
ASSI
100
AcDbCircle
 62
7
  6
CONTINUOUS
 10
123.9337890625
 20
139.0611169983
 40
0.625
  0
CIRCLE
  5
51F
100
AcDbEntity
  8
ASSI
100
AcDbCircle
 62
7
  6
CONTINUOUS
 10
122.6837890625
 20
141.2261805078
 40
0.625
  0
CIRCLE
  5
520
100
AcDbEntity
  8
ASSI
100
AcDbCircle
 62
7
  6
CONTINUOUS
 10
126.4337890625
 20
147.7213710362
 40
0.625
  0
CIRCLE
  5
521
100
AcDbEntity
  8
ASSI
100
AcDbCircle
 62
7
  6
CONTINUOUS
 10
125.1837890625
 20
145.5563075267
 40
0.625
  0
CIRCLE
  5
522
100
AcDbEntity
  8
ASSI
100
AcDbCircle
 62
7
  6
CONTINUOUS
 10
123.9337890625
 20
147.7213710362
 40
0.625
  0
CIRCLE
  5
523
100
AcDbEntity
  8
ASSI
100
AcDbCircle
 62
7
  6
CONTINUOUS
 10
122.6837890625
 20
145.5563075267
 40
0.625
  0
CIRCLE
  5
524
100
AcDbEntity
  8
ASSI
100
AcDbCircle
 62
7
  6
CONTINUOUS
 10
125.1837890625
 20
149.8864345456
 40
0.625
  0
CIRCLE
  5
525
100
AcDbEntity
  8
ASSI
100
AcDbCircle
 62
7
  6
CONTINUOUS
 10
122.6837890625
 20
149.8864345456
 40
0.625
  0
CIRCLE
  5
526
100
AcDbEntity
  8
ASSI
100
AcDbCircle
 62
7
  6
CONTINUOUS
 10
121.4337890625
 20
156.381625074
 40
0.625
  0
CIRCLE
  5
527
100
AcDbEntity
  8
ASSI
100
AcDbCircle
 62
7
  6
CONTINUOUS
 10
121.4337890625
 20
152.0514980551
 40
0.625
  0
CIRCLE
  5
528
100
AcDbEntity
  8
ASSI
100
AcDbCircle
 62
7
  6
CONTINUOUS
 10
120.1837890625
 20
154.2165615645
 40
0.625
  0
CIRCLE
  5
529
100
AcDbEntity
  8
ASSI
100
AcDbCircle
 62
7
  6
CONTINUOUS
 10
118.9337890625
 20
156.381625074
 40
0.625
  0
CIRCLE
  5
52A
100
AcDbEntity
  8
ASSI
100
AcDbCircle
 62
7
  6
CONTINUOUS
 10
118.9337890625
 20
152.0514980551
 40
0.625
  0
CIRCLE
  5
52B
100
AcDbEntity
  8
ASSI
100
AcDbCircle
 62
7
  6
CONTINUOUS
 10
117.6837890625
 20
154.2165615645
 40
0.625
  0
CIRCLE
  5
52C
100
AcDbEntity
  8
ASSI
100
AcDbCircle
 62
7
  6
CONTINUOUS
 10
121.4337890625
 20
165.0418791118
 40
0.625
  0
CIRCLE
  5
52D
100
AcDbEntity
  8
ASSI
100
AcDbCircle
 62
7
  6
CONTINUOUS
 10
118.9337890625
 20
165.0418791118
 40
0.625
  0
CIRCLE
  5
52E
100
AcDbEntity
  8
ASSI
100
AcDbCircle
 62
7
  6
CONTINUOUS
 10
121.4337890625
 20
160.7117520929
 40
0.625
  0
CIRCLE
  5
52F
100
AcDbEntity
  8
ASSI
100
AcDbCircle
 62
7
  6
CONTINUOUS
 10
120.1837890625
 20
162.8768156024
 40
0.625
  0
CIRCLE
  5
530
100
AcDbEntity
  8
ASSI
100
AcDbCircle
 62
7
  6
CONTINUOUS
 10
120.1837890625
 20
158.5466885835
 40
0.625
  0
CIRCLE
  5
531
100
AcDbEntity
  8
ASSI
100
AcDbCircle
 62
7
  6
CONTINUOUS
 10
118.9337890625
 20
160.7117520929
 40
0.625
  0
CIRCLE
  5
532
100
AcDbEntity
  8
ASSI
100
AcDbCircle
 62
7
  6
CONTINUOUS
 10
117.6837890625
 20
162.8768156024
 40
0.625
  0
CIRCLE
  5
533
100
AcDbEntity
  8
ASSI
100
AcDbCircle
 62
7
  6
CONTINUOUS
 10
117.6837890625
 20
158.5466885835
 40
0.625
  0
CIRCLE
  5
534
100
AcDbEntity
  8
ASSI
100
AcDbCircle
 62
7
  6
CONTINUOUS
 10
126.4337890625
 20
156.381625074
 40
0.625
  0
CIRCLE
  5
535
100
AcDbEntity
  8
ASSI
100
AcDbCircle
 62
7
  6
CONTINUOUS
 10
126.4337890625
 20
152.0514980551
 40
0.625
  0
CIRCLE
  5
536
100
AcDbEntity
  8
ASSI
100
AcDbCircle
 62
7
  6
CONTINUOUS
 10
125.1837890625
 20
154.2165615645
 40
0.625
  0
CIRCLE
  5
537
100
AcDbEntity
  8
ASSI
100
AcDbCircle
 62
7
  6
CONTINUOUS
 10
123.9337890625
 20
156.381625074
 40
0.625
  0
CIRCLE
  5
538
100
AcDbEntity
  8
ASSI
100
AcDbCircle
 62
7
  6
CONTINUOUS
 10
123.9337890625
 20
152.0514980551
 40
0.625
  0
CIRCLE
  5
539
100
AcDbEntity
  8
ASSI
100
AcDbCircle
 62
7
  6
CONTINUOUS
 10
122.6837890625
 20
154.2165615645
 40
0.625
  0
CIRCLE
  5
53A
100
AcDbEntity
  8
ASSI
100
AcDbCircle
 62
7
  6
CONTINUOUS
 10
126.4337890625
 20
165.0418791118
 40
0.625
  0
CIRCLE
  5
53B
100
AcDbEntity
  8
ASSI
100
AcDbCircle
 62
7
  6
CONTINUOUS
 10
123.9337890625
 20
165.0418791118
 40
0.625
  0
CIRCLE
  5
53C
100
AcDbEntity
  8
ASSI
100
AcDbCircle
 62
7
  6
CONTINUOUS
 10
126.4337890625
 20
160.7117520929
 40
0.625
  0
CIRCLE
  5
53D
100
AcDbEntity
  8
ASSI
100
AcDbCircle
 62
7
  6
CONTINUOUS
 10
125.1837890625
 20
162.8768156024
 40
0.625
  0
CIRCLE
  5
53E
100
AcDbEntity
  8
ASSI
100
AcDbCircle
 62
7
  6
CONTINUOUS
 10
125.1837890625
 20
158.5466885835
 40
0.625
  0
CIRCLE
  5
53F
100
AcDbEntity
  8
ASSI
100
AcDbCircle
 62
7
  6
CONTINUOUS
 10
123.9337890625
 20
160.7117520929
 40
0.625
  0
CIRCLE
  5
540
100
AcDbEntity
  8
ASSI
100
AcDbCircle
 62
7
  6
CONTINUOUS
 10
122.6837890625
 20
162.8768156024
 40
0.625
  0
CIRCLE
  5
541
100
AcDbEntity
  8
ASSI
100
AcDbCircle
 62
7
  6
CONTINUOUS
 10
122.6837890625
 20
158.5466885835
 40
0.625
  0
ARC
  5
542
100
AcDbEntity
  8
ASSI
100
AcDbCircle
 62
7
  6
CONTINUOUS
 10
133.4337890625
 20
108.7918791118
 40
1.4867874662
100
AcDbArc
 50
112.0885434728
 51
93.429822954
  0
ARC
  5
543
100
AcDbEntity
  8
ASSI
100
AcDbCircle
 62
7
  6
CONTINUOUS
 10
133.4787580625
 20
111.5946651118
 40
1.3254442229
100
AcDbArc
 50
227.2312789315
 51
264.201173464
  0
ARC
  5
544
100
AcDbEntity
  8
ASSI
100
AcDbCircle
 62
7
  6
CONTINUOUS
 10
133.3744465625
 20
111.3799726118
 40
1.3095379641
100
AcDbArc
 50
225.4348969444
 51
247.5658550007
  0
CIRCLE
  5
545
100
AcDbEntity
  8
ASSI
100
AcDbCircle
 62
7
  6
CONTINUOUS
 10
133.4337890625
 20
108.7918791118
 40
1.2487975
  0
ARC
  5
546
100
AcDbEntity
  8
ASSI
100
AcDbCircle
 62
7
  6
CONTINUOUS
 10
133.4337890625
 20
108.7918791118
 40
1.1168751596
100
AcDbArc
 50
119.3041411838
 51
224.9957558874
  0
ARC
  5
547
100
AcDbEntity
  8
ASSI
100
AcDbCircle
 62
7
  6
CONTINUOUS
 10
133.4337890625
 20
108.7918791118
 40
1.1168750853
100
AcDbArc
 50
314.9002628452
 51
60.6958588162
  0
ARC
  5
548
100
AcDbEntity
  8
ASSI
100
AcDbCircle
 62
7
  6
CONTINUOUS
 10
133.4337890625
 20
108.7918791118
 40
0.894818942
100
AcDbArc
 50
119.3041347443
 51
211.9732647666
  0
ARC
  5
549
100
AcDbEntity
  8
ASSI
100
AcDbCircle
 62
7
  6
CONTINUOUS
 10
133.4337890625
 20
108.7918791118
 40
0.89481871
100
AcDbArc
 50
328.02673736
 51
60.6958652557
  0
CIRCLE
  5
54A
100
AcDbEntity
  8
ASSI
100
AcDbCircle
 62
7
  6
CONTINUOUS
 10
136.4337890625
 20
134.7309899794
 40
0.625
  0
CIRCLE
  5
54B
100
AcDbEntity
  8
ASSI
100
AcDbCircle
 62
7
  6
CONTINUOUS
 10
135.1837890625
 20
136.8960534888
 40
0.625
  0
CIRCLE
  5
54C
100
AcDbEntity
  8
ASSI
100
AcDbCircle
 62
7
  6
CONTINUOUS
 10
133.9337890625
 20
134.7309899794
 40
0.625
  0
CIRCLE
  5
54D
100
AcDbEntity
  8
ASSI
100
AcDbCircle
 62
7
  6
CONTINUOUS
 10
132.6837890625
 20
136.8960534888
 40
0.625
  0
CIRCLE
  5
54E
100
AcDbEntity
  8
ASSI
100
AcDbCircle
 62
7
  6
CONTINUOUS
 10
131.4337890625
 20
134.7309899794
 40
0.625
  0
CIRCLE
  5
54F
100
AcDbEntity
  8
ASSI
100
AcDbCircle
 62
7
  6
CONTINUOUS
 10
130.1837890625
 20
136.8960534888
 40
0.625
  0
CIRCLE
  5
550
100
AcDbEntity
  8
ASSI
100
AcDbCircle
 62
7
  6
CONTINUOUS
 10
128.9337890625
 20
134.7309899794
 40
0.625
  0
CIRCLE
  5
551
100
AcDbEntity
  8
ASSI
100
AcDbCircle
 62
7
  6
CONTINUOUS
 10
127.6837890625
 20
136.8960534888
 40
0.625
  0
ARC
  5
552
100
AcDbEntity
  8
ASSI
100
AcDbCircle
 62
7
  6
CONTINUOUS
 10
141.4337890625
 20
117.4418791118
 40
0.3995122067
100
AcDbArc
 50
302.4497572827
 51
122.4497572827
  0
ARC
  5
553
100
AcDbEntity
  8
ASSI
100
AcDbCircle
 62
7
  6
CONTINUOUS
 10
138.2837890625
 20
114.2918791118
 40
0.3995122067
100
AcDbArc
 50
147.5502427173
 51
327.5502427173
  0
CIRCLE
  5
554
100
AcDbEntity
  8
ASSI
100
AcDbCircle
 62
7
  6
CONTINUOUS
 10
145.1837890625
 20
136.8960534888
 40
0.625
  0
CIRCLE
  5
555
100
AcDbEntity
  8
ASSI
100
AcDbCircle
 62
7
  6
CONTINUOUS
 10
142.6837890625
 20
136.8960534888
 40
0.625
  0
CIRCLE
  5
556
100
AcDbEntity
  8
ASSI
100
AcDbCircle
 62
7
  6
CONTINUOUS
 10
140.1837890625
 20
136.8960534888
 40
0.625
  0
CIRCLE
  5
557
100
AcDbEntity
  8
ASSI
100
AcDbCircle
 62
7
  6
CONTINUOUS
 10
146.4337890625
 20
134.7309899794
 40
0.625
  0
CIRCLE
  5
558
100
AcDbEntity
  8
ASSI
100
AcDbCircle
 62
7
  6
CONTINUOUS
 10
143.9337890625
 20
134.7309899794
 40
0.625
  0
CIRCLE
  5
559
100
AcDbEntity
  8
ASSI
100
AcDbCircle
 62
7
  6
CONTINUOUS
 10
141.4337890625
 20
134.7309899794
 40
0.625
  0
CIRCLE
  5
55A
100
AcDbEntity
  8
ASSI
100
AcDbCircle
 62
7
  6
CONTINUOUS
 10
138.9337890625
 20
134.7309899794
 40
0.625
  0
CIRCLE
  5
55B
100
AcDbEntity
  8
ASSI
100
AcDbCircle
 62
7
  6
CONTINUOUS
 10
137.6837890625
 20
136.8960534888
 40
0.625
  0
CIRCLE
  5
55C
100
AcDbEntity
  8
ASSI
100
AcDbCircle
 62
7
  6
CONTINUOUS
 10
131.4337890625
 20
143.3912440172
 40
0.625
  0
CIRCLE
  5
55D
100
AcDbEntity
  8
ASSI
100
AcDbCircle
 62
7
  6
CONTINUOUS
 10
131.4337890625
 20
139.0611169983
 40
0.625
  0
CIRCLE
  5
55E
100
AcDbEntity
  8
ASSI
100
AcDbCircle
 62
7
  6
CONTINUOUS
 10
130.1837890625
 20
141.2261805078
 40
0.625
  0
CIRCLE
  5
55F
100
AcDbEntity
  8
ASSI
100
AcDbCircle
 62
7
  6
CONTINUOUS
 10
128.9337890625
 20
143.3912440172
 40
0.625
  0
CIRCLE
  5
560
100
AcDbEntity
  8
ASSI
100
AcDbCircle
 62
7
  6
CONTINUOUS
 10
128.9337890625
 20
139.0611169983
 40
0.625
  0
CIRCLE
  5
561
100
AcDbEntity
  8
ASSI
100
AcDbCircle
 62
7
  6
CONTINUOUS
 10
127.6837890625
 20
141.2261805078
 40
0.625
  0
CIRCLE
  5
562
100
AcDbEntity
  8
ASSI
100
AcDbCircle
 62
7
  6
CONTINUOUS
 10
131.4337890625
 20
147.7213710362
 40
0.625
  0
CIRCLE
  5
563
100
AcDbEntity
  8
ASSI
100
AcDbCircle
 62
7
  6
CONTINUOUS
 10
130.1837890625
 20
145.5563075267
 40
0.625
  0
CIRCLE
  5
564
100
AcDbEntity
  8
ASSI
100
AcDbCircle
 62
7
  6
CONTINUOUS
 10
128.9337890625
 20
147.7213710362
 40
0.625
  0
CIRCLE
  5
565
100
AcDbEntity
  8
ASSI
100
AcDbCircle
 62
7
  6
CONTINUOUS
 10
127.6837890625
 20
145.5563075267
 40
0.625
  0
CIRCLE
  5
566
100
AcDbEntity
  8
ASSI
100
AcDbCircle
 62
7
  6
CONTINUOUS
 10
130.1837890625
 20
149.8864345456
 40
0.625
  0
CIRCLE
  5
567
100
AcDbEntity
  8
ASSI
100
AcDbCircle
 62
7
  6
CONTINUOUS
 10
127.6837890625
 20
149.8864345456
 40
0.625
  0
CIRCLE
  5
568
100
AcDbEntity
  8
ASSI
100
AcDbCircle
 62
7
  6
CONTINUOUS
 10
136.4337890625
 20
143.3912440172
 40
0.625
  0
CIRCLE
  5
569
100
AcDbEntity
  8
ASSI
100
AcDbCircle
 62
7
  6
CONTINUOUS
 10
136.4337890625
 20
139.0611169983
 40
0.625
  0
CIRCLE
  5
56A
100
AcDbEntity
  8
ASSI
100
AcDbCircle
 62
7
  6
CONTINUOUS
 10
135.1837890625
 20
141.2261805078
 40
0.625
  0
CIRCLE
  5
56B
100
AcDbEntity
  8
ASSI
100
AcDbCircle
 62
7
  6
CONTINUOUS
 10
133.9337890625
 20
143.3912440172
 40
0.625
  0
CIRCLE
  5
56C
100
AcDbEntity
  8
ASSI
100
AcDbCircle
 62
7
  6
CONTINUOUS
 10
133.9337890625
 20
139.0611169983
 40
0.625
  0
CIRCLE
  5
56D
100
AcDbEntity
  8
ASSI
100
AcDbCircle
 62
7
  6
CONTINUOUS
 10
132.6837890625
 20
141.2261805078
 40
0.625
  0
CIRCLE
  5
56E
100
AcDbEntity
  8
ASSI
100
AcDbCircle
 62
7
  6
CONTINUOUS
 10
136.4337890625
 20
147.7213710362
 40
0.625
  0
CIRCLE
  5
56F
100
AcDbEntity
  8
ASSI
100
AcDbCircle
 62
7
  6
CONTINUOUS
 10
135.1837890625
 20
145.5563075267
 40
0.625
  0
CIRCLE
  5
570
100
AcDbEntity
  8
ASSI
100
AcDbCircle
 62
7
  6
CONTINUOUS
 10
133.9337890625
 20
147.7213710362
 40
0.625
  0
CIRCLE
  5
571
100
AcDbEntity
  8
ASSI
100
AcDbCircle
 62
7
  6
CONTINUOUS
 10
132.6837890625
 20
145.5563075267
 40
0.625
  0
CIRCLE
  5
572
100
AcDbEntity
  8
ASSI
100
AcDbCircle
 62
7
  6
CONTINUOUS
 10
135.1837890625
 20
149.8864345456
 40
0.625
  0
CIRCLE
  5
573
100
AcDbEntity
  8
ASSI
100
AcDbCircle
 62
7
  6
CONTINUOUS
 10
132.6837890625
 20
149.8864345456
 40
0.625
  0
CIRCLE
  5
574
100
AcDbEntity
  8
ASSI
100
AcDbCircle
 62
7
  6
CONTINUOUS
 10
131.4337890625
 20
156.381625074
 40
0.625
  0
CIRCLE
  5
575
100
AcDbEntity
  8
ASSI
100
AcDbCircle
 62
7
  6
CONTINUOUS
 10
131.4337890625
 20
152.0514980551
 40
0.625
  0
CIRCLE
  5
576
100
AcDbEntity
  8
ASSI
100
AcDbCircle
 62
7
  6
CONTINUOUS
 10
130.1837890625
 20
154.2165615645
 40
0.625
  0
CIRCLE
  5
577
100
AcDbEntity
  8
ASSI
100
AcDbCircle
 62
7
  6
CONTINUOUS
 10
128.9337890625
 20
156.381625074
 40
0.625
  0
CIRCLE
  5
578
100
AcDbEntity
  8
ASSI
100
AcDbCircle
 62
7
  6
CONTINUOUS
 10
128.9337890625
 20
152.0514980551
 40
0.625
  0
CIRCLE
  5
579
100
AcDbEntity
  8
ASSI
100
AcDbCircle
 62
7
  6
CONTINUOUS
 10
127.6837890625
 20
154.2165615645
 40
0.625
  0
CIRCLE
  5
57A
100
AcDbEntity
  8
ASSI
100
AcDbCircle
 62
7
  6
CONTINUOUS
 10
131.4337890625
 20
165.0418791118
 40
0.625
  0
CIRCLE
  5
57B
100
AcDbEntity
  8
ASSI
100
AcDbCircle
 62
7
  6
CONTINUOUS
 10
128.9337890625
 20
165.0418791118
 40
0.625
  0
CIRCLE
  5
57C
100
AcDbEntity
  8
ASSI
100
AcDbCircle
 62
7
  6
CONTINUOUS
 10
131.4337890625
 20
160.7117520929
 40
0.625
  0
CIRCLE
  5
57D
100
AcDbEntity
  8
ASSI
100
AcDbCircle
 62
7
  6
CONTINUOUS
 10
130.1837890625
 20
162.8768156024
 40
0.625
  0
CIRCLE
  5
57E
100
AcDbEntity
  8
ASSI
100
AcDbCircle
 62
7
  6
CONTINUOUS
 10
130.1837890625
 20
158.5466885835
 40
0.625
  0
CIRCLE
  5
57F
100
AcDbEntity
  8
ASSI
100
AcDbCircle
 62
7
  6
CONTINUOUS
 10
128.9337890625
 20
160.7117520929
 40
0.625
  0
CIRCLE
  5
580
100
AcDbEntity
  8
ASSI
100
AcDbCircle
 62
7
  6
CONTINUOUS
 10
127.6837890625
 20
162.8768156024
 40
0.625
  0
CIRCLE
  5
581
100
AcDbEntity
  8
ASSI
100
AcDbCircle
 62
7
  6
CONTINUOUS
 10
127.6837890625
 20
158.5466885835
 40
0.625
  0
CIRCLE
  5
582
100
AcDbEntity
  8
ASSI
100
AcDbCircle
 62
7
  6
CONTINUOUS
 10
136.4337890625
 20
156.381625074
 40
0.625
  0
CIRCLE
  5
583
100
AcDbEntity
  8
ASSI
100
AcDbCircle
 62
7
  6
CONTINUOUS
 10
136.4337890625
 20
152.0514980551
 40
0.625
  0
CIRCLE
  5
584
100
AcDbEntity
  8
ASSI
100
AcDbCircle
 62
7
  6
CONTINUOUS
 10
135.1837890625
 20
154.2165615645
 40
0.625
  0
CIRCLE
  5
585
100
AcDbEntity
  8
ASSI
100
AcDbCircle
 62
7
  6
CONTINUOUS
 10
133.9337890625
 20
156.381625074
 40
0.625
  0
CIRCLE
  5
586
100
AcDbEntity
  8
ASSI
100
AcDbCircle
 62
7
  6
CONTINUOUS
 10
133.9337890625
 20
152.0514980551
 40
0.625
  0
CIRCLE
  5
587
100
AcDbEntity
  8
ASSI
100
AcDbCircle
 62
7
  6
CONTINUOUS
 10
132.6837890625
 20
154.2165615645
 40
0.625
  0
CIRCLE
  5
588
100
AcDbEntity
  8
ASSI
100
AcDbCircle
 62
7
  6
CONTINUOUS
 10
136.4337890625
 20
165.0418791118
 40
0.625
  0
CIRCLE
  5
589
100
AcDbEntity
  8
ASSI
100
AcDbCircle
 62
7
  6
CONTINUOUS
 10
133.9337890625
 20
165.0418791118
 40
0.625
  0
CIRCLE
  5
58A
100
AcDbEntity
  8
ASSI
100
AcDbCircle
 62
7
  6
CONTINUOUS
 10
136.4337890625
 20
160.7117520929
 40
0.625
  0
CIRCLE
  5
58B
100
AcDbEntity
  8
ASSI
100
AcDbCircle
 62
7
  6
CONTINUOUS
 10
135.1837890625
 20
162.8768156024
 40
0.625
  0
CIRCLE
  5
58C
100
AcDbEntity
  8
ASSI
100
AcDbCircle
 62
7
  6
CONTINUOUS
 10
135.1837890625
 20
158.5466885835
 40
0.625
  0
CIRCLE
  5
58D
100
AcDbEntity
  8
ASSI
100
AcDbCircle
 62
7
  6
CONTINUOUS
 10
133.9337890625
 20
160.7117520929
 40
0.625
  0
CIRCLE
  5
58E
100
AcDbEntity
  8
ASSI
100
AcDbCircle
 62
7
  6
CONTINUOUS
 10
132.6837890625
 20
162.8768156024
 40
0.625
  0
CIRCLE
  5
58F
100
AcDbEntity
  8
ASSI
100
AcDbCircle
 62
7
  6
CONTINUOUS
 10
132.6837890625
 20
158.5466885835
 40
0.625
  0
CIRCLE
  5
590
100
AcDbEntity
  8
ASSI
100
AcDbCircle
 62
7
  6
CONTINUOUS
 10
141.4337890625
 20
143.3912440172
 40
0.625
  0
CIRCLE
  5
591
100
AcDbEntity
  8
ASSI
100
AcDbCircle
 62
7
  6
CONTINUOUS
 10
141.4337890625
 20
139.0611169983
 40
0.625
  0
CIRCLE
  5
592
100
AcDbEntity
  8
ASSI
100
AcDbCircle
 62
7
  6
CONTINUOUS
 10
140.1837890625
 20
141.2261805078
 40
0.625
  0
CIRCLE
  5
593
100
AcDbEntity
  8
ASSI
100
AcDbCircle
 62
7
  6
CONTINUOUS
 10
138.9337890625
 20
143.3912440172
 40
0.625
  0
CIRCLE
  5
594
100
AcDbEntity
  8
ASSI
100
AcDbCircle
 62
7
  6
CONTINUOUS
 10
138.9337890625
 20
139.0611169983
 40
0.625
  0
CIRCLE
  5
595
100
AcDbEntity
  8
ASSI
100
AcDbCircle
 62
7
  6
CONTINUOUS
 10
137.6837890625
 20
141.2261805078
 40
0.625
  0
CIRCLE
  5
596
100
AcDbEntity
  8
ASSI
100
AcDbCircle
 62
7
  6
CONTINUOUS
 10
141.4337890625
 20
147.7213710362
 40
0.625
  0
CIRCLE
  5
597
100
AcDbEntity
  8
ASSI
100
AcDbCircle
 62
7
  6
CONTINUOUS
 10
140.1837890625
 20
145.5563075267
 40
0.625
  0
CIRCLE
  5
598
100
AcDbEntity
  8
ASSI
100
AcDbCircle
 62
7
  6
CONTINUOUS
 10
138.9337890625
 20
147.7213710362
 40
0.625
  0
CIRCLE
  5
599
100
AcDbEntity
  8
ASSI
100
AcDbCircle
 62
7
  6
CONTINUOUS
 10
137.6837890625
 20
145.5563075267
 40
0.625
  0
CIRCLE
  5
59A
100
AcDbEntity
  8
ASSI
100
AcDbCircle
 62
7
  6
CONTINUOUS
 10
140.1837890625
 20
149.8864345456
 40
0.625
  0
CIRCLE
  5
59B
100
AcDbEntity
  8
ASSI
100
AcDbCircle
 62
7
  6
CONTINUOUS
 10
137.6837890625
 20
149.8864345456
 40
0.625
  0
CIRCLE
  5
59C
100
AcDbEntity
  8
ASSI
100
AcDbCircle
 62
7
  6
CONTINUOUS
 10
146.4337890625
 20
143.3912440172
 40
0.625
  0
CIRCLE
  5
59D
100
AcDbEntity
  8
ASSI
100
AcDbCircle
 62
7
  6
CONTINUOUS
 10
143.9337890625
 20
143.3912440172
 40
0.625
  0
CIRCLE
  5
59E
100
AcDbEntity
  8
ASSI
100
AcDbCircle
 62
7
  6
CONTINUOUS
 10
145.1837890625
 20
141.2261805078
 40
0.625
  0
CIRCLE
  5
59F
100
AcDbEntity
  8
ASSI
100
AcDbCircle
 62
7
  6
CONTINUOUS
 10
142.6837890625
 20
141.2261805078
 40
0.625
  0
CIRCLE
  5
5A0
100
AcDbEntity
  8
ASSI
100
AcDbCircle
 62
7
  6
CONTINUOUS
 10
146.4337890625
 20
139.0611169983
 40
0.625
  0
CIRCLE
  5
5A1
100
AcDbEntity
  8
ASSI
100
AcDbCircle
 62
7
  6
CONTINUOUS
 10
143.9337890625
 20
139.0611169983
 40
0.625
  0
CIRCLE
  5
5A2
100
AcDbEntity
  8
ASSI
100
AcDbCircle
 62
7
  6
CONTINUOUS
 10
146.4337890625
 20
147.7213710362
 40
0.625
  0
CIRCLE
  5
5A3
100
AcDbEntity
  8
ASSI
100
AcDbCircle
 62
7
  6
CONTINUOUS
 10
145.1837890625
 20
145.5563075267
 40
0.625
  0
CIRCLE
  5
5A4
100
AcDbEntity
  8
ASSI
100
AcDbCircle
 62
7
  6
CONTINUOUS
 10
143.9337890625
 20
147.7213710362
 40
0.625
  0
CIRCLE
  5
5A5
100
AcDbEntity
  8
ASSI
100
AcDbCircle
 62
7
  6
CONTINUOUS
 10
142.6837890625
 20
145.5563075267
 40
0.625
  0
CIRCLE
  5
5A6
100
AcDbEntity
  8
ASSI
100
AcDbCircle
 62
7
  6
CONTINUOUS
 10
145.1837890625
 20
149.8864345456
 40
0.625
  0
CIRCLE
  5
5A7
100
AcDbEntity
  8
ASSI
100
AcDbCircle
 62
7
  6
CONTINUOUS
 10
142.6837890625
 20
149.8864345456
 40
0.625
  0
CIRCLE
  5
5A8
100
AcDbEntity
  8
ASSI
100
AcDbCircle
 62
7
  6
CONTINUOUS
 10
141.4337890625
 20
156.381625074
 40
0.625
  0
CIRCLE
  5
5A9
100
AcDbEntity
  8
ASSI
100
AcDbCircle
 62
7
  6
CONTINUOUS
 10
141.4337890625
 20
152.0514980551
 40
0.625
  0
CIRCLE
  5
5AA
100
AcDbEntity
  8
ASSI
100
AcDbCircle
 62
7
  6
CONTINUOUS
 10
140.1837890625
 20
154.2165615645
 40
0.625
  0
CIRCLE
  5
5AB
100
AcDbEntity
  8
ASSI
100
AcDbCircle
 62
7
  6
CONTINUOUS
 10
138.9337890625
 20
156.381625074
 40
0.625
  0
CIRCLE
  5
5AC
100
AcDbEntity
  8
ASSI
100
AcDbCircle
 62
7
  6
CONTINUOUS
 10
138.9337890625
 20
152.0514980551
 40
0.625
  0
CIRCLE
  5
5AD
100
AcDbEntity
  8
ASSI
100
AcDbCircle
 62
7
  6
CONTINUOUS
 10
137.6837890625
 20
154.2165615645
 40
0.625
  0
CIRCLE
  5
5AE
100
AcDbEntity
  8
ASSI
100
AcDbCircle
 62
7
  6
CONTINUOUS
 10
141.4337890625
 20
165.0418791118
 40
0.625
  0
CIRCLE
  5
5AF
100
AcDbEntity
  8
ASSI
100
AcDbCircle
 62
7
  6
CONTINUOUS
 10
138.9337890625
 20
165.0418791118
 40
0.625
  0
CIRCLE
  5
5B0
100
AcDbEntity
  8
ASSI
100
AcDbCircle
 62
7
  6
CONTINUOUS
 10
141.4337890625
 20
160.7117520929
 40
0.625
  0
CIRCLE
  5
5B1
100
AcDbEntity
  8
ASSI
100
AcDbCircle
 62
7
  6
CONTINUOUS
 10
140.1837890625
 20
162.8768156024
 40
0.625
  0
CIRCLE
  5
5B2
100
AcDbEntity
  8
ASSI
100
AcDbCircle
 62
7
  6
CONTINUOUS
 10
140.1837890625
 20
158.5466885835
 40
0.625
  0
CIRCLE
  5
5B3
100
AcDbEntity
  8
ASSI
100
AcDbCircle
 62
7
  6
CONTINUOUS
 10
138.9337890625
 20
160.7117520929
 40
0.625
  0
CIRCLE
  5
5B4
100
AcDbEntity
  8
ASSI
100
AcDbCircle
 62
7
  6
CONTINUOUS
 10
137.6837890625
 20
162.8768156024
 40
0.625
  0
CIRCLE
  5
5B5
100
AcDbEntity
  8
ASSI
100
AcDbCircle
 62
7
  6
CONTINUOUS
 10
137.6837890625
 20
158.5466885835
 40
0.625
  0
CIRCLE
  5
5B6
100
AcDbEntity
  8
ASSI
100
AcDbCircle
 62
7
  6
CONTINUOUS
 10
146.4337890625
 20
156.381625074
 40
0.625
  0
CIRCLE
  5
5B7
100
AcDbEntity
  8
ASSI
100
AcDbCircle
 62
7
  6
CONTINUOUS
 10
146.4337890625
 20
152.0514980551
 40
0.625
  0
CIRCLE
  5
5B8
100
AcDbEntity
  8
ASSI
100
AcDbCircle
 62
7
  6
CONTINUOUS
 10
145.1837890625
 20
154.2165615645
 40
0.625
  0
CIRCLE
  5
5B9
100
AcDbEntity
  8
ASSI
100
AcDbCircle
 62
7
  6
CONTINUOUS
 10
143.9337890625
 20
156.381625074
 40
0.625
  0
CIRCLE
  5
5BA
100
AcDbEntity
  8
ASSI
100
AcDbCircle
 62
7
  6
CONTINUOUS
 10
143.9337890625
 20
152.0514980551
 40
0.625
  0
CIRCLE
  5
5BB
100
AcDbEntity
  8
ASSI
100
AcDbCircle
 62
7
  6
CONTINUOUS
 10
142.6837890625
 20
154.2165615645
 40
0.625
  0
CIRCLE
  5
5BC
100
AcDbEntity
  8
ASSI
100
AcDbCircle
 62
7
  6
CONTINUOUS
 10
146.4337890625
 20
165.0418791118
 40
0.625
  0
CIRCLE
  5
5BD
100
AcDbEntity
  8
ASSI
100
AcDbCircle
 62
7
  6
CONTINUOUS
 10
143.9337890625
 20
165.0418791118
 40
0.625
  0
CIRCLE
  5
5BE
100
AcDbEntity
  8
ASSI
100
AcDbCircle
 62
7
  6
CONTINUOUS
 10
146.4337890625
 20
160.7117520929
 40
0.625
  0
CIRCLE
  5
5BF
100
AcDbEntity
  8
ASSI
100
AcDbCircle
 62
7
  6
CONTINUOUS
 10
145.1837890625
 20
162.8768156024
 40
0.625
  0
CIRCLE
  5
5C0
100
AcDbEntity
  8
ASSI
100
AcDbCircle
 62
7
  6
CONTINUOUS
 10
145.1837890625
 20
158.5466885835
 40
0.625
  0
CIRCLE
  5
5C1
100
AcDbEntity
  8
ASSI
100
AcDbCircle
 62
7
  6
CONTINUOUS
 10
143.9337890625
 20
160.7117520929
 40
0.625
  0
CIRCLE
  5
5C2
100
AcDbEntity
  8
ASSI
100
AcDbCircle
 62
7
  6
CONTINUOUS
 10
142.6837890625
 20
162.8768156024
 40
0.625
  0
CIRCLE
  5
5C3
100
AcDbEntity
  8
ASSI
100
AcDbCircle
 62
7
  6
CONTINUOUS
 10
142.6837890625
 20
158.5466885835
 40
0.625
  0
CIRCLE
  5
5C4
100
AcDbEntity
  8
ASSI
100
AcDbCircle
 62
7
  6
CONTINUOUS
 10
147.4337890625
 20
52.5418791118
 40
0.625
  0
CIRCLE
  5
5C5
100
AcDbEntity
  8
ASSI
100
AcDbCircle
 62
7
  6
CONTINUOUS
 10
149.9337890625
 20
52.5418791118
 40
0.625
  0
CIRCLE
  5
5C6
100
AcDbEntity
  8
ASSI
100
AcDbCircle
 62
7
  6
CONTINUOUS
 10
147.4337890625
 20
56.8720061308
 40
0.625
  0
CIRCLE
  5
5C7
100
AcDbEntity
  8
ASSI
100
AcDbCircle
 62
7
  6
CONTINUOUS
 10
148.6837890625
 20
54.7069426213
 40
0.625
  0
CIRCLE
  5
5C8
100
AcDbEntity
  8
ASSI
100
AcDbCircle
 62
7
  6
CONTINUOUS
 10
149.9337890625
 20
56.8720061308
 40
0.625
  0
CIRCLE
  5
5C9
100
AcDbEntity
  8
ASSI
100
AcDbCircle
 62
7
  6
CONTINUOUS
 10
151.1837890625
 20
54.7069426213
 40
0.625
  0
CIRCLE
  5
5CA
100
AcDbEntity
  8
ASSI
100
AcDbCircle
 62
7
  6
CONTINUOUS
 10
147.4337890625
 20
61.2021331497
 40
0.625
  0
CIRCLE
  5
5CB
100
AcDbEntity
  8
ASSI
100
AcDbCircle
 62
7
  6
CONTINUOUS
 10
148.6837890625
 20
59.0370696402
 40
0.625
  0
CIRCLE
  5
5CC
100
AcDbEntity
  8
ASSI
100
AcDbCircle
 62
7
  6
CONTINUOUS
 10
148.6837890625
 20
63.3671966591
 40
0.625
  0
CIRCLE
  5
5CD
100
AcDbEntity
  8
ASSI
100
AcDbCircle
 62
7
  6
CONTINUOUS
 10
149.9337890625
 20
61.2021331497
 40
0.625
  0
CIRCLE
  5
5CE
100
AcDbEntity
  8
ASSI
100
AcDbCircle
 62
7
  6
CONTINUOUS
 10
151.1837890625
 20
59.0370696402
 40
0.625
  0
CIRCLE
  5
5CF
100
AcDbEntity
  8
ASSI
100
AcDbCircle
 62
7
  6
CONTINUOUS
 10
151.1837890625
 20
63.3671966591
 40
0.625
  0
CIRCLE
  5
5D0
100
AcDbEntity
  8
ASSI
100
AcDbCircle
 62
7
  6
CONTINUOUS
 10
152.4337890625
 20
52.5418791118
 40
0.625
  0
CIRCLE
  5
5D1
100
AcDbEntity
  8
ASSI
100
AcDbCircle
 62
7
  6
CONTINUOUS
 10
154.9337890625
 20
52.5418791118
 40
0.625
  0
CIRCLE
  5
5D2
100
AcDbEntity
  8
ASSI
100
AcDbCircle
 62
7
  6
CONTINUOUS
 10
152.4337890625
 20
56.8720061308
 40
0.625
  0
CIRCLE
  5
5D3
100
AcDbEntity
  8
ASSI
100
AcDbCircle
 62
7
  6
CONTINUOUS
 10
153.6837890625
 20
54.7069426213
 40
0.625
  0
CIRCLE
  5
5D4
100
AcDbEntity
  8
ASSI
100
AcDbCircle
 62
7
  6
CONTINUOUS
 10
154.9337890625
 20
56.8720061308
 40
0.625
  0
CIRCLE
  5
5D5
100
AcDbEntity
  8
ASSI
100
AcDbCircle
 62
7
  6
CONTINUOUS
 10
156.1837890625
 20
54.7069426213
 40
0.625
  0
CIRCLE
  5
5D6
100
AcDbEntity
  8
ASSI
100
AcDbCircle
 62
7
  6
CONTINUOUS
 10
152.4337890625
 20
61.2021331497
 40
0.625
  0
CIRCLE
  5
5D7
100
AcDbEntity
  8
ASSI
100
AcDbCircle
 62
7
  6
CONTINUOUS
 10
153.6837890625
 20
59.0370696402
 40
0.625
  0
CIRCLE
  5
5D8
100
AcDbEntity
  8
ASSI
100
AcDbCircle
 62
7
  6
CONTINUOUS
 10
153.6837890625
 20
63.3671966591
 40
0.625
  0
CIRCLE
  5
5D9
100
AcDbEntity
  8
ASSI
100
AcDbCircle
 62
7
  6
CONTINUOUS
 10
154.9337890625
 20
61.2021331497
 40
0.625
  0
CIRCLE
  5
5DA
100
AcDbEntity
  8
ASSI
100
AcDbCircle
 62
7
  6
CONTINUOUS
 10
156.1837890625
 20
59.0370696402
 40
0.625
  0
CIRCLE
  5
5DB
100
AcDbEntity
  8
ASSI
100
AcDbCircle
 62
7
  6
CONTINUOUS
 10
156.1837890625
 20
63.3671966591
 40
0.625
  0
CIRCLE
  5
5DC
100
AcDbEntity
  8
ASSI
100
AcDbCircle
 62
7
  6
CONTINUOUS
 10
147.4337890625
 20
69.8623871875
 40
0.625
  0
CIRCLE
  5
5DD
100
AcDbEntity
  8
ASSI
100
AcDbCircle
 62
7
  6
CONTINUOUS
 10
149.9337890625
 20
69.8623871875
 40
0.625
  0
CIRCLE
  5
5DE
100
AcDbEntity
  8
ASSI
100
AcDbCircle
 62
7
  6
CONTINUOUS
 10
147.4337890625
 20
65.5322601686
 40
0.625
  0
CIRCLE
  5
5DF
100
AcDbEntity
  8
ASSI
100
AcDbCircle
 62
7
  6
CONTINUOUS
 10
148.6837890625
 20
67.6973236781
 40
0.625
  0
CIRCLE
  5
5E0
100
AcDbEntity
  8
ASSI
100
AcDbCircle
 62
7
  6
CONTINUOUS
 10
149.9337890625
 20
65.5322601686
 40
0.625
  0
CIRCLE
  5
5E1
100
AcDbEntity
  8
ASSI
100
AcDbCircle
 62
7
  6
CONTINUOUS
 10
151.1837890625
 20
67.6973236781
 40
0.625
  0
CIRCLE
  5
5E2
100
AcDbEntity
  8
ASSI
100
AcDbCircle
 62
7
  6
CONTINUOUS
 10
148.6837890625
 20
72.027450697
 40
0.625
  0
CIRCLE
  5
5E3
100
AcDbEntity
  8
ASSI
100
AcDbCircle
 62
7
  6
CONTINUOUS
 10
147.4337890625
 20
74.1925142065
 40
0.625
  0
CIRCLE
  5
5E4
100
AcDbEntity
  8
ASSI
100
AcDbCircle
 62
7
  6
CONTINUOUS
 10
149.9337890625
 20
74.1925142065
 40
0.625
  0
CIRCLE
  5
5E5
100
AcDbEntity
  8
ASSI
100
AcDbCircle
 62
7
  6
CONTINUOUS
 10
151.1837890625
 20
72.027450697
 40
0.625
  0
CIRCLE
  5
5E6
100
AcDbEntity
  8
ASSI
100
AcDbCircle
 62
7
  6
CONTINUOUS
 10
148.6837890625
 20
76.3575777159
 40
0.625
  0
CIRCLE
  5
5E7
100
AcDbEntity
  8
ASSI
100
AcDbCircle
 62
7
  6
CONTINUOUS
 10
151.1837890625
 20
76.3575777159
 40
0.625
  0
CIRCLE
  5
5E8
100
AcDbEntity
  8
ASSI
100
AcDbCircle
 62
7
  6
CONTINUOUS
 10
152.4337890625
 20
69.8623871875
 40
0.625
  0
CIRCLE
  5
5E9
100
AcDbEntity
  8
ASSI
100
AcDbCircle
 62
7
  6
CONTINUOUS
 10
154.9337890625
 20
69.8623871875
 40
0.625
  0
CIRCLE
  5
5EA
100
AcDbEntity
  8
ASSI
100
AcDbCircle
 62
7
  6
CONTINUOUS
 10
152.4337890625
 20
65.5322601686
 40
0.625
  0
CIRCLE
  5
5EB
100
AcDbEntity
  8
ASSI
100
AcDbCircle
 62
7
  6
CONTINUOUS
 10
153.6837890625
 20
67.6973236781
 40
0.625
  0
CIRCLE
  5
5EC
100
AcDbEntity
  8
ASSI
100
AcDbCircle
 62
7
  6
CONTINUOUS
 10
154.9337890625
 20
65.5322601686
 40
0.625
  0
CIRCLE
  5
5ED
100
AcDbEntity
  8
ASSI
100
AcDbCircle
 62
7
  6
CONTINUOUS
 10
156.1837890625
 20
67.6973236781
 40
0.625
  0
CIRCLE
  5
5EE
100
AcDbEntity
  8
ASSI
100
AcDbCircle
 62
7
  6
CONTINUOUS
 10
152.4337890625
 20
74.1925142065
 40
0.625
  0
CIRCLE
  5
5EF
100
AcDbEntity
  8
ASSI
100
AcDbCircle
 62
7
  6
CONTINUOUS
 10
153.6837890625
 20
72.027450697
 40
0.625
  0
CIRCLE
  5
5F0
100
AcDbEntity
  8
ASSI
100
AcDbCircle
 62
7
  6
CONTINUOUS
 10
153.6837890625
 20
76.3575777159
 40
0.625
  0
CIRCLE
  5
5F1
100
AcDbEntity
  8
ASSI
100
AcDbCircle
 62
7
  6
CONTINUOUS
 10
154.9337890625
 20
74.1925142065
 40
0.625
  0
CIRCLE
  5
5F2
100
AcDbEntity
  8
ASSI
100
AcDbCircle
 62
7
  6
CONTINUOUS
 10
156.1837890625
 20
72.027450697
 40
0.625
  0
CIRCLE
  5
5F3
100
AcDbEntity
  8
ASSI
100
AcDbCircle
 62
7
  6
CONTINUOUS
 10
156.1837890625
 20
76.3575777159
 40
0.625
  0
CIRCLE
  5
5F4
100
AcDbEntity
  8
ASSI
100
AcDbCircle
 62
7
  6
CONTINUOUS
 10
157.4337890625
 20
52.5418791118
 40
0.625
  0
CIRCLE
  5
5F5
100
AcDbEntity
  8
ASSI
100
AcDbCircle
 62
7
  6
CONTINUOUS
 10
159.9337890625
 20
52.5418791118
 40
0.625
  0
CIRCLE
  5
5F6
100
AcDbEntity
  8
ASSI
100
AcDbCircle
 62
7
  6
CONTINUOUS
 10
157.4337890625
 20
56.8720061308
 40
0.625
  0
CIRCLE
  5
5F7
100
AcDbEntity
  8
ASSI
100
AcDbCircle
 62
7
  6
CONTINUOUS
 10
158.6837890625
 20
54.7069426213
 40
0.625
  0
CIRCLE
  5
5F8
100
AcDbEntity
  8
ASSI
100
AcDbCircle
 62
7
  6
CONTINUOUS
 10
159.9337890625
 20
56.8720061308
 40
0.625
  0
CIRCLE
  5
5F9
100
AcDbEntity
  8
ASSI
100
AcDbCircle
 62
7
  6
CONTINUOUS
 10
161.1837890625
 20
54.7069426213
 40
0.625
  0
CIRCLE
  5
5FA
100
AcDbEntity
  8
ASSI
100
AcDbCircle
 62
7
  6
CONTINUOUS
 10
157.4337890625
 20
61.2021331497
 40
0.625
  0
CIRCLE
  5
5FB
100
AcDbEntity
  8
ASSI
100
AcDbCircle
 62
7
  6
CONTINUOUS
 10
158.6837890625
 20
59.0370696402
 40
0.625
  0
CIRCLE
  5
5FC
100
AcDbEntity
  8
ASSI
100
AcDbCircle
 62
7
  6
CONTINUOUS
 10
158.6837890625
 20
63.3671966591
 40
0.625
  0
CIRCLE
  5
5FD
100
AcDbEntity
  8
ASSI
100
AcDbCircle
 62
7
  6
CONTINUOUS
 10
159.9337890625
 20
61.2021331497
 40
0.625
  0
CIRCLE
  5
5FE
100
AcDbEntity
  8
ASSI
100
AcDbCircle
 62
7
  6
CONTINUOUS
 10
161.1837890625
 20
59.0370696402
 40
0.625
  0
CIRCLE
  5
5FF
100
AcDbEntity
  8
ASSI
100
AcDbCircle
 62
7
  6
CONTINUOUS
 10
161.1837890625
 20
63.3671966591
 40
0.625
  0
CIRCLE
  5
600
100
AcDbEntity
  8
ASSI
100
AcDbCircle
 62
7
  6
CONTINUOUS
 10
162.4337890625
 20
52.5418791118
 40
0.625
  0
CIRCLE
  5
601
100
AcDbEntity
  8
ASSI
100
AcDbCircle
 62
7
  6
CONTINUOUS
 10
164.9337890625
 20
52.5418791118
 40
0.625
  0
CIRCLE
  5
602
100
AcDbEntity
  8
ASSI
100
AcDbCircle
 62
7
  6
CONTINUOUS
 10
162.4337890625
 20
56.8720061308
 40
0.625
  0
CIRCLE
  5
603
100
AcDbEntity
  8
ASSI
100
AcDbCircle
 62
7
  6
CONTINUOUS
 10
163.6837890625
 20
54.7069426213
 40
0.625
  0
CIRCLE
  5
604
100
AcDbEntity
  8
ASSI
100
AcDbCircle
 62
7
  6
CONTINUOUS
 10
164.9337890625
 20
56.8720061308
 40
0.625
  0
CIRCLE
  5
605
100
AcDbEntity
  8
ASSI
100
AcDbCircle
 62
7
  6
CONTINUOUS
 10
166.1837890625
 20
54.7069426213
 40
0.625
  0
CIRCLE
  5
606
100
AcDbEntity
  8
ASSI
100
AcDbCircle
 62
7
  6
CONTINUOUS
 10
162.4337890625
 20
61.2021331497
 40
0.625
  0
CIRCLE
  5
607
100
AcDbEntity
  8
ASSI
100
AcDbCircle
 62
7
  6
CONTINUOUS
 10
163.6837890625
 20
59.0370696402
 40
0.625
  0
CIRCLE
  5
608
100
AcDbEntity
  8
ASSI
100
AcDbCircle
 62
7
  6
CONTINUOUS
 10
163.6837890625
 20
63.3671966591
 40
0.625
  0
CIRCLE
  5
609
100
AcDbEntity
  8
ASSI
100
AcDbCircle
 62
7
  6
CONTINUOUS
 10
164.9337890625
 20
61.2021331497
 40
0.625
  0
CIRCLE
  5
60A
100
AcDbEntity
  8
ASSI
100
AcDbCircle
 62
7
  6
CONTINUOUS
 10
166.1837890625
 20
59.0370696402
 40
0.625
  0
CIRCLE
  5
60B
100
AcDbEntity
  8
ASSI
100
AcDbCircle
 62
7
  6
CONTINUOUS
 10
166.1837890625
 20
63.3671966591
 40
0.625
  0
CIRCLE
  5
60C
100
AcDbEntity
  8
ASSI
100
AcDbCircle
 62
7
  6
CONTINUOUS
 10
157.4337890625
 20
69.8623871875
 40
0.625
  0
CIRCLE
  5
60D
100
AcDbEntity
  8
ASSI
100
AcDbCircle
 62
7
  6
CONTINUOUS
 10
159.9337890625
 20
69.8623871875
 40
0.625
  0
CIRCLE
  5
60E
100
AcDbEntity
  8
ASSI
100
AcDbCircle
 62
7
  6
CONTINUOUS
 10
157.4337890625
 20
65.5322601686
 40
0.625
  0
CIRCLE
  5
60F
100
AcDbEntity
  8
ASSI
100
AcDbCircle
 62
7
  6
CONTINUOUS
 10
158.6837890625
 20
67.6973236781
 40
0.625
  0
CIRCLE
  5
610
100
AcDbEntity
  8
ASSI
100
AcDbCircle
 62
7
  6
CONTINUOUS
 10
159.9337890625
 20
65.5322601686
 40
0.625
  0
CIRCLE
  5
611
100
AcDbEntity
  8
ASSI
100
AcDbCircle
 62
7
  6
CONTINUOUS
 10
161.1837890625
 20
67.6973236781
 40
0.625
  0
CIRCLE
  5
612
100
AcDbEntity
  8
ASSI
100
AcDbCircle
 62
7
  6
CONTINUOUS
 10
157.4337890625
 20
74.1925142065
 40
0.625
  0
CIRCLE
  5
613
100
AcDbEntity
  8
ASSI
100
AcDbCircle
 62
7
  6
CONTINUOUS
 10
158.6837890625
 20
72.027450697
 40
0.625
  0
CIRCLE
  5
614
100
AcDbEntity
  8
ASSI
100
AcDbCircle
 62
7
  6
CONTINUOUS
 10
158.6837890625
 20
76.3575777159
 40
0.625
  0
CIRCLE
  5
615
100
AcDbEntity
  8
ASSI
100
AcDbCircle
 62
7
  6
CONTINUOUS
 10
159.9337890625
 20
74.1925142065
 40
0.625
  0
CIRCLE
  5
616
100
AcDbEntity
  8
ASSI
100
AcDbCircle
 62
7
  6
CONTINUOUS
 10
161.1837890625
 20
72.027450697
 40
0.625
  0
CIRCLE
  5
617
100
AcDbEntity
  8
ASSI
100
AcDbCircle
 62
7
  6
CONTINUOUS
 10
161.1837890625
 20
76.3575777159
 40
0.625
  0
CIRCLE
  5
618
100
AcDbEntity
  8
ASSI
100
AcDbCircle
 62
7
  6
CONTINUOUS
 10
162.4337890625
 20
69.8623871875
 40
0.625
  0
CIRCLE
  5
619
100
AcDbEntity
  8
ASSI
100
AcDbCircle
 62
7
  6
CONTINUOUS
 10
164.9337890625
 20
69.8623871875
 40
0.625
  0
CIRCLE
  5
61A
100
AcDbEntity
  8
ASSI
100
AcDbCircle
 62
7
  6
CONTINUOUS
 10
162.4337890625
 20
65.5322601686
 40
0.625
  0
CIRCLE
  5
61B
100
AcDbEntity
  8
ASSI
100
AcDbCircle
 62
7
  6
CONTINUOUS
 10
163.6837890625
 20
67.6973236781
 40
0.625
  0
CIRCLE
  5
61C
100
AcDbEntity
  8
ASSI
100
AcDbCircle
 62
7
  6
CONTINUOUS
 10
164.9337890625
 20
65.5322601686
 40
0.625
  0
CIRCLE
  5
61D
100
AcDbEntity
  8
ASSI
100
AcDbCircle
 62
7
  6
CONTINUOUS
 10
166.1837890625
 20
67.6973236781
 40
0.625
  0
CIRCLE
  5
61E
100
AcDbEntity
  8
ASSI
100
AcDbCircle
 62
7
  6
CONTINUOUS
 10
162.4337890625
 20
74.1925142065
 40
0.625
  0
CIRCLE
  5
61F
100
AcDbEntity
  8
ASSI
100
AcDbCircle
 62
7
  6
CONTINUOUS
 10
163.6837890625
 20
72.027450697
 40
0.625
  0
CIRCLE
  5
620
100
AcDbEntity
  8
ASSI
100
AcDbCircle
 62
7
  6
CONTINUOUS
 10
163.6837890625
 20
76.3575777159
 40
0.625
  0
CIRCLE
  5
621
100
AcDbEntity
  8
ASSI
100
AcDbCircle
 62
7
  6
CONTINUOUS
 10
164.9337890625
 20
74.1925142065
 40
0.625
  0
CIRCLE
  5
622
100
AcDbEntity
  8
ASSI
100
AcDbCircle
 62
7
  6
CONTINUOUS
 10
166.1837890625
 20
72.027450697
 40
0.625
  0
CIRCLE
  5
623
100
AcDbEntity
  8
ASSI
100
AcDbCircle
 62
7
  6
CONTINUOUS
 10
166.1837890625
 20
76.3575777159
 40
0.625
  0
CIRCLE
  5
624
100
AcDbEntity
  8
ASSI
100
AcDbCircle
 62
7
  6
CONTINUOUS
 10
147.4337890625
 20
78.5226412254
 40
0.625
  0
CIRCLE
  5
625
100
AcDbEntity
  8
ASSI
100
AcDbCircle
 62
7
  6
CONTINUOUS
 10
149.9337890625
 20
78.5226412254
 40
0.625
  0
CIRCLE
  5
626
100
AcDbEntity
  8
ASSI
100
AcDbCircle
 62
7
  6
CONTINUOUS
 10
152.4337890625
 20
78.5226412254
 40
0.625
  0
CIRCLE
  5
627
100
AcDbEntity
  8
ASSI
100
AcDbCircle
 62
7
  6
CONTINUOUS
 10
148.6837890625
 20
80.6877047348
 40
0.625
  0
CIRCLE
  5
628
100
AcDbEntity
  8
ASSI
100
AcDbCircle
 62
7
  6
CONTINUOUS
 10
151.1837890625
 20
80.6877047348
 40
0.625
  0
CIRCLE
  5
629
100
AcDbEntity
  8
ASSI
100
AcDbCircle
 62
7
  6
CONTINUOUS
 10
153.6837890625
 20
80.6877047348
 40
0.625
  0
CIRCLE
  5
62A
100
AcDbEntity
  8
ASSI
100
AcDbCircle
 62
7
  6
CONTINUOUS
 10
154.9337890625
 20
78.5226412254
 40
0.625
  0
CIRCLE
  5
62B
100
AcDbEntity
  8
ASSI
100
AcDbCircle
 62
7
  6
CONTINUOUS
 10
147.4337890625
 20
82.8527682443
 40
0.625
  0
CIRCLE
  5
62C
100
AcDbEntity
  8
ASSI
100
AcDbCircle
 62
7
  6
CONTINUOUS
 10
149.9337890625
 20
82.8527682443
 40
0.625
  0
CIRCLE
  5
62D
100
AcDbEntity
  8
ASSI
100
AcDbCircle
 62
7
  6
CONTINUOUS
 10
152.4337890625
 20
82.8527682443
 40
0.625
  0
CIRCLE
  5
62E
100
AcDbEntity
  8
ASSI
100
AcDbCircle
 62
7
  6
CONTINUOUS
 10
154.9337890625
 20
82.8527682443
 40
0.625
  0
CIRCLE
  5
62F
100
AcDbEntity
  8
ASSI
100
AcDbCircle
 62
7
  6
CONTINUOUS
 10
156.1837890625
 20
80.6877047348
 40
0.625
  0
ARC
  5
630
100
AcDbEntity
  8
ASSI
100
AcDbCircle
 62
7
  6
CONTINUOUS
 10
154.7250110625
 20
99.7918791118
 40
1.2749993288
100
AcDbArc
 50
267.752529198
 51
92.247470802
  0
ARC
  5
631
100
AcDbEntity
  8
ASSI
100
AcDbCircle
 62
7
  6
CONTINUOUS
 10
154.7250110625
 20
99.7918791118
 40
0.8999999623
100
AcDbArc
 50
12.0246996921
 51
93.1847386703
  0
ARC
  5
632
100
AcDbEntity
  8
ASSI
100
AcDbCircle
 62
7
  6
CONTINUOUS
 10
154.7250110625
 20
99.7918791118
 40
0.8999984404
100
AcDbArc
 50
266.8152559388
 51
347.9752796707
  0
ARC
  5
633
100
AcDbEntity
  8
ASSI
100
AcDbCircle
 62
7
  6
CONTINUOUS
 10
152.4337890625
 20
100.1418791118
 40
0.3995122067
100
AcDbArc
 50
122.4497572827
 51
302.4497572827
  0
ARC
  5
634
100
AcDbEntity
  8
ASSI
100
AcDbCircle
 62
7
  6
CONTINUOUS
 10
155.5837890625
 20
103.2918791118
 40
0.3995122067
100
AcDbArc
 50
327.5502427173
 51
147.5502427173
  0
CIRCLE
  5
635
100
AcDbEntity
  8
ASSI
100
AcDbCircle
 62
7
  6
CONTINUOUS
 10
157.4337890625
 20
78.5226412254
 40
0.625
  0
CIRCLE
  5
636
100
AcDbEntity
  8
ASSI
100
AcDbCircle
 62
7
  6
CONTINUOUS
 10
157.4337890625
 20
82.8527682443
 40
0.625
  0
CIRCLE
  5
637
100
AcDbEntity
  8
ASSI
100
AcDbCircle
 62
7
  6
CONTINUOUS
 10
158.6837890625
 20
80.6877047348
 40
0.625
  0
CIRCLE
  5
638
100
AcDbEntity
  8
ASSI
100
AcDbCircle
 62
7
  6
CONTINUOUS
 10
159.9337890625
 20
78.5226412254
 40
0.625
  0
CIRCLE
  5
639
100
AcDbEntity
  8
ASSI
100
AcDbCircle
 62
7
  6
CONTINUOUS
 10
159.9337890625
 20
82.8527682443
 40
0.625
  0
CIRCLE
  5
63A
100
AcDbEntity
  8
ASSI
100
AcDbCircle
 62
7
  6
CONTINUOUS
 10
161.1837890625
 20
80.6877047348
 40
0.625
  0
CIRCLE
  5
63B
100
AcDbEntity
  8
ASSI
100
AcDbCircle
 62
7
  6
CONTINUOUS
 10
162.4337890625
 20
78.5226412254
 40
0.625
  0
CIRCLE
  5
63C
100
AcDbEntity
  8
ASSI
100
AcDbCircle
 62
7
  6
CONTINUOUS
 10
162.4337890625
 20
82.8527682443
 40
0.625
  0
CIRCLE
  5
63D
100
AcDbEntity
  8
ASSI
100
AcDbCircle
 62
7
  6
CONTINUOUS
 10
163.6837890625
 20
80.6877047348
 40
0.625
  0
CIRCLE
  5
63E
100
AcDbEntity
  8
ASSI
100
AcDbCircle
 62
7
  6
CONTINUOUS
 10
164.9337890625
 20
78.5226412254
 40
0.625
  0
CIRCLE
  5
63F
100
AcDbEntity
  8
ASSI
100
AcDbCircle
 62
7
  6
CONTINUOUS
 10
164.9337890625
 20
82.8527682443
 40
0.625
  0
CIRCLE
  5
640
100
AcDbEntity
  8
ASSI
100
AcDbCircle
 62
7
  6
CONTINUOUS
 10
166.1837890625
 20
80.6877047348
 40
0.625
  0
ARC
  5
641
100
AcDbEntity
  8
ASSI
100
AcDbCircle
 62
7
  6
CONTINUOUS
 10
156.9175660625
 20
99.7918791118
 40
1.2749992699
100
AcDbArc
 50
267.7525290943
 51
92.2474709057
  0
ARC
  5
642
100
AcDbEntity
  8
ASSI
100
AcDbCircle
 62
7
  6
CONTINUOUS
 10
156.9175660625
 20
99.7918791118
 40
0.8999999623
100
AcDbArc
 50
266.8152613297
 51
93.1847386703
  0
CIRCLE
  5
643
100
AcDbEntity
  8
ASSI
100
AcDbCircle
 62
7
  6
CONTINUOUS
 10
167.4337890625
 20
52.5418791118
 40
0.625
  0
CIRCLE
  5
644
100
AcDbEntity
  8
ASSI
100
AcDbCircle
 62
7
  6
CONTINUOUS
 10
169.9337890625
 20
52.5418791118
 40
0.625
  0
CIRCLE
  5
645
100
AcDbEntity
  8
ASSI
100
AcDbCircle
 62
7
  6
CONTINUOUS
 10
167.4337890625
 20
56.8720061308
 40
0.625
  0
CIRCLE
  5
646
100
AcDbEntity
  8
ASSI
100
AcDbCircle
 62
7
  6
CONTINUOUS
 10
168.6837890625
 20
54.7069426213
 40
0.625
  0
CIRCLE
  5
647
100
AcDbEntity
  8
ASSI
100
AcDbCircle
 62
7
  6
CONTINUOUS
 10
169.9337890625
 20
56.8720061308
 40
0.625
  0
CIRCLE
  5
648
100
AcDbEntity
  8
ASSI
100
AcDbCircle
 62
7
  6
CONTINUOUS
 10
171.1837890625
 20
54.7069426213
 40
0.625
  0
CIRCLE
  5
649
100
AcDbEntity
  8
ASSI
100
AcDbCircle
 62
7
  6
CONTINUOUS
 10
167.4337890625
 20
61.2021331497
 40
0.625
  0
CIRCLE
  5
64A
100
AcDbEntity
  8
ASSI
100
AcDbCircle
 62
7
  6
CONTINUOUS
 10
168.6837890625
 20
59.0370696402
 40
0.625
  0
CIRCLE
  5
64B
100
AcDbEntity
  8
ASSI
100
AcDbCircle
 62
7
  6
CONTINUOUS
 10
168.6837890625
 20
63.3671966591
 40
0.625
  0
CIRCLE
  5
64C
100
AcDbEntity
  8
ASSI
100
AcDbCircle
 62
7
  6
CONTINUOUS
 10
169.9337890625
 20
61.2021331497
 40
0.625
  0
CIRCLE
  5
64D
100
AcDbEntity
  8
ASSI
100
AcDbCircle
 62
7
  6
CONTINUOUS
 10
171.1837890625
 20
59.0370696402
 40
0.625
  0
CIRCLE
  5
64E
100
AcDbEntity
  8
ASSI
100
AcDbCircle
 62
7
  6
CONTINUOUS
 10
171.1837890625
 20
63.3671966591
 40
0.625
  0
CIRCLE
  5
64F
100
AcDbEntity
  8
ASSI
100
AcDbCircle
 62
7
  6
CONTINUOUS
 10
172.4337890625
 20
52.5418791118
 40
0.625
  0
CIRCLE
  5
650
100
AcDbEntity
  8
ASSI
100
AcDbCircle
 62
7
  6
CONTINUOUS
 10
174.9337890625
 20
52.5418791118
 40
0.625
  0
CIRCLE
  5
651
100
AcDbEntity
  8
ASSI
100
AcDbCircle
 62
7
  6
CONTINUOUS
 10
172.4337890625
 20
56.8720061308
 40
0.625
  0
CIRCLE
  5
652
100
AcDbEntity
  8
ASSI
100
AcDbCircle
 62
7
  6
CONTINUOUS
 10
173.6837890625
 20
54.7069426213
 40
0.625
  0
CIRCLE
  5
653
100
AcDbEntity
  8
ASSI
100
AcDbCircle
 62
7
  6
CONTINUOUS
 10
174.9337890625
 20
56.8720061308
 40
0.625
  0
CIRCLE
  5
654
100
AcDbEntity
  8
ASSI
100
AcDbCircle
 62
7
  6
CONTINUOUS
 10
176.1837890625
 20
54.7069426213
 40
0.625
  0
CIRCLE
  5
655
100
AcDbEntity
  8
ASSI
100
AcDbCircle
 62
7
  6
CONTINUOUS
 10
172.4337890625
 20
61.2021331497
 40
0.625
  0
CIRCLE
  5
656
100
AcDbEntity
  8
ASSI
100
AcDbCircle
 62
7
  6
CONTINUOUS
 10
173.6837890625
 20
59.0370696402
 40
0.625
  0
CIRCLE
  5
657
100
AcDbEntity
  8
ASSI
100
AcDbCircle
 62
7
  6
CONTINUOUS
 10
173.6837890625
 20
63.3671966591
 40
0.625
  0
CIRCLE
  5
658
100
AcDbEntity
  8
ASSI
100
AcDbCircle
 62
7
  6
CONTINUOUS
 10
174.9337890625
 20
61.2021331497
 40
0.625
  0
CIRCLE
  5
659
100
AcDbEntity
  8
ASSI
100
AcDbCircle
 62
7
  6
CONTINUOUS
 10
176.1837890625
 20
59.0370696402
 40
0.625
  0
CIRCLE
  5
65A
100
AcDbEntity
  8
ASSI
100
AcDbCircle
 62
7
  6
CONTINUOUS
 10
176.1837890625
 20
63.3671966591
 40
0.625
  0
CIRCLE
  5
65B
100
AcDbEntity
  8
ASSI
100
AcDbCircle
 62
7
  6
CONTINUOUS
 10
167.4337890625
 20
69.8623871875
 40
0.625
  0
CIRCLE
  5
65C
100
AcDbEntity
  8
ASSI
100
AcDbCircle
 62
7
  6
CONTINUOUS
 10
169.9337890625
 20
69.8623871875
 40
0.625
  0
CIRCLE
  5
65D
100
AcDbEntity
  8
ASSI
100
AcDbCircle
 62
7
  6
CONTINUOUS
 10
167.4337890625
 20
65.5322601686
 40
0.625
  0
CIRCLE
  5
65E
100
AcDbEntity
  8
ASSI
100
AcDbCircle
 62
7
  6
CONTINUOUS
 10
168.6837890625
 20
67.6973236781
 40
0.625
  0
CIRCLE
  5
65F
100
AcDbEntity
  8
ASSI
100
AcDbCircle
 62
7
  6
CONTINUOUS
 10
169.9337890625
 20
65.5322601686
 40
0.625
  0
CIRCLE
  5
660
100
AcDbEntity
  8
ASSI
100
AcDbCircle
 62
7
  6
CONTINUOUS
 10
171.1837890625
 20
67.6973236781
 40
0.625
  0
CIRCLE
  5
661
100
AcDbEntity
  8
ASSI
100
AcDbCircle
 62
7
  6
CONTINUOUS
 10
167.4337890625
 20
74.1925142065
 40
0.625
  0
CIRCLE
  5
662
100
AcDbEntity
  8
ASSI
100
AcDbCircle
 62
7
  6
CONTINUOUS
 10
168.6837890625
 20
72.027450697
 40
0.625
  0
CIRCLE
  5
663
100
AcDbEntity
  8
ASSI
100
AcDbCircle
 62
7
  6
CONTINUOUS
 10
168.6837890625
 20
76.3575777159
 40
0.625
  0
CIRCLE
  5
664
100
AcDbEntity
  8
ASSI
100
AcDbCircle
 62
7
  6
CONTINUOUS
 10
169.9337890625
 20
74.1925142065
 40
0.625
  0
CIRCLE
  5
665
100
AcDbEntity
  8
ASSI
100
AcDbCircle
 62
7
  6
CONTINUOUS
 10
171.1837890625
 20
72.027450697
 40
0.625
  0
CIRCLE
  5
666
100
AcDbEntity
  8
ASSI
100
AcDbCircle
 62
7
  6
CONTINUOUS
 10
171.1837890625
 20
76.3575777159
 40
0.625
  0
CIRCLE
  5
667
100
AcDbEntity
  8
ASSI
100
AcDbCircle
 62
7
  6
CONTINUOUS
 10
172.4337890625
 20
69.8623871875
 40
0.625
  0
CIRCLE
  5
668
100
AcDbEntity
  8
ASSI
100
AcDbCircle
 62
7
  6
CONTINUOUS
 10
174.9337890625
 20
69.8623871875
 40
0.625
  0
CIRCLE
  5
669
100
AcDbEntity
  8
ASSI
100
AcDbCircle
 62
7
  6
CONTINUOUS
 10
172.4337890625
 20
65.5322601686
 40
0.625
  0
CIRCLE
  5
66A
100
AcDbEntity
  8
ASSI
100
AcDbCircle
 62
7
  6
CONTINUOUS
 10
173.6837890625
 20
67.6973236781
 40
0.625
  0
CIRCLE
  5
66B
100
AcDbEntity
  8
ASSI
100
AcDbCircle
 62
7
  6
CONTINUOUS
 10
174.9337890625
 20
65.5322601686
 40
0.625
  0
CIRCLE
  5
66C
100
AcDbEntity
  8
ASSI
100
AcDbCircle
 62
7
  6
CONTINUOUS
 10
176.1837890625
 20
67.6973236781
 40
0.625
  0
CIRCLE
  5
66D
100
AcDbEntity
  8
ASSI
100
AcDbCircle
 62
7
  6
CONTINUOUS
 10
172.4337890625
 20
74.1925142065
 40
0.625
  0
CIRCLE
  5
66E
100
AcDbEntity
  8
ASSI
100
AcDbCircle
 62
7
  6
CONTINUOUS
 10
173.6837890625
 20
72.027450697
 40
0.625
  0
CIRCLE
  5
66F
100
AcDbEntity
  8
ASSI
100
AcDbCircle
 62
7
  6
CONTINUOUS
 10
173.6837890625
 20
76.3575777159
 40
0.625
  0
CIRCLE
  5
670
100
AcDbEntity
  8
ASSI
100
AcDbCircle
 62
7
  6
CONTINUOUS
 10
174.9337890625
 20
74.1925142065
 40
0.625
  0
CIRCLE
  5
671
100
AcDbEntity
  8
ASSI
100
AcDbCircle
 62
7
  6
CONTINUOUS
 10
176.1837890625
 20
72.027450697
 40
0.625
  0
CIRCLE
  5
672
100
AcDbEntity
  8
ASSI
100
AcDbCircle
 62
7
  6
CONTINUOUS
 10
176.1837890625
 20
76.3575777159
 40
0.625
  0
CIRCLE
  5
673
100
AcDbEntity
  8
ASSI
100
AcDbCircle
 62
7
  6
CONTINUOUS
 10
177.4337890625
 20
52.5418791118
 40
0.625
  0
CIRCLE
  5
674
100
AcDbEntity
  8
ASSI
100
AcDbCircle
 62
7
  6
CONTINUOUS
 10
179.9337890625
 20
52.5418791118
 40
0.625
  0
CIRCLE
  5
675
100
AcDbEntity
  8
ASSI
100
AcDbCircle
 62
7
  6
CONTINUOUS
 10
177.4337890625
 20
56.8720061308
 40
0.625
  0
CIRCLE
  5
676
100
AcDbEntity
  8
ASSI
100
AcDbCircle
 62
7
  6
CONTINUOUS
 10
178.6837890625
 20
54.7069426213
 40
0.625
  0
CIRCLE
  5
677
100
AcDbEntity
  8
ASSI
100
AcDbCircle
 62
7
  6
CONTINUOUS
 10
182.4337890625
 20
52.5418791118
 40
0.625
  0
CIRCLE
  5
678
100
AcDbEntity
  8
ASSI
100
AcDbCircle
 62
7
  6
CONTINUOUS
 10
177.4337890625
 20
61.2021331497
 40
0.625
  0
CIRCLE
  5
679
100
AcDbEntity
  8
ASSI
100
AcDbCircle
 62
7
  6
CONTINUOUS
 10
178.6837890625
 20
59.0370696402
 40
0.625
  0
CIRCLE
  5
67A
100
AcDbEntity
  8
ASSI
100
AcDbCircle
 62
7
  6
CONTINUOUS
 10
179.9337890625
 20
56.8720061308
 40
0.625
  0
CIRCLE
  5
67B
100
AcDbEntity
  8
ASSI
100
AcDbCircle
 62
7
  6
CONTINUOUS
 10
181.1837890625
 20
54.7069426213
 40
0.625
  0
CIRCLE
  5
67C
100
AcDbEntity
  8
ASSI
100
AcDbCircle
 62
7
  6
CONTINUOUS
 10
178.6837890625
 20
63.3671966591
 40
0.625
  0
CIRCLE
  5
67D
100
AcDbEntity
  8
ASSI
100
AcDbCircle
 62
7
  6
CONTINUOUS
 10
179.9337890625
 20
61.2021331497
 40
0.625
  0
CIRCLE
  5
67E
100
AcDbEntity
  8
ASSI
100
AcDbCircle
 62
7
  6
CONTINUOUS
 10
181.1837890625
 20
59.0370696402
 40
0.625
  0
CIRCLE
  5
67F
100
AcDbEntity
  8
ASSI
100
AcDbCircle
 62
7
  6
CONTINUOUS
 10
182.4337890625
 20
56.8720061308
 40
0.625
  0
CIRCLE
  5
680
100
AcDbEntity
  8
ASSI
100
AcDbCircle
 62
7
  6
CONTINUOUS
 10
183.6837890625
 20
54.7069426213
 40
0.625
  0
CIRCLE
  5
681
100
AcDbEntity
  8
ASSI
100
AcDbCircle
 62
7
  6
CONTINUOUS
 10
181.1837890625
 20
63.3671966591
 40
0.625
  0
CIRCLE
  5
682
100
AcDbEntity
  8
ASSI
100
AcDbCircle
 62
7
  6
CONTINUOUS
 10
182.4337890625
 20
61.2021331497
 40
0.625
  0
CIRCLE
  5
683
100
AcDbEntity
  8
ASSI
100
AcDbCircle
 62
7
  6
CONTINUOUS
 10
183.6837890625
 20
59.0370696402
 40
0.625
  0
CIRCLE
  5
684
100
AcDbEntity
  8
ASSI
100
AcDbCircle
 62
7
  6
CONTINUOUS
 10
183.6837890625
 20
63.3671966591
 40
0.625
  0
ARC
  5
685
100
AcDbEntity
  8
RACCORDO
100
AcDbCircle
 62
7
  6
CONTINUOUS
 10
186.1837890625
 20
69.5418791118
 40
0.75
100
AcDbArc
 50
270.0
 51
360.0
  0
CIRCLE
  5
686
100
AcDbEntity
  8
ASSI
100
AcDbCircle
 62
7
  6
CONTINUOUS
 10
177.4337890625
 20
69.8623871875
 40
0.625
  0
CIRCLE
  5
687
100
AcDbEntity
  8
ASSI
100
AcDbCircle
 62
7
  6
CONTINUOUS
 10
177.4337890625
 20
74.1925142065
 40
0.625
  0
CIRCLE
  5
688
100
AcDbEntity
  8
ASSI
100
AcDbCircle
 62
7
  6
CONTINUOUS
 10
178.6837890625
 20
72.027450697
 40
0.625
  0
CIRCLE
  5
689
100
AcDbEntity
  8
ASSI
100
AcDbCircle
 62
7
  6
CONTINUOUS
 10
179.9337890625
 20
69.8623871875
 40
0.625
  0
CIRCLE
  5
68A
100
AcDbEntity
  8
ASSI
100
AcDbCircle
 62
7
  6
CONTINUOUS
 10
178.6837890625
 20
76.3575777159
 40
0.625
  0
CIRCLE
  5
68B
100
AcDbEntity
  8
ASSI
100
AcDbCircle
 62
7
  6
CONTINUOUS
 10
179.9337890625
 20
74.1925142065
 40
0.625
  0
CIRCLE
  5
68C
100
AcDbEntity
  8
ASSI
100
AcDbCircle
 62
7
  6
CONTINUOUS
 10
181.1837890625
 20
72.027450697
 40
0.625
  0
CIRCLE
  5
68D
100
AcDbEntity
  8
ASSI
100
AcDbCircle
 62
7
  6
CONTINUOUS
 10
182.4337890625
 20
69.8623871875
 40
0.625
  0
CIRCLE
  5
68E
100
AcDbEntity
  8
ASSI
100
AcDbCircle
 62
7
  6
CONTINUOUS
 10
181.1837890625
 20
76.3575777159
 40
0.625
  0
CIRCLE
  5
68F
100
AcDbEntity
  8
ASSI
100
AcDbCircle
 62
7
  6
CONTINUOUS
 10
182.4337890625
 20
74.1925142065
 40
0.625
  0
CIRCLE
  5
690
100
AcDbEntity
  8
ASSI
100
AcDbCircle
 62
7
  6
CONTINUOUS
 10
183.6837890625
 20
72.027450697
 40
0.625
  0
CIRCLE
  5
691
100
AcDbEntity
  8
ASSI
100
AcDbCircle
 62
7
  6
CONTINUOUS
 10
183.6837890625
 20
76.3575777159
 40
0.625
  0
CIRCLE
  5
692
100
AcDbEntity
  8
ASSI
100
AcDbCircle
 62
7
  6
CONTINUOUS
 10
177.4337890625
 20
65.5322601686
 40
0.625
  0
CIRCLE
  5
693
100
AcDbEntity
  8
ASSI
100
AcDbCircle
 62
7
  6
CONTINUOUS
 10
178.6837890625
 20
67.6973236781
 40
0.625
  0
CIRCLE
  5
694
100
AcDbEntity
  8
ASSI
100
AcDbCircle
 62
7
  6
CONTINUOUS
 10
179.9337890625
 20
65.5322601686
 40
0.625
  0
CIRCLE
  5
695
100
AcDbEntity
  8
ASSI
100
AcDbCircle
 62
7
  6
CONTINUOUS
 10
181.1837890625
 20
67.6973236781
 40
0.625
  0
CIRCLE
  5
696
100
AcDbEntity
  8
ASSI
100
AcDbCircle
 62
7
  6
CONTINUOUS
 10
182.4337890625
 20
65.5322601686
 40
0.625
  0
CIRCLE
  5
697
100
AcDbEntity
  8
ASSI
100
AcDbCircle
 62
7
  6
CONTINUOUS
 10
183.6837890625
 20
67.6973236781
 40
0.625
  0
CIRCLE
  5
698
100
AcDbEntity
  8
ASSI
100
AcDbCircle
 62
7
  6
CONTINUOUS
 10
167.4337890625
 20
78.5226412254
 40
0.625
  0
CIRCLE
  5
699
100
AcDbEntity
  8
ASSI
100
AcDbCircle
 62
7
  6
CONTINUOUS
 10
169.9337890625
 20
78.5226412254
 40
0.625
  0
CIRCLE
  5
69A
100
AcDbEntity
  8
ASSI
100
AcDbCircle
 62
7
  6
CONTINUOUS
 10
172.4337890625
 20
78.5226412254
 40
0.625
  0
CIRCLE
  5
69B
100
AcDbEntity
  8
ASSI
100
AcDbCircle
 62
7
  6
CONTINUOUS
 10
174.9337890625
 20
78.5226412254
 40
0.625
  0
CIRCLE
  5
69C
100
AcDbEntity
  8
ASSI
100
AcDbCircle
 62
7
  6
CONTINUOUS
 10
167.4337890625
 20
82.8527682443
 40
0.625
  0
CIRCLE
  5
69D
100
AcDbEntity
  8
ASSI
100
AcDbCircle
 62
7
  6
CONTINUOUS
 10
168.6837890625
 20
80.6877047348
 40
0.625
  0
CIRCLE
  5
69E
100
AcDbEntity
  8
ASSI
100
AcDbCircle
 62
7
  6
CONTINUOUS
 10
169.9337890625
 20
82.8527682443
 40
0.625
  0
CIRCLE
  5
69F
100
AcDbEntity
  8
ASSI
100
AcDbCircle
 62
7
  6
CONTINUOUS
 10
171.1837890625
 20
80.6877047348
 40
0.625
  0
CIRCLE
  5
6A0
100
AcDbEntity
  8
ASSI
100
AcDbCircle
 62
7
  6
CONTINUOUS
 10
172.4337890625
 20
82.8527682443
 40
0.625
  0
CIRCLE
  5
6A1
100
AcDbEntity
  8
ASSI
100
AcDbCircle
 62
7
  6
CONTINUOUS
 10
173.6837890625
 20
80.6877047348
 40
0.625
  0
CIRCLE
  5
6A2
100
AcDbEntity
  8
ASSI
100
AcDbCircle
 62
7
  6
CONTINUOUS
 10
174.9337890625
 20
82.8527682443
 40
0.625
  0
CIRCLE
  5
6A3
100
AcDbEntity
  8
ASSI
100
AcDbCircle
 62
7
  6
CONTINUOUS
 10
177.4337890625
 20
78.5226412254
 40
0.625
  0
CIRCLE
  5
6A4
100
AcDbEntity
  8
ASSI
100
AcDbCircle
 62
7
  6
CONTINUOUS
 10
179.9337890625
 20
78.5226412254
 40
0.625
  0
CIRCLE
  5
6A5
100
AcDbEntity
  8
ASSI
100
AcDbCircle
 62
7
  6
CONTINUOUS
 10
182.4337890625
 20
78.5226412254
 40
0.625
  0
CIRCLE
  5
6A6
100
AcDbEntity
  8
ASSI
100
AcDbCircle
 62
7
  6
CONTINUOUS
 10
176.1837890625
 20
80.6877047348
 40
0.625
  0
CIRCLE
  5
6A7
100
AcDbEntity
  8
ASSI
100
AcDbCircle
 62
7
  6
CONTINUOUS
 10
177.4337890625
 20
82.8527682443
 40
0.625
  0
CIRCLE
  5
6A8
100
AcDbEntity
  8
ASSI
100
AcDbCircle
 62
7
  6
CONTINUOUS
 10
178.6837890625
 20
80.6877047348
 40
0.625
  0
CIRCLE
  5
6A9
100
AcDbEntity
  8
ASSI
100
AcDbCircle
 62
7
  6
CONTINUOUS
 10
179.9337890625
 20
82.8527682443
 40
0.625
  0
CIRCLE
  5
6AA
100
AcDbEntity
  8
ASSI
100
AcDbCircle
 62
7
  6
CONTINUOUS
 10
181.1837890625
 20
80.6877047348
 40
0.625
  0
CIRCLE
  5
6AB
100
AcDbEntity
  8
ASSI
100
AcDbCircle
 62
7
  6
CONTINUOUS
 10
182.4337890625
 20
82.8527682443
 40
0.625
  0
CIRCLE
  5
6AC
100
AcDbEntity
  8
ASSI
100
AcDbCircle
 62
7
  6
CONTINUOUS
 10
183.6837890625
 20
80.6877047348
 40
0.625
  0
CIRCLE
  5
6AD
100
AcDbEntity
  8
RACCORDO
100
AcDbCircle
 62
250
  6
CONTINUOUS
 10
146.9337890625
 20
108.7918791118
 40
19.541331174
  0
CIRCLE
  5
6AE
100
AcDbEntity
  8
RACCORDO
100
AcDbCircle
 62
250
  6
CONTINUOUS
 10
146.9337890625
 20
108.7918791118
 40
18.5451364759
  0
CIRCLE
  5
6AF
100
AcDbEntity
  8
DRAFT
100
AcDbCircle
 62
7
  6
CONTINUOUS
 10
146.9337890625
 20
108.7918791118
 40
18.3712828758
  0
ARC
  5
6B0
100
AcDbEntity
  8
0
100
AcDbCircle
 62
7
  6
CONTINUOUS
 10
146.9337890625
 20
108.7918791118
 40
17.5
100
AcDbArc
 50
197.4576031237
 51
200.9248324276
  0
ARC
  5
6B1
100
AcDbEntity
  8
0
100
AcDbCircle
 62
7
  6
CONTINUOUS
 10
146.9337890625
 20
108.7918791118
 40
17.5
100
AcDbArc
 50
202.6880911509
 51
247.3119088491
  0
ARC
  5
6B2
100
AcDbEntity
  8
ASSI
100
AcDbCircle
 62
7
  6
CONTINUOUS
 10
146.9337890625
 20
108.7918791118
 40
17.5
100
AcDbArc
 50
200.9251918336
 51
202.6880911509
  0
ARC
  5
6B3
100
AcDbEntity
  8
0
100
AcDbCircle
 62
7
  6
CONTINUOUS
 10
146.9337890625
 20
108.7918791118
 40
17.5
100
AcDbArc
 50
159.0751675724
 51
162.5423968763
  0
ARC
  5
6B4
100
AcDbEntity
  8
ASSI
100
AcDbCircle
 62
7
  6
CONTINUOUS
 10
146.9337890625
 20
108.7918791118
 40
17.5
100
AcDbArc
 50
157.3119088491
 51
159.0748080678
  0
ARC
  5
6B5
100
AcDbEntity
  8
0
100
AcDbCircle
 62
7
  6
CONTINUOUS
 10
146.9337890625
 20
108.7918791118
 40
17.5
100
AcDbArc
 50
112.6880911509
 51
157.3119088491
  0
ARC
  5
6B6
100
AcDbEntity
  8
0
100
AcDbCircle
 62
7
  6
CONTINUOUS
 10
146.9337890625
 20
108.7918791118
 40
17.5
100
AcDbArc
 50
22.6880911509
 51
67.3119088491
  0
ARC
  5
6B7
100
AcDbEntity
  8
ASSI
100
AcDbCircle
 62
7
  6
CONTINUOUS
 10
146.9337890625
 20
108.7918791118
 40
17.5
100
AcDbArc
 50
20.9251918198
 51
22.6880911509
  0
ARC
  5
6B8
100
AcDbEntity
  8
0
100
AcDbCircle
 62
7
  6
CONTINUOUS
 10
146.9337890625
 20
108.7918791118
 40
17.5
100
AcDbArc
 50
17.4576031237
 51
20.9248324276
  0
ARC
  5
6B9
100
AcDbEntity
  8
0
100
AcDbCircle
 62
7
  6
CONTINUOUS
 10
146.9337890625
 20
108.7918791118
 40
17.5
100
AcDbArc
 50
339.0751675724
 51
342.5423968763
  0
ARC
  5
6BA
100
AcDbEntity
  8
ASSI
100
AcDbCircle
 62
7
  6
CONTINUOUS
 10
146.9337890625
 20
108.7918791118
 40
17.5
100
AcDbArc
 50
337.3119088491
 51
339.0748080526
  0
ARC
  5
6BB
100
AcDbEntity
  8
0
100
AcDbCircle
 62
7
  6
CONTINUOUS
 10
146.9337890625
 20
108.7918791118
 40
17.5
100
AcDbArc
 50
292.6880911509
 51
337.3119088491
  0
ARC
  5
6BC
100
AcDbEntity
  8
ASSI
100
AcDbCircle
 62
7
  6
CONTINUOUS
 10
146.9337890625
 20
108.7918791118
 40
17.5
100
AcDbArc
 50
67.3119088491
 51
112.6880911509
  0
ARC
  5
6BD
100
AcDbEntity
  8
ASSI
100
AcDbCircle
 62
7
  6
CONTINUOUS
 10
146.9337890625
 20
108.7918791118
 40
17.5
100
AcDbArc
 50
247.3119088491
 51
292.6880911509
  0
ARC
  5
6BE
100
AcDbEntity
  8
ASSI
100
AcDbCircle
 62
7
  6
CONTINUOUS
 10
146.9337890625
 20
108.7918791118
 40
17.5
100
AcDbArc
 50
1.6792381538
 51
17.4576031237
  0
ARC
  5
6BF
100
AcDbEntity
  8
ASSI
100
AcDbCircle
 62
7
  6
CONTINUOUS
 10
146.9337890625
 20
108.7918791118
 40
17.5
100
AcDbArc
 50
162.5423968763
 51
178.3207618462
  0
ARC
  5
6C0
100
AcDbEntity
  8
0
100
AcDbCircle
 62
7
  6
CONTINUOUS
 10
146.9337890625
 20
108.7918791118
 40
17.5
100
AcDbArc
 50
178.3207618462
 51
181.6792381538
  0
ARC
  5
6C1
100
AcDbEntity
  8
0
100
AcDbCircle
 62
7
  6
CONTINUOUS
 10
146.9337890625
 20
108.7918791118
 40
17.5
100
AcDbArc
 50
358.3207618462
 51
1.6792381538
  0
ARC
  5
6C2
100
AcDbEntity
  8
ASSI
100
AcDbCircle
 62
7
  6
CONTINUOUS
 10
146.9337890625
 20
108.7918791118
 40
17.5
100
AcDbArc
 50
181.6792381538
 51
197.4576031237
  0
ARC
  5
6C3
100
AcDbEntity
  8
ASSI
100
AcDbCircle
 62
7
  6
CONTINUOUS
 10
146.9337890625
 20
108.7918791118
 40
17.5
100
AcDbArc
 50
342.5423968763
 51
358.3207618462
  0
ARC
  5
6C4
100
AcDbEntity
  8
0
100
AcDbCircle
 62
7
  6
CONTINUOUS
 10
146.9337890625
 20
108.7918791118
 40
17.1
100
AcDbArc
 50
181.2565871256
 51
198.1562649813
  0
ARC
  5
6C5
100
AcDbEntity
  8
0
100
AcDbCircle
 62
7
  6
CONTINUOUS
 10
146.9337890625
 20
108.7918791118
 40
17.1
100
AcDbArc
 50
161.8437350187
 51
178.7434128744
  0
ARC
  5
6C6
100
AcDbEntity
  8
ASSI
100
AcDbCircle
 62
7
  6
CONTINUOUS
 10
146.9337890625
 20
108.7918791118
 40
17.1
100
AcDbArc
 50
91.2565871256
 51
108.1562649813
  0
ARC
  5
6C7
100
AcDbEntity
  8
ASSI
100
AcDbCircle
 62
7
  6
CONTINUOUS
 10
146.9337890625
 20
108.7918791118
 40
17.1
100
AcDbArc
 50
71.8437350187
 51
88.7434128744
  0
ARC
  5
6C8
100
AcDbEntity
  8
0
100
AcDbCircle
 62
7
  6
CONTINUOUS
 10
146.9337890625
 20
108.7918791118
 40
17.1
100
AcDbArc
 50
1.2565871256
 51
18.1562649813
  0
ARC
  5
6C9
100
AcDbEntity
  8
0
100
AcDbCircle
 62
7
  6
CONTINUOUS
 10
146.9337890625
 20
108.7918791118
 40
17.1
100
AcDbArc
 50
341.8437350187
 51
358.7434128744
  0
ARC
  5
6CA
100
AcDbEntity
  8
ASSI
100
AcDbCircle
 62
7
  6
CONTINUOUS
 10
146.9337890625
 20
108.7918791118
 40
17.1
100
AcDbArc
 50
271.2565871256
 51
288.1562649813
  0
ARC
  5
6CB
100
AcDbEntity
  8
ASSI
100
AcDbCircle
 62
7
  6
CONTINUOUS
 10
146.9337890625
 20
108.7918791118
 40
17.1
100
AcDbArc
 50
251.8437350187
 51
268.7434128744
  0
ARC
  5
6CC
100
AcDbEntity
  8
0
100
AcDbCircle
 62
7
  6
CONTINUOUS
 10
146.9337890625
 20
108.7918791118
 40
17.0181707422
100
AcDbArc
 50
156.2647560464
 51
158.7699836952
  0
ARC
  5
6CD
100
AcDbEntity
  8
ASSI
100
AcDbCircle
 62
7
  6
CONTINUOUS
 10
146.9337890625
 20
108.7918791118
 40
17.0181707422
100
AcDbArc
 50
111.2300163048
 51
113.7352439536
  0
ARC
  5
6CE
100
AcDbEntity
  8
ASSI
100
AcDbCircle
 62
7
  6
CONTINUOUS
 10
146.9337890625
 20
108.7918791118
 40
17.0181707422
100
AcDbArc
 50
66.2647560464
 51
68.7699836952
  0
ARC
  5
6CF
100
AcDbEntity
  8
0
100
AcDbCircle
 62
7
  6
CONTINUOUS
 10
146.9337890625
 20
108.7918791118
 40
17.0181707422
100
AcDbArc
 50
21.2300163048
 51
23.7352439536
  0
ARC
  5
6D0
100
AcDbEntity
  8
0
100
AcDbCircle
 62
7
  6
CONTINUOUS
 10
146.9337890625
 20
108.7918791118
 40
17.0181707422
100
AcDbArc
 50
336.2647560464
 51
338.7699836952
  0
ARC
  5
6D1
100
AcDbEntity
  8
ASSI
100
AcDbCircle
 62
7
  6
CONTINUOUS
 10
146.9337890625
 20
108.7918791118
 40
17.0181707422
100
AcDbArc
 50
291.2300163048
 51
293.7352439536
  0
ARC
  5
6D2
100
AcDbEntity
  8
ASSI
100
AcDbCircle
 62
7
  6
CONTINUOUS
 10
146.9337890625
 20
108.7918791118
 40
17.0181707422
100
AcDbArc
 50
246.2647560464
 51
248.7699836952
  0
ARC
  5
6D3
100
AcDbEntity
  8
0
100
AcDbCircle
 62
7
  6
CONTINUOUS
 10
146.9337890625
 20
108.7918791118
 40
17.0181707422
100
AcDbArc
 50
201.2300163048
 51
203.7352439536
  0
ARC
  5
6D4
100
AcDbEntity
  8
ASSI
100
AcDbCircle
 62
7
  6
CONTINUOUS
 10
146.9337890625
 20
108.7918791118
 40
10.65
100
AcDbArc
 50
122.4497572827
 51
147.5502427173
  0
ARC
  5
6D5
100
AcDbEntity
  8
ASSI
100
AcDbCircle
 62
7
  6
CONTINUOUS
 10
146.9337890625
 20
108.7918791118
 40
10.65
100
AcDbArc
 50
302.4497572827
 51
327.5502427173
  0
ARC
  5
6D6
100
AcDbEntity
  8
RACCORDO
100
AcDbCircle
 62
7
  6
CONTINUOUS
 10
146.9337890625
 20
108.7918791118
 40
10.6
100
AcDbArc
 50
212.5073693709
 51
237.4926306291
  0
ARC
  5
6D7
100
AcDbEntity
  8
RACCORDO
100
AcDbCircle
 62
7
  6
CONTINUOUS
 10
146.9337890625
 20
108.7918791118
 40
10.6
100
AcDbArc
 50
32.5073693709
 51
57.4926306291
  0
ARC
  5
6D8
100
AcDbEntity
  8
RACCORDO
100
AcDbCircle
 62
250
  6
CONTINUOUS
 10
146.9337890625
 20
108.7918791118
 40
10.4500000008
100
AcDbArc
 50
212.5073693709
 51
237.4926306291
  0
ARC
  5
6D9
100
AcDbEntity
  8
RACCORDO
100
AcDbCircle
 62
250
  6
CONTINUOUS
 10
146.9337890625
 20
108.7918791118
 40
10.4500000008
100
AcDbArc
 50
32.5073693709
 51
57.4926306291
  0
ARC
  5
6DA
100
AcDbEntity
  8
RACCORDO
100
AcDbCircle
 62
250
  6
CONTINUOUS
 10
146.9337890625
 20
108.7918791118
 40
10.0500000008
100
AcDbArc
 50
212.452481902
 51
237.547518098
  0
ARC
  5
6DB
100
AcDbEntity
  8
RACCORDO
100
AcDbCircle
 62
250
  6
CONTINUOUS
 10
146.9337890625
 20
108.7918791118
 40
10.0500000008
100
AcDbArc
 50
32.452481902
 51
57.547518098
  0
ARC
  5
6DC
100
AcDbEntity
  8
RACCORDO
100
AcDbCircle
 62
7
  6
CONTINUOUS
 10
146.9337890625
 20
108.7918791118
 40
9.9
100
AcDbArc
 50
212.452481902
 51
237.547518098
  0
ARC
  5
6DD
100
AcDbEntity
  8
RACCORDO
100
AcDbCircle
 62
7
  6
CONTINUOUS
 10
146.9337890625
 20
108.7918791118
 40
9.9
100
AcDbArc
 50
32.452481902
 51
57.547518098
  0
ARC
  5
6DE
100
AcDbEntity
  8
ASSI
100
AcDbCircle
 62
7
  6
CONTINUOUS
 10
146.9337890625
 20
108.7918791118
 40
9.8509755865
100
AcDbArc
 50
122.4497572827
 51
147.5502427173
  0
ARC
  5
6DF
100
AcDbEntity
  8
ASSI
100
AcDbCircle
 62
7
  6
CONTINUOUS
 10
146.9337890625
 20
108.7918791118
 40
9.8509755865
100
AcDbArc
 50
302.4497572827
 51
327.5502427173
  0
ARC
  5
6E0
100
AcDbEntity
  8
0
100
AcDbCircle
 62
7
  6
CONTINUOUS
 10
146.9337890625
 20
108.7918791118
 40
9.0
100
AcDbArc
 50
273.1847385367
 51
356.8152614633
  0
ARC
  5
6E1
100
AcDbEntity
  8
0
100
AcDbCircle
 62
7
  6
CONTINUOUS
 10
146.9337890625
 20
108.7918791118
 40
9.0
100
AcDbArc
 50
183.1847385367
 51
266.8152614633
  0
ARC
  5
6E2
100
AcDbEntity
  8
0
100
AcDbCircle
 62
7
  6
CONTINUOUS
 10
146.9337890625
 20
108.7918791118
 40
9.0
100
AcDbArc
 50
93.1847385367
 51
176.8152614633
  0
ARC
  5
6E3
100
AcDbEntity
  8
0
100
AcDbCircle
 62
7
  6
CONTINUOUS
 10
146.9337890625
 20
108.7918791118
 40
9.0
100
AcDbArc
 50
3.1847385367
 51
86.8152614633
  0
ARC
  5
6E4
100
AcDbEntity
  8
0
100
AcDbCircle
 62
7
  6
CONTINUOUS
 10
146.9337890625
 20
108.7918791118
 40
8.5
100
AcDbArc
 50
274.2954612435
 51
355.7045387565
  0
ARC
  5
6E5
100
AcDbEntity
  8
0
100
AcDbCircle
 62
7
  6
CONTINUOUS
 10
146.9337890625
 20
108.7918791118
 40
8.5
100
AcDbArc
 50
184.2954612435
 51
265.7045387565
  0
ARC
  5
6E6
100
AcDbEntity
  8
0
100
AcDbCircle
 62
7
  6
CONTINUOUS
 10
146.9337890625
 20
108.7918791118
 40
8.5
100
AcDbArc
 50
94.2954612435
 51
175.7045387565
  0
ARC
  5
6E7
100
AcDbEntity
  8
0
100
AcDbCircle
 62
7
  6
CONTINUOUS
 10
146.9337890625
 20
108.7918791118
 40
8.5
100
AcDbArc
 50
4.2954612435
 51
85.7045387565
  0
ARC
  5
6E8
100
AcDbEntity
  8
0
100
AcDbCircle
 62
7
  6
CONTINUOUS
 10
146.9337890625
 20
108.7918791118
 40
6.75
100
AcDbArc
 50
273.1847385367
 51
356.8152614633
  0
ARC
  5
6E9
100
AcDbEntity
  8
0
100
AcDbCircle
 62
7
  6
CONTINUOUS
 10
146.9337890625
 20
108.7918791118
 40
6.75
100
AcDbArc
 50
183.1847385367
 51
266.8152614633
  0
ARC
  5
6EA
100
AcDbEntity
  8
0
100
AcDbCircle
 62
7
  6
CONTINUOUS
 10
146.9337890625
 20
108.7918791118
 40
6.75
100
AcDbArc
 50
93.1847385367
 51
176.8152614633
  0
ARC
  5
6EB
100
AcDbEntity
  8
0
100
AcDbCircle
 62
7
  6
CONTINUOUS
 10
146.9337890625
 20
108.7918791118
 40
6.75
100
AcDbArc
 50
3.1847385367
 51
86.8152614633
  0
ARC
  5
6EC
100
AcDbEntity
  8
0
100
AcDbCircle
 62
7
  6
CONTINUOUS
 10
146.9337890625
 20
108.7918791118
 40
6.25
100
AcDbArc
 50
274.6971495355
 51
355.3028504645
  0
ARC
  5
6ED
100
AcDbEntity
  8
0
100
AcDbCircle
 62
7
  6
CONTINUOUS
 10
146.9337890625
 20
108.7918791118
 40
6.25
100
AcDbArc
 50
184.6971495355
 51
265.3028504645
  0
ARC
  5
6EE
100
AcDbEntity
  8
0
100
AcDbCircle
 62
7
  6
CONTINUOUS
 10
146.9337890625
 20
108.7918791118
 40
6.25
100
AcDbArc
 50
94.6971495355
 51
175.3028504645
  0
ARC
  5
6EF
100
AcDbEntity
  8
0
100
AcDbCircle
 62
7
  6
CONTINUOUS
 10
146.9337890625
 20
108.7918791118
 40
6.25
100
AcDbArc
 50
4.6971495355
 51
85.3028504645
  0
ARC
  5
6F0
100
AcDbEntity
  8
0
100
AcDbCircle
 62
7
  6
CONTINUOUS
 10
146.9337890625
 20
108.7918791118
 40
5.25
100
AcDbArc
 50
272.7294026368
 51
357.2705973632
  0
ARC
  5
6F1
100
AcDbEntity
  8
0
100
AcDbCircle
 62
7
  6
CONTINUOUS
 10
146.9337890625
 20
108.7918791118
 40
5.25
100
AcDbArc
 50
182.7294026368
 51
267.2705973632
  0
ARC
  5
6F2
100
AcDbEntity
  8
0
100
AcDbCircle
 62
7
  6
CONTINUOUS
 10
146.9337890625
 20
108.7918791118
 40
5.25
100
AcDbArc
 50
2.7294026368
 51
87.2705973632
  0
ARC
  5
6F3
100
AcDbEntity
  8
0
100
AcDbCircle
 62
7
  6
CONTINUOUS
 10
146.9337890625
 20
108.7918791118
 40
5.25
100
AcDbArc
 50
92.7294026368
 51
177.2705973632
  0
ARC
  5
6F4
100
AcDbEntity
  8
0
100
AcDbCircle
 62
7
  6
CONTINUOUS
 10
146.9337890625
 20
108.7918791118
 40
4.75
100
AcDbArc
 50
274.668453194
 51
358.5857538336
  0
ARC
  5
6F5
100
AcDbEntity
  8
0
100
AcDbCircle
 62
7
  6
CONTINUOUS
 10
146.9337890625
 20
108.7918791118
 40
4.75
100
AcDbArc
 50
181.4142461664
 51
265.331546806
  0
ARC
  5
6F6
100
AcDbEntity
  8
0
100
AcDbCircle
 62
7
  6
CONTINUOUS
 10
146.9337890625
 20
108.7918791118
 40
4.75
100
AcDbArc
 50
1.4142461664
 51
85.331546806
  0
ARC
  5
6F7
100
AcDbEntity
  8
0
100
AcDbCircle
 62
7
  6
CONTINUOUS
 10
146.9337890625
 20
108.7918791118
 40
4.75
100
AcDbArc
 50
94.668453194
 51
178.5857538336
  0
CIRCLE
  5
6F8
100
AcDbEntity
  8
0
100
AcDbCircle
 62
7
  6
CONTINUOUS
 10
146.9337890625
 20
108.7918791118
 40
1.275
  0
ARC
  5
6F9
100
AcDbEntity
  8
RACCORDO
100
AcDbCircle
 62
7
  6
CONTINUOUS
 10
155.5831158901
 20
114.2920286942
 40
0.35
100
AcDbArc
 50
212.452481902
 51
252.0
  0
ARC
  5
6FA
100
AcDbEntity
  8
RACCORDO
100
AcDbCircle
 62
7
  6
CONTINUOUS
 10
152.4339386449
 20
117.4412059395
 40
0.35
100
AcDbArc
 50
198.0
 51
237.547518098
  0
ARC
  5
6FB
100
AcDbEntity
  8
RACCORDO
100
AcDbCircle
 62
7
  6
CONTINUOUS
 10
152.44222189
 20
117.4359330095
 40
0.35
100
AcDbArc
 50
57.4926306291
 51
98.0
  0
ARC
  5
6FC
100
AcDbEntity
  8
RACCORDO
100
AcDbCircle
 62
7
  6
CONTINUOUS
 10
155.5778429601
 20
114.3003119393
 40
0.35
100
AcDbArc
 50
352.0
 51
32.5073693709
  0
ARC
  5
6FD
100
AcDbEntity
  8
RACCORDO
100
AcDbCircle
 62
250
  6
CONTINUOUS
 10
155.5778429601
 20
114.3003119393
 40
0.1999999968
100
AcDbArc
 50
352.0
 51
32.5073693709
  0
ARC
  5
6FE
100
AcDbEntity
  8
RACCORDO
100
AcDbCircle
 62
250
  6
CONTINUOUS
 10
155.5831158901
 20
114.2920286942
 40
0.1999999968
100
AcDbArc
 50
212.452481902
 51
252.0
  0
ARC
  5
6FF
100
AcDbEntity
  8
RACCORDO
100
AcDbCircle
 62
250
  6
CONTINUOUS
 10
152.4339386449
 20
117.4412059395
 40
0.1999999968
100
AcDbArc
 50
198.0
 51
237.547518098
  0
ARC
  5
700
100
AcDbEntity
  8
RACCORDO
100
AcDbCircle
 62
250
  6
CONTINUOUS
 10
152.44222189
 20
117.4359330095
 40
0.1999999968
100
AcDbArc
 50
57.4926306291
 51
98.0
  0
ARC
  5
701
100
AcDbEntity
  8
RACCORDO
100
AcDbCircle
 62
7
  6
CONTINUOUS
 10
155.7830619409
 20
113.9641967281
 40
0.1
100
AcDbArc
 50
252.0
 51
352.0
  0
ARC
  5
702
100
AcDbEntity
  8
RACCORDO
100
AcDbCircle
 62
7
  6
CONTINUOUS
 10
152.1061066787
 20
117.6411519903
 40
0.1
100
AcDbArc
 50
98.0
 51
198.0
  0
CIRCLE
  5
703
100
AcDbEntity
  8
ASSI
100
AcDbCircle
 62
7
  6
CONTINUOUS
 10
155.1837890625
 20
136.8960534888
 40
0.625
  0
CIRCLE
  5
704
100
AcDbEntity
  8
ASSI
100
AcDbCircle
 62
7
  6
CONTINUOUS
 10
152.6837890625
 20
136.8960534888
 40
0.625
  0
CIRCLE
  5
705
100
AcDbEntity
  8
ASSI
100
AcDbCircle
 62
7
  6
CONTINUOUS
 10
150.1837890625
 20
136.8960534888
 40
0.625
  0
CIRCLE
  5
706
100
AcDbEntity
  8
ASSI
100
AcDbCircle
 62
7
  6
CONTINUOUS
 10
147.6837890625
 20
136.8960534888
 40
0.625
  0
CIRCLE
  5
707
100
AcDbEntity
  8
ASSI
100
AcDbCircle
 62
7
  6
CONTINUOUS
 10
156.4337890625
 20
134.7309899794
 40
0.625
  0
CIRCLE
  5
708
100
AcDbEntity
  8
ASSI
100
AcDbCircle
 62
7
  6
CONTINUOUS
 10
153.9337890625
 20
134.7309899794
 40
0.625
  0
CIRCLE
  5
709
100
AcDbEntity
  8
ASSI
100
AcDbCircle
 62
7
  6
CONTINUOUS
 10
151.4337890625
 20
134.7309899794
 40
0.625
  0
CIRCLE
  5
70A
100
AcDbEntity
  8
ASSI
100
AcDbCircle
 62
7
  6
CONTINUOUS
 10
148.9337890625
 20
134.7309899794
 40
0.625
  0
CIRCLE
  5
70B
100
AcDbEntity
  8
ASSI
100
AcDbCircle
 62
7
  6
CONTINUOUS
 10
165.1837890625
 20
136.8960534888
 40
0.625
  0
CIRCLE
  5
70C
100
AcDbEntity
  8
ASSI
100
AcDbCircle
 62
7
  6
CONTINUOUS
 10
162.6837890625
 20
136.8960534888
 40
0.625
  0
CIRCLE
  5
70D
100
AcDbEntity
  8
ASSI
100
AcDbCircle
 62
7
  6
CONTINUOUS
 10
160.1837890625
 20
136.8960534888
 40
0.625
  0
CIRCLE
  5
70E
100
AcDbEntity
  8
ASSI
100
AcDbCircle
 62
7
  6
CONTINUOUS
 10
157.6837890625
 20
136.8960534888
 40
0.625
  0
CIRCLE
  5
70F
100
AcDbEntity
  8
ASSI
100
AcDbCircle
 62
7
  6
CONTINUOUS
 10
166.4337890625
 20
134.7309899794
 40
0.625
  0
CIRCLE
  5
710
100
AcDbEntity
  8
ASSI
100
AcDbCircle
 62
7
  6
CONTINUOUS
 10
163.9337890625
 20
134.7309899794
 40
0.625
  0
CIRCLE
  5
711
100
AcDbEntity
  8
ASSI
100
AcDbCircle
 62
7
  6
CONTINUOUS
 10
161.4337890625
 20
134.7309899794
 40
0.625
  0
CIRCLE
  5
712
100
AcDbEntity
  8
ASSI
100
AcDbCircle
 62
7
  6
CONTINUOUS
 10
158.9337890625
 20
134.7309899794
 40
0.625
  0
CIRCLE
  5
713
100
AcDbEntity
  8
ASSI
100
AcDbCircle
 62
7
  6
CONTINUOUS
 10
151.4337890625
 20
143.3912440172
 40
0.625
  0
CIRCLE
  5
714
100
AcDbEntity
  8
ASSI
100
AcDbCircle
 62
7
  6
CONTINUOUS
 10
148.9337890625
 20
143.3912440172
 40
0.625
  0
CIRCLE
  5
715
100
AcDbEntity
  8
ASSI
100
AcDbCircle
 62
7
  6
CONTINUOUS
 10
150.1837890625
 20
141.2261805078
 40
0.625
  0
CIRCLE
  5
716
100
AcDbEntity
  8
ASSI
100
AcDbCircle
 62
7
  6
CONTINUOUS
 10
147.6837890625
 20
141.2261805078
 40
0.625
  0
CIRCLE
  5
717
100
AcDbEntity
  8
ASSI
100
AcDbCircle
 62
7
  6
CONTINUOUS
 10
151.4337890625
 20
139.0611169983
 40
0.625
  0
CIRCLE
  5
718
100
AcDbEntity
  8
ASSI
100
AcDbCircle
 62
7
  6
CONTINUOUS
 10
148.9337890625
 20
139.0611169983
 40
0.625
  0
CIRCLE
  5
719
100
AcDbEntity
  8
ASSI
100
AcDbCircle
 62
7
  6
CONTINUOUS
 10
151.4337890625
 20
147.7213710362
 40
0.625
  0
CIRCLE
  5
71A
100
AcDbEntity
  8
ASSI
100
AcDbCircle
 62
7
  6
CONTINUOUS
 10
148.9337890625
 20
147.7213710362
 40
0.625
  0
CIRCLE
  5
71B
100
AcDbEntity
  8
ASSI
100
AcDbCircle
 62
7
  6
CONTINUOUS
 10
150.1837890625
 20
145.5563075267
 40
0.625
  0
CIRCLE
  5
71C
100
AcDbEntity
  8
ASSI
100
AcDbCircle
 62
7
  6
CONTINUOUS
 10
147.6837890625
 20
145.5563075267
 40
0.625
  0
CIRCLE
  5
71D
100
AcDbEntity
  8
ASSI
100
AcDbCircle
 62
7
  6
CONTINUOUS
 10
150.1837890625
 20
149.8864345456
 40
0.625
  0
CIRCLE
  5
71E
100
AcDbEntity
  8
ASSI
100
AcDbCircle
 62
7
  6
CONTINUOUS
 10
147.6837890625
 20
149.8864345456
 40
0.625
  0
CIRCLE
  5
71F
100
AcDbEntity
  8
ASSI
100
AcDbCircle
 62
7
  6
CONTINUOUS
 10
156.4337890625
 20
143.3912440172
 40
0.625
  0
CIRCLE
  5
720
100
AcDbEntity
  8
ASSI
100
AcDbCircle
 62
7
  6
CONTINUOUS
 10
153.9337890625
 20
143.3912440172
 40
0.625
  0
CIRCLE
  5
721
100
AcDbEntity
  8
ASSI
100
AcDbCircle
 62
7
  6
CONTINUOUS
 10
155.1837890625
 20
141.2261805078
 40
0.625
  0
CIRCLE
  5
722
100
AcDbEntity
  8
ASSI
100
AcDbCircle
 62
7
  6
CONTINUOUS
 10
152.6837890625
 20
141.2261805078
 40
0.625
  0
CIRCLE
  5
723
100
AcDbEntity
  8
ASSI
100
AcDbCircle
 62
7
  6
CONTINUOUS
 10
156.4337890625
 20
139.0611169983
 40
0.625
  0
CIRCLE
  5
724
100
AcDbEntity
  8
ASSI
100
AcDbCircle
 62
7
  6
CONTINUOUS
 10
153.9337890625
 20
139.0611169983
 40
0.625
  0
CIRCLE
  5
725
100
AcDbEntity
  8
ASSI
100
AcDbCircle
 62
7
  6
CONTINUOUS
 10
156.4337890625
 20
147.7213710362
 40
0.625
  0
CIRCLE
  5
726
100
AcDbEntity
  8
ASSI
100
AcDbCircle
 62
7
  6
CONTINUOUS
 10
153.9337890625
 20
147.7213710362
 40
0.625
  0
CIRCLE
  5
727
100
AcDbEntity
  8
ASSI
100
AcDbCircle
 62
7
  6
CONTINUOUS
 10
155.1837890625
 20
145.5563075267
 40
0.625
  0
CIRCLE
  5
728
100
AcDbEntity
  8
ASSI
100
AcDbCircle
 62
7
  6
CONTINUOUS
 10
152.6837890625
 20
145.5563075267
 40
0.625
  0
CIRCLE
  5
729
100
AcDbEntity
  8
ASSI
100
AcDbCircle
 62
7
  6
CONTINUOUS
 10
155.1837890625
 20
149.8864345456
 40
0.625
  0
CIRCLE
  5
72A
100
AcDbEntity
  8
ASSI
100
AcDbCircle
 62
7
  6
CONTINUOUS
 10
152.6837890625
 20
149.8864345456
 40
0.625
  0
CIRCLE
  5
72B
100
AcDbEntity
  8
ASSI
100
AcDbCircle
 62
7
  6
CONTINUOUS
 10
151.4337890625
 20
156.381625074
 40
0.625
  0
CIRCLE
  5
72C
100
AcDbEntity
  8
ASSI
100
AcDbCircle
 62
7
  6
CONTINUOUS
 10
150.1837890625
 20
154.2165615645
 40
0.625
  0
CIRCLE
  5
72D
100
AcDbEntity
  8
ASSI
100
AcDbCircle
 62
7
  6
CONTINUOUS
 10
148.9337890625
 20
156.381625074
 40
0.625
  0
CIRCLE
  5
72E
100
AcDbEntity
  8
ASSI
100
AcDbCircle
 62
7
  6
CONTINUOUS
 10
151.4337890625
 20
152.0514980551
 40
0.625
  0
CIRCLE
  5
72F
100
AcDbEntity
  8
ASSI
100
AcDbCircle
 62
7
  6
CONTINUOUS
 10
148.9337890625
 20
152.0514980551
 40
0.625
  0
CIRCLE
  5
730
100
AcDbEntity
  8
ASSI
100
AcDbCircle
 62
7
  6
CONTINUOUS
 10
147.6837890625
 20
154.2165615645
 40
0.625
  0
CIRCLE
  5
731
100
AcDbEntity
  8
ASSI
100
AcDbCircle
 62
7
  6
CONTINUOUS
 10
151.4337890625
 20
165.0418791118
 40
0.625
  0
CIRCLE
  5
732
100
AcDbEntity
  8
ASSI
100
AcDbCircle
 62
7
  6
CONTINUOUS
 10
148.9337890625
 20
165.0418791118
 40
0.625
  0
CIRCLE
  5
733
100
AcDbEntity
  8
ASSI
100
AcDbCircle
 62
7
  6
CONTINUOUS
 10
151.4337890625
 20
160.7117520929
 40
0.625
  0
CIRCLE
  5
734
100
AcDbEntity
  8
ASSI
100
AcDbCircle
 62
7
  6
CONTINUOUS
 10
150.1837890625
 20
162.8768156024
 40
0.625
  0
CIRCLE
  5
735
100
AcDbEntity
  8
ASSI
100
AcDbCircle
 62
7
  6
CONTINUOUS
 10
150.1837890625
 20
158.5466885835
 40
0.625
  0
CIRCLE
  5
736
100
AcDbEntity
  8
ASSI
100
AcDbCircle
 62
7
  6
CONTINUOUS
 10
148.9337890625
 20
160.7117520929
 40
0.625
  0
CIRCLE
  5
737
100
AcDbEntity
  8
ASSI
100
AcDbCircle
 62
7
  6
CONTINUOUS
 10
147.6837890625
 20
162.8768156024
 40
0.625
  0
CIRCLE
  5
738
100
AcDbEntity
  8
ASSI
100
AcDbCircle
 62
7
  6
CONTINUOUS
 10
147.6837890625
 20
158.5466885835
 40
0.625
  0
CIRCLE
  5
739
100
AcDbEntity
  8
ASSI
100
AcDbCircle
 62
7
  6
CONTINUOUS
 10
156.4337890625
 20
156.381625074
 40
0.625
  0
CIRCLE
  5
73A
100
AcDbEntity
  8
ASSI
100
AcDbCircle
 62
7
  6
CONTINUOUS
 10
153.9337890625
 20
156.381625074
 40
0.625
  0
CIRCLE
  5
73B
100
AcDbEntity
  8
ASSI
100
AcDbCircle
 62
7
  6
CONTINUOUS
 10
155.1837890625
 20
154.2165615645
 40
0.625
  0
CIRCLE
  5
73C
100
AcDbEntity
  8
ASSI
100
AcDbCircle
 62
7
  6
CONTINUOUS
 10
152.6837890625
 20
154.2165615645
 40
0.625
  0
CIRCLE
  5
73D
100
AcDbEntity
  8
ASSI
100
AcDbCircle
 62
7
  6
CONTINUOUS
 10
156.4337890625
 20
152.0514980551
 40
0.625
  0
CIRCLE
  5
73E
100
AcDbEntity
  8
ASSI
100
AcDbCircle
 62
7
  6
CONTINUOUS
 10
153.9337890625
 20
152.0514980551
 40
0.625
  0
CIRCLE
  5
73F
100
AcDbEntity
  8
ASSI
100
AcDbCircle
 62
7
  6
CONTINUOUS
 10
156.4337890625
 20
165.0418791118
 40
0.625
  0
CIRCLE
  5
740
100
AcDbEntity
  8
ASSI
100
AcDbCircle
 62
7
  6
CONTINUOUS
 10
153.9337890625
 20
165.0418791118
 40
0.625
  0
CIRCLE
  5
741
100
AcDbEntity
  8
ASSI
100
AcDbCircle
 62
7
  6
CONTINUOUS
 10
155.1837890625
 20
162.8768156024
 40
0.625
  0
CIRCLE
  5
742
100
AcDbEntity
  8
ASSI
100
AcDbCircle
 62
7
  6
CONTINUOUS
 10
156.4337890625
 20
160.7117520929
 40
0.625
  0
CIRCLE
  5
743
100
AcDbEntity
  8
ASSI
100
AcDbCircle
 62
7
  6
CONTINUOUS
 10
153.9337890625
 20
160.7117520929
 40
0.625
  0
CIRCLE
  5
744
100
AcDbEntity
  8
ASSI
100
AcDbCircle
 62
7
  6
CONTINUOUS
 10
152.6837890625
 20
162.8768156024
 40
0.625
  0
CIRCLE
  5
745
100
AcDbEntity
  8
ASSI
100
AcDbCircle
 62
7
  6
CONTINUOUS
 10
155.1837890625
 20
158.5466885835
 40
0.625
  0
CIRCLE
  5
746
100
AcDbEntity
  8
ASSI
100
AcDbCircle
 62
7
  6
CONTINUOUS
 10
152.6837890625
 20
158.5466885835
 40
0.625
  0
CIRCLE
  5
747
100
AcDbEntity
  8
ASSI
100
AcDbCircle
 62
7
  6
CONTINUOUS
 10
161.4337890625
 20
143.3912440172
 40
0.625
  0
CIRCLE
  5
748
100
AcDbEntity
  8
ASSI
100
AcDbCircle
 62
7
  6
CONTINUOUS
 10
158.9337890625
 20
143.3912440172
 40
0.625
  0
CIRCLE
  5
749
100
AcDbEntity
  8
ASSI
100
AcDbCircle
 62
7
  6
CONTINUOUS
 10
160.1837890625
 20
141.2261805078
 40
0.625
  0
CIRCLE
  5
74A
100
AcDbEntity
  8
ASSI
100
AcDbCircle
 62
7
  6
CONTINUOUS
 10
157.6837890625
 20
141.2261805078
 40
0.625
  0
CIRCLE
  5
74B
100
AcDbEntity
  8
ASSI
100
AcDbCircle
 62
7
  6
CONTINUOUS
 10
161.4337890625
 20
139.0611169983
 40
0.625
  0
CIRCLE
  5
74C
100
AcDbEntity
  8
ASSI
100
AcDbCircle
 62
7
  6
CONTINUOUS
 10
158.9337890625
 20
139.0611169983
 40
0.625
  0
CIRCLE
  5
74D
100
AcDbEntity
  8
ASSI
100
AcDbCircle
 62
7
  6
CONTINUOUS
 10
161.4337890625
 20
147.7213710362
 40
0.625
  0
CIRCLE
  5
74E
100
AcDbEntity
  8
ASSI
100
AcDbCircle
 62
7
  6
CONTINUOUS
 10
158.9337890625
 20
147.7213710362
 40
0.625
  0
CIRCLE
  5
74F
100
AcDbEntity
  8
ASSI
100
AcDbCircle
 62
7
  6
CONTINUOUS
 10
160.1837890625
 20
145.5563075267
 40
0.625
  0
CIRCLE
  5
750
100
AcDbEntity
  8
ASSI
100
AcDbCircle
 62
7
  6
CONTINUOUS
 10
157.6837890625
 20
145.5563075267
 40
0.625
  0
CIRCLE
  5
751
100
AcDbEntity
  8
ASSI
100
AcDbCircle
 62
7
  6
CONTINUOUS
 10
160.1837890625
 20
149.8864345456
 40
0.625
  0
CIRCLE
  5
752
100
AcDbEntity
  8
ASSI
100
AcDbCircle
 62
7
  6
CONTINUOUS
 10
157.6837890625
 20
149.8864345456
 40
0.625
  0
CIRCLE
  5
753
100
AcDbEntity
  8
ASSI
100
AcDbCircle
 62
7
  6
CONTINUOUS
 10
166.4337890625
 20
143.3912440172
 40
0.625
  0
CIRCLE
  5
754
100
AcDbEntity
  8
ASSI
100
AcDbCircle
 62
7
  6
CONTINUOUS
 10
163.9337890625
 20
143.3912440172
 40
0.625
  0
CIRCLE
  5
755
100
AcDbEntity
  8
ASSI
100
AcDbCircle
 62
7
  6
CONTINUOUS
 10
165.1837890625
 20
141.2261805078
 40
0.625
  0
CIRCLE
  5
756
100
AcDbEntity
  8
ASSI
100
AcDbCircle
 62
7
  6
CONTINUOUS
 10
162.6837890625
 20
141.2261805078
 40
0.625
  0
CIRCLE
  5
757
100
AcDbEntity
  8
ASSI
100
AcDbCircle
 62
7
  6
CONTINUOUS
 10
166.4337890625
 20
139.0611169983
 40
0.625
  0
CIRCLE
  5
758
100
AcDbEntity
  8
ASSI
100
AcDbCircle
 62
7
  6
CONTINUOUS
 10
163.9337890625
 20
139.0611169983
 40
0.625
  0
CIRCLE
  5
759
100
AcDbEntity
  8
ASSI
100
AcDbCircle
 62
7
  6
CONTINUOUS
 10
166.4337890625
 20
147.7213710362
 40
0.625
  0
CIRCLE
  5
75A
100
AcDbEntity
  8
ASSI
100
AcDbCircle
 62
7
  6
CONTINUOUS
 10
163.9337890625
 20
147.7213710362
 40
0.625
  0
CIRCLE
  5
75B
100
AcDbEntity
  8
ASSI
100
AcDbCircle
 62
7
  6
CONTINUOUS
 10
165.1837890625
 20
145.5563075267
 40
0.625
  0
CIRCLE
  5
75C
100
AcDbEntity
  8
ASSI
100
AcDbCircle
 62
7
  6
CONTINUOUS
 10
162.6837890625
 20
145.5563075267
 40
0.625
  0
CIRCLE
  5
75D
100
AcDbEntity
  8
ASSI
100
AcDbCircle
 62
7
  6
CONTINUOUS
 10
165.1837890625
 20
149.8864345456
 40
0.625
  0
CIRCLE
  5
75E
100
AcDbEntity
  8
ASSI
100
AcDbCircle
 62
7
  6
CONTINUOUS
 10
162.6837890625
 20
149.8864345456
 40
0.625
  0
CIRCLE
  5
75F
100
AcDbEntity
  8
ASSI
100
AcDbCircle
 62
7
  6
CONTINUOUS
 10
161.4337890625
 20
156.381625074
 40
0.625
  0
CIRCLE
  5
760
100
AcDbEntity
  8
ASSI
100
AcDbCircle
 62
7
  6
CONTINUOUS
 10
158.9337890625
 20
156.381625074
 40
0.625
  0
CIRCLE
  5
761
100
AcDbEntity
  8
ASSI
100
AcDbCircle
 62
7
  6
CONTINUOUS
 10
160.1837890625
 20
154.2165615645
 40
0.625
  0
CIRCLE
  5
762
100
AcDbEntity
  8
ASSI
100
AcDbCircle
 62
7
  6
CONTINUOUS
 10
157.6837890625
 20
154.2165615645
 40
0.625
  0
CIRCLE
  5
763
100
AcDbEntity
  8
ASSI
100
AcDbCircle
 62
7
  6
CONTINUOUS
 10
161.4337890625
 20
152.0514980551
 40
0.625
  0
CIRCLE
  5
764
100
AcDbEntity
  8
ASSI
100
AcDbCircle
 62
7
  6
CONTINUOUS
 10
158.9337890625
 20
152.0514980551
 40
0.625
  0
CIRCLE
  5
765
100
AcDbEntity
  8
ASSI
100
AcDbCircle
 62
7
  6
CONTINUOUS
 10
158.9337890625
 20
165.0418791118
 40
0.625
  0
CIRCLE
  5
766
100
AcDbEntity
  8
ASSI
100
AcDbCircle
 62
7
  6
CONTINUOUS
 10
157.6837890625
 20
162.8768156024
 40
0.625
  0
CIRCLE
  5
767
100
AcDbEntity
  8
ASSI
100
AcDbCircle
 62
7
  6
CONTINUOUS
 10
161.4337890625
 20
165.0418791118
 40
0.625
  0
CIRCLE
  5
768
100
AcDbEntity
  8
ASSI
100
AcDbCircle
 62
7
  6
CONTINUOUS
 10
160.1837890625
 20
162.8768156024
 40
0.625
  0
CIRCLE
  5
769
100
AcDbEntity
  8
ASSI
100
AcDbCircle
 62
7
  6
CONTINUOUS
 10
158.9337890625
 20
160.7117520929
 40
0.625
  0
CIRCLE
  5
76A
100
AcDbEntity
  8
ASSI
100
AcDbCircle
 62
7
  6
CONTINUOUS
 10
161.4337890625
 20
160.7117520929
 40
0.625
  0
CIRCLE
  5
76B
100
AcDbEntity
  8
ASSI
100
AcDbCircle
 62
7
  6
CONTINUOUS
 10
160.1837890625
 20
158.5466885835
 40
0.625
  0
CIRCLE
  5
76C
100
AcDbEntity
  8
ASSI
100
AcDbCircle
 62
7
  6
CONTINUOUS
 10
157.6837890625
 20
158.5466885835
 40
0.625
  0
CIRCLE
  5
76D
100
AcDbEntity
  8
ASSI
100
AcDbCircle
 62
7
  6
CONTINUOUS
 10
163.9337890625
 20
156.381625074
 40
0.625
  0
CIRCLE
  5
76E
100
AcDbEntity
  8
ASSI
100
AcDbCircle
 62
7
  6
CONTINUOUS
 10
162.6837890625
 20
154.2165615645
 40
0.625
  0
CIRCLE
  5
76F
100
AcDbEntity
  8
ASSI
100
AcDbCircle
 62
7
  6
CONTINUOUS
 10
166.4337890625
 20
156.381625074
 40
0.625
  0
CIRCLE
  5
770
100
AcDbEntity
  8
ASSI
100
AcDbCircle
 62
7
  6
CONTINUOUS
 10
165.1837890625
 20
154.2165615645
 40
0.625
  0
CIRCLE
  5
771
100
AcDbEntity
  8
ASSI
100
AcDbCircle
 62
7
  6
CONTINUOUS
 10
163.9337890625
 20
152.0514980551
 40
0.625
  0
CIRCLE
  5
772
100
AcDbEntity
  8
ASSI
100
AcDbCircle
 62
7
  6
CONTINUOUS
 10
166.4337890625
 20
152.0514980551
 40
0.625
  0
CIRCLE
  5
773
100
AcDbEntity
  8
ASSI
100
AcDbCircle
 62
7
  6
CONTINUOUS
 10
163.9337890625
 20
165.0418791118
 40
0.625
  0
CIRCLE
  5
774
100
AcDbEntity
  8
ASSI
100
AcDbCircle
 62
7
  6
CONTINUOUS
 10
162.6837890625
 20
162.8768156024
 40
0.625
  0
CIRCLE
  5
775
100
AcDbEntity
  8
ASSI
100
AcDbCircle
 62
7
  6
CONTINUOUS
 10
166.4337890625
 20
165.0418791118
 40
0.625
  0
CIRCLE
  5
776
100
AcDbEntity
  8
ASSI
100
AcDbCircle
 62
7
  6
CONTINUOUS
 10
165.1837890625
 20
162.8768156024
 40
0.625
  0
CIRCLE
  5
777
100
AcDbEntity
  8
ASSI
100
AcDbCircle
 62
7
  6
CONTINUOUS
 10
163.9337890625
 20
160.7117520929
 40
0.625
  0
CIRCLE
  5
778
100
AcDbEntity
  8
ASSI
100
AcDbCircle
 62
7
  6
CONTINUOUS
 10
162.6837890625
 20
158.5466885835
 40
0.625
  0
CIRCLE
  5
779
100
AcDbEntity
  8
ASSI
100
AcDbCircle
 62
7
  6
CONTINUOUS
 10
166.4337890625
 20
160.7117520929
 40
0.625
  0
CIRCLE
  5
77A
100
AcDbEntity
  8
ASSI
100
AcDbCircle
 62
7
  6
CONTINUOUS
 10
165.1837890625
 20
158.5466885835
 40
0.625
  0
CIRCLE
  5
77B
100
AcDbEntity
  8
ASSI
100
AcDbCircle
 62
7
  6
CONTINUOUS
 10
172.6837890625
 20
136.8960534888
 40
0.625
  0
CIRCLE
  5
77C
100
AcDbEntity
  8
ASSI
100
AcDbCircle
 62
7
  6
CONTINUOUS
 10
170.1837890625
 20
136.8960534888
 40
0.625
  0
CIRCLE
  5
77D
100
AcDbEntity
  8
ASSI
100
AcDbCircle
 62
7
  6
CONTINUOUS
 10
167.6837890625
 20
136.8960534888
 40
0.625
  0
CIRCLE
  5
77E
100
AcDbEntity
  8
ASSI
100
AcDbCircle
 62
7
  6
CONTINUOUS
 10
175.1837890625
 20
136.8960534888
 40
0.625
  0
CIRCLE
  5
77F
100
AcDbEntity
  8
ASSI
100
AcDbCircle
 62
7
  6
CONTINUOUS
 10
173.9337890625
 20
134.7309899794
 40
0.625
  0
CIRCLE
  5
780
100
AcDbEntity
  8
ASSI
100
AcDbCircle
 62
7
  6
CONTINUOUS
 10
171.4337890625
 20
134.7309899794
 40
0.625
  0
CIRCLE
  5
781
100
AcDbEntity
  8
ASSI
100
AcDbCircle
 62
7
  6
CONTINUOUS
 10
168.9337890625
 20
134.7309899794
 40
0.625
  0
CIRCLE
  5
782
100
AcDbEntity
  8
ASSI
100
AcDbCircle
 62
7
  6
CONTINUOUS
 10
177.6837890625
 20
136.8960534888
 40
0.625
  0
CIRCLE
  5
783
100
AcDbEntity
  8
ASSI
100
AcDbCircle
 62
7
  6
CONTINUOUS
 10
176.4337890625
 20
134.7309899794
 40
0.625
  0
CIRCLE
  5
784
100
AcDbEntity
  8
ASSI
100
AcDbCircle
 62
7
  6
CONTINUOUS
 10
180.1837890625
 20
136.8960534888
 40
0.625
  0
CIRCLE
  5
785
100
AcDbEntity
  8
ASSI
100
AcDbCircle
 62
7
  6
CONTINUOUS
 10
178.9337890625
 20
134.7309899794
 40
0.625
  0
CIRCLE
  5
786
100
AcDbEntity
  8
ASSI
100
AcDbCircle
 62
7
  6
CONTINUOUS
 10
182.6837890625
 20
136.8960534888
 40
0.625
  0
CIRCLE
  5
787
100
AcDbEntity
  8
ASSI
100
AcDbCircle
 62
7
  6
CONTINUOUS
 10
181.4337890625
 20
134.7309899794
 40
0.625
  0
ARC
  5
788
100
AcDbEntity
  8
0
100
AcDbCircle
 62
7
  6
CONTINUOUS
 10
183.9337890625
 20
134.7309899794
 40
0.625
100
AcDbArc
 50
36.8698976458
 51
323.1301023542
  0
CIRCLE
  5
789
100
AcDbEntity
  8
ASSI
100
AcDbCircle
 62
7
  6
CONTINUOUS
 10
168.9337890625
 20
143.3912440172
 40
0.625
  0
CIRCLE
  5
78A
100
AcDbEntity
  8
ASSI
100
AcDbCircle
 62
7
  6
CONTINUOUS
 10
171.4337890625
 20
143.3912440172
 40
0.625
  0
CIRCLE
  5
78B
100
AcDbEntity
  8
ASSI
100
AcDbCircle
 62
7
  6
CONTINUOUS
 10
170.1837890625
 20
141.2261805078
 40
0.625
  0
CIRCLE
  5
78C
100
AcDbEntity
  8
ASSI
100
AcDbCircle
 62
7
  6
CONTINUOUS
 10
167.6837890625
 20
141.2261805078
 40
0.625
  0
CIRCLE
  5
78D
100
AcDbEntity
  8
ASSI
100
AcDbCircle
 62
7
  6
CONTINUOUS
 10
171.4337890625
 20
139.0611169983
 40
0.625
  0
CIRCLE
  5
78E
100
AcDbEntity
  8
ASSI
100
AcDbCircle
 62
7
  6
CONTINUOUS
 10
168.9337890625
 20
139.0611169983
 40
0.625
  0
CIRCLE
  5
78F
100
AcDbEntity
  8
ASSI
100
AcDbCircle
 62
7
  6
CONTINUOUS
 10
168.9337890625
 20
147.7213710362
 40
0.625
  0
CIRCLE
  5
790
100
AcDbEntity
  8
ASSI
100
AcDbCircle
 62
7
  6
CONTINUOUS
 10
167.6837890625
 20
145.5563075267
 40
0.625
  0
CIRCLE
  5
791
100
AcDbEntity
  8
ASSI
100
AcDbCircle
 62
7
  6
CONTINUOUS
 10
171.4337890625
 20
147.7213710362
 40
0.625
  0
CIRCLE
  5
792
100
AcDbEntity
  8
ASSI
100
AcDbCircle
 62
7
  6
CONTINUOUS
 10
170.1837890625
 20
145.5563075267
 40
0.625
  0
CIRCLE
  5
793
100
AcDbEntity
  8
ASSI
100
AcDbCircle
 62
7
  6
CONTINUOUS
 10
167.6837890625
 20
149.8864345456
 40
0.625
  0
CIRCLE
  5
794
100
AcDbEntity
  8
ASSI
100
AcDbCircle
 62
7
  6
CONTINUOUS
 10
170.1837890625
 20
149.8864345456
 40
0.625
  0
CIRCLE
  5
795
100
AcDbEntity
  8
ASSI
100
AcDbCircle
 62
7
  6
CONTINUOUS
 10
173.9337890625
 20
143.3912440172
 40
0.625
  0
CIRCLE
  5
796
100
AcDbEntity
  8
ASSI
100
AcDbCircle
 62
7
  6
CONTINUOUS
 10
172.6837890625
 20
141.2261805078
 40
0.625
  0
CIRCLE
  5
797
100
AcDbEntity
  8
ASSI
100
AcDbCircle
 62
7
  6
CONTINUOUS
 10
176.4337890625
 20
143.3912440172
 40
0.625
  0
CIRCLE
  5
798
100
AcDbEntity
  8
ASSI
100
AcDbCircle
 62
7
  6
CONTINUOUS
 10
175.1837890625
 20
141.2261805078
 40
0.625
  0
CIRCLE
  5
799
100
AcDbEntity
  8
ASSI
100
AcDbCircle
 62
7
  6
CONTINUOUS
 10
173.9337890625
 20
139.0611169983
 40
0.625
  0
CIRCLE
  5
79A
100
AcDbEntity
  8
ASSI
100
AcDbCircle
 62
7
  6
CONTINUOUS
 10
176.4337890625
 20
139.0611169983
 40
0.625
  0
CIRCLE
  5
79B
100
AcDbEntity
  8
ASSI
100
AcDbCircle
 62
7
  6
CONTINUOUS
 10
173.9337890625
 20
147.7213710362
 40
0.625
  0
CIRCLE
  5
79C
100
AcDbEntity
  8
ASSI
100
AcDbCircle
 62
7
  6
CONTINUOUS
 10
172.6837890625
 20
145.5563075267
 40
0.625
  0
CIRCLE
  5
79D
100
AcDbEntity
  8
ASSI
100
AcDbCircle
 62
7
  6
CONTINUOUS
 10
176.4337890625
 20
147.7213710362
 40
0.625
  0
CIRCLE
  5
79E
100
AcDbEntity
  8
ASSI
100
AcDbCircle
 62
7
  6
CONTINUOUS
 10
175.1837890625
 20
145.5563075267
 40
0.625
  0
CIRCLE
  5
79F
100
AcDbEntity
  8
ASSI
100
AcDbCircle
 62
7
  6
CONTINUOUS
 10
172.6837890625
 20
149.8864345456
 40
0.625
  0
CIRCLE
  5
7A0
100
AcDbEntity
  8
ASSI
100
AcDbCircle
 62
7
  6
CONTINUOUS
 10
175.1837890625
 20
149.8864345456
 40
0.625
  0
CIRCLE
  5
7A1
100
AcDbEntity
  8
ASSI
100
AcDbCircle
 62
7
  6
CONTINUOUS
 10
168.9337890625
 20
156.381625074
 40
0.625
  0
CIRCLE
  5
7A2
100
AcDbEntity
  8
ASSI
100
AcDbCircle
 62
7
  6
CONTINUOUS
 10
167.6837890625
 20
154.2165615645
 40
0.625
  0
CIRCLE
  5
7A3
100
AcDbEntity
  8
ASSI
100
AcDbCircle
 62
7
  6
CONTINUOUS
 10
171.4337890625
 20
156.381625074
 40
0.625
  0
CIRCLE
  5
7A4
100
AcDbEntity
  8
ASSI
100
AcDbCircle
 62
7
  6
CONTINUOUS
 10
170.1837890625
 20
154.2165615645
 40
0.625
  0
CIRCLE
  5
7A5
100
AcDbEntity
  8
ASSI
100
AcDbCircle
 62
7
  6
CONTINUOUS
 10
168.9337890625
 20
152.0514980551
 40
0.625
  0
CIRCLE
  5
7A6
100
AcDbEntity
  8
ASSI
100
AcDbCircle
 62
7
  6
CONTINUOUS
 10
171.4337890625
 20
152.0514980551
 40
0.625
  0
CIRCLE
  5
7A7
100
AcDbEntity
  8
ASSI
100
AcDbCircle
 62
7
  6
CONTINUOUS
 10
168.9337890625
 20
165.0418791118
 40
0.625
  0
CIRCLE
  5
7A8
100
AcDbEntity
  8
ASSI
100
AcDbCircle
 62
7
  6
CONTINUOUS
 10
167.6837890625
 20
162.8768156024
 40
0.625
  0
CIRCLE
  5
7A9
100
AcDbEntity
  8
ASSI
100
AcDbCircle
 62
7
  6
CONTINUOUS
 10
171.4337890625
 20
165.0418791118
 40
0.625
  0
CIRCLE
  5
7AA
100
AcDbEntity
  8
ASSI
100
AcDbCircle
 62
7
  6
CONTINUOUS
 10
170.1837890625
 20
162.8768156024
 40
0.625
  0
CIRCLE
  5
7AB
100
AcDbEntity
  8
ASSI
100
AcDbCircle
 62
7
  6
CONTINUOUS
 10
168.9337890625
 20
160.7117520929
 40
0.625
  0
CIRCLE
  5
7AC
100
AcDbEntity
  8
ASSI
100
AcDbCircle
 62
7
  6
CONTINUOUS
 10
167.6837890625
 20
158.5466885835
 40
0.625
  0
CIRCLE
  5
7AD
100
AcDbEntity
  8
ASSI
100
AcDbCircle
 62
7
  6
CONTINUOUS
 10
171.4337890625
 20
160.7117520929
 40
0.625
  0
CIRCLE
  5
7AE
100
AcDbEntity
  8
ASSI
100
AcDbCircle
 62
7
  6
CONTINUOUS
 10
170.1837890625
 20
158.5466885835
 40
0.625
  0
CIRCLE
  5
7AF
100
AcDbEntity
  8
ASSI
100
AcDbCircle
 62
7
  6
CONTINUOUS
 10
173.9337890625
 20
156.381625074
 40
0.625
  0
CIRCLE
  5
7B0
100
AcDbEntity
  8
ASSI
100
AcDbCircle
 62
7
  6
CONTINUOUS
 10
172.6837890625
 20
154.2165615645
 40
0.625
  0
CIRCLE
  5
7B1
100
AcDbEntity
  8
ASSI
100
AcDbCircle
 62
7
  6
CONTINUOUS
 10
176.4337890625
 20
156.381625074
 40
0.625
  0
CIRCLE
  5
7B2
100
AcDbEntity
  8
ASSI
100
AcDbCircle
 62
7
  6
CONTINUOUS
 10
175.1837890625
 20
154.2165615645
 40
0.625
  0
CIRCLE
  5
7B3
100
AcDbEntity
  8
ASSI
100
AcDbCircle
 62
7
  6
CONTINUOUS
 10
173.9337890625
 20
152.0514980551
 40
0.625
  0
CIRCLE
  5
7B4
100
AcDbEntity
  8
ASSI
100
AcDbCircle
 62
7
  6
CONTINUOUS
 10
176.4337890625
 20
152.0514980551
 40
0.625
  0
CIRCLE
  5
7B5
100
AcDbEntity
  8
ASSI
100
AcDbCircle
 62
7
  6
CONTINUOUS
 10
173.9337890625
 20
165.0418791118
 40
0.625
  0
CIRCLE
  5
7B6
100
AcDbEntity
  8
ASSI
100
AcDbCircle
 62
7
  6
CONTINUOUS
 10
172.6837890625
 20
162.8768156024
 40
0.625
  0
CIRCLE
  5
7B7
100
AcDbEntity
  8
ASSI
100
AcDbCircle
 62
7
  6
CONTINUOUS
 10
176.4337890625
 20
165.0418791118
 40
0.625
  0
CIRCLE
  5
7B8
100
AcDbEntity
  8
ASSI
100
AcDbCircle
 62
7
  6
CONTINUOUS
 10
175.1837890625
 20
162.8768156024
 40
0.625
  0
CIRCLE
  5
7B9
100
AcDbEntity
  8
ASSI
100
AcDbCircle
 62
7
  6
CONTINUOUS
 10
173.9337890625
 20
160.7117520929
 40
0.625
  0
CIRCLE
  5
7BA
100
AcDbEntity
  8
ASSI
100
AcDbCircle
 62
7
  6
CONTINUOUS
 10
172.6837890625
 20
158.5466885835
 40
0.625
  0
CIRCLE
  5
7BB
100
AcDbEntity
  8
ASSI
100
AcDbCircle
 62
7
  6
CONTINUOUS
 10
176.4337890625
 20
160.7117520929
 40
0.625
  0
CIRCLE
  5
7BC
100
AcDbEntity
  8
ASSI
100
AcDbCircle
 62
7
  6
CONTINUOUS
 10
175.1837890625
 20
158.5466885835
 40
0.625
  0
ARC
  5
7BD
100
AcDbEntity
  8
RACCORDO
100
AcDbCircle
 62
7
  6
CONTINUOUS
 10
186.1837890625
 20
148.0418791118
 40
0.75
100
AcDbArc
 50
0.0
 51
90.0
  0
CIRCLE
  5
7BE
100
AcDbEntity
  8
ASSI
100
AcDbCircle
 62
7
  6
CONTINUOUS
 10
178.9337890625
 20
147.7213710362
 40
0.625
  0
CIRCLE
  5
7BF
100
AcDbEntity
  8
ASSI
100
AcDbCircle
 62
7
  6
CONTINUOUS
 10
177.6837890625
 20
145.5563075267
 40
0.625
  0
CIRCLE
  5
7C0
100
AcDbEntity
  8
ASSI
100
AcDbCircle
 62
7
  6
CONTINUOUS
 10
181.4337890625
 20
147.7213710362
 40
0.625
  0
CIRCLE
  5
7C1
100
AcDbEntity
  8
ASSI
100
AcDbCircle
 62
7
  6
CONTINUOUS
 10
180.1837890625
 20
145.5563075267
 40
0.625
  0
CIRCLE
  5
7C2
100
AcDbEntity
  8
ASSI
100
AcDbCircle
 62
7
  6
CONTINUOUS
 10
178.9337890625
 20
143.3912440172
 40
0.625
  0
CIRCLE
  5
7C3
100
AcDbEntity
  8
ASSI
100
AcDbCircle
 62
7
  6
CONTINUOUS
 10
177.6837890625
 20
141.2261805078
 40
0.625
  0
CIRCLE
  5
7C4
100
AcDbEntity
  8
ASSI
100
AcDbCircle
 62
7
  6
CONTINUOUS
 10
182.6837890625
 20
145.5563075267
 40
0.625
  0
CIRCLE
  5
7C5
100
AcDbEntity
  8
ASSI
100
AcDbCircle
 62
7
  6
CONTINUOUS
 10
181.4337890625
 20
143.3912440172
 40
0.625
  0
CIRCLE
  5
7C6
100
AcDbEntity
  8
ASSI
100
AcDbCircle
 62
7
  6
CONTINUOUS
 10
180.1837890625
 20
141.2261805078
 40
0.625
  0
CIRCLE
  5
7C7
100
AcDbEntity
  8
ASSI
100
AcDbCircle
 62
7
  6
CONTINUOUS
 10
178.9337890625
 20
139.0611169983
 40
0.625
  0
CIRCLE
  5
7C8
100
AcDbEntity
  8
ASSI
100
AcDbCircle
 62
7
  6
CONTINUOUS
 10
182.6837890625
 20
141.2261805078
 40
0.625
  0
CIRCLE
  5
7C9
100
AcDbEntity
  8
ASSI
100
AcDbCircle
 62
7
  6
CONTINUOUS
 10
181.4337890625
 20
139.0611169983
 40
0.625
  0
CIRCLE
  5
7CA
100
AcDbEntity
  8
ASSI
100
AcDbCircle
 62
7
  6
CONTINUOUS
 10
177.6837890625
 20
149.8864345456
 40
0.625
  0
CIRCLE
  5
7CB
100
AcDbEntity
  8
ASSI
100
AcDbCircle
 62
7
  6
CONTINUOUS
 10
180.1837890625
 20
149.8864345456
 40
0.625
  0
CIRCLE
  5
7CC
100
AcDbEntity
  8
ASSI
100
AcDbCircle
 62
7
  6
CONTINUOUS
 10
182.6837890625
 20
149.8864345456
 40
0.625
  0
ARC
  5
7CD
100
AcDbEntity
  8
0
100
AcDbCircle
 62
7
  6
CONTINUOUS
 10
183.9337890625
 20
139.0611169983
 40
0.625
100
AcDbArc
 50
36.8698976458
 51
323.1301023542
  0
ARC
  5
7CE
100
AcDbEntity
  8
0
100
AcDbCircle
 62
7
  6
CONTINUOUS
 10
183.9337890625
 20
143.3912440172
 40
0.625
100
AcDbArc
 50
36.8698976458
 51
323.1301023542
  0
ARC
  5
7CF
100
AcDbEntity
  8
0
100
AcDbCircle
 62
7
  6
CONTINUOUS
 10
183.9337890625
 20
147.7213710362
 40
0.625
100
AcDbArc
 50
36.8698976458
 51
323.1301023542
  0
CIRCLE
  5
7D0
100
AcDbEntity
  8
ASSI
100
AcDbCircle
 62
7
  6
CONTINUOUS
 10
178.9337890625
 20
156.381625074
 40
0.625
  0
CIRCLE
  5
7D1
100
AcDbEntity
  8
ASSI
100
AcDbCircle
 62
7
  6
CONTINUOUS
 10
177.6837890625
 20
154.2165615645
 40
0.625
  0
CIRCLE
  5
7D2
100
AcDbEntity
  8
ASSI
100
AcDbCircle
 62
7
  6
CONTINUOUS
 10
180.1837890625
 20
154.2165615645
 40
0.625
  0
CIRCLE
  5
7D3
100
AcDbEntity
  8
ASSI
100
AcDbCircle
 62
7
  6
CONTINUOUS
 10
178.9337890625
 20
152.0514980551
 40
0.625
  0
CIRCLE
  5
7D4
100
AcDbEntity
  8
ASSI
100
AcDbCircle
 62
7
  6
CONTINUOUS
 10
178.9337890625
 20
165.0418791118
 40
0.625
  0
CIRCLE
  5
7D5
100
AcDbEntity
  8
ASSI
100
AcDbCircle
 62
7
  6
CONTINUOUS
 10
177.6837890625
 20
162.8768156024
 40
0.625
  0
CIRCLE
  5
7D6
100
AcDbEntity
  8
ASSI
100
AcDbCircle
 62
7
  6
CONTINUOUS
 10
180.1837890625
 20
162.8768156024
 40
0.625
  0
CIRCLE
  5
7D7
100
AcDbEntity
  8
ASSI
100
AcDbCircle
 62
7
  6
CONTINUOUS
 10
178.9337890625
 20
160.7117520929
 40
0.625
  0
CIRCLE
  5
7D8
100
AcDbEntity
  8
ASSI
100
AcDbCircle
 62
7
  6
CONTINUOUS
 10
177.6837890625
 20
158.5466885835
 40
0.625
  0
CIRCLE
  5
7D9
100
AcDbEntity
  8
ASSI
100
AcDbCircle
 62
7
  6
CONTINUOUS
 10
180.1837890625
 20
158.5466885835
 40
0.625
  0
CIRCLE
  5
7DA
100
AcDbEntity
  8
ASSI
100
AcDbCircle
 62
7
  6
CONTINUOUS
 10
181.4337890625
 20
156.381625074
 40
0.625
  0
CIRCLE
  5
7DB
100
AcDbEntity
  8
ASSI
100
AcDbCircle
 62
7
  6
CONTINUOUS
 10
182.6837890625
 20
154.2165615645
 40
0.625
  0
CIRCLE
  5
7DC
100
AcDbEntity
  8
ASSI
100
AcDbCircle
 62
7
  6
CONTINUOUS
 10
181.4337890625
 20
152.0514980551
 40
0.625
  0
ARC
  5
7DD
100
AcDbEntity
  8
0
100
AcDbCircle
 62
7
  6
CONTINUOUS
 10
183.9337890625
 20
156.381625074
 40
0.625
100
AcDbArc
 50
36.8698976458
 51
323.1301023542
  0
ARC
  5
7DE
100
AcDbEntity
  8
0
100
AcDbCircle
 62
7
  6
CONTINUOUS
 10
183.9337890625
 20
152.0514980551
 40
0.625
100
AcDbArc
 50
36.8698976458
 51
323.1301023542
  0
CIRCLE
  5
7DF
100
AcDbEntity
  8
ASSI
100
AcDbCircle
 62
7
  6
CONTINUOUS
 10
181.4337890625
 20
165.0418791118
 40
0.625
  0
CIRCLE
  5
7E0
100
AcDbEntity
  8
ASSI
100
AcDbCircle
 62
7
  6
CONTINUOUS
 10
182.6837890625
 20
162.8768156024
 40
0.625
  0
CIRCLE
  5
7E1
100
AcDbEntity
  8
ASSI
100
AcDbCircle
 62
7
  6
CONTINUOUS
 10
181.4337890625
 20
160.7117520929
 40
0.625
  0
CIRCLE
  5
7E2
100
AcDbEntity
  8
ASSI
100
AcDbCircle
 62
7
  6
CONTINUOUS
 10
182.6837890625
 20
158.5466885835
 40
0.625
  0
ARC
  5
7E3
100
AcDbEntity
  8
0
100
AcDbCircle
 62
7
  6
CONTINUOUS
 10
183.9337890625
 20
160.7117520929
 40
0.625
100
AcDbArc
 50
36.8698976458
 51
323.1301023542
  0
ARC
  5
7E4
100
AcDbEntity
  8
0
100
AcDbCircle
 62
7
  6
CONTINUOUS
 10
183.9337890625
 20
165.0418791118
 40
0.625
100
AcDbArc
 50
36.8698976458
 51
323.1301023542
  0
ENDSEC
  0
SECTION
  2
OBJECTS
  0
DICTIONARY
  5
C
100
AcDbDictionary
280
0
281
1
  3
ACAD_GROUP
350
D
  3
ACAD_MLINESTYLE
350
17
  3
ACAD_LAYOUT
350
1A
  3
ACAD_PLOTSETTINGS
350
19
  3
ACAD_PLOTSTYLENAME
350
E
  0
DICTIONARY
  5
D
102
{ACAD_REACTORS
330
C
102
}
100
AcDbDictionary
280
0
281
1
  0
ACDBDICTIONARYWDFLT
  5
E
102
{ACAD_REACTORS
330
C
102
}
100
AcDbDictionary
281
1
  3
Normal
350
F
100
AcDbDictionaryWithDefault
340
F
  0
DICTIONARY
  5
17
102
{ACAD_REACTORS
330
C
102
}
100
AcDbDictionary
280
0
281
1
  3
Standard
350
18
  0
DICTIONARY
  5
19
102
{ACAD_REACTORS
330
C
102
}
100
AcDbDictionary
281
1
  0
DICTIONARY
  5
1A
102
{ACAD_REACTORS
330
C
102
}
100
AcDbDictionary
281
1
  3
Model
350
7E5
  3
Layout1
350
7E6
  0
ACDBPLACEHOLDER
  5
F
102
{ACAD_REACTORS
330
E
102
}
  0
MLINESTYLE
  5
18
102
{ACAD_REACTORS
330
17
102
}
100
AcDbMlineStyle
  2
STANDARD
 70
0
  3

 62
256
 51
90.0
 52
90.0
 71
2
 49
0.5
 62
256
  6
BYLAYER
 49
-0.5
 62
256
  6
BYLAYER
  0
LAYOUT
  5
7E5
102
{ACAD_REACTORS
330
1A
102
}
100
AcDbPlotSettings
  1

  2
none_device
  4
ISO_A4_(297.00_x_210.00_MM)
  6

 40
0.0
 41
0.0
 42
0.0
 43
0.0
 44
297.0
 45
210.0
 46
0.0
 47
0.0
 48
0.0
 49
0.0
140
0.0
141
0.0
142
1.0
143
1.0
 70
1024
 72
1
 73
0
 74
0
  7

 75
0
147
1.0
148
0.0
149
0.0
100
AcDbLayout
  1
Model
 70
0
 71
0
 10
0.0
 20
0.0
 11
297.0
 21
210.0
 12
0.0
 22
0.0
 32
0.0
 14
0.0
 24
0.0
 34
0.0
 15
0.0
 25
0.0
 35
0.0
146
0.0
 13
0.0
 23
0.0
 33
0.0
 16
1.0
 26
0.0
 36
0.0
 17
0.0
 27
1.0
 37
0.0
 76
0
330
211
345
0
346
0
  0
LAYOUT
  5
7E6
102
{ACAD_REACTORS
330
1A
102
}
100
AcDbPlotSettings
  1

  2
none_device
  4
ISO_A4_(297.00_x_210.00_MM)
  6

 40
0.0
 41
0.0
 42
0.0
 43
0.0
 44
297.0
 45
210.0
 46
0.0
 47
0.0
 48
0.0
 49
0.0
140
0.0
141
0.0
142
1.0
143
1.0
 70
0
 72
1
 73
0
 74
0
  7

 75
0
147
1.0
148
0.0
149
0.0
100
AcDbLayout
  1
Layout1
 70
0
 71
1
 10
0.0
 20
0.0
 11
297.0
 21
210.0
 12
0.0
 22
0.0
 32
0.0
 14
0.0
 24
0.0
 34
0.0
 15
0.0
 25
0.0
 35
0.0
146
0.0
 13
0.0
 23
0.0
 33
0.0
 16
1.0
 26
0.0
 36
0.0
 17
0.0
 27
1.0
 37
0.0
 76
0
330
212
345
0
346
0
  0
ENDSEC
  0
EOF
