  0
SECTION
  2
HEADER
  9
$ACADVER
  1
AC1021
  9
$DWGCODEPAGE
  3
ANSI_1252
  9
$EXTMAX
 10
558.8
 20
431.8
 30
0.0
  9
$EXTMIN
 10
0.0
 20
0.0
 30
0.0
  9
$LIMMIN
 10
0.0
 20
0.0
  9
$LIMMAX
 10
558.8
 20
431.8
  9
$VIEWCTR
 10
279.4
 20
215.9
  9
$VIEWSIZE
 40
431.8
  9
$CLAYER
  8
0
  9
$LTSCALE
 40
30.734
  9
$CELTYPE
  6
BYLAYER
  9
$DIMSCALE
 40
1.0
  9
$DIMASZ
 40
3.0
  9
$DIMEXO
 40
0.5
  9
$DIMDLI
 40
21.2344
  9
$DIMEXE
 40
1.5
  9
$DIMCEN
 40
5.0292
  9
$DIMLFAC
 40
1.0
  9
$DIMBLK
  1
_FILLED
  9
$DIMALT
 70
0
  9
$DIMALTF
 40
25.4
  9
$DIMTXT
 40
3.0
  9
$DIMTOL
 70
1
  9
$DIMLIM
 70
0
  9
$DIMTFAC
 40
1.0
  9
$DIMTP
 40
0.01
  9
$DIMTM
 40
0.01
  9
$DIMGAP
 40
0.625
  9
$DIMDSEP
 70
44
  9
$AUNITS
 70
0
  9
$PDMODE
 70
3
  9
$PDSIZE
 40
3.0
  9
$HANDSEED
  5
57F
  9
$TILEMODE
 70
1
  9
$MEASUREMENT
 70
1
  9
$INSUNITS
 70
4
  0
ENDSEC
  0
SECTION
  2
CLASSES
  0
CLASS
  1
ACDBDICTIONARYWDFLT
  2
AcDbDictionaryWithDefault
  3
AutoCAD 2000
 90
0
 91
1
280
0
281
0
  0
CLASS
  1
ACDBPLACEHOLDER
  2
AcDbPlaceHolder
  3
AutoCAD 2000
 90
0
 91
1
280
0
281
0
  0
CLASS
  1
LAYOUT
  2
AcDbLayout
  3
AutoCAD 2000
 90
0
 91
0
280
0
281
0
  0
ENDSEC
  0
SECTION
  2
TABLES
  0
TABLE
  2
VPORT
  5
8
100
AcDbSymbolTable
 70
2
  0
VPORT
  5
1F4
100
AcDbSymbolTableRecord
100
AcDbViewportTableRecord
  2
*ACTIVE
 70
0
 10
0.0
 20
0.0
 11
1.0
 21
1.0
 12
279.4
 22
215.9
 13
0.0
 23
0.0
 14
1.0
 24
1.0
 15
0.0
 25
0.0
 16
0.0
 26
0.0
 36
1.0
 17
0.0
 27
0.0
 37
0.0
 40
431.8
 41
1.2941176471
 42
50.0
 43
0.0
 44
0.0
 50
0.0
 51
0.0
 71
0
 72
100
 73
1
 74
1
 75
0
 76
0
 77
0
 78
0
  0
ENDTAB
  0
TABLE
  2
LTYPE
  5
5
100
AcDbSymbolTable
 70
6
  0
LTYPE
  5
14
100
AcDbSymbolTableRecord
100
AcDbLinetypeTableRecord
  2
BYBLOCK
 70
0
  3

 72
65
 73
0
 40
0.0
  0
LTYPE
  5
15
100
AcDbSymbolTableRecord
100
AcDbLinetypeTableRecord
  2
BYLAYER
 70
0
  3

 72
65
 73
0
 40
0.0
  0
LTYPE
  5
16
100
AcDbSymbolTableRecord
100
AcDbLinetypeTableRecord
  2
CONTINUOUS
 70
64
  3
Solid line
 72
65
 73
0
 40
0.0
  0
LTYPE
  5
1F5
100
AcDbSymbolTableRecord
100
AcDbLinetypeTableRecord
  2
CENTER
 70
64
  3
____ _ ____ _ ____ _ ____ _ ____ _ ____ _ ____
 72
65
 73
4
 40
0.6
 49
0.375
 74
0
 49
-0.075
 74
0
 49
0.075
 74
0
 49
-0.075
 74
0
  0
LTYPE
  5
1F6
100
AcDbSymbolTableRecord
100
AcDbLinetypeTableRecord
  2
HIDDEN
 70
64
  3
- - - - - - - - - - - - - - - - - - - -
 72
65
 73
2
 40
0.2
 49
0.1
 74
0
 49
-0.1
 74
0
  0
LTYPE
  5
1F7
100
AcDbSymbolTableRecord
100
AcDbLinetypeTableRecord
  2
PHANTOM
 70
64
  3
_____ _ _ _____ _ _ _____ _ _ _____
 72
65
 73
6
 40
0.8
 49
0.45
 74
0
 49
-0.05
 74
0
 49
0.1
 74
0
 49
-0.05
 74
0
 49
0.1
 74
0
 49
-0.05
 74
0
  0
LTYPE
  5
1F8
100
AcDbSymbolTableRecord
100
AcDbLinetypeTableRecord
  2
DOT
 70
64
  3
. . . . . . . . . . . . . . . . . . . .
 72
65
 73
2
 40
0.2
 49
0.1
 74
0
 49
-0.1
 74
0
  0
LTYPE
  5
1F9
100
AcDbSymbolTableRecord
100
AcDbLinetypeTableRecord
  2
DASHED
 70
64
  3
- - - - - - - - - - - - - - - - - - - -
 72
65
 73
2
 40
0.2
 49
0.1
 74
0
 49
-0.1
 74
0
  0
ENDTAB
  0
TABLE
  2
LAYER
  5
2
100
AcDbSymbolTable
 70
36
  0
LAYER
  5
10
100
AcDbSymbolTableRecord
100
AcDbLayerTableRecord
  2
0
 70
0
 62
7
  6
CONTINUOUS
370
-3
390
F
  0
LAYER
  5
1FA
100
AcDbSymbolTableRecord
100
AcDbLayerTableRecord
  2
DEFAULT_1
 70
0
 62
7
  6
CENTER
370
-3
390
F
  0
LAYER
  5
1FB
100
AcDbSymbolTableRecord
100
AcDbLayerTableRecord
  2
DEFAULT_2
 70
0
 62
7
  6
HIDDEN
370
-3
390
F
  0
LAYER
  5
1FC
100
AcDbSymbolTableRecord
100
AcDbLayerTableRecord
  2
DEFAULT_3
 70
0
 62
7
  6
PHANTOM
370
-3
390
F
  0
LAYER
  5
1FD
100
AcDbSymbolTableRecord
100
AcDbLayerTableRecord
  2
ASSI
 70
0
 62
7
  6
CONTINUOUS
370
-3
390
F
  0
LAYER
  5
1FE
100
AcDbSymbolTableRecord
100
AcDbLayerTableRecord
  2
COORDINATE
 70
0
 62
7
  6
CONTINUOUS
370
-3
390
F
  0
LAYER
  5
1FF
100
AcDbSymbolTableRecord
100
AcDbLayerTableRecord
  2
COPY_PUBLISH
 70
0
 62
7
  6
CONTINUOUS
370
-3
390
F
  0
LAYER
  5
200
100
AcDbSymbolTableRecord
100
AcDbLayerTableRecord
  2
COSMETIC
 70
0
 62
7
  6
CONTINUOUS
370
-3
390
F
  0
LAYER
  5
201
100
AcDbSymbolTableRecord
100
AcDbLayerTableRecord
  2
COSMETICI
 70
0
 62
7
  6
CONTINUOUS
370
-3
390
F
  0
LAYER
  5
202
100
AcDbSymbolTableRecord
100
AcDbLayerTableRecord
  2
CURVE
 70
0
 62
7
  6
CONTINUOUS
370
-3
390
F
  0
LAYER
  5
203
100
AcDbSymbolTableRecord
100
AcDbLayerTableRecord
  2
DRAFT
 70
0
 62
7
  6
CONTINUOUS
370
-3
390
F
  0
LAYER
  5
204
100
AcDbSymbolTableRecord
100
AcDbLayerTableRecord
  2
IMPORT_IGES
 70
0
 62
7
  6
CONTINUOUS
370
-3
390
F
  0
LAYER
  5
205
100
AcDbSymbolTableRecord
100
AcDbLayerTableRecord
  2
INTF_1
 70
0
 62
7
  6
CONTINUOUS
370
-3
390
F
  0
LAYER
  5
206
100
AcDbSymbolTableRecord
100
AcDbLayerTableRecord
  2
NOTE
 70
0
 62
7
  6
CONTINUOUS
370
-3
390
F
  0
LAYER
  5
207
100
AcDbSymbolTableRecord
100
AcDbLayerTableRecord
  2
PIANI
 70
0
 62
7
  6
CONTINUOUS
370
-3
390
F
  0
LAYER
  5
208
100
AcDbSymbolTableRecord
100
AcDbLayerTableRecord
  2
PUNTI
 70
0
 62
7
  6
CONTINUOUS
370
-3
390
F
  0
LAYER
  5
209
100
AcDbSymbolTableRecord
100
AcDbLayerTableRecord
  2
RACCORDO
 70
0
 62
7
  6
CONTINUOUS
370
-3
390
F
  0
LAYER
  5
20A
100
AcDbSymbolTableRecord
100
AcDbLayerTableRecord
  2
RGB____0____0____0__
 70
0
 62
7
  6
CONTINUOUS
370
-3
390
F
  0
LAYER
  5
20B
100
AcDbSymbolTableRecord
100
AcDbLayerTableRecord
  2
SIMBOLI
 70
0
 62
7
  6
CONTINUOUS
370
-3
390
F
  0
LAYER
  5
20C
100
AcDbSymbolTableRecord
100
AcDbLayerTableRecord
  2
SMUSSO
 70
0
 62
7
  6
CONTINUOUS
370
-3
390
F
  0
LAYER
  5
20D
100
AcDbSymbolTableRecord
100
AcDbLayerTableRecord
  2
SNAPLINE
 70
0
 62
7
  6
CONTINUOUS
370
-3
390
F
  0
LAYER
  5
20E
100
AcDbSymbolTableRecord
100
AcDbLayerTableRecord
  2
SUPERFICI
 70
0
 62
7
  6
CONTINUOUS
370
-3
390
F
  0
LAYER
  5
20F
100
AcDbSymbolTableRecord
100
AcDbLayerTableRecord
  2
TRASH
 70
0
 62
7
  6
CONTINUOUS
370
-3
390
F
  0
ENDTAB
  0
TABLE
  2
STYLE
  5
3
100
AcDbSymbolTable
 70
1
  0
STYLE
  5
11
100
AcDbSymbolTableRecord
100
AcDbTextStyleTableRecord
  2
STANDARD
 70
0
 40
0.0
 41
0.8
 50
0.0
 71
0
 42
0.2
  3
txt
  4

  0
STYLE
  5
210
100
AcDbSymbolTableRecord
100
AcDbTextStyleTableRecord
  2
TEXTSTYLE_1
 70
0
 40
0.0
 41
0.8
 50
0.0
 71
0
 42
0.2
  3
gdt
  4

  0
ENDTAB
  0
TABLE
  2
VIEW
  5
6
100
AcDbSymbolTable
 70
0
  0
ENDTAB
  0
TABLE
  2
UCS
  5
7
100
AcDbSymbolTable
 70
0
  0
ENDTAB
  0
TABLE
  2
APPID
  5
9
100
AcDbSymbolTable
 70
1
  0
APPID
  5
211
100
AcDbSymbolTableRecord
100
AcDbRegAppTableRecord
  2
ACAD
 70
0
  0
ENDTAB
  0
TABLE
  2
BLOCK_RECORD
  5
1
100
AcDbSymbolTable
 70
0
  0
BLOCK_RECORD
  5
212
100
AcDbSymbolTableRecord
100
AcDbBlockTableRecord
  2
*Model_Space
  0
BLOCK_RECORD
  5
213
100
AcDbSymbolTableRecord
100
AcDbBlockTableRecord
  2
*Paper_Space
  0
ENDTAB
  0
TABLE
  2
DIMSTYLE
  5
A
100
AcDbSymbolTable
 70
1
100
AcDbDimStyleTable
 71
0
  0
DIMSTYLE
105
214
100
AcDbSymbolTableRecord
100
AcDbDimStyleTableRecord
  2
STANDARD
 70
0
  3

  4

 40
1.0
 41
3.0
 42
0.5
 43
0.38
 44
1.5
 45
0.0
 46
0.0
 47
0.01
 48
0.01
140
3.0
141
0.09
142
0.0
143
25.4
144
1.0
145
0.0
146
1.0
147
0.625
 71
1.0
 72
0.0
 73
0
 74
0
 75
0
 76
0
 77
1
 78
8
170
0
171
1
172
0
173
0
174
0
175
0
176
0
177
0
178
0
270
2
271
2
272
2
273
2
274
2
275
0
280
0
281
0
282
0
283
1
284
8
285
0
286
0
287
3
288
0
340
11
278
44
  0
ENDTAB
  0
ENDSEC
  0
SECTION
  2
BLOCKS
  0
BLOCK
  5
20
100
AcDbEntity
  8
0
100
AcDbBlockBegin
  2
*Model_Space
 70
0
 10
0.0
 20
0.0
 30
0.0
  3
*Model_Space
  1

  0
ENDBLK
  5
21
100
AcDbEntity
  8
0
100
AcDbBlockEnd
  0
BLOCK
  5
1C
100
AcDbEntity
  8
0
100
AcDbBlockBegin
  2
*Paper_Space
 70
0
 10
0.0
 20
0.0
 30
0.0
  3
*Paper_Space
  1

  0
ENDBLK
  5
1D
100
AcDbEntity
  8
0
100
AcDbBlockEnd
  0
ENDSEC
  0
SECTION
  2
ENTITIES
  0
LINE
  5
215
100
AcDbEntity
  8
0
100
AcDbLine
 62
7
  6
CONTINUOUS
 10
-89.5
 20
-66.5
 11
-89.5
 21
66.5
  0
LINE
  5
216
100
AcDbEntity
  8
0
100
AcDbLine
 62
7
  6
CONTINUOUS
 10
-87.015
 20
66.505
 11
-87.015
 21
-66.505
  0
LINE
  5
217
100
AcDbEntity
  8
0
100
AcDbLine
 62
250
  6
CONTINUOUS
 10
-82.3868906591
 20
66.5
 11
-82.3868906591
 21
-66.5
  0
LINE
  5
218
100
AcDbEntity
  8
CURVE
100
AcDbLine
 62
7
  6
CONTINUOUS
 10
-82.385
 20
-66.505
 11
-82.385
 21
66.505
  0
LINE
  5
219
100
AcDbEntity
  8
0
100
AcDbLine
 62
7
  6
CONTINUOUS
 10
-82.3849626761
 20
66.505
 11
-82.3849626761
 21
-66.505
  0
LINE
  5
21A
100
AcDbEntity
  8
0
100
AcDbLine
 62
7
  6
CONTINUOUS
 10
-81.9174537356
 20
-66.5
 11
-81.9174537356
 21
66.5
  0
LINE
  5
21B
100
AcDbEntity
  8
0
100
AcDbLine
 62
7
  6
CONTINUOUS
 10
-81.9
 20
-66.5
 11
-81.9
 21
66.5
  0
LINE
  5
21C
100
AcDbEntity
  8
0
100
AcDbLine
 62
250
  6
CONTINUOUS
 10
-79.505
 20
-69.3849626761
 11
-79.505
 21
-74.015
  0
LINE
  5
21D
100
AcDbEntity
  8
0
100
AcDbLine
 62
250
  6
CONTINUOUS
 10
-79.505
 20
69.3849626761
 11
-79.505
 21
74.015
  0
LINE
  5
21E
100
AcDbEntity
  8
0
100
AcDbLine
 62
250
  6
CONTINUOUS
 10
-79.5
 20
-68.9
 11
-79.5
 21
-68.9174537356
  0
LINE
  5
21F
100
AcDbEntity
  8
0
100
AcDbLine
 62
250
  6
CONTINUOUS
 10
-79.5
 20
68.9
 11
-79.5
 21
68.9174537356
  0
LINE
  5
220
100
AcDbEntity
  8
0
100
AcDbLine
 62
7
  6
CONTINUOUS
 10
79.5
 20
-76.5
 11
-79.5
 21
-76.5
  0
LINE
  5
221
100
AcDbEntity
  8
0
100
AcDbLine
 62
7
  6
CONTINUOUS
 10
-79.505
 20
-74.015
 11
79.505
 21
-74.015
  0
LINE
  5
222
100
AcDbEntity
  8
0
100
AcDbLine
 62
7
  6
CONTINUOUS
 10
18.4113219764
 20
-59.5478127643
 11
18.7452157176
 21
-59.4709792469
  0
LWPOLYLINE
  5
223
100
AcDbEntity
  8
0
100
AcDbPolyline
 62
7
  6
CONTINUOUS
 90
25
 70
0
 10
17.7681972447
 20
-61.3330061502
 10
17.8377970443
 20
-61.3308976304
 10
17.9043705774
 20
-61.3258039713
 10
17.967917844
 20
-61.3177251729
 10
18.0281529429
 20
-61.3065820685
 10
18.0853617754
 20
-61.2924538248
 10
18.1404020448
 20
-61.2755779421
 10
18.1934599259
 20
-61.25597831
 10
18.2443492439
 20
-61.233631039
 10
18.2933691782
 20
-61.20870196
 10
18.3406059629
 20
-61.1812667406
 10
18.3859733638
 20
-61.1512497133
 10
18.429511858
 20
-61.1185897071
 10
18.4711980852
 20
-61.0833645362
 10
18.5110554058
 20
-61.0454963865
 10
18.5491943774
 20
-61.0046906443
 10
18.5857538094
 20
-60.9609412949
 10
18.6205948924
 20
-60.9142543532
 10
18.6534117559
 20
-60.8643532499
 10
18.6841494398
 20
-60.8113144213
 10
18.7128629043
 20
-60.7550614313
 10
18.7394111587
 20
-60.6950884015
 10
18.7637472061
 20
-60.631226706
 10
18.7859180433
 20
-60.5636449707
 10
18.8059236705
 20
-60.4923431958
  0
LINE
  5
224
100
AcDbEntity
  8
0
100
AcDbLine
 62
250
  6
CONTINUOUS
 10
-79.5
 20
-69.3868906591
 11
79.5
 21
-69.3868906591
  0
LINE
  5
225
100
AcDbEntity
  8
CURVE
100
AcDbLine
 62
7
  6
CONTINUOUS
 10
79.505
 20
-69.385
 11
-79.505
 21
-69.385
  0
LINE
  5
226
100
AcDbEntity
  8
0
100
AcDbLine
 62
7
  6
CONTINUOUS
 10
-79.505
 20
-69.3849626761
 11
79.505
 21
-69.3849626761
  0
LINE
  5
227
100
AcDbEntity
  8
0
100
AcDbLine
 62
7
  6
CONTINUOUS
 10
79.5
 20
-68.9174537356
 11
-79.5
 21
-68.9174537356
  0
LINE
  5
228
100
AcDbEntity
  8
0
100
AcDbLine
 62
7
  6
CONTINUOUS
 10
79.5
 20
-68.9
 11
-79.5
 21
-68.9
  0
LINE
  5
229
100
AcDbEntity
  8
0
100
AcDbLine
 62
250
  6
CONTINUOUS
 10
82.3849626761
 20
-66.505
 11
87.015
 21
-66.505
  0
LINE
  5
22A
100
AcDbEntity
  8
0
100
AcDbLine
 62
250
  6
CONTINUOUS
 10
-82.3849626761
 20
-66.505
 11
-87.015
 21
-66.505
  0
LINE
  5
22B
100
AcDbEntity
  8
0
100
AcDbLine
 62
250
  6
CONTINUOUS
 10
81.9
 20
-66.5
 11
81.9174537356
 21
-66.5
  0
LINE
  5
22C
100
AcDbEntity
  8
0
100
AcDbLine
 62
250
  6
CONTINUOUS
 10
-81.9
 20
-66.5
 11
-81.9174537356
 21
-66.5
  0
LINE
  5
22D
100
AcDbEntity
  8
0
100
AcDbLine
 62
7
  6
CONTINUOUS
 10
-10.0
 20
-65.0
 11
-9.6661062588
 21
-65.0
  0
LINE
  5
22E
100
AcDbEntity
  8
0
100
AcDbLine
 62
7
  6
CONTINUOUS
 10
-8.4367702118
 20
-65.0
 11
-8.1028764706
 21
-65.0
  0
LINE
  5
22F
100
AcDbEntity
  8
0
100
AcDbLine
 62
7
  6
CONTINUOUS
 10
-7.2259309382
 20
-65.0
 11
-6.8735404235
 21
-65.0
  0
LINE
  5
230
100
AcDbEntity
  8
0
100
AcDbLine
 62
7
  6
CONTINUOUS
 10
-5.2647796706
 20
-65.0
 11
-4.9097803397
 21
-65.0
  0
LINE
  5
231
100
AcDbEntity
  8
0
100
AcDbLine
 62
7
  6
CONTINUOUS
 10
-4.642523153
 20
-65.0
 11
-3.0641163765
 21
-65.0
  0
LINE
  5
232
100
AcDbEntity
  8
0
100
AcDbLine
 62
7
  6
CONTINUOUS
 10
-1.9846530593
 20
-65.0
 11
-1.6507593181
 21
-65.0
  0
LINE
  5
233
100
AcDbEntity
  8
0
100
AcDbLine
 62
7
  6
CONTINUOUS
 10
-3.0641163765
 20
-64.7116372235
 11
-4.3086294118
 21
-64.7116372235
  0
LINE
  5
234
100
AcDbEntity
  8
0
100
AcDbLine
 62
7
  6
CONTINUOUS
 10
-6.609603022
 20
-64.2411505882
 11
-5.5441309728
 21
-64.2411505882
  0
LINE
  5
235
100
AcDbEntity
  8
0
100
AcDbLine
 62
7
  6
CONTINUOUS
 10
-5.6449155771
 20
-63.9679648
 11
-6.5145096436
 21
-63.9679648
  0
LINE
  5
236
100
AcDbEntity
  8
0
100
AcDbLine
 62
7
  6
CONTINUOUS
 10
-9.2563275765
 20
-62.7841597177
 11
-8.4367702118
 21
-62.7841597177
  0
LINE
  5
237
100
AcDbEntity
  8
0
100
AcDbLine
 62
7
  6
CONTINUOUS
 10
-8.1028764706
 20
-62.7841597177
 11
-7.2833191059
 21
-62.7841597177
  0
LINE
  5
238
100
AcDbEntity
  8
0
100
AcDbLine
 62
7
  6
CONTINUOUS
 10
-0.6490780946
 20
-62.4957969412
 11
-1.0519795992
 21
-62.4957969412
  0
LINE
  5
239
100
AcDbEntity
  8
0
100
AcDbLine
 62
7
  6
CONTINUOUS
 10
-2.5435930393
 20
-62.4957969412
 11
-2.9408033181
 21
-62.4957969412
  0
LINE
  5
23A
100
AcDbEntity
  8
0
100
AcDbLine
 62
7
  6
CONTINUOUS
 10
-4.3086294118
 20
-62.4957969412
 11
-4.642523153
 21
-62.4957969412
  0
LINE
  5
23B
100
AcDbEntity
  8
0
100
AcDbLine
 62
7
  6
CONTINUOUS
 10
-5.9128844276
 20
-62.4957969412
 11
-6.2740492724
 21
-62.4957969412
  0
LINE
  5
23C
100
AcDbEntity
  8
0
100
AcDbLine
 62
7
  6
CONTINUOUS
 10
-7.2833191059
 20
-62.4957969412
 11
-9.2563275765
 21
-62.4957969412
  0
LINE
  5
23D
100
AcDbEntity
  8
0
100
AcDbLine
 62
7
  6
CONTINUOUS
 10
-9.6661062588
 20
-62.4957969412
 11
-10.0
 21
-62.4957969412
  0
LWPOLYLINE
  5
23E
100
AcDbEntity
  8
0
100
AcDbPolyline
 62
7
  6
CONTINUOUS
 90
10
 70
0
 10
-1.6192196214
 20
-60.1036701032
 10
-1.5926779153
 20
-60.0970451177
 10
-1.566566849
 20
-60.0910775757
 10
-1.5408864224
 20
-60.0857674772
 10
-1.5156108098
 20
-60.0810478363
 10
-1.490765837
 20
-60.0769856388
 10
-1.466428981
 20
-60.0737818429
 10
-1.4426260676
 20
-60.0715034344
 10
-1.4193312711
 20
-60.0700834273
 10
-1.3965445915
 20
-60.0695218217
  0
LWPOLYLINE
  5
23F
100
AcDbEntity
  8
0
100
AcDbPolyline
 62
7
  6
CONTINUOUS
 90
10
 70
0
 10
-9.3898375978
 20
-60.1036701032
 10
-9.3632958918
 20
-60.0970451177
 10
-9.3371848254
 20
-60.0910775757
 10
-9.3115043989
 20
-60.0857674772
 10
-9.2862287863
 20
-60.0810478363
 10
-9.2613838134
 20
-60.0769856388
 10
-9.2370469575
 20
-60.0737818429
 10
-9.2132440441
 20
-60.0715034344
 10
-9.1899492476
 20
-60.0700834273
 10
-9.167162568
 20
-60.0695218217
  0
LINE
  5
240
100
AcDbEntity
  8
0
100
AcDbLine
 62
7
  6
CONTINUOUS
 10
6.0935358993
 20
-55.8959959028
 11
6.4274296405
 21
-55.8191623854
  0
LWPOLYLINE
  5
241
100
AcDbEntity
  8
0
100
AcDbPolyline
 62
7
  6
CONTINUOUS
 90
52
 70
0
 10
7.3468234964
 20
-60.1492010679
 10
7.4095790691
 20
-60.1394120181
 10
7.469271638
 20
-60.1273857467
 10
7.5259012031
 20
-60.1131222537
 10
7.5795667156
 20
-60.096504129
 10
7.6301692243
 20
-60.0776487826
 10
7.6774118754
 20
-60.0569084449
 10
7.7210953423
 20
-60.0342683778
 10
7.7614189516
 20
-60.0097433193
 10
7.7986838298
 20
-59.9837297141
 10
7.8327891091
 20
-59.956422656
 10
7.8638356572
 20
-59.927627051
 10
7.8924272044
 20
-59.8971540617
 10
7.9187405958
 20
-59.8649103006
 10
7.9425989863
 20
-59.8309891551
 10
7.9640755708
 20
-59.7954819502
 10
7.9832555859
 20
-59.7585061105
 10
8.000053795
 20
-59.7199442114
 10
8.014287683
 20
-59.6795353051
 10
8.0259994577
 20
-59.6370875507
 10
8.0351469112
 20
-59.5927927892
 10
8.0414209046
 20
-59.5469655945
 10
8.0447597394
 20
-59.4989971613
 10
8.0452251141
 20
-59.4494962951
 10
8.0426929849
 20
-59.4006039858
 10
8.0370909107
 20
-59.3528240704
 10
8.0284913326
 20
-59.3056527119
 10
8.01698753
 20
-59.2597193894
 10
8.0023936879
 20
-59.2149671538
 10
7.9848956212
 20
-59.1714529541
 10
7.9651440545
 20
-59.1299771161
 10
7.9430384161
 20
-59.090502577
 10
7.9186792776
 20
-59.0530663995
 10
7.8930190787
 20
-59.0185800985
 10
7.8663817801
 20
-58.987477645
 10
7.8384434212
 20
-58.9593250679
 10
7.809184559
 20
-58.9337319688
 10
7.7787399025
 20
-58.9107061124
 10
7.7469747427
 20
-58.890239734
 10
7.7134655106
 20
-58.8719191413
 10
7.6781645329
 20
-58.8557363893
 10
7.6411194827
 20
-58.8416994229
 10
7.6020498107
 20
-58.8294183844
 10
7.5608247629
 20
-58.818912788
 10
7.5175750931
 20
-58.8101631195
 10
7.4724125137
 20
-58.8027209784
 10
7.4253344106
 20
-58.7964871679
 10
7.3763433978
 20
-58.7915608849
 10
7.3255590291
 20
-58.7877913203
 10
7.2730211556
 20
-58.7851282041
 10
7.2186899263
 20
-58.7836218063
 10
7.162565341
 20
-58.7832721267
  0
LINE
  5
242
100
AcDbEntity
  8
0
100
AcDbLine
 62
7
  6
CONTINUOUS
 10
-1.9258422588
 20
-60.5893337267
 11
-2.2293820235
 21
-60.6348646914
  0
LINE
  5
243
100
AcDbEntity
  8
0
100
AcDbLine
 62
7
  6
CONTINUOUS
 10
-9.6964602353
 20
-60.5893337267
 11
-10.0
 21
-60.6348646914
  0
LINE
  5
244
100
AcDbEntity
  8
0
100
AcDbLine
 62
7
  6
CONTINUOUS
 10
-2.8819925177
 20
-59.4207056326
 11
-2.578452753
 21
-59.3903516561
  0
LINE
  5
245
100
AcDbEntity
  8
0
100
AcDbLine
 62
7
  6
CONTINUOUS
 10
-6.7673015059
 20
-59.4207056326
 11
-6.4637617412
 21
-59.3903516561
  0
LINE
  5
246
100
AcDbEntity
  8
0
100
AcDbLine
 62
7
  6
CONTINUOUS
 10
11.4906153411
 20
-60.4527408326
 11
11.1718985882
 21
-60.4679178208
  0
LINE
  5
247
100
AcDbEntity
  8
0
100
AcDbLine
 62
7
  6
CONTINUOUS
 10
12.7503053647
 20
-59.4965905738
 11
13.0841991058
 21
-59.4814135855
  0
LWPOLYLINE
  5
248
100
AcDbEntity
  8
0
100
AcDbPolyline
 62
7
  6
CONTINUOUS
 90
43
 70
0
 10
12.2285965388
 20
-61.3330061502
 10
12.304395785
 20
-61.3305006472
 10
12.3766454507
 20
-61.324538378
 10
12.4453455358
 20
-61.3151193429
 10
12.5104781775
 20
-61.3019317223
 10
12.5720612386
 20
-61.2852873357
 10
12.6301483081
 20
-61.2661216413
 10
12.6847973483
 20
-61.2444689542
 10
12.7359503969
 20
-61.2202949594
 10
12.7834871562
 20
-61.1944321695
 10
12.82703033
 20
-61.1672780763
 10
12.8669572145
 20
-61.1384351881
 10
12.9042794001
 20
-61.1075435427
 10
12.9392981595
 20
-61.0744287484
 10
12.9717122201
 20
-61.0392651969
 10
13.0016293544
 20
-61.0022161018
 10
13.0292740775
 20
-60.9629765104
 10
13.0544218744
 20
-60.9218513754
 10
13.076506972
 20
-60.8799187686
 10
13.0953217813
 20
-60.8375378571
 10
13.1110738913
 20
-60.7943494739
 10
13.1238202968
 20
-60.7503541895
 10
13.1335837779
 20
-60.7053353422
 10
13.1403415544
 20
-60.6595095937
 10
13.1440822801
 20
-60.6135274991
 10
13.1447436782
 20
-60.5670993912
 10
13.1423880256
 20
-60.5205149371
 10
13.1371908068
 20
-60.4752936937
 10
13.1290620036
 20
-60.4317712407
 10
13.1180916342
 20
-60.3896119984
 10
13.104725238
 20
-60.349328785
 10
13.0892052658
 20
-60.3112929907
 10
13.0712892668
 20
-60.2751332252
 10
13.0506954281
 20
-60.2402481357
 10
13.0276246666
 20
-60.2066465921
 10
13.0018760654
 20
-60.1743197245
 10
12.972565061
 20
-60.1426395697
 10
12.9393942398
 20
-60.1112013928
 10
12.9026610153
 20
-60.0804099286
 10
12.8623730646
 20
-60.0508514181
 10
12.8185329467
 20
-60.0227212751
 10
12.7711381026
 20
-59.9958240858
 10
12.7201885323
 20
-59.9701598502
  0
LWPOLYLINE
  5
249
100
AcDbEntity
  8
0
100
AcDbPolyline
 62
7
  6
CONTINUOUS
 90
43
 70
0
 10
3.2042169087
 20
-54.0141954389
 10
3.2800161549
 20
-54.0116899359
 10
3.3522658206
 20
-54.0057276667
 10
3.4209659058
 20
-53.9963086316
 10
3.4860985474
 20
-53.983121011
 10
3.5476816085
 20
-53.9664766244
 10
3.605768678
 20
-53.94731093
 10
3.6604177182
 20
-53.9256582429
 10
3.7115707669
 20
-53.9014842481
 10
3.7591075261
 20
-53.8756214582
 10
3.8026506999
 20
-53.848467365
 10
3.8425775844
 20
-53.8196244768
 10
3.87989977
 20
-53.7887328314
 10
3.9149185294
 20
-53.7556180371
 10
3.94733259
 20
-53.7204544856
 10
3.9772497243
 20
-53.6834053905
 10
4.0048944474
 20
-53.6441657991
 10
4.0300422443
 20
-53.6030406641
 10
4.052127342
 20
-53.5611080573
 10
4.0709421512
 20
-53.5187271458
 10
4.0866942613
 20
-53.4755387626
 10
4.0994406667
 20
-53.4315434782
 10
4.1092041478
 20
-53.3865246309
 10
4.1159619243
 20
-53.3406988824
 10
4.11970265
 20
-53.2947167878
 10
4.1203640482
 20
-53.2482886799
 10
4.1180083955
 20
-53.2017042258
 10
4.1128111768
 20
-53.1564829824
 10
4.1046823735
 20
-53.1129605294
 10
4.0937120041
 20
-53.0708012871
 10
4.0803456079
 20
-53.0305180737
 10
4.0648256357
 20
-52.9924822794
 10
4.0469096367
 20
-52.9563225139
 10
4.026315798
 20
-52.9214374244
 10
4.0032450365
 20
-52.8878358808
 10
3.9774964354
 20
-52.8555090132
 10
3.9481854309
 20
-52.8238288584
 10
3.9150146097
 20
-52.7923906815
 10
3.8782813853
 20
-52.7615992173
 10
3.8379934346
 20
-52.7320407068
 10
3.7941533167
 20
-52.7039105638
 10
3.7467584725
 20
-52.6770133745
 10
3.6958089022
 20
-52.6513491389
  0
LWPOLYLINE
  5
24A
100
AcDbEntity
  8
0
100
AcDbPolyline
 62
7
  6
CONTINUOUS
 90
25
 70
0
 10
5.4504111676
 20
-57.6811892887
 10
5.5200109672
 20
-57.6790807689
 10
5.5865845002
 20
-57.6739871098
 10
5.6501317668
 20
-57.6659083114
 10
5.7103668658
 20
-57.654765207
 10
5.7675756983
 20
-57.6406369633
 10
5.8226159677
 20
-57.6237610805
 10
5.8756738488
 20
-57.6041614485
 10
5.9265631668
 20
-57.5818141774
 10
5.9755831011
 20
-57.5568850985
 10
6.0228198857
 20
-57.5294498791
 10
6.0681872866
 20
-57.4994328518
 10
6.1117257808
 20
-57.4667728456
 10
6.1534120081
 20
-57.4315476747
 10
6.1932693287
 20
-57.3936795249
 10
6.2314083003
 20
-57.3528737828
 10
6.2679677323
 20
-57.3091244334
 10
6.3028088152
 20
-57.2624374916
 10
6.3356256787
 20
-57.2125363883
 10
6.3663633627
 20
-57.1594975598
 10
6.3950768272
 20
-57.1032445697
 10
6.4216250815
 20
-57.0432715399
 10
6.4459611289
 20
-56.9794098444
 10
6.4681319662
 20
-56.9118281092
 10
6.4881375934
 20
-56.8405263343
  0
LWPOLYLINE
  5
24B
100
AcDbEntity
  8
0
100
AcDbPolyline
 62
7
  6
CONTINUOUS
 90
43
 70
0
 10
12.1437001234
 20
-58.737741162
 10
12.0739040453
 20
-58.7398345246
 10
12.007218025
 20
-58.7446841024
 10
11.9436420624
 20
-58.7522898954
 10
11.8831851245
 20
-58.76286945
 10
11.8258382444
 20
-58.7762052199
 10
11.7715745213
 20
-58.7916445657
 10
11.7203789585
 20
-58.8091309572
 10
11.6722665527
 20
-58.8287209246
 10
11.6272553934
 20
-58.8499314188
 10
11.5855051968
 20
-58.8725682524
 10
11.5468562465
 20
-58.8968256129
 10
11.5108474833
 20
-58.922803013
 10
11.4774687767
 20
-58.950485183
 10
11.4467302571
 20
-58.9798873927
 10
11.4182012559
 20
-59.0111549641
 10
11.3916944169
 20
-59.0443873814
 10
11.3673970963
 20
-59.0794851604
 10
11.3454406935
 20
-59.116295171
 10
11.3257376533
 20
-59.1550505683
 10
11.308375531
 20
-59.1955181971
 10
11.2937483917
 20
-59.2368454619
 10
11.2819344436
 20
-59.2791421597
 10
11.2728554785
 20
-59.3222984935
 10
11.2666709375
 20
-59.3651324764
 10
11.2635028922
 20
-59.4074706697
 10
11.2632292709
 20
-59.4494865122
 10
11.2656433003
 20
-59.4905183331
 10
11.2707708403
 20
-59.5304436711
 10
11.2785860308
 20
-59.5693849875
 10
11.2888045191
 20
-59.6070479949
 10
11.3012776763
 20
-59.6432514003
 10
11.3161541313
 20
-59.6781764968
 10
11.3335954177
 20
-59.7120728767
 10
11.3534398982
 20
-59.744897012
 10
11.3758492102
 20
-59.7766924307
 10
11.4014697999
 20
-59.8078393092
 10
11.4304657328
 20
-59.8386079279
 10
11.4626729433
 20
-59.8687280064
 10
11.4982456818
 20
-59.8977688798
 10
11.5372353648
 20
-59.9255869931
 10
11.5795905756
 20
-59.9523259012
 10
11.6253113144
 20
-59.9779856042
  0
LINE
  5
24C
100
AcDbEntity
  8
0
100
AcDbLine
 62
7
  6
CONTINUOUS
 10
0.775661647
 20
-61.2874751855
 11
1.1095553882
 21
-61.2874751855
  0
LINE
  5
24D
100
AcDbEntity
  8
0
100
AcDbLine
 62
7
  6
CONTINUOUS
 10
1.8316481655
 20
-61.2874751855
 11
2.1157423489
 21
-61.2874751855
  0
LINE
  5
24E
100
AcDbEntity
  8
0
100
AcDbLine
 62
7
  6
CONTINUOUS
 10
2.8549090353
 20
-61.2874751855
 11
3.1888027764
 21
-61.2874751855
  0
LINE
  5
24F
100
AcDbEntity
  8
0
100
AcDbLine
 62
7
  6
CONTINUOUS
 10
3.4434917912
 20
-61.2874751855
 11
3.7958823059
 21
-61.2874751855
  0
LINE
  5
250
100
AcDbEntity
  8
0
100
AcDbLine
 62
7
  6
CONTINUOUS
 10
5.4046430588
 20
-61.2874751855
 11
5.7596423897
 21
-61.2874751855
  0
LINE
  5
251
100
AcDbEntity
  8
0
100
AcDbLine
 62
7
  6
CONTINUOUS
 10
6.0572535529
 20
-61.2874751855
 11
6.3911472941
 21
-61.2874751855
  0
LINE
  5
252
100
AcDbEntity
  8
0
100
AcDbLine
 62
7
  6
CONTINUOUS
 10
7.8358069052
 20
-61.2874751855
 11
8.2280371587
 21
-61.2874751855
  0
LINE
  5
253
100
AcDbEntity
  8
0
100
AcDbLine
 62
7
  6
CONTINUOUS
 10
14.2376502117
 20
-61.2874751855
 11
14.5715439529
 21
-61.2874751855
  0
LINE
  5
254
100
AcDbEntity
  8
0
100
AcDbLine
 62
7
  6
CONTINUOUS
 10
15.7705260235
 20
-61.2874751855
 11
16.1044197647
 21
-61.2874751855
  0
LINE
  5
255
100
AcDbEntity
  8
0
100
AcDbLine
 62
7
  6
CONTINUOUS
 10
18.9391967794
 20
-61.2874751855
 11
19.2915872941
 21
-61.2874751855
  0
LINE
  5
256
100
AcDbEntity
  8
0
100
AcDbLine
 62
7
  6
CONTINUOUS
 10
20.900348047
 20
-61.2874751855
 11
21.2553473779
 21
-61.2874751855
  0
LINE
  5
257
100
AcDbEntity
  8
0
100
AcDbLine
 62
7
  6
CONTINUOUS
 10
23.2383156674
 20
-61.2874751855
 11
23.5975835914
 21
-61.2874751855
  0
LINE
  5
258
100
AcDbEntity
  8
0
100
AcDbLine
 62
7
  6
CONTINUOUS
 10
24.8767189646
 20
-61.2874751855
 11
25.2106127058
 21
-61.2874751855
  0
LINE
  5
259
100
AcDbEntity
  8
0
100
AcDbLine
 62
7
  6
CONTINUOUS
 10
4.0598197074
 20
-60.5286257738
 11
5.1252917566
 21
-60.5286257738
  0
LINE
  5
25A
100
AcDbEntity
  8
0
100
AcDbLine
 62
7
  6
CONTINUOUS
 10
19.5555246956
 20
-60.5286257738
 11
20.6209967448
 21
-60.5286257738
  0
LINE
  5
25B
100
AcDbEntity
  8
0
100
AcDbLine
 62
7
  6
CONTINUOUS
 10
20.5202121405
 20
-60.2554399855
 11
19.650618074
 21
-60.2554399855
  0
LINE
  5
25C
100
AcDbEntity
  8
0
100
AcDbLine
 62
7
  6
CONTINUOUS
 10
5.0245071523
 20
-60.2554399855
 11
4.1549130858
 21
-60.2554399855
  0
LINE
  5
25D
100
AcDbEntity
  8
0
100
AcDbLine
 62
7
  6
CONTINUOUS
 10
7.0964030747
 20
-59.8911922679
 11
6.3911472941
 21
-59.8911922679
  0
LINE
  5
25E
100
AcDbEntity
  8
0
100
AcDbLine
 62
7
  6
CONTINUOUS
 10
6.3911472941
 20
-59.0716349032
 11
7.1760823208
 21
-59.0716349032
  0
LINE
  5
25F
100
AcDbEntity
  8
0
100
AcDbLine
 62
7
  6
CONTINUOUS
 10
13.418092847
 20
-59.0716349032
 11
14.2376502117
 21
-59.0716349032
  0
LINE
  5
260
100
AcDbEntity
  8
0
100
AcDbLine
 62
7
  6
CONTINUOUS
 10
14.5715439529
 20
-59.0716349032
 11
15.3911013176
 21
-59.0716349032
  0
LINE
  5
261
100
AcDbEntity
  8
0
100
AcDbLine
 62
7
  6
CONTINUOUS
 10
25.2106127058
 20
-58.7832721267
 11
24.8767189646
 21
-58.7832721267
  0
LINE
  5
262
100
AcDbEntity
  8
0
100
AcDbLine
 62
7
  6
CONTINUOUS
 10
24.5964190862
 20
-58.7832721267
 11
24.2392854588
 21
-58.7832721267
  0
LINE
  5
263
100
AcDbEntity
  8
0
100
AcDbLine
 62
7
  6
CONTINUOUS
 10
22.6305247058
 20
-58.7832721267
 11
22.2755256065
 21
-58.7832721267
  0
LINE
  5
264
100
AcDbEntity
  8
0
100
AcDbLine
 62
7
  6
CONTINUOUS
 10
20.25224329
 20
-58.7832721267
 11
19.8910784452
 21
-58.7832721267
  0
LINE
  5
265
100
AcDbEntity
  8
0
100
AcDbLine
 62
7
  6
CONTINUOUS
 10
16.1044197647
 20
-58.7832721267
 11
15.7705260235
 21
-58.7832721267
  0
LINE
  5
266
100
AcDbEntity
  8
0
100
AcDbLine
 62
7
  6
CONTINUOUS
 10
15.3911013176
 20
-58.7832721267
 11
13.418092847
 21
-58.7832721267
  0
LINE
  5
267
100
AcDbEntity
  8
0
100
AcDbLine
 62
7
  6
CONTINUOUS
 10
7.162565341
 20
-58.7832721267
 11
6.0572535529
 21
-58.7832721267
  0
LINE
  5
268
100
AcDbEntity
  8
0
100
AcDbLine
 62
7
  6
CONTINUOUS
 10
4.7565383018
 20
-58.7832721267
 11
4.3953734569
 21
-58.7832721267
  0
LINE
  5
269
100
AcDbEntity
  8
0
100
AcDbLine
 62
7
  6
CONTINUOUS
 10
3.1888027764
 20
-58.7832721267
 11
2.7543615751
 21
-58.7832721267
  0
LINE
  5
26A
100
AcDbEntity
  8
0
100
AcDbLine
 62
7
  6
CONTINUOUS
 10
1.2845651568
 20
-58.7832721267
 11
0.775661647
 21
-58.7832721267
  0
LINE
  5
26B
100
AcDbEntity
  8
0
100
AcDbLine
 62
7
  6
CONTINUOUS
 10
-9.0372099391
 20
-57.635658324
 11
-8.6779420151
 21
-57.635658324
  0
LINE
  5
26C
100
AcDbEntity
  8
0
100
AcDbLine
 62
7
  6
CONTINUOUS
 10
-7.3988066419
 20
-57.635658324
 11
-7.0649129007
 21
-57.635658324
  0
LINE
  5
26D
100
AcDbEntity
  8
0
100
AcDbLine
 62
7
  6
CONTINUOUS
 10
-6.749515933
 20
-57.635658324
 11
-6.3971254183
 21
-57.635658324
  0
LINE
  5
26E
100
AcDbEntity
  8
0
100
AcDbLine
 62
7
  6
CONTINUOUS
 10
-4.7883646654
 20
-57.635658324
 11
-4.4333653345
 21
-57.635658324
  0
LINE
  5
26F
100
AcDbEntity
  8
0
100
AcDbLine
 62
7
  6
CONTINUOUS
 10
-4.1661081478
 20
-57.635658324
 11
-2.5877013713
 21
-57.635658324
  0
LINE
  5
270
100
AcDbEntity
  8
0
100
AcDbLine
 62
7
  6
CONTINUOUS
 10
-2.1930996772
 20
-57.635658324
 11
-0.3415071125
 21
-57.635658324
  0
LINE
  5
271
100
AcDbEntity
  8
0
100
AcDbLine
 62
7
  6
CONTINUOUS
 10
1.8143366491
 20
-57.635658324
 11
2.1736045731
 21
-57.635658324
  0
LINE
  5
272
100
AcDbEntity
  8
0
100
AcDbLine
 62
7
  6
CONTINUOUS
 10
3.4527399464
 20
-57.635658324
 11
3.7866336875
 21
-57.635658324
  0
LINE
  5
273
100
AcDbEntity
  8
0
100
AcDbLine
 62
7
  6
CONTINUOUS
 10
6.913093264
 20
-57.635658324
 11
8.7646858287
 21
-57.635658324
  0
LINE
  5
274
100
AcDbEntity
  8
0
100
AcDbLine
 62
7
  6
CONTINUOUS
 10
9.235172464
 20
-57.635658324
 11
9.5690662052
 21
-57.635658324
  0
LINE
  5
275
100
AcDbEntity
  8
0
100
AcDbLine
 62
7
  6
CONTINUOUS
 10
10.8228278588
 20
-57.635658324
 11
11.1778269581
 21
-57.635658324
  0
LINE
  5
276
100
AcDbEntity
  8
0
100
AcDbLine
 62
7
  6
CONTINUOUS
 10
11.5268976875
 20
-57.635658324
 11
13.5150831463
 21
-57.635658324
  0
LINE
  5
277
100
AcDbEntity
  8
0
100
AcDbLine
 62
7
  6
CONTINUOUS
 10
13.5876483023
 20
-57.635658324
 11
13.9400388169
 21
-57.635658324
  0
LINE
  5
278
100
AcDbEntity
  8
0
100
AcDbLine
 62
7
  6
CONTINUOUS
 10
15.5487995699
 20
-57.635658324
 11
15.9037989008
 21
-57.635658324
  0
LINE
  5
279
100
AcDbEntity
  8
0
100
AcDbLine
 62
7
  6
CONTINUOUS
 10
17.8860557581
 20
-57.635658324
 11
18.1895955228
 21
-57.635658324
  0
LINE
  5
27A
100
AcDbEntity
  8
0
100
AcDbLine
 62
7
  6
CONTINUOUS
 10
19.9804801346
 20
-57.635658324
 11
20.2840198993
 21
-57.635658324
  0
LINE
  5
27B
100
AcDbEntity
  8
0
100
AcDbLine
 62
7
  6
CONTINUOUS
 10
13.5150831463
 20
-57.3472955475
 11
11.9051369047
 21
-57.3472955475
  0
LINE
  5
27C
100
AcDbEntity
  8
0
100
AcDbLine
 62
7
  6
CONTINUOUS
 10
8.7646858287
 20
-57.3472955475
 11
7.2469870052
 21
-57.3472955475
  0
LINE
  5
27D
100
AcDbEntity
  8
0
100
AcDbLine
 62
7
  6
CONTINUOUS
 10
-0.3415071125
 20
-57.3472955475
 11
-1.859205936
 21
-57.3472955475
  0
LINE
  5
27E
100
AcDbEntity
  8
0
100
AcDbLine
 62
7
  6
CONTINUOUS
 10
-2.5877013713
 20
-57.3472955475
 11
-3.8322144066
 21
-57.3472955475
  0
LINE
  5
27F
100
AcDbEntity
  8
0
100
AcDbLine
 62
7
  6
CONTINUOUS
 10
18.8725599934
 20
-57.0437557828
 11
19.9804801346
 21
-57.0437557828
  0
LINE
  5
280
100
AcDbEntity
  8
0
100
AcDbLine
 62
7
  6
CONTINUOUS
 10
20.2840198993
 20
-57.0437557828
 11
20.6179136404
 21
-57.0437557828
  0
LINE
  5
281
100
AcDbEntity
  8
0
100
AcDbLine
 62
7
  6
CONTINUOUS
 10
-6.1331880168
 20
-56.8768089122
 11
-5.0677159676
 21
-56.8768089122
  0
LINE
  5
282
100
AcDbEntity
  8
0
100
AcDbLine
 62
7
  6
CONTINUOUS
 10
14.2039762184
 20
-56.8768089122
 11
15.2694482677
 21
-56.8768089122
  0
LINE
  5
283
100
AcDbEntity
  8
0
100
AcDbLine
 62
7
  6
CONTINUOUS
 10
20.6179136404
 20
-56.7553930063
 11
20.2840198993
 21
-56.7553930063
  0
LINE
  5
284
100
AcDbEntity
  8
0
100
AcDbLine
 62
7
  6
CONTINUOUS
 10
19.9804801346
 20
-56.7553930063
 11
19.1765740462
 21
-56.7553930063
  0
LINE
  5
285
100
AcDbEntity
  8
0
100
AcDbLine
 62
7
  6
CONTINUOUS
 10
15.1686636634
 20
-56.603623124
 11
14.2990695968
 21
-56.603623124
  0
LINE
  5
286
100
AcDbEntity
  8
0
100
AcDbLine
 62
7
  6
CONTINUOUS
 10
-5.1685005719
 20
-56.603623124
 11
-6.0380946384
 21
-56.603623124
  0
LINE
  5
287
100
AcDbEntity
  8
0
100
AcDbLine
 62
7
  6
CONTINUOUS
 10
-1.859205936
 20
-56.4822072181
 11
-0.4932769948
 21
-56.4822072181
  0
LINE
  5
288
100
AcDbEntity
  8
0
100
AcDbLine
 62
7
  6
CONTINUOUS
 10
7.2469870052
 20
-56.4822072181
 11
8.6129159463
 21
-56.4822072181
  0
LINE
  5
289
100
AcDbEntity
  8
0
100
AcDbLine
 62
7
  6
CONTINUOUS
 10
8.6129159463
 20
-56.1938444416
 11
7.2469870052
 21
-56.1938444416
  0
LINE
  5
28A
100
AcDbEntity
  8
0
100
AcDbLine
 62
7
  6
CONTINUOUS
 10
-0.4932769948
 20
-56.1938444416
 11
-1.859205936
 21
-56.1938444416
  0
LINE
  5
28B
100
AcDbEntity
  8
0
100
AcDbLine
 62
7
  6
CONTINUOUS
 10
-1.859205936
 20
-55.4198180416
 11
-0.4022150654
 21
-55.4198180416
  0
LINE
  5
28C
100
AcDbEntity
  8
0
100
AcDbLine
 62
7
  6
CONTINUOUS
 10
7.2469870052
 20
-55.4198180416
 11
8.7039778758
 21
-55.4198180416
  0
LINE
  5
28D
100
AcDbEntity
  8
0
100
AcDbLine
 62
7
  6
CONTINUOUS
 10
11.6786675699
 20
-55.4198180416
 11
13.066413533
 21
-55.4198180416
  0
LINE
  5
28E
100
AcDbEntity
  8
0
100
AcDbLine
 62
7
  6
CONTINUOUS
 10
20.2840198993
 20
-55.1314552652
 11
20.0411880875
 21
-55.1314552652
  0
LINE
  5
28F
100
AcDbEntity
  8
0
100
AcDbLine
 62
7
  6
CONTINUOUS
 10
14.9006948129
 20
-55.1314552652
 11
14.539529968
 21
-55.1314552652
  0
LINE
  5
290
100
AcDbEntity
  8
0
100
AcDbLine
 62
7
  6
CONTINUOUS
 10
13.4543751934
 20
-55.1314552652
 11
11.6786675699
 21
-55.1314552652
  0
LINE
  5
291
100
AcDbEntity
  8
0
100
AcDbLine
 62
7
  6
CONTINUOUS
 10
11.1778269581
 20
-55.1314552652
 11
10.8439332169
 21
-55.1314552652
  0
LINE
  5
292
100
AcDbEntity
  8
0
100
AcDbLine
 62
7
  6
CONTINUOUS
 10
9.5901717949
 20
-55.1314552652
 11
9.235172464
 21
-55.1314552652
  0
LINE
  5
293
100
AcDbEntity
  8
0
100
AcDbLine
 62
7
  6
CONTINUOUS
 10
8.7039778758
 20
-55.1314552652
 11
6.913093264
 21
-55.1314552652
  0
LINE
  5
294
100
AcDbEntity
  8
0
100
AcDbLine
 62
7
  6
CONTINUOUS
 10
3.7866336875
 20
-55.1314552652
 11
3.4527399464
 21
-55.1314552652
  0
LINE
  5
295
100
AcDbEntity
  8
0
100
AcDbLine
 62
7
  6
CONTINUOUS
 10
3.1724400679
 20
-55.1314552652
 11
2.8153064405
 21
-55.1314552652
  0
LINE
  5
296
100
AcDbEntity
  8
0
100
AcDbLine
 62
7
  6
CONTINUOUS
 10
1.2065456875
 20
-55.1314552652
 11
0.8515465882
 21
-55.1314552652
  0
LINE
  5
297
100
AcDbEntity
  8
0
100
AcDbLine
 62
7
  6
CONTINUOUS
 10
-0.4022150654
 20
-55.1314552652
 11
-2.1930996772
 21
-55.1314552652
  0
LINE
  5
298
100
AcDbEntity
  8
0
100
AcDbLine
 62
7
  6
CONTINUOUS
 10
-3.8322144066
 20
-55.1314552652
 11
-4.1661081478
 21
-55.1314552652
  0
LINE
  5
299
100
AcDbEntity
  8
0
100
AcDbLine
 62
7
  6
CONTINUOUS
 10
-5.4364694224
 20
-55.1314552652
 11
-5.7976342672
 21
-55.1314552652
  0
LINE
  5
29A
100
AcDbEntity
  8
0
100
AcDbLine
 62
7
  6
CONTINUOUS
 10
-7.0649129007
 20
-55.1314552652
 11
-7.3988066419
 21
-55.1314552652
  0
LINE
  5
29B
100
AcDbEntity
  8
0
100
AcDbLine
 62
7
  6
CONTINUOUS
 10
-7.6791065203
 20
-55.1314552652
 11
-8.0362401477
 21
-55.1314552652
  0
LINE
  5
29C
100
AcDbEntity
  8
0
100
AcDbLine
 62
7
  6
CONTINUOUS
 10
-9.6450009007
 20
-55.1314552652
 11
-10.0
 21
-55.1314552652
  0
LINE
  5
29D
100
AcDbEntity
  8
0
100
AcDbLine
 62
7
  6
CONTINUOUS
 10
18.1895955228
 20
-55.1162782769
 11
17.9939546842
 21
-55.1162782769
  0
LINE
  5
29E
100
AcDbEntity
  8
0
100
AcDbLine
 62
7
  6
CONTINUOUS
 10
-9.0372099391
 20
-53.9686644742
 11
-8.6779420151
 21
-53.9686644742
  0
LINE
  5
29F
100
AcDbEntity
  8
0
100
AcDbLine
 62
7
  6
CONTINUOUS
 10
-7.3988066419
 20
-53.9686644742
 11
-7.0649129007
 21
-53.9686644742
  0
LINE
  5
2A0
100
AcDbEntity
  8
0
100
AcDbLine
 62
7
  6
CONTINUOUS
 10
-6.503364336
 20
-53.9686644742
 11
-6.1694705948
 21
-53.9686644742
  0
LINE
  5
2A1
100
AcDbEntity
  8
0
100
AcDbLine
 62
7
  6
CONTINUOUS
 10
-5.4473778175
 20
-53.9686644742
 11
-5.1632836341
 21
-53.9686644742
  0
LINE
  5
2A2
100
AcDbEntity
  8
0
100
AcDbLine
 62
7
  6
CONTINUOUS
 10
-4.4241169477
 20
-53.9686644742
 11
-4.0902232066
 21
-53.9686644742
  0
LINE
  5
2A3
100
AcDbEntity
  8
0
100
AcDbLine
 62
7
  6
CONTINUOUS
 10
-3.8355341918
 20
-53.9686644742
 11
-3.4831436772
 21
-53.9686644742
  0
LINE
  5
2A4
100
AcDbEntity
  8
0
100
AcDbLine
 62
7
  6
CONTINUOUS
 10
-1.8743829242
 20
-53.9686644742
 11
-1.5193835933
 21
-53.9686644742
  0
LINE
  5
2A5
100
AcDbEntity
  8
0
100
AcDbLine
 62
7
  6
CONTINUOUS
 10
-1.2217724301
 20
-53.9686644742
 11
-0.8878786889
 21
-53.9686644742
  0
LINE
  5
2A6
100
AcDbEntity
  8
0
100
AcDbLine
 62
7
  6
CONTINUOUS
 10
0.5567809221
 20
-53.9686644742
 11
0.9490111757
 21
-53.9686644742
  0
LINE
  5
2A7
100
AcDbEntity
  8
0
100
AcDbLine
 62
7
  6
CONTINUOUS
 10
4.591014064
 20
-53.9686644742
 11
4.9249078052
 21
-53.9686644742
  0
LINE
  5
2A8
100
AcDbEntity
  8
0
100
AcDbLine
 62
7
  6
CONTINUOUS
 10
6.6214107023
 20
-53.9686644742
 11
6.9738012169
 21
-53.9686644742
  0
LINE
  5
2A9
100
AcDbEntity
  8
0
100
AcDbLine
 62
7
  6
CONTINUOUS
 10
8.5825619699
 20
-53.9686644742
 11
8.9375613008
 21
-53.9686644742
  0
LWPOLYLINE
  5
2AA
100
AcDbEntity
  8
0
100
AcDbPolyline
 62
7
  6
CONTINUOUS
 90
10
 70
0
 10
6.3911472941
 20
-60.1795550444
 10
6.7938012894
 20
-60.1796179822
 10
6.8154335219
 20
-60.17990507
 10
6.836654418
 20
-60.1804163078
 10
6.8575004907
 20
-60.1810411774
 10
6.8779352269
 20
-60.1818901969
 10
6.8978490867
 20
-60.1832949207
 10
6.9172055566
 20
-60.1853658668
 10
6.9360411502
 20
-60.1879925171
 10
6.9543558672
 20
-60.1911748717
  0
LWPOLYLINE
  5
2AB
100
AcDbEntity
  8
0
100
AcDbPolyline
 62
7
  6
CONTINUOUS
 90
49
 70
0
 10
7.1760823208
 20
-59.0716349032
 10
7.2211242807
 20
-59.0720991199
 10
7.2643718574
 20
-59.0743171199
 10
7.3058250509
 20
-59.078288903
 10
7.3455677022
 20
-59.0840121068
 10
7.3835159703
 20
-59.0914890939
 10
7.4194183321
 20
-59.1007269513
 10
7.4533056764
 20
-59.1118589438
 10
7.4851471144
 20
-59.1247518067
 10
7.5145984578
 20
-59.1390128329
 10
7.5413942671
 20
-59.1545163455
 10
7.5657999818
 20
-59.1713880213
 10
7.588267731
 20
-59.1896121846
 10
7.6088917436
 20
-59.2092066278
 10
7.6275777908
 20
-59.2301535585
 10
7.6444953157
 20
-59.2523839233
 10
7.659773442
 20
-59.2759196553
 10
7.673283046
 20
-59.3007388214
 10
7.6848061999
 20
-59.326706569
 10
7.6943258119
 20
-59.3538395812
 10
7.7018589738
 20
-59.382121175
 10
7.7072390327
 20
-59.4113664493
 10
7.7104467163
 20
-59.4419292352
 10
7.7115012969
 20
-59.4734557016
 10
7.7102939385
 20
-59.504699454
 10
7.7067454713
 20
-59.5354784146
 10
7.7009350652
 20
-59.5659746613
 10
7.6929913938
 20
-59.595488033
 10
7.6828537516
 20
-59.6238981415
 10
7.6705828442
 20
-59.651325375
 10
7.6564894625
 20
-59.677430737
 10
7.640608576
 20
-59.7022051148
 10
7.6229052152
 20
-59.725657621
 10
7.603585262
 20
-59.7474765974
 10
7.5828327586
 20
-59.7675290288
 10
7.5604636628
 20
-59.7859479302
 10
7.53613173
 20
-59.8028206882
 10
7.5097403228
 20
-59.8181781597
 10
7.4813860785
 20
-59.8319894877
 10
7.4510126652
 20
-59.8442494875
 10
7.4185016377
 20
-59.8549066608
 10
7.3839714411
 20
-59.8640125059
 10
7.3477210782
 20
-59.8717163335
 10
7.3097868956
 20
-59.8779791469
 10
7.2701325466
 20
-59.8828399429
 10
7.2289479937
 20
-59.8865650228
 10
7.1862965579
 20
-59.8892431539
 10
7.1421149182
 20
-59.8907855689
 10
7.0964030747
 20
-59.8911922679
  0
LWPOLYLINE
  5
2AC
100
AcDbEntity
  8
0
100
AcDbPolyline
 62
7
  6
CONTINUOUS
 90
10
 70
0
 10
-9.3047040383
 20
-59.8340412443
 10
-9.310070025
 20
-59.8339704005
 10
-9.31548684
 20
-59.8338105174
 10
-9.3209544833
 20
-59.8335615949
 10
-9.3264761771
 20
-59.8332130375
 10
-9.3320486992
 20
-59.8327754408
 10
-9.3376623832
 20
-59.8322805915
 10
-9.3433140069
 20
-59.8317390852
 10
-9.3490067926
 20
-59.8311403264
 10
-9.3547407401
 20
-59.8304843149
  0
LWPOLYLINE
  5
2AD
100
AcDbEntity
  8
0
100
AcDbPolyline
 62
7
  6
CONTINUOUS
 90
10
 70
0
 10
-1.5340860619
 20
-59.8340412443
 10
-1.5394520485
 20
-59.8339704005
 10
-1.5448688635
 20
-59.8338105174
 10
-1.5503365068
 20
-59.8335615949
 10
-1.5558582006
 20
-59.8332130375
 10
-1.5614307227
 20
-59.8327754408
 10
-1.5670444067
 20
-59.8322805915
 10
-1.5726960305
 20
-59.8317390852
 10
-1.5783888161
 20
-59.8311403264
 10
-1.5841227637
 20
-59.8304843149
  0
LWPOLYLINE
  5
2AE
100
AcDbEntity
  8
0
100
AcDbPolyline
 62
7
  6
CONTINUOUS
 90
25
 70
0
 10
12.1569801907
 20
-59.0261039385
 10
12.2007740271
 20
-59.0267943538
 10
12.2430766901
 20
-59.0290592712
 10
12.2838881798
 20
-59.0328986909
 10
12.3234145764
 20
-59.0383507626
 10
12.3614497997
 20
-59.0453773364
 10
12.3973756085
 20
-59.0538639631
 10
12.4309960155
 20
-59.0638399875
 10
12.4625070079
 20
-59.0752760648
 10
12.4918783069
 20
-59.0879697108
 10
12.5188614554
 20
-59.1017205593
 10
12.5437049104
 20
-59.1167289765
 10
12.567123764
 20
-59.1333935772
 10
12.5891980706
 20
-59.1516343732
 10
12.6098477758
 20
-59.1715313527
 10
12.6295478082
 20
-59.193723095
 10
12.6485529493
 20
-59.2183389715
 10
12.6666084177
 20
-59.2452496109
 10
12.6834247973
 20
-59.2747054787
 10
12.6991803578
 20
-59.3071160203
 10
12.7136968296
 20
-59.3420717902
 10
12.7261499886
 20
-59.3785949177
 10
12.7362650934
 20
-59.4163594456
 10
12.7443168854
 20
-59.4556913309
 10
12.7503053647
 20
-59.4965905738
  0
LWPOLYLINE
  5
2AF
100
AcDbEntity
  8
0
100
AcDbPolyline
 62
7
  6
CONTINUOUS
 90
22
 70
0
 10
17.7487516634
 20
-59.0261039385
 10
17.7993458976
 20
-59.0279785421
 10
17.8479068617
 20
-59.0323211342
 10
17.8944345557
 20
-59.0391317149
 10
17.9391470265
 20
-59.0486427355
 10
17.9818262272
 20
-59.0606217447
 10
18.0218180171
 20
-59.0743713879
 10
18.0586346868
 20
-59.0896117603
 10
18.0927639457
 20
-59.1066227667
 10
18.1250147807
 20
-59.1255467661
 10
18.1553854375
 20
-59.1461945406
 10
18.1838776704
 20
-59.1687553081
 10
18.2113057287
 20
-59.1939390808
 10
18.2379140686
 20
-59.2218562767
 10
18.2634582338
 20
-59.252396478
 10
18.2880191046
 20
-59.2859384428
 10
18.3117560461
 20
-59.3227259062
 10
18.3345096932
 20
-59.3625151333
 10
18.3558828313
 20
-59.4049536773
 10
18.3757430554
 20
-59.449924056
 10
18.3942227704
 20
-59.4975437517
 10
18.4113219764
 20
-59.5478127643
  0
LWPOLYLINE
  5
2B0
100
AcDbEntity
  8
0
100
AcDbPolyline
 62
7
  6
CONTINUOUS
 90
22
 70
0
 10
5.4309655863
 20
-55.3742870769
 10
5.4815598204
 20
-55.3761616806
 10
5.5301207845
 20
-55.3805042727
 10
5.5766484785
 20
-55.3873148533
 10
5.6213609494
 20
-55.396825874
 10
5.6640401501
 20
-55.4088048832
 10
5.7040319399
 20
-55.4225545263
 10
5.7408486097
 20
-55.4377948988
 10
5.7749778686
 20
-55.4548059052
 10
5.8072287035
 20
-55.4737299046
 10
5.8375993604
 20
-55.4943776791
 10
5.8660915933
 20
-55.5169384465
 10
5.8935196515
 20
-55.5421222192
 10
5.9201279914
 20
-55.5700394152
 10
5.9456721566
 20
-55.6005796164
 10
5.9702330275
 20
-55.6341215813
 10
5.993969969
 20
-55.6709090447
 10
6.0167236161
 20
-55.7106982718
 10
6.0380967542
 20
-55.7531368158
 10
6.0579569783
 20
-55.7981071945
 10
6.0764366933
 20
-55.8457268902
 10
6.0935358993
 20
-55.8959959028
  0
LWPOLYLINE
  5
2B1
100
AcDbEntity
  8
0
100
AcDbPolyline
 62
7
  6
CONTINUOUS
 90
44
 70
0
 10
-9.167162568
 20
-60.0695218217
 10
-9.1229853437
 20
-60.0712877051
 10
-9.0810144195
 20
-60.0755396025
 10
-9.0412497953
 20
-60.082277514
 10
-9.0038836454
 20
-60.0915432177
 10
-8.9687237955
 20
-60.1032949355
 10
-8.9351937228
 20
-60.1174073331
 10
-8.9030803859
 20
-60.1339502697
 10
-8.8725968261
 20
-60.1528538862
 10
-8.8438056449
 20
-60.1737832704
 10
-8.8165269502
 20
-60.1968702409
 10
-8.790940634
 20
-60.2219829791
 10
-8.7676489737
 20
-60.2483911172
 10
-8.7468450649
 20
-60.2758282197
 10
-8.7283358121
 20
-60.304560722
 10
-8.7121442056
 20
-60.3346575635
 10
-8.698250312
 20
-60.3659681054
 10
-8.6866740648
 20
-60.3986429864
 10
-8.677498255
 20
-60.4332030612
 10
-8.6706615895
 20
-60.4702708589
 10
-8.6662253614
 20
-60.5092238504
 10
-8.6644562405
 20
-60.5487153033
 10
-8.6654654429
 20
-60.5889621819
 10
-8.6691417526
 20
-60.629747522
 10
-8.6754181912
 20
-60.6690736982
 10
-8.684287644
 20
-60.7062189034
 10
-8.6957572257
 20
-60.7419049447
 10
-8.7097813019
 20
-60.7762996177
 10
-8.7263675692
 20
-60.8094715489
 10
-8.7455083309
 20
-60.8413521119
 10
-8.7671348621
 20
-60.8719032224
 10
-8.7915701508
 20
-60.901466867
 10
-8.8184912091
 20
-60.9297010592
 10
-8.8468603478
 20
-60.9555417552
 10
-8.8763586648
 20
-60.9786695579
 10
-8.9073050623
 20
-60.9994038644
 10
-8.939618557
 20
-61.017638823
 10
-8.9731241854
 20
-61.0333345832
 10
-9.0079969111
 20
-61.0465309954
 10
-9.0446806415
 20
-61.0572417593
 10
-9.0839917913
 20
-61.0655185454
 10
-9.1251139459
 20
-61.0713096831
 10
-9.1660417682
 20
-61.0744738606
 10
-9.2066953032
 20
-61.0748723479
  0
LWPOLYLINE
  5
2B2
100
AcDbEntity
  8
0
100
AcDbPolyline
 62
7
  6
CONTINUOUS
 90
44
 70
0
 10
-1.3965445915
 20
-60.0695218217
 10
-1.3523673672
 20
-60.0712877051
 10
-1.310396443
 20
-60.0755396025
 10
-1.2706318188
 20
-60.082277514
 10
-1.2332656689
 20
-60.0915432177
 10
-1.198105819
 20
-60.1032949355
 10
-1.1645757464
 20
-60.1174073331
 10
-1.1324624094
 20
-60.1339502697
 10
-1.1019788497
 20
-60.1528538862
 10
-1.0731876684
 20
-60.1737832704
 10
-1.0459089737
 20
-60.1968702409
 10
-1.0203226575
 20
-60.2219829791
 10
-0.9970309972
 20
-60.2483911172
 10
-0.9762270885
 20
-60.2758282197
 10
-0.9577178356
 20
-60.304560722
 10
-0.9415262292
 20
-60.3346575635
 10
-0.9276323356
 20
-60.3659681054
 10
-0.9160560884
 20
-60.3986429864
 10
-0.9068802785
 20
-60.4332030612
 10
-0.900043613
 20
-60.4702708589
 10
-0.8956073849
 20
-60.5092238504
 10
-0.893838264
 20
-60.5487153033
 10
-0.8948474665
 20
-60.5889621819
 10
-0.8985237761
 20
-60.629747522
 10
-0.9048002147
 20
-60.6690736982
 10
-0.9136696675
 20
-60.7062189034
 10
-0.9251392493
 20
-60.7419049447
 10
-0.9391633254
 20
-60.7762996177
 10
-0.9557495927
 20
-60.8094715489
 10
-0.9748903544
 20
-60.8413521119
 10
-0.9965168856
 20
-60.8719032224
 10
-1.0209521744
 20
-60.901466867
 10
-1.0478732327
 20
-60.9297010592
 10
-1.0762423713
 20
-60.9555417552
 10
-1.1057406884
 20
-60.9786695579
 10
-1.1366870858
 20
-60.9994038644
 10
-1.1690005805
 20
-61.017638823
 10
-1.202506209
 20
-61.0333345832
 10
-1.2373789347
 20
-61.0465309954
 10
-1.274062665
 20
-61.0572417593
 10
-1.3133738149
 20
-61.0655185454
 10
-1.3544959694
 20
-61.0713096831
 10
-1.3954237918
 20
-61.0744738606
 10
-1.4360773268
 20
-61.0748723479
  0
LWPOLYLINE
  5
2B3
100
AcDbEntity
  8
0
100
AcDbPolyline
 62
7
  6
CONTINUOUS
 90
21
 70
0
 10
-9.2066953032
 20
-61.0748723479
 10
-9.247154506
 20
-61.072643875
 10
-9.2856539053
 20
-61.0680633199
 10
-9.3214982906
 20
-61.0611546956
 10
-9.3553828725
 20
-61.051893989
 10
-9.3876278104
 20
-61.0404840399
 10
-9.4182798296
 20
-61.0270137654
 10
-9.4472922048
 20
-61.0113942482
 10
-9.4748449201
 20
-60.9935615766
 10
-9.500962754
 20
-60.973614067
 10
-9.525620928
 20
-60.9514534029
 10
-9.5489250912
 20
-60.9267207232
 10
-9.5709191478
 20
-60.8993004809
 10
-9.5915591935
 20
-60.869308223
 10
-9.6108191648
 20
-60.8367317293
 10
-9.6287231543
 20
-60.8014797283
 10
-9.6452470695
 20
-60.7636434915
 10
-9.6602925693
 20
-60.7234846135
 10
-9.6738268733
 20
-60.6810902925
 10
-9.685882762
 20
-60.6363733302
 10
-9.6964602353
 20
-60.5893337267
  0
LWPOLYLINE
  5
2B4
100
AcDbEntity
  8
0
100
AcDbPolyline
 62
7
  6
CONTINUOUS
 90
21
 70
0
 10
-1.4360773268
 20
-61.0748723479
 10
-1.4765365296
 20
-61.072643875
 10
-1.5150359288
 20
-61.0680633199
 10
-1.5508803142
 20
-61.0611546956
 10
-1.584764896
 20
-61.051893989
 10
-1.6170098339
 20
-61.0404840399
 10
-1.6476618531
 20
-61.0270137654
 10
-1.6766742283
 20
-61.0113942482
 10
-1.7042269437
 20
-60.9935615766
 10
-1.7303447776
 20
-60.973614067
 10
-1.7550029516
 20
-60.9514534029
 10
-1.7783071148
 20
-60.9267207232
 10
-1.8003011713
 20
-60.8993004809
 10
-1.820941217
 20
-60.869308223
 10
-1.8402011884
 20
-60.8367317293
 10
-1.8581051779
 20
-60.8014797283
 10
-1.874629093
 20
-60.7636434915
 10
-1.8896745928
 20
-60.7234846135
 10
-1.9032088969
 20
-60.6810902925
 10
-1.9152647855
 20
-60.6363733302
 10
-1.9258422588
 20
-60.5893337267
  0
LINE
  5
2B5
100
AcDbEntity
  8
0
100
AcDbLine
 62
7
  6
CONTINUOUS
 10
-9.9696460235
 20
-59.4207056326
 11
-9.6661062588
 21
-59.4662365973
  0
LINE
  5
2B6
100
AcDbEntity
  8
0
100
AcDbLine
 62
7
  6
CONTINUOUS
 10
-2.1990280471
 20
-59.4207056326
 11
-1.8954882824
 21
-59.4662365973
  0
LWPOLYLINE
  5
2B7
100
AcDbEntity
  8
0
100
AcDbPolyline
 62
7
  6
CONTINUOUS
 90
19
 70
0
 10
12.1777298328
 20
-59.8096158693
 10
12.1421489878
 20
-59.8011016143
 10
12.1075977797
 20
-59.7925070693
 10
12.0740762083
 20
-59.7838322343
 10
12.0416317886
 20
-59.7750818632
 10
12.0102170057
 20
-59.766251202
 10
11.979689315
 20
-59.7573259894
 10
11.9500321007
 20
-59.74830947
 10
11.9212619788
 20
-59.7391983992
 10
11.8932862519
 20
-59.7299687825
 10
11.865946351
 20
-59.7207272049
 10
11.8394008452
 20
-59.7113670814
 10
11.8140327453
 20
-59.7015446626
 10
11.7898069511
 20
-59.6912500056
 10
11.7667585627
 20
-59.6804930534
 10
11.7453758916
 20
-59.6689598851
 10
11.7258217082
 20
-59.6565458605
 10
11.707933242
 20
-59.6433556197
 10
11.6917104932
 20
-59.6293891629
  0
LINE
  5
2B8
100
AcDbEntity
  8
0
100
AcDbLine
 62
7
  6
CONTINUOUS
 10
18.8059236705
 20
-60.4923431958
 11
18.4720299294
 21
-60.4086325007
  0
LINE
  5
2B9
100
AcDbEntity
  8
0
100
AcDbLine
 62
7
  6
CONTINUOUS
 10
12.055617937
 20
-60.1238107252
 11
12.1551114973
 21
-60.1487052699
  0
LWPOLYLINE
  5
2BA
100
AcDbEntity
  8
0
100
AcDbPolyline
 62
7
  6
CONTINUOUS
 90
6
 70
0
 10
12.1551114973
 20
-60.1487052699
 10
12.3563435899
 20
-60.2003985928
 10
12.403559309
 20
-60.2136870372
 10
12.4491672409
 20
-60.2279403238
 10
12.4932910074
 20
-60.2428855203
 10
12.5359306085
 20
-60.2585226267
  0
LWPOLYLINE
  5
2BB
100
AcDbEntity
  8
0
100
AcDbPolyline
 62
7
  6
CONTINUOUS
 90
22
 70
0
 10
6.9543558672
 20
-60.1911748717
 10
6.9847856277
 20
-60.1996453304
 10
7.014622806
 20
-60.2101876889
 10
7.0438674023
 20
-60.2228019472
 10
7.0726472543
 20
-60.2374815469
 10
7.1008345241
 20
-60.2542330463
 10
7.1280456985
 20
-60.2730761212
 10
7.153887667
 20
-60.2939956769
 10
7.17875354
 20
-60.3170068081
 10
7.203439135
 20
-60.3421744742
 10
7.2281484564
 20
-60.3697824198
 10
7.2526774998
 20
-60.3995469004
 10
7.2772100702
 20
-60.4306816412
 10
7.3017142014
 20
-60.4629640252
 10
7.3262218597
 20
-60.4966166695
 10
7.3510127491
 20
-60.5315211513
 10
7.3761305014
 20
-60.5676397718
 10
7.4015314849
 20
-60.6050102298
 10
7.4273645078
 20
-60.6436271991
 10
7.4536791729
 20
-60.6834889042
 10
7.4804258774
 20
-60.7245971207
 10
7.5076046214
 20
-60.7669518484
  0
LWPOLYLINE
  5
2BC
100
AcDbEntity
  8
0
100
AcDbPolyline
 62
7
  6
CONTINUOUS
 90
52
 70
0
 10
0.0677975134
 20
-52.8303903566
 10
0.1305530861
 20
-52.8206013068
 10
0.190245655
 20
-52.8085750354
 10
0.2468752201
 20
-52.7943115424
 10
0.3005407326
 20
-52.7776934177
 10
0.3511432413
 20
-52.7588380713
 10
0.3983858924
 20
-52.7380977336
 10
0.4420693593
 20
-52.7154576665
 10
0.4823929686
 20
-52.690932608
 10
0.5196578468
 20
-52.6649190028
 10
0.553763126
 20
-52.6376119447
 10
0.5848096742
 20
-52.6088163397
 10
0.6134012214
 20
-52.5783433504
 10
0.6397146128
 20
-52.5460995893
 10
0.6635730033
 20
-52.5121784438
 10
0.6850495878
 20
-52.4766712389
 10
0.7042296029
 20
-52.4396953992
 10
0.721027812
 20
-52.4011335001
 10
0.7352617
 20
-52.3607245938
 10
0.7469734747
 20
-52.3182768394
 10
0.7561209282
 20
-52.2739820779
 10
0.7623949216
 20
-52.2281548832
 10
0.7657337564
 20
-52.18018645
 10
0.7661991311
 20
-52.1306855838
 10
0.7636670019
 20
-52.0817932745
 10
0.7580649277
 20
-52.0340133591
 10
0.7494653496
 20
-51.9868420006
 10
0.737961547
 20
-51.9409086781
 10
0.7233677048
 20
-51.8961564425
 10
0.7058696382
 20
-51.8526422428
 10
0.6861180715
 20
-51.8111664048
 10
0.664012433
 20
-51.7716918657
 10
0.6396532946
 20
-51.7342556882
 10
0.6139930957
 20
-51.6997693872
 10
0.5873557971
 20
-51.6686669337
 10
0.5594174382
 20
-51.6405143566
 10
0.530158576
 20
-51.6149212575
 10
0.4997139195
 20
-51.5918954011
 10
0.4679487597
 20
-51.5714290227
 10
0.4344395276
 20
-51.55310843
 10
0.3991385498
 20
-51.536925678
 10
0.3620934997
 20
-51.5228887116
 10
0.3230238277
 20
-51.5106076731
 10
0.2817987798
 20
-51.5001020767
 10
0.2385491101
 20
-51.4913524082
 10
0.1933865307
 20
-51.4839102671
 10
0.1463084276
 20
-51.4776764566
 10
0.0973174148
 20
-51.4727501736
 10
0.046533046
 20
-51.468980609
 10
-0.0060048274
 20
-51.4663174928
 10
-0.0603360567
 20
-51.464811095
 10
-0.116460642
 20
-51.4644614154
  0
LINE
  5
2BD
100
AcDbEntity
  8
0
100
AcDbLine
 62
7
  6
CONTINUOUS
 10
2.4662357111
 20
-53.1339301213
 11
2.1475189581
 21
-53.1491071095
  0
LINE
  5
2BE
100
AcDbEntity
  8
0
100
AcDbLine
 62
7
  6
CONTINUOUS
 10
3.7259257346
 20
-52.1777798625
 11
4.0598194758
 21
-52.1626028742
  0
LWPOLYLINE
  5
2BF
100
AcDbEntity
  8
0
100
AcDbPolyline
 62
7
  6
CONTINUOUS
 90
43
 70
0
 10
3.1193204933
 20
-51.4189304507
 10
3.0495244152
 20
-51.4210238133
 10
2.9828383949
 20
-51.4258733911
 10
2.9192624324
 20
-51.4334791841
 10
2.8588054945
 20
-51.4440587387
 10
2.8014586143
 20
-51.4573945086
 10
2.7471948912
 20
-51.4728338544
 10
2.6959993284
 20
-51.4903202459
 10
2.6478869227
 20
-51.5099102133
 10
2.6028757633
 20
-51.5311207075
 10
2.5611255667
 20
-51.5537575411
 10
2.5224766164
 20
-51.5780149016
 10
2.4864678532
 20
-51.6039923017
 10
2.4530891466
 20
-51.6316744717
 10
2.4223506271
 20
-51.6610766814
 10
2.3938216258
 20
-51.6923442528
 10
2.3673147868
 20
-51.7255766701
 10
2.3430174662
 20
-51.7606744491
 10
2.3210610634
 20
-51.7974844597
 10
2.3013580232
 20
-51.836239857
 10
2.2839959009
 20
-51.8767074858
 10
2.2693687617
 20
-51.9180347506
 10
2.2575548135
 20
-51.9603314484
 10
2.2484758484
 20
-52.0034877822
 10
2.2422913075
 20
-52.0463217651
 10
2.2391232621
 20
-52.0886599584
 10
2.2388496409
 20
-52.1306758009
 10
2.2412636703
 20
-52.1717076218
 10
2.2463912102
 20
-52.2116329598
 10
2.2542064007
 20
-52.2505742762
 10
2.2644248891
 20
-52.2882372836
 10
2.2768980462
 20
-52.324440689
 10
2.2917745012
 20
-52.3593657855
 10
2.3092157876
 20
-52.3932621654
 10
2.3290602681
 20
-52.4260863007
 10
2.3514695801
 20
-52.4578817194
 10
2.3770901699
 20
-52.4890285979
 10
2.4060861027
 20
-52.5197972167
 10
2.4382933133
 20
-52.5499172951
 10
2.4738660517
 20
-52.5789581685
 10
2.5128557347
 20
-52.6067762818
 10
2.5552109456
 20
-52.6335151899
 10
2.6009316843
 20
-52.6591748929
  0
LWPOLYLINE
  5
2C0
100
AcDbEntity
  8
0
100
AcDbPolyline
 62
7
  6
CONTINUOUS
 90
19
 70
0
 10
5.5481128991
 20
-52.9366292742
 10
5.6031570216
 20
-52.9361502594
 10
5.6567517004
 20
-52.9342240433
 10
5.7088969356
 20
-52.9308506259
 10
5.7596603832
 20
-52.9260503572
 10
5.8089743871
 20
-52.9198028873
 10
5.8566359788
 20
-52.9120471666
 10
5.902785846
 20
-52.9027207642
 10
5.9472833009
 20
-52.8918861111
 10
5.9895033119
 20
-52.8796694503
 10
6.0293046583
 20
-52.8660276564
 10
6.0668285609
 20
-52.8510038547
 10
6.1018736501
 20
-52.8348536649
 10
6.1343389148
 20
-52.817562227
 10
6.1643253662
 20
-52.7991444009
 10
6.1919346682
 20
-52.7799003858
 10
6.2172007088
 20
-52.759930248
 10
6.2400896001
 20
-52.7391339212
 10
6.2606013419
 20
-52.7175114053
  0
LINE
  5
2C1
100
AcDbEntity
  8
0
100
AcDbLine
 62
7
  6
CONTINUOUS
 10
-3.2192062757
 20
-53.2098150625
 11
-2.1537342264
 21
-53.2098150625
  0
LINE
  5
2C2
100
AcDbEntity
  8
0
100
AcDbLine
 62
7
  6
CONTINUOUS
 10
7.2377386184
 20
-53.2098150625
 11
8.3032106677
 21
-53.2098150625
  0
LINE
  5
2C3
100
AcDbEntity
  8
0
100
AcDbLine
 62
7
  6
CONTINUOUS
 10
8.2024260634
 20
-52.9366292742
 11
7.3328319969
 21
-52.9366292742
  0
LINE
  5
2C4
100
AcDbEntity
  8
0
100
AcDbLine
 62
7
  6
CONTINUOUS
 10
-2.2545188307
 20
-52.9366292742
 11
-3.1241128972
 21
-52.9366292742
  0
LINE
  5
2C5
100
AcDbEntity
  8
0
100
AcDbLine
 62
7
  6
CONTINUOUS
 10
4.9249078052
 20
-52.9366292742
 11
5.5481128991
 21
-52.9366292742
  0
LINE
  5
2C6
100
AcDbEntity
  8
0
100
AcDbLine
 62
7
  6
CONTINUOUS
 10
5.55167006
 20
-52.6482664978
 11
4.9249078052
 21
-52.6482664978
  0
LINE
  5
2C7
100
AcDbEntity
  8
0
100
AcDbLine
 62
7
  6
CONTINUOUS
 10
-0.1826229083
 20
-52.5723815566
 11
-0.8878786889
 21
-52.5723815566
  0
LINE
  5
2C8
100
AcDbEntity
  8
0
100
AcDbLine
 62
7
  6
CONTINUOUS
 10
-0.8878786889
 20
-51.7528241919
 11
-0.1029436622
 21
-51.7528241919
  0
LINE
  5
2C9
100
AcDbEntity
  8
0
100
AcDbLine
 62
7
  6
CONTINUOUS
 10
4.9249078052
 20
-51.7528241919
 11
5.5739982708
 21
-51.7527378523
  0
LINE
  5
2CA
100
AcDbEntity
  8
0
100
AcDbLine
 62
7
  6
CONTINUOUS
 10
7.9344572129
 20
-51.4644614154
 11
7.573292368
 21
-51.4644614154
  0
LINE
  5
2CB
100
AcDbEntity
  8
0
100
AcDbLine
 62
7
  6
CONTINUOUS
 10
5.5589719068
 20
-51.4644610652
 11
4.591014064
 21
-51.4644614154
  0
LINE
  5
2CC
100
AcDbEntity
  8
0
100
AcDbLine
 62
7
  6
CONTINUOUS
 10
-0.116460642
 20
-51.4644614154
 11
-1.2217724301
 21
-51.4644614154
  0
LINE
  5
2CD
100
AcDbEntity
  8
0
100
AcDbLine
 62
7
  6
CONTINUOUS
 10
-2.5224876812
 20
-51.4644614154
 11
-2.8836525261
 21
-51.4644614154
  0
LINE
  5
2CE
100
AcDbEntity
  8
0
100
AcDbLine
 62
7
  6
CONTINUOUS
 10
-4.0902232066
 20
-51.4644614154
 11
-4.524664408
 21
-51.4644614154
  0
LINE
  5
2CF
100
AcDbEntity
  8
0
100
AcDbLine
 62
7
  6
CONTINUOUS
 10
-5.9944608262
 20
-51.4644614154
 11
-6.503364336
 21
-51.4644614154
  0
LINE
  5
2D0
100
AcDbEntity
  8
0
100
AcDbLine
 62
7
  6
CONTINUOUS
 10
-7.0649129007
 20
-51.4644614154
 11
-7.3988066419
 21
-51.4644614154
  0
LINE
  5
2D1
100
AcDbEntity
  8
0
100
AcDbLine
 62
7
  6
CONTINUOUS
 10
-7.6791065203
 20
-51.4644614154
 11
-8.0362401477
 21
-51.4644614154
  0
LINE
  5
2D2
100
AcDbEntity
  8
0
100
AcDbLine
 62
7
  6
CONTINUOUS
 10
-9.6450009007
 20
-51.4644614154
 11
-10.0
 21
-51.4644614154
  0
LWPOLYLINE
  5
2D3
100
AcDbEntity
  8
0
100
AcDbPolyline
 62
7
  6
CONTINUOUS
 90
10
 70
0
 10
-0.8878786889
 20
-52.8607443331
 10
-0.4852246936
 20
-52.8608072709
 10
-0.4635924611
 20
-52.8610943587
 10
-0.4423715651
 20
-52.8616055965
 10
-0.4215254923
 20
-52.8622304661
 10
-0.4010907561
 20
-52.8630794856
 10
-0.3811768964
 20
-52.8644842094
 10
-0.3618204264
 20
-52.8665551555
 10
-0.3429848329
 20
-52.8691818058
 10
-0.3246701158
 20
-52.8723641604
  0
LWPOLYLINE
  5
2D4
100
AcDbEntity
  8
0
100
AcDbPolyline
 62
7
  6
CONTINUOUS
 90
12
 70
0
 10
5.5739982708
 20
-51.7527378523
 10
5.6022559704
 20
-51.752927349
 10
5.6298033566
 20
-51.753392682
 10
5.6566555107
 20
-51.7540878384
 10
5.6827973514
 20
-51.7550588311
 10
5.7081836353
 20
-51.7564436981
 10
5.7328082712
 20
-51.7582367879
 10
5.7566773503
 20
-51.7604437519
 10
5.7797639027
 20
-51.7632195829
 10
5.8020589384
 20
-51.7666159451
 10
5.8235714473
 20
-51.7705811742
 10
5.8443014295
 20
-51.7751152703
  0
LWPOLYLINE
  5
2D5
100
AcDbEntity
  8
0
100
AcDbPolyline
 62
7
  6
CONTINUOUS
 90
49
 70
0
 10
-0.1029436622
 20
-51.7528241919
 10
-0.0579017023
 20
-51.7532884086
 10
-0.0146541256
 20
-51.7555064086
 10
0.0267990679
 20
-51.7594781917
 10
0.0665417192
 20
-51.7652013955
 10
0.1044899872
 20
-51.7726783826
 10
0.1403923491
 20
-51.78191624
 10
0.1742796934
 20
-51.7930482325
 10
0.2061211314
 20
-51.8059410954
 10
0.2355724748
 20
-51.8202021217
 10
0.2623682841
 20
-51.8357056342
 10
0.2867739987
 20
-51.85257731
 10
0.309241748
 20
-51.8708014733
 10
0.3298657606
 20
-51.8903959165
 10
0.3485518078
 20
-51.9113428472
 10
0.3654693327
 20
-51.933573212
 10
0.380747459
 20
-51.957108944
 10
0.394257063
 20
-51.9819281101
 10
0.4057802168
 20
-52.0078958577
 10
0.4152998289
 20
-52.0350288699
 10
0.4228329908
 20
-52.0633104637
 10
0.4282130497
 20
-52.092555738
 10
0.4314207333
 20
-52.1231185239
 10
0.4324753139
 20
-52.1546449903
 10
0.4312679555
 20
-52.1858887427
 10
0.4277194883
 20
-52.2166677033
 10
0.4219090822
 20
-52.24716395
 10
0.4139654108
 20
-52.2766773217
 10
0.4038277686
 20
-52.3050874302
 10
0.3915568612
 20
-52.3325146637
 10
0.3774634794
 20
-52.3586200257
 10
0.361582593
 20
-52.3833944035
 10
0.3438792321
 20
-52.4068469097
 10
0.3245592789
 20
-52.4286658861
 10
0.3038067755
 20
-52.4487183175
 10
0.2814376798
 20
-52.4671372189
 10
0.257105747
 20
-52.4840099769
 10
0.2307143398
 20
-52.4993674484
 10
0.2023600955
 20
-52.5131787764
 10
0.1719866821
 20
-52.5254387762
 10
0.1394756547
 20
-52.5360959495
 10
0.1049454581
 20
-52.5452017946
 10
0.0686950951
 20
-52.5529056222
 10
0.0307609125
 20
-52.5591684356
 10
-0.0088934364
 20
-52.5640292316
 10
-0.0500779893
 20
-52.5677543115
 10
-0.0927294251
 20
-52.5704324426
 10
-0.1369110648
 20
-52.5719748576
 10
-0.1826229083
 20
-52.5723815566
  0
LWPOLYLINE
  5
2D6
100
AcDbEntity
  8
0
100
AcDbPolyline
 62
7
  6
CONTINUOUS
 90
25
 70
0
 10
3.1326005606
 20
-51.7072932272
 10
3.176394397
 20
-51.7079836425
 10
3.2186970601
 20
-51.7102485599
 10
3.2595085497
 20
-51.7140879796
 10
3.2990349464
 20
-51.7195400513
 10
3.3370701696
 20
-51.7265666251
 10
3.3729959784
 20
-51.7350532518
 10
3.4066163854
 20
-51.7450292762
 10
3.4381273778
 20
-51.7564653535
 10
3.4674986768
 20
-51.7691589995
 10
3.4944818253
 20
-51.782909848
 10
3.5193252803
 20
-51.7979182652
 10
3.5427441339
 20
-51.8145828659
 10
3.5648184405
 20
-51.8328236619
 10
3.5854681457
 20
-51.8527206414
 10
3.6051681781
 20
-51.8749123837
 10
3.6241733192
 20
-51.8995282602
 10
3.6422287876
 20
-51.9264388996
 10
3.6590451673
 20
-51.9558947674
 10
3.6748007277
 20
-51.988305309
 10
3.6893171995
 20
-52.0232610789
 10
3.7017703585
 20
-52.0597842064
 10
3.7118854633
 20
-52.0975487343
 10
3.7199372553
 20
-52.1368806196
 10
3.7259257346
 20
-52.1777798625
  0
LWPOLYLINE
  5
2D7
100
AcDbEntity
  8
0
100
AcDbPolyline
 62
7
  6
CONTINUOUS
 90
9
 70
0
 10
5.8855638011
 20
-51.4881753582
 10
5.8485663151
 20
-51.4824391262
 10
5.8104573191
 20
-51.4775364961
 10
5.7712368129
 20
-51.473467468
 10
5.7308707782
 20
-51.470309728
 10
5.6893932334
 20
-51.46798559
 10
5.6469062338
 20
-51.4662619956
 10
5.6034437977
 20
-51.4650612586
 10
5.5589719068
 20
-51.4644610652
  0
LWPOLYLINE
  5
2D8
100
AcDbEntity
  8
0
100
AcDbPolyline
 62
7
  6
CONTINUOUS
 90
19
 70
0
 10
3.1533502027
 20
-52.490805158
 10
3.1177693577
 20
-52.482290903
 10
3.0832181496
 20
-52.473696358
 10
3.0496965782
 20
-52.465021523
 10
3.0172521585
 20
-52.4562711519
 10
2.9858373756
 20
-52.4474404907
 10
2.9553096849
 20
-52.4385152781
 10
2.9256524707
 20
-52.4294987587
 10
2.8968823487
 20
-52.4203876879
 10
2.8689066219
 20
-52.4111580712
 10
2.8415667209
 20
-52.4019164936
 10
2.8150212152
 20
-52.3925563701
 10
2.7896531153
 20
-52.3827339513
 10
2.765427321
 20
-52.3724392943
 10
2.7423789326
 20
-52.3616823421
 10
2.7209962615
 20
-52.3501491738
 10
2.7014420781
 20
-52.3377351492
 10
2.683553612
 20
-52.3245449084
 10
2.6673308631
 20
-52.3105784516
  0
LINE
  5
2D9
100
AcDbEntity
  8
0
100
AcDbLine
 62
7
  6
CONTINUOUS
 10
6.4881375934
 20
-56.8405263343
 11
6.1542438522
 21
-56.7568156391
  0
LINE
  5
2DA
100
AcDbEntity
  8
0
100
AcDbLine
 62
7
  6
CONTINUOUS
 10
3.031238307
 20
-52.8050000139
 11
3.1307318672
 21
-52.8298945586
  0
LWPOLYLINE
  5
2DB
100
AcDbEntity
  8
0
100
AcDbPolyline
 62
7
  6
CONTINUOUS
 90
6
 70
0
 10
3.1307318672
 20
-52.8298945586
 10
3.3319639599
 20
-52.8815878815
 10
3.379179679
 20
-52.8948763259
 10
3.4247876108
 20
-52.9091296125
 10
3.4689113773
 20
-52.924074809
 10
3.5115509784
 20
-52.9397119154
  0
LWPOLYLINE
  5
2DC
100
AcDbEntity
  8
0
100
AcDbPolyline
 62
7
  6
CONTINUOUS
 90
22
 70
0
 10
-0.3246701158
 20
-52.8723641604
 10
-0.2942403554
 20
-52.8808346191
 10
-0.264403177
 20
-52.8913769776
 10
-0.2351585807
 20
-52.9039912359
 10
-0.2063787288
 20
-52.9186708356
 10
-0.1781914589
 20
-52.935422335
 10
-0.1509802845
 20
-52.9542654099
 10
-0.125138316
 20
-52.9751849656
 10
-0.1002724431
 20
-52.9981960968
 10
-0.075586848
 20
-53.0233637629
 10
-0.0508775267
 20
-53.0509717085
 10
-0.0263484833
 20
-53.0807361891
 10
-0.0018159128
 20
-53.1118709299
 10
0.0226882184
 20
-53.1441533139
 10
0.0471958767
 20
-53.1778059582
 10
0.071986766
 20
-53.21271044
 10
0.0971045184
 20
-53.2488290605
 10
0.1225055019
 20
-53.2861995185
 10
0.1483385248
 20
-53.3248164878
 10
0.1746531899
 20
-53.3646781929
 10
0.2013998944
 20
-53.4057864094
 10
0.2285786384
 20
-53.4481411371
  0
LWPOLYLINE
  5
2DD
100
AcDbEntity
  8
0
100
AcDbPolyline
 62
7
  6
CONTINUOUS
 90
43
 70
0
 10
5.8443014295
 20
-51.7751152703
 10
5.8717587313
 20
-51.7841042926
 10
5.8980313075
 20
-51.7949979172
 10
5.9231191581
 20
-51.8077961442
 10
5.9470161603
 20
-51.8224536634
 10
5.9697284368
 20
-51.839015785
 10
5.9912743564
 20
-51.8576184394
 10
6.0117789387
 20
-51.8783602343
 10
6.031117164
 20
-51.901142562
 10
6.0489323421
 20
-51.9258055295
 10
6.0652927072
 20
-51.9524447725
 10
6.0801300251
 20
-51.9809646554
 10
6.092882902
 20
-52.0109183773
 10
6.1034064062
 20
-52.0421511992
 10
6.1118454694
 20
-52.0748178602
 10
6.1180734931
 20
-52.1089357773
 10
6.1220278169
 20
-52.1451782933
 10
6.1237711011
 20
-52.1828720652
 10
6.1233647291
 20
-52.2200144813
 10
6.1207697262
 20
-52.256358674
 10
6.1160250669
 20
-52.2921515107
 10
6.1093090585
 20
-52.3261309824
 10
6.1005833154
 20
-52.3578722797
 10
6.0898862232
 20
-52.387800212
 10
6.0775112447
 20
-52.4159271987
 10
6.0634641612
 20
-52.4422676404
 10
6.0477391914
 20
-52.4668071365
 10
6.0306124548
 20
-52.4895149046
 10
6.0124006307
 20
-52.5102185958
 10
5.9927870396
 20
-52.529090559
 10
5.9710977635
 20
-52.5466170578
 10
5.9471552225
 20
-52.562967928
 10
5.9211369964
 20
-52.5779733339
 10
5.8929019055
 20
-52.5916100318
 10
5.8622578854
 20
-52.6039349949
 10
5.8293970006
 20
-52.61489125
 10
5.7947542647
 20
-52.6242846342
 10
5.7584257542
 20
-52.6320196793
 10
5.7203153927
 20
-52.6381918535
 10
5.6805699641
 20
-52.6428933983
 10
5.6392383965
 20
-52.6461550608
 10
5.5962717617
 20
-52.647946094
 10
5.55167006
 20
-52.6482664978
  0
LWPOLYLINE
  5
2DE
100
AcDbEntity
  8
0
100
AcDbPolyline
 62
7
  6
CONTINUOUS
 90
45
 70
0
 10
12.5359306085
 20
-60.2585226267
 10
12.5703621665
 20
-60.2727177292
 10
12.6025493927
 20
-60.2880223863
 10
12.6324922869
 20
-60.3044365981
 10
12.6603113604
 20
-60.3220262954
 10
12.685886102
 20
-60.3407255474
 10
12.7088549779
 20
-60.3603365615
 10
12.7289533367
 20
-60.3806869821
 10
12.7464458297
 20
-60.4019491648
 10
12.7617648773
 20
-60.4244423846
 10
12.7749950135
 20
-60.4481596651
 10
12.7860517042
 20
-60.4731079827
 10
12.7951137681
 20
-60.4996275411
 10
12.8023827048
 20
-60.5281935363
 10
12.8076570146
 20
-60.5583307724
 10
12.8105110171
 20
-60.5889538651
 10
12.8108058491
 20
-60.6200920666
 10
12.8086803737
 20
-60.6517161246
 10
12.8041254998
 20
-60.6826528986
 10
12.7971209831
 20
-60.7125798175
 10
12.7876870679
 20
-60.7418194525
 10
12.7758753959
 20
-60.7701663763
 10
12.7617422511
 20
-60.7976144465
 10
12.7452313495
 20
-60.8241698056
 10
12.7262254811
 20
-60.8496454546
 10
12.7047848944
 20
-60.8740896251
 10
12.6808493409
 20
-60.8974540855
 10
12.6541208648
 20
-60.919407143
 10
12.6244854557
 20
-60.9399174597
 10
12.5920571239
 20
-60.9590163734
 10
12.5568799456
 20
-60.9764662045
 10
12.518918612
 20
-60.9923513008
 10
12.4782084318
 20
-61.0065873145
 10
12.4348994071
 20
-61.0186835219
 10
12.3890047845
 20
-61.0286300451
 10
12.3405113174
 20
-61.0364367621
 10
12.2895292691
 20
-61.0416425828
 10
12.2352412298
 20
-61.04429448
 10
12.1784646094
 20
-61.044345481
 10
12.1217619002
 20
-61.041193578
 10
12.0649795115
 20
-61.0344400282
 10
12.0082710341
 20
-61.0244835745
 10
11.954659733
 20
-61.0119184376
 10
11.9051229619
 20
-60.9966316435
 10
11.8586833671
 20
-60.9787361662
  0
LWPOLYLINE
  5
2DF
100
AcDbEntity
  8
0
100
AcDbPolyline
 62
7
  6
CONTINUOUS
 90
45
 70
0
 10
3.5115509784
 20
-52.9397119154
 10
3.5459825365
 20
-52.9539070179
 10
3.5781697626
 20
-52.969211675
 10
3.6081126568
 20
-52.9856258868
 10
3.6359317303
 20
-53.0032155841
 10
3.6615064719
 20
-53.0219148361
 10
3.6844753478
 20
-53.0415258502
 10
3.7045737066
 20
-53.0618762708
 10
3.7220661996
 20
-53.0831384535
 10
3.7373852472
 20
-53.1056316733
 10
3.7506153834
 20
-53.1293489538
 10
3.7616720741
 20
-53.1542972714
 10
3.770734138
 20
-53.1808168298
 10
3.7780030747
 20
-53.209382825
 10
3.7832773845
 20
-53.2395200611
 10
3.786131387
 20
-53.2701431538
 10
3.786426219
 20
-53.3012813553
 10
3.7843007436
 20
-53.3329054133
 10
3.7797458697
 20
-53.3638421873
 10
3.772741353
 20
-53.3937691062
 10
3.7633074378
 20
-53.4230087412
 10
3.7514957658
 20
-53.451355665
 10
3.737362621
 20
-53.4788037352
 10
3.7208517194
 20
-53.5053590943
 10
3.701845851
 20
-53.5308347433
 10
3.6804052643
 20
-53.5552789138
 10
3.6564697108
 20
-53.5786433742
 10
3.6297412348
 20
-53.6005964317
 10
3.6001058256
 20
-53.6211067484
 10
3.5676774939
 20
-53.6402056621
 10
3.5325003155
 20
-53.6576554932
 10
3.4945389819
 20
-53.6735405895
 10
3.4538288017
 20
-53.6877766032
 10
3.4105197771
 20
-53.6998728106
 10
3.3646251544
 20
-53.7098193338
 10
3.3161316873
 20
-53.7176260508
 10
3.2651496391
 20
-53.7228318715
 10
3.2108615998
 20
-53.7254837687
 10
3.1540849793
 20
-53.7255347697
 10
3.0973822701
 20
-53.7223828667
 10
3.0405998814
 20
-53.7156293169
 10
2.9838914041
 20
-53.7056728632
 10
2.9302801029
 20
-53.6931077263
 10
2.8807433318
 20
-53.6778209322
 10
2.834303737
 20
-53.6599254549
  0
LWPOLYLINE
  5
2E0
100
AcDbEntity
  8
0
100
AcDbPolyline
 62
7
  6
CONTINUOUS
 90
13
 70
0
 10
12.7201885323
 20
-59.9701598502
 10
12.6826305608
 20
-59.954644455
 10
12.6436344885
 20
-59.9396257716
 10
12.6032003153
 20
-59.9251038
 10
12.5613020687
 20
-59.9111477113
 10
12.5179657212
 20
-59.8976883344
 10
12.4732691905
 20
-59.8845181559
 10
12.4271996399
 20
-59.871625018
 10
12.379769906
 20
-59.8590210784
 10
12.3310964156
 20
-59.8465352978
 10
12.2812179778
 20
-59.8341106627
 10
12.2300957835
 20
-59.8218041866
 10
12.1777298328
 20
-59.8096158693
  0
LWPOLYLINE
  5
2E1
100
AcDbEntity
  8
0
100
AcDbPolyline
 62
7
  6
CONTINUOUS
 90
13
 70
0
 10
3.6958089022
 20
-52.6513491389
 10
3.6582509307
 20
-52.6358337437
 10
3.6192548584
 20
-52.6208150603
 10
3.5788206852
 20
-52.6062930887
 10
3.5369224386
 20
-52.592337
 10
3.4935860912
 20
-52.5788776231
 10
3.4488895604
 20
-52.5657074446
 10
3.4028200098
 20
-52.5528143067
 10
3.3553902759
 20
-52.5402103671
 10
3.3067167856
 20
-52.5277245865
 10
3.2568383477
 20
-52.5152999514
 10
3.2057161534
 20
-52.5029934753
 10
3.1533502027
 20
-52.490805158
  0
LWPOLYLINE
  5
2E2
100
AcDbEntity
  8
0
100
AcDbPolyline
 62
7
  6
CONTINUOUS
 90
17
 70
0
 10
11.8586833671
 20
-60.9787361662
 10
11.8154321514
 20
-60.9591651485
 10
11.7754564993
 20
-60.9381470673
 10
11.7386692265
 20
-60.9154534458
 10
11.7048999831
 20
-60.8913319957
 10
11.6742825907
 20
-60.8659809993
 10
11.6466832278
 20
-60.8392021745
 10
11.6215300801
 20
-60.8106483862
 10
11.5987830391
 20
-60.7804501379
 10
11.5784822134
 20
-60.7484769261
 10
11.5601761141
 20
-60.7139901058
 10
11.5437405582
 20
-60.6767458796
 10
11.5292997288
 20
-60.6369880448
 10
11.5167746864
 20
-60.594709348
 10
11.5061391177
 20
-60.5499073715
 10
11.4974193359
 20
-60.502584533
 10
11.4906153411
 20
-60.4527408326
  0
LWPOLYLINE
  5
2E3
100
AcDbEntity
  8
0
100
AcDbPolyline
 62
7
  6
CONTINUOUS
 90
17
 70
0
 10
2.834303737
 20
-53.6599254549
 10
2.7910525214
 20
-53.6403544372
 10
2.7510768693
 20
-53.619336356
 10
2.7142895964
 20
-53.5966427345
 10
2.6805203531
 20
-53.5725212844
 10
2.6499029606
 20
-53.547170288
 10
2.6223035977
 20
-53.5203914632
 10
2.59715045
 20
-53.4918376749
 10
2.574403409
 20
-53.4616394266
 10
2.5541025833
 20
-53.4296662148
 10
2.535796484
 20
-53.3951793945
 10
2.5193609281
 20
-53.3579351683
 10
2.5049200987
 20
-53.3181773335
 10
2.4923950563
 20
-53.2758986367
 10
2.4817594876
 20
-53.2310966602
 10
2.4730397059
 20
-53.1837738217
 10
2.4662357111
 20
-53.1339301213
  0
LWPOLYLINE
  5
2E4
100
AcDbEntity
  8
0
100
AcDbPolyline
 62
7
  6
CONTINUOUS
 90
12
 70
0
 10
11.6253113144
 20
-59.9779856042
 10
11.6577931998
 20
-59.9935004535
 10
11.6916441277
 20
-60.0084887046
 10
11.726864098
 20
-60.0229503575
 10
11.7634811072
 20
-60.0368296906
 10
11.801467159
 20
-60.0501824255
 10
11.8407382634
 20
-60.0631757269
 10
11.8813072013
 20
-60.0758132239
 10
11.9231611918
 20
-60.0880912873
 10
11.9661779037
 20
-60.1001661946
 10
12.0103165597
 20
-60.112090038
 10
12.055617937
 20
-60.1238107252
  0
LWPOLYLINE
  5
2E5
100
AcDbEntity
  8
0
100
AcDbPolyline
 62
7
  6
CONTINUOUS
 90
12
 70
0
 10
2.6009316843
 20
-52.6591748929
 10
2.6334135697
 20
-52.6746897422
 10
2.6672644976
 20
-52.6896779933
 10
2.7024844679
 20
-52.7041396462
 10
2.7391014772
 20
-52.7180189793
 10
2.7770875289
 20
-52.7313717142
 10
2.8163586334
 20
-52.7443650156
 10
2.8569275712
 20
-52.7570025126
 10
2.8987815618
 20
-52.769280576
 10
2.9417982736
 20
-52.7813554833
 10
2.9859369296
 20
-52.7932793267
 10
3.031238307
 20
-52.8050000139
  0
LWPOLYLINE
  5
2E6
100
AcDbEntity
  8
0
100
AcDbPolyline
 62
7
  6
CONTINUOUS
 90
49
 70
0
 10
-7.8298091386
 20
-61.0493861392
 10
-7.7910342641
 20
-61.091426952
 10
-7.7509366364
 20
-61.1300125617
 10
-7.7095162555
 20
-61.1651429683
 10
-7.6667842432
 20
-61.1967827472
 10
-7.6227294778
 20
-61.2249673229
 10
-7.5773185937
 20
-61.2498029694
 10
-7.5308734851
 20
-61.2712407477
 10
-7.4830722579
 20
-61.2893295968
 10
-7.4329158642
 20
-61.3043226067
 10
-7.3794717345
 20
-61.31641663
 10
-7.3236724384
 20
-61.3254148141
 10
-7.2673166368
 20
-61.3309796919
 10
-7.2101345267
 20
-61.3329613035
 10
-7.1523959112
 20
-61.3315096088
 10
-7.0967088599
 20
-61.3267370206
 10
-7.0439965543
 20
-61.3185845725
 10
-6.9933358129
 20
-61.3071112309
 10
-6.9445651617
 20
-61.2926063075
 10
-6.8976022022
 20
-61.2750667671
 10
-6.8525293328
 20
-61.2544956451
 10
-6.8094322747
 20
-61.2311913584
 10
-6.768353947
 20
-61.2052844849
 10
-6.7292514307
 20
-61.1766444469
 10
-6.6920816892
 20
-61.1451779281
 10
-6.6569042828
 20
-61.111135292
 10
-6.6236596512
 20
-61.0742661752
 10
-6.5921260782
 20
-61.033726171
 10
-6.5618925999
 20
-60.9889361853
 10
-6.5333701801
 20
-60.9404753122
 10
-6.5075699934
 20
-60.8892364276
 10
-6.4845348105
 20
-60.8351378191
 10
-6.4642218607
 20
-60.7782611991
 10
-6.4475140056
 20
-60.719744581
 10
-6.4346601569
 20
-60.6596624715
 10
-6.425411403
 20
-60.5979403637
 10
-6.4199038706
 20
-60.535492751
 10
-6.418289791
 20
-60.4715179265
 10
-6.4204169328
 20
-60.4068175969
 10
-6.4259647282
 20
-60.3447113754
 10
-6.4350433611
 20
-60.2861448278
 10
-6.4475426476
 20
-60.2301723884
 10
-6.4628114681
 20
-60.1772769734
 10
-6.4805335127
 20
-60.1280878349
 10
-6.5010250914
 20
-60.0819757209
 10
-6.5245840149
 20
-60.0375357912
 10
-6.5514136364
 20
-59.9941915378
 10
-6.5813106028
 20
-59.9525194687
 10
-6.6139626643
 20
-59.9128442681
  0
LINE
  5
2E7
100
AcDbEntity
  8
0
100
AcDbLine
 62
7
  6
CONTINUOUS
 10
-6.53125
 20
45.190425548
 11
-6.675
 21
45.0925531849
  0
LINE
  5
2E8
100
AcDbEntity
  8
0
100
AcDbLine
 62
7
  6
CONTINUOUS
 10
-6.6270835161
 20
44.7989361687
 11
-6.4354164839
 21
44.8968085103
  0
LINE
  5
2E9
100
AcDbEntity
  8
0
100
AcDbLine
 62
7
  6
CONTINUOUS
 10
-1.8201504808
 20
42.158510685
 11
-1.5614004808
 21
42.2563830137
  0
LINE
  5
2EA
100
AcDbEntity
  8
0
100
AcDbLine
 62
7
  6
CONTINUOUS
 10
4.0448498482
 20
42.5010638356
 11
3.6135995192
 21
42.3542553425
  0
LINE
  5
2EB
100
AcDbEntity
  8
ASSI
100
AcDbLine
 62
7
  6
CONTINUOUS
 10
1.657055
 20
-44.375
 11
3.117556
 21
-44.375
  0
LINE
  5
2EC
100
AcDbEntity
  8
ASSI
100
AcDbLine
 62
7
  6
CONTINUOUS
 10
3.117556
 20
-43.625
 11
1.6570519378
 21
-43.625
  0
LINE
  5
2ED
100
AcDbEntity
  8
ASSI
100
AcDbLine
 62
7
  6
CONTINUOUS
 10
-0.9707756993
 20
-42.200050449
 11
-0.867554
 21
-42.20278
  0
LWPOLYLINE
  5
2EE
100
AcDbEntity
  8
0
100
AcDbPolyline
 62
7
  6
CONTINUOUS
 90
10
 70
0
 10
7.5372471657
 20
-60.277731064
 10
7.5203739942
 20
-60.2623002377
 10
7.5023940275
 20
-60.2471703172
 10
7.4833072655
 20
-60.2323413025
 10
7.4630663192
 20
-60.2178311628
 10
7.4417185776
 20
-60.2036219289
 10
7.4194062078
 20
-60.1896596932
 10
7.3961765988
 20
-60.1759264865
 10
7.3719823617
 20
-60.1624402781
 10
7.3468234964
 20
-60.1492010679
  0
LWPOLYLINE
  5
2EF
100
AcDbEntity
  8
0
100
AcDbPolyline
 62
7
  6
CONTINUOUS
 90
10
 70
0
 10
0.2582211827
 20
-52.9589203527
 10
0.2413480112
 20
-52.9434895264
 10
0.2233680445
 20
-52.9283596059
 10
0.2042812825
 20
-52.9135305912
 10
0.1840403361
 20
-52.8990204515
 10
0.1626925945
 20
-52.8848112176
 10
0.1403802247
 20
-52.8708489819
 10
0.1171506158
 20
-52.8571157752
 10
0.0929563787
 20
-52.8436295668
 10
0.0677975134
 20
-52.8303903566
  0
LWPOLYLINE
  5
2F0
100
AcDbEntity
  8
0
100
AcDbPolyline
 62
7
  6
CONTINUOUS
 90
28
 70
0
 10
-6.6139626643
 20
-59.9128442681
 10
-6.6498498242
 20
-59.8747855148
 10
-6.6884920794
 20
-59.8387236298
 10
-6.7281371708
 20
-59.8061245609
 10
-6.7681656927
 20
-59.7775741784
 10
-6.8091970508
 20
-59.7524866119
 10
-6.8513372036
 20
-59.7305701977
 10
-6.8944642468
 20
-59.7117711023
 10
-6.9387000848
 20
-59.6961431593
 10
-6.9845163894
 20
-59.6835562061
 10
-7.0323892986
 20
-59.6738649002
 10
-7.0818426744
 20
-59.6672145842
 10
-7.1319197745
 20
-59.6639111226
 10
-7.1828949146
 20
-59.6641032952
 10
-7.2344937789
 20
-59.6676423221
 10
-7.2849366775
 20
-59.6743877289
 10
-7.333799751
 20
-59.6843656228
 10
-7.3815068588
 20
-59.6975498965
 10
-7.4275498893
 20
-59.7137217532
 10
-7.4716544593
 20
-59.7327402093
 10
-7.5140949521
 20
-59.7547462485
 10
-7.5551864055
 20
-59.7799440251
 10
-7.5952209675
 20
-59.8085050831
 10
-7.6339064901
 20
-59.8402578785
 10
-7.6706815681
 20
-59.8748919334
 10
-7.7053590664
 20
-59.9123037551
 10
-7.7381261202
 20
-59.9525968364
 10
-7.7689827294
 20
-59.9957711771
  0
LWPOLYLINE
  5
2F1
100
AcDbEntity
  8
0
100
AcDbPolyline
 62
7
  6
CONTINUOUS
 90
28
 70
0
 10
-2.7286536761
 20
-59.9128442681
 10
-2.764540836
 20
-59.8747855148
 10
-2.8031830912
 20
-59.8387236298
 10
-2.8428281826
 20
-59.8061245609
 10
-2.8828567044
 20
-59.7775741784
 10
-2.9238880625
 20
-59.7524866119
 10
-2.9660282154
 20
-59.7305701977
 10
-3.0091552586
 20
-59.7117711023
 10
-3.0533910966
 20
-59.6961431593
 10
-3.0992074012
 20
-59.6835562061
 10
-3.1470803104
 20
-59.6738649002
 10
-3.1965336862
 20
-59.6672145842
 10
-3.2466107862
 20
-59.6639111226
 10
-3.2975859263
 20
-59.6641032952
 10
-3.3491847907
 20
-59.6676423221
 10
-3.3996276893
 20
-59.6743877289
 10
-3.4484907628
 20
-59.6843656228
 10
-3.4961978706
 20
-59.6975498965
 10
-3.5422409011
 20
-59.7137217532
 10
-3.5863454711
 20
-59.7327402093
 10
-3.6287859639
 20
-59.7547462485
 10
-3.6698774173
 20
-59.7799440251
 10
-3.7099119792
 20
-59.8085050831
 10
-3.7485975018
 20
-59.8402578785
 10
-3.7853725799
 20
-59.8748919334
 10
-3.8200500782
 20
-59.9123037551
 10
-3.852817132
 20
-59.9525968364
 10
-3.8836737412
 20
-59.9957711771
  0
LWPOLYLINE
  5
2F2
100
AcDbEntity
  8
0
100
AcDbPolyline
 62
7
  6
CONTINUOUS
 90
49
 70
0
 10
-3.9445001504
 20
-61.0493861392
 10
-3.9057252759
 20
-61.091426952
 10
-3.8656276482
 20
-61.1300125617
 10
-3.8242072673
 20
-61.1651429683
 10
-3.781475255
 20
-61.1967827472
 10
-3.7374204895
 20
-61.2249673229
 10
-3.6920096054
 20
-61.2498029694
 10
-3.6455644968
 20
-61.2712407477
 10
-3.5977632696
 20
-61.2893295968
 10
-3.547606876
 20
-61.3043226067
 10
-3.4941627463
 20
-61.31641663
 10
-3.4383634502
 20
-61.3254148141
 10
-3.3820076486
 20
-61.3309796919
 10
-3.3248255385
 20
-61.3329613035
 10
-3.267086923
 20
-61.3315096088
 10
-3.2113998717
 20
-61.3267370206
 10
-3.158687566
 20
-61.3185845725
 10
-3.1080268247
 20
-61.3071112309
 10
-3.0592561735
 20
-61.2926063075
 10
-3.0122932139
 20
-61.2750667671
 10
-2.9672203445
 20
-61.2544956451
 10
-2.9241232864
 20
-61.2311913584
 10
-2.8830449588
 20
-61.2052844849
 10
-2.8439424424
 20
-61.1766444469
 10
-2.806772701
 20
-61.1451779281
 10
-2.7715952945
 20
-61.111135292
 10
-2.738350663
 20
-61.0742661752
 10
-2.7068170899
 20
-61.033726171
 10
-2.6765836117
 20
-60.9889361853
 10
-2.6480611919
 20
-60.9404753122
 10
-2.6222610051
 20
-60.8892364276
 10
-2.5992258223
 20
-60.8351378191
 10
-2.5789128724
 20
-60.7782611991
 10
-2.5622050173
 20
-60.719744581
 10
-2.5493511687
 20
-60.6596624715
 10
-2.5401024148
 20
-60.5979403637
 10
-2.5345948823
 20
-60.535492751
 10
-2.5329808028
 20
-60.4715179265
 10
-2.5351079446
 20
-60.4068175969
 10
-2.54065574
 20
-60.3447113754
 10
-2.5497343729
 20
-60.2861448278
 10
-2.5622336594
 20
-60.2301723884
 10
-2.5775024799
 20
-60.1772769734
 10
-2.5952245245
 20
-60.1280878349
 10
-2.6157161032
 20
-60.0819757209
 10
-2.6392750266
 20
-60.0375357912
 10
-2.6661046482
 20
-59.9941915378
 10
-2.6960016145
 20
-59.9525194687
 10
-2.7286536761
 20
-59.9128442681
  0
LWPOLYLINE
  5
2F3
100
AcDbEntity
  8
0
100
AcDbPolyline
 62
7
  6
CONTINUOUS
 90
13
 70
0
 10
-6.8839745306
 20
-59.1577168073
 10
-6.8710505666
 20
-59.1729353478
 10
-6.8587029707
 20
-59.1894240039
 10
-6.846931743
 20
-59.2071827759
 10
-6.8357274573
 20
-59.2262365678
 10
-6.8250995398
 20
-59.2465604754
 10
-6.8150762685
 20
-59.2680797862
 10
-6.8056814866
 20
-59.2908230796
 10
-6.7968913509
 20
-59.3147617761
 10
-6.7886626101
 20
-59.3397354247
 10
-6.7809808472
 20
-59.3656905419
 10
-6.7738604791
 20
-59.3926806112
 10
-6.7673015059
 20
-59.4207056326
  0
LWPOLYLINE
  5
2F4
100
AcDbEntity
  8
0
100
AcDbPolyline
 62
7
  6
CONTINUOUS
 90
13
 70
0
 10
-2.9986655423
 20
-59.1577168073
 10
-2.9857415784
 20
-59.1729353478
 10
-2.9733939825
 20
-59.1894240039
 10
-2.9616227548
 20
-59.2071827759
 10
-2.9504184691
 20
-59.2262365678
 10
-2.9397905515
 20
-59.2465604754
 10
-2.9297672802
 20
-59.2680797862
 10
-2.9203724983
 20
-59.2908230796
 10
-2.9115823627
 20
-59.3147617761
 10
-2.9033536219
 20
-59.3397354247
 10
-2.8956718589
 20
-59.3656905419
 10
-2.8885514908
 20
-59.3926806112
 10
-2.8819925177
 20
-59.4207056326
  0
LWPOLYLINE
  5
2F5
100
AcDbEntity
  8
0
100
AcDbPolyline
 62
7
  6
CONTINUOUS
 90
19
 70
0
 10
-5.6623455497
 20
-60.8747322024
 10
-5.6810623458
 20
-60.8474313398
 10
-5.6982925346
 20
-60.8175268137
 10
-5.7140361161
 20
-60.7850186242
 10
-5.7282354711
 20
-60.7497647593
 10
-5.7409482189
 20
-60.711907231
 10
-5.7523472168
 20
-60.6718720754
 10
-5.762349019
 20
-60.6296090005
 10
-5.7710370713
 20
-60.5851682983
 10
-5.7788345689
 20
-60.5391268817
 10
-5.7858759666
 20
-60.4917043963
 10
-5.7920268095
 20
-60.4426811966
 10
-5.7973069277
 20
-60.3919752592
 10
-5.8017077769
 20
-60.3396217455
 10
-5.8052379015
 20
-60.2855854941
 10
-5.8079427644
 20
-60.2296789975
 10
-5.8098375202
 20
-60.1718397531
 10
-5.8109070144
 20
-60.1121302634
 10
-5.8111512471
 20
-60.0505505286
  0
LINE
  5
2F6
100
AcDbEntity
  8
0
100
AcDbLine
 62
7
  6
CONTINUOUS
 10
-6.4354164839
 20
44.8968085103
 11
-6.24375
 21
45.0925531849
  0
LINE
  5
2F7
100
AcDbEntity
  8
0
100
AcDbLine
 62
7
  6
CONTINUOUS
 10
-1.9926498228
 20
42.0117021918
 11
-1.8201504808
 21
42.158510685
  0
LINE
  5
2F8
100
AcDbEntity
  8
0
100
AcDbLine
 62
7
  6
CONTINUOUS
 10
0.3361001772
 20
41.5712765753
 11
0.5085995192
 21
41.7180850685
  0
LINE
  5
2F9
100
AcDbEntity
  8
0
100
AcDbLine
 62
7
  6
CONTINUOUS
 10
1.8023495192
 20
42.55
 11
1.2848495192
 21
42.2074468493
  0
LINE
  5
2FA
100
AcDbEntity
  8
0
100
AcDbLine
 62
7
  6
CONTINUOUS
 10
1.2848495192
 20
41.8159573972
 11
1.8023495192
 21
42.158510685
  0
LINE
  5
2FB
100
AcDbEntity
  8
0
100
AcDbLine
 62
7
  6
CONTINUOUS
 10
-1.9926498228
 20
42.4031915069
 11
-2.3376499873
 21
42.2074468493
  0
LINE
  5
2FC
100
AcDbEntity
  8
0
100
AcDbLine
 62
7
  6
CONTINUOUS
 10
3.6135995192
 20
42.3542553425
 11
3.3548495192
 21
42.2074468493
  0
LINE
  5
2FD
100
AcDbEntity
  8
0
100
AcDbLine
 62
7
  6
CONTINUOUS
 10
5.5111001772
 20
40.4457446747
 11
5.7698501772
 21
40.5925531849
  0
LINE
  5
2FE
100
AcDbEntity
  8
0
100
AcDbLine
 62
7
  6
CONTINUOUS
 10
-0.0951501518
 20
41.7180850685
 11
-2.5101503163
 21
40.4946808562
  0
LINE
  5
2FF
100
AcDbEntity
  8
0
100
AcDbLine
 62
7
  6
CONTINUOUS
 10
-1.8201504808
 20
40.4946808562
 11
0.3361001772
 21
41.5712765753
  0
LINE
  5
300
100
AcDbEntity
  8
0
100
AcDbLine
 62
7
  6
CONTINUOUS
 10
7.4085998482
 20
41.2776595891
 11
7.7536005062
 21
41.4244680822
  0
LINE
  5
301
100
AcDbEntity
  8
0
100
AcDbLine
 62
7
  6
CONTINUOUS
 10
3.8723495192
 20
42.158510685
 11
4.1310995192
 21
42.2563830137
  0
LINE
  5
302
100
AcDbEntity
  8
0
100
AcDbLine
 62
7
  6
CONTINUOUS
 10
5.2523501772
 20
40.6414893493
 11
4.9936001772
 21
40.5436170205
  0
LINE
  5
303
100
AcDbEntity
  8
0
100
AcDbLine
 62
7
  6
CONTINUOUS
 10
9.2198498482
 20
40.6414893493
 11
8.9610998482
 21
40.5436170205
  0
LINE
  5
304
100
AcDbEntity
  8
0
100
AcDbLine
 62
7
  6
CONTINUOUS
 10
7.6673498482
 20
41.6691489041
 11
7.2361005062
 21
41.5223404109
  0
LINE
  5
305
100
AcDbEntity
  8
0
100
AcDbLine
 62
7
  6
CONTINUOUS
 10
5.0798498482
 20
40.2989361687
 11
5.5111001772
 21
40.4457446747
  0
LINE
  5
306
100
AcDbEntity
  8
0
100
AcDbLine
 62
7
  6
CONTINUOUS
 10
9.0473505062
 20
40.2989361687
 11
9.4785998482
 21
40.4457446747
  0
LWPOLYLINE
  5
307
100
AcDbEntity
  8
0
100
AcDbPolyline
 62
7
  6
CONTINUOUS
 90
34
 70
0
 10
2.6673308631
 20
-52.3105784516
 10
2.6494440936
 20
-52.2925192566
 10
2.6334098285
 20
-52.2735238382
 10
2.6192280678
 20
-52.2535921965
 10
2.6068861652
 20
-52.2327795513
 10
2.5963967669
 20
-52.2110306827
 10
2.5877978119
 20
-52.1881799311
 10
2.5810743191
 20
-52.1640036804
 10
2.5762412697
 20
-52.1387255466
 10
2.5733815459
 20
-52.1128507189
 10
2.5725055728
 20
-52.0861241774
 10
2.5736029254
 20
-52.058800942
 10
2.5767252111
 20
-52.0321512611
 10
2.5818420542
 20
-52.0066472306
 10
2.5889838305
 20
-51.9818167546
 10
2.5982932746
 20
-51.957513794
 10
2.6098477916
 20
-51.9336218002
 10
2.6235699764
 20
-51.9102573219
 10
2.6393703491
 20
-51.8876239655
 10
2.6572288034
 20
-51.8655740008
 10
2.6771654457
 20
-51.8442551581
 10
2.6991511143
 20
-51.8243142355
 10
2.7230353634
 20
-51.8059408078
 10
2.7489686389
 20
-51.7889453001
 10
2.7773731171
 20
-51.7734057856
 10
2.8085223772
 20
-51.7592447191
 10
2.84214284
 20
-51.7465396458
 10
2.8778359438
 20
-51.7356012739
 10
2.9155474402
 20
-51.7265479864
 10
2.9553315777
 20
-51.7192614004
 10
2.99695254
 20
-51.7136970756
 10
3.040331722
 20
-51.7098401983
 10
3.0855477288
 20
-51.7077055822
 10
3.1326005606
 20
-51.7072932272
  0
LWPOLYLINE
  5
308
100
AcDbEntity
  8
0
100
AcDbPolyline
 62
7
  6
CONTINUOUS
 90
34
 70
0
 10
11.6917104932
 20
-59.6293891629
 10
11.6738237237
 20
-59.6113299679
 10
11.6577894586
 20
-59.5923345495
 10
11.6436076979
 20
-59.5724029078
 10
11.6312657952
 20
-59.5515902626
 10
11.6207763969
 20
-59.529841394
 10
11.612177442
 20
-59.5069906424
 10
11.6054539492
 20
-59.4828143917
 10
11.6006208998
 20
-59.4575362579
 10
11.597761176
 20
-59.4316614302
 10
11.5968852029
 20
-59.4049348887
 10
11.5979825554
 20
-59.3776116533
 10
11.6011048411
 20
-59.3509619724
 10
11.6062216843
 20
-59.3254579419
 10
11.6133634605
 20
-59.3006274659
 10
11.6226729047
 20
-59.2763245053
 10
11.6342274216
 20
-59.2524325115
 10
11.6479496065
 20
-59.2290680332
 10
11.6637499792
 20
-59.2064346768
 10
11.6816084335
 20
-59.1843847121
 10
11.7015450757
 20
-59.1630658694
 10
11.7235307444
 20
-59.1431249468
 10
11.7474149935
 20
-59.1247515191
 10
11.773348269
 20
-59.1077560114
 10
11.8017527472
 20
-59.0922164969
 10
11.8329020073
 20
-59.0780554304
 10
11.8665224701
 20
-59.0653503571
 10
11.9022155739
 20
-59.0544119852
 10
11.9399270703
 20
-59.0453586977
 10
11.9797112077
 20
-59.0380721117
 10
12.0213321701
 20
-59.0325077869
 10
12.0647113521
 20
-59.0286509096
 10
12.1099273589
 20
-59.0265162935
 10
12.1569801907
 20
-59.0261039385
  0
LINE
  5
309
100
AcDbEntity
  8
0
100
AcDbLine
 62
7
  6
CONTINUOUS
 10
-2.9408033181
 20
-62.4957969412
 11
-1.9846530593
 21
-63.9392706004
  0
LWPOLYLINE
  5
30A
100
AcDbEntity
  8
0
100
AcDbPolyline
 62
7
  6
CONTINUOUS
 90
40
 70
0
 10
-4.9260244762
 20
-59.2293332712
 10
-4.9094692697
 20
-59.2546341884
 10
-4.8940719652
 20
-59.2819851704
 10
-4.879832563
 20
-59.3113862173
 10
-4.8668013458
 20
-59.3429466071
 10
-4.8549280308
 20
-59.3765570617
 10
-4.8440617689
 20
-59.4118897469
 10
-4.8342131482
 20
-59.4488175271
 10
-4.8253715805
 20
-59.4874675378
 10
-4.8173544526
 20
-59.5278933506
 10
-4.8101247932
 20
-59.5700310824
 10
-4.8037195735
 20
-59.6139446164
 10
-4.7980670935
 20
-59.6598791731
 10
-4.7931519511
 20
-59.7077928773
 10
-4.7889895485
 20
-59.7577276042
 10
-4.7855543917
 20
-59.8100542002
 10
-4.7828358549
 20
-59.8656433209
 10
-4.780844564
 20
-59.9236243107
 10
-4.7795869018
 20
-59.9817560495
 10
-4.7790881582
 20
-60.0399265442
 10
-4.7793230434
 20
-60.0982477879
 10
-4.7802220707
 20
-60.1548146397
 10
-4.7817556415
 20
-60.2089563361
 10
-4.7839533545
 20
-60.2613436406
 10
-4.7868345192
 20
-60.3120837025
 10
-4.7903850014
 20
-60.3612026302
 10
-4.7946189354
 20
-60.4086743153
 10
-4.7995980335
 20
-60.4545275817
 10
-4.8053154902
 20
-60.4987702088
 10
-4.8117781111
 20
-60.5413944172
 10
-4.8190680261
 20
-60.5824056927
 10
-4.8271568715
 20
-60.6218292176
 10
-4.836073011
 20
-60.6596398096
 10
-4.8459836664
 20
-60.6957674069
 10
-4.8568981061
 20
-60.73030524
 10
-4.8688070616
 20
-60.7631600784
 10
-4.88184995
 20
-60.7939821687
 10
-4.8960732434
 20
-60.8226549266
 10
-4.9114304696
 20
-60.8492949364
 10
-4.9279216287
 20
-60.8739021982
  0
LINE
  5
30B
100
AcDbEntity
  8
0
100
AcDbLine
 62
7
  6
CONTINUOUS
 10
-2.0610122886
 20
-63.2598632907
 11
-2.5435930393
 21
-62.4957969412
  0
LWPOLYLINE
  5
30C
100
AcDbEntity
  8
0
100
AcDbPolyline
 62
7
  6
CONTINUOUS
 90
10
 70
0
 10
-1.8063232738
 20
-63.6627650269
 10
-1.8303420348
 20
-63.6191656168
 10
-1.8554293997
 20
-63.5752672848
 10
-1.8815853686
 20
-63.531070031
 10
-1.908808074
 20
-63.4865644427
 10
-1.9370993833
 20
-63.4417599326
 10
-1.9664648992
 20
-63.3966847386
 10
-1.9969064891
 20
-63.3513482732
 10
-2.0284222856
 20
-63.3057411239
 10
-2.0610122886
 20
-63.2598632907
  0
LINE
  5
30D
100
AcDbEntity
  8
0
100
AcDbLine
 62
7
  6
CONTINUOUS
 10
-7.744243
 20
55.000104
 11
-8.893846
 21
51.419462
  0
LINE
  5
30E
100
AcDbEntity
  8
0
100
AcDbLine
 62
7
  6
CONTINUOUS
 10
-8.37382
 20
49.79987
 11
-6.704191
 21
55.000104
  0
LINE
  5
30F
100
AcDbEntity
  8
0
100
AcDbLine
 62
7
  6
CONTINUOUS
 10
-9.7895832419
 20
45.5329786986
 11
-9.3583332419
 21
46.8542553425
  0
LINE
  5
310
100
AcDbEntity
  8
0
100
AcDbLine
 62
7
  6
CONTINUOUS
 10
-10.0291667581
 20
44.75
 11
-9.8375
 21
45.3372340411
  0
LINE
  5
311
100
AcDbEntity
  8
0
100
AcDbLine
 62
7
  6
CONTINUOUS
 10
-9.55
 20
47.05
 11
-10.3166667581
 21
44.75
  0
LINE
  5
312
100
AcDbEntity
  8
0
100
AcDbLine
 62
7
  6
CONTINUOUS
 10
-11.13125
 20
47.05
 11
-11.85
 21
44.9946808562
  0
LINE
  5
313
100
AcDbEntity
  8
0
100
AcDbLine
 62
7
  6
CONTINUOUS
 10
-11.658333379
 20
44.75
 11
-10.9875
 21
46.5606383562
  0
LINE
  5
314
100
AcDbEntity
  8
0
100
AcDbLine
 62
7
  6
CONTINUOUS
 10
-6.24375
 20
45.0925531849
 11
-6.1479164839
 21
45.2882978767
  0
LINE
  5
315
100
AcDbEntity
  8
0
100
AcDbLine
 62
7
  6
CONTINUOUS
 10
-8.3751501518
 20
40.25
 11
-6.9951502341
 21
42.55
  0
LINE
  5
316
100
AcDbEntity
  8
0
100
AcDbLine
 62
7
  6
CONTINUOUS
 10
-7.5126502341
 20
42.55
 11
-8.7201501929
 21
40.5436170205
  0
LINE
  5
317
100
AcDbEntity
  8
0
100
AcDbLine
 62
7
  6
CONTINUOUS
 10
-6.4354164839
 20
45.3372340411
 11
-6.53125
 21
45.190425548
  0
LINE
  5
318
100
AcDbEntity
  8
0
100
AcDbLine
 62
7
  6
CONTINUOUS
 10
-3.7176501518
 20
42.3053191781
 11
-5.4426499873
 21
40.25
  0
LINE
  5
319
100
AcDbEntity
  8
0
100
AcDbLine
 62
7
  6
CONTINUOUS
 10
-4.9251499873
 20
40.25
 11
-3.2001501518
 21
42.3053191781
  0
LINE
  5
31A
100
AcDbEntity
  8
0
100
AcDbLine
 62
7
  6
CONTINUOUS
 10
0.0773501772
 20
41.913829726
 11
-0.0951501518
 21
41.7180850685
  0
LINE
  5
31B
100
AcDbEntity
  8
0
100
AcDbLine
 62
7
  6
CONTINUOUS
 10
3.3548495192
 20
42.2074468493
 11
3.1823501772
 21
42.0117021918
  0
LINE
  5
31C
100
AcDbEntity
  8
0
100
AcDbLine
 62
7
  6
CONTINUOUS
 10
5.7698501772
 20
40.5925531849
 11
5.9423495192
 21
40.7882978767
  0
LINE
  5
31D
100
AcDbEntity
  8
0
100
AcDbLine
 62
7
  6
CONTINUOUS
 10
3.5273498482
 20
41.8648935616
 11
3.8723495192
 21
42.158510685
  0
LINE
  5
31E
100
AcDbEntity
  8
0
100
AcDbLine
 62
7
  6
CONTINUOUS
 10
5.5973498482
 20
40.9351063699
 11
5.2523501772
 21
40.6414893493
  0
LINE
  5
31F
100
AcDbEntity
  8
0
100
AcDbLine
 62
7
  6
CONTINUOUS
 10
9.3923491902
 20
40.7882978767
 11
9.2198498482
 21
40.6414893493
  0
LINE
  5
320
100
AcDbEntity
  8
ASSI
100
AcDbLine
 62
7
  6
CONTINUOUS
 10
8.3185498098
 20
37.0682818397
 11
6.793186
 21
35.782847
  0
LINE
  5
321
100
AcDbEntity
  8
0
100
AcDbLine
 62
7
  6
CONTINUOUS
 10
9.4785998482
 20
40.4457446747
 11
9.7373498482
 21
40.6414893493
  0
LWPOLYLINE
  5
322
100
AcDbEntity
  8
0
100
AcDbPolyline
 62
7
  6
CONTINUOUS
 90
10
 70
0
 10
0.5235812169
 20
-53.2878340686
 10
0.4949717449
 20
-53.2455458073
 10
0.4661281643
 20
-53.2046838078
 10
0.4370504751
 20
-53.1652480701
 10
0.4077181913
 20
-53.127226179
 10
0.378151799
 20
-53.0906305498
 10
0.3484127561
 20
-53.0554984279
 10
0.3185215488
 20
-53.0218422287
 10
0.288457691
 20
-52.989649537
 10
0.2582211827
 20
-52.9589203527
  0
LWPOLYLINE
  5
323
100
AcDbEntity
  8
0
100
AcDbPolyline
 62
7
  6
CONTINUOUS
 90
10
 70
0
 10
7.8026072
 20
-60.6066447799
 10
7.7739977279
 20
-60.5643565186
 10
7.7451541473
 20
-60.5234945191
 10
7.7160764581
 20
-60.4840587814
 10
7.6867441743
 20
-60.4460368903
 10
7.657177782
 20
-60.4094412611
 10
7.6274387391
 20
-60.3743091392
 10
7.5975475318
 20
-60.34065294
 10
7.567483674
 20
-60.3084602483
 10
7.5372471657
 20
-60.277731064
  0
LINE
  5
324
100
AcDbEntity
  8
0
100
AcDbLine
 62
7
  6
CONTINUOUS
 10
0.2285786384
 20
-53.4481411371
 11
0.5567809221
 21
-53.9686644742
  0
LINE
  5
325
100
AcDbEntity
  8
0
100
AcDbLine
 62
7
  6
CONTINUOUS
 10
7.5076046214
 20
-60.7669518484
 11
7.8358069052
 21
-61.2874751855
  0
LINE
  5
326
100
AcDbEntity
  8
0
100
AcDbLine
 62
7
  6
CONTINUOUS
 10
0.9490111757
 20
-53.9686644742
 11
0.5235812169
 21
-53.2878340686
  0
LINE
  5
327
100
AcDbEntity
  8
0
100
AcDbLine
 62
7
  6
CONTINUOUS
 10
8.2280371587
 20
-61.2874751855
 11
7.8026072
 21
-60.6066447799
  0
LINE
  5
328
100
AcDbEntity
  8
0
100
AcDbLine
 62
7
  6
CONTINUOUS
 10
-4.9097803397
 20
-65.0
 11
-5.9128844276
 21
-62.4957969412
  0
LINE
  5
329
100
AcDbEntity
  8
0
100
AcDbLine
 62
7
  6
CONTINUOUS
 10
-4.4333653345
 20
-57.635658324
 11
-5.4364694224
 21
-55.1314552652
  0
LINE
  5
32A
100
AcDbEntity
  8
0
100
AcDbLine
 62
7
  6
CONTINUOUS
 10
-5.914544436
 20
-63.2797831601
 11
-5.6449155771
 21
-63.9679648
  0
LINE
  5
32B
100
AcDbEntity
  8
0
100
AcDbLine
 62
7
  6
CONTINUOUS
 10
-5.4381294308
 20
-55.9154414841
 11
-5.1685005719
 21
-56.603623124
  0
LINE
  5
32C
100
AcDbEntity
  8
0
100
AcDbLine
 62
7
  6
CONTINUOUS
 10
-10.0
 20
-55.1314552652
 11
-9.0372099391
 21
-57.635658324
  0
LINE
  5
32D
100
AcDbEntity
  8
0
100
AcDbLine
 62
7
  6
CONTINUOUS
 10
-10.0
 20
-51.4644614154
 11
-9.0372099391
 21
-53.9686644742
  0
LINE
  5
32E
100
AcDbEntity
  8
0
100
AcDbLine
 62
7
  6
CONTINUOUS
 10
-5.5441309728
 20
-64.2411505882
 11
-5.2647796706
 21
-65.0
  0
LINE
  5
32F
100
AcDbEntity
  8
0
100
AcDbLine
 62
7
  6
CONTINUOUS
 10
-5.0677159676
 20
-56.8768089122
 11
-4.7883646654
 21
-57.635658324
  0
LINE
  5
330
100
AcDbEntity
  8
0
100
AcDbLine
 62
7
  6
CONTINUOUS
 10
-6.1694705948
 20
-51.8438861213
 11
-5.4473778175
 21
-53.9686644742
  0
LWPOLYLINE
  5
331
100
AcDbEntity
  8
0
100
AcDbPolyline
 62
7
  6
CONTINUOUS
 90
10
 70
0
 10
-6.0919254136
 20
-62.7538057412
 10
-6.074979292
 20
-62.810210897
 10
-6.0572960199
 20
-62.8671255029
 10
-6.0388755973
 20
-62.9245495588
 10
-6.0196561157
 20
-62.9824834051
 10
-5.9996994835
 20
-63.0409267014
 10
-5.9791914269
 20
-63.0998784271
 10
-5.9581938544
 20
-63.1593382421
 10
-5.9366448574
 20
-63.2193064864
 10
-5.914544436
 20
-63.2797831601
  0
LWPOLYLINE
  5
332
100
AcDbEntity
  8
0
100
AcDbPolyline
 62
7
  6
CONTINUOUS
 90
10
 70
0
 10
-8.8633858908
 20
-57.3548839258
 10
-8.8758278867
 20
-57.3108819863
 10
-8.8888151953
 20
-57.2665221849
 10
-8.9023478167
 20
-57.2218045215
 10
-8.9164343987
 20
-57.1767263896
 10
-8.9310662934
 20
-57.1312903958
 10
-8.9462175569
 20
-57.0855043599
 10
-8.9618795411
 20
-57.0393708886
 10
-8.978060894
 20
-56.9928873752
 10
-9.6450009007
 20
-55.1314552652
  0
LWPOLYLINE
  5
333
100
AcDbEntity
  8
0
100
AcDbPolyline
 62
7
  6
CONTINUOUS
 90
10
 70
0
 10
-8.8633858908
 20
-53.6878900761
 10
-8.8758278867
 20
-53.6438881366
 10
-8.8888151953
 20
-53.5995283351
 10
-8.9023478167
 20
-53.5548106717
 10
-8.9164343987
 20
-53.5097325398
 10
-8.9310662934
 20
-53.464296546
 10
-8.9462175569
 20
-53.4185105101
 10
-8.9618795411
 20
-53.3723770388
 10
-8.978060894
 20
-53.3258935254
 10
-9.6450009007
 20
-51.4644614154
  0
LINE
  5
334
100
AcDbEntity
  8
0
100
AcDbLine
 62
7
  6
CONTINUOUS
 10
-6.1479164839
 20
45.2882978767
 11
-6.1
 21
45.5329786986
  0
LINE
  5
335
100
AcDbEntity
  8
0
100
AcDbLine
 62
7
  6
CONTINUOUS
 10
-6.3875
 20
45.5329786986
 11
-6.4354164839
 21
45.3372340411
  0
LINE
  5
336
100
AcDbEntity
  8
0
100
AcDbLine
 62
7
  6
CONTINUOUS
 10
-0.416364
 20
55.000104
 11
-1.387451
 21
51.613526
  0
LINE
  5
337
100
AcDbEntity
  8
0
100
AcDbLine
 62
7
  6
CONTINUOUS
 10
-2.3376499873
 20
42.2074468493
 11
-2.4239001518
 21
42.0117021918
  0
LINE
  5
338
100
AcDbEntity
  8
0
100
AcDbLine
 62
7
  6
CONTINUOUS
 10
0.5085995192
 20
41.7180850685
 11
0.5948501772
 21
41.913829726
  0
LINE
  5
339
100
AcDbEntity
  8
0
100
AcDbLine
 62
7
  6
CONTINUOUS
 10
3.1823501772
 20
42.0117021918
 11
3.0960995192
 21
41.8648935616
  0
LINE
  5
33A
100
AcDbEntity
  8
0
100
AcDbLine
 62
7
  6
CONTINUOUS
 10
5.9423495192
 20
40.7882978767
 11
6.0286001772
 21
40.9351063699
  0
LINE
  5
33B
100
AcDbEntity
  8
0
100
AcDbLine
 62
7
  6
CONTINUOUS
 10
12.7791659355
 20
47.05
 11
12.15625
 21
46.1202127397
  0
LINE
  5
33C
100
AcDbEntity
  8
0
100
AcDbLine
 62
7
  6
CONTINUOUS
 10
12.3
 20
45.9244680822
 11
13.0666659355
 21
47.05
  0
LINE
  5
33D
100
AcDbEntity
  8
0
100
AcDbLine
 62
7
  6
CONTINUOUS
 10
9.7373498482
 20
40.6414893493
 11
9.9098491902
 21
40.8861702055
  0
LINE
  5
33E
100
AcDbEntity
  8
ASSI
100
AcDbLine
 62
7
  6
CONTINUOUS
 10
6.793186
 20
35.115206
 11
8.247775691
 21
36.3409977396
  0
LINE
  5
33F
100
AcDbEntity
  8
0
100
AcDbLine
 62
7
  6
CONTINUOUS
 10
9.5690662052
 20
-55.7150577643
 11
10.8228278588
 21
-57.635658324
  0
LINE
  5
340
100
AcDbEntity
  8
0
100
AcDbLine
 62
7
  6
CONTINUOUS
 10
10.8439332169
 20
-57.0520555933
 11
9.5901717949
 21
-55.1314552652
  0
LWPOLYLINE
  5
341
100
AcDbEntity
  8
0
100
AcDbPolyline
 62
7
  6
CONTINUOUS
 90
22
 70
0
 10
4.404858872
 20
-57.0375900373
 10
4.4343005004
 20
-57.1013664268
 10
4.4654675964
 20
-57.1611300642
 10
4.49836016
 20
-57.2168809494
 10
4.5330483424
 20
-57.2684009017
 10
4.5694619923
 20
-57.3159081019
 10
4.6073906559
 20
-57.3600570922
 10
4.6467168624
 20
-57.4009185548
 10
4.6875580825
 20
-57.4384218076
 10
4.7300562745
 20
-57.4730093463
 10
4.7738802582
 20
-57.5046451847
 10
4.8193612139
 20
-57.5333653089
 10
4.8676346406
 20
-57.5597201726
 10
4.9188112406
 20
-57.5839711938
 10
4.9727803116
 20
-57.6058569545
 10
5.0303452463
 20
-57.625143654
 10
5.0918643464
 20
-57.6419247172
 10
5.1569793102
 20
-57.6561067193
 10
5.2254186254
 20
-57.6671755851
 10
5.297091788
 20
-57.674959956
 10
5.3720893021
 20
-57.6796311905
 10
5.4504111676
 20
-57.6811892887
  0
LINE
  5
342
100
AcDbEntity
  8
0
100
AcDbLine
 62
7
  6
CONTINUOUS
 10
-1.5193835933
 20
-53.9686644742
 11
-2.5224876812
 21
-51.4644614154
  0
LINE
  5
343
100
AcDbEntity
  8
0
100
AcDbLine
 62
7
  6
CONTINUOUS
 10
5.7596423897
 20
-61.2874751855
 11
4.7565383018
 21
-58.7832721267
  0
LINE
  5
344
100
AcDbEntity
  8
0
100
AcDbLine
 62
7
  6
CONTINUOUS
 10
-2.5241476896
 20
-52.2484476343
 11
-2.2545188307
 21
-52.9366292742
  0
LINE
  5
345
100
AcDbEntity
  8
0
100
AcDbLine
 62
7
  6
CONTINUOUS
 10
4.7548782934
 20
-59.5672583456
 11
5.0245071523
 21
-60.2554399855
  0
LINE
  5
346
100
AcDbEntity
  8
0
100
AcDbLine
 62
7
  6
CONTINUOUS
 10
0.8515465882
 20
-55.1314552652
 11
1.8143366491
 21
-57.635658324
  0
LINE
  5
347
100
AcDbEntity
  8
0
100
AcDbLine
 62
7
  6
CONTINUOUS
 10
-2.1537342264
 20
-53.2098150625
 11
-1.8743829242
 21
-53.9686644742
  0
LINE
  5
348
100
AcDbEntity
  8
0
100
AcDbLine
 62
7
  6
CONTINUOUS
 10
5.1252917566
 20
-60.5286257738
 11
5.4046430588
 21
-61.2874751855
  0
LINE
  5
349
100
AcDbEntity
  8
0
100
AcDbLine
 62
7
  6
CONTINUOUS
 10
1.1095553882
 20
-59.1626968326
 11
1.8316481655
 21
-61.2874751855
  0
LINE
  5
34A
100
AcDbEntity
  8
0
100
AcDbLine
 62
7
  6
CONTINUOUS
 10
-5.3736682629
 20
-53.3173466732
 11
-5.9944608262
 21
-51.4644614154
  0
LINE
  5
34B
100
AcDbEntity
  8
0
100
AcDbLine
 62
7
  6
CONTINUOUS
 10
1.9053577202
 20
-60.6361573845
 11
1.2845651568
 21
-58.7832721267
  0
LINE
  5
34C
100
AcDbEntity
  8
0
100
AcDbLine
 62
7
  6
CONTINUOUS
 10
-5.333122471
 20
-53.4412214426
 11
-5.3736682629
 21
-53.3173466732
  0
LINE
  5
34D
100
AcDbEntity
  8
0
100
AcDbLine
 62
7
  6
CONTINUOUS
 10
1.9459035121
 20
-60.7600321539
 11
1.9053577202
 21
-60.6361573845
  0
LINE
  5
34E
100
AcDbEntity
  8
0
100
AcDbLine
 62
7
  6
CONTINUOUS
 10
-5.306967204
 20
-53.5227689931
 11
-5.333122471
 21
-53.4412214426
  0
LINE
  5
34F
100
AcDbEntity
  8
0
100
AcDbLine
 62
7
  6
CONTINUOUS
 10
1.972058779
 20
-60.8415797044
 11
1.9459035121
 21
-60.7600321539
  0
LINE
  5
350
100
AcDbEntity
  8
0
100
AcDbLine
 62
7
  6
CONTINUOUS
 10
-5.2816166672
 20
-53.6034681803
 11
-5.306967204
 21
-53.5227689931
  0
LINE
  5
351
100
AcDbEntity
  8
0
100
AcDbLine
 62
7
  6
CONTINUOUS
 10
1.9974093158
 20
-60.9222788916
 11
1.972058779
 21
-60.8415797044
  0
LWPOLYLINE
  5
352
100
AcDbEntity
  8
0
100
AcDbPolyline
 62
7
  6
CONTINUOUS
 90
10
 70
0
 10
-5.6155104084
 20
-55.3894640652
 10
-5.5985642868
 20
-55.445869221
 10
-5.5808810147
 20
-55.5027838269
 10
-5.5624605921
 20
-55.5602078828
 10
-5.5432411105
 20
-55.6181417291
 10
-5.5232844783
 20
-55.6765850254
 10
-5.5027764217
 20
-55.7355367511
 10
-5.4817788492
 20
-55.794996566
 10
-5.4602298522
 20
-55.8549648104
 10
-5.4381294308
 20
-55.9154414841
  0
LWPOLYLINE
  5
353
100
AcDbEntity
  8
0
100
AcDbPolyline
 62
7
  6
CONTINUOUS
 90
10
 70
0
 10
-2.7015286673
 20
-51.7224702154
 10
-2.6845825456
 20
-51.7788753712
 10
-2.6668992735
 20
-51.8357899771
 10
-2.648478851
 20
-51.893214033
 10
-2.6292593693
 20
-51.9511478793
 10
-2.6093027371
 20
-52.0095911756
 10
-2.5887946805
 20
-52.0685429014
 10
-2.567797108
 20
-52.1280027163
 10
-2.5462481111
 20
-52.1879709606
 10
-2.5241476896
 20
-52.2484476343
  0
LWPOLYLINE
  5
354
100
AcDbEntity
  8
0
100
AcDbPolyline
 62
7
  6
CONTINUOUS
 90
11
 70
0
 10
-8.0407123232
 20
-60.5380513725
 10
-8.0282744173
 20
-60.6037892559
 10
-8.0137661924
 20
-60.6664984218
 10
-7.9972131309
 20
-60.7260981744
 10
-7.9786962166
 20
-60.7824211875
 10
-7.9581204678
 20
-60.8354793508
 10
-7.9355808662
 20
-60.8852607747
 10
-7.9114433396
 20
-60.9315624649
 10
-7.8858298641
 20
-60.9743167566
 10
-7.8586184638
 20
-61.0135913147
 10
-7.8298091386
 20
-61.0493861392
  0
LWPOLYLINE
  5
355
100
AcDbEntity
  8
0
100
AcDbPolyline
 62
7
  6
CONTINUOUS
 90
11
 70
0
 10
-4.1554033349
 20
-60.5380513725
 10
-4.1429654291
 20
-60.6037892559
 10
-4.1284572041
 20
-60.6664984218
 10
-4.1119041427
 20
-60.7260981744
 10
-4.0933872284
 20
-60.7824211875
 10
-4.0728114796
 20
-60.8354793508
 10
-4.0502718779
 20
-60.8852607747
 10
-4.0261343514
 20
-60.9315624649
 10
-4.0005208759
 20
-60.9743167566
 10
-3.9733094756
 20
-61.0135913147
 10
-3.9445001504
 20
-61.0493861392
  0
LWPOLYLINE
  5
356
100
AcDbEntity
  8
0
100
AcDbPolyline
 62
7
  6
CONTINUOUS
 90
18
 70
0
 10
-8.3688507574
 20
-60.4330475937
 10
-8.3772708326
 20
-60.3862031916
 10
-8.3882766243
 20
-60.3419429966
 10
-8.4018151338
 20
-60.3007592143
 10
-8.4179393598
 20
-60.2621596389
 10
-8.4363957225
 20
-60.225422787
 10
-8.4571100128
 20
-60.190333429
 10
-8.4801564399
 20
-60.1571067944
 10
-8.5055040511
 20
-60.1256670885
 10
-8.5331209097
 20
-60.0959182418
 10
-8.5630389525
 20
-60.0679563237
 10
-8.5953230371
 20
-60.0419937476
 10
-8.6298850835
 20
-60.0180211205
 10
-8.6668131716
 20
-59.9960478354
 10
-8.7064363988
 20
-59.9763144847
 10
-8.7488644644
 20
-59.9589012658
 10
-8.7939876691
 20
-59.9437279812
 10
-8.8418060129
 20
-59.9307946311
  0
LWPOLYLINE
  5
357
100
AcDbEntity
  8
0
100
AcDbPolyline
 62
7
  6
CONTINUOUS
 90
57
 70
0
 10
-6.4637617412
 20
-59.3903516561
 10
-6.4725810388
 20
-59.3353650741
 10
-6.4838055761
 20
-59.283310658
 10
-6.497435353
 20
-59.2341884079
 10
-6.5134821048
 20
-59.1882328809
 10
-6.5319340963
 20
-59.1452095199
 10
-6.5527561217
 20
-59.1044146536
 10
-6.5760087723
 20
-59.0656312456
 10
-6.6016314568
 20
-59.0290763323
 10
-6.6294071958
 20
-58.9946973516
 10
-6.6593479736
 20
-58.9623876936
 10
-6.6914418058
 20
-58.9322539681
 10
-6.7254357596
 20
-58.9045634432
 10
-6.7611195478
 20
-58.8794052759
 10
-6.7987034574
 20
-58.8566903092
 10
-6.8385654174
 20
-58.8364183396
 10
-6.8806930108
 20
-58.8184793577
 10
-6.9250986544
 20
-58.8029833729
 10
-6.9721975281
 20
-58.7902602107
 10
-7.0224458281
 20
-58.7802902214
 10
-7.0753873581
 20
-58.7730930547
 10
-7.1300687083
 20
-58.7690574844
 10
-7.1873916218
 20
-58.7683016925
 10
-7.2464543555
 20
-58.7707074969
 10
-7.3035982697
 20
-58.7763091253
 10
-7.3577661926
 20
-58.7852453192
 10
-7.410015296
 20
-58.797377337
 10
-7.4598584563
 20
-58.8123231815
 10
-7.5068367921
 20
-58.8298910923
 10
-7.5514091849
 20
-58.8502728297
 10
-7.5944651551
 20
-58.8736616777
 10
-7.636320526
 20
-58.9000661129
 10
-7.6766594744
 20
-58.9294776587
 10
-7.7154240516
 20
-58.9620641692
 10
-7.7526398893
 20
-58.9977036584
 10
-7.7882813559
 20
-59.0365181124
 10
-7.8222136075
 20
-59.0790413437
 10
-7.8545117161
 20
-59.1253078632
 10
-7.8851006097
 20
-59.1752831599
 10
-7.9136202291
 20
-59.2293975133
 10
-7.9400664653
 20
-59.2878679844
 10
-7.9644434272
 20
-59.3504775121
 10
-7.9864033825
 20
-59.4170051929
 10
-8.0058597539
 20
-59.4874461781
 10
-8.0228991186
 20
-59.5618053164
 10
-8.0374334765
 20
-59.6398762502
 10
-8.049421608
 20
-59.7224768038
 10
-8.0589047326
 20
-59.8087891529
 10
-8.0659185096
 20
-59.8961534672
 10
-8.0703550882
 20
-59.9851623349
 10
-8.0723223191
 20
-60.0752231676
 10
-8.0721794135
 20
-60.1618983704
 10
-8.070025854
 20
-60.2436415932
 10
-8.065762158
 20
-60.3219991859
 10
-8.0594490899
 20
-60.3971726031
 10
-8.0511053926
 20
-60.4692040756
 10
-8.0407123232
 20
-60.5380513725
  0
LWPOLYLINE
  5
358
100
AcDbEntity
  8
0
100
AcDbPolyline
 62
7
  6
CONTINUOUS
 90
50
 70
0
 10
-10.0
 20
-60.6348646914
 10
-9.9920599499
 20
-60.6923200436
 10
-9.9813937422
 20
-60.7469219053
 10
-9.9680013769
 20
-60.7986702766
 10
-9.951878684
 20
-60.8472825612
 10
-9.9330298336
 20
-60.8930413554
 10
-9.9114673348
 20
-60.9367944478
 10
-9.8872727433
 20
-60.9786833711
 10
-9.8603645034
 20
-61.0185665926
 10
-9.8305104582
 20
-61.0568673031
 10
-9.7972625841
 20
-61.0941096304
 10
-9.7610689046
 20
-61.1297694468
 10
-9.7230413329
 20
-61.1626975598
 10
-9.6835021321
 20
-61.1925654689
 10
-9.642129039
 20
-61.2197016747
 10
-9.5990671776
 20
-61.243942486
 10
-9.5547232403
 20
-61.265203853
 10
-9.5086905347
 20
-61.2835698255
 10
-9.4598941073
 20
-61.299128862
 10
-9.4078094882
 20
-61.312078799
 10
-9.3529611473
 20
-61.3222217999
 10
-9.2958475418
 20
-61.3290528138
 10
-9.2354539823
 20
-61.3324492912
 10
-9.1727951581
 20
-61.3325337815
 10
-9.1114135935
 20
-61.3291688824
 10
-9.052028769
 20
-61.3221682429
 10
-8.9939212041
 20
-61.3117182139
 10
-8.9384749817
 20
-61.2982404458
 10
-8.8864314949
 20
-61.2818834429
 10
-8.8370493505
 20
-61.2624987009
 10
-8.789488452
 20
-61.2400623565
 10
-8.7434756558
 20
-61.2145314026
 10
-8.6992841054
 20
-61.1859488463
 10
-8.6568931356
 20
-61.1544198453
 10
-8.6158290788
 20
-61.1194813058
 10
-8.5765656025
 20
-61.0815963216
 10
-8.5405030437
 20
-61.0422593313
 10
-8.508041769
 20
-61.0017407786
 10
-8.4787814119
 20
-60.9597702199
 10
-8.4529212097
 20
-60.9170307628
 10
-8.4306755661
 20
-60.8740409459
 10
-8.4118300774
 20
-60.8302822308
 10
-8.3959407698
 20
-60.7848821091
 10
-8.3827992007
 20
-60.7373477358
 10
-8.3726138127
 20
-60.688171956
 10
-8.3655659607
 20
-60.6379607967
 10
-8.3617625105
 20
-60.5859614493
 10
-8.3610965963
 20
-60.5329267225
 10
-8.3634289749
 20
-60.4817210686
 10
-8.3688507574
 20
-60.4330475937
  0
LINE
  5
359
100
AcDbEntity
  8
0
100
AcDbLine
 62
7
  6
CONTINUOUS
 10
-13.5
 20
56.75
 11
-13.5
 21
29.75
  0
LINE
  5
35A
100
AcDbEntity
  8
0
100
AcDbLine
 62
7
  6
CONTINUOUS
 10
-13.0
 20
47.05
 11
-13.0
 21
44.75
  0
LINE
  5
35B
100
AcDbEntity
  8
0
100
AcDbLine
 62
7
  6
CONTINUOUS
 10
-12.7125
 20
44.75
 11
-12.7125
 21
46.5606383562
  0
LINE
  5
35C
100
AcDbEntity
  8
0
100
AcDbLine
 62
7
  6
CONTINUOUS
 10
-10.9875
 20
46.5606383562
 11
-10.9875
 21
44.75
  0
LINE
  5
35D
100
AcDbEntity
  8
0
100
AcDbLine
 62
7
  6
CONTINUOUS
 10
-10.7
 20
44.75
 11
-10.7
 21
47.05
  0
LINE
  5
35E
100
AcDbEntity
  8
0
100
AcDbLine
 62
7
  6
CONTINUOUS
 10
-10.0
 20
-62.4957969412
 11
-10.0
 21
-65.0
  0
LINE
  5
35F
100
AcDbEntity
  8
0
100
AcDbLine
 62
7
  6
CONTINUOUS
 10
-9.6661062588
 20
-65.0
 11
-9.6661062588
 21
-62.4957969412
  0
LINE
  5
360
100
AcDbEntity
  8
0
100
AcDbLine
 62
7
  6
CONTINUOUS
 10
-9.2563275765
 20
-62.4957969412
 11
-9.2563275765
 21
-62.7841597177
  0
LINE
  5
361
100
AcDbEntity
  8
0
100
AcDbLine
 62
7
  6
CONTINUOUS
 10
-8.4367702118
 20
-62.7841597177
 11
-8.4367702118
 21
-65.0
  0
LINE
  5
362
100
AcDbEntity
  8
0
100
AcDbLine
 62
7
  6
CONTINUOUS
 10
-8.1028764706
 20
-65.0
 11
-8.1028764706
 21
-62.7841597177
  0
LINE
  5
363
100
AcDbEntity
  8
0
100
AcDbLine
 62
7
  6
CONTINUOUS
 10
-8.0166664839
 20
47.05
 11
-8.0166664839
 21
44.75
  0
LINE
  5
364
100
AcDbEntity
  8
0
100
AcDbLine
 62
7
  6
CONTINUOUS
 10
-7.7291664839
 20
45.0436170205
 11
-7.7291664839
 21
46.7563830137
  0
LINE
  5
365
100
AcDbEntity
  8
0
100
AcDbLine
 62
7
  6
CONTINUOUS
 10
-7.3988066419
 20
-51.4644614154
 11
-7.3988066419
 21
-53.9686644742
  0
LINE
  5
366
100
AcDbEntity
  8
0
100
AcDbLine
 62
7
  6
CONTINUOUS
 10
-7.3988066419
 20
-55.1314552652
 11
-7.3988066419
 21
-57.635658324
  0
LINE
  5
367
100
AcDbEntity
  8
0
100
AcDbLine
 62
7
  6
CONTINUOUS
 10
-7.2833191059
 20
-62.7841597177
 11
-7.2833191059
 21
-62.4957969412
  0
LINE
  5
368
100
AcDbEntity
  8
0
100
AcDbLine
 62
7
  6
CONTINUOUS
 10
-7.0649129007
 20
-57.635658324
 11
-7.0649129007
 21
-55.1314552652
  0
LINE
  5
369
100
AcDbEntity
  8
0
100
AcDbLine
 62
7
  6
CONTINUOUS
 10
-7.0649129007
 20
-53.9686644742
 11
-7.0649129007
 21
-51.4644614154
  0
LWPOLYLINE
  5
36A
100
AcDbEntity
  8
0
100
AcDbPolyline
 62
7
  6
CONTINUOUS
 90
19
 70
0
 10
-7.7689827294
 20
-59.9957711771
 10
-7.7678286832
 20
-59.9220494859
 10
-7.764718861
 20
-59.8509380928
 10
-7.7596532628
 20
-59.7824369979
 10
-7.7527103117
 20
-59.7164423849
 10
-7.7438115846
 20
-59.6530580701
 10
-7.7327218121
 20
-59.5925955016
 10
-7.7193172896
 20
-59.5350639611
 10
-7.7037217216
 20
-59.480454167
 10
-7.6860709523
 20
-59.4290497226
 10
-7.666181291
 20
-59.3809776315
 10
-7.6442364283
 20
-59.3361108902
 10
-7.6209232799
 20
-59.2943520905
 10
-7.5962636698
 20
-59.2556953137
 10
-7.5702357741
 20
-59.2201464786
 10
-7.5434610368
 20
-59.1876259341
 10
-7.5161466059
 20
-59.15810713
 10
-7.4880853333
 20
-59.1316166165
 10
-7.4592772192
 20
-59.1081543936
  0
LWPOLYLINE
  5
36B
100
AcDbEntity
  8
0
100
AcDbPolyline
 62
7
  6
CONTINUOUS
 90
16
 70
0
 10
-8.8010179294
 20
-59.4164370395
 10
-8.8018092528
 20
-59.4453018492
 10
-8.8039912032
 20
-59.472962277
 10
-8.8075637807
 20
-59.4994183228
 10
-8.8125434742
 20
-59.5246606325
 10
-8.8189137948
 20
-59.5486985603
 10
-8.8266252748
 20
-59.5715601691
 10
-8.8356434253
 20
-59.5931460257
 10
-8.8460027351
 20
-59.6135555633
 10
-8.8577572037
 20
-59.6331151442
 10
-8.8709878387
 20
-59.651991373
 10
-8.8856136325
 20
-59.6700176452
 10
-8.9014455619
 20
-59.6870205094
 10
-8.9184206192
 20
-59.7029421487
 10
-8.9366018122
 20
-59.7178403801
 10
-8.9559891408
 20
-59.7317152036
  0
LINE
  5
36C
100
AcDbEntity
  8
0
100
AcDbLine
 62
7
  6
CONTINUOUS
 10
-0.867451
 20
49.799883
 11
0.115843
 21
53.229075
  0
LINE
  5
36D
100
AcDbEntity
  8
0
100
AcDbLine
 62
7
  6
CONTINUOUS
 10
3.4411001772
 20
41.5712765753
 11
3.5273498482
 21
41.8648935616
  0
LINE
  5
36E
100
AcDbEntity
  8
0
100
AcDbLine
 62
7
  6
CONTINUOUS
 10
3.518853
 20
55.000117
 11
1.84925
 21
49.79987
  0
LINE
  5
36F
100
AcDbEntity
  8
0
100
AcDbLine
 62
7
  6
CONTINUOUS
 10
2.889289
 20
49.799883
 11
3.21763
 21
50.822541
  0
LINE
  5
370
100
AcDbEntity
  8
0
100
AcDbLine
 62
7
  6
CONTINUOUS
 10
3.534869
 20
51.81058
 11
4.038892
 21
53.380512
  0
LINE
  5
371
100
AcDbEntity
  8
0
100
AcDbLine
 62
7
  6
CONTINUOUS
 10
7.3645840645
 20
45.5329786986
 11
7.7958340645
 21
46.8542553425
  0
LINE
  5
372
100
AcDbEntity
  8
0
100
AcDbLine
 62
7
  6
CONTINUOUS
 10
7.125
 20
44.75
 11
7.3166659355
 21
45.3372340411
  0
LINE
  5
373
100
AcDbEntity
  8
0
100
AcDbLine
 62
7
  6
CONTINUOUS
 10
7.6041659355
 20
47.05
 11
6.8375
 21
44.75
  0
LINE
  5
374
100
AcDbEntity
  8
0
100
AcDbLine
 62
7
  6
CONTINUOUS
 10
3.0960995192
 20
41.8648935616
 11
3.0098498482
 21
41.6202127397
  0
LINE
  5
375
100
AcDbEntity
  8
0
100
AcDbLine
 62
7
  6
CONTINUOUS
 10
6.0286001772
 20
40.9351063699
 11
6.1148498482
 21
41.1797872603
  0
LINE
  5
376
100
AcDbEntity
  8
ASSI
100
AcDbLine
 62
7
  6
CONTINUOUS
 10
5.2413280513
 20
33.0074530914
 11
5.4915758065
 21
33.4533146552
  0
LINE
  5
377
100
AcDbEntity
  8
0
100
AcDbLine
 62
7
  6
CONTINUOUS
 10
9.4785998482
 20
40.9351063699
 11
9.3923491902
 21
40.7882978767
  0
LINE
  5
378
100
AcDbEntity
  8
ASSI
100
AcDbLine
 62
7
  6
CONTINUOUS
 10
8.468797
 20
31.036901
 11
8.752489
 21
31.439077
  0
LWPOLYLINE
  5
379
100
AcDbEntity
  8
0
100
AcDbPolyline
 62
7
  6
CONTINUOUS
 90
22
 70
0
 10
16.7226449491
 20
-60.6894068988
 10
16.7520865775
 20
-60.7531832883
 10
16.7832536736
 20
-60.8129469257
 10
16.8161462371
 20
-60.868697811
 10
16.8508344195
 20
-60.9202177633
 10
16.8872480695
 20
-60.9677249634
 10
16.9251767331
 20
-61.0118739537
 10
16.9645029395
 20
-61.0527354164
 10
17.0053441596
 20
-61.0902386692
 10
17.0478423516
 20
-61.1248262078
 10
17.0916663353
 20
-61.1564620462
 10
17.137147291
 20
-61.1851821705
 10
17.1854207177
 20
-61.2115370342
 10
17.2365973177
 20
-61.2357880553
 10
17.2905663887
 20
-61.257673816
 10
17.3481313235
 20
-61.2769605155
 10
17.4096504235
 20
-61.2937415787
 10
17.4747653873
 20
-61.3079235809
 10
17.5432047026
 20
-61.3189924466
 10
17.6148778652
 20
-61.3267768175
 10
17.6898753792
 20
-61.3314480521
 10
17.7681972447
 20
-61.3330061502
  0
LINE
  5
37A
100
AcDbEntity
  8
0
100
AcDbLine
 62
7
  6
CONTINUOUS
 10
8.9375613008
 20
-53.9686644742
 11
7.9344572129
 21
-51.4644614154
  0
LINE
  5
37B
100
AcDbEntity
  8
0
100
AcDbLine
 62
7
  6
CONTINUOUS
 10
7.9327972045
 20
-52.2484476343
 11
8.2024260634
 21
-52.9366292742
  0
LINE
  5
37C
100
AcDbEntity
  8
0
100
AcDbLine
 62
7
  6
CONTINUOUS
 10
8.3032106677
 20
-53.2098150625
 11
8.5825619699
 21
-53.9686644742
  0
LWPOLYLINE
  5
37D
100
AcDbEntity
  8
0
100
AcDbPolyline
 62
7
  6
CONTINUOUS
 90
3
 70
0
 10
4.342746554
 20
-56.865083333
 10
4.3713962436
 20
-56.9526847097
 10
4.404858872
 20
-57.0375900373
  0
LWPOLYLINE
  5
37E
100
AcDbEntity
  8
0
100
AcDbPolyline
 62
7
  6
CONTINUOUS
 90
53
 70
0
 10
6.4274296405
 20
-55.8191623854
 10
6.4044949645
 20
-55.7479958995
 10
6.3788995309
 20
-55.6810055932
 10
6.3506433397
 20
-55.6181914667
 10
6.3196480298
 20
-55.5597838813
 10
6.2859919623
 20
-55.5055524756
 10
6.2499102202
 20
-55.4548061647
 10
6.2113991772
 20
-55.4074081385
 10
6.1704624595
 20
-55.3634952071
 10
6.1273460288
 20
-55.3227867168
 10
6.0821869615
 20
-55.2852092142
 10
6.0348481812
 20
-55.2508361528
 10
5.9851644201
 20
-55.2196072388
 10
5.9333358738
 20
-55.1914787878
 10
5.8791623468
 20
-55.1664944843
 10
5.8218779848
 20
-55.1447250889
 10
5.7612821453
 20
-55.1260229569
 10
5.6975754709
 20
-55.1105357329
 10
5.630594035
 20
-55.0987771116
 10
5.5594038425
 20
-55.0907622657
 10
5.4849388884
 20
-55.0864760224
 10
5.4098372319
 20
-55.0863865576
 10
5.3341025306
 20
-55.0906642794
 10
5.2577311268
 20
-55.0991387797
 10
5.1833501068
 20
-55.1117670105
 10
5.1116085859
 20
-55.1287493998
 10
5.0418574488
 20
-55.1498855195
 10
4.9747764361
 20
-55.1745310368
 10
4.9103604012
 20
-55.2026992743
 10
4.8486144907
 20
-55.2343769095
 10
4.7902338849
 20
-55.2688796414
 10
4.7355541575
 20
-55.3059592836
 10
4.6842397348
 20
-55.3458640225
 10
4.6359790766
 20
-55.3886541167
 10
4.5908917614
 20
-55.434018483
 10
4.5488582107
 20
-55.4822682046
 10
4.5092081485
 20
-55.5343967899
 10
4.4715349203
 20
-55.5906455009
 10
4.4362451807
 20
-55.6507730756
 10
4.4038886169
 20
-55.7150492363
 10
4.3743677258
 20
-55.7834680908
 10
4.3477800106
 20
-55.8560355312
 10
4.3249676682
 20
-55.9330389561
 10
4.3059441588
 20
-56.0146138926
 10
4.2906960223
 20
-56.1006248135
 10
4.2800250747
 20
-56.1909525366
 10
4.2740065212
 20
-56.2873553878
 10
4.2725651567
 20
-56.3880750412
 10
4.2762771825
 20
-56.4877173359
 10
4.2854481496
 20
-56.5850237818
 10
4.299772507
 20
-56.6812528691
 10
4.3189098031
 20
-56.7747859073
 10
4.342746554
 20
-56.865083333
  0
LWPOLYLINE
  5
37F
100
AcDbEntity
  8
0
100
AcDbPolyline
 62
7
  6
CONTINUOUS
 90
10
 70
0
 10
4.5774973158
 20
-59.0412809267
 10
4.5944434374
 20
-59.0976860825
 10
4.6121267095
 20
-59.1546006884
 10
4.6305471321
 20
-59.2120247443
 10
4.6497666137
 20
-59.2699585906
 10
4.6697232459
 20
-59.3284018869
 10
4.6902313025
 20
-59.3873536127
 10
4.711228875
 20
-59.4468134276
 10
4.7327778719
 20
-59.5067816719
 10
4.7548782934
 20
-59.5672583456
  0
LWPOLYLINE
  5
380
100
AcDbEntity
  8
0
100
AcDbPolyline
 62
7
  6
CONTINUOUS
 90
10
 70
0
 10
7.7554162268
 20
-51.7224702154
 10
7.7723623485
 20
-51.7788753712
 10
7.7900456206
 20
-51.8357899771
 10
7.8084660431
 20
-51.893214033
 10
7.8276855248
 20
-51.9511478793
 10
7.847642157
 20
-52.0095911756
 10
7.8681502136
 20
-52.0685429014
 10
7.8891477861
 20
-52.1280027163
 10
7.910696783
 20
-52.1879709606
 10
7.9327972045
 20
-52.2484476343
  0
LWPOLYLINE
  5
381
100
AcDbEntity
  8
0
100
AcDbPolyline
 62
7
  6
CONTINUOUS
 90
10
 70
0
 10
1.9881606974
 20
-57.3548839258
 10
1.9757187015
 20
-57.3108819863
 10
1.9627313929
 20
-57.2665221849
 10
1.9491987715
 20
-57.2218045215
 10
1.9351121895
 20
-57.1767263896
 10
1.9204802948
 20
-57.1312903958
 10
1.9053290313
 20
-57.0855043599
 10
1.8896670472
 20
-57.0393708886
 10
1.8734856943
 20
-56.9928873752
 10
1.2065456875
 20
-55.1314552652
  0
LWPOLYLINE
  5
382
100
AcDbEntity
  8
0
100
AcDbPolyline
 62
7
  6
CONTINUOUS
 90
18
 70
0
 10
-0.5982327809
 20
-60.4330475937
 10
-0.6066528561
 20
-60.3862031916
 10
-0.6176586479
 20
-60.3419429966
 10
-0.6311971573
 20
-60.3007592143
 10
-0.6473213834
 20
-60.2621596389
 10
-0.6657777461
 20
-60.225422787
 10
-0.6864920364
 20
-60.190333429
 10
-0.7095384634
 20
-60.1571067944
 10
-0.7348860746
 20
-60.1256670885
 10
-0.7625029333
 20
-60.0959182418
 10
-0.7924209761
 20
-60.0679563237
 10
-0.8247050607
 20
-60.0419937476
 10
-0.859267107
 20
-60.0180211205
 10
-0.8961951951
 20
-59.9960478354
 10
-0.9358184224
 20
-59.9763144847
 10
-0.9782464879
 20
-59.9589012658
 10
-1.0233696926
 20
-59.9437279812
 10
-1.0711880365
 20
-59.9307946311
  0
LWPOLYLINE
  5
383
100
AcDbEntity
  8
0
100
AcDbPolyline
 62
7
  6
CONTINUOUS
 90
57
 70
0
 10
-2.578452753
 20
-59.3903516561
 10
-2.5872720506
 20
-59.3353650741
 10
-2.5984965878
 20
-59.283310658
 10
-2.6121263648
 20
-59.2341884079
 10
-2.6281731166
 20
-59.1882328809
 10
-2.6466251081
 20
-59.1452095199
 10
-2.6674471335
 20
-59.1044146536
 10
-2.6906997841
 20
-59.0656312456
 10
-2.7163224686
 20
-59.0290763323
 10
-2.7440982075
 20
-58.9946973516
 10
-2.7740389854
 20
-58.9623876936
 10
-2.8061328176
 20
-58.9322539681
 10
-2.8401267714
 20
-58.9045634432
 10
-2.8758105595
 20
-58.8794052759
 10
-2.9133944692
 20
-58.8566903092
 10
-2.9532564292
 20
-58.8364183396
 10
-2.9953840225
 20
-58.8184793577
 10
-3.0397896662
 20
-58.8029833729
 10
-3.0868885398
 20
-58.7902602107
 10
-3.1371368399
 20
-58.7802902214
 10
-3.1900783699
 20
-58.7730930547
 10
-3.24475972
 20
-58.7690574844
 10
-3.3020826336
 20
-58.7683016925
 10
-3.3611453672
 20
-58.7707074969
 10
-3.4182892815
 20
-58.7763091253
 10
-3.4724572044
 20
-58.7852453192
 10
-3.5247063078
 20
-58.797377337
 10
-3.5745494681
 20
-58.8123231815
 10
-3.6215278039
 20
-58.8298910923
 10
-3.6661001966
 20
-58.8502728297
 10
-3.7091561669
 20
-58.8736616777
 10
-3.7510115377
 20
-58.9000661129
 10
-3.7913504861
 20
-58.9294776587
 10
-3.8301150633
 20
-58.9620641692
 10
-3.8673309011
 20
-58.9977036584
 10
-3.9029723676
 20
-59.0365181124
 10
-3.9369046193
 20
-59.0790413437
 10
-3.9692027278
 20
-59.1253078632
 10
-3.9997916215
 20
-59.1752831599
 10
-4.0283112409
 20
-59.2293975133
 10
-4.0547574771
 20
-59.2878679844
 10
-4.079134439
 20
-59.3504775121
 10
-4.1010943943
 20
-59.4170051929
 10
-4.1205507656
 20
-59.4874461781
 10
-4.1375901304
 20
-59.5618053164
 10
-4.1521244883
 20
-59.6398762502
 10
-4.1641126197
 20
-59.7224768038
 10
-4.1735957444
 20
-59.8087891529
 10
-4.1806095214
 20
-59.8961534672
 10
-4.1850460999
 20
-59.9851623349
 10
-4.1870133308
 20
-60.0752231676
 10
-4.1868704253
 20
-60.1618983704
 10
-4.1847168657
 20
-60.2436415932
 10
-4.1804531697
 20
-60.3219991859
 10
-4.1741401016
 20
-60.3971726031
 10
-4.1657964043
 20
-60.4692040756
 10
-4.1554033349
 20
-60.5380513725
  0
LWPOLYLINE
  5
384
100
AcDbEntity
  8
0
100
AcDbPolyline
 62
7
  6
CONTINUOUS
 90
50
 70
0
 10
-2.2293820235
 20
-60.6348646914
 10
-2.2214419735
 20
-60.6923200436
 10
-2.2107757658
 20
-60.7469219053
 10
-2.1973834004
 20
-60.7986702766
 10
-2.1812607076
 20
-60.8472825612
 10
-2.1624118571
 20
-60.8930413554
 10
-2.1408493584
 20
-60.9367944478
 10
-2.1166547668
 20
-60.9786833711
 10
-2.089746527
 20
-61.0185665926
 10
-2.0598924817
 20
-61.0568673031
 10
-2.0266446076
 20
-61.0941096304
 10
-1.9904509282
 20
-61.1297694468
 10
-1.9524233564
 20
-61.1626975598
 10
-1.9128841556
 20
-61.1925654689
 10
-1.8715110625
 20
-61.2197016747
 10
-1.8284492012
 20
-61.243942486
 10
-1.7841052639
 20
-61.265203853
 10
-1.7380725582
 20
-61.2835698255
 10
-1.6892761309
 20
-61.299128862
 10
-1.6371915117
 20
-61.312078799
 10
-1.5823431709
 20
-61.3222217999
 10
-1.5252295653
 20
-61.3290528138
 10
-1.4648360058
 20
-61.3324492912
 10
-1.4021771816
 20
-61.3325337815
 10
-1.340795617
 20
-61.3291688824
 10
-1.2814107925
 20
-61.3221682429
 10
-1.2233032276
 20
-61.3117182139
 10
-1.1678570052
 20
-61.2982404458
 10
-1.1158135184
 20
-61.2818834429
 10
-1.066431374
 20
-61.2624987009
 10
-1.0188704756
 20
-61.2400623565
 10
-0.9728576793
 20
-61.2145314026
 10
-0.928666129
 20
-61.1859488463
 10
-0.8862751591
 20
-61.1544198453
 10
-0.8452111023
 20
-61.1194813058
 10
-0.805947626
 20
-61.0815963216
 10
-0.7698850672
 20
-61.0422593313
 10
-0.7374237926
 20
-61.0017407786
 10
-0.7081634354
 20
-60.9597702199
 10
-0.6823032332
 20
-60.9170307628
 10
-0.6600575896
 20
-60.8740409459
 10
-0.6412121009
 20
-60.8302822308
 10
-0.6253227934
 20
-60.7848821091
 10
-0.6121812242
 20
-60.7373477358
 10
-0.6019958362
 20
-60.688171956
 10
-0.5949479842
 20
-60.6379607967
 10
-0.5911445341
 20
-60.5859614493
 10
-0.5904786199
 20
-60.5329267225
 10
-0.5928109985
 20
-60.4817210686
 10
-0.5982327809
 20
-60.4330475937
  0
LWPOLYLINE
  5
385
100
AcDbEntity
  8
0
100
AcDbPolyline
 62
7
  6
CONTINUOUS
 90
25
 70
0
 10
4.0598194758
 20
-52.1626028742
 10
4.0555501984
 20
-52.1064990089
 10
4.0481062618
 20
-52.052498702
 10
4.0374876659
 20
-52.0006019535
 10
4.0235642361
 20
-51.9508009646
 10
4.0064661469
 20
-51.9031035342
 10
3.9865839231
 20
-51.8575330584
 10
3.9639658275
 20
-51.8140687973
 10
3.9385635972
 20
-51.7727314909
 10
3.9106229679
 20
-51.7336067555
 10
3.8803207411
 20
-51.6967328697
 10
3.8474801154
 20
-51.662071555
 10
3.811816422
 20
-51.6295935915
 10
3.7734864364
 20
-51.5993555152
 10
3.7323333833
 20
-51.5713007902
 10
3.6876022681
 20
-51.5452305896
 10
3.6390829825
 20
-51.5209087812
 10
3.5869856348
 20
-51.4985714972
 10
3.531185556
 20
-51.4787283067
 10
3.4716062967
 20
-51.4613318001
 10
3.4083243063
 20
-51.4464293871
 10
3.3414442629
 20
-51.4346728658
 10
3.2710010593
 20
-51.4262795023
 10
3.1969598028
 20
-51.4210320306
 10
3.1193204933
 20
-51.4189304507
  0
LWPOLYLINE
  5
386
100
AcDbEntity
  8
0
100
AcDbPolyline
 62
7
  6
CONTINUOUS
 90
28
 70
0
 10
2.1475189581
 20
-53.1491071095
 10
2.1509969358
 20
-53.2080263514
 10
2.1574607242
 20
-53.2649382694
 10
2.1669103234
 20
-53.3198428636
 10
2.1794240426
 20
-53.3726497291
 10
2.1949235726
 20
-53.4234492707
 10
2.213173985
 20
-53.4725127035
 10
2.2342297923
 20
-53.5200362253
 10
2.258036482
 20
-53.5658236383
 10
2.2841955881
 20
-53.6095575639
 10
2.3126854419
 20
-53.6512455781
 10
2.343527712
 20
-53.6908801051
 10
2.3763889388
 20
-53.7281210389
 10
2.4109694086
 20
-53.7627341651
 10
2.4475688351
 20
-53.7949536981
 10
2.4867528992
 20
-53.8251421755
 10
2.5284524381
 20
-53.8534232962
 10
2.5727366147
 20
-53.8796733612
 10
2.6203785981
 20
-53.9038838108
 10
2.6715739816
 20
-53.9262167944
 10
2.726127172
 20
-53.9465101627
 10
2.7842245587
 20
-53.9642689072
 10
2.8460539335
 20
-53.9794172407
 10
2.9114275047
 20
-53.9920309504
 10
2.9799682864
 20
-54.0018423898
 10
3.0515506167
 20
-54.0087623432
 10
3.1263001575
 20
-54.0128800263
 10
3.2042169087
 20
-54.0141954389
  0
LWPOLYLINE
  5
387
100
AcDbEntity
  8
0
100
AcDbPolyline
 62
7
  6
CONTINUOUS
 90
58
 70
0
 10
-6.1146910118
 20
-60.0514991048
 10
-6.1137013351
 20
-60.1393892283
 10
-6.110744323
 20
-60.224108318
 10
-6.1058199754
 20
-60.3056563739
 10
-6.0989223682
 20
-60.3840362
 10
-6.0900574255
 20
-60.4592449924
 10
-6.0792429198
 20
-60.5312743386
 10
-6.0664429939
 20
-60.6001375112
 10
-6.0516935049
 20
-60.6658212376
 10
-6.0351197964
 20
-60.7282772888
 10
-6.0166822672
 20
-60.7875222322
 10
-5.9964205186
 20
-60.8435395004
 10
-5.974578698
 20
-60.896231161
 10
-5.9512975119
 20
-60.9455633693
 10
-5.9264362539
 20
-60.9915699701
 10
-5.899816952
 20
-61.0342545659
 10
-5.8715133268
 20
-61.0733564434
 10
-5.8414516577
 20
-61.1091363159
 10
-5.8092328111
 20
-61.1423799265
 10
-5.774642943
 20
-61.1734003628
 10
-5.7378958972
 20
-61.2018845371
 10
-5.6992340719
 20
-61.2276789288
 10
-5.6589621865
 20
-61.2507659619
 10
-5.6167755215
 20
-61.2711632124
 10
-5.5720023162
 20
-61.2887698873
 10
-5.5242908045
 20
-61.3036837873
 10
-5.4739927525
 20
-61.3158071118
 10
-5.4214916975
 20
-61.3247456657
 10
-5.3657396634
 20
-61.3303674111
 10
-5.3077846262
 20
-61.3328043859
 10
-5.2511540517
 20
-61.3320585088
 10
-5.1966349652
 20
-61.3280630606
 10
-5.1434403412
 20
-61.3208847606
 10
-5.0927365692
 20
-61.3107256855
 10
-5.0450079017
 20
-61.2975456721
 10
-4.9997700862
 20
-61.2813848836
 10
-4.9567367542
 20
-61.2625658863
 10
-4.9160551704
 20
-61.2413533019
 10
-4.87757807
 20
-61.2174825087
 10
-4.8405772901
 20
-61.1904822076
 10
-4.8049249754
 20
-61.1605199671
 10
-4.7707489812
 20
-61.1274282188
 10
-4.7377047112
 20
-61.090232958
 10
-4.70540958
 20
-61.0486109586
 10
-4.6742461729
 20
-61.0028854467
 10
-4.6450176499
 20
-60.9530520955
 10
-4.617828094
 20
-60.8990635299
 10
-4.5925734222
 20
-60.8409671249
 10
-4.5697445454
 20
-60.7789006791
 10
-4.5494743386
 20
-60.7128209768
 10
-4.5316299269
 20
-60.6427712336
 10
-4.5163035962
 20
-60.5690188958
 10
-4.5035940314
 20
-60.4915903815
 10
-4.4934025476
 20
-60.4104592726
 10
-4.4855253772
 20
-60.3258137602
 10
-4.4798945974
 20
-60.2377165746
 10
-4.4765781308
 20
-60.1461049856
 10
-4.4755759775
 20
-60.0509789932
  0
LWPOLYLINE
  5
388
100
AcDbEntity
  8
0
100
AcDbPolyline
 62
7
  6
CONTINUOUS
 90
58
 70
0
 10
-4.4755759775
 20
-60.0509789932
 10
-4.4762088222
 20
-59.9605852423
 10
-4.4789405881
 20
-59.87344223
 10
-4.4837712753
 20
-59.7895499563
 10
-4.4905428463
 20
-59.7088038136
 10
-4.4994133385
 20
-59.6313084095
 10
-4.5108568649
 20
-59.5573775665
 10
-4.5252921029
 20
-59.487162125
 10
-4.5423003751
 20
-59.4205112446
 10
-4.561099762
 20
-59.3572862265
 10
-4.5815032445
 20
-59.2974541334
 10
-4.6036978417
 20
-59.2410479026
 10
-4.627462691
 20
-59.1880276468
 10
-4.6528102551
 20
-59.1382608226
 10
-4.6797280714
 20
-59.0918799734
 10
-4.7079578895
 20
-59.0492428414
 10
-4.7372743578
 20
-59.0107549958
 10
-4.7679028279
 20
-58.9760108674
 10
-4.8002611049
 20
-58.9441514902
 10
-4.8342499778
 20
-58.9150768263
 10
-4.8699686577
 20
-58.8888869136
 10
-4.9081325831
 20
-58.8650229002
 10
-4.9489477819
 20
-58.843139879
 10
-4.9922082262
 20
-58.8235827571
 10
-5.0380112706
 20
-58.8068274036
 10
-5.0866432797
 20
-58.7928816543
 10
-5.1378178888
 20
-58.7817376735
 10
-5.1907733589
 20
-58.7738478228
 10
-5.2464529048
 20
-58.7694225236
 10
-5.3039133116
 20
-58.7682513546
 10
-5.3595631961
 20
-58.770155413
 10
-5.4124188755
 20
-58.7751679759
 10
-5.4634640325
 20
-58.7832557664
 10
-5.512058332
 20
-58.7941400508
 10
-5.5577378774
 20
-58.807731393
 10
-5.6009665652
 20
-58.8241192292
 10
-5.6424957498
 20
-58.8432931345
 10
-5.6825118076
 20
-58.865137879
 10
-5.7208283622
 20
-58.8897686925
 10
-5.7576376388
 20
-58.9175208398
 10
-5.7929180728
 20
-58.9482504666
 10
-5.8266912289
 20
-58.9821014272
 10
-5.8592140259
 20
-59.0198405486
 10
-5.8907828966
 20
-59.0616817378
 10
-5.9211014083
 20
-59.1074110878
 10
-5.9495371825
 20
-59.1571537056
 10
-5.9760410997
 20
-59.2109995007
 10
-6.0006622795
 20
-59.2688585636
 10
-6.0229157018
 20
-59.3305862727
 10
-6.042667409
 20
-59.3962176762
 10
-6.0600513589
 20
-59.4657177258
 10
-6.0749844044
 20
-59.5388366555
 10
-6.0873742517
 20
-59.6155485459
 10
-6.0973131947
 20
-59.6958793164
 10
-6.1049949687
 20
-59.7796569584
 10
-6.1104841521
 20
-59.8668241357
 10
-6.1137161664
 20
-59.9574381845
 10
-6.1146910118
 20
-60.0514991048
  0
LINE
  5
389
100
AcDbEntity
  8
0
100
AcDbLine
 62
7
  6
CONTINUOUS
 10
-6.503364336
 20
-51.4644614154
 11
-6.503364336
 21
-53.9686644742
  0
LINE
  5
38A
100
AcDbEntity
  8
0
100
AcDbLine
 62
7
  6
CONTINUOUS
 10
-6.3875
 20
46.2670212328
 11
-6.3875
 21
45.5329786986
  0
LINE
  5
38B
100
AcDbEntity
  8
0
100
AcDbLine
 62
7
  6
CONTINUOUS
 10
-6.3051501518
 20
42.55
 11
-6.3051501518
 21
42.3053191781
  0
LINE
  5
38C
100
AcDbEntity
  8
0
100
AcDbLine
 62
7
  6
CONTINUOUS
 10
-6.1694705948
 20
-53.9686644742
 11
-6.1694705948
 21
-51.8438861213
  0
LINE
  5
38D
100
AcDbEntity
  8
0
100
AcDbLine
 62
7
  6
CONTINUOUS
 10
-6.1
 20
45.5329786986
 11
-6.1
 21
46.2670212328
  0
LINE
  5
38E
100
AcDbEntity
  8
0
100
AcDbLine
 62
7
  6
CONTINUOUS
 10
-6.010836
 20
55.000104
 11
-6.010849
 21
49.799857
  0
LINE
  5
38F
100
AcDbEntity
  8
0
100
AcDbLine
 62
7
  6
CONTINUOUS
 10
-5.7166664839
 20
47.05
 11
-5.7166664839
 21
44.75
  0
LINE
  5
390
100
AcDbEntity
  8
0
100
AcDbLine
 62
7
  6
CONTINUOUS
 10
-5.4291664839
 20
45.0436170205
 11
-5.4291664839
 21
45.8265957534
  0
LINE
  5
391
100
AcDbEntity
  8
0
100
AcDbLine
 62
7
  6
CONTINUOUS
 10
-5.4291664839
 20
46.1202127397
 11
-5.4291664839
 21
46.7563830137
  0
LINE
  5
392
100
AcDbEntity
  8
0
100
AcDbLine
 62
7
  6
CONTINUOUS
 10
-4.97081
 20
49.79987
 11
-4.970797
 21
55.000104
  0
LINE
  5
393
100
AcDbEntity
  8
0
100
AcDbLine
 62
7
  6
CONTINUOUS
 10
-4.642523153
 20
-62.4957969412
 11
-4.642523153
 21
-65.0
  0
LINE
  5
394
100
AcDbEntity
  8
0
100
AcDbLine
 62
7
  6
CONTINUOUS
 10
-4.4241169477
 20
-51.8742400978
 11
-4.4241169477
 21
-53.9686644742
  0
LINE
  5
395
100
AcDbEntity
  8
0
100
AcDbLine
 62
7
  6
CONTINUOUS
 10
-4.3086294118
 20
-64.7116372235
 11
-4.3086294118
 21
-62.4957969412
  0
LINE
  5
396
100
AcDbEntity
  8
0
100
AcDbLine
 62
7
  6
CONTINUOUS
 10
-4.1833335161
 20
45.8265957534
 11
-4.1833335161
 21
46.1202127397
  0
LINE
  5
397
100
AcDbEntity
  8
0
100
AcDbLine
 62
7
  6
CONTINUOUS
 10
-4.1661081478
 20
-55.1314552652
 11
-4.1661081478
 21
-57.635658324
  0
LINE
  5
398
100
AcDbEntity
  8
0
100
AcDbLine
 62
7
  6
CONTINUOUS
 10
-4.0902232066
 20
-53.9686644742
 11
-4.0902232066
 21
-51.4644614154
  0
LINE
  5
399
100
AcDbEntity
  8
0
100
AcDbLine
 62
7
  6
CONTINUOUS
 10
-3.9916664839
 20
44.75
 11
-3.9916664839
 21
45.0436170205
  0
LINE
  5
39A
100
AcDbEntity
  8
0
100
AcDbLine
 62
7
  6
CONTINUOUS
 10
-3.9916664839
 20
46.7563830137
 11
-3.9916664839
 21
47.05
  0
LINE
  5
39B
100
AcDbEntity
  8
0
100
AcDbLine
 62
7
  6
CONTINUOUS
 10
-3.930797
 20
55.000104
 11
-3.930797
 21
49.79987
  0
LINE
  5
39C
100
AcDbEntity
  8
0
100
AcDbLine
 62
7
  6
CONTINUOUS
 10
-3.8322144066
 20
-57.3472955475
 11
-3.8322144066
 21
-55.1314552652
  0
LINE
  5
39D
100
AcDbEntity
  8
0
100
AcDbLine
 62
7
  6
CONTINUOUS
 10
-3.2001501518
 20
42.3053191781
 11
-3.2001501518
 21
42.55
  0
LINE
  5
39E
100
AcDbEntity
  8
0
100
AcDbLine
 62
7
  6
CONTINUOUS
 10
-3.0641163765
 20
-65.0
 11
-3.0641163765
 21
-64.7116372235
  0
LINE
  5
39F
100
AcDbEntity
  8
0
100
AcDbLine
 62
7
  6
CONTINUOUS
 10
-2.890758
 20
49.79987
 11
-2.890758
 21
53.229075
  0
LINE
  5
3A0
100
AcDbEntity
  8
0
100
AcDbLine
 62
7
  6
CONTINUOUS
 10
-2.5877013713
 20
-57.635658324
 11
-2.5877013713
 21
-57.3472955475
  0
LINE
  5
3A1
100
AcDbEntity
  8
0
100
AcDbLine
 62
7
  6
CONTINUOUS
 10
-2.5101503163
 20
40.4946808562
 11
-2.5101503163
 21
40.25
  0
LINE
  5
3A2
100
AcDbEntity
  8
0
100
AcDbLine
 62
7
  6
CONTINUOUS
 10
-2.1930996772
 20
-55.1314552652
 11
-2.1930996772
 21
-57.635658324
  0
LINE
  5
3A3
100
AcDbEntity
  8
0
100
AcDbLine
 62
7
  6
CONTINUOUS
 10
-1.9846530593
 20
-63.9392706004
 11
-1.9846530593
 21
-65.0
  0
LINE
  5
3A4
100
AcDbEntity
  8
0
100
AcDbLine
 62
7
  6
CONTINUOUS
 10
-1.859205936
 20
-57.3472955475
 11
-1.859205936
 21
-56.4822072181
  0
LINE
  5
3A5
100
AcDbEntity
  8
0
100
AcDbLine
 62
7
  6
CONTINUOUS
 10
-1.859205936
 20
-56.1938444416
 11
-1.859205936
 21
-55.4198180416
  0
LINE
  5
3A6
100
AcDbEntity
  8
0
100
AcDbLine
 62
7
  6
CONTINUOUS
 10
-1.6507593181
 20
-65.0
 11
-1.6507593181
 21
-63.9392706004
  0
LINE
  5
3A7
100
AcDbEntity
  8
0
100
AcDbLine
 62
7
  6
CONTINUOUS
 10
-1.3083329678
 20
47.05
 11
-1.3083329678
 21
44.75
  0
LINE
  5
3A8
100
AcDbEntity
  8
0
100
AcDbLine
 62
7
  6
CONTINUOUS
 10
-1.2217724301
 20
-51.4644614154
 11
-1.2217724301
 21
-53.9686644742
  0
LINE
  5
3A9
100
AcDbEntity
  8
0
100
AcDbLine
 62
7
  6
CONTINUOUS
 10
-1.0208329678
 20
44.75
 11
-1.0208329678
 21
47.05
  0
LINE
  5
3AA
100
AcDbEntity
  8
0
100
AcDbLine
 62
7
  6
CONTINUOUS
 10
-0.8878786889
 20
-53.9686644742
 11
-0.8878786889
 21
-52.8607443331
  0
LINE
  5
3AB
100
AcDbEntity
  8
0
100
AcDbLine
 62
7
  6
CONTINUOUS
 10
-0.8878786889
 20
-52.5723815566
 11
-0.8878786889
 21
-51.7528241919
  0
LINE
  5
3AC
100
AcDbEntity
  8
ASSI
100
AcDbLine
 62
7
  6
CONTINUOUS
 10
-0.867554
 20
-46.548037009
 11
-0.867554
 21
-45.7972200095
  0
LINE
  5
3AD
100
AcDbEntity
  8
ASSI
100
AcDbLine
 62
7
  6
CONTINUOUS
 10
-0.867554
 20
-42.20278
 11
-0.867554
 21
-41.451963
  0
LINE
  5
3AE
100
AcDbEntity
  8
0
100
AcDbLine
 62
7
  6
CONTINUOUS
 10
-0.6375
 20
47.05
 11
-0.6375
 21
44.75
  0
LINE
  5
3AF
100
AcDbEntity
  8
0
100
AcDbLine
 62
7
  6
CONTINUOUS
 10
-0.4932769948
 20
-56.4822072181
 11
-0.4932769948
 21
-56.1938444416
  0
LINE
  5
3B0
100
AcDbEntity
  8
0
100
AcDbLine
 62
7
  6
CONTINUOUS
 10
-0.4022150654
 20
-55.4198180416
 11
-0.4022150654
 21
-55.1314552652
  0
LINE
  5
3B1
100
AcDbEntity
  8
0
100
AcDbLine
 62
7
  6
CONTINUOUS
 10
-0.35
 20
44.75
 11
-0.35
 21
46.7563830137
  0
LINE
  5
3B2
100
AcDbEntity
  8
0
100
AcDbLine
 62
7
  6
CONTINUOUS
 10
-0.3415071125
 20
-57.635658324
 11
-0.3415071125
 21
-57.3472955475
  0
LINE
  5
3B3
100
AcDbEntity
  8
0
100
AcDbLine
 62
7
  6
CONTINUOUS
 10
0.0773501772
 20
42.0117021918
 11
0.0773501772
 21
41.913829726
  0
LINE
  5
3B4
100
AcDbEntity
  8
0
100
AcDbLine
 62
7
  6
CONTINUOUS
 10
0.115843
 20
53.229075
 11
0.115856
 21
49.79987
  0
LINE
  5
3B5
100
AcDbEntity
  8
0
100
AcDbLine
 62
7
  6
CONTINUOUS
 10
0.5948501772
 20
40.25
 11
0.5948501772
 21
40.4946808562
  0
LINE
  5
3B6
100
AcDbEntity
  8
0
100
AcDbLine
 62
7
  6
CONTINUOUS
 10
0.5948501772
 20
41.913829726
 11
0.5948501772
 21
42.0117021918
  0
LINE
  5
3B7
100
AcDbEntity
  8
0
100
AcDbLine
 62
7
  6
CONTINUOUS
 10
0.775661647
 20
-58.7832721267
 11
0.775661647
 21
-61.2874751855
  0
LINE
  5
3B8
100
AcDbEntity
  8
0
100
AcDbLine
 62
7
  6
CONTINUOUS
 10
0.9916670322
 20
47.05
 11
0.9916670322
 21
45.0925531849
  0
LWPOLYLINE
  5
3B9
100
AcDbEntity
  8
0
100
AcDbPolyline
 62
7
  6
CONTINUOUS
 90
19
 70
0
 10
-5.8111512471
 20
-60.0505505286
 10
-5.8108814245
 20
-59.9881765297
 10
-5.8096913861
 20
-59.927598429
 10
-5.8075811318
 20
-59.8688162264
 10
-5.8045707653
 20
-59.8118666949
 10
-5.800640183
 20
-59.7567130615
 10
-5.7957290734
 20
-59.7032450071
 10
-5.7898222363
 20
-59.6514410235
 10
-5.782934872
 20
-59.6013226189
 10
-5.7750522701
 20
-59.5528439984
 10
-5.7662627891
 20
-59.5058380866
 10
-5.7564780705
 20
-59.4604719589
 10
-5.7454183289
 20
-59.4172010472
 10
-5.7330141357
 20
-59.3760698993
 10
-5.7193349196
 20
-59.3370339673
 10
-5.7043091802
 20
-59.3004150395
 10
-5.6879130842
 20
-59.2663203784
 10
-5.670170465
 20
-59.2346427214
 10
-5.6510813226
 20
-59.2053820686
  0
LWPOLYLINE
  5
3BA
100
AcDbEntity
  8
0
100
AcDbPolyline
 62
7
  6
CONTINUOUS
 90
19
 70
0
 10
-3.8836737412
 20
-59.9957711771
 10
-3.882519695
 20
-59.9220494859
 10
-3.8794098728
 20
-59.8509380928
 10
-3.8743442745
 20
-59.7824369979
 10
-3.8674013235
 20
-59.7164423849
 10
-3.8585025964
 20
-59.6530580701
 10
-3.8474128238
 20
-59.5925955016
 10
-3.8340083013
 20
-59.5350639611
 10
-3.8184127334
 20
-59.480454167
 10
-3.8007619641
 20
-59.4290497226
 10
-3.7808723028
 20
-59.3809776315
 10
-3.75892744
 20
-59.3361108902
 10
-3.7356142917
 20
-59.2943520905
 10
-3.7109546816
 20
-59.2556953137
 10
-3.6849267859
 20
-59.2201464786
 10
-3.6581520486
 20
-59.1876259341
 10
-3.6308376176
 20
-59.15810713
 10
-3.6027763451
 20
-59.1316166165
 10
-3.5739682309
 20
-59.1081543936
  0
LWPOLYLINE
  5
3BB
100
AcDbEntity
  8
0
100
AcDbPolyline
 62
7
  6
CONTINUOUS
 90
16
 70
0
 10
-1.030399953
 20
-59.4164370395
 10
-1.0311912764
 20
-59.4453018492
 10
-1.0333732268
 20
-59.472962277
 10
-1.0369458042
 20
-59.4994183228
 10
-1.0419254978
 20
-59.5246606325
 10
-1.0482958184
 20
-59.5486985603
 10
-1.0560072984
 20
-59.5715601691
 10
-1.0650254488
 20
-59.5931460257
 10
-1.0753847586
 20
-59.6135555633
 10
-1.0871392273
 20
-59.6331151442
 10
-1.1003698622
 20
-59.651991373
 10
-1.114995656
 20
-59.6700176452
 10
-1.1308275854
 20
-59.6870205094
 10
-1.1478026428
 20
-59.7029421487
 10
-1.1659838357
 20
-59.7178403801
 10
-1.1853711643
 20
-59.7317152036
  0
LWPOLYLINE
  5
3BC
100
AcDbEntity
  8
0
100
AcDbPolyline
 62
7
  6
CONTINUOUS
 90
46
 70
0
 10
-7.7234517647
 20
-60.4759804873
 10
-7.7218586992
 20
-60.4304849759
 10
-7.7178696387
 20
-60.3872178006
 10
-7.7114845833
 20
-60.3461789615
 10
-7.7026393009
 20
-60.3075117689
 10
-7.6913980235
 20
-60.2710729124
 10
-7.6779534477
 20
-60.2364324609
 10
-7.6624190348
 20
-60.2036081093
 10
-7.6446813234
 20
-60.1725821628
 10
-7.6245926262
 20
-60.1428716058
 10
-7.6018522526
 20
-60.1140760762
 10
-7.5767608932
 20
-60.0865959362
 10
-7.5500729325
 20
-60.0611492568
 10
-7.5218030107
 20
-60.0378092114
 10
-7.4919364877
 20
-60.0165026265
 10
-7.4611838271
 20
-59.9977280531
 10
-7.4299466436
 20
-59.9816966883
 10
-7.3978233225
 20
-59.9681973349
 10
-7.3643194835
 20
-59.9570949516
 10
-7.329132057
 20
-59.9482956758
 10
-7.2925641125
 20
-59.9418933701
 10
-7.255030478
 20
-59.9380345802
 10
-7.2158340621
 20
-59.9368088679
 10
-7.1756719561
 20
-59.9381266715
 10
-7.1370502624
 20
-59.9418658519
 10
-7.1007143271
 20
-59.9481020352
 10
-7.0659188041
 20
-59.9567595954
 10
-7.0329337576
 20
-59.9674895158
 10
-7.0020773877
 20
-59.9801173826
 10
-6.9730314944
 20
-59.9948176097
 10
-6.9451115421
 20
-60.0117644219
 10
-6.9179489926
 20
-60.0310995702
 10
-6.8919123841
 20
-60.0526813036
 10
-6.8674227961
 20
-60.0762585941
 10
-6.8444988304
 20
-60.1017654644
 10
-6.8231218851
 20
-60.1292678918
 10
-6.8036572347
 20
-60.1587127801
 10
-6.7861863103
 20
-60.1898934293
 10
-6.7706276808
 20
-60.2230165394
 10
-6.7571023271
 20
-60.2586491141
 10
-6.7455272566
 20
-60.2970579062
 10
-6.7359854619
 20
-60.3379761628
 10
-6.7288469027
 20
-60.3811706297
 10
-6.7242348987
 20
-60.4265635554
 10
-6.7220261302
 20
-60.4742326913
 10
-6.7222205972
 20
-60.5241780374
  0
LWPOLYLINE
  5
3BD
100
AcDbEntity
  8
0
100
AcDbPolyline
 62
7
  6
CONTINUOUS
 90
46
 70
0
 10
-3.8381427765
 20
-60.4759804873
 10
-3.8365497109
 20
-60.4304849759
 10
-3.8325606505
 20
-60.3872178006
 10
-3.8261755951
 20
-60.3461789615
 10
-3.8173303127
 20
-60.3075117689
 10
-3.8060890353
 20
-60.2710729124
 10
-3.7926444595
 20
-60.2364324609
 10
-3.7771100465
 20
-60.2036081093
 10
-3.7593723351
 20
-60.1725821628
 10
-3.739283638
 20
-60.1428716058
 10
-3.7165432643
 20
-60.1140760762
 10
-3.6914519049
 20
-60.0865959362
 10
-3.6647639442
 20
-60.0611492568
 10
-3.6364940225
 20
-60.0378092114
 10
-3.6066274995
 20
-60.0165026265
 10
-3.5758748389
 20
-59.9977280531
 10
-3.5446376554
 20
-59.9816966883
 10
-3.5125143343
 20
-59.9681973349
 10
-3.4790104953
 20
-59.9570949516
 10
-3.4438230688
 20
-59.9482956758
 10
-3.4072551243
 20
-59.9418933701
 10
-3.3697214898
 20
-59.9380345802
 10
-3.3305250738
 20
-59.9368088679
 10
-3.2903629678
 20
-59.9381266715
 10
-3.2517412742
 20
-59.9418658519
 10
-3.2154053388
 20
-59.9481020352
 10
-3.1806098158
 20
-59.9567595954
 10
-3.1476247694
 20
-59.9674895158
 10
-3.1167683995
 20
-59.9801173826
 10
-3.0877225062
 20
-59.9948176097
 10
-3.0598025539
 20
-60.0117644219
 10
-3.0326400044
 20
-60.0310995702
 10
-3.0066033959
 20
-60.0526813036
 10
-2.9821138079
 20
-60.0762585941
 10
-2.9591898421
 20
-60.1017654644
 10
-2.9378128969
 20
-60.1292678918
 10
-2.9183482465
 20
-60.1587127801
 10
-2.9008773221
 20
-60.1898934293
 10
-2.8853186925
 20
-60.2230165394
 10
-2.8717933389
 20
-60.2586491141
 10
-2.8602182683
 20
-60.2970579062
 10
-2.8506764737
 20
-60.3379761628
 10
-2.8435379145
 20
-60.3811706297
 10
-2.8389259105
 20
-60.4265635554
 10
-2.836717142
 20
-60.4742326913
 10
-2.836911609
 20
-60.5241780374
  0
LWPOLYLINE
  5
3BE
100
AcDbEntity
  8
0
100
AcDbPolyline
 62
7
  6
CONTINUOUS
 90
46
 70
0
 10
-6.7222205972
 20
-60.5241780374
 10
-6.7251258367
 20
-60.5723411665
 10
-6.7302270071
 20
-60.6181298418
 10
-6.7375241084
 20
-60.6615440631
 10
-6.7470841224
 20
-60.7025077629
 10
-6.7588400673
 20
-60.7410970088
 10
-6.772590998
 20
-60.7775400042
 10
-6.7882969283
 20
-60.8117838701
 10
-6.8059978444
 20
-60.8438814855
 10
-6.82561276
 20
-60.8742196901
 10
-6.8473867676
 20
-60.9031090442
 10
-6.8710747748
 20
-60.9302389876
 10
-6.8958605184
 20
-60.9550646792
 10
-6.9215956862
 20
-60.9774276252
 10
-6.9484285904
 20
-60.9974863194
 10
-6.9759879046
 20
-61.0151714029
 10
-7.0039750445
 20
-61.0303904726
 10
-7.0326885945
 20
-61.0432359315
 10
-7.062652981
 20
-61.0539156299
 10
-7.0941397532
 20
-61.062565146
 10
-7.126877362
 20
-61.0690489015
 10
-7.1605755871
 20
-61.0731680117
 10
-7.1956343163
 20
-61.0748778691
 10
-7.2316536618
 20
-61.0742230812
 10
-7.2671437402
 20
-61.0711385851
 10
-7.3017665251
 20
-61.0655652019
 10
-7.3358600428
 20
-61.0575621106
 10
-7.3689484895
 20
-61.0472417843
 10
-7.4009499059
 20
-61.0345805765
 10
-7.4319462512
 20
-61.0196021338
 10
-7.4617075986
 20
-61.0024898692
 10
-7.4901933335
 20
-60.9833601533
 10
-7.5174440704
 20
-60.9620966156
 10
-7.5433517264
 20
-60.9385335569
 10
-7.5678751428
 20
-60.9127902111
 10
-7.5910554784
 20
-60.8847473445
 10
-7.6129081262
 20
-60.8538815567
 10
-7.6336742594
 20
-60.8197853775
 10
-7.6531127049
 20
-60.7828662773
 10
-7.6705153373
 20
-60.7438232663
 10
-7.6859168943
 20
-60.7025330743
 10
-7.6992826383
 20
-60.6591189716
 10
-7.7098002311
 20
-60.6146497794
 10
-7.7171988934
 20
-60.5694817715
 10
-7.7217494046
 20
-60.5232586741
 10
-7.7234517647
 20
-60.4759804873
  0
LWPOLYLINE
  5
3BF
100
AcDbEntity
  8
0
100
AcDbPolyline
 62
7
  6
CONTINUOUS
 90
46
 70
0
 10
-2.836911609
 20
-60.5241780374
 10
-2.8398168484
 20
-60.5723411665
 10
-2.8449180189
 20
-60.6181298418
 10
-2.8522151202
 20
-60.6615440631
 10
-2.8617751342
 20
-60.7025077629
 10
-2.8735310791
 20
-60.7410970088
 10
-2.8872820098
 20
-60.7775400042
 10
-2.9029879401
 20
-60.8117838701
 10
-2.9206888561
 20
-60.8438814855
 10
-2.9403037718
 20
-60.8742196901
 10
-2.9620777794
 20
-60.9031090442
 10
-2.9857657866
 20
-60.9302389876
 10
-3.0105515302
 20
-60.9550646792
 10
-3.036286698
 20
-60.9774276252
 10
-3.0631196021
 20
-60.9974863194
 10
-3.0906789164
 20
-61.0151714029
 10
-3.1186660563
 20
-61.0303904726
 10
-3.1473796062
 20
-61.0432359315
 10
-3.1773439928
 20
-61.0539156299
 10
-3.208830765
 20
-61.062565146
 10
-3.2415683738
 20
-61.0690489015
 10
-3.2752665989
 20
-61.0731680117
 10
-3.3103253281
 20
-61.0748778691
 10
-3.3463446736
 20
-61.0742230812
 10
-3.381834752
 20
-61.0711385851
 10
-3.4164575369
 20
-61.0655652019
 10
-3.4505510546
 20
-61.0575621106
 10
-3.4836395012
 20
-61.0472417843
 10
-3.5156409177
 20
-61.0345805765
 10
-3.546637263
 20
-61.0196021338
 10
-3.5763986104
 20
-61.0024898692
 10
-3.6048843453
 20
-60.9833601533
 10
-3.6321350822
 20
-60.9620966156
 10
-3.6580427382
 20
-60.9385335569
 10
-3.6825661546
 20
-60.9127902111
 10
-3.7057464901
 20
-60.8847473445
 10
-3.727599138
 20
-60.8538815567
 10
-3.7483652711
 20
-60.8197853775
 10
-3.7678037166
 20
-60.7828662773
 10
-3.7852063491
 20
-60.7438232663
 10
-3.8006079061
 20
-60.7025330743
 10
-3.81397365
 20
-60.6591189716
 10
-3.8244912428
 20
-60.6146497794
 10
-3.8318899052
 20
-60.5694817715
 10
-3.8364404164
 20
-60.5232586741
 10
-3.8381427765
 20
-60.4759804873
  0
LINE
  5
3C0
100
AcDbEntity
  8
0
100
AcDbLine
 62
7
  6
CONTINUOUS
 10
-9.3547407401
 20
-59.8304843149
 11
-9.3898375978
 21
-60.1036701032
  0
LINE
  5
3C1
100
AcDbEntity
  8
0
100
AcDbLine
 62
7
  6
CONTINUOUS
 10
5.6835995192
 20
41.2287234247
 11
5.5973498482
 21
40.9351063699
  0
LINE
  5
3C2
100
AcDbEntity
  8
0
100
AcDbLine
 62
7
  6
CONTINUOUS
 10
15.9037989008
 20
-57.635658324
 11
14.9006948129
 21
-55.1314552652
  0
LINE
  5
3C3
100
AcDbEntity
  8
0
100
AcDbLine
 62
7
  6
CONTINUOUS
 10
21.2553473779
 20
-61.2874751855
 11
20.25224329
 21
-58.7832721267
  0
LINE
  5
3C4
100
AcDbEntity
  8
0
100
AcDbLine
 62
7
  6
CONTINUOUS
 10
14.8990348045
 20
-55.9154414841
 11
15.1686636634
 21
-56.603623124
  0
LINE
  5
3C5
100
AcDbEntity
  8
0
100
AcDbLine
 62
7
  6
CONTINUOUS
 10
20.2505832816
 20
-59.5672583456
 11
20.5202121405
 21
-60.2554399855
  0
LINE
  5
3C6
100
AcDbEntity
  8
0
100
AcDbLine
 62
7
  6
CONTINUOUS
 10
22.2755256065
 20
-58.7832721267
 11
23.2383156674
 21
-61.2874751855
  0
LINE
  5
3C7
100
AcDbEntity
  8
0
100
AcDbLine
 62
7
  6
CONTINUOUS
 10
15.2694482677
 20
-56.8768089122
 11
15.5487995699
 21
-57.635658324
  0
LINE
  5
3C8
100
AcDbEntity
  8
0
100
AcDbLine
 62
7
  6
CONTINUOUS
 10
20.6209967448
 20
-60.5286257738
 11
20.900348047
 21
-61.2874751855
  0
LWPOLYLINE
  5
3C9
100
AcDbEntity
  8
0
100
AcDbPolyline
 62
7
  6
CONTINUOUS
 90
3
 70
0
 10
16.6605326311
 20
-60.5169001946
 10
16.6891823208
 20
-60.6045015712
 10
16.7226449491
 20
-60.6894068988
  0
LWPOLYLINE
  5
3CA
100
AcDbEntity
  8
0
100
AcDbPolyline
 62
7
  6
CONTINUOUS
 90
53
 70
0
 10
18.7452157176
 20
-59.4709792469
 10
18.7222810416
 20
-59.399812761
 10
18.6966856081
 20
-59.3328224548
 10
18.6684294168
 20
-59.2700083282
 10
18.637434107
 20
-59.2116007428
 10
18.6037780395
 20
-59.1573693371
 10
18.5676962973
 20
-59.1066230263
 10
18.5291852543
 20
-59.059225
 10
18.4882485366
 20
-59.0153120686
 10
18.4451321059
 20
-58.9746035783
 10
18.3999730387
 20
-58.9370260758
 10
18.3526342583
 20
-58.9026530143
 10
18.3029504973
 20
-58.8714241004
 10
18.251121951
 20
-58.8432956493
 10
18.1969484239
 20
-58.8183113459
 10
18.1396640619
 20
-58.7965419504
 10
18.0790682225
 20
-58.7778398184
 10
18.015361548
 20
-58.7623525944
 10
17.9483801122
 20
-58.7505939731
 10
17.8771899196
 20
-58.7425791272
 10
17.8027249656
 20
-58.7382928839
 10
17.7276233091
 20
-58.7382034191
 10
17.6518886077
 20
-58.7424811409
 10
17.5755172039
 20
-58.7509556413
 10
17.5011361839
 20
-58.763583872
 10
17.429394663
 20
-58.7805662613
 10
17.3596435259
 20
-58.801702381
 10
17.2925625132
 20
-58.8263478983
 10
17.2281464783
 20
-58.8545161359
 10
17.1664005678
 20
-58.886193771
 10
17.1080199621
 20
-58.920696503
 10
17.0533402346
 20
-58.9577761451
 10
17.002025812
 20
-58.997680884
 10
16.9537651538
 20
-59.0404709783
 10
16.9086778386
 20
-59.0858353445
 10
16.8666442879
 20
-59.1340850661
 10
16.8269942256
 20
-59.1862136514
 10
16.7893209975
 20
-59.2424623624
 10
16.7540312578
 20
-59.3025899371
 10
16.721674694
 20
-59.3668660978
 10
16.6921538029
 20
-59.4352849523
 10
16.6655660877
 20
-59.5078523927
 10
16.6427537453
 20
-59.5848558177
 10
16.6237302359
 20
-59.6664307541
 10
16.6084820994
 20
-59.7524416751
 10
16.5978111519
 20
-59.8427693981
 10
16.5917925983
 20
-59.9391722494
 10
16.5903512338
 20
-60.0398919027
 10
16.5940632596
 20
-60.1395341974
 10
16.6032342267
 20
-60.2368406434
 10
16.6175585841
 20
-60.3330697306
 10
16.6366958802
 20
-60.4266027689
 10
16.6605326311
 20
-60.5169001946
  0
LWPOLYLINE
  5
3CB
100
AcDbEntity
  8
0
100
AcDbPolyline
 62
7
  6
CONTINUOUS
 90
10
 70
0
 10
14.7216538268
 20
-55.3894640652
 10
14.7385999485
 20
-55.445869221
 10
14.7562832206
 20
-55.5027838269
 10
14.7747036431
 20
-55.5602078828
 10
14.7939231248
 20
-55.6181417291
 10
14.8138797569
 20
-55.6765850254
 10
14.8343878136
 20
-55.7355367511
 10
14.8553853861
 20
-55.794996566
 10
14.876934383
 20
-55.8549648104
 10
14.8990348045
 20
-55.9154414841
  0
LWPOLYLINE
  5
3CC
100
AcDbEntity
  8
0
100
AcDbPolyline
 62
7
  6
CONTINUOUS
 90
25
 70
0
 10
13.0841991058
 20
-59.4814135855
 10
13.0799298285
 20
-59.4253097202
 10
13.0724858919
 20
-59.3713094133
 10
13.061867296
 20
-59.3194126648
 10
13.0479438661
 20
-59.2696116759
 10
13.030845777
 20
-59.2219142455
 10
13.0109635532
 20
-59.1763437697
 10
12.9883454576
 20
-59.1328795086
 10
12.9629432273
 20
-59.0915422022
 10
12.935002598
 20
-59.0524174668
 10
12.9047003712
 20
-59.015543581
 10
12.8718597454
 20
-58.9808822663
 10
12.8361960521
 20
-58.9484043028
 10
12.7978660665
 20
-58.9181662265
 10
12.7567130134
 20
-58.8901115015
 10
12.7119818982
 20
-58.8640413009
 10
12.6634626126
 20
-58.8397194925
 10
12.6113652649
 20
-58.8173822085
 10
12.555565186
 20
-58.797539018
 10
12.4959859268
 20
-58.7801425114
 10
12.4327039363
 20
-58.7652400984
 10
12.365823893
 20
-58.7534835771
 10
12.2953806894
 20
-58.7450902136
 10
12.2213394328
 20
-58.7398427419
 10
12.1437001234
 20
-58.737741162
  0
LWPOLYLINE
  5
3CD
100
AcDbEntity
  8
0
100
AcDbPolyline
 62
7
  6
CONTINUOUS
 90
28
 70
0
 10
11.1718985882
 20
-60.4679178208
 10
11.1753765659
 20
-60.5268370627
 10
11.1818403543
 20
-60.5837489807
 10
11.1912899534
 20
-60.6386535749
 10
11.2038036727
 20
-60.6914604404
 10
11.2193032027
 20
-60.742259982
 10
11.2375536151
 20
-60.7913234148
 10
11.2586094224
 20
-60.8388469366
 10
11.2824161121
 20
-60.8846343496
 10
11.3085752182
 20
-60.9283682752
 10
11.3370650719
 20
-60.9700562894
 10
11.3679073421
 20
-61.0096908164
 10
11.4007685689
 20
-61.0469317502
 10
11.4353490387
 20
-61.0815448764
 10
11.4719484652
 20
-61.1137644094
 10
11.5111325293
 20
-61.1439528868
 10
11.5528320682
 20
-61.1722340075
 10
11.5971162448
 20
-61.1984840725
 10
11.6447582282
 20
-61.2226945221
 10
11.6959536117
 20
-61.2450275057
 10
11.750506802
 20
-61.265320874
 10
11.8086041887
 20
-61.2830796185
 10
11.8704335636
 20
-61.298227952
 10
11.9358071348
 20
-61.3108416617
 10
12.0043479165
 20
-61.3206531011
 10
12.0759302468
 20
-61.3275730545
 10
12.1506797875
 20
-61.3316907376
 10
12.2285965388
 20
-61.3330061502
  0
LWPOLYLINE
  5
3CE
100
AcDbEntity
  8
0
100
AcDbPolyline
 62
7
  6
CONTINUOUS
 90
55
 70
0
 10
10.8376394787
 20
-60.0017086216
 10
10.8329016922
 20
-59.9074002401
 10
10.8240753164
 20
-59.8171193059
 10
10.8111603513
 20
-59.7308658192
 10
10.793896306
 20
-59.6487204678
 10
10.7725436714
 20
-59.5706025638
 10
10.7478839204
 20
-59.4962700435
 10
10.7199090562
 20
-59.4255854395
 10
10.6886270754
 20
-59.3586862192
 10
10.6548434408
 20
-59.2957427205
 10
10.6188092055
 20
-59.2370212259
 10
10.5802733163
 20
-59.1822554529
 10
10.5392880754
 20
-59.1308168918
 10
10.4961219996
 20
-59.0827643759
 10
10.4505065722
 20
-59.0380390719
 10
10.4016885446
 20
-58.9958359703
 10
10.349106396
 20
-58.9556252424
 10
10.2933216472
 20
-58.9179367169
 10
10.2352656121
 20
-58.8835548693
 10
10.1751123912
 20
-58.8526028755
 10
10.112687884
 20
-58.8249575597
 10
10.0484011028
 20
-58.8010338704
 10
9.9826931408
 20
-58.7809126403
 10
9.9151229048
 20
-58.7645130367
 10
9.8447761281
 20
-58.7520075102
 10
9.770396968
 20
-58.7433660203
 10
9.6932412671
 20
-58.7386186074
 10
9.616162287
 20
-58.7380278427
 10
9.5390148737
 20
-58.7418495287
 10
9.4619441811
 20
-58.749827863
 10
9.3882389322
 20
-58.7614580097
 10
9.3192845648
 20
-58.7766533486
 10
9.253695641
 20
-58.7955005
 10
9.1906045707
 20
-58.8177544888
 10
9.1299264949
 20
-58.8432985515
 10
9.0717462727
 20
-58.8722494515
 10
9.0154508907
 20
-58.9047125041
 10
8.9607034524
 20
-58.9407941645
 10
8.9078408543
 20
-58.9803879774
 10
8.8572607735
 20
-59.0232798924
 10
8.8087951755
 20
-59.0696764397
 10
8.7626120947
 20
-59.1193710891
 10
8.719613311
 20
-59.1715301989
 10
8.6801694052
 20
-59.2255670745
 10
8.6439097964
 20
-59.2820684105
 10
8.610624523
 20
-59.3419606496
 10
8.5801912834
 20
-59.4051507329
 10
8.552732379
 20
-59.4717317192
 10
8.5284047531
 20
-59.5429092275
 10
8.5070122767
 20
-59.6190889116
 10
8.4887510787
 20
-59.6998651176
 10
8.4743664884
 20
-59.7852265027
 10
8.4641069492
 20
-59.8751692859
 10
8.4577240177
 20
-59.9696972482
 10
8.4552176941
 20
-60.0688103896
  0
LWPOLYLINE
  5
3CF
100
AcDbEntity
  8
0
100
AcDbPolyline
 62
7
  6
CONTINUOUS
 90
55
 70
0
 10
8.4552176941
 20
-60.0688103896
 10
8.4577079106
 20
-60.1528701662
 10
8.4646618024
 20
-60.2353370736
 10
8.4760793695
 20
-60.3162111117
 10
8.4922293022
 20
-60.3958491467
 10
8.5128429103
 20
-60.4738943125
 10
8.5371141223
 20
-60.5492760103
 10
8.5652479539
 20
-60.6222923671
 10
8.5970393894
 20
-60.6926452559
 10
8.6310673102
 20
-60.7583696968
 10
8.6666895141
 20
-60.8182968908
 10
8.7045482033
 20
-60.8735956369
 10
8.7451488661
 20
-60.9258073526
 10
8.7885257167
 20
-60.9752858946
 10
8.8346445409
 20
-61.0216774062
 10
8.8839081852
 20
-61.0654617341
 10
8.9368626053
 20
-61.1071125752
 10
8.9929618455
 20
-61.1461562328
 10
9.0509708852
 20
-61.1816514637
 10
9.1104426918
 20
-61.2133345447
 10
9.1718242978
 20
-61.2414691991
 10
9.23522178
 20
-61.2659053532
 10
9.3004638526
 20
-61.2866548871
 10
9.3677218014
 20
-61.3037059207
 10
9.4376155603
 20
-61.3168727403
 10
9.5113788958
 20
-61.3262069774
 10
9.5877780413
 20
-61.3316570005
 10
9.6637316316
 20
-61.3328822012
 10
9.7386310799
 20
-61.3297199137
 10
9.8130849729
 20
-61.3223328038
 10
9.885837705
 20
-61.3108682605
 10
9.9565149538
 20
-61.2952511912
 10
10.0254910416
 20
-61.2755566886
 10
10.0926333305
 20
-61.2521574204
 10
10.1585942229
 20
-61.2247228268
 10
10.2227213165
 20
-61.1935834675
 10
10.2829247662
 20
-61.1601036888
 10
10.3381207681
 20
-61.1249217893
 10
10.3893931261
 20
-61.0873994705
 10
10.4379034071
 20
-61.0469861825
 10
10.4838208325
 20
-61.0038329672
 10
10.5269761808
 20
-60.9577887829
 10
10.5680233546
 20
-60.9078499544
 10
10.6073395515
 20
-60.8537698275
 10
10.6445475738
 20
-60.7957950564
 10
10.6791697305
 20
-60.7336619295
 10
10.7114172461
 20
-60.6669999861
 10
10.7410788961
 20
-60.5961796868
 10
10.7670433156
 20
-60.5220487026
 10
10.789137301
 20
-60.4451757062
 10
10.8075340558
 20
-60.3649920249
 10
10.8216418264
 20
-60.2806393106
 10
10.8312633614
 20
-60.1918314472
 10
10.8365959122
 20
-60.0988545509
 10
10.8376394787
 20
-60.0017086216
  0
LINE
  5
3D0
100
AcDbEntity
  8
0
100
AcDbLine
 62
7
  6
CONTINUOUS
 10
1.1095553882
 20
-61.2874751855
 11
1.1095553882
 21
-59.1626968326
  0
LINE
  5
3D1
100
AcDbEntity
  8
0
100
AcDbLine
 62
7
  6
CONTINUOUS
 10
1.155895
 20
49.79987
 11
1.155895
 21
55.000104
  0
LINE
  5
3D2
100
AcDbEntity
  8
0
100
AcDbLine
 62
7
  6
CONTINUOUS
 10
1.2791670322
 20
44.75
 11
1.2791670322
 21
47.05
  0
LINE
  5
3D3
100
AcDbEntity
  8
0
100
AcDbLine
 62
7
  6
CONTINUOUS
 10
1.2848495192
 20
42.2074468493
 11
1.2848495192
 21
41.8159573972
  0
LINE
  5
3D4
100
AcDbEntity
  8
0
100
AcDbLine
 62
7
  6
CONTINUOUS
 10
1.8023495192
 20
42.158510685
 11
1.8023495192
 21
40.25
  0
LINE
  5
3D5
100
AcDbEntity
  8
0
100
AcDbLine
 62
7
  6
CONTINUOUS
 10
2.3198495192
 20
40.25
 11
2.3198495192
 21
42.55
  0
LINE
  5
3D6
100
AcDbEntity
  8
0
100
AcDbLine
 62
7
  6
CONTINUOUS
 10
2.8549090353
 20
-59.1930508091
 11
2.8549090353
 21
-61.2874751855
  0
LINE
  5
3D7
100
AcDbEntity
  8
0
100
AcDbLine
 62
7
  6
CONTINUOUS
 10
3.0098498482
 20
41.6202127397
 11
3.0098498482
 21
41.1797872603
  0
LINE
  5
3D8
100
AcDbEntity
  8
ASSI
100
AcDbLine
 62
7
  6
CONTINUOUS
 10
3.117556
 20
-44.375
 11
3.117556
 21
-43.625
  0
LINE
  5
3D9
100
AcDbEntity
  8
0
100
AcDbLine
 62
7
  6
CONTINUOUS
 10
3.1888027764
 20
-61.2874751855
 11
3.1888027764
 21
-58.7832721267
  0
LINE
  5
3DA
100
AcDbEntity
  8
0
100
AcDbLine
 62
7
  6
CONTINUOUS
 10
3.4411001772
 20
41.2287234247
 11
3.4411001772
 21
41.5712765753
  0
LINE
  5
3DB
100
AcDbEntity
  8
0
100
AcDbLine
 62
7
  6
CONTINUOUS
 10
3.4527399464
 20
-55.1314552652
 11
3.4527399464
 21
-57.635658324
  0
LINE
  5
3DC
100
AcDbEntity
  8
ASSI
100
AcDbLine
 62
7
  6
CONTINUOUS
 10
3.517556
 20
-46.5480371264
 11
3.517556
 21
-45.7972167065
  0
LINE
  5
3DD
100
AcDbEntity
  8
ASSI
100
AcDbLine
 62
7
  6
CONTINUOUS
 10
3.517556
 20
-42.20278
 11
3.517556
 21
-41.4519631124
  0
LINE
  5
3DE
100
AcDbEntity
  8
0
100
AcDbLine
 62
7
  6
CONTINUOUS
 10
3.7866336875
 20
-57.635658324
 11
3.7866336875
 21
-55.1314552652
  0
LINE
  5
3DF
100
AcDbEntity
  8
0
100
AcDbLine
 62
7
  6
CONTINUOUS
 10
3.9625
 20
47.05
 11
3.9625
 21
44.75
  0
LINE
  5
3E0
100
AcDbEntity
  8
0
100
AcDbLine
 62
7
  6
CONTINUOUS
 10
4.25
 20
44.75
 11
4.25
 21
47.05
  0
LINE
  5
3E1
100
AcDbEntity
  8
0
100
AcDbLine
 62
7
  6
CONTINUOUS
 10
4.591014064
 20
-51.4644614154
 11
4.591014064
 21
-53.9686644742
  0
LINE
  5
3E2
100
AcDbEntity
  8
0
100
AcDbLine
 62
7
  6
CONTINUOUS
 10
4.6333329678
 20
47.05
 11
4.6333329678
 21
46.8053191781
  0
LINE
  5
3E3
100
AcDbEntity
  8
0
100
AcDbLine
 62
7
  6
CONTINUOUS
 10
4.9249078052
 20
-53.9686644742
 11
4.9249078052
 21
-52.9366292742
  0
LINE
  5
3E4
100
AcDbEntity
  8
0
100
AcDbLine
 62
7
  6
CONTINUOUS
 10
4.9249078052
 20
-52.6482664978
 11
4.9249078052
 21
-51.7528241919
  0
LINE
  5
3E5
100
AcDbEntity
  8
0
100
AcDbLine
 62
7
  6
CONTINUOUS
 10
5.4
 20
46.8053191781
 11
5.4
 21
44.75
  0
LINE
  5
3E6
100
AcDbEntity
  8
0
100
AcDbLine
 62
7
  6
CONTINUOUS
 10
5.6835995192
 20
41.5712765753
 11
5.6835995192
 21
41.2287234247
  0
LINE
  5
3E7
100
AcDbEntity
  8
0
100
AcDbLine
 62
7
  6
CONTINUOUS
 10
5.6875
 20
44.75
 11
5.6875
 21
46.8053191781
  0
LINE
  5
3E8
100
AcDbEntity
  8
ASSI
100
AcDbLine
 62
7
  6
CONTINUOUS
 10
5.732239
 20
33.30662
 11
5.732239
 21
32.762971
  0
LINE
  5
3E9
100
AcDbEntity
  8
ASSI
100
AcDbLine
 62
7
  6
CONTINUOUS
 10
5.749993
 20
37.715613
 11
5.749993
 21
37.168974
  0
LINE
  5
3EA
100
AcDbEntity
  8
0
100
AcDbLine
 62
7
  6
CONTINUOUS
 10
6.0572535529
 20
-58.7832721267
 11
6.0572535529
 21
-61.2874751855
  0
LINE
  5
3EB
100
AcDbEntity
  8
0
100
AcDbLine
 62
7
  6
CONTINUOUS
 10
6.1148498482
 20
41.1797872603
 11
6.1148498482
 21
41.6202127397
  0
LINE
  5
3EC
100
AcDbEntity
  8
ASSI
100
AcDbLine
 62
7
  6
CONTINUOUS
 10
6.214029
 20
37.168974
 11
6.214029
 21
35.782847
  0
LINE
  5
3ED
100
AcDbEntity
  8
ASSI
100
AcDbLine
 62
7
  6
CONTINUOUS
 10
6.214029
 20
35.109126
 11
6.214029
 21
33.30662
  0
LINE
  5
3EE
100
AcDbEntity
  8
0
100
AcDbLine
 62
7
  6
CONTINUOUS
 10
6.3911472941
 20
-61.2874751855
 11
6.3911472941
 21
-60.1795550444
  0
LINE
  5
3EF
100
AcDbEntity
  8
0
100
AcDbLine
 62
7
  6
CONTINUOUS
 10
6.3911472941
 20
-59.8911922679
 11
6.3911472941
 21
-59.0716349032
  0
LINE
  5
3F0
100
AcDbEntity
  8
0
100
AcDbLine
 62
7
  6
CONTINUOUS
 10
6.4541659355
 20
46.8053191781
 11
6.4541659355
 21
47.05
  0
LINE
  5
3F1
100
AcDbEntity
  8
ASSI
100
AcDbLine
 62
7
  6
CONTINUOUS
 10
6.793186
 20
33.30662
 11
6.793186
 21
35.115206
  0
LINE
  5
3F2
100
AcDbEntity
  8
ASSI
100
AcDbLine
 62
7
  6
CONTINUOUS
 10
6.793186
 20
35.782847
 11
6.793186
 21
37.168974
  0
LINE
  5
3F3
100
AcDbEntity
  8
0
100
AcDbLine
 62
7
  6
CONTINUOUS
 10
6.8048491902
 20
42.55
 11
6.8048491902
 21
41.2776595891
  0
LINE
  5
3F4
100
AcDbEntity
  8
0
100
AcDbLine
 62
7
  6
CONTINUOUS
 10
6.913093264
 20
-55.1314552652
 11
6.913093264
 21
-57.635658324
  0
LINE
  5
3F5
100
AcDbEntity
  8
0
100
AcDbLine
 62
7
  6
CONTINUOUS
 10
6.921928
 20
55.000117
 11
6.921928
 21
49.799883
  0
LINE
  5
3F6
100
AcDbEntity
  8
0
100
AcDbLine
 62
7
  6
CONTINUOUS
 10
7.2361005062
 20
41.5223404109
 11
7.2361005062
 21
42.3053191781
  0
LINE
  5
3F7
100
AcDbEntity
  8
0
100
AcDbLine
 62
7
  6
CONTINUOUS
 10
7.2469870052
 20
-57.3472955475
 11
7.2469870052
 21
-56.4822072181
  0
LINE
  5
3F8
100
AcDbEntity
  8
0
100
AcDbLine
 62
7
  6
CONTINUOUS
 10
7.2469870052
 20
-56.1938444416
 11
7.2469870052
 21
-55.4198180416
  0
LINE
  5
3F9
100
AcDbEntity
  8
ASSI
100
AcDbLine
 62
7
  6
CONTINUOUS
 10
7.257034
 20
37.168974
 11
7.257034
 21
37.715613
  0
LINE
  5
3FA
100
AcDbEntity
  8
ASSI
100
AcDbLine
 62
7
  6
CONTINUOUS
 10
7.274788
 20
32.762971
 11
7.274788
 21
33.30662
  0
LINE
  5
3FB
100
AcDbEntity
  8
0
100
AcDbLine
 62
7
  6
CONTINUOUS
 10
7.947641
 20
52.772632
 11
7.947628
 21
54.038078
  0
LINE
  5
3FC
100
AcDbEntity
  8
0
100
AcDbLine
 62
7
  6
CONTINUOUS
 10
8.6129159463
 20
-56.4822072181
 11
8.6129159463
 21
-56.1938444416
  0
LINE
  5
3FD
100
AcDbEntity
  8
0
100
AcDbLine
 62
7
  6
CONTINUOUS
 10
8.7039778758
 20
-55.4198180416
 11
8.7039778758
 21
-55.1314552652
  0
LINE
  5
3FE
100
AcDbEntity
  8
0
100
AcDbLine
 62
7
  6
CONTINUOUS
 10
8.7646858287
 20
-57.635658324
 11
8.7646858287
 21
-57.3472955475
  0
LINE
  5
3FF
100
AcDbEntity
  8
0
100
AcDbLine
 62
7
  6
CONTINUOUS
 10
7.96198
 20
49.799883
 11
7.962097
 21
51.810593
  0
LWPOLYLINE
  5
400
100
AcDbEntity
  8
0
100
AcDbPolyline
 62
7
  6
CONTINUOUS
 90
28
 70
0
 10
4.6061910522
 20
-56.3631625212
 10
4.6085316107
 20
-56.2894538996
 10
4.6133962751
 20
-56.218918178
 10
4.6207850456
 20
-56.1515553564
 10
4.6309428732
 20
-56.0874358952
 10
4.6436248068
 20
-56.026489334
 10
4.6580959929
 20
-55.9685042918
 10
4.6740146097
 20
-55.9133703859
 10
4.691722479
 20
-55.8611979991
 10
4.7115102123
 20
-55.8121068979
 10
4.7334048121
 20
-55.7663781592
 10
4.757379276
 20
-55.7237307061
 10
4.7836432082
 20
-55.6834410753
 10
4.812335617
 20
-55.6452735686
 10
4.8433174942
 20
-55.6094638841
 10
4.8763814185
 20
-55.5759956526
 10
4.9115338498
 20
-55.5447842422
 10
4.9487683282
 20
-55.5159142848
 10
4.9878580531
 20
-55.489623307
 10
5.0286924385
 20
-55.4659488
 10
5.0713820705
 20
-55.4448532726
 10
5.1160319059
 20
-55.4264617775
 10
5.1624672829
 20
-55.4107737958
 10
5.2108628634
 20
-55.3977898464
 10
5.2618475898
 20
-55.3876365389
 10
5.3156311094
 20
-55.3803560764
 10
5.3720037749
 20
-55.3759062558
 10
5.4309655863
 20
-55.3742870769
  0
LINE
  5
401
100
AcDbEntity
  8
0
100
AcDbLine
 62
7
  6
CONTINUOUS
 10
-1.5841227637
 20
-59.8304843149
 11
-1.6192196214
 21
-60.1036701032
  0
LWPOLYLINE
  5
402
100
AcDbEntity
  8
0
100
AcDbPolyline
 62
7
  6
CONTINUOUS
 90
40
 70
0
 10
-9.6661062588
 20
-59.4662365973
 10
-9.6575214235
 20
-59.4207044819
 10
-9.6470653226
 20
-59.3776868313
 10
-9.634737956
 20
-59.3371836456
 10
-9.6203438715
 20
-59.2990529711
 10
-9.6040785213
 20
-59.2634367614
 10
-9.5865282627
 20
-59.2307608777
 10
-9.5679414909
 20
-59.201384321
 10
-9.5480698107
 20
-59.1749480903
 10
-9.5267543942
 20
-59.1508010442
 10
-9.5040243184
 20
-59.128835275
 10
-9.4798505063
 20
-59.1091586904
 10
-9.4539868983
 20
-59.0914438718
 10
-9.4263624214
 20
-59.0754826593
 10
-9.3970481487
 20
-59.0614832128
 10
-9.3660112398
 20
-59.0497425939
 10
-9.3330413817
 20
-59.0402722023
 10
-9.2983488874
 20
-59.0330606383
 10
-9.2625318551
 20
-59.0283707651
 10
-9.2249172096
 20
-59.026307685
 10
-9.1861780261
 20
-59.0267662957
 10
-9.1489316277
 20
-59.029694154
 10
-9.113916708
 20
-59.0351814932
 10
-9.0803945735
 20
-59.04313808
 10
-9.0487664671
 20
-59.0532407704
 10
-9.0193052066
 20
-59.0654062718
 10
-8.9917379742
 20
-59.0797178769
 10
-8.965647559
 20
-59.0961023196
 10
-8.9407219268
 20
-59.1147567076
 10
-8.917273112
 20
-59.1354839332
 10
-8.8958200067
 20
-59.157619407
 10
-8.8764504375
 20
-59.1810289847
 10
-8.8590765778
 20
-59.2058468107
 10
-8.8439538405
 20
-59.2318107288
 10
-8.8311667664
 20
-59.2586370877
 10
-8.8206308146
 20
-59.2866095388
 10
-8.8123477759
 20
-59.3163168797
 10
-8.8063182473
 20
-59.3479553765
 10
-8.8025416318
 20
-59.3813287631
 10
-8.8010179294
 20
-59.4164370395
  0
LINE
  5
403
100
AcDbEntity
  8
0
100
AcDbLine
 62
7
  6
CONTINUOUS
 10
-12.7125
 20
46.5606383562
 11
-12.0416666895
 21
44.75
  0
LINE
  5
404
100
AcDbEntity
  8
0
100
AcDbLine
 62
7
  6
CONTINUOUS
 10
-11.85
 20
44.9946808562
 11
-12.56875
 21
47.05
  0
LINE
  5
405
100
AcDbEntity
  8
0
100
AcDbLine
 62
7
  6
CONTINUOUS
 10
-8.4
 20
44.75
 11
-9.1666667581
 21
47.05
  0
LINE
  5
406
100
AcDbEntity
  8
0
100
AcDbLine
 62
7
  6
CONTINUOUS
 10
-8.8791667581
 20
45.3372340411
 11
-8.6875
 21
44.75
  0
LINE
  5
407
100
AcDbEntity
  8
0
100
AcDbLine
 62
7
  6
CONTINUOUS
 10
-9.3583332419
 20
46.8542553425
 11
-8.9270832419
 21
45.5329786986
  0
LINE
  5
408
100
AcDbEntity
  8
0
100
AcDbLine
 62
7
  6
CONTINUOUS
 10
-11.083514
 20
55.000104
 11
-9.413898
 21
49.799857
  0
LINE
  5
409
100
AcDbEntity
  8
0
100
AcDbLine
 62
7
  6
CONTINUOUS
 10
-8.893846
 20
51.419462
 11
-10.043462
 21
55.000104
  0
LWPOLYLINE
  5
40A
100
AcDbEntity
  8
0
100
AcDbPolyline
 62
7
  6
CONTINUOUS
 90
10
 70
0
 10
20.073202304
 20
-59.0412809267
 10
20.0901484256
 20
-59.0976860825
 10
20.1078316977
 20
-59.1546006884
 10
20.1262521203
 20
-59.2120247443
 10
20.1454716019
 20
-59.2699585906
 10
20.1654282341
 20
-59.3284018869
 10
20.1859362907
 20
-59.3873536127
 10
20.2069338632
 20
-59.4468134276
 10
20.2284828602
 20
-59.5067816719
 10
20.2505832816
 20
-59.5672583456
  0
LWPOLYLINE
  5
40B
100
AcDbEntity
  8
0
100
AcDbPolyline
 62
7
  6
CONTINUOUS
 90
10
 70
0
 10
23.4121397157
 20
-61.0067007874
 10
23.3996977198
 20
-60.9626988479
 10
23.3867104112
 20
-60.9183390464
 10
23.3731777898
 20
-60.873621383
 10
23.3590912078
 20
-60.8285432511
 10
23.3444593131
 20
-60.7831072573
 10
23.3293080496
 20
-60.7373212214
 10
23.3136460654
 20
-60.6911877501
 10
23.2974647125
 20
-60.6447042367
 10
22.6305247058
 20
-58.7832721267
  0
LINE
  5
40C
100
AcDbEntity
  8
0
100
AcDbLine
 62
7
  6
CONTINUOUS
 10
-6.4354164839
 20
46.4627658904
 11
-6.3875
 21
46.2670212328
  0
LINE
  5
40D
100
AcDbEntity
  8
0
100
AcDbLine
 62
7
  6
CONTINUOUS
 10
-6.1
 20
46.2670212328
 11
-6.1479164839
 21
46.5117021918
  0
LINE
  5
40E
100
AcDbEntity
  8
0
100
AcDbLine
 62
7
  6
CONTINUOUS
 10
9.1375
 20
47.05
 11
9.1375
 21
44.75
  0
LINE
  5
40F
100
AcDbEntity
  8
0
100
AcDbLine
 62
7
  6
CONTINUOUS
 10
9.235172464
 20
-55.1314552652
 11
9.235172464
 21
-57.635658324
  0
LINE
  5
410
100
AcDbEntity
  8
0
100
AcDbLine
 62
7
  6
CONTINUOUS
 10
9.425
 20
45.0436170205
 11
9.425
 21
47.05
  0
LINE
  5
411
100
AcDbEntity
  8
0
100
AcDbLine
 62
7
  6
CONTINUOUS
 10
9.4785998482
 20
41.0329786986
 11
9.4785998482
 21
40.9351063699
  0
LINE
  5
412
100
AcDbEntity
  8
0
100
AcDbLine
 62
7
  6
CONTINUOUS
 10
9.5690662052
 20
-57.635658324
 11
9.5690662052
 21
-55.7150577643
  0
LINE
  5
413
100
AcDbEntity
  8
0
100
AcDbLine
 62
7
  6
CONTINUOUS
 10
9.7373498482
 20
42.3053191781
 11
9.7373498482
 21
42.55
  0
LINE
  5
414
100
AcDbEntity
  8
0
100
AcDbLine
 62
7
  6
CONTINUOUS
 10
9.9098491902
 20
40.8861702055
 11
9.9098491902
 21
41.081914863
  0
LINE
  5
415
100
AcDbEntity
  8
0
100
AcDbLine
 62
7
  6
CONTINUOUS
 10
10.8439332169
 20
-55.1314552652
 11
10.8439332169
 21
-57.0520555933
  0
LINE
  5
416
100
AcDbEntity
  8
0
100
AcDbLine
 62
7
  6
CONTINUOUS
 10
10.8625
 20
44.75
 11
10.8625
 21
45.0436170205
  0
LINE
  5
417
100
AcDbEntity
  8
0
100
AcDbLine
 62
7
  6
CONTINUOUS
 10
11.1778269581
 20
-57.635658324
 11
11.1778269581
 21
-55.1314552652
  0
LINE
  5
418
100
AcDbEntity
  8
0
100
AcDbLine
 62
7
  6
CONTINUOUS
 10
11.5268976875
 20
-57.3352012005
 11
11.5268976875
 21
-57.635658324
  0
LINE
  5
419
100
AcDbEntity
  8
0
100
AcDbLine
 62
7
  6
CONTINUOUS
 10
11.6786675699
 20
-55.1314552652
 11
11.6786675699
 21
-55.4198180416
  0
LINE
  5
41A
100
AcDbEntity
  8
0
100
AcDbLine
 62
7
  6
CONTINUOUS
 10
12.0125
 20
45.9244680822
 11
12.0125
 21
44.75
  0
LINE
  5
41B
100
AcDbEntity
  8
0
100
AcDbLine
 62
7
  6
CONTINUOUS
 10
12.3
 20
44.75
 11
12.3
 21
45.9244680822
  0
LINE
  5
41C
100
AcDbEntity
  8
0
100
AcDbLine
 62
7
  6
CONTINUOUS
 10
13.418092847
 20
-58.7832721267
 11
13.418092847
 21
-59.0716349032
  0
LINE
  5
41D
100
AcDbEntity
  8
0
100
AcDbLine
 62
7
  6
CONTINUOUS
 10
13.4543751934
 20
-55.4198180416
 11
13.4543751934
 21
-55.1314552652
  0
LINE
  5
41E
100
AcDbEntity
  8
0
100
AcDbLine
 62
7
  6
CONTINUOUS
 10
13.5
 20
29.75
 11
13.5
 21
56.75
  0
LINE
  5
41F
100
AcDbEntity
  8
0
100
AcDbLine
 62
7
  6
CONTINUOUS
 10
13.5150831463
 20
-57.635658324
 11
13.5150831463
 21
-57.3472955475
  0
LINE
  5
420
100
AcDbEntity
  8
0
100
AcDbLine
 62
7
  6
CONTINUOUS
 10
14.2376502117
 20
-59.0716349032
 11
14.2376502117
 21
-61.2874751855
  0
LINE
  5
421
100
AcDbEntity
  8
0
100
AcDbLine
 62
7
  6
CONTINUOUS
 10
14.5715439529
 20
-61.2874751855
 11
14.5715439529
 21
-59.0716349032
  0
LINE
  5
422
100
AcDbEntity
  8
0
100
AcDbLine
 62
7
  6
CONTINUOUS
 10
15.3911013176
 20
-59.0716349032
 11
15.3911013176
 21
-58.7832721267
  0
LINE
  5
423
100
AcDbEntity
  8
0
100
AcDbLine
 62
7
  6
CONTINUOUS
 10
15.7705260235
 20
-58.7832721267
 11
15.7705260235
 21
-61.2874751855
  0
LINE
  5
424
100
AcDbEntity
  8
0
100
AcDbLine
 62
7
  6
CONTINUOUS
 10
16.1044197647
 20
-61.2874751855
 11
16.1044197647
 21
-58.7832721267
  0
LWPOLYLINE
  5
425
100
AcDbEntity
  8
0
100
AcDbPolyline
 62
7
  6
CONTINUOUS
 90
16
 70
0
 10
8.7891114353
 20
-60.0728418386
 10
8.7900099835
 20
-59.9963039482
 10
8.7934191325
 20
-59.9227318332
 10
8.7993388823
 20
-59.8521254937
 10
8.8078006777
 20
-59.7842821389
 10
8.8187730739
 20
-59.7194045596
 10
8.8321617363
 20
-59.6581011279
 10
8.8480818011
 20
-59.6005828462
 10
8.866418132
 20
-59.546638712
 10
8.886730986
 20
-59.4962440905
 10
8.9090926547
 20
-59.4494267902
 10
8.9334308464
 20
-59.4061590026
 10
8.9590889431
 20
-59.3663326672
 10
8.9858480724
 20
-59.3299117639
 10
9.0139271067
 20
-59.2969323128
 10
9.0433260461
 20
-59.2673943138
  0
LWPOLYLINE
  5
426
100
AcDbEntity
  8
0
100
AcDbPolyline
 62
7
  6
CONTINUOUS
 90
40
 70
0
 10
-1.8954882824
 20
-59.4662365973
 10
-1.8869034471
 20
-59.4207044819
 10
-1.8764473461
 20
-59.3776868313
 10
-1.8641199796
 20
-59.3371836456
 10
-1.849725895
 20
-59.2990529711
 10
-1.8334605448
 20
-59.2634367614
 10
-1.8159102862
 20
-59.2307608777
 10
-1.7973235144
 20
-59.201384321
 10
-1.7774518343
 20
-59.1749480903
 10
-1.7561364177
 20
-59.1508010442
 10
-1.733406342
 20
-59.128835275
 10
-1.7092325298
 20
-59.1091586904
 10
-1.6833689218
 20
-59.0914438718
 10
-1.655744445
 20
-59.0754826593
 10
-1.6264301723
 20
-59.0614832128
 10
-1.5953932633
 20
-59.0497425939
 10
-1.5624234053
 20
-59.0402722023
 10
-1.527730911
 20
-59.0330606383
 10
-1.4919138786
 20
-59.0283707651
 10
-1.4542992331
 20
-59.026307685
 10
-1.4155600496
 20
-59.0267662957
 10
-1.3783136513
 20
-59.029694154
 10
-1.3432987316
 20
-59.0351814932
 10
-1.3097765971
 20
-59.04313808
 10
-1.2781484906
 20
-59.0532407704
 10
-1.2486872301
 20
-59.0654062718
 10
-1.2211199977
 20
-59.0797178769
 10
-1.1950295826
 20
-59.0961023196
 10
-1.1701039504
 20
-59.1147567076
 10
-1.1466551355
 20
-59.1354839332
 10
-1.1252020302
 20
-59.157619407
 10
-1.105832461
 20
-59.1810289847
 10
-1.0884586013
 20
-59.2058468107
 10
-1.0733358641
 20
-59.2318107288
 10
-1.0605487899
 20
-59.2586370877
 10
-1.0500128381
 20
-59.2866095388
 10
-1.0417297995
 20
-59.3163168797
 10
-1.0357002708
 20
-59.3479553765
 10
-1.0319236553
 20
-59.3813287631
 10
-1.030399953
 20
-59.4164370395
  0
LWPOLYLINE
  5
427
100
AcDbEntity
  8
0
100
AcDbPolyline
 62
7
  6
CONTINUOUS
 90
3
 70
0
 10
-5.2378346435
 20
-53.4718877112
 10
-5.2526926683
 20
-53.5159613664
 10
-5.2816166672
 20
-53.6034681803
  0
LINE
  5
428
100
AcDbEntity
  8
0
100
AcDbLine
 62
7
  6
CONTINUOUS
 10
-5.207257428
 20
-53.3831017134
 11
-5.2378346435
 21
-53.4718877112
  0
LINE
  5
429
100
AcDbEntity
  8
0
100
AcDbLine
 62
7
  6
CONTINUOUS
 10
-6.3971254183
 20
-57.635658324
 11
-6.1331880168
 21
-56.8768089122
  0
LINE
  5
42A
100
AcDbEntity
  8
0
100
AcDbLine
 62
7
  6
CONTINUOUS
 10
-3.4831436772
 20
-53.9686644742
 11
-3.2192062757
 21
-53.2098150625
  0
LINE
  5
42B
100
AcDbEntity
  8
0
100
AcDbLine
 62
7
  6
CONTINUOUS
 10
-6.8735404235
 20
-65.0
 11
-6.609603022
 21
-64.2411505882
  0
LINE
  5
42C
100
AcDbEntity
  8
0
100
AcDbLine
 62
7
  6
CONTINUOUS
 10
-5.1632836341
 20
-53.9686644742
 11
-4.4241169477
 21
-51.8742400978
  0
LINE
  5
42D
100
AcDbEntity
  8
0
100
AcDbLine
 62
7
  6
CONTINUOUS
 10
-5.1440751969
 20
-53.2029378847
 11
-5.207257428
 21
-53.3831017134
  0
LINE
  5
42E
100
AcDbEntity
  8
0
100
AcDbLine
 62
7
  6
CONTINUOUS
 10
-4.524664408
 20
-51.4644614154
 11
-5.1440751969
 21
-53.2029378847
  0
LWPOLYLINE
  5
42F
100
AcDbEntity
  8
0
100
AcDbPolyline
 62
7
  6
CONTINUOUS
 90
9
 70
0
 10
-8.7432464051
 20
-53.3251718091
 10
-8.7601161318
 20
-53.3711172436
 10
-8.7764536004
 20
-53.4168962733
 10
-8.7922556667
 20
-53.4625157828
 10
-8.8075254748
 20
-53.5079688875
 10
-8.822272458
 20
-53.5532349345
 10
-8.8364997606
 20
-53.5983070394
 10
-8.8502042382
 20
-53.6431920866
 10
-8.8633858908
 20
-53.6878900761
  0
LWPOLYLINE
  5
430
100
AcDbEntity
  8
0
100
AcDbPolyline
 62
7
  6
CONTINUOUS
 90
9
 70
0
 10
-8.7432464051
 20
-56.9921656589
 10
-8.7601161318
 20
-57.0381110933
 10
-8.7764536004
 20
-57.0838901231
 10
-8.7922556667
 20
-57.1295096325
 10
-8.8075254748
 20
-57.1749627373
 10
-8.822272458
 20
-57.2202287843
 10
-8.8364997606
 20
-57.2653008892
 10
-8.8502042382
 20
-57.3101859364
 10
-8.8633858908
 20
-57.3548839258
  0
LINE
  5
431
100
AcDbEntity
  8
0
100
AcDbLine
 62
7
  6
CONTINUOUS
 10
-6.0380946384
 20
-56.603623124
 11
-5.7675174348
 21
-55.872519104
  0
LINE
  5
432
100
AcDbEntity
  8
0
100
AcDbLine
 62
7
  6
CONTINUOUS
 10
-3.1241128972
 20
-52.9366292742
 11
-2.8535356937
 21
-52.2055252543
  0
LINE
  5
433
100
AcDbEntity
  8
0
100
AcDbLine
 62
7
  6
CONTINUOUS
 10
-6.5145096436
 20
-63.9679648
 11
-6.24393244
 21
-63.2368607801
  0
LINE
  5
434
100
AcDbEntity
  8
0
100
AcDbLine
 62
7
  6
CONTINUOUS
 10
-8.0362401477
 20
-51.4644614154
 11
-8.7432464051
 21
-53.3251718091
  0
LINE
  5
435
100
AcDbEntity
  8
0
100
AcDbLine
 62
7
  6
CONTINUOUS
 10
-8.0362401477
 20
-55.1314552652
 11
-8.7432464051
 21
-56.9921656589
  0
LINE
  5
436
100
AcDbEntity
  8
0
100
AcDbLine
 62
7
  6
CONTINUOUS
 10
-5.7976342672
 20
-55.1314552652
 11
-6.749515933
 21
-57.635658324
  0
LINE
  5
437
100
AcDbEntity
  8
0
100
AcDbLine
 62
7
  6
CONTINUOUS
 10
-2.8836525261
 20
-51.4644614154
 11
-3.8355341918
 21
-53.9686644742
  0
LINE
  5
438
100
AcDbEntity
  8
0
100
AcDbLine
 62
7
  6
CONTINUOUS
 10
-6.2740492724
 20
-62.4957969412
 11
-7.2259309382
 21
-65.0
  0
LINE
  5
439
100
AcDbEntity
  8
0
100
AcDbLine
 62
7
  6
CONTINUOUS
 10
-8.6779420151
 20
-53.9686644742
 11
-7.6791065203
 21
-51.4644614154
  0
LINE
  5
43A
100
AcDbEntity
  8
0
100
AcDbLine
 62
7
  6
CONTINUOUS
 10
-8.6779420151
 20
-57.635658324
 11
-7.6791065203
 21
-55.1314552652
  0
LWPOLYLINE
  5
43B
100
AcDbEntity
  8
0
100
AcDbPolyline
 62
7
  6
CONTINUOUS
 90
10
 70
0
 10
-5.7675174348
 20
-55.872519104
 10
-5.7466383864
 20
-55.8209886215
 10
-5.7267370347
 20
-55.7688731764
 10
-5.7078133797
 20
-55.7161727688
 10
-5.689841224
 20
-55.6628215483
 10
-5.672846765
 20
-55.6088853652
 10
-5.6569085948
 20
-55.5545617703
 10
-5.6420529106
 20
-55.4999166137
 10
-5.6282535152
 20
-55.4448840454
 10
-5.6155104084
 20
-55.3894640652
  0
LINE
  5
43C
100
AcDbEntity
  8
0
100
AcDbLine
 62
7
  6
CONTINUOUS
 10
-8.7201501929
 20
40.5436170205
 11
-9.9276501518
 21
42.55
  0
LINE
  5
43D
100
AcDbEntity
  8
0
100
AcDbLine
 62
7
  6
CONTINUOUS
 10
-10.4451501518
 20
42.55
 11
-9.0651501107
 21
40.25
  0
LINE
  5
43E
100
AcDbEntity
  8
0
100
AcDbLine
 62
7
  6
CONTINUOUS
 10
-6.1479164839
 20
46.5117021918
 11
-6.24375
 21
46.7074468493
  0
LINE
  5
43F
100
AcDbEntity
  8
0
100
AcDbLine
 62
7
  6
CONTINUOUS
 10
3.0098498482
 20
41.1797872603
 11
3.0960995192
 21
40.9351063699
  0
LINE
  5
440
100
AcDbEntity
  8
0
100
AcDbLine
 62
7
  6
CONTINUOUS
 10
3.5273498482
 20
40.9351063699
 11
3.4411001772
 21
41.2287234247
  0
LINE
  5
441
100
AcDbEntity
  8
0
100
AcDbLine
 62
7
  6
CONTINUOUS
 10
-2.890758
 20
53.229075
 11
-1.907464
 21
49.79987
  0
LINE
  5
442
100
AcDbEntity
  8
0
100
AcDbLine
 62
7
  6
CONTINUOUS
 10
-1.387451
 20
51.613526
 11
-2.358538
 21
55.000104
  0
LINE
  5
443
100
AcDbEntity
  8
0
100
AcDbLine
 62
7
  6
CONTINUOUS
 10
17.2637992404
 20
-55.7461231729
 11
17.2637992404
 21
-56.0439714802
  0
LINE
  5
444
100
AcDbEntity
  8
0
100
AcDbLine
 62
7
  6
CONTINUOUS
 10
17.8860557581
 20
-55.6726096723
 11
17.8860557581
 21
-57.635658324
  0
LINE
  5
445
100
AcDbEntity
  8
0
100
AcDbLine
 62
7
  6
CONTINUOUS
 10
18.1895955228
 20
-57.635658324
 11
18.1895955228
 21
-55.1162782769
  0
LINE
  5
446
100
AcDbEntity
  8
0
100
AcDbLine
 62
7
  6
CONTINUOUS
 10
18.8725599934
 20
-56.7553930063
 11
18.8725599934
 21
-57.0437557828
  0
LINE
  5
447
100
AcDbEntity
  8
0
100
AcDbLine
 62
7
  6
CONTINUOUS
 10
19.9804801346
 20
-55.6379871028
 11
19.9804801346
 21
-56.7553930063
  0
LINE
  5
448
100
AcDbEntity
  8
0
100
AcDbLine
 62
7
  6
CONTINUOUS
 10
19.9804801346
 20
-57.0437557828
 11
19.9804801346
 21
-57.635658324
  0
LINE
  5
449
100
AcDbEntity
  8
0
100
AcDbLine
 62
7
  6
CONTINUOUS
 10
20.2840198993
 20
-57.635658324
 11
20.2840198993
 21
-57.0437557828
  0
LINE
  5
44A
100
AcDbEntity
  8
0
100
AcDbLine
 62
7
  6
CONTINUOUS
 10
20.2840198993
 20
-56.7553930063
 11
20.2840198993
 21
-55.1314552652
  0
LINE
  5
44B
100
AcDbEntity
  8
0
100
AcDbLine
 62
7
  6
CONTINUOUS
 10
20.6179136404
 20
-57.0437557828
 11
20.6179136404
 21
-56.7553930063
  0
LWPOLYLINE
  5
44C
100
AcDbEntity
  8
0
100
AcDbPolyline
 62
7
  6
CONTINUOUS
 90
28
 70
0
 10
16.9239771294
 20
-60.0149793828
 10
16.9263176878
 20
-59.9412707612
 10
16.9311823523
 20
-59.8707350395
 10
16.9385711227
 20
-59.803372218
 10
16.9487289503
 20
-59.7392527567
 10
16.9614108839
 20
-59.6783061955
 10
16.97588207
 20
-59.6203211533
 10
16.9918006868
 20
-59.5651872475
 10
17.0095085561
 20
-59.5130148606
 10
17.0292962894
 20
-59.4639237595
 10
17.0511908893
 20
-59.4181950207
 10
17.0751653531
 20
-59.3755475677
 10
17.1014292853
 20
-59.3352579368
 10
17.1301216942
 20
-59.2970904301
 10
17.1611035713
 20
-59.2612807456
 10
17.1941674956
 20
-59.2278125141
 10
17.2293199269
 20
-59.1966011037
 10
17.2665544053
 20
-59.1677311464
 10
17.3056441302
 20
-59.1414401685
 10
17.3464785157
 20
-59.1177656615
 10
17.3891681476
 20
-59.0966701341
 10
17.433817983
 20
-59.078278639
 10
17.4802533601
 20
-59.0625906573
 10
17.5286489406
 20
-59.049606708
 10
17.5796336669
 20
-59.0394534005
 10
17.6334171866
 20
-59.032172938
 10
17.6897898521
 20
-59.0277231173
 10
17.7487516634
 20
-59.0261039385
  0
LWPOLYLINE
  5
44D
100
AcDbEntity
  8
0
100
AcDbPolyline
 62
7
  6
CONTINUOUS
 90
49
 70
0
 10
6.1542438522
 20
-56.7568156391
 10
6.1394661263
 20
-56.8176988589
 10
6.1224175891
 20
-56.8752250939
 10
6.1030982407
 20
-56.929394344
 10
6.0813863669
 20
-56.9801701152
 10
6.0574036819
 20
-57.0275889015
 10
6.0315153279
 20
-57.0717601853
 10
6.0037767377
 20
-57.1125874779
 10
5.9741324785
 20
-57.150167268
 10
5.9427813946
 20
-57.1848985042
 10
5.909851576
 20
-57.2168025786
 10
5.8752149326
 20
-57.2458580991
 10
5.8386860386
 20
-57.2723998381
 10
5.8002072998
 20
-57.2965908337
 10
5.7598363103
 20
-57.3182680477
 10
5.7175604263
 20
-57.3372771374
 10
5.6734859021
 20
-57.3536464575
 10
5.6275064834
 20
-57.3673476531
 10
5.5792907627
 20
-57.3781413175
 10
5.5282577706
 20
-57.3861261582
 10
5.4749884766
 20
-57.3912034675
 10
5.4208943811
 20
-57.3928377156
 10
5.3657642234
 20
-57.3908067416
 10
5.3098092641
 20
-57.3853327062
 10
5.255074786
 20
-57.3765465615
 10
5.2018506973
 20
-57.3642844957
 10
5.1498470897
 20
-57.3487103205
 10
5.1002395205
 20
-57.3304464231
 10
5.0532763069
 20
-57.3094750794
 10
5.0087091316
 20
-57.2858140135
 10
4.9669686001
 20
-57.2601387843
 10
4.9282843997
 20
-57.2326429775
 10
4.8924268431
 20
-57.2031330075
 10
4.8591374741
 20
-57.1717036768
 10
4.8286104851
 20
-57.1387508312
 10
4.8006516837
 20
-57.1038786249
 10
4.7744200363
 20
-57.0659943221
 10
4.7496180758
 20
-57.02481861
 10
4.7265432693
 20
-56.9806308015
 10
4.7052469851
 20
-56.9331760992
 10
4.6856238818
 20
-56.8823132286
 10
4.6677793008
 20
-56.8281834642
 10
4.6520806351
 20
-56.7709558325
 10
4.6385576301
 20
-56.7106759485
 10
4.6271805402
 20
-56.6472981972
 10
4.6182275219
 20
-56.5808547607
 10
4.6117912939
 20
-56.5113563662
 10
4.6077791373
 20
-56.4387922863
 10
4.6061910522
 20
-56.3631625212
  0
LWPOLYLINE
  5
44E
100
AcDbEntity
  8
0
100
AcDbPolyline
 62
7
  6
CONTINUOUS
 90
3
 70
0
 10
2.0411913395
 20
-60.7906984225
 10
2.0263333147
 20
-60.8347720777
 10
1.9974093158
 20
-60.9222788916
  0
LINE
  5
44F
100
AcDbEntity
  8
0
100
AcDbLine
 62
7
  6
CONTINUOUS
 10
2.071768555
 20
-60.7019124247
 11
2.0411913395
 21
-60.7906984225
  0
LINE
  5
450
100
AcDbEntity
  8
0
100
AcDbLine
 62
7
  6
CONTINUOUS
 10
3.7958823059
 20
-61.2874751855
 11
4.0598197074
 21
-60.5286257738
  0
LINE
  5
451
100
AcDbEntity
  8
0
100
AcDbLine
 62
7
  6
CONTINUOUS
 10
6.9738012169
 20
-53.9686644742
 11
7.2377386184
 21
-53.2098150625
  0
LINE
  5
452
100
AcDbEntity
  8
0
100
AcDbLine
 62
7
  6
CONTINUOUS
 10
2.1157423489
 20
-61.2874751855
 11
2.8549090353
 21
-59.1930508091
  0
LINE
  5
453
100
AcDbEntity
  8
0
100
AcDbLine
 62
7
  6
CONTINUOUS
 10
2.1349507861
 20
-60.521748596
 11
2.071768555
 21
-60.7019124247
  0
LINE
  5
454
100
AcDbEntity
  8
0
100
AcDbLine
 62
7
  6
CONTINUOUS
 10
2.7543615751
 20
-58.7832721267
 11
2.1349507861
 21
-60.521748596
  0
LWPOLYLINE
  5
455
100
AcDbEntity
  8
0
100
AcDbPolyline
 62
7
  6
CONTINUOUS
 90
9
 70
0
 10
2.1083001831
 20
-56.9921656589
 10
2.0914304564
 20
-57.0381110933
 10
2.0750929878
 20
-57.0838901231
 10
2.0592909216
 20
-57.1295096325
 10
2.0440211134
 20
-57.1749627373
 10
2.0292741302
 20
-57.2202287843
 10
2.0150468276
 20
-57.2653008892
 10
2.0013423501
 20
-57.3101859364
 10
1.9881606974
 20
-57.3548839258
  0
LINE
  5
456
100
AcDbEntity
  8
0
100
AcDbLine
 62
7
  6
CONTINUOUS
 10
2.8153064405
 20
-55.1314552652
 11
2.1083001831
 21
-56.9921656589
  0
LINE
  5
457
100
AcDbEntity
  8
0
100
AcDbLine
 62
7
  6
CONTINUOUS
 10
2.1736045731
 20
-57.635658324
 11
3.1724400679
 21
-55.1314552652
  0
LWPOLYLINE
  5
458
100
AcDbEntity
  8
0
100
AcDbPolyline
 62
7
  6
CONTINUOUS
 90
10
 70
0
 10
-2.8535356937
 20
-52.2055252543
 10
-2.8326566453
 20
-52.1539947718
 10
-2.8127552936
 20
-52.1018793267
 10
-2.7938316385
 20
-52.049178919
 10
-2.7758594829
 20
-51.9958276985
 10
-2.7588650239
 20
-51.9418915154
 10
-2.7429268536
 20
-51.8875679205
 10
-2.7280711694
 20
-51.832922764
 10
-2.714271774
 20
-51.7778901956
 10
-2.7015286673
 20
-51.7224702154
  0
LWPOLYLINE
  5
459
100
AcDbEntity
  8
0
100
AcDbPolyline
 62
7
  6
CONTINUOUS
 90
10
 70
0
 10
-6.24393244
 20
-63.2368607801
 10
-6.2230533916
 20
-63.1853302975
 10
-6.2031520399
 20
-63.1332148524
 10
-6.1842283849
 20
-63.0805144448
 10
-6.1662562292
 20
-63.0271632243
 10
-6.1492617702
 20
-62.9732270412
 10
-6.1333236
 20
-62.9189034463
 10
-6.1184679158
 20
-62.8642582897
 10
-6.1046685204
 20
-62.8092257214
 10
-6.0919254136
 20
-62.7538057412
  0
LINE
  5
45A
100
AcDbEntity
  8
0
100
AcDbLine
 62
7
  6
CONTINUOUS
 10
-6.53125
 20
46.6095745206
 11
-6.4354164839
 21
46.4627658904
  0
LINE
  5
45B
100
AcDbEntity
  8
0
100
AcDbLine
 62
7
  6
CONTINUOUS
 10
0.9916670322
 20
45.0925531849
 11
-0.20625
 21
47.05
  0
LINE
  5
45C
100
AcDbEntity
  8
0
100
AcDbLine
 62
7
  6
CONTINUOUS
 10
-0.35
 20
46.7563830137
 11
0.8479170322
 21
44.75
  0
LINE
  5
45D
100
AcDbEntity
  8
0
100
AcDbLine
 62
7
  6
CONTINUOUS
 10
3.0960995192
 20
40.9351063699
 11
3.1823501772
 21
40.7882978767
  0
LINE
  5
45E
100
AcDbEntity
  8
ASSI
100
AcDbLine
 62
7
  6
CONTINUOUS
 10
7.508424
 20
33.453315
 11
7.758672
 21
33.007453
  0
LINE
  5
45F
100
AcDbEntity
  8
0
100
AcDbLine
 62
7
  6
CONTINUOUS
 10
0.5948501772
 20
42.0117021918
 11
0.5085995192
 21
42.2074468493
  0
LINE
  5
460
100
AcDbEntity
  8
0
100
AcDbLine
 62
7
  6
CONTINUOUS
 10
6.1148498482
 20
41.6202127397
 11
6.0286001772
 21
41.8648935616
  0
LINE
  5
461
100
AcDbEntity
  8
0
100
AcDbLine
 62
7
  6
CONTINUOUS
 10
8.7541659355
 20
44.75
 11
7.9875
 21
47.05
  0
LINE
  5
462
100
AcDbEntity
  8
0
100
AcDbLine
 62
7
  6
CONTINUOUS
 10
8.275
 20
45.3372340411
 11
8.4666659355
 21
44.75
  0
LINE
  5
463
100
AcDbEntity
  8
0
100
AcDbLine
 62
7
  6
CONTINUOUS
 10
7.7958340645
 20
46.8542553425
 11
8.2270840645
 21
45.5329786986
  0
LINE
  5
464
100
AcDbEntity
  8
0
100
AcDbLine
 62
7
  6
CONTINUOUS
 10
4.860193
 20
50.822541
 11
5.188521
 21
49.799883
  0
LINE
  5
465
100
AcDbEntity
  8
0
100
AcDbLine
 62
7
  6
CONTINUOUS
 10
4.038892
 20
53.380512
 11
4.542941
 21
51.81058
  0
LINE
  5
466
100
AcDbEntity
  8
0
100
AcDbLine
 62
7
  6
CONTINUOUS
 10
6.228573
 20
49.79987
 11
4.558944
 21
55.000117
  0
LINE
  5
467
100
AcDbEntity
  8
0
100
AcDbLine
 62
7
  6
CONTINUOUS
 10
5.5973498482
 20
41.8648935616
 11
5.6835995192
 21
41.5712765753
  0
LINE
  5
468
100
AcDbEntity
  8
0
100
AcDbLine
 62
7
  6
CONTINUOUS
 10
24.8767189646
 20
-58.7832721267
 11
24.8767189646
 21
-61.2874751855
  0
LINE
  5
469
100
AcDbEntity
  8
0
100
AcDbLine
 62
7
  6
CONTINUOUS
 10
25.2106127058
 20
-61.2874751855
 11
25.2106127058
 21
-58.7832721267
  0
LWPOLYLINE
  5
46A
100
AcDbEntity
  8
0
100
AcDbPolyline
 62
7
  6
CONTINUOUS
 90
49
 70
0
 10
18.4720299294
 20
-60.4086325007
 10
18.4572522034
 20
-60.4695157205
 10
18.4402036662
 20
-60.5270419554
 10
18.4208843178
 20
-60.5812112056
 10
18.399172444
 20
-60.6319869767
 10
18.375189759
 20
-60.6794057631
 10
18.349301405
 20
-60.7235770469
 10
18.3215628148
 20
-60.7644043394
 10
18.2919185557
 20
-60.8019841295
 10
18.2605674717
 20
-60.8367153657
 10
18.2276376531
 20
-60.8686194401
 10
18.1930010097
 20
-60.8976749607
 10
18.1564721157
 20
-60.9242166996
 10
18.1179933769
 20
-60.9484076952
 10
18.0776223875
 20
-60.9700849093
 10
18.0353465034
 20
-60.9890939989
 10
17.9912719793
 20
-61.005463319
 10
17.9452925605
 20
-61.0191645147
 10
17.8970768398
 20
-61.029958179
 10
17.8460438478
 20
-61.0379430197
 10
17.7927745537
 20
-61.0430203291
 10
17.7386804582
 20
-61.0446545771
 10
17.6835503005
 20
-61.0426236031
 10
17.6275953413
 20
-61.0371495678
 10
17.5728608631
 20
-61.0283634231
 10
17.5196367745
 20
-61.0161013572
 10
17.4676331669
 20
-61.0005271821
 10
17.4180255976
 20
-60.9822632846
 10
17.371062384
 20
-60.9612919409
 10
17.3264952087
 20
-60.937630875
 10
17.2847546772
 20
-60.9119556459
 10
17.2460704768
 20
-60.8844598391
 10
17.2102129202
 20
-60.8549498691
 10
17.1769235512
 20
-60.8235205383
 10
17.1463965622
 20
-60.7905676928
 10
17.1184377608
 20
-60.7556954864
 10
17.0922061135
 20
-60.7178111836
 10
17.0674041529
 20
-60.6766354716
 10
17.0443293464
 20
-60.632447663
 10
17.0230330623
 20
-60.5849929608
 10
17.0034099589
 20
-60.5341300901
 10
16.985565378
 20
-60.4800003257
 10
16.9698667122
 20
-60.4227726941
 10
16.9563437072
 20
-60.36249281
 10
16.9449666174
 20
-60.2991150588
 10
16.9360135991
 20
-60.2326716222
 10
16.929577371
 20
-60.1631732277
 10
16.9255652144
 20
-60.0906091479
 10
16.9239771294
 20
-60.0149793828
  0
LINE
  5
46B
100
AcDbEntity
  8
0
100
AcDbLine
 62
7
  6
CONTINUOUS
 10
13.9400388169
 20
-57.635658324
 11
14.2039762184
 21
-56.8768089122
  0
LINE
  5
46C
100
AcDbEntity
  8
0
100
AcDbLine
 62
7
  6
CONTINUOUS
 10
4.1549130858
 20
-60.2554399855
 11
4.4254902894
 21
-59.5243359656
  0
LINE
  5
46D
100
AcDbEntity
  8
0
100
AcDbLine
 62
7
  6
CONTINUOUS
 10
7.3328319969
 20
-52.9366292742
 11
7.6034092004
 21
-52.2055252543
  0
LINE
  5
46E
100
AcDbEntity
  8
0
100
AcDbLine
 62
7
  6
CONTINUOUS
 10
4.3953734569
 20
-58.7832721267
 11
3.4434917912
 21
-61.2874751855
  0
LINE
  5
46F
100
AcDbEntity
  8
0
100
AcDbLine
 62
7
  6
CONTINUOUS
 10
7.573292368
 20
-51.4644614154
 11
6.6214107023
 21
-53.9686644742
  0
LWPOLYLINE
  5
470
100
AcDbEntity
  8
0
100
AcDbPolyline
 62
7
  6
CONTINUOUS
 90
10
 70
0
 10
4.4254902894
 20
-59.5243359656
 10
4.4463693378
 20
-59.4728054831
 10
4.4662706895
 20
-59.420690038
 10
4.4851943445
 20
-59.3679896303
 10
4.5031665002
 20
-59.3146384098
 10
4.5201609591
 20
-59.2607022267
 10
4.5360991294
 20
-59.2063786318
 10
4.5509548136
 20
-59.1517334753
 10
4.564754209
 20
-59.0967009069
 10
4.5774973158
 20
-59.0412809267
  0
LWPOLYLINE
  5
471
100
AcDbEntity
  8
0
100
AcDbPolyline
 62
7
  6
CONTINUOUS
 90
10
 70
0
 10
7.6034092004
 20
-52.2055252543
 10
7.6242882488
 20
-52.1539947718
 10
7.6441896005
 20
-52.1018793267
 10
7.6631132556
 20
-52.049178919
 10
7.6810854112
 20
-51.9958276985
 10
7.6980798702
 20
-51.9418915154
 10
7.7140180405
 20
-51.8875679205
 10
7.7288737247
 20
-51.832922764
 10
7.7426731201
 20
-51.7778901956
 10
7.7554162268
 20
-51.7224702154
  0
LINE
  5
472
100
AcDbEntity
  8
0
100
AcDbLine
 62
7
  6
CONTINUOUS
 10
-13.5
 20
29.75
 11
13.5
 21
29.75
  0
LINE
  5
473
100
AcDbEntity
  8
ASSI
100
AcDbLine
 62
7
  6
CONTINUOUS
 10
4.752224
 20
36.340998
 11
6.214029
 21
35.109126
  0
LINE
  5
474
100
AcDbEntity
  8
ASSI
100
AcDbLine
 62
7
  6
CONTINUOUS
 10
6.214029
 20
35.782847
 11
4.684752
 21
37.071578
  0
LINE
  5
475
100
AcDbEntity
  8
0
100
AcDbLine
 62
7
  6
CONTINUOUS
 10
-0.0951501518
 20
42.158510685
 11
0.0773501772
 21
42.0117021918
  0
LINE
  5
476
100
AcDbEntity
  8
0
100
AcDbLine
 62
7
  6
CONTINUOUS
 10
-6.24375
 20
46.7074468493
 11
-6.4354164839
 21
46.9031915069
  0
LINE
  5
477
100
AcDbEntity
  8
0
100
AcDbLine
 62
7
  6
CONTINUOUS
 10
3.1823501772
 20
40.7882978767
 11
3.3548495192
 21
40.5925531849
  0
LINE
  5
478
100
AcDbEntity
  8
0
100
AcDbLine
 62
7
  6
CONTINUOUS
 10
6.8048491902
 20
40.8372340411
 11
6.9773505062
 21
40.6414893493
  0
LINE
  5
479
100
AcDbEntity
  8
0
100
AcDbLine
 62
7
  6
CONTINUOUS
 10
5.9423495192
 20
42.0117021918
 11
5.7698501772
 21
42.2074468493
  0
LINE
  5
47A
100
AcDbEntity
  8
0
100
AcDbLine
 62
7
  6
CONTINUOUS
 10
9.9098491902
 20
41.081914863
 11
9.7373498482
 21
41.3265957534
  0
LINE
  5
47B
100
AcDbEntity
  8
0
100
AcDbLine
 62
7
  6
CONTINUOUS
 10
6.0286001772
 20
41.8648935616
 11
5.9423495192
 21
42.0117021918
  0
LINE
  5
47C
100
AcDbEntity
  8
0
100
AcDbLine
 62
7
  6
CONTINUOUS
 10
9.3923491902
 20
41.1797872603
 11
9.4785998482
 21
41.0329786986
  0
LINE
  5
47D
100
AcDbEntity
  8
0
100
AcDbLine
 62
7
  6
CONTINUOUS
 10
8.869822
 20
51.81058
 11
9.912071
 21
49.799883
  0
LINE
  5
47E
100
AcDbEntity
  8
0
100
AcDbLine
 62
7
  6
CONTINUOUS
 10
19.2915872941
 20
-61.2874751855
 11
19.5555246956
 21
-60.5286257738
  0
LINE
  5
47F
100
AcDbEntity
  8
0
100
AcDbLine
 62
7
  6
CONTINUOUS
 10
14.2990695968
 20
-56.603623124
 11
14.5696468004
 21
-55.872519104
  0
LINE
  5
480
100
AcDbEntity
  8
0
100
AcDbLine
 62
7
  6
CONTINUOUS
 10
19.650618074
 20
-60.2554399855
 11
19.9211952776
 21
-59.5243359656
  0
LINE
  5
481
100
AcDbEntity
  8
0
100
AcDbLine
 62
7
  6
CONTINUOUS
 10
14.539529968
 20
-55.1314552652
 11
13.5876483023
 21
-57.635658324
  0
LINE
  5
482
100
AcDbEntity
  8
0
100
AcDbLine
 62
7
  6
CONTINUOUS
 10
19.8910784452
 20
-58.7832721267
 11
18.9391967794
 21
-61.2874751855
  0
LWPOLYLINE
  5
483
100
AcDbEntity
  8
0
100
AcDbPolyline
 62
7
  6
CONTINUOUS
 90
10
 70
0
 10
14.5696468004
 20
-55.872519104
 10
14.5905258488
 20
-55.8209886215
 10
14.6104272005
 20
-55.7688731764
 10
14.6293508555
 20
-55.7161727688
 10
14.6473230112
 20
-55.6628215483
 10
14.6643174702
 20
-55.6088853652
 10
14.6802556405
 20
-55.5545617703
 10
14.6951113247
 20
-55.4999166137
 10
14.7089107201
 20
-55.4448840454
 10
14.7216538268
 20
-55.3894640652
  0
LINE
  5
484
100
AcDbEntity
  8
0
100
AcDbLine
 62
7
  6
CONTINUOUS
 10
-1.0519795992
 20
-62.4957969412
 11
-1.8063232738
 21
-63.6627650269
  0
LINE
  5
485
100
AcDbEntity
  8
0
100
AcDbLine
 62
7
  6
CONTINUOUS
 10
-1.6507593181
 20
-63.9392706004
 11
-0.6490780946
 21
-62.4957969412
  0
LWPOLYLINE
  5
486
100
AcDbEntity
  8
0
100
AcDbPolyline
 62
7
  6
CONTINUOUS
 90
28
 70
0
 10
-4.9279216287
 20
-60.8739021982
 10
-4.9517805203
 20
-60.9039843513
 10
-4.9761230841
 20
-60.9314795957
 10
-5.0009493203
 20
-60.9563879311
 10
-5.0262711534
 20
-60.9786361861
 10
-5.0520766588
 20
-60.9982975322
 10
-5.0783300626
 20
-61.0155914847
 10
-5.1049104108
 20
-61.0304989636
 10
-5.1319386573
 20
-61.0430390488
 10
-5.1597418907
 20
-61.0534884953
 10
-5.188507002
 20
-61.061945956
 10
-5.2180471002
 20
-61.068312778
 10
-5.2481285998
 20
-61.0725697576
 10
-5.2790252908
 20
-61.0747113469
 10
-5.3104633831
 20
-61.0747430937
 10
-5.3413879217
 20
-61.0726624377
 10
-5.3715363568
 20
-61.0684608945
 10
-5.4011712381
 20
-61.0621469484
 10
-5.4300252589
 20
-61.0537434922
 10
-5.4579006692
 20
-61.0433492176
 10
-5.4849952191
 20
-61.0308654329
 10
-5.5116348522
 20
-61.0160189561
 10
-5.5379365772
 20
-60.9987944674
 10
-5.5637833855
 20
-60.9792072866
 10
-5.5891501951
 20
-60.9570301919
 10
-5.6140286453
 20
-60.9321874426
 10
-5.6384270969
 20
-60.9047547795
 10
-5.6623455497
 20
-60.8747322024
  0
LWPOLYLINE
  5
487
100
AcDbEntity
  8
0
100
AcDbPolyline
 62
7
  6
CONTINUOUS
 90
28
 70
0
 10
-5.6510813226
 20
-59.2053820686
 10
-5.6289792825
 20
-59.1782075497
 10
-5.6063243197
 20
-59.1534483507
 10
-5.5831164343
 20
-59.1311044714
 10
-5.5594027451
 20
-59.1112852468
 10
-5.5351361331
 20
-59.093881342
 10
-5.5101752423
 20
-59.0785647521
 10
-5.4846890211
 20
-59.065304788
 10
-5.4585085211
 20
-59.0541321389
 10
-5.4309855406
 20
-59.0448108668
 10
-5.4016600939
 20
-59.0371846141
 10
-5.3709921668
 20
-59.0314097384
 10
-5.3397135156
 20
-59.0277193749
 10
-5.3075707378
 20
-59.0261972702
 10
-5.274817236
 20
-59.0267596777
 10
-5.2429449738
 20
-59.0293884924
 10
-5.2124387166
 20
-59.0340950881
 10
-5.182813699
 20
-59.040868091
 10
-5.1541075887
 20
-59.0496552744
 10
-5.1264735953
 20
-59.0603418235
 10
-5.0997585092
 20
-59.0730425531
 10
-5.0735403687
 20
-59.0880496807
 10
-5.0476710751
 20
-59.1053783145
 10
-5.0222987272
 20
-59.1250133462
 10
-4.9974456598
 20
-59.1472016685
 10
-4.973119318
 20
-59.1720255789
 10
-4.9493122568
 20
-59.1994027798
 10
-4.9260244762
 20
-59.2293332712
  0
LWPOLYLINE
  5
488
100
AcDbEntity
  8
0
100
AcDbPolyline
 62
7
  6
CONTINUOUS
 90
34
 70
0
 10
6.2606013419
 20
-52.7175114053
 10
6.2928541025
 20
-52.6790776974
 10
6.3222427338
 20
-52.6393007631
 10
6.3487672357
 20
-52.5981806024
 10
6.3724252461
 20
-52.5558639226
 10
6.3932191272
 20
-52.5122040164
 10
6.4111559657
 20
-52.4667607619
 10
6.4262923236
 20
-52.4194446667
 10
6.4385716389
 20
-52.3703452231
 10
6.4478313129
 20
-52.3192907864
 10
6.4540721762
 20
-52.2651550444
 10
6.4572933982
 20
-52.2090643093
 10
6.4573298892
 20
-52.1542258725
 10
6.4540628159
 20
-52.1015577593
 10
6.4476110116
 20
-52.0501419444
 10
6.4381658864
 20
-52.0004316434
 10
6.4255762163
 20
-51.9524407062
 10
6.4099932254
 20
-51.9061552829
 10
6.3920619958
 20
-51.8619870395
 10
6.371717903
 20
-51.8197918225
 10
6.3490255715
 20
-51.7797137853
 10
6.3248239577
 20
-51.7425970536
 10
6.2994669771
 20
-51.7089258278
 10
6.2726007142
 20
-51.6782159074
 10
6.2440023777
 20
-51.6498588171
 10
6.2138435063
 20
-51.6237866959
 10
6.1819525613
 20
-51.6000674047
 10
6.1475921361
 20
-51.5782960504
 10
6.1106102022
 20
-51.5583224631
 10
6.071158788
 20
-51.5402968126
 10
6.0289565729
 20
-51.5242647153
 10
5.9839097832
 20
-51.5102413765
 10
5.9361121927
 20
-51.4982115908
 10
5.8855638011
 20
-51.4881753582
  0
LINE
  5
489
100
AcDbEntity
  8
0
100
AcDbLine
 62
7
  6
CONTINUOUS
 10
8.9610998482
 20
40.5436170205
 11
8.6160991902
 21
40.4946808562
  0
LINE
  5
48A
100
AcDbEntity
  8
0
100
AcDbLine
 62
7
  6
CONTINUOUS
 10
7.7536005062
 20
41.4244680822
 11
8.0985991902
 21
41.4734042466
  0
LINE
  5
48B
100
AcDbEntity
  8
0
100
AcDbLine
 62
7
  6
CONTINUOUS
 10
8.6160991902
 20
40.25
 11
9.0473505062
 21
40.2989361687
  0
LINE
  5
48C
100
AcDbEntity
  8
0
100
AcDbLine
 62
7
  6
CONTINUOUS
 10
4.9936001772
 20
40.5436170205
 11
4.5623498482
 21
40.4946808562
  0
LINE
  5
48D
100
AcDbEntity
  8
0
100
AcDbLine
 62
7
  6
CONTINUOUS
 10
4.5623498482
 20
40.25
 11
5.0798498482
 21
40.2989361687
  0
LINE
  5
48E
100
AcDbEntity
  8
ASSI
100
AcDbLine
 62
7
  6
CONTINUOUS
 10
5.732239
 20
32.762971
 11
7.274788
 21
32.762971
  0
LINE
  5
48F
100
AcDbEntity
  8
ASSI
100
AcDbLine
 62
7
  6
CONTINUOUS
 10
7.274788
 20
33.30662
 11
6.793186
 21
33.30662
  0
LINE
  5
490
100
AcDbEntity
  8
ASSI
100
AcDbLine
 62
7
  6
CONTINUOUS
 10
6.214029
 20
33.30662
 11
5.732239
 21
33.30662
  0
LINE
  5
491
100
AcDbEntity
  8
ASSI
100
AcDbLine
 62
7
  6
CONTINUOUS
 10
5.749993
 20
37.168974
 11
6.214029
 21
37.168974
  0
LINE
  5
492
100
AcDbEntity
  8
ASSI
100
AcDbLine
 62
7
  6
CONTINUOUS
 10
6.793186
 20
37.168974
 11
7.257034
 21
37.168974
  0
LINE
  5
493
100
AcDbEntity
  8
ASSI
100
AcDbLine
 62
7
  6
CONTINUOUS
 10
7.257034
 20
37.715613
 11
5.749993
 21
37.715613
  0
LINE
  5
494
100
AcDbEntity
  8
0
100
AcDbLine
 62
7
  6
CONTINUOUS
 10
-9.0651501107
 20
40.25
 11
-8.3751501518
 21
40.25
  0
LINE
  5
495
100
AcDbEntity
  8
0
100
AcDbLine
 62
7
  6
CONTINUOUS
 10
-5.4426499873
 20
40.25
 11
-4.9251499873
 21
40.25
  0
LINE
  5
496
100
AcDbEntity
  8
0
100
AcDbLine
 62
7
  6
CONTINUOUS
 10
-2.5101503163
 20
40.25
 11
0.5948501772
 21
40.25
  0
LINE
  5
497
100
AcDbEntity
  8
0
100
AcDbLine
 62
7
  6
CONTINUOUS
 10
1.8023495192
 20
40.25
 11
2.3198495192
 21
40.25
  0
LINE
  5
498
100
AcDbEntity
  8
0
100
AcDbLine
 62
7
  6
CONTINUOUS
 10
8.0985991902
 20
40.25
 11
8.6160991902
 21
40.25
  0
LINE
  5
499
100
AcDbEntity
  8
0
100
AcDbLine
 62
7
  6
CONTINUOUS
 10
3.6135995192
 20
40.4457446747
 11
4.0448498482
 21
40.2989361687
  0
LINE
  5
49A
100
AcDbEntity
  8
0
100
AcDbLine
 62
7
  6
CONTINUOUS
 10
4.1310995192
 20
40.5436170205
 11
3.8723495192
 21
40.6414893493
  0
LINE
  5
49B
100
AcDbEntity
  8
0
100
AcDbLine
 62
7
  6
CONTINUOUS
 10
-0.3539001518
 20
42.2563830137
 11
-0.0951501518
 21
42.158510685
  0
LINE
  5
49C
100
AcDbEntity
  8
0
100
AcDbLine
 62
7
  6
CONTINUOUS
 10
-6.4354164839
 20
46.9031915069
 11
-6.6270835161
 21
47.0010638356
  0
LINE
  5
49D
100
AcDbEntity
  8
0
100
AcDbLine
 62
7
  6
CONTINUOUS
 10
0.5085995192
 20
42.2074468493
 11
0.1635998482
 21
42.4031915069
  0
LINE
  5
49E
100
AcDbEntity
  8
0
100
AcDbLine
 62
7
  6
CONTINUOUS
 10
3.3548495192
 20
40.5925531849
 11
3.6135995192
 21
40.4457446747
  0
LINE
  5
49F
100
AcDbEntity
  8
0
100
AcDbLine
 62
7
  6
CONTINUOUS
 10
5.7698501772
 20
42.2074468493
 11
5.5111001772
 21
42.3542553425
  0
LINE
  5
4A0
100
AcDbEntity
  8
0
100
AcDbLine
 62
7
  6
CONTINUOUS
 10
-6.675
 20
46.7074468493
 11
-6.53125
 21
46.6095745206
  0
LINE
  5
4A1
100
AcDbEntity
  8
0
100
AcDbLine
 62
7
  6
CONTINUOUS
 10
6.9773505062
 20
40.6414893493
 11
7.2361005062
 21
40.4457446747
  0
LINE
  5
4A2
100
AcDbEntity
  8
0
100
AcDbLine
 62
7
  6
CONTINUOUS
 10
9.7373498482
 20
41.3265957534
 11
9.4785998482
 21
41.5223404109
  0
LINE
  5
4A3
100
AcDbEntity
  8
0
100
AcDbLine
 62
7
  6
CONTINUOUS
 10
3.8723495192
 20
40.6414893493
 11
3.5273498482
 21
40.9351063699
  0
LINE
  5
4A4
100
AcDbEntity
  8
0
100
AcDbLine
 62
7
  6
CONTINUOUS
 10
5.2523501772
 20
42.158510685
 11
5.5973498482
 21
41.8648935616
  0
LINE
  5
4A5
100
AcDbEntity
  8
0
100
AcDbLine
 62
7
  6
CONTINUOUS
 10
9.2198498482
 20
41.3265957534
 11
9.3923491902
 21
41.1797872603
  0
LINE
  5
4A6
100
AcDbEntity
  8
0
100
AcDbLine
 62
7
  6
CONTINUOUS
 10
7.4948505062
 20
40.6414893493
 11
7.3223491902
 21
40.8372340411
  0
LINE
  5
4A7
100
AcDbEntity
  8
0
100
AcDbLine
 62
7
  6
CONTINUOUS
 10
11.2458340645
 20
47.05
 11
12.0125
 21
45.9244680822
  0
LINE
  5
4A8
100
AcDbEntity
  8
0
100
AcDbLine
 62
7
  6
CONTINUOUS
 10
12.15625
 20
46.1202127397
 11
11.5333340645
 21
47.05
  0
LINE
  5
4A9
100
AcDbEntity
  8
0
100
AcDbLine
 62
7
  6
CONTINUOUS
 10
11.083514
 20
49.799896
 11
9.976444921
 21
51.9356570108
  0
LWPOLYLINE
  5
4AA
100
AcDbEntity
  8
0
100
AcDbPolyline
 62
7
  6
CONTINUOUS
 90
9
 70
0
 10
23.5322792014
 20
-60.6439825204
 10
23.5154094747
 20
-60.6899279549
 10
23.4990720061
 20
-60.7357069846
 10
23.4832699399
 20
-60.7813264941
 10
23.4680001317
 20
-60.8267795988
 10
23.4532531485
 20
-60.8720456458
 10
23.4390258459
 20
-60.9171177507
 10
23.4253213683
 20
-60.9620027979
 10
23.4121397157
 20
-61.0067007874
  0
LINE
  5
4AB
100
AcDbEntity
  8
0
100
AcDbLine
 62
7
  6
CONTINUOUS
 10
24.2392854588
 20
-58.7832721267
 11
23.5322792014
 21
-60.6439825204
  0
LINE
  5
4AC
100
AcDbEntity
  8
0
100
AcDbLine
 62
7
  6
CONTINUOUS
 10
23.5975835914
 20
-61.2874751855
 11
24.5964190862
 21
-58.7832721267
  0
LWPOLYLINE
  5
4AD
100
AcDbEntity
  8
0
100
AcDbPolyline
 62
7
  6
CONTINUOUS
 90
10
 70
0
 10
19.9211952776
 20
-59.5243359656
 10
19.942074326
 20
-59.4728054831
 10
19.9619756777
 20
-59.420690038
 10
19.9808993327
 20
-59.3679896303
 10
19.9988714884
 20
-59.3146384098
 10
20.0158659474
 20
-59.2607022267
 10
20.0318041176
 20
-59.2063786318
 10
20.0466598018
 20
-59.1517334753
 10
20.0604591973
 20
-59.0967009069
 10
20.073202304
 20
-59.0412809267
  0
LWPOLYLINE
  5
4AE
100
AcDbEntity
  8
0
100
AcDbPolyline
 62
7
  6
CONTINUOUS
 90
16
 70
0
 10
17.9939546842
 20
-55.1162782769
 10
17.9709022976
 20
-55.1587125709
 10
17.9442724008
 20
-55.2013007942
 10
17.9140649937
 20
-55.2440429468
 10
17.8802395
 20
-55.286996592
 10
17.842836496
 20
-55.3301041666
 10
17.8019777113
 20
-55.3731929807
 10
17.7578227032
 20
-55.4162950379
 10
17.7102119143
 20
-55.4593783348
 10
17.6587884021
 20
-55.5021741705
 10
17.6036430751
 20
-55.5448245311
 10
17.5446850248
 20
-55.5871874305
 10
17.481284583
 20
-55.6285682103
 10
17.4132318603
 20
-55.6687353175
 10
17.3407367462
 20
-55.7079203051
 10
17.2637992404
 20
-55.7461231729
  0
LINE
  5
4AF
100
AcDbEntity
  8
0
100
AcDbLine
 62
7
  6
CONTINUOUS
 10
12.8057961483
 20
-55.7198006455
 11
11.5268976875
 21
-57.3352012005
  0
LINE
  5
4B0
100
AcDbEntity
  8
0
100
AcDbLine
 62
7
  6
CONTINUOUS
 10
11.9051369047
 20
-57.3472955475
 11
13.4543751934
 21
-55.4198180416
  0
LWPOLYLINE
  5
4B1
100
AcDbEntity
  8
0
100
AcDbPolyline
 62
7
  6
CONTINUOUS
 90
10
 70
0
 10
13.066413533
 20
-55.4198180416
 10
13.0375125278
 20
-55.4504965992
 10
13.0086003923
 20
-55.4818478453
 10
12.9796771264
 20
-55.5138717799
 10
12.9507467168
 20
-55.5465810401
 10
12.9218051769
 20
-55.5799629887
 10
12.8928405461
 20
-55.6139797147
 10
12.8638488377
 20
-55.648618581
 10
12.8348340384
 20
-55.6838922245
 10
12.8057961483
 20
-55.7198006455
  0
LWPOLYLINE
  5
4B2
100
AcDbEntity
  8
0
100
AcDbPolyline
 62
7
  6
CONTINUOUS
 90
22
 70
0
 10
-7.4592772192
 20
-59.1081543936
 10
-7.4327314679
 20
-59.0911266582
 10
-7.405516308
 20
-59.076075855
 10
-7.3776317394
 20
-59.0630019838
 10
-7.3491201527
 20
-59.0519037976
 10
-7.3199391573
 20
-59.0427825434
 10
-7.2899615815
 20
-59.0356419631
 10
-7.2587525581
 20
-59.0304794459
 10
-7.2267469543
 20
-59.0272976025
 10
-7.1951221997
 20
-59.0261080073
 10
-7.1639383382
 20
-59.026996824
 10
-7.1331353259
 20
-59.0298778889
 10
-7.1037104613
 20
-59.0345042846
 10
-7.0762273781
 20
-59.0407638508
 10
-7.0501224426
 20
-59.0487687477
 10
-7.0247020511
 20
-59.0586085392
 10
-6.9997792024
 20
-59.0702627981
 10
-6.9755408979
 20
-59.0837519515
 10
-6.9518545383
 20
-59.0992268446
 10
-6.928675924
 20
-59.1167377592
 10
-6.9060492548
 20
-59.1362344134
 10
-6.8839745306
 20
-59.1577168073
  0
LWPOLYLINE
  5
4B3
100
AcDbEntity
  8
0
100
AcDbPolyline
 62
7
  6
CONTINUOUS
 90
22
 70
0
 10
-3.5739682309
 20
-59.1081543936
 10
-3.5474224797
 20
-59.0911266582
 10
-3.5202073197
 20
-59.076075855
 10
-3.4923227511
 20
-59.0630019838
 10
-3.4638111644
 20
-59.0519037976
 10
-3.4346301691
 20
-59.0427825434
 10
-3.4046525933
 20
-59.0356419631
 10
-3.3734435699
 20
-59.0304794459
 10
-3.341437966
 20
-59.0272976025
 10
-3.3098132115
 20
-59.0261080073
 10
-3.27862935
 20
-59.026996824
 10
-3.2478263377
 20
-59.0298778889
 10
-3.218401473
 20
-59.0345042846
 10
-3.1909183899
 20
-59.0407638508
 10
-3.1648134543
 20
-59.0487687477
 10
-3.1393930629
 20
-59.0586085392
 10
-3.1144702142
 20
-59.0702627981
 10
-3.0902319096
 20
-59.0837519515
 10
-3.0665455501
 20
-59.0992268446
 10
-3.0433669358
 20
-59.1167377592
 10
-3.0207402666
 20
-59.1362344134
 10
-2.9986655423
 20
-59.1577168073
  0
LWPOLYLINE
  5
4B4
100
AcDbEntity
  8
0
100
AcDbPolyline
 62
7
  6
CONTINUOUS
 90
10
 70
0
 10
-8.9559891408
 20
-59.7317152036
 10
-8.988647504
 20
-59.7518588881
 10
-9.0232014089
 20
-59.7699542251
 10
-9.0596508554
 20
-59.7860012146
 10
-9.0984939871
 20
-59.8001934349
 10
-9.1392326605
 20
-59.8123373076
 10
-9.1803724453
 20
-59.8218520984
 10
-9.2214151981
 20
-59.828544229
 10
-9.2628590625
 20
-59.8326072776
 10
-9.3047040383
 20
-59.8340412443
  0
LWPOLYLINE
  5
4B5
100
AcDbEntity
  8
0
100
AcDbPolyline
 62
7
  6
CONTINUOUS
 90
15
 70
0
 10
-9.5854671338
 20
-58.8501878542
 10
-9.6257225135
 20
-58.8729289285
 10
-9.6642093092
 20
-58.8983535204
 10
-9.7010564131
 20
-58.9264490339
 10
-9.736134933
 20
-58.9572280651
 10
-9.7693053344
 20
-58.9907308086
 10
-9.800649722
 20
-59.0269530103
 10
-9.8300859912
 20
-59.0658989244
 10
-9.8572282928
 20
-59.107621508
 10
-9.8820032351
 20
-59.1519779453
 10
-9.9044842099
 20
-59.1991110522
 10
-9.9245055434
 20
-59.2495022338
 10
-9.9420120113
 20
-59.3033119587
 10
-9.957058838
 20
-59.3603797582
 10
-9.9696460235
 20
-59.4207056326
  0
LINE
  5
4B6
100
AcDbEntity
  8
0
100
AcDbLine
 62
7
  6
CONTINUOUS
 10
-1.6476501518
 20
42.5010638356
 11
-1.9926498228
 21
42.4031915069
  0
LINE
  5
4B7
100
AcDbEntity
  8
0
100
AcDbLine
 62
7
  6
CONTINUOUS
 10
-6.675
 20
45.0925531849
 11
-6.8666664839
 21
45.0436170205
  0
LINE
  5
4B8
100
AcDbEntity
  8
0
100
AcDbLine
 62
7
  6
CONTINUOUS
 10
-6.8666664839
 20
44.75
 11
-6.6270835161
 21
44.7989361687
  0
LINE
  5
4B9
100
AcDbEntity
  8
0
100
AcDbLine
 62
7
  6
CONTINUOUS
 10
8.0985991902
 20
41.7180850685
 11
7.6673498482
 21
41.6691489041
  0
LINE
  5
4BA
100
AcDbEntity
  8
0
100
AcDbLine
 62
7
  6
CONTINUOUS
 10
4.1310995192
 20
42.2563830137
 11
4.5623498482
 21
42.3053191781
  0
LINE
  5
4BB
100
AcDbEntity
  8
0
100
AcDbLine
 62
7
  6
CONTINUOUS
 10
-1.5614004808
 20
42.2563830137
 11
-1.1301501518
 21
42.3053191781
  0
LINE
  5
4BC
100
AcDbEntity
  8
0
100
AcDbLine
 62
7
  6
CONTINUOUS
 10
4.5623498482
 20
42.55
 11
4.0448498482
 21
42.5010638356
  0
LINE
  5
4BD
100
AcDbEntity
  8
0
100
AcDbLine
 62
7
  6
CONTINUOUS
 10
-1.0439004808
 20
42.55
 11
-1.6476501518
 21
42.5010638356
  0
LINE
  5
4BE
100
AcDbEntity
  8
0
100
AcDbLine
 62
7
  6
CONTINUOUS
 10
8.6160991902
 20
40.4946808562
 11
8.0985991902
 21
40.4946808562
  0
LINE
  5
4BF
100
AcDbEntity
  8
0
100
AcDbLine
 62
7
  6
CONTINUOUS
 10
0.5948501772
 20
40.4946808562
 11
-1.8201504808
 21
40.4946808562
  0
LINE
  5
4C0
100
AcDbEntity
  8
0
100
AcDbLine
 62
7
  6
CONTINUOUS
 10
7.3223491902
 20
40.8372340411
 11
6.8048491902
 21
40.8372340411
  0
LINE
  5
4C1
100
AcDbEntity
  8
0
100
AcDbLine
 62
7
  6
CONTINUOUS
 10
6.8048491902
 20
41.2776595891
 11
7.4085998482
 21
41.2776595891
  0
LINE
  5
4C2
100
AcDbEntity
  8
0
100
AcDbLine
 62
7
  6
CONTINUOUS
 10
8.0985991902
 20
41.4734042466
 11
8.6160991902
 21
41.4734042466
  0
LINE
  5
4C3
100
AcDbEntity
  8
0
100
AcDbLine
 62
7
  6
CONTINUOUS
 10
8.6160991902
 20
41.7180850685
 11
8.0985991902
 21
41.7180850685
  0
LINE
  5
4C4
100
AcDbEntity
  8
0
100
AcDbLine
 62
7
  6
CONTINUOUS
 10
-2.4239001518
 20
42.0117021918
 11
-1.9926498228
 21
42.0117021918
  0
LINE
  5
4C5
100
AcDbEntity
  8
0
100
AcDbLine
 62
7
  6
CONTINUOUS
 10
-6.3051501518
 20
42.3053191781
 11
-3.7176501518
 21
42.3053191781
  0
LINE
  5
4C6
100
AcDbEntity
  8
0
100
AcDbLine
 62
7
  6
CONTINUOUS
 10
-1.1301501518
 20
42.3053191781
 11
-0.7851504808
 21
42.3053191781
  0
LINE
  5
4C7
100
AcDbEntity
  8
0
100
AcDbLine
 62
7
  6
CONTINUOUS
 10
7.2361005062
 20
42.3053191781
 11
9.7373498482
 21
42.3053191781
  0
LINE
  5
4C8
100
AcDbEntity
  8
0
100
AcDbLine
 62
7
  6
CONTINUOUS
 10
9.7373498482
 20
42.55
 11
6.8048491902
 21
42.55
  0
LINE
  5
4C9
100
AcDbEntity
  8
0
100
AcDbLine
 62
7
  6
CONTINUOUS
 10
2.3198495192
 20
42.55
 11
1.8023495192
 21
42.55
  0
LINE
  5
4CA
100
AcDbEntity
  8
0
100
AcDbLine
 62
7
  6
CONTINUOUS
 10
-0.6988998228
 20
42.55
 11
-1.0439004808
 21
42.55
  0
LINE
  5
4CB
100
AcDbEntity
  8
0
100
AcDbLine
 62
7
  6
CONTINUOUS
 10
-3.2001501518
 20
42.55
 11
-6.3051501518
 21
42.55
  0
LINE
  5
4CC
100
AcDbEntity
  8
0
100
AcDbLine
 62
7
  6
CONTINUOUS
 10
-6.9951502341
 20
42.55
 11
-7.5126502341
 21
42.55
  0
LINE
  5
4CD
100
AcDbEntity
  8
0
100
AcDbLine
 62
7
  6
CONTINUOUS
 10
-9.9276501518
 20
42.55
 11
-10.4451501518
 21
42.55
  0
LINE
  5
4CE
100
AcDbEntity
  8
0
100
AcDbLine
 62
7
  6
CONTINUOUS
 10
-13.0
 20
44.75
 11
-12.7125
 21
44.75
  0
LINE
  5
4CF
100
AcDbEntity
  8
0
100
AcDbLine
 62
7
  6
CONTINUOUS
 10
-12.0416666895
 20
44.75
 11
-11.658333379
 21
44.75
  0
LINE
  5
4D0
100
AcDbEntity
  8
0
100
AcDbLine
 62
7
  6
CONTINUOUS
 10
-10.9875
 20
44.75
 11
-10.7
 21
44.75
  0
LINE
  5
4D1
100
AcDbEntity
  8
0
100
AcDbLine
 62
7
  6
CONTINUOUS
 10
-10.3166667581
 20
44.75
 11
-10.0291667581
 21
44.75
  0
LINE
  5
4D2
100
AcDbEntity
  8
0
100
AcDbLine
 62
7
  6
CONTINUOUS
 10
-8.6875
 20
44.75
 11
-8.4
 21
44.75
  0
LINE
  5
4D3
100
AcDbEntity
  8
0
100
AcDbLine
 62
7
  6
CONTINUOUS
 10
-8.0166664839
 20
44.75
 11
-6.8666664839
 21
44.75
  0
LINE
  5
4D4
100
AcDbEntity
  8
0
100
AcDbLine
 62
7
  6
CONTINUOUS
 10
-5.7166664839
 20
44.75
 11
-3.9916664839
 21
44.75
  0
LINE
  5
4D5
100
AcDbEntity
  8
0
100
AcDbLine
 62
7
  6
CONTINUOUS
 10
-1.3083329678
 20
44.75
 11
-1.0208329678
 21
44.75
  0
LINE
  5
4D6
100
AcDbEntity
  8
0
100
AcDbLine
 62
7
  6
CONTINUOUS
 10
-0.6375
 20
44.75
 11
-0.35
 21
44.75
  0
LINE
  5
4D7
100
AcDbEntity
  8
0
100
AcDbLine
 62
7
  6
CONTINUOUS
 10
0.8479170322
 20
44.75
 11
1.2791670322
 21
44.75
  0
LINE
  5
4D8
100
AcDbEntity
  8
0
100
AcDbLine
 62
7
  6
CONTINUOUS
 10
3.9625
 20
44.75
 11
4.25
 21
44.75
  0
LINE
  5
4D9
100
AcDbEntity
  8
0
100
AcDbLine
 62
7
  6
CONTINUOUS
 10
5.4
 20
44.75
 11
5.6875
 21
44.75
  0
LINE
  5
4DA
100
AcDbEntity
  8
0
100
AcDbLine
 62
7
  6
CONTINUOUS
 10
6.8375
 20
44.75
 11
7.125
 21
44.75
  0
LINE
  5
4DB
100
AcDbEntity
  8
0
100
AcDbLine
 62
7
  6
CONTINUOUS
 10
8.4666659355
 20
44.75
 11
8.7541659355
 21
44.75
  0
LINE
  5
4DC
100
AcDbEntity
  8
0
100
AcDbLine
 62
7
  6
CONTINUOUS
 10
9.1375
 20
44.75
 11
10.8625
 21
44.75
  0
LINE
  5
4DD
100
AcDbEntity
  8
0
100
AcDbLine
 62
7
  6
CONTINUOUS
 10
12.0125
 20
44.75
 11
12.3
 21
44.75
  0
LINE
  5
4DE
100
AcDbEntity
  8
0
100
AcDbLine
 62
7
  6
CONTINUOUS
 10
10.8625
 20
45.0436170205
 11
9.425
 21
45.0436170205
  0
LINE
  5
4DF
100
AcDbEntity
  8
0
100
AcDbLine
 62
7
  6
CONTINUOUS
 10
-3.9916664839
 20
45.0436170205
 11
-5.4291664839
 21
45.0436170205
  0
LINE
  5
4E0
100
AcDbEntity
  8
0
100
AcDbLine
 62
7
  6
CONTINUOUS
 10
-6.8666664839
 20
45.0436170205
 11
-7.7291664839
 21
45.0436170205
  0
LINE
  5
4E1
100
AcDbEntity
  8
0
100
AcDbLine
 62
7
  6
CONTINUOUS
 10
-9.8375
 20
45.3372340411
 11
-8.8791667581
 21
45.3372340411
  0
LINE
  5
4E2
100
AcDbEntity
  8
0
100
AcDbLine
 62
7
  6
CONTINUOUS
 10
7.3166659355
 20
45.3372340411
 11
8.275
 21
45.3372340411
  0
LINE
  5
4E3
100
AcDbEntity
  8
0
100
AcDbLine
 62
7
  6
CONTINUOUS
 10
8.2270840645
 20
45.5329786986
 11
7.3645840645
 21
45.5329786986
  0
LINE
  5
4E4
100
AcDbEntity
  8
0
100
AcDbLine
 62
7
  6
CONTINUOUS
 10
-8.9270832419
 20
45.5329786986
 11
-9.7895832419
 21
45.5329786986
  0
LINE
  5
4E5
100
AcDbEntity
  8
0
100
AcDbLine
 62
7
  6
CONTINUOUS
 10
-5.4291664839
 20
45.8265957534
 11
-4.1833335161
 21
45.8265957534
  0
LINE
  5
4E6
100
AcDbEntity
  8
0
100
AcDbLine
 62
7
  6
CONTINUOUS
 10
-4.1833335161
 20
46.1202127397
 11
-5.4291664839
 21
46.1202127397
  0
LINE
  5
4E7
100
AcDbEntity
  8
0
100
AcDbLine
 62
7
  6
CONTINUOUS
 10
-7.7291664839
 20
46.7563830137
 11
-6.8666664839
 21
46.7563830137
  0
LINE
  5
4E8
100
AcDbEntity
  8
0
100
AcDbLine
 62
7
  6
CONTINUOUS
 10
-5.4291664839
 20
46.7563830137
 11
-3.9916664839
 21
46.7563830137
  0
LINE
  5
4E9
100
AcDbEntity
  8
0
100
AcDbLine
 62
7
  6
CONTINUOUS
 10
4.6333329678
 20
46.8053191781
 11
5.4
 21
46.8053191781
  0
LINE
  5
4EA
100
AcDbEntity
  8
0
100
AcDbLine
 62
7
  6
CONTINUOUS
 10
5.6875
 20
46.8053191781
 11
6.4541659355
 21
46.8053191781
  0
LINE
  5
4EB
100
AcDbEntity
  8
0
100
AcDbLine
 62
7
  6
CONTINUOUS
 10
13.0666659355
 20
47.05
 11
12.7791659355
 21
47.05
  0
LINE
  5
4EC
100
AcDbEntity
  8
0
100
AcDbLine
 62
7
  6
CONTINUOUS
 10
11.5333340645
 20
47.05
 11
11.2458340645
 21
47.05
  0
LINE
  5
4ED
100
AcDbEntity
  8
0
100
AcDbLine
 62
7
  6
CONTINUOUS
 10
9.425
 20
47.05
 11
9.1375
 21
47.05
  0
LINE
  5
4EE
100
AcDbEntity
  8
0
100
AcDbLine
 62
7
  6
CONTINUOUS
 10
7.9875
 20
47.05
 11
7.6041659355
 21
47.05
  0
LINE
  5
4EF
100
AcDbEntity
  8
0
100
AcDbLine
 62
7
  6
CONTINUOUS
 10
6.4541659355
 20
47.05
 11
4.6333329678
 21
47.05
  0
LINE
  5
4F0
100
AcDbEntity
  8
0
100
AcDbLine
 62
7
  6
CONTINUOUS
 10
4.25
 20
47.05
 11
3.9625
 21
47.05
  0
LINE
  5
4F1
100
AcDbEntity
  8
0
100
AcDbLine
 62
7
  6
CONTINUOUS
 10
1.2791670322
 20
47.05
 11
0.9916670322
 21
47.05
  0
LINE
  5
4F2
100
AcDbEntity
  8
0
100
AcDbLine
 62
7
  6
CONTINUOUS
 10
-0.20625
 20
47.05
 11
-0.6375
 21
47.05
  0
LINE
  5
4F3
100
AcDbEntity
  8
0
100
AcDbLine
 62
7
  6
CONTINUOUS
 10
-1.0208329678
 20
47.05
 11
-1.3083329678
 21
47.05
  0
LINE
  5
4F4
100
AcDbEntity
  8
0
100
AcDbLine
 62
7
  6
CONTINUOUS
 10
-3.9916664839
 20
47.05
 11
-5.7166664839
 21
47.05
  0
LINE
  5
4F5
100
AcDbEntity
  8
0
100
AcDbLine
 62
7
  6
CONTINUOUS
 10
-6.8666664839
 20
47.05
 11
-8.0166664839
 21
47.05
  0
LINE
  5
4F6
100
AcDbEntity
  8
0
100
AcDbLine
 62
7
  6
CONTINUOUS
 10
-9.1666667581
 20
47.05
 11
-9.55
 21
47.05
  0
LINE
  5
4F7
100
AcDbEntity
  8
0
100
AcDbLine
 62
7
  6
CONTINUOUS
 10
-10.7
 20
47.05
 11
-11.13125
 21
47.05
  0
LINE
  5
4F8
100
AcDbEntity
  8
0
100
AcDbLine
 62
7
  6
CONTINUOUS
 10
-12.56875
 20
47.05
 11
-13.0
 21
47.05
  0
LINE
  5
4F9
100
AcDbEntity
  8
0
100
AcDbLine
 62
7
  6
CONTINUOUS
 10
4.0448498482
 20
40.2989361687
 11
4.5623498482
 21
40.25
  0
LINE
  5
4FA
100
AcDbEntity
  8
0
100
AcDbLine
 62
7
  6
CONTINUOUS
 10
-0.1813998228
 20
42.5010638356
 11
-0.6988998228
 21
42.55
  0
LINE
  5
4FB
100
AcDbEntity
  8
0
100
AcDbLine
 62
7
  6
CONTINUOUS
 10
5.0798498482
 20
42.5010638356
 11
4.5623498482
 21
42.55
  0
LINE
  5
4FC
100
AcDbEntity
  8
0
100
AcDbLine
 62
7
  6
CONTINUOUS
 10
4.5623498482
 20
40.4946808562
 11
4.1310995192
 21
40.5436170205
  0
LINE
  5
4FD
100
AcDbEntity
  8
0
100
AcDbLine
 62
7
  6
CONTINUOUS
 10
7.6673498482
 20
40.2989361687
 11
8.0985991902
 21
40.25
  0
LINE
  5
4FE
100
AcDbEntity
  8
0
100
AcDbLine
 62
7
  6
CONTINUOUS
 10
-0.7851504808
 20
42.3053191781
 11
-0.3539001518
 21
42.2563830137
  0
LINE
  5
4FF
100
AcDbEntity
  8
0
100
AcDbLine
 62
7
  6
CONTINUOUS
 10
9.0473505062
 20
41.6691489041
 11
8.6160991902
 21
41.7180850685
  0
LINE
  5
500
100
AcDbEntity
  8
0
100
AcDbLine
 62
7
  6
CONTINUOUS
 10
4.5623498482
 20
42.3053191781
 11
4.9936001772
 21
42.2563830137
  0
LINE
  5
501
100
AcDbEntity
  8
0
100
AcDbLine
 62
7
  6
CONTINUOUS
 10
8.0985991902
 20
40.4946808562
 11
7.7536005062
 21
40.5436170205
  0
LINE
  5
502
100
AcDbEntity
  8
0
100
AcDbLine
 62
7
  6
CONTINUOUS
 10
8.6160991902
 20
41.4734042466
 11
8.9610998482
 21
41.4244680822
  0
LINE
  5
503
100
AcDbEntity
  8
0
100
AcDbLine
 62
7
  6
CONTINUOUS
 10
-6.6270835161
 20
47.0010638356
 11
-6.8666664839
 21
47.05
  0
LINE
  5
504
100
AcDbEntity
  8
0
100
AcDbLine
 62
7
  6
CONTINUOUS
 10
-6.8666664839
 20
46.7563830137
 11
-6.675
 21
46.7074468493
  0
LINE
  5
505
100
AcDbEntity
  8
0
100
AcDbLine
 62
7
  6
CONTINUOUS
 10
0.1635998482
 20
42.4031915069
 11
-0.1813998228
 21
42.5010638356
  0
LINE
  5
506
100
AcDbEntity
  8
0
100
AcDbLine
 62
7
  6
CONTINUOUS
 10
7.2361005062
 20
40.4457446747
 11
7.6673498482
 21
40.2989361687
  0
LINE
  5
507
100
AcDbEntity
  8
0
100
AcDbLine
 62
7
  6
CONTINUOUS
 10
5.5111001772
 20
42.3542553425
 11
5.0798498482
 21
42.5010638356
  0
LINE
  5
508
100
AcDbEntity
  8
0
100
AcDbLine
 62
7
  6
CONTINUOUS
 10
9.4785998482
 20
41.5223404109
 11
9.0473505062
 21
41.6691489041
  0
LINE
  5
509
100
AcDbEntity
  8
0
100
AcDbLine
 62
7
  6
CONTINUOUS
 10
7.7536005062
 20
40.5436170205
 11
7.4948505062
 21
40.6414893493
  0
LINE
  5
50A
100
AcDbEntity
  8
0
100
AcDbLine
 62
7
  6
CONTINUOUS
 10
4.9936001772
 20
42.2563830137
 11
5.2523501772
 21
42.158510685
  0
LINE
  5
50B
100
AcDbEntity
  8
0
100
AcDbLine
 62
7
  6
CONTINUOUS
 10
8.9610998482
 20
41.4244680822
 11
9.2198498482
 21
41.3265957534
  0
LINE
  5
50C
100
AcDbEntity
  8
0
100
AcDbLine
 62
7
  6
CONTINUOUS
 10
20.0411880875
 20
-55.1314552652
 11
18.8725599934
 21
-56.7553930063
  0
LINE
  5
50D
100
AcDbEntity
  8
0
100
AcDbLine
 62
7
  6
CONTINUOUS
 10
19.1765740462
 20
-56.7553930063
 11
19.9804801346
 21
-55.6379871028
  0
LWPOLYLINE
  5
50E
100
AcDbEntity
  8
0
100
AcDbPolyline
 62
7
  6
CONTINUOUS
 90
40
 70
0
 10
10.2618721542
 20
-60.7821288366
 10
10.2239125754
 20
-60.8204199711
 10
10.1847640441
 20
-60.8556176122
 10
10.1444265604
 20
-60.8877217601
 10
10.1029146634
 20
-60.9166988477
 10
10.0602138139
 20
-60.942582442
 10
10.0162803949
 20
-60.9654732438
 10
9.9715705722
 20
-60.985324479
 10
9.9256281799
 20
-61.0021829217
 10
9.8770411026
 20
-61.0162895956
 10
9.8248402029
 20
-61.0278908732
 10
9.7699946181
 20
-61.0367403821
 10
9.7139996447
 20
-61.0423400283
 10
9.6563236279
 20
-61.0444919132
 10
9.5974982224
 20
-61.0433939354
 10
9.540613689
 20
-61.0391416977
 10
9.4867039225
 20
-61.0316776656
 10
9.4347350282
 20
-61.0210593735
 10
9.3846955821
 20
-61.0075550275
 10
9.3368141465
 20
-60.9913106719
 10
9.2908621591
 20
-60.9721802623
 10
9.2461425087
 20
-60.9499938717
 10
9.2022787202
 20
-60.9246194394
 10
9.1596472687
 20
-60.8961890261
 10
9.1186804689
 20
-60.8649288862
 10
9.0792701006
 20
-60.8307085209
 10
9.0415243839
 20
-60.7936584289
 10
9.0062002938
 20
-60.7543963606
 10
8.9734927771
 20
-60.7132241888
 10
8.9432068869
 20
-60.6698400407
 10
8.9155147581
 20
-60.6239560479
 10
8.8904611456
 20
-60.5757751985
 10
8.8680012944
 20
-60.5250945044
 10
8.8481730738
 20
-60.471017133
 10
8.8308199326
 20
-60.4132658877
 10
8.816098422
 20
-60.3521179652
 10
8.8045160647
 20
-60.2875081232
 10
8.7962420349
 20
-60.2194146145
 10
8.7911071585
 20
-60.1478591862
 10
8.7891114353
 20
-60.0728418386
  0
LWPOLYLINE
  5
50F
100
AcDbEntity
  8
0
100
AcDbPolyline
 62
7
  6
CONTINUOUS
 90
52
 70
0
 10
9.0433260461
 20
-59.2673943138
 10
9.0869564229
 20
-59.2287763086
 10
9.131485951
 20
-59.1936346051
 10
9.1769146303
 20
-59.1619692035
 10
9.2231493181
 20
-59.1338576454
 10
9.2702831571
 20
-59.1092223892
 10
9.3185955761
 20
-59.0878308095
 10
9.3679548163
 20
-59.0696418848
 10
9.4184926366
 20
-59.0546966367
 10
9.4708837417
 20
-59.042885505
 10
9.5260496996
 20
-59.0341048081
 10
9.5830689424
 20
-59.0284582277
 10
9.6398514712
 20
-59.0261472489
 10
9.696225038
 20
-59.0273009449
 10
9.7523618908
 20
-59.0317902426
 10
9.8066887737
 20
-59.039429407
 10
9.8585607011
 20
-59.0502094687
 10
9.9086226585
 20
-59.0641393973
 10
9.9572363466
 20
-59.0810603663
 10
10.0046938155
 20
-59.1010542386
 10
10.050703015
 20
-59.1240391515
 10
10.0947494948
 20
-59.1496106906
 10
10.1367465918
 20
-59.1776934684
 10
10.176780969
 20
-59.2083628725
 10
10.2145981656
 20
-59.2414406522
 10
10.2500084104
 20
-59.2766102285
 10
10.2832014746
 20
-59.3141881803
 10
10.3144922108
 20
-59.3549459938
 10
10.3440807032
 20
-59.3989499747
 10
10.3717668677
 20
-59.4461338173
 10
10.397265304
 20
-59.4970700899
 10
10.4207268475
 20
-59.5519197747
 10
10.4420006629
 20
-59.6105218896
 10
10.4603488443
 20
-59.6729660565
 10
10.4757134071
 20
-59.7397461644
 10
10.4881523359
 20
-59.8103683243
 10
10.4971016781
 20
-59.8834404918
 10
10.5023025393
 20
-59.9600373139
 10
10.5040138139
 20
-60.0390841435
 10
10.5024482323
 20
-60.1159649951
 10
10.4975841226
 20
-60.1895836804
 10
10.4894431567
 20
-60.2610363876
 10
10.4783030801
 20
-60.3289956954
 10
10.4641259065
 20
-60.392975249
 10
10.4469496223
 20
-60.4534614032
 10
10.4271659325
 20
-60.5105858006
 10
10.4046320548
 20
-60.5644245349
 10
10.3794907714
 20
-60.6149015124
 10
10.3525621345
 20
-60.6619200952
 10
10.3241194947
 20
-60.7054480705
 10
10.2938895012
 20
-60.745517651
 10
10.2618721542
 20
-60.7821288366
  0
LWPOLYLINE
  5
510
100
AcDbEntity
  8
0
100
AcDbPolyline
 62
7
  6
CONTINUOUS
 90
10
 70
0
 10
-1.1853711643
 20
-59.7317152036
 10
-1.2180295275
 20
-59.7518588881
 10
-1.2525834324
 20
-59.7699542251
 10
-1.289032879
 20
-59.7860012146
 10
-1.3278760106
 20
-59.8001934349
 10
-1.368614684
 20
-59.8123373076
 10
-1.4097544688
 20
-59.8218520984
 10
-1.4507972217
 20
-59.828544229
 10
-1.492241086
 20
-59.8326072776
 10
-1.5340860619
 20
-59.8340412443
  0
LWPOLYLINE
  5
511
100
AcDbEntity
  8
0
100
AcDbPolyline
 62
7
  6
CONTINUOUS
 90
15
 70
0
 10
-1.8148491574
 20
-58.8501878542
 10
-1.855104537
 20
-58.8729289285
 10
-1.8935913327
 20
-58.8983535204
 10
-1.9304384366
 20
-58.9264490339
 10
-1.9655169565
 20
-58.9572280651
 10
-1.9986873579
 20
-58.9907308086
 10
-2.0300317456
 20
-59.0269530103
 10
-2.0594680147
 20
-59.0658989244
 10
-2.0866103164
 20
-59.107621508
 10
-2.1113852586
 20
-59.1519779453
 10
-2.1338662334
 20
-59.1991110522
 10
-2.153887567
 20
-59.2495022338
 10
-2.1713940349
 20
-59.3033119587
 10
-2.1864408615
 20
-59.3603797582
 10
-2.1990280471
 20
-59.4207056326
  0
LWPOLYLINE
  5
512
100
AcDbEntity
  8
0
100
AcDbPolyline
 62
7
  6
CONTINUOUS
 90
47
 70
0
 10
-8.8418060129
 20
-59.9307946311
 10
-8.7981716366
 20
-59.9083402008
 10
-8.7576940161
 20
-59.8844257215
 10
-8.7203731515
 20
-59.8590511934
 10
-8.6862564457
 20
-59.8320897134
 10
-8.6552964956
 20
-59.8036681846
 10
-8.6273510928
 20
-59.7741673153
 10
-8.6025333615
 20
-59.7438442999
 10
-8.5807301774
 20
-59.712441944
 10
-8.561459959
 20
-59.6795693736
 10
-8.5445480689
 20
-59.6450574282
 10
-8.5301691444
 20
-59.6090752682
 10
-8.5183655158
 20
-59.571739501
 10
-8.5090379343
 20
-59.5328633007
 10
-8.5022856486
 20
-59.4926334933
 10
-8.4984487353
 20
-59.4517271644
 10
-8.4975891422
 20
-59.4101716261
 10
-8.4996449214
 20
-59.3679395663
 10
-8.5047703058
 20
-59.3256261348
 10
-8.5130628848
 20
-59.2831149333
 10
-8.524425069
 20
-59.2405223602
 10
-8.5387183234
 20
-59.1987927594
 10
-8.5560563421
 20
-59.157906577
 10
-8.576325431
 20
-59.1178833671
 10
-8.5990459731
 20
-59.0797261359
 10
-8.623988999
 20
-59.043762292
 10
-8.651383478
 20
-59.0096644268
 10
-8.6814367012
 20
-58.9774533209
 10
-8.7141107615
 20
-58.947132912
 10
-8.749443566
 20
-58.9186992625
 10
-8.7877561269
 20
-58.8921613399
 10
-8.8295073146
 20
-58.8672070653
 10
-8.8742382587
 20
-58.8441485178
 10
-8.9208933607
 20
-58.8239309024
 10
-8.9691361324
 20
-58.8067204695
 10
-9.0193030619
 20
-58.7923509687
 10
-9.0713480152
 20
-58.7812688541
 10
-9.1259564571
 20
-58.7735737556
 10
-9.1824429228
 20
-58.7691660432
 10
-9.238704884
 20
-58.7681932807
 10
-9.2949363488
 20
-58.7708771706
 10
-9.350943309
 20
-58.7769960104
 10
-9.4040412123
 20
-58.7860322566
 10
-9.4530374309
 20
-58.7978921601
 10
-9.4991245926
 20
-58.81266947
 10
-9.5431960281
 20
-58.8301278906
 10
-9.5854671338
 20
-58.8501878542
  0
LWPOLYLINE
  5
513
100
AcDbEntity
  8
0
100
AcDbPolyline
 62
7
  6
CONTINUOUS
 90
47
 70
0
 10
-1.0711880365
 20
-59.9307946311
 10
-1.0275536601
 20
-59.9083402008
 10
-0.9870760397
 20
-59.8844257215
 10
-0.9497551751
 20
-59.8590511934
 10
-0.9156384692
 20
-59.8320897134
 10
-0.8846785192
 20
-59.8036681846
 10
-0.8567331164
 20
-59.7741673153
 10
-0.8319153851
 20
-59.7438442999
 10
-0.810112201
 20
-59.712441944
 10
-0.7908419825
 20
-59.6795693736
 10
-0.7739300924
 20
-59.6450574282
 10
-0.759551168
 20
-59.6090752682
 10
-0.7477475394
 20
-59.571739501
 10
-0.7384199578
 20
-59.5328633007
 10
-0.7316676722
 20
-59.4926334933
 10
-0.7278307588
 20
-59.4517271644
 10
-0.7269711657
 20
-59.4101716261
 10
-0.7290269449
 20
-59.3679395663
 10
-0.7341523294
 20
-59.3256261348
 10
-0.7424449083
 20
-59.2831149333
 10
-0.7538070925
 20
-59.2405223602
 10
-0.7681003469
 20
-59.1987927594
 10
-0.7854383656
 20
-59.157906577
 10
-0.8057074546
 20
-59.1178833671
 10
-0.8284279967
 20
-59.0797261359
 10
-0.8533710225
 20
-59.043762292
 10
-0.8807655015
 20
-59.0096644268
 10
-0.9108187247
 20
-58.9774533209
 10
-0.943492785
 20
-58.947132912
 10
-0.9788255895
 20
-58.9186992625
 10
-1.0171381504
 20
-58.8921613399
 10
-1.0588893381
 20
-58.8672070653
 10
-1.1036202823
 20
-58.8441485178
 10
-1.1502753843
 20
-58.8239309024
 10
-1.1985181559
 20
-58.8067204695
 10
-1.2486850855
 20
-58.7923509687
 10
-1.3007300388
 20
-58.7812688541
 10
-1.3553384807
 20
-58.7735737556
 10
-1.4118249464
 20
-58.7691660432
 10
-1.4680869076
 20
-58.7681932807
 10
-1.5243183723
 20
-58.7708771706
 10
-1.5803253326
 20
-58.7769960104
 10
-1.6334232359
 20
-58.7860322566
 10
-1.6824194545
 20
-58.7978921601
 10
-1.7285066161
 20
-58.81266947
 10
-1.7725780517
 20
-58.8301278906
 10
-1.8148491574
 20
-58.8501878542
  0
LINE
  5
514
100
AcDbEntity
  8
0
100
AcDbLine
 62
7
  6
CONTINUOUS
 10
9.912071
 20
49.799883
 11
11.083514
 21
49.799896
  0
LINE
  5
515
100
AcDbEntity
  8
0
100
AcDbLine
 62
7
  6
CONTINUOUS
 10
1.84925
 20
49.79987
 11
2.889289
 21
49.799883
  0
LINE
  5
516
100
AcDbEntity
  8
0
100
AcDbLine
 62
7
  6
CONTINUOUS
 10
-3.930797
 20
49.79987
 11
-2.890758
 21
49.79987
  0
LINE
  5
517
100
AcDbEntity
  8
0
100
AcDbLine
 62
7
  6
CONTINUOUS
 10
0.115856
 20
49.79987
 11
1.155895
 21
49.79987
  0
LINE
  5
518
100
AcDbEntity
  8
0
100
AcDbLine
 62
7
  6
CONTINUOUS
 10
6.921928
 20
49.799883
 11
7.96198
 21
49.799883
  0
LINE
  5
519
100
AcDbEntity
  8
0
100
AcDbLine
 62
7
  6
CONTINUOUS
 10
-1.907464
 20
49.79987
 11
-0.867451
 21
49.799883
  0
LINE
  5
51A
100
AcDbEntity
  8
0
100
AcDbLine
 62
7
  6
CONTINUOUS
 10
-6.010849
 20
49.799857
 11
-4.97081
 21
49.79987
  0
LINE
  5
51B
100
AcDbEntity
  8
0
100
AcDbLine
 62
7
  6
CONTINUOUS
 10
5.188521
 20
49.799883
 11
6.228573
 21
49.79987
  0
LINE
  5
51C
100
AcDbEntity
  8
0
100
AcDbLine
 62
7
  6
CONTINUOUS
 10
-9.413898
 20
49.799857
 11
-8.37382
 21
49.79987
  0
LINE
  5
51D
100
AcDbEntity
  8
0
100
AcDbLine
 62
7
  6
CONTINUOUS
 10
3.21763
 20
50.822541
 11
4.860193
 21
50.822541
  0
LINE
  5
51E
100
AcDbEntity
  8
0
100
AcDbLine
 62
7
  6
CONTINUOUS
 10
4.542941
 20
51.81058
 11
3.534869
 21
51.81058
  0
LINE
  5
51F
100
AcDbEntity
  8
0
100
AcDbLine
 62
7
  6
CONTINUOUS
 10
7.962097
 20
51.810593
 11
8.869822
 21
51.81058
  0
LINE
  5
520
100
AcDbEntity
  8
0
100
AcDbLine
 62
7
  6
CONTINUOUS
 10
9.213027501
 20
52.772632
 11
7.947641
 21
52.772632
  0
LINE
  5
521
100
AcDbEntity
  8
0
100
AcDbLine
 62
7
  6
CONTINUOUS
 10
7.947628
 20
54.038078
 11
9.212992
 21
54.038078
  0
LINE
  5
522
100
AcDbEntity
  8
0
100
AcDbLine
 62
7
  6
CONTINUOUS
 10
1.155895
 20
55.000104
 11
-0.416364
 21
55.000104
  0
LINE
  5
523
100
AcDbEntity
  8
0
100
AcDbLine
 62
7
  6
CONTINUOUS
 10
-2.358538
 20
55.000104
 11
-3.930797
 21
55.000104
  0
LINE
  5
524
100
AcDbEntity
  8
0
100
AcDbLine
 62
7
  6
CONTINUOUS
 10
-4.970797
 20
55.000104
 11
-6.010836
 21
55.000104
  0
LINE
  5
525
100
AcDbEntity
  8
0
100
AcDbLine
 62
7
  6
CONTINUOUS
 10
-6.704191
 20
55.000104
 11
-7.744243
 21
55.000104
  0
LINE
  5
526
100
AcDbEntity
  8
0
100
AcDbLine
 62
7
  6
CONTINUOUS
 10
-10.043462
 20
55.000104
 11
-11.083514
 21
55.000104
  0
LINE
  5
527
100
AcDbEntity
  8
0
100
AcDbLine
 62
7
  6
CONTINUOUS
 10
9.3574087127
 20
55.000117
 11
6.921928
 21
55.000117
  0
LINE
  5
528
100
AcDbEntity
  8
0
100
AcDbLine
 62
7
  6
CONTINUOUS
 10
4.558944
 20
55.000117
 11
3.518853
 21
55.000117
  0
LWPOLYLINE
  5
529
100
AcDbEntity
  8
0
100
AcDbPolyline
 62
7
  6
CONTINUOUS
 90
10
 70
0
 10
17.5912903236
 20
-55.8847317915
 10
17.6292934139
 20
-55.862216469
 10
17.6660258304
 20
-55.8394469155
 10
17.701487573
 20
-55.8164231312
 10
17.7357348684
 20
-55.7931574088
 10
17.7687114899
 20
-55.7696374555
 10
17.8002487577
 20
-55.7458263931
 10
17.8302904449
 20
-55.7217119287
 10
17.8588927784
 20
-55.6973063551
 10
17.8860557581
 20
-55.6726096723
  0
LWPOLYLINE
  5
52A
100
AcDbEntity
  8
0
100
AcDbPolyline
 62
7
  6
CONTINUOUS
 90
10
 70
0
 10
17.2637992404
 20
-56.0439714802
 10
17.2986297356
 20
-56.0305991322
 10
17.3338533113
 20
-56.0161210998
 10
17.3694699678
 20
-56.000537383
 10
17.4054846781
 20
-55.9838140527
 10
17.4418924692
 20
-55.9659850381
 10
17.4786784212
 20
-55.947152126
 10
17.515837561
 20
-55.9273492453
 10
17.5533748618
 20
-55.9065424672
 10
17.5912903236
 20
-55.8847317915
  0
LINE
  5
52B
100
AcDbEntity
  8
0
100
AcDbLine
 62
7
  6
CONTINUOUS
 10
13.5
 20
56.75
 11
-13.5
 21
56.75
  0
LINE
  5
52C
100
AcDbEntity
  8
0
100
AcDbLine
 62
250
  6
CONTINUOUS
 10
81.9
 20
66.5
 11
81.9174537356
 21
66.5
  0
LINE
  5
52D
100
AcDbEntity
  8
0
100
AcDbLine
 62
250
  6
CONTINUOUS
 10
-81.9
 20
66.5
 11
-81.9174537356
 21
66.5
  0
LINE
  5
52E
100
AcDbEntity
  8
0
100
AcDbLine
 62
250
  6
CONTINUOUS
 10
82.3849626761
 20
66.505
 11
87.015
 21
66.505
  0
LINE
  5
52F
100
AcDbEntity
  8
0
100
AcDbLine
 62
250
  6
CONTINUOUS
 10
-82.3849626761
 20
66.505
 11
-87.015
 21
66.505
  0
LINE
  5
530
100
AcDbEntity
  8
0
100
AcDbLine
 62
7
  6
CONTINUOUS
 10
-79.5
 20
68.9
 11
79.5
 21
68.9
  0
LINE
  5
531
100
AcDbEntity
  8
0
100
AcDbLine
 62
7
  6
CONTINUOUS
 10
-79.5
 20
68.9174537356
 11
79.5
 21
68.9174537356
  0
LINE
  5
532
100
AcDbEntity
  8
0
100
AcDbLine
 62
7
  6
CONTINUOUS
 10
79.505
 20
69.3849626761
 11
-79.505
 21
69.3849626761
  0
LINE
  5
533
100
AcDbEntity
  8
CURVE
100
AcDbLine
 62
7
  6
CONTINUOUS
 10
-79.505
 20
69.385
 11
79.505
 21
69.385
  0
LINE
  5
534
100
AcDbEntity
  8
0
100
AcDbLine
 62
250
  6
CONTINUOUS
 10
79.5
 20
69.3868906591
 11
-79.5
 21
69.3868906591
  0
LINE
  5
535
100
AcDbEntity
  8
0
100
AcDbLine
 62
250
  6
CONTINUOUS
 10
79.5
 20
-68.9
 11
79.5
 21
-68.9174537356
  0
LINE
  5
536
100
AcDbEntity
  8
0
100
AcDbLine
 62
250
  6
CONTINUOUS
 10
79.5
 20
68.9
 11
79.5
 21
68.9174537356
  0
LINE
  5
537
100
AcDbEntity
  8
0
100
AcDbLine
 62
250
  6
CONTINUOUS
 10
79.505
 20
-69.3849626761
 11
79.505
 21
-74.015
  0
LINE
  5
538
100
AcDbEntity
  8
0
100
AcDbLine
 62
250
  6
CONTINUOUS
 10
79.505
 20
69.3849626761
 11
79.505
 21
74.015
  0
LINE
  5
539
100
AcDbEntity
  8
0
100
AcDbLine
 62
7
  6
CONTINUOUS
 10
79.505
 20
74.015
 11
-79.505
 21
74.015
  0
LINE
  5
53A
100
AcDbEntity
  8
0
100
AcDbLine
 62
7
  6
CONTINUOUS
 10
-79.5
 20
76.5
 11
79.5
 21
76.5
  0
LINE
  5
53B
100
AcDbEntity
  8
0
100
AcDbLine
 62
7
  6
CONTINUOUS
 10
81.9
 20
66.5
 11
81.9
 21
-66.5
  0
LINE
  5
53C
100
AcDbEntity
  8
0
100
AcDbLine
 62
7
  6
CONTINUOUS
 10
81.9174537356
 20
66.5
 11
81.9174537356
 21
-66.5
  0
LINE
  5
53D
100
AcDbEntity
  8
0
100
AcDbLine
 62
7
  6
CONTINUOUS
 10
82.3849626761
 20
-66.505
 11
82.3849626761
 21
66.505
  0
LINE
  5
53E
100
AcDbEntity
  8
CURVE
100
AcDbLine
 62
7
  6
CONTINUOUS
 10
82.385
 20
66.505
 11
82.385
 21
-66.505
  0
LINE
  5
53F
100
AcDbEntity
  8
0
100
AcDbLine
 62
250
  6
CONTINUOUS
 10
82.3868906591
 20
-66.5
 11
82.3868906591
 21
66.5
  0
LINE
  5
540
100
AcDbEntity
  8
0
100
AcDbLine
 62
7
  6
CONTINUOUS
 10
87.015
 20
-66.505
 11
87.015
 21
66.505
  0
LINE
  5
541
100
AcDbEntity
  8
0
100
AcDbLine
 62
7
  6
CONTINUOUS
 10
89.5
 20
66.5
 11
89.5
 21
-66.5
  0
ARC
  5
542
100
AcDbEntity
  8
0
100
AcDbCircle
 62
7
  6
CONTINUOUS
 10
-79.5
 20
-66.5
 40
10.0
100
AcDbArc
 50
180.0
 51
270.0
  0
ARC
  5
543
100
AcDbEntity
  8
0
100
AcDbCircle
 62
7
  6
CONTINUOUS
 10
-79.505
 20
-66.505
 40
7.51
100
AcDbArc
 50
180.0
 51
270.0
  0
CIRCLE
  5
544
100
AcDbEntity
  8
RACCORDO
100
AcDbCircle
 62
250
  6
CONTINUOUS
 10
-69.5
 20
-56.5
 40
5.2401747467
  0
CIRCLE
  5
545
100
AcDbEntity
  8
RACCORDO
100
AcDbCircle
 62
250
  6
CONTINUOUS
 10
-69.5
 20
-56.5
 40
3.7496451488
  0
CIRCLE
  5
546
100
AcDbEntity
  8
ASSI
100
AcDbCircle
 62
7
  6
CONTINUOUS
 10
-69.5
 20
-56.5
 40
3.2
  0
ARC
  5
547
100
AcDbEntity
  8
0
100
AcDbCircle
 62
250
  6
CONTINUOUS
 10
-79.5
 20
-66.5
 40
2.8868906591
100
AcDbArc
 50
180.0
 51
270.0
  0
ARC
  5
548
100
AcDbEntity
  8
CURVE
100
AcDbCircle
 62
7
  6
CONTINUOUS
 10
-79.505
 20
-66.505
 40
2.88
100
AcDbArc
 50
180.0
 51
270.0
  0
ARC
  5
549
100
AcDbEntity
  8
0
100
AcDbCircle
 62
7
  6
CONTINUOUS
 10
-79.505
 20
-66.505
 40
2.8799626761
100
AcDbArc
 50
180.0
 51
270.0
  0
ARC
  5
54A
100
AcDbEntity
  8
ASSI
100
AcDbCircle
 62
7
  6
CONTINUOUS
 10
-0.967554
 20
-44.0
 40
2.5499985399
100
AcDbArc
 50
87.7525290943
 51
272.2474708978
  0
ARC
  5
54B
100
AcDbEntity
  8
0
100
AcDbCircle
 62
7
  6
CONTINUOUS
 10
-79.5
 20
-66.5
 40
2.4174537356
100
AcDbArc
 50
180.0
 51
270.0
  0
ARC
  5
54C
100
AcDbEntity
  8
0
100
AcDbCircle
 62
7
  6
CONTINUOUS
 10
-79.5
 20
-66.5
 40
2.4
100
AcDbArc
 50
180.0
 51
270.0
  0
ARC
  5
54D
100
AcDbEntity
  8
ASSI
100
AcDbCircle
 62
7
  6
CONTINUOUS
 10
-0.967554
 20
-44.0
 40
1.7999999246
100
AcDbArc
 50
90.1025526385
 51
273.1847386535
  0
CIRCLE
  5
54E
100
AcDbEntity
  8
0
100
AcDbCircle
 62
7
  6
CONTINUOUS
 10
-69.5
 20
-56.5
 40
1.65
  0
ARC
  5
54F
100
AcDbEntity
  8
0
100
AcDbCircle
 62
7
  6
CONTINUOUS
 10
-79.5
 20
66.5
 40
10.0
100
AcDbArc
 50
90.0
 51
180.0
  0
ARC
  5
550
100
AcDbEntity
  8
0
100
AcDbCircle
 62
7
  6
CONTINUOUS
 10
-79.505
 20
66.505
 40
7.51
100
AcDbArc
 50
90.0
 51
180.0
  0
CIRCLE
  5
551
100
AcDbEntity
  8
RACCORDO
100
AcDbCircle
 62
250
  6
CONTINUOUS
 10
-69.5
 20
56.5
 40
5.2401747467
  0
CIRCLE
  5
552
100
AcDbEntity
  8
RACCORDO
100
AcDbCircle
 62
250
  6
CONTINUOUS
 10
-69.5
 20
56.5
 40
3.7496451488
  0
CIRCLE
  5
553
100
AcDbEntity
  8
ASSI
100
AcDbCircle
 62
7
  6
CONTINUOUS
 10
-69.5
 20
56.5
 40
3.2
  0
ARC
  5
554
100
AcDbEntity
  8
0
100
AcDbCircle
 62
250
  6
CONTINUOUS
 10
-79.5
 20
66.5
 40
2.8868906591
100
AcDbArc
 50
90.0
 51
180.0
  0
ARC
  5
555
100
AcDbEntity
  8
CURVE
100
AcDbCircle
 62
7
  6
CONTINUOUS
 10
-79.505
 20
66.505
 40
2.88
100
AcDbArc
 50
90.0
 51
180.0
  0
ARC
  5
556
100
AcDbEntity
  8
0
100
AcDbCircle
 62
7
  6
CONTINUOUS
 10
-79.505
 20
66.505
 40
2.8799626761
100
AcDbArc
 50
90.0
 51
180.0
  0
ARC
  5
557
100
AcDbEntity
  8
0
100
AcDbCircle
 62
7
  6
CONTINUOUS
 10
-79.5
 20
66.5
 40
2.4174537356
100
AcDbArc
 50
90.0
 51
180.0
  0
ARC
  5
558
100
AcDbEntity
  8
0
100
AcDbCircle
 62
7
  6
CONTINUOUS
 10
-79.5
 20
66.5
 40
2.4
100
AcDbArc
 50
90.0
 51
180.0
  0
CIRCLE
  5
559
100
AcDbEntity
  8
0
100
AcDbCircle
 62
7
  6
CONTINUOUS
 10
-69.5
 20
56.5
 40
1.65
  0
ARC
  5
55A
100
AcDbEntity
  8
0
100
AcDbCircle
 62
7
  6
CONTINUOUS
 10
79.5
 20
-66.5
 40
10.0
100
AcDbArc
 50
270.0
 51
360.0
  0
ARC
  5
55B
100
AcDbEntity
  8
0
100
AcDbCircle
 62
7
  6
CONTINUOUS
 10
79.505
 20
-66.505
 40
7.51
100
AcDbArc
 50
270.0
 51
360.0
  0
CIRCLE
  5
55C
100
AcDbEntity
  8
RACCORDO
100
AcDbCircle
 62
250
  6
CONTINUOUS
 10
69.5
 20
-56.5
 40
5.2401747467
  0
CIRCLE
  5
55D
100
AcDbEntity
  8
RACCORDO
100
AcDbCircle
 62
250
  6
CONTINUOUS
 10
69.5
 20
-56.5
 40
3.7496451488
  0
CIRCLE
  5
55E
100
AcDbEntity
  8
ASSI
100
AcDbCircle
 62
7
  6
CONTINUOUS
 10
69.5
 20
-56.5
 40
3.2
  0
ARC
  5
55F
100
AcDbEntity
  8
0
100
AcDbCircle
 62
250
  6
CONTINUOUS
 10
79.5
 20
-66.5
 40
2.8868906591
100
AcDbArc
 50
270.0
 51
360.0
  0
ARC
  5
560
100
AcDbEntity
  8
CURVE
100
AcDbCircle
 62
7
  6
CONTINUOUS
 10
79.505
 20
-66.505
 40
2.88
100
AcDbArc
 50
270.0
 51
360.0
  0
ARC
  5
561
100
AcDbEntity
  8
0
100
AcDbCircle
 62
7
  6
CONTINUOUS
 10
79.505
 20
-66.505
 40
2.8799626761
100
AcDbArc
 50
270.0
 51
360.0
  0
ARC
  5
562
100
AcDbEntity
  8
ASSI
100
AcDbCircle
 62
7
  6
CONTINUOUS
 10
3.417556
 20
-44.0
 40
2.5499986575
100
AcDbArc
 50
87.7525289953
 51
272.2474707943
  0
ARC
  5
563
100
AcDbEntity
  8
0
100
AcDbCircle
 62
7
  6
CONTINUOUS
 10
79.5
 20
-66.5
 40
2.4174537356
100
AcDbArc
 50
270.0
 51
360.0
  0
ARC
  5
564
100
AcDbEntity
  8
0
100
AcDbCircle
 62
7
  6
CONTINUOUS
 10
79.5
 20
-66.5
 40
2.4
100
AcDbArc
 50
270.0
 51
360.0
  0
ARC
  5
565
100
AcDbEntity
  8
ASSI
100
AcDbCircle
 62
7
  6
CONTINUOUS
 10
3.417556
 20
-44.0
 40
1.7999999246
100
AcDbArc
 50
86.8152613297
 51
167.9752999778
  0
ARC
  5
566
100
AcDbEntity
  8
ASSI
100
AcDbCircle
 62
7
  6
CONTINUOUS
 10
3.417556
 20
-44.0
 40
1.7999968808
100
AcDbArc
 50
192.0247203293
 51
273.1847444946
  0
CIRCLE
  5
567
100
AcDbEntity
  8
0
100
AcDbCircle
 62
7
  6
CONTINUOUS
 10
69.5
 20
-56.5
 40
1.65
  0
ARC
  5
568
100
AcDbEntity
  8
0
100
AcDbCircle
 62
7
  6
CONTINUOUS
 10
79.5
 20
66.5
 40
10.0
100
AcDbArc
 50
0.0
 51
90.0
  0
ARC
  5
569
100
AcDbEntity
  8
0
100
AcDbCircle
 62
7
  6
CONTINUOUS
 10
79.505
 20
66.505
 40
7.51
100
AcDbArc
 50
0.0
 51
90.0
  0
CIRCLE
  5
56A
100
AcDbEntity
  8
RACCORDO
100
AcDbCircle
 62
250
  6
CONTINUOUS
 10
69.5
 20
56.5
 40
5.2401747467
  0
CIRCLE
  5
56B
100
AcDbEntity
  8
RACCORDO
100
AcDbCircle
 62
250
  6
CONTINUOUS
 10
69.5
 20
56.5
 40
3.7496451488
  0
ARC
  5
56C
100
AcDbEntity
  8
ASSI
100
AcDbCircle
 62
7
  6
CONTINUOUS
 10
6.5
 20
35.25
 40
3.4233595751
100
AcDbArc
 50
292.0885368024
 51
273.4298405669
  0
CIRCLE
  5
56D
100
AcDbEntity
  8
ASSI
100
AcDbCircle
 62
7
  6
CONTINUOUS
 10
69.5
 20
56.5
 40
3.2
  0
ARC
  5
56E
100
AcDbEntity
  8
ASSI
100
AcDbCircle
 62
7
  6
CONTINUOUS
 10
6.396458
 20
28.796527
 40
3.051862479
100
AcDbArc
 50
47.231270393
 51
84.2011533667
  0
ARC
  5
56F
100
AcDbEntity
  8
ASSI
100
AcDbCircle
 62
7
  6
CONTINUOUS
 10
6.636638
 20
29.29086
 40
3.0152382548
100
AcDbArc
 50
45.4348897783
 51
67.5658709123
  0
ARC
  5
570
100
AcDbEntity
  8
0
100
AcDbCircle
 62
250
  6
CONTINUOUS
 10
79.5
 20
66.5
 40
2.8868906591
100
AcDbArc
 50
0.0
 51
90.0
  0
ARC
  5
571
100
AcDbEntity
  8
CURVE
100
AcDbCircle
 62
7
  6
CONTINUOUS
 10
79.505
 20
66.505
 40
2.88
100
AcDbArc
 50
0.0
 51
90.0
  0
ARC
  5
572
100
AcDbEntity
  8
0
100
AcDbCircle
 62
7
  6
CONTINUOUS
 10
79.505
 20
66.505
 40
2.8799626761
100
AcDbArc
 50
0.0
 51
90.0
  0
CIRCLE
  5
573
100
AcDbEntity
  8
ASSI
100
AcDbCircle
 62
7
  6
CONTINUOUS
 10
6.5
 20
35.25
 40
2.875383
  0
ARC
  5
574
100
AcDbEntity
  8
ASSI
100
AcDbCircle
 62
7
  6
CONTINUOUS
 10
6.5
 20
35.25
 40
2.5716283267
100
AcDbArc
 50
299.3041446576
 51
44.9957783159
  0
ARC
  5
575
100
AcDbEntity
  8
ASSI
100
AcDbCircle
 62
7
  6
CONTINUOUS
 10
6.5
 20
35.25
 40
2.5716282219
100
AcDbArc
 50
134.9002751525
 51
240.6958553424
  0
ARC
  5
576
100
AcDbEntity
  8
0
100
AcDbCircle
 62
7
  6
CONTINUOUS
 10
79.5
 20
66.5
 40
2.4174537356
100
AcDbArc
 50
0.0
 51
90.0
  0
ARC
  5
577
100
AcDbEntity
  8
0
100
AcDbCircle
 62
7
  6
CONTINUOUS
 10
79.5
 20
66.5
 40
2.4
100
AcDbArc
 50
0.0
 51
90.0
  0
ARC
  5
578
100
AcDbEntity
  8
ASSI
100
AcDbCircle
 62
7
  6
CONTINUOUS
 10
6.5
 20
35.25
 40
2.0603391911
100
AcDbArc
 50
148.0267353487
 51
240.6958433001
  0
ARC
  5
579
100
AcDbEntity
  8
ASSI
100
AcDbCircle
 62
7
  6
CONTINUOUS
 10
6.5
 20
35.25
 40
2.0603387957
100
AcDbArc
 50
299.3041566999
 51
31.9732630587
  0
CIRCLE
  5
57A
100
AcDbEntity
  8
0
100
AcDbCircle
 62
7
  6
CONTINUOUS
 10
69.5
 20
56.5
 40
1.65
  0
ARC
  5
57B
100
AcDbEntity
  8
0
100
AcDbCircle
 62
7
  6
CONTINUOUS
 10
9.357347
 20
53.405353
 40
1.5947693028
100
AcDbArc
 50
292.8428777305
 51
89.9977828195
  0
ARC
  5
57C
100
AcDbEntity
  8
0
100
AcDbCircle
 62
7
  6
CONTINUOUS
 10
9.212992
 20
53.405353
 40
0.632725
100
AcDbArc
 50
270.0032147762
 51
90.0
  0
ENDSEC
  0
SECTION
  2
OBJECTS
  0
DICTIONARY
  5
C
100
AcDbDictionary
280
0
281
1
  3
ACAD_GROUP
350
D
  3
ACAD_MLINESTYLE
350
17
  3
ACAD_LAYOUT
350
1A
  3
ACAD_PLOTSETTINGS
350
19
  3
ACAD_PLOTSTYLENAME
350
E
  0
DICTIONARY
  5
D
102
{ACAD_REACTORS
330
C
102
}
100
AcDbDictionary
280
0
281
1
  0
ACDBDICTIONARYWDFLT
  5
E
102
{ACAD_REACTORS
330
C
102
}
100
AcDbDictionary
281
1
  3
Normal
350
F
100
AcDbDictionaryWithDefault
340
F
  0
DICTIONARY
  5
17
102
{ACAD_REACTORS
330
C
102
}
100
AcDbDictionary
280
0
281
1
  3
Standard
350
18
  0
DICTIONARY
  5
19
102
{ACAD_REACTORS
330
C
102
}
100
AcDbDictionary
281
1
  0
DICTIONARY
  5
1A
102
{ACAD_REACTORS
330
C
102
}
100
AcDbDictionary
281
1
  3
Model
350
57D
  3
Layout1
350
57E
  0
ACDBPLACEHOLDER
  5
F
102
{ACAD_REACTORS
330
E
102
}
  0
MLINESTYLE
  5
18
102
{ACAD_REACTORS
330
17
102
}
100
AcDbMlineStyle
  2
STANDARD
 70
0
  3

 62
256
 51
90.0
 52
90.0
 71
2
 49
0.5
 62
256
  6
BYLAYER
 49
-0.5
 62
256
  6
BYLAYER
  0
LAYOUT
  5
57D
102
{ACAD_REACTORS
330
1A
102
}
100
AcDbPlotSettings
  1

  2
none_device
  4
ANSI_C_(22.00_x_17.00_Inches)
  6

 40
0.0
 41
0.0
 42
0.0
 43
0.0
 44
558.8
 45
431.8
 46
0.0
 47
0.0
 48
0.0
 49
0.0
140
0.0
141
0.0
142
1.0
143
1.0
 70
1024
 72
1
 73
0
 74
0
  7

 75
0
147
1.0
148
0.0
149
0.0
100
AcDbLayout
  1
Model
 70
0
 71
0
 10
0.0
 20
0.0
 11
558.8
 21
431.8
 12
0.0
 22
0.0
 32
0.0
 14
0.0
 24
0.0
 34
0.0
 15
0.0
 25
0.0
 35
0.0
146
0.0
 13
0.0
 23
0.0
 33
0.0
 16
1.0
 26
0.0
 36
0.0
 17
0.0
 27
1.0
 37
0.0
 76
0
330
212
345
0
346
0
  0
LAYOUT
  5
57E
102
{ACAD_REACTORS
330
1A
102
}
100
AcDbPlotSettings
  1

  2
none_device
  4
ANSI_C_(22.00_x_17.00_Inches)
  6

 40
0.0
 41
0.0
 42
0.0
 43
0.0
 44
558.8
 45
431.8
 46
0.0
 47
0.0
 48
0.0
 49
0.0
140
0.0
141
0.0
142
1.0
143
1.0
 70
0
 72
1
 73
0
 74
0
  7

 75
0
147
1.0
148
0.0
149
0.0
100
AcDbLayout
  1
Layout1
 70
0
 71
1
 10
0.0
 20
0.0
 11
558.8
 21
431.8
 12
0.0
 22
0.0
 32
0.0
 14
0.0
 24
0.0
 34
0.0
 15
0.0
 25
0.0
 35
0.0
146
0.0
 13
0.0
 23
0.0
 33
0.0
 16
1.0
 26
0.0
 36
0.0
 17
0.0
 27
1.0
 37
0.0
 76
0
330
213
345
0
346
0
  0
ENDSEC
  0
EOF
