  0
SECTION
  2
HEADER
  9
$ACADVER
  1
AC1021
  9
$DWGCODEPAGE
  3
ANSI_1252
  9
$EXTMAX
 10
558.8
 20
431.8
 30
0.0
  9
$EXTMIN
 10
0.0
 20
0.0
 30
0.0
  9
$LIMMIN
 10
0.0
 20
0.0
  9
$LIMMAX
 10
558.8
 20
431.8
  9
$VIEWCTR
 10
279.4
 20
215.9
  9
$VIEWSIZE
 40
431.8
  9
$CLAYER
  8
0
  9
$LTSCALE
 40
30.734
  9
$CELTYPE
  6
BYLAYER
  9
$DIMSCALE
 40
1.0
  9
$DIMASZ
 40
3.0
  9
$DIMEXO
 40
0.5
  9
$DIMDLI
 40
21.2344
  9
$DIMEXE
 40
1.5
  9
$DIMCEN
 40
5.0292
  9
$DIMLFAC
 40
1.0
  9
$DIMBLK
  1
_FILLED
  9
$DIMALT
 70
0
  9
$DIMALTF
 40
25.4
  9
$DIMTXT
 40
3.0
  9
$DIMTOL
 70
1
  9
$DIMLIM
 70
0
  9
$DIMTFAC
 40
1.0
  9
$DIMTP
 40
0.01
  9
$DIMTM
 40
0.01
  9
$DIMGAP
 40
0.625
  9
$DIMDSEP
 70
44
  9
$AUNITS
 70
0
  9
$PDMODE
 70
3
  9
$PDSIZE
 40
3.0
  9
$HANDSEED
  5
593
  9
$TILEMODE
 70
1
  9
$MEASUREMENT
 70
1
  9
$INSUNITS
 70
4
  0
ENDSEC
  0
SECTION
  2
CLASSES
  0
CLASS
  1
ACDBDICTIONARYWDFLT
  2
AcDbDictionaryWithDefault
  3
AutoCAD 2000
 90
0
 91
1
280
0
281
0
  0
CLASS
  1
ACDBPLACEHOLDER
  2
AcDbPlaceHolder
  3
AutoCAD 2000
 90
0
 91
1
280
0
281
0
  0
CLASS
  1
LAYOUT
  2
AcDbLayout
  3
AutoCAD 2000
 90
0
 91
0
280
0
281
0
  0
ENDSEC
  0
SECTION
  2
TABLES
  0
TABLE
  2
VPORT
  5
8
100
AcDbSymbolTable
 70
2
  0
VPORT
  5
1F4
100
AcDbSymbolTableRecord
100
AcDbViewportTableRecord
  2
*ACTIVE
 70
0
 10
0.0
 20
0.0
 11
1.0
 21
1.0
 12
279.4
 22
215.9
 13
0.0
 23
0.0
 14
1.0
 24
1.0
 15
0.0
 25
0.0
 16
0.0
 26
0.0
 36
1.0
 17
0.0
 27
0.0
 37
0.0
 40
431.8
 41
1.2941176471
 42
50.0
 43
0.0
 44
0.0
 50
0.0
 51
0.0
 71
0
 72
100
 73
1
 74
1
 75
0
 76
0
 77
0
 78
0
  0
ENDTAB
  0
TABLE
  2
LTYPE
  5
5
100
AcDbSymbolTable
 70
6
  0
LTYPE
  5
14
100
AcDbSymbolTableRecord
100
AcDbLinetypeTableRecord
  2
BYBLOCK
 70
0
  3

 72
65
 73
0
 40
0.0
  0
LTYPE
  5
15
100
AcDbSymbolTableRecord
100
AcDbLinetypeTableRecord
  2
BYLAYER
 70
0
  3

 72
65
 73
0
 40
0.0
  0
LTYPE
  5
16
100
AcDbSymbolTableRecord
100
AcDbLinetypeTableRecord
  2
CONTINUOUS
 70
64
  3
Solid line
 72
65
 73
0
 40
0.0
  0
LTYPE
  5
1F5
100
AcDbSymbolTableRecord
100
AcDbLinetypeTableRecord
  2
CENTER
 70
64
  3
____ _ ____ _ ____ _ ____ _ ____ _ ____ _ ____
 72
65
 73
4
 40
0.6
 49
0.375
 74
0
 49
-0.075
 74
0
 49
0.075
 74
0
 49
-0.075
 74
0
  0
LTYPE
  5
1F6
100
AcDbSymbolTableRecord
100
AcDbLinetypeTableRecord
  2
HIDDEN
 70
64
  3
- - - - - - - - - - - - - - - - - - - -
 72
65
 73
2
 40
0.2
 49
0.1
 74
0
 49
-0.1
 74
0
  0
LTYPE
  5
1F7
100
AcDbSymbolTableRecord
100
AcDbLinetypeTableRecord
  2
PHANTOM
 70
64
  3
_____ _ _ _____ _ _ _____ _ _ _____
 72
65
 73
6
 40
0.8
 49
0.45
 74
0
 49
-0.05
 74
0
 49
0.1
 74
0
 49
-0.05
 74
0
 49
0.1
 74
0
 49
-0.05
 74
0
  0
LTYPE
  5
1F8
100
AcDbSymbolTableRecord
100
AcDbLinetypeTableRecord
  2
DOT
 70
64
  3
. . . . . . . . . . . . . . . . . . . .
 72
65
 73
2
 40
0.2
 49
0.1
 74
0
 49
-0.1
 74
0
  0
LTYPE
  5
1F9
100
AcDbSymbolTableRecord
100
AcDbLinetypeTableRecord
  2
DASHED
 70
64
  3
- - - - - - - - - - - - - - - - - - - -
 72
65
 73
2
 40
0.2
 49
0.1
 74
0
 49
-0.1
 74
0
  0
ENDTAB
  0
TABLE
  2
LAYER
  5
2
100
AcDbSymbolTable
 70
36
  0
LAYER
  5
10
100
AcDbSymbolTableRecord
100
AcDbLayerTableRecord
  2
0
 70
0
 62
7
  6
CONTINUOUS
370
-3
390
F
  0
LAYER
  5
1FA
100
AcDbSymbolTableRecord
100
AcDbLayerTableRecord
  2
DEFAULT_1
 70
0
 62
7
  6
CENTER
370
-3
390
F
  0
LAYER
  5
1FB
100
AcDbSymbolTableRecord
100
AcDbLayerTableRecord
  2
DEFAULT_2
 70
0
 62
7
  6
HIDDEN
370
-3
390
F
  0
LAYER
  5
1FC
100
AcDbSymbolTableRecord
100
AcDbLayerTableRecord
  2
DEFAULT_3
 70
0
 62
7
  6
PHANTOM
370
-3
390
F
  0
LAYER
  5
1FD
100
AcDbSymbolTableRecord
100
AcDbLayerTableRecord
  2
ASSI
 70
0
 62
7
  6
CONTINUOUS
370
-3
390
F
  0
LAYER
  5
1FE
100
AcDbSymbolTableRecord
100
AcDbLayerTableRecord
  2
COORDINATE
 70
0
 62
7
  6
CONTINUOUS
370
-3
390
F
  0
LAYER
  5
1FF
100
AcDbSymbolTableRecord
100
AcDbLayerTableRecord
  2
COPY_PUBLISH
 70
0
 62
7
  6
CONTINUOUS
370
-3
390
F
  0
LAYER
  5
200
100
AcDbSymbolTableRecord
100
AcDbLayerTableRecord
  2
COSMETIC
 70
0
 62
7
  6
CONTINUOUS
370
-3
390
F
  0
LAYER
  5
201
100
AcDbSymbolTableRecord
100
AcDbLayerTableRecord
  2
COSMETICI
 70
0
 62
7
  6
CONTINUOUS
370
-3
390
F
  0
LAYER
  5
202
100
AcDbSymbolTableRecord
100
AcDbLayerTableRecord
  2
CURVE
 70
0
 62
7
  6
CONTINUOUS
370
-3
390
F
  0
LAYER
  5
203
100
AcDbSymbolTableRecord
100
AcDbLayerTableRecord
  2
DRAFT
 70
0
 62
7
  6
CONTINUOUS
370
-3
390
F
  0
LAYER
  5
204
100
AcDbSymbolTableRecord
100
AcDbLayerTableRecord
  2
IMPORT_IGES
 70
0
 62
7
  6
CONTINUOUS
370
-3
390
F
  0
LAYER
  5
205
100
AcDbSymbolTableRecord
100
AcDbLayerTableRecord
  2
INTF_1
 70
0
 62
7
  6
CONTINUOUS
370
-3
390
F
  0
LAYER
  5
206
100
AcDbSymbolTableRecord
100
AcDbLayerTableRecord
  2
NOTE
 70
0
 62
7
  6
CONTINUOUS
370
-3
390
F
  0
LAYER
  5
207
100
AcDbSymbolTableRecord
100
AcDbLayerTableRecord
  2
PIANI
 70
0
 62
7
  6
CONTINUOUS
370
-3
390
F
  0
LAYER
  5
208
100
AcDbSymbolTableRecord
100
AcDbLayerTableRecord
  2
PUNTI
 70
0
 62
7
  6
CONTINUOUS
370
-3
390
F
  0
LAYER
  5
209
100
AcDbSymbolTableRecord
100
AcDbLayerTableRecord
  2
RACCORDO
 70
0
 62
7
  6
CONTINUOUS
370
-3
390
F
  0
LAYER
  5
20A
100
AcDbSymbolTableRecord
100
AcDbLayerTableRecord
  2
RGB____0____0____0__
 70
0
 62
7
  6
CONTINUOUS
370
-3
390
F
  0
LAYER
  5
20B
100
AcDbSymbolTableRecord
100
AcDbLayerTableRecord
  2
SIMBOLI
 70
0
 62
7
  6
CONTINUOUS
370
-3
390
F
  0
LAYER
  5
20C
100
AcDbSymbolTableRecord
100
AcDbLayerTableRecord
  2
SMUSSO
 70
0
 62
7
  6
CONTINUOUS
370
-3
390
F
  0
LAYER
  5
20D
100
AcDbSymbolTableRecord
100
AcDbLayerTableRecord
  2
SNAPLINE
 70
0
 62
7
  6
CONTINUOUS
370
-3
390
F
  0
LAYER
  5
20E
100
AcDbSymbolTableRecord
100
AcDbLayerTableRecord
  2
SUPERFICI
 70
0
 62
7
  6
CONTINUOUS
370
-3
390
F
  0
LAYER
  5
20F
100
AcDbSymbolTableRecord
100
AcDbLayerTableRecord
  2
TRASH
 70
0
 62
7
  6
CONTINUOUS
370
-3
390
F
  0
ENDTAB
  0
TABLE
  2
STYLE
  5
3
100
AcDbSymbolTable
 70
1
  0
STYLE
  5
11
100
AcDbSymbolTableRecord
100
AcDbTextStyleTableRecord
  2
STANDARD
 70
0
 40
0.0
 41
0.8
 50
0.0
 71
0
 42
0.2
  3
txt
  4

  0
STYLE
  5
210
100
AcDbSymbolTableRecord
100
AcDbTextStyleTableRecord
  2
TEXTSTYLE_1
 70
0
 40
0.0
 41
0.8
 50
0.0
 71
0
 42
0.2
  3
gdt
  4

  0
ENDTAB
  0
TABLE
  2
VIEW
  5
6
100
AcDbSymbolTable
 70
0
  0
ENDTAB
  0
TABLE
  2
UCS
  5
7
100
AcDbSymbolTable
 70
0
  0
ENDTAB
  0
TABLE
  2
APPID
  5
9
100
AcDbSymbolTable
 70
1
  0
APPID
  5
211
100
AcDbSymbolTableRecord
100
AcDbRegAppTableRecord
  2
ACAD
 70
0
  0
ENDTAB
  0
TABLE
  2
BLOCK_RECORD
  5
1
100
AcDbSymbolTable
 70
0
  0
BLOCK_RECORD
  5
212
100
AcDbSymbolTableRecord
100
AcDbBlockTableRecord
  2
*Model_Space
  0
BLOCK_RECORD
  5
213
100
AcDbSymbolTableRecord
100
AcDbBlockTableRecord
  2
*Paper_Space
  0
ENDTAB
  0
TABLE
  2
DIMSTYLE
  5
A
100
AcDbSymbolTable
 70
1
100
AcDbDimStyleTable
 71
0
  0
DIMSTYLE
105
214
100
AcDbSymbolTableRecord
100
AcDbDimStyleTableRecord
  2
STANDARD
 70
0
  3

  4

 40
1.0
 41
3.0
 42
0.5
 43
0.38
 44
1.5
 45
0.0
 46
0.0
 47
0.01
 48
0.01
140
3.0
141
0.09
142
0.0
143
25.4
144
1.0
145
0.0
146
1.0
147
0.625
 71
1.0
 72
0.0
 73
0
 74
0
 75
0
 76
0
 77
1
 78
8
170
0
171
1
172
0
173
0
174
0
175
0
176
0
177
0
178
0
270
2
271
2
272
2
273
2
274
2
275
0
280
0
281
0
282
0
283
1
284
8
285
0
286
0
287
3
288
0
340
11
278
44
  0
ENDTAB
  0
ENDSEC
  0
SECTION
  2
BLOCKS
  0
BLOCK
  5
20
100
AcDbEntity
  8
0
100
AcDbBlockBegin
  2
*Model_Space
 70
0
 10
0.0
 20
0.0
 30
0.0
  3
*Model_Space
  1

  0
ENDBLK
  5
21
100
AcDbEntity
  8
0
100
AcDbBlockEnd
  0
BLOCK
  5
1C
100
AcDbEntity
  8
0
100
AcDbBlockBegin
  2
*Paper_Space
 70
0
 10
0.0
 20
0.0
 30
0.0
  3
*Paper_Space
  1

  0
ENDBLK
  5
1D
100
AcDbEntity
  8
0
100
AcDbBlockEnd
  0
ENDSEC
  0
SECTION
  2
ENTITIES
  0
LINE
  5
215
100
AcDbEntity
  8
0
100
AcDbLine
 62
7
  6
CONTINUOUS
 10
-110.0
 20
-79.5
 11
-110.0
 21
79.5
  0
LINE
  5
216
100
AcDbEntity
  8
0
100
AcDbLine
 62
250
  6
CONTINUOUS
 10
-107.5
 20
-79.5
 11
-107.5
 21
79.5
  0
LINE
  5
217
100
AcDbEntity
  8
0
100
AcDbLine
 62
7
  6
CONTINUOUS
 10
-107.493308733
 20
79.5
 11
-107.493308733
 21
-79.5
  0
LINE
  5
218
100
AcDbEntity
  8
0
100
AcDbLine
 62
7
  6
CONTINUOUS
 10
-103.88
 20
79.5
 11
-103.88
 21
-79.5
  0
LINE
  5
219
100
AcDbEntity
  8
CURVE
100
AcDbLine
 62
7
  6
CONTINUOUS
 10
-103.88
 20
79.5
 11
-103.88
 21
-79.5
  0
LINE
  5
21A
100
AcDbEntity
  8
0
100
AcDbLine
 62
7
  6
CONTINUOUS
 10
-103.4218171695
 20
-79.5
 11
-103.4218171695
 21
79.5
  0
LINE
  5
21B
100
AcDbEntity
  8
0
100
AcDbLine
 62
7
  6
CONTINUOUS
 10
-103.4
 20
-79.5
 11
-103.4
 21
79.5
  0
LINE
  5
21C
100
AcDbEntity
  8
0
100
AcDbLine
 62
250
  6
CONTINUOUS
 10
-100.0
 20
82.9218171695
 11
-100.0
 21
82.9
  0
LINE
  5
21D
100
AcDbEntity
  8
0
100
AcDbLine
 62
250
  6
CONTINUOUS
 10
-100.0
 20
-82.9218171695
 11
-100.0
 21
-82.9
  0
LINE
  5
21E
100
AcDbEntity
  8
0
100
AcDbLine
 62
250
  6
CONTINUOUS
 10
-100.0
 20
-83.38
 11
-100.0
 21
-87.0
  0
LINE
  5
21F
100
AcDbEntity
  8
0
100
AcDbLine
 62
250
  6
CONTINUOUS
 10
-100.0
 20
83.38
 11
-100.0
 21
87.0
  0
LINE
  5
220
100
AcDbEntity
  8
0
100
AcDbLine
 62
7
  6
CONTINUOUS
 10
100.0
 20
-89.5
 11
-100.0
 21
-89.5
  0
LINE
  5
221
100
AcDbEntity
  8
0
100
AcDbLine
 62
250
  6
CONTINUOUS
 10
100.0
 20
-87.0
 11
-100.0
 21
-87.0
  0
LINE
  5
222
100
AcDbEntity
  8
0
100
AcDbLine
 62
7
  6
CONTINUOUS
 10
-100.0
 20
-86.993308733
 11
100.0
 21
-86.993308733
  0
LINE
  5
223
100
AcDbEntity
  8
0
100
AcDbLine
 62
7
  6
CONTINUOUS
 10
-100.0
 20
-83.38
 11
100.0
 21
-83.38
  0
LINE
  5
224
100
AcDbEntity
  8
CURVE
100
AcDbLine
 62
7
  6
CONTINUOUS
 10
-100.0
 20
-83.38
 11
100.0
 21
-83.38
  0
LINE
  5
225
100
AcDbEntity
  8
0
100
AcDbLine
 62
7
  6
CONTINUOUS
 10
100.0
 20
-82.9218171695
 11
-100.0
 21
-82.9218171695
  0
LINE
  5
226
100
AcDbEntity
  8
0
100
AcDbLine
 62
7
  6
CONTINUOUS
 10
100.0
 20
-82.9
 11
-100.0
 21
-82.9
  0
LINE
  5
227
100
AcDbEntity
  8
0
100
AcDbLine
 62
250
  6
CONTINUOUS
 10
-103.4218171695
 20
-79.5
 11
-103.4
 21
-79.5
  0
LINE
  5
228
100
AcDbEntity
  8
0
100
AcDbLine
 62
250
  6
CONTINUOUS
 10
103.4218171695
 20
-79.5
 11
103.4
 21
-79.5
  0
LINE
  5
229
100
AcDbEntity
  8
0
100
AcDbLine
 62
250
  6
CONTINUOUS
 10
103.88
 20
-79.5
 11
107.5
 21
-79.5
  0
LINE
  5
22A
100
AcDbEntity
  8
0
100
AcDbLine
 62
250
  6
CONTINUOUS
 10
-103.88
 20
-79.5
 11
-107.5
 21
-79.5
  0
LINE
  5
22B
100
AcDbEntity
  8
0
100
AcDbLine
 62
7
  6
CONTINUOUS
 10
18.4113219764
 20
-64.5478127643
 11
18.7452157176
 21
-64.4709792469
  0
LWPOLYLINE
  5
22C
100
AcDbEntity
  8
0
100
AcDbPolyline
 62
7
  6
CONTINUOUS
 90
52
 70
0
 10
7.3468234964
 20
-65.1492010679
 10
7.410080598
 20
-65.1392958531
 10
7.4701434616
 20
-65.1271664238
 10
7.5270120872
 20
-65.1128127801
 10
7.5807582893
 20
-65.0961106426
 10
7.6313102535
 20
-65.0771842906
 10
7.6784525358
 20
-65.056406562
 10
7.722020014
 20
-65.0337434326
 10
7.7621778105
 20
-65.0092289266
 10
7.7992058485
 20
-64.9833379536
 10
7.8329524968
 20
-64.9563152247
 10
7.8635693866
 20
-64.9279160289
 10
7.8917913351
 20
-64.8978811435
 10
7.9178274332
 20
-64.866126579
 10
7.9414685899
 20
-64.832736325
 10
7.9628223489
 20
-64.7977031274
 10
7.982009971
 20
-64.7610393433
 10
7.9989101954
 20
-64.7227326156
 10
8.0132667837
 20
-64.6827386191
 10
8.0250798953
 20
-64.64106871
 10
8.0343493707
 20
-64.5977115319
 10
8.0408184928
 20
-64.5525886915
 10
8.0444670994
 20
-64.504911367
 10
8.0453153527
 20
-64.4554683801
 10
8.0431670228
 20
-64.4065478021
 10
8.0378977871
 20
-64.3586144869
 10
8.0296319682
 20
-64.3112035807
 10
8.0185463035
 20
-64.265208593
 10
8.0044966893
 20
-64.2207436189
 10
7.9876272293
 20
-64.1776945632
 10
7.9685469715
 20
-64.1366126502
 10
7.9471637525
 20
-64.0974037631
 10
7.9235697357
 20
-64.0601620186
 10
7.8986504602
 20
-64.0257209916
 10
7.8727449971
 20
-63.9944800348
 10
7.8455142751
 20
-63.9660397956
 10
7.8168266202
 20
-63.9400357907
 10
7.786784891
 20
-63.9164504023
 10
7.7552862289
 20
-63.8953012482
 10
7.7218903834
 20
-63.8762766989
 10
7.6865232362
 20
-63.8593632028
 10
7.6492589058
 20
-63.8445743114
 10
7.6098794964
 20
-63.8316390502
 10
7.5682889275
 20
-63.820629423
 10
7.5245832798
 20
-63.811473426
 10
7.4788328994
 20
-63.8036840738
 10
7.4310229606
 20
-63.7971509416
 10
7.3811682893
 20
-63.7919844542
 10
7.3293837092
 20
-63.7880289001
 10
7.2757074951
 20
-63.7852323756
 10
7.2201013724
 20
-63.7836467845
 10
7.162565341
 20
-63.7832721267
  0
LINE
  5
22D
100
AcDbEntity
  8
0
100
AcDbLine
 62
7
  6
CONTINUOUS
 10
11.4906153411
 20
-65.4527408326
 11
11.1718985882
 21
-65.4679178208
  0
LINE
  5
22E
100
AcDbEntity
  8
0
100
AcDbLine
 62
7
  6
CONTINUOUS
 10
12.7503053647
 20
-64.4965905738
 11
13.0841991058
 21
-64.4814135855
  0
LWPOLYLINE
  5
22F
100
AcDbEntity
  8
0
100
AcDbPolyline
 62
7
  6
CONTINUOUS
 90
43
 70
0
 10
12.2285965388
 20
-66.3330061502
 10
12.3038618887
 20
-66.3305785097
 10
12.3757473317
 20
-66.3246789837
 10
12.4442528679
 20
-66.3153075722
 10
12.5093864086
 20
-66.3021714231
 10
12.5711400425
 20
-66.2855633885
 10
12.6294900354
 20
-66.2663620255
 10
12.6845126404
 20
-66.2445732161
 10
12.7361316044
 20
-66.2201910784
 10
12.7840944329
 20
-66.194076523
 10
12.827996625
 20
-66.1666146088
 10
12.8682426818
 20
-66.137420277
 10
12.9057936114
 20
-66.1061992615
 10
12.9409297977
 20
-66.07277471
 10
12.973370857
 20
-66.0373234749
 10
13.0032366459
 20
-66.0000818468
 10
13.0307179405
 20
-65.9608299464
 10
13.0556239649
 20
-65.9197876531
 10
13.0775022475
 20
-65.8778508963
 10
13.0962028736
 20
-65.8353037996
 10
13.111875758
 20
-65.7918622393
 10
13.1245181746
 20
-65.7475697736
 10
13.1341325111
 20
-65.7021562156
 10
13.1407163798
 20
-65.6558917522
 10
13.1442598916
 20
-65.6096305018
 10
13.1446879841
 20
-65.5631951604
 10
13.1420757198
 20
-65.516763032
 10
13.1366383971
 20
-65.4717201475
 10
13.1283089742
 20
-65.4283811291
 10
13.117154493
 20
-65.3864313547
 10
13.1035913781
 20
-65.3463129892
 10
13.0878203477
 20
-65.3083253678
 10
13.0696406835
 20
-65.2721691552
 10
13.0488666551
 20
-65.2373885112
 10
13.0257212436
 20
-65.2040651088
 10
12.9999814679
 20
-65.1721172749
 10
12.9707926537
 20
-65.1408441492
 10
12.937919246
 20
-65.1098570263
 10
12.9015967999
 20
-65.0795446116
 10
12.8616773063
 20
-65.0503721611
 10
12.8181114291
 20
-65.02249476
 10
12.7709485044
 20
-64.995757323
 10
12.7201885323
 20
-64.9701598502
  0
LWPOLYLINE
  5
230
100
AcDbEntity
  8
0
100
AcDbPolyline
 62
7
  6
CONTINUOUS
 90
25
 70
0
 10
17.7681972447
 20
-66.3330061502
 10
17.8378379818
 20
-66.3308943741
 10
17.9044469674
 20
-66.3257950731
 10
17.9680242013
 20
-66.317708247
 10
18.0282954905
 20
-66.3065475384
 10
18.0855350281
 20
-66.2923993048
 10
18.1405653933
 20
-66.2755226192
 10
18.193548551
 20
-66.255948661
 10
18.2443225363
 20
-66.2336462509
 10
18.2932240346
 20
-66.2087809236
 10
18.3403447782
 20
-66.1814325585
 10
18.3855930348
 20
-66.1515212762
 10
18.4290302917
 20
-66.1189729737
 10
18.47065004
 20
-66.0838479524
 10
18.5104587888
 20
-66.0460859108
 10
18.5485375521
 20
-66.0054318414
 10
18.5849874244
 20
-65.9619414819
 10
18.6197073114
 20
-65.9155590946
 10
18.6524749435
 20
-65.8658624588
 10
18.683279756
 20
-65.8128921597
 10
18.7121323138
 20
-65.756607612
 10
18.7388420416
 20
-65.6964648394
 10
18.7633454145
 20
-65.6322825164
 10
18.7857059575
 20
-65.5642419686
 10
18.8059236705
 20
-65.4923431958
  0
LINE
  5
231
100
AcDbEntity
  8
0
100
AcDbLine
 62
7
  6
CONTINUOUS
 10
-10.0
 20
-70.0
 11
-9.6661062588
 21
-70.0
  0
LINE
  5
232
100
AcDbEntity
  8
0
100
AcDbLine
 62
7
  6
CONTINUOUS
 10
-8.4367702118
 20
-70.0
 11
-8.1028764706
 21
-70.0
  0
LINE
  5
233
100
AcDbEntity
  8
0
100
AcDbLine
 62
7
  6
CONTINUOUS
 10
-7.2259309382
 20
-70.0
 11
-6.8735404235
 21
-70.0
  0
LINE
  5
234
100
AcDbEntity
  8
0
100
AcDbLine
 62
7
  6
CONTINUOUS
 10
-5.2647796706
 20
-70.0
 11
-4.9097803397
 21
-70.0
  0
LINE
  5
235
100
AcDbEntity
  8
0
100
AcDbLine
 62
7
  6
CONTINUOUS
 10
-4.642523153
 20
-70.0
 11
-3.0641163765
 21
-70.0
  0
LINE
  5
236
100
AcDbEntity
  8
0
100
AcDbLine
 62
7
  6
CONTINUOUS
 10
-1.9846530593
 20
-70.0
 11
-1.6507593181
 21
-70.0
  0
LINE
  5
237
100
AcDbEntity
  8
0
100
AcDbLine
 62
7
  6
CONTINUOUS
 10
-3.0641163765
 20
-69.7116372235
 11
-4.3086294118
 21
-69.7116372235
  0
LINE
  5
238
100
AcDbEntity
  8
0
100
AcDbLine
 62
7
  6
CONTINUOUS
 10
-6.609603022
 20
-69.2411505882
 11
-5.5441309728
 21
-69.2411505882
  0
LINE
  5
239
100
AcDbEntity
  8
0
100
AcDbLine
 62
7
  6
CONTINUOUS
 10
-5.6449155771
 20
-68.9679648
 11
-6.5145096436
 21
-68.9679648
  0
LINE
  5
23A
100
AcDbEntity
  8
0
100
AcDbLine
 62
7
  6
CONTINUOUS
 10
-9.2563275765
 20
-67.7841597177
 11
-8.4367702118
 21
-67.7841597177
  0
LINE
  5
23B
100
AcDbEntity
  8
0
100
AcDbLine
 62
7
  6
CONTINUOUS
 10
-8.1028764706
 20
-67.7841597177
 11
-7.2833191059
 21
-67.7841597177
  0
LINE
  5
23C
100
AcDbEntity
  8
0
100
AcDbLine
 62
7
  6
CONTINUOUS
 10
-0.6490780946
 20
-67.4957969412
 11
-1.0519795992
 21
-67.4957969412
  0
LINE
  5
23D
100
AcDbEntity
  8
0
100
AcDbLine
 62
7
  6
CONTINUOUS
 10
-2.5435930393
 20
-67.4957969412
 11
-2.9408033181
 21
-67.4957969412
  0
LINE
  5
23E
100
AcDbEntity
  8
0
100
AcDbLine
 62
7
  6
CONTINUOUS
 10
-4.3086294118
 20
-67.4957969412
 11
-4.642523153
 21
-67.4957969412
  0
LINE
  5
23F
100
AcDbEntity
  8
0
100
AcDbLine
 62
7
  6
CONTINUOUS
 10
-5.9128844276
 20
-67.4957969412
 11
-6.2740492724
 21
-67.4957969412
  0
LINE
  5
240
100
AcDbEntity
  8
0
100
AcDbLine
 62
7
  6
CONTINUOUS
 10
-7.2833191059
 20
-67.4957969412
 11
-9.2563275765
 21
-67.4957969412
  0
LINE
  5
241
100
AcDbEntity
  8
0
100
AcDbLine
 62
7
  6
CONTINUOUS
 10
-9.6661062588
 20
-67.4957969412
 11
-10.0
 21
-67.4957969412
  0
LINE
  5
242
100
AcDbEntity
  8
0
100
AcDbLine
 62
7
  6
CONTINUOUS
 10
0.775661647
 20
-66.2874751855
 11
1.1095553882
 21
-66.2874751855
  0
LINE
  5
243
100
AcDbEntity
  8
0
100
AcDbLine
 62
7
  6
CONTINUOUS
 10
1.8316481655
 20
-66.2874751855
 11
2.1157423489
 21
-66.2874751855
  0
LINE
  5
244
100
AcDbEntity
  8
0
100
AcDbLine
 62
7
  6
CONTINUOUS
 10
2.8549090353
 20
-66.2874751855
 11
3.1888027764
 21
-66.2874751855
  0
LINE
  5
245
100
AcDbEntity
  8
0
100
AcDbLine
 62
7
  6
CONTINUOUS
 10
3.4434917912
 20
-66.2874751855
 11
3.7958823059
 21
-66.2874751855
  0
LINE
  5
246
100
AcDbEntity
  8
0
100
AcDbLine
 62
7
  6
CONTINUOUS
 10
5.4046430588
 20
-66.2874751855
 11
5.7596423897
 21
-66.2874751855
  0
LINE
  5
247
100
AcDbEntity
  8
0
100
AcDbLine
 62
7
  6
CONTINUOUS
 10
6.0572535529
 20
-66.2874751855
 11
6.3911472941
 21
-66.2874751855
  0
LINE
  5
248
100
AcDbEntity
  8
0
100
AcDbLine
 62
7
  6
CONTINUOUS
 10
7.8358069052
 20
-66.2874751855
 11
8.2280371587
 21
-66.2874751855
  0
LINE
  5
249
100
AcDbEntity
  8
0
100
AcDbLine
 62
7
  6
CONTINUOUS
 10
14.2376502117
 20
-66.2874751855
 11
14.5715439529
 21
-66.2874751855
  0
LINE
  5
24A
100
AcDbEntity
  8
0
100
AcDbLine
 62
7
  6
CONTINUOUS
 10
15.7705260235
 20
-66.2874751855
 11
16.1044197647
 21
-66.2874751855
  0
LINE
  5
24B
100
AcDbEntity
  8
0
100
AcDbLine
 62
7
  6
CONTINUOUS
 10
18.9391967794
 20
-66.2874751855
 11
19.2915872941
 21
-66.2874751855
  0
LINE
  5
24C
100
AcDbEntity
  8
0
100
AcDbLine
 62
7
  6
CONTINUOUS
 10
20.900348047
 20
-66.2874751855
 11
21.2553473779
 21
-66.2874751855
  0
LINE
  5
24D
100
AcDbEntity
  8
0
100
AcDbLine
 62
7
  6
CONTINUOUS
 10
23.2383156674
 20
-66.2874751855
 11
23.5975835914
 21
-66.2874751855
  0
LINE
  5
24E
100
AcDbEntity
  8
0
100
AcDbLine
 62
7
  6
CONTINUOUS
 10
24.8767189646
 20
-66.2874751855
 11
25.2106127058
 21
-66.2874751855
  0
LINE
  5
24F
100
AcDbEntity
  8
0
100
AcDbLine
 62
7
  6
CONTINUOUS
 10
4.0598197074
 20
-65.5286257738
 11
5.1252917566
 21
-65.5286257738
  0
LINE
  5
250
100
AcDbEntity
  8
0
100
AcDbLine
 62
7
  6
CONTINUOUS
 10
19.5555246956
 20
-65.5286257738
 11
20.6209967448
 21
-65.5286257738
  0
LINE
  5
251
100
AcDbEntity
  8
0
100
AcDbLine
 62
7
  6
CONTINUOUS
 10
20.5202121405
 20
-65.2554399855
 11
19.650618074
 21
-65.2554399855
  0
LINE
  5
252
100
AcDbEntity
  8
0
100
AcDbLine
 62
7
  6
CONTINUOUS
 10
5.0245071523
 20
-65.2554399855
 11
4.1549130858
 21
-65.2554399855
  0
LWPOLYLINE
  5
253
100
AcDbEntity
  8
0
100
AcDbPolyline
 62
7
  6
CONTINUOUS
 90
10
 70
0
 10
6.3911472941
 20
-65.1795550444
 10
6.7938778203
 20
-65.1796186884
 10
6.8155673111
 20
-65.1799071404
 10
6.8368261926
 20
-65.1804204003
 10
6.8576907914
 20
-65.1810490629
 10
6.8781247809
 20
-65.1819025335
 10
6.8980191812
 20
-65.1833090281
 10
6.9173376658
 20
-65.185377952
 10
6.9361165611
 20
-65.1879998999
 10
6.9543558672
 20
-65.1911748717
  0
LWPOLYLINE
  5
254
100
AcDbEntity
  8
0
100
AcDbPolyline
 62
7
  6
CONTINUOUS
 90
10
 70
0
 10
-9.3047040383
 20
-64.8340412443
 10
-9.3100605377
 20
-64.833970845
 10
-9.3154703106
 20
-64.8338113556
 10
-9.3209333568
 20
-64.8335627762
 10
-9.3264529963
 20
-64.8332145914
 10
-9.3320259093
 20
-64.8327773166
 10
-9.3376421361
 20
-64.832282497
 10
-9.3432983569
 20
-64.8317406477
 10
-9.3489978916
 20
-64.8311412537
 10
-9.3547407401
 20
-64.8304843149
  0
LWPOLYLINE
  5
255
100
AcDbEntity
  8
0
100
AcDbPolyline
 62
7
  6
CONTINUOUS
 90
46
 70
0
 10
-9.167162568
 20
-65.0695218217
 10
-9.1248310227
 20
-65.0711533417
 10
-9.0845694536
 20
-65.0750511002
 10
-9.0463778606
 20
-65.0812150973
 10
-9.0104449487
 20
-65.0896825876
 10
-8.976582013
 20
-65.1004163165
 10
-8.9442229385
 20
-65.11330452
 10
-8.9131850039
 20
-65.1283892836
 10
-8.8836509305
 20
-65.1456285218
 10
-8.855602767
 20
-65.164784214
 10
-8.8288633055
 20
-65.1859904198
 10
-8.8036097539
 20
-65.2091130797
 10
-8.7803557851
 20
-65.2335119941
 10
-8.7592260416
 20
-65.2590208786
 10
-8.740095881
 20
-65.2858060178
 10
-8.723105048
 20
-65.3137260651
 10
-8.7083087845
 20
-65.3425683716
 10
-8.6956518487
 20
-65.3725455862
 10
-8.6851082606
 20
-65.40415431
 10
-8.6765849495
 20
-65.4377025854
 10
-8.6701749862
 20
-65.4728823699
 10
-8.6661316029
 20
-65.5092661364
 10
-8.6645151724
 20
-65.547404725
 10
-8.665265322
 20
-65.5867472956
 10
-8.6684541651
 20
-65.6252138008
 10
-8.6741695019
 20
-65.6623057823
 10
-8.6823235322
 20
-65.6985216983
 10
-8.6927249694
 20
-65.7332768766
 10
-8.7052452812
 20
-65.7661999086
 10
-8.7200129997
 20
-65.7976622028
 10
-8.7372224349
 20
-65.8281933127
 10
-8.7571461828
 20
-65.8582285085
 10
-8.7795116473
 20
-65.88733252
 10
-8.80369535
 20
-65.9147290907
 10
-8.8297486976
 20
-65.9403848511
 10
-8.8576202834
 20
-65.9643331707
 10
-8.8865324088
 20
-65.9858979011
 10
-8.9160383419
 20
-66.0047763048
 10
-8.9465848146
 20
-66.0212711193
 10
-8.978734324
 20
-66.0356144084
 10
-9.012778459
 20
-66.0479593215
 10
-9.0484256307
 20
-66.0581527092
 10
-9.085363569
 20
-66.0659671874
 10
-9.1242201147
 20
-66.0713116018
 10
-9.164367427
 20
-66.0742771066
 10
-9.2036097135
 20
-66.0749097804
  0
LWPOLYLINE
  5
256
100
AcDbEntity
  8
0
100
AcDbPolyline
 62
7
  6
CONTINUOUS
 90
46
 70
0
 10
-1.3965445915
 20
-65.0695218217
 10
-1.3542130462
 20
-65.0711533417
 10
-1.3139514771
 20
-65.0750511002
 10
-1.2757598841
 20
-65.0812150973
 10
-1.2398269723
 20
-65.0896825876
 10
-1.2059640366
 20
-65.1004163165
 10
-1.173604962
 20
-65.11330452
 10
-1.1425670274
 20
-65.1283892836
 10
-1.113032954
 20
-65.1456285218
 10
-1.0849847906
 20
-65.164784214
 10
-1.058245329
 20
-65.1859904198
 10
-1.0329917775
 20
-65.2091130797
 10
-1.0097378086
 20
-65.2335119941
 10
-0.9886080652
 20
-65.2590208786
 10
-0.9694779045
 20
-65.2858060178
 10
-0.9524870716
 20
-65.3137260651
 10
-0.937690808
 20
-65.3425683716
 10
-0.9250338722
 20
-65.3725455862
 10
-0.9144902842
 20
-65.40415431
 10
-0.9059669731
 20
-65.4377025854
 10
-0.8995570098
 20
-65.4728823699
 10
-0.8955136264
 20
-65.5092661364
 10
-0.893897196
 20
-65.547404725
 10
-0.8946473455
 20
-65.5867472956
 10
-0.8978361886
 20
-65.6252138008
 10
-0.9035515254
 20
-65.6623057823
 10
-0.9117055558
 20
-65.6985216983
 10
-0.9221069929
 20
-65.7332768766
 10
-0.9346273047
 20
-65.7661999086
 10
-0.9493950233
 20
-65.7976622028
 10
-0.9666044585
 20
-65.8281933127
 10
-0.9865282064
 20
-65.8582285085
 10
-1.0088936708
 20
-65.88733252
 10
-1.0330773735
 20
-65.9147290907
 10
-1.0591307211
 20
-65.9403848511
 10
-1.087002307
 20
-65.9643331707
 10
-1.1159144324
 20
-65.9858979011
 10
-1.1454203655
 20
-66.0047763048
 10
-1.1759668382
 20
-66.0212711193
 10
-1.2081163475
 20
-66.0356144084
 10
-1.2421604826
 20
-66.0479593215
 10
-1.2778076543
 20
-66.0581527092
 10
-1.3147455926
 20
-66.0659671874
 10
-1.3536021382
 20
-66.0713116018
 10
-1.3937494505
 20
-66.0742771066
 10
-1.432991737
 20
-66.0749097804
  0
LWPOLYLINE
  5
257
100
AcDbEntity
  8
0
100
AcDbPolyline
 62
7
  6
CONTINUOUS
 90
22
 70
0
 10
-9.2036097135
 20
-66.0749097804
 10
-9.2415218477
 20
-66.0731424584
 10
-9.2785289562
 20
-66.0690423054
 10
-9.3137106259
 20
-66.0628568945
 10
-9.3466328981
 20
-66.0546138235
 10
-9.3777297315
 20
-66.0442854945
 10
-9.4073825901
 20
-66.0320366873
 10
-9.4356750074
 20
-66.0179704524
 10
-9.4625234498
 20
-66.0019837393
 10
-9.4880587799
 20
-65.9839321755
 10
-9.5122871951
 20
-65.9638758732
 10
-9.5352024981
 20
-65.9417547204
 10
-9.5569169586
 20
-65.9172440088
 10
-9.5774837951
 20
-65.8902444105
 10
-9.5968497892
 20
-65.8608552535
 10
-9.6149675561
 20
-65.8290498139
 10
-9.6318548703
 20
-65.7947483713
 10
-9.6474939572
 20
-65.7580306461
 10
-9.6617841081
 20
-65.7191090753
 10
-9.6746917532
 20
-65.6780544713
 10
-9.6862504623
 20
-65.6347960218
 10
-9.6964602353
 20
-65.5893337267
  0
LWPOLYLINE
  5
258
100
AcDbEntity
  8
0
100
AcDbPolyline
 62
7
  6
CONTINUOUS
 90
22
 70
0
 10
-1.432991737
 20
-66.0749097804
 10
-1.4709038713
 20
-66.0731424584
 10
-1.5079109797
 20
-66.0690423054
 10
-1.5430926495
 20
-66.0628568945
 10
-1.5760149216
 20
-66.0546138235
 10
-1.6071117551
 20
-66.0442854945
 10
-1.6367646136
 20
-66.0320366873
 10
-1.6650570309
 20
-66.0179704524
 10
-1.6919054733
 20
-66.0019837393
 10
-1.7174408034
 20
-65.9839321755
 10
-1.7416692187
 20
-65.9638758732
 10
-1.7645845216
 20
-65.9417547204
 10
-1.7862989822
 20
-65.9172440088
 10
-1.8068658187
 20
-65.8902444105
 10
-1.8262318128
 20
-65.8608552535
 10
-1.8443495796
 20
-65.8290498139
 10
-1.8612368938
 20
-65.7947483713
 10
-1.8768759808
 20
-65.7580306461
 10
-1.8911661316
 20
-65.7191090753
 10
-1.9040737768
 20
-65.6780544713
 10
-1.9156324859
 20
-65.6347960218
 10
-1.9258422588
 20
-65.5893337267
  0
LINE
  5
259
100
AcDbEntity
  8
0
100
AcDbLine
 62
7
  6
CONTINUOUS
 10
-9.9696460235
 20
-64.4207056326
 11
-9.6661062588
 21
-64.4662365973
  0
LWPOLYLINE
  5
25A
100
AcDbEntity
  8
0
100
AcDbPolyline
 62
7
  6
CONTINUOUS
 90
10
 70
0
 10
-1.6192196214
 20
-65.1036701032
 10
-1.5925771943
 20
-65.0970229769
 10
-1.5663908244
 20
-65.0910404309
 10
-1.5406605116
 20
-65.0857224649
 10
-1.5153607463
 20
-65.0810042284
 10
-1.4905170382
 20
-65.076950572
 10
-1.4662059158
 20
-65.073756048
 10
-1.4424528886
 20
-65.0714855069
 10
-1.4192324472
 20
-65.0700740982
 10
-1.3965445915
 20
-65.0695218217
  0
LWPOLYLINE
  5
25B
100
AcDbEntity
  8
0
100
AcDbPolyline
 62
7
  6
CONTINUOUS
 90
10
 70
0
 10
-9.3898375978
 20
-65.1036701032
 10
-9.3631951708
 20
-65.0970229769
 10
-9.3370088008
 20
-65.0910404309
 10
-9.311278488
 20
-65.0857224649
 10
-9.2859787228
 20
-65.0810042284
 10
-9.2611350146
 20
-65.076950572
 10
-9.2368238922
 20
-65.073756048
 10
-9.2130708651
 20
-65.0714855069
 10
-9.1898504237
 20
-65.0700740982
 10
-9.167162568
 20
-65.0695218217
  0
LINE
  5
25C
100
AcDbEntity
  8
0
100
AcDbLine
 62
7
  6
CONTINUOUS
 10
6.0935358993
 20
-60.8959959028
 11
6.4274296405
 21
-60.8191623854
  0
LWPOLYLINE
  5
25D
100
AcDbEntity
  8
0
100
AcDbPolyline
 62
7
  6
CONTINUOUS
 90
52
 70
0
 10
0.0677975134
 20
-57.8303903566
 10
0.131054615
 20
-57.8204851418
 10
0.1911174786
 20
-57.8083557125
 10
0.2479861041
 20
-57.7940020688
 10
0.3017323063
 20
-57.7772999313
 10
0.3522842705
 20
-57.7583735793
 10
0.3994265528
 20
-57.7375958507
 10
0.442994031
 20
-57.7149327213
 10
0.4831518275
 20
-57.6904182153
 10
0.5201798654
 20
-57.6645272423
 10
0.5539265137
 20
-57.6375045134
 10
0.5845434036
 20
-57.6091053176
 10
0.612765352
 20
-57.5790704322
 10
0.6388014501
 20
-57.5473158677
 10
0.6624426068
 20
-57.5139256137
 10
0.6837963658
 20
-57.4788924161
 10
0.7029839879
 20
-57.442228632
 10
0.7198842124
 20
-57.4039219043
 10
0.7342408006
 20
-57.3639279078
 10
0.7460539122
 20
-57.3222579987
 10
0.7553233877
 20
-57.2789008206
 10
0.7617925098
 20
-57.2337779802
 10
0.7654411164
 20
-57.1861006557
 10
0.7662893697
 20
-57.1366576688
 10
0.7641410397
 20
-57.0877370908
 10
0.7588718041
 20
-57.0398037756
 10
0.7506059852
 20
-56.9923928694
 10
0.7395203204
 20
-56.9463978817
 10
0.7254707063
 20
-56.9019329076
 10
0.7086012462
 20
-56.8588838519
 10
0.6895209885
 20
-56.8178019389
 10
0.6681377695
 20
-56.7785930518
 10
0.6445437527
 20
-56.7413513073
 10
0.6196244772
 20
-56.7069102803
 10
0.593719014
 20
-56.6756693235
 10
0.5664882921
 20
-56.6472290843
 10
0.5378006372
 20
-56.6212250794
 10
0.507758908
 20
-56.597639691
 10
0.4762602458
 20
-56.5764905369
 10
0.4428644003
 20
-56.5574659876
 10
0.4074972532
 20
-56.5405524915
 10
0.3702329228
 20
-56.5257636001
 10
0.3308535134
 20
-56.5128283389
 10
0.2892629445
 20
-56.5018187117
 10
0.2455572968
 20
-56.4926627147
 10
0.1998069164
 20
-56.4848733625
 10
0.1519969776
 20
-56.4783402303
 10
0.1021423062
 20
-56.4731737429
 10
0.0503577262
 20
-56.4692181888
 10
-0.0033184879
 20
-56.4664216643
 10
-0.0589246106
 20
-56.4648360732
 10
-0.116460642
 20
-56.4644614154
  0
LINE
  5
25E
100
AcDbEntity
  8
0
100
AcDbLine
 62
7
  6
CONTINUOUS
 10
-1.9258422588
 20
-65.5893337267
 11
-2.2293820235
 21
-65.6348646914
  0
LINE
  5
25F
100
AcDbEntity
  8
0
100
AcDbLine
 62
7
  6
CONTINUOUS
 10
-9.6964602353
 20
-65.5893337267
 11
-10.0
 21
-65.6348646914
  0
LINE
  5
260
100
AcDbEntity
  8
0
100
AcDbLine
 62
7
  6
CONTINUOUS
 10
-2.8819925177
 20
-64.4207056326
 11
-2.578452753
 21
-64.3903516561
  0
LINE
  5
261
100
AcDbEntity
  8
0
100
AcDbLine
 62
7
  6
CONTINUOUS
 10
-6.7673015059
 20
-64.4207056326
 11
-6.4637617412
 21
-64.3903516561
  0
LINE
  5
262
100
AcDbEntity
  8
0
100
AcDbLine
 62
7
  6
CONTINUOUS
 10
2.4662357111
 20
-58.1339301213
 11
2.1475189581
 21
-58.1491071095
  0
LINE
  5
263
100
AcDbEntity
  8
0
100
AcDbLine
 62
7
  6
CONTINUOUS
 10
3.7259257346
 20
-57.1777798625
 11
4.0598194758
 21
-57.1626028742
  0
LWPOLYLINE
  5
264
100
AcDbEntity
  8
0
100
AcDbPolyline
 62
7
  6
CONTINUOUS
 90
43
 70
0
 10
3.2042169087
 20
-59.0141954389
 10
3.2794822586
 20
-59.0117677984
 10
3.3513677016
 20
-59.0058682724
 10
3.4198732378
 20
-58.9964968609
 10
3.4850067785
 20
-58.9833607118
 10
3.5467604125
 20
-58.9667526772
 10
3.6051104053
 20
-58.9475513142
 10
3.6601330103
 20
-58.9257625048
 10
3.7117519743
 20
-58.9013803671
 10
3.7597148028
 20
-58.8752658117
 10
3.803616995
 20
-58.8478038975
 10
3.8438630517
 20
-58.8186095657
 10
3.8814139813
 20
-58.7873885502
 10
3.9165501677
 20
-58.7539639987
 10
3.9489912269
 20
-58.7185127636
 10
3.9788570158
 20
-58.6812711355
 10
4.0063383105
 20
-58.6420192351
 10
4.0312443348
 20
-58.6009769418
 10
4.0531226175
 20
-58.559040185
 10
4.0718232435
 20
-58.5164930883
 10
4.0874961279
 20
-58.473051528
 10
4.1001385446
 20
-58.4287590623
 10
4.109752881
 20
-58.3833455043
 10
4.1163367497
 20
-58.3370810409
 10
4.1198802616
 20
-58.2908197905
 10
4.120308354
 20
-58.2443844491
 10
4.1176960897
 20
-58.1979523207
 10
4.1122587671
 20
-58.1529094362
 10
4.1039293442
 20
-58.1095704178
 10
4.092774863
 20
-58.0676206434
 10
4.079211748
 20
-58.0275022779
 10
4.0634407176
 20
-57.9895146565
 10
4.0452610535
 20
-57.9533584439
 10
4.024487025
 20
-57.9185777999
 10
4.0013416136
 20
-57.8852543975
 10
3.9756018378
 20
-57.8533065636
 10
3.9464130236
 20
-57.8220334379
 10
3.9135396159
 20
-57.791046315
 10
3.8772171698
 20
-57.7607339003
 10
3.8372976763
 20
-57.7315614498
 10
3.793731799
 20
-57.7036840487
 10
3.7465688743
 20
-57.6769466117
 10
3.6958089022
 20
-57.6513491389
  0
LWPOLYLINE
  5
265
100
AcDbEntity
  8
0
100
AcDbPolyline
 62
7
  6
CONTINUOUS
 90
43
 70
0
 10
12.1437001234
 20
-63.737741162
 10
12.0719731913
 20
-63.739982588
 10
12.0036008091
 20
-63.7450894662
 10
11.9385829768
 20
-63.7530617965
 10
11.8769430678
 20
-63.7641415435
 10
11.8186577087
 20
-63.7780867427
 10
11.763656779
 20
-63.7941715001
 10
11.7119133661
 20
-63.81233313
 10
11.6634543827
 20
-63.8326343181
 10
11.6182904468
 20
-63.8545372278
 10
11.5765791972
 20
-63.8778783097
 10
11.5381629951
 20
-63.9028211131
 10
11.5025795426
 20
-63.9293184493
 10
11.4699015854
 20
-63.9572563698
 10
11.4400563777
 20
-63.9867488231
 10
11.4123633843
 20
-64.0180904658
 10
11.3865449251
 20
-64.0514235339
 10
11.3628786801
 20
-64.0866057914
 10
11.3415171552
 20
-64.1235051869
 10
11.3223660073
 20
-64.1624033489
 10
11.3055195794
 20
-64.2030186489
 10
11.2914134062
 20
-64.2443741501
 10
11.2801554214
 20
-64.2865143623
 10
11.2716376912
 20
-64.3293947756
 10
11.2659719486
 20
-64.3719049239
 10
11.2632599022
 20
-64.4138599583
 10
11.2633998433
 20
-64.4554447276
 10
11.2661983785
 20
-64.4961033124
 10
11.2716975687
 20
-64.5357957265
 10
11.2798553529
 20
-64.574561956
 10
11.2903521548
 20
-64.6119660393
 10
11.3030538037
 20
-64.6477825465
 10
11.3180944703
 20
-64.6822369074
 10
11.3355570909
 20
-64.7155694504
 10
11.355206765
 20
-64.7476588987
 10
11.377278393
 20
-64.7786265289
 10
11.402559612
 20
-64.8090764999
 10
11.4312356456
 20
-64.8393630937
 10
11.4631212702
 20
-64.8691320282
 10
11.4984484527
 20
-64.8979246153
 10
11.5372945154
 20
-64.925587959
 10
11.5795821359
 20
-64.9522749553
 10
11.6253113144
 20
-64.9779856042
  0
LWPOLYLINE
  5
266
100
AcDbEntity
  8
0
100
AcDbPolyline
 62
7
  6
CONTINUOUS
 90
43
 70
0
 10
3.1193204933
 20
-56.4189304507
 10
3.0475935613
 20
-56.4211718767
 10
2.9792211791
 20
-56.4262787549
 10
2.9142033467
 20
-56.4342510852
 10
2.8525634377
 20
-56.4453308322
 10
2.7942780786
 20
-56.4592760314
 10
2.7392771489
 20
-56.4753607888
 10
2.687533736
 20
-56.4935224187
 10
2.6390747526
 20
-56.5138236068
 10
2.5939108167
 20
-56.5357265165
 10
2.5521995671
 20
-56.5590675984
 10
2.5137833651
 20
-56.5840104018
 10
2.4781999126
 20
-56.610507738
 10
2.4455219553
 20
-56.6384456585
 10
2.4156767476
 20
-56.6679381118
 10
2.3879837543
 20
-56.6992797545
 10
2.362165295
 20
-56.7326128226
 10
2.33849905
 20
-56.7677950801
 10
2.3171375251
 20
-56.8046944756
 10
2.2979863772
 20
-56.8435926376
 10
2.2811399493
 20
-56.8842079376
 10
2.2670337761
 20
-56.9255634388
 10
2.2557757913
 20
-56.967703651
 10
2.2472580612
 20
-57.0105840643
 10
2.2415923185
 20
-57.0530942126
 10
2.2388802721
 20
-57.095049247
 10
2.2390202132
 20
-57.1366340163
 10
2.2418187484
 20
-57.1772926011
 10
2.2473179386
 20
-57.2169850152
 10
2.2554757228
 20
-57.2557512447
 10
2.2659725247
 20
-57.293155328
 10
2.2786741736
 20
-57.3289718352
 10
2.2937148403
 20
-57.3634261961
 10
2.3111774608
 20
-57.3967587391
 10
2.3308271349
 20
-57.4288481874
 10
2.3528987629
 20
-57.4598158176
 10
2.378179982
 20
-57.4902657886
 10
2.4068560155
 20
-57.5205523824
 10
2.4387416402
 20
-57.5503213169
 10
2.4740688227
 20
-57.579113904
 10
2.5129148853
 20
-57.6067772477
 10
2.5552025059
 20
-57.633464244
 10
2.6009316843
 20
-57.6591748929
  0
LWPOLYLINE
  5
267
100
AcDbEntity
  8
0
100
AcDbPolyline
 62
7
  6
CONTINUOUS
 90
25
 70
0
 10
5.4504111676
 20
-62.6811892887
 10
5.5200519047
 20
-62.6790775126
 10
5.5866608902
 20
-62.6739782115
 10
5.6502381242
 20
-62.6658913855
 10
5.7105094134
 20
-62.6547306769
 10
5.7677489509
 20
-62.6405824433
 10
5.8227793162
 20
-62.6237057577
 10
5.8757624739
 20
-62.6041317995
 10
5.9265364592
 20
-62.5818293894
 10
5.9754379574
 20
-62.5569640621
 10
6.0225587011
 20
-62.5296156969
 10
6.0678069576
 20
-62.4997044147
 10
6.1112442145
 20
-62.4671561122
 10
6.1528639629
 20
-62.4320310908
 10
6.1926727116
 20
-62.3942690492
 10
6.2307514749
 20
-62.3536149798
 10
6.2672013473
 20
-62.3101246204
 10
6.3019212342
 20
-62.2637422331
 10
6.3346888663
 20
-62.2140455973
 10
6.3654936789
 20
-62.1610752982
 10
6.3943462366
 20
-62.1047907505
 10
6.4210559645
 20
-62.0446479779
 10
6.4455593373
 20
-61.9804656549
 10
6.4679198803
 20
-61.912425107
 10
6.4881375934
 20
-61.8405263343
  0
LWPOLYLINE
  5
268
100
AcDbEntity
  8
0
100
AcDbPolyline
 62
7
  6
CONTINUOUS
 90
19
 70
0
 10
5.5481128991
 20
-57.9366292742
 10
5.6037513725
 20
-57.9361300453
 10
5.6578579084
 20
-57.9341634267
 10
5.7104325067
 20
-57.9307294183
 10
5.7615448849
 20
-57.9258420182
 10
5.8111253255
 20
-57.9194872285
 10
5.8589646767
 20
-57.9116230552
 10
5.9051950074
 20
-57.9021855075
 10
5.9496842485
 20
-57.8912385763
 10
5.9918270409
 20
-57.8789322411
 10
6.0314770256
 20
-57.865224667
 10
6.0687805615
 20
-57.8501576889
 10
6.103571366
 20
-57.8340067904
 10
6.1357427125
 20
-57.8167667115
 10
6.1654013276
 20
-57.7984427122
 10
6.1927011084
 20
-57.7793260557
 10
6.2176933539
 20
-57.7595138295
 10
6.240326765
 20
-57.738908946
 10
6.2606013419
 20
-57.7175114053
  0
LINE
  5
269
100
AcDbEntity
  8
0
100
AcDbLine
 62
7
  6
CONTINUOUS
 10
7.0964030747
 20
-64.8911922679
 11
6.3911472941
 21
-64.8911922679
  0
LINE
  5
26A
100
AcDbEntity
  8
0
100
AcDbLine
 62
7
  6
CONTINUOUS
 10
6.3911472941
 20
-64.0716349032
 11
7.1760823208
 21
-64.0716349032
  0
LINE
  5
26B
100
AcDbEntity
  8
0
100
AcDbLine
 62
7
  6
CONTINUOUS
 10
13.418092847
 20
-64.0716349032
 11
14.2376502117
 21
-64.0716349032
  0
LINE
  5
26C
100
AcDbEntity
  8
0
100
AcDbLine
 62
7
  6
CONTINUOUS
 10
14.5715439529
 20
-64.0716349032
 11
15.3911013176
 21
-64.0716349032
  0
LINE
  5
26D
100
AcDbEntity
  8
0
100
AcDbLine
 62
7
  6
CONTINUOUS
 10
25.2106127058
 20
-63.7832721267
 11
24.8767189646
 21
-63.7832721267
  0
LINE
  5
26E
100
AcDbEntity
  8
0
100
AcDbLine
 62
7
  6
CONTINUOUS
 10
24.5964190862
 20
-63.7832721267
 11
24.2392854588
 21
-63.7832721267
  0
LINE
  5
26F
100
AcDbEntity
  8
0
100
AcDbLine
 62
7
  6
CONTINUOUS
 10
22.6305247058
 20
-63.7832721267
 11
22.2755256065
 21
-63.7832721267
  0
LINE
  5
270
100
AcDbEntity
  8
0
100
AcDbLine
 62
7
  6
CONTINUOUS
 10
20.25224329
 20
-63.7832721267
 11
19.8910784452
 21
-63.7832721267
  0
LINE
  5
271
100
AcDbEntity
  8
0
100
AcDbLine
 62
7
  6
CONTINUOUS
 10
16.1044197647
 20
-63.7832721267
 11
15.7705260235
 21
-63.7832721267
  0
LINE
  5
272
100
AcDbEntity
  8
0
100
AcDbLine
 62
7
  6
CONTINUOUS
 10
15.3911013176
 20
-63.7832721267
 11
13.418092847
 21
-63.7832721267
  0
LINE
  5
273
100
AcDbEntity
  8
0
100
AcDbLine
 62
7
  6
CONTINUOUS
 10
7.162565341
 20
-63.7832721267
 11
6.0572535529
 21
-63.7832721267
  0
LINE
  5
274
100
AcDbEntity
  8
0
100
AcDbLine
 62
7
  6
CONTINUOUS
 10
4.7565383018
 20
-63.7832721267
 11
4.3953734569
 21
-63.7832721267
  0
LINE
  5
275
100
AcDbEntity
  8
0
100
AcDbLine
 62
7
  6
CONTINUOUS
 10
3.1888027764
 20
-63.7832721267
 11
2.7543615751
 21
-63.7832721267
  0
LINE
  5
276
100
AcDbEntity
  8
0
100
AcDbLine
 62
7
  6
CONTINUOUS
 10
1.2845651568
 20
-63.7832721267
 11
0.775661647
 21
-63.7832721267
  0
LINE
  5
277
100
AcDbEntity
  8
0
100
AcDbLine
 62
7
  6
CONTINUOUS
 10
-9.0372099391
 20
-62.635658324
 11
-8.6779420151
 21
-62.635658324
  0
LINE
  5
278
100
AcDbEntity
  8
0
100
AcDbLine
 62
7
  6
CONTINUOUS
 10
-7.3988066419
 20
-62.635658324
 11
-7.0649129007
 21
-62.635658324
  0
LINE
  5
279
100
AcDbEntity
  8
0
100
AcDbLine
 62
7
  6
CONTINUOUS
 10
-6.749515933
 20
-62.635658324
 11
-6.3971254183
 21
-62.635658324
  0
LINE
  5
27A
100
AcDbEntity
  8
0
100
AcDbLine
 62
7
  6
CONTINUOUS
 10
-4.7883646654
 20
-62.635658324
 11
-4.4333653345
 21
-62.635658324
  0
LINE
  5
27B
100
AcDbEntity
  8
0
100
AcDbLine
 62
7
  6
CONTINUOUS
 10
-4.1661081478
 20
-62.635658324
 11
-2.5877013713
 21
-62.635658324
  0
LINE
  5
27C
100
AcDbEntity
  8
0
100
AcDbLine
 62
7
  6
CONTINUOUS
 10
-2.1930996772
 20
-62.635658324
 11
-0.3415071125
 21
-62.635658324
  0
LINE
  5
27D
100
AcDbEntity
  8
0
100
AcDbLine
 62
7
  6
CONTINUOUS
 10
1.8143366491
 20
-62.635658324
 11
2.1736045731
 21
-62.635658324
  0
LINE
  5
27E
100
AcDbEntity
  8
0
100
AcDbLine
 62
7
  6
CONTINUOUS
 10
3.4527399464
 20
-62.635658324
 11
3.7866336875
 21
-62.635658324
  0
LINE
  5
27F
100
AcDbEntity
  8
0
100
AcDbLine
 62
7
  6
CONTINUOUS
 10
6.913093264
 20
-62.635658324
 11
8.7646858287
 21
-62.635658324
  0
LINE
  5
280
100
AcDbEntity
  8
0
100
AcDbLine
 62
7
  6
CONTINUOUS
 10
9.235172464
 20
-62.635658324
 11
9.5690662052
 21
-62.635658324
  0
LINE
  5
281
100
AcDbEntity
  8
0
100
AcDbLine
 62
7
  6
CONTINUOUS
 10
10.8228278588
 20
-62.635658324
 11
11.1778269581
 21
-62.635658324
  0
LINE
  5
282
100
AcDbEntity
  8
0
100
AcDbLine
 62
7
  6
CONTINUOUS
 10
11.5268976875
 20
-62.635658324
 11
13.5150831463
 21
-62.635658324
  0
LINE
  5
283
100
AcDbEntity
  8
0
100
AcDbLine
 62
7
  6
CONTINUOUS
 10
13.5876483023
 20
-62.635658324
 11
13.9400388169
 21
-62.635658324
  0
LINE
  5
284
100
AcDbEntity
  8
0
100
AcDbLine
 62
7
  6
CONTINUOUS
 10
15.5487995699
 20
-62.635658324
 11
15.9037989008
 21
-62.635658324
  0
LINE
  5
285
100
AcDbEntity
  8
0
100
AcDbLine
 62
7
  6
CONTINUOUS
 10
17.8860557581
 20
-62.635658324
 11
18.1895955228
 21
-62.635658324
  0
LINE
  5
286
100
AcDbEntity
  8
0
100
AcDbLine
 62
7
  6
CONTINUOUS
 10
19.9804801346
 20
-62.635658324
 11
20.2840198993
 21
-62.635658324
  0
LINE
  5
287
100
AcDbEntity
  8
0
100
AcDbLine
 62
7
  6
CONTINUOUS
 10
13.5150831463
 20
-62.3472955475
 11
11.9051369047
 21
-62.3472955475
  0
LINE
  5
288
100
AcDbEntity
  8
0
100
AcDbLine
 62
7
  6
CONTINUOUS
 10
8.7646858287
 20
-62.3472955475
 11
7.2469870052
 21
-62.3472955475
  0
LINE
  5
289
100
AcDbEntity
  8
0
100
AcDbLine
 62
7
  6
CONTINUOUS
 10
-0.3415071125
 20
-62.3472955475
 11
-1.859205936
 21
-62.3472955475
  0
LINE
  5
28A
100
AcDbEntity
  8
0
100
AcDbLine
 62
7
  6
CONTINUOUS
 10
-2.5877013713
 20
-62.3472955475
 11
-3.8322144066
 21
-62.3472955475
  0
LINE
  5
28B
100
AcDbEntity
  8
0
100
AcDbLine
 62
7
  6
CONTINUOUS
 10
18.8725599934
 20
-62.0437557828
 11
19.9804801346
 21
-62.0437557828
  0
LINE
  5
28C
100
AcDbEntity
  8
0
100
AcDbLine
 62
7
  6
CONTINUOUS
 10
20.2840198993
 20
-62.0437557828
 11
20.6179136404
 21
-62.0437557828
  0
LINE
  5
28D
100
AcDbEntity
  8
0
100
AcDbLine
 62
7
  6
CONTINUOUS
 10
-6.1331880168
 20
-61.8768089122
 11
-5.0677159676
 21
-61.8768089122
  0
LINE
  5
28E
100
AcDbEntity
  8
0
100
AcDbLine
 62
7
  6
CONTINUOUS
 10
14.2039762184
 20
-61.8768089122
 11
15.2694482677
 21
-61.8768089122
  0
LINE
  5
28F
100
AcDbEntity
  8
0
100
AcDbLine
 62
7
  6
CONTINUOUS
 10
20.6179136404
 20
-61.7553930063
 11
20.2840198993
 21
-61.7553930063
  0
LINE
  5
290
100
AcDbEntity
  8
0
100
AcDbLine
 62
7
  6
CONTINUOUS
 10
19.9804801346
 20
-61.7553930063
 11
19.1765740462
 21
-61.7553930063
  0
LINE
  5
291
100
AcDbEntity
  8
0
100
AcDbLine
 62
7
  6
CONTINUOUS
 10
15.1686636634
 20
-61.603623124
 11
14.2990695968
 21
-61.603623124
  0
LINE
  5
292
100
AcDbEntity
  8
0
100
AcDbLine
 62
7
  6
CONTINUOUS
 10
-5.1685005719
 20
-61.603623124
 11
-6.0380946384
 21
-61.603623124
  0
LINE
  5
293
100
AcDbEntity
  8
0
100
AcDbLine
 62
7
  6
CONTINUOUS
 10
-1.859205936
 20
-61.4822072181
 11
-0.4932769948
 21
-61.4822072181
  0
LINE
  5
294
100
AcDbEntity
  8
0
100
AcDbLine
 62
7
  6
CONTINUOUS
 10
7.2469870052
 20
-61.4822072181
 11
8.6129159463
 21
-61.4822072181
  0
LINE
  5
295
100
AcDbEntity
  8
0
100
AcDbLine
 62
7
  6
CONTINUOUS
 10
8.6129159463
 20
-61.1938444416
 11
7.2469870052
 21
-61.1938444416
  0
LINE
  5
296
100
AcDbEntity
  8
0
100
AcDbLine
 62
7
  6
CONTINUOUS
 10
-0.4932769948
 20
-61.1938444416
 11
-1.859205936
 21
-61.1938444416
  0
LINE
  5
297
100
AcDbEntity
  8
0
100
AcDbLine
 62
7
  6
CONTINUOUS
 10
-1.859205936
 20
-60.4198180416
 11
-0.4022150654
 21
-60.4198180416
  0
LINE
  5
298
100
AcDbEntity
  8
0
100
AcDbLine
 62
7
  6
CONTINUOUS
 10
7.2469870052
 20
-60.4198180416
 11
8.7039778758
 21
-60.4198180416
  0
LINE
  5
299
100
AcDbEntity
  8
0
100
AcDbLine
 62
7
  6
CONTINUOUS
 10
11.6786675699
 20
-60.4198180416
 11
13.066413533
 21
-60.4198180416
  0
LINE
  5
29A
100
AcDbEntity
  8
0
100
AcDbLine
 62
7
  6
CONTINUOUS
 10
20.2840198993
 20
-60.1314552652
 11
20.0411880875
 21
-60.1314552652
  0
LINE
  5
29B
100
AcDbEntity
  8
0
100
AcDbLine
 62
7
  6
CONTINUOUS
 10
14.9006948129
 20
-60.1314552652
 11
14.539529968
 21
-60.1314552652
  0
LINE
  5
29C
100
AcDbEntity
  8
0
100
AcDbLine
 62
7
  6
CONTINUOUS
 10
13.4543751934
 20
-60.1314552652
 11
11.6786675699
 21
-60.1314552652
  0
LINE
  5
29D
100
AcDbEntity
  8
0
100
AcDbLine
 62
7
  6
CONTINUOUS
 10
11.1778269581
 20
-60.1314552652
 11
10.8439332169
 21
-60.1314552652
  0
LINE
  5
29E
100
AcDbEntity
  8
0
100
AcDbLine
 62
7
  6
CONTINUOUS
 10
9.5901717949
 20
-60.1314552652
 11
9.235172464
 21
-60.1314552652
  0
LINE
  5
29F
100
AcDbEntity
  8
0
100
AcDbLine
 62
7
  6
CONTINUOUS
 10
8.7039778758
 20
-60.1314552652
 11
6.913093264
 21
-60.1314552652
  0
LINE
  5
2A0
100
AcDbEntity
  8
0
100
AcDbLine
 62
7
  6
CONTINUOUS
 10
3.7866336875
 20
-60.1314552652
 11
3.4527399464
 21
-60.1314552652
  0
LINE
  5
2A1
100
AcDbEntity
  8
0
100
AcDbLine
 62
7
  6
CONTINUOUS
 10
3.1724400679
 20
-60.1314552652
 11
2.8153064405
 21
-60.1314552652
  0
LINE
  5
2A2
100
AcDbEntity
  8
0
100
AcDbLine
 62
7
  6
CONTINUOUS
 10
1.2065456875
 20
-60.1314552652
 11
0.8515465882
 21
-60.1314552652
  0
LINE
  5
2A3
100
AcDbEntity
  8
0
100
AcDbLine
 62
7
  6
CONTINUOUS
 10
-0.4022150654
 20
-60.1314552652
 11
-2.1930996772
 21
-60.1314552652
  0
LINE
  5
2A4
100
AcDbEntity
  8
0
100
AcDbLine
 62
7
  6
CONTINUOUS
 10
-3.8322144066
 20
-60.1314552652
 11
-4.1661081478
 21
-60.1314552652
  0
LINE
  5
2A5
100
AcDbEntity
  8
0
100
AcDbLine
 62
7
  6
CONTINUOUS
 10
-5.4364694224
 20
-60.1314552652
 11
-5.7976342672
 21
-60.1314552652
  0
LINE
  5
2A6
100
AcDbEntity
  8
0
100
AcDbLine
 62
7
  6
CONTINUOUS
 10
-7.0649129007
 20
-60.1314552652
 11
-7.3988066419
 21
-60.1314552652
  0
LINE
  5
2A7
100
AcDbEntity
  8
0
100
AcDbLine
 62
7
  6
CONTINUOUS
 10
-7.6791065203
 20
-60.1314552652
 11
-8.0362401477
 21
-60.1314552652
  0
LINE
  5
2A8
100
AcDbEntity
  8
0
100
AcDbLine
 62
7
  6
CONTINUOUS
 10
-9.6450009007
 20
-60.1314552652
 11
-10.0
 21
-60.1314552652
  0
LINE
  5
2A9
100
AcDbEntity
  8
0
100
AcDbLine
 62
7
  6
CONTINUOUS
 10
18.1895955228
 20
-60.1162782769
 11
17.9939546842
 21
-60.1162782769
  0
LINE
  5
2AA
100
AcDbEntity
  8
0
100
AcDbLine
 62
7
  6
CONTINUOUS
 10
-9.0372099391
 20
-58.9686644742
 11
-8.6779420151
 21
-58.9686644742
  0
LINE
  5
2AB
100
AcDbEntity
  8
0
100
AcDbLine
 62
7
  6
CONTINUOUS
 10
-7.3988066419
 20
-58.9686644742
 11
-7.0649129007
 21
-58.9686644742
  0
LINE
  5
2AC
100
AcDbEntity
  8
0
100
AcDbLine
 62
7
  6
CONTINUOUS
 10
-6.503364336
 20
-58.9686644742
 11
-6.1694705948
 21
-58.9686644742
  0
LINE
  5
2AD
100
AcDbEntity
  8
0
100
AcDbLine
 62
7
  6
CONTINUOUS
 10
-5.4473778175
 20
-58.9686644742
 11
-5.1632836341
 21
-58.9686644742
  0
LINE
  5
2AE
100
AcDbEntity
  8
0
100
AcDbLine
 62
7
  6
CONTINUOUS
 10
-4.4241169477
 20
-58.9686644742
 11
-4.0902232066
 21
-58.9686644742
  0
LINE
  5
2AF
100
AcDbEntity
  8
0
100
AcDbLine
 62
7
  6
CONTINUOUS
 10
-3.8355341918
 20
-58.9686644742
 11
-3.4831436772
 21
-58.9686644742
  0
LINE
  5
2B0
100
AcDbEntity
  8
0
100
AcDbLine
 62
7
  6
CONTINUOUS
 10
-1.8743829242
 20
-58.9686644742
 11
-1.5193835933
 21
-58.9686644742
  0
LINE
  5
2B1
100
AcDbEntity
  8
0
100
AcDbLine
 62
7
  6
CONTINUOUS
 10
-1.2217724301
 20
-58.9686644742
 11
-0.8878786889
 21
-58.9686644742
  0
LINE
  5
2B2
100
AcDbEntity
  8
0
100
AcDbLine
 62
7
  6
CONTINUOUS
 10
0.5567809221
 20
-58.9686644742
 11
0.9490111757
 21
-58.9686644742
  0
LINE
  5
2B3
100
AcDbEntity
  8
0
100
AcDbLine
 62
7
  6
CONTINUOUS
 10
4.591014064
 20
-58.9686644742
 11
4.9249078052
 21
-58.9686644742
  0
LINE
  5
2B4
100
AcDbEntity
  8
0
100
AcDbLine
 62
7
  6
CONTINUOUS
 10
6.6214107023
 20
-58.9686644742
 11
6.9738012169
 21
-58.9686644742
  0
LINE
  5
2B5
100
AcDbEntity
  8
0
100
AcDbLine
 62
7
  6
CONTINUOUS
 10
8.5825619699
 20
-58.9686644742
 11
8.9375613008
 21
-58.9686644742
  0
LINE
  5
2B6
100
AcDbEntity
  8
0
100
AcDbLine
 62
7
  6
CONTINUOUS
 10
-3.2192062757
 20
-58.2098150625
 11
-2.1537342264
 21
-58.2098150625
  0
LINE
  5
2B7
100
AcDbEntity
  8
0
100
AcDbLine
 62
7
  6
CONTINUOUS
 10
7.2377386184
 20
-58.2098150625
 11
8.3032106677
 21
-58.2098150625
  0
LINE
  5
2B8
100
AcDbEntity
  8
0
100
AcDbLine
 62
7
  6
CONTINUOUS
 10
8.2024260634
 20
-57.9366292742
 11
7.3328319969
 21
-57.9366292742
  0
LINE
  5
2B9
100
AcDbEntity
  8
0
100
AcDbLine
 62
7
  6
CONTINUOUS
 10
-2.2545188307
 20
-57.9366292742
 11
-3.1241128972
 21
-57.9366292742
  0
LINE
  5
2BA
100
AcDbEntity
  8
0
100
AcDbLine
 62
7
  6
CONTINUOUS
 10
4.9249078052
 20
-57.9366292742
 11
5.5481128991
 21
-57.9366292742
  0
LINE
  5
2BB
100
AcDbEntity
  8
0
100
AcDbLine
 62
7
  6
CONTINUOUS
 10
5.55167006
 20
-57.6482664978
 11
4.9249078052
 21
-57.6482664978
  0
LINE
  5
2BC
100
AcDbEntity
  8
0
100
AcDbLine
 62
7
  6
CONTINUOUS
 10
-0.1826229083
 20
-57.5723815566
 11
-0.8878786889
 21
-57.5723815566
  0
LINE
  5
2BD
100
AcDbEntity
  8
0
100
AcDbLine
 62
7
  6
CONTINUOUS
 10
-0.8878786889
 20
-56.7528241919
 11
-0.1029436622
 21
-56.7528241919
  0
LINE
  5
2BE
100
AcDbEntity
  8
0
100
AcDbLine
 62
7
  6
CONTINUOUS
 10
4.9249078052
 20
-56.7528241919
 11
5.5741644961
 21
-56.7527383225
  0
LINE
  5
2BF
100
AcDbEntity
  8
0
100
AcDbLine
 62
7
  6
CONTINUOUS
 10
7.9344572129
 20
-56.4644614154
 11
7.573292368
 21
-56.4644614154
  0
LINE
  5
2C0
100
AcDbEntity
  8
0
100
AcDbLine
 62
7
  6
CONTINUOUS
 10
-0.116460642
 20
-56.4644614154
 11
-1.2217724301
 21
-56.4644614154
  0
LINE
  5
2C1
100
AcDbEntity
  8
0
100
AcDbLine
 62
7
  6
CONTINUOUS
 10
-2.5224876812
 20
-56.4644614154
 11
-2.8836525261
 21
-56.4644614154
  0
LINE
  5
2C2
100
AcDbEntity
  8
0
100
AcDbLine
 62
7
  6
CONTINUOUS
 10
-4.0902232066
 20
-56.4644614154
 11
-4.524664408
 21
-56.4644614154
  0
LINE
  5
2C3
100
AcDbEntity
  8
0
100
AcDbLine
 62
7
  6
CONTINUOUS
 10
-5.9944608262
 20
-56.4644614154
 11
-6.503364336
 21
-56.4644614154
  0
LINE
  5
2C4
100
AcDbEntity
  8
0
100
AcDbLine
 62
7
  6
CONTINUOUS
 10
-7.0649129007
 20
-56.4644614154
 11
-7.3988066419
 21
-56.4644614154
  0
LINE
  5
2C5
100
AcDbEntity
  8
0
100
AcDbLine
 62
7
  6
CONTINUOUS
 10
-7.6791065203
 20
-56.4644614154
 11
-8.0362401477
 21
-56.4644614154
  0
LINE
  5
2C6
100
AcDbEntity
  8
0
100
AcDbLine
 62
7
  6
CONTINUOUS
 10
-9.6450009007
 20
-56.4644614154
 11
-10.0
 21
-56.4644614154
  0
LWPOLYLINE
  5
2C7
100
AcDbEntity
  8
0
100
AcDbPolyline
 62
7
  6
CONTINUOUS
 90
10
 70
0
 10
-0.8878786889
 20
-57.8607443331
 10
-0.4851481627
 20
-57.8608079771
 10
-0.4634586719
 20
-57.8610964291
 10
-0.4421997904
 20
-57.861609689
 10
-0.4213351916
 20
-57.8622383516
 10
-0.4009012021
 20
-57.8630918222
 10
-0.3810068018
 20
-57.8644983168
 10
-0.3616883173
 20
-57.8665672407
 10
-0.3429094219
 20
-57.8691891886
 10
-0.3246701158
 20
-57.8723641604
  0
LWPOLYLINE
  5
2C8
100
AcDbEntity
  8
0
100
AcDbPolyline
 62
7
  6
CONTINUOUS
 90
12
 70
0
 10
5.5741644961
 20
-56.7527383225
 10
5.6025568483
 20
-56.7529303357
 10
5.6302073145
 20
-56.7534002314
 10
5.6571304392
 20
-56.7541030851
 10
5.683311678
 20
-56.7550838214
 10
5.7087073968
 20
-56.7564772137
 10
5.7333103512
 20
-56.7582784686
 10
5.7571277857
 20
-56.7604923794
 10
5.7801378008
 20
-56.7632680996
 10
5.8023330965
 20
-56.7666553471
 10
5.8237209727
 20
-56.770604404
 10
5.8443014295
 20
-56.7751152703
  0
LWPOLYLINE
  5
2C9
100
AcDbEntity
  8
0
100
AcDbPolyline
 62
7
  6
CONTINUOUS
 90
49
 70
0
 10
7.1760823208
 20
-64.0716349032
 10
7.2208819728
 20
-64.0721131083
 10
7.2638407526
 20
-64.0742977811
 10
7.3049586602
 20
-64.0781889215
 10
7.3443091837
 20
-64.0837955342
 10
7.381818835
 20
-64.0911086145
 10
7.4172671498
 20
-64.1001011487
 10
7.4506555346
 20
-64.1108821621
 10
7.481982583
 20
-64.1233426294
 10
7.5110236114
 20
-64.1371284611
 10
7.5375393589
 20
-64.1520885941
 10
7.5617690863
 20
-64.1683740916
 10
7.5842058927
 20
-64.1860840542
 10
7.6050066538
 20
-64.2053161005
 10
7.6240144939
 20
-64.2259726119
 10
7.6412518842
 20
-64.2478598332
 10
7.65678211
 20
-64.2709501801
 10
7.6705418861
 20
-64.2952712368
 10
7.6823638284
 20
-64.3207120013
 10
7.6922464478
 20
-64.3472139412
 10
7.7001912333
 20
-64.3748355889
 10
7.7060352683
 20
-64.403641539
 10
7.7097865157
 20
-64.4341167229
 10
7.7114370126
 20
-64.4657762092
 10
7.7107999534
 20
-64.4972297979
 10
7.7077667442
 20
-64.5282792124
 10
7.7024459789
 20
-64.5591227294
 10
7.6949766333
 20
-64.5889649791
 10
7.6852964015
 20
-64.6176483034
 10
7.6734675894
 20
-64.6453303605
 10
7.659816091
 20
-64.6716887552
 10
7.6443471813
 20
-64.6967305348
 10
7.6270555852
 20
-64.7204486521
 10
7.6082513713
 20
-64.7424995697
 10
7.588244168
 20
-64.7626853253
 10
7.5667243468
 20
-64.7812038814
 10
7.5430730902
 20
-64.7983055881
 10
7.5171216638
 20
-64.8141167807
 10
7.4890388021
 20
-64.8285111239
 10
7.4587118906
 20
-64.841359963
 10
7.4259782557
 20
-64.8526008505
 10
7.3910005711
 20
-64.8622962337
 10
7.3541542439
 20
-64.8705047999
 10
7.315497096
 20
-64.8771519686
 10
7.2749713056
 20
-64.8823123203
 10
7.2327788141
 20
-64.8862682832
 10
7.1889869354
 20
-64.8891140002
 10
7.1435283556
 20
-64.8907553284
 10
7.0964030747
 20
-64.8911922679
  0
LWPOLYLINE
  5
2CA
100
AcDbEntity
  8
0
100
AcDbPolyline
 62
7
  6
CONTINUOUS
 90
49
 70
0
 10
-0.1029436622
 20
-56.7528241919
 10
-0.0581440102
 20
-56.753302397
 10
-0.0151852304
 20
-56.7554870698
 10
0.0259326772
 20
-56.7593782102
 10
0.0652832007
 20
-56.7649848229
 10
0.1027928519
 20
-56.7722979032
 10
0.1382411668
 20
-56.7812904374
 10
0.1716295516
 20
-56.7920714508
 10
0.2029566
 20
-56.8045319181
 10
0.2319976284
 20
-56.8183177498
 10
0.2585133758
 20
-56.8332778828
 10
0.2827431033
 20
-56.8495633803
 10
0.3051799097
 20
-56.8672733429
 10
0.3259806708
 20
-56.8865053892
 10
0.3449885109
 20
-56.9071619006
 10
0.3622259012
 20
-56.9290491219
 10
0.377756127
 20
-56.9521394688
 10
0.3915159031
 20
-56.9764605255
 10
0.4033378454
 20
-57.00190129
 10
0.4132204648
 20
-57.0284032299
 10
0.4211652503
 20
-57.0560248776
 10
0.4270092853
 20
-57.0848308277
 10
0.4307605327
 20
-57.1153060116
 10
0.4324110296
 20
-57.1469654979
 10
0.4317739703
 20
-57.1784190866
 10
0.4287407612
 20
-57.2094685011
 10
0.4234199959
 20
-57.2403120181
 10
0.4159506503
 20
-57.2701542678
 10
0.4062704185
 20
-57.2988375921
 10
0.3944416064
 20
-57.3265196492
 10
0.3807901079
 20
-57.3528780439
 10
0.3653211983
 20
-57.3779198235
 10
0.3480296022
 20
-57.4016379408
 10
0.3292253882
 20
-57.4236888584
 10
0.309218185
 20
-57.443874614
 10
0.2876983637
 20
-57.4623931701
 10
0.2640471071
 20
-57.4794948768
 10
0.2380956808
 20
-57.4953060694
 10
0.210012819
 20
-57.5097004126
 10
0.1796859076
 20
-57.5225492517
 10
0.1469522727
 20
-57.5337901392
 10
0.1119745881
 20
-57.5434855224
 10
0.0751282609
 20
-57.5516940886
 10
0.036471113
 20
-57.5583412573
 10
-0.0040546774
 20
-57.563501609
 10
-0.0462471689
 20
-57.5674575719
 10
-0.0900390476
 20
-57.5703032889
 10
-0.1354976274
 20
-57.5719446171
 10
-0.1826229083
 20
-57.5723815566
  0
LWPOLYLINE
  5
2CB
100
AcDbEntity
  8
0
100
AcDbPolyline
 62
7
  6
CONTINUOUS
 90
10
 70
0
 10
-1.5340860619
 20
-64.8340412443
 10
-1.5394425613
 20
-64.833970845
 10
-1.5448523341
 20
-64.8338113556
 10
-1.5503153804
 20
-64.8335627762
 10
-1.5558350199
 20
-64.8332145914
 10
-1.5614079328
 20
-64.8327773166
 10
-1.5670241596
 20
-64.832282497
 10
-1.5726803804
 20
-64.8317406477
 10
-1.5783799151
 20
-64.8311412537
 10
-1.5841227637
 20
-64.8304843149
  0
LWPOLYLINE
  5
2CC
100
AcDbEntity
  8
0
100
AcDbPolyline
 62
7
  6
CONTINUOUS
 90
25
 70
0
 10
12.1569801907
 20
-64.0261039385
 10
12.2017399963
 20
-64.0268409696
 10
12.2448739127
 20
-64.0292017934
 10
12.2863819402
 20
-64.03318641
 10
12.3264544408
 20
-64.0388384698
 10
12.3649010524
 20
-64.0461143223
 10
12.4011506882
 20
-64.0548830162
 10
12.4350299727
 20
-64.0651844374
 10
12.4667122814
 20
-64.0769786999
 10
12.4961466541
 20
-64.0900151951
 10
12.5230909604
 20
-64.1041251884
 10
12.5477873307
 20
-64.1194774143
 10
12.570911196
 20
-64.1363274678
 10
12.5924582911
 20
-64.1545112689
 10
12.6124328811
 20
-64.1741928975
 10
12.631523192
 20
-64.1961201881
 10
12.6500499208
 20
-64.2204276476
 10
12.6676923704
 20
-64.2469807692
 10
12.6841766764
 20
-64.2761238669
 10
12.6997044545
 20
-64.308322453
 10
12.714074089
 20
-64.3431110152
 10
12.7264068684
 20
-64.3794373307
 10
12.7364098889
 20
-64.4169506584
 10
12.7443760543
 20
-64.4560017395
 10
12.7503053647
 20
-64.4965905738
  0
LWPOLYLINE
  5
2CD
100
AcDbEntity
  8
0
100
AcDbPolyline
 62
7
  6
CONTINUOUS
 90
25
 70
0
 10
3.1326005606
 20
-56.7072932272
 10
3.1773603662
 20
-56.7080302583
 10
3.2204942827
 20
-56.7103910821
 10
3.2620023101
 20
-56.7143756987
 10
3.3020748107
 20
-56.7200277585
 10
3.3405214223
 20
-56.727303611
 10
3.3767710581
 20
-56.7360723049
 10
3.4106503426
 20
-56.7463737261
 10
3.4423326513
 20
-56.7581679886
 10
3.471767024
 20
-56.7712044838
 10
3.4987113303
 20
-56.7853144771
 10
3.5234077007
 20
-56.800666703
 10
3.5465315659
 20
-56.8175167565
 10
3.568078661
 20
-56.8357005576
 10
3.588053251
 20
-56.8553821862
 10
3.607143562
 20
-56.8773094768
 10
3.6256702907
 20
-56.9016169363
 10
3.6433127403
 20
-56.9281700579
 10
3.6597970463
 20
-56.9573131556
 10
3.6753248244
 20
-56.9895117417
 10
3.6896944589
 20
-57.0243003039
 10
3.7020272384
 20
-57.0606266194
 10
3.7120302589
 20
-57.0981399471
 10
3.7199964243
 20
-57.1371910282
 10
3.7259257346
 20
-57.1777798625
  0
LWPOLYLINE
  5
2CE
100
AcDbEntity
  8
0
100
AcDbPolyline
 62
7
  6
CONTINUOUS
 90
22
 70
0
 10
17.7487516634
 20
-64.0261039385
 10
17.7997744325
 20
-64.0279993742
 10
17.8487636941
 20
-64.0324203436
 10
17.8957194482
 20
-64.0393668466
 10
17.940903746
 20
-64.049092524
 10
17.9840545363
 20
-64.0613437349
 10
18.0243856655
 20
-64.0753595577
 10
18.0614016146
 20
-64.0909039512
 10
18.0955979026
 20
-64.1082129564
 10
18.1276749333
 20
-64.1272337751
 10
18.1574795545
 20
-64.1476545215
 10
18.1851649185
 20
-64.1697870814
 10
18.2118908856
 20
-64.1945143144
 10
18.238003498
 20
-64.2219437345
 10
18.2631567135
 20
-64.2519678276
 10
18.2874722658
 20
-64.2851469106
 10
18.3111646641
 20
-64.3218079066
 10
18.3340193992
 20
-64.3616238925
 10
18.3555146773
 20
-64.4041744164
 10
18.3754765673
 20
-64.4493193277
 10
18.3940790003
 20
-64.497198777
 10
18.4113219764
 20
-64.5478127643
  0
LWPOLYLINE
  5
2CF
100
AcDbEntity
  8
0
100
AcDbPolyline
 62
7
  6
CONTINUOUS
 90
22
 70
0
 10
5.4309655863
 20
-60.3742870769
 10
5.4819883554
 20
-60.3761825127
 10
5.530977617
 20
-60.380603482
 10
5.5779333711
 20
-60.3875499851
 10
5.6231176689
 20
-60.3972756624
 10
5.6662684592
 20
-60.4095268734
 10
5.7065995884
 20
-60.4235426962
 10
5.7436155374
 20
-60.4390870896
 10
5.7778118254
 20
-60.4563960949
 10
5.8098888562
 20
-60.4754169136
 10
5.8396934774
 20
-60.49583766
 10
5.8673788414
 20
-60.5179702199
 10
5.8941048084
 20
-60.5426974528
 10
5.9202174209
 20
-60.5701268729
 10
5.9453706364
 20
-60.600150966
 10
5.9696861887
 20
-60.6333300491
 10
5.993378587
 20
-60.669991045
 10
6.016233322
 20
-60.7098070309
 10
6.0377286002
 20
-60.7523575549
 10
6.0576904901
 20
-60.7975024662
 10
6.0762929232
 20
-60.8453819155
 10
6.0935358993
 20
-60.8959959028
  0
LINE
  5
2D0
100
AcDbEntity
  8
0
100
AcDbLine
 62
7
  6
CONTINUOUS
 10
-2.1990280471
 20
-64.4207056326
 11
-1.8954882824
 21
-64.4662365973
  0
LWPOLYLINE
  5
2D1
100
AcDbEntity
  8
0
100
AcDbPolyline
 62
7
  6
CONTINUOUS
 90
19
 70
0
 10
12.1777298328
 20
-64.8096158693
 10
12.1418236461
 20
-64.8010206736
 10
12.1069887167
 20
-64.7923511159
 10
12.0732250447
 20
-64.7836071961
 10
12.0405830065
 20
-64.7747933398
 10
12.0090122257
 20
-64.7659051213
 10
11.9783615725
 20
-64.7569292639
 10
11.9486096288
 20
-64.747868529
 10
11.9197778128
 20
-64.7387201551
 10
11.8917792484
 20
-64.7294625808
 10
11.8644543134
 20
-64.7202016132
 10
11.83796263
 20
-64.7108314452
 10
11.8126961897
 20
-64.7010130944
 10
11.7886338467
 20
-64.6907307526
 10
11.7657967469
 20
-64.680000228
 10
11.7446403188
 20
-64.6685299625
 10
11.7253163719
 20
-64.6562227701
 10
11.7076730967
 20
-64.6431758369
 10
11.6917104932
 20
-64.6293891629
  0
LINE
  5
2D2
100
AcDbEntity
  8
0
100
AcDbLine
 62
7
  6
CONTINUOUS
 10
18.8059236705
 20
-65.4923431958
 11
18.4720299294
 21
-65.4086325007
  0
LINE
  5
2D3
100
AcDbEntity
  8
0
100
AcDbLine
 62
7
  6
CONTINUOUS
 10
6.4881375934
 20
-61.8405263343
 11
6.1542438522
 21
-61.7568156391
  0
LINE
  5
2D4
100
AcDbEntity
  8
0
100
AcDbLine
 62
7
  6
CONTINUOUS
 10
12.055367148
 20
-65.1237463984
 11
12.1553095832
 21
-65.1487541935
  0
LWPOLYLINE
  5
2D5
100
AcDbEntity
  8
0
100
AcDbPolyline
 62
7
  6
CONTINUOUS
 90
6
 70
0
 10
12.1553095832
 20
-65.1487541935
 10
12.3568286513
 20
-65.2005338776
 10
12.4039929786
 20
-65.2138124814
 10
12.4495034706
 20
-65.2280392574
 10
12.4934826806
 20
-65.2429426391
 10
12.5359306085
 20
-65.2585226267
  0
LWPOLYLINE
  5
2D6
100
AcDbEntity
  8
0
100
AcDbPolyline
 62
7
  6
CONTINUOUS
 90
22
 70
0
 10
6.9543558672
 20
-65.1911748717
 10
6.9846022624
 20
-65.199589915
 10
7.014268704
 20
-65.2100531842
 10
7.0433551922
 20
-65.2225646793
 10
7.0719923661
 20
-65.2371182303
 10
7.1000495866
 20
-65.2537200073
 10
7.1271349358
 20
-65.2723885204
 10
7.1528416147
 20
-65.2930871026
 10
7.1775764223
 20
-65.315852421
 10
7.2021678386
 20
-65.3408129868
 10
7.226834709
 20
-65.3682703349
 10
7.2513581879
 20
-65.3979229304
 10
7.2759102186
 20
-65.4289946807
 10
7.3004549847
 20
-65.4612667945
 10
7.3250283024
 20
-65.494958063
 10
7.3499095641
 20
-65.5299487671
 10
7.3751407199
 20
-65.5661986247
 10
7.4006798196
 20
-65.603747918
 10
7.4266804054
 20
-65.6425977743
 10
7.4531936579
 20
-65.6827485693
 10
7.4801683966
 20
-65.7241999274
 10
7.5076046214
 20
-65.7669518484
  0
LWPOLYLINE
  5
2D7
100
AcDbEntity
  8
0
100
AcDbPolyline
 62
7
  6
CONTINUOUS
 90
22
 70
0
 10
-0.3246701158
 20
-57.8723641604
 10
-0.2944237207
 20
-57.8807792037
 10
-0.264757279
 20
-57.8912424729
 10
-0.2356707908
 20
-57.903753968
 10
-0.2070336169
 20
-57.918307519
 10
-0.1789763965
 20
-57.934909296
 10
-0.1518910472
 20
-57.9535778091
 10
-0.1261843684
 20
-57.9742763913
 10
-0.1014495607
 20
-57.9970417097
 10
-0.0768581444
 20
-58.0220022755
 10
-0.0521912741
 20
-58.0494596236
 10
-0.0276677951
 20
-58.0791122191
 10
-0.0031157644
 20
-58.1101839694
 10
0.0214290016
 20
-58.1424560832
 10
0.0460023194
 20
-58.1761473517
 10
0.0708835811
 20
-58.2111380558
 10
0.0961147368
 20
-58.2473879134
 10
0.1216538365
 20
-58.2849372067
 10
0.1476544223
 20
-58.323787063
 10
0.1741676749
 20
-58.363937858
 10
0.2011424136
 20
-58.4053892161
 10
0.2285786384
 20
-58.4481411371
  0
LWPOLYLINE
  5
2D8
100
AcDbEntity
  8
0
100
AcDbPolyline
 62
7
  6
CONTINUOUS
 90
47
 70
0
 10
12.5359306085
 20
-65.2585226267
 10
12.5687861261
 20
-65.2720552041
 10
12.599577348
 20
-65.2865536104
 10
12.6283042741
 20
-65.3020178457
 10
12.655077096
 20
-65.3185285705
 10
12.6797856221
 20
-65.3360051243
 10
12.7020992777
 20
-65.3542055255
 10
12.7217599152
 20
-65.3729289401
 10
12.7390256822
 20
-65.3923762022
 10
12.7543404468
 20
-65.4129078315
 10
12.7677681551
 20
-65.4344860915
 10
12.779244861
 20
-65.4571487189
 10
12.7890225944
 20
-65.4813694431
 10
12.7973330518
 20
-65.5075563751
 10
12.8039445366
 20
-65.5353014039
 10
12.8084139886
 20
-65.5638539266
 10
12.8106290158
 20
-65.5933615501
 10
12.8107020103
 20
-65.6236766674
 10
12.8085270885
 20
-65.6536058546
 10
12.8040553326
 20
-65.6828778229
 10
12.7973356603
 20
-65.7117638611
 10
12.7884089417
 20
-65.7398844116
 10
12.7772720036
 20
-65.7671851327
 10
12.763928019
 20
-65.7937203661
 10
12.7484273769
 20
-65.8192735795
 10
12.7307910268
 20
-65.8438718009
 10
12.7109980192
 20
-65.8674880023
 10
12.6890358936
 20
-65.8898245668
 10
12.6649846981
 20
-65.9108016565
 10
12.6387643847
 20
-65.9304991094
 10
12.6101223489
 20
-65.9488588218
 10
12.5789741458
 20
-65.9659234847
 10
12.5454042203
 20
-65.9816504072
 10
12.5094133024
 20
-65.9958534129
 10
12.4709817827
 20
-66.008640386
 10
12.4301292707
 20
-66.0199034422
 10
12.3869153252
 20
-66.0291327523
 10
12.3413272278
 20
-66.0363066626
 10
12.293377697
 20
-66.0414468268
 10
12.2431644468
 20
-66.0441083771
 10
12.1896713688
 20
-66.0443198761
 10
12.1339145713
 20
-66.0420527612
 10
12.0790400937
 20
-66.0367764763
 10
12.0254117899
 20
-66.0280576209
 10
11.972665806
 20
-66.0163295955
 10
11.9228566192
 20
-66.0023620452
 10
11.8766244767
 20
-65.9861467907
  0
LWPOLYLINE
  5
2D9
100
AcDbEntity
  8
0
100
AcDbPolyline
 62
7
  6
CONTINUOUS
 90
18
 70
0
 10
11.8766244767
 20
-65.9861467907
 10
11.8333291314
 20
-65.9676920114
 10
11.7931043192
 20
-65.947791891
 10
11.7560668624
 20
-65.9266257923
 10
11.7220999388
 20
-65.9040143525
 10
11.6909868178
 20
-65.8802136661
 10
11.6628939479
 20
-65.855489982
 10
11.6376548807
 20
-65.8295770514
 10
11.614553541
 20
-65.8019322227
 10
11.5934821474
 20
-65.7726450738
 10
11.5745484814
 20
-65.7416260268
 10
11.5573598123
 20
-65.7080636959
 10
11.5417656718
 20
-65.6716475132
 10
11.5279165281
 20
-65.6326880466
 10
11.5158710557
 20
-65.5913056134
 10
11.5056488129
 20
-65.5475403196
 10
11.4972302413
 20
-65.5013520594
 10
11.4906153411
 20
-65.4527408326
  0
LWPOLYLINE
  5
2DA
100
AcDbEntity
  8
0
100
AcDbPolyline
 62
7
  6
CONTINUOUS
 90
10
 70
0
 10
5.8855638011
 20
-56.4881753582
 10
5.8487378975
 20
-56.4824568148
 10
5.8107582768
 20
-56.4775656422
 10
5.7716249392
 20
-56.4735018405
 10
5.7313047844
 20
-56.4703406836
 10
5.6898309126
 20
-56.4680068975
 10
5.6473026243
 20
-56.4662746599
 10
5.6037530197
 20
-56.4650686966
 10
5.5591489986
 20
-56.4644642818
 10
4.591014064
 20
-56.4644614154
  0
LWPOLYLINE
  5
2DB
100
AcDbEntity
  8
0
100
AcDbPolyline
 62
7
  6
CONTINUOUS
 90
19
 70
0
 10
3.1533502027
 20
-57.490805158
 10
3.117444016
 20
-57.4822099623
 10
3.0826090866
 20
-57.4735404046
 10
3.0488454146
 20
-57.4647964848
 10
3.0162033765
 20
-57.4559826285
 10
2.9846325956
 20
-57.44709441
 10
2.9539819424
 20
-57.4381185526
 10
2.9242299988
 20
-57.4290578177
 10
2.8953981827
 20
-57.4199094438
 10
2.8673996184
 20
-57.4106518695
 10
2.8400746833
 20
-57.4013909019
 10
2.8135829999
 20
-57.3920207339
 10
2.7883165596
 20
-57.3822023831
 10
2.7642542167
 20
-57.3719200413
 10
2.7414171168
 20
-57.3611895167
 10
2.7202606887
 20
-57.3497192512
 10
2.7009367418
 20
-57.3374120588
 10
2.6832934666
 20
-57.3243651256
 10
2.6673308631
 20
-57.3105784516
  0
LINE
  5
2DC
100
AcDbEntity
  8
0
100
AcDbLine
 62
7
  6
CONTINUOUS
 10
3.0309875179
 20
-57.8049356871
 11
3.1309299531
 21
-57.8299434822
  0
LWPOLYLINE
  5
2DD
100
AcDbEntity
  8
0
100
AcDbPolyline
 62
7
  6
CONTINUOUS
 90
6
 70
0
 10
3.1309299531
 20
-57.8299434822
 10
3.3324490212
 20
-57.8817231663
 10
3.3796133485
 20
-57.8950017701
 10
3.4251238405
 20
-57.9092285461
 10
3.4691030505
 20
-57.9241319278
 10
3.5115509784
 20
-57.9397119154
  0
LWPOLYLINE
  5
2DE
100
AcDbEntity
  8
0
100
AcDbPolyline
 62
7
  6
CONTINUOUS
 90
43
 70
0
 10
5.8443014295
 20
-56.7751152703
 10
5.8718824919
 20
-56.7841636326
 10
5.8982452157
 20
-56.7951077321
 10
5.9233896009
 20
-56.807947569
 10
5.9472939215
 20
-56.8226277818
 10
5.9699799035
 20
-56.8392037319
 10
5.9915127249
 20
-56.8578415037
 10
6.0120440898
 20
-56.8786621591
 10
6.0314222941
 20
-56.9015446361
 10
6.0492574034
 20
-56.9262918327
 10
6.0655997994
 20
-56.9529726607
 10
6.0803991003
 20
-56.9815182082
 10
6.0931142265
 20
-57.0115246379
 10
6.1036160325
 20
-57.0427467744
 10
6.1120336638
 20
-57.075429793
 10
6.1182134775
 20
-57.1099053822
 10
6.1221214527
 20
-57.1470858776
 10
6.1237916104
 20
-57.1860589435
 10
6.1231723699
 20
-57.2244192615
 10
6.1201611528
 20
-57.2618527622
 10
6.1148605375
 20
-57.2986735151
 10
6.1075266785
 20
-57.3334184098
 10
6.0981054106
 20
-57.3655725104
 10
6.086650899
 20
-57.3956507528
 10
6.0735817939
 20
-57.4237348339
 10
6.0589214087
 20
-57.4498385373
 10
6.04264643
 20
-57.4739480794
 10
6.0251055684
 20
-57.4961038058
 10
6.0066210588
 20
-57.516116219
 10
5.9868706662
 20
-57.5341748166
 10
5.9652363961
 20
-57.5508884369
 10
5.9416127817
 20
-57.5664296178
 10
5.9161052897
 20
-57.5806258215
 10
5.8884123264
 20
-57.5935682717
 10
5.8582999715
 20
-57.6053640028
 10
5.8260021451
 20
-57.6159059805
 10
5.7919190141
 20
-57.6249643265
 10
5.7561491191
 20
-57.632441373
 10
5.7185939194
 20
-57.6384347878
 10
5.6793579592
 20
-57.6430076952
 10
5.6384760866
 20
-57.6461811367
 10
5.5959134535
 20
-57.6479340709
 10
5.55167006
 20
-57.6482664978
  0
LWPOLYLINE
  5
2DF
100
AcDbEntity
  8
0
100
AcDbPolyline
 62
7
  6
CONTINUOUS
 90
47
 70
0
 10
3.5115509784
 20
-57.9397119154
 10
3.5444064961
 20
-57.9532444928
 10
3.5751977179
 20
-57.9677428991
 10
3.603924644
 20
-57.9832071344
 10
3.6306974659
 20
-57.9997178592
 10
3.6554059921
 20
-58.017194413
 10
3.6777196477
 20
-58.0353948142
 10
3.6973802852
 20
-58.0541182288
 10
3.7146460521
 20
-58.0735654909
 10
3.7299608167
 20
-58.0940971202
 10
3.743388525
 20
-58.1156753802
 10
3.754865231
 20
-58.1383380076
 10
3.7646429643
 20
-58.1625587318
 10
3.7729534217
 20
-58.1887456638
 10
3.7795649065
 20
-58.2164906926
 10
3.7840343586
 20
-58.2450432153
 10
3.7862493858
 20
-58.2745508388
 10
3.7863223802
 20
-58.3048659561
 10
3.7841474584
 20
-58.3347951433
 10
3.7796757025
 20
-58.3640671116
 10
3.7729560303
 20
-58.3929531498
 10
3.7640293116
 20
-58.4210737003
 10
3.7528923735
 20
-58.4483744214
 10
3.7395483889
 20
-58.4749096548
 10
3.7240477468
 20
-58.5004628682
 10
3.7064113967
 20
-58.5250610896
 10
3.6866183891
 20
-58.548677291
 10
3.6646562635
 20
-58.5710138555
 10
3.6406050681
 20
-58.5919909452
 10
3.6143847546
 20
-58.6116883981
 10
3.5857427188
 20
-58.6300481105
 10
3.5545945157
 20
-58.6471127734
 10
3.5210245902
 20
-58.6628396959
 10
3.4850336724
 20
-58.6770427016
 10
3.4466021526
 20
-58.6898296747
 10
3.4057496406
 20
-58.7010927309
 10
3.3625356951
 20
-58.710322041
 10
3.3169475977
 20
-58.7174959513
 10
3.2689980669
 20
-58.7226361155
 10
3.2187848167
 20
-58.7252976658
 10
3.1652917387
 20
-58.7255091648
 10
3.1095349412
 20
-58.7232420499
 10
3.0546604636
 20
-58.717965765
 10
3.0010321598
 20
-58.7092469096
 10
2.9482861759
 20
-58.6975188842
 10
2.8984769891
 20
-58.6835513339
 10
2.8522448466
 20
-58.6673360794
  0
LWPOLYLINE
  5
2E0
100
AcDbEntity
  8
0
100
AcDbPolyline
 62
7
  6
CONTINUOUS
 90
13
 70
0
 10
12.7201885323
 20
-64.9701598502
 10
12.6828779352
 20
-64.9547340105
 10
12.6440882291
 20
-64.9397857129
 10
12.603819414
 20
-64.9253149576
 10
12.5620484078
 20
-64.9113889668
 10
12.5187982926
 20
-64.8979405182
 10
12.4741383144
 20
-64.8847679452
 10
12.4280537765
 20
-64.8718598287
 10
12.3805593756
 20
-64.8592275878
 10
12.3317684472
 20
-64.8467038124
 10
12.2817187698
 20
-64.8342326991
 10
12.230372565
 20
-64.8218700514
 10
12.1777298328
 20
-64.8096158693
  0
LWPOLYLINE
  5
2E1
100
AcDbEntity
  8
0
100
AcDbPolyline
 62
7
  6
CONTINUOUS
 90
13
 70
0
 10
3.6958089022
 20
-57.6513491389
 10
3.6584983051
 20
-57.6359232992
 10
3.619708599
 20
-57.6209750016
 10
3.5794397839
 20
-57.6065042463
 10
3.5376687777
 20
-57.5925782555
 10
3.4944186625
 20
-57.5791298069
 10
3.4497586843
 20
-57.5659572339
 10
3.4036741464
 20
-57.5530491174
 10
3.3561797455
 20
-57.5404168765
 10
3.3073888171
 20
-57.5278931011
 10
3.2573391398
 20
-57.5154219878
 10
3.205992935
 20
-57.5030593401
 10
3.1533502027
 20
-57.490805158
  0
LWPOLYLINE
  5
2E2
100
AcDbEntity
  8
0
100
AcDbPolyline
 62
7
  6
CONTINUOUS
 90
18
 70
0
 10
2.8522448466
 20
-58.6673360794
 10
2.8089495013
 20
-58.6488813001
 10
2.7687246891
 20
-58.6289811797
 10
2.7316872323
 20
-58.607815081
 10
2.6977203087
 20
-58.5852036412
 10
2.6666071878
 20
-58.5614029548
 10
2.6385143178
 20
-58.5366792707
 10
2.6132752506
 20
-58.5107663401
 10
2.5901739109
 20
-58.4831215114
 10
2.5691025174
 20
-58.4538343625
 10
2.5501688514
 20
-58.4228153155
 10
2.5329801823
 20
-58.3892529846
 10
2.5173860417
 20
-58.3528368019
 10
2.503536898
 20
-58.3138773353
 10
2.4914914257
 20
-58.2724949021
 10
2.4812691828
 20
-58.2287296083
 10
2.4728506113
 20
-58.1825413481
 10
2.4662357111
 20
-58.1339301213
  0
LWPOLYLINE
  5
2E3
100
AcDbEntity
  8
0
100
AcDbPolyline
 62
7
  6
CONTINUOUS
 90
12
 70
0
 10
11.6253113144
 20
-64.9779856042
 10
11.6575739593
 20
-64.9934090183
 10
11.6912413508
 20
-65.0083257026
 10
11.7263134889
 20
-65.022735657
 10
11.7628153917
 20
-65.0365853175
 10
11.8007220412
 20
-65.0499282481
 10
11.839958383
 20
-65.0629251413
 10
11.8805389479
 20
-65.0755789259
 10
11.9224492052
 20
-65.0878866732
 10
11.9655705073
 20
-65.1000002892
 10
12.0098633052
 20
-65.1119704094
 10
12.055367148
 20
-65.1237463984
  0
LWPOLYLINE
  5
2E4
100
AcDbEntity
  8
0
100
AcDbPolyline
 62
7
  6
CONTINUOUS
 90
12
 70
0
 10
2.6009316843
 20
-57.6591748929
 10
2.6331943292
 20
-57.674598307
 10
2.6668617207
 20
-57.6895149913
 10
2.7019338588
 20
-57.7039249457
 10
2.7384357617
 20
-57.7177746062
 10
2.7763424112
 20
-57.7311175368
 10
2.8155787529
 20
-57.74411443
 10
2.8561593179
 20
-57.7567682146
 10
2.8980695751
 20
-57.7690759619
 10
2.9411908772
 20
-57.7811895779
 10
2.9854836751
 20
-57.7931596981
 10
3.0309875179
 20
-57.8049356871
  0
LWPOLYLINE
  5
2E5
100
AcDbEntity
  8
0
100
AcDbPolyline
 62
7
  6
CONTINUOUS
 90
29
 70
0
 10
-6.6177107417
 20
-64.9086765218
 10
-6.6519696359
 20
-64.8725188823
 10
-6.6881886423
 20
-64.8388522722
 10
-6.7263457941
 20
-64.8076125611
 10
-6.7654381036
 20
-64.7795055797
 10
-6.8050713321
 20
-64.7548383904
 10
-6.8456397183
 20
-64.7333039308
 10
-6.8873229912
 20
-64.7146868439
 10
-6.9301246406
 20
-64.6989249812
 10
-6.9740411766
 20
-64.6860804914
 10
-7.0192418589
 20
-64.676124463
 10
-7.0660986914
 20
-64.6689750561
 10
-7.1142396701
 20
-64.6647141108
 10
-7.1627180424
 20
-64.6635582355
 10
-7.2117736721
 20
-64.6656523606
 10
-7.2611666953
 20
-64.6708515558
 10
-7.3092307679
 20
-64.6789376384
 10
-7.3554800152
 20
-64.6898907207
 10
-7.4004003119
 20
-64.7037306904
 10
-7.4437829378
 20
-64.7202990273
 10
-7.4854285912
 20
-64.7394521483
 10
-7.5255365737
 20
-64.7613336365
 10
-7.5644960705
 20
-64.7862157214
 10
-7.6026564578
 20
-64.8143111477
 10
-7.6396683593
 20
-64.8454071706
 10
-7.6748728316
 20
-64.8791377855
 10
-7.7080502268
 20
-64.9153809908
 10
-7.7394201927
 20
-64.954258788
 10
-7.7689827294
 20
-64.9957711771
  0
LWPOLYLINE
  5
2E6
100
AcDbEntity
  8
0
100
AcDbPolyline
 62
7
  6
CONTINUOUS
 90
29
 70
0
 10
-2.7324017535
 20
-64.9086765218
 10
-2.7666606476
 20
-64.8725188823
 10
-2.8028796541
 20
-64.8388522722
 10
-2.8410368059
 20
-64.8076125611
 10
-2.8801291154
 20
-64.7795055797
 10
-2.9197623438
 20
-64.7548383904
 10
-2.9603307301
 20
-64.7333039308
 10
-3.002014003
 20
-64.7146868439
 10
-3.0448156523
 20
-64.6989249812
 10
-3.0887321884
 20
-64.6860804914
 10
-3.1339328706
 20
-64.676124463
 10
-3.1807897032
 20
-64.6689750561
 10
-3.2289306819
 20
-64.6647141108
 10
-3.2774090542
 20
-64.6635582355
 10
-3.3264646838
 20
-64.6656523606
 10
-3.3758577071
 20
-64.6708515558
 10
-3.4239217797
 20
-64.6789376384
 10
-3.470171027
 20
-64.6898907207
 10
-3.5150913237
 20
-64.7037306904
 10
-3.5584739496
 20
-64.7202990273
 10
-3.6001196029
 20
-64.7394521483
 10
-3.6402275855
 20
-64.7613336365
 10
-3.6791870823
 20
-64.7862157214
 10
-3.7173474696
 20
-64.8143111477
 10
-3.7543593711
 20
-64.8454071706
 10
-3.7895638434
 20
-64.8791377855
 10
-3.8227412386
 20
-64.9153809908
 10
-3.8541112045
 20
-64.954258788
 10
-3.8836737412
 20
-64.9957711771
  0
LWPOLYLINE
  5
2E7
100
AcDbEntity
  8
0
100
AcDbPolyline
 62
7
  6
CONTINUOUS
 90
51
 70
0
 10
-7.8298091386
 20
-66.0493861392
 10
-7.7926201839
 20
-66.0898420372
 10
-7.7541656115
 20
-66.1271212508
 10
-7.7144454215
 20
-66.1612237801
 10
-7.6733961789
 20
-66.1921462101
 10
-7.6310813187
 20
-66.2198919558
 10
-7.5876911454
 20
-66.244471262
 10
-7.5436889815
 20
-66.265763555
 10
-7.4986115044
 20
-66.2838894085
 10
-7.4512590513
 20
-66.2992207894
 10
-7.4008467151
 20
-66.3120077384
 10
-7.3481594029
 20
-66.3220002146
 10
-7.2943521737
 20
-66.3288200623
 10
-7.2387883885
 20
-66.3323190394
 10
-7.1821046861
 20
-66.3326453878
 10
-7.1273660426
 20
-66.329865678
 10
-7.0756327098
 20
-66.3239088159
 10
-7.0258444357
 20
-66.3148458956
 10
-6.97788544
 20
-66.3029567694
 10
-6.9317839944
 20
-66.2882779264
 10
-6.8875118271
 20
-66.2707728776
 10
-6.8448683425
 20
-66.2506120078
 10
-6.803705165
 20
-66.227796242
 10
-6.7641706702
 20
-66.2023246554
 10
-6.726509389
 20
-66.1743648578
 10
-6.6908672634
 20
-66.1441477762
 10
-6.6570983514
 20
-66.1114424837
 10
-6.6250093583
 20
-66.0757238093
 10
-6.5944437262
 20
-66.0368775387
 10
-6.5655580131
 20
-65.9950178861
 10
-6.538628598
 20
-65.9499623234
 10
-6.513371173
 20
-65.9011684668
 10
-6.490070046
 20
-65.8491787001
 10
-6.4698545204
 20
-65.7954376463
 10
-6.4529859727
 20
-65.7403670017
 10
-6.4392030265
 20
-65.6835450699
 10
-6.428850856
 20
-65.6251513856
 10
-6.4220458227
 20
-65.5644295474
 10
-6.4186715652
 20
-65.5021359567
 10
-6.4187241728
 20
-65.4407193517
 10
-6.4223949262
 20
-65.3802384274
 10
-6.4294925447
 20
-65.3206344888
 10
-6.4394392765
 20
-65.2641801889
 10
-6.4521110954
 20
-65.2119578136
 10
-6.4676320276
 20
-65.162885077
 10
-6.4857963991
 20
-65.1159877755
 10
-6.5064583879
 20
-65.07115676
 10
-6.5297638159
 20
-65.0285011795
 10
-6.5559444756
 20
-64.9873742772
 10
-6.5853899929
 20
-64.9472610604
 10
-6.6177107417
 20
-64.9086765218
  0
LWPOLYLINE
  5
2E8
100
AcDbEntity
  8
0
100
AcDbPolyline
 62
7
  6
CONTINUOUS
 90
51
 70
0
 10
-3.9445001504
 20
-66.0493861392
 10
-3.9073111956
 20
-66.0898420372
 10
-3.8688566233
 20
-66.1271212508
 10
-3.8291364332
 20
-66.1612237801
 10
-3.7880871907
 20
-66.1921462101
 10
-3.7457723305
 20
-66.2198919558
 10
-3.7023821572
 20
-66.244471262
 10
-3.6583799932
 20
-66.265763555
 10
-3.6133025161
 20
-66.2838894085
 10
-3.5659500631
 20
-66.2992207894
 10
-3.5155377269
 20
-66.3120077384
 10
-3.4628504147
 20
-66.3220002146
 10
-3.4090431855
 20
-66.3288200623
 10
-3.3534794002
 20
-66.3323190394
 10
-3.2967956979
 20
-66.3326453878
 10
-3.2420570543
 20
-66.329865678
 10
-3.1903237216
 20
-66.3239088159
 10
-3.1405354475
 20
-66.3148458956
 10
-3.0925764518
 20
-66.3029567694
 10
-3.0464750062
 20
-66.2882779264
 10
-3.0022028389
 20
-66.2707728776
 10
-2.9595593543
 20
-66.2506120078
 10
-2.9183961768
 20
-66.227796242
 10
-2.878861682
 20
-66.2023246554
 10
-2.8412004008
 20
-66.1743648578
 10
-2.8055582751
 20
-66.1441477762
 10
-2.7717893631
 20
-66.1114424837
 10
-2.7397003701
 20
-66.0757238093
 10
-2.709134738
 20
-66.0368775387
 10
-2.6802490249
 20
-65.9950178861
 10
-2.6533196098
 20
-65.9499623234
 10
-2.6280621847
 20
-65.9011684668
 10
-2.6047610577
 20
-65.8491787001
 10
-2.5845455322
 20
-65.7954376463
 10
-2.5676769845
 20
-65.7403670017
 10
-2.5538940383
 20
-65.6835450699
 10
-2.5435418677
 20
-65.6251513856
 10
-2.5367368345
 20
-65.5644295474
 10
-2.5333625769
 20
-65.5021359567
 10
-2.5334151846
 20
-65.4407193517
 10
-2.5370859379
 20
-65.3802384274
 10
-2.5441835565
 20
-65.3206344888
 10
-2.5541302883
 20
-65.2641801889
 10
-2.5668021072
 20
-65.2119578136
 10
-2.5823230394
 20
-65.162885077
 10
-2.6004874109
 20
-65.1159877755
 10
-2.6211493996
 20
-65.07115676
 10
-2.6444548277
 20
-65.0285011795
 10
-2.6706354873
 20
-64.9873742772
 10
-2.7000810046
 20
-64.9472610604
 10
-2.7324017535
 20
-64.9086765218
  0
LWPOLYLINE
  5
2E9
100
AcDbEntity
  8
0
100
AcDbPolyline
 62
7
  6
CONTINUOUS
 90
13
 70
0
 10
-6.8839745306
 20
-64.1577168073
 10
-6.8711465164
 20
-64.1727990064
 10
-6.8588724641
 20
-64.1891695459
 10
-6.8471523736
 20
-64.206828426
 10
-6.8359737547
 20
-64.2257961091
 10
-6.8253490976
 20
-64.2460521326
 10
-6.8153158732
 20
-64.2675351096
 10
-6.8058980549
 20
-64.2902753401
 10
-6.7970716693
 20
-64.3142425239
 10
-6.7888022665
 20
-64.3392843738
 10
-6.7810783634
 20
-64.3653501274
 10
-6.7739114432
 20
-64.392490547
 10
-6.7673015059
 20
-64.4207056326
  0
LINE
  5
2EA
100
AcDbEntity
  8
0
100
AcDbLine
 62
7
  6
CONTINUOUS
 10
-6.53125
 20
45.190425548
 11
-6.675
 21
45.0925531849
  0
LINE
  5
2EB
100
AcDbEntity
  8
0
100
AcDbLine
 62
7
  6
CONTINUOUS
 10
-2.3189996777
 20
42.4968085289
 11
-2.6569998388
 21
42.2925532341
  0
LINE
  5
2EC
100
AcDbEntity
  8
0
100
AcDbLine
 62
7
  6
CONTINUOUS
 10
-0.46
 20
41.781914854
 11
-2.8260001612
 21
40.5053191543
  0
LINE
  5
2ED
100
AcDbEntity
  8
0
100
AcDbLine
 62
7
  6
CONTINUOUS
 10
-2.1500003223
 20
40.5053191543
 11
-0.0374996777
 21
41.6287233829
  0
LINE
  5
2EE
100
AcDbEntity
  8
0
100
AcDbLine
 62
7
  6
CONTINUOUS
 10
-6.6270835161
 20
44.7989361687
 11
-6.4354164839
 21
44.8968085103
  0
LINE
  5
2EF
100
AcDbEntity
  8
0
100
AcDbLine
 62
7
  6
CONTINUOUS
 10
-2.1500003223
 20
42.2414894104
 11
-1.8965003223
 21
42.3436170578
  0
LINE
  5
2F0
100
AcDbEntity
  8
0
100
AcDbLine
 62
7
  6
CONTINUOUS
 10
3.4269996777
 20
42.2414894104
 11
3.6804996777
 21
42.3436170578
  0
LINE
  5
2F1
100
AcDbEntity
  8
0
100
AcDbLine
 62
7
  6
CONTINUOUS
 10
3.596
 20
42.5989361763
 11
3.1734996777
 21
42.4457447052
  0
LINE
  5
2F2
100
AcDbEntity
  8
0
100
AcDbLine
 62
7
  6
CONTINUOUS
 10
7.2295006447
 20
42.5989361763
 11
6.8069993553
 21
42.4457447052
  0
LINE
  5
2F3
100
AcDbEntity
  8
0
100
AcDbLine
 62
7
  6
CONTINUOUS
 10
-1.981
 20
42.5989361763
 11
-2.3189996777
 21
42.4968085289
  0
LINE
  5
2F4
100
AcDbEntity
  8
ASSI
100
AcDbLine
 62
7
  6
CONTINUOUS
 10
1.657055
 20
-44.375
 11
3.117556
 21
-44.375
  0
LINE
  5
2F5
100
AcDbEntity
  8
ASSI
100
AcDbLine
 62
7
  6
CONTINUOUS
 10
3.117556
 20
-43.625
 11
1.6570519378
 21
-43.625
  0
LWPOLYLINE
  5
2F6
100
AcDbEntity
  8
0
100
AcDbPolyline
 62
7
  6
CONTINUOUS
 90
10
 70
0
 10
7.5372471657
 20
-65.277731064
 10
7.5204660489
 20
-65.2623723573
 10
7.5025569882
 20
-65.2472951944
 10
7.4835199838
 20
-65.2324995752
 10
7.4633101333
 20
-65.2180016926
 10
7.4419723391
 20
-65.2037853538
 10
7.4196413076
 20
-65.1898019798
 10
7.3963619411
 20
-65.1760353777
 10
7.3720893373
 20
-65.1625017404
 10
7.3468234964
 20
-65.1492010679
  0
LWPOLYLINE
  5
2F7
100
AcDbEntity
  8
0
100
AcDbPolyline
 62
7
  6
CONTINUOUS
 90
10
 70
0
 10
0.2582211827
 20
-57.9589203527
 10
0.2414400659
 20
-57.943561646
 10
0.2235310052
 20
-57.9284844831
 10
0.2044940008
 20
-57.9136888639
 10
0.1842841503
 20
-57.8991909813
 10
0.162946356
 20
-57.8849746425
 10
0.1406153246
 20
-57.8709912685
 10
0.117335958
 20
-57.8572246664
 10
0.0930633543
 20
-57.8436910291
 10
0.0677975134
 20
-57.8303903566
  0
LWPOLYLINE
  5
2F8
100
AcDbEntity
  8
0
100
AcDbPolyline
 62
7
  6
CONTINUOUS
 90
37
 70
0
 10
2.6673308631
 20
-57.3105784516
 10
2.6508016316
 20
-57.2939512949
 10
2.6358519408
 20
-57.276585117
 10
2.6224817908
 20
-57.258479918
 10
2.6106902696
 20
-57.2396748969
 10
2.6004782892
 20
-57.2201308547
 10
2.5918485852
 20
-57.1997301937
 10
2.5847925329
 20
-57.1784388448
 10
2.579318757
 20
-57.1562908771
 10
2.5754558662
 20
-57.1332709009
 10
2.5731698017
 20
-57.1089957434
 10
2.5724946223
 20
-57.0838485772
 10
2.573561114
 20
-57.0589635303
 10
2.5764011739
 20
-57.0345993618
 10
2.5809829048
 20
-57.0104973125
 10
2.5873414008
 20
-56.9870152329
 10
2.5954146639
 20
-56.964373684
 10
2.6052646921
 20
-56.9423521048
 10
2.6171125736
 20
-56.9206466636
 10
2.6311695502
 20
-56.898907545
 10
2.6472243801
 20
-56.8774845643
 10
2.6648644263
 20
-56.8571233355
 10
2.6839473153
 20
-56.8379747706
 10
2.7046154205
 20
-56.8198879576
 10
2.7268832253
 20
-56.8031557748
 10
2.7506095356
 20
-56.7879266164
 10
2.7759355455
 20
-56.7740520882
 10
2.8032993196
 20
-56.7613798855
 10
2.8329561943
 20
-56.7497753128
 10
2.8646508333
 20
-56.7393730655
 10
2.8980552922
 20
-56.7304249256
 10
2.9331021752
 20
-56.7230326972
 10
2.9698588781
 20
-56.7170945761
 10
3.0081996437
 20
-56.7125569317
 10
3.0480825532
 20
-56.7094018869
 10
3.0895495255
 20
-56.7076473187
 10
3.1326005606
 20
-56.7072932272
  0
LWPOLYLINE
  5
2F9
100
AcDbEntity
  8
0
100
AcDbPolyline
 62
7
  6
CONTINUOUS
 90
37
 70
0
 10
11.6917104932
 20
-64.6293891629
 10
11.6751812616
 20
-64.6127620062
 10
11.6602315709
 20
-64.5953958283
 10
11.6468614208
 20
-64.5772906293
 10
11.6350698997
 20
-64.5584856082
 10
11.6248579193
 20
-64.538941566
 10
11.6162282152
 20
-64.518540905
 10
11.609172163
 20
-64.4972495561
 10
11.603698387
 20
-64.4751015884
 10
11.5998354963
 20
-64.4520816122
 10
11.5975494318
 20
-64.4278064547
 10
11.5968742524
 20
-64.4026592885
 10
11.597940744
 20
-64.3777742416
 10
11.6007808039
 20
-64.3534100731
 10
11.6053625348
 20
-64.3293080238
 10
11.6117210309
 20
-64.3058259442
 10
11.6197942939
 20
-64.2831843953
 10
11.6296443221
 20
-64.2611628161
 10
11.6414922037
 20
-64.2394573749
 10
11.6555491802
 20
-64.2177182563
 10
11.6716040102
 20
-64.1962952756
 10
11.6892440563
 20
-64.1759340468
 10
11.7083269453
 20
-64.1567854819
 10
11.7289950506
 20
-64.1386986689
 10
11.7512628554
 20
-64.1219664861
 10
11.7749891657
 20
-64.1067373277
 10
11.8003151756
 20
-64.0928627995
 10
11.8276789496
 20
-64.0801905968
 10
11.8573358244
 20
-64.0685860241
 10
11.8890304634
 20
-64.0581837768
 10
11.9224349223
 20
-64.0492356369
 10
11.9574818053
 20
-64.0418434085
 10
11.9942385081
 20
-64.0359052874
 10
12.0325792738
 20
-64.031367643
 10
12.0724621833
 20
-64.0282125982
 10
12.1139291556
 20
-64.02645803
 10
12.1569801907
 20
-64.0261039385
  0
LWPOLYLINE
  5
2FA
100
AcDbEntity
  8
0
100
AcDbPolyline
 62
7
  6
CONTINUOUS
 90
13
 70
0
 10
-2.9986655423
 20
-64.1577168073
 10
-2.9858375282
 20
-64.1727990064
 10
-2.9735634758
 20
-64.1891695459
 10
-2.9618433853
 20
-64.206828426
 10
-2.9506647664
 20
-64.2257961091
 10
-2.9400401094
 20
-64.2460521326
 10
-2.930006885
 20
-64.2675351096
 10
-2.9205890667
 20
-64.2902753401
 10
-2.9117626811
 20
-64.3142425239
 10
-2.9034932783
 20
-64.3392843738
 10
-2.8957693752
 20
-64.3653501274
 10
-2.888602455
 20
-64.392490547
 10
-2.8819925177
 20
-64.4207056326
  0
LWPOLYLINE
  5
2FB
100
AcDbEntity
  8
0
100
AcDbPolyline
 62
7
  6
CONTINUOUS
 90
22
 70
0
 10
-5.6623455497
 20
-65.8747322024
 10
-5.6782535397
 20
-65.8518857659
 10
-5.6931203054
 20
-65.8270911514
 10
-5.7069458468
 20
-65.8003483589
 10
-5.7197259231
 20
-65.7716042367
 10
-5.7314647752
 20
-65.7409119365
 10
-5.7421751246
 20
-65.7084309141
 10
-5.7517689451
 20
-65.6740636751
 10
-5.7603342631
 20
-65.6379077139
 10
-5.7681478797
 20
-65.6004149695
 10
-5.775258411
 20
-65.5616925795
 10
-5.781617241
 20
-65.5216334062
 10
-5.7873553224
 20
-65.4803679763
 10
-5.7925247214
 20
-65.4379818308
 10
-5.7970733719
 20
-65.3943894286
 10
-5.8009760285
 20
-65.3494646732
 10
-5.8042103634
 20
-65.3032075327
 10
-5.8067987045
 20
-65.2556180389
 10
-5.8087827896
 20
-65.2065701917
 10
-5.8101765314
 20
-65.1560219908
 10
-5.8109660172
 20
-65.1040154364
 10
-5.8111512471
 20
-65.0505505286
  0
LINE
  5
2FC
100
AcDbEntity
  8
0
100
AcDbLine
 62
7
  6
CONTINUOUS
 10
-2.9408033181
 20
-67.4957969412
 11
-1.9846530593
 21
-68.9392706004
  0
LWPOLYLINE
  5
2FD
100
AcDbEntity
  8
0
100
AcDbPolyline
 62
7
  6
CONTINUOUS
 90
43
 70
0
 10
-4.9260244762
 20
-64.2293332712
 10
-4.9107826179
 20
-64.2523643423
 10
-4.8965114431
 20
-64.2772152902
 10
-4.8832109518
 20
-64.303886115
 10
-4.8709164267
 20
-64.3324743679
 10
-4.8595925852
 20
-64.3628824976
 10
-4.8491335793
 20
-64.3948178504
 10
-4.8395461762
 20
-64.4281787824
 10
-4.8308236089
 20
-64.4630669374
 10
-4.822839728
 20
-64.4994945942
 10
-4.8155803966
 20
-64.53740919
 10
-4.8090597518
 20
-64.5768632876
 10
-4.8031940557
 20
-64.6180268528
 10
-4.7979635329
 20
-64.6608574456
 10
-4.7933879588
 20
-64.7053975061
 10
-4.7894429223
 20
-64.7519443207
 10
-4.7861134156
 20
-64.8007601858
 10
-4.7834144464
 20
-64.8515828049
 10
-4.7813666261
 20
-64.9039225748
 10
-4.7799932336
 20
-64.9585036308
 10
-4.7792709899
 20
-65.0146018377
 10
-4.7791506689
 20
-65.0695551863
 10
-4.7796219781
 20
-65.1226058211
 10
-4.78069521
 20
-65.1745115978
 10
-4.7823520169
 20
-65.2248840737
 10
-4.7845766895
 20
-65.2735707982
 10
-4.7873849371
 20
-65.320724222
 10
-4.7908055392
 20
-65.3664132553
 10
-4.7948350222
 20
-65.410654021
 10
-4.7994768598
 20
-65.4534303962
 10
-4.8047702526
 20
-65.4947629225
 10
-4.8106989806
 20
-65.5346590488
 10
-4.8172792639
 20
-65.5731113262
 10
-4.8245989633
 20
-65.6101179491
 10
-4.8326500531
 20
-65.6456966963
 10
-4.8414405591
 20
-65.679829789
 10
-4.8510824197
 20
-65.7124620861
 10
-4.8615801431
 20
-65.7436761953
 10
-4.8729292211
 20
-65.7733895089
 10
-4.8852280673
 20
-65.8012990624
 10
-4.8985094863
 20
-65.8273038677
 10
-4.9127406734
 20
-65.851504913
 10
-4.9279216287
 20
-65.8739021982
  0
LINE
  5
2FE
100
AcDbEntity
  8
0
100
AcDbLine
 62
7
  6
CONTINUOUS
 10
-2.0610122886
 20
-68.2598632907
 11
-2.5435930393
 21
-67.4957969412
  0
LINE
  5
2FF
100
AcDbEntity
  8
0
100
AcDbLine
 62
7
  6
CONTINUOUS
 10
-8.572
 20
40.25
 11
-7.2200000806
 21
42.65
  0
LINE
  5
300
100
AcDbEntity
  8
0
100
AcDbLine
 62
7
  6
CONTINUOUS
 10
-7.7270000806
 20
42.65
 11
-8.9100000403
 21
40.556382978
  0
LINE
  5
301
100
AcDbEntity
  8
0
100
AcDbLine
 62
7
  6
CONTINUOUS
 10
-6.4354164839
 20
45.3372340411
 11
-6.53125
 21
45.190425548
  0
LINE
  5
302
100
AcDbEntity
  8
0
100
AcDbLine
 62
7
  6
CONTINUOUS
 10
-4.009
 20
42.3946808815
 11
-5.6989998388
 21
40.25
  0
LINE
  5
303
100
AcDbEntity
  8
0
100
AcDbLine
 62
7
  6
CONTINUOUS
 10
-5.1919998388
 20
40.25
 11
-3.502
 21
42.3946808815
  0
LINE
  5
304
100
AcDbEntity
  8
0
100
AcDbLine
 62
7
  6
CONTINUOUS
 10
-6.4354164839
 20
44.8968085103
 11
-6.24375
 21
45.0925531849
  0
LINE
  5
305
100
AcDbEntity
  8
0
100
AcDbLine
 62
7
  6
CONTINUOUS
 10
-2.3189996777
 20
42.0882979393
 11
-2.1500003223
 21
42.2414894104
  0
LINE
  5
306
100
AcDbEntity
  8
0
100
AcDbLine
 62
7
  6
CONTINUOUS
 10
-0.0374996777
 20
41.6287233829
 11
0.1314996777
 21
41.781914854
  0
LINE
  5
307
100
AcDbEntity
  8
0
100
AcDbLine
 62
7
  6
CONTINUOUS
 10
3.089
 20
41.9351063251
 11
3.4269996777
 21
42.2414894104
  0
LINE
  5
308
100
AcDbEntity
  8
0
100
AcDbLine
 62
7
  6
CONTINUOUS
 10
6.8069993553
 20
42.4457447052
 11
6.5534993553
 21
42.2414894104
  0
LINE
  5
309
100
AcDbEntity
  8
0
100
AcDbLine
 62
7
  6
CONTINUOUS
 10
1.3989996777
 20
42.65
 11
0.8919996777
 21
42.2925532341
  0
LINE
  5
30A
100
AcDbEntity
  8
0
100
AcDbLine
 62
7
  6
CONTINUOUS
 10
0.8919996777
 20
41.8840425014
 11
1.3989996777
 21
42.2414894104
  0
LINE
  5
30B
100
AcDbEntity
  8
0
100
AcDbLine
 62
7
  6
CONTINUOUS
 10
3.1734996777
 20
42.4457447052
 11
2.9199996777
 21
42.2925532341
  0
LINE
  5
30C
100
AcDbEntity
  8
0
100
AcDbLine
 62
7
  6
CONTINUOUS
 10
5.0325003223
 20
40.4542553127
 11
5.2860003223
 21
40.6074468017
  0
LINE
  5
30D
100
AcDbEntity
  8
0
100
AcDbLine
 62
7
  6
CONTINUOUS
 10
6.8915
 20
41.2712766171
 11
7.0604993553
 21
41.3734042645
  0
LINE
  5
30E
100
AcDbEntity
  8
0
100
AcDbLine
 62
7
  6
CONTINUOUS
 10
7.0604993553
 20
42.2414894104
 11
7.3139993553
 21
42.3436170578
  0
LINE
  5
30F
100
AcDbEntity
  8
0
100
AcDbLine
 62
7
  6
CONTINUOUS
 10
7.2295006447
 20
41.7308510303
 11
6.7225006447
 21
41.5265957355
  0
LINE
  5
310
100
AcDbEntity
  8
0
100
AcDbLine
 62
7
  6
CONTINUOUS
 10
4.7790003223
 20
40.6585106254
 11
4.5255003223
 21
40.556382978
  0
LINE
  5
311
100
AcDbEntity
  8
0
100
AcDbLine
 62
7
  6
CONTINUOUS
 10
7.0604993553
 20
41.3734042645
 11
7.3139993553
 21
41.4755319118
  0
LINE
  5
312
100
AcDbEntity
  8
0
100
AcDbLine
 62
7
  6
CONTINUOUS
 10
8.666
 20
40.6585106254
 11
8.4125
 21
40.556382978
  0
LINE
  5
313
100
AcDbEntity
  8
0
100
AcDbLine
 62
7
  6
CONTINUOUS
 10
4.61
 20
40.3010638282
 11
5.0325003223
 21
40.4542553127
  0
LINE
  5
314
100
AcDbEntity
  8
0
100
AcDbLine
 62
7
  6
CONTINUOUS
 10
8.4970006447
 20
40.3010638282
 11
8.9195
 21
40.4542553127
  0
LWPOLYLINE
  5
315
100
AcDbEntity
  8
0
100
AcDbPolyline
 62
7
  6
CONTINUOUS
 90
10
 70
0
 10
0.5235812169
 20
-58.2878340686
 10
0.4948635431
 20
-58.2453974252
 10
0.4659379793
 20
-58.2044267328
 10
0.4368045257
 20
-58.1649219913
 10
0.4074415872
 20
-58.1268742438
 10
0.3778707589
 20
-58.0902924472
 10
0.3481568258
 20
-58.0552034727
 10
0.3183213829
 20
-58.0216162773
 10
0.2883428352
 20
-57.9895219039
 10
0.2582211827
 20
-57.9589203527
  0
LWPOLYLINE
  5
316
100
AcDbEntity
  8
0
100
AcDbPolyline
 62
7
  6
CONTINUOUS
 90
10
 70
0
 10
7.8026072
 20
-65.6066447799
 10
7.7738895261
 20
-65.5642081365
 10
7.7449639623
 20
-65.5232374441
 10
7.7158305087
 20
-65.4837327026
 10
7.6864675703
 20
-65.4456849551
 10
7.6568967419
 20
-65.4091031585
 10
7.6271828088
 20
-65.374014184
 10
7.5973473659
 20
-65.3404269886
 10
7.5673688182
 20
-65.3083326152
 10
7.5372471657
 20
-65.277731064
  0
LINE
  5
317
100
AcDbEntity
  8
0
100
AcDbLine
 62
7
  6
CONTINUOUS
 10
0.2285786384
 20
-58.4481411371
 11
0.5567809221
 21
-58.9686644742
  0
LINE
  5
318
100
AcDbEntity
  8
0
100
AcDbLine
 62
7
  6
CONTINUOUS
 10
7.5076046214
 20
-65.7669518484
 11
7.8358069052
 21
-66.2874751855
  0
LINE
  5
319
100
AcDbEntity
  8
0
100
AcDbLine
 62
7
  6
CONTINUOUS
 10
0.9490111757
 20
-58.9686644742
 11
0.5235812169
 21
-58.2878340686
  0
LINE
  5
31A
100
AcDbEntity
  8
0
100
AcDbLine
 62
7
  6
CONTINUOUS
 10
8.2280371587
 20
-66.2874751855
 11
7.8026072
 21
-65.6066447799
  0
LWPOLYLINE
  5
31B
100
AcDbEntity
  8
0
100
AcDbPolyline
 62
7
  6
CONTINUOUS
 90
10
 70
0
 10
-1.8063232738
 20
-68.6627650269
 10
-1.8302692472
 20
-68.6192897493
 10
-1.8553005242
 20
-68.5754846705
 10
-1.8814171048
 20
-68.5313497903
 10
-1.9086151254
 20
-68.4868759011
 10
-1.9368984496
 20
-68.4420722107
 10
-1.9662786689
 20
-68.396966342
 10
-1.996759647
 20
-68.351567503
 10
-2.0283375203
 20
-68.3058664859
 10
-2.0610122886
 20
-68.2598632907
  0
LINE
  5
31C
100
AcDbEntity
  8
0
100
AcDbLine
 62
7
  6
CONTINUOUS
 10
-4.9097803397
 20
-70.0
 11
-5.9128844276
 21
-67.4957969412
  0
LINE
  5
31D
100
AcDbEntity
  8
0
100
AcDbLine
 62
7
  6
CONTINUOUS
 10
-4.4333653345
 20
-62.635658324
 11
-5.4364694224
 21
-60.1314552652
  0
LINE
  5
31E
100
AcDbEntity
  8
0
100
AcDbLine
 62
7
  6
CONTINUOUS
 10
-5.914544436
 20
-68.2797831601
 11
-5.6449155771
 21
-68.9679648
  0
LINE
  5
31F
100
AcDbEntity
  8
0
100
AcDbLine
 62
7
  6
CONTINUOUS
 10
-5.4381294308
 20
-60.9154414841
 11
-5.1685005719
 21
-61.603623124
  0
LINE
  5
320
100
AcDbEntity
  8
0
100
AcDbLine
 62
7
  6
CONTINUOUS
 10
-10.0
 20
-60.1314552652
 11
-9.0372099391
 21
-62.635658324
  0
LINE
  5
321
100
AcDbEntity
  8
0
100
AcDbLine
 62
7
  6
CONTINUOUS
 10
-10.0
 20
-56.4644614154
 11
-9.0372099391
 21
-58.9686644742
  0
LINE
  5
322
100
AcDbEntity
  8
0
100
AcDbLine
 62
7
  6
CONTINUOUS
 10
-5.5441309728
 20
-69.2411505882
 11
-5.2647796706
 21
-70.0
  0
LINE
  5
323
100
AcDbEntity
  8
0
100
AcDbLine
 62
7
  6
CONTINUOUS
 10
-7.744243
 20
55.000104
 11
-8.893846
 21
51.419462
  0
LINE
  5
324
100
AcDbEntity
  8
0
100
AcDbLine
 62
7
  6
CONTINUOUS
 10
-8.37382
 20
49.79987
 11
-6.704191
 21
55.000104
  0
LINE
  5
325
100
AcDbEntity
  8
0
100
AcDbLine
 62
7
  6
CONTINUOUS
 10
-9.7895832419
 20
45.5329786986
 11
-9.3583332419
 21
46.8542553425
  0
LINE
  5
326
100
AcDbEntity
  8
0
100
AcDbLine
 62
7
  6
CONTINUOUS
 10
-10.0291667581
 20
44.75
 11
-9.8375
 21
45.3372340411
  0
LINE
  5
327
100
AcDbEntity
  8
0
100
AcDbLine
 62
7
  6
CONTINUOUS
 10
-9.55
 20
47.05
 11
-10.3166667581
 21
44.75
  0
LINE
  5
328
100
AcDbEntity
  8
0
100
AcDbLine
 62
7
  6
CONTINUOUS
 10
-11.13125
 20
47.05
 11
-11.85
 21
44.9946808562
  0
LINE
  5
329
100
AcDbEntity
  8
0
100
AcDbLine
 62
7
  6
CONTINUOUS
 10
-11.658333379
 20
44.75
 11
-10.9875
 21
46.5606383562
  0
LINE
  5
32A
100
AcDbEntity
  8
0
100
AcDbLine
 62
7
  6
CONTINUOUS
 10
-2.6569998388
 20
42.2925532341
 11
-2.7415
 21
42.0882979393
  0
LINE
  5
32B
100
AcDbEntity
  8
0
100
AcDbLine
 62
7
  6
CONTINUOUS
 10
-6.24375
 20
45.0925531849
 11
-6.1479164839
 21
45.2882978767
  0
LINE
  5
32C
100
AcDbEntity
  8
0
100
AcDbLine
 62
7
  6
CONTINUOUS
 10
2.7510003223
 20
42.0882979393
 11
2.6664996777
 21
41.9351063251
  0
LINE
  5
32D
100
AcDbEntity
  8
0
100
AcDbLine
 62
7
  6
CONTINUOUS
 10
6.5534993553
 20
42.2414894104
 11
6.3845
 21
41.9861701488
  0
LINE
  5
32E
100
AcDbEntity
  8
0
100
AcDbLine
 62
7
  6
CONTINUOUS
 10
-0.2909996777
 20
41.9861701488
 11
-0.46
 21
41.781914854
  0
LINE
  5
32F
100
AcDbEntity
  8
0
100
AcDbLine
 62
7
  6
CONTINUOUS
 10
2.9199996777
 20
42.2925532341
 11
2.7510003223
 21
42.0882979393
  0
LINE
  5
330
100
AcDbEntity
  8
0
100
AcDbLine
 62
7
  6
CONTINUOUS
 10
5.2860003223
 20
40.6074468017
 11
5.4549996777
 21
40.8117021322
  0
LINE
  5
331
100
AcDbEntity
  8
0
100
AcDbLine
 62
7
  6
CONTINUOUS
 10
5.117
 20
40.9648936033
 11
4.7790003223
 21
40.6585106254
  0
LINE
  5
332
100
AcDbEntity
  8
0
100
AcDbLine
 62
7
  6
CONTINUOUS
 10
6.8915
 20
42.0882979393
 11
7.0604993553
 21
42.2414894104
  0
LINE
  5
333
100
AcDbEntity
  8
0
100
AcDbLine
 62
7
  6
CONTINUOUS
 10
8.8349993553
 20
40.8117021322
 11
8.666
 21
40.6585106254
  0
LINE
  5
334
100
AcDbEntity
  8
ASSI
100
AcDbLine
 62
7
  6
CONTINUOUS
 10
8.3185498098
 20
37.0682818397
 11
6.793186
 21
35.782847
  0
LINE
  5
335
100
AcDbEntity
  8
ASSI
100
AcDbLine
 62
7
  6
CONTINUOUS
 10
6.793186
 20
35.115206
 11
8.247775691
 21
36.3409977396
  0
LINE
  5
336
100
AcDbEntity
  8
0
100
AcDbLine
 62
7
  6
CONTINUOUS
 10
8.9195
 20
40.4542553127
 11
9.173
 21
40.6585106254
  0
LINE
  5
337
100
AcDbEntity
  8
0
100
AcDbLine
 62
7
  6
CONTINUOUS
 10
9.5690662052
 20
-60.7150577643
 11
10.8228278588
 21
-62.635658324
  0
LINE
  5
338
100
AcDbEntity
  8
0
100
AcDbLine
 62
7
  6
CONTINUOUS
 10
10.8439332169
 20
-62.0520555933
 11
9.5901717949
 21
-60.1314552652
  0
LWPOLYLINE
  5
339
100
AcDbEntity
  8
0
100
AcDbPolyline
 62
7
  6
CONTINUOUS
 90
22
 70
0
 10
4.404858872
 20
-62.0375900373
 10
4.4343086936
 20
-62.1013599692
 10
4.4654563919
 20
-62.1610930669
 10
4.4983019669
 20
-62.2167893305
 10
4.5329076383
 20
-62.2682163871
 10
4.5692111864
 20
-62.3156066095
 10
4.607025952
 20
-62.3596571161
 10
4.6462461943
 20
-62.4004559866
 10
4.6869776541
 20
-62.4379151413
 10
4.7293508937
 20
-62.4724674592
 10
4.7730300223
 20
-62.5040722559
 10
4.8183509307
 20
-62.5327702157
 10
4.866451854
 20
-62.5591162701
 10
4.9174126345
 20
-62.5833677959
 10
4.9711534297
 20
-62.6052674163
 10
5.0285729477
 20
-62.6245979321
 10
5.0900348125
 20
-62.6414723567
 10
5.1551754
 20
-62.6557776767
 10
5.2238025458
 20
-62.6669576537
 10
5.2958521948
 20
-62.674826875
 10
5.3713884021
 20
-62.6795707533
 10
5.4504111676
 20
-62.6811892887
  0
LINE
  5
33A
100
AcDbEntity
  8
0
100
AcDbLine
 62
7
  6
CONTINUOUS
 10
-1.5193835933
 20
-58.9686644742
 11
-2.5224876812
 21
-56.4644614154
  0
LINE
  5
33B
100
AcDbEntity
  8
0
100
AcDbLine
 62
7
  6
CONTINUOUS
 10
5.7596423897
 20
-66.2874751855
 11
4.7565383018
 21
-63.7832721267
  0
LINE
  5
33C
100
AcDbEntity
  8
0
100
AcDbLine
 62
7
  6
CONTINUOUS
 10
-2.5241476896
 20
-57.2484476343
 11
-2.2545188307
 21
-57.9366292742
  0
LINE
  5
33D
100
AcDbEntity
  8
0
100
AcDbLine
 62
7
  6
CONTINUOUS
 10
4.7548782934
 20
-64.5672583456
 11
5.0245071523
 21
-65.2554399855
  0
LINE
  5
33E
100
AcDbEntity
  8
0
100
AcDbLine
 62
7
  6
CONTINUOUS
 10
0.8515465882
 20
-60.1314552652
 11
1.8143366491
 21
-62.635658324
  0
LINE
  5
33F
100
AcDbEntity
  8
0
100
AcDbLine
 62
7
  6
CONTINUOUS
 10
-5.0677159676
 20
-61.8768089122
 11
-4.7883646654
 21
-62.635658324
  0
LINE
  5
340
100
AcDbEntity
  8
0
100
AcDbLine
 62
7
  6
CONTINUOUS
 10
-2.1537342264
 20
-58.2098150625
 11
-1.8743829242
 21
-58.9686644742
  0
LINE
  5
341
100
AcDbEntity
  8
0
100
AcDbLine
 62
7
  6
CONTINUOUS
 10
5.1252917566
 20
-65.5286257738
 11
5.4046430588
 21
-66.2874751855
  0
LINE
  5
342
100
AcDbEntity
  8
0
100
AcDbLine
 62
7
  6
CONTINUOUS
 10
-6.1694705948
 20
-56.8438861213
 11
-5.4473778175
 21
-58.9686644742
  0
LINE
  5
343
100
AcDbEntity
  8
0
100
AcDbLine
 62
7
  6
CONTINUOUS
 10
1.1095553882
 20
-64.1626968326
 11
1.8316481655
 21
-66.2874751855
  0
LINE
  5
344
100
AcDbEntity
  8
0
100
AcDbLine
 62
7
  6
CONTINUOUS
 10
-5.3736435302
 20
-58.3174217216
 11
-5.9944608262
 21
-56.4644614154
  0
LINE
  5
345
100
AcDbEntity
  8
0
100
AcDbLine
 62
7
  6
CONTINUOUS
 10
1.9053824528
 20
-65.6362324329
 11
1.2845651568
 21
-63.7832721267
  0
LINE
  5
346
100
AcDbEntity
  8
0
100
AcDbLine
 62
7
  6
CONTINUOUS
 10
-5.3330868526
 20
-58.4413315666
 11
-5.3736435302
 21
-58.3174217216
  0
LINE
  5
347
100
AcDbEntity
  8
0
100
AcDbLine
 62
7
  6
CONTINUOUS
 10
1.9459391305
 20
-65.7601422779
 11
1.9053824528
 21
-65.6362324329
  0
LINE
  5
348
100
AcDbEntity
  8
0
100
AcDbLine
 62
7
  6
CONTINUOUS
 10
-5.3069421659
 20
-58.522847151
 11
-5.3330868526
 21
-58.4413315666
  0
LINE
  5
349
100
AcDbEntity
  8
0
100
AcDbLine
 62
7
  6
CONTINUOUS
 10
1.9720838171
 20
-65.8416578623
 11
1.9459391305
 21
-65.7601422779
  0
LINE
  5
34A
100
AcDbEntity
  8
0
100
AcDbLine
 62
7
  6
CONTINUOUS
 10
-5.2816166672
 20
-58.6034681803
 11
-5.3069421659
 21
-58.522847151
  0
LINE
  5
34B
100
AcDbEntity
  8
0
100
AcDbLine
 62
7
  6
CONTINUOUS
 10
1.9974093158
 20
-65.9222788916
 11
1.9720838171
 21
-65.8416578623
  0
LWPOLYLINE
  5
34C
100
AcDbEntity
  8
0
100
AcDbPolyline
 62
7
  6
CONTINUOUS
 90
10
 70
0
 10
-6.0919254136
 20
-67.7538057412
 10
-6.0750179376
 20
-67.8100906651
 10
-6.0573640852
 20
-67.8669153929
 10
-6.0389638564
 20
-67.9242799246
 10
-6.0197559232
 20
-67.9821849947
 10
-5.9998016137
 20
-68.0406298687
 10
-5.9792849118
 20
-68.0996123426
 10
-5.9582671456
 20
-68.1591316818
 10
-5.936686987
 20
-68.219188621
 10
-5.914544436
 20
-68.2797831601
  0
LWPOLYLINE
  5
34D
100
AcDbEntity
  8
0
100
AcDbPolyline
 62
7
  6
CONTINUOUS
 90
10
 70
0
 10
-5.6155104084
 20
-60.3894640652
 10
-5.5986029324
 20
-60.4457489891
 10
-5.58094908
 20
-60.5025737169
 10
-5.5625488512
 20
-60.5599382486
 10
-5.543340918
 20
-60.6178433187
 10
-5.5233866085
 20
-60.6762881927
 10
-5.5028699066
 20
-60.7352706666
 10
-5.4818521404
 20
-60.7947900058
 10
-5.4602719818
 20
-60.854846945
 10
-5.4381294308
 20
-60.9154414841
  0
LWPOLYLINE
  5
34E
100
AcDbEntity
  8
0
100
AcDbPolyline
 62
7
  6
CONTINUOUS
 90
10
 70
0
 10
-2.7015286673
 20
-56.7224702154
 10
-2.6846211912
 20
-56.7787551394
 10
-2.6669673388
 20
-56.8355798672
 10
-2.64856711
 20
-56.8929443988
 10
-2.6293591769
 20
-56.9508494689
 10
-2.6094048673
 20
-57.0092943429
 10
-2.5888881654
 20
-57.0682768168
 10
-2.5678703992
 20
-57.1277961561
 10
-2.5462902406
 20
-57.1878530952
 10
-2.5241476896
 20
-57.2484476343
  0
LWPOLYLINE
  5
34F
100
AcDbEntity
  8
0
100
AcDbPolyline
 62
7
  6
CONTINUOUS
 90
10
 70
0
 10
-8.8633858908
 20
-62.3548839258
 10
-8.8758017328
 20
-62.3109689489
 10
-8.8887689435
 20
-62.2666744602
 10
-8.9022875228
 20
-62.2220004596
 10
-8.9163654755
 20
-62.1769444615
 10
-8.9309947969
 20
-62.1315089516
 10
-8.9461514729
 20
-62.0857013867
 10
-8.9618274991
 20
-62.0395242526
 10
-8.97803088
 20
-61.9929750636
 10
-9.6450009007
 20
-60.1314552652
  0
LWPOLYLINE
  5
350
100
AcDbEntity
  8
0
100
AcDbPolyline
 62
7
  6
CONTINUOUS
 90
10
 70
0
 10
-8.8633858908
 20
-58.6878900761
 10
-8.8758017328
 20
-58.6439750992
 10
-8.8887689435
 20
-58.5996806104
 10
-8.9022875228
 20
-58.5550066098
 10
-8.9163654755
 20
-58.5099506117
 10
-8.9309947969
 20
-58.4645151018
 10
-8.9461514729
 20
-58.4187075369
 10
-8.9618274991
 20
-58.3725304029
 10
-8.97803088
 20
-58.3259812139
 10
-9.6450009007
 20
-56.4644614154
  0
LWPOLYLINE
  5
351
100
AcDbEntity
  8
0
100
AcDbPolyline
 62
7
  6
CONTINUOUS
 90
12
 70
0
 10
-8.0469368219
 20
-65.4988320397
 10
-8.0360314167
 20
-65.5643765873
 10
-8.0232394737
 20
-65.6269064004
 10
-8.0085361377
 20
-65.6864768494
 10
-7.9919462639
 20
-65.743032564
 10
-7.9735834177
 20
-65.7964432487
 10
-7.9533592288
 20
-65.8467104715
 10
-7.9313620675
 20
-65.8938326644
 10
-7.9079706101
 20
-65.9376748276
 10
-7.8833110823
 20
-65.9781919612
 10
-7.8572572584
 20
-66.015429065
 10
-7.8298091386
 20
-66.0493861392
  0
LWPOLYLINE
  5
352
100
AcDbEntity
  8
0
100
AcDbPolyline
 62
7
  6
CONTINUOUS
 90
19
 70
0
 10
-8.3676284587
 20
-65.441590486
 10
-8.3748636066
 20
-65.3973906141
 10
-8.3846871991
 20
-65.3551543759
 10
-8.3968538774
 20
-65.3149457173
 10
-8.4113659848
 20
-65.2768914772
 10
-8.428221178
 20
-65.2408648167
 10
-8.4471670685
 20
-65.2065491658
 10
-8.4681321697
 20
-65.1738491504
 10
-8.4911879681
 20
-65.1428601444
 10
-8.5162965349
 20
-65.1135516996
 10
-8.5433936044
 20
-65.0858708573
 10
-8.5725434421
 20
-65.059870576
 10
-8.6039009162
 20
-65.0356792827
 10
-8.637403199
 20
-65.0132650635
 10
-8.6731131182
 20
-64.9926598322
 10
-8.7113740241
 20
-64.9740877565
 10
-8.7523003669
 20
-64.9576235591
 10
-8.7957776965
 20
-64.9431925173
 10
-8.8418060129
 20
-64.9307946311
  0
LWPOLYLINE
  5
353
100
AcDbEntity
  8
0
100
AcDbPolyline
 62
7
  6
CONTINUOUS
 90
52
 70
0
 10
-10.0
 20
-65.6348646914
 10
-9.9925071801
 20
-65.6898573678
 10
-9.9824907837
 20
-65.7422539287
 10
-9.9699508108
 20
-65.792054374
 10
-9.9548724846
 20
-65.8390288254
 10
-9.9372705819
 20
-65.8834071613
 10
-9.9171894331
 20
-65.9258790165
 10
-9.894718055
 20
-65.9665193136
 10
-9.8697674308
 20
-66.0052531301
 10
-9.8421148408
 20
-66.0425453323
 10
-9.8114082193
 20
-66.0788469364
 10
-9.777999632
 20
-66.1137069263
 10
-9.7427225555
 20
-66.1462371205
 10
-9.7057520064
 20
-66.1762520108
 10
-9.6669129681
 20
-66.2039371055
 10
-9.6265138674
 20
-66.228960748
 10
-9.5848937412
 20
-66.2511825404
 10
-9.5417135525
 20
-66.2707428807
 10
-9.4962646174
 20
-66.2877313063
 10
-9.4484260077
 20
-66.3022989344
 10
-9.3983186516
 20
-66.3142946479
 10
-9.3455966504
 20
-66.3233546332
 10
-9.2892627963
 20
-66.3294570597
 10
-9.2303142972
 20
-66.3326237579
 10
-9.1713968776
 20
-66.3325564058
 10
-9.1124924539
 20
-66.3290278089
 10
-9.0536191099
 20
-66.3222651615
 10
-8.9974768214
 20
-66.3126517245
 10
-8.9452102844
 20
-66.3002437123
 10
-8.895674803
 20
-66.2849849105
 10
-8.8481362656
 20
-66.2670899363
 10
-8.8025932529
 20
-66.2467419355
 10
-8.7590471842
 20
-66.2237577624
 10
-8.7167682053
 20
-66.1978025968
 10
-8.6751792506
 20
-66.1684665358
 10
-8.6348573857
 20
-66.1361594824
 10
-8.5968039537
 20
-66.1017763249
 10
-8.5610495827
 20
-66.0652219554
 10
-8.5275636445
 20
-66.026591482
 10
-8.4972555978
 20
-65.9870651167
 10
-8.4705266006
 20
-65.9471079313
 10
-8.4469754949
 20
-65.9062548541
 10
-8.426308265
 20
-65.8642908811
 10
-8.4084483576
 20
-65.8212495394
 10
-8.393472326
 20
-65.7770973019
 10
-8.3813158141
 20
-65.7315185834
 10
-8.3719510549
 20
-65.6838848006
 10
-8.3654058156
 20
-65.6348245369
 10
-8.3616990417
 20
-65.5859079571
 10
-8.3609203888
 20
-65.5370517996
 10
-8.3629802015
 20
-65.488339326
 10
-8.3676284587
 20
-65.441590486
  0
LINE
  5
354
100
AcDbEntity
  8
0
100
AcDbLine
 62
7
  6
CONTINUOUS
 10
-13.5
 20
56.75
 11
-13.5
 21
29.75
  0
LINE
  5
355
100
AcDbEntity
  8
0
100
AcDbLine
 62
7
  6
CONTINUOUS
 10
-13.0
 20
47.05
 11
-13.0
 21
44.75
  0
LINE
  5
356
100
AcDbEntity
  8
0
100
AcDbLine
 62
7
  6
CONTINUOUS
 10
-12.7125
 20
44.75
 11
-12.7125
 21
46.5606383562
  0
LINE
  5
357
100
AcDbEntity
  8
0
100
AcDbLine
 62
7
  6
CONTINUOUS
 10
-10.9875
 20
46.5606383562
 11
-10.9875
 21
44.75
  0
LINE
  5
358
100
AcDbEntity
  8
0
100
AcDbLine
 62
7
  6
CONTINUOUS
 10
-10.7
 20
44.75
 11
-10.7
 21
47.05
  0
LINE
  5
359
100
AcDbEntity
  8
0
100
AcDbLine
 62
7
  6
CONTINUOUS
 10
-10.0
 20
-67.4957969412
 11
-10.0
 21
-70.0
  0
LINE
  5
35A
100
AcDbEntity
  8
0
100
AcDbLine
 62
7
  6
CONTINUOUS
 10
-9.6661062588
 20
-70.0
 11
-9.6661062588
 21
-67.4957969412
  0
LINE
  5
35B
100
AcDbEntity
  8
0
100
AcDbLine
 62
7
  6
CONTINUOUS
 10
-9.2563275765
 20
-67.4957969412
 11
-9.2563275765
 21
-67.7841597177
  0
LINE
  5
35C
100
AcDbEntity
  8
0
100
AcDbLine
 62
7
  6
CONTINUOUS
 10
-8.4367702118
 20
-67.7841597177
 11
-8.4367702118
 21
-70.0
  0
LINE
  5
35D
100
AcDbEntity
  8
0
100
AcDbLine
 62
7
  6
CONTINUOUS
 10
-6.1479164839
 20
45.2882978767
 11
-6.1
 21
45.5329786986
  0
LINE
  5
35E
100
AcDbEntity
  8
0
100
AcDbLine
 62
7
  6
CONTINUOUS
 10
-6.3875
 20
45.5329786986
 11
-6.4354164839
 21
45.3372340411
  0
LINE
  5
35F
100
AcDbEntity
  8
0
100
AcDbLine
 62
7
  6
CONTINUOUS
 10
-0.416364
 20
55.000104
 11
-1.387451
 21
51.613526
  0
LINE
  5
360
100
AcDbEntity
  8
0
100
AcDbLine
 62
7
  6
CONTINUOUS
 10
-0.867451
 20
49.799883
 11
0.115843
 21
53.229075
  0
LINE
  5
361
100
AcDbEntity
  8
0
100
AcDbLine
 62
7
  6
CONTINUOUS
 10
3.518853
 20
55.000117
 11
1.84925
 21
49.79987
  0
LINE
  5
362
100
AcDbEntity
  8
0
100
AcDbLine
 62
7
  6
CONTINUOUS
 10
2.889289
 20
49.799883
 11
3.21763
 21
50.822541
  0
LINE
  5
363
100
AcDbEntity
  8
0
100
AcDbLine
 62
7
  6
CONTINUOUS
 10
3.534869
 20
51.81058
 11
4.038892
 21
53.380512
  0
LINE
  5
364
100
AcDbEntity
  8
0
100
AcDbLine
 62
7
  6
CONTINUOUS
 10
2.6664996777
 20
41.9351063251
 11
2.582
 21
41.6797872066
  0
LINE
  5
365
100
AcDbEntity
  8
0
100
AcDbLine
 62
7
  6
CONTINUOUS
 10
0.1314996777
 20
41.781914854
 11
0.2160003223
 21
41.9861701488
  0
LINE
  5
366
100
AcDbEntity
  8
0
100
AcDbLine
 62
7
  6
CONTINUOUS
 10
5.4549996777
 20
40.8117021322
 11
5.5395003223
 21
40.9648936033
  0
LINE
  5
367
100
AcDbEntity
  8
0
100
AcDbLine
 62
7
  6
CONTINUOUS
 10
6.8069993553
 20
41.9351063251
 11
6.8915
 21
42.0882979393
  0
LINE
  5
368
100
AcDbEntity
  8
0
100
AcDbLine
 62
7
  6
CONTINUOUS
 10
6.8069993553
 20
41.1180850744
 11
6.8915
 21
41.2712766171
  0
LINE
  5
369
100
AcDbEntity
  8
0
100
AcDbLine
 62
7
  6
CONTINUOUS
 10
8.9195
 20
40.9648936033
 11
8.8349993553
 21
40.8117021322
  0
LINE
  5
36A
100
AcDbEntity
  8
ASSI
100
AcDbLine
 62
7
  6
CONTINUOUS
 10
5.2413280513
 20
33.0074530914
 11
5.4915758065
 21
33.4533146552
  0
LINE
  5
36B
100
AcDbEntity
  8
0
100
AcDbLine
 62
7
  6
CONTINUOUS
 10
9.173
 20
40.6585106254
 11
9.3419993553
 21
40.9138297796
  0
LINE
  5
36C
100
AcDbEntity
  8
0
100
AcDbLine
 62
7
  6
CONTINUOUS
 10
12.7791659355
 20
47.05
 11
12.15625
 21
46.1202127397
  0
LINE
  5
36D
100
AcDbEntity
  8
0
100
AcDbLine
 62
7
  6
CONTINUOUS
 10
12.3
 20
45.9244680822
 11
13.0666659355
 21
47.05
  0
LINE
  5
36E
100
AcDbEntity
  8
ASSI
100
AcDbLine
 62
7
  6
CONTINUOUS
 10
8.468797
 20
31.036901
 11
8.752489
 21
31.439077
  0
LWPOLYLINE
  5
36F
100
AcDbEntity
  8
0
100
AcDbPolyline
 62
7
  6
CONTINUOUS
 90
22
 70
0
 10
16.7226449491
 20
-65.6894068988
 10
16.7520947707
 20
-65.7531768307
 10
16.783242469
 20
-65.8129099284
 10
16.816088044
 20
-65.868606192
 10
16.8506937154
 20
-65.9200332486
 10
16.8869972636
 20
-65.967423471
 10
16.9248120291
 20
-66.0114739776
 10
16.9640322715
 20
-66.0522728482
 10
17.0047637312
 20
-66.0897320029
 10
17.0471369708
 20
-66.1242843207
 10
17.0908160994
 20
-66.1558891174
 10
17.1361370079
 20
-66.1845870773
 10
17.1842379311
 20
-66.2109331317
 10
17.2351987116
 20
-66.2351846575
 10
17.2889395069
 20
-66.2570842778
 10
17.3463590248
 20
-66.2764147937
 10
17.4078208896
 20
-66.2932892182
 10
17.4729614772
 20
-66.3075945382
 10
17.5415886229
 20
-66.3187745153
 10
17.613638272
 20
-66.3266437366
 10
17.6891744792
 20
-66.3313876149
 10
17.7681972447
 20
-66.3330061502
  0
LINE
  5
370
100
AcDbEntity
  8
0
100
AcDbLine
 62
7
  6
CONTINUOUS
 10
8.9375613008
 20
-58.9686644742
 11
7.9344572129
 21
-56.4644614154
  0
LINE
  5
371
100
AcDbEntity
  8
0
100
AcDbLine
 62
7
  6
CONTINUOUS
 10
15.9037989008
 20
-62.635658324
 11
14.9006948129
 21
-60.1314552652
  0
LINE
  5
372
100
AcDbEntity
  8
0
100
AcDbLine
 62
7
  6
CONTINUOUS
 10
7.9327972045
 20
-57.2484476343
 11
8.2024260634
 21
-57.9366292742
  0
LINE
  5
373
100
AcDbEntity
  8
0
100
AcDbLine
 62
7
  6
CONTINUOUS
 10
14.8990348045
 20
-60.9154414841
 11
15.1686636634
 21
-61.603623124
  0
LINE
  5
374
100
AcDbEntity
  8
0
100
AcDbLine
 62
7
  6
CONTINUOUS
 10
8.3032106677
 20
-58.2098150625
 11
8.5825619699
 21
-58.9686644742
  0
LWPOLYLINE
  5
375
100
AcDbEntity
  8
0
100
AcDbPolyline
 62
7
  6
CONTINUOUS
 90
3
 70
0
 10
4.3455955372
 20
-61.8743972685
 10
4.3730789975
 20
-61.9571766529
 10
4.404858872
 20
-62.0375900373
  0
LWPOLYLINE
  5
376
100
AcDbEntity
  8
0
100
AcDbPolyline
 62
7
  6
CONTINUOUS
 90
56
 70
0
 10
6.4274296405
 20
-60.8191623854
 10
6.4057039756
 20
-60.7514042117
 10
6.38160209
 20
-60.6874858894
 10
6.3551239836
 20
-60.6274074183
 10
6.3262114727
 20
-60.5713899004
 10
6.294922741
 20
-60.5192122338
 10
6.2614323402
 20
-60.4702111129
 10
6.225720756
 20
-60.4242631874
 10
6.1878075028
 20
-60.3814918075
 10
6.1479256748
 20
-60.3416037191
 10
6.1061713696
 20
-60.3045195668
 10
6.0624484898
 20
-60.2703187059
 10
6.0167018373
 20
-60.2389459486
 10
5.9690953646
 20
-60.2103829327
 10
5.9194651192
 20
-60.1846480205
 10
5.8672640463
 20
-60.1617411107
 10
5.8125125503
 20
-60.1415497939
 10
5.7551902267
 20
-60.1241864796
 10
5.6946888069
 20
-60.1099882951
 10
5.630336262
 20
-60.0989018715
 10
5.5628046209
 20
-60.0909805777
 10
5.4935017005
 20
-60.086721647
 10
5.4218971963
 20
-60.0862320702
 10
5.3485214128
 20
-60.0894048566
 10
5.2763730814
 20
-60.0964162676
 10
5.2061398114
 20
-60.1074625705
 10
5.1371339935
 20
-60.1223474981
 10
5.0702915311
 20
-60.1406585096
 10
5.0057551383
 20
-60.1624369819
 10
4.9433821011
 20
-60.1876415382
 10
4.88368018
 20
-60.2157355073
 10
4.8266749334
 20
-60.2467248616
 10
4.772340803
 20
-60.2806036288
 10
4.7211088748
 20
-60.3168172205
 10
4.6733484983
 20
-60.3549835318
 10
4.628690324
 20
-60.3954846677
 10
4.5864573891
 20
-60.438912355
 10
4.5465140175
 20
-60.4852164618
 10
4.5089958853
 20
-60.5344471199
 10
4.4736330582
 20
-60.587346452
 10
4.4401000112
 20
-60.6441539549
 10
4.4087222693
 20
-60.7046301318
 10
4.3802064728
 20
-60.7687986143
 10
4.3545722973
 20
-60.8364961112
 10
4.3318000673
 20
-60.9078859136
 10
4.3125373972
 20
-60.9834815267
 10
4.296753178
 20
-61.063705397
 10
4.2844785188
 20
-61.148135078
 10
4.2764543609
 20
-61.2360167354
 10
4.2728033639
 20
-61.3287671885
 10
4.2734028683
 20
-61.4249696179
 10
4.2786258369
 20
-61.5196197314
 10
4.2887056074
 20
-61.6113206596
 10
4.3034088421
 20
-61.7014692719
 10
4.3224084909
 20
-61.7892518842
 10
4.3455955372
 20
-61.8743972685
  0
LWPOLYLINE
  5
377
100
AcDbEntity
  8
0
100
AcDbPolyline
 62
7
  6
CONTINUOUS
 90
10
 70
0
 10
4.5774973158
 20
-64.0412809267
 10
4.5944047918
 20
-64.0975658507
 10
4.6120586442
 20
-64.1543905785
 10
4.630458873
 20
-64.2117551101
 10
4.6496668062
 20
-64.2696601802
 10
4.6696211157
 20
-64.3281050542
 10
4.6901378176
 20
-64.3870875281
 10
4.7111555838
 20
-64.4466068674
 10
4.7327357424
 20
-64.5066638065
 10
4.7548782934
 20
-64.5672583456
  0
LWPOLYLINE
  5
378
100
AcDbEntity
  8
0
100
AcDbPolyline
 62
7
  6
CONTINUOUS
 90
10
 70
0
 10
7.7554162268
 20
-56.7224702154
 10
7.7723237029
 20
-56.7787551394
 10
7.7899775553
 20
-56.8355798672
 10
7.8083777841
 20
-56.8929443988
 10
7.8275857172
 20
-56.9508494689
 10
7.8475400268
 20
-57.0092943429
 10
7.8680567287
 20
-57.0682768168
 10
7.8890744949
 20
-57.1277961561
 10
7.9106546535
 20
-57.1878530952
 10
7.9327972045
 20
-57.2484476343
  0
LWPOLYLINE
  5
379
100
AcDbEntity
  8
0
100
AcDbPolyline
 62
7
  6
CONTINUOUS
 90
10
 70
0
 10
1.9881606974
 20
-62.3548839258
 10
1.9757448554
 20
-62.3109689489
 10
1.9627776447
 20
-62.2666744602
 10
1.9492590654
 20
-62.2220004596
 10
1.9351811127
 20
-62.1769444615
 10
1.9205517913
 20
-62.1315089516
 10
1.9053951153
 20
-62.0857013867
 10
1.8897190891
 20
-62.0395242526
 10
1.8735157082
 20
-61.9929750636
 10
1.2065456875
 20
-60.1314552652
  0
LWPOLYLINE
  5
37A
100
AcDbEntity
  8
0
100
AcDbPolyline
 62
7
  6
CONTINUOUS
 90
12
 70
0
 10
-4.1616278336
 20
-65.4988320397
 10
-4.1507224285
 20
-65.5643765873
 10
-4.1379304855
 20
-65.6269064004
 10
-4.1232271495
 20
-65.6864768494
 10
-4.1066372757
 20
-65.743032564
 10
-4.0882744294
 20
-65.7964432487
 10
-4.0680502405
 20
-65.8467104715
 10
-4.0460530792
 20
-65.8938326644
 10
-4.0226616219
 20
-65.9376748276
 10
-3.9980020941
 20
-65.9781919612
 10
-3.9719482702
 20
-66.015429065
 10
-3.9445001504
 20
-66.0493861392
  0
LWPOLYLINE
  5
37B
100
AcDbEntity
  8
0
100
AcDbPolyline
 62
7
  6
CONTINUOUS
 90
19
 70
0
 10
-0.5970104823
 20
-65.441590486
 10
-0.6042456301
 20
-65.3973906141
 10
-0.6140692227
 20
-65.3551543759
 10
-0.626235901
 20
-65.3149457173
 10
-0.6407480084
 20
-65.2768914772
 10
-0.6576032016
 20
-65.2408648167
 10
-0.676549092
 20
-65.2065491658
 10
-0.6975141932
 20
-65.1738491504
 10
-0.7205699917
 20
-65.1428601444
 10
-0.7456785585
 20
-65.1135516996
 10
-0.7727756279
 20
-65.0858708573
 10
-0.8019254657
 20
-65.059870576
 10
-0.8332829397
 20
-65.0356792827
 10
-0.8667852226
 20
-65.0132650635
 10
-0.9024951417
 20
-64.9926598322
 10
-0.9407560476
 20
-64.9740877565
 10
-0.9816823905
 20
-64.9576235591
 10
-1.0251597201
 20
-64.9431925173
 10
-1.0711880365
 20
-64.9307946311
  0
LWPOLYLINE
  5
37C
100
AcDbEntity
  8
0
100
AcDbPolyline
 62
7
  6
CONTINUOUS
 90
59
 70
0
 10
-6.4637617412
 20
-64.3903516561
 10
-6.4721427306
 20
-64.3376741803
 10
-6.4827145918
 20
-64.2877217231
 10
-6.495477325
 20
-64.2404942846
 10
-6.5104390451
 20
-64.1962101346
 10
-6.5275916372
 20
-64.1546510034
 10
-6.5469107557
 20
-64.1151620812
 10
-6.568469902
 20
-64.077545877
 10
-6.5921955749
 20
-64.041999882
 10
-6.6178429253
 20
-64.0084617595
 10
-6.6454196442
 20
-63.9768430392
 10
-6.6749180407
 20
-63.9472321916
 10
-6.7060701936
 20
-63.9198322911
 10
-6.7387143985
 20
-63.8947275942
 10
-6.7730123598
 20
-63.8718338445
 10
-6.8091812696
 20
-63.8511013474
 10
-6.8471214662
 20
-63.8324562124
 10
-6.8869326114
 20
-63.8159723299
 10
-6.9291308823
 20
-63.8018216769
 10
-6.9738982137
 20
-63.7899334145
 10
-7.0210526707
 20
-63.7803783814
 10
-7.0705646264
 20
-63.7735410703
 10
-7.1233416842
 20
-63.7694599845
 10
-7.1784762407
 20
-63.7680966207
 10
-7.2332158587
 20
-63.7697199614
 10
-7.2873528638
 20
-63.7745380744
 10
-7.3410949305
 20
-63.7823428919
 10
-7.3923126453
 20
-63.7927791933
 10
-7.4400420621
 20
-63.8057608142
 10
-7.4852471269
 20
-63.821373919
 10
-7.5286902647
 20
-63.8395217798
 10
-7.5704423011
 20
-63.8600733085
 10
-7.6104324104
 20
-63.8831595934
 10
-7.6492105409
 20
-63.9090771712
 10
-7.6870440701
 20
-63.9378606747
 10
-7.7236656205
 20
-63.9694754713
 10
-7.7588230071
 20
-64.0041141993
 10
-7.7924676222
 20
-64.0416281123
 10
-7.8246480736
 20
-64.0821659567
 10
-7.8552579997
 20
-64.126366611
 10
-7.8844064125
 20
-64.1743672023
 10
-7.9119843
 20
-64.2260306033
 10
-7.9375582646
 20
-64.2815843104
 10
-7.9610630662
 20
-64.3411670454
 10
-7.9825639449
 20
-64.4046400864
 10
-8.0018232233
 20
-64.471814764
 10
-8.0187957242
 20
-64.5426704844
 10
-8.0335266249
 20
-64.6172278414
 10
-8.0459137789
 20
-64.6953599463
 10
-8.0559064584
 20
-64.7782413909
 10
-8.0635553913
 20
-64.8646975834
 10
-8.0689106148
 20
-64.9510778603
 10
-8.0718798243
 20
-65.0372848531
 10
-8.0725553244
 20
-65.1234159302
 10
-8.0712640658
 20
-65.2061125334
 10
-8.068101292
 20
-65.2841271689
 10
-8.0629717595
 20
-65.3587073305
 10
-8.0559166893
 20
-65.4302369421
 10
-8.0469368219
 20
-65.4988320397
  0
LWPOLYLINE
  5
37D
100
AcDbEntity
  8
0
100
AcDbPolyline
 62
7
  6
CONTINUOUS
 90
59
 70
0
 10
-2.578452753
 20
-64.3903516561
 10
-2.5868337423
 20
-64.3376741803
 10
-2.5974056036
 20
-64.2877217231
 10
-2.6101683367
 20
-64.2404942846
 10
-2.6251300569
 20
-64.1962101346
 10
-2.6422826489
 20
-64.1546510034
 10
-2.6616017675
 20
-64.1151620812
 10
-2.6831609138
 20
-64.077545877
 10
-2.7068865866
 20
-64.041999882
 10
-2.7325339371
 20
-64.0084617595
 10
-2.760110656
 20
-63.9768430392
 10
-2.7896090525
 20
-63.9472321916
 10
-2.8207612054
 20
-63.9198322911
 10
-2.8534054103
 20
-63.8947275942
 10
-2.8877033716
 20
-63.8718338445
 10
-2.9238722814
 20
-63.8511013474
 10
-2.961812478
 20
-63.8324562124
 10
-3.0016236232
 20
-63.8159723299
 10
-3.0438218941
 20
-63.8018216769
 10
-3.0885892254
 20
-63.7899334145
 10
-3.1357436825
 20
-63.7803783814
 10
-3.1852556382
 20
-63.7735410703
 10
-3.238032696
 20
-63.7694599845
 10
-3.2931672524
 20
-63.7680966207
 10
-3.3479068705
 20
-63.7697199614
 10
-3.4020438756
 20
-63.7745380744
 10
-3.4557859423
 20
-63.7823428919
 10
-3.5070036571
 20
-63.7927791933
 10
-3.5547330739
 20
-63.8057608142
 10
-3.5999381387
 20
-63.821373919
 10
-3.6433812765
 20
-63.8395217798
 10
-3.6851333129
 20
-63.8600733085
 10
-3.7251234222
 20
-63.8831595934
 10
-3.7639015527
 20
-63.9090771712
 10
-3.8017350819
 20
-63.9378606747
 10
-3.8383566323
 20
-63.9694754713
 10
-3.8735140189
 20
-64.0041141993
 10
-3.907158634
 20
-64.0416281123
 10
-3.9393390854
 20
-64.0821659567
 10
-3.9699490115
 20
-64.126366611
 10
-3.9990974243
 20
-64.1743672023
 10
-4.0266753118
 20
-64.2260306033
 10
-4.0522492764
 20
-64.2815843104
 10
-4.075754078
 20
-64.3411670454
 10
-4.0972549567
 20
-64.4046400864
 10
-4.116514235
 20
-64.471814764
 10
-4.133486736
 20
-64.5426704844
 10
-4.1482176367
 20
-64.6172278414
 10
-4.1606047907
 20
-64.6953599463
 10
-4.1705974702
 20
-64.7782413909
 10
-4.1782464031
 20
-64.8646975834
 10
-4.1836016266
 20
-64.9510778603
 10
-4.1865708361
 20
-65.0372848531
 10
-4.1872463361
 20
-65.1234159302
 10
-4.1859550776
 20
-65.2061125334
 10
-4.1827923037
 20
-65.2841271689
 10
-4.1776627713
 20
-65.3587073305
 10
-4.1706077011
 20
-65.4302369421
 10
-4.1616278336
 20
-65.4988320397
  0
LWPOLYLINE
  5
37E
100
AcDbEntity
  8
0
100
AcDbPolyline
 62
7
  6
CONTINUOUS
 90
52
 70
0
 10
-2.2293820235
 20
-65.6348646914
 10
-2.2218892036
 20
-65.6898573678
 10
-2.2118728072
 20
-65.7422539287
 10
-2.1993328343
 20
-65.792054374
 10
-2.1842545081
 20
-65.8390288254
 10
-2.1666526054
 20
-65.8834071613
 10
-2.1465714567
 20
-65.9258790165
 10
-2.1241000786
 20
-65.9665193136
 10
-2.0991494544
 20
-66.0052531301
 10
-2.0714968643
 20
-66.0425453323
 10
-2.0407902429
 20
-66.0788469364
 10
-2.0073816555
 20
-66.1137069263
 10
-1.972104579
 20
-66.1462371205
 10
-1.9351340299
 20
-66.1762520108
 10
-1.8962949917
 20
-66.2039371055
 10
-1.855895891
 20
-66.228960748
 10
-1.8142757647
 20
-66.2511825404
 10
-1.771095576
 20
-66.2707428807
 10
-1.725646641
 20
-66.2877313063
 10
-1.6778080312
 20
-66.3022989344
 10
-1.6277006751
 20
-66.3142946479
 10
-1.5749786739
 20
-66.3233546332
 10
-1.5186448199
 20
-66.3294570597
 10
-1.4596963207
 20
-66.3326237579
 10
-1.4007789012
 20
-66.3325564058
 10
-1.3418744775
 20
-66.3290278089
 10
-1.2830011334
 20
-66.3222651615
 10
-1.2268588449
 20
-66.3126517245
 10
-1.174592308
 20
-66.3002437123
 10
-1.1250568266
 20
-66.2849849105
 10
-1.0775182892
 20
-66.2670899363
 10
-1.0319752765
 20
-66.2467419355
 10
-0.9884292078
 20
-66.2237577624
 10
-0.9461502289
 20
-66.1978025968
 10
-0.9045612741
 20
-66.1684665358
 10
-0.8642394093
 20
-66.1361594824
 10
-0.8261859772
 20
-66.1017763249
 10
-0.7904316062
 20
-66.0652219554
 10
-0.756945668
 20
-66.026591482
 10
-0.7266376213
 20
-65.9870651167
 10
-0.6999086242
 20
-65.9471079313
 10
-0.6763575185
 20
-65.9062548541
 10
-0.6556902886
 20
-65.8642908811
 10
-0.6378303812
 20
-65.8212495394
 10
-0.6228543495
 20
-65.7770973019
 10
-0.6106978377
 20
-65.7315185834
 10
-0.6013330785
 20
-65.6838848007
 10
-0.5947878391
 20
-65.6348245369
 10
-0.5910810652
 20
-65.5859079571
 10
-0.5903024124
 20
-65.5370517996
 10
-0.592362225
 20
-65.488339326
 10
-0.5970104823
 20
-65.441590486
  0
LWPOLYLINE
  5
37F
100
AcDbEntity
  8
0
100
AcDbPolyline
 62
7
  6
CONTINUOUS
 90
28
 70
0
 10
4.0598194758
 20
-57.1626028742
 10
4.0562624757
 20
-57.1128557029
 10
4.0501825931
 20
-57.0647518638
 10
4.0415798279
 20
-57.0182913568
 10
4.0303602605
 20
-56.9734683137
 10
4.0166178104
 20
-56.9302886027
 10
4.0006342372
 20
-56.8887698287
 10
3.9824355646
 20
-56.8489050694
 10
3.9619957689
 20
-56.810701247
 10
3.9395185381
 20
-56.7741967329
 10
3.9150602045
 20
-56.739382039
 10
3.888564436
 20
-56.7062666533
 10
3.8600659234
 20
-56.6749174113
 10
3.8297453389
 20
-56.645413233
 10
3.7974220104
 20
-56.6176751984
 10
3.7625886134
 20
-56.5915333827
 10
3.7252469685
 20
-56.5669359999
 10
3.685395255
 20
-56.543934836
 10
3.6425206867
 20
-56.5225153236
 10
3.5964535385
 20
-56.5025036121
 10
3.5473635355
 20
-56.484073552
 10
3.4952470664
 20
-56.4677321277
 10
3.4400905106
 20
-56.4534864244
 10
3.3819074888
 20
-56.4413293567
 10
3.3207352511
 20
-56.4317466527
 10
3.2565862143
 20
-56.4249002217
 10
3.1894479617
 20
-56.4206281544
 10
3.1193204933
 20
-56.4189304507
  0
LWPOLYLINE
  5
380
100
AcDbEntity
  8
0
100
AcDbPolyline
 62
7
  6
CONTINUOUS
 90
28
 70
0
 10
2.1475189581
 20
-58.1491071095
 10
2.1509818583
 20
-58.2078631463
 10
2.1574141813
 20
-58.2646220914
 10
2.1668159273
 20
-58.3193839447
 10
2.1792645914
 20
-58.3720583067
 10
2.1946826784
 20
-58.4227355769
 10
2.2128377026
 20
-58.4716869538
 10
2.2337832232
 20
-58.5191064857
 10
2.2574656809
 20
-58.5648001241
 10
2.2834919116
 20
-58.6084569224
 10
2.3118437826
 20
-58.6500882609
 10
2.3425394266
 20
-58.6896827592
 10
2.3752400778
 20
-58.7268953299
 10
2.4096479255
 20
-58.7614915265
 10
2.4460607804
 20
-58.7937057955
 10
2.4850333097
 20
-58.8238963882
 10
2.5264729037
 20
-58.8521761622
 10
2.5704721721
 20
-58.8784322599
 10
2.6178636109
 20
-58.9026843599
 10
2.668829114
 20
-58.9251087134
 10
2.7231867874
 20
-58.9455290691
 10
2.7812234446
 20
-58.9634363522
 10
2.8431479778
 20
-58.9787679795
 10
2.9087514949
 20
-58.9915865342
 10
2.9776941328
 20
-59.0015706901
 10
3.0498626039
 20
-59.0086133385
 10
3.1253701959
 20
-59.0128215881
 10
3.2042169087
 20
-59.0141954389
  0
LWPOLYLINE
  5
381
100
AcDbEntity
  8
0
100
AcDbPolyline
 62
7
  6
CONTINUOUS
 90
61
 70
0
 10
-6.1146910118
 20
-65.0514991048
 10
-6.1137698759
 20
-65.1356849752
 10
-6.1110681422
 20
-65.2168643542
 10
-6.1065858105
 20
-65.2950372419
 10
-6.1003090927
 20
-65.3701946561
 10
-6.092251777
 20
-65.442345579
 10
-6.0824552281
 20
-65.5115169566
 10
-6.0708938702
 20
-65.5777211247
 10
-6.0575932792
 20
-65.6409457474
 10
-6.0426715473
 20
-65.7011807629
 10
-6.0260858116
 20
-65.7584208655
 10
-6.0078789351
 20
-65.8126713608
 10
-5.9882975991
 20
-65.8639381038
 10
-5.96746116
 20
-65.912209893
 10
-5.9452502614
 20
-65.9574979299
 10
-5.9215535149
 20
-65.9998416735
 10
-5.8965142906
 20
-66.0390375467
 10
-5.8699892185
 20
-66.0752891266
 10
-5.8414368
 20
-66.1092466031
 10
-5.8106181735
 20
-66.1411303648
 10
-5.7777722005
 20
-66.1707200232
 10
-5.7430739667
 20
-66.198004602
 10
-5.7066061928
 20
-66.2230617783
 10
-5.668286158
 20
-66.2458138751
 10
-5.6280407859
 20
-66.2660168846
 10
-5.5860688148
 20
-66.283633778
 10
-5.5421715063
 20
-66.2987015843
 10
-5.4956795694
 20
-66.3110873827
 10
-5.4456882219
 20
-66.3208460632
 10
-5.3931022459
 20
-66.327922736
 10
-5.3399666963
 20
-66.3320198108
 10
-5.2859574961
 20
-66.3329336861
 10
-5.2313987222
 20
-66.3308679635
 10
-5.17930766
 20
-66.3261358574
 10
-5.1308605816
 20
-66.3188044679
 10
-5.0848812148
 20
-66.3088066948
 10
-5.0408580284
 20
-66.2962544519
 10
-4.9987656334
 20
-66.2811850976
 10
-4.9586294188
 20
-66.2635612736
 10
-4.9200140213
 20
-66.2433828182
 10
-4.8828483081
 20
-66.2207910315
 10
-4.847203412
 20
-66.1956446134
 10
-4.8128573673
 20
-66.1675195024
 10
-4.7797935271
 20
-66.1365297089
 10
-4.7480285383
 20
-66.1025612226
 10
-4.7173903757
 20
-66.0648479504
 10
-4.6876025465
 20
-66.023160361
 10
-4.6589415435
 20
-65.9777279856
 10
-4.6320648197
 20
-65.9284733245
 10
-4.6070467891
 20
-65.875337773
 10
-4.5838130377
 20
-65.8183799357
 10
-4.5627977763
 20
-65.7576981265
 10
-4.5441189293
 20
-65.6932568476
 10
-4.5276585724
 20
-65.6250915967
 10
-4.5134971432
 20
-65.5534071807
 10
-4.5017129711
 20
-65.4782284923
 10
-4.4922277267
 20
-65.3995306387
 10
-4.4848868602
 20
-65.3174437491
 10
-4.4796388548
 20
-65.2320111999
 10
-4.4765352273
 20
-65.1431896145
 10
-4.4755759775
 20
-65.0509789932
  0
LWPOLYLINE
  5
382
100
AcDbEntity
  8
0
100
AcDbPolyline
 62
7
  6
CONTINUOUS
 90
61
 70
0
 10
-4.4755759775
 20
-65.0509789932
 10
-4.4761917881
 20
-64.9642344874
 10
-4.4786926785
 20
-64.8805590434
 10
-4.4830786485
 20
-64.7999526613
 10
-4.4892021473
 20
-64.7223298496
 10
-4.4972107258
 20
-64.6477760998
 10
-4.507547037
 20
-64.5765478858
 10
-4.5205751251
 20
-64.5087617108
 10
-4.5359309458
 20
-64.4443010717
 10
-4.5529650194
 20
-64.3830729324
 10
-4.5715781139
 20
-64.3251074622
 10
-4.5918694613
 20
-64.2703744918
 10
-4.6134872777
 20
-64.2186904777
 10
-4.6363521166
 20
-64.1699090569
 10
-4.6605434244
 20
-64.1241765924
 10
-4.6859477568
 20
-64.0817486286
 10
-4.712445272
 20
-64.0429015108
 10
-4.7401558118
 20
-64.0073588938
 10
-4.7693254567
 20
-63.9745472867
 10
-4.7998543763
 20
-63.9444696879
 10
-4.831842401
 20
-63.9171230991
 10
-4.865835103
 20
-63.8919250341
 10
-4.9020207335
 20
-63.8686124002
 10
-4.9402110413
 20
-63.8474482902
 10
-4.9803868453
 20
-63.8286394969
 10
-5.0224792856
 20
-63.8121472122
 10
-5.0665572221
 20
-63.7980102442
 10
-5.1128080538
 20
-63.7865518108
 10
-5.1618052815
 20
-63.7778122912
 10
-5.2129754044
 20
-63.7717513062
 10
-5.2647853201
 20
-63.7685709359
 10
-5.3176481786
 20
-63.7683918823
 10
-5.3711508299
 20
-63.7710934435
 10
-5.4225207213
 20
-63.7765155934
 10
-5.4708604714
 20
-63.784690717
 10
-5.5170674617
 20
-63.7955864294
 10
-5.561061284
 20
-63.8089455487
 10
-5.6026113414
 20
-63.8246938271
 10
-5.6419482308
 20
-63.8429055126
 10
-5.6796833347
 20
-63.8635461675
 10
-5.7158592992
 20
-63.8863938821
 10
-5.7504334783
 20
-63.9116705662
 10
-5.7838893153
 20
-63.9400075121
 10
-5.8164054849
 20
-63.9714278101
 10
-5.8478033126
 20
-64.00590837
 10
-5.8780302179
 20
-64.0440112136
 10
-5.9072633758
 20
-64.0858849938
 10
-5.9353256114
 20
-64.1313810578
 10
-5.9616328191
 20
-64.1806154684
 10
-5.9861316583
 20
-64.2336616433
 10
-6.0088754696
 20
-64.2904461648
 10
-6.0294401695
 20
-64.3508648425
 10
-6.0477072341
 20
-64.4149475915
 10
-6.0637951874
 20
-64.4826644966
 10
-6.077635517
 20
-64.5538216227
 10
-6.089155362
 20
-64.6283958817
 10
-6.0984275833
 20
-64.7064103615
 10
-6.1056022519
 20
-64.7877403909
 10
-6.1107293913
 20
-64.8723444127
 10
-6.1137589779
 20
-64.960263984
 10
-6.1146910118
 20
-65.0514991048
  0
LINE
  5
383
100
AcDbEntity
  8
0
100
AcDbLine
 62
7
  6
CONTINUOUS
 10
-8.1028764706
 20
-70.0
 11
-8.1028764706
 21
-67.7841597177
  0
LINE
  5
384
100
AcDbEntity
  8
0
100
AcDbLine
 62
7
  6
CONTINUOUS
 10
-8.0166664839
 20
47.05
 11
-8.0166664839
 21
44.75
  0
LINE
  5
385
100
AcDbEntity
  8
0
100
AcDbLine
 62
7
  6
CONTINUOUS
 10
-7.7291664839
 20
45.0436170205
 11
-7.7291664839
 21
46.7563830137
  0
LINE
  5
386
100
AcDbEntity
  8
0
100
AcDbLine
 62
7
  6
CONTINUOUS
 10
-7.3988066419
 20
-56.4644614154
 11
-7.3988066419
 21
-58.9686644742
  0
LINE
  5
387
100
AcDbEntity
  8
0
100
AcDbLine
 62
7
  6
CONTINUOUS
 10
-7.3988066419
 20
-60.1314552652
 11
-7.3988066419
 21
-62.635658324
  0
LINE
  5
388
100
AcDbEntity
  8
0
100
AcDbLine
 62
7
  6
CONTINUOUS
 10
-7.2833191059
 20
-67.7841597177
 11
-7.2833191059
 21
-67.4957969412
  0
LINE
  5
389
100
AcDbEntity
  8
0
100
AcDbLine
 62
7
  6
CONTINUOUS
 10
-7.0649129007
 20
-62.635658324
 11
-7.0649129007
 21
-60.1314552652
  0
LINE
  5
38A
100
AcDbEntity
  8
0
100
AcDbLine
 62
7
  6
CONTINUOUS
 10
-7.0649129007
 20
-58.9686644742
 11
-7.0649129007
 21
-56.4644614154
  0
LINE
  5
38B
100
AcDbEntity
  8
0
100
AcDbLine
 62
7
  6
CONTINUOUS
 10
-6.544
 20
42.65
 11
-6.544
 21
42.3946808815
  0
LINE
  5
38C
100
AcDbEntity
  8
0
100
AcDbLine
 62
7
  6
CONTINUOUS
 10
-6.503364336
 20
-56.4644614154
 11
-6.503364336
 21
-58.9686644742
  0
LINE
  5
38D
100
AcDbEntity
  8
0
100
AcDbLine
 62
7
  6
CONTINUOUS
 10
-6.3875
 20
46.2670212328
 11
-6.3875
 21
45.5329786986
  0
LINE
  5
38E
100
AcDbEntity
  8
0
100
AcDbLine
 62
7
  6
CONTINUOUS
 10
-6.1694705948
 20
-58.9686644742
 11
-6.1694705948
 21
-56.8438861213
  0
LINE
  5
38F
100
AcDbEntity
  8
0
100
AcDbLine
 62
7
  6
CONTINUOUS
 10
-6.1
 20
45.5329786986
 11
-6.1
 21
46.2670212328
  0
LINE
  5
390
100
AcDbEntity
  8
0
100
AcDbLine
 62
7
  6
CONTINUOUS
 10
-6.010836
 20
55.000104
 11
-6.010849
 21
49.799857
  0
LINE
  5
391
100
AcDbEntity
  8
0
100
AcDbLine
 62
7
  6
CONTINUOUS
 10
-5.7166664839
 20
47.05
 11
-5.7166664839
 21
44.75
  0
LINE
  5
392
100
AcDbEntity
  8
0
100
AcDbLine
 62
7
  6
CONTINUOUS
 10
-5.4291664839
 20
45.0436170205
 11
-5.4291664839
 21
45.8265957534
  0
LINE
  5
393
100
AcDbEntity
  8
0
100
AcDbLine
 62
7
  6
CONTINUOUS
 10
-5.4291664839
 20
46.1202127397
 11
-5.4291664839
 21
46.7563830137
  0
LINE
  5
394
100
AcDbEntity
  8
0
100
AcDbLine
 62
7
  6
CONTINUOUS
 10
-4.97081
 20
49.79987
 11
-4.970797
 21
55.000104
  0
LINE
  5
395
100
AcDbEntity
  8
0
100
AcDbLine
 62
7
  6
CONTINUOUS
 10
-4.642523153
 20
-67.4957969412
 11
-4.642523153
 21
-70.0
  0
LINE
  5
396
100
AcDbEntity
  8
0
100
AcDbLine
 62
7
  6
CONTINUOUS
 10
-4.4241169477
 20
-56.8742400978
 11
-4.4241169477
 21
-58.9686644742
  0
LINE
  5
397
100
AcDbEntity
  8
0
100
AcDbLine
 62
7
  6
CONTINUOUS
 10
-4.3086294118
 20
-69.7116372235
 11
-4.3086294118
 21
-67.4957969412
  0
LINE
  5
398
100
AcDbEntity
  8
0
100
AcDbLine
 62
7
  6
CONTINUOUS
 10
-4.1833335161
 20
45.8265957534
 11
-4.1833335161
 21
46.1202127397
  0
LINE
  5
399
100
AcDbEntity
  8
0
100
AcDbLine
 62
7
  6
CONTINUOUS
 10
-4.1661081478
 20
-60.1314552652
 11
-4.1661081478
 21
-62.635658324
  0
LINE
  5
39A
100
AcDbEntity
  8
0
100
AcDbLine
 62
7
  6
CONTINUOUS
 10
-4.0902232066
 20
-58.9686644742
 11
-4.0902232066
 21
-56.4644614154
  0
LINE
  5
39B
100
AcDbEntity
  8
0
100
AcDbLine
 62
7
  6
CONTINUOUS
 10
-3.9916664839
 20
44.75
 11
-3.9916664839
 21
45.0436170205
  0
LINE
  5
39C
100
AcDbEntity
  8
0
100
AcDbLine
 62
7
  6
CONTINUOUS
 10
-3.9916664839
 20
46.7563830137
 11
-3.9916664839
 21
47.05
  0
LINE
  5
39D
100
AcDbEntity
  8
0
100
AcDbLine
 62
7
  6
CONTINUOUS
 10
-3.930797
 20
55.000104
 11
-3.930797
 21
49.79987
  0
LINE
  5
39E
100
AcDbEntity
  8
0
100
AcDbLine
 62
7
  6
CONTINUOUS
 10
-3.8322144066
 20
-62.3472955475
 11
-3.8322144066
 21
-60.1314552652
  0
LINE
  5
39F
100
AcDbEntity
  8
0
100
AcDbLine
 62
7
  6
CONTINUOUS
 10
-3.502
 20
42.3946808815
 11
-3.502
 21
42.65
  0
LINE
  5
3A0
100
AcDbEntity
  8
0
100
AcDbLine
 62
7
  6
CONTINUOUS
 10
-3.0641163765
 20
-70.0
 11
-3.0641163765
 21
-69.7116372235
  0
LINE
  5
3A1
100
AcDbEntity
  8
0
100
AcDbLine
 62
7
  6
CONTINUOUS
 10
-2.890758
 20
49.79987
 11
-2.890758
 21
53.229075
  0
LINE
  5
3A2
100
AcDbEntity
  8
0
100
AcDbLine
 62
7
  6
CONTINUOUS
 10
-2.8260001612
 20
40.5053191543
 11
-2.8260001612
 21
40.25
  0
LINE
  5
3A3
100
AcDbEntity
  8
0
100
AcDbLine
 62
7
  6
CONTINUOUS
 10
-2.5877013713
 20
-62.635658324
 11
-2.5877013713
 21
-62.3472955475
  0
LINE
  5
3A4
100
AcDbEntity
  8
0
100
AcDbLine
 62
7
  6
CONTINUOUS
 10
-2.1930996772
 20
-60.1314552652
 11
-2.1930996772
 21
-62.635658324
  0
LINE
  5
3A5
100
AcDbEntity
  8
0
100
AcDbLine
 62
7
  6
CONTINUOUS
 10
-1.9846530593
 20
-68.9392706004
 11
-1.9846530593
 21
-70.0
  0
LINE
  5
3A6
100
AcDbEntity
  8
0
100
AcDbLine
 62
7
  6
CONTINUOUS
 10
-1.859205936
 20
-62.3472955475
 11
-1.859205936
 21
-61.4822072181
  0
LINE
  5
3A7
100
AcDbEntity
  8
0
100
AcDbLine
 62
7
  6
CONTINUOUS
 10
-1.859205936
 20
-61.1938444416
 11
-1.859205936
 21
-60.4198180416
  0
LINE
  5
3A8
100
AcDbEntity
  8
0
100
AcDbLine
 62
7
  6
CONTINUOUS
 10
-1.6507593181
 20
-70.0
 11
-1.6507593181
 21
-68.9392706004
  0
LINE
  5
3A9
100
AcDbEntity
  8
0
100
AcDbLine
 62
7
  6
CONTINUOUS
 10
-1.3083329678
 20
47.05
 11
-1.3083329678
 21
44.75
  0
LINE
  5
3AA
100
AcDbEntity
  8
0
100
AcDbLine
 62
7
  6
CONTINUOUS
 10
-1.2217724301
 20
-56.4644614154
 11
-1.2217724301
 21
-58.9686644742
  0
LINE
  5
3AB
100
AcDbEntity
  8
0
100
AcDbLine
 62
7
  6
CONTINUOUS
 10
-1.0208329678
 20
44.75
 11
-1.0208329678
 21
47.05
  0
LINE
  5
3AC
100
AcDbEntity
  8
0
100
AcDbLine
 62
7
  6
CONTINUOUS
 10
-0.8878786889
 20
-58.9686644742
 11
-0.8878786889
 21
-57.8607443331
  0
LINE
  5
3AD
100
AcDbEntity
  8
0
100
AcDbLine
 62
7
  6
CONTINUOUS
 10
-0.8878786889
 20
-57.5723815566
 11
-0.8878786889
 21
-56.7528241919
  0
LINE
  5
3AE
100
AcDbEntity
  8
ASSI
100
AcDbLine
 62
7
  6
CONTINUOUS
 10
-0.867554
 20
-46.5480370086
 11
-0.867554
 21
-45.797220009
  0
LINE
  5
3AF
100
AcDbEntity
  8
ASSI
100
AcDbLine
 62
7
  6
CONTINUOUS
 10
-0.867554
 20
-42.20278
 11
-0.867554
 21
-41.451963
  0
LINE
  5
3B0
100
AcDbEntity
  8
0
100
AcDbLine
 62
7
  6
CONTINUOUS
 10
-0.6375
 20
47.05
 11
-0.6375
 21
44.75
  0
LINE
  5
3B1
100
AcDbEntity
  8
0
100
AcDbLine
 62
7
  6
CONTINUOUS
 10
-0.4932769948
 20
-61.4822072181
 11
-0.4932769948
 21
-61.1938444416
  0
LINE
  5
3B2
100
AcDbEntity
  8
0
100
AcDbLine
 62
7
  6
CONTINUOUS
 10
-0.4022150654
 20
-60.4198180416
 11
-0.4022150654
 21
-60.1314552652
  0
LINE
  5
3B3
100
AcDbEntity
  8
0
100
AcDbLine
 62
7
  6
CONTINUOUS
 10
-0.35
 20
44.75
 11
-0.35
 21
46.7563830137
  0
LINE
  5
3B4
100
AcDbEntity
  8
0
100
AcDbLine
 62
7
  6
CONTINUOUS
 10
-0.3415071125
 20
-62.635658324
 11
-0.3415071125
 21
-62.3472955475
  0
LINE
  5
3B5
100
AcDbEntity
  8
0
100
AcDbLine
 62
7
  6
CONTINUOUS
 10
-0.2909996777
 20
42.0882979393
 11
-0.2909996777
 21
41.9861701488
  0
LINE
  5
3B6
100
AcDbEntity
  8
0
100
AcDbLine
 62
7
  6
CONTINUOUS
 10
0.115843
 20
53.229075
 11
0.115856
 21
49.79987
  0
LINE
  5
3B7
100
AcDbEntity
  8
0
100
AcDbLine
 62
7
  6
CONTINUOUS
 10
0.2160003223
 20
40.25
 11
0.2160003223
 21
40.5053191543
  0
LINE
  5
3B8
100
AcDbEntity
  8
0
100
AcDbLine
 62
7
  6
CONTINUOUS
 10
0.2160003223
 20
41.9861701488
 11
0.2160003223
 21
42.0882979393
  0
LINE
  5
3B9
100
AcDbEntity
  8
0
100
AcDbLine
 62
7
  6
CONTINUOUS
 10
0.775661647
 20
-63.7832721267
 11
0.775661647
 21
-66.2874751855
  0
LINE
  5
3BA
100
AcDbEntity
  8
0
100
AcDbLine
 62
7
  6
CONTINUOUS
 10
0.8919996777
 20
42.2925532341
 11
0.8919996777
 21
41.8840425014
  0
LINE
  5
3BB
100
AcDbEntity
  8
0
100
AcDbLine
 62
7
  6
CONTINUOUS
 10
0.9916670322
 20
47.05
 11
0.9916670322
 21
45.0925531849
  0
LINE
  5
3BC
100
AcDbEntity
  8
0
100
AcDbLine
 62
7
  6
CONTINUOUS
 10
1.1095553882
 20
-66.2874751855
 11
1.1095553882
 21
-64.1626968326
  0
LINE
  5
3BD
100
AcDbEntity
  8
0
100
AcDbLine
 62
7
  6
CONTINUOUS
 10
1.155895
 20
49.79987
 11
1.155895
 21
55.000104
  0
LWPOLYLINE
  5
3BE
100
AcDbEntity
  8
0
100
AcDbPolyline
 62
7
  6
CONTINUOUS
 90
19
 70
0
 10
-5.8111512471
 20
-65.0505505286
 10
-5.810871191
 20
-64.9875846778
 10
-5.8096590072
 20
-64.9264970849
 10
-5.8075146959
 20
-64.86728775
 10
-5.8044550329
 20
-64.8099971852
 10
-5.8004632423
 20
-64.7545848783
 10
-5.7954889961
 20
-64.7009292927
 10
-5.7895175622
 20
-64.6490075654
 10
-5.7825636728
 20
-64.5988425594
 10
-5.774621196
 20
-64.5503813281
 10
-5.7657764041
 20
-64.5034577162
 10
-5.7559430247
 20
-64.458237879
 10
-5.7448561097
 20
-64.4151673354
 10
-5.7324421262
 20
-64.3742978585
 10
-5.718774607
 20
-64.3355776751
 10
-5.7038092021
 20
-64.2992969844
 10
-5.6875311281
 20
-64.2655525197
 10
-5.6699551682
 20
-64.2342475477
 10
-5.6510813226
 20
-64.2053820686
  0
LWPOLYLINE
  5
3BF
100
AcDbEntity
  8
0
100
AcDbPolyline
 62
7
  6
CONTINUOUS
 90
19
 70
0
 10
-7.7689827294
 20
-64.9957711771
 10
-7.7677962945
 20
-64.9211971032
 10
-7.7646227716
 20
-64.8493607258
 10
-7.7594621607
 20
-64.7802620448
 10
-7.7523848991
 20
-64.7137997154
 10
-7.7433205495
 20
-64.6500750825
 10
-7.7320578003
 20
-64.5893921803
 10
-7.7184660143
 20
-64.5317692183
 10
-7.7026758288
 20
-64.4771879871
 10
-7.6848678444
 20
-64.4258978932
 10
-7.6648637348
 20
-64.3780301465
 10
-7.6428418265
 20
-64.3334535371
 10
-7.6195176989
 20
-64.2920238422
 10
-7.5949217407
 20
-64.253733285
 10
-7.5690235633
 20
-64.2185896424
 10
-7.542447581
 20
-64.1864720212
 10
-7.5154019319
 20
-64.1573401239
 10
-7.487678478
 20
-64.131234248
 10
-7.4592772192
 20
-64.1081543936
  0
LWPOLYLINE
  5
3C0
100
AcDbEntity
  8
0
100
AcDbPolyline
 62
7
  6
CONTINUOUS
 90
19
 70
0
 10
-3.8836737412
 20
-64.9957711771
 10
-3.8824873063
 20
-64.9211971032
 10
-3.8793137834
 20
-64.8493607258
 10
-3.8741531725
 20
-64.7802620448
 10
-3.8670759109
 20
-64.7137997154
 10
-3.8580115612
 20
-64.6500750825
 10
-3.8467488121
 20
-64.5893921803
 10
-3.8331570261
 20
-64.5317692183
 10
-3.8173668405
 20
-64.4771879871
 10
-3.7995588562
 20
-64.4258978932
 10
-3.7795547466
 20
-64.3780301465
 10
-3.7575328382
 20
-64.3334535371
 10
-3.7342087107
 20
-64.2920238422
 10
-3.7096127524
 20
-64.253733285
 10
-3.683714575
 20
-64.2185896424
 10
-3.6571385927
 20
-64.1864720212
 10
-3.6300929437
 20
-64.1573401239
 10
-3.6023694897
 20
-64.131234248
 10
-3.5739682309
 20
-64.1081543936
  0
LWPOLYLINE
  5
3C1
100
AcDbEntity
  8
0
100
AcDbPolyline
 62
7
  6
CONTINUOUS
 90
16
 70
0
 10
-8.8010179294
 20
-64.4164370395
 10
-8.8018302654
 20
-64.4454737402
 10
-8.8040331179
 20
-64.4732592957
 10
-8.8076264869
 20
-64.4997937061
 10
-8.8126292047
 20
-64.5250556394
 10
-8.819022439
 20
-64.5490664275
 10
-8.8267496924
 20
-64.5718900664
 10
-8.8357731761
 20
-64.5934341075
 10
-8.8461306789
 20
-64.6137909993
 10
-8.8578790702
 20
-64.6333020832
 10
-8.8711003683
 20
-64.6521394397
 10
-8.8857125549
 20
-64.6701309884
 10
-8.9015264441
 20
-64.6871018291
 10
-8.9184789738
 20
-64.7029936619
 10
-8.936633206
 20
-64.7178647867
 10
-8.9559891408
 20
-64.7317152036
  0
LWPOLYLINE
  5
3C2
100
AcDbEntity
  8
0
100
AcDbPolyline
 62
7
  6
CONTINUOUS
 90
16
 70
0
 10
-1.030399953
 20
-64.4164370395
 10
-1.031212289
 20
-64.4454737402
 10
-1.0334151415
 20
-64.4732592957
 10
-1.0370085104
 20
-64.4997937061
 10
-1.0420112282
 20
-64.5250556394
 10
-1.0484044625
 20
-64.5490664275
 10
-1.056131716
 20
-64.5718900664
 10
-1.0651551997
 20
-64.5934341075
 10
-1.0755127025
 20
-64.6137909993
 10
-1.0872610937
 20
-64.6333020832
 10
-1.1004823919
 20
-64.6521394397
 10
-1.1150945785
 20
-64.6701309884
 10
-1.1309084676
 20
-64.6871018291
 10
-1.1478609973
 20
-64.7029936619
 10
-1.1660152296
 20
-64.7178647867
 10
-1.1853711643
 20
-64.7317152036
  0
LWPOLYLINE
  5
3C3
100
AcDbEntity
  8
0
100
AcDbPolyline
 62
7
  6
CONTINUOUS
 90
46
 70
0
 10
-7.7234517647
 20
-65.4759804873
 10
-7.7218212553
 20
-65.430247118
 10
-7.7177997386
 20
-65.3868140823
 10
-7.7113872147
 20
-65.34568138
 10
-7.7025179601
 20
-65.3070149651
 10
-7.6912576982
 20
-65.2706488837
 10
-7.6778035999
 20
-65.2360852742
 10
-7.6622716276
 20
-65.2033224123
 10
-7.644545819
 20
-65.1723620223
 10
-7.6244754575
 20
-65.1427114154
 10
-7.6017592054
 20
-65.1139669992
 10
-7.5766984005
 20
-65.0865323662
 10
-7.5500463394
 20
-65.0611256052
 10
-7.521817759
 20
-65.0378204331
 10
-7.4919979224
 20
-65.016543133
 10
-7.4612959164
 20
-64.9977906432
 10
-7.430115085
 20
-64.9817740388
 10
-7.3980520841
 20
-64.9682822446
 10
-7.3646059686
 20
-64.9571789735
 10
-7.3294813955
 20
-64.948367694
 10
-7.2929737076
 20
-64.9419449375
 10
-7.2554679884
 20
-64.9380640112
 10
-7.2162402385
 20
-64.9368165407
 10
-7.1760144573
 20
-64.9381109003
 10
-7.1373477263
 20
-64.9418255207
 10
-7.1010060659
 20
-64.9480386373
 10
-7.0662234558
 20
-64.9566720147
 10
-7.0332589167
 20
-64.9673693767
 10
-7.0024310824
 20
-64.9799533274
 10
-6.9734213191
 20
-64.9946012627
 10
-6.945532746
 20
-65.0114890946
 10
-6.9183940113
 20
-65.0307579823
 10
-6.8923764668
 20
-65.0522667665
 10
-6.8678972877
 20
-65.0757678813
 10
-6.844973082
 20
-65.1011985515
 10
-6.8235872416
 20
-65.1286215523
 10
-6.804107117
 20
-65.1579776436
 10
-6.7866180337
 20
-65.1890412067
 10
-6.7710346662
 20
-65.2220378603
 10
-6.7574683889
 20
-65.2575852207
 10
-6.74582417
 20
-65.2959443976
 10
-6.7361970413
 20
-65.3368542813
 10
-6.7289834726
 20
-65.3801491584
 10
-6.7243156207
 20
-65.4257737913
 10
-6.7220613289
 20
-65.4737834176
 10
-6.7222205972
 20
-65.5241780374
  0
LWPOLYLINE
  5
3C4
100
AcDbEntity
  8
0
100
AcDbPolyline
 62
7
  6
CONTINUOUS
 90
46
 70
0
 10
-3.8381427765
 20
-65.4759804873
 10
-3.836512267
 20
-65.430247118
 10
-3.8324907504
 20
-65.3868140823
 10
-3.8260782265
 20
-65.34568138
 10
-3.8172089718
 20
-65.3070149651
 10
-3.8059487099
 20
-65.2706488837
 10
-3.7924946117
 20
-65.2360852742
 10
-3.7769626394
 20
-65.2033224123
 10
-3.7592368308
 20
-65.1723620223
 10
-3.7391664693
 20
-65.1427114154
 10
-3.7164502172
 20
-65.1139669992
 10
-3.6913894122
 20
-65.0865323662
 10
-3.6647373512
 20
-65.0611256052
 10
-3.6365087707
 20
-65.0378204331
 10
-3.6066889342
 20
-65.016543133
 10
-3.5759869282
 20
-64.9977906432
 10
-3.5448060968
 20
-64.9817740388
 10
-3.5127430959
 20
-64.9682822446
 10
-3.4792969804
 20
-64.9571789735
 10
-3.4441724072
 20
-64.948367694
 10
-3.4076647194
 20
-64.9419449375
 10
-3.3701590002
 20
-64.9380640112
 10
-3.3309312503
 20
-64.9368165407
 10
-3.2907054691
 20
-64.9381109003
 10
-3.2520387381
 20
-64.9418255207
 10
-3.2156970777
 20
-64.9480386373
 10
-3.1809144676
 20
-64.9566720147
 10
-3.1479499284
 20
-64.9673693767
 10
-3.1171220941
 20
-64.9799533274
 10
-3.0881123308
 20
-64.9946012627
 10
-3.0602237578
 20
-65.0114890946
 10
-3.0330850231
 20
-65.0307579823
 10
-3.0070674786
 20
-65.0522667665
 10
-2.9825882994
 20
-65.0757678813
 10
-2.9596640937
 20
-65.1011985515
 10
-2.9382782533
 20
-65.1286215523
 10
-2.9187981288
 20
-65.1579776436
 10
-2.9013090454
 20
-65.1890412067
 10
-2.8857256779
 20
-65.2220378603
 10
-2.8721594006
 20
-65.2575852207
 10
-2.8605151817
 20
-65.2959443976
 10
-2.850888053
 20
-65.3368542813
 10
-2.8436744844
 20
-65.3801491584
 10
-2.8390066325
 20
-65.4257737913
 10
-2.8367523407
 20
-65.4737834176
 10
-2.836911609
 20
-65.5241780374
  0
LWPOLYLINE
  5
3C5
100
AcDbEntity
  8
0
100
AcDbPolyline
 62
7
  6
CONTINUOUS
 90
46
 70
0
 10
-6.7222205972
 20
-65.5241780374
 10
-6.7252126476
 20
-65.5730792938
 10
-6.7304397798
 20
-65.6194864819
 10
-6.7379019936
 20
-65.6633996018
 10
-6.7476779038
 20
-65.7047305604
 10
-6.7596888957
 20
-65.7435674508
 10
-6.7736991257
 20
-65.7801745525
 10
-6.7896689539
 20
-65.8145018922
 10
-6.8076380202
 20
-65.8465994433
 10
-6.8274894
 20
-65.8768814043
 10
-6.8494330847
 20
-65.9056429879
 10
-6.8732590829
 20
-65.9325889816
 10
-6.8982204951
 20
-65.9572479468
 10
-6.9241951694
 20
-65.9794993051
 10
-6.9513052576
 20
-65.9994636349
 10
-6.9791703167
 20
-66.0170312327
 10
-7.0075319978
 20
-66.0321047288
 10
-7.0366486497
 20
-66.0447814929
 10
-7.0669148763
 20
-66.0552439305
 10
-7.0985370616
 20
-66.0636006473
 10
-7.1313088217
 20
-66.0697430376
 10
-7.1650056085
 20
-66.0735276903
 10
-7.2000551701
 20
-66.0749255194
 10
-7.2360297584
 20
-66.0739656109
 10
-7.2714215812
 20
-66.070591811
 10
-7.3058526438
 20
-66.0647566173
 10
-7.3397009408
 20
-66.0565075323
 10
-7.3725926633
 20
-66.0459309101
 10
-7.4045013117
 20
-66.0329918261
 10
-7.4354533856
 20
-66.0177252049
 10
-7.4651545749
 20
-66.0003221739
 10
-7.4935909944
 20
-65.9808301603
 10
-7.5207765293
 20
-65.9592017369
 10
-7.5464585245
 20
-65.9354857485
 10
-7.5704716272
 20
-65.9099199637
 10
-7.5929811901
 20
-65.8822666139
 10
-7.6142306163
 20
-65.8518612383
 10
-7.6345210682
 20
-65.8183233851
 10
-7.6535513833
 20
-65.7820335061
 10
-7.6706614771
 20
-65.7434684956
 10
-7.6859359682
 20
-65.702390058
 10
-7.6992902379
 20
-65.659036489
 10
-7.7098103464
 20
-65.6145995693
 10
-7.7171916471
 20
-65.5694765592
 10
-7.7217387865
 20
-65.5232701986
 10
-7.7234517647
 20
-65.4759804873
  0
LWPOLYLINE
  5
3C6
100
AcDbEntity
  8
0
100
AcDbPolyline
 62
7
  6
CONTINUOUS
 90
46
 70
0
 10
-2.836911609
 20
-65.5241780374
 10
-2.8399036594
 20
-65.5730792938
 10
-2.8451307915
 20
-65.6194864819
 10
-2.8525930054
 20
-65.6633996018
 10
-2.8623689156
 20
-65.7047305604
 10
-2.8743799075
 20
-65.7435674508
 10
-2.8883901374
 20
-65.7801745525
 10
-2.9043599657
 20
-65.8145018922
 10
-2.922329032
 20
-65.8465994433
 10
-2.9421804117
 20
-65.8768814043
 10
-2.9641240965
 20
-65.9056429879
 10
-2.9879500947
 20
-65.9325889816
 10
-3.0129115069
 20
-65.9572479468
 10
-3.0388861811
 20
-65.9794993051
 10
-3.0659962694
 20
-65.9994636349
 10
-3.0938613285
 20
-66.0170312327
 10
-3.1222230095
 20
-66.0321047288
 10
-3.1513396614
 20
-66.0447814929
 10
-3.1816058881
 20
-66.0552439305
 10
-3.2132280734
 20
-66.0636006473
 10
-3.2459998335
 20
-66.0697430376
 10
-3.2796966202
 20
-66.0735276903
 10
-3.3147461819
 20
-66.0749255194
 10
-3.3507207702
 20
-66.0739656109
 10
-3.3861125929
 20
-66.070591811
 10
-3.4205436556
 20
-66.0647566173
 10
-3.4543919526
 20
-66.0565075323
 10
-3.4872836751
 20
-66.0459309101
 10
-3.5191923235
 20
-66.0329918261
 10
-3.5501443974
 20
-66.0177252049
 10
-3.5798455867
 20
-66.0003221739
 10
-3.6082820062
 20
-65.9808301603
 10
-3.6354675411
 20
-65.9592017369
 10
-3.6611495363
 20
-65.9354857485
 10
-3.685162639
 20
-65.9099199637
 10
-3.7076722019
 20
-65.8822666139
 10
-3.7289216281
 20
-65.8518612383
 10
-3.74921208
 20
-65.8183233851
 10
-3.7682423951
 20
-65.7820335061
 10
-3.7853524889
 20
-65.7434684956
 10
-3.8006269799
 20
-65.702390058
 10
-3.8139812497
 20
-65.659036489
 10
-3.8245013582
 20
-65.6145995693
 10
-3.8318826588
 20
-65.5694765592
 10
-3.8364297983
 20
-65.5232701986
 10
-3.8381427765
 20
-65.4759804873
  0
LINE
  5
3C7
100
AcDbEntity
  8
0
100
AcDbLine
 62
7
  6
CONTINUOUS
 10
-9.3547407401
 20
-64.8304843149
 11
-9.3898375978
 21
-65.1036701032
  0
LINE
  5
3C8
100
AcDbEntity
  8
0
100
AcDbLine
 62
7
  6
CONTINUOUS
 10
6.3845
 20
41.9861701488
 11
6.2999993553
 21
41.6287233829
  0
LINE
  5
3C9
100
AcDbEntity
  8
0
100
AcDbLine
 62
7
  6
CONTINUOUS
 10
3.0045003223
 20
41.6287233829
 11
3.089
 21
41.9351063251
  0
LINE
  5
3CA
100
AcDbEntity
  8
0
100
AcDbLine
 62
7
  6
CONTINUOUS
 10
5.2014996777
 20
41.2712766171
 11
5.117
 21
40.9648936033
  0
LINE
  5
3CB
100
AcDbEntity
  8
0
100
AcDbLine
 62
7
  6
CONTINUOUS
 10
6.7225006447
 20
41.6287233829
 11
6.8069993553
 21
41.9351063251
  0
LINE
  5
3CC
100
AcDbEntity
  8
0
100
AcDbLine
 62
7
  6
CONTINUOUS
 10
7.3645840645
 20
45.5329786986
 11
7.7958340645
 21
46.8542553425
  0
LINE
  5
3CD
100
AcDbEntity
  8
0
100
AcDbLine
 62
7
  6
CONTINUOUS
 10
7.125
 20
44.75
 11
7.3166659355
 21
45.3372340411
  0
LINE
  5
3CE
100
AcDbEntity
  8
0
100
AcDbLine
 62
7
  6
CONTINUOUS
 10
5.5395003223
 20
40.9648936033
 11
5.624
 21
41.2202127934
  0
LINE
  5
3CF
100
AcDbEntity
  8
0
100
AcDbLine
 62
7
  6
CONTINUOUS
 10
7.6041659355
 20
47.05
 11
6.8375
 21
44.75
  0
LINE
  5
3D0
100
AcDbEntity
  8
0
100
AcDbLine
 62
7
  6
CONTINUOUS
 10
21.2553473779
 20
-66.2874751855
 11
20.25224329
 21
-63.7832721267
  0
LINE
  5
3D1
100
AcDbEntity
  8
0
100
AcDbLine
 62
7
  6
CONTINUOUS
 10
20.2505832816
 20
-64.5672583456
 11
20.5202121405
 21
-65.2554399855
  0
LINE
  5
3D2
100
AcDbEntity
  8
0
100
AcDbLine
 62
7
  6
CONTINUOUS
 10
22.2755256065
 20
-63.7832721267
 11
23.2383156674
 21
-66.2874751855
  0
LINE
  5
3D3
100
AcDbEntity
  8
0
100
AcDbLine
 62
7
  6
CONTINUOUS
 10
15.2694482677
 20
-61.8768089122
 11
15.5487995699
 21
-62.635658324
  0
LINE
  5
3D4
100
AcDbEntity
  8
0
100
AcDbLine
 62
7
  6
CONTINUOUS
 10
20.6209967448
 20
-65.5286257738
 11
20.900348047
 21
-66.2874751855
  0
LWPOLYLINE
  5
3D5
100
AcDbEntity
  8
0
100
AcDbPolyline
 62
7
  6
CONTINUOUS
 90
3
 70
0
 10
16.6633816143
 20
-65.52621413
 10
16.6908650746
 20
-65.6089935144
 10
16.7226449491
 20
-65.6894068988
  0
LWPOLYLINE
  5
3D6
100
AcDbEntity
  8
0
100
AcDbPolyline
 62
7
  6
CONTINUOUS
 90
56
 70
0
 10
18.7452157176
 20
-64.4709792469
 10
18.7234900527
 20
-64.4032210733
 10
18.6993881671
 20
-64.3393027509
 10
18.6729100608
 20
-64.2792242799
 10
18.6439975498
 20
-64.223206762
 10
18.6127088181
 20
-64.1710290954
 10
18.5792184173
 20
-64.1220279745
 10
18.5435068331
 20
-64.0760800489
 10
18.5055935799
 20
-64.033308669
 10
18.4657117519
 20
-63.9934205807
 10
18.4239574468
 20
-63.9563364283
 10
18.3802345669
 20
-63.9221355674
 10
18.3344879145
 20
-63.8907628101
 10
18.2868814417
 20
-63.8621997943
 10
18.2372511963
 20
-63.836464882
 10
18.1850501234
 20
-63.8135579722
 10
18.1302986274
 20
-63.7933666554
 10
18.0729763039
 20
-63.7760033412
 10
18.012474884
 20
-63.7618051566
 10
17.9481223392
 20
-63.7507187331
 10
17.880590698
 20
-63.7427974392
 10
17.8112877777
 20
-63.7385385086
 10
17.7396832734
 20
-63.7380489318
 10
17.6663074899
 20
-63.7412217181
 10
17.5941591585
 20
-63.7482331291
 10
17.5239258885
 20
-63.759279432
 10
17.4549200706
 20
-63.7741643596
 10
17.3880776082
 20
-63.7924753711
 10
17.3235412155
 20
-63.8142538435
 10
17.2611681782
 20
-63.8394583997
 10
17.2014662572
 20
-63.8675523688
 10
17.1444610106
 20
-63.8985417232
 10
17.0901268801
 20
-63.9324204903
 10
17.0388949519
 20
-63.968634082
 10
16.9911345754
 20
-64.0068003934
 10
16.9464764011
 20
-64.0473015293
 10
16.9042434662
 20
-64.0907292166
 10
16.8643000946
 20
-64.1370333233
 10
16.8267819624
 20
-64.1862639814
 10
16.7914191353
 20
-64.2391633135
 10
16.7578860883
 20
-64.2959708165
 10
16.7265083464
 20
-64.3564469934
 10
16.69799255
 20
-64.4206154758
 10
16.6723583744
 20
-64.4883129727
 10
16.6495861444
 20
-64.5597027751
 10
16.6303234743
 20
-64.6352983882
 10
16.6145392552
 20
-64.7155222585
 10
16.6022645959
 20
-64.7999519396
 10
16.5942404381
 20
-64.887833597
 10
16.5905894411
 20
-64.98058405
 10
16.5911889454
 20
-65.0767864794
 10
16.596411914
 20
-65.171436593
 10
16.6064916845
 20
-65.2631375211
 10
16.6211949192
 20
-65.3532861334
 10
16.6401945681
 20
-65.4410687457
 10
16.6633816143
 20
-65.52621413
  0
LWPOLYLINE
  5
3D7
100
AcDbEntity
  8
0
100
AcDbPolyline
 62
7
  6
CONTINUOUS
 90
10
 70
0
 10
14.7216538268
 20
-60.3894640652
 10
14.7385613029
 20
-60.4457489891
 10
14.7562151553
 20
-60.5025737169
 10
14.7746153841
 20
-60.5599382486
 10
14.7938233172
 20
-60.6178433187
 10
14.8137776268
 20
-60.6762881927
 10
14.8342943286
 20
-60.7352706666
 10
14.8553120949
 20
-60.7947900058
 10
14.8768922535
 20
-60.854846945
 10
14.8990348045
 20
-60.9154414841
  0
LWPOLYLINE
  5
3D8
100
AcDbEntity
  8
0
100
AcDbPolyline
 62
7
  6
CONTINUOUS
 90
10
 70
0
 10
20.073202304
 20
-64.0412809267
 10
20.09010978
 20
-64.0975658507
 10
20.1077636324
 20
-64.1543905785
 10
20.1261638612
 20
-64.2117551101
 10
20.1453717944
 20
-64.2696601802
 10
20.1653261039
 20
-64.3281050542
 10
20.1858428058
 20
-64.3870875281
 10
20.206860572
 20
-64.4466068674
 10
20.2284407306
 20
-64.5066638065
 10
20.2505832816
 20
-64.5672583456
  0
LWPOLYLINE
  5
3D9
100
AcDbEntity
  8
0
100
AcDbPolyline
 62
7
  6
CONTINUOUS
 90
28
 70
0
 10
13.0841991058
 20
-64.4814135855
 10
13.0806421058
 20
-64.4316664142
 10
13.0745622232
 20
-64.3835625751
 10
13.065959458
 20
-64.3371020681
 10
13.0547398905
 20
-64.292279025
 10
13.0409974405
 20
-64.249099314
 10
13.0250138673
 20
-64.20758054
 10
13.0068151947
 20
-64.1677157807
 10
12.986375399
 20
-64.1295119583
 10
12.9638981682
 20
-64.0930074442
 10
12.9394398346
 20
-64.0581927503
 10
12.912944066
 20
-64.0250773646
 10
12.8844455535
 20
-63.9937281226
 10
12.854124969
 20
-63.9642239443
 10
12.8218016405
 20
-63.9364859097
 10
12.7869682435
 20
-63.910344094
 10
12.7496265985
 20
-63.8857467112
 10
12.7097748851
 20
-63.8627455473
 10
12.6669003167
 20
-63.8413260349
 10
12.6208331686
 20
-63.8213143234
 10
12.5717431656
 20
-63.8028842633
 10
12.5196266965
 20
-63.786542839
 10
12.4644701407
 20
-63.7722971357
 10
12.4062871189
 20
-63.760140068
 10
12.3451148812
 20
-63.750557364
 10
12.2809658444
 20
-63.743710933
 10
12.2138275918
 20
-63.7394388657
 10
12.1437001234
 20
-63.737741162
  0
LWPOLYLINE
  5
3DA
100
AcDbEntity
  8
0
100
AcDbPolyline
 62
7
  6
CONTINUOUS
 90
28
 70
0
 10
11.1718985882
 20
-65.4679178208
 10
11.1753614883
 20
-65.5266738576
 10
11.1817938114
 20
-65.5834328027
 10
11.1911955574
 20
-65.638194656
 10
11.2036442215
 20
-65.690869018
 10
11.2190623085
 20
-65.7415462882
 10
11.2372173326
 20
-65.7904976651
 10
11.2581628533
 20
-65.837917197
 10
11.281845311
 20
-65.8836108354
 10
11.3078715417
 20
-65.9272676337
 10
11.3362234127
 20
-65.9688989722
 10
11.3669190567
 20
-66.0084934705
 10
11.3996197079
 20
-66.0457060412
 10
11.4340275555
 20
-66.0803022378
 10
11.4704404105
 20
-66.1125165068
 10
11.5094129397
 20
-66.1427070995
 10
11.5508525338
 20
-66.1709868735
 10
11.5948518022
 20
-66.1972429712
 10
11.6422432409
 20
-66.2214950712
 10
11.693208744
 20
-66.2439194247
 10
11.7475664174
 20
-66.2643397804
 10
11.8056030747
 20
-66.2822470635
 10
11.8675276079
 20
-66.2975786908
 10
11.933131125
 20
-66.3103972455
 10
12.0020737629
 20
-66.3203814014
 10
12.074242234
 20
-66.3274240498
 10
12.149749826
 20
-66.3316322994
 10
12.2285965388
 20
-66.3330061502
  0
LWPOLYLINE
  5
3DB
100
AcDbEntity
  8
0
100
AcDbPolyline
 62
7
  6
CONTINUOUS
 90
58
 70
0
 10
10.8376394787
 20
-65.0017086216
 10
10.8332486399
 20
-64.911839587
 10
10.8251676962
 20
-64.8257396013
 10
10.8133966475
 20
-64.7434086644
 10
10.7977177807
 20
-64.6649818033
 10
10.778348809
 20
-64.5903239909
 10
10.7559428715
 20
-64.519030147
 10
10.7304843856
 20
-64.4509014467
 10
10.7019889339
 20
-64.3861367148
 10
10.6711564036
 20
-64.3249273451
 10
10.6381318405
 20
-64.2674598008
 10
10.6027701988
 20
-64.2135476188
 10
10.565336228
 20
-64.1628228039
 10
10.5261619445
 20
-64.1154631388
 10
10.484915332
 20
-64.0712908408
 10
10.4408650902
 20
-64.0294045665
 10
10.3936361163
 20
-63.9893717637
 10
10.3436035131
 20
-63.9516249848
 10
10.2911612897
 20
-63.9165605434
 10
10.23615897
 20
-63.8841045922
 10
10.17874703
 20
-63.8543309786
 10
10.1197709065
 20
-63.8278575587
 10
10.0597355201
 20
-63.8048701482
 10
9.9981359503
 20
-63.7851829315
 10
9.9343028723
 20
-63.7688563173
 10
9.8679018491
 20
-63.7558046038
 10
9.7992673178
 20
-63.746113493
 10
9.7287332648
 20
-63.7401004989
 10
9.655060277
 20
-63.7378991792
 10
9.5794877675
 20
-63.7393759763
 10
9.5060679619
 20
-63.7444477314
 10
9.435912853
 20
-63.7532593896
 10
9.3679104481
 20
-63.7656660058
 10
9.3027769944
 20
-63.7811495856
 10
9.24106919
 20
-63.799534274
 10
9.1822303369
 20
-63.8209959259
 10
9.1253065882
 20
-63.8455441119
 10
9.0700515885
 20
-63.8731601438
 10
9.0167116933
 20
-63.9038627096
 10
8.9650721217
 20
-63.9377174445
 10
8.9148757692
 20
-63.9748714582
 10
8.8663797403
 20
-64.0151776409
 10
8.8201405673
 20
-64.0582602984
 10
8.7761250874
 20
-64.1041964293
 10
8.7343664634
 20
-64.1529090351
 10
8.6955207154
 20
-64.2037914259
 10
8.659910915
 20
-64.256266055
 10
8.6272139907
 20
-64.310910469
 10
8.5971167487
 20
-64.3688506191
 10
8.5694320833
 20
-64.430128452
 10
8.5443471002
 20
-64.4947020209
 10
8.5221099231
 20
-64.5635714358
 10
8.5025724947
 20
-64.6370771231
 10
8.4858828723
 20
-64.7148786565
 10
8.4727333515
 20
-64.7969548667
 10
8.4633546974
 20
-64.8832986974
 10
8.457516145
 20
-64.9739172051
 10
8.4552176941
 20
-65.0688103896
  0
LWPOLYLINE
  5
3DC
100
AcDbEntity
  8
0
100
AcDbPolyline
 62
7
  6
CONTINUOUS
 90
58
 70
0
 10
8.4552176941
 20
-65.0688103896
 10
8.4574720848
 20
-65.1486413097
 10
8.4637326621
 20
-65.2269691964
 10
8.473999426
 20
-65.3037940497
 10
8.488438481
 20
-65.37926771
 10
8.5068837225
 20
-65.4532383369
 10
8.5288368379
 20
-65.5252504094
 10
8.5546205405
 20
-65.5959312717
 10
8.5839121169
 20
-65.6646535797
 10
8.6152451133
 20
-65.7290797797
 10
8.6480517682
 20
-65.7880322258
 10
8.6828998432
 20
-65.842688564
 10
8.7200261691
 20
-65.8942441781
 10
8.759312203
 20
-65.9428153962
 10
8.800876488
 20
-65.9882858902
 10
8.8453114835
 20
-66.03150206
 10
8.8930673892
 20
-66.0729660205
 10
8.9436940054
 20
-66.1121756568
 10
8.9964331934
 20
-66.1484710238
 10
9.0512407755
 20
-66.1817864988
 10
9.1081609293
 20
-66.2121877044
 10
9.1665680488
 20
-66.2392115644
 10
9.22596612
 20
-66.2626840419
 10
9.286851157
 20
-66.2827791737
 10
9.3500855957
 20
-66.2995559938
 10
9.416271047
 20
-66.3131674363
 10
9.4848059001
 20
-66.3234605671
 10
9.5547477588
 20
-66.3300356176
 10
9.626828392
 20
-66.3327552619
 10
9.7003160308
 20
-66.3317568259
 10
9.7720729727
 20
-66.3270525189
 10
9.8408112847
 20
-66.3186392541
 10
9.9078188999
 20
-66.3065201182
 10
9.9738219149
 20
-66.2907165804
 10
10.0395947097
 20
-66.2709474384
 10
10.1043629044
 20
-66.2474938944
 10
10.1665294553
 20
-66.2212210237
 10
10.2258347598
 20
-66.192160726
 10
10.2825384205
 20
-66.1602811017
 10
10.3358222023
 20
-66.126351527
 10
10.3850058275
 20
-66.0908870661
 10
10.4307695738
 20
-66.0533726549
 10
10.4743360395
 20
-66.0130324776
 10
10.5160054174
 20
-65.9698928006
 10
10.5554775147
 20
-65.9239273574
 10
10.5930743518
 20
-65.874281533
 10
10.6291071403
 20
-65.8206417018
 10
10.6632646686
 20
-65.7633214894
 10
10.6949353217
 20
-65.7024071569
 10
10.7242127027
 20
-65.6377217661
 10
10.7510032084
 20
-65.5694422551
 10
10.7744144147
 20
-65.4981856997
 10
10.7943152182
 20
-65.4244412721
 10
10.8108367221
 20
-65.3477198
 10
10.8234798116
 20
-65.2671708429
 10
10.8320781151
 20
-65.1825109208
 10
10.8367980041
 20
-65.0940235136
 10
10.8376394787
 20
-65.0017086216
  0
LINE
  5
3DD
100
AcDbEntity
  8
0
100
AcDbLine
 62
7
  6
CONTINUOUS
 10
1.2791670322
 20
44.75
 11
1.2791670322
 21
47.05
  0
LINE
  5
3DE
100
AcDbEntity
  8
0
100
AcDbLine
 62
7
  6
CONTINUOUS
 10
1.3989996777
 20
42.2414894104
 11
1.3989996777
 21
40.25
  0
LINE
  5
3DF
100
AcDbEntity
  8
0
100
AcDbLine
 62
7
  6
CONTINUOUS
 10
1.9059996777
 20
40.25
 11
1.9059996777
 21
42.65
  0
LINE
  5
3E0
100
AcDbEntity
  8
0
100
AcDbLine
 62
7
  6
CONTINUOUS
 10
2.582
 20
41.6797872066
 11
2.582
 21
41.2202127934
  0
LINE
  5
3E1
100
AcDbEntity
  8
0
100
AcDbLine
 62
7
  6
CONTINUOUS
 10
2.8549090353
 20
-64.1930508091
 11
2.8549090353
 21
-66.2874751855
  0
LINE
  5
3E2
100
AcDbEntity
  8
0
100
AcDbLine
 62
7
  6
CONTINUOUS
 10
3.0045003223
 20
41.2712766171
 11
3.0045003223
 21
41.6287233829
  0
LINE
  5
3E3
100
AcDbEntity
  8
ASSI
100
AcDbLine
 62
7
  6
CONTINUOUS
 10
3.117556
 20
-44.375
 11
3.117556
 21
-43.625
  0
LINE
  5
3E4
100
AcDbEntity
  8
0
100
AcDbLine
 62
7
  6
CONTINUOUS
 10
3.1888027764
 20
-66.2874751855
 11
3.1888027764
 21
-63.7832721267
  0
LINE
  5
3E5
100
AcDbEntity
  8
0
100
AcDbLine
 62
7
  6
CONTINUOUS
 10
3.4527399464
 20
-60.1314552652
 11
3.4527399464
 21
-62.635658324
  0
LINE
  5
3E6
100
AcDbEntity
  8
ASSI
100
AcDbLine
 62
7
  6
CONTINUOUS
 10
3.517556
 20
-46.548037126
 11
3.517556
 21
-45.7972167065
  0
LINE
  5
3E7
100
AcDbEntity
  8
ASSI
100
AcDbLine
 62
7
  6
CONTINUOUS
 10
3.517556
 20
-42.20278
 11
3.517556
 21
-41.4519631019
  0
LINE
  5
3E8
100
AcDbEntity
  8
0
100
AcDbLine
 62
7
  6
CONTINUOUS
 10
3.7866336875
 20
-62.635658324
 11
3.7866336875
 21
-60.1314552652
  0
LINE
  5
3E9
100
AcDbEntity
  8
0
100
AcDbLine
 62
7
  6
CONTINUOUS
 10
3.9625
 20
47.05
 11
3.9625
 21
44.75
  0
LINE
  5
3EA
100
AcDbEntity
  8
0
100
AcDbLine
 62
7
  6
CONTINUOUS
 10
4.25
 20
44.75
 11
4.25
 21
47.05
  0
LINE
  5
3EB
100
AcDbEntity
  8
0
100
AcDbLine
 62
7
  6
CONTINUOUS
 10
4.591014064
 20
-56.4644614154
 11
4.591014064
 21
-58.9686644742
  0
LINE
  5
3EC
100
AcDbEntity
  8
0
100
AcDbLine
 62
7
  6
CONTINUOUS
 10
4.6333329678
 20
47.05
 11
4.6333329678
 21
46.8053191781
  0
LINE
  5
3ED
100
AcDbEntity
  8
0
100
AcDbLine
 62
7
  6
CONTINUOUS
 10
4.9249078052
 20
-58.9686644742
 11
4.9249078052
 21
-57.9366292742
  0
LINE
  5
3EE
100
AcDbEntity
  8
0
100
AcDbLine
 62
7
  6
CONTINUOUS
 10
4.9249078052
 20
-57.6482664978
 11
4.9249078052
 21
-56.7528241919
  0
LINE
  5
3EF
100
AcDbEntity
  8
0
100
AcDbLine
 62
7
  6
CONTINUOUS
 10
5.2014996777
 20
41.6287233829
 11
5.2014996777
 21
41.2712766171
  0
LINE
  5
3F0
100
AcDbEntity
  8
0
100
AcDbLine
 62
7
  6
CONTINUOUS
 10
5.4
 20
46.8053191781
 11
5.4
 21
44.75
  0
LINE
  5
3F1
100
AcDbEntity
  8
0
100
AcDbLine
 62
7
  6
CONTINUOUS
 10
5.624
 20
41.2202127934
 11
5.624
 21
41.6797872066
  0
LINE
  5
3F2
100
AcDbEntity
  8
0
100
AcDbLine
 62
7
  6
CONTINUOUS
 10
5.6875
 20
44.75
 11
5.6875
 21
46.8053191781
  0
LINE
  5
3F3
100
AcDbEntity
  8
ASSI
100
AcDbLine
 62
7
  6
CONTINUOUS
 10
5.732239
 20
33.30662
 11
5.732239
 21
32.762971
  0
LINE
  5
3F4
100
AcDbEntity
  8
ASSI
100
AcDbLine
 62
7
  6
CONTINUOUS
 10
5.749993
 20
37.715613
 11
5.749993
 21
37.168974
  0
LINE
  5
3F5
100
AcDbEntity
  8
0
100
AcDbLine
 62
7
  6
CONTINUOUS
 10
6.0572535529
 20
-63.7832721267
 11
6.0572535529
 21
-66.2874751855
  0
LINE
  5
3F6
100
AcDbEntity
  8
ASSI
100
AcDbLine
 62
7
  6
CONTINUOUS
 10
6.214029
 20
37.168974
 11
6.214029
 21
35.782847
  0
LINE
  5
3F7
100
AcDbEntity
  8
ASSI
100
AcDbLine
 62
7
  6
CONTINUOUS
 10
6.214029
 20
35.109126
 11
6.214029
 21
33.30662
  0
LINE
  5
3F8
100
AcDbEntity
  8
0
100
AcDbLine
 62
7
  6
CONTINUOUS
 10
6.2999993553
 20
41.6287233829
 11
6.2999993553
 21
41.2712766171
  0
LINE
  5
3F9
100
AcDbEntity
  8
0
100
AcDbLine
 62
7
  6
CONTINUOUS
 10
6.3911472941
 20
-66.2874751855
 11
6.3911472941
 21
-65.1795550444
  0
LINE
  5
3FA
100
AcDbEntity
  8
0
100
AcDbLine
 62
7
  6
CONTINUOUS
 10
6.3911472941
 20
-64.8911922679
 11
6.3911472941
 21
-64.0716349032
  0
LINE
  5
3FB
100
AcDbEntity
  8
0
100
AcDbLine
 62
7
  6
CONTINUOUS
 10
6.4541659355
 20
46.8053191781
 11
6.4541659355
 21
47.05
  0
LINE
  5
3FC
100
AcDbEntity
  8
0
100
AcDbLine
 62
7
  6
CONTINUOUS
 10
6.7225006447
 20
41.5265957355
 11
6.7225006447
 21
41.6287233829
  0
LINE
  5
3FD
100
AcDbEntity
  8
ASSI
100
AcDbLine
 62
7
  6
CONTINUOUS
 10
6.793186
 20
33.30662
 11
6.793186
 21
35.115206
  0
LINE
  5
3FE
100
AcDbEntity
  8
ASSI
100
AcDbLine
 62
7
  6
CONTINUOUS
 10
6.793186
 20
35.782847
 11
6.793186
 21
37.168974
  0
LINE
  5
3FF
100
AcDbEntity
  8
0
100
AcDbLine
 62
7
  6
CONTINUOUS
 10
6.8069993553
 20
40.9648936033
 11
6.8069993553
 21
41.1180850744
  0
LINE
  5
400
100
AcDbEntity
  8
0
100
AcDbLine
 62
7
  6
CONTINUOUS
 10
6.913093264
 20
-60.1314552652
 11
6.913093264
 21
-62.635658324
  0
LINE
  5
401
100
AcDbEntity
  8
0
100
AcDbLine
 62
7
  6
CONTINUOUS
 10
6.921928
 20
55.000117
 11
6.921928
 21
49.799883
  0
LINE
  5
402
100
AcDbEntity
  8
0
100
AcDbLine
 62
7
  6
CONTINUOUS
 10
7.2469870052
 20
-62.3472955475
 11
7.2469870052
 21
-61.4822072181
  0
LINE
  5
403
100
AcDbEntity
  8
0
100
AcDbLine
 62
7
  6
CONTINUOUS
 10
7.2469870052
 20
-61.1938444416
 11
7.2469870052
 21
-60.4198180416
  0
LINE
  5
404
100
AcDbEntity
  8
ASSI
100
AcDbLine
 62
7
  6
CONTINUOUS
 10
7.257034
 20
37.168974
 11
7.257034
 21
37.715613
  0
LINE
  5
405
100
AcDbEntity
  8
ASSI
100
AcDbLine
 62
7
  6
CONTINUOUS
 10
7.274788
 20
32.762971
 11
7.274788
 21
33.30662
  0
LINE
  5
406
100
AcDbEntity
  8
0
100
AcDbLine
 62
7
  6
CONTINUOUS
 10
7.947641
 20
52.772632
 11
7.947628
 21
54.038078
  0
LINE
  5
407
100
AcDbEntity
  8
0
100
AcDbLine
 62
7
  6
CONTINUOUS
 10
8.6129159463
 20
-61.4822072181
 11
8.6129159463
 21
-61.1938444416
  0
LINE
  5
408
100
AcDbEntity
  8
0
100
AcDbLine
 62
7
  6
CONTINUOUS
 10
8.7039778758
 20
-60.4198180416
 11
8.7039778758
 21
-60.1314552652
  0
LINE
  5
409
100
AcDbEntity
  8
0
100
AcDbLine
 62
7
  6
CONTINUOUS
 10
8.7646858287
 20
-62.635658324
 11
8.7646858287
 21
-62.3472955475
  0
LINE
  5
40A
100
AcDbEntity
  8
0
100
AcDbLine
 62
7
  6
CONTINUOUS
 10
8.9195
 20
41.1180850744
 11
8.9195
 21
40.9648936033
  0
LINE
  5
40B
100
AcDbEntity
  8
0
100
AcDbLine
 62
7
  6
CONTINUOUS
 10
9.1375
 20
47.05
 11
9.1375
 21
44.75
  0
LINE
  5
40C
100
AcDbEntity
  8
0
100
AcDbLine
 62
7
  6
CONTINUOUS
 10
9.235172464
 20
-60.1314552652
 11
9.235172464
 21
-62.635658324
  0
LINE
  5
40D
100
AcDbEntity
  8
0
100
AcDbLine
 62
7
  6
CONTINUOUS
 10
9.3419993553
 20
40.9138297796
 11
9.3419993553
 21
41.1691489697
  0
LINE
  5
40E
100
AcDbEntity
  8
0
100
AcDbLine
 62
7
  6
CONTINUOUS
 10
9.425
 20
45.0436170205
 11
9.425
 21
47.05
  0
LINE
  5
40F
100
AcDbEntity
  8
0
100
AcDbLine
 62
7
  6
CONTINUOUS
 10
9.5690662052
 20
-62.635658324
 11
9.5690662052
 21
-60.7150577643
  0
LINE
  5
410
100
AcDbEntity
  8
0
100
AcDbLine
 62
7
  6
CONTINUOUS
 10
7.96198
 20
49.799883
 11
7.962097
 21
51.810593
  0
LWPOLYLINE
  5
411
100
AcDbEntity
  8
0
100
AcDbPolyline
 62
7
  6
CONTINUOUS
 90
16
 70
0
 10
8.7891114353
 20
-65.0728418386
 10
8.7900554301
 20
-64.9953791702
 10
8.7935421019
 20
-64.9210505887
 10
8.7995714505
 20
-64.8498560939
 10
8.8081908963
 20
-64.781603621
 10
8.819353019
 20
-64.7164852349
 10
8.8329155581
 20
-64.6550771304
 10
8.8489927976
 20
-64.5975989367
 10
8.8674704536
 20
-64.5438310248
 10
8.8878634133
 20
-64.4936907016
 10
8.9102376127
 20
-64.4472047893
 10
8.9345271159
 20
-64.4043464659
 10
8.9600490029
 20
-64.3649525725
 10
8.9865756335
 20
-64.3289687229
 10
9.014334648
 20
-64.2964493033
 10
9.0433260461
 20
-64.2673943138
  0
LWPOLYLINE
  5
412
100
AcDbEntity
  8
0
100
AcDbPolyline
 62
7
  6
CONTINUOUS
 90
28
 70
0
 10
4.6061910522
 20
-61.3631625212
 10
4.608618086
 20
-61.2885299755
 10
4.613589857
 20
-61.2172339199
 10
4.6211063652
 20
-61.1492743544
 10
4.6314236522
 20
-61.0847349715
 10
4.6442856763
 20
-61.0235320788
 10
4.6589243128
 20
-60.9654145991
 10
4.6749924877
 20
-60.9102789249
 10
4.6928372748
 20
-60.8582286638
 10
4.7127317714
 20
-60.809323562
 10
4.7346980934
 20
-60.7638491766
 10
4.7587141248
 20
-60.7215199506
 10
4.7849866148
 20
-60.6815389591
 10
4.813649409
 20
-60.6436499293
 10
4.8445686618
 20
-60.6081091342
 10
4.8775495854
 20
-60.574888468
 10
4.9126032447
 20
-60.5438995166
 10
4.9497185747
 20
-60.5152306941
 10
4.9886675926
 20
-60.4891191378
 10
5.029330316
 20
-60.4656049548
 10
5.0718267274
 20
-60.444648038
 10
5.1162887917
 20
-60.4263652031
 10
5.1625248764
 20
-60.4107498504
 10
5.210726614
 20
-60.3978085797
 10
5.2616008675
 20
-60.3876780055
 10
5.3153832579
 20
-60.3804036661
 10
5.3718381641
 20
-60.3759400232
 10
5.4309655863
 20
-60.3742870769
  0
LINE
  5
413
100
AcDbEntity
  8
0
100
AcDbLine
 62
7
  6
CONTINUOUS
 10
-1.5841227637
 20
-64.8304843149
 11
-1.6192196214
 21
-65.1036701032
  0
LWPOLYLINE
  5
414
100
AcDbEntity
  8
0
100
AcDbPolyline
 62
7
  6
CONTINUOUS
 90
43
 70
0
 10
-9.6661062588
 20
-64.4662365973
 10
-9.658110442
 20
-64.4233819266
 10
-9.6484587162
 20
-64.3827619439
 10
-9.6371510815
 20
-64.3443766491
 10
-9.62401253
 20
-64.308094732
 10
-9.6092180695
 20
-64.2740475028
 10
-9.5932927236
 20
-64.2426288928
 10
-9.5764119905
 20
-64.2141341475
 10
-9.5584003718
 20
-64.1882680214
 10
-9.5392563959
 20
-64.1645387094
 10
-9.5190824996
 20
-64.1429360501
 10
-9.4977762461
 20
-64.1234702048
 10
-9.4750288526
 20
-64.1056798529
 10
-9.4507337924
 20
-64.0893575878
 10
-9.4249975923
 20
-64.0747108161
 10
-9.3978310503
 20
-64.0619004363
 10
-9.3692799883
 20
-64.0508971719
 10
-9.3392985843
 20
-64.0417302995
 10
-9.3077601699
 20
-64.034648547
 10
-9.2740095535
 20
-64.0296919648
 10
-9.2387019267
 20
-64.0268205025
 10
-9.2036761953
 20
-64.0261627375
 10
-9.1690487352
 20
-64.0278403939
 10
-9.1347031706
 20
-64.0317317477
 10
-9.1021292803
 20
-64.0376002038
 10
-9.0719410547
 20
-64.0454233328
 10
-9.0435245035
 20
-64.0552235642
 10
-9.0165274345
 20
-64.0668315912
 10
-8.9908685399
 20
-64.0802270583
 10
-8.9666291275
 20
-64.095430321
 10
-8.9437009286
 20
-64.1123331391
 10
-8.921876619
 20
-64.1311143741
 10
-8.9013635229
 20
-64.1515951645
 10
-8.8826753441
 20
-64.1731306859
 10
-8.8659483307
 20
-64.1955168425
 10
-8.8510462347
 20
-64.21895773
 10
-8.8380740158
 20
-64.2434208117
 10
-8.8270651831
 20
-64.2687161035
 10
-8.8179862274
 20
-64.2950335894
 10
-8.8108415809
 20
-64.3229106845
 10
-8.8056327212
 20
-64.352526527
 10
-8.8023581707
 20
-64.3837019787
 10
-8.8010179294
 20
-64.4164370395
  0
LWPOLYLINE
  5
415
100
AcDbEntity
  8
0
100
AcDbPolyline
 62
7
  6
CONTINUOUS
 90
43
 70
0
 10
-1.8954882824
 20
-64.4662365973
 10
-1.8874924655
 20
-64.4233819266
 10
-1.8778407398
 20
-64.3827619439
 10
-1.866533105
 20
-64.3443766491
 10
-1.8533945535
 20
-64.308094732
 10
-1.8386000931
 20
-64.2740475028
 10
-1.8226747471
 20
-64.2426288928
 10
-1.805794014
 20
-64.2141341475
 10
-1.7877823954
 20
-64.1882680214
 10
-1.7686384194
 20
-64.1645387094
 10
-1.7484645232
 20
-64.1429360501
 10
-1.7271582696
 20
-64.1234702048
 10
-1.7044108762
 20
-64.1056798529
 10
-1.680115816
 20
-64.0893575878
 10
-1.6543796159
 20
-64.0747108161
 10
-1.6272130738
 20
-64.0619004363
 10
-1.5986620118
 20
-64.0508971719
 10
-1.5686806078
 20
-64.0417302995
 10
-1.5371421934
 20
-64.034648547
 10
-1.503391577
 20
-64.0296919648
 10
-1.4680839502
 20
-64.0268205025
 10
-1.4330582189
 20
-64.0261627375
 10
-1.3984307587
 20
-64.0278403939
 10
-1.3640851941
 20
-64.0317317477
 10
-1.3315113038
 20
-64.0376002038
 10
-1.3013230783
 20
-64.0454233328
 10
-1.272906527
 20
-64.0552235642
 10
-1.245909458
 20
-64.0668315912
 10
-1.2202505634
 20
-64.0802270583
 10
-1.1960111511
 20
-64.095430321
 10
-1.1730829522
 20
-64.1123331391
 10
-1.1512586426
 20
-64.1311143741
 10
-1.1307455464
 20
-64.1515951645
 10
-1.1120573676
 20
-64.1731306859
 10
-1.0953303543
 20
-64.1955168425
 10
-1.0804282583
 20
-64.21895773
 10
-1.0674560393
 20
-64.2434208117
 10
-1.0564472066
 20
-64.2687161035
 10
-1.0473682509
 20
-64.2950335894
 10
-1.0402236045
 20
-64.3229106845
 10
-1.0350147447
 20
-64.352526527
 10
-1.0317401942
 20
-64.3837019787
 10
-1.030399953
 20
-64.4164370395
  0
LINE
  5
416
100
AcDbEntity
  8
0
100
AcDbLine
 62
7
  6
CONTINUOUS
 10
-12.7125
 20
46.5606383562
 11
-12.0416666895
 21
44.75
  0
LINE
  5
417
100
AcDbEntity
  8
0
100
AcDbLine
 62
7
  6
CONTINUOUS
 10
-11.85
 20
44.9946808562
 11
-12.56875
 21
47.05
  0
LINE
  5
418
100
AcDbEntity
  8
0
100
AcDbLine
 62
7
  6
CONTINUOUS
 10
-8.4
 20
44.75
 11
-9.1666667581
 21
47.05
  0
LINE
  5
419
100
AcDbEntity
  8
0
100
AcDbLine
 62
7
  6
CONTINUOUS
 10
-8.8791667581
 20
45.3372340411
 11
-8.6875
 21
44.75
  0
LINE
  5
41A
100
AcDbEntity
  8
0
100
AcDbLine
 62
7
  6
CONTINUOUS
 10
-9.3583332419
 20
46.8542553425
 11
-8.9270832419
 21
45.5329786986
  0
LINE
  5
41B
100
AcDbEntity
  8
0
100
AcDbLine
 62
7
  6
CONTINUOUS
 10
-11.083514
 20
55.000104
 11
-9.413898
 21
49.799857
  0
LINE
  5
41C
100
AcDbEntity
  8
0
100
AcDbLine
 62
7
  6
CONTINUOUS
 10
-8.893846
 20
51.419462
 11
-10.043462
 21
55.000104
  0
LWPOLYLINE
  5
41D
100
AcDbEntity
  8
0
100
AcDbPolyline
 62
7
  6
CONTINUOUS
 90
10
 70
0
 10
23.4121397157
 20
-66.0067007874
 10
23.3997238737
 20
-65.9627858105
 10
23.386756663
 20
-65.9184913217
 10
23.3732380837
 20
-65.8738173211
 10
23.359160131
 20
-65.828761323
 10
23.3445308096
 20
-65.7833258131
 10
23.3293741336
 20
-65.7375182482
 10
23.3136981074
 20
-65.6913411142
 10
23.2974947265
 20
-65.6447919252
 10
22.6305247058
 20
-63.7832721267
  0
LINE
  5
41E
100
AcDbEntity
  8
0
100
AcDbLine
 62
7
  6
CONTINUOUS
 10
-6.4354164839
 20
46.4627658904
 11
-6.3875
 21
46.2670212328
  0
LINE
  5
41F
100
AcDbEntity
  8
0
100
AcDbLine
 62
7
  6
CONTINUOUS
 10
-6.1
 20
46.2670212328
 11
-6.1479164839
 21
46.5117021918
  0
LINE
  5
420
100
AcDbEntity
  8
0
100
AcDbLine
 62
7
  6
CONTINUOUS
 10
10.8439332169
 20
-60.1314552652
 11
10.8439332169
 21
-62.0520555933
  0
LINE
  5
421
100
AcDbEntity
  8
0
100
AcDbLine
 62
7
  6
CONTINUOUS
 10
10.8625
 20
44.75
 11
10.8625
 21
45.0436170205
  0
LINE
  5
422
100
AcDbEntity
  8
0
100
AcDbLine
 62
7
  6
CONTINUOUS
 10
11.1778269581
 20
-62.635658324
 11
11.1778269581
 21
-60.1314552652
  0
LINE
  5
423
100
AcDbEntity
  8
0
100
AcDbLine
 62
7
  6
CONTINUOUS
 10
11.5268976875
 20
-62.3352012005
 11
11.5268976875
 21
-62.635658324
  0
LINE
  5
424
100
AcDbEntity
  8
0
100
AcDbLine
 62
7
  6
CONTINUOUS
 10
11.6786675699
 20
-60.1314552652
 11
11.6786675699
 21
-60.4198180416
  0
LINE
  5
425
100
AcDbEntity
  8
0
100
AcDbLine
 62
7
  6
CONTINUOUS
 10
12.0125
 20
45.9244680822
 11
12.0125
 21
44.75
  0
LINE
  5
426
100
AcDbEntity
  8
0
100
AcDbLine
 62
7
  6
CONTINUOUS
 10
12.3
 20
44.75
 11
12.3
 21
45.9244680822
  0
LINE
  5
427
100
AcDbEntity
  8
0
100
AcDbLine
 62
7
  6
CONTINUOUS
 10
13.418092847
 20
-63.7832721267
 11
13.418092847
 21
-64.0716349032
  0
LINE
  5
428
100
AcDbEntity
  8
0
100
AcDbLine
 62
7
  6
CONTINUOUS
 10
13.4543751934
 20
-60.4198180416
 11
13.4543751934
 21
-60.1314552652
  0
LINE
  5
429
100
AcDbEntity
  8
0
100
AcDbLine
 62
7
  6
CONTINUOUS
 10
13.5
 20
29.75
 11
13.5
 21
56.75
  0
LINE
  5
42A
100
AcDbEntity
  8
0
100
AcDbLine
 62
7
  6
CONTINUOUS
 10
13.5150831463
 20
-62.635658324
 11
13.5150831463
 21
-62.3472955475
  0
LINE
  5
42B
100
AcDbEntity
  8
0
100
AcDbLine
 62
7
  6
CONTINUOUS
 10
14.2376502117
 20
-64.0716349032
 11
14.2376502117
 21
-66.2874751855
  0
LINE
  5
42C
100
AcDbEntity
  8
0
100
AcDbLine
 62
7
  6
CONTINUOUS
 10
14.5715439529
 20
-66.2874751855
 11
14.5715439529
 21
-64.0716349032
  0
LINE
  5
42D
100
AcDbEntity
  8
0
100
AcDbLine
 62
7
  6
CONTINUOUS
 10
15.3911013176
 20
-64.0716349032
 11
15.3911013176
 21
-63.7832721267
  0
LINE
  5
42E
100
AcDbEntity
  8
0
100
AcDbLine
 62
7
  6
CONTINUOUS
 10
15.7705260235
 20
-63.7832721267
 11
15.7705260235
 21
-66.2874751855
  0
LINE
  5
42F
100
AcDbEntity
  8
0
100
AcDbLine
 62
7
  6
CONTINUOUS
 10
16.1044197647
 20
-66.2874751855
 11
16.1044197647
 21
-63.7832721267
  0
LINE
  5
430
100
AcDbEntity
  8
0
100
AcDbLine
 62
7
  6
CONTINUOUS
 10
17.2637992404
 20
-60.7461231729
 11
17.2637992404
 21
-61.0439714802
  0
LINE
  5
431
100
AcDbEntity
  8
0
100
AcDbLine
 62
7
  6
CONTINUOUS
 10
17.8860557581
 20
-60.6726096723
 11
17.8860557581
 21
-62.635658324
  0
LINE
  5
432
100
AcDbEntity
  8
0
100
AcDbLine
 62
7
  6
CONTINUOUS
 10
18.1895955228
 20
-62.635658324
 11
18.1895955228
 21
-60.1162782769
  0
LINE
  5
433
100
AcDbEntity
  8
0
100
AcDbLine
 62
7
  6
CONTINUOUS
 10
18.8725599934
 20
-61.7553930063
 11
18.8725599934
 21
-62.0437557828
  0
LINE
  5
434
100
AcDbEntity
  8
0
100
AcDbLine
 62
7
  6
CONTINUOUS
 10
19.9804801346
 20
-60.6379871028
 11
19.9804801346
 21
-61.7553930063
  0
LINE
  5
435
100
AcDbEntity
  8
0
100
AcDbLine
 62
7
  6
CONTINUOUS
 10
19.9804801346
 20
-62.0437557828
 11
19.9804801346
 21
-62.635658324
  0
LWPOLYLINE
  5
436
100
AcDbEntity
  8
0
100
AcDbPolyline
 62
7
  6
CONTINUOUS
 90
28
 70
0
 10
16.9239771294
 20
-65.0149793828
 10
16.9264041632
 20
-64.940346837
 10
16.9313759342
 20
-64.8690507814
 10
16.9388924423
 20
-64.801091216
 10
16.9492097293
 20
-64.736551833
 10
16.9620717535
 20
-64.6753489403
 10
16.9767103899
 20
-64.6172314607
 10
16.9927785648
 20
-64.5620957864
 10
17.010623352
 20
-64.5100455253
 10
17.0305178486
 20
-64.4611404236
 10
17.0524841705
 20
-64.4156660381
 10
17.0765002019
 20
-64.3733368121
 10
17.1027726919
 20
-64.3333558207
 10
17.1314354861
 20
-64.2954667909
 10
17.162354739
 20
-64.2599259957
 10
17.1953356625
 20
-64.2267053295
 10
17.2303893218
 20
-64.1957163781
 10
17.2675046518
 20
-64.1670475557
 10
17.3064536698
 20
-64.1409359994
 10
17.3471163931
 20
-64.1174218164
 10
17.3896128045
 20
-64.0964648995
 10
17.4340748688
 20
-64.0781820646
 10
17.4803109535
 20
-64.062566712
 10
17.5285126911
 20
-64.0496254412
 10
17.5793869447
 20
-64.039494867
 10
17.633169335
 20
-64.0322205276
 10
17.6896242413
 20
-64.0277568848
 10
17.7487516634
 20
-64.0261039385
  0
LWPOLYLINE
  5
437
100
AcDbEntity
  8
0
100
AcDbPolyline
 62
7
  6
CONTINUOUS
 90
3
 70
0
 10
-5.2378718361
 20
-58.4719969025
 10
-5.2527216186
 20
-58.5160466628
 10
-5.2816166672
 20
-58.6034681803
  0
LINE
  5
438
100
AcDbEntity
  8
0
100
AcDbLine
 62
7
  6
CONTINUOUS
 10
-5.2072985943
 20
-58.3832204483
 11
-5.2378718361
 21
-58.4719969025
  0
LINE
  5
439
100
AcDbEntity
  8
0
100
AcDbLine
 62
7
  6
CONTINUOUS
 10
-6.3971254183
 20
-62.635658324
 11
-6.1331880168
 21
-61.8768089122
  0
LINE
  5
43A
100
AcDbEntity
  8
0
100
AcDbLine
 62
7
  6
CONTINUOUS
 10
-3.4831436772
 20
-58.9686644742
 11
-3.2192062757
 21
-58.2098150625
  0
LINE
  5
43B
100
AcDbEntity
  8
0
100
AcDbLine
 62
7
  6
CONTINUOUS
 10
-6.8735404235
 20
-70.0
 11
-6.609603022
 21
-69.2411505882
  0
LINE
  5
43C
100
AcDbEntity
  8
0
100
AcDbLine
 62
7
  6
CONTINUOUS
 10
-5.1632836341
 20
-58.9686644742
 11
-4.4241169477
 21
-56.8742400978
  0
LINE
  5
43D
100
AcDbEntity
  8
0
100
AcDbLine
 62
7
  6
CONTINUOUS
 10
-5.1440751969
 20
-58.2029378847
 11
-5.2072985943
 21
-58.3832204483
  0
LINE
  5
43E
100
AcDbEntity
  8
0
100
AcDbLine
 62
7
  6
CONTINUOUS
 10
-4.524664408
 20
-56.4644614154
 11
-5.1440751969
 21
-58.2029378847
  0
LWPOLYLINE
  5
43F
100
AcDbEntity
  8
0
100
AcDbPolyline
 62
7
  6
CONTINUOUS
 90
9
 70
0
 10
-8.7432464051
 20
-58.3251718091
 10
-8.7601161318
 20
-58.3711172436
 10
-8.7764536004
 20
-58.4168962733
 10
-8.7922556667
 20
-58.4625157828
 10
-8.8075254748
 20
-58.5079688875
 10
-8.822272458
 20
-58.5532349345
 10
-8.8364997606
 20
-58.5983070394
 10
-8.8502042382
 20
-58.6431920866
 10
-8.8633858908
 20
-58.6878900761
  0
LWPOLYLINE
  5
440
100
AcDbEntity
  8
0
100
AcDbPolyline
 62
7
  6
CONTINUOUS
 90
9
 70
0
 10
-8.7432464051
 20
-61.9921656589
 10
-8.7601161318
 20
-62.0381110933
 10
-8.7764536004
 20
-62.0838901231
 10
-8.7922556667
 20
-62.1295096325
 10
-8.8075254748
 20
-62.1749627373
 10
-8.822272458
 20
-62.2202287843
 10
-8.8364997606
 20
-62.2653008892
 10
-8.8502042382
 20
-62.3101859364
 10
-8.8633858908
 20
-62.3548839258
  0
LINE
  5
441
100
AcDbEntity
  8
0
100
AcDbLine
 62
7
  6
CONTINUOUS
 10
-6.0380946384
 20
-61.603623124
 11
-5.7675174348
 21
-60.872519104
  0
LINE
  5
442
100
AcDbEntity
  8
0
100
AcDbLine
 62
7
  6
CONTINUOUS
 10
-3.1241128972
 20
-57.9366292742
 11
-2.8535356937
 21
-57.2055252543
  0
LINE
  5
443
100
AcDbEntity
  8
0
100
AcDbLine
 62
7
  6
CONTINUOUS
 10
-6.5145096436
 20
-68.9679648
 11
-6.24393244
 21
-68.2368607801
  0
LINE
  5
444
100
AcDbEntity
  8
0
100
AcDbLine
 62
7
  6
CONTINUOUS
 10
-8.0362401477
 20
-56.4644614154
 11
-8.7432464051
 21
-58.3251718091
  0
LINE
  5
445
100
AcDbEntity
  8
0
100
AcDbLine
 62
7
  6
CONTINUOUS
 10
-8.0362401477
 20
-60.1314552652
 11
-8.7432464051
 21
-61.9921656589
  0
LINE
  5
446
100
AcDbEntity
  8
0
100
AcDbLine
 62
7
  6
CONTINUOUS
 10
-5.7976342672
 20
-60.1314552652
 11
-6.749515933
 21
-62.635658324
  0
LINE
  5
447
100
AcDbEntity
  8
0
100
AcDbLine
 62
7
  6
CONTINUOUS
 10
-2.8836525261
 20
-56.4644614154
 11
-3.8355341918
 21
-58.9686644742
  0
LINE
  5
448
100
AcDbEntity
  8
0
100
AcDbLine
 62
7
  6
CONTINUOUS
 10
-6.2740492724
 20
-67.4957969412
 11
-7.2259309382
 21
-70.0
  0
LINE
  5
449
100
AcDbEntity
  8
0
100
AcDbLine
 62
7
  6
CONTINUOUS
 10
-8.6779420151
 20
-58.9686644742
 11
-7.6791065203
 21
-56.4644614154
  0
LINE
  5
44A
100
AcDbEntity
  8
0
100
AcDbLine
 62
7
  6
CONTINUOUS
 10
-8.6779420151
 20
-62.635658324
 11
-7.6791065203
 21
-60.1314552652
  0
LWPOLYLINE
  5
44B
100
AcDbEntity
  8
0
100
AcDbPolyline
 62
7
  6
CONTINUOUS
 90
10
 70
0
 10
-5.7675174348
 20
-60.872519104
 10
-5.7466383864
 20
-60.8209886215
 10
-5.7267370347
 20
-60.7688731764
 10
-5.7078133797
 20
-60.7161727688
 10
-5.689841224
 20
-60.6628215483
 10
-5.672846765
 20
-60.6088853652
 10
-5.6569085948
 20
-60.5545617703
 10
-5.6420529106
 20
-60.4999166137
 10
-5.6282535152
 20
-60.4448840454
 10
-5.6155104084
 20
-60.3894640652
  0
LWPOLYLINE
  5
44C
100
AcDbEntity
  8
0
100
AcDbPolyline
 62
7
  6
CONTINUOUS
 90
10
 70
0
 10
-2.8535356937
 20
-57.2055252543
 10
-2.8326566453
 20
-57.1539947718
 10
-2.8127552936
 20
-57.1018793267
 10
-2.7938316385
 20
-57.049178919
 10
-2.7758594829
 20
-56.9958276985
 10
-2.7588650239
 20
-56.9418915154
 10
-2.7429268536
 20
-56.8875679205
 10
-2.7280711694
 20
-56.832922764
 10
-2.714271774
 20
-56.7778901956
 10
-2.7015286673
 20
-56.7224702154
  0
LWPOLYLINE
  5
44D
100
AcDbEntity
  8
0
100
AcDbPolyline
 62
7
  6
CONTINUOUS
 90
10
 70
0
 10
-6.24393244
 20
-68.2368607801
 10
-6.2230533916
 20
-68.1853302975
 10
-6.2031520399
 20
-68.1332148524
 10
-6.1842283849
 20
-68.0805144448
 10
-6.1662562292
 20
-68.0271632243
 10
-6.1492617702
 20
-67.9732270412
 10
-6.1333236
 20
-67.9189034463
 10
-6.1184679158
 20
-67.8642582897
 10
-6.1046685204
 20
-67.8092257214
 10
-6.0919254136
 20
-67.7538057412
  0
LINE
  5
44E
100
AcDbEntity
  8
0
100
AcDbLine
 62
7
  6
CONTINUOUS
 10
-6.53125
 20
46.6095745206
 11
-6.4354164839
 21
46.4627658904
  0
LINE
  5
44F
100
AcDbEntity
  8
0
100
AcDbLine
 62
7
  6
CONTINUOUS
 10
-8.9100000403
 20
40.556382978
 11
-10.093
 21
42.65
  0
LINE
  5
450
100
AcDbEntity
  8
0
100
AcDbLine
 62
7
  6
CONTINUOUS
 10
-10.6
 20
42.65
 11
-9.2479999597
 21
40.25
  0
LINE
  5
451
100
AcDbEntity
  8
0
100
AcDbLine
 62
7
  6
CONTINUOUS
 10
-6.1479164839
 20
46.5117021918
 11
-6.24375
 21
46.7074468493
  0
LINE
  5
452
100
AcDbEntity
  8
0
100
AcDbLine
 62
7
  6
CONTINUOUS
 10
0.2160003223
 20
42.0882979393
 11
0.1314996777
 21
42.2925532341
  0
LINE
  5
453
100
AcDbEntity
  8
0
100
AcDbLine
 62
7
  6
CONTINUOUS
 10
2.582
 20
41.2202127934
 11
2.6664996777
 21
40.9648936033
  0
LINE
  5
454
100
AcDbEntity
  8
0
100
AcDbLine
 62
7
  6
CONTINUOUS
 10
5.624
 20
41.6797872066
 11
5.5395003223
 21
41.9351063251
  0
LINE
  5
455
100
AcDbEntity
  8
0
100
AcDbLine
 62
7
  6
CONTINUOUS
 10
4.860193
 20
50.822541
 11
5.188521
 21
49.799883
  0
LINE
  5
456
100
AcDbEntity
  8
0
100
AcDbLine
 62
7
  6
CONTINUOUS
 10
4.038892
 20
53.380512
 11
4.542941
 21
51.81058
  0
LINE
  5
457
100
AcDbEntity
  8
0
100
AcDbLine
 62
7
  6
CONTINUOUS
 10
-2.890758
 20
53.229075
 11
-1.907464
 21
49.79987
  0
LINE
  5
458
100
AcDbEntity
  8
0
100
AcDbLine
 62
7
  6
CONTINUOUS
 10
-1.387451
 20
51.613526
 11
-2.358538
 21
55.000104
  0
LINE
  5
459
100
AcDbEntity
  8
0
100
AcDbLine
 62
7
  6
CONTINUOUS
 10
3.089
 20
40.9648936033
 11
3.0045003223
 21
41.2712766171
  0
LINE
  5
45A
100
AcDbEntity
  8
0
100
AcDbLine
 62
7
  6
CONTINUOUS
 10
5.117
 20
41.9351063251
 11
5.2014996777
 21
41.6287233829
  0
LINE
  5
45B
100
AcDbEntity
  8
0
100
AcDbLine
 62
7
  6
CONTINUOUS
 10
6.2999993553
 20
41.2712766171
 11
6.3845
 21
40.9138297796
  0
LINE
  5
45C
100
AcDbEntity
  8
0
100
AcDbLine
 62
7
  6
CONTINUOUS
 10
20.2840198993
 20
-62.635658324
 11
20.2840198993
 21
-62.0437557828
  0
LINE
  5
45D
100
AcDbEntity
  8
0
100
AcDbLine
 62
7
  6
CONTINUOUS
 10
20.2840198993
 20
-61.7553930063
 11
20.2840198993
 21
-60.1314552652
  0
LINE
  5
45E
100
AcDbEntity
  8
0
100
AcDbLine
 62
7
  6
CONTINUOUS
 10
20.6179136404
 20
-62.0437557828
 11
20.6179136404
 21
-61.7553930063
  0
LINE
  5
45F
100
AcDbEntity
  8
0
100
AcDbLine
 62
7
  6
CONTINUOUS
 10
24.8767189646
 20
-63.7832721267
 11
24.8767189646
 21
-66.2874751855
  0
LINE
  5
460
100
AcDbEntity
  8
0
100
AcDbLine
 62
7
  6
CONTINUOUS
 10
25.2106127058
 20
-66.2874751855
 11
25.2106127058
 21
-63.7832721267
  0
LWPOLYLINE
  5
461
100
AcDbEntity
  8
0
100
AcDbPolyline
 62
7
  6
CONTINUOUS
 90
52
 70
0
 10
6.1542438522
 20
-61.7568156391
 10
6.1403458565
 20
-61.814346958
 10
6.1244764946
 20
-61.8688101829
 10
6.1066357663
 20
-61.9202053138
 10
6.0867329579
 20
-61.9684766515
 10
6.0648587831
 20
-62.0136798952
 10
6.0412853836
 20
-62.0559821425
 10
6.0160279197
 20
-62.0953219932
 10
5.989071231
 20
-62.1317608476
 10
5.960641977
 20
-62.1656500034
 10
5.9308617406
 20
-62.1970052315
 10
5.8996089388
 20
-62.2258107611
 10
5.866745483
 20
-62.2523705783
 10
5.8322671121
 20
-62.2767746555
 10
5.7961780872
 20
-62.2989330204
 10
5.7583531025
 20
-62.318879741
 10
5.7188390102
 20
-62.3367075072
 10
5.6775889582
 20
-62.3523236292
 10
5.6343370837
 20
-62.3654841056
 10
5.5887500062
 20
-62.3762411198
 10
5.5411611063
 20
-62.3845424883
 10
5.4923046622
 20
-62.3899876595
 10
5.4419331183
 20
-62.3924991877
 10
5.3902940302
 20
-62.3921545186
 10
5.3388643436
 20
-62.3887854384
 10
5.2876711498
 20
-62.3822158628
 10
5.2366873573
 20
-62.372621876
 10
5.1873086379
 20
-62.3603635166
 10
5.1397718563
 20
-62.3453745445
 10
5.0938401477
 20
-62.3277211998
 10
5.050198589
 20
-62.3079622407
 10
5.0090517119
 20
-62.2861530511
 10
4.9701949848
 20
-62.2622382472
 10
4.9336998894
 20
-62.2366104356
 10
4.8997124654
 20
-62.2095096416
 10
4.8680866731
 20
-62.18069584
 10
4.8384558747
 20
-62.1498415619
 10
4.8108591961
 20
-62.1171036029
 10
4.7852575115
 20
-62.0823251675
 10
4.7611668055
 20
-62.0447084004
 10
4.7383813539
 20
-62.0040339656
 10
4.7171068809
 20
-61.9605211992
 10
4.6974765441
 20
-61.9140302542
 10
4.6794295136
 20
-61.8644909196
 10
4.6630266193
 20
-61.8119734065
 10
4.6485835078
 20
-61.7565485009
 10
4.6361135621
 20
-61.6982369415
 10
4.6256033994
 20
-61.6370179895
 10
4.6173285172
 20
-61.5729002145
 10
4.6113807483
 20
-61.5058864731
 10
4.6076682599
 20
-61.4359739087
 10
4.6061910522
 20
-61.3631625212
  0
LWPOLYLINE
  5
462
100
AcDbEntity
  8
0
100
AcDbPolyline
 62
7
  6
CONTINUOUS
 90
3
 70
0
 10
2.0411541469
 20
-65.7908076138
 10
2.0263043644
 20
-65.8348573741
 10
1.9974093158
 20
-65.9222788916
  0
LINE
  5
463
100
AcDbEntity
  8
0
100
AcDbLine
 62
7
  6
CONTINUOUS
 10
2.0717273887
 20
-65.7020311596
 11
2.0411541469
 21
-65.7908076138
  0
LINE
  5
464
100
AcDbEntity
  8
0
100
AcDbLine
 62
7
  6
CONTINUOUS
 10
3.7958823059
 20
-66.2874751855
 11
4.0598197074
 21
-65.5286257738
  0
LINE
  5
465
100
AcDbEntity
  8
0
100
AcDbLine
 62
7
  6
CONTINUOUS
 10
6.9738012169
 20
-58.9686644742
 11
7.2377386184
 21
-58.2098150625
  0
LINE
  5
466
100
AcDbEntity
  8
0
100
AcDbLine
 62
7
  6
CONTINUOUS
 10
2.1157423489
 20
-66.2874751855
 11
2.8549090353
 21
-64.1930508091
  0
LINE
  5
467
100
AcDbEntity
  8
0
100
AcDbLine
 62
7
  6
CONTINUOUS
 10
2.1349507861
 20
-65.521748596
 11
2.0717273887
 21
-65.7020311596
  0
LINE
  5
468
100
AcDbEntity
  8
0
100
AcDbLine
 62
7
  6
CONTINUOUS
 10
2.7543615751
 20
-63.7832721267
 11
2.1349507861
 21
-65.521748596
  0
LWPOLYLINE
  5
469
100
AcDbEntity
  8
0
100
AcDbPolyline
 62
7
  6
CONTINUOUS
 90
9
 70
0
 10
2.1083001831
 20
-61.9921656589
 10
2.0914304564
 20
-62.0381110933
 10
2.0750929878
 20
-62.0838901231
 10
2.0592909216
 20
-62.1295096325
 10
2.0440211134
 20
-62.1749627373
 10
2.0292741302
 20
-62.2202287843
 10
2.0150468276
 20
-62.2653008892
 10
2.0013423501
 20
-62.3101859364
 10
1.9881606974
 20
-62.3548839258
  0
LINE
  5
46A
100
AcDbEntity
  8
0
100
AcDbLine
 62
7
  6
CONTINUOUS
 10
4.1549130858
 20
-65.2554399855
 11
4.4254902894
 21
-64.5243359656
  0
LINE
  5
46B
100
AcDbEntity
  8
0
100
AcDbLine
 62
7
  6
CONTINUOUS
 10
7.3328319969
 20
-57.9366292742
 11
7.6034092004
 21
-57.2055252543
  0
LINE
  5
46C
100
AcDbEntity
  8
0
100
AcDbLine
 62
7
  6
CONTINUOUS
 10
2.8153064405
 20
-60.1314552652
 11
2.1083001831
 21
-61.9921656589
  0
LINE
  5
46D
100
AcDbEntity
  8
0
100
AcDbLine
 62
7
  6
CONTINUOUS
 10
4.3953734569
 20
-63.7832721267
 11
3.4434917912
 21
-66.2874751855
  0
LINE
  5
46E
100
AcDbEntity
  8
0
100
AcDbLine
 62
7
  6
CONTINUOUS
 10
7.573292368
 20
-56.4644614154
 11
6.6214107023
 21
-58.9686644742
  0
LINE
  5
46F
100
AcDbEntity
  8
0
100
AcDbLine
 62
7
  6
CONTINUOUS
 10
2.1736045731
 20
-62.635658324
 11
3.1724400679
 21
-60.1314552652
  0
LWPOLYLINE
  5
470
100
AcDbEntity
  8
0
100
AcDbPolyline
 62
7
  6
CONTINUOUS
 90
10
 70
0
 10
4.4254902894
 20
-64.5243359656
 10
4.4463693378
 20
-64.4728054831
 10
4.4662706895
 20
-64.420690038
 10
4.4851943445
 20
-64.3679896303
 10
4.5031665002
 20
-64.3146384098
 10
4.5201609591
 20
-64.2607022267
 10
4.5360991294
 20
-64.2063786318
 10
4.5509548136
 20
-64.1517334753
 10
4.564754209
 20
-64.0967009069
 10
4.5774973158
 20
-64.0412809267
  0
LWPOLYLINE
  5
471
100
AcDbEntity
  8
0
100
AcDbPolyline
 62
7
  6
CONTINUOUS
 90
10
 70
0
 10
7.6034092004
 20
-57.2055252543
 10
7.6242882488
 20
-57.1539947718
 10
7.6441896005
 20
-57.1018793267
 10
7.6631132556
 20
-57.049178919
 10
7.6810854112
 20
-56.9958276985
 10
7.6980798702
 20
-56.9418915154
 10
7.7140180405
 20
-56.8875679205
 10
7.7288737247
 20
-56.832922764
 10
7.7426731201
 20
-56.7778901956
 10
7.7554162268
 20
-56.7224702154
  0
LINE
  5
472
100
AcDbEntity
  8
0
100
AcDbLine
 62
7
  6
CONTINUOUS
 10
-6.24375
 20
46.7074468493
 11
-6.4354164839
 21
46.9031915069
  0
LINE
  5
473
100
AcDbEntity
  8
0
100
AcDbLine
 62
7
  6
CONTINUOUS
 10
2.7510003223
 20
40.8117021322
 11
2.9199996777
 21
40.6074468017
  0
LINE
  5
474
100
AcDbEntity
  8
0
100
AcDbLine
 62
7
  6
CONTINUOUS
 10
6.3845
 20
40.9138297796
 11
6.5534993553
 21
40.6585106254
  0
LINE
  5
475
100
AcDbEntity
  8
0
100
AcDbLine
 62
7
  6
CONTINUOUS
 10
0.9916670322
 20
45.0925531849
 11
-0.20625
 21
47.05
  0
LINE
  5
476
100
AcDbEntity
  8
0
100
AcDbLine
 62
7
  6
CONTINUOUS
 10
-0.35
 20
46.7563830137
 11
0.8479170322
 21
44.75
  0
LINE
  5
477
100
AcDbEntity
  8
ASSI
100
AcDbLine
 62
7
  6
CONTINUOUS
 10
7.508424
 20
33.453315
 11
7.758672
 21
33.007453
  0
LINE
  5
478
100
AcDbEntity
  8
0
100
AcDbLine
 62
7
  6
CONTINUOUS
 10
2.6664996777
 20
40.9648936033
 11
2.7510003223
 21
40.8117021322
  0
LINE
  5
479
100
AcDbEntity
  8
0
100
AcDbLine
 62
7
  6
CONTINUOUS
 10
5.5395003223
 20
41.9351063251
 11
5.4549996777
 21
42.0882979393
  0
LINE
  5
47A
100
AcDbEntity
  8
0
100
AcDbLine
 62
7
  6
CONTINUOUS
 10
6.8915
 20
40.8117021322
 11
6.8069993553
 21
40.9648936033
  0
LINE
  5
47B
100
AcDbEntity
  8
0
100
AcDbLine
 62
7
  6
CONTINUOUS
 10
8.8349993553
 20
41.2712766171
 11
8.9195
 21
41.1180850744
  0
LINE
  5
47C
100
AcDbEntity
  8
0
100
AcDbLine
 62
7
  6
CONTINUOUS
 10
9.173
 20
42.0882979393
 11
9.0884993553
 21
42.2414894104
  0
LINE
  5
47D
100
AcDbEntity
  8
0
100
AcDbLine
 62
7
  6
CONTINUOUS
 10
8.7541659355
 20
44.75
 11
7.9875
 21
47.05
  0
LINE
  5
47E
100
AcDbEntity
  8
0
100
AcDbLine
 62
7
  6
CONTINUOUS
 10
8.275
 20
45.3372340411
 11
8.4666659355
 21
44.75
  0
LINE
  5
47F
100
AcDbEntity
  8
0
100
AcDbLine
 62
7
  6
CONTINUOUS
 10
7.7958340645
 20
46.8542553425
 11
8.2270840645
 21
45.5329786986
  0
LINE
  5
480
100
AcDbEntity
  8
0
100
AcDbLine
 62
7
  6
CONTINUOUS
 10
6.228573
 20
49.79987
 11
4.558944
 21
55.000117
  0
LWPOLYLINE
  5
481
100
AcDbEntity
  8
0
100
AcDbPolyline
 62
7
  6
CONTINUOUS
 90
52
 70
0
 10
18.4720299294
 20
-65.4086325007
 10
18.4581319337
 20
-65.4661638196
 10
18.4422625717
 20
-65.5206270445
 10
18.4244218434
 20
-65.5720221754
 10
18.404519035
 20
-65.6202935131
 10
18.3826448603
 20
-65.6654967567
 10
18.3590714607
 20
-65.707799004
 10
18.3338139969
 20
-65.7471388548
 10
18.3068573081
 20
-65.7835777091
 10
18.2784280541
 20
-65.817466865
 10
18.2486478177
 20
-65.848822093
 10
18.217395016
 20
-65.8776276226
 10
18.1845315602
 20
-65.9041874398
 10
18.1500531893
 20
-65.9285915171
 10
18.1139641643
 20
-65.9507498819
 10
18.0761391796
 20
-65.9706966025
 10
18.0366250874
 20
-65.9885243687
 10
17.9953750354
 20
-66.0041404908
 10
17.9521231608
 20
-66.0173009672
 10
17.9065360834
 20
-66.0280579813
 10
17.8589471834
 20
-66.0363593498
 10
17.8100907393
 20
-66.0418045211
 10
17.7597191954
 20
-66.0443160492
 10
17.7080801074
 20
-66.0439713801
 10
17.6566504208
 20
-66.0406022999
 10
17.6054572269
 20
-66.0340327243
 10
17.5544734345
 20
-66.0244387376
 10
17.505094715
 20
-66.0121803781
 10
17.4575579334
 20
-65.997191406
 10
17.4116262248
 20
-65.9795380613
 10
17.3679846661
 20
-65.9597791022
 10
17.326837789
 20
-65.9379699126
 10
17.2879810619
 20
-65.9140551087
 10
17.2514859665
 20
-65.8884272971
 10
17.2174985425
 20
-65.8613265031
 10
17.1858727502
 20
-65.8325127015
 10
17.1562419518
 20
-65.8016584234
 10
17.1286452732
 20
-65.7689204644
 10
17.1030435886
 20
-65.734142029
 10
17.0789528826
 20
-65.6965252619
 10
17.056167431
 20
-65.6558508271
 10
17.0348929581
 20
-65.6123380607
 10
17.0152626212
 20
-65.5658471157
 10
16.9972155908
 20
-65.5163077812
 10
16.9808126964
 20
-65.4637902681
 10
16.9663695849
 20
-65.4083653624
 10
16.9538996393
 20
-65.350053803
 10
16.9433894765
 20
-65.288834851
 10
16.9351145944
 20
-65.2247170761
 10
16.9291668254
 20
-65.1577033346
 10
16.9254543371
 20
-65.0877907702
 10
16.9239771294
 20
-65.0149793828
  0
LINE
  5
482
100
AcDbEntity
  8
0
100
AcDbLine
 62
7
  6
CONTINUOUS
 10
13.9400388169
 20
-62.635658324
 11
14.2039762184
 21
-61.8768089122
  0
LINE
  5
483
100
AcDbEntity
  8
0
100
AcDbLine
 62
7
  6
CONTINUOUS
 10
14.2990695968
 20
-61.603623124
 11
14.5696468004
 21
-60.872519104
  0
LINE
  5
484
100
AcDbEntity
  8
0
100
AcDbLine
 62
7
  6
CONTINUOUS
 10
14.539529968
 20
-60.1314552652
 11
13.5876483023
 21
-62.635658324
  0
LWPOLYLINE
  5
485
100
AcDbEntity
  8
0
100
AcDbPolyline
 62
7
  6
CONTINUOUS
 90
10
 70
0
 10
14.5696468004
 20
-60.872519104
 10
14.5905258488
 20
-60.8209886215
 10
14.6104272005
 20
-60.7688731764
 10
14.6293508555
 20
-60.7161727688
 10
14.6473230112
 20
-60.6628215483
 10
14.6643174702
 20
-60.6088853652
 10
14.6802556405
 20
-60.5545617703
 10
14.6951113247
 20
-60.4999166137
 10
14.7089107201
 20
-60.4448840454
 10
14.7216538268
 20
-60.3894640652
  0
LINE
  5
486
100
AcDbEntity
  8
0
100
AcDbLine
 62
7
  6
CONTINUOUS
 10
-1.0519795992
 20
-67.4957969412
 11
-1.8063232738
 21
-68.6627650269
  0
LINE
  5
487
100
AcDbEntity
  8
0
100
AcDbLine
 62
7
  6
CONTINUOUS
 10
-1.6507593181
 20
-68.9392706004
 11
-0.6490780946
 21
-67.4957969412
  0
LWPOLYLINE
  5
488
100
AcDbEntity
  8
0
100
AcDbPolyline
 62
7
  6
CONTINUOUS
 90
28
 70
0
 10
-4.9279216287
 20
-65.8739021982
 10
-4.9520756282
 20
-65.9043043433
 10
-4.976677194
 20
-65.9320411908
 10
-5.0017263261
 20
-65.9571127407
 10
-5.0272678898
 20
-65.9794421649
 10
-5.0532570197
 20
-65.9991062916
 10
-5.0795591196
 20
-66.0163356047
 10
-5.1059747114
 20
-66.0310773363
 10
-5.1327032731
 20
-66.0433842544
 10
-5.1602086426
 20
-66.0536451477
 10
-5.1886769011
 20
-66.0620038414
 10
-5.2179219674
 20
-66.0683165102
 10
-5.2478494348
 20
-66.072540467
 10
-5.2788718851
 20
-66.0746629535
 10
-5.3105767367
 20
-66.0746967281
 10
-5.3416318383
 20
-66.072637378
 10
-5.3716386302
 20
-66.0684674989
 10
-5.4009956721
 20
-66.0622044952
 10
-5.4295664928
 20
-66.0538961677
 10
-5.457150844
 20
-66.0436862558
 10
-5.483948974
 20
-66.03143102
 10
-5.5104251566
 20
-66.016747043
 10
-5.5367750517
 20
-65.9995857994
 10
-5.5628029994
 20
-65.9799958146
 10
-5.5883862937
 20
-65.9577392466
 10
-5.6134840324
 20
-65.932736815
 10
-5.6381371178
 20
-65.9050678002
 10
-5.6623455497
 20
-65.8747322024
  0
LWPOLYLINE
  5
489
100
AcDbEntity
  8
0
100
AcDbPolyline
 62
7
  6
CONTINUOUS
 90
28
 70
0
 10
-5.6510813226
 20
-64.2053820686
 10
-5.6289946899
 20
-64.1781973286
 10
-5.6063046581
 20
-64.1534069642
 10
-5.5830112271
 20
-64.1310109756
 10
-5.5591342356
 20
-64.1110978773
 10
-5.534653845
 20
-64.0935791546
 10
-5.5095105395
 20
-64.0781892641
 10
-5.4838818918
 20
-64.0649263642
 10
-5.4575903293
 20
-64.0537922965
 10
-5.4300436182
 20
-64.0445270427
 10
-5.4008481076
 20
-64.0369780569
 10
-5.3703974485
 20
-64.0312978849
 10
-5.3392803603
 20
-64.0276841464
 10
-5.3071405703
 20
-64.0262151109
 10
-5.2743343512
 20
-64.0268125088
 10
-5.2425192401
 20
-64.0294391508
 10
-5.2122779172
 20
-64.034103145
 10
-5.1830277024
 20
-64.0407963833
 10
-5.1546780916
 20
-64.0494573518
 10
-5.1273835371
 20
-64.0599268625
 10
-5.1009895868
 20
-64.0723641035
 10
-5.0749423795
 20
-64.0871851252
 10
-5.0490131671
 20
-64.1044422951
 10
-5.0234306978
 20
-64.1240832457
 10
-4.9983273556
 20
-64.146366924
 10
-4.9737472686
 20
-64.1713796454
 10
-4.9496463088
 20
-64.1990350945
 10
-4.9260244762
 20
-64.2293332712
  0
LINE
  5
48A
100
AcDbEntity
  8
0
100
AcDbLine
 62
7
  6
CONTINUOUS
 10
8.4125
 20
40.556382978
 11
8.159
 21
40.5053191543
  0
LINE
  5
48B
100
AcDbEntity
  8
0
100
AcDbLine
 62
7
  6
CONTINUOUS
 10
8.0744993553
 20
40.25
 11
8.4970006447
 21
40.3010638282
  0
LINE
  5
48C
100
AcDbEntity
  8
0
100
AcDbLine
 62
7
  6
CONTINUOUS
 10
-13.5
 20
29.75
 11
13.5
 21
29.75
  0
LINE
  5
48D
100
AcDbEntity
  8
ASSI
100
AcDbLine
 62
7
  6
CONTINUOUS
 10
5.732239
 20
32.762971
 11
7.274788
 21
32.762971
  0
LINE
  5
48E
100
AcDbEntity
  8
ASSI
100
AcDbLine
 62
7
  6
CONTINUOUS
 10
7.274788
 20
33.30662
 11
6.793186
 21
33.30662
  0
LINE
  5
48F
100
AcDbEntity
  8
ASSI
100
AcDbLine
 62
7
  6
CONTINUOUS
 10
6.214029
 20
33.30662
 11
5.732239
 21
33.30662
  0
LINE
  5
490
100
AcDbEntity
  8
ASSI
100
AcDbLine
 62
7
  6
CONTINUOUS
 10
5.749993
 20
37.168974
 11
6.214029
 21
37.168974
  0
LINE
  5
491
100
AcDbEntity
  8
ASSI
100
AcDbLine
 62
7
  6
CONTINUOUS
 10
6.793186
 20
37.168974
 11
7.257034
 21
37.168974
  0
LINE
  5
492
100
AcDbEntity
  8
ASSI
100
AcDbLine
 62
7
  6
CONTINUOUS
 10
7.257034
 20
37.715613
 11
5.749993
 21
37.715613
  0
LINE
  5
493
100
AcDbEntity
  8
0
100
AcDbLine
 62
7
  6
CONTINUOUS
 10
3.6804996777
 20
40.556382978
 11
3.4269996777
 21
40.6585106254
  0
LINE
  5
494
100
AcDbEntity
  8
0
100
AcDbLine
 62
7
  6
CONTINUOUS
 10
-0.7135
 20
42.3436170578
 11
-0.46
 21
42.2414894104
  0
LINE
  5
495
100
AcDbEntity
  8
0
100
AcDbLine
 62
7
  6
CONTINUOUS
 10
-6.4354164839
 20
46.9031915069
 11
-6.6270835161
 21
47.0010638356
  0
LINE
  5
496
100
AcDbEntity
  8
0
100
AcDbLine
 62
7
  6
CONTINUOUS
 10
0.1314996777
 20
42.2925532341
 11
-0.2065
 21
42.4968085289
  0
LINE
  5
497
100
AcDbEntity
  8
0
100
AcDbLine
 62
7
  6
CONTINUOUS
 10
2.9199996777
 20
40.6074468017
 11
3.1734996777
 21
40.4542553127
  0
LINE
  5
498
100
AcDbEntity
  8
0
100
AcDbLine
 62
7
  6
CONTINUOUS
 10
5.2860003223
 20
42.2925532341
 11
5.0325003223
 21
42.4457447052
  0
LINE
  5
499
100
AcDbEntity
  8
0
100
AcDbLine
 62
7
  6
CONTINUOUS
 10
-6.675
 20
46.7074468493
 11
-6.53125
 21
46.6095745206
  0
LINE
  5
49A
100
AcDbEntity
  8
0
100
AcDbLine
 62
7
  6
CONTINUOUS
 10
6.5534993553
 20
40.6585106254
 11
6.8069993553
 21
40.4542553127
  0
LINE
  5
49B
100
AcDbEntity
  8
0
100
AcDbLine
 62
7
  6
CONTINUOUS
 10
9.0884993553
 20
42.2414894104
 11
8.8349993553
 21
42.4457447052
  0
LINE
  5
49C
100
AcDbEntity
  8
ASSI
100
AcDbLine
 62
7
  6
CONTINUOUS
 10
4.752224
 20
36.340998
 11
6.214029
 21
35.109126
  0
LINE
  5
49D
100
AcDbEntity
  8
ASSI
100
AcDbLine
 62
7
  6
CONTINUOUS
 10
6.214029
 20
35.782847
 11
4.684752
 21
37.071578
  0
LINE
  5
49E
100
AcDbEntity
  8
0
100
AcDbLine
 62
7
  6
CONTINUOUS
 10
-0.46
 20
42.2414894104
 11
-0.2909996777
 21
42.0882979393
  0
LINE
  5
49F
100
AcDbEntity
  8
0
100
AcDbLine
 62
7
  6
CONTINUOUS
 10
3.4269996777
 20
40.6585106254
 11
3.089
 21
40.9648936033
  0
LINE
  5
4A0
100
AcDbEntity
  8
0
100
AcDbLine
 62
7
  6
CONTINUOUS
 10
4.7790003223
 20
42.2414894104
 11
5.117
 21
41.9351063251
  0
LINE
  5
4A1
100
AcDbEntity
  8
0
100
AcDbLine
 62
7
  6
CONTINUOUS
 10
7.0604993553
 20
40.6585106254
 11
6.8915
 21
40.8117021322
  0
LINE
  5
4A2
100
AcDbEntity
  8
0
100
AcDbLine
 62
7
  6
CONTINUOUS
 10
8.5814993553
 20
42.2414894104
 11
8.7505006447
 21
42.0882979393
  0
LINE
  5
4A3
100
AcDbEntity
  8
0
100
AcDbLine
 62
7
  6
CONTINUOUS
 10
5.4549996777
 20
42.0882979393
 11
5.2860003223
 21
42.2925532341
  0
LINE
  5
4A4
100
AcDbEntity
  8
0
100
AcDbLine
 62
7
  6
CONTINUOUS
 10
11.2458340645
 20
47.05
 11
12.0125
 21
45.9244680822
  0
LINE
  5
4A5
100
AcDbEntity
  8
0
100
AcDbLine
 62
7
  6
CONTINUOUS
 10
12.15625
 20
46.1202127397
 11
11.5333340645
 21
47.05
  0
LINE
  5
4A6
100
AcDbEntity
  8
0
100
AcDbLine
 62
7
  6
CONTINUOUS
 10
9.3419993553
 20
41.1691489697
 11
9.173
 21
41.4244680882
  0
LINE
  5
4A7
100
AcDbEntity
  8
0
100
AcDbLine
 62
7
  6
CONTINUOUS
 10
8.869822
 20
51.81058
 11
9.912071
 21
49.799883
  0
LINE
  5
4A8
100
AcDbEntity
  8
0
100
AcDbLine
 62
7
  6
CONTINUOUS
 10
11.083514
 20
49.799896
 11
9.976444921
 21
51.9356570108
  0
LINE
  5
4A9
100
AcDbEntity
  8
0
100
AcDbLine
 62
7
  6
CONTINUOUS
 10
19.2915872941
 20
-66.2874751855
 11
19.5555246956
 21
-65.5286257738
  0
LWPOLYLINE
  5
4AA
100
AcDbEntity
  8
0
100
AcDbPolyline
 62
7
  6
CONTINUOUS
 90
9
 70
0
 10
23.5322792014
 20
-65.6439825204
 10
23.5154094747
 20
-65.6899279549
 10
23.4990720061
 20
-65.7357069846
 10
23.4832699399
 20
-65.7813264941
 10
23.4680001317
 20
-65.8267795988
 10
23.4532531485
 20
-65.8720456458
 10
23.4390258459
 20
-65.9171177507
 10
23.4253213683
 20
-65.9620027979
 10
23.4121397157
 20
-66.0067007874
  0
LINE
  5
4AB
100
AcDbEntity
  8
0
100
AcDbLine
 62
7
  6
CONTINUOUS
 10
19.650618074
 20
-65.2554399855
 11
19.9211952776
 21
-64.5243359656
  0
LINE
  5
4AC
100
AcDbEntity
  8
0
100
AcDbLine
 62
7
  6
CONTINUOUS
 10
19.8910784452
 20
-63.7832721267
 11
18.9391967794
 21
-66.2874751855
  0
LINE
  5
4AD
100
AcDbEntity
  8
0
100
AcDbLine
 62
7
  6
CONTINUOUS
 10
24.2392854588
 20
-63.7832721267
 11
23.5322792014
 21
-65.6439825204
  0
LINE
  5
4AE
100
AcDbEntity
  8
0
100
AcDbLine
 62
7
  6
CONTINUOUS
 10
23.5975835914
 20
-66.2874751855
 11
24.5964190862
 21
-63.7832721267
  0
LWPOLYLINE
  5
4AF
100
AcDbEntity
  8
0
100
AcDbPolyline
 62
7
  6
CONTINUOUS
 90
10
 70
0
 10
19.9211952776
 20
-64.5243359656
 10
19.942074326
 20
-64.4728054831
 10
19.9619756777
 20
-64.420690038
 10
19.9808993327
 20
-64.3679896303
 10
19.9988714884
 20
-64.3146384098
 10
20.0158659474
 20
-64.2607022267
 10
20.0318041176
 20
-64.2063786318
 10
20.0466598018
 20
-64.1517334753
 10
20.0604591973
 20
-64.0967009069
 10
20.073202304
 20
-64.0412809267
  0
LWPOLYLINE
  5
4B0
100
AcDbEntity
  8
0
100
AcDbPolyline
 62
7
  6
CONTINUOUS
 90
19
 70
0
 10
17.9939546842
 20
-60.1162782769
 10
17.9753656009
 20
-60.1511064456
 10
17.954247389
 20
-60.1861311803
 10
17.9306000486
 20
-60.2213524812
 10
17.9043848984
 20
-60.2568131163
 10
17.8756406197
 20
-60.2924703175
 10
17.8444832563
 20
-60.3281957807
 10
17.8109873896
 20
-60.3639701407
 10
17.7750784382
 20
-60.3998127627
 10
17.7366487013
 20
-60.4356534377
 10
17.6957830085
 20
-60.4715658647
 10
17.6523965302
 20
-60.5074763447
 10
17.6061270773
 20
-60.5430935723
 10
17.5569814855
 20
-60.5784661066
 10
17.5049529189
 20
-60.6135453885
 10
17.4496586809
 20
-60.6478944344
 10
17.3909712056
 20
-60.6813675832
 10
17.3290180588
 20
-60.714110496
 10
17.2637992404
 20
-60.7461231729
  0
LINE
  5
4B1
100
AcDbEntity
  8
0
100
AcDbLine
 62
7
  6
CONTINUOUS
 10
12.8057961483
 20
-60.7198006455
 11
11.5268976875
 21
-62.3352012005
  0
LINE
  5
4B2
100
AcDbEntity
  8
0
100
AcDbLine
 62
7
  6
CONTINUOUS
 10
11.9051369047
 20
-62.3472955475
 11
12.2490479378
 21
-61.9191121538
  0
LINE
  5
4B3
100
AcDbEntity
  8
0
100
AcDbLine
 62
7
  6
CONTINUOUS
 10
12.2490479378
 20
-61.9191121538
 11
12.5928492909
 21
-61.4913204893
  0
LINE
  5
4B4
100
AcDbEntity
  8
0
100
AcDbLine
 62
7
  6
CONTINUOUS
 10
12.5928492909
 20
-61.4913204893
 11
13.4543751934
 21
-60.4198180416
  0
LWPOLYLINE
  5
4B5
100
AcDbEntity
  8
0
100
AcDbPolyline
 62
7
  6
CONTINUOUS
 90
34
 70
0
 10
6.2606013419
 20
-57.7175114053
 10
6.292867326
 20
-57.6790848228
 10
6.3222794011
 20
-57.6392687784
 10
6.3488375673
 20
-57.5980632721
 10
6.3725535214
 20
-57.555582208
 10
6.3934155665
 20
-57.5117116819
 10
6.4113886117
 20
-57.466109982
 10
6.4265039378
 20
-57.4187120467
 10
6.4387302639
 20
-57.3695829376
 10
6.4479386561
 20
-57.3185761265
 10
6.4541338548
 20
-57.2646034165
 10
6.4573111196
 20
-57.2087530046
 10
6.457327295
 20
-57.1541429536
 10
6.4540779855
 20
-57.1016747002
 10
6.4476675868
 20
-57.0504468077
 10
6.4382661301
 20
-57.0008730287
 10
6.4257029346
 20
-56.9529210017
 10
6.4101486812
 20
-56.9066230883
 10
6.3922854435
 20
-56.8624901249
 10
6.3720559717
 20
-56.8204246187
 10
6.3495175156
 20
-56.7805240627
 10
6.3255238982
 20
-56.7435917727
 10
6.3004418402
 20
-56.7101152005
 10
6.2739046208
 20
-56.6796068943
 10
6.2456659009
 20
-56.6514078154
 10
6.2159689367
 20
-56.625458779
 10
6.184570472
 20
-56.6018189699
 10
6.1504943977
 20
-56.5800069034
 10
6.1135002383
 20
-56.5598020393
 10
6.0738284695
 20
-56.541424918
 10
6.0312244096
 20
-56.5250556756
 10
5.9856031646
 20
-56.5107543575
 10
5.9370496284
 20
-56.4984609184
 10
5.8855638011
 20
-56.4881753582
  0
LINE
  5
4B6
100
AcDbEntity
  8
0
100
AcDbLine
 62
7
  6
CONTINUOUS
 10
-6.675
 20
45.0925531849
 11
-6.8666664839
 21
45.0436170205
  0
LINE
  5
4B7
100
AcDbEntity
  8
0
100
AcDbLine
 62
7
  6
CONTINUOUS
 10
-6.8666664839
 20
44.75
 11
-6.6270835161
 21
44.7989361687
  0
LINE
  5
4B8
100
AcDbEntity
  8
0
100
AcDbLine
 62
7
  6
CONTINUOUS
 10
7.3139993553
 20
41.4755319118
 11
7.5674993553
 21
41.5265957355
  0
LINE
  5
4B9
100
AcDbEntity
  8
0
100
AcDbLine
 62
7
  6
CONTINUOUS
 10
7.3139993553
 20
42.3436170578
 11
7.5674993553
 21
42.3946808815
  0
LINE
  5
4BA
100
AcDbEntity
  8
0
100
AcDbLine
 62
7
  6
CONTINUOUS
 10
4.5255003223
 20
40.556382978
 11
4.103
 21
40.5053191543
  0
LINE
  5
4BB
100
AcDbEntity
  8
0
100
AcDbLine
 62
7
  6
CONTINUOUS
 10
7.652
 20
41.781914854
 11
7.2295006447
 21
41.7308510303
  0
LINE
  5
4BC
100
AcDbEntity
  8
0
100
AcDbLine
 62
7
  6
CONTINUOUS
 10
7.652
 20
42.65
 11
7.2295006447
 21
42.5989361763
  0
LINE
  5
4BD
100
AcDbEntity
  8
0
100
AcDbLine
 62
7
  6
CONTINUOUS
 10
3.6804996777
 20
42.3436170578
 11
4.103
 21
42.3946808815
  0
LINE
  5
4BE
100
AcDbEntity
  8
0
100
AcDbLine
 62
7
  6
CONTINUOUS
 10
-1.8965003223
 20
42.3436170578
 11
-1.474
 21
42.3946808815
  0
LINE
  5
4BF
100
AcDbEntity
  8
0
100
AcDbLine
 62
7
  6
CONTINUOUS
 10
4.103
 20
40.25
 11
4.61
 21
40.3010638282
  0
LINE
  5
4C0
100
AcDbEntity
  8
0
100
AcDbLine
 62
7
  6
CONTINUOUS
 10
4.103
 20
42.65
 11
3.596
 21
42.5989361763
  0
LINE
  5
4C1
100
AcDbEntity
  8
0
100
AcDbLine
 62
7
  6
CONTINUOUS
 10
-1.3895003223
 20
42.65
 11
-1.981
 21
42.5989361763
  0
LINE
  5
4C2
100
AcDbEntity
  8
0
100
AcDbLine
 62
7
  6
CONTINUOUS
 10
-9.2479999597
 20
40.25
 11
-8.572
 21
40.25
  0
LINE
  5
4C3
100
AcDbEntity
  8
0
100
AcDbLine
 62
7
  6
CONTINUOUS
 10
-5.6989998388
 20
40.25
 11
-5.1919998388
 21
40.25
  0
LINE
  5
4C4
100
AcDbEntity
  8
0
100
AcDbLine
 62
7
  6
CONTINUOUS
 10
-2.8260001612
 20
40.25
 11
0.2160003223
 21
40.25
  0
LINE
  5
4C5
100
AcDbEntity
  8
0
100
AcDbLine
 62
7
  6
CONTINUOUS
 10
1.3989996777
 20
40.25
 11
1.9059996777
 21
40.25
  0
LINE
  5
4C6
100
AcDbEntity
  8
0
100
AcDbLine
 62
7
  6
CONTINUOUS
 10
7.652
 20
40.25
 11
8.0744993553
 21
40.25
  0
LINE
  5
4C7
100
AcDbEntity
  8
0
100
AcDbLine
 62
7
  6
CONTINUOUS
 10
8.159
 20
40.5053191543
 11
7.5674993553
 21
40.5053191543
  0
LINE
  5
4C8
100
AcDbEntity
  8
0
100
AcDbLine
 62
7
  6
CONTINUOUS
 10
0.2160003223
 20
40.5053191543
 11
-2.1500003223
 21
40.5053191543
  0
LINE
  5
4C9
100
AcDbEntity
  8
0
100
AcDbLine
 62
7
  6
CONTINUOUS
 10
7.5674993553
 20
41.5265957355
 11
8.159
 21
41.5265957355
  0
LINE
  5
4CA
100
AcDbEntity
  8
0
100
AcDbLine
 62
7
  6
CONTINUOUS
 10
8.0744993553
 20
41.781914854
 11
7.652
 21
41.781914854
  0
LINE
  5
4CB
100
AcDbEntity
  8
0
100
AcDbLine
 62
7
  6
CONTINUOUS
 10
-2.7415
 20
42.0882979393
 11
-2.3189996777
 21
42.0882979393
  0
LINE
  5
4CC
100
AcDbEntity
  8
0
100
AcDbLine
 62
7
  6
CONTINUOUS
 10
8.7505006447
 20
42.0882979393
 11
9.173
 21
42.0882979393
  0
LINE
  5
4CD
100
AcDbEntity
  8
0
100
AcDbLine
 62
7
  6
CONTINUOUS
 10
-6.544
 20
42.3946808815
 11
-4.009
 21
42.3946808815
  0
LINE
  5
4CE
100
AcDbEntity
  8
0
100
AcDbLine
 62
7
  6
CONTINUOUS
 10
-1.474
 20
42.3946808815
 11
-1.1360003223
 21
42.3946808815
  0
LINE
  5
4CF
100
AcDbEntity
  8
0
100
AcDbLine
 62
7
  6
CONTINUOUS
 10
7.5674993553
 20
42.3946808815
 11
8.0744993553
 21
42.3946808815
  0
LINE
  5
4D0
100
AcDbEntity
  8
0
100
AcDbLine
 62
7
  6
CONTINUOUS
 10
7.9900006447
 20
42.65
 11
7.652
 21
42.65
  0
LINE
  5
4D1
100
AcDbEntity
  8
0
100
AcDbLine
 62
7
  6
CONTINUOUS
 10
1.9059996777
 20
42.65
 11
1.3989996777
 21
42.65
  0
LINE
  5
4D2
100
AcDbEntity
  8
0
100
AcDbLine
 62
7
  6
CONTINUOUS
 10
-1.0514996777
 20
42.65
 11
-1.3895003223
 21
42.65
  0
LINE
  5
4D3
100
AcDbEntity
  8
0
100
AcDbLine
 62
7
  6
CONTINUOUS
 10
-3.502
 20
42.65
 11
-6.544
 21
42.65
  0
LINE
  5
4D4
100
AcDbEntity
  8
0
100
AcDbLine
 62
7
  6
CONTINUOUS
 10
-7.2200000806
 20
42.65
 11
-7.7270000806
 21
42.65
  0
LINE
  5
4D5
100
AcDbEntity
  8
0
100
AcDbLine
 62
7
  6
CONTINUOUS
 10
-10.093
 20
42.65
 11
-10.6
 21
42.65
  0
LINE
  5
4D6
100
AcDbEntity
  8
0
100
AcDbLine
 62
7
  6
CONTINUOUS
 10
-13.0
 20
44.75
 11
-12.7125
 21
44.75
  0
LINE
  5
4D7
100
AcDbEntity
  8
0
100
AcDbLine
 62
7
  6
CONTINUOUS
 10
-12.0416666895
 20
44.75
 11
-11.658333379
 21
44.75
  0
LINE
  5
4D8
100
AcDbEntity
  8
0
100
AcDbLine
 62
7
  6
CONTINUOUS
 10
-10.9875
 20
44.75
 11
-10.7
 21
44.75
  0
LINE
  5
4D9
100
AcDbEntity
  8
0
100
AcDbLine
 62
7
  6
CONTINUOUS
 10
-10.3166667581
 20
44.75
 11
-10.0291667581
 21
44.75
  0
LINE
  5
4DA
100
AcDbEntity
  8
0
100
AcDbLine
 62
7
  6
CONTINUOUS
 10
-8.6875
 20
44.75
 11
-8.4
 21
44.75
  0
LINE
  5
4DB
100
AcDbEntity
  8
0
100
AcDbLine
 62
7
  6
CONTINUOUS
 10
-8.0166664839
 20
44.75
 11
-6.8666664839
 21
44.75
  0
LINE
  5
4DC
100
AcDbEntity
  8
0
100
AcDbLine
 62
7
  6
CONTINUOUS
 10
-5.7166664839
 20
44.75
 11
-3.9916664839
 21
44.75
  0
LINE
  5
4DD
100
AcDbEntity
  8
0
100
AcDbLine
 62
7
  6
CONTINUOUS
 10
-1.3083329678
 20
44.75
 11
-1.0208329678
 21
44.75
  0
LINE
  5
4DE
100
AcDbEntity
  8
0
100
AcDbLine
 62
7
  6
CONTINUOUS
 10
-0.6375
 20
44.75
 11
-0.35
 21
44.75
  0
LINE
  5
4DF
100
AcDbEntity
  8
0
100
AcDbLine
 62
7
  6
CONTINUOUS
 10
0.8479170322
 20
44.75
 11
1.2791670322
 21
44.75
  0
LINE
  5
4E0
100
AcDbEntity
  8
0
100
AcDbLine
 62
7
  6
CONTINUOUS
 10
3.9625
 20
44.75
 11
4.25
 21
44.75
  0
LINE
  5
4E1
100
AcDbEntity
  8
0
100
AcDbLine
 62
7
  6
CONTINUOUS
 10
5.4
 20
44.75
 11
5.6875
 21
44.75
  0
LINE
  5
4E2
100
AcDbEntity
  8
0
100
AcDbLine
 62
7
  6
CONTINUOUS
 10
6.8375
 20
44.75
 11
7.125
 21
44.75
  0
LINE
  5
4E3
100
AcDbEntity
  8
0
100
AcDbLine
 62
7
  6
CONTINUOUS
 10
8.4666659355
 20
44.75
 11
8.7541659355
 21
44.75
  0
LINE
  5
4E4
100
AcDbEntity
  8
0
100
AcDbLine
 62
7
  6
CONTINUOUS
 10
9.1375
 20
44.75
 11
10.8625
 21
44.75
  0
LINE
  5
4E5
100
AcDbEntity
  8
0
100
AcDbLine
 62
7
  6
CONTINUOUS
 10
12.0125
 20
44.75
 11
12.3
 21
44.75
  0
LINE
  5
4E6
100
AcDbEntity
  8
0
100
AcDbLine
 62
7
  6
CONTINUOUS
 10
10.8625
 20
45.0436170205
 11
9.425
 21
45.0436170205
  0
LINE
  5
4E7
100
AcDbEntity
  8
0
100
AcDbLine
 62
7
  6
CONTINUOUS
 10
-3.9916664839
 20
45.0436170205
 11
-5.4291664839
 21
45.0436170205
  0
LINE
  5
4E8
100
AcDbEntity
  8
0
100
AcDbLine
 62
7
  6
CONTINUOUS
 10
-6.8666664839
 20
45.0436170205
 11
-7.7291664839
 21
45.0436170205
  0
LINE
  5
4E9
100
AcDbEntity
  8
0
100
AcDbLine
 62
7
  6
CONTINUOUS
 10
-9.8375
 20
45.3372340411
 11
-8.8791667581
 21
45.3372340411
  0
LINE
  5
4EA
100
AcDbEntity
  8
0
100
AcDbLine
 62
7
  6
CONTINUOUS
 10
7.3166659355
 20
45.3372340411
 11
8.275
 21
45.3372340411
  0
LINE
  5
4EB
100
AcDbEntity
  8
0
100
AcDbLine
 62
7
  6
CONTINUOUS
 10
8.2270840645
 20
45.5329786986
 11
7.3645840645
 21
45.5329786986
  0
LINE
  5
4EC
100
AcDbEntity
  8
0
100
AcDbLine
 62
7
  6
CONTINUOUS
 10
-8.9270832419
 20
45.5329786986
 11
-9.7895832419
 21
45.5329786986
  0
LINE
  5
4ED
100
AcDbEntity
  8
0
100
AcDbLine
 62
7
  6
CONTINUOUS
 10
-5.4291664839
 20
45.8265957534
 11
-4.1833335161
 21
45.8265957534
  0
LINE
  5
4EE
100
AcDbEntity
  8
0
100
AcDbLine
 62
7
  6
CONTINUOUS
 10
-4.1833335161
 20
46.1202127397
 11
-5.4291664839
 21
46.1202127397
  0
LINE
  5
4EF
100
AcDbEntity
  8
0
100
AcDbLine
 62
7
  6
CONTINUOUS
 10
-7.7291664839
 20
46.7563830137
 11
-6.8666664839
 21
46.7563830137
  0
LINE
  5
4F0
100
AcDbEntity
  8
0
100
AcDbLine
 62
7
  6
CONTINUOUS
 10
-5.4291664839
 20
46.7563830137
 11
-3.9916664839
 21
46.7563830137
  0
LINE
  5
4F1
100
AcDbEntity
  8
0
100
AcDbLine
 62
7
  6
CONTINUOUS
 10
4.6333329678
 20
46.8053191781
 11
5.4
 21
46.8053191781
  0
LINE
  5
4F2
100
AcDbEntity
  8
0
100
AcDbLine
 62
7
  6
CONTINUOUS
 10
5.6875
 20
46.8053191781
 11
6.4541659355
 21
46.8053191781
  0
LINE
  5
4F3
100
AcDbEntity
  8
0
100
AcDbLine
 62
7
  6
CONTINUOUS
 10
13.0666659355
 20
47.05
 11
12.7791659355
 21
47.05
  0
LINE
  5
4F4
100
AcDbEntity
  8
0
100
AcDbLine
 62
7
  6
CONTINUOUS
 10
11.5333340645
 20
47.05
 11
11.2458340645
 21
47.05
  0
LINE
  5
4F5
100
AcDbEntity
  8
0
100
AcDbLine
 62
7
  6
CONTINUOUS
 10
9.425
 20
47.05
 11
9.1375
 21
47.05
  0
LINE
  5
4F6
100
AcDbEntity
  8
0
100
AcDbLine
 62
7
  6
CONTINUOUS
 10
7.9875
 20
47.05
 11
7.6041659355
 21
47.05
  0
LINE
  5
4F7
100
AcDbEntity
  8
0
100
AcDbLine
 62
7
  6
CONTINUOUS
 10
6.4541659355
 20
47.05
 11
4.6333329678
 21
47.05
  0
LINE
  5
4F8
100
AcDbEntity
  8
0
100
AcDbLine
 62
7
  6
CONTINUOUS
 10
4.25
 20
47.05
 11
3.9625
 21
47.05
  0
LINE
  5
4F9
100
AcDbEntity
  8
0
100
AcDbLine
 62
7
  6
CONTINUOUS
 10
1.2791670322
 20
47.05
 11
0.9916670322
 21
47.05
  0
LINE
  5
4FA
100
AcDbEntity
  8
0
100
AcDbLine
 62
7
  6
CONTINUOUS
 10
-0.20625
 20
47.05
 11
-0.6375
 21
47.05
  0
LINE
  5
4FB
100
AcDbEntity
  8
0
100
AcDbLine
 62
7
  6
CONTINUOUS
 10
-1.0208329678
 20
47.05
 11
-1.3083329678
 21
47.05
  0
LINE
  5
4FC
100
AcDbEntity
  8
0
100
AcDbLine
 62
7
  6
CONTINUOUS
 10
-3.9916664839
 20
47.05
 11
-5.7166664839
 21
47.05
  0
LINE
  5
4FD
100
AcDbEntity
  8
0
100
AcDbLine
 62
7
  6
CONTINUOUS
 10
-6.8666664839
 20
47.05
 11
-8.0166664839
 21
47.05
  0
LINE
  5
4FE
100
AcDbEntity
  8
0
100
AcDbLine
 62
7
  6
CONTINUOUS
 10
-9.1666667581
 20
47.05
 11
-9.55
 21
47.05
  0
LINE
  5
4FF
100
AcDbEntity
  8
0
100
AcDbLine
 62
7
  6
CONTINUOUS
 10
-10.7
 20
47.05
 11
-11.13125
 21
47.05
  0
LINE
  5
500
100
AcDbEntity
  8
0
100
AcDbLine
 62
7
  6
CONTINUOUS
 10
-12.56875
 20
47.05
 11
-13.0
 21
47.05
  0
LINE
  5
501
100
AcDbEntity
  8
0
100
AcDbLine
 62
7
  6
CONTINUOUS
 10
3.596
 20
40.3010638282
 11
4.103
 21
40.25
  0
LINE
  5
502
100
AcDbEntity
  8
0
100
AcDbLine
 62
7
  6
CONTINUOUS
 10
-0.5444996777
 20
42.5989361763
 11
-1.0514996777
 21
42.65
  0
LINE
  5
503
100
AcDbEntity
  8
0
100
AcDbLine
 62
7
  6
CONTINUOUS
 10
4.61
 20
42.5989361763
 11
4.103
 21
42.65
  0
LINE
  5
504
100
AcDbEntity
  8
0
100
AcDbLine
 62
7
  6
CONTINUOUS
 10
4.103
 20
40.5053191543
 11
3.6804996777
 21
40.556382978
  0
LINE
  5
505
100
AcDbEntity
  8
0
100
AcDbLine
 62
7
  6
CONTINUOUS
 10
7.2295006447
 20
40.3010638282
 11
7.652
 21
40.25
  0
LINE
  5
506
100
AcDbEntity
  8
0
100
AcDbLine
 62
7
  6
CONTINUOUS
 10
-1.1360003223
 20
42.3946808815
 11
-0.7135
 21
42.3436170578
  0
LINE
  5
507
100
AcDbEntity
  8
0
100
AcDbLine
 62
7
  6
CONTINUOUS
 10
8.4970006447
 20
41.7308510303
 11
8.0744993553
 21
41.781914854
  0
LINE
  5
508
100
AcDbEntity
  8
0
100
AcDbLine
 62
7
  6
CONTINUOUS
 10
4.103
 20
42.3946808815
 11
4.5255003223
 21
42.3436170578
  0
LINE
  5
509
100
AcDbEntity
  8
0
100
AcDbLine
 62
7
  6
CONTINUOUS
 10
8.4125
 20
42.5989361763
 11
7.9900006447
 21
42.65
  0
LINE
  5
50A
100
AcDbEntity
  8
0
100
AcDbLine
 62
7
  6
CONTINUOUS
 10
7.5674993553
 20
40.5053191543
 11
7.3139993553
 21
40.556382978
  0
LINE
  5
50B
100
AcDbEntity
  8
0
100
AcDbLine
 62
7
  6
CONTINUOUS
 10
8.159
 20
41.5265957355
 11
8.4125
 21
41.4755319118
  0
LINE
  5
50C
100
AcDbEntity
  8
0
100
AcDbLine
 62
7
  6
CONTINUOUS
 10
8.0744993553
 20
42.3946808815
 11
8.3279993553
 21
42.3436170578
  0
LINE
  5
50D
100
AcDbEntity
  8
0
100
AcDbLine
 62
7
  6
CONTINUOUS
 10
-6.6270835161
 20
47.0010638356
 11
-6.8666664839
 21
47.05
  0
LINE
  5
50E
100
AcDbEntity
  8
0
100
AcDbLine
 62
7
  6
CONTINUOUS
 10
-6.8666664839
 20
46.7563830137
 11
-6.675
 21
46.7074468493
  0
LINE
  5
50F
100
AcDbEntity
  8
0
100
AcDbLine
 62
7
  6
CONTINUOUS
 10
-0.2065
 20
42.4968085289
 11
-0.5444996777
 21
42.5989361763
  0
LINE
  5
510
100
AcDbEntity
  8
0
100
AcDbLine
 62
7
  6
CONTINUOUS
 10
3.1734996777
 20
40.4542553127
 11
3.596
 21
40.3010638282
  0
LINE
  5
511
100
AcDbEntity
  8
0
100
AcDbLine
 62
7
  6
CONTINUOUS
 10
6.8069993553
 20
40.4542553127
 11
7.2295006447
 21
40.3010638282
  0
LINE
  5
512
100
AcDbEntity
  8
0
100
AcDbLine
 62
7
  6
CONTINUOUS
 10
5.0325003223
 20
42.4457447052
 11
4.61
 21
42.5989361763
  0
LINE
  5
513
100
AcDbEntity
  8
0
100
AcDbLine
 62
7
  6
CONTINUOUS
 10
8.9195
 20
41.5776595592
 11
8.4970006447
 21
41.7308510303
  0
LINE
  5
514
100
AcDbEntity
  8
0
100
AcDbLine
 62
7
  6
CONTINUOUS
 10
8.8349993553
 20
42.4457447052
 11
8.4125
 21
42.5989361763
  0
LINE
  5
515
100
AcDbEntity
  8
0
100
AcDbLine
 62
7
  6
CONTINUOUS
 10
7.3139993553
 20
40.556382978
 11
7.0604993553
 21
40.6585106254
  0
LINE
  5
516
100
AcDbEntity
  8
0
100
AcDbLine
 62
7
  6
CONTINUOUS
 10
4.5255003223
 20
42.3436170578
 11
4.7790003223
 21
42.2414894104
  0
LINE
  5
517
100
AcDbEntity
  8
0
100
AcDbLine
 62
7
  6
CONTINUOUS
 10
8.4125
 20
41.4755319118
 11
8.666
 21
41.3734042645
  0
LINE
  5
518
100
AcDbEntity
  8
0
100
AcDbLine
 62
7
  6
CONTINUOUS
 10
8.3279993553
 20
42.3436170578
 11
8.5814993553
 21
42.2414894104
  0
LINE
  5
519
100
AcDbEntity
  8
0
100
AcDbLine
 62
7
  6
CONTINUOUS
 10
8.666
 20
41.3734042645
 11
8.8349993553
 21
41.2712766171
  0
LINE
  5
51A
100
AcDbEntity
  8
0
100
AcDbLine
 62
7
  6
CONTINUOUS
 10
9.173
 20
41.4244680882
 11
8.9195
 21
41.5776595592
  0
LINE
  5
51B
100
AcDbEntity
  8
0
100
AcDbLine
 62
7
  6
CONTINUOUS
 10
20.0411880875
 20
-60.1314552652
 11
18.8725599934
 21
-61.7553930063
  0
LINE
  5
51C
100
AcDbEntity
  8
0
100
AcDbLine
 62
7
  6
CONTINUOUS
 10
19.1765740462
 20
-61.7553930063
 11
19.9804801346
 21
-60.6379871028
  0
LWPOLYLINE
  5
51D
100
AcDbEntity
  8
0
100
AcDbPolyline
 62
7
  6
CONTINUOUS
 90
10
 70
0
 10
13.066413533
 20
-60.4198180416
 10
13.0375739106
 20
-60.4504288713
 10
13.0087075848
 20
-60.4817288369
 10
12.9798145555
 20
-60.5137179383
 10
12.9508985065
 20
-60.5464081664
 10
12.9219557541
 20
-60.5797875305
 10
12.8929752472
 20
-60.6138200577
 10
12.8639533021
 20
-60.6484937571
 10
12.8348936024
 20
-60.6838206197
 10
12.8057961483
 20
-60.7198006455
  0
LWPOLYLINE
  5
51E
100
AcDbEntity
  8
0
100
AcDbPolyline
 62
7
  6
CONTINUOUS
 90
40
 70
0
 10
10.2618721542
 20
-65.7821288366
 10
10.224047079
 20
-65.8203326483
 10
10.1849504482
 20
-65.8554917639
 10
10.144582262
 20
-65.8876061834
 10
10.1029543057
 20
-65.9166621063
 10
10.0600547939
 20
-65.9426733331
 10
10.0158483706
 20
-65.9656812657
 10
9.9707018568
 20
-65.9856377152
 10
9.9242484316
 20
-66.0025908705
 10
9.8753522761
 20
-66.0167267001
 10
9.8232172077
 20
-66.0282445667
 10
9.7686394091
 20
-66.0369451076
 10
9.7128716098
 20
-66.0424162033
 10
9.6553131602
 20
-66.0445012789
 10
9.5965647099
 20
-66.0433569093
 10
9.539680938
 20
-66.0390406994
 10
9.4856152863
 20
-66.0314628522
 10
9.4334143129
 20
-66.0207131646
 10
9.3832723717
 20
-66.0071186325
 10
9.3355210106
 20
-65.9908400939
 10
9.2898286817
 20
-65.9717167107
 10
9.245395095
 20
-65.9495929642
 10
9.2018714434
 20
-65.9244007002
 10
9.159606534
 20
-65.8962080729
 10
9.1188464984
 20
-65.8650640258
 10
9.079326381
 20
-65.8306864522
 10
9.0413111372
 20
-65.7933574588
 10
9.005841765
 20
-65.7539723089
 10
8.9732569382
 20
-65.7129555685
 10
8.943217983
 20
-65.6698826717
 10
8.9157498755
 20
-65.624375184
 10
8.8908692726
 20
-65.5766912946
 10
8.8685595174
 20
-65.5265728144
 10
8.8487956158
 20
-65.4728667418
 10
8.8313660404
 20
-65.4151940401
 10
8.8164823185
 20
-65.353933746
 10
8.8047540383
 20
-65.2890699679
 10
8.7963843957
 20
-65.2205974088
 10
8.7911701947
 20
-65.1485213656
 10
8.7891114353
 20
-65.0728418386
  0
LWPOLYLINE
  5
51F
100
AcDbEntity
  8
0
100
AcDbPolyline
 62
7
  6
CONTINUOUS
 90
52
 70
0
 10
9.0433260461
 20
-64.2673943138
 10
9.0868006834
 20
-64.2288921855
 10
9.131200096
 20
-64.1938348855
 10
9.176524284
 20
-64.1622224139
 10
9.2227058425
 20
-64.1341204764
 10
9.2698121764
 20
-64.1094633674
 10
9.3180455
 20
-64.0880539693
 10
9.3672147916
 20
-64.0698726652
 10
9.4175110728
 20
-64.054939072
 10
9.4697096237
 20
-64.0431149231
 10
9.5247478991
 20
-64.0342753069
 10
9.5816884442
 20
-64.028545135
 10
9.6384941737
 20
-64.0261608758
 10
9.6950725873
 20
-64.0272673268
 10
9.7515161854
 20
-64.0317196904
 10
9.8060653839
 20
-64.0393200425
 10
9.8579992741
 20
-64.050064841
 10
9.9080387647
 20
-64.063957628
 10
9.9565869971
 20
-64.0808111053
 10
10.0039158425
 20
-64.100680232
 10
10.0497534298
 20
-64.123510049
 10
10.0936872869
 20
-64.1489483812
 10
10.1356968366
 20
-64.1769636533
 10
10.1758026563
 20
-64.2075874405
 10
10.2136540055
 20
-64.2405622933
 10
10.2490185122
 20
-64.2755525283
 10
10.2821285484
 20
-64.3128938289
 10
10.3133304905
 20
-64.3533357953
 10
10.3428037381
 20
-64.3968712923
 10
10.3703688915
 20
-64.4435074551
 10
10.3958341274
 20
-64.4940152891
 10
10.4194066784
 20
-64.548629672
 10
10.4408793119
 20
-64.6071157262
 10
10.4594385072
 20
-64.6695398242
 10
10.4750201928
 20
-64.7362829693
 10
10.4876884402
 20
-64.8069641583
 10
10.4968219432
 20
-64.8805067542
 10
10.5021433372
 20
-64.9583805613
 10
10.5039299867
 20
-65.0391157754
 10
10.5023926788
 20
-65.1172263459
 10
10.4974887817
 20
-65.1911930999
 10
10.4892609272
 20
-65.2625352104
 10
10.4780477982
 20
-65.330324146
 10
10.4638305511
 20
-65.3941859344
 10
10.4466280294
 20
-65.4544945479
 10
10.4268354469
 20
-65.5114433711
 10
10.4043107249
 20
-65.5651279265
 10
10.3791959421
 20
-65.6154526916
 10
10.3523125487
 20
-65.6623244835
 10
10.3239343612
 20
-65.7057122411
 10
10.2937875631
 20
-65.7456470255
 10
10.2618721542
 20
-65.7821288366
  0
LWPOLYLINE
  5
520
100
AcDbEntity
  8
0
100
AcDbPolyline
 62
7
  6
CONTINUOUS
 90
22
 70
0
 10
-7.4592772192
 20
-64.1081543936
 10
-7.4327314679
 20
-64.0911266582
 10
-7.405516308
 20
-64.076075855
 10
-7.3776317394
 20
-64.0630019838
 10
-7.3491201527
 20
-64.0519037976
 10
-7.3199391573
 20
-64.0427825434
 10
-7.2899615815
 20
-64.0356419631
 10
-7.2587525581
 20
-64.0304794459
 10
-7.2267469543
 20
-64.0272976025
 10
-7.1951221997
 20
-64.0261080073
 10
-7.1639383382
 20
-64.026996824
 10
-7.1331353259
 20
-64.0298778889
 10
-7.1037104613
 20
-64.0345042846
 10
-7.0762273781
 20
-64.0407638508
 10
-7.0501224426
 20
-64.0487687477
 10
-7.0247020511
 20
-64.0586085392
 10
-6.9997792024
 20
-64.0702627981
 10
-6.9755408979
 20
-64.0837519515
 10
-6.9518545383
 20
-64.0992268446
 10
-6.928675924
 20
-64.1167377592
 10
-6.9060492548
 20
-64.1362344134
 10
-6.8839745306
 20
-64.1577168073
  0
LWPOLYLINE
  5
521
100
AcDbEntity
  8
0
100
AcDbPolyline
 62
7
  6
CONTINUOUS
 90
22
 70
0
 10
-3.5739682309
 20
-64.1081543936
 10
-3.5474224797
 20
-64.0911266582
 10
-3.5202073197
 20
-64.076075855
 10
-3.4923227511
 20
-64.0630019838
 10
-3.4638111644
 20
-64.0519037976
 10
-3.4346301691
 20
-64.0427825434
 10
-3.4046525933
 20
-64.0356419631
 10
-3.3734435699
 20
-64.0304794459
 10
-3.341437966
 20
-64.0272976025
 10
-3.3098132115
 20
-64.0261080073
 10
-3.27862935
 20
-64.026996824
 10
-3.2478263377
 20
-64.0298778889
 10
-3.218401473
 20
-64.0345042846
 10
-3.1909183899
 20
-64.0407638508
 10
-3.1648134543
 20
-64.0487687477
 10
-3.1393930629
 20
-64.0586085392
 10
-3.1144702142
 20
-64.0702627981
 10
-3.0902319096
 20
-64.0837519515
 10
-3.0665455501
 20
-64.0992268446
 10
-3.0433669358
 20
-64.1167377592
 10
-3.0207402666
 20
-64.1362344134
 10
-2.9986655423
 20
-64.1577168073
  0
LWPOLYLINE
  5
522
100
AcDbEntity
  8
0
100
AcDbPolyline
 62
7
  6
CONTINUOUS
 90
10
 70
0
 10
-8.9559891408
 20
-64.7317152036
 10
-8.9886476275
 20
-64.7518580753
 10
-9.0231991484
 20
-64.7699524439
 10
-9.0596437036
 20
-64.7859983093
 10
-9.0984761343
 20
-64.8001887712
 10
-9.1392015993
 20
-64.81233073
 10
-9.1803355746
 20
-64.8218448865
 10
-9.2213832189
 20
-64.8285381413
 10
-9.2628393734
 20
-64.8326035938
 10
-9.3047040383
 20
-64.8340412443
  0
LWPOLYLINE
  5
523
100
AcDbEntity
  8
0
100
AcDbPolyline
 62
7
  6
CONTINUOUS
 90
10
 70
0
 10
-1.1853711643
 20
-64.7317152036
 10
-1.218029651
 20
-64.7518580753
 10
-1.2525811719
 20
-64.7699524439
 10
-1.2890257271
 20
-64.7859983093
 10
-1.3278581579
 20
-64.8001887712
 10
-1.3685836228
 20
-64.81233073
 10
-1.4097175981
 20
-64.8218448865
 10
-1.4507652424
 20
-64.8285381413
 10
-1.492221397
 20
-64.8326035938
 10
-1.5340860619
 20
-64.8340412443
  0
LWPOLYLINE
  5
524
100
AcDbEntity
  8
0
100
AcDbPolyline
 62
7
  6
CONTINUOUS
 90
16
 70
0
 10
-9.5704632873
 20
-63.8427297276
 10
-9.609805835
 20
-63.8635127253
 10
-9.6473594259
 20
-63.8867214176
 10
-9.6832765312
 20
-63.9123812843
 10
-9.717655087
 20
-63.9404933204
 10
-9.7503971574
 20
-63.971056531
 10
-9.7813614054
 20
-64.0040934115
 10
-9.8106083375
 20
-64.0395701474
 10
-9.8380774472
 20
-64.0775205531
 10
-9.8634458793
 20
-64.1180685675
 10
-9.8866523301
 20
-64.1610869362
 10
-9.9077581032
 20
-64.2067029135
 10
-9.9266242536
 20
-64.2554222017
 10
-9.9432044663
 20
-64.3074133679
 10
-9.9575450562
 20
-64.3625078449
 10
-9.9696460235
 20
-64.4207056326
  0
LWPOLYLINE
  5
525
100
AcDbEntity
  8
0
100
AcDbPolyline
 62
7
  6
CONTINUOUS
 90
16
 70
0
 10
-1.7998453108
 20
-63.8427297276
 10
-1.8391878586
 20
-63.8635127253
 10
-1.8767414494
 20
-63.8867214176
 10
-1.9126585547
 20
-63.9123812843
 10
-1.9470371106
 20
-63.9404933204
 10
-1.9797791809
 20
-63.971056531
 10
-2.010743429
 20
-64.0040934115
 10
-2.039990361
 20
-64.0395701474
 10
-2.0674594708
 20
-64.0775205531
 10
-2.0928279028
 20
-64.1180685675
 10
-2.1160343536
 20
-64.1610869362
 10
-2.1371401267
 20
-64.2067029135
 10
-2.1560062771
 20
-64.2554222017
 10
-2.1725864898
 20
-64.3074133679
 10
-2.1869270798
 20
-64.3625078449
 10
-2.1990280471
 20
-64.4207056326
  0
LWPOLYLINE
  5
526
100
AcDbEntity
  8
0
100
AcDbPolyline
 62
7
  6
CONTINUOUS
 90
49
 70
0
 10
-8.8418060129
 20
-64.9307946311
 10
-8.800169894
 20
-64.9094930926
 10
-8.7613812165
 20
-64.8868158369
 10
-8.7254399802
 20
-64.8627628641
 10
-8.6923548594
 20
-64.8371788869
 10
-8.66211718
 20
-64.8102191925
 10
-8.6347009193
 20
-64.7823496425
 10
-8.6102623486
 20
-64.7538509408
 10
-8.5886451967
 20
-64.7244423835
 10
-8.5693546273
 20
-64.6937477207
 10
-8.5522448114
 20
-64.6616517701
 10
-8.5374615781
 20
-64.6282697141
 10
-8.5249475779
 20
-64.5935708495
 10
-8.5145836473
 20
-64.5573604439
 10
-8.5064889498
 20
-64.5198332299
 10
-8.5009636266
 20
-64.481542702
 10
-8.4980437526
 20
-64.4425024263
 10
-8.4976932528
 20
-64.4026988367
 10
-8.5001040434
 20
-64.3626447304
 10
-8.5053363903
 20
-64.3222993479
 10
-8.5133300276
 20
-64.2817034487
 10
-8.5240960747
 20
-64.2414921076
 10
-8.537785155
 20
-64.2015001732
 10
-8.5542466451
 20
-64.161892797
 10
-8.5730397939
 20
-64.1238005086
 10
-8.5941049466
 20
-64.0874785853
 10
-8.617501758
 20
-64.0526717499
 10
-8.6429684416
 20
-64.0197447005
 10
-8.6701897196
 20
-63.9889499005
 10
-8.6994808698
 20
-63.9600348865
 10
-8.7315259392
 20
-63.9326069667
 10
-8.7666679563
 20
-63.9063568063
 10
-8.8045638927
 20
-63.88159374
 10
-8.8448687095
 20
-63.8588530796
 10
-8.8877472936
 20
-63.8380503141
 10
-8.9330347582
 20
-63.8192699546
 10
-8.9798914043
 20
-63.8033008459
 10
-9.0280884294
 20
-63.7903208599
 10
-9.0778546359
 20
-63.7801521247
 10
-9.129036733
 20
-63.7730498693
 10
-9.1824727719
 20
-63.769115224
 10
-9.2373247014
 20
-63.7682470585
 10
-9.2909250765
 20
-63.7703972116
 10
-9.3427716567
 20
-63.775692473
 10
-9.3933666826
 20
-63.784006053
 10
-9.441549431
 20
-63.7949094215
 10
-9.4867252204
 20
-63.8083144331
 10
-9.5294887323
 20
-63.8243092331
 10
-9.5704632873
 20
-63.8427297276
  0
LWPOLYLINE
  5
527
100
AcDbEntity
  8
0
100
AcDbPolyline
 62
7
  6
CONTINUOUS
 90
49
 70
0
 10
-1.0711880365
 20
-64.9307946311
 10
-1.0295519176
 20
-64.9094930926
 10
-0.99076324
 20
-64.8868158369
 10
-0.9548220038
 20
-64.8627628641
 10
-0.921736883
 20
-64.8371788869
 10
-0.8914992035
 20
-64.8102191925
 10
-0.8640829428
 20
-64.7823496425
 10
-0.8396443722
 20
-64.7538509408
 10
-0.8180272203
 20
-64.7244423835
 10
-0.7987366509
 20
-64.6937477207
 10
-0.781626835
 20
-64.6616517701
 10
-0.7668436016
 20
-64.6282697141
 10
-0.7543296014
 20
-64.5935708495
 10
-0.7439656708
 20
-64.5573604439
 10
-0.7358709734
 20
-64.5198332299
 10
-0.7303456501
 20
-64.481542702
 10
-0.7274257761
 20
-64.4425024263
 10
-0.7270752763
 20
-64.4026988367
 10
-0.729486067
 20
-64.3626447304
 10
-0.7347184138
 20
-64.3222993479
 10
-0.7427120511
 20
-64.2817034487
 10
-0.7534780982
 20
-64.2414921076
 10
-0.7671671786
 20
-64.2015001732
 10
-0.7836286687
 20
-64.161892797
 10
-0.8024218175
 20
-64.1238005086
 10
-0.8234869702
 20
-64.0874785853
 10
-0.8468837816
 20
-64.0526717499
 10
-0.8723504652
 20
-64.0197447005
 10
-0.8995717431
 20
-63.9889499005
 10
-0.9288628933
 20
-63.9600348865
 10
-0.9609079627
 20
-63.9326069667
 10
-0.9960499799
 20
-63.9063568063
 10
-1.0339459162
 20
-63.88159374
 10
-1.0742507331
 20
-63.8588530796
 10
-1.1171293172
 20
-63.8380503141
 10
-1.1624167817
 20
-63.8192699546
 10
-1.2092734279
 20
-63.8033008459
 10
-1.2574704529
 20
-63.7903208599
 10
-1.3072366595
 20
-63.7801521247
 10
-1.3584187566
 20
-63.7730498693
 10
-1.4118547955
 20
-63.769115224
 10
-1.4667067249
 20
-63.7682470585
 10
-1.5203071
 20
-63.7703972116
 10
-1.5721536803
 20
-63.775692473
 10
-1.6227487062
 20
-63.784006053
 10
-1.6709314545
 20
-63.7949094215
 10
-1.716107244
 20
-63.8083144331
 10
-1.7588707559
 20
-63.8243092331
 10
-1.7998453108
 20
-63.8427297276
  0
LINE
  5
528
100
AcDbEntity
  8
0
100
AcDbLine
 62
7
  6
CONTINUOUS
 10
9.912071
 20
49.799883
 11
11.083514
 21
49.799896
  0
LINE
  5
529
100
AcDbEntity
  8
0
100
AcDbLine
 62
7
  6
CONTINUOUS
 10
1.84925
 20
49.79987
 11
2.889289
 21
49.799883
  0
LINE
  5
52A
100
AcDbEntity
  8
0
100
AcDbLine
 62
7
  6
CONTINUOUS
 10
-3.930797
 20
49.79987
 11
-2.890758
 21
49.79987
  0
LINE
  5
52B
100
AcDbEntity
  8
0
100
AcDbLine
 62
7
  6
CONTINUOUS
 10
0.115856
 20
49.79987
 11
1.155895
 21
49.79987
  0
LINE
  5
52C
100
AcDbEntity
  8
0
100
AcDbLine
 62
7
  6
CONTINUOUS
 10
6.921928
 20
49.799883
 11
7.96198
 21
49.799883
  0
LINE
  5
52D
100
AcDbEntity
  8
0
100
AcDbLine
 62
7
  6
CONTINUOUS
 10
-1.907464
 20
49.79987
 11
-0.867451
 21
49.799883
  0
LINE
  5
52E
100
AcDbEntity
  8
0
100
AcDbLine
 62
7
  6
CONTINUOUS
 10
-6.010849
 20
49.799857
 11
-4.97081
 21
49.79987
  0
LINE
  5
52F
100
AcDbEntity
  8
0
100
AcDbLine
 62
7
  6
CONTINUOUS
 10
5.188521
 20
49.799883
 11
6.228573
 21
49.79987
  0
LINE
  5
530
100
AcDbEntity
  8
0
100
AcDbLine
 62
7
  6
CONTINUOUS
 10
-9.413898
 20
49.799857
 11
-8.37382
 21
49.79987
  0
LINE
  5
531
100
AcDbEntity
  8
0
100
AcDbLine
 62
7
  6
CONTINUOUS
 10
3.21763
 20
50.822541
 11
4.860193
 21
50.822541
  0
LINE
  5
532
100
AcDbEntity
  8
0
100
AcDbLine
 62
7
  6
CONTINUOUS
 10
4.542941
 20
51.81058
 11
3.534869
 21
51.81058
  0
LINE
  5
533
100
AcDbEntity
  8
0
100
AcDbLine
 62
7
  6
CONTINUOUS
 10
7.962097
 20
51.810593
 11
8.869822
 21
51.81058
  0
LINE
  5
534
100
AcDbEntity
  8
0
100
AcDbLine
 62
7
  6
CONTINUOUS
 10
9.2130300575
 20
52.772632
 11
7.947641
 21
52.772632
  0
LINE
  5
535
100
AcDbEntity
  8
0
100
AcDbLine
 62
7
  6
CONTINUOUS
 10
7.947628
 20
54.038078
 11
9.212992
 21
54.038078
  0
LINE
  5
536
100
AcDbEntity
  8
0
100
AcDbLine
 62
7
  6
CONTINUOUS
 10
1.155895
 20
55.000104
 11
-0.416364
 21
55.000104
  0
LINE
  5
537
100
AcDbEntity
  8
0
100
AcDbLine
 62
7
  6
CONTINUOUS
 10
-2.358538
 20
55.000104
 11
-3.930797
 21
55.000104
  0
LINE
  5
538
100
AcDbEntity
  8
0
100
AcDbLine
 62
7
  6
CONTINUOUS
 10
-4.970797
 20
55.000104
 11
-6.010836
 21
55.000104
  0
LINE
  5
539
100
AcDbEntity
  8
0
100
AcDbLine
 62
7
  6
CONTINUOUS
 10
-6.704191
 20
55.000104
 11
-7.744243
 21
55.000104
  0
LINE
  5
53A
100
AcDbEntity
  8
0
100
AcDbLine
 62
7
  6
CONTINUOUS
 10
-10.043462
 20
55.000104
 11
-11.083514
 21
55.000104
  0
LINE
  5
53B
100
AcDbEntity
  8
0
100
AcDbLine
 62
7
  6
CONTINUOUS
 10
9.3574087127
 20
55.000117
 11
6.921928
 21
55.000117
  0
LINE
  5
53C
100
AcDbEntity
  8
0
100
AcDbLine
 62
7
  6
CONTINUOUS
 10
4.558944
 20
55.000117
 11
3.518853
 21
55.000117
  0
LINE
  5
53D
100
AcDbEntity
  8
0
100
AcDbLine
 62
7
  6
CONTINUOUS
 10
13.5
 20
56.75
 11
-13.5
 21
56.75
  0
LWPOLYLINE
  5
53E
100
AcDbEntity
  8
0
100
AcDbPolyline
 62
7
  6
CONTINUOUS
 90
10
 70
0
 10
17.5912903236
 20
-60.8847317915
 10
17.6294367679
 20
-60.8621252054
 10
17.6662744243
 20
-60.8392859433
 10
17.7018032928
 20
-60.8162140055
 10
17.7360765658
 20
-60.7929200033
 10
17.7690410509
 20
-60.7693933253
 10
17.8005371705
 20
-60.7456021367
 10
17.8305117319
 20
-60.7215358259
 10
17.8590179278
 20
-60.6972050044
 10
17.8860557581
 20
-60.6726096723
  0
LWPOLYLINE
  5
53F
100
AcDbEntity
  8
0
100
AcDbPolyline
 62
7
  6
CONTINUOUS
 90
10
 70
0
 10
17.2637992404
 20
-61.0439714802
 10
17.2985012444
 20
-61.0306548684
 10
17.3336285079
 20
-61.0162203396
 10
17.369181031
 20
-61.0006678938
 10
17.4051638617
 20
-60.9839658706
 10
17.4415719519
 20
-60.9661459304
 10
17.4783901576
 20
-60.9473030542
 10
17.5156134308
 20
-60.9274689026
 10
17.5532468194
 20
-60.906611815
 10
17.5912903236
 20
-60.8847317915
  0
LINE
  5
540
100
AcDbEntity
  8
0
100
AcDbLine
 62
250
  6
CONTINUOUS
 10
-103.4218171695
 20
79.5
 11
-103.4
 21
79.5
  0
LINE
  5
541
100
AcDbEntity
  8
0
100
AcDbLine
 62
250
  6
CONTINUOUS
 10
103.4218171695
 20
79.5
 11
103.4
 21
79.5
  0
LINE
  5
542
100
AcDbEntity
  8
0
100
AcDbLine
 62
250
  6
CONTINUOUS
 10
103.88
 20
79.5
 11
107.5
 21
79.5
  0
LINE
  5
543
100
AcDbEntity
  8
0
100
AcDbLine
 62
250
  6
CONTINUOUS
 10
-103.88
 20
79.5
 11
-107.5
 21
79.5
  0
LINE
  5
544
100
AcDbEntity
  8
0
100
AcDbLine
 62
7
  6
CONTINUOUS
 10
-100.0
 20
82.9
 11
100.0
 21
82.9
  0
LINE
  5
545
100
AcDbEntity
  8
0
100
AcDbLine
 62
7
  6
CONTINUOUS
 10
-100.0
 20
82.9218171695
 11
100.0
 21
82.9218171695
  0
LINE
  5
546
100
AcDbEntity
  8
0
100
AcDbLine
 62
7
  6
CONTINUOUS
 10
100.0
 20
83.38
 11
-100.0
 21
83.38
  0
LINE
  5
547
100
AcDbEntity
  8
CURVE
100
AcDbLine
 62
7
  6
CONTINUOUS
 10
100.0
 20
83.38
 11
-100.0
 21
83.38
  0
LINE
  5
548
100
AcDbEntity
  8
0
100
AcDbLine
 62
7
  6
CONTINUOUS
 10
100.0
 20
86.993308733
 11
-100.0
 21
86.993308733
  0
LINE
  5
549
100
AcDbEntity
  8
0
100
AcDbLine
 62
250
  6
CONTINUOUS
 10
-100.0
 20
87.0
 11
100.0
 21
87.0
  0
LINE
  5
54A
100
AcDbEntity
  8
0
100
AcDbLine
 62
7
  6
CONTINUOUS
 10
-100.0
 20
89.5
 11
100.0
 21
89.5
  0
LINE
  5
54B
100
AcDbEntity
  8
0
100
AcDbLine
 62
250
  6
CONTINUOUS
 10
100.0
 20
82.9218171695
 11
100.0
 21
82.9
  0
LINE
  5
54C
100
AcDbEntity
  8
0
100
AcDbLine
 62
250
  6
CONTINUOUS
 10
100.0
 20
-82.9218171695
 11
100.0
 21
-82.9
  0
LINE
  5
54D
100
AcDbEntity
  8
0
100
AcDbLine
 62
250
  6
CONTINUOUS
 10
100.0
 20
-83.38
 11
100.0
 21
-87.0
  0
LINE
  5
54E
100
AcDbEntity
  8
0
100
AcDbLine
 62
250
  6
CONTINUOUS
 10
100.0
 20
83.38
 11
100.0
 21
87.0
  0
LINE
  5
54F
100
AcDbEntity
  8
0
100
AcDbLine
 62
7
  6
CONTINUOUS
 10
103.4
 20
79.5
 11
103.4
 21
-79.5
  0
LINE
  5
550
100
AcDbEntity
  8
0
100
AcDbLine
 62
7
  6
CONTINUOUS
 10
103.4218171695
 20
79.5
 11
103.4218171695
 21
-79.5
  0
LINE
  5
551
100
AcDbEntity
  8
0
100
AcDbLine
 62
7
  6
CONTINUOUS
 10
103.88
 20
-79.5
 11
103.88
 21
79.5
  0
LINE
  5
552
100
AcDbEntity
  8
CURVE
100
AcDbLine
 62
7
  6
CONTINUOUS
 10
103.88
 20
-79.5
 11
103.88
 21
79.5
  0
LINE
  5
553
100
AcDbEntity
  8
0
100
AcDbLine
 62
7
  6
CONTINUOUS
 10
107.493308733
 20
-79.5
 11
107.493308733
 21
79.5
  0
LINE
  5
554
100
AcDbEntity
  8
0
100
AcDbLine
 62
250
  6
CONTINUOUS
 10
107.5
 20
79.5
 11
107.5
 21
-79.5
  0
LINE
  5
555
100
AcDbEntity
  8
0
100
AcDbLine
 62
7
  6
CONTINUOUS
 10
110.0
 20
79.5
 11
110.0
 21
-79.5
  0
ARC
  5
556
100
AcDbEntity
  8
0
100
AcDbCircle
 62
7
  6
CONTINUOUS
 10
-100.0
 20
-79.5
 40
10.0
100
AcDbArc
 50
180.0
 51
270.0
  0
ARC
  5
557
100
AcDbEntity
  8
0
100
AcDbCircle
 62
250
  6
CONTINUOUS
 10
-100.0
 20
-79.5
 40
7.5
100
AcDbArc
 50
180.0
 51
270.0
  0
ARC
  5
558
100
AcDbEntity
  8
0
100
AcDbCircle
 62
7
  6
CONTINUOUS
 10
-100.0
 20
-79.5
 40
7.493308733
100
AcDbArc
 50
180.0
 51
270.0
  0
CIRCLE
  5
559
100
AcDbEntity
  8
RACCORDO
100
AcDbCircle
 62
250
  6
CONTINUOUS
 10
-90.0
 20
-69.5
 40
5.2401747827
  0
ARC
  5
55A
100
AcDbEntity
  8
0
100
AcDbCircle
 62
7
  6
CONTINUOUS
 10
-100.0
 20
-79.5
 40
3.88
100
AcDbArc
 50
180.0
 51
270.0
  0
ARC
  5
55B
100
AcDbEntity
  8
CURVE
100
AcDbCircle
 62
7
  6
CONTINUOUS
 10
-100.0
 20
-79.5
 40
3.88
100
AcDbArc
 50
180.0
 51
270.0
  0
CIRCLE
  5
55C
100
AcDbEntity
  8
RACCORDO
100
AcDbCircle
 62
250
  6
CONTINUOUS
 10
-90.0
 20
-69.5
 40
3.7496451492
  0
ARC
  5
55D
100
AcDbEntity
  8
0
100
AcDbCircle
 62
7
  6
CONTINUOUS
 10
-100.0
 20
-79.5
 40
3.4218171695
100
AcDbArc
 50
180.0
 51
270.0
  0
ARC
  5
55E
100
AcDbEntity
  8
0
100
AcDbCircle
 62
7
  6
CONTINUOUS
 10
-100.0
 20
-79.5
 40
3.4
100
AcDbArc
 50
180.0
 51
270.0
  0
CIRCLE
  5
55F
100
AcDbEntity
  8
ASSI
100
AcDbCircle
 62
7
  6
CONTINUOUS
 10
-90.0
 20
-69.5
 40
3.2
  0
ARC
  5
560
100
AcDbEntity
  8
ASSI
100
AcDbCircle
 62
7
  6
CONTINUOUS
 10
-0.967554
 20
-44.0
 40
2.5499985399
100
AcDbArc
 50
87.7525290943
 51
272.2474708981
  0
ARC
  5
561
100
AcDbEntity
  8
ASSI
100
AcDbCircle
 62
7
  6
CONTINUOUS
 10
-0.967554
 20
-44.0
 40
1.7999999246
100
AcDbArc
 50
86.8152613297
 51
273.1847386544
  0
CIRCLE
  5
562
100
AcDbEntity
  8
0
100
AcDbCircle
 62
7
  6
CONTINUOUS
 10
-90.0
 20
-69.5
 40
1.65
  0
ARC
  5
563
100
AcDbEntity
  8
0
100
AcDbCircle
 62
7
  6
CONTINUOUS
 10
-100.0
 20
79.5
 40
10.0
100
AcDbArc
 50
90.0
 51
180.0
  0
ARC
  5
564
100
AcDbEntity
  8
0
100
AcDbCircle
 62
250
  6
CONTINUOUS
 10
-100.0
 20
79.5
 40
7.5
100
AcDbArc
 50
90.0
 51
180.0
  0
ARC
  5
565
100
AcDbEntity
  8
0
100
AcDbCircle
 62
7
  6
CONTINUOUS
 10
-100.0
 20
79.5
 40
7.493308733
100
AcDbArc
 50
90.0
 51
180.0
  0
CIRCLE
  5
566
100
AcDbEntity
  8
RACCORDO
100
AcDbCircle
 62
250
  6
CONTINUOUS
 10
-90.0
 20
69.5
 40
5.2401747827
  0
ARC
  5
567
100
AcDbEntity
  8
0
100
AcDbCircle
 62
7
  6
CONTINUOUS
 10
-100.0
 20
79.5
 40
3.88
100
AcDbArc
 50
90.0
 51
180.0
  0
ARC
  5
568
100
AcDbEntity
  8
CURVE
100
AcDbCircle
 62
7
  6
CONTINUOUS
 10
-100.0
 20
79.5
 40
3.88
100
AcDbArc
 50
90.0
 51
180.0
  0
CIRCLE
  5
569
100
AcDbEntity
  8
RACCORDO
100
AcDbCircle
 62
250
  6
CONTINUOUS
 10
-90.0
 20
69.5
 40
3.7496451492
  0
ARC
  5
56A
100
AcDbEntity
  8
0
100
AcDbCircle
 62
7
  6
CONTINUOUS
 10
-100.0
 20
79.5
 40
3.4218171695
100
AcDbArc
 50
90.0
 51
180.0
  0
ARC
  5
56B
100
AcDbEntity
  8
0
100
AcDbCircle
 62
7
  6
CONTINUOUS
 10
-100.0
 20
79.5
 40
3.4
100
AcDbArc
 50
90.0
 51
180.0
  0
CIRCLE
  5
56C
100
AcDbEntity
  8
ASSI
100
AcDbCircle
 62
7
  6
CONTINUOUS
 10
-90.0
 20
69.5
 40
3.2
  0
CIRCLE
  5
56D
100
AcDbEntity
  8
0
100
AcDbCircle
 62
7
  6
CONTINUOUS
 10
-90.0
 20
69.5
 40
1.65
  0
ARC
  5
56E
100
AcDbEntity
  8
0
100
AcDbCircle
 62
7
  6
CONTINUOUS
 10
100.0
 20
-79.5
 40
10.0
100
AcDbArc
 50
270.0
 51
360.0
  0
ARC
  5
56F
100
AcDbEntity
  8
0
100
AcDbCircle
 62
250
  6
CONTINUOUS
 10
100.0
 20
-79.5
 40
7.5
100
AcDbArc
 50
270.0
 51
360.0
  0
ARC
  5
570
100
AcDbEntity
  8
0
100
AcDbCircle
 62
7
  6
CONTINUOUS
 10
100.0
 20
-79.5
 40
7.493308733
100
AcDbArc
 50
270.0
 51
360.0
  0
CIRCLE
  5
571
100
AcDbEntity
  8
RACCORDO
100
AcDbCircle
 62
250
  6
CONTINUOUS
 10
90.0
 20
-69.5
 40
5.2401747827
  0
ARC
  5
572
100
AcDbEntity
  8
0
100
AcDbCircle
 62
7
  6
CONTINUOUS
 10
100.0
 20
-79.5
 40
3.88
100
AcDbArc
 50
270.0
 51
360.0
  0
ARC
  5
573
100
AcDbEntity
  8
CURVE
100
AcDbCircle
 62
7
  6
CONTINUOUS
 10
100.0
 20
-79.5
 40
3.88
100
AcDbArc
 50
270.0
 51
360.0
  0
CIRCLE
  5
574
100
AcDbEntity
  8
RACCORDO
100
AcDbCircle
 62
250
  6
CONTINUOUS
 10
90.0
 20
-69.5
 40
3.7496451492
  0
ARC
  5
575
100
AcDbEntity
  8
0
100
AcDbCircle
 62
7
  6
CONTINUOUS
 10
100.0
 20
-79.5
 40
3.4218171695
100
AcDbArc
 50
270.0
 51
360.0
  0
ARC
  5
576
100
AcDbEntity
  8
0
100
AcDbCircle
 62
7
  6
CONTINUOUS
 10
100.0
 20
-79.5
 40
3.4
100
AcDbArc
 50
270.0
 51
360.0
  0
CIRCLE
  5
577
100
AcDbEntity
  8
ASSI
100
AcDbCircle
 62
7
  6
CONTINUOUS
 10
90.0
 20
-69.5
 40
3.2
  0
ARC
  5
578
100
AcDbEntity
  8
ASSI
100
AcDbCircle
 62
7
  6
CONTINUOUS
 10
3.417556
 20
-44.0
 40
2.5499986575
100
AcDbArc
 50
87.7525290045
 51
272.2474707947
  0
ARC
  5
579
100
AcDbEntity
  8
ASSI
100
AcDbCircle
 62
7
  6
CONTINUOUS
 10
3.417556
 20
-44.0
 40
1.7999999246
100
AcDbArc
 50
86.8152613297
 51
167.9752999778
  0
ARC
  5
57A
100
AcDbEntity
  8
ASSI
100
AcDbCircle
 62
7
  6
CONTINUOUS
 10
3.417556
 20
-44.0
 40
1.7999968808
100
AcDbArc
 50
192.0247203293
 51
273.1847444946
  0
CIRCLE
  5
57B
100
AcDbEntity
  8
0
100
AcDbCircle
 62
7
  6
CONTINUOUS
 10
90.0
 20
-69.5
 40
1.65
  0
ARC
  5
57C
100
AcDbEntity
  8
0
100
AcDbCircle
 62
7
  6
CONTINUOUS
 10
100.0
 20
79.5
 40
10.0
100
AcDbArc
 50
0.0
 51
90.0
  0
ARC
  5
57D
100
AcDbEntity
  8
0
100
AcDbCircle
 62
250
  6
CONTINUOUS
 10
100.0
 20
79.5
 40
7.5
100
AcDbArc
 50
0.0
 51
90.0
  0
ARC
  5
57E
100
AcDbEntity
  8
0
100
AcDbCircle
 62
7
  6
CONTINUOUS
 10
100.0
 20
79.5
 40
7.493308733
100
AcDbArc
 50
0.0
 51
90.0
  0
CIRCLE
  5
57F
100
AcDbEntity
  8
RACCORDO
100
AcDbCircle
 62
250
  6
CONTINUOUS
 10
90.0
 20
69.5
 40
5.2401747827
  0
ARC
  5
580
100
AcDbEntity
  8
0
100
AcDbCircle
 62
7
  6
CONTINUOUS
 10
100.0
 20
79.5
 40
3.88
100
AcDbArc
 50
0.0
 51
90.0
  0
ARC
  5
581
100
AcDbEntity
  8
CURVE
100
AcDbCircle
 62
7
  6
CONTINUOUS
 10
100.0
 20
79.5
 40
3.88
100
AcDbArc
 50
0.0
 51
90.0
  0
CIRCLE
  5
582
100
AcDbEntity
  8
RACCORDO
100
AcDbCircle
 62
250
  6
CONTINUOUS
 10
90.0
 20
69.5
 40
3.7496451492
  0
ARC
  5
583
100
AcDbEntity
  8
ASSI
100
AcDbCircle
 62
7
  6
CONTINUOUS
 10
6.5
 20
35.25
 40
3.4233595751
100
AcDbArc
 50
292.0885367687
 51
273.4298409191
  0
ARC
  5
584
100
AcDbEntity
  8
0
100
AcDbCircle
 62
7
  6
CONTINUOUS
 10
100.0
 20
79.5
 40
3.4218171695
100
AcDbArc
 50
0.0
 51
90.0
  0
ARC
  5
585
100
AcDbEntity
  8
0
100
AcDbCircle
 62
7
  6
CONTINUOUS
 10
100.0
 20
79.5
 40
3.4
100
AcDbArc
 50
0.0
 51
90.0
  0
CIRCLE
  5
586
100
AcDbEntity
  8
ASSI
100
AcDbCircle
 62
7
  6
CONTINUOUS
 10
90.0
 20
69.5
 40
3.2
  0
ARC
  5
587
100
AcDbEntity
  8
ASSI
100
AcDbCircle
 62
7
  6
CONTINUOUS
 10
6.396458
 20
28.796527
 40
3.051862479
100
AcDbArc
 50
47.231270393
 51
84.2011529611
  0
ARC
  5
588
100
AcDbEntity
  8
ASSI
100
AcDbCircle
 62
7
  6
CONTINUOUS
 10
6.636638
 20
29.29086
 40
3.0152382548
100
AcDbArc
 50
45.4348897783
 51
67.5658709696
  0
CIRCLE
  5
589
100
AcDbEntity
  8
ASSI
100
AcDbCircle
 62
7
  6
CONTINUOUS
 10
6.5
 20
35.25
 40
2.875383
  0
ARC
  5
58A
100
AcDbEntity
  8
ASSI
100
AcDbCircle
 62
7
  6
CONTINUOUS
 10
6.5
 20
35.25
 40
2.5716283267
100
AcDbArc
 50
299.3041446576
 51
44.9957783159
  0
ARC
  5
58B
100
AcDbEntity
  8
ASSI
100
AcDbCircle
 62
7
  6
CONTINUOUS
 10
6.5
 20
35.25
 40
2.5716282219
100
AcDbArc
 50
134.9002751525
 51
240.6958553424
  0
ARC
  5
58C
100
AcDbEntity
  8
ASSI
100
AcDbCircle
 62
7
  6
CONTINUOUS
 10
6.5
 20
35.25
 40
2.0603391911
100
AcDbArc
 50
148.0267353487
 51
240.6958433001
  0
ARC
  5
58D
100
AcDbEntity
  8
ASSI
100
AcDbCircle
 62
7
  6
CONTINUOUS
 10
6.5
 20
35.25
 40
2.0603387957
100
AcDbArc
 50
299.3041566999
 51
31.9732630587
  0
CIRCLE
  5
58E
100
AcDbEntity
  8
0
100
AcDbCircle
 62
7
  6
CONTINUOUS
 10
90.0
 20
69.5
 40
1.65
  0
ARC
  5
58F
100
AcDbEntity
  8
0
100
AcDbCircle
 62
7
  6
CONTINUOUS
 10
9.357347
 20
53.405353
 40
1.5947693028
100
AcDbArc
 50
292.8428777305
 51
89.9977828195
  0
ARC
  5
590
100
AcDbEntity
  8
0
100
AcDbCircle
 62
7
  6
CONTINUOUS
 10
9.212992
 20
53.405353
 40
0.632725
100
AcDbArc
 50
270.0034462768
 51
90.0
  0
ENDSEC
  0
SECTION
  2
OBJECTS
  0
DICTIONARY
  5
C
100
AcDbDictionary
280
0
281
1
  3
ACAD_GROUP
350
D
  3
ACAD_MLINESTYLE
350
17
  3
ACAD_LAYOUT
350
1A
  3
ACAD_PLOTSETTINGS
350
19
  3
ACAD_PLOTSTYLENAME
350
E
  0
DICTIONARY
  5
D
102
{ACAD_REACTORS
330
C
102
}
100
AcDbDictionary
280
0
281
1
  0
ACDBDICTIONARYWDFLT
  5
E
102
{ACAD_REACTORS
330
C
102
}
100
AcDbDictionary
281
1
  3
Normal
350
F
100
AcDbDictionaryWithDefault
340
F
  0
DICTIONARY
  5
17
102
{ACAD_REACTORS
330
C
102
}
100
AcDbDictionary
280
0
281
1
  3
Standard
350
18
  0
DICTIONARY
  5
19
102
{ACAD_REACTORS
330
C
102
}
100
AcDbDictionary
281
1
  0
DICTIONARY
  5
1A
102
{ACAD_REACTORS
330
C
102
}
100
AcDbDictionary
281
1
  3
Model
350
591
  3
Layout1
350
592
  0
ACDBPLACEHOLDER
  5
F
102
{ACAD_REACTORS
330
E
102
}
  0
MLINESTYLE
  5
18
102
{ACAD_REACTORS
330
17
102
}
100
AcDbMlineStyle
  2
STANDARD
 70
0
  3

 62
256
 51
90.0
 52
90.0
 71
2
 49
0.5
 62
256
  6
BYLAYER
 49
-0.5
 62
256
  6
BYLAYER
  0
LAYOUT
  5
591
102
{ACAD_REACTORS
330
1A
102
}
100
AcDbPlotSettings
  1

  2
none_device
  4
ANSI_C_(22.00_x_17.00_Inches)
  6

 40
0.0
 41
0.0
 42
0.0
 43
0.0
 44
558.8
 45
431.8
 46
0.0
 47
0.0
 48
0.0
 49
0.0
140
0.0
141
0.0
142
1.0
143
1.0
 70
1024
 72
1
 73
0
 74
0
  7

 75
0
147
1.0
148
0.0
149
0.0
100
AcDbLayout
  1
Model
 70
0
 71
0
 10
0.0
 20
0.0
 11
558.8
 21
431.8
 12
0.0
 22
0.0
 32
0.0
 14
0.0
 24
0.0
 34
0.0
 15
0.0
 25
0.0
 35
0.0
146
0.0
 13
0.0
 23
0.0
 33
0.0
 16
1.0
 26
0.0
 36
0.0
 17
0.0
 27
1.0
 37
0.0
 76
0
330
212
345
0
346
0
  0
LAYOUT
  5
592
102
{ACAD_REACTORS
330
1A
102
}
100
AcDbPlotSettings
  1

  2
none_device
  4
ANSI_C_(22.00_x_17.00_Inches)
  6

 40
0.0
 41
0.0
 42
0.0
 43
0.0
 44
558.8
 45
431.8
 46
0.0
 47
0.0
 48
0.0
 49
0.0
140
0.0
141
0.0
142
1.0
143
1.0
 70
0
 72
1
 73
0
 74
0
  7

 75
0
147
1.0
148
0.0
149
0.0
100
AcDbLayout
  1
Layout1
 70
0
 71
1
 10
0.0
 20
0.0
 11
558.8
 21
431.8
 12
0.0
 22
0.0
 32
0.0
 14
0.0
 24
0.0
 34
0.0
 15
0.0
 25
0.0
 35
0.0
146
0.0
 13
0.0
 23
0.0
 33
0.0
 16
1.0
 26
0.0
 36
0.0
 17
0.0
 27
1.0
 37
0.0
 76
0
330
213
345
0
346
0
  0
ENDSEC
  0
EOF
