  0
SECTION
  2
HEADER
  9
$ACADVER
  1
AC1021
  9
$DWGCODEPAGE
  3
ANSI_1252
  9
$EXTMAX
 10
558.8
 20
431.8
 30
0.0
  9
$EXTMIN
 10
0.0
 20
0.0
 30
0.0
  9
$LIMMIN
 10
0.0
 20
0.0
  9
$LIMMAX
 10
558.8
 20
431.8
  9
$VIEWCTR
 10
279.4
 20
215.9
  9
$VIEWSIZE
 40
431.8
  9
$CLAYER
  8
0
  9
$LTSCALE
 40
30.734
  9
$CELTYPE
  6
BYLAYER
  9
$DIMSCALE
 40
1.0
  9
$DIMASZ
 40
3.0
  9
$DIMEXO
 40
0.5
  9
$DIMDLI
 40
21.2344
  9
$DIMEXE
 40
1.5
  9
$DIMCEN
 40
5.0292
  9
$DIMLFAC
 40
1.0
  9
$DIMBLK
  1
_FILLED
  9
$DIMALT
 70
0
  9
$DIMALTF
 40
25.4
  9
$DIMTXT
 40
3.0
  9
$DIMTOL
 70
1
  9
$DIMLIM
 70
0
  9
$DIMTFAC
 40
1.0
  9
$DIMTP
 40
0.01
  9
$DIMTM
 40
0.01
  9
$DIMGAP
 40
0.625
  9
$DIMDSEP
 70
44
  9
$AUNITS
 70
0
  9
$PDMODE
 70
3
  9
$PDSIZE
 40
3.0
  9
$HANDSEED
  5
572
  9
$TILEMODE
 70
1
  9
$MEASUREMENT
 70
1
  9
$INSUNITS
 70
4
  0
ENDSEC
  0
SECTION
  2
CLASSES
  0
CLASS
  1
ACDBDICTIONARYWDFLT
  2
AcDbDictionaryWithDefault
  3
AutoCAD 2000
 90
0
 91
1
280
0
281
0
  0
CLASS
  1
ACDBPLACEHOLDER
  2
AcDbPlaceHolder
  3
AutoCAD 2000
 90
0
 91
1
280
0
281
0
  0
CLASS
  1
LAYOUT
  2
AcDbLayout
  3
AutoCAD 2000
 90
0
 91
0
280
0
281
0
  0
ENDSEC
  0
SECTION
  2
TABLES
  0
TABLE
  2
VPORT
  5
8
100
AcDbSymbolTable
 70
2
  0
VPORT
  5
1F4
100
AcDbSymbolTableRecord
100
AcDbViewportTableRecord
  2
*ACTIVE
 70
0
 10
0.0
 20
0.0
 11
1.0
 21
1.0
 12
279.4
 22
215.9
 13
0.0
 23
0.0
 14
1.0
 24
1.0
 15
0.0
 25
0.0
 16
0.0
 26
0.0
 36
1.0
 17
0.0
 27
0.0
 37
0.0
 40
431.8
 41
1.2941176471
 42
50.0
 43
0.0
 44
0.0
 50
0.0
 51
0.0
 71
0
 72
100
 73
1
 74
1
 75
0
 76
0
 77
0
 78
0
  0
ENDTAB
  0
TABLE
  2
LTYPE
  5
5
100
AcDbSymbolTable
 70
6
  0
LTYPE
  5
14
100
AcDbSymbolTableRecord
100
AcDbLinetypeTableRecord
  2
BYBLOCK
 70
0
  3

 72
65
 73
0
 40
0.0
  0
LTYPE
  5
15
100
AcDbSymbolTableRecord
100
AcDbLinetypeTableRecord
  2
BYLAYER
 70
0
  3

 72
65
 73
0
 40
0.0
  0
LTYPE
  5
16
100
AcDbSymbolTableRecord
100
AcDbLinetypeTableRecord
  2
CONTINUOUS
 70
64
  3
Solid line
 72
65
 73
0
 40
0.0
  0
LTYPE
  5
1F5
100
AcDbSymbolTableRecord
100
AcDbLinetypeTableRecord
  2
CENTER
 70
64
  3
____ _ ____ _ ____ _ ____ _ ____ _ ____ _ ____
 72
65
 73
4
 40
0.6
 49
0.375
 74
0
 49
-0.075
 74
0
 49
0.075
 74
0
 49
-0.075
 74
0
  0
LTYPE
  5
1F6
100
AcDbSymbolTableRecord
100
AcDbLinetypeTableRecord
  2
HIDDEN
 70
64
  3
- - - - - - - - - - - - - - - - - - - -
 72
65
 73
2
 40
0.2
 49
0.1
 74
0
 49
-0.1
 74
0
  0
LTYPE
  5
1F7
100
AcDbSymbolTableRecord
100
AcDbLinetypeTableRecord
  2
PHANTOM
 70
64
  3
_____ _ _ _____ _ _ _____ _ _ _____
 72
65
 73
6
 40
0.8
 49
0.45
 74
0
 49
-0.05
 74
0
 49
0.1
 74
0
 49
-0.05
 74
0
 49
0.1
 74
0
 49
-0.05
 74
0
  0
LTYPE
  5
1F8
100
AcDbSymbolTableRecord
100
AcDbLinetypeTableRecord
  2
DOT
 70
64
  3
. . . . . . . . . . . . . . . . . . . .
 72
65
 73
2
 40
0.2
 49
0.1
 74
0
 49
-0.1
 74
0
  0
LTYPE
  5
1F9
100
AcDbSymbolTableRecord
100
AcDbLinetypeTableRecord
  2
DASHED
 70
64
  3
- - - - - - - - - - - - - - - - - - - -
 72
65
 73
2
 40
0.2
 49
0.1
 74
0
 49
-0.1
 74
0
  0
ENDTAB
  0
TABLE
  2
LAYER
  5
2
100
AcDbSymbolTable
 70
36
  0
LAYER
  5
10
100
AcDbSymbolTableRecord
100
AcDbLayerTableRecord
  2
0
 70
0
 62
7
  6
CONTINUOUS
370
-3
390
F
  0
LAYER
  5
1FA
100
AcDbSymbolTableRecord
100
AcDbLayerTableRecord
  2
DEFAULT_1
 70
0
 62
7
  6
CENTER
370
-3
390
F
  0
LAYER
  5
1FB
100
AcDbSymbolTableRecord
100
AcDbLayerTableRecord
  2
DEFAULT_2
 70
0
 62
7
  6
HIDDEN
370
-3
390
F
  0
LAYER
  5
1FC
100
AcDbSymbolTableRecord
100
AcDbLayerTableRecord
  2
DEFAULT_3
 70
0
 62
7
  6
PHANTOM
370
-3
390
F
  0
LAYER
  5
1FD
100
AcDbSymbolTableRecord
100
AcDbLayerTableRecord
  2
ASSI
 70
0
 62
7
  6
CONTINUOUS
370
-3
390
F
  0
LAYER
  5
1FE
100
AcDbSymbolTableRecord
100
AcDbLayerTableRecord
  2
COORDINATE
 70
0
 62
7
  6
CONTINUOUS
370
-3
390
F
  0
LAYER
  5
1FF
100
AcDbSymbolTableRecord
100
AcDbLayerTableRecord
  2
COPY_PUBLISH
 70
0
 62
7
  6
CONTINUOUS
370
-3
390
F
  0
LAYER
  5
200
100
AcDbSymbolTableRecord
100
AcDbLayerTableRecord
  2
COSMETIC
 70
0
 62
7
  6
CONTINUOUS
370
-3
390
F
  0
LAYER
  5
201
100
AcDbSymbolTableRecord
100
AcDbLayerTableRecord
  2
COSMETICI
 70
0
 62
7
  6
CONTINUOUS
370
-3
390
F
  0
LAYER
  5
202
100
AcDbSymbolTableRecord
100
AcDbLayerTableRecord
  2
CURVE
 70
0
 62
7
  6
CONTINUOUS
370
-3
390
F
  0
LAYER
  5
203
100
AcDbSymbolTableRecord
100
AcDbLayerTableRecord
  2
DRAFT
 70
0
 62
7
  6
CONTINUOUS
370
-3
390
F
  0
LAYER
  5
204
100
AcDbSymbolTableRecord
100
AcDbLayerTableRecord
  2
IMPORT_IGES
 70
0
 62
7
  6
CONTINUOUS
370
-3
390
F
  0
LAYER
  5
205
100
AcDbSymbolTableRecord
100
AcDbLayerTableRecord
  2
INTF_1
 70
0
 62
7
  6
CONTINUOUS
370
-3
390
F
  0
LAYER
  5
206
100
AcDbSymbolTableRecord
100
AcDbLayerTableRecord
  2
NOTE
 70
0
 62
7
  6
CONTINUOUS
370
-3
390
F
  0
LAYER
  5
207
100
AcDbSymbolTableRecord
100
AcDbLayerTableRecord
  2
PIANI
 70
0
 62
7
  6
CONTINUOUS
370
-3
390
F
  0
LAYER
  5
208
100
AcDbSymbolTableRecord
100
AcDbLayerTableRecord
  2
PUNTI
 70
0
 62
7
  6
CONTINUOUS
370
-3
390
F
  0
LAYER
  5
209
100
AcDbSymbolTableRecord
100
AcDbLayerTableRecord
  2
RACCORDO
 70
0
 62
7
  6
CONTINUOUS
370
-3
390
F
  0
LAYER
  5
20A
100
AcDbSymbolTableRecord
100
AcDbLayerTableRecord
  2
RGB____0____0____0__
 70
0
 62
7
  6
CONTINUOUS
370
-3
390
F
  0
LAYER
  5
20B
100
AcDbSymbolTableRecord
100
AcDbLayerTableRecord
  2
SIMBOLI
 70
0
 62
7
  6
CONTINUOUS
370
-3
390
F
  0
LAYER
  5
20C
100
AcDbSymbolTableRecord
100
AcDbLayerTableRecord
  2
SMUSSO
 70
0
 62
7
  6
CONTINUOUS
370
-3
390
F
  0
LAYER
  5
20D
100
AcDbSymbolTableRecord
100
AcDbLayerTableRecord
  2
SNAPLINE
 70
0
 62
7
  6
CONTINUOUS
370
-3
390
F
  0
LAYER
  5
20E
100
AcDbSymbolTableRecord
100
AcDbLayerTableRecord
  2
SUPERFICI
 70
0
 62
7
  6
CONTINUOUS
370
-3
390
F
  0
LAYER
  5
20F
100
AcDbSymbolTableRecord
100
AcDbLayerTableRecord
  2
TRASH
 70
0
 62
7
  6
CONTINUOUS
370
-3
390
F
  0
ENDTAB
  0
TABLE
  2
STYLE
  5
3
100
AcDbSymbolTable
 70
1
  0
STYLE
  5
11
100
AcDbSymbolTableRecord
100
AcDbTextStyleTableRecord
  2
STANDARD
 70
0
 40
0.0
 41
0.8
 50
0.0
 71
0
 42
0.2
  3
txt
  4

  0
STYLE
  5
210
100
AcDbSymbolTableRecord
100
AcDbTextStyleTableRecord
  2
TEXTSTYLE_1
 70
0
 40
0.0
 41
0.8
 50
0.0
 71
0
 42
0.2
  3
gdt
  4

  0
ENDTAB
  0
TABLE
  2
VIEW
  5
6
100
AcDbSymbolTable
 70
0
  0
ENDTAB
  0
TABLE
  2
UCS
  5
7
100
AcDbSymbolTable
 70
0
  0
ENDTAB
  0
TABLE
  2
APPID
  5
9
100
AcDbSymbolTable
 70
1
  0
APPID
  5
211
100
AcDbSymbolTableRecord
100
AcDbRegAppTableRecord
  2
ACAD
 70
0
  0
ENDTAB
  0
TABLE
  2
BLOCK_RECORD
  5
1
100
AcDbSymbolTable
 70
0
  0
BLOCK_RECORD
  5
212
100
AcDbSymbolTableRecord
100
AcDbBlockTableRecord
  2
*Model_Space
  0
BLOCK_RECORD
  5
213
100
AcDbSymbolTableRecord
100
AcDbBlockTableRecord
  2
*Paper_Space
  0
ENDTAB
  0
TABLE
  2
DIMSTYLE
  5
A
100
AcDbSymbolTable
 70
1
100
AcDbDimStyleTable
 71
0
  0
DIMSTYLE
105
214
100
AcDbSymbolTableRecord
100
AcDbDimStyleTableRecord
  2
STANDARD
 70
0
  3

  4

 40
1.0
 41
3.0
 42
0.5
 43
0.38
 44
1.5
 45
0.0
 46
0.0
 47
0.01
 48
0.01
140
3.0
141
0.09
142
0.0
143
25.4
144
1.0
145
0.0
146
1.0
147
0.625
 71
1.0
 72
0.0
 73
0
 74
0
 75
0
 76
0
 77
1
 78
8
170
0
171
1
172
0
173
0
174
0
175
0
176
0
177
0
178
0
270
2
271
2
272
2
273
2
274
2
275
0
280
0
281
0
282
0
283
1
284
8
285
0
286
0
287
3
288
0
340
11
278
44
  0
ENDTAB
  0
ENDSEC
  0
SECTION
  2
BLOCKS
  0
BLOCK
  5
20
100
AcDbEntity
  8
0
100
AcDbBlockBegin
  2
*Model_Space
 70
0
 10
0.0
 20
0.0
 30
0.0
  3
*Model_Space
  1

  0
ENDBLK
  5
21
100
AcDbEntity
  8
0
100
AcDbBlockEnd
  0
BLOCK
  5
1C
100
AcDbEntity
  8
0
100
AcDbBlockBegin
  2
*Paper_Space
 70
0
 10
0.0
 20
0.0
 30
0.0
  3
*Paper_Space
  1

  0
ENDBLK
  5
1D
100
AcDbEntity
  8
0
100
AcDbBlockEnd
  0
ENDSEC
  0
SECTION
  2
ENTITIES
  0
LINE
  5
215
100
AcDbEntity
  8
0
100
AcDbLine
 62
7
  6
CONTINUOUS
 10
-156.0
 20
-79.5
 11
-156.0
 21
79.5
  0
LINE
  5
216
100
AcDbEntity
  8
0
100
AcDbLine
 62
250
  6
CONTINUOUS
 10
-153.5
 20
-79.5
 11
-153.5
 21
79.5
  0
LINE
  5
217
100
AcDbEntity
  8
0
100
AcDbLine
 62
7
  6
CONTINUOUS
 10
-153.4925
 20
79.5025
 11
-153.4925
 21
-79.5025
  0
LINE
  5
218
100
AcDbEntity
  8
0
100
AcDbLine
 62
7
  6
CONTINUOUS
 10
-149.8825
 20
79.5025
 11
-149.8825
 21
-79.5025
  0
LINE
  5
219
100
AcDbEntity
  8
CURVE
100
AcDbLine
 62
7
  6
CONTINUOUS
 10
-149.8825
 20
79.5025
 11
-149.8825
 21
-79.5025
  0
LINE
  5
21A
100
AcDbEntity
  8
0
100
AcDbLine
 62
7
  6
CONTINUOUS
 10
-149.4218171695
 20
-79.5
 11
-149.4218171695
 21
79.5
  0
LINE
  5
21B
100
AcDbEntity
  8
0
100
AcDbLine
 62
7
  6
CONTINUOUS
 10
-149.4
 20
-79.5
 11
-149.4
 21
79.5
  0
LINE
  5
21C
100
AcDbEntity
  8
0
100
AcDbLine
 62
250
  6
CONTINUOUS
 10
-146.0025
 20
-83.3825
 11
-146.0025
 21
-86.9925
  0
LINE
  5
21D
100
AcDbEntity
  8
0
100
AcDbLine
 62
250
  6
CONTINUOUS
 10
-146.0025
 20
83.3825
 11
-146.0025
 21
86.9925
  0
LINE
  5
21E
100
AcDbEntity
  8
0
100
AcDbLine
 62
250
  6
CONTINUOUS
 10
-146.0
 20
87.0
 11
-146.0
 21
86.9925
  0
LINE
  5
21F
100
AcDbEntity
  8
0
100
AcDbLine
 62
250
  6
CONTINUOUS
 10
-146.0
 20
82.9218171695
 11
-146.0
 21
82.9
  0
LINE
  5
220
100
AcDbEntity
  8
0
100
AcDbLine
 62
250
  6
CONTINUOUS
 10
-146.0
 20
-87.0
 11
-146.0
 21
-86.9925
  0
LINE
  5
221
100
AcDbEntity
  8
0
100
AcDbLine
 62
250
  6
CONTINUOUS
 10
-146.0
 20
-82.9218171695
 11
-146.0
 21
-82.9
  0
LINE
  5
222
100
AcDbEntity
  8
0
100
AcDbLine
 62
7
  6
CONTINUOUS
 10
146.0
 20
-89.5
 11
-146.0
 21
-89.5
  0
LINE
  5
223
100
AcDbEntity
  8
0
100
AcDbLine
 62
250
  6
CONTINUOUS
 10
146.0
 20
-87.0
 11
-146.0
 21
-87.0
  0
LINE
  5
224
100
AcDbEntity
  8
0
100
AcDbLine
 62
7
  6
CONTINUOUS
 10
-146.0025
 20
-86.9925
 11
146.0025
 21
-86.9925
  0
LINE
  5
225
100
AcDbEntity
  8
0
100
AcDbLine
 62
7
  6
CONTINUOUS
 10
-146.0025
 20
-83.3825
 11
146.0025
 21
-83.3825
  0
LINE
  5
226
100
AcDbEntity
  8
CURVE
100
AcDbLine
 62
7
  6
CONTINUOUS
 10
-146.0025
 20
-83.3825
 11
146.0025
 21
-83.3825
  0
LINE
  5
227
100
AcDbEntity
  8
0
100
AcDbLine
 62
7
  6
CONTINUOUS
 10
146.0
 20
-82.9218171695
 11
-146.0
 21
-82.9218171695
  0
LINE
  5
228
100
AcDbEntity
  8
0
100
AcDbLine
 62
7
  6
CONTINUOUS
 10
146.0
 20
-82.9
 11
-146.0
 21
-82.9
  0
LINE
  5
229
100
AcDbEntity
  8
0
100
AcDbLine
 62
250
  6
CONTINUOUS
 10
149.8825
 20
-79.5025
 11
153.4925
 21
-79.5025
  0
LINE
  5
22A
100
AcDbEntity
  8
0
100
AcDbLine
 62
250
  6
CONTINUOUS
 10
-149.8825
 20
-79.5025
 11
-153.4925
 21
-79.5025
  0
LINE
  5
22B
100
AcDbEntity
  8
0
100
AcDbLine
 62
250
  6
CONTINUOUS
 10
-153.5
 20
-79.5
 11
-153.4925
 21
-79.5
  0
LINE
  5
22C
100
AcDbEntity
  8
0
100
AcDbLine
 62
250
  6
CONTINUOUS
 10
153.5
 20
-79.5
 11
153.4925
 21
-79.5
  0
LINE
  5
22D
100
AcDbEntity
  8
0
100
AcDbLine
 62
250
  6
CONTINUOUS
 10
-149.4218171695
 20
-79.5
 11
-149.4
 21
-79.5
  0
LINE
  5
22E
100
AcDbEntity
  8
0
100
AcDbLine
 62
250
  6
CONTINUOUS
 10
149.4218171695
 20
-79.5
 11
149.4
 21
-79.5
  0
LWPOLYLINE
  5
22F
100
AcDbEntity
  8
0
100
AcDbPolyline
 62
7
  6
CONTINUOUS
 90
10
 70
0
 10
-1.6192196214
 20
-65.1036701032
 10
-1.5924422406
 20
-65.0969933477
 10
-1.5661550519
 20
-65.0909907363
 10
-1.5403580553
 20
-65.0856622689
 10
-1.5150262698
 20
-65.0809459703
 10
-1.4901846765
 20
-65.0769038157
 10
-1.4659082177
 20
-65.073721731
 10
-1.4422218744
 20
-65.0714616914
 10
-1.4191006656
 20
-65.0700617217
 10
-1.3965445915
 20
-65.0695218217
  0
LWPOLYLINE
  5
230
100
AcDbEntity
  8
0
100
AcDbPolyline
 62
7
  6
CONTINUOUS
 90
10
 70
0
 10
-9.3898375978
 20
-65.1036701032
 10
-9.3630602171
 20
-65.0969933477
 10
-9.3367730284
 20
-65.0909907363
 10
-9.3109760317
 20
-65.0856622689
 10
-9.2856442463
 20
-65.0809459703
 10
-9.2608026529
 20
-65.0769038157
 10
-9.2365261941
 20
-65.073721731
 10
-9.2128398508
 20
-65.0714616914
 10
-9.1897186421
 20
-65.0700617217
 10
-9.167162568
 20
-65.0695218217
  0
LINE
  5
231
100
AcDbEntity
  8
0
100
AcDbLine
 62
7
  6
CONTINUOUS
 10
18.4113219764
 20
-64.5478127643
 11
18.7452157176
 21
-64.4709792469
  0
LINE
  5
232
100
AcDbEntity
  8
0
100
AcDbLine
 62
7
  6
CONTINUOUS
 10
6.0935358993
 20
-60.8959959028
 11
6.4274296405
 21
-60.8191623854
  0
LWPOLYLINE
  5
233
100
AcDbEntity
  8
0
100
AcDbPolyline
 62
7
  6
CONTINUOUS
 90
55
 70
0
 10
7.3468234964
 20
-65.1492010679
 10
7.4069146259
 20
-65.1398278051
 10
7.4640412485
 20
-65.1285048001
 10
7.5182033644
 20
-65.1152320528
 10
7.5694278392
 20
-65.0999187005
 10
7.6176878072
 20
-65.0826556058
 10
7.6629026711
 20
-65.0637153573
 10
7.7050170778
 20
-65.0429982235
 10
7.7440863803
 20
-65.0206039359
 10
7.7801960406
 20
-64.9971042768
 10
7.8131095288
 20
-64.9727744479
 10
7.8430633747
 20
-64.9473392476
 10
7.8708526299
 20
-64.920544853
 10
7.8966507245
 20
-64.892359466
 10
7.9202842283
 20
-64.8628148847
 10
7.9420279027
 20
-64.8317526804
 10
7.9620632554
 20
-64.7990370554
 10
7.9802087786
 20
-64.7648038073
 10
7.9961947097
 20
-64.7293019006
 10
8.0099670151
 20
-64.6928128812
 10
8.0215797284
 20
-64.6550552031
 10
8.0309251884
 20
-64.6154331928
 10
8.038069397
 20
-64.5733572145
 10
8.0429463522
 20
-64.5294169039
 10
8.0452503867
 20
-64.484785495
 10
8.0448708098
 20
-64.4392471945
 10
8.0419183121
 20
-64.3930177957
 10
8.0364192988
 20
-64.3479179115
 10
8.0283370029
 20
-64.3045615357
 10
8.0177081913
 20
-64.2623346746
 10
8.0046695702
 20
-64.2212159595
 10
7.9890258422
 20
-64.1808946779
 10
7.9709723048
 20
-64.1416815424
 10
7.9512315563
 20
-64.1044873213
 10
7.9297915941
 20
-64.0694178306
 10
7.9066644208
 20
-64.0363672543
 10
7.8826086431
 20
-64.0059289124
 10
7.858030886
 20
-63.978525032
 10
7.8325245244
 20
-63.9537333859
 10
7.8056282895
 20
-63.9308806123
 10
7.7774525699
 20
-63.9098281518
 10
7.7478869771
 20
-63.8907145638
 10
7.7161390768
 20
-63.8732821652
 10
7.6819981759
 20
-63.857448851
 10
7.6456749675
 20
-63.8432967263
 10
7.6070090968
 20
-63.8308144233
 10
7.5658378466
 20
-63.8201090433
 10
7.5223239341
 20
-63.8110734851
 10
7.4767951563
 20
-63.8033750772
 10
7.4293385778
 20
-63.7969520891
 10
7.379867134
 20
-63.7918662512
 10
7.3284474282
 20
-63.7879700841
 10
7.2751016612
 20
-63.7852144276
 10
7.2198076322
 20
-63.7836484418
 10
7.162565341
 20
-63.7832721267
  0
LINE
  5
234
100
AcDbEntity
  8
0
100
AcDbLine
 62
7
  6
CONTINUOUS
 10
-1.9258422588
 20
-65.5893337267
 11
-2.2293820235
 21
-65.6348646914
  0
LINE
  5
235
100
AcDbEntity
  8
0
100
AcDbLine
 62
7
  6
CONTINUOUS
 10
-9.6964602353
 20
-65.5893337267
 11
-10.0
 21
-65.6348646914
  0
LINE
  5
236
100
AcDbEntity
  8
0
100
AcDbLine
 62
7
  6
CONTINUOUS
 10
-2.8819925177
 20
-64.4207056326
 11
-2.578452753
 21
-64.3903516561
  0
LINE
  5
237
100
AcDbEntity
  8
0
100
AcDbLine
 62
7
  6
CONTINUOUS
 10
-6.7673015059
 20
-64.4207056326
 11
-6.4637617412
 21
-64.3903516561
  0
LINE
  5
238
100
AcDbEntity
  8
0
100
AcDbLine
 62
7
  6
CONTINUOUS
 10
11.4906153411
 20
-65.4527408326
 11
11.1718985882
 21
-65.4679178208
  0
LINE
  5
239
100
AcDbEntity
  8
0
100
AcDbLine
 62
7
  6
CONTINUOUS
 10
12.7503053647
 20
-64.4965905738
 11
13.0841991058
 21
-64.4814135855
  0
LWPOLYLINE
  5
23A
100
AcDbEntity
  8
0
100
AcDbPolyline
 62
7
  6
CONTINUOUS
 90
25
 70
0
 10
17.7681972447
 20
-66.3330061502
 10
17.838347217
 20
-66.3308301517
 10
17.9053188391
 20
-66.3256729451
 10
17.969112111
 20
-66.3175345303
 10
18.0294119916
 20
-66.3063237981
 10
18.0865335219
 20
-66.2921318576
 10
18.1414218251
 20
-66.2752320372
 10
18.1942674973
 20
-66.2556635959
 10
18.2448799424
 20
-66.2333872745
 10
18.2936324947
 20
-66.2085586235
 10
18.3406306049
 20
-66.1812537594
 10
18.3857688224
 20
-66.1513965656
 10
18.429104129
 20
-66.1189142428
 10
18.47062917
 20
-66.0838658704
 10
18.5103513
 20
-66.0461923691
 10
18.5483495658
 20
-66.0056437017
 10
18.5847189075
 20
-65.9622864694
 10
18.6193643849
 20
-65.916054071
 10
18.6520802236
 20
-65.866496666
 10
18.6828540404
 20
-65.8136896491
 10
18.7116982185
 20
-65.7575576255
 10
18.738444133
 20
-65.6974245709
 10
18.7630355757
 20
-65.6330651437
 10
18.7855287549
 20
-65.5647046853
 10
18.8059236705
 20
-65.4923431958
  0
LWPOLYLINE
  5
23B
100
AcDbEntity
  8
0
100
AcDbPolyline
 62
7
  6
CONTINUOUS
 90
25
 70
0
 10
5.4504111676
 20
-62.6811892887
 10
5.5205611399
 20
-62.6790132902
 10
5.587532762
 20
-62.6738560836
 10
5.6513260339
 20
-62.6657176688
 10
5.7116259145
 20
-62.6545069365
 10
5.7687474448
 20
-62.6403149961
 10
5.823635748
 20
-62.6234151756
 10
5.8764814202
 20
-62.6038467343
 10
5.9270938653
 20
-62.581570413
 10
5.9758464175
 20
-62.556741762
 10
6.0228445278
 20
-62.5294368978
 10
6.0679827453
 20
-62.499579704
 10
6.1113180519
 20
-62.4670973813
 10
6.1528430928
 20
-62.4320490089
 10
6.1925652229
 20
-62.3943755076
 10
6.2305634886
 20
-62.3538268402
 10
6.2669328304
 20
-62.3104696079
 10
6.3015783078
 20
-62.2642372094
 10
6.3342941465
 20
-62.2146798044
 10
6.3650679633
 20
-62.1618727875
 10
6.3939121413
 20
-62.105740764
 10
6.4206580558
 20
-62.0456077094
 10
6.4452494986
 20
-61.9812482821
 10
6.4677426778
 20
-61.9128878238
 10
6.4881375934
 20
-61.8405263343
  0
LWPOLYLINE
  5
23C
100
AcDbEntity
  8
0
100
AcDbPolyline
 62
7
  6
CONTINUOUS
 90
46
 70
0
 10
12.2285965388
 20
-66.3330061502
 10
12.2991243737
 20
-66.3308828403
 10
12.366610002
 20
-66.3257126368
 10
12.4310534236
 20
-66.3174955397
 10
12.492356729
 20
-66.3060319635
 10
12.5506178277
 20
-66.2915214938
 10
12.6061304484
 20
-66.2745628872
 10
12.6591845038
 20
-66.2550603122
 10
12.7094900811
 20
-66.2331096005
 10
12.7564711704
 20
-66.2095970032
 10
12.799728268
 20
-66.1848087856
 10
12.8396608775
 20
-66.1584586825
 10
12.8768915001
 20
-66.1305741495
 10
12.9114123392
 20
-66.1012550432
 10
12.9432311913
 20
-66.070401507
 10
12.9729939473
 20
-66.0377414269
 10
13.0010717507
 20
-66.0029088711
 10
13.0270934579
 20
-65.9662697714
 10
13.0505915288
 20
-65.9286498092
 10
13.0714472183
 20
-65.8902058297
 10
13.0897792715
 20
-65.8507809877
 10
13.1054763838
 20
-65.810730429
 10
13.1184833995
 20
-65.7701932827
 10
13.1288554743
 20
-65.7290304197
 10
13.1366467704
 20
-65.6871795989
 10
13.1418789366
 20
-65.6442170774
 10
13.1445303242
 20
-65.6005665981
 10
13.1445901496
 20
-65.5574371477
 10
13.1419695055
 20
-65.5149443585
 10
13.1367572992
 20
-65.4729725982
 10
13.1292094692
 20
-65.4323839567
 10
13.1193330287
 20
-65.3934358088
 10
13.1071209646
 20
-65.3558707797
 10
13.0928081761
 20
-65.3197788348
 10
13.0765780883
 20
-65.2853275182
 10
13.0582472761
 20
-65.2523492859
 10
13.0375003642
 20
-65.220431471
 10
13.0144739415
 20
-65.1896017536
 10
12.989031419
 20
-65.1598324538
 10
12.9604476542
 20
-65.1306278645
 10
12.9285305686
 20
-65.1016786015
 10
12.8934722407
 20
-65.0732940492
 10
12.8551237638
 20
-65.0459066533
 10
12.8134355023
 20
-65.0196605625
 10
12.7684570918
 20
-64.9944116281
 10
12.7201885323
 20
-64.9701598502
  0
LWPOLYLINE
  5
23D
100
AcDbEntity
  8
0
100
AcDbPolyline
 62
7
  6
CONTINUOUS
 90
46
 70
0
 10
3.2042169087
 20
-59.0141954389
 10
3.2747447437
 20
-59.012072129
 10
3.3422303719
 20
-59.0069019255
 10
3.4066737935
 20
-58.9986848284
 10
3.4679770989
 20
-58.9872212522
 10
3.5262381976
 20
-58.9727107825
 10
3.5817508183
 20
-58.9557521759
 10
3.6348048737
 20
-58.9362496009
 10
3.685110451
 20
-58.9142988892
 10
3.7320915403
 20
-58.8907862919
 10
3.7753486379
 20
-58.8659980743
 10
3.8152812475
 20
-58.8396479712
 10
3.8525118701
 20
-58.8117634382
 10
3.8870327091
 20
-58.7824443319
 10
3.9188515613
 20
-58.7515907957
 10
3.9486143172
 20
-58.7189307156
 10
3.9766921206
 20
-58.6840981598
 10
4.0027138278
 20
-58.6474590601
 10
4.0262118987
 20
-58.6098390979
 10
4.0470675882
 20
-58.5713951184
 10
4.0653996415
 20
-58.5319702764
 10
4.0810967538
 20
-58.4919197177
 10
4.0941037695
 20
-58.4513825714
 10
4.1044758442
 20
-58.4102197084
 10
4.1122671403
 20
-58.3683688876
 10
4.1174993065
 20
-58.3254063661
 10
4.1201506941
 20
-58.2817558868
 10
4.1202105196
 20
-58.2386264364
 10
4.1175898754
 20
-58.1961336472
 10
4.1123776691
 20
-58.1541618869
 10
4.1048298391
 20
-58.1135732454
 10
4.0949533986
 20
-58.0746250975
 10
4.0827413345
 20
-58.0370600684
 10
4.0684285461
 20
-58.0009681235
 10
4.0521984582
 20
-57.9665168069
 10
4.0338676461
 20
-57.9335385746
 10
4.0131207341
 20
-57.9016207597
 10
3.9900943114
 20
-57.8707910423
 10
3.9646517889
 20
-57.8410217425
 10
3.9360680241
 20
-57.8118171532
 10
3.9041509385
 20
-57.7828678902
 10
3.8690926106
 20
-57.7544833379
 10
3.8307441337
 20
-57.727095942
 10
3.7890558722
 20
-57.7008498512
 10
3.7440774617
 20
-57.6756009168
 10
3.6958089022
 20
-57.6513491389
  0
LWPOLYLINE
  5
23E
100
AcDbEntity
  8
0
100
AcDbPolyline
 62
7
  6
CONTINUOUS
 90
46
 70
0
 10
12.1437001234
 20
-63.737741162
 10
12.0759920992
 20
-63.7397462155
 10
12.0113850705
 20
-63.7442883989
 10
11.9498790373
 20
-63.7513677121
 10
11.8915143645
 20
-63.7612009693
 10
11.8362506872
 20
-63.7735713563
 10
11.7839669106
 20
-63.7878284309
 10
11.7346247818
 20
-63.803939585
 10
11.6882625539
 20
-63.8219374267
 10
11.6448738905
 20
-63.8412693381
 10
11.6046040107
 20
-63.8617650954
 10
11.5673076956
 20
-63.8835949225
 10
11.532542952
 20
-63.9067168728
 10
11.5004039974
 20
-63.9309899826
 10
11.4707966145
 20
-63.9565552156
 10
11.442996158
 20
-63.9837935165
 10
11.4167335278
 20
-64.012842317
 10
11.3922778241
 20
-64.0435641855
 10
11.3697117022
 20
-64.0759277711
 10
11.348954366
 20
-64.1100885055
 10
11.3300866115
 20
-64.145890957
 10
11.313433482
 20
-64.1828374797
 10
11.2990125727
 20
-64.2210827121
 10
11.2868062884
 20
-64.2604720158
 10
11.2770868866
 20
-64.3000438294
 10
11.2699608695
 20
-64.3397371568
 10
11.2653217349
 20
-64.3796129942
 10
11.2631222335
 20
-64.4188927692
 10
11.2634096629
 20
-64.4574120605
 10
11.2661367255
 20
-64.4953352895
 10
11.2711142787
 20
-64.5323771477
 10
11.2783514574
 20
-64.5685339752
 10
11.2878391268
 20
-64.6038094319
 10
11.2993607396
 20
-64.6379291895
 10
11.3127878185
 20
-64.6707276135
 10
11.3282488408
 20
-64.7023703383
 10
11.3459126917
 20
-64.7330799387
 10
11.3656050269
 20
-64.7627638742
 10
11.3875001907
 20
-64.7915146853
 10
11.4122901002
 20
-64.8198325687
 10
11.440127311
 20
-64.8480199301
 10
11.4708592676
 20
-64.8757743638
 10
11.5047202211
 20
-64.9026888501
 10
11.5417882553
 20
-64.9286277156
 10
11.5819852864
 20
-64.9537266337
 10
11.6253113144
 20
-64.9779856042
  0
LINE
  5
23F
100
AcDbEntity
  8
0
100
AcDbLine
 62
7
  6
CONTINUOUS
 10
-10.0
 20
-70.0
 11
-9.6661062588
 21
-70.0
  0
LINE
  5
240
100
AcDbEntity
  8
0
100
AcDbLine
 62
7
  6
CONTINUOUS
 10
-8.4367702118
 20
-70.0
 11
-8.1028764706
 21
-70.0
  0
LINE
  5
241
100
AcDbEntity
  8
0
100
AcDbLine
 62
7
  6
CONTINUOUS
 10
-7.2259309382
 20
-70.0
 11
-6.8735404235
 21
-70.0
  0
LINE
  5
242
100
AcDbEntity
  8
0
100
AcDbLine
 62
7
  6
CONTINUOUS
 10
-5.2647796706
 20
-70.0
 11
-4.9097803397
 21
-70.0
  0
LINE
  5
243
100
AcDbEntity
  8
0
100
AcDbLine
 62
7
  6
CONTINUOUS
 10
-4.642523153
 20
-70.0
 11
-3.0641163765
 21
-70.0
  0
LINE
  5
244
100
AcDbEntity
  8
0
100
AcDbLine
 62
7
  6
CONTINUOUS
 10
-1.9846530593
 20
-70.0
 11
-1.6507593181
 21
-70.0
  0
LINE
  5
245
100
AcDbEntity
  8
0
100
AcDbLine
 62
7
  6
CONTINUOUS
 10
-3.0641163765
 20
-69.7116372235
 11
-4.3086294118
 21
-69.7116372235
  0
LINE
  5
246
100
AcDbEntity
  8
0
100
AcDbLine
 62
7
  6
CONTINUOUS
 10
-6.609603022
 20
-69.2411505882
 11
-5.5441309728
 21
-69.2411505882
  0
LINE
  5
247
100
AcDbEntity
  8
0
100
AcDbLine
 62
7
  6
CONTINUOUS
 10
-5.6449155771
 20
-68.9679648
 11
-6.5145096436
 21
-68.9679648
  0
LINE
  5
248
100
AcDbEntity
  8
0
100
AcDbLine
 62
7
  6
CONTINUOUS
 10
-9.2563275765
 20
-67.7841597177
 11
-8.4367702118
 21
-67.7841597177
  0
LINE
  5
249
100
AcDbEntity
  8
0
100
AcDbLine
 62
7
  6
CONTINUOUS
 10
-8.1028764706
 20
-67.7841597177
 11
-7.2833191059
 21
-67.7841597177
  0
LINE
  5
24A
100
AcDbEntity
  8
0
100
AcDbLine
 62
7
  6
CONTINUOUS
 10
-0.6490780946
 20
-67.4957969412
 11
-1.0519795992
 21
-67.4957969412
  0
LINE
  5
24B
100
AcDbEntity
  8
0
100
AcDbLine
 62
7
  6
CONTINUOUS
 10
-2.5435930393
 20
-67.4957969412
 11
-2.9408033181
 21
-67.4957969412
  0
LINE
  5
24C
100
AcDbEntity
  8
0
100
AcDbLine
 62
7
  6
CONTINUOUS
 10
-4.3086294118
 20
-67.4957969412
 11
-4.642523153
 21
-67.4957969412
  0
LINE
  5
24D
100
AcDbEntity
  8
0
100
AcDbLine
 62
7
  6
CONTINUOUS
 10
-5.9128844276
 20
-67.4957969412
 11
-6.2740492724
 21
-67.4957969412
  0
LINE
  5
24E
100
AcDbEntity
  8
0
100
AcDbLine
 62
7
  6
CONTINUOUS
 10
-7.2833191059
 20
-67.4957969412
 11
-9.2563275765
 21
-67.4957969412
  0
LINE
  5
24F
100
AcDbEntity
  8
0
100
AcDbLine
 62
7
  6
CONTINUOUS
 10
-9.6661062588
 20
-67.4957969412
 11
-10.0
 21
-67.4957969412
  0
LINE
  5
250
100
AcDbEntity
  8
0
100
AcDbLine
 62
7
  6
CONTINUOUS
 10
0.775661647
 20
-66.2874751855
 11
1.1095553882
 21
-66.2874751855
  0
LINE
  5
251
100
AcDbEntity
  8
0
100
AcDbLine
 62
7
  6
CONTINUOUS
 10
1.8316481655
 20
-66.2874751855
 11
2.1157423489
 21
-66.2874751855
  0
LINE
  5
252
100
AcDbEntity
  8
0
100
AcDbLine
 62
7
  6
CONTINUOUS
 10
2.8549090353
 20
-66.2874751855
 11
3.1888027764
 21
-66.2874751855
  0
LINE
  5
253
100
AcDbEntity
  8
0
100
AcDbLine
 62
7
  6
CONTINUOUS
 10
3.4434917912
 20
-66.2874751855
 11
3.7958823059
 21
-66.2874751855
  0
LINE
  5
254
100
AcDbEntity
  8
0
100
AcDbLine
 62
7
  6
CONTINUOUS
 10
5.4046430588
 20
-66.2874751855
 11
5.7596423897
 21
-66.2874751855
  0
LINE
  5
255
100
AcDbEntity
  8
0
100
AcDbLine
 62
7
  6
CONTINUOUS
 10
6.0572535529
 20
-66.2874751855
 11
6.3911472941
 21
-66.2874751855
  0
LINE
  5
256
100
AcDbEntity
  8
0
100
AcDbLine
 62
7
  6
CONTINUOUS
 10
7.8358069052
 20
-66.2874751855
 11
8.2280371587
 21
-66.2874751855
  0
LINE
  5
257
100
AcDbEntity
  8
0
100
AcDbLine
 62
7
  6
CONTINUOUS
 10
14.2376502117
 20
-66.2874751855
 11
14.5715439529
 21
-66.2874751855
  0
LINE
  5
258
100
AcDbEntity
  8
0
100
AcDbLine
 62
7
  6
CONTINUOUS
 10
15.7705260235
 20
-66.2874751855
 11
16.1044197647
 21
-66.2874751855
  0
LINE
  5
259
100
AcDbEntity
  8
0
100
AcDbLine
 62
7
  6
CONTINUOUS
 10
18.9391967794
 20
-66.2874751855
 11
19.2915872941
 21
-66.2874751855
  0
LINE
  5
25A
100
AcDbEntity
  8
0
100
AcDbLine
 62
7
  6
CONTINUOUS
 10
20.900348047
 20
-66.2874751855
 11
21.2553473779
 21
-66.2874751855
  0
LINE
  5
25B
100
AcDbEntity
  8
0
100
AcDbLine
 62
7
  6
CONTINUOUS
 10
23.2383156674
 20
-66.2874751855
 11
23.5975835914
 21
-66.2874751855
  0
LINE
  5
25C
100
AcDbEntity
  8
0
100
AcDbLine
 62
7
  6
CONTINUOUS
 10
24.8767189646
 20
-66.2874751855
 11
25.2106127058
 21
-66.2874751855
  0
LINE
  5
25D
100
AcDbEntity
  8
0
100
AcDbLine
 62
7
  6
CONTINUOUS
 10
4.0598197074
 20
-65.5286257738
 11
5.1252917566
 21
-65.5286257738
  0
LINE
  5
25E
100
AcDbEntity
  8
0
100
AcDbLine
 62
7
  6
CONTINUOUS
 10
19.5555246956
 20
-65.5286257738
 11
20.6209967448
 21
-65.5286257738
  0
LINE
  5
25F
100
AcDbEntity
  8
0
100
AcDbLine
 62
7
  6
CONTINUOUS
 10
20.5202121405
 20
-65.2554399855
 11
19.650618074
 21
-65.2554399855
  0
LINE
  5
260
100
AcDbEntity
  8
0
100
AcDbLine
 62
7
  6
CONTINUOUS
 10
5.0245071523
 20
-65.2554399855
 11
4.1549130858
 21
-65.2554399855
  0
LINE
  5
261
100
AcDbEntity
  8
0
100
AcDbLine
 62
7
  6
CONTINUOUS
 10
7.0964030747
 20
-64.8911922679
 11
6.3911472941
 21
-64.8911922679
  0
LINE
  5
262
100
AcDbEntity
  8
0
100
AcDbLine
 62
7
  6
CONTINUOUS
 10
6.3911472941
 20
-64.0716349032
 11
7.1760823208
 21
-64.0716349032
  0
LINE
  5
263
100
AcDbEntity
  8
0
100
AcDbLine
 62
7
  6
CONTINUOUS
 10
13.418092847
 20
-64.0716349032
 11
14.2376502117
 21
-64.0716349032
  0
LINE
  5
264
100
AcDbEntity
  8
0
100
AcDbLine
 62
7
  6
CONTINUOUS
 10
14.5715439529
 20
-64.0716349032
 11
15.3911013176
 21
-64.0716349032
  0
LINE
  5
265
100
AcDbEntity
  8
0
100
AcDbLine
 62
7
  6
CONTINUOUS
 10
25.2106127058
 20
-63.7832721267
 11
24.8767189646
 21
-63.7832721267
  0
LINE
  5
266
100
AcDbEntity
  8
0
100
AcDbLine
 62
7
  6
CONTINUOUS
 10
24.5964190862
 20
-63.7832721267
 11
24.2392854588
 21
-63.7832721267
  0
LINE
  5
267
100
AcDbEntity
  8
0
100
AcDbLine
 62
7
  6
CONTINUOUS
 10
22.6305247058
 20
-63.7832721267
 11
22.2755256065
 21
-63.7832721267
  0
LINE
  5
268
100
AcDbEntity
  8
0
100
AcDbLine
 62
7
  6
CONTINUOUS
 10
20.25224329
 20
-63.7832721267
 11
19.8910784452
 21
-63.7832721267
  0
LINE
  5
269
100
AcDbEntity
  8
0
100
AcDbLine
 62
7
  6
CONTINUOUS
 10
16.1044197647
 20
-63.7832721267
 11
15.7705260235
 21
-63.7832721267
  0
LINE
  5
26A
100
AcDbEntity
  8
0
100
AcDbLine
 62
7
  6
CONTINUOUS
 10
15.3911013176
 20
-63.7832721267
 11
13.418092847
 21
-63.7832721267
  0
LINE
  5
26B
100
AcDbEntity
  8
0
100
AcDbLine
 62
7
  6
CONTINUOUS
 10
7.162565341
 20
-63.7832721267
 11
6.0572535529
 21
-63.7832721267
  0
LINE
  5
26C
100
AcDbEntity
  8
0
100
AcDbLine
 62
7
  6
CONTINUOUS
 10
4.7565383018
 20
-63.7832721267
 11
4.3953734569
 21
-63.7832721267
  0
LINE
  5
26D
100
AcDbEntity
  8
0
100
AcDbLine
 62
7
  6
CONTINUOUS
 10
3.1888027764
 20
-63.7832721267
 11
2.7543615751
 21
-63.7832721267
  0
LINE
  5
26E
100
AcDbEntity
  8
0
100
AcDbLine
 62
7
  6
CONTINUOUS
 10
1.2845651568
 20
-63.7832721267
 11
0.775661647
 21
-63.7832721267
  0
LINE
  5
26F
100
AcDbEntity
  8
0
100
AcDbLine
 62
7
  6
CONTINUOUS
 10
-9.0372099391
 20
-62.635658324
 11
-8.6779420151
 21
-62.635658324
  0
LINE
  5
270
100
AcDbEntity
  8
0
100
AcDbLine
 62
7
  6
CONTINUOUS
 10
-7.3988066419
 20
-62.635658324
 11
-7.0649129007
 21
-62.635658324
  0
LINE
  5
271
100
AcDbEntity
  8
0
100
AcDbLine
 62
7
  6
CONTINUOUS
 10
-6.749515933
 20
-62.635658324
 11
-6.3971254183
 21
-62.635658324
  0
LINE
  5
272
100
AcDbEntity
  8
0
100
AcDbLine
 62
7
  6
CONTINUOUS
 10
-4.7883646654
 20
-62.635658324
 11
-4.4333653345
 21
-62.635658324
  0
LINE
  5
273
100
AcDbEntity
  8
0
100
AcDbLine
 62
7
  6
CONTINUOUS
 10
-4.1661081478
 20
-62.635658324
 11
-2.5877013713
 21
-62.635658324
  0
LINE
  5
274
100
AcDbEntity
  8
0
100
AcDbLine
 62
7
  6
CONTINUOUS
 10
-2.1930996772
 20
-62.635658324
 11
-0.3415071125
 21
-62.635658324
  0
LINE
  5
275
100
AcDbEntity
  8
0
100
AcDbLine
 62
7
  6
CONTINUOUS
 10
1.8143366491
 20
-62.635658324
 11
2.1736045731
 21
-62.635658324
  0
LINE
  5
276
100
AcDbEntity
  8
0
100
AcDbLine
 62
7
  6
CONTINUOUS
 10
3.4527399464
 20
-62.635658324
 11
3.7866336875
 21
-62.635658324
  0
LINE
  5
277
100
AcDbEntity
  8
0
100
AcDbLine
 62
7
  6
CONTINUOUS
 10
6.913093264
 20
-62.635658324
 11
8.7646858287
 21
-62.635658324
  0
LINE
  5
278
100
AcDbEntity
  8
0
100
AcDbLine
 62
7
  6
CONTINUOUS
 10
9.235172464
 20
-62.635658324
 11
9.5690662052
 21
-62.635658324
  0
LINE
  5
279
100
AcDbEntity
  8
0
100
AcDbLine
 62
7
  6
CONTINUOUS
 10
10.8228278588
 20
-62.635658324
 11
11.1778269581
 21
-62.635658324
  0
LINE
  5
27A
100
AcDbEntity
  8
0
100
AcDbLine
 62
7
  6
CONTINUOUS
 10
11.5268976875
 20
-62.635658324
 11
13.5150831463
 21
-62.635658324
  0
LINE
  5
27B
100
AcDbEntity
  8
0
100
AcDbLine
 62
7
  6
CONTINUOUS
 10
13.5876483023
 20
-62.635658324
 11
13.9400388169
 21
-62.635658324
  0
LINE
  5
27C
100
AcDbEntity
  8
0
100
AcDbLine
 62
7
  6
CONTINUOUS
 10
15.5487995699
 20
-62.635658324
 11
15.9037989008
 21
-62.635658324
  0
LINE
  5
27D
100
AcDbEntity
  8
0
100
AcDbLine
 62
7
  6
CONTINUOUS
 10
17.8860557581
 20
-62.635658324
 11
18.1895955228
 21
-62.635658324
  0
LINE
  5
27E
100
AcDbEntity
  8
0
100
AcDbLine
 62
7
  6
CONTINUOUS
 10
19.9804801346
 20
-62.635658324
 11
20.2840198993
 21
-62.635658324
  0
LINE
  5
27F
100
AcDbEntity
  8
0
100
AcDbLine
 62
7
  6
CONTINUOUS
 10
13.5150831463
 20
-62.3472955475
 11
11.9051369047
 21
-62.3472955475
  0
LINE
  5
280
100
AcDbEntity
  8
0
100
AcDbLine
 62
7
  6
CONTINUOUS
 10
8.7646858287
 20
-62.3472955475
 11
7.2469870052
 21
-62.3472955475
  0
LINE
  5
281
100
AcDbEntity
  8
0
100
AcDbLine
 62
7
  6
CONTINUOUS
 10
-0.3415071125
 20
-62.3472955475
 11
-1.859205936
 21
-62.3472955475
  0
LINE
  5
282
100
AcDbEntity
  8
0
100
AcDbLine
 62
7
  6
CONTINUOUS
 10
-2.5877013713
 20
-62.3472955475
 11
-3.8322144066
 21
-62.3472955475
  0
LINE
  5
283
100
AcDbEntity
  8
0
100
AcDbLine
 62
7
  6
CONTINUOUS
 10
18.8725599934
 20
-62.0437557828
 11
19.9804801346
 21
-62.0437557828
  0
LINE
  5
284
100
AcDbEntity
  8
0
100
AcDbLine
 62
7
  6
CONTINUOUS
 10
20.2840198993
 20
-62.0437557828
 11
20.6179136404
 21
-62.0437557828
  0
LINE
  5
285
100
AcDbEntity
  8
0
100
AcDbLine
 62
7
  6
CONTINUOUS
 10
-6.1331880168
 20
-61.8768089122
 11
-5.0677159676
 21
-61.8768089122
  0
LINE
  5
286
100
AcDbEntity
  8
0
100
AcDbLine
 62
7
  6
CONTINUOUS
 10
14.2039762184
 20
-61.8768089122
 11
15.2694482677
 21
-61.8768089122
  0
LINE
  5
287
100
AcDbEntity
  8
0
100
AcDbLine
 62
7
  6
CONTINUOUS
 10
20.6179136404
 20
-61.7553930063
 11
20.2840198993
 21
-61.7553930063
  0
LINE
  5
288
100
AcDbEntity
  8
0
100
AcDbLine
 62
7
  6
CONTINUOUS
 10
19.9804801346
 20
-61.7553930063
 11
19.1765740462
 21
-61.7553930063
  0
LINE
  5
289
100
AcDbEntity
  8
0
100
AcDbLine
 62
7
  6
CONTINUOUS
 10
15.1686636634
 20
-61.603623124
 11
14.2990695968
 21
-61.603623124
  0
LINE
  5
28A
100
AcDbEntity
  8
0
100
AcDbLine
 62
7
  6
CONTINUOUS
 10
-5.1685005719
 20
-61.603623124
 11
-6.0380946384
 21
-61.603623124
  0
LINE
  5
28B
100
AcDbEntity
  8
0
100
AcDbLine
 62
7
  6
CONTINUOUS
 10
-1.859205936
 20
-61.4822072181
 11
-0.4932769948
 21
-61.4822072181
  0
LINE
  5
28C
100
AcDbEntity
  8
0
100
AcDbLine
 62
7
  6
CONTINUOUS
 10
7.2469870052
 20
-61.4822072181
 11
8.6129159463
 21
-61.4822072181
  0
LINE
  5
28D
100
AcDbEntity
  8
0
100
AcDbLine
 62
7
  6
CONTINUOUS
 10
8.6129159463
 20
-61.1938444416
 11
7.2469870052
 21
-61.1938444416
  0
LINE
  5
28E
100
AcDbEntity
  8
0
100
AcDbLine
 62
7
  6
CONTINUOUS
 10
-0.4932769948
 20
-61.1938444416
 11
-1.859205936
 21
-61.1938444416
  0
LINE
  5
28F
100
AcDbEntity
  8
0
100
AcDbLine
 62
7
  6
CONTINUOUS
 10
-1.859205936
 20
-60.4198180416
 11
-0.4022150654
 21
-60.4198180416
  0
LINE
  5
290
100
AcDbEntity
  8
0
100
AcDbLine
 62
7
  6
CONTINUOUS
 10
7.2469870052
 20
-60.4198180416
 11
8.7039778758
 21
-60.4198180416
  0
LINE
  5
291
100
AcDbEntity
  8
0
100
AcDbLine
 62
7
  6
CONTINUOUS
 10
11.6786675699
 20
-60.4198180416
 11
13.066413533
 21
-60.4198180416
  0
LINE
  5
292
100
AcDbEntity
  8
0
100
AcDbLine
 62
7
  6
CONTINUOUS
 10
20.2840198993
 20
-60.1314552652
 11
20.0411880875
 21
-60.1314552652
  0
LINE
  5
293
100
AcDbEntity
  8
0
100
AcDbLine
 62
7
  6
CONTINUOUS
 10
14.9006948129
 20
-60.1314552652
 11
14.539529968
 21
-60.1314552652
  0
LINE
  5
294
100
AcDbEntity
  8
0
100
AcDbLine
 62
7
  6
CONTINUOUS
 10
13.4543751934
 20
-60.1314552652
 11
11.6786675699
 21
-60.1314552652
  0
LINE
  5
295
100
AcDbEntity
  8
0
100
AcDbLine
 62
7
  6
CONTINUOUS
 10
11.1778269581
 20
-60.1314552652
 11
10.8439332169
 21
-60.1314552652
  0
LINE
  5
296
100
AcDbEntity
  8
0
100
AcDbLine
 62
7
  6
CONTINUOUS
 10
9.5901717949
 20
-60.1314552652
 11
9.235172464
 21
-60.1314552652
  0
LINE
  5
297
100
AcDbEntity
  8
0
100
AcDbLine
 62
7
  6
CONTINUOUS
 10
8.7039778758
 20
-60.1314552652
 11
6.913093264
 21
-60.1314552652
  0
LINE
  5
298
100
AcDbEntity
  8
0
100
AcDbLine
 62
7
  6
CONTINUOUS
 10
3.7866336875
 20
-60.1314552652
 11
3.4527399464
 21
-60.1314552652
  0
LINE
  5
299
100
AcDbEntity
  8
0
100
AcDbLine
 62
7
  6
CONTINUOUS
 10
3.1724400679
 20
-60.1314552652
 11
2.8153064405
 21
-60.1314552652
  0
LINE
  5
29A
100
AcDbEntity
  8
0
100
AcDbLine
 62
7
  6
CONTINUOUS
 10
1.2065456875
 20
-60.1314552652
 11
0.8515465882
 21
-60.1314552652
  0
LINE
  5
29B
100
AcDbEntity
  8
0
100
AcDbLine
 62
7
  6
CONTINUOUS
 10
-0.4022150654
 20
-60.1314552652
 11
-2.1930996772
 21
-60.1314552652
  0
LINE
  5
29C
100
AcDbEntity
  8
0
100
AcDbLine
 62
7
  6
CONTINUOUS
 10
-3.8322144066
 20
-60.1314552652
 11
-4.1661081478
 21
-60.1314552652
  0
LINE
  5
29D
100
AcDbEntity
  8
0
100
AcDbLine
 62
7
  6
CONTINUOUS
 10
-5.4364694224
 20
-60.1314552652
 11
-5.7976342672
 21
-60.1314552652
  0
LINE
  5
29E
100
AcDbEntity
  8
0
100
AcDbLine
 62
7
  6
CONTINUOUS
 10
-7.0649129007
 20
-60.1314552652
 11
-7.3988066419
 21
-60.1314552652
  0
LINE
  5
29F
100
AcDbEntity
  8
0
100
AcDbLine
 62
7
  6
CONTINUOUS
 10
-7.6791065203
 20
-60.1314552652
 11
-8.0362401477
 21
-60.1314552652
  0
LINE
  5
2A0
100
AcDbEntity
  8
0
100
AcDbLine
 62
7
  6
CONTINUOUS
 10
-9.6450009007
 20
-60.1314552652
 11
-10.0
 21
-60.1314552652
  0
LINE
  5
2A1
100
AcDbEntity
  8
0
100
AcDbLine
 62
7
  6
CONTINUOUS
 10
18.1895955228
 20
-60.1162782769
 11
17.9939546842
 21
-60.1162782769
  0
LINE
  5
2A2
100
AcDbEntity
  8
0
100
AcDbLine
 62
7
  6
CONTINUOUS
 10
-9.0372099391
 20
-58.9686644742
 11
-8.6779420151
 21
-58.9686644742
  0
LINE
  5
2A3
100
AcDbEntity
  8
0
100
AcDbLine
 62
7
  6
CONTINUOUS
 10
-7.3988066419
 20
-58.9686644742
 11
-7.0649129007
 21
-58.9686644742
  0
LINE
  5
2A4
100
AcDbEntity
  8
0
100
AcDbLine
 62
7
  6
CONTINUOUS
 10
-6.503364336
 20
-58.9686644742
 11
-6.1694705948
 21
-58.9686644742
  0
LINE
  5
2A5
100
AcDbEntity
  8
0
100
AcDbLine
 62
7
  6
CONTINUOUS
 10
-5.4473778175
 20
-58.9686644742
 11
-5.1632836341
 21
-58.9686644742
  0
LINE
  5
2A6
100
AcDbEntity
  8
0
100
AcDbLine
 62
7
  6
CONTINUOUS
 10
-4.4241169477
 20
-58.9686644742
 11
-4.0902232066
 21
-58.9686644742
  0
LINE
  5
2A7
100
AcDbEntity
  8
0
100
AcDbLine
 62
7
  6
CONTINUOUS
 10
-3.8355341918
 20
-58.9686644742
 11
-3.4831436772
 21
-58.9686644742
  0
LINE
  5
2A8
100
AcDbEntity
  8
0
100
AcDbLine
 62
7
  6
CONTINUOUS
 10
-1.8743829242
 20
-58.9686644742
 11
-1.5193835933
 21
-58.9686644742
  0
LINE
  5
2A9
100
AcDbEntity
  8
0
100
AcDbLine
 62
7
  6
CONTINUOUS
 10
-1.2217724301
 20
-58.9686644742
 11
-0.8878786889
 21
-58.9686644742
  0
LINE
  5
2AA
100
AcDbEntity
  8
0
100
AcDbLine
 62
7
  6
CONTINUOUS
 10
0.5567809221
 20
-58.9686644742
 11
0.9490111757
 21
-58.9686644742
  0
LINE
  5
2AB
100
AcDbEntity
  8
0
100
AcDbLine
 62
7
  6
CONTINUOUS
 10
4.591014064
 20
-58.9686644742
 11
4.9249078052
 21
-58.9686644742
  0
LINE
  5
2AC
100
AcDbEntity
  8
0
100
AcDbLine
 62
7
  6
CONTINUOUS
 10
6.6214107023
 20
-58.9686644742
 11
6.9738012169
 21
-58.9686644742
  0
LINE
  5
2AD
100
AcDbEntity
  8
0
100
AcDbLine
 62
7
  6
CONTINUOUS
 10
8.5825619699
 20
-58.9686644742
 11
8.9375613008
 21
-58.9686644742
  0
LWPOLYLINE
  5
2AE
100
AcDbEntity
  8
0
100
AcDbPolyline
 62
7
  6
CONTINUOUS
 90
10
 70
0
 10
6.3911472941
 20
-65.1795550444
 10
6.7939802672
 20
-65.1796196396
 10
6.8157463577
 20
-65.1799099221
 10
6.8370559915
 20
-65.1804258919
 10
6.8579451814
 20
-65.181059633
 10
6.8783779148
 20
-65.1819190614
 10
6.8982461538
 20
-65.1833279247
 10
6.9175138859
 20
-65.1853941388
 10
6.9362171237
 20
-65.1880097878
 10
6.9543558672
 20
-65.1911748717
  0
LWPOLYLINE
  5
2AF
100
AcDbEntity
  8
0
100
AcDbPolyline
 62
7
  6
CONTINUOUS
 90
52
 70
0
 10
7.1760823208
 20
-64.0716349032
 10
7.2195244487
 20
-64.0720964984
 10
7.261186333
 20
-64.0741352242
 10
7.3010679736
 20
-64.0777510804
 10
7.3392274281
 20
-64.0829553156
 10
7.375606639
 20
-64.0897366812
 10
7.4100314335
 20
-64.098061432
 10
7.4424969074
 20
-64.1080244841
 10
7.4730079649
 20
-64.1195309212
 10
7.5014051465
 20
-64.1322622499
 10
7.5275056686
 20
-64.1461053366
 10
7.5514923148
 20
-64.1611733147
 10
7.573753977
 20
-64.1774870913
 10
7.5943677877
 20
-64.195082675
 10
7.6132566144
 20
-64.2139240571
 10
7.6305779509
 20
-64.2339241191
 10
7.6464330058
 20
-64.2551043853
 10
7.6607205706
 20
-64.2774433313
 10
7.6732945137
 20
-64.3007892656
 10
7.6841438032
 20
-64.3250807786
 10
7.6932794711
 20
-64.3503792799
 10
7.7005884815
 20
-64.3767173065
 10
7.706090029
 20
-64.4043479309
 10
7.709764919
 20
-64.4330180807
 10
7.7114425321
 20
-64.4620010752
 10
7.7110486198
 20
-64.4914060057
 10
7.7086574305
 20
-64.5211237809
 10
7.7043210908
 20
-64.5501004465
 10
7.6980122333
 20
-64.5780410311
 10
7.6897582254
 20
-64.605240506
 10
7.679693295
 20
-64.631529831
 10
7.6677396716
 20
-64.6570032978
 10
7.6539751258
 20
-64.6815666147
 10
7.6387671976
 20
-64.7047678657
 10
7.6221804586
 20
-64.726518051
 10
7.6041503372
 20
-64.7469061705
 10
7.5848506592
 20
-64.7657473073
 10
7.5645313773
 20
-64.7828675344
 10
7.5429425388
 20
-64.7984407789
 10
7.5195081107
 20
-64.8128039052
 10
7.494058102
 20
-64.8261012017
 10
7.4667625037
 20
-64.83818838
 10
7.4375552559
 20
-64.8489694396
 10
7.4063296467
 20
-64.8583800077
 10
7.373192388
 20
-64.8664844571
 10
7.3383975564
 20
-64.8733799046
 10
7.3019900146
 20
-64.879038186
 10
7.2639248999
 20
-64.8834874656
 10
7.2243216998
 20
-64.8869093526
 10
7.1832202435
 20
-64.8893643836
 10
7.1405807018
 20
-64.890792022
 10
7.0964030747
 20
-64.8911922679
  0
LWPOLYLINE
  5
2B0
100
AcDbEntity
  8
0
100
AcDbPolyline
 62
7
  6
CONTINUOUS
 90
10
 70
0
 10
-9.3047040383
 20
-64.8340412443
 10
-9.3100478128
 20
-64.8339714401
 10
-9.3154481375
 20
-64.8338124783
 10
-9.3209050125
 20
-64.8335643589
 10
-9.326421885
 20
-64.8332166753
 10
-9.3319953078
 20
-64.8327798341
 10
-9.3376149389
 20
-64.8322850554
 10
-9.343277331
 20
-64.831742746
 10
-9.3489859314
 20
-64.8311424992
 10
-9.3547407401
 20
-64.8304843149
  0
LWPOLYLINE
  5
2B1
100
AcDbEntity
  8
0
100
AcDbPolyline
 62
7
  6
CONTINUOUS
 90
10
 70
0
 10
-1.5340860619
 20
-64.8340412443
 10
-1.5394298363
 20
-64.8339714401
 10
-1.544830161
 20
-64.8338124783
 10
-1.550287036
 20
-64.8335643589
 10
-1.5558039085
 20
-64.8332166753
 10
-1.5613773313
 20
-64.8327798341
 10
-1.5669969624
 20
-64.8322850554
 10
-1.5726593545
 20
-64.831742746
 10
-1.578367955
 20
-64.8311424992
 10
-1.5841227637
 20
-64.8304843149
  0
LWPOLYLINE
  5
2B2
100
AcDbEntity
  8
0
100
AcDbPolyline
 62
7
  6
CONTINUOUS
 90
25
 70
0
 10
12.1569801907
 20
-64.0261039385
 10
12.2023167488
 20
-64.0268782161
 10
12.2459132072
 20
-64.0292933842
 10
12.2877695659
 20
-64.0333494426
 10
12.3280692039
 20
-64.0391023741
 10
12.3666287422
 20
-64.0464961959
 10
12.4028980446
 20
-64.0553629603
 10
12.4366880444
 20
-64.0657352304
 10
12.4681878083
 20
-64.0775804432
 10
12.4974143994
 20
-64.090632962
 10
12.5241295861
 20
-64.1047111322
 10
12.5485716
 20
-64.1199966084
 10
12.5714721996
 20
-64.1367687186
 10
12.5928386004
 20
-64.1548504572
 10
12.6126635869
 20
-64.1744188298
 10
12.6316572713
 20
-64.196284181
 10
12.650166349
 20
-64.2206136173
 10
12.6678441247
 20
-64.2472400321
 10
12.6843606251
 20
-64.2764724504
 10
12.6999061381
 20
-64.3088072326
 10
12.7142903757
 20
-64.3437480182
 10
12.726612501
 20
-64.3801147507
 10
12.7365722347
 20
-64.4175140781
 10
12.7444698559
 20
-64.4563393525
 10
12.7503053647
 20
-64.4965905738
  0
LWPOLYLINE
  5
2B3
100
AcDbEntity
  8
0
100
AcDbPolyline
 62
7
  6
CONTINUOUS
 90
22
 70
0
 10
17.7487516634
 20
-64.0261039385
 10
17.7994168811
 20
-64.0279565552
 10
17.8481244784
 20
-64.0323258971
 10
17.8948744552
 20
-64.0392119641
 10
17.9399576148
 20
-64.0488721316
 10
17.983083154
 20
-64.0610490243
 10
18.0233786628
 20
-64.0749705157
 10
18.0603182572
 20
-64.09040199
 10
18.0944278213
 20
-64.107578063
 10
18.1264125972
 20
-64.1264304557
 10
18.1561042034
 20
-64.1466244546
 10
18.1836710214
 20
-64.1684947732
 10
18.2103234382
 20
-64.1929772725
 10
18.2364193939
 20
-64.2201681376
 10
18.2616009484
 20
-64.2499711834
 10
18.2860046677
 20
-64.2830337155
 10
18.309862874
 20
-64.3196952052
 10
18.3329432451
 20
-64.3596161812
 10
18.3546853809
 20
-64.4024255359
 10
18.3749024814
 20
-64.4479995667
 10
18.3937813466
 20
-64.4964619762
 10
18.4113219764
 20
-64.5478127643
  0
LWPOLYLINE
  5
2B4
100
AcDbEntity
  8
0
100
AcDbPolyline
 62
7
  6
CONTINUOUS
 90
22
 70
0
 10
5.4309655863
 20
-60.3742870769
 10
5.481630804
 20
-60.3761396937
 10
5.5303384012
 20
-60.3805090356
 10
5.577088378
 20
-60.3873951026
 10
5.6221715377
 20
-60.3970552701
 10
5.6652970768
 20
-60.4092321628
 10
5.7055925856
 20
-60.4231536541
 10
5.7425321801
 20
-60.4385851284
 10
5.7766417442
 20
-60.4557612015
 10
5.8086265201
 20
-60.4746135941
 10
5.8383181263
 20
-60.4948075931
 10
5.8658849443
 20
-60.5166779117
 10
5.892537361
 20
-60.541160411
 10
5.9186333168
 20
-60.5683512761
 10
5.9438148713
 20
-60.5981543219
 10
5.9682185906
 20
-60.631216854
 10
5.9920767969
 20
-60.6678783437
 10
6.015157168
 20
-60.7077993197
 10
6.0368993038
 20
-60.7506086744
 10
6.0571164042
 20
-60.7961827052
 10
6.0759952694
 20
-60.8446451146
 10
6.0935358993
 20
-60.8959959028
  0
LWPOLYLINE
  5
2B5
100
AcDbEntity
  8
0
100
AcDbPolyline
 62
7
  6
CONTINUOUS
 90
49
 70
0
 10
-9.167162568
 20
-65.0695218217
 10
-9.1264901199
 20
-65.0710395967
 10
-9.0877773636
 20
-65.0746311145
 10
-9.051024299
 20
-65.0802963752
 10
-9.0164177456
 20
-65.0880704383
 10
-8.9837708839
 20
-65.0979182443
 10
-8.9525232552
 20
-65.1097346146
 10
-8.9225143063
 20
-65.123539712
 10
-8.8939045903
 20
-65.1393133736
 10
-8.8666153079
 20
-65.1568899324
 10
-8.8404839621
 20
-65.1763923513
 10
-8.8156730498
 20
-65.1976976673
 10
-8.7925912628
 20
-65.2202713242
 10
-8.7712912015
 20
-65.2440328525
 10
-8.7517202654
 20
-65.2690627217
 10
-8.7341293443
 20
-65.295067784
 10
-8.718630391
 20
-65.3218222802
 10
-8.7051114526
 20
-65.3495519694
 10
-8.6934875603
 20
-65.3786409815
 10
-8.6836671509
 20
-65.4091731338
 10
-8.6757417877
 20
-65.441064609
 10
-8.6699011915
 20
-65.4744480836
 10
-8.6661577397
 20
-65.5099265563
 10
-8.6644990549
 20
-65.5468970284
 10
-8.6650777265
 20
-65.5836831816
 10
-8.6679888317
 20
-65.6201145247
 10
-8.6731372931
 20
-65.6563615488
 10
-8.6803904685
 20
-65.691259409
 10
-8.6896921703
 20
-65.7242989681
 10
-8.7010985859
 20
-65.7559893633
 10
-8.7146456362
 20
-65.7866931611
 10
-8.7303701013
 20
-65.8165696609
 10
-8.7482352009
 20
-65.8454595633
 10
-8.7681665148
 20
-65.8732475374
 10
-8.7904099193
 20
-65.9001742907
 10
-8.814719538
 20
-65.9259991156
 10
-8.8402833218
 20
-65.9498845577
 10
-8.8669189332
 20
-65.9716158454
 10
-8.8948087097
 20
-65.9914077504
 10
-8.9236876144
 20
-66.0090671322
 10
-8.9532496879
 20
-66.0244757981
 10
-8.9838008897
 20
-66.0377519409
 10
-9.015994061
 20
-66.049056999
 10
-9.0503599043
 20
-66.0585291603
 10
-9.086367717
 20
-66.0660302369
 10
-9.1230782325
 20
-66.0713071036
 10
-9.160865044
 20
-66.0742267498
 10
-9.1993545582
 20
-66.0749221862
 10
-9.2364867289
 20
-66.07353932
  0
LWPOLYLINE
  5
2B6
100
AcDbEntity
  8
0
100
AcDbPolyline
 62
7
  6
CONTINUOUS
 90
49
 70
0
 10
-1.3965445915
 20
-65.0695218217
 10
-1.3558721435
 20
-65.0710395967
 10
-1.3171593872
 20
-65.0746311145
 10
-1.2804063225
 20
-65.0802963752
 10
-1.2457997691
 20
-65.0880704383
 10
-1.2131529075
 20
-65.0979182443
 10
-1.1819052787
 20
-65.1097346146
 10
-1.1518963298
 20
-65.123539712
 10
-1.1232866138
 20
-65.1393133736
 10
-1.0959973314
 20
-65.1568899324
 10
-1.0698659856
 20
-65.1763923513
 10
-1.0450550734
 20
-65.1976976673
 10
-1.0219732863
 20
-65.2202713242
 10
-1.000673225
 20
-65.2440328525
 10
-0.981102289
 20
-65.2690627217
 10
-0.9635113678
 20
-65.295067784
 10
-0.9480124145
 20
-65.3218222802
 10
-0.9344934761
 20
-65.3495519694
 10
-0.9228695839
 20
-65.3786409815
 10
-0.9130491745
 20
-65.4091731338
 10
-0.9051238112
 20
-65.441064609
 10
-0.8992832151
 20
-65.4744480836
 10
-0.8955397632
 20
-65.5099265563
 10
-0.8938810785
 20
-65.5468970284
 10
-0.8944597501
 20
-65.5836831816
 10
-0.8973708552
 20
-65.6201145247
 10
-0.9025193167
 20
-65.6563615488
 10
-0.9097724921
 20
-65.691259409
 10
-0.9190741938
 20
-65.7242989681
 10
-0.9304806095
 20
-65.7559893633
 10
-0.9440276597
 20
-65.7866931611
 10
-0.9597521248
 20
-65.8165696609
 10
-0.9776172245
 20
-65.8454595633
 10
-0.9975485384
 20
-65.8732475374
 10
-1.0197919428
 20
-65.9001742907
 10
-1.0441015615
 20
-65.9259991156
 10
-1.0696653453
 20
-65.9498845577
 10
-1.0963009567
 20
-65.9716158454
 10
-1.1241907332
 20
-65.9914077504
 10
-1.1530696379
 20
-66.0090671322
 10
-1.1826317115
 20
-66.0244757981
 10
-1.2131829133
 20
-66.0377519409
 10
-1.2453760845
 20
-66.049056999
 10
-1.2797419278
 20
-66.0585291603
 10
-1.3157497406
 20
-66.0660302369
 10
-1.3524602561
 20
-66.0713071036
 10
-1.3902470675
 20
-66.0742267498
 10
-1.4287365817
 20
-66.0749221862
 10
-1.4658687524
 20
-66.07353932
  0
LWPOLYLINE
  5
2B7
100
AcDbEntity
  8
0
100
AcDbPolyline
 62
7
  6
CONTINUOUS
 90
22
 70
0
 10
-9.2364867289
 20
-66.07353932
 10
-9.2716636515
 20
-66.0700528055
 10
-9.3054832306
 20
-66.0644879884
 10
-9.3376791339
 20
-66.0570668126
 10
-9.368051048
 20
-66.0478215968
 10
-9.3967992863
 20
-66.0367200222
 10
-9.4242584571
 20
-66.023887076
 10
-9.4505040346
 20
-66.0094334725
 10
-9.4754605446
 20
-65.9932484974
 10
-9.4992361722
 20
-65.9751249941
 10
-9.5218282896
 20
-65.9550929759
 10
-9.5432395246
 20
-65.9331224295
 10
-9.563585945
 20
-65.9089161592
 10
-9.5829269452
 20
-65.8823965005
 10
-9.6012031308
 20
-65.8536411179
 10
-9.6183523865
 20
-65.8225858085
 10
-9.6343909675
 20
-65.7891533701
 10
-9.6493026187
 20
-65.753421005
 10
-9.6629764592
 20
-65.7155561177
 10
-9.6753755286
 20
-65.6756145096
 10
-9.6865367873
 20
-65.6335403793
 10
-9.6964602353
 20
-65.5893337267
  0
LWPOLYLINE
  5
2B8
100
AcDbEntity
  8
0
100
AcDbPolyline
 62
7
  6
CONTINUOUS
 90
22
 70
0
 10
-1.4658687524
 20
-66.07353932
 10
-1.501045675
 20
-66.0700528055
 10
-1.5348652541
 20
-66.0644879884
 10
-1.5670611575
 20
-66.0570668126
 10
-1.5974330715
 20
-66.0478215968
 10
-1.6261813099
 20
-66.0367200222
 10
-1.6536404806
 20
-66.023887076
 10
-1.6798860582
 20
-66.0094334725
 10
-1.7048425682
 20
-65.9932484974
 10
-1.7286181957
 20
-65.9751249941
 10
-1.7512103132
 20
-65.9550929759
 10
-1.7726215481
 20
-65.9331224295
 10
-1.7929679685
 20
-65.9089161592
 10
-1.8123089687
 20
-65.8823965005
 10
-1.8305851543
 20
-65.8536411179
 10
-1.84773441
 20
-65.8225858085
 10
-1.8637729911
 20
-65.7891533701
 10
-1.8786846422
 20
-65.753421005
 10
-1.8923584827
 20
-65.7155561177
 10
-1.9047575521
 20
-65.6756145096
 10
-1.9159188108
 20
-65.6335403793
 10
-1.9258422588
 20
-65.5893337267
  0
LINE
  5
2B9
100
AcDbEntity
  8
0
100
AcDbLine
 62
7
  6
CONTINUOUS
 10
-9.9696460235
 20
-64.4207056326
 11
-9.6661062588
 21
-64.4662365973
  0
LINE
  5
2BA
100
AcDbEntity
  8
0
100
AcDbLine
 62
7
  6
CONTINUOUS
 10
-2.1990280471
 20
-64.4207056326
 11
-1.8954882824
 21
-64.4662365973
  0
LWPOLYLINE
  5
2BB
100
AcDbEntity
  8
0
100
AcDbPolyline
 62
7
  6
CONTINUOUS
 90
22
 70
0
 10
12.1777298328
 20
-64.8096158693
 10
12.1465091681
 20
-64.802162444
 10
12.1161353563
 20
-64.7946633085
 10
12.0866083973
 20
-64.787118463
 10
12.0579637116
 20
-64.7795314724
 10
12.0301658786
 20
-64.7718987717
 10
12.0031086376
 20
-64.7642096658
 10
11.9767863154
 20
-64.756459911
 10
11.9512045851
 20
-64.7486537509
 10
11.9262742046
 20
-64.7407932211
 10
11.9019503286
 20
-64.7329059577
 10
11.8782778024
 20
-64.7249643246
 10
11.8553019194
 20
-64.7168874485
 10
11.832916918
 20
-64.7087403576
 10
11.8112285597
 20
-64.7004580238
 10
11.7905994225
 20
-64.6917644891
 10
11.7710793621
 20
-64.682605804
 10
11.7526185228
 20
-64.673035918
 10
11.7354299151
 20
-64.6629407219
 10
11.7195845428
 20
-64.6522821791
 10
11.7050114021
 20
-64.6410983261
 10
11.6917104932
 20
-64.6293891629
  0
LINE
  5
2BC
100
AcDbEntity
  8
0
100
AcDbLine
 62
7
  6
CONTINUOUS
 10
18.8059236705
 20
-65.4923431958
 11
18.4720299294
 21
-65.4086325007
  0
LINE
  5
2BD
100
AcDbEntity
  8
0
100
AcDbLine
 62
7
  6
CONTINUOUS
 10
6.4881375934
 20
-61.8405263343
 11
6.1542438522
 21
-61.7568156391
  0
LINE
  5
2BE
100
AcDbEntity
  8
0
100
AcDbLine
 62
7
  6
CONTINUOUS
 10
12.0549551413
 20
-65.1236404737
 11
12.1555745863
 21
-65.1488196237
  0
LWPOLYLINE
  5
2BF
100
AcDbEntity
  8
0
100
AcDbPolyline
 62
7
  6
CONTINUOUS
 90
6
 70
0
 10
12.1555745863
 20
-65.1488196237
 10
12.3574759045
 20
-65.2007145019
 10
12.4045711709
 20
-65.2139798887
 10
12.44995157
 20
-65.2281712577
 10
12.4937380492
 20
-65.243018837
 10
12.5359306085
 20
-65.2585226267
  0
LWPOLYLINE
  5
2C0
100
AcDbEntity
  8
0
100
AcDbPolyline
 62
7
  6
CONTINUOUS
 90
25
 70
0
 10
6.9543558672
 20
-65.1911748717
 10
6.981016713
 20
-65.1985853757
 10
7.0071356264
 20
-65.2074553319
 10
7.0327126075
 20
-65.2177847403
 10
7.0578563519
 20
-65.2295772748
 10
7.082458164
 20
-65.2428292615
 10
7.1061919567
 20
-65.2575296784
 10
7.1286891918
 20
-65.2735313836
 10
7.1503184074
 20
-65.2909815191
 10
7.1718591314
 20
-65.3103104888
 10
7.1935570785
 20
-65.3318178988
 10
7.215166534
 20
-65.355204143
 10
7.2367298812
 20
-65.3800008062
 10
7.2581997583
 20
-65.4061680767
 10
7.2796235272
 20
-65.4337457662
 10
7.3011856571
 20
-65.4623848949
 10
7.3228879177
 20
-65.4919689069
 10
7.3447285393
 20
-65.5226143581
 10
7.3668866826
 20
-65.5543219368
 10
7.3893945567
 20
-65.5870889693
 10
7.4122199525
 20
-65.6209181292
 10
7.4354454036
 20
-65.6558181262
 10
7.459098421
 20
-65.6917918633
 10
7.4831514936
 20
-65.7288364373
 10
7.5076046214
 20
-65.7669518484
  0
LWPOLYLINE
  5
2C1
100
AcDbEntity
  8
0
100
AcDbPolyline
 62
7
  6
CONTINUOUS
 90
55
 70
0
 10
0.0677975134
 20
-57.8303903566
 10
0.1278886428
 20
-57.8210170938
 10
0.1850152655
 20
-57.8096940888
 10
0.2391773814
 20
-57.7964213415
 10
0.2904018562
 20
-57.7811079892
 10
0.3386618242
 20
-57.7638448945
 10
0.3838766881
 20
-57.744904646
 10
0.4259910948
 20
-57.7241875122
 10
0.4650603973
 20
-57.7017932246
 10
0.5011700576
 20
-57.6782935655
 10
0.5340835457
 20
-57.6539637366
 10
0.5640373917
 20
-57.6285285363
 10
0.5918266469
 20
-57.6017341417
 10
0.6176247414
 20
-57.5735487547
 10
0.6412582453
 20
-57.5440041734
 10
0.6630019197
 20
-57.5129419691
 10
0.6830372724
 20
-57.4802263441
 10
0.7011827956
 20
-57.445993096
 10
0.7171687267
 20
-57.4104911893
 10
0.7309410321
 20
-57.3740021699
 10
0.7425537454
 20
-57.3362444918
 10
0.7518992054
 20
-57.2966224815
 10
0.7590434139
 20
-57.2545465032
 10
0.7639203692
 20
-57.2106061926
 10
0.7662244037
 20
-57.1659747837
 10
0.7658448267
 20
-57.1204364832
 10
0.7628923291
 20
-57.0742070844
 10
0.7573933158
 20
-57.0291072002
 10
0.7493110199
 20
-56.9857508244
 10
0.7386822082
 20
-56.9435239633
 10
0.7256435872
 20
-56.9024052482
 10
0.7099998592
 20
-56.8620839666
 10
0.6919463218
 20
-56.8228708311
 10
0.6722055733
 20
-56.78567661
 10
0.6507656111
 20
-56.7506071193
 10
0.6276384378
 20
-56.717556543
 10
0.6035826601
 20
-56.6871182011
 10
0.579004903
 20
-56.6597143207
 10
0.5534985414
 20
-56.6349226746
 10
0.5266023065
 20
-56.612069901
 10
0.4984265869
 20
-56.5910174405
 10
0.4688609941
 20
-56.5719038525
 10
0.4371130937
 20
-56.5544714539
 10
0.4029721928
 20
-56.5386381397
 10
0.3666489845
 20
-56.524486015
 10
0.3279831138
 20
-56.512003712
 10
0.2868118636
 20
-56.501298332
 10
0.243297951
 20
-56.4922627738
 10
0.1977691732
 20
-56.4845643659
 10
0.1503125948
 20
-56.4781413778
 10
0.100841151
 20
-56.4730555399
 10
0.0494214451
 20
-56.4691593728
 10
-0.0039243218
 20
-56.4664037163
 10
-0.0592183508
 20
-56.4648377305
 10
-0.116460642
 20
-56.4644614154
  0
LINE
  5
2C2
100
AcDbEntity
  8
0
100
AcDbLine
 62
7
  6
CONTINUOUS
 10
2.4662357111
 20
-58.1339301213
 11
2.1475189581
 21
-58.1491071095
  0
LINE
  5
2C3
100
AcDbEntity
  8
0
100
AcDbLine
 62
7
  6
CONTINUOUS
 10
3.7259257346
 20
-57.1777798625
 11
4.0598194758
 21
-57.1626028742
  0
LWPOLYLINE
  5
2C4
100
AcDbEntity
  8
0
100
AcDbPolyline
 62
7
  6
CONTINUOUS
 90
46
 70
0
 10
3.1193204933
 20
-56.4189304507
 10
3.0516124691
 20
-56.4209355042
 10
2.9870054404
 20
-56.4254776876
 10
2.9254994072
 20
-56.4325570008
 10
2.8671347344
 20
-56.442390258
 10
2.8118710571
 20
-56.454760645
 10
2.7595872805
 20
-56.4690177196
 10
2.7102451518
 20
-56.4851288737
 10
2.6638829238
 20
-56.5031267154
 10
2.6204942604
 20
-56.5224586268
 10
2.5802243807
 20
-56.5429543841
 10
2.5429280655
 20
-56.5647842112
 10
2.5081633219
 20
-56.5879061615
 10
2.4760243674
 20
-56.6121792713
 10
2.4464169844
 20
-56.6377445043
 10
2.4186165279
 20
-56.6649828052
 10
2.3923538977
 20
-56.6940316057
 10
2.3678981941
 20
-56.7247534742
 10
2.3453320721
 20
-56.7571170598
 10
2.3245747359
 20
-56.7912777942
 10
2.3057069814
 20
-56.8270802457
 10
2.2890538519
 20
-56.8640267684
 10
2.2746329426
 20
-56.9022720008
 10
2.2624266583
 20
-56.9416613045
 10
2.2527072565
 20
-56.9812331181
 10
2.2455812394
 20
-57.0209264455
 10
2.2409421048
 20
-57.0608022829
 10
2.2387426034
 20
-57.1000820579
 10
2.2390300328
 20
-57.1386013492
 10
2.2417570954
 20
-57.1765245782
 10
2.2467346486
 20
-57.2135664364
 10
2.2539718273
 20
-57.2497232639
 10
2.2634594967
 20
-57.2849987206
 10
2.2749811095
 20
-57.3191184782
 10
2.2884081884
 20
-57.3519169022
 10
2.3038692108
 20
-57.383559627
 10
2.3215330616
 20
-57.4142692274
 10
2.3412253969
 20
-57.4439531629
 10
2.3631205606
 20
-57.472703974
 10
2.3879104701
 20
-57.5010218574
 10
2.4157476809
 20
-57.5292092188
 10
2.4464796375
 20
-57.5569636525
 10
2.480340591
 20
-57.5838781388
 10
2.5174086252
 20
-57.6098170043
 10
2.5576056563
 20
-57.6349159224
 10
2.6009316843
 20
-57.6591748929
  0
LWPOLYLINE
  5
2C5
100
AcDbEntity
  8
0
100
AcDbPolyline
 62
7
  6
CONTINUOUS
 90
19
 70
0
 10
5.5481128991
 20
-57.9366292742
 10
5.6046310845
 20
-57.936099203
 10
5.6594930581
 20
-57.9340720852
 10
5.71269882
 20
-57.9305479208
 10
5.7643197061
 20
-57.9255312911
 10
5.8142843805
 20
-57.9190176148
 10
5.8623788348
 20
-57.910993148
 10
5.9087243486
 20
-57.9013914166
 10
5.9531996423
 20
-57.8902788948
 10
5.9952268691
 20
-57.8778412602
 10
6.0346518914
 20
-57.8640385658
 10
6.0716288468
 20
-57.8489107587
 10
6.1060423013
 20
-57.8327633586
 10
6.1377744175
 20
-57.8156080993
 10
6.1669430329
 20
-57.797433247
 10
6.1937862253
 20
-57.7785091196
 10
6.2183833538
 20
-57.7589258232
 10
6.2406550594
 20
-57.7385932518
 10
6.2606013419
 20
-57.7175114053
  0
LINE
  5
2C6
100
AcDbEntity
  8
0
100
AcDbLine
 62
7
  6
CONTINUOUS
 10
-3.2192062757
 20
-58.2098150625
 11
-2.1537342264
 21
-58.2098150625
  0
LINE
  5
2C7
100
AcDbEntity
  8
0
100
AcDbLine
 62
7
  6
CONTINUOUS
 10
7.2377386184
 20
-58.2098150625
 11
8.3032106677
 21
-58.2098150625
  0
LINE
  5
2C8
100
AcDbEntity
  8
0
100
AcDbLine
 62
7
  6
CONTINUOUS
 10
8.2024260634
 20
-57.9366292742
 11
7.3328319969
 21
-57.9366292742
  0
LINE
  5
2C9
100
AcDbEntity
  8
0
100
AcDbLine
 62
7
  6
CONTINUOUS
 10
-2.2545188307
 20
-57.9366292742
 11
-3.1241128972
 21
-57.9366292742
  0
LINE
  5
2CA
100
AcDbEntity
  8
0
100
AcDbLine
 62
7
  6
CONTINUOUS
 10
4.9249078052
 20
-57.9366292742
 11
5.5481128991
 21
-57.9366292742
  0
LINE
  5
2CB
100
AcDbEntity
  8
0
100
AcDbLine
 62
7
  6
CONTINUOUS
 10
5.55167006
 20
-57.6482664978
 11
4.9249078052
 21
-57.6482664978
  0
LINE
  5
2CC
100
AcDbEntity
  8
0
100
AcDbLine
 62
7
  6
CONTINUOUS
 10
-0.1826229083
 20
-57.5723815566
 11
-0.8878786889
 21
-57.5723815566
  0
LINE
  5
2CD
100
AcDbEntity
  8
0
100
AcDbLine
 62
7
  6
CONTINUOUS
 10
-0.8878786889
 20
-56.7528241919
 11
-0.1029436622
 21
-56.7528241919
  0
LINE
  5
2CE
100
AcDbEntity
  8
0
100
AcDbLine
 62
7
  6
CONTINUOUS
 10
4.9249078052
 20
-56.7528241919
 11
5.5743864111
 21
-56.7527389872
  0
LINE
  5
2CF
100
AcDbEntity
  8
0
100
AcDbLine
 62
7
  6
CONTINUOUS
 10
7.9344572129
 20
-56.4644614154
 11
7.573292368
 21
-56.4644614154
  0
LINE
  5
2D0
100
AcDbEntity
  8
0
100
AcDbLine
 62
7
  6
CONTINUOUS
 10
-0.116460642
 20
-56.4644614154
 11
-1.2217724301
 21
-56.4644614154
  0
LINE
  5
2D1
100
AcDbEntity
  8
0
100
AcDbLine
 62
7
  6
CONTINUOUS
 10
-2.5224876812
 20
-56.4644614154
 11
-2.8836525261
 21
-56.4644614154
  0
LINE
  5
2D2
100
AcDbEntity
  8
0
100
AcDbLine
 62
7
  6
CONTINUOUS
 10
-4.0902232066
 20
-56.4644614154
 11
-4.524664408
 21
-56.4644614154
  0
LINE
  5
2D3
100
AcDbEntity
  8
0
100
AcDbLine
 62
7
  6
CONTINUOUS
 10
-5.9944608262
 20
-56.4644614154
 11
-6.503364336
 21
-56.4644614154
  0
LINE
  5
2D4
100
AcDbEntity
  8
0
100
AcDbLine
 62
7
  6
CONTINUOUS
 10
-7.0649129007
 20
-56.4644614154
 11
-7.3988066419
 21
-56.4644614154
  0
LINE
  5
2D5
100
AcDbEntity
  8
0
100
AcDbLine
 62
7
  6
CONTINUOUS
 10
-7.6791065203
 20
-56.4644614154
 11
-8.0362401477
 21
-56.4644614154
  0
LINE
  5
2D6
100
AcDbEntity
  8
0
100
AcDbLine
 62
7
  6
CONTINUOUS
 10
-9.6450009007
 20
-56.4644614154
 11
-10.0
 21
-56.4644614154
  0
LWPOLYLINE
  5
2D7
100
AcDbEntity
  8
0
100
AcDbPolyline
 62
7
  6
CONTINUOUS
 90
10
 70
0
 10
-0.8878786889
 20
-57.8607443331
 10
-0.4850457158
 20
-57.8608089283
 10
-0.4632796254
 20
-57.8610992108
 10
-0.4419699915
 20
-57.8616151806
 10
-0.4210808016
 20
-57.8622489217
 10
-0.4006480682
 20
-57.8631083501
 10
-0.3807798292
 20
-57.8645172134
 10
-0.3615120971
 20
-57.8665834275
 10
-0.3428088593
 20
-57.8691990765
 10
-0.3246701158
 20
-57.8723641604
  0
LWPOLYLINE
  5
2D8
100
AcDbEntity
  8
0
100
AcDbPolyline
 62
7
  6
CONTINUOUS
 90
12
 70
0
 10
5.5743864111
 20
-56.7527389872
 10
5.602958324
 20
-56.7529343904
 10
5.6307459966
 20
-56.7534104016
 10
5.6577631319
 20
-56.754123563
 10
5.6839960269
 20
-56.7551173323
 10
5.7094035728
 20
-56.7565220825
 10
5.7339769878
 20
-56.7583341107
 10
5.7577250537
 20
-56.7605571198
 10
5.7806330071
 20
-56.7633325921
 10
5.802695927
 20
-56.7667076884
 10
5.8239187345
 20
-56.7706352477
 10
5.8443014295
 20
-56.7751152703
  0
LWPOLYLINE
  5
2D9
100
AcDbEntity
  8
0
100
AcDbPolyline
 62
7
  6
CONTINUOUS
 90
52
 70
0
 10
-0.1029436622
 20
-56.7528241919
 10
-0.0595015343
 20
-56.7532857871
 10
-0.0178396501
 20
-56.7553245129
 10
0.0220419905
 20
-56.7589403691
 10
0.0602014451
 20
-56.7641446043
 10
0.096580656
 20
-56.7709259699
 10
0.1310054505
 20
-56.7792507207
 10
0.1634709244
 20
-56.7892137728
 10
0.1939819819
 20
-56.8007202099
 10
0.2223791635
 20
-56.8134515386
 10
0.2484796856
 20
-56.8272946253
 10
0.2724663318
 20
-56.8423626034
 10
0.294727994
 20
-56.85867638
 10
0.3153418047
 20
-56.8762719637
 10
0.3342306314
 20
-56.8951133458
 10
0.3515519679
 20
-56.9151134078
 10
0.3674070228
 20
-56.936293674
 10
0.3816945876
 20
-56.95863262
 10
0.3942685307
 20
-56.9819785543
 10
0.4051178202
 20
-57.0062700673
 10
0.4142534881
 20
-57.0315685686
 10
0.4215624985
 20
-57.0579065952
 10
0.427064046
 20
-57.0855372196
 10
0.430738936
 20
-57.1142073694
 10
0.4324165491
 20
-57.1431903639
 10
0.4320226368
 20
-57.1725952944
 10
0.4296314475
 20
-57.2023130696
 10
0.4252951078
 20
-57.2312897352
 10
0.4189862503
 20
-57.2592303198
 10
0.4107322424
 20
-57.2864297947
 10
0.400667312
 20
-57.3127191197
 10
0.3887136886
 20
-57.3381925865
 10
0.3749491427
 20
-57.3627559034
 10
0.3597412146
 20
-57.3859571544
 10
0.3431544755
 20
-57.4077073397
 10
0.3251243542
 20
-57.4280954592
 10
0.3058246761
 20
-57.446936596
 10
0.2855053943
 20
-57.4640568231
 10
0.2639165558
 20
-57.4796300676
 10
0.2404821277
 20
-57.4939931939
 10
0.2150321189
 20
-57.5072904904
 10
0.1877365206
 20
-57.5193776687
 10
0.1585292729
 20
-57.5301587283
 10
0.1273036637
 20
-57.5395692964
 10
0.094166405
 20
-57.5476737458
 10
0.0593715734
 20
-57.5545691933
 10
0.0229640316
 20
-57.5602274747
 10
-0.0151010831
 20
-57.5646767543
 10
-0.0547042832
 20
-57.5680986413
 10
-0.0958057396
 20
-57.5705536723
 10
-0.1384452812
 20
-57.5719813107
 10
-0.1826229083
 20
-57.5723815566
  0
LWPOLYLINE
  5
2DA
100
AcDbEntity
  8
0
100
AcDbPolyline
 62
7
  6
CONTINUOUS
 90
25
 70
0
 10
3.1326005606
 20
-56.7072932272
 10
3.1779371187
 20
-56.7080675048
 10
3.2215335771
 20
-56.7104826729
 10
3.2633899359
 20
-56.7145387313
 10
3.3036895738
 20
-56.7202916628
 10
3.3422491121
 20
-56.7276854846
 10
3.3785184145
 20
-56.736552249
 10
3.4123084143
 20
-56.7469245191
 10
3.4438081782
 20
-56.7587697319
 10
3.4730347694
 20
-56.7718222507
 10
3.499749956
 20
-56.7859004209
 10
3.5241919699
 20
-56.8011858971
 10
3.5470925696
 20
-56.8179580073
 10
3.5684589703
 20
-56.8360397459
 10
3.5882839568
 20
-56.8556081185
 10
3.6072776413
 20
-56.8774734697
 10
3.6257867189
 20
-56.901802906
 10
3.6434644946
 20
-56.9284293208
 10
3.659980995
 20
-56.9576617391
 10
3.675526508
 20
-56.9899965213
 10
3.6899107457
 20
-57.0249373069
 10
3.7022328709
 20
-57.0613040394
 10
3.7121926046
 20
-57.0987033668
 10
3.7200902258
 20
-57.1375286412
 10
3.7259257346
 20
-57.1777798625
  0
LWPOLYLINE
  5
2DB
100
AcDbEntity
  8
0
100
AcDbPolyline
 62
7
  6
CONTINUOUS
 90
10
 70
0
 10
5.8855638011
 20
-56.4881753582
 10
5.848966497
 20
-56.482480458
 10
5.8111593783
 20
-56.4776046062
 10
5.772142445
 20
-56.4735478028
 10
5.7318840002
 20
-56.4703821066
 10
5.6904157409
 20
-56.4680354587
 10
5.6478327582
 20
-56.4662916833
 10
5.6041667492
 20
-56.4650787216
 10
5.5593860168
 20
-56.4644686323
 10
4.591014064
 20
-56.4644614154
  0
LWPOLYLINE
  5
2DC
100
AcDbEntity
  8
0
100
AcDbPolyline
 62
7
  6
CONTINUOUS
 90
22
 70
0
 10
3.1533502027
 20
-57.490805158
 10
3.122129538
 20
-57.4833517327
 10
3.0917557262
 20
-57.4758525972
 10
3.0622287673
 20
-57.4683077517
 10
3.0335840815
 20
-57.4607207611
 10
3.0057862486
 20
-57.4530880604
 10
2.9787290075
 20
-57.4453989545
 10
2.9524066853
 20
-57.4376491997
 10
2.926824955
 20
-57.4298430396
 10
2.9018945745
 20
-57.4219825098
 10
2.8775706986
 20
-57.4140952464
 10
2.8538981724
 20
-57.4061536133
 10
2.8309222893
 20
-57.3980767372
 10
2.8085372879
 20
-57.3899296463
 10
2.7868489296
 20
-57.3816473125
 10
2.7662197924
 20
-57.3729537778
 10
2.746699732
 20
-57.3637950927
 10
2.7282388927
 20
-57.3542252067
 10
2.7110502851
 20
-57.3441300106
 10
2.6952049127
 20
-57.3334714678
 10
2.680631772
 20
-57.3222876148
 10
2.6673308631
 20
-57.3105784516
  0
LINE
  5
2DD
100
AcDbEntity
  8
0
100
AcDbLine
 62
7
  6
CONTINUOUS
 10
3.0305755112
 20
-57.8048297624
 11
3.1311949562
 21
-57.8300089124
  0
LWPOLYLINE
  5
2DE
100
AcDbEntity
  8
0
100
AcDbPolyline
 62
7
  6
CONTINUOUS
 90
6
 70
0
 10
3.1311949562
 20
-57.8300089124
 10
3.3330962744
 20
-57.8819037906
 10
3.3801915408
 20
-57.8951691774
 10
3.42557194
 20
-57.9093605464
 10
3.4693584192
 20
-57.9242081257
 10
3.5115509784
 20
-57.9397119154
  0
LWPOLYLINE
  5
2DF
100
AcDbEntity
  8
0
100
AcDbPolyline
 62
7
  6
CONTINUOUS
 90
25
 70
0
 10
-0.3246701158
 20
-57.8723641604
 10
-0.2980092701
 20
-57.8797746644
 10
-0.2718903566
 20
-57.8886446206
 10
-0.2463133756
 20
-57.898974029
 10
-0.2211696311
 20
-57.9107665635
 10
-0.196567819
 20
-57.9240185502
 10
-0.1728340263
 20
-57.9387189671
 10
-0.1503367912
 20
-57.9547206723
 10
-0.1287075756
 20
-57.9721708078
 10
-0.1071668516
 20
-57.9914997775
 10
-0.0854689045
 20
-58.0130071875
 10
-0.0638594491
 20
-58.0363934317
 10
-0.0422961018
 20
-58.0611900949
 10
-0.0208262247
 20
-58.0873573654
 10
0.0005975442
 20
-58.1149350549
 10
0.0221596741
 20
-58.1435741836
 10
0.0438619346
 20
-58.1731581956
 10
0.0657025562
 20
-58.2038036468
 10
0.0878606996
 20
-58.2355112255
 10
0.1103685737
 20
-58.268278258
 10
0.1331939695
 20
-58.3021074179
 10
0.1564194206
 20
-58.3370074149
 10
0.180072438
 20
-58.372981152
 10
0.2041255106
 20
-58.410025726
 10
0.2285786384
 20
-58.4481411371
  0
LWPOLYLINE
  5
2E0
100
AcDbEntity
  8
0
100
AcDbPolyline
 62
7
  6
CONTINUOUS
 90
46
 70
0
 10
5.8443014295
 20
-56.7751152703
 10
5.8699189831
 20
-56.7834624382
 10
5.8944655805
 20
-56.7934092209
 10
5.9179412218
 20
-56.8049556183
 10
5.9403146624
 20
-56.8180539434
 10
5.9616171468
 20
-56.8327518832
 10
5.9819424084
 20
-56.8491924993
 10
6.0013846414
 20
-56.8674242282
 10
6.0198496515
 20
-56.8873986334
 10
6.0371485894
 20
-56.9091134663
 10
6.0533954631
 20
-56.9327098744
 10
6.0684762646
 20
-56.9580467102
 10
6.0818601199
 20
-56.9846982823
 10
6.0934388947
 20
-57.0124247281
 10
6.1033207234
 20
-57.0414659102
 10
6.1112991348
 20
-57.0721157244
 10
6.1173340618
 20
-57.1048659672
 10
6.1214655715
 20
-57.1392248421
 10
6.1236073944
 20
-57.1740108565
 10
6.1236680605
 20
-57.2095019546
 10
6.1217390399
 20
-57.2454201922
 10
6.1180084733
 20
-57.2797502433
 10
6.1124852912
 20
-57.3118141362
 10
6.1051605631
 20
-57.3422898426
 10
6.096195639
 20
-57.3711959516
 10
6.0855273195
 20
-57.398559852
 10
6.0732188041
 20
-57.4243541549
 10
6.059621041
 20
-57.4485152826
 10
6.0448394726
 20
-57.4709905828
 10
6.0287686566
 20
-57.4918327078
 10
6.0114432151
 20
-57.511136036
 10
5.9930634619
 20
-57.5287900114
 10
5.9734290832
 20
-57.54490519
 10
5.9519737597
 20
-57.5599076185
 10
5.9285505434
 20
-57.5739514516
 10
5.9033063823
 20
-57.5868825346
 10
5.8761158006
 20
-57.5986644499
 10
5.8468435647
 20
-57.6093475707
 10
5.8156249082
 20
-57.6188815238
 10
5.7827400557
 20
-57.6270787713
 10
5.7482576455
 20
-57.633860129
 10
5.7121090392
 20
-57.6393047811
 10
5.6743685466
 20
-57.6434627426
 10
5.6350609375
 20
-57.646350685
 10
5.5941614419
 20
-57.6479519367
 10
5.55167006
 20
-57.6482664978
  0
LWPOLYLINE
  5
2E1
100
AcDbEntity
  8
0
100
AcDbPolyline
 62
7
  6
CONTINUOUS
 90
52
 70
0
 10
12.5359306085
 20
-65.2585226267
 10
12.5649715168
 20
-65.270434529
 10
12.5923836202
 20
-65.2830488377
 10
12.6181669186
 20
-65.2963655529
 10
12.6423960122
 20
-65.3104404808
 10
12.6649963008
 20
-65.3252178152
 10
12.6857439844
 20
-65.3405301373
 10
12.7044591873
 20
-65.3562238796
 10
12.7213217851
 20
-65.3724526096
 10
12.7366476043
 20
-65.3895096114
 10
12.7504567622
 20
-65.4073219435
 10
12.7627291415
 20
-65.4259625473
 10
12.7737202167
 20
-65.4459435321
 10
12.7836096206
 20
-65.4674883733
 10
12.7922177204
 20
-65.4903735954
 10
12.7992610921
 20
-65.514440881
 10
12.8047426877
 20
-65.5399378685
 10
12.8086595551
 20
-65.5666169195
 10
12.810719415
 20
-65.5935768017
 10
12.8108224779
 20
-65.6207735281
 10
12.8090685333
 20
-65.6482510856
 10
12.8054646692
 20
-65.6752402028
 10
12.7999933182
 20
-65.7015510115
 10
12.7926720476
 20
-65.7273733799
 10
12.7835606486
 20
-65.7525076415
 10
12.7726927551
 20
-65.7769078077
 10
12.760034733
 20
-65.8006198671
 10
12.7455454712
 20
-65.8235821183
 10
12.729248218
 20
-65.8458498968
 10
12.711119725
 20
-65.867367867
 10
12.6910491353
 20
-65.8879083212
 10
12.6690820207
 20
-65.9074387156
 10
12.6451728094
 20
-65.925991594
 10
12.6190739283
 20
-65.9434368801
 10
12.5907044938
 20
-65.959783429
 10
12.5601453896
 20
-65.9750223857
 10
12.5273916938
 20
-65.9889971085
 10
12.4924442851
 20
-66.0018030479
 10
12.4553022848
 20
-66.0133447535
 10
12.4159581351
 20
-66.0231792321
 10
12.3744124166
 20
-66.0312834458
 10
12.3306645486
 20
-66.0376804325
 10
12.2847052317
 20
-66.0419963137
 10
12.2358402228
 20
-66.0442767507
 10
12.1847637651
 20
-66.0444760822
 10
12.1335492885
 20
-66.0420834452
 10
12.0820615731
 20
-66.0368296087
 10
12.0304358389
 20
-66.0289838037
 10
11.981151176
 20
-66.01884286
 10
11.934913973
 20
-66.0062163274
 10
11.8910178413
 20
-65.9912946561
 10
11.8498227058
 20
-65.9749460265
  0
LWPOLYLINE
  5
2E2
100
AcDbEntity
  8
0
100
AcDbPolyline
 62
7
  6
CONTINUOUS
 90
52
 70
0
 10
3.5115509784
 20
-57.9397119154
 10
3.5405918867
 20
-57.9516238177
 10
3.5680039901
 20
-57.9642381264
 10
3.5937872885
 20
-57.9775548416
 10
3.6180163821
 20
-57.9916297695
 10
3.6406166708
 20
-58.0064071039
 10
3.6613643543
 20
-58.021719426
 10
3.6800795572
 20
-58.0374131683
 10
3.6969421551
 20
-58.0536418983
 10
3.7122679743
 20
-58.0706989001
 10
3.7260771322
 20
-58.0885112322
 10
3.7383495114
 20
-58.107151836
 10
3.7493405866
 20
-58.1271328208
 10
3.7592299905
 20
-58.148677662
 10
3.7678380903
 20
-58.1715628841
 10
3.7748814621
 20
-58.1956301697
 10
3.7803630576
 20
-58.2211271572
 10
3.7842799251
 20
-58.2478062082
 10
3.7863397849
 20
-58.2747660904
 10
3.7864428479
 20
-58.3019628168
 10
3.7846889032
 20
-58.3294403743
 10
3.7810850392
 20
-58.3564294915
 10
3.7756136881
 20
-58.3827403002
 10
3.7682924176
 20
-58.4085626686
 10
3.7591810185
 20
-58.4336969302
 10
3.748313125
 20
-58.4580970964
 10
3.7356551029
 20
-58.4818091558
 10
3.7211658411
 20
-58.504771407
 10
3.7048685879
 20
-58.5270391855
 10
3.686740095
 20
-58.5485571557
 10
3.6666695052
 20
-58.5690976099
 10
3.6447023906
 20
-58.5886280043
 10
3.6207931793
 20
-58.6071808827
 10
3.5946942982
 20
-58.6246261688
 10
3.5663248637
 20
-58.6409727177
 10
3.5357657595
 20
-58.6562116744
 10
3.5030120637
 20
-58.6701863972
 10
3.468064655
 20
-58.6829923366
 10
3.4309226548
 20
-58.6945340422
 10
3.3915785051
 20
-58.7043685208
 10
3.3500327865
 20
-58.7124727345
 10
3.3062849185
 20
-58.7188697212
 10
3.2603256016
 20
-58.7231856024
 10
3.2114605927
 20
-58.7254660394
 10
3.160384135
 20
-58.7256653709
 10
3.1091696584
 20
-58.7232727339
 10
3.057681943
 20
-58.7180188974
 10
3.0060562088
 20
-58.7101730924
 10
2.956771546
 20
-58.7000321487
 10
2.9105343429
 20
-58.6874056161
 10
2.8666382113
 20
-58.6724839448
 10
2.8254430757
 20
-58.6561353152
  0
LWPOLYLINE
  5
2E3
100
AcDbEntity
  8
0
100
AcDbPolyline
 62
7
  6
CONTINUOUS
 90
13
 70
0
 10
12.7201885323
 20
-64.9701598502
 10
12.6832600507
 20
-64.9548727075
 10
12.6447914629
 20
-64.9400340606
 10
12.604782769
 20
-64.9256439097
 10
12.5632164914
 20
-64.9117668342
 10
12.5201101076
 20
-64.8983382546
 10
12.4755160505
 20
-64.885164432
 10
12.4294179311
 20
-64.872235159
 10
12.3818321385
 20
-64.8595606431
 10
12.3328602723
 20
-64.8469777678
 10
12.2825361993
 20
-64.834432161
 10
12.2308260528
 20
-64.8219781948
 10
12.1777298328
 20
-64.8096158693
  0
LWPOLYLINE
  5
2E4
100
AcDbEntity
  8
0
100
AcDbPolyline
 62
7
  6
CONTINUOUS
 90
13
 70
0
 10
3.6958089022
 20
-57.6513491389
 10
3.6588804206
 20
-57.6360619962
 10
3.6204118328
 20
-57.6212233493
 10
3.5804031389
 20
-57.6068331984
 10
3.5388368613
 20
-57.5929561229
 10
3.4957304775
 20
-57.5795275433
 10
3.4511364204
 20
-57.5663537207
 10
3.405038301
 20
-57.5534244477
 10
3.3574525084
 20
-57.5407499318
 10
3.3084806422
 20
-57.5281670565
 10
3.2581565692
 20
-57.5156214497
 10
3.2064464227
 20
-57.5031674835
 10
3.1533502027
 20
-57.490805158
  0
LWPOLYLINE
  5
2E5
100
AcDbEntity
  8
0
100
AcDbPolyline
 62
7
  6
CONTINUOUS
 90
19
 70
0
 10
11.8498227058
 20
-65.9749460265
 10
11.8114833883
 20
-65.9573486733
 10
11.775845067
 20
-65.9383243618
 10
11.7428032006
 20
-65.9182065676
 10
11.7124097419
 20
-65.8970302671
 10
11.6846127381
 20
-65.874760484
 10
11.6591517899
 20
-65.8516257647
 10
11.6361619484
 20
-65.8279220279
 10
11.6155081625
 20
-65.8033533549
 10
11.5965248801
 20
-65.7772605371
 10
11.5791130527
 20
-65.7496853669
 10
11.5633717287
 20
-65.7205860517
 10
11.5489325021
 20
-65.6891780057
 10
11.5356092017
 20
-65.6551232694
 10
11.5235879987
 20
-65.6187598022
 10
11.5130590004
 20
-65.5803168957
 10
11.504085576
 20
-65.5398709806
 10
11.4966043562
 20
-65.4973456262
 10
11.4906153411
 20
-65.4527408326
  0
LWPOLYLINE
  5
2E6
100
AcDbEntity
  8
0
100
AcDbPolyline
 62
7
  6
CONTINUOUS
 90
19
 70
0
 10
2.8254430757
 20
-58.6561353152
 10
2.7871037583
 20
-58.638537962
 10
2.7514654369
 20
-58.6195136505
 10
2.7184235705
 20
-58.5993958563
 10
2.6880301118
 20
-58.5782195558
 10
2.660233108
 20
-58.5559497727
 10
2.6347721599
 20
-58.5328150534
 10
2.6117823183
 20
-58.5091113166
 10
2.5911285324
 20
-58.4845426436
 10
2.5721452501
 20
-58.4584498258
 10
2.5547334226
 20
-58.4308746556
 10
2.5389920986
 20
-58.4017753404
 10
2.524552872
 20
-58.3703672944
 10
2.5112295717
 20
-58.3363125581
 10
2.4992083687
 20
-58.2999490909
 10
2.4886793704
 20
-58.2615061844
 10
2.4797059459
 20
-58.2210602693
 10
2.4722247261
 20
-58.1785349149
 10
2.4662357111
 20
-58.1339301213
  0
LWPOLYLINE
  5
2E7
100
AcDbEntity
  8
0
100
AcDbPolyline
 62
7
  6
CONTINUOUS
 90
12
 70
0
 10
11.6253113144
 20
-64.9779856042
 10
11.6572324153
 20
-64.9932661666
 10
11.6906118478
 20
-65.008070419
 10
11.7254496119
 20
-65.0223983613
 10
11.7617650173
 20
-65.0361994025
 10
11.7995387543
 20
-65.0495241336
 10
11.8387128937
 20
-65.0625243278
 10
11.8793039883
 20
-65.0752018913
 10
11.9212954854
 20
-65.0875549178
 10
11.9645797974
 20
-65.099729462
 10
12.0091210618
 20
-65.111774209
 10
12.0549551413
 20
-65.1236404737
  0
LWPOLYLINE
  5
2E8
100
AcDbEntity
  8
0
100
AcDbPolyline
 62
7
  6
CONTINUOUS
 90
12
 70
0
 10
2.6009316843
 20
-57.6591748929
 10
2.6328527852
 20
-57.6744554553
 10
2.6662322178
 20
-57.6892597077
 10
2.7010699819
 20
-57.70358765
 10
2.7373853873
 20
-57.7173886912
 10
2.7751591242
 20
-57.7307134223
 10
2.8143332636
 20
-57.7437136165
 10
2.8549243583
 20
-57.75639118
 10
2.8969158553
 20
-57.7687442065
 10
2.9402001673
 20
-57.7809187507
 10
2.9847414318
 20
-57.7929634977
 10
3.0305755112
 20
-57.8048297624
  0
LWPOLYLINE
  5
2E9
100
AcDbEntity
  8
0
100
AcDbPolyline
 62
7
  6
CONTINUOUS
 90
31
 70
0
 10
-6.6234236709
 20
-64.9022850119
 10
-6.6559433638
 20
-64.8687339409
 10
-6.6905946752
 20
-64.8368390852
 10
-6.7260354316
 20
-64.807731432
 10
-6.7617936764
 20
-64.7818632758
 10
-6.7983413661
 20
-64.7587823222
 10
-6.8357521969
 20
-64.7382626755
 10
-6.8739483186
 20
-64.7202753677
 10
-6.9130075813
 20
-64.7048493669
 10
-6.9532372316
 20
-64.6918456815
 10
-6.994842698
 20
-64.6811614943
 10
-7.0376185519
 20
-64.6728996225
 10
-7.0812557536
 20
-64.6672295263
 10
-7.1260201697
 20
-64.6641834484
 10
-7.1716459336
 20
-64.663729146
 10
-7.2170264051
 20
-64.6659393517
 10
-7.2621817767
 20
-64.6709366873
 10
-7.3070918559
 20
-64.6785985309
 10
-7.3505894252
 20
-64.6886297492
 10
-7.3922290122
 20
-64.7009332601
 10
-7.4324560892
 20
-64.7156061457
 10
-7.4714398562
 20
-64.7326445187
 10
-7.5091344496
 20
-64.7519612446
 10
-7.5455857329
 20
-64.7736434579
 10
-7.5811004964
 20
-64.7979486748
 10
-7.6160088926
 20
-64.8250963232
 10
-7.649980769
 20
-64.8548669753
 10
-7.6823324577
 20
-64.8868598635
 10
-7.7128360693
 20
-64.9209413986
 10
-7.7417194932
 20
-64.9572451698
 10
-7.7689827294
 20
-64.9957711771
  0
LWPOLYLINE
  5
2EA
100
AcDbEntity
  8
0
100
AcDbPolyline
 62
7
  6
CONTINUOUS
 90
31
 70
0
 10
-2.7381146827
 20
-64.9022850119
 10
-2.7706343756
 20
-64.8687339409
 10
-2.805285687
 20
-64.8368390852
 10
-2.8407264434
 20
-64.807731432
 10
-2.8764846881
 20
-64.7818632758
 10
-2.9130323779
 20
-64.7587823222
 10
-2.9504432087
 20
-64.7382626755
 10
-2.9886393304
 20
-64.7202753677
 10
-3.0276985931
 20
-64.7048493669
 10
-3.0679282433
 20
-64.6918456815
 10
-3.1095337098
 20
-64.6811614943
 10
-3.1523095637
 20
-64.6728996225
 10
-3.1959467653
 20
-64.6672295263
 10
-3.2407111815
 20
-64.6641834484
 10
-3.2863369454
 20
-64.663729146
 10
-3.3317174169
 20
-64.6659393517
 10
-3.3768727885
 20
-64.6709366873
 10
-3.4217828677
 20
-64.6785985309
 10
-3.465280437
 20
-64.6886297492
 10
-3.5069200239
 20
-64.7009332601
 10
-3.547147101
 20
-64.7156061457
 10
-3.5861308679
 20
-64.7326445187
 10
-3.6238254613
 20
-64.7519612446
 10
-3.6602767447
 20
-64.7736434579
 10
-3.6957915081
 20
-64.7979486748
 10
-3.7306999044
 20
-64.8250963232
 10
-3.7646717808
 20
-64.8548669753
 10
-3.7970234694
 20
-64.8868598635
 10
-3.8275270811
 20
-64.9209413986
 10
-3.856410505
 20
-64.9572451698
 10
-3.8836737412
 20
-64.9957711771
  0
LWPOLYLINE
  5
2EB
100
AcDbEntity
  8
0
100
AcDbPolyline
 62
7
  6
CONTINUOUS
 90
55
 70
0
 10
-7.8298091386
 20
-66.0493861392
 10
-7.7954327021
 20
-66.0869942692
 10
-7.7599159076
 20
-66.1218865032
 10
-7.723258755
 20
-66.1540628413
 10
-7.6853420666
 20
-66.1835496435
 10
-7.6462850202
 20
-66.2103205497
 10
-7.6064451493
 20
-66.2342964799
 10
-7.5662730367
 20
-66.2553171972
 10
-7.5253180997
 20
-66.2735429386
 10
-7.4825861236
 20
-66.2893753353
 10
-7.4377590542
 20
-66.3030248795
 10
-7.3911549456
 20
-66.3142810791
 10
-7.3427337456
 20
-66.3229140886
 10
-7.291525317
 20
-66.3288989132
 10
-7.2384997971
 20
-66.3322605476
 10
-7.1865275445
 20
-66.3328441312
 10
-7.1362763231
 20
-66.330507673
 10
-7.0870783692
 20
-66.325393164
 10
-7.03980075
 20
-66.3177717156
 10
-6.9949330377
 20
-66.307689568
 10
-6.9519856601
 20
-66.295100481
 10
-6.9103569682
 20
-66.2801368455
 10
-6.8697624157
 20
-66.2627711368
 10
-6.8304865488
 20
-66.2430308796
 10
-6.7927813573
 20
-66.2211310388
 10
-6.7567297247
 20
-66.1971569649
 10
-6.7222487675
 20
-66.1710233073
 10
-6.6893418252
 20
-66.1426889796
 10
-6.6581076617
 20
-66.112396669
 10
-6.6284475132
 20
-66.0799036884
 10
-6.6000684277
 20
-66.0444408894
 10
-6.5726523454
 20
-66.0056113845
 10
-6.5465173262
 20
-65.9638120613
 10
-6.5223245988
 20
-65.9194644341
 10
-6.5000092993
 20
-65.8723027218
 10
-6.4796362917
 20
-65.8225927055
 10
-6.4620613959
 20
-65.7715532429
 10
-6.4475051392
 20
-65.7196855311
 10
-6.4357469944
 20
-65.6664883729
 10
-6.4269812
 20
-65.6116770343
 10
-6.4212697467
 20
-65.5542589312
 10
-6.4185506437
 20
-65.4952266477
 10
-6.4188321575
 20
-65.4372732013
 10
-6.4222824313
 20
-65.380750484
 10
-6.4287333218
 20
-65.3253066038
 10
-6.4376886654
 20
-65.2725789025
 10
-6.4490951274
 20
-65.2232902943
 10
-6.4630060424
 20
-65.176717865
 10
-6.4790852508
 20
-65.1323302139
 10
-6.497109539
 20
-65.0902663865
 10
-6.5173021206
 20
-65.0503873373
 10
-6.5399964765
 20
-65.0117445289
 10
-6.5654271523
 20
-64.9738817909
 10
-6.5933596024
 20
-64.9372552938
 10
-6.6234236709
 20
-64.9022850119
  0
LWPOLYLINE
  5
2EC
100
AcDbEntity
  8
0
100
AcDbPolyline
 62
7
  6
CONTINUOUS
 90
55
 70
0
 10
-3.9445001504
 20
-66.0493861392
 10
-3.9101237139
 20
-66.0869942692
 10
-3.8746069194
 20
-66.1218865032
 10
-3.8379497668
 20
-66.1540628413
 10
-3.8000330784
 20
-66.1835496435
 10
-3.760976032
 20
-66.2103205497
 10
-3.7211361611
 20
-66.2342964799
 10
-3.6809640485
 20
-66.2553171972
 10
-3.6400091115
 20
-66.2735429386
 10
-3.5972771354
 20
-66.2893753353
 10
-3.5524500659
 20
-66.3030248795
 10
-3.5058459574
 20
-66.3142810791
 10
-3.4574247573
 20
-66.3229140886
 10
-3.4062163288
 20
-66.3288989132
 10
-3.3531908088
 20
-66.3322605476
 10
-3.3012185562
 20
-66.3328441312
 10
-3.2509673349
 20
-66.330507673
 10
-3.2017693809
 20
-66.325393164
 10
-3.1544917617
 20
-66.3177717156
 10
-3.1096240494
 20
-66.307689568
 10
-3.0666766719
 20
-66.295100481
 10
-3.02504798
 20
-66.2801368455
 10
-2.9844534274
 20
-66.2627711368
 10
-2.9451775605
 20
-66.2430308796
 10
-2.9074723691
 20
-66.2211310388
 10
-2.8714207365
 20
-66.1971569649
 10
-2.8369397793
 20
-66.1710233073
 10
-2.804032837
 20
-66.1426889796
 10
-2.7727986735
 20
-66.112396669
 10
-2.7431385249
 20
-66.0799036884
 10
-2.7147594395
 20
-66.0444408894
 10
-2.6873433572
 20
-66.0056113845
 10
-2.661208338
 20
-65.9638120613
 10
-2.6370156105
 20
-65.9194644341
 10
-2.6147003111
 20
-65.8723027218
 10
-2.5943273035
 20
-65.8225927055
 10
-2.5767524077
 20
-65.7715532429
 10
-2.562196151
 20
-65.7196855311
 10
-2.5504380062
 20
-65.6664883729
 10
-2.5416722117
 20
-65.6116770343
 10
-2.5359607584
 20
-65.5542589312
 10
-2.5332416555
 20
-65.4952266477
 10
-2.5335231693
 20
-65.4372732013
 10
-2.5369734431
 20
-65.380750484
 10
-2.5434243336
 20
-65.3253066038
 10
-2.5523796772
 20
-65.2725789025
 10
-2.5637861391
 20
-65.2232902943
 10
-2.5776970542
 20
-65.176717865
 10
-2.5937762626
 20
-65.1323302139
 10
-2.6118005508
 20
-65.0902663865
 10
-2.6319931324
 20
-65.0503873373
 10
-2.6546874883
 20
-65.0117445289
 10
-2.6801181641
 20
-64.9738817909
 10
-2.7080506141
 20
-64.9372552938
 10
-2.7381146827
 20
-64.9022850119
  0
LWPOLYLINE
  5
2ED
100
AcDbEntity
  8
0
100
AcDbPolyline
 62
7
  6
CONTINUOUS
 90
13
 70
0
 10
-6.8839745306
 20
-64.1577168073
 10
-6.8712735112
 20
-64.1726191107
 10
-6.8590969507
 20
-64.1888334675
 10
-6.8474448493
 20
-64.2063598778
 10
-6.8363007893
 20
-64.2252127586
 10
-6.8256811883
 20
-64.2453776928
 10
-6.8156352988
 20
-64.2668114293
 10
-6.8061871273
 20
-64.289546461
 10
-6.7973126674
 20
-64.313550295
 10
-6.788989152
 20
-64.3386822022
 10
-6.7812089921
 20
-64.3648952726
 10
-6.7739797767
 20
-64.392236416
 10
-6.7673015059
 20
-64.4207056326
  0
LINE
  5
2EE
100
AcDbEntity
  8
0
100
AcDbLine
 62
7
  6
CONTINUOUS
 10
-6.4354164839
 20
44.8968085103
 11
-6.24375
 21
45.0925531849
  0
LINE
  5
2EF
100
AcDbEntity
  8
0
100
AcDbLine
 62
7
  6
CONTINUOUS
 10
-6.53125
 20
45.190425548
 11
-6.675
 21
45.0925531849
  0
LINE
  5
2F0
100
AcDbEntity
  8
0
100
AcDbLine
 62
7
  6
CONTINUOUS
 10
-2.2189996777
 20
42.4968085289
 11
-2.5569998388
 21
42.2925532341
  0
LINE
  5
2F1
100
AcDbEntity
  8
0
100
AcDbLine
 62
7
  6
CONTINUOUS
 10
3.2734996777
 20
42.4457447052
 11
3.0199996777
 21
42.2925532341
  0
LINE
  5
2F2
100
AcDbEntity
  8
0
100
AcDbLine
 62
7
  6
CONTINUOUS
 10
-0.36
 20
41.781914854
 11
-2.7260001612
 21
40.5053191543
  0
LINE
  5
2F3
100
AcDbEntity
  8
0
100
AcDbLine
 62
7
  6
CONTINUOUS
 10
-2.0500003223
 20
40.5053191543
 11
0.0625003223
 21
41.6287233829
  0
LINE
  5
2F4
100
AcDbEntity
  8
0
100
AcDbLine
 62
7
  6
CONTINUOUS
 10
-6.6270835161
 20
44.7989361687
 11
-6.4354164839
 21
44.8968085103
  0
LINE
  5
2F5
100
AcDbEntity
  8
0
100
AcDbLine
 62
7
  6
CONTINUOUS
 10
-2.0500003223
 20
42.2414894104
 11
-1.7965003223
 21
42.3436170578
  0
LINE
  5
2F6
100
AcDbEntity
  8
0
100
AcDbLine
 62
7
  6
CONTINUOUS
 10
3.5269996777
 20
42.2414894104
 11
3.7804996777
 21
42.3436170578
  0
LINE
  5
2F7
100
AcDbEntity
  8
0
100
AcDbLine
 62
7
  6
CONTINUOUS
 10
4.8790003223
 20
40.6585106254
 11
4.6255003223
 21
40.556382978
  0
LINE
  5
2F8
100
AcDbEntity
  8
0
100
AcDbLine
 62
7
  6
CONTINUOUS
 10
3.696
 20
42.5989361763
 11
3.2734996777
 21
42.4457447052
  0
LINE
  5
2F9
100
AcDbEntity
  8
0
100
AcDbLine
 62
7
  6
CONTINUOUS
 10
4.71
 20
40.3010638282
 11
5.1325003223
 21
40.4542553127
  0
LINE
  5
2FA
100
AcDbEntity
  8
0
100
AcDbLine
 62
7
  6
CONTINUOUS
 10
-1.881
 20
42.5989361763
 11
-2.2189996777
 21
42.4968085289
  0
LINE
  5
2FB
100
AcDbEntity
  8
ASSI
100
AcDbLine
 62
7
  6
CONTINUOUS
 10
1.657055
 20
-44.375
 11
3.117556
 21
-44.375
  0
LINE
  5
2FC
100
AcDbEntity
  8
ASSI
100
AcDbLine
 62
7
  6
CONTINUOUS
 10
3.117556
 20
-43.625
 11
1.6570519321
 21
-43.625
  0
LWPOLYLINE
  5
2FD
100
AcDbEntity
  8
0
100
AcDbPolyline
 62
7
  6
CONTINUOUS
 90
10
 70
0
 10
7.5372471657
 20
-65.277731064
 10
7.5205885328
 20
-65.2624684361
 10
7.5027739197
 20
-65.2474616135
 10
7.4838033264
 20
-65.2327105961
 10
7.4636352969
 20
-65.2182292851
 10
7.4423112872
 20
-65.2040037794
 10
7.4199556655
 20
-65.1899923752
 10
7.3966098878
 20
-65.1761811712
 10
7.3722324981
 20
-65.1625840688
 10
7.3468234964
 20
-65.1492010679
  0
LWPOLYLINE
  5
2FE
100
AcDbEntity
  8
0
100
AcDbPolyline
 62
7
  6
CONTINUOUS
 90
10
 70
0
 10
0.2582211827
 20
-57.9589203527
 10
0.2415625497
 20
-57.9436577248
 10
0.2237479366
 20
-57.9286509022
 10
0.2047773433
 20
-57.9138998848
 10
0.1846093139
 20
-57.8994185738
 10
0.1632853042
 20
-57.8851930681
 10
0.1409296825
 20
-57.8711816639
 10
0.1175839048
 20
-57.8573704599
 10
0.0932065151
 20
-57.8437733575
 10
0.0677975134
 20
-57.8303903566
  0
LWPOLYLINE
  5
2FF
100
AcDbEntity
  8
0
100
AcDbPolyline
 62
7
  6
CONTINUOUS
 90
37
 70
0
 10
2.6673308631
 20
-57.3105784516
 10
2.6508357496
 20
-57.2939565451
 10
2.6359293879
 20
-57.2766540222
 10
2.622611778
 20
-57.2586708829
 10
2.6108968457
 20
-57.2400607259
 10
2.6007706651
 20
-57.2207699526
 10
2.5921914587
 20
-57.2006377671
 10
2.5851317625
 20
-57.1796806847
 10
2.5796190404
 20
-57.1578821902
 10
2.5756939066
 20
-57.1350319415
 10
2.5733194317
 20
-57.1105812954
 10
2.5725325451
 20
-57.0850788952
 10
2.5734846492
 20
-57.0599603291
 10
2.5762538835
 20
-57.0355707892
 10
2.5807621085
 20
-57.0115650835
 10
2.5869263077
 20
-56.9883432233
 10
2.5946510566
 20
-56.9661932711
 10
2.6040317796
 20
-56.9448271645
 10
2.6152717337
 20
-56.923780728
 10
2.6285046793
 20
-56.9027338701
 10
2.6435968561
 20
-56.8820066822
 10
2.6603502394
 20
-56.862095263
 10
2.6786499467
 20
-56.8430344209
 10
2.6986108606
 20
-56.8247893474
 10
2.7203796043
 20
-56.8077517157
 10
2.7438987797
 20
-56.7920443466
 10
2.769225785
 20
-56.7775444194
 10
2.7966794381
 20
-56.7642751447
 10
2.8264477244
 20
-56.752156543
 10
2.8583426586
 20
-56.7412685937
 10
2.8921191017
 20
-56.7318744461
 10
2.9277397341
 20
-56.724065982
 10
2.9652418754
 20
-56.7177513194
 10
3.0044923467
 20
-56.7129179623
 10
3.0454467548
 20
-56.7095617452
 10
3.0881494928
 20
-56.7076868335
 10
3.1326005606
 20
-56.7072932272
  0
LWPOLYLINE
  5
300
100
AcDbEntity
  8
0
100
AcDbPolyline
 62
7
  6
CONTINUOUS
 90
37
 70
0
 10
11.6917104932
 20
-64.6293891629
 10
11.6752153797
 20
-64.6127672564
 10
11.660309018
 20
-64.5954647335
 10
11.6469914081
 20
-64.5774815942
 10
11.6352764758
 20
-64.5588714372
 10
11.6251502952
 20
-64.5395806639
 10
11.6165710888
 20
-64.5194484784
 10
11.6095113925
 20
-64.498491396
 10
11.6039986705
 20
-64.4766929015
 10
11.6000735367
 20
-64.4538426528
 10
11.5976990618
 20
-64.4293920067
 10
11.5969121752
 20
-64.4038896065
 10
11.5978642793
 20
-64.3787710404
 10
11.6006335136
 20
-64.3543815005
 10
11.6051417386
 20
-64.3303757948
 10
11.6113059378
 20
-64.3071539346
 10
11.6190306866
 20
-64.2850039824
 10
11.6284114097
 20
-64.2636378758
 10
11.6396513638
 20
-64.2425914393
 10
11.6528843094
 20
-64.2215445814
 10
11.6679764861
 20
-64.2008173935
 10
11.6847298694
 20
-64.1809059743
 10
11.7030295767
 20
-64.1618451322
 10
11.7229904906
 20
-64.1436000587
 10
11.7447592344
 20
-64.126562427
 10
11.7682784098
 20
-64.1108550579
 10
11.7936054151
 20
-64.0963551307
 10
11.8210590681
 20
-64.083085856
 10
11.8508273545
 20
-64.0709672543
 10
11.8827222886
 20
-64.060079305
 10
11.9164987318
 20
-64.0506851574
 10
11.9521193642
 20
-64.0428766933
 10
11.9896215055
 20
-64.0365620307
 10
12.0288719768
 20
-64.0317286736
 10
12.0698263849
 20
-64.0283724565
 10
12.1125291229
 20
-64.0264975448
 10
12.1569801907
 20
-64.0261039385
  0
LWPOLYLINE
  5
301
100
AcDbEntity
  8
0
100
AcDbPolyline
 62
7
  6
CONTINUOUS
 90
13
 70
0
 10
-2.9986655423
 20
-64.1577168073
 10
-2.9859645229
 20
-64.1726191107
 10
-2.9737879625
 20
-64.1888334675
 10
-2.962135861
 20
-64.2063598778
 10
-2.950991801
 20
-64.2252127586
 10
-2.9403722
 20
-64.2453776928
 10
-2.9303263105
 20
-64.2668114293
 10
-2.9208781391
 20
-64.289546461
 10
-2.9120036792
 20
-64.313550295
 10
-2.9036801638
 20
-64.3386822022
 10
-2.8959000039
 20
-64.3648952726
 10
-2.8886707885
 20
-64.392236416
 10
-2.8819925177
 20
-64.4207056326
  0
LWPOLYLINE
  5
302
100
AcDbEntity
  8
0
100
AcDbPolyline
 62
7
  6
CONTINUOUS
 90
22
 70
0
 10
-5.6623455497
 20
-65.8747322024
 10
-5.677993946
 20
-65.8523226492
 10
-5.6926556918
 20
-65.827952082
 10
-5.7063307871
 20
-65.8016205008
 10
-5.7190238259
 20
-65.7732861485
 10
-5.7307302141
 20
-65.7429907823
 10
-5.7414361695
 20
-65.7108596732
 10
-5.751052559
 20
-65.6767900374
 10
-5.7596685157
 20
-65.6408846587
 10
-5.7675376565
 20
-65.603577161
 10
-5.774701154
 20
-65.5649674093
 10
-5.7811178355
 20
-65.5249555385
 10
-5.7869178
 20
-65.4836755764
 10
-5.7921557126
 20
-65.4412179751
 10
-5.7967769082
 20
-65.3974922825
 10
-5.8007474901
 20
-65.3523611701
 10
-5.8040446431
 20
-65.3058246207
 10
-5.8066911826
 20
-65.2578826515
 10
-5.8087216578
 20
-65.2083979854
 10
-5.8101475851
 20
-65.1573248634
 10
-5.8109574482
 20
-65.1047090444
 10
-5.8111512471
 20
-65.0505505286
  0
LWPOLYLINE
  5
303
100
AcDbEntity
  8
0
100
AcDbPolyline
 62
7
  6
CONTINUOUS
 90
43
 70
0
 10
-4.9260244762
 20
-64.2293332712
 10
-4.9110389243
 20
-64.2518992174
 10
-4.8969728221
 20
-64.2763051372
 10
-4.8838261696
 20
-64.3025510305
 10
-4.8716264748
 20
-64.3307278634
 10
-4.8603462297
 20
-64.3607446699
 10
-4.8499029099
 20
-64.3923285517
 10
-4.8403044052
 20
-64.4253862018
 10
-4.831542826
 20
-64.4600109273
 10
-4.8235119783
 20
-64.4962097516
 10
-4.8162031638
 20
-64.5339248184
 10
-4.809625081
 20
-64.5732139838
 10
-4.8036976313
 20
-64.6142578401
 10
-4.7984000071
 20
-64.6570127504
 10
-4.7937530162
 20
-64.7015223514
 10
-4.7897389838
 20
-64.7480981452
 10
-4.7863431821
 20
-64.7969236819
 10
-4.783580339
 20
-64.8478154114
 10
-4.7814769634
 20
-64.900534185
 10
-4.7800543833
 20
-64.9560409034
 10
-4.7792912708
 20
-65.0133746659
 10
-4.7791501511
 20
-65.0694136219
 10
-4.7796275126
 20
-65.1232236469
 10
-4.7807268669
 20
-65.1757388653
 10
-4.782421274
 20
-65.2266397998
 10
-4.7846939919
 20
-65.275797005
 10
-4.7875617626
 20
-65.3233399262
 10
-4.7910478712
 20
-65.3693374218
 10
-4.7951499297
 20
-65.4138017735
 10
-4.7998703261
 20
-65.4567206995
 10
-4.8052395105
 20
-65.4981262139
 10
-4.8112411137
 20
-65.5380268873
 10
-4.8178915048
 20
-65.5764141491
 10
-4.8252702408
 20
-65.6132943007
 10
-4.8333725082
 20
-65.6486819376
 10
-4.8422031205
 20
-65.6825624643
 10
-4.8518560755
 20
-65.7148983958
 10
-4.8623371267
 20
-65.7457698417
 10
-4.8736405207
 20
-65.7750966925
 10
-4.8858429941
 20
-65.8026011348
 10
-4.8989701261
 20
-65.8281905643
 10
-4.9129963376
 20
-65.8519575855
 10
-4.9279216287
 20
-65.8739021982
  0
LINE
  5
304
100
AcDbEntity
  8
0
100
AcDbLine
 62
7
  6
CONTINUOUS
 10
-2.9408033181
 20
-67.4957969412
 11
-1.9846530593
 21
-68.9392706004
  0
LINE
  5
305
100
AcDbEntity
  8
0
100
AcDbLine
 62
7
  6
CONTINUOUS
 10
-2.0610122886
 20
-68.2598632907
 11
-2.5435930393
 21
-67.4957969412
  0
LWPOLYLINE
  5
306
100
AcDbEntity
  8
0
100
AcDbPolyline
 62
7
  6
CONTINUOUS
 90
10
 70
0
 10
-1.8063232738
 20
-68.6627650269
 10
-1.8301719
 20
-68.6194558213
 10
-1.855128111
 20
-68.5757755797
 10
-1.8811919068
 20
-68.5317243019
 10
-1.9083566829
 20
-68.487293158
 10
-1.9366290439
 20
-68.442490978
 10
-1.9660288035
 20
-68.3973442522
 10
-1.9965625665
 20
-68.3518618108
 10
-2.0282237282
 20
-68.3060348236
 10
-2.0610122886
 20
-68.2598632907
  0
LINE
  5
307
100
AcDbEntity
  8
0
100
AcDbLine
 62
7
  6
CONTINUOUS
 10
-7.744243
 20
55.100104
 11
-8.893846
 21
51.519462
  0
LINE
  5
308
100
AcDbEntity
  8
0
100
AcDbLine
 62
7
  6
CONTINUOUS
 10
-8.37382
 20
49.89987
 11
-6.704191
 21
55.100104
  0
LINE
  5
309
100
AcDbEntity
  8
0
100
AcDbLine
 62
7
  6
CONTINUOUS
 10
-9.7895832419
 20
45.5329786986
 11
-9.3583332419
 21
46.8542553425
  0
LINE
  5
30A
100
AcDbEntity
  8
0
100
AcDbLine
 62
7
  6
CONTINUOUS
 10
-10.0291667581
 20
44.75
 11
-9.8375
 21
45.3372340411
  0
LINE
  5
30B
100
AcDbEntity
  8
0
100
AcDbLine
 62
7
  6
CONTINUOUS
 10
-9.55
 20
47.05
 11
-10.3166667581
 21
44.75
  0
LINE
  5
30C
100
AcDbEntity
  8
0
100
AcDbLine
 62
7
  6
CONTINUOUS
 10
-11.13125
 20
47.05
 11
-11.85
 21
44.9946808562
  0
LINE
  5
30D
100
AcDbEntity
  8
0
100
AcDbLine
 62
7
  6
CONTINUOUS
 10
-11.658333379
 20
44.75
 11
-10.9875
 21
46.5606383562
  0
LINE
  5
30E
100
AcDbEntity
  8
0
100
AcDbLine
 62
7
  6
CONTINUOUS
 10
-6.24375
 20
45.0925531849
 11
-6.1479164839
 21
45.2882978767
  0
LINE
  5
30F
100
AcDbEntity
  8
0
100
AcDbLine
 62
7
  6
CONTINUOUS
 10
-8.472
 20
40.25
 11
-7.1200000806
 21
42.65
  0
LINE
  5
310
100
AcDbEntity
  8
0
100
AcDbLine
 62
7
  6
CONTINUOUS
 10
-7.6270000806
 20
42.65
 11
-8.8100000403
 21
40.556382978
  0
LINE
  5
311
100
AcDbEntity
  8
0
100
AcDbLine
 62
7
  6
CONTINUOUS
 10
-6.4354164839
 20
45.3372340411
 11
-6.53125
 21
45.190425548
  0
LINE
  5
312
100
AcDbEntity
  8
0
100
AcDbLine
 62
7
  6
CONTINUOUS
 10
-3.909
 20
42.3946808815
 11
-5.5989998388
 21
40.25
  0
LINE
  5
313
100
AcDbEntity
  8
0
100
AcDbLine
 62
7
  6
CONTINUOUS
 10
-5.0919998388
 20
40.25
 11
-3.402
 21
42.3946808815
  0
LINE
  5
314
100
AcDbEntity
  8
0
100
AcDbLine
 62
7
  6
CONTINUOUS
 10
-0.1909996777
 20
41.9861701488
 11
-0.36
 21
41.781914854
  0
LINE
  5
315
100
AcDbEntity
  8
0
100
AcDbLine
 62
7
  6
CONTINUOUS
 10
3.0199996777
 20
42.2925532341
 11
2.8510003223
 21
42.0882979393
  0
LINE
  5
316
100
AcDbEntity
  8
0
100
AcDbLine
 62
7
  6
CONTINUOUS
 10
-2.2189996777
 20
42.0882979393
 11
-2.0500003223
 21
42.2414894104
  0
LINE
  5
317
100
AcDbEntity
  8
0
100
AcDbLine
 62
7
  6
CONTINUOUS
 10
0.0625003223
 20
41.6287233829
 11
0.2314996777
 21
41.781914854
  0
LINE
  5
318
100
AcDbEntity
  8
0
100
AcDbLine
 62
7
  6
CONTINUOUS
 10
3.189
 20
41.9351063251
 11
3.5269996777
 21
42.2414894104
  0
LINE
  5
319
100
AcDbEntity
  8
0
100
AcDbLine
 62
7
  6
CONTINUOUS
 10
5.217
 20
40.9648936033
 11
4.8790003223
 21
40.6585106254
  0
LINE
  5
31A
100
AcDbEntity
  8
ASSI
100
AcDbLine
 62
7
  6
CONTINUOUS
 10
8.3185498097
 20
37.0682818396
 11
6.793186
 21
35.782847
  0
LINE
  5
31B
100
AcDbEntity
  8
ASSI
100
AcDbLine
 62
7
  6
CONTINUOUS
 10
6.793186
 20
35.115206
 11
8.2477756913
 21
36.3409977399
  0
LINE
  5
31C
100
AcDbEntity
  8
0
100
AcDbLine
 62
7
  6
CONTINUOUS
 10
1.4989996777
 20
42.65
 11
0.9919996777
 21
42.2925532341
  0
LINE
  5
31D
100
AcDbEntity
  8
0
100
AcDbLine
 62
7
  6
CONTINUOUS
 10
0.9919996777
 20
41.8840425014
 11
1.4989996777
 21
42.2414894104
  0
LINE
  5
31E
100
AcDbEntity
  8
0
100
AcDbLine
 62
7
  6
CONTINUOUS
 10
5.1325003223
 20
40.4542553127
 11
5.3860003223
 21
40.6074468017
  0
LWPOLYLINE
  5
31F
100
AcDbEntity
  8
0
100
AcDbPolyline
 62
7
  6
CONTINUOUS
 90
10
 70
0
 10
0.5235812169
 20
-58.2878340686
 10
0.4947183688
 20
-58.2451984551
 10
0.4656829048
 20
-58.2040821218
 10
0.436474825
 20
-58.1644850686
 10
0.407071175
 20
-58.1264031207
 10
0.3774949091
 20
-58.0898404529
 10
0.3478148906
 20
-58.0548095898
 10
0.3180540739
 20
-58.0213147061
 10
0.2881895046
 20
-57.9893516271
 10
0.2582211827
 20
-57.9589203527
  0
LWPOLYLINE
  5
320
100
AcDbEntity
  8
0
100
AcDbPolyline
 62
7
  6
CONTINUOUS
 90
10
 70
0
 10
7.8026072
 20
-65.6066447799
 10
7.7737443518
 20
-65.5640091664
 10
7.7447088879
 20
-65.5228928331
 10
7.7155008081
 20
-65.4832957799
 10
7.686097158
 20
-65.445213832
 10
7.6565208921
 20
-65.4086511642
 10
7.6268408736
 20
-65.3736203011
 10
7.5970800569
 20
-65.3401254174
 10
7.5672154876
 20
-65.3081623384
 10
7.5372471657
 20
-65.277731064
  0
LINE
  5
321
100
AcDbEntity
  8
0
100
AcDbLine
 62
7
  6
CONTINUOUS
 10
9.5690662052
 20
-60.7150577643
 11
10.8228278588
 21
-62.635658324
  0
LINE
  5
322
100
AcDbEntity
  8
0
100
AcDbLine
 62
7
  6
CONTINUOUS
 10
10.8439332169
 20
-62.0520555933
 11
9.5901717949
 21
-60.1314552652
  0
LINE
  5
323
100
AcDbEntity
  8
0
100
AcDbLine
 62
7
  6
CONTINUOUS
 10
0.2285786384
 20
-58.4481411371
 11
0.5567809221
 21
-58.9686644742
  0
LINE
  5
324
100
AcDbEntity
  8
0
100
AcDbLine
 62
7
  6
CONTINUOUS
 10
7.5076046214
 20
-65.7669518484
 11
7.8358069052
 21
-66.2874751855
  0
LINE
  5
325
100
AcDbEntity
  8
0
100
AcDbLine
 62
7
  6
CONTINUOUS
 10
0.9490111757
 20
-58.9686644742
 11
0.5235812169
 21
-58.2878340686
  0
LINE
  5
326
100
AcDbEntity
  8
0
100
AcDbLine
 62
7
  6
CONTINUOUS
 10
8.2280371587
 20
-66.2874751855
 11
7.8026072
 21
-65.6066447799
  0
LINE
  5
327
100
AcDbEntity
  8
0
100
AcDbLine
 62
7
  6
CONTINUOUS
 10
-4.9097803397
 20
-70.0
 11
-5.9128844276
 21
-67.4957969412
  0
LINE
  5
328
100
AcDbEntity
  8
0
100
AcDbLine
 62
7
  6
CONTINUOUS
 10
-4.4333653345
 20
-62.635658324
 11
-5.4364694224
 21
-60.1314552652
  0
LINE
  5
329
100
AcDbEntity
  8
0
100
AcDbLine
 62
7
  6
CONTINUOUS
 10
-1.5193835933
 20
-58.9686644742
 11
-2.5224876812
 21
-56.4644614154
  0
LINE
  5
32A
100
AcDbEntity
  8
0
100
AcDbLine
 62
7
  6
CONTINUOUS
 10
-5.914544436
 20
-68.2797831601
 11
-5.6449155771
 21
-68.9679648
  0
LINE
  5
32B
100
AcDbEntity
  8
0
100
AcDbLine
 62
7
  6
CONTINUOUS
 10
-5.4381294308
 20
-60.9154414841
 11
-5.1685005719
 21
-61.603623124
  0
LINE
  5
32C
100
AcDbEntity
  8
0
100
AcDbLine
 62
7
  6
CONTINUOUS
 10
-2.5241476896
 20
-57.2484476343
 11
-2.2545188307
 21
-57.9366292742
  0
LINE
  5
32D
100
AcDbEntity
  8
0
100
AcDbLine
 62
7
  6
CONTINUOUS
 10
-10.0
 20
-60.1314552652
 11
-9.0372099391
 21
-62.635658324
  0
LINE
  5
32E
100
AcDbEntity
  8
0
100
AcDbLine
 62
7
  6
CONTINUOUS
 10
-10.0
 20
-56.4644614154
 11
-9.0372099391
 21
-58.9686644742
  0
LINE
  5
32F
100
AcDbEntity
  8
0
100
AcDbLine
 62
7
  6
CONTINUOUS
 10
-5.5441309728
 20
-69.2411505882
 11
-5.2647796706
 21
-70.0
  0
LINE
  5
330
100
AcDbEntity
  8
0
100
AcDbLine
 62
7
  6
CONTINUOUS
 10
-5.0677159676
 20
-61.8768089122
 11
-4.7883646654
 21
-62.635658324
  0
LINE
  5
331
100
AcDbEntity
  8
0
100
AcDbLine
 62
7
  6
CONTINUOUS
 10
-6.1694705948
 20
-56.8438861213
 11
-5.4473778175
 21
-58.9686644742
  0
LINE
  5
332
100
AcDbEntity
  8
0
100
AcDbLine
 62
7
  6
CONTINUOUS
 10
-5.373610282
 20
-58.3175226112
 11
-5.9944608262
 21
-56.4644614154
  0
LINE
  5
333
100
AcDbEntity
  8
0
100
AcDbLine
 62
7
  6
CONTINUOUS
 10
-5.3330390002
 20
-58.4414795183
 11
-5.373610282
 21
-58.3175226112
  0
LINE
  5
334
100
AcDbEntity
  8
0
100
AcDbLine
 62
7
  6
CONTINUOUS
 10
-5.3069085387
 20
-58.5229521236
 11
-5.3330390002
 21
-58.4414795183
  0
LINE
  5
335
100
AcDbEntity
  8
0
100
AcDbLine
 62
7
  6
CONTINUOUS
 10
-5.2816166672
 20
-58.6034681803
 11
-5.3069085387
 21
-58.5229521236
  0
LWPOLYLINE
  5
336
100
AcDbEntity
  8
0
100
AcDbPolyline
 62
7
  6
CONTINUOUS
 90
10
 70
0
 10
-6.0919254136
 20
-67.7538057412
 10
-6.0750697096
 20
-67.8099295594
 10
-6.0574552867
 20
-67.8666338086
 10
-6.039082145
 20
-67.9239184889
 10
-6.0198897572
 20
-67.9817848026
 10
-5.9999386506
 20
-68.0402315474
 10
-5.979410407
 20
-68.0992551162
 10
-5.9583655536
 20
-68.1588543068
 10
-5.9367435633
 20
-68.2190303214
 10
-5.914544436
 20
-68.2797831601
  0
LWPOLYLINE
  5
337
100
AcDbEntity
  8
0
100
AcDbPolyline
 62
7
  6
CONTINUOUS
 90
10
 70
0
 10
-5.6155104084
 20
-60.3894640652
 10
-5.5986547044
 20
-60.4455878834
 10
-5.5810402815
 20
-60.5022921326
 10
-5.5626671398
 20
-60.5595768129
 10
-5.543474752
 20
-60.6174431266
 10
-5.5235236454
 20
-60.6758898714
 10
-5.5029954018
 20
-60.7349134402
 10
-5.4819505484
 20
-60.7945126307
 10
-5.4603285581
 20
-60.8546886454
 10
-5.4381294308
 20
-60.9154414841
  0
LWPOLYLINE
  5
338
100
AcDbEntity
  8
0
100
AcDbPolyline
 62
7
  6
CONTINUOUS
 90
10
 70
0
 10
-8.8633858908
 20
-62.3548839258
 10
-8.8757666802
 20
-62.3110855251
 10
-8.8887069422
 20
-62.2668786264
 10
-8.9022066766
 20
-62.2222632295
 10
-8.916273009
 20
-62.1772370595
 10
-8.9308988139
 20
-62.1318023914
 10
-8.9460627147
 20
-62.0859660508
 10
-8.9617575858
 20
-62.0397303129
 10
-8.9779905528
 20
-61.9930929026
 10
-9.6450009007
 20
-60.1314552652
  0
LWPOLYLINE
  5
339
100
AcDbEntity
  8
0
100
AcDbPolyline
 62
7
  6
CONTINUOUS
 90
10
 70
0
 10
-8.8633858908
 20
-58.6878900761
 10
-8.8757666802
 20
-58.6440916754
 10
-8.8887069422
 20
-58.5998847766
 10
-8.9022066766
 20
-58.5552693798
 10
-8.916273009
 20
-58.5102432097
 10
-8.9308988139
 20
-58.4648085416
 10
-8.9460627147
 20
-58.418972201
 10
-8.9617575858
 20
-58.3727364632
 10
-8.9779905528
 20
-58.3260990528
 10
-9.6450009007
 20
-56.4644614154
  0
LINE
  5
33A
100
AcDbEntity
  8
0
100
AcDbLine
 62
7
  6
CONTINUOUS
 10
-13.5
 20
56.75
 11
-13.5
 21
29.75
  0
LINE
  5
33B
100
AcDbEntity
  8
0
100
AcDbLine
 62
7
  6
CONTINUOUS
 10
-13.0
 20
47.05
 11
-13.0
 21
44.75
  0
LINE
  5
33C
100
AcDbEntity
  8
0
100
AcDbLine
 62
7
  6
CONTINUOUS
 10
-12.7125
 20
44.75
 11
-12.7125
 21
46.5606383562
  0
LINE
  5
33D
100
AcDbEntity
  8
0
100
AcDbLine
 62
7
  6
CONTINUOUS
 10
-10.9875
 20
46.5606383562
 11
-10.9875
 21
44.75
  0
LINE
  5
33E
100
AcDbEntity
  8
0
100
AcDbLine
 62
7
  6
CONTINUOUS
 10
-10.7
 20
44.75
 11
-10.7
 21
47.05
  0
LINE
  5
33F
100
AcDbEntity
  8
0
100
AcDbLine
 62
7
  6
CONTINUOUS
 10
-6.1479164839
 20
45.2882978767
 11
-6.1
 21
45.5329786986
  0
LINE
  5
340
100
AcDbEntity
  8
0
100
AcDbLine
 62
7
  6
CONTINUOUS
 10
-6.3875
 20
45.5329786986
 11
-6.4354164839
 21
45.3372340411
  0
LINE
  5
341
100
AcDbEntity
  8
0
100
AcDbLine
 62
7
  6
CONTINUOUS
 10
-0.416364
 20
55.100104
 11
-1.387451
 21
51.713526
  0
LINE
  5
342
100
AcDbEntity
  8
0
100
AcDbLine
 62
7
  6
CONTINUOUS
 10
-0.867451
 20
49.899883
 11
0.115843
 21
53.329075
  0
LINE
  5
343
100
AcDbEntity
  8
0
100
AcDbLine
 62
7
  6
CONTINUOUS
 10
3.518853
 20
55.100117
 11
1.84925
 21
49.89987
  0
LINE
  5
344
100
AcDbEntity
  8
0
100
AcDbLine
 62
7
  6
CONTINUOUS
 10
2.889289
 20
49.899883
 11
3.21763
 21
50.922541
  0
LINE
  5
345
100
AcDbEntity
  8
0
100
AcDbLine
 62
7
  6
CONTINUOUS
 10
3.534869
 20
51.91058
 11
4.038892
 21
53.480512
  0
LINE
  5
346
100
AcDbEntity
  8
0
100
AcDbLine
 62
7
  6
CONTINUOUS
 10
2.7664996777
 20
41.9351063251
 11
2.682
 21
41.6797872066
  0
LINE
  5
347
100
AcDbEntity
  8
0
100
AcDbLine
 62
7
  6
CONTINUOUS
 10
-2.5569998388
 20
42.2925532341
 11
-2.6415
 21
42.0882979393
  0
LINE
  5
348
100
AcDbEntity
  8
0
100
AcDbLine
 62
7
  6
CONTINUOUS
 10
0.2314996777
 20
41.781914854
 11
0.3160003223
 21
41.9861701488
  0
LINE
  5
349
100
AcDbEntity
  8
0
100
AcDbLine
 62
7
  6
CONTINUOUS
 10
2.8510003223
 20
42.0882979393
 11
2.7664996777
 21
41.9351063251
  0
LINE
  5
34A
100
AcDbEntity
  8
0
100
AcDbLine
 62
7
  6
CONTINUOUS
 10
5.5549996777
 20
40.8117021322
 11
5.6395003223
 21
40.9648936033
  0
LINE
  5
34B
100
AcDbEntity
  8
ASSI
100
AcDbLine
 62
7
  6
CONTINUOUS
 10
5.2413280513
 20
33.0074530914
 11
5.4915758065
 21
33.4533146552
  0
LINE
  5
34C
100
AcDbEntity
  8
0
100
AcDbLine
 62
7
  6
CONTINUOUS
 10
12.7791659355
 20
47.05
 11
12.15625
 21
46.1202127397
  0
LINE
  5
34D
100
AcDbEntity
  8
0
100
AcDbLine
 62
7
  6
CONTINUOUS
 10
12.3
 20
45.9244680822
 11
13.0666659355
 21
47.05
  0
LINE
  5
34E
100
AcDbEntity
  8
ASSI
100
AcDbLine
 62
7
  6
CONTINUOUS
 10
8.468797
 20
31.036901
 11
8.752489
 21
31.439077
  0
LINE
  5
34F
100
AcDbEntity
  8
0
100
AcDbLine
 62
7
  6
CONTINUOUS
 10
8.9349993553
 20
42.3946808815
 11
7.245
 21
40.25
  0
LINE
  5
350
100
AcDbEntity
  8
0
100
AcDbLine
 62
7
  6
CONTINUOUS
 10
7.752
 20
40.25
 11
9.4419993553
 21
42.3946808815
  0
LINE
  5
351
100
AcDbEntity
  8
0
100
AcDbLine
 62
7
  6
CONTINUOUS
 10
5.3860003223
 20
40.6074468017
 11
5.5549996777
 21
40.8117021322
  0
LWPOLYLINE
  5
352
100
AcDbEntity
  8
0
100
AcDbPolyline
 62
7
  6
CONTINUOUS
 90
25
 70
0
 10
4.404858872
 20
-62.0375900373
 10
4.4304726001
 20
-62.0936869104
 10
4.4573982168
 20
-62.1466128512
 10
4.485635722
 20
-62.1963678597
 10
4.5152215392
 20
-62.2427734437
 10
4.5461192449
 20
-62.2860080954
 10
4.5782195688
 20
-62.3266072908
 10
4.6115180823
 20
-62.3646584955
 10
4.646019214
 20
-62.4000742439
 10
4.6816269791
 20
-62.4331276145
 10
4.7181479187
 20
-62.4637907104
 10
4.7557754917
 20
-62.4920914285
 10
4.7949940902
 20
-62.5183865384
 10
4.8356536944
 20
-62.5426993619
 10
4.8779043241
 20
-62.5650065772
 10
4.9226804311
 20
-62.5855949884
 10
4.9701837293
 20
-62.60468759
 10
5.0202125047
 20
-62.6220613875
 10
5.0730960679
 20
-62.6373342025
 10
5.1289662425
 20
-62.6504859314
 10
5.1876912049
 20
-62.6615366777
 10
5.2492047946
 20
-62.6701645735
 10
5.3134849582
 20
-62.6762623292
 10
5.3805537492
 20
-62.6799372343
 10
5.4504111676
 20
-62.6811892887
  0
LWPOLYLINE
  5
353
100
AcDbEntity
  8
0
100
AcDbPolyline
 62
7
  6
CONTINUOUS
 90
25
 70
0
 10
16.7226449491
 20
-65.6894068988
 10
16.7482586772
 20
-65.745503772
 10
16.7751842939
 20
-65.7984297128
 10
16.8034217991
 20
-65.8481847212
 10
16.8330076163
 20
-65.8945903053
 10
16.863905322
 20
-65.937824957
 10
16.8960056459
 20
-65.9784241523
 10
16.9293041594
 20
-66.016475357
 10
16.9638052911
 20
-66.0518911054
 10
16.9994130562
 20
-66.084944476
 10
17.0359339958
 20
-66.1156075719
 10
17.0735615688
 20
-66.1439082901
 10
17.1127801673
 20
-66.1702034
 10
17.1534397715
 20
-66.1945162234
 10
17.1956904012
 20
-66.2168234387
 10
17.2404665083
 20
-66.23741185
 10
17.2879698064
 20
-66.2565044515
 10
17.3379985819
 20
-66.273878249
 10
17.3908821451
 20
-66.289151064
 10
17.4467523197
 20
-66.3023027929
 10
17.505477282
 20
-66.3133535393
 10
17.5669908717
 20
-66.321981435
 10
17.6312710354
 20
-66.3280791907
 10
17.6983398263
 20
-66.3317540958
 10
17.7681972447
 20
-66.3330061502
  0
LINE
  5
354
100
AcDbEntity
  8
0
100
AcDbLine
 62
7
  6
CONTINUOUS
 10
5.7596423897
 20
-66.2874751855
 11
4.7565383018
 21
-63.7832721267
  0
LINE
  5
355
100
AcDbEntity
  8
0
100
AcDbLine
 62
7
  6
CONTINUOUS
 10
8.9375613008
 20
-58.9686644742
 11
7.9344572129
 21
-56.4644614154
  0
LINE
  5
356
100
AcDbEntity
  8
0
100
AcDbLine
 62
7
  6
CONTINUOUS
 10
4.7548782934
 20
-64.5672583456
 11
5.0245071523
 21
-65.2554399855
  0
LINE
  5
357
100
AcDbEntity
  8
0
100
AcDbLine
 62
7
  6
CONTINUOUS
 10
7.9327972045
 20
-57.2484476343
 11
8.2024260634
 21
-57.9366292742
  0
LINE
  5
358
100
AcDbEntity
  8
0
100
AcDbLine
 62
7
  6
CONTINUOUS
 10
0.8515465882
 20
-60.1314552652
 11
1.8143366491
 21
-62.635658324
  0
LINE
  5
359
100
AcDbEntity
  8
0
100
AcDbLine
 62
7
  6
CONTINUOUS
 10
-2.1537342264
 20
-58.2098150625
 11
-1.8743829242
 21
-58.9686644742
  0
LINE
  5
35A
100
AcDbEntity
  8
0
100
AcDbLine
 62
7
  6
CONTINUOUS
 10
5.1252917566
 20
-65.5286257738
 11
5.4046430588
 21
-66.2874751855
  0
LINE
  5
35B
100
AcDbEntity
  8
0
100
AcDbLine
 62
7
  6
CONTINUOUS
 10
8.3032106677
 20
-58.2098150625
 11
8.5825619699
 21
-58.9686644742
  0
LINE
  5
35C
100
AcDbEntity
  8
0
100
AcDbLine
 62
7
  6
CONTINUOUS
 10
1.1095553882
 20
-64.1626968326
 11
1.8316481655
 21
-66.2874751855
  0
LWPOLYLINE
  5
35D
100
AcDbEntity
  8
0
100
AcDbPolyline
 62
7
  6
CONTINUOUS
 90
3
 70
0
 10
4.3482958983
 20
-61.8830101999
 10
4.3746517826
 20
-61.9612968048
 10
4.404858872
 20
-62.0375900373
  0
LINE
  5
35E
100
AcDbEntity
  8
0
100
AcDbLine
 62
7
  6
CONTINUOUS
 10
1.905415701
 20
-65.6363333225
 11
1.2845651568
 21
-63.7832721267
  0
LINE
  5
35F
100
AcDbEntity
  8
0
100
AcDbLine
 62
7
  6
CONTINUOUS
 10
1.9459869829
 20
-65.7602902296
 11
1.905415701
 21
-65.6363333225
  0
LWPOLYLINE
  5
360
100
AcDbEntity
  8
0
100
AcDbPolyline
 62
7
  6
CONTINUOUS
 90
59
 70
0
 10
6.4274296405
 20
-60.8191623854
 10
6.4067146208
 20
-60.7543687462
 10
6.3839265429
 20
-60.693215012
 10
6.3590654069
 20
-60.6357011828
 10
6.3321061365
 20
-60.5820831249
 10
6.303073808
 20
-60.5321049719
 10
6.2720436496
 20
-60.4849991247
 10
6.238983008
 20
-60.4406145548
 10
6.2039245364
 20
-60.3991022906
 10
6.167041423
 20
-60.3601478189
 10
6.1283685623
 20
-60.3236449746
 10
6.0878710599
 20
-60.2896999226
 10
6.0456174199
 20
-60.2583166448
 10
6.0017243967
 20
-60.2295027415
 10
5.9560752361
 20
-60.2032506124
 10
5.9083881796
 20
-60.1795414381
 10
5.8588398207
 20
-60.1583296291
 10
5.807253566
 20
-60.139660775
 10
5.7528178768
 20
-60.1236528243
 10
5.6952487528
 20
-60.1101771061
 10
5.6348301944
 20
-60.0993622913
 10
5.5716026637
 20
-60.0917123411
 10
5.5045465774
 20
-60.0872759064
 10
5.4346815189
 20
-60.0860043362
 10
5.3651067005
 20
-60.0882556392
 10
5.2963669204
 20
-60.0941960754
 10
5.2279173805
 20
-60.1036593848
 10
5.1612228981
 20
-60.1165047966
 10
5.0966065768
 20
-60.1328651826
 10
5.0337453131
 20
-60.1526076709
 10
4.9731346135
 20
-60.1751928759
 10
4.914706731
 20
-60.2006680041
 10
4.8585294126
 20
-60.228985849
 10
4.8053014064
 20
-60.2594654044
 10
4.7554327214
 20
-60.2918247232
 10
4.7085133487
 20
-60.3263457525
 10
4.664012009
 20
-60.3631933274
 10
4.6219033626
 20
-60.4021971406
 10
4.5822127492
 20
-60.4435274993
 10
4.5444849093
 20
-60.4878601607
 10
4.5085027496
 20
-60.5353380352
 10
4.4744833633
 20
-60.5858182125
 10
4.4426227702
 20
-60.6395477192
 10
4.41279517
 20
-60.6965554658
 10
4.3851263631
 20
-60.7568125419
 10
4.3601897709
 20
-60.8204792428
 10
4.337993876
 20
-60.887378434
 10
4.3185301958
 20
-60.95768725
 10
4.3023467036
 20
-61.0320973908
 10
4.2893979547
 20
-61.1114371784
 10
4.2797293937
 20
-61.1948782908
 10
4.2740253282
 20
-61.2806274613
 10
4.2724632211
 20
-61.3694674884
 10
4.2748656094
 20
-61.4606155737
 10
4.2813844115
 20
-61.5499300558
 10
4.2921586698
 20
-61.6360836376
 10
4.3070493419
 20
-61.7204036163
 10
4.3257912191
 20
-61.8027302225
 10
4.3482958983
 20
-61.8830101999
  0
LINE
  5
361
100
AcDbEntity
  8
0
100
AcDbLine
 62
7
  6
CONTINUOUS
 10
1.9721174444
 20
-65.8417628349
 11
1.9459869829
 21
-65.7602902296
  0
LINE
  5
362
100
AcDbEntity
  8
0
100
AcDbLine
 62
7
  6
CONTINUOUS
 10
1.9974093158
 20
-65.9222788916
 11
1.9721174444
 21
-65.8417628349
  0
LWPOLYLINE
  5
363
100
AcDbEntity
  8
0
100
AcDbPolyline
 62
7
  6
CONTINUOUS
 90
10
 70
0
 10
-2.7015286673
 20
-56.7224702154
 10
-2.6846729632
 20
-56.7785940336
 10
-2.6670585403
 20
-56.8352982828
 10
-2.6486853986
 20
-56.8925829631
 10
-2.6294930108
 20
-56.9504492768
 10
-2.6095419042
 20
-57.0088960216
 10
-2.5890136606
 20
-57.0679195904
 10
-2.5679688073
 20
-57.127518781
 10
-2.5463468169
 20
-57.1876947956
 10
-2.5241476896
 20
-57.2484476343
  0
LWPOLYLINE
  5
364
100
AcDbEntity
  8
0
100
AcDbPolyline
 62
7
  6
CONTINUOUS
 90
10
 70
0
 10
4.5774973158
 20
-64.0412809267
 10
4.5943530198
 20
-64.0974047449
 10
4.6119674427
 20
-64.1541089941
 10
4.6303405844
 20
-64.2113936744
 10
4.6495329722
 20
-64.2692599881
 10
4.6694840788
 20
-64.3277067329
 10
4.6900123224
 20
-64.3867303017
 10
4.7110571758
 20
-64.4463294923
 10
4.7326791661
 20
-64.5065055069
 10
4.7548782934
 20
-64.5672583456
  0
LWPOLYLINE
  5
365
100
AcDbEntity
  8
0
100
AcDbPolyline
 62
7
  6
CONTINUOUS
 90
10
 70
0
 10
1.9881606974
 20
-62.3548839258
 10
1.975779908
 20
-62.3110855251
 10
1.9628396461
 20
-62.2668786264
 10
1.9493399116
 20
-62.2222632295
 10
1.9352735792
 20
-62.1772370595
 10
1.9206477743
 20
-62.1318023914
 10
1.9054838735
 20
-62.0859660508
 10
1.8897890024
 20
-62.0397303129
 10
1.8735560354
 20
-61.9930929026
 10
1.2065456875
 20
-60.1314552652
  0
LWPOLYLINE
  5
366
100
AcDbEntity
  8
0
100
AcDbPolyline
 62
7
  6
CONTINUOUS
 90
12
 70
0
 10
-8.0423943644
 20
-65.5279602399
 10
-8.0310102808
 20
-65.5903373161
 10
-8.0178984168
 20
-65.6497695592
 10
-8.0030366851
 20
-65.7062866691
 10
-7.9864471731
 20
-65.759858946
 10
-7.9682753632
 20
-65.8104061041
 10
-7.9484400488
 20
-65.8579241538
 10
-7.9270224365
 20
-65.9024170849
 10
-7.904411629
 20
-65.9438165806
 10
-7.8807373274
 20
-65.9820998688
 10
-7.8558698305
 20
-66.0172897216
 10
-7.8298091386
 20
-66.0493861392
  0
LWPOLYLINE
  5
367
100
AcDbEntity
  8
0
100
AcDbPolyline
 62
7
  6
CONTINUOUS
 90
12
 70
0
 10
-4.1570853762
 20
-65.5279602399
 10
-4.1457012925
 20
-65.5903373161
 10
-4.1325894285
 20
-65.6497695592
 10
-4.1177276968
 20
-65.7062866691
 10
-4.1011381848
 20
-65.759858946
 10
-4.082966375
 20
-65.8104061041
 10
-4.0631310605
 20
-65.8579241538
 10
-4.0417134482
 20
-65.9024170849
 10
-4.0191026408
 20
-65.9438165806
 10
-3.9954283391
 20
-65.9820998688
 10
-3.9705608423
 20
-66.0172897216
 10
-3.9445001504
 20
-66.0493861392
  0
LWPOLYLINE
  5
368
100
AcDbEntity
  8
0
100
AcDbPolyline
 62
7
  6
CONTINUOUS
 90
62
 70
0
 10
-6.4637617412
 20
-64.3903516561
 10
-6.4717745307
 20
-64.3397290508
 10
-6.4817655564
 20
-64.2917011402
 10
-6.4937348182
 20
-64.2462679245
 10
-6.5076921084
 20
-64.2036452752
 10
-6.5236276346
 20
-64.1636173206
 10
-6.5415120204
 20
-64.1255364464
 10
-6.5613925479
 20
-64.0892427183
 10
-6.5832219349
 20
-64.0548960705
 10
-6.606828958
 20
-64.022328691
 10
-6.6322425566
 20
-63.9914177393
 10
-6.6594337913
 20
-63.9622860559
 10
-6.6881446208
 20
-63.9351343506
 10
-6.7182492249
 20
-63.9100416152
 10
-6.7498734238
 20
-63.8869288579
 10
-6.783136637
 20
-63.8657598127
 10
-6.8179258388
 20
-63.8464919329
 10
-6.8543540548
 20
-63.8291677651
 10
-6.8928797818
 20
-63.8138786837
 10
-6.9335327958
 20
-63.800542766
 10
-6.9762833208
 20
-63.7892419347
 10
-7.0215005257
 20
-63.7803133317
 10
-7.0698932371
 20
-63.7737621961
 10
-7.1207526284
 20
-63.7695832889
 10
-7.172321388
 20
-63.768098035
 10
-7.2249457926
 20
-63.7694609865
 10
-7.2782795656
 20
-63.7735175912
 10
-7.3295265646
 20
-63.7801256179
 10
-7.3776941328
 20
-63.7893282067
 10
-7.423774927
 20
-63.8010822174
 10
-7.4679507762
 20
-63.8151159982
 10
-7.5100667292
 20
-63.8312922166
 10
-7.5502777371
 20
-63.849748205
 10
-7.5892304821
 20
-63.8706243095
 10
-7.6271482442
 20
-63.8939386805
 10
-7.6638077433
 20
-63.9196731675
 10
-7.6991858216
 20
-63.9479136651
 10
-7.7332718573
 20
-63.9785275797
 10
-7.7660764722
 20
-64.011647505
 10
-7.7976083732
 20
-64.0477571162
 10
-7.8279295789
 20
-64.0868037488
 10
-7.8569780708
 20
-64.1288400673
 10
-7.8845764997
 20
-64.1745077408
 10
-7.9108200004
 20
-64.224006056
 10
-7.9356134381
 20
-64.2771357262
 10
-7.9584940588
 20
-64.3339405602
 10
-7.9793689923
 20
-64.3944745181
 10
-7.9983311088
 20
-64.4586836398
 10
-8.0151962642
 20
-64.5264498544
 10
-8.02994125
 20
-64.5978257011
 10
-8.0425892747
 20
-64.6727586408
 10
-8.0530258194
 20
-64.7509729848
 10
-8.0611828406
 20
-64.8338475968
 10
-8.0671283817
 20
-64.9200036132
 10
-8.0709520544
 20
-65.0050287549
 10
-8.0725927156
 20
-65.0881921574
 10
-8.0721115083
 20
-65.1702246853
 10
-8.0697814738
 20
-65.2489066537
 10
-8.0656796834
 20
-65.3233658633
 10
-8.0597290658
 20
-65.3944745135
 10
-8.0519714476
 20
-65.4626295169
 10
-8.0423943644
 20
-65.5279602399
  0
LWPOLYLINE
  5
369
100
AcDbEntity
  8
0
100
AcDbPolyline
 62
7
  6
CONTINUOUS
 90
62
 70
0
 10
-2.578452753
 20
-64.3903516561
 10
-2.5864655425
 20
-64.3397290508
 10
-2.5964565682
 20
-64.2917011402
 10
-2.60842583
 20
-64.2462679245
 10
-2.6223831201
 20
-64.2036452752
 10
-2.6383186464
 20
-64.1636173206
 10
-2.6562030322
 20
-64.1255364464
 10
-2.6760835597
 20
-64.0892427183
 10
-2.6979129467
 20
-64.0548960705
 10
-2.7215199698
 20
-64.022328691
 10
-2.7469335684
 20
-63.9914177393
 10
-2.7741248031
 20
-63.9622860559
 10
-2.8028356326
 20
-63.9351343506
 10
-2.8329402367
 20
-63.9100416152
 10
-2.8645644356
 20
-63.8869288579
 10
-2.8978276488
 20
-63.8657598127
 10
-2.9326168505
 20
-63.8464919329
 10
-2.9690450666
 20
-63.8291677651
 10
-3.0075707936
 20
-63.8138786837
 10
-3.0482238076
 20
-63.800542766
 10
-3.0909743326
 20
-63.7892419347
 10
-3.1361915374
 20
-63.7803133317
 10
-3.1845842489
 20
-63.7737621961
 10
-3.2354436402
 20
-63.7695832889
 10
-3.2870123997
 20
-63.768098035
 10
-3.3396368044
 20
-63.7694609865
 10
-3.3929705773
 20
-63.7735175912
 10
-3.4442175764
 20
-63.7801256179
 10
-3.4923851445
 20
-63.7893282067
 10
-3.5384659388
 20
-63.8010822174
 10
-3.582641788
 20
-63.8151159982
 10
-3.624757741
 20
-63.8312922166
 10
-3.6649687489
 20
-63.849748205
 10
-3.7039214939
 20
-63.8706243095
 10
-3.7418392559
 20
-63.8939386805
 10
-3.7784987551
 20
-63.9196731675
 10
-3.8138768334
 20
-63.9479136651
 10
-3.8479628691
 20
-63.9785275797
 10
-3.880767484
 20
-64.011647505
 10
-3.9122993849
 20
-64.0477571162
 10
-3.9426205907
 20
-64.0868037488
 10
-3.9716690826
 20
-64.1288400673
 10
-3.9992675114
 20
-64.1745077408
 10
-4.0255110122
 20
-64.224006056
 10
-4.0503044499
 20
-64.2771357262
 10
-4.0731850705
 20
-64.3339405602
 10
-4.0940600041
 20
-64.3944745181
 10
-4.1130221206
 20
-64.4586836398
 10
-4.1298872759
 20
-64.5264498544
 10
-4.1446322618
 20
-64.5978257011
 10
-4.1572802865
 20
-64.6727586408
 10
-4.1677168312
 20
-64.7509729848
 10
-4.1758738524
 20
-64.8338475968
 10
-4.1818193935
 20
-64.9200036132
 10
-4.1856430662
 20
-65.0050287549
 10
-4.1872837274
 20
-65.0881921574
 10
-4.1868025201
 20
-65.1702246853
 10
-4.1844724855
 20
-65.2489066537
 10
-4.1803706952
 20
-65.3233658633
 10
-4.1744200775
 20
-65.3944745135
 10
-4.1666624594
 20
-65.4626295169
 10
-4.1570853762
 20
-65.5279602399
  0
LWPOLYLINE
  5
36A
100
AcDbEntity
  8
0
100
AcDbPolyline
 62
7
  6
CONTINUOUS
 90
20
 70
0
 10
-8.3667769436
 20
-65.4485426752
 10
-8.3732119678
 20
-65.4059800249
 10
-8.3818469252
 20
-65.3657836146
 10
-8.3927334369
 20
-65.3275393253
 10
-8.4057546381
 20
-65.2908618557
 10
-8.4209396689
 20
-65.255636175
 10
-8.4382593892
 20
-65.221977314
 10
-8.4575095137
 20
-65.1898450651
 10
-8.4786527137
 20
-65.1592004892
 10
-8.5017263179
 20
-65.1300825253
 10
-8.5266380272
 20
-65.1025677826
 10
-8.5532940051
 20
-65.0766578365
 10
-8.5817880881
 20
-65.0523511115
 10
-8.6123094861
 20
-65.0297194903
 10
-8.6447947468
 20
-65.0087297518
 10
-8.6793073225
 20
-64.9894151172
 10
-8.7162267803
 20
-64.9719471331
 10
-8.7556796425
 20
-64.9563829819
 10
-8.7975393867
 20
-64.9426654812
 10
-8.8418060129
 20
-64.9307946311
  0
LWPOLYLINE
  5
36B
100
AcDbEntity
  8
0
100
AcDbPolyline
 62
7
  6
CONTINUOUS
 90
54
 70
0
 10
-10.0
 20
-65.6348646914
 10
-9.9929189223
 20
-65.6875308317
 10
-9.9835014581
 20
-65.7378312675
 10
-9.9717476074
 20
-65.7857659988
 10
-9.9576318266
 20
-65.8311531102
 10
-9.9411796593
 20
-65.8741745171
 10
-9.9224677357
 20
-65.9153759653
 10
-9.9015930151
 20
-65.9547728647
 10
-9.8784585382
 20
-65.9923498055
 10
-9.8528500572
 20
-66.0286063035
 10
-9.8244986321
 20
-66.0639272382
 10
-9.793673203
 20
-66.0979277301
 10
-9.7609663432
 20
-66.1299526568
 10
-9.7264205424
 20
-66.1599389973
 10
-9.6899933109
 20
-66.1879497726
 10
-9.6521497529
 20
-66.2135189236
 10
-9.6131880262
 20
-66.2364655252
 10
-9.5728099731
 20
-66.2569705025
 10
-9.530586224
 20
-66.2751105711
 10
-9.4866759313
 20
-66.2909756811
 10
-9.4409199426
 20
-66.3044758824
 10
-9.3924114318
 20
-66.3154180411
 10
-9.3403079234
 20
-66.3238872531
 10
-9.2854518929
 20
-66.3297984226
 10
-9.2294639405
 20
-66.3327031278
 10
-9.1717137818
 20
-66.3323838203
 10
-9.1128317013
 20
-66.3290580484
 10
-9.0563291523
 20
-66.3229300352
 10
-9.0034733887
 20
-66.3139585114
 10
-8.9529971565
 20
-66.3021847462
 10
-8.9046101472
 20
-66.2879367702
 10
-8.8584414451
 20
-66.2713636092
 10
-8.8143619658
 20
-66.2523162374
 10
-8.7716941473
 20
-66.2306756083
 10
-8.7301952194
 20
-66.2063770228
 10
-8.6901079522
 20
-66.17948518
 10
-8.6514830941
 20
-66.1500751306
 10
-8.613908487
 20
-66.117720165
 10
-8.577796289
 20
-66.0828469928
 10
-8.5444337231
 20
-66.0468107929
 10
-8.5142113276
 20
-66.0098939119
 10
-8.4867385642
 20
-65.9718140032
 10
-8.4621310407
 20
-65.9330792058
 10
-8.4405577751
 20
-65.8941079332
 10
-8.4218497494
 20
-65.8544817717
 10
-8.405615518
 20
-65.8134536204
 10
-8.3916669558
 20
-65.7706885726
 10
-8.3801921877
 20
-65.7265215349
 10
-8.3713641438
 20
-65.6812101253
 10
-8.3652816144
 20
-65.6340937374
 10
-8.361845809
 20
-65.5858329775
 10
-8.3609332859
 20
-65.5386672826
 10
-8.3625934736
 20
-65.4930574464
 10
-8.3667769436
 20
-65.4485426752
  0
LWPOLYLINE
  5
36C
100
AcDbEntity
  8
0
100
AcDbPolyline
 62
7
  6
CONTINUOUS
 90
54
 70
0
 10
-2.2293820235
 20
-65.6348646914
 10
-2.2223009459
 20
-65.6875308317
 10
-2.2128834817
 20
-65.7378312675
 10
-2.2011296309
 20
-65.7857659988
 10
-2.1870138502
 20
-65.8311531102
 10
-2.1705616829
 20
-65.8741745171
 10
-2.1518497593
 20
-65.9153759653
 10
-2.1309750386
 20
-65.9547728647
 10
-2.1078405617
 20
-65.9923498055
 10
-2.0822320808
 20
-66.0286063035
 10
-2.0538806556
 20
-66.0639272382
 10
-2.0230552265
 20
-66.0979277301
 10
-1.9903483667
 20
-66.1299526568
 10
-1.9558025659
 20
-66.1599389973
 10
-1.9193753344
 20
-66.1879497726
 10
-1.8815317764
 20
-66.2135189236
 10
-1.8425700498
 20
-66.2364655252
 10
-1.8021919966
 20
-66.2569705025
 10
-1.7599682475
 20
-66.2751105711
 10
-1.7160579548
 20
-66.2909756811
 10
-1.6703019662
 20
-66.3044758824
 10
-1.6217934554
 20
-66.3154180411
 10
-1.569689947
 20
-66.3238872531
 10
-1.5148339164
 20
-66.3297984226
 10
-1.458845964
 20
-66.3327031278
 10
-1.4010958054
 20
-66.3323838203
 10
-1.3422137249
 20
-66.3290580484
 10
-1.2857111758
 20
-66.3229300352
 10
-1.2328554122
 20
-66.3139585114
 10
-1.1823791801
 20
-66.3021847462
 10
-1.1339921707
 20
-66.2879367702
 10
-1.0878234687
 20
-66.2713636092
 10
-1.0437439894
 20
-66.2523162374
 10
-1.0010761709
 20
-66.2306756083
 10
-0.9595772429
 20
-66.2063770228
 10
-0.9194899757
 20
-66.17948518
 10
-0.8808651177
 20
-66.1500751306
 10
-0.8432905105
 20
-66.117720165
 10
-0.8071783125
 20
-66.0828469928
 10
-0.7738157466
 20
-66.0468107929
 10
-0.7435933511
 20
-66.0098939119
 10
-0.7161205877
 20
-65.9718140032
 10
-0.6915130643
 20
-65.9330792058
 10
-0.6699397986
 20
-65.8941079332
 10
-0.651231773
 20
-65.8544817717
 10
-0.6349975416
 20
-65.8134536204
 10
-0.6210489793
 20
-65.7706885726
 10
-0.6095742113
 20
-65.7265215349
 10
-0.6007461673
 20
-65.6812101253
 10
-0.5946636379
 20
-65.6340937374
 10
-0.5912278326
 20
-65.5858329775
 10
-0.5903153094
 20
-65.5386672826
 10
-0.5919754972
 20
-65.4930574464
 10
-0.5961589671
 20
-65.4485426752
  0
LWPOLYLINE
  5
36D
100
AcDbEntity
  8
0
100
AcDbPolyline
 62
7
  6
CONTINUOUS
 90
28
 70
0
 10
4.0598194758
 20
-57.1626028742
 10
4.0562904141
 20
-57.1132337332
 10
4.0502955339
 20
-57.0655194188
 10
4.0418348354
 20
-57.0194599308
 10
4.0308299368
 20
-56.9750841205
 10
4.0173592197
 20
-56.9323631366
 10
4.0016578291
 20
-56.8912104261
 10
3.9837227288
 20
-56.8515523555
 10
3.963556955
 20
-56.8134625582
 10
3.9414047607
 20
-56.7770753808
 10
3.917288296
 20
-56.7423903958
 10
3.8911854109
 20
-56.7094080307
 10
3.8632739085
 20
-56.6782639142
 10
3.833904876
 20
-56.6491540543
 10
3.8027272263
 20
-56.6218824431
 10
3.7688655013
 20
-56.5959966859
 10
3.7322176446
 20
-56.5713109062
 10
3.6928857127
 20
-56.5480109805
 10
3.6503004165
 20
-56.5262021432
 10
3.604264816
 20
-56.5057149749
 10
3.5549758513
 20
-56.486718895
 10
3.5024550533
 20
-56.4698273965
 10
3.4467164262
 20
-56.4550587233
 10
3.3877459657
 20
-56.4423946315
 10
3.3255231904
 20
-56.4323938823
 10
3.2600412729
 20
-56.4252427292
 10
3.1913070406
 20
-56.4207549187
 10
3.1193204933
 20
-56.4189304507
  0
LWPOLYLINE
  5
36E
100
AcDbEntity
  8
0
100
AcDbPolyline
 62
7
  6
CONTINUOUS
 90
31
 70
0
 10
2.1475189581
 20
-58.1491071095
 10
2.1504965612
 20
-58.2022274468
 10
2.1558796179
 20
-58.2536370847
 10
2.163668128
 20
-58.3033360232
 10
2.1739106248
 20
-58.3512117482
 10
2.1865585752
 20
-58.3973767739
 10
2.2014663796
 20
-58.442168642
 10
2.2186565289
 20
-58.4857336627
 10
2.2381065322
 20
-58.5279255258
 10
2.2596033185
 20
-58.568642844
 10
2.2832410362
 20
-58.608027348
 10
2.3089255368
 20
-58.645937307
 10
2.336161303
 20
-58.6818461409
 10
2.3647004842
 20
-58.7154964186
 10
2.3947909309
 20
-58.7471455712
 10
2.4266806784
 20
-58.7770393114
 10
2.4602456872
 20
-58.8051732567
 10
2.4956099967
 20
-58.8315517896
 10
2.5333937604
 20
-58.8564337701
 10
2.5736850018
 20
-58.879995282
 10
2.6163956974
 20
-58.9020602416
 10
2.6618819308
 20
-58.9223592579
 10
2.7101450031
 20
-58.9409048427
 10
2.7611836133
 20
-58.9576844843
 10
2.8153499415
 20
-58.9723912567
 10
2.8728546199
 20
-58.9850077526
 10
2.9334870163
 20
-58.9955513793
 10
2.996967415
 20
-59.0037674317
 10
3.0632025774
 20
-59.0095710083
 10
3.1322857419
 20
-59.0130470107
 10
3.2042169087
 20
-59.0141954389
  0
LWPOLYLINE
  5
36F
100
AcDbEntity
  8
0
100
AcDbPolyline
 62
7
  6
CONTINUOUS
 90
64
 70
0
 10
-6.1146910118
 20
-65.0514991048
 10
-6.1137822768
 20
-65.1347445386
 10
-6.1111457086
 20
-65.2149906901
 10
-6.1067813073
 20
-65.2922375592
 10
-6.1006703995
 20
-65.3664705921
 10
-6.0928316586
 20
-65.4377043427
 10
-6.0833211048
 20
-65.5059824722
 10
-6.0721141018
 20
-65.5713194949
 10
-6.059235286
 20
-65.6337008965
 10
-6.044814586
 20
-65.6931267958
 10
-6.028823157
 20
-65.7495601801
 10
-6.0112898439
 20
-65.8030380622
 10
-5.9924311105
 20
-65.8536715985
 10
-5.9722612157
 20
-65.9015855702
 10
-5.9507659006
 20
-65.9466551961
 10
-5.9281188514
 20
-65.9886172895
 10
-5.9045175483
 20
-66.0271303838
 10
-5.8797645112
 20
-66.0625359455
 10
-5.8534409863
 20
-66.0955951882
 10
-5.8254423883
 20
-66.1264280317
 10
-5.7958733025
 20
-66.1549145562
 10
-5.7646287315
 20
-66.1814562154
 10
-5.7316192522
 20
-66.2062759022
 10
-5.6969342877
 20
-66.2291507237
 10
-5.6607371096
 20
-66.2498134549
 10
-5.6233306704
 20
-66.2681757642
 10
-5.5844120175
 20
-66.2843259832
 10
-5.5432355651
 20
-66.2982618822
 10
-5.4993975618
 20
-66.3101049457
 10
-5.453301759
 20
-66.3197336892
 10
-5.4054138247
 20
-66.3267814291
 10
-5.3548167143
 20
-66.3311056627
 10
-5.3024274724
 20
-66.3328488927
 10
-5.251462901
 20
-66.3320719443
 10
-5.2027402084
 20
-66.328704658
 10
-5.1554421862
 20
-66.3228171933
 10
-5.110334011
 20
-66.3146808537
 10
-5.0678884625
 20
-66.304364557
 10
-5.0276327611
 20
-66.2917993854
 10
-4.9889137445
 20
-66.2770498889
 10
-4.9515597595
 20
-66.2601336903
 10
-4.9157424593
 20
-66.2410331668
 10
-4.881323642
 20
-66.21976
 10
-4.8484500197
 20
-66.1965801298
 10
-4.8169748803
 20
-66.1712276164
 10
-4.7863198862
 20
-66.1429163215
 10
-4.7562257543
 20
-66.1115647928
 10
-4.7269517678
 20
-66.0772544827
 10
-4.6986974383
 20
-66.0394436103
 10
-4.6713242887
 20
-65.9979728826
 10
-4.6449707962
 20
-65.9530015925
 10
-4.620251903
 20
-65.9044658381
 10
-4.5972435961
 20
-65.8523278469
 10
-4.5758698887
 20
-65.7966253913
 10
-4.5565177624
 20
-65.7374078862
 10
-4.5392909417
 20
-65.674644697
 10
-4.5240857022
 20
-65.6083664582
 10
-4.5109778518
 20
-65.5387144883
 10
-4.500027903
 20
-65.4657084104
 10
-4.4911753435
 20
-65.3893286014
 10
-4.484314444
 20
-65.3096575103
 10
-4.4794099617
 20
-65.22672262
 10
-4.4764971396
 20
-65.1404964476
 10
-4.4755759775
 20
-65.0509789932
  0
LWPOLYLINE
  5
370
100
AcDbEntity
  8
0
100
AcDbPolyline
 62
7
  6
CONTINUOUS
 90
64
 70
0
 10
-4.4755759775
 20
-65.0509789932
 10
-4.4761885793
 20
-64.9658484224
 10
-4.4785886273
 20
-64.8837462452
 10
-4.4827761215
 20
-64.8046724615
 10
-4.4886160564
 20
-64.7285486239
 10
-4.4962434375
 20
-64.6554531798
 10
-4.5060632812
 20
-64.5856214719
 10
-4.5184079117
 20
-64.5191594106
 10
-4.5329450049
 20
-64.4559610854
 10
-4.5490826046
 20
-64.3959441073
 10
-4.5667624397
 20
-64.3391741445
 10
-4.5860427813
 20
-64.2855855286
 10
-4.6065064867
 20
-64.2348988663
 10
-4.6280477093
 20
-64.1869500854
 10
-4.6507722956
 20
-64.141903258
 10
-4.6745806417
 20
-64.0999712066
 10
-4.699487576
 20
-64.0613142225
 10
-4.7254782701
 20
-64.0257720143
 10
-4.752408635
 20
-63.9930765309
 10
-4.7799896394
 20
-63.9634535579
 10
-4.8085103146
 20
-63.9366773096
 10
-4.8386936662
 20
-63.9118023773
 10
-4.8706978169
 20
-63.8885188197
 10
-4.904364644
 20
-63.8671365781
 10
-4.9399427845
 20
-63.8476400669
 10
-4.9775256871
 20
-63.8299024678
 10
-5.0170199032
 20
-63.814050599
 10
-5.0583937241
 20
-63.8004493292
 10
-5.1016806229
 20
-63.7891287294
 10
-5.1468471266
 20
-63.7800587286
 10
-5.1937611074
 20
-63.7735139822
 10
-5.2432841756
 20
-63.7695750294
 10
-5.2945547209
 20
-63.7681613311
 10
-5.3448557849
 20
-63.7693059255
 10
-5.3937477383
 20
-63.7731188868
 10
-5.4416702104
 20
-63.7794901408
 10
-5.4872251307
 20
-63.788122503
 10
-5.5297135737
 20
-63.7989684339
 10
-5.5698344649
 20
-63.8120754731
 10
-5.6082865099
 20
-63.8272890543
 10
-5.6451729222
 20
-63.8445104093
 10
-5.6803904881
 20
-63.8638383063
 10
-5.7143282726
 20
-63.8854144849
 10
-5.7469875464
 20
-63.9090764343
 10
-5.7783670386
 20
-63.9349866652
 10
-5.8088520017
 20
-63.9637744492
 10
-5.8386162697
 20
-63.9954661552
 10
-5.8674860085
 20
-64.0300354141
 10
-5.8953249689
 20
-64.0680323903
 10
-5.9222822151
 20
-64.109617348
 10
-5.9482086828
 20
-64.154630023
 10
-5.9725209305
 20
-64.2031397862
 10
-5.9951503295
 20
-64.2551840971
 10
-6.0161655084
 20
-64.3107254963
 10
-6.0351889116
 20
-64.3697209771
 10
-6.0521178996
 20
-64.432202913
 10
-6.0670551119
 20
-64.4981389306
 10
-6.0799309107
 20
-64.5673889029
 10
-6.0906874809
 20
-64.6399321368
 10
-6.0993826376
 20
-64.7157893254
 10
-6.1061201883
 20
-64.7948824212
 10
-6.1109347354
 20
-64.8771854085
 10
-6.1137916766
 20
-64.962724303
 10
-6.1146910118
 20
-65.0514991048
  0
LINE
  5
371
100
AcDbEntity
  8
0
100
AcDbLine
 62
7
  6
CONTINUOUS
 10
-10.0
 20
-67.4957969412
 11
-10.0
 21
-70.0
  0
LINE
  5
372
100
AcDbEntity
  8
0
100
AcDbLine
 62
7
  6
CONTINUOUS
 10
-9.6661062588
 20
-70.0
 11
-9.6661062588
 21
-67.4957969412
  0
LINE
  5
373
100
AcDbEntity
  8
0
100
AcDbLine
 62
7
  6
CONTINUOUS
 10
-9.2563275765
 20
-67.4957969412
 11
-9.2563275765
 21
-67.7841597177
  0
LINE
  5
374
100
AcDbEntity
  8
0
100
AcDbLine
 62
7
  6
CONTINUOUS
 10
-8.4367702118
 20
-67.7841597177
 11
-8.4367702118
 21
-70.0
  0
LINE
  5
375
100
AcDbEntity
  8
0
100
AcDbLine
 62
7
  6
CONTINUOUS
 10
-8.1028764706
 20
-70.0
 11
-8.1028764706
 21
-67.7841597177
  0
LINE
  5
376
100
AcDbEntity
  8
0
100
AcDbLine
 62
7
  6
CONTINUOUS
 10
-8.0166664839
 20
47.05
 11
-8.0166664839
 21
44.75
  0
LINE
  5
377
100
AcDbEntity
  8
0
100
AcDbLine
 62
7
  6
CONTINUOUS
 10
-7.7291664839
 20
45.0436170205
 11
-7.7291664839
 21
46.7563830137
  0
LINE
  5
378
100
AcDbEntity
  8
0
100
AcDbLine
 62
7
  6
CONTINUOUS
 10
-7.3988066419
 20
-56.4644614154
 11
-7.3988066419
 21
-58.9686644742
  0
LINE
  5
379
100
AcDbEntity
  8
0
100
AcDbLine
 62
7
  6
CONTINUOUS
 10
-7.3988066419
 20
-60.1314552652
 11
-7.3988066419
 21
-62.635658324
  0
LINE
  5
37A
100
AcDbEntity
  8
0
100
AcDbLine
 62
7
  6
CONTINUOUS
 10
-7.2833191059
 20
-67.7841597177
 11
-7.2833191059
 21
-67.4957969412
  0
LINE
  5
37B
100
AcDbEntity
  8
0
100
AcDbLine
 62
7
  6
CONTINUOUS
 10
-7.0649129007
 20
-62.635658324
 11
-7.0649129007
 21
-60.1314552652
  0
LINE
  5
37C
100
AcDbEntity
  8
0
100
AcDbLine
 62
7
  6
CONTINUOUS
 10
-7.0649129007
 20
-58.9686644742
 11
-7.0649129007
 21
-56.4644614154
  0
LINE
  5
37D
100
AcDbEntity
  8
0
100
AcDbLine
 62
7
  6
CONTINUOUS
 10
-6.503364336
 20
-56.4644614154
 11
-6.503364336
 21
-58.9686644742
  0
LINE
  5
37E
100
AcDbEntity
  8
0
100
AcDbLine
 62
7
  6
CONTINUOUS
 10
-6.444
 20
42.65
 11
-6.444
 21
42.3946808815
  0
LINE
  5
37F
100
AcDbEntity
  8
0
100
AcDbLine
 62
7
  6
CONTINUOUS
 10
-6.3875
 20
46.2670212328
 11
-6.3875
 21
45.5329786986
  0
LINE
  5
380
100
AcDbEntity
  8
0
100
AcDbLine
 62
7
  6
CONTINUOUS
 10
-6.1694705948
 20
-58.9686644742
 11
-6.1694705948
 21
-56.8438861213
  0
LINE
  5
381
100
AcDbEntity
  8
0
100
AcDbLine
 62
7
  6
CONTINUOUS
 10
-6.1
 20
45.5329786986
 11
-6.1
 21
46.2670212328
  0
LINE
  5
382
100
AcDbEntity
  8
0
100
AcDbLine
 62
7
  6
CONTINUOUS
 10
-6.010836
 20
55.100104
 11
-6.010849
 21
49.899857
  0
LINE
  5
383
100
AcDbEntity
  8
0
100
AcDbLine
 62
7
  6
CONTINUOUS
 10
-5.7166664839
 20
47.05
 11
-5.7166664839
 21
44.75
  0
LINE
  5
384
100
AcDbEntity
  8
0
100
AcDbLine
 62
7
  6
CONTINUOUS
 10
-5.4291664839
 20
45.0436170205
 11
-5.4291664839
 21
45.8265957534
  0
LINE
  5
385
100
AcDbEntity
  8
0
100
AcDbLine
 62
7
  6
CONTINUOUS
 10
-5.4291664839
 20
46.1202127397
 11
-5.4291664839
 21
46.7563830137
  0
LINE
  5
386
100
AcDbEntity
  8
0
100
AcDbLine
 62
7
  6
CONTINUOUS
 10
-4.97081
 20
49.89987
 11
-4.970797
 21
55.100104
  0
LINE
  5
387
100
AcDbEntity
  8
0
100
AcDbLine
 62
7
  6
CONTINUOUS
 10
-4.642523153
 20
-67.4957969412
 11
-4.642523153
 21
-70.0
  0
LINE
  5
388
100
AcDbEntity
  8
0
100
AcDbLine
 62
7
  6
CONTINUOUS
 10
-4.4241169477
 20
-56.8742400978
 11
-4.4241169477
 21
-58.9686644742
  0
LINE
  5
389
100
AcDbEntity
  8
0
100
AcDbLine
 62
7
  6
CONTINUOUS
 10
-4.3086294118
 20
-69.7116372235
 11
-4.3086294118
 21
-67.4957969412
  0
LINE
  5
38A
100
AcDbEntity
  8
0
100
AcDbLine
 62
7
  6
CONTINUOUS
 10
-4.1833335161
 20
45.8265957534
 11
-4.1833335161
 21
46.1202127397
  0
LINE
  5
38B
100
AcDbEntity
  8
0
100
AcDbLine
 62
7
  6
CONTINUOUS
 10
-4.1661081478
 20
-60.1314552652
 11
-4.1661081478
 21
-62.635658324
  0
LINE
  5
38C
100
AcDbEntity
  8
0
100
AcDbLine
 62
7
  6
CONTINUOUS
 10
-4.0902232066
 20
-58.9686644742
 11
-4.0902232066
 21
-56.4644614154
  0
LINE
  5
38D
100
AcDbEntity
  8
0
100
AcDbLine
 62
7
  6
CONTINUOUS
 10
-3.9916664839
 20
44.75
 11
-3.9916664839
 21
45.0436170205
  0
LINE
  5
38E
100
AcDbEntity
  8
0
100
AcDbLine
 62
7
  6
CONTINUOUS
 10
-3.9916664839
 20
46.7563830137
 11
-3.9916664839
 21
47.05
  0
LINE
  5
38F
100
AcDbEntity
  8
0
100
AcDbLine
 62
7
  6
CONTINUOUS
 10
-3.930797
 20
55.100104
 11
-3.930797
 21
49.89987
  0
LINE
  5
390
100
AcDbEntity
  8
0
100
AcDbLine
 62
7
  6
CONTINUOUS
 10
-3.8322144066
 20
-62.3472955475
 11
-3.8322144066
 21
-60.1314552652
  0
LINE
  5
391
100
AcDbEntity
  8
0
100
AcDbLine
 62
7
  6
CONTINUOUS
 10
-3.402
 20
42.3946808815
 11
-3.402
 21
42.65
  0
LINE
  5
392
100
AcDbEntity
  8
0
100
AcDbLine
 62
7
  6
CONTINUOUS
 10
-3.0641163765
 20
-70.0
 11
-3.0641163765
 21
-69.7116372235
  0
LINE
  5
393
100
AcDbEntity
  8
0
100
AcDbLine
 62
7
  6
CONTINUOUS
 10
-2.890758
 20
49.89987
 11
-2.890758
 21
53.329075
  0
LINE
  5
394
100
AcDbEntity
  8
0
100
AcDbLine
 62
7
  6
CONTINUOUS
 10
-2.7260001612
 20
40.5053191543
 11
-2.7260001612
 21
40.25
  0
LINE
  5
395
100
AcDbEntity
  8
0
100
AcDbLine
 62
7
  6
CONTINUOUS
 10
-2.5877013713
 20
-62.635658324
 11
-2.5877013713
 21
-62.3472955475
  0
LINE
  5
396
100
AcDbEntity
  8
0
100
AcDbLine
 62
7
  6
CONTINUOUS
 10
-2.1930996772
 20
-60.1314552652
 11
-2.1930996772
 21
-62.635658324
  0
LINE
  5
397
100
AcDbEntity
  8
0
100
AcDbLine
 62
7
  6
CONTINUOUS
 10
-1.9846530593
 20
-68.9392706004
 11
-1.9846530593
 21
-70.0
  0
LINE
  5
398
100
AcDbEntity
  8
0
100
AcDbLine
 62
7
  6
CONTINUOUS
 10
-1.859205936
 20
-62.3472955475
 11
-1.859205936
 21
-61.4822072181
  0
LINE
  5
399
100
AcDbEntity
  8
0
100
AcDbLine
 62
7
  6
CONTINUOUS
 10
-1.859205936
 20
-61.1938444416
 11
-1.859205936
 21
-60.4198180416
  0
LINE
  5
39A
100
AcDbEntity
  8
0
100
AcDbLine
 62
7
  6
CONTINUOUS
 10
-1.6507593181
 20
-70.0
 11
-1.6507593181
 21
-68.9392706004
  0
LINE
  5
39B
100
AcDbEntity
  8
0
100
AcDbLine
 62
7
  6
CONTINUOUS
 10
-1.3083329678
 20
47.05
 11
-1.3083329678
 21
44.75
  0
LINE
  5
39C
100
AcDbEntity
  8
0
100
AcDbLine
 62
7
  6
CONTINUOUS
 10
-1.2217724301
 20
-56.4644614154
 11
-1.2217724301
 21
-58.9686644742
  0
LINE
  5
39D
100
AcDbEntity
  8
0
100
AcDbLine
 62
7
  6
CONTINUOUS
 10
-1.0208329678
 20
44.75
 11
-1.0208329678
 21
47.05
  0
LINE
  5
39E
100
AcDbEntity
  8
0
100
AcDbLine
 62
7
  6
CONTINUOUS
 10
-0.8878786889
 20
-58.9686644742
 11
-0.8878786889
 21
-57.8607443331
  0
LINE
  5
39F
100
AcDbEntity
  8
0
100
AcDbLine
 62
7
  6
CONTINUOUS
 10
-0.8878786889
 20
-57.5723815566
 11
-0.8878786889
 21
-56.7528241919
  0
LINE
  5
3A0
100
AcDbEntity
  8
ASSI
100
AcDbLine
 62
7
  6
CONTINUOUS
 10
-0.867554
 20
-46.5480370082
 11
-0.867554
 21
-45.7972200086
  0
LINE
  5
3A1
100
AcDbEntity
  8
ASSI
100
AcDbLine
 62
7
  6
CONTINUOUS
 10
-0.867554
 20
-42.20278
 11
-0.867554
 21
-41.451963
  0
LINE
  5
3A2
100
AcDbEntity
  8
0
100
AcDbLine
 62
7
  6
CONTINUOUS
 10
-0.6375
 20
47.05
 11
-0.6375
 21
44.75
  0
LINE
  5
3A3
100
AcDbEntity
  8
0
100
AcDbLine
 62
7
  6
CONTINUOUS
 10
-0.4932769948
 20
-61.4822072181
 11
-0.4932769948
 21
-61.1938444416
  0
LINE
  5
3A4
100
AcDbEntity
  8
0
100
AcDbLine
 62
7
  6
CONTINUOUS
 10
-0.4022150654
 20
-60.4198180416
 11
-0.4022150654
 21
-60.1314552652
  0
LINE
  5
3A5
100
AcDbEntity
  8
0
100
AcDbLine
 62
7
  6
CONTINUOUS
 10
-0.35
 20
44.75
 11
-0.35
 21
46.7563830137
  0
LINE
  5
3A6
100
AcDbEntity
  8
0
100
AcDbLine
 62
7
  6
CONTINUOUS
 10
-0.3415071125
 20
-62.635658324
 11
-0.3415071125
 21
-62.3472955475
  0
LINE
  5
3A7
100
AcDbEntity
  8
0
100
AcDbLine
 62
7
  6
CONTINUOUS
 10
-0.1909996777
 20
42.0882979393
 11
-0.1909996777
 21
41.9861701488
  0
LINE
  5
3A8
100
AcDbEntity
  8
0
100
AcDbLine
 62
7
  6
CONTINUOUS
 10
0.115843
 20
53.329075
 11
0.115856
 21
49.89987
  0
LINE
  5
3A9
100
AcDbEntity
  8
0
100
AcDbLine
 62
7
  6
CONTINUOUS
 10
0.3160003223
 20
40.25
 11
0.3160003223
 21
40.5053191543
  0
LINE
  5
3AA
100
AcDbEntity
  8
0
100
AcDbLine
 62
7
  6
CONTINUOUS
 10
0.3160003223
 20
41.9861701488
 11
0.3160003223
 21
42.0882979393
  0
LINE
  5
3AB
100
AcDbEntity
  8
0
100
AcDbLine
 62
7
  6
CONTINUOUS
 10
0.775661647
 20
-63.7832721267
 11
0.775661647
 21
-66.2874751855
  0
LINE
  5
3AC
100
AcDbEntity
  8
0
100
AcDbLine
 62
7
  6
CONTINUOUS
 10
0.9916670322
 20
47.05
 11
0.9916670322
 21
45.0925531849
  0
LINE
  5
3AD
100
AcDbEntity
  8
0
100
AcDbLine
 62
7
  6
CONTINUOUS
 10
0.9919996777
 20
42.2925532341
 11
0.9919996777
 21
41.8840425014
  0
LINE
  5
3AE
100
AcDbEntity
  8
0
100
AcDbLine
 62
7
  6
CONTINUOUS
 10
1.1095553882
 20
-66.2874751855
 11
1.1095553882
 21
-64.1626968326
  0
LINE
  5
3AF
100
AcDbEntity
  8
0
100
AcDbLine
 62
7
  6
CONTINUOUS
 10
1.155895
 20
49.89987
 11
1.155895
 21
55.100104
  0
LINE
  5
3B0
100
AcDbEntity
  8
0
100
AcDbLine
 62
7
  6
CONTINUOUS
 10
1.2791670322
 20
44.75
 11
1.2791670322
 21
47.05
  0
LINE
  5
3B1
100
AcDbEntity
  8
0
100
AcDbLine
 62
7
  6
CONTINUOUS
 10
1.4989996777
 20
42.2414894104
 11
1.4989996777
 21
40.25
  0
LWPOLYLINE
  5
3B2
100
AcDbEntity
  8
0
100
AcDbPolyline
 62
7
  6
CONTINUOUS
 90
19
 70
0
 10
-5.8111512471
 20
-65.0505505286
 10
-5.810856444
 20
-64.9867412529
 10
-5.8096122561
 20
-64.9249267828
 10
-5.8074186833
 20
-64.8651071184
 10
-5.8042878565
 20
-64.8073288281
 10
-5.8002076449
 20
-64.7515453435
 10
-5.7951416557
 20
-64.6976169588
 10
-5.7890759047
 20
-64.645517341
 10
-5.7820243762
 20
-64.5952728231
 10
-5.7739926298
 20
-64.5468226977
 10
-5.7650624582
 20
-64.4999996177
 10
-5.7551520688
 20
-64.4549709301
 10
-5.744021644
 20
-64.4121779696
 10
-5.7315933705
 20
-64.3716889985
 10
-5.7179450615
 20
-64.3334357543
 10
-5.70307034
 20
-64.2976547845
 10
-5.6869670802
 20
-64.2644249382
 10
-5.6696374077
 20
-64.2336673662
 10
-5.6510813226
 20
-64.2053820686
  0
LWPOLYLINE
  5
3B3
100
AcDbEntity
  8
0
100
AcDbPolyline
 62
7
  6
CONTINUOUS
 90
19
 70
0
 10
-7.7689827294
 20
-64.9957711771
 10
-7.7677574023
 20
-64.9205944651
 10
-7.7645453483
 20
-64.8483238112
 10
-7.7593465672
 20
-64.7789592154
 10
-7.7522139518
 20
-64.7124097417
 10
-7.7430946094
 20
-64.6487663261
 10
-7.731829862
 20
-64.5883017765
 10
-7.7183404536
 20
-64.5311324281
 10
-7.7027056403
 20
-64.4771419457
 10
-7.6850045123
 20
-64.4262541319
 10
-7.6650199961
 20
-64.3784366407
 10
-7.6429691652
 20
-64.3337218181
 10
-7.6195823305
 20
-64.2921305054
 10
-7.5948580638
 20
-64.2536720061
 10
-7.5687977932
 20
-64.2183370167
 10
-7.542136114
 20
-64.1861184677
 10
-7.5151178911
 20
-64.1570140026
 10
-7.4874982595
 20
-64.1310259779
 10
-7.4592772192
 20
-64.1081543936
  0
LWPOLYLINE
  5
3B4
100
AcDbEntity
  8
0
100
AcDbPolyline
 62
7
  6
CONTINUOUS
 90
19
 70
0
 10
-3.8836737412
 20
-64.9957711771
 10
-3.8824484141
 20
-64.9205944651
 10
-3.87923636
 20
-64.8483238112
 10
-3.8740375789
 20
-64.7789592154
 10
-3.8669049635
 20
-64.7124097417
 10
-3.8577856211
 20
-64.6487663261
 10
-3.8465208738
 20
-64.5883017765
 10
-3.8330314654
 20
-64.5311324281
 10
-3.8173966521
 20
-64.4771419457
 10
-3.7996955241
 20
-64.4262541319
 10
-3.7797110078
 20
-64.3784366407
 10
-3.757660177
 20
-64.3337218181
 10
-3.7342733422
 20
-64.2921305054
 10
-3.7095490755
 20
-64.2536720061
 10
-3.683488805
 20
-64.2183370167
 10
-3.6568271258
 20
-64.1861184677
 10
-3.6298089029
 20
-64.1570140026
 10
-3.6021892713
 20
-64.1310259779
 10
-3.5739682309
 20
-64.1081543936
  0
LWPOLYLINE
  5
3B5
100
AcDbEntity
  8
0
100
AcDbPolyline
 62
7
  6
CONTINUOUS
 90
16
 70
0
 10
-8.8010179294
 20
-64.4164370395
 10
-8.8018586988
 20
-64.4457038037
 10
-8.8040896603
 20
-64.4736565864
 10
-8.8077108138
 20
-64.5002953874
 10
-8.8127440404
 20
-64.5255825983
 10
-8.819167459
 20
-64.5495558276
 10
-8.8269154264
 20
-64.572327901
 10
-8.8359458243
 20
-64.5938161296
 10
-8.846300771
 20
-64.6141032022
 10
-8.8580409779
 20
-64.6335500118
 10
-8.871249829
 20
-64.652335816
 10
-8.8858439404
 20
-64.6702813572
 10
-8.9016338714
 20
-64.6872097546
 10
-8.918556475
 20
-64.703062048
 10
-8.9366748981
 20
-64.7178971977
 10
-8.9559891408
 20
-64.7317152036
  0
LWPOLYLINE
  5
3B6
100
AcDbEntity
  8
0
100
AcDbPolyline
 62
7
  6
CONTINUOUS
 90
16
 70
0
 10
-1.030399953
 20
-64.4164370395
 10
-1.0312407224
 20
-64.4457038037
 10
-1.0334716838
 20
-64.4736565864
 10
-1.0370928373
 20
-64.5002953874
 10
-1.0421260639
 20
-64.5255825983
 10
-1.0485494825
 20
-64.5495558276
 10
-1.0562974499
 20
-64.572327901
 10
-1.0653278478
 20
-64.5938161296
 10
-1.0756827945
 20
-64.6141032022
 10
-1.0874230014
 20
-64.6335500118
 10
-1.1006318526
 20
-64.652335816
 10
-1.115225964
 20
-64.6702813572
 10
-1.1310158949
 20
-64.6872097546
 10
-1.1479384985
 20
-64.703062048
 10
-1.1660569216
 20
-64.7178971977
 10
-1.1853711643
 20
-64.7317152036
  0
LWPOLYLINE
  5
3B7
100
AcDbEntity
  8
0
100
AcDbPolyline
 62
7
  6
CONTINUOUS
 90
49
 70
0
 10
-7.7234517647
 20
-65.4759804873
 10
-7.7219841229
 20
-65.4326599006
 10
-7.7183869126
 20
-65.3914577336
 10
-7.7126601337
 20
-65.3523739863
 10
-7.7047212496
 20
-65.3155374385
 10
-7.6946527969
 20
-65.2808193104
 10
-7.6827023856
 20
-65.2478332628
 10
-7.6690207282
 20
-65.2166569982
 10
-7.6534571122
 20
-65.1872128141
 10
-7.6358070107
 20
-65.1588812643
 10
-7.6158628197
 20
-65.1313161702
 10
-7.5938321432
 20
-65.1048637105
 10
-7.5701332661
 20
-65.0799429744
 10
-7.5445763816
 20
-65.0564456006
 10
-7.5173512966
 20
-65.0344799504
 10
-7.4894457165
 20
-65.0147901969
 10
-7.4612796854
 20
-64.9976938334
 10
-7.4324331592
 20
-64.9828733665
 10
-7.4026337108
 20
-64.97012049
 10
-7.3719563038
 20
-64.9593535571
 10
-7.3403259746
 20
-64.9506542144
 10
-7.3072454053
 20
-64.9440590961
 10
-7.2719989009
 20
-64.9395352701
 10
-7.2353021564
 20
-64.9371156684
 10
-7.1988049396
 20
-64.9369357208
 10
-7.1625633884
 20
-64.9391235281
 10
-7.126521365
 20
-64.9435509895
 10
-7.0921602233
 20
-64.9499692319
 10
-7.0600931527
 20
-64.9583353125
 10
-7.0297069638
 20
-64.9686921742
 10
-7.0006434422
 20
-64.9809197731
 10
-6.9728632884
 20
-64.9949541258
 10
-6.9464058019
 20
-65.0108592157
 10
-6.921030667
 20
-65.0287069494
 10
-6.896523945
 20
-65.0486178678
 10
-6.8730995747
 20
-65.0704714301
 10
-6.8511590564
 20
-65.0939779197
 10
-6.8307686074
 20
-65.119004735
 10
-6.8118620104
 20
-65.1456844776
 10
-6.7946421141
 20
-65.1741252367
 10
-6.7791422763
 20
-65.2041703889
 10
-6.7653291392
 20
-65.2359765576
 10
-6.7533054781
 20
-65.2701217017
 10
-6.7429843464
 20
-65.3068388047
 10
-6.7344526906
 20
-65.3458948832
 10
-6.7280741263
 20
-65.3871689448
 10
-6.7239698585
 20
-65.4306206591
 10
-6.7220186822
 20
-65.4762903566
 10
-6.7222205972
 20
-65.5241780374
  0
LWPOLYLINE
  5
3B8
100
AcDbEntity
  8
0
100
AcDbPolyline
 62
7
  6
CONTINUOUS
 90
49
 70
0
 10
-3.8381427765
 20
-65.4759804873
 10
-3.8366751347
 20
-65.4326599006
 10
-3.8330779244
 20
-65.3914577336
 10
-3.8273511455
 20
-65.3523739863
 10
-3.8194122613
 20
-65.3155374385
 10
-3.8093438086
 20
-65.2808193104
 10
-3.7973933974
 20
-65.2478332628
 10
-3.7837117399
 20
-65.2166569982
 10
-3.7681481239
 20
-65.1872128141
 10
-3.7504980224
 20
-65.1588812643
 10
-3.7305538314
 20
-65.1313161702
 10
-3.7085231549
 20
-65.1048637105
 10
-3.6848242779
 20
-65.0799429744
 10
-3.6592673934
 20
-65.0564456006
 10
-3.6320423084
 20
-65.0344799504
 10
-3.6041367282
 20
-65.0147901969
 10
-3.5759706972
 20
-64.9976938334
 10
-3.547124171
 20
-64.9828733665
 10
-3.5173247226
 20
-64.97012049
 10
-3.4866473156
 20
-64.9593535571
 10
-3.4550169864
 20
-64.9506542144
 10
-3.4219364171
 20
-64.9440590961
 10
-3.3866899126
 20
-64.9395352701
 10
-3.3499931681
 20
-64.9371156684
 10
-3.3134959514
 20
-64.9369357208
 10
-3.2772544002
 20
-64.9391235281
 10
-3.2412123768
 20
-64.9435509895
 10
-3.206851235
 20
-64.9499692319
 10
-3.1747841644
 20
-64.9583353125
 10
-3.1443979756
 20
-64.9686921742
 10
-3.115334454
 20
-64.9809197731
 10
-3.0875543002
 20
-64.9949541258
 10
-3.0610968136
 20
-65.0108592157
 10
-3.0357216787
 20
-65.0287069494
 10
-3.0112149568
 20
-65.0486178678
 10
-2.9877905864
 20
-65.0704714301
 10
-2.9658500682
 20
-65.0939779197
 10
-2.9454596192
 20
-65.119004735
 10
-2.9265530222
 20
-65.1456844776
 10
-2.9093331259
 20
-65.1741252367
 10
-2.8938332881
 20
-65.2041703889
 10
-2.880020151
 20
-65.2359765576
 10
-2.8679964899
 20
-65.2701217017
 10
-2.8576753581
 20
-65.3068388047
 10
-2.8491437024
 20
-65.3458948832
 10
-2.8427651381
 20
-65.3871689448
 10
-2.8386608703
 20
-65.4306206591
 10
-2.8367096939
 20
-65.4762903566
 10
-2.836911609
 20
-65.5241780374
  0
LWPOLYLINE
  5
3B9
100
AcDbEntity
  8
0
100
AcDbPolyline
 62
7
  6
CONTINUOUS
 90
49
 70
0
 10
-6.7222205972
 20
-65.5241780374
 10
-6.7250071423
 20
-65.5707237468
 10
-6.729799613
 20
-65.6149593937
 10
-6.7365980094
 20
-65.6568849779
 10
-6.7454960466
 20
-65.6964426505
 10
-6.7564000095
 20
-65.7336902606
 10
-6.769028752
 20
-65.7688013551
 10
-6.7832900411
 20
-65.8016449664
 10
-6.7992761098
 20
-65.8323520621
 10
-6.8169825113
 20
-65.8614890931
 10
-6.8365865123
 20
-65.8893493858
 10
-6.857910846
 20
-65.9156396137
 10
-6.8804192654
 20
-65.9400462473
 10
-6.9041621662
 20
-65.9625755381
 10
-6.9290891526
 20
-65.9832212347
 10
-6.954512791
 20
-66.001651053
 10
-6.9800868214
 20
-66.0176519833
 10
-7.0061575037
 20
-66.0314370355
 10
-7.0330761844
 20
-66.0433129549
 10
-7.0608138532
 20
-66.0533915128
 10
-7.0893995203
 20
-66.0615609381
 10
-7.119271563
 20
-66.0677926626
 10
-7.1509441314
 20
-66.0721487909
 10
-7.1839030753
 20
-66.0745672185
 10
-7.2170443212
 20
-66.0748330636
 10
-7.2503590083
 20
-66.0728496235
 10
-7.2838559973
 20
-66.0687136009
 10
-7.3164577968
 20
-66.0625002221
 10
-7.3477940345
 20
-66.0542100391
 10
-7.3782350827
 20
-66.0438424998
 10
-7.4078145661
 20
-66.0314711751
 10
-7.436649611
 20
-66.0170674858
 10
-7.4646230911
 20
-66.0006600111
 10
-7.4914172523
 20
-65.9824080595
 10
-7.516967771
 20
-65.9623979007
 10
-7.5413389709
 20
-65.9405432651
 10
-7.5644060686
 20
-65.9167446518
 10
-7.5860650143
 20
-65.8911555761
 10
-7.6064198578
 20
-65.8636225228
 10
-7.6256579653
 20
-65.833585445
 10
-7.6440811773
 20
-65.8006346841
 10
-7.6613876531
 20
-65.7651798986
 10
-7.6768592365
 20
-65.7278900173
 10
-7.6904886872
 20
-65.6886536122
 10
-7.7022832455
 20
-65.6475821113
 10
-7.7115464759
 20
-65.605678727
 10
-7.7180462333
 20
-65.5632778637
 10
-7.7220146629
 20
-65.5200451171
 10
-7.7234517647
 20
-65.4759804873
  0
LWPOLYLINE
  5
3BA
100
AcDbEntity
  8
0
100
AcDbPolyline
 62
7
  6
CONTINUOUS
 90
49
 70
0
 10
-2.836911609
 20
-65.5241780374
 10
-2.8396981541
 20
-65.5707237468
 10
-2.8444906248
 20
-65.6149593937
 10
-2.8512890211
 20
-65.6568849779
 10
-2.8601870584
 20
-65.6964426505
 10
-2.8710910213
 20
-65.7336902606
 10
-2.8837197638
 20
-65.7688013551
 10
-2.8979810529
 20
-65.8016449664
 10
-2.9139671216
 20
-65.8323520621
 10
-2.9316735231
 20
-65.8614890931
 10
-2.951277524
 20
-65.8893493858
 10
-2.9726018578
 20
-65.9156396137
 10
-2.9951102772
 20
-65.9400462473
 10
-3.0188531779
 20
-65.9625755381
 10
-3.0437801644
 20
-65.9832212347
 10
-3.0692038028
 20
-66.001651053
 10
-3.0947778332
 20
-66.0176519833
 10
-3.1208485155
 20
-66.0314370355
 10
-3.1477671962
 20
-66.0433129549
 10
-3.175504865
 20
-66.0533915128
 10
-3.2040905321
 20
-66.0615609381
 10
-3.2339625748
 20
-66.0677926626
 10
-3.2656351432
 20
-66.0721487909
 10
-3.2985940871
 20
-66.0745672185
 10
-3.331735333
 20
-66.0748330636
 10
-3.3650500201
 20
-66.0728496235
 10
-3.3985470091
 20
-66.0687136009
 10
-3.4311488085
 20
-66.0625002221
 10
-3.4624850463
 20
-66.0542100391
 10
-3.4929260945
 20
-66.0438424998
 10
-3.5225055779
 20
-66.0314711751
 10
-3.5513406228
 20
-66.0170674858
 10
-3.5793141029
 20
-66.0006600111
 10
-3.6061082641
 20
-65.9824080595
 10
-3.6316587828
 20
-65.9623979007
 10
-3.6560299826
 20
-65.9405432651
 10
-3.6790970803
 20
-65.9167446518
 10
-3.7007560261
 20
-65.8911555761
 10
-3.7211108696
 20
-65.8636225228
 10
-3.740348977
 20
-65.833585445
 10
-3.758772189
 20
-65.8006346841
 10
-3.7760786649
 20
-65.7651798986
 10
-3.7915502483
 20
-65.7278900173
 10
-3.805179699
 20
-65.6886536122
 10
-3.8169742572
 20
-65.6475821113
 10
-3.8262374876
 20
-65.605678727
 10
-3.8327372451
 20
-65.5632778637
 10
-3.8367056747
 20
-65.5200451171
 10
-3.8381427765
 20
-65.4759804873
  0
LINE
  5
3BB
100
AcDbEntity
  8
0
100
AcDbLine
 62
7
  6
CONTINUOUS
 10
-9.3547407401
 20
-64.8304843149
 11
-9.3898375978
 21
-65.1036701032
  0
LINE
  5
3BC
100
AcDbEntity
  8
0
100
AcDbLine
 62
7
  6
CONTINUOUS
 10
3.1045003223
 20
41.6287233829
 11
3.189
 21
41.9351063251
  0
LINE
  5
3BD
100
AcDbEntity
  8
0
100
AcDbLine
 62
7
  6
CONTINUOUS
 10
5.3014996777
 20
41.2712766171
 11
5.217
 21
40.9648936033
  0
LINE
  5
3BE
100
AcDbEntity
  8
0
100
AcDbLine
 62
7
  6
CONTINUOUS
 10
7.3645840645
 20
45.5329786986
 11
7.7958340645
 21
46.8542553425
  0
LINE
  5
3BF
100
AcDbEntity
  8
0
100
AcDbLine
 62
7
  6
CONTINUOUS
 10
7.125
 20
44.75
 11
7.3166659355
 21
45.3372340411
  0
LINE
  5
3C0
100
AcDbEntity
  8
0
100
AcDbLine
 62
7
  6
CONTINUOUS
 10
5.6395003223
 20
40.9648936033
 11
5.724
 21
41.2202127934
  0
LINE
  5
3C1
100
AcDbEntity
  8
0
100
AcDbLine
 62
7
  6
CONTINUOUS
 10
7.6041659355
 20
47.05
 11
6.8375
 21
44.75
  0
LINE
  5
3C2
100
AcDbEntity
  8
0
100
AcDbLine
 62
7
  6
CONTINUOUS
 10
15.9037989008
 20
-62.635658324
 11
14.9006948129
 21
-60.1314552652
  0
LINE
  5
3C3
100
AcDbEntity
  8
0
100
AcDbLine
 62
7
  6
CONTINUOUS
 10
21.2553473779
 20
-66.2874751855
 11
20.25224329
 21
-63.7832721267
  0
LINE
  5
3C4
100
AcDbEntity
  8
0
100
AcDbLine
 62
7
  6
CONTINUOUS
 10
14.8990348045
 20
-60.9154414841
 11
15.1686636634
 21
-61.603623124
  0
LINE
  5
3C5
100
AcDbEntity
  8
0
100
AcDbLine
 62
7
  6
CONTINUOUS
 10
20.2505832816
 20
-64.5672583456
 11
20.5202121405
 21
-65.2554399855
  0
LINE
  5
3C6
100
AcDbEntity
  8
0
100
AcDbLine
 62
7
  6
CONTINUOUS
 10
22.2755256065
 20
-63.7832721267
 11
23.2383156674
 21
-66.2874751855
  0
LINE
  5
3C7
100
AcDbEntity
  8
0
100
AcDbLine
 62
7
  6
CONTINUOUS
 10
15.2694482677
 20
-61.8768089122
 11
15.5487995699
 21
-62.635658324
  0
LINE
  5
3C8
100
AcDbEntity
  8
0
100
AcDbLine
 62
7
  6
CONTINUOUS
 10
20.6209967448
 20
-65.5286257738
 11
20.900348047
 21
-66.2874751855
  0
LWPOLYLINE
  5
3C9
100
AcDbEntity
  8
0
100
AcDbPolyline
 62
7
  6
CONTINUOUS
 90
3
 70
0
 10
16.6660819755
 20
-65.5348270614
 10
16.6924378598
 20
-65.6131136663
 10
16.7226449491
 20
-65.6894068988
  0
LWPOLYLINE
  5
3CA
100
AcDbEntity
  8
0
100
AcDbPolyline
 62
7
  6
CONTINUOUS
 90
59
 70
0
 10
18.7452157176
 20
-64.4709792469
 10
18.7245006979
 20
-64.4061856078
 10
18.7017126201
 20
-64.3450318736
 10
18.676851484
 20
-64.2875180443
 10
18.6498922137
 20
-64.2338999864
 10
18.6208598852
 20
-64.1839218334
 10
18.5898297267
 20
-64.1368159862
 10
18.5567690851
 20
-64.0924314163
 10
18.5217106135
 20
-64.0509191522
 10
18.4848275001
 20
-64.0119646805
 10
18.4461546395
 20
-63.9754618361
 10
18.405657137
 20
-63.9415167842
 10
18.3634034971
 20
-63.9101335064
 10
18.3195104739
 20
-63.8813196031
 10
18.2738613132
 20
-63.855067474
 10
18.2261742567
 20
-63.8313582996
 10
18.1766258978
 20
-63.8101464907
 10
18.1250396431
 20
-63.7914776365
 10
18.0706039539
 20
-63.7754696858
 10
18.01303483
 20
-63.7619939676
 10
17.9526162715
 20
-63.7511791529
 10
17.8893887408
 20
-63.7435292027
 10
17.8223326545
 20
-63.7390927679
 10
17.752467596
 20
-63.7378211977
 10
17.6828927776
 20
-63.7400725008
 10
17.6141529976
 20
-63.7460129369
 10
17.5457034576
 20
-63.7554762463
 10
17.4790089752
 20
-63.7683216582
 10
17.414392654
 20
-63.7846820441
 10
17.3515313902
 20
-63.8044245324
 10
17.2909206906
 20
-63.8270097374
 10
17.2324928081
 20
-63.8524848657
 10
17.1763154897
 20
-63.8808027105
 10
17.1230874836
 20
-63.9112822659
 10
17.0732187986
 20
-63.9436415847
 10
17.0262994258
 20
-63.9781626141
 10
16.9817980861
 20
-64.015010189
 10
16.9396894397
 20
-64.0540140021
 10
16.8999988264
 20
-64.0953443608
 10
16.8622709865
 20
-64.1396770223
 10
16.8262888267
 20
-64.1871548967
 10
16.7922694404
 20
-64.237635074
 10
16.7604088474
 20
-64.2913645807
 10
16.7305812471
 20
-64.3483723273
 10
16.7029124402
 20
-64.4086294034
 10
16.677975848
 20
-64.4722961044
 10
16.6557799531
 20
-64.5391952955
 10
16.6363162729
 20
-64.6095041115
 10
16.6201327807
 20
-64.6839142523
 10
16.6071840318
 20
-64.7632540399
 10
16.5975154708
 20
-64.8466951523
 10
16.5918114053
 20
-64.9324443229
 10
16.5902492982
 20
-65.0212843499
 10
16.5926516865
 20
-65.1124324352
 10
16.5991704886
 20
-65.2017469174
 10
16.609944747
 20
-65.2879004991
 10
16.6248354191
 20
-65.3722204778
 10
16.6435772962
 20
-65.454547084
 10
16.6660819755
 20
-65.5348270614
  0
LWPOLYLINE
  5
3CB
100
AcDbEntity
  8
0
100
AcDbPolyline
 62
7
  6
CONTINUOUS
 90
10
 70
0
 10
7.7554162268
 20
-56.7224702154
 10
7.7722719309
 20
-56.7785940336
 10
7.7898863538
 20
-56.8352982828
 10
7.8082594955
 20
-56.8925829631
 10
7.8274518833
 20
-56.9504492768
 10
7.8474029899
 20
-57.0088960216
 10
7.8679312335
 20
-57.0679195904
 10
7.8889760868
 20
-57.127518781
 10
7.9105980772
 20
-57.1876947956
 10
7.9327972045
 20
-57.2484476343
  0
LWPOLYLINE
  5
3CC
100
AcDbEntity
  8
0
100
AcDbPolyline
 62
7
  6
CONTINUOUS
 90
10
 70
0
 10
14.7216538268
 20
-60.3894640652
 10
14.7385095309
 20
-60.4455878834
 10
14.7561239538
 20
-60.5022921326
 10
14.7744970955
 20
-60.5595768129
 10
14.7936894833
 20
-60.6174431266
 10
14.8136405899
 20
-60.6758898714
 10
14.8341688335
 20
-60.7349134402
 10
14.8552136868
 20
-60.7945126307
 10
14.8768356771
 20
-60.8546886454
 10
14.8990348045
 20
-60.9154414841
  0
LWPOLYLINE
  5
3CD
100
AcDbEntity
  8
0
100
AcDbPolyline
 62
7
  6
CONTINUOUS
 90
10
 70
0
 10
20.073202304
 20
-64.0412809267
 10
20.090058008
 20
-64.0974047449
 10
20.1076724309
 20
-64.1541089941
 10
20.1260455726
 20
-64.2113936744
 10
20.1452379604
 20
-64.2692599881
 10
20.165189067
 20
-64.3277067329
 10
20.1857173106
 20
-64.3867303017
 10
20.206762164
 20
-64.4463294923
 10
20.2283841543
 20
-64.5065055069
 10
20.2505832816
 20
-64.5672583456
  0
LWPOLYLINE
  5
3CE
100
AcDbEntity
  8
0
100
AcDbPolyline
 62
7
  6
CONTINUOUS
 90
20
 70
0
 10
-0.5961589671
 20
-65.4485426752
 10
-0.6025939913
 20
-65.4059800249
 10
-0.6112289488
 20
-65.3657836146
 10
-0.6221154605
 20
-65.3275393253
 10
-0.6351366617
 20
-65.2908618557
 10
-0.6503216925
 20
-65.255636175
 10
-0.6676414128
 20
-65.221977314
 10
-0.6868915373
 20
-65.1898450651
 10
-0.7080347373
 20
-65.1592004892
 10
-0.7311083415
 20
-65.1300825253
 10
-0.7560200508
 20
-65.1025677826
 10
-0.7826760287
 20
-65.0766578365
 10
-0.8111701117
 20
-65.0523511115
 10
-0.8416915097
 20
-65.0297194903
 10
-0.8741767704
 20
-65.0087297518
 10
-0.9086893461
 20
-64.9894151172
 10
-0.9456088038
 20
-64.9719471331
 10
-0.985061666
 20
-64.9563829819
 10
-1.0269214102
 20
-64.9426654812
 10
-1.0711880365
 20
-64.9307946311
  0
LWPOLYLINE
  5
3CF
100
AcDbEntity
  8
0
100
AcDbPolyline
 62
7
  6
CONTINUOUS
 90
28
 70
0
 10
13.0841991058
 20
-64.4814135855
 10
13.0806700441
 20
-64.4320444445
 10
13.074675164
 20
-64.3843301301
 10
13.0662144655
 20
-64.3382706421
 10
13.0552095668
 20
-64.2938948318
 10
13.0417388498
 20
-64.2511738479
 10
13.0260374592
 20
-64.2100211374
 10
13.0081023589
 20
-64.1703630668
 10
12.9879365851
 20
-64.1322732695
 10
12.9657843908
 20
-64.0958860921
 10
12.9416679261
 20
-64.0612011071
 10
12.915565041
 20
-64.028218742
 10
12.8876535386
 20
-63.9970746255
 10
12.8582845061
 20
-63.9679647656
 10
12.8271068564
 20
-63.9406931544
 10
12.7932451314
 20
-63.9148073972
 10
12.7565972747
 20
-63.8901216175
 10
12.7172653428
 20
-63.8668216918
 10
12.6746800466
 20
-63.8450128545
 10
12.6286444461
 20
-63.8245256862
 10
12.5793554814
 20
-63.8055296063
 10
12.5268346834
 20
-63.7886381078
 10
12.4710960562
 20
-63.7738694346
 10
12.4121255958
 20
-63.7612053428
 10
12.3499028205
 20
-63.7512045936
 10
12.284420903
 20
-63.7440534405
 10
12.2156866707
 20
-63.73956563
 10
12.1437001234
 20
-63.737741162
  0
LWPOLYLINE
  5
3D0
100
AcDbEntity
  8
0
100
AcDbPolyline
 62
7
  6
CONTINUOUS
 90
31
 70
0
 10
11.1718985882
 20
-65.4679178208
 10
11.1748761913
 20
-65.5210381581
 10
11.180259248
 20
-65.572447796
 10
11.1880477581
 20
-65.6221467345
 10
11.1982902549
 20
-65.6700224595
 10
11.2109382052
 20
-65.7161874852
 10
11.2258460097
 20
-65.7609793533
 10
11.2430361589
 20
-65.804544374
 10
11.2624861623
 20
-65.8467362371
 10
11.2839829486
 20
-65.8874535553
 10
11.3076206663
 20
-65.9268380593
 10
11.3333051669
 20
-65.9647480183
 10
11.3605409331
 20
-66.0006568522
 10
11.3890801142
 20
-66.0343071299
 10
11.419170561
 20
-66.0659562825
 10
11.4510603085
 20
-66.0958500227
 10
11.4846253173
 20
-66.123983968
 10
11.5199896268
 20
-66.1503625009
 10
11.5577733905
 20
-66.1752444814
 10
11.5980646318
 20
-66.1988059933
 10
11.6407753274
 20
-66.2208709529
 10
11.6862615609
 20
-66.2411699692
 10
11.7345246332
 20
-66.259715554
 10
11.7855632433
 20
-66.2764951956
 10
11.8397295716
 20
-66.291201968
 10
11.8972342499
 20
-66.3038184639
 10
11.9578666464
 20
-66.3143620906
 10
12.0213470451
 20
-66.322578143
 10
12.0875822074
 20
-66.3283817196
 10
12.156665372
 20
-66.331857722
 10
12.2285965388
 20
-66.3330061502
  0
LWPOLYLINE
  5
3D1
100
AcDbEntity
  8
0
100
AcDbPolyline
 62
7
  6
CONTINUOUS
 90
61
 70
0
 10
10.8376394787
 20
-65.0017086216
 10
10.833573241
 20
-64.9160377319
 10
10.8261610414
 20
-64.8338700172
 10
10.8154028799
 20
-64.7552054774
 10
10.8011157253
 20
-64.6802093787
 10
10.7834826088
 20
-64.608716455
 10
10.7630526236
 20
-64.5402309082
 10
10.73980815
 20
-64.4745244252
 10
10.7137668077
 20
-64.4118253191
 10
10.6855305492
 20
-64.3523227304
 10
10.6551758847
 20
-64.2961429171
 10
10.622626304
 20
-64.2431596212
 10
10.588254229
 20
-64.193183209
 10
10.5523620406
 20
-64.1464186118
 10
10.5146473579
 20
-64.1026608982
 10
10.4745754608
 20
-64.0611056404
 10
10.4320000656
 20
-64.0214918553
 10
10.3870674559
 20
-63.984080526
 10
10.3396817626
 20
-63.9488501739
 10
10.2895118822
 20
-63.9155682365
 10
10.2368889182
 20
-63.8844672763
 10
10.1827103111
 20
-63.856223502
 10
10.1272928224
 20
-63.8310152493
 10
10.0703196907
 20
-63.8086641825
 10
10.0117380717
 20
-63.7893115023
 10
9.9518002984
 20
-63.7729476349
 10
9.8902540377
 20
-63.759582154
 10
9.8262894462
 20
-63.7493849815
 10
9.7588059492
 20
-63.7423403538
 10
9.6889041212
 20
-63.7384640345
 10
9.6190758426
 20
-63.7379732362
 10
9.5492526268
 20
-63.7410692097
 10
9.4795029604
 20
-63.7475507041
 10
9.4125241833
 20
-63.7570311796
 10
9.3494008075
 20
-63.7694718583
 10
9.289048321
 20
-63.7849115181
 10
9.2309105278
 20
-63.8030799524
 10
9.1750189833
 20
-63.823860294
 10
9.1213421322
 20
-63.8473694102
 10
9.0692291119
 20
-63.8736876964
 10
9.0184506063
 20
-63.9028397517
 10
8.9692359315
 20
-63.934800977
 10
8.9216221738
 20
-63.9695779705
 10
8.8754124287
 20
-64.0073397554
 10
8.8308036007
 20
-64.0479173086
 10
8.7884234888
 20
-64.0908101586
 10
8.7483499334
 20
-64.1359576343
 10
8.7105050942
 20
-64.1834204068
 10
8.6752832495
 20
-64.2328800186
 10
8.6429265762
 20
-64.2838263661
 10
8.6131928974
 20
-64.3367695528
 10
8.5857499612
 20
-64.3929214323
 10
8.5603837196
 20
-64.4523916404
 10
8.5373082206
 20
-64.5150705413
 10
8.5168333567
 20
-64.5818410805
 10
8.4988401884
 20
-64.6530473594
 10
8.4834476553
 20
-64.7283452767
 10
8.4713224681
 20
-64.8075854741
 10
8.4626868641
 20
-64.8907181657
 10
8.4573186061
 20
-64.9777931376
 10
8.4552176941
 20
-65.0688103896
  0
LWPOLYLINE
  5
3D2
100
AcDbEntity
  8
0
100
AcDbPolyline
 62
7
  6
CONTINUOUS
 90
61
 70
0
 10
8.4552176941
 20
-65.0688103896
 10
8.4572834679
 20
-65.1449106713
 10
8.4629579357
 20
-65.2195496573
 10
8.4722410976
 20
-65.2927273475
 10
8.4852263029
 20
-65.3644312317
 10
8.5018202023
 20
-65.4346738201
 10
8.5217427476
 20
-65.5034926439
 10
8.5453611298
 20
-65.571710416
 10
8.572308158
 20
-65.6385044234
 10
8.6012022117
 20
-65.7014440587
 10
8.6315993203
 20
-65.7594817944
 10
8.6639434543
 20
-65.8136651579
 10
8.6981849045
 20
-65.8647061237
 10
8.7340962846
 20
-65.9124809278
 10
8.7719049808
 20
-65.9571133341
 10
8.8122434426
 20
-65.9996866088
 10
8.8554121684
 20
-66.0406658015
 10
8.9011106599
 20
-66.0795858625
 10
8.9490698716
 20
-66.1161349093
 10
8.9995249244
 20
-66.1504298401
 10
9.0522406974
 20
-66.1823537567
 10
9.1062427826
 20
-66.2112440812
 10
9.1610246018
 20
-66.2368533248
 10
9.2170927332
 20
-66.2594289764
 10
9.2749925029
 20
-66.2790509246
 10
9.3348096649
 20
-66.2958214832
 10
9.3964584653
 20
-66.3096383385
 10
9.4602269685
 20
-66.3202744375
 10
9.5270543519
 20
-66.3277364728
 10
9.5960014381
 20
-66.332017752
 10
9.6645387591
 20
-66.3328711445
 10
9.7321964641
 20
-66.3301648205
 10
9.799444404
 20
-66.3240306098
 10
9.8651626629
 20
-66.3146168724
 10
9.9287999834
 20
-66.3019575759
 10
9.990907623
 20
-66.2860187526
 10
10.0520194384
 20
-66.2668468593
 10
10.1130047109
 20
-66.2440709096
 10
10.1729941593
 20
-66.2180618899
 10
10.2299137964
 20
-66.189979216
 10
10.2829657592
 20
-66.1601834737
 10
10.3329479108
 20
-66.1283140773
 10
10.3801798532
 20
-66.0944486852
 10
10.4244603578
 20
-66.058858587
 10
10.4659906532
 20
-66.021272493
 10
10.5056940264
 20
-65.9809541929
 10
10.5438375352
 20
-65.9378983107
 10
10.5801541219
 20
-65.8921102224
 10
10.6147659011
 20
-65.8428698461
 10
10.6479439392
 20
-65.7898188154
 10
10.6794171699
 20
-65.7333154967
 10
10.7084945091
 20
-65.6737149084
 10
10.7351767381
 20
-65.6110105777
 10
10.7594630756
 20
-65.5452089774
 10
10.7806600938
 20
-65.4766845444
 10
10.7986825822
 20
-65.4058361175
 10
10.8136157513
 20
-65.3322648579
 10
10.8250218051
 20
-65.2551486865
 10
10.8327548116
 20
-65.1742135767
 10
10.8369607028
 20
-65.0897335551
 10
10.8376394787
 20
-65.0017086216
  0
LINE
  5
3D3
100
AcDbEntity
  8
0
100
AcDbLine
 62
7
  6
CONTINUOUS
 10
2.0059996777
 20
40.25
 11
2.0059996777
 21
42.65
  0
LINE
  5
3D4
100
AcDbEntity
  8
0
100
AcDbLine
 62
7
  6
CONTINUOUS
 10
2.682
 20
41.6797872066
 11
2.682
 21
41.2202127934
  0
LINE
  5
3D5
100
AcDbEntity
  8
0
100
AcDbLine
 62
7
  6
CONTINUOUS
 10
2.8549090353
 20
-64.1930508091
 11
2.8549090353
 21
-66.2874751855
  0
LINE
  5
3D6
100
AcDbEntity
  8
0
100
AcDbLine
 62
7
  6
CONTINUOUS
 10
3.1045003223
 20
41.2712766171
 11
3.1045003223
 21
41.6287233829
  0
LINE
  5
3D7
100
AcDbEntity
  8
ASSI
100
AcDbLine
 62
7
  6
CONTINUOUS
 10
3.117556
 20
-44.375
 11
3.117556
 21
-43.625
  0
LINE
  5
3D8
100
AcDbEntity
  8
0
100
AcDbLine
 62
7
  6
CONTINUOUS
 10
3.1888027764
 20
-66.2874751855
 11
3.1888027764
 21
-63.7832721267
  0
LINE
  5
3D9
100
AcDbEntity
  8
0
100
AcDbLine
 62
7
  6
CONTINUOUS
 10
3.4527399464
 20
-60.1314552652
 11
3.4527399464
 21
-62.635658324
  0
LINE
  5
3DA
100
AcDbEntity
  8
ASSI
100
AcDbLine
 62
7
  6
CONTINUOUS
 10
3.517556
 20
-46.5480371256
 11
3.517556
 21
-45.7972167337
  0
LINE
  5
3DB
100
AcDbEntity
  8
ASSI
100
AcDbLine
 62
7
  6
CONTINUOUS
 10
3.517556
 20
-42.20278
 11
3.517556
 21
-41.4519630924
  0
LINE
  5
3DC
100
AcDbEntity
  8
0
100
AcDbLine
 62
7
  6
CONTINUOUS
 10
3.7866336875
 20
-62.635658324
 11
3.7866336875
 21
-60.1314552652
  0
LINE
  5
3DD
100
AcDbEntity
  8
0
100
AcDbLine
 62
7
  6
CONTINUOUS
 10
3.9625
 20
47.05
 11
3.9625
 21
44.75
  0
LINE
  5
3DE
100
AcDbEntity
  8
0
100
AcDbLine
 62
7
  6
CONTINUOUS
 10
4.25
 20
44.75
 11
4.25
 21
47.05
  0
LINE
  5
3DF
100
AcDbEntity
  8
0
100
AcDbLine
 62
7
  6
CONTINUOUS
 10
4.591014064
 20
-56.4644614154
 11
4.591014064
 21
-58.9686644742
  0
LINE
  5
3E0
100
AcDbEntity
  8
0
100
AcDbLine
 62
7
  6
CONTINUOUS
 10
4.6333329678
 20
47.05
 11
4.6333329678
 21
46.8053191781
  0
LINE
  5
3E1
100
AcDbEntity
  8
0
100
AcDbLine
 62
7
  6
CONTINUOUS
 10
4.9249078052
 20
-58.9686644742
 11
4.9249078052
 21
-57.9366292742
  0
LINE
  5
3E2
100
AcDbEntity
  8
0
100
AcDbLine
 62
7
  6
CONTINUOUS
 10
4.9249078052
 20
-57.6482664978
 11
4.9249078052
 21
-56.7528241919
  0
LINE
  5
3E3
100
AcDbEntity
  8
0
100
AcDbLine
 62
7
  6
CONTINUOUS
 10
5.3014996777
 20
41.6287233829
 11
5.3014996777
 21
41.2712766171
  0
LINE
  5
3E4
100
AcDbEntity
  8
0
100
AcDbLine
 62
7
  6
CONTINUOUS
 10
5.4
 20
46.8053191781
 11
5.4
 21
44.75
  0
LINE
  5
3E5
100
AcDbEntity
  8
0
100
AcDbLine
 62
7
  6
CONTINUOUS
 10
5.6875
 20
44.75
 11
5.6875
 21
46.8053191781
  0
LINE
  5
3E6
100
AcDbEntity
  8
0
100
AcDbLine
 62
7
  6
CONTINUOUS
 10
5.724
 20
41.2202127934
 11
5.724
 21
41.6797872066
  0
LINE
  5
3E7
100
AcDbEntity
  8
ASSI
100
AcDbLine
 62
7
  6
CONTINUOUS
 10
5.732239
 20
33.30662
 11
5.732239
 21
32.762971
  0
LINE
  5
3E8
100
AcDbEntity
  8
ASSI
100
AcDbLine
 62
7
  6
CONTINUOUS
 10
5.749993
 20
37.715613
 11
5.749993
 21
37.168974
  0
LINE
  5
3E9
100
AcDbEntity
  8
0
100
AcDbLine
 62
7
  6
CONTINUOUS
 10
6.0572535529
 20
-63.7832721267
 11
6.0572535529
 21
-66.2874751855
  0
LINE
  5
3EA
100
AcDbEntity
  8
ASSI
100
AcDbLine
 62
7
  6
CONTINUOUS
 10
6.214029
 20
37.168974
 11
6.214029
 21
35.782847
  0
LINE
  5
3EB
100
AcDbEntity
  8
ASSI
100
AcDbLine
 62
7
  6
CONTINUOUS
 10
6.214029
 20
35.109126
 11
6.214029
 21
33.30662
  0
LINE
  5
3EC
100
AcDbEntity
  8
0
100
AcDbLine
 62
7
  6
CONTINUOUS
 10
6.3911472941
 20
-66.2874751855
 11
6.3911472941
 21
-65.1795550444
  0
LINE
  5
3ED
100
AcDbEntity
  8
0
100
AcDbLine
 62
7
  6
CONTINUOUS
 10
6.3911472941
 20
-64.8911922679
 11
6.3911472941
 21
-64.0716349032
  0
LINE
  5
3EE
100
AcDbEntity
  8
0
100
AcDbLine
 62
7
  6
CONTINUOUS
 10
6.3999993553
 20
42.65
 11
6.3999993553
 21
42.3946808815
  0
LINE
  5
3EF
100
AcDbEntity
  8
0
100
AcDbLine
 62
7
  6
CONTINUOUS
 10
6.4541659355
 20
46.8053191781
 11
6.4541659355
 21
47.05
  0
LINE
  5
3F0
100
AcDbEntity
  8
ASSI
100
AcDbLine
 62
7
  6
CONTINUOUS
 10
6.793186
 20
33.30662
 11
6.793186
 21
35.115206
  0
LINE
  5
3F1
100
AcDbEntity
  8
ASSI
100
AcDbLine
 62
7
  6
CONTINUOUS
 10
6.793186
 20
35.782847
 11
6.793186
 21
37.168974
  0
LINE
  5
3F2
100
AcDbEntity
  8
0
100
AcDbLine
 62
7
  6
CONTINUOUS
 10
6.913093264
 20
-60.1314552652
 11
6.913093264
 21
-62.635658324
  0
LINE
  5
3F3
100
AcDbEntity
  8
0
100
AcDbLine
 62
7
  6
CONTINUOUS
 10
6.921928
 20
55.100117
 11
6.921928
 21
49.899883
  0
LINE
  5
3F4
100
AcDbEntity
  8
0
100
AcDbLine
 62
7
  6
CONTINUOUS
 10
7.2469870052
 20
-62.3472955475
 11
7.2469870052
 21
-61.4822072181
  0
LINE
  5
3F5
100
AcDbEntity
  8
0
100
AcDbLine
 62
7
  6
CONTINUOUS
 10
7.2469870052
 20
-61.1938444416
 11
7.2469870052
 21
-60.4198180416
  0
LINE
  5
3F6
100
AcDbEntity
  8
ASSI
100
AcDbLine
 62
7
  6
CONTINUOUS
 10
7.257034
 20
37.168974
 11
7.257034
 21
37.715613
  0
LINE
  5
3F7
100
AcDbEntity
  8
ASSI
100
AcDbLine
 62
7
  6
CONTINUOUS
 10
7.274788
 20
32.762971
 11
7.274788
 21
33.30662
  0
LINE
  5
3F8
100
AcDbEntity
  8
0
100
AcDbLine
 62
7
  6
CONTINUOUS
 10
7.947641
 20
52.872632
 11
7.947628
 21
54.138078
  0
LINE
  5
3F9
100
AcDbEntity
  8
0
100
AcDbLine
 62
7
  6
CONTINUOUS
 10
8.6129159463
 20
-61.4822072181
 11
8.6129159463
 21
-61.1938444416
  0
LINE
  5
3FA
100
AcDbEntity
  8
0
100
AcDbLine
 62
7
  6
CONTINUOUS
 10
8.7039778758
 20
-60.4198180416
 11
8.7039778758
 21
-60.1314552652
  0
LINE
  5
3FB
100
AcDbEntity
  8
0
100
AcDbLine
 62
7
  6
CONTINUOUS
 10
8.7646858287
 20
-62.635658324
 11
8.7646858287
 21
-62.3472955475
  0
LINE
  5
3FC
100
AcDbEntity
  8
0
100
AcDbLine
 62
7
  6
CONTINUOUS
 10
9.1375
 20
47.05
 11
9.1375
 21
44.75
  0
LINE
  5
3FD
100
AcDbEntity
  8
0
100
AcDbLine
 62
7
  6
CONTINUOUS
 10
9.235172464
 20
-60.1314552652
 11
9.235172464
 21
-62.635658324
  0
LINE
  5
3FE
100
AcDbEntity
  8
0
100
AcDbLine
 62
7
  6
CONTINUOUS
 10
9.425
 20
45.0436170205
 11
9.425
 21
47.05
  0
LINE
  5
3FF
100
AcDbEntity
  8
0
100
AcDbLine
 62
7
  6
CONTINUOUS
 10
9.4419993553
 20
42.3946808815
 11
9.4419993553
 21
42.65
  0
LINE
  5
400
100
AcDbEntity
  8
0
100
AcDbLine
 62
7
  6
CONTINUOUS
 10
9.5690662052
 20
-62.635658324
 11
9.5690662052
 21
-60.7150577643
  0
LINE
  5
401
100
AcDbEntity
  8
0
100
AcDbLine
 62
7
  6
CONTINUOUS
 10
10.8439332169
 20
-60.1314552652
 11
10.8439332169
 21
-62.0520555933
  0
LINE
  5
402
100
AcDbEntity
  8
0
100
AcDbLine
 62
7
  6
CONTINUOUS
 10
10.8625
 20
44.75
 11
10.8625
 21
45.0436170205
  0
LINE
  5
403
100
AcDbEntity
  8
0
100
AcDbLine
 62
7
  6
CONTINUOUS
 10
11.1778269581
 20
-62.635658324
 11
11.1778269581
 21
-60.1314552652
  0
LINE
  5
404
100
AcDbEntity
  8
0
100
AcDbLine
 62
7
  6
CONTINUOUS
 10
11.5268976875
 20
-62.3352012005
 11
11.5268976875
 21
-62.635658324
  0
LINE
  5
405
100
AcDbEntity
  8
0
100
AcDbLine
 62
7
  6
CONTINUOUS
 10
11.6786675699
 20
-60.1314552652
 11
11.6786675699
 21
-60.4198180416
  0
LINE
  5
406
100
AcDbEntity
  8
0
100
AcDbLine
 62
7
  6
CONTINUOUS
 10
12.0125
 20
45.9244680822
 11
12.0125
 21
44.75
  0
LINE
  5
407
100
AcDbEntity
  8
0
100
AcDbLine
 62
7
  6
CONTINUOUS
 10
12.3
 20
44.75
 11
12.3
 21
45.9244680822
  0
LINE
  5
408
100
AcDbEntity
  8
0
100
AcDbLine
 62
7
  6
CONTINUOUS
 10
13.418092847
 20
-63.7832721267
 11
13.418092847
 21
-64.0716349032
  0
LINE
  5
409
100
AcDbEntity
  8
0
100
AcDbLine
 62
7
  6
CONTINUOUS
 10
13.4543751934
 20
-60.4198180416
 11
13.4543751934
 21
-60.1314552652
  0
LINE
  5
40A
100
AcDbEntity
  8
0
100
AcDbLine
 62
7
  6
CONTINUOUS
 10
13.5
 20
29.75
 11
13.5
 21
56.75
  0
LINE
  5
40B
100
AcDbEntity
  8
0
100
AcDbLine
 62
7
  6
CONTINUOUS
 10
13.5150831463
 20
-62.635658324
 11
13.5150831463
 21
-62.3472955475
  0
LINE
  5
40C
100
AcDbEntity
  8
0
100
AcDbLine
 62
7
  6
CONTINUOUS
 10
7.96198
 20
49.899883
 11
7.962097
 21
51.910593
  0
LWPOLYLINE
  5
40D
100
AcDbEntity
  8
0
100
AcDbPolyline
 62
7
  6
CONTINUOUS
 90
19
 70
0
 10
8.7891114353
 20
-65.0728418386
 10
8.7897780841
 20
-65.0073445468
 10
8.7922324049
 20
-64.9440536663
 10
8.7964743976
 20
-64.882969197
 10
8.8025180835
 20
-64.8239442078
 10
8.8103494414
 20
-64.7671256299
 10
8.8199264078
 20
-64.7129542562
 10
8.8313219018
 20
-64.661565182
 10
8.8444630042
 20
-64.6128233119
 10
8.8590888939
 20
-64.5667641535
 10
8.8752297005
 20
-64.5234593344
 10
8.8928552944
 20
-64.482837227
 10
8.9116144654
 20
-64.4447184549
 10
8.9315362968
 20
-64.4090737002
 10
8.9525917053
 20
-64.3759322808
 10
8.9743422306
 20
-64.3452027747
 10
8.996641719
 20
-64.3168547078
 10
9.0196363242
 20
-64.2909185542
 10
9.0433260461
 20
-64.2673943138
  0
LWPOLYLINE
  5
40E
100
AcDbEntity
  8
0
100
AcDbPolyline
 62
7
  6
CONTINUOUS
 90
31
 70
0
 10
4.6061910522
 20
-61.3631625212
 10
4.6081010178
 20
-61.2963326128
 10
4.6120937885
 20
-61.232340541
 10
4.6181693643
 20
-61.1711863057
 10
4.626569948
 20
-61.1129696939
 10
4.6370533368
 20
-61.0575909188
 10
4.6488929225
 20
-61.0047506192
 10
4.6618102291
 20
-60.9543827608
 10
4.6760837326
 20
-60.9065533779
 10
4.6918222527
 20
-60.8611612137
 10
4.7088864537
 20
-60.8183967559
 10
4.7274156712
 20
-60.7780695166
 10
4.7479367323
 20
-60.7395067758
 10
4.7706501208
 20
-60.7025038589
 10
4.7953553528
 20
-60.6672654404
 10
4.8219778044
 20
-60.6337328237
 10
4.8506159099
 20
-60.6017631934
 10
4.8811712349
 20
-60.5714993648
 10
4.913273852
 20
-60.543311087
 10
4.9467865201
 20
-60.5173187597
 10
4.9818464802
 20
-60.4934019831
 10
5.018495528
 20
-60.4715693065
 10
5.056675165
 20
-60.4517733105
 10
5.0964438896
 20
-60.4340614145
 10
5.1380189932
 20
-60.418584426
 10
5.1812830012
 20
-60.4053433583
 10
5.2263533882
 20
-60.3943371981
 10
5.2737998687
 20
-60.385713713
 10
5.3238123477
 20
-60.3795221591
 10
5.3762009202
 20
-60.3757132804
 10
5.4309655863
 20
-60.3742870769
  0
LINE
  5
40F
100
AcDbEntity
  8
0
100
AcDbLine
 62
7
  6
CONTINUOUS
 10
-1.5841227637
 20
-64.8304843149
 11
-1.6192196214
 21
-65.1036701032
  0
LWPOLYLINE
  5
410
100
AcDbEntity
  8
0
100
AcDbPolyline
 62
7
  6
CONTINUOUS
 90
46
 70
0
 10
-9.6661062588
 20
-64.4662365973
 10
-9.6585502198
 20
-64.4254556485
 10
-9.6495141545
 20
-64.3867331839
 10
-9.638998063
 20
-64.3500692035
 10
-9.6268495268
 20
-64.31535982
 10
-9.6132209645
 20
-64.2827089207
 10
-9.5985696314
 20
-64.2524281674
 10
-9.5830196719
 20
-64.2247456771
 10
-9.5664469418
 20
-64.1994333328
 10
-9.548936264
 20
-64.1761184457
 10
-9.5306069442
 20
-64.154833667
 10
-9.5113396768
 20
-64.1355463455
 10
-9.4908613682
 20
-64.1177858388
 10
-9.4690806096
 20
-64.101390116
 10
-9.4460888097
 20
-64.086521208
 10
-9.4218871014
 20
-64.0731945648
 10
-9.3965464937
 20
-64.0613533373
 10
-9.3699959775
 20
-64.0510543746
 10
-9.3420236584
 20
-64.0424836754
 10
-9.3122975049
 20
-64.0356390263
 10
-9.2811495485
 20
-64.0305226405
 10
-9.2493639884
 20
-64.0273271559
 10
-9.2165716023
 20
-64.0261488024
 10
-9.1831416126
 20
-64.02689135
 10
-9.1509658856
 20
-64.0294587471
 10
-9.1206232753
 20
-64.0338892149
 10
-9.0915349277
 20
-64.0401445321
 10
-9.0638561465
 20
-64.048013983
 10
-9.0377445473
 20
-64.0574394174
 10
-9.0130425146
 20
-64.0684789855
 10
-8.989432505
 20
-64.0810964218
 10
-8.9667632989
 20
-64.0953475825
 10
-8.945186116
 20
-64.1111766115
 10
-8.9248370722
 20
-64.1283796747
 10
-8.9056033813
 20
-64.147104171
 10
-8.8875978295
 20
-64.1672027016
 10
-8.8712948912
 20
-64.1880292366
 10
-8.8568731332
 20
-64.2093073412
 10
-8.8441539887
 20
-64.2313134504
 10
-8.8330762321
 20
-64.2542308386
 10
-8.8236171755
 20
-64.2779280618
 10
-8.8157995068
 20
-64.3025365642
 10
-8.8096300641
 20
-64.3286339524
 10
-8.8051111266
 20
-64.3564127622
 10
-8.802240415
 20
-64.3856804579
 10
-8.8010179294
 20
-64.4164370395
  0
LWPOLYLINE
  5
411
100
AcDbEntity
  8
0
100
AcDbPolyline
 62
7
  6
CONTINUOUS
 90
46
 70
0
 10
-1.8954882824
 20
-64.4662365973
 10
-1.8879322433
 20
-64.4254556485
 10
-1.878896178
 20
-64.3867331839
 10
-1.8683800866
 20
-64.3500692035
 10
-1.8562315504
 20
-64.31535982
 10
-1.842602988
 20
-64.2827089207
 10
-1.827951655
 20
-64.2524281674
 10
-1.8124016955
 20
-64.2247456771
 10
-1.7958289653
 20
-64.1994333328
 10
-1.7783182875
 20
-64.1761184457
 10
-1.7599889677
 20
-64.154833667
 10
-1.7407217004
 20
-64.1355463455
 10
-1.7202433917
 20
-64.1177858388
 10
-1.6984626331
 20
-64.101390116
 10
-1.6754708332
 20
-64.086521208
 10
-1.6512691249
 20
-64.0731945648
 10
-1.6259285172
 20
-64.0613533373
 10
-1.5993780011
 20
-64.0510543746
 10
-1.5714056819
 20
-64.0424836754
 10
-1.5416795285
 20
-64.0356390263
 10
-1.510531572
 20
-64.0305226405
 10
-1.4787460119
 20
-64.0273271559
 10
-1.4459536259
 20
-64.0261488024
 10
-1.4125236362
 20
-64.02689135
 10
-1.3803479091
 20
-64.0294587471
 10
-1.3500052989
 20
-64.0338892149
 10
-1.3209169512
 20
-64.0401445321
 10
-1.29323817
 20
-64.048013983
 10
-1.2671265709
 20
-64.0574394174
 10
-1.2424245381
 20
-64.0684789855
 10
-1.2188145286
 20
-64.0810964218
 10
-1.1961453225
 20
-64.0953475825
 10
-1.1745681395
 20
-64.1111766115
 10
-1.1542190957
 20
-64.1283796747
 10
-1.1349854048
 20
-64.147104171
 10
-1.116979853
 20
-64.1672027016
 10
-1.1006769147
 20
-64.1880292366
 10
-1.0862551567
 20
-64.2093073412
 10
-1.0735360122
 20
-64.2313134504
 10
-1.0624582556
 20
-64.2542308386
 10
-1.052999199
 20
-64.2779280618
 10
-1.0451815304
 20
-64.3025365642
 10
-1.0390120876
 20
-64.3286339524
 10
-1.0344931501
 20
-64.3564127622
 10
-1.0316224386
 20
-64.3856804579
 10
-1.030399953
 20
-64.4164370395
  0
LWPOLYLINE
  5
412
100
AcDbEntity
  8
0
100
AcDbPolyline
 62
7
  6
CONTINUOUS
 90
9
 70
0
 10
-8.7432464051
 20
-58.3251718091
 10
-8.7601161318
 20
-58.3711172436
 10
-8.7764536004
 20
-58.4168962733
 10
-8.7922556667
 20
-58.4625157828
 10
-8.8075254748
 20
-58.5079688875
 10
-8.822272458
 20
-58.5532349345
 10
-8.8364997606
 20
-58.5983070394
 10
-8.8502042382
 20
-58.6431920866
 10
-8.8633858908
 20
-58.6878900761
  0
LWPOLYLINE
  5
413
100
AcDbEntity
  8
0
100
AcDbPolyline
 62
7
  6
CONTINUOUS
 90
9
 70
0
 10
-8.7432464051
 20
-61.9921656589
 10
-8.7601161318
 20
-62.0381110933
 10
-8.7764536004
 20
-62.0838901231
 10
-8.7922556667
 20
-62.1295096325
 10
-8.8075254748
 20
-62.1749627373
 10
-8.822272458
 20
-62.2202287843
 10
-8.8364997606
 20
-62.2653008892
 10
-8.8502042382
 20
-62.3101859364
 10
-8.8633858908
 20
-62.3548839258
  0
LINE
  5
414
100
AcDbEntity
  8
0
100
AcDbLine
 62
7
  6
CONTINUOUS
 10
-8.0362401477
 20
-56.4644614154
 11
-8.7432464051
 21
-58.3251718091
  0
LINE
  5
415
100
AcDbEntity
  8
0
100
AcDbLine
 62
7
  6
CONTINUOUS
 10
-8.8100000403
 20
40.556382978
 11
-9.993
 21
42.65
  0
LINE
  5
416
100
AcDbEntity
  8
0
100
AcDbLine
 62
7
  6
CONTINUOUS
 10
-10.5
 20
42.65
 11
-9.1479999597
 21
40.25
  0
LINE
  5
417
100
AcDbEntity
  8
0
100
AcDbLine
 62
7
  6
CONTINUOUS
 10
-12.7125
 20
46.5606383562
 11
-12.0416666895
 21
44.75
  0
LINE
  5
418
100
AcDbEntity
  8
0
100
AcDbLine
 62
7
  6
CONTINUOUS
 10
-11.85
 20
44.9946808562
 11
-12.56875
 21
47.05
  0
LINE
  5
419
100
AcDbEntity
  8
0
100
AcDbLine
 62
7
  6
CONTINUOUS
 10
-8.4
 20
44.75
 11
-9.1666667581
 21
47.05
  0
LINE
  5
41A
100
AcDbEntity
  8
0
100
AcDbLine
 62
7
  6
CONTINUOUS
 10
-8.8791667581
 20
45.3372340411
 11
-8.6875
 21
44.75
  0
LINE
  5
41B
100
AcDbEntity
  8
0
100
AcDbLine
 62
7
  6
CONTINUOUS
 10
-9.3583332419
 20
46.8542553425
 11
-8.9270832419
 21
45.5329786986
  0
LINE
  5
41C
100
AcDbEntity
  8
0
100
AcDbLine
 62
7
  6
CONTINUOUS
 10
-11.083514
 20
55.100104
 11
-9.413898
 21
49.899857
  0
LINE
  5
41D
100
AcDbEntity
  8
0
100
AcDbLine
 62
7
  6
CONTINUOUS
 10
-8.893846
 20
51.519462
 11
-10.043462
 21
55.100104
  0
LINE
  5
41E
100
AcDbEntity
  8
0
100
AcDbLine
 62
7
  6
CONTINUOUS
 10
-2.890758
 20
53.329075
 11
-1.907464
 21
49.89987
  0
LINE
  5
41F
100
AcDbEntity
  8
0
100
AcDbLine
 62
7
  6
CONTINUOUS
 10
-1.387451
 20
51.713526
 11
-2.358538
 21
55.100104
  0
LWPOLYLINE
  5
420
100
AcDbEntity
  8
0
100
AcDbPolyline
 62
7
  6
CONTINUOUS
 90
10
 70
0
 10
23.4121397157
 20
-66.0067007874
 10
23.3997589263
 20
-65.9629023867
 10
23.3868186643
 20
-65.9186954879
 10
23.3733189299
 20
-65.8740800911
 10
23.3592525975
 20
-65.829053921
 10
23.3446267926
 20
-65.7836192529
 10
23.3294628918
 20
-65.7377829123
 10
23.3137680207
 20
-65.6915471745
 10
23.2975350537
 20
-65.6449097641
 10
22.6305247058
 20
-63.7832721267
  0
LINE
  5
421
100
AcDbEntity
  8
0
100
AcDbLine
 62
7
  6
CONTINUOUS
 10
-6.4354164839
 20
46.4627658904
 11
-6.3875
 21
46.2670212328
  0
LINE
  5
422
100
AcDbEntity
  8
0
100
AcDbLine
 62
7
  6
CONTINUOUS
 10
-6.1
 20
46.2670212328
 11
-6.1479164839
 21
46.5117021918
  0
LINE
  5
423
100
AcDbEntity
  8
0
100
AcDbLine
 62
7
  6
CONTINUOUS
 10
14.2376502117
 20
-64.0716349032
 11
14.2376502117
 21
-66.2874751855
  0
LINE
  5
424
100
AcDbEntity
  8
0
100
AcDbLine
 62
7
  6
CONTINUOUS
 10
14.5715439529
 20
-66.2874751855
 11
14.5715439529
 21
-64.0716349032
  0
LINE
  5
425
100
AcDbEntity
  8
0
100
AcDbLine
 62
7
  6
CONTINUOUS
 10
15.3911013176
 20
-64.0716349032
 11
15.3911013176
 21
-63.7832721267
  0
LINE
  5
426
100
AcDbEntity
  8
0
100
AcDbLine
 62
7
  6
CONTINUOUS
 10
15.7705260235
 20
-63.7832721267
 11
15.7705260235
 21
-66.2874751855
  0
LINE
  5
427
100
AcDbEntity
  8
0
100
AcDbLine
 62
7
  6
CONTINUOUS
 10
16.1044197647
 20
-66.2874751855
 11
16.1044197647
 21
-63.7832721267
  0
LINE
  5
428
100
AcDbEntity
  8
0
100
AcDbLine
 62
7
  6
CONTINUOUS
 10
17.2637992404
 20
-60.7461231729
 11
17.2637992404
 21
-61.0439714802
  0
LINE
  5
429
100
AcDbEntity
  8
0
100
AcDbLine
 62
7
  6
CONTINUOUS
 10
17.8860557581
 20
-60.6726096723
 11
17.8860557581
 21
-62.635658324
  0
LINE
  5
42A
100
AcDbEntity
  8
0
100
AcDbLine
 62
7
  6
CONTINUOUS
 10
18.1895955228
 20
-62.635658324
 11
18.1895955228
 21
-60.1162782769
  0
LINE
  5
42B
100
AcDbEntity
  8
0
100
AcDbLine
 62
7
  6
CONTINUOUS
 10
18.8725599934
 20
-61.7553930063
 11
18.8725599934
 21
-62.0437557828
  0
LINE
  5
42C
100
AcDbEntity
  8
0
100
AcDbLine
 62
7
  6
CONTINUOUS
 10
19.9804801346
 20
-60.6379871028
 11
19.9804801346
 21
-61.7553930063
  0
LINE
  5
42D
100
AcDbEntity
  8
0
100
AcDbLine
 62
7
  6
CONTINUOUS
 10
19.9804801346
 20
-62.0437557828
 11
19.9804801346
 21
-62.635658324
  0
LINE
  5
42E
100
AcDbEntity
  8
0
100
AcDbLine
 62
7
  6
CONTINUOUS
 10
20.2840198993
 20
-62.635658324
 11
20.2840198993
 21
-62.0437557828
  0
LINE
  5
42F
100
AcDbEntity
  8
0
100
AcDbLine
 62
7
  6
CONTINUOUS
 10
20.2840198993
 20
-61.7553930063
 11
20.2840198993
 21
-60.1314552652
  0
LINE
  5
430
100
AcDbEntity
  8
0
100
AcDbLine
 62
7
  6
CONTINUOUS
 10
20.6179136404
 20
-62.0437557828
 11
20.6179136404
 21
-61.7553930063
  0
LINE
  5
431
100
AcDbEntity
  8
0
100
AcDbLine
 62
7
  6
CONTINUOUS
 10
24.8767189646
 20
-63.7832721267
 11
24.8767189646
 21
-66.2874751855
  0
LINE
  5
432
100
AcDbEntity
  8
0
100
AcDbLine
 62
7
  6
CONTINUOUS
 10
25.2106127058
 20
-66.2874751855
 11
25.2106127058
 21
-63.7832721267
  0
LWPOLYLINE
  5
433
100
AcDbEntity
  8
0
100
AcDbPolyline
 62
7
  6
CONTINUOUS
 90
31
 70
0
 10
16.9239771294
 20
-65.0149793828
 10
16.9258870949
 20
-64.9481494744
 10
16.9298798656
 20
-64.8841574025
 10
16.9359554415
 20
-64.8230031672
 10
16.9443560251
 20
-64.7647865555
 10
16.9548394139
 20
-64.7094077803
 10
16.9666789996
 20
-64.6565674808
 10
16.9795963062
 20
-64.6061996223
 10
16.9938698098
 20
-64.5583702395
 10
17.0096083299
 20
-64.5129780753
 10
17.0266725308
 20
-64.4702136174
 10
17.0452017483
 20
-64.4298863782
 10
17.0657228095
 20
-64.3913236373
 10
17.0884361979
 20
-64.3543207204
 10
17.11314143
 20
-64.319082302
 10
17.1397638815
 20
-64.2855496852
 10
17.168401987
 20
-64.2535800549
 10
17.198957312
 20
-64.2233162264
 10
17.2310599291
 20
-64.1951279485
 10
17.2645725972
 20
-64.1691356212
 10
17.2996325574
 20
-64.1452188446
 10
17.3362816052
 20
-64.123386168
 10
17.3744612421
 20
-64.103590172
 10
17.4142299667
 20
-64.0858782761
 10
17.4558050703
 20
-64.0704012876
 10
17.4990690783
 20
-64.0571602198
 10
17.5441394653
 20
-64.0461540596
 10
17.5915859459
 20
-64.0375305746
 10
17.6415984248
 20
-64.0313390206
 10
17.6939869973
 20
-64.027530142
 10
17.7487516634
 20
-64.0261039385
  0
LWPOLYLINE
  5
434
100
AcDbEntity
  8
0
100
AcDbPolyline
 62
7
  6
CONTINUOUS
 90
52
 70
0
 10
6.1542438522
 20
-61.7568156391
 10
6.1402118067
 20
-61.814704775
 10
6.124259196
 20
-61.8693873683
 10
6.1063860201
 20
-61.9208634191
 10
6.0865044755
 20
-61.9690344852
 10
6.0647023657
 20
-62.0139990088
 10
6.0412431014
 20
-62.0560523161
 10
6.0161380178
 20
-62.0951675666
 10
5.9893757798
 20
-62.1313716008
 10
5.9611857932
 20
-62.1650402669
 10
5.9317022056
 20
-62.1961866425
 10
5.9007908695
 20
-62.22479765
 10
5.8682787476
 20
-62.2512099045
 10
5.8341395619
 20
-62.2755284898
 10
5.7983995905
 20
-62.2976483221
 10
5.7609646298
 20
-62.3175907652
 10
5.721874787
 20
-62.3354415383
 10
5.6810899548
 20
-62.3511149223
 10
5.6383956083
 20
-62.3643751232
 10
5.5935567269
 20
-62.3752669207
 10
5.546808331
 20
-62.3837455351
 10
5.498640957
 20
-62.3894408332
 10
5.4486805877
 20
-62.3922973845
 10
5.3973012402
 20
-62.3923706196
 10
5.3461155023
 20
-62.3894566975
 10
5.2952152246
 20
-62.3833739958
 10
5.2445085565
 20
-62.374304137
 10
5.1953325346
 20
-62.3625881477
 10
5.1479122662
 20
-62.3481674049
 10
5.1020226439
 20
-62.3311005315
 10
5.0583253825
 20
-62.3119044232
 10
5.0169635243
 20
-62.2905818928
 10
4.9777940269
 20
-62.2671301275
 10
4.9410494774
 20
-62.2420575831
 10
4.9069779792
 20
-62.2156721976
 10
4.8753314289
 20
-62.187666033
 10
4.8455981035
 20
-62.1576237327
 10
4.8177813638
 20
-62.1257517643
 10
4.7918778489
 20
-62.0918436601
 10
4.7673657529
 20
-62.0548646602
 10
4.7439847102
 20
-62.0144941953
 10
4.7219950863
 20
-61.9710528347
 10
4.7016561712
 20
-61.9244675261
 10
4.6829366602
 20
-61.8747155932
 10
4.6658678581
 20
-61.8218197122
 10
4.6508029695
 20
-61.7657748598
 10
4.6377490322
 20
-61.7065869457
 10
4.6266990086
 20
-61.6442500601
 10
4.6179849896
 20
-61.5787414502
 10
4.6117176724
 20
-61.5100535316
 10
4.60778636
 20
-61.4381938886
 10
4.6061910522
 20
-61.3631625212
  0
LWPOLYLINE
  5
435
100
AcDbEntity
  8
0
100
AcDbPolyline
 62
7
  6
CONTINUOUS
 90
3
 70
0
 10
-5.2379217897
 20
-58.4721435632
 10
-5.2527604977
 20
-58.5161612175
 10
-5.2816166672
 20
-58.6034681803
  0
LWPOLYLINE
  5
436
100
AcDbEntity
  8
0
100
AcDbPolyline
 62
7
  6
CONTINUOUS
 90
3
 70
0
 10
2.0411041933
 20
-65.7909542745
 10
2.0262654853
 20
-65.8349719288
 10
1.9974093158
 20
-65.9222788916
  0
LINE
  5
437
100
AcDbEntity
  8
0
100
AcDbLine
 62
7
  6
CONTINUOUS
 10
-5.2073539138
 20
-58.3833800075
 11
-5.2379217897
 21
-58.4721435632
  0
LINE
  5
438
100
AcDbEntity
  8
0
100
AcDbLine
 62
7
  6
CONTINUOUS
 10
2.0716720692
 20
-65.7021907188
 11
2.0411041933
 21
-65.7909542745
  0
LINE
  5
439
100
AcDbEntity
  8
0
100
AcDbLine
 62
7
  6
CONTINUOUS
 10
-6.3971254183
 20
-62.635658324
 11
-6.1331880168
 21
-61.8768089122
  0
LINE
  5
43A
100
AcDbEntity
  8
0
100
AcDbLine
 62
7
  6
CONTINUOUS
 10
-3.4831436772
 20
-58.9686644742
 11
-3.2192062757
 21
-58.2098150625
  0
LINE
  5
43B
100
AcDbEntity
  8
0
100
AcDbLine
 62
7
  6
CONTINUOUS
 10
-6.8735404235
 20
-70.0
 11
-6.609603022
 21
-69.2411505882
  0
LINE
  5
43C
100
AcDbEntity
  8
0
100
AcDbLine
 62
7
  6
CONTINUOUS
 10
3.7958823059
 20
-66.2874751855
 11
4.0598197074
 21
-65.5286257738
  0
LINE
  5
43D
100
AcDbEntity
  8
0
100
AcDbLine
 62
7
  6
CONTINUOUS
 10
-5.1632836341
 20
-58.9686644742
 11
-4.4241169477
 21
-56.8742400978
  0
LINE
  5
43E
100
AcDbEntity
  8
0
100
AcDbLine
 62
7
  6
CONTINUOUS
 10
2.1157423489
 20
-66.2874751855
 11
2.8549090353
 21
-64.1930508091
  0
LINE
  5
43F
100
AcDbEntity
  8
0
100
AcDbLine
 62
7
  6
CONTINUOUS
 10
-5.1440751969
 20
-58.2029378847
 11
-5.2073539138
 21
-58.3833800075
  0
LINE
  5
440
100
AcDbEntity
  8
0
100
AcDbLine
 62
7
  6
CONTINUOUS
 10
2.1349507861
 20
-65.521748596
 11
2.0716720692
 21
-65.7021907188
  0
LINE
  5
441
100
AcDbEntity
  8
0
100
AcDbLine
 62
7
  6
CONTINUOUS
 10
-4.524664408
 20
-56.4644614154
 11
-5.1440751969
 21
-58.2029378847
  0
LINE
  5
442
100
AcDbEntity
  8
0
100
AcDbLine
 62
7
  6
CONTINUOUS
 10
2.7543615751
 20
-63.7832721267
 11
2.1349507861
 21
-65.521748596
  0
LWPOLYLINE
  5
443
100
AcDbEntity
  8
0
100
AcDbPolyline
 62
7
  6
CONTINUOUS
 90
9
 70
0
 10
2.1083001831
 20
-61.9921656589
 10
2.0914304564
 20
-62.0381110933
 10
2.0750929878
 20
-62.0838901231
 10
2.0592909216
 20
-62.1295096325
 10
2.0440211134
 20
-62.1749627373
 10
2.0292741302
 20
-62.2202287843
 10
2.0150468276
 20
-62.2653008892
 10
2.0013423501
 20
-62.3101859364
 10
1.9881606974
 20
-62.3548839258
  0
LINE
  5
444
100
AcDbEntity
  8
0
100
AcDbLine
 62
7
  6
CONTINUOUS
 10
-6.0380946384
 20
-61.603623124
 11
-5.7675174348
 21
-60.872519104
  0
LINE
  5
445
100
AcDbEntity
  8
0
100
AcDbLine
 62
7
  6
CONTINUOUS
 10
-3.1241128972
 20
-57.9366292742
 11
-2.8535356937
 21
-57.2055252543
  0
LINE
  5
446
100
AcDbEntity
  8
0
100
AcDbLine
 62
7
  6
CONTINUOUS
 10
-6.5145096436
 20
-68.9679648
 11
-6.24393244
 21
-68.2368607801
  0
LINE
  5
447
100
AcDbEntity
  8
0
100
AcDbLine
 62
7
  6
CONTINUOUS
 10
-8.0362401477
 20
-60.1314552652
 11
-8.7432464051
 21
-61.9921656589
  0
LINE
  5
448
100
AcDbEntity
  8
0
100
AcDbLine
 62
7
  6
CONTINUOUS
 10
-5.7976342672
 20
-60.1314552652
 11
-6.749515933
 21
-62.635658324
  0
LINE
  5
449
100
AcDbEntity
  8
0
100
AcDbLine
 62
7
  6
CONTINUOUS
 10
-2.8836525261
 20
-56.4644614154
 11
-3.8355341918
 21
-58.9686644742
  0
LINE
  5
44A
100
AcDbEntity
  8
0
100
AcDbLine
 62
7
  6
CONTINUOUS
 10
-6.2740492724
 20
-67.4957969412
 11
-7.2259309382
 21
-70.0
  0
LINE
  5
44B
100
AcDbEntity
  8
0
100
AcDbLine
 62
7
  6
CONTINUOUS
 10
2.8153064405
 20
-60.1314552652
 11
2.1083001831
 21
-61.9921656589
  0
LINE
  5
44C
100
AcDbEntity
  8
0
100
AcDbLine
 62
7
  6
CONTINUOUS
 10
-8.6779420151
 20
-58.9686644742
 11
-7.6791065203
 21
-56.4644614154
  0
LINE
  5
44D
100
AcDbEntity
  8
0
100
AcDbLine
 62
7
  6
CONTINUOUS
 10
-8.6779420151
 20
-62.635658324
 11
-7.6791065203
 21
-60.1314552652
  0
LINE
  5
44E
100
AcDbEntity
  8
0
100
AcDbLine
 62
7
  6
CONTINUOUS
 10
2.1736045731
 20
-62.635658324
 11
3.1724400679
 21
-60.1314552652
  0
LWPOLYLINE
  5
44F
100
AcDbEntity
  8
0
100
AcDbPolyline
 62
7
  6
CONTINUOUS
 90
10
 70
0
 10
-5.7675174348
 20
-60.872519104
 10
-5.7466383864
 20
-60.8209886215
 10
-5.7267370347
 20
-60.7688731764
 10
-5.7078133797
 20
-60.7161727688
 10
-5.689841224
 20
-60.6628215483
 10
-5.672846765
 20
-60.6088853652
 10
-5.6569085948
 20
-60.5545617703
 10
-5.6420529106
 20
-60.4999166137
 10
-5.6282535152
 20
-60.4448840454
 10
-5.6155104084
 20
-60.3894640652
  0
LWPOLYLINE
  5
450
100
AcDbEntity
  8
0
100
AcDbPolyline
 62
7
  6
CONTINUOUS
 90
10
 70
0
 10
-2.8535356937
 20
-57.2055252543
 10
-2.8326566453
 20
-57.1539947718
 10
-2.8127552936
 20
-57.1018793267
 10
-2.7938316385
 20
-57.049178919
 10
-2.7758594829
 20
-56.9958276985
 10
-2.7588650239
 20
-56.9418915154
 10
-2.7429268536
 20
-56.8875679205
 10
-2.7280711694
 20
-56.832922764
 10
-2.714271774
 20
-56.7778901956
 10
-2.7015286673
 20
-56.7224702154
  0
LWPOLYLINE
  5
451
100
AcDbEntity
  8
0
100
AcDbPolyline
 62
7
  6
CONTINUOUS
 90
10
 70
0
 10
-6.24393244
 20
-68.2368607801
 10
-6.2230533916
 20
-68.1853302975
 10
-6.2031520399
 20
-68.1332148524
 10
-6.1842283849
 20
-68.0805144448
 10
-6.1662562292
 20
-68.0271632243
 10
-6.1492617702
 20
-67.9732270412
 10
-6.1333236
 20
-67.9189034463
 10
-6.1184679158
 20
-67.8642582897
 10
-6.1046685204
 20
-67.8092257214
 10
-6.0919254136
 20
-67.7538057412
  0
LINE
  5
452
100
AcDbEntity
  8
0
100
AcDbLine
 62
7
  6
CONTINUOUS
 10
-6.53125
 20
46.6095745206
 11
-6.4354164839
 21
46.4627658904
  0
LINE
  5
453
100
AcDbEntity
  8
0
100
AcDbLine
 62
7
  6
CONTINUOUS
 10
0.9916670322
 20
45.0925531849
 11
-0.20625
 21
47.05
  0
LINE
  5
454
100
AcDbEntity
  8
0
100
AcDbLine
 62
7
  6
CONTINUOUS
 10
-0.35
 20
46.7563830137
 11
0.8479170322
 21
44.75
  0
LINE
  5
455
100
AcDbEntity
  8
ASSI
100
AcDbLine
 62
7
  6
CONTINUOUS
 10
7.508424
 20
33.453315
 11
7.758672
 21
33.007453
  0
LINE
  5
456
100
AcDbEntity
  8
0
100
AcDbLine
 62
7
  6
CONTINUOUS
 10
2.7664996777
 20
40.9648936033
 11
2.8510003223
 21
40.8117021322
  0
LINE
  5
457
100
AcDbEntity
  8
0
100
AcDbLine
 62
7
  6
CONTINUOUS
 10
5.6395003223
 20
41.9351063251
 11
5.5549996777
 21
42.0882979393
  0
LINE
  5
458
100
AcDbEntity
  8
0
100
AcDbLine
 62
7
  6
CONTINUOUS
 10
-6.1479164839
 20
46.5117021918
 11
-6.24375
 21
46.7074468493
  0
LINE
  5
459
100
AcDbEntity
  8
0
100
AcDbLine
 62
7
  6
CONTINUOUS
 10
0.3160003223
 20
42.0882979393
 11
0.2314996777
 21
42.2925532341
  0
LINE
  5
45A
100
AcDbEntity
  8
0
100
AcDbLine
 62
7
  6
CONTINUOUS
 10
8.7541659355
 20
44.75
 11
7.9875
 21
47.05
  0
LINE
  5
45B
100
AcDbEntity
  8
0
100
AcDbLine
 62
7
  6
CONTINUOUS
 10
2.682
 20
41.2202127934
 11
2.7664996777
 21
40.9648936033
  0
LINE
  5
45C
100
AcDbEntity
  8
0
100
AcDbLine
 62
7
  6
CONTINUOUS
 10
5.724
 20
41.6797872066
 11
5.6395003223
 21
41.9351063251
  0
LINE
  5
45D
100
AcDbEntity
  8
0
100
AcDbLine
 62
7
  6
CONTINUOUS
 10
8.275
 20
45.3372340411
 11
8.4666659355
 21
44.75
  0
LINE
  5
45E
100
AcDbEntity
  8
0
100
AcDbLine
 62
7
  6
CONTINUOUS
 10
7.7958340645
 20
46.8542553425
 11
8.2270840645
 21
45.5329786986
  0
LINE
  5
45F
100
AcDbEntity
  8
0
100
AcDbLine
 62
7
  6
CONTINUOUS
 10
4.860193
 20
50.922541
 11
5.188521
 21
49.899883
  0
LINE
  5
460
100
AcDbEntity
  8
0
100
AcDbLine
 62
7
  6
CONTINUOUS
 10
4.038892
 20
53.480512
 11
4.542941
 21
51.91058
  0
LINE
  5
461
100
AcDbEntity
  8
0
100
AcDbLine
 62
7
  6
CONTINUOUS
 10
6.228573
 20
49.89987
 11
4.558944
 21
55.100117
  0
LINE
  5
462
100
AcDbEntity
  8
0
100
AcDbLine
 62
7
  6
CONTINUOUS
 10
3.189
 20
40.9648936033
 11
3.1045003223
 21
41.2712766171
  0
LINE
  5
463
100
AcDbEntity
  8
0
100
AcDbLine
 62
7
  6
CONTINUOUS
 10
5.217
 20
41.9351063251
 11
5.3014996777
 21
41.6287233829
  0
LWPOLYLINE
  5
464
100
AcDbEntity
  8
0
100
AcDbPolyline
 62
7
  6
CONTINUOUS
 90
52
 70
0
 10
18.4720299294
 20
-65.4086325007
 10
18.4579978838
 20
-65.4665216365
 10
18.4420452731
 20
-65.5212042299
 10
18.4241720973
 20
-65.5726802806
 10
18.4042905526
 20
-65.6208513468
 10
18.3824884428
 20
-65.6658158703
 10
18.3590291786
 20
-65.7078691776
 10
18.3339240949
 20
-65.7469844281
 10
18.3071618569
 20
-65.7831884623
 10
18.2789718703
 20
-65.8168571284
 10
18.2494882828
 20
-65.848003504
 10
18.2185769466
 20
-65.8766145115
 10
18.1860648247
 20
-65.903026766
 10
18.1519256391
 20
-65.9273453513
 10
18.1161856676
 20
-65.9494651836
 10
18.0787507069
 20
-65.9694076267
 10
18.0396608641
 20
-65.9872583999
 10
17.998876032
 20
-66.0029317838
 10
17.9561816854
 20
-66.0161919847
 10
17.911342804
 20
-66.0270837822
 10
17.8645944081
 20
-66.0355623966
 10
17.8164270341
 20
-66.0412576948
 10
17.7664666648
 20
-66.044114246
 10
17.7150873173
 20
-66.0441874811
 10
17.6639015795
 20
-66.041273559
 10
17.6130013017
 20
-66.0351908573
 10
17.5622946337
 20
-66.0261209985
 10
17.5131186118
 20
-66.0144050092
 10
17.4656983433
 20
-65.9999842664
 10
17.4198087211
 20
-65.9829173931
 10
17.3761114596
 20
-65.9637212847
 10
17.3347496014
 20
-65.9423987544
 10
17.295580104
 20
-65.918946989
 10
17.2588355545
 20
-65.8938744447
 10
17.2247640563
 20
-65.8674890591
 10
17.193117506
 20
-65.8394828946
 10
17.1633841806
 20
-65.8094405943
 10
17.1355674409
 20
-65.7775686259
 10
17.1096639261
 20
-65.7436605217
 10
17.08515183
 20
-65.7066815217
 10
17.0617707873
 20
-65.6663110569
 10
17.0397811634
 20
-65.6228696963
 10
17.0194422484
 20
-65.5762843877
 10
17.0007227373
 20
-65.5265324547
 10
16.9836539352
 20
-65.4736365738
 10
16.9685890466
 20
-65.4175917213
 10
16.9555351094
 20
-65.3584038072
 10
16.9444850857
 20
-65.2960669217
 10
16.9357710667
 20
-65.2305583117
 10
16.9295037496
 20
-65.1618703931
 10
16.9255724371
 20
-65.0900107501
 10
16.9239771294
 20
-65.0149793828
  0
LINE
  5
465
100
AcDbEntity
  8
0
100
AcDbLine
 62
7
  6
CONTINUOUS
 10
6.9738012169
 20
-58.9686644742
 11
7.2377386184
 21
-58.2098150625
  0
LINE
  5
466
100
AcDbEntity
  8
0
100
AcDbLine
 62
7
  6
CONTINUOUS
 10
13.9400388169
 20
-62.635658324
 11
14.2039762184
 21
-61.8768089122
  0
LINE
  5
467
100
AcDbEntity
  8
0
100
AcDbLine
 62
7
  6
CONTINUOUS
 10
4.1549130858
 20
-65.2554399855
 11
4.4254902894
 21
-64.5243359656
  0
LINE
  5
468
100
AcDbEntity
  8
0
100
AcDbLine
 62
7
  6
CONTINUOUS
 10
7.3328319969
 20
-57.9366292742
 11
7.6034092004
 21
-57.2055252543
  0
LINE
  5
469
100
AcDbEntity
  8
0
100
AcDbLine
 62
7
  6
CONTINUOUS
 10
14.2990695968
 20
-61.603623124
 11
14.5696468004
 21
-60.872519104
  0
LINE
  5
46A
100
AcDbEntity
  8
0
100
AcDbLine
 62
7
  6
CONTINUOUS
 10
4.3953734569
 20
-63.7832721267
 11
3.4434917912
 21
-66.2874751855
  0
LINE
  5
46B
100
AcDbEntity
  8
0
100
AcDbLine
 62
7
  6
CONTINUOUS
 10
7.573292368
 20
-56.4644614154
 11
6.6214107023
 21
-58.9686644742
  0
LINE
  5
46C
100
AcDbEntity
  8
0
100
AcDbLine
 62
7
  6
CONTINUOUS
 10
14.539529968
 20
-60.1314552652
 11
13.5876483023
 21
-62.635658324
  0
LWPOLYLINE
  5
46D
100
AcDbEntity
  8
0
100
AcDbPolyline
 62
7
  6
CONTINUOUS
 90
10
 70
0
 10
4.4254902894
 20
-64.5243359656
 10
4.4463693378
 20
-64.4728054831
 10
4.4662706895
 20
-64.420690038
 10
4.4851943445
 20
-64.3679896303
 10
4.5031665002
 20
-64.3146384098
 10
4.5201609591
 20
-64.2607022267
 10
4.5360991294
 20
-64.2063786318
 10
4.5509548136
 20
-64.1517334753
 10
4.564754209
 20
-64.0967009069
 10
4.5774973158
 20
-64.0412809267
  0
LWPOLYLINE
  5
46E
100
AcDbEntity
  8
0
100
AcDbPolyline
 62
7
  6
CONTINUOUS
 90
10
 70
0
 10
7.6034092004
 20
-57.2055252543
 10
7.6242882488
 20
-57.1539947718
 10
7.6441896005
 20
-57.1018793267
 10
7.6631132556
 20
-57.049178919
 10
7.6810854112
 20
-56.9958276985
 10
7.6980798702
 20
-56.9418915154
 10
7.7140180405
 20
-56.8875679205
 10
7.7288737247
 20
-56.832922764
 10
7.7426731201
 20
-56.7778901956
 10
7.7554162268
 20
-56.7224702154
  0
LWPOLYLINE
  5
46F
100
AcDbEntity
  8
0
100
AcDbPolyline
 62
7
  6
CONTINUOUS
 90
10
 70
0
 10
14.5696468004
 20
-60.872519104
 10
14.5905258488
 20
-60.8209886215
 10
14.6104272005
 20
-60.7688731764
 10
14.6293508555
 20
-60.7161727688
 10
14.6473230112
 20
-60.6628215483
 10
14.6643174702
 20
-60.6088853652
 10
14.6802556405
 20
-60.5545617703
 10
14.6951113247
 20
-60.4999166137
 10
14.7089107201
 20
-60.4448840454
 10
14.7216538268
 20
-60.3894640652
  0
LINE
  5
470
100
AcDbEntity
  8
0
100
AcDbLine
 62
7
  6
CONTINUOUS
 10
-1.0519795992
 20
-67.4957969412
 11
-1.8063232738
 21
-68.6627650269
  0
LWPOLYLINE
  5
471
100
AcDbEntity
  8
0
100
AcDbPolyline
 62
7
  6
CONTINUOUS
 90
28
 70
0
 10
-4.9279216287
 20
-65.8739021982
 10
-4.9522818054
 20
-65.9045118201
 10
-4.9770359327
 20
-65.9323905328
 10
-5.0021840107
 20
-65.9575383363
 10
-5.0277584893
 20
-65.9798568496
 10
-5.0537269185
 20
-65.9994444537
 10
-5.0799919486
 20
-66.0165962917
 10
-5.1063606655
 20
-66.0312772494
 10
-5.1330259833
 20
-66.043522441
 10
-5.1604692945
 20
-66.0537323523
 10
-5.1888843491
 20
-66.0620554474
 10
-5.2180773971
 20
-66.0683432623
 10
-5.2479485802
 20
-66.0725508903
 10
-5.2789058382
 20
-66.0746648281
 10
-5.3105412313
 20
-66.0746985791
 10
-5.341531082
 20
-66.0726477463
 10
-5.3714814258
 20
-66.0684942096
 10
-5.4007862272
 20
-66.0622560893
 10
-5.4293037023
 20
-66.0539833488
 10
-5.4568260032
 20
-66.0438243297
 10
-5.4835609777
 20
-66.0316306906
 10
-5.5099903852
 20
-66.0170073708
 10
-5.5363032525
 20
-65.9999234924
 10
-5.5623105528
 20
-65.9804099334
 10
-5.5879269648
 20
-65.9581642675
 10
-5.613124048
 20
-65.933085686
 10
-5.637930243
 20
-65.9052749976
 10
-5.6623455497
 20
-65.8747322024
  0
LWPOLYLINE
  5
472
100
AcDbEntity
  8
0
100
AcDbPolyline
 62
7
  6
CONTINUOUS
 90
28
 70
0
 10
-5.6510813226
 20
-64.2053820686
 10
-5.6290339893
 20
-64.1782413605
 10
-5.6063843665
 20
-64.1534869086
 10
-5.5831324543
 20
-64.131118713
 10
-5.5592963379
 20
-64.1112242294
 10
-5.5348579321
 20
-64.093716002
 10
-5.5097629807
 20
-64.0783316635
 10
-5.4841946668
 20
-64.0650715705
 10
-5.4579698073
 20
-64.0539353664
 10
-5.4304845968
 20
-64.0446596139
 10
-5.4013529311
 20
-64.0370880775
 10
-5.3709609145
 20
-64.0313769927
 10
-5.3398630535
 20
-64.0277316295
 10
-5.3076719697
 20
-64.0262318254
 10
-5.2747750416
 20
-64.0267977429
 10
-5.2428889107
 20
-64.0293951401
 10
-5.2126155727
 20
-64.0340379625
 10
-5.1833530319
 20
-64.0407122646
 10
-5.1550119432
 20
-64.0493419676
 10
-5.1277601257
 20
-64.0597577229
 10
-5.1014297603
 20
-64.0721288792
 10
-5.0754280445
 20
-64.0868874034
 10
-5.0495243891
 20
-64.1040700229
 10
-5.0239493833
 20
-64.1236400103
 10
-4.9988019926
 20
-64.1459191503
 10
-4.9741152054
 20
-64.1710147046
 10
-4.9498560333
 20
-64.1988194116
 10
-4.9260244762
 20
-64.2293332712
  0
LINE
  5
473
100
AcDbEntity
  8
0
100
AcDbLine
 62
7
  6
CONTINUOUS
 10
-13.5
 20
29.75
 11
13.5
 21
29.75
  0
LINE
  5
474
100
AcDbEntity
  8
ASSI
100
AcDbLine
 62
7
  6
CONTINUOUS
 10
5.732239
 20
32.762971
 11
7.274788
 21
32.762971
  0
LINE
  5
475
100
AcDbEntity
  8
ASSI
100
AcDbLine
 62
7
  6
CONTINUOUS
 10
7.274788
 20
33.30662
 11
6.793186
 21
33.30662
  0
LINE
  5
476
100
AcDbEntity
  8
ASSI
100
AcDbLine
 62
7
  6
CONTINUOUS
 10
6.214029
 20
33.30662
 11
5.732239
 21
33.30662
  0
LINE
  5
477
100
AcDbEntity
  8
ASSI
100
AcDbLine
 62
7
  6
CONTINUOUS
 10
5.749993
 20
37.168974
 11
6.214029
 21
37.168974
  0
LINE
  5
478
100
AcDbEntity
  8
ASSI
100
AcDbLine
 62
7
  6
CONTINUOUS
 10
6.793186
 20
37.168974
 11
7.257034
 21
37.168974
  0
LINE
  5
479
100
AcDbEntity
  8
0
100
AcDbLine
 62
7
  6
CONTINUOUS
 10
0.2314996777
 20
42.2925532341
 11
-0.1065
 21
42.4968085289
  0
LINE
  5
47A
100
AcDbEntity
  8
0
100
AcDbLine
 62
7
  6
CONTINUOUS
 10
3.0199996777
 20
40.6074468017
 11
3.2734996777
 21
40.4542553127
  0
LINE
  5
47B
100
AcDbEntity
  8
0
100
AcDbLine
 62
7
  6
CONTINUOUS
 10
-6.675
 20
46.7074468493
 11
-6.53125
 21
46.6095745206
  0
LINE
  5
47C
100
AcDbEntity
  8
ASSI
100
AcDbLine
 62
7
  6
CONTINUOUS
 10
4.752224
 20
36.340998
 11
6.214029
 21
35.109126
  0
LINE
  5
47D
100
AcDbEntity
  8
ASSI
100
AcDbLine
 62
7
  6
CONTINUOUS
 10
6.214029
 20
35.782847
 11
4.684752
 21
37.071578
  0
LINE
  5
47E
100
AcDbEntity
  8
0
100
AcDbLine
 62
7
  6
CONTINUOUS
 10
-0.36
 20
42.2414894104
 11
-0.1909996777
 21
42.0882979393
  0
LINE
  5
47F
100
AcDbEntity
  8
0
100
AcDbLine
 62
7
  6
CONTINUOUS
 10
3.5269996777
 20
40.6585106254
 11
3.189
 21
40.9648936033
  0
LINE
  5
480
100
AcDbEntity
  8
0
100
AcDbLine
 62
7
  6
CONTINUOUS
 10
4.8790003223
 20
42.2414894104
 11
5.217
 21
41.9351063251
  0
LINE
  5
481
100
AcDbEntity
  8
0
100
AcDbLine
 62
7
  6
CONTINUOUS
 10
-6.24375
 20
46.7074468493
 11
-6.4354164839
 21
46.9031915069
  0
LINE
  5
482
100
AcDbEntity
  8
0
100
AcDbLine
 62
7
  6
CONTINUOUS
 10
2.8510003223
 20
40.8117021322
 11
3.0199996777
 21
40.6074468017
  0
LINE
  5
483
100
AcDbEntity
  8
0
100
AcDbLine
 62
7
  6
CONTINUOUS
 10
5.5549996777
 20
42.0882979393
 11
5.3860003223
 21
42.2925532341
  0
LINE
  5
484
100
AcDbEntity
  8
0
100
AcDbLine
 62
7
  6
CONTINUOUS
 10
11.2458340645
 20
47.05
 11
12.0125
 21
45.9244680822
  0
LINE
  5
485
100
AcDbEntity
  8
0
100
AcDbLine
 62
7
  6
CONTINUOUS
 10
12.15625
 20
46.1202127397
 11
11.5333340645
 21
47.05
  0
LINE
  5
486
100
AcDbEntity
  8
0
100
AcDbLine
 62
7
  6
CONTINUOUS
 10
8.869822
 20
51.91058
 11
9.912071
 21
49.899883
  0
LINE
  5
487
100
AcDbEntity
  8
0
100
AcDbLine
 62
7
  6
CONTINUOUS
 10
11.083514
 20
49.899896
 11
9.976444926
 21
52.0356570011
  0
LINE
  5
488
100
AcDbEntity
  8
0
100
AcDbLine
 62
7
  6
CONTINUOUS
 10
19.2915872941
 20
-66.2874751855
 11
19.5555246956
 21
-65.5286257738
  0
LWPOLYLINE
  5
489
100
AcDbEntity
  8
0
100
AcDbPolyline
 62
7
  6
CONTINUOUS
 90
9
 70
0
 10
23.5322792014
 20
-65.6439825204
 10
23.5154094747
 20
-65.6899279549
 10
23.4990720061
 20
-65.7357069846
 10
23.4832699399
 20
-65.7813264941
 10
23.4680001317
 20
-65.8267795988
 10
23.4532531485
 20
-65.8720456458
 10
23.4390258459
 20
-65.9171177507
 10
23.4253213683
 20
-65.9620027979
 10
23.4121397157
 20
-66.0067007874
  0
LINE
  5
48A
100
AcDbEntity
  8
0
100
AcDbLine
 62
7
  6
CONTINUOUS
 10
19.650618074
 20
-65.2554399855
 11
19.9211952776
 21
-64.5243359656
  0
LINE
  5
48B
100
AcDbEntity
  8
0
100
AcDbLine
 62
7
  6
CONTINUOUS
 10
19.8910784452
 20
-63.7832721267
 11
18.9391967794
 21
-66.2874751855
  0
LINE
  5
48C
100
AcDbEntity
  8
0
100
AcDbLine
 62
7
  6
CONTINUOUS
 10
24.2392854588
 20
-63.7832721267
 11
23.5322792014
 21
-65.6439825204
  0
LINE
  5
48D
100
AcDbEntity
  8
0
100
AcDbLine
 62
7
  6
CONTINUOUS
 10
23.5975835914
 20
-66.2874751855
 11
24.5964190862
 21
-63.7832721267
  0
LWPOLYLINE
  5
48E
100
AcDbEntity
  8
0
100
AcDbPolyline
 62
7
  6
CONTINUOUS
 90
10
 70
0
 10
19.9211952776
 20
-64.5243359656
 10
19.942074326
 20
-64.4728054831
 10
19.9619756777
 20
-64.420690038
 10
19.9808993327
 20
-64.3679896303
 10
19.9988714884
 20
-64.3146384098
 10
20.0158659474
 20
-64.2607022267
 10
20.0318041176
 20
-64.2063786318
 10
20.0466598018
 20
-64.1517334753
 10
20.0604591973
 20
-64.0967009069
 10
20.073202304
 20
-64.0412809267
  0
LWPOLYLINE
  5
48F
100
AcDbEntity
  8
0
100
AcDbPolyline
 62
7
  6
CONTINUOUS
 90
19
 70
0
 10
17.9939546842
 20
-60.1162782769
 10
17.9757095815
 20
-60.1505476893
 10
17.9549369328
 20
-60.1850826678
 10
17.9316367383
 20
-60.2198832124
 10
17.9057822131
 20
-60.2549929251
 10
17.8774001419
 20
-60.290368204
 10
17.8465708794
 20
-60.325878243
 10
17.8133676029
 20
-60.3615035537
 10
17.7777171349
 20
-60.3972636245
 10
17.7394802979
 20
-60.4330861149
 10
17.698743984
 20
-60.4690437774
 10
17.6554213009
 20
-60.5050638596
 10
17.6091123946
 20
-60.5408557636
 10
17.5598302512
 20
-60.5764748856
 10
17.5075618846
 20
-60.6118658295
 10
17.4518684815
 20
-60.6465718088
 10
17.3926037709
 20
-60.6804405614
 10
17.3299140239
 20
-60.7136243494
 10
17.2637992404
 20
-60.7461231729
  0
LINE
  5
490
100
AcDbEntity
  8
0
100
AcDbLine
 62
7
  6
CONTINUOUS
 10
-1.6507593181
 20
-68.9392706004
 11
-0.6490780946
 21
-67.4957969412
  0
LINE
  5
491
100
AcDbEntity
  8
0
100
AcDbLine
 62
7
  6
CONTINUOUS
 10
12.8057961483
 20
-60.7198006455
 11
11.5268976875
 21
-62.3352012005
  0
LINE
  5
492
100
AcDbEntity
  8
0
100
AcDbLine
 62
7
  6
CONTINUOUS
 10
11.9051369047
 20
-62.3472955475
 11
12.2490479378
 21
-61.9191121538
  0
LINE
  5
493
100
AcDbEntity
  8
0
100
AcDbLine
 62
7
  6
CONTINUOUS
 10
12.2490479378
 20
-61.9191121538
 11
12.5928492909
 21
-61.4913204893
  0
LINE
  5
494
100
AcDbEntity
  8
0
100
AcDbLine
 62
7
  6
CONTINUOUS
 10
12.5928492909
 20
-61.4913204893
 11
13.4543751934
 21
-60.4198180416
  0
LWPOLYLINE
  5
495
100
AcDbEntity
  8
0
100
AcDbPolyline
 62
7
  6
CONTINUOUS
 90
37
 70
0
 10
6.2606013419
 20
-57.7175114053
 10
6.2902002451
 20
-57.6824657203
 10
6.3174294575
 20
-57.6462253207
 10
6.342288979
 20
-57.6087902066
 10
6.3648039786
 20
-57.5701870413
 10
6.3849492873
 20
-57.5303891615
 10
6.4026493985
 20
-57.4893165766
 10
6.4178765905
 20
-57.4471576967
 10
6.430658585
 20
-57.4037241117
 10
6.4410030399
 20
-57.3583706006
 10
6.4489948959
 20
-57.3101914896
 10
6.4545492123
 20
-57.2600924525
 10
6.457418825
 20
-57.2101452893
 10
6.457483235
 20
-57.1605509097
 10
6.4548629413
 20
-57.1111084039
 10
6.4496722778
 20
-57.0632868427
 10
6.4418793269
 20
-57.0176885651
 10
6.4315160062
 20
-56.973711232
 10
6.4187924018
 20
-56.9310168975
 10
6.4035127235
 20
-56.8891505236
 10
6.3858727616
 20
-56.8485671483
 10
6.3666699737
 20
-56.8102939392
 10
6.3460265691
 20
-56.7746347091
 10
6.3238203385
 20
-56.7412856452
 10
6.300482112
 20
-56.7103624776
 10
6.2763129422
 20
-56.6821190266
 10
6.2510117766
 20
-56.6563014718
 10
6.2241062878
 20
-56.6322640816
 10
6.1957019166
 20
-56.6098879009
 10
6.1656932223
 20
-56.5892918848
 10
6.1332915554
 20
-56.5701871671
 10
6.0982891452
 20
-56.5524079421
 10
6.0608937625
 20
-56.5361200155
 10
6.0209400704
 20
-56.5215319387
 10
5.9783729566
 20
-56.5087132287
 10
5.9332475336
 20
-56.4975943686
 10
5.8855638011
 20
-56.4881753582
  0
LINE
  5
496
100
AcDbEntity
  8
0
100
AcDbLine
 62
7
  6
CONTINUOUS
 10
-6.675
 20
45.0925531849
 11
-6.8666664839
 21
45.0436170205
  0
LINE
  5
497
100
AcDbEntity
  8
0
100
AcDbLine
 62
7
  6
CONTINUOUS
 10
-6.8666664839
 20
44.75
 11
-6.6270835161
 21
44.7989361687
  0
LINE
  5
498
100
AcDbEntity
  8
0
100
AcDbLine
 62
7
  6
CONTINUOUS
 10
4.6255003223
 20
40.556382978
 11
4.203
 21
40.5053191543
  0
LINE
  5
499
100
AcDbEntity
  8
0
100
AcDbLine
 62
7
  6
CONTINUOUS
 10
3.7804996777
 20
42.3436170578
 11
4.203
 21
42.3946808815
  0
LINE
  5
49A
100
AcDbEntity
  8
0
100
AcDbLine
 62
7
  6
CONTINUOUS
 10
-1.7965003223
 20
42.3436170578
 11
-1.374
 21
42.3946808815
  0
LINE
  5
49B
100
AcDbEntity
  8
0
100
AcDbLine
 62
7
  6
CONTINUOUS
 10
4.203
 20
40.25
 11
4.71
 21
40.3010638282
  0
LINE
  5
49C
100
AcDbEntity
  8
0
100
AcDbLine
 62
7
  6
CONTINUOUS
 10
4.203
 20
42.65
 11
3.696
 21
42.5989361763
  0
LINE
  5
49D
100
AcDbEntity
  8
0
100
AcDbLine
 62
7
  6
CONTINUOUS
 10
-1.2895003223
 20
42.65
 11
-1.881
 21
42.5989361763
  0
LINE
  5
49E
100
AcDbEntity
  8
ASSI
100
AcDbLine
 62
7
  6
CONTINUOUS
 10
7.257034
 20
37.715613
 11
5.749993
 21
37.715613
  0
LINE
  5
49F
100
AcDbEntity
  8
0
100
AcDbLine
 62
7
  6
CONTINUOUS
 10
-9.1479999597
 20
40.25
 11
-8.472
 21
40.25
  0
LINE
  5
4A0
100
AcDbEntity
  8
0
100
AcDbLine
 62
7
  6
CONTINUOUS
 10
-5.5989998388
 20
40.25
 11
-5.0919998388
 21
40.25
  0
LINE
  5
4A1
100
AcDbEntity
  8
0
100
AcDbLine
 62
7
  6
CONTINUOUS
 10
-2.7260001612
 20
40.25
 11
0.3160003223
 21
40.25
  0
LINE
  5
4A2
100
AcDbEntity
  8
0
100
AcDbLine
 62
7
  6
CONTINUOUS
 10
1.4989996777
 20
40.25
 11
2.0059996777
 21
40.25
  0
LINE
  5
4A3
100
AcDbEntity
  8
0
100
AcDbLine
 62
7
  6
CONTINUOUS
 10
7.245
 20
40.25
 11
7.752
 21
40.25
  0
LINE
  5
4A4
100
AcDbEntity
  8
0
100
AcDbLine
 62
7
  6
CONTINUOUS
 10
0.3160003223
 20
40.5053191543
 11
-2.0500003223
 21
40.5053191543
  0
LINE
  5
4A5
100
AcDbEntity
  8
0
100
AcDbLine
 62
7
  6
CONTINUOUS
 10
-2.6415
 20
42.0882979393
 11
-2.2189996777
 21
42.0882979393
  0
LINE
  5
4A6
100
AcDbEntity
  8
0
100
AcDbLine
 62
7
  6
CONTINUOUS
 10
-6.444
 20
42.3946808815
 11
-3.909
 21
42.3946808815
  0
LINE
  5
4A7
100
AcDbEntity
  8
0
100
AcDbLine
 62
7
  6
CONTINUOUS
 10
-1.374
 20
42.3946808815
 11
-1.0360003223
 21
42.3946808815
  0
LINE
  5
4A8
100
AcDbEntity
  8
0
100
AcDbLine
 62
7
  6
CONTINUOUS
 10
6.3999993553
 20
42.3946808815
 11
8.9349993553
 21
42.3946808815
  0
LINE
  5
4A9
100
AcDbEntity
  8
0
100
AcDbLine
 62
7
  6
CONTINUOUS
 10
9.4419993553
 20
42.65
 11
6.3999993553
 21
42.65
  0
LINE
  5
4AA
100
AcDbEntity
  8
0
100
AcDbLine
 62
7
  6
CONTINUOUS
 10
2.0059996777
 20
42.65
 11
1.4989996777
 21
42.65
  0
LINE
  5
4AB
100
AcDbEntity
  8
0
100
AcDbLine
 62
7
  6
CONTINUOUS
 10
-0.9514996777
 20
42.65
 11
-1.2895003223
 21
42.65
  0
LINE
  5
4AC
100
AcDbEntity
  8
0
100
AcDbLine
 62
7
  6
CONTINUOUS
 10
-3.402
 20
42.65
 11
-6.444
 21
42.65
  0
LINE
  5
4AD
100
AcDbEntity
  8
0
100
AcDbLine
 62
7
  6
CONTINUOUS
 10
-7.1200000806
 20
42.65
 11
-7.6270000806
 21
42.65
  0
LINE
  5
4AE
100
AcDbEntity
  8
0
100
AcDbLine
 62
7
  6
CONTINUOUS
 10
-9.993
 20
42.65
 11
-10.5
 21
42.65
  0
LINE
  5
4AF
100
AcDbEntity
  8
0
100
AcDbLine
 62
7
  6
CONTINUOUS
 10
-13.0
 20
44.75
 11
-12.7125
 21
44.75
  0
LINE
  5
4B0
100
AcDbEntity
  8
0
100
AcDbLine
 62
7
  6
CONTINUOUS
 10
-12.0416666895
 20
44.75
 11
-11.658333379
 21
44.75
  0
LINE
  5
4B1
100
AcDbEntity
  8
0
100
AcDbLine
 62
7
  6
CONTINUOUS
 10
-10.9875
 20
44.75
 11
-10.7
 21
44.75
  0
LINE
  5
4B2
100
AcDbEntity
  8
0
100
AcDbLine
 62
7
  6
CONTINUOUS
 10
-10.3166667581
 20
44.75
 11
-10.0291667581
 21
44.75
  0
LINE
  5
4B3
100
AcDbEntity
  8
0
100
AcDbLine
 62
7
  6
CONTINUOUS
 10
-8.6875
 20
44.75
 11
-8.4
 21
44.75
  0
LINE
  5
4B4
100
AcDbEntity
  8
0
100
AcDbLine
 62
7
  6
CONTINUOUS
 10
-8.0166664839
 20
44.75
 11
-6.8666664839
 21
44.75
  0
LINE
  5
4B5
100
AcDbEntity
  8
0
100
AcDbLine
 62
7
  6
CONTINUOUS
 10
-5.7166664839
 20
44.75
 11
-3.9916664839
 21
44.75
  0
LINE
  5
4B6
100
AcDbEntity
  8
0
100
AcDbLine
 62
7
  6
CONTINUOUS
 10
-1.3083329678
 20
44.75
 11
-1.0208329678
 21
44.75
  0
LINE
  5
4B7
100
AcDbEntity
  8
0
100
AcDbLine
 62
7
  6
CONTINUOUS
 10
-0.6375
 20
44.75
 11
-0.35
 21
44.75
  0
LINE
  5
4B8
100
AcDbEntity
  8
0
100
AcDbLine
 62
7
  6
CONTINUOUS
 10
0.8479170322
 20
44.75
 11
1.2791670322
 21
44.75
  0
LINE
  5
4B9
100
AcDbEntity
  8
0
100
AcDbLine
 62
7
  6
CONTINUOUS
 10
3.9625
 20
44.75
 11
4.25
 21
44.75
  0
LINE
  5
4BA
100
AcDbEntity
  8
0
100
AcDbLine
 62
7
  6
CONTINUOUS
 10
5.4
 20
44.75
 11
5.6875
 21
44.75
  0
LINE
  5
4BB
100
AcDbEntity
  8
0
100
AcDbLine
 62
7
  6
CONTINUOUS
 10
6.8375
 20
44.75
 11
7.125
 21
44.75
  0
LINE
  5
4BC
100
AcDbEntity
  8
0
100
AcDbLine
 62
7
  6
CONTINUOUS
 10
8.4666659355
 20
44.75
 11
8.7541659355
 21
44.75
  0
LINE
  5
4BD
100
AcDbEntity
  8
0
100
AcDbLine
 62
7
  6
CONTINUOUS
 10
9.1375
 20
44.75
 11
10.8625
 21
44.75
  0
LINE
  5
4BE
100
AcDbEntity
  8
0
100
AcDbLine
 62
7
  6
CONTINUOUS
 10
12.0125
 20
44.75
 11
12.3
 21
44.75
  0
LINE
  5
4BF
100
AcDbEntity
  8
0
100
AcDbLine
 62
7
  6
CONTINUOUS
 10
10.8625
 20
45.0436170205
 11
9.425
 21
45.0436170205
  0
LINE
  5
4C0
100
AcDbEntity
  8
0
100
AcDbLine
 62
7
  6
CONTINUOUS
 10
-3.9916664839
 20
45.0436170205
 11
-5.4291664839
 21
45.0436170205
  0
LINE
  5
4C1
100
AcDbEntity
  8
0
100
AcDbLine
 62
7
  6
CONTINUOUS
 10
-6.8666664839
 20
45.0436170205
 11
-7.7291664839
 21
45.0436170205
  0
LINE
  5
4C2
100
AcDbEntity
  8
0
100
AcDbLine
 62
7
  6
CONTINUOUS
 10
-9.8375
 20
45.3372340411
 11
-8.8791667581
 21
45.3372340411
  0
LINE
  5
4C3
100
AcDbEntity
  8
0
100
AcDbLine
 62
7
  6
CONTINUOUS
 10
7.3166659355
 20
45.3372340411
 11
8.275
 21
45.3372340411
  0
LINE
  5
4C4
100
AcDbEntity
  8
0
100
AcDbLine
 62
7
  6
CONTINUOUS
 10
8.2270840645
 20
45.5329786986
 11
7.3645840645
 21
45.5329786986
  0
LINE
  5
4C5
100
AcDbEntity
  8
0
100
AcDbLine
 62
7
  6
CONTINUOUS
 10
-8.9270832419
 20
45.5329786986
 11
-9.7895832419
 21
45.5329786986
  0
LINE
  5
4C6
100
AcDbEntity
  8
0
100
AcDbLine
 62
7
  6
CONTINUOUS
 10
-5.4291664839
 20
45.8265957534
 11
-4.1833335161
 21
45.8265957534
  0
LINE
  5
4C7
100
AcDbEntity
  8
0
100
AcDbLine
 62
7
  6
CONTINUOUS
 10
-4.1833335161
 20
46.1202127397
 11
-5.4291664839
 21
46.1202127397
  0
LINE
  5
4C8
100
AcDbEntity
  8
0
100
AcDbLine
 62
7
  6
CONTINUOUS
 10
-7.7291664839
 20
46.7563830137
 11
-6.8666664839
 21
46.7563830137
  0
LINE
  5
4C9
100
AcDbEntity
  8
0
100
AcDbLine
 62
7
  6
CONTINUOUS
 10
-5.4291664839
 20
46.7563830137
 11
-3.9916664839
 21
46.7563830137
  0
LINE
  5
4CA
100
AcDbEntity
  8
0
100
AcDbLine
 62
7
  6
CONTINUOUS
 10
4.6333329678
 20
46.8053191781
 11
5.4
 21
46.8053191781
  0
LINE
  5
4CB
100
AcDbEntity
  8
0
100
AcDbLine
 62
7
  6
CONTINUOUS
 10
5.6875
 20
46.8053191781
 11
6.4541659355
 21
46.8053191781
  0
LINE
  5
4CC
100
AcDbEntity
  8
0
100
AcDbLine
 62
7
  6
CONTINUOUS
 10
13.0666659355
 20
47.05
 11
12.7791659355
 21
47.05
  0
LINE
  5
4CD
100
AcDbEntity
  8
0
100
AcDbLine
 62
7
  6
CONTINUOUS
 10
11.5333340645
 20
47.05
 11
11.2458340645
 21
47.05
  0
LINE
  5
4CE
100
AcDbEntity
  8
0
100
AcDbLine
 62
7
  6
CONTINUOUS
 10
9.425
 20
47.05
 11
9.1375
 21
47.05
  0
LINE
  5
4CF
100
AcDbEntity
  8
0
100
AcDbLine
 62
7
  6
CONTINUOUS
 10
7.9875
 20
47.05
 11
7.6041659355
 21
47.05
  0
LINE
  5
4D0
100
AcDbEntity
  8
0
100
AcDbLine
 62
7
  6
CONTINUOUS
 10
6.4541659355
 20
47.05
 11
4.6333329678
 21
47.05
  0
LINE
  5
4D1
100
AcDbEntity
  8
0
100
AcDbLine
 62
7
  6
CONTINUOUS
 10
4.25
 20
47.05
 11
3.9625
 21
47.05
  0
LINE
  5
4D2
100
AcDbEntity
  8
0
100
AcDbLine
 62
7
  6
CONTINUOUS
 10
1.2791670322
 20
47.05
 11
0.9916670322
 21
47.05
  0
LINE
  5
4D3
100
AcDbEntity
  8
0
100
AcDbLine
 62
7
  6
CONTINUOUS
 10
-0.20625
 20
47.05
 11
-0.6375
 21
47.05
  0
LINE
  5
4D4
100
AcDbEntity
  8
0
100
AcDbLine
 62
7
  6
CONTINUOUS
 10
-1.0208329678
 20
47.05
 11
-1.3083329678
 21
47.05
  0
LINE
  5
4D5
100
AcDbEntity
  8
0
100
AcDbLine
 62
7
  6
CONTINUOUS
 10
-3.9916664839
 20
47.05
 11
-5.7166664839
 21
47.05
  0
LINE
  5
4D6
100
AcDbEntity
  8
0
100
AcDbLine
 62
7
  6
CONTINUOUS
 10
-6.8666664839
 20
47.05
 11
-8.0166664839
 21
47.05
  0
LINE
  5
4D7
100
AcDbEntity
  8
0
100
AcDbLine
 62
7
  6
CONTINUOUS
 10
-9.1666667581
 20
47.05
 11
-9.55
 21
47.05
  0
LINE
  5
4D8
100
AcDbEntity
  8
0
100
AcDbLine
 62
7
  6
CONTINUOUS
 10
-10.7
 20
47.05
 11
-11.13125
 21
47.05
  0
LINE
  5
4D9
100
AcDbEntity
  8
0
100
AcDbLine
 62
7
  6
CONTINUOUS
 10
-12.56875
 20
47.05
 11
-13.0
 21
47.05
  0
LINE
  5
4DA
100
AcDbEntity
  8
0
100
AcDbLine
 62
7
  6
CONTINUOUS
 10
3.696
 20
40.3010638282
 11
4.203
 21
40.25
  0
LINE
  5
4DB
100
AcDbEntity
  8
0
100
AcDbLine
 62
7
  6
CONTINUOUS
 10
-0.4444996777
 20
42.5989361763
 11
-0.9514996777
 21
42.65
  0
LINE
  5
4DC
100
AcDbEntity
  8
0
100
AcDbLine
 62
7
  6
CONTINUOUS
 10
4.71
 20
42.5989361763
 11
4.203
 21
42.65
  0
LINE
  5
4DD
100
AcDbEntity
  8
0
100
AcDbLine
 62
7
  6
CONTINUOUS
 10
4.203
 20
40.5053191543
 11
3.7804996777
 21
40.556382978
  0
LINE
  5
4DE
100
AcDbEntity
  8
0
100
AcDbLine
 62
7
  6
CONTINUOUS
 10
-1.0360003223
 20
42.3946808815
 11
-0.6135
 21
42.3436170578
  0
LINE
  5
4DF
100
AcDbEntity
  8
0
100
AcDbLine
 62
7
  6
CONTINUOUS
 10
4.203
 20
42.3946808815
 11
4.6255003223
 21
42.3436170578
  0
LINE
  5
4E0
100
AcDbEntity
  8
0
100
AcDbLine
 62
7
  6
CONTINUOUS
 10
-6.6270835161
 20
47.0010638356
 11
-6.8666664839
 21
47.05
  0
LINE
  5
4E1
100
AcDbEntity
  8
0
100
AcDbLine
 62
7
  6
CONTINUOUS
 10
-6.8666664839
 20
46.7563830137
 11
-6.675
 21
46.7074468493
  0
LINE
  5
4E2
100
AcDbEntity
  8
0
100
AcDbLine
 62
7
  6
CONTINUOUS
 10
-0.1065
 20
42.4968085289
 11
-0.4444996777
 21
42.5989361763
  0
LINE
  5
4E3
100
AcDbEntity
  8
0
100
AcDbLine
 62
7
  6
CONTINUOUS
 10
3.2734996777
 20
40.4542553127
 11
3.696
 21
40.3010638282
  0
LINE
  5
4E4
100
AcDbEntity
  8
0
100
AcDbLine
 62
7
  6
CONTINUOUS
 10
5.1325003223
 20
42.4457447052
 11
4.71
 21
42.5989361763
  0
LINE
  5
4E5
100
AcDbEntity
  8
0
100
AcDbLine
 62
7
  6
CONTINUOUS
 10
3.7804996777
 20
40.556382978
 11
3.5269996777
 21
40.6585106254
  0
LINE
  5
4E6
100
AcDbEntity
  8
0
100
AcDbLine
 62
7
  6
CONTINUOUS
 10
-0.6135
 20
42.3436170578
 11
-0.36
 21
42.2414894104
  0
LINE
  5
4E7
100
AcDbEntity
  8
0
100
AcDbLine
 62
7
  6
CONTINUOUS
 10
4.6255003223
 20
42.3436170578
 11
4.8790003223
 21
42.2414894104
  0
LINE
  5
4E8
100
AcDbEntity
  8
0
100
AcDbLine
 62
7
  6
CONTINUOUS
 10
-6.4354164839
 20
46.9031915069
 11
-6.6270835161
 21
47.0010638356
  0
LINE
  5
4E9
100
AcDbEntity
  8
0
100
AcDbLine
 62
7
  6
CONTINUOUS
 10
5.3860003223
 20
42.2925532341
 11
5.1325003223
 21
42.4457447052
  0
LINE
  5
4EA
100
AcDbEntity
  8
0
100
AcDbLine
 62
7
  6
CONTINUOUS
 10
20.0411880875
 20
-60.1314552652
 11
18.8725599934
 21
-61.7553930063
  0
LINE
  5
4EB
100
AcDbEntity
  8
0
100
AcDbLine
 62
7
  6
CONTINUOUS
 10
19.1765740462
 20
-61.7553930063
 11
19.9804801346
 21
-60.6379871028
  0
LWPOLYLINE
  5
4EC
100
AcDbEntity
  8
0
100
AcDbPolyline
 62
7
  6
CONTINUOUS
 90
10
 70
0
 10
13.066413533
 20
-60.4198180416
 10
13.0376561662
 20
-60.4503381264
 10
13.0088512538
 20
-60.481569352
 10
12.9799987957
 20
-60.5135117185
 10
12.9511021045
 20
-60.5461763084
 10
12.9221578676
 20
-60.5795520391
 10
12.8931561473
 20
-60.613605663
 10
12.864093631
 20
-60.6483260974
 10
12.8349736314
 20
-60.6837244249
 10
12.8057961483
 20
-60.7198006455
  0
LWPOLYLINE
  5
4ED
100
AcDbEntity
  8
0
100
AcDbPolyline
 62
7
  6
CONTINUOUS
 90
43
 70
0
 10
10.2618721542
 20
-65.7821288366
 10
10.226919161
 20
-65.817642712
 10
10.1907884126
 20
-65.8505687458
 10
10.1534799091
 20
-65.8809069382
 10
10.1149383928
 20
-65.9086767571
 10
10.0752191214
 20
-65.9338587346
 10
10.0344878677
 20
-65.9563944659
 10
9.9930875989
 20
-65.9761904173
 10
9.9506753478
 20
-65.9933401225
 10
9.9063879857
 20
-66.0080657788
 10
9.8599295806
 20
-66.0205277276
 10
9.8115960645
 20
-66.0305656273
 10
9.7614121052
 20
-66.0379206506
 10
9.7084279855
 20
-66.0425511804
 10
9.6535934226
 20
-66.0444988337
 10
9.5997822353
 20
-66.0436296339
 10
9.5476044568
 20
-66.0397877819
 10
9.4964500539
 20
-66.0331290769
 10
9.4473627451
 20
-66.0239869392
 10
9.4009811037
 20
-66.0124905172
 10
9.3566665565
 20
-65.9985106626
 10
9.3135471019
 20
-65.9819933511
 10
9.2713794126
 20
-65.962955724
 10
9.230406816
 20
-65.94138064
 10
9.1904872938
 20
-65.917162651
 10
9.1513781462
 20
-65.8901489336
 10
9.1133220731
 20
-65.8604923111
 10
9.0769051554
 20
-65.8285458058
 10
9.0420943941
 20
-65.7942127175
 10
9.0089227883
 20
-65.7575897463
 10
8.9780754156
 20
-65.7193200153
 10
8.949838712
 20
-65.6798293647
 10
8.9239262415
 20
-65.6386919543
 10
8.9001637736
 20
-65.5952733869
 10
8.8784743352
 20
-65.5496976355
 10
8.8589348994
 20
-65.5018407272
 10
8.841602155
 20
-65.450696345
 10
8.8263078928
 20
-65.3959267772
 10
8.8132203219
 20
-65.3378697355
 10
8.8029007591
 20
-65.2765320389
 10
8.7955363098
 20
-65.2119159604
 10
8.7909398685
 20
-65.1440192269
 10
8.7891114353
 20
-65.0728418386
  0
LWPOLYLINE
  5
4EE
100
AcDbEntity
  8
0
100
AcDbPolyline
 62
7
  6
CONTINUOUS
 90
55
 70
0
 10
9.0433260461
 20
-64.2673943138
 10
9.0842930855
 20
-64.2309602815
 10
9.1261214785
 20
-64.1975906035
 10
9.168811225
 20
-64.1672852798
 10
9.2123680363
 20
-64.1400808018
 10
9.2567862012
 20
-64.115940678
 10
9.3020485858
 20
-64.0947554347
 10
9.3478174871
 20
-64.076568723
 10
9.3944306082
 20
-64.0613368917
 10
9.4428839241
 20
-64.0488195131
 10
9.4939324917
 20
-64.0388382157
 10
9.5468212541
 20
-64.031571371
 10
9.6002810149
 20
-64.0273136662
 10
9.6546945495
 20
-64.0262142264
 10
9.7096790825
 20
-64.0281239266
 10
9.7628170916
 20
-64.0328900779
 10
9.813140186
 20
-64.0405194963
 10
9.8616167565
 20
-64.0510053659
 10
9.9087344529
 20
-64.0641745502
 10
9.9546802348
 20
-64.0800296851
 10
9.9992671427
 20
-64.0985681346
 10
10.0424219472
 20
-64.1196088552
 10
10.0843198406
 20
-64.1432458728
 10
10.1247856308
 20
-64.1693851613
 10
10.163220512
 20
-64.1975635995
 10
10.1993594095
 20
-64.2275178345
 10
10.233467398
 20
-64.2595112191
 10
10.2657408956
 20
-64.2938706896
 10
10.2961769136
 20
-64.3304325024
 10
10.3247784407
 20
-64.3693604011
 10
10.3517508614
 20
-64.411472553
 10
10.3773328519
 20
-64.4569144306
 10
10.401285736
 20
-64.5055405614
 10
10.4230988688
 20
-64.5577326956
 10
10.4428330659
 20
-64.613581427
 10
10.4604275118
 20
-64.6729961618
 10
10.475189116
 20
-64.7360868687
 10
10.4870215117
 20
-64.8037278038
 10
10.4960210658
 20
-64.875044711
 10
10.5017837881
 20
-64.9475247907
 10
10.5040453949
 20
-65.0217338593
 10
10.50307017
 20
-65.0971061004
 10
10.4992469748
 20
-65.1694312661
 10
10.4926222901
 20
-65.2373483945
 10
10.4831496351
 20
-65.3022184476
 10
10.4710784287
 20
-65.3639140633
 10
10.4563800436
 20
-65.4222928129
 10
10.4390831071
 20
-65.4774971252
 10
10.4195229194
 20
-65.5298269245
 10
10.3975679867
 20
-65.5794529989
 10
10.3733498027
 20
-65.6262045602
 10
10.3475981493
 20
-65.6698691687
 10
10.3205562871
 20
-65.7103760109
 10
10.2919809554
 20
-65.7477959002
 10
10.2618721542
 20
-65.7821288366
  0
LWPOLYLINE
  5
4EF
100
AcDbEntity
  8
0
100
AcDbPolyline
 62
7
  6
CONTINUOUS
 90
22
 70
0
 10
-7.4592772192
 20
-64.1081543936
 10
-7.4326319624
 20
-64.0910970695
 10
-7.405391891
 20
-64.0760355793
 10
-7.3775570048
 20
-64.062969923
 10
-7.3491942673
 20
-64.0519139787
 10
-7.320236715
 20
-64.0428538683
 10
-7.2904834576
 20
-64.0357479575
 10
-7.2595092642
 20
-64.030572088
 10
-7.2277393657
 20
-64.0273504182
 10
-7.1962485645
 20
-64.0261137891
 10
-7.1650429406
 20
-64.0269422835
 10
-7.134116414
 20
-64.0297558187
 10
-7.1045255478
 20
-64.034344988
 10
-7.0768169656
 20
-64.040623295
 10
-7.0504440439
 20
-64.0486772362
 10
-7.0248234751
 20
-64.0585568948
 10
-6.9998259467
 20
-64.070225568
 10
-6.9755807712
 20
-64.0837199586
 10
-6.9518925788
 20
-64.0992002587
 10
-6.9286962463
 20
-64.1167198655
 10
-6.9060568969
 20
-64.1362253817
 10
-6.8839745306
 20
-64.1577168073
  0
LWPOLYLINE
  5
4F0
100
AcDbEntity
  8
0
100
AcDbPolyline
 62
7
  6
CONTINUOUS
 90
22
 70
0
 10
-3.5739682309
 20
-64.1081543936
 10
-3.5473229742
 20
-64.0910970695
 10
-3.5200829028
 20
-64.0760355793
 10
-3.4922480166
 20
-64.062969923
 10
-3.463885279
 20
-64.0519139787
 10
-3.4349277268
 20
-64.0428538683
 10
-3.4051744694
 20
-64.0357479575
 10
-3.374200276
 20
-64.030572088
 10
-3.3424303775
 20
-64.0273504182
 10
-3.3109395763
 20
-64.0261137891
 10
-3.2797339523
 20
-64.0269422835
 10
-3.2488074257
 20
-64.0297558187
 10
-3.2192165596
 20
-64.034344988
 10
-3.1915079774
 20
-64.040623295
 10
-3.1651350557
 20
-64.0486772362
 10
-3.1395144869
 20
-64.0585568948
 10
-3.1145169584
 20
-64.070225568
 10
-3.0902717829
 20
-64.0837199586
 10
-3.0665835906
 20
-64.0992002587
 10
-3.043387258
 20
-64.1167198655
 10
-3.0207479086
 20
-64.1362253817
 10
-2.9986655423
 20
-64.1577168073
  0
LWPOLYLINE
  5
4F1
100
AcDbEntity
  8
0
100
AcDbPolyline
 62
7
  6
CONTINUOUS
 90
13
 70
0
 10
-8.9559891408
 20
-64.7317152036
 10
-8.9800115828
 20
-64.7468058972
 10
-9.0052623327
 20
-64.7608560595
 10
-9.0317413907
 20
-64.7738656904
 10
-9.0596225333
 20
-64.7859409443
 10
-9.0887319838
 20
-64.7969756669
 10
-9.1185484123
 20
-64.8066513954
 10
-9.1491405169
 20
-64.8149171133
 10
-9.1804395994
 20
-64.8218238372
 10
-9.2117182353
 20
-64.8272061536
 10
-9.2427339496
 20
-64.8310089246
 10
-9.2737292173
 20
-64.8332872882
 10
-9.3047040383
 20
-64.8340412443
  0
LWPOLYLINE
  5
4F2
100
AcDbEntity
  8
0
100
AcDbPolyline
 62
7
  6
CONTINUOUS
 90
13
 70
0
 10
-1.1853711643
 20
-64.7317152036
 10
-1.2093936063
 20
-64.7468058972
 10
-1.2346443563
 20
-64.7608560595
 10
-1.2611234142
 20
-64.7738656904
 10
-1.2890045568
 20
-64.7859409443
 10
-1.3181140073
 20
-64.7969756669
 10
-1.3479304358
 20
-64.8066513954
 10
-1.3785225404
 20
-64.8149171133
 10
-1.409821623
 20
-64.8218238372
 10
-1.4411002588
 20
-64.8272061536
 10
-1.4721159732
 20
-64.8310089246
 10
-1.5031112408
 20
-64.8332872882
 10
-1.5340860619
 20
-64.8340412443
  0
LWPOLYLINE
  5
4F3
100
AcDbEntity
  8
0
100
AcDbPolyline
 62
7
  6
CONTINUOUS
 90
10
 70
0
 10
17.5912903236
 20
-60.8847317915
 10
17.6296288575
 20
-60.8620028383
 10
17.6666074217
 20
-60.8390701958
 10
17.7022260159
 20
-60.815933864
 10
17.7365336202
 20
-60.7926023142
 10
17.7694812546
 20
-60.7690670751
 10
17.8009219796
 20
-60.7453027328
 10
17.8308068152
 20
-60.7213008159
 10
17.8591847414
 20
-60.6970697957
 10
17.8860557581
 20
-60.6726096723
  0
LWPOLYLINE
  5
4F4
100
AcDbEntity
  8
0
100
AcDbPolyline
 62
7
  6
CONTINUOUS
 90
16
 70
0
 10
-9.5973629265
 20
-63.8566347196
 10
-9.6337432952
 20
-63.8779320778
 10
-9.6685700411
 20
-63.9014161918
 10
-9.701909111
 20
-63.927135119
 10
-9.7338341995
 20
-63.955103279
 10
-9.7642716121
 20
-63.9853062522
 10
-9.7930662111
 20
-64.0177488363
 10
-9.8202542961
 20
-64.0523675977
 10
-9.8457995674
 20
-64.0892259701
 10
-9.8694379888
 20
-64.1285190522
 10
-9.8911204579
 20
-64.1701300628
 10
-9.910896077
 20
-64.2141757832
 10
-9.9286481161
 20
-64.261201656
 10
-9.9443376652
 20
-64.3113894957
 10
-9.9580036344
 20
-64.3645574879
 10
-9.9696460235
 20
-64.4207056326
  0
LWPOLYLINE
  5
4F5
100
AcDbEntity
  8
0
100
AcDbPolyline
 62
7
  6
CONTINUOUS
 90
16
 70
0
 10
-1.8267449501
 20
-63.8566347196
 10
-1.8631253188
 20
-63.8779320778
 10
-1.8979520647
 20
-63.9014161918
 10
-1.9312911345
 20
-63.927135119
 10
-1.9632162231
 20
-63.955103279
 10
-1.9936536356
 20
-63.9853062522
 10
-2.0224482346
 20
-64.0177488363
 10
-2.0496363196
 20
-64.0523675977
 10
-2.075181591
 20
-64.0892259701
 10
-2.0988200123
 20
-64.1285190522
 10
-2.1205024815
 20
-64.1701300628
 10
-2.1402781006
 20
-64.2141757832
 10
-2.1580301397
 20
-64.261201656
 10
-2.1737196888
 20
-64.3113894957
 10
-2.1873856579
 20
-64.3645574879
 10
-2.1990280471
 20
-64.4207056326
  0
LWPOLYLINE
  5
4F6
100
AcDbEntity
  8
0
100
AcDbPolyline
 62
7
  6
CONTINUOUS
 90
52
 70
0
 10
-8.8418060129
 20
-64.9307946311
 10
-8.8021429348
 20
-64.9106166928
 10
-8.7650384981
 20
-64.8891487658
 10
-8.7304927028
 20
-64.8663908502
 10
-8.6984794346
 20
-64.8421645048
 10
-8.6690248078
 20
-64.8166481708
 10
-8.6422071651
 20
-64.7903771715
 10
-8.6182180214
 20
-64.7636427617
 10
-8.5968658618
 20
-64.7361536867
 10
-8.577654484
 20
-64.7075715053
 10
-8.5604720159
 20
-64.6778568508
 10
-8.5454303295
 20
-64.6470490897
 10
-8.5323688393
 20
-64.6149278811
 10
-8.5211395167
 20
-64.5812756749
 10
-8.5118903903
 20
-64.546310021
 10
-8.5049049593
 20
-64.5104632277
 10
-8.5002042285
 20
-64.4736930856
 10
-8.4977671932
 20
-64.4360418042
 10
-8.4978143393
 20
-64.3980683193
 10
-8.5004017494
 20
-64.3598123496
 10
-8.5054733409
 20
-64.3212341765
 10
-8.5130813516
 20
-64.2827735797
 10
-8.5233152303
 20
-64.2442906159
 10
-8.5360855283
 20
-64.2059252284
 10
-8.5511761369
 20
-64.1685370273
 10
-8.5686422032
 20
-64.132193314
 10
-8.58842858
 20
-64.0968267871
 10
-8.6101537172
 20
-64.0630951518
 10
-8.6335878938
 20
-64.0312636787
 10
-8.6589608308
 20
-64.0010670971
 10
-8.686580141
 20
-63.9723673006
 10
-8.7164165511
 20
-63.9451304099
 10
-8.7484993346
 20
-63.9193903042
 10
-8.7832239241
 20
-63.8951105147
 10
-8.8210738517
 20
-63.8719873596
 10
-8.8615655854
 20
-63.8503245207
 10
-8.9036439626
 20
-63.8309965749
 10
-8.9469686375
 20
-63.8141828838
 10
-8.991879956
 20
-63.7997040858
 10
-9.0383437934
 20
-63.7878966722
 10
-9.0866077197
 20
-63.7788070155
 10
-9.136424165
 20
-63.7723887431
 10
-9.1870162937
 20
-63.768839229
 10
-9.2391055541
 20
-63.7683118826
 10
-9.2919704979
 20
-63.7706532945
 10
-9.3426699461
 20
-63.7756006099
 10
-9.3901548364
 20
-63.7831716938
 10
-9.4354742311
 20
-63.7933486813
 10
-9.4788341367
 20
-63.8058151226
 10
-9.5201679336
 20
-63.8204997671
 10
-9.5595422415
 20
-63.8374738654
 10
-9.5973629265
 20
-63.8566347196
  0
LWPOLYLINE
  5
4F7
100
AcDbEntity
  8
0
100
AcDbPolyline
 62
7
  6
CONTINUOUS
 90
52
 70
0
 10
-1.0711880365
 20
-64.9307946311
 10
-1.0315249584
 20
-64.9106166928
 10
-0.9944205217
 20
-64.8891487658
 10
-0.9598747263
 20
-64.8663908502
 10
-0.9278614582
 20
-64.8421645048
 10
-0.8984068314
 20
-64.8166481708
 10
-0.8715891887
 20
-64.7903771715
 10
-0.847600045
 20
-64.7636427617
 10
-0.8262478854
 20
-64.7361536867
 10
-0.8070365076
 20
-64.7075715053
 10
-0.7898540394
 20
-64.6778568508
 10
-0.7748123531
 20
-64.6470490897
 10
-0.7617508628
 20
-64.6149278811
 10
-0.7505215403
 20
-64.5812756749
 10
-0.7412724138
 20
-64.546310021
 10
-0.7342869829
 20
-64.5104632277
 10
-0.7295862521
 20
-64.4736930856
 10
-0.7271492168
 20
-64.4360418042
 10
-0.7271963629
 20
-64.3980683193
 10
-0.729783773
 20
-64.3598123496
 10
-0.7348553644
 20
-64.3212341765
 10
-0.7424633751
 20
-64.2827735797
 10
-0.7526972539
 20
-64.2442906159
 10
-0.7654675519
 20
-64.2059252284
 10
-0.7805581604
 20
-64.1685370273
 10
-0.7980242267
 20
-64.132193314
 10
-0.8178106036
 20
-64.0968267871
 10
-0.8395357408
 20
-64.0630951518
 10
-0.8629699174
 20
-64.0312636787
 10
-0.8883428543
 20
-64.0010670971
 10
-0.9159621645
 20
-63.9723673006
 10
-0.9457985747
 20
-63.9451304099
 10
-0.9778813581
 20
-63.9193903042
 10
-1.0126059477
 20
-63.8951105147
 10
-1.0504558752
 20
-63.8719873596
 10
-1.0909476089
 20
-63.8503245207
 10
-1.1330259862
 20
-63.8309965749
 10
-1.1763506611
 20
-63.8141828838
 10
-1.2212619796
 20
-63.7997040858
 10
-1.2677258169
 20
-63.7878966722
 10
-1.3159897433
 20
-63.7788070155
 10
-1.3658061885
 20
-63.7723887431
 10
-1.4163983173
 20
-63.768839229
 10
-1.4684875776
 20
-63.7683118826
 10
-1.5213525215
 20
-63.7706532945
 10
-1.5720519696
 20
-63.7756006099
 10
-1.61953686
 20
-63.7831716938
 10
-1.6648562546
 20
-63.7933486813
 10
-1.7082161603
 20
-63.8058151226
 10
-1.7495499572
 20
-63.8204997671
 10
-1.788924265
 20
-63.8374738654
 10
-1.8267449501
 20
-63.8566347196
  0
LINE
  5
4F8
100
AcDbEntity
  8
0
100
AcDbLine
 62
7
  6
CONTINUOUS
 10
9.912071
 20
49.899883
 11
11.083514
 21
49.899896
  0
LINE
  5
4F9
100
AcDbEntity
  8
0
100
AcDbLine
 62
7
  6
CONTINUOUS
 10
1.84925
 20
49.89987
 11
2.889289
 21
49.899883
  0
LINE
  5
4FA
100
AcDbEntity
  8
0
100
AcDbLine
 62
7
  6
CONTINUOUS
 10
-3.930797
 20
49.89987
 11
-2.890758
 21
49.89987
  0
LINE
  5
4FB
100
AcDbEntity
  8
0
100
AcDbLine
 62
7
  6
CONTINUOUS
 10
0.115856
 20
49.89987
 11
1.155895
 21
49.89987
  0
LINE
  5
4FC
100
AcDbEntity
  8
0
100
AcDbLine
 62
7
  6
CONTINUOUS
 10
6.921928
 20
49.899883
 11
7.96198
 21
49.899883
  0
LINE
  5
4FD
100
AcDbEntity
  8
0
100
AcDbLine
 62
7
  6
CONTINUOUS
 10
-1.907464
 20
49.89987
 11
-0.867451
 21
49.899883
  0
LINE
  5
4FE
100
AcDbEntity
  8
0
100
AcDbLine
 62
7
  6
CONTINUOUS
 10
-6.010849
 20
49.899857
 11
-4.97081
 21
49.89987
  0
LINE
  5
4FF
100
AcDbEntity
  8
0
100
AcDbLine
 62
7
  6
CONTINUOUS
 10
5.188521
 20
49.899883
 11
6.228573
 21
49.89987
  0
LINE
  5
500
100
AcDbEntity
  8
0
100
AcDbLine
 62
7
  6
CONTINUOUS
 10
-9.413898
 20
49.899857
 11
-8.37382
 21
49.89987
  0
LINE
  5
501
100
AcDbEntity
  8
0
100
AcDbLine
 62
7
  6
CONTINUOUS
 10
3.21763
 20
50.922541
 11
4.860193
 21
50.922541
  0
LINE
  5
502
100
AcDbEntity
  8
0
100
AcDbLine
 62
7
  6
CONTINUOUS
 10
4.542941
 20
51.91058
 11
3.534869
 21
51.91058
  0
LINE
  5
503
100
AcDbEntity
  8
0
100
AcDbLine
 62
7
  6
CONTINUOUS
 10
7.962097
 20
51.910593
 11
8.869822
 21
51.91058
  0
LINE
  5
504
100
AcDbEntity
  8
0
100
AcDbLine
 62
7
  6
CONTINUOUS
 10
9.2130326127
 20
52.872632
 11
7.947641
 21
52.872632
  0
LINE
  5
505
100
AcDbEntity
  8
0
100
AcDbLine
 62
7
  6
CONTINUOUS
 10
7.947628
 20
54.138078
 11
9.212992
 21
54.138078
  0
LINE
  5
506
100
AcDbEntity
  8
0
100
AcDbLine
 62
7
  6
CONTINUOUS
 10
1.155895
 20
55.100104
 11
-0.416364
 21
55.100104
  0
LINE
  5
507
100
AcDbEntity
  8
0
100
AcDbLine
 62
7
  6
CONTINUOUS
 10
-2.358538
 20
55.100104
 11
-3.930797
 21
55.100104
  0
LINE
  5
508
100
AcDbEntity
  8
0
100
AcDbLine
 62
7
  6
CONTINUOUS
 10
-4.970797
 20
55.100104
 11
-6.010836
 21
55.100104
  0
LINE
  5
509
100
AcDbEntity
  8
0
100
AcDbLine
 62
7
  6
CONTINUOUS
 10
-6.704191
 20
55.100104
 11
-7.744243
 21
55.100104
  0
LINE
  5
50A
100
AcDbEntity
  8
0
100
AcDbLine
 62
7
  6
CONTINUOUS
 10
-10.043462
 20
55.100104
 11
-11.083514
 21
55.100104
  0
LINE
  5
50B
100
AcDbEntity
  8
0
100
AcDbLine
 62
7
  6
CONTINUOUS
 10
9.3574125882
 20
55.100117
 11
6.921928
 21
55.100117
  0
LINE
  5
50C
100
AcDbEntity
  8
0
100
AcDbLine
 62
7
  6
CONTINUOUS
 10
4.558944
 20
55.100117
 11
3.518853
 21
55.100117
  0
LINE
  5
50D
100
AcDbEntity
  8
0
100
AcDbLine
 62
7
  6
CONTINUOUS
 10
13.5
 20
56.75
 11
-13.5
 21
56.75
  0
LWPOLYLINE
  5
50E
100
AcDbEntity
  8
0
100
AcDbPolyline
 62
7
  6
CONTINUOUS
 90
10
 70
0
 10
17.2637992404
 20
-61.0439714802
 10
17.2983296716
 20
-61.0307292379
 10
17.3333282377
 20
-61.0163528098
 10
17.3687949388
 20
-61.0008421957
 10
17.404734799
 20
-60.9841688333
 10
17.4411427942
 20
-60.9663612849
 10
17.4780038515
 20
-60.9475052379
 10
17.5153129467
 20
-60.9276292545
 10
17.5530751041
 20
-60.9067047724
 10
17.5912903236
 20
-60.8847317915
  0
LINE
  5
50F
100
AcDbEntity
  8
0
100
AcDbLine
 62
250
  6
CONTINUOUS
 10
-153.5
 20
79.5
 11
-153.4925
 21
79.5
  0
LINE
  5
510
100
AcDbEntity
  8
0
100
AcDbLine
 62
250
  6
CONTINUOUS
 10
153.5
 20
79.5
 11
153.4925
 21
79.5
  0
LINE
  5
511
100
AcDbEntity
  8
0
100
AcDbLine
 62
250
  6
CONTINUOUS
 10
149.4218171695
 20
79.5
 11
149.4
 21
79.5
  0
LINE
  5
512
100
AcDbEntity
  8
0
100
AcDbLine
 62
250
  6
CONTINUOUS
 10
-149.4218171695
 20
79.5
 11
-149.4
 21
79.5
  0
LINE
  5
513
100
AcDbEntity
  8
0
100
AcDbLine
 62
250
  6
CONTINUOUS
 10
149.8825
 20
79.5025
 11
153.4925
 21
79.5025
  0
LINE
  5
514
100
AcDbEntity
  8
0
100
AcDbLine
 62
250
  6
CONTINUOUS
 10
-149.8825
 20
79.5025
 11
-153.4925
 21
79.5025
  0
LINE
  5
515
100
AcDbEntity
  8
0
100
AcDbLine
 62
7
  6
CONTINUOUS
 10
-146.0
 20
82.9
 11
146.0
 21
82.9
  0
LINE
  5
516
100
AcDbEntity
  8
0
100
AcDbLine
 62
7
  6
CONTINUOUS
 10
-146.0
 20
82.9218171695
 11
146.0
 21
82.9218171695
  0
LINE
  5
517
100
AcDbEntity
  8
0
100
AcDbLine
 62
7
  6
CONTINUOUS
 10
146.0025
 20
83.3825
 11
-146.0025
 21
83.3825
  0
LINE
  5
518
100
AcDbEntity
  8
CURVE
100
AcDbLine
 62
7
  6
CONTINUOUS
 10
146.0025
 20
83.3825
 11
-146.0025
 21
83.3825
  0
LINE
  5
519
100
AcDbEntity
  8
0
100
AcDbLine
 62
7
  6
CONTINUOUS
 10
146.0025
 20
86.9925
 11
-146.0025
 21
86.9925
  0
LINE
  5
51A
100
AcDbEntity
  8
0
100
AcDbLine
 62
250
  6
CONTINUOUS
 10
-146.0
 20
87.0
 11
146.0
 21
87.0
  0
LINE
  5
51B
100
AcDbEntity
  8
0
100
AcDbLine
 62
7
  6
CONTINUOUS
 10
-146.0
 20
89.5
 11
146.0
 21
89.5
  0
LINE
  5
51C
100
AcDbEntity
  8
0
100
AcDbLine
 62
250
  6
CONTINUOUS
 10
146.0
 20
87.0
 11
146.0
 21
86.9925
  0
LINE
  5
51D
100
AcDbEntity
  8
0
100
AcDbLine
 62
250
  6
CONTINUOUS
 10
146.0
 20
82.9218171695
 11
146.0
 21
82.9
  0
LINE
  5
51E
100
AcDbEntity
  8
0
100
AcDbLine
 62
250
  6
CONTINUOUS
 10
146.0
 20
-87.0
 11
146.0
 21
-86.9925
  0
LINE
  5
51F
100
AcDbEntity
  8
0
100
AcDbLine
 62
250
  6
CONTINUOUS
 10
146.0
 20
-82.9218171695
 11
146.0
 21
-82.9
  0
LINE
  5
520
100
AcDbEntity
  8
0
100
AcDbLine
 62
250
  6
CONTINUOUS
 10
146.0025
 20
-83.3825
 11
146.0025
 21
-86.9925
  0
LINE
  5
521
100
AcDbEntity
  8
0
100
AcDbLine
 62
250
  6
CONTINUOUS
 10
146.0025
 20
83.3825
 11
146.0025
 21
86.9925
  0
LINE
  5
522
100
AcDbEntity
  8
0
100
AcDbLine
 62
7
  6
CONTINUOUS
 10
149.4
 20
79.5
 11
149.4
 21
-79.5
  0
LINE
  5
523
100
AcDbEntity
  8
0
100
AcDbLine
 62
7
  6
CONTINUOUS
 10
149.4218171695
 20
79.5
 11
149.4218171695
 21
-79.5
  0
LINE
  5
524
100
AcDbEntity
  8
0
100
AcDbLine
 62
7
  6
CONTINUOUS
 10
149.8825
 20
-79.5025
 11
149.8825
 21
79.5025
  0
LINE
  5
525
100
AcDbEntity
  8
CURVE
100
AcDbLine
 62
7
  6
CONTINUOUS
 10
149.8825
 20
-79.5025
 11
149.8825
 21
79.5025
  0
LINE
  5
526
100
AcDbEntity
  8
0
100
AcDbLine
 62
7
  6
CONTINUOUS
 10
153.4925
 20
-79.5025
 11
153.4925
 21
79.5025
  0
LINE
  5
527
100
AcDbEntity
  8
0
100
AcDbLine
 62
250
  6
CONTINUOUS
 10
153.5
 20
79.5
 11
153.5
 21
-79.5
  0
LINE
  5
528
100
AcDbEntity
  8
0
100
AcDbLine
 62
7
  6
CONTINUOUS
 10
156.0
 20
79.5
 11
156.0
 21
-79.5
  0
ARC
  5
529
100
AcDbEntity
  8
0
100
AcDbCircle
 62
7
  6
CONTINUOUS
 10
-146.0
 20
-79.5
 40
10.0
100
AcDbArc
 50
180.0
 51
270.0
  0
ARC
  5
52A
100
AcDbEntity
  8
0
100
AcDbCircle
 62
250
  6
CONTINUOUS
 10
-146.0
 20
-79.5
 40
7.5
100
AcDbArc
 50
180.0
 51
270.0
  0
ARC
  5
52B
100
AcDbEntity
  8
0
100
AcDbCircle
 62
7
  6
CONTINUOUS
 10
-146.0025
 20
-79.5025
 40
7.49
100
AcDbArc
 50
180.0
 51
270.0
  0
CIRCLE
  5
52C
100
AcDbEntity
  8
RACCORDO
100
AcDbCircle
 62
250
  6
CONTINUOUS
 10
-41.0
 20
-69.5
 40
5.1890070112
  0
CIRCLE
  5
52D
100
AcDbEntity
  8
RACCORDO
100
AcDbCircle
 62
250
  6
CONTINUOUS
 10
-136.0
 20
-69.5
 40
5.1890070112
  0
ARC
  5
52E
100
AcDbEntity
  8
0
100
AcDbCircle
 62
250
  6
CONTINUOUS
 10
-146.0
 20
-79.5
 40
3.8825272252
100
AcDbArc
 50
180.0
 51
270.0
  0
ARC
  5
52F
100
AcDbEntity
  8
0
100
AcDbCircle
 62
7
  6
CONTINUOUS
 10
-146.0025
 20
-79.5025
 40
3.88
100
AcDbArc
 50
180.0
 51
270.0
  0
ARC
  5
530
100
AcDbEntity
  8
CURVE
100
AcDbCircle
 62
7
  6
CONTINUOUS
 10
-146.0025
 20
-79.5025
 40
3.88
100
AcDbArc
 50
180.0
 51
270.0
  0
CIRCLE
  5
531
100
AcDbEntity
  8
RACCORDO
100
AcDbCircle
 62
250
  6
CONTINUOUS
 10
-41.0
 20
-69.5
 40
3.7060791432
  0
CIRCLE
  5
532
100
AcDbEntity
  8
RACCORDO
100
AcDbCircle
 62
250
  6
CONTINUOUS
 10
-136.0
 20
-69.5
 40
3.7060791432
  0
ARC
  5
533
100
AcDbEntity
  8
0
100
AcDbCircle
 62
7
  6
CONTINUOUS
 10
-146.0
 20
-79.5
 40
3.4218171695
100
AcDbArc
 50
180.0
 51
270.0
  0
ARC
  5
534
100
AcDbEntity
  8
0
100
AcDbCircle
 62
7
  6
CONTINUOUS
 10
-146.0
 20
-79.5
 40
3.4
100
AcDbArc
 50
180.0
 51
270.0
  0
CIRCLE
  5
535
100
AcDbEntity
  8
ASSI
100
AcDbCircle
 62
7
  6
CONTINUOUS
 10
-136.0
 20
-69.5
 40
3.2
  0
CIRCLE
  5
536
100
AcDbEntity
  8
ASSI
100
AcDbCircle
 62
7
  6
CONTINUOUS
 10
-41.0
 20
-69.5
 40
3.2
  0
ARC
  5
537
100
AcDbEntity
  8
ASSI
100
AcDbCircle
 62
7
  6
CONTINUOUS
 10
-0.967554
 20
-44.0
 40
2.5499985399
100
AcDbArc
 50
87.7525290943
 51
272.2474708984
  0
ARC
  5
538
100
AcDbEntity
  8
ASSI
100
AcDbCircle
 62
7
  6
CONTINUOUS
 10
-0.967554
 20
-44.0
 40
1.7999999246
100
AcDbArc
 50
86.8152613297
 51
273.1847386551
  0
CIRCLE
  5
539
100
AcDbEntity
  8
0
100
AcDbCircle
 62
7
  6
CONTINUOUS
 10
-136.0
 20
-69.5
 40
1.65
  0
CIRCLE
  5
53A
100
AcDbEntity
  8
0
100
AcDbCircle
 62
7
  6
CONTINUOUS
 10
-41.0
 20
-69.5
 40
1.65
  0
ARC
  5
53B
100
AcDbEntity
  8
0
100
AcDbCircle
 62
7
  6
CONTINUOUS
 10
-146.0
 20
79.5
 40
10.0
100
AcDbArc
 50
90.0
 51
180.0
  0
ARC
  5
53C
100
AcDbEntity
  8
0
100
AcDbCircle
 62
250
  6
CONTINUOUS
 10
-146.0
 20
79.5
 40
7.5
100
AcDbArc
 50
90.0
 51
180.0
  0
ARC
  5
53D
100
AcDbEntity
  8
0
100
AcDbCircle
 62
7
  6
CONTINUOUS
 10
-146.0025
 20
79.5025
 40
7.49
100
AcDbArc
 50
90.0
 51
180.0
  0
CIRCLE
  5
53E
100
AcDbEntity
  8
RACCORDO
100
AcDbCircle
 62
250
  6
CONTINUOUS
 10
-136.0
 20
69.5
 40
5.1890070112
  0
ARC
  5
53F
100
AcDbEntity
  8
0
100
AcDbCircle
 62
250
  6
CONTINUOUS
 10
-146.0
 20
79.5
 40
3.8825272252
100
AcDbArc
 50
90.0
 51
180.0
  0
ARC
  5
540
100
AcDbEntity
  8
0
100
AcDbCircle
 62
7
  6
CONTINUOUS
 10
-146.0025
 20
79.5025
 40
3.88
100
AcDbArc
 50
90.0
 51
180.0
  0
ARC
  5
541
100
AcDbEntity
  8
CURVE
100
AcDbCircle
 62
7
  6
CONTINUOUS
 10
-146.0025
 20
79.5025
 40
3.88
100
AcDbArc
 50
90.0
 51
180.0
  0
CIRCLE
  5
542
100
AcDbEntity
  8
RACCORDO
100
AcDbCircle
 62
250
  6
CONTINUOUS
 10
-136.0
 20
69.5
 40
3.7060791432
  0
ARC
  5
543
100
AcDbEntity
  8
0
100
AcDbCircle
 62
7
  6
CONTINUOUS
 10
-146.0
 20
79.5
 40
3.4218171695
100
AcDbArc
 50
90.0
 51
180.0
  0
ARC
  5
544
100
AcDbEntity
  8
0
100
AcDbCircle
 62
7
  6
CONTINUOUS
 10
-146.0
 20
79.5
 40
3.4
100
AcDbArc
 50
90.0
 51
180.0
  0
CIRCLE
  5
545
100
AcDbEntity
  8
ASSI
100
AcDbCircle
 62
7
  6
CONTINUOUS
 10
-136.0
 20
69.5
 40
3.2
  0
CIRCLE
  5
546
100
AcDbEntity
  8
0
100
AcDbCircle
 62
7
  6
CONTINUOUS
 10
-136.0
 20
69.5
 40
1.65
  0
ARC
  5
547
100
AcDbEntity
  8
0
100
AcDbCircle
 62
7
  6
CONTINUOUS
 10
146.0
 20
-79.5
 40
10.0
100
AcDbArc
 50
270.0
 51
360.0
  0
ARC
  5
548
100
AcDbEntity
  8
0
100
AcDbCircle
 62
250
  6
CONTINUOUS
 10
146.0
 20
-79.5
 40
7.5
100
AcDbArc
 50
270.0
 51
360.0
  0
ARC
  5
549
100
AcDbEntity
  8
0
100
AcDbCircle
 62
7
  6
CONTINUOUS
 10
146.0025
 20
-79.5025
 40
7.49
100
AcDbArc
 50
270.0
 51
360.0
  0
CIRCLE
  5
54A
100
AcDbEntity
  8
RACCORDO
100
AcDbCircle
 62
250
  6
CONTINUOUS
 10
136.0
 20
-69.5
 40
5.1890070112
  0
ARC
  5
54B
100
AcDbEntity
  8
0
100
AcDbCircle
 62
250
  6
CONTINUOUS
 10
146.0
 20
-79.5
 40
3.8825272252
100
AcDbArc
 50
270.0
 51
360.0
  0
ARC
  5
54C
100
AcDbEntity
  8
0
100
AcDbCircle
 62
7
  6
CONTINUOUS
 10
146.0025
 20
-79.5025
 40
3.88
100
AcDbArc
 50
270.0
 51
360.0
  0
ARC
  5
54D
100
AcDbEntity
  8
CURVE
100
AcDbCircle
 62
7
  6
CONTINUOUS
 10
146.0025
 20
-79.5025
 40
3.88
100
AcDbArc
 50
270.0
 51
360.0
  0
CIRCLE
  5
54E
100
AcDbEntity
  8
RACCORDO
100
AcDbCircle
 62
250
  6
CONTINUOUS
 10
136.0
 20
-69.5
 40
3.7060791432
  0
ARC
  5
54F
100
AcDbEntity
  8
0
100
AcDbCircle
 62
7
  6
CONTINUOUS
 10
146.0
 20
-79.5
 40
3.4218171695
100
AcDbArc
 50
270.0
 51
360.0
  0
ARC
  5
550
100
AcDbEntity
  8
0
100
AcDbCircle
 62
7
  6
CONTINUOUS
 10
146.0
 20
-79.5
 40
3.4
100
AcDbArc
 50
270.0
 51
360.0
  0
CIRCLE
  5
551
100
AcDbEntity
  8
ASSI
100
AcDbCircle
 62
7
  6
CONTINUOUS
 10
136.0
 20
-69.5
 40
3.2
  0
ARC
  5
552
100
AcDbEntity
  8
ASSI
100
AcDbCircle
 62
7
  6
CONTINUOUS
 10
3.417556
 20
-44.0
 40
2.5499986575
100
AcDbArc
 50
87.7525290129
 51
272.247470795
  0
ARC
  5
553
100
AcDbEntity
  8
ASSI
100
AcDbCircle
 62
7
  6
CONTINUOUS
 10
3.417556
 20
-44.0
 40
1.7999999246
100
AcDbArc
 50
86.8152613297
 51
167.9753000153
  0
ARC
  5
554
100
AcDbEntity
  8
ASSI
100
AcDbCircle
 62
7
  6
CONTINUOUS
 10
3.417556
 20
-44.0
 40
1.7999968808
100
AcDbArc
 50
192.0247203293
 51
273.1847444464
  0
CIRCLE
  5
555
100
AcDbEntity
  8
0
100
AcDbCircle
 62
7
  6
CONTINUOUS
 10
136.0
 20
-69.5
 40
1.65
  0
ARC
  5
556
100
AcDbEntity
  8
0
100
AcDbCircle
 62
7
  6
CONTINUOUS
 10
146.0
 20
79.5
 40
10.0
100
AcDbArc
 50
0.0
 51
90.0
  0
ARC
  5
557
100
AcDbEntity
  8
0
100
AcDbCircle
 62
250
  6
CONTINUOUS
 10
146.0
 20
79.5
 40
7.5
100
AcDbArc
 50
0.0
 51
90.0
  0
ARC
  5
558
100
AcDbEntity
  8
0
100
AcDbCircle
 62
7
  6
CONTINUOUS
 10
146.0025
 20
79.5025
 40
7.49
100
AcDbArc
 50
0.0
 51
90.0
  0
CIRCLE
  5
559
100
AcDbEntity
  8
RACCORDO
100
AcDbCircle
 62
250
  6
CONTINUOUS
 10
136.0
 20
69.5
 40
5.1890070112
  0
CIRCLE
  5
55A
100
AcDbEntity
  8
RACCORDO
100
AcDbCircle
 62
250
  6
CONTINUOUS
 10
41.0
 20
69.5
 40
5.1890070112
  0
ARC
  5
55B
100
AcDbEntity
  8
0
100
AcDbCircle
 62
250
  6
CONTINUOUS
 10
146.0
 20
79.5
 40
3.8825272252
100
AcDbArc
 50
0.0
 51
90.0
  0
ARC
  5
55C
100
AcDbEntity
  8
0
100
AcDbCircle
 62
7
  6
CONTINUOUS
 10
146.0025
 20
79.5025
 40
3.88
100
AcDbArc
 50
0.0
 51
90.0
  0
ARC
  5
55D
100
AcDbEntity
  8
CURVE
100
AcDbCircle
 62
7
  6
CONTINUOUS
 10
146.0025
 20
79.5025
 40
3.88
100
AcDbArc
 50
0.0
 51
90.0
  0
CIRCLE
  5
55E
100
AcDbEntity
  8
RACCORDO
100
AcDbCircle
 62
250
  6
CONTINUOUS
 10
41.0
 20
69.5
 40
3.7060791432
  0
CIRCLE
  5
55F
100
AcDbEntity
  8
RACCORDO
100
AcDbCircle
 62
250
  6
CONTINUOUS
 10
136.0
 20
69.5
 40
3.7060791432
  0
ARC
  5
560
100
AcDbEntity
  8
ASSI
100
AcDbCircle
 62
7
  6
CONTINUOUS
 10
6.5
 20
35.25
 40
3.4233595751
100
AcDbArc
 50
292.0885367378
 51
273.4298412296
  0
ARC
  5
561
100
AcDbEntity
  8
0
100
AcDbCircle
 62
7
  6
CONTINUOUS
 10
146.0
 20
79.5
 40
3.4218171695
100
AcDbArc
 50
0.0
 51
90.0
  0
ARC
  5
562
100
AcDbEntity
  8
0
100
AcDbCircle
 62
7
  6
CONTINUOUS
 10
146.0
 20
79.5
 40
3.4
100
AcDbArc
 50
0.0
 51
90.0
  0
CIRCLE
  5
563
100
AcDbEntity
  8
ASSI
100
AcDbCircle
 62
7
  6
CONTINUOUS
 10
41.0
 20
69.5
 40
3.2
  0
CIRCLE
  5
564
100
AcDbEntity
  8
ASSI
100
AcDbCircle
 62
7
  6
CONTINUOUS
 10
136.0
 20
69.5
 40
3.2
  0
ARC
  5
565
100
AcDbEntity
  8
ASSI
100
AcDbCircle
 62
7
  6
CONTINUOUS
 10
6.396458
 20
28.796527
 40
3.051862479
100
AcDbArc
 50
47.231270393
 51
84.2011526035
  0
ARC
  5
566
100
AcDbEntity
  8
ASSI
100
AcDbCircle
 62
7
  6
CONTINUOUS
 10
6.636638
 20
29.29086
 40
3.0152382548
100
AcDbArc
 50
45.4348897783
 51
67.5658710222
  0
CIRCLE
  5
567
100
AcDbEntity
  8
ASSI
100
AcDbCircle
 62
7
  6
CONTINUOUS
 10
6.5
 20
35.25
 40
2.875383
  0
ARC
  5
568
100
AcDbEntity
  8
ASSI
100
AcDbCircle
 62
7
  6
CONTINUOUS
 10
6.5
 20
35.25
 40
2.5716283267
100
AcDbArc
 50
299.3041446576
 51
44.9957783161
  0
ARC
  5
569
100
AcDbEntity
  8
ASSI
100
AcDbCircle
 62
7
  6
CONTINUOUS
 10
6.5
 20
35.25
 40
2.5716282219
100
AcDbArc
 50
134.9002751525
 51
240.6958553424
  0
ARC
  5
56A
100
AcDbEntity
  8
ASSI
100
AcDbCircle
 62
7
  6
CONTINUOUS
 10
6.5
 20
35.25
 40
2.0603391911
100
AcDbArc
 50
148.0267353487
 51
240.6958433001
  0
ARC
  5
56B
100
AcDbEntity
  8
ASSI
100
AcDbCircle
 62
7
  6
CONTINUOUS
 10
6.5
 20
35.25
 40
2.0603387957
100
AcDbArc
 50
299.3041566999
 51
31.9732630604
  0
CIRCLE
  5
56C
100
AcDbEntity
  8
0
100
AcDbCircle
 62
7
  6
CONTINUOUS
 10
136.0
 20
69.5
 40
1.65
  0
CIRCLE
  5
56D
100
AcDbEntity
  8
0
100
AcDbCircle
 62
7
  6
CONTINUOUS
 10
41.0
 20
69.5
 40
1.65
  0
ARC
  5
56E
100
AcDbEntity
  8
0
100
AcDbCircle
 62
7
  6
CONTINUOUS
 10
9.357347
 20
53.505353
 40
1.5947693028
100
AcDbArc
 50
292.8428777618
 51
89.9976435847
  0
ARC
  5
56F
100
AcDbEntity
  8
0
100
AcDbCircle
 62
7
  6
CONTINUOUS
 10
9.212992
 20
53.505353
 40
0.632725
100
AcDbArc
 50
270.003677664
 51
90.0
  0
ENDSEC
  0
SECTION
  2
OBJECTS
  0
DICTIONARY
  5
C
100
AcDbDictionary
280
0
281
1
  3
ACAD_GROUP
350
D
  3
ACAD_MLINESTYLE
350
17
  3
ACAD_LAYOUT
350
1A
  3
ACAD_PLOTSETTINGS
350
19
  3
ACAD_PLOTSTYLENAME
350
E
  0
DICTIONARY
  5
D
102
{ACAD_REACTORS
330
C
102
}
100
AcDbDictionary
280
0
281
1
  0
ACDBDICTIONARYWDFLT
  5
E
102
{ACAD_REACTORS
330
C
102
}
100
AcDbDictionary
281
1
  3
Normal
350
F
100
AcDbDictionaryWithDefault
340
F
  0
DICTIONARY
  5
17
102
{ACAD_REACTORS
330
C
102
}
100
AcDbDictionary
280
0
281
1
  3
Standard
350
18
  0
DICTIONARY
  5
19
102
{ACAD_REACTORS
330
C
102
}
100
AcDbDictionary
281
1
  0
DICTIONARY
  5
1A
102
{ACAD_REACTORS
330
C
102
}
100
AcDbDictionary
281
1
  3
Model
350
570
  3
Layout1
350
571
  0
ACDBPLACEHOLDER
  5
F
102
{ACAD_REACTORS
330
E
102
}
  0
MLINESTYLE
  5
18
102
{ACAD_REACTORS
330
17
102
}
100
AcDbMlineStyle
  2
STANDARD
 70
0
  3

 62
256
 51
90.0
 52
90.0
 71
2
 49
0.5
 62
256
  6
BYLAYER
 49
-0.5
 62
256
  6
BYLAYER
  0
LAYOUT
  5
570
102
{ACAD_REACTORS
330
1A
102
}
100
AcDbPlotSettings
  1

  2
none_device
  4
ANSI_C_(22.00_x_17.00_Inches)
  6

 40
0.0
 41
0.0
 42
0.0
 43
0.0
 44
558.8
 45
431.8
 46
0.0
 47
0.0
 48
0.0
 49
0.0
140
0.0
141
0.0
142
1.0
143
1.0
 70
1024
 72
1
 73
0
 74
0
  7

 75
0
147
1.0
148
0.0
149
0.0
100
AcDbLayout
  1
Model
 70
0
 71
0
 10
0.0
 20
0.0
 11
558.8
 21
431.8
 12
0.0
 22
0.0
 32
0.0
 14
0.0
 24
0.0
 34
0.0
 15
0.0
 25
0.0
 35
0.0
146
0.0
 13
0.0
 23
0.0
 33
0.0
 16
1.0
 26
0.0
 36
0.0
 17
0.0
 27
1.0
 37
0.0
 76
0
330
212
345
0
346
0
  0
LAYOUT
  5
571
102
{ACAD_REACTORS
330
1A
102
}
100
AcDbPlotSettings
  1

  2
none_device
  4
ANSI_C_(22.00_x_17.00_Inches)
  6

 40
0.0
 41
0.0
 42
0.0
 43
0.0
 44
558.8
 45
431.8
 46
0.0
 47
0.0
 48
0.0
 49
0.0
140
0.0
141
0.0
142
1.0
143
1.0
 70
0
 72
1
 73
0
 74
0
  7

 75
0
147
1.0
148
0.0
149
0.0
100
AcDbLayout
  1
Layout1
 70
0
 71
1
 10
0.0
 20
0.0
 11
558.8
 21
431.8
 12
0.0
 22
0.0
 32
0.0
 14
0.0
 24
0.0
 34
0.0
 15
0.0
 25
0.0
 35
0.0
146
0.0
 13
0.0
 23
0.0
 33
0.0
 16
1.0
 26
0.0
 36
0.0
 17
0.0
 27
1.0
 37
0.0
 76
0
330
213
345
0
346
0
  0
ENDSEC
  0
EOF
