  0
SECTION
  2
HEADER
  9
$ACADVER
  1
AC1015
  9
$DWGCODEPAGE
  3
ANSI_1252
  9
$EXTMAX
 10
297.0
 20
210.0
 30
0.0
  9
$EXTMIN
 10
0.0
 20
0.0
 30
0.0
  9
$LIMMIN
 10
0.0
 20
0.0
  9
$LIMMAX
 10
297.0
 20
210.0
  9
$VIEWCTR
 10
148.5
 20
105.0
  9
$VIEWSIZE
 40
210.0
  9
$CLAYER
  8
0
  9
$LTSCALE
 40
16.335
  9
$CELTYPE
  6
BYLAYER
  9
$DIMSCALE
 40
1.0
  9
$DIMASZ
 40
3.0
  9
$DIMEXO
 40
1.85625
  9
$DIMDLI
 40
11.286
  9
$DIMEXE
 40
5.346
  9
$DIMCEN
 40
2.673
  9
$DIMLFAC
 40
1.0
  9
$DIMBLK
  1
_FILLED
  9
$DIMTXT
 40
3.0
  9
$DIMTOL
 70
1
  9
$DIMLIM
 70
0
  9
$DIMTFAC
 40
1.0
  9
$DIMTP
 40
0.01
  9
$DIMTM
 40
0.01
  9
$PDMODE
 70
3
  9
$PDSIZE
 40
3.0
  9
$HANDSEED
  5
63B
  9
$TILEMODE
 70
1
  9
$MEASUREMENT
 70
1
  9
$INSUNITS
 70
4
  0
ENDSEC
  0
SECTION
  2
CLASSES
  0
CLASS
  1
ACDBDICTIONARYWDFLT
  2
AcDbDictionaryWithDefault
  3
AutoCAD 2000
 90
0
280
0
281
0
  0
CLASS
  1
ACDBPLACEHOLDER
  2
AcDbPlaceHolder
  3
AutoCAD 2000
 90
0
280
0
281
0
  0
CLASS
  1
LAYOUT
  2
AcDbLayout
  3
AutoCAD 2000
 90
0
280
0
281
0
  0
ENDSEC
  0
SECTION
  2
TABLES
  0
TABLE
  2
VPORT
  5
8
100
AcDbSymbolTable
 70
2
  0
VPORT
  5
1F4
100
AcDbSymbolTableRecord
100
AcDbViewportTableRecord
  2
*ACTIVE
 70
0
 10
0.0
 20
0.0
 11
1.0
 21
1.0
 12
148.5
 22
105.0
 13
0.0
 23
0.0
 14
1.0
 24
1.0
 15
0.0
 25
0.0
 16
0.0
 26
0.0
 36
1.0
 17
0.0
 27
0.0
 37
0.0
 40
210.0
 41
1.4142857143
 42
50.0
 43
0.0
 44
0.0
 50
0.0
 51
0.0
 71
0
 72
100
 73
1
 74
1
 75
0
 76
0
 77
0
 78
0
  0
ENDTAB
  0
TABLE
  2
LTYPE
  5
5
100
AcDbSymbolTable
 70
6
  0
LTYPE
  5
14
100
AcDbSymbolTableRecord
100
AcDbLinetypeTableRecord
  2
BYBLOCK
 70
0
  3

 72
65
 73
0
 40
0.0
  0
LTYPE
  5
15
100
AcDbSymbolTableRecord
100
AcDbLinetypeTableRecord
  2
BYLAYER
 70
0
  3

 72
65
 73
0
 40
0.0
  0
LTYPE
  5
16
100
AcDbSymbolTableRecord
100
AcDbLinetypeTableRecord
  2
CONTINUOUS
 70
64
  3
Solid line
 72
65
 73
0
 40
0.0
  0
LTYPE
  5
1F5
100
AcDbSymbolTableRecord
100
AcDbLinetypeTableRecord
  2
CENTER
 70
64
  3
____ _ ____ _ ____ _ ____ _ ____ _ ____ _ ____
 72
65
 73
4
 40
0.6
 49
0.375
 74
0
 49
-0.075
 74
0
 49
0.075
 74
0
 49
-0.075
 74
0
  0
LTYPE
  5
1F6
100
AcDbSymbolTableRecord
100
AcDbLinetypeTableRecord
  2
HIDDEN
 70
64
  3
- - - - - - - - - - - - - - - - - - - -
 72
65
 73
2
 40
0.2
 49
0.1
 74
0
 49
-0.1
 74
0
  0
LTYPE
  5
1F7
100
AcDbSymbolTableRecord
100
AcDbLinetypeTableRecord
  2
PHANTOM
 70
64
  3
_____ _ _ _____ _ _ _____ _ _ _____
 72
65
 73
6
 40
0.8
 49
0.45
 74
0
 49
-0.05
 74
0
 49
0.1
 74
0
 49
-0.05
 74
0
 49
0.1
 74
0
 49
-0.05
 74
0
  0
LTYPE
  5
1F8
100
AcDbSymbolTableRecord
100
AcDbLinetypeTableRecord
  2
DOT
 70
64
  3
. . . . . . . . . . . . . . . . . . . .
 72
65
 73
2
 40
0.2
 49
0.1
 74
0
 49
-0.1
 74
0
  0
LTYPE
  5
1F9
100
AcDbSymbolTableRecord
100
AcDbLinetypeTableRecord
  2
DASHED
 70
64
  3
- - - - - - - - - - - - - - - - - - - -
 72
65
 73
2
 40
0.2
 49
0.1
 74
0
 49
-0.1
 74
0
  0
ENDTAB
  0
TABLE
  2
LAYER
  5
2
100
AcDbSymbolTable
 70
36
  0
LAYER
  5
10
100
AcDbSymbolTableRecord
100
AcDbLayerTableRecord
  2
0
 70
0
 62
7
  6
CONTINUOUS
370
-3
390
F
  0
LAYER
  5
1FA
100
AcDbSymbolTableRecord
100
AcDbLayerTableRecord
  2
DEFAULT_1
 70
0
 62
7
  6
CENTER
370
-3
390
F
  0
LAYER
  5
1FB
100
AcDbSymbolTableRecord
100
AcDbLayerTableRecord
  2
DEFAULT_2
 70
0
 62
7
  6
HIDDEN
370
-3
390
F
  0
LAYER
  5
1FC
100
AcDbSymbolTableRecord
100
AcDbLayerTableRecord
  2
DEFAULT_3
 70
0
 62
7
  6
PHANTOM
370
-3
390
F
  0
LAYER
  5
1FD
100
AcDbSymbolTableRecord
100
AcDbLayerTableRecord
  2
SHELL
 70
0
 62
7
  6
CONTINUOUS
370
-3
390
F
  0
LAYER
  5
1FE
100
AcDbSymbolTableRecord
100
AcDbLayerTableRecord
  2
200A_170000
 70
0
 62
7
  6
CONTINUOUS
370
-3
390
F
  0
LAYER
  5
1FF
100
AcDbSymbolTableRecord
100
AcDbLayerTableRecord
  2
200A_170000_1
 70
0
 62
7
  6
CONTINUOUS
370
-3
390
F
  0
LAYER
  5
200
100
AcDbSymbolTableRecord
100
AcDbLayerTableRecord
  2
200A_170000_2
 70
0
 62
7
  6
CONTINUOUS
370
-3
390
F
  0
LAYER
  5
201
100
AcDbSymbolTableRecord
100
AcDbLayerTableRecord
  2
200A_170000_3
 70
0
 62
7
  6
CONTINUOUS
370
-3
390
F
  0
LAYER
  5
202
100
AcDbSymbolTableRecord
100
AcDbLayerTableRecord
  2
200A_170000_4
 70
0
 62
7
  6
CONTINUOUS
370
-3
390
F
  0
LAYER
  5
203
100
AcDbSymbolTableRecord
100
AcDbLayerTableRecord
  2
2125-CC-RF-VIMAR_65000
 70
0
 62
7
  6
CONTINUOUS
370
-3
390
F
  0
LAYER
  5
204
100
AcDbSymbolTableRecord
100
AcDbLayerTableRecord
  2
2125-CC-RF-VIMAR_65000_1
 70
0
 62
7
  6
CONTINUOUS
370
-3
390
F
  0
LAYER
  5
205
100
AcDbSymbolTableRecord
100
AcDbLayerTableRecord
  2
2125-CC-RF-VIMAR_65000_2
 70
0
 62
7
  6
CONTINUOUS
370
-3
390
F
  0
LAYER
  5
206
100
AcDbSymbolTableRecord
100
AcDbLayerTableRecord
  2
2125-CC-RF-VIMAR_65000_3
 70
0
 62
7
  6
CONTINUOUS
370
-3
390
F
  0
LAYER
  5
207
100
AcDbSymbolTableRecord
100
AcDbLayerTableRecord
  2
2125-CC-RF-VIMAR_65000_4
 70
0
 62
7
  6
CONTINUOUS
370
-3
390
F
  0
LAYER
  5
208
100
AcDbSymbolTableRecord
100
AcDbLayerTableRecord
  2
2125-CC-RF-VIMAR_65000_5
 70
0
 62
7
  6
CONTINUOUS
370
-3
390
F
  0
LAYER
  5
209
100
AcDbSymbolTableRecord
100
AcDbLayerTableRecord
  2
2125-CC-RF-VIMAR_65000_6
 70
0
 62
7
  6
CONTINUOUS
370
-3
390
F
  0
LAYER
  5
20A
100
AcDbSymbolTableRecord
100
AcDbLayerTableRecord
  2
2125-CC-RF-VIMAR_65000_7
 70
0
 62
7
  6
CONTINUOUS
370
-3
390
F
  0
LAYER
  5
20B
100
AcDbSymbolTableRecord
100
AcDbLayerTableRecord
  2
2125-CC-RF-VIMAR_65000_8
 70
0
 62
7
  6
CONTINUOUS
370
-3
390
F
  0
LAYER
  5
20C
100
AcDbSymbolTableRecord
100
AcDbLayerTableRecord
  2
3216-R1-RF-VIMAR_60000
 70
0
 62
7
  6
CONTINUOUS
370
-3
390
F
  0
LAYER
  5
20D
100
AcDbSymbolTableRecord
100
AcDbLayerTableRecord
  2
3216-R1-RF-VIMAR_60000_1
 70
0
 62
7
  6
CONTINUOUS
370
-3
390
F
  0
LAYER
  5
20E
100
AcDbSymbolTableRecord
100
AcDbLayerTableRecord
  2
3216-R1-RF-VIMAR_60000_2
 70
0
 62
7
  6
CONTINUOUS
370
-3
390
F
  0
LAYER
  5
20F
100
AcDbSymbolTableRecord
100
AcDbLayerTableRecord
  2
3216-R1-RF-VIMAR_60000_3
 70
0
 62
7
  6
CONTINUOUS
370
-3
390
F
  0
LAYER
  5
210
100
AcDbSymbolTableRecord
100
AcDbLayerTableRecord
  2
3216-R1-RF-VIMAR_60000_4
 70
0
 62
7
  6
CONTINUOUS
370
-3
390
F
  0
LAYER
  5
211
100
AcDbSymbolTableRecord
100
AcDbLayerTableRecord
  2
3216-R1-RF-VIMAR_60000_5
 70
0
 62
7
  6
CONTINUOUS
370
-3
390
F
  0
LAYER
  5
212
100
AcDbSymbolTableRecord
100
AcDbLayerTableRecord
  2
43000205A0
 70
0
 62
7
  6
CONTINUOUS
370
-3
390
F
  0
LAYER
  5
213
100
AcDbSymbolTableRecord
100
AcDbLayerTableRecord
  2
43000206A0
 70
0
 62
7
  6
CONTINUOUS
370
-3
390
F
  0
LAYER
  5
214
100
AcDbSymbolTableRecord
100
AcDbLayerTableRecord
  2
6032-CS-RF_250000
 70
0
 62
7
  6
CONTINUOUS
370
-3
390
F
  0
LAYER
  5
215
100
AcDbSymbolTableRecord
100
AcDbLayerTableRecord
  2
6032-CS-RF_250000_1
 70
0
 62
7
  6
CONTINUOUS
370
-3
390
F
  0
LAYER
  5
216
100
AcDbSymbolTableRecord
100
AcDbLayerTableRecord
  2
6032-CS-RF_250000_2
 70
0
 62
7
  6
CONTINUOUS
370
-3
390
F
  0
LAYER
  5
217
100
AcDbSymbolTableRecord
100
AcDbLayerTableRecord
  2
6032-CS-RF_250000_3
 70
0
 62
7
  6
CONTINUOUS
370
-3
390
F
  0
LAYER
  5
218
100
AcDbSymbolTableRecord
100
AcDbLayerTableRecord
  2
6032-CS-RF_250000_4
 70
0
 62
7
  6
CONTINUOUS
370
-3
390
F
  0
LAYER
  5
219
100
AcDbSymbolTableRecord
100
AcDbLayerTableRecord
  2
6032-CS-RF_250000_5
 70
0
 62
7
  6
CONTINUOUS
370
-3
390
F
  0
LAYER
  5
21A
100
AcDbSymbolTableRecord
100
AcDbLayerTableRecord
  2
ASSI
 70
0
 62
7
  6
CONTINUOUS
370
-3
390
F
  0
LAYER
  5
21B
100
AcDbSymbolTableRecord
100
AcDbLayerTableRecord
  2
CAPC1608N_80000
 70
0
 62
7
  6
CONTINUOUS
370
-3
390
F
  0
LAYER
  5
21C
100
AcDbSymbolTableRecord
100
AcDbLayerTableRecord
  2
CAPC1608N_80000_1
 70
0
 62
7
  6
CONTINUOUS
370
-3
390
F
  0
LAYER
  5
21D
100
AcDbSymbolTableRecord
100
AcDbLayerTableRecord
  2
CAPC1608N_80000_10
 70
0
 62
7
  6
CONTINUOUS
370
-3
390
F
  0
LAYER
  5
21E
100
AcDbSymbolTableRecord
100
AcDbLayerTableRecord
  2
CAPC1608N_80000_11
 70
0
 62
7
  6
CONTINUOUS
370
-3
390
F
  0
LAYER
  5
21F
100
AcDbSymbolTableRecord
100
AcDbLayerTableRecord
  2
CAPC1608N_80000_12
 70
0
 62
7
  6
CONTINUOUS
370
-3
390
F
  0
LAYER
  5
220
100
AcDbSymbolTableRecord
100
AcDbLayerTableRecord
  2
CAPC1608N_80000_13
 70
0
 62
7
  6
CONTINUOUS
370
-3
390
F
  0
LAYER
  5
221
100
AcDbSymbolTableRecord
100
AcDbLayerTableRecord
  2
CAPC1608N_80000_14
 70
0
 62
7
  6
CONTINUOUS
370
-3
390
F
  0
LAYER
  5
222
100
AcDbSymbolTableRecord
100
AcDbLayerTableRecord
  2
CAPC1608N_80000_15
 70
0
 62
7
  6
CONTINUOUS
370
-3
390
F
  0
LAYER
  5
223
100
AcDbSymbolTableRecord
100
AcDbLayerTableRecord
  2
CAPC1608N_80000_16
 70
0
 62
7
  6
CONTINUOUS
370
-3
390
F
  0
LAYER
  5
224
100
AcDbSymbolTableRecord
100
AcDbLayerTableRecord
  2
CAPC1608N_80000_17
 70
0
 62
7
  6
CONTINUOUS
370
-3
390
F
  0
LAYER
  5
225
100
AcDbSymbolTableRecord
100
AcDbLayerTableRecord
  2
CAPC1608N_80000_18
 70
0
 62
7
  6
CONTINUOUS
370
-3
390
F
  0
LAYER
  5
226
100
AcDbSymbolTableRecord
100
AcDbLayerTableRecord
  2
CAPC1608N_80000_19
 70
0
 62
7
  6
CONTINUOUS
370
-3
390
F
  0
LAYER
  5
227
100
AcDbSymbolTableRecord
100
AcDbLayerTableRecord
  2
CAPC1608N_80000_2
 70
0
 62
7
  6
CONTINUOUS
370
-3
390
F
  0
LAYER
  5
228
100
AcDbSymbolTableRecord
100
AcDbLayerTableRecord
  2
CAPC1608N_80000_20
 70
0
 62
7
  6
CONTINUOUS
370
-3
390
F
  0
LAYER
  5
229
100
AcDbSymbolTableRecord
100
AcDbLayerTableRecord
  2
CAPC1608N_80000_21
 70
0
 62
7
  6
CONTINUOUS
370
-3
390
F
  0
LAYER
  5
22A
100
AcDbSymbolTableRecord
100
AcDbLayerTableRecord
  2
CAPC1608N_80000_22
 70
0
 62
7
  6
CONTINUOUS
370
-3
390
F
  0
LAYER
  5
22B
100
AcDbSymbolTableRecord
100
AcDbLayerTableRecord
  2
CAPC1608N_80000_23
 70
0
 62
7
  6
CONTINUOUS
370
-3
390
F
  0
LAYER
  5
22C
100
AcDbSymbolTableRecord
100
AcDbLayerTableRecord
  2
CAPC1608N_80000_24
 70
0
 62
7
  6
CONTINUOUS
370
-3
390
F
  0
LAYER
  5
22D
100
AcDbSymbolTableRecord
100
AcDbLayerTableRecord
  2
CAPC1608N_80000_25
 70
0
 62
7
  6
CONTINUOUS
370
-3
390
F
  0
LAYER
  5
22E
100
AcDbSymbolTableRecord
100
AcDbLayerTableRecord
  2
CAPC1608N_80000_26
 70
0
 62
7
  6
CONTINUOUS
370
-3
390
F
  0
LAYER
  5
22F
100
AcDbSymbolTableRecord
100
AcDbLayerTableRecord
  2
CAPC1608N_80000_27
 70
0
 62
7
  6
CONTINUOUS
370
-3
390
F
  0
LAYER
  5
230
100
AcDbSymbolTableRecord
100
AcDbLayerTableRecord
  2
CAPC1608N_80000_28
 70
0
 62
7
  6
CONTINUOUS
370
-3
390
F
  0
LAYER
  5
231
100
AcDbSymbolTableRecord
100
AcDbLayerTableRecord
  2
CAPC1608N_80000_29
 70
0
 62
7
  6
CONTINUOUS
370
-3
390
F
  0
LAYER
  5
232
100
AcDbSymbolTableRecord
100
AcDbLayerTableRecord
  2
CAPC1608N_80000_3
 70
0
 62
7
  6
CONTINUOUS
370
-3
390
F
  0
LAYER
  5
233
100
AcDbSymbolTableRecord
100
AcDbLayerTableRecord
  2
CAPC1608N_80000_30
 70
0
 62
7
  6
CONTINUOUS
370
-3
390
F
  0
LAYER
  5
234
100
AcDbSymbolTableRecord
100
AcDbLayerTableRecord
  2
CAPC1608N_80000_31
 70
0
 62
7
  6
CONTINUOUS
370
-3
390
F
  0
LAYER
  5
235
100
AcDbSymbolTableRecord
100
AcDbLayerTableRecord
  2
CAPC1608N_80000_32
 70
0
 62
7
  6
CONTINUOUS
370
-3
390
F
  0
LAYER
  5
236
100
AcDbSymbolTableRecord
100
AcDbLayerTableRecord
  2
CAPC1608N_80000_33
 70
0
 62
7
  6
CONTINUOUS
370
-3
390
F
  0
LAYER
  5
237
100
AcDbSymbolTableRecord
100
AcDbLayerTableRecord
  2
CAPC1608N_80000_34
 70
0
 62
7
  6
CONTINUOUS
370
-3
390
F
  0
LAYER
  5
238
100
AcDbSymbolTableRecord
100
AcDbLayerTableRecord
  2
CAPC1608N_80000_35
 70
0
 62
7
  6
CONTINUOUS
370
-3
390
F
  0
LAYER
  5
239
100
AcDbSymbolTableRecord
100
AcDbLayerTableRecord
  2
CAPC1608N_80000_36
 70
0
 62
7
  6
CONTINUOUS
370
-3
390
F
  0
LAYER
  5
23A
100
AcDbSymbolTableRecord
100
AcDbLayerTableRecord
  2
CAPC1608N_80000_37
 70
0
 62
7
  6
CONTINUOUS
370
-3
390
F
  0
LAYER
  5
23B
100
AcDbSymbolTableRecord
100
AcDbLayerTableRecord
  2
CAPC1608N_80000_38
 70
0
 62
7
  6
CONTINUOUS
370
-3
390
F
  0
LAYER
  5
23C
100
AcDbSymbolTableRecord
100
AcDbLayerTableRecord
  2
CAPC1608N_80000_39
 70
0
 62
7
  6
CONTINUOUS
370
-3
390
F
  0
LAYER
  5
23D
100
AcDbSymbolTableRecord
100
AcDbLayerTableRecord
  2
CAPC1608N_80000_4
 70
0
 62
7
  6
CONTINUOUS
370
-3
390
F
  0
LAYER
  5
23E
100
AcDbSymbolTableRecord
100
AcDbLayerTableRecord
  2
CAPC1608N_80000_40
 70
0
 62
7
  6
CONTINUOUS
370
-3
390
F
  0
LAYER
  5
23F
100
AcDbSymbolTableRecord
100
AcDbLayerTableRecord
  2
CAPC1608N_80000_41
 70
0
 62
7
  6
CONTINUOUS
370
-3
390
F
  0
LAYER
  5
240
100
AcDbSymbolTableRecord
100
AcDbLayerTableRecord
  2
CAPC1608N_80000_42
 70
0
 62
7
  6
CONTINUOUS
370
-3
390
F
  0
LAYER
  5
241
100
AcDbSymbolTableRecord
100
AcDbLayerTableRecord
  2
CAPC1608N_80000_43
 70
0
 62
7
  6
CONTINUOUS
370
-3
390
F
  0
LAYER
  5
242
100
AcDbSymbolTableRecord
100
AcDbLayerTableRecord
  2
CAPC1608N_80000_44
 70
0
 62
7
  6
CONTINUOUS
370
-3
390
F
  0
LAYER
  5
243
100
AcDbSymbolTableRecord
100
AcDbLayerTableRecord
  2
CAPC1608N_80000_45
 70
0
 62
7
  6
CONTINUOUS
370
-3
390
F
  0
LAYER
  5
244
100
AcDbSymbolTableRecord
100
AcDbLayerTableRecord
  2
CAPC1608N_80000_46
 70
0
 62
7
  6
CONTINUOUS
370
-3
390
F
  0
LAYER
  5
245
100
AcDbSymbolTableRecord
100
AcDbLayerTableRecord
  2
CAPC1608N_80000_47
 70
0
 62
7
  6
CONTINUOUS
370
-3
390
F
  0
LAYER
  5
246
100
AcDbSymbolTableRecord
100
AcDbLayerTableRecord
  2
CAPC1608N_80000_48
 70
0
 62
7
  6
CONTINUOUS
370
-3
390
F
  0
LAYER
  5
247
100
AcDbSymbolTableRecord
100
AcDbLayerTableRecord
  2
CAPC1608N_80000_49
 70
0
 62
7
  6
CONTINUOUS
370
-3
390
F
  0
LAYER
  5
248
100
AcDbSymbolTableRecord
100
AcDbLayerTableRecord
  2
CAPC1608N_80000_5
 70
0
 62
7
  6
CONTINUOUS
370
-3
390
F
  0
LAYER
  5
249
100
AcDbSymbolTableRecord
100
AcDbLayerTableRecord
  2
CAPC1608N_80000_50
 70
0
 62
7
  6
CONTINUOUS
370
-3
390
F
  0
LAYER
  5
24A
100
AcDbSymbolTableRecord
100
AcDbLayerTableRecord
  2
CAPC1608N_80000_51
 70
0
 62
7
  6
CONTINUOUS
370
-3
390
F
  0
LAYER
  5
24B
100
AcDbSymbolTableRecord
100
AcDbLayerTableRecord
  2
CAPC1608N_80000_52
 70
0
 62
7
  6
CONTINUOUS
370
-3
390
F
  0
LAYER
  5
24C
100
AcDbSymbolTableRecord
100
AcDbLayerTableRecord
  2
CAPC1608N_80000_53
 70
0
 62
7
  6
CONTINUOUS
370
-3
390
F
  0
LAYER
  5
24D
100
AcDbSymbolTableRecord
100
AcDbLayerTableRecord
  2
CAPC1608N_80000_6
 70
0
 62
7
  6
CONTINUOUS
370
-3
390
F
  0
LAYER
  5
24E
100
AcDbSymbolTableRecord
100
AcDbLayerTableRecord
  2
CAPC1608N_80000_7
 70
0
 62
7
  6
CONTINUOUS
370
-3
390
F
  0
LAYER
  5
24F
100
AcDbSymbolTableRecord
100
AcDbLayerTableRecord
  2
CAPC1608N_80000_8
 70
0
 62
7
  6
CONTINUOUS
370
-3
390
F
  0
LAYER
  5
250
100
AcDbSymbolTableRecord
100
AcDbLayerTableRecord
  2
CAPC1608N_80000_9
 70
0
 62
7
  6
CONTINUOUS
370
-3
390
F
  0
LAYER
  5
251
100
AcDbSymbolTableRecord
100
AcDbLayerTableRecord
  2
CN-MKDSN2-VIMAR_1500000
 70
0
 62
7
  6
CONTINUOUS
370
-3
390
F
  0
LAYER
  5
252
100
AcDbSymbolTableRecord
100
AcDbLayerTableRecord
  2
CN-MKDSN2-VIMAR_1500000_1
 70
0
 62
7
  6
CONTINUOUS
370
-3
390
F
  0
LAYER
  5
253
100
AcDbSymbolTableRecord
100
AcDbLayerTableRecord
  2
CN-MKDSN2-VIMAR_1500000_2
 70
0
 62
7
  6
CONTINUOUS
370
-3
390
F
  0
LAYER
  5
254
100
AcDbSymbolTableRecord
100
AcDbLayerTableRecord
  2
CN1-CLIPS_BAT_AAA-3_VIMAR_11000
 70
0
 62
7
  6
CONTINUOUS
370
-3
390
F
  0
LAYER
  5
255
100
AcDbSymbolTableRecord
100
AcDbLayerTableRecord
  2
CN1-CLIPS_BAT_AAA-3_VIMAR_110_1
 70
0
 62
7
  6
CONTINUOUS
370
-3
390
F
  0
LAYER
  5
256
100
AcDbSymbolTableRecord
100
AcDbLayerTableRecord
  2
CN1-CLIPS_BAT_AAA-3_VIMAR_110_2
 70
0
 62
7
  6
CONTINUOUS
370
-3
390
F
  0
LAYER
  5
257
100
AcDbSymbolTableRecord
100
AcDbLayerTableRecord
  2
CN1-CLIPS_BAT_AAA-3_VIMAR_110_3
 70
0
 62
7
  6
CONTINUOUS
370
-3
390
F
  0
LAYER
  5
258
100
AcDbSymbolTableRecord
100
AcDbLayerTableRecord
  2
CN1-TP10_SMD-VIMAR_10000
 70
0
 62
7
  6
CONTINUOUS
370
-3
390
F
  0
LAYER
  5
259
100
AcDbSymbolTableRecord
100
AcDbLayerTableRecord
  2
CN1-TP10_SMD-VIMAR_10000_1
 70
0
 62
7
  6
CONTINUOUS
370
-3
390
F
  0
LAYER
  5
25A
100
AcDbSymbolTableRecord
100
AcDbLayerTableRecord
  2
CN1-TP10_SMD-VIMAR_10000_2
 70
0
 62
7
  6
CONTINUOUS
370
-3
390
F
  0
LAYER
  5
25B
100
AcDbSymbolTableRecord
100
AcDbLayerTableRecord
  2
CN1-TP10_SMD-VIMAR_10000_3
 70
0
 62
7
  6
CONTINUOUS
370
-3
390
F
  0
LAYER
  5
25C
100
AcDbSymbolTableRecord
100
AcDbLayerTableRecord
  2
CN1-TP15_SMD-VIMAR_5000
 70
0
 62
7
  6
CONTINUOUS
370
-3
390
F
  0
LAYER
  5
25D
100
AcDbSymbolTableRecord
100
AcDbLayerTableRecord
  2
CN1-TP15_SMD-VIMAR_5000_1
 70
0
 62
7
  6
CONTINUOUS
370
-3
390
F
  0
LAYER
  5
25E
100
AcDbSymbolTableRecord
100
AcDbLayerTableRecord
  2
CN1-TP15_SMD-VIMAR_5000_10
 70
0
 62
7
  6
CONTINUOUS
370
-3
390
F
  0
LAYER
  5
25F
100
AcDbSymbolTableRecord
100
AcDbLayerTableRecord
  2
CN1-TP15_SMD-VIMAR_5000_2
 70
0
 62
7
  6
CONTINUOUS
370
-3
390
F
  0
LAYER
  5
260
100
AcDbSymbolTableRecord
100
AcDbLayerTableRecord
  2
CN1-TP15_SMD-VIMAR_5000_3
 70
0
 62
7
  6
CONTINUOUS
370
-3
390
F
  0
LAYER
  5
261
100
AcDbSymbolTableRecord
100
AcDbLayerTableRecord
  2
CN1-TP15_SMD-VIMAR_5000_4
 70
0
 62
7
  6
CONTINUOUS
370
-3
390
F
  0
LAYER
  5
262
100
AcDbSymbolTableRecord
100
AcDbLayerTableRecord
  2
CN1-TP15_SMD-VIMAR_5000_5
 70
0
 62
7
  6
CONTINUOUS
370
-3
390
F
  0
LAYER
  5
263
100
AcDbSymbolTableRecord
100
AcDbLayerTableRecord
  2
CN1-TP15_SMD-VIMAR_5000_6
 70
0
 62
7
  6
CONTINUOUS
370
-3
390
F
  0
LAYER
  5
264
100
AcDbSymbolTableRecord
100
AcDbLayerTableRecord
  2
CN1-TP15_SMD-VIMAR_5000_7
 70
0
 62
7
  6
CONTINUOUS
370
-3
390
F
  0
LAYER
  5
265
100
AcDbSymbolTableRecord
100
AcDbLayerTableRecord
  2
CN1-TP15_SMD-VIMAR_5000_8
 70
0
 62
7
  6
CONTINUOUS
370
-3
390
F
  0
LAYER
  5
266
100
AcDbSymbolTableRecord
100
AcDbLayerTableRecord
  2
CN1-TP15_SMD-VIMAR_5000_9
 70
0
 62
7
  6
CONTINUOUS
370
-3
390
F
  0
LAYER
  5
267
100
AcDbSymbolTableRecord
100
AcDbLayerTableRecord
  2
COLOR5
 70
0
 62
7
  6
CONTINUOUS
370
-3
390
F
  0
LAYER
  5
268
100
AcDbSymbolTableRecord
100
AcDbLayerTableRecord
  2
COLOR6
 70
0
 62
7
  6
CONTINUOUS
370
-3
390
F
  0
LAYER
  5
269
100
AcDbSymbolTableRecord
100
AcDbLayerTableRecord
  2
COORDINATE
 70
0
 62
7
  6
CONTINUOUS
370
-3
390
F
  0
LAYER
  5
26A
100
AcDbSymbolTableRecord
100
AcDbLayerTableRecord
  2
COORD_ORIGINE
 70
0
 62
7
  6
CONTINUOUS
370
-3
390
F
  0
LAYER
  5
26B
100
AcDbSymbolTableRecord
100
AcDbLayerTableRecord
  2
COPY_PUBLISH
 70
0
 62
7
  6
CONTINUOUS
370
-3
390
F
  0
LAYER
  5
26C
100
AcDbSymbolTableRecord
100
AcDbLayerTableRecord
  2
COSMETIC
 70
0
 62
7
  6
CONTINUOUS
370
-3
390
F
  0
LAYER
  5
26D
100
AcDbSymbolTableRecord
100
AcDbLayerTableRecord
  2
COSMETICI
 70
0
 62
7
  6
CONTINUOUS
370
-3
390
F
  0
LAYER
  5
26E
100
AcDbSymbolTableRecord
100
AcDbLayerTableRecord
  2
CP-CE6-RF_820000
 70
0
 62
7
  6
CONTINUOUS
370
-3
390
F
  0
LAYER
  5
26F
100
AcDbSymbolTableRecord
100
AcDbLayerTableRecord
  2
CP-CE6-RF_820000_1
 70
0
 62
7
  6
CONTINUOUS
370
-3
390
F
  0
LAYER
  5
270
100
AcDbSymbolTableRecord
100
AcDbLayerTableRecord
  2
CP-CE6-RF_820000_2
 70
0
 62
7
  6
CONTINUOUS
370
-3
390
F
  0
LAYER
  5
271
100
AcDbSymbolTableRecord
100
AcDbLayerTableRecord
  2
CP-CE6-RF_820000_3
 70
0
 62
7
  6
CONTINUOUS
370
-3
390
F
  0
LAYER
  5
272
100
AcDbSymbolTableRecord
100
AcDbLayerTableRecord
  2
CP-CE6-RF_820000_4
 70
0
 62
7
  6
CONTINUOUS
370
-3
390
F
  0
LAYER
  5
273
100
AcDbSymbolTableRecord
100
AcDbLayerTableRecord
  2
CP-CE6-RF_820000_5
 70
0
 62
7
  6
CONTINUOUS
370
-3
390
F
  0
LAYER
  5
274
100
AcDbSymbolTableRecord
100
AcDbLayerTableRecord
  2
CP-DO-214AC-D-VIMAR_240000
 70
0
 62
7
  6
CONTINUOUS
370
-3
390
F
  0
LAYER
  5
275
100
AcDbSymbolTableRecord
100
AcDbLayerTableRecord
  2
CP-DO-214AC-D-VIMAR_240000_1
 70
0
 62
7
  6
CONTINUOUS
370
-3
390
F
  0
LAYER
  5
276
100
AcDbSymbolTableRecord
100
AcDbLayerTableRecord
  2
CP-DO-214AC-D-VIMAR_240000_2
 70
0
 62
7
  6
CONTINUOUS
370
-3
390
F
  0
LAYER
  5
277
100
AcDbSymbolTableRecord
100
AcDbLayerTableRecord
  2
CURVE
 70
0
 62
7
  6
CONTINUOUS
370
-3
390
F
  0
LAYER
  5
278
100
AcDbSymbolTableRecord
100
AcDbLayerTableRecord
  2
CURVE_ESTETICHE
 70
0
 62
7
  6
CONTINUOUS
370
-3
390
F
  0
LAYER
  5
279
100
AcDbSymbolTableRecord
100
AcDbLayerTableRecord
  2
DRAFT
 70
0
 62
7
  6
CONTINUOUS
370
-3
390
F
  0
LAYER
  5
27A
100
AcDbSymbolTableRecord
100
AcDbLayerTableRecord
  2
ECAD_200A_170000
 70
0
 62
7
  6
CONTINUOUS
370
-3
390
F
  0
LAYER
  5
27B
100
AcDbSymbolTableRecord
100
AcDbLayerTableRecord
  2
ECAD_201A_260000
 70
0
 62
7
  6
CONTINUOUS
370
-3
390
F
  0
LAYER
  5
27C
100
AcDbSymbolTableRecord
100
AcDbLayerTableRecord
  2
ECAD_2125-CC-RF-VIMAR_65000
 70
0
 62
7
  6
CONTINUOUS
370
-3
390
F
  0
LAYER
  5
27D
100
AcDbSymbolTableRecord
100
AcDbLayerTableRecord
  2
ECAD_2125-DL-RF-FINE_VIMAR_1100
 70
0
 62
7
  6
CONTINUOUS
370
-3
390
F
  0
LAYER
  5
27E
100
AcDbSymbolTableRecord
100
AcDbLayerTableRecord
  2
ECAD_2125-R1-RF-VIMAR_60000
 70
0
 62
7
  6
CONTINUOUS
370
-3
390
F
  0
LAYER
  5
27F
100
AcDbSymbolTableRecord
100
AcDbLayerTableRecord
  2
ECAD_3216-R1-RF-VIMAR_60000
 70
0
 62
7
  6
CONTINUOUS
370
-3
390
F
  0
LAYER
  5
280
100
AcDbSymbolTableRecord
100
AcDbLayerTableRecord
  2
ECAD_6032-CS-RF_250000
 70
0
 62
7
  6
CONTINUOUS
370
-3
390
F
  0
LAYER
  5
281
100
AcDbSymbolTableRecord
100
AcDbLayerTableRecord
  2
ECAD_ANTENNA_GSM_PCB_0
 70
0
 62
7
  6
CONTINUOUS
370
-3
390
F
  0
LAYER
  5
282
100
AcDbSymbolTableRecord
100
AcDbLayerTableRecord
  2
ECAD_ANTENNA_TDMA-870MHZ_90000
 70
0
 62
7
  6
CONTINUOUS
370
-3
390
F
  0
LAYER
  5
283
100
AcDbSymbolTableRecord
100
AcDbLayerTableRecord
  2
ECAD_CAPC1608N_80000
 70
0
 62
7
  6
CONTINUOUS
370
-3
390
F
  0
LAYER
  5
284
100
AcDbSymbolTableRecord
100
AcDbLayerTableRecord
  2
ECAD_CN-MKDSN2-VIMAR_1500000
 70
0
 62
7
  6
CONTINUOUS
370
-3
390
F
  0
LAYER
  5
285
100
AcDbSymbolTableRecord
100
AcDbLayerTableRecord
  2
ECAD_CN-MKDSN3-VIMAR_1500000
 70
0
 62
7
  6
CONTINUOUS
370
-3
390
F
  0
LAYER
  5
286
100
AcDbSymbolTableRecord
100
AcDbLayerTableRecord
  2
ECAD_CN-MSB09001-VIMAR_1000000
 70
0
 62
7
  6
CONTINUOUS
370
-3
390
F
  0
LAYER
  5
287
100
AcDbSymbolTableRecord
100
AcDbLayerTableRecord
  2
ECAD_CN-SIMCARD-LIBRO_250000
 70
0
 62
7
  6
CONTINUOUS
370
-3
390
F
  0
LAYER
  5
288
100
AcDbSymbolTableRecord
100
AcDbLayerTableRecord
  2
ECAD_CN05-HEADER_SMD-S-2_54-1_3
 70
0
 62
7
  6
CONTINUOUS
370
-3
390
F
  0
LAYER
  5
289
100
AcDbSymbolTableRecord
100
AcDbLayerTableRecord
  2
ECAD_CN1-CLIPS_BAT_AAA-3_VIMAR_
 70
0
 62
7
  6
CONTINUOUS
370
-3
390
F
  0
LAYER
  5
28A
100
AcDbSymbolTableRecord
100
AcDbLayerTableRecord
  2
ECAD_CN1-TP10_SMD-VIMAR_10000
 70
0
 62
7
  6
CONTINUOUS
370
-3
390
F
  0
LAYER
  5
28B
100
AcDbSymbolTableRecord
100
AcDbLayerTableRecord
  2
ECAD_CN1-TP15_SMD-VIMAR_5000
 70
0
 62
7
  6
CONTINUOUS
370
-3
390
F
  0
LAYER
  5
28C
100
AcDbSymbolTableRecord
100
AcDbLayerTableRecord
  2
ECAD_CN10-F-SMD2_54-1-VIMAR_737
 70
0
 62
7
  6
CONTINUOUS
370
-3
390
F
  0
LAYER
  5
28D
100
AcDbSymbolTableRecord
100
AcDbLayerTableRecord
  2
ECAD_CN16-ZEBRA-P2_00-01_0
 70
0
 62
7
  6
CONTINUOUS
370
-3
390
F
  0
LAYER
  5
28E
100
AcDbSymbolTableRecord
100
AcDbLayerTableRecord
  2
ECAD_CN32-ZEBRA-P2_00-01_0
 70
0
 62
7
  6
CONTINUOUS
370
-3
390
F
  0
LAYER
  5
28F
100
AcDbSymbolTableRecord
100
AcDbLayerTableRecord
  2
ECAD_CN5X2-HEADER-PIH-P2_54-1_9
 70
0
 62
7
  6
CONTINUOUS
370
-3
390
F
  0
LAYER
  5
290
100
AcDbSymbolTableRecord
100
AcDbLayerTableRecord
  2
ECAD_CN_STRIP_6_P2_5-EH-VIMAR_6
 70
0
 62
7
  6
CONTINUOUS
370
-3
390
F
  0
LAYER
  5
291
100
AcDbSymbolTableRecord
100
AcDbLayerTableRecord
  2
ECAD_CP-CE6-RF_820000
 70
0
 62
7
  6
CONTINUOUS
370
-3
390
F
  0
LAYER
  5
292
100
AcDbSymbolTableRecord
100
AcDbLayerTableRecord
  2
ECAD_CP-DO-214AC-D-VIMAR_240000
 70
0
 62
7
  6
CONTINUOUS
370
-3
390
F
  0
LAYER
  5
293
100
AcDbSymbolTableRecord
100
AcDbLayerTableRecord
  2
ECAD_CP-L3-RF-VIMAR_180000
 70
0
 62
7
  6
CONTINUOUS
370
-3
390
F
  0
LAYER
  5
294
100
AcDbSymbolTableRecord
100
AcDbLayerTableRecord
  2
ECAD_CP-L5-RF-VIMAR_260000
 70
0
 62
7
  6
CONTINUOUS
370
-3
390
F
  0
LAYER
  5
295
100
AcDbSymbolTableRecord
100
AcDbLayerTableRecord
  2
ECAD_DIP4-300-F-VIMAR_450000
 70
0
 62
7
  6
CONTINUOUS
370
-3
390
F
  0
LAYER
  5
296
100
AcDbSymbolTableRecord
100
AcDbLayerTableRecord
  2
ECAD_DIP6-300-F-VIMAR_500000
 70
0
 62
7
  6
CONTINUOUS
370
-3
390
F
  0
LAYER
  5
297
100
AcDbSymbolTableRecord
100
AcDbLayerTableRecord
  2
ECAD_E2_MARK_10000
 70
0
 62
7
  6
CONTINUOUS
370
-3
390
F
  0
LAYER
  5
298
100
AcDbSymbolTableRecord
100
AcDbLayerTableRecord
  2
ECAD_E4_MARK_10000
 70
0
 62
7
  6
CONTINUOUS
370
-3
390
F
  0
LAYER
  5
299
100
AcDbSymbolTableRecord
100
AcDbLayerTableRecord
  2
ECAD_GE864-RF-VIMAR_290000
 70
0
 62
7
  6
CONTINUOUS
370
-3
390
F
  0
LAYER
  5
29A
100
AcDbSymbolTableRecord
100
AcDbLayerTableRecord
  2
ECAD_INDC1608X95N_100000
 70
0
 62
7
  6
CONTINUOUS
370
-3
390
F
  0
LAYER
  5
29B
100
AcDbSymbolTableRecord
100
AcDbLayerTableRecord
  2
ECAD_INDC3216X130N_130000
 70
0
 62
7
  6
CONTINUOUS
370
-3
390
F
  0
LAYER
  5
29C
100
AcDbSymbolTableRecord
100
AcDbLayerTableRecord
  2
ECAD_LOGO_RESIST-RESTYLING_1000
 70
0
 62
7
  6
CONTINUOUS
370
-3
390
F
  0
LAYER
  5
29D
100
AcDbSymbolTableRecord
100
AcDbLayerTableRecord
  2
ECAD_LQFP64-RF-1-VIMAR_160000
 70
0
 62
7
  6
CONTINUOUS
370
-3
390
F
  0
LAYER
  5
29E
100
AcDbSymbolTableRecord
100
AcDbLayerTableRecord
  2
ECAD_L_POWER_7-3X7-3-RF-VIMAR_3
 70
0
 62
7
  6
CONTINUOUS
370
-3
390
F
  0
LAYER
  5
29F
100
AcDbSymbolTableRecord
100
AcDbLayerTableRecord
  2
ECAD_MM2-X-2-VIMAR_250000
 70
0
 62
7
  6
CONTINUOUS
370
-3
390
F
  0
LAYER
  5
2A0
100
AcDbSymbolTableRecord
100
AcDbLayerTableRecord
  2
ECAD_MM2-X-3-VIMAR_120000
 70
0
 62
7
  6
CONTINUOUS
370
-3
390
F
  0
LAYER
  5
2A1
100
AcDbSymbolTableRecord
100
AcDbLayerTableRecord
  2
ECAD_MM3-MPAK-RF-VIMAR_120000
 70
0
 62
7
  6
CONTINUOUS
370
-3
390
F
  0
LAYER
  5
2A2
100
AcDbSymbolTableRecord
100
AcDbLayerTableRecord
  2
ECAD_MM3-SOT-89-RF-VIMAR_150000
 70
0
 62
7
  6
CONTINUOUS
370
-3
390
F
  0
LAYER
  5
2A3
100
AcDbSymbolTableRecord
100
AcDbLayerTableRecord
  2
ECAD_MM4-MB-1-VIMAR_290000
 70
0
 62
7
  6
CONTINUOUS
370
-3
390
F
  0
LAYER
  5
2A4
100
AcDbSymbolTableRecord
100
AcDbLayerTableRecord
  2
ECAD_MM5-FMT-RF_120000
 70
0
 62
7
  6
CONTINUOUS
370
-3
390
F
  0
LAYER
  5
2A5
100
AcDbSymbolTableRecord
100
AcDbLayerTableRecord
  2
ECAD_MM6-SC70-1-VIMAR_110000
 70
0
 62
7
  6
CONTINUOUS
370
-3
390
F
  0
LAYER
  5
2A6
100
AcDbSymbolTableRecord
100
AcDbLayerTableRecord
  2
ECAD_NO-PB_MARK_10000
 70
0
 62
7
  6
CONTINUOUS
370
-3
390
F
  0
LAYER
  5
2A7
100
AcDbSymbolTableRecord
100
AcDbLayerTableRecord
  2
ECAD_PSD25-VIMAR_0
 70
0
 62
7
  6
CONTINUOUS
370
-3
390
F
  0
LAYER
  5
2A8
100
AcDbSymbolTableRecord
100
AcDbLayerTableRecord
  2
ECAD_PTC-9X7_5X5_0-VIMAR_750000
 70
0
 62
7
  6
CONTINUOUS
370
-3
390
F
  0
LAYER
  5
2A9
100
AcDbSymbolTableRecord
100
AcDbLayerTableRecord
  2
ECAD_QFN14-RF-1-VIMAR_75000
 70
0
 62
7
  6
CONTINUOUS
370
-3
390
F
  0
LAYER
  5
2AA
100
AcDbSymbolTableRecord
100
AcDbLayerTableRecord
  2
ECAD_QFP100-F4-RF-VIMAR_160000
 70
0
 62
7
  6
CONTINUOUS
370
-3
390
F
  0
LAYER
  5
2AB
100
AcDbSymbolTableRecord
100
AcDbLayerTableRecord
  2
ECAD_RD-C100-5-VIMAR_1250000
 70
0
 62
7
  6
CONTINUOUS
370
-3
390
F
  0
LAYER
  5
2AC
100
AcDbSymbolTableRecord
100
AcDbLayerTableRecord
  2
ECAD_RD-C100-8-VIMAR_1200000
 70
0
 62
7
  6
CONTINUOUS
370
-3
390
F
  0
LAYER
  5
2AD
100
AcDbSymbolTableRecord
100
AcDbLayerTableRecord
  2
ECAD_RD-C25-NTC-1-VIMAR_1800000
 70
0
 62
7
  6
CONTINUOUS
370
-3
390
F
  0
LAYER
  5
2AE
100
AcDbSymbolTableRecord
100
AcDbLayerTableRecord
  2
ECAD_RD-C50-12-VIMAR_750000
 70
0
 62
7
  6
CONTINUOUS
370
-3
390
F
  0
LAYER
  5
2AF
100
AcDbSymbolTableRecord
100
AcDbLayerTableRecord
  2
ECAD_RD-CE50-6_2-VIMAR_1000000
 70
0
 62
7
  6
CONTINUOUS
370
-3
390
F
  0
LAYER
  5
2B0
100
AcDbSymbolTableRecord
100
AcDbLayerTableRecord
  2
ECAD_RD-CE50_8-1-VIMAR_700000
 70
0
 62
7
  6
CONTINUOUS
370
-3
390
F
  0
LAYER
  5
2B1
100
AcDbSymbolTableRecord
100
AcDbLayerTableRecord
  2
ECAD_RD-L50-4-VIMAR_950000
 70
0
 62
7
  6
CONTINUOUS
370
-3
390
F
  0
LAYER
  5
2B2
100
AcDbSymbolTableRecord
100
AcDbLayerTableRecord
  2
ECAD_RD-R50-1-VIMAR_1_1200000
 70
0
 62
7
  6
CONTINUOUS
370
-3
390
F
  0
LAYER
  5
2B3
100
AcDbSymbolTableRecord
100
AcDbLayerTableRecord
  2
ECAD_RD-ZNR50-1-VIMAR_1150000
 70
0
 62
7
  6
CONTINUOUS
370
-3
390
F
  0
LAYER
  5
2B4
100
AcDbSymbolTableRecord
100
AcDbLayerTableRecord
  2
ECAD_RD-ZNR75-1-VIMAR_0
 70
0
 62
7
  6
CONTINUOUS
370
-3
390
F
  0
LAYER
  5
2B5
100
AcDbSymbolTableRecord
100
AcDbLayerTableRecord
  2
ECAD_RESC1608N_45000
 70
0
 62
7
  6
CONTINUOUS
370
-3
390
F
  0
LAYER
  5
2B6
100
AcDbSymbolTableRecord
100
AcDbLayerTableRecord
  2
ECAD_RUBBERPAD-R-07X22_0
 70
0
 62
7
  6
CONTINUOUS
370
-3
390
F
  0
LAYER
  5
2B7
100
AcDbSymbolTableRecord
100
AcDbLayerTableRecord
  2
ECAD_RY-S13-1-VIMAR_1230000
 70
0
 62
7
  6
CONTINUOUS
370
-3
390
F
  0
LAYER
  5
2B8
100
AcDbSymbolTableRecord
100
AcDbLayerTableRecord
  2
ECAD_SMD8-VIMAR_343000
 70
0
 62
7
  6
CONTINUOUS
370
-3
390
F
  0
LAYER
  5
2B9
100
AcDbSymbolTableRecord
100
AcDbLayerTableRecord
  2
ECAD_SOP4-T1-RF-VIMAR_350000
 70
0
 62
7
  6
CONTINUOUS
370
-3
390
F
  0
LAYER
  5
2BA
100
AcDbSymbolTableRecord
100
AcDbLayerTableRecord
  2
ECAD_SOP8-T1-RF-FINE-VIMAR_1500
 70
0
 62
7
  6
CONTINUOUS
370
-3
390
F
  0
LAYER
  5
2BB
100
AcDbSymbolTableRecord
100
AcDbLayerTableRecord
  2
ECAD_SW_CARBON-SWITCH_VIMAR_100
 70
0
 62
7
  6
CONTINUOUS
370
-3
390
F
  0
LAYER
  5
2BC
100
AcDbSymbolTableRecord
100
AcDbLayerTableRecord
  2
ECAD_TP10_SMD_0
 70
0
 62
7
  6
CONTINUOUS
370
-3
390
F
  0
LAYER
  5
2BD
100
AcDbSymbolTableRecord
100
AcDbLayerTableRecord
  2
ECAD_TR-E13-SMPS-2-VIMAR_115000
 70
0
 62
7
  6
CONTINUOUS
370
-3
390
F
  0
LAYER
  5
2BE
100
AcDbSymbolTableRecord
100
AcDbLayerTableRecord
  2
ECAD_TSSOP14-RF-VIMAR_110000
 70
0
 62
7
  6
CONTINUOUS
370
-3
390
F
  0
LAYER
  5
2BF
100
AcDbSymbolTableRecord
100
AcDbLayerTableRecord
  2
IMPORT
 70
0
 62
7
  6
CONTINUOUS
370
-3
390
F
  0
LAYER
  5
2C0
100
AcDbSymbolTableRecord
100
AcDbLayerTableRecord
  2
IMPORT_IGES
 70
0
 62
7
  6
CONTINUOUS
370
-3
390
F
  0
LAYER
  5
2C1
100
AcDbSymbolTableRecord
100
AcDbLayerTableRecord
  2
IMPOTR
 70
0
 62
7
  6
CONTINUOUS
370
-3
390
F
  0
LAYER
  5
2C2
100
AcDbSymbolTableRecord
100
AcDbLayerTableRecord
  2
INTF_10
 70
0
 62
7
  6
CONTINUOUS
370
-3
390
F
  0
LAYER
  5
2C3
100
AcDbSymbolTableRecord
100
AcDbLayerTableRecord
  2
INTF_11
 70
0
 62
7
  6
CONTINUOUS
370
-3
390
F
  0
LAYER
  5
2C4
100
AcDbSymbolTableRecord
100
AcDbLayerTableRecord
  2
INTF_9
 70
0
 62
7
  6
CONTINUOUS
370
-3
390
F
  0
LAYER
  5
2C5
100
AcDbSymbolTableRecord
100
AcDbLayerTableRecord
  2
INTF_BLANK
 70
0
 62
7
  6
CONTINUOUS
370
-3
390
F
  0
LAYER
  5
2C6
100
AcDbSymbolTableRecord
100
AcDbLayerTableRecord
  2
INTF_RED
 70
0
 62
7
  6
CONTINUOUS
370
-3
390
F
  0
LAYER
  5
2C7
100
AcDbSymbolTableRecord
100
AcDbLayerTableRecord
  2
LOGO_RESIST-RESTYLING_10000
 70
0
 62
7
  6
CONTINUOUS
370
-3
390
F
  0
LAYER
  5
2C8
100
AcDbSymbolTableRecord
100
AcDbLayerTableRecord
  2
LOGO_RESIST-RESTYLING_10000_1
 70
0
 62
7
  6
CONTINUOUS
370
-3
390
F
  0
LAYER
  5
2C9
100
AcDbSymbolTableRecord
100
AcDbLayerTableRecord
  2
MM3-MPAK-RF-VIMAR_120000
 70
0
 62
7
  6
CONTINUOUS
370
-3
390
F
  0
LAYER
  5
2CA
100
AcDbSymbolTableRecord
100
AcDbLayerTableRecord
  2
MM3-MPAK-RF-VIMAR_120000_1
 70
0
 62
7
  6
CONTINUOUS
370
-3
390
F
  0
LAYER
  5
2CB
100
AcDbSymbolTableRecord
100
AcDbLayerTableRecord
  2
MM3-MPAK-RF-VIMAR_120000_10
 70
0
 62
7
  6
CONTINUOUS
370
-3
390
F
  0
LAYER
  5
2CC
100
AcDbSymbolTableRecord
100
AcDbLayerTableRecord
  2
MM3-MPAK-RF-VIMAR_120000_11
 70
0
 62
7
  6
CONTINUOUS
370
-3
390
F
  0
LAYER
  5
2CD
100
AcDbSymbolTableRecord
100
AcDbLayerTableRecord
  2
MM3-MPAK-RF-VIMAR_120000_12
 70
0
 62
7
  6
CONTINUOUS
370
-3
390
F
  0
LAYER
  5
2CE
100
AcDbSymbolTableRecord
100
AcDbLayerTableRecord
  2
MM3-MPAK-RF-VIMAR_120000_2
 70
0
 62
7
  6
CONTINUOUS
370
-3
390
F
  0
LAYER
  5
2CF
100
AcDbSymbolTableRecord
100
AcDbLayerTableRecord
  2
MM3-MPAK-RF-VIMAR_120000_3
 70
0
 62
7
  6
CONTINUOUS
370
-3
390
F
  0
LAYER
  5
2D0
100
AcDbSymbolTableRecord
100
AcDbLayerTableRecord
  2
MM3-MPAK-RF-VIMAR_120000_4
 70
0
 62
7
  6
CONTINUOUS
370
-3
390
F
  0
LAYER
  5
2D1
100
AcDbSymbolTableRecord
100
AcDbLayerTableRecord
  2
MM3-MPAK-RF-VIMAR_120000_5
 70
0
 62
7
  6
CONTINUOUS
370
-3
390
F
  0
LAYER
  5
2D2
100
AcDbSymbolTableRecord
100
AcDbLayerTableRecord
  2
MM3-MPAK-RF-VIMAR_120000_6
 70
0
 62
7
  6
CONTINUOUS
370
-3
390
F
  0
LAYER
  5
2D3
100
AcDbSymbolTableRecord
100
AcDbLayerTableRecord
  2
MM3-MPAK-RF-VIMAR_120000_7
 70
0
 62
7
  6
CONTINUOUS
370
-3
390
F
  0
LAYER
  5
2D4
100
AcDbSymbolTableRecord
100
AcDbLayerTableRecord
  2
MM3-MPAK-RF-VIMAR_120000_8
 70
0
 62
7
  6
CONTINUOUS
370
-3
390
F
  0
LAYER
  5
2D5
100
AcDbSymbolTableRecord
100
AcDbLayerTableRecord
  2
MM3-MPAK-RF-VIMAR_120000_9
 70
0
 62
7
  6
CONTINUOUS
370
-3
390
F
  0
LAYER
  5
2D6
100
AcDbSymbolTableRecord
100
AcDbLayerTableRecord
  2
MM5-FMT-RF_120000
 70
0
 62
7
  6
CONTINUOUS
370
-3
390
F
  0
LAYER
  5
2D7
100
AcDbSymbolTableRecord
100
AcDbLayerTableRecord
  2
MM5-FMT-RF_120000_1
 70
0
 62
7
  6
CONTINUOUS
370
-3
390
F
  0
LAYER
  5
2D8
100
AcDbSymbolTableRecord
100
AcDbLayerTableRecord
  2
NOTE
 70
0
 62
7
  6
CONTINUOUS
370
-3
390
F
  0
LAYER
  5
2D9
100
AcDbSymbolTableRecord
100
AcDbLayerTableRecord
  2
PCB0_01
 70
0
 62
7
  6
CONTINUOUS
370
-3
390
F
  0
LAYER
  5
2DA
100
AcDbSymbolTableRecord
100
AcDbLayerTableRecord
  2
PCB1_02
 70
0
 62
7
  6
CONTINUOUS
370
-3
390
F
  0
LAYER
  5
2DB
100
AcDbSymbolTableRecord
100
AcDbLayerTableRecord
  2
PCB43000206A0
 70
0
 62
7
  6
CONTINUOUS
370
-3
390
F
  0
LAYER
  5
2DC
100
AcDbSymbolTableRecord
100
AcDbLayerTableRecord
  2
PIANI
 70
0
 62
7
  6
CONTINUOUS
370
-3
390
F
  0
LAYER
  5
2DD
100
AcDbSymbolTableRecord
100
AcDbLayerTableRecord
  2
PIANI_DI_RIFERIMENTO
 70
0
 62
7
  6
CONTINUOUS
370
-3
390
F
  0
LAYER
  5
2DE
100
AcDbSymbolTableRecord
100
AcDbLayerTableRecord
  2
PIANI_ORIGINE
 70
0
 62
7
  6
CONTINUOUS
370
-3
390
F
  0
LAYER
  5
2DF
100
AcDbSymbolTableRecord
100
AcDbLayerTableRecord
  2
PUNTI
 70
0
 62
7
  6
CONTINUOUS
370
-3
390
F
  0
LAYER
  5
2E0
100
AcDbSymbolTableRecord
100
AcDbLayerTableRecord
  2
RACCORDO
 70
0
 62
7
  6
CONTINUOUS
370
-3
390
F
  0
LAYER
  5
2E1
100
AcDbSymbolTableRecord
100
AcDbLayerTableRecord
  2
RD-CE50-6_2-VIMAR_1000000
 70
0
 62
7
  6
CONTINUOUS
370
-3
390
F
  0
LAYER
  5
2E2
100
AcDbSymbolTableRecord
100
AcDbLayerTableRecord
  2
RD-CE50-6_2-VIMAR_1000000_1
 70
0
 62
7
  6
CONTINUOUS
370
-3
390
F
  0
LAYER
  5
2E3
100
AcDbSymbolTableRecord
100
AcDbLayerTableRecord
  2
RD-R50-1-VIMAR_1_1200000
 70
0
 62
7
  6
CONTINUOUS
370
-3
390
F
  0
LAYER
  5
2E4
100
AcDbSymbolTableRecord
100
AcDbLayerTableRecord
  2
RD-R50-1-VIMAR_1_1200000_1
 70
0
 62
7
  6
CONTINUOUS
370
-3
390
F
  0
LAYER
  5
2E5
100
AcDbSymbolTableRecord
100
AcDbLayerTableRecord
  2
RESC1608N_45000
 70
0
 62
7
  6
CONTINUOUS
370
-3
390
F
  0
LAYER
  5
2E6
100
AcDbSymbolTableRecord
100
AcDbLayerTableRecord
  2
RESC1608N_45000_1
 70
0
 62
7
  6
CONTINUOUS
370
-3
390
F
  0
LAYER
  5
2E7
100
AcDbSymbolTableRecord
100
AcDbLayerTableRecord
  2
RESC1608N_45000_10
 70
0
 62
7
  6
CONTINUOUS
370
-3
390
F
  0
LAYER
  5
2E8
100
AcDbSymbolTableRecord
100
AcDbLayerTableRecord
  2
RESC1608N_45000_11
 70
0
 62
7
  6
CONTINUOUS
370
-3
390
F
  0
LAYER
  5
2E9
100
AcDbSymbolTableRecord
100
AcDbLayerTableRecord
  2
RESC1608N_45000_12
 70
0
 62
7
  6
CONTINUOUS
370
-3
390
F
  0
LAYER
  5
2EA
100
AcDbSymbolTableRecord
100
AcDbLayerTableRecord
  2
RESC1608N_45000_13
 70
0
 62
7
  6
CONTINUOUS
370
-3
390
F
  0
LAYER
  5
2EB
100
AcDbSymbolTableRecord
100
AcDbLayerTableRecord
  2
RESC1608N_45000_14
 70
0
 62
7
  6
CONTINUOUS
370
-3
390
F
  0
LAYER
  5
2EC
100
AcDbSymbolTableRecord
100
AcDbLayerTableRecord
  2
RESC1608N_45000_15
 70
0
 62
7
  6
CONTINUOUS
370
-3
390
F
  0
LAYER
  5
2ED
100
AcDbSymbolTableRecord
100
AcDbLayerTableRecord
  2
RESC1608N_45000_16
 70
0
 62
7
  6
CONTINUOUS
370
-3
390
F
  0
LAYER
  5
2EE
100
AcDbSymbolTableRecord
100
AcDbLayerTableRecord
  2
RESC1608N_45000_17
 70
0
 62
7
  6
CONTINUOUS
370
-3
390
F
  0
LAYER
  5
2EF
100
AcDbSymbolTableRecord
100
AcDbLayerTableRecord
  2
RESC1608N_45000_18
 70
0
 62
7
  6
CONTINUOUS
370
-3
390
F
  0
LAYER
  5
2F0
100
AcDbSymbolTableRecord
100
AcDbLayerTableRecord
  2
RESC1608N_45000_19
 70
0
 62
7
  6
CONTINUOUS
370
-3
390
F
  0
LAYER
  5
2F1
100
AcDbSymbolTableRecord
100
AcDbLayerTableRecord
  2
RESC1608N_45000_2
 70
0
 62
7
  6
CONTINUOUS
370
-3
390
F
  0
LAYER
  5
2F2
100
AcDbSymbolTableRecord
100
AcDbLayerTableRecord
  2
RESC1608N_45000_20
 70
0
 62
7
  6
CONTINUOUS
370
-3
390
F
  0
LAYER
  5
2F3
100
AcDbSymbolTableRecord
100
AcDbLayerTableRecord
  2
RESC1608N_45000_21
 70
0
 62
7
  6
CONTINUOUS
370
-3
390
F
  0
LAYER
  5
2F4
100
AcDbSymbolTableRecord
100
AcDbLayerTableRecord
  2
RESC1608N_45000_22
 70
0
 62
7
  6
CONTINUOUS
370
-3
390
F
  0
LAYER
  5
2F5
100
AcDbSymbolTableRecord
100
AcDbLayerTableRecord
  2
RESC1608N_45000_23
 70
0
 62
7
  6
CONTINUOUS
370
-3
390
F
  0
LAYER
  5
2F6
100
AcDbSymbolTableRecord
100
AcDbLayerTableRecord
  2
RESC1608N_45000_24
 70
0
 62
7
  6
CONTINUOUS
370
-3
390
F
  0
LAYER
  5
2F7
100
AcDbSymbolTableRecord
100
AcDbLayerTableRecord
  2
RESC1608N_45000_25
 70
0
 62
7
  6
CONTINUOUS
370
-3
390
F
  0
LAYER
  5
2F8
100
AcDbSymbolTableRecord
100
AcDbLayerTableRecord
  2
RESC1608N_45000_26
 70
0
 62
7
  6
CONTINUOUS
370
-3
390
F
  0
LAYER
  5
2F9
100
AcDbSymbolTableRecord
100
AcDbLayerTableRecord
  2
RESC1608N_45000_27
 70
0
 62
7
  6
CONTINUOUS
370
-3
390
F
  0
LAYER
  5
2FA
100
AcDbSymbolTableRecord
100
AcDbLayerTableRecord
  2
RESC1608N_45000_28
 70
0
 62
7
  6
CONTINUOUS
370
-3
390
F
  0
LAYER
  5
2FB
100
AcDbSymbolTableRecord
100
AcDbLayerTableRecord
  2
RESC1608N_45000_29
 70
0
 62
7
  6
CONTINUOUS
370
-3
390
F
  0
LAYER
  5
2FC
100
AcDbSymbolTableRecord
100
AcDbLayerTableRecord
  2
RESC1608N_45000_3
 70
0
 62
7
  6
CONTINUOUS
370
-3
390
F
  0
LAYER
  5
2FD
100
AcDbSymbolTableRecord
100
AcDbLayerTableRecord
  2
RESC1608N_45000_30
 70
0
 62
7
  6
CONTINUOUS
370
-3
390
F
  0
LAYER
  5
2FE
100
AcDbSymbolTableRecord
100
AcDbLayerTableRecord
  2
RESC1608N_45000_31
 70
0
 62
7
  6
CONTINUOUS
370
-3
390
F
  0
LAYER
  5
2FF
100
AcDbSymbolTableRecord
100
AcDbLayerTableRecord
  2
RESC1608N_45000_32
 70
0
 62
7
  6
CONTINUOUS
370
-3
390
F
  0
LAYER
  5
300
100
AcDbSymbolTableRecord
100
AcDbLayerTableRecord
  2
RESC1608N_45000_33
 70
0
 62
7
  6
CONTINUOUS
370
-3
390
F
  0
LAYER
  5
301
100
AcDbSymbolTableRecord
100
AcDbLayerTableRecord
  2
RESC1608N_45000_34
 70
0
 62
7
  6
CONTINUOUS
370
-3
390
F
  0
LAYER
  5
302
100
AcDbSymbolTableRecord
100
AcDbLayerTableRecord
  2
RESC1608N_45000_35
 70
0
 62
7
  6
CONTINUOUS
370
-3
390
F
  0
LAYER
  5
303
100
AcDbSymbolTableRecord
100
AcDbLayerTableRecord
  2
RESC1608N_45000_36
 70
0
 62
7
  6
CONTINUOUS
370
-3
390
F
  0
LAYER
  5
304
100
AcDbSymbolTableRecord
100
AcDbLayerTableRecord
  2
RESC1608N_45000_37
 70
0
 62
7
  6
CONTINUOUS
370
-3
390
F
  0
LAYER
  5
305
100
AcDbSymbolTableRecord
100
AcDbLayerTableRecord
  2
RESC1608N_45000_38
 70
0
 62
7
  6
CONTINUOUS
370
-3
390
F
  0
LAYER
  5
306
100
AcDbSymbolTableRecord
100
AcDbLayerTableRecord
  2
RESC1608N_45000_39
 70
0
 62
7
  6
CONTINUOUS
370
-3
390
F
  0
LAYER
  5
307
100
AcDbSymbolTableRecord
100
AcDbLayerTableRecord
  2
RESC1608N_45000_4
 70
0
 62
7
  6
CONTINUOUS
370
-3
390
F
  0
LAYER
  5
308
100
AcDbSymbolTableRecord
100
AcDbLayerTableRecord
  2
RESC1608N_45000_40
 70
0
 62
7
  6
CONTINUOUS
370
-3
390
F
  0
LAYER
  5
309
100
AcDbSymbolTableRecord
100
AcDbLayerTableRecord
  2
RESC1608N_45000_41
 70
0
 62
7
  6
CONTINUOUS
370
-3
390
F
  0
LAYER
  5
30A
100
AcDbSymbolTableRecord
100
AcDbLayerTableRecord
  2
RESC1608N_45000_42
 70
0
 62
7
  6
CONTINUOUS
370
-3
390
F
  0
LAYER
  5
30B
100
AcDbSymbolTableRecord
100
AcDbLayerTableRecord
  2
RESC1608N_45000_43
 70
0
 62
7
  6
CONTINUOUS
370
-3
390
F
  0
LAYER
  5
30C
100
AcDbSymbolTableRecord
100
AcDbLayerTableRecord
  2
RESC1608N_45000_44
 70
0
 62
7
  6
CONTINUOUS
370
-3
390
F
  0
LAYER
  5
30D
100
AcDbSymbolTableRecord
100
AcDbLayerTableRecord
  2
RESC1608N_45000_45
 70
0
 62
7
  6
CONTINUOUS
370
-3
390
F
  0
LAYER
  5
30E
100
AcDbSymbolTableRecord
100
AcDbLayerTableRecord
  2
RESC1608N_45000_46
 70
0
 62
7
  6
CONTINUOUS
370
-3
390
F
  0
LAYER
  5
30F
100
AcDbSymbolTableRecord
100
AcDbLayerTableRecord
  2
RESC1608N_45000_47
 70
0
 62
7
  6
CONTINUOUS
370
-3
390
F
  0
LAYER
  5
310
100
AcDbSymbolTableRecord
100
AcDbLayerTableRecord
  2
RESC1608N_45000_48
 70
0
 62
7
  6
CONTINUOUS
370
-3
390
F
  0
LAYER
  5
311
100
AcDbSymbolTableRecord
100
AcDbLayerTableRecord
  2
RESC1608N_45000_49
 70
0
 62
7
  6
CONTINUOUS
370
-3
390
F
  0
LAYER
  5
312
100
AcDbSymbolTableRecord
100
AcDbLayerTableRecord
  2
RESC1608N_45000_5
 70
0
 62
7
  6
CONTINUOUS
370
-3
390
F
  0
LAYER
  5
313
100
AcDbSymbolTableRecord
100
AcDbLayerTableRecord
  2
RESC1608N_45000_50
 70
0
 62
7
  6
CONTINUOUS
370
-3
390
F
  0
LAYER
  5
314
100
AcDbSymbolTableRecord
100
AcDbLayerTableRecord
  2
RESC1608N_45000_51
 70
0
 62
7
  6
CONTINUOUS
370
-3
390
F
  0
LAYER
  5
315
100
AcDbSymbolTableRecord
100
AcDbLayerTableRecord
  2
RESC1608N_45000_52
 70
0
 62
7
  6
CONTINUOUS
370
-3
390
F
  0
LAYER
  5
316
100
AcDbSymbolTableRecord
100
AcDbLayerTableRecord
  2
RESC1608N_45000_53
 70
0
 62
7
  6
CONTINUOUS
370
-3
390
F
  0
LAYER
  5
317
100
AcDbSymbolTableRecord
100
AcDbLayerTableRecord
  2
RESC1608N_45000_54
 70
0
 62
7
  6
CONTINUOUS
370
-3
390
F
  0
LAYER
  5
318
100
AcDbSymbolTableRecord
100
AcDbLayerTableRecord
  2
RESC1608N_45000_55
 70
0
 62
7
  6
CONTINUOUS
370
-3
390
F
  0
LAYER
  5
319
100
AcDbSymbolTableRecord
100
AcDbLayerTableRecord
  2
RESC1608N_45000_6
 70
0
 62
7
  6
CONTINUOUS
370
-3
390
F
  0
LAYER
  5
31A
100
AcDbSymbolTableRecord
100
AcDbLayerTableRecord
  2
RESC1608N_45000_7
 70
0
 62
7
  6
CONTINUOUS
370
-3
390
F
  0
LAYER
  5
31B
100
AcDbSymbolTableRecord
100
AcDbLayerTableRecord
  2
RESC1608N_45000_8
 70
0
 62
7
  6
CONTINUOUS
370
-3
390
F
  0
LAYER
  5
31C
100
AcDbSymbolTableRecord
100
AcDbLayerTableRecord
  2
RESC1608N_45000_9
 70
0
 62
7
  6
CONTINUOUS
370
-3
390
F
  0
LAYER
  5
31D
100
AcDbSymbolTableRecord
100
AcDbLayerTableRecord
  2
SMUSSO
 70
0
 62
7
  6
CONTINUOUS
370
-3
390
F
  0
LAYER
  5
31E
100
AcDbSymbolTableRecord
100
AcDbLayerTableRecord
  2
SNAPLINE
 70
0
 62
7
  6
CONTINUOUS
370
-3
390
F
  0
LAYER
  5
31F
100
AcDbSymbolTableRecord
100
AcDbLayerTableRecord
  2
SOP8-T1-RF-FINE-VIMAR_150000
 70
0
 62
7
  6
CONTINUOUS
370
-3
390
F
  0
LAYER
  5
320
100
AcDbSymbolTableRecord
100
AcDbLayerTableRecord
  2
SOP8-T1-RF-FINE-VIMAR_150000_1
 70
0
 62
7
  6
CONTINUOUS
370
-3
390
F
  0
LAYER
  5
321
100
AcDbSymbolTableRecord
100
AcDbLayerTableRecord
  2
SOP8-T1-RF-FINE-VIMAR_150000_2
 70
0
 62
7
  6
CONTINUOUS
370
-3
390
F
  0
LAYER
  5
322
100
AcDbSymbolTableRecord
100
AcDbLayerTableRecord
  2
SUPERFICI
 70
0
 62
7
  6
CONTINUOUS
370
-3
390
F
  0
LAYER
  5
323
100
AcDbSymbolTableRecord
100
AcDbLayerTableRecord
  2
SW_CARBON-SWITCH_VIMAR_10000
 70
0
 62
7
  6
CONTINUOUS
370
-3
390
F
  0
LAYER
  5
324
100
AcDbSymbolTableRecord
100
AcDbLayerTableRecord
  2
SW_CARBON-SWITCH_VIMAR_10000_1
 70
0
 62
7
  6
CONTINUOUS
370
-3
390
F
  0
LAYER
  5
325
100
AcDbSymbolTableRecord
100
AcDbLayerTableRecord
  2
SW_CARBON-SWITCH_VIMAR_10000_10
 70
0
 62
7
  6
CONTINUOUS
370
-3
390
F
  0
LAYER
  5
326
100
AcDbSymbolTableRecord
100
AcDbLayerTableRecord
  2
SW_CARBON-SWITCH_VIMAR_10000_11
 70
0
 62
7
  6
CONTINUOUS
370
-3
390
F
  0
LAYER
  5
327
100
AcDbSymbolTableRecord
100
AcDbLayerTableRecord
  2
SW_CARBON-SWITCH_VIMAR_10000_12
 70
0
 62
7
  6
CONTINUOUS
370
-3
390
F
  0
LAYER
  5
328
100
AcDbSymbolTableRecord
100
AcDbLayerTableRecord
  2
SW_CARBON-SWITCH_VIMAR_10000_13
 70
0
 62
7
  6
CONTINUOUS
370
-3
390
F
  0
LAYER
  5
329
100
AcDbSymbolTableRecord
100
AcDbLayerTableRecord
  2
SW_CARBON-SWITCH_VIMAR_10000_2
 70
0
 62
7
  6
CONTINUOUS
370
-3
390
F
  0
LAYER
  5
32A
100
AcDbSymbolTableRecord
100
AcDbLayerTableRecord
  2
SW_CARBON-SWITCH_VIMAR_10000_3
 70
0
 62
7
  6
CONTINUOUS
370
-3
390
F
  0
LAYER
  5
32B
100
AcDbSymbolTableRecord
100
AcDbLayerTableRecord
  2
SW_CARBON-SWITCH_VIMAR_10000_4
 70
0
 62
7
  6
CONTINUOUS
370
-3
390
F
  0
LAYER
  5
32C
100
AcDbSymbolTableRecord
100
AcDbLayerTableRecord
  2
SW_CARBON-SWITCH_VIMAR_10000_5
 70
0
 62
7
  6
CONTINUOUS
370
-3
390
F
  0
LAYER
  5
32D
100
AcDbSymbolTableRecord
100
AcDbLayerTableRecord
  2
SW_CARBON-SWITCH_VIMAR_10000_6
 70
0
 62
7
  6
CONTINUOUS
370
-3
390
F
  0
LAYER
  5
32E
100
AcDbSymbolTableRecord
100
AcDbLayerTableRecord
  2
SW_CARBON-SWITCH_VIMAR_10000_7
 70
0
 62
7
  6
CONTINUOUS
370
-3
390
F
  0
LAYER
  5
32F
100
AcDbSymbolTableRecord
100
AcDbLayerTableRecord
  2
SW_CARBON-SWITCH_VIMAR_10000_8
 70
0
 62
7
  6
CONTINUOUS
370
-3
390
F
  0
LAYER
  5
330
100
AcDbSymbolTableRecord
100
AcDbLayerTableRecord
  2
SW_CARBON-SWITCH_VIMAR_10000_9
 70
0
 62
7
  6
CONTINUOUS
370
-3
390
F
  0
LAYER
  5
331
100
AcDbSymbolTableRecord
100
AcDbLayerTableRecord
  2
TRASH
 70
0
 62
7
  6
CONTINUOUS
370
-3
390
F
  0
LAYER
  5
332
100
AcDbSymbolTableRecord
100
AcDbLayerTableRecord
  2
XSEC_DATUMS
 70
0
 62
7
  6
CONTINUOUS
370
-3
390
F
  0
LAYER
  5
333
100
AcDbSymbolTableRecord
100
AcDbLayerTableRecord
  2
___SHELL
 70
0
 62
7
  6
CONTINUOUS
370
-3
390
F
  0
ENDTAB
  0
TABLE
  2
STYLE
  5
3
100
AcDbSymbolTable
 70
1
  0
STYLE
  5
11
100
AcDbSymbolTableRecord
100
AcDbTextStyleTableRecord
  2
STANDARD
 70
0
 40
0.0
 41
0.8
 50
0.0
 71
0
 42
0.2
  3
txt
  4

  0
STYLE
  5
334
100
AcDbSymbolTableRecord
100
AcDbTextStyleTableRecord
  2
TEXTSTYLE_1
 70
0
 40
0.0
 41
0.8
 50
0.0
 71
0
 42
0.2
  3
gdt
  4

  0
ENDTAB
  0
TABLE
  2
VIEW
  5
6
100
AcDbSymbolTable
 70
0
  0
ENDTAB
  0
TABLE
  2
UCS
  5
7
100
AcDbSymbolTable
 70
0
  0
ENDTAB
  0
TABLE
  2
APPID
  5
9
100
AcDbSymbolTable
 70
1
  0
APPID
  5
335
100
AcDbSymbolTableRecord
100
AcDbRegAppTableRecord
  2
ACAD
 70
0
  0
ENDTAB
  0
TABLE
  2
BLOCK_RECORD
  5
1
100
AcDbSymbolTable
 70
0
  0
BLOCK_RECORD
  5
336
100
AcDbSymbolTableRecord
100
AcDbBlockTableRecord
  2
*Model_Space
  0
BLOCK_RECORD
  5
337
100
AcDbSymbolTableRecord
100
AcDbBlockTableRecord
  2
*Paper_Space
  0
ENDTAB
  0
TABLE
  2
DIMSTYLE
  5
A
100
AcDbSymbolTable
 70
1
100
AcDbDimStyleTable
 71
0
  0
DIMSTYLE
105
338
100
AcDbSymbolTableRecord
100
AcDbDimStyleTableRecord
  2
STANDARD
 70
0
  3

  4

 40
1.0
 41
3.0
 42
0.0625
 43
0.38
 44
0.18
 45
0.0
 46
0.0
 47
0.01
 48
0.01
140
3.0
141
0.09
142
0.0
143
25.4
144
1.0
145
0.0
146
1.0
147
0.09
 71
1.0
 72
0.0
 73
0
 74
0
 75
0
 76
0
 77
1
 78
8
170
0
171
2
172
0
173
0
174
0
175
0
176
0
177
0
178
0
270
2
271
2
272
2
273
2
274
2
275
0
280
0
281
0
282
0
283
1
284
8
285
0
286
0
287
3
288
0
340
11
  0
ENDTAB
  0
ENDSEC
  0
SECTION
  2
BLOCKS
  0
BLOCK
  5
20
100
AcDbEntity
  8
0
100
AcDbBlockBegin
  2
*Model_Space
 70
0
 10
0.0
 20
0.0
 30
0.0
  3
*Model_Space
  1

  0
ENDBLK
  5
21
100
AcDbEntity
  8
0
100
AcDbBlockEnd
  0
BLOCK
  5
1C
100
AcDbEntity
  8
0
100
AcDbBlockBegin
  2
*Paper_Space
 70
0
 10
0.0
 20
0.0
 30
0.0
  3
*Paper_Space
  1

  0
ENDBLK
  5
1D
100
AcDbEntity
  8
0
100
AcDbBlockEnd
  0
ENDSEC
  0
SECTION
  2
ENTITIES
  0
LINE
  5
339
100
AcDbEntity
  8
ASSI
100
AcDbLine
 62
7
  6
CONTINUOUS
 10
-63.5424336995
 20
-41.1622195039
 11
-63.5424336995
 21
44.840217188
  0
LINE
  5
33A
100
AcDbEntity
  8
RACCORDO
100
AcDbLine
 62
7
  6
CONTINUOUS
 10
-63.5424336995
 20
-41.1622195039
 11
-63.5424336995
 21
44.840217188
  0
LINE
  5
33B
100
AcDbEntity
  8
DRAFT
100
AcDbLine
 62
7
  6
CONTINUOUS
 10
-63.5293424008
 20
-7.4450524773
 11
-63.5293424008
 21
-17.8769498386
  0
LINE
  5
33C
100
AcDbEntity
  8
RACCORDO
100
AcDbLine
 62
7
  6
CONTINUOUS
 10
-63.5293424008
 20
-41.6481383165
 11
-63.5293424008
 21
-17.8769498386
  0
LINE
  5
33D
100
AcDbEntity
  8
RACCORDO
100
AcDbLine
 62
7
  6
CONTINUOUS
 10
-63.5293424008
 20
-7.4450524773
 11
-63.5293424008
 21
45.3261360006
  0
LINE
  5
33E
100
AcDbEntity
  8
RACCORDO
100
AcDbLine
 62
253
  6
CONTINUOUS
 10
-63.3765341832
 20
45.173327783
 11
-63.3765341832
 21
-41.4953300989
  0
LINE
  5
33F
100
AcDbEntity
  8
RACCORDO
100
AcDbLine
 62
253
  6
CONTINUOUS
 10
-63.3426123144
 20
45.1902887174
 11
-63.3426123144
 21
-41.5122910334
  0
LINE
  5
340
100
AcDbEntity
  8
RACCORDO
100
AcDbLine
 62
253
  6
CONTINUOUS
 10
-62.5005859948
 20
-40.6702647138
 11
-62.5005859948
 21
44.3482623979
  0
LINE
  5
341
100
AcDbEntity
  8
RACCORDO
100
AcDbLine
 62
253
  6
CONTINUOUS
 10
-61.8767626405
 20
46.6391774569
 11
-61.8767625586
 21
46.6730993256
  0
LINE
  5
342
100
AcDbEntity
  8
RACCORDO
100
AcDbLine
 62
253
  6
CONTINUOUS
 10
-61.8767626405
 20
-42.9611797728
 11
-61.8767626405
 21
-42.9951016417
  0
LINE
  5
343
100
AcDbEntity
  8
RACCORDO
100
AcDbLine
 62
253
  6
CONTINUOUS
 10
-61.0516972554
 20
-42.1191534533
 11
-61.0516972554
 21
45.7971511374
  0
LWPOLYLINE
  5
344
100
AcDbEntity
  8
RACCORDO
100
AcDbPolyline
 62
7
  6
CONTINUOUS
 90
4
 70
0
 10
-42.2013760106
 20
-42.8839361611
 10
-42.1825917026
 20
-42.9011254884
 10
-42.1620290435
 20
-42.9169352105
 10
-42.1398368976
 20
-42.9311086581
  0
LINE
  5
345
100
AcDbEntity
  8
RACCORDO
100
AcDbLine
 62
253
  6
CONTINUOUS
 10
-42.7054793068
 20
-43.1479098593
 11
-42.8582875244
 21
-42.9951016417
  0
LINE
  5
346
100
AcDbEntity
  8
RACCORDO
100
AcDbLine
 62
253
  6
CONTINUOUS
 10
-42.4108529076
 20
-42.8426276414
 11
-42.5583332158
 21
-42.6951473331
  0
LINE
  5
347
100
AcDbEntity
  8
DRAFT
100
AcDbLine
 62
7
  6
CONTINUOUS
 10
-63.5293424008
 20
-7.4450524773
 11
-63.482461959
 21
-7.6800276675
  0
LINE
  5
348
100
AcDbEntity
  8
RACCORDO
100
AcDbLine
 62
253
  6
CONTINUOUS
 10
-59.7726317959
 20
-37.652532767
 11
-59.7726317959
 21
41.3305304511
  0
LINE
  5
349
100
AcDbEntity
  8
RACCORDO
100
AcDbLine
 62
253
  6
CONTINUOUS
 10
-59.482854048
 20
-37.652532767
 11
-59.482854048
 21
41.3305304511
  0
LINE
  5
34A
100
AcDbEntity
  8
RACCORDO
100
AcDbLine
 62
253
  6
CONTINUOUS
 10
-59.0364843797
 20
-37.2061630987
 11
-59.0364843797
 21
40.8841607828
  0
LINE
  5
34B
100
AcDbEntity
  8
RACCORDO
100
AcDbLine
 62
253
  6
CONTINUOUS
 10
-58.0339653086
 20
-39.1014215065
 11
-58.0339653086
 21
-39.3911992544
  0
LINE
  5
34C
100
AcDbEntity
  8
RACCORDO
100
AcDbLine
 62
253
  6
CONTINUOUS
 10
-58.0339653086
 20
42.7794191905
 11
-58.0339653086
 21
43.0691969384
  0
LINE
  5
34D
100
AcDbEntity
  8
RACCORDO
100
AcDbLine
 62
253
  6
CONTINUOUS
 10
-57.5875956403
 20
-38.6550518381
 11
-57.5875956403
 21
42.3330495222
  0
LINE
  5
34E
100
AcDbEntity
  8
DRAFT
100
AcDbLine
 62
7
  6
CONTINUOUS
 10
-63.5293424008
 20
-17.8769498386
 11
-63.482461959
 21
-17.6419746484
  0
LINE
  5
34F
100
AcDbEntity
  8
DRAFT
100
AcDbLine
 62
7
  6
CONTINUOUS
 10
-38.5424336995
 20
36.9707745457
 11
-38.6742094032
 21
36.838998842
  0
LWPOLYLINE
  5
350
100
AcDbEntity
  8
RACCORDO
100
AcDbPolyline
 62
7
  6
CONTINUOUS
 90
5
 70
0
 10
-42.1398368976
 20
-42.9311086581
 10
-42.1160557215
 20
-42.9434838851
 10
-42.0907679693
 20
-42.9538663104
 10
-42.0641799415
 20
-42.9620233609
 10
-42.0364290163
 20
-42.967767145
  0
LINE
  5
351
100
AcDbEntity
  8
RACCORDO
100
AcDbLine
 62
7
  6
CONTINUOUS
 10
-34.1520804077
 20
-42.5131666553
 11
-36.1157032431
 21
-41.3794684827
  0
LINE
  5
352
100
AcDbEntity
  8
RACCORDO
100
AcDbLine
 62
7
  6
CONTINUOUS
 10
-42.6230842629
 20
-40.9303505946
 11
-42.4013135484
 21
-41.152121309
  0
LINE
  5
353
100
AcDbEntity
  8
DRAFT
100
AcDbLine
 62
7
  6
CONTINUOUS
 10
-38.6742094032
 20
-33.161001158
 11
-38.5424336995
 21
-33.2927768616
  0
LWPOLYLINE
  5
354
100
AcDbEntity
  8
RACCORDO
100
AcDbPolyline
 62
7
  6
CONTINUOUS
 90
4
 70
0
 10
-42.2460631477
 20
-42.8271488688
 10
-42.2330931565
 20
-42.8467202963
 10
-42.2182036665
 20
-42.8657274445
 10
-42.2013760106
 20
-42.8839361611
  0
LINE
  5
355
100
AcDbEntity
  8
RACCORDO
100
AcDbLine
 62
7
  6
CONTINUOUS
 10
-42.2570555777
 20
-42.8074353771
 11
-42.2460631477
 21
-42.8271488688
  0
LWPOLYLINE
  5
356
100
AcDbEntity
  8
RACCORDO
100
AcDbPolyline
 62
7
  6
CONTINUOUS
 90
5
 70
0
 10
-42.2807813144
 20
-42.7442359399
 10
-42.2793865229
 20
-42.7495499977
 10
-42.2738275547
 20
-42.7677210108
 10
-42.2663245899
 20
-42.7874680354
 10
-42.2570555777
 20
-42.8074353771
  0
LINE
  5
357
100
AcDbEntity
  8
RACCORDO
100
AcDbLine
 62
7
  6
CONTINUOUS
 10
-42.3243981243
 20
-42.569708027
 11
-42.2807814633
 21
-42.744235977
  0
LINE
  5
358
100
AcDbEntity
  8
RACCORDO
100
AcDbLine
 62
253
  6
CONTINUOUS
 10
-42.3331931245
 20
-42.4975508708
 11
-42.2899318713
 21
-42.6706618069
  0
LINE
  5
359
100
AcDbEntity
  8
RACCORDO
100
AcDbLine
 62
253
  6
CONTINUOUS
 10
-42.8612366736
 20
-42.9611797728
 11
-42.9160889534
 21
-42.1191534533
  0
LINE
  5
35A
100
AcDbEntity
  8
RACCORDO
100
AcDbLine
 62
253
  6
CONTINUOUS
 10
-42.5612823651
 20
-42.6714020249
 11
-42.6161346449
 21
-41.8293757054
  0
LINE
  5
35B
100
AcDbEntity
  8
RACCORDO
100
AcDbLine
 62
7
  6
CONTINUOUS
 10
-42.4108034914
 20
-42.3660484264
 11
-42.4108529076
 21
-42.361001158
  0
LINE
  5
35C
100
AcDbEntity
  8
RACCORDO
100
AcDbLine
 62
7
  6
CONTINUOUS
 10
-42.4108034442
 20
-42.8477648694
 11
-42.4108529076
 21
-42.8426276414
  0
LINE
  5
35D
100
AcDbEntity
  8
ASSI
100
AcDbLine
 62
7
  6
CONTINUOUS
 10
-44.1424336995
 20
4.338998842
 11
-44.1424336995
 21
-0.661001158
  0
LINE
  5
35E
100
AcDbEntity
  8
RACCORDO
100
AcDbLine
 62
253
  6
CONTINUOUS
 10
-42.9316137875
 20
-40.6702647138
 11
-42.9316137875
 21
-40.1304724385
  0
LINE
  5
35F
100
AcDbEntity
  8
RACCORDO
100
AcDbLine
 62
253
  6
CONTINUOUS
 10
-42.4108529076
 20
-42.361001158
 11
-42.4108072161
 21
-42.3661393339
  0
LINE
  5
360
100
AcDbEntity
  8
RACCORDO
100
AcDbLine
 62
7
  6
CONTINUOUS
 10
-42.4108072161
 20
-42.3661393339
 11
-42.4108072161
 21
-42.8478570021
  0
LINE
  5
361
100
AcDbEntity
  8
RACCORDO
100
AcDbLine
 62
7
  6
CONTINUOUS
 10
-42.3977159174
 20
-42.3661407649
 11
-42.3977159174
 21
-41.1521974615
  0
LINE
  5
362
100
AcDbEntity
  8
ASSI
100
AcDbLine
 62
7
  6
CONTINUOUS
 10
-42.3924336995
 20
-42.8609097159
 11
-42.3924336995
 21
-42.3661393339
  0
LINE
  5
363
100
AcDbEntity
  8
RACCORDO
100
AcDbLine
 62
7
  6
CONTINUOUS
 10
-42.3924336995
 20
-42.8609097159
 11
-42.3924336995
 21
-42.3661393339
  0
LINE
  5
364
100
AcDbEntity
  8
RACCORDO
100
AcDbLine
 62
7
  6
CONTINUOUS
 10
-42.3331931245
 20
-42.4871660611
 11
-42.3331931245
 21
-42.261001158
  0
LINE
  5
365
100
AcDbEntity
  8
RACCORDO
100
AcDbLine
 62
7
  6
CONTINUOUS
 10
-38.5533826954
 20
36.8650277132
 11
-38.5424336995
 21
36.908840381
  0
LINE
  5
366
100
AcDbEntity
  8
DRAFT
100
AcDbLine
 62
7
  6
CONTINUOUS
 10
-38.5424336995
 20
39.3651814394
 11
-38.5302160846
 21
39.3896185303
  0
LWPOLYLINE
  5
367
100
AcDbEntity
  8
RACCORDO
100
AcDbPolyline
 62
7
  6
CONTINUOUS
 90
9
 70
0
 10
44.9046803862
 20
-42.9714515536
 10
44.9382653438
 20
-42.9695663199
 10
44.9691464213
 20
-42.9644456078
 10
44.9984957811
 20
-42.9564106843
 10
45.026219968
 20
-42.9457386954
 10
45.0521591667
 20
-42.9327143035
 10
45.0761264661
 20
-42.9176588518
 10
45.0980412223
 20
-42.9008588212
 10
45.1178641421
 20
-42.8825770313
  0
LWPOLYLINE
  5
368
100
AcDbEntity
  8
RACCORDO
100
AcDbPolyline
 62
7
  6
CONTINUOUS
 90
10
 70
0
 10
-34.4953204217
 20
-42.9714521158
 10
-34.4823712793
 20
-42.9711726201
 10
-34.4518130362
 20
-42.9682816277
 10
-34.422506499
 20
-42.9624847137
 10
-34.3945650779
 20
-42.9540330276
 10
-34.3681699237
 20
-42.9431849142
 10
-34.343513378
 20
-42.9302252382
 10
-34.3206766033
 20
-42.9154029779
 10
-34.2997311469
 20
-42.8989638894
 10
-34.2807642714
 20
-42.8811841497
  0
LINE
  5
369
100
AcDbEntity
  8
ASSI
100
AcDbLine
 62
7
  6
CONTINUOUS
 10
64.4587846464
 20
-43.161001158
 11
45.607486355
 21
-43.161001158
  0
LINE
  5
36A
100
AcDbEntity
  8
RACCORDO
100
AcDbLine
 62
7
  6
CONTINUOUS
 10
64.4587846464
 20
-43.161001158
 11
45.607486355
 21
-43.161001158
  0
LINE
  5
36B
100
AcDbEntity
  8
ASSI
100
AcDbLine
 62
7
  6
CONTINUOUS
 10
36.6576462459
 20
-43.161001158
 11
-33.742513645
 21
-43.161001158
  0
LINE
  5
36C
100
AcDbEntity
  8
RACCORDO
100
AcDbLine
 62
7
  6
CONTINUOUS
 10
36.6576462459
 20
-43.161001158
 11
-33.742513645
 21
-43.161001158
  0
LINE
  5
36D
100
AcDbEntity
  8
ASSI
100
AcDbLine
 62
7
  6
CONTINUOUS
 10
-42.6923537541
 20
-43.161001158
 11
-61.5436520455
 21
-43.161001158
  0
LINE
  5
36E
100
AcDbEntity
  8
RACCORDO
100
AcDbLine
 62
7
  6
CONTINUOUS
 10
-42.6923537541
 20
-43.161001158
 11
-61.5436520455
 21
-43.161001158
  0
LINE
  5
36F
100
AcDbEntity
  8
RACCORDO
100
AcDbLine
 62
7
  6
CONTINUOUS
 10
64.944703459
 20
-43.1479098593
 11
45.6206119077
 21
-43.1479098593
  0
LINE
  5
370
100
AcDbEntity
  8
RACCORDO
100
AcDbLine
 62
7
  6
CONTINUOUS
 10
36.6445206932
 20
-43.1479098593
 11
-33.7293880923
 21
-43.1479098593
  0
LINE
  5
371
100
AcDbEntity
  8
RACCORDO
100
AcDbLine
 62
7
  6
CONTINUOUS
 10
-42.7054793068
 20
-43.1479098593
 11
-62.0295708581
 21
-43.1479098593
  0
LINE
  5
372
100
AcDbEntity
  8
RACCORDO
100
AcDbLine
 62
253
  6
CONTINUOUS
 10
-61.8767626405
 20
-42.9951016417
 11
-42.8582875244
 21
-42.9951016417
  0
LINE
  5
373
100
AcDbEntity
  8
RACCORDO
100
AcDbLine
 62
253
  6
CONTINUOUS
 10
-33.5765798747
 20
-42.9951016417
 11
36.4917124756
 21
-42.9951016417
  0
LINE
  5
374
100
AcDbEntity
  8
RACCORDO
100
AcDbLine
 62
253
  6
CONTINUOUS
 10
45.7734201253
 20
-42.9951016417
 11
64.7918952414
 21
-42.9951016417
  0
LINE
  5
375
100
AcDbEntity
  8
RACCORDO
100
AcDbLine
 62
7
  6
CONTINUOUS
 10
-41.9895479266
 20
-42.9714537318
 11
-34.4953195894
 21
-42.9714537318
  0
LINE
  5
376
100
AcDbEntity
  8
RACCORDO
100
AcDbLine
 62
7
  6
CONTINUOUS
 10
37.410452186
 20
-42.9714537318
 11
44.9046805566
 21
-42.9714537318
  0
LINE
  5
377
100
AcDbEntity
  8
RACCORDO
100
AcDbLine
 62
253
  6
CONTINUOUS
 10
-61.8937235749
 20
-42.9611797728
 11
-42.8612366736
 21
-42.9611797728
  0
LINE
  5
378
100
AcDbEntity
  8
RACCORDO
100
AcDbLine
 62
253
  6
CONTINUOUS
 10
-33.5736307254
 20
-42.9611797728
 11
36.4887633264
 21
-42.9611797728
  0
LINE
  5
379
100
AcDbEntity
  8
RACCORDO
100
AcDbLine
 62
253
  6
CONTINUOUS
 10
45.7763692746
 20
-42.9611797728
 11
64.8088561759
 21
-42.9611797728
  0
LINE
  5
37A
100
AcDbEntity
  8
RACCORDO
100
AcDbLine
 62
7
  6
CONTINUOUS
 10
37.1384658337
 20
-42.7978251552
 11
36.9575663005
 21
-42.7978251552
  0
LINE
  5
37B
100
AcDbEntity
  8
RACCORDO
100
AcDbLine
 62
7
  6
CONTINUOUS
 10
-34.0424336995
 20
-42.7978251552
 11
-34.2232733254
 21
-42.7978251552
  0
LINE
  5
37C
100
AcDbEntity
  8
RACCORDO
100
AcDbLine
 62
7
  6
CONTINUOUS
 10
-42.3924336995
 20
-42.7871660611
 11
-42.2807813144
 21
-42.7871660611
  0
LINE
  5
37D
100
AcDbEntity
  8
RACCORDO
100
AcDbLine
 62
7
  6
CONTINUOUS
 10
45.1956809453
 20
-42.7871660611
 11
45.3075663005
 21
-42.7871660611
  0
LINE
  5
37E
100
AcDbEntity
  8
RACCORDO
100
AcDbLine
 62
253
  6
CONTINUOUS
 10
-42.3924336995
 20
-42.4871660611
 11
-42.3331931245
 21
-42.4871660611
  0
LINE
  5
37F
100
AcDbEntity
  8
ASSI
100
AcDbLine
 62
7
  6
CONTINUOUS
 10
45.3075663005
 20
-42.261001158
 11
45.2012006394
 21
-42.261001158
  0
LINE
  5
380
100
AcDbEntity
  8
ASSI
100
AcDbLine
 62
7
  6
CONTINUOUS
 10
-42.2860680385
 20
-42.261001158
 11
-42.3924336995
 21
-42.261001158
  0
LINE
  5
381
100
AcDbEntity
  8
RACCORDO
100
AcDbLine
 62
253
  6
CONTINUOUS
 10
63.9668298564
 20
-42.1191534533
 11
45.8312215544
 21
-42.1191534533
  0
LINE
  5
382
100
AcDbEntity
  8
RACCORDO
100
AcDbLine
 62
253
  6
CONTINUOUS
 10
36.4339110466
 20
-42.1191534533
 11
-33.5187784456
 21
-42.1191534533
  0
LINE
  5
383
100
AcDbEntity
  8
RACCORDO
100
AcDbLine
 62
253
  6
CONTINUOUS
 10
-42.9160889534
 20
-42.1191534533
 11
-61.0516972554
 21
-42.1191534533
  0
LINE
  5
384
100
AcDbEntity
  8
DRAFT
100
AcDbLine
 62
7
  6
CONTINUOUS
 10
-38.5424336995
 20
-35.6871837553
 11
-38.5302160846
 21
-35.7116208462
  0
LINE
  5
385
100
AcDbEntity
  8
DRAFT
100
AcDbLine
 62
7
  6
CONTINUOUS
 10
-38.6742094032
 20
-32.661001158
 11
-38.6899177652
 21
-32.3436125927
  0
LINE
  5
386
100
AcDbEntity
  8
RACCORDO
100
AcDbLine
 62
7
  6
CONTINUOUS
 10
-38.5424336995
 20
-33.4952320126
 11
-38.5160868728
 21
-34.9030368911
  0
LINE
  5
387
100
AcDbEntity
  8
RACCORDO
100
AcDbLine
 62
7
  6
CONTINUOUS
 10
-37.364250869
 20
38.338998842
 11
-37.3424336995
 21
37.1732296967
  0
LINE
  5
388
100
AcDbEntity
  8
RACCORDO
100
AcDbLine
 62
7
  6
CONTINUOUS
 10
-38.5148801314
 20
39.5499714413
 11
-38.519421914
 21
40.1746823724
  0
LINE
  5
389
100
AcDbEntity
  8
RACCORDO
100
AcDbLine
 62
7
  6
CONTINUOUS
 10
-42.2781910109
 20
-41.3714537318
 11
-42.2781910109
 21
-41.261001158
  0
LINE
  5
38A
100
AcDbEntity
  8
DRAFT
100
AcDbLine
 62
7
  6
CONTINUOUS
 10
-42.151161232
 20
-0.661001158
 11
-42.151161232
 21
4.338998842
  0
LINE
  5
38B
100
AcDbEntity
  8
DRAFT
100
AcDbLine
 62
7
  6
CONTINUOUS
 10
-42.1110145827
 20
4.338998842
 11
-42.1110145827
 21
-0.661001158
  0
LINE
  5
38C
100
AcDbEntity
  8
RACCORDO
100
AcDbLine
 62
253
  6
CONTINUOUS
 10
-41.978202434
 20
-41.3714537318
 11
-41.978202434
 21
-41.261001158
  0
LINE
  5
38D
100
AcDbEntity
  8
RACCORDO
100
AcDbLine
 62
7
  6
CONTINUOUS
 10
-41.0424336995
 20
-41.1521974615
 11
-41.0424336995
 21
-41.4945890824
  0
LINE
  5
38E
100
AcDbEntity
  8
DRAFT
100
AcDbLine
 62
7
  6
CONTINUOUS
 10
-38.6899177652
 20
-37.17670952
 11
-38.6899177652
 21
-32.3436125927
  0
LINE
  5
38F
100
AcDbEntity
  8
DRAFT
100
AcDbLine
 62
7
  6
CONTINUOUS
 10
-38.6899177652
 20
36.0216102768
 11
-38.6899177652
 21
40.8547072041
  0
LINE
  5
390
100
AcDbEntity
  8
DRAFT
100
AcDbLine
 62
7
  6
CONTINUOUS
 10
-38.6742094032
 20
36.838998842
 11
-38.6742094032
 21
36.338998842
  0
LINE
  5
391
100
AcDbEntity
  8
DRAFT
100
AcDbLine
 62
7
  6
CONTINUOUS
 10
-38.5738528164
 20
-0.661001158
 11
-38.5738528164
 21
4.338998842
  0
LINE
  5
392
100
AcDbEntity
  8
RACCORDO
100
AcDbLine
 62
7
  6
CONTINUOUS
 10
-38.5529059409
 20
-37.0396976957
 11
-38.5529059409
 21
-35.961001158
  0
LINE
  5
393
100
AcDbEntity
  8
RACCORDO
100
AcDbLine
 62
7
  6
CONTINUOUS
 10
-38.5529059409
 20
39.638998842
 11
-38.5529059409
 21
40.7176953798
  0
LINE
  5
394
100
AcDbEntity
  8
RACCORDO
100
AcDbLine
 62
7
  6
CONTINUOUS
 10
-38.5424336995
 20
39.438998842
 11
-38.5424336995
 21
39.3651814394
  0
LINE
  5
395
100
AcDbEntity
  8
RACCORDO
100
AcDbLine
 62
7
  6
CONTINUOUS
 10
-38.5424336995
 20
-33.2927768616
 11
-38.5424336995
 21
-35.761001158
  0
LINE
  5
396
100
AcDbEntity
  8
RACCORDO
100
AcDbLine
 62
7
  6
CONTINUOUS
 10
-38.5424336995
 20
36.908840381
 11
-38.5424336995
 21
36.9707745457
  0
LINE
  5
397
100
AcDbEntity
  8
DRAFT
100
AcDbLine
 62
7
  6
CONTINUOUS
 10
-38.5337061671
 20
4.338998842
 11
-38.5337061671
 21
-0.661001158
  0
LINE
  5
398
100
AcDbEntity
  8
RACCORDO
100
AcDbLine
 62
7
  6
CONTINUOUS
 10
-38.5302160846
 20
39.438998842
 11
-38.5302160846
 21
39.3896185303
  0
LINE
  5
399
100
AcDbEntity
  8
RACCORDO
100
AcDbLine
 62
7
  6
CONTINUOUS
 10
-38.5302160846
 20
-35.7116208462
 11
-38.5302160846
 21
-35.761001158
  0
LINE
  5
39A
100
AcDbEntity
  8
RACCORDO
100
AcDbLine
 62
7
  6
CONTINUOUS
 10
-38.5140713792
 20
-35.615945205
 11
-38.5140713792
 21
-35.2655600059
  0
LINE
  5
39B
100
AcDbEntity
  8
RACCORDO
100
AcDbLine
 62
7
  6
CONTINUOUS
 10
-38.5140713792
 20
38.94355769
 11
-38.5140713792
 21
39.293942889
  0
LINE
  5
39C
100
AcDbEntity
  8
RACCORDO
100
AcDbLine
 62
7
  6
CONTINUOUS
 10
-37.3424336995
 20
36.908840381
 11
-37.3424336995
 21
37.1732296967
  0
LINE
  5
39D
100
AcDbEntity
  8
RACCORDO
100
AcDbLine
 62
7
  6
CONTINUOUS
 10
-37.3424336995
 20
38.1642357883
 11
-37.3424336995
 21
38.338998842
  0
LINE
  5
39E
100
AcDbEntity
  8
ASSI
100
AcDbLine
 62
7
  6
CONTINUOUS
 10
-36.5424336995
 20
-0.661001158
 11
-36.5424336995
 21
4.338998842
  0
LINE
  5
39F
100
AcDbEntity
  8
DRAFT
100
AcDbLine
 62
7
  6
CONTINUOUS
 10
-35.4424336995
 20
-41.3794684827
 11
-35.4424336995
 21
-41.1521974615
  0
LINE
  5
3A0
100
AcDbEntity
  8
DRAFT
100
AcDbLine
 62
7
  6
CONTINUOUS
 10
-34.1516742745
 20
-41.1521974615
 11
-34.1516742745
 21
-41.3794684827
  0
LINE
  5
3A1
100
AcDbEntity
  8
ASSI
100
AcDbLine
 62
7
  6
CONTINUOUS
 10
-34.0424336995
 20
-42.8609097159
 11
-34.0424336995
 21
-42.3661393339
  0
LINE
  5
3A2
100
AcDbEntity
  8
RACCORDO
100
AcDbLine
 62
7
  6
CONTINUOUS
 10
-34.0424336995
 20
-42.8609097159
 11
-34.0424336995
 21
-42.3661393339
  0
LINE
  5
3A3
100
AcDbEntity
  8
RACCORDO
100
AcDbLine
 62
7
  6
CONTINUOUS
 10
-34.0371514816
 20
-41.1521974615
 11
-34.0371514816
 21
-42.3661407649
  0
LINE
  5
3A4
100
AcDbEntity
  8
RACCORDO
100
AcDbLine
 62
7
  6
CONTINUOUS
 10
-34.0240601829
 20
-42.8478570021
 11
-34.0240601829
 21
-42.3661393339
  0
LINE
  5
3A5
100
AcDbEntity
  8
RACCORDO
100
AcDbLine
 62
253
  6
CONTINUOUS
 10
-34.0240601829
 20
-42.3661393339
 11
-34.0240144915
 21
-42.361001158
  0
LINE
  5
3A6
100
AcDbEntity
  8
RACCORDO
100
AcDbLine
 62
253
  6
CONTINUOUS
 10
-33.5032536116
 20
-40.1304724385
 11
-33.5032536116
 21
-40.6702647138
  0
LINE
  5
3A7
100
AcDbEntity
  8
RACCORDO
100
AcDbLine
 62
7
  6
CONTINUOUS
 10
-38.519421914
 20
-36.4966846883
 11
-38.5148801314
 21
-35.8719737572
  0
LINE
  5
3A8
100
AcDbEntity
  8
RACCORDO
100
AcDbLine
 62
7
  6
CONTINUOUS
 10
-34.0240639549
 20
-42.8477648694
 11
-34.0240144915
 21
-42.8426276414
  0
LINE
  5
3A9
100
AcDbEntity
  8
RACCORDO
100
AcDbLine
 62
7
  6
CONTINUOUS
 10
-34.0240639076
 20
-42.3660484264
 11
-34.0240144915
 21
-42.361001158
  0
LINE
  5
3AA
100
AcDbEntity
  8
RACCORDO
100
AcDbLine
 62
7
  6
CONTINUOUS
 10
-38.5160868728
 20
38.5810345752
 11
-38.5424336995
 21
37.1732296967
  0
LINE
  5
3AB
100
AcDbEntity
  8
DRAFT
100
AcDbLine
 62
7
  6
CONTINUOUS
 10
-37.3424336995
 20
-33.4952320126
 11
-37.364250869
 21
-34.661001158
  0
LINE
  5
3AC
100
AcDbEntity
  8
DRAFT
100
AcDbLine
 62
7
  6
CONTINUOUS
 10
-38.6742094032
 20
36.338998842
 11
-38.6899177652
 21
36.0216102768
  0
LINE
  5
3AD
100
AcDbEntity
  8
RACCORDO
100
AcDbLine
 62
7
  6
CONTINUOUS
 10
-29.7533826954
 20
36.8650277132
 11
-29.7424336995
 21
36.908840381
  0
LINE
  5
3AE
100
AcDbEntity
  8
DRAFT
100
AcDbLine
 62
7
  6
CONTINUOUS
 10
32.4373733363
 20
-37.0396976957
 11
31.2797918157
 21
-37.15516478
  0
LINE
  5
3AF
100
AcDbEntity
  8
DRAFT
100
AcDbLine
 62
7
  6
CONTINUOUS
 10
30.1401777352
 20
-37.17670952
 11
30.5754907303
 21
-37.15516478
  0
LINE
  5
3B0
100
AcDbEntity
  8
RACCORDO
100
AcDbLine
 62
253
  6
CONTINUOUS
 10
-63.3426123144
 20
-41.4953300989
 11
-63.3765341831
 21
-41.495330017
  0
LINE
  5
3B1
100
AcDbEntity
  8
RACCORDO
100
AcDbLine
 62
253
  6
CONTINUOUS
 10
66.2577449153
 20
-41.4953300989
 11
66.2916667842
 21
-41.4953300989
  0
LINE
  5
3B2
100
AcDbEntity
  8
RACCORDO
100
AcDbLine
 62
7
  6
CONTINUOUS
 10
-41.0424336995
 20
-41.4945890824
 11
-35.9163085154
 21
-41.4945890824
  0
LINE
  5
3B3
100
AcDbEntity
  8
RACCORDO
100
AcDbLine
 62
7
  6
CONTINUOUS
 10
38.8314411164
 20
-41.4945890824
 11
43.9575663005
 21
-41.4945890824
  0
LINE
  5
3B4
100
AcDbEntity
  8
DRAFT
100
AcDbLine
 62
7
  6
CONTINUOUS
 10
39.0308358441
 20
-41.3794684827
 11
38.3575663005
 21
-41.3794684827
  0
LINE
  5
3B5
100
AcDbEntity
  8
DRAFT
100
AcDbLine
 62
7
  6
CONTINUOUS
 10
37.0668068755
 20
-41.3794684827
 11
36.9522840826
 21
-41.3794684827
  0
LINE
  5
3B6
100
AcDbEntity
  8
DRAFT
100
AcDbLine
 62
7
  6
CONTINUOUS
 10
-34.0371514816
 20
-41.3794684827
 11
-34.1516742745
 21
-41.3794684827
  0
LINE
  5
3B7
100
AcDbEntity
  8
DRAFT
100
AcDbLine
 62
7
  6
CONTINUOUS
 10
-35.4424336995
 20
-41.3794684827
 11
-36.1157032431
 21
-41.3794684827
  0
LINE
  5
3B8
100
AcDbEntity
  8
RACCORDO
100
AcDbLine
 62
253
  6
CONTINUOUS
 10
-42.2781910109
 20
-41.3714537318
 11
-41.0424336995
 21
-41.3714537318
  0
LINE
  5
3B9
100
AcDbEntity
  8
RACCORDO
100
AcDbLine
 62
253
  6
CONTINUOUS
 10
43.9575663005
 20
-41.3714537318
 11
45.1933236118
 21
-41.3714537318
  0
LINE
  5
3BA
100
AcDbEntity
  8
RACCORDO
100
AcDbLine
 62
253
  6
CONTINUOUS
 10
-41.0424336995
 20
-41.261001158
 11
-42.2781910109
 21
-41.261001158
  0
LINE
  5
3BB
100
AcDbEntity
  8
RACCORDO
100
AcDbLine
 62
253
  6
CONTINUOUS
 10
43.9575663005
 20
-41.261001158
 11
45.1933236118
 21
-41.261001158
  0
LINE
  5
3BC
100
AcDbEntity
  8
RACCORDO
100
AcDbLine
 62
7
  6
CONTINUOUS
 10
45.3164461494
 20
-41.152121309
 11
36.9488378876
 21
-41.1521974615
  0
LINE
  5
3BD
100
AcDbEntity
  8
RACCORDO
100
AcDbLine
 62
7
  6
CONTINUOUS
 10
-34.0335538506
 20
-41.152121309
 11
-42.4011621124
 21
-41.1521974615
  0
LINE
  5
3BE
100
AcDbEntity
  8
RACCORDO
100
AcDbLine
 62
253
  6
CONTINUOUS
 10
-42.6230842629
 20
-40.9303505946
 11
-33.8117831362
 21
-40.9303505946
  0
LINE
  5
3BF
100
AcDbEntity
  8
RACCORDO
100
AcDbLine
 62
253
  6
CONTINUOUS
 10
36.7269157371
 20
-40.9303505946
 11
45.5382168638
 21
-40.9303505946
  0
LINE
  5
3C0
100
AcDbEntity
  8
RACCORDO
100
AcDbLine
 62
253
  6
CONTINUOUS
 10
65.4157185958
 20
-40.6702647138
 11
45.560704691
 21
-40.6702646999
  0
LINE
  5
3C1
100
AcDbEntity
  8
RACCORDO
100
AcDbLine
 62
253
  6
CONTINUOUS
 10
36.70442791
 20
-40.6702647002
 11
-33.789295309
 21
-40.6702646999
  0
LINE
  5
3C2
100
AcDbEntity
  8
RACCORDO
100
AcDbLine
 62
253
  6
CONTINUOUS
 10
-42.64557209
 20
-40.6702647002
 11
-62.5005859948
 21
-40.6702647138
  0
LINE
  5
3C3
100
AcDbEntity
  8
RACCORDO
100
AcDbLine
 62
253
  6
CONTINUOUS
 10
-42.9316137875
 20
-40.1304724385
 11
-33.5032536116
 21
-40.1304724385
  0
LINE
  5
3C4
100
AcDbEntity
  8
RACCORDO
100
AcDbLine
 62
253
  6
CONTINUOUS
 10
36.4183862125
 20
-40.1304724385
 11
45.8467463884
 21
-40.1304724385
  0
LINE
  5
3C5
100
AcDbEntity
  8
RACCORDO
100
AcDbLine
 62
253
  6
CONTINUOUS
 10
60.9490979095
 20
-39.3911992544
 11
-58.0339653086
 21
-39.3911992544
  0
LINE
  5
3C6
100
AcDbEntity
  8
RACCORDO
100
AcDbLine
 62
253
  6
CONTINUOUS
 10
60.9490979095
 20
-39.1014215065
 11
-58.0339653086
 21
-39.1014215065
  0
LINE
  5
3C7
100
AcDbEntity
  8
RACCORDO
100
AcDbLine
 62
253
  6
CONTINUOUS
 10
60.5027282412
 20
-38.6550518381
 11
-57.5875956403
 21
-38.6550518381
  0
LINE
  5
3C8
100
AcDbEntity
  8
RACCORDO
100
AcDbLine
 62
253
  6
CONTINUOUS
 10
-59.482854048
 20
-37.652532767
 11
-59.7726317959
 21
-37.652532767
  0
LINE
  5
3C9
100
AcDbEntity
  8
RACCORDO
100
AcDbLine
 62
253
  6
CONTINUOUS
 10
62.397986649
 20
-37.652532767
 11
62.6877643969
 21
-37.652532767
  0
LINE
  5
3CA
100
AcDbEntity
  8
RACCORDO
100
AcDbLine
 62
253
  6
CONTINUOUS
 10
61.9516169806
 20
-37.2061630987
 11
-59.0364843797
 21
-37.2061630987
  0
LINE
  5
3CB
100
AcDbEntity
  8
DRAFT
100
AcDbLine
 62
7
  6
CONTINUOUS
 10
41.6050503661
 20
-37.17670952
 11
30.1401777352
 21
-37.17670952
  0
LINE
  5
3CC
100
AcDbEntity
  8
DRAFT
100
AcDbLine
 62
7
  6
CONTINUOUS
 10
-27.2250451342
 20
-37.17670952
 11
-38.6899177652
 21
-37.17670952
  0
LINE
  5
3CD
100
AcDbEntity
  8
DRAFT
100
AcDbLine
 62
7
  6
CONTINUOUS
 10
31.2797918157
 20
-37.15516478
 11
30.5754907303
 21
-37.15516478
  0
LINE
  5
3CE
100
AcDbEntity
  8
DRAFT
100
AcDbLine
 62
7
  6
CONTINUOUS
 10
-27.6603581294
 20
-37.15516478
 11
-28.3646592147
 21
-37.15516478
  0
LINE
  5
3CF
100
AcDbEntity
  8
DRAFT
100
AcDbLine
 62
7
  6
CONTINUOUS
 10
-28.5686342934
 20
-37.1348185606
 11
-28.0686162969
 21
-37.1348185606
  0
LINE
  5
3D0
100
AcDbEntity
  8
DRAFT
100
AcDbLine
 62
7
  6
CONTINUOUS
 10
30.9837488979
 20
-37.1348185606
 11
31.4837668943
 21
-37.1348185606
  0
LINE
  5
3D1
100
AcDbEntity
  8
DRAFT
100
AcDbLine
 62
7
  6
CONTINUOUS
 10
41.4680385418
 20
-37.0396976957
 11
32.4373733363
 21
-37.0396976957
  0
LINE
  5
3D2
100
AcDbEntity
  8
DRAFT
100
AcDbLine
 62
7
  6
CONTINUOUS
 10
-29.5222407353
 20
-37.0396976957
 11
-38.5529059409
 21
-37.0396976957
  0
LINE
  5
3D3
100
AcDbEntity
  8
RACCORDO
100
AcDbLine
 62
7
  6
CONTINUOUS
 10
41.4372060478
 20
-36.6406409053
 11
31.4779265532
 21
-36.6406409053
  0
LINE
  5
3D4
100
AcDbEntity
  8
RACCORDO
100
AcDbLine
 62
7
  6
CONTINUOUS
 10
-28.5627939522
 20
-36.6406409053
 11
-38.5220734468
 21
-36.6406409053
  0
LINE
  5
3D5
100
AcDbEntity
  8
RACCORDO
100
AcDbLine
 62
253
  6
CONTINUOUS
 10
41.434554515
 20
-36.4966846883
 11
31.480578086
 21
-36.4966846883
  0
LINE
  5
3D6
100
AcDbEntity
  8
RACCORDO
100
AcDbLine
 62
253
  6
CONTINUOUS
 10
-28.565445485
 20
-36.4966846883
 11
-38.519421914
 21
-36.4966846883
  0
LINE
  5
3D7
100
AcDbEntity
  8
RACCORDO
100
AcDbLine
 62
253
  6
CONTINUOUS
 10
-38.5529059409
 20
-35.961001158
 11
-38.5302160846
 21
-35.961001158
  0
LINE
  5
3D8
100
AcDbEntity
  8
RACCORDO
100
AcDbLine
 62
253
  6
CONTINUOUS
 10
41.4453486856
 20
-35.961001158
 11
41.4680385418
 21
-35.961001158
  0
LINE
  5
3D9
100
AcDbEntity
  8
RACCORDO
100
AcDbLine
 62
253
  6
CONTINUOUS
 10
-38.5148801314
 20
-35.8719737572
 11
-28.5699872677
 21
-35.8719737572
  0
LINE
  5
3DA
100
AcDbEntity
  8
RACCORDO
100
AcDbLine
 62
253
  6
CONTINUOUS
 10
31.4851198686
 20
-35.8719737572
 11
41.4300127323
 21
-35.8719737572
  0
LINE
  5
3DB
100
AcDbEntity
  8
RACCORDO
100
AcDbLine
 62
7
  6
CONTINUOUS
 10
-38.5511605673
 20
-35.761001158
 11
-38.5302160846
 21
-35.761001158
  0
LINE
  5
3DC
100
AcDbEntity
  8
RACCORDO
100
AcDbLine
 62
7
  6
CONTINUOUS
 10
41.4453486856
 20
-35.761001158
 11
41.4662931683
 21
-35.761001158
  0
LINE
  5
3DD
100
AcDbEntity
  8
DRAFT
100
AcDbLine
 62
7
  6
CONTINUOUS
 10
31.4575663005
 20
-35.6871837553
 11
30.9837488979
 21
-35.6871837553
  0
LINE
  5
3DE
100
AcDbEntity
  8
DRAFT
100
AcDbLine
 62
7
  6
CONTINUOUS
 10
-28.0686162969
 20
-35.6871837553
 11
-28.5424336995
 21
-35.6871837553
  0
LINE
  5
3DF
100
AcDbEntity
  8
RACCORDO
100
AcDbLine
 62
253
  6
CONTINUOUS
 10
-38.5140713792
 20
-35.615945205
 11
-28.5707960198
 21
-35.615945205
  0
LINE
  5
3E0
100
AcDbEntity
  8
RACCORDO
100
AcDbLine
 62
253
  6
CONTINUOUS
 10
31.4859286208
 20
-35.615945205
 11
41.4292039802
 21
-35.615945205
  0
LINE
  5
3E1
100
AcDbEntity
  8
RACCORDO
100
AcDbLine
 62
253
  6
CONTINUOUS
 10
-38.5140713792
 20
-35.2655600059
 11
-28.5707960198
 21
-35.2655600059
  0
LINE
  5
3E2
100
AcDbEntity
  8
RACCORDO
100
AcDbLine
 62
253
  6
CONTINUOUS
 10
31.4859286208
 20
-35.2655600059
 11
41.4292039802
 21
-35.2655600059
  0
LINE
  5
3E3
100
AcDbEntity
  8
RACCORDO
100
AcDbLine
 62
253
  6
CONTINUOUS
 10
-38.5160868728
 20
-34.9030368911
 11
-28.5687805262
 21
-34.9030368911
  0
LINE
  5
3E4
100
AcDbEntity
  8
RACCORDO
100
AcDbLine
 62
253
  6
CONTINUOUS
 10
31.4839131272
 20
-34.9030368911
 11
41.4312194738
 21
-34.9030368911
  0
LINE
  5
3E5
100
AcDbEntity
  8
DRAFT
100
AcDbLine
 62
7
  6
CONTINUOUS
 10
40.27938347
 20
-34.661001158
 11
32.635749131
 21
-34.661001158
  0
LINE
  5
3E6
100
AcDbEntity
  8
DRAFT
100
AcDbLine
 62
7
  6
CONTINUOUS
 10
-29.72061653
 20
-34.661001158
 11
-37.364250869
 21
-34.661001158
  0
LINE
  5
3E7
100
AcDbEntity
  8
DRAFT
100
AcDbLine
 62
7
  6
CONTINUOUS
 10
41.4575663005
 20
-33.4952320126
 11
40.2575663005
 21
-33.4952320126
  0
LINE
  5
3E8
100
AcDbEntity
  8
DRAFT
100
AcDbLine
 62
7
  6
CONTINUOUS
 10
-38.5424336995
 20
-33.4952320126
 11
-37.3424336995
 21
-33.4952320126
  0
LINE
  5
3E9
100
AcDbEntity
  8
DRAFT
100
AcDbLine
 62
7
  6
CONTINUOUS
 10
-28.5424336995
 20
-33.4952320126
 11
-29.7424336995
 21
-33.4952320126
  0
LINE
  5
3EA
100
AcDbEntity
  8
DRAFT
100
AcDbLine
 62
7
  6
CONTINUOUS
 10
31.4575663005
 20
-33.4952320126
 11
32.6575663005
 21
-33.4952320126
  0
LINE
  5
3EB
100
AcDbEntity
  8
RACCORDO
100
AcDbLine
 62
7
  6
CONTINUOUS
 10
-42.4011568187
 20
-41.1521213701
 11
-42.4013135484
 21
-41.152121309
  0
LINE
  5
3EC
100
AcDbEntity
  8
RACCORDO
100
AcDbLine
 62
7
  6
CONTINUOUS
 10
36.9488431813
 20
-41.1521213701
 11
36.9486864516
 21
-41.152121309
  0
LINE
  5
3ED
100
AcDbEntity
  8
RACCORDO
100
AcDbLine
 62
7
  6
CONTINUOUS
 10
37.386452572
 20
-42.9704908586
 11
37.410452999
 21
-42.9714520989
  0
LINE
  5
3EE
100
AcDbEntity
  8
DRAFT
100
AcDbLine
 62
7
  6
CONTINUOUS
 10
-27.6603581294
 20
-37.15516478
 11
-27.2250451342
 21
-37.17670952
  0
LINE
  5
3EF
100
AcDbEntity
  8
DRAFT
100
AcDbLine
 62
7
  6
CONTINUOUS
 10
-28.3646592147
 20
-37.15516478
 11
-29.5222407353
 21
-37.0396976957
  0
LINE
  5
3F0
100
AcDbEntity
  8
DRAFT
100
AcDbLine
 62
7
  6
CONTINUOUS
 10
-29.72061653
 20
-34.661001158
 11
-29.7424336995
 21
-33.4952320126
  0
LINE
  5
3F1
100
AcDbEntity
  8
RACCORDO
100
AcDbLine
 62
7
  6
CONTINUOUS
 10
-28.5687805262
 20
38.5810345752
 11
-28.5424336995
 21
37.1732296967
  0
LINE
  5
3F2
100
AcDbEntity
  8
RACCORDO
100
AcDbLine
 62
7
  6
CONTINUOUS
 10
-28.565445485
 20
-36.4966846883
 11
-28.5699872677
 21
-35.8719737572
  0
LINE
  5
3F3
100
AcDbEntity
  8
ASSI
100
AcDbLine
 62
7
  6
CONTINUOUS
 10
-32.3424336995
 20
4.338998842
 11
-32.3424336995
 21
-0.661001158
  0
LINE
  5
3F4
100
AcDbEntity
  8
DRAFT
100
AcDbLine
 62
7
  6
CONTINUOUS
 10
-30.351161232
 20
-0.661001158
 11
-30.351161232
 21
4.338998842
  0
LINE
  5
3F5
100
AcDbEntity
  8
DRAFT
100
AcDbLine
 62
7
  6
CONTINUOUS
 10
-30.3110145827
 20
4.338998842
 11
-30.3110145827
 21
-0.661001158
  0
LINE
  5
3F6
100
AcDbEntity
  8
DRAFT
100
AcDbLine
 62
7
  6
CONTINUOUS
 10
-29.7424336995
 20
-34.661001158
 11
-29.7424336995
 21
-33.4952320126
  0
LINE
  5
3F7
100
AcDbEntity
  8
RACCORDO
100
AcDbLine
 62
7
  6
CONTINUOUS
 10
-29.7424336995
 20
36.908840381
 11
-29.7424336995
 21
37.1732296967
  0
LINE
  5
3F8
100
AcDbEntity
  8
RACCORDO
100
AcDbLine
 62
7
  6
CONTINUOUS
 10
-29.7424336995
 20
38.1642357883
 11
-29.7424336995
 21
38.338998842
  0
LINE
  5
3F9
100
AcDbEntity
  8
RACCORDO
100
AcDbLine
 62
7
  6
CONTINUOUS
 10
-29.5222407353
 20
-37.0396976957
 11
-29.5222407353
 21
-36.6470305538
  0
LINE
  5
3FA
100
AcDbEntity
  8
RACCORDO
100
AcDbLine
 62
7
  6
CONTINUOUS
 10
-29.5222407353
 20
40.3250282379
 11
-29.5222407353
 21
40.7176953798
  0
LINE
  5
3FB
100
AcDbEntity
  8
RACCORDO
100
AcDbLine
 62
7
  6
CONTINUOUS
 10
-28.5707960198
 20
-35.615945205
 11
-28.5707960198
 21
-35.2655600059
  0
LINE
  5
3FC
100
AcDbEntity
  8
RACCORDO
100
AcDbLine
 62
7
  6
CONTINUOUS
 10
-28.5707960198
 20
38.94355769
 11
-28.5707960198
 21
39.293942889
  0
LINE
  5
3FD
100
AcDbEntity
  8
RACCORDO
100
AcDbLine
 62
7
  6
CONTINUOUS
 10
-28.5546513144
 20
-36.4470305538
 11
-28.5546513144
 21
-35.7116208462
  0
LINE
  5
3FE
100
AcDbEntity
  8
RACCORDO
100
AcDbLine
 62
7
  6
CONTINUOUS
 10
-28.5546513144
 20
39.3896185303
 11
-28.5546513144
 21
40.1250282379
  0
LINE
  5
3FF
100
AcDbEntity
  8
RACCORDO
100
AcDbLine
 62
7
  6
CONTINUOUS
 10
-28.5424336995
 20
39.3651814394
 11
-28.5424336995
 21
38.1642357883
  0
LINE
  5
400
100
AcDbEntity
  8
DRAFT
100
AcDbLine
 62
7
  6
CONTINUOUS
 10
-28.5424336995
 20
-33.4952320126
 11
-28.5424336995
 21
-35.6871837553
  0
LINE
  5
401
100
AcDbEntity
  8
RACCORDO
100
AcDbLine
 62
7
  6
CONTINUOUS
 10
-28.5424336995
 20
36.908840381
 11
-28.5424336995
 21
37.1732296967
  0
LINE
  5
402
100
AcDbEntity
  8
DRAFT
100
AcDbLine
 62
7
  6
CONTINUOUS
 10
-28.0686162969
 20
-37.1348185606
 11
-28.0686162969
 21
-35.6871837553
  0
LINE
  5
403
100
AcDbEntity
  8
DRAFT
100
AcDbLine
 62
7
  6
CONTINUOUS
 10
-28.0686162969
 20
39.3651814394
 11
-28.0686162969
 21
40.8128162447
  0
LINE
  5
404
100
AcDbEntity
  8
RACCORDO
100
AcDbLine
 62
7
  6
CONTINUOUS
 10
-27.5424336995
 20
40.2702991924
 11
-27.5424336995
 21
36.338998842
  0
LINE
  5
405
100
AcDbEntity
  8
RACCORDO
100
AcDbLine
 62
7
  6
CONTINUOUS
 10
-27.5424336995
 20
-32.661001158
 11
-27.5424336995
 21
-36.5923015083
  0
LINE
  5
406
100
AcDbEntity
  8
DRAFT
100
AcDbLine
 62
7
  6
CONTINUOUS
 10
-27.2250451342
 20
40.8547072041
 11
-27.2250451342
 21
36.0216102768
  0
LINE
  5
407
100
AcDbEntity
  8
DRAFT
100
AcDbLine
 62
7
  6
CONTINUOUS
 10
-27.2250451342
 20
-32.3436125927
 11
-27.2250451342
 21
-37.17670952
  0
LINE
  5
408
100
AcDbEntity
  8
DRAFT
100
AcDbLine
 62
7
  6
CONTINUOUS
 10
-26.7738528164
 20
-0.661001158
 11
-26.7738528164
 21
4.338998842
  0
LINE
  5
409
100
AcDbEntity
  8
DRAFT
100
AcDbLine
 62
7
  6
CONTINUOUS
 10
-26.7337061671
 20
4.338998842
 11
-26.7337061671
 21
-0.661001158
  0
LINE
  5
40A
100
AcDbEntity
  8
ASSI
100
AcDbLine
 62
7
  6
CONTINUOUS
 10
-24.7424336995
 20
-0.661001158
 11
-24.7424336995
 21
4.338998842
  0
LINE
  5
40B
100
AcDbEntity
  8
RACCORDO
100
AcDbLine
 62
7
  6
CONTINUOUS
 10
-28.5699872677
 20
39.5499714413
 11
-28.565445485
 21
40.1746823724
  0
LINE
  5
40C
100
AcDbEntity
  8
RACCORDO
100
AcDbLine
 62
7
  6
CONTINUOUS
 10
-29.7424336995
 20
37.1732296967
 11
-29.72061653
 21
38.338998842
  0
LINE
  5
40D
100
AcDbEntity
  8
RACCORDO
100
AcDbLine
 62
7
  6
CONTINUOUS
 10
-28.5424336995
 20
-33.4952320126
 11
-28.5687805262
 21
-34.9030368911
  0
LINE
  5
40E
100
AcDbEntity
  8
RACCORDO
100
AcDbLine
 62
253
  6
CONTINUOUS
 10
-33.8187327542
 20
-41.8293757054
 11
-33.873585034
 21
-42.6714020249
  0
LINE
  5
40F
100
AcDbEntity
  8
RACCORDO
100
AcDbLine
 62
253
  6
CONTINUOUS
 10
-33.5187784456
 20
-42.1191534533
 11
-33.5736307254
 21
-42.9611797728
  0
LINE
  5
410
100
AcDbEntity
  8
DRAFT
100
AcDbLine
 62
7
  6
CONTINUOUS
 10
-38.6742094032
 20
-32.661001158
 11
-27.5424336995
 21
-32.661001158
  0
LINE
  5
411
100
AcDbEntity
  8
DRAFT
100
AcDbLine
 62
7
  6
CONTINUOUS
 10
30.4575663005
 20
-32.661001158
 11
41.5893420041
 21
-32.661001158
  0
LINE
  5
412
100
AcDbEntity
  8
DRAFT
100
AcDbLine
 62
7
  6
CONTINUOUS
 10
-38.6899177652
 20
-32.3436125927
 11
-27.2250451342
 21
-32.3436125927
  0
LINE
  5
413
100
AcDbEntity
  8
DRAFT
100
AcDbLine
 62
7
  6
CONTINUOUS
 10
30.1401777352
 20
-32.3436125927
 11
41.6050503661
 21
-32.3436125927
  0
LINE
  5
414
100
AcDbEntity
  8
RACCORDO
100
AcDbLine
 62
7
  6
CONTINUOUS
 10
-37.3314847037
 20
36.8650277132
 11
-37.3424336995
 21
36.908840381
  0
LINE
  5
415
100
AcDbEntity
  8
RACCORDO
100
AcDbLine
 62
253
  6
CONTINUOUS
 10
-34.1551358822
 20
-42.5114025763
 11
-34.1949355278
 21
-42.6706618069
  0
LINE
  5
416
100
AcDbEntity
  8
RACCORDO
100
AcDbLine
 62
7
  6
CONTINUOUS
 10
-34.1606364843
 20
-42.57037712
 11
-34.2038748361
 21
-42.7433964152
  0
LINE
  5
417
100
AcDbEntity
  8
RACCORDO
100
AcDbLine
 62
7
  6
CONTINUOUS
 10
-34.2090488958
 20
-42.7616654288
 11
-34.2040199229
 21
-42.7439732927
  0
LINE
  5
418
100
AcDbEntity
  8
DRAFT
100
AcDbLine
 62
7
  6
CONTINUOUS
 10
24.4575663005
 20
-22.6452927959
 11
-21.5424336995
 21
-22.6452927959
  0
LWPOLYLINE
  5
419
100
AcDbEntity
  8
RACCORDO
100
AcDbPolyline
 62
7
  6
CONTINUOUS
 90
5
 70
0
 10
37.2686769972
 20
-42.9358517368
 10
37.2954116918
 20
-42.948526611
 10
37.3240899738
 20
-42.9587568832
 10
37.3544993505
 20
-42.9661897201
 10
37.386452572
 20
-42.9704908586
  0
LINE
  5
41A
100
AcDbEntity
  8
RACCORDO
100
AcDbLine
 62
7
  6
CONTINUOUS
 10
-28.5314847037
 20
36.8650277132
 11
-28.5424336995
 21
36.908840381
  0
LWPOLYLINE
  5
41B
100
AcDbEntity
  8
RACCORDO
100
AcDbPolyline
 62
7
  6
CONTINUOUS
 90
3
 70
0
 10
-34.2250512435
 20
-42.8018750682
 10
-34.2161197926
 20
-42.7815301497
 10
-34.2090488958
 20
-42.7616654288
  0
LINE
  5
41C
100
AcDbEntity
  8
DRAFT
100
AcDbLine
 62
7
  6
CONTINUOUS
 10
-28.5424336995
 20
-35.6871837553
 11
-28.5546513144
 21
-35.7116208462
  0
LINE
  5
41D
100
AcDbEntity
  8
RACCORDO
100
AcDbLine
 62
7
  6
CONTINUOUS
 10
-34.2358513961
 20
-42.8221842685
 11
-34.2250512435
 21
-42.8018750682
  0
LINE
  5
41E
100
AcDbEntity
  8
RACCORDO
100
AcDbLine
 62
253
  6
CONTINUOUS
 10
-63.5293424008
 20
-41.6481383165
 11
-63.3765341832
 21
-41.4953300989
  0
LINE
  5
41F
100
AcDbEntity
  8
RACCORDO
100
AcDbLine
 62
253
  6
CONTINUOUS
 10
-59.482854048
 20
-37.652532767
 11
-59.0364843797
 21
-37.2061630987
  0
LINE
  5
420
100
AcDbEntity
  8
RACCORDO
100
AcDbLine
 62
253
  6
CONTINUOUS
 10
-62.5005859948
 20
-40.6702647138
 11
-63.3426123144
 21
-41.5122910334
  0
LINE
  5
421
100
AcDbEntity
  8
RACCORDO
100
AcDbLine
 62
253
  6
CONTINUOUS
 10
-58.0339653086
 20
-39.1014215065
 11
-57.5875956403
 21
-38.6550518381
  0
LINE
  5
422
100
AcDbEntity
  8
RACCORDO
100
AcDbLine
 62
253
  6
CONTINUOUS
 10
-61.0516972554
 20
-42.1191534533
 11
-61.8937235749
 21
-42.9611797728
  0
LINE
  5
423
100
AcDbEntity
  8
RACCORDO
100
AcDbLine
 62
253
  6
CONTINUOUS
 10
-62.0295708581
 20
-43.1479098593
 11
-61.8767626405
 21
-42.9951016417
  0
LINE
  5
424
100
AcDbEntity
  8
DRAFT
100
AcDbLine
 62
7
  6
CONTINUOUS
 10
-21.5424336995
 20
-6.67670952
 11
24.4575663005
 21
-6.67670952
  0
LWPOLYLINE
  5
425
100
AcDbEntity
  8
RACCORDO
100
AcDbPolyline
 62
7
  6
CONTINUOUS
 90
3
 70
0
 10
37.2215033624
 20
-42.9045042655
 10
37.2440326172
 20
-42.9210824949
 10
37.2686769972
 20
-42.9358517368
  0
LINE
  5
426
100
AcDbEntity
  8
RACCORDO
100
AcDbLine
 62
7
  6
CONTINUOUS
 10
37.2011407977
 20
-42.8864142014
 11
37.2215033624
 21
-42.9045042655
  0
LINE
  5
427
100
AcDbEntity
  8
RACCORDO
100
AcDbLine
 62
253
  6
CONTINUOUS
 10
-63.5293424008
 20
45.3261360006
 11
-63.3765341832
 21
45.173327783
  0
LINE
  5
428
100
AcDbEntity
  8
RACCORDO
100
AcDbLine
 62
253
  6
CONTINUOUS
 10
-63.3426123144
 20
45.1902887174
 11
-62.5005859948
 21
44.3482623979
  0
LINE
  5
429
100
AcDbEntity
  8
RACCORDO
100
AcDbLine
 62
253
  6
CONTINUOUS
 10
-59.482854048
 20
41.3305304511
 11
-59.0364843797
 21
40.8841607828
  0
LINE
  5
42A
100
AcDbEntity
  8
RACCORDO
100
AcDbLine
 62
253
  6
CONTINUOUS
 10
-61.8937235749
 20
46.6391774569
 11
-61.0516972554
 21
45.7971511374
  0
LINE
  5
42B
100
AcDbEntity
  8
RACCORDO
100
AcDbLine
 62
253
  6
CONTINUOUS
 10
-58.0339653086
 20
42.7794191905
 11
-57.5875956403
 21
42.3330495222
  0
LINE
  5
42C
100
AcDbEntity
  8
RACCORDO
100
AcDbLine
 62
253
  6
CONTINUOUS
 10
-62.0295708581
 20
46.8259075433
 11
-61.8767626405
 21
46.6730993257
  0
LINE
  5
42D
100
AcDbEntity
  8
DRAFT
100
AcDbLine
 62
7
  6
CONTINUOUS
 10
-28.5424336995
 20
39.3651814394
 11
-28.5546513144
 21
39.3896185303
  0
LINE
  5
42E
100
AcDbEntity
  8
RACCORDO
100
AcDbLine
 62
7
  6
CONTINUOUS
 10
-27.6077787995
 20
-37.0752644215
 11
-27.6603581294
 21
-37.15516478
  0
LINE
  5
42F
100
AcDbEntity
  8
DRAFT
100
AcDbLine
 62
7
  6
CONTINUOUS
 10
30.4575663005
 20
36.338998842
 11
30.1401777352
 21
36.0216102768
  0
LINE
  5
430
100
AcDbEntity
  8
DRAFT
100
AcDbLine
 62
7
  6
CONTINUOUS
 10
-38.5529059409
 20
-37.0396976957
 11
-38.6899177652
 21
-37.17670952
  0
LINE
  5
431
100
AcDbEntity
  8
DRAFT
100
AcDbLine
 62
7
  6
CONTINUOUS
 10
41.4680385418
 20
40.7176953798
 11
41.6050503661
 21
40.8547072041
  0
LINE
  5
432
100
AcDbEntity
  8
DRAFT
100
AcDbLine
 62
253
  6
CONTINUOUS
 10
-42.151161232
 20
-0.661001158
 11
-42.1110145827
 21
-0.661001158
  0
LINE
  5
433
100
AcDbEntity
  8
DRAFT
100
AcDbLine
 62
253
  6
CONTINUOUS
 10
-38.5738528164
 20
-0.661001158
 11
-38.5337061671
 21
-0.661001158
  0
LINE
  5
434
100
AcDbEntity
  8
DRAFT
100
AcDbLine
 62
253
  6
CONTINUOUS
 10
-30.351161232
 20
-0.661001158
 11
-30.3110145827
 21
-0.661001158
  0
LINE
  5
435
100
AcDbEntity
  8
DRAFT
100
AcDbLine
 62
253
  6
CONTINUOUS
 10
-26.7738528164
 20
-0.661001158
 11
-26.7337061671
 21
-0.661001158
  0
LINE
  5
436
100
AcDbEntity
  8
DRAFT
100
AcDbLine
 62
253
  6
CONTINUOUS
 10
29.648838768
 20
-0.661001158
 11
29.6889854173
 21
-0.661001158
  0
LINE
  5
437
100
AcDbEntity
  8
DRAFT
100
AcDbLine
 62
253
  6
CONTINUOUS
 10
33.2261471836
 20
-0.661001158
 11
33.2662938329
 21
-0.661001158
  0
LINE
  5
438
100
AcDbEntity
  8
DRAFT
100
AcDbLine
 62
253
  6
CONTINUOUS
 10
41.448838768
 20
-0.661001158
 11
41.4889854173
 21
-0.661001158
  0
LINE
  5
439
100
AcDbEntity
  8
DRAFT
100
AcDbLine
 62
253
  6
CONTINUOUS
 10
45.0261471836
 20
-0.661001158
 11
45.0662938329
 21
-0.661001158
  0
LINE
  5
43A
100
AcDbEntity
  8
RACCORDO
100
AcDbLine
 62
253
  6
CONTINUOUS
 10
36.6445206932
 20
-43.1479098593
 11
36.4917124756
 21
-42.9951016417
  0
LINE
  5
43B
100
AcDbEntity
  8
RACCORDO
100
AcDbLine
 62
253
  6
CONTINUOUS
 10
36.9391470924
 20
-42.8426276414
 11
36.7916667842
 21
-42.6951473331
  0
LINE
  5
43C
100
AcDbEntity
  8
RACCORDO
100
AcDbLine
 62
7
  6
CONTINUOUS
 10
36.7269157371
 20
-40.9303505946
 11
36.9486864516
 21
-41.152121309
  0
LINE
  5
43D
100
AcDbEntity
  8
DRAFT
100
AcDbLine
 62
7
  6
CONTINUOUS
 10
30.4575663005
 20
-32.661001158
 11
30.1401777352
 21
-32.3436125927
  0
LINE
  5
43E
100
AcDbEntity
  8
DRAFT
100
AcDbLine
 62
7
  6
CONTINUOUS
 10
-38.6899177652
 20
40.8547072041
 11
-38.5529059409
 21
40.7176953798
  0
LINE
  5
43F
100
AcDbEntity
  8
DRAFT
100
AcDbLine
 62
7
  6
CONTINUOUS
 10
41.6050503661
 20
-37.17670952
 11
41.4680385418
 21
-37.0396976957
  0
LINE
  5
440
100
AcDbEntity
  8
RACCORDO
100
AcDbLine
 62
7
  6
CONTINUOUS
 10
-27.6077787995
 20
40.7532621055
 11
-27.6603581294
 21
40.8331624641
  0
LINE
  5
441
100
AcDbEntity
  8
DRAFT
100
AcDbLine
 62
7
  6
CONTINUOUS
 10
31.4575663005
 20
39.3651814394
 11
31.4697839154
 21
39.3896185303
  0
LINE
  5
442
100
AcDbEntity
  8
RACCORDO
100
AcDbLine
 62
7
  6
CONTINUOUS
 10
30.5229114004
 20
40.7532621055
 11
30.5754907303
 21
40.8331624641
  0
LWPOLYLINE
  5
443
100
AcDbEntity
  8
RACCORDO
100
AcDbPolyline
 62
7
  6
CONTINUOUS
 90
4
 70
0
 10
-34.2807642714
 20
-42.8811841497
 10
-34.2638296892
 20
-42.8623447105
 10
-34.2488323842
 20
-42.8425630562
 10
-34.2358513961
 20
-42.8221842685
  0
LINE
  5
444
100
AcDbEntity
  8
DRAFT
100
AcDbLine
 62
7
  6
CONTINUOUS
 10
-27.5424336995
 20
-32.661001158
 11
-27.2250451342
 21
-32.3436125927
  0
LINE
  5
445
100
AcDbEntity
  8
RACCORDO
100
AcDbLine
 62
7
  6
CONTINUOUS
 10
-33.8117831362
 20
-40.9303505946
 11
-34.0335538506
 21
-41.152121309
  0
LINE
  5
446
100
AcDbEntity
  8
RACCORDO
100
AcDbLine
 62
253
  6
CONTINUOUS
 10
-33.8765341832
 20
-42.6951473331
 11
-34.0240144915
 21
-42.8426276414
  0
LINE
  5
447
100
AcDbEntity
  8
RACCORDO
100
AcDbLine
 62
253
  6
CONTINUOUS
 10
-33.5765798747
 20
-42.9951016417
 11
-33.7293880923
 21
-43.1479098593
  0
LINE
  5
448
100
AcDbEntity
  8
DRAFT
100
AcDbLine
 62
253
  6
CONTINUOUS
 10
41.4889854173
 20
4.338998842
 11
41.448838768
 21
4.338998842
  0
LINE
  5
449
100
AcDbEntity
  8
DRAFT
100
AcDbLine
 62
253
  6
CONTINUOUS
 10
-38.5738528164
 20
4.338998842
 11
-38.5337061671
 21
4.338998842
  0
LINE
  5
44A
100
AcDbEntity
  8
DRAFT
100
AcDbLine
 62
253
  6
CONTINUOUS
 10
29.6889854173
 20
4.338998842
 11
29.648838768
 21
4.338998842
  0
LINE
  5
44B
100
AcDbEntity
  8
DRAFT
100
AcDbLine
 62
253
  6
CONTINUOUS
 10
-26.7738528164
 20
4.338998842
 11
-26.7337061671
 21
4.338998842
  0
LINE
  5
44C
100
AcDbEntity
  8
DRAFT
100
AcDbLine
 62
253
  6
CONTINUOUS
 10
-30.3110145827
 20
4.338998842
 11
-30.351161232
 21
4.338998842
  0
LINE
  5
44D
100
AcDbEntity
  8
DRAFT
100
AcDbLine
 62
253
  6
CONTINUOUS
 10
33.2261471836
 20
4.338998842
 11
33.2662938329
 21
4.338998842
  0
LINE
  5
44E
100
AcDbEntity
  8
DRAFT
100
AcDbLine
 62
253
  6
CONTINUOUS
 10
-42.1110145827
 20
4.338998842
 11
-42.151161232
 21
4.338998842
  0
LINE
  5
44F
100
AcDbEntity
  8
DRAFT
100
AcDbLine
 62
253
  6
CONTINUOUS
 10
45.0261471836
 20
4.338998842
 11
45.0662938329
 21
4.338998842
  0
LINE
  5
450
100
AcDbEntity
  8
DRAFT
100
AcDbLine
 62
7
  6
CONTINUOUS
 10
-27.5424336995
 20
36.338998842
 11
-27.2250451342
 21
36.0216102768
  0
LWPOLYLINE
  5
451
100
AcDbEntity
  8
RACCORDO
100
AcDbPolyline
 62
7
  6
CONTINUOUS
 90
4
 70
0
 10
37.1531060859
 20
-42.8257738148
 10
37.1670500434
 20
-42.8469188251
 10
37.1829959376
 20
-42.8671293707
 10
37.2011407977
 20
-42.8864142014
  0
LINE
  5
452
100
AcDbEntity
  8
RACCORDO
100
AcDbLine
 62
7
  6
CONTINUOUS
 10
30.5229114004
 20
-37.0752644215
 11
30.5754907303
 21
-37.15516478
  0
LINE
  5
453
100
AcDbEntity
  8
RACCORDO
100
AcDbLine
 62
7
  6
CONTINUOUS
 10
37.1413135255
 20
-42.804185162
 11
37.1531060859
 21
-42.8257738148
  0
LINE
  5
454
100
AcDbEntity
  8
DRAFT
100
AcDbLine
 62
7
  6
CONTINUOUS
 10
31.4575663005
 20
-35.6871837553
 11
31.4697839154
 21
-35.7116208462
  0
LINE
  5
455
100
AcDbEntity
  8
RACCORDO
100
AcDbLine
 62
253
  6
CONTINUOUS
 10
64.944703459
 20
46.8259075433
 11
64.7918952414
 21
46.6730993257
  0
LINE
  5
456
100
AcDbEntity
  8
RACCORDO
100
AcDbLine
 62
253
  6
CONTINUOUS
 10
60.5027282412
 20
42.3330495222
 11
60.9490979095
 21
42.7794191905
  0
LINE
  5
457
100
AcDbEntity
  8
RACCORDO
100
AcDbLine
 62
253
  6
CONTINUOUS
 10
63.9668298564
 20
45.7971511374
 11
64.8088561759
 21
46.6391774569
  0
LINE
  5
458
100
AcDbEntity
  8
RACCORDO
100
AcDbLine
 62
253
  6
CONTINUOUS
 10
61.9516169806
 20
40.8841607828
 11
62.397986649
 21
41.3305304511
  0
LINE
  5
459
100
AcDbEntity
  8
RACCORDO
100
AcDbLine
 62
253
  6
CONTINUOUS
 10
65.4157185958
 20
44.3482623979
 11
66.2577449153
 21
45.1902887174
  0
LINE
  5
45A
100
AcDbEntity
  8
RACCORDO
100
AcDbLine
 62
253
  6
CONTINUOUS
 10
66.4444750018
 20
45.3261360006
 11
66.2916667842
 21
45.173327783
  0
LINE
  5
45B
100
AcDbEntity
  8
RACCORDO
100
AcDbLine
 62
253
  6
CONTINUOUS
 10
64.944703459
 20
-43.1479098593
 11
64.7918952414
 21
-42.9951016417
  0
LINE
  5
45C
100
AcDbEntity
  8
RACCORDO
100
AcDbLine
 62
253
  6
CONTINUOUS
 10
60.9490979095
 20
-39.1014215065
 11
60.5027282412
 21
-38.6550518381
  0
LINE
  5
45D
100
AcDbEntity
  8
RACCORDO
100
AcDbLine
 62
253
  6
CONTINUOUS
 10
63.9668298564
 20
-42.1191534533
 11
64.8088561759
 21
-42.9611797728
  0
LINE
  5
45E
100
AcDbEntity
  8
RACCORDO
100
AcDbLine
 62
253
  6
CONTINUOUS
 10
62.397986649
 20
-37.652532767
 11
61.9516169806
 21
-37.2061630987
  0
LINE
  5
45F
100
AcDbEntity
  8
RACCORDO
100
AcDbLine
 62
253
  6
CONTINUOUS
 10
65.4157185958
 20
-40.6702647138
 11
66.2577449153
 21
-41.5122910334
  0
LINE
  5
460
100
AcDbEntity
  8
RACCORDO
100
AcDbLine
 62
253
  6
CONTINUOUS
 10
66.4444750018
 20
-41.6481383165
 11
66.2916667842
 21
-41.4953300989
  0
LWPOLYLINE
  5
461
100
AcDbEntity
  8
RACCORDO
100
AcDbPolyline
 62
7
  6
CONTINUOUS
 90
3
 70
0
 10
37.12459322
 20
-42.7629531577
 10
37.1319329432
 20
-42.7832346624
 10
37.1413135255
 20
-42.804185162
  0
LINE
  5
462
100
AcDbEntity
  8
ASSI
100
AcDbLine
 62
7
  6
CONTINUOUS
 10
27.6575663005
 20
4.338998842
 11
27.6575663005
 21
-0.661001158
  0
LINE
  5
463
100
AcDbEntity
  8
DRAFT
100
AcDbLine
 62
7
  6
CONTINUOUS
 10
29.648838768
 20
-0.661001158
 11
29.648838768
 21
4.338998842
  0
LINE
  5
464
100
AcDbEntity
  8
RACCORDO
100
AcDbLine
 62
7
  6
CONTINUOUS
 10
31.4466173046
 20
36.8650277132
 11
31.4575663005
 21
36.908840381
  0
LINE
  5
465
100
AcDbEntity
  8
RACCORDO
100
AcDbLine
 62
7
  6
CONTINUOUS
 10
37.1193362286
 20
-42.7446983379
 11
37.12459322
 21
-42.7629531577
  0
LINE
  5
466
100
AcDbEntity
  8
RACCORDO
100
AcDbLine
 62
7
  6
CONTINUOUS
 10
37.119335915
 20
-42.7446984167
 11
37.0757690853
 21
-42.57037712
  0
LINE
  5
467
100
AcDbEntity
  8
RACCORDO
100
AcDbLine
 62
253
  6
CONTINUOUS
 10
37.1100681287
 20
-42.6706618069
 11
37.0702684831
 21
-42.5114025763
  0
LINE
  5
468
100
AcDbEntity
  8
RACCORDO
100
AcDbLine
 62
253
  6
CONTINUOUS
 10
36.4887633264
 20
-42.9611797728
 11
36.4339110466
 21
-42.1191534533
  0
LINE
  5
469
100
AcDbEntity
  8
RACCORDO
100
AcDbLine
 62
253
  6
CONTINUOUS
 10
36.7887176349
 20
-42.6714020249
 11
36.7338653551
 21
-41.8293757054
  0
LINE
  5
46A
100
AcDbEntity
  8
RACCORDO
100
AcDbLine
 62
7
  6
CONTINUOUS
 10
31.4839131272
 20
-34.9030368911
 11
31.4575663005
 21
-33.4952320126
  0
LINE
  5
46B
100
AcDbEntity
  8
RACCORDO
100
AcDbLine
 62
7
  6
CONTINUOUS
 10
32.635749131
 20
38.338998842
 11
32.6575663005
 21
37.1732296967
  0
LINE
  5
46C
100
AcDbEntity
  8
RACCORDO
100
AcDbLine
 62
7
  6
CONTINUOUS
 10
36.9391965086
 20
-42.3660484264
 11
36.9391470924
 21
-42.361001158
  0
LINE
  5
46D
100
AcDbEntity
  8
RACCORDO
100
AcDbLine
 62
7
  6
CONTINUOUS
 10
36.9391965558
 20
-42.8477648694
 11
36.9391470924
 21
-42.8426276414
  0
LINE
  5
46E
100
AcDbEntity
  8
RACCORDO
100
AcDbLine
 62
7
  6
CONTINUOUS
 10
31.4851198686
 20
39.5499714413
 11
31.480578086
 21
40.1746823724
  0
LINE
  5
46F
100
AcDbEntity
  8
DRAFT
100
AcDbLine
 62
7
  6
CONTINUOUS
 10
29.6889854173
 20
4.338998842
 11
29.6889854173
 21
-0.661001158
  0
LINE
  5
470
100
AcDbEntity
  8
DRAFT
100
AcDbLine
 62
7
  6
CONTINUOUS
 10
30.1401777352
 20
-37.17670952
 11
30.1401777352
 21
-32.3436125927
  0
LINE
  5
471
100
AcDbEntity
  8
DRAFT
100
AcDbLine
 62
7
  6
CONTINUOUS
 10
30.1401777352
 20
36.0216102768
 11
30.1401777352
 21
40.8547072041
  0
LINE
  5
472
100
AcDbEntity
  8
RACCORDO
100
AcDbLine
 62
7
  6
CONTINUOUS
 10
30.4575663005
 20
-36.5923015083
 11
30.4575663005
 21
-32.661001158
  0
LINE
  5
473
100
AcDbEntity
  8
RACCORDO
100
AcDbLine
 62
7
  6
CONTINUOUS
 10
30.4575663005
 20
36.338998842
 11
30.4575663005
 21
40.2702991924
  0
LINE
  5
474
100
AcDbEntity
  8
DRAFT
100
AcDbLine
 62
7
  6
CONTINUOUS
 10
30.9837488979
 20
40.8128162447
 11
30.9837488979
 21
39.3651814394
  0
LINE
  5
475
100
AcDbEntity
  8
DRAFT
100
AcDbLine
 62
7
  6
CONTINUOUS
 10
30.9837488979
 20
-35.6871837553
 11
30.9837488979
 21
-37.1348185606
  0
LINE
  5
476
100
AcDbEntity
  8
DRAFT
100
AcDbLine
 62
7
  6
CONTINUOUS
 10
31.4575663005
 20
-35.6871837553
 11
31.4575663005
 21
-33.4952320126
  0
LINE
  5
477
100
AcDbEntity
  8
RACCORDO
100
AcDbLine
 62
7
  6
CONTINUOUS
 10
31.4575663005
 20
36.908840381
 11
31.4575663005
 21
37.1732296967
  0
LINE
  5
478
100
AcDbEntity
  8
RACCORDO
100
AcDbLine
 62
7
  6
CONTINUOUS
 10
31.4575663005
 20
38.1642357883
 11
31.4575663005
 21
39.3651814394
  0
LINE
  5
479
100
AcDbEntity
  8
RACCORDO
100
AcDbLine
 62
7
  6
CONTINUOUS
 10
31.4697839154
 20
40.1250282379
 11
31.4697839154
 21
39.3896185303
  0
LINE
  5
47A
100
AcDbEntity
  8
RACCORDO
100
AcDbLine
 62
7
  6
CONTINUOUS
 10
31.4697839154
 20
-35.7116208462
 11
31.4697839154
 21
-36.4470305538
  0
LINE
  5
47B
100
AcDbEntity
  8
RACCORDO
100
AcDbLine
 62
7
  6
CONTINUOUS
 10
31.4859286208
 20
-35.615945205
 11
31.4859286208
 21
-35.2655600059
  0
LINE
  5
47C
100
AcDbEntity
  8
RACCORDO
100
AcDbLine
 62
7
  6
CONTINUOUS
 10
31.4859286208
 20
38.94355769
 11
31.4859286208
 21
39.293942889
  0
LINE
  5
47D
100
AcDbEntity
  8
RACCORDO
100
AcDbLine
 62
7
  6
CONTINUOUS
 10
32.4373733363
 20
-37.0396976957
 11
32.4373733363
 21
-36.6470305538
  0
LINE
  5
47E
100
AcDbEntity
  8
RACCORDO
100
AcDbLine
 62
7
  6
CONTINUOUS
 10
32.4373733363
 20
40.3250282379
 11
32.4373733363
 21
40.7176953798
  0
LINE
  5
47F
100
AcDbEntity
  8
DRAFT
100
AcDbLine
 62
7
  6
CONTINUOUS
 10
32.6575663005
 20
-34.661001158
 11
32.6575663005
 21
-33.4952320126
  0
LINE
  5
480
100
AcDbEntity
  8
RACCORDO
100
AcDbLine
 62
7
  6
CONTINUOUS
 10
32.6575663005
 20
36.908840381
 11
32.6575663005
 21
37.1732296967
  0
LINE
  5
481
100
AcDbEntity
  8
RACCORDO
100
AcDbLine
 62
7
  6
CONTINUOUS
 10
32.6575663005
 20
38.1642357883
 11
32.6575663005
 21
38.338998842
  0
LINE
  5
482
100
AcDbEntity
  8
DRAFT
100
AcDbLine
 62
7
  6
CONTINUOUS
 10
33.2261471836
 20
-0.661001158
 11
33.2261471836
 21
4.338998842
  0
LINE
  5
483
100
AcDbEntity
  8
DRAFT
100
AcDbLine
 62
7
  6
CONTINUOUS
 10
33.2662938329
 20
4.338998842
 11
33.2662938329
 21
-0.661001158
  0
LINE
  5
484
100
AcDbEntity
  8
ASSI
100
AcDbLine
 62
7
  6
CONTINUOUS
 10
35.2575663005
 20
-0.661001158
 11
35.2575663005
 21
4.338998842
  0
LINE
  5
485
100
AcDbEntity
  8
RACCORDO
100
AcDbLine
 62
253
  6
CONTINUOUS
 10
36.4183862125
 20
-40.6702647138
 11
36.4183862125
 21
-40.1304724385
  0
LINE
  5
486
100
AcDbEntity
  8
RACCORDO
100
AcDbLine
 62
253
  6
CONTINUOUS
 10
36.9391470924
 20
-42.361001158
 11
36.9391927839
 21
-42.3661393339
  0
LINE
  5
487
100
AcDbEntity
  8
RACCORDO
100
AcDbLine
 62
7
  6
CONTINUOUS
 10
36.9391927839
 20
-42.3661393339
 11
36.9391927839
 21
-42.8478570021
  0
LINE
  5
488
100
AcDbEntity
  8
RACCORDO
100
AcDbLine
 62
7
  6
CONTINUOUS
 10
36.9522840826
 20
-42.3661407649
 11
36.9522840826
 21
-41.1521974615
  0
LINE
  5
489
100
AcDbEntity
  8
ASSI
100
AcDbLine
 62
7
  6
CONTINUOUS
 10
36.9575663005
 20
-42.8609097159
 11
36.9575663005
 21
-42.3661393339
  0
LINE
  5
48A
100
AcDbEntity
  8
RACCORDO
100
AcDbLine
 62
7
  6
CONTINUOUS
 10
36.9575663005
 20
-42.8609097159
 11
36.9575663005
 21
-42.3661393339
  0
LINE
  5
48B
100
AcDbEntity
  8
DRAFT
100
AcDbLine
 62
7
  6
CONTINUOUS
 10
37.0668068755
 20
-41.1521974615
 11
37.0668068755
 21
-41.3794684827
  0
LINE
  5
48C
100
AcDbEntity
  8
DRAFT
100
AcDbLine
 62
7
  6
CONTINUOUS
 10
38.3575663005
 20
-41.1521974615
 11
38.3575663005
 21
-41.3794684827
  0
LINE
  5
48D
100
AcDbEntity
  8
RACCORDO
100
AcDbLine
 62
7
  6
CONTINUOUS
 10
31.480578086
 20
-36.4966846883
 11
31.4851198686
 21
-35.8719737572
  0
LINE
  5
48E
100
AcDbEntity
  8
RACCORDO
100
AcDbLine
 62
7
  6
CONTINUOUS
 10
31.4839131272
 20
38.5810345752
 11
31.4575663005
 21
37.1732296967
  0
LINE
  5
48F
100
AcDbEntity
  8
DRAFT
100
AcDbLine
 62
7
  6
CONTINUOUS
 10
32.6575663005
 20
-33.4952320126
 11
32.635749131
 21
-34.661001158
  0
LINE
  5
490
100
AcDbEntity
  8
RACCORDO
100
AcDbLine
 62
7
  6
CONTINUOUS
 10
40.2466173046
 20
36.8650277132
 11
40.2575663005
 21
36.908840381
  0
LINE
  5
491
100
AcDbEntity
  8
DRAFT
100
AcDbLine
 62
7
  6
CONTINUOUS
 10
41.6050503661
 20
36.0216102768
 11
30.1401777352
 21
36.0216102768
  0
LINE
  5
492
100
AcDbEntity
  8
DRAFT
100
AcDbLine
 62
7
  6
CONTINUOUS
 10
-27.2250451342
 20
36.0216102768
 11
-38.6899177652
 21
36.0216102768
  0
LINE
  5
493
100
AcDbEntity
  8
DRAFT
100
AcDbLine
 62
7
  6
CONTINUOUS
 10
41.5893420041
 20
36.338998842
 11
30.4575663005
 21
36.338998842
  0
LINE
  5
494
100
AcDbEntity
  8
DRAFT
100
AcDbLine
 62
7
  6
CONTINUOUS
 10
-27.5424336995
 20
36.338998842
 11
-38.6742094032
 21
36.338998842
  0
LINE
  5
495
100
AcDbEntity
  8
RACCORDO
100
AcDbLine
 62
253
  6
CONTINUOUS
 10
-38.6742094032
 20
36.6458610871
 11
-27.5424336995
 21
36.6458610871
  0
LINE
  5
496
100
AcDbEntity
  8
RACCORDO
100
AcDbLine
 62
253
  6
CONTINUOUS
 10
30.4575663005
 20
36.6458610871
 11
41.5893420041
 21
36.6458610871
  0
LINE
  5
497
100
AcDbEntity
  8
RACCORDO
100
AcDbLine
 62
253
  6
CONTINUOUS
 10
-38.6742094032
 20
36.8457392525
 11
-27.5424336995
 21
36.8457392525
  0
LINE
  5
498
100
AcDbEntity
  8
RACCORDO
100
AcDbLine
 62
253
  6
CONTINUOUS
 10
30.4575663005
 20
36.8457392525
 11
41.5893420041
 21
36.8457392525
  0
LINE
  5
499
100
AcDbEntity
  8
RACCORDO
100
AcDbLine
 62
253
  6
CONTINUOUS
 10
41.563313133
 20
36.8650277132
 11
41.4685152963
 21
36.8650277132
  0
LINE
  5
49A
100
AcDbEntity
  8
RACCORDO
100
AcDbLine
 62
253
  6
CONTINUOUS
 10
-38.6481805321
 20
36.8650277132
 11
-38.5533826954
 21
36.8650277132
  0
LINE
  5
49B
100
AcDbEntity
  8
RACCORDO
100
AcDbLine
 62
253
  6
CONTINUOUS
 10
-37.3314847037
 20
36.8650277132
 11
-29.7533826954
 21
36.8650277132
  0
LINE
  5
49C
100
AcDbEntity
  8
RACCORDO
100
AcDbLine
 62
253
  6
CONTINUOUS
 10
40.2466173046
 20
36.8650277132
 11
32.6685152963
 21
36.8650277132
  0
LINE
  5
49D
100
AcDbEntity
  8
RACCORDO
100
AcDbLine
 62
253
  6
CONTINUOUS
 10
31.4466173046
 20
36.8650277132
 11
30.4575663005
 21
36.8650277132
  0
LINE
  5
49E
100
AcDbEntity
  8
RACCORDO
100
AcDbLine
 62
253
  6
CONTINUOUS
 10
-28.5314847037
 20
36.8650277132
 11
-27.5424336995
 21
36.8650277132
  0
LINE
  5
49F
100
AcDbEntity
  8
RACCORDO
100
AcDbLine
 62
7
  6
CONTINUOUS
 10
41.4575663005
 20
36.908840381
 11
40.2575663005
 21
36.908840381
  0
LINE
  5
4A0
100
AcDbEntity
  8
RACCORDO
100
AcDbLine
 62
7
  6
CONTINUOUS
 10
32.6575663005
 20
36.908840381
 11
31.4575663005
 21
36.908840381
  0
LINE
  5
4A1
100
AcDbEntity
  8
RACCORDO
100
AcDbLine
 62
7
  6
CONTINUOUS
 10
-28.5424336995
 20
36.908840381
 11
-29.7424336995
 21
36.908840381
  0
LINE
  5
4A2
100
AcDbEntity
  8
RACCORDO
100
AcDbLine
 62
7
  6
CONTINUOUS
 10
-37.3424336995
 20
36.908840381
 11
-38.5424336995
 21
36.908840381
  0
LINE
  5
4A3
100
AcDbEntity
  8
RACCORDO
100
AcDbLine
 62
7
  6
CONTINUOUS
 10
41.4575663005
 20
37.1732296967
 11
40.2575663005
 21
37.1732296967
  0
LINE
  5
4A4
100
AcDbEntity
  8
RACCORDO
100
AcDbLine
 62
7
  6
CONTINUOUS
 10
-38.5424336995
 20
37.1732296967
 11
-37.3424336995
 21
37.1732296967
  0
LINE
  5
4A5
100
AcDbEntity
  8
RACCORDO
100
AcDbLine
 62
7
  6
CONTINUOUS
 10
-28.5424336995
 20
37.1732296967
 11
-29.7424336995
 21
37.1732296967
  0
LINE
  5
4A6
100
AcDbEntity
  8
RACCORDO
100
AcDbLine
 62
7
  6
CONTINUOUS
 10
31.4575663005
 20
37.1732296967
 11
32.6575663005
 21
37.1732296967
  0
LINE
  5
4A7
100
AcDbEntity
  8
RACCORDO
100
AcDbLine
 62
253
  6
CONTINUOUS
 10
-37.3424336995
 20
38.1642357883
 11
-29.7424336995
 21
38.1642357883
  0
LINE
  5
4A8
100
AcDbEntity
  8
RACCORDO
100
AcDbLine
 62
253
  6
CONTINUOUS
 10
40.2575663005
 20
38.1642357883
 11
32.6575663005
 21
38.1642357883
  0
LINE
  5
4A9
100
AcDbEntity
  8
RACCORDO
100
AcDbLine
 62
253
  6
CONTINUOUS
 10
31.4575663005
 20
38.1642357883
 11
30.4575663005
 21
38.1642357883
  0
LINE
  5
4AA
100
AcDbEntity
  8
RACCORDO
100
AcDbLine
 62
253
  6
CONTINUOUS
 10
-28.5424336995
 20
38.1642357883
 11
-27.5424336995
 21
38.1642357883
  0
LINE
  5
4AB
100
AcDbEntity
  8
DRAFT
100
AcDbLine
 62
7
  6
CONTINUOUS
 10
40.27938347
 20
38.338998842
 11
32.635749131
 21
38.338998842
  0
LINE
  5
4AC
100
AcDbEntity
  8
DRAFT
100
AcDbLine
 62
7
  6
CONTINUOUS
 10
-29.72061653
 20
38.338998842
 11
-37.364250869
 21
38.338998842
  0
LINE
  5
4AD
100
AcDbEntity
  8
RACCORDO
100
AcDbLine
 62
253
  6
CONTINUOUS
 10
-38.5160868728
 20
38.5810345752
 11
-28.5687805262
 21
38.5810345752
  0
LINE
  5
4AE
100
AcDbEntity
  8
RACCORDO
100
AcDbLine
 62
253
  6
CONTINUOUS
 10
31.4839131272
 20
38.5810345752
 11
41.4312194738
 21
38.5810345752
  0
LINE
  5
4AF
100
AcDbEntity
  8
RACCORDO
100
AcDbLine
 62
253
  6
CONTINUOUS
 10
-38.5140713792
 20
38.94355769
 11
-28.5707960198
 21
38.94355769
  0
LINE
  5
4B0
100
AcDbEntity
  8
RACCORDO
100
AcDbLine
 62
253
  6
CONTINUOUS
 10
31.4859286208
 20
38.94355769
 11
41.4292039802
 21
38.94355769
  0
LINE
  5
4B1
100
AcDbEntity
  8
DRAFT
100
AcDbLine
 62
7
  6
CONTINUOUS
 10
41.5893420041
 20
36.338998842
 11
41.6050503661
 21
36.0216102768
  0
LINE
  5
4B2
100
AcDbEntity
  8
DRAFT
100
AcDbLine
 62
7
  6
CONTINUOUS
 10
40.27938347
 20
-34.661001158
 11
40.2575663005
 21
-33.4952320126
  0
LINE
  5
4B3
100
AcDbEntity
  8
RACCORDO
100
AcDbLine
 62
7
  6
CONTINUOUS
 10
41.4312194738
 20
38.5810345752
 11
41.4575663005
 21
37.1732296967
  0
LINE
  5
4B4
100
AcDbEntity
  8
RACCORDO
100
AcDbLine
 62
7
  6
CONTINUOUS
 10
41.434554515
 20
-36.4966846883
 11
41.4300127323
 21
-35.8719737572
  0
LINE
  5
4B5
100
AcDbEntity
  8
ASSI
100
AcDbLine
 62
7
  6
CONTINUOUS
 10
39.4575663005
 20
4.338998842
 11
39.4575663005
 21
-0.661001158
  0
LINE
  5
4B6
100
AcDbEntity
  8
DRAFT
100
AcDbLine
 62
7
  6
CONTINUOUS
 10
40.2575663005
 20
-34.661001158
 11
40.2575663005
 21
-33.4952320126
  0
LINE
  5
4B7
100
AcDbEntity
  8
RACCORDO
100
AcDbLine
 62
7
  6
CONTINUOUS
 10
40.2575663005
 20
36.908840381
 11
40.2575663005
 21
37.1732296967
  0
LINE
  5
4B8
100
AcDbEntity
  8
RACCORDO
100
AcDbLine
 62
7
  6
CONTINUOUS
 10
40.2575663005
 20
38.1642357883
 11
40.2575663005
 21
38.338998842
  0
LINE
  5
4B9
100
AcDbEntity
  8
RACCORDO
100
AcDbLine
 62
7
  6
CONTINUOUS
 10
41.4292039802
 20
-35.615945205
 11
41.4292039802
 21
-35.2655600059
  0
LINE
  5
4BA
100
AcDbEntity
  8
RACCORDO
100
AcDbLine
 62
7
  6
CONTINUOUS
 10
41.4292039802
 20
38.94355769
 11
41.4292039802
 21
39.293942889
  0
LINE
  5
4BB
100
AcDbEntity
  8
RACCORDO
100
AcDbLine
 62
7
  6
CONTINUOUS
 10
41.4453486856
 20
-35.761001158
 11
41.4453486856
 21
-35.7116208462
  0
LINE
  5
4BC
100
AcDbEntity
  8
RACCORDO
100
AcDbLine
 62
7
  6
CONTINUOUS
 10
41.4453486856
 20
39.3896185303
 11
41.4453486856
 21
39.438998842
  0
LINE
  5
4BD
100
AcDbEntity
  8
DRAFT
100
AcDbLine
 62
7
  6
CONTINUOUS
 10
41.448838768
 20
-0.661001158
 11
41.448838768
 21
4.338998842
  0
LINE
  5
4BE
100
AcDbEntity
  8
RACCORDO
100
AcDbLine
 62
7
  6
CONTINUOUS
 10
41.4575663005
 20
-35.761001158
 11
41.4575663005
 21
-33.2927768616
  0
LINE
  5
4BF
100
AcDbEntity
  8
RACCORDO
100
AcDbLine
 62
7
  6
CONTINUOUS
 10
41.4575663005
 20
36.908840381
 11
41.4575663005
 21
39.438998842
  0
LINE
  5
4C0
100
AcDbEntity
  8
RACCORDO
100
AcDbLine
 62
7
  6
CONTINUOUS
 10
41.4680385418
 20
-37.0396976957
 11
41.4680385418
 21
-35.961001158
  0
LINE
  5
4C1
100
AcDbEntity
  8
RACCORDO
100
AcDbLine
 62
7
  6
CONTINUOUS
 10
41.4680385418
 20
39.638998842
 11
41.4680385418
 21
40.7176953798
  0
LINE
  5
4C2
100
AcDbEntity
  8
DRAFT
100
AcDbLine
 62
7
  6
CONTINUOUS
 10
41.4889854173
 20
4.338998842
 11
41.4889854173
 21
-0.661001158
  0
LINE
  5
4C3
100
AcDbEntity
  8
DRAFT
100
AcDbLine
 62
7
  6
CONTINUOUS
 10
41.5893420041
 20
-33.161001158
 11
41.5893420041
 21
-32.661001158
  0
LINE
  5
4C4
100
AcDbEntity
  8
DRAFT
100
AcDbLine
 62
7
  6
CONTINUOUS
 10
41.6050503661
 20
40.8547072041
 11
41.6050503661
 21
36.0216102768
  0
LINE
  5
4C5
100
AcDbEntity
  8
DRAFT
100
AcDbLine
 62
7
  6
CONTINUOUS
 10
41.6050503661
 20
-32.3436125927
 11
41.6050503661
 21
-37.17670952
  0
LINE
  5
4C6
100
AcDbEntity
  8
RACCORDO
100
AcDbLine
 62
7
  6
CONTINUOUS
 10
43.9575663005
 20
-41.4945890824
 11
43.9575663005
 21
-41.1521974615
  0
LINE
  5
4C7
100
AcDbEntity
  8
RACCORDO
100
AcDbLine
 62
253
  6
CONTINUOUS
 10
44.8933350349
 20
-41.261001158
 11
44.8933350349
 21
-41.3714537318
  0
LINE
  5
4C8
100
AcDbEntity
  8
DRAFT
100
AcDbLine
 62
7
  6
CONTINUOUS
 10
45.0261471836
 20
-0.661001158
 11
45.0261471836
 21
4.338998842
  0
LINE
  5
4C9
100
AcDbEntity
  8
DRAFT
100
AcDbLine
 62
7
  6
CONTINUOUS
 10
45.0662938329
 20
4.338998842
 11
45.0662938329
 21
-0.661001158
  0
LINE
  5
4CA
100
AcDbEntity
  8
RACCORDO
100
AcDbLine
 62
7
  6
CONTINUOUS
 10
45.1933236118
 20
-41.261001158
 11
45.1933236118
 21
-41.3714537318
  0
LINE
  5
4CB
100
AcDbEntity
  8
RACCORDO
100
AcDbLine
 62
7
  6
CONTINUOUS
 10
45.2483257255
 20
-42.4871660611
 11
45.2483257255
 21
-42.2603035217
  0
LINE
  5
4CC
100
AcDbEntity
  8
ASSI
100
AcDbLine
 62
7
  6
CONTINUOUS
 10
45.3075663005
 20
-42.8609097159
 11
45.3075663005
 21
-42.3661393339
  0
LINE
  5
4CD
100
AcDbEntity
  8
RACCORDO
100
AcDbLine
 62
7
  6
CONTINUOUS
 10
45.3075663005
 20
-42.8609097159
 11
45.3075663005
 21
-42.3661393339
  0
LINE
  5
4CE
100
AcDbEntity
  8
RACCORDO
100
AcDbLine
 62
7
  6
CONTINUOUS
 10
45.3128485184
 20
-41.1521974615
 11
45.3128485184
 21
-42.3661407649
  0
LINE
  5
4CF
100
AcDbEntity
  8
RACCORDO
100
AcDbLine
 62
7
  6
CONTINUOUS
 10
45.3259398171
 20
-42.8478570021
 11
45.3259398171
 21
-42.3661393339
  0
LINE
  5
4D0
100
AcDbEntity
  8
RACCORDO
100
AcDbLine
 62
253
  6
CONTINUOUS
 10
45.3259398171
 20
-42.3661393339
 11
45.3259855085
 21
-42.361001158
  0
LINE
  5
4D1
100
AcDbEntity
  8
RACCORDO
100
AcDbLine
 62
253
  6
CONTINUOUS
 10
45.8467463884
 20
-40.1304724385
 11
45.8467463884
 21
-40.6702647138
  0
LINE
  5
4D2
100
AcDbEntity
  8
ASSI
100
AcDbLine
 62
7
  6
CONTINUOUS
 10
47.0575663005
 20
-0.661001158
 11
47.0575663005
 21
4.338998842
  0
LINE
  5
4D3
100
AcDbEntity
  8
RACCORDO
100
AcDbLine
 62
7
  6
CONTINUOUS
 10
41.4300127323
 20
39.5499714413
 11
41.434554515
 21
40.1746823724
  0
LINE
  5
4D4
100
AcDbEntity
  8
RACCORDO
100
AcDbLine
 62
7
  6
CONTINUOUS
 10
45.3259360451
 20
-42.8477648694
 11
45.3259855085
 21
-42.8426276414
  0
LINE
  5
4D5
100
AcDbEntity
  8
RACCORDO
100
AcDbLine
 62
7
  6
CONTINUOUS
 10
45.3259360924
 20
-42.3660484264
 11
45.3259855085
 21
-42.361001158
  0
LINE
  5
4D6
100
AcDbEntity
  8
RACCORDO
100
AcDbLine
 62
7
  6
CONTINUOUS
 10
40.2575663005
 20
37.1732296967
 11
40.27938347
 21
38.338998842
  0
LINE
  5
4D7
100
AcDbEntity
  8
RACCORDO
100
AcDbLine
 62
7
  6
CONTINUOUS
 10
41.4575663005
 20
-33.4952320126
 11
41.4312194738
 21
-34.9030368911
  0
LINE
  5
4D8
100
AcDbEntity
  8
DRAFT
100
AcDbLine
 62
7
  6
CONTINUOUS
 10
41.5893420041
 20
-32.661001158
 11
41.6050503661
 21
-32.3436125927
  0
LINE
  5
4D9
100
AcDbEntity
  8
DRAFT
100
AcDbLine
 62
7
  6
CONTINUOUS
 10
-29.5222407353
 20
40.7176953798
 11
-28.3646592147
 21
40.8331624641
  0
LINE
  5
4DA
100
AcDbEntity
  8
DRAFT
100
AcDbLine
 62
7
  6
CONTINUOUS
 10
-27.2250451342
 20
40.8547072041
 11
-27.6603581294
 21
40.8331624641
  0
LINE
  5
4DB
100
AcDbEntity
  8
RACCORDO
100
AcDbLine
 62
253
  6
CONTINUOUS
 10
-38.5140713792
 20
39.293942889
 11
-28.5707960198
 21
39.293942889
  0
LINE
  5
4DC
100
AcDbEntity
  8
RACCORDO
100
AcDbLine
 62
253
  6
CONTINUOUS
 10
31.4859286208
 20
39.293942889
 11
41.4292039802
 21
39.293942889
  0
LINE
  5
4DD
100
AcDbEntity
  8
DRAFT
100
AcDbLine
 62
7
  6
CONTINUOUS
 10
-28.5424336995
 20
39.3651814394
 11
-28.0686162969
 21
39.3651814394
  0
LINE
  5
4DE
100
AcDbEntity
  8
DRAFT
100
AcDbLine
 62
7
  6
CONTINUOUS
 10
30.9837488979
 20
39.3651814394
 11
31.4575663005
 21
39.3651814394
  0
LINE
  5
4DF
100
AcDbEntity
  8
RACCORDO
100
AcDbLine
 62
7
  6
CONTINUOUS
 10
-38.5511605673
 20
39.438998842
 11
-38.5302160846
 21
39.438998842
  0
LINE
  5
4E0
100
AcDbEntity
  8
RACCORDO
100
AcDbLine
 62
7
  6
CONTINUOUS
 10
41.4453486856
 20
39.438998842
 11
41.4662931683
 21
39.438998842
  0
LINE
  5
4E1
100
AcDbEntity
  8
RACCORDO
100
AcDbLine
 62
253
  6
CONTINUOUS
 10
-38.5148801314
 20
39.5499714413
 11
-28.5699872677
 21
39.5499714413
  0
LINE
  5
4E2
100
AcDbEntity
  8
RACCORDO
100
AcDbLine
 62
253
  6
CONTINUOUS
 10
31.4851198686
 20
39.5499714413
 11
41.4300127323
 21
39.5499714413
  0
LINE
  5
4E3
100
AcDbEntity
  8
RACCORDO
100
AcDbLine
 62
253
  6
CONTINUOUS
 10
-38.5529059409
 20
39.638998842
 11
-38.5302160846
 21
39.638998842
  0
LINE
  5
4E4
100
AcDbEntity
  8
RACCORDO
100
AcDbLine
 62
253
  6
CONTINUOUS
 10
41.4453486856
 20
39.638998842
 11
41.4680385418
 21
39.638998842
  0
LINE
  5
4E5
100
AcDbEntity
  8
0
100
AcDbLine
 62
7
  6
CONTINUOUS
 10
-28.5546513144
 20
40.038998842
 11
-28.0686162969
 21
40.038998842
  0
LINE
  5
4E6
100
AcDbEntity
  8
0
100
AcDbLine
 62
7
  6
CONTINUOUS
 10
30.9837488979
 20
40.038998842
 11
31.4697839154
 21
40.038998842
  0
LINE
  5
4E7
100
AcDbEntity
  8
RACCORDO
100
AcDbLine
 62
253
  6
CONTINUOUS
 10
-38.519421914
 20
40.1746823724
 11
-28.565445485
 21
40.1746823724
  0
LINE
  5
4E8
100
AcDbEntity
  8
RACCORDO
100
AcDbLine
 62
253
  6
CONTINUOUS
 10
31.480578086
 20
40.1746823724
 11
41.434554515
 21
40.1746823724
  0
LINE
  5
4E9
100
AcDbEntity
  8
ASSI
100
AcDbLine
 62
7
  6
CONTINUOUS
 10
31.471528042
 20
40.238998842
 11
30.9837488979
 21
40.238998842
  0
LINE
  5
4EA
100
AcDbEntity
  8
ASSI
100
AcDbLine
 62
7
  6
CONTINUOUS
 10
-28.0686162969
 20
40.238998842
 11
-28.5563973482
 21
40.238998842
  0
LINE
  5
4EB
100
AcDbEntity
  8
RACCORDO
100
AcDbLine
 62
7
  6
CONTINUOUS
 10
-38.5220734468
 20
40.3186385893
 11
-28.5627939522
 21
40.3186385893
  0
LINE
  5
4EC
100
AcDbEntity
  8
RACCORDO
100
AcDbLine
 62
7
  6
CONTINUOUS
 10
31.4779265532
 20
40.3186385893
 11
41.4372060478
 21
40.3186385893
  0
LINE
  5
4ED
100
AcDbEntity
  8
DRAFT
100
AcDbLine
 62
7
  6
CONTINUOUS
 10
41.4680385418
 20
40.7176953798
 11
32.4373733363
 21
40.7176953798
  0
LINE
  5
4EE
100
AcDbEntity
  8
DRAFT
100
AcDbLine
 62
7
  6
CONTINUOUS
 10
-29.5222407353
 20
40.7176953798
 11
-38.5529059409
 21
40.7176953798
  0
LINE
  5
4EF
100
AcDbEntity
  8
DRAFT
100
AcDbLine
 62
7
  6
CONTINUOUS
 10
31.4837668943
 20
40.8128162447
 11
30.9837488979
 21
40.8128162447
  0
LINE
  5
4F0
100
AcDbEntity
  8
DRAFT
100
AcDbLine
 62
7
  6
CONTINUOUS
 10
-28.0686162969
 20
40.8128162447
 11
-28.5686342934
 21
40.8128162447
  0
LINE
  5
4F1
100
AcDbEntity
  8
DRAFT
100
AcDbLine
 62
7
  6
CONTINUOUS
 10
-28.3646592147
 20
40.8331624641
 11
-27.6603581294
 21
40.8331624641
  0
LINE
  5
4F2
100
AcDbEntity
  8
DRAFT
100
AcDbLine
 62
7
  6
CONTINUOUS
 10
30.5754907303
 20
40.8331624641
 11
31.2797918157
 21
40.8331624641
  0
LINE
  5
4F3
100
AcDbEntity
  8
DRAFT
100
AcDbLine
 62
7
  6
CONTINUOUS
 10
-38.6899177652
 20
40.8547072041
 11
-27.2250451342
 21
40.8547072041
  0
LINE
  5
4F4
100
AcDbEntity
  8
DRAFT
100
AcDbLine
 62
7
  6
CONTINUOUS
 10
30.1401777352
 20
40.8547072041
 11
41.6050503661
 21
40.8547072041
  0
LINE
  5
4F5
100
AcDbEntity
  8
RACCORDO
100
AcDbLine
 62
253
  6
CONTINUOUS
 10
-59.0364843797
 20
40.8841607828
 11
61.9516169806
 21
40.8841607828
  0
LINE
  5
4F6
100
AcDbEntity
  8
RACCORDO
100
AcDbLine
 62
253
  6
CONTINUOUS
 10
-59.482854048
 20
41.3305304511
 11
-59.7726317959
 21
41.3305304511
  0
LINE
  5
4F7
100
AcDbEntity
  8
RACCORDO
100
AcDbLine
 62
253
  6
CONTINUOUS
 10
62.397986649
 20
41.3305304511
 11
62.6877643969
 21
41.3305304511
  0
LINE
  5
4F8
100
AcDbEntity
  8
RACCORDO
100
AcDbLine
 62
253
  6
CONTINUOUS
 10
-57.5875956403
 20
42.3330495222
 11
60.5027282412
 21
42.3330495222
  0
LINE
  5
4F9
100
AcDbEntity
  8
RACCORDO
100
AcDbLine
 62
253
  6
CONTINUOUS
 10
-58.0339653086
 20
42.7794191905
 11
60.9490979095
 21
42.7794191905
  0
LINE
  5
4FA
100
AcDbEntity
  8
RACCORDO
100
AcDbLine
 62
253
  6
CONTINUOUS
 10
-58.0339653086
 20
43.0691969384
 11
60.9490979095
 21
43.0691969384
  0
LINE
  5
4FB
100
AcDbEntity
  8
RACCORDO
100
AcDbLine
 62
253
  6
CONTINUOUS
 10
-62.5005859948
 20
44.3482623979
 11
65.4157185958
 21
44.3482623979
  0
LINE
  5
4FC
100
AcDbEntity
  8
RACCORDO
100
AcDbLine
 62
253
  6
CONTINUOUS
 10
-63.3426123144
 20
45.173327783
 11
-63.3765341832
 21
45.173327783
  0
LINE
  5
4FD
100
AcDbEntity
  8
RACCORDO
100
AcDbLine
 62
253
  6
CONTINUOUS
 10
66.2577449153
 20
45.173327783
 11
66.2916667841
 21
45.1733277011
  0
LINE
  5
4FE
100
AcDbEntity
  8
RACCORDO
100
AcDbLine
 62
253
  6
CONTINUOUS
 10
-61.0516972554
 20
45.7971511374
 11
63.9668298564
 21
45.7971511374
  0
LINE
  5
4FF
100
AcDbEntity
  8
RACCORDO
100
AcDbLine
 62
253
  6
CONTINUOUS
 10
64.8088561759
 20
46.6391774569
 11
-61.8937235749
 21
46.6391774569
  0
LINE
  5
500
100
AcDbEntity
  8
RACCORDO
100
AcDbLine
 62
253
  6
CONTINUOUS
 10
64.7918952414
 20
46.6730993257
 11
-61.8767626405
 21
46.6730993257
  0
LINE
  5
501
100
AcDbEntity
  8
RACCORDO
100
AcDbLine
 62
7
  6
CONTINUOUS
 10
-62.0295708581
 20
46.8259075433
 11
64.944703459
 21
46.8259075433
  0
LINE
  5
502
100
AcDbEntity
  8
ASSI
100
AcDbLine
 62
7
  6
CONTINUOUS
 10
-61.5436520455
 20
46.838998842
 11
64.4587846464
 21
46.838998842
  0
LINE
  5
503
100
AcDbEntity
  8
RACCORDO
100
AcDbLine
 62
7
  6
CONTINUOUS
 10
-61.5436520455
 20
46.838998842
 11
64.4587846464
 21
46.838998842
  0
LINE
  5
504
100
AcDbEntity
  8
DRAFT
100
AcDbLine
 62
7
  6
CONTINUOUS
 10
30.5754907303
 20
40.8331624641
 11
30.1401777352
 21
40.8547072041
  0
LINE
  5
505
100
AcDbEntity
  8
DRAFT
100
AcDbLine
 62
7
  6
CONTINUOUS
 10
31.2797918157
 20
40.8331624641
 11
32.4373733363
 21
40.7176953798
  0
LINE
  5
506
100
AcDbEntity
  8
RACCORDO
100
AcDbLine
 62
7
  6
CONTINUOUS
 10
32.6685152963
 20
36.8650277132
 11
32.6575663005
 21
36.908840381
  0
LINE
  5
507
100
AcDbEntity
  8
RACCORDO
100
AcDbLine
 62
253
  6
CONTINUOUS
 10
45.5312672458
 20
-41.8293757054
 11
45.476414966
 21
-42.6714020249
  0
LINE
  5
508
100
AcDbEntity
  8
RACCORDO
100
AcDbLine
 62
253
  6
CONTINUOUS
 10
45.8312215544
 20
-42.1191534533
 11
45.7763692746
 21
-42.9611797728
  0
LINE
  5
509
100
AcDbEntity
  8
RACCORDO
100
AcDbLine
 62
253
  6
CONTINUOUS
 10
45.2050644722
 20
-42.6706618069
 11
45.2483257255
 21
-42.4975508708
  0
LINE
  5
50A
100
AcDbEntity
  8
RACCORDO
100
AcDbLine
 62
7
  6
CONTINUOUS
 10
45.2395307252
 20
-42.569708027
 11
45.1956810948
 21
-42.7451508248
  0
LINE
  5
50B
100
AcDbEntity
  8
RACCORDO
100
AcDbLine
 62
7
  6
CONTINUOUS
 10
45.1914975763
 20
-42.7599246442
 11
45.1956809453
 21
-42.745150787
  0
LINE
  5
50C
100
AcDbEntity
  8
DRAFT
100
AcDbLine
 62
7
  6
CONTINUOUS
 10
41.4575663005
 20
-35.6871837553
 11
41.4453486856
 21
-35.7116208462
  0
LINE
  5
50D
100
AcDbEntity
  8
DRAFT
100
AcDbLine
 62
7
  6
CONTINUOUS
 10
41.4575663005
 20
-33.2927768616
 11
41.5893420041
 21
-33.161001158
  0
LINE
  5
50E
100
AcDbEntity
  8
DRAFT
100
AcDbLine
 62
7
  6
CONTINUOUS
 10
41.5893420041
 20
36.838998842
 11
41.4575663005
 21
36.9707745457
  0
LINE
  5
50F
100
AcDbEntity
  8
DRAFT
100
AcDbLine
 62
7
  6
CONTINUOUS
 10
41.4575663005
 20
39.3651814394
 11
41.4453486856
 21
39.3896185303
  0
LINE
  5
510
100
AcDbEntity
  8
RACCORDO
100
AcDbLine
 62
7
  6
CONTINUOUS
 10
41.4685152963
 20
36.8650277132
 11
41.4575663005
 21
36.908840381
  0
LINE
  5
511
100
AcDbEntity
  8
RACCORDO
100
AcDbLine
 62
253
  6
CONTINUOUS
 10
60.5027282412
 20
-38.6550518381
 11
60.5027282412
 21
42.3330495222
  0
LINE
  5
512
100
AcDbEntity
  8
RACCORDO
100
AcDbLine
 62
253
  6
CONTINUOUS
 10
60.9490979095
 20
-39.1014215065
 11
60.9490979095
 21
-39.3911992544
  0
LINE
  5
513
100
AcDbEntity
  8
RACCORDO
100
AcDbLine
 62
253
  6
CONTINUOUS
 10
60.9490979095
 20
42.7794191905
 11
60.9490979095
 21
43.0691969384
  0
LINE
  5
514
100
AcDbEntity
  8
RACCORDO
100
AcDbLine
 62
253
  6
CONTINUOUS
 10
61.9516169806
 20
40.8841607828
 11
61.9516169806
 21
-37.2061630987
  0
LINE
  5
515
100
AcDbEntity
  8
RACCORDO
100
AcDbLine
 62
253
  6
CONTINUOUS
 10
62.397986649
 20
41.3305304511
 11
62.397986649
 21
-37.652532767
  0
LINE
  5
516
100
AcDbEntity
  8
RACCORDO
100
AcDbLine
 62
253
  6
CONTINUOUS
 10
62.6877643969
 20
41.3305304511
 11
62.6877643969
 21
-37.652532767
  0
LINE
  5
517
100
AcDbEntity
  8
RACCORDO
100
AcDbLine
 62
253
  6
CONTINUOUS
 10
63.9668298564
 20
-42.1191534533
 11
63.9668298564
 21
45.7971511374
  0
LINE
  5
518
100
AcDbEntity
  8
RACCORDO
100
AcDbLine
 62
253
  6
CONTINUOUS
 10
64.7918952414
 20
46.6391774569
 11
64.7918952414
 21
46.6730993257
  0
LINE
  5
519
100
AcDbEntity
  8
RACCORDO
100
AcDbLine
 62
253
  6
CONTINUOUS
 10
64.7918952414
 20
-42.9611797728
 11
64.7918951595
 21
-42.9951016417
  0
LINE
  5
51A
100
AcDbEntity
  8
RACCORDO
100
AcDbLine
 62
253
  6
CONTINUOUS
 10
65.4157185958
 20
44.3482623979
 11
65.4157185958
 21
-40.6702647138
  0
LWPOLYLINE
  5
51B
100
AcDbEntity
  8
RACCORDO
100
AcDbPolyline
 62
7
  6
CONTINUOUS
 90
4
 70
0
 10
45.1644095818
 20
-42.8217350125
 10
45.175711029
 20
-42.8002875306
 10
45.1846163528
 20
-42.7796521143
 10
45.1914975763
 20
-42.7599246442
  0
LWPOLYLINE
  5
51C
100
AcDbEntity
  8
RACCORDO
100
AcDbPolyline
 62
7
  6
CONTINUOUS
 90
4
 70
0
 10
45.1178641421
 20
-42.8825770313
 10
45.1355268157
 20
-42.8631216156
 10
45.1509745426
 20
-42.8428405371
 10
45.1644095818
 20
-42.8217350125
  0
LINE
  5
51D
100
AcDbEntity
  8
RACCORDO
100
AcDbLine
 62
7
  6
CONTINUOUS
 10
45.5382168638
 20
-40.9303505946
 11
45.3164461494
 21
-41.152121309
  0
LINE
  5
51E
100
AcDbEntity
  8
RACCORDO
100
AcDbLine
 62
253
  6
CONTINUOUS
 10
45.4734658168
 20
-42.6951473331
 11
45.3259855085
 21
-42.8426276414
  0
LINE
  5
51F
100
AcDbEntity
  8
RACCORDO
100
AcDbLine
 62
253
  6
CONTINUOUS
 10
45.7734201253
 20
-42.9951016417
 11
45.6206119077
 21
-43.1479098593
  0
LINE
  5
520
100
AcDbEntity
  8
RACCORDO
100
AcDbLine
 62
7
  6
CONTINUOUS
 10
37.0672130087
 20
-42.5131666553
 11
39.0308358441
 21
-41.3794684827
  0
LINE
  5
521
100
AcDbEntity
  8
RACCORDO
100
AcDbLine
 62
253
  6
CONTINUOUS
 10
66.2577449153
 20
-41.5122910334
 11
66.2577449153
 21
45.1902887174
  0
LINE
  5
522
100
AcDbEntity
  8
RACCORDO
100
AcDbLine
 62
253
  6
CONTINUOUS
 10
66.2916667842
 20
-41.4953300989
 11
66.2916667842
 21
45.173327783
  0
LINE
  5
523
100
AcDbEntity
  8
RACCORDO
100
AcDbLine
 62
7
  6
CONTINUOUS
 10
66.4444750018
 20
45.3261360006
 11
66.4444750018
 21
-41.6481383165
  0
LINE
  5
524
100
AcDbEntity
  8
ASSI
100
AcDbLine
 62
7
  6
CONTINUOUS
 10
66.4575663005
 20
44.840217188
 11
66.4575663005
 21
-41.1622195039
  0
LINE
  5
525
100
AcDbEntity
  8
RACCORDO
100
AcDbLine
 62
7
  6
CONTINUOUS
 10
66.4575663005
 20
44.840217188
 11
66.4575663005
 21
-41.1622195039
  0
ARC
  5
526
100
AcDbEntity
  8
RACCORDO
100
AcDbCircle
 62
253
  6
CONTINUOUS
 10
-184.5126881958
 20
-41.3763026955
 40
142.2344959013
100
AcDbArc
 50
359.8273379297
 51
359.9788580485
  0
ARC
  5
527
100
AcDbEntity
  8
RACCORDO
100
AcDbCircle
 62
253
  6
CONTINUOUS
 10
-127.1543027382
 20
-41.6094993739
 40
84.8755768888
100
AcDbArc
 50
359.5733755581
 51
359.6936448358
  0
ARC
  5
528
100
AcDbEntity
  8
RACCORDO
100
AcDbCircle
 62
253
  6
CONTINUOUS
 10
-73.0363652098
 20
-41.9969017564
 40
30.7562589496
100
AcDbArc
 50
359.347783246
 51
359.5443760812
  0
ARC
  5
529
100
AcDbEntity
  8
RACCORDO
100
AcDbCircle
 62
253
  6
CONTINUOUS
 10
-61.8073209992
 20
-37.5294498014
 40
5.4660929539
100
AcDbArc
 50
268.7477161605
 51
269.2720906809
  0
ARC
  5
52A
100
AcDbEntity
  8
RACCORDO
100
AcDbCircle
 62
253
  6
CONTINUOUS
 10
-47.6275335331
 20
-42.4279424536
 40
5.3443413943
100
AcDbArc
 50
359.0415196245
 51
359.4381841976
  0
CIRCLE
  5
52B
100
AcDbEntity
  8
ASSI
100
AcDbCircle
 62
7
  6
CONTINUOUS
 10
-48.5424336995
 20
-28.161001158
 40
3.8
  0
CIRCLE
  5
52C
100
AcDbEntity
  8
ASSI
100
AcDbCircle
 62
7
  6
CONTINUOUS
 10
-48.5424336995
 20
-28.161001158
 40
1.8
  0
ARC
  5
52D
100
AcDbEntity
  8
RACCORDO
100
AcDbCircle
 62
253
  6
CONTINUOUS
 10
-61.8747297743
 20
-41.4932972318
 40
1.5018534793
100
AcDbArc
 50
181.986169985
 51
268.0138300534
  0
ARC
  5
52E
100
AcDbEntity
  8
RACCORDO
100
AcDbCircle
 62
253
  6
CONTINUOUS
 10
-57.9108823416
 20
45.1038861417
 40
5.4660929552
100
AcDbArc
 50
178.7477161605
 51
179.2720906808
  0
CIRCLE
  5
52F
100
AcDbEntity
  8
ASSI
100
AcDbCircle
 62
7
  6
CONTINUOUS
 10
-48.5424336995
 20
31.838998842
 40
3.8
  0
CIRCLE
  5
530
100
AcDbEntity
  8
ASSI
100
AcDbCircle
 62
7
  6
CONTINUOUS
 10
-48.5424336995
 20
31.838998842
 40
1.8
  0
ARC
  5
531
100
AcDbEntity
  8
RACCORDO
100
AcDbCircle
 62
253
  6
CONTINUOUS
 10
-61.8747295551
 20
45.171294699
 40
1.5018534377
100
AcDbArc
 50
91.9861780199
 51
178.0138220376
  0
ARC
  5
532
100
AcDbEntity
  8
RACCORDO
100
AcDbCircle
 62
253
  6
CONTINUOUS
 10
-42.8583956311
 20
-42.6950392264
 40
0.3000624347
100
AcDbArc
 50
270.0206425632
 51
359.9793574368
  0
CIRCLE
  5
533
100
AcDbEntity
  8
ASSI
100
AcDbCircle
 62
7
  6
CONTINUOUS
 10
-44.5424336995
 20
-34.161001158
 40
1.75
  0
ARC
  5
534
100
AcDbEntity
  8
RACCORDO
100
AcDbCircle
 62
253
  6
CONTINUOUS
 10
-36.1849317026
 20
-42.6563864182
 40
1.987093147
100
AcDbArc
 50
0.5665082366
 51
1.0396587495
  0
ARC
  5
535
100
AcDbEntity
  8
RACCORDO
100
AcDbCircle
 62
253
  6
CONTINUOUS
 10
-35.4429832785
 20
-42.6425859929
 40
1.2450165097
100
AcDbArc
 50
1.0242010318
 51
1.9344161129
  0
ARC
  5
536
100
AcDbEntity
  8
RACCORDO
100
AcDbCircle
 62
7
  6
CONTINUOUS
 10
-34.4916593162
 20
-42.4996702526
 40
0.3371305071
100
AcDbArc
 50
348.1424982113
 51
352.1720023069
  0
ARC
  5
537
100
AcDbEntity
  8
RACCORDO
100
AcDbCircle
 62
253
  6
CONTINUOUS
 10
-34.5004024989
 20
-42.6689894426
 40
0.3055763109
100
AcDbArc
 50
345.9137531079
 51
349.8737428069
  0
ARC
  5
538
100
AcDbEntity
  8
RACCORDO
100
AcDbCircle
 62
253
  6
CONTINUOUS
 10
-33.576471768
 20
-42.6950392264
 40
0.3000624347
100
AcDbArc
 50
180.0206425665
 51
269.9793574335
  0
ARC
  5
539
100
AcDbEntity
  8
ASSI
100
AcDbCircle
 62
7
  6
CONTINUOUS
 10
-28.5424336995
 20
-36.161001158
 40
0.75
100
AcDbArc
 50
220.5421249469
 51
309.2058252914
  0
ARC
  5
53A
100
AcDbEntity
  8
ASSI
100
AcDbCircle
 62
7
  6
CONTINUOUS
 10
-28.5445567576
 20
-36.1506802857
 40
0.6062622548
100
AcDbArc
 50
278.750531898
 51
287.2687074201
  0
ARC
  5
53B
100
AcDbEntity
  8
DRAFT
100
AcDbCircle
 62
7
  6
CONTINUOUS
 10
-28.5445567576
 20
-36.1506802857
 40
0.6062622548
100
AcDbArc
 50
278.750531898
 51
287.2687074201
  0
ARC
  5
53C
100
AcDbEntity
  8
ASSI
100
AcDbCircle
 62
7
  6
CONTINUOUS
 10
-28.5404058278
 20
-36.1533236956
 40
0.6035482677
100
AcDbArc
 50
252.676266606
 51
266.4082886955
  0
ARC
  5
53D
100
AcDbEntity
  8
DRAFT
100
AcDbCircle
 62
7
  6
CONTINUOUS
 10
-28.5404058278
 20
-36.1533236956
 40
0.6035482677
100
AcDbArc
 50
252.676266606
 51
266.4082886955
  0
ARC
  5
53E
100
AcDbEntity
  8
ASSI
100
AcDbCircle
 62
7
  6
CONTINUOUS
 10
-28.540270501
 20
-36.1585910584
 40
0.5936317379
100
AcDbArc
 50
37.3018684106
 51
52.7538884098
  0
ARC
  5
53F
100
AcDbEntity
  8
DRAFT
100
AcDbCircle
 62
7
  6
CONTINUOUS
 10
-28.540270501
 20
-36.1585910584
 40
0.5936317379
100
AcDbArc
 50
37.3018684106
 51
52.7538884098
  0
ARC
  5
540
100
AcDbEntity
  8
ASSI
100
AcDbCircle
 62
7
  6
CONTINUOUS
 10
-28.5403291967
 20
-36.1627691692
 40
0.593463711
100
AcDbArc
 50
287.2254196978
 51
322.7250784549
  0
ARC
  5
541
100
AcDbEntity
  8
DRAFT
100
AcDbCircle
 62
7
  6
CONTINUOUS
 10
-28.5403291967
 20
-36.1627691692
 40
0.593463711
100
AcDbArc
 50
287.2254196978
 51
322.7250784549
  0
ARC
  5
542
100
AcDbEntity
  8
ASSI
100
AcDbCircle
 62
7
  6
CONTINUOUS
 10
-28.5425419707
 20
-36.1653123739
 40
0.5914940145
100
AcDbArc
 50
270.0104878151
 51
278.7732646536
  0
ARC
  5
543
100
AcDbEntity
  8
DRAFT
100
AcDbCircle
 62
7
  6
CONTINUOUS
 10
-28.5425419707
 20
-36.1653123739
 40
0.5914940145
100
AcDbArc
 50
270.0104878151
 51
278.7732646536
  0
ARC
  5
544
100
AcDbEntity
  8
ASSI
100
AcDbCircle
 62
7
  6
CONTINUOUS
 10
-28.5449427063
 20
-36.1651527152
 40
0.5909054472
100
AcDbArc
 50
234.7035535214
 51
252.7546845645
  0
ARC
  5
545
100
AcDbEntity
  8
DRAFT
100
AcDbCircle
 62
7
  6
CONTINUOUS
 10
-28.5449427063
 20
-36.1651527152
 40
0.5909054472
100
AcDbArc
 50
234.7035535214
 51
252.7546845645
  0
ARC
  5
546
100
AcDbEntity
  8
ASSI
100
AcDbCircle
 62
7
  6
CONTINUOUS
 10
-28.5420985603
 20
-36.1739006484
 40
0.5829058265
100
AcDbArc
 50
266.4476395664
 51
269.9670580343
  0
ARC
  5
547
100
AcDbEntity
  8
DRAFT
100
AcDbCircle
 62
7
  6
CONTINUOUS
 10
-28.5420985603
 20
-36.1739006484
 40
0.5829058265
100
AcDbArc
 50
266.4476395664
 51
269.9670580343
  0
ARC
  5
548
100
AcDbEntity
  8
ASSI
100
AcDbCircle
 62
253
  6
CONTINUOUS
 10
-28.5424336995
 20
-36.161001158
 40
0.5585751948
100
AcDbArc
 50
240.7555173767
 51
328.1948493877
  0
ARC
  5
549
100
AcDbEntity
  8
ASSI
100
AcDbCircle
 62
253
  6
CONTINUOUS
 10
-28.5424336995
 20
-36.161001158
 40
0.5585751948
100
AcDbArc
 50
31.8178194728
 51
58.2324835264
  0
ARC
  5
54A
100
AcDbEntity
  8
RACCORDO
100
AcDbCircle
 62
253
  6
CONTINUOUS
 10
-28.5424336995
 20
-36.161001158
 40
0.5585751948
100
AcDbArc
 50
31.8178194728
 51
58.2324835264
  0
ARC
  5
54B
100
AcDbEntity
  8
RACCORDO
100
AcDbCircle
 62
253
  6
CONTINUOUS
 10
-28.5424336995
 20
-36.161001158
 40
0.5585751948
100
AcDbArc
 50
240.7555173767
 51
328.1948493877
  0
ARC
  5
54C
100
AcDbEntity
  8
ASSI
100
AcDbCircle
 62
253
  6
CONTINUOUS
 10
-28.5424336995
 20
-36.161001158
 40
0.0586475054
100
AcDbArc
 50
270.0
 51
90.0
  0
ARC
  5
54D
100
AcDbEntity
  8
RACCORDO
100
AcDbCircle
 62
253
  6
CONTINUOUS
 10
-28.5424336995
 20
-36.161001158
 40
0.0586475054
100
AcDbArc
 50
270.0
 51
90.0
  0
ARC
  5
54E
100
AcDbEntity
  8
DRAFT
100
AcDbCircle
 62
7
  6
CONTINUOUS
 10
-21.5424336995
 20
-14.661001158
 40
7.984291638
100
AcDbArc
 50
90.0
 51
270.0
  0
ARC
  5
54F
100
AcDbEntity
  8
ASSI
100
AcDbCircle
 62
7
  6
CONTINUOUS
 10
-28.5424336995
 20
-0.661001158
 40
3.8
100
AcDbArc
 50
180.0
 51
360.0
  0
ARC
  5
550
100
AcDbEntity
  8
ASSI
100
AcDbCircle
 62
7
  6
CONTINUOUS
 10
-40.3424336995
 20
-0.661001158
 40
3.8
100
AcDbArc
 50
180.0
 51
360.0
  0
ARC
  5
551
100
AcDbEntity
  8
DRAFT
100
AcDbCircle
 62
7
  6
CONTINUOUS
 10
-28.5424336995
 20
-0.661001158
 40
1.8087275325
100
AcDbArc
 50
180.0
 51
360.0
  0
ARC
  5
552
100
AcDbEntity
  8
DRAFT
100
AcDbCircle
 62
7
  6
CONTINUOUS
 10
-40.3424336995
 20
-0.661001158
 40
1.8087275325
100
AcDbArc
 50
180.0
 51
360.0
  0
ARC
  5
553
100
AcDbEntity
  8
DRAFT
100
AcDbCircle
 62
7
  6
CONTINUOUS
 10
-28.5424336995
 20
-0.661001158
 40
1.7685808831
100
AcDbArc
 50
180.0
 51
360.0
  0
ARC
  5
554
100
AcDbEntity
  8
DRAFT
100
AcDbCircle
 62
7
  6
CONTINUOUS
 10
-40.3424336995
 20
-0.661001158
 40
1.7685808831
100
AcDbArc
 50
180.0
 51
360.0
  0
ARC
  5
555
100
AcDbEntity
  8
RACCORDO
100
AcDbCircle
 62
253
  6
CONTINUOUS
 10
89.8000565719
 20
-41.8684110273
 40
44.6054007496
100
AcDbArc
 50
180.2399860696
 51
180.6676834909
  0
ARC
  5
556
100
AcDbEntity
  8
RACCORDO
100
AcDbCircle
 62
253
  6
CONTINUOUS
 10
60.8260149427
 20
-41.4258884576
 40
5.4660929551
100
AcDbArc
 50
358.7477161605
 51
359.2720906808
  0
CIRCLE
  5
557
100
AcDbEntity
  8
ASSI
100
AcDbCircle
 62
7
  6
CONTINUOUS
 10
51.4575663005
 20
-28.161001158
 40
3.8
  0
CIRCLE
  5
558
100
AcDbEntity
  8
ASSI
100
AcDbCircle
 62
7
  6
CONTINUOUS
 10
51.4575663005
 20
-28.161001158
 40
1.8
  0
CIRCLE
  5
559
100
AcDbEntity
  8
ASSI
100
AcDbCircle
 62
7
  6
CONTINUOUS
 10
47.4575663005
 20
-34.161001158
 40
1.75
  0
ARC
  5
55A
100
AcDbEntity
  8
RACCORDO
100
AcDbCircle
 62
253
  6
CONTINUOUS
 10
64.7898623743
 20
-41.4932972327
 40
1.5018534793
100
AcDbArc
 50
271.9861699851
 51
358.0138300534
  0
ARC
  5
55B
100
AcDbEntity
  8
RACCORDO
100
AcDbCircle
 62
7
  6
CONTINUOUS
 10
37.4067919171
 20
-42.4996702526
 40
0.3371305071
100
AcDbArc
 50
187.8279976931
 51
191.8575017887
  0
ARC
  5
55C
100
AcDbEntity
  8
RACCORDO
100
AcDbCircle
 62
253
  6
CONTINUOUS
 10
37.4155351244
 20
-42.6689894311
 40
0.3055763364
100
AcDbArc
 50
190.1262839895
 51
194.0862556936
  0
ARC
  5
55D
100
AcDbEntity
  8
RACCORDO
100
AcDbCircle
 62
253
  6
CONTINUOUS
 10
45.773528232
 20
-42.6950392264
 40
0.3000624347
100
AcDbArc
 50
180.0206425665
 51
269.9793574335
  0
ARC
  5
55E
100
AcDbEntity
  8
RACCORDO
100
AcDbCircle
 62
253
  6
CONTINUOUS
 10
36.4916043689
 20
-42.6950392264
 40
0.3000624347
100
AcDbArc
 50
270.0206425632
 51
359.9793574368
  0
ARC
  5
55F
100
AcDbEntity
  8
DRAFT
100
AcDbCircle
 62
7
  6
CONTINUOUS
 10
24.4575663005
 20
-14.661001158
 40
7.984291638
100
AcDbArc
 50
270.0
 51
90.0
  0
ARC
  5
560
100
AcDbEntity
  8
ASSI
100
AcDbCircle
 62
7
  6
CONTINUOUS
 10
31.4575663005
 20
-0.661001158
 40
3.8
100
AcDbArc
 50
180.0
 51
360.0
  0
ARC
  5
561
100
AcDbEntity
  8
ASSI
100
AcDbCircle
 62
7
  6
CONTINUOUS
 10
43.2575663005
 20
-0.661001158
 40
3.8
100
AcDbArc
 50
180.0
 51
360.0
  0
ARC
  5
562
100
AcDbEntity
  8
DRAFT
100
AcDbCircle
 62
7
  6
CONTINUOUS
 10
31.4575663005
 20
-0.661001158
 40
1.8087275325
100
AcDbArc
 50
180.0
 51
360.0
  0
ARC
  5
563
100
AcDbEntity
  8
DRAFT
100
AcDbCircle
 62
7
  6
CONTINUOUS
 10
43.2575663005
 20
-0.661001158
 40
1.8087275325
100
AcDbArc
 50
180.0
 51
360.0
  0
ARC
  5
564
100
AcDbEntity
  8
DRAFT
100
AcDbCircle
 62
7
  6
CONTINUOUS
 10
31.4575663005
 20
-0.661001158
 40
1.7685808831
100
AcDbArc
 50
180.0
 51
360.0
  0
ARC
  5
565
100
AcDbEntity
  8
DRAFT
100
AcDbCircle
 62
7
  6
CONTINUOUS
 10
43.2575663005
 20
-0.661001158
 40
1.7685808831
100
AcDbArc
 50
180.0
 51
360.0
  0
ARC
  5
566
100
AcDbEntity
  8
RACCORDO
100
AcDbCircle
 62
253
  6
CONTINUOUS
 10
64.7224536001
 20
41.2074474847
 40
5.4660929547
100
AcDbArc
 50
88.7477161605
 51
89.2720906808
  0
ARC
  5
567
100
AcDbEntity
  8
ASSI
100
AcDbCircle
 62
7
  6
CONTINUOUS
 10
-28.5424336995
 20
4.338998842
 40
3.8
100
AcDbArc
 50
0.0
 51
180.0
  0
ARC
  5
568
100
AcDbEntity
  8
ASSI
100
AcDbCircle
 62
7
  6
CONTINUOUS
 10
31.4575663005
 20
4.338998842
 40
3.8
100
AcDbArc
 50
0.0
 51
180.0
  0
ARC
  5
569
100
AcDbEntity
  8
ASSI
100
AcDbCircle
 62
7
  6
CONTINUOUS
 10
43.2575663005
 20
4.338998842
 40
3.8
100
AcDbArc
 50
0.0
 51
180.0
  0
ARC
  5
56A
100
AcDbEntity
  8
ASSI
100
AcDbCircle
 62
7
  6
CONTINUOUS
 10
-40.3424336995
 20
4.338998842
 40
3.8
100
AcDbArc
 50
0.0
 51
180.0
  0
CIRCLE
  5
56B
100
AcDbEntity
  8
ASSI
100
AcDbCircle
 62
7
  6
CONTINUOUS
 10
51.4575663005
 20
31.838998842
 40
3.8
  0
CIRCLE
  5
56C
100
AcDbEntity
  8
ASSI
100
AcDbCircle
 62
7
  6
CONTINUOUS
 10
2.4575663005
 20
12.838998842
 40
2.5
  0
ARC
  5
56D
100
AcDbEntity
  8
DRAFT
100
AcDbCircle
 62
7
  6
CONTINUOUS
 10
-28.5424336995
 20
4.338998842
 40
1.8087275325
100
AcDbArc
 50
0.0
 51
180.0
  0
ARC
  5
56E
100
AcDbEntity
  8
DRAFT
100
AcDbCircle
 62
7
  6
CONTINUOUS
 10
31.4575663005
 20
4.338998842
 40
1.8087275325
100
AcDbArc
 50
0.0
 51
180.0
  0
ARC
  5
56F
100
AcDbEntity
  8
DRAFT
100
AcDbCircle
 62
7
  6
CONTINUOUS
 10
43.2575663005
 20
4.338998842
 40
1.8087275325
100
AcDbArc
 50
0.0
 51
180.0
  0
ARC
  5
570
100
AcDbEntity
  8
DRAFT
100
AcDbCircle
 62
7
  6
CONTINUOUS
 10
-40.3424336995
 20
4.338998842
 40
1.8087275325
100
AcDbArc
 50
0.0
 51
180.0
  0
CIRCLE
  5
571
100
AcDbEntity
  8
ASSI
100
AcDbCircle
 62
7
  6
CONTINUOUS
 10
51.4575663005
 20
31.838998842
 40
1.8
  0
ARC
  5
572
100
AcDbEntity
  8
DRAFT
100
AcDbCircle
 62
7
  6
CONTINUOUS
 10
-28.5424336995
 20
4.338998842
 40
1.7685808831
100
AcDbArc
 50
0.0
 51
180.0
  0
ARC
  5
573
100
AcDbEntity
  8
DRAFT
100
AcDbCircle
 62
7
  6
CONTINUOUS
 10
-40.3424336995
 20
4.338998842
 40
1.7685808831
100
AcDbArc
 50
0.0
 51
180.0
  0
ARC
  5
574
100
AcDbEntity
  8
DRAFT
100
AcDbCircle
 62
7
  6
CONTINUOUS
 10
31.4575663005
 20
4.338998842
 40
1.7685808831
100
AcDbArc
 50
0.0
 51
180.0
  0
ARC
  5
575
100
AcDbEntity
  8
DRAFT
100
AcDbCircle
 62
7
  6
CONTINUOUS
 10
43.2575663005
 20
4.338998842
 40
1.7685808831
100
AcDbArc
 50
0.0
 51
180.0
  0
CIRCLE
  5
576
100
AcDbEntity
  8
ASSI
100
AcDbCircle
 62
7
  6
CONTINUOUS
 10
57.4575663005
 20
37.338998842
 40
1.75
  0
CIRCLE
  5
577
100
AcDbEntity
  8
ASSI
100
AcDbCircle
 62
7
  6
CONTINUOUS
 10
-38.0424336995
 20
31.838998842
 40
1.75
  0
ARC
  5
578
100
AcDbEntity
  8
RACCORDO
100
AcDbCircle
 62
253
  6
CONTINUOUS
 10
64.7898621227
 20
45.1712946633
 40
1.5018534793
100
AcDbArc
 50
1.9861792813
 51
88.0138207563
  0
LINE
  5
579
100
AcDbEntity
  8
DRAFT
100
AcDbLine
 62
7
  6
CONTINUOUS
 10
37.0425460812
 20
-41.3309431986
 11
36.9521773876
 21
-41.3308942633
  0
LINE
  5
57A
100
AcDbEntity
  8
DRAFT
100
AcDbLine
 62
7
  6
CONTINUOUS
 10
-34.0370447866
 20
-41.3308942633
 11
-34.1274134803
 21
-41.3309431986
  0
SPLINE
  5
57B
100
AcDbEntity
  8
RACCORDO
100
AcDbSpline
 62
253
  6
CONTINUOUS
 70
0
 71
3
 72
17
 73
13
 74
11
 42
0.0000001
 43
0.0000001
 44
0.0000000001
 12
0.3123590962
 22
0.0880278308
 32
0.0
 13
0.0000001729
 23
1.5975512945
 33
0.0
 40
0.0
 40
0.0
 40
0.0
 40
0.0
 40
0.0046167968
 40
0.034459437
 40
0.0917710401
 40
0.1769854879
 40
0.2877815361
 40
0.419540249
 40
0.5652391854
 40
0.7162381662
 40
0.8637250674
 40
1.0
 40
1.0
 40
1.0
 40
1.0
 10
-41.9896076671
 20
-42.9712318808
 30
0.0
 10
-41.9891269677
 20
-42.9710964119
 30
0.0
 10
-41.9857216021
 20
-42.9335357257
 30
0.0
 10
-41.9874774675
 20
-42.9112994532
 30
0.0
 10
-41.9836968512
 20
-42.8013541749
 30
0.0
 10
-41.983158746
 20
-42.6751693462
 30
0.0
 10
-41.9813063389
 20
-42.4971791404
 30
0.0
 10
-41.9802344552
 20
-42.2916338561
 30
0.0
 10
-41.9792513828
 20
-42.0630980844
 30
0.0
 10
-41.9786267798
 20
-41.8266705387
 30
0.0
 10
-41.9782743276
 20
-41.5951246066
 30
0.0
 10
-41.9782024418
 20
-41.4440224635
 30
0.0
 10
-41.978202434
 20
-41.3714537318
 30
0.0
 11
-41.9896076671
 21
-42.9712318808
 31
0.0
 11
-41.9882874426
 21
-42.961556162
 31
0.0
 11
-41.9865322648
 21
-42.9139133333
 31
0.0
 11
-41.984765369
 21
-42.8223721579
 31
0.0
 11
-41.9830824098
 21
-42.6862481098
 31
0.0
 11
-41.9815711137
 21
-42.5092521915
 31
0.0
 11
-41.9803021192
 21
-42.2987647144
 31
0.0
 11
-41.9793270977
 21
-42.0660052321
 31
0.0
 11
-41.97866733
 21
-41.8247775171
 31
0.0
 11
-41.9783079631
 21
-41.5891599013
 31
0.0
 11
-41.978202434
 21
-41.3714537318
 31
0.0
  0
SPLINE
  5
57C
100
AcDbEntity
  8
RACCORDO
100
AcDbSpline
 62
253
  6
CONTINUOUS
 70
0
 71
3
 72
9
 73
5
 74
3
 42
0.0000001
 43
0.0000001
 44
0.0000000001
 12
0.0146602181
 22
-0.0586167508
 32
0.0
 13
0.0009162194
 23
0.0770885204
 33
0.0
 40
0.0
 40
0.0
 40
0.0
 40
0.0
 40
0.762737822
 40
1.0
 40
1.0
 40
1.0
 40
1.0
 10
-42.2899318713
 20
-42.6706618069
 30
0.0
 10
-42.2862045703
 20
-42.6855648779
 30
0.0
 10
-42.2866579659
 20
-42.6388997141
 30
0.0
 10
-42.2864661107
 20
-42.6099797186
 30
0.0
 10
-42.2863936493
 20
-42.6038829885
 30
0.0
 11
-42.2899318713
 21
-42.6706618069
 31
0.0
 11
-42.2865208273
 21
-42.6247018957
 31
0.0
 11
-42.2863936493
 21
-42.6038829885
 31
0.0
  0
SPLINE
  5
57D
100
AcDbEntity
  8
RACCORDO
100
AcDbSpline
 62
253
  6
CONTINUOUS
 70
0
 71
3
 72
9
 73
5
 74
3
 42
0.0000001
 43
0.0000001
 44
0.0000000001
 12
0.0014697292
 22
0.1236595166
 32
0.0
 13
0.0016515447
 23
0.0948948483
 33
0.0
 40
0.0
 40
0.0
 40
0.0
 40
0.0
 40
0.6198929791
 40
1.0
 40
1.0
 40
1.0
 40
1.0
 10
-42.2863936493
 20
-42.6038829885
 30
0.0
 10
-42.2860899576
 20
-42.5783310998
 30
0.0
 10
-42.2848366416
 20
-42.5587850546
 30
0.0
 10
-42.2841491758
 20
-42.5293652377
 30
0.0
 10
-42.2839399212
 20
-42.5173418383
 30
0.0
 11
-42.2863936493
 21
-42.6038829885
 31
0.0
 11
-42.2847535518
 21
-42.5503040198
 31
0.0
 11
-42.2839399212
 21
-42.5173418383
 31
0.0
  0
LINE
  5
57E
100
AcDbEntity
  8
RACCORDO
100
AcDbLine
 62
253
  6
CONTINUOUS
 10
-42.283449062
 20
-42.4803457434
 11
-42.2830701968
 21
-42.4396605422
  0
LINE
  5
57F
100
AcDbEntity
  8
RACCORDO
100
AcDbLine
 62
253
  6
CONTINUOUS
 10
-42.2830701968
 20
-42.4396605422
 11
-42.282626079
 21
-42.3951760709
  0
LINE
  5
580
100
AcDbEntity
  8
RACCORDO
100
AcDbLine
 62
253
  6
CONTINUOUS
 10
-42.282626079
 20
-42.3951760709
 11
-42.2820989397
 21
-42.3470028341
  0
LINE
  5
581
100
AcDbEntity
  8
RACCORDO
100
AcDbLine
 62
253
  6
CONTINUOUS
 10
-42.2799391177
 20
-42.0633189679
 11
-42.2796099624
 21
-41.9998672729
  0
LINE
  5
582
100
AcDbEntity
  8
RACCORDO
100
AcDbLine
 62
253
  6
CONTINUOUS
 10
-42.2796099624
 20
-41.9998672729
 11
-42.2788387451
 21
-41.8049287734
  0
LINE
  5
583
100
AcDbEntity
  8
RACCORDO
100
AcDbLine
 62
253
  6
CONTINUOUS
 10
-42.278201984
 20
-41.4287867488
 11
-42.2781910109
 21
-41.3714537318
  0
SPLINE
  5
584
100
AcDbEntity
  8
RACCORDO
100
AcDbSpline
 62
253
  6
CONTINUOUS
 70
0
 71
3
 72
8
 73
4
 74
2
 42
0.0000001
 43
0.0000001
 44
0.0000000001
 12
-0.0000222133
 22
-0.0728961057
 32
0.0
 13
0.0179738411
 23
-0.0716447774
 33
0.0
 40
0.0
 40
0.0
 40
0.0
 40
0.0
 40
1.0
 40
1.0
 40
1.0
 40
1.0
 10
-42.2899318713
 20
-42.6706618069
 30
0.0
 10
-42.2899392757
 20
-42.6949605088
 30
0.0
 10
-42.2868439477
 20
-42.7194797056
 30
0.0
 10
-42.2808526673
 20
-42.7433612981
 30
0.0
 11
-42.2899318713
 21
-42.6706618069
 31
0.0
 11
-42.2808526673
 21
-42.7433612981
 31
0.0
  0
LINE
  5
585
100
AcDbEntity
  8
RACCORDO
100
AcDbLine
 62
253
  6
CONTINUOUS
 10
-42.2781910109
 20
-41.261001158
 11
-42.2782681057
 21
-41.1521974617
  0
LINE
  5
586
100
AcDbEntity
  8
RACCORDO
100
AcDbLine
 62
253
  6
CONTINUOUS
 10
-41.978202434
 20
-41.261001158
 11
-41.9782439102
 21
-41.1521974639
  0
SPLINE
  5
587
100
AcDbEntity
  8
RACCORDO
100
AcDbSpline
 62
7
  6
CONTINUOUS
 70
0
 71
3
 72
8
 73
4
 74
2
 42
0.0000001
 43
0.0000001
 44
0.0000000001
 12
-0.0017600156
 22
-0.0338079427
 32
0.0
 13
-0.0046641476
 23
-0.0337294285
 33
0.0
 40
0.0
 40
0.0
 40
0.0
 40
0.0
 40
1.0
 40
1.0
 40
1.0
 40
1.0
 10
-34.1545055139
 20
-42.5117665196
 30
0.0
 10
-34.1550921857
 20
-42.5230358338
 30
0.0
 10
-34.156115676
 20
-42.5343441794
 30
0.0
 10
-34.1576703919
 20
-42.5455873222
 30
0.0
 11
-34.1545055139
 21
-42.5117665196
 31
0.0
 11
-34.1576703919
 21
-42.5455873222
 31
0.0
  0
LINE
  5
588
100
AcDbEntity
  8
DRAFT
100
AcDbLine
 62
7
  6
CONTINUOUS
 10
-35.4424336995
 20
-41.3316693856
 11
-35.9164007387
 21
-41.3319375886
  0
LINE
  5
589
100
AcDbEntity
  8
DRAFT
100
AcDbLine
 62
7
  6
CONTINUOUS
 10
-35.9164007387
 20
-41.3319375886
 11
-36.0647022523
 21
-41.3320222115
  0
LINE
  5
58A
100
AcDbEntity
  8
DRAFT
100
AcDbLine
 62
7
  6
CONTINUOUS
 10
-36.0647022523
 20
-41.3320222115
 11
-41.0424336995
 21
-41.3350572126
  0
SPLINE
  5
58B
100
AcDbEntity
  8
RACCORDO
100
AcDbSpline
 62
253
  6
CONTINUOUS
 70
0
 71
3
 72
8
 73
4
 74
2
 42
0.0000001
 43
0.0000001
 44
0.0000000001
 12
-0.0082601002
 22
-0.0330377897
 32
0.0
 13
-0.0005766094
 23
0.0565126453
 33
0.0
 40
0.0
 40
0.0
 40
0.0
 40
0.0
 40
1.0
 40
1.0
 40
1.0
 40
1.0
 10
-34.1949355278
 20
-42.6706618069
 30
0.0
 10
-34.1976888945
 20
-42.6816744035
 30
0.0
 10
-34.1977434821
 20
-42.6555770345
 30
0.0
 10
-34.1979356853
 20
-42.636739486
 30
0.0
 11
-34.1949355278
 21
-42.6706618069
 31
0.0
 11
-34.1979356853
 21
-42.636739486
 31
0.0
  0
SPLINE
  5
58C
100
AcDbEntity
  8
RACCORDO
100
AcDbSpline
 62
253
  6
CONTINUOUS
 70
0
 71
3
 72
9
 73
5
 74
3
 42
0.0000001
 43
0.0000001
 44
0.0000000001
 12
-0.0026906827
 22
0.0790054221
 32
0.0
 13
-0.0012806153
 23
0.0951956165
 33
0.0
 40
0.0
 40
0.0
 40
0.0
 40
0.0
 40
0.3340303383
 40
1.0
 40
1.0
 40
1.0
 40
1.0
 10
-34.1986762787
 20
-42.6005598174
 30
0.0
 10
-34.1989758685
 20
-42.5917630815
 30
0.0
 10
-34.1999504942
 20
-42.5718382
 30
0.0
 10
-34.2004440602
 20
-42.5403727385
 30
0.0
 10
-34.2007283439
 20
-42.5192402743
 30
0.0
 11
-34.1986762787
 21
-42.6005598174
 31
0.0
 11
-34.1995733028
 21
-42.5771643968
 31
0.0
 11
-34.2007283439
 21
-42.5192402743
 31
0.0
  0
LINE
  5
58D
100
AcDbEntity
  8
RACCORDO
100
AcDbLine
 62
253
  6
CONTINUOUS
 10
-34.2007283439
 20
-42.5192402743
 11
-34.2011883733
 21
-42.4848141582
  0
SPLINE
  5
58E
100
AcDbEntity
  8
RACCORDO
100
AcDbSpline
 62
253
  6
CONTINUOUS
 70
0
 71
3
 72
12
 73
8
 74
6
 42
0.0000001
 43
0.0000001
 44
0.0000000001
 12
-0.1315497758
 22
-0.6477083983
 32
0.0
 13
-0.0033928289
 23
0.6609235972
 33
0.0
 40
0.0
 40
0.0
 40
0.0
 40
0.0
 40
0.0759945403
 40
0.206932103
 40
0.4084689956
 40
0.6766080713
 40
1.0
 40
1.0
 40
1.0
 40
1.0
 10
-34.4949241047
 20
-42.9704790551
 30
0.0
 10
-34.4982564596
 20
-42.9868864891
 30
0.0
 10
-34.4977652898
 20
-42.8815711603
 30
0.0
 10
-34.5007256823
 20
-42.8320879821
 30
0.0
 10
-34.5016907378
 20
-42.6800428255
 30
0.0
 10
-34.5034376277
 20
-42.5135673465
 30
0.0
 10
-34.5041439498
 20
-42.3809369352
 30
0.0
 10
-34.5045096876
 20
-42.3096911496
 30
0.0
 11
-34.4949241047
 21
-42.9704790551
 31
0.0
 11
-34.4981642125
 21
-42.9203564252
 31
0.0
 11
-34.4999231359
 21
-42.8338334367
 31
0.0
 11
-34.5016352568
 21
-42.7006421975
 31
0.0
 11
-34.5031933254
 21
-42.5234272691
 31
0.0
 11
-34.5045096876
 21
-42.3096911496
 31
0.0
  0
LINE
  5
58F
100
AcDbEntity
  8
RACCORDO
100
AcDbLine
 62
253
  6
CONTINUOUS
 10
44.8933767721
 20
-41.1521974634
 11
44.8933350349
 21
-41.261001158
  0
LINE
  5
590
100
AcDbEntity
  8
RACCORDO
100
AcDbLine
 62
253
  6
CONTINUOUS
 10
37.1163209688
 20
-42.4848141613
 11
37.1158617604
 21
-42.5191867566
  0
SPLINE
  5
591
100
AcDbEntity
  8
RACCORDO
100
AcDbSpline
 62
253
  6
CONTINUOUS
 70
0
 71
3
 72
10
 73
6
 74
4
 42
0.0000001
 43
0.0000001
 44
0.0000000001
 12
-0.0020591311
 22
-0.1531360943
 32
0.0
 13
-0.018527883
 23
-0.0794321541
 33
0.0
 40
0.0
 40
0.0
 40
0.0
 40
0.0
 40
0.4135606311
 40
0.828917067
 40
1.0
 40
1.0
 40
1.0
 40
1.0
 10
37.1158617604
 20
-42.5191867566
 30
0.0
 10
37.1155779018
 20
-42.5402971099
 30
0.0
 10
37.1149201688
 20
-42.582256373
 30
0.0
 10
37.1130926128
 20
-42.6081158982
 30
0.0
 10
37.1128664794
 20
-42.6676351298
 30
0.0
 10
37.1118098779
 20
-42.6721649585
 30
0.0
 11
37.1158617604
 21
-42.5191867566
 31
0.0
 11
37.1147082314
 21
-42.577056713
 31
0.0
 11
37.1130703882
 21
-42.6366827089
 31
0.0
 11
37.1118098779
 21
-42.6721649585
 31
0.0
  0
SPLINE
  5
592
100
AcDbEntity
  8
RACCORDO
100
AcDbSpline
 62
253
  6
CONTINUOUS
 70
0
 71
3
 72
8
 73
4
 74
2
 42
0.0000001
 43
0.0000001
 44
0.0000000001
 12
-0.0012311593
 22
-0.0052781873
 32
0.0
 13
-0.0023145998
 23
0.009257642
 33
0.0
 40
0.0
 40
0.0
 40
0.0
 40
0.0
 40
1.0
 40
1.0
 40
1.0
 40
1.0
 10
37.1118098779
 20
-42.6721649585
 30
0.0
 10
37.1113994914
 20
-42.6739243542
 30
0.0
 10
37.110839662
 20
-42.6737476876
 30
0.0
 10
37.1100681287
 20
-42.6706618069
 30
0.0
 11
37.1118098779
 21
-42.6721649585
 31
0.0
 11
37.1100681287
 21
-42.6706618069
 31
0.0
  0
SPLINE
  5
593
100
AcDbEntity
  8
RACCORDO
100
AcDbSpline
 62
253
  6
CONTINUOUS
 70
0
 71
3
 72
12
 73
8
 74
6
 42
0.0000001
 43
0.0000001
 44
0.0000000001
 12
-0.003387149
 22
-0.6598045726
 32
0.0
 13
-0.1252603839
 23
0.5518111907
 33
0.0
 40
0.0
 40
0.0
 40
0.0
 40
0.0
 40
0.3223300391
 40
0.5907401429
 40
0.7932044595
 40
0.925056069
 40
1.0
 40
1.0
 40
1.0
 40
1.0
 10
37.4196422887
 20
-42.3096911291
 30
0.0
 10
37.4192783621
 20
-42.3805827404
 30
0.0
 10
37.4185749666
 20
-42.5128001905
 30
0.0
 10
37.4168320951
 20
-42.6790410635
 30
0.0
 10
37.4158747987
 20
-42.8313469119
 30
0.0
 10
37.412907704
 20
-42.8808453323
 30
0.0
 10
37.413403398
 20
-42.9852797295
 30
0.0
 10
37.4102742294
 20
-42.9714947629
 30
0.0
 11
37.4196422887
 21
-42.3096911291
 31
0.0
 11
37.4183337363
 21
-42.5223647395
 31
0.0
 11
37.4167803691
 21
-42.6994584744
 31
0.0
 11
37.4150684517
 21
-42.8330361471
 31
0.0
 11
37.4133061249
 21
-42.9200157365
 31
0.0
 11
37.4102742294
 21
-42.9714947629
 31
0.0
  0
SPLINE
  5
594
100
AcDbEntity
  8
RACCORDO
100
AcDbSpline
 62
7
  6
CONTINUOUS
 70
0
 71
3
 72
8
 73
4
 74
2
 42
0.0000001
 43
0.0000001
 44
0.0000000001
 12
-0.0046641476
 22
0.0337294285
 32
0.0
 13
-0.0017600156
 23
0.0338079427
 33
0.0
 40
0.0
 40
0.0
 40
0.0
 40
0.0
 40
1.0
 40
1.0
 40
1.0
 40
1.0
 10
37.0728029928
 20
-42.5455873222
 30
0.0
 10
37.071248277
 20
-42.5343441794
 30
0.0
 10
37.0702247867
 20
-42.5230358338
 30
0.0
 10
37.0696381148
 20
-42.5117665196
 30
0.0
 11
37.0728029928
 21
-42.5455873222
 31
0.0
 11
37.0696381148
 21
-42.5117665196
 31
0.0
  0
LINE
  5
595
100
AcDbEntity
  8
RACCORDO
100
AcDbLine
 62
253
  6
CONTINUOUS
 10
45.1934012269
 20
-41.1521974621
 11
45.1933385906
 21
-41.2152305949
  0
LINE
  5
596
100
AcDbEntity
  8
RACCORDO
100
AcDbLine
 62
253
  6
CONTINUOUS
 10
45.1933385906
 20
-41.2152305949
 11
45.1933236118
 21
-41.261001158
  0
LINE
  5
597
100
AcDbEntity
  8
DRAFT
100
AcDbLine
 62
7
  6
CONTINUOUS
 10
43.9575663005
 20
-41.3350572126
 11
38.9798348533
 21
-41.3320222115
  0
LINE
  5
598
100
AcDbEntity
  8
DRAFT
100
AcDbLine
 62
7
  6
CONTINUOUS
 10
38.9798348533
 20
-41.3320222115
 11
38.8315333397
 21
-41.3319375886
  0
LINE
  5
599
100
AcDbEntity
  8
DRAFT
100
AcDbLine
 62
7
  6
CONTINUOUS
 10
38.8315333397
 20
-41.3319375886
 11
38.3575663005
 21
-41.3316693856
  0
SPLINE
  5
59A
100
AcDbEntity
  8
RACCORDO
100
AcDbSpline
 62
253
  6
CONTINUOUS
 70
0
 71
3
 72
17
 73
13
 74
11
 42
0.0000001
 43
0.0000001
 44
0.0000000001
 12
0.0000001688
 22
-1.5974773688
 32
0.0
 13
0.3077927651
 23
-0.0837723179
 33
0.0
 40
0.0
 40
0.0
 40
0.0
 40
0.0
 40
0.1345477988
 40
0.2800101851
 40
0.4292765362
 40
0.5740715416
 40
0.7060714916
 40
0.818202586
 40
0.9052921106
 40
0.9642923666
 40
0.9951671064
 40
1.0
 40
1.0
 40
1.0
 40
1.0
 10
44.8933350349
 20
-41.3714537318
 30
0.0
 10
44.8933350425
 20
-41.4430994197
 30
0.0
 10
44.8934051241
 20
-41.5921970395
 30
0.0
 10
44.8937482203
 20
-41.8208109851
 30
0.0
 10
44.8943581204
 20
-42.0547487967
 30
0.0
 10
44.8953180205
 20
-42.2819904271
 30
0.0
 10
44.8963823082
 20
-42.4878966025
 30
0.0
 10
44.8982022331
 20
-42.6677283272
 30
0.0
 10
44.8987891775
 20
-42.79637337
 30
0.0
 10
44.9025080445
 20
-42.9092374198
 30
0.0
 10
44.9008626626
 20
-42.9321631575
 30
0.0
 10
44.904233025
 20
-42.9711309535
 30
0.0
 10
44.9047288683
 20
-42.9712659077
 30
0.0
 11
44.8933350349
 21
-41.3714537318
 31
0.0
 11
44.8934378836
 21
-41.5863907709
 31
0.0
 11
44.8937874224
 21
-41.8187633781
 31
0.0
 11
44.8944298889
 21
-42.0572121303
 31
0.0
 11
44.8953834708
 21
-42.2885169089
 31
0.0
 11
44.8966335301
 21
-42.4993801364
 31
0.0
 11
44.8981365041
 21
-42.6785007167
 31
0.0
 11
44.899826045
 21
-42.8176140018
 31
0.0
 11
44.9016122553
 21
-42.9118486483
 31
0.0
 11
44.9033937977
 21
-42.9611381605
 31
0.0
 11
44.9047288683
 21
-42.9712659077
 31
0.0
  0
LINE
  5
59B
100
AcDbEntity
  8
RACCORDO
100
AcDbLine
 62
253
  6
CONTINUOUS
 10
45.1933236118
 20
-41.3714537318
 11
45.1933343152
 21
-41.4280807024
  0
LINE
  5
59C
100
AcDbEntity
  8
RACCORDO
100
AcDbLine
 62
253
  6
CONTINUOUS
 10
45.1933343152
 20
-41.4280807024
 11
45.1936294187
 21
-41.6710025483
  0
LINE
  5
59D
100
AcDbEntity
  8
RACCORDO
100
AcDbLine
 62
253
  6
CONTINUOUS
 10
45.1936294187
 20
-41.6710025483
 11
45.1939538873
 21
-41.7992286761
  0
LINE
  5
59E
100
AcDbEntity
  8
RACCORDO
100
AcDbLine
 62
253
  6
CONTINUOUS
 10
45.1939538873
 20
-41.7992286761
 11
45.1944179947
 21
-41.9285171317
  0
LINE
  5
59F
100
AcDbEntity
  8
RACCORDO
100
AcDbLine
 62
253
  6
CONTINUOUS
 10
45.1947059482
 20
-41.9922008448
 11
45.195027833
 21
-42.0552423824
  0
LINE
  5
5A0
100
AcDbEntity
  8
RACCORDO
100
AcDbLine
 62
253
  6
CONTINUOUS
 10
45.1976840002
 20
-42.3881982819
 11
45.1981242598
 21
-42.4333619803
  0
LINE
  5
5A1
100
AcDbEntity
  8
RACCORDO
100
AcDbLine
 62
253
  6
CONTINUOUS
 10
45.1981242598
 20
-42.4333619803
 11
45.1989875639
 21
-42.5126538352
  0
SPLINE
  5
5A2
100
AcDbEntity
  8
RACCORDO
100
AcDbSpline
 62
253
  6
CONTINUOUS
 70
0
 71
3
 72
16
 73
12
 74
10
 42
0.0000001
 43
0.0000001
 44
0.0000000001
 12
0.0000001255
 22
-1.2993834447
 32
0.0
 13
0.3152785795
 23
1.2605541454
 33
0.0
 40
0.0
 40
0.0
 40
0.0
 40
0.0
 40
0.1343717321
 40
0.2796399135
 40
0.4287147264
 40
0.5733426492
 40
0.7052128821
 40
0.8172525262
 40
0.9042819941
 40
0.9632406783
 40
1.0
 40
1.0
 40
1.0
 40
1.0
 10
45.1933236118
 20
-41.3714537318
 30
0.0
 10
45.1933236174
 20
-41.4296538665
 30
0.0
 10
45.1933938257
 20
-41.5507839881
 30
0.0
 10
45.193736003
 20
-41.7364221414
 30
0.0
 10
45.1943486079
 20
-41.9267402715
 30
0.0
 10
45.1952978678
 20
-42.1103997407
 30
0.0
 10
45.1963954805
 20
-42.2808313953
 30
0.0
 10
45.1981180737
 20
-42.4179079635
 30
0.0
 10
45.1989537692
 20
-42.5456312904
 30
0.0
 10
45.2022560434
 20
-42.5899749898
 30
0.0
 10
45.20120133
 20
-42.6861075121
 30
0.0
 10
45.2050644722
 20
-42.6706618069
 30
0.0
 11
45.1933236118
 21
-41.3714537318
 31
0.0
 11
45.1934264138
 21
-41.5460541056
 31
0.0
 11
45.1937757953
 21
-41.7348128523
 31
0.0
 11
45.1944179947
 21
-41.9285171317
 31
0.0
 11
45.1953712939
 21
-42.1164418422
 31
0.0
 11
45.1966211985
 21
-42.287787281
 31
0.0
 11
45.1981242598
 21
-42.4333619803
 31
0.0
 11
45.1998141625
 21
-42.5464340027
 31
0.0
 11
45.2016007794
 21
-42.6230231052
 31
0.0
 11
45.2050644722
 21
-42.6706618069
 31
0.0
  0
SPLINE
  5
5A3
100
AcDbEntity
  8
RACCORDO
100
AcDbSpline
 62
253
  6
CONTINUOUS
 70
0
 71
3
 72
16
 73
12
 74
10
 42
0.0000001
 43
0.0000001
 44
0.0000000001
 12
0.0000001255
 22
-1.2993834447
 32
0.0
 13
0.3152785795
 23
1.2605541454
 33
0.0
 40
0.0
 40
0.0
 40
0.0
 40
0.0
 40
0.1343717321
 40
0.2796399135
 40
0.4287147264
 40
0.5733426492
 40
0.7052128821
 40
0.8172525262
 40
0.9042819941
 40
0.9632406783
 40
1.0
 40
1.0
 40
1.0
 40
1.0
 10
45.1933236118
 20
-41.3714537318
 30
0.0
 10
45.1933236174
 20
-41.4296538665
 30
0.0
 10
45.1933938257
 20
-41.5507839881
 30
0.0
 10
45.193736003
 20
-41.7364221414
 30
0.0
 10
45.1943486079
 20
-41.9267402715
 30
0.0
 10
45.1952978678
 20
-42.1103997407
 30
0.0
 10
45.1963954805
 20
-42.2808313953
 30
0.0
 10
45.1981180737
 20
-42.4179079635
 30
0.0
 10
45.1989537692
 20
-42.5456312904
 30
0.0
 10
45.2022560434
 20
-42.5899749898
 30
0.0
 10
45.20120133
 20
-42.6861075121
 30
0.0
 10
45.2050644722
 20
-42.6706618069
 30
0.0
 11
45.1933236118
 21
-41.3714537318
 31
0.0
 11
45.1934264138
 21
-41.5460541056
 31
0.0
 11
45.1937757953
 21
-41.7348128523
 31
0.0
 11
45.1944179947
 21
-41.9285171317
 31
0.0
 11
45.1953712939
 21
-42.1164418422
 31
0.0
 11
45.1966211985
 21
-42.287787281
 31
0.0
 11
45.1981242598
 21
-42.4333619803
 31
0.0
 11
45.1998141625
 21
-42.5464340027
 31
0.0
 11
45.2016007794
 21
-42.6230231052
 31
0.0
 11
45.2050644722
 21
-42.6706618069
 31
0.0
  0
SPLINE
  5
5A4
100
AcDbEntity
  8
RACCORDO
100
AcDbSpline
 62
253
  6
CONTINUOUS
 70
0
 71
3
 72
8
 73
4
 74
2
 42
0.0000001
 43
0.0000001
 44
0.0000000001
 12
0.0000222133
 22
-0.0728961248
 32
0.0
 13
-0.0179738516
 23
-0.0716447965
 33
0.0
 40
0.0
 40
0.0
 40
0.0
 40
0.0
 40
1.0
 40
1.0
 40
1.0
 40
1.0
 10
45.2050644722
 20
-42.6706618069
 30
0.0
 10
45.2050718767
 20
-42.6949605152
 30
0.0
 10
45.2019765467
 20
-42.7194797187
 30
0.0
 10
45.1959852628
 20
-42.7433613176
 30
0.0
 11
45.2050644722
 21
-42.6706618069
 31
0.0
 11
45.1959852628
 21
-42.7433613176
 31
0.0
  0
LINE
  5
5A5
100
AcDbEntity
  8
ASSI
100
AcDbLine
 62
7
  6
CONTINUOUS
 10
31.4715567573
 20
40.1985479082
 11
30.9837488986
 21
40.1984373708
  0
LINE
  5
5A6
100
AcDbEntity
  8
ASSI
100
AcDbLine
 62
7
  6
CONTINUOUS
 10
-28.0686162976
 20
40.1984373708
 11
-28.5564260768
 21
40.1985479087
  0
SPLINE
  5
5A7
100
AcDbEntity
  8
RACCORDO
100
AcDbSpline
 62
7
  6
CONTINUOUS
 70
0
 71
3
 72
11
 73
7
 74
5
 42
0.0000001
 43
0.0000001
 44
0.0000000001
 12
-0.4642815383
 22
0.0
 32
0.0
 13
0.0001836777
 23
0.4646373838
 33
0.0
 40
0.0
 40
0.0
 40
0.0
 40
0.0
 40
0.3021741243
 40
0.5598917586
 40
0.7928223976
 40
1.0
 40
1.0
 40
1.0
 40
1.0
 10
45.6206119077
 20
-43.1479098593
 30
0.0
 10
45.5738472853
 20
-43.1479098593
 30
0.0
 10
45.4856510663
 20
-43.1262623176
 30
0.0
 10
45.3887731955
 20
-43.0456841936
 30
0.0
 10
45.3365812846
 20
-42.9484935733
 30
0.0
 10
45.3259277836
 20
-42.8798523575
 30
0.0
 10
45.3259404682
 20
-42.8477648711
 30
0.0
 11
45.6206119077
 21
-43.1479098593
 31
0.0
 11
45.4844098674
 21
-43.1142739645
 31
0.0
 11
45.3921610562
 21
-43.0380694607
 31
0.0
 11
45.3408913705
 21
-42.942849474
 31
0.0
 11
45.3259404682
 21
-42.8477648711
 31
0.0
  0
SPLINE
  5
5A8
100
AcDbEntity
  8
RACCORDO
100
AcDbSpline
 62
7
  6
CONTINUOUS
 70
0
 71
3
 72
11
 73
7
 74
5
 42
0.0000001
 43
0.0000001
 44
0.0000000001
 12
0.4642815383
 22
0.0
 32
0.0
 13
-0.0001836777
 23
0.4646373838
 33
0.0
 40
0.0
 40
0.0
 40
0.0
 40
0.0
 40
0.3021741243
 40
0.5598917586
 40
0.7928223976
 40
1.0
 40
1.0
 40
1.0
 40
1.0
 10
36.6445206932
 20
-43.1479098593
 30
0.0
 10
36.6912853157
 20
-43.1479098593
 30
0.0
 10
36.7794815346
 20
-43.1262623176
 30
0.0
 10
36.8763594055
 20
-43.0456841936
 30
0.0
 10
36.9285513163
 20
-42.9484935733
 30
0.0
 10
36.9392048174
 20
-42.8798523575
 30
0.0
 10
36.9391921328
 20
-42.8477648711
 30
0.0
 11
36.6445206932
 21
-43.1479098593
 31
0.0
 11
36.7807227335
 21
-43.1142739645
 31
0.0
 11
36.8729715447
 21
-43.0380694607
 31
0.0
 11
36.9242412305
 21
-42.942849474
 31
0.0
 11
36.9391921328
 21
-42.8477648711
 31
0.0
  0
SPLINE
  5
5A9
100
AcDbEntity
  8
RACCORDO
100
AcDbSpline
 62
7
  6
CONTINUOUS
 70
0
 71
3
 72
11
 73
7
 74
5
 42
0.0000001
 43
0.0000001
 44
0.0000000001
 12
-0.4642815383
 22
0.0
 32
0.0
 13
0.0001836777
 23
0.4646373838
 33
0.0
 40
0.0
 40
0.0
 40
0.0
 40
0.0
 40
0.3021741243
 40
0.5598917586
 40
0.7928223976
 40
1.0
 40
1.0
 40
1.0
 40
1.0
 10
-33.7293880923
 20
-43.1479098593
 30
0.0
 10
-33.7761527147
 20
-43.1479098593
 30
0.0
 10
-33.8643489337
 20
-43.1262623176
 30
0.0
 10
-33.9612268045
 20
-43.0456841936
 30
0.0
 10
-34.0134187154
 20
-42.9484935733
 30
0.0
 10
-34.0240722164
 20
-42.8798523575
 30
0.0
 10
-34.0240595318
 20
-42.8477648711
 30
0.0
 11
-33.7293880923
 21
-43.1479098593
 31
0.0
 11
-33.8655901326
 21
-43.1142739645
 31
0.0
 11
-33.9578389438
 21
-43.0380694607
 31
0.0
 11
-34.0091086295
 21
-42.942849474
 31
0.0
 11
-34.0240595318
 21
-42.8477648711
 31
0.0
  0
SPLINE
  5
5AA
100
AcDbEntity
  8
RACCORDO
100
AcDbSpline
 62
7
  6
CONTINUOUS
 70
0
 71
3
 72
11
 73
7
 74
5
 42
0.0000001
 43
0.0000001
 44
0.0000000001
 12
0.4642815383
 22
0.0
 32
0.0
 13
-0.0001836777
 23
0.4646373838
 33
0.0
 40
0.0
 40
0.0
 40
0.0
 40
0.0
 40
0.3021741243
 40
0.5598917586
 40
0.7928223976
 40
1.0
 40
1.0
 40
1.0
 40
1.0
 10
-42.7054793068
 20
-43.1479098593
 30
0.0
 10
-42.6587146843
 20
-43.1479098593
 30
0.0
 10
-42.5705184654
 20
-43.1262623176
 30
0.0
 10
-42.4736405945
 20
-43.0456841936
 30
0.0
 10
-42.4214486837
 20
-42.9484935733
 30
0.0
 10
-42.4107951826
 20
-42.8798523575
 30
0.0
 10
-42.4108078672
 20
-42.8477648711
 30
0.0
 11
-42.7054793068
 21
-43.1479098593
 31
0.0
 11
-42.5692772665
 21
-43.1142739645
 31
0.0
 11
-42.4770284553
 21
-43.0380694607
 31
0.0
 11
-42.4257587695
 21
-42.942849474
 31
0.0
 11
-42.4108078672
 21
-42.8477648711
 31
0.0
  0
SPLINE
  5
5AB
100
AcDbEntity
  8
RACCORDO
100
AcDbSpline
 62
253
  6
CONTINUOUS
 70
0
 71
3
 72
12
 73
8
 74
6
 42
0.0000001
 43
0.0000001
 44
0.0000000001
 12
0.0003833479
 22
-2.727784585
 32
0.0
 13
-2.7277845337
 23
0.0006534554
 33
0.0
 40
0.0
 40
0.0
 40
0.0
 40
0.0
 40
0.2039190229
 40
0.4021982631
 40
0.597647164
 40
0.795899437
 40
1.0
 40
1.0
 40
1.0
 40
1.0
 10
62.6877643969
 20
-37.652532767
 30
0.0
 10
62.6877904542
 20
-37.8379484894
 30
0.0
 10
62.6319920491
 20
-38.2064255126
 30
0.0
 10
62.3839521849
 20
-38.6998357957
 30
0.0
 10
61.9967725693
 20
-39.0871220613
 30
0.0
 10
61.5033046666
 20
-39.3353507801
 30
0.0
 10
61.1346786959
 20
-39.3912437112
 30
0.0
 10
60.9490979095
 20
-39.3911992544
 30
0.0
 11
62.6877643969
 21
-37.652532767
 31
0.0
 11
62.6026438317
 21
-38.202228507
 31
0.0
 11
62.3589114212
 21
-38.685061151
 31
0.0
 11
61.9819725183
 21
-39.0620996018
 31
0.0
 11
61.4992717074
 21
-39.305929891
 31
0.0
 11
60.9490979095
 21
-39.3911992544
 31
0.0
  0
SPLINE
  5
5AC
100
AcDbEntity
  8
RACCORDO
100
AcDbSpline
 62
7
  6
CONTINUOUS
 70
0
 71
3
 72
10
 73
6
 74
4
 42
0.0000001
 43
0.0000001
 44
0.0000000001
 12
0.1699646422
 22
0.5879759324
 32
0.0
 13
0.319632037
 23
0.5219569308
 33
0.0
 40
0.0
 40
0.0
 40
0.0
 40
0.0
 40
0.3019935701
 40
0.6432275526
 40
1.0
 40
1.0
 40
1.0
 40
1.0
 10
-33.789295309
 20
-40.6702646999
 30
0.0
 10
-33.7721858993
 20
-40.6110763829
 30
0.0
 10
-33.7164218783
 20
-40.4911739607
 30
0.0
 10
-33.6157557302
 20
-40.3140107139
 30
0.0
 10
-33.5412655796
 20
-40.1925457224
 30
0.0
 10
-33.5032536116
 20
-40.1304724385
 30
0.0
 11
-33.789295309
 21
-40.6702646999
 31
0.0
 11
-33.717842758
 21
-40.4997993607
 31
0.0
 11
-33.6163102928
 21
-40.3172884105
 31
0.0
 11
-33.5032536116
 21
-40.1304724385
 31
0.0
  0
SPLINE
  5
5AD
100
AcDbEntity
  8
RACCORDO
100
AcDbSpline
 62
7
  6
CONTINUOUS
 70
0
 71
3
 72
10
 73
6
 74
4
 42
0.0000001
 43
0.0000001
 44
0.0000000001
 12
0.0018412701
 22
0.0841486789
 32
0.0
 13
0.0233972821
 23
0.0808514541
 33
0.0
 40
0.0
 40
0.0
 40
0.0
 40
0.0
 40
0.3045080786
 40
0.6373582252
 40
1.0
 40
1.0
 40
1.0
 40
1.0
 10
-33.8032577342
 20
-40.7530612189
 30
0.0
 10
-33.8030708403
 20
-40.7445199014
 30
0.0
 10
-33.8016668545
 20
-40.7266562832
 30
0.0
 10
-33.7968940877
 20
-40.6989805166
 30
0.0
 10
-33.7921235863
 20
-40.6800380715
 30
0.0
 10
-33.789295309
 20
-40.6702646999
 30
0.0
 11
-33.8032577342
 21
-40.7530612189
 31
0.0
 11
-33.801355402
 21
-40.7275018284
 31
0.0
 11
-33.7967039192
 21
-40.6998750697
 31
0.0
 11
-33.789295309
 21
-40.6702646999
 31
0.0
  0
SPLINE
  5
5AE
100
AcDbEntity
  8
RACCORDO
100
AcDbSpline
 62
253
  6
CONTINUOUS
 70
0
 71
3
 72
11
 73
7
 74
5
 42
0.0000001
 43
0.0000001
 44
0.0000000001
 12
-0.0012893685
 22
-1.0764858774
 32
0.0
 13
-0.0700182813
 23
-1.0742071249
 33
0.0
 40
0.0
 40
0.0
 40
0.0
 40
0.0
 40
0.3337145139
 40
0.6316876667
 40
0.8614557953
 40
1.0
 40
1.0
 40
1.0
 40
1.0
 10
-33.80325788
 20
-40.7530728866
 30
0.0
 10
-33.803401307
 20
-40.872819207
 30
0.0
 10
-33.8042911404
 20
-41.0994833004
 30
0.0
 10
-33.8071632718
 20
-41.4085991742
 30
0.0
 10
-33.8117411946
 20
-41.647615721
 30
0.0
 10
-33.8154992118
 20
-41.7797673148
 30
0.0
 10
-33.8187327542
 20
-41.8293757054
 30
0.0
 11
-33.80325788
 21
-40.7530728866
 31
0.0
 11
-33.8046809294
 21
-41.112309287
 31
0.0
 11
-33.8079857018
 21
-41.4330563832
 31
0.0
 11
-33.8128456575
 21
-41.6803509557
 31
0.0
 11
-33.8187327542
 21
-41.8293757054
 31
0.0
  0
SPLINE
  5
5AF
100
AcDbEntity
  8
RACCORDO
100
AcDbSpline
 62
253
  6
CONTINUOUS
 70
0
 71
3
 72
11
 73
7
 74
5
 42
0.0000001
 43
0.0000001
 44
0.0000000001
 12
-0.0000003229
 22
-1.4490349177
 32
0.0
 13
-0.0754660426
 23
-1.4470684397
 33
0.0
 40
0.0
 40
0.0
 40
0.0
 40
0.0
 40
0.3320065253
 40
0.630109413
 40
0.8611549073
 40
1.0
 40
1.0
 40
1.0
 40
1.0
 10
-33.5032536116
 20
-40.6702647138
 30
0.0
 10
-33.5032536473
 20
-40.8306277299
 30
0.0
 10
-33.5039572731
 20
-41.1349752539
 30
0.0
 10
-33.5067164522
 20
-41.5509269815
 30
0.0
 10
-33.5114458954
 20
-41.8735196727
 30
0.0
 10
-33.5152857491
 20
-42.0521806694
 30
0.0
 10
-33.5187784456
 20
-42.1191534533
 30
0.0
 11
-33.5032536116
 21
-40.6702647138
 31
0.0
 11
-33.5043602874
 21
-41.1513524891
 31
0.0
 11
-33.5075822486
 21
-41.5833019661
 31
0.0
 11
-33.5125750731
 21
-41.9180577234
 31
0.0
 11
-33.5187784456
 21
-42.1191534533
 31
0.0
  0
SPLINE
  5
5B0
100
AcDbEntity
  8
RACCORDO
100
AcDbSpline
 62
253
  6
CONTINUOUS
 70
0
 71
3
 72
10
 73
6
 74
4
 42
0.0000001
 43
0.0000001
 44
0.0000000001
 12
-0.4573383595
 22
0.0019957247
 32
0.0
 13
-0.0021383493
 23
0.4573377149
 33
0.0
 40
0.0
 40
0.0
 40
0.0
 40
0.0
 40
0.3381556607
 40
0.6717624489
 40
1.0
 40
1.0
 40
1.0
 40
1.0
 10
-33.5187784456
 20
-42.1191534533
 30
0.0
 10
-33.570328964
 20
-42.1189284981
 30
0.0
 10
-33.6744931642
 20
-42.0919357911
 30
0.0
 10
-33.7894145852
 20
-41.9820962529
 30
0.0
 10
-33.818498792
 20
-41.8794141759
 30
0.0
 10
-33.8187327542
 20
-41.8293757054
 30
0.0
 11
-33.5187784456
 21
-42.1191534533
 31
0.0
 11
-33.6683658368
 21
-42.0798956979
 31
0.0
 11
-33.7780963345
 21
-41.9738880261
 31
0.0
 11
-33.8187327542
 21
-41.8293757054
 31
0.0
  0
SPLINE
  5
5B1
100
AcDbEntity
  8
RACCORDO
100
AcDbSpline
 62
253
  6
CONTINUOUS
 70
0
 71
3
 72
9
 73
5
 74
3
 42
0.0000001
 43
0.0000001
 44
0.0000000001
 12
-0.0015572426
 22
-0.0239049701
 32
0.0
 13
-0.0169332739
 23
-0.0169451124
 33
0.0
 40
0.0
 40
0.0
 40
0.0
 40
0.0
 40
0.5233237959
 40
1.0
 40
1.0
 40
1.0
 40
1.0
 10
-33.873585034
 20
-42.6714020249
 30
0.0
 10
-33.8738566814
 20
-42.6755720381
 30
0.0
 10
-33.8752650892
 20
-42.6829986642
 30
0.0
 10
-33.8738436203
 20
-42.6924548892
 30
0.0
 10
-33.8765341832
 20
-42.6951473331
 30
0.0
 11
-33.873585034
 21
-42.6714020249
 31
0.0
 11
-33.8745557759
 21
-42.6839009402
 31
0.0
 11
-33.8765341832
 21
-42.6951473331
 31
0.0
  0
SPLINE
  5
5B2
100
AcDbEntity
  8
RACCORDO
100
AcDbSpline
 62
253
  6
CONTINUOUS
 70
0
 71
3
 72
9
 73
5
 74
3
 42
0.0000001
 43
0.0000001
 44
0.0000000001
 12
-0.0015520912
 22
-0.0340342261
 32
0.0
 13
-0.0195336919
 23
-0.02791366
 33
0.0
 40
0.0
 40
0.0
 40
0.0
 40
0.0
 40
0.5250092279
 40
1.0
 40
1.0
 40
1.0
 40
1.0
 10
-33.5736307254
 20
-42.9611797728
 30
0.0
 10
-33.5739023462
 20
-42.967135867
 30
0.0
 10
-33.5755341974
 20
-42.9779914914
 30
0.0
 10
-33.5734871002
 20
-42.9906820647
 30
0.0
 10
-33.5765798747
 20
-42.9951016417
 30
0.0
 11
-33.5736307254
 21
-42.9611797728
 31
0.0
 11
-33.5746017743
 21
-42.9790402485
 31
0.0
 11
-33.5765798747
 21
-42.9951016417
 31
0.0
  0
SPLINE
  5
5B3
100
AcDbEntity
  8
RACCORDO
100
AcDbSpline
 62
253
  6
CONTINUOUS
 70
0
 71
3
 72
10
 73
6
 74
4
 42
0.0000001
 43
0.0000001
 44
0.0000000001
 12
-0.4573383604
 22
0.001995718
 32
0.0
 13
-0.0021383493
 23
0.4573377158
 33
0.0
 40
0.0
 40
0.0
 40
0.0
 40
0.0
 40
0.3381558386
 40
0.6717626529
 40
1.0
 40
1.0
 40
1.0
 40
1.0
 10
-33.5736307254
 20
-42.9611797728
 30
0.0
 10
-33.625181271
 20
-42.9609548182
 30
0.0
 10
-33.729345506
 20
-42.9339620886
 30
0.0
 10
-33.844266893
 20
-42.8241225113
 30
0.0
 10
-33.873351072
 20
-42.7214404644
 30
0.0
 10
-33.873585034
 20
-42.6714020249
 30
0.0
 11
-33.5736307254
 21
-42.9611797728
 31
0.0
 11
-33.7232181905
 21
-42.9219219773
 31
0.0
 11
-33.8329486641
 21
-42.815914263
 31
0.0
 11
-33.873585034
 21
-42.6714020249
 31
0.0
  0
SPLINE
  5
5B4
100
AcDbEntity
  8
RACCORDO
100
AcDbSpline
 62
253
  6
CONTINUOUS
 70
0
 71
3
 72
12
 73
8
 74
6
 42
0.0000001
 43
0.0000001
 44
0.0000000001
 12
2.7277845316
 22
0.0006597395
 32
0.0
 13
-0.0003763511
 23
-2.7277845854
 33
0.0
 40
0.0
 40
0.0
 40
0.0
 40
0.0
 40
0.2041005458
 40
0.4023528141
 40
0.5978017149
 40
0.7960809598
 40
1.0
 40
1.0
 40
1.0
 40
1.0
 10
60.9490979095
 20
43.0691969384
 30
0.0
 10
61.1346786801
 20
43.0692418228
 30
0.0
 10
61.503304418
 20
43.0133476249
 30
0.0
 10
61.996772969
 20
42.7651203024
 30
0.0
 10
62.3839516186
 20
42.3778330797
 30
0.0
 10
62.6319929131
 20
41.8844234453
 30
0.0
 10
62.6877899786
 20
41.5159461893
 30
0.0
 10
62.6877643969
 20
41.3305304511
 30
0.0
 11
60.9490979095
 21
43.0691969384
 31
0.0
 11
61.4992716156
 21
42.9839272893
 31
0.0
 11
61.9819726438
 21
42.7400974591
 31
0.0
 11
62.3589112458
 21
42.363058708
 31
0.0
 11
62.6026441186
 21
41.8802262832
 31
0.0
 11
62.6877643969
 21
41.3305304511
 31
0.0
  0
SPLINE
  5
5B5
100
AcDbEntity
  8
RACCORDO
100
AcDbSpline
 62
7
  6
CONTINUOUS
 70
0
 71
3
 72
10
 73
6
 74
4
 42
0.0000001
 43
0.0000001
 44
0.0000000001
 12
0.3196320372
 22
-0.5219569311
 32
0.0
 13
0.1699646419
 23
-0.5879759329
 33
0.0
 40
0.0
 40
0.0
 40
0.0
 40
0.0
 40
0.3567724475
 40
0.6980064299
 40
1.0
 40
1.0
 40
1.0
 40
1.0
 10
-42.9316137875
 20
-40.1304724385
 30
0.0
 10
-42.8936018194
 20
-40.1925457224
 30
0.0
 10
-42.8191116688
 20
-40.314010714
 30
0.0
 10
-42.7184455206
 20
-40.4911739609
 30
0.0
 10
-42.6626814997
 20
-40.6110763832
 30
0.0
 10
-42.64557209
 20
-40.6702647002
 30
0.0
 11
-42.9316137875
 21
-40.1304724385
 31
0.0
 11
-42.8185571061
 21
-40.3172884106
 31
0.0
 11
-42.717024641
 21
-40.4997993609
 31
0.0
 11
-42.64557209
 21
-40.6702647002
 31
0.0
  0
SPLINE
  5
5B6
100
AcDbEntity
  8
RACCORDO
100
AcDbSpline
 62
7
  6
CONTINUOUS
 70
0
 71
3
 72
10
 73
6
 74
4
 42
0.0000001
 43
0.0000001
 44
0.0000000001
 12
0.0233972645
 22
-0.0808514609
 32
0.0
 13
0.0018412581
 23
-0.0841486808
 33
0.0
 40
0.0
 40
0.0
 40
0.0
 40
0.0
 40
0.3626417813
 40
0.6954919169
 40
1.0
 40
1.0
 40
1.0
 40
1.0
 10
-42.64557209
 20
-40.6702647002
 30
0.0
 10
-42.6427438148
 20
-40.6800380728
 30
0.0
 10
-42.637973294
 20
-40.6989805134
 30
0.0
 10
-42.6332005419
 20
-40.7266562837
 30
0.0
 10
-42.6317965574
 20
-40.7445199018
 30
0.0
 10
-42.6316096648
 20
-40.7530612197
 30
0.0
 11
-42.64557209
 21
-40.6702647002
 31
0.0
 11
-42.6381634697
 21
-40.6998750687
 31
0.0
 11
-42.6335119927
 21
-40.727501828
 31
0.0
 11
-42.6316096648
 21
-40.7530612197
 31
0.0
  0
SPLINE
  5
5B7
100
AcDbEntity
  8
RACCORDO
100
AcDbSpline
 62
253
  6
CONTINUOUS
 70
0
 71
3
 72
11
 73
7
 74
5
 42
0.0000001
 43
0.0000001
 44
0.0000000001
 12
-0.0754660823
 22
1.4470684377
 32
0.0
 13
-0.0000003261
 23
1.4490349177
 33
0.0
 40
0.0
 40
0.0
 40
0.0
 40
0.0
 40
0.1388450927
 40
0.369890587
 40
0.6679934747
 40
1.0
 40
1.0
 40
1.0
 40
1.0
 10
-42.9160889534
 20
-42.1191534533
 30
0.0
 10
-42.9195816518
 20
-42.0521806695
 30
0.0
 10
-42.9234215024
 20
-41.8735196726
 30
0.0
 10
-42.9281509475
 20
-41.5509269815
 30
0.0
 10
-42.9309101252
 20
-41.1349752538
 30
0.0
 10
-42.9316137514
 20
-40.8306277299
 30
0.0
 10
-42.9316137875
 20
-40.6702647138
 30
0.0
 11
-42.9160889534
 21
-42.1191534533
 31
0.0
 11
-42.9222923261
 21
-41.9180577234
 31
0.0
 11
-42.9272851505
 21
-41.5833019661
 31
0.0
 11
-42.9305071113
 21
-41.1513524891
 31
0.0
 11
-42.9316137875
 21
-40.6702647138
 31
0.0
  0
SPLINE
  5
5B8
100
AcDbEntity
  8
RACCORDO
100
AcDbSpline
 62
253
  6
CONTINUOUS
 70
0
 71
3
 72
10
 73
6
 74
4
 42
0.0000001
 43
0.0000001
 44
0.0000000001
 12
0.4573384033
 22
0.0019956993
 32
0.0
 13
0.0021383469
 23
0.4573377585
 33
0.0
 40
0.0
 40
0.0
 40
0.0
 40
0.0
 40
0.338192765
 40
0.6718046382
 40
1.0
 40
1.0
 40
1.0
 40
1.0
 10
-42.9160889534
 20
-42.1191534533
 30
0.0
 10
-42.8645327737
 20
-42.1189284762
 30
0.0
 10
-42.7603615213
 20
-42.0919309134
 30
0.0
 10
-42.6454469866
 20
-41.9820835741
 30
0.0
 10
-42.6163685767
 20
-41.8794077491
 30
0.0
 10
-42.6161346449
 20
-41.8293757054
 30
0.0
 11
-42.9160889534
 21
-42.1191534533
 31
0.0
 11
-42.7664862523
 21
-42.0798871274
 31
0.0
 11
-42.6567607754
 21
-41.9738708908
 31
0.0
 11
-42.6161346449
 21
-41.8293757054
 31
0.0
  0
SPLINE
  5
5B9
100
AcDbEntity
  8
RACCORDO
100
AcDbSpline
 62
253
  6
CONTINUOUS
 70
0
 71
3
 72
11
 73
7
 74
5
 42
0.0000001
 43
0.0000001
 44
0.0000000001
 12
-0.0700183425
 22
1.0742071268
 32
0.0
 13
-0.0012893748
 23
1.0764858834
 33
0.0
 40
0.0
 40
0.0
 40
0.0
 40
0.0
 40
0.1385441907
 40
0.3683123311
 40
0.6662854851
 40
1.0
 40
1.0
 40
1.0
 40
1.0
 10
-42.6161346449
 20
-41.8293757054
 30
0.0
 10
-42.6193681897
 20
-41.7797673197
 30
0.0
 10
-42.6231262033
 20
-41.6476157257
 30
0.0
 10
-42.6277041277
 20
-41.4085991781
 30
0.0
 10
-42.6305762583
 20
-41.0994832975
 30
0.0
 10
-42.6314660914
 20
-40.8728192021
 30
0.0
 10
-42.6316095191
 20
-40.7530728807
 30
0.0
 11
-42.6161346449
 21
-41.8293757054
 31
0.0
 11
-42.6220217417
 21
-41.68035097
 31
0.0
 11
-42.6268816973
 21
-41.4330563835
 31
0.0
 11
-42.6301864694
 21
-41.1123092841
 31
0.0
 11
-42.6316095191
 21
-40.7530728807
 31
0.0
  0
SPLINE
  5
5BA
100
AcDbEntity
  8
RACCORDO
100
AcDbSpline
 62
253
  6
CONTINUOUS
 70
0
 71
3
 72
10
 73
6
 74
4
 42
0.0000001
 43
0.0000001
 44
0.0000000001
 12
0.4573383603
 22
0.0019957177
 32
0.0
 13
0.0021383493
 23
0.4573377156
 33
0.0
 40
0.0
 40
0.0
 40
0.0
 40
0.0
 40
0.3381556414
 40
0.6717624337
 40
1.0
 40
1.0
 40
1.0
 40
1.0
 10
-42.8612366736
 20
-42.9611797728
 30
0.0
 10
-42.8096861581
 20
-42.9609548184
 30
0.0
 10
-42.7055219598
 20
-42.9339621144
 30
0.0
 10
-42.5906005365
 20
-42.8241225779
 30
0.0
 10
-42.5615163273
 20
-42.7214404978
 30
0.0
 10
-42.5612823651
 20
-42.6714020249
 30
0.0
 11
-42.8612366736
 21
-42.9611797728
 31
0.0
 11
-42.7116492899
 21
-42.9219220229
 31
0.0
 11
-42.6019187883
 21
-42.8159143521
 31
0.0
 11
-42.5612823651
 21
-42.6714020249
 31
0.0
  0
SPLINE
  5
5BB
100
AcDbEntity
  8
RACCORDO
100
AcDbSpline
 62
253
  6
CONTINUOUS
 70
0
 71
3
 72
9
 73
5
 74
3
 42
0.0000001
 43
0.0000001
 44
0.0000000001
 12
-0.0195336941
 22
0.0279136585
 32
0.0
 13
-0.0015520913
 23
0.0340342261
 33
0.0
 40
0.0
 40
0.0
 40
0.0
 40
0.0
 40
0.4749907721
 40
1.0
 40
1.0
 40
1.0
 40
1.0
 10
-42.8582875244
 20
-42.9951016417
 30
0.0
 10
-42.8613802992
 20
-42.9906820649
 30
0.0
 10
-42.8593332015
 20
-42.9779914912
 30
0.0
 10
-42.8609650529
 20
-42.967135867
 30
0.0
 10
-42.8612366736
 20
-42.9611797728
 30
0.0
 11
-42.8582875244
 21
-42.9951016417
 31
0.0
 11
-42.8602656248
 21
-42.9790402485
 31
0.0
 11
-42.8612366736
 21
-42.9611797728
 31
0.0
  0
SPLINE
  5
5BC
100
AcDbEntity
  8
RACCORDO
100
AcDbSpline
 62
253
  6
CONTINUOUS
 70
0
 71
3
 72
9
 73
5
 74
3
 42
0.0000001
 43
0.0000001
 44
0.0000000001
 12
-0.0169332779
 22
0.0169451084
 32
0.0
 13
-0.0015572426
 23
0.0239049701
 33
0.0
 40
0.0
 40
0.0
 40
0.0
 40
0.0
 40
0.4766762016
 40
1.0
 40
1.0
 40
1.0
 40
1.0
 10
-42.5583332158
 20
-42.6951473331
 30
0.0
 10
-42.5610237793
 20
-42.6924548898
 30
0.0
 10
-42.5596023095
 20
-42.6829986639
 30
0.0
 10
-42.5610107177
 20
-42.6755720382
 30
0.0
 10
-42.5612823651
 20
-42.6714020249
 30
0.0
 11
-42.5583332158
 21
-42.6951473331
 31
0.0
 11
-42.5603116231
 21
-42.6839009403
 31
0.0
 11
-42.5612823651
 21
-42.6714020249
 31
0.0
  0
SPLINE
  5
5BD
100
AcDbEntity
  8
RACCORDO
100
AcDbSpline
 62
253
  6
CONTINUOUS
 70
0
 71
3
 72
12
 73
8
 74
6
 42
0.0000001
 43
0.0000001
 44
0.0000000001
 12
-0.0003833479
 22
2.727784585
 32
0.0
 13
2.7277845337
 23
-0.0006534554
 33
0.0
 40
0.0
 40
0.0
 40
0.0
 40
0.0
 40
0.2039190229
 40
0.4021982631
 40
0.597647164
 40
0.795899437
 40
1.0
 40
1.0
 40
1.0
 40
1.0
 10
-59.7726317959
 20
41.3305304511
 30
0.0
 10
-59.7726578532
 20
41.5159461735
 30
0.0
 10
-59.7168594481
 20
41.8844231966
 30
0.0
 10
-59.4688195839
 20
42.3778334798
 30
0.0
 10
-59.0816399683
 20
42.7651197454
 30
0.0
 10
-58.5881720656
 20
43.0133484642
 30
0.0
 10
-58.219546095
 20
43.0692413953
 30
0.0
 10
-58.0339653086
 20
43.0691969384
 30
0.0
 11
-59.7726317959
 21
41.3305304511
 31
0.0
 11
-59.6875112308
 21
41.8802261911
 31
0.0
 11
-59.4437788203
 21
42.3630588351
 31
0.0
 11
-59.0668399174
 21
42.7400972859
 31
0.0
 11
-58.5841391065
 21
42.983927575
 31
0.0
 11
-58.0339653086
 21
43.0691969384
 31
0.0
  0
SPLINE
  5
5BE
100
AcDbEntity
  8
RACCORDO
100
AcDbSpline
 62
253
  6
CONTINUOUS
 70
0
 71
3
 72
11
 73
7
 74
5
 42
0.0000001
 43
0.0000001
 44
0.0000000001
 12
-0.1483542053
 22
-2.2146617274
 32
0.0
 13
-2.2146617274
 23
-0.1483542053
 33
0.0
 40
0.0
 40
0.0
 40
0.0
 40
0.0
 40
0.2479915066
 40
0.5
 40
0.7520084934
 40
1.0
 40
1.0
 40
1.0
 40
1.0
 10
65.4157185958
 20
-40.6702647138
 30
0.0
 10
65.4034550682
 20
-40.8533371466
 30
0.0
 10
65.3078428829
 20
-41.2207769284
 30
0.0
 10
64.9818895014
 20
-41.6853243589
 30
0.0
 10
64.517342071
 20
-42.0112777404
 30
0.0
 10
64.1499022892
 20
-42.1068899256
 30
0.0
 10
63.9668298564
 20
-42.1191534533
 30
0.0
 11
65.4157185958
 21
-40.6702647138
 31
0.0
 11
65.278818148
 21
-41.2034170891
 31
0.0
 11
64.9586671058
 21
-41.6621019633
 31
0.0
 11
64.4999822317
 21
-41.9822530054
 31
0.0
 11
63.9668298564
 21
-42.1191534533
 31
0.0
  0
SPLINE
  5
5BF
100
AcDbEntity
  8
RACCORDO
100
AcDbSpline
 62
253
  6
CONTINUOUS
 70
0
 71
3
 72
11
 73
7
 74
5
 42
0.0000001
 43
0.0000001
 44
0.0000000001
 12
2.2146617274
 22
-0.1483542053
 32
0.0
 13
0.1483542053
 23
-2.2146617274
 33
0.0
 40
0.0
 40
0.0
 40
0.0
 40
0.0
 40
0.2479915066
 40
0.5
 40
0.7520084934
 40
1.0
 40
1.0
 40
1.0
 40
1.0
 10
63.9668298564
 20
45.7971511374
 30
0.0
 10
64.1499022892
 20
45.7848876097
 30
0.0
 10
64.517342071
 20
45.6892754245
 30
0.0
 10
64.9818895014
 20
45.3633220429
 30
0.0
 10
65.3078428829
 20
44.8987746125
 30
0.0
 10
65.4034550682
 20
44.5313348307
 30
0.0
 10
65.4157185958
 20
44.3482623979
 30
0.0
 11
63.9668298564
 21
45.7971511374
 31
0.0
 11
64.4999822317
 21
45.6602506895
 31
0.0
 11
64.9586671058
 21
45.3400996473
 31
0.0
 11
65.278818148
 21
44.8814147732
 31
0.0
 11
65.4157185958
 21
44.3482623979
 31
0.0
  0
SPLINE
  5
5C0
100
AcDbEntity
  8
RACCORDO
100
AcDbSpline
 62
253
  6
CONTINUOUS
 70
0
 71
3
 72
11
 73
7
 74
5
 42
0.0000001
 43
0.0000001
 44
0.0000000001
 12
0.1483542053
 22
2.2146617274
 32
0.0
 13
2.2146617274
 23
0.1483542053
 33
0.0
 40
0.0
 40
0.0
 40
0.0
 40
0.0
 40
0.2479915066
 40
0.5
 40
0.7520084934
 40
1.0
 40
1.0
 40
1.0
 40
1.0
 10
-62.5005859948
 20
44.3482623979
 30
0.0
 10
-62.4883224672
 20
44.5313348307
 30
0.0
 10
-62.3927102819
 20
44.8987746125
 30
0.0
 10
-62.0667569004
 20
45.3633220429
 30
0.0
 10
-61.60220947
 20
45.6892754245
 30
0.0
 10
-61.2347696882
 20
45.7848876097
 30
0.0
 10
-61.0516972554
 20
45.7971511374
 30
0.0
 11
-62.5005859948
 21
44.3482623979
 31
0.0
 11
-62.363685547
 21
44.8814147732
 31
0.0
 11
-62.0435345048
 21
45.3400996473
 31
0.0
 11
-61.5848496307
 21
45.6602506895
 31
0.0
 11
-61.0516972554
 21
45.7971511374
 31
0.0
  0
SPLINE
  5
5C1
100
AcDbEntity
  8
RACCORDO
100
AcDbSpline
 62
253
  6
CONTINUOUS
 70
0
 71
3
 72
11
 73
7
 74
5
 42
0.0000001
 43
0.0000001
 44
0.0000000001
 12
-2.2146617274
 22
0.1483542053
 32
0.0
 13
-0.1483542053
 23
2.2146617274
 33
0.0
 40
0.0
 40
0.0
 40
0.0
 40
0.0
 40
0.2479915066
 40
0.5
 40
0.7520084934
 40
1.0
 40
1.0
 40
1.0
 40
1.0
 10
-61.0516972554
 20
-42.1191534533
 30
0.0
 10
-61.2347696882
 20
-42.1068899256
 30
0.0
 10
-61.60220947
 20
-42.0112777404
 30
0.0
 10
-62.0667569004
 20
-41.6853243589
 30
0.0
 10
-62.3927102819
 20
-41.2207769284
 30
0.0
 10
-62.4883224672
 20
-40.8533371466
 30
0.0
 10
-62.5005859948
 20
-40.6702647138
 30
0.0
 11
-61.0516972554
 21
-42.1191534533
 31
0.0
 11
-61.5848496307
 21
-41.9822530054
 31
0.0
 11
-62.0435345048
 21
-41.6621019633
 31
0.0
 11
-62.363685547
 21
-41.2034170891
 31
0.0
 11
-62.5005859948
 21
-40.6702647138
 31
0.0
  0
SPLINE
  5
5C2
100
AcDbEntity
  8
RACCORDO
100
AcDbSpline
 62
7
  6
CONTINUOUS
 70
0
 71
3
 72
11
 73
7
 74
5
 42
0.0000001
 43
0.0000001
 44
0.0000000001
 12
-0.1255900895
 22
0.1255900895
 32
0.0
 13
-0.0038411504
 23
0.1775696672
 33
0.0
 40
0.0
 40
0.0
 40
0.0
 40
0.0
 40
0.0756274072
 40
0.2712425949
 40
0.5820899234
 40
1.0
 40
1.0
 40
1.0
 40
1.0
 10
-42.6230842629
 20
-40.9303505946
 30
0.0
 10
-42.6262502805
 20
-40.927184577
 30
0.0
 10
-42.6240404764
 20
-40.9086316609
 30
0.0
 10
-42.6293335849
 20
-40.8764755112
 30
0.0
 10
-42.629423956
 20
-40.8205516265
 30
0.0
 10
-42.6310744339
 20
-40.7778089317
 30
0.0
 10
-42.6316095191
 20
-40.7530728807
 30
0.0
 11
-42.6230842629
 21
-40.9303505946
 31
0.0
 11
-42.6253815459
 21
-40.9171162262
 31
0.0
 11
-42.6276060985
 21
-40.8824440664
 31
0.0
 11
-42.6297008145
 21
-40.827273849
 31
0.0
 11
-42.6316095191
 21
-40.7530728807
 31
0.0
  0
SPLINE
  5
5C3
100
AcDbEntity
  8
RACCORDO
100
AcDbSpline
 62
7
  6
CONTINUOUS
 70
0
 71
3
 72
11
 73
7
 74
5
 42
0.0000001
 43
0.0000001
 44
0.0000000001
 12
-0.0038411502
 22
-0.1775696612
 32
0.0
 13
-0.1255900852
 23
-0.1255900852
 33
0.0
 40
0.0
 40
0.0
 40
0.0
 40
0.0
 40
0.4179101726
 40
0.7287572646
 40
0.9243724655
 40
1.0
 40
1.0
 40
1.0
 40
1.0
 10
-33.80325788
 20
-40.7530728866
 30
0.0
 10
-33.8037929653
 20
-40.7778089425
 30
0.0
 10
-33.8054434432
 20
-40.8205516276
 30
0.0
 10
-33.8055338147
 20
-40.8764755019
 30
0.0
 10
-33.810826923
 20
-40.9086316455
 30
0.0
 10
-33.8086171133
 20
-40.9271845718
 30
0.0
 10
-33.8117831362
 20
-40.9303505946
 30
0.0
 11
-33.80325788
 21
-40.7530728866
 31
0.0
 11
-33.8051665852
 21
-40.8272738694
 31
0.0
 11
-33.8072612995
 21
-40.882444043
 31
0.0
 11
-33.809485851
 21
-40.9171162041
 31
0.0
 11
-33.8117831362
 21
-40.9303505946
 31
0.0
  0
SPLINE
  5
5C4
100
AcDbEntity
  8
RACCORDO
100
AcDbSpline
 62
7
  6
CONTINUOUS
 70
0
 71
3
 72
11
 73
7
 74
5
 42
0.0000001
 43
0.0000001
 44
0.0000000001
 12
-0.1255900895
 22
0.1255900895
 32
0.0
 13
-0.0038411504
 23
0.1775696672
 33
0.0
 40
0.0
 40
0.0
 40
0.0
 40
0.0
 40
0.0756274072
 40
0.2712425949
 40
0.5820899234
 40
1.0
 40
1.0
 40
1.0
 40
1.0
 10
36.7269157371
 20
-40.9303505946
 30
0.0
 10
36.7237497195
 20
-40.927184577
 30
0.0
 10
36.7259595236
 20
-40.9086316609
 30
0.0
 10
36.7206664151
 20
-40.8764755112
 30
0.0
 10
36.720576044
 20
-40.8205516265
 30
0.0
 10
36.7189255661
 20
-40.7778089317
 30
0.0
 10
36.7183904809
 20
-40.7530728807
 30
0.0
 11
36.7269157371
 21
-40.9303505946
 31
0.0
 11
36.7246184541
 21
-40.9171162262
 31
0.0
 11
36.7223939015
 21
-40.8824440664
 31
0.0
 11
36.7202991855
 21
-40.827273849
 31
0.0
 11
36.7183904809
 21
-40.7530728807
 31
0.0
  0
SPLINE
  5
5C5
100
AcDbEntity
  8
RACCORDO
100
AcDbSpline
 62
7
  6
CONTINUOUS
 70
0
 71
3
 72
11
 73
7
 74
5
 42
0.0000001
 43
0.0000001
 44
0.0000000001
 12
-0.0038411502
 22
-0.1775696612
 32
0.0
 13
-0.1255900852
 23
-0.1255900852
 33
0.0
 40
0.0
 40
0.0
 40
0.0
 40
0.0
 40
0.4179101726
 40
0.7287572646
 40
0.9243724655
 40
1.0
 40
1.0
 40
1.0
 40
1.0
 10
45.54674212
 20
-40.7530728866
 30
0.0
 10
45.5462070347
 20
-40.7778089425
 30
0.0
 10
45.5445565568
 20
-40.8205516276
 30
0.0
 10
45.5444661853
 20
-40.8764755019
 30
0.0
 10
45.539173077
 20
-40.9086316455
 30
0.0
 10
45.5413828867
 20
-40.9271845718
 30
0.0
 10
45.5382168638
 20
-40.9303505946
 30
0.0
 11
45.54674212
 21
-40.7530728866
 31
0.0
 11
45.5448334148
 21
-40.8272738694
 31
0.0
 11
45.5427387005
 21
-40.882444043
 31
0.0
 11
45.540514149
 21
-40.9171162041
 31
0.0
 11
45.5382168638
 21
-40.9303505946
 31
0.0
  0
SPLINE
  5
5C6
100
AcDbEntity
  8
RACCORDO
100
AcDbSpline
 62
253
  6
CONTINUOUS
 70
0
 71
3
 72
9
 73
5
 74
3
 42
0.0000001
 43
0.0000001
 44
0.0000000001
 12
0.0500273151
 22
0.0001040851
 32
0.0
 13
0.0499923723
 23
0.0018723774
 33
0.0
 40
0.0
 40
0.0
 40
0.0
 40
0.0
 40
0.4996144035
 40
1.0
 40
1.0
 40
1.0
 40
1.0
 10
64.7918952414
 20
-42.9951016417
 30
0.0
 10
64.8002266972
 20
-42.9950843075
 30
0.0
 10
64.8169019516
 20
-42.9949193504
 30
0.0
 10
64.8335751312
 20
-42.9945495194
 30
0.0
 10
64.8419136189
 20
-42.9942372158
 30
0.0
 11
64.7918952414
 21
-42.9951016417
 31
0.0
 11
64.8168885739
 21
-42.9948683381
 31
0.0
 11
64.8419136189
 21
-42.9942372158
 31
0.0
  0
SPLINE
  5
5C7
100
AcDbEntity
  8
RACCORDO
100
AcDbSpline
 62
253
  6
CONTINUOUS
 70
0
 71
3
 72
10
 73
6
 74
4
 42
0.0000001
 43
0.0000001
 44
0.0000000001
 12
0.0229099768
 22
-0.0428811253
 32
0.0
 13
0.048371086
 23
-0.004888352
 33
0.0
 40
0.0
 40
0.0
 40
0.0
 40
0.0
 40
0.4319217798
 40
0.7560263009
 40
1.0
 40
1.0
 40
1.0
 40
1.0
 10
64.8085584422
 20
-42.9608029333
 30
0.0
 10
64.8118568815
 20
-42.9669766973
 30
0.0
 10
64.8182410129
 20
-42.9774956404
 30
0.0
 10
64.8292174529
 20
-42.9896206381
 30
0.0
 10
64.8379770578
 20
-42.9937554099
 30
0.0
 10
64.8419108154
 20
-42.994152953
 30
0.0
 11
64.8085584422
 21
-42.9608029333
 31
0.0
 11
64.8197762796
 21
-42.9785544318
 31
0.0
 11
64.8309186134
 21
-42.9896960596
 31
0.0
 11
64.8419108154
 21
-42.994152953
 31
0.0
  0
SPLINE
  5
5C8
100
AcDbEntity
  8
RACCORDO
100
AcDbSpline
 62
253
  6
CONTINUOUS
 70
0
 71
3
 72
12
 73
8
 74
6
 42
0.0000001
 43
0.0000001
 44
0.0000000001
 12
2.2274855717
 22
0.1252303432
 32
0.0
 13
0.1251213014
 23
2.2274916994
 33
0.0
 40
0.0
 40
0.0
 40
0.0
 40
0.0
 40
0.1982441796
 40
0.3990383276
 40
0.600681007
 40
0.8013711023
 40
1.0
 40
1.0
 40
1.0
 40
1.0
 10
64.8085584333
 20
-42.9608820302
 30
0.0
 10
64.9557537832
 20
-42.9526066347
 30
0.0
 10
65.2512173542
 20
-42.8907335791
 30
0.0
 10
65.6488307454
 20
-42.6743963394
 30
0.0
 10
65.9705229419
 20
-42.3528339729
 30
0.0
 10
66.1871449165
 20
-41.9551490505
 30
0.0
 10
66.2491629373
 20
-41.6594746978
 30
0.0
 10
66.2574471727
 20
-41.5119932908
 30
0.0
 11
64.8085584333
 21
-42.9608820302
 31
0.0
 11
65.2415977595
 21
-42.870929149
 31
0.0
 11
65.6353888647
 21
-42.6573693263
 31
0.0
 11
65.9535562193
 21
-42.3393308975
 31
0.0
 11
66.1671959065
 21
-41.9458472461
 31
0.0
 11
66.2574471727
 21
-41.5119932908
 31
0.0
  0
SPLINE
  5
5C9
100
AcDbEntity
  8
RACCORDO
100
AcDbSpline
 62
253
  6
CONTINUOUS
 70
0
 71
3
 72
10
 73
6
 74
4
 42
0.0000001
 43
0.0000001
 44
0.0000000001
 12
0.0413204635
 22
-0.0336237574
 32
0.0
 13
0.0004660629
 23
-0.0532702596
 33
0.0
 40
0.0
 40
0.0
 40
0.0
 40
0.0
 40
0.4786660588
 40
0.7677107895
 40
1.0
 40
1.0
 40
1.0
 40
1.0
 10
66.257668395
 20
-41.5036628074
 30
0.0
 10
66.2642612962
 20
-41.5090276578
 30
0.0
 10
66.2717892036
 20
-41.5207203624
 30
0.0
 10
66.2862546161
 20
-41.5316692972
 30
0.0
 10
66.2892808652
 20
-41.5411588376
 30
0.0
 10
66.2893169523
 20
-41.5452835398
 30
0.0
 11
66.257668395
 21
-41.5036628074
 31
0.0
 11
66.2750392568
 21
-41.5223305565
 31
0.0
 11
66.2856876966
 21
-41.5334531241
 31
0.0
 11
66.2893169523
 21
-41.5452835398
 31
0.0
  0
SPLINE
  5
5CA
100
AcDbEntity
  8
RACCORDO
100
AcDbSpline
 62
253
  6
CONTINUOUS
 70
0
 71
3
 72
9
 73
5
 74
3
 42
0.0000001
 43
0.0000001
 44
0.0000000001
 12
-0.0001040851
 22
0.0500273151
 32
0.0
 13
-0.0018723774
 23
0.0499923723
 33
0.0
 40
0.0
 40
0.0
 40
0.0
 40
0.0
 40
0.4996144035
 40
1.0
 40
1.0
 40
1.0
 40
1.0
 10
66.2916667842
 20
45.173327783
 30
0.0
 10
66.29164945
 20
45.1816592387
 30
0.0
 10
66.291484493
 20
45.1983344932
 30
0.0
 10
66.2911146619
 20
45.2150076728
 30
0.0
 10
66.2908023583
 20
45.2233461604
 30
0.0
 11
66.2916667842
 21
45.173327783
 31
0.0
 11
66.2914334806
 21
45.1983211154
 31
0.0
 11
66.2908023583
 21
45.2233461604
 31
0.0
  0
SPLINE
  5
5CB
100
AcDbEntity
  8
RACCORDO
100
AcDbSpline
 62
253
  6
CONTINUOUS
 70
0
 71
3
 72
10
 73
6
 74
4
 42
0.0000001
 43
0.0000001
 44
0.0000000001
 12
0.0428811253
 22
0.0229099768
 32
0.0
 13
0.004888352
 23
0.048371086
 33
0.0
 40
0.0
 40
0.0
 40
0.0
 40
0.0
 40
0.4319217798
 40
0.7560263009
 40
1.0
 40
1.0
 40
1.0
 40
1.0
 10
66.2573680758
 20
45.1899909838
 30
0.0
 10
66.2635418398
 20
45.1932894231
 30
0.0
 10
66.274060783
 20
45.1996735545
 30
0.0
 10
66.2861857806
 20
45.2106499945
 30
0.0
 10
66.2903205524
 20
45.2194095993
 30
0.0
 10
66.2907180956
 20
45.2233433569
 30
0.0
 11
66.2573680758
 21
45.1899909838
 31
0.0
 11
66.2751195743
 21
45.2012088211
 31
0.0
 11
66.2862612021
 21
45.2123511549
 31
0.0
 11
66.2907180956
 21
45.2233433569
 31
0.0
  0
SPLINE
  5
5CC
100
AcDbEntity
  8
RACCORDO
100
AcDbSpline
 62
253
  6
CONTINUOUS
 70
0
 71
3
 72
12
 73
8
 74
6
 42
0.0000001
 43
0.0000001
 44
0.0000000001
 12
-0.1252303432
 22
2.2274855717
 32
0.0
 13
-2.2274916994
 23
0.1251213014
 33
0.0
 40
0.0
 40
0.0
 40
0.0
 40
0.0
 40
0.1982441796
 40
0.3990383276
 40
0.600681007
 40
0.8013711023
 40
1.0
 40
1.0
 40
1.0
 40
1.0
 10
66.2574471727
 20
45.1899909749
 30
0.0
 10
66.2491717772
 20
45.3371863248
 30
0.0
 10
66.1872987216
 20
45.6326498958
 30
0.0
 10
65.9709614819
 20
46.030263287
 30
0.0
 10
65.6493991154
 20
46.3519554835
 30
0.0
 10
65.251714193
 20
46.5685774581
 30
0.0
 10
64.9560398403
 20
46.6305954789
 30
0.0
 10
64.8085584333
 20
46.6388797143
 30
0.0
 11
66.2574471727
 21
45.1899909749
 31
0.0
 11
66.1674942916
 21
45.623030301
 31
0.0
 11
65.9539344688
 21
46.0168214062
 31
0.0
 11
65.63589604
 21
46.3349887608
 31
0.0
 11
65.2424123887
 21
46.5486284481
 31
0.0
 11
64.8085584333
 21
46.6388797143
 31
0.0
  0
SPLINE
  5
5CD
100
AcDbEntity
  8
RACCORDO
100
AcDbSpline
 62
253
  6
CONTINUOUS
 70
0
 71
3
 72
10
 73
6
 74
4
 42
0.0000001
 43
0.0000001
 44
0.0000000001
 12
0.0336237574
 22
0.0413204635
 32
0.0
 13
0.0532702596
 23
0.0004660629
 33
0.0
 40
0.0
 40
0.0
 40
0.0
 40
0.0
 40
0.4786660588
 40
0.7677107895
 40
1.0
 40
1.0
 40
1.0
 40
1.0
 10
64.8002279499
 20
46.6391009366
 30
0.0
 10
64.8055928004
 20
46.6456938377
 30
0.0
 10
64.817285505
 20
46.6532217451
 30
0.0
 10
64.8282344397
 20
46.6676871576
 30
0.0
 10
64.8377239801
 20
46.6707134067
 30
0.0
 10
64.8418486823
 20
46.6707494939
 30
0.0
 11
64.8002279499
 21
46.6391009366
 31
0.0
 11
64.818895699
 21
46.6564717984
 31
0.0
 11
64.8300182666
 21
46.6671202381
 31
0.0
 11
64.8418486823
 21
46.6707494939
 31
0.0
  0
SPLINE
  5
5CE
100
AcDbEntity
  8
RACCORDO
100
AcDbSpline
 62
253
  6
CONTINUOUS
 70
0
 71
3
 72
9
 73
5
 74
3
 42
0.0000001
 43
0.0000001
 44
0.0000000001
 12
-0.0500273151
 22
-0.0001040851
 32
0.0
 13
-0.0499923723
 23
-0.0018723772
 33
0.0
 40
0.0
 40
0.0
 40
0.0
 40
0.0
 40
0.4996144035
 40
1.0
 40
1.0
 40
1.0
 40
1.0
 10
-61.8767626405
 20
46.6730993257
 30
0.0
 10
-61.8850940962
 20
46.6730819916
 30
0.0
 10
-61.9017693507
 20
46.6729170346
 30
0.0
 10
-61.9184425302
 20
46.6725472034
 30
0.0
 10
-61.9267810179
 20
46.6722348999
 30
0.0
 11
-61.8767626405
 21
46.6730993257
 31
0.0
 11
-61.9017559729
 21
46.6728660222
 31
0.0
 11
-61.9267810179
 21
46.6722348999
 31
0.0
  0
SPLINE
  5
5CF
100
AcDbEntity
  8
RACCORDO
100
AcDbSpline
 62
253
  6
CONTINUOUS
 70
0
 71
3
 72
10
 73
6
 74
4
 42
0.0000001
 43
0.0000001
 44
0.0000000001
 12
-0.0229101112
 22
0.0428813889
 32
0.0
 13
-0.0483713496
 23
0.0048886853
 33
0.0
 40
0.0
 40
0.0
 40
0.0
 40
0.0
 40
0.4319215034
 40
0.7560260181
 40
1.0
 40
1.0
 40
1.0
 40
1.0
 10
-61.8934258496
 20
46.6388048597
 30
0.0
 10
-61.8967243061
 20
46.6449786577
 30
0.0
 10
-61.9031084702
 20
46.6554976619
 30
0.0
 10
-61.9140849498
 20
46.6676227553
 30
0.0
 10
-61.9228445906
 20
46.6717575877
 30
0.0
 10
-61.9267783742
 20
46.6721551583
 30
0.0
 11
-61.8934258496
 21
46.6388048597
 31
0.0
 11
-61.9046437373
 21
46.6565564616
 31
0.0
 11
-61.9157861128
 21
46.6676981828
 31
0.0
 11
-61.9267783742
 21
46.6721551583
 31
0.0
  0
SPLINE
  5
5D0
100
AcDbEntity
  8
RACCORDO
100
AcDbSpline
 62
253
  6
CONTINUOUS
 70
0
 71
3
 72
12
 73
8
 74
6
 42
0.0000001
 43
0.0000001
 44
0.0000000001
 12
-2.2274916685
 22
-0.1251222689
 32
0.0
 13
-0.1252314144
 23
-2.2274855349
 33
0.0
 40
0.0
 40
0.0
 40
0.0
 40
0.0
 40
0.1981276399
 40
0.3989919472
 40
0.6006465754
 40
0.8013214011
 40
1.0
 40
1.0
 40
1.0
 40
1.0
 10
-61.8934258324
 20
46.6388797143
 30
0.0
 10
-62.0405350548
 20
46.630616321
 30
0.0
 10
-62.335962523
 20
46.5687686797
 30
0.0
 10
-62.7335848693
 20
46.3524921344
 30
0.0
 10
-63.0553290736
 20
46.0309100073
 30
0.0
 10
-63.2719956445
 20
45.6332097158
 30
0.0
 10
-63.3340209711
 20
45.3375088766
 30
0.0
 10
-63.3423145718
 20
45.1899909749
 30
0.0
 11
-61.8934258324
 21
46.6388797143
 31
0.0
 11
-62.3262185252
 21
46.5490178873
 31
0.0
 11
-62.7201725256
 21
46.3354300955
 31
0.0
 11
-63.0383766271
 21
46.0173907154
 31
0.0
 11
-63.2520240572
 21
45.6239500274
 31
0.0
 11
-63.3423145718
 21
45.1899909749
 31
0.0
  0
SPLINE
  5
5D1
100
AcDbEntity
  8
RACCORDO
100
AcDbSpline
 62
253
  6
CONTINUOUS
 70
0
 71
3
 72
10
 73
6
 74
4
 42
0.0000001
 43
0.0000001
 44
0.0000000001
 12
-0.0413204525
 22
0.0336237529
 32
0.0
 13
-0.0004660882
 23
0.0532702479
 33
0.0
 40
0.0
 40
0.0
 40
0.0
 40
0.0
 40
0.4786663441
 40
0.7677116088
 40
1.0
 40
1.0
 40
1.0
 40
1.0
 10
-63.3425357941
 20
45.1816604914
 30
0.0
 10
-63.3491286974
 20
45.1870253444
 30
0.0
 10
-63.3566566203
 20
45.198718052
 30
0.0
 10
-63.371121988
 20
45.2096670185
 30
0.0
 10
-63.3741482624
 20
45.2191565371
 30
0.0
 10
-63.3741843514
 20
45.2232812239
 30
0.0
 11
-63.3425357941
 21
45.1816604914
 31
0.0
 11
-63.3599066569
 21
45.2003282529
 31
0.0
 11
-63.3705550951
 21
45.2114508567
 31
0.0
 11
-63.3741843514
 21
45.2232812239
 31
0.0
  0
SPLINE
  5
5D2
100
AcDbEntity
  8
RACCORDO
100
AcDbSpline
 62
253
  6
CONTINUOUS
 70
0
 71
3
 72
9
 73
5
 74
3
 42
0.0000001
 43
0.0000001
 44
0.0000000001
 12
0.0001040851
 22
-0.0500273151
 32
0.0
 13
0.0018723774
 23
-0.0499923723
 33
0.0
 40
0.0
 40
0.0
 40
0.0
 40
0.0
 40
0.4996144035
 40
1.0
 40
1.0
 40
1.0
 40
1.0
 10
-63.3765341832
 20
-41.4953300989
 30
0.0
 10
-63.3765168491
 20
-41.5036615547
 30
0.0
 10
-63.376351892
 20
-41.5203368091
 30
0.0
 10
-63.3759820609
 20
-41.5370099887
 30
0.0
 10
-63.3756697574
 20
-41.5453484764
 30
0.0
 11
-63.3765341832
 21
-41.4953300989
 31
0.0
 11
-63.3763008797
 21
-41.5203234313
 31
0.0
 11
-63.3756697574
 21
-41.5453484764
 31
0.0
  0
SPLINE
  5
5D3
100
AcDbEntity
  8
RACCORDO
100
AcDbSpline
 62
253
  6
CONTINUOUS
 70
0
 71
3
 72
10
 73
6
 74
4
 42
0.0000001
 43
0.0000001
 44
0.0000000001
 12
-0.0428811253
 22
-0.0229099768
 32
0.0
 13
-0.004888352
 23
-0.048371086
 33
0.0
 40
0.0
 40
0.0
 40
0.0
 40
0.0
 40
0.4319217798
 40
0.7560263009
 40
1.0
 40
1.0
 40
1.0
 40
1.0
 10
-63.3422354749
 20
-41.5119932997
 30
0.0
 10
-63.3484092388
 20
-41.515291739
 30
0.0
 10
-63.358928182
 20
-41.5216758704
 30
0.0
 10
-63.3710531797
 20
-41.5326523104
 30
0.0
 10
-63.3751879515
 20
-41.5414119153
 30
0.0
 10
-63.3755854946
 20
-41.5453456729
 30
0.0
 11
-63.3422354749
 21
-41.5119932997
 31
0.0
 11
-63.3599869734
 21
-41.523211137
 31
0.0
 11
-63.3711286011
 21
-41.5343534709
 31
0.0
 11
-63.3755854946
 21
-41.5453456729
 31
0.0
  0
SPLINE
  5
5D4
100
AcDbEntity
  8
RACCORDO
100
AcDbSpline
 62
253
  6
CONTINUOUS
 70
0
 71
3
 72
12
 73
8
 74
6
 42
0.0000001
 43
0.0000001
 44
0.0000000001
 12
0.1252303432
 22
-2.2274855717
 32
0.0
 13
2.2274916994
 23
-0.1251213014
 33
0.0
 40
0.0
 40
0.0
 40
0.0
 40
0.0
 40
0.1982441796
 40
0.3990383276
 40
0.600681007
 40
0.8013711023
 40
1.0
 40
1.0
 40
1.0
 40
1.0
 10
-63.3423145718
 20
-41.5119932908
 30
0.0
 10
-63.3340391762
 20
-41.6591886407
 30
0.0
 10
-63.2721661207
 20
-41.9546522117
 30
0.0
 10
-63.055828881
 20
-42.3522656029
 30
0.0
 10
-62.7342665145
 20
-42.6739577994
 30
0.0
 10
-62.336581592
 20
-42.890579774
 30
0.0
 10
-62.0409072393
 20
-42.9525977948
 30
0.0
 10
-61.8934258324
 20
-42.9608820302
 30
0.0
 11
-63.3423145718
 21
-41.5119932908
 31
0.0
 11
-63.2523616906
 21
-41.9450326169
 31
0.0
 11
-63.0388018679
 21
-42.3388237221
 31
0.0
 11
-62.7207634391
 21
-42.6569910768
 31
0.0
 11
-62.3272797877
 21
-42.870630764
 31
0.0
 11
-61.8934258324
 21
-42.9608820302
 31
0.0
  0
SPLINE
  5
5D5
100
AcDbEntity
  8
RACCORDO
100
AcDbSpline
 62
253
  6
CONTINUOUS
 70
0
 71
3
 72
10
 73
6
 74
4
 42
0.0000001
 43
0.0000001
 44
0.0000000001
 12
-0.0336237574
 22
-0.0413204635
 32
0.0
 13
-0.0532702596
 23
-0.0004660629
 33
0.0
 40
0.0
 40
0.0
 40
0.0
 40
0.0
 40
0.4786660588
 40
0.7677107895
 40
1.0
 40
1.0
 40
1.0
 40
1.0
 10
-61.8850953489
 20
-42.9611032525
 30
0.0
 10
-61.8904601994
 20
-42.9676961537
 30
0.0
 10
-61.902152904
 20
-42.975224061
 30
0.0
 10
-61.9131018388
 20
-42.9896894735
 30
0.0
 10
-61.9225913792
 20
-42.9927157227
 30
0.0
 10
-61.9267160813
 20
-42.9927518098
 30
0.0
 11
-61.8850953489
 21
-42.9611032525
 31
0.0
 11
-61.903763098
 21
-42.9784741143
 31
0.0
 11
-61.9148856656
 21
-42.9891225541
 31
0.0
 11
-61.9267160813
 21
-42.9927518098
 31
0.0
  0
SPLINE
  5
5D6
100
AcDbEntity
  8
RACCORDO
100
AcDbSpline
 62
253
  6
CONTINUOUS
 70
0
 71
3
 72
12
 73
8
 74
6
 42
0.0000001
 43
0.0000001
 44
0.0000000001
 12
-2.727784585
 22
-0.0003833479
 32
0.0
 13
0.0006534554
 23
2.7277845337
 33
0.0
 40
0.0
 40
0.0
 40
0.0
 40
0.0
 40
0.2039190229
 40
0.4021982631
 40
0.597647164
 40
0.795899437
 40
1.0
 40
1.0
 40
1.0
 40
1.0
 10
-58.0339653086
 20
-39.3911992544
 30
0.0
 10
-58.219381031
 20
-39.3912253117
 30
0.0
 10
-58.5878580541
 20
-39.3354269065
 30
0.0
 10
-59.0812683372
 20
-39.0873870423
 30
0.0
 10
-59.4685546028
 20
-38.7002074268
 30
0.0
 10
-59.7167833216
 20
-38.206739524
 30
0.0
 10
-59.7726762528
 20
-37.8381135534
 30
0.0
 10
-59.7726317959
 20
-37.652532767
 30
0.0
 11
-58.0339653086
 21
-39.3911992544
 31
0.0
 11
-58.5836610486
 21
-39.3060786892
 31
0.0
 11
-59.0664936926
 21
-39.0623462787
 31
0.0
 11
-59.4435321433
 21
-38.6854073758
 31
0.0
 11
-59.6873624325
 21
-38.2027065649
 31
0.0
 11
-59.7726317959
 21
-37.652532767
 31
0.0
  0
SPLINE
  5
5D7
100
AcDbEntity
  8
RACCORDO
100
AcDbSpline
 62
253
  6
CONTINUOUS
 70
0
 71
3
 72
12
 73
8
 74
6
 42
0.0000001
 43
0.0000001
 44
0.0000000001
 12
0.0285205074
 22
-2.2834683477
 32
0.0
 13
-2.2834668756
 23
0.0286381244
 33
0.0
 40
0.0
 40
0.0
 40
0.0
 40
0.0
 40
0.2054615894
 40
0.4029112968
 40
0.5970614974
 40
0.7944872519
 40
1.0
 40
1.0
 40
1.0
 40
1.0
 10
62.397986649
 20
-37.652532767
 30
0.0
 10
62.3999399386
 20
-37.8089211124
 30
0.0
 10
62.3570459415
 20
-38.118637736
 30
0.0
 10
62.1526156954
 20
-38.5331458345
 30
0.0
 10
61.8297765241
 20
-38.8560017126
 30
0.0
 10
61.4152647369
 20
-39.0604630335
 30
0.0
 10
61.1055250938
 20
-39.1033833397
 30
0.0
 10
60.9490979095
 20
-39.1014215065
 30
0.0
 11
62.397986649
 21
-37.652532767
 31
0.0
 11
62.3314733628
 21
-38.1169960616
 31
0.0
 11
62.1310075324
 21
-38.5208884502
 31
0.0
 11
61.8175047775
 21
-38.8344061516
 31
0.0
 11
61.4136742687
 21
-39.0348736174
 31
0.0
 11
60.9490979095
 21
-39.1014215065
 31
0.0
  0
SPLINE
  5
5D8
100
AcDbEntity
  8
RACCORDO
100
AcDbSpline
 62
253
  6
CONTINUOUS
 70
0
 71
3
 72
12
 73
8
 74
6
 42
0.0000001
 43
0.0000001
 44
0.0000000001
 12
-2.2834683477
 22
-0.0285205074
 32
0.0
 13
0.0286381244
 23
2.2834668756
 33
0.0
 40
0.0
 40
0.0
 40
0.0
 40
0.0
 40
0.2054615894
 40
0.4029112968
 40
0.5970614974
 40
0.7944872519
 40
1.0
 40
1.0
 40
1.0
 40
1.0
 10
-58.0339653086
 20
-39.1014215065
 30
0.0
 10
-58.190353654
 20
-39.1033747961
 30
0.0
 10
-58.5000702776
 20
-39.0604807989
 30
0.0
 10
-58.914578376
 20
-38.8560505529
 30
0.0
 10
-59.2374342542
 20
-38.5332113816
 30
0.0
 10
-59.4418955751
 20
-38.1186995944
 30
0.0
 10
-59.4848158812
 20
-37.8089599513
 30
0.0
 10
-59.482854048
 20
-37.652532767
 30
0.0
 11
-58.0339653086
 21
-39.1014215065
 31
0.0
 11
-58.4984286031
 21
-39.0349082203
 31
0.0
 11
-58.9023209917
 21
-38.8344423899
 31
0.0
 11
-59.2158386932
 21
-38.520939635
 31
0.0
 11
-59.416306159
 21
-38.1171091261
 31
0.0
 11
-59.482854048
 21
-37.652532767
 31
0.0
  0
SPLINE
  5
5D9
100
AcDbEntity
  8
RACCORDO
100
AcDbSpline
 62
253
  6
CONTINUOUS
 70
0
 71
3
 72
12
 73
8
 74
6
 42
0.0000001
 43
0.0000001
 44
0.0000000001
 12
2.2834668412
 22
0.0286408764
 32
0.0
 13
-0.0285174306
 23
-2.2834683862
 33
0.0
 40
0.0
 40
0.0
 40
0.0
 40
0.0
 40
0.2055127474
 40
0.4029385003
 40
0.5970887009
 40
0.7945384098
 40
1.0
 40
1.0
 40
1.0
 40
1.0
 10
60.9490979095
 20
42.7794191905
 30
0.0
 10
61.1055250909
 20
42.7813812123
 30
0.0
 10
61.4152647144
 20
42.738460575
 30
0.0
 10
61.8297765698
 20
42.5339994698
 30
0.0
 10
62.1526156189
 20
42.2111434732
 30
0.0
 10
62.3570460955
 20
41.7966354426
 30
0.0
 10
62.3999397279
 20
41.4869187997
 30
0.0
 10
62.397986649
 20
41.3305304511
 30
0.0
 11
60.9490979095
 21
42.7794191905
 31
0.0
 11
61.4136742632
 21
42.7128712761
 31
0.0
 11
61.8175047904
 21
42.5124038549
 31
0.0
 11
62.1310075128
 21
42.198886121
 31
0.0
 11
62.3314733889
 21
41.7949937512
 31
0.0
 11
62.397986649
 21
41.3305304511
 31
0.0
  0
SPLINE
  5
5DA
100
AcDbEntity
  8
RACCORDO
100
AcDbSpline
 62
253
  6
CONTINUOUS
 70
0
 71
3
 72
12
 73
8
 74
6
 42
0.0000001
 43
0.0000001
 44
0.0000000001
 12
-0.0285205074
 22
2.2834683477
 32
0.0
 13
2.2834668756
 23
-0.0286381244
 33
0.0
 40
0.0
 40
0.0
 40
0.0
 40
0.0
 40
0.2054615894
 40
0.4029112968
 40
0.5970614974
 40
0.7944872519
 40
1.0
 40
1.0
 40
1.0
 40
1.0
 10
-59.482854048
 20
41.3305304511
 30
0.0
 10
-59.4848073376
 20
41.4869187965
 30
0.0
 10
-59.4419133405
 20
41.7966354201
 30
0.0
 10
-59.2374830945
 20
42.2111435185
 30
0.0
 10
-58.9146439232
 20
42.5339993967
 30
0.0
 10
-58.500132136
 20
42.7384607176
 30
0.0
 10
-58.1903924929
 20
42.7813810238
 30
0.0
 10
-58.0339653086
 20
42.7794191905
 30
0.0
 11
-59.482854048
 21
41.3305304511
 31
0.0
 11
-59.4163407618
 21
41.7949937457
 31
0.0
 11
-59.2158749314
 21
42.1988861343
 31
0.0
 11
-58.9023721765
 21
42.5124038357
 31
0.0
 11
-58.4985416677
 21
42.7128713015
 31
0.0
 11
-58.0339653086
 21
42.7794191905
 31
0.0
  0
SPLINE
  5
5DB
100
AcDbEntity
  8
RACCORDO
100
AcDbSpline
 62
253
  6
CONTINUOUS
 70
0
 71
3
 72
11
 73
7
 74
5
 42
0.0000001
 43
0.0000001
 44
0.0000000001
 12
-2.2146617274
 22
0.1483542053
 32
0.0
 13
-0.1483542053
 23
2.2146617274
 33
0.0
 40
0.0
 40
0.0
 40
0.0
 40
0.0
 40
0.2479915066
 40
0.5
 40
0.7520084934
 40
1.0
 40
1.0
 40
1.0
 40
1.0
 10
-57.5875956403
 20
-38.6550518381
 30
0.0
 10
-57.7706680731
 20
-38.6427883105
 30
0.0
 10
-58.1381078549
 20
-38.5471761252
 30
0.0
 10
-58.6026552853
 20
-38.2212227437
 30
0.0
 10
-58.9286086668
 20
-37.7566753133
 30
0.0
 10
-59.0242208521
 20
-37.3892355315
 30
0.0
 10
-59.0364843797
 20
-37.2061630987
 30
0.0
 11
-57.5875956403
 21
-38.6550518381
 31
0.0
 11
-58.1207480156
 21
-38.5181513903
 31
0.0
 11
-58.5794328897
 21
-38.1980003481
 31
0.0
 11
-58.8995839319
 21
-37.739315474
 31
0.0
 11
-59.0364843797
 21
-37.2061630987
 31
0.0
  0
SPLINE
  5
5DC
100
AcDbEntity
  8
RACCORDO
100
AcDbSpline
 62
253
  6
CONTINUOUS
 70
0
 71
3
 72
11
 73
7
 74
5
 42
0.0000001
 43
0.0000001
 44
0.0000000001
 12
-0.1483542053
 22
-2.2146617274
 32
0.0
 13
-2.2146617274
 23
-0.1483542053
 33
0.0
 40
0.0
 40
0.0
 40
0.0
 40
0.0
 40
0.2479915066
 40
0.5
 40
0.7520084934
 40
1.0
 40
1.0
 40
1.0
 40
1.0
 10
61.9516169806
 20
-37.2061630987
 30
0.0
 10
61.939353453
 20
-37.3892355315
 30
0.0
 10
61.8437412677
 20
-37.7566753133
 30
0.0
 10
61.5177878862
 20
-38.2212227437
 30
0.0
 10
61.0532404558
 20
-38.5471761252
 30
0.0
 10
60.685800674
 20
-38.6427883105
 30
0.0
 10
60.5027282412
 20
-38.6550518381
 30
0.0
 11
61.9516169806
 21
-37.2061630987
 31
0.0
 11
61.8147165328
 21
-37.739315474
 31
0.0
 11
61.4945654906
 21
-38.1980003481
 31
0.0
 11
61.0358806165
 21
-38.5181513903
 31
0.0
 11
60.5027282412
 21
-38.6550518381
 31
0.0
  0
SPLINE
  5
5DD
100
AcDbEntity
  8
RACCORDO
100
AcDbSpline
 62
253
  6
CONTINUOUS
 70
0
 71
3
 72
11
 73
7
 74
5
 42
0.0000001
 43
0.0000001
 44
0.0000000001
 12
2.2146617274
 22
-0.1483542053
 32
0.0
 13
0.1483542053
 23
-2.2146617274
 33
0.0
 40
0.0
 40
0.0
 40
0.0
 40
0.0
 40
0.2479915066
 40
0.5
 40
0.7520084934
 40
1.0
 40
1.0
 40
1.0
 40
1.0
 10
60.5027282412
 20
42.3330495222
 30
0.0
 10
60.685800674
 20
42.3207859946
 30
0.0
 10
61.0532404558
 20
42.2251738093
 30
0.0
 10
61.5177878862
 20
41.8992204278
 30
0.0
 10
61.8437412677
 20
41.4346729974
 30
0.0
 10
61.939353453
 20
41.0672332156
 30
0.0
 10
61.9516169806
 20
40.8841607828
 30
0.0
 11
60.5027282412
 21
42.3330495222
 31
0.0
 11
61.0358806165
 21
42.1961490744
 31
0.0
 11
61.4945654906
 21
41.8759980322
 31
0.0
 11
61.8147165328
 21
41.4173131581
 31
0.0
 11
61.9516169806
 21
40.8841607828
 31
0.0
  0
SPLINE
  5
5DE
100
AcDbEntity
  8
RACCORDO
100
AcDbSpline
 62
253
  6
CONTINUOUS
 70
0
 71
3
 72
11
 73
7
 74
5
 42
0.0000001
 43
0.0000001
 44
0.0000000001
 12
0.1483542053
 22
2.2146617274
 32
0.0
 13
2.2146617274
 23
0.1483542053
 33
0.0
 40
0.0
 40
0.0
 40
0.0
 40
0.0
 40
0.2479915066
 40
0.5
 40
0.7520084934
 40
1.0
 40
1.0
 40
1.0
 40
1.0
 10
-59.0364843797
 20
40.8841607828
 30
0.0
 10
-59.0242208521
 20
41.0672332156
 30
0.0
 10
-58.9286086668
 20
41.4346729974
 30
0.0
 10
-58.6026552853
 20
41.8992204278
 30
0.0
 10
-58.1381078549
 20
42.2251738093
 30
0.0
 10
-57.7706680731
 20
42.3207859946
 30
0.0
 10
-57.5875956403
 20
42.3330495222
 30
0.0
 11
-59.0364843797
 21
40.8841607828
 31
0.0
 11
-58.8995839319
 21
41.4173131581
 31
0.0
 11
-58.5794328897
 21
41.8759980322
 31
0.0
 11
-58.1207480156
 21
42.1961490744
 31
0.0
 11
-57.5875956403
 21
42.3330495222
 31
0.0
  0
SPLINE
  5
5DF
100
AcDbEntity
  8
RACCORDO
100
AcDbSpline
 62
7
  6
CONTINUOUS
 70
0
 71
3
 72
10
 73
6
 74
4
 42
0.0000001
 43
0.0000001
 44
0.0000000001
 12
0.1699646422
 22
0.5879759324
 32
0.0
 13
0.319632037
 23
0.5219569308
 33
0.0
 40
0.0
 40
0.0
 40
0.0
 40
0.0
 40
0.3019935701
 40
0.6432275526
 40
1.0
 40
1.0
 40
1.0
 40
1.0
 10
45.560704691
 20
-40.6702646999
 30
0.0
 10
45.5778141007
 20
-40.6110763829
 30
0.0
 10
45.6335781217
 20
-40.4911739607
 30
0.0
 10
45.7342442698
 20
-40.3140107139
 30
0.0
 10
45.8087344204
 20
-40.1925457224
 30
0.0
 10
45.8467463884
 20
-40.1304724385
 30
0.0
 11
45.560704691
 21
-40.6702646999
 31
0.0
 11
45.632157242
 21
-40.4997993607
 31
0.0
 11
45.7336897072
 21
-40.3172884105
 31
0.0
 11
45.8467463884
 21
-40.1304724385
 31
0.0
  0
SPLINE
  5
5E0
100
AcDbEntity
  8
RACCORDO
100
AcDbSpline
 62
7
  6
CONTINUOUS
 70
0
 71
3
 72
10
 73
6
 74
4
 42
0.0000001
 43
0.0000001
 44
0.0000000001
 12
0.0018412701
 22
0.0841486789
 32
0.0
 13
0.0233972821
 23
0.0808514541
 33
0.0
 40
0.0
 40
0.0
 40
0.0
 40
0.0
 40
0.3045080786
 40
0.6373582252
 40
1.0
 40
1.0
 40
1.0
 40
1.0
 10
45.5467422658
 20
-40.7530612189
 30
0.0
 10
45.5469291597
 20
-40.7445199014
 30
0.0
 10
45.5483331455
 20
-40.7266562832
 30
0.0
 10
45.5531059123
 20
-40.6989805166
 30
0.0
 10
45.5578764137
 20
-40.6800380715
 30
0.0
 10
45.560704691
 20
-40.6702646999
 30
0.0
 11
45.5467422658
 21
-40.7530612189
 31
0.0
 11
45.548644598
 21
-40.7275018284
 31
0.0
 11
45.5532960808
 21
-40.6998750697
 31
0.0
 11
45.560704691
 21
-40.6702646999
 31
0.0
  0
SPLINE
  5
5E1
100
AcDbEntity
  8
RACCORDO
100
AcDbSpline
 62
253
  6
CONTINUOUS
 70
0
 71
3
 72
11
 73
7
 74
5
 42
0.0000001
 43
0.0000001
 44
0.0000000001
 12
-0.0012893685
 22
-1.0764858774
 32
0.0
 13
-0.0700182813
 23
-1.0742071249
 33
0.0
 40
0.0
 40
0.0
 40
0.0
 40
0.0
 40
0.3337145139
 40
0.6316876667
 40
0.8614557953
 40
1.0
 40
1.0
 40
1.0
 40
1.0
 10
45.54674212
 20
-40.7530728866
 30
0.0
 10
45.546598693
 20
-40.872819207
 30
0.0
 10
45.5457088596
 20
-41.0994833004
 30
0.0
 10
45.5428367282
 20
-41.4085991742
 30
0.0
 10
45.5382588054
 20
-41.647615721
 30
0.0
 10
45.5345007882
 20
-41.7797673148
 30
0.0
 10
45.5312672458
 20
-41.8293757054
 30
0.0
 11
45.54674212
 21
-40.7530728866
 31
0.0
 11
45.5453190706
 21
-41.112309287
 31
0.0
 11
45.5420142982
 21
-41.4330563832
 31
0.0
 11
45.5371543425
 21
-41.6803509557
 31
0.0
 11
45.5312672458
 21
-41.8293757054
 31
0.0
  0
SPLINE
  5
5E2
100
AcDbEntity
  8
RACCORDO
100
AcDbSpline
 62
253
  6
CONTINUOUS
 70
0
 71
3
 72
11
 73
7
 74
5
 42
0.0000001
 43
0.0000001
 44
0.0000000001
 12
-0.0000003229
 22
-1.4490349177
 32
0.0
 13
-0.0754660426
 23
-1.4470684397
 33
0.0
 40
0.0
 40
0.0
 40
0.0
 40
0.0
 40
0.3320065253
 40
0.630109413
 40
0.8611549073
 40
1.0
 40
1.0
 40
1.0
 40
1.0
 10
45.8467463884
 20
-40.6702647138
 30
0.0
 10
45.8467463527
 20
-40.8306277299
 30
0.0
 10
45.8460427269
 20
-41.1349752539
 30
0.0
 10
45.8432835478
 20
-41.5509269815
 30
0.0
 10
45.8385541046
 20
-41.8735196727
 30
0.0
 10
45.8347142509
 20
-42.0521806694
 30
0.0
 10
45.8312215544
 20
-42.1191534533
 30
0.0
 11
45.8467463884
 21
-40.6702647138
 31
0.0
 11
45.8456397126
 21
-41.1513524891
 31
0.0
 11
45.8424177514
 21
-41.5833019661
 31
0.0
 11
45.8374249269
 21
-41.9180577234
 31
0.0
 11
45.8312215544
 21
-42.1191534533
 31
0.0
  0
SPLINE
  5
5E3
100
AcDbEntity
  8
RACCORDO
100
AcDbSpline
 62
253
  6
CONTINUOUS
 70
0
 71
3
 72
10
 73
6
 74
4
 42
0.0000001
 43
0.0000001
 44
0.0000000001
 12
-0.4573383595
 22
0.0019957247
 32
0.0
 13
-0.0021383493
 23
0.4573377149
 33
0.0
 40
0.0
 40
0.0
 40
0.0
 40
0.0
 40
0.3381556607
 40
0.6717624489
 40
1.0
 40
1.0
 40
1.0
 40
1.0
 10
45.8312215544
 20
-42.1191534533
 30
0.0
 10
45.779671036
 20
-42.1189284981
 30
0.0
 10
45.6755068358
 20
-42.0919357911
 30
0.0
 10
45.5605854148
 20
-41.9820962529
 30
0.0
 10
45.531501208
 20
-41.8794141759
 30
0.0
 10
45.5312672458
 20
-41.8293757054
 30
0.0
 11
45.8312215544
 21
-42.1191534533
 31
0.0
 11
45.6816341632
 21
-42.0798956979
 31
0.0
 11
45.5719036655
 21
-41.9738880261
 31
0.0
 11
45.5312672458
 21
-41.8293757054
 31
0.0
  0
SPLINE
  5
5E4
100
AcDbEntity
  8
RACCORDO
100
AcDbSpline
 62
253
  6
CONTINUOUS
 70
0
 71
3
 72
9
 73
5
 74
3
 42
0.0000001
 43
0.0000001
 44
0.0000000001
 12
-0.0015572426
 22
-0.0239049701
 32
0.0
 13
-0.0169332739
 23
-0.0169451124
 33
0.0
 40
0.0
 40
0.0
 40
0.0
 40
0.0
 40
0.5233237959
 40
1.0
 40
1.0
 40
1.0
 40
1.0
 10
45.476414966
 20
-42.6714020249
 30
0.0
 10
45.4761433186
 20
-42.6755720381
 30
0.0
 10
45.4747349108
 20
-42.6829986642
 30
0.0
 10
45.4761563797
 20
-42.6924548892
 30
0.0
 10
45.4734658168
 20
-42.6951473331
 30
0.0
 11
45.476414966
 21
-42.6714020249
 31
0.0
 11
45.4754442241
 21
-42.6839009402
 31
0.0
 11
45.4734658168
 21
-42.6951473331
 31
0.0
  0
SPLINE
  5
5E5
100
AcDbEntity
  8
RACCORDO
100
AcDbSpline
 62
253
  6
CONTINUOUS
 70
0
 71
3
 72
9
 73
5
 74
3
 42
0.0000001
 43
0.0000001
 44
0.0000000001
 12
-0.0015520912
 22
-0.0340342261
 32
0.0
 13
-0.0195336919
 23
-0.02791366
 33
0.0
 40
0.0
 40
0.0
 40
0.0
 40
0.0
 40
0.5250092279
 40
1.0
 40
1.0
 40
1.0
 40
1.0
 10
45.7763692746
 20
-42.9611797728
 30
0.0
 10
45.7760976538
 20
-42.967135867
 30
0.0
 10
45.7744658026
 20
-42.9779914914
 30
0.0
 10
45.7765128998
 20
-42.9906820647
 30
0.0
 10
45.7734201253
 20
-42.9951016417
 30
0.0
 11
45.7763692746
 21
-42.9611797728
 31
0.0
 11
45.7753982257
 21
-42.9790402485
 31
0.0
 11
45.7734201253
 21
-42.9951016417
 31
0.0
  0
SPLINE
  5
5E6
100
AcDbEntity
  8
RACCORDO
100
AcDbSpline
 62
253
  6
CONTINUOUS
 70
0
 71
3
 72
10
 73
6
 74
4
 42
0.0000001
 43
0.0000001
 44
0.0000000001
 12
-0.4573383604
 22
0.001995718
 32
0.0
 13
-0.0021383493
 23
0.4573377158
 33
0.0
 40
0.0
 40
0.0
 40
0.0
 40
0.0
 40
0.3381558386
 40
0.6717626529
 40
1.0
 40
1.0
 40
1.0
 40
1.0
 10
45.7763692746
 20
-42.9611797728
 30
0.0
 10
45.724818729
 20
-42.9609548182
 30
0.0
 10
45.620654494
 20
-42.9339620886
 30
0.0
 10
45.505733107
 20
-42.8241225113
 30
0.0
 10
45.476648928
 20
-42.7214404644
 30
0.0
 10
45.476414966
 20
-42.6714020249
 30
0.0
 11
45.7763692746
 21
-42.9611797728
 31
0.0
 11
45.6267818095
 21
-42.9219219773
 31
0.0
 11
45.5170513359
 21
-42.815914263
 31
0.0
 11
45.476414966
 21
-42.6714020249
 31
0.0
  0
SPLINE
  5
5E7
100
AcDbEntity
  8
RACCORDO
100
AcDbSpline
 62
7
  6
CONTINUOUS
 70
0
 71
3
 72
10
 73
6
 74
4
 42
0.0000001
 43
0.0000001
 44
0.0000000001
 12
0.3196320372
 22
-0.5219569311
 32
0.0
 13
0.1699646419
 23
-0.5879759329
 33
0.0
 40
0.0
 40
0.0
 40
0.0
 40
0.0
 40
0.3567724475
 40
0.6980064299
 40
1.0
 40
1.0
 40
1.0
 40
1.0
 10
36.4183862125
 20
-40.1304724385
 30
0.0
 10
36.4563981806
 20
-40.1925457224
 30
0.0
 10
36.5308883312
 20
-40.314010714
 30
0.0
 10
36.6315544794
 20
-40.4911739609
 30
0.0
 10
36.6873185003
 20
-40.6110763832
 30
0.0
 10
36.70442791
 20
-40.6702647002
 30
0.0
 11
36.4183862125
 21
-40.1304724385
 31
0.0
 11
36.5314428939
 21
-40.3172884106
 31
0.0
 11
36.632975359
 21
-40.4997993609
 31
0.0
 11
36.70442791
 21
-40.6702647002
 31
0.0
  0
SPLINE
  5
5E8
100
AcDbEntity
  8
RACCORDO
100
AcDbSpline
 62
7
  6
CONTINUOUS
 70
0
 71
3
 72
10
 73
6
 74
4
 42
0.0000001
 43
0.0000001
 44
0.0000000001
 12
0.0233972645
 22
-0.0808514609
 32
0.0
 13
0.0018412581
 23
-0.0841486808
 33
0.0
 40
0.0
 40
0.0
 40
0.0
 40
0.0
 40
0.3626417813
 40
0.6954919169
 40
1.0
 40
1.0
 40
1.0
 40
1.0
 10
36.70442791
 20
-40.6702647002
 30
0.0
 10
36.7072561852
 20
-40.6800380728
 30
0.0
 10
36.712026706
 20
-40.6989805134
 30
0.0
 10
36.7167994581
 20
-40.7266562837
 30
0.0
 10
36.7182034426
 20
-40.7445199018
 30
0.0
 10
36.7183903352
 20
-40.7530612197
 30
0.0
 11
36.70442791
 21
-40.6702647002
 31
0.0
 11
36.7118365303
 21
-40.6998750687
 31
0.0
 11
36.7164880073
 21
-40.727501828
 31
0.0
 11
36.7183903352
 21
-40.7530612197
 31
0.0
  0
SPLINE
  5
5E9
100
AcDbEntity
  8
RACCORDO
100
AcDbSpline
 62
253
  6
CONTINUOUS
 70
0
 71
3
 72
11
 73
7
 74
5
 42
0.0000001
 43
0.0000001
 44
0.0000000001
 12
-0.0754660823
 22
1.4470684377
 32
0.0
 13
-0.0000003261
 23
1.4490349177
 33
0.0
 40
0.0
 40
0.0
 40
0.0
 40
0.0
 40
0.1388450927
 40
0.369890587
 40
0.6679934747
 40
1.0
 40
1.0
 40
1.0
 40
1.0
 10
36.4339110466
 20
-42.1191534533
 30
0.0
 10
36.4304183482
 20
-42.0521806695
 30
0.0
 10
36.4265784976
 20
-41.8735196726
 30
0.0
 10
36.4218490525
 20
-41.5509269815
 30
0.0
 10
36.4190898748
 20
-41.1349752538
 30
0.0
 10
36.4183862486
 20
-40.8306277299
 30
0.0
 10
36.4183862125
 20
-40.6702647138
 30
0.0
 11
36.4339110466
 21
-42.1191534533
 31
0.0
 11
36.4277076739
 21
-41.9180577234
 31
0.0
 11
36.4227148495
 21
-41.5833019661
 31
0.0
 11
36.4194928887
 21
-41.1513524891
 31
0.0
 11
36.4183862125
 21
-40.6702647138
 31
0.0
  0
SPLINE
  5
5EA
100
AcDbEntity
  8
RACCORDO
100
AcDbSpline
 62
253
  6
CONTINUOUS
 70
0
 71
3
 72
10
 73
6
 74
4
 42
0.0000001
 43
0.0000001
 44
0.0000000001
 12
0.4573384033
 22
0.0019956993
 32
0.0
 13
0.0021383469
 23
0.4573377585
 33
0.0
 40
0.0
 40
0.0
 40
0.0
 40
0.0
 40
0.338192765
 40
0.6718046382
 40
1.0
 40
1.0
 40
1.0
 40
1.0
 10
36.4339110466
 20
-42.1191534533
 30
0.0
 10
36.4854672263
 20
-42.1189284762
 30
0.0
 10
36.5896384787
 20
-42.0919309134
 30
0.0
 10
36.7045530134
 20
-41.9820835741
 30
0.0
 10
36.7336314233
 20
-41.8794077491
 30
0.0
 10
36.7338653551
 20
-41.8293757054
 30
0.0
 11
36.4339110466
 21
-42.1191534533
 31
0.0
 11
36.5835137477
 21
-42.0798871274
 31
0.0
 11
36.6932392246
 21
-41.9738708908
 31
0.0
 11
36.7338653551
 21
-41.8293757054
 31
0.0
  0
SPLINE
  5
5EB
100
AcDbEntity
  8
RACCORDO
100
AcDbSpline
 62
253
  6
CONTINUOUS
 70
0
 71
3
 72
11
 73
7
 74
5
 42
0.0000001
 43
0.0000001
 44
0.0000000001
 12
-0.0700183425
 22
1.0742071268
 32
0.0
 13
-0.0012893748
 23
1.0764858834
 33
0.0
 40
0.0
 40
0.0
 40
0.0
 40
0.0
 40
0.1385441907
 40
0.3683123311
 40
0.6662854851
 40
1.0
 40
1.0
 40
1.0
 40
1.0
 10
36.7338653551
 20
-41.8293757054
 30
0.0
 10
36.7306318103
 20
-41.7797673197
 30
0.0
 10
36.7268737967
 20
-41.6476157257
 30
0.0
 10
36.7222958723
 20
-41.4085991781
 30
0.0
 10
36.7194237417
 20
-41.0994832975
 30
0.0
 10
36.7185339086
 20
-40.8728192021
 30
0.0
 10
36.7183904809
 20
-40.7530728807
 30
0.0
 11
36.7338653551
 21
-41.8293757054
 31
0.0
 11
36.7279782583
 21
-41.68035097
 31
0.0
 11
36.7231183027
 21
-41.4330563835
 31
0.0
 11
36.7198135306
 21
-41.1123092841
 31
0.0
 11
36.7183904809
 21
-40.7530728807
 31
0.0
  0
SPLINE
  5
5EC
100
AcDbEntity
  8
RACCORDO
100
AcDbSpline
 62
253
  6
CONTINUOUS
 70
0
 71
3
 72
10
 73
6
 74
4
 42
0.0000001
 43
0.0000001
 44
0.0000000001
 12
0.4573383603
 22
0.0019957177
 32
0.0
 13
0.0021383493
 23
0.4573377156
 33
0.0
 40
0.0
 40
0.0
 40
0.0
 40
0.0
 40
0.3381556414
 40
0.6717624337
 40
1.0
 40
1.0
 40
1.0
 40
1.0
 10
36.4887633264
 20
-42.9611797728
 30
0.0
 10
36.5403138419
 20
-42.9609548184
 30
0.0
 10
36.6444780402
 20
-42.9339621144
 30
0.0
 10
36.7593994635
 20
-42.8241225779
 30
0.0
 10
36.7884836727
 20
-42.7214404978
 30
0.0
 10
36.7887176349
 20
-42.6714020249
 30
0.0
 11
36.4887633264
 21
-42.9611797728
 31
0.0
 11
36.6383507101
 21
-42.9219220229
 31
0.0
 11
36.7480812117
 21
-42.8159143521
 31
0.0
 11
36.7887176349
 21
-42.6714020249
 31
0.0
  0
SPLINE
  5
5ED
100
AcDbEntity
  8
RACCORDO
100
AcDbSpline
 62
253
  6
CONTINUOUS
 70
0
 71
3
 72
9
 73
5
 74
3
 42
0.0000001
 43
0.0000001
 44
0.0000000001
 12
-0.0195336941
 22
0.0279136585
 32
0.0
 13
-0.0015520913
 23
0.0340342261
 33
0.0
 40
0.0
 40
0.0
 40
0.0
 40
0.0
 40
0.4749907721
 40
1.0
 40
1.0
 40
1.0
 40
1.0
 10
36.4917124756
 20
-42.9951016417
 30
0.0
 10
36.4886197008
 20
-42.9906820649
 30
0.0
 10
36.4906667985
 20
-42.9779914912
 30
0.0
 10
36.4890349471
 20
-42.967135867
 30
0.0
 10
36.4887633264
 20
-42.9611797728
 30
0.0
 11
36.4917124756
 21
-42.9951016417
 31
0.0
 11
36.4897343752
 21
-42.9790402485
 31
0.0
 11
36.4887633264
 21
-42.9611797728
 31
0.0
  0
SPLINE
  5
5EE
100
AcDbEntity
  8
RACCORDO
100
AcDbSpline
 62
253
  6
CONTINUOUS
 70
0
 71
3
 72
9
 73
5
 74
3
 42
0.0000001
 43
0.0000001
 44
0.0000000001
 12
-0.0169332779
 22
0.0169451084
 32
0.0
 13
-0.0015572426
 23
0.0239049701
 33
0.0
 40
0.0
 40
0.0
 40
0.0
 40
0.0
 40
0.4766762016
 40
1.0
 40
1.0
 40
1.0
 40
1.0
 10
36.7916667842
 20
-42.6951473331
 30
0.0
 10
36.7889762207
 20
-42.6924548898
 30
0.0
 10
36.7903976905
 20
-42.6829986639
 30
0.0
 10
36.7889892823
 20
-42.6755720382
 30
0.0
 10
36.7887176349
 20
-42.6714020249
 30
0.0
 11
36.7916667842
 21
-42.6951473331
 31
0.0
 11
36.7896883769
 21
-42.6839009403
 31
0.0
 11
36.7887176349
 21
-42.6714020249
 31
0.0
  0
ELLIPSE
  5
5EF
100
AcDbEntity
  8
DRAFT
100
AcDbEllipse
 62
7
  6
CONTINUOUS
 10
45.2012006394
 20
-41.461001158
 30
0.0
 11
-0.0
 21
0.8
 31
0.0
 40
0.0087268678
 41
-4.7123889804
 42
-3.1415926536
  0
ELLIPSE
  5
5F0
100
AcDbEntity
  8
DRAFT
100
AcDbEllipse
 62
7
  6
CONTINUOUS
 10
-42.2860680385
 20
-41.461001158
 30
0.0
 11
-0.0
 21
0.8
 31
0.0
 40
0.0087268678
 41
3.1415926536
 42
4.7123889804
  0
ELLIPSE
  5
5F1
100
AcDbEntity
  8
DRAFT
100
AcDbEllipse
 62
7
  6
CONTINUOUS
 10
45.2012006394
 20
-41.461001158
 30
0.0
 11
-0.0
 21
0.8
 31
0.0
 40
0.0087268678
 41
1.1743961213
 42
1.3060531478
  0
ELLIPSE
  5
5F2
100
AcDbEntity
  8
RACCORDO
100
AcDbEllipse
 62
7
  6
CONTINUOUS
 10
31.4715292889
 20
40.1250282379
 30
0.0
 11
0.0
 21
0.2
 31
0.0
 40
0.0087268678
 41
0.0007146384
 42
1.5707963268
  0
ELLIPSE
  5
5F3
100
AcDbEntity
  8
RACCORDO
100
AcDbEllipse
 62
7
  6
CONTINUOUS
 10
-28.556396688
 20
40.1250282379
 30
0.0
 11
0.0
 21
0.2
 31
0.0
 40
0.0087268678
 41
-1.5707963268
 42
-0.0007146384
  0
ELLIPSE
  5
5F4
100
AcDbEntity
  8
RACCORDO
100
AcDbEllipse
 62
7
  6
CONTINUOUS
 10
31.4715292889
 20
-36.4470305538
 30
0.0
 11
-0.0
 21
0.2
 31
0.0
 40
0.0087268678
 41
-4.7123889804
 42
-3.142307292
  0
ELLIPSE
  5
5F5
100
AcDbEntity
  8
RACCORDO
100
AcDbEllipse
 62
7
  6
CONTINUOUS
 10
40.2462213723
 20
38.1642357883
 30
0.0
 11
-0.0
 21
1.3
 31
0.0
 40
0.0087268678
 41
-3.1066860685
 42
-1.5707963268
  0
ELLIPSE
  5
5F6
100
AcDbEntity
  8
RACCORDO
100
AcDbEllipse
 62
7
  6
CONTINUOUS
 10
32.6689112286
 20
38.1642357883
 30
0.0
 11
-0.0
 21
1.3
 31
0.0
 40
0.0087268678
 41
-4.7123889804
 42
-3.1764992386
  0
ELLIPSE
  5
5F7
100
AcDbEntity
  8
RACCORDO
100
AcDbEllipse
 62
7
  6
CONTINUOUS
 10
-28.5310887714
 20
38.1642357883
 30
0.0
 11
-0.0
 21
1.3
 31
0.0
 40
0.0087268678
 41
-4.7123889804
 42
-3.1764992386
  0
ELLIPSE
  5
5F8
100
AcDbEntity
  8
RACCORDO
100
AcDbEllipse
 62
7
  6
CONTINUOUS
 10
41.4326947273
 20
38.94355769
 30
0.0
 11
0.0
 21
0.4
 31
0.0
 40
0.0087268678
 41
-4.7123889804
 42
-3.5779249666
  0
ELLIPSE
  5
5F9
100
AcDbEntity
  8
RACCORDO
100
AcDbEllipse
 62
7
  6
CONTINUOUS
 10
31.4824378737
 20
38.94355769
 30
0.0
 11
0.0
 21
0.4
 31
0.0
 40
0.0087268678
 41
-2.7052603406
 42
-1.5707963268
  0
ELLIPSE
  5
5FA
100
AcDbEntity
  8
RACCORDO
100
AcDbEllipse
 62
7
  6
CONTINUOUS
 10
41.4326947273
 20
39.293942889
 30
0.0
 11
-0.0
 21
0.4
 31
0.0
 40
0.0087268678
 41
0.8762051593
 42
1.5707963268
  0
ELLIPSE
  5
5FB
100
AcDbEntity
  8
RACCORDO
100
AcDbEllipse
 62
7
  6
CONTINUOUS
 10
31.4824378737
 20
39.293942889
 30
0.0
 11
-0.0
 21
0.4
 31
0.0
 40
0.0087268678
 41
-1.5707963268
 42
-0.8762051593
  0
ELLIPSE
  5
5FC
100
AcDbEntity
  8
RACCORDO
100
AcDbEllipse
 62
7
  6
CONTINUOUS
 10
41.4326947273
 20
-35.2655600059
 30
0.0
 11
0.0
 21
0.4
 31
0.0
 40
0.0087268678
 41
0.436332313
 42
1.5707963268
  0
ELLIPSE
  5
5FD
100
AcDbEntity
  8
RACCORDO
100
AcDbEllipse
 62
7
  6
CONTINUOUS
 10
31.4824378737
 20
-35.2655600059
 30
0.0
 11
0.0
 21
0.4
 31
0.0
 40
0.0087268678
 41
-1.5707963268
 42
-0.436332313
  0
ELLIPSE
  5
5FE
100
AcDbEntity
  8
RACCORDO
100
AcDbEllipse
 62
7
  6
CONTINUOUS
 10
41.4326947273
 20
-35.615945205
 30
0.0
 11
-0.0
 21
0.4
 31
0.0
 40
0.0087268678
 41
-4.7123889804
 42
-4.0177978128
  0
ELLIPSE
  5
5FF
100
AcDbEntity
  8
RACCORDO
100
AcDbEllipse
 62
7
  6
CONTINUOUS
 10
31.4824378737
 20
-35.615945205
 30
0.0
 11
0.0
 21
0.4
 31
0.0
 40
0.0087268678
 41
-2.2653874943
 42
-1.5707963268
  0
ELLIPSE
  5
600
100
AcDbEntity
  8
RACCORDO
100
AcDbEllipse
 62
7
  6
CONTINUOUS
 10
-28.5673052727
 20
-35.615945205
 30
0.0
 11
-0.0
 21
0.4
 31
0.0
 40
0.0087268678
 41
-4.7123889804
 42
-4.0177978128
  0
ELLIPSE
  5
601
100
AcDbEntity
  8
RACCORDO
100
AcDbEllipse
 62
7
  6
CONTINUOUS
 10
-38.5175621263
 20
-35.615945205
 30
0.0
 11
-0.0
 21
0.4
 31
0.0
 40
0.0087268678
 41
-2.2653874943
 42
-1.5707963268
  0
ELLIPSE
  5
602
100
AcDbEntity
  8
RACCORDO
100
AcDbEllipse
 62
7
  6
CONTINUOUS
 10
-28.5673052727
 20
-35.2655600059
 30
0.0
 11
-0.0
 21
0.4
 31
0.0
 40
0.0087268678
 41
0.436332313
 42
1.5707963268
  0
ELLIPSE
  5
603
100
AcDbEntity
  8
RACCORDO
100
AcDbEllipse
 62
7
  6
CONTINUOUS
 10
-38.5175621263
 20
-35.2655600059
 30
0.0
 11
0.0
 21
0.4
 31
0.0
 40
0.0087268678
 41
-1.5707963268
 42
-0.436332313
  0
ELLIPSE
  5
604
100
AcDbEntity
  8
RACCORDO
100
AcDbEllipse
 62
7
  6
CONTINUOUS
 10
-28.5673052727
 20
39.293942889
 30
0.0
 11
-0.0
 21
0.4
 31
0.0
 40
0.0087268678
 41
0.8762051593
 42
1.5707963268
  0
ELLIPSE
  5
605
100
AcDbEntity
  8
RACCORDO
100
AcDbEllipse
 62
7
  6
CONTINUOUS
 10
-38.5175621263
 20
39.293942889
 30
0.0
 11
-0.0
 21
0.4
 31
0.0
 40
0.0087268678
 41
-1.5707963268
 42
-0.8762051593
  0
ELLIPSE
  5
606
100
AcDbEntity
  8
RACCORDO
100
AcDbEllipse
 62
7
  6
CONTINUOUS
 10
-28.5673052727
 20
38.94355769
 30
0.0
 11
0.0
 21
0.4
 31
0.0
 40
0.0087268678
 41
-4.7123889804
 42
-3.5779249666
  0
ELLIPSE
  5
607
100
AcDbEntity
  8
RACCORDO
100
AcDbEllipse
 62
7
  6
CONTINUOUS
 10
-38.5175621263
 20
38.94355769
 30
0.0
 11
0.0
 21
0.4
 31
0.0
 40
0.0087268678
 41
-2.7052603406
 42
-1.5707963268
  0
ELLIPSE
  5
608
100
AcDbEntity
  8
RACCORDO
100
AcDbEllipse
 62
7
  6
CONTINUOUS
 10
41.4372365099
 20
39.9186538201
 30
0.0
 11
0.0
 21
0.4
 31
0.0
 40
0.0087268678
 41
0.0087266463
 42
0.8762051593
  0
ELLIPSE
  5
609
100
AcDbEntity
  8
RACCORDO
100
AcDbEllipse
 62
7
  6
CONTINUOUS
 10
31.477896091
 20
39.9186538201
 30
0.0
 11
-0.0
 21
0.4
 31
0.0
 40
0.0087268678
 41
-0.8762051593
 42
-0.0087266463
  0
ELLIPSE
  5
60A
100
AcDbEntity
  8
RACCORDO
100
AcDbEllipse
 62
7
  6
CONTINUOUS
 10
31.477896091
 20
-36.240656136
 30
0.0
 11
0.0
 21
0.4
 31
0.0
 40
0.0087268678
 41
-3.1328660073
 42
-2.2653874943
  0
ELLIPSE
  5
60B
100
AcDbEntity
  8
RACCORDO
100
AcDbEllipse
 62
7
  6
CONTINUOUS
 10
41.4372365099
 20
-36.240656136
 30
0.0
 11
0.0
 21
0.4
 31
0.0
 40
0.0087268678
 41
-4.0177978129
 42
-3.1503192999
  0
ELLIPSE
  5
60C
100
AcDbEntity
  8
RACCORDO
100
AcDbEllipse
 62
7
  6
CONTINUOUS
 10
31.4462213723
 20
38.1642357883
 30
0.0
 11
-0.0
 21
1.3
 31
0.0
 40
0.0087268678
 41
-3.1066860685
 42
-1.5707963268
  0
ELLIPSE
  5
60D
100
AcDbEntity
  8
RACCORDO
100
AcDbEllipse
 62
7
  6
CONTINUOUS
 10
-28.5627634901
 20
39.9186538201
 30
0.0
 11
0.0
 21
0.4
 31
0.0
 40
0.0087268678
 41
0.0087266463
 42
0.8762051593
  0
ELLIPSE
  5
60E
100
AcDbEntity
  8
RACCORDO
100
AcDbEllipse
 62
7
  6
CONTINUOUS
 10
-38.522103909
 20
39.9186538201
 30
0.0
 11
-0.0
 21
0.4
 31
0.0
 40
0.0087268678
 41
-0.8762051593
 42
-0.0087266463
  0
ELLIPSE
  5
60F
100
AcDbEntity
  8
RACCORDO
100
AcDbEllipse
 62
7
  6
CONTINUOUS
 10
-29.7537786277
 20
38.1642357883
 30
0.0
 11
-0.0
 21
1.3
 31
0.0
 40
0.0087268678
 41
-3.1066860685
 42
-1.5707963268
  0
ELLIPSE
  5
610
100
AcDbEntity
  8
RACCORDO
100
AcDbEllipse
 62
7
  6
CONTINUOUS
 10
-38.522103909
 20
-36.240656136
 30
0.0
 11
-0.0
 21
0.4
 31
0.0
 40
0.0087268678
 41
-3.1328660073
 42
-2.2653874943
  0
ELLIPSE
  5
611
100
AcDbEntity
  8
RACCORDO
100
AcDbEllipse
 62
7
  6
CONTINUOUS
 10
-28.5627634901
 20
-36.240656136
 30
0.0
 11
0.0
 21
0.4
 31
0.0
 40
0.0087268678
 41
-4.0177978128
 42
-3.1503192998
  0
ELLIPSE
  5
612
100
AcDbEntity
  8
RACCORDO
100
AcDbEllipse
 62
7
  6
CONTINUOUS
 10
-37.3310887714
 20
38.1642357883
 30
0.0
 11
-0.0
 21
1.3
 31
0.0
 40
0.0087268678
 41
-4.7123889804
 42
-3.1764992386
  0
ELLIPSE
  5
613
100
AcDbEntity
  8
RACCORDO
100
AcDbEllipse
 62
7
  6
CONTINUOUS
 10
-38.5537786277
 20
38.1642357883
 30
0.0
 11
0.0
 21
1.3
 31
0.0
 40
0.0087268678
 41
-3.1066860685
 42
-3.0024605311
  0
ELLIPSE
  5
614
100
AcDbEntity
  8
ASSI
100
AcDbEllipse
 62
7
  6
CONTINUOUS
 10
-61.5412146109
 20
-41.1597820694
 30
0.0
 11
1.4159370892
 21
1.4159370892
 31
0.0
 40
0.998782766
 41
2.3568034778
 42
2.466890265
  0
ELLIPSE
  5
615
100
AcDbEntity
  8
ASSI
100
AcDbEllipse
 62
7
  6
CONTINUOUS
 10
-61.5412146109
 20
-41.1597820694
 30
0.0
 11
1.4159370892
 21
1.4159370892
 31
0.0
 40
0.998782766
 41
10.0994804442
 42
10.2095671366
  0
ELLIPSE
  5
616
100
AcDbEntity
  8
ASSI
100
AcDbEllipse
 62
7
  6
CONTINUOUS
 10
-61.5412146109
 20
44.8377797534
 30
0.0
 11
1.4159370892
 21
-1.4159370892
 31
0.0
 40
0.998782766
 41
2.3568034778
 42
2.466890265
  0
ELLIPSE
  5
617
100
AcDbEntity
  8
ASSI
100
AcDbEllipse
 62
7
  6
CONTINUOUS
 10
-61.5412146109
 20
44.8377797534
 30
0.0
 11
1.4159370892
 21
-1.4159370892
 31
0.0
 40
0.998782766
 41
10.0994804442
 42
10.2095671366
  0
ELLIPSE
  5
618
100
AcDbEntity
  8
ASSI
100
AcDbEllipse
 62
7
  6
CONTINUOUS
 10
64.4563472119
 20
-41.1597820694
 30
0.0
 11
-1.4159370892
 21
1.4159370892
 31
0.0
 40
0.998782766
 41
2.3568034778
 42
2.466890265
  0
ELLIPSE
  5
619
100
AcDbEntity
  8
ASSI
100
AcDbEllipse
 62
7
  6
CONTINUOUS
 10
64.4563472119
 20
-41.1597820694
 30
0.0
 11
-1.4159370892
 21
1.4159370892
 31
0.0
 40
0.998782766
 41
10.0994804442
 42
10.2095671366
  0
ELLIPSE
  5
61A
100
AcDbEntity
  8
ASSI
100
AcDbEllipse
 62
7
  6
CONTINUOUS
 10
64.4563472119
 20
44.8377797534
 30
0.0
 11
-1.4159370892
 21
-1.4159370892
 31
0.0
 40
0.998782766
 41
2.3568034778
 42
2.466890265
  0
ELLIPSE
  5
61B
100
AcDbEntity
  8
ASSI
100
AcDbEllipse
 62
7
  6
CONTINUOUS
 10
64.4563472119
 20
44.8377797534
 30
0.0
 11
-1.4159370892
 21
-1.4159370892
 31
0.0
 40
0.998782766
 41
10.0994804442
 42
10.2095671366
  0
ELLIPSE
  5
61C
100
AcDbEntity
  8
ASSI
100
AcDbEllipse
 62
7
  6
CONTINUOUS
 10
-33.742422276
 20
-42.8608182947
 30
0.0
 11
-0.0727817111
 21
-0.291237752
 31
0.0
 40
0.9993528196
 41
-1.3257549497
 42
0.2447368254
  0
ELLIPSE
  5
61D
100
AcDbEntity
  8
ASSI
100
AcDbEllipse
 62
7
  6
CONTINUOUS
 10
-42.692445123
 20
-42.8608182947
 30
0.0
 11
-0.0727817111
 21
0.291237752
 31
0.0
 40
0.9993528196
 41
2.8968558282
 42
4.4673476033
  0
ELLIPSE
  5
61E
100
AcDbEntity
  8
ASSI
100
AcDbEllipse
 62
7
  6
CONTINUOUS
 10
45.607577724
 20
-42.8608182947
 30
0.0
 11
-0.0727817111
 21
-0.291237752
 31
0.0
 40
0.9993528196
 41
-1.3257549497
 42
0.2447368254
  0
ELLIPSE
  5
61F
100
AcDbEntity
  8
ASSI
100
AcDbEllipse
 62
7
  6
CONTINUOUS
 10
36.657554877
 20
-42.8608182947
 30
0.0
 11
-0.0727817111
 21
0.291237752
 31
0.0
 40
0.9993528196
 41
2.8968558282
 42
4.4673476033
  0
ELLIPSE
  5
620
100
AcDbEntity
  8
RACCORDO
100
AcDbEllipse
 62
7
  6
CONTINUOUS
 10
-61.5412146109
 20
-41.1597820694
 30
0.0
 11
1.4159370892
 21
1.4159370892
 31
0.0
 40
0.998782766
 41
2.3568034778
 42
2.466890265
  0
ELLIPSE
  5
621
100
AcDbEntity
  8
RACCORDO
100
AcDbEllipse
 62
7
  6
CONTINUOUS
 10
-61.5412146109
 20
-41.1597820694
 30
0.0
 11
1.4159370892
 21
1.4159370892
 31
0.0
 40
0.998782766
 41
10.0994804442
 42
10.2095671366
  0
ELLIPSE
  5
622
100
AcDbEntity
  8
RACCORDO
100
AcDbEllipse
 62
7
  6
CONTINUOUS
 10
-61.5412146109
 20
44.8377797534
 30
0.0
 11
1.4159370892
 21
-1.4159370892
 31
0.0
 40
0.998782766
 41
2.3568034778
 42
2.466890265
  0
ELLIPSE
  5
623
100
AcDbEntity
  8
RACCORDO
100
AcDbEllipse
 62
7
  6
CONTINUOUS
 10
-61.5412146109
 20
44.8377797534
 30
0.0
 11
1.4159370892
 21
-1.4159370892
 31
0.0
 40
0.998782766
 41
10.0994804442
 42
10.2095671366
  0
ELLIPSE
  5
624
100
AcDbEntity
  8
RACCORDO
100
AcDbEllipse
 62
7
  6
CONTINUOUS
 10
64.4563472119
 20
-41.1597820694
 30
0.0
 11
-1.4159370892
 21
1.4159370892
 31
0.0
 40
0.998782766
 41
2.3568034778
 42
2.466890265
  0
ELLIPSE
  5
625
100
AcDbEntity
  8
RACCORDO
100
AcDbEllipse
 62
7
  6
CONTINUOUS
 10
64.4563472119
 20
-41.1597820694
 30
0.0
 11
-1.4159370892
 21
1.4159370892
 31
0.0
 40
0.998782766
 41
10.0994804442
 42
10.2095671366
  0
ELLIPSE
  5
626
100
AcDbEntity
  8
RACCORDO
100
AcDbEllipse
 62
7
  6
CONTINUOUS
 10
64.4563472119
 20
44.8377797534
 30
0.0
 11
-1.4159370892
 21
-1.4159370892
 31
0.0
 40
0.998782766
 41
2.3568034778
 42
2.466890265
  0
ELLIPSE
  5
627
100
AcDbEntity
  8
RACCORDO
100
AcDbEllipse
 62
7
  6
CONTINUOUS
 10
64.4563472119
 20
44.8377797534
 30
0.0
 11
-1.4159370892
 21
-1.4159370892
 31
0.0
 40
0.998782766
 41
10.0994804442
 42
10.2095671366
  0
ELLIPSE
  5
628
100
AcDbEntity
  8
RACCORDO
100
AcDbEllipse
 62
7
  6
CONTINUOUS
 10
-33.742422276
 20
-42.8608182947
 30
0.0
 11
-0.0727817111
 21
-0.291237752
 31
0.0
 40
0.9993528196
 41
-1.3257549497
 42
0.2447368254
  0
ELLIPSE
  5
629
100
AcDbEntity
  8
RACCORDO
100
AcDbEllipse
 62
7
  6
CONTINUOUS
 10
-42.692445123
 20
-42.8608182947
 30
0.0
 11
-0.0727817111
 21
0.291237752
 31
0.0
 40
0.9993528196
 41
2.8968558282
 42
4.4673476033
  0
ELLIPSE
  5
62A
100
AcDbEntity
  8
RACCORDO
100
AcDbEllipse
 62
7
  6
CONTINUOUS
 10
45.607577724
 20
-42.8608182947
 30
0.0
 11
-0.0727817111
 21
-0.291237752
 31
0.0
 40
0.9993528196
 41
-1.3257549497
 42
0.2447368254
  0
ELLIPSE
  5
62B
100
AcDbEntity
  8
RACCORDO
100
AcDbEllipse
 62
7
  6
CONTINUOUS
 10
36.657554877
 20
-42.8608182947
 30
0.0
 11
-0.0727817111
 21
0.291237752
 31
0.0
 40
0.9993528196
 41
2.8968558282
 42
4.4673476033
  0
ELLIPSE
  5
62C
100
AcDbEntity
  8
RACCORDO
100
AcDbEllipse
 62
7
  6
CONTINUOUS
 10
30.5457297908
 20
40.2702991924
 30
0.0
 11
-0.0
 21
0.5
 31
0.0
 40
0.1763269807
 41
0.2617993878
 42
1.5707963268
  0
ELLIPSE
  5
62D
100
AcDbEntity
  8
RACCORDO
100
AcDbEllipse
 62
7
  6
CONTINUOUS
 10
-27.6305971899
 20
40.2702991924
 30
0.0
 11
-0.0
 21
0.5
 31
0.0
 40
0.1763269807
 41
-1.5707963268
 42
-0.2617993878
  0
ELLIPSE
  5
62E
100
AcDbEntity
  8
RACCORDO
100
AcDbEllipse
 62
7
  6
CONTINUOUS
 10
-27.6305971899
 20
-36.5923015083
 30
0.0
 11
-0.0
 21
0.5
 31
0.0
 40
0.1763269807
 41
-2.8797932658
 42
-1.5707963268
  0
ELLIPSE
  5
62F
100
AcDbEntity
  8
RACCORDO
100
AcDbEllipse
 62
7
  6
CONTINUOUS
 10
30.5457297908
 20
-36.5923015083
 30
0.0
 11
0.0
 21
0.5
 31
0.0
 40
0.1763269807
 41
-4.7123889804
 42
-3.4033920414
  0
ELLIPSE
  5
630
100
AcDbEntity
  8
RACCORDO
100
AcDbEllipse
 62
7
  6
CONTINUOUS
 10
64.9442465097
 20
45.3256790513
 30
0.0
 11
1.0609832838
 21
1.0609832838
 31
0.0
 40
0.9996954599
 41
-0.7852458702
 42
0.7852458701
  0
ELLIPSE
  5
631
100
AcDbEntity
  8
RACCORDO
100
AcDbEllipse
 62
7
  6
CONTINUOUS
 10
64.9442465097
 20
-41.6476813672
 30
0.0
 11
1.0609832838
 21
-1.0609832838
 31
0.0
 40
0.9996954599
 41
-0.7852458701
 42
0.7852458702
  0
ELLIPSE
  5
632
100
AcDbEntity
  8
RACCORDO
100
AcDbEllipse
 62
7
  6
CONTINUOUS
 10
-62.0291139088
 20
45.3256790513
 30
0.0
 11
1.0609832838
 21
-1.0609832837
 31
0.0
 40
0.9996954599
 41
2.3563467834
 42
3.9268385237
  0
ELLIPSE
  5
633
100
AcDbEntity
  8
RACCORDO
100
AcDbEllipse
 62
7
  6
CONTINUOUS
 10
-62.0291139088
 20
-41.6476813672
 30
0.0
 11
1.0609832838
 21
1.0609832838
 31
0.0
 40
0.9996954599
 41
2.3563467834
 42
3.9268385237
  0
ELLIPSE
  5
634
100
AcDbEntity
  8
DRAFT
100
AcDbEllipse
 62
7
  6
CONTINUOUS
 10
-63.4900685047
 20
-12.661001158
 30
0.0
 11
-0.0
 21
5.0
 31
0.0
 40
0.0174550649
 41
-3.054326191
 42
-0.0872664626
  0
ELLIPSE
  5
635
100
AcDbEntity
  8
RACCORDO
100
AcDbEllipse
 62
7
  6
CONTINUOUS
 10
41.4662931683
 20
-35.961001158
 30
0.0
 11
0.0
 21
0.2
 31
0.0
 40
0.0087268678
 41
-1.5707963268
 42
-0.0
  0
ELLIPSE
  5
636
100
AcDbEntity
  8
RACCORDO
100
AcDbEllipse
 62
7
  6
CONTINUOUS
 10
41.4662931683
 20
39.638998842
 30
0.0
 11
-0.0
 21
0.2
 31
0.0
 40
0.0087268678
 41
-3.1415926536
 42
-1.5707963268
  0
ELLIPSE
  5
637
100
AcDbEntity
  8
RACCORDO
100
AcDbEllipse
 62
7
  6
CONTINUOUS
 10
-38.5511605673
 20
39.638998842
 30
0.0
 11
-0.0
 21
0.2
 31
0.0
 40
0.0087268678
 41
-4.7123889804
 42
-3.1415926536
  0
ELLIPSE
  5
638
100
AcDbEntity
  8
RACCORDO
100
AcDbEllipse
 62
7
  6
CONTINUOUS
 10
-38.5511605673
 20
-35.961001158
 30
0.0
 11
0.0
 21
0.2
 31
0.0
 40
0.0087268678
 41
-0.0
 42
1.5707963268
  0
ENDSEC
  0
SECTION
  2
OBJECTS
  0
DICTIONARY
  5
C
100
AcDbDictionary
280
0
281
1
  3
ACAD_GROUP
350
D
  3
ACAD_MLINESTYLE
350
17
  3
ACAD_LAYOUT
350
1A
  3
ACAD_PLOTSETTINGS
350
19
  3
ACAD_PLOTSTYLENAME
350
E
  0
DICTIONARY
  5
D
102
{ACAD_REACTORS
330
C
102
}
100
AcDbDictionary
280
0
281
1
  0
ACDBDICTIONARYWDFLT
  5
E
102
{ACAD_REACTORS
330
C
102
}
100
AcDbDictionary
281
1
  3
Normal
350
F
100
AcDbDictionaryWithDefault
340
F
  0
DICTIONARY
  5
17
102
{ACAD_REACTORS
330
C
102
}
100
AcDbDictionary
280
0
281
1
  3
Standard
350
18
  0
DICTIONARY
  5
19
102
{ACAD_REACTORS
330
C
102
}
100
AcDbDictionary
281
1
  0
DICTIONARY
  5
1A
102
{ACAD_REACTORS
330
C
102
}
100
AcDbDictionary
281
1
  3
Model
350
639
  3
Layout1
350
63A
  0
ACDBPLACEHOLDER
  5
F
102
{ACAD_REACTORS
330
E
102
}
  0
MLINESTYLE
  5
18
102
{ACAD_REACTORS
330
17
102
}
100
AcDbMlineStyle
  2
STANDARD
 70
0
  3

 62
256
 51
90.0
 52
90.0
 71
2
 49
0.5
 62
256
  6
BYLAYER
 49
-0.5
 62
256
  6
BYLAYER
  0
LAYOUT
  5
639
102
{ACAD_REACTORS
330
1A
102
}
100
AcDbPlotSettings
  1

  2
none_device
  4
ISO_A4_(297.00_x_210.00_MM)
  6

 40
0.0
 41
0.0
 42
0.0
 43
0.0
 44
297.0
 45
210.0
 46
0.0
 47
0.0
 48
0.0
 49
0.0
140
0.0
141
0.0
142
1.0
143
1.0
 70
1024
 72
1
 73
0
 74
0
  7

 75
0
147
1.0
148
0.0
149
0.0
100
AcDbLayout
  1
Model
 70
0
 71
0
 10
0.0
 20
0.0
 11
297.0
 21
210.0
 12
0.0
 22
0.0
 32
0.0
 14
0.0
 24
0.0
 34
0.0
 15
0.0
 25
0.0
 35
0.0
146
0.0
 13
0.0
 23
0.0
 33
0.0
 16
1.0
 26
0.0
 36
0.0
 17
0.0
 27
1.0
 37
0.0
 76
0
330
336
345
0
346
0
  0
LAYOUT
  5
63A
102
{ACAD_REACTORS
330
1A
102
}
100
AcDbPlotSettings
  1

  2
none_device
  4
ISO_A4_(297.00_x_210.00_MM)
  6

 40
0.0
 41
0.0
 42
0.0
 43
0.0
 44
297.0
 45
210.0
 46
0.0
 47
0.0
 48
0.0
 49
0.0
140
0.0
141
0.0
142
1.0
143
1.0
 70
0
 72
1
 73
0
 74
0
  7

 75
0
147
1.0
148
0.0
149
0.0
100
AcDbLayout
  1
Layout1
 70
0
 71
1
 10
0.0
 20
0.0
 11
297.0
 21
210.0
 12
0.0
 22
0.0
 32
0.0
 14
0.0
 24
0.0
 34
0.0
 15
0.0
 25
0.0
 35
0.0
146
0.0
 13
0.0
 23
0.0
 33
0.0
 16
1.0
 26
0.0
 36
0.0
 17
0.0
 27
1.0
 37
0.0
 76
0
330
337
345
0
346
0
  0
ENDSEC
  0
EOF
