0
SECTION
2
HEADER
9
$ACADVER
1
AC1015
9
$DWGCODEPAGE
3
ANSI_1252
9
$EXTMAX
10
297.0000000000
20
210.0000000000
30
0.0000000000
9
$EXTMIN
10
0.0000000000
20
0.0000000000
30
0.0000000000
9
$LIMMIN
10
0.0000000000
20
0.0000000000
9
$LIMMAX
10
297.0000000000
20
210.0000000000
9
$VIEWCTR
10
148.5000000000
20
105.0000000000
9
$VIEWSIZE
40
210.0000000000
9
$CLAYER
8
0
9
$LTSCALE
40
16.3350000000
9
$CELTYPE
6
BYLAYER
9
$DIMSCALE
40
1
9
$DIMASZ
40
3.0000000000
9
$DIMEXO
40
1.8562500000
9
$DIMDLI
40
11.2860000000
9
$DIMEXE
40
5.3460000000
9
$DIMCEN
40
2.6730000000
9
$DIMLFAC
40
1.0000000000
9
$DIMBLK
1
_FILLED
9
$DIMTXT
40
3.0000000000
9
$DIMTOL
70
1
9
$DIMLIM
70
0
9
$DIMTFAC
40
1.0000000000
9
$DIMTP
40
0.0100000000
9
$DIMTM
40
0.0100000000
9
$PDMODE
70
3
9
$PDSIZE
40
3.0000000000
9
$HANDSEED
5
52D
9
$MEASUREMENT
70
1
9
$INSUNITS
70
4
0
ENDSEC
0
SECTION
2
CLASSES
0
CLASS
1
ACDBDICTIONARYWDFLT
2
AcDbDictionaryWithDefault
3
AutoCAD 2000
90
0
280
0
281
0
0
CLASS
1
ACDBPLACEHOLDER
2
AcDbPlaceHolder
3
AutoCAD 2000
90
0
280
0
281
0
0
CLASS
1
LAYOUT
2
AcDbLayout
3
AutoCAD 2000
90
0
280
0
281
0
0
ENDSEC
0
SECTION
2
TABLES
0
TABLE
2
VPORT
5
8
100
AcDbSymbolTable
70
2
0
VPORT
5
1F4
100
AcDbSymbolTableRecord
100
AcDbViewportTableRecord
2
*ACTIVE
70
0
10
0.0
20
0.0
11
1.0
21
1.0
12
148.5000000000
22
105.0000000000
13
0.0
23
0.0
14
1.0
24
1.0
15
0.0
25
0.0
16
0.0
26
0.0
36
1.0
17
0.0
27
0.0
37
0.0
40
210.0000000000
41
1.4142857143
42
50.0
43
0.0
44
0.0
50
0.0
51
0.0
71
0
72
100
73
1
74
1
75
0
76
0
77
0
78
0
0
ENDTAB
0
TABLE
2
LTYPE
5
5
100
AcDbSymbolTable
70
6
0
LTYPE
5
14
100
AcDbSymbolTableRecord
100
AcDbLinetypeTableRecord
2
BYBLOCK
70
0
3

72
65
73
0
40
0.0
0
LTYPE
5
15
100
AcDbSymbolTableRecord
100
AcDbLinetypeTableRecord
2
BYLAYER
70
0
3

72
65
73
0
40
0.0
0
LTYPE
5
16
100
AcDbSymbolTableRecord
100
AcDbLinetypeTableRecord
2
CONTINUOUS
70
64
3
Solid line
72
65
73
0
40
0
0
LTYPE
5
1F5
100
AcDbSymbolTableRecord
100
AcDbLinetypeTableRecord
2
CENTER
70
64
3
____ _ ____ _ ____ _ ____ _ ____ _ ____ _ ____
72
65
73
4
40
0.6
49
0.375
74
0
49
-0.075
74
0
49
0.075
74
0
49
-0.075
74
0
0
LTYPE
5
1F6
100
AcDbSymbolTableRecord
100
AcDbLinetypeTableRecord
2
HIDDEN
70
64
3
- - - - - - - - - - - - - - - - - - - -
72
65
73
2
40
0.2
49
0.1
74
0
49
-0.1
74
0
0
LTYPE
5
1F7
100
AcDbSymbolTableRecord
100
AcDbLinetypeTableRecord
2
PHANTOM
70
64
3
_____ _ _ _____ _ _ _____ _ _ _____
72
65
73
6
40
0.8
49
0.45
74
0
49
-0.05
74
0
49
0.1
74
0
49
-0.05
74
0
49
0.1
74
0
49
-0.05
74
0
0
LTYPE
5
1F8
100
AcDbSymbolTableRecord
100
AcDbLinetypeTableRecord
2
DOT
70
64
3
. . . . . . . . . . . . . . . . . . . .
72
65
73
2
40
0.2
49
0.1
74
0
49
-0.1
74
0
0
LTYPE
5
1F9
100
AcDbSymbolTableRecord
100
AcDbLinetypeTableRecord
2
DASHED
70
64
3
- - - - - - - - - - - - - - - - - - - -
72
65
73
2
40
0.2
49
0.1
74
0
49
-0.1
74
0
0
ENDTAB
0
TABLE
2
LAYER
5
2
100
AcDbSymbolTable
70
36
0
LAYER
5
10
100
AcDbSymbolTableRecord
100
AcDbLayerTableRecord
2
0
70
0
62
7
6
CONTINUOUS
370
-3
390
F
0
LAYER
5
1FA
100
AcDbSymbolTableRecord
100
AcDbLayerTableRecord
2
DEFAULT_1
70
0
62
7
6
CENTER
370
-3
390
F
0
LAYER
5
1FB
100
AcDbSymbolTableRecord
100
AcDbLayerTableRecord
2
DEFAULT_2
70
0
62
8
6
HIDDEN
370
-3
390
F
0
LAYER
5
1FC
100
AcDbSymbolTableRecord
100
AcDbLayerTableRecord
2
DEFAULT_3
70
0
62
7
6
PHANTOM
370
-3
390
F
0
LAYER
5
1FD
100
AcDbSymbolTableRecord
100
AcDbLayerTableRecord
2
1608-CC-RF-VIMAR_80000
70
0
62
7
6
CONTINUOUS
370
-3
390
F
0
LAYER
5
1FE
100
AcDbSymbolTableRecord
100
AcDbLayerTableRecord
2
1608-CC-RF-VIMAR_80000_1
70
0
62
7
6
CONTINUOUS
370
-3
390
F
0
LAYER
5
1FF
100
AcDbSymbolTableRecord
100
AcDbLayerTableRecord
2
1608-CC-RF-VIMAR_80000_10
70
0
62
7
6
CONTINUOUS
370
-3
390
F
0
LAYER
5
200
100
AcDbSymbolTableRecord
100
AcDbLayerTableRecord
2
1608-CC-RF-VIMAR_80000_11
70
0
62
7
6
CONTINUOUS
370
-3
390
F
0
LAYER
5
201
100
AcDbSymbolTableRecord
100
AcDbLayerTableRecord
2
1608-CC-RF-VIMAR_80000_12
70
0
62
7
6
CONTINUOUS
370
-3
390
F
0
LAYER
5
202
100
AcDbSymbolTableRecord
100
AcDbLayerTableRecord
2
1608-CC-RF-VIMAR_80000_13
70
0
62
7
6
CONTINUOUS
370
-3
390
F
0
LAYER
5
203
100
AcDbSymbolTableRecord
100
AcDbLayerTableRecord
2
1608-CC-RF-VIMAR_80000_14
70
0
62
7
6
CONTINUOUS
370
-3
390
F
0
LAYER
5
204
100
AcDbSymbolTableRecord
100
AcDbLayerTableRecord
2
1608-CC-RF-VIMAR_80000_15
70
0
62
7
6
CONTINUOUS
370
-3
390
F
0
LAYER
5
205
100
AcDbSymbolTableRecord
100
AcDbLayerTableRecord
2
1608-CC-RF-VIMAR_80000_16
70
0
62
7
6
CONTINUOUS
370
-3
390
F
0
LAYER
5
206
100
AcDbSymbolTableRecord
100
AcDbLayerTableRecord
2
1608-CC-RF-VIMAR_80000_17
70
0
62
7
6
CONTINUOUS
370
-3
390
F
0
LAYER
5
207
100
AcDbSymbolTableRecord
100
AcDbLayerTableRecord
2
1608-CC-RF-VIMAR_80000_18
70
0
62
7
6
CONTINUOUS
370
-3
390
F
0
LAYER
5
208
100
AcDbSymbolTableRecord
100
AcDbLayerTableRecord
2
1608-CC-RF-VIMAR_80000_19
70
0
62
7
6
CONTINUOUS
370
-3
390
F
0
LAYER
5
209
100
AcDbSymbolTableRecord
100
AcDbLayerTableRecord
2
1608-CC-RF-VIMAR_80000_2
70
0
62
7
6
CONTINUOUS
370
-3
390
F
0
LAYER
5
20A
100
AcDbSymbolTableRecord
100
AcDbLayerTableRecord
2
1608-CC-RF-VIMAR_80000_20
70
0
62
7
6
CONTINUOUS
370
-3
390
F
0
LAYER
5
20B
100
AcDbSymbolTableRecord
100
AcDbLayerTableRecord
2
1608-CC-RF-VIMAR_80000_21
70
0
62
7
6
CONTINUOUS
370
-3
390
F
0
LAYER
5
20C
100
AcDbSymbolTableRecord
100
AcDbLayerTableRecord
2
1608-CC-RF-VIMAR_80000_22
70
0
62
7
6
CONTINUOUS
370
-3
390
F
0
LAYER
5
20D
100
AcDbSymbolTableRecord
100
AcDbLayerTableRecord
2
1608-CC-RF-VIMAR_80000_23
70
0
62
7
6
CONTINUOUS
370
-3
390
F
0
LAYER
5
20E
100
AcDbSymbolTableRecord
100
AcDbLayerTableRecord
2
1608-CC-RF-VIMAR_80000_24
70
0
62
7
6
CONTINUOUS
370
-3
390
F
0
LAYER
5
20F
100
AcDbSymbolTableRecord
100
AcDbLayerTableRecord
2
1608-CC-RF-VIMAR_80000_25
70
0
62
7
6
CONTINUOUS
370
-3
390
F
0
LAYER
5
210
100
AcDbSymbolTableRecord
100
AcDbLayerTableRecord
2
1608-CC-RF-VIMAR_80000_26
70
0
62
7
6
CONTINUOUS
370
-3
390
F
0
LAYER
5
211
100
AcDbSymbolTableRecord
100
AcDbLayerTableRecord
2
1608-CC-RF-VIMAR_80000_27
70
0
62
7
6
CONTINUOUS
370
-3
390
F
0
LAYER
5
212
100
AcDbSymbolTableRecord
100
AcDbLayerTableRecord
2
1608-CC-RF-VIMAR_80000_28
70
0
62
7
6
CONTINUOUS
370
-3
390
F
0
LAYER
5
213
100
AcDbSymbolTableRecord
100
AcDbLayerTableRecord
2
1608-CC-RF-VIMAR_80000_29
70
0
62
7
6
CONTINUOUS
370
-3
390
F
0
LAYER
5
214
100
AcDbSymbolTableRecord
100
AcDbLayerTableRecord
2
1608-CC-RF-VIMAR_80000_3
70
0
62
7
6
CONTINUOUS
370
-3
390
F
0
LAYER
5
215
100
AcDbSymbolTableRecord
100
AcDbLayerTableRecord
2
1608-CC-RF-VIMAR_80000_30
70
0
62
7
6
CONTINUOUS
370
-3
390
F
0
LAYER
5
216
100
AcDbSymbolTableRecord
100
AcDbLayerTableRecord
2
1608-CC-RF-VIMAR_80000_31
70
0
62
7
6
CONTINUOUS
370
-3
390
F
0
LAYER
5
217
100
AcDbSymbolTableRecord
100
AcDbLayerTableRecord
2
1608-CC-RF-VIMAR_80000_32
70
0
62
7
6
CONTINUOUS
370
-3
390
F
0
LAYER
5
218
100
AcDbSymbolTableRecord
100
AcDbLayerTableRecord
2
1608-CC-RF-VIMAR_80000_33
70
0
62
7
6
CONTINUOUS
370
-3
390
F
0
LAYER
5
219
100
AcDbSymbolTableRecord
100
AcDbLayerTableRecord
2
1608-CC-RF-VIMAR_80000_34
70
0
62
7
6
CONTINUOUS
370
-3
390
F
0
LAYER
5
21A
100
AcDbSymbolTableRecord
100
AcDbLayerTableRecord
2
1608-CC-RF-VIMAR_80000_35
70
0
62
7
6
CONTINUOUS
370
-3
390
F
0
LAYER
5
21B
100
AcDbSymbolTableRecord
100
AcDbLayerTableRecord
2
1608-CC-RF-VIMAR_80000_36
70
0
62
7
6
CONTINUOUS
370
-3
390
F
0
LAYER
5
21C
100
AcDbSymbolTableRecord
100
AcDbLayerTableRecord
2
1608-CC-RF-VIMAR_80000_37
70
0
62
7
6
CONTINUOUS
370
-3
390
F
0
LAYER
5
21D
100
AcDbSymbolTableRecord
100
AcDbLayerTableRecord
2
1608-CC-RF-VIMAR_80000_38
70
0
62
7
6
CONTINUOUS
370
-3
390
F
0
LAYER
5
21E
100
AcDbSymbolTableRecord
100
AcDbLayerTableRecord
2
1608-CC-RF-VIMAR_80000_39
70
0
62
7
6
CONTINUOUS
370
-3
390
F
0
LAYER
5
21F
100
AcDbSymbolTableRecord
100
AcDbLayerTableRecord
2
1608-CC-RF-VIMAR_80000_4
70
0
62
7
6
CONTINUOUS
370
-3
390
F
0
LAYER
5
220
100
AcDbSymbolTableRecord
100
AcDbLayerTableRecord
2
1608-CC-RF-VIMAR_80000_40
70
0
62
7
6
CONTINUOUS
370
-3
390
F
0
LAYER
5
221
100
AcDbSymbolTableRecord
100
AcDbLayerTableRecord
2
1608-CC-RF-VIMAR_80000_41
70
0
62
7
6
CONTINUOUS
370
-3
390
F
0
LAYER
5
222
100
AcDbSymbolTableRecord
100
AcDbLayerTableRecord
2
1608-CC-RF-VIMAR_80000_42
70
0
62
7
6
CONTINUOUS
370
-3
390
F
0
LAYER
5
223
100
AcDbSymbolTableRecord
100
AcDbLayerTableRecord
2
1608-CC-RF-VIMAR_80000_43
70
0
62
7
6
CONTINUOUS
370
-3
390
F
0
LAYER
5
224
100
AcDbSymbolTableRecord
100
AcDbLayerTableRecord
2
1608-CC-RF-VIMAR_80000_44
70
0
62
7
6
CONTINUOUS
370
-3
390
F
0
LAYER
5
225
100
AcDbSymbolTableRecord
100
AcDbLayerTableRecord
2
1608-CC-RF-VIMAR_80000_45
70
0
62
7
6
CONTINUOUS
370
-3
390
F
0
LAYER
5
226
100
AcDbSymbolTableRecord
100
AcDbLayerTableRecord
2
1608-CC-RF-VIMAR_80000_46
70
0
62
7
6
CONTINUOUS
370
-3
390
F
0
LAYER
5
227
100
AcDbSymbolTableRecord
100
AcDbLayerTableRecord
2
1608-CC-RF-VIMAR_80000_47
70
0
62
7
6
CONTINUOUS
370
-3
390
F
0
LAYER
5
228
100
AcDbSymbolTableRecord
100
AcDbLayerTableRecord
2
1608-CC-RF-VIMAR_80000_48
70
0
62
7
6
CONTINUOUS
370
-3
390
F
0
LAYER
5
229
100
AcDbSymbolTableRecord
100
AcDbLayerTableRecord
2
1608-CC-RF-VIMAR_80000_49
70
0
62
7
6
CONTINUOUS
370
-3
390
F
0
LAYER
5
22A
100
AcDbSymbolTableRecord
100
AcDbLayerTableRecord
2
1608-CC-RF-VIMAR_80000_5
70
0
62
7
6
CONTINUOUS
370
-3
390
F
0
LAYER
5
22B
100
AcDbSymbolTableRecord
100
AcDbLayerTableRecord
2
1608-CC-RF-VIMAR_80000_50
70
0
62
7
6
CONTINUOUS
370
-3
390
F
0
LAYER
5
22C
100
AcDbSymbolTableRecord
100
AcDbLayerTableRecord
2
1608-CC-RF-VIMAR_80000_51
70
0
62
7
6
CONTINUOUS
370
-3
390
F
0
LAYER
5
22D
100
AcDbSymbolTableRecord
100
AcDbLayerTableRecord
2
1608-CC-RF-VIMAR_80000_52
70
0
62
7
6
CONTINUOUS
370
-3
390
F
0
LAYER
5
22E
100
AcDbSymbolTableRecord
100
AcDbLayerTableRecord
2
1608-CC-RF-VIMAR_80000_53
70
0
62
7
6
CONTINUOUS
370
-3
390
F
0
LAYER
5
22F
100
AcDbSymbolTableRecord
100
AcDbLayerTableRecord
2
1608-CC-RF-VIMAR_80000_54
70
0
62
7
6
CONTINUOUS
370
-3
390
F
0
LAYER
5
230
100
AcDbSymbolTableRecord
100
AcDbLayerTableRecord
2
1608-CC-RF-VIMAR_80000_55
70
0
62
7
6
CONTINUOUS
370
-3
390
F
0
LAYER
5
231
100
AcDbSymbolTableRecord
100
AcDbLayerTableRecord
2
1608-CC-RF-VIMAR_80000_56
70
0
62
7
6
CONTINUOUS
370
-3
390
F
0
LAYER
5
232
100
AcDbSymbolTableRecord
100
AcDbLayerTableRecord
2
1608-CC-RF-VIMAR_80000_57
70
0
62
7
6
CONTINUOUS
370
-3
390
F
0
LAYER
5
233
100
AcDbSymbolTableRecord
100
AcDbLayerTableRecord
2
1608-CC-RF-VIMAR_80000_6
70
0
62
7
6
CONTINUOUS
370
-3
390
F
0
LAYER
5
234
100
AcDbSymbolTableRecord
100
AcDbLayerTableRecord
2
1608-CC-RF-VIMAR_80000_7
70
0
62
7
6
CONTINUOUS
370
-3
390
F
0
LAYER
5
235
100
AcDbSymbolTableRecord
100
AcDbLayerTableRecord
2
1608-CC-RF-VIMAR_80000_8
70
0
62
7
6
CONTINUOUS
370
-3
390
F
0
LAYER
5
236
100
AcDbSymbolTableRecord
100
AcDbLayerTableRecord
2
1608-CC-RF-VIMAR_80000_9
70
0
62
7
6
CONTINUOUS
370
-3
390
F
0
LAYER
5
237
100
AcDbSymbolTableRecord
100
AcDbLayerTableRecord
2
1608-R-RF-VIMAR_45000
70
0
62
7
6
CONTINUOUS
370
-3
390
F
0
LAYER
5
238
100
AcDbSymbolTableRecord
100
AcDbLayerTableRecord
2
1608-R-RF-VIMAR_45000_1
70
0
62
7
6
CONTINUOUS
370
-3
390
F
0
LAYER
5
239
100
AcDbSymbolTableRecord
100
AcDbLayerTableRecord
2
1608-R-RF-VIMAR_45000_10
70
0
62
7
6
CONTINUOUS
370
-3
390
F
0
LAYER
5
23A
100
AcDbSymbolTableRecord
100
AcDbLayerTableRecord
2
1608-R-RF-VIMAR_45000_11
70
0
62
7
6
CONTINUOUS
370
-3
390
F
0
LAYER
5
23B
100
AcDbSymbolTableRecord
100
AcDbLayerTableRecord
2
1608-R-RF-VIMAR_45000_12
70
0
62
7
6
CONTINUOUS
370
-3
390
F
0
LAYER
5
23C
100
AcDbSymbolTableRecord
100
AcDbLayerTableRecord
2
1608-R-RF-VIMAR_45000_13
70
0
62
7
6
CONTINUOUS
370
-3
390
F
0
LAYER
5
23D
100
AcDbSymbolTableRecord
100
AcDbLayerTableRecord
2
1608-R-RF-VIMAR_45000_14
70
0
62
7
6
CONTINUOUS
370
-3
390
F
0
LAYER
5
23E
100
AcDbSymbolTableRecord
100
AcDbLayerTableRecord
2
1608-R-RF-VIMAR_45000_15
70
0
62
7
6
CONTINUOUS
370
-3
390
F
0
LAYER
5
23F
100
AcDbSymbolTableRecord
100
AcDbLayerTableRecord
2
1608-R-RF-VIMAR_45000_16
70
0
62
7
6
CONTINUOUS
370
-3
390
F
0
LAYER
5
240
100
AcDbSymbolTableRecord
100
AcDbLayerTableRecord
2
1608-R-RF-VIMAR_45000_17
70
0
62
7
6
CONTINUOUS
370
-3
390
F
0
LAYER
5
241
100
AcDbSymbolTableRecord
100
AcDbLayerTableRecord
2
1608-R-RF-VIMAR_45000_18
70
0
62
7
6
CONTINUOUS
370
-3
390
F
0
LAYER
5
242
100
AcDbSymbolTableRecord
100
AcDbLayerTableRecord
2
1608-R-RF-VIMAR_45000_19
70
0
62
7
6
CONTINUOUS
370
-3
390
F
0
LAYER
5
243
100
AcDbSymbolTableRecord
100
AcDbLayerTableRecord
2
1608-R-RF-VIMAR_45000_2
70
0
62
7
6
CONTINUOUS
370
-3
390
F
0
LAYER
5
244
100
AcDbSymbolTableRecord
100
AcDbLayerTableRecord
2
1608-R-RF-VIMAR_45000_20
70
0
62
7
6
CONTINUOUS
370
-3
390
F
0
LAYER
5
245
100
AcDbSymbolTableRecord
100
AcDbLayerTableRecord
2
1608-R-RF-VIMAR_45000_21
70
0
62
7
6
CONTINUOUS
370
-3
390
F
0
LAYER
5
246
100
AcDbSymbolTableRecord
100
AcDbLayerTableRecord
2
1608-R-RF-VIMAR_45000_22
70
0
62
7
6
CONTINUOUS
370
-3
390
F
0
LAYER
5
247
100
AcDbSymbolTableRecord
100
AcDbLayerTableRecord
2
1608-R-RF-VIMAR_45000_23
70
0
62
7
6
CONTINUOUS
370
-3
390
F
0
LAYER
5
248
100
AcDbSymbolTableRecord
100
AcDbLayerTableRecord
2
1608-R-RF-VIMAR_45000_24
70
0
62
7
6
CONTINUOUS
370
-3
390
F
0
LAYER
5
249
100
AcDbSymbolTableRecord
100
AcDbLayerTableRecord
2
1608-R-RF-VIMAR_45000_25
70
0
62
7
6
CONTINUOUS
370
-3
390
F
0
LAYER
5
24A
100
AcDbSymbolTableRecord
100
AcDbLayerTableRecord
2
1608-R-RF-VIMAR_45000_26
70
0
62
7
6
CONTINUOUS
370
-3
390
F
0
LAYER
5
24B
100
AcDbSymbolTableRecord
100
AcDbLayerTableRecord
2
1608-R-RF-VIMAR_45000_27
70
0
62
7
6
CONTINUOUS
370
-3
390
F
0
LAYER
5
24C
100
AcDbSymbolTableRecord
100
AcDbLayerTableRecord
2
1608-R-RF-VIMAR_45000_28
70
0
62
7
6
CONTINUOUS
370
-3
390
F
0
LAYER
5
24D
100
AcDbSymbolTableRecord
100
AcDbLayerTableRecord
2
1608-R-RF-VIMAR_45000_29
70
0
62
7
6
CONTINUOUS
370
-3
390
F
0
LAYER
5
24E
100
AcDbSymbolTableRecord
100
AcDbLayerTableRecord
2
1608-R-RF-VIMAR_45000_3
70
0
62
7
6
CONTINUOUS
370
-3
390
F
0
LAYER
5
24F
100
AcDbSymbolTableRecord
100
AcDbLayerTableRecord
2
1608-R-RF-VIMAR_45000_30
70
0
62
7
6
CONTINUOUS
370
-3
390
F
0
LAYER
5
250
100
AcDbSymbolTableRecord
100
AcDbLayerTableRecord
2
1608-R-RF-VIMAR_45000_31
70
0
62
7
6
CONTINUOUS
370
-3
390
F
0
LAYER
5
251
100
AcDbSymbolTableRecord
100
AcDbLayerTableRecord
2
1608-R-RF-VIMAR_45000_32
70
0
62
7
6
CONTINUOUS
370
-3
390
F
0
LAYER
5
252
100
AcDbSymbolTableRecord
100
AcDbLayerTableRecord
2
1608-R-RF-VIMAR_45000_33
70
0
62
7
6
CONTINUOUS
370
-3
390
F
0
LAYER
5
253
100
AcDbSymbolTableRecord
100
AcDbLayerTableRecord
2
1608-R-RF-VIMAR_45000_34
70
0
62
7
6
CONTINUOUS
370
-3
390
F
0
LAYER
5
254
100
AcDbSymbolTableRecord
100
AcDbLayerTableRecord
2
1608-R-RF-VIMAR_45000_35
70
0
62
7
6
CONTINUOUS
370
-3
390
F
0
LAYER
5
255
100
AcDbSymbolTableRecord
100
AcDbLayerTableRecord
2
1608-R-RF-VIMAR_45000_36
70
0
62
7
6
CONTINUOUS
370
-3
390
F
0
LAYER
5
256
100
AcDbSymbolTableRecord
100
AcDbLayerTableRecord
2
1608-R-RF-VIMAR_45000_37
70
0
62
7
6
CONTINUOUS
370
-3
390
F
0
LAYER
5
257
100
AcDbSymbolTableRecord
100
AcDbLayerTableRecord
2
1608-R-RF-VIMAR_45000_38
70
0
62
7
6
CONTINUOUS
370
-3
390
F
0
LAYER
5
258
100
AcDbSymbolTableRecord
100
AcDbLayerTableRecord
2
1608-R-RF-VIMAR_45000_39
70
0
62
7
6
CONTINUOUS
370
-3
390
F
0
LAYER
5
259
100
AcDbSymbolTableRecord
100
AcDbLayerTableRecord
2
1608-R-RF-VIMAR_45000_4
70
0
62
7
6
CONTINUOUS
370
-3
390
F
0
LAYER
5
25A
100
AcDbSymbolTableRecord
100
AcDbLayerTableRecord
2
1608-R-RF-VIMAR_45000_40
70
0
62
7
6
CONTINUOUS
370
-3
390
F
0
LAYER
5
25B
100
AcDbSymbolTableRecord
100
AcDbLayerTableRecord
2
1608-R-RF-VIMAR_45000_41
70
0
62
7
6
CONTINUOUS
370
-3
390
F
0
LAYER
5
25C
100
AcDbSymbolTableRecord
100
AcDbLayerTableRecord
2
1608-R-RF-VIMAR_45000_42
70
0
62
7
6
CONTINUOUS
370
-3
390
F
0
LAYER
5
25D
100
AcDbSymbolTableRecord
100
AcDbLayerTableRecord
2
1608-R-RF-VIMAR_45000_43
70
0
62
7
6
CONTINUOUS
370
-3
390
F
0
LAYER
5
25E
100
AcDbSymbolTableRecord
100
AcDbLayerTableRecord
2
1608-R-RF-VIMAR_45000_44
70
0
62
7
6
CONTINUOUS
370
-3
390
F
0
LAYER
5
25F
100
AcDbSymbolTableRecord
100
AcDbLayerTableRecord
2
1608-R-RF-VIMAR_45000_45
70
0
62
7
6
CONTINUOUS
370
-3
390
F
0
LAYER
5
260
100
AcDbSymbolTableRecord
100
AcDbLayerTableRecord
2
1608-R-RF-VIMAR_45000_46
70
0
62
7
6
CONTINUOUS
370
-3
390
F
0
LAYER
5
261
100
AcDbSymbolTableRecord
100
AcDbLayerTableRecord
2
1608-R-RF-VIMAR_45000_47
70
0
62
7
6
CONTINUOUS
370
-3
390
F
0
LAYER
5
262
100
AcDbSymbolTableRecord
100
AcDbLayerTableRecord
2
1608-R-RF-VIMAR_45000_48
70
0
62
7
6
CONTINUOUS
370
-3
390
F
0
LAYER
5
263
100
AcDbSymbolTableRecord
100
AcDbLayerTableRecord
2
1608-R-RF-VIMAR_45000_49
70
0
62
7
6
CONTINUOUS
370
-3
390
F
0
LAYER
5
264
100
AcDbSymbolTableRecord
100
AcDbLayerTableRecord
2
1608-R-RF-VIMAR_45000_5
70
0
62
7
6
CONTINUOUS
370
-3
390
F
0
LAYER
5
265
100
AcDbSymbolTableRecord
100
AcDbLayerTableRecord
2
1608-R-RF-VIMAR_45000_50
70
0
62
7
6
CONTINUOUS
370
-3
390
F
0
LAYER
5
266
100
AcDbSymbolTableRecord
100
AcDbLayerTableRecord
2
1608-R-RF-VIMAR_45000_51
70
0
62
7
6
CONTINUOUS
370
-3
390
F
0
LAYER
5
267
100
AcDbSymbolTableRecord
100
AcDbLayerTableRecord
2
1608-R-RF-VIMAR_45000_52
70
0
62
7
6
CONTINUOUS
370
-3
390
F
0
LAYER
5
268
100
AcDbSymbolTableRecord
100
AcDbLayerTableRecord
2
1608-R-RF-VIMAR_45000_53
70
0
62
7
6
CONTINUOUS
370
-3
390
F
0
LAYER
5
269
100
AcDbSymbolTableRecord
100
AcDbLayerTableRecord
2
1608-R-RF-VIMAR_45000_54
70
0
62
7
6
CONTINUOUS
370
-3
390
F
0
LAYER
5
26A
100
AcDbSymbolTableRecord
100
AcDbLayerTableRecord
2
1608-R-RF-VIMAR_45000_55
70
0
62
7
6
CONTINUOUS
370
-3
390
F
0
LAYER
5
26B
100
AcDbSymbolTableRecord
100
AcDbLayerTableRecord
2
1608-R-RF-VIMAR_45000_56
70
0
62
7
6
CONTINUOUS
370
-3
390
F
0
LAYER
5
26C
100
AcDbSymbolTableRecord
100
AcDbLayerTableRecord
2
1608-R-RF-VIMAR_45000_57
70
0
62
7
6
CONTINUOUS
370
-3
390
F
0
LAYER
5
26D
100
AcDbSymbolTableRecord
100
AcDbLayerTableRecord
2
1608-R-RF-VIMAR_45000_58
70
0
62
7
6
CONTINUOUS
370
-3
390
F
0
LAYER
5
26E
100
AcDbSymbolTableRecord
100
AcDbLayerTableRecord
2
1608-R-RF-VIMAR_45000_59
70
0
62
7
6
CONTINUOUS
370
-3
390
F
0
LAYER
5
26F
100
AcDbSymbolTableRecord
100
AcDbLayerTableRecord
2
1608-R-RF-VIMAR_45000_6
70
0
62
7
6
CONTINUOUS
370
-3
390
F
0
LAYER
5
270
100
AcDbSymbolTableRecord
100
AcDbLayerTableRecord
2
1608-R-RF-VIMAR_45000_60
70
0
62
7
6
CONTINUOUS
370
-3
390
F
0
LAYER
5
271
100
AcDbSymbolTableRecord
100
AcDbLayerTableRecord
2
1608-R-RF-VIMAR_45000_61
70
0
62
7
6
CONTINUOUS
370
-3
390
F
0
LAYER
5
272
100
AcDbSymbolTableRecord
100
AcDbLayerTableRecord
2
1608-R-RF-VIMAR_45000_62
70
0
62
7
6
CONTINUOUS
370
-3
390
F
0
LAYER
5
273
100
AcDbSymbolTableRecord
100
AcDbLayerTableRecord
2
1608-R-RF-VIMAR_45000_63
70
0
62
7
6
CONTINUOUS
370
-3
390
F
0
LAYER
5
274
100
AcDbSymbolTableRecord
100
AcDbLayerTableRecord
2
1608-R-RF-VIMAR_45000_64
70
0
62
7
6
CONTINUOUS
370
-3
390
F
0
LAYER
5
275
100
AcDbSymbolTableRecord
100
AcDbLayerTableRecord
2
1608-R-RF-VIMAR_45000_65
70
0
62
7
6
CONTINUOUS
370
-3
390
F
0
LAYER
5
276
100
AcDbSymbolTableRecord
100
AcDbLayerTableRecord
2
1608-R-RF-VIMAR_45000_66
70
0
62
7
6
CONTINUOUS
370
-3
390
F
0
LAYER
5
277
100
AcDbSymbolTableRecord
100
AcDbLayerTableRecord
2
1608-R-RF-VIMAR_45000_67
70
0
62
7
6
CONTINUOUS
370
-3
390
F
0
LAYER
5
278
100
AcDbSymbolTableRecord
100
AcDbLayerTableRecord
2
1608-R-RF-VIMAR_45000_68
70
0
62
7
6
CONTINUOUS
370
-3
390
F
0
LAYER
5
279
100
AcDbSymbolTableRecord
100
AcDbLayerTableRecord
2
1608-R-RF-VIMAR_45000_69
70
0
62
7
6
CONTINUOUS
370
-3
390
F
0
LAYER
5
27A
100
AcDbSymbolTableRecord
100
AcDbLayerTableRecord
2
1608-R-RF-VIMAR_45000_7
70
0
62
7
6
CONTINUOUS
370
-3
390
F
0
LAYER
5
27B
100
AcDbSymbolTableRecord
100
AcDbLayerTableRecord
2
1608-R-RF-VIMAR_45000_70
70
0
62
7
6
CONTINUOUS
370
-3
390
F
0
LAYER
5
27C
100
AcDbSymbolTableRecord
100
AcDbLayerTableRecord
2
1608-R-RF-VIMAR_45000_71
70
0
62
7
6
CONTINUOUS
370
-3
390
F
0
LAYER
5
27D
100
AcDbSymbolTableRecord
100
AcDbLayerTableRecord
2
1608-R-RF-VIMAR_45000_72
70
0
62
7
6
CONTINUOUS
370
-3
390
F
0
LAYER
5
27E
100
AcDbSymbolTableRecord
100
AcDbLayerTableRecord
2
1608-R-RF-VIMAR_45000_73
70
0
62
7
6
CONTINUOUS
370
-3
390
F
0
LAYER
5
27F
100
AcDbSymbolTableRecord
100
AcDbLayerTableRecord
2
1608-R-RF-VIMAR_45000_74
70
0
62
7
6
CONTINUOUS
370
-3
390
F
0
LAYER
5
280
100
AcDbSymbolTableRecord
100
AcDbLayerTableRecord
2
1608-R-RF-VIMAR_45000_75
70
0
62
7
6
CONTINUOUS
370
-3
390
F
0
LAYER
5
281
100
AcDbSymbolTableRecord
100
AcDbLayerTableRecord
2
1608-R-RF-VIMAR_45000_76
70
0
62
7
6
CONTINUOUS
370
-3
390
F
0
LAYER
5
282
100
AcDbSymbolTableRecord
100
AcDbLayerTableRecord
2
1608-R-RF-VIMAR_45000_77
70
0
62
7
6
CONTINUOUS
370
-3
390
F
0
LAYER
5
283
100
AcDbSymbolTableRecord
100
AcDbLayerTableRecord
2
1608-R-RF-VIMAR_45000_78
70
0
62
7
6
CONTINUOUS
370
-3
390
F
0
LAYER
5
284
100
AcDbSymbolTableRecord
100
AcDbLayerTableRecord
2
1608-R-RF-VIMAR_45000_79
70
0
62
7
6
CONTINUOUS
370
-3
390
F
0
LAYER
5
285
100
AcDbSymbolTableRecord
100
AcDbLayerTableRecord
2
1608-R-RF-VIMAR_45000_8
70
0
62
7
6
CONTINUOUS
370
-3
390
F
0
LAYER
5
286
100
AcDbSymbolTableRecord
100
AcDbLayerTableRecord
2
1608-R-RF-VIMAR_45000_80
70
0
62
7
6
CONTINUOUS
370
-3
390
F
0
LAYER
5
287
100
AcDbSymbolTableRecord
100
AcDbLayerTableRecord
2
1608-R-RF-VIMAR_45000_81
70
0
62
7
6
CONTINUOUS
370
-3
390
F
0
LAYER
5
288
100
AcDbSymbolTableRecord
100
AcDbLayerTableRecord
2
1608-R-RF-VIMAR_45000_82
70
0
62
7
6
CONTINUOUS
370
-3
390
F
0
LAYER
5
289
100
AcDbSymbolTableRecord
100
AcDbLayerTableRecord
2
1608-R-RF-VIMAR_45000_83
70
0
62
7
6
CONTINUOUS
370
-3
390
F
0
LAYER
5
28A
100
AcDbSymbolTableRecord
100
AcDbLayerTableRecord
2
1608-R-RF-VIMAR_45000_84
70
0
62
7
6
CONTINUOUS
370
-3
390
F
0
LAYER
5
28B
100
AcDbSymbolTableRecord
100
AcDbLayerTableRecord
2
1608-R-RF-VIMAR_45000_85
70
0
62
7
6
CONTINUOUS
370
-3
390
F
0
LAYER
5
28C
100
AcDbSymbolTableRecord
100
AcDbLayerTableRecord
2
1608-R-RF-VIMAR_45000_86
70
0
62
7
6
CONTINUOUS
370
-3
390
F
0
LAYER
5
28D
100
AcDbSymbolTableRecord
100
AcDbLayerTableRecord
2
1608-R-RF-VIMAR_45000_9
70
0
62
7
6
CONTINUOUS
370
-3
390
F
0
LAYER
5
28E
100
AcDbSymbolTableRecord
100
AcDbLayerTableRecord
2
200A_170000
70
0
62
7
6
CONTINUOUS
370
-3
390
F
0
LAYER
5
28F
100
AcDbSymbolTableRecord
100
AcDbLayerTableRecord
2
200A_170000_1
70
0
62
7
6
CONTINUOUS
370
-3
390
F
0
LAYER
5
290
100
AcDbSymbolTableRecord
100
AcDbLayerTableRecord
2
2125-CC-RF-VIMAR_65000
70
0
62
7
6
CONTINUOUS
370
-3
390
F
0
LAYER
5
291
100
AcDbSymbolTableRecord
100
AcDbLayerTableRecord
2
2125-CC-RF-VIMAR_65000_1
70
0
62
7
6
CONTINUOUS
370
-3
390
F
0
LAYER
5
292
100
AcDbSymbolTableRecord
100
AcDbLayerTableRecord
2
2125-CC-RF-VIMAR_65000_10
70
0
62
7
6
CONTINUOUS
370
-3
390
F
0
LAYER
5
293
100
AcDbSymbolTableRecord
100
AcDbLayerTableRecord
2
2125-CC-RF-VIMAR_65000_2
70
0
62
7
6
CONTINUOUS
370
-3
390
F
0
LAYER
5
294
100
AcDbSymbolTableRecord
100
AcDbLayerTableRecord
2
2125-CC-RF-VIMAR_65000_3
70
0
62
7
6
CONTINUOUS
370
-3
390
F
0
LAYER
5
295
100
AcDbSymbolTableRecord
100
AcDbLayerTableRecord
2
2125-CC-RF-VIMAR_65000_4
70
0
62
7
6
CONTINUOUS
370
-3
390
F
0
LAYER
5
296
100
AcDbSymbolTableRecord
100
AcDbLayerTableRecord
2
2125-CC-RF-VIMAR_65000_5
70
0
62
7
6
CONTINUOUS
370
-3
390
F
0
LAYER
5
297
100
AcDbSymbolTableRecord
100
AcDbLayerTableRecord
2
2125-CC-RF-VIMAR_65000_6
70
0
62
7
6
CONTINUOUS
370
-3
390
F
0
LAYER
5
298
100
AcDbSymbolTableRecord
100
AcDbLayerTableRecord
2
2125-CC-RF-VIMAR_65000_7
70
0
62
7
6
CONTINUOUS
370
-3
390
F
0
LAYER
5
299
100
AcDbSymbolTableRecord
100
AcDbLayerTableRecord
2
2125-CC-RF-VIMAR_65000_8
70
0
62
7
6
CONTINUOUS
370
-3
390
F
0
LAYER
5
29A
100
AcDbSymbolTableRecord
100
AcDbLayerTableRecord
2
2125-CC-RF-VIMAR_65000_9
70
0
62
7
6
CONTINUOUS
370
-3
390
F
0
LAYER
5
29B
100
AcDbSymbolTableRecord
100
AcDbLayerTableRecord
2
3216-R1-RF-VIMAR_60000
70
0
62
7
6
CONTINUOUS
370
-3
390
F
0
LAYER
5
29C
100
AcDbSymbolTableRecord
100
AcDbLayerTableRecord
2
3216-R1-RF-VIMAR_60000_1
70
0
62
7
6
CONTINUOUS
370
-3
390
F
0
LAYER
5
29D
100
AcDbSymbolTableRecord
100
AcDbLayerTableRecord
2
3225-CF1-RF-VIMAR_200000
70
0
62
7
6
CONTINUOUS
370
-3
390
F
0
LAYER
5
29E
100
AcDbSymbolTableRecord
100
AcDbLayerTableRecord
2
3225-CF1-RF-VIMAR_200000_1
70
0
62
7
6
CONTINUOUS
370
-3
390
F
0
LAYER
5
29F
100
AcDbSymbolTableRecord
100
AcDbLayerTableRecord
2
3225-CF1-RF-VIMAR_200000_2
70
0
62
7
6
CONTINUOUS
370
-3
390
F
0
LAYER
5
2A0
100
AcDbSymbolTableRecord
100
AcDbLayerTableRecord
2
3225-CF1-RF-VIMAR_200000_3
70
0
62
7
6
CONTINUOUS
370
-3
390
F
0
LAYER
5
2A1
100
AcDbSymbolTableRecord
100
AcDbLayerTableRecord
2
3225-CF1-RF-VIMAR_200000_4
70
0
62
7
6
CONTINUOUS
370
-3
390
F
0
LAYER
5
2A2
100
AcDbSymbolTableRecord
100
AcDbLayerTableRecord
2
3225-CF1-RF-VIMAR_200000_5
70
0
62
7
6
CONTINUOUS
370
-3
390
F
0
LAYER
5
2A3
100
AcDbSymbolTableRecord
100
AcDbLayerTableRecord
2
3225-CF1-RF-VIMAR_200000_6
70
0
62
7
6
CONTINUOUS
370
-3
390
F
0
LAYER
5
2A4
100
AcDbSymbolTableRecord
100
AcDbLayerTableRecord
2
43000164A0
70
0
62
7
6
CONTINUOUS
370
-3
390
F
0
LAYER
5
2A5
100
AcDbSymbolTableRecord
100
AcDbLayerTableRecord
2
43000164A0_1
70
0
62
7
6
CONTINUOUS
370
-3
390
F
0
LAYER
5
2A6
100
AcDbSymbolTableRecord
100
AcDbLayerTableRecord
2
43000165B0
70
0
62
7
6
CONTINUOUS
370
-3
390
F
0
LAYER
5
2A7
100
AcDbSymbolTableRecord
100
AcDbLayerTableRecord
2
43000165B0_1
70
0
62
7
6
CONTINUOUS
370
-3
390
F
0
LAYER
5
2A8
100
AcDbSymbolTableRecord
100
AcDbLayerTableRecord
2
ASSI
70
0
62
7
6
CONTINUOUS
370
-3
390
F
0
LAYER
5
2A9
100
AcDbSymbolTableRecord
100
AcDbLayerTableRecord
2
CN-CSF_CSM_2-VIMAR_1150000
70
0
62
7
6
CONTINUOUS
370
-3
390
F
0
LAYER
5
2AA
100
AcDbSymbolTableRecord
100
AcDbLayerTableRecord
2
CN-CSF_CSM_2-VIMAR_1150000_1
70
0
62
7
6
CONTINUOUS
370
-3
390
F
0
LAYER
5
2AB
100
AcDbSymbolTableRecord
100
AcDbLayerTableRecord
2
CN-CSF_CSM_2-VIMAR_1150000_2
70
0
62
7
6
CONTINUOUS
370
-3
390
F
0
LAYER
5
2AC
100
AcDbSymbolTableRecord
100
AcDbLayerTableRecord
2
CN-CSF_CSM_2-VIMAR_1150000_3
70
0
62
7
6
CONTINUOUS
370
-3
390
F
0
LAYER
5
2AD
100
AcDbSymbolTableRecord
100
AcDbLayerTableRecord
2
CN-CSF_CSM_2-VIMAR_1150000_4
70
0
62
7
6
CONTINUOUS
370
-3
390
F
0
LAYER
5
2AE
100
AcDbSymbolTableRecord
100
AcDbLayerTableRecord
2
CN-CSF_CSM_2-VIMAR_1150000_5
70
0
62
7
6
CONTINUOUS
370
-3
390
F
0
LAYER
5
2AF
100
AcDbSymbolTableRecord
100
AcDbLayerTableRecord
2
CN-CSF_CSM_2-VIMAR_1150000_6
70
0
62
7
6
CONTINUOUS
370
-3
390
F
0
LAYER
5
2B0
100
AcDbSymbolTableRecord
100
AcDbLayerTableRecord
2
CN1-TP10_SMD-VIMAR_10000
70
0
62
7
6
CONTINUOUS
370
-3
390
F
0
LAYER
5
2B1
100
AcDbSymbolTableRecord
100
AcDbLayerTableRecord
2
CN1-TP10_SMD-VIMAR_10000_1
70
0
62
7
6
CONTINUOUS
370
-3
390
F
0
LAYER
5
2B2
100
AcDbSymbolTableRecord
100
AcDbLayerTableRecord
2
CN1-TP10_SMD-VIMAR_10000_10
70
0
62
7
6
CONTINUOUS
370
-3
390
F
0
LAYER
5
2B3
100
AcDbSymbolTableRecord
100
AcDbLayerTableRecord
2
CN1-TP10_SMD-VIMAR_10000_11
70
0
62
7
6
CONTINUOUS
370
-3
390
F
0
LAYER
5
2B4
100
AcDbSymbolTableRecord
100
AcDbLayerTableRecord
2
CN1-TP10_SMD-VIMAR_10000_12
70
0
62
7
6
CONTINUOUS
370
-3
390
F
0
LAYER
5
2B5
100
AcDbSymbolTableRecord
100
AcDbLayerTableRecord
2
CN1-TP10_SMD-VIMAR_10000_13
70
0
62
7
6
CONTINUOUS
370
-3
390
F
0
LAYER
5
2B6
100
AcDbSymbolTableRecord
100
AcDbLayerTableRecord
2
CN1-TP10_SMD-VIMAR_10000_14
70
0
62
7
6
CONTINUOUS
370
-3
390
F
0
LAYER
5
2B7
100
AcDbSymbolTableRecord
100
AcDbLayerTableRecord
2
CN1-TP10_SMD-VIMAR_10000_15
70
0
62
7
6
CONTINUOUS
370
-3
390
F
0
LAYER
5
2B8
100
AcDbSymbolTableRecord
100
AcDbLayerTableRecord
2
CN1-TP10_SMD-VIMAR_10000_16
70
0
62
7
6
CONTINUOUS
370
-3
390
F
0
LAYER
5
2B9
100
AcDbSymbolTableRecord
100
AcDbLayerTableRecord
2
CN1-TP10_SMD-VIMAR_10000_17
70
0
62
7
6
CONTINUOUS
370
-3
390
F
0
LAYER
5
2BA
100
AcDbSymbolTableRecord
100
AcDbLayerTableRecord
2
CN1-TP10_SMD-VIMAR_10000_18
70
0
62
7
6
CONTINUOUS
370
-3
390
F
0
LAYER
5
2BB
100
AcDbSymbolTableRecord
100
AcDbLayerTableRecord
2
CN1-TP10_SMD-VIMAR_10000_19
70
0
62
7
6
CONTINUOUS
370
-3
390
F
0
LAYER
5
2BC
100
AcDbSymbolTableRecord
100
AcDbLayerTableRecord
2
CN1-TP10_SMD-VIMAR_10000_2
70
0
62
7
6
CONTINUOUS
370
-3
390
F
0
LAYER
5
2BD
100
AcDbSymbolTableRecord
100
AcDbLayerTableRecord
2
CN1-TP10_SMD-VIMAR_10000_3
70
0
62
7
6
CONTINUOUS
370
-3
390
F
0
LAYER
5
2BE
100
AcDbSymbolTableRecord
100
AcDbLayerTableRecord
2
CN1-TP10_SMD-VIMAR_10000_4
70
0
62
7
6
CONTINUOUS
370
-3
390
F
0
LAYER
5
2BF
100
AcDbSymbolTableRecord
100
AcDbLayerTableRecord
2
CN1-TP10_SMD-VIMAR_10000_5
70
0
62
7
6
CONTINUOUS
370
-3
390
F
0
LAYER
5
2C0
100
AcDbSymbolTableRecord
100
AcDbLayerTableRecord
2
CN1-TP10_SMD-VIMAR_10000_6
70
0
62
7
6
CONTINUOUS
370
-3
390
F
0
LAYER
5
2C1
100
AcDbSymbolTableRecord
100
AcDbLayerTableRecord
2
CN1-TP10_SMD-VIMAR_10000_7
70
0
62
7
6
CONTINUOUS
370
-3
390
F
0
LAYER
5
2C2
100
AcDbSymbolTableRecord
100
AcDbLayerTableRecord
2
CN1-TP10_SMD-VIMAR_10000_8
70
0
62
7
6
CONTINUOUS
370
-3
390
F
0
LAYER
5
2C3
100
AcDbSymbolTableRecord
100
AcDbLayerTableRecord
2
CN1-TP10_SMD-VIMAR_10000_9
70
0
62
7
6
CONTINUOUS
370
-3
390
F
0
LAYER
5
2C4
100
AcDbSymbolTableRecord
100
AcDbLayerTableRecord
2
CN1-TP15_SMD-VIMAR_5000
70
0
62
7
6
CONTINUOUS
370
-3
390
F
0
LAYER
5
2C5
100
AcDbSymbolTableRecord
100
AcDbLayerTableRecord
2
CN1-TP15_SMD-VIMAR_5000_1
70
0
62
7
6
CONTINUOUS
370
-3
390
F
0
LAYER
5
2C6
100
AcDbSymbolTableRecord
100
AcDbLayerTableRecord
2
CN1-TP15_SMD-VIMAR_5000_2
70
0
62
7
6
CONTINUOUS
370
-3
390
F
0
LAYER
5
2C7
100
AcDbSymbolTableRecord
100
AcDbLayerTableRecord
2
CN1-TP15_SMD-VIMAR_5000_3
70
0
62
7
6
CONTINUOUS
370
-3
390
F
0
LAYER
5
2C8
100
AcDbSymbolTableRecord
100
AcDbLayerTableRecord
2
CN1-TP15_SMD-VIMAR_5000_4
70
0
62
7
6
CONTINUOUS
370
-3
390
F
0
LAYER
5
2C9
100
AcDbSymbolTableRecord
100
AcDbLayerTableRecord
2
CN1-TP15_SMD-VIMAR_5000_5
70
0
62
7
6
CONTINUOUS
370
-3
390
F
0
LAYER
5
2CA
100
AcDbSymbolTableRecord
100
AcDbLayerTableRecord
2
CN1-TP15_SMD-VIMAR_5000_6
70
0
62
7
6
CONTINUOUS
370
-3
390
F
0
LAYER
5
2CB
100
AcDbSymbolTableRecord
100
AcDbLayerTableRecord
2
CN1-TP15_SMD-VIMAR_5000_7
70
0
62
7
6
CONTINUOUS
370
-3
390
F
0
LAYER
5
2CC
100
AcDbSymbolTableRecord
100
AcDbLayerTableRecord
2
CN1-TP15_SMD-VIMAR_5000_8
70
0
62
7
6
CONTINUOUS
370
-3
390
F
0
LAYER
5
2CD
100
AcDbSymbolTableRecord
100
AcDbLayerTableRecord
2
CN10-HEADER-SMD2_0-2-VIMAR_6500
70
0
62
7
6
CONTINUOUS
370
-3
390
F
0
LAYER
5
2CE
100
AcDbSymbolTableRecord
100
AcDbLayerTableRecord
2
CN10-HEADER-SMD2_0-2-VIMAR_65_1
70
0
62
7
6
CONTINUOUS
370
-3
390
F
0
LAYER
5
2CF
100
AcDbSymbolTableRecord
100
AcDbLayerTableRecord
2
CN10-SOCKET-SMD2_0-2-VIMAR
70
0
62
7
6
CONTINUOUS
370
-3
390
F
0
LAYER
5
2D0
100
AcDbSymbolTableRecord
100
AcDbLayerTableRecord
2
CN10-SOCKET-SMD2_0-2-VIMAR_1
70
0
62
7
6
CONTINUOUS
370
-3
390
F
0
LAYER
5
2D1
100
AcDbSymbolTableRecord
100
AcDbLayerTableRecord
2
COLOR15
70
0
62
7
6
CONTINUOUS
370
-3
390
F
0
LAYER
5
2D2
100
AcDbSymbolTableRecord
100
AcDbLayerTableRecord
2
COLOR16
70
0
62
7
6
CONTINUOUS
370
-3
390
F
0
LAYER
5
2D3
100
AcDbSymbolTableRecord
100
AcDbLayerTableRecord
2
COLOR17
70
0
62
7
6
CONTINUOUS
370
-3
390
F
0
LAYER
5
2D4
100
AcDbSymbolTableRecord
100
AcDbLayerTableRecord
2
COLOR18
70
0
62
7
6
CONTINUOUS
370
-3
390
F
0
LAYER
5
2D5
100
AcDbSymbolTableRecord
100
AcDbLayerTableRecord
2
COLOR19
70
0
62
7
6
CONTINUOUS
370
-3
390
F
0
LAYER
5
2D6
100
AcDbSymbolTableRecord
100
AcDbLayerTableRecord
2
COLOR2
70
0
62
7
6
CONTINUOUS
370
-3
390
F
0
LAYER
5
2D7
100
AcDbSymbolTableRecord
100
AcDbLayerTableRecord
2
COLOR20
70
0
62
7
6
CONTINUOUS
370
-3
390
F
0
LAYER
5
2D8
100
AcDbSymbolTableRecord
100
AcDbLayerTableRecord
2
COLOR21
70
0
62
7
6
CONTINUOUS
370
-3
390
F
0
LAYER
5
2D9
100
AcDbSymbolTableRecord
100
AcDbLayerTableRecord
2
COLOR22
70
0
62
7
6
CONTINUOUS
370
-3
390
F
0
LAYER
5
2DA
100
AcDbSymbolTableRecord
100
AcDbLayerTableRecord
2
COLOR23
70
0
62
7
6
CONTINUOUS
370
-3
390
F
0
LAYER
5
2DB
100
AcDbSymbolTableRecord
100
AcDbLayerTableRecord
2
COLOR5
70
0
62
7
6
CONTINUOUS
370
-3
390
F
0
LAYER
5
2DC
100
AcDbSymbolTableRecord
100
AcDbLayerTableRecord
2
COORDINATE
70
0
62
7
6
CONTINUOUS
370
-3
390
F
0
LAYER
5
2DD
100
AcDbSymbolTableRecord
100
AcDbLayerTableRecord
2
COORD_ORIGINE
70
0
62
7
6
CONTINUOUS
370
-3
390
F
0
LAYER
5
2DE
100
AcDbSymbolTableRecord
100
AcDbLayerTableRecord
2
CP-CE10-RF-VIMAR_630000
70
0
62
7
6
CONTINUOUS
370
-3
390
F
0
LAYER
5
2DF
100
AcDbSymbolTableRecord
100
AcDbLayerTableRecord
2
CP-CE10-RF-VIMAR_630000_1
70
0
62
7
6
CONTINUOUS
370
-3
390
F
0
LAYER
5
2E0
100
AcDbSymbolTableRecord
100
AcDbLayerTableRecord
2
CP-CE5-RF_650000
70
0
62
7
6
CONTINUOUS
370
-3
390
F
0
LAYER
5
2E1
100
AcDbSymbolTableRecord
100
AcDbLayerTableRecord
2
CP-CE5-RF_650000_1
70
0
62
7
6
CONTINUOUS
370
-3
390
F
0
LAYER
5
2E2
100
AcDbSymbolTableRecord
100
AcDbLayerTableRecord
2
CP-DO-214AC-D-VIMAR_240000
70
0
62
7
6
CONTINUOUS
370
-3
390
F
0
LAYER
5
2E3
100
AcDbSymbolTableRecord
100
AcDbLayerTableRecord
2
CP-DO-214AC-D-VIMAR_240000_1
70
0
62
7
6
CONTINUOUS
370
-3
390
F
0
LAYER
5
2E4
100
AcDbSymbolTableRecord
100
AcDbLayerTableRecord
2
CP-DO-214AC-VIMAR_240000
70
0
62
7
6
CONTINUOUS
370
-3
390
F
0
LAYER
5
2E5
100
AcDbSymbolTableRecord
100
AcDbLayerTableRecord
2
CP-DO-214AC-VIMAR_240000_1
70
0
62
7
6
CONTINUOUS
370
-3
390
F
0
LAYER
5
2E6
100
AcDbSymbolTableRecord
100
AcDbLayerTableRecord
2
CP-DO-214AC-VIMAR_240000_2
70
0
62
7
6
CONTINUOUS
370
-3
390
F
0
LAYER
5
2E7
100
AcDbSymbolTableRecord
100
AcDbLayerTableRecord
2
CURVE
70
0
62
7
6
CONTINUOUS
370
-3
390
F
0
LAYER
5
2E8
100
AcDbSymbolTableRecord
100
AcDbLayerTableRecord
2
DIP8-300-F-VIMAR_500000
70
0
62
7
6
CONTINUOUS
370
-3
390
F
0
LAYER
5
2E9
100
AcDbSymbolTableRecord
100
AcDbLayerTableRecord
2
DIP8-300-F-VIMAR_500000_1
70
0
62
7
6
CONTINUOUS
370
-3
390
F
0
LAYER
5
2EA
100
AcDbSymbolTableRecord
100
AcDbLayerTableRecord
2
DRAFT
70
0
62
7
6
CONTINUOUS
370
-3
390
F
0
LAYER
5
2EB
100
AcDbSymbolTableRecord
100
AcDbLayerTableRecord
2
ECAD_1608-CC-RF-VIMAR_80000
70
0
62
7
6
CONTINUOUS
370
-3
390
F
0
LAYER
5
2EC
100
AcDbSymbolTableRecord
100
AcDbLayerTableRecord
2
ECAD_1608-CC-RF-VIMAR_80000_1
70
0
62
7
6
CONTINUOUS
370
-3
390
F
0
LAYER
5
2ED
100
AcDbSymbolTableRecord
100
AcDbLayerTableRecord
2
ECAD_1608-R-RF-VIMAR_45000
70
0
62
7
6
CONTINUOUS
370
-3
390
F
0
LAYER
5
2EE
100
AcDbSymbolTableRecord
100
AcDbLayerTableRecord
2
ECAD_1608-R-RF-VIMAR_45000_1
70
0
62
7
6
CONTINUOUS
370
-3
390
F
0
LAYER
5
2EF
100
AcDbSymbolTableRecord
100
AcDbLayerTableRecord
2
ECAD_200A_170000
70
0
62
7
6
CONTINUOUS
370
-3
390
F
0
LAYER
5
2F0
100
AcDbSymbolTableRecord
100
AcDbLayerTableRecord
2
ECAD_2125-CC-RF-VIMAR_65000
70
0
62
7
6
CONTINUOUS
370
-3
390
F
0
LAYER
5
2F1
100
AcDbSymbolTableRecord
100
AcDbLayerTableRecord
2
ECAD_2125-CC-RF-VIMAR_65000_1
70
0
62
7
6
CONTINUOUS
370
-3
390
F
0
LAYER
5
2F2
100
AcDbSymbolTableRecord
100
AcDbLayerTableRecord
2
ECAD_3216-R1-RF-VIMAR_60000
70
0
62
7
6
CONTINUOUS
370
-3
390
F
0
LAYER
5
2F3
100
AcDbSymbolTableRecord
100
AcDbLayerTableRecord
2
ECAD_3225-CF1-RF-VIMAR_200000
70
0
62
7
6
CONTINUOUS
370
-3
390
F
0
LAYER
5
2F4
100
AcDbSymbolTableRecord
100
AcDbLayerTableRecord
2
ECAD_3225-CF1-RF-VIMAR_200000_1
70
0
62
7
6
CONTINUOUS
370
-3
390
F
0
LAYER
5
2F5
100
AcDbSymbolTableRecord
100
AcDbLayerTableRecord
2
ECAD_6432-R-RF-VIMAR_110000
70
0
62
7
6
CONTINUOUS
370
-3
390
F
0
LAYER
5
2F6
100
AcDbSymbolTableRecord
100
AcDbLayerTableRecord
2
ECAD_CN-CSF_CSM_2-VIMAR_1150000
70
0
62
7
6
CONTINUOUS
370
-3
390
F
0
LAYER
5
2F7
100
AcDbSymbolTableRecord
100
AcDbLayerTableRecord
2
ECAD_CN1-TP10_SMD-VIMAR_10000
70
0
62
7
6
CONTINUOUS
370
-3
390
F
0
LAYER
5
2F8
100
AcDbSymbolTableRecord
100
AcDbLayerTableRecord
2
ECAD_CN1-TP10_SMD-VIMAR_10000_1
70
0
62
7
6
CONTINUOUS
370
-3
390
F
0
LAYER
5
2F9
100
AcDbSymbolTableRecord
100
AcDbLayerTableRecord
2
ECAD_CN1-TP15_SMD-VIMAR_5000
70
0
62
7
6
CONTINUOUS
370
-3
390
F
0
LAYER
5
2FA
100
AcDbSymbolTableRecord
100
AcDbLayerTableRecord
2
ECAD_CN10-HEADER-SMD2_0-2-VIMAR
70
0
62
7
6
CONTINUOUS
370
-3
390
F
0
LAYER
5
2FB
100
AcDbSymbolTableRecord
100
AcDbLayerTableRecord
2
ECAD_CN10-SOCKET-SMD2_0-2-VIMAR
70
0
62
7
6
CONTINUOUS
370
-3
390
F
0
LAYER
5
2FC
100
AcDbSymbolTableRecord
100
AcDbLayerTableRecord
2
ECAD_CN30D-H-PIH-P2_00_1000000
70
0
62
7
6
CONTINUOUS
370
-3
390
F
0
LAYER
5
2FD
100
AcDbSymbolTableRecord
100
AcDbLayerTableRecord
2
ECAD_CP-CE10-RF-VIMAR_630000
70
0
62
7
6
CONTINUOUS
370
-3
390
F
0
LAYER
5
2FE
100
AcDbSymbolTableRecord
100
AcDbLayerTableRecord
2
ECAD_CP-CE2-RF_570000
70
0
62
7
6
CONTINUOUS
370
-3
390
F
0
LAYER
5
2FF
100
AcDbSymbolTableRecord
100
AcDbLayerTableRecord
2
ECAD_CP-CE4-RF_550000
70
0
62
7
6
CONTINUOUS
370
-3
390
F
0
LAYER
5
300
100
AcDbSymbolTableRecord
100
AcDbLayerTableRecord
2
ECAD_CP-CE5-RF_650000
70
0
62
7
6
CONTINUOUS
370
-3
390
F
0
LAYER
5
301
100
AcDbSymbolTableRecord
100
AcDbLayerTableRecord
2
ECAD_CP-DO-214AC-D-VIMAR_240000
70
0
62
7
6
CONTINUOUS
370
-3
390
F
0
LAYER
5
302
100
AcDbSymbolTableRecord
100
AcDbLayerTableRecord
2
ECAD_CP-DO-214AC-VIMAR_240000
70
0
62
7
6
CONTINUOUS
370
-3
390
F
0
LAYER
5
303
100
AcDbSymbolTableRecord
100
AcDbLayerTableRecord
2
ECAD_DIP8-300-F-VIMAR_500000
70
0
62
7
6
CONTINUOUS
370
-3
390
F
0
LAYER
5
304
100
AcDbSymbolTableRecord
100
AcDbLayerTableRecord
2
ECAD_LOGO_RESIST-A_VIMAR_1_1000
70
0
62
7
6
CONTINUOUS
370
-3
390
F
0
LAYER
5
305
100
AcDbSymbolTableRecord
100
AcDbLayerTableRecord
2
ECAD_LOGO_RESIST-A_VIMAR_1_100_
70
0
62
7
6
CONTINUOUS
370
-3
390
F
0
LAYER
5
306
100
AcDbSymbolTableRecord
100
AcDbLayerTableRecord
2
ECAD_L_SRR1005-RF-VIMAR_520000
70
0
62
7
6
CONTINUOUS
370
-3
390
F
0
LAYER
5
307
100
AcDbSymbolTableRecord
100
AcDbLayerTableRecord
2
ECAD_MM2-X-1-VIMAR_430000
70
0
62
7
6
CONTINUOUS
370
-3
390
F
0
LAYER
5
308
100
AcDbSymbolTableRecord
100
AcDbLayerTableRecord
2
ECAD_MM2-X-2-VIMAR_250000
70
0
62
7
6
CONTINUOUS
370
-3
390
F
0
LAYER
5
309
100
AcDbSymbolTableRecord
100
AcDbLayerTableRecord
2
ECAD_MM2-X-3-VIMAR_120000
70
0
62
7
6
CONTINUOUS
370
-3
390
F
0
LAYER
5
30A
100
AcDbSymbolTableRecord
100
AcDbLayerTableRecord
2
ECAD_MM3-MPAK-RF-VIMAR_120000
70
0
62
7
6
CONTINUOUS
370
-3
390
F
0
LAYER
5
30B
100
AcDbSymbolTableRecord
100
AcDbLayerTableRecord
2
ECAD_MM3-MPAK-RF-VIMAR_120000_1
70
0
62
7
6
CONTINUOUS
370
-3
390
F
0
LAYER
5
30C
100
AcDbSymbolTableRecord
100
AcDbLayerTableRecord
2
ECAD_MM3-SOT-223-RF-VIMAR_18000
70
0
62
7
6
CONTINUOUS
370
-3
390
F
0
LAYER
5
30D
100
AcDbSymbolTableRecord
100
AcDbLayerTableRecord
2
ECAD_MM3-SOT-89-RF-VIMAR_150000
70
0
62
7
6
CONTINUOUS
370
-3
390
F
0
LAYER
5
30E
100
AcDbSymbolTableRecord
100
AcDbLayerTableRecord
2
ECAD_MM4-X-1-VIMAR_160000
70
0
62
7
6
CONTINUOUS
370
-3
390
F
0
LAYER
5
30F
100
AcDbSymbolTableRecord
100
AcDbLayerTableRecord
2
ECAD_MM5-FMT-RF_120000
70
0
62
7
6
CONTINUOUS
370
-3
390
F
0
LAYER
5
310
100
AcDbSymbolTableRecord
100
AcDbLayerTableRecord
2
ECAD_MM5-FMT-RF_120000_1
70
0
62
7
6
CONTINUOUS
370
-3
390
F
0
LAYER
5
311
100
AcDbSymbolTableRecord
100
AcDbLayerTableRecord
2
ECAD_MM6-SC70-1-VIMAR_110000
70
0
62
7
6
CONTINUOUS
370
-3
390
F
0
LAYER
5
312
100
AcDbSymbolTableRecord
100
AcDbLayerTableRecord
2
ECAD_MSOP8-T1-RF-VIMAR_86000
70
0
62
7
6
CONTINUOUS
370
-3
390
F
0
LAYER
5
313
100
AcDbSymbolTableRecord
100
AcDbLayerTableRecord
2
ECAD_PSD25-VIMAR_0
70
0
62
7
6
CONTINUOUS
370
-3
390
F
0
LAYER
5
314
100
AcDbSymbolTableRecord
100
AcDbLayerTableRecord
2
ECAD_QFP128-N1-RF-VIMAR_160000
70
0
62
7
6
CONTINUOUS
370
-3
390
F
0
LAYER
5
315
100
AcDbSymbolTableRecord
100
AcDbLayerTableRecord
2
ECAD_QFP144-N-VIMAR-1_160000
70
0
62
7
6
CONTINUOUS
370
-3
390
F
0
LAYER
5
316
100
AcDbSymbolTableRecord
100
AcDbLayerTableRecord
2
ECAD_RD-CE50_8-1-VIMAR_700000
70
0
62
7
6
CONTINUOUS
370
-3
390
F
0
LAYER
5
317
100
AcDbSymbolTableRecord
100
AcDbLayerTableRecord
2
ECAD_RD-CLED2_54-2-VIMAR_150000
70
0
62
7
6
CONTINUOUS
370
-3
390
F
0
LAYER
5
318
100
AcDbSymbolTableRecord
100
AcDbLayerTableRecord
2
ECAD_RD-CPHOTO2_54-1-VIMAR_1500
70
0
62
7
6
CONTINUOUS
370
-3
390
F
0
LAYER
5
319
100
AcDbSymbolTableRecord
100
AcDbLayerTableRecord
2
ECAD_SOP20-1-VIMAR_270000
70
0
62
7
6
CONTINUOUS
370
-3
390
F
0
LAYER
5
31A
100
AcDbSymbolTableRecord
100
AcDbLayerTableRecord
2
ECAD_SOP8-T1-RF-VIMAR_150000
70
0
62
7
6
CONTINUOUS
370
-3
390
F
0
LAYER
5
31B
100
AcDbSymbolTableRecord
100
AcDbLayerTableRecord
2
ECAD_SOP8-T1-RF-VIMAR_150000_1
70
0
62
7
6
CONTINUOUS
370
-3
390
F
0
LAYER
5
31C
100
AcDbSymbolTableRecord
100
AcDbLayerTableRecord
2
ECAD_TSOP48-TI-RF_VIMAR_120000
70
0
62
7
6
CONTINUOUS
370
-3
390
F
0
LAYER
5
31D
100
AcDbSymbolTableRecord
100
AcDbLayerTableRecord
2
ECAD_TSOP50_44-TI-RF_VIMAR_1200
70
0
62
7
6
CONTINUOUS
370
-3
390
F
0
LAYER
5
31E
100
AcDbSymbolTableRecord
100
AcDbLayerTableRecord
2
ECAD_TSSOP14-RF-VIMAR_110000
70
0
62
7
6
CONTINUOUS
370
-3
390
F
0
LAYER
5
31F
100
AcDbSymbolTableRecord
100
AcDbLayerTableRecord
2
ECAD_TSSOP8-RF-VIMAR_110000
70
0
62
7
6
CONTINUOUS
370
-3
390
F
0
LAYER
5
320
100
AcDbSymbolTableRecord
100
AcDbLayerTableRecord
2
IGES
70
0
62
7
6
CONTINUOUS
370
-3
390
F
0
LAYER
5
321
100
AcDbSymbolTableRecord
100
AcDbLayerTableRecord
2
MM3-MPAK-RF-VIMAR_120000
70
0
62
7
6
CONTINUOUS
370
-3
390
F
0
LAYER
5
322
100
AcDbSymbolTableRecord
100
AcDbLayerTableRecord
2
MM3-MPAK-RF-VIMAR_120000_1
70
0
62
7
6
CONTINUOUS
370
-3
390
F
0
LAYER
5
323
100
AcDbSymbolTableRecord
100
AcDbLayerTableRecord
2
MM3-MPAK-RF-VIMAR_120000_10
70
0
62
7
6
CONTINUOUS
370
-3
390
F
0
LAYER
5
324
100
AcDbSymbolTableRecord
100
AcDbLayerTableRecord
2
MM3-MPAK-RF-VIMAR_120000_11
70
0
62
7
6
CONTINUOUS
370
-3
390
F
0
LAYER
5
325
100
AcDbSymbolTableRecord
100
AcDbLayerTableRecord
2
MM3-MPAK-RF-VIMAR_120000_12
70
0
62
7
6
CONTINUOUS
370
-3
390
F
0
LAYER
5
326
100
AcDbSymbolTableRecord
100
AcDbLayerTableRecord
2
MM3-MPAK-RF-VIMAR_120000_13
70
0
62
7
6
CONTINUOUS
370
-3
390
F
0
LAYER
5
327
100
AcDbSymbolTableRecord
100
AcDbLayerTableRecord
2
MM3-MPAK-RF-VIMAR_120000_2
70
0
62
7
6
CONTINUOUS
370
-3
390
F
0
LAYER
5
328
100
AcDbSymbolTableRecord
100
AcDbLayerTableRecord
2
MM3-MPAK-RF-VIMAR_120000_3
70
0
62
7
6
CONTINUOUS
370
-3
390
F
0
LAYER
5
329
100
AcDbSymbolTableRecord
100
AcDbLayerTableRecord
2
MM3-MPAK-RF-VIMAR_120000_4
70
0
62
7
6
CONTINUOUS
370
-3
390
F
0
LAYER
5
32A
100
AcDbSymbolTableRecord
100
AcDbLayerTableRecord
2
MM3-MPAK-RF-VIMAR_120000_5
70
0
62
7
6
CONTINUOUS
370
-3
390
F
0
LAYER
5
32B
100
AcDbSymbolTableRecord
100
AcDbLayerTableRecord
2
MM3-MPAK-RF-VIMAR_120000_6
70
0
62
7
6
CONTINUOUS
370
-3
390
F
0
LAYER
5
32C
100
AcDbSymbolTableRecord
100
AcDbLayerTableRecord
2
MM3-MPAK-RF-VIMAR_120000_7
70
0
62
7
6
CONTINUOUS
370
-3
390
F
0
LAYER
5
32D
100
AcDbSymbolTableRecord
100
AcDbLayerTableRecord
2
MM3-MPAK-RF-VIMAR_120000_8
70
0
62
7
6
CONTINUOUS
370
-3
390
F
0
LAYER
5
32E
100
AcDbSymbolTableRecord
100
AcDbLayerTableRecord
2
MM3-MPAK-RF-VIMAR_120000_9
70
0
62
7
6
CONTINUOUS
370
-3
390
F
0
LAYER
5
32F
100
AcDbSymbolTableRecord
100
AcDbLayerTableRecord
2
NOTE
70
0
62
7
6
CONTINUOUS
370
-3
390
F
0
LAYER
5
330
100
AcDbSymbolTableRecord
100
AcDbLayerTableRecord
2
PIANI
70
0
62
7
6
CONTINUOUS
370
-3
390
F
0
LAYER
5
331
100
AcDbSymbolTableRecord
100
AcDbLayerTableRecord
2
PIANI_ORIGINE
70
0
62
7
6
CONTINUOUS
370
-3
390
F
0
LAYER
5
332
100
AcDbSymbolTableRecord
100
AcDbLayerTableRecord
2
PSD25-VIMAR_0
70
0
62
7
6
CONTINUOUS
370
-3
390
F
0
LAYER
5
333
100
AcDbSymbolTableRecord
100
AcDbLayerTableRecord
2
PSD25-VIMAR_0_1
70
0
62
7
6
CONTINUOUS
370
-3
390
F
0
LAYER
5
334
100
AcDbSymbolTableRecord
100
AcDbLayerTableRecord
2
RACCORDO
70
0
62
7
6
CONTINUOUS
370
-3
390
F
0
LAYER
5
335
100
AcDbSymbolTableRecord
100
AcDbLayerTableRecord
2
SOP8-T1-RF-VIMAR_150000
70
0
62
7
6
CONTINUOUS
370
-3
390
F
0
LAYER
5
336
100
AcDbSymbolTableRecord
100
AcDbLayerTableRecord
2
SOP8-T1-RF-VIMAR_150000_1
70
0
62
7
6
CONTINUOUS
370
-3
390
F
0
LAYER
5
337
100
AcDbSymbolTableRecord
100
AcDbLayerTableRecord
2
SUPERFICI
70
0
62
7
6
CONTINUOUS
370
-3
390
F
0
LAYER
5
338
100
AcDbSymbolTableRecord
100
AcDbLayerTableRecord
2
TRASH
70
0
62
7
6
CONTINUOUS
370
-3
390
F
0
LAYER
5
339
100
AcDbSymbolTableRecord
100
AcDbLayerTableRecord
2
TSSOP8-RF-VIMAR_110000
70
0
62
7
6
CONTINUOUS
370
-3
390
F
0
LAYER
5
33A
100
AcDbSymbolTableRecord
100
AcDbLayerTableRecord
2
TSSOP8-RF-VIMAR_110000_1
70
0
62
7
6
CONTINUOUS
370
-3
390
F
0
LAYER
5
33B
100
AcDbSymbolTableRecord
100
AcDbLayerTableRecord
2
XSEC_DATUMS
70
0
62
7
6
CONTINUOUS
370
-3
390
F
0
LAYER
5
33C
100
AcDbSymbolTableRecord
100
AcDbLayerTableRecord
2
___SHELL
70
0
62
7
6
CONTINUOUS
370
-3
390
F
0
ENDTAB
0
TABLE
2
STYLE
5
3
100
AcDbSymbolTable
70
1
0
STYLE
5
11
100
AcDbSymbolTableRecord
100
AcDbTextStyleTableRecord
2
STANDARD
70
0
40
0.0
41
0.8000000000
50
0.0
71
0
42
0.2
3
txt
4

0
ENDTAB
0
TABLE
2
VIEW
5
6
100
AcDbSymbolTable
70
0
0
ENDTAB
0
TABLE
2
UCS
5
7
100
AcDbSymbolTable
70
0
0
ENDTAB
0
TABLE
2
APPID
5
9
100
AcDbSymbolTable
70
1
0
APPID
5
33D
100
AcDbSymbolTableRecord
100
AcDbRegAppTableRecord
2
ACAD
70
0
0
ENDTAB
0
TABLE
2
BLOCK_RECORD
5
1
100
AcDbSymbolTable
70
0
0
BLOCK_RECORD
5
1F
100
AcDbSymbolTableRecord
100
AcDbBlockTableRecord
2
*MODEL_SPACE
0
BLOCK_RECORD
5
1B
100
AcDbSymbolTableRecord
100
AcDbBlockTableRecord
2
*PAPER_SPACE
0
ENDTAB
0
TABLE
2
DIMSTYLE
5
A
100
AcDbSymbolTable
70
1
100
AcDbDimStyleTable
71
0
0
DIMSTYLE
105
33E
100
AcDbSymbolTableRecord
100
AcDbDimStyleTableRecord
2
STANDARD
70
0
3

4

40
1.0
41
3.0000000000
42
0.0625
43
0.38
44
0.18
45
0.0
46
0.0
47
0.0100000000
48
0.0100000000
140
3.0000000000
141
0.09
142
0.0
143
25.4
144
1.0000000000
145
0.0
146
1.0000000000
147
0.09
71
1
72
0
73
0
74
0
75
0
76
0
77
1
78
8
170
0
171
2
172
0
173
0
174
0
175
0
176
0
177
0
178
0
270
2
271
2
272
2
273
2
274
2
275
0
280
0
281
0
282
0
283
1
284
8
285
0
286
0
287
3
288
0
340
11
0
ENDTAB
0
ENDSEC
0
SECTION
2
BLOCKS
0
BLOCK
5
20
100
AcDbEntity
8
0
100
AcDbBlockBegin
2
*MODEL_SPACE
70
0
10
0.0
20
0.0
30
0.0
3
*MODEL_SPACE
1

0
ENDBLK
5
21
100
AcDbEntity
8
0
100
AcDbBlockEnd
0
BLOCK
5
1C
100
AcDbEntity
8
0
100
AcDbBlockBegin
2
*PAPER_SPACE
70
0
10
0.0
20
0.0
30
0.0
3
*PAPER_SPACE
1

0
ENDBLK
5
1D
100
AcDbEntity
8
0
100
AcDbBlockEnd
0
ENDSEC
0
SECTION
2
ENTITIES
0
LINE
5
33F
100
AcDbEntity
8
0
100
AcDbLine
62
9
6
CONTINUOUS
10
-46.2925417368
20
22.7669068782
11
-46.4500000000
21
22.6094486150
0
LINE
5
340
100
AcDbEntity
8
0
100
AcDbLine
62
9
6
CONTINUOUS
10
-45.1534300864
20
23.6061594051
11
-45.2425727707
21
23.5170167208
0
LINE
5
341
100
AcDbEntity
8
0
100
AcDbLine
62
9
6
CONTINUOUS
10
-44.9534605474
20
23.4061898661
11
-45.0426032317
21
23.3170471818
0
LINE
5
342
100
AcDbEntity
8
0
100
AcDbLine
62
9
6
CONTINUOUS
10
-45.7927130743
20
22.2670782157
11
-45.9501713375
21
22.1096199525
0
LINE
5
343
100
AcDbEntity
8
0
100
AcDbLine
62
7
6
CONTINUOUS
10
-46.4500000000
20
25.8106479776
11
-46.4500000000
21
22.6094486150
0
LINE
5
344
100
AcDbEntity
8
0
100
AcDbLine
62
9
6
CONTINUOUS
10
-46.2925417368
20
25.6531897144
11
-46.2925417368
21
22.7669068782
0
LINE
5
345
100
AcDbEntity
8
0
100
AcDbLine
62
7
6
CONTINUOUS
10
-46.2000000000
20
-27.8924357454
11
-46.2000000000
21
22.1765172384
0
LINE
5
346
100
AcDbEntity
8
0
100
AcDbLine
62
9
6
CONTINUOUS
10
-45.7927130743
20
22.2670782157
11
-45.7927130743
21
25.6531897144
0
LINE
5
347
100
AcDbEntity
8
0
100
AcDbLine
62
9
6
CONTINUOUS
10
-45.5826972631
20
-24.1403800475
11
-45.5826972631
21
-8.6403800475
0
LINE
5
348
100
AcDbEntity
8
0
100
AcDbLine
62
9
6
CONTINUOUS
10
-45.5826972631
20
5.8596199525
11
-45.5826972631
21
21.3596199525
0
LINE
5
349
100
AcDbEntity
8
0
100
AcDbLine
62
9
6
CONTINUOUS
10
-45.4425423097
20
23.5170167208
11
-45.4425423097
21
25.9024516414
0
LINE
5
34A
100
AcDbEntity
8
0
100
AcDbLine
62
9
6
CONTINUOUS
10
-45.2425727707
20
23.5170167208
11
-45.2425727707
21
25.9024516414
0
LINE
5
34B
100
AcDbEntity
8
0
100
AcDbLine
62
9
6
CONTINUOUS
10
-45.1534300864
20
23.6061594051
11
-45.1534300864
21
25.8133089571
0
LINE
5
34C
100
AcDbEntity
8
0
100
AcDbLine
62
9
6
CONTINUOUS
10
-45.0426032318
20
23.3170471818
11
-45.0426032320
21
23.1170776428
0
LINE
5
34D
100
AcDbEntity
8
0
100
AcDbLine
62
9
6
CONTINUOUS
10
-44.9534605474
20
23.4061898661
11
-44.9534605474
21
25.8133089571
0
LINE
5
34E
100
AcDbEntity
8
0
100
AcDbLine
62
7
6
CONTINUOUS
10
-44.7000000000
20
4.1096199525
11
-44.7000000000
21
1.6096199525
0
LINE
5
34F
100
AcDbEntity
8
0
100
AcDbLine
62
7
6
CONTINUOUS
10
-44.7000000000
20
-6.8903800475
11
-44.7000000000
21
-4.3903800475
0
LINE
5
350
100
AcDbEntity
8
0
100
AcDbLine
62
7
6
CONTINUOUS
10
-44.7000000000
20
-2.6403800475
11
-44.7000000000
21
-0.1403800475
0
LINE
5
351
100
AcDbEntity
8
0
100
AcDbLine
62
7
6
CONTINUOUS
10
-44.6226743569
20
-0.1790310893
11
-44.6226743569
21
-2.6017290057
0
LINE
5
352
100
AcDbEntity
8
0
100
AcDbLine
62
7
6
CONTINUOUS
10
-44.6226743569
20
-4.4290310893
11
-44.6226743569
21
-6.8517290057
0
LINE
5
353
100
AcDbEntity
8
0
100
AcDbLine
62
7
6
CONTINUOUS
10
-44.6226743569
20
1.6482709943
11
-44.6226743569
21
4.0709689107
0
LINE
5
354
100
AcDbEntity
8
0
100
AcDbLine
62
9
6
CONTINUOUS
10
-44.5828495680
20
-24.1232296155
11
-44.5828495680
21
-8.6575304795
0
LINE
5
355
100
AcDbEntity
8
0
100
AcDbLine
62
9
6
CONTINUOUS
10
-44.5828495680
20
5.8767703845
11
-44.5828495680
21
21.3424695205
0
LINE
5
356
100
AcDbEntity
8
0
100
AcDbLine
62
7
6
CONTINUOUS
10
-44.5476348052
20
-24.0880148527
11
-44.5476348052
21
-23.8292873203
0
LINE
5
357
100
AcDbEntity
8
0
100
AcDbLine
62
7
6
CONTINUOUS
10
-44.5476348052
20
-8.8903800475
11
-44.5476348052
21
-8.6927452423
0
LINE
5
358
100
AcDbEntity
8
0
100
AcDbLine
62
7
6
CONTINUOUS
10
-44.5476348052
20
5.9119851473
11
-44.5476348052
21
6.1096199525
0
LINE
5
359
100
AcDbEntity
8
0
100
AcDbLine
62
7
6
CONTINUOUS
10
-44.5476348052
20
21.0485272252
11
-44.5476348052
21
21.3072547577
0
LINE
5
35A
100
AcDbEntity
8
0
100
AcDbLine
62
7
6
CONTINUOUS
10
-44.4523811542
20
-8.8903800475
11
-44.4523811542
21
6.1096199525
0
LINE
5
35B
100
AcDbEntity
8
0
100
AcDbLine
62
7
6
CONTINUOUS
10
-44.4349207695
20
-27.8912938070
11
-44.4349207695
21
-23.8903800475
0
LINE
5
35C
100
AcDbEntity
8
0
100
AcDbLine
62
7
6
CONTINUOUS
10
-44.4000000000
20
21.1270750174
11
-44.4000000000
21
22.1096199525
0
LINE
5
35D
100
AcDbEntity
8
0
100
AcDbLine
62
7
6
CONTINUOUS
10
-44.3301584610
20
25.0406921730
11
-44.3301584610
21
23.6061594051
0
LINE
5
35E
100
AcDbEntity
8
0
100
AcDbLine
62
9
6
CONTINUOUS
10
-44.3114793590
20
-27.7678523965
11
-44.3114793590
21
22.1759986319
0
LINE
5
35F
100
AcDbEntity
8
0
100
AcDbLine
62
9
6
CONTINUOUS
10
-44.2765585895
20
23.3828281821
11
-44.2765585895
21
24.9870923015
0
LINE
5
360
100
AcDbEntity
8
0
100
AcDbLine
62
9
6
CONTINUOUS
10
-43.5428316889
20
27.8021622622
11
-43.5428316889
21
27.6021927232
0
LINE
5
361
100
AcDbEntity
8
0
100
AcDbLine
62
9
6
CONTINUOUS
10
-43.4536890046
20
27.3130804999
11
-43.4536890046
21
27.5130500389
0
LINE
5
362
100
AcDbEntity
8
0
100
AcDbLine
62
9
6
CONTINUOUS
10
-33.4072869257
20
28.6521616893
11
-33.2498286625
21
28.8096199525
0
LINE
5
363
100
AcDbEntity
8
0
100
AcDbLine
62
9
6
CONTINUOUS
10
-34.1573967683
20
27.6021927232
11
-34.2465394526
21
27.5130500389
0
LINE
5
364
100
AcDbEntity
8
0
100
AcDbLine
62
9
6
CONTINUOUS
10
-33.9574272293
20
27.4022231842
11
-34.0465699136
21
27.3130804999
0
LINE
5
365
100
AcDbEntity
8
0
100
AcDbLine
62
9
6
CONTINUOUS
10
-32.9074582632
20
28.1523330268
11
-32.7500000000
21
28.3097912900
0
LINE
5
366
100
AcDbEntity
8
0
100
AcDbLine
62
7
6
CONTINUOUS
10
-44.3114793590
20
22.1759986319
11
-44.4000000000
21
22.1096199525
0
LINE
5
367
100
AcDbEntity
8
0
100
AcDbLine
62
7
6
CONTINUOUS
10
-42.7047623085
20
22.2012706780
11
-42.6337020522
21
22.2545563966
0
LINE
5
368
100
AcDbEntity
8
0
100
AcDbLine
62
9
6
CONTINUOUS
10
-43.3120885320
20
-27.7678523965
11
-43.3120885320
21
22.2012706780
0
LINE
5
369
100
AcDbEntity
8
0
100
AcDbLine
62
9
6
CONTINUOUS
10
-43.2935697619
20
28.1523330268
11
-43.2935697619
21
28.6521616893
0
LINE
5
36A
100
AcDbEntity
8
0
100
AcDbLine
62
9
6
CONTINUOUS
10
-43.2771677625
20
23.3659822902
11
-43.2771677625
21
24.9870923015
0
LINE
5
36B
100
AcDbEntity
8
0
100
AcDbLine
62
9
6
CONTINUOUS
10
-42.8123931185
20
-29.2669386370
11
-42.8123931185
21
-28.2675478100
0
LINE
5
36C
100
AcDbEntity
8
0
100
AcDbLine
62
9
6
CONTINUOUS
10
-42.7774723490
20
26.4861785420
11
-42.7774723490
21
25.4867877150
0
LINE
5
36D
100
AcDbEntity
8
0
100
AcDbLine
62
7
6
CONTINUOUS
10
-42.7047623085
20
23.9149914340
11
-42.7047623085
21
23.3659822902
0
LINE
5
36E
100
AcDbEntity
8
0
100
AcDbLine
62
7
6
CONTINUOUS
10
-42.7047623085
20
22.2012706780
11
-42.7047623085
21
-26.6957515290
0
LINE
5
36F
100
AcDbEntity
8
0
100
AcDbLine
62
9
6
CONTINUOUS
10
-42.6337020522
20
23.8439311777
11
-42.6337020522
21
23.3304629873
0
LINE
5
370
100
AcDbEntity
8
0
100
AcDbLine
62
9
6
CONTINUOUS
10
-42.6337020522
20
22.2545563966
11
-42.6337020522
21
-26.6246912727
0
LINE
5
371
100
AcDbEntity
8
0
100
AcDbLine
62
9
6
CONTINUOUS
10
-41.6343112252
20
22.7669068782
11
-41.6343112252
21
-27.6240820997
0
LINE
5
372
100
AcDbEntity
8
0
100
AcDbLine
62
9
6
CONTINUOUS
10
-41.6343112252
20
23.1170776428
11
-41.6343112252
21
24.8433220047
0
LINE
5
373
100
AcDbEntity
8
0
100
AcDbLine
62
7
6
CONTINUOUS
10
-40.9607290949
20
-25.4330841813
11
-40.9607290949
21
-0.2903800475
0
LINE
5
374
100
AcDbEntity
8
0
100
AcDbLine
62
7
6
CONTINUOUS
10
-32.7500000000
20
26.5746991830
11
-32.8163786794
21
26.4861785420
0
LINE
5
375
100
AcDbEntity
8
0
100
AcDbLine
62
7
6
CONTINUOUS
10
-32.8416507255
20
24.9143822610
11
-32.8949364441
21
24.8433220047
0
LINE
5
376
100
AcDbEntity
8
0
100
AcDbLine
62
7
6
CONTINUOUS
10
-30.7500000000
20
26.5746991830
11
-30.7150842681
21
26.6096199525
0
LINE
5
377
100
AcDbEntity
8
0
100
AcDbLine
62
7
6
CONTINUOUS
10
-44.4349207695
20
-23.8903800475
11
-44.5476348052
21
-23.8340402005
0
LINE
5
378
100
AcDbEntity
8
0
100
AcDbLine
62
7
6
CONTINUOUS
10
-44.4000000000
20
21.1270750174
11
-44.5476348052
21
21.0532801054
0
LINE
5
379
100
AcDbEntity
8
0
100
AcDbLine
62
7
6
CONTINUOUS
10
-44.5476348052
20
-8.6927452423
11
-44.5828495680
21
-8.6575304795
0
LINE
5
37A
100
AcDbEntity
8
0
100
AcDbLine
62
7
6
CONTINUOUS
10
-36.0000000000
20
-0.2903800475
11
-36.0000000000
21
-25.4329318126
0
LINE
5
37B
100
AcDbEntity
8
0
100
AcDbLine
62
9
6
CONTINUOUS
10
-34.2465394526
20
26.5397784135
11
-34.2465394526
21
27.5130500389
0
LINE
5
37C
100
AcDbEntity
8
0
100
AcDbLine
62
9
6
CONTINUOUS
10
-34.1573967683
20
27.8021622622
11
-34.1573967683
21
27.6021927232
0
LINE
5
37D
100
AcDbEntity
8
0
100
AcDbLine
62
9
6
CONTINUOUS
10
-34.0465699136
20
27.3130804999
11
-34.0465699136
21
26.5329161499
0
LINE
5
37E
100
AcDbEntity
8
0
100
AcDbLine
62
7
6
CONTINUOUS
10
-34.0063623377
20
25.4867877150
11
-34.0063623377
21
24.9143822610
0
LINE
5
37F
100
AcDbEntity
8
0
100
AcDbLine
62
7
6
CONTINUOUS
10
-34.0000000000
20
12.6096199525
11
-34.0000000000
21
-7.3903800475
0
LINE
5
380
100
AcDbEntity
8
0
100
AcDbLine
62
9
6
CONTINUOUS
10
-33.9574272293
20
24.4392487790
11
-33.9574272293
21
27.4022231842
0
LINE
5
381
100
AcDbEntity
8
0
100
AcDbLine
62
9
6
CONTINUOUS
10
-33.7574576903
20
23.8439311777
11
-33.7574576903
21
27.4022231842
0
LINE
5
382
100
AcDbEntity
8
0
100
AcDbLine
62
9
6
CONTINUOUS
10
-33.4072869257
20
23.8439311777
11
-33.4072869257
21
28.6521616893
0
LINE
5
383
100
AcDbEntity
8
0
100
AcDbLine
62
9
6
CONTINUOUS
10
-32.9074582632
20
28.1523330268
11
-32.9074582632
21
24.7022669032
0
LINE
5
384
100
AcDbEntity
8
0
100
AcDbLine
62
7
6
CONTINUOUS
10
-32.8416507255
20
25.4867877150
11
-32.8416507255
21
24.9143822610
0
LINE
5
385
100
AcDbEntity
8
0
100
AcDbLine
62
7
6
CONTINUOUS
10
-32.7500000000
20
26.5746991830
11
-32.7500000000
21
28.3097912900
0
LINE
5
386
100
AcDbEntity
8
0
100
AcDbLine
62
7
6
CONTINUOUS
10
-44.5476348052
20
5.9119851473
11
-44.5828495680
21
5.8767703845
0
LINE
5
387
100
AcDbEntity
8
0
100
AcDbLine
62
7
6
CONTINUOUS
10
-30.7500000000
20
26.5746991830
11
-30.7500000000
21
26.6270750174
0
LINE
5
388
100
AcDbEntity
8
0
100
AcDbLine
62
7
6
CONTINUOUS
10
44.7020556979
20
-29.3903800475
11
-44.7020556979
21
-29.3903800475
0
LINE
5
389
100
AcDbEntity
8
0
100
AcDbLine
62
9
6
CONTINUOUS
10
42.8123931185
20
-29.2669386370
11
-42.8123931185
21
-29.2669386370
0
LINE
5
38A
100
AcDbEntity
8
0
100
AcDbLine
62
9
6
CONTINUOUS
10
42.8123931185
20
-28.2675478100
11
-42.8123931185
21
-28.2675478100
0
LINE
5
38B
100
AcDbEntity
8
0
100
AcDbLine
62
9
6
CONTINUOUS
10
-44.3114793590
20
-27.7678523965
11
-43.3120885320
21
-27.7678523965
0
LINE
5
38C
100
AcDbEntity
8
0
100
AcDbLine
62
9
6
CONTINUOUS
10
44.3114793590
20
-27.7678523965
11
43.3120885320
21
-27.7678523965
0
LINE
5
38D
100
AcDbEntity
8
0
100
AcDbLine
62
7
6
CONTINUOUS
10
-41.7053714815
20
-27.6951423560
11
41.7053714815
21
-27.6951423560
0
LINE
5
38E
100
AcDbEntity
8
0
100
AcDbLine
62
9
6
CONTINUOUS
10
-41.6343112252
20
-27.6240820997
11
41.6343112252
21
-27.6240820997
0
LINE
5
38F
100
AcDbEntity
8
0
100
AcDbLine
62
9
6
CONTINUOUS
10
42.6337020522
20
-26.6246912727
11
-42.6337020522
21
-26.6246912727
0
LINE
5
390
100
AcDbEntity
8
0
100
AcDbLine
62
7
6
CONTINUOUS
10
-36.5000000000
20
-25.9332365848
11
-40.4608623374
21
-25.9332365848
0
LINE
5
391
100
AcDbEntity
8
0
100
AcDbLine
62
7
6
CONTINUOUS
10
-44.6226743569
20
1.6482709943
11
-44.7000000000
21
1.6096199525
0
LINE
5
392
100
AcDbEntity
8
0
100
AcDbLine
62
7
6
CONTINUOUS
10
-44.5488708037
20
-24.0471325037
11
-44.4349207695
21
-24.0436874456
0
LINE
5
393
100
AcDbEntity
8
0
100
AcDbLine
62
7
6
CONTINUOUS
10
45.5826972631
20
-24.1403800475
11
44.4349207695
21
-24.1403800475
0
LINE
5
394
100
AcDbEntity
8
0
100
AcDbLine
62
7
6
CONTINUOUS
10
-44.4349207695
20
-24.1403800475
11
-45.5826972631
21
-24.1403800475
0
LINE
5
395
100
AcDbEntity
8
0
100
AcDbLine
62
7
6
CONTINUOUS
10
44.4349207695
20
-24.0436874456
11
44.5488708037
21
-24.0471325037
0
LINE
5
396
100
AcDbEntity
8
0
100
AcDbLine
62
7
6
CONTINUOUS
10
-44.6226743569
20
-4.4290310893
11
-44.7000000000
21
-4.3903800475
0
LINE
5
397
100
AcDbEntity
8
0
100
AcDbLine
62
7
6
CONTINUOUS
10
-44.6226743569
20
-2.6017290057
11
-44.7000000000
21
-2.6403800475
0
LINE
5
398
100
AcDbEntity
8
0
100
AcDbLine
62
7
6
CONTINUOUS
10
29.9731812767
20
-18.9144578403
11
35.0268187233
21
-18.9144578403
0
LINE
5
399
100
AcDbEntity
8
0
100
AcDbLine
62
9
6
CONTINUOUS
10
30.4724265855
20
-18.4152125315
11
34.5275734145
21
-18.4152125315
0
LINE
5
39A
100
AcDbEntity
8
0
100
AcDbLine
62
7
6
CONTINUOUS
10
-44.6226743569
20
-0.1790310893
11
-44.7000000000
21
-0.1403800475
0
LINE
5
39B
100
AcDbEntity
8
0
100
AcDbLine
62
7
6
CONTINUOUS
10
-34.0063623377
20
24.9143822610
11
-33.9708430348
21
24.8433220047
0
LINE
5
39C
100
AcDbEntity
8
0
100
AcDbLine
62
7
6
CONTINUOUS
10
-34.0232082296
20
26.4861785420
11
-34.0465699136
21
26.5329161499
0
LINE
5
39D
100
AcDbEntity
8
0
100
AcDbLine
62
7
6
CONTINUOUS
10
-16.0000000000
20
-7.3903800475
11
-16.0000000000
21
12.6096199525
0
LINE
5
39E
100
AcDbEntity
8
0
100
AcDbLine
62
7
6
CONTINUOUS
10
-44.5476348052
20
-24.0880148527
11
-44.5828495680
21
-24.1232296155
0
LINE
5
39F
100
AcDbEntity
8
0
100
AcDbLine
62
9
6
CONTINUOUS
10
30.4724265855
20
-17.9158977641
11
34.5275734145
21
-17.9158977641
0
LINE
5
3A0
100
AcDbEntity
8
0
100
AcDbLine
62
7
6
CONTINUOUS
10
30.4993147674
20
-16.8903800475
11
34.5006852326
21
-16.8903800475
0
LINE
5
3A1
100
AcDbEntity
8
0
100
AcDbLine
62
9
6
CONTINUOUS
10
28.9744822834
20
-16.4179534620
11
28.4751675160
21
-16.4179534621
0
LINE
5
3A2
100
AcDbEntity
8
0
100
AcDbLine
62
9
6
CONTINUOUS
10
36.0255177166
20
-16.4179534620
11
36.5248324840
21
-16.4179534620
0
LINE
5
3A3
100
AcDbEntity
8
0
100
AcDbLine
62
7
6
CONTINUOUS
10
34.5000000000
20
-16.3903800475
11
30.5000000000
21
-16.3903800475
0
LINE
5
3A4
100
AcDbEntity
8
0
100
AcDbLine
62
7
6
CONTINUOUS
10
-44.6226743569
20
4.0709689107
11
-44.7000000000
21
4.1096199525
0
LINE
5
3A5
100
AcDbEntity
8
0
100
AcDbLine
62
7
6
CONTINUOUS
10
-44.5476348052
20
21.3072547577
11
-44.5828495680
21
21.3424695205
0
LINE
5
3A6
100
AcDbEntity
8
0
100
AcDbLine
62
9
6
CONTINUOUS
10
-46.2925417368
20
25.6531897144
11
-46.4500000000
21
25.8106479776
0
LINE
5
3A7
100
AcDbEntity
8
0
100
AcDbLine
62
9
6
CONTINUOUS
10
-44.4349207695
20
-27.8912938070
11
-44.3114793590
21
-27.7678523965
0
LINE
5
3A8
100
AcDbEntity
8
0
100
AcDbLine
62
9
6
CONTINUOUS
10
-42.6337020522
20
-26.6246912727
11
-42.7047623085
21
-26.6957515290
0
LINE
5
3A9
100
AcDbEntity
8
0
100
AcDbLine
62
7
6
CONTINUOUS
10
-44.6226743569
20
-6.8517290057
11
-44.7000000000
21
-6.8903800475
0
LINE
5
3AA
100
AcDbEntity
8
0
100
AcDbLine
62
9
6
CONTINUOUS
10
-45.1534300864
20
25.8133089571
11
-45.2425727707
21
25.9024516414
0
LINE
5
3AB
100
AcDbEntity
8
0
100
AcDbLine
62
9
6
CONTINUOUS
10
-44.2765585895
20
24.9870923015
11
-44.3301584610
21
25.0406921730
0
LINE
5
3AC
100
AcDbEntity
8
0
100
AcDbLine
62
9
6
CONTINUOUS
10
-42.6337020522
20
23.8439311777
11
-42.7047623085
21
23.9149914340
0
LINE
5
3AD
100
AcDbEntity
8
0
100
AcDbLine
62
9
6
CONTINUOUS
10
-41.6343112252
20
24.8433220047
11
-41.7053714815
21
24.9143822610
0
LINE
5
3AE
100
AcDbEntity
8
0
100
AcDbLine
62
9
6
CONTINUOUS
10
-42.7774723490
20
26.4861785420
11
-42.8310722205
21
26.5397784135
0
LINE
5
3AF
100
AcDbEntity
8
0
100
AcDbLine
62
9
6
CONTINUOUS
10
-43.4536890046
20
27.5130500389
11
-43.5428316889
21
27.6021927232
0
LINE
5
3B0
100
AcDbEntity
8
0
100
AcDbLine
62
9
6
CONTINUOUS
10
-41.6343112252
20
-27.6240820997
11
-41.7053714815
21
-27.6951423560
0
LINE
5
3B1
100
AcDbEntity
8
0
100
AcDbLine
62
9
6
CONTINUOUS
10
-42.9358345290
20
-29.3903800475
11
-42.8123931185
21
-29.2669386370
0
LINE
5
3B2
100
AcDbEntity
8
0
100
AcDbLine
62
7
6
CONTINUOUS
10
30.7150842681
20
26.6096199525
11
30.7290516833
21
26.6166025396
0
LINE
5
3B3
100
AcDbEntity
8
0
100
AcDbLine
62
7
6
CONTINUOUS
10
44.4523811542
20
-8.7365447686
11
44.5488708037
21
-8.7336275913
0
LINE
5
3B4
100
AcDbEntity
8
0
100
AcDbLine
62
7
6
CONTINUOUS
10
-44.5476348052
20
-8.8903800475
11
-44.4523811542
21
-8.8903800475
0
LINE
5
3B5
100
AcDbEntity
8
0
100
AcDbLine
62
7
6
CONTINUOUS
10
44.5476348052
20
-8.8903800475
11
44.4523811542
21
-8.8903800475
0
LINE
5
3B6
100
AcDbEntity
8
0
100
AcDbLine
62
7
6
CONTINUOUS
10
-45.5826972631
20
-8.6403800475
11
-44.4523811542
21
-8.6403800475
0
LINE
5
3B7
100
AcDbEntity
8
0
100
AcDbLine
62
7
6
CONTINUOUS
10
44.4523811542
20
-8.6403800475
11
45.5826972631
21
-8.6403800475
0
LINE
5
3B8
100
AcDbEntity
8
0
100
AcDbLine
62
7
6
CONTINUOUS
10
-34.0000000000
20
-7.3903800475
11
-16.0000000000
21
-7.3903800475
0
LINE
5
3B9
100
AcDbEntity
8
0
100
AcDbLine
62
7
6
CONTINUOUS
10
-44.5488708037
20
-8.7336275913
11
-44.4523811542
21
-8.7365447686
0
LINE
5
3BA
100
AcDbEntity
8
0
100
AcDbLine
62
9
6
CONTINUOUS
10
-43.2935697619
20
28.6521616893
11
-43.4510280251
21
28.8096199525
0
LINE
5
3BB
100
AcDbEntity
8
0
100
AcDbLine
62
7
6
CONTINUOUS
10
44.6226743569
20
-4.4290310893
11
44.4523811542
21
-4.4341795738
0
LINE
5
3BC
100
AcDbEntity
8
0
100
AcDbLine
62
7
6
CONTINUOUS
10
-44.4523811542
20
-6.8465805212
11
-44.6226743569
21
-6.8517290057
0
LINE
5
3BD
100
AcDbEntity
8
0
100
AcDbLine
62
7
6
CONTINUOUS
10
-44.7000000000
20
-6.8903800475
11
-44.4523811542
21
-6.8903800475
0
LINE
5
3BE
100
AcDbEntity
8
0
100
AcDbLine
62
7
6
CONTINUOUS
10
44.4523811542
20
-6.8903800475
11
44.7000000000
21
-6.8903800475
0
LINE
5
3BF
100
AcDbEntity
8
0
100
AcDbLine
62
7
6
CONTINUOUS
10
44.7000000000
20
-4.3903800475
11
44.4523811542
21
-4.3903800475
0
LINE
5
3C0
100
AcDbEntity
8
0
100
AcDbLine
62
7
6
CONTINUOUS
10
-44.4523811542
20
-4.3903800475
11
-44.7000000000
21
-4.3903800475
0
LINE
5
3C1
100
AcDbEntity
8
0
100
AcDbLine
62
7
6
CONTINUOUS
10
-44.4523811542
20
-4.4341795738
11
-44.6226743569
21
-4.4290310893
0
LINE
5
3C2
100
AcDbEntity
8
0
100
AcDbLine
62
7
6
CONTINUOUS
10
44.6226743569
20
-6.8517290057
11
44.4523811542
21
-6.8465805212
0
LINE
5
3C3
100
AcDbEntity
8
0
100
AcDbLine
62
7
6
CONTINUOUS
10
42.7047623085
20
23.3659822902
11
42.6337020522
21
23.3304629873
0
LINE
5
3C4
100
AcDbEntity
8
0
100
AcDbLine
62
7
6
CONTINUOUS
10
44.2765585895
20
23.3828281821
11
44.3232961974
21
23.4061898661
0
LINE
5
3C5
100
AcDbEntity
8
0
100
AcDbLine
62
7
6
CONTINUOUS
10
44.6226743569
20
-0.1790310893
11
44.4523811542
21
-0.1841795738
0
LINE
5
3C6
100
AcDbEntity
8
0
100
AcDbLine
62
7
6
CONTINUOUS
10
-44.4523811542
20
-2.5965805212
11
-44.6226743569
21
-2.6017290057
0
LINE
5
3C7
100
AcDbEntity
8
0
100
AcDbLine
62
7
6
CONTINUOUS
10
-44.7000000000
20
-2.6403800475
11
-44.4523811542
21
-2.6403800475
0
LINE
5
3C8
100
AcDbEntity
8
0
100
AcDbLine
62
7
6
CONTINUOUS
10
44.4523811542
20
-2.6403800475
11
44.7000000000
21
-2.6403800475
0
LINE
5
3C9
100
AcDbEntity
8
0
100
AcDbLine
62
7
6
CONTINUOUS
10
44.7000000000
20
-0.1403800475
11
44.4523811542
21
-0.1403800475
0
LINE
5
3CA
100
AcDbEntity
8
0
100
AcDbLine
62
7
6
CONTINUOUS
10
-44.4523811542
20
-0.1403800475
11
-44.7000000000
21
-0.1403800475
0
LINE
5
3CB
100
AcDbEntity
8
0
100
AcDbLine
62
7
6
CONTINUOUS
10
-44.4523811542
20
-0.1841795738
11
-44.6226743569
21
-0.1790310893
0
LINE
5
3CC
100
AcDbEntity
8
0
100
AcDbLine
62
7
6
CONTINUOUS
10
44.6226743569
20
-2.6017290057
11
44.4523811542
21
-2.5965805212
0
LINE
5
3CD
100
AcDbEntity
8
0
100
AcDbLine
62
7
6
CONTINUOUS
10
44.6226743569
20
4.0709689107
11
44.4523811542
21
4.0658204262
0
LINE
5
3CE
100
AcDbEntity
8
0
100
AcDbLine
62
7
6
CONTINUOUS
10
-44.4523811542
20
1.6534194788
11
-44.6226743569
21
1.6482709943
0
LINE
5
3CF
100
AcDbEntity
8
0
100
AcDbLine
62
7
6
CONTINUOUS
10
-40.4607100557
20
0.2096199525
11
-36.5000000000
21
0.2096199525
0
LINE
5
3D0
100
AcDbEntity
8
0
100
AcDbLine
62
7
6
CONTINUOUS
10
-44.7000000000
20
1.6096199525
11
-44.4523811542
21
1.6096199525
0
LINE
5
3D1
100
AcDbEntity
8
0
100
AcDbLine
62
7
6
CONTINUOUS
10
44.4523811542
20
1.6096199525
11
44.7000000000
21
1.6096199525
0
LINE
5
3D2
100
AcDbEntity
8
0
100
AcDbLine
62
7
6
CONTINUOUS
10
-44.4523811542
20
4.0658204262
11
-44.6226743569
21
4.0709689107
0
LINE
5
3D3
100
AcDbEntity
8
0
100
AcDbLine
62
7
6
CONTINUOUS
10
44.6226743569
20
1.6482709943
11
44.4523811542
21
1.6534194788
0
LINE
5
3D4
100
AcDbEntity
8
0
100
AcDbLine
62
7
6
CONTINUOUS
10
-44.2765585895
20
23.3828281821
11
-44.3232961974
21
23.4061898661
0
LINE
5
3D5
100
AcDbEntity
8
0
100
AcDbLine
62
7
6
CONTINUOUS
10
-42.7047623085
20
23.3659822902
11
-42.6337020522
21
23.3304629873
0
LINE
5
3D6
100
AcDbEntity
8
0
100
AcDbLine
62
7
6
CONTINUOUS
10
-44.5488708037
20
5.9528674963
11
-44.4523811542
21
5.9557846735
0
LINE
5
3D7
100
AcDbEntity
8
0
100
AcDbLine
62
7
6
CONTINUOUS
10
44.7000000000
20
4.1096199525
11
44.4523811542
21
4.1096199525
0
LINE
5
3D8
100
AcDbEntity
8
0
100
AcDbLine
62
7
6
CONTINUOUS
10
-44.4523811542
20
4.1096199525
11
-44.7000000000
21
4.1096199525
0
LINE
5
3D9
100
AcDbEntity
8
0
100
AcDbLine
62
7
6
CONTINUOUS
10
45.5826972631
20
5.8596199525
11
44.4523811542
21
5.8596199525
0
LINE
5
3DA
100
AcDbEntity
8
0
100
AcDbLine
62
7
6
CONTINUOUS
10
-44.4523811542
20
5.8596199525
11
-45.5826972631
21
5.8596199525
0
LINE
5
3DB
100
AcDbEntity
8
0
100
AcDbLine
62
7
6
CONTINUOUS
10
-44.5476348052
20
6.1096199525
11
-44.4523811542
21
6.1096199525
0
LINE
5
3DC
100
AcDbEntity
8
0
100
AcDbLine
62
7
6
CONTINUOUS
10
44.5476348052
20
6.1096199525
11
44.4523811542
21
6.1096199525
0
LINE
5
3DD
100
AcDbEntity
8
0
100
AcDbLine
62
7
6
CONTINUOUS
10
44.4523811542
20
5.9557846735
11
44.5488708037
21
5.9528674963
0
LINE
5
3DE
100
AcDbEntity
8
0
100
AcDbLine
62
9
6
CONTINUOUS
10
43.2935697619
20
28.6521616893
11
43.4510280251
21
28.8096199525
0
LINE
5
3DF
100
AcDbEntity
8
0
100
AcDbLine
62
9
6
CONTINUOUS
10
43.4536890046
20
27.5130500389
11
43.5428316889
21
27.6021927232
0
LINE
5
3E0
100
AcDbEntity
8
0
100
AcDbLine
62
9
6
CONTINUOUS
10
42.7774723490
20
26.4861785420
11
42.8310722205
21
26.5397784135
0
LINE
5
3E1
100
AcDbEntity
8
0
100
AcDbLine
62
7
6
CONTINUOUS
10
-30.7500000000
20
26.6270750174
11
-30.7150842681
21
26.6096199525
0
LINE
5
3E2
100
AcDbEntity
8
0
100
AcDbLine
62
9
6
CONTINUOUS
10
42.9358345290
20
-29.3903800475
11
42.8123931185
21
-29.2669386370
0
LINE
5
3E3
100
AcDbEntity
8
0
100
AcDbLine
62
9
6
CONTINUOUS
10
41.6343112252
20
-27.6240820997
11
41.7053714815
21
-27.6951423560
0
LINE
5
3E4
100
AcDbEntity
8
0
100
AcDbLine
62
9
6
CONTINUOUS
10
41.6343112252
20
24.8433220047
11
41.7053714815
21
24.9143822610
0
LINE
5
3E5
100
AcDbEntity
8
0
100
AcDbLine
62
9
6
CONTINUOUS
10
42.6337020522
20
23.8439311777
11
42.7047623085
21
23.9149914340
0
LINE
5
3E6
100
AcDbEntity
8
0
100
AcDbLine
62
9
6
CONTINUOUS
10
34.5275734145
20
15.6344524365
11
35.0268187233
21
16.1336977453
0
LINE
5
3E7
100
AcDbEntity
8
0
100
AcDbLine
62
9
6
CONTINUOUS
10
44.2765585895
20
24.9870923015
11
44.3301584610
21
25.0406921730
0
LINE
5
3E8
100
AcDbEntity
8
0
100
AcDbLine
62
9
6
CONTINUOUS
10
45.1534300864
20
25.8133089571
11
45.2425727707
21
25.9024516414
0
LINE
5
3E9
100
AcDbEntity
8
0
100
AcDbLine
62
9
6
CONTINUOUS
10
46.2925417368
20
25.6531897144
11
46.4500000000
21
25.8106479776
0
LINE
5
3EA
100
AcDbEntity
8
0
100
AcDbLine
62
7
6
CONTINUOUS
10
-16.0000000000
20
12.6096199525
11
-34.0000000000
21
12.6096199525
0
LINE
5
3EB
100
AcDbEntity
8
0
100
AcDbLine
62
7
6
CONTINUOUS
10
30.5000000000
20
13.6096199525
11
34.5000000000
21
13.6096199525
0
LINE
5
3EC
100
AcDbEntity
8
0
100
AcDbLine
62
9
6
CONTINUOUS
10
28.9744822834
20
13.6371933670
11
28.4751675160
21
13.6371933670
0
LINE
5
3ED
100
AcDbEntity
8
0
100
AcDbLine
62
9
6
CONTINUOUS
10
36.0255177166
20
13.6371933670
11
36.5248324840
21
13.6371933671
0
LINE
5
3EE
100
AcDbEntity
8
0
100
AcDbLine
62
7
6
CONTINUOUS
10
34.5006852326
20
14.1096199525
11
30.4993147674
21
14.1096199525
0
LINE
5
3EF
100
AcDbEntity
8
0
100
AcDbLine
62
7
6
CONTINUOUS
10
44.7000000000
20
-6.8903800475
11
44.6226743569
21
-6.8517290057
0
LINE
5
3F0
100
AcDbEntity
8
0
100
AcDbLine
62
9
6
CONTINUOUS
10
42.6337020522
20
-26.6246912727
11
42.7047623085
21
-26.6957515290
0
LINE
5
3F1
100
AcDbEntity
8
0
100
AcDbLine
62
9
6
CONTINUOUS
10
34.5275734145
20
-18.4152125315
11
35.0268187233
21
-18.9144578403
0
LINE
5
3F2
100
AcDbEntity
8
0
100
AcDbLine
62
9
6
CONTINUOUS
10
44.4349207695
20
-27.8912938070
11
44.3114793590
21
-27.7678523965
0
LINE
5
3F3
100
AcDbEntity
8
0
100
AcDbLine
62
9
6
CONTINUOUS
10
36.5248324840
20
-16.4179534620
11
37.0240777928
21
-16.9171987708
0
LINE
5
3F4
100
AcDbEntity
8
0
100
AcDbLine
62
7
6
CONTINUOUS
10
44.5476348052
20
-24.0880148527
11
44.5828495680
21
-24.1232296155
0
LINE
5
3F5
100
AcDbEntity
8
0
100
AcDbLine
62
7
6
CONTINUOUS
10
34.0232082296
20
26.4861785420
11
34.0465699136
21
26.5329161499
0
LINE
5
3F6
100
AcDbEntity
8
0
100
AcDbLine
62
9
6
CONTINUOUS
10
36.5248324840
20
13.6371933670
11
37.0240777928
21
14.1364386758
0
LINE
5
3F7
100
AcDbEntity
8
0
100
AcDbLine
62
7
6
CONTINUOUS
10
44.5476348052
20
21.3072547577
11
44.5828495680
21
21.3424695205
0
LINE
5
3F8
100
AcDbEntity
8
0
100
AcDbLine
62
7
6
CONTINUOUS
10
44.7000000000
20
4.1096199525
11
44.6226743569
21
4.0709689107
0
LINE
5
3F9
100
AcDbEntity
8
0
100
AcDbLine
62
9
6
CONTINUOUS
10
34.5275734145
20
15.1351376691
11
30.4724265855
21
15.1351376691
0
LINE
5
3FA
100
AcDbEntity
8
0
100
AcDbLine
62
9
6
CONTINUOUS
10
34.5275734145
20
15.6344524365
11
30.4724265855
21
15.6344524365
0
LINE
5
3FB
100
AcDbEntity
8
0
100
AcDbLine
62
7
6
CONTINUOUS
10
32.0861799720
20
15.7144355111
11
32.9138200280
21
15.7144355111
0
LINE
5
3FC
100
AcDbEntity
8
0
100
AcDbLine
62
7
6
CONTINUOUS
10
35.0268187233
20
16.1336977453
11
33.2500000000
21
16.1336977453
0
LINE
5
3FD
100
AcDbEntity
8
0
100
AcDbLine
62
7
6
CONTINUOUS
10
31.7500000000
20
16.1336977453
11
29.9731812767
21
16.1336977453
0
LINE
5
3FE
100
AcDbEntity
8
0
100
AcDbLine
62
9
6
CONTINUOUS
10
31.8862104330
20
17.1198270392
11
33.1137895670
21
17.1198270392
0
LINE
5
3FF
100
AcDbEntity
8
0
100
AcDbLine
62
9
6
CONTINUOUS
10
32.9138200280
20
17.3195529461
11
32.0861799720
21
17.3195529461
0
LINE
5
400
100
AcDbEntity
8
0
100
AcDbLine
62
7
6
CONTINUOUS
10
33.0501522399
20
17.7288821868
11
31.9498477601
21
17.7288821868
0
LINE
5
401
100
AcDbEntity
8
0
100
AcDbLine
62
7
6
CONTINUOUS
10
44.7000000000
20
-2.6403800475
11
44.6226743569
21
-2.6017290057
0
LINE
5
402
100
AcDbEntity
8
0
100
AcDbLine
62
7
6
CONTINUOUS
10
34.0063623377
20
24.9143822610
11
33.9708430348
21
24.8433220047
0
LINE
5
403
100
AcDbEntity
8
0
100
AcDbLine
62
7
6
CONTINUOUS
10
44.7000000000
20
-0.1403800475
11
44.6226743569
21
-0.1790310893
0
LINE
5
404
100
AcDbEntity
8
0
100
AcDbLine
62
7
6
CONTINUOUS
10
44.4000000000
20
21.2618715889
11
44.5488708037
21
21.2663724087
0
LINE
5
405
100
AcDbEntity
8
0
100
AcDbLine
62
7
6
CONTINUOUS
10
-45.5826972631
20
21.3596199525
11
-44.4000000000
21
21.3596199525
0
LINE
5
406
100
AcDbEntity
8
0
100
AcDbLine
62
7
6
CONTINUOUS
10
44.4000000000
20
21.3596199525
11
45.5826972631
21
21.3596199525
0
LINE
5
407
100
AcDbEntity
8
0
100
AcDbLine
62
7
6
CONTINUOUS
10
-45.9501713375
20
22.1096199525
11
-44.4000000000
21
22.1096199525
0
LINE
5
408
100
AcDbEntity
8
0
100
AcDbLine
62
7
6
CONTINUOUS
10
44.4000000000
20
22.1096199525
11
45.9501713375
21
22.1096199525
0
LINE
5
409
100
AcDbEntity
8
0
100
AcDbLine
62
7
6
CONTINUOUS
10
-44.5488708037
20
21.2663724087
11
-44.4000000000
21
21.2618715889
0
LINE
5
40A
100
AcDbEntity
8
0
100
AcDbLine
62
7
6
CONTINUOUS
10
44.7000000000
20
1.6096199525
11
44.6226743569
21
1.6482709943
0
LINE
5
40B
100
AcDbEntity
8
0
100
AcDbLine
62
9
6
CONTINUOUS
10
32.9138200280
20
17.3195529461
11
33.0501522399
21
17.7288821868
0
LINE
5
40C
100
AcDbEntity
8
0
100
AcDbLine
62
9
6
CONTINUOUS
10
33.1137895670
20
17.1198270392
11
33.2500000000
21
17.5287906459
0
LINE
5
40D
100
AcDbEntity
8
0
100
AcDbLine
62
7
6
CONTINUOUS
10
44.7000000000
20
-4.3903800475
11
44.6226743569
21
-4.4290310893
0
LINE
5
40E
100
AcDbEntity
8
0
100
AcDbLine
62
7
6
CONTINUOUS
10
-43.3120885320
20
22.2012706780
11
-42.7047623085
21
22.2012706780
0
LINE
5
40F
100
AcDbEntity
8
0
100
AcDbLine
62
7
6
CONTINUOUS
10
43.3120885320
20
22.2012706780
11
42.7047623085
21
22.2012706780
0
LINE
5
410
100
AcDbEntity
8
0
100
AcDbLine
62
9
6
CONTINUOUS
10
45.7927130743
20
22.2670782157
11
42.4926469507
21
22.2670782157
0
LINE
5
411
100
AcDbEntity
8
0
100
AcDbLine
62
9
6
CONTINUOUS
10
-42.4926469507
20
22.2670782157
11
-45.7927130743
21
22.2670782157
0
LINE
5
412
100
AcDbEntity
8
0
100
AcDbLine
62
9
6
CONTINUOUS
10
41.6343112252
20
22.7669068782
11
46.2925417368
21
22.7669068782
0
LINE
5
413
100
AcDbEntity
8
0
100
AcDbLine
62
9
6
CONTINUOUS
10
-41.6343112252
20
22.7669068782
11
-46.2925417368
21
22.7669068782
0
LINE
5
414
100
AcDbEntity
8
0
100
AcDbLine
62
9
6
CONTINUOUS
10
-45.0426032317
20
23.1170776428
11
-41.6343112252
21
23.1170776428
0
LINE
5
415
100
AcDbEntity
8
0
100
AcDbLine
62
9
6
CONTINUOUS
10
41.6343112252
20
23.1170776428
11
45.0426032317
21
23.1170776428
0
LINE
5
416
100
AcDbEntity
8
0
100
AcDbLine
62
9
6
CONTINUOUS
10
-45.0426032317
20
23.3170471818
11
-42.2296288265
21
23.3170471818
0
LINE
5
417
100
AcDbEntity
8
0
100
AcDbLine
62
9
6
CONTINUOUS
10
42.2296288265
20
23.3170471818
11
45.0426032317
21
23.3170471818
0
LINE
5
418
100
AcDbEntity
8
0
100
AcDbLine
62
7
6
CONTINUOUS
10
-43.2771677625
20
23.3659822902
11
-42.7047623085
21
23.3659822902
0
LINE
5
419
100
AcDbEntity
8
0
100
AcDbLine
62
7
6
CONTINUOUS
10
43.2771677625
20
23.3659822902
11
42.7047623085
21
23.3659822902
0
LINE
5
41A
100
AcDbEntity
8
0
100
AcDbLine
62
9
6
CONTINUOUS
10
44.9534605474
20
23.4061898661
11
44.3232961974
21
23.4061898661
0
LINE
5
41B
100
AcDbEntity
8
0
100
AcDbLine
62
9
6
CONTINUOUS
10
-44.3232961974
20
23.4061898661
11
-44.9534605474
21
23.4061898661
0
LINE
5
41C
100
AcDbEntity
8
0
100
AcDbLine
62
9
6
CONTINUOUS
10
-45.4425423097
20
23.5170167208
11
-45.2425727707
21
23.5170167208
0
LINE
5
41D
100
AcDbEntity
8
0
100
AcDbLine
62
9
6
CONTINUOUS
10
45.4425423097
20
23.5170167208
11
45.2425727707
21
23.5170167208
0
LINE
5
41E
100
AcDbEntity
8
0
100
AcDbLine
62
9
6
CONTINUOUS
10
44.3301584610
20
23.6061594051
11
45.1534300864
21
23.6061594051
0
LINE
5
41F
100
AcDbEntity
8
0
100
AcDbLine
62
9
6
CONTINUOUS
10
-44.3301584610
20
23.6061594051
11
-45.1534300864
21
23.6061594051
0
LINE
5
420
100
AcDbEntity
8
0
100
AcDbLine
62
9
6
CONTINUOUS
10
33.4072869257
20
23.8439311777
11
-33.4072869257
21
23.8439311777
0
LINE
5
421
100
AcDbEntity
8
0
100
AcDbLine
62
9
6
CONTINUOUS
10
33.7574576903
20
23.8439311777
11
42.6337020522
21
23.8439311777
0
LINE
5
422
100
AcDbEntity
8
0
100
AcDbLine
62
9
6
CONTINUOUS
10
-33.7574576903
20
23.8439311777
11
-42.6337020522
21
23.8439311777
0
LINE
5
423
100
AcDbEntity
8
0
100
AcDbLine
62
9
6
CONTINUOUS
10
41.6343112252
20
24.8433220047
11
33.9708430348
21
24.8433220047
0
LINE
5
424
100
AcDbEntity
8
0
100
AcDbLine
62
9
6
CONTINUOUS
10
32.8949364441
20
24.8433220047
11
-32.8949364441
21
24.8433220047
0
LINE
5
425
100
AcDbEntity
8
0
100
AcDbLine
62
9
6
CONTINUOUS
10
-33.9708430348
20
24.8433220047
11
-41.6343112252
21
24.8433220047
0
LINE
5
426
100
AcDbEntity
8
0
100
AcDbLine
62
7
6
CONTINUOUS
10
41.7053714815
20
24.9143822610
11
34.0063623377
21
24.9143822610
0
LINE
5
427
100
AcDbEntity
8
0
100
AcDbLine
62
7
6
CONTINUOUS
10
32.8416507255
20
24.9143822610
11
-32.8416507255
21
24.9143822610
0
LINE
5
428
100
AcDbEntity
8
0
100
AcDbLine
62
7
6
CONTINUOUS
10
-34.0063623377
20
24.9143822610
11
-41.7053714815
21
24.9143822610
0
LINE
5
429
100
AcDbEntity
8
0
100
AcDbLine
62
9
6
CONTINUOUS
10
-44.2765585895
20
24.9870923015
11
-43.2771677625
21
24.9870923015
0
LINE
5
42A
100
AcDbEntity
8
0
100
AcDbLine
62
9
6
CONTINUOUS
10
44.2765585895
20
24.9870923015
11
43.2771677625
21
24.9870923015
0
LINE
5
42B
100
AcDbEntity
8
0
100
AcDbLine
62
9
6
CONTINUOUS
10
-42.7774723490
20
25.4867877150
11
-34.0063623377
21
25.4867877150
0
LINE
5
42C
100
AcDbEntity
8
0
100
AcDbLine
62
9
6
CONTINUOUS
10
-32.8416507255
20
25.4867877150
11
32.8416507255
21
25.4867877150
0
LINE
5
42D
100
AcDbEntity
8
0
100
AcDbLine
62
9
6
CONTINUOUS
10
34.0063623377
20
25.4867877150
11
42.7774723490
21
25.4867877150
0
LINE
5
42E
100
AcDbEntity
8
0
100
AcDbLine
62
9
6
CONTINUOUS
10
45.7927130743
20
25.6531897144
11
46.2925417368
21
25.6531897144
0
LINE
5
42F
100
AcDbEntity
8
0
100
AcDbLine
62
9
6
CONTINUOUS
10
-45.7927130743
20
25.6531897144
11
-46.2925417368
21
25.6531897144
0
LINE
5
430
100
AcDbEntity
8
0
100
AcDbLine
62
7
6
CONTINUOUS
10
27.9759222072
20
14.1364386758
11
27.9759222072
21
-16.9171987708
0
LINE
5
431
100
AcDbEntity
8
0
100
AcDbLine
62
9
6
CONTINUOUS
10
28.4751675160
20
13.6371933670
11
28.4751675160
21
-16.4179534620
0
LINE
5
432
100
AcDbEntity
8
0
100
AcDbLine
62
9
6
CONTINUOUS
10
28.9744822834
20
13.6371933670
11
28.9744822834
21
-16.4179534620
0
LINE
5
433
100
AcDbEntity
8
0
100
AcDbLine
62
7
6
CONTINUOUS
10
33.2500000000
20
16.1336977453
11
33.1137895670
21
15.7247341385
0
LINE
5
434
100
AcDbEntity
8
0
100
AcDbLine
62
9
6
CONTINUOUS
10
44.9534605474
20
25.8133089571
11
45.1534300864
21
25.8133089571
0
LINE
5
435
100
AcDbEntity
8
0
100
AcDbLine
62
9
6
CONTINUOUS
10
-44.9534605474
20
25.8133089571
11
-45.1534300864
21
25.8133089571
0
LINE
5
436
100
AcDbEntity
8
0
100
AcDbLine
62
9
6
CONTINUOUS
10
-45.4425423097
20
25.9024516414
11
-45.2425727707
21
25.9024516453
0
LINE
5
437
100
AcDbEntity
8
0
100
AcDbLine
62
9
6
CONTINUOUS
10
45.4425423097
20
25.9024516414
11
45.2425727707
21
25.9024516414
0
LINE
5
438
100
AcDbEntity
8
0
100
AcDbLine
62
9
6
CONTINUOUS
10
-42.7774723490
20
26.4861785420
11
-34.0232082296
21
26.4861785420
0
LINE
5
439
100
AcDbEntity
8
0
100
AcDbLine
62
9
6
CONTINUOUS
10
-32.8163786794
20
26.4861785420
11
32.8163786794
21
26.4861785420
0
LINE
5
43A
100
AcDbEntity
8
0
100
AcDbLine
62
9
6
CONTINUOUS
10
34.0232082296
20
26.4861785420
11
42.7774723490
21
26.4861785420
0
LINE
5
43B
100
AcDbEntity
8
0
100
AcDbLine
62
7
6
CONTINUOUS
10
42.8310722205
20
26.5397784135
11
34.2465394526
21
26.5397784135
0
LINE
5
43C
100
AcDbEntity
8
0
100
AcDbLine
62
7
6
CONTINUOUS
10
-34.2465394526
20
26.5397784135
11
-42.8310722205
21
26.5397784135
0
LINE
5
43D
100
AcDbEntity
8
0
100
AcDbLine
62
7
6
CONTINUOUS
10
-32.7500000000
20
26.5746991830
11
-30.7500000000
21
26.5746991830
0
LINE
5
43E
100
AcDbEntity
8
0
100
AcDbLine
62
7
6
CONTINUOUS
10
30.7500000000
20
26.5746991830
11
32.7500000000
21
26.5746991830
0
LINE
5
43F
100
AcDbEntity
8
0
100
AcDbLine
62
7
6
CONTINUOUS
10
-30.7150842681
20
26.6096199525
11
30.7150842681
21
26.6096199525
0
LINE
5
440
100
AcDbEntity
8
0
100
AcDbLine
62
7
6
CONTINUOUS
10
-32.7500000000
20
26.6270750174
11
-30.7500000000
21
26.6270750174
0
LINE
5
441
100
AcDbEntity
8
0
100
AcDbLine
62
7
6
CONTINUOUS
10
30.7500000000
20
26.6270750174
11
32.7500000000
21
26.6270750174
0
LINE
5
442
100
AcDbEntity
8
0
100
AcDbLine
62
9
6
CONTINUOUS
10
-43.4536890046
20
27.3130804999
11
-34.0465699136
21
27.3130804999
0
LINE
5
443
100
AcDbEntity
8
0
100
AcDbLine
62
9
6
CONTINUOUS
10
34.0465699136
20
27.3130804999
11
43.4536890046
21
27.3130804999
0
LINE
5
444
100
AcDbEntity
8
0
100
AcDbLine
62
9
6
CONTINUOUS
10
-33.9574272293
20
27.4022231843
11
-33.7574576903
21
27.4022231844
0
LINE
5
445
100
AcDbEntity
8
0
100
AcDbLine
62
9
6
CONTINUOUS
10
33.9574272293
20
27.4022231843
11
33.7574576903
21
27.4022231844
0
LINE
5
446
100
AcDbEntity
8
0
100
AcDbLine
62
9
6
CONTINUOUS
10
-43.4536890046
20
27.5130500389
11
-34.2465394526
21
27.5130500389
0
LINE
5
447
100
AcDbEntity
8
0
100
AcDbLine
62
9
6
CONTINUOUS
10
34.2465394526
20
27.5130500389
11
43.4536890046
21
27.5130500389
0
LINE
5
448
100
AcDbEntity
8
0
100
AcDbLine
62
9
6
CONTINUOUS
10
-43.5428316889
20
27.6021927232
11
-34.1573967683
21
27.6021927232
0
LINE
5
449
100
AcDbEntity
8
0
100
AcDbLine
62
9
6
CONTINUOUS
10
34.1573967683
20
27.6021927232
11
43.5428316889
21
27.6021927232
0
LINE
5
44A
100
AcDbEntity
8
0
100
AcDbLine
62
9
6
CONTINUOUS
10
-43.5428316889
20
27.8021622622
11
-34.1573967683
21
27.8021622622
0
LINE
5
44B
100
AcDbEntity
8
0
100
AcDbLine
62
9
6
CONTINUOUS
10
34.1573967683
20
27.8021622622
11
43.5428316889
21
27.8021622622
0
LINE
5
44C
100
AcDbEntity
8
0
100
AcDbLine
62
9
6
CONTINUOUS
10
32.9074582632
20
28.1523330268
11
43.2935697619
21
28.1523330268
0
LINE
5
44D
100
AcDbEntity
8
0
100
AcDbLine
62
9
6
CONTINUOUS
10
-32.9074582632
20
28.1523330268
11
-43.2935697619
21
28.1523330268
0
LINE
5
44E
100
AcDbEntity
8
0
100
AcDbLine
62
9
6
CONTINUOUS
10
43.2935697619
20
28.6521616893
11
33.4072869257
21
28.6521616893
0
LINE
5
44F
100
AcDbEntity
8
0
100
AcDbLine
62
9
6
CONTINUOUS
10
-33.4072869257
20
28.6521616893
11
-43.2935697619
21
28.6521616893
0
LINE
5
450
100
AcDbEntity
8
0
100
AcDbLine
62
7
6
CONTINUOUS
10
43.4510280251
20
28.8096199525
11
33.2498286625
21
28.8096199525
0
LINE
5
451
100
AcDbEntity
8
0
100
AcDbLine
62
7
6
CONTINUOUS
10
-33.2498286625
20
28.8096199525
11
-43.4510280251
21
28.8096199525
0
LINE
5
452
100
AcDbEntity
8
0
100
AcDbLine
62
7
6
CONTINUOUS
10
30.0000000000
20
13.6103051851
11
30.0000000000
21
-16.3910652801
0
LINE
5
453
100
AcDbEntity
8
0
100
AcDbLine
62
9
6
CONTINUOUS
10
30.4724265855
20
-17.9158977641
11
30.4724265855
21
-18.4152125315
0
LINE
5
454
100
AcDbEntity
8
0
100
AcDbLine
62
9
6
CONTINUOUS
10
30.4724265855
20
15.1351376691
11
30.4724265854
21
15.6344524365
0
LINE
5
455
100
AcDbEntity
8
0
100
AcDbLine
62
7
6
CONTINUOUS
10
30.5000000000
20
-16.3903800475
11
30.5000000000
21
13.6096199525
0
LINE
5
456
100
AcDbEntity
8
0
100
AcDbLine
62
7
6
CONTINUOUS
10
30.7500000000
20
26.5746991830
11
30.7500000000
21
26.6270750174
0
LINE
5
457
100
AcDbEntity
8
0
100
AcDbLine
62
7
6
CONTINUOUS
10
31.7500000000
20
17.5287906459
11
31.7500000000
21
16.1336977453
0
LINE
5
458
100
AcDbEntity
8
0
100
AcDbLine
62
9
6
CONTINUOUS
10
31.8862104330
20
17.1198270392
11
31.8862104330
21
15.7247341385
0
LINE
5
459
100
AcDbEntity
8
0
100
AcDbLine
62
9
6
CONTINUOUS
10
32.0861799720
20
15.7144355111
11
32.0861799720
21
17.3195529461
0
LINE
5
45A
100
AcDbEntity
8
0
100
AcDbLine
62
7
6
CONTINUOUS
10
32.7500000000
20
26.5746991830
11
32.7500000000
21
28.3097912900
0
LINE
5
45B
100
AcDbEntity
8
0
100
AcDbLine
62
7
6
CONTINUOUS
10
32.8416507255
20
25.4867877150
11
32.8416507255
21
24.9143822610
0
LINE
5
45C
100
AcDbEntity
8
0
100
AcDbLine
62
9
6
CONTINUOUS
10
32.9074582632
20
24.7022669032
11
32.9074582632
21
28.1523330268
0
LINE
5
45D
100
AcDbEntity
8
0
100
AcDbLine
62
9
6
CONTINUOUS
10
32.9138200280
20
15.7144355111
11
32.9138200280
21
17.3195529461
0
LINE
5
45E
100
AcDbEntity
8
0
100
AcDbLine
62
9
6
CONTINUOUS
10
33.1137895670
20
15.7247341385
11
33.1137895670
21
17.1198270392
0
LINE
5
45F
100
AcDbEntity
8
0
100
AcDbLine
62
7
6
CONTINUOUS
10
33.2500000000
20
16.1336977453
11
33.2500000000
21
17.5287906459
0
LINE
5
460
100
AcDbEntity
8
0
100
AcDbLine
62
9
6
CONTINUOUS
10
28.4751675160
20
-16.4179534620
11
27.9759222072
21
-16.9171987708
0
LINE
5
461
100
AcDbEntity
8
0
100
AcDbLine
62
9
6
CONTINUOUS
10
28.4751675160
20
13.6371933670
11
27.9759222072
21
14.1364386758
0
LINE
5
462
100
AcDbEntity
8
0
100
AcDbLine
62
9
6
CONTINUOUS
10
30.4724265855
20
15.6344524365
11
29.9731812767
21
16.1336977453
0
LINE
5
463
100
AcDbEntity
8
0
100
AcDbLine
62
9
6
CONTINUOUS
10
33.4072869257
20
23.8439311777
11
33.4072869257
21
28.6521616893
0
LINE
5
464
100
AcDbEntity
8
0
100
AcDbLine
62
9
6
CONTINUOUS
10
33.7574576903
20
27.4022231842
11
33.7574576903
21
23.8439311777
0
LINE
5
465
100
AcDbEntity
8
0
100
AcDbLine
62
9
6
CONTINUOUS
10
33.9574272293
20
27.4022231842
11
33.9574272293
21
24.4392487790
0
LINE
5
466
100
AcDbEntity
8
0
100
AcDbLine
62
7
6
CONTINUOUS
10
34.0063623377
20
25.4867877150
11
34.0063623377
21
24.9143822610
0
LINE
5
467
100
AcDbEntity
8
0
100
AcDbLine
62
9
6
CONTINUOUS
10
34.0465699136
20
26.5329161499
11
34.0465699136
21
27.3130804999
0
LINE
5
468
100
AcDbEntity
8
0
100
AcDbLine
62
9
6
CONTINUOUS
10
34.1573967683
20
27.8021622622
11
34.1573967683
21
27.6021927232
0
LINE
5
469
100
AcDbEntity
8
0
100
AcDbLine
62
9
6
CONTINUOUS
10
34.2465394526
20
26.5397784135
11
34.2465394526
21
27.5130500389
0
LINE
5
46A
100
AcDbEntity
8
0
100
AcDbLine
62
7
6
CONTINUOUS
10
34.5000000000
20
13.6096199525
11
34.5000000000
21
-16.3903800475
0
LINE
5
46B
100
AcDbEntity
8
0
100
AcDbLine
62
9
6
CONTINUOUS
10
34.5275734145
20
-17.9158977641
11
34.5275734146
21
-18.4152125315
0
LINE
5
46C
100
AcDbEntity
8
0
100
AcDbLine
62
9
6
CONTINUOUS
10
34.5275734145
20
15.1351376691
11
34.5275734145
21
15.6344524365
0
LINE
5
46D
100
AcDbEntity
8
0
100
AcDbLine
62
7
6
CONTINUOUS
10
35.0000000000
20
-16.3910652801
11
35.0000000000
21
13.6103051851
0
LINE
5
46E
100
AcDbEntity
8
0
100
AcDbLine
62
9
6
CONTINUOUS
10
36.0255177166
20
-16.4179534620
11
36.0255177166
21
13.6371933670
0
LINE
5
46F
100
AcDbEntity
8
0
100
AcDbLine
62
9
6
CONTINUOUS
10
36.5248324840
20
-16.4179534620
11
36.5248324840
21
13.6371933670
0
LINE
5
470
100
AcDbEntity
8
0
100
AcDbLine
62
7
6
CONTINUOUS
10
37.0240777928
20
-16.9171987708
11
37.0240777928
21
14.1364386758
0
LINE
5
471
100
AcDbEntity
8
0
100
AcDbLine
62
9
6
CONTINUOUS
10
30.4724265855
20
-18.4152125315
11
29.9731812767
21
-18.9144578403
0
LINE
5
472
100
AcDbEntity
8
0
100
AcDbLine
62
7
6
CONTINUOUS
10
44.5476348052
20
5.9119851473
11
44.5828495680
21
5.8767703845
0
LINE
5
473
100
AcDbEntity
8
0
100
AcDbLine
62
7
6
CONTINUOUS
10
31.7500000000
20
16.1336977453
11
31.8862104330
21
15.7247341385
0
LINE
5
474
100
AcDbEntity
8
0
100
AcDbLine
62
9
6
CONTINUOUS
10
31.8862104330
20
17.1198270392
11
31.7500000000
21
17.5287906459
0
LINE
5
475
100
AcDbEntity
8
0
100
AcDbLine
62
9
6
CONTINUOUS
10
32.0861799720
20
17.3195529461
11
31.9498477601
21
17.7288821868
0
LINE
5
476
100
AcDbEntity
8
0
100
AcDbLine
62
7
6
CONTINUOUS
10
44.5476348052
20
-8.6927452423
11
44.5828495680
21
-8.6575304795
0
LINE
5
477
100
AcDbEntity
8
0
100
AcDbLine
62
7
6
CONTINUOUS
10
44.5476348052
20
21.0532801054
11
44.4000000000
21
21.1270750174
0
LINE
5
478
100
AcDbEntity
8
0
100
AcDbLine
62
9
6
CONTINUOUS
10
41.6343112252
20
-27.6240820997
11
41.6343112252
21
22.7669068782
0
LINE
5
479
100
AcDbEntity
8
0
100
AcDbLine
62
9
6
CONTINUOUS
10
41.6343112252
20
23.1170776428
11
41.6343112252
21
24.8433220047
0
LINE
5
47A
100
AcDbEntity
8
0
100
AcDbLine
62
9
6
CONTINUOUS
10
42.6337020522
20
-26.6246912727
11
42.6337020522
21
22.2545563966
0
LINE
5
47B
100
AcDbEntity
8
0
100
AcDbLine
62
9
6
CONTINUOUS
10
42.6337020522
20
23.3304629873
11
42.6337020522
21
23.8439311777
0
LINE
5
47C
100
AcDbEntity
8
0
100
AcDbLine
62
7
6
CONTINUOUS
10
42.7047623085
20
-26.6957515290
11
42.7047623085
21
22.2012706780
0
LINE
5
47D
100
AcDbEntity
8
0
100
AcDbLine
62
7
6
CONTINUOUS
10
42.7047623085
20
23.3659822902
11
42.7047623085
21
23.9149914340
0
LINE
5
47E
100
AcDbEntity
8
0
100
AcDbLine
62
9
6
CONTINUOUS
10
42.7774723490
20
26.4861785420
11
42.7774723490
21
25.4867877150
0
LINE
5
47F
100
AcDbEntity
8
0
100
AcDbLine
62
9
6
CONTINUOUS
10
42.8123931185
20
-29.2669386370
11
42.8123931185
21
-28.2675478100
0
LINE
5
480
100
AcDbEntity
8
0
100
AcDbLine
62
9
6
CONTINUOUS
10
43.2771677625
20
24.9870923015
11
43.2771677625
21
23.3659822902
0
LINE
5
481
100
AcDbEntity
8
0
100
AcDbLine
62
9
6
CONTINUOUS
10
43.2935697619
20
28.1523330268
11
43.2935697619
21
28.6521616893
0
LINE
5
482
100
AcDbEntity
8
0
100
AcDbLine
62
9
6
CONTINUOUS
10
43.3120885320
20
22.2012706780
11
43.3120885320
21
-27.7678523965
0
LINE
5
483
100
AcDbEntity
8
0
100
AcDbLine
62
9
6
CONTINUOUS
10
43.4536890046
20
27.3130804999
11
43.4536890046
21
27.5130500389
0
LINE
5
484
100
AcDbEntity
8
0
100
AcDbLine
62
9
6
CONTINUOUS
10
43.5428316889
20
27.8021622622
11
43.5428316928
21
27.6021927232
0
LINE
5
485
100
AcDbEntity
8
0
100
AcDbLine
62
9
6
CONTINUOUS
10
44.2765585895
20
24.9870923015
11
44.2765585895
21
23.3828281821
0
LINE
5
486
100
AcDbEntity
8
0
100
AcDbLine
62
9
6
CONTINUOUS
10
44.3114793590
20
22.1759986319
11
44.3114793590
21
-27.7678523965
0
LINE
5
487
100
AcDbEntity
8
0
100
AcDbLine
62
7
6
CONTINUOUS
10
44.3301584610
20
23.6061594051
11
44.3301584610
21
25.0406921730
0
LINE
5
488
100
AcDbEntity
8
0
100
AcDbLine
62
7
6
CONTINUOUS
10
44.4349207695
20
-23.8903800475
11
44.5476348052
21
-23.8340402005
0
LINE
5
489
100
AcDbEntity
8
0
100
AcDbLine
62
7
6
CONTINUOUS
10
42.7047623085
20
22.2012706780
11
42.6337020522
21
22.2545563966
0
LINE
5
48A
100
AcDbEntity
8
0
100
AcDbLine
62
9
6
CONTINUOUS
10
32.9074582632
20
28.1523330268
11
32.7500000000
21
28.3097912900
0
LINE
5
48B
100
AcDbEntity
8
0
100
AcDbLine
62
9
6
CONTINUOUS
10
34.0465699136
20
27.3130804999
11
33.9574272293
21
27.4022231842
0
LINE
5
48C
100
AcDbEntity
8
0
100
AcDbLine
62
9
6
CONTINUOUS
10
34.2465394526
20
27.5130500389
11
34.1573967683
21
27.6021927232
0
LINE
5
48D
100
AcDbEntity
8
0
100
AcDbLine
62
9
6
CONTINUOUS
10
33.4072869257
20
28.6521616893
11
33.2498286625
21
28.8096199525
0
LINE
5
48E
100
AcDbEntity
8
0
100
AcDbLine
62
7
6
CONTINUOUS
10
30.7150842681
20
26.6096199525
11
30.7238120831
21
26.6008908783
0
LINE
5
48F
100
AcDbEntity
8
0
100
AcDbLine
62
7
6
CONTINUOUS
10
32.8416507255
20
24.9143822610
11
32.8949364441
21
24.8433220047
0
LINE
5
490
100
AcDbEntity
8
0
100
AcDbLine
62
7
6
CONTINUOUS
10
32.8163786794
20
26.4861785420
11
32.7500000000
21
26.5746991830
0
LINE
5
491
100
AcDbEntity
8
0
100
AcDbLine
62
7
6
CONTINUOUS
10
44.4000000000
20
21.1270750174
11
44.4000000000
21
22.1096199525
0
LINE
5
492
100
AcDbEntity
8
0
100
AcDbLine
62
7
6
CONTINUOUS
10
44.4349207695
20
-23.8903800475
11
44.4349207695
21
-27.8912938070
0
LINE
5
493
100
AcDbEntity
8
0
100
AcDbLine
62
7
6
CONTINUOUS
10
44.4523811542
20
-8.8903800475
11
44.4523811542
21
6.1096199525
0
LINE
5
494
100
AcDbEntity
8
0
100
AcDbLine
62
7
6
CONTINUOUS
10
44.5476348052
20
21.3072547577
11
44.5476348052
21
21.0485272252
0
LINE
5
495
100
AcDbEntity
8
0
100
AcDbLine
62
7
6
CONTINUOUS
10
44.5476348052
20
6.1096199525
11
44.5476348052
21
5.9119851473
0
LINE
5
496
100
AcDbEntity
8
0
100
AcDbLine
62
7
6
CONTINUOUS
10
44.5476348052
20
-8.6927452423
11
44.5476348052
21
-8.8903800475
0
LINE
5
497
100
AcDbEntity
8
0
100
AcDbLine
62
7
6
CONTINUOUS
10
44.5476348052
20
-23.8292873203
11
44.5476348052
21
-24.0880148527
0
LINE
5
498
100
AcDbEntity
8
0
100
AcDbLine
62
9
6
CONTINUOUS
10
44.5828495680
20
21.3424695205
11
44.5828495680
21
5.8767703845
0
LINE
5
499
100
AcDbEntity
8
0
100
AcDbLine
62
9
6
CONTINUOUS
10
44.5828495680
20
-8.6575304795
11
44.5828495680
21
-24.1232296155
0
LINE
5
49A
100
AcDbEntity
8
0
100
AcDbLine
62
7
6
CONTINUOUS
10
44.6226743569
20
-0.1790310893
11
44.6226743569
21
-2.6017290057
0
LINE
5
49B
100
AcDbEntity
8
0
100
AcDbLine
62
7
6
CONTINUOUS
10
44.6226743569
20
-4.4290310893
11
44.6226743569
21
-6.8517290057
0
LINE
5
49C
100
AcDbEntity
8
0
100
AcDbLine
62
7
6
CONTINUOUS
10
44.6226743569
20
1.6482709943
11
44.6226743569
21
4.0709689107
0
LINE
5
49D
100
AcDbEntity
8
0
100
AcDbLine
62
7
6
CONTINUOUS
10
44.7000000000
20
4.1096199525
11
44.7000000000
21
1.6096199525
0
LINE
5
49E
100
AcDbEntity
8
0
100
AcDbLine
62
7
6
CONTINUOUS
10
44.7000000000
20
-6.8903800475
11
44.7000000000
21
-4.3903800475
0
LINE
5
49F
100
AcDbEntity
8
0
100
AcDbLine
62
7
6
CONTINUOUS
10
44.7000000000
20
-2.6403800475
11
44.7000000000
21
-0.1403800475
0
LINE
5
4A0
100
AcDbEntity
8
0
100
AcDbLine
62
9
6
CONTINUOUS
10
44.9534605474
20
25.8133089571
11
44.9534605474
21
23.4061898661
0
LINE
5
4A1
100
AcDbEntity
8
0
100
AcDbLine
62
9
6
CONTINUOUS
10
45.0426032318
20
23.3170471818
11
45.0426032320
21
23.1170776428
0
LINE
5
4A2
100
AcDbEntity
8
0
100
AcDbLine
62
9
6
CONTINUOUS
10
45.1534300864
20
25.8133089571
11
45.1534300864
21
23.6061594051
0
LINE
5
4A3
100
AcDbEntity
8
0
100
AcDbLine
62
9
6
CONTINUOUS
10
45.2425727707
20
25.9024516414
11
45.2425727707
21
23.5170167208
0
LINE
5
4A4
100
AcDbEntity
8
0
100
AcDbLine
62
9
6
CONTINUOUS
10
45.4425423097
20
25.9024516414
11
45.4425423097
21
23.5170167208
0
LINE
5
4A5
100
AcDbEntity
8
0
100
AcDbLine
62
9
6
CONTINUOUS
10
45.5826972631
20
21.3596199525
11
45.5826972631
21
5.8596199525
0
LINE
5
4A6
100
AcDbEntity
8
0
100
AcDbLine
62
9
6
CONTINUOUS
10
45.5826972631
20
-8.6403800475
11
45.5826972631
21
-24.1403800475
0
LINE
5
4A7
100
AcDbEntity
8
0
100
AcDbLine
62
9
6
CONTINUOUS
10
45.7927130743
20
22.2670782157
11
45.7927130743
21
25.6531897144
0
LINE
5
4A8
100
AcDbEntity
8
0
100
AcDbLine
62
7
6
CONTINUOUS
10
46.2000000000
20
22.1765172384
11
46.2000000000
21
-27.8924357454
0
LINE
5
4A9
100
AcDbEntity
8
0
100
AcDbLine
62
9
6
CONTINUOUS
10
46.2925417368
20
22.7669068782
11
46.2925417368
21
25.6531897144
0
LINE
5
4AA
100
AcDbEntity
8
0
100
AcDbLine
62
7
6
CONTINUOUS
10
46.4500000000
20
22.6094486150
11
46.4500000000
21
25.8106479776
0
LINE
5
4AB
100
AcDbEntity
8
0
100
AcDbLine
62
7
6
CONTINUOUS
10
44.4000000000
20
22.1096199525
11
44.3114793590
21
22.1759986319
0
LINE
5
4AC
100
AcDbEntity
8
0
100
AcDbLine
62
9
6
CONTINUOUS
10
45.7927130743
20
22.2670782157
11
45.9501713375
21
22.1096199525
0
LINE
5
4AD
100
AcDbEntity
8
0
100
AcDbLine
62
9
6
CONTINUOUS
10
45.0426032317
20
23.3170471818
11
44.9534605474
21
23.4061898661
0
LINE
5
4AE
100
AcDbEntity
8
0
100
AcDbLine
62
9
6
CONTINUOUS
10
45.2425727707
20
23.5170167208
11
45.1534300864
21
23.6061594051
0
LINE
5
4AF
100
AcDbEntity
8
0
100
AcDbLine
62
9
6
CONTINUOUS
10
46.2925417368
20
22.7669068782
11
46.4500000000
21
22.6094486150
0
ARC
5
4B0
100
AcDbEntity
8
0
100
AcDbCircle
62
7
6
CONTINUOUS
10
-42.5000000000
20
-16.3903800475
40
1.7500000000
100
AcDbArc
50
331.7134747301
51
28.3005285931
0
ARC
5
4B1
100
AcDbEntity
8
0
100
AcDbCircle
62
7
6
CONTINUOUS
10
-36.5000000000
20
-0.2903800475
40
0.5000000000
100
AcDbArc
50
0.0000000000
51
90.0000000000
0
SPLINE
5
4B2
100
AcDbEntity
8
0
100
AcDbSpline
62
7
6
CONTINUOUS
70
0
71
3
72
12
73
8
74
6
42
0.0000001000
43
0.0000001000
44
0.0000000001
12
-1.0002373320
22
0.0000000000
32
0.0000000000
13
-0.7072746003
23
0.7072746003
33
0.0000000000
40
0.0000000000
40
0.0000000000
40
0.0000000000
40
0.0000000000
40
0.3043100278
40
0.5820739579
40
0.8023229216
40
0.9470588590
40
1.0000000000
40
1.0000000000
40
1.0000000000
40
1.0000000000
10
45.5826972631
20
-24.1403800475
30
0.0000000000
10
45.4812365130
20
-24.1403800475
30
0.0000000000
10
45.2866494762
20
-24.1408178727
30
0.0000000000
10
45.0211616738
20
-24.1349358295
30
0.0000000000
10
44.8017013516
20
-24.1410214029
30
0.0000000000
10
44.6725569922
20
-24.1185772522
30
0.0000000000
10
44.5953308761
20
-24.1357109236
30
0.0000000000
10
44.5828495680
20
-24.1232296155
30
0.0000000000
11
45.5826972631
21
-24.1403800475
31
0.0000000000
11
45.2783161396
21
-24.1395518104
31
0.0000000000
11
45.0004969586
21
-24.1371167426
31
0.0000000000
11
44.7802280933
21
-24.1333403078
31
0.0000000000
11
44.6355379459
21
-24.1285239304
31
0.0000000000
11
44.5828495680
21
-24.1232296155
31
0.0000000000
0
SPLINE
5
4B3
100
AcDbEntity
8
0
100
AcDbSpline
62
7
6
CONTINUOUS
70
0
71
3
72
12
73
8
74
6
42
0.0000001000
43
0.0000001000
44
0.0000000001
12
1.0002373320
22
0.0000000000
32
0.0000000000
13
0.7072746003
23
-0.7072746003
33
0.0000000000
40
0.0000000000
40
0.0000000000
40
0.0000000000
40
0.0000000000
40
0.3043100278
40
0.5820739579
40
0.8023229216
40
0.9470588590
40
1.0000000000
40
1.0000000000
40
1.0000000000
40
1.0000000000
10
-45.5826972631
20
-8.6403800475
30
0.0000000000
10
-45.4812365130
20
-8.6403800475
30
0.0000000000
10
-45.2866494762
20
-8.6399422224
30
0.0000000000
10
-45.0211616738
20
-8.6458242655
30
0.0000000000
10
-44.8017013516
20
-8.6397386921
30
0.0000000000
10
-44.6725569922
20
-8.6621828428
30
0.0000000000
10
-44.5953308761
20
-8.6450491714
30
0.0000000000
10
-44.5828495680
20
-8.6575304795
30
0.0000000000
11
-45.5826972631
21
-8.6403800475
31
0.0000000000
11
-45.2783161396
21
-8.6412082846
31
0.0000000000
11
-45.0004969586
21
-8.6436433524
31
0.0000000000
11
-44.7802280933
21
-8.6474197872
31
0.0000000000
11
-44.6355379459
21
-8.6522361646
31
0.0000000000
11
-44.5828495680
21
-8.6575304795
31
0.0000000000
0
SPLINE
5
4B4
100
AcDbEntity
8
0
100
AcDbSpline
62
7
6
CONTINUOUS
70
0
71
3
72
15
73
11
74
9
42
0.0000001000
43
0.0000001000
44
0.0000000001
12
2.3494347167
22
0.0000000000
32
0.0000000000
13
-0.0000000000
23
2.3494347167
33
0.0000000000
40
0.0000000000
40
0.0000000000
40
0.0000000000
40
0.0000000000
40
0.1423856443
40
0.2742073726
40
0.3977421592
40
0.5164864017
40
0.6370489091
40
0.7585213129
40
0.8796366278
40
1.0000000000
40
1.0000000000
40
1.0000000000
40
1.0000000000
10
44.7020556979
20
-29.3903800475
30
0.0000000000
10
44.8135642899
20
-29.3903800475
30
0.0000000000
10
45.0291081993
20
-29.3662560974
30
0.0000000000
10
45.3260834447
20
-29.2655205082
30
0.0000000000
10
45.5808528314
20
-29.1171027998
30
0.0000000000
10
45.7960815259
20
-28.9290685685
30
0.0000000000
10
45.9713805903
20
-28.7053197549
30
0.0000000000
10
46.1020497210
20
-28.4507432533
30
0.0000000000
10
46.1820927410
20
-28.1762941223
30
0.0000000000
10
46.2000000000
20
-27.9866977071
30
0.0000000000
10
46.2000000000
20
-27.8924357454
30
0.0000000000
11
44.7020556979
21
-29.3903800475
31
0.0000000000
11
45.0344983619
21
-29.3531057950
31
0.0000000000
11
45.3278044902
21
-29.2536590302
31
0.0000000000
11
45.5785821840
21
-29.1075494277
31
0.0000000000
11
45.7886816217
21
-28.9240035302
31
0.0000000000
11
45.9633674480
21
-28.7010292189
31
0.0000000000
11
46.0937059781
21
-28.4471391521
31
0.0000000000
11
46.1733667060
21
-28.1739646507
31
0.0000000000
11
46.2000000000
21
-27.8924357454
31
0.0000000000
0
SPLINE
5
4B5
100
AcDbEntity
8
0
100
AcDbSpline
62
7
6
CONTINUOUS
70
0
71
3
72
15
73
11
74
9
42
0.0000001000
43
0.0000001000
44
0.0000000001
12
0.0000000000
22
-2.3494347167
32
0.0000000000
13
2.3494347167
23
0.0000000000
33
0.0000000000
40
0.0000000000
40
0.0000000000
40
0.0000000000
40
0.0000000000
40
0.1423856443
40
0.2742073726
40
0.3977421592
40
0.5164864017
40
0.6370489091
40
0.7585213129
40
0.8796366278
40
1.0000000000
40
1.0000000000
40
1.0000000000
40
1.0000000000
10
-46.2000000000
20
-27.8924357454
30
0.0000000000
10
-46.2000000000
20
-28.0039443374
30
0.0000000000
10
-46.1758760499
20
-28.2194882468
30
0.0000000000
10
-46.0751404607
20
-28.5164634922
30
0.0000000000
10
-45.9267227523
20
-28.7712328789
30
0.0000000000
10
-45.7386885210
20
-28.9864615734
30
0.0000000000
10
-45.5149397074
20
-29.1617606378
30
0.0000000000
10
-45.2603632058
20
-29.2924297685
30
0.0000000000
10
-44.9859140748
20
-29.3724727885
30
0.0000000000
10
-44.7963176596
20
-29.3903800475
30
0.0000000000
10
-44.7020556979
20
-29.3903800475
30
0.0000000000
11
-46.2000000000
21
-27.8924357454
31
0.0000000000
11
-46.1627257475
21
-28.2248784094
31
0.0000000000
11
-46.0632789827
21
-28.5181845377
31
0.0000000000
11
-45.9171693802
21
-28.7689622315
31
0.0000000000
11
-45.7336234827
21
-28.9790616692
31
0.0000000000
11
-45.5106491714
21
-29.1537474955
31
0.0000000000
11
-45.2567591046
21
-29.2840860256
31
0.0000000000
11
-44.9835846031
21
-29.3637467535
31
0.0000000000
11
-44.7020556979
21
-29.3903800475
31
0.0000000000
0
SPLINE
5
4B6
100
AcDbEntity
8
0
100
AcDbSpline
62
7
6
CONTINUOUS
70
0
71
3
72
12
73
8
74
6
42
0.0000001000
43
0.0000001000
44
0.0000000001
12
-1.0002373320
22
0.0000000000
32
0.0000000000
13
-0.7072746003
23
0.7072746003
33
0.0000000000
40
0.0000000000
40
0.0000000000
40
0.0000000000
40
0.0000000000
40
0.3043100278
40
0.5820739579
40
0.8023229216
40
0.9470588590
40
1.0000000000
40
1.0000000000
40
1.0000000000
40
1.0000000000
10
45.5826972631
20
5.8596199525
30
0.0000000000
10
45.4812365130
20
5.8596199525
30
0.0000000000
10
45.2866494762
20
5.8591821273
30
0.0000000000
10
45.0211616738
20
5.8650641705
30
0.0000000000
10
44.8017013516
20
5.8589785971
30
0.0000000000
10
44.6725569922
20
5.8814227478
30
0.0000000000
10
44.5953308761
20
5.8642890764
30
0.0000000000
10
44.5828495680
20
5.8767703845
30
0.0000000000
11
45.5826972631
21
5.8596199525
31
0.0000000000
11
45.2783161396
21
5.8604481896
31
0.0000000000
11
45.0004969586
21
5.8628832574
31
0.0000000000
11
44.7802280933
21
5.8666596922
31
0.0000000000
11
44.6355379459
21
5.8714760696
31
0.0000000000
11
44.5828495680
21
5.8767703845
31
0.0000000000
0
SPLINE
5
4B7
100
AcDbEntity
8
0
100
AcDbSpline
62
7
6
CONTINUOUS
70
0
71
3
72
12
73
8
74
6
42
0.0000001000
43
0.0000001000
44
0.0000000001
12
0.7072746003
22
0.7072746003
32
0.0000000000
13
1.0002373320
23
0.0000000000
33
0.0000000000
40
0.0000000000
40
0.0000000000
40
0.0000000000
40
0.0000000000
40
0.0529411410
40
0.1976770784
40
0.4179260421
40
0.6956899722
40
1.0000000000
40
1.0000000000
40
1.0000000000
40
1.0000000000
10
44.5828495680
20
21.3424695205
30
0.0000000000
10
44.5953308761
20
21.3549508286
30
0.0000000000
10
44.6725569922
20
21.3378171572
30
0.0000000000
10
44.8017013516
20
21.3602613079
30
0.0000000000
10
45.0211616738
20
21.3541757345
30
0.0000000000
10
45.2866494762
20
21.3600577776
30
0.0000000000
10
45.4812365130
20
21.3596199525
30
0.0000000000
10
45.5826972631
20
21.3596199525
30
0.0000000000
11
44.5828495680
21
21.3424695205
31
0.0000000000
11
44.6355379459
21
21.3477638354
31
0.0000000000
11
44.7802280933
21
21.3525802128
31
0.0000000000
11
45.0004969586
21
21.3563566476
31
0.0000000000
11
45.2783161396
21
21.3587917154
31
0.0000000000
11
45.5826972631
21
21.3596199525
31
0.0000000000
0
SPLINE
5
4B8
100
AcDbEntity
8
0
100
AcDbSpline
62
7
6
CONTINUOUS
70
0
71
3
72
12
73
8
74
6
42
0.0000001000
43
0.0000001000
44
0.0000000001
12
-1.0002373320
22
0.0000000000
32
0.0000000000
13
-0.7072746003
23
0.7072746003
33
0.0000000000
40
0.0000000000
40
0.0000000000
40
0.0000000000
40
0.0000000000
40
0.3043100278
40
0.5820739579
40
0.8023229216
40
0.9470588590
40
1.0000000000
40
1.0000000000
40
1.0000000000
40
1.0000000000
10
45.5826972631
20
-24.1403800475
30
0.0000000000
10
45.4812365130
20
-24.1403800475
30
0.0000000000
10
45.2866494762
20
-24.1408178727
30
0.0000000000
10
45.0211616738
20
-24.1349358295
30
0.0000000000
10
44.8017013516
20
-24.1410214029
30
0.0000000000
10
44.6725569922
20
-24.1185772522
30
0.0000000000
10
44.5953308761
20
-24.1357109236
30
0.0000000000
10
44.5828495680
20
-24.1232296155
30
0.0000000000
11
45.5826972631
21
-24.1403800475
31
0.0000000000
11
45.2783161396
21
-24.1395518104
31
0.0000000000
11
45.0004969586
21
-24.1371167426
31
0.0000000000
11
44.7802280933
21
-24.1333403078
31
0.0000000000
11
44.6355379459
21
-24.1285239304
31
0.0000000000
11
44.5828495680
21
-24.1232296155
31
0.0000000000
0
SPLINE
5
4B9
100
AcDbEntity
8
0
100
AcDbSpline
62
7
6
CONTINUOUS
70
0
71
3
72
12
73
8
74
6
42
0.0000001000
43
0.0000001000
44
0.0000000001
12
0.7072746003
22
0.7072746003
32
0.0000000000
13
1.0002373320
23
0.0000000000
33
0.0000000000
40
0.0000000000
40
0.0000000000
40
0.0000000000
40
0.0000000000
40
0.0529411410
40
0.1976770784
40
0.4179260421
40
0.6956899722
40
1.0000000000
40
1.0000000000
40
1.0000000000
40
1.0000000000
10
44.5828495680
20
-8.6575304795
30
0.0000000000
10
44.5953308761
20
-8.6450491714
30
0.0000000000
10
44.6725569922
20
-8.6621828428
30
0.0000000000
10
44.8017013516
20
-8.6397386921
30
0.0000000000
10
45.0211616738
20
-8.6458242655
30
0.0000000000
10
45.2866494762
20
-8.6399422224
30
0.0000000000
10
45.4812365130
20
-8.6403800475
30
0.0000000000
10
45.5826972631
20
-8.6403800475
30
0.0000000000
11
44.5828495680
21
-8.6575304795
31
0.0000000000
11
44.6355379459
21
-8.6522361646
31
0.0000000000
11
44.7802280933
21
-8.6474197872
31
0.0000000000
11
45.0004969586
21
-8.6436433524
31
0.0000000000
11
45.2783161396
21
-8.6412082846
31
0.0000000000
11
45.5826972631
21
-8.6403800475
31
0.0000000000
0
SPLINE
5
4BA
100
AcDbEntity
8
0
100
AcDbSpline
62
7
6
CONTINUOUS
70
0
71
3
72
12
73
8
74
6
42
0.0000001000
43
0.0000001000
44
0.0000000001
12
1.0002373320
22
0.0000000000
32
0.0000000000
13
0.7072746003
23
-0.7072746003
33
0.0000000000
40
0.0000000000
40
0.0000000000
40
0.0000000000
40
0.0000000000
40
0.3043100278
40
0.5820739579
40
0.8023229216
40
0.9470588590
40
1.0000000000
40
1.0000000000
40
1.0000000000
40
1.0000000000
10
-45.5826972631
20
21.3596199525
30
0.0000000000
10
-45.4812365130
20
21.3596199525
30
0.0000000000
10
-45.2866494762
20
21.3600577776
30
0.0000000000
10
-45.0211616738
20
21.3541757345
30
0.0000000000
10
-44.8017013516
20
21.3602613079
30
0.0000000000
10
-44.6725569922
20
21.3378171572
30
0.0000000000
10
-44.5953308761
20
21.3549508286
30
0.0000000000
10
-44.5828495680
20
21.3424695205
30
0.0000000000
11
-45.5826972631
21
21.3596199525
31
0.0000000000
11
-45.2783161396
21
21.3587917154
31
0.0000000000
11
-45.0004969586
21
21.3563566476
31
0.0000000000
11
-44.7802280933
21
21.3525802128
31
0.0000000000
11
-44.6355379459
21
21.3477638354
31
0.0000000000
11
-44.5828495680
21
21.3424695205
31
0.0000000000
0
SPLINE
5
4BB
100
AcDbEntity
8
0
100
AcDbSpline
62
7
6
CONTINUOUS
70
0
71
3
72
12
73
8
74
6
42
0.0000001000
43
0.0000001000
44
0.0000000001
12
-0.7072746003
22
-0.7072746003
32
0.0000000000
13
-1.0002373320
23
0.0000000000
33
0.0000000000
40
0.0000000000
40
0.0000000000
40
0.0000000000
40
0.0000000000
40
0.0529411410
40
0.1976770784
40
0.4179260421
40
0.6956899722
40
1.0000000000
40
1.0000000000
40
1.0000000000
40
1.0000000000
10
-44.5828495680
20
5.8767703845
30
0.0000000000
10
-44.5953308761
20
5.8642890764
30
0.0000000000
10
-44.6725569922
20
5.8814227478
30
0.0000000000
10
-44.8017013516
20
5.8589785971
30
0.0000000000
10
-45.0211616738
20
5.8650641705
30
0.0000000000
10
-45.2866494762
20
5.8591821273
30
0.0000000000
10
-45.4812365130
20
5.8596199525
30
0.0000000000
10
-45.5826972631
20
5.8596199525
30
0.0000000000
11
-44.5828495680
21
5.8767703845
31
0.0000000000
11
-44.6355379459
21
5.8714760696
31
0.0000000000
11
-44.7802280933
21
5.8666596922
31
0.0000000000
11
-45.0004969586
21
5.8628832574
31
0.0000000000
11
-45.2783161396
21
5.8604481896
31
0.0000000000
11
-45.5826972631
21
5.8596199525
31
0.0000000000
0
SPLINE
5
4BC
100
AcDbEntity
8
0
100
AcDbSpline
62
7
6
CONTINUOUS
70
0
71
3
72
12
73
8
74
6
42
0.0000001000
43
0.0000001000
44
0.0000000001
12
1.0002373320
22
0.0000000000
32
0.0000000000
13
0.7072746003
23
-0.7072746003
33
0.0000000000
40
0.0000000000
40
0.0000000000
40
0.0000000000
40
0.0000000000
40
0.3043100278
40
0.5820739579
40
0.8023229216
40
0.9470588590
40
1.0000000000
40
1.0000000000
40
1.0000000000
40
1.0000000000
10
-45.5826972631
20
-8.6403800475
30
0.0000000000
10
-45.4812365130
20
-8.6403800475
30
0.0000000000
10
-45.2866494762
20
-8.6399422224
30
0.0000000000
10
-45.0211616738
20
-8.6458242655
30
0.0000000000
10
-44.8017013516
20
-8.6397386921
30
0.0000000000
10
-44.6725569922
20
-8.6621828428
30
0.0000000000
10
-44.5953308761
20
-8.6450491714
30
0.0000000000
10
-44.5828495680
20
-8.6575304795
30
0.0000000000
11
-45.5826972631
21
-8.6403800475
31
0.0000000000
11
-45.2783161396
21
-8.6412082846
31
0.0000000000
11
-45.0004969586
21
-8.6436433524
31
0.0000000000
11
-44.7802280933
21
-8.6474197872
31
0.0000000000
11
-44.6355379459
21
-8.6522361646
31
0.0000000000
11
-44.5828495680
21
-8.6575304795
31
0.0000000000
0
SPLINE
5
4BD
100
AcDbEntity
8
0
100
AcDbSpline
62
7
6
CONTINUOUS
70
0
71
3
72
12
73
8
74
6
42
0.0000001000
43
0.0000001000
44
0.0000000001
12
-0.7072746003
22
-0.7072746003
32
0.0000000000
13
-1.0002373320
23
0.0000000000
33
0.0000000000
40
0.0000000000
40
0.0000000000
40
0.0000000000
40
0.0000000000
40
0.0529411410
40
0.1976770784
40
0.4179260421
40
0.6956899722
40
1.0000000000
40
1.0000000000
40
1.0000000000
40
1.0000000000
10
-44.5828495680
20
-24.1232296155
30
0.0000000000
10
-44.5953308761
20
-24.1357109236
30
0.0000000000
10
-44.6725569922
20
-24.1185772522
30
0.0000000000
10
-44.8017013516
20
-24.1410214029
30
0.0000000000
10
-45.0211616738
20
-24.1349358295
30
0.0000000000
10
-45.2866494762
20
-24.1408178727
30
0.0000000000
10
-45.4812365130
20
-24.1403800475
30
0.0000000000
10
-45.5826972631
20
-24.1403800475
30
0.0000000000
11
-44.5828495680
21
-24.1232296155
31
0.0000000000
11
-44.6355379459
21
-24.1285239304
31
0.0000000000
11
-44.7802280933
21
-24.1333403078
31
0.0000000000
11
-45.0004969586
21
-24.1371167426
31
0.0000000000
11
-45.2783161396
21
-24.1395518104
31
0.0000000000
11
-45.5826972631
21
-24.1403800475
31
0.0000000000
0
SPLINE
5
4BE
100
AcDbEntity
8
0
100
AcDbSpline
62
7
6
CONTINUOUS
70
0
71
3
72
11
73
7
74
5
42
0.0000001000
43
0.0000001000
44
0.0000000001
12
0.0002851606
22
0.3118204825
32
0.0000000000
13
0.3118204831
23
0.0002844662
33
0.0000000000
40
0.0000000000
40
0.0000000000
40
0.0000000000
40
0.0000000000
40
0.2509574342
40
0.5020535228
40
0.7533052089
40
1.0000000000
40
1.0000000000
40
1.0000000000
40
1.0000000000
10
31.8862104330
20
17.1198270392
30
0.0000000000
10
31.8862342874
20
17.1459115952
30
0.0000000000
10
31.8967825970
20
17.1986606875
30
0.0000000000
10
31.9416917299
20
17.2652086204
30
0.0000000000
10
32.0082476162
20
17.3093000060
30
0.0000000000
10
32.0605384757
20
17.3195295540
30
0.0000000000
10
32.0861799720
20
17.3195529461
30
0.0000000000
11
31.8862104330
21
17.1198270392
31
0.0000000000
11
31.9016225510
21
17.1965480163
31
0.0000000000
11
31.9453521523
21
17.2614951655
31
0.0000000000
11
32.0107010065
21
17.3047101806
31
0.0000000000
11
32.0861799720
21
17.3195529461
31
0.0000000000
0
SPLINE
5
4BF
100
AcDbEntity
8
0
100
AcDbSpline
62
7
6
CONTINUOUS
70
0
71
3
72
15
73
11
74
9
42
0.0000001000
43
0.0000001000
44
0.0000000001
12
-2.3510615012
22
0.0000000000
32
0.0000000000
13
0.0000000000
23
2.3510615012
33
0.0000000000
40
0.0000000000
40
0.0000000000
40
0.0000000000
40
0.0000000000
40
0.1428969159
40
0.2750789101
40
0.3987099751
40
0.5172839537
40
0.6375201338
40
0.7587461504
40
0.8797702697
40
1.0000000000
40
1.0000000000
40
1.0000000000
40
1.0000000000
10
-42.9358345290
20
-29.3903800475
30
0.0000000000
10
-43.0478210082
20
-29.3903800475
30
0.0000000000
10
-43.2642060967
20
-29.3660385558
30
0.0000000000
10
-43.5619838222
20
-29.2645810824
30
0.0000000000
10
-43.8168798944
20
-29.1155255969
30
0.0000000000
10
-44.0317410814
20
-28.9272616663
30
0.0000000000
10
-44.2065918244
20
-28.7036715061
30
0.0000000000
10
-44.3370263353
20
-28.4493501348
30
0.0000000000
10
-44.4170118666
20
-28.1750665306
30
0.0000000000
10
-44.4349207695
20
-27.9855163037
30
0.0000000000
10
-44.4349207695
20
-27.8912938070
30
0.0000000000
11
-42.9358345290
21
-29.3903800475
31
0.0000000000
11
-43.2696821193
21
-29.3527698069
31
0.0000000000
11
-43.5638611199
21
-29.2525926437
31
0.0000000000
11
-43.8147683889
21
-29.1058573679
31
0.0000000000
11
-44.0244462017
21
-28.9221441208
31
0.0000000000
11
-44.1985783745
21
-28.6994616802
31
0.0000000000
11
-44.3286563856
21
-28.4458669074
31
0.0000000000
11
-44.4082972380
21
-28.1727047121
31
0.0000000000
11
-44.4349207695
21
-27.8912938070
31
0.0000000000
0
SPLINE
5
4C0
100
AcDbEntity
8
0
100
AcDbSpline
62
7
6
CONTINUOUS
70
0
71
3
72
15
73
11
74
9
42
0.0000001000
43
0.0000001000
44
0.0000000001
12
0.0000000000
22
-2.3510615012
32
0.0000000000
13
-2.3510615012
23
-0.0000000000
33
0.0000000000
40
0.0000000000
40
0.0000000000
40
0.0000000000
40
0.0000000000
40
0.1428969159
40
0.2750789101
40
0.3987099751
40
0.5172839537
40
0.6375201338
40
0.7587461504
40
0.8797702697
40
1.0000000000
40
1.0000000000
40
1.0000000000
40
1.0000000000
10
44.4349207695
20
-27.8912938070
30
0.0000000000
10
44.4349207695
20
-28.0032802862
30
0.0000000000
10
44.4105792777
20
-28.2196653748
30
0.0000000000
10
44.3091218044
20
-28.5174431003
30
0.0000000000
10
44.1600663189
20
-28.7723391724
30
0.0000000000
10
43.9718023883
20
-28.9872003595
30
0.0000000000
10
43.7482122281
20
-29.1620511024
30
0.0000000000
10
43.4938908568
20
-29.2924856133
30
0.0000000000
10
43.2196072526
20
-29.3724711447
30
0.0000000000
10
43.0300570257
20
-29.3903800475
30
0.0000000000
10
42.9358345290
20
-29.3903800475
30
0.0000000000
11
44.4349207695
21
-27.8912938070
31
0.0000000000
11
44.3973105288
21
-28.2251413973
31
0.0000000000
11
44.2971333657
21
-28.5193203979
31
0.0000000000
11
44.1503980898
21
-28.7702276669
31
0.0000000000
11
43.9666848428
21
-28.9799054797
31
0.0000000000
11
43.7440024022
21
-29.1540376525
31
0.0000000000
11
43.4904076294
21
-29.2841156637
31
0.0000000000
11
43.2172454341
21
-29.3637565161
31
0.0000000000
11
42.9358345290
21
-29.3903800475
31
0.0000000000
0
SPLINE
5
4C1
100
AcDbEntity
8
0
100
AcDbSpline
62
7
6
CONTINUOUS
70
0
71
3
72
11
73
7
74
5
42
0.0000001000
43
0.0000001000
44
0.0000000001
12
0.0000000000
22
-0.7801178945
32
0.0000000000
13
-0.7801178945
23
0.0000000000
33
0.0000000000
40
0.0000000000
40
0.0000000000
40
0.0000000000
40
0.0000000000
40
0.2500016983
40
0.5000000000
40
0.7499983017
40
1.0000000000
40
1.0000000000
40
1.0000000000
40
1.0000000000
10
46.4500000000
20
22.6094486150
30
0.0000000000
10
46.4500000000
20
22.5444383488
30
0.0000000000
10
46.4240056703
20
22.4129944816
30
0.0000000000
10
46.3127786681
20
22.2468412844
30
0.0000000000
10
46.1466254709
20
22.1356142822
30
0.0000000000
10
46.0151816037
20
22.1096199525
30
0.0000000000
10
45.9501713375
20
22.1096199525
30
0.0000000000
11
46.4500000000
21
22.6094486150
31
0.0000000000
11
46.4119660369
21
22.4181623635
31
0.0000000000
11
46.3036243437
21
22.2559956088
31
0.0000000000
11
46.1414575890
21
22.1476539156
31
0.0000000000
11
45.9501713375
21
22.1096199525
31
0.0000000000
0
SPLINE
5
4C2
100
AcDbEntity
8
0
100
AcDbSpline
62
7
6
CONTINUOUS
70
0
71
3
72
11
73
7
74
5
42
0.0000001000
43
0.0000001000
44
0.0000000001
12
0.0000000000
22
0.7801178945
32
0.0000000000
13
0.7801178945
23
0.0000000000
33
0.0000000000
40
0.0000000000
40
0.0000000000
40
0.0000000000
40
0.0000000000
40
0.2500016983
40
0.5000000000
40
0.7499983017
40
1.0000000000
40
1.0000000000
40
1.0000000000
40
1.0000000000
10
32.7500000000
20
28.3097912900
30
0.0000000000
10
32.7500000000
20
28.3748015562
30
0.0000000000
10
32.7759943297
20
28.5062454234
30
0.0000000000
10
32.8872213319
20
28.6723986206
30
0.0000000000
10
33.0533745291
20
28.7836256228
30
0.0000000000
10
33.1848183963
20
28.8096199525
30
0.0000000000
10
33.2498286625
20
28.8096199525
30
0.0000000000
11
32.7500000000
21
28.3097912900
31
0.0000000000
11
32.7880339631
21
28.5010775415
31
0.0000000000
11
32.8963756563
21
28.6632442962
31
0.0000000000
11
33.0585424110
21
28.7715859894
31
0.0000000000
11
33.2498286625
21
28.8096199525
31
0.0000000000
0
SPLINE
5
4C3
100
AcDbEntity
8
0
100
AcDbSpline
62
7
6
CONTINUOUS
70
0
71
3
72
11
73
7
74
5
42
0.0000001000
43
0.0000001000
44
0.0000000001
12
-0.7801178945
22
0.0000000000
32
0.0000000000
13
-0.0000000000
23
0.7801178945
33
0.0000000000
40
0.0000000000
40
0.0000000000
40
0.0000000000
40
0.0000000000
40
0.2500016983
40
0.5000000000
40
0.7499983017
40
1.0000000000
40
1.0000000000
40
1.0000000000
40
1.0000000000
10
-45.9501713375
20
22.1096199525
30
0.0000000000
10
-46.0151816037
20
22.1096199525
30
0.0000000000
10
-46.1466254709
20
22.1356142822
30
0.0000000000
10
-46.3127786681
20
22.2468412844
30
0.0000000000
10
-46.4240056703
20
22.4129944816
30
0.0000000000
10
-46.4500000000
20
22.5444383488
30
0.0000000000
10
-46.4500000000
20
22.6094486150
30
0.0000000000
11
-45.9501713375
21
22.1096199525
31
0.0000000000
11
-46.1414575890
21
22.1476539156
31
0.0000000000
11
-46.3036243437
21
22.2559956088
31
0.0000000000
11
-46.4119660369
21
22.4181623635
31
0.0000000000
11
-46.4500000000
21
22.6094486150
31
0.0000000000
0
SPLINE
5
4C4
100
AcDbEntity
8
0
100
AcDbSpline
62
7
6
CONTINUOUS
70
0
71
3
72
11
73
7
74
5
42
0.0000001000
43
0.0000001000
44
0.0000000001
12
0.7801178945
22
0.0000000000
32
0.0000000000
13
-0.0000000000
23
-0.7801178945
33
0.0000000000
40
0.0000000000
40
0.0000000000
40
0.0000000000
40
0.0000000000
40
0.2500016983
40
0.5000000000
40
0.7499983017
40
1.0000000000
40
1.0000000000
40
1.0000000000
40
1.0000000000
10
-33.2498286625
20
28.8096199525
30
0.0000000000
10
-33.1848183963
20
28.8096199525
30
0.0000000000
10
-33.0533745291
20
28.7836256228
30
0.0000000000
10
-32.8872213319
20
28.6723986206
30
0.0000000000
10
-32.7759943297
20
28.5062454234
30
0.0000000000
10
-32.7500000000
20
28.3748015562
30
0.0000000000
10
-32.7500000000
20
28.3097912900
30
0.0000000000
11
-33.2498286625
21
28.8096199525
31
0.0000000000
11
-33.0585424110
21
28.7715859894
31
0.0000000000
11
-32.8963756563
21
28.6632442962
31
0.0000000000
11
-32.7880339631
21
28.5010775415
31
0.0000000000
11
-32.7500000000
21
28.3097912900
31
0.0000000000
0
SPLINE
5
4C5
100
AcDbEntity
8
0
100
AcDbSpline
62
7
6
CONTINUOUS
70
0
71
3
72
13
73
9
74
7
42
0.0000001000
43
0.0000001000
44
0.0000000001
12
4.6974776616
22
0.0000000000
32
0.0000000000
13
0.0000000000
23
-4.6974776616
33
0.0000000000
40
0.0000000000
40
0.0000000000
40
0.0000000000
40
0.0000000000
40
0.1667129228
40
0.3333687515
40
0.5000000000
40
0.6666312485
40
0.8332870772
40
1.0000000000
40
1.0000000000
40
1.0000000000
40
1.0000000000
10
43.4510280251
20
28.8096199525
30
0.0000000000
10
43.7120714354
20
28.8096199525
30
0.0000000000
10
44.2366340036
20
28.7407305449
30
0.0000000000
10
44.9678430407
20
28.4377124844
30
0.0000000000
10
45.5961334017
20
27.9557533542
30
0.0000000000
10
46.0780925319
20
27.3274629932
30
0.0000000000
10
46.3811105924
20
26.5962539561
30
0.0000000000
10
46.4500000000
20
26.0716913879
30
0.0000000000
10
46.4500000000
20
25.8106479776
30
0.0000000000
11
43.4510280251
21
28.8096199525
31
0.0000000000
11
44.2274611504
21
28.7074213198
31
0.0000000000
11
44.9507428329
21
28.4078606928
31
0.0000000000
11
45.5717460624
21
27.9313660149
31
0.0000000000
11
46.0482407403
21
27.3103627854
31
0.0000000000
11
46.3478013673
21
26.5870811029
31
0.0000000000
11
46.4500000000
21
25.8106479776
31
0.0000000000
0
SPLINE
5
4C6
100
AcDbEntity
8
0
100
AcDbSpline
62
7
6
CONTINUOUS
70
0
71
3
72
13
73
9
74
7
42
0.0000001000
43
0.0000001000
44
0.0000000001
12
0.0000000000
22
4.6974776616
32
0.0000000000
13
4.6974776616
23
0.0000000000
33
0.0000000000
40
0.0000000000
40
0.0000000000
40
0.0000000000
40
0.0000000000
40
0.1667129228
40
0.3333687515
40
0.5000000000
40
0.6666312485
40
0.8332870772
40
1.0000000000
40
1.0000000000
40
1.0000000000
40
1.0000000000
10
-46.4500000000
20
25.8106479776
30
0.0000000000
10
-46.4500000000
20
26.0716913879
30
0.0000000000
10
-46.3811105924
20
26.5962539561
30
0.0000000000
10
-46.0780925319
20
27.3274629932
30
0.0000000000
10
-45.5961334017
20
27.9557533542
30
0.0000000000
10
-44.9678430407
20
28.4377124844
30
0.0000000000
10
-44.2366340036
20
28.7407305449
30
0.0000000000
10
-43.7120714354
20
28.8096199525
30
0.0000000000
10
-43.4510280251
20
28.8096199525
30
0.0000000000
11
-46.4500000000
21
25.8106479776
31
0.0000000000
11
-46.3478013673
21
26.5870811029
31
0.0000000000
11
-46.0482407403
21
27.3103627854
31
0.0000000000
11
-45.5717460624
21
27.9313660149
31
0.0000000000
11
-44.9507428329
21
28.4078606928
31
0.0000000000
11
-44.2274611504
21
28.7074213198
31
0.0000000000
11
-43.4510280251
21
28.8096199525
31
0.0000000000
0
SPLINE
5
4C7
100
AcDbEntity
8
0
100
AcDbSpline
62
7
6
CONTINUOUS
70
0
71
3
72
8
73
4
74
2
42
0.0000001000
43
0.0000001000
44
0.0000000001
12
0.0000079797
22
-0.0261985716
32
0.0000000000
13
0.0034841138
23
-0.0261235634
33
0.0000000000
40
0.0000000000
40
0.0000000000
40
0.0000000000
40
0.0000000000
40
1.0000000000
40
1.0000000000
40
1.0000000000
40
1.0000000000
10
-45.1534300864
20
23.6061594051
30
0.0000000000
10
-45.1534274265
20
23.5974265479
30
0.0000000000
10
-45.1528379841
20
23.5886616748
30
0.0000000000
10
-45.1516766129
20
23.5799538203
30
0.0000000000
11
-45.1534300864
21
23.6061594051
31
0.0000000000
11
-45.1516766129
21
23.5799538203
31
0.0000000000
0
SPLINE
5
4C8
100
AcDbEntity
8
0
100
AcDbSpline
62
7
6
CONTINUOUS
70
0
71
3
72
11
73
7
74
5
42
0.0000001000
43
0.0000001000
44
0.0000000001
12
0.0346206917
22
-0.2595827467
32
0.0000000000
13
0.2596239148
23
-0.0337313361
33
0.0000000000
40
0.0000000000
40
0.0000000000
40
0.0000000000
40
0.0000000000
40
0.2003606783
40
0.5015156224
40
0.8027280086
40
1.0000000000
40
1.0000000000
40
1.0000000000
40
1.0000000000
10
-45.1516766129
20
23.5799538203
30
0.0000000000
10
-45.1493644044
20
23.5626170952
30
0.0000000000
10
-45.1379023218
20
23.5197878799
30
0.0000000000
10
-45.0979972656
20
23.4605479525
30
0.0000000000
10
-45.0386824037
20
23.4212321651
30
0.0000000000
10
-44.9960805005
20
23.4100731537
30
0.0000000000
10
-44.9790083249
20
23.4078550711
30
0.0000000000
11
-45.1516766129
21
23.5799538203
31
0.0000000000
11
-45.1380561702
21
23.5293243064
31
0.0000000000
11
-45.0943165619
21
23.4642607652
31
0.0000000000
11
-45.0289182837
21
23.4209961388
31
0.0000000000
11
-44.9790083249
21
23.4078550711
31
0.0000000000
0
SPLINE
5
4C9
100
AcDbEntity
8
0
100
AcDbSpline
62
7
6
CONTINUOUS
70
0
71
3
72
8
73
4
74
2
42
0.0000001000
43
0.0000001000
44
0.0000000001
12
0.0254721261
22
-0.0033094364
32
0.0000000000
13
0.0255412131
23
-0.0000077795
33
0.0000000000
40
0.0000000000
40
0.0000000000
40
0.0000000000
40
0.0000000000
40
1.0000000000
40
1.0000000000
40
1.0000000000
40
1.0000000000
10
-44.9790083249
20
23.4078550711
30
0.0000000000
10
-44.9705176162
20
23.4067519256
30
0.0000000000
10
-44.9619742851
20
23.4061924593
30
0.0000000000
10
-44.9534605474
20
23.4061898661
30
0.0000000000
11
-44.9790083249
21
23.4078550711
31
0.0000000000
11
-44.9534605474
21
23.4061898661
31
0.0000000000
0
SPLINE
5
4CA
100
AcDbEntity
8
0
100
AcDbSpline
62
7
6
CONTINUOUS
70
0
71
3
72
8
73
4
74
2
42
0.0000001000
43
0.0000001000
44
0.0000000001
12
0.0261985716
22
-0.0000079797
32
0.0000000000
13
0.0261235634
23
-0.0034841138
33
0.0000000000
40
0.0000000000
40
0.0000000000
40
0.0000000000
40
0.0000000000
40
1.0000000000
40
1.0000000000
40
1.0000000000
40
1.0000000000
10
-34.2465394526
20
27.5130500389
30
0.0000000000
10
-34.2378065954
20
27.5130473790
30
0.0000000000
10
-34.2290417223
20
27.5124579366
30
0.0000000000
10
-34.2203338678
20
27.5112965653
30
0.0000000000
11
-34.2465394526
21
27.5130500389
31
0.0000000000
11
-34.2203338678
21
27.5112965653
31
0.0000000000
0
SPLINE
5
4CB
100
AcDbEntity
8
0
100
AcDbSpline
62
7
6
CONTINUOUS
70
0
71
3
72
11
73
7
74
5
42
0.0000001000
43
0.0000001000
44
0.0000000001
12
0.2595827467
22
-0.0346206917
32
0.0000000000
13
0.0337313361
23
-0.2596239148
33
0.0000000000
40
0.0000000000
40
0.0000000000
40
0.0000000000
40
0.0000000000
40
0.2003606783
40
0.5015156224
40
0.8027280086
40
1.0000000000
40
1.0000000000
40
1.0000000000
40
1.0000000000
10
-34.2203338678
20
27.5112965653
30
0.0000000000
10
-34.2029971428
20
27.5089843569
30
0.0000000000
10
-34.1601679274
20
27.4975222743
30
0.0000000000
10
-34.1009280000
20
27.4576172181
30
0.0000000000
10
-34.0616122126
20
27.3983023562
30
0.0000000000
10
-34.0504532012
20
27.3557004530
30
0.0000000000
10
-34.0482351186
20
27.3386282774
30
0.0000000000
11
-34.2203338678
21
27.5112965653
31
0.0000000000
11
-34.1697043539
21
27.4976761227
31
0.0000000000
11
-34.1046408127
21
27.4539365143
31
0.0000000000
11
-34.0613761863
21
27.3885382362
31
0.0000000000
11
-34.0482351186
21
27.3386282774
31
0.0000000000
0
SPLINE
5
4CC
100
AcDbEntity
8
0
100
AcDbSpline
62
7
6
CONTINUOUS
70
0
71
3
72
8
73
4
74
2
42
0.0000001000
43
0.0000001000
44
0.0000000001
12
0.0033094364
22
-0.0254721261
32
0.0000000000
13
0.0000077795
23
-0.0255412131
33
0.0000000000
40
0.0000000000
40
0.0000000000
40
0.0000000000
40
0.0000000000
40
1.0000000000
40
1.0000000000
40
1.0000000000
40
1.0000000000
10
-34.0482351186
20
27.3386282774
30
0.0000000000
10
-34.0471319731
20
27.3301375687
30
0.0000000000
10
-34.0465725068
20
27.3215942376
30
0.0000000000
10
-34.0465699136
20
27.3130804999
30
0.0000000000
11
-34.0482351186
21
27.3386282774
31
0.0000000000
11
-34.0465699136
21
27.3130804999
31
0.0000000000
0
SPLINE
5
4CD
100
AcDbEntity
8
0
100
AcDbSpline
62
7
6
CONTINUOUS
70
0
71
3
72
12
73
8
74
6
42
0.0000001000
43
0.0000001000
44
0.0000000001
12
0.0000000000
22
-0.7824106927
32
0.0000000000
13
-0.7824106927
23
-0.0000000000
33
0.0000000000
40
0.0000000000
40
0.0000000000
40
0.0000000000
40
0.0000000000
40
0.2005581612
40
0.4006750265
40
0.6001161878
40
0.7997558196
40
1.0000000000
40
1.0000000000
40
1.0000000000
40
1.0000000000
10
-36.0000000000
20
-25.4329318126
30
0.0000000000
10
-36.0000000000
20
-25.4852380959
30
0.0000000000
10
-36.0166520775
20
-25.5904756377
30
0.0000000000
10
-36.0889607592
20
-25.7320744644
30
0.0000000000
10
-36.2013335970
20
-25.8444145115
30
0.0000000000
10
-36.3427453807
20
-25.9166114690
30
0.0000000000
10
-36.4477756040
20
-25.9332365848
30
0.0000000000
10
-36.5000000000
20
-25.9332365848
30
0.0000000000
11
-36.0000000000
21
-25.4329318126
31
0.0000000000
11
-36.0245942713
21
-25.5879113186
31
0.0000000000
11
-36.0957622096
21
-25.7273760418
31
0.0000000000
11
-36.2061217392
21
-25.8376973187
31
0.0000000000
11
-36.3452639050
21
-25.9086758700
31
0.0000000000
11
-36.5000000000
21
-25.9332365848
31
0.0000000000
0
SPLINE
5
4CE
100
AcDbEntity
8
0
100
AcDbSpline
62
7
6
CONTINUOUS
70
0
71
3
72
12
73
8
74
6
42
0.0000001000
43
0.0000001000
44
0.0000000001
12
0.0000000000
22
0.7821871808
32
0.0000000000
13
0.7821871808
23
0.0000000000
33
0.0000000000
40
0.0000000000
40
0.0000000000
40
0.0000000000
40
0.0000000000
40
0.2004526707
40
0.4005143086
40
0.5999564665
40
0.7996498866
40
1.0000000000
40
1.0000000000
40
1.0000000000
40
1.0000000000
10
-40.9607290949
20
-0.2903800475
30
0.0000000000
10
-40.9607290949
20
-0.2381162110
30
0.0000000000
10
-40.9440802750
20
-0.1329505292
30
0.0000000000
10
-40.8717815476
20
0.0085567184
30
0.0000000000
10
-40.7594116153
20
0.1208353368
30
0.0000000000
10
-40.6179889169
20
0.1930010639
30
0.0000000000
10
-40.5129471525
20
0.2096199525
30
0.0000000000
10
-40.4607100557
20
0.2096199525
30
0.0000000000
11
-40.9607290949
21
-0.2903800475
31
0.0000000000
11
-40.9361446275
21
-0.1355279201
31
0.0000000000
11
-40.8649916824
21
0.0038457382
31
0.0000000000
11
-40.7546380067
21
0.1141109150
31
0.0000000000
11
-40.6154853823
21
0.1850633482
31
0.0000000000
11
-40.4607100557
21
0.2096199525
31
0.0000000000
0
SPLINE
5
4CF
100
AcDbEntity
8
0
100
AcDbSpline
62
7
6
CONTINUOUS
70
0
71
3
72
12
73
8
74
6
42
0.0000001000
43
0.0000001000
44
0.0000000001
12
-0.7821980168
22
0.0000000000
32
0.0000000000
13
0.0000000000
23
0.7821980168
33
0.0000000000
40
0.0000000000
40
0.0000000000
40
0.0000000000
40
0.0000000000
40
0.2002653953
40
0.3998999486
40
0.5993252533
40
0.7994315263
40
1.0000000000
40
1.0000000000
40
1.0000000000
40
1.0000000000
10
-40.4608623374
20
-25.9332365848
30
0.0000000000
10
-40.5130780691
20
-25.9332365848
30
0.0000000000
10
-40.6180842024
20
-25.9166193734
30
0.0000000000
10
-40.7594610623
20
-25.8444483133
30
0.0000000000
10
-40.8717997724
20
-25.7321462759
30
0.0000000000
10
-40.9440845296
20
-25.5905880796
30
0.0000000000
10
-40.9607290949
20
-25.4853789354
30
0.0000000000
10
-40.9607290949
20
-25.4330841813
30
0.0000000000
11
-40.4608623374
21
-25.9332365848
31
0.0000000000
11
-40.6155733294
21
-25.9086835265
31
0.0000000000
11
-40.7546765710
21
-25.8377308497
31
0.0000000000
11
-40.8649990279
21
-25.7274500269
31
0.0000000000
11
-40.9361424532
21
-25.5880298776
31
0.0000000000
11
-40.9607290949
21
-25.4330841813
31
0.0000000000
0
SPLINE
5
4D0
100
AcDbEntity
8
0
100
AcDbSpline
62
7
6
CONTINUOUS
70
0
71
3
72
12
73
8
74
6
42
0.0000001000
43
0.0000001000
44
0.0000000001
12
0.7811965698
22
0.0000000000
32
0.0000000000
13
0.0000000000
23
-0.7811965698
33
0.0000000000
40
0.0000000000
40
0.0000000000
40
0.0000000000
40
0.0000000000
40
0.2004786115
40
0.4000945666
40
0.5993934927
40
0.7993924508
40
1.0000000000
40
1.0000000000
40
1.0000000000
40
1.0000000000
10
34.5006852326
20
14.1096199525
30
0.0000000000
10
34.5528896338
20
14.1096199525
30
0.0000000000
10
34.6578139692
20
14.0930516078
30
0.0000000000
10
34.7990589017
20
14.0210273891
30
0.0000000000
10
34.9112372110
20
13.9089409308
30
0.0000000000
10
34.9833998819
20
13.7676021238
30
0.0000000000
10
35.0000000000
20
13.6625431616
30
0.0000000000
10
35.0000000000
20
13.6103051851
30
0.0000000000
11
34.5006852326
21
14.1096199525
31
0.0000000000
11
34.6553678427
21
14.0851049426
31
0.0000000000
11
34.7943047064
21
14.0142980714
31
0.0000000000
11
34.9044400067
21
13.9042521648
31
0.0000000000
11
34.9754534333
21
13.7650847759
31
0.0000000000
11
35.0000000000
21
13.6103051851
31
0.0000000000
0
SPLINE
5
4D1
100
AcDbEntity
8
0
100
AcDbSpline
62
7
6
CONTINUOUS
70
0
71
3
72
12
73
8
74
6
42
0.0000001000
43
0.0000001000
44
0.0000000001
12
0.0000000000
22
0.7811965698
32
0.0000000000
13
0.7811965698
23
-0.0000000000
33
0.0000000000
40
0.0000000000
40
0.0000000000
40
0.0000000000
40
0.0000000000
40
0.2004786115
40
0.4000945666
40
0.5993934927
40
0.7993924508
40
1.0000000000
40
1.0000000000
40
1.0000000000
40
1.0000000000
10
30.0000000000
20
13.6103051851
30
0.0000000000
10
30.0000000000
20
13.6625095863
30
0.0000000000
10
30.0165683447
20
13.7674339217
30
0.0000000000
10
30.0885925634
20
13.9086788542
30
0.0000000000
10
30.2006790217
20
14.0208571635
30
0.0000000000
10
30.3420178286
20
14.0930198344
30
0.0000000000
10
30.4470767909
20
14.1096199525
30
0.0000000000
10
30.4993147674
20
14.1096199525
30
0.0000000000
11
30.0000000000
21
13.6103051851
31
0.0000000000
11
30.0245150099
21
13.7649877952
31
0.0000000000
11
30.0953218811
21
13.9039246588
31
0.0000000000
11
30.2053677877
21
14.0140599592
31
0.0000000000
11
30.3445351766
21
14.0850733858
31
0.0000000000
11
30.4993147674
21
14.1096199525
31
0.0000000000
0
SPLINE
5
4D2
100
AcDbEntity
8
0
100
AcDbSpline
62
7
6
CONTINUOUS
70
0
71
3
72
12
73
8
74
6
42
0.0000001000
43
0.0000001000
44
0.0000000001
12
-0.7811965698
22
0.0000000000
32
0.0000000000
13
0.0000000000
23
0.7811965698
33
0.0000000000
40
0.0000000000
40
0.0000000000
40
0.0000000000
40
0.0000000000
40
0.2004786115
40
0.4000945666
40
0.5993934927
40
0.7993924508
40
1.0000000000
40
1.0000000000
40
1.0000000000
40
1.0000000000
10
30.4993147674
20
-16.8903800475
30
0.0000000000
10
30.4471103662
20
-16.8903800475
30
0.0000000000
10
30.3421860308
20
-16.8738117028
30
0.0000000000
10
30.2009410983
20
-16.8017874841
30
0.0000000000
10
30.0887627890
20
-16.6897010258
30
0.0000000000
10
30.0166001181
20
-16.5483622189
30
0.0000000000
10
30.0000000000
20
-16.4433032566
30
0.0000000000
10
30.0000000000
20
-16.3910652801
30
0.0000000000
11
30.4993147674
21
-16.8903800475
31
0.0000000000
11
30.3446321573
21
-16.8658650376
31
0.0000000000
11
30.2056952936
21
-16.7950581665
31
0.0000000000
11
30.0955599933
21
-16.6850122598
31
0.0000000000
11
30.0245465667
21
-16.5458448709
31
0.0000000000
11
30.0000000000
21
-16.3910652801
31
0.0000000000
0
SPLINE
5
4D3
100
AcDbEntity
8
0
100
AcDbSpline
62
7
6
CONTINUOUS
70
0
71
3
72
12
73
8
74
6
42
0.0000001000
43
0.0000001000
44
0.0000000001
12
0.0000000000
22
-0.7811965698
32
0.0000000000
13
-0.7811965698
23
0.0000000000
33
0.0000000000
40
0.0000000000
40
0.0000000000
40
0.0000000000
40
0.0000000000
40
0.2004786115
40
0.4000945666
40
0.5993934927
40
0.7993924508
40
1.0000000000
40
1.0000000000
40
1.0000000000
40
1.0000000000
10
35.0000000000
20
-16.3910652801
30
0.0000000000
10
35.0000000000
20
-16.4432696813
30
0.0000000000
10
34.9834316553
20
-16.5481940167
30
0.0000000000
10
34.9114074366
20
-16.6894389492
30
0.0000000000
10
34.7993209783
20
-16.8016172585
30
0.0000000000
10
34.6579821714
20
-16.8737799294
30
0.0000000000
10
34.5529232091
20
-16.8903800475
30
0.0000000000
10
34.5006852326
20
-16.8903800475
30
0.0000000000
11
35.0000000000
21
-16.3910652801
31
0.0000000000
11
34.9754849901
21
-16.5457478902
31
0.0000000000
11
34.9046781189
21
-16.6846847539
31
0.0000000000
11
34.7946322123
21
-16.7948200542
31
0.0000000000
11
34.6554648234
21
-16.8658334808
31
0.0000000000
11
34.5006852326
21
-16.8903800475
31
0.0000000000
0
SPLINE
5
4D4
100
AcDbEntity
8
0
100
AcDbSpline
62
9
6
CONTINUOUS
70
0
71
3
72
13
73
9
74
7
42
0.0000001000
43
0.0000001000
44
0.0000000001
12
-0.0002139176
22
-0.7827212073
32
0.0000000000
13
-0.7827212197
23
-0.0001623695
33
0.0000000000
40
0.0000000000
40
0.0000000000
40
0.0000000000
40
0.0000000000
40
0.1657245566
40
0.3328000955
40
0.5000534630
40
0.6672457725
40
0.8342736681
40
1.0000000000
40
1.0000000000
40
1.0000000000
40
1.0000000000
10
43.3120885320
20
-27.7678523965
30
0.0000000000
10
43.3120767148
20
-27.8110911048
30
0.0000000000
10
43.3007146871
20
-27.8983419361
30
0.0000000000
10
43.2503613618
20
-28.0202657310
30
0.0000000000
10
43.1698461044
20
-28.1253429485
30
0.0000000000
10
43.0647691354
20
-28.2058359305
30
0.0000000000
10
42.9428712251
20
-28.2561735837
30
0.0000000000
10
42.8556322907
20
-28.2675388404
30
0.0000000000
10
42.8123931185
20
-28.2675478100
30
0.0000000000
11
43.3120885320
21
-27.7678523965
31
0.0000000000
11
43.2952682838
21
-27.8964733652
31
0.0000000000
11
43.2453825101
21
-28.0173581733
31
0.0000000000
11
43.1657383209
21
-28.1212569439
31
0.0000000000
11
43.0618671398
21
-28.2008585672
31
0.0000000000
11
42.9410153676
21
-28.2507266363
31
0.0000000000
11
42.8123931185
21
-28.2675478100
31
0.0000000000
0
SPLINE
5
4D5
100
AcDbEntity
8
0
100
AcDbSpline
62
9
6
CONTINUOUS
70
0
71
3
72
13
73
9
74
7
42
0.0000001000
43
0.0000001000
44
0.0000000001
12
0.0001623637
22
0.7827212197
32
0.0000000000
13
0.7827212073
23
0.0002139231
33
0.0000000000
40
0.0000000000
40
0.0000000000
40
0.0000000000
40
0.0000000000
40
0.1657263319
40
0.3327542275
40
0.4999465370
40
0.6671999044
40
0.8342754433
40
1.0000000000
40
1.0000000000
40
1.0000000000
40
1.0000000000
10
-43.2771677625
20
24.9870923015
30
0.0000000000
10
-43.2771587932
20
25.0303314737
30
0.0000000000
10
-43.2657935356
20
25.1175704079
30
0.0000000000
10
-43.2154558833
20
25.2394683185
30
0.0000000000
10
-43.1349629009
20
25.3445452874
30
0.0000000000
10
-43.0298856834
20
25.4250605446
30
0.0000000000
10
-42.9079618887
20
25.4754138707
30
0.0000000000
10
-42.8207110573
20
25.4867758975
30
0.0000000000
10
-42.7774723490
20
25.4867877150
30
0.0000000000
11
-43.2771677625
21
24.9870923015
31
0.0000000000
11
-43.2603465886
21
25.1157145505
31
0.0000000000
11
-43.2104785198
21
25.2365663229
31
0.0000000000
11
-43.1308768964
21
25.3404375039
31
0.0000000000
11
-43.0269781258
21
25.4200816931
31
0.0000000000
11
-42.9060933178
21
25.4699674670
31
0.0000000000
11
-42.7774723490
21
25.4867877150
31
0.0000000000
0
SPLINE
5
4D6
100
AcDbEntity
8
0
100
AcDbSpline
62
7
6
CONTINUOUS
70
0
71
3
72
11
73
7
74
5
42
0.0000001000
43
0.0000001000
44
0.0000000001
12
0.1791272387
22
0.0895363312
32
0.0000000000
13
0.0000000000
23
0.2002581390
33
0.0000000000
40
0.0000000000
40
0.0000000000
40
0.0000000000
40
0.0000000000
40
0.0814888752
40
0.3014516178
40
0.6249974447
40
1.0000000000
40
1.0000000000
40
1.0000000000
40
1.0000000000
10
44.3232961974
20
23.4061898661
30
0.0000000000
10
44.3281618231
20
23.4086219377
30
0.0000000000
10
44.3227650834
20
23.4351510525
30
0.0000000000
10
44.3308290470
20
23.4711781516
30
0.0000000000
10
44.3289965434
20
23.5352762979
30
0.0000000000
10
44.3301584610
20
23.5811269672
30
0.0000000000
10
44.3301584610
20
23.6061594051
30
0.0000000000
11
44.3232961974
21
23.4061898661
31
0.0000000000
11
44.3259226894
21
23.4222959244
31
0.0000000000
11
44.3281663909
21
23.4662880741
31
0.0000000000
11
44.3296474400
21
23.5310638300
31
0.0000000000
11
44.3301584610
21
23.6061594051
31
0.0000000000
0
SPLINE
5
4D7
100
AcDbEntity
8
0
100
AcDbSpline
62
7
6
CONTINUOUS
70
0
71
3
72
11
73
7
74
5
42
0.0000001000
43
0.0000001000
44
0.0000000001
12
0.0000000000
22
-0.2002581390
32
0.0000000000
13
0.1791272387
23
-0.0895363312
33
0.0000000000
40
0.0000000000
40
0.0000000000
40
0.0000000000
40
0.0000000000
40
0.3750025553
40
0.6985483822
40
0.9185111248
40
1.0000000000
40
1.0000000000
40
1.0000000000
40
1.0000000000
10
-44.3301584610
20
23.6061594051
30
0.0000000000
10
-44.3301584610
20
23.5811269672
30
0.0000000000
10
-44.3289965434
20
23.5352762979
30
0.0000000000
10
-44.3308290470
20
23.4711781516
30
0.0000000000
10
-44.3227650834
20
23.4351510525
30
0.0000000000
10
-44.3281618231
20
23.4086219377
30
0.0000000000
10
-44.3232961974
20
23.4061898661
30
0.0000000000
11
-44.3301584610
21
23.6061594051
31
0.0000000000
11
-44.3296474400
21
23.5310638300
31
0.0000000000
11
-44.3281663909
21
23.4662880741
31
0.0000000000
11
-44.3259226894
21
23.4222959244
31
0.0000000000
11
-44.3232961974
21
23.4061898661
31
0.0000000000
0
SPLINE
5
4D8
100
AcDbEntity
8
0
100
AcDbSpline
62
9
6
CONTINUOUS
70
0
71
3
72
13
73
9
74
7
42
0.0000001000
43
0.0000001000
44
0.0000000001
12
0.7827212197
22
-0.0001623637
32
0.0000000000
13
0.0002139231
23
-0.7827212073
33
0.0000000000
40
0.0000000000
40
0.0000000000
40
0.0000000000
40
0.0000000000
40
0.1657263319
40
0.3327542275
40
0.4999465370
40
0.6671999044
40
0.8342754433
40
1.0000000000
40
1.0000000000
40
1.0000000000
40
1.0000000000
10
42.7774723490
20
25.4867877150
30
0.0000000000
10
42.8207115212
20
25.4867787457
30
0.0000000000
10
42.9079504554
20
25.4754134881
30
0.0000000000
10
43.0298483660
20
25.4250758358
30
0.0000000000
10
43.1349253349
20
25.3445828534
30
0.0000000000
10
43.2154405921
20
25.2395056359
30
0.0000000000
10
43.2657939182
20
25.1175818412
30
0.0000000000
10
43.2771559450
20
25.0303310098
30
0.0000000000
10
43.2771677625
20
24.9870923015
30
0.0000000000
11
42.7774723490
21
25.4867877150
31
0.0000000000
11
42.9060945980
21
25.4699665411
31
0.0000000000
11
43.0269463704
21
25.4200984723
31
0.0000000000
11
43.1308175514
21
25.3404968489
31
0.0000000000
11
43.2104617406
21
25.2365980782
31
0.0000000000
11
43.2603475145
21
25.1157132703
31
0.0000000000
11
43.2771677625
21
24.9870923015
31
0.0000000000
0
SPLINE
5
4D9
100
AcDbEntity
8
0
100
AcDbSpline
62
7
6
CONTINUOUS
70
0
71
3
72
11
73
7
74
5
42
0.0000001000
43
0.0000001000
44
0.0000000001
12
-0.2006155389
22
0.0000000000
32
0.0000000000
13
-0.0633938039
23
0.1903360714
33
0.0000000000
40
0.0000000000
40
0.0000000000
40
0.0000000000
40
0.0000000000
40
0.3742615028
40
0.6973315418
40
0.9173084233
40
1.0000000000
40
1.0000000000
40
1.0000000000
40
1.0000000000
10
32.0861799720
20
15.7144355111
30
0.0000000000
10
32.0611524144
20
15.7144355111
30
0.0000000000
10
32.0154325397
20
15.7156019481
30
0.0000000000
10
31.9508375021
20
15.7149191944
30
0.0000000000
10
31.9157225733
20
15.7228587473
30
0.0000000000
10
31.8879578109
20
15.7194877419
30
0.0000000000
10
31.8862104330
20
15.7247341385
30
0.0000000000
11
32.0861799720
21
15.7144355111
31
0.0000000000
11
32.0111012122
21
15.7152020753
31
0.0000000000
11
31.9463264472
21
15.7174242221
31
0.0000000000
11
31.9023243150
21
15.7207914403
31
0.0000000000
11
31.8862104330
21
15.7247341385
31
0.0000000000
0
SPLINE
5
4DA
100
AcDbEntity
8
0
100
AcDbSpline
62
7
6
CONTINUOUS
70
0
71
3
72
11
73
7
74
5
42
0.0000001000
43
0.0000001000
44
0.0000000001
12
0.3121097150
22
0.0000000000
32
0.0000000000
13
0.0000000000
23
-0.3121097150
33
0.0000000000
40
0.0000000000
40
0.0000000000
40
0.0000000000
40
0.0000000000
40
0.2476602757
40
0.4983421865
40
0.7505917120
40
1.0000000000
40
1.0000000000
40
1.0000000000
40
1.0000000000
10
33.0501522399
20
17.7288821868
30
0.0000000000
10
33.0759179659
20
17.7288821868
30
0.0000000000
10
33.1283198931
20
17.7186025430
30
0.0000000000
10
33.1949665570
20
17.6742154654
30
0.0000000000
10
33.2396181588
20
17.6074932564
30
0.0000000000
10
33.2500000000
20
17.5547382292
30
0.0000000000
10
33.2500000000
20
17.5287906459
30
0.0000000000
11
33.0501522399
21
17.7288821868
31
0.0000000000
11
33.1259885419
21
17.7139252809
31
0.0000000000
11
33.1911485981
21
17.6706158672
31
0.0000000000
11
33.2348837899
21
17.6051515906
31
0.0000000000
11
33.2500000000
21
17.5287906459
31
0.0000000000
0
SPLINE
5
4DB
100
AcDbEntity
8
0
100
AcDbSpline
62
9
6
CONTINUOUS
70
0
71
3
72
11
73
7
74
5
42
0.0000001000
43
0.0000001000
44
0.0000000001
12
0.3118208881
22
-0.0002844666
32
0.0000000000
13
0.0002851610
23
-0.3118208875
33
0.0000000000
40
0.0000000000
40
0.0000000000
40
0.0000000000
40
0.0000000000
40
0.2501098177
40
0.5001989212
40
0.7501715417
40
1.0000000000
40
1.0000000000
40
1.0000000000
40
1.0000000000
10
32.9138200280
20
17.3195529461
30
0.0000000000
10
32.9398165164
20
17.3195292301
30
0.0000000000
10
32.9923639385
20
17.3090999010
30
0.0000000000
10
33.0587955816
20
17.2646533425
30
0.0000000000
10
33.1033149130
20
17.1983017136
30
0.0000000000
10
33.1137658199
20
17.1457942830
30
0.0000000000
10
33.1137895670
20
17.1198270392
30
0.0000000000
11
32.9138200280
21
17.3195529461
31
0.0000000000
11
32.9903029008
21
17.3042973914
31
0.0000000000
11
33.0551553128
21
17.2609901287
31
0.0000000000
11
33.0985154031
21
17.1962167294
31
0.0000000000
11
33.1137895670
21
17.1198270392
31
0.0000000000
0
SPLINE
5
4DC
100
AcDbEntity
8
0
100
AcDbSpline
62
7
6
CONTINUOUS
70
0
71
3
72
11
73
7
74
5
42
0.0000001000
43
0.0000001000
44
0.0000000001
12
-0.0633938039
22
-0.1903360714
32
0.0000000000
13
-0.2006155389
23
0.0000000000
33
0.0000000000
40
0.0000000000
40
0.0000000000
40
0.0000000000
40
0.0000000000
40
0.0826915767
40
0.3026684582
40
0.6257384972
40
1.0000000000
40
1.0000000000
40
1.0000000000
40
1.0000000000
10
33.1137895670
20
15.7247341385
30
0.0000000000
10
33.1120421891
20
15.7194877419
30
0.0000000000
10
33.0842774267
20
15.7228587473
30
0.0000000000
10
33.0491624979
20
15.7149191944
30
0.0000000000
10
32.9845674603
20
15.7156019481
30
0.0000000000
10
32.9388475856
20
15.7144355111
30
0.0000000000
10
32.9138200280
20
15.7144355111
30
0.0000000000
11
33.1137895670
21
15.7247341385
31
0.0000000000
11
33.0976756850
21
15.7207914403
31
0.0000000000
11
33.0536735528
21
15.7174242221
31
0.0000000000
11
32.9888987878
21
15.7152020753
31
0.0000000000
11
32.9138200280
21
15.7144355111
31
0.0000000000
0
SPLINE
5
4DD
100
AcDbEntity
8
0
100
AcDbSpline
62
7
6
CONTINUOUS
70
0
71
3
72
11
73
7
74
5
42
0.0000001000
43
0.0000001000
44
0.0000000001
12
0.0000000000
22
0.3121097029
32
0.0000000000
13
0.3121097029
23
0.0000000000
33
0.0000000000
40
0.0000000000
40
0.0000000000
40
0.0000000000
40
0.0000000000
40
0.2481229392
40
0.4989896472
40
0.7510722962
40
1.0000000000
40
1.0000000000
40
1.0000000000
40
1.0000000000
10
31.7500000000
20
17.5287906459
30
0.0000000000
10
31.7500000000
20
17.5546045049
30
0.0000000000
10
31.7602717052
20
17.6070735652
30
0.0000000000
10
31.8046210406
20
17.6738030731
30
0.0000000000
10
31.8712623910
20
17.7184929213
30
0.0000000000
10
31.9239501762
20
17.7288821868
30
0.0000000000
10
31.9498477601
20
17.7288821868
30
0.0000000000
11
31.7500000000
21
17.5287906459
31
0.0000000000
11
31.7649607649
21
17.6047733633
31
0.0000000000
11
31.8082512511
21
17.6700152228
31
0.0000000000
11
31.8736385768
21
17.7137717916
31
0.0000000000
11
31.9498477601
21
17.7288821868
31
0.0000000000
0
SPLINE
5
4DE
100
AcDbEntity
8
0
100
AcDbSpline
62
7
6
CONTINUOUS
70
0
71
3
72
12
73
8
74
6
42
0.0000001000
43
0.0000001000
44
0.0000000001
12
-0.5772456046
22
0.8163485629
32
0.0000000000
13
-0.0437560145
23
0.9988607888
33
0.0000000000
40
0.0000000000
40
0.0000000000
40
0.0000000000
40
0.0000000000
40
0.2781254446
40
0.5212859193
40
0.7255817150
40
0.8862591411
40
1.0000000000
40
1.0000000000
40
1.0000000000
40
1.0000000000
10
33.4072869257
20
23.8439311777
30
0.0000000000
10
33.3537713622
20
23.9196136133
30
0.0000000000
10
33.2534367432
20
24.0614728729
30
0.0000000000
10
33.1174447707
20
24.2613487941
30
0.0000000000
10
33.0102052100
20
24.4337507763
30
0.0000000000
10
32.9373705944
20
24.5752838366
30
0.0000000000
10
32.9091172121
20
24.6643964752
30
0.0000000000
10
32.9074582632
20
24.7022669032
30
0.0000000000
11
33.4072869257
21
23.8439311777
31
0.0000000000
11
33.2474562927
21
24.0714831238
31
0.0000000000
11
33.1116250357
21
24.2731150916
31
0.0000000000
11
33.0052803722
21
24.4475067588
31
0.0000000000
11
32.9348570621
21
24.5918966233
31
0.0000000000
11
32.9074582632
21
24.7022669032
31
0.0000000000
0
SPLINE
5
4DF
100
AcDbEntity
8
0
100
AcDbSpline
62
7
6
CONTINUOUS
70
0
71
3
72
12
73
8
74
6
42
0.0000001000
43
0.0000001000
44
0.0000000001
12
-0.9997491357
22
0.0000000000
32
0.0000000000
13
-0.8942572968
23
0.4469924176
33
0.0000000000
40
0.0000000000
40
0.0000000000
40
0.0000000000
40
0.0000000000
40
0.3009722503
40
0.5770111337
40
0.7966902040
40
0.9428401746
40
1.0000000000
40
1.0000000000
40
1.0000000000
40
1.0000000000
10
-43.2771677625
20
23.3659822902
30
0.0000000000
10
-43.3774666782
20
23.3659822902
30
0.0000000000
10
-43.5699252371
20
23.3659895501
30
0.0000000000
10
-43.8347521437
20
23.3700662582
30
0.0000000000
10
-44.0503533046
20
23.3684424552
30
0.0000000000
10
-44.1878292442
20
23.3822046539
30
0.0000000000
10
-44.2595200592
20
23.3743115126
30
0.0000000000
10
-44.2765585895
20
23.3828281821
30
0.0000000000
11
-43.2771677625
21
23.3659822902
31
0.0000000000
11
-43.5780634223
21
23.3667912091
31
0.0000000000
11
-43.8540227250
21
23.3691792448
31
0.0000000000
11
-44.0736154676
21
23.3728821480
31
0.0000000000
11
-44.2196524897
21
23.3776030133
31
0.0000000000
11
-44.2765585895
21
23.3828281821
31
0.0000000000
0
SPLINE
5
4E0
100
AcDbEntity
8
0
100
AcDbSpline
62
7
6
CONTINUOUS
70
0
71
3
72
12
73
8
74
6
42
0.0000001000
43
0.0000001000
44
0.0000000001
12
0.4469924176
22
-0.8942572968
32
0.0000000000
13
0.0000000000
23
-0.9997491357
33
0.0000000000
40
0.0000000000
40
0.0000000000
40
0.0000000000
40
0.0000000000
40
0.0571598254
40
0.2033097960
40
0.4229888663
40
0.6990277497
40
1.0000000000
40
1.0000000000
40
1.0000000000
40
1.0000000000
10
-34.0232082296
20
26.4861785420
30
0.0000000000
10
-34.0146915601
20
26.4691400117
30
0.0000000000
10
-34.0225847014
20
26.3974491967
30
0.0000000000
10
-34.0088225027
20
26.2599732571
30
0.0000000000
10
-34.0104463057
20
26.0443720962
30
0.0000000000
10
-34.0063695976
20
25.7795451896
30
0.0000000000
10
-34.0063623377
20
25.5870866307
30
0.0000000000
10
-34.0063623377
20
25.4867877150
30
0.0000000000
11
-34.0232082296
21
26.4861785420
31
0.0000000000
11
-34.0179830608
21
26.4292724422
31
0.0000000000
11
-34.0132621955
21
26.2832354201
31
0.0000000000
11
-34.0095592923
21
26.0636426775
31
0.0000000000
11
-34.0071712566
21
25.7876833748
31
0.0000000000
11
-34.0063623377
21
25.4867877150
31
0.0000000000
0
SPLINE
5
4E1
100
AcDbEntity
8
0
100
AcDbSpline
62
7
6
CONTINUOUS
70
0
71
3
72
12
73
8
74
6
42
0.0000001000
43
0.0000001000
44
0.0000000001
12
-0.8942572968
22
-0.4469924176
32
0.0000000000
13
-0.9997491357
23
-0.0000000000
33
0.0000000000
40
0.0000000000
40
0.0000000000
40
0.0000000000
40
0.0000000000
40
0.0571598254
40
0.2033097960
40
0.4229888663
40
0.6990277497
40
1.0000000000
40
1.0000000000
40
1.0000000000
40
1.0000000000
10
44.2765585895
20
23.3828281821
30
0.0000000000
10
44.2595200592
20
23.3743115126
30
0.0000000000
10
44.1878292442
20
23.3822046539
30
0.0000000000
10
44.0503533046
20
23.3684424552
30
0.0000000000
10
43.8347521437
20
23.3700662582
30
0.0000000000
10
43.5699252371
20
23.3659895501
30
0.0000000000
10
43.3774666782
20
23.3659822902
30
0.0000000000
10
43.2771677625
20
23.3659822902
30
0.0000000000
11
44.2765585895
21
23.3828281821
31
0.0000000000
11
44.2196524897
21
23.3776030133
31
0.0000000000
11
44.0736154676
21
23.3728821480
31
0.0000000000
11
43.8540227250
21
23.3691792448
31
0.0000000000
11
43.5780634223
21
23.3667912091
31
0.0000000000
11
43.2771677625
21
23.3659822902
31
0.0000000000
0
SPLINE
5
4E2
100
AcDbEntity
8
0
100
AcDbSpline
62
7
6
CONTINUOUS
70
0
71
3
72
12
73
8
74
6
42
0.0000001000
43
0.0000001000
44
0.0000000001
12
0.0000000000
22
0.9997491357
32
0.0000000000
13
0.4469924176
23
0.8942572968
33
0.0000000000
40
0.0000000000
40
0.0000000000
40
0.0000000000
40
0.0000000000
40
0.3009722503
40
0.5770111337
40
0.7966902040
40
0.9428401746
40
1.0000000000
40
1.0000000000
40
1.0000000000
40
1.0000000000
10
34.0063623377
20
25.4867877150
30
0.0000000000
10
34.0063623377
20
25.5870866307
30
0.0000000000
10
34.0063695976
20
25.7795451896
30
0.0000000000
10
34.0104463057
20
26.0443720962
30
0.0000000000
10
34.0088225027
20
26.2599732571
30
0.0000000000
10
34.0225847014
20
26.3974491967
30
0.0000000000
10
34.0146915601
20
26.4691400117
30
0.0000000000
10
34.0232082296
20
26.4861785420
30
0.0000000000
11
34.0063623377
21
25.4867877150
31
0.0000000000
11
34.0071712566
21
25.7876833748
31
0.0000000000
11
34.0095592923
21
26.0636426775
31
0.0000000000
11
34.0132621955
21
26.2832354201
31
0.0000000000
11
34.0179830608
21
26.4292724422
31
0.0000000000
11
34.0232082296
21
26.4861785420
31
0.0000000000
0
SPLINE
5
4E3
100
AcDbEntity
8
0
100
AcDbSpline
62
7
6
CONTINUOUS
70
0
71
3
72
12
73
8
74
6
42
0.0000001000
43
0.0000001000
44
0.0000000001
12
0.6000491693
22
-0.8002078014
32
0.0000000000
13
-0.0000000000
23
-1.0001957463
33
0.0000000000
40
0.0000000000
40
0.0000000000
40
0.0000000000
40
0.0000000000
40
0.0574393210
40
0.2036300544
40
0.4232564231
40
0.6991810115
40
1.0000000000
40
1.0000000000
40
1.0000000000
40
1.0000000000
10
32.8163786794
20
26.4861785420
30
0.0000000000
10
32.8278674850
20
26.4708574111
30
0.0000000000
10
32.8189012061
20
26.3956614958
30
0.0000000000
10
32.8370673932
20
26.2610442191
30
0.0000000000
10
32.8358830120
20
26.0439435250
30
0.0000000000
10
32.8415165950
20
25.7796810452
30
0.0000000000
10
32.8416507255
20
25.5870803392
30
0.0000000000
10
32.8416507255
20
25.4867877150
30
0.0000000000
11
32.8163786794
21
26.4861785420
31
0.0000000000
11
32.8242179525
21
26.4292653347
31
0.0000000000
11
32.8313002392
21
26.2832176047
31
0.0000000000
11
32.8368551319
21
26.0636184908
31
0.0000000000
11
32.8404373603
21
25.7876631411
31
0.0000000000
11
32.8416507255
21
25.4867877150
31
0.0000000000
0
SPLINE
5
4E4
100
AcDbEntity
8
0
100
AcDbSpline
62
7
6
CONTINUOUS
70
0
71
3
72
12
73
8
74
6
42
0.0000001000
43
0.0000001000
44
0.0000000001
12
0.0000000000
22
1.0001957463
32
0.0000000000
13
0.6000491693
23
0.8002078014
33
0.0000000000
40
0.0000000000
40
0.0000000000
40
0.0000000000
40
0.0000000000
40
0.3008189885
40
0.5767435769
40
0.7963699456
40
0.9425606790
40
1.0000000000
40
1.0000000000
40
1.0000000000
40
1.0000000000
10
-32.8416507255
20
25.4867877150
30
0.0000000000
10
-32.8416507255
20
25.5870803392
30
0.0000000000
10
-32.8415165950
20
25.7796810452
30
0.0000000000
10
-32.8358830120
20
26.0439435250
30
0.0000000000
10
-32.8370673932
20
26.2610442191
30
0.0000000000
10
-32.8189012061
20
26.3956614958
30
0.0000000000
10
-32.8278674850
20
26.4708574111
30
0.0000000000
10
-32.8163786794
20
26.4861785420
30
0.0000000000
11
-32.8416507255
21
25.4867877150
31
0.0000000000
11
-32.8404373603
21
25.7876631411
31
0.0000000000
11
-32.8368551319
21
26.0636184908
31
0.0000000000
11
-32.8313002392
21
26.2832176047
31
0.0000000000
11
-32.8242179525
21
26.4292653347
31
0.0000000000
11
-32.8163786794
21
26.4861785420
31
0.0000000000
0
SPLINE
5
4E5
100
AcDbEntity
8
0
100
AcDbSpline
62
7
6
CONTINUOUS
70
0
71
3
72
12
73
8
74
6
42
0.0000001000
43
0.0000001000
44
0.0000000001
12
1.0001957463
22
0.0000000000
32
0.0000000000
13
0.8002078014
23
-0.6000491693
33
0.0000000000
40
0.0000000000
40
0.0000000000
40
0.0000000000
40
0.0000000000
40
0.3008189885
40
0.5767435769
40
0.7963699456
40
0.9425606790
40
1.0000000000
40
1.0000000000
40
1.0000000000
40
1.0000000000
10
43.3120885320
20
22.2012706780
30
0.0000000000
10
43.4123811562
20
22.2012706780
30
0.0000000000
10
43.6049818622
20
22.2011365475
30
0.0000000000
10
43.8692443420
20
22.1955029645
30
0.0000000000
10
44.0863450360
20
22.1966873457
30
0.0000000000
10
44.2209623128
20
22.1785211586
30
0.0000000000
10
44.2961582281
20
22.1874874375
30
0.0000000000
10
44.3114793590
20
22.1759986319
30
0.0000000000
11
43.3120885320
21
22.2012706780
31
0.0000000000
11
43.6129639581
21
22.2000573128
31
0.0000000000
11
43.8889193078
21
22.1964750844
31
0.0000000000
11
44.1085184217
21
22.1909201917
31
0.0000000000
11
44.2545661517
21
22.1838379050
31
0.0000000000
11
44.3114793590
21
22.1759986319
31
0.0000000000
0
SPLINE
5
4E6
100
AcDbEntity
8
0
100
AcDbSpline
62
7
6
CONTINUOUS
70
0
71
3
72
12
73
8
74
6
42
0.0000001000
43
0.0000001000
44
0.0000000001
12
0.8002078014
22
0.6000491693
32
0.0000000000
13
1.0001957463
23
0.0000000000
33
0.0000000000
40
0.0000000000
40
0.0000000000
40
0.0000000000
40
0.0000000000
40
0.0574393210
40
0.2036300544
40
0.4232564231
40
0.6991810115
40
1.0000000000
40
1.0000000000
40
1.0000000000
40
1.0000000000
10
-44.3114793590
20
22.1759986319
30
0.0000000000
10
-44.2961582281
20
22.1874874375
30
0.0000000000
10
-44.2209623128
20
22.1785211586
30
0.0000000000
10
-44.0863450360
20
22.1966873457
30
0.0000000000
10
-43.8692443420
20
22.1955029645
30
0.0000000000
10
-43.6049818622
20
22.2011365475
30
0.0000000000
10
-43.4123811562
20
22.2012706780
30
0.0000000000
10
-43.3120885320
20
22.2012706780
30
0.0000000000
11
-44.3114793590
21
22.1759986319
31
0.0000000000
11
-44.2545661517
21
22.1838379050
31
0.0000000000
11
-44.1085184217
21
22.1909201917
31
0.0000000000
11
-43.8889193078
21
22.1964750844
31
0.0000000000
11
-43.6129639581
21
22.2000573128
31
0.0000000000
11
-43.3120885320
21
22.2012706780
31
0.0000000000
0
SPLINE
5
4E7
100
AcDbEntity
8
0
100
AcDbSpline
62
7
6
CONTINUOUS
70
0
71
3
72
10
73
6
74
4
42
0.0000001000
43
0.0000001000
44
0.0000000001
12
0.1808185195
22
-0.3617472560
32
0.0000000000
13
0.0052298223
23
-0.4043872688
33
0.0000000000
40
0.0000000000
40
0.0000000000
40
0.0000000000
40
0.0000000000
40
0.1348021728
40
0.4802812834
40
1.0000000000
40
1.0000000000
40
1.0000000000
40
1.0000000000
10
-33.9708430348
20
24.8433220047
30
0.0000000000
10
-33.9627181251
20
24.8270672327
30
0.0000000000
10
-33.9700480036
20
24.7585758645
30
0.0000000000
10
-33.9566624567
20
24.6271720152
30
0.0000000000
10
-33.9583332415
20
24.5093046565
30
0.0000000000
10
-33.9574272293
20
24.4392487790
30
0.0000000000
11
-33.9708430348
21
24.8433220047
31
0.0000000000
11
-33.9657488515
21
24.7890436918
31
0.0000000000
11
-33.9611077122
21
24.6494017601
31
0.0000000000
11
-33.9574272293
21
24.4392487790
31
0.0000000000
0
SPLINE
5
4E8
100
AcDbEntity
8
0
100
AcDbSpline
62
7
6
CONTINUOUS
70
0
71
3
72
10
73
6
74
4
42
0.0000001000
43
0.0000001000
44
0.0000000001
12
-0.4043872688
22
0.0052298223
32
0.0000000000
13
-0.3617472560
23
0.1808185195
33
0.0000000000
40
0.0000000000
40
0.0000000000
40
0.0000000000
40
0.0000000000
40
0.5197187166
40
0.8651978272
40
1.0000000000
40
1.0000000000
40
1.0000000000
40
1.0000000000
10
-42.2296288265
20
23.3170471818
30
0.0000000000
10
-42.2996847040
20
23.3179531940
30
0.0000000000
10
-42.4175520627
20
23.3162824092
30
0.0000000000
10
-42.5489559120
20
23.3296679561
30
0.0000000000
10
-42.6174472802
20
23.3223380776
30
0.0000000000
10
-42.6337020522
20
23.3304629873
30
0.0000000000
11
-42.2296288265
21
23.3170471818
31
0.0000000000
11
-42.4397818076
21
23.3207276647
31
0.0000000000
11
-42.5794237393
21
23.3253688040
31
0.0000000000
11
-42.6337020522
21
23.3304629873
31
0.0000000000
0
SPLINE
5
4E9
100
AcDbEntity
8
0
100
AcDbSpline
62
7
6
CONTINUOUS
70
0
71
3
72
9
73
5
74
3
42
0.0000001000
43
0.0000001000
44
0.0000000001
12
0.0062038119
22
0.1416204029
32
0.0000000000
13
0.0850440548
23
0.1134122328
33
0.0000000000
40
0.0000000000
40
0.0000000000
40
0.0000000000
40
0.0000000000
40
0.7138972174
40
1.0000000000
40
1.0000000000
40
1.0000000000
40
1.0000000000
10
-32.9074582632
20
24.7022669032
30
0.0000000000
10
-32.9059819685
20
24.7359677071
30
0.0000000000
10
-32.8984573884
20
24.7803183555
30
0.0000000000
10
-32.9030468910
20
24.8325061529
30
0.0000000000
10
-32.8949364441
20
24.8433220047
30
0.0000000000
11
-32.9074582632
21
24.7022669032
31
0.0000000000
11
-32.9014123479
21
24.8032855131
31
0.0000000000
11
-32.8949364441
21
24.8433220047
31
0.0000000000
0
SPLINE
5
4EA
100
AcDbEntity
8
0
100
AcDbSpline
62
7
6
CONTINUOUS
70
0
71
3
72
9
73
5
74
3
42
0.0000001000
43
0.0000001000
44
0.0000000001
12
0.0850440548
22
-0.1134122328
32
0.0000000000
13
0.0062038119
23
-0.1416204029
33
0.0000000000
40
0.0000000000
40
0.0000000000
40
0.0000000000
40
0.0000000000
40
0.2861027826
40
1.0000000000
40
1.0000000000
40
1.0000000000
40
1.0000000000
10
32.8949364441
20
24.8433220047
30
0.0000000000
10
32.9030468910
20
24.8325061529
30
0.0000000000
10
32.8984573884
20
24.7803183555
30
0.0000000000
10
32.9059819685
20
24.7359677071
30
0.0000000000
10
32.9074582632
20
24.7022669032
30
0.0000000000
11
32.8949364441
21
24.8433220047
31
0.0000000000
11
32.9014123479
21
24.8032855131
31
0.0000000000
11
32.9074582632
21
24.7022669032
31
0.0000000000
0
SPLINE
5
4EB
100
AcDbEntity
8
0
100
AcDbSpline
62
7
6
CONTINUOUS
70
0
71
3
72
10
73
6
74
4
42
0.0000001000
43
0.0000001000
44
0.0000000001
12
-0.3617472560
22
-0.1808185195
32
0.0000000000
13
-0.4043872688
23
-0.0052298223
33
0.0000000000
40
0.0000000000
40
0.0000000000
40
0.0000000000
40
0.0000000000
40
0.1348021728
40
0.4802812834
40
1.0000000000
40
1.0000000000
40
1.0000000000
40
1.0000000000
10
42.6337020522
20
23.3304629873
30
0.0000000000
10
42.6174472802
20
23.3223380776
30
0.0000000000
10
42.5489559120
20
23.3296679561
30
0.0000000000
10
42.4175520627
20
23.3162824092
30
0.0000000000
10
42.2996847040
20
23.3179531940
30
0.0000000000
10
42.2296288265
20
23.3170471818
30
0.0000000000
11
42.6337020522
21
23.3304629873
31
0.0000000000
11
42.5794237393
21
23.3253688040
31
0.0000000000
11
42.4397818076
21
23.3207276647
31
0.0000000000
11
42.2296288265
21
23.3170471818
31
0.0000000000
0
SPLINE
5
4EC
100
AcDbEntity
8
0
100
AcDbSpline
62
7
6
CONTINUOUS
70
0
71
3
72
10
73
6
74
4
42
0.0000001000
43
0.0000001000
44
0.0000000001
12
0.0052298223
22
0.4043872688
32
0.0000000000
13
0.1808185195
23
0.3617472560
33
0.0000000000
40
0.0000000000
40
0.0000000000
40
0.0000000000
40
0.0000000000
40
0.5197187166
40
0.8651978272
40
1.0000000000
40
1.0000000000
40
1.0000000000
40
1.0000000000
10
33.9574272293
20
24.4392487790
30
0.0000000000
10
33.9583332415
20
24.5093046565
30
0.0000000000
10
33.9566624567
20
24.6271720152
30
0.0000000000
10
33.9700480036
20
24.7585758645
30
0.0000000000
10
33.9627181251
20
24.8270672327
30
0.0000000000
10
33.9708430348
20
24.8433220047
30
0.0000000000
11
33.9574272293
21
24.4392487790
31
0.0000000000
11
33.9611077122
21
24.6494017601
31
0.0000000000
11
33.9657488515
21
24.7890436918
31
0.0000000000
11
33.9708430348
21
24.8433220047
31
0.0000000000
0
SPLINE
5
4ED
100
AcDbEntity
8
0
100
AcDbSpline
62
7
6
CONTINUOUS
70
0
71
3
72
12
73
8
74
6
42
0.0000001000
43
0.0000001000
44
0.0000000001
12
-0.9988567175
22
0.0437558362
32
0.0000000000
13
-0.8163452355
23
0.5772432518
33
0.0000000000
40
0.0000000000
40
0.0000000000
40
0.0000000000
40
0.0000000000
40
0.1141952374
40
0.2758946242
40
0.4804802117
40
0.7227438919
40
1.0000000000
40
1.0000000000
40
1.0000000000
40
1.0000000000
10
42.4926469507
20
22.2670782157
30
0.0000000000
10
42.4546253907
20
22.2687437850
30
0.0000000000
10
42.3650485853
20
22.2972244614
30
0.0000000000
10
42.2230586275
20
22.3704392441
30
0.0000000000
10
42.0505863175
20
22.4778258653
30
0.0000000000
10
41.8511349939
20
22.6135646430
30
0.0000000000
10
41.7097567928
20
22.7135588057
30
0.0000000000
10
41.6343112252
20
22.7669068782
30
0.0000000000
11
42.4926469507
21
22.2670782157
31
0.0000000000
11
42.3818504473
21
22.2946436494
31
0.0000000000
11
42.2365960269
21
22.3656235965
31
0.0000000000
11
42.0620114754
21
22.4722068122
31
0.0000000000
11
41.8611477342
21
22.6075718450
31
0.0000000000
11
41.6343112252
21
22.7669068782
31
0.0000000000
0
SPLINE
5
4EE
100
AcDbEntity
8
0
100
AcDbSpline
62
9
6
CONTINUOUS
70
0
71
3
72
13
73
9
74
7
42
0.0000001000
43
0.0000001000
44
0.0000000001
12
-0.7827212073
22
0.0002139176
32
0.0000000000
13
-0.0001623695
23
0.7827212197
33
0.0000000000
40
0.0000000000
40
0.0000000000
40
0.0000000000
40
0.0000000000
40
0.1657245566
40
0.3328000955
40
0.5000534630
40
0.6672457725
40
0.8342736681
40
1.0000000000
40
1.0000000000
40
1.0000000000
40
1.0000000000
10
-42.8123931185
20
-28.2675478100
30
0.0000000000
10
-42.8556318268
20
-28.2675359929
30
0.0000000000
10
-42.9428826581
20
-28.2561739651
30
0.0000000000
10
-43.0648064530
20
-28.2058206398
30
0.0000000000
10
-43.1698836704
20
-28.1253053824
30
0.0000000000
10
-43.2503766525
20
-28.0202284134
30
0.0000000000
10
-43.3007143057
20
-27.8983305031
30
0.0000000000
10
-43.3120795623
20
-27.8110915687
30
0.0000000000
10
-43.3120885320
20
-27.7678523965
30
0.0000000000
11
-42.8123931185
21
-28.2675478100
31
0.0000000000
11
-42.9410140872
21
-28.2507275618
31
0.0000000000
11
-43.0618988953
21
-28.2008417881
31
0.0000000000
11
-43.1657976659
21
-28.1211975989
31
0.0000000000
11
-43.2453992892
21
-28.0173264178
31
0.0000000000
11
-43.2952673583
21
-27.8964746456
31
0.0000000000
11
-43.3120885320
21
-27.7678523965
31
0.0000000000
0
SPLINE
5
4EF
100
AcDbEntity
8
0
100
AcDbSpline
62
9
6
CONTINUOUS
70
0
71
3
72
13
73
9
74
7
42
0.0000001000
43
0.0000001000
44
0.0000000001
12
0.0000565366
22
0.6263951544
32
0.0000000000
13
-0.6263951562
23
-0.0000301519
33
0.0000000000
40
0.0000000000
40
0.0000000000
40
0.0000000000
40
0.0000000000
40
0.1474106453
40
0.3138489778
40
0.4941678324
40
0.6765304206
40
0.8481095221
40
1.0000000000
40
1.0000000000
40
1.0000000000
40
1.0000000000
10
-33.7574576903
20
27.4022231842
30
0.0000000000
10
-33.7574549122
20
27.4330022888
30
0.0000000000
10
-33.7650870529
20
27.4987698113
30
0.0000000000
10
-33.8020456224
20
27.5963311914
30
0.0000000000
10
-33.8684111134
20
27.6865326341
30
0.0000000000
10
-33.9583734346
20
27.7550917801
30
0.0000000000
10
-34.0578838876
20
27.7940621934
30
0.0000000000
10
-34.1256822818
20
27.8021637888
30
0.0000000000
10
-34.1573967683
20
27.8021622622
30
0.0000000000
11
-33.7574576903
21
27.4022231842
31
0.0000000000
11
-33.7681188342
21
27.4939429728
31
0.0000000000
11
-33.8050527673
21
27.5914377552
31
0.0000000000
11
-33.8720062339
21
27.6824054939
31
0.0000000000
11
-33.9628519999
21
27.7516570480
31
0.0000000000
11
-34.0629285818
21
27.7908468010
31
0.0000000000
11
-34.1573967683
21
27.8021622622
31
0.0000000000
0
SPLINE
5
4F0
100
AcDbEntity
8
0
100
AcDbSpline
62
9
6
CONTINUOUS
70
0
71
3
72
14
73
10
74
8
42
0.0000001000
43
0.0000001000
44
0.0000000001
12
-0.0002387760
22
2.9778342936
32
0.0000000000
13
2.9778342673
23
0.0004624815
33
0.0000000000
40
0.0000000000
40
0.0000000000
40
0.0000000000
40
0.0000000000
40
0.1431466809
40
0.2862383775
40
0.4286368951
40
0.5708499741
40
0.7135251174
40
0.8569146058
40
1.0000000000
40
1.0000000000
40
1.0000000000
40
1.0000000000
10
-45.4425423097
20
25.9024516414
30
0.0000000000
10
-45.4425537031
20
26.0445406732
30
0.0000000000
10
-45.4104056595
20
26.3296981037
30
0.0000000000
10
-45.2684218882
20
26.7344157596
30
0.0000000000
10
-45.0405339149
20
27.0968625998
30
0.0000000000
10
-44.7382555227
20
27.3993851838
30
0.0000000000
10
-44.3754560069
20
27.6278154551
30
0.0000000000
10
-43.9702496843
20
27.7700327718
30
0.0000000000
10
-43.6848598856
20
27.8021402041
30
0.0000000000
10
-43.5428316889
20
27.8021622622
30
0.0000000000
11
-45.4425423097
21
25.9024516414
31
0.0000000000
11
-45.3947267271
21
26.3260284443
31
0.0000000000
11
-45.2537355458
21
26.7281298771
31
0.0000000000
11
-45.0279942689
21
27.0870868535
31
0.0000000000
11
-44.7286666429
21
27.3866602148
31
0.0000000000
11
-44.3691519898
21
27.6130619122
31
0.0000000000
11
-43.9662300700
21
27.7543930975
31
0.0000000000
11
-43.5428316889
21
27.8021622622
31
0.0000000000
0
SPLINE
5
4F1
100
AcDbEntity
8
0
100
AcDbSpline
62
9
6
CONTINUOUS
70
0
71
3
72
13
73
9
74
7
42
0.0000001000
43
0.0000001000
44
0.0000000001
12
-0.0000301800
22
-0.6263951889
32
0.0000000000
13
0.6263951871
23
0.0000564314
33
0.0000000000
40
0.0000000000
40
0.0000000000
40
0.0000000000
40
0.0000000000
40
0.1517558204
40
0.3231222473
40
0.5054072098
40
0.6858515733
40
0.8524800500
40
1.0000000000
40
1.0000000000
40
1.0000000000
40
1.0000000000
10
-45.4425423097
20
23.5170167208
30
0.0000000000
10
-45.4425438364
20
23.4853303489
30
0.0000000000
10
-45.4344581598
20
23.4176051399
30
0.0000000000
10
-45.3955596751
20
23.3181665719
30
0.0000000000
10
-45.3270774809
20
23.2281912087
30
0.0000000000
10
-45.2368716597
20
23.1617429282
30
0.0000000000
10
-45.1392357295
20
23.1247199862
30
0.0000000000
10
-45.0734051606
20
23.1170748678
30
0.0000000000
10
-45.0426032317
20
23.1170776428
30
0.0000000000
11
-45.4425423097
21
23.5170167208
31
0.0000000000
11
-45.4312469026
21
23.4226310795
31
0.0000000000
11
-45.3921438134
21
23.3226636312
31
0.0000000000
11
-45.3229770925
21
23.2318143572
31
0.0000000000
11
-45.2319843271
21
23.1647622858
31
0.0000000000
11
-45.1343901142
21
23.1277546121
31
0.0000000000
11
-45.0426032317
21
23.1170776428
31
0.0000000000
0
SPLINE
5
4F2
100
AcDbEntity
8
0
100
AcDbSpline
62
9
6
CONTINUOUS
70
0
71
3
72
13
73
9
74
7
42
0.0000001000
43
0.0000001000
44
0.0000000001
12
0.6263951544
22
-0.0000565366
32
0.0000000000
13
-0.0000301519
23
0.6263951562
33
0.0000000000
40
0.0000000000
40
0.0000000000
40
0.0000000000
40
0.0000000000
40
0.1474106453
40
0.3138489778
40
0.4941678324
40
0.6765304206
40
0.8481095221
40
1.0000000000
40
1.0000000000
40
1.0000000000
40
1.0000000000
10
45.0426032317
20
23.1170776428
30
0.0000000000
10
45.0733823363
20
23.1170748647
30
0.0000000000
10
45.1391498588
20
23.1247070054
30
0.0000000000
10
45.2367112390
20
23.1616655748
30
0.0000000000
10
45.3269126816
20
23.2280310659
30
0.0000000000
10
45.3954718276
20
23.3179933871
30
0.0000000000
10
45.4344422409
20
23.4175038401
30
0.0000000000
10
45.4425438363
20
23.4853022343
30
0.0000000000
10
45.4425423097
20
23.5170167208
30
0.0000000000
11
45.0426032317
21
23.1170776428
31
0.0000000000
11
45.1343230203
21
23.1277387867
31
0.0000000000
11
45.2318178028
21
23.1646727198
31
0.0000000000
11
45.3227855414
21
23.2316261864
31
0.0000000000
11
45.3920370955
21
23.3224719524
31
0.0000000000
11
45.4312268485
21
23.4225485343
31
0.0000000000
11
45.4425423097
21
23.5170167208
31
0.0000000000
0
SPLINE
5
4F3
100
AcDbEntity
8
0
100
AcDbSpline
62
9
6
CONTINUOUS
70
0
71
3
72
14
73
10
74
8
42
0.0000001000
43
0.0000001000
44
0.0000000001
12
2.9778342936
22
0.0002387760
32
0.0000000000
13
0.0004624815
23
-2.9778342673
33
0.0000000000
40
0.0000000000
40
0.0000000000
40
0.0000000000
40
0.0000000000
40
0.1431466809
40
0.2862383775
40
0.4286368951
40
0.5708499741
40
0.7135251174
40
0.8569146058
40
1.0000000000
40
1.0000000000
40
1.0000000000
40
1.0000000000
10
43.5428316889
20
27.8021622622
30
0.0000000000
10
43.6849207207
20
27.8021736556
30
0.0000000000
10
43.9700781512
20
27.7700256120
30
0.0000000000
10
44.3747958072
20
27.6280418407
30
0.0000000000
10
44.7372426473
20
27.4001538674
30
0.0000000000
10
45.0397652313
20
27.0978754752
30
0.0000000000
10
45.2681955026
20
26.7350759594
30
0.0000000000
10
45.4104128193
20
26.3298696368
30
0.0000000000
10
45.4425202516
20
26.0444798381
30
0.0000000000
10
45.4425423097
20
25.9024516414
30
0.0000000000
11
43.5428316889
21
27.8021622622
31
0.0000000000
11
43.9664084918
21
27.7543466796
31
0.0000000000
11
44.3685099247
21
27.6133554983
31
0.0000000000
11
44.7274669010
21
27.3876142214
31
0.0000000000
11
45.0270402623
21
27.0882865954
31
0.0000000000
11
45.2534419597
21
26.7287719423
31
0.0000000000
11
45.3947731451
21
26.3258500224
31
0.0000000000
11
45.4425423097
21
25.9024516414
31
0.0000000000
0
SPLINE
5
4F4
100
AcDbEntity
8
0
100
AcDbSpline
62
9
6
CONTINUOUS
70
0
71
3
72
13
73
9
74
7
42
0.0000001000
43
0.0000001000
44
0.0000000001
12
-0.6263951889
22
0.0000301800
32
0.0000000000
13
0.0000564314
23
-0.6263951871
33
0.0000000000
40
0.0000000000
40
0.0000000000
40
0.0000000000
40
0.0000000000
40
0.1517558204
40
0.3231222473
40
0.5054072098
40
0.6858515733
40
0.8524800500
40
1.0000000000
40
1.0000000000
40
1.0000000000
40
1.0000000000
10
34.1573967683
20
27.8021622622
30
0.0000000000
10
34.1257103964
20
27.8021637889
30
0.0000000000
10
34.0579851874
20
27.7940781123
30
0.0000000000
10
33.9585466195
20
27.7551796276
30
0.0000000000
10
33.8685712563
20
27.6866974334
30
0.0000000000
10
33.8021229757
20
27.5964916122
30
0.0000000000
10
33.7651000337
20
27.4988556820
30
0.0000000000
10
33.7574549154
20
27.4330251131
30
0.0000000000
10
33.7574576903
20
27.4022231842
30
0.0000000000
11
34.1573967683
21
27.8021622622
31
0.0000000000
11
34.0630111270
21
27.7908668551
31
0.0000000000
11
33.9630436787
21
27.7517637659
31
0.0000000000
11
33.8721944047
21
27.6825970450
31
0.0000000000
11
33.8051423333
21
27.5916042796
31
0.0000000000
11
33.7681346597
21
27.4940100667
31
0.0000000000
11
33.7574576903
21
27.4022231842
31
0.0000000000
0
SPLINE
5
4F5
100
AcDbEntity
8
0
100
AcDbSpline
62
9
6
CONTINUOUS
70
0
71
3
72
17
73
13
74
11
42
0.0000001000
43
0.0000001000
44
0.0000000001
12
0.0000567131
22
3.9214973048
32
0.0000000000
13
-3.9214973051
23
-0.0000245136
33
0.0000000000
40
0.0000000000
40
0.0000000000
40
0.0000000000
40
0.0000000000
40
0.0793274059
40
0.1734176682
40
0.2784455558
40
0.3905324445
40
0.5058435327
40
0.6207064027
40
0.7314045255
40
0.8341239770
40
0.9248815659
40
1.0000000000
40
1.0000000000
40
1.0000000000
40
1.0000000000
10
45.7927130743
20
25.6531897144
30
0.0000000000
10
45.7927145740
20
25.7568837839
30
0.0000000000
10
45.7785822166
20
25.9837993987
30
0.0000000000
10
45.7066105823
20
26.3419063171
30
0.0000000000
10
45.5646901530
20
26.7251354271
30
0.0000000000
10
45.3456650025
20
27.1030445407
30
0.0000000000
10
45.0544987015
20
27.4459610882
30
0.0000000000
10
44.7078109695
20
27.7297235794
30
0.0000000000
10
44.3311246765
20
27.9397678170
30
0.0000000000
10
43.9547657782
20
28.0733194807
30
0.0000000000
10
43.6087844791
20
28.1395363796
30
0.0000000000
10
43.3917620075
20
28.1523336406
30
0.0000000000
10
43.2935697619
20
28.1523330268
30
0.0000000000
11
45.7927130743
21
25.6531897144
31
0.0000000000
11
45.7733630638
21
25.9636695327
31
0.0000000000
11
45.7006540621
21
26.3254094086
31
0.0000000000
11
45.5576040038
21
26.7116357139
31
0.0000000000
11
45.3371900932
21
27.0919257769
31
0.0000000000
11
45.0445079221
21
27.4366210940
31
0.0000000000
11
44.6959483195
21
27.7219233615
31
0.0000000000
11
44.3168100905
21
27.9333449512
31
0.0000000000
11
43.9371946950
21
28.0680717565
31
0.0000000000
11
43.5876349907
21
28.1349809334
31
0.0000000000
11
43.2935697619
21
28.1523330268
31
0.0000000000
0
SPLINE
5
4F6
100
AcDbEntity
8
0
100
AcDbSpline
62
9
6
CONTINUOUS
70
0
71
3
72
17
73
13
74
11
42
0.0000001000
43
0.0000001000
44
0.0000000001
12
-3.9214973048
22
0.0000567131
32
0.0000000000
13
0.0000245136
23
-3.9214973051
33
0.0000000000
40
0.0000000000
40
0.0000000000
40
0.0000000000
40
0.0000000000
40
0.0793274059
40
0.1734176682
40
0.2784455558
40
0.3905324445
40
0.5058435327
40
0.6207064027
40
0.7314045255
40
0.8341239770
40
0.9248815659
40
1.0000000000
40
1.0000000000
40
1.0000000000
40
1.0000000000
10
-43.2935697619
20
28.1523330268
30
0.0000000000
10
-43.3972638314
20
28.1523345265
30
0.0000000000
10
-43.6241794463
20
28.1382021691
30
0.0000000000
10
-43.9822863646
20
28.0662305348
30
0.0000000000
10
-44.3655154746
20
27.9243101055
30
0.0000000000
10
-44.7434245882
20
27.7052849550
30
0.0000000000
10
-45.0863411357
20
27.4141186540
30
0.0000000000
10
-45.3701036269
20
27.0674309220
30
0.0000000000
10
-45.5801478645
20
26.6907446290
30
0.0000000000
10
-45.7136995282
20
26.3143857307
30
0.0000000000
10
-45.7799164271
20
25.9684044316
30
0.0000000000
10
-45.7927136881
20
25.7513819600
30
0.0000000000
10
-45.7927130743
20
25.6531897144
30
0.0000000000
11
-43.2935697619
21
28.1523330268
31
0.0000000000
11
-43.6040495802
21
28.1329830163
31
0.0000000000
11
-43.9657894561
21
28.0602740146
31
0.0000000000
11
-44.3520157614
21
27.9172239563
31
0.0000000000
11
-44.7323058244
21
27.6968100457
31
0.0000000000
11
-45.0770011415
21
27.4041278746
31
0.0000000000
11
-45.3623034090
21
27.0555682720
31
0.0000000000
11
-45.5737249987
21
26.6764300430
31
0.0000000000
11
-45.7084518040
21
26.2968146475
31
0.0000000000
11
-45.7753609809
21
25.9472549432
31
0.0000000000
11
-45.7927130743
21
25.6531897144
31
0.0000000000
0
SPLINE
5
4F7
100
AcDbEntity
8
0
100
AcDbSpline
62
7
6
CONTINUOUS
70
0
71
3
72
9
73
5
74
3
42
0.0000001000
43
0.0000001000
44
0.0000000001
12
0.1134122328
22
0.0850440548
32
0.0000000000
13
0.1416204029
23
0.0062038119
33
0.0000000000
40
0.0000000000
40
0.0000000000
40
0.0000000000
40
0.0000000000
40
0.2861027826
40
1.0000000000
40
1.0000000000
40
1.0000000000
40
1.0000000000
10
-42.6337020522
20
22.2545563966
30
0.0000000000
10
-42.6228862004
20
22.2626668435
30
0.0000000000
10
-42.5706984030
20
22.2580773409
30
0.0000000000
10
-42.5263477546
20
22.2656019210
30
0.0000000000
10
-42.4926469507
20
22.2670782157
30
0.0000000000
11
-42.6337020522
21
22.2545563966
31
0.0000000000
11
-42.5936655606
21
22.2610323004
31
0.0000000000
11
-42.4926469507
21
22.2670782157
31
0.0000000000
0
SPLINE
5
4F8
100
AcDbEntity
8
0
100
AcDbSpline
62
7
6
CONTINUOUS
70
0
71
3
72
9
73
5
74
3
42
0.0000001000
43
0.0000001000
44
0.0000000001
12
0.1416204029
22
-0.0062038119
32
0.0000000000
13
0.1134122328
23
-0.0850440548
33
0.0000000000
40
0.0000000000
40
0.0000000000
40
0.0000000000
40
0.0000000000
40
0.7138972174
40
1.0000000000
40
1.0000000000
40
1.0000000000
40
1.0000000000
10
42.4926469507
20
22.2670782157
30
0.0000000000
10
42.5263477546
20
22.2656019210
30
0.0000000000
10
42.5706984030
20
22.2580773409
30
0.0000000000
10
42.6228862004
20
22.2626668435
30
0.0000000000
10
42.6337020522
20
22.2545563966
30
0.0000000000
11
42.4926469507
21
22.2670782157
31
0.0000000000
11
42.5936655606
21
22.2610323004
31
0.0000000000
11
42.6337020522
21
22.2545563966
31
0.0000000000
0
SPLINE
5
4F9
100
AcDbEntity
8
0
100
AcDbSpline
62
7
6
CONTINUOUS
70
0
71
3
72
13
73
9
74
7
42
0.0000001000
43
0.0000001000
44
0.0000000001
12
2.3481667360
22
0.0000000000
32
0.0000000000
13
0.0000000000
23
-2.3481667360
33
0.0000000000
40
0.0000000000
40
0.0000000000
40
0.0000000000
40
0.0000000000
40
0.1646823090
40
0.3333831124
40
0.4997946707
40
0.6663329094
40
0.8353484632
40
1.0000000000
40
1.0000000000
40
1.0000000000
40
1.0000000000
10
42.8310722205
20
26.5397784135
30
0.0000000000
10
42.9599727271
20
26.5397784135
30
0.0000000000
10
43.2221518227
20
26.5057979537
30
0.0000000000
10
43.5879093512
20
26.3549543780
30
0.0000000000
10
43.9030871131
20
26.1132625410
30
0.0000000000
10
44.1451084979
20
25.7980152969
30
0.0000000000
10
44.2961564664
20
25.4319690157
30
0.0000000000
10
44.3301584610
20
25.1695685936
30
0.0000000000
10
44.3301584610
20
25.0406921730
30
0.0000000000
11
42.8310722205
21
26.5397784135
31
0.0000000000
11
43.2145496165
21
26.4899471757
31
0.0000000000
11
43.5807918513
21
26.3389781878
31
0.0000000000
11
43.8908529676
21
26.1011607961
31
0.0000000000
11
44.1290217618
21
25.7909943908
31
0.0000000000
11
44.2803458471
21
25.4240991233
31
0.0000000000
11
44.3301584610
21
25.0406921730
31
0.0000000000
0
SPLINE
5
4FA
100
AcDbEntity
8
0
100
AcDbSpline
62
9
6
CONTINUOUS
70
0
71
3
72
13
73
9
74
7
42
0.0000001000
43
0.0000001000
44
0.0000000001
12
2.3474898897
22
-0.0021511634
32
0.0000000000
13
0.0022186180
23
-2.3474898270
33
0.0000000000
40
0.0000000000
40
0.0000000000
40
0.0000000000
40
0.0000000000
40
0.1666651758
40
0.3333351974
40
0.4999996368
40
0.6666642129
40
0.8333347173
40
1.0000000000
40
1.0000000000
40
1.0000000000
40
1.0000000000
10
42.7774723490
20
26.4861785420
30
0.0000000000
10
42.9078872874
20
26.4860590340
30
0.0000000000
10
43.1699712889
20
26.4514534483
30
0.0000000000
10
43.5352914356
20
26.2998261801
30
0.0000000000
10
43.8492648785
20
26.0588857808
30
0.0000000000
10
44.0902052747
20
25.7449124528
30
0.0000000000
10
44.2418351605
20
25.3795917798
30
0.0000000000
10
44.2764353340
20
25.1175073200
30
0.0000000000
10
44.2765585895
20
24.9870923015
30
0.0000000000
11
42.7774723490
21
26.4861785420
31
0.0000000000
11
43.1653336891
21
26.4348344599
31
0.0000000000
11
43.5267374711
21
26.2849383575
31
0.0000000000
11
43.8370927236
21
26.0467138867
31
0.0000000000
11
44.0753177274
21
25.7363586386
31
0.0000000000
11
44.2252144513
21
25.3749538873
31
0.0000000000
11
44.2765585895
21
24.9870923015
31
0.0000000000
0
SPLINE
5
4FB
100
AcDbEntity
8
0
100
AcDbSpline
62
7
6
CONTINUOUS
70
0
71
3
72
15
73
11
74
9
42
0.0000001000
43
0.0000001000
44
0.0000000001
12
0.0000000000
22
2.3510629792
32
0.0000000000
13
2.3510629792
23
0.0000000000
33
0.0000000000
40
0.0000000000
40
0.0000000000
40
0.0000000000
40
0.0000000000
40
0.1426797943
40
0.2746372828
40
0.3981824196
40
0.5168705318
40
0.6373531683
40
0.7587203360
40
0.8797293821
40
1.0000000000
40
1.0000000000
40
1.0000000000
40
1.0000000000
10
-44.3301584610
20
25.0406921730
30
0.0000000000
10
-44.3301584610
20
25.1525085671
30
0.0000000000
10
-44.3058935303
20
25.3685440726
30
0.0000000000
10
-44.2047274712
20
25.6659734352
30
0.0000000000
10
-44.0559463437
20
25.9208475736
30
0.0000000000
10
-43.8676973231
20
26.1360140876
30
0.0000000000
10
-43.6438698604
20
26.3112156719
30
0.0000000000
10
-43.3893029909
20
26.4418247184
30
0.0000000000
10
-43.1148979664
20
26.5218613214
30
0.0000000000
10
-42.9253268196
20
26.5397784135
30
0.0000000000
10
-42.8310722205
20
26.5397784135
30
0.0000000000
11
-44.3301584610
21
25.0406921730
31
0.0000000000
11
-44.2926623938
21
25.3740391376
31
0.0000000000
11
-44.1928078725
21
25.6677705782
31
0.0000000000
11
-44.0463661747
21
25.9186156170
31
0.0000000000
11
-43.8626317941
21
26.1286318063
31
0.0000000000
11
-43.6395726788
21
26.3032231652
31
0.0000000000
11
-43.3857022940
21
26.4334913571
31
0.0000000000
11
-43.1125781458
21
26.5131367352
31
0.0000000000
11
-42.8310722205
21
26.5397784135
31
0.0000000000
0
SPLINE
5
4FC
100
AcDbEntity
8
0
100
AcDbSpline
62
9
6
CONTINUOUS
70
0
71
3
72
13
73
9
74
7
42
0.0000001000
43
0.0000001000
44
0.0000000001
12
0.0021511634
22
2.3474898897
32
0.0000000000
13
2.3474898270
23
0.0022186180
33
0.0000000000
40
0.0000000000
40
0.0000000000
40
0.0000000000
40
0.0000000000
40
0.1666651758
40
0.3333351974
40
0.4999996368
40
0.6666642129
40
0.8333347173
40
1.0000000000
40
1.0000000000
40
1.0000000000
40
1.0000000000
10
-44.2765585895
20
24.9870923015
30
0.0000000000
10
-44.2764390815
20
25.1175072398
30
0.0000000000
10
-44.2418334958
20
25.3795912414
30
0.0000000000
10
-44.0902062276
20
25.7449113881
30
0.0000000000
10
-43.8492658283
20
26.0588848310
30
0.0000000000
10
-43.5352925003
20
26.2998252272
30
0.0000000000
10
-43.1699718273
20
26.4514551130
30
0.0000000000
10
-42.9078873675
20
26.4860552865
30
0.0000000000
10
-42.7774723490
20
26.4861785420
30
0.0000000000
11
-44.2765585895
21
24.9870923015
31
0.0000000000
11
-44.2252145075
21
25.3749536416
31
0.0000000000
11
-44.0753184050
21
25.7363574236
31
0.0000000000
11
-43.8370939342
21
26.0467126761
31
0.0000000000
11
-43.5267386861
21
26.2849376799
31
0.0000000000
11
-43.1653339348
21
26.4348344038
31
0.0000000000
11
-42.7774723490
21
26.4861785420
31
0.0000000000
0
SPLINE
5
4FD
100
AcDbEntity
8
0
100
AcDbSpline
62
9
6
CONTINUOUS
70
0
71
3
72
13
73
9
74
7
42
0.0000001000
43
0.0000001000
44
0.0000000001
12
-0.0022186096
22
-2.3474898270
32
0.0000000000
13
-2.3474898897
23
-0.0021511708
33
0.0000000000
40
0.0000000000
40
0.0000000000
40
0.0000000000
40
0.0000000000
40
0.1666652827
40
0.3333357871
40
0.5000003632
40
0.6666648026
40
0.8333348242
40
1.0000000000
40
1.0000000000
40
1.0000000000
40
1.0000000000
10
44.3114793590
20
-27.7678523965
30
0.0000000000
10
44.3113561039
20
-27.8982674150
30
0.0000000000
10
44.2767559297
20
-28.1603518748
30
0.0000000000
10
44.1251260442
20
-28.5256725478
30
0.0000000000
10
43.8841856480
20
-28.8396458759
30
0.0000000000
10
43.5702122051
20
-29.0805862750
30
0.0000000000
10
43.2048920584
20
-29.2322135435
30
0.0000000000
10
42.9428080568
20
-29.2668191286
30
0.0000000000
10
42.8123931185
20
-29.2669386370
30
0.0000000000
11
44.3114793590
21
-27.7678523965
31
0.0000000000
11
44.2601352208
21
-28.1557139823
31
0.0000000000
11
44.1102384969
21
-28.5171187337
31
0.0000000000
11
43.8720134931
21
-28.8274739817
31
0.0000000000
11
43.5616582406
21
-29.0656984525
31
0.0000000000
11
43.2002544586
21
-29.2155945550
31
0.0000000000
11
42.8123931185
21
-29.2669386370
31
0.0000000000
0
SPLINE
5
4FE
100
AcDbEntity
8
0
100
AcDbSpline
62
9
6
CONTINUOUS
70
0
71
3
72
13
73
9
74
7
42
0.0000001000
43
0.0000001000
44
0.0000000001
12
-2.3474898270
22
0.0022186096
32
0.0000000000
13
-0.0021511708
23
2.3474898897
33
0.0000000000
40
0.0000000000
40
0.0000000000
40
0.0000000000
40
0.0000000000
40
0.1666652827
40
0.3333357871
40
0.5000003632
40
0.6666648026
40
0.8333348242
40
1.0000000000
40
1.0000000000
40
1.0000000000
40
1.0000000000
10
-42.8123931185
20
-29.2669386370
30
0.0000000000
10
-42.9428081370
20
-29.2668153819
30
0.0000000000
10
-43.2048925968
20
-29.2322152077
30
0.0000000000
10
-43.5702132698
20
-29.0805853222
30
0.0000000000
10
-43.8841865978
20
-28.8396449260
30
0.0000000000
10
-44.1251269970
20
-28.5256714831
30
0.0000000000
10
-44.2767542655
20
-28.1603513364
30
0.0000000000
10
-44.3113598506
20
-27.8982673349
30
0.0000000000
10
-44.3114793590
20
-27.7678523965
30
0.0000000000
11
-42.8123931185
21
-29.2669386370
31
0.0000000000
11
-43.2002547043
21
-29.2155944988
31
0.0000000000
11
-43.5616594556
21
-29.0656977749
31
0.0000000000
11
-43.8720147037
21
-28.8274727711
31
0.0000000000
11
-44.1102391745
21
-28.5171175186
31
0.0000000000
11
-44.2601352770
21
-28.1557137366
31
0.0000000000
11
-44.3114793590
21
-27.7678523965
31
0.0000000000
0
SPLINE
5
4FF
100
AcDbEntity
8
0
100
AcDbSpline
62
9
6
CONTINUOUS
70
0
71
3
72
15
73
11
74
9
42
0.0000001000
43
0.0000001000
44
0.0000000001
12
0.0000968651
22
2.3493453099
32
0.0000000000
13
-2.3493453112
23
-0.0000557716
33
0.0000000000
40
0.0000000000
40
0.0000000000
40
0.0000000000
40
0.0000000000
40
0.1082529036
40
0.2326445304
40
0.3673661662
40
0.5066559867
40
0.6451150967
40
0.7773331788
40
0.8974456469
40
1.0000000000
40
1.0000000000
40
1.0000000000
40
1.0000000000
10
36.0255177166
20
13.6371933670
30
0.0000000000
10
36.0255212120
20
13.7219678508
30
0.0000000000
10
36.0100269046
20
13.9045053386
30
0.0000000000
10
35.9335918138
20
14.1837067569
30
0.0000000000
10
35.7910230842
20
14.4638809727
30
0.0000000000
10
35.5846865677
20
14.7157734753
30
0.0000000000
10
35.3302243906
20
14.9156998101
30
0.0000000000
10
35.0530500140
20
15.0506183932
30
0.0000000000
10
34.7825562838
20
15.1210966778
30
0.0000000000
10
34.6078852774
20
15.1351395757
30
0.0000000000
10
34.5275734145
20
15.1351376691
30
0.0000000000
11
36.0255177166
21
13.6371933670
31
0.0000000000
11
36.0039760990
21
13.8906028709
31
0.0000000000
11
35.9267963169
21
14.1724660421
31
0.0000000000
11
35.7832258805
21
14.4545380511
31
0.0000000000
11
35.5758576112
21
14.7076869094
31
0.0000000000
11
35.3200770421
21
14.9086564421
31
0.0000000000
11
35.0407966047
21
15.0446377148
31
0.0000000000
11
34.7677319244
21
15.1158025180
31
0.0000000000
11
34.5275734145
21
15.1351376691
31
0.0000000000
0
SPLINE
5
500
100
AcDbEntity
8
0
100
AcDbSpline
62
9
6
CONTINUOUS
70
0
71
3
72
15
73
11
74
9
42
0.0000001000
43
0.0000001000
44
0.0000000001
12
2.3493453099
22
-0.0000968651
32
0.0000000000
13
-0.0000557716
23
2.3493453112
33
0.0000000000
40
0.0000000000
40
0.0000000000
40
0.0000000000
40
0.0000000000
40
0.1082529036
40
0.2326445304
40
0.3673661662
40
0.5066559867
40
0.6451150967
40
0.7773331788
40
0.8974456469
40
1.0000000000
40
1.0000000000
40
1.0000000000
40
1.0000000000
10
34.5275734145
20
-17.9158977641
30
0.0000000000
10
34.6123478983
20
-17.9159012595
30
0.0000000000
10
34.7948853861
20
-17.9004069521
30
0.0000000000
10
35.0740868044
20
-17.8239718613
30
0.0000000000
10
35.3542610202
20
-17.6814031317
30
0.0000000000
10
35.6061535228
20
-17.4750666152
30
0.0000000000
10
35.8060798576
20
-17.2206044381
30
0.0000000000
10
35.9409984407
20
-16.9434300615
30
0.0000000000
10
36.0114767253
20
-16.6729363313
30
0.0000000000
10
36.0255196232
20
-16.4982653249
30
0.0000000000
10
36.0255177166
20
-16.4179534620
30
0.0000000000
11
34.5275734145
21
-17.9158977641
31
0.0000000000
11
34.7809829184
21
-17.8943561465
31
0.0000000000
11
35.0628460896
21
-17.8171763644
31
0.0000000000
11
35.3449180986
21
-17.6736059280
31
0.0000000000
11
35.5980669569
21
-17.4662376587
31
0.0000000000
11
35.7990364896
21
-17.2104570896
31
0.0000000000
11
35.9350177624
21
-16.9311766522
31
0.0000000000
11
36.0061825655
21
-16.6581119719
31
0.0000000000
11
36.0255177166
21
-16.4179534620
31
0.0000000000
0
SPLINE
5
501
100
AcDbEntity
8
0
100
AcDbSpline
62
9
6
CONTINUOUS
70
0
71
3
72
15
73
11
74
9
42
0.0000001000
43
0.0000001000
44
0.0000000001
12
-0.0000968651
22
-2.3493453099
32
0.0000000000
13
2.3493453112
23
0.0000557716
33
0.0000000000
40
0.0000000000
40
0.0000000000
40
0.0000000000
40
0.0000000000
40
0.1082529036
40
0.2326445304
40
0.3673661662
40
0.5066559867
40
0.6451150967
40
0.7773331788
40
0.8974456469
40
1.0000000000
40
1.0000000000
40
1.0000000000
40
1.0000000000
10
28.9744822834
20
-16.4179534620
30
0.0000000000
10
28.9744787880
20
-16.5027279458
30
0.0000000000
10
28.9899730954
20
-16.6852654336
30
0.0000000000
10
29.0664081862
20
-16.9644668519
30
0.0000000000
10
29.2089769158
20
-17.2446410677
30
0.0000000000
10
29.4153134323
20
-17.4965335703
30
0.0000000000
10
29.6697756094
20
-17.6964599051
30
0.0000000000
10
29.9469499860
20
-17.8313784883
30
0.0000000000
10
30.2174437162
20
-17.9018567728
30
0.0000000000
10
30.3921147226
20
-17.9158996707
30
0.0000000000
10
30.4724265855
20
-17.9158977641
30
0.0000000000
11
28.9744822834
21
-16.4179534620
31
0.0000000000
11
28.9960239010
21
-16.6713629659
31
0.0000000000
11
29.0732036831
21
-16.9532261371
31
0.0000000000
11
29.2167741195
21
-17.2352981461
31
0.0000000000
11
29.4241423888
21
-17.4884470044
31
0.0000000000
11
29.6799229579
21
-17.6894165371
31
0.0000000000
11
29.9592033953
21
-17.8253978099
31
0.0000000000
11
30.2322680756
21
-17.8965626130
31
0.0000000000
11
30.4724265855
21
-17.9158977641
31
0.0000000000
0
SPLINE
5
502
100
AcDbEntity
8
0
100
AcDbSpline
62
9
6
CONTINUOUS
70
0
71
3
72
15
73
11
74
9
42
0.0000001000
43
0.0000001000
44
0.0000000001
12
-2.3493453099
22
0.0000968651
32
0.0000000000
13
0.0000557716
23
-2.3493453112
33
0.0000000000
40
0.0000000000
40
0.0000000000
40
0.0000000000
40
0.0000000000
40
0.1082529036
40
0.2326445304
40
0.3673661662
40
0.5066559867
40
0.6451150967
40
0.7773331788
40
0.8974456469
40
1.0000000000
40
1.0000000000
40
1.0000000000
40
1.0000000000
10
30.4724265855
20
15.1351376691
30
0.0000000000
10
30.3876521017
20
15.1351411644
30
0.0000000000
10
30.2051146139
20
15.1196468571
30
0.0000000000
10
29.9259131956
20
15.0432117663
30
0.0000000000
10
29.6457389798
20
14.9006430367
30
0.0000000000
10
29.3938464772
20
14.6943065202
30
0.0000000000
10
29.1939201424
20
14.4398443431
30
0.0000000000
10
29.0590015593
20
14.1626699665
30
0.0000000000
10
28.9885232747
20
13.8921762363
30
0.0000000000
10
28.9744803768
20
13.7175052299
30
0.0000000000
10
28.9744822834
20
13.6371933670
30
0.0000000000
11
30.4724265855
21
15.1351376691
31
0.0000000000
11
30.2190170816
21
15.1135960515
31
0.0000000000
11
29.9371539104
21
15.0364162694
31
0.0000000000
11
29.6550819014
21
14.8928458330
31
0.0000000000
11
29.4019330431
21
14.6854775636
31
0.0000000000
11
29.2009635104
21
14.4296969946
31
0.0000000000
11
29.0649822376
21
14.1504165572
31
0.0000000000
11
28.9938174345
21
13.8773518769
31
0.0000000000
11
28.9744822834
21
13.6371933670
31
0.0000000000
0
SPLINE
5
503
100
AcDbEntity
8
0
100
AcDbSpline
62
9
6
CONTINUOUS
70
0
71
3
72
11
73
7
74
5
42
0.0000001000
43
0.0000001000
44
0.0000000001
12
-0.0005344345
22
-0.7799315481
32
0.0000000000
13
-0.7799315481
23
-0.0005344345
33
0.0000000000
40
0.0000000000
40
0.0000000000
40
0.0000000000
40
0.0000000000
40
0.2510261123
40
0.5022681319
40
0.7535186565
40
1.0000000000
40
1.0000000000
40
1.0000000000
40
1.0000000000
10
46.2925417368
20
22.7669068782
30
0.0000000000
10
46.2924970178
20
22.7016458167
30
0.0000000000
10
46.2661762088
20
22.5696487079
30
0.0000000000
10
46.1539466240
20
22.4030587128
30
0.0000000000
10
45.9875351888
20
22.2926978382
30
0.0000000000
10
45.8567925996
20
22.2671221250
30
0.0000000000
10
45.7927130743
20
22.2670782157
30
0.0000000000
11
46.2925417368
21
22.7669068782
31
0.0000000000
11
46.2540761048
21
22.5749395152
31
0.0000000000
11
46.1447469090
21
22.4123228937
31
0.0000000000
11
45.9813401304
21
22.3041662338
31
0.0000000000
11
45.7927130743
21
22.2670782157
31
0.0000000000
0
SPLINE
5
504
100
AcDbEntity
8
0
100
AcDbSpline
62
9
6
CONTINUOUS
70
0
71
3
72
11
73
7
74
5
42
0.0000001000
43
0.0000001000
44
0.0000000001
12
0.0005344345
22
0.7799315481
32
0.0000000000
13
0.7799315481
23
0.0005344345
33
0.0000000000
40
0.0000000000
40
0.0000000000
40
0.0000000000
40
0.0000000000
40
0.2510261123
40
0.5022681319
40
0.7535186565
40
1.0000000000
40
1.0000000000
40
1.0000000000
40
1.0000000000
10
32.9074582632
20
28.1523330268
30
0.0000000000
10
32.9075029822
20
28.2175940883
30
0.0000000000
10
32.9338237912
20
28.3495911971
30
0.0000000000
10
33.0460533760
20
28.5161811922
30
0.0000000000
10
33.2124648112
20
28.6265420668
30
0.0000000000
10
33.3432074004
20
28.6521177799
30
0.0000000000
10
33.4072869257
20
28.6521616893
30
0.0000000000
11
32.9074582632
21
28.1523330268
31
0.0000000000
11
32.9459238952
21
28.3443003898
31
0.0000000000
11
33.0552530910
21
28.5069170113
31
0.0000000000
11
33.2186598696
21
28.6150736712
31
0.0000000000
11
33.4072869257
21
28.6521616893
31
0.0000000000
0
SPLINE
5
505
100
AcDbEntity
8
0
100
AcDbSpline
62
7
6
CONTINUOUS
70
0
71
3
72
12
73
8
74
6
42
0.0000001000
43
0.0000001000
44
0.0000000001
12
-0.0437558362
22
-0.9988567175
32
0.0000000000
13
-0.5772432518
23
-0.8163452355
33
0.0000000000
40
0.0000000000
40
0.0000000000
40
0.0000000000
40
0.0000000000
40
0.1141952374
40
0.2758946242
40
0.4804802117
40
0.7227438919
40
1.0000000000
40
1.0000000000
40
1.0000000000
40
1.0000000000
10
-32.9074582632
20
24.7022669032
30
0.0000000000
10
-32.9091238325
20
24.6642453432
30
0.0000000000
10
-32.9376045089
20
24.5746685378
30
0.0000000000
10
-33.0108192916
20
24.4326785800
30
0.0000000000
10
-33.1182059128
20
24.2602062700
30
0.0000000000
10
-33.2539446905
20
24.0607549464
30
0.0000000000
10
-33.3539388532
20
23.9193767453
30
0.0000000000
10
-33.4072869257
20
23.8439311777
30
0.0000000000
11
-32.9074582632
21
24.7022669032
31
0.0000000000
11
-32.9350236969
21
24.5914703998
31
0.0000000000
11
-33.0060036440
21
24.4462159794
31
0.0000000000
11
-33.1125868597
21
24.2716314279
31
0.0000000000
11
-33.2479518925
21
24.0707676867
31
0.0000000000
11
-33.4072869257
21
23.8439311777
31
0.0000000000
0
SPLINE
5
506
100
AcDbEntity
8
0
100
AcDbSpline
62
7
6
CONTINUOUS
70
0
71
3
72
15
73
11
74
9
42
0.0000001000
43
0.0000001000
44
0.0000000001
12
-3.1325954581
22
0.0000000000
32
0.0000000000
13
0.0000000000
23
3.1325954581
33
0.0000000000
40
0.0000000000
40
0.0000000000
40
0.0000000000
40
0.0000000000
40
0.1398914632
40
0.2703965567
40
0.3935620119
40
0.5126294479
40
0.6337941792
40
0.7562415273
40
0.8790113021
40
1.0000000000
40
1.0000000000
40
1.0000000000
40
1.0000000000
10
29.9731812767
20
-18.9144578403
30
0.0000000000
10
29.8271068226
20
-18.9144578403
30
0.0000000000
10
29.5437475680
20
-18.8833057079
30
0.0000000000
10
29.1513323471
20
-18.7523735939
30
0.0000000000
10
28.8116523247
20
-18.5573495920
30
0.0000000000
10
28.5226414329
20
-18.3080725904
30
0.0000000000
10
28.2859828823
20
-18.0094735812
30
0.0000000000
10
28.1086950401
20
-17.6677550557
30
0.0000000000
10
28.0001494321
20
-17.2987213197
30
0.0000000000
10
27.9759222072
20
-17.0435349860
30
0.0000000000
10
27.9759222072
20
-16.9171987708
30
0.0000000000
11
29.9731812767
21
-18.9144578403
31
0.0000000000
11
29.5375916767
21
-18.8664847684
31
0.0000000000
11
29.1497731210
21
-18.7371391665
31
0.0000000000
11
28.8151827298
21
-18.5450137776
31
0.0000000000
11
28.5327350809
21
-18.3014055937
31
0.0000000000
11
28.2969826376
21
-18.0039385451
31
0.0000000000
11
28.1203143120
21
-17.6634677095
31
0.0000000000
11
28.0118036644
21
-17.2945051112
31
0.0000000000
11
27.9759222072
21
-16.9171987708
31
0.0000000000
0
SPLINE
5
507
100
AcDbEntity
8
0
100
AcDbSpline
62
9
6
CONTINUOUS
70
0
71
3
72
15
73
11
74
9
42
0.0000001000
43
0.0000001000
44
0.0000000001
12
0.0020791203
22
-3.1317049848
32
0.0000000000
13
3.1317049674
23
-0.0021052006
33
0.0000000000
40
0.0000000000
40
0.0000000000
40
0.0000000000
40
0.0000000000
40
0.1081493845
40
0.2324588901
40
0.3671653957
40
0.5065006839
40
0.6450300731
40
0.7772994792
40
0.8974091594
40
1.0000000000
40
1.0000000000
40
1.0000000000
40
1.0000000000
10
28.4751675160
20
-16.4179534620
30
0.0000000000
10
28.4752424678
20
-16.5308507842
30
0.0000000000
10
28.4960315277
20
-16.7739655999
30
0.0000000000
10
28.5980234309
20
-17.1458916387
30
0.0000000000
10
28.7881047214
20
-17.5192783721
30
0.0000000000
10
29.0631719829
20
-17.8551648538
30
0.0000000000
10
29.4024044540
20
-18.1219018923
30
0.0000000000
10
29.7718820423
20
-18.3020234931
30
0.0000000000
10
30.1324708358
20
-18.3962500433
30
0.0000000000
10
30.3653318371
20
-18.4151405401
30
0.0000000000
10
30.4724265855
20
-18.4152125315
30
0.0000000000
11
28.4751675160
21
-16.4179534620
31
0.0000000000
11
28.5040632769
21
-16.7554106204
31
0.0000000000
11
28.6070307940
21
-17.1308474207
31
0.0000000000
11
28.7984468199
21
-17.5067818781
31
0.0000000000
11
29.0749171636
21
-17.8443787960
31
0.0000000000
11
29.4159480297
21
-18.1125378127
31
0.0000000000
11
29.7882728355
21
-18.2940860953
31
0.0000000000
11
30.1521970652
21
-18.3891997047
31
0.0000000000
11
30.4724265855
21
-18.4152125315
31
0.0000000000
0
SPLINE
5
508
100
AcDbEntity
8
0
100
AcDbSpline
62
7
6
CONTINUOUS
70
0
71
3
72
15
73
11
74
9
42
0.0000001000
43
0.0000001000
44
0.0000000001
12
0.0000000000
22
-3.1325954581
32
0.0000000000
13
-3.1325954581
23
0.0000000000
33
0.0000000000
40
0.0000000000
40
0.0000000000
40
0.0000000000
40
0.0000000000
40
0.1398914632
40
0.2703965567
40
0.3935620119
40
0.5126294479
40
0.6337941792
40
0.7562415273
40
0.8790113021
40
1.0000000000
40
1.0000000000
40
1.0000000000
40
1.0000000000
10
37.0240777928
20
-16.9171987708
30
0.0000000000
10
37.0240777928
20
-17.0632732249
30
0.0000000000
10
36.9929256604
20
-17.3466324795
30
0.0000000000
10
36.8619935464
20
-17.7390477004
30
0.0000000000
10
36.6669695445
20
-18.0787277228
30
0.0000000000
10
36.4176925429
20
-18.3677386146
30
0.0000000000
10
36.1190935337
20
-18.6043971652
30
0.0000000000
10
35.7773750082
20
-18.7816850074
30
0.0000000000
10
35.4083412722
20
-18.8902306155
30
0.0000000000
10
35.1531549385
20
-18.9144578403
30
0.0000000000
10
35.0268187233
20
-18.9144578403
30
0.0000000000
11
37.0240777928
21
-16.9171987708
31
0.0000000000
11
36.9761047209
21
-17.3527883708
31
0.0000000000
11
36.8467591190
21
-17.7406069265
31
0.0000000000
11
36.6546337301
21
-18.0751973177
31
0.0000000000
11
36.4110255462
21
-18.3576449666
31
0.0000000000
11
36.1135584976
21
-18.5933974099
31
0.0000000000
11
35.7730876620
21
-18.7700657355
31
0.0000000000
11
35.4041250637
21
-18.8785763831
31
0.0000000000
11
35.0268187233
21
-18.9144578403
31
0.0000000000
0
SPLINE
5
509
100
AcDbEntity
8
0
100
AcDbSpline
62
9
6
CONTINUOUS
70
0
71
3
72
15
73
11
74
9
42
0.0000001000
43
0.0000001000
44
0.0000000001
12
3.1317049848
22
0.0020791203
32
0.0000000000
13
0.0021052006
23
3.1317049674
33
0.0000000000
40
0.0000000000
40
0.0000000000
40
0.0000000000
40
0.0000000000
40
0.1081493845
40
0.2324588901
40
0.3671653957
40
0.5065006839
40
0.6450300731
40
0.7772994792
40
0.8974091594
40
1.0000000000
40
1.0000000000
40
1.0000000000
40
1.0000000000
10
34.5275734145
20
-18.4152125315
30
0.0000000000
10
34.6404707367
20
-18.4151375797
30
0.0000000000
10
34.8835855524
20
-18.3943485198
30
0.0000000000
10
35.2555115912
20
-18.2923566166
30
0.0000000000
10
35.6288983246
20
-18.1022753261
30
0.0000000000
10
35.9647848063
20
-17.8272080646
30
0.0000000000
10
36.2315218448
20
-17.4879755935
30
0.0000000000
10
36.4116434456
20
-17.1184980052
30
0.0000000000
10
36.5058699958
20
-16.7579092117
30
0.0000000000
10
36.5247604926
20
-16.5250482104
30
0.0000000000
10
36.5248324840
20
-16.4179534620
30
0.0000000000
11
34.5275734145
21
-18.4152125315
31
0.0000000000
11
34.8650305729
21
-18.3863167706
31
0.0000000000
11
35.2404673732
21
-18.2833492536
31
0.0000000000
11
35.6164018306
21
-18.0919332276
31
0.0000000000
11
35.9539987485
21
-17.8154628840
31
0.0000000000
11
36.2221577652
21
-17.4744320178
31
0.0000000000
11
36.4037060478
21
-17.1021072120
31
0.0000000000
11
36.4988196572
21
-16.7381829823
31
0.0000000000
11
36.5248324840
21
-16.4179534620
31
0.0000000000
0
SPLINE
5
50A
100
AcDbEntity
8
0
100
AcDbSpline
62
7
6
CONTINUOUS
70
0
71
3
72
15
73
11
74
9
42
0.0000001000
43
0.0000001000
44
0.0000000001
12
0.0000000000
22
3.1325954581
32
0.0000000000
13
3.1325954581
23
0.0000000000
33
0.0000000000
40
0.0000000000
40
0.0000000000
40
0.0000000000
40
0.0000000000
40
0.1398914632
40
0.2703965567
40
0.3935620119
40
0.5126294479
40
0.6337941792
40
0.7562415273
40
0.8790113021
40
1.0000000000
40
1.0000000000
40
1.0000000000
40
1.0000000000
10
27.9759222072
20
14.1364386758
30
0.0000000000
10
27.9759222072
20
14.2825131299
30
0.0000000000
10
28.0070743396
20
14.5658723845
30
0.0000000000
10
28.1380064536
20
14.9582876054
30
0.0000000000
10
28.3330304555
20
15.2979676278
30
0.0000000000
10
28.5823074571
20
15.5869785196
30
0.0000000000
10
28.8809064663
20
15.8236370702
30
0.0000000000
10
29.2226249918
20
16.0009249124
30
0.0000000000
10
29.5916587278
20
16.1094705204
30
0.0000000000
10
29.8468450615
20
16.1336977453
30
0.0000000000
10
29.9731812767
20
16.1336977453
30
0.0000000000
11
27.9759222072
21
14.1364386758
31
0.0000000000
11
28.0238952791
21
14.5720282758
31
0.0000000000
11
28.1532408810
21
14.9598468315
31
0.0000000000
11
28.3453662699
21
15.2944372227
31
0.0000000000
11
28.5889744538
21
15.5768848716
31
0.0000000000
11
28.8864415024
21
15.8126373149
31
0.0000000000
11
29.2269123380
21
15.9893056405
31
0.0000000000
11
29.5958749363
21
16.0978162881
31
0.0000000000
11
29.9731812767
21
16.1336977453
31
0.0000000000
0
SPLINE
5
50B
100
AcDbEntity
8
0
100
AcDbSpline
62
9
6
CONTINUOUS
70
0
71
3
72
15
73
11
74
9
42
0.0000001000
43
0.0000001000
44
0.0000000001
12
-3.1317049848
22
-0.0020791203
32
0.0000000000
13
-0.0021052006
23
-3.1317049674
33
0.0000000000
40
0.0000000000
40
0.0000000000
40
0.0000000000
40
0.0000000000
40
0.1081493845
40
0.2324588901
40
0.3671653957
40
0.5065006839
40
0.6450300731
40
0.7772994792
40
0.8974091594
40
1.0000000000
40
1.0000000000
40
1.0000000000
40
1.0000000000
10
30.4724265855
20
15.6344524365
30
0.0000000000
10
30.3595292633
20
15.6343774847
30
0.0000000000
10
30.1164144476
20
15.6135884248
30
0.0000000000
10
29.7444884088
20
15.5115965216
30
0.0000000000
10
29.3711016754
20
15.3215152311
30
0.0000000000
10
29.0352151937
20
15.0464479696
30
0.0000000000
10
28.7684781552
20
14.7072154985
30
0.0000000000
10
28.5883565544
20
14.3377379102
30
0.0000000000
10
28.4941300042
20
13.9771491166
30
0.0000000000
10
28.4752395074
20
13.7442881154
30
0.0000000000
10
28.4751675160
20
13.6371933670
30
0.0000000000
11
30.4724265855
21
15.6344524365
31
0.0000000000
11
30.1349694271
21
15.6055566756
31
0.0000000000
11
29.7595326268
21
15.5025891585
31
0.0000000000
11
29.3835981694
21
15.3111731326
31
0.0000000000
11
29.0460012515
21
15.0347027889
31
0.0000000000
11
28.7778422348
21
14.6936719227
31
0.0000000000
11
28.5962939522
21
14.3213471170
31
0.0000000000
11
28.5011803428
21
13.9574228873
31
0.0000000000
11
28.4751675160
21
13.6371933670
31
0.0000000000
0
SPLINE
5
50C
100
AcDbEntity
8
0
100
AcDbSpline
62
7
6
CONTINUOUS
70
0
71
3
72
15
73
11
74
9
42
0.0000001000
43
0.0000001000
44
0.0000000001
12
3.1325954581
22
0.0000000000
32
0.0000000000
13
0.0000000000
23
-3.1325954581
33
0.0000000000
40
0.0000000000
40
0.0000000000
40
0.0000000000
40
0.0000000000
40
0.1398914632
40
0.2703965567
40
0.3935620119
40
0.5126294479
40
0.6337941792
40
0.7562415273
40
0.8790113021
40
1.0000000000
40
1.0000000000
40
1.0000000000
40
1.0000000000
10
35.0268187233
20
16.1336977453
30
0.0000000000
10
35.1728931774
20
16.1336977453
30
0.0000000000
10
35.4562524320
20
16.1025456129
30
0.0000000000
10
35.8486676529
20
15.9716134989
30
0.0000000000
10
36.1883476753
20
15.7765894970
30
0.0000000000
10
36.4773585671
20
15.5273124954
30
0.0000000000
10
36.7140171177
20
15.2287134862
30
0.0000000000
10
36.8913049599
20
14.8869949607
30
0.0000000000
10
36.9998505679
20
14.5179612247
30
0.0000000000
10
37.0240777928
20
14.2627748910
30
0.0000000000
10
37.0240777928
20
14.1364386758
30
0.0000000000
11
35.0268187233
21
16.1336977453
31
0.0000000000
11
35.4624083233
21
16.0857246734
31
0.0000000000
11
35.8502268790
21
15.9563790715
31
0.0000000000
11
36.1848172702
21
15.7642536826
31
0.0000000000
11
36.4672649191
21
15.5206454986
31
0.0000000000
11
36.7030173624
21
15.2231784501
31
0.0000000000
11
36.8796856880
21
14.8827076145
31
0.0000000000
11
36.9881963356
21
14.5137450162
31
0.0000000000
11
37.0240777928
21
14.1364386758
31
0.0000000000
0
SPLINE
5
50D
100
AcDbEntity
8
0
100
AcDbSpline
62
9
6
CONTINUOUS
70
0
71
3
72
15
73
11
74
9
42
0.0000001000
43
0.0000001000
44
0.0000000001
12
-0.0020791203
22
3.1317049848
32
0.0000000000
13
-3.1317049674
23
0.0021052006
33
0.0000000000
40
0.0000000000
40
0.0000000000
40
0.0000000000
40
0.0000000000
40
0.1081493845
40
0.2324588901
40
0.3671653957
40
0.5065006839
40
0.6450300731
40
0.7772994792
40
0.8974091594
40
1.0000000000
40
1.0000000000
40
1.0000000000
40
1.0000000000
10
36.5248324840
20
13.6371933670
30
0.0000000000
10
36.5247575322
20
13.7500906892
30
0.0000000000
10
36.5039684723
20
13.9932055049
30
0.0000000000
10
36.4019765691
20
14.3651315437
30
0.0000000000
10
36.2118952786
20
14.7385182771
30
0.0000000000
10
35.9368280171
20
15.0744047588
30
0.0000000000
10
35.5975955460
20
15.3411417973
30
0.0000000000
10
35.2281179577
20
15.5212633981
30
0.0000000000
10
34.8675291642
20
15.6154899483
30
0.0000000000
10
34.6346681629
20
15.6343804451
30
0.0000000000
10
34.5275734145
20
15.6344524365
30
0.0000000000
11
36.5248324840
21
13.6371933670
31
0.0000000000
11
36.4959367231
21
13.9746505254
31
0.0000000000
11
36.3929692060
21
14.3500873257
31
0.0000000000
11
36.2015531801
21
14.7260217831
31
0.0000000000
11
35.9250828365
21
15.0636187009
31
0.0000000000
11
35.5840519703
21
15.3317777177
31
0.0000000000
11
35.2117271645
21
15.5133260003
31
0.0000000000
11
34.8478029348
21
15.6084396097
31
0.0000000000
11
34.5275734145
21
15.6344524365
31
0.0000000000
0
SPLINE
5
50E
100
AcDbEntity
8
0
100
AcDbSpline
62
7
6
CONTINUOUS
70
0
71
3
72
12
73
8
74
6
42
0.0000001000
43
0.0000001000
44
0.0000000001
12
0.0000000000
22
-1.5634768652
32
0.0000000000
13
-1.5634768652
23
0.0000000000
33
0.0000000000
40
0.0000000000
40
0.0000000000
40
0.0000000000
40
0.0000000000
40
0.1991627327
40
0.4001122235
40
0.5995966163
40
0.8009897561
40
1.0000000000
40
1.0000000000
40
1.0000000000
40
1.0000000000
10
42.7047623085
20
-26.6957515290
30
0.0000000000
10
42.7047623085
20
-26.7995469706
30
0.0000000000
10
42.6717862951
20
-27.0095193935
30
0.0000000000
10
42.5277718774
20
-27.2924897248
30
0.0000000000
10
42.3023250860
20
-27.5180430499
30
0.0000000000
10
42.0192079642
20
-27.6621702403
30
0.0000000000
10
41.8090874522
20
-27.6951423560
30
0.0000000000
10
41.7053714815
20
-27.6951423560
30
0.0000000000
11
42.7047623085
21
-26.6957515290
31
0.0000000000
11
42.6562929006
21
-27.0033424260
31
0.0000000000
11
42.5138649072
21
-27.2833839651
31
0.0000000000
11
42.2933768201
21
-27.5039738496
31
0.0000000000
11
42.0127327148
21
-27.6467471544
31
0.0000000000
11
41.7053714815
21
-27.6951423560
31
0.0000000000
0
SPLINE
5
50F
100
AcDbEntity
8
0
100
AcDbSpline
62
9
6
CONTINUOUS
70
0
71
3
72
12
73
8
74
6
42
0.0000001000
43
0.0000001000
44
0.0000000001
12
-0.0019034578
22
-1.5628054810
32
0.0000000000
13
-1.5628054810
23
-0.0019034578
33
0.0000000000
40
0.0000000000
40
0.0000000000
40
0.0000000000
40
0.0000000000
40
0.1999588935
40
0.3999785630
40
0.6000214370
40
0.8000411065
40
1.0000000000
40
1.0000000000
40
1.0000000000
40
1.0000000000
10
42.6337020522
20
-26.6246912727
30
0.0000000000
10
42.6335751811
20
-26.7288568909
30
0.0000000000
10
42.6002007678
20
-26.9386419757
30
0.0000000000
10
42.4557888722
20
-27.2214068212
30
0.0000000000
10
42.2310267737
20
-27.4461689197
30
0.0000000000
10
41.9482619282
20
-27.5905808153
30
0.0000000000
10
41.7384768434
20
-27.6239552286
30
0.0000000000
10
41.6343112252
20
-27.6240820997
30
0.0000000000
11
42.6337020522
21
-26.6246912727
31
0.0000000000
11
42.5844877206
21
-26.9332887105
31
0.0000000000
11
42.4424064888
21
-27.2117249229
31
0.0000000000
11
42.2213448754
21
-27.4327865363
31
0.0000000000
11
41.9429086630
21
-27.5748677681
31
0.0000000000
11
41.6343112252
21
-27.6240820997
31
0.0000000000
0
SPLINE
5
510
100
AcDbEntity
8
0
100
AcDbSpline
62
7
6
CONTINUOUS
70
0
71
3
72
12
73
8
74
6
42
0.0000001000
43
0.0000001000
44
0.0000000001
12
-1.5634768652
22
0.0000000000
32
0.0000000000
13
0.0000000000
23
1.5634768652
33
0.0000000000
40
0.0000000000
40
0.0000000000
40
0.0000000000
40
0.0000000000
40
0.1991627327
40
0.4001122235
40
0.5995966163
40
0.8009897561
40
1.0000000000
40
1.0000000000
40
1.0000000000
40
1.0000000000
10
-41.7053714815
20
-27.6951423560
30
0.0000000000
10
-41.8091669231
20
-27.6951423560
30
0.0000000000
10
-42.0191393459
20
-27.6621663426
30
0.0000000000
10
-42.3021096773
20
-27.5181519249
30
0.0000000000
10
-42.5276630024
20
-27.2927051335
30
0.0000000000
10
-42.6717901928
20
-27.0095880117
30
0.0000000000
10
-42.7047623085
20
-26.7994674997
30
0.0000000000
10
-42.7047623085
20
-26.6957515290
30
0.0000000000
11
-41.7053714815
21
-27.6951423560
31
0.0000000000
11
-42.0129623785
21
-27.6466729481
31
0.0000000000
11
-42.2930039176
21
-27.5042449547
31
0.0000000000
11
-42.5135938021
21
-27.2837568676
31
0.0000000000
11
-42.6563671069
21
-27.0031127623
31
0.0000000000
11
-42.7047623085
21
-26.6957515290
31
0.0000000000
0
SPLINE
5
511
100
AcDbEntity
8
0
100
AcDbSpline
62
9
6
CONTINUOUS
70
0
71
3
72
12
73
8
74
6
42
0.0000001000
43
0.0000001000
44
0.0000000001
12
-1.5628054810
22
0.0019034578
32
0.0000000000
13
-0.0019034578
23
1.5628054810
33
0.0000000000
40
0.0000000000
40
0.0000000000
40
0.0000000000
40
0.0000000000
40
0.1999588935
40
0.3999785630
40
0.6000214370
40
0.8000411065
40
1.0000000000
40
1.0000000000
40
1.0000000000
40
1.0000000000
10
-41.6343112252
20
-27.6240820997
30
0.0000000000
10
-41.7384768434
20
-27.6239552286
30
0.0000000000
10
-41.9482619282
20
-27.5905808153
30
0.0000000000
10
-42.2310267737
20
-27.4461689197
30
0.0000000000
10
-42.4557888722
20
-27.2214068212
30
0.0000000000
10
-42.6002007678
20
-26.9386419757
30
0.0000000000
10
-42.6335751811
20
-26.7288568909
30
0.0000000000
10
-42.6337020522
20
-26.6246912727
30
0.0000000000
11
-41.6343112252
21
-27.6240820997
31
0.0000000000
11
-41.9429086630
21
-27.5748677681
31
0.0000000000
11
-42.2213448754
21
-27.4327865363
31
0.0000000000
11
-42.4424064888
21
-27.2117249229
31
0.0000000000
11
-42.5844877206
21
-26.9332887105
31
0.0000000000
11
-42.6337020522
21
-26.6246912727
31
0.0000000000
0
SPLINE
5
512
100
AcDbEntity
8
0
100
AcDbSpline
62
7
6
CONTINUOUS
70
0
71
3
72
12
73
8
74
6
42
0.0000001000
43
0.0000001000
44
0.0000000001
12
1.5634768652
22
0.0000000000
32
0.0000000000
13
0.0000000000
23
-1.5634768652
33
0.0000000000
40
0.0000000000
40
0.0000000000
40
0.0000000000
40
0.0000000000
40
0.1991627327
40
0.4001122235
40
0.5995966163
40
0.8009897561
40
1.0000000000
40
1.0000000000
40
1.0000000000
40
1.0000000000
10
41.7053714815
20
24.9143822610
30
0.0000000000
10
41.8091669231
20
24.9143822610
30
0.0000000000
10
42.0191393459
20
24.8814062476
30
0.0000000000
10
42.3021096773
20
24.7373918299
30
0.0000000000
10
42.5276630024
20
24.5119450385
30
0.0000000000
10
42.6717901928
20
24.2288279167
30
0.0000000000
10
42.7047623085
20
24.0187074047
30
0.0000000000
10
42.7047623085
20
23.9149914340
30
0.0000000000
11
41.7053714815
21
24.9143822610
31
0.0000000000
11
42.0129623785
21
24.8659128531
31
0.0000000000
11
42.2930039176
21
24.7234848597
31
0.0000000000
11
42.5135938021
21
24.5029967726
31
0.0000000000
11
42.6563671069
21
24.2223526673
31
0.0000000000
11
42.7047623085
21
23.9149914340
31
0.0000000000
0
SPLINE
5
513
100
AcDbEntity
8
0
100
AcDbSpline
62
9
6
CONTINUOUS
70
0
71
3
72
12
73
8
74
6
42
0.0000001000
43
0.0000001000
44
0.0000000001
12
1.5628054810
22
-0.0019034578
32
0.0000000000
13
0.0019034578
23
-1.5628054810
33
0.0000000000
40
0.0000000000
40
0.0000000000
40
0.0000000000
40
0.0000000000
40
0.1999588935
40
0.3999785630
40
0.6000214370
40
0.8000411065
40
1.0000000000
40
1.0000000000
40
1.0000000000
40
1.0000000000
10
41.6343112252
20
24.8433220047
30
0.0000000000
10
41.7384768434
20
24.8431951336
30
0.0000000000
10
41.9482619282
20
24.8098207203
30
0.0000000000
10
42.2310267737
20
24.6654088247
30
0.0000000000
10
42.4557888722
20
24.4406467262
30
0.0000000000
10
42.6002007678
20
24.1578818807
30
0.0000000000
10
42.6335751811
20
23.9480967959
30
0.0000000000
10
42.6337020522
20
23.8439311777
30
0.0000000000
11
41.6343112252
21
24.8433220047
31
0.0000000000
11
41.9429086630
21
24.7941076731
31
0.0000000000
11
42.2213448754
21
24.6520264413
31
0.0000000000
11
42.4424064888
21
24.4309648279
31
0.0000000000
11
42.5844877206
21
24.1525286155
31
0.0000000000
11
42.6337020522
21
23.8439311777
31
0.0000000000
0
SPLINE
5
514
100
AcDbEntity
8
0
100
AcDbSpline
62
7
6
CONTINUOUS
70
0
71
3
72
12
73
8
74
6
42
0.0000001000
43
0.0000001000
44
0.0000000001
12
0.0000000000
22
1.5634768652
32
0.0000000000
13
1.5634768652
23
0.0000000000
33
0.0000000000
40
0.0000000000
40
0.0000000000
40
0.0000000000
40
0.0000000000
40
0.1991627327
40
0.4001122235
40
0.5995966163
40
0.8009897561
40
1.0000000000
40
1.0000000000
40
1.0000000000
40
1.0000000000
10
-42.7047623085
20
23.9149914340
30
0.0000000000
10
-42.7047623085
20
24.0187868756
30
0.0000000000
10
-42.6717862951
20
24.2287592984
30
0.0000000000
10
-42.5277718774
20
24.5117296298
30
0.0000000000
10
-42.3023250860
20
24.7372829549
30
0.0000000000
10
-42.0192079642
20
24.8814101453
30
0.0000000000
10
-41.8090874522
20
24.9143822610
30
0.0000000000
10
-41.7053714815
20
24.9143822610
30
0.0000000000
11
-42.7047623085
21
23.9149914340
31
0.0000000000
11
-42.6562929006
21
24.2225823309
31
0.0000000000
11
-42.5138649072
21
24.5026238701
31
0.0000000000
11
-42.2933768201
21
24.7232137546
31
0.0000000000
11
-42.0127327148
21
24.8659870594
31
0.0000000000
11
-41.7053714815
21
24.9143822610
31
0.0000000000
0
SPLINE
5
515
100
AcDbEntity
8
0
100
AcDbSpline
62
9
6
CONTINUOUS
70
0
71
3
72
12
73
8
74
6
42
0.0000001000
43
0.0000001000
44
0.0000000001
12
0.0019034578
22
1.5628054810
32
0.0000000000
13
1.5628054810
23
0.0019034578
33
0.0000000000
40
0.0000000000
40
0.0000000000
40
0.0000000000
40
0.0000000000
40
0.1999588935
40
0.3999785630
40
0.6000214370
40
0.8000411065
40
1.0000000000
40
1.0000000000
40
1.0000000000
40
1.0000000000
10
-42.6337020522
20
23.8439311777
30
0.0000000000
10
-42.6335751811
20
23.9480967959
30
0.0000000000
10
-42.6002007678
20
24.1578818807
30
0.0000000000
10
-42.4557888722
20
24.4406467262
30
0.0000000000
10
-42.2310267737
20
24.6654088247
30
0.0000000000
10
-41.9482619282
20
24.8098207203
30
0.0000000000
10
-41.7384768434
20
24.8431951336
30
0.0000000000
10
-41.6343112252
20
24.8433220047
30
0.0000000000
11
-42.6337020522
21
23.8439311777
31
0.0000000000
11
-42.5844877206
21
24.1525286155
31
0.0000000000
11
-42.4424064888
21
24.4309648279
31
0.0000000000
11
-42.2213448754
21
24.6520264413
31
0.0000000000
11
-41.9429086630
21
24.7941076731
31
0.0000000000
11
-41.6343112252
21
24.8433220047
31
0.0000000000
0
SPLINE
5
516
100
AcDbEntity
8
0
100
AcDbSpline
62
9
6
CONTINUOUS
70
0
71
3
72
14
73
10
74
8
42
0.0000001000
43
0.0000001000
44
0.0000000001
12
2.6643510476
22
0.0000113290
32
0.0000000000
13
0.0002944461
23
-2.6643510313
33
0.0000000000
40
0.0000000000
40
0.0000000000
40
0.0000000000
40
0.0000000000
40
0.1427380922
40
0.2855639514
40
0.4285449634
40
0.5715074657
40
0.7144788568
40
0.8572613159
40
1.0000000000
40
1.0000000000
40
1.0000000000
40
1.0000000000
10
43.4536890046
20
27.5130500389
30
0.0000000000
10
43.5804571331
20
27.5130505779
30
0.0000000000
10
43.8349851973
20
27.4844307962
30
0.0000000000
10
44.1971252291
20
27.3577568601
30
0.0000000000
10
44.5223523431
20
27.1534968994
30
0.0000000000
10
44.7939597271
20
26.8818676894
30
0.0000000000
10
44.9981674737
20
26.5566654915
30
0.0000000000
10
45.1248216765
20
26.1945677176
30
0.0000000000
10
45.1534160768
20
25.9400776105
30
0.0000000000
10
45.1534300864
20
25.8133089571
30
0.0000000000
11
43.4536890046
21
27.5130500389
31
0.0000000000
11
43.8316056228
21
27.4705005928
31
0.0000000000
11
44.1908179216
21
27.3448985749
31
0.0000000000
11
44.5134101963
21
27.1422699664
31
0.0000000000
11
44.7827376532
21
26.8729202356
31
0.0000000000
11
44.9853284001
21
26.5503344514
31
0.0000000000
11
45.1108802897
21
26.1912271227
31
0.0000000000
11
45.1534300864
21
25.8133089571
31
0.0000000000
0
SPLINE
5
517
100
AcDbEntity
8
0
100
AcDbSpline
62
9
6
CONTINUOUS
70
0
71
3
72
14
73
10
74
8
42
0.0000001000
43
0.0000001000
44
0.0000000001
12
2.6644190192
22
0.0002031963
32
0.0000000000
13
0.0001129602
23
-2.6644190246
33
0.0000000000
40
0.0000000000
40
0.0000000000
40
0.0000000000
40
0.0000000000
40
0.1436912217
40
0.2866745465
40
0.4288753492
40
0.5707549259
40
0.7130550529
40
0.8562166689
40
1.0000000000
40
1.0000000000
40
1.0000000000
40
1.0000000000
10
43.5428316889
20
27.6021927232
30
0.0000000000
10
43.6704495636
20
27.6022024557
30
0.0000000000
10
43.9259908316
20
27.5732943742
30
0.0000000000
10
44.2882255962
20
27.4459485554
30
0.0000000000
10
44.6119127718
20
27.2421578624
30
0.0000000000
10
44.8819775602
20
26.9722513367
30
0.0000000000
10
45.0860644794
20
26.6484529834
30
0.0000000000
10
45.2136354760
20
26.2859344737
30
0.0000000000
10
45.2425673568
20
26.0301513224
30
0.0000000000
10
45.2425727707
20
25.9024516414
30
0.0000000000
11
43.5428316889
21
27.6021927232
31
0.0000000000
11
43.9232523946
21
27.5590999740
31
0.0000000000
11
44.2826726986
21
27.4327937025
31
0.0000000000
11
44.6032908601
21
27.2309126439
31
0.0000000000
11
44.8706740214
21
26.9636854214
31
0.0000000000
11
45.0728580887
21
26.6429453766
31
0.0000000000
11
45.1994247481
21
26.2831130724
31
0.0000000000
11
45.2425727707
21
25.9024516414
31
0.0000000000
0
SPLINE
5
518
100
AcDbEntity
8
0
100
AcDbSpline
62
9
6
CONTINUOUS
70
0
71
3
72
14
73
10
74
8
42
0.0000001000
43
0.0000001000
44
0.0000000001
12
-0.0000113290
22
2.6643510476
32
0.0000000000
13
2.6643510313
23
0.0002944461
33
0.0000000000
40
0.0000000000
40
0.0000000000
40
0.0000000000
40
0.0000000000
40
0.1427380922
40
0.2855639514
40
0.4285449634
40
0.5715074657
40
0.7144788568
40
0.8572613159
40
1.0000000000
40
1.0000000000
40
1.0000000000
40
1.0000000000
10
-45.1534300864
20
25.8133089571
30
0.0000000000
10
-45.1534306254
20
25.9400770856
30
0.0000000000
10
-45.1248108437
20
26.1946051498
30
0.0000000000
10
-44.9981369076
20
26.5567451816
30
0.0000000000
10
-44.7938769469
20
26.8819722956
30
0.0000000000
10
-44.5222477369
20
27.1535796796
30
0.0000000000
10
-44.1970455390
20
27.3577874262
30
0.0000000000
10
-43.8349477651
20
27.4844416290
30
0.0000000000
10
-43.5804576580
20
27.5130360293
30
0.0000000000
10
-43.4536890046
20
27.5130500389
30
0.0000000000
11
-45.1534300864
21
25.8133089571
31
0.0000000000
11
-45.1108806403
21
26.1912255753
31
0.0000000000
11
-44.9852786224
21
26.5504378741
31
0.0000000000
11
-44.7826500139
21
26.8730301488
31
0.0000000000
11
-44.5133002831
21
27.1423576057
31
0.0000000000
11
-44.1907144989
21
27.3449483526
31
0.0000000000
11
-43.8316071702
21
27.4705002422
31
0.0000000000
11
-43.4536890046
21
27.5130500389
31
0.0000000000
0
SPLINE
5
519
100
AcDbEntity
8
0
100
AcDbSpline
62
9
6
CONTINUOUS
70
0
71
3
72
14
73
10
74
8
42
0.0000001000
43
0.0000001000
44
0.0000000001
12
-0.0002031963
22
2.6644190192
32
0.0000000000
13
2.6644190246
23
0.0001129602
33
0.0000000000
40
0.0000000000
40
0.0000000000
40
0.0000000000
40
0.0000000000
40
0.1436912217
40
0.2866745465
40
0.4288753492
40
0.5707549259
40
0.7130550529
40
0.8562166689
40
1.0000000000
40
1.0000000000
40
1.0000000000
40
1.0000000000
10
-45.2425727707
20
25.9024516414
30
0.0000000000
10
-45.2425825032
20
26.0300695161
30
0.0000000000
10
-45.2136744217
20
26.2856107841
30
0.0000000000
10
-45.0863286029
20
26.6478455487
30
0.0000000000
10
-44.8825379099
20
26.9715327243
30
0.0000000000
10
-44.6126313842
20
27.2415975127
30
0.0000000000
10
-44.2888330309
20
27.4456844319
30
0.0000000000
10
-43.9263145212
20
27.5732554285
30
0.0000000000
10
-43.6705313699
20
27.6021873093
30
0.0000000000
10
-43.5428316889
20
27.6021927232
30
0.0000000000
11
-45.2425727707
21
25.9024516414
31
0.0000000000
11
-45.1994800215
21
26.2828723471
31
0.0000000000
11
-45.0731737500
21
26.6422926511
31
0.0000000000
11
-44.8712926914
21
26.9629108126
31
0.0000000000
11
-44.6040654689
21
27.2302939739
31
0.0000000000
11
-44.2833254241
21
27.4324780412
31
0.0000000000
11
-43.9234931199
21
27.5590447005
31
0.0000000000
11
-43.5428316889
21
27.6021927232
31
0.0000000000
0
SPLINE
5
51A
100
AcDbEntity
8
0
100
AcDbSpline
62
7
6
CONTINUOUS
70
0
71
3
72
12
73
8
74
6
42
0.0000001000
43
0.0000001000
44
0.0000000001
12
-0.8163485629
22
-0.5772456046
32
0.0000000000
13
-0.9988607888
23
-0.0437560145
33
0.0000000000
40
0.0000000000
40
0.0000000000
40
0.0000000000
40
0.0000000000
40
0.2781254446
40
0.5212859193
40
0.7255817150
40
0.8862591411
40
1.0000000000
40
1.0000000000
40
1.0000000000
40
1.0000000000
10
-41.6343112252
20
22.7669068782
30
0.0000000000
10
-41.7099936608
20
22.7133913147
30
0.0000000000
10
-41.8518529204
20
22.6130566957
30
0.0000000000
10
-42.0517288416
20
22.4770647232
30
0.0000000000
10
-42.2241308238
20
22.3698251625
30
0.0000000000
10
-42.3656638841
20
22.2969905469
30
0.0000000000
10
-42.4547765227
20
22.2687371646
30
0.0000000000
10
-42.4926469507
20
22.2670782157
30
0.0000000000
11
-41.6343112252
21
22.7669068782
31
0.0000000000
11
-41.8618631713
21
22.6070762452
31
0.0000000000
11
-42.0634951391
21
22.4712449882
31
0.0000000000
11
-42.2378868063
21
22.3649003247
31
0.0000000000
11
-42.3822766708
21
22.2944770146
31
0.0000000000
11
-42.4926469507
21
22.2670782157
31
0.0000000000
0
SPLINE
5
51B
100
AcDbEntity
8
0
100
AcDbSpline
62
9
6
CONTINUOUS
70
0
71
3
72
11
73
7
74
5
42
0.0000001000
43
0.0000001000
44
0.0000000001
12
-0.7799315481
22
0.0005344345
32
0.0000000000
13
-0.0005344345
23
0.7799315481
33
0.0000000000
40
0.0000000000
40
0.0000000000
40
0.0000000000
40
0.0000000000
40
0.2464813435
40
0.4977318681
40
0.7489738877
40
1.0000000000
40
1.0000000000
40
1.0000000000
40
1.0000000000
10
-45.7927130743
20
22.2670782157
30
0.0000000000
10
-45.8567925996
20
22.2671221250
30
0.0000000000
10
-45.9875351888
20
22.2926978382
30
0.0000000000
10
-46.1539466240
20
22.4030587128
30
0.0000000000
10
-46.2661762088
20
22.5696487079
30
0.0000000000
10
-46.2924970178
20
22.7016458167
30
0.0000000000
10
-46.2925417368
20
22.7669068782
30
0.0000000000
11
-45.7927130743
21
22.2670782157
31
0.0000000000
11
-45.9813401304
21
22.3041662338
31
0.0000000000
11
-46.1447469090
21
22.4123228937
31
0.0000000000
11
-46.2540761048
21
22.5749395152
31
0.0000000000
11
-46.2925417368
21
22.7669068782
31
0.0000000000
0
SPLINE
5
51C
100
AcDbEntity
8
0
100
AcDbSpline
62
9
6
CONTINUOUS
70
0
71
3
72
11
73
7
74
5
42
0.0000001000
43
0.0000001000
44
0.0000000001
12
0.7799315481
22
-0.0005344345
32
0.0000000000
13
0.0005344345
23
-0.7799315481
33
0.0000000000
40
0.0000000000
40
0.0000000000
40
0.0000000000
40
0.0000000000
40
0.2464813435
40
0.4977318681
40
0.7489738877
40
1.0000000000
40
1.0000000000
40
1.0000000000
40
1.0000000000
10
-33.4072869257
20
28.6521616893
30
0.0000000000
10
-33.3432074004
20
28.6521177799
30
0.0000000000
10
-33.2124648112
20
28.6265420668
30
0.0000000000
10
-33.0460533760
20
28.5161811922
30
0.0000000000
10
-32.9338237912
20
28.3495911971
30
0.0000000000
10
-32.9075029822
20
28.2175940883
30
0.0000000000
10
-32.9074582632
20
28.1523330268
30
0.0000000000
11
-33.4072869257
21
28.6521616893
31
0.0000000000
11
-33.2186598696
21
28.6150736712
31
0.0000000000
11
-33.0552530910
21
28.5069170113
31
0.0000000000
11
-32.9459238952
21
28.3443003898
31
0.0000000000
11
-32.9074582632
21
28.1523330268
31
0.0000000000
0
SPLINE
5
51D
100
AcDbEntity
8
0
100
AcDbSpline
62
9
6
CONTINUOUS
70
0
71
3
72
17
73
13
74
11
42
0.0000001000
43
0.0000001000
44
0.0000000001
12
-0.0005041668
22
4.7056117526
32
0.0000000000
13
-4.7056117505
23
0.0005232451
33
0.0000000000
40
0.0000000000
40
0.0000000000
40
0.0000000000
40
0.0000000000
40
0.0793001986
40
0.1733574934
40
0.2783645719
40
0.3904482310
40
0.5057716119
40
0.6206551966
40
0.7313731844
40
0.8341030234
40
0.9248574007
40
1.0000000000
40
1.0000000000
40
1.0000000000
40
1.0000000000
10
46.2925417368
20
25.6531897144
30
0.0000000000
10
46.2925284100
20
25.7775750299
30
0.0000000000
10
46.2755513944
20
26.0497663859
30
0.0000000000
10
46.1891959704
20
26.4793480097
30
0.0000000000
10
46.0189360334
20
26.9391213850
30
0.0000000000
10
45.7561571459
20
27.3925952480
30
0.0000000000
10
45.4067834581
20
27.8041496873
30
0.0000000000
10
44.9907529361
20
28.1447559803
30
0.0000000000
10
44.5387101847
20
28.3968974555
30
0.0000000000
10
44.0870798833
20
28.5572312813
30
0.0000000000
10
43.6718817894
20
28.6367571186
30
0.0000000000
10
43.4114337279
20
28.6521485833
30
0.0000000000
10
43.2935697619
20
28.6521616893
30
0.0000000000
11
46.2925417368
21
25.6531897144
31
0.0000000000
11
46.2692956457
21
26.0256208910
31
0.0000000000
11
46.1820612699
21
26.4595360545
31
0.0000000000
11
46.0104497352
21
26.9229004590
31
0.0000000000
11
45.7460024586
21
27.3792356438
31
0.0000000000
11
45.3948029365
21
27.7929341246
31
0.0000000000
11
44.9765146992
21
28.1353967661
31
0.0000000000
11
44.5215182613
21
28.3891977427
31
0.0000000000
11
44.0659738387
21
28.5509424673
31
0.0000000000
11
43.6465449537
21
28.6312871609
31
0.0000000000
11
43.2935697619
21
28.6521616893
31
0.0000000000
0
SPLINE
5
51E
100
AcDbEntity
8
0
100
AcDbSpline
62
9
6
CONTINUOUS
70
0
71
3
72
17
73
13
74
11
42
0.0000001000
43
0.0000001000
44
0.0000000001
12
-4.7056117526
22
-0.0005041668
32
0.0000000000
13
-0.0005232451
23
-4.7056117505
33
0.0000000000
40
0.0000000000
40
0.0000000000
40
0.0000000000
40
0.0000000000
40
0.0793001986
40
0.1733574934
40
0.2783645719
40
0.3904482310
40
0.5057716119
40
0.6206551966
40
0.7313731844
40
0.8341030234
40
0.9248574007
40
1.0000000000
40
1.0000000000
40
1.0000000000
40
1.0000000000
10
-43.2935697619
20
28.6521616893
30
0.0000000000
10
-43.4179550774
20
28.6521483625
30
0.0000000000
10
-43.6901464334
20
28.6351713469
30
0.0000000000
10
-44.1197280572
20
28.5488159229
30
0.0000000000
10
-44.5795014325
20
28.3785559859
30
0.0000000000
10
-45.0329752955
20
28.1157770984
30
0.0000000000
10
-45.4445297348
20
27.7664034106
30
0.0000000000
10
-45.7851360278
20
27.3503728886
30
0.0000000000
10
-46.0372775030
20
26.8983301372
30
0.0000000000
10
-46.1976113288
20
26.4466998358
30
0.0000000000
10
-46.2771371661
20
26.0315017419
30
0.0000000000
10
-46.2925286308
20
25.7710536804
30
0.0000000000
10
-46.2925417368
20
25.6531897144
30
0.0000000000
11
-43.2935697619
21
28.6521616893
31
0.0000000000
11
-43.6660009385
21
28.6289155982
31
0.0000000000
11
-44.0999161020
21
28.5416812224
31
0.0000000000
11
-44.5632805065
21
28.3700696877
31
0.0000000000
11
-45.0196156913
21
28.1056224111
31
0.0000000000
11
-45.4333141721
21
27.7544228890
31
0.0000000000
11
-45.7757768136
21
27.3361346517
31
0.0000000000
11
-46.0295777902
21
26.8811382138
31
0.0000000000
11
-46.1913225148
21
26.4255937912
31
0.0000000000
11
-46.2716672084
21
26.0061649062
31
0.0000000000
11
-46.2925417368
21
25.6531897144
31
0.0000000000
0
SPLINE
5
51F
100
AcDbEntity
8
0
100
AcDbSpline
62
9
6
CONTINUOUS
70
0
71
3
72
11
73
7
74
5
42
0.0000001000
43
0.0000001000
44
0.0000000001
12
-0.3121341846
22
0.0001015634
32
0.0000000000
13
0.0001014138
23
-0.3121341846
33
0.0000000000
40
0.0000000000
40
0.0000000000
40
0.0000000000
40
0.0000000000
40
0.2498180899
40
0.4998192838
40
0.7498384228
40
1.0000000000
40
1.0000000000
40
1.0000000000
40
1.0000000000
10
34.1573967683
20
27.6021927232
30
0.0000000000
10
34.1314045131
20
27.6022011807
30
0.0000000000
10
34.0788286189
20
27.5918258604
30
0.0000000000
10
34.0123431705
20
27.5473574566
30
0.0000000000
10
33.9678169939
20
27.4808669994
30
0.0000000000
10
33.9574187727
20
27.4282511775
30
0.0000000000
10
33.9574272293
20
27.4022231842
30
0.0000000000
11
34.1573967683
21
27.6021927232
31
0.0000000000
11
34.0809110507
21
27.5870167013
31
0.0000000000
11
34.0160087135
21
27.5436925769
31
0.0000000000
11
33.9726450582
21
27.4788099079
31
0.0000000000
11
33.9574272293
21
27.4022231842
31
0.0000000000
0
SPLINE
5
520
100
AcDbEntity
8
0
100
AcDbSpline
62
9
6
CONTINUOUS
70
0
71
3
72
11
73
7
74
5
42
0.0000001000
43
0.0000001000
44
0.0000000001
12
-0.3120682848
22
-0.0000950518
32
0.0000000000
13
-0.0000950518
23
-0.3120682848
33
0.0000000000
40
0.0000000000
40
0.0000000000
40
0.0000000000
40
0.0000000000
40
0.2499897029
40
0.5000000000
40
0.7500102971
40
1.0000000000
40
1.0000000000
40
1.0000000000
40
1.0000000000
10
34.2465394526
20
27.5130500389
30
0.0000000000
10
34.2205348334
20
27.5130421182
30
0.0000000000
10
34.1679580181
20
27.5026225011
30
0.0000000000
10
34.1015027292
20
27.4581172233
30
0.0000000000
10
34.0569974514
20
27.3916619344
30
0.0000000000
10
34.0465778342
20
27.3390851191
30
0.0000000000
10
34.0465699136
20
27.3130804999
30
0.0000000000
11
34.2465394526
21
27.5130500389
31
0.0000000000
11
34.1700284876
21
27.4978107865
31
0.0000000000
11
34.1051611649
21
27.4544587876
31
0.0000000000
11
34.0618091660
21
27.3895914648
31
0.0000000000
11
34.0465699136
21
27.3130804999
31
0.0000000000
0
SPLINE
5
521
100
AcDbEntity
8
0
100
AcDbSpline
62
7
6
CONTINUOUS
70
0
71
3
72
12
73
8
74
6
42
0.0000001000
43
0.0000001000
44
0.0000000001
12
0.5763198327
22
0.2577380645
32
0.0000000000
13
0.6312739558
23
0.0081640814
33
0.0000000000
40
0.0000000000
40
0.0000000000
40
0.0000000000
40
0.0000000000
40
0.2480372190
40
0.4727117892
40
0.6732697292
40
0.8491903603
40
1.0000000000
40
1.0000000000
40
1.0000000000
40
1.0000000000
10
41.6343112252
20
23.1170776428
30
0.0000000000
10
41.6819608147
20
23.1383871870
30
0.0000000000
10
41.7727709115
20
23.1790088062
30
0.0000000000
10
41.9033943860
20
23.2339351817
30
0.0000000000
10
42.0222767523
20
23.2774800004
30
0.0000000000
10
42.1293044522
20
23.3072059071
30
0.0000000000
10
42.1978947606
20
23.3166367744
30
0.0000000000
10
42.2296288265
20
23.3170471818
30
0.0000000000
11
41.6343112252
21
23.1170776428
31
0.0000000000
11
41.7775074372
21
23.1804500767
31
0.0000000000
11
41.9085177392
21
23.2348169409
31
0.0000000000
11
42.0277067125
21
23.2775486985
31
0.0000000000
11
42.1350599041
21
23.3060157141
31
0.0000000000
11
42.2296288265
21
23.3170471818
31
0.0000000000
0
SPLINE
5
522
100
AcDbEntity
8
0
100
AcDbSpline
62
9
6
CONTINUOUS
70
0
71
3
72
11
73
7
74
5
42
0.0000001000
43
0.0000001000
44
0.0000000001
12
0.0001015633
22
-0.3121341846
32
0.0000000000
13
-0.3121341846
23
0.0001014140
33
0.0000000000
40
0.0000000000
40
0.0000000000
40
0.0000000000
40
0.0000000000
40
0.2498181029
40
0.4998193505
40
0.7498383919
40
1.0000000000
40
1.0000000000
40
1.0000000000
40
1.0000000000
10
45.2425727707
20
23.5170167208
30
0.0000000000
10
45.2425812282
20
23.4910244642
30
0.0000000000
10
45.2322059061
20
23.4384485630
30
0.0000000000
10
45.1877374990
20
23.3719631193
30
0.0000000000
10
45.1212470434
20
23.3274369465
30
0.0000000000
10
45.0686312282
20
23.3170387252
30
0.0000000000
10
45.0426032317
20
23.3170471818
30
0.0000000000
11
45.2425727707
21
23.5170167208
31
0.0000000000
11
45.2273967472
21
23.4405309993
31
0.0000000000
11
45.1840726093
21
23.3756286510
31
0.0000000000
11
45.1191899645
21
23.3322650144
31
0.0000000000
11
45.0426032317
21
23.3170471818
31
0.0000000000
0
SPLINE
5
523
100
AcDbEntity
8
0
100
AcDbSpline
62
9
6
CONTINUOUS
70
0
71
3
72
11
73
7
74
5
42
0.0000001000
43
0.0000001000
44
0.0000000001
12
-0.0000950518
22
-0.3120682848
32
0.0000000000
13
-0.3120682848
23
-0.0000950518
33
0.0000000000
40
0.0000000000
40
0.0000000000
40
0.0000000000
40
0.0000000000
40
0.2499897029
40
0.5000000000
40
0.7500102971
40
1.0000000000
40
1.0000000000
40
1.0000000000
40
1.0000000000
10
45.1534300864
20
23.6061594051
30
0.0000000000
10
45.1534221658
20
23.5801547858
30
0.0000000000
10
45.1430025486
20
23.5275779706
30
0.0000000000
10
45.0984972708
20
23.4611226817
30
0.0000000000
10
45.0320419819
20
23.4166174039
30
0.0000000000
10
44.9794651666
20
23.4061977867
30
0.0000000000
10
44.9534605474
20
23.4061898661
30
0.0000000000
11
45.1534300864
21
23.6061594051
31
0.0000000000
11
45.1381908340
21
23.5296484401
31
0.0000000000
11
45.0948388351
21
23.4647811174
31
0.0000000000
11
45.0299715124
21
23.4214291185
31
0.0000000000
11
44.9534605474
21
23.4061898661
31
0.0000000000
0
SPLINE
5
524
100
AcDbEntity
8
0
100
AcDbSpline
62
7
6
CONTINUOUS
70
0
71
3
72
12
73
8
74
6
42
0.0000001000
43
0.0000001000
44
0.0000000001
12
-0.0081640814
22
-0.6312739558
32
0.0000000000
13
-0.2577380645
23
-0.5763198327
33
0.0000000000
40
0.0000000000
40
0.0000000000
40
0.0000000000
40
0.0000000000
40
0.1508096397
40
0.3267302708
40
0.5272882108
40
0.7519627810
40
1.0000000000
40
1.0000000000
40
1.0000000000
40
1.0000000000
10
33.9574272293
20
24.4392487790
30
0.0000000000
10
33.9570168219
20
24.4075147131
30
0.0000000000
10
33.9475859546
20
24.3389244047
30
0.0000000000
10
33.9178600479
20
24.2318967048
30
0.0000000000
10
33.8743152292
20
24.1130143385
30
0.0000000000
10
33.8193888537
20
23.9823908640
30
0.0000000000
10
33.7787672345
20
23.8915807672
30
0.0000000000
10
33.7574576903
20
23.8439311777
30
0.0000000000
11
33.9574272293
21
24.4392487790
31
0.0000000000
11
33.9463957616
21
24.3446798566
31
0.0000000000
11
33.9179287460
21
24.2373266650
31
0.0000000000
11
33.8751969884
21
24.1181376916
31
0.0000000000
11
33.8208301242
21
23.9871273897
31
0.0000000000
11
33.7574576903
21
23.8439311777
31
0.0000000000
0
SPLINE
5
525
100
AcDbEntity
8
0
100
AcDbSpline
62
9
6
CONTINUOUS
70
0
71
3
72
11
73
7
74
5
42
0.0000001000
43
0.0000001000
44
0.0000000001
12
-0.0001015634
22
-0.3121341846
32
0.0000000000
13
0.3121341846
23
0.0001014138
33
0.0000000000
40
0.0000000000
40
0.0000000000
40
0.0000000000
40
0.0000000000
40
0.2498180899
40
0.4998192838
40
0.7498384228
40
1.0000000000
40
1.0000000000
40
1.0000000000
40
1.0000000000
10
-45.2425727707
20
23.5170167208
30
0.0000000000
10
-45.2425812282
20
23.4910244656
30
0.0000000000
10
-45.2322059079
20
23.4384485714
30
0.0000000000
10
-45.1877375041
20
23.3719631230
30
0.0000000000
10
-45.1212470469
20
23.3274369464
30
0.0000000000
10
-45.0686312250
20
23.3170387252
30
0.0000000000
10
-45.0426032317
20
23.3170471818
30
0.0000000000
11
-45.2425727707
21
23.5170167208
31
0.0000000000
11
-45.2273967488
21
23.4405310032
31
0.0000000000
11
-45.1840726244
21
23.3756286660
31
0.0000000000
11
-45.1191899554
21
23.3322650107
31
0.0000000000
11
-45.0426032317
21
23.3170471818
31
0.0000000000
0
SPLINE
5
526
100
AcDbEntity
8
0
100
AcDbSpline
62
7
6
CONTINUOUS
70
0
71
3
72
12
73
8
74
6
42
0.0000001000
43
0.0000001000
44
0.0000000001
12
0.6312739558
22
-0.0081640814
32
0.0000000000
13
0.5763198327
23
-0.2577380645
33
0.0000000000
40
0.0000000000
40
0.0000000000
40
0.0000000000
40
0.0000000000
40
0.1508096397
40
0.3267302708
40
0.5272882108
40
0.7519627810
40
1.0000000000
40
1.0000000000
40
1.0000000000
40
1.0000000000
10
-42.2296288265
20
23.3170471818
30
0.0000000000
10
-42.1978947606
20
23.3166367744
30
0.0000000000
10
-42.1293044522
20
23.3072059071
30
0.0000000000
10
-42.0222767523
20
23.2774800004
30
0.0000000000
10
-41.9033943860
20
23.2339351817
30
0.0000000000
10
-41.7727709115
20
23.1790088062
30
0.0000000000
10
-41.6819608147
20
23.1383871870
30
0.0000000000
10
-41.6343112252
20
23.1170776428
30
0.0000000000
11
-42.2296288265
21
23.3170471818
31
0.0000000000
11
-42.1350599041
21
23.3060157141
31
0.0000000000
11
-42.0277067125
21
23.2775486985
31
0.0000000000
11
-41.9085177391
21
23.2348169409
31
0.0000000000
11
-41.7775074372
21
23.1804500767
31
0.0000000000
11
-41.6343112252
21
23.1170776428
31
0.0000000000
0
SPLINE
5
527
100
AcDbEntity
8
0
100
AcDbSpline
62
7
6
CONTINUOUS
70
0
71
3
72
12
73
8
74
6
42
0.0000001000
43
0.0000001000
44
0.0000000001
12
-0.2577380737
22
0.5763198532
32
0.0000000000
13
-0.0081640817
23
0.6312739782
33
0.0000000000
40
0.0000000000
40
0.0000000000
40
0.0000000000
40
0.0000000000
40
0.2481432339
40
0.4729087044
40
0.6734536919
40
0.8491135784
40
1.0000000000
40
1.0000000000
40
1.0000000000
40
1.0000000000
10
-33.7574576903
20
23.8439311777
30
0.0000000000
10
-33.7787763433
20
23.8916011351
30
0.0000000000
10
-33.8194149213
20
23.9824490717
30
0.0000000000
10
-33.8743536803
20
24.1131093083
30
0.0000000000
10
-33.9178787800
20
24.2319582778
30
0.0000000000
10
-33.9475871789
20
24.3389469595
30
0.0000000000
10
-33.9570166129
20
24.4074985552
30
0.0000000000
10
-33.9574272293
20
24.4392487790
30
0.0000000000
11
-33.7574576903
21
23.8439311777
31
0.0000000000
11
-33.8208567265
21
23.9871888143
31
0.0000000000
11
-33.8752423204
21
24.1182534821
31
0.0000000000
11
-33.9179639852
21
24.2374373916
31
0.0000000000
11
-33.9463861823
21
24.3446321675
31
0.0000000000
11
-33.9574272293
21
24.4392487790
31
0.0000000000
0
SPLINE
5
528
100
AcDbEntity
8
0
100
AcDbSpline
62
9
6
CONTINUOUS
70
0
71
3
72
11
73
7
74
5
42
0.0000001000
43
0.0000001000
44
0.0000000001
12
0.3121341846
22
0.0001015633
32
0.0000000000
13
-0.0001014140
23
-0.3121341846
33
0.0000000000
40
0.0000000000
40
0.0000000000
40
0.0000000000
40
0.0000000000
40
0.2498181029
40
0.4998193505
40
0.7498383919
40
1.0000000000
40
1.0000000000
40
1.0000000000
40
1.0000000000
10
-34.1573967683
20
27.6021927232
30
0.0000000000
10
-34.1314045117
20
27.6022011806
30
0.0000000000
10
-34.0788286105
20
27.5918258585
30
0.0000000000
10
-34.0123431668
20
27.5473574515
30
0.0000000000
10
-33.9678169940
20
27.4808669959
30
0.0000000000
10
-33.9574187727
20
27.4282511807
30
0.0000000000
10
-33.9574272293
20
27.4022231842
30
0.0000000000
11
-34.1573967683
21
27.6021927232
31
0.0000000000
11
-34.0809110468
21
27.5870166997
31
0.0000000000
11
-34.0160086985
21
27.5436925618
31
0.0000000000
11
-33.9726450619
21
27.4788099170
31
0.0000000000
11
-33.9574272293
21
27.4022231842
31
0.0000000000
0
SPLINE
5
529
100
AcDbEntity
8
0
100
AcDbSpline
62
7
6
CONTINUOUS
70
0
71
3
72
11
73
7
74
5
42
0.0000001000
43
0.0000001000
44
0.0000000001
12
-0.2002581390
22
0.0000000000
32
0.0000000000
13
-0.0895363312
23
-0.1791272387
33
0.0000000000
40
0.0000000000
40
0.0000000000
40
0.0000000000
40
0.0000000000
40
0.3750025553
40
0.6985483822
40
0.9185111248
40
1.0000000000
40
1.0000000000
40
1.0000000000
40
1.0000000000
10
34.2465394526
20
26.5397784135
30
0.0000000000
10
34.2215070147
20
26.5397784135
30
0.0000000000
10
34.1756563454
20
26.5386164959
30
0.0000000000
10
34.1115581991
20
26.5404489994
30
0.0000000000
10
34.0755311000
20
26.5323850359
30
0.0000000000
10
34.0490019852
20
26.5377817756
30
0.0000000000
10
34.0465699136
20
26.5329161499
30
0.0000000000
11
34.2465394526
21
26.5397784135
31
0.0000000000
11
34.1714438775
21
26.5392673924
31
0.0000000000
11
34.1066681216
21
26.5377863434
31
0.0000000000
11
34.0626759720
21
26.5355426419
31
0.0000000000
11
34.0465699136
21
26.5329161499
31
0.0000000000
0
SPLINE
5
52A
100
AcDbEntity
8
0
100
AcDbSpline
62
7
6
CONTINUOUS
70
0
71
3
72
11
73
7
74
5
42
0.0000001000
43
0.0000001000
44
0.0000000001
12
-0.0895363312
22
0.1791272387
32
0.0000000000
13
-0.2002581390
23
-0.0000000000
33
0.0000000000
40
0.0000000000
40
0.0000000000
40
0.0000000000
40
0.0000000000
40
0.0814888752
40
0.3014516178
40
0.6249974447
40
1.0000000000
40
1.0000000000
40
1.0000000000
40
1.0000000000
10
-34.0465699136
20
26.5329161499
30
0.0000000000
10
-34.0490019852
20
26.5377817756
30
0.0000000000
10
-34.0755311000
20
26.5323850359
30
0.0000000000
10
-34.1115581991
20
26.5404489994
30
0.0000000000
10
-34.1756563454
20
26.5386164959
30
0.0000000000
10
-34.2215070147
20
26.5397784135
30
0.0000000000
10
-34.2465394526
20
26.5397784135
30
0.0000000000
11
-34.0465699136
21
26.5329161499
31
0.0000000000
11
-34.0626759720
21
26.5355426419
31
0.0000000000
11
-34.1066681216
21
26.5377863434
31
0.0000000000
11
-34.1714438775
21
26.5392673924
31
0.0000000000
11
-34.2465394526
21
26.5397784135
31
0.0000000000
0
SPLINE
5
52B
100
AcDbEntity
8
0
100
AcDbSpline
62
9
6
CONTINUOUS
70
0
71
3
72
14
73
10
74
8
42
0.0000001000
43
0.0000001000
44
0.0000000001
12
2.3509214710
22
0.0001991490
32
0.0000000000
13
0.0003496794
23
-2.3509214534
33
0.0000000000
40
0.0000000000
40
0.0000000000
40
0.0000000000
40
0.0000000000
40
0.1422186365
40
0.2851408952
40
0.4283068424
40
0.5716030612
40
0.7149467604
40
0.8579444026
40
1.0000000000
40
1.0000000000
40
1.0000000000
40
1.0000000000
10
43.4536890046
20
27.3130804999
30
0.0000000000
10
43.5651372867
20
27.3130899408
30
0.0000000000
10
43.7893860511
20
27.2879737610
30
0.0000000000
10
44.1088278861
20
27.1764819206
30
0.0000000000
10
44.3963256954
20
26.9961711829
30
0.0000000000
10
44.6365190101
20
26.7560118788
30
0.0000000000
10
44.8169516174
20
26.4683470930
30
0.0000000000
10
44.9284056955
20
26.1488060198
30
0.0000000000
10
44.9534439894
20
25.9246294743
30
0.0000000000
10
44.9534605474
20
25.8133089571
30
0.0000000000
11
43.4536890046
21
27.3130804999
31
0.0000000000
11
43.7859510542
21
27.2758191615
31
0.0000000000
11
44.1032006783
21
27.1651484368
31
0.0000000000
11
44.3883166469
21
26.9862922692
31
0.0000000000
11
44.6265438704
21
26.7481018335
31
0.0000000000
11
44.8056299993
21
26.4626368246
31
0.0000000000
11
44.9162888016
21
26.1451953559
31
0.0000000000
11
44.9534605474
21
25.8133089571
31
0.0000000000
0
SPLINE
5
52C
100
AcDbEntity
8
0
100
AcDbSpline
62
9
6
CONTINUOUS
70
0
71
3
72
14
73
10
74
8
42
0.0000001000
43
0.0000001000
44
0.0000000001
12
-0.0001991490
22
2.3509214710
32
0.0000000000
13
2.3509214534
23
0.0003496794
33
0.0000000000
40
0.0000000000
40
0.0000000000
40
0.0000000000
40
0.0000000000
40
0.1422186365
40
0.2851408952
40
0.4283068424
40
0.5716030612
40
0.7149467604
40
0.8579444026
40
1.0000000000
40
1.0000000000
40
1.0000000000
40
1.0000000000
10
-44.9534605474
20
25.8133089571
30
0.0000000000
10
-44.9534699883
20
25.9247572392
30
0.0000000000
10
-44.9283538085
20
26.1490060036
30
0.0000000000
10
-44.8168619681
20
26.4684478386
30
0.0000000000
10
-44.6365512304
20
26.7559456479
30
0.0000000000
10
-44.3963919263
20
26.9961389626
30
0.0000000000
10
-44.1087271405
20
27.1765715699
30
0.0000000000
10
-43.7891860673
20
27.2880256480
30
0.0000000000
10
-43.5650095218
20
27.3130639419
30
0.0000000000
10
-43.4536890046
20
27.3130804999
30
0.0000000000
11
-44.9534605474
21
25.8133089571
31
0.0000000000
11
-44.9161992090
21
26.1455710067
31
0.0000000000
11
-44.8055284843
21
26.4628206308
31
0.0000000000
11
-44.6266723167
21
26.7479365993
31
0.0000000000
11
-44.3884818810
21
26.9861638229
31
0.0000000000
11
-44.1030168721
21
27.1652499518
31
0.0000000000
11
-43.7855754034
21
27.2759087540
31
0.0000000000
11
-43.4536890046
21
27.3130804999
31
0.0000000000
0
ENDSEC
0
SECTION
2
OBJECTS
0
DICTIONARY
5
C
100
AcDbDictionary
280
0
281
1
3
ACAD_GROUP
350
D
3
ACAD_MLINESTYLE
350
17
3
ACAD_LAYOUT
350
1A
3
ACAD_PLOTSETTINGS
350
19
3
ACAD_PLOTSTYLENAME
350
E
0
DICTIONARY
5
D
102
{ACAD_REACTORS
330
C
102
}
100
AcDbDictionary
280
0
281
1
0
ACDBDICTIONARYWDFLT
5
E
102
{ACAD_REACTORS
330
C
102
}
100
AcDbDictionary
281
1
3
Normal
350
F
100
AcDbDictionaryWithDefault
340
F
0
DICTIONARY
5
17
102
{ACAD_REACTORS
330
C
102
}
100
AcDbDictionary
280
0
281
1
3
Standard
350
18
0
DICTIONARY
5
19
102
{ACAD_REACTORS
330
C
102
}
100
AcDbDictionary
281
1
0
DICTIONARY
5
1A
102
{ACAD_REACTORS
330
C
102
}
100
AcDbDictionary
281
1
3
Layout1
350
1E
3
Model
350
22
0
ACDBPLACEHOLDER
5
F
102
{ACAD_REACTORS
330
E
102
}
0
MLINESTYLE
5
18
102
{ACAD_REACTORS
330
17
102
}
100
AcDbMlineStyle
2
STANDARD
70
0
3

62
256
51
90.0
52
90.0
71
2
49
0.5
62
256
6
BYLAYER
49
-0.5
62
256
6
BYLAYER
0
LAYOUT
5
1E
102
{ACAD_REACTORS
330
1A
102
}
100
AcDbPlotSettings
1

2

4

6

40
0.0
41
0.0
42
0.0
43
0.0
44
0.0
45
0.0
46
0.0
47
0.0
48
0.0
49
0.0
140
0.0
141
0.0
142
1.0
143
1.0
70
0
72
0
73
0
74
0
7

75
0
147
1.0
148
0.0
149
0.0
100
AcDbLayout
1
Layout1
70
0
71
0
10
0.0
20
0.0
11
0.0
21
0.0
12
0.0
22
0.0
32
0.0
14
0.0
24
0.0
34
0.0
15
0.0
25
0.0
35
0.0
146
0.0
13
0.0
23
0.0
33
0.0
16
0.0
26
0.0
36
0.0
17
0.0
27
0.0
37
0.0
76
0
330
1B
331
0
345
0
346
0
0
LAYOUT
5
22
102
{ACAD_REACTORS
330
1A
102
}
100
AcDbPlotSettings
1

2

4

6

40
0.0
41
0.0
42
0.0
43
0.0
44
0.0
45
0.0
46
0.0
47
0.0
48
0.0
49
0.0
140
0.0
141
0.0
142
1.0
143
1.0
70
0
72
0
73
0
74
0
7

75
0
147
1.0
148
0.0
149
0.0
100
AcDbLayout
1
Model
70
0
71
0
10
0.0
20
0.0
11
0.0
21
0.0
12
0.0
22
0.0
32
0.0
14
0.0
24
0.0
34
0.0
15
0.0
25
0.0
35
0.0
146
0.0
13
0.0
23
0.0
33
0.0
16
0.0
26
0.0
36
0.0
17
0.0
27
0.0
37
0.0
76
0
330
1F
331
0
345
0
346
0
0
ENDSEC
0
EOF
