0
SECTION
2
HEADER
9
$ACADVER
1
AC1014
9
$HANDSEED
5
       44F
9
$EXTMAX
10
297.0000000000
20
210.0000000000
9
$EXTMIN
10
0.0000000000
20
0.0000000000
9
$LIMMIN
10
0.0000000000
20
0.0000000000
9
$LIMMAX
10
297.0000000000
20
210.0000000000
9
$VIEWCTR
10
148.5000000000
20
105.0000000000
9
$VIEWSIZE
40
210.0000000000
9
$CLAYER
8
0
9
$LTSCALE
40
16.3350000000
9
$CELTYPE
6
BYLAYER
9
$DIMSCALE
40
1
9
$DIMASZ
40
3.0000000000
9
$DIMEXO
40
1.8562500000
9
$DIMDLI
40
11.2860000000
9
$DIMEXE
40
5.3460000000
9
$DIMCEN
40
2.6730000000
9
$DIMLFAC
40
1.0000000000
9
$DIMTXT
40
3.0000000000
9
$DIMTOL
70
1
9
$DIMLIM
70
0
9
$DIMTFAC
40
1.0000000000
9
$DIMTP
40
0.0100000000
9
$DIMTM
40
0.0100000000
9
$MEASUREMENT
70
1
0
ENDSEC
0
SECTION
2
CLASSES
0
ENDSEC
0
SECTION
2
TABLES
0
TABLE
2
VPORT
5
8
100
AcDbSymbolTable
70
2
0
VPORT
5
1F4
100
AcDbSymbolTableRecord
100
AcDbViewportTableRecord
2
*ACTIVE
70
0
10
0.0
20
0.0
11
1.0
21
1.0
12
148.5000000000
22
105.0000000000
13
0.0
23
0.0
14
1.0
24
1.0
15
0.0
25
0.0
16
0.0
26
0.0
36
1.0
17
0.0
27
0.0
37
0.0
40
210.0000000000
41
1.4142857143
42
50.0
43
0.0
44
0.0
50
0.0
51
0.0
71
0
72
100
73
1
74
1
75
0
76
0
77
0
78
0
0
ENDTAB
0
TABLE
2
LTYPE
5
5
100
AcDbSymbolTable
70
6
0
LTYPE
5
14
100
AcDbSymbolTableRecord
100
AcDbLinetypeTableRecord
2
BYBLOCK
70
0
3

72
65
73
0
40
0.0
0
LTYPE
5
15
100
AcDbSymbolTableRecord
100
AcDbLinetypeTableRecord
2
BYLAYER
70
0
3

72
65
73
0
40
0.0
0
LTYPE
5
16
100
AcDbSymbolTableRecord
100
AcDbLinetypeTableRecord
2
CONTINUOUS
70
64
3
Solid line
72
65
73
0
40
0
0
LTYPE
5
1F5
100
AcDbSymbolTableRecord
100
AcDbLinetypeTableRecord
2
CENTER
70
64
3
____ _ ____ _ ____ _ ____ _ ____ _ ____ _ ____
72
65
73
4
40
0.6
49
0.375
74
0
49
-0.075
74
0
49
0.075
74
0
49
-0.075
74
0
0
LTYPE
5
1F6
100
AcDbSymbolTableRecord
100
AcDbLinetypeTableRecord
2
HIDDEN
70
64
3
- - - - - - - - - - - - - - - - - - - -
72
65
73
2
40
0.2
49
0.1
74
0
49
-0.1
74
0
0
LTYPE
5
1F7
100
AcDbSymbolTableRecord
100
AcDbLinetypeTableRecord
2
PHANTOM
70
64
3
_____ _ _ _____ _ _ _____ _ _ _____
72
65
73
6
40
0.8
49
0.45
74
0
49
-0.05
74
0
49
0.1
74
0
49
-0.05
74
0
49
0.1
74
0
49
-0.05
74
0
0
LTYPE
5
1F8
100
AcDbSymbolTableRecord
100
AcDbLinetypeTableRecord
2
DOT
70
64
3
. . . . . . . . . . . . . . . . . . . .
72
65
73
2
40
0.2
49
0.1
74
0
49
-0.1
74
0
0
LTYPE
5
1F9
100
AcDbSymbolTableRecord
100
AcDbLinetypeTableRecord
2
DASHED
70
64
3
- - - - - - - - - - - - - - - - - - - -
72
65
73
2
40
0.2
49
0.1
74
0
49
-0.1
74
0
0
ENDTAB
0
TABLE
2
LAYER
5
2
100
AcDbSymbolTable
70
36
0
LAYER
5
10
100
AcDbSymbolTableRecord
100
AcDbLayerTableRecord
2
0
70
0
62
7
6
CONTINUOUS
0
LAYER
5
1FA
100
AcDbSymbolTableRecord
100
AcDbLayerTableRecord
2
DEFAULT_1
70
0
62
7
6
CENTER
0
LAYER
5
1FB
100
AcDbSymbolTableRecord
100
AcDbLayerTableRecord
2
DEFAULT_2
70
0
62
8
6
HIDDEN
0
LAYER
5
1FC
100
AcDbSymbolTableRecord
100
AcDbLayerTableRecord
2
DEFAULT_3
70
0
62
7
6
PHANTOM
0
LAYER
5
1FD
100
AcDbSymbolTableRecord
100
AcDbLayerTableRecord
2
ASSI
70
0
62
7
6
CONTINUOUS
0
LAYER
5
1FE
100
AcDbSymbolTableRecord
100
AcDbLayerTableRecord
2
COORDINATE
70
0
62
7
6
CONTINUOUS
0
LAYER
5
1FF
100
AcDbSymbolTableRecord
100
AcDbLayerTableRecord
2
COORD_ORIGINE
70
0
62
7
6
CONTINUOUS
0
LAYER
5
200
100
AcDbSymbolTableRecord
100
AcDbLayerTableRecord
2
CURVE
70
0
62
7
6
CONTINUOUS
0
LAYER
5
201
100
AcDbSymbolTableRecord
100
AcDbLayerTableRecord
2
DRAFT
70
0
62
7
6
CONTINUOUS
0
LAYER
5
202
100
AcDbSymbolTableRecord
100
AcDbLayerTableRecord
2
IMPORT
70
0
62
7
6
CONTINUOUS
0
LAYER
5
203
100
AcDbSymbolTableRecord
100
AcDbLayerTableRecord
2
LAY0001
70
0
62
7
6
CONTINUOUS
0
LAYER
5
204
100
AcDbSymbolTableRecord
100
AcDbLayerTableRecord
2
NOTE
70
0
62
7
6
CONTINUOUS
0
LAYER
5
205
100
AcDbSymbolTableRecord
100
AcDbLayerTableRecord
2
PIANI
70
0
62
7
6
CONTINUOUS
0
LAYER
5
206
100
AcDbSymbolTableRecord
100
AcDbLayerTableRecord
2
PIANI_ORIGINE
70
0
62
7
6
CONTINUOUS
0
LAYER
5
207
100
AcDbSymbolTableRecord
100
AcDbLayerTableRecord
2
PIANI_RIFERIMENTO
70
0
62
7
6
CONTINUOUS
0
LAYER
5
208
100
AcDbSymbolTableRecord
100
AcDbLayerTableRecord
2
PUNTI
70
0
62
7
6
CONTINUOUS
0
LAYER
5
209
100
AcDbSymbolTableRecord
100
AcDbLayerTableRecord
2
RACCORDO
70
0
62
7
6
CONTINUOUS
0
LAYER
5
20A
100
AcDbSymbolTableRecord
100
AcDbLayerTableRecord
2
SMUSSO
70
0
62
7
6
CONTINUOUS
0
LAYER
5
20B
100
AcDbSymbolTableRecord
100
AcDbLayerTableRecord
2
SUPERFICI
70
0
62
7
6
CONTINUOUS
0
LAYER
5
20C
100
AcDbSymbolTableRecord
100
AcDbLayerTableRecord
2
TRASH
70
0
62
7
6
CONTINUOUS
0
LAYER
5
20D
100
AcDbSymbolTableRecord
100
AcDbLayerTableRecord
2
XSEC_DATUMS
70
0
62
7
6
CONTINUOUS
0
ENDTAB
0
TABLE
2
STYLE
5
3
100
AcDbSymbolTable
70
1
0
STYLE
5
11
100
AcDbSymbolTableRecord
100
AcDbTextStyleTableRecord
2
STANDARD
70
0
40
0.0
41
0.8000000000
50
0.0
71
0
42
0.2
3
txt
4

0
ENDTAB
0
TABLE
2
VIEW
5
6
100
AcDbSymbolTable
70
0
0
ENDTAB
0
TABLE
2
UCS
5
7
100
AcDbSymbolTable
70
0
0
ENDTAB
0
TABLE
2
APPID
5
9
100
AcDbSymbolTable
70
1
0
APPID
5
20E
100
AcDbSymbolTableRecord
100
AcDbRegAppTableRecord
2
ACAD
70
0
0
ENDTAB
0
TABLE
2
DIMSTYLE
5
A
100
AcDbSymbolTable
70
1
0
DIMSTYLE
105
20F
100
AcDbSymbolTableRecord
100
AcDbDimStyleTableRecord
2
STANDARD
70
0
3

4

5

6

7

40
1.0
41
3.0000000000
42
0.0625
43
0.38
44
0.18
45
0.0
46
0.0
47
0.0100000000
48
0.0100000000
140
3.0000000000
141
0.09
142
0.0
143
25.4
144
1.0000000000
145
0.0
146
1.0000000000
147
0.09
71
1
72
0
73
0
74
0
75
0
76
0
77
1
78
8
170
0
171
2
172
0
173
0
174
0
175
0
176
0
177
0
178
0
270
2
271
2
272
2
273
2
274
2
340
11
275
0
280
0
281
0
282
0
283
1
284
8
285
0
286
0
287
3
288
0
0
ENDTAB
0
TABLE
2
BLOCK_RECORD
5
1
100
AcDbSymbolTable
70
0
0
BLOCK_RECORD
5
1B
100
AcDbSymbolTableRecord
100
AcDbBlockTableRecord
2
*MODEL_SPACE
0
BLOCK_RECORD
5
1C
100
AcDbSymbolTableRecord
100
AcDbBlockTableRecord
2
*PAPER_SPACE
0
ENDTAB
0
ENDSEC
0
SECTION
2
BLOCKS
0
BLOCK
5
1E
100
AcDbEntity
8
0
100
AcDbBlockBegin
2
*MODEL_SPACE
70
0
10
0.0
20
0.0
30
0.0
3
*MODEL_SPACE
1

0
ENDBLK
5
1F
100
AcDbEntity
8
0
100
AcDbBlockEnd
0
BLOCK
5
20
100
AcDbEntity
8
0
100
AcDbBlockBegin
2
*PAPER_SPACE
70
0
10
0.0
20
0.0
30
0.0
3
*PAPER_SPACE
1

0
ENDBLK
5
21
100
AcDbEntity
8
0
100
AcDbBlockEnd
0
ENDSEC
0
SECTION
2
ENTITIES
0
LINE
5
210
100
AcDbEntity
8
0
100
AcDbLine
62
9
6
CONTINUOUS
10
-10.1676004572
20
18.3971077014
11
-10.1632286232
21
18.4014795354
0
LINE
5
211
100
AcDbEntity
8
0
100
AcDbLine
62
9
6
CONTINUOUS
10
-12.3130805288
20
16.2927526676
11
-12.2956254639
21
16.3014795354
0
LINE
5
212
100
AcDbEntity
8
0
100
AcDbLine
62
7
6
CONTINUOUS
10
-12.0632370848
20
-30.5985204646
11
-10.1632286232
21
-30.5985204646
0
LINE
5
213
100
AcDbEntity
8
0
100
AcDbLine
62
7
6
CONTINUOUS
10
6.8367629152
20
-30.5985204646
11
8.7367713768
21
-30.5985204646
0
LINE
5
214
100
AcDbEntity
8
0
100
AcDbLine
62
9
6
CONTINUOUS
10
-12.0588652508
20
-30.5941486306
11
-10.1676004572
21
-30.5941486306
0
LINE
5
215
100
AcDbEntity
8
0
100
AcDbLine
62
9
6
CONTINUOUS
10
6.8411347492
20
-30.5941486306
11
8.7323995428
21
-30.5941486306
0
LINE
5
216
100
AcDbEntity
8
0
100
AcDbLine
62
9
6
CONTINUOUS
10
6.5911389800
20
-30.3441528614
11
8.9823953120
21
-30.3441528614
0
LINE
5
217
100
AcDbEntity
8
0
100
AcDbLine
62
9
6
CONTINUOUS
10
-9.9176046880
20
-30.3441528614
11
-12.3088610200
21
-30.3441528614
0
LINE
5
218
100
AcDbEntity
8
0
100
AcDbLine
62
9
6
CONTINUOUS
10
-9.9176046880
20
-29.9428580319
11
-12.3088610200
21
-29.9428580319
0
LINE
5
219
100
AcDbEntity
8
0
100
AcDbLine
62
7
6
CONTINUOUS
10
-6.0632328540
20
-29.8985204646
11
2.7367671460
21
-29.8985204646
0
LINE
5
21A
100
AcDbEntity
8
0
100
AcDbLine
62
7
6
CONTINUOUS
10
-5.1632328540
20
-29.8927026348
11
1.8367671460
21
-29.8927026348
0
LINE
5
21B
100
AcDbEntity
8
0
100
AcDbLine
62
9
6
CONTINUOUS
10
-6.0195822071
20
-29.8548698177
11
-5.1632328540
21
-29.8548698177
0
LINE
5
21C
100
AcDbEntity
8
0
100
AcDbLine
62
9
6
CONTINUOUS
10
1.8367671460
20
-29.8548698177
11
2.6931164992
21
-29.8548698177
0
LINE
5
21D
100
AcDbEntity
8
0
100
AcDbLine
62
7
6
CONTINUOUS
10
6.8411347492
20
-29.7985204646
11
8.7323995428
21
-29.7985204646
0
LINE
5
21E
100
AcDbEntity
8
0
100
AcDbLine
62
9
6
CONTINUOUS
10
-10.1676004572
20
-29.7263516810
11
-12.0588652508
21
-29.7263516810
0
LINE
5
21F
100
AcDbEntity
8
0
100
AcDbLine
62
7
6
CONTINUOUS
10
8.7374901439
20
-29.2211701954
11
6.8360441481
21
-29.2211701954
0
LINE
5
220
100
AcDbEntity
8
0
100
AcDbLine
62
7
6
CONTINUOUS
10
-10.1625098561
20
-29.2211701954
11
-12.0639558519
21
-29.2211701954
0
LINE
5
221
100
AcDbEntity
8
0
100
AcDbLine
62
9
6
CONTINUOUS
10
-12.2956254639
20
-28.4985204646
11
-12.3098346312
21
-28.4914164220
0
LINE
5
222
100
AcDbEntity
8
0
100
AcDbLine
62
9
6
CONTINUOUS
10
-10.1676004572
20
-30.5941486306
11
-10.1632286232
21
-30.5985204646
0
LINE
5
223
100
AcDbEntity
8
0
100
AcDbLine
62
9
6
CONTINUOUS
10
-9.9176046880
20
18.1471119322
11
-9.9132328540
21
18.1514837662
0
LINE
5
224
100
AcDbEntity
8
0
100
AcDbLine
62
7
6
CONTINUOUS
10
-9.7472574207
20
14.8931877996
11
-9.9097455631
21
14.8119499158
0
LINE
5
225
100
AcDbEntity
8
0
100
AcDbLine
62
7
6
CONTINUOUS
10
2.7367671460
20
-28.4985204646
11
8.9691597559
21
-28.4985204646
0
LINE
5
226
100
AcDbEntity
8
0
100
AcDbLine
62
7
6
CONTINUOUS
10
-6.0632328540
20
-28.4985204646
11
-12.2956254639
21
-28.4985204646
0
LINE
5
227
100
AcDbEntity
8
0
100
AcDbLine
62
7
6
CONTINUOUS
10
-12.3130805288
20
-28.4897935968
11
-8.9219597218
21
-28.4897935968
0
LINE
5
228
100
AcDbEntity
8
0
100
AcDbLine
62
7
6
CONTINUOUS
10
-5.1632328540
20
-28.4897935968
11
-4.6632328540
21
-28.4897935968
0
LINE
5
229
100
AcDbEntity
8
0
100
AcDbLine
62
7
6
CONTINUOUS
10
1.3367671460
20
-28.4897935968
11
1.8367671460
21
-28.4897935968
0
LINE
5
22A
100
AcDbEntity
8
0
100
AcDbLine
62
7
6
CONTINUOUS
10
5.5954940138
20
-28.4897935968
11
8.9866148209
21
-28.4897935968
0
LINE
5
22B
100
AcDbEntity
8
0
100
AcDbLine
62
9
6
CONTINUOUS
10
-9.0005776872
20
-28.4111756314
11
-4.6632328540
21
-28.4111756314
0
LINE
5
22C
100
AcDbEntity
8
0
100
AcDbLine
62
9
6
CONTINUOUS
10
1.3367671460
20
-28.4111756314
11
5.6741119792
21
-28.4111756314
0
LINE
5
22D
100
AcDbEntity
8
0
100
AcDbLine
62
7
6
CONTINUOUS
10
1.3367671460
20
-27.7985204646
11
-4.6632328540
21
-27.7985204646
0
LINE
5
22E
100
AcDbEntity
8
0
100
AcDbLine
62
9
6
CONTINUOUS
10
-9.2473335731
20
-27.4112137083
11
-4.6632328540
21
-27.4112137083
0
LINE
5
22F
100
AcDbEntity
8
0
100
AcDbLine
62
9
6
CONTINUOUS
10
1.3367671460
20
-27.4112137083
11
5.9208678652
21
-27.4112137083
0
LINE
5
230
100
AcDbEntity
8
0
100
AcDbLine
62
7
6
CONTINUOUS
10
-9.7472574207
20
-27.0902287288
11
-9.9097455631
21
-27.0089908450
0
LINE
5
231
100
AcDbEntity
8
0
100
AcDbLine
62
9
6
CONTINUOUS
10
-9.9176046880
20
-30.3441528614
11
-9.9132328540
21
-30.3485246954
0
LINE
5
232
100
AcDbEntity
8
0
100
AcDbLine
62
7
6
CONTINUOUS
10
-9.9132328540
20
15.3014795354
11
-8.9219597218
21
16.2927526676
0
LINE
5
233
100
AcDbEntity
8
0
100
AcDbLine
62
7
6
CONTINUOUS
10
-4.6632328540
20
-27.0985204646
11
1.3367671460
21
-27.0985204646
0
LINE
5
234
100
AcDbEntity
8
0
100
AcDbLine
62
7
6
CONTINUOUS
10
5.9208678652
20
-27.0945160103
11
5.3797490292
21
-27.0945160103
0
LINE
5
235
100
AcDbEntity
8
0
100
AcDbLine
62
7
6
CONTINUOUS
10
-8.7062147371
20
-27.0945160103
11
-9.2473335731
21
-27.0945160103
0
LINE
5
236
100
AcDbEntity
8
0
100
AcDbLine
62
7
6
CONTINUOUS
10
-9.9097455631
20
-27.0089908450
11
-8.9620705286
21
-27.0089908450
0
LINE
5
237
100
AcDbEntity
8
0
100
AcDbLine
62
7
6
CONTINUOUS
10
5.6356048206
20
-27.0089908450
11
6.5832798551
21
-27.0089908450
0
LINE
5
238
100
AcDbEntity
8
0
100
AcDbLine
62
7
6
CONTINUOUS
10
-10.8136134537
20
-26.9985204646
11
-9.9132328540
21
-26.9985204646
0
LINE
5
239
100
AcDbEntity
8
0
100
AcDbLine
62
7
6
CONTINUOUS
10
6.5867671460
20
-26.9985204646
11
7.4871477458
21
-26.9985204646
0
LINE
5
23A
100
AcDbEntity
8
0
100
AcDbLine
62
9
6
CONTINUOUS
10
5.0937852629
20
-26.6814447478
11
-8.4202509708
21
-26.6814447478
0
LINE
5
23B
100
AcDbEntity
8
0
100
AcDbLine
62
7
6
CONTINUOUS
10
7.3317976679
20
-26.5320912290
11
5.6885458313
21
-26.5320912290
0
LINE
5
23C
100
AcDbEntity
8
0
100
AcDbLine
62
7
6
CONTINUOUS
10
-9.0150115393
20
-26.5320912290
11
-10.6582633759
21
-26.5320912290
0
LINE
5
23D
100
AcDbEntity
8
0
100
AcDbLine
62
9
6
CONTINUOUS
10
4.8920619140
20
-26.1814637863
11
-8.2185276219
21
-26.1814637863
0
LINE
5
23E
100
AcDbEntity
8
0
100
AcDbLine
62
9
6
CONTINUOUS
10
-8.4202509708
20
-26.0921850306
11
-8.2202543554
21
-26.0921850306
0
LINE
5
23F
100
AcDbEntity
8
0
100
AcDbLine
62
9
6
CONTINUOUS
10
5.5797456446
20
-26.0921850306
11
5.3797490292
21
-26.0921850306
0
LINE
5
240
100
AcDbEntity
8
0
100
AcDbLine
62
9
6
CONTINUOUS
10
4.8937886475
20
-26.0921850306
11
5.0937852629
21
-26.0921850306
0
LINE
5
241
100
AcDbEntity
8
0
100
AcDbLine
62
9
6
CONTINUOUS
10
-8.7062147371
20
-26.0921850306
11
-8.9062113525
21
-26.0921850306
0
LINE
5
242
100
AcDbEntity
8
0
100
AcDbLine
62
7
6
CONTINUOUS
10
-8.1114541687
20
-26.0208513413
11
4.7849884607
21
-26.0208513413
0
LINE
5
243
100
AcDbEntity
8
0
100
AcDbLine
62
7
6
CONTINUOUS
10
-8.9219597218
20
-28.4897935968
11
-9.9132328540
21
-27.4985204646
0
LINE
5
244
100
AcDbEntity
8
0
100
AcDbLine
62
7
6
CONTINUOUS
10
-8.9062113525
20
14.8957398617
11
-8.9620705286
21
14.8119499158
0
LINE
5
245
100
AcDbEntity
8
0
100
AcDbLine
62
7
6
CONTINUOUS
10
-8.9062113525
20
-27.0927807909
11
-8.9620705286
21
-27.0089908450
0
LINE
5
246
100
AcDbEntity
8
0
100
AcDbLine
62
7
6
CONTINUOUS
10
-9.9132328540
20
14.8014795354
11
-9.9097455631
21
14.8119499158
0
LINE
5
247
100
AcDbEntity
8
0
100
AcDbLine
62
7
6
CONTINUOUS
10
-9.9097455631
20
-27.0089908450
11
-9.9132328540
21
-26.9985204646
0
LINE
5
248
100
AcDbEntity
8
0
100
AcDbLine
62
7
6
CONTINUOUS
10
2.7367671460
20
17.7014795354
11
2.6931164992
21
17.6578288885
0
LINE
5
249
100
AcDbEntity
8
0
100
AcDbLine
62
7
6
CONTINUOUS
10
2.8367671460
20
-19.8378555496
11
3.8367671460
21
-19.8378555496
0
LINE
5
24A
100
AcDbEntity
8
0
100
AcDbLine
62
7
6
CONTINUOUS
10
-6.1632328540
20
-19.8378555496
11
-7.1632328540
21
-19.8378555496
0
LINE
5
24B
100
AcDbEntity
8
0
100
AcDbLine
62
7
6
CONTINUOUS
10
2.7367671460
20
-29.8985204646
11
2.6931164992
21
-29.8548698177
0
LINE
5
24C
100
AcDbEntity
8
0
100
AcDbLine
62
9
6
CONTINUOUS
10
-12.3088610200
20
-29.9428580319
11
-12.3132328540
21
-29.5090056128
0
LINE
5
24D
100
AcDbEntity
8
0
100
AcDbLine
62
9
6
CONTINUOUS
10
-12.0588652508
20
-29.7263516810
11
-12.0639558519
21
-29.2211701954
0
LINE
5
24E
100
AcDbEntity
8
0
100
AcDbLine
62
7
6
CONTINUOUS
10
-12.8132328540
20
15.7926574760
11
-12.8132328540
21
-27.9896984052
0
LINE
5
24F
100
AcDbEntity
8
0
100
AcDbLine
62
7
6
CONTINUOUS
10
-12.3132328540
20
-28.4982104326
11
-12.3132328540
21
-30.3485246954
0
LINE
5
250
100
AcDbEntity
8
0
100
AcDbLine
62
7
6
CONTINUOUS
10
-12.3132328540
20
16.3011695034
11
-12.3132328540
21
18.1514837662
0
LINE
5
251
100
AcDbEntity
8
0
100
AcDbLine
62
9
6
CONTINUOUS
10
-12.3088610200
20
18.1471119322
11
-12.3088610200
21
17.7458171027
0
LINE
5
252
100
AcDbEntity
8
0
100
AcDbLine
62
9
6
CONTINUOUS
10
-12.3088610200
20
-29.9428580319
11
-12.3088610200
21
-30.3441528614
0
LINE
5
253
100
AcDbEntity
8
0
100
AcDbLine
62
9
6
CONTINUOUS
10
-12.3132328540
20
17.3119646836
11
-12.3088610200
21
17.7458171027
0
LINE
5
254
100
AcDbEntity
8
0
100
AcDbLine
62
9
6
CONTINUOUS
10
-12.0639558519
20
17.0241292662
11
-12.0588652508
21
17.5293107517
0
LINE
5
255
100
AcDbEntity
8
0
100
AcDbLine
62
9
6
CONTINUOUS
10
-12.0588652508
20
-29.7263516810
11
-12.0588652508
21
-30.5941486306
0
LINE
5
256
100
AcDbEntity
8
0
100
AcDbLine
62
9
6
CONTINUOUS
10
-12.0588652508
20
17.5293107517
11
-12.0588652508
21
18.3971077014
0
LINE
5
257
100
AcDbEntity
8
0
100
AcDbLine
62
7
6
CONTINUOUS
10
-11.7632328540
20
-7.5985204646
11
-11.7632328540
21
-13.8985204646
0
LINE
5
258
100
AcDbEntity
8
0
100
AcDbLine
62
7
6
CONTINUOUS
10
-11.3132328540
20
14.3012506833
11
-11.3132328540
21
5.2014795354
0
LINE
5
259
100
AcDbEntity
8
0
100
AcDbLine
62
7
6
CONTINUOUS
10
-11.3132328540
20
4.2014795354
11
-11.3132328540
21
-7.5985204646
0
LINE
5
25A
100
AcDbEntity
8
0
100
AcDbLine
62
7
6
CONTINUOUS
10
-11.3132328540
20
-13.8985204646
11
-11.3132328540
21
-14.6485204646
0
LINE
5
25B
100
AcDbEntity
8
0
100
AcDbLine
62
7
6
CONTINUOUS
10
-11.3132328540
20
-15.6485204646
11
-11.3132328540
21
-26.4982916125
0
LINE
5
25C
100
AcDbEntity
8
0
100
AcDbLine
62
7
6
CONTINUOUS
10
-11.2905412696
20
-0.6131069019
11
-11.2905412696
21
-1.0839340273
0
LINE
5
25D
100
AcDbEntity
8
0
100
AcDbLine
62
7
6
CONTINUOUS
10
-11.2730862046
20
-4.9985204646
11
-11.2730862046
21
-7.5985204646
0
LINE
5
25E
100
AcDbEntity
8
0
100
AcDbLine
62
7
6
CONTINUOUS
10
-11.2503946202
20
14.1125826779
11
-11.2503946202
21
13.4014795354
0
LINE
5
25F
100
AcDbEntity
8
0
100
AcDbLine
62
7
6
CONTINUOUS
10
-11.1927929060
20
13.2014795354
11
-11.1927929060
21
9.1014795354
0
LINE
5
260
100
AcDbEntity
8
0
100
AcDbLine
62
7
6
CONTINUOUS
10
-11.1578827761
20
-26.0318623769
11
-11.1578827761
21
-15.6485204646
0
LINE
5
261
100
AcDbEntity
8
0
100
AcDbLine
62
7
6
CONTINUOUS
10
-11.1578827761
20
-14.6485204646
11
-11.1578827761
21
-13.8985204646
0
LINE
5
262
100
AcDbEntity
8
0
100
AcDbLine
62
7
6
CONTINUOUS
10
-11.1578827761
20
-4.9985204646
11
-11.1578827761
21
-1.3485204646
0
LINE
5
263
100
AcDbEntity
8
0
100
AcDbLine
62
7
6
CONTINUOUS
10
-11.1578827761
20
-0.3485204646
11
-11.1578827761
21
4.2014795354
0
LINE
5
264
100
AcDbEntity
8
0
100
AcDbLine
62
7
6
CONTINUOUS
10
-11.1578827761
20
5.2014795354
11
-11.1578827761
21
8.6014795354
0
LINE
5
265
100
AcDbEntity
8
0
100
AcDbLine
62
7
6
CONTINUOUS
10
-10.9132328540
20
1.3014795354
11
-10.9132328540
21
-2.9985204646
0
LINE
5
266
100
AcDbEntity
8
0
100
AcDbLine
62
7
6
CONTINUOUS
10
-10.8132328540
20
-4.9985204646
11
-10.8132328540
21
-4.5985204646
0
LINE
5
267
100
AcDbEntity
8
0
100
AcDbLine
62
7
6
CONTINUOUS
10
-10.5132328540
20
-11.8985204646
11
-10.5132328540
21
4.1014795354
0
LINE
5
268
100
AcDbEntity
8
0
100
AcDbLine
62
7
6
CONTINUOUS
10
-8.9841770413
20
14.6128115300
11
-8.9620705286
21
14.8119499158
0
LINE
5
269
100
AcDbEntity
8
0
100
AcDbLine
62
7
6
CONTINUOUS
10
2.7367671460
20
16.3014795354
11
2.6926998788
21
16.2353777023
0
LINE
5
26A
100
AcDbEntity
8
0
100
AcDbLine
62
9
6
CONTINUOUS
10
8.7323995428
20
18.3971077014
11
8.7367713768
21
18.4014795354
0
LINE
5
26B
100
AcDbEntity
8
0
100
AcDbLine
62
9
6
CONTINUOUS
10
8.9823953120
20
18.1471119322
11
8.9867671460
21
18.1514837662
0
LINE
5
26C
100
AcDbEntity
8
0
100
AcDbLine
62
7
6
CONTINUOUS
10
-11.1578827761
20
-0.3485204646
11
-11.2870807210
21
-0.4131145173
0
LINE
5
26D
100
AcDbEntity
8
0
100
AcDbLine
62
7
6
CONTINUOUS
10
-8.7632328540
20
-16.5985204646
11
5.4367671460
21
-16.5985204646
0
LINE
5
26E
100
AcDbEntity
8
0
100
AcDbLine
62
9
6
CONTINUOUS
10
-8.9632328540
20
-16.3985204646
11
-6.1632328540
21
-16.3985204646
0
LINE
5
26F
100
AcDbEntity
8
0
100
AcDbLine
62
9
6
CONTINUOUS
10
2.8367671460
20
-16.3985204646
11
5.6367671460
21
-16.3985204646
0
LINE
5
270
100
AcDbEntity
8
0
100
AcDbLine
62
7
6
CONTINUOUS
10
7.9867671460
20
-15.6485204646
11
5.8367671460
21
-15.6485204646
0
LINE
5
271
100
AcDbEntity
8
0
100
AcDbLine
62
7
6
CONTINUOUS
10
-9.1632328540
20
-15.6485204646
11
-11.3132328540
21
-15.6485204646
0
LINE
5
272
100
AcDbEntity
8
0
100
AcDbLine
62
9
6
CONTINUOUS
10
5.6367671460
20
-14.8485204646
11
2.8367671460
21
-14.8485204646
0
LINE
5
273
100
AcDbEntity
8
0
100
AcDbLine
62
9
6
CONTINUOUS
10
-6.1632328540
20
-14.8485204646
11
-8.9632328540
21
-14.8485204646
0
LINE
5
274
100
AcDbEntity
8
0
100
AcDbLine
62
9
6
CONTINUOUS
10
8.7323995428
20
-30.5941486306
11
8.7367713768
21
-30.5985204646
0
LINE
5
275
100
AcDbEntity
8
0
100
AcDbLine
62
9
6
CONTINUOUS
10
8.9823953120
20
-30.3441528614
11
8.9867671460
21
-30.3485246954
0
LINE
5
276
100
AcDbEntity
8
0
100
AcDbLine
62
7
6
CONTINUOUS
10
2.7367671460
20
-28.4985204646
11
2.6926998788
21
-28.4324186315
0
LINE
5
277
100
AcDbEntity
8
0
100
AcDbLine
62
7
6
CONTINUOUS
10
-8.9620705286
20
-27.0089908450
11
-9.0150115393
21
-26.5320912290
0
LINE
5
278
100
AcDbEntity
8
0
100
AcDbLine
62
9
6
CONTINUOUS
10
-8.9062113525
20
-26.0921850306
11
-9.0150115393
21
-22.9050341898
0
LINE
5
279
100
AcDbEntity
8
0
100
AcDbLine
62
9
6
CONTINUOUS
10
-10.1676004572
20
17.5293107517
11
-10.1625098561
21
17.0241292662
0
LINE
5
27A
100
AcDbEntity
8
0
100
AcDbLine
62
9
6
CONTINUOUS
10
-9.9176046880
20
17.7458171027
11
-9.9132328540
21
17.3119646836
0
LINE
5
27B
100
AcDbEntity
8
0
100
AcDbLine
62
9
6
CONTINUOUS
10
-10.1676004572
20
-29.7263516810
11
-10.1676004572
21
-30.5941486306
0
LINE
5
27C
100
AcDbEntity
8
0
100
AcDbLine
62
9
6
CONTINUOUS
10
-10.1676004572
20
17.5293107517
11
-10.1676004572
21
18.3971077014
0
LINE
5
27D
100
AcDbEntity
8
0
100
AcDbLine
62
9
6
CONTINUOUS
10
-9.9176046880
20
-30.3441528614
11
-9.9176046880
21
-29.9428580319
0
LINE
5
27E
100
AcDbEntity
8
0
100
AcDbLine
62
9
6
CONTINUOUS
10
-9.9176046880
20
17.7458171027
11
-9.9176046880
21
18.1471119322
0
LINE
5
27F
100
AcDbEntity
8
0
100
AcDbLine
62
7
6
CONTINUOUS
10
-9.9132328540
20
-27.4985204646
11
-9.9132328540
21
-26.9985204646
0
LINE
5
280
100
AcDbEntity
8
0
100
AcDbLine
62
7
6
CONTINUOUS
10
-9.9132328540
20
-13.8985204646
11
-9.9132328540
21
-14.4985204646
0
LINE
5
281
100
AcDbEntity
8
0
100
AcDbLine
62
7
6
CONTINUOUS
10
-9.9132328540
20
-28.4985204646
11
-9.9132328540
21
-30.3485246954
0
LINE
5
282
100
AcDbEntity
8
0
100
AcDbLine
62
7
6
CONTINUOUS
10
-9.9132328540
20
14.8014795354
11
-9.9132328540
21
15.3014795354
0
LINE
5
283
100
AcDbEntity
8
0
100
AcDbLine
62
7
6
CONTINUOUS
10
-9.9132328540
20
16.3014795354
11
-9.9132328540
21
18.1514837662
0
LINE
5
284
100
AcDbEntity
8
0
100
AcDbLine
62
9
6
CONTINUOUS
10
-9.7472574207
20
15.4674549687
11
-9.7472574207
21
14.8931877996
0
LINE
5
285
100
AcDbEntity
8
0
100
AcDbLine
62
9
6
CONTINUOUS
10
-9.7472574207
20
-27.0902287288
11
-9.7472574207
21
-27.6644958979
0
LINE
5
286
100
AcDbEntity
8
0
100
AcDbLine
62
9
6
CONTINUOUS
10
-9.2473335731
20
15.2141727791
11
-9.2473335731
21
14.8974750811
0
LINE
5
287
100
AcDbEntity
8
0
100
AcDbLine
62
9
6
CONTINUOUS
10
-9.2473335731
20
-27.0945160103
11
-9.2473335731
21
-27.4112137083
0
LINE
5
288
100
AcDbEntity
8
0
100
AcDbLine
62
7
6
CONTINUOUS
10
-9.1632328540
20
4.1014795354
11
-9.1632328540
21
2.6014795354
0
LINE
5
289
100
AcDbEntity
8
0
100
AcDbLine
62
7
6
CONTINUOUS
10
-9.0150115393
20
-26.5320912290
11
-9.0150115393
21
-22.9050341898
0
LINE
5
28A
100
AcDbEntity
8
0
100
AcDbLine
62
7
6
CONTINUOUS
10
-9.0033758797
20
11.0488438000
11
-9.0033758797
21
13.2014795354
0
LINE
5
28B
100
AcDbEntity
8
0
100
AcDbLine
62
7
6
CONTINUOUS
10
-8.9841770413
20
14.6128115300
11
-8.9841770413
21
13.4014795354
0
LINE
5
28C
100
AcDbEntity
8
0
100
AcDbLine
62
7
6
CONTINUOUS
10
-8.9632328540
20
-16.3985204646
11
-8.9632328540
21
-14.8485204646
0
LINE
5
28D
100
AcDbEntity
8
0
100
AcDbLine
62
7
6
CONTINUOUS
10
-8.9632328540
20
4.4014795354
11
-8.9632328540
21
7.7014795354
0
LINE
5
28E
100
AcDbEntity
8
0
100
AcDbLine
62
9
6
CONTINUOUS
10
-8.9062113525
20
-26.0921850306
11
-8.9062113525
21
-27.0927807909
0
LINE
5
28F
100
AcDbEntity
8
0
100
AcDbLine
62
9
6
CONTINUOUS
10
-8.9062113525
20
13.8951441014
11
-8.9062113525
21
14.8957398617
0
LINE
5
290
100
AcDbEntity
8
0
100
AcDbLine
62
9
6
CONTINUOUS
10
-8.7632328540
20
-16.5985204646
11
-8.7632328540
21
-14.6485204646
0
LINE
5
291
100
AcDbEntity
8
0
100
AcDbLine
62
9
6
CONTINUOUS
10
-8.7632328540
20
4.2014795354
11
-8.7632328540
21
7.9014795354
0
LINE
5
292
100
AcDbEntity
8
0
100
AcDbLine
62
9
6
CONTINUOUS
10
-8.7062147371
20
-26.0921850306
11
-8.7062147371
21
-27.0945160103
0
LINE
5
293
100
AcDbEntity
8
0
100
AcDbLine
62
9
6
CONTINUOUS
10
-8.7062147371
20
13.8951441014
11
-8.7062147371
21
14.8974750811
0
LINE
5
294
100
AcDbEntity
8
0
100
AcDbLine
62
7
6
CONTINUOUS
10
-8.6632328540
20
-14.4985204646
11
-8.6632328540
21
-13.8985204646
0
LINE
5
295
100
AcDbEntity
8
0
100
AcDbLine
62
9
6
CONTINUOUS
10
-10.1625098561
20
-29.2211701954
11
-10.1676004572
21
-29.7263516810
0
LINE
5
296
100
AcDbEntity
8
0
100
AcDbLine
62
9
6
CONTINUOUS
10
-9.9132328540
20
-29.5090056128
11
-9.9176046880
21
-29.9428580319
0
LINE
5
297
100
AcDbEntity
8
0
100
AcDbLine
62
9
6
CONTINUOUS
10
-8.9062113525
20
13.8951441014
11
-9.0033758797
21
11.0488438000
0
LINE
5
298
100
AcDbEntity
8
0
100
AcDbLine
62
7
6
CONTINUOUS
10
7.9867671460
20
-14.6485204646
11
-11.3132328540
21
-14.6485204646
0
LINE
5
299
100
AcDbEntity
8
0
100
AcDbLine
62
7
6
CONTINUOUS
10
6.5867671460
20
-14.4985204646
11
-9.9132328540
21
-14.4985204646
0
LINE
5
29A
100
AcDbEntity
8
0
100
AcDbLine
62
7
6
CONTINUOUS
10
-11.7632328540
20
-13.8985204646
11
8.4367671460
21
-13.8985204646
0
LINE
5
29B
100
AcDbEntity
8
0
100
AcDbLine
62
9
6
CONTINUOUS
10
-8.2202543554
20
13.8951441014
11
-8.1230898283
21
11.0488438000
0
LINE
5
29C
100
AcDbEntity
8
0
100
AcDbLine
62
9
6
CONTINUOUS
10
-8.4202509708
20
14.4844038186
11
-8.4202509708
21
13.8951441014
0
LINE
5
29D
100
AcDbEntity
8
0
100
AcDbLine
62
9
6
CONTINUOUS
10
-8.4202509708
20
-26.6814447478
11
-8.4202509708
21
-26.0921850306
0
LINE
5
29E
100
AcDbEntity
8
0
100
AcDbLine
62
9
6
CONTINUOUS
10
-8.2202543554
20
14.0852791283
11
-8.2202543554
21
13.8951441014
0
LINE
5
29F
100
AcDbEntity
8
0
100
AcDbLine
62
9
6
CONTINUOUS
10
-8.2202543554
20
-26.2823200575
11
-8.2202543554
21
-26.0921850306
0
LINE
5
2A0
100
AcDbEntity
8
0
100
AcDbLine
62
7
6
CONTINUOUS
10
-8.1422886667
20
13.8700628114
11
-8.1422886667
21
13.4014795354
0
LINE
5
2A1
100
AcDbEntity
8
0
100
AcDbLine
62
7
6
CONTINUOUS
10
-8.1230898283
20
11.0488438000
11
-8.1230898283
21
13.2014795354
0
LINE
5
2A2
100
AcDbEntity
8
0
100
AcDbLine
62
7
6
CONTINUOUS
10
-8.1114541687
20
-22.9050341898
11
-8.1114541687
21
-26.0208513413
0
LINE
5
2A3
100
AcDbEntity
8
0
100
AcDbLine
62
7
6
CONTINUOUS
10
-7.9632328540
20
4.4014795354
11
-7.9632328540
21
6.2014795354
0
LINE
5
2A4
100
AcDbEntity
8
0
100
AcDbLine
62
7
6
CONTINUOUS
10
-7.4632328540
20
7.3014795354
11
-7.4632328540
21
6.0014795354
0
LINE
5
2A5
100
AcDbEntity
8
0
100
AcDbLine
62
7
6
CONTINUOUS
10
-7.4632328540
20
4.7514795354
11
-7.4632328540
21
5.7014795354
0
LINE
5
2A6
100
AcDbEntity
8
0
100
AcDbLine
62
7
6
CONTINUOUS
10
-7.1632328540
20
-16.5985204646
11
-7.1632328540
21
-19.8378555496
0
LINE
5
2A7
100
AcDbEntity
8
0
100
AcDbLine
62
9
6
CONTINUOUS
10
-8.2202543554
20
-26.0921850306
11
-8.1114541687
21
-22.9050341898
0
LINE
5
2A8
100
AcDbEntity
8
0
100
AcDbLine
62
7
6
CONTINUOUS
10
4.8920619140
20
13.9844228571
11
4.8158229587
21
13.8700628114
0
LINE
5
2A9
100
AcDbEntity
8
0
100
AcDbLine
62
7
6
CONTINUOUS
10
7.1867671460
20
-11.8985204646
11
-10.5132328540
21
-11.8985204646
0
LINE
5
2AA
100
AcDbEntity
8
0
100
AcDbLine
62
7
6
CONTINUOUS
10
4.8920619140
20
-26.1814637863
11
4.7849884607
21
-26.0208513413
0
LINE
5
2AB
100
AcDbEntity
8
0
100
AcDbLine
62
7
6
CONTINUOUS
10
-6.1632328540
20
-14.6485204646
11
-6.1632328540
21
-19.8378555496
0
LINE
5
2AC
100
AcDbEntity
8
0
100
AcDbLine
62
7
6
CONTINUOUS
10
-6.1632328540
20
11.4014795354
11
-6.1632328540
21
13.8997341618
0
LINE
5
2AD
100
AcDbEntity
8
0
100
AcDbLine
62
7
6
CONTINUOUS
10
-6.0632328540
20
17.7014795354
11
-6.0632328540
21
16.3014795354
0
LINE
5
2AE
100
AcDbEntity
8
0
100
AcDbLine
62
7
6
CONTINUOUS
10
-6.0632328540
20
-28.4985204646
11
-6.0632328540
21
-29.8985204646
0
LINE
5
2AF
100
AcDbEntity
8
0
100
AcDbLine
62
9
6
CONTINUOUS
10
-6.0191655867
20
-28.4324186315
11
-6.0191655867
21
-29.8492938893
0
LINE
5
2B0
100
AcDbEntity
8
0
100
AcDbLine
62
9
6
CONTINUOUS
10
-6.0191655867
20
16.2353777023
11
-6.0191655867
21
17.6522529601
0
LINE
5
2B1
100
AcDbEntity
8
0
100
AcDbLine
62
9
6
CONTINUOUS
10
-5.9632328540
20
11.2014795354
11
-5.9632328540
21
13.9014795354
0
LINE
5
2B2
100
AcDbEntity
8
0
100
AcDbLine
62
7
6
CONTINUOUS
10
-5.6632328540
20
5.6014795354
11
-5.6632328540
21
2.6014795354
0
LINE
5
2B3
100
AcDbEntity
8
0
100
AcDbLine
62
7
6
CONTINUOUS
10
-5.3132328540
20
-11.8985204646
11
-5.3132328540
21
-4.5985204646
0
LINE
5
2B4
100
AcDbEntity
8
0
100
AcDbLine
62
7
6
CONTINUOUS
10
-5.1632328540
20
-28.4324403598
11
-5.1632328540
21
-29.8496627549
0
LINE
5
2B5
100
AcDbEntity
8
0
100
AcDbLine
62
7
6
CONTINUOUS
10
-5.1632328540
20
-29.8511938936
11
-5.1632328540
21
-29.8927026348
0
LINE
5
2B6
100
AcDbEntity
8
0
100
AcDbLine
62
7
6
CONTINUOUS
10
-5.1632328540
20
7.9014795354
11
-5.1632328540
21
10.1014795354
0
LINE
5
2B7
100
AcDbEntity
8
0
100
AcDbLine
62
7
6
CONTINUOUS
10
-5.1632328540
20
17.6541529644
11
-5.1632328540
21
17.6956617056
0
LINE
5
2B8
100
AcDbEntity
8
0
100
AcDbLine
62
7
6
CONTINUOUS
10
-5.1632328540
20
16.2353994306
11
-5.1632328540
21
17.6526218257
0
LINE
5
2B9
100
AcDbEntity
8
0
100
AcDbLine
62
7
6
CONTINUOUS
10
-5.0632328540
20
8.0014795354
11
-5.0632328540
21
9.4014795354
0
LINE
5
2BA
100
AcDbEntity
8
0
100
AcDbLine
62
7
6
CONTINUOUS
10
-4.6632328540
20
5.6014795354
11
-4.6632328540
21
4.5514795354
0
LINE
5
2BB
100
AcDbEntity
8
0
100
AcDbLine
62
7
6
CONTINUOUS
10
-4.6632328540
20
4.5325365691
11
-4.6632328540
21
4.1014795354
0
LINE
5
2BC
100
AcDbEntity
8
0
100
AcDbLine
62
7
6
CONTINUOUS
10
-4.6632328540
20
-27.0985204646
11
-4.6632328540
21
-28.4897935968
0
LINE
5
2BD
100
AcDbEntity
8
0
100
AcDbLine
62
7
6
CONTINUOUS
10
-4.6632328540
20
14.9014795354
11
-4.6632328540
21
16.2927526676
0
LINE
5
2BE
100
AcDbEntity
8
0
100
AcDbLine
62
9
6
CONTINUOUS
10
-11.1578827761
20
-26.0318623769
11
-11.3132328540
21
-26.4982916125
0
LINE
5
2BF
100
AcDbEntity
8
0
100
AcDbLine
62
9
6
CONTINUOUS
10
-10.6582633759
20
-26.5320912290
11
-10.8136134537
21
-26.9985204646
0
LINE
5
2C0
100
AcDbEntity
8
0
100
AcDbLine
62
9
6
CONTINUOUS
10
-11.3132328540
20
14.3012506833
11
-11.2503946202
21
14.1125826779
0
LINE
5
2C1
100
AcDbEntity
8
0
100
AcDbLine
62
9
6
CONTINUOUS
10
-10.8136134537
20
14.8014795354
11
-10.7507752200
21
14.6128115300
0
LINE
5
2C2
100
AcDbEntity
8
0
100
AcDbLine
62
7
6
CONTINUOUS
10
7.8314170682
20
-1.3485204646
11
7.9606150131
21
-1.2839264119
0
LINE
5
2C3
100
AcDbEntity
8
0
100
AcDbLine
62
7
6
CONTINUOUS
10
8.4367671460
20
-7.5985204646
11
7.1867671460
21
-7.5985204646
0
LINE
5
2C4
100
AcDbEntity
8
0
100
AcDbLine
62
7
6
CONTINUOUS
10
-10.5132328540
20
-7.5985204646
11
-11.7632328540
21
-7.5985204646
0
LINE
5
2C5
100
AcDbEntity
8
0
100
AcDbLine
62
7
6
CONTINUOUS
10
-11.1578827761
20
-1.3485204646
11
-11.2870807210
21
-1.2839264119
0
LINE
5
2C6
100
AcDbEntity
8
0
100
AcDbLine
62
7
6
CONTINUOUS
10
7.1867671460
20
-4.9985204646
11
7.9466204967
21
-4.9985204646
0
LINE
5
2C7
100
AcDbEntity
8
0
100
AcDbLine
62
7
6
CONTINUOUS
10
-10.5132328540
20
-4.9985204646
11
-11.2730862046
21
-4.9985204646
0
LINE
5
2C8
100
AcDbEntity
8
0
100
AcDbLine
62
7
6
CONTINUOUS
10
-10.8132328540
20
-4.5985204646
11
-10.5132328540
21
-4.5985204646
0
LINE
5
2C9
100
AcDbEntity
8
0
100
AcDbLine
62
7
6
CONTINUOUS
10
1.9867671460
20
-4.5985204646
11
-5.3132328540
21
-4.5985204646
0
LINE
5
2CA
100
AcDbEntity
8
0
100
AcDbLine
62
7
6
CONTINUOUS
10
7.1867671460
20
-4.5985204646
11
7.4867671460
21
-4.5985204646
0
LINE
5
2CB
100
AcDbEntity
8
0
100
AcDbLine
62
7
6
CONTINUOUS
10
1.3367671460
20
5.6014795354
11
1.3367671460
21
4.1014795354
0
LINE
5
2CC
100
AcDbEntity
8
0
100
AcDbLine
62
7
6
CONTINUOUS
10
1.3367671460
20
-27.0985204646
11
1.3367671460
21
-28.4897935968
0
LINE
5
2CD
100
AcDbEntity
8
0
100
AcDbLine
62
7
6
CONTINUOUS
10
1.3367671460
20
14.9014795354
11
1.3367671460
21
16.2927526676
0
LINE
5
2CE
100
AcDbEntity
8
0
100
AcDbLine
62
7
6
CONTINUOUS
10
1.7367671460
20
9.4014795354
11
1.7367671460
21
8.0014795354
0
LINE
5
2CF
100
AcDbEntity
8
0
100
AcDbLine
62
7
6
CONTINUOUS
10
1.8367671460
20
-28.4324403598
11
1.8367671460
21
-29.8496627549
0
LINE
5
2D0
100
AcDbEntity
8
0
100
AcDbLine
62
7
6
CONTINUOUS
10
1.8367671460
20
-29.8511938936
11
1.8367671460
21
-29.8927026348
0
LINE
5
2D1
100
AcDbEntity
8
0
100
AcDbLine
62
7
6
CONTINUOUS
10
1.8367671460
20
7.9014795354
11
1.8367671460
21
10.1014795354
0
LINE
5
2D2
100
AcDbEntity
8
0
100
AcDbLine
62
7
6
CONTINUOUS
10
1.8367671460
20
17.6541529644
11
1.8367671460
21
17.6956617056
0
LINE
5
2D3
100
AcDbEntity
8
0
100
AcDbLine
62
7
6
CONTINUOUS
10
1.8367671460
20
16.2353994306
11
1.8367671460
21
17.6526218257
0
LINE
5
2D4
100
AcDbEntity
8
0
100
AcDbLine
62
7
6
CONTINUOUS
10
1.9867671460
20
-11.8985204646
11
1.9867671460
21
-4.5985204646
0
LINE
5
2D5
100
AcDbEntity
8
0
100
AcDbLine
62
9
6
CONTINUOUS
10
7.4243095120
20
14.6128115300
11
7.4871477458
21
14.8014795354
0
LINE
5
2D6
100
AcDbEntity
8
0
100
AcDbLine
62
9
6
CONTINUOUS
10
7.9239289123
20
14.1125826779
11
7.9867671460
21
14.3012506833
0
LINE
5
2D7
100
AcDbEntity
8
0
100
AcDbLine
62
7
6
CONTINUOUS
10
-10.9132328540
20
-2.9985204646
11
-10.5132328540
21
-2.9985204646
0
LINE
5
2D8
100
AcDbEntity
8
0
100
AcDbLine
62
7
6
CONTINUOUS
10
7.1867671460
20
-2.9985204646
11
7.5867671460
21
-2.9985204646
0
LINE
5
2D9
100
AcDbEntity
8
0
100
AcDbLine
62
9
6
CONTINUOUS
10
7.4871477458
20
-26.9985204646
11
7.3317976679
21
-26.5320912290
0
LINE
5
2DA
100
AcDbEntity
8
0
100
AcDbLine
62
9
6
CONTINUOUS
10
7.9867671460
20
-26.4982916125
11
7.8314170682
21
-26.0318623769
0
LINE
5
2DB
100
AcDbEntity
8
0
100
AcDbLine
62
7
6
CONTINUOUS
10
2.3367671460
20
5.6014795354
11
2.3367671460
21
4.5514795354
0
LINE
5
2DC
100
AcDbEntity
8
0
100
AcDbLine
62
7
6
CONTINUOUS
10
2.3367671460
20
4.5325365691
11
2.3367671460
21
2.6014795354
0
LINE
5
2DD
100
AcDbEntity
8
0
100
AcDbLine
62
9
6
CONTINUOUS
10
2.6367671460
20
13.9014795354
11
2.6367671460
21
11.2014795354
0
LINE
5
2DE
100
AcDbEntity
8
0
100
AcDbLine
62
9
6
CONTINUOUS
10
2.6926998788
20
-28.4324186315
11
2.6926998788
21
-29.8492938893
0
LINE
5
2DF
100
AcDbEntity
8
0
100
AcDbLine
62
9
6
CONTINUOUS
10
2.6926998788
20
16.2353777023
11
2.6926998788
21
17.6522529601
0
LINE
5
2E0
100
AcDbEntity
8
0
100
AcDbLine
62
7
6
CONTINUOUS
10
2.7367671460
20
-29.8985204646
11
2.7367671460
21
-28.4985204646
0
LINE
5
2E1
100
AcDbEntity
8
0
100
AcDbLine
62
7
6
CONTINUOUS
10
2.7367671460
20
16.3014795354
11
2.7367671460
21
17.7014795354
0
LINE
5
2E2
100
AcDbEntity
8
0
100
AcDbLine
62
7
6
CONTINUOUS
10
2.8367671460
20
13.8997341618
11
2.8367671460
21
11.4017675624
0
LINE
5
2E3
100
AcDbEntity
8
0
100
AcDbLine
62
7
6
CONTINUOUS
10
2.8367671460
20
-19.8378555496
11
2.8367671460
21
-14.6485204646
0
LINE
5
2E4
100
AcDbEntity
8
0
100
AcDbLine
62
7
6
CONTINUOUS
10
3.8367671460
20
-16.5985204646
11
3.8367671460
21
-19.8378555496
0
LINE
5
2E5
100
AcDbEntity
8
0
100
AcDbLine
62
7
6
CONTINUOUS
10
-11.1578827761
20
-1.3485204646
11
-10.9132328540
21
-1.3485204646
0
LINE
5
2E6
100
AcDbEntity
8
0
100
AcDbLine
62
7
6
CONTINUOUS
10
7.8314170682
20
-1.3485204646
11
7.5867671460
21
-1.3485204646
0
LINE
5
2E7
100
AcDbEntity
8
0
100
AcDbLine
62
9
6
CONTINUOUS
10
-11.2870807210
20
-1.2839264119
11
-10.9132328540
21
-1.2839264119
0
LINE
5
2E8
100
AcDbEntity
8
0
100
AcDbLine
62
9
6
CONTINUOUS
10
7.5867671460
20
-1.2839264119
11
7.9606150131
21
-1.2839264119
0
LINE
5
2E9
100
AcDbEntity
8
0
100
AcDbLine
62
9
6
CONTINUOUS
10
-11.2905412696
20
-1.0839340273
11
-10.9132328540
21
-1.0839340273
0
LINE
5
2EA
100
AcDbEntity
8
0
100
AcDbLine
62
9
6
CONTINUOUS
10
7.5867671460
20
-1.0839340273
11
7.9640755616
21
-1.0839340273
0
LINE
5
2EB
100
AcDbEntity
8
0
100
AcDbLine
62
9
6
CONTINUOUS
10
7.9640755616
20
-0.6131069019
11
7.5867671460
21
-0.6131069019
0
LINE
5
2EC
100
AcDbEntity
8
0
100
AcDbLine
62
9
6
CONTINUOUS
10
-10.9132328540
20
-0.6131069019
11
-11.2905412696
21
-0.6131069019
0
LINE
5
2ED
100
AcDbEntity
8
0
100
AcDbLine
62
9
6
CONTINUOUS
10
4.8937886475
20
-26.0921850306
11
4.7849884607
21
-22.9050341898
0
LINE
5
2EE
100
AcDbEntity
8
0
100
AcDbLine
62
7
6
CONTINUOUS
10
4.1367671460
20
4.7514795354
11
4.1367671460
21
5.7014795354
0
LINE
5
2EF
100
AcDbEntity
8
0
100
AcDbLine
62
7
6
CONTINUOUS
10
4.1367671460
20
6.0014795354
11
4.1367671460
21
7.3014795354
0
LINE
5
2F0
100
AcDbEntity
8
0
100
AcDbLine
62
7
6
CONTINUOUS
10
4.6367671460
20
6.2014795354
11
4.6367671460
21
4.4014795354
0
LINE
5
2F1
100
AcDbEntity
8
0
100
AcDbLine
62
7
6
CONTINUOUS
10
4.7849884607
20
-26.0208513413
11
4.7849884607
21
-22.9050341898
0
LINE
5
2F2
100
AcDbEntity
8
0
100
AcDbLine
62
7
6
CONTINUOUS
10
4.7966241203
20
11.0488438000
11
4.7966241203
21
13.2014795354
0
LINE
5
2F3
100
AcDbEntity
8
0
100
AcDbLine
62
7
6
CONTINUOUS
10
4.8158229587
20
13.8700628114
11
4.8158229587
21
13.4014795354
0
LINE
5
2F4
100
AcDbEntity
8
0
100
AcDbLine
62
9
6
CONTINUOUS
10
4.8937886475
20
-26.2823200575
11
4.8937886475
21
-26.0921850306
0
LINE
5
2F5
100
AcDbEntity
8
0
100
AcDbLine
62
9
6
CONTINUOUS
10
4.8937886475
20
13.8951441014
11
4.8937886475
21
14.0852791283
0
LINE
5
2F6
100
AcDbEntity
8
0
100
AcDbLine
62
9
6
CONTINUOUS
10
5.0937852629
20
-26.6814447478
11
5.0937852629
21
-26.0921850306
0
LINE
5
2F7
100
AcDbEntity
8
0
100
AcDbLine
62
9
6
CONTINUOUS
10
5.0937852629
20
13.8951441014
11
5.0937852629
21
14.4844038186
0
LINE
5
2F8
100
AcDbEntity
8
0
100
AcDbLine
62
7
6
CONTINUOUS
10
5.3367671460
20
-14.4985204646
11
5.3367671460
21
-13.8985204646
0
LINE
5
2F9
100
AcDbEntity
8
0
100
AcDbLine
62
9
6
CONTINUOUS
10
5.3797490292
20
14.8974750811
11
5.3797490292
21
13.8951441014
0
LINE
5
2FA
100
AcDbEntity
8
0
100
AcDbLine
62
9
6
CONTINUOUS
10
5.3797490292
20
-26.0921850306
11
5.3797490292
21
-27.0945160103
0
LINE
5
2FB
100
AcDbEntity
8
0
100
AcDbLine
62
9
6
CONTINUOUS
10
5.4367671460
20
-16.5985204646
11
5.4367671460
21
-14.6485204646
0
LINE
5
2FC
100
AcDbEntity
8
0
100
AcDbLine
62
9
6
CONTINUOUS
10
5.4367671460
20
4.2014795354
11
5.4367671460
21
7.9014795354
0
LINE
5
2FD
100
AcDbEntity
8
0
100
AcDbLine
62
9
6
CONTINUOUS
10
5.5797456446
20
14.8957398617
11
5.5797456446
21
13.8951441014
0
LINE
5
2FE
100
AcDbEntity
8
0
100
AcDbLine
62
9
6
CONTINUOUS
10
5.5797456446
20
-26.0921850306
11
5.5797456446
21
-27.0927807909
0
LINE
5
2FF
100
AcDbEntity
8
0
100
AcDbLine
62
7
6
CONTINUOUS
10
5.6367671460
20
7.7014795354
11
5.6367671460
21
4.4014795354
0
LINE
5
300
100
AcDbEntity
8
0
100
AcDbLine
62
7
6
CONTINUOUS
10
5.6367671460
20
-14.8485204646
11
5.6367671460
21
-16.3985204646
0
LINE
5
301
100
AcDbEntity
8
0
100
AcDbLine
62
7
6
CONTINUOUS
10
5.6577113333
20
14.6128115300
11
5.6577113333
21
13.4014795354
0
LINE
5
302
100
AcDbEntity
8
0
100
AcDbLine
62
7
6
CONTINUOUS
10
5.6769101717
20
11.0488438000
11
5.6769101717
21
13.2014795354
0
LINE
5
303
100
AcDbEntity
8
0
100
AcDbLine
62
7
6
CONTINUOUS
10
5.6885458313
20
-26.5320912290
11
5.6885458313
21
-22.9050341898
0
LINE
5
304
100
AcDbEntity
8
0
100
AcDbLine
62
9
6
CONTINUOUS
10
4.8937886475
20
13.8951441014
11
4.7966241203
21
11.0488438000
0
LINE
5
305
100
AcDbEntity
8
0
100
AcDbLine
62
7
6
CONTINUOUS
10
-8.2185276219
20
-26.1814637863
11
-8.1114541687
21
-26.0208513413
0
LINE
5
306
100
AcDbEntity
8
0
100
AcDbLine
62
9
6
CONTINUOUS
10
7.9606150131
20
-0.4131145173
11
7.5867671460
21
-0.4131145173
0
LINE
5
307
100
AcDbEntity
8
0
100
AcDbLine
62
9
6
CONTINUOUS
10
-10.9132328540
20
-0.4131145173
11
-11.2870807210
21
-0.4131145173
0
LINE
5
308
100
AcDbEntity
8
0
100
AcDbLine
62
7
6
CONTINUOUS
10
-11.1578827761
20
-0.3485204646
11
-10.9132328540
21
-0.3485204646
0
LINE
5
309
100
AcDbEntity
8
0
100
AcDbLine
62
7
6
CONTINUOUS
10
7.8314170682
20
-0.3485204646
11
7.5867671460
21
-0.3485204646
0
LINE
5
30A
100
AcDbEntity
8
0
100
AcDbLine
62
7
6
CONTINUOUS
10
-10.9132328540
20
1.3014795354
11
-10.5132328540
21
1.3014795354
0
LINE
5
30B
100
AcDbEntity
8
0
100
AcDbLine
62
7
6
CONTINUOUS
10
7.1867671460
20
1.3014795354
11
7.5867671460
21
1.3014795354
0
LINE
5
30C
100
AcDbEntity
8
0
100
AcDbLine
62
7
6
CONTINUOUS
10
-8.2185276219
20
13.9844228571
11
-8.1422886667
21
13.8700628114
0
LINE
5
30D
100
AcDbEntity
8
0
100
AcDbLine
62
9
6
CONTINUOUS
10
5.5797456446
20
13.8951441014
11
5.6769101717
21
11.0488438000
0
LINE
5
30E
100
AcDbEntity
8
0
100
AcDbLine
62
9
6
CONTINUOUS
10
6.5911389800
20
-29.9428580319
11
6.5867671460
21
-29.5090056128
0
LINE
5
30F
100
AcDbEntity
8
0
100
AcDbLine
62
9
6
CONTINUOUS
10
6.8418619780
20
-29.7985204646
11
6.8360441481
21
-29.2211701954
0
LINE
5
310
100
AcDbEntity
8
0
100
AcDbLine
62
7
6
CONTINUOUS
10
5.8367671460
20
4.1014795354
11
5.8367671460
21
2.6014795354
0
LINE
5
311
100
AcDbEntity
8
0
100
AcDbLine
62
9
6
CONTINUOUS
10
5.9208678652
20
-27.4112137083
11
5.9208678652
21
-27.0945160103
0
LINE
5
312
100
AcDbEntity
8
0
100
AcDbLine
62
9
6
CONTINUOUS
10
5.9208678652
20
14.8974750811
11
5.9208678652
21
15.2141727791
0
LINE
5
313
100
AcDbEntity
8
0
100
AcDbLine
62
9
6
CONTINUOUS
10
6.4207917128
20
-27.6644958979
11
6.4207917128
21
-27.0902287288
0
LINE
5
314
100
AcDbEntity
8
0
100
AcDbLine
62
9
6
CONTINUOUS
10
6.4207917128
20
14.8931877996
11
6.4207917128
21
15.4674549687
0
LINE
5
315
100
AcDbEntity
8
0
100
AcDbLine
62
7
6
CONTINUOUS
10
6.5867671460
20
15.3014795354
11
6.5867671460
21
14.8014795354
0
LINE
5
316
100
AcDbEntity
8
0
100
AcDbLine
62
7
6
CONTINUOUS
10
6.5867671460
20
-13.8985204646
11
6.5867671460
21
-14.4985204646
0
LINE
5
317
100
AcDbEntity
8
0
100
AcDbLine
62
7
6
CONTINUOUS
10
6.5867671460
20
-26.9985204646
11
6.5867671460
21
-27.4985204646
0
LINE
5
318
100
AcDbEntity
8
0
100
AcDbLine
62
7
6
CONTINUOUS
10
6.5867671460
20
-28.4985204646
11
6.5867671460
21
-30.3485246954
0
LINE
5
319
100
AcDbEntity
8
0
100
AcDbLine
62
7
6
CONTINUOUS
10
6.5867671460
20
16.3014795354
11
6.5867671460
21
18.1514837662
0
LINE
5
31A
100
AcDbEntity
8
0
100
AcDbLine
62
9
6
CONTINUOUS
10
6.5911389800
20
18.1471119322
11
6.5911389800
21
17.7458171027
0
LINE
5
31B
100
AcDbEntity
8
0
100
AcDbLine
62
9
6
CONTINUOUS
10
6.5911389800
20
-29.9428580319
11
6.5911389800
21
-30.3441528614
0
LINE
5
31C
100
AcDbEntity
8
0
100
AcDbLine
62
9
6
CONTINUOUS
10
6.8411347492
20
-29.7985204646
11
6.8411347492
21
-30.5941486306
0
LINE
5
31D
100
AcDbEntity
8
0
100
AcDbLine
62
9
6
CONTINUOUS
10
6.8411347492
20
17.5293107517
11
6.8411347492
21
18.3971077014
0
LINE
5
31E
100
AcDbEntity
8
0
100
AcDbLine
62
7
6
CONTINUOUS
10
7.1867671460
20
-11.8985204646
11
7.1867671460
21
4.1014795354
0
LINE
5
31F
100
AcDbEntity
8
0
100
AcDbLine
62
7
6
CONTINUOUS
10
7.4867671460
20
-4.9985204646
11
7.4867671460
21
-4.5985204646
0
LINE
5
320
100
AcDbEntity
8
0
100
AcDbLine
62
9
6
CONTINUOUS
10
6.5867671460
20
17.3119646836
11
6.5911389800
21
17.7458171027
0
LINE
5
321
100
AcDbEntity
8
0
100
AcDbLine
62
9
6
CONTINUOUS
10
6.8360441481
20
17.0241292662
11
6.8411347492
21
17.5293107517
0
LINE
5
322
100
AcDbEntity
8
0
100
AcDbLine
62
9
6
CONTINUOUS
10
5.5797456446
20
-26.0921850306
11
5.6885458313
21
-22.9050341898
0
LINE
5
323
100
AcDbEntity
8
0
100
AcDbLine
62
7
6
CONTINUOUS
10
-6.0632328540
20
-28.4985204646
11
-6.0191655867
21
-28.4324186315
0
LINE
5
324
100
AcDbEntity
8
0
100
AcDbLine
62
7
6
CONTINUOUS
10
-9.1632328540
20
2.6014795354
11
-5.6632328540
21
2.6014795354
0
LINE
5
325
100
AcDbEntity
8
0
100
AcDbLine
62
7
6
CONTINUOUS
10
2.3367671460
20
2.6014795354
11
5.8367671460
21
2.6014795354
0
LINE
5
326
100
AcDbEntity
8
0
100
AcDbLine
62
7
6
CONTINUOUS
10
-6.0632328540
20
16.3014795354
11
-6.0191655867
21
16.2353777023
0
LINE
5
327
100
AcDbEntity
8
0
100
AcDbLine
62
9
6
CONTINUOUS
10
8.7323995428
20
17.5293107517
11
8.7374901439
21
17.0241292662
0
LINE
5
328
100
AcDbEntity
8
0
100
AcDbLine
62
9
6
CONTINUOUS
10
8.9823953120
20
17.7458171027
11
8.9867671460
21
17.3119646836
0
LINE
5
329
100
AcDbEntity
8
0
100
AcDbLine
62
7
6
CONTINUOUS
10
7.5867671460
20
1.3014795354
11
7.5867671460
21
-2.9985204646
0
LINE
5
32A
100
AcDbEntity
8
0
100
AcDbLine
62
7
6
CONTINUOUS
10
7.8314170682
20
-26.0318623769
11
7.8314170682
21
-15.6485204646
0
LINE
5
32B
100
AcDbEntity
8
0
100
AcDbLine
62
7
6
CONTINUOUS
10
7.8314170682
20
-14.6485204646
11
7.8314170682
21
-13.8985204646
0
LINE
5
32C
100
AcDbEntity
8
0
100
AcDbLine
62
7
6
CONTINUOUS
10
7.8314170682
20
-4.9985204646
11
7.8314170682
21
-1.3485204646
0
LINE
5
32D
100
AcDbEntity
8
0
100
AcDbLine
62
7
6
CONTINUOUS
10
7.8314170682
20
-0.3485204646
11
7.8314170682
21
4.2014795354
0
LINE
5
32E
100
AcDbEntity
8
0
100
AcDbLine
62
7
6
CONTINUOUS
10
7.8314170682
20
5.2014795354
11
7.8314170682
21
8.6014795354
0
LINE
5
32F
100
AcDbEntity
8
0
100
AcDbLine
62
7
6
CONTINUOUS
10
7.8663271980
20
13.2014795354
11
7.8663271980
21
9.1014795354
0
LINE
5
330
100
AcDbEntity
8
0
100
AcDbLine
62
7
6
CONTINUOUS
10
7.9239289123
20
14.1125826779
11
7.9239289123
21
13.4014795354
0
LINE
5
331
100
AcDbEntity
8
0
100
AcDbLine
62
7
6
CONTINUOUS
10
7.9466204967
20
-4.9985204646
11
7.9466204967
21
-7.5985204646
0
LINE
5
332
100
AcDbEntity
8
0
100
AcDbLine
62
7
6
CONTINUOUS
10
7.9640755616
20
-0.6131069019
11
7.9640755616
21
-1.0839340273
0
LINE
5
333
100
AcDbEntity
8
0
100
AcDbLine
62
7
6
CONTINUOUS
10
7.9867671460
20
14.3012506833
11
7.9867671460
21
5.2014795354
0
LINE
5
334
100
AcDbEntity
8
0
100
AcDbLine
62
7
6
CONTINUOUS
10
7.9867671460
20
4.2014795354
11
7.9867671460
21
-7.5985204646
0
LINE
5
335
100
AcDbEntity
8
0
100
AcDbLine
62
7
6
CONTINUOUS
10
7.9867671460
20
-13.8985204646
11
7.9867671460
21
-14.6485204646
0
LINE
5
336
100
AcDbEntity
8
0
100
AcDbLine
62
7
6
CONTINUOUS
10
7.9867671460
20
-15.6485204646
11
7.9867671460
21
-26.4982916125
0
LINE
5
337
100
AcDbEntity
8
0
100
AcDbLine
62
7
6
CONTINUOUS
10
8.4367671460
20
-13.8985204646
11
8.4367671460
21
-7.5985204646
0
LINE
5
338
100
AcDbEntity
8
0
100
AcDbLine
62
9
6
CONTINUOUS
10
8.7323995428
20
-29.7985204646
11
8.7323995428
21
-30.5941486306
0
LINE
5
339
100
AcDbEntity
8
0
100
AcDbLine
62
9
6
CONTINUOUS
10
8.7323995428
20
17.5293107517
11
8.7323995428
21
18.3971077014
0
LINE
5
33A
100
AcDbEntity
8
0
100
AcDbLine
62
9
6
CONTINUOUS
10
8.9823953120
20
-30.3441528614
11
8.9823953120
21
-29.9428580319
0
LINE
5
33B
100
AcDbEntity
8
0
100
AcDbLine
62
9
6
CONTINUOUS
10
8.9823953120
20
17.7458171027
11
8.9823953120
21
18.1471119322
0
LINE
5
33C
100
AcDbEntity
8
0
100
AcDbLine
62
7
6
CONTINUOUS
10
8.9867671460
20
-28.4982104326
11
8.9867671460
21
-30.3485246954
0
LINE
5
33D
100
AcDbEntity
8
0
100
AcDbLine
62
7
6
CONTINUOUS
10
8.9867671460
20
16.3011695034
11
8.9867671460
21
18.1514837662
0
LINE
5
33E
100
AcDbEntity
8
0
100
AcDbLine
62
9
6
CONTINUOUS
10
8.7374901439
20
-29.2211701954
11
8.7316723141
21
-29.7985204646
0
LINE
5
33F
100
AcDbEntity
8
0
100
AcDbLine
62
9
6
CONTINUOUS
10
8.9867671460
20
-29.5090056128
11
8.9823953120
21
-29.9428580319
0
LINE
5
340
100
AcDbEntity
8
0
100
AcDbLine
62
7
6
CONTINUOUS
10
5.6356048206
20
-27.0089908450
11
5.6885458313
21
-26.5320912290
0
LINE
5
341
100
AcDbEntity
8
0
100
AcDbLine
62
9
6
CONTINUOUS
10
-12.3088610200
20
-30.3441528614
11
-12.3132328540
21
-30.3485246954
0
LINE
5
342
100
AcDbEntity
8
0
100
AcDbLine
62
9
6
CONTINUOUS
10
-12.0588652508
20
-30.5941486306
11
-12.0632370848
21
-30.5985204646
0
LINE
5
343
100
AcDbEntity
8
0
100
AcDbLine
62
7
6
CONTINUOUS
10
7.1867671460
20
4.1014795354
11
-10.5132328540
21
4.1014795354
0
LINE
5
344
100
AcDbEntity
8
0
100
AcDbLine
62
7
6
CONTINUOUS
10
4.8367671460
20
4.2014795354
11
7.9867671460
21
4.2014795354
0
LINE
5
345
100
AcDbEntity
8
0
100
AcDbLine
62
7
6
CONTINUOUS
10
-8.1632328540
20
4.2014795354
11
-11.3132328540
21
4.2014795354
0
LINE
5
346
100
AcDbEntity
8
0
100
AcDbLine
62
9
6
CONTINUOUS
10
-8.9632328540
20
4.4014795354
11
-7.9632328540
21
4.4014795354
0
LINE
5
347
100
AcDbEntity
8
0
100
AcDbLine
62
9
6
CONTINUOUS
10
4.6367671460
20
4.4014795354
11
5.6367671460
21
4.4014795354
0
LINE
5
348
100
AcDbEntity
8
0
100
AcDbLine
62
7
6
CONTINUOUS
10
4.6367671460
20
4.7514795354
11
4.1367671460
21
4.7514795354
0
LINE
5
349
100
AcDbEntity
8
0
100
AcDbLine
62
7
6
CONTINUOUS
10
-7.4632328540
20
4.7514795354
11
-7.9632328540
21
4.7514795354
0
LINE
5
34A
100
AcDbEntity
8
0
100
AcDbLine
62
9
6
CONTINUOUS
10
4.6367671460
20
4.8514795354
11
4.1367671460
21
4.8514795354
0
LINE
5
34B
100
AcDbEntity
8
0
100
AcDbLine
62
9
6
CONTINUOUS
10
-7.4632328540
20
4.8514795354
11
-7.9632328540
21
4.8514795354
0
LINE
5
34C
100
AcDbEntity
8
0
100
AcDbLine
62
7
6
CONTINUOUS
10
7.8314170682
20
-0.3485204646
11
7.9606150131
21
-0.4131145173
0
LINE
5
34D
100
AcDbEntity
8
0
100
AcDbLine
62
9
6
CONTINUOUS
10
-12.3088610200
20
18.1471119322
11
-12.3132328540
21
18.1514837662
0
LINE
5
34E
100
AcDbEntity
8
0
100
AcDbLine
62
9
6
CONTINUOUS
10
-12.0588652508
20
18.3971077014
11
-12.0632370848
21
18.4014795354
0
LINE
5
34F
100
AcDbEntity
8
0
100
AcDbLine
62
7
6
CONTINUOUS
10
5.6577113333
20
14.6128115300
11
5.6356048206
21
14.8119499158
0
LINE
5
350
100
AcDbEntity
8
0
100
AcDbLine
62
7
6
CONTINUOUS
10
9.4867671460
20
15.7926574760
11
9.4867671460
21
-27.9896984052
0
LINE
5
351
100
AcDbEntity
8
0
100
AcDbLine
62
7
6
CONTINUOUS
10
-11.3132328540
20
5.2014795354
11
-9.1632328540
21
5.2014795354
0
LINE
5
352
100
AcDbEntity
8
0
100
AcDbLine
62
7
6
CONTINUOUS
10
5.8367671460
20
5.2014795354
11
7.9867671460
21
5.2014795354
0
LINE
5
353
100
AcDbEntity
8
0
100
AcDbLine
62
7
6
CONTINUOUS
10
4.1367671460
20
5.6014795354
11
-7.4632328540
21
5.6014795354
0
LINE
5
354
100
AcDbEntity
8
0
100
AcDbLine
62
9
6
CONTINUOUS
10
4.1367671460
20
5.7014795354
11
-7.4632328540
21
5.7014795354
0
LINE
5
355
100
AcDbEntity
8
0
100
AcDbLine
62
7
6
CONTINUOUS
10
-7.9632328540
20
6.0014795354
11
-7.4632328540
21
6.0014795354
0
LINE
5
356
100
AcDbEntity
8
0
100
AcDbLine
62
7
6
CONTINUOUS
10
4.1367671460
20
6.0014795354
11
4.6367671460
21
6.0014795354
0
LINE
5
357
100
AcDbEntity
8
0
100
AcDbLine
62
9
6
CONTINUOUS
10
-7.9632328540
20
6.2014795354
11
-7.4632328540
21
6.2014795354
0
LINE
5
358
100
AcDbEntity
8
0
100
AcDbLine
62
9
6
CONTINUOUS
10
4.1367671460
20
6.2014795354
11
4.6367671460
21
6.2014795354
0
LINE
5
359
100
AcDbEntity
8
0
100
AcDbLine
62
7
6
CONTINUOUS
10
4.1367671460
20
6.4514795354
11
-7.4632328540
21
6.4514795354
0
LINE
5
35A
100
AcDbEntity
8
0
100
AcDbLine
62
7
6
CONTINUOUS
10
6.5867671460
20
-26.9985204646
11
6.5832798551
21
-27.0089908450
0
LINE
5
35B
100
AcDbEntity
8
0
100
AcDbLine
62
7
6
CONTINUOUS
10
-6.0632328540
20
-29.8985204646
11
-6.0195822071
21
-29.8548698177
0
LINE
5
35C
100
AcDbEntity
8
0
100
AcDbLine
62
7
6
CONTINUOUS
10
-7.4632328540
20
7.3014795354
11
4.1367671460
21
7.3014795354
0
LINE
5
35D
100
AcDbEntity
8
0
100
AcDbLine
62
9
6
CONTINUOUS
10
5.6367671460
20
7.7014795354
11
-8.9632328540
21
7.7014795354
0
LINE
5
35E
100
AcDbEntity
8
0
100
AcDbLine
62
7
6
CONTINUOUS
10
5.4367671460
20
7.9014795354
11
-8.7632328540
21
7.9014795354
0
LINE
5
35F
100
AcDbEntity
8
0
100
AcDbLine
62
7
6
CONTINUOUS
10
-6.0632328540
20
17.7014795354
11
-6.0195822071
21
17.6578288885
0
LINE
5
360
100
AcDbEntity
8
0
100
AcDbLine
62
7
6
CONTINUOUS
10
6.5832798551
20
14.8119499158
11
6.5867671460
21
14.8014795354
0
LINE
5
361
100
AcDbEntity
8
0
100
AcDbLine
62
7
6
CONTINUOUS
10
7.8575996655
20
8.6014795354
11
1.8367671460
21
8.6014795354
0
LINE
5
362
100
AcDbEntity
8
0
100
AcDbLine
62
7
6
CONTINUOUS
10
-5.1632328540
20
8.6014795354
11
-11.1840653735
21
8.6014795354
0
LINE
5
363
100
AcDbEntity
8
0
100
AcDbLine
62
7
6
CONTINUOUS
10
1.8367671460
20
8.8014795354
11
1.7367671460
21
8.8014795354
0
LINE
5
364
100
AcDbEntity
8
0
100
AcDbLine
62
7
6
CONTINUOUS
10
-5.0632328540
20
8.8014795354
11
-5.1632328540
21
8.8014795354
0
LINE
5
365
100
AcDbEntity
8
0
100
AcDbLine
62
7
6
CONTINUOUS
10
1.8367671460
20
9.0014795354
11
1.7367671460
21
9.0014795354
0
LINE
5
366
100
AcDbEntity
8
0
100
AcDbLine
62
7
6
CONTINUOUS
10
-5.0632328540
20
9.0014795354
11
-5.1632328540
21
9.0014795354
0
LINE
5
367
100
AcDbEntity
8
0
100
AcDbLine
62
9
6
CONTINUOUS
10
7.8663271980
20
9.1014795354
11
1.8367671460
21
9.1014795354
0
LINE
5
368
100
AcDbEntity
8
0
100
AcDbLine
62
9
6
CONTINUOUS
10
-5.1632328540
20
9.1014795354
11
-11.1927929060
21
9.1014795354
0
LINE
5
369
100
AcDbEntity
8
0
100
AcDbLine
62
7
6
CONTINUOUS
10
1.8367671460
20
9.4014795354
11
1.7367671460
21
9.4014795354
0
LINE
5
36A
100
AcDbEntity
8
0
100
AcDbLine
62
7
6
CONTINUOUS
10
-5.0632328540
20
9.4014795354
11
-5.1632328540
21
9.4014795354
0
LINE
5
36B
100
AcDbEntity
8
0
100
AcDbLine
62
7
6
CONTINUOUS
10
-5.1632328540
20
10.1014795354
11
1.8367671460
21
10.1014795354
0
LINE
5
36C
100
AcDbEntity
8
0
100
AcDbLine
62
7
6
CONTINUOUS
10
5.5797456446
20
-27.0927807909
11
5.6356048206
21
-27.0089908450
0
LINE
5
36D
100
AcDbEntity
8
0
100
AcDbLine
62
7
6
CONTINUOUS
10
2.6367671460
20
11.2014795354
11
-5.9632328540
21
11.2014795354
0
LINE
5
36E
100
AcDbEntity
8
0
100
AcDbLine
62
9
6
CONTINUOUS
10
2.8367671460
20
11.7014795354
11
-6.1632328540
21
11.7014795354
0
LINE
5
36F
100
AcDbEntity
8
0
100
AcDbLine
62
7
6
CONTINUOUS
10
5.5797456446
20
14.8957398617
11
5.6356048206
21
14.8119499158
0
LINE
5
370
100
AcDbEntity
8
0
100
AcDbLine
62
7
6
CONTINUOUS
10
7.9204378993
20
13.2014795354
11
5.6588748993
21
13.2014795354
0
LINE
5
371
100
AcDbEntity
8
0
100
AcDbLine
62
7
6
CONTINUOUS
10
4.8146593927
20
13.2014795354
11
2.8367671460
21
13.2014795354
0
LINE
5
372
100
AcDbEntity
8
0
100
AcDbLine
62
7
6
CONTINUOUS
10
-6.1632328540
20
13.2014795354
11
-8.1411251007
21
13.2014795354
0
LINE
5
373
100
AcDbEntity
8
0
100
AcDbLine
62
7
6
CONTINUOUS
10
-8.9853406073
20
13.2014795354
11
-11.2469036073
21
13.2014795354
0
LINE
5
374
100
AcDbEntity
8
0
100
AcDbLine
62
9
6
CONTINUOUS
10
7.9239289123
20
13.4014795354
11
5.6577113333
21
13.4014795354
0
LINE
5
375
100
AcDbEntity
8
0
100
AcDbLine
62
9
6
CONTINUOUS
10
4.8158229587
20
13.4014795354
11
2.8367671460
21
13.4014795354
0
LINE
5
376
100
AcDbEntity
8
0
100
AcDbLine
62
9
6
CONTINUOUS
10
-6.1632328540
20
13.4014795354
11
-8.1422886667
21
13.4014795354
0
LINE
5
377
100
AcDbEntity
8
0
100
AcDbLine
62
9
6
CONTINUOUS
10
-8.9841770413
20
13.4014795354
11
-11.2503946202
21
13.4014795354
0
LINE
5
378
100
AcDbEntity
8
0
100
AcDbLine
62
7
6
CONTINUOUS
10
4.8158229587
20
13.8700628114
11
2.8367671460
21
13.8700628114
0
LINE
5
379
100
AcDbEntity
8
0
100
AcDbLine
62
7
6
CONTINUOUS
10
-6.1632328540
20
13.8700628114
11
-8.1422886667
21
13.8700628114
0
LINE
5
37A
100
AcDbEntity
8
0
100
AcDbLine
62
7
6
CONTINUOUS
10
6.5867671460
20
-27.4985204646
11
5.5954940138
21
-28.4897935968
0
LINE
5
37B
100
AcDbEntity
8
0
100
AcDbLine
62
9
6
CONTINUOUS
10
-8.9062113525
20
13.8951441014
11
-8.7062147371
21
13.8951441014
0
LINE
5
37C
100
AcDbEntity
8
0
100
AcDbLine
62
9
6
CONTINUOUS
10
5.5797456446
20
13.8951441014
11
5.3797490292
21
13.8951441014
0
LINE
5
37D
100
AcDbEntity
8
0
100
AcDbLine
62
9
6
CONTINUOUS
10
4.8937886475
20
13.8951441014
11
5.0937852629
21
13.8951441014
0
LINE
5
37E
100
AcDbEntity
8
0
100
AcDbLine
62
9
6
CONTINUOUS
10
-8.2202543554
20
13.8951441014
11
-8.4202509708
21
13.8951441014
0
LINE
5
37F
100
AcDbEntity
8
0
100
AcDbLine
62
7
6
CONTINUOUS
10
-5.9632328540
20
13.9014795354
11
2.6367671460
21
13.9014795354
0
LINE
5
380
100
AcDbEntity
8
0
100
AcDbLine
62
9
6
CONTINUOUS
10
-8.2185276219
20
13.9844228571
11
4.8920619140
21
13.9844228571
0
LINE
5
381
100
AcDbEntity
8
0
100
AcDbLine
62
9
6
CONTINUOUS
10
-8.4202509708
20
14.4844038186
11
5.0937852629
21
14.4844038186
0
LINE
5
382
100
AcDbEntity
8
0
100
AcDbLine
62
7
6
CONTINUOUS
10
-10.7507752200
20
14.6128115300
11
-8.9841770413
21
14.6128115300
0
LINE
5
383
100
AcDbEntity
8
0
100
AcDbLine
62
7
6
CONTINUOUS
10
5.6577113333
20
14.6128115300
11
7.4243095120
21
14.6128115300
0
LINE
5
384
100
AcDbEntity
8
0
100
AcDbLine
62
7
6
CONTINUOUS
10
-10.8136134537
20
14.8014795354
11
-9.9132328540
21
14.8014795354
0
LINE
5
385
100
AcDbEntity
8
0
100
AcDbLine
62
7
6
CONTINUOUS
10
6.5867671460
20
14.8014795354
11
7.4871477458
21
14.8014795354
0
LINE
5
386
100
AcDbEntity
8
0
100
AcDbLine
62
7
6
CONTINUOUS
10
6.5832798551
20
14.8119499158
11
5.6356048206
21
14.8119499158
0
LINE
5
387
100
AcDbEntity
8
0
100
AcDbLine
62
7
6
CONTINUOUS
10
-8.9620705286
20
14.8119499158
11
-9.9097455631
21
14.8119499158
0
LINE
5
388
100
AcDbEntity
8
0
100
AcDbLine
62
7
6
CONTINUOUS
10
-9.2473335731
20
14.8974750811
11
-8.7062147371
21
14.8974750811
0
LINE
5
389
100
AcDbEntity
8
0
100
AcDbLine
62
7
6
CONTINUOUS
10
5.3797490292
20
14.8974750811
11
5.9208678652
21
14.8974750811
0
LINE
5
38A
100
AcDbEntity
8
0
100
AcDbLine
62
7
6
CONTINUOUS
10
-4.6632328540
20
14.9014795354
11
1.3367671460
21
14.9014795354
0
LINE
5
38B
100
AcDbEntity
8
0
100
AcDbLine
62
9
6
CONTINUOUS
10
5.9208678652
20
15.2141727791
11
1.3367671460
21
15.2141727791
0
LINE
5
38C
100
AcDbEntity
8
0
100
AcDbLine
62
9
6
CONTINUOUS
10
-4.6632328540
20
15.2141727791
11
-9.2473335731
21
15.2141727791
0
LINE
5
38D
100
AcDbEntity
8
0
100
AcDbLine
62
7
6
CONTINUOUS
10
-4.6632328540
20
15.6014795354
11
1.3367671460
21
15.6014795354
0
LINE
5
38E
100
AcDbEntity
8
0
100
AcDbLine
62
7
6
CONTINUOUS
10
6.5867671460
20
15.3014795354
11
5.5954940138
21
16.2927526676
0
LINE
5
38F
100
AcDbEntity
8
0
100
AcDbLine
62
9
6
CONTINUOUS
10
6.5911389800
20
-30.3441528614
11
6.5867671460
21
-30.3485246954
0
LINE
5
390
100
AcDbEntity
8
0
100
AcDbLine
62
9
6
CONTINUOUS
10
6.8411347492
20
-30.5941486306
11
6.8367629152
21
-30.5985204646
0
LINE
5
391
100
AcDbEntity
8
0
100
AcDbLine
62
7
6
CONTINUOUS
10
6.4207917128
20
-27.0902287288
11
6.5832798551
21
-27.0089908450
0
LINE
5
392
100
AcDbEntity
8
0
100
AcDbLine
62
9
6
CONTINUOUS
10
5.6741119792
20
16.2141347022
11
1.3367671460
21
16.2141347022
0
LINE
5
393
100
AcDbEntity
8
0
100
AcDbLine
62
9
6
CONTINUOUS
10
-4.6632328540
20
16.2141347022
11
-9.0005776872
21
16.2141347022
0
LINE
5
394
100
AcDbEntity
8
0
100
AcDbLine
62
7
6
CONTINUOUS
10
8.9866148209
20
16.2927526676
11
5.5954940138
21
16.2927526676
0
LINE
5
395
100
AcDbEntity
8
0
100
AcDbLine
62
7
6
CONTINUOUS
10
1.8367671460
20
16.2927526676
11
1.3367671460
21
16.2927526676
0
LINE
5
396
100
AcDbEntity
8
0
100
AcDbLine
62
7
6
CONTINUOUS
10
-4.6632328540
20
16.2927526676
11
-5.1632328540
21
16.2927526676
0
LINE
5
397
100
AcDbEntity
8
0
100
AcDbLine
62
7
6
CONTINUOUS
10
-8.9219597218
20
16.2927526676
11
-12.3130805288
21
16.2927526676
0
LINE
5
398
100
AcDbEntity
8
0
100
AcDbLine
62
7
6
CONTINUOUS
10
2.7367671460
20
16.3014795354
11
8.9691597559
21
16.3014795354
0
LINE
5
399
100
AcDbEntity
8
0
100
AcDbLine
62
7
6
CONTINUOUS
10
-6.0632328540
20
16.3014795354
11
-12.2956254639
21
16.3014795354
0
LINE
5
39A
100
AcDbEntity
8
0
100
AcDbLine
62
7
6
CONTINUOUS
10
8.7374901439
20
17.0241292662
11
6.8360441481
21
17.0241292662
0
LINE
5
39B
100
AcDbEntity
8
0
100
AcDbLine
62
7
6
CONTINUOUS
10
-10.1625098561
20
17.0241292662
11
-12.0639558519
21
17.0241292662
0
LINE
5
39C
100
AcDbEntity
8
0
100
AcDbLine
62
7
6
CONTINUOUS
10
6.4207917128
20
14.8931877996
11
6.5832798551
21
14.8119499158
0
LINE
5
39D
100
AcDbEntity
8
0
100
AcDbLine
62
9
6
CONTINUOUS
10
6.5911389800
20
18.1471119322
11
6.5867671460
21
18.1514837662
0
LINE
5
39E
100
AcDbEntity
8
0
100
AcDbLine
62
9
6
CONTINUOUS
10
6.8411347492
20
18.3971077014
11
6.8367629152
21
18.4014795354
0
LINE
5
39F
100
AcDbEntity
8
0
100
AcDbLine
62
9
6
CONTINUOUS
10
8.9866148209
20
-28.4897935968
11
8.9691597559
21
-28.4985204646
0
LINE
5
3A0
100
AcDbEntity
8
0
100
AcDbLine
62
9
6
CONTINUOUS
10
-12.0588652508
20
17.5293107517
11
-10.1676004572
21
17.5293107517
0
LINE
5
3A1
100
AcDbEntity
8
0
100
AcDbLine
62
9
6
CONTINUOUS
10
6.8411347492
20
17.5293107517
11
8.7323995428
21
17.5293107517
0
LINE
5
3A2
100
AcDbEntity
8
0
100
AcDbLine
62
9
6
CONTINUOUS
10
-6.0195822071
20
17.6578288885
11
-5.1632328540
21
17.6578288885
0
LINE
5
3A3
100
AcDbEntity
8
0
100
AcDbLine
62
9
6
CONTINUOUS
10
1.8367671460
20
17.6578288885
11
2.6931164992
21
17.6578288885
0
LINE
5
3A4
100
AcDbEntity
8
0
100
AcDbLine
62
7
6
CONTINUOUS
10
-5.1632328540
20
17.6956617056
11
1.8367671460
21
17.6956617056
0
LINE
5
3A5
100
AcDbEntity
8
0
100
AcDbLine
62
7
6
CONTINUOUS
10
2.7367671460
20
17.7014795354
11
-6.0632328540
21
17.7014795354
0
LINE
5
3A6
100
AcDbEntity
8
0
100
AcDbLine
62
9
6
CONTINUOUS
10
6.5911389800
20
17.7458171027
11
8.9823953120
21
17.7458171027
0
LINE
5
3A7
100
AcDbEntity
8
0
100
AcDbLine
62
9
6
CONTINUOUS
10
-9.9176046880
20
17.7458171027
11
-12.3088610200
21
17.7458171027
0
LINE
5
3A8
100
AcDbEntity
8
0
100
AcDbLine
62
9
6
CONTINUOUS
10
6.5911389800
20
18.1471119322
11
8.9823953120
21
18.1471119322
0
LINE
5
3A9
100
AcDbEntity
8
0
100
AcDbLine
62
9
6
CONTINUOUS
10
-9.9176046880
20
18.1471119322
11
-12.3088610200
21
18.1471119322
0
LINE
5
3AA
100
AcDbEntity
8
0
100
AcDbLine
62
9
6
CONTINUOUS
10
8.7323995428
20
18.3971077014
11
6.8411347492
21
18.3971077014
0
LINE
5
3AB
100
AcDbEntity
8
0
100
AcDbLine
62
9
6
CONTINUOUS
10
-10.1676004572
20
18.3971077014
11
-12.0588652508
21
18.3971077014
0
LINE
5
3AC
100
AcDbEntity
8
0
100
AcDbLine
62
7
6
CONTINUOUS
10
8.7367713768
20
18.4014795354
11
6.8367629152
21
18.4014795354
0
LINE
5
3AD
100
AcDbEntity
8
0
100
AcDbLine
62
7
6
CONTINUOUS
10
-10.1632286232
20
18.4014795354
11
-12.0632370848
21
18.4014795354
0
LINE
5
3AE
100
AcDbEntity
8
0
100
AcDbLine
62
9
6
CONTINUOUS
10
8.9691597559
20
16.3014795354
11
8.9833689233
21
16.2943754928
0
ARC
5
3AF
100
AcDbEntity
8
0
100
AcDbCircle
62
7
6
CONTINUOUS
10
1.4367671460
20
8.0014795354
40
0.3000000000
100
AcDbArc
50
340.5190976558
51
360.0000000000
0
ARC
5
3B0
100
AcDbEntity
8
0
100
AcDbCircle
62
7
6
CONTINUOUS
10
-4.7632328540
20
8.0014795354
40
0.3000000000
100
AcDbArc
50
180.0000000000
51
199.4809023442
0
ARC
5
3B1
100
AcDbEntity
8
0
100
AcDbCircle
62
7
6
CONTINUOUS
10
-5.1632328540
20
4.5514795354
40
0.5000000000
100
AcDbArc
50
180.0000000000
51
244.1927923758
0
ARC
5
3B2
100
AcDbEntity
8
0
100
AcDbCircle
62
7
6
CONTINUOUS
10
-5.1632328540
20
4.5514795354
40
0.5000000000
100
AcDbArc
50
295.8072076242
51
360.0000000000
0
ARC
5
3B3
100
AcDbEntity
8
0
100
AcDbCircle
62
7
6
CONTINUOUS
10
1.8367671460
20
4.5514795354
40
0.5000000000
100
AcDbArc
50
180.0000000000
51
244.1927923758
0
ARC
5
3B4
100
AcDbEntity
8
0
100
AcDbCircle
62
7
6
CONTINUOUS
10
1.8367671460
20
4.5514795354
40
0.5000000000
100
AcDbArc
50
295.8072076242
51
360.0000000000
0
ARC
5
3B5
100
AcDbEntity
8
0
100
AcDbCircle
62
7
6
CONTINUOUS
10
2.6367671460
20
11.4014795354
40
0.2000000000
100
AcDbArc
50
270.0000000000
51
360.0000000000
0
ARC
5
3B6
100
AcDbEntity
8
0
100
AcDbCircle
62
7
6
CONTINUOUS
10
-5.9632328540
20
11.4014795354
40
0.2000000000
100
AcDbArc
50
180.0000000000
51
270.0000000000
0
ARC
5
3B7
100
AcDbEntity
8
0
100
AcDbCircle
62
7
6
CONTINUOUS
10
-8.7632328540
20
-16.3985204646
40
0.2000000000
100
AcDbArc
50
180.0000000000
51
270.0000000000
0
ARC
5
3B8
100
AcDbEntity
8
0
100
AcDbCircle
62
7
6
CONTINUOUS
10
-8.7632328540
20
-14.8485204646
40
0.2000000000
100
AcDbArc
50
90.0000000000
51
180.0000000000
0
ARC
5
3B9
100
AcDbEntity
8
0
100
AcDbCircle
62
7
6
CONTINUOUS
10
5.4367671460
20
-16.3985204646
40
0.2000000000
100
AcDbArc
50
270.0000000000
51
360.0000000000
0
ARC
5
3BA
100
AcDbEntity
8
0
100
AcDbCircle
62
7
6
CONTINUOUS
10
5.4367671460
20
-14.8485204646
40
0.2000000000
100
AcDbArc
50
0.0000000000
51
90.0000000000
0
ARC
5
3BB
100
AcDbEntity
8
0
100
AcDbCircle
62
7
6
CONTINUOUS
10
-8.7632328540
20
7.7014795354
40
0.2000000000
100
AcDbArc
50
90.0000000000
51
180.0000000000
0
ARC
5
3BC
100
AcDbEntity
8
0
100
AcDbCircle
62
7
6
CONTINUOUS
10
-8.7632328540
20
4.4014795354
40
0.2000000000
100
AcDbArc
50
180.0000000000
51
270.0000000000
0
ARC
5
3BD
100
AcDbEntity
8
0
100
AcDbCircle
62
7
6
CONTINUOUS
10
-8.1632328540
20
4.4014795354
40
0.2000000000
100
AcDbArc
50
270.0000000000
51
360.0000000000
0
ARC
5
3BE
100
AcDbEntity
8
0
100
AcDbCircle
62
7
6
CONTINUOUS
10
4.8367671460
20
4.4014795354
40
0.2000000000
100
AcDbArc
50
180.0000000000
51
270.0000000000
0
ARC
5
3BF
100
AcDbEntity
8
0
100
AcDbCircle
62
7
6
CONTINUOUS
10
5.4367671460
20
4.4014795354
40
0.2000000000
100
AcDbArc
50
270.0000000000
51
360.0000000000
0
ARC
5
3C0
100
AcDbEntity
8
0
100
AcDbCircle
62
7
6
CONTINUOUS
10
5.4367671460
20
7.7014795354
40
0.2000000000
100
AcDbArc
50
0.0000000000
51
90.0000000000
0
ARC
5
3C1
100
AcDbEntity
8
0
100
AcDbCircle
62
7
6
CONTINUOUS
10
-9.1632328540
20
5.4014795354
40
0.2000000000
100
AcDbArc
50
270.0000000000
51
360.0000000000
0
ARC
5
3C2
100
AcDbEntity
8
0
100
AcDbCircle
62
7
6
CONTINUOUS
10
-9.1632328540
20
-15.8485204646
40
0.2000000000
100
AcDbArc
50
0.0000000000
51
90.0000000000
0
ARC
5
3C3
100
AcDbEntity
8
0
100
AcDbCircle
62
7
6
CONTINUOUS
10
5.8367671460
20
-15.8485204646
40
0.2000000000
100
AcDbArc
50
90.0000000000
51
180.0000000000
0
ARC
5
3C4
100
AcDbEntity
8
0
100
AcDbCircle
62
7
6
CONTINUOUS
10
5.8367671460
20
5.4014795354
40
0.2000000000
100
AcDbArc
50
180.0000000000
51
270.0000000000
0
SPLINE
5
3C5
100
AcDbEntity
8
0
100
AcDbSpline
62
7
6
CONTINUOUS
70
0
71
3
72
28
73
24
74
22
42
0.0000001000
43
0.0000001000
44
0.0000000001
12
0.4748439350
22
0.7122759476
32
0.0000000000
13
0.0000000000
23
-0.8560454358
33
0.0000000000
40
0.0000000000
40
0.0000000000
40
0.0000000000
40
0.0000000000
40
0.0060299341
40
0.0230402959
40
0.0506335728
40
0.0882779693
40
0.1349989267
40
0.1899602389
40
0.2516669597
40
0.3190832931
40
0.3903147874
40
0.4642150411
40
0.5386734117
40
0.6125090296
40
0.6836130920
40
0.7508412571
40
0.8123043412
40
0.8669706628
40
0.9133532644
40
0.9506220593
40
0.9778121753
40
0.9943998924
40
1.0000000000
40
1.0000000000
40
1.0000000000
40
1.0000000000
10
-6.0191655867
20
-28.4324186315
30
0.0000000000
10
-6.0182111609
20
-28.4309869725
30
0.0000000000
10
-6.0099074111
20
-28.4331041383
30
0.0000000000
10
-5.9970774496
20
-28.4303180039
30
0.0000000000
10
-5.9727259033
20
-28.4311195833
30
0.0000000000
10
-5.9411597448
20
-28.4301157582
30
0.0000000000
10
-5.9012646814
20
-28.4298992234
30
0.0000000000
10
-5.8546913307
20
-28.4294630515
30
0.0000000000
10
-5.8021485885
20
-28.4291803361
30
0.0000000000
10
-5.7449828977
20
-28.4289387764
30
0.0000000000
10
-5.6843314185
20
-28.4287814273
30
0.0000000000
10
-5.6216722012
20
-28.4287011870
30
0.0000000000
10
-5.5582690397
20
-28.4287027385
30
0.0000000000
10
-5.4956651137
20
-28.4287862788
30
0.0000000000
10
-5.4351203245
20
-28.4289461424
30
0.0000000000
10
-5.3781204455
20
-28.4291922927
30
0.0000000000
10
-5.3257648307
20
-28.4294719251
30
0.0000000000
10
-5.2795047801
20
-28.4299278204
30
0.0000000000
10
-5.2397141757
20
-28.4300957114
30
0.0000000000
10
-5.2089565392
20
-28.4312335633
30
0.0000000000
10
-5.1838126328
20
-28.4301314280
30
0.0000000000
10
-5.1733490408
20
-28.4334189808
30
0.0000000000
10
-5.1632328540
20
-28.4308423776
30
0.0000000000
10
-5.1632328540
20
-28.4324403598
30
0.0000000000
11
-6.0191655867
21
-28.4324186315
31
0.0000000000
11
-6.0140336480
21
-28.4318633020
31
0.0000000000
11
-5.9994821250
21
-28.4313205174
31
0.0000000000
11
-5.9758666909
21
-28.4308032395
31
0.0000000000
11
-5.9436449760
21
-28.4303216378
31
0.0000000000
11
-5.9036520636
21
-28.4298880860
31
0.0000000000
11
-5.8566041990
21
-28.4295104131
31
0.0000000000
11
-5.8037813612
21
-28.4291988401
31
0.0000000000
11
-5.7460704166
21
-28.4289586310
31
0.0000000000
11
-5.6850932366
21
-28.4287965094
31
0.0000000000
11
-5.6218313140
21
-28.4287150991
31
0.0000000000
11
-5.5580915658
21
-28.4287167171
31
0.0000000000
11
-5.4948849787
21
-28.4288013377
31
0.0000000000
11
-5.4340168949
21
-28.4289665524
31
0.0000000000
11
-5.3764670445
21
-28.4292096874
31
0.0000000000
11
-5.3238527904
21
-28.4295239369
31
0.0000000000
11
-5.2770574786
21
-28.4299039921
31
0.0000000000
11
-5.2373542535
21
-28.4303395671
31
0.0000000000
11
-5.2054541315
21
-28.4308227967
31
0.0000000000
11
-5.1821839319
21
-28.4313412648
31
0.0000000000
11
-5.1679944980
21
-28.4318847791
31
0.0000000000
11
-5.1632328540
21
-28.4324403598
31
0.0000000000
0
SPLINE
5
3C6
100
AcDbEntity
8
0
100
AcDbSpline
62
7
6
CONTINUOUS
70
0
71
3
72
28
73
24
74
22
42
0.0000001000
43
0.0000001000
44
0.0000000001
12
-0.4748439349
22
-0.7122759476
32
0.0000000000
13
-0.0000000000
23
0.8560454358
33
0.0000000000
40
0.0000000000
40
0.0000000000
40
0.0000000000
40
0.0000000000
40
0.0060299341
40
0.0230402959
40
0.0506335728
40
0.0882779693
40
0.1349989267
40
0.1899602389
40
0.2516669597
40
0.3190832931
40
0.3903147874
40
0.4642150411
40
0.5386734117
40
0.6125090296
40
0.6836130920
40
0.7508412571
40
0.8123043412
40
0.8669706628
40
0.9133532644
40
0.9506220593
40
0.9778121753
40
0.9943998924
40
1.0000000000
40
1.0000000000
40
1.0000000000
40
1.0000000000
10
2.6926998788
20
16.2353777023
30
0.0000000000
10
2.6917454529
20
16.2339460433
30
0.0000000000
10
2.6834417031
20
16.2360632091
30
0.0000000000
10
2.6706117416
20
16.2332770747
30
0.0000000000
10
2.6462601954
20
16.2340786541
30
0.0000000000
10
2.6146940369
20
16.2330748290
30
0.0000000000
10
2.5747989734
20
16.2328582942
30
0.0000000000
10
2.5282256227
20
16.2324221223
30
0.0000000000
10
2.4756828805
20
16.2321394069
30
0.0000000000
10
2.4185171897
20
16.2318978472
30
0.0000000000
10
2.3578657105
20
16.2317404981
30
0.0000000000
10
2.2952064932
20
16.2316602578
30
0.0000000000
10
2.2318033317
20
16.2316618093
30
0.0000000000
10
2.1691994057
20
16.2317453496
30
0.0000000000
10
2.1086546166
20
16.2319052132
30
0.0000000000
10
2.0516547376
20
16.2321513635
30
0.0000000000
10
1.9992991228
20
16.2324309959
30
0.0000000000
10
1.9530390722
20
16.2328868912
30
0.0000000000
10
1.9132484678
20
16.2330547822
30
0.0000000000
10
1.8824908312
20
16.2341926341
30
0.0000000000
10
1.8573469248
20
16.2330904988
30
0.0000000000
10
1.8468833328
20
16.2363780516
30
0.0000000000
10
1.8367671460
20
16.2338014484
30
0.0000000000
10
1.8367671460
20
16.2353994306
30
0.0000000000
11
2.6926998788
21
16.2353777023
31
0.0000000000
11
2.6875679400
21
16.2348223728
31
0.0000000000
11
2.6730164170
21
16.2342795882
31
0.0000000000
11
2.6494009829
21
16.2337623103
31
0.0000000000
11
2.6171792681
21
16.2332807086
31
0.0000000000
11
2.5771863557
21
16.2328471568
31
0.0000000000
11
2.5301384910
21
16.2324694839
31
0.0000000000
11
2.4773156532
21
16.2321579109
31
0.0000000000
11
2.4196047086
21
16.2319177018
31
0.0000000000
11
2.3586275286
21
16.2317555802
31
0.0000000000
11
2.2953656060
21
16.2316741699
31
0.0000000000
11
2.2316258578
21
16.2316757879
31
0.0000000000
11
2.1684192707
21
16.2317604085
31
0.0000000000
11
2.1075511869
21
16.2319256232
31
0.0000000000
11
2.0500013366
21
16.2321687582
31
0.0000000000
11
1.9973870824
21
16.2324830077
31
0.0000000000
11
1.9505917706
21
16.2328630629
31
0.0000000000
11
1.9108885455
21
16.2332986379
31
0.0000000000
11
1.8789884235
21
16.2337818675
31
0.0000000000
11
1.8557182240
21
16.2343003356
31
0.0000000000
11
1.8415287900
21
16.2348438499
31
0.0000000000
11
1.8367671460
21
16.2353994306
31
0.0000000000
0
SPLINE
5
3C7
100
AcDbEntity
8
0
100
AcDbSpline
62
7
6
CONTINUOUS
70
0
71
3
72
18
73
14
74
12
42
0.0000001000
43
0.0000001000
44
0.0000000001
12
0.0031763781
22
0.3152256661
32
0.0000000000
13
0.3152416691
23
0.0000000000
33
0.0000000000
40
0.0000000000
40
0.0000000000
40
0.0000000000
40
0.0000000000
40
0.0600923894
40
0.1232193774
40
0.1912702092
40
0.2657636629
40
0.3477531865
40
0.4378167491
40
0.5360799495
40
0.6422378908
40
0.7555663097
40
0.8749375201
40
1.0000000000
40
1.0000000000
40
1.0000000000
40
1.0000000000
10
6.5911389800
20
-29.9428580319
30
0.0000000000
10
6.5912026054
20
-29.9365438107
30
0.0000000000
10
6.5928302647
20
-29.9235680677
30
0.0000000000
10
6.5997175318
20
-29.9045310935
30
0.0000000000
10
6.6110879821
20
-29.8859951272
30
0.0000000000
10
6.6268788199
20
-29.8683190507
30
0.0000000000
10
6.6469803097
20
-29.8518340192
30
0.0000000000
10
6.6712223599
20
-29.8368872122
30
0.0000000000
10
6.6993524719
20
-29.8238390835
30
0.0000000000
10
6.7310146432
20
-29.8130612543
30
0.0000000000
10
6.7657343862
20
-29.8049174057
30
0.0000000000
10
6.8030210291
20
-29.7997606267
30
0.0000000000
10
6.8287203430
20
-29.7985204646
30
0.0000000000
10
6.8418619780
20
-29.7985204646
30
0.0000000000
11
6.5911389800
21
-29.9428580319
31
0.0000000000
11
6.5934583206
21
-29.9240569257
31
0.0000000000
11
6.6001258306
21
-29.9053068713
31
0.0000000000
11
6.6112205029
21
-29.8869461472
31
0.0000000000
11
6.6267489998
21
-29.8693297409
31
0.0000000000
11
6.6466403689
21
-29.8528259311
31
0.0000000000
11
6.6707386720
21
-29.8378137560
31
0.0000000000
11
6.6987930348
21
-29.8246796058
31
0.0000000000
11
6.7304447339
21
-29.8138120678
31
0.0000000000
11
6.7652124137
21
-29.8055935470
31
0.0000000000
11
6.8024812904
21
-29.8003871663
31
0.0000000000
11
6.8418619780
21
-29.7985204646
31
0.0000000000
0
SPLINE
5
3C8
100
AcDbEntity
8
0
100
AcDbSpline
62
7
6
CONTINUOUS
70
0
71
3
72
18
73
14
74
12
42
0.0000001000
43
0.0000001000
44
0.0000000001
12
0.3145151746
22
0.0000000000
32
0.0000000000
13
0.0031690579
23
-0.3144992085
33
0.0000000000
40
0.0000000000
40
0.0000000000
40
0.0000000000
40
0.0000000000
40
0.1233645867
40
0.2431315365
40
0.3566833685
40
0.4629485722
40
0.5612613068
40
0.6513651559
40
0.7334201413
40
0.8080244445
40
0.8762413066
40
0.9395978155
40
1.0000000000
40
1.0000000000
40
1.0000000000
40
1.0000000000
10
8.7323995428
20
-29.7985204646
30
0.0000000000
10
8.7453328877
20
-29.7985204646
30
0.0000000000
10
8.7708335243
20
-29.7998098153
30
0.0000000000
10
8.8079210197
20
-29.8049366332
30
0.0000000000
10
8.8426320569
20
-29.8130947339
30
0.0000000000
10
8.8742555004
20
-29.8238700175
30
0.0000000000
10
8.9023366563
20
-29.8369028095
30
0.0000000000
10
8.9265362033
20
-29.8518240309
30
0.0000000000
10
8.9466125377
20
-29.8682806542
30
0.0000000000
10
8.9623997524
20
-29.8859345805
30
0.0000000000
10
8.9737852831
20
-29.9044649333
30
0.0000000000
10
8.9806960662
20
-29.9235231810
30
0.0000000000
10
8.9823315060
20
-29.9365258855
30
0.0000000000
10
8.9823953120
20
-29.9428580319
30
0.0000000000
11
8.7323995428
21
-29.7985204646
31
0.0000000000
11
8.7711541886
21
-29.8003966609
31
0.0000000000
11
8.8084589095
21
-29.8056192495
31
0.0000000000
11
8.8432119157
21
-29.8138473861
31
0.0000000000
11
8.8748190863
21
-29.8247110008
31
0.0000000000
11
8.9028202773
21
-29.8378271006
31
0.0000000000
11
8.9268737560
21
-29.8528114479
31
0.0000000000
11
8.9467393013
21
-29.8692853402
31
0.0000000000
11
8.9622643176
21
-29.8868791423
31
0.0000000000
11
8.9733737699
21
-29.9052341775
31
0.0000000000
11
8.9800634461
21
-29.9240042857
31
0.0000000000
11
8.9823953120
21
-29.9428580319
31
0.0000000000
0
SPLINE
5
3C9
100
AcDbEntity
8
0
100
AcDbSpline
62
7
6
CONTINUOUS
70
0
71
3
72
16
73
12
74
10
42
0.0000001000
43
0.0000001000
44
0.0000000001
12
-0.2001028891
22
0.0000000000
32
0.0000000000
13
0.0000000000
23
0.2001028891
33
0.0000000000
40
0.0000000000
40
0.0000000000
40
0.0000000000
40
0.0000000000
40
0.0154738234
40
0.0607448190
40
0.1342737310
40
0.2344961021
40
0.3573693143
40
0.5004482257
40
0.6580018494
40
0.8265264012
40
1.0000000000
40
1.0000000000
40
1.0000000000
40
1.0000000000
10
-11.2469036073
20
13.2014795354
30
0.0000000000
10
-11.2479357262
20
13.2014795354
30
0.0000000000
10
-11.2468504125
20
13.2078657202
30
0.0000000000
10
-11.2487717377
20
13.2145868519
30
0.0000000000
10
-11.2484894413
20
13.2304168248
30
0.0000000000
10
-11.2492967474
20
13.2496747546
30
0.0000000000
10
-11.2495878087
20
13.2742870296
30
0.0000000000
10
-11.2499667725
20
13.3024690074
30
0.0000000000
10
-11.2502039598
20
13.3337814332
30
0.0000000000
10
-11.2503612312
20
13.3670956440
30
0.0000000000
10
-11.2503946202
20
13.3899086793
30
0.0000000000
10
-11.2503946202
20
13.4014795354
30
0.0000000000
11
-11.2469036073
21
13.2014795354
31
0.0000000000
11
-11.2475096197
21
13.2045160094
31
0.0000000000
11
-11.2480983091
21
13.2135557182
31
0.0000000000
11
-11.2486486395
21
13.2282587702
31
0.0000000000
11
-11.2491483500
21
13.2483073295
31
0.0000000000
11
-11.2495774221
21
13.2728908701
31
0.0000000000
11
-11.2499273132
21
13.3015192356
31
0.0000000000
11
-11.2501838933
21
13.3330451268
31
0.0000000000
11
-11.2503416365
21
13.3667670075
31
0.0000000000
11
-11.2503946202
21
13.4014795354
31
0.0000000000
0
SPLINE
5
3CA
100
AcDbEntity
8
0
100
AcDbSpline
62
7
6
CONTINUOUS
70
0
71
3
72
16
73
12
74
10
42
0.0000001000
43
0.0000001000
44
0.0000000001
12
0.0000000000
22
-0.2001028891
32
0.0000000000
13
-0.2001028891
23
0.0000000000
33
0.0000000000
40
0.0000000000
40
0.0000000000
40
0.0000000000
40
0.0000000000
40
0.1734735988
40
0.3419981506
40
0.4995517743
40
0.6426306857
40
0.7655038979
40
0.8657262690
40
0.9392551810
40
0.9845261766
40
1.0000000000
40
1.0000000000
40
1.0000000000
40
1.0000000000
10
7.9239289123
20
13.4014795354
30
0.0000000000
10
7.9239289123
20
13.3899086793
30
0.0000000000
10
7.9238955232
20
13.3670956440
30
0.0000000000
10
7.9237382518
20
13.3337814332
30
0.0000000000
10
7.9235010646
20
13.3024690074
30
0.0000000000
10
7.9231221007
20
13.2742870296
30
0.0000000000
10
7.9228310395
20
13.2496747546
30
0.0000000000
10
7.9220237333
20
13.2304168248
30
0.0000000000
10
7.9223060298
20
13.2145868519
30
0.0000000000
10
7.9203847045
20
13.2078657202
30
0.0000000000
10
7.9214700182
20
13.2014795354
30
0.0000000000
10
7.9204378993
20
13.2014795354
30
0.0000000000
11
7.9239289123
21
13.4014795354
31
0.0000000000
11
7.9238759286
21
13.3667670075
31
0.0000000000
11
7.9237181854
21
13.3330451268
31
0.0000000000
11
7.9234616052
21
13.3015192356
31
0.0000000000
11
7.9231117142
21
13.2728908701
31
0.0000000000
11
7.9226826420
21
13.2483073295
31
0.0000000000
11
7.9221829315
21
13.2282587702
31
0.0000000000
11
7.9216326011
21
13.2135557182
31
0.0000000000
11
7.9210439117
21
13.2045160094
31
0.0000000000
11
7.9204378993
21
13.2014795354
31
0.0000000000
0
SPLINE
5
3CB
100
AcDbEntity
8
0
100
AcDbSpline
62
7
6
CONTINUOUS
70
0
71
3
72
15
73
11
74
9
42
0.0000001000
43
0.0000001000
44
0.0000000001
12
0.4952922600
22
0.2476022018
32
0.0000000000
13
0.0000000000
23
0.5532600274
33
0.0000000000
40
0.0000000000
40
0.0000000000
40
0.0000000000
40
0.0000000000
40
0.0973271354
40
0.2260972216
40
0.3552949958
40
0.4840559134
40
0.6132095317
40
0.7420195137
40
0.8710792965
40
1.0000000000
40
1.0000000000
40
1.0000000000
40
1.0000000000
10
9.2102564143
20
-28.4370085699
30
0.0000000000
10
9.2263248732
20
-28.4289757656
30
0.0000000000
10
9.2626474592
20
-28.4083043979
30
0.0000000000
10
9.3152804681
20
-28.3689057007
30
0.0000000000
10
9.3658854579
20
-28.3183033109
30
0.0000000000
10
9.4088152222
20
-28.2609590321
30
0.0000000000
10
9.4431149008
20
-28.1981516410
30
0.0000000000
10
9.4681441982
20
-28.1310475511
30
0.0000000000
10
9.4833618679
20
-28.0611204983
30
0.0000000000
10
9.4867671460
20
-28.0134739625
30
0.0000000000
10
9.4867671460
20
-27.9896984052
30
0.0000000000
11
9.2102564143
21
-28.4370085699
31
0.0000000000
11
9.2570719621
21
-28.4103636989
31
0.0000000000
11
9.3141060641
21
-28.3676703166
31
0.0000000000
11
9.3646512705
21
-28.3171275884
31
0.0000000000
11
9.4073443041
21
-28.2600995617
31
0.0000000000
11
9.4415920796
21
-28.1973860602
31
0.0000000000
11
9.4664983845
21
-28.1306145450
31
0.0000000000
11
9.4816793804
21
-28.0608433894
31
0.0000000000
11
9.4867671460
21
-27.9896984052
31
0.0000000000
0
SPLINE
5
3CC
100
AcDbEntity
8
0
100
AcDbSpline
62
7
6
CONTINUOUS
70
0
71
3
72
11
73
7
74
5
42
0.0000001000
43
0.0000001000
44
0.0000000001
12
-0.1916277652
22
0.0958221412
32
0.0000000000
13
-0.2139705222
23
0.0075033280
33
0.0000000000
40
0.0000000000
40
0.0000000000
40
0.0000000000
40
0.0000000000
40
0.0922585923
40
0.3945010835
40
0.6980582833
40
1.0000000000
40
1.0000000000
40
1.0000000000
40
1.0000000000
10
9.1928041352
20
16.2486931674
30
0.0000000000
10
9.1869110326
20
16.2516399726
30
0.0000000000
10
9.1614628442
20
16.2637427906
30
0.0000000000
10
9.1146947100
20
16.2813132978
30
0.0000000000
10
9.0514418384
20
16.2960975912
30
0.0000000000
10
9.0083018274
20
16.3004155448
30
0.0000000000
10
8.9867662851
20
16.3011707341
30
0.0000000000
11
9.1928041352
21
16.2486931674
31
0.0000000000
11
9.1749546048
21
16.2571818931
31
0.0000000000
11
9.1143780427
21
16.2799406119
31
0.0000000000
11
9.0510910330
21
16.2947305605
31
0.0000000000
11
8.9867662851
21
16.3011707341
31
0.0000000000
0
SPLINE
5
3CD
100
AcDbEntity
8
0
100
AcDbSpline
62
7
6
CONTINUOUS
70
0
71
3
72
11
73
7
74
5
42
0.0000001000
43
0.0000001000
44
0.0000000001
12
0.1916277652
22
-0.0958221412
32
0.0000000000
13
0.2139705222
23
-0.0075033280
33
0.0000000000
40
0.0000000000
40
0.0000000000
40
0.0000000000
40
0.0000000000
40
0.0922585923
40
0.3945010835
40
0.6980582833
40
1.0000000000
40
1.0000000000
40
1.0000000000
40
1.0000000000
10
-12.5192698432
20
-28.4457340966
30
0.0000000000
10
-12.5133767405
20
-28.4486809018
30
0.0000000000
10
-12.4879285522
20
-28.4607837198
30
0.0000000000
10
-12.4411604180
20
-28.4783542270
30
0.0000000000
10
-12.3779075463
20
-28.4931385204
30
0.0000000000
10
-12.3347675354
20
-28.4974564740
30
0.0000000000
10
-12.3132319931
20
-28.4982116633
30
0.0000000000
11
-12.5192698432
21
-28.4457340966
31
0.0000000000
11
-12.5014203128
21
-28.4542228223
31
0.0000000000
11
-12.4408437507
21
-28.4769815411
31
0.0000000000
11
-12.3775567410
21
-28.4917714897
31
0.0000000000
11
-12.3132319931
21
-28.4982116633
31
0.0000000000
0
SPLINE
5
3CE
100
AcDbEntity
8
0
100
AcDbSpline
62
7
6
CONTINUOUS
70
0
71
3
72
15
73
11
74
9
42
0.0000001000
43
0.0000001000
44
0.0000000001
12
-0.4952922600
22
-0.2476022018
32
0.0000000000
13
0.0000000000
23
-0.5532600274
33
0.0000000000
40
0.0000000000
40
0.0000000000
40
0.0000000000
40
0.0000000000
40
0.0973271354
40
0.2260972216
40
0.3552949958
40
0.4840559134
40
0.6132095317
40
0.7420195137
40
0.8710792965
40
1.0000000000
40
1.0000000000
40
1.0000000000
40
1.0000000000
10
-12.5367221223
20
16.2399676407
30
0.0000000000
10
-12.5527905812
20
16.2319348364
30
0.0000000000
10
-12.5891131672
20
16.2112634687
30
0.0000000000
10
-12.6417461760
20
16.1718647715
30
0.0000000000
10
-12.6923511659
20
16.1212623817
30
0.0000000000
10
-12.7352809302
20
16.0639181029
30
0.0000000000
10
-12.7695806088
20
16.0011107118
30
0.0000000000
10
-12.7946099061
20
15.9340066219
30
0.0000000000
10
-12.8098275758
20
15.8640795691
30
0.0000000000
10
-12.8132328540
20
15.8164330333
30
0.0000000000
10
-12.8132328540
20
15.7926574760
30
0.0000000000
11
-12.5367221223
21
16.2399676407
31
0.0000000000
11
-12.5835376700
21
16.2133227697
31
0.0000000000
11
-12.6405717721
21
16.1706293874
31
0.0000000000
11
-12.6911169785
21
16.1200866592
31
0.0000000000
11
-12.7338100121
21
16.0630586325
31
0.0000000000
11
-12.7680577876
21
16.0003451309
31
0.0000000000
11
-12.7929640925
21
15.9335736158
31
0.0000000000
11
-12.8081450884
21
15.8638024602
31
0.0000000000
11
-12.8132328540
21
15.7926574760
31
0.0000000000
0
SPLINE
5
3CF
100
AcDbEntity
8
0
100
AcDbSpline
62
7
6
CONTINUOUS
70
0
71
3
72
11
73
7
74
5
42
0.0000001000
43
0.0000001000
44
0.0000000001
12
-0.2139705222
22
-0.0075033280
32
0.0000000000
13
-0.1916277652
23
-0.0958221412
33
0.0000000000
40
0.0000000000
40
0.0000000000
40
0.0000000000
40
0.0000000000
40
0.3019417167
40
0.6054989165
40
0.9077414077
40
1.0000000000
40
1.0000000000
40
1.0000000000
40
1.0000000000
10
-12.3132319931
20
16.3011707341
30
0.0000000000
10
-12.3347675354
20
16.3004155448
30
0.0000000000
10
-12.3779075463
20
16.2960975912
30
0.0000000000
10
-12.4411604180
20
16.2813132978
30
0.0000000000
10
-12.4879285522
20
16.2637427906
30
0.0000000000
10
-12.5133767405
20
16.2516399726
30
0.0000000000
10
-12.5192698432
20
16.2486931674
30
0.0000000000
11
-12.3132319931
21
16.3011707341
31
0.0000000000
11
-12.3775567410
21
16.2947305605
31
0.0000000000
11
-12.4408437507
21
16.2799406119
31
0.0000000000
11
-12.5014203128
21
16.2571818931
31
0.0000000000
11
-12.5192698432
21
16.2486931674
31
0.0000000000
0
SPLINE
5
3D0
100
AcDbEntity
8
0
100
AcDbSpline
62
7
6
CONTINUOUS
70
0
71
3
72
15
73
11
74
9
42
0.0000001000
43
0.0000001000
44
0.0000000001
12
0.0000000000
22
-0.5532600274
32
0.0000000000
13
0.4952922600
23
-0.2476022018
33
0.0000000000
40
0.0000000000
40
0.0000000000
40
0.0000000000
40
0.0000000000
40
0.1289207035
40
0.2579804863
40
0.3867904683
40
0.5159440866
40
0.6447050042
40
0.7739027784
40
0.9026728646
40
1.0000000000
40
1.0000000000
40
1.0000000000
40
1.0000000000
10
-12.8132328540
20
-27.9896984052
30
0.0000000000
10
-12.8132328540
20
-28.0134739625
30
0.0000000000
10
-12.8098275758
20
-28.0611204983
30
0.0000000000
10
-12.7946099061
20
-28.1310475511
30
0.0000000000
10
-12.7695806088
20
-28.1981516410
30
0.0000000000
10
-12.7352809302
20
-28.2609590321
30
0.0000000000
10
-12.6923511659
20
-28.3183033109
30
0.0000000000
10
-12.6417461760
20
-28.3689057007
30
0.0000000000
10
-12.5891131672
20
-28.4083043979
30
0.0000000000
10
-12.5527905812
20
-28.4289757656
30
0.0000000000
10
-12.5367221223
20
-28.4370085699
30
0.0000000000
11
-12.8132328540
21
-27.9896984052
31
0.0000000000
11
-12.8081450884
21
-28.0608433894
31
0.0000000000
11
-12.7929640925
21
-28.1306145450
31
0.0000000000
11
-12.7680577876
21
-28.1973860602
31
0.0000000000
11
-12.7338100121
21
-28.2600995617
31
0.0000000000
11
-12.6911169785
21
-28.3171275884
31
0.0000000000
11
-12.6405717721
21
-28.3676703166
31
0.0000000000
11
-12.5835376700
21
-28.4103636989
31
0.0000000000
11
-12.5367221223
21
-28.4370085699
31
0.0000000000
0
SPLINE
5
3D1
100
AcDbEntity
8
0
100
AcDbSpline
62
7
6
CONTINUOUS
70
0
71
3
72
15
73
11
74
9
42
0.0000001000
43
0.0000001000
44
0.0000000001
12
0.0000000000
22
0.5532600274
32
0.0000000000
13
-0.4952922600
23
0.2476022018
33
0.0000000000
40
0.0000000000
40
0.0000000000
40
0.0000000000
40
0.0000000000
40
0.1289207035
40
0.2579804863
40
0.3867904683
40
0.5159440866
40
0.6447050042
40
0.7739027784
40
0.9026728646
40
1.0000000000
40
1.0000000000
40
1.0000000000
40
1.0000000000
10
9.4867671460
20
15.7926574760
30
0.0000000000
10
9.4867671460
20
15.8164330333
30
0.0000000000
10
9.4833618679
20
15.8640795691
30
0.0000000000
10
9.4681441982
20
15.9340066219
30
0.0000000000
10
9.4431149008
20
16.0011107118
30
0.0000000000
10
9.4088152222
20
16.0639181029
30
0.0000000000
10
9.3658854579
20
16.1212623817
30
0.0000000000
10
9.3152804681
20
16.1718647715
30
0.0000000000
10
9.2626474592
20
16.2112634687
30
0.0000000000
10
9.2263248732
20
16.2319348364
30
0.0000000000
10
9.2102564143
20
16.2399676407
30
0.0000000000
11
9.4867671460
21
15.7926574760
31
0.0000000000
11
9.4816793804
21
15.8638024602
31
0.0000000000
11
9.4664983845
21
15.9335736158
31
0.0000000000
11
9.4415920796
21
16.0003451309
31
0.0000000000
11
9.4073443041
21
16.0630586325
31
0.0000000000
11
9.3646512705
21
16.1200866592
31
0.0000000000
11
9.3141060641
21
16.1706293874
31
0.0000000000
11
9.2570719621
21
16.2133227697
31
0.0000000000
11
9.2102564143
21
16.2399676407
31
0.0000000000
0
SPLINE
5
3D2
100
AcDbEntity
8
0
100
AcDbSpline
62
7
6
CONTINUOUS
70
0
71
3
72
11
73
7
74
5
42
0.0000001000
43
0.0000001000
44
0.0000000001
12
0.2139705222
22
0.0075033280
32
0.0000000000
13
0.1916277652
23
0.0958221412
33
0.0000000000
40
0.0000000000
40
0.0000000000
40
0.0000000000
40
0.0000000000
40
0.3019417167
40
0.6054989165
40
0.9077414077
40
1.0000000000
40
1.0000000000
40
1.0000000000
40
1.0000000000
10
8.9867662851
20
-28.4982116633
30
0.0000000000
10
9.0083018274
20
-28.4974564740
30
0.0000000000
10
9.0514418384
20
-28.4931385204
30
0.0000000000
10
9.1146947100
20
-28.4783542270
30
0.0000000000
10
9.1614628442
20
-28.4607837198
30
0.0000000000
10
9.1869110326
20
-28.4486809018
30
0.0000000000
10
9.1928041352
20
-28.4457340966
30
0.0000000000
11
8.9867662851
21
-28.4982116633
31
0.0000000000
11
9.0510910330
21
-28.4917714897
31
0.0000000000
11
9.1143780427
21
-28.4769815411
31
0.0000000000
11
9.1749546048
21
-28.4542228223
31
0.0000000000
11
9.1928041352
21
-28.4457340966
31
0.0000000000
0
SPLINE
5
3D3
100
AcDbEntity
8
0
100
AcDbSpline
62
7
6
CONTINUOUS
70
0
71
3
72
18
73
14
74
12
42
0.0000001000
43
0.0000001000
44
0.0000000001
12
0.0000000000
22
0.3923594660
32
0.0000000000
13
0.3923594660
23
0.0000000000
33
0.0000000000
40
0.0000000000
40
0.0000000000
40
0.0000000000
40
0.0000000000
40
0.0909090103
40
0.1818180598
40
0.2727271497
40
0.3636362742
40
0.4545454220
40
0.5454545780
40
0.6363637258
40
0.7272728503
40
0.8181819402
40
0.9090909897
40
1.0000000000
40
1.0000000000
40
1.0000000000
40
1.0000000000
10
6.5867671460
20
18.1514837662
30
0.0000000000
10
6.5867671460
20
18.1633734364
30
0.0000000000
10
6.5884692636
20
18.1871877011
30
0.0000000000
10
6.5960768958
20
18.2221543390
30
0.0000000000
10
6.6085841923
20
18.2556898742
30
0.0000000000
10
6.6257365944
20
18.2871020908
30
0.0000000000
10
6.6471849716
20
18.3157540334
30
0.0000000000
10
6.6724926480
20
18.3410617098
30
0.0000000000
10
6.7011445906
20
18.3625100870
30
0.0000000000
10
6.7325568072
20
18.3796624891
30
0.0000000000
10
6.7660923425
20
18.3921697856
30
0.0000000000
10
6.8010589803
20
18.3997774179
30
0.0000000000
10
6.8248732450
20
18.4014795354
30
0.0000000000
10
6.8367629152
20
18.4014795354
30
0.0000000000
11
6.5867671460
21
18.1514837662
31
0.0000000000
11
6.5893116719
21
18.1870619015
31
0.0000000000
11
6.5968935043
21
18.2219158144
31
0.0000000000
11
6.6093583738
21
18.2553359817
31
0.0000000000
11
6.6264525879
21
18.2866420413
31
0.0000000000
11
6.6478281872
21
18.3151966545
31
0.0000000000
11
6.6730500270
21
18.3404184943
31
0.0000000000
11
6.7016046401
21
18.3617940935
31
0.0000000000
11
6.7329106997
21
18.3788883076
31
0.0000000000
11
6.7663308670
21
18.3913531771
31
0.0000000000
11
6.8011847799
21
18.3989350095
31
0.0000000000
11
6.8367629152
21
18.4014795354
31
0.0000000000
0
SPLINE
5
3D4
100
AcDbEntity
8
0
100
AcDbSpline
62
7
6
CONTINUOUS
70
0
71
3
72
18
73
14
74
12
42
0.0000001000
43
0.0000001000
44
0.0000000001
12
0.3923594660
22
0.0000000000
32
0.0000000000
13
-0.0000000000
23
-0.3923594660
33
0.0000000000
40
0.0000000000
40
0.0000000000
40
0.0000000000
40
0.0000000000
40
0.0909090103
40
0.1818180598
40
0.2727271497
40
0.3636362742
40
0.4545454220
40
0.5454545780
40
0.6363637258
40
0.7272728503
40
0.8181819402
40
0.9090909897
40
1.0000000000
40
1.0000000000
40
1.0000000000
40
1.0000000000
10
8.7367713768
20
18.4014795354
30
0.0000000000
10
8.7486610470
20
18.4014795354
30
0.0000000000
10
8.7724753117
20
18.3997774179
30
0.0000000000
10
8.8074419496
20
18.3921697856
30
0.0000000000
10
8.8409774849
20
18.3796624891
30
0.0000000000
10
8.8723897014
20
18.3625100870
30
0.0000000000
10
8.9010416440
20
18.3410617098
30
0.0000000000
10
8.9263493204
20
18.3157540334
30
0.0000000000
10
8.9477976976
20
18.2871020908
30
0.0000000000
10
8.9649500997
20
18.2556898742
30
0.0000000000
10
8.9774573963
20
18.2221543390
30
0.0000000000
10
8.9850650285
20
18.1871877011
30
0.0000000000
10
8.9867671460
20
18.1633734364
30
0.0000000000
10
8.9867671460
20
18.1514837662
30
0.0000000000
11
8.7367713768
21
18.4014795354
31
0.0000000000
11
8.7723495122
21
18.3989350095
31
0.0000000000
11
8.8072034250
21
18.3913531771
31
0.0000000000
11
8.8406235923
21
18.3788883076
31
0.0000000000
11
8.8719296519
21
18.3617940935
31
0.0000000000
11
8.9004842651
21
18.3404184943
31
0.0000000000
11
8.9257061049
21
18.3151966545
31
0.0000000000
11
8.9470817042
21
18.2866420413
31
0.0000000000
11
8.9641759182
21
18.2553359817
31
0.0000000000
11
8.9766407877
21
18.2219158144
31
0.0000000000
11
8.9842226202
21
18.1870619015
31
0.0000000000
11
8.9867671460
21
18.1514837662
31
0.0000000000
0
SPLINE
5
3D5
100
AcDbEntity
8
0
100
AcDbSpline
62
7
6
CONTINUOUS
70
0
71
3
72
18
73
14
74
12
42
0.0000001000
43
0.0000001000
44
0.0000000001
12
0.3923594660
22
0.0000000000
32
0.0000000000
13
-0.0000000000
23
-0.3923594660
33
0.0000000000
40
0.0000000000
40
0.0000000000
40
0.0000000000
40
0.0000000000
40
0.0909090103
40
0.1818180598
40
0.2727271497
40
0.3636362742
40
0.4545454220
40
0.5454545780
40
0.6363637258
40
0.7272728503
40
0.8181819402
40
0.9090909897
40
1.0000000000
40
1.0000000000
40
1.0000000000
40
1.0000000000
10
-10.1632286232
20
18.4014795354
30
0.0000000000
10
-10.1513389530
20
18.4014795354
30
0.0000000000
10
-10.1275246883
20
18.3997774179
30
0.0000000000
10
-10.0925580504
20
18.3921697856
30
0.0000000000
10
-10.0590225151
20
18.3796624891
30
0.0000000000
10
-10.0276102986
20
18.3625100870
30
0.0000000000
10
-9.9989583560
20
18.3410617098
30
0.0000000000
10
-9.9736506796
20
18.3157540334
30
0.0000000000
10
-9.9522023024
20
18.2871020908
30
0.0000000000
10
-9.9350499003
20
18.2556898742
30
0.0000000000
10
-9.9225426037
20
18.2221543390
30
0.0000000000
10
-9.9149349715
20
18.1871877011
30
0.0000000000
10
-9.9132328540
20
18.1633734364
30
0.0000000000
10
-9.9132328540
20
18.1514837662
30
0.0000000000
11
-10.1632286232
21
18.4014795354
31
0.0000000000
11
-10.1276504878
21
18.3989350095
31
0.0000000000
11
-10.0927965750
21
18.3913531771
31
0.0000000000
11
-10.0593764077
21
18.3788883076
31
0.0000000000
11
-10.0280703481
21
18.3617940935
31
0.0000000000
11
-9.9995157349
21
18.3404184943
31
0.0000000000
11
-9.9742938951
21
18.3151966545
31
0.0000000000
11
-9.9529182958
21
18.2866420413
31
0.0000000000
11
-9.9358240818
21
18.2553359817
31
0.0000000000
11
-9.9233592123
21
18.2219158144
31
0.0000000000
11
-9.9157773798
21
18.1870619015
31
0.0000000000
11
-9.9132328540
21
18.1514837662
31
0.0000000000
0
SPLINE
5
3D6
100
AcDbEntity
8
0
100
AcDbSpline
62
7
6
CONTINUOUS
70
0
71
3
72
18
73
14
74
12
42
0.0000001000
43
0.0000001000
44
0.0000000001
12
0.0000000000
22
0.3923594660
32
0.0000000000
13
0.3923594660
23
0.0000000000
33
0.0000000000
40
0.0000000000
40
0.0000000000
40
0.0000000000
40
0.0000000000
40
0.0909090103
40
0.1818180598
40
0.2727271497
40
0.3636362742
40
0.4545454220
40
0.5454545780
40
0.6363637258
40
0.7272728503
40
0.8181819402
40
0.9090909897
40
1.0000000000
40
1.0000000000
40
1.0000000000
40
1.0000000000
10
-12.3132328540
20
18.1514837662
30
0.0000000000
10
-12.3132328540
20
18.1633734364
30
0.0000000000
10
-12.3115307364
20
18.1871877011
30
0.0000000000
10
-12.3039231042
20
18.2221543390
30
0.0000000000
10
-12.2914158077
20
18.2556898742
30
0.0000000000
10
-12.2742634056
20
18.2871020908
30
0.0000000000
10
-12.2528150284
20
18.3157540334
30
0.0000000000
10
-12.2275073520
20
18.3410617098
30
0.0000000000
10
-12.1988554094
20
18.3625100870
30
0.0000000000
10
-12.1674431928
20
18.3796624891
30
0.0000000000
10
-12.1339076575
20
18.3921697856
30
0.0000000000
10
-12.0989410197
20
18.3997774179
30
0.0000000000
10
-12.0751267550
20
18.4014795354
30
0.0000000000
10
-12.0632370848
20
18.4014795354
30
0.0000000000
11
-12.3132328540
21
18.1514837662
31
0.0000000000
11
-12.3106883281
21
18.1870619015
31
0.0000000000
11
-12.3031064957
21
18.2219158144
31
0.0000000000
11
-12.2906416262
21
18.2553359817
31
0.0000000000
11
-12.2735474121
21
18.2866420413
31
0.0000000000
11
-12.2521718128
21
18.3151966545
31
0.0000000000
11
-12.2269499730
21
18.3404184943
31
0.0000000000
11
-12.1983953599
21
18.3617940935
31
0.0000000000
11
-12.1670893003
21
18.3788883076
31
0.0000000000
11
-12.1336691330
21
18.3913531771
31
0.0000000000
11
-12.0988152201
21
18.3989350095
31
0.0000000000
11
-12.0632370848
21
18.4014795354
31
0.0000000000
0
SPLINE
5
3D7
100
AcDbEntity
8
0
100
AcDbSpline
62
7
6
CONTINUOUS
70
0
71
3
72
18
73
14
74
12
42
0.0000001000
43
0.0000001000
44
0.0000000001
12
-0.3923594660
22
0.0000000000
32
0.0000000000
13
-0.0000000000
23
0.3923594660
33
0.0000000000
40
0.0000000000
40
0.0000000000
40
0.0000000000
40
0.0000000000
40
0.0909090103
40
0.1818180598
40
0.2727271497
40
0.3636362742
40
0.4545454220
40
0.5454545780
40
0.6363637258
40
0.7272728503
40
0.8181819402
40
0.9090909897
40
1.0000000000
40
1.0000000000
40
1.0000000000
40
1.0000000000
10
6.8367629152
20
-30.5985204646
30
0.0000000000
10
6.8248732450
20
-30.5985204646
30
0.0000000000
10
6.8010589803
20
-30.5968183471
30
0.0000000000
10
6.7660923425
20
-30.5892107148
30
0.0000000000
10
6.7325568072
20
-30.5767034183
30
0.0000000000
10
6.7011445906
20
-30.5595510162
30
0.0000000000
10
6.6724926480
20
-30.5381026390
30
0.0000000000
10
6.6471849716
20
-30.5127949626
30
0.0000000000
10
6.6257365944
20
-30.4841430200
30
0.0000000000
10
6.6085841923
20
-30.4527308034
30
0.0000000000
10
6.5960768958
20
-30.4191952682
30
0.0000000000
10
6.5884692636
20
-30.3842286303
30
0.0000000000
10
6.5867671460
20
-30.3604143656
30
0.0000000000
10
6.5867671460
20
-30.3485246954
30
0.0000000000
11
6.8367629152
21
-30.5985204646
31
0.0000000000
11
6.8011847799
21
-30.5959759388
31
0.0000000000
11
6.7663308670
21
-30.5883941063
31
0.0000000000
11
6.7329106997
21
-30.5759292368
31
0.0000000000
11
6.7016046401
21
-30.5588350227
31
0.0000000000
11
6.6730500270
21
-30.5374594235
31
0.0000000000
11
6.6478281872
21
-30.5122375837
31
0.0000000000
11
6.6264525879
21
-30.4836829705
31
0.0000000000
11
6.6093583738
21
-30.4523769109
31
0.0000000000
11
6.5968935043
21
-30.4189567436
31
0.0000000000
11
6.5893116719
21
-30.3841028307
31
0.0000000000
11
6.5867671460
21
-30.3485246954
31
0.0000000000
0
SPLINE
5
3D8
100
AcDbEntity
8
0
100
AcDbSpline
62
7
6
CONTINUOUS
70
0
71
3
72
18
73
14
74
12
42
0.0000001000
43
0.0000001000
44
0.0000000001
12
0.0000000000
22
-0.3923594660
32
0.0000000000
13
-0.3923594660
23
-0.0000000000
33
0.0000000000
40
0.0000000000
40
0.0000000000
40
0.0000000000
40
0.0000000000
40
0.0909090103
40
0.1818180598
40
0.2727271497
40
0.3636362742
40
0.4545454220
40
0.5454545780
40
0.6363637258
40
0.7272728503
40
0.8181819402
40
0.9090909897
40
1.0000000000
40
1.0000000000
40
1.0000000000
40
1.0000000000
10
8.9867671460
20
-30.3485246954
30
0.0000000000
10
8.9867671460
20
-30.3604143656
30
0.0000000000
10
8.9850650285
20
-30.3842286303
30
0.0000000000
10
8.9774573963
20
-30.4191952682
30
0.0000000000
10
8.9649500997
20
-30.4527308034
30
0.0000000000
10
8.9477976976
20
-30.4841430200
30
0.0000000000
10
8.9263493204
20
-30.5127949626
30
0.0000000000
10
8.9010416440
20
-30.5381026390
30
0.0000000000
10
8.8723897014
20
-30.5595510162
30
0.0000000000
10
8.8409774849
20
-30.5767034183
30
0.0000000000
10
8.8074419496
20
-30.5892107148
30
0.0000000000
10
8.7724753117
20
-30.5968183471
30
0.0000000000
10
8.7486610470
20
-30.5985204646
30
0.0000000000
10
8.7367713768
20
-30.5985204646
30
0.0000000000
11
8.9867671460
21
-30.3485246954
31
0.0000000000
11
8.9842226202
21
-30.3841028307
31
0.0000000000
11
8.9766407877
21
-30.4189567436
31
0.0000000000
11
8.9641759182
21
-30.4523769109
31
0.0000000000
11
8.9470817042
21
-30.4836829705
31
0.0000000000
11
8.9257061049
21
-30.5122375837
31
0.0000000000
11
8.9004842651
21
-30.5374594235
31
0.0000000000
11
8.8719296519
21
-30.5588350227
31
0.0000000000
11
8.8406235923
21
-30.5759292368
31
0.0000000000
11
8.8072034250
21
-30.5883941063
31
0.0000000000
11
8.7723495122
21
-30.5959759388
31
0.0000000000
11
8.7367713768
21
-30.5985204646
31
0.0000000000
0
SPLINE
5
3D9
100
AcDbEntity
8
0
100
AcDbSpline
62
7
6
CONTINUOUS
70
0
71
3
72
18
73
14
74
12
42
0.0000001000
43
0.0000001000
44
0.0000000001
12
-0.3923594660
22
0.0000000000
32
0.0000000000
13
-0.0000000000
23
0.3923594660
33
0.0000000000
40
0.0000000000
40
0.0000000000
40
0.0000000000
40
0.0000000000
40
0.0909090103
40
0.1818180598
40
0.2727271497
40
0.3636362742
40
0.4545454220
40
0.5454545780
40
0.6363637258
40
0.7272728503
40
0.8181819402
40
0.9090909897
40
1.0000000000
40
1.0000000000
40
1.0000000000
40
1.0000000000
10
-12.0632370848
20
-30.5985204646
30
0.0000000000
10
-12.0751267550
20
-30.5985204646
30
0.0000000000
10
-12.0989410197
20
-30.5968183471
30
0.0000000000
10
-12.1339076575
20
-30.5892107148
30
0.0000000000
10
-12.1674431928
20
-30.5767034183
30
0.0000000000
10
-12.1988554094
20
-30.5595510162
30
0.0000000000
10
-12.2275073520
20
-30.5381026390
30
0.0000000000
10
-12.2528150284
20
-30.5127949626
30
0.0000000000
10
-12.2742634056
20
-30.4841430200
30
0.0000000000
10
-12.2914158077
20
-30.4527308034
30
0.0000000000
10
-12.3039231042
20
-30.4191952682
30
0.0000000000
10
-12.3115307364
20
-30.3842286303
30
0.0000000000
10
-12.3132328540
20
-30.3604143656
30
0.0000000000
10
-12.3132328540
20
-30.3485246954
30
0.0000000000
11
-12.0632370848
21
-30.5985204646
31
0.0000000000
11
-12.0988152201
21
-30.5959759388
31
0.0000000000
11
-12.1336691330
21
-30.5883941063
31
0.0000000000
11
-12.1670893003
21
-30.5759292368
31
0.0000000000
11
-12.1983953599
21
-30.5588350227
31
0.0000000000
11
-12.2269499730
21
-30.5374594235
31
0.0000000000
11
-12.2521718128
21
-30.5122375837
31
0.0000000000
11
-12.2735474121
21
-30.4836829705
31
0.0000000000
11
-12.2906416262
21
-30.4523769109
31
0.0000000000
11
-12.3031064957
21
-30.4189567436
31
0.0000000000
11
-12.3106883281
21
-30.3841028307
31
0.0000000000
11
-12.3132328540
21
-30.3485246954
31
0.0000000000
0
SPLINE
5
3DA
100
AcDbEntity
8
0
100
AcDbSpline
62
7
6
CONTINUOUS
70
0
71
3
72
18
73
14
74
12
42
0.0000001000
43
0.0000001000
44
0.0000000001
12
0.0000000000
22
-0.3923594660
32
0.0000000000
13
-0.3923594660
23
0.0000000000
33
0.0000000000
40
0.0000000000
40
0.0000000000
40
0.0000000000
40
0.0000000000
40
0.0909090103
40
0.1818180598
40
0.2727271497
40
0.3636362742
40
0.4545454220
40
0.5454545780
40
0.6363637258
40
0.7272728503
40
0.8181819402
40
0.9090909897
40
1.0000000000
40
1.0000000000
40
1.0000000000
40
1.0000000000
10
-9.9132328540
20
-30.3485246954
30
0.0000000000
10
-9.9132328540
20
-30.3604143656
30
0.0000000000
10
-9.9149349715
20
-30.3842286303
30
0.0000000000
10
-9.9225426037
20
-30.4191952682
30
0.0000000000
10
-9.9350499003
20
-30.4527308034
30
0.0000000000
10
-9.9522023024
20
-30.4841430200
30
0.0000000000
10
-9.9736506796
20
-30.5127949626
30
0.0000000000
10
-9.9989583560
20
-30.5381026390
30
0.0000000000
10
-10.0276102986
20
-30.5595510162
30
0.0000000000
10
-10.0590225151
20
-30.5767034183
30
0.0000000000
10
-10.0925580504
20
-30.5892107148
30
0.0000000000
10
-10.1275246883
20
-30.5968183471
30
0.0000000000
10
-10.1513389530
20
-30.5985204646
30
0.0000000000
10
-10.1632286232
20
-30.5985204646
30
0.0000000000
11
-9.9132328540
21
-30.3485246954
31
0.0000000000
11
-9.9157773798
21
-30.3841028307
31
0.0000000000
11
-9.9233592123
21
-30.4189567436
31
0.0000000000
11
-9.9358240818
21
-30.4523769109
31
0.0000000000
11
-9.9529182958
21
-30.4836829705
31
0.0000000000
11
-9.9742938951
21
-30.5122375837
31
0.0000000000
11
-9.9995157349
21
-30.5374594235
31
0.0000000000
11
-10.0280703481
21
-30.5588350227
31
0.0000000000
11
-10.0593764077
21
-30.5759292368
31
0.0000000000
11
-10.0927965750
21
-30.5883941063
31
0.0000000000
11
-10.1276504878
21
-30.5959759388
31
0.0000000000
11
-10.1632286232
21
-30.5985204646
31
0.0000000000
0
SPLINE
5
3DB
100
AcDbEntity
8
0
100
AcDbSpline
62
7
6
CONTINUOUS
70
0
71
3
72
18
73
14
74
12
42
0.0000001000
43
0.0000001000
44
0.0000000001
12
0.4450903692
22
-0.4810902355
32
0.0000000000
13
0.0252793885
23
-0.6549154174
33
0.0000000000
40
0.0000000000
40
0.0000000000
40
0.0000000000
40
0.0000000000
40
0.1610700427
40
0.3161797675
40
0.4596391690
40
0.5858983805
40
0.6937258751
40
0.7831374497
40
0.8554530788
40
0.9120560403
40
0.9545072575
40
0.9834021834
40
1.0000000000
40
1.0000000000
40
1.0000000000
40
1.0000000000
10
2.2647371337
20
-29.3548782793
30
0.0000000000
10
2.2886340420
20
-29.3807080209
30
0.0000000000
10
2.3355437705
20
-29.4314115250
30
0.0000000000
10
2.4036257604
20
-29.5052239956
30
0.0000000000
10
2.4663336262
20
-29.5736472909
30
0.0000000000
10
2.5217444521
20
-29.6347441805
30
0.0000000000
10
2.5688189090
20
-29.6874626993
30
0.0000000000
10
2.6075402412
20
-29.7318256133
30
0.0000000000
10
2.6383240401
20
-29.7682855040
30
0.0000000000
10
2.6617093652
20
-29.7974758377
30
0.0000000000
10
2.6783760472
20
-29.8200576335
30
0.0000000000
10
2.6883917010
20
-29.8362461594
30
0.0000000000
10
2.6925600179
20
-29.8456705006
30
0.0000000000
10
2.6926998788
20
-29.8492938893
30
0.0000000000
11
2.2647371337
21
-29.3548782793
31
0.0000000000
11
2.3364080803
21
-29.4323857976
31
0.0000000000
11
2.4053100762
21
-29.5071330257
31
0.0000000000
11
2.4688082696
21
-29.5764759635
31
0.0000000000
11
2.5243645492
21
-29.6378043833
31
0.0000000000
11
2.5713886448
21
-29.6905590103
31
0.0000000000
11
2.6098649333
21
-29.7347586538
31
0.0000000000
11
2.6403554957
21
-29.7710449585
31
0.0000000000
11
2.6634399606
21
-29.8000854664
31
0.0000000000
11
2.6797283215
21
-29.8226418341
31
0.0000000000
11
2.6893836323
21
-29.8389334324
31
0.0000000000
11
2.6926998788
21
-29.8492938893
31
0.0000000000
0
SPLINE
5
3DC
100
AcDbEntity
8
0
100
AcDbSpline
62
7
6
CONTINUOUS
70
0
71
3
72
8
73
4
74
2
42
0.0000001000
43
0.0000001000
44
0.0000000001
12
0.0000000000
22
0.0062881995
32
0.0000000000
13
0.0022476677
23
0.0059728434
33
0.0000000000
40
0.0000000000
40
0.0000000000
40
0.0000000000
40
0.0000000000
40
1.0000000000
40
1.0000000000
40
1.0000000000
40
1.0000000000
10
1.8367671460
20
-29.8496627549
30
0.0000000000
10
1.8367671460
20
-29.8475666884
30
0.0000000000
10
1.8372800091
20
-29.8455237181
30
0.0000000000
10
1.8380292317
20
-29.8435327703
30
0.0000000000
11
1.8367671460
21
-29.8496627549
31
0.0000000000
11
1.8380292317
21
-29.8435327703
31
0.0000000000
0
SPLINE
5
3DD
100
AcDbEntity
8
0
100
AcDbSpline
62
7
6
CONTINUOUS
70
0
71
3
72
18
73
14
74
12
42
0.0000001000
43
0.0000001000
44
0.0000000001
12
0.2321496970
22
0.6169033864
32
0.0000000000
13
0.4410644187
23
0.4767386574
33
0.0000000000
40
0.0000000000
40
0.0000000000
40
0.0000000000
40
0.0000000000
40
0.0066271058
40
0.0353775591
40
0.0779097127
40
0.1348025639
40
0.2076256814
40
0.2978091982
40
0.4067225147
40
0.5344206762
40
0.6796844479
40
0.8368312717
40
1.0000000000
40
1.0000000000
40
1.0000000000
40
1.0000000000
10
1.8380292317
20
-29.8435327703
30
0.0000000000
10
1.8385420586
20
-29.8421700089
30
0.0000000000
10
1.8418708372
20
-29.8350252750
30
0.0000000000
10
1.8505864303
20
-29.8207989022
30
0.0000000000
10
1.8670983711
20
-29.7983362543
30
0.0000000000
10
1.8903582354
20
-29.7692439859
30
0.0000000000
10
1.9210646364
20
-29.7328352235
30
0.0000000000
10
1.9597581407
20
-29.6884766133
30
0.0000000000
10
2.0068732615
20
-29.6356940985
30
0.0000000000
10
2.0624068809
20
-29.5744506567
30
0.0000000000
10
2.1253171777
20
-29.5058009194
30
0.0000000000
10
2.1936543520
20
-29.4317099985
30
0.0000000000
10
2.2407478269
20
-29.3808078928
30
0.0000000000
10
2.2647371337
20
-29.3548782793
30
0.0000000000
11
1.8380292317
21
-29.8435327703
31
0.0000000000
11
1.8398112525
21
-29.8395172614
31
0.0000000000
11
1.8492413111
21
-29.8234006993
31
0.0000000000
11
1.8653614443
21
-29.8009685221
31
0.0000000000
11
1.8883218785
21
-29.7720175964
31
0.0000000000
11
1.9187269679
21
-29.7357889311
31
0.0000000000
11
1.9571695695
21
-29.6915980179
31
0.0000000000
11
2.0042276613
21
-29.6387853053
31
0.0000000000
11
2.0599027641
21
-29.5773134720
31
0.0000000000
11
2.1236148715
21
-29.5077305896
31
0.0000000000
11
2.1927892240
21
-29.4326856282
31
0.0000000000
11
2.2647371337
21
-29.3548782793
31
0.0000000000
0
SPLINE
5
3DE
100
AcDbEntity
8
0
100
AcDbSpline
62
7
6
CONTINUOUS
70
0
71
3
72
28
73
24
74
22
42
0.0000001000
43
0.0000001000
44
0.0000000001
12
0.0000000000
22
0.8560454358
32
0.0000000000
13
0.4748439349
23
-0.7122759476
33
0.0000000000
40
0.0000000000
40
0.0000000000
40
0.0000000000
40
0.0000000000
40
0.0056001076
40
0.0221878247
40
0.0493779407
40
0.0866467356
40
0.1330293372
40
0.1876956588
40
0.2491587429
40
0.3163869080
40
0.3874909704
40
0.4613265883
40
0.5357849589
40
0.6096852126
40
0.6809167069
40
0.7483330403
40
0.8100397611
40
0.8650010733
40
0.9117220307
40
0.9493664272
40
0.9769597041
40
0.9939700659
40
1.0000000000
40
1.0000000000
40
1.0000000000
40
1.0000000000
10
1.8367671460
20
-28.4324403598
30
0.0000000000
10
1.8367671460
20
-28.4308423776
30
0.0000000000
10
1.8468833328
20
-28.4334189808
30
0.0000000000
10
1.8573469248
20
-28.4301314280
30
0.0000000000
10
1.8824908312
20
-28.4312335633
30
0.0000000000
10
1.9132484678
20
-28.4300957114
30
0.0000000000
10
1.9530390722
20
-28.4299278204
30
0.0000000000
10
1.9992991228
20
-28.4294719251
30
0.0000000000
10
2.0516547376
20
-28.4291922927
30
0.0000000000
10
2.1086546166
20
-28.4289461424
30
0.0000000000
10
2.1691994057
20
-28.4287862788
30
0.0000000000
10
2.2318033317
20
-28.4287027385
30
0.0000000000
10
2.2952064932
20
-28.4287011870
30
0.0000000000
10
2.3578657105
20
-28.4287814273
30
0.0000000000
10
2.4185171897
20
-28.4289387764
30
0.0000000000
10
2.4756828805
20
-28.4291803361
30
0.0000000000
10
2.5282256227
20
-28.4294630515
30
0.0000000000
10
2.5747989734
20
-28.4298992234
30
0.0000000000
10
2.6146940369
20
-28.4301157582
30
0.0000000000
10
2.6462601954
20
-28.4311195833
30
0.0000000000
10
2.6706117416
20
-28.4303180039
30
0.0000000000
10
2.6834417031
20
-28.4331041383
30
0.0000000000
10
2.6917454529
20
-28.4309869725
30
0.0000000000
10
2.6926998788
20
-28.4324186315
30
0.0000000000
11
1.8367671460
21
-28.4324403598
31
0.0000000000
11
1.8415287900
21
-28.4318847791
31
0.0000000000
11
1.8557182240
21
-28.4313412648
31
0.0000000000
11
1.8789884235
21
-28.4308227967
31
0.0000000000
11
1.9108885455
21
-28.4303395671
31
0.0000000000
11
1.9505917706
21
-28.4299039921
31
0.0000000000
11
1.9973870824
21
-28.4295239369
31
0.0000000000
11
2.0500013366
21
-28.4292096874
31
0.0000000000
11
2.1075511869
21
-28.4289665524
31
0.0000000000
11
2.1684192707
21
-28.4288013377
31
0.0000000000
11
2.2316258578
21
-28.4287167171
31
0.0000000000
11
2.2953656060
21
-28.4287150991
31
0.0000000000
11
2.3586275286
21
-28.4287965094
31
0.0000000000
11
2.4196047086
21
-28.4289586310
31
0.0000000000
11
2.4773156532
21
-28.4291988401
31
0.0000000000
11
2.5301384910
21
-28.4295104131
31
0.0000000000
11
2.5771863557
21
-28.4298880860
31
0.0000000000
11
2.6171792681
21
-28.4303216378
31
0.0000000000
11
2.6494009829
21
-28.4308032395
31
0.0000000000
11
2.6730164170
21
-28.4313205174
31
0.0000000000
11
2.6875679400
21
-28.4318633020
31
0.0000000000
11
2.6926998788
21
-28.4324186315
31
0.0000000000
0
SPLINE
5
3DF
100
AcDbEntity
8
0
100
AcDbSpline
62
7
6
CONTINUOUS
70
0
71
3
72
18
73
14
74
12
42
0.0000001000
43
0.0000001000
44
0.0000000001
12
0.4453347054
22
-0.4813543341
32
0.0000000000
13
0.0000000000
23
-0.6557629105
33
0.0000000000
40
0.0000000000
40
0.0000000000
40
0.0000000000
40
0.0000000000
40
0.1614952952
40
0.3171097781
40
0.4609917901
40
0.5874696091
40
0.6953300589
40
0.7846477581
40
0.8567778755
40
0.9131578401
40
0.9553196044
40
0.9838298659
40
1.0000000000
40
1.0000000000
40
1.0000000000
40
1.0000000000
10
-5.5912028417
20
-29.3548782793
30
0.0000000000
10
-5.5672296884
20
-29.3807904327
30
0.0000000000
10
-5.5201561488
20
-29.4316709925
30
0.0000000000
10
-5.4518370934
20
-29.5057420120
30
0.0000000000
10
-5.3889280402
20
-29.5743898776
30
0.0000000000
10
-5.3333930506
20
-29.6356340843
30
0.0000000000
10
-5.2862781678
20
-29.6884152276
30
0.0000000000
10
-5.2475844424
20
-29.7327723961
30
0.0000000000
10
-5.2168715659
20
-29.7691862701
30
0.0000000000
10
-5.1935997288
20
-29.7982899447
30
0.0000000000
10
-5.1770716749
20
-29.8207697122
30
0.0000000000
10
-5.1672608057
20
-29.8367789942
30
0.0000000000
10
-5.1632328540
20
-29.8461281635
30
0.0000000000
10
-5.1632328540
20
-29.8496627549
30
0.0000000000
11
-5.5912028417
21
-29.3548782793
31
0.0000000000
11
-5.5193033518
21
-29.4326332103
31
0.0000000000
11
-5.4501401753
21
-29.5076657581
31
0.0000000000
11
-5.3864228540
21
-29.5772537941
31
0.0000000000
11
-5.3307455328
21
-29.6387272874
31
0.0000000000
11
-5.2836905551
21
-29.6915353058
31
0.0000000000
11
-5.2452474905
21
-29.7357249006
31
0.0000000000
11
-5.2148387816
21
-29.7719550623
31
0.0000000000
11
-5.1918631212
21
-29.8009212435
31
0.0000000000
11
-5.1757262680
21
-29.8233716461
31
0.0000000000
11
-5.1662819029
21
-29.8395068046
31
0.0000000000
11
-5.1632328540
21
-29.8496627549
31
0.0000000000
0
SPLINE
5
3E0
100
AcDbEntity
8
0
100
AcDbSpline
62
7
6
CONTINUOUS
70
0
71
3
72
18
73
14
74
12
42
0.0000001000
43
0.0000001000
44
0.0000000001
12
0.0252793929
22
0.6549155310
32
0.0000000000
13
0.4450904464
23
0.4810903189
33
0.0000000000
40
0.0000000000
40
0.0000000000
40
0.0000000000
40
0.0000000000
40
0.0165806563
40
0.0454411065
40
0.0878560839
40
0.1444275358
40
0.2167384756
40
0.3061519021
40
0.4139889825
40
0.5402449784
40
0.6836932136
40
0.8388260589
40
1.0000000000
40
1.0000000000
40
1.0000000000
40
1.0000000000
10
-6.0191655867
20
-29.8492938893
30
0.0000000000
10
-6.0190258704
20
-29.8456742462
30
0.0000000000
10
-6.0148646420
20
-29.8362599419
30
0.0000000000
10
-6.0048608769
20
-29.8200860113
30
0.0000000000
10
-5.9882097410
20
-29.7975207564
30
0.0000000000
10
-5.9648359152
20
-29.7683413762
30
0.0000000000
10
-5.9340581642
20
-29.7318862062
30
0.0000000000
10
-5.8953366486
20
-29.6875214708
30
0.0000000000
10
-5.8482615042
20
-29.6348011420
30
0.0000000000
10
-5.7928517188
20
-29.5737047024
30
0.0000000000
10
-5.7301427923
20
-29.5052797679
30
0.0000000000
10
-5.6620437513
20
-29.4314485682
30
0.0000000000
10
-5.6151151688
20
-29.3807246869
30
0.0000000000
10
-5.5912028417
20
-29.3548782793
30
0.0000000000
11
-6.0191655867
21
-29.8492938893
31
0.0000000000
11
-6.0158542912
21
-29.8389436548
31
0.0000000000
11
-6.0062128811
21
-29.8226700802
31
0.0000000000
11
-5.9899406753
21
-29.8001313380
31
0.0000000000
11
-5.9668708794
21
-29.7711055426
31
0.0000000000
11
-5.9363836096
21
-29.7348204750
31
0.0000000000
11
-5.8979073885
21
-29.6906191502
31
0.0000000000
11
-5.8508796662
21
-29.6378593231
31
0.0000000000
11
-5.7953251591
21
-29.5765321222
31
0.0000000000
11
-5.7318321489
21
-29.5071943392
31
0.0000000000
11
-5.6629200062
21
-29.4324358313
31
0.0000000000
11
-5.5912028417
21
-29.3548782793
31
0.0000000000
0
SPLINE
5
3E1
100
AcDbEntity
8
0
100
AcDbSpline
62
7
6
CONTINUOUS
70
0
71
3
72
28
73
24
74
22
42
0.0000001000
43
0.0000001000
44
0.0000000001
12
0.4748439350
22
0.7122759476
32
0.0000000000
13
0.0000000000
23
-0.8560454358
33
0.0000000000
40
0.0000000000
40
0.0000000000
40
0.0000000000
40
0.0000000000
40
0.0060299341
40
0.0230402959
40
0.0506335728
40
0.0882779693
40
0.1349989267
40
0.1899602389
40
0.2516669597
40
0.3190832931
40
0.3903147874
40
0.4642150411
40
0.5386734117
40
0.6125090296
40
0.6836130920
40
0.7508412571
40
0.8123043412
40
0.8669706628
40
0.9133532644
40
0.9506220593
40
0.9778121753
40
0.9943998924
40
1.0000000000
40
1.0000000000
40
1.0000000000
40
1.0000000000
10
-6.0191655867
20
-28.4324186315
30
0.0000000000
10
-6.0182111609
20
-28.4309869725
30
0.0000000000
10
-6.0099074111
20
-28.4331041383
30
0.0000000000
10
-5.9970774496
20
-28.4303180039
30
0.0000000000
10
-5.9727259033
20
-28.4311195833
30
0.0000000000
10
-5.9411597448
20
-28.4301157582
30
0.0000000000
10
-5.9012646814
20
-28.4298992234
30
0.0000000000
10
-5.8546913307
20
-28.4294630515
30
0.0000000000
10
-5.8021485885
20
-28.4291803361
30
0.0000000000
10
-5.7449828977
20
-28.4289387764
30
0.0000000000
10
-5.6843314185
20
-28.4287814273
30
0.0000000000
10
-5.6216722012
20
-28.4287011870
30
0.0000000000
10
-5.5582690397
20
-28.4287027385
30
0.0000000000
10
-5.4956651137
20
-28.4287862788
30
0.0000000000
10
-5.4351203245
20
-28.4289461424
30
0.0000000000
10
-5.3781204455
20
-28.4291922927
30
0.0000000000
10
-5.3257648307
20
-28.4294719251
30
0.0000000000
10
-5.2795047801
20
-28.4299278204
30
0.0000000000
10
-5.2397141757
20
-28.4300957114
30
0.0000000000
10
-5.2089565392
20
-28.4312335633
30
0.0000000000
10
-5.1838126328
20
-28.4301314280
30
0.0000000000
10
-5.1733490408
20
-28.4334189808
30
0.0000000000
10
-5.1632328540
20
-28.4308423776
30
0.0000000000
10
-5.1632328540
20
-28.4324403598
30
0.0000000000
11
-6.0191655867
21
-28.4324186315
31
0.0000000000
11
-6.0140336480
21
-28.4318633020
31
0.0000000000
11
-5.9994821250
21
-28.4313205174
31
0.0000000000
11
-5.9758666909
21
-28.4308032395
31
0.0000000000
11
-5.9436449760
21
-28.4303216378
31
0.0000000000
11
-5.9036520636
21
-28.4298880860
31
0.0000000000
11
-5.8566041990
21
-28.4295104131
31
0.0000000000
11
-5.8037813612
21
-28.4291988401
31
0.0000000000
11
-5.7460704166
21
-28.4289586310
31
0.0000000000
11
-5.6850932366
21
-28.4287965094
31
0.0000000000
11
-5.6218313140
21
-28.4287150991
31
0.0000000000
11
-5.5580915658
21
-28.4287167171
31
0.0000000000
11
-5.4948849787
21
-28.4288013377
31
0.0000000000
11
-5.4340168949
21
-28.4289665524
31
0.0000000000
11
-5.3764670445
21
-28.4292096874
31
0.0000000000
11
-5.3238527904
21
-28.4295239369
31
0.0000000000
11
-5.2770574786
21
-28.4299039921
31
0.0000000000
11
-5.2373542535
21
-28.4303395671
31
0.0000000000
11
-5.2054541315
21
-28.4308227967
31
0.0000000000
11
-5.1821839319
21
-28.4313412648
31
0.0000000000
11
-5.1679944980
21
-28.4318847791
31
0.0000000000
11
-5.1632328540
21
-28.4324403598
31
0.0000000000
0
SPLINE
5
3E2
100
AcDbEntity
8
0
100
AcDbSpline
62
7
6
CONTINUOUS
70
0
71
3
72
18
73
14
74
12
42
0.0000001000
43
0.0000001000
44
0.0000000001
12
-0.4453347138
22
0.4813543431
32
0.0000000000
13
0.0000000000
23
0.6557629228
33
0.0000000000
40
0.0000000000
40
0.0000000000
40
0.0000000000
40
0.0000000000
40
0.1612016661
40
0.3168616821
40
0.4607450366
40
0.5870767765
40
0.6948071043
40
0.7840907429
40
0.8562933587
40
0.9129036648
40
0.9552698300
40
0.9838485666
40
1.0000000000
40
1.0000000000
40
1.0000000000
40
1.0000000000
10
2.2647371337
20
17.1578373501
30
0.0000000000
10
2.2408075677
20
17.1837023908
30
0.0000000000
10
2.1937708589
20
17.2345431468
30
0.0000000000
10
2.1254880637
20
17.3085742365
30
0.0000000000
10
2.0625931719
20
17.3772056672
30
0.0000000000
10
2.0070976196
20
17.4384045350
30
0.0000000000
10
1.9600259519
20
17.4911333209
30
0.0000000000
10
1.9213418600
20
17.5354723128
30
0.0000000000
10
1.8905859389
20
17.5719266851
30
0.0000000000
10
1.8672383622
20
17.6011116037
30
0.0000000000
10
1.8506396481
20
17.6236765428
30
0.0000000000
10
1.8407967213
20
17.6397312316
30
0.0000000000
10
1.8367671460
20
17.6490913220
30
0.0000000000
10
1.8367671460
20
17.6526218257
30
0.0000000000
11
2.2647371337
21
17.1578373501
31
0.0000000000
11
2.1929682960
21
17.2354508415
31
0.0000000000
11
2.1237845679
21
17.3105050568
31
0.0000000000
11
2.0600661313
21
17.3800932676
31
0.0000000000
11
2.0044520570
21
17.4414948032
31
0.0000000000
11
1.9574516160
21
17.4942371291
31
0.0000000000
11
1.9190193450
21
17.5384065100
31
0.0000000000
11
1.8885743778
21
17.5746683079
31
0.0000000000
11
1.8654983546
21
17.6037476787
31
0.0000000000
11
1.8492785692
21
17.6263035426
31
0.0000000000
11
1.8398108953
21
17.6424770882
31
0.0000000000
11
1.8367671460
21
17.6526218257
31
0.0000000000
0
SPLINE
5
3E3
100
AcDbEntity
8
0
100
AcDbSpline
62
7
6
CONTINUOUS
70
0
71
3
72
18
73
14
74
12
42
0.0000001000
43
0.0000001000
44
0.0000000001
12
-0.0252793934
22
-0.6549155442
32
0.0000000000
13
-0.4450904554
23
-0.4810903286
33
0.0000000000
40
0.0000000000
40
0.0000000000
40
0.0000000000
40
0.0000000000
40
0.0165612013
40
0.0454873726
40
0.0880998360
40
0.1448866598
40
0.2172643667
40
0.3066417466
40
0.4143507724
40
0.5404648439
40
0.6839186683
40
0.8391027189
40
1.0000000000
40
1.0000000000
40
1.0000000000
40
1.0000000000
10
2.6926998788
20
17.6522529601
30
0.0000000000
10
2.6925603264
20
17.6486375641
30
0.0000000000
10
2.6883976079
20
17.6392131111
30
0.0000000000
10
2.6783631010
20
17.6229956012
30
0.0000000000
10
2.6616447821
20
17.6003495010
30
0.0000000000
10
2.6381993878
20
17.5710933141
30
0.0000000000
10
2.6073821376
20
17.5346011826
30
0.0000000000
10
2.5686713193
20
17.4902553234
30
0.0000000000
10
2.5216389148
20
17.4375864833
30
0.0000000000
10
2.4662671063
20
17.3765335755
30
0.0000000000
10
2.4035703070
20
17.3081227528
30
0.0000000000
10
2.3355035464
20
17.2343271222
30
0.0000000000
10
2.2886084151
20
17.1836393921
30
0.0000000000
10
2.2647371337
20
17.1578373501
30
0.0000000000
11
2.6926998788
21
17.6522529601
31
0.0000000000
11
2.6893941950
21
17.6419143177
31
0.0000000000
11
2.6797303618
21
17.6256039615
31
0.0000000000
11
2.6633780411
21
17.6029634190
31
0.0000000000
11
2.6402143597
21
17.5738319343
31
0.0000000000
11
2.6096936354
21
17.5375178199
31
0.0000000000
11
2.5712293334
21
17.4933374404
31
0.0000000000
11
2.5242554028
21
17.4406420929
31
0.0000000000
11
2.4687623894
21
17.3793846928
31
0.0000000000
11
2.4052664412
21
17.3100446305
31
0.0000000000
11
2.3363312637
21
17.2352617102
31
0.0000000000
11
2.2647371337
21
17.1578373501
31
0.0000000000
0
SPLINE
5
3E4
100
AcDbEntity
8
0
100
AcDbSpline
62
7
6
CONTINUOUS
70
0
71
3
72
28
73
24
74
22
42
0.0000001000
43
0.0000001000
44
0.0000000001
12
-0.4748439349
22
-0.7122759476
32
0.0000000000
13
-0.0000000000
23
0.8560454358
33
0.0000000000
40
0.0000000000
40
0.0000000000
40
0.0000000000
40
0.0000000000
40
0.0060299341
40
0.0230402959
40
0.0506335728
40
0.0882779693
40
0.1349989267
40
0.1899602389
40
0.2516669597
40
0.3190832931
40
0.3903147874
40
0.4642150411
40
0.5386734117
40
0.6125090296
40
0.6836130920
40
0.7508412571
40
0.8123043412
40
0.8669706628
40
0.9133532644
40
0.9506220593
40
0.9778121753
40
0.9943998924
40
1.0000000000
40
1.0000000000
40
1.0000000000
40
1.0000000000
10
2.6926998788
20
16.2353777023
30
0.0000000000
10
2.6917454529
20
16.2339460433
30
0.0000000000
10
2.6834417031
20
16.2360632091
30
0.0000000000
10
2.6706117416
20
16.2332770747
30
0.0000000000
10
2.6462601954
20
16.2340786541
30
0.0000000000
10
2.6146940369
20
16.2330748290
30
0.0000000000
10
2.5747989734
20
16.2328582942
30
0.0000000000
10
2.5282256227
20
16.2324221223
30
0.0000000000
10
2.4756828805
20
16.2321394069
30
0.0000000000
10
2.4185171897
20
16.2318978472
30
0.0000000000
10
2.3578657105
20
16.2317404981
30
0.0000000000
10
2.2952064932
20
16.2316602578
30
0.0000000000
10
2.2318033317
20
16.2316618093
30
0.0000000000
10
2.1691994057
20
16.2317453496
30
0.0000000000
10
2.1086546166
20
16.2319052132
30
0.0000000000
10
2.0516547376
20
16.2321513635
30
0.0000000000
10
1.9992991228
20
16.2324309959
30
0.0000000000
10
1.9530390722
20
16.2328868912
30
0.0000000000
10
1.9132484678
20
16.2330547822
30
0.0000000000
10
1.8824908312
20
16.2341926341
30
0.0000000000
10
1.8573469248
20
16.2330904988
30
0.0000000000
10
1.8468833328
20
16.2363780516
30
0.0000000000
10
1.8367671460
20
16.2338014484
30
0.0000000000
10
1.8367671460
20
16.2353994306
30
0.0000000000
11
2.6926998788
21
16.2353777023
31
0.0000000000
11
2.6875679400
21
16.2348223728
31
0.0000000000
11
2.6730164170
21
16.2342795882
31
0.0000000000
11
2.6494009829
21
16.2337623103
31
0.0000000000
11
2.6171792681
21
16.2332807086
31
0.0000000000
11
2.5771863557
21
16.2328471568
31
0.0000000000
11
2.5301384910
21
16.2324694839
31
0.0000000000
11
2.4773156532
21
16.2321579109
31
0.0000000000
11
2.4196047086
21
16.2319177018
31
0.0000000000
11
2.3586275286
21
16.2317555802
31
0.0000000000
11
2.2953656060
21
16.2316741699
31
0.0000000000
11
2.2316258578
21
16.2316757879
31
0.0000000000
11
2.1684192707
21
16.2317604085
31
0.0000000000
11
2.1075511869
21
16.2319256232
31
0.0000000000
11
2.0500013366
21
16.2321687582
31
0.0000000000
11
1.9973870824
21
16.2324830077
31
0.0000000000
11
1.9505917706
21
16.2328630629
31
0.0000000000
11
1.9108885455
21
16.2332986379
31
0.0000000000
11
1.8789884235
21
16.2337818675
31
0.0000000000
11
1.8557182240
21
16.2343003356
31
0.0000000000
11
1.8415287900
21
16.2348438499
31
0.0000000000
11
1.8367671460
21
16.2353994306
31
0.0000000000
0
SPLINE
5
3E5
100
AcDbEntity
8
0
100
AcDbSpline
62
7
6
CONTINUOUS
70
0
71
3
72
18
73
14
74
12
42
0.0000001000
43
0.0000001000
44
0.0000000001
12
-0.4450903719
22
0.4810902383
32
0.0000000000
13
-0.0252793887
23
0.6549154213
33
0.0000000000
40
0.0000000000
40
0.0000000000
40
0.0000000000
40
0.0000000000
40
0.1607870617
40
0.3159451345
40
0.4594086114
40
0.5855248047
40
0.6932231358
40
0.7825985590
40
0.8549817506
40
0.9118040473
40
0.9544563951
40
0.9834203014
40
1.0000000000
40
1.0000000000
40
1.0000000000
40
1.0000000000
10
-5.5912028417
20
17.1578373501
30
0.0000000000
10
-5.6150577660
20
17.1836217121
30
0.0000000000
10
-5.6619326810
20
17.2342875924
30
0.0000000000
10
-5.7299808133
20
17.3080627690
30
0.0000000000
10
-5.7926757629
20
17.3764710542
30
0.0000000000
10
-5.8480480985
20
17.4375237798
30
0.0000000000
10
-5.8950795315
20
17.4901903863
30
0.0000000000
10
-5.9337901863
20
17.5345342833
30
0.0000000000
10
-5.9646142614
20
17.5710318102
30
0.0000000000
10
-5.9880724641
20
17.6003002434
30
0.0000000000
10
-6.0048079525
20
17.6229646601
30
0.0000000000
10
-6.0148554655
20
17.6391981371
30
0.0000000000
10
-6.0190258785
20
17.6486335267
30
0.0000000000
10
-6.0191655867
20
17.6522529601
30
0.0000000000
11
-5.5912028417
21
17.1578373501
31
0.0000000000
11
-5.6627479415
21
17.2352086324
31
0.0000000000
11
-5.7316717110
21
17.3099788867
31
0.0000000000
11
-5.7951721921
21
17.3793233522
31
0.0000000000
11
-5.8506665311
21
17.4405814068
31
0.0000000000
11
-5.8976364077
21
17.4932709606
31
0.0000000000
11
-5.9361008190
21
17.5374495299
31
0.0000000000
11
-5.9666253023
21
17.5737651691
31
0.0000000000
11
-5.9898054489
21
17.6029132554
31
0.0000000000
11
-6.0061755368
21
17.6255732043
31
0.0000000000
11
-6.0158545683
21
17.6419032979
31
0.0000000000
11
-6.0191655867
21
17.6522529601
31
0.0000000000
0
SPLINE
5
3E6
100
AcDbEntity
8
0
100
AcDbSpline
62
7
6
CONTINUOUS
70
0
71
3
72
8
73
4
74
2
42
0.0000001000
43
0.0000001000
44
0.0000000001
12
0.0000000000
22
-0.0062742889
32
0.0000000000
13
-0.0022398713
23
-0.0059603371
33
0.0000000000
40
0.0000000000
40
0.0000000000
40
0.0000000000
40
0.0000000000
40
1.0000000000
40
1.0000000000
40
1.0000000000
40
1.0000000000
10
-5.1632328540
20
17.6526218257
30
0.0000000000
10
-5.1632328540
20
17.6505303961
30
0.0000000000
10
-5.1637436958
20
17.6484918227
30
0.0000000000
10
-5.1644903196
20
17.6465050437
30
0.0000000000
11
-5.1632328540
21
17.6526218257
31
0.0000000000
11
-5.1644903196
21
17.6465050437
31
0.0000000000
0
SPLINE
5
3E7
100
AcDbEntity
8
0
100
AcDbSpline
62
7
6
CONTINUOUS
70
0
71
3
72
18
73
14
74
12
42
0.0000001000
43
0.0000001000
44
0.0000000001
12
-0.2318623307
22
-0.6169897634
32
0.0000000000
13
-0.4410738809
23
-0.4767488849
33
0.0000000000
40
0.0000000000
40
0.0000000000
40
0.0000000000
40
0.0000000000
40
0.0066281586
40
0.0354438089
40
0.0781775225
40
0.1352977049
40
0.2081916000
40
0.2983390118
40
0.4071197443
40
0.5346687078
40
0.6799322081
40
0.8371246023
40
1.0000000000
40
1.0000000000
40
1.0000000000
40
1.0000000000
10
-5.1644903196
20
17.6465050437
30
0.0000000000
10
-5.1650025930
20
17.6451418750
30
0.0000000000
10
-5.1683355055
20
17.6379827716
30
0.0000000000
10
-5.1770840612
20
17.6237083500
30
0.0000000000
10
-5.1936649925
20
17.6011623524
30
0.0000000000
10
-5.2169992418
20
17.5719901788
30
0.0000000000
10
-5.2477479104
20
17.5355415836
30
0.0000000000
10
-5.2864317676
20
17.4912009971
30
0.0000000000
10
-5.3335039621
20
17.4384704078
30
0.0000000000
10
-5.3889986406
20
17.3772716895
30
0.0000000000
10
-5.4518955585
20
17.3086374943
30
0.0000000000
10
-5.5201980918
20
17.2345847320
30
0.0000000000
10
-5.5672561471
20
17.1837209048
30
0.0000000000
10
-5.5912028417
20
17.1578373501
30
0.0000000000
11
-5.1644903196
21
17.6465050437
31
0.0000000000
11
-5.1662712866
21
17.6424883428
31
0.0000000000
11
-5.1757233448
21
17.6263351283
31
0.0000000000
11
-5.1919247052
21
17.6037993860
31
0.0000000000
11
-5.2149836921
21
17.5747371634
31
0.0000000000
11
-5.2454245441
21
17.5384771749
31
0.0000000000
11
-5.2838563543
21
17.4943062900
31
0.0000000000
11
-5.3308603392
21
17.4415586703
31
0.0000000000
11
-5.3864726076
21
17.3801582664
31
0.0000000000
11
-5.4501864609
21
17.3105744773
31
0.0000000000
11
-5.5193826611
21
17.2355064234
31
0.0000000000
11
-5.5912028417
21
17.1578373501
31
0.0000000000
0
SPLINE
5
3E8
100
AcDbEntity
8
0
100
AcDbSpline
62
7
6
CONTINUOUS
70
0
71
3
72
28
73
24
74
22
42
0.0000001000
43
0.0000001000
44
0.0000000001
12
0.0000000000
22
-0.8560454358
32
0.0000000000
13
-0.4748439349
23
0.7122759476
33
0.0000000000
40
0.0000000000
40
0.0000000000
40
0.0000000000
40
0.0000000000
40
0.0056001076
40
0.0221878247
40
0.0493779407
40
0.0866467356
40
0.1330293372
40
0.1876956588
40
0.2491587429
40
0.3163869080
40
0.3874909704
40
0.4613265883
40
0.5357849589
40
0.6096852126
40
0.6809167069
40
0.7483330403
40
0.8100397611
40
0.8650010733
40
0.9117220307
40
0.9493664272
40
0.9769597041
40
0.9939700659
40
1.0000000000
40
1.0000000000
40
1.0000000000
40
1.0000000000
10
-5.1632328540
20
16.2353994306
30
0.0000000000
10
-5.1632328540
20
16.2338014484
30
0.0000000000
10
-5.1733490408
20
16.2363780516
30
0.0000000000
10
-5.1838126328
20
16.2330904988
30
0.0000000000
10
-5.2089565392
20
16.2341926341
30
0.0000000000
10
-5.2397141757
20
16.2330547822
30
0.0000000000
10
-5.2795047801
20
16.2328868912
30
0.0000000000
10
-5.3257648307
20
16.2324309959
30
0.0000000000
10
-5.3781204455
20
16.2321513635
30
0.0000000000
10
-5.4351203245
20
16.2319052132
30
0.0000000000
10
-5.4956651137
20
16.2317453496
30
0.0000000000
10
-5.5582690397
20
16.2316618093
30
0.0000000000
10
-5.6216722012
20
16.2316602578
30
0.0000000000
10
-5.6843314185
20
16.2317404981
30
0.0000000000
10
-5.7449828977
20
16.2318978472
30
0.0000000000
10
-5.8021485885
20
16.2321394069
30
0.0000000000
10
-5.8546913307
20
16.2324221223
30
0.0000000000
10
-5.9012646814
20
16.2328582942
30
0.0000000000
10
-5.9411597448
20
16.2330748290
30
0.0000000000
10
-5.9727259033
20
16.2340786541
30
0.0000000000
10
-5.9970774496
20
16.2332770747
30
0.0000000000
10
-6.0099074111
20
16.2360632091
30
0.0000000000
10
-6.0182111609
20
16.2339460433
30
0.0000000000
10
-6.0191655867
20
16.2353777023
30
0.0000000000
11
-5.1632328540
21
16.2353994306
31
0.0000000000
11
-5.1679944980
21
16.2348438499
31
0.0000000000
11
-5.1821839319
21
16.2343003356
31
0.0000000000
11
-5.2054541315
21
16.2337818675
31
0.0000000000
11
-5.2373542535
21
16.2332986379
31
0.0000000000
11
-5.2770574786
21
16.2328630629
31
0.0000000000
11
-5.3238527904
21
16.2324830077
31
0.0000000000
11
-5.3764670445
21
16.2321687582
31
0.0000000000
11
-5.4340168949
21
16.2319256232
31
0.0000000000
11
-5.4948849787
21
16.2317604085
31
0.0000000000
11
-5.5580915658
21
16.2316757879
31
0.0000000000
11
-5.6218313140
21
16.2316741699
31
0.0000000000
11
-5.6850932366
21
16.2317555802
31
0.0000000000
11
-5.7460704166
21
16.2319177018
31
0.0000000000
11
-5.8037813612
21
16.2321579109
31
0.0000000000
11
-5.8566041990
21
16.2324694839
31
0.0000000000
11
-5.9036520636
21
16.2328471568
31
0.0000000000
11
-5.9436449760
21
16.2332807086
31
0.0000000000
11
-5.9758666909
21
16.2337623103
31
0.0000000000
11
-5.9994821250
21
16.2342795882
31
0.0000000000
11
-6.0140336480
21
16.2348223728
31
0.0000000000
11
-6.0191655867
21
16.2353777023
31
0.0000000000
0
SPLINE
5
3E9
100
AcDbEntity
8
0
100
AcDbSpline
62
7
6
CONTINUOUS
70
0
71
3
72
10
73
6
74
4
42
0.0000001000
43
0.0000001000
44
0.0000000001
12
0.0176000091
22
0.0006200554
32
0.0000000000
13
0.0176109281
23
0.0000000000
33
0.0000000000
40
0.0000000000
40
0.0000000000
40
0.0000000000
40
0.0000000000
40
0.3333346336
40
0.6666679752
40
1.0000000000
40
1.0000000000
40
1.0000000000
40
1.0000000000
10
-12.3132328540
20
16.3011695034
30
0.0000000000
10
-12.3112772898
20
16.3012383987
30
0.0000000000
10
-12.3073653192
20
16.3013532134
30
0.0000000000
10
-12.3014957984
20
16.3014565683
30
0.0000000000
10
-12.2975822260
20
16.3014795354
30
0.0000000000
10
-12.2956254639
20
16.3014795354
30
0.0000000000
11
-12.3132328540
21
16.3011695034
31
0.0000000000
11
-12.3073650489
21
16.3013417358
31
0.0000000000
11
-12.3014956491
21
16.3014450844
31
0.0000000000
11
-12.2956254639
21
16.3014795354
31
0.0000000000
0
SPLINE
5
3EA
100
AcDbEntity
8
0
100
AcDbSpline
62
7
6
CONTINUOUS
70
0
71
3
72
10
73
6
74
4
42
0.0000001000
43
0.0000001000
44
0.0000000001
12
-0.2121577388
22
0.0000000000
32
0.0000000000
13
-0.1934929502
23
-0.0874598153
33
0.0000000000
40
0.0000000000
40
0.0000000000
40
0.0000000000
40
0.0000000000
40
0.3362789996
40
0.6729116057
40
1.0000000000
40
1.0000000000
40
1.0000000000
40
1.0000000000
10
-12.3130805288
20
16.2927526676
30
0.0000000000
10
-12.3368619262
20
16.2927526676
30
0.0000000000
10
-12.3845195046
20
16.2893469402
30
0.0000000000
10
-12.4538462452
20
16.2742614586
30
0.0000000000
10
-12.4980009450
20
16.2578882024
30
0.0000000000
10
-12.5190973778
20
16.2483525055
30
0.0000000000
11
-12.3130805288
21
16.2927526676
31
0.0000000000
11
-12.3842430231
21
16.2876641347
31
0.0000000000
11
-12.4540297243
21
16.2724812414
31
0.0000000000
11
-12.5190973778
21
16.2483525055
31
0.0000000000
0
SPLINE
5
3EB
100
AcDbEntity
8
0
100
AcDbSpline
62
7
6
CONTINUOUS
70
0
71
3
72
9
73
5
74
3
42
0.0000001000
43
0.0000001000
44
0.0000000001
12
-0.0177863767
22
-0.0080395344
32
0.0000000000
13
-0.0174587628
23
-0.0087278330
33
0.0000000000
40
0.0000000000
40
0.0000000000
40
0.0000000000
40
0.0000000000
40
0.0966270354
40
1.0000000000
40
1.0000000000
40
1.0000000000
40
1.0000000000
10
-12.5190973778
20
16.2483525055
30
0.0000000000
10
-12.5196702594
20
16.2480935601
30
0.0000000000
10
-12.5255939885
20
16.2454025214
30
0.0000000000
10
-12.5314648641
20
16.2425958035
30
0.0000000000
10
-12.5367221223
20
16.2399676407
30
0.0000000000
11
-12.5190973778
21
16.2483525055
31
0.0000000000
11
-12.5208145507
21
16.2475724258
31
0.0000000000
11
-12.5367221223
21
16.2399676407
31
0.0000000000
0
SPLINE
5
3EC
100
AcDbEntity
8
0
100
AcDbSpline
62
7
6
CONTINUOUS
70
0
71
3
72
10
73
6
74
4
42
0.0000001000
43
0.0000001000
44
0.0000000001
12
-0.0176109281
22
0.0000000000
32
0.0000000000
13
-0.0176000091
23
0.0006200554
33
0.0000000000
40
0.0000000000
40
0.0000000000
40
0.0000000000
40
0.0000000000
40
0.3333320248
40
0.6666653664
40
1.0000000000
40
1.0000000000
40
1.0000000000
40
1.0000000000
10
-12.2956254639
20
-28.4985204646
30
0.0000000000
10
-12.2975822260
20
-28.4985204646
30
0.0000000000
10
-12.3014957984
20
-28.4984974975
30
0.0000000000
10
-12.3073653192
20
-28.4983941426
30
0.0000000000
10
-12.3112772898
20
-28.4982793279
30
0.0000000000
10
-12.3132328540
20
-28.4982104326
30
0.0000000000
11
-12.2956254639
21
-28.4985204646
31
0.0000000000
11
-12.3014956491
21
-28.4984860136
31
0.0000000000
11
-12.3073650489
21
-28.4983826650
31
0.0000000000
11
-12.3132328540
21
-28.4982104326
31
0.0000000000
0
SPLINE
5
3ED
100
AcDbEntity
8
0
100
AcDbSpline
62
7
6
CONTINUOUS
70
0
71
3
72
16
73
12
74
10
42
0.0000001000
43
0.0000001000
44
0.0000000001
12
0.0000000000
22
0.2000886283
32
0.0000000000
13
0.1789674357
23
0.0894769029
33
0.0000000000
40
0.0000000000
40
0.0000000000
40
0.0000000000
40
0.0000000000
40
0.1725327588
40
0.3401978753
40
0.4970698943
40
0.6396991821
40
0.7624356200
40
0.8628636708
40
0.9369772596
40
0.9832146050
40
1.0000000000
40
1.0000000000
40
1.0000000000
40
1.0000000000
10
-11.2905412696
20
-0.6131069019
30
0.0000000000
10
-11.2905412696
20
-0.6015996209
30
0.0000000000
10
-11.2905081304
20
-0.5789089572
30
0.0000000000
10
-11.2903529953
20
-0.5457597525
30
0.0000000000
10
-11.2901167454
20
-0.5145918918
30
0.0000000000
10
-11.2897463594
20
-0.4864659066
30
0.0000000000
10
-11.2894438837
20
-0.4619713482
30
0.0000000000
10
-11.2886805425
20
-0.4424254365
30
0.0000000000
10
-11.2888773441
20
-0.4270524182
30
0.0000000000
10
-11.2870915554
20
-0.4191272083
30
0.0000000000
10
-11.2880820674
20
-0.4136151524
30
0.0000000000
10
-11.2870807210
20
-0.4131145173
30
0.0000000000
11
-11.2905412696
21
-0.6131069019
31
0.0000000000
11
-11.2904888709
21
-0.5785850987
31
0.0000000000
11
-11.2903328563
21
-0.5450375782
31
0.0000000000
11
-11.2900790189
21
-0.5136502976
31
0.0000000000
11
-11.2897327651
21
-0.4851138996
31
0.0000000000
11
-11.2893079235
21
-0.4605594091
31
0.0000000000
11
-11.2888128590
21
-0.4404709975
31
0.0000000000
11
-11.2882671848
21
-0.4256517542
31
0.0000000000
11
-11.2876829234
21
-0.4164186545
31
0.0000000000
11
-11.2870807210
21
-0.4131145173
31
0.0000000000
0
SPLINE
5
3EE
100
AcDbEntity
8
0
100
AcDbSpline
62
7
6
CONTINUOUS
70
0
71
3
72
16
73
12
74
10
42
0.0000001000
43
0.0000001000
44
0.0000000001
12
-0.1789674357
22
0.0894769029
32
0.0000000000
13
-0.0000000000
23
0.2000886283
33
0.0000000000
40
0.0000000000
40
0.0000000000
40
0.0000000000
40
0.0000000000
40
0.0167853950
40
0.0630227404
40
0.1371363292
40
0.2375643800
40
0.3603008179
40
0.5029301057
40
0.6598021247
40
0.8274672412
40
1.0000000000
40
1.0000000000
40
1.0000000000
40
1.0000000000
10
-11.2870807210
20
-1.2839264119
30
0.0000000000
10
-11.2880820674
20
-1.2834257768
30
0.0000000000
10
-11.2870915554
20
-1.2779137209
30
0.0000000000
10
-11.2888773441
20
-1.2699885110
30
0.0000000000
10
-11.2886805425
20
-1.2546154927
30
0.0000000000
10
-11.2894438837
20
-1.2350695810
30
0.0000000000
10
-11.2897463594
20
-1.2105750226
30
0.0000000000
10
-11.2901167454
20
-1.1824490374
30
0.0000000000
10
-11.2903529953
20
-1.1512811767
30
0.0000000000
10
-11.2905081304
20
-1.1181319720
30
0.0000000000
10
-11.2905412696
20
-1.0954413083
30
0.0000000000
10
-11.2905412696
20
-1.0839340273
30
0.0000000000
11
-11.2870807210
21
-1.2839264119
31
0.0000000000
11
-11.2876829234
21
-1.2806222747
31
0.0000000000
11
-11.2882671848
21
-1.2713891750
31
0.0000000000
11
-11.2888128590
21
-1.2565699317
31
0.0000000000
11
-11.2893079235
21
-1.2364815201
31
0.0000000000
11
-11.2897327651
21
-1.2119270296
31
0.0000000000
11
-11.2900790189
21
-1.1833906316
31
0.0000000000
11
-11.2903328563
21
-1.1520033510
31
0.0000000000
11
-11.2904888709
21
-1.1184558305
31
0.0000000000
11
-11.2905412696
21
-1.0839340273
31
0.0000000000
0
SPLINE
5
3EF
100
AcDbEntity
8
0
100
AcDbSpline
62
7
6
CONTINUOUS
70
0
71
3
72
9
73
5
74
3
42
0.0000001000
43
0.0000001000
44
0.0000000001
12
-0.0174587628
22
0.0087278330
32
0.0000000000
13
-0.0177863767
23
0.0080395344
33
0.0000000000
40
0.0000000000
40
0.0000000000
40
0.0000000000
40
0.0000000000
40
0.9033729646
40
1.0000000000
40
1.0000000000
40
1.0000000000
40
1.0000000000
10
9.2102564143
20
16.2399676407
30
0.0000000000
10
9.2049991562
20
16.2425958035
30
0.0000000000
10
9.1991282805
20
16.2454025214
30
0.0000000000
10
9.1932045514
20
16.2480935601
30
0.0000000000
10
9.1926316698
20
16.2483525055
30
0.0000000000
11
9.2102564143
21
16.2399676407
31
0.0000000000
11
9.1943488427
21
16.2475724258
31
0.0000000000
11
9.1926316698
21
16.2483525055
31
0.0000000000
0
SPLINE
5
3F0
100
AcDbEntity
8
0
100
AcDbSpline
62
7
6
CONTINUOUS
70
0
71
3
72
10
73
6
74
4
42
0.0000001000
43
0.0000001000
44
0.0000000001
12
-0.1934929502
22
0.0874598153
32
0.0000000000
13
-0.2121577388
23
0.0000000000
33
0.0000000000
40
0.0000000000
40
0.0000000000
40
0.0000000000
40
0.0000000000
40
0.3270883943
40
0.6637210004
40
1.0000000000
40
1.0000000000
40
1.0000000000
40
1.0000000000
10
9.1926316698
20
16.2483525055
30
0.0000000000
10
9.1715352370
20
16.2578882024
30
0.0000000000
10
9.1273805373
20
16.2742614586
30
0.0000000000
10
9.0580537966
20
16.2893469402
30
0.0000000000
10
9.0103962183
20
16.2927526676
30
0.0000000000
10
8.9866148209
20
16.2927526676
30
0.0000000000
11
9.1926316698
21
16.2483525055
31
0.0000000000
11
9.1275640163
21
16.2724812414
31
0.0000000000
11
9.0577773151
21
16.2876641347
31
0.0000000000
11
8.9866148209
21
16.2927526676
31
0.0000000000
0
SPLINE
5
3F1
100
AcDbEntity
8
0
100
AcDbSpline
62
7
6
CONTINUOUS
70
0
71
3
72
10
73
6
74
4
42
0.0000001000
43
0.0000001000
44
0.0000000001
12
0.0176109281
22
0.0000000000
32
0.0000000000
13
0.0176000091
23
-0.0006200554
33
0.0000000000
40
0.0000000000
40
0.0000000000
40
0.0000000000
40
0.0000000000
40
0.3333320248
40
0.6666653664
40
1.0000000000
40
1.0000000000
40
1.0000000000
40
1.0000000000
10
8.9691597559
20
16.3014795354
30
0.0000000000
10
8.9711165181
20
16.3014795354
30
0.0000000000
10
8.9750300905
20
16.3014565683
30
0.0000000000
10
8.9808996112
20
16.3013532134
30
0.0000000000
10
8.9848115818
20
16.3012383987
30
0.0000000000
10
8.9867671460
20
16.3011695034
30
0.0000000000
11
8.9691597559
21
16.3014795354
31
0.0000000000
11
8.9750299412
21
16.3014450844
31
0.0000000000
11
8.9808993409
21
16.3013417358
31
0.0000000000
11
8.9867671460
21
16.3011695034
31
0.0000000000
0
SPLINE
5
3F2
100
AcDbEntity
8
0
100
AcDbSpline
62
7
6
CONTINUOUS
70
0
71
3
72
10
73
6
74
4
42
0.0000001000
43
0.0000001000
44
0.0000000001
12
-0.0176000091
22
-0.0006200554
32
0.0000000000
13
-0.0176109281
23
0.0000000000
33
0.0000000000
40
0.0000000000
40
0.0000000000
40
0.0000000000
40
0.0000000000
40
0.3333346336
40
0.6666679752
40
1.0000000000
40
1.0000000000
40
1.0000000000
40
1.0000000000
10
8.9867671460
20
-28.4982104326
30
0.0000000000
10
8.9848115818
20
-28.4982793279
30
0.0000000000
10
8.9808996112
20
-28.4983941426
30
0.0000000000
10
8.9750300905
20
-28.4984974975
30
0.0000000000
10
8.9711165181
20
-28.4985204646
30
0.0000000000
10
8.9691597559
20
-28.4985204646
30
0.0000000000
11
8.9867671460
21
-28.4982104326
31
0.0000000000
11
8.9808993409
21
-28.4983826650
31
0.0000000000
11
8.9750299412
21
-28.4984860136
31
0.0000000000
11
8.9691597559
21
-28.4985204646
31
0.0000000000
0
SPLINE
5
3F3
100
AcDbEntity
8
0
100
AcDbSpline
62
7
6
CONTINUOUS
70
0
71
3
72
10
73
6
74
4
42
0.0000001000
43
0.0000001000
44
0.0000000001
12
0.2121577388
22
0.0000000000
32
0.0000000000
13
0.1934929502
23
0.0874598153
33
0.0000000000
40
0.0000000000
40
0.0000000000
40
0.0000000000
40
0.0000000000
40
0.3362789996
40
0.6729116057
40
1.0000000000
40
1.0000000000
40
1.0000000000
40
1.0000000000
10
8.9866148209
20
-28.4897935968
30
0.0000000000
10
9.0103962183
20
-28.4897935968
30
0.0000000000
10
9.0580537966
20
-28.4863878694
30
0.0000000000
10
9.1273805373
20
-28.4713023878
30
0.0000000000
10
9.1715352370
20
-28.4549291316
30
0.0000000000
10
9.1926316698
20
-28.4453934347
30
0.0000000000
11
8.9866148209
21
-28.4897935968
31
0.0000000000
11
9.0577773151
21
-28.4847050639
31
0.0000000000
11
9.1275640163
21
-28.4695221706
31
0.0000000000
11
9.1926316698
21
-28.4453934347
31
0.0000000000
0
SPLINE
5
3F4
100
AcDbEntity
8
0
100
AcDbSpline
62
7
6
CONTINUOUS
70
0
71
3
72
9
73
5
74
3
42
0.0000001000
43
0.0000001000
44
0.0000000001
12
0.0177863767
22
0.0080395344
32
0.0000000000
13
0.0174587628
23
0.0087278330
33
0.0000000000
40
0.0000000000
40
0.0000000000
40
0.0000000000
40
0.0000000000
40
0.0966270354
40
1.0000000000
40
1.0000000000
40
1.0000000000
40
1.0000000000
10
9.1926316698
20
-28.4453934347
30
0.0000000000
10
9.1932045514
20
-28.4451344893
30
0.0000000000
10
9.1991282805
20
-28.4424434506
30
0.0000000000
10
9.2049991562
20
-28.4396367327
30
0.0000000000
10
9.2102564143
20
-28.4370085699
30
0.0000000000
11
9.1926316698
21
-28.4453934347
31
0.0000000000
11
9.1943488427
21
-28.4446133550
31
0.0000000000
11
9.2102564143
21
-28.4370085699
31
0.0000000000
0
SPLINE
5
3F5
100
AcDbEntity
8
0
100
AcDbSpline
62
7
6
CONTINUOUS
70
0
71
3
72
18
73
14
74
12
42
0.0000001000
43
0.0000001000
44
0.0000000001
12
-0.4472051012
22
0.2235855214
32
0.0000000000
13
-0.4999828876
23
-0.0000000000
33
0.0000000000
40
0.0000000000
40
0.0000000000
40
0.0000000000
40
0.0000000000
40
0.0124656256
40
0.0445860838
40
0.0956297107
40
0.1648293831
40
0.2504153456
40
0.3512246475
40
0.4645991173
40
0.5889859396
40
0.7212300941
40
0.8592827416
40
1.0000000000
40
1.0000000000
40
1.0000000000
40
1.0000000000
10
6.4207917128
20
14.8931877996
30
0.0000000000
10
6.4189334823
20
14.8941168441
30
0.0000000000
10
6.4110802765
20
14.8933402664
30
0.0000000000
10
6.3955302513
20
14.8949222955
30
0.0000000000
10
6.3699393738
20
14.8948852689
30
0.0000000000
10
6.3357250217
20
14.8956383829
30
0.0000000000
10
6.2930981704
20
14.8960229492
30
0.0000000000
10
6.2431508289
20
14.8964737142
30
0.0000000000
10
6.1867219420
20
14.8968216522
30
0.0000000000
10
6.1250581910
20
14.8971109840
30
0.0000000000
10
6.0592798323
20
14.8973192541
30
0.0000000000
10
5.9907800261
20
14.8974467550
30
0.0000000000
10
5.9443199389
20
14.8974750811
30
0.0000000000
10
5.9208678652
20
14.8974750811
30
0.0000000000
11
6.4207917128
21
14.8931877996
31
0.0000000000
11
6.4145893483
21
14.8938009646
31
0.0000000000
11
6.3985408821
21
14.8944009954
31
0.0000000000
11
6.3730263807
21
14.8949742290
31
0.0000000000
11
6.3384319048
21
14.8955117782
31
0.0000000000
11
6.2956431735
21
14.8960000093
31
0.0000000000
11
6.2452421009
21
14.8964322331
31
0.0000000000
11
6.1885579801
21
14.8967970522
31
0.0000000000
11
6.1263673851
21
14.8970895096
31
0.0000000000
11
6.0602479127
21
14.8973021179
31
0.0000000000
11
5.9912240730
21
14.8974316672
31
0.0000000000
11
5.9208678652
21
14.8974750811
31
0.0000000000
0
SPLINE
5
3F6
100
AcDbEntity
8
0
100
AcDbSpline
62
7
6
CONTINUOUS
70
0
71
3
72
18
73
14
74
12
42
0.0000001000
43
0.0000001000
44
0.0000000001
12
-0.4999828876
22
0.0000000000
32
0.0000000000
13
-0.4472051012
23
-0.2235855214
33
0.0000000000
40
0.0000000000
40
0.0000000000
40
0.0000000000
40
0.0000000000
40
0.1407172584
40
0.2787699059
40
0.4110140604
40
0.5354008827
40
0.6487753525
40
0.7495846544
40
0.8351706169
40
0.9043702893
40
0.9554139162
40
0.9875343744
40
1.0000000000
40
1.0000000000
40
1.0000000000
40
1.0000000000
10
-9.2473335731
20
14.8974750811
30
0.0000000000
10
-9.2707856469
20
14.8974750811
30
0.0000000000
10
-9.3172457341
20
14.8974467550
30
0.0000000000
10
-9.3857455402
20
14.8973192541
30
0.0000000000
10
-9.4515238989
20
14.8971109840
30
0.0000000000
10
-9.5131876499
20
14.8968216522
30
0.0000000000
10
-9.5696165369
20
14.8964737142
30
0.0000000000
10
-9.6195638784
20
14.8960229492
30
0.0000000000
10
-9.6621907297
20
14.8956383829
30
0.0000000000
10
-9.6964050817
20
14.8948852689
30
0.0000000000
10
-9.7219959592
20
14.8949222955
30
0.0000000000
10
-9.7375459845
20
14.8933402664
30
0.0000000000
10
-9.7453991903
20
14.8941168441
30
0.0000000000
10
-9.7472574207
20
14.8931877996
30
0.0000000000
11
-9.2473335731
21
14.8974750811
31
0.0000000000
11
-9.3176897809
21
14.8974316672
31
0.0000000000
11
-9.3867136207
21
14.8973021179
31
0.0000000000
11
-9.4528330931
21
14.8970895096
31
0.0000000000
11
-9.5150236880
21
14.8967970522
31
0.0000000000
11
-9.5717078089
21
14.8964322331
31
0.0000000000
11
-9.6221088815
21
14.8960000093
31
0.0000000000
11
-9.6648976128
21
14.8955117782
31
0.0000000000
11
-9.6994920887
21
14.8949742290
31
0.0000000000
11
-9.7250065901
21
14.8944009954
31
0.0000000000
11
-9.7410550563
21
14.8938009646
31
0.0000000000
11
-9.7472574207
21
14.8931877996
31
0.0000000000
0
SPLINE
5
3F7
100
AcDbEntity
8
0
100
AcDbSpline
62
7
6
CONTINUOUS
70
0
71
3
72
18
73
14
74
12
42
0.0000001000
43
0.0000001000
44
0.0000000001
12
0.4999828876
22
0.0000000000
32
0.0000000000
13
0.4472051012
23
0.2235855214
33
0.0000000000
40
0.0000000000
40
0.0000000000
40
0.0000000000
40
0.0000000000
40
0.1407172584
40
0.2787699059
40
0.4110140604
40
0.5354008827
40
0.6487753525
40
0.7495846544
40
0.8351706169
40
0.9043702893
40
0.9554139162
40
0.9875343744
40
1.0000000000
40
1.0000000000
40
1.0000000000
40
1.0000000000
10
5.9208678652
20
-27.0945160103
30
0.0000000000
10
5.9443199389
20
-27.0945160103
30
0.0000000000
10
5.9907800261
20
-27.0944876842
30
0.0000000000
10
6.0592798323
20
-27.0943601833
30
0.0000000000
10
6.1250581910
20
-27.0941519132
30
0.0000000000
10
6.1867219420
20
-27.0938625814
30
0.0000000000
10
6.2431508289
20
-27.0935146434
30
0.0000000000
10
6.2930981704
20
-27.0930638784
30
0.0000000000
10
6.3357250217
20
-27.0926793121
30
0.0000000000
10
6.3699393738
20
-27.0919261981
30
0.0000000000
10
6.3955302513
20
-27.0919632247
30
0.0000000000
10
6.4110802765
20
-27.0903811956
30
0.0000000000
10
6.4189334823
20
-27.0911577733
30
0.0000000000
10
6.4207917128
20
-27.0902287288
30
0.0000000000
11
5.9208678652
21
-27.0945160103
31
0.0000000000
11
5.9912240730
21
-27.0944725964
31
0.0000000000
11
6.0602479127
21
-27.0943430471
31
0.0000000000
11
6.1263673851
21
-27.0941304389
31
0.0000000000
11
6.1885579801
21
-27.0938379814
31
0.0000000000
11
6.2452421009
21
-27.0934731623
31
0.0000000000
11
6.2956431735
21
-27.0930409385
31
0.0000000000
11
6.3384319048
21
-27.0925527074
31
0.0000000000
11
6.3730263807
21
-27.0920151582
31
0.0000000000
11
6.3985408821
21
-27.0914419246
31
0.0000000000
11
6.4145893483
21
-27.0908418938
31
0.0000000000
11
6.4207917128
21
-27.0902287288
31
0.0000000000
0
SPLINE
5
3F8
100
AcDbEntity
8
0
100
AcDbSpline
62
7
6
CONTINUOUS
70
0
71
3
72
18
73
14
74
12
42
0.0000001000
43
0.0000001000
44
0.0000000001
12
0.4472051012
22
-0.2235855214
32
0.0000000000
13
0.4999828876
23
-0.0000000000
33
0.0000000000
40
0.0000000000
40
0.0000000000
40
0.0000000000
40
0.0000000000
40
0.0124656256
40
0.0445860838
40
0.0956297107
40
0.1648293831
40
0.2504153456
40
0.3512246475
40
0.4645991173
40
0.5889859396
40
0.7212300941
40
0.8592827416
40
1.0000000000
40
1.0000000000
40
1.0000000000
40
1.0000000000
10
-9.7472574207
20
-27.0902287288
30
0.0000000000
10
-9.7453991903
20
-27.0911577733
30
0.0000000000
10
-9.7375459845
20
-27.0903811956
30
0.0000000000
10
-9.7219959592
20
-27.0919632247
30
0.0000000000
10
-9.6964050817
20
-27.0919261981
30
0.0000000000
10
-9.6621907297
20
-27.0926793121
30
0.0000000000
10
-9.6195638784
20
-27.0930638784
30
0.0000000000
10
-9.5696165369
20
-27.0935146434
30
0.0000000000
10
-9.5131876499
20
-27.0938625814
30
0.0000000000
10
-9.4515238989
20
-27.0941519132
30
0.0000000000
10
-9.3857455402
20
-27.0943601833
30
0.0000000000
10
-9.3172457341
20
-27.0944876842
30
0.0000000000
10
-9.2707856469
20
-27.0945160103
30
0.0000000000
10
-9.2473335731
20
-27.0945160103
30
0.0000000000
11
-9.7472574207
21
-27.0902287288
31
0.0000000000
11
-9.7410550563
21
-27.0908418938
31
0.0000000000
11
-9.7250065901
21
-27.0914419246
31
0.0000000000
11
-9.6994920887
21
-27.0920151582
31
0.0000000000
11
-9.6648976128
21
-27.0925527074
31
0.0000000000
11
-9.6221088815
21
-27.0930409385
31
0.0000000000
11
-9.5717078089
21
-27.0934731623
31
0.0000000000
11
-9.5150236880
21
-27.0938379814
31
0.0000000000
11
-9.4528330931
21
-27.0941304389
31
0.0000000000
11
-9.3867136207
21
-27.0943430471
31
0.0000000000
11
-9.3176897809
21
-27.0944725964
31
0.0000000000
11
-9.2473335731
21
-27.0945160103
31
0.0000000000
0
SPLINE
5
3F9
100
AcDbEntity
8
0
100
AcDbSpline
62
7
6
CONTINUOUS
70
0
71
3
72
11
73
7
74
5
42
0.0000001000
43
0.0000001000
44
0.0000000001
12
-0.3127582945
22
0.4423070219
32
0.0000000000
13
-0.2926807401
23
0.4558412408
33
0.0000000000
40
0.0000000000
40
0.0000000000
40
0.0000000000
40
0.0000000000
40
0.2559001112
40
0.5096100791
40
0.7585931600
40
1.0000000000
40
1.0000000000
40
1.0000000000
40
1.0000000000
10
-9.2473335731
20
15.2141727791
30
0.0000000000
10
-9.2740118673
20
15.2519015845
30
0.0000000000
10
-9.3271406206
20
15.3270359102
30
0.0000000000
10
-9.4057148140
20
15.4392409518
30
0.0000000000
10
-9.4817026721
20
15.5500557613
30
0.0000000000
10
-9.5305646168
20
15.6239149973
30
0.0000000000
10
-9.5541163276
20
15.6605960617
30
0.0000000000
11
-9.2473335731
21
15.2141727791
31
0.0000000000
11
-9.3272822264
21
15.3274201191
31
0.0000000000
11
-9.4060176841
21
15.4400697800
31
0.0000000000
11
-9.4821626580
21
15.5513975196
31
0.0000000000
11
-9.5541163276
21
15.6605960617
31
0.0000000000
0
SPLINE
5
3FA
100
AcDbEntity
8
0
100
AcDbSpline
62
7
6
CONTINUOUS
70
0
71
3
72
9
73
5
74
3
42
0.0000001000
43
0.0000001000
44
0.0000000001
12
0.0174587628
22
-0.0087278330
32
0.0000000000
13
0.0177863767
23
-0.0080395344
33
0.0000000000
40
0.0000000000
40
0.0000000000
40
0.0000000000
40
0.0000000000
40
0.9033729646
40
1.0000000000
40
1.0000000000
40
1.0000000000
40
1.0000000000
10
-12.5367221223
20
-28.4370085699
30
0.0000000000
10
-12.5314648641
20
-28.4396367327
30
0.0000000000
10
-12.5255939885
20
-28.4424434506
30
0.0000000000
10
-12.5196702594
20
-28.4451344893
30
0.0000000000
10
-12.5190973778
20
-28.4453934347
30
0.0000000000
11
-12.5367221223
21
-28.4370085699
31
0.0000000000
11
-12.5208145507
21
-28.4446133550
31
0.0000000000
11
-12.5190973778
21
-28.4453934347
31
0.0000000000
0
SPLINE
5
3FB
100
AcDbEntity
8
0
100
AcDbSpline
62
7
6
CONTINUOUS
70
0
71
3
72
10
73
6
74
4
42
0.0000001000
43
0.0000001000
44
0.0000000001
12
0.1934929502
22
-0.0874598153
32
0.0000000000
13
0.2121577388
23
0.0000000000
33
0.0000000000
40
0.0000000000
40
0.0000000000
40
0.0000000000
40
0.0000000000
40
0.3270883943
40
0.6637210004
40
1.0000000000
40
1.0000000000
40
1.0000000000
40
1.0000000000
10
-12.5190973778
20
-28.4453934347
30
0.0000000000
10
-12.4980009450
20
-28.4549291316
30
0.0000000000
10
-12.4538462452
20
-28.4713023878
30
0.0000000000
10
-12.3845195046
20
-28.4863878694
30
0.0000000000
10
-12.3368619262
20
-28.4897935968
30
0.0000000000
10
-12.3130805288
20
-28.4897935968
30
0.0000000000
11
-12.5190973778
21
-28.4453934347
31
0.0000000000
11
-12.4540297243
21
-28.4695221706
31
0.0000000000
11
-12.3842430231
21
-28.4847050639
31
0.0000000000
11
-12.3130805288
21
-28.4897935968
31
0.0000000000
0
SPLINE
5
3FC
100
AcDbEntity
8
0
100
AcDbSpline
62
7
6
CONTINUOUS
70
0
71
3
72
11
73
7
74
5
42
0.0000001000
43
0.0000001000
44
0.0000000001
12
-0.2926807401
22
-0.4558412408
32
0.0000000000
13
-0.3127582945
23
-0.4423070219
33
0.0000000000
40
0.0000000000
40
0.0000000000
40
0.0000000000
40
0.0000000000
40
0.2414068400
40
0.4903899209
40
0.7440998888
40
1.0000000000
40
1.0000000000
40
1.0000000000
40
1.0000000000
10
6.2276506197
20
15.6605960617
30
0.0000000000
10
6.2040989088
20
15.6239149973
30
0.0000000000
10
6.1552369641
20
15.5500557613
30
0.0000000000
10
6.0792491060
20
15.4392409518
30
0.0000000000
10
6.0006749126
20
15.3270359102
30
0.0000000000
10
5.9475461593
20
15.2519015845
30
0.0000000000
10
5.9208678652
20
15.2141727791
30
0.0000000000
11
6.2276506197
21
15.6605960617
31
0.0000000000
11
6.1556969500
21
15.5513975196
31
0.0000000000
11
6.0795519762
21
15.4400697800
31
0.0000000000
11
6.0008165184
21
15.3274201191
31
0.0000000000
11
5.9208678652
21
15.2141727791
31
0.0000000000
0
SPLINE
5
3FD
100
AcDbEntity
8
0
100
AcDbSpline
62
7
6
CONTINUOUS
70
0
71
3
72
11
73
7
74
5
42
0.0000001000
43
0.0000001000
44
0.0000000001
12
0.2926807401
22
0.4558412408
32
0.0000000000
13
0.3127582945
23
0.4423070219
33
0.0000000000
40
0.0000000000
40
0.0000000000
40
0.0000000000
40
0.0000000000
40
0.2414068400
40
0.4903899209
40
0.7440998888
40
1.0000000000
40
1.0000000000
40
1.0000000000
40
1.0000000000
10
-9.5541163276
20
-27.8576369909
30
0.0000000000
10
-9.5305646168
20
-27.8209559265
30
0.0000000000
10
-9.4817026721
20
-27.7470966905
30
0.0000000000
10
-9.4057148140
20
-27.6362818810
30
0.0000000000
10
-9.3271406206
20
-27.5240768394
30
0.0000000000
10
-9.2740118673
20
-27.4489425137
30
0.0000000000
10
-9.2473335731
20
-27.4112137083
30
0.0000000000
11
-9.5541163276
21
-27.8576369909
31
0.0000000000
11
-9.4821626580
21
-27.7484384488
31
0.0000000000
11
-9.4060176841
21
-27.6371107092
31
0.0000000000
11
-9.3272822264
21
-27.5244610483
31
0.0000000000
11
-9.2473335731
21
-27.4112137083
31
0.0000000000
0
SPLINE
5
3FE
100
AcDbEntity
8
0
100
AcDbSpline
62
7
6
CONTINUOUS
70
0
71
3
72
11
73
7
74
5
42
0.0000001000
43
0.0000001000
44
0.0000000001
12
0.3127582945
22
-0.4423070219
32
0.0000000000
13
0.2926807401
23
-0.4558412408
33
0.0000000000
40
0.0000000000
40
0.0000000000
40
0.0000000000
40
0.0000000000
40
0.2559001112
40
0.5096100791
40
0.7585931600
40
1.0000000000
40
1.0000000000
40
1.0000000000
40
1.0000000000
10
5.9208678652
20
-27.4112137083
30
0.0000000000
10
5.9475461593
20
-27.4489425137
30
0.0000000000
10
6.0006749126
20
-27.5240768394
30
0.0000000000
10
6.0792491060
20
-27.6362818810
30
0.0000000000
10
6.1552369641
20
-27.7470966905
30
0.0000000000
10
6.2040989088
20
-27.8209559265
30
0.0000000000
10
6.2276506197
20
-27.8576369909
30
0.0000000000
11
5.9208678652
21
-27.4112137083
31
0.0000000000
11
6.0008165184
21
-27.5244610483
31
0.0000000000
11
6.0795519762
21
-27.6371107092
31
0.0000000000
11
6.1556969500
21
-27.7484384488
31
0.0000000000
11
6.2276506197
21
-27.8576369909
31
0.0000000000
0
SPLINE
5
3FF
100
AcDbEntity
8
0
100
AcDbSpline
62
7
6
CONTINUOUS
70
0
71
3
72
16
73
12
74
10
42
0.0000001000
43
0.0000001000
44
0.0000000001
12
0.0000000000
22
-0.2000886283
32
0.0000000000
13
-0.1789674357
23
-0.0894769029
33
0.0000000000
40
0.0000000000
40
0.0000000000
40
0.0000000000
40
0.0000000000
40
0.1725327588
40
0.3401978753
40
0.4970698943
40
0.6396991821
40
0.7624356200
40
0.8628636708
40
0.9369772596
40
0.9832146050
40
1.0000000000
40
1.0000000000
40
1.0000000000
40
1.0000000000
10
7.9640755616
20
-1.0839340273
30
0.0000000000
10
7.9640755616
20
-1.0954413083
30
0.0000000000
10
7.9640424225
20
-1.1181319720
30
0.0000000000
10
7.9638872874
20
-1.1512811767
30
0.0000000000
10
7.9636510374
20
-1.1824490374
30
0.0000000000
10
7.9632806514
20
-1.2105750226
30
0.0000000000
10
7.9629781757
20
-1.2350695810
30
0.0000000000
10
7.9622148346
20
-1.2546154927
30
0.0000000000
10
7.9624116361
20
-1.2699885110
30
0.0000000000
10
7.9606258474
20
-1.2779137209
30
0.0000000000
10
7.9616163594
20
-1.2834257768
30
0.0000000000
10
7.9606150131
20
-1.2839264119
30
0.0000000000
11
7.9640755616
21
-1.0839340273
31
0.0000000000
11
7.9640231630
21
-1.1184558305
31
0.0000000000
11
7.9638671483
21
-1.1520033510
31
0.0000000000
11
7.9636133109
21
-1.1833906316
31
0.0000000000
11
7.9632670571
21
-1.2119270296
31
0.0000000000
11
7.9628422155
21
-1.2364815201
31
0.0000000000
11
7.9623471511
21
-1.2565699317
31
0.0000000000
11
7.9618014768
21
-1.2713891750
31
0.0000000000
11
7.9612172155
21
-1.2806222747
31
0.0000000000
11
7.9606150131
21
-1.2839264119
31
0.0000000000
0
SPLINE
5
400
100
AcDbEntity
8
0
100
AcDbSpline
62
7
6
CONTINUOUS
70
0
71
3
72
16
73
12
74
10
42
0.0000001000
43
0.0000001000
44
0.0000000001
12
0.1789674357
22
-0.0894769029
32
0.0000000000
13
-0.0000000000
23
-0.2000886283
33
0.0000000000
40
0.0000000000
40
0.0000000000
40
0.0000000000
40
0.0000000000
40
0.0167853950
40
0.0630227404
40
0.1371363292
40
0.2375643800
40
0.3603008179
40
0.5029301057
40
0.6598021247
40
0.8274672412
40
1.0000000000
40
1.0000000000
40
1.0000000000
40
1.0000000000
10
7.9606150131
20
-0.4131145173
30
0.0000000000
10
7.9616163594
20
-0.4136151524
30
0.0000000000
10
7.9606258474
20
-0.4191272083
30
0.0000000000
10
7.9624116361
20
-0.4270524182
30
0.0000000000
10
7.9622148346
20
-0.4424254365
30
0.0000000000
10
7.9629781757
20
-0.4619713482
30
0.0000000000
10
7.9632806514
20
-0.4864659066
30
0.0000000000
10
7.9636510374
20
-0.5145918918
30
0.0000000000
10
7.9638872874
20
-0.5457597525
30
0.0000000000
10
7.9640424225
20
-0.5789089572
30
0.0000000000
10
7.9640755616
20
-0.6015996209
30
0.0000000000
10
7.9640755616
20
-0.6131069019
30
0.0000000000
11
7.9606150131
21
-0.4131145173
31
0.0000000000
11
7.9612172155
21
-0.4164186545
31
0.0000000000
11
7.9618014768
21
-0.4256517542
31
0.0000000000
11
7.9623471511
21
-0.4404709975
31
0.0000000000
11
7.9628422155
21
-0.4605594091
31
0.0000000000
11
7.9632670571
21
-0.4851138996
31
0.0000000000
11
7.9636133109
21
-0.5136502976
31
0.0000000000
11
7.9638671483
21
-0.5450375782
31
0.0000000000
11
7.9640231630
21
-0.5785850987
31
0.0000000000
11
7.9640755616
21
-0.6131069019
31
0.0000000000
0
SPLINE
5
401
100
AcDbEntity
8
0
100
AcDbSpline
62
9
6
CONTINUOUS
70
0
71
3
72
17
73
13
74
11
42
0.0000001000
43
0.0000001000
44
0.0000000001
12
0.3922846478
22
-0.0000132773
32
0.0000000000
13
0.0000132773
23
-0.3922846478
33
0.0000000000
40
0.0000000000
40
0.0000000000
40
0.0000000000
40
0.0000000000
40
0.0998239394
40
0.1998359985
40
0.2998483200
40
0.3998691378
40
0.4998893118
40
0.5999112671
40
0.6999336806
40
0.7999562942
40
0.8999787118
40
1.0000000000
40
1.0000000000
40
1.0000000000
40
1.0000000000
10
8.7323995428
20
18.3971077014
30
0.0000000000
10
8.7454526758
20
18.3971072596
30
0.0000000000
10
8.7716296648
20
18.3950514137
30
0.0000000000
10
8.8099064808
20
18.3858697568
30
0.0000000000
10
8.8463092071
20
18.3708017622
30
0.0000000000
10
8.8799045393
20
18.3502237794
30
0.0000000000
10
8.9098682269
20
18.3246421381
30
0.0000000000
10
8.9354604064
20
18.2946871633
30
0.0000000000
10
8.9560508970
20
18.2610973937
30
0.0000000000
10
8.9711322183
20
18.2246969634
30
0.0000000000
10
8.9803327705
20
18.1863953018
30
0.0000000000
10
8.9823948693
20
18.1601908708
30
0.0000000000
10
8.9823953120
20
18.1471119322
30
0.0000000000
11
8.7323995428
21
18.3971077014
31
0.0000000000
11
8.7714385517
21
18.3940394273
31
0.0000000000
11
8.8095899202
21
18.3848897441
31
0.0000000000
11
8.8458401586
21
18.3698840145
31
0.0000000000
11
8.8792991566
21
18.3493899010
31
0.0000000000
11
8.9091394541
21
18.3239134400
31
0.0000000000
11
8.9346267229
21
18.2940814541
31
0.0000000000
11
8.9551326847
21
18.2606289821
31
0.0000000000
11
8.9701521035
21
18.2243800431
31
0.0000000000
11
8.9793148969
21
18.1862276421
31
0.0000000000
11
8.9823953120
21
18.1471119322
31
0.0000000000
0
SPLINE
5
402
100
AcDbEntity
8
0
100
AcDbSpline
62
7
6
CONTINUOUS
70
0
71
3
72
17
73
13
74
11
42
0.0000001000
43
0.0000001000
44
0.0000000001
12
0.0000000000
22
-0.4220147089
32
0.0000000000
13
-0.4220147089
23
0.0000000000
33
0.0000000000
40
0.0000000000
40
0.0000000000
40
0.0000000000
40
0.0000000000
40
0.1163097356
40
0.2303278571
40
0.3412445469
40
0.4475088604
40
0.5491224320
40
0.6456322518
40
0.7382753117
40
0.8272646510
40
0.9144010609
40
1.0000000000
40
1.0000000000
40
1.0000000000
40
1.0000000000
10
8.9867671460
20
17.3119646836
30
0.0000000000
10
8.9867671460
20
17.2956032105
30
0.0000000000
10
8.9843771825
20
17.2631507067
30
0.0000000000
10
8.9738141816
20
17.2161526947
30
0.0000000000
10
8.9569095309
20
17.1725467481
30
0.0000000000
10
8.9345074199
20
17.1334983028
30
0.0000000000
10
8.9076567203
20
17.0999226130
30
0.0000000000
10
8.8773117690
20
17.0722429413
30
0.0000000000
10
8.8444320468
20
17.0507210016
30
0.0000000000
10
8.8097000530
20
17.0353545714
30
0.0000000000
10
8.7738784127
20
17.0261693063
30
0.0000000000
10
8.7495314810
20
17.0241292662
30
0.0000000000
10
8.7374901439
20
17.0241292662
30
0.0000000000
11
8.9867671460
21
17.3119646836
31
0.0000000000
11
8.9831447872
21
17.2630141093
31
0.0000000000
11
8.9725572829
21
17.2160760474
31
0.0000000000
11
8.9555827291
21
17.1724538304
31
0.0000000000
11
8.9332060432
21
17.1335903872
31
0.0000000000
11
8.9063648523
21
17.1001471132
31
0.0000000000
11
8.8762262352
21
17.0727522297
31
0.0000000000
11
8.8434796676
21
17.0513929948
31
0.0000000000
11
8.8091170292
21
17.0362413335
31
0.0000000000
11
8.7734885679
21
17.0271388610
31
0.0000000000
11
8.7374901439
21
17.0241292662
31
0.0000000000
0
SPLINE
5
403
100
AcDbEntity
8
0
100
AcDbSpline
62
9
6
CONTINUOUS
70
0
71
3
72
17
73
13
74
11
42
0.0000001000
43
0.0000001000
44
0.0000000001
12
-0.0012298291
22
-0.3661500354
32
0.0000000000
13
-0.3661509389
23
-0.0009224053
33
0.0000000000
40
0.0000000000
40
0.0000000000
40
0.0000000000
40
0.0000000000
40
0.0926637669
40
0.1861959939
40
0.2811621264
40
0.3780472439
40
0.4771141944
40
0.5784104998
40
0.6817687109
40
0.7868361684
40
0.8931123906
40
1.0000000000
40
1.0000000000
40
1.0000000000
40
1.0000000000
10
8.9823953120
20
17.7458171027
30
0.0000000000
10
8.9823573252
20
17.7345074888
30
0.0000000000
10
8.9802092573
20
17.7117367254
30
0.0000000000
10
8.9708746794
20
17.6785350524
30
0.0000000000
10
8.9556649313
20
17.6470053951
30
0.0000000000
10
8.9349790454
20
17.6179476541
30
0.0000000000
10
8.9093439410
20
17.5920620747
30
0.0000000000
10
8.8794006770
20
17.5699701237
30
0.0000000000
10
8.8458877779
20
17.5521964860
30
0.0000000000
10
8.8096214761
20
17.5391622190
30
0.0000000000
10
8.7714922929
20
17.5311755637
30
0.0000000000
10
8.7454452090
20
17.5293436163
30
0.0000000000
10
8.7323995428
20
17.5293107517
30
0.0000000000
11
8.9823953120
21
17.7458171027
31
0.0000000000
11
8.9792202523
21
17.7120369566
31
0.0000000000
11
8.9699896296
21
17.6790573556
31
0.0000000000
11
8.9549300056
21
17.6477156404
31
0.0000000000
11
8.9344091302
21
17.6187786873
31
0.0000000000
11
8.9089314409
21
17.5929589396
31
0.0000000000
11
8.8791218672
21
17.5708898058
31
0.0000000000
11
8.8457120398
21
17.5531130149
31
0.0000000000
11
8.8095217670
21
17.5400647725
31
0.0000000000
11
8.7714396080
21
17.5320653272
31
0.0000000000
11
8.7323995428
21
17.5293107517
31
0.0000000000
0
SPLINE
5
404
100
AcDbEntity
8
0
100
AcDbSpline
62
7
6
CONTINUOUS
70
0
71
3
72
17
73
13
74
11
42
0.0000001000
43
0.0000001000
44
0.0000000001
12
-0.4220147089
22
0.0000000000
32
0.0000000000
13
0.0000000000
23
0.4220147089
33
0.0000000000
40
0.0000000000
40
0.0000000000
40
0.0000000000
40
0.0000000000
40
0.0855989391
40
0.1727353490
40
0.2617246883
40
0.3543677482
40
0.4508775680
40
0.5524911396
40
0.6587554531
40
0.7696721429
40
0.8836902644
40
1.0000000000
40
1.0000000000
40
1.0000000000
40
1.0000000000
10
6.8360441481
20
17.0241292662
30
0.0000000000
10
6.8240028110
20
17.0241292662
30
0.0000000000
10
6.7996558793
20
17.0261693063
30
0.0000000000
10
6.7638342391
20
17.0353545714
30
0.0000000000
10
6.7291022452
20
17.0507210016
30
0.0000000000
10
6.6962225231
20
17.0722429413
30
0.0000000000
10
6.6658775717
20
17.0999226130
30
0.0000000000
10
6.6390268721
20
17.1334983028
30
0.0000000000
10
6.6166247611
20
17.1725467481
30
0.0000000000
10
6.5997201104
20
17.2161526947
30
0.0000000000
10
6.5891571095
20
17.2631507067
30
0.0000000000
10
6.5867671460
20
17.2956032105
30
0.0000000000
10
6.5867671460
20
17.3119646836
30
0.0000000000
11
6.8360441481
21
17.0241292662
31
0.0000000000
11
6.8000457241
21
17.0271388610
31
0.0000000000
11
6.7644172629
21
17.0362413335
31
0.0000000000
11
6.7300546244
21
17.0513929948
31
0.0000000000
11
6.6973080568
21
17.0727522297
31
0.0000000000
11
6.6671694397
21
17.1001471132
31
0.0000000000
11
6.6403282489
21
17.1335903872
31
0.0000000000
11
6.6179515629
21
17.1724538304
31
0.0000000000
11
6.6009770091
21
17.2160760474
31
0.0000000000
11
6.5903895049
21
17.2630141093
31
0.0000000000
11
6.5867671460
21
17.3119646836
31
0.0000000000
0
SPLINE
5
405
100
AcDbEntity
8
0
100
AcDbSpline
62
9
6
CONTINUOUS
70
0
71
3
72
17
73
13
74
11
42
0.0000001000
43
0.0000001000
44
0.0000000001
12
0.0012298290
22
-0.3661500127
32
0.0000000000
13
0.3661509162
23
-0.0009224053
33
0.0000000000
40
0.0000000000
40
0.0000000000
40
0.0000000000
40
0.0000000000
40
0.0927409810
40
0.1862742706
40
0.2812426722
40
0.3781228716
40
0.4771847111
40
0.5784746944
40
0.6818263867
40
0.7868857196
40
0.8931548188
40
1.0000000000
40
1.0000000000
40
1.0000000000
40
1.0000000000
10
6.5911389800
20
17.7458171027
30
0.0000000000
10
6.5911769985
20
17.7344980656
30
0.0000000000
10
6.5933277327
20
17.7117176278
30
0.0000000000
10
6.6026699116
20
17.6785078813
30
0.0000000000
10
6.6178841305
20
17.6469805943
30
0.0000000000
10
6.6385733237
20
17.6179264267
30
0.0000000000
10
6.6642100165
20
17.5920452859
30
0.0000000000
10
6.6941537049
20
17.5699576709
30
0.0000000000
10
6.7276658327
20
17.5521881168
30
0.0000000000
10
6.7639305303
20
17.5391573591
30
0.0000000000
10
6.8020532681
20
17.5311744200
30
0.0000000000
10
6.8280942622
20
17.5293436033
30
0.0000000000
10
6.8411347492
20
17.5293107517
30
0.0000000000
11
6.5911389800
21
17.7458171027
31
0.0000000000
11
6.5943192256
21
17.7120090495
31
0.0000000000
11
6.6035548286
21
17.6790304411
31
0.0000000000
11
6.6186193335
21
17.6476901522
31
0.0000000000
11
6.6391430350
21
17.6187574139
31
0.0000000000
11
6.6646224304
21
17.5929419822
31
0.0000000000
11
6.6944323694
21
17.5708772365
31
0.0000000000
11
6.7278416156
21
17.5531044401
31
0.0000000000
11
6.7640300271
21
17.5400598133
31
0.0000000000
11
6.8021101086
21
17.5320631768
31
0.0000000000
11
6.8411347492
21
17.5293107517
31
0.0000000000
0
SPLINE
5
406
100
AcDbEntity
8
0
100
AcDbSpline
62
9
6
CONTINUOUS
70
0
71
3
72
17
73
13
74
11
42
0.0000001000
43
0.0000001000
44
0.0000000001
12
0.0000132773
22
0.3922846478
32
0.0000000000
13
0.3922846478
23
0.0000132773
33
0.0000000000
40
0.0000000000
40
0.0000000000
40
0.0000000000
40
0.0000000000
40
0.1000212882
40
0.2000437058
40
0.3000663194
40
0.4000887329
40
0.5001106882
40
0.6001308622
40
0.7001516800
40
0.8001640015
40
0.9001760606
40
1.0000000000
40
1.0000000000
40
1.0000000000
40
1.0000000000
10
6.5911389800
20
18.1471119322
30
0.0000000000
10
6.5911394227
20
18.1601908708
30
0.0000000000
10
6.5932015215
20
18.1863953018
30
0.0000000000
10
6.6024020737
20
18.2246969634
30
0.0000000000
10
6.6174833950
20
18.2610973937
30
0.0000000000
10
6.6380738856
20
18.2946871633
30
0.0000000000
10
6.6636660651
20
18.3246421381
30
0.0000000000
10
6.6936297527
20
18.3502237794
30
0.0000000000
10
6.7272250850
20
18.3708017622
30
0.0000000000
10
6.7636278112
20
18.3858697568
30
0.0000000000
10
6.8019046272
20
18.3950514137
30
0.0000000000
10
6.8280816163
20
18.3971072596
30
0.0000000000
10
6.8411347492
20
18.3971077014
30
0.0000000000
11
6.5911389800
21
18.1471119322
31
0.0000000000
11
6.5942193952
21
18.1862276421
31
0.0000000000
11
6.6033821885
21
18.2243800431
31
0.0000000000
11
6.6184016074
21
18.2606289821
31
0.0000000000
11
6.6389075692
21
18.2940814541
31
0.0000000000
11
6.6643948380
21
18.3239134400
31
0.0000000000
11
6.6942351355
21
18.3493899010
31
0.0000000000
11
6.7276941335
21
18.3698840145
31
0.0000000000
11
6.7639443718
21
18.3848897441
31
0.0000000000
11
6.8020957403
21
18.3940394273
31
0.0000000000
11
6.8411347492
21
18.3971077014
31
0.0000000000
0
SPLINE
5
407
100
AcDbEntity
8
0
100
AcDbSpline
62
7
6
CONTINUOUS
70
0
71
3
72
16
73
12
74
10
42
0.0000001000
43
0.0000001000
44
0.0000000001
12
0.0000000000
22
-0.2000114910
32
0.0000000000
13
-0.2000114910
23
0.0000000000
33
0.0000000000
40
0.0000000000
40
0.0000000000
40
0.0000000000
40
0.0000000000
40
0.1735658062
40
0.3421748629
40
0.4998014329
40
0.6429362950
40
0.7658445377
40
0.8660776688
40
0.9395864623
40
0.9847872631
40
1.0000000000
40
1.0000000000
40
1.0000000000
40
1.0000000000
10
-8.9841770413
20
13.4014795354
30
0.0000000000
10
-8.9841770413
20
13.3899078168
30
0.0000000000
10
-8.9841871795
20
13.3670933620
30
0.0000000000
10
-8.9842438686
20
13.3337777680
30
0.0000000000
10
-8.9843088072
20
13.3024635650
30
0.0000000000
10
-8.9844802643
20
13.2742850862
30
0.0000000000
10
-8.9844429672
20
13.2496645771
30
0.0000000000
10
-8.9850779390
20
13.2304351887
30
0.0000000000
10
-8.9841224585
20
13.2145492810
30
0.0000000000
10
-8.9863139448
20
13.2079472557
30
0.0000000000
10
-8.9843263665
20
13.2014795354
30
0.0000000000
10
-8.9853406073
20
13.2014795354
30
0.0000000000
11
-8.9841770413
21
13.4014795354
31
0.0000000000
11
-8.9841947036
21
13.3667643842
31
0.0000000000
11
-8.9842472867
21
13.3330406764
31
0.0000000000
11
-8.9843328150
21
13.3015136671
31
0.0000000000
11
-8.9844494434
21
13.2728852875
31
0.0000000000
11
-8.9845924597
21
13.2483026426
31
0.0000000000
11
-8.9847590148
21
13.2282555565
31
0.0000000000
11
-8.9849424352
21
13.2135540973
31
0.0000000000
11
-8.9851386366
21
13.2045155470
31
0.0000000000
11
-8.9853406073
21
13.2014795354
31
0.0000000000
0
SPLINE
5
408
100
AcDbEntity
8
0
100
AcDbSpline
62
7
6
CONTINUOUS
70
0
71
3
72
16
73
12
74
10
42
0.0000001000
43
0.0000001000
44
0.0000000001
12
-0.2001028891
22
0.0000000000
32
0.0000000000
13
0.0000000000
23
0.2001028891
33
0.0000000000
40
0.0000000000
40
0.0000000000
40
0.0000000000
40
0.0000000000
40
0.0154738234
40
0.0607448190
40
0.1342737310
40
0.2344961021
40
0.3573693143
40
0.5004482257
40
0.6580018494
40
0.8265264012
40
1.0000000000
40
1.0000000000
40
1.0000000000
40
1.0000000000
10
-11.2469036073
20
13.2014795354
30
0.0000000000
10
-11.2479357262
20
13.2014795354
30
0.0000000000
10
-11.2468504125
20
13.2078657202
30
0.0000000000
10
-11.2487717377
20
13.2145868519
30
0.0000000000
10
-11.2484894413
20
13.2304168248
30
0.0000000000
10
-11.2492967474
20
13.2496747546
30
0.0000000000
10
-11.2495878087
20
13.2742870296
30
0.0000000000
10
-11.2499667725
20
13.3024690074
30
0.0000000000
10
-11.2502039598
20
13.3337814332
30
0.0000000000
10
-11.2503612312
20
13.3670956440
30
0.0000000000
10
-11.2503946202
20
13.3899086793
30
0.0000000000
10
-11.2503946202
20
13.4014795354
30
0.0000000000
11
-11.2469036073
21
13.2014795354
31
0.0000000000
11
-11.2475096197
21
13.2045160094
31
0.0000000000
11
-11.2480983091
21
13.2135557182
31
0.0000000000
11
-11.2486486395
21
13.2282587702
31
0.0000000000
11
-11.2491483500
21
13.2483073295
31
0.0000000000
11
-11.2495774221
21
13.2728908701
31
0.0000000000
11
-11.2499273132
21
13.3015192356
31
0.0000000000
11
-11.2501838933
21
13.3330451268
31
0.0000000000
11
-11.2503416365
21
13.3667670075
31
0.0000000000
11
-11.2503946202
21
13.4014795354
31
0.0000000000
0
SPLINE
5
409
100
AcDbEntity
8
0
100
AcDbSpline
62
7
6
CONTINUOUS
70
0
71
3
72
16
73
12
74
10
42
0.0000001000
43
0.0000001000
44
0.0000000001
12
-0.2000114910
22
0.0000000000
32
0.0000000000
13
-0.0000000000
23
0.2000114910
33
0.0000000000
40
0.0000000000
40
0.0000000000
40
0.0000000000
40
0.0000000000
40
0.0152127369
40
0.0604135377
40
0.1339223312
40
0.2341554623
40
0.3570637050
40
0.5001985671
40
0.6578251371
40
0.8264341938
40
1.0000000000
40
1.0000000000
40
1.0000000000
40
1.0000000000
10
-8.1411251007
20
13.2014795354
30
0.0000000000
10
-8.1421393414
20
13.2014795354
30
0.0000000000
10
-8.1401517632
20
13.2079472557
30
0.0000000000
10
-8.1423432494
20
13.2145492810
30
0.0000000000
10
-8.1413877689
20
13.2304351887
30
0.0000000000
10
-8.1420227408
20
13.2496645771
30
0.0000000000
10
-8.1419854436
20
13.2742850862
30
0.0000000000
10
-8.1421569008
20
13.3024635650
30
0.0000000000
10
-8.1422218393
20
13.3337777680
30
0.0000000000
10
-8.1422785285
20
13.3670933620
30
0.0000000000
10
-8.1422886667
20
13.3899078168
30
0.0000000000
10
-8.1422886667
20
13.4014795354
30
0.0000000000
11
-8.1411251007
21
13.2014795354
31
0.0000000000
11
-8.1413270714
21
13.2045155470
31
0.0000000000
11
-8.1415232728
21
13.2135540973
31
0.0000000000
11
-8.1417066932
21
13.2282555565
31
0.0000000000
11
-8.1418732483
21
13.2483026426
31
0.0000000000
11
-8.1420162646
21
13.2728852875
31
0.0000000000
11
-8.1421328930
21
13.3015136671
31
0.0000000000
11
-8.1422184213
21
13.3330406764
31
0.0000000000
11
-8.1422710043
21
13.3667643842
31
0.0000000000
11
-8.1422886667
21
13.4014795354
31
0.0000000000
0
SPLINE
5
40A
100
AcDbEntity
8
0
100
AcDbSpline
62
7
6
CONTINUOUS
70
0
71
3
72
16
73
12
74
10
42
0.0000001000
43
0.0000001000
44
0.0000000001
12
0.0000000000
22
-0.2000114910
32
0.0000000000
13
-0.2000114910
23
0.0000000000
33
0.0000000000
40
0.0000000000
40
0.0000000000
40
0.0000000000
40
0.0000000000
40
0.1735658062
40
0.3421748629
40
0.4998014329
40
0.6429362950
40
0.7658445377
40
0.8660776688
40
0.9395864623
40
0.9847872631
40
1.0000000000
40
1.0000000000
40
1.0000000000
40
1.0000000000
10
4.8158229587
20
13.4014795354
30
0.0000000000
10
4.8158229587
20
13.3899078168
30
0.0000000000
10
4.8158128205
20
13.3670933620
30
0.0000000000
10
4.8157561314
20
13.3337777680
30
0.0000000000
10
4.8156911928
20
13.3024635650
30
0.0000000000
10
4.8155197357
20
13.2742850862
30
0.0000000000
10
4.8155570328
20
13.2496645771
30
0.0000000000
10
4.8149220610
20
13.2304351887
30
0.0000000000
10
4.8158775415
20
13.2145492810
30
0.0000000000
10
4.8136860552
20
13.2079472557
30
0.0000000000
10
4.8156736335
20
13.2014795354
30
0.0000000000
10
4.8146593927
20
13.2014795354
30
0.0000000000
11
4.8158229587
21
13.4014795354
31
0.0000000000
11
4.8158052964
21
13.3667643842
31
0.0000000000
11
4.8157527133
21
13.3330406764
31
0.0000000000
11
4.8156671850
21
13.3015136671
31
0.0000000000
11
4.8155505566
21
13.2728852875
31
0.0000000000
11
4.8154075403
21
13.2483026426
31
0.0000000000
11
4.8152409852
21
13.2282555565
31
0.0000000000
11
4.8150575648
21
13.2135540973
31
0.0000000000
11
4.8148613634
21
13.2045155470
31
0.0000000000
11
4.8146593927
21
13.2014795354
31
0.0000000000
0
SPLINE
5
40B
100
AcDbEntity
8
0
100
AcDbSpline
62
7
6
CONTINUOUS
70
0
71
3
72
16
73
12
74
10
42
0.0000001000
43
0.0000001000
44
0.0000000001
12
0.0000000000
22
-0.2001028891
32
0.0000000000
13
-0.2001028891
23
0.0000000000
33
0.0000000000
40
0.0000000000
40
0.0000000000
40
0.0000000000
40
0.0000000000
40
0.1734735988
40
0.3419981506
40
0.4995517743
40
0.6426306857
40
0.7655038979
40
0.8657262690
40
0.9392551810
40
0.9845261766
40
1.0000000000
40
1.0000000000
40
1.0000000000
40
1.0000000000
10
7.9239289123
20
13.4014795354
30
0.0000000000
10
7.9239289123
20
13.3899086793
30
0.0000000000
10
7.9238955232
20
13.3670956440
30
0.0000000000
10
7.9237382518
20
13.3337814332
30
0.0000000000
10
7.9235010646
20
13.3024690074
30
0.0000000000
10
7.9231221007
20
13.2742870296
30
0.0000000000
10
7.9228310395
20
13.2496747546
30
0.0000000000
10
7.9220237333
20
13.2304168248
30
0.0000000000
10
7.9223060298
20
13.2145868519
30
0.0000000000
10
7.9203847045
20
13.2078657202
30
0.0000000000
10
7.9214700182
20
13.2014795354
30
0.0000000000
10
7.9204378993
20
13.2014795354
30
0.0000000000
11
7.9239289123
21
13.4014795354
31
0.0000000000
11
7.9238759286
21
13.3667670075
31
0.0000000000
11
7.9237181854
21
13.3330451268
31
0.0000000000
11
7.9234616052
21
13.3015192356
31
0.0000000000
11
7.9231117142
21
13.2728908701
31
0.0000000000
11
7.9226826420
21
13.2483073295
31
0.0000000000
11
7.9221829315
21
13.2282587702
31
0.0000000000
11
7.9216326011
21
13.2135557182
31
0.0000000000
11
7.9210439117
21
13.2045160094
31
0.0000000000
11
7.9204378993
21
13.2014795354
31
0.0000000000
0
SPLINE
5
40C
100
AcDbEntity
8
0
100
AcDbSpline
62
7
6
CONTINUOUS
70
0
71
3
72
16
73
12
74
10
42
0.0000001000
43
0.0000001000
44
0.0000000001
12
-0.2000114910
22
0.0000000000
32
0.0000000000
13
0.0000000000
23
0.2000114910
33
0.0000000000
40
0.0000000000
40
0.0000000000
40
0.0000000000
40
0.0000000000
40
0.0152127369
40
0.0604135377
40
0.1339223312
40
0.2341554623
40
0.3570637050
40
0.5001985671
40
0.6578251371
40
0.8264341938
40
1.0000000000
40
1.0000000000
40
1.0000000000
40
1.0000000000
10
5.6588748993
20
13.2014795354
30
0.0000000000
10
5.6578606586
20
13.2014795354
30
0.0000000000
10
5.6598482368
20
13.2079472557
30
0.0000000000
10
5.6576567506
20
13.2145492810
30
0.0000000000
10
5.6586122311
20
13.2304351887
30
0.0000000000
10
5.6579772592
20
13.2496645771
30
0.0000000000
10
5.6580145564
20
13.2742850862
30
0.0000000000
10
5.6578430992
20
13.3024635650
30
0.0000000000
10
5.6577781607
20
13.3337777680
30
0.0000000000
10
5.6577214715
20
13.3670933620
30
0.0000000000
10
5.6577113333
20
13.3899078168
30
0.0000000000
10
5.6577113333
20
13.4014795354
30
0.0000000000
11
5.6588748993
21
13.2014795354
31
0.0000000000
11
5.6586729286
21
13.2045155470
31
0.0000000000
11
5.6584767272
21
13.2135540973
31
0.0000000000
11
5.6582933068
21
13.2282555565
31
0.0000000000
11
5.6581267517
21
13.2483026426
31
0.0000000000
11
5.6579837354
21
13.2728852875
31
0.0000000000
11
5.6578671070
21
13.3015136671
31
0.0000000000
11
5.6577815787
21
13.3330406764
31
0.0000000000
11
5.6577289957
21
13.3667643842
31
0.0000000000
11
5.6577113333
21
13.4014795354
31
0.0000000000
0
SPLINE
5
40D
100
AcDbEntity
8
0
100
AcDbSpline
62
9
6
CONTINUOUS
70
0
71
3
72
14
73
10
74
8
42
0.0000001000
43
0.0000001000
44
0.0000000001
12
0.0000000000
22
-0.4538522552
32
0.0000000000
13
0.3870667462
23
-0.2376792810
33
0.0000000000
40
0.0000000000
40
0.0000000000
40
0.0000000000
40
0.0000000000
40
0.1425376238
40
0.2856945589
40
0.4300325016
40
0.5760053350
40
0.7239219867
40
0.8739252007
40
1.0000000000
40
1.0000000000
40
1.0000000000
40
1.0000000000
10
-5.6632328540
20
4.4765257650
30
0.0000000000
10
-5.6632328540
20
4.4549620910
30
0.0000000000
10
-5.6598108983
20
4.4116643862
30
0.0000000000
10
-5.6445328503
20
4.3481669364
30
0.0000000000
10
-5.6194310053
20
4.2873014097
30
0.0000000000
10
-5.5850350770
20
4.2303344570
30
0.0000000000
10
-5.5420638610
20
4.1784174782
30
0.0000000000
10
-5.4943321617
20
4.1352451029
30
0.0000000000
10
-5.4599490889
20
4.1113555793
30
0.0000000000
10
-5.4436826348
20
4.1013671234
30
0.0000000000
11
-5.6632328540
21
4.4765257650
31
0.0000000000
11
-5.6581435749
21
4.4120352420
31
0.0000000000
11
-5.6429793408
21
4.3488575600
31
0.0000000000
11
-5.6180488517
21
4.2882788345
31
0.0000000000
11
-5.5838596204
21
4.2315322736
31
0.0000000000
11
-5.5411076412
21
4.1797730737
31
0.0000000000
11
-5.4906632210
21
4.1340549029
31
0.0000000000
11
-5.4436826348
21
4.1013671234
31
0.0000000000
0
SPLINE
5
40E
100
AcDbEntity
8
0
100
AcDbSpline
62
9
6
CONTINUOUS
70
0
71
3
72
14
73
10
74
8
42
0.0000001000
43
0.0000001000
44
0.0000000001
12
0.3870665117
22
0.2376791370
32
0.0000000000
13
0.0000003054
23
0.4538519872
33
0.0000000000
40
0.0000000000
40
0.0000000000
40
0.0000000000
40
0.0000000000
40
0.1260748757
40
0.2760781805
40
0.4239949218
40
0.5699678436
40
0.7143058737
40
0.8574628955
40
1.0000000000
40
1.0000000000
40
1.0000000000
40
1.0000000000
10
-4.8827830732
20
4.1013671234
30
0.0000000000
10
-4.8665166191
20
4.1113555793
30
0.0000000000
10
-4.8321335462
20
4.1352451029
30
0.0000000000
10
-4.7844018469
20
4.1784174782
30
0.0000000000
10
-4.7414306309
20
4.2303344570
30
0.0000000000
10
-4.7070347026
20
4.2873014097
30
0.0000000000
10
-4.6819328576
20
4.3481669364
30
0.0000000000
10
-4.6666548312
20
4.4116642968
30
0.0000000000
10
-4.6632328685
20
4.4549619075
30
0.0000000000
10
-4.6632328540
20
4.4765254902
30
0.0000000000
11
-4.8827830732
21
4.1013671234
31
0.0000000000
11
-4.8358024870
21
4.1340549029
31
0.0000000000
11
-4.7853580668
21
4.1797730737
31
0.0000000000
11
-4.7426060876
21
4.2315322736
31
0.0000000000
11
-4.7084168563
21
4.2882788345
31
0.0000000000
11
-4.6834863672
21
4.3488575600
31
0.0000000000
11
-4.6683221330
21
4.4120352420
31
0.0000000000
11
-4.6632328540
21
4.4765254902
31
0.0000000000
0
SPLINE
5
40F
100
AcDbEntity
8
0
100
AcDbSpline
62
7
6
CONTINUOUS
70
0
71
3
72
16
73
12
74
10
42
0.0000001000
43
0.0000001000
44
0.0000000001
12
0.2000258337
22
0.0000000000
32
0.0000000000
13
0.0000000000
23
-0.2000258337
33
0.0000000000
40
0.0000000000
40
0.0000000000
40
0.0000000000
40
0.0000000000
40
0.1735513396
40
0.3421471353
40
0.4997622544
40
0.6428883268
40
0.7657910559
40
0.8660224742
40
0.9395343907
40
0.9847461584
40
1.0000000000
40
1.0000000000
40
1.0000000000
40
1.0000000000
10
2.6367671460
20
13.9014795354
30
0.0000000000
10
2.6483387298
20
13.9014795354
30
0.0000000000
10
2.6711529625
20
13.9014635819
30
0.0000000000
10
2.7044683418
20
13.9013817565
30
0.0000000000
10
2.7357822627
20
13.9012737226
30
0.0000000000
10
2.7639613022
20
13.9010504973
30
0.0000000000
10
2.7885804834
20
13.9010053937
30
0.0000000000
10
2.8078144432
20
13.9003282218
30
0.0000000000
10
2.8236913542
20
13.9011133734
30
0.0000000000
10
2.8303124316
20
13.8989935166
30
0.0000000000
10
2.8367671460
20
13.9007512160
30
0.0000000000
10
2.8367671460
20
13.8997341618
30
0.0000000000
11
2.6367671460
21
13.9014795354
31
0.0000000000
11
2.6714818873
21
13.9014530422
31
0.0000000000
11
2.7052053097
21
13.9013741680
31
0.0000000000
11
2.7367321443
21
13.9012458760
31
0.0000000000
11
2.7653605217
21
13.9010709329
31
0.0000000000
11
2.7899433065
21
13.9008564066
31
0.0000000000
11
2.8099906228
21
13.9006065705
31
0.0000000000
11
2.8246923309
21
13.9003314345
31
0.0000000000
11
2.8337310622
21
13.9000371257
31
0.0000000000
11
2.8367671460
21
13.8997341618
31
0.0000000000
0
SPLINE
5
410
100
AcDbEntity
8
0
100
AcDbSpline
62
9
6
CONTINUOUS
70
0
71
3
72
17
73
13
74
11
42
0.0000001000
43
0.0000001000
44
0.0000000001
12
0.3922846482
22
-0.0000132773
32
0.0000000000
13
0.0000132773
23
-0.3922846482
33
0.0000000000
40
0.0000000000
40
0.0000000000
40
0.0000000000
40
0.0000000000
40
0.0999991830
40
0.1999988695
40
0.2999989843
40
0.3999994104
40
0.5000000000
40
0.6000005896
40
0.7000010157
40
0.8000011305
40
0.9000008170
40
1.0000000000
40
1.0000000000
40
1.0000000000
40
1.0000000000
10
-10.1676004572
20
18.3971077014
30
0.0000000000
10
-10.1545244091
20
18.3971072588
30
0.0000000000
10
-10.1283258717
20
18.3950460813
30
0.0000000000
10
-10.0900323889
20
18.3858496288
30
0.0000000000
10
-10.0536388500
20
18.3707749263
30
0.0000000000
10
-10.0200539748
20
18.3501931319
30
0.0000000000
10
-9.9901013088
20
18.3246110806
30
0.0000000000
10
-9.9645192575
20
18.2946584146
30
0.0000000000
10
-9.9439374631
20
18.2610735394
30
0.0000000000
10
-9.9288627606
20
18.2246800005
30
0.0000000000
10
-9.9196663081
20
18.1863865177
30
0.0000000000
10
-9.9176051306
20
18.1601879803
30
0.0000000000
10
-9.9176046880
20
18.1471119322
30
0.0000000000
11
-10.1676004572
21
18.3971077014
31
0.0000000000
11
-10.1284933385
21
18.3940286474
31
0.0000000000
11
-10.0903491254
21
18.3848699458
31
0.0000000000
11
-10.0541070147
21
18.3698571047
31
0.0000000000
11
-10.0206593690
21
18.3493597740
31
0.0000000000
11
-9.9908297450
21
18.3238826444
31
0.0000000000
11
-9.9653526154
21
18.2940530204
31
0.0000000000
11
-9.9448552847
21
18.2606053747
31
0.0000000000
11
-9.9298424436
21
18.2243632640
31
0.0000000000
11
-9.9206837420
21
18.1862190509
31
0.0000000000
11
-9.9176046880
21
18.1471119322
31
0.0000000000
0
SPLINE
5
411
100
AcDbEntity
8
0
100
AcDbSpline
62
7
6
CONTINUOUS
70
0
71
3
72
17
73
13
74
11
42
0.0000001000
43
0.0000001000
44
0.0000000001
12
0.0000000000
22
-0.4220147089
32
0.0000000000
13
-0.4220147089
23
-0.0000000000
33
0.0000000000
40
0.0000000000
40
0.0000000000
40
0.0000000000
40
0.0000000000
40
0.1163097356
40
0.2303278571
40
0.3412445469
40
0.4475088604
40
0.5491224320
40
0.6456322518
40
0.7382753117
40
0.8272646510
40
0.9144010609
40
1.0000000000
40
1.0000000000
40
1.0000000000
40
1.0000000000
10
-9.9132328540
20
17.3119646836
30
0.0000000000
10
-9.9132328540
20
17.2956032105
30
0.0000000000
10
-9.9156228175
20
17.2631507067
30
0.0000000000
10
-9.9261858184
20
17.2161526947
30
0.0000000000
10
-9.9430904691
20
17.1725467481
30
0.0000000000
10
-9.9654925801
20
17.1334983028
30
0.0000000000
10
-9.9923432797
20
17.0999226130
30
0.0000000000
10
-10.0226882310
20
17.0722429413
30
0.0000000000
10
-10.0555679532
20
17.0507210016
30
0.0000000000
10
-10.0902999470
20
17.0353545714
30
0.0000000000
10
-10.1261215873
20
17.0261693063
30
0.0000000000
10
-10.1504685190
20
17.0241292662
30
0.0000000000
10
-10.1625098561
20
17.0241292662
30
0.0000000000
11
-9.9132328540
21
17.3119646836
31
0.0000000000
11
-9.9168552128
21
17.2630141093
31
0.0000000000
11
-9.9274427171
21
17.2160760474
31
0.0000000000
11
-9.9444172709
21
17.1724538304
31
0.0000000000
11
-9.9667939568
21
17.1335903872
31
0.0000000000
11
-9.9936351477
21
17.1001471132
31
0.0000000000
11
-10.0237737648
21
17.0727522297
31
0.0000000000
11
-10.0565203324
21
17.0513929948
31
0.0000000000
11
-10.0908829708
21
17.0362413335
31
0.0000000000
11
-10.1265114321
21
17.0271388610
31
0.0000000000
11
-10.1625098561
21
17.0241292662
31
0.0000000000
0
SPLINE
5
412
100
AcDbEntity
8
0
100
AcDbSpline
62
9
6
CONTINUOUS
70
0
71
3
72
17
73
13
74
11
42
0.0000001000
43
0.0000001000
44
0.0000000001
12
-0.0012298291
22
-0.3661500354
32
0.0000000000
13
-0.3661509389
23
-0.0009224053
33
0.0000000000
40
0.0000000000
40
0.0000000000
40
0.0000000000
40
0.0000000000
40
0.0926637669
40
0.1861959939
40
0.2811621264
40
0.3780472439
40
0.4771141944
40
0.5784104998
40
0.6817687109
40
0.7868361684
40
0.8931123906
40
1.0000000000
40
1.0000000000
40
1.0000000000
40
1.0000000000
10
-9.9176046880
20
17.7458171027
30
0.0000000000
10
-9.9176426748
20
17.7345074888
30
0.0000000000
10
-9.9197907427
20
17.7117367254
30
0.0000000000
10
-9.9291253206
20
17.6785350524
30
0.0000000000
10
-9.9443350687
20
17.6470053951
30
0.0000000000
10
-9.9650209546
20
17.6179476541
30
0.0000000000
10
-9.9906560590
20
17.5920620747
30
0.0000000000
10
-10.0205993230
20
17.5699701237
30
0.0000000000
10
-10.0541122221
20
17.5521964860
30
0.0000000000
10
-10.0903785239
20
17.5391622190
30
0.0000000000
10
-10.1285077071
20
17.5311755637
30
0.0000000000
10
-10.1545547910
20
17.5293436163
30
0.0000000000
10
-10.1676004572
20
17.5293107517
30
0.0000000000
11
-9.9176046880
21
17.7458171027
31
0.0000000000
11
-9.9207797477
21
17.7120369566
31
0.0000000000
11
-9.9300103704
21
17.6790573556
31
0.0000000000
11
-9.9450699944
21
17.6477156404
31
0.0000000000
11
-9.9655908698
21
17.6187786873
31
0.0000000000
11
-9.9910685591
21
17.5929589396
31
0.0000000000
11
-10.0208781328
21
17.5708898058
31
0.0000000000
11
-10.0542879602
21
17.5531130149
31
0.0000000000
11
-10.0904782330
21
17.5400647725
31
0.0000000000
11
-10.1285603920
21
17.5320653272
31
0.0000000000
11
-10.1676004572
21
17.5293107517
31
0.0000000000
0
SPLINE
5
413
100
AcDbEntity
8
0
100
AcDbSpline
62
9
6
CONTINUOUS
70
0
71
3
72
17
73
13
74
11
42
0.0000001000
43
0.0000001000
44
0.0000000001
12
0.0012298291
22
-0.3661500354
32
0.0000000000
13
0.3661509389
23
-0.0009224053
33
0.0000000000
40
0.0000000000
40
0.0000000000
40
0.0000000000
40
0.0000000000
40
0.0926637669
40
0.1861959939
40
0.2811621264
40
0.3780472439
40
0.4771141944
40
0.5784104998
40
0.6817687109
40
0.7868361684
40
0.8931123906
40
1.0000000000
40
1.0000000000
40
1.0000000000
40
1.0000000000
10
-12.3088610200
20
17.7458171027
30
0.0000000000
10
-12.3088230331
20
17.7345074888
30
0.0000000000
10
-12.3066749652
20
17.7117367254
30
0.0000000000
10
-12.2973403873
20
17.6785350524
30
0.0000000000
10
-12.2821306393
20
17.6470053951
30
0.0000000000
10
-12.2614447533
20
17.6179476541
30
0.0000000000
10
-12.2358096490
20
17.5920620747
30
0.0000000000
10
-12.2058663849
20
17.5699701237
30
0.0000000000
10
-12.1723534858
20
17.5521964860
30
0.0000000000
10
-12.1360871841
20
17.5391622190
30
0.0000000000
10
-12.0979580009
20
17.5311755637
30
0.0000000000
10
-12.0719109169
20
17.5293436163
30
0.0000000000
10
-12.0588652508
20
17.5293107517
30
0.0000000000
11
-12.3088610200
21
17.7458171027
31
0.0000000000
11
-12.3056859603
21
17.7120369566
31
0.0000000000
11
-12.2964553376
21
17.6790573556
31
0.0000000000
11
-12.2813957136
21
17.6477156404
31
0.0000000000
11
-12.2608748382
21
17.6187786873
31
0.0000000000
11
-12.2353971488
21
17.5929589396
31
0.0000000000
11
-12.2055875752
21
17.5708898058
31
0.0000000000
11
-12.1721777477
21
17.5531130149
31
0.0000000000
11
-12.1359874750
21
17.5400647725
31
0.0000000000
11
-12.0979053160
21
17.5320653272
31
0.0000000000
11
-12.0588652508
21
17.5293107517
31
0.0000000000
0
SPLINE
5
414
100
AcDbEntity
8
0
100
AcDbSpline
62
7
6
CONTINUOUS
70
0
71
3
72
17
73
13
74
11
42
0.0000001000
43
0.0000001000
44
0.0000000001
12
-0.4220147089
22
0.0000000000
32
0.0000000000
13
0.0000000000
23
0.4220147089
33
0.0000000000
40
0.0000000000
40
0.0000000000
40
0.0000000000
40
0.0000000000
40
0.0855989391
40
0.1727353490
40
0.2617246883
40
0.3543677482
40
0.4508775680
40
0.5524911396
40
0.6587554531
40
0.7696721429
40
0.8836902644
40
1.0000000000
40
1.0000000000
40
1.0000000000
40
1.0000000000
10
-12.0639558519
20
17.0241292662
30
0.0000000000
10
-12.0759971890
20
17.0241292662
30
0.0000000000
10
-12.1003441207
20
17.0261693063
30
0.0000000000
10
-12.1361657609
20
17.0353545714
30
0.0000000000
10
-12.1708977548
20
17.0507210016
30
0.0000000000
10
-12.2037774769
20
17.0722429413
30
0.0000000000
10
-12.2341224283
20
17.0999226130
30
0.0000000000
10
-12.2609731279
20
17.1334983028
30
0.0000000000
10
-12.2833752389
20
17.1725467481
30
0.0000000000
10
-12.3002798896
20
17.2161526947
30
0.0000000000
10
-12.3108428905
20
17.2631507067
30
0.0000000000
10
-12.3132328540
20
17.2956032105
30
0.0000000000
10
-12.3132328540
20
17.3119646836
30
0.0000000000
11
-12.0639558519
21
17.0241292662
31
0.0000000000
11
-12.0999542759
21
17.0271388610
31
0.0000000000
11
-12.1355827371
21
17.0362413335
31
0.0000000000
11
-12.1699453756
21
17.0513929948
31
0.0000000000
11
-12.2026919432
21
17.0727522297
31
0.0000000000
11
-12.2328305603
21
17.1001471132
31
0.0000000000
11
-12.2596717511
21
17.1335903872
31
0.0000000000
11
-12.2820484371
21
17.1724538304
31
0.0000000000
11
-12.2990229909
21
17.2160760474
31
0.0000000000
11
-12.3096104951
21
17.2630141093
31
0.0000000000
11
-12.3132328540
21
17.3119646836
31
0.0000000000
0
SPLINE
5
415
100
AcDbEntity
8
0
100
AcDbSpline
62
9
6
CONTINUOUS
70
0
71
3
72
17
73
13
74
11
42
0.0000001000
43
0.0000001000
44
0.0000000001
12
0.0000132773
22
0.3922846482
32
0.0000000000
13
0.3922846482
23
0.0000132773
33
0.0000000000
40
0.0000000000
40
0.0000000000
40
0.0000000000
40
0.0000000000
40
0.0999991830
40
0.1999988695
40
0.2999989843
40
0.3999994104
40
0.5000000000
40
0.6000005896
40
0.7000010157
40
0.8000011305
40
0.9000008170
40
1.0000000000
40
1.0000000000
40
1.0000000000
40
1.0000000000
10
-12.3088610200
20
18.1471119322
30
0.0000000000
10
-12.3088605774
20
18.1601879803
30
0.0000000000
10
-12.3067993999
20
18.1863865177
30
0.0000000000
10
-12.2976029473
20
18.2246800005
30
0.0000000000
10
-12.2825282449
20
18.2610735394
30
0.0000000000
10
-12.2619464505
20
18.2946584146
30
0.0000000000
10
-12.2363643991
20
18.3246110806
30
0.0000000000
10
-12.2064117332
20
18.3501931319
30
0.0000000000
10
-12.1728268579
20
18.3707749263
30
0.0000000000
10
-12.1364333191
20
18.3858496288
30
0.0000000000
10
-12.0981398363
20
18.3950460813
30
0.0000000000
10
-12.0719412989
20
18.3971072588
30
0.0000000000
10
-12.0588652508
20
18.3971077014
30
0.0000000000
11
-12.3088610200
21
18.1471119322
31
0.0000000000
11
-12.3057819660
21
18.1862190509
31
0.0000000000
11
-12.2966232644
21
18.2243632640
31
0.0000000000
11
-12.2816104233
21
18.2606053747
31
0.0000000000
11
-12.2611130926
21
18.2940530204
31
0.0000000000
11
-12.2356359630
21
18.3238826444
31
0.0000000000
11
-12.2058063390
21
18.3493597740
31
0.0000000000
11
-12.1723586933
21
18.3698571047
31
0.0000000000
11
-12.1361165826
21
18.3848699458
31
0.0000000000
11
-12.0979723695
21
18.3940286474
31
0.0000000000
11
-12.0588652508
21
18.3971077014
31
0.0000000000
0
SPLINE
5
416
100
AcDbEntity
8
0
100
AcDbSpline
62
7
6
CONTINUOUS
70
0
71
3
72
16
73
12
74
10
42
0.0000001000
43
0.0000001000
44
0.0000000001
12
0.0000000000
22
0.2000258337
32
0.0000000000
13
0.2000258337
23
0.0000000000
33
0.0000000000
40
0.0000000000
40
0.0000000000
40
0.0000000000
40
0.0000000000
40
0.0152538416
40
0.0604656093
40
0.1339775258
40
0.2342089441
40
0.3571116732
40
0.5002377456
40
0.6578528647
40
0.8264486604
40
1.0000000000
40
1.0000000000
40
1.0000000000
40
1.0000000000
10
-6.1632328540
20
13.8997341618
30
0.0000000000
10
-6.1632328540
20
13.9007512160
30
0.0000000000
10
-6.1567781395
20
13.8989935166
30
0.0000000000
10
-6.1501570622
20
13.9011133734
30
0.0000000000
10
-6.1342801512
20
13.9003282218
30
0.0000000000
10
-6.1150461914
20
13.9010053937
30
0.0000000000
10
-6.0904270102
20
13.9010504973
30
0.0000000000
10
-6.0622479707
20
13.9012737226
30
0.0000000000
10
-6.0309340497
20
13.9013817565
30
0.0000000000
10
-5.9976186705
20
13.9014635819
30
0.0000000000
10
-5.9748044378
20
13.9014795354
30
0.0000000000
10
-5.9632328540
20
13.9014795354
30
0.0000000000
11
-6.1632328540
21
13.8997341618
31
0.0000000000
11
-6.1601967702
21
13.9000371257
31
0.0000000000
11
-6.1511580389
21
13.9003314345
31
0.0000000000
11
-6.1364563308
21
13.9006065705
31
0.0000000000
11
-6.1164090145
21
13.9008564066
31
0.0000000000
11
-6.0918262296
21
13.9010709329
31
0.0000000000
11
-6.0631978522
21
13.9012458760
31
0.0000000000
11
-6.0316710176
21
13.9013741680
31
0.0000000000
11
-5.9979475953
21
13.9014530422
31
0.0000000000
11
-5.9632328540
21
13.9014795354
31
0.0000000000
0
SPLINE
5
417
100
AcDbEntity
8
0
100
AcDbSpline
62
9
6
CONTINUOUS
70
0
71
3
72
14
73
10
74
8
42
0.0000001000
43
0.0000001000
44
0.0000000001
12
0.0000000000
22
-0.4538522552
32
0.0000000000
13
0.3870667462
23
-0.2376792810
33
0.0000000000
40
0.0000000000
40
0.0000000000
40
0.0000000000
40
0.0000000000
40
0.1425376238
40
0.2856945589
40
0.4300325016
40
0.5760053350
40
0.7239219867
40
0.8739252007
40
1.0000000000
40
1.0000000000
40
1.0000000000
40
1.0000000000
10
1.3367671460
20
4.4765257650
30
0.0000000000
10
1.3367671460
20
4.4549620910
30
0.0000000000
10
1.3401891017
20
4.4116643862
30
0.0000000000
10
1.3554671497
20
4.3481669364
30
0.0000000000
10
1.3805689947
20
4.2873014097
30
0.0000000000
10
1.4149649230
20
4.2303344570
30
0.0000000000
10
1.4579361390
20
4.1784174782
30
0.0000000000
10
1.5056678383
20
4.1352451029
30
0.0000000000
10
1.5400509111
20
4.1113555793
30
0.0000000000
10
1.5563173652
20
4.1013671234
30
0.0000000000
11
1.3367671460
21
4.4765257650
31
0.0000000000
11
1.3418564251
21
4.4120352420
31
0.0000000000
11
1.3570206592
21
4.3488575600
31
0.0000000000
11
1.3819511483
21
4.2882788345
31
0.0000000000
11
1.4161403796
21
4.2315322736
31
0.0000000000
11
1.4588923588
21
4.1797730737
31
0.0000000000
11
1.5093367790
21
4.1340549029
31
0.0000000000
11
1.5563173652
21
4.1013671234
31
0.0000000000
0
SPLINE
5
418
100
AcDbEntity
8
0
100
AcDbSpline
62
9
6
CONTINUOUS
70
0
71
3
72
14
73
10
74
8
42
0.0000001000
43
0.0000001000
44
0.0000000001
12
0.3870665117
22
0.2376791370
32
0.0000000000
13
0.0000003054
23
0.4538519872
33
0.0000000000
40
0.0000000000
40
0.0000000000
40
0.0000000000
40
0.0000000000
40
0.1260748757
40
0.2760781805
40
0.4239949218
40
0.5699678436
40
0.7143058737
40
0.8574628955
40
1.0000000000
40
1.0000000000
40
1.0000000000
40
1.0000000000
10
2.1172169268
20
4.1013671234
30
0.0000000000
10
2.1334833809
20
4.1113555793
30
0.0000000000
10
2.1678664538
20
4.1352451029
30
0.0000000000
10
2.2155981531
20
4.1784174782
30
0.0000000000
10
2.2585693691
20
4.2303344570
30
0.0000000000
10
2.2929652974
20
4.2873014097
30
0.0000000000
10
2.3180671424
20
4.3481669364
30
0.0000000000
10
2.3333451688
20
4.4116642968
30
0.0000000000
10
2.3367671315
20
4.4549619075
30
0.0000000000
10
2.3367671460
20
4.4765254902
30
0.0000000000
11
2.1172169268
21
4.1013671234
31
0.0000000000
11
2.1641975130
21
4.1340549029
31
0.0000000000
11
2.2146419332
21
4.1797730737
31
0.0000000000
11
2.2573939124
21
4.2315322736
31
0.0000000000
11
2.2915831437
21
4.2882788345
31
0.0000000000
11
2.3165136328
21
4.3488575600
31
0.0000000000
11
2.3316778670
21
4.4120352420
31
0.0000000000
11
2.3367671460
21
4.4765254902
31
0.0000000000
0
SPLINE
5
419
100
AcDbEntity
8
0
100
AcDbSpline
62
9
6
CONTINUOUS
70
0
71
3
72
17
73
13
74
11
42
0.0000001000
43
0.0000001000
44
0.0000000001
12
-0.3922846482
22
0.0000132773
32
0.0000000000
13
-0.0000132773
23
0.3922846482
33
0.0000000000
40
0.0000000000
40
0.0000000000
40
0.0000000000
40
0.0000000000
40
0.0999991830
40
0.1999988695
40
0.2999989843
40
0.3999994104
40
0.5000000000
40
0.6000005896
40
0.7000010157
40
0.8000011305
40
0.9000008170
40
1.0000000000
40
1.0000000000
40
1.0000000000
40
1.0000000000
10
6.8411347492
20
-30.5941486306
30
0.0000000000
10
6.8280587011
20
-30.5941481880
30
0.0000000000
10
6.8018601637
20
-30.5920870105
30
0.0000000000
10
6.7635666809
20
-30.5828905580
30
0.0000000000
10
6.7271731421
20
-30.5678158555
30
0.0000000000
10
6.6935882668
20
-30.5472340611
30
0.0000000000
10
6.6636356009
20
-30.5216520098
30
0.0000000000
10
6.6380535495
20
-30.4916993438
30
0.0000000000
10
6.6174717551
20
-30.4581144686
30
0.0000000000
10
6.6023970527
20
-30.4217209297
30
0.0000000000
10
6.5932006001
20
-30.3834274469
30
0.0000000000
10
6.5911394226
20
-30.3572289095
30
0.0000000000
10
6.5911389800
20
-30.3441528614
30
0.0000000000
11
6.8411347492
21
-30.5941486306
31
0.0000000000
11
6.8020276305
21
-30.5910695766
31
0.0000000000
11
6.7638834174
21
-30.5819108750
31
0.0000000000
11
6.7276413067
21
-30.5668980339
31
0.0000000000
11
6.6941936610
21
-30.5464007032
31
0.0000000000
11
6.6643640370
21
-30.5209235736
31
0.0000000000
11
6.6388869074
21
-30.4910939496
31
0.0000000000
11
6.6183895767
21
-30.4576463039
31
0.0000000000
11
6.6033767356
21
-30.4214041932
31
0.0000000000
11
6.5942180340
21
-30.3832599801
31
0.0000000000
11
6.5911389800
21
-30.3441528614
31
0.0000000000
0
SPLINE
5
41A
100
AcDbEntity
8
0
100
AcDbSpline
62
7
6
CONTINUOUS
70
0
71
3
72
17
73
13
74
11
42
0.0000001000
43
0.0000001000
44
0.0000000001
12
0.0000000000
22
0.4220147089
32
0.0000000000
13
0.4220147089
23
0.0000000000
33
0.0000000000
40
0.0000000000
40
0.0000000000
40
0.0000000000
40
0.0000000000
40
0.1163097356
40
0.2303278571
40
0.3412445469
40
0.4475088604
40
0.5491224320
40
0.6456322518
40
0.7382753117
40
0.8272646510
40
0.9144010609
40
1.0000000000
40
1.0000000000
40
1.0000000000
40
1.0000000000
10
6.5867671460
20
-29.5090056128
30
0.0000000000
10
6.5867671460
20
-29.4926441398
30
0.0000000000
10
6.5891571095
20
-29.4601916359
30
0.0000000000
10
6.5997201104
20
-29.4131936239
30
0.0000000000
10
6.6166247611
20
-29.3695876773
30
0.0000000000
10
6.6390268721
20
-29.3305392320
30
0.0000000000
10
6.6658775717
20
-29.2969635422
30
0.0000000000
10
6.6962225231
20
-29.2692838705
30
0.0000000000
10
6.7291022452
20
-29.2477619308
30
0.0000000000
10
6.7638342391
20
-29.2323955006
30
0.0000000000
10
6.7996558793
20
-29.2232102355
30
0.0000000000
10
6.8240028110
20
-29.2211701954
30
0.0000000000
10
6.8360441481
20
-29.2211701954
30
0.0000000000
11
6.5867671460
21
-29.5090056128
31
0.0000000000
11
6.5903895049
21
-29.4600550385
31
0.0000000000
11
6.6009770091
21
-29.4131169766
31
0.0000000000
11
6.6179515629
21
-29.3694947596
31
0.0000000000
11
6.6403282489
21
-29.3306313164
31
0.0000000000
11
6.6671694397
21
-29.2971880424
31
0.0000000000
11
6.6973080568
21
-29.2697931589
31
0.0000000000
11
6.7300546244
21
-29.2484339240
31
0.0000000000
11
6.7644172629
21
-29.2332822627
31
0.0000000000
11
6.8000457241
21
-29.2241797902
31
0.0000000000
11
6.8360441481
21
-29.2211701954
31
0.0000000000
0
SPLINE
5
41B
100
AcDbEntity
8
0
100
AcDbSpline
62
7
6
CONTINUOUS
70
0
71
3
72
18
73
14
74
12
42
0.0000001000
43
0.0000001000
44
0.0000000001
12
0.0031763781
22
0.3152256661
32
0.0000000000
13
0.3152416691
23
0.0000000000
33
0.0000000000
40
0.0000000000
40
0.0000000000
40
0.0000000000
40
0.0000000000
40
0.0600923894
40
0.1232193774
40
0.1912702092
40
0.2657636629
40
0.3477531865
40
0.4378167491
40
0.5360799495
40
0.6422378908
40
0.7555663097
40
0.8749375201
40
1.0000000000
40
1.0000000000
40
1.0000000000
40
1.0000000000
10
6.5911389800
20
-29.9428580319
30
0.0000000000
10
6.5912026054
20
-29.9365438107
30
0.0000000000
10
6.5928302647
20
-29.9235680677
30
0.0000000000
10
6.5997175318
20
-29.9045310935
30
0.0000000000
10
6.6110879821
20
-29.8859951272
30
0.0000000000
10
6.6268788199
20
-29.8683190507
30
0.0000000000
10
6.6469803097
20
-29.8518340192
30
0.0000000000
10
6.6712223599
20
-29.8368872122
30
0.0000000000
10
6.6993524719
20
-29.8238390835
30
0.0000000000
10
6.7310146432
20
-29.8130612543
30
0.0000000000
10
6.7657343862
20
-29.8049174057
30
0.0000000000
10
6.8030210291
20
-29.7997606267
30
0.0000000000
10
6.8287203430
20
-29.7985204646
30
0.0000000000
10
6.8418619780
20
-29.7985204646
30
0.0000000000
11
6.5911389800
21
-29.9428580319
31
0.0000000000
11
6.5934583206
21
-29.9240569257
31
0.0000000000
11
6.6001258306
21
-29.9053068713
31
0.0000000000
11
6.6112205029
21
-29.8869461472
31
0.0000000000
11
6.6267489998
21
-29.8693297409
31
0.0000000000
11
6.6466403689
21
-29.8528259311
31
0.0000000000
11
6.6707386720
21
-29.8378137560
31
0.0000000000
11
6.6987930348
21
-29.8246796058
31
0.0000000000
11
6.7304447339
21
-29.8138120678
31
0.0000000000
11
6.7652124137
21
-29.8055935470
31
0.0000000000
11
6.8024812904
21
-29.8003871663
31
0.0000000000
11
6.8418619780
21
-29.7985204646
31
0.0000000000
0
SPLINE
5
41C
100
AcDbEntity
8
0
100
AcDbSpline
62
9
6
CONTINUOUS
70
0
71
3
72
17
73
13
74
11
42
0.0000001000
43
0.0000001000
44
0.0000000001
12
-0.0000132773
22
-0.3922846478
32
0.0000000000
13
-0.3922846478
23
-0.0000132773
33
0.0000000000
40
0.0000000000
40
0.0000000000
40
0.0000000000
40
0.0000000000
40
0.0998239394
40
0.1998359985
40
0.2998483200
40
0.3998691378
40
0.4998893118
40
0.5999112671
40
0.6999336806
40
0.7999562942
40
0.8999787118
40
1.0000000000
40
1.0000000000
40
1.0000000000
40
1.0000000000
10
8.9823953120
20
-30.3441528614
30
0.0000000000
10
8.9823948702
20
-30.3572059944
30
0.0000000000
10
8.9803390243
20
-30.3833829834
30
0.0000000000
10
8.9711573674
20
-30.4216597994
30
0.0000000000
10
8.9560893728
20
-30.4580625257
30
0.0000000000
10
8.9355113900
20
-30.4916578579
30
0.0000000000
10
8.9099297488
20
-30.5216215455
30
0.0000000000
10
8.8799747739
20
-30.5472137250
30
0.0000000000
10
8.8463850043
20
-30.5678042156
30
0.0000000000
10
8.8099845740
20
-30.5828855369
30
0.0000000000
10
8.7716829124
20
-30.5920860891
30
0.0000000000
10
8.7454784814
20
-30.5941481879
30
0.0000000000
10
8.7323995428
20
-30.5941486306
30
0.0000000000
11
8.9823953120
21
-30.3441528614
31
0.0000000000
11
8.9793270380
21
-30.3831918703
31
0.0000000000
11
8.9701773547
21
-30.4213432388
31
0.0000000000
11
8.9551716251
21
-30.4575934771
31
0.0000000000
11
8.9346775116
21
-30.4910524752
31
0.0000000000
11
8.9092010506
21
-30.5208927726
31
0.0000000000
11
8.8793690648
21
-30.5463800414
31
0.0000000000
11
8.8459165927
21
-30.5668860033
31
0.0000000000
11
8.8096676537
21
-30.5819054221
31
0.0000000000
11
8.7715152527
21
-30.5910682155
31
0.0000000000
11
8.7323995428
21
-30.5941486306
31
0.0000000000
0
SPLINE
5
41D
100
AcDbEntity
8
0
100
AcDbSpline
62
7
6
CONTINUOUS
70
0
71
3
72
16
73
12
74
10
42
0.0000001000
43
0.0000001000
44
0.0000000001
12
-0.1109507685
22
-0.1664284998
32
0.0000000000
13
-0.2000212953
23
-0.0000000000
33
0.0000000000
40
0.0000000000
40
0.0000000000
40
0.0000000000
40
0.0000000000
40
0.0161433614
40
0.0620019158
40
0.1359041257
40
0.2362718496
40
0.3590814697
40
0.5019048682
40
0.6590618918
40
0.8270804587
40
1.0000000000
40
1.0000000000
40
1.0000000000
40
1.0000000000
10
5.5797456446
20
-27.0927807909
30
0.0000000000
10
5.5791486051
20
-27.0936763627
30
0.0000000000
10
5.5739177311
20
-27.0922442062
30
0.0000000000
10
5.5658812893
20
-27.0940164957
30
0.0000000000
10
5.5506473477
20
-27.0934339741
30
0.0000000000
10
5.5310773918
20
-27.0940213437
30
0.0000000000
10
5.5065891990
20
-27.0940980764
30
0.0000000000
10
5.4784296432
20
-27.0943090398
30
0.0000000000
10
5.4472175657
20
-27.0944197124
30
0.0000000000
10
5.4140104924
20
-27.0944999323
30
0.0000000000
10
5.3912782261
20
-27.0945160103
30
0.0000000000
10
5.3797490292
20
-27.0945160103
30
0.0000000000
11
5.5797456446
21
-27.0927807909
31
0.0000000000
11
5.5765307535
21
-27.0930824868
31
0.0000000000
11
5.5673627416
21
-27.0933753208
31
0.0000000000
11
5.5525832578
21
-27.0936489052
31
0.0000000000
11
5.5325091111
21
-27.0938971925
31
0.0000000000
11
5.5079454963
21
-27.0941103080
31
0.0000000000
11
5.4793783033
21
-27.0942840379
31
0.0000000000
11
5.4479438100
21
-27.0944114149
31
0.0000000000
11
5.4143366098
21
-27.0944897123
31
0.0000000000
11
5.3797490292
21
-27.0945160103
31
0.0000000000
0
SPLINE
5
41E
100
AcDbEntity
8
0
100
AcDbSpline
62
9
6
CONTINUOUS
70
0
71
3
72
28
73
24
74
22
42
0.0000001000
43
0.0000001000
44
0.0000000001
12
0.0000248823
22
0.4520129625
32
0.0000000000
13
0.0000258698
23
-0.4520129624
33
0.0000000000
40
0.0000000000
40
0.0000000000
40
0.0000000000
40
0.0000000000
40
0.0479336213
40
0.0959116536
40
0.1438302608
40
0.1916543846
40
0.2393715409
40
0.2869712793
40
0.3344549208
40
0.3818339651
40
0.4291338670
40
0.4763810064
40
0.5236121369
40
0.5708598254
40
0.6181602517
40
0.6655397712
40
0.7130239112
40
0.7606240881
40
0.8083416385
40
0.8561661254
40
0.9040851750
40
0.9520634573
40
1.0000000000
40
1.0000000000
40
1.0000000000
40
1.0000000000
10
5.0937852629
20
-26.0921850306
30
0.0000000000
10
5.0937856604
20
-26.0849628245
30
0.0000000000
10
5.0948526483
20
-26.0704890858
30
0.0000000000
10
5.0996264857
20
-26.0492731192
30
0.0000000000
10
5.1074696904
20
-26.0290027611
30
0.0000000000
10
5.1182041363
20
-26.0101498259
30
0.0000000000
10
5.1315867592
20
-25.9931347005
30
0.0000000000
10
5.1473169029
20
-25.9783370585
30
0.0000000000
10
5.1650409708
20
-25.9660860769
30
0.0000000000
10
5.1843624231
20
-25.9566530250
30
0.0000000000
10
5.2048499248
20
-25.9502463178
30
0.0000000000
10
5.2260476440
20
-25.9470071196
30
0.0000000000
10
5.2474836340
20
-25.9470068824
30
0.0000000000
10
5.2686815845
20
-25.9502456560
30
0.0000000000
10
5.2891694359
20
-25.9566520361
30
0.0000000000
10
5.3084912602
20
-25.9660848463
30
0.0000000000
10
5.3262157023
20
-25.9783356657
30
0.0000000000
10
5.3419462066
20
-25.9931332202
30
0.0000000000
10
5.3553291671
20
-26.0101483123
30
0.0000000000
10
5.3660639192
20
-26.0290012829
30
0.0000000000
10
5.3739074069
20
-26.0492717043
30
0.0000000000
10
5.3786815516
20
-26.0704881643
30
0.0000000000
10
5.3797486158
20
-26.0849623843
30
0.0000000000
10
5.3797490292
20
-26.0921850306
30
0.0000000000
11
5.0937852629
21
-26.0921850306
31
0.0000000000
11
5.0953807629
21
-26.0705772375
31
0.0000000000
11
5.1001417031
21
-26.0494195891
31
0.0000000000
11
5.1079605707
21
-26.0292202422
31
0.0000000000
11
5.1186590102
21
-26.0104361150
31
0.0000000000
11
5.1319957600
21
-25.9934849179
31
0.0000000000
11
5.1476694343
21
-25.9787451339
31
0.0000000000
11
5.1653272855
21
-25.9665438977
31
0.0000000000
11
5.1845733423
21
-25.9571507151
31
0.0000000000
11
5.2049796421
21
-25.9507714872
31
0.0000000000
11
5.2260910619
21
-25.9475465322
31
0.0000000000
11
5.2474401451
21
-25.9475462961
31
0.0000000000
11
5.2685518786
21
-25.9507708411
31
0.0000000000
11
5.2889585284
21
-25.9571497439
31
0.0000000000
11
5.3082049445
21
-25.9665426800
31
0.0000000000
11
5.3258631770
21
-25.9787437609
31
0.0000000000
11
5.3415372085
21
-25.9934834542
31
0.0000000000
11
5.3548742904
21
-26.0104346167
31
0.0000000000
11
5.3655730310
21
-26.0292187614
31
0.0000000000
11
5.3733921878
21
-26.0494182108
31
0.0000000000
11
5.3781533394
21
-26.0705759273
31
0.0000000000
11
5.3797490292
21
-26.0921850306
31
0.0000000000
0
SPLINE
5
41F
100
AcDbEntity
8
0
100
AcDbSpline
62
9
6
CONTINUOUS
70
0
71
3
72
28
73
24
74
22
42
0.0000001000
43
0.0000001000
44
0.0000000001
12
0.0006389818
22
1.0748827919
32
0.0000000000
13
0.0006396685
23
-1.0748827915
33
0.0000000000
40
0.0000000000
40
0.0000000000
40
0.0000000000
40
0.0000000000
40
0.0476396983
40
0.0952651823
40
0.1428954282
40
0.1905186793
40
0.2381409058
40
0.2857596880
40
0.3333741877
40
0.3809835509
40
0.4285918766
40
0.4761970589
40
0.5238028767
40
0.5714080412
40
0.6190163553
40
0.6666256883
40
0.7142402118
40
0.7618589870
40
0.8094811882
40
0.8571044194
40
0.9047347220
40
0.9523601963
40
1.0000000000
40
1.0000000000
40
1.0000000000
40
1.0000000000
10
4.8937891619
20
-26.0921850306
30
0.0000000000
10
4.8937993089
20
-26.0751160000
30
0.0000000000
10
4.8963866156
20
-26.0409290011
30
0.0000000000
10
4.9078896018
20
-25.9908511884
30
0.0000000000
10
4.9267440306
20
-25.9430478563
30
0.0000000000
10
4.9525252301
20
-25.8986009315
30
0.0000000000
10
4.9846456093
20
-25.8584999785
30
0.0000000000
10
5.0223809620
20
-25.8236364303
30
0.0000000000
10
5.0648816262
20
-25.7947815858
30
0.0000000000
10
5.1111970181
20
-25.7725697188
30
0.0000000000
10
5.1602951678
20
-25.7574871925
30
0.0000000000
10
5.2110871859
20
-25.7498628555
30
0.0000000000
10
5.2624470726
20
-25.7498628456
30
0.0000000000
10
5.3132390830
20
-25.7574871636
30
0.0000000000
10
5.3623372173
20
-25.7725696675
30
0.0000000000
10
5.4086526102
20
-25.7947815167
30
0.0000000000
10
5.4511532801
20
-25.8236363455
30
0.0000000000
10
5.4888886365
20
-25.8584998841
30
0.0000000000
10
5.5210090217
20
-25.8986008096
30
0.0000000000
10
5.5467902231
20
-25.9430477353
30
0.0000000000
10
5.5656447075
20
-25.9908510596
30
0.0000000000
10
5.5771476506
20
-26.0409289365
30
0.0000000000
10
5.5797350267
20
-26.0751159622
30
0.0000000000
10
5.5797451846
20
-26.0921850306
30
0.0000000000
11
4.8937891619
21
-26.0921850306
31
0.0000000000
11
4.8976577499
21
-26.0411242705
31
0.0000000000
11
4.9091145966
21
-25.9912309511
31
0.0000000000
11
4.9278996932
21
-25.9436048355
31
0.0000000000
11
4.9535823417
21
-25.8993243826
31
0.0000000000
11
4.9855826476
21
-25.8593716029
31
0.0000000000
11
5.0231769901
21
-25.8246364536
31
0.0000000000
11
5.0655195457
21
-25.7958875064
31
0.0000000000
11
5.1116616731
21
-25.7737575958
31
0.0000000000
11
5.1605787834
21
-25.7587299199
31
0.0000000000
11
5.2111817910
21
-25.7511335685
31
0.0000000000
11
5.2623524744
21
-25.7511335592
31
0.0000000000
11
5.3129554656
21
-25.7587298904
31
0.0000000000
11
5.3618725690
21
-25.7737575466
31
0.0000000000
11
5.4080146744
21
-25.7958874279
31
0.0000000000
11
5.4503572599
21
-25.8246363768
31
0.0000000000
11
5.4879516050
21
-25.8593715121
31
0.0000000000
11
5.5199519065
21
-25.8993242605
31
0.0000000000
11
5.5456345568
21
-25.9436046875
31
0.0000000000
11
5.5644197013
21
-25.9912308498
31
0.0000000000
11
5.5758765347
21
-26.0411241616
31
0.0000000000
11
5.5797451846
21
-26.0921850306
31
0.0000000000
0
SPLINE
5
420
100
AcDbEntity
8
0
100
AcDbSpline
62
7
6
CONTINUOUS
70
0
71
3
72
17
73
13
74
11
42
0.0000001000
43
0.0000001000
44
0.0000000001
12
-0.2404959853
22
0.3802575409
32
0.0000000000
13
-0.0034689349
23
0.4499134171
33
0.0000000000
40
0.0000000000
40
0.0000000000
40
0.0000000000
40
0.0000000000
40
0.1117916783
40
0.2238311090
40
0.3350443235
40
0.4444169730
40
0.5509312361
40
0.6535208047
40
0.7510215470
40
0.8421379665
40
0.9254838484
40
1.0000000000
40
1.0000000000
40
1.0000000000
40
1.0000000000
10
5.0937852629
20
-26.6814447478
30
0.0000000000
10
5.0848234462
20
-26.6672748716
30
0.0000000000
10
5.0668798424
20
-26.6389037749
30
0.0000000000
10
5.0401784660
20
-26.5963365277
30
0.0000000000
10
5.0140013187
20
-26.5538698602
30
0.0000000000
10
4.9887925800
20
-26.5117829477
30
0.0000000000
10
4.9650308774
20
-26.4703448109
30
0.0000000000
10
4.9432619038
20
-26.4298307615
30
0.0000000000
10
4.9241416624
20
-26.3905492231
30
0.0000000000
10
4.9084963820
20
-26.3528330787
30
0.0000000000
10
4.8974105885
20
-26.3171242615
30
0.0000000000
10
4.8938748114
20
-26.2934953297
30
0.0000000000
10
4.8937886475
20
-26.2823200575
30
0.0000000000
11
5.0937852629
21
-26.6814447478
31
0.0000000000
11
5.0669259881
21
-26.6389185758
31
0.0000000000
11
5.0401686480
21
-26.5961966070
31
0.0000000000
11
5.0139479346
21
-26.5535790511
31
0.0000000000
11
4.9887084242
21
-26.5113349956
31
0.0000000000
11
4.9649339413
21
-26.4697243315
31
0.0000000000
11
4.9431815561
21
-26.4290134509
31
0.0000000000
11
4.9241323040
21
-26.3894970667
31
0.0000000000
11
4.9086681011
21
-26.3515298792
31
0.0000000000
11
4.8979911264
21
-26.3155824440
31
0.0000000000
11
4.8937886475
21
-26.2823200575
31
0.0000000000
0
SPLINE
5
421
100
AcDbEntity
8
0
100
AcDbSpline
62
7
6
CONTINUOUS
70
0
71
3
72
18
73
14
74
12
42
0.0000001000
43
0.0000001000
44
0.0000000001
12
0.3145151746
22
0.0000000000
32
0.0000000000
13
0.0031690579
23
-0.3144992085
33
0.0000000000
40
0.0000000000
40
0.0000000000
40
0.0000000000
40
0.0000000000
40
0.1233645867
40
0.2431315365
40
0.3566833685
40
0.4629485722
40
0.5612613068
40
0.6513651559
40
0.7334201413
40
0.8080244445
40
0.8762413066
40
0.9395978155
40
1.0000000000
40
1.0000000000
40
1.0000000000
40
1.0000000000
10
8.7323995428
20
-29.7985204646
30
0.0000000000
10
8.7453328877
20
-29.7985204646
30
0.0000000000
10
8.7708335243
20
-29.7998098153
30
0.0000000000
10
8.8079210197
20
-29.8049366332
30
0.0000000000
10
8.8426320569
20
-29.8130947339
30
0.0000000000
10
8.8742555004
20
-29.8238700175
30
0.0000000000
10
8.9023366563
20
-29.8369028095
30
0.0000000000
10
8.9265362033
20
-29.8518240309
30
0.0000000000
10
8.9466125377
20
-29.8682806542
30
0.0000000000
10
8.9623997524
20
-29.8859345805
30
0.0000000000
10
8.9737852831
20
-29.9044649333
30
0.0000000000
10
8.9806960662
20
-29.9235231810
30
0.0000000000
10
8.9823315060
20
-29.9365258855
30
0.0000000000
10
8.9823953120
20
-29.9428580319
30
0.0000000000
11
8.7323995428
21
-29.7985204646
31
0.0000000000
11
8.7711541886
21
-29.8003966609
31
0.0000000000
11
8.8084589095
21
-29.8056192495
31
0.0000000000
11
8.8432119157
21
-29.8138473861
31
0.0000000000
11
8.8748190863
21
-29.8247110008
31
0.0000000000
11
8.9028202773
21
-29.8378271006
31
0.0000000000
11
8.9268737560
21
-29.8528114479
31
0.0000000000
11
8.9467393013
21
-29.8692853402
31
0.0000000000
11
8.9622643176
21
-29.8868791423
31
0.0000000000
11
8.9733737699
21
-29.9052341775
31
0.0000000000
11
8.9800634461
21
-29.9240042857
31
0.0000000000
11
8.9823953120
21
-29.9428580319
31
0.0000000000
0
SPLINE
5
422
100
AcDbEntity
8
0
100
AcDbSpline
62
7
6
CONTINUOUS
70
0
71
3
72
17
73
13
74
11
42
0.0000001000
43
0.0000001000
44
0.0000000001
12
0.4220147089
22
0.0000000000
32
0.0000000000
13
-0.0000000000
23
-0.4220147089
33
0.0000000000
40
0.0000000000
40
0.0000000000
40
0.0000000000
40
0.0000000000
40
0.0855989391
40
0.1727353490
40
0.2617246883
40
0.3543677482
40
0.4508775680
40
0.5524911396
40
0.6587554531
40
0.7696721429
40
0.8836902644
40
1.0000000000
40
1.0000000000
40
1.0000000000
40
1.0000000000
10
8.7374901439
20
-29.2211701954
30
0.0000000000
10
8.7495314810
20
-29.2211701954
30
0.0000000000
10
8.7738784127
20
-29.2232102355
30
0.0000000000
10
8.8097000530
20
-29.2323955006
30
0.0000000000
10
8.8444320468
20
-29.2477619308
30
0.0000000000
10
8.8773117690
20
-29.2692838705
30
0.0000000000
10
8.9076567203
20
-29.2969635422
30
0.0000000000
10
8.9345074199
20
-29.3305392320
30
0.0000000000
10
8.9569095309
20
-29.3695876773
30
0.0000000000
10
8.9738141816
20
-29.4131936239
30
0.0000000000
10
8.9843771825
20
-29.4601916359
30
0.0000000000
10
8.9867671460
20
-29.4926441398
30
0.0000000000
10
8.9867671460
20
-29.5090056128
30
0.0000000000
11
8.7374901439
21
-29.2211701954
31
0.0000000000
11
8.7734885679
21
-29.2241797902
31
0.0000000000
11
8.8091170292
21
-29.2332822627
31
0.0000000000
11
8.8434796676
21
-29.2484339240
31
0.0000000000
11
8.8762262352
21
-29.2697931589
31
0.0000000000
11
8.9063648523
21
-29.2971880424
31
0.0000000000
11
8.9332060432
21
-29.3306313164
31
0.0000000000
11
8.9555827291
21
-29.3694947596
31
0.0000000000
11
8.9725572829
21
-29.4131169766
31
0.0000000000
11
8.9831447872
21
-29.4600550385
31
0.0000000000
11
8.9867671460
21
-29.5090056128
31
0.0000000000
0
SPLINE
5
423
100
AcDbEntity
8
0
100
AcDbSpline
62
7
6
CONTINUOUS
70
0
71
3
72
17
73
13
74
11
42
0.0000001000
43
0.0000001000
44
0.0000000001
12
-0.0034689349
22
-0.4499134171
32
0.0000000000
13
-0.2404959853
23
-0.3802575409
33
0.0000000000
40
0.0000000000
40
0.0000000000
40
0.0000000000
40
0.0000000000
40
0.0745161516
40
0.1578620335
40
0.2489784530
40
0.3464791953
40
0.4490687639
40
0.5555830270
40
0.6649556765
40
0.7761688910
40
0.8882083217
40
1.0000000000
40
1.0000000000
40
1.0000000000
40
1.0000000000
10
-8.2202543554
20
-26.2823200575
30
0.0000000000
10
-8.2203405193
20
-26.2934953297
30
0.0000000000
10
-8.2238762965
20
-26.3171242615
30
0.0000000000
10
-8.2349620900
20
-26.3528330787
30
0.0000000000
10
-8.2506073704
20
-26.3905492231
30
0.0000000000
10
-8.2697276117
20
-26.4298307615
30
0.0000000000
10
-8.2914965854
20
-26.4703448109
30
0.0000000000
10
-8.3152582879
20
-26.5117829477
30
0.0000000000
10
-8.3404670267
20
-26.5538698602
30
0.0000000000
10
-8.3666441739
20
-26.5963365277
30
0.0000000000
10
-8.3933455503
20
-26.6389037749
30
0.0000000000
10
-8.4112891542
20
-26.6672748716
30
0.0000000000
10
-8.4202509708
20
-26.6814447478
30
0.0000000000
11
-8.2202543554
21
-26.2823200575
31
0.0000000000
11
-8.2244568343
21
-26.3155824440
31
0.0000000000
11
-8.2351338090
21
-26.3515298792
31
0.0000000000
11
-8.2505980119
21
-26.3894970667
31
0.0000000000
11
-8.2696472641
21
-26.4290134509
31
0.0000000000
11
-8.2913996493
21
-26.4697243315
31
0.0000000000
11
-8.3151741322
21
-26.5113349956
31
0.0000000000
11
-8.3404136425
21
-26.5535790511
31
0.0000000000
11
-8.3666343560
21
-26.5961966070
31
0.0000000000
11
-8.3933916960
21
-26.6389185758
31
0.0000000000
11
-8.4202509708
21
-26.6814447478
31
0.0000000000
0
SPLINE
5
424
100
AcDbEntity
8
0
100
AcDbSpline
62
9
6
CONTINUOUS
70
0
71
3
72
28
73
24
74
22
42
0.0000001000
43
0.0000001000
44
0.0000000001
12
-0.0006331558
22
1.0748826631
32
0.0000000000
13
-0.0006398226
23
-1.0748826592
33
0.0000000000
40
0.0000000000
40
0.0000000000
40
0.0000000000
40
0.0000000000
40
0.0476390326
40
0.0952646359
40
0.1428945894
40
0.1905178863
40
0.2381401945
40
0.2857590341
40
0.3333735088
40
0.3809830074
40
0.4285914400
40
0.4761967431
40
0.5238026763
40
0.5714079083
40
0.6190162926
40
0.6666256355
40
0.7142402490
40
0.7618590710
40
0.8094812809
40
0.8571044552
40
0.9047347894
40
0.9523601153
40
1.0000000000
40
1.0000000000
40
1.0000000000
40
1.0000000000
10
-8.2202550877
20
-26.0921850306
30
0.0000000000
10
-8.2202651420
20
-26.0751162405
30
0.0000000000
10
-8.2228522412
20
-26.0409294160
30
0.0000000000
10
-8.2343552737
20
-25.9908519270
30
0.0000000000
10
-8.2532094751
20
-25.9430485727
30
0.0000000000
10
-8.2789905838
20
-25.8986016628
30
0.0000000000
10
-8.3111108942
20
-25.8585005817
30
0.0000000000
10
-8.3488462093
20
-25.8236369385
30
0.0000000000
10
-8.3913468563
20
-25.7947819749
30
0.0000000000
10
-8.4376622704
20
-25.7725699851
30
0.0000000000
10
-8.4867605128
20
-25.7574873366
30
0.0000000000
10
-8.5375526364
20
-25.7498629075
30
0.0000000000
10
-8.5889126269
20
-25.7498628385
30
0.0000000000
10
-8.6397047282
20
-25.7574871277
30
0.0000000000
10
-8.6888029138
20
-25.7725696282
30
0.0000000000
10
-8.7351183574
20
-25.7947814992
30
0.0000000000
10
-8.7776190610
20
-25.8236363626
30
0.0000000000
10
-8.8153544354
20
-25.8584999503
30
0.0000000000
10
-8.8474747955
20
-25.8986008867
30
0.0000000000
10
-8.8732559747
20
-25.9430478116
30
0.0000000000
10
-8.8921104052
20
-25.9908510812
30
0.0000000000
10
-8.9036133743
20
-26.0409289335
30
0.0000000000
10
-8.9062007014
20
-26.0751159353
30
0.0000000000
10
-8.9062108617
20
-26.0921850306
30
0.0000000000
11
-8.2202550877
21
-26.0921850306
31
0.0000000000
11
-8.2241233931
21
-26.0411249731
31
0.0000000000
11
-8.2355802559
21
-25.9912315322
31
0.0000000000
11
-8.2543651068
21
-25.9436056643
31
0.0000000000
11
-8.2800476813
21
-25.8993251189
31
0.0000000000
11
-8.3120479469
21
-25.8593722025
31
0.0000000000
11
-8.3496422609
21
-25.8246369407
31
0.0000000000
11
-8.3919847298
21
-25.7958879248
31
0.0000000000
11
-8.4381269387
21
-25.7737578622
31
0.0000000000
11
-8.4870441269
21
-25.7587300698
31
0.0000000000
11
-8.5376472455
21
-25.7511336260
31
0.0000000000
11
-8.5888180467
21
-25.7511335586
31
0.0000000000
11
-8.6394211094
21
-25.7587298599
31
0.0000000000
11
-8.6883382844
21
-25.7737575185
31
0.0000000000
11
-8.7344803952
21
-25.7958873989
31
0.0000000000
11
-8.7768230500
21
-25.8246364063
31
0.0000000000
11
-8.8144174119
21
-25.8593715884
31
0.0000000000
11
-8.8464176950
21
-25.8993243555
31
0.0000000000
11
-8.8721002929
21
-25.9436047350
31
0.0000000000
11
-8.8908854296
21
-25.9912309301
31
0.0000000000
11
-8.9023422303
21
-26.0411240792
31
0.0000000000
11
-8.9062108617
21
-26.0921850306
31
0.0000000000
0
SPLINE
5
425
100
AcDbEntity
8
0
100
AcDbSpline
62
9
6
CONTINUOUS
70
0
71
3
72
28
73
24
74
22
42
0.0000001000
43
0.0000001000
44
0.0000000001
12
-0.0000181405
22
0.4520129142
32
0.0000000000
13
-0.0000259035
23
-0.4520129138
33
0.0000000000
40
0.0000000000
40
0.0000000000
40
0.0000000000
40
0.0000000000
40
0.0479274866
40
0.0959050378
40
0.1438225012
40
0.1916459407
40
0.2393624877
40
0.2869616817
40
0.3344448023
40
0.3818236112
40
0.4291234003
40
0.4763706158
40
0.5236020193
40
0.5708508756
40
0.6181536048
40
0.6655351415
40
0.7130210729
40
0.7606227185
40
0.8083414450
40
0.8561668080
40
0.9040866112
40
0.9520653162
40
1.0000000000
40
1.0000000000
40
1.0000000000
40
1.0000000000
10
-8.4202509708
20
-26.0921850306
30
0.0000000000
10
-8.4202512606
20
-26.0849637496
30
0.0000000000
10
-8.4213182107
20
-26.0704910164
30
0.0000000000
10
-8.4260913737
20
-26.0492761198
30
0.0000000000
10
-8.4339339702
20
-26.0290059033
30
0.0000000000
10
-8.4446677727
20
-26.0101530313
30
0.0000000000
10
-8.4580497463
20
-25.9931377557
30
0.0000000000
10
-8.4737792692
20
-25.9783398291
30
0.0000000000
10
-8.4915027864
20
-25.9660884048
30
0.0000000000
10
-8.5108238087
20
-25.9566547792
30
0.0000000000
10
-8.5313110536
20
-25.9502473986
30
0.0000000000
10
-8.5525086972
20
-25.9470074818
30
0.0000000000
10
-8.5739449151
20
-25.9470065342
30
0.0000000000
10
-8.5951435267
20
-25.9502447414
30
0.0000000000
10
-8.6156323366
20
-25.9566508584
30
0.0000000000
10
-8.6349551647
20
-25.9660837301
30
0.0000000000
10
-8.6526804103
20
-25.9783347978
30
0.0000000000
10
-8.6684115005
20
-25.9931327126
30
0.0000000000
10
-8.6817948300
20
-26.0101481940
30
0.0000000000
10
-8.6925297745
20
-26.0290015443
30
0.0000000000
10
-8.7003733008
20
-26.0492722831
30
0.0000000000
10
-8.7051473188
20
-26.0704886656
30
0.0000000000
10
-8.7062143233
20
-26.0849626652
30
0.0000000000
10
-8.7062147371
20
-26.0921850306
30
0.0000000000
11
-8.4202509708
21
-26.0921850306
31
0.0000000000
11
-8.4218460852
21
-26.0705799918
31
0.0000000000
11
-8.4266066003
21
-26.0494224732
31
0.0000000000
11
-8.4344248146
21
-26.0292234303
31
0.0000000000
11
-8.4451226311
21
-26.0104393068
31
0.0000000000
11
-8.4584587420
21
-25.9934879605
31
0.0000000000
11
-8.4741318015
21
-25.9787478854
31
0.0000000000
11
-8.4917890742
21
-25.9665462302
31
0.0000000000
11
-8.5110347255
21
-25.9571524647
31
0.0000000000
11
-8.5314407608
21
-25.9507725692
31
0.0000000000
11
-8.5525521038
21
-25.9475468989
31
0.0000000000
11
-8.5739013081
21
-25.9475459558
31
0.0000000000
11
-8.5950136603
21
-25.9507699311
31
0.0000000000
11
-8.6154214610
21
-25.9571486331
31
0.0000000000
11
-8.6346688628
21
-25.9665416231
31
0.0000000000
11
-8.6523279027
21
-25.9787429558
31
0.0000000000
11
-8.6680025115
21
-25.9934830011
31
0.0000000000
11
-8.6813399594
21
-26.0104345490
31
0.0000000000
11
-8.6920388767
21
-26.0292190461
31
0.0000000000
11
-8.6998580849
21
-26.0494188384
31
0.0000000000
11
-8.7046191715
21
-26.0705767631
31
0.0000000000
11
-8.7062147371
21
-26.0921850306
31
0.0000000000
0
SPLINE
5
426
100
AcDbEntity
8
0
100
AcDbSpline
62
7
6
CONTINUOUS
70
0
71
3
72
16
73
12
74
10
42
0.0000001000
43
0.0000001000
44
0.0000000001
12
-0.2000212953
22
0.0000000000
32
0.0000000000
13
-0.1109507685
23
0.1664284998
33
0.0000000000
40
0.0000000000
40
0.0000000000
40
0.0000000000
40
0.0000000000
40
0.1729195413
40
0.3409381082
40
0.4980951318
40
0.6409185303
40
0.7637281504
40
0.8640958743
40
0.9379980842
40
0.9838566386
40
1.0000000000
40
1.0000000000
40
1.0000000000
40
1.0000000000
10
-8.7062147371
20
-27.0945160103
30
0.0000000000
10
-8.7177439340
20
-27.0945160103
30
0.0000000000
10
-8.7404762004
20
-27.0944999323
30
0.0000000000
10
-8.7736832736
20
-27.0944197124
30
0.0000000000
10
-8.8048953512
20
-27.0943090398
30
0.0000000000
10
-8.8330549069
20
-27.0940980764
30
0.0000000000
10
-8.8575430997
20
-27.0940213437
30
0.0000000000
10
-8.8771130556
20
-27.0934339741
30
0.0000000000
10
-8.8923469973
20
-27.0940164957
30
0.0000000000
10
-8.9003834391
20
-27.0922442062
30
0.0000000000
10
-8.9056143131
20
-27.0936763627
30
0.0000000000
10
-8.9062113525
20
-27.0927807909
30
0.0000000000
11
-8.7062147371
21
-27.0945160103
31
0.0000000000
11
-8.7408023178
21
-27.0944897123
31
0.0000000000
11
-8.7744095180
21
-27.0944114149
31
0.0000000000
11
-8.8058440113
21
-27.0942840379
31
0.0000000000
11
-8.8344112042
21
-27.0941103080
31
0.0000000000
11
-8.8589748190
21
-27.0938971925
31
0.0000000000
11
-8.8790489658
21
-27.0936489052
31
0.0000000000
11
-8.8938284495
21
-27.0933753208
31
0.0000000000
11
-8.9029964615
21
-27.0930824868
31
0.0000000000
11
-8.9062113525
21
-27.0927807909
31
0.0000000000
0
SPLINE
5
427
100
AcDbEntity
8
0
100
AcDbSpline
62
7
6
CONTINUOUS
70
0
71
3
72
16
73
12
74
10
42
0.0000001000
43
0.0000001000
44
0.0000000001
12
0.2000212953
22
0.0000000000
32
0.0000000000
13
0.1109507685
23
-0.1664284998
33
0.0000000000
40
0.0000000000
40
0.0000000000
40
0.0000000000
40
0.0000000000
40
0.1729195413
40
0.3409381082
40
0.4980951318
40
0.6409185303
40
0.7637281504
40
0.8640958743
40
0.9379980842
40
0.9838566386
40
1.0000000000
40
1.0000000000
40
1.0000000000
40
1.0000000000
10
5.3797490292
20
14.8974750811
30
0.0000000000
10
5.3912782261
20
14.8974750811
30
0.0000000000
10
5.4140104924
20
14.8974590031
30
0.0000000000
10
5.4472175657
20
14.8973787832
30
0.0000000000
10
5.4784296432
20
14.8972681106
30
0.0000000000
10
5.5065891990
20
14.8970571472
30
0.0000000000
10
5.5310773918
20
14.8969804145
30
0.0000000000
10
5.5506473477
20
14.8963930449
30
0.0000000000
10
5.5658812893
20
14.8969755665
30
0.0000000000
10
5.5739177311
20
14.8952032769
30
0.0000000000
10
5.5791486051
20
14.8966354335
30
0.0000000000
10
5.5797456446
20
14.8957398617
30
0.0000000000
11
5.3797490292
21
14.8974750811
31
0.0000000000
11
5.4143366098
21
14.8974487831
31
0.0000000000
11
5.4479438100
21
14.8973704857
31
0.0000000000
11
5.4793783033
21
14.8972431087
31
0.0000000000
11
5.5079454963
21
14.8970693788
31
0.0000000000
11
5.5325091111
21
14.8968562633
31
0.0000000000
11
5.5525832578
21
14.8966079760
31
0.0000000000
11
5.5673627416
21
14.8963343916
31
0.0000000000
11
5.5765307535
21
14.8960415576
31
0.0000000000
11
5.5797456446
21
14.8957398617
31
0.0000000000
0
SPLINE
5
428
100
AcDbEntity
8
0
100
AcDbSpline
62
9
6
CONTINUOUS
70
0
71
3
72
28
73
24
74
22
42
0.0000001000
43
0.0000001000
44
0.0000000001
12
-0.0000247054
22
-0.4520129597
32
0.0000000000
13
-0.0000257590
23
0.4520129596
33
0.0000000000
40
0.0000000000
40
0.0000000000
40
0.0000000000
40
0.0000000000
40
0.0479331415
40
0.0959111794
40
0.1438297835
40
0.1916539231
40
0.2393711093
40
0.2869708895
40
0.3344545840
40
0.3818336974
40
0.4291336864
40
0.4763809282
40
0.5236121814
40
0.5708599886
40
0.6181605176
40
0.6655401200
40
0.7130243268
40
0.7606245572
40
0.8083421479
40
0.8561666591
40
0.9040857158
40
0.9520640071
40
1.0000000000
40
1.0000000000
40
1.0000000000
40
1.0000000000
10
5.3797490292
20
13.8951441014
30
0.0000000000
10
5.3797486344
20
13.8879219677
30
0.0000000000
10
5.3786816582
20
13.8734483010
30
0.0000000000
10
5.3739078663
20
13.8522323986
30
0.0000000000
10
5.3660646926
20
13.8319620257
30
0.0000000000
10
5.3553302704
20
13.8131090696
30
0.0000000000
10
5.3419476636
20
13.7960939148
30
0.0000000000
10
5.3262175254
20
13.7812962395
30
0.0000000000
10
5.3084934513
20
13.7690452231
30
0.0000000000
10
5.2891719797
20
13.7596121384
30
0.0000000000
10
5.2686844452
20
13.7532054046
30
0.0000000000
10
5.2474866804
20
13.7499661903
30
0.0000000000
10
5.2260506381
20
13.7499659519
30
0.0000000000
10
5.2048526370
20
13.7532047406
30
0.0000000000
10
5.1843647459
20
13.7596111487
30
0.0000000000
10
5.1650428965
20
13.7690439949
30
0.0000000000
10
5.1473184441
20
13.7812948535
30
0.0000000000
10
5.1315879428
20
13.7960924467
30
0.0000000000
10
5.1182049978
20
13.8131075738
30
0.0000000000
10
5.1074702703
20
13.8319605709
30
0.0000000000
10
5.0996268164
20
13.8522310116
30
0.0000000000
10
5.0948527229
20
13.8734474002
30
0.0000000000
10
5.0937856744
20
13.8879215380
30
0.0000000000
10
5.0937852629
20
13.8951441014
30
0.0000000000
11
5.3797490292
21
13.8951441014
31
0.0000000000
11
5.3781535603
21
13.8735365235
31
0.0000000000
11
5.3733926489
21
13.8523788663
31
0.0000000000
11
5.3655738126
21
13.8321795089
31
0.0000000000
11
5.3548753970
21
13.8133953600
31
0.0000000000
11
5.3415386629
21
13.7964441335
31
0.0000000000
11
5.3258649942
21
13.7817043163
31
0.0000000000
11
5.3082071375
21
13.7695030460
31
0.0000000000
11
5.2889610619
21
13.7601098310
31
0.0000000000
11
5.2685547293
21
13.7537305766
31
0.0000000000
11
5.2474432653
21
13.7505056057
31
0.0000000000
11
5.2260941267
21
13.7505053684
31
0.0000000000
11
5.2049823413
21
13.7537299287
31
0.0000000000
11
5.1845756519
21
13.7601088594
31
0.0000000000
11
5.1653292115
21
13.7695018309
31
0.0000000000
11
5.1476709692
21
13.7817029505
31
0.0000000000
11
5.1319969409
21
13.7964426823
31
0.0000000000
11
5.1186598740
21
13.8133938797
31
0.0000000000
11
5.1079611586
21
13.8321780512
31
0.0000000000
11
5.1001420353
21
13.8523775168
31
0.0000000000
11
5.0953809166
21
13.8735352448
31
0.0000000000
11
5.0937852629
21
13.8951441014
31
0.0000000000
0
SPLINE
5
429
100
AcDbEntity
8
0
100
AcDbSpline
62
9
6
CONTINUOUS
70
0
71
3
72
28
73
24
74
22
42
0.0000001000
43
0.0000001000
44
0.0000000001
12
-0.0006388543
22
-1.0748827835
32
0.0000000000
13
-0.0006396087
23
1.0748827831
33
0.0000000000
40
0.0000000000
40
0.0000000000
40
0.0000000000
40
0.0000000000
40
0.0476396842
40
0.0952651603
40
0.1428953982
40
0.1905186474
40
0.2381408772
40
0.2857596630
40
0.3333741651
40
0.3809835328
40
0.4285918655
40
0.4761970529
40
0.5238028776
40
0.5714080468
40
0.6190163678
40
0.6666257047
40
0.7142402314
40
0.7618590103
40
0.8094812149
40
0.8571044435
40
0.9047347406
40
0.9523602032
40
1.0000000000
40
1.0000000000
40
1.0000000000
40
1.0000000000
10
5.5797451200
20
13.8951441014
30
0.0000000000
10
5.5797349750
20
13.8780750759
30
0.0000000000
10
5.5771476812
20
13.8438880839
30
0.0000000000
10
5.5656446885
20
13.7938102838
30
0.0000000000
10
5.5467902722
20
13.7460069548
30
0.0000000000
10
5.5210090759
20
13.7015600309
30
0.0000000000
10
5.4888887007
20
13.6614590731
30
0.0000000000
10
5.4511533487
20
13.6265955197
30
0.0000000000
10
5.4086526842
20
13.5977406697
30
0.0000000000
10
5.3623372898
20
13.5755287971
30
0.0000000000
10
5.3132391357
20
13.5604462663
30
0.0000000000
10
5.2624471114
20
13.5528219265
30
0.0000000000
10
5.2110872190
20
13.5528219160
30
0.0000000000
10
5.1602952025
20
13.5604462358
30
0.0000000000
10
5.1111970639
20
13.5755287432
30
0.0000000000
10
5.0648816680
20
13.5977405971
30
0.0000000000
10
5.0223809973
20
13.6265954308
30
0.0000000000
10
4.9846456407
20
13.6614589744
30
0.0000000000
10
4.9525252591
20
13.7015599040
30
0.0000000000
10
4.9267440599
20
13.7460068290
30
0.0000000000
10
4.9078895877
20
13.7938101494
30
0.0000000000
10
4.8963866365
20
13.8438880155
30
0.0000000000
10
4.8937992739
20
13.8780750356
30
0.0000000000
10
4.8937891170
20
13.8951441014
30
0.0000000000
11
5.5797451200
21
13.8951441014
31
0.0000000000
11
5.5758765429
21
13.8440833561
31
0.0000000000
11
5.5644196971
21
13.7941900456
31
0.0000000000
11
5.5456346093
21
13.7465639362
31
0.0000000000
11
5.5199519659
21
13.7022834832
31
0.0000000000
11
5.4879516621
21
13.6623306977
31
0.0000000000
11
5.4503573202
21
13.6275955427
31
0.0000000000
11
5.4080147652
21
13.5988465907
31
0.0000000000
11
5.3618726355
21
13.5767166747
31
0.0000000000
11
5.3129555193
21
13.5616889939
31
0.0000000000
11
5.2623525069
21
13.5540926399
31
0.0000000000
11
5.2111818165
21
13.5540926301
31
0.0000000000
11
5.1605788208
21
13.5616889627
31
0.0000000000
11
5.1116617112
21
13.5767166229
31
0.0000000000
11
5.0655196037
21
13.5988465086
31
0.0000000000
11
5.0231770177
21
13.6275954620
31
0.0000000000
11
4.9855826726
21
13.6623306026
31
0.0000000000
11
4.9535823726
21
13.7022833563
31
0.0000000000
11
4.9278997270
21
13.7465637825
31
0.0000000000
11
4.9091145898
21
13.7941899409
31
0.0000000000
11
4.8976577573
21
13.8440832395
31
0.0000000000
11
4.8937891170
21
13.8951441014
31
0.0000000000
0
SPLINE
5
42A
100
AcDbEntity
8
0
100
AcDbSpline
62
7
6
CONTINUOUS
70
0
71
3
72
17
73
13
74
11
42
0.0000001000
43
0.0000001000
44
0.0000000001
12
0.0034689349
22
0.4499134171
32
0.0000000000
13
0.2404959853
23
0.3802575409
33
0.0000000000
40
0.0000000000
40
0.0000000000
40
0.0000000000
40
0.0000000000
40
0.0745161516
40
0.1578620335
40
0.2489784530
40
0.3464791953
40
0.4490687639
40
0.5555830270
40
0.6649556765
40
0.7761688910
40
0.8882083217
40
1.0000000000
40
1.0000000000
40
1.0000000000
40
1.0000000000
10
4.8937886475
20
14.0852791283
30
0.0000000000
10
4.8938748114
20
14.0964544004
30
0.0000000000
10
4.8974105885
20
14.1200833322
30
0.0000000000
10
4.9084963820
20
14.1557921495
30
0.0000000000
10
4.9241416624
20
14.1935082939
30
0.0000000000
10
4.9432619038
20
14.2327898323
30
0.0000000000
10
4.9650308774
20
14.2733038817
30
0.0000000000
10
4.9887925800
20
14.3147420185
30
0.0000000000
10
5.0140013187
20
14.3568289310
30
0.0000000000
10
5.0401784660
20
14.3992955985
30
0.0000000000
10
5.0668798424
20
14.4418628457
30
0.0000000000
10
5.0848234462
20
14.4702339424
30
0.0000000000
10
5.0937852629
20
14.4844038186
30
0.0000000000
11
4.8937886475
21
14.0852791283
31
0.0000000000
11
4.8979911264
21
14.1185415148
31
0.0000000000
11
4.9086681011
21
14.1544889500
31
0.0000000000
11
4.9241323040
21
14.1924561375
31
0.0000000000
11
4.9431815561
21
14.2319725217
31
0.0000000000
11
4.9649339413
21
14.2726834023
31
0.0000000000
11
4.9887084242
21
14.3142940664
31
0.0000000000
11
5.0139479346
21
14.3565381219
31
0.0000000000
11
5.0401686480
21
14.3991556778
31
0.0000000000
11
5.0669259881
21
14.4418776466
31
0.0000000000
11
5.0937852629
21
14.4844038186
31
0.0000000000
0
SPLINE
5
42B
100
AcDbEntity
8
0
100
AcDbSpline
62
9
6
CONTINUOUS
70
0
71
3
72
17
73
13
74
11
42
0.0000001000
43
0.0000001000
44
0.0000000001
12
-0.3922846478
22
0.0000132773
32
0.0000000000
13
-0.0000132773
23
0.3922846478
33
0.0000000000
40
0.0000000000
40
0.0000000000
40
0.0000000000
40
0.0000000000
40
0.0998239394
40
0.1998359985
40
0.2998483200
40
0.3998691378
40
0.4998893118
40
0.5999112671
40
0.6999336806
40
0.7999562942
40
0.8999787118
40
1.0000000000
40
1.0000000000
40
1.0000000000
40
1.0000000000
10
-12.0588652508
20
-30.5941486306
30
0.0000000000
10
-12.0719183837
20
-30.5941481888
30
0.0000000000
10
-12.0980953728
20
-30.5920923429
30
0.0000000000
10
-12.1363721888
20
-30.5829106860
30
0.0000000000
10
-12.1727749150
20
-30.5678426914
30
0.0000000000
10
-12.2063702473
20
-30.5472647086
30
0.0000000000
10
-12.2363339349
20
-30.5216830673
30
0.0000000000
10
-12.2619261144
20
-30.4917280925
30
0.0000000000
10
-12.2825166050
20
-30.4581383229
30
0.0000000000
10
-12.2975979263
20
-30.4217378926
30
0.0000000000
10
-12.3067984785
20
-30.3834362310
30
0.0000000000
10
-12.3088605773
20
-30.3572318000
30
0.0000000000
10
-12.3088610200
20
-30.3441528614
30
0.0000000000
11
-12.0588652508
21
-30.5941486306
31
0.0000000000
11
-12.0979042597
21
-30.5910803566
31
0.0000000000
11
-12.1360556282
21
-30.5819306733
31
0.0000000000
11
-12.1723058665
21
-30.5669249437
31
0.0000000000
11
-12.2057648645
21
-30.5464308302
31
0.0000000000
11
-12.2356051620
21
-30.5209543692
31
0.0000000000
11
-12.2610924308
21
-30.4911223833
31
0.0000000000
11
-12.2815983926
21
-30.4576699113
31
0.0000000000
11
-12.2966178115
21
-30.4214209723
31
0.0000000000
11
-12.3057806048
21
-30.3832685713
31
0.0000000000
11
-12.3088610200
21
-30.3441528614
31
0.0000000000
0
SPLINE
5
42C
100
AcDbEntity
8
0
100
AcDbSpline
62
7
6
CONTINUOUS
70
0
71
3
72
17
73
13
74
11
42
0.0000001000
43
0.0000001000
44
0.0000000001
12
0.0000000000
22
0.4220147089
32
0.0000000000
13
0.4220147089
23
-0.0000000000
33
0.0000000000
40
0.0000000000
40
0.0000000000
40
0.0000000000
40
0.0000000000
40
0.1163097356
40
0.2303278571
40
0.3412445469
40
0.4475088604
40
0.5491224320
40
0.6456322518
40
0.7382753117
40
0.8272646510
40
0.9144010609
40
1.0000000000
40
1.0000000000
40
1.0000000000
40
1.0000000000
10
-12.3132328540
20
-29.5090056128
30
0.0000000000
10
-12.3132328540
20
-29.4926441398
30
0.0000000000
10
-12.3108428905
20
-29.4601916359
30
0.0000000000
10
-12.3002798896
20
-29.4131936239
30
0.0000000000
10
-12.2833752389
20
-29.3695876773
30
0.0000000000
10
-12.2609731279
20
-29.3305392320
30
0.0000000000
10
-12.2341224283
20
-29.2969635422
30
0.0000000000
10
-12.2037774769
20
-29.2692838705
30
0.0000000000
10
-12.1708977548
20
-29.2477619308
30
0.0000000000
10
-12.1361657609
20
-29.2323955006
30
0.0000000000
10
-12.1003441207
20
-29.2232102355
30
0.0000000000
10
-12.0759971890
20
-29.2211701954
30
0.0000000000
10
-12.0639558519
20
-29.2211701954
30
0.0000000000
11
-12.3132328540
21
-29.5090056128
31
0.0000000000
11
-12.3096104951
21
-29.4600550385
31
0.0000000000
11
-12.2990229909
21
-29.4131169766
31
0.0000000000
11
-12.2820484371
21
-29.3694947596
31
0.0000000000
11
-12.2596717511
21
-29.3306313164
31
0.0000000000
11
-12.2328305603
21
-29.2971880424
31
0.0000000000
11
-12.2026919432
21
-29.2697931589
31
0.0000000000
11
-12.1699453756
21
-29.2484339240
31
0.0000000000
11
-12.1355827371
21
-29.2332822627
31
0.0000000000
11
-12.0999542759
21
-29.2241797902
31
0.0000000000
11
-12.0639558519
21
-29.2211701954
31
0.0000000000
0
SPLINE
5
42D
100
AcDbEntity
8
0
100
AcDbSpline
62
9
6
CONTINUOUS
70
0
71
3
72
17
73
13
74
11
42
0.0000001000
43
0.0000001000
44
0.0000000001
12
0.0012298291
22
0.3661500354
32
0.0000000000
13
0.3661509389
23
0.0009224053
33
0.0000000000
40
0.0000000000
40
0.0000000000
40
0.0000000000
40
0.0000000000
40
0.0926637669
40
0.1861959939
40
0.2811621264
40
0.3780472439
40
0.4771141944
40
0.5784104998
40
0.6817687109
40
0.7868361684
40
0.8931123906
40
1.0000000000
40
1.0000000000
40
1.0000000000
40
1.0000000000
10
-12.3088610200
20
-29.9428580319
30
0.0000000000
10
-12.3088230331
20
-29.9315484181
30
0.0000000000
10
-12.3066749652
20
-29.9087776546
30
0.0000000000
10
-12.2973403873
20
-29.8755759816
30
0.0000000000
10
-12.2821306393
20
-29.8440463243
30
0.0000000000
10
-12.2614447533
20
-29.8149885833
30
0.0000000000
10
-12.2358096490
20
-29.7891030039
30
0.0000000000
10
-12.2058663849
20
-29.7670110529
30
0.0000000000
10
-12.1723534858
20
-29.7492374152
30
0.0000000000
10
-12.1360871841
20
-29.7362031482
30
0.0000000000
10
-12.0979580009
20
-29.7282164929
30
0.0000000000
10
-12.0719109169
20
-29.7263845455
30
0.0000000000
10
-12.0588652508
20
-29.7263516810
30
0.0000000000
11
-12.3088610200
21
-29.9428580319
31
0.0000000000
11
-12.3056859603
21
-29.9090778858
31
0.0000000000
11
-12.2964553376
21
-29.8760982848
31
0.0000000000
11
-12.2813957136
21
-29.8447565696
31
0.0000000000
11
-12.2608748382
21
-29.8158196165
31
0.0000000000
11
-12.2353971488
21
-29.7899998688
31
0.0000000000
11
-12.2055875752
21
-29.7679307350
31
0.0000000000
11
-12.1721777477
21
-29.7501539442
31
0.0000000000
11
-12.1359874750
21
-29.7371057017
31
0.0000000000
11
-12.0979053160
21
-29.7291062564
31
0.0000000000
11
-12.0588652508
21
-29.7263516810
31
0.0000000000
0
SPLINE
5
42E
100
AcDbEntity
8
0
100
AcDbSpline
62
9
6
CONTINUOUS
70
0
71
3
72
17
73
13
74
11
42
0.0000001000
43
0.0000001000
44
0.0000000001
12
-0.0000132773
22
-0.3922846478
32
0.0000000000
13
-0.3922846478
23
-0.0000132773
33
0.0000000000
40
0.0000000000
40
0.0000000000
40
0.0000000000
40
0.0000000000
40
0.1000212882
40
0.2000437058
40
0.3000663194
40
0.4000887329
40
0.5001106882
40
0.6001308622
40
0.7001516800
40
0.8001640015
40
0.9001760606
40
1.0000000000
40
1.0000000000
40
1.0000000000
40
1.0000000000
10
-9.9176046880
20
-30.3441528614
30
0.0000000000
10
-9.9176051307
20
-30.3572318000
30
0.0000000000
10
-9.9196672295
20
-30.3834362310
30
0.0000000000
10
-9.9288677817
20
-30.4217378926
30
0.0000000000
10
-9.9439491030
20
-30.4581383229
30
0.0000000000
10
-9.9645395936
20
-30.4917280925
30
0.0000000000
10
-9.9901317731
20
-30.5216830673
30
0.0000000000
10
-10.0200954607
20
-30.5472647086
30
0.0000000000
10
-10.0536907929
20
-30.5678426914
30
0.0000000000
10
-10.0900935192
20
-30.5829106860
30
0.0000000000
10
-10.1283703352
20
-30.5920923429
30
0.0000000000
10
-10.1545473242
20
-30.5941481888
30
0.0000000000
10
-10.1676004572
20
-30.5941486306
30
0.0000000000
11
-9.9176046880
21
-30.3441528614
31
0.0000000000
11
-9.9206851031
21
-30.3832685713
31
0.0000000000
11
-9.9298478965
21
-30.4214209723
31
0.0000000000
11
-9.9448673153
21
-30.4576699113
31
0.0000000000
11
-9.9653732771
21
-30.4911223833
31
0.0000000000
11
-9.9908605459
21
-30.5209543692
31
0.0000000000
11
-10.0207008434
21
-30.5464308302
31
0.0000000000
11
-10.0541598414
21
-30.5669249437
31
0.0000000000
11
-10.0904100798
21
-30.5819306733
31
0.0000000000
11
-10.1285614483
21
-30.5910803566
31
0.0000000000
11
-10.1676004572
21
-30.5941486306
31
0.0000000000
0
SPLINE
5
42F
100
AcDbEntity
8
0
100
AcDbSpline
62
7
6
CONTINUOUS
70
0
71
3
72
16
73
12
74
10
42
0.0000001000
43
0.0000001000
44
0.0000000001
12
0.1109507685
22
0.1664284998
32
0.0000000000
13
0.2000212953
23
0.0000000000
33
0.0000000000
40
0.0000000000
40
0.0000000000
40
0.0000000000
40
0.0000000000
40
0.0161433614
40
0.0620019158
40
0.1359041257
40
0.2362718496
40
0.3590814697
40
0.5019048682
40
0.6590618918
40
0.8270804587
40
1.0000000000
40
1.0000000000
40
1.0000000000
40
1.0000000000
10
-8.9062113525
20
14.8957398617
30
0.0000000000
10
-8.9056143131
20
14.8966354335
30
0.0000000000
10
-8.9003834391
20
14.8952032769
30
0.0000000000
10
-8.8923469973
20
14.8969755665
30
0.0000000000
10
-8.8771130556
20
14.8963930449
30
0.0000000000
10
-8.8575430997
20
14.8969804145
30
0.0000000000
10
-8.8330549069
20
14.8970571472
30
0.0000000000
10
-8.8048953512
20
14.8972681106
30
0.0000000000
10
-8.7736832736
20
14.8973787832
30
0.0000000000
10
-8.7404762004
20
14.8974590031
30
0.0000000000
10
-8.7177439340
20
14.8974750811
30
0.0000000000
10
-8.7062147371
20
14.8974750811
30
0.0000000000
11
-8.9062113525
21
14.8957398617
31
0.0000000000
11
-8.9029964615
21
14.8960415576
31
0.0000000000
11
-8.8938284495
21
14.8963343916
31
0.0000000000
11
-8.8790489658
21
14.8966079760
31
0.0000000000
11
-8.8589748190
21
14.8968562633
31
0.0000000000
11
-8.8344112042
21
14.8970693788
31
0.0000000000
11
-8.8058440113
21
14.8972431087
31
0.0000000000
11
-8.7744095180
21
14.8973704857
31
0.0000000000
11
-8.7408023178
21
14.8974487831
31
0.0000000000
11
-8.7062147371
21
14.8974750811
31
0.0000000000
0
SPLINE
5
430
100
AcDbEntity
8
0
100
AcDbSpline
62
9
6
CONTINUOUS
70
0
71
3
72
17
73
13
74
11
42
0.0000001000
43
0.0000001000
44
0.0000000001
12
-0.0012298290
22
0.3661500177
32
0.0000000000
13
-0.3661509212
23
0.0009224053
33
0.0000000000
40
0.0000000000
40
0.0000000000
40
0.0000000000
40
0.0000000000
40
0.0927380474
40
0.1862683312
40
0.2812329042
40
0.3781093545
40
0.4771672798
40
0.5784533210
40
0.6818006960
40
0.7868568096
40
0.8931227640
40
1.0000000000
40
1.0000000000
40
1.0000000000
40
1.0000000000
10
-9.9176046880
20
-29.9428580319
30
0.0000000000
10
-9.9176427053
20
-29.9315393527
30
0.0000000000
10
-9.9197933043
20
-29.9087596440
30
0.0000000000
10
-9.9291348731
20
-29.8755509809
30
0.0000000000
10
-9.9443480689
20
-29.8440246555
30
0.0000000000
10
-9.9650358572
20
-29.8149712287
30
0.0000000000
10
-9.9906708998
20
-29.7890904672
30
0.0000000000
10
-10.0206127400
20
-29.7670028704
30
0.0000000000
10
-10.0541230289
20
-29.7492328667
30
0.0000000000
10
-10.0903860177
20
-29.7362012261
30
0.0000000000
10
-10.1285115037
20
-29.7282161402
30
0.0000000000
10
-10.1545560577
20
-29.7263845423
30
0.0000000000
10
-10.1676004572
20
-29.7263516810
30
0.0000000000
11
-9.9176046880
21
-29.9428580319
31
0.0000000000
11
-9.9207847365
21
-29.9090510386
31
0.0000000000
11
-9.9300197653
21
-29.8760734118
31
0.0000000000
11
-9.9450832170
21
-29.8447341715
31
0.0000000000
11
-9.9656055490
21
-29.8158021443
31
0.0000000000
11
-9.9910832994
21
-29.7899871020
31
0.0000000000
11
-10.0208914382
21
-29.7679223495
31
0.0000000000
11
-10.0542987002
21
-29.7501491878
31
0.0000000000
11
-10.0904855254
21
-29.7371036353
31
0.0000000000
11
-10.1285641645
21
-29.7291057304
31
0.0000000000
11
-10.1676004572
21
-29.7263516810
31
0.0000000000
0
SPLINE
5
431
100
AcDbEntity
8
0
100
AcDbSpline
62
7
6
CONTINUOUS
70
0
71
3
72
17
73
13
74
11
42
0.0000001000
43
0.0000001000
44
0.0000000001
12
0.4220147089
22
0.0000000000
32
0.0000000000
13
0.0000000000
23
-0.4220147089
33
0.0000000000
40
0.0000000000
40
0.0000000000
40
0.0000000000
40
0.0000000000
40
0.0855989391
40
0.1727353490
40
0.2617246883
40
0.3543677482
40
0.4508775680
40
0.5524911396
40
0.6587554531
40
0.7696721429
40
0.8836902644
40
1.0000000000
40
1.0000000000
40
1.0000000000
40
1.0000000000
10
-10.1625098561
20
-29.2211701954
30
0.0000000000
10
-10.1504685190
20
-29.2211701954
30
0.0000000000
10
-10.1261215873
20
-29.2232102355
30
0.0000000000
10
-10.0902999470
20
-29.2323955006
30
0.0000000000
10
-10.0555679532
20
-29.2477619308
30
0.0000000000
10
-10.0226882310
20
-29.2692838705
30
0.0000000000
10
-9.9923432797
20
-29.2969635422
30
0.0000000000
10
-9.9654925801
20
-29.3305392320
30
0.0000000000
10
-9.9430904691
20
-29.3695876773
30
0.0000000000
10
-9.9261858184
20
-29.4131936239
30
0.0000000000
10
-9.9156228175
20
-29.4601916359
30
0.0000000000
10
-9.9132328540
20
-29.4926441398
30
0.0000000000
10
-9.9132328540
20
-29.5090056128
30
0.0000000000
11
-10.1625098561
21
-29.2211701954
31
0.0000000000
11
-10.1265114321
21
-29.2241797902
31
0.0000000000
11
-10.0908829708
21
-29.2332822627
31
0.0000000000
11
-10.0565203324
21
-29.2484339240
31
0.0000000000
11
-10.0237737648
21
-29.2697931589
31
0.0000000000
11
-9.9936351477
21
-29.2971880424
31
0.0000000000
11
-9.9667939568
21
-29.3306313164
31
0.0000000000
11
-9.9444172709
21
-29.3694947596
31
0.0000000000
11
-9.9274427171
21
-29.4131169766
31
0.0000000000
11
-9.9168552128
21
-29.4600550385
31
0.0000000000
11
-9.9132328540
21
-29.5090056128
31
0.0000000000
0
SPLINE
5
432
100
AcDbEntity
8
0
100
AcDbSpline
62
9
6
CONTINUOUS
70
0
71
3
72
28
73
24
74
22
42
0.0000001000
43
0.0000001000
44
0.0000000001
12
-0.0000247054
22
-0.4520129597
32
0.0000000000
13
-0.0000257590
23
0.4520129596
33
0.0000000000
40
0.0000000000
40
0.0000000000
40
0.0000000000
40
0.0000000000
40
0.0479331415
40
0.0959111794
40
0.1438297835
40
0.1916539231
40
0.2393711093
40
0.2869708895
40
0.3344545840
40
0.3818336974
40
0.4291336864
40
0.4763809282
40
0.5236121814
40
0.5708599886
40
0.6181605176
40
0.6655401200
40
0.7130243268
40
0.7606245572
40
0.8083421479
40
0.8561666591
40
0.9040857158
40
0.9520640071
40
1.0000000000
40
1.0000000000
40
1.0000000000
40
1.0000000000
10
-8.4202509708
20
13.8951441014
30
0.0000000000
10
-8.4202513656
20
13.8879219677
30
0.0000000000
10
-8.4213183418
20
13.8734483010
30
0.0000000000
10
-8.4260921337
20
13.8522323986
30
0.0000000000
10
-8.4339353074
20
13.8319620257
30
0.0000000000
10
-8.4446697296
20
13.8131090696
30
0.0000000000
10
-8.4580523364
20
13.7960939148
30
0.0000000000
10
-8.4737824746
20
13.7812962395
30
0.0000000000
10
-8.4915065487
20
13.7690452231
30
0.0000000000
10
-8.5108280203
20
13.7596121384
30
0.0000000000
10
-8.5313155548
20
13.7532054046
30
0.0000000000
10
-8.5525133196
20
13.7499661903
30
0.0000000000
10
-8.5739493619
20
13.7499659519
30
0.0000000000
10
-8.5951473630
20
13.7532047406
30
0.0000000000
10
-8.6156352541
20
13.7596111487
30
0.0000000000
10
-8.6349571035
20
13.7690439949
30
0.0000000000
10
-8.6526815559
20
13.7812948535
30
0.0000000000
10
-8.6684120572
20
13.7960924467
30
0.0000000000
10
-8.6817950022
20
13.8131075738
30
0.0000000000
10
-8.6925297297
20
13.8319605709
30
0.0000000000
10
-8.7003731836
20
13.8522310116
30
0.0000000000
10
-8.7051472771
20
13.8734474002
30
0.0000000000
10
-8.7062143256
20
13.8879215380
30
0.0000000000
10
-8.7062147371
20
13.8951441014
30
0.0000000000
11
-8.4202509708
21
13.8951441014
31
0.0000000000
11
-8.4218464397
21
13.8735365235
31
0.0000000000
11
-8.4266073511
21
13.8523788663
31
0.0000000000
11
-8.4344261874
21
13.8321795089
31
0.0000000000
11
-8.4451246030
21
13.8133953600
31
0.0000000000
11
-8.4584613371
21
13.7964441335
31
0.0000000000
11
-8.4741350058
21
13.7817043163
31
0.0000000000
11
-8.4917928625
21
13.7695030460
31
0.0000000000
11
-8.5110389381
21
13.7601098310
31
0.0000000000
11
-8.5314452707
21
13.7537305766
31
0.0000000000
11
-8.5525567347
21
13.7505056057
31
0.0000000000
11
-8.5739058733
21
13.7505053684
31
0.0000000000
11
-8.5950176587
21
13.7537299287
31
0.0000000000
11
-8.6154243481
21
13.7601088594
31
0.0000000000
11
-8.6346707885
21
13.7695018309
31
0.0000000000
11
-8.6523290308
21
13.7817029505
31
0.0000000000
11
-8.6680030591
21
13.7964426823
31
0.0000000000
11
-8.6813401260
21
13.8133938797
31
0.0000000000
11
-8.6920388414
21
13.8321780512
31
0.0000000000
11
-8.6998579647
21
13.8523775168
31
0.0000000000
11
-8.7046190834
21
13.8735352448
31
0.0000000000
11
-8.7062147371
21
13.8951441014
31
0.0000000000
0
SPLINE
5
433
100
AcDbEntity
8
0
100
AcDbSpline
62
9
6
CONTINUOUS
70
0
71
3
72
28
73
24
74
22
42
0.0000001000
43
0.0000001000
44
0.0000000001
12
-0.0006388543
22
-1.0748827835
32
0.0000000000
13
-0.0006396087
23
1.0748827831
33
0.0000000000
40
0.0000000000
40
0.0000000000
40
0.0000000000
40
0.0000000000
40
0.0476396842
40
0.0952651603
40
0.1428953982
40
0.1905186474
40
0.2381408772
40
0.2857596630
40
0.3333741651
40
0.3809835328
40
0.4285918655
40
0.4761970529
40
0.5238028776
40
0.5714080468
40
0.6190163678
40
0.6666257047
40
0.7142402314
40
0.7618590103
40
0.8094812149
40
0.8571044435
40
0.9047347406
40
0.9523602032
40
1.0000000000
40
1.0000000000
40
1.0000000000
40
1.0000000000
10
-8.2202548800
20
13.8951441014
30
0.0000000000
10
-8.2202650250
20
13.8780750759
30
0.0000000000
10
-8.2228523188
20
13.8438880839
30
0.0000000000
10
-8.2343553115
20
13.7938102838
30
0.0000000000
10
-8.2532097278
20
13.7460069548
30
0.0000000000
10
-8.2789909241
20
13.7015600309
30
0.0000000000
10
-8.3111112993
20
13.6614590731
30
0.0000000000
10
-8.3488466513
20
13.6265955197
30
0.0000000000
10
-8.3913473158
20
13.5977406697
30
0.0000000000
10
-8.4376627102
20
13.5755287971
30
0.0000000000
10
-8.4867608643
20
13.5604462663
30
0.0000000000
10
-8.5375528886
20
13.5528219265
30
0.0000000000
10
-8.5889127810
20
13.5528219160
30
0.0000000000
10
-8.6397047975
20
13.5604462358
30
0.0000000000
10
-8.6888029361
20
13.5755287432
30
0.0000000000
10
-8.7351183320
20
13.5977405971
30
0.0000000000
10
-8.7776190027
20
13.6265954308
30
0.0000000000
10
-8.8153543593
20
13.6614589744
30
0.0000000000
10
-8.8474747409
20
13.7015599040
30
0.0000000000
10
-8.8732559401
20
13.7460068290
30
0.0000000000
10
-8.8921104123
20
13.7938101494
30
0.0000000000
10
-8.9036133635
20
13.8438880155
30
0.0000000000
10
-8.9062007261
20
13.8780750356
30
0.0000000000
10
-8.9062108830
20
13.8951441014
30
0.0000000000
11
-8.2202548800
21
13.8951441014
31
0.0000000000
11
-8.2241234571
21
13.8440833561
31
0.0000000000
11
-8.2355803029
21
13.7941900456
31
0.0000000000
11
-8.2543653907
21
13.7465639362
31
0.0000000000
11
-8.2800480341
21
13.7022834832
31
0.0000000000
11
-8.3120483379
21
13.6623306977
31
0.0000000000
11
-8.3496426798
21
13.6275955427
31
0.0000000000
11
-8.3919852348
21
13.5988465907
31
0.0000000000
11
-8.4381273645
21
13.5767166747
31
0.0000000000
11
-8.4870444807
21
13.5616889939
31
0.0000000000
11
-8.5376474931
21
13.5540926399
31
0.0000000000
11
-8.5888181835
21
13.5540926301
31
0.0000000000
11
-8.6394211792
21
13.5616889627
31
0.0000000000
11
-8.6883382888
21
13.5767166229
31
0.0000000000
11
-8.7344803963
21
13.5988465086
31
0.0000000000
11
-8.7768229823
21
13.6275954620
31
0.0000000000
11
-8.8144173274
21
13.6623306026
31
0.0000000000
11
-8.8464176274
21
13.7022833563
31
0.0000000000
11
-8.8721002730
21
13.7465637825
31
0.0000000000
11
-8.8908854102
21
13.7941899409
31
0.0000000000
11
-8.9023422427
21
13.8440832395
31
0.0000000000
11
-8.9062108830
21
13.8951441014
31
0.0000000000
0
SPLINE
5
434
100
AcDbEntity
8
0
100
AcDbSpline
62
7
6
CONTINUOUS
70
0
71
3
72
17
73
13
74
11
42
0.0000001000
43
0.0000001000
44
0.0000000001
12
0.2404959853
22
-0.3802575409
32
0.0000000000
13
0.0034689349
23
-0.4499134171
33
0.0000000000
40
0.0000000000
40
0.0000000000
40
0.0000000000
40
0.0000000000
40
0.1117916783
40
0.2238311090
40
0.3350443235
40
0.4444169730
40
0.5509312361
40
0.6535208047
40
0.7510215470
40
0.8421379665
40
0.9254838484
40
1.0000000000
40
1.0000000000
40
1.0000000000
40
1.0000000000
10
-8.4202509708
20
14.4844038186
30
0.0000000000
10
-8.4112891542
20
14.4702339424
30
0.0000000000
10
-8.3933455503
20
14.4418628457
30
0.0000000000
10
-8.3666441739
20
14.3992955985
30
0.0000000000
10
-8.3404670267
20
14.3568289310
30
0.0000000000
10
-8.3152582879
20
14.3147420185
30
0.0000000000
10
-8.2914965854
20
14.2733038817
30
0.0000000000
10
-8.2697276117
20
14.2327898323
30
0.0000000000
10
-8.2506073704
20
14.1935082939
30
0.0000000000
10
-8.2349620900
20
14.1557921495
30
0.0000000000
10
-8.2238762965
20
14.1200833322
30
0.0000000000
10
-8.2203405193
20
14.0964544004
30
0.0000000000
10
-8.2202543554
20
14.0852791283
30
0.0000000000
11
-8.4202509708
21
14.4844038186
31
0.0000000000
11
-8.3933916960
21
14.4418776466
31
0.0000000000
11
-8.3666343560
21
14.3991556778
31
0.0000000000
11
-8.3404136425
21
14.3565381219
31
0.0000000000
11
-8.3151741322
21
14.3142940664
31
0.0000000000
11
-8.2913996493
21
14.2726834023
31
0.0000000000
11
-8.2696472641
21
14.2319725217
31
0.0000000000
11
-8.2505980119
21
14.1924561375
31
0.0000000000
11
-8.2351338090
21
14.1544889500
31
0.0000000000
11
-8.2244568343
21
14.1185415148
31
0.0000000000
11
-8.2202543554
21
14.0852791283
31
0.0000000000
0
SPLINE
5
435
100
AcDbEntity
8
0
100
AcDbSpline
62
7
6
CONTINUOUS
70
0
71
3
72
18
73
14
74
12
42
0.0000001000
43
0.0000001000
44
0.0000000001
12
0.0000000000
22
-0.5002718639
32
0.0000000000
13
-0.5002718639
23
-0.0000000000
33
0.0000000000
40
0.0000000000
40
0.0000000000
40
0.0000000000
40
0.0000000000
40
0.1421954571
40
0.2816397526
40
0.4150866161
40
0.5404236261
40
0.6544009752
40
0.7554235020
40
0.8407682813
40
0.9092516901
40
0.9590882680
40
0.9895308580
40
1.0000000000
40
1.0000000000
40
1.0000000000
40
1.0000000000
10
7.8663271980
20
9.1014795354
30
0.0000000000
10
7.8663271980
20
9.0777674066
30
0.0000000000
10
7.8662693026
20
9.0308016803
30
0.0000000000
10
7.8660086728
20
8.9615843514
30
0.0000000000
10
7.8655832111
20
8.8951748468
30
0.0000000000
10
7.8649920441
20
8.8330281189
30
0.0000000000
10
7.8642829092
20
8.7762425046
30
0.0000000000
10
7.8633613974
20
8.7262780153
30
0.0000000000
10
7.8625849885
20
8.6834623824
30
0.0000000000
10
7.8610426445
20
8.6503910380
30
0.0000000000
10
7.8611297117
20
8.6235694796
30
0.0000000000
10
7.8580100880
20
8.6121226546
30
0.0000000000
10
7.8593454713
20
8.6014795354
30
0.0000000000
10
7.8575996655
20
8.6014795354
30
0.0000000000
11
7.8663271980
21
9.1014795354
31
0.0000000000
11
7.8662384172
21
9.0303432044
31
0.0000000000
11
7.8659735199
21
8.9605836498
31
0.0000000000
11
7.8655389333
21
8.8938253532
31
0.0000000000
11
7.8649413572
21
8.8311256212
31
0.0000000000
11
7.8641964269
21
8.7741108266
31
0.0000000000
11
7.8633144812
21
8.7235797947
31
0.0000000000
11
7.8623192945
21
8.6808958028
31
0.0000000000
11
7.8612248095
21
8.6466529670
31
0.0000000000
11
7.8600594069
21
8.6217483817
31
0.0000000000
11
7.8588415731
21
8.6065675806
31
0.0000000000
11
7.8575996655
21
8.6014795354
31
0.0000000000
0
SPLINE
5
436
100
AcDbEntity
8
0
100
AcDbSpline
62
7
6
CONTINUOUS
70
0
71
3
72
12
73
8
74
6
42
0.0000001000
43
0.0000001000
44
0.0000000001
12
-0.0007778049
22
-0.1008796223
32
0.0000000000
13
-0.0559590632
23
-0.0839397785
33
0.0000000000
40
0.0000000000
40
0.0000000000
40
0.0000000000
40
0.0000000000
40
0.3474087206
40
0.6252812510
40
0.8283731597
40
0.9540891791
40
1.0000000000
40
1.0000000000
40
1.0000000000
40
1.0000000000
10
4.8937886475
20
14.0852791283
30
0.0000000000
10
4.8936985754
20
14.0735969748
30
0.0000000000
10
4.8936080627
20
14.0525350181
30
0.0000000000
10
4.8929785513
20
14.0248047653
30
0.0000000000
10
4.8933652225
20
14.0041217525
30
0.0000000000
10
4.8917545140
20
13.9920433380
30
0.0000000000
10
4.8929182895
20
13.9857074385
30
0.0000000000
10
4.8920619140
20
13.9844228571
30
0.0000000000
11
4.8937886475
21
14.0852791283
31
0.0000000000
11
4.8934792536
21
14.0502329918
31
0.0000000000
11
4.8931460415
21
14.0222024631
31
0.0000000000
11
4.8927953815
21
14.0017170201
31
0.0000000000
11
4.8924317292
21
13.9890396733
31
0.0000000000
11
4.8920619140
21
13.9844228571
31
0.0000000000
0
SPLINE
5
437
100
AcDbEntity
8
0
100
AcDbSpline
62
7
6
CONTINUOUS
70
0
71
3
72
12
73
8
74
6
42
0.0000001000
43
0.0000001000
44
0.0000000001
12
-0.0559590632
22
0.0839397785
32
0.0000000000
13
-0.0007778049
23
0.1008796223
33
0.0000000000
40
0.0000000000
40
0.0000000000
40
0.0000000000
40
0.0000000000
40
0.0459108209
40
0.1716268403
40
0.3747187490
40
0.6525912794
40
1.0000000000
40
1.0000000000
40
1.0000000000
40
1.0000000000
10
-8.2185276219
20
13.9844228571
30
0.0000000000
10
-8.2193839974
20
13.9857074385
30
0.0000000000
10
-8.2182202219
20
13.9920433380
30
0.0000000000
10
-8.2198309304
20
14.0041217525
30
0.0000000000
10
-8.2194442592
20
14.0248047653
30
0.0000000000
10
-8.2200737707
20
14.0525350181
30
0.0000000000
10
-8.2201642834
20
14.0735969748
30
0.0000000000
10
-8.2202543554
20
14.0852791283
30
0.0000000000
11
-8.2185276219
21
13.9844228571
31
0.0000000000
11
-8.2188974372
21
13.9890396733
31
0.0000000000
11
-8.2192610895
21
14.0017170201
31
0.0000000000
11
-8.2196117495
21
14.0222024631
31
0.0000000000
11
-8.2199449615
21
14.0502329918
31
0.0000000000
11
-8.2202543554
21
14.0852791283
31
0.0000000000
0
SPLINE
5
438
100
AcDbEntity
8
0
100
AcDbSpline
62
7
6
CONTINUOUS
70
0
71
3
72
12
73
8
74
6
42
0.0000001000
43
0.0000001000
44
0.0000000001
12
0.0559590632
22
-0.0839397785
32
0.0000000000
13
0.0007778049
23
-0.1008796223
33
0.0000000000
40
0.0000000000
40
0.0000000000
40
0.0000000000
40
0.0000000000
40
0.0459108209
40
0.1716268403
40
0.3747187490
40
0.6525912794
40
1.0000000000
40
1.0000000000
40
1.0000000000
40
1.0000000000
10
4.8920619140
20
-26.1814637863
30
0.0000000000
10
4.8929182895
20
-26.1827483677
30
0.0000000000
10
4.8917545140
20
-26.1890842672
30
0.0000000000
10
4.8933652225
20
-26.2011626817
30
0.0000000000
10
4.8929785513
20
-26.2218456945
30
0.0000000000
10
4.8936080627
20
-26.2495759473
30
0.0000000000
10
4.8936985754
20
-26.2706379040
30
0.0000000000
10
4.8937886475
20
-26.2823200575
30
0.0000000000
11
4.8920619140
21
-26.1814637863
31
0.0000000000
11
4.8924317292
21
-26.1860806025
31
0.0000000000
11
4.8927953815
21
-26.1987579493
31
0.0000000000
11
4.8931460415
21
-26.2192433923
31
0.0000000000
11
4.8934792536
21
-26.2472739210
31
0.0000000000
11
4.8937886475
21
-26.2823200575
31
0.0000000000
0
SPLINE
5
439
100
AcDbEntity
8
0
100
AcDbSpline
62
7
6
CONTINUOUS
70
0
71
3
72
12
73
8
74
6
42
0.0000001000
43
0.0000001000
44
0.0000000001
12
0.0007778049
22
0.1008796223
32
0.0000000000
13
0.0559590632
23
0.0839397785
33
0.0000000000
40
0.0000000000
40
0.0000000000
40
0.0000000000
40
0.0000000000
40
0.3474087206
40
0.6252812510
40
0.8283731597
40
0.9540891791
40
1.0000000000
40
1.0000000000
40
1.0000000000
40
1.0000000000
10
-8.2202543554
20
-26.2823200575
30
0.0000000000
10
-8.2201642834
20
-26.2706379040
30
0.0000000000
10
-8.2200737707
20
-26.2495759473
30
0.0000000000
10
-8.2194442592
20
-26.2218456945
30
0.0000000000
10
-8.2198309304
20
-26.2011626817
30
0.0000000000
10
-8.2182202219
20
-26.1890842672
30
0.0000000000
10
-8.2193839974
20
-26.1827483677
30
0.0000000000
10
-8.2185276219
20
-26.1814637863
30
0.0000000000
11
-8.2202543554
21
-26.2823200575
31
0.0000000000
11
-8.2199449615
21
-26.2472739210
31
0.0000000000
11
-8.2196117495
21
-26.2192433923
31
0.0000000000
11
-8.2192610895
21
-26.1987579493
31
0.0000000000
11
-8.2188974372
21
-26.1860806025
31
0.0000000000
11
-8.2185276219
21
-26.1814637863
31
0.0000000000
0
SPLINE
5
43A
100
AcDbEntity
8
0
100
AcDbSpline
62
7
6
CONTINUOUS
70
0
71
3
72
29
73
25
74
23
42
0.0000001000
43
0.0000001000
44
0.0000000001
12
0.0000000000
22
-1.3915531874
32
0.0000000000
13
0.0000000000
23
1.3915531874
33
0.0000000000
40
0.0000000000
40
0.0000000000
40
0.0000000000
40
0.0000000000
40
0.0460864919
40
0.0921974370
40
0.1381475988
40
0.1840370526
40
0.2296253540
40
0.2751518994
40
0.3203344751
40
0.3654890455
40
0.4103615618
40
0.4552346560
40
0.4999970050
40
0.5447604167
40
0.5896336457
40
0.6345061249
40
0.6796622821
40
0.7248432020
40
0.7703726778
40
0.8159584641
40
0.8618513462
40
0.9077989078
40
0.9539123982
40
1.0000000000
40
1.0000000000
40
1.0000000000
40
1.0000000000
10
5.6769101717
20
11.0488438000
30
0.0000000000
10
5.6769101717
20
11.0274665317
30
0.0000000000
10
5.6738727879
20
10.9846387926
30
0.0000000000
10
5.6602999254
20
10.9218023504
30
0.0000000000
10
5.6380009323
20
10.8615925391
30
0.0000000000
10
5.6075072894
20
10.8053676004
30
0.0000000000
10
5.5694602551
20
10.7541979717
30
0.0000000000
10
5.5247532699
20
10.7091906900
30
0.0000000000
10
5.4742532926
20
10.6711329272
30
0.0000000000
10
5.4191036259
20
10.6408162819
30
0.0000000000
10
5.3603226755
20
10.6187455784
30
0.0000000000
10
5.2991652371
20
10.6053505561
30
0.0000000000
10
5.2367708465
20
10.6008590543
30
0.0000000000
10
5.1743763017
20
10.6053494660
30
0.0000000000
10
5.1132181260
20
10.6187436507
30
0.0000000000
10
5.0544361038
20
10.6408137233
30
0.0000000000
10
4.9992860731
20
10.6711296473
30
0.0000000000
10
4.9487845601
20
10.7091875451
30
0.0000000000
10
4.9040774689
20
10.7541939628
30
0.0000000000
10
4.8660288717
20
10.8053646137
30
0.0000000000
10
4.8355350978
20
10.8615886397
30
0.0000000000
10
4.8132351332
20
10.9217997272
30
0.0000000000
10
4.7996616972
20
10.9846365793
30
0.0000000000
10
4.7966241203
20
11.0274660169
30
0.0000000000
10
4.7966241203
20
11.0488438000
30
0.0000000000
11
5.6769101717
21
11.0488438000
31
0.0000000000
11
5.6723691615
21
10.9848729659
31
0.0000000000
11
5.6588199552
21
10.9221539650
31
0.0000000000
11
5.6366061060
21
10.8621945096
31
0.0000000000
11
5.6061555086
21
10.8060646939
31
0.0000000000
11
5.5682956992
21
10.7551620028
31
0.0000000000
11
5.5236422506
21
10.7102217909
31
0.0000000000
11
5.4734251259
21
10.6723882756
31
0.0000000000
11
5.4183577419
21
10.6421257783
31
0.0000000000
11
5.3598980186
21
10.6201820848
31
0.0000000000
11
5.2988998404
21
10.6068259017
31
0.0000000000
11
5.2367713246
21
10.6023548115
31
0.0000000000
11
5.1746412554
21
10.6068249176
31
0.0000000000
11
5.1136426856
21
10.6201801895
31
0.0000000000
11
5.0551826729
21
10.6421229653
31
0.0000000000
11
5.0001129649
21
10.6723858181
31
0.0000000000
11
4.9498971929
21
10.7102173000
31
0.0000000000
11
4.9052403843
21
10.7551599217
31
0.0000000000
11
4.8673821502
21
10.8060594227
31
0.0000000000
11
4.8369287941
21
10.8621931692
31
0.0000000000
11
4.8147157648
21
10.9221490697
31
0.0000000000
11
4.8011653493
21
10.9848714332
31
0.0000000000
11
4.7966241203
21
11.0488438000
31
0.0000000000
0
SPLINE
5
43B
100
AcDbEntity
8
0
100
AcDbSpline
62
7
6
CONTINUOUS
70
0
71
3
72
29
73
25
74
23
42
0.0000001000
43
0.0000001000
44
0.0000000001
12
0.0000000000
22
1.4283404133
32
0.0000000000
13
0.0000000000
23
-1.4283404133
33
0.0000000000
40
0.0000000000
40
0.0000000000
40
0.0000000000
40
0.0000000000
40
0.0461614366
40
0.0922605403
40
0.1382361858
40
0.1840449824
40
0.2297019764
40
0.2751112250
40
0.3203948812
40
0.3654313474
40
0.4103994780
40
0.4552072678
40
0.5000000000
40
0.5447927322
40
0.5896005220
40
0.6345686526
40
0.6796051188
40
0.7248887750
40
0.7702980236
40
0.8159550176
40
0.8617638142
40
0.9077394597
40
0.9538385634
40
1.0000000000
40
1.0000000000
40
1.0000000000
40
1.0000000000
10
-9.0150115393
20
-22.9050341898
30
0.0000000000
10
-9.0150115393
20
-22.8830561080
30
0.0000000000
10
-9.0118865911
20
-22.8390657910
30
0.0000000000
10
-8.9979322969
20
-22.7745300905
30
0.0000000000
10
-8.9750402444
20
-22.7127635465
30
0.0000000000
10
-8.9437292477
20
-22.6550522034
30
0.0000000000
10
-8.9047056706
20
-22.6025837206
30
0.0000000000
10
-8.8587976433
20
-22.5563725809
30
0.0000000000
10
-8.8070115027
20
-22.5173480459
30
0.0000000000
10
-8.7503722778
20
-22.4862129312
30
0.0000000000
10
-8.6900761235
20
-22.4635710757
30
0.0000000000
10
-8.6272742557
20
-22.4498170529
30
0.0000000000
10
-8.5632328540
20
-22.4452044009
30
0.0000000000
10
-8.4991914522
20
-22.4498170529
30
0.0000000000
10
-8.4363895845
20
-22.4635710757
30
0.0000000000
10
-8.3760934302
20
-22.4862129312
30
0.0000000000
10
-8.3194542053
20
-22.5173480459
30
0.0000000000
10
-8.2676680646
20
-22.5563725809
30
0.0000000000
10
-8.2217600374
20
-22.6025837206
30
0.0000000000
10
-8.1827364603
20
-22.6550522034
30
0.0000000000
10
-8.1514254636
20
-22.7127635465
30
0.0000000000
10
-8.1285334111
20
-22.7745300905
30
0.0000000000
10
-8.1145791169
20
-22.8390657910
30
0.0000000000
10
-8.1114541687
20
-22.8830561080
30
0.0000000000
10
-8.1114541687
20
-22.9050341898
30
0.0000000000
11
-9.0150115393
21
-22.9050341898
31
0.0000000000
11
-9.0103353086
21
-22.8392659788
31
0.0000000000
11
-8.9964177758
21
-22.7749084281
31
0.0000000000
11
-8.9735895707
21
-22.7133351070
31
0.0000000000
11
-8.9423802871
21
-22.6558273839
31
0.0000000000
11
-8.9034541318
21
-22.6035054482
31
0.0000000000
11
-8.8577357153
21
-22.5574986173
31
0.0000000000
11
-8.8060745109
21
-22.5185796765
31
0.0000000000
11
-8.7496990714
21
-22.4875986368
31
0.0000000000
11
-8.6895667543
21
-22.4650249480
31
0.0000000000
11
-8.6270469103
21
-22.4513366841
31
0.0000000000
11
-8.5632328540
21
-22.4467417793
31
0.0000000000
11
-8.4994187977
21
-22.4513366841
31
0.0000000000
11
-8.4368989536
21
-22.4650249480
31
0.0000000000
11
-8.3767666366
21
-22.4875986368
31
0.0000000000
11
-8.3203911971
21
-22.5185796765
31
0.0000000000
11
-8.2687299926
21
-22.5574986173
31
0.0000000000
11
-8.2230115762
21
-22.6035054482
31
0.0000000000
11
-8.1840854208
21
-22.6558273839
31
0.0000000000
11
-8.1528761373
21
-22.7133351070
31
0.0000000000
11
-8.1300479322
21
-22.7749084281
31
0.0000000000
11
-8.1161303994
21
-22.8392659788
31
0.0000000000
11
-8.1114541687
21
-22.9050341898
31
0.0000000000
0
SPLINE
5
43C
100
AcDbEntity
8
0
100
AcDbSpline
62
7
6
CONTINUOUS
70
0
71
3
72
29
73
25
74
23
42
0.0000001000
43
0.0000001000
44
0.0000000001
12
0.0000000000
22
1.4283404133
32
0.0000000000
13
-0.0000000000
23
-1.4283404133
33
0.0000000000
40
0.0000000000
40
0.0000000000
40
0.0000000000
40
0.0000000000
40
0.0461614366
40
0.0922605403
40
0.1382361858
40
0.1840449824
40
0.2297019764
40
0.2751112250
40
0.3203948812
40
0.3654313474
40
0.4103994780
40
0.4552072678
40
0.5000000000
40
0.5447927322
40
0.5896005220
40
0.6345686526
40
0.6796051188
40
0.7248887750
40
0.7702980236
40
0.8159550176
40
0.8617638142
40
0.9077394597
40
0.9538385634
40
1.0000000000
40
1.0000000000
40
1.0000000000
40
1.0000000000
10
4.7849884607
20
-22.9050341898
30
0.0000000000
10
4.7849884607
20
-22.8830561080
30
0.0000000000
10
4.7881134089
20
-22.8390657910
30
0.0000000000
10
4.8020677031
20
-22.7745300905
30
0.0000000000
10
4.8249597556
20
-22.7127635465
30
0.0000000000
10
4.8562707523
20
-22.6550522034
30
0.0000000000
10
4.8952943294
20
-22.6025837206
30
0.0000000000
10
4.9412023567
20
-22.5563725809
30
0.0000000000
10
4.9929884973
20
-22.5173480459
30
0.0000000000
10
5.0496277222
20
-22.4862129312
30
0.0000000000
10
5.1099238765
20
-22.4635710757
30
0.0000000000
10
5.1727257443
20
-22.4498170529
30
0.0000000000
10
5.2367671460
20
-22.4452044009
30
0.0000000000
10
5.3008085478
20
-22.4498170529
30
0.0000000000
10
5.3636104155
20
-22.4635710757
30
0.0000000000
10
5.4239065698
20
-22.4862129312
30
0.0000000000
10
5.4805457947
20
-22.5173480459
30
0.0000000000
10
5.5323319354
20
-22.5563725809
30
0.0000000000
10
5.5782399626
20
-22.6025837206
30
0.0000000000
10
5.6172635397
20
-22.6550522034
30
0.0000000000
10
5.6485745364
20
-22.7127635465
30
0.0000000000
10
5.6714665889
20
-22.7745300905
30
0.0000000000
10
5.6854208831
20
-22.8390657910
30
0.0000000000
10
5.6885458313
20
-22.8830561080
30
0.0000000000
10
5.6885458313
20
-22.9050341898
30
0.0000000000
11
4.7849884607
21
-22.9050341898
31
0.0000000000
11
4.7896646914
21
-22.8392659788
31
0.0000000000
11
4.8035822242
21
-22.7749084281
31
0.0000000000
11
4.8264104293
21
-22.7133351070
31
0.0000000000
11
4.8576197129
21
-22.6558273839
31
0.0000000000
11
4.8965458682
21
-22.6035054482
31
0.0000000000
11
4.9422642847
21
-22.5574986173
31
0.0000000000
11
4.9939254891
21
-22.5185796765
31
0.0000000000
11
5.0503009286
21
-22.4875986368
31
0.0000000000
11
5.1104332457
21
-22.4650249480
31
0.0000000000
11
5.1729530897
21
-22.4513366841
31
0.0000000000
11
5.2367671460
21
-22.4467417793
31
0.0000000000
11
5.3005812023
21
-22.4513366841
31
0.0000000000
11
5.3631010464
21
-22.4650249480
31
0.0000000000
11
5.4232333634
21
-22.4875986368
31
0.0000000000
11
5.4796088029
21
-22.5185796765
31
0.0000000000
11
5.5312700074
21
-22.5574986173
31
0.0000000000
11
5.5769884238
21
-22.6035054482
31
0.0000000000
11
5.6159145792
21
-22.6558273839
31
0.0000000000
11
5.6471238627
21
-22.7133351070
31
0.0000000000
11
5.6699520678
21
-22.7749084281
31
0.0000000000
11
5.6838696006
21
-22.8392659788
31
0.0000000000
11
5.6885458313
21
-22.9050341898
31
0.0000000000
0
SPLINE
5
43D
100
AcDbEntity
8
0
100
AcDbSpline
62
7
6
CONTINUOUS
70
0
71
3
72
29
73
25
74
23
42
0.0000001000
43
0.0000001000
44
0.0000000001
12
0.0000000000
22
-1.3915531874
32
0.0000000000
13
-0.0000000000
23
1.3915531874
33
0.0000000000
40
0.0000000000
40
0.0000000000
40
0.0000000000
40
0.0000000000
40
0.0460864919
40
0.0921974370
40
0.1381475988
40
0.1840370526
40
0.2296253540
40
0.2751518994
40
0.3203344751
40
0.3654890455
40
0.4103615618
40
0.4552346560
40
0.4999970050
40
0.5447604167
40
0.5896336457
40
0.6345061249
40
0.6796622821
40
0.7248432020
40
0.7703726778
40
0.8159584641
40
0.8618513462
40
0.9077989078
40
0.9539123982
40
1.0000000000
40
1.0000000000
40
1.0000000000
40
1.0000000000
10
-8.1230898283
20
11.0488438000
30
0.0000000000
10
-8.1230898283
20
11.0274665317
30
0.0000000000
10
-8.1261272121
20
10.9846387926
30
0.0000000000
10
-8.1397000746
20
10.9218023504
30
0.0000000000
10
-8.1619990677
20
10.8615925391
30
0.0000000000
10
-8.1924927106
20
10.8053676004
30
0.0000000000
10
-8.2305397449
20
10.7541979717
30
0.0000000000
10
-8.2752467301
20
10.7091906900
30
0.0000000000
10
-8.3257467074
20
10.6711329272
30
0.0000000000
10
-8.3808963741
20
10.6408162819
30
0.0000000000
10
-8.4396773245
20
10.6187455784
30
0.0000000000
10
-8.5008347629
20
10.6053505561
30
0.0000000000
10
-8.5632291535
20
10.6008590543
30
0.0000000000
10
-8.6256236983
20
10.6053494660
30
0.0000000000
10
-8.6867818740
20
10.6187436507
30
0.0000000000
10
-8.7455638962
20
10.6408137233
30
0.0000000000
10
-8.8007139269
20
10.6711296473
30
0.0000000000
10
-8.8512154399
20
10.7091875451
30
0.0000000000
10
-8.8959225311
20
10.7541939628
30
0.0000000000
10
-8.9339711283
20
10.8053646137
30
0.0000000000
10
-8.9644649022
20
10.8615886397
30
0.0000000000
10
-8.9867648668
20
10.9217997272
30
0.0000000000
10
-9.0003383028
20
10.9846365793
30
0.0000000000
10
-9.0033758797
20
11.0274660169
30
0.0000000000
10
-9.0033758797
20
11.0488438000
30
0.0000000000
11
-8.1230898283
21
11.0488438000
31
0.0000000000
11
-8.1276308385
21
10.9848729659
31
0.0000000000
11
-8.1411800448
21
10.9221539650
31
0.0000000000
11
-8.1633938940
21
10.8621945096
31
0.0000000000
11
-8.1938444914
21
10.8060646939
31
0.0000000000
11
-8.2317043008
21
10.7551620028
31
0.0000000000
11
-8.2763577494
21
10.7102217909
31
0.0000000000
11
-8.3265748741
21
10.6723882756
31
0.0000000000
11
-8.3816422581
21
10.6421257783
31
0.0000000000
11
-8.4401019814
21
10.6201820848
31
0.0000000000
11
-8.5011001596
21
10.6068259017
31
0.0000000000
11
-8.5632286754
21
10.6023548115
31
0.0000000000
11
-8.6253587446
21
10.6068249176
31
0.0000000000
11
-8.6863573144
21
10.6201801895
31
0.0000000000
11
-8.7448173271
21
10.6421229653
31
0.0000000000
11
-8.7998870351
21
10.6723858181
31
0.0000000000
11
-8.8501028071
21
10.7102173000
31
0.0000000000
11
-8.8947596157
21
10.7551599217
31
0.0000000000
11
-8.9326178498
21
10.8060594227
31
0.0000000000
11
-8.9630712059
21
10.8621931692
31
0.0000000000
11
-8.9852842352
21
10.9221490697
31
0.0000000000
11
-8.9988346507
21
10.9848714332
31
0.0000000000
11
-9.0033758797
21
11.0488438000
31
0.0000000000
0
SPLINE
5
43E
100
AcDbEntity
8
0
100
AcDbSpline
62
7
6
CONTINUOUS
70
0
71
3
72
18
73
14
74
12
42
0.0000001000
43
0.0000001000
44
0.0000000001
12
-0.7846442912
22
0.0000000000
32
0.0000000000
13
0.0000000000
23
-0.7846442912
33
0.0000000000
40
0.0000000000
40
0.0000000000
40
0.0000000000
40
0.0000000000
40
0.0908164987
40
0.1817113867
40
0.2724205288
40
0.3633775303
40
0.4540716926
40
0.5451007617
40
0.6358638258
40
0.7269477360
40
0.8178383033
40
0.9089451916
40
1.0000000000
40
1.0000000000
40
1.0000000000
40
1.0000000000
10
-10.7507752200
20
14.6128115300
30
0.0000000000
10
-10.7745281024
20
14.6128115300
30
0.0000000000
10
-10.8221241505
20
14.6094096915
30
0.0000000000
10
-10.8919713680
20
14.5942057234
30
0.0000000000
10
-10.9589911698
20
14.5691998417
30
0.0000000000
10
-11.0217188339
20
14.5349305170
30
0.0000000000
10
-11.0789960730
20
14.4920319579
30
0.0000000000
10
-11.1295488886
20
14.4414514210
30
0.0000000000
10
-11.1724479377
20
14.3841105244
30
0.0000000000
10
-11.2067355057
20
14.3212803596
30
0.0000000000
10
-11.2317647822
20
14.2541239435
30
0.0000000000
10
-11.2469879921
20
14.1841117646
30
0.0000000000
10
-11.2503946202
20
14.1363978898
30
0.0000000000
10
-11.2503946202
20
14.1125826779
30
0.0000000000
11
-10.7507752200
21
14.6128115300
31
0.0000000000
11
-10.8218522882
21
14.6077277142
31
0.0000000000
11
-10.8915410475
21
14.5925606007
31
0.0000000000
11
-10.9582246622
21
14.5676790365
31
0.0000000000
11
-11.0208567069
21
14.5334628747
31
0.0000000000
11
-11.0778154779
21
14.4908035016
31
0.0000000000
11
-11.1283076778
21
14.4402848800
31
0.0000000000
11
-11.1709707545
21
14.3832613487
31
0.0000000000
11
-11.2052069441
21
14.3205267845
31
0.0000000000
11
-11.2301152720
21
14.2537012195
31
0.0000000000
11
-11.2453026180
21
14.1838466264
31
0.0000000000
11
-11.2503946202
21
14.1125826779
31
0.0000000000
0
SPLINE
5
43F
100
AcDbEntity
8
0
100
AcDbSpline
62
7
6
CONTINUOUS
70
0
71
3
72
18
73
14
74
12
42
0.0000001000
43
0.0000001000
44
0.0000000001
12
0.0000000000
22
0.7846442912
32
0.0000000000
13
0.7846442912
23
0.0000000000
33
0.0000000000
40
0.0000000000
40
0.0000000000
40
0.0000000000
40
0.0000000000
40
0.0910548084
40
0.1821616967
40
0.2730522640
40
0.3641361742
40
0.4548992383
40
0.5459283074
40
0.6366224697
40
0.7275794712
40
0.8182886133
40
0.9091835013
40
1.0000000000
40
1.0000000000
40
1.0000000000
40
1.0000000000
10
-11.3132328540
20
14.3012506833
30
0.0000000000
10
-11.3132328540
20
14.3250658952
30
0.0000000000
10
-11.3098262259
20
14.3727797701
30
0.0000000000
10
-11.2946030160
20
14.4427919490
30
0.0000000000
10
-11.2695737394
20
14.5099483650
30
0.0000000000
10
-11.2352861714
20
14.5727785298
30
0.0000000000
10
-11.1923871223
20
14.6301194264
30
0.0000000000
10
-11.1418343068
20
14.6806999633
30
0.0000000000
10
-11.0845570676
20
14.7235985224
30
0.0000000000
10
-11.0218294036
20
14.7578678471
30
0.0000000000
10
-10.9548096017
20
14.7828737288
30
0.0000000000
10
-10.8849623842
20
14.7980776970
30
0.0000000000
10
-10.8373663361
20
14.8014795354
30
0.0000000000
10
-10.8136134537
20
14.8014795354
30
0.0000000000
11
-11.3132328540
21
14.3012506833
31
0.0000000000
11
-11.3081408518
21
14.3725146318
31
0.0000000000
11
-11.2929535057
21
14.4423692249
31
0.0000000000
11
-11.2680451779
21
14.5091947900
31
0.0000000000
11
-11.2338089883
21
14.5719293542
31
0.0000000000
11
-11.1911459116
21
14.6289528854
31
0.0000000000
11
-11.1406537116
21
14.6794715071
31
0.0000000000
11
-11.0836949406
21
14.7221308801
31
0.0000000000
11
-11.0210628960
21
14.7563470419
31
0.0000000000
11
-10.9543792812
21
14.7812286061
31
0.0000000000
11
-10.8846905220
21
14.7963957196
31
0.0000000000
11
-10.8136134537
21
14.8014795354
31
0.0000000000
0
SPLINE
5
440
100
AcDbEntity
8
0
100
AcDbSpline
62
7
6
CONTINUOUS
70
0
71
3
72
18
73
14
74
12
42
0.0000001000
43
0.0000001000
44
0.0000000001
12
-0.7846442912
22
0.0000000000
32
0.0000000000
13
-0.0000000000
23
0.7846442912
33
0.0000000000
40
0.0000000000
40
0.0000000000
40
0.0000000000
40
0.0000000000
40
0.0908164987
40
0.1817113867
40
0.2724205288
40
0.3633775303
40
0.4540716926
40
0.5451007617
40
0.6358638258
40
0.7269477360
40
0.8178383033
40
0.9089451916
40
1.0000000000
40
1.0000000000
40
1.0000000000
40
1.0000000000
10
-10.8136134537
20
-26.9985204646
30
0.0000000000
10
-10.8373663361
20
-26.9985204646
30
0.0000000000
10
-10.8849623842
20
-26.9951186262
30
0.0000000000
10
-10.9548096017
20
-26.9799146580
30
0.0000000000
10
-11.0218294036
20
-26.9549087763
30
0.0000000000
10
-11.0845570676
20
-26.9206394516
30
0.0000000000
10
-11.1418343068
20
-26.8777408925
30
0.0000000000
10
-11.1923871223
20
-26.8271603556
30
0.0000000000
10
-11.2352861714
20
-26.7698194590
30
0.0000000000
10
-11.2695737394
20
-26.7069892942
30
0.0000000000
10
-11.2946030160
20
-26.6398328782
30
0.0000000000
10
-11.3098262259
20
-26.5698206993
30
0.0000000000
10
-11.3132328540
20
-26.5221068244
30
0.0000000000
10
-11.3132328540
20
-26.4982916125
30
0.0000000000
11
-10.8136134537
21
-26.9985204646
31
0.0000000000
11
-10.8846905220
21
-26.9934366488
31
0.0000000000
11
-10.9543792812
21
-26.9782695353
31
0.0000000000
11
-11.0210628960
21
-26.9533879712
31
0.0000000000
11
-11.0836949406
21
-26.9191718094
31
0.0000000000
11
-11.1406537116
21
-26.8765124363
31
0.0000000000
11
-11.1911459116
21
-26.8259938146
31
0.0000000000
11
-11.2338089883
21
-26.7689702834
31
0.0000000000
11
-11.2680451779
21
-26.7062357192
31
0.0000000000
11
-11.2929535057
21
-26.6394101541
31
0.0000000000
11
-11.3081408518
21
-26.5695555610
31
0.0000000000
11
-11.3132328540
21
-26.4982916125
31
0.0000000000
0
SPLINE
5
441
100
AcDbEntity
8
0
100
AcDbSpline
62
7
6
CONTINUOUS
70
0
71
3
72
18
73
14
74
12
42
0.0000001000
43
0.0000001000
44
0.0000000001
12
0.0000000000
22
-0.7846442912
32
0.0000000000
13
0.7846442912
23
0.0000000000
33
0.0000000000
40
0.0000000000
40
0.0000000000
40
0.0000000000
40
0.0000000000
40
0.0910548084
40
0.1821616967
40
0.2730522640
40
0.3641361742
40
0.4548992383
40
0.5459283074
40
0.6366224697
40
0.7275794712
40
0.8182886133
40
0.9091835013
40
1.0000000000
40
1.0000000000
40
1.0000000000
40
1.0000000000
10
-11.1578827761
20
-26.0318623769
30
0.0000000000
10
-11.1578827761
20
-26.0556775888
30
0.0000000000
10
-11.1544761480
20
-26.1033914636
30
0.0000000000
10
-11.1392529381
20
-26.1734036425
30
0.0000000000
10
-11.1142236615
20
-26.2405600586
30
0.0000000000
10
-11.0799360936
20
-26.3033902234
30
0.0000000000
10
-11.0370370445
20
-26.3607311200
30
0.0000000000
10
-10.9864842289
20
-26.4113116569
30
0.0000000000
10
-10.9292069897
20
-26.4542102160
30
0.0000000000
10
-10.8664793257
20
-26.4884795407
30
0.0000000000
10
-10.7994595239
20
-26.5134854224
30
0.0000000000
10
-10.7296123064
20
-26.5286893905
30
0.0000000000
10
-10.6820162583
20
-26.5320912290
30
0.0000000000
10
-10.6582633759
20
-26.5320912290
30
0.0000000000
11
-11.1578827761
21
-26.0318623769
31
0.0000000000
11
-11.1527907739
21
-26.1031263254
31
0.0000000000
11
-11.1376034279
21
-26.1729809185
31
0.0000000000
11
-11.1126951000
21
-26.2398064835
31
0.0000000000
11
-11.0784589104
21
-26.3025410478
31
0.0000000000
11
-11.0357958337
21
-26.3595645790
31
0.0000000000
11
-10.9853036338
21
-26.4100832006
31
0.0000000000
11
-10.9283448627
21
-26.4527425737
31
0.0000000000
11
-10.8657128181
21
-26.4869587355
31
0.0000000000
11
-10.7990292034
21
-26.5118402997
31
0.0000000000
11
-10.7293404441
21
-26.5270074132
31
0.0000000000
11
-10.6582633759
21
-26.5320912290
31
0.0000000000
0
SPLINE
5
442
100
AcDbEntity
8
0
100
AcDbSpline
62
7
6
CONTINUOUS
70
0
71
3
72
18
73
14
74
12
42
0.0000001000
43
0.0000001000
44
0.0000000001
12
0.7846442912
22
0.0000000000
32
0.0000000000
13
0.0000000000
23
0.7846442912
33
0.0000000000
40
0.0000000000
40
0.0000000000
40
0.0000000000
40
0.0000000000
40
0.0908164987
40
0.1817113867
40
0.2724205288
40
0.3633775303
40
0.4540716926
40
0.5451007617
40
0.6358638258
40
0.7269477360
40
0.8178383033
40
0.9089451916
40
1.0000000000
40
1.0000000000
40
1.0000000000
40
1.0000000000
10
7.3317976679
20
-26.5320912290
30
0.0000000000
10
7.3555505503
20
-26.5320912290
30
0.0000000000
10
7.4031465984
20
-26.5286893905
30
0.0000000000
10
7.4729938159
20
-26.5134854224
30
0.0000000000
10
7.5400136177
20
-26.4884795407
30
0.0000000000
10
7.6027412818
20
-26.4542102160
30
0.0000000000
10
7.6600185209
20
-26.4113116569
30
0.0000000000
10
7.7105713365
20
-26.3607311200
30
0.0000000000
10
7.7534703856
20
-26.3033902234
30
0.0000000000
10
7.7877579536
20
-26.2405600586
30
0.0000000000
10
7.8127872302
20
-26.1734036425
30
0.0000000000
10
7.8280104401
20
-26.1033914636
30
0.0000000000
10
7.8314170682
20
-26.0556775888
30
0.0000000000
10
7.8314170682
20
-26.0318623769
30
0.0000000000
11
7.3317976679
21
-26.5320912290
31
0.0000000000
11
7.4028747361
21
-26.5270074132
31
0.0000000000
11
7.4725634954
21
-26.5118402997
31
0.0000000000
11
7.5392471101
21
-26.4869587355
31
0.0000000000
11
7.6018791548
21
-26.4527425737
31
0.0000000000
11
7.6588379258
21
-26.4100832006
31
0.0000000000
11
7.7093301257
21
-26.3595645790
31
0.0000000000
11
7.7519932025
21
-26.3025410478
31
0.0000000000
11
7.7862293920
21
-26.2398064835
31
0.0000000000
11
7.8111377199
21
-26.1729809185
31
0.0000000000
11
7.8263250660
21
-26.1031263254
31
0.0000000000
11
7.8314170682
21
-26.0318623769
31
0.0000000000
0
SPLINE
5
443
100
AcDbEntity
8
0
100
AcDbSpline
62
7
6
CONTINUOUS
70
0
71
3
72
18
73
14
74
12
42
0.0000001000
43
0.0000001000
44
0.0000000001
12
0.0000000000
22
-0.7846442912
32
0.0000000000
13
-0.7846442912
23
0.0000000000
33
0.0000000000
40
0.0000000000
40
0.0000000000
40
0.0000000000
40
0.0000000000
40
0.0910548084
40
0.1821616967
40
0.2730522640
40
0.3641361742
40
0.4548992383
40
0.5459283074
40
0.6366224697
40
0.7275794712
40
0.8182886133
40
0.9091835013
40
1.0000000000
40
1.0000000000
40
1.0000000000
40
1.0000000000
10
7.9867671460
20
-26.4982916125
30
0.0000000000
10
7.9867671460
20
-26.5221068244
30
0.0000000000
10
7.9833605179
20
-26.5698206993
30
0.0000000000
10
7.9681373080
20
-26.6398328782
30
0.0000000000
10
7.9431080314
20
-26.7069892942
30
0.0000000000
10
7.9088204635
20
-26.7698194590
30
0.0000000000
10
7.8659214144
20
-26.8271603556
30
0.0000000000
10
7.8153685988
20
-26.8777408925
30
0.0000000000
10
7.7580913596
20
-26.9206394516
30
0.0000000000
10
7.6953636956
20
-26.9549087763
30
0.0000000000
10
7.6283438938
20
-26.9799146580
30
0.0000000000
10
7.5584966763
20
-26.9951186262
30
0.0000000000
10
7.5109006282
20
-26.9985204646
30
0.0000000000
10
7.4871477458
20
-26.9985204646
30
0.0000000000
11
7.9867671460
21
-26.4982916125
31
0.0000000000
11
7.9816751438
21
-26.5695555610
31
0.0000000000
11
7.9664877978
21
-26.6394101541
31
0.0000000000
11
7.9415794699
21
-26.7062357192
31
0.0000000000
11
7.9073432803
21
-26.7689702834
31
0.0000000000
11
7.8646802036
21
-26.8259938146
31
0.0000000000
11
7.8141880037
21
-26.8765124363
31
0.0000000000
11
7.7572292326
21
-26.9191718094
31
0.0000000000
11
7.6945971880
21
-26.9533879712
31
0.0000000000
11
7.6279135732
21
-26.9782695353
31
0.0000000000
11
7.5582248140
21
-26.9934366488
31
0.0000000000
11
7.4871477458
21
-26.9985204646
31
0.0000000000
0
SPLINE
5
444
100
AcDbEntity
8
0
100
AcDbSpline
62
7
6
CONTINUOUS
70
0
71
3
72
18
73
14
74
12
42
0.0000001000
43
0.0000001000
44
0.0000000001
12
0.7846442912
22
0.0000000000
32
0.0000000000
13
0.0000000000
23
-0.7846442912
33
0.0000000000
40
0.0000000000
40
0.0000000000
40
0.0000000000
40
0.0000000000
40
0.0908164987
40
0.1817113867
40
0.2724205288
40
0.3633775303
40
0.4540716926
40
0.5451007617
40
0.6358638258
40
0.7269477360
40
0.8178383033
40
0.9089451916
40
1.0000000000
40
1.0000000000
40
1.0000000000
40
1.0000000000
10
7.4871477458
20
14.8014795354
30
0.0000000000
10
7.5109006282
20
14.8014795354
30
0.0000000000
10
7.5584966763
20
14.7980776970
30
0.0000000000
10
7.6283438938
20
14.7828737288
30
0.0000000000
10
7.6953636956
20
14.7578678471
30
0.0000000000
10
7.7580913596
20
14.7235985224
30
0.0000000000
10
7.8153685988
20
14.6806999633
30
0.0000000000
10
7.8659214144
20
14.6301194264
30
0.0000000000
10
7.9088204635
20
14.5727785298
30
0.0000000000
10
7.9431080314
20
14.5099483650
30
0.0000000000
10
7.9681373080
20
14.4427919490
30
0.0000000000
10
7.9833605179
20
14.3727797701
30
0.0000000000
10
7.9867671460
20
14.3250658952
30
0.0000000000
10
7.9867671460
20
14.3012506833
30
0.0000000000
11
7.4871477458
21
14.8014795354
31
0.0000000000
11
7.5582248140
21
14.7963957196
31
0.0000000000
11
7.6279135732
21
14.7812286061
31
0.0000000000
11
7.6945971880
21
14.7563470419
31
0.0000000000
11
7.7572292326
21
14.7221308801
31
0.0000000000
11
7.8141880037
21
14.6794715071
31
0.0000000000
11
7.8646802036
21
14.6289528854
31
0.0000000000
11
7.9073432803
21
14.5719293542
31
0.0000000000
11
7.9415794699
21
14.5091947900
31
0.0000000000
11
7.9664877978
21
14.4423692249
31
0.0000000000
11
7.9816751438
21
14.3725146318
31
0.0000000000
11
7.9867671460
21
14.3012506833
31
0.0000000000
0
SPLINE
5
445
100
AcDbEntity
8
0
100
AcDbSpline
62
7
6
CONTINUOUS
70
0
71
3
72
18
73
14
74
12
42
0.0000001000
43
0.0000001000
44
0.0000000001
12
0.0000000000
22
0.7846442912
32
0.0000000000
13
-0.7846442912
23
-0.0000000000
33
0.0000000000
40
0.0000000000
40
0.0000000000
40
0.0000000000
40
0.0000000000
40
0.0910548084
40
0.1821616967
40
0.2730522640
40
0.3641361742
40
0.4548992383
40
0.5459283074
40
0.6366224697
40
0.7275794712
40
0.8182886133
40
0.9091835013
40
1.0000000000
40
1.0000000000
40
1.0000000000
40
1.0000000000
10
7.9239289123
20
14.1125826779
30
0.0000000000
10
7.9239289123
20
14.1363978898
30
0.0000000000
10
7.9205222842
20
14.1841117646
30
0.0000000000
10
7.9052990743
20
14.2541239435
30
0.0000000000
10
7.8802697977
20
14.3212803596
30
0.0000000000
10
7.8459822297
20
14.3841105244
30
0.0000000000
10
7.8030831806
20
14.4414514210
30
0.0000000000
10
7.7525303651
20
14.4920319579
30
0.0000000000
10
7.6952531259
20
14.5349305170
30
0.0000000000
10
7.6325254619
20
14.5691998417
30
0.0000000000
10
7.5655056600
20
14.5942057234
30
0.0000000000
10
7.4956584425
20
14.6094096915
30
0.0000000000
10
7.4480623944
20
14.6128115300
30
0.0000000000
10
7.4243095120
20
14.6128115300
30
0.0000000000
11
7.9239289123
21
14.1125826779
31
0.0000000000
11
7.9188369101
21
14.1838466264
31
0.0000000000
11
7.9036495640
21
14.2537012195
31
0.0000000000
11
7.8787412362
21
14.3205267845
31
0.0000000000
11
7.8445050466
21
14.3832613487
31
0.0000000000
11
7.8018419699
21
14.4402848800
31
0.0000000000
11
7.7513497699
21
14.4908035016
31
0.0000000000
11
7.6943909989
21
14.5334628747
31
0.0000000000
11
7.6317589542
21
14.5676790365
31
0.0000000000
11
7.5650753395
21
14.5925606007
31
0.0000000000
11
7.4953865803
21
14.6077277142
31
0.0000000000
11
7.4243095120
21
14.6128115300
31
0.0000000000
0
SPLINE
5
446
100
AcDbEntity
8
0
100
AcDbSpline
62
7
6
CONTINUOUS
70
0
71
3
72
18
73
14
74
12
42
0.0000001000
43
0.0000001000
44
0.0000000001
12
-0.5002718639
22
0.0000000000
32
0.0000000000
13
0.0000000000
23
0.5002718639
33
0.0000000000
40
0.0000000000
40
0.0000000000
40
0.0000000000
40
0.0000000000
40
0.0104691420
40
0.0409117320
40
0.0907483099
40
0.1592317187
40
0.2445764980
40
0.3455990248
40
0.4595763739
40
0.5849133839
40
0.7183602474
40
0.8578045429
40
1.0000000000
40
1.0000000000
40
1.0000000000
40
1.0000000000
10
-11.1840653735
20
8.6014795354
30
0.0000000000
10
-11.1858111792
20
8.6014795354
30
0.0000000000
10
-11.1844757960
20
8.6121226546
30
0.0000000000
10
-11.1875954197
20
8.6235694796
30
0.0000000000
10
-11.1875083524
20
8.6503910380
30
0.0000000000
10
-11.1890506965
20
8.6834623824
30
0.0000000000
10
-11.1898271053
20
8.7262780153
30
0.0000000000
10
-11.1907486172
20
8.7762425046
30
0.0000000000
10
-11.1914577521
20
8.8330281189
30
0.0000000000
10
-11.1920489190
20
8.8951748468
30
0.0000000000
10
-11.1924743807
20
8.9615843514
30
0.0000000000
10
-11.1927350105
20
9.0308016803
30
0.0000000000
10
-11.1927929060
20
9.0777674066
30
0.0000000000
10
-11.1927929060
20
9.1014795354
30
0.0000000000
11
-11.1840653735
21
8.6014795354
31
0.0000000000
11
-11.1853072811
21
8.6065675806
31
0.0000000000
11
-11.1865251149
21
8.6217483817
31
0.0000000000
11
-11.1876905175
21
8.6466529670
31
0.0000000000
11
-11.1887850024
21
8.6808958028
31
0.0000000000
11
-11.1897801891
21
8.7235797947
31
0.0000000000
11
-11.1906621349
21
8.7741108266
31
0.0000000000
11
-11.1914070651
21
8.8311256212
31
0.0000000000
11
-11.1920046413
21
8.8938253532
31
0.0000000000
11
-11.1924392278
21
8.9605836498
31
0.0000000000
11
-11.1927041252
21
9.0303432044
31
0.0000000000
11
-11.1927929060
21
9.1014795354
31
0.0000000000
0
SPLINE
5
447
100
AcDbEntity
8
0
100
AcDbSpline
62
7
6
CONTINUOUS
70
0
71
3
72
9
73
5
74
3
42
0.0000001000
43
0.0000001000
44
0.0000000001
12
0.0039567437
22
-0.0039567437
32
0.0000000000
13
0.0002158296
23
-0.0055915167
33
0.0000000000
40
0.0000000000
40
0.0000000000
40
0.0000000000
40
0.0000000000
40
0.2717515543
40
1.0000000000
40
1.0000000000
40
1.0000000000
40
1.0000000000
10
-6.0195822071
20
17.6578288885
30
0.0000000000
10
-6.0192237900
20
17.6574704714
30
0.0000000000
10
-6.0196015566
20
17.6552909352
30
0.0000000000
10
-6.0192179793
20
17.6536102979
30
0.0000000000
10
-6.0191655867
20
17.6522529601
30
0.0000000000
11
-6.0195822071
21
17.6578288885
31
0.0000000000
11
-6.0193728829
21
17.6563227299
31
0.0000000000
11
-6.0191655867
21
17.6522529601
31
0.0000000000
0
SPLINE
5
448
100
AcDbEntity
8
0
100
AcDbSpline
62
7
6
CONTINUOUS
70
0
71
3
72
9
73
5
74
3
42
0.0000001000
43
0.0000001000
44
0.0000000001
12
-0.0039567437
22
-0.0039567437
32
0.0000000000
13
-0.0002158296
23
-0.0055915167
33
0.0000000000
40
0.0000000000
40
0.0000000000
40
0.0000000000
40
0.0000000000
40
0.2717515543
40
1.0000000000
40
1.0000000000
40
1.0000000000
40
1.0000000000
10
2.6931164992
20
17.6578288885
30
0.0000000000
10
2.6927580821
20
17.6574704714
30
0.0000000000
10
2.6931358486
20
17.6552909352
30
0.0000000000
10
2.6927522713
20
17.6536102979
30
0.0000000000
10
2.6926998788
20
17.6522529601
30
0.0000000000
11
2.6931164992
21
17.6578288885
31
0.0000000000
11
2.6929071750
21
17.6563227299
31
0.0000000000
11
2.6926998788
21
17.6522529601
31
0.0000000000
0
SPLINE
5
449
100
AcDbEntity
8
0
100
AcDbSpline
62
7
6
CONTINUOUS
70
0
71
3
72
9
73
5
74
3
42
0.0000001000
43
0.0000001000
44
0.0000000001
12
0.0002158296
22
-0.0055915167
32
0.0000000000
13
0.0039567437
23
-0.0039567437
33
0.0000000000
40
0.0000000000
40
0.0000000000
40
0.0000000000
40
0.0000000000
40
0.7282484456
40
1.0000000000
40
1.0000000000
40
1.0000000000
40
1.0000000000
10
2.6926998788
20
-29.8492938893
30
0.0000000000
10
2.6927522713
20
-29.8506512271
30
0.0000000000
10
2.6931358486
20
-29.8523318644
30
0.0000000000
10
2.6927580821
20
-29.8545114006
30
0.0000000000
10
2.6931164992
20
-29.8548698177
30
0.0000000000
11
2.6926998788
21
-29.8492938893
31
0.0000000000
11
2.6929071750
21
-29.8533636591
31
0.0000000000
11
2.6931164992
21
-29.8548698177
31
0.0000000000
0
SPLINE
5
44A
100
AcDbEntity
8
0
100
AcDbSpline
62
7
6
CONTINUOUS
70
0
71
3
72
9
73
5
74
3
42
0.0000001000
43
0.0000001000
44
0.0000000001
12
-0.0002158296
22
-0.0055915167
32
0.0000000000
13
-0.0039567437
23
-0.0039567437
33
0.0000000000
40
0.0000000000
40
0.0000000000
40
0.0000000000
40
0.0000000000
40
0.7282484456
40
1.0000000000
40
1.0000000000
40
1.0000000000
40
1.0000000000
10
-6.0191655867
20
-29.8492938893
30
0.0000000000
10
-6.0192179793
20
-29.8506512271
30
0.0000000000
10
-6.0196015566
20
-29.8523318644
30
0.0000000000
10
-6.0192237900
20
-29.8545114006
30
0.0000000000
10
-6.0195822071
20
-29.8548698177
30
0.0000000000
11
-6.0191655867
21
-29.8492938893
31
0.0000000000
11
-6.0193728829
21
-29.8533636591
31
0.0000000000
11
-6.0195822071
21
-29.8548698177
31
0.0000000000
0
ENDSEC
0
SECTION
2
OBJECTS
0
DICTIONARY
5
44B
100
AcDbDictionary
3
ACAD_GROUP
350
44C
3
ACAD_MLINESTYLE
350
44D
0
DICTIONARY
5
44C
102
{ACAD_REACTORS
330
44B
102
}
100
AcDbDictionary
0
DICTIONARY
5
44D
102
{ACAD_REACTORS
330
44B
102
}
100
AcDbDictionary
3
STANDARD
350
44E
0
MLINESTYLE
5
44E
102
{ACAD_REACTORS
330
44D
102
}
100
AcDbMlineStyle
2
STANDARD
70
0
3

62
256
51
90.0
52
90.0
71
2
49
0.5
62
256
6
BYLAYER
49
-0.5
62
256
6
BYLAYER
0
ENDSEC
0
EOF
