0
SECTION
2
HEADER
9
$ACADVER
1
AC1014
9
$HANDSEED
5
       495
9
$EXTMAX
10
297.0000000000
20
210.0000000000
9
$EXTMIN
10
0.0000000000
20
0.0000000000
9
$LIMMIN
10
0.0000000000
20
0.0000000000
9
$LIMMAX
10
297.0000000000
20
210.0000000000
9
$VIEWCTR
10
148.5000000000
20
105.0000000000
9
$VIEWSIZE
40
210.0000000000
9
$CLAYER
8
0
9
$LTSCALE
40
16.3350000000
9
$CELTYPE
6
BYLAYER
9
$DIMSCALE
40
1
9
$DIMASZ
40
3.0000000000
9
$DIMEXO
40
1.8562500000
9
$DIMDLI
40
11.2860000000
9
$DIMEXE
40
5.3460000000
9
$DIMCEN
40
2.6730000000
9
$DIMLFAC
40
1.0000000000
9
$DIMTXT
40
3.0000000000
9
$DIMTOL
70
1
9
$DIMLIM
70
0
9
$DIMTFAC
40
1.0000000000
9
$DIMTP
40
0.0100000000
9
$DIMTM
40
0.0100000000
9
$MEASUREMENT
70
1
0
ENDSEC
0
SECTION
2
CLASSES
0
ENDSEC
0
SECTION
2
TABLES
0
TABLE
2
VPORT
5
8
100
AcDbSymbolTable
70
2
0
VPORT
5
1F4
100
AcDbSymbolTableRecord
100
AcDbViewportTableRecord
2
*ACTIVE
70
0
10
0.0
20
0.0
11
1.0
21
1.0
12
148.5000000000
22
105.0000000000
13
0.0
23
0.0
14
1.0
24
1.0
15
0.0
25
0.0
16
0.0
26
0.0
36
1.0
17
0.0
27
0.0
37
0.0
40
210.0000000000
41
1.4142857143
42
50.0
43
0.0
44
0.0
50
0.0
51
0.0
71
0
72
100
73
1
74
1
75
0
76
0
77
0
78
0
0
ENDTAB
0
TABLE
2
LTYPE
5
5
100
AcDbSymbolTable
70
6
0
LTYPE
5
14
100
AcDbSymbolTableRecord
100
AcDbLinetypeTableRecord
2
BYBLOCK
70
0
3

72
65
73
0
40
0.0
0
LTYPE
5
15
100
AcDbSymbolTableRecord
100
AcDbLinetypeTableRecord
2
BYLAYER
70
0
3

72
65
73
0
40
0.0
0
LTYPE
5
16
100
AcDbSymbolTableRecord
100
AcDbLinetypeTableRecord
2
CONTINUOUS
70
64
3
Solid line
72
65
73
0
40
0
0
LTYPE
5
1F5
100
AcDbSymbolTableRecord
100
AcDbLinetypeTableRecord
2
CENTER
70
64
3
____ _ ____ _ ____ _ ____ _ ____ _ ____ _ ____
72
65
73
4
40
0.6
49
0.375
74
0
49
-0.075
74
0
49
0.075
74
0
49
-0.075
74
0
0
LTYPE
5
1F6
100
AcDbSymbolTableRecord
100
AcDbLinetypeTableRecord
2
HIDDEN
70
64
3
- - - - - - - - - - - - - - - - - - - -
72
65
73
2
40
0.2
49
0.1
74
0
49
-0.1
74
0
0
LTYPE
5
1F7
100
AcDbSymbolTableRecord
100
AcDbLinetypeTableRecord
2
PHANTOM
70
64
3
_____ _ _ _____ _ _ _____ _ _ _____
72
65
73
6
40
0.8
49
0.45
74
0
49
-0.05
74
0
49
0.1
74
0
49
-0.05
74
0
49
0.1
74
0
49
-0.05
74
0
0
LTYPE
5
1F8
100
AcDbSymbolTableRecord
100
AcDbLinetypeTableRecord
2
DOT
70
64
3
. . . . . . . . . . . . . . . . . . . .
72
65
73
2
40
0.2
49
0.1
74
0
49
-0.1
74
0
0
LTYPE
5
1F9
100
AcDbSymbolTableRecord
100
AcDbLinetypeTableRecord
2
DASHED
70
64
3
- - - - - - - - - - - - - - - - - - - -
72
65
73
2
40
0.2
49
0.1
74
0
49
-0.1
74
0
0
ENDTAB
0
TABLE
2
LAYER
5
2
100
AcDbSymbolTable
70
36
0
LAYER
5
10
100
AcDbSymbolTableRecord
100
AcDbLayerTableRecord
2
0
70
0
62
7
6
CONTINUOUS
0
LAYER
5
1FA
100
AcDbSymbolTableRecord
100
AcDbLayerTableRecord
2
DEFAULT_1
70
0
62
7
6
CENTER
0
LAYER
5
1FB
100
AcDbSymbolTableRecord
100
AcDbLayerTableRecord
2
DEFAULT_2
70
0
62
8
6
HIDDEN
0
LAYER
5
1FC
100
AcDbSymbolTableRecord
100
AcDbLayerTableRecord
2
DEFAULT_3
70
0
62
7
6
PHANTOM
0
LAYER
5
1FD
100
AcDbSymbolTableRecord
100
AcDbLayerTableRecord
2
ASSI
70
0
62
7
6
CONTINUOUS
0
LAYER
5
1FE
100
AcDbSymbolTableRecord
100
AcDbLayerTableRecord
2
COORDINATE
70
0
62
7
6
CONTINUOUS
0
LAYER
5
1FF
100
AcDbSymbolTableRecord
100
AcDbLayerTableRecord
2
COORD_ORIGINE
70
0
62
7
6
CONTINUOUS
0
LAYER
5
200
100
AcDbSymbolTableRecord
100
AcDbLayerTableRecord
2
CURVE
70
0
62
7
6
CONTINUOUS
0
LAYER
5
201
100
AcDbSymbolTableRecord
100
AcDbLayerTableRecord
2
DRAFT
70
0
62
7
6
CONTINUOUS
0
LAYER
5
202
100
AcDbSymbolTableRecord
100
AcDbLayerTableRecord
2
IMPORT
70
0
62
7
6
CONTINUOUS
0
LAYER
5
203
100
AcDbSymbolTableRecord
100
AcDbLayerTableRecord
2
LAY0001
70
0
62
7
6
CONTINUOUS
0
LAYER
5
204
100
AcDbSymbolTableRecord
100
AcDbLayerTableRecord
2
NOTE
70
0
62
7
6
CONTINUOUS
0
LAYER
5
205
100
AcDbSymbolTableRecord
100
AcDbLayerTableRecord
2
PIANI
70
0
62
7
6
CONTINUOUS
0
LAYER
5
206
100
AcDbSymbolTableRecord
100
AcDbLayerTableRecord
2
PIANI_ORIGINE
70
0
62
7
6
CONTINUOUS
0
LAYER
5
207
100
AcDbSymbolTableRecord
100
AcDbLayerTableRecord
2
PIANI_RIFERIMENTO
70
0
62
7
6
CONTINUOUS
0
LAYER
5
208
100
AcDbSymbolTableRecord
100
AcDbLayerTableRecord
2
PUNTI
70
0
62
7
6
CONTINUOUS
0
LAYER
5
209
100
AcDbSymbolTableRecord
100
AcDbLayerTableRecord
2
RACCORDO
70
0
62
7
6
CONTINUOUS
0
LAYER
5
20A
100
AcDbSymbolTableRecord
100
AcDbLayerTableRecord
2
SMUSSO
70
0
62
7
6
CONTINUOUS
0
LAYER
5
20B
100
AcDbSymbolTableRecord
100
AcDbLayerTableRecord
2
SUPERFICI
70
0
62
7
6
CONTINUOUS
0
LAYER
5
20C
100
AcDbSymbolTableRecord
100
AcDbLayerTableRecord
2
TRASH
70
0
62
7
6
CONTINUOUS
0
LAYER
5
20D
100
AcDbSymbolTableRecord
100
AcDbLayerTableRecord
2
XSEC_DATUMS
70
0
62
7
6
CONTINUOUS
0
ENDTAB
0
TABLE
2
STYLE
5
3
100
AcDbSymbolTable
70
1
0
STYLE
5
11
100
AcDbSymbolTableRecord
100
AcDbTextStyleTableRecord
2
STANDARD
70
0
40
0.0
41
0.8000000000
50
0.0
71
0
42
0.2
3
txt
4

0
ENDTAB
0
TABLE
2
VIEW
5
6
100
AcDbSymbolTable
70
0
0
ENDTAB
0
TABLE
2
UCS
5
7
100
AcDbSymbolTable
70
0
0
ENDTAB
0
TABLE
2
APPID
5
9
100
AcDbSymbolTable
70
1
0
APPID
5
20E
100
AcDbSymbolTableRecord
100
AcDbRegAppTableRecord
2
ACAD
70
0
0
ENDTAB
0
TABLE
2
DIMSTYLE
5
A
100
AcDbSymbolTable
70
1
0
DIMSTYLE
105
20F
100
AcDbSymbolTableRecord
100
AcDbDimStyleTableRecord
2
STANDARD
70
0
3

4

5

6

7

40
1.0
41
3.0000000000
42
0.0625
43
0.38
44
0.18
45
0.0
46
0.0
47
0.0100000000
48
0.0100000000
140
3.0000000000
141
0.09
142
0.0
143
25.4
144
1.0000000000
145
0.0
146
1.0000000000
147
0.09
71
1
72
0
73
0
74
0
75
0
76
0
77
1
78
8
170
0
171
2
172
0
173
0
174
0
175
0
176
0
177
0
178
0
270
2
271
2
272
2
273
2
274
2
340
11
275
0
280
0
281
0
282
0
283
1
284
8
285
0
286
0
287
3
288
0
0
ENDTAB
0
TABLE
2
BLOCK_RECORD
5
1
100
AcDbSymbolTable
70
0
0
BLOCK_RECORD
5
1B
100
AcDbSymbolTableRecord
100
AcDbBlockTableRecord
2
*MODEL_SPACE
0
BLOCK_RECORD
5
1C
100
AcDbSymbolTableRecord
100
AcDbBlockTableRecord
2
*PAPER_SPACE
0
ENDTAB
0
ENDSEC
0
SECTION
2
BLOCKS
0
BLOCK
5
1E
100
AcDbEntity
8
0
100
AcDbBlockBegin
2
*MODEL_SPACE
70
0
10
0.0
20
0.0
30
0.0
3
*MODEL_SPACE
1

0
ENDBLK
5
1F
100
AcDbEntity
8
0
100
AcDbBlockEnd
0
BLOCK
5
20
100
AcDbEntity
8
0
100
AcDbBlockBegin
2
*PAPER_SPACE
70
0
10
0.0
20
0.0
30
0.0
3
*PAPER_SPACE
1

0
ENDBLK
5
21
100
AcDbEntity
8
0
100
AcDbBlockEnd
0
ENDSEC
0
SECTION
2
ENTITIES
0
LINE
5
210
100
AcDbEntity
8
0
100
AcDbLine
62
9
6
CONTINUOUS
10
-14.0484771165
20
20.0603405554
11
-14.0441052825
21
20.0647123894
0
LINE
5
211
100
AcDbEntity
8
0
100
AcDbLine
62
9
6
CONTINUOUS
10
-16.1939571881
20
17.9559855216
11
-16.1765021232
21
17.9647123894
0
LINE
5
212
100
AcDbEntity
8
0
100
AcDbLine
62
7
6
CONTINUOUS
10
-15.9441137441
20
-28.9352876106
11
-14.0441052825
21
-28.9352876106
0
LINE
5
213
100
AcDbEntity
8
0
100
AcDbLine
62
7
6
CONTINUOUS
10
2.9558862559
20
-28.9352876106
11
4.8558947175
21
-28.9352876106
0
LINE
5
214
100
AcDbEntity
8
0
100
AcDbLine
62
9
6
CONTINUOUS
10
-15.9397419101
20
-28.9309157766
11
-14.0484771165
21
-28.9309157766
0
LINE
5
215
100
AcDbEntity
8
0
100
AcDbLine
62
9
6
CONTINUOUS
10
2.9602580899
20
-28.9309157766
11
4.8515228835
21
-28.9309157766
0
LINE
5
216
100
AcDbEntity
8
0
100
AcDbLine
62
9
6
CONTINUOUS
10
2.7102623207
20
-28.6809200074
11
5.1015186527
21
-28.6809200074
0
LINE
5
217
100
AcDbEntity
8
0
100
AcDbLine
62
9
6
CONTINUOUS
10
-13.7984813473
20
-28.6809200074
11
-16.1897376793
21
-28.6809200074
0
LINE
5
218
100
AcDbEntity
8
0
100
AcDbLine
62
9
6
CONTINUOUS
10
-13.7984813473
20
-28.2796251779
11
-16.1897376793
21
-28.2796251779
0
LINE
5
219
100
AcDbEntity
8
0
100
AcDbLine
62
7
6
CONTINUOUS
10
-9.9441095133
20
-28.2352876106
11
-1.1441095133
21
-28.2352876106
0
LINE
5
21A
100
AcDbEntity
8
0
100
AcDbLine
62
7
6
CONTINUOUS
10
-9.0441095133
20
-28.2294697808
11
-2.0441095133
21
-28.2294697808
0
LINE
5
21B
100
AcDbEntity
8
0
100
AcDbLine
62
9
6
CONTINUOUS
10
-9.9004588664
20
-28.1916369638
11
-9.0441095133
21
-28.1916369638
0
LINE
5
21C
100
AcDbEntity
8
0
100
AcDbLine
62
9
6
CONTINUOUS
10
-2.0441095133
20
-28.1916369638
11
-1.1877601601
21
-28.1916369638
0
LINE
5
21D
100
AcDbEntity
8
0
100
AcDbLine
62
7
6
CONTINUOUS
10
2.9602580899
20
-28.1352876106
11
4.8515228835
21
-28.1352876106
0
LINE
5
21E
100
AcDbEntity
8
0
100
AcDbLine
62
9
6
CONTINUOUS
10
-14.0484771165
20
-28.0631188270
11
-15.9397419101
21
-28.0631188270
0
LINE
5
21F
100
AcDbEntity
8
0
100
AcDbLine
62
7
6
CONTINUOUS
10
4.8566134846
20
-27.5579373414
11
2.9551674889
21
-27.5579373414
0
LINE
5
220
100
AcDbEntity
8
0
100
AcDbLine
62
7
6
CONTINUOUS
10
-14.0433865154
20
-27.5579373414
11
-15.9448325111
21
-27.5579373414
0
LINE
5
221
100
AcDbEntity
8
0
100
AcDbLine
62
9
6
CONTINUOUS
10
-16.1765021232
20
-26.8352876106
11
-16.1907112905
21
-26.8281835680
0
LINE
5
222
100
AcDbEntity
8
0
100
AcDbLine
62
9
6
CONTINUOUS
10
-14.0484771165
20
-28.9309157766
11
-14.0441052825
21
-28.9352876106
0
LINE
5
223
100
AcDbEntity
8
0
100
AcDbLine
62
9
6
CONTINUOUS
10
-13.7984813473
20
19.8103447862
11
-13.7941095133
21
19.8147166202
0
LINE
5
224
100
AcDbEntity
8
0
100
AcDbLine
62
7
6
CONTINUOUS
10
-13.6281340800
20
16.5564206536
11
-13.7906222224
21
16.4751827698
0
LINE
5
225
100
AcDbEntity
8
0
100
AcDbLine
62
7
6
CONTINUOUS
10
-1.1441095133
20
-26.8352876106
11
5.0882830967
21
-26.8352876106
0
LINE
5
226
100
AcDbEntity
8
0
100
AcDbLine
62
7
6
CONTINUOUS
10
-9.9441095133
20
-26.8352876106
11
-16.1765021232
21
-26.8352876106
0
LINE
5
227
100
AcDbEntity
8
0
100
AcDbLine
62
7
6
CONTINUOUS
10
-16.1939571881
20
-26.8265607428
11
-12.8028363811
21
-26.8265607428
0
LINE
5
228
100
AcDbEntity
8
0
100
AcDbLine
62
7
6
CONTINUOUS
10
-9.0441095133
20
-26.8265607428
11
-8.5441095133
21
-26.8265607428
0
LINE
5
229
100
AcDbEntity
8
0
100
AcDbLine
62
7
6
CONTINUOUS
10
-2.5441095133
20
-26.8265607428
11
-2.0441095133
21
-26.8265607428
0
LINE
5
22A
100
AcDbEntity
8
0
100
AcDbLine
62
7
6
CONTINUOUS
10
1.7146173545
20
-26.8265607428
11
5.1057381616
21
-26.8265607428
0
LINE
5
22B
100
AcDbEntity
8
0
100
AcDbLine
62
9
6
CONTINUOUS
10
-12.8814543465
20
-26.7479427774
11
-8.5441095133
21
-26.7479427774
0
LINE
5
22C
100
AcDbEntity
8
0
100
AcDbLine
62
9
6
CONTINUOUS
10
-2.5441095133
20
-26.7479427774
11
1.7932353200
21
-26.7479427774
0
LINE
5
22D
100
AcDbEntity
8
0
100
AcDbLine
62
7
6
CONTINUOUS
10
-2.5441095133
20
-26.1352876106
11
-8.5441095133
21
-26.1352876106
0
LINE
5
22E
100
AcDbEntity
8
0
100
AcDbLine
62
9
6
CONTINUOUS
10
-13.1282102324
20
-25.7479808543
11
-8.5441095133
21
-25.7479808543
0
LINE
5
22F
100
AcDbEntity
8
0
100
AcDbLine
62
9
6
CONTINUOUS
10
-2.5441095133
20
-25.7479808543
11
2.0399912059
21
-25.7479808543
0
LINE
5
230
100
AcDbEntity
8
0
100
AcDbLine
62
7
6
CONTINUOUS
10
-13.6281340800
20
-25.4269958748
11
-13.7906222224
21
-25.3457579911
0
LINE
5
231
100
AcDbEntity
8
0
100
AcDbLine
62
9
6
CONTINUOUS
10
-13.7984813473
20
-28.6809200074
11
-13.7941095133
21
-28.6852918414
0
LINE
5
232
100
AcDbEntity
8
0
100
AcDbLine
62
7
6
CONTINUOUS
10
-13.7941095133
20
16.9647123894
11
-12.8028363811
21
17.9559855216
0
LINE
5
233
100
AcDbEntity
8
0
100
AcDbLine
62
7
6
CONTINUOUS
10
-8.5441095133
20
-25.4352876106
11
-2.5441095133
21
-25.4352876106
0
LINE
5
234
100
AcDbEntity
8
0
100
AcDbLine
62
7
6
CONTINUOUS
10
2.0399912059
20
-25.4312831563
11
1.4988723699
21
-25.4312831563
0
LINE
5
235
100
AcDbEntity
8
0
100
AcDbLine
62
7
6
CONTINUOUS
10
-12.5870913964
20
-25.4312831563
11
-13.1282102324
21
-25.4312831563
0
LINE
5
236
100
AcDbEntity
8
0
100
AcDbLine
62
7
6
CONTINUOUS
10
-13.7906222224
20
-25.3457579911
11
-12.8429471879
21
-25.3457579911
0
LINE
5
237
100
AcDbEntity
8
0
100
AcDbLine
62
7
6
CONTINUOUS
10
1.7547281614
20
-25.3457579911
11
2.7024031959
21
-25.3457579911
0
LINE
5
238
100
AcDbEntity
8
0
100
AcDbLine
62
7
6
CONTINUOUS
10
-14.6944901130
20
-25.3352876106
11
-13.7941095133
21
-25.3352876106
0
LINE
5
239
100
AcDbEntity
8
0
100
AcDbLine
62
7
6
CONTINUOUS
10
2.7058904867
20
-25.3352876106
11
3.6062710865
21
-25.3352876106
0
LINE
5
23A
100
AcDbEntity
8
0
100
AcDbLine
62
9
6
CONTINUOUS
10
1.2129086036
20
-25.0182118938
11
-12.3011276301
21
-25.0182118938
0
LINE
5
23B
100
AcDbEntity
8
0
100
AcDbLine
62
7
6
CONTINUOUS
10
3.4509210086
20
-24.8688583750
11
1.8076691720
21
-24.8688583750
0
LINE
5
23C
100
AcDbEntity
8
0
100
AcDbLine
62
7
6
CONTINUOUS
10
-12.8958881986
20
-24.8688583750
11
-14.5391400351
21
-24.8688583750
0
LINE
5
23D
100
AcDbEntity
8
0
100
AcDbLine
62
9
6
CONTINUOUS
10
1.0111852547
20
-24.5182309323
11
-12.0994042812
21
-24.5182309323
0
LINE
5
23E
100
AcDbEntity
8
0
100
AcDbLine
62
9
6
CONTINUOUS
10
-12.3011276301
20
-24.4289521766
11
-12.1011310147
21
-24.4289521766
0
LINE
5
23F
100
AcDbEntity
8
0
100
AcDbLine
62
9
6
CONTINUOUS
10
1.6988689853
20
-24.4289521766
11
1.4988723699
21
-24.4289521766
0
LINE
5
240
100
AcDbEntity
8
0
100
AcDbLine
62
9
6
CONTINUOUS
10
1.0129119882
20
-24.4289521766
11
1.2129086036
21
-24.4289521766
0
LINE
5
241
100
AcDbEntity
8
0
100
AcDbLine
62
9
6
CONTINUOUS
10
-12.5870913964
20
-24.4289521766
11
-12.7870880118
21
-24.4289521766
0
LINE
5
242
100
AcDbEntity
8
0
100
AcDbLine
62
7
6
CONTINUOUS
10
-11.9923308280
20
-24.3576184873
11
0.9041118014
21
-24.3576184873
0
LINE
5
243
100
AcDbEntity
8
0
100
AcDbLine
62
7
6
CONTINUOUS
10
-12.8028363811
20
-26.8265607428
11
-13.7941095133
21
-25.8352876106
0
LINE
5
244
100
AcDbEntity
8
0
100
AcDbLine
62
7
6
CONTINUOUS
10
-12.7870880118
20
16.5589727156
11
-12.8429471879
21
16.4751827698
0
LINE
5
245
100
AcDbEntity
8
0
100
AcDbLine
62
7
6
CONTINUOUS
10
-12.7870880118
20
-25.4295479369
11
-12.8429471879
21
-25.3457579911
0
LINE
5
246
100
AcDbEntity
8
0
100
AcDbLine
62
7
6
CONTINUOUS
10
-13.7941095133
20
16.4647123894
11
-13.7906222224
21
16.4751827698
0
LINE
5
247
100
AcDbEntity
8
0
100
AcDbLine
62
7
6
CONTINUOUS
10
-13.7906222224
20
-25.3457579911
11
-13.7941095133
21
-25.3352876106
0
LINE
5
248
100
AcDbEntity
8
0
100
AcDbLine
62
7
6
CONTINUOUS
10
-1.1441095133
20
19.3647123894
11
-1.1877601601
21
19.3210617425
0
LINE
5
249
100
AcDbEntity
8
0
100
AcDbLine
62
7
6
CONTINUOUS
10
-1.0441095133
20
-18.1746226956
11
-0.0441095133
21
-18.1746226956
0
LINE
5
24A
100
AcDbEntity
8
0
100
AcDbLine
62
7
6
CONTINUOUS
10
-10.0441095133
20
-18.1746226956
11
-11.0441095133
21
-18.1746226956
0
LINE
5
24B
100
AcDbEntity
8
0
100
AcDbLine
62
7
6
CONTINUOUS
10
-1.1441095133
20
-28.2352876106
11
-1.1877601601
21
-28.1916369638
0
LINE
5
24C
100
AcDbEntity
8
0
100
AcDbLine
62
9
6
CONTINUOUS
10
-16.1897376793
20
-28.2796251779
11
-16.1941095133
21
-27.8457727588
0
LINE
5
24D
100
AcDbEntity
8
0
100
AcDbLine
62
9
6
CONTINUOUS
10
-15.9397419101
20
-28.0631188270
11
-15.9448325111
21
-27.5579373414
0
LINE
5
24E
100
AcDbEntity
8
0
100
AcDbLine
62
7
6
CONTINUOUS
10
-16.6941095133
20
17.4558903300
11
-16.6941095133
21
-26.3264655512
0
LINE
5
24F
100
AcDbEntity
8
0
100
AcDbLine
62
7
6
CONTINUOUS
10
-16.1941095133
20
-26.8349775786
11
-16.1941095133
21
-28.6852918414
0
LINE
5
250
100
AcDbEntity
8
0
100
AcDbLine
62
7
6
CONTINUOUS
10
-16.1941095133
20
17.9644023574
11
-16.1941095133
21
19.8147166202
0
LINE
5
251
100
AcDbEntity
8
0
100
AcDbLine
62
9
6
CONTINUOUS
10
-16.1897376793
20
19.8103447862
11
-16.1897376793
21
19.4090499567
0
LINE
5
252
100
AcDbEntity
8
0
100
AcDbLine
62
9
6
CONTINUOUS
10
-16.1897376793
20
-28.2796251779
11
-16.1897376793
21
-28.6809200074
0
LINE
5
253
100
AcDbEntity
8
0
100
AcDbLine
62
9
6
CONTINUOUS
10
-16.1941095133
20
18.9751975376
11
-16.1897376793
21
19.4090499567
0
LINE
5
254
100
AcDbEntity
8
0
100
AcDbLine
62
9
6
CONTINUOUS
10
-15.9448325111
20
18.6873621202
11
-15.9397419101
21
19.1925436057
0
LINE
5
255
100
AcDbEntity
8
0
100
AcDbLine
62
9
6
CONTINUOUS
10
-15.9397419101
20
-28.0631188270
11
-15.9397419101
21
-28.9309157766
0
LINE
5
256
100
AcDbEntity
8
0
100
AcDbLine
62
9
6
CONTINUOUS
10
-15.9397419101
20
19.1925436057
11
-15.9397419101
21
20.0603405554
0
LINE
5
257
100
AcDbEntity
8
0
100
AcDbLine
62
7
6
CONTINUOUS
10
-15.1941095133
20
15.9644835373
11
-15.1941095133
21
6.8647123894
0
LINE
5
258
100
AcDbEntity
8
0
100
AcDbLine
62
7
6
CONTINUOUS
10
-15.1941095133
20
5.8647123894
11
-15.1941095133
21
-6.6352876106
0
LINE
5
259
100
AcDbEntity
8
0
100
AcDbLine
62
7
6
CONTINUOUS
10
-15.1941095133
20
-7.6352876106
11
-15.1941095133
21
-12.9852876106
0
LINE
5
25A
100
AcDbEntity
8
0
100
AcDbLine
62
7
6
CONTINUOUS
10
-15.1941095133
20
-13.9852876106
11
-15.1941095133
21
-24.8350587586
0
LINE
5
25B
100
AcDbEntity
8
0
100
AcDbLine
62
7
6
CONTINUOUS
10
-15.1714179289
20
1.0501259521
11
-15.1714179289
21
0.5792988267
0
LINE
5
25C
100
AcDbEntity
8
0
100
AcDbLine
62
7
6
CONTINUOUS
10
-15.1714179289
20
-9.9498740479
11
-15.1714179289
21
-10.4207011733
0
LINE
5
25D
100
AcDbEntity
8
0
100
AcDbLine
62
7
6
CONTINUOUS
10
-15.1539628639
20
-3.3352876106
11
-15.1539628639
21
-6.6352876106
0
LINE
5
25E
100
AcDbEntity
8
0
100
AcDbLine
62
7
6
CONTINUOUS
10
-15.1312712795
20
15.7758155319
11
-15.1312712795
21
15.0647123894
0
LINE
5
25F
100
AcDbEntity
8
0
100
AcDbLine
62
7
6
CONTINUOUS
10
-15.0736695653
20
14.8647123894
11
-15.0736695653
21
10.7647123894
0
LINE
5
260
100
AcDbEntity
8
0
100
AcDbLine
62
7
6
CONTINUOUS
10
-15.0387594354
20
-24.3686295229
11
-15.0387594354
21
-13.9852876106
0
LINE
5
261
100
AcDbEntity
8
0
100
AcDbLine
62
7
6
CONTINUOUS
10
-15.0387594354
20
-12.9852876106
11
-15.0387594354
21
-10.6852876106
0
LINE
5
262
100
AcDbEntity
8
0
100
AcDbLine
62
7
6
CONTINUOUS
10
-15.0387594354
20
-9.6852876106
11
-15.0387594354
21
-7.6352876106
0
LINE
5
263
100
AcDbEntity
8
0
100
AcDbLine
62
7
6
CONTINUOUS
10
-15.0387594354
20
-3.3352876106
11
-15.0387594354
21
0.3147123894
0
LINE
5
264
100
AcDbEntity
8
0
100
AcDbLine
62
7
6
CONTINUOUS
10
-15.0387594354
20
1.3147123894
11
-15.0387594354
21
5.8647123894
0
LINE
5
265
100
AcDbEntity
8
0
100
AcDbLine
62
7
6
CONTINUOUS
10
-15.0387594354
20
6.8647123894
11
-15.0387594354
21
10.2647123894
0
LINE
5
266
100
AcDbEntity
8
0
100
AcDbLine
62
9
6
CONTINUOUS
10
-14.3441095133
20
-10.6206935579
11
-14.3441095133
21
-9.7498816633
0
LINE
5
267
100
AcDbEntity
8
0
100
AcDbLine
62
9
6
CONTINUOUS
10
-14.3441095133
20
0.3793064421
11
-14.3441095133
21
1.2501183367
0
LINE
5
268
100
AcDbEntity
8
0
100
AcDbLine
62
7
6
CONTINUOUS
10
-12.8650537006
20
16.2760443840
11
-12.8429471879
21
16.4751827698
0
LINE
5
269
100
AcDbEntity
8
0
100
AcDbLine
62
7
6
CONTINUOUS
10
-1.1441095133
20
17.9647123894
11
-1.1881767805
21
17.8986105563
0
LINE
5
26A
100
AcDbEntity
8
0
100
AcDbLine
62
9
6
CONTINUOUS
10
4.8515228835
20
20.0603405554
11
4.8558947175
21
20.0647123894
0
LINE
5
26B
100
AcDbEntity
8
0
100
AcDbLine
62
9
6
CONTINUOUS
10
5.1015186527
20
19.8103447862
11
5.1058904867
21
19.8147166202
0
LINE
5
26C
100
AcDbEntity
8
0
100
AcDbLine
62
7
6
CONTINUOUS
10
-15.0387594354
20
1.3147123894
11
-15.1679573803
21
1.2501183367
0
LINE
5
26D
100
AcDbEntity
8
0
100
AcDbLine
62
7
6
CONTINUOUS
10
-12.6441095133
20
-14.9352876106
11
1.5558904867
21
-14.9352876106
0
LINE
5
26E
100
AcDbEntity
8
0
100
AcDbLine
62
9
6
CONTINUOUS
10
-12.8441095133
20
-14.7352876106
11
-10.0441095133
21
-14.7352876106
0
LINE
5
26F
100
AcDbEntity
8
0
100
AcDbLine
62
9
6
CONTINUOUS
10
-1.0441095133
20
-14.7352876106
11
1.7558904867
21
-14.7352876106
0
LINE
5
270
100
AcDbEntity
8
0
100
AcDbLine
62
7
6
CONTINUOUS
10
4.1058904867
20
-13.9852876106
11
1.9558904867
21
-13.9852876106
0
LINE
5
271
100
AcDbEntity
8
0
100
AcDbLine
62
7
6
CONTINUOUS
10
-13.0441095133
20
-13.9852876106
11
-15.1941095133
21
-13.9852876106
0
LINE
5
272
100
AcDbEntity
8
0
100
AcDbLine
62
9
6
CONTINUOUS
10
1.7558904867
20
-13.1852876106
11
-1.0441095133
21
-13.1852876106
0
LINE
5
273
100
AcDbEntity
8
0
100
AcDbLine
62
9
6
CONTINUOUS
10
-10.0441095133
20
-13.1852876106
11
-12.8441095133
21
-13.1852876106
0
LINE
5
274
100
AcDbEntity
8
0
100
AcDbLine
62
7
6
CONTINUOUS
10
-15.0387594354
20
-10.6852876106
11
-15.1679573803
21
-10.6206935579
0
LINE
5
275
100
AcDbEntity
8
0
100
AcDbLine
62
9
6
CONTINUOUS
10
4.8515228835
20
-28.9309157766
11
4.8558947175
21
-28.9352876106
0
LINE
5
276
100
AcDbEntity
8
0
100
AcDbLine
62
9
6
CONTINUOUS
10
5.1015186527
20
-28.6809200074
11
5.1058904867
21
-28.6852918414
0
LINE
5
277
100
AcDbEntity
8
0
100
AcDbLine
62
7
6
CONTINUOUS
10
-1.1441095133
20
-26.8352876106
11
-1.1881767805
21
-26.7691857775
0
LINE
5
278
100
AcDbEntity
8
0
100
AcDbLine
62
7
6
CONTINUOUS
10
-12.8429471879
20
-25.3457579911
11
-12.8958881986
21
-24.8688583750
0
LINE
5
279
100
AcDbEntity
8
0
100
AcDbLine
62
9
6
CONTINUOUS
10
-12.7870880118
20
-24.4289521766
11
-12.8958881986
21
-21.2418013358
0
LINE
5
27A
100
AcDbEntity
8
0
100
AcDbLine
62
9
6
CONTINUOUS
10
-14.0484771165
20
19.1925436057
11
-14.0433865154
21
18.6873621202
0
LINE
5
27B
100
AcDbEntity
8
0
100
AcDbLine
62
9
6
CONTINUOUS
10
-13.7984813473
20
19.4090499567
11
-13.7941095133
21
18.9751975376
0
LINE
5
27C
100
AcDbEntity
8
0
100
AcDbLine
62
7
6
CONTINUOUS
10
-14.1941095133
20
3.6647123894
11
-14.1941095133
21
-2.4352876106
0
LINE
5
27D
100
AcDbEntity
8
0
100
AcDbLine
62
7
6
CONTINUOUS
10
-14.1941095133
20
-12.3352876106
11
-14.1941095133
21
-10.8852876106
0
LINE
5
27E
100
AcDbEntity
8
0
100
AcDbLine
62
7
6
CONTINUOUS
10
-14.1441095133
20
-3.3352876106
11
-14.1441095133
21
-7.6352876106
0
LINE
5
27F
100
AcDbEntity
8
0
100
AcDbLine
62
9
6
CONTINUOUS
10
-14.0484771165
20
-28.0631188270
11
-14.0484771165
21
-28.9309157766
0
LINE
5
280
100
AcDbEntity
8
0
100
AcDbLine
62
9
6
CONTINUOUS
10
-14.0484771165
20
19.1925436057
11
-14.0484771165
21
20.0603405554
0
LINE
5
281
100
AcDbEntity
8
0
100
AcDbLine
62
9
6
CONTINUOUS
10
-14.0441095133
20
-9.6852876106
11
-14.0441095133
21
-9.7472636030
0
LINE
5
282
100
AcDbEntity
8
0
100
AcDbLine
62
9
6
CONTINUOUS
10
-14.0441095133
20
-10.6233116182
11
-14.0441095133
21
-10.6852876106
0
LINE
5
283
100
AcDbEntity
8
0
100
AcDbLine
62
7
6
CONTINUOUS
10
-13.9941095133
20
-8.3330662108
11
-13.9941095133
21
2.0647123894
0
LINE
5
284
100
AcDbEntity
8
0
100
AcDbLine
62
7
6
CONTINUOUS
10
-13.8441095133
20
-10.4852799949
11
-13.8441095133
21
-9.8852952263
0
LINE
5
285
100
AcDbEntity
8
0
100
AcDbLine
62
9
6
CONTINUOUS
10
-13.7984813473
20
-28.6809200074
11
-13.7984813473
21
-28.2796251779
0
LINE
5
286
100
AcDbEntity
8
0
100
AcDbLine
62
9
6
CONTINUOUS
10
-13.7984813473
20
19.4090499567
11
-13.7984813473
21
19.8103447862
0
LINE
5
287
100
AcDbEntity
8
0
100
AcDbLine
62
7
6
CONTINUOUS
10
-13.7941095133
20
-25.8352876106
11
-13.7941095133
21
-25.3352876106
0
LINE
5
288
100
AcDbEntity
8
0
100
AcDbLine
62
7
6
CONTINUOUS
10
-13.7941095133
20
-26.8352876106
11
-13.7941095133
21
-28.6852918414
0
LINE
5
289
100
AcDbEntity
8
0
100
AcDbLine
62
7
6
CONTINUOUS
10
-13.7941095133
20
16.4647123894
11
-13.7941095133
21
16.9647123894
0
LINE
5
28A
100
AcDbEntity
8
0
100
AcDbLine
62
7
6
CONTINUOUS
10
-13.7941095133
20
17.9647123894
11
-13.7941095133
21
19.8147166202
0
LINE
5
28B
100
AcDbEntity
8
0
100
AcDbLine
62
9
6
CONTINUOUS
10
-13.6281340800
20
17.1306878226
11
-13.6281340800
21
16.5564206536
0
LINE
5
28C
100
AcDbEntity
8
0
100
AcDbLine
62
9
6
CONTINUOUS
10
-13.6281340800
20
-25.4269958748
11
-13.6281340800
21
-26.0012630439
0
LINE
5
28D
100
AcDbEntity
8
0
100
AcDbLine
62
7
6
CONTINUOUS
10
-13.3441095133
20
3.6647123894
11
-13.3441095133
21
2.0647123894
0
LINE
5
28E
100
AcDbEntity
8
0
100
AcDbLine
62
9
6
CONTINUOUS
10
-13.1282102324
20
16.8774056331
11
-13.1282102324
21
16.5607079351
0
LINE
5
28F
100
AcDbEntity
8
0
100
AcDbLine
62
9
6
CONTINUOUS
10
-13.1282102324
20
-25.4312831563
11
-13.1282102324
21
-25.7479808543
0
LINE
5
290
100
AcDbEntity
8
0
100
AcDbLine
62
7
6
CONTINUOUS
10
-12.9441095133
20
-11.3352876106
11
-12.9441095133
21
-8.3330662108
0
LINE
5
291
100
AcDbEntity
8
0
100
AcDbLine
62
7
6
CONTINUOUS
10
-12.9441095133
20
0.5746110802
11
-12.9441095133
21
0.9669337892
0
LINE
5
292
100
AcDbEntity
8
0
100
AcDbLine
62
7
6
CONTINUOUS
10
-12.8958881986
20
-24.8688583750
11
-12.8958881986
21
-21.2418013358
0
LINE
5
293
100
AcDbEntity
8
0
100
AcDbLine
62
7
6
CONTINUOUS
10
-12.8842525390
20
12.7120766540
11
-12.8842525390
21
14.8647123894
0
LINE
5
294
100
AcDbEntity
8
0
100
AcDbLine
62
7
6
CONTINUOUS
10
-12.8650537006
20
16.2760443840
11
-12.8650537006
21
15.0647123894
0
LINE
5
295
100
AcDbEntity
8
0
100
AcDbLine
62
7
6
CONTINUOUS
10
-12.8441095133
20
-14.7352876106
11
-12.8441095133
21
-13.1852876106
0
LINE
5
296
100
AcDbEntity
8
0
100
AcDbLine
62
7
6
CONTINUOUS
10
-12.8441095133
20
6.0647123894
11
-12.8441095133
21
9.3647123894
0
LINE
5
297
100
AcDbEntity
8
0
100
AcDbLine
62
9
6
CONTINUOUS
10
-12.7870880118
20
-24.4289521766
11
-12.7870880118
21
-25.4295479369
0
LINE
5
298
100
AcDbEntity
8
0
100
AcDbLine
62
9
6
CONTINUOUS
10
-12.7870880118
20
15.5583769554
11
-12.7870880118
21
16.5589727156
0
LINE
5
299
100
AcDbEntity
8
0
100
AcDbLine
62
9
6
CONTINUOUS
10
-12.6441095133
20
-14.9352876106
11
-12.6441095133
21
-12.9852876106
0
LINE
5
29A
100
AcDbEntity
8
0
100
AcDbLine
62
9
6
CONTINUOUS
10
-12.6441095133
20
5.8647123894
11
-12.6441095133
21
9.5647123894
0
LINE
5
29B
100
AcDbEntity
8
0
100
AcDbLine
62
9
6
CONTINUOUS
10
-12.5870913964
20
-24.4289521766
11
-12.5870913964
21
-25.4312831563
0
LINE
5
29C
100
AcDbEntity
8
0
100
AcDbLine
62
9
6
CONTINUOUS
10
-12.5870913964
20
15.5583769554
11
-12.5870913964
21
16.5607079351
0
LINE
5
29D
100
AcDbEntity
8
0
100
AcDbLine
62
7
6
CONTINUOUS
10
-12.4941095133
20
3.6647123894
11
-12.4941095133
21
2.0647123894
0
LINE
5
29E
100
AcDbEntity
8
0
100
AcDbLine
62
9
6
CONTINUOUS
10
-14.0433865154
20
-27.5579373414
11
-14.0484771165
21
-28.0631188270
0
LINE
5
29F
100
AcDbEntity
8
0
100
AcDbLine
62
9
6
CONTINUOUS
10
-13.7941095133
20
-27.8457727588
11
-13.7984813473
21
-28.2796251779
0
LINE
5
2A0
100
AcDbEntity
8
0
100
AcDbLine
62
9
6
CONTINUOUS
10
-12.7870880118
20
15.5583769554
11
-12.8842525390
21
12.7120766540
0
LINE
5
2A1
100
AcDbEntity
8
0
100
AcDbLine
62
7
6
CONTINUOUS
10
4.1058904867
20
-12.9852876106
11
-15.1941095133
21
-12.9852876106
0
LINE
5
2A2
100
AcDbEntity
8
0
100
AcDbLine
62
7
6
CONTINUOUS
10
3.1058904867
20
-12.3352876106
11
-14.1941095133
21
-12.3352876106
0
LINE
5
2A3
100
AcDbEntity
8
0
100
AcDbLine
62
7
6
CONTINUOUS
10
-2.3941095133
20
-11.4852876106
11
-8.6941095133
21
-11.4852876106
0
LINE
5
2A4
100
AcDbEntity
8
0
100
AcDbLine
62
9
6
CONTINUOUS
10
-12.1011310147
20
15.5583769554
11
-12.0039664876
21
12.7120766540
0
LINE
5
2A5
100
AcDbEntity
8
0
100
AcDbLine
62
9
6
CONTINUOUS
10
-12.3011276301
20
16.1476366726
11
-12.3011276301
21
15.5583769554
0
LINE
5
2A6
100
AcDbEntity
8
0
100
AcDbLine
62
9
6
CONTINUOUS
10
-12.3011276301
20
-25.0182118938
11
-12.3011276301
21
-24.4289521766
0
LINE
5
2A7
100
AcDbEntity
8
0
100
AcDbLine
62
9
6
CONTINUOUS
10
-12.1011310147
20
15.7485119823
11
-12.1011310147
21
15.5583769554
0
LINE
5
2A8
100
AcDbEntity
8
0
100
AcDbLine
62
9
6
CONTINUOUS
10
-12.1011310147
20
-24.6190872035
11
-12.1011310147
21
-24.4289521766
0
LINE
5
2A9
100
AcDbEntity
8
0
100
AcDbLine
62
7
6
CONTINUOUS
10
-12.0231653260
20
15.5332956653
11
-12.0231653260
21
15.0647123894
0
LINE
5
2AA
100
AcDbEntity
8
0
100
AcDbLine
62
7
6
CONTINUOUS
10
-12.0039664876
20
12.7120766540
11
-12.0039664876
21
14.8647123894
0
LINE
5
2AB
100
AcDbEntity
8
0
100
AcDbLine
62
7
6
CONTINUOUS
10
-11.9923308280
20
-21.2418013358
11
-11.9923308280
21
-24.3576184873
0
LINE
5
2AC
100
AcDbEntity
8
0
100
AcDbLine
62
7
6
CONTINUOUS
10
-11.8441095133
20
-12.9852876106
11
-11.8441095133
21
-12.3352876106
0
LINE
5
2AD
100
AcDbEntity
8
0
100
AcDbLine
62
7
6
CONTINUOUS
10
-11.8441095133
20
5.6647123894
11
-11.8441095133
21
7.8647123894
0
LINE
5
2AE
100
AcDbEntity
8
0
100
AcDbLine
62
7
6
CONTINUOUS
10
-11.6413217586
20
5.6647123894
11
-11.6413217586
21
6.4147123894
0
LINE
5
2AF
100
AcDbEntity
8
0
100
AcDbLine
62
7
6
CONTINUOUS
10
-11.5364315407
20
3.6647123894
11
-11.5364315407
21
2.0647123894
0
LINE
5
2B0
100
AcDbEntity
8
0
100
AcDbLine
62
7
6
CONTINUOUS
10
-11.3441095133
20
8.9647123894
11
-11.3441095133
21
7.6647123894
0
LINE
5
2B1
100
AcDbEntity
8
0
100
AcDbLine
62
7
6
CONTINUOUS
10
-11.3441095133
20
6.6647123894
11
-11.3441095133
21
7.3647123894
0
LINE
5
2B2
100
AcDbEntity
8
0
100
AcDbLine
62
7
6
CONTINUOUS
10
-11.0441095133
20
-14.9352876106
11
-11.0441095133
21
-18.1746226956
0
LINE
5
2B3
100
AcDbEntity
8
0
100
AcDbLine
62
7
6
CONTINUOUS
10
-10.9910024076
20
5.6647123894
11
-10.9910024076
21
3.6647123894
0
LINE
5
2B4
100
AcDbEntity
8
0
100
AcDbLine
62
7
6
CONTINUOUS
10
-10.8791195085
20
2.0647123894
11
-10.8791195085
21
6.6647123894
0
LINE
5
2B5
100
AcDbEntity
8
0
100
AcDbLine
62
9
6
CONTINUOUS
10
-12.1011310147
20
-24.4289521766
11
-11.9923308280
21
-21.2418013358
0
LINE
5
2B6
100
AcDbEntity
8
0
100
AcDbLine
62
7
6
CONTINUOUS
10
1.0111852547
20
15.6476557111
11
0.9349462994
21
15.5332956653
0
LINE
5
2B7
100
AcDbEntity
8
0
100
AcDbLine
62
7
6
CONTINUOUS
10
1.8558904867
20
-11.3352876106
11
-12.9441095133
21
-11.3352876106
0
LINE
5
2B8
100
AcDbEntity
8
0
100
AcDbLine
62
7
6
CONTINUOUS
10
3.1058904867
20
-10.8852876106
11
1.8558904867
21
-10.8852876106
0
LINE
5
2B9
100
AcDbEntity
8
0
100
AcDbLine
62
7
6
CONTINUOUS
10
-12.9441095133
20
-10.8852876106
11
-14.1941095133
21
-10.8852876106
0
LINE
5
2BA
100
AcDbEntity
8
0
100
AcDbLine
62
7
6
CONTINUOUS
10
-15.0387594354
20
-10.6852876106
11
-14.0441095133
21
-10.6852876106
0
LINE
5
2BB
100
AcDbEntity
8
0
100
AcDbLine
62
7
6
CONTINUOUS
10
3.9505404089
20
-10.6852876106
11
2.9558904867
21
-10.6852876106
0
LINE
5
2BC
100
AcDbEntity
8
0
100
AcDbLine
62
9
6
CONTINUOUS
10
-15.1679573803
20
-10.6206935579
11
-14.3441095133
21
-10.6206935579
0
LINE
5
2BD
100
AcDbEntity
8
0
100
AcDbLine
62
9
6
CONTINUOUS
10
3.2558904867
20
-10.6206935579
11
4.0797383538
21
-10.6206935579
0
LINE
5
2BE
100
AcDbEntity
8
0
100
AcDbLine
62
9
6
CONTINUOUS
10
-15.1714179289
20
-10.4207011733
11
-14.3441095133
21
-10.4207011733
0
LINE
5
2BF
100
AcDbEntity
8
0
100
AcDbLine
62
9
6
CONTINUOUS
10
3.2558904867
20
-10.4207011733
11
4.0831989023
21
-10.4207011733
0
LINE
5
2C0
100
AcDbEntity
8
0
100
AcDbLine
62
9
6
CONTINUOUS
10
4.0831989023
20
-9.9498740479
11
3.2558904867
21
-9.9498740479
0
LINE
5
2C1
100
AcDbEntity
8
0
100
AcDbLine
62
9
6
CONTINUOUS
10
-14.3441095133
20
-9.9498740479
11
-15.1714179289
21
-9.9498740479
0
LINE
5
2C2
100
AcDbEntity
8
0
100
AcDbLine
62
9
6
CONTINUOUS
10
4.0797383538
20
-9.7498816633
11
3.2558904867
21
-9.7498816633
0
LINE
5
2C3
100
AcDbEntity
8
0
100
AcDbLine
62
9
6
CONTINUOUS
10
-14.3441095133
20
-9.7498816633
11
-15.1679573803
21
-9.7498816633
0
LINE
5
2C4
100
AcDbEntity
8
0
100
AcDbLine
62
7
6
CONTINUOUS
10
-15.0387594354
20
-9.6852876106
11
-14.0441095133
21
-9.6852876106
0
LINE
5
2C5
100
AcDbEntity
8
0
100
AcDbLine
62
7
6
CONTINUOUS
10
3.9505404089
20
-9.6852876106
11
2.9558904867
21
-9.6852876106
0
LINE
5
2C6
100
AcDbEntity
8
0
100
AcDbLine
62
7
6
CONTINUOUS
10
1.0111852547
20
-24.5182309323
11
0.9041118014
21
-24.3576184873
0
LINE
5
2C7
100
AcDbEntity
8
0
100
AcDbLine
62
7
6
CONTINUOUS
10
-10.0441095133
20
-12.9852876106
11
-10.0441095133
21
-18.1746226956
0
LINE
5
2C8
100
AcDbEntity
8
0
100
AcDbLine
62
7
6
CONTINUOUS
10
-10.0441095133
20
13.0647123894
11
-10.0441095133
21
15.5629670158
0
LINE
5
2C9
100
AcDbEntity
8
0
100
AcDbLine
62
7
6
CONTINUOUS
10
-9.9441095133
20
19.3647123894
11
-9.9441095133
21
17.9647123894
0
LINE
5
2CA
100
AcDbEntity
8
0
100
AcDbLine
62
7
6
CONTINUOUS
10
-9.9441095133
20
-8.3330662108
11
-9.9441095133
21
-11.3352876106
0
LINE
5
2CB
100
AcDbEntity
8
0
100
AcDbLine
62
7
6
CONTINUOUS
10
-9.9441095133
20
-26.8352876106
11
-9.9441095133
21
-28.2352876106
0
LINE
5
2CC
100
AcDbEntity
8
0
100
AcDbLine
62
9
6
CONTINUOUS
10
-9.9000422460
20
-26.7691857775
11
-9.9000422460
21
-28.1860610353
0
LINE
5
2CD
100
AcDbEntity
8
0
100
AcDbLine
62
9
6
CONTINUOUS
10
-9.9000422460
20
17.8986105563
11
-9.9000422460
21
19.3154858141
0
LINE
5
2CE
100
AcDbEntity
8
0
100
AcDbLine
62
9
6
CONTINUOUS
10
-9.8441095133
20
12.8647123894
11
-9.8441095133
21
15.5647123894
0
LINE
5
2CF
100
AcDbEntity
8
0
100
AcDbLine
62
7
6
CONTINUOUS
10
-9.0441095133
20
-26.7692075058
11
-9.0441095133
21
-28.1864299010
0
LINE
5
2D0
100
AcDbEntity
8
0
100
AcDbLine
62
7
6
CONTINUOUS
10
-9.0441095133
20
-28.1879610396
11
-9.0441095133
21
-28.2294697808
0
LINE
5
2D1
100
AcDbEntity
8
0
100
AcDbLine
62
7
6
CONTINUOUS
10
-9.0441095133
20
9.5647123894
11
-9.0441095133
21
11.7647123894
0
LINE
5
2D2
100
AcDbEntity
8
0
100
AcDbLine
62
7
6
CONTINUOUS
10
-9.0441095133
20
19.3173858184
11
-9.0441095133
21
19.3588945596
0
LINE
5
2D3
100
AcDbEntity
8
0
100
AcDbLine
62
7
6
CONTINUOUS
10
-9.0441095133
20
17.8986322846
11
-9.0441095133
21
19.3158546797
0
LINE
5
2D4
100
AcDbEntity
8
0
100
AcDbLine
62
7
6
CONTINUOUS
10
-8.9441095133
20
9.6647123894
11
-8.9441095133
21
11.0647123894
0
LINE
5
2D5
100
AcDbEntity
8
0
100
AcDbLine
62
7
6
CONTINUOUS
10
2.9058904867
20
-8.3330662108
11
-13.9941095133
21
-8.3330662108
0
LINE
5
2D6
100
AcDbEntity
8
0
100
AcDbLine
62
7
6
CONTINUOUS
10
-8.6941095133
20
-11.4852876106
11
-8.6941095133
21
-11.3352876106
0
LINE
5
2D7
100
AcDbEntity
8
0
100
AcDbLine
62
7
6
CONTINUOUS
10
-8.5441095133
20
-25.4352876106
11
-8.5441095133
21
-26.8265607428
0
LINE
5
2D8
100
AcDbEntity
8
0
100
AcDbLine
62
7
6
CONTINUOUS
10
-8.5441095133
20
16.5647123894
11
-8.5441095133
21
17.9559855216
0
LINE
5
2D9
100
AcDbEntity
8
0
100
AcDbLine
62
7
6
CONTINUOUS
10
-8.1441095133
20
-8.3330662108
11
-8.1441095133
21
-11.3352876106
0
LINE
5
2DA
100
AcDbEntity
8
0
100
AcDbLine
62
7
6
CONTINUOUS
10
-7.5941095133
20
-11.4852876106
11
-7.5941095133
21
-11.3352876106
0
LINE
5
2DB
100
AcDbEntity
8
0
100
AcDbLine
62
9
6
CONTINUOUS
10
-15.0387594354
20
-24.3686295229
11
-15.1941095133
21
-24.8350587586
0
LINE
5
2DC
100
AcDbEntity
8
0
100
AcDbLine
62
9
6
CONTINUOUS
10
-14.5391400351
20
-24.8688583750
11
-14.6944901130
21
-25.3352876106
0
LINE
5
2DD
100
AcDbEntity
8
0
100
AcDbLine
62
7
6
CONTINUOUS
10
2.9058904867
20
-7.6352876106
11
4.1058904867
21
-7.6352876106
0
LINE
5
2DE
100
AcDbEntity
8
0
100
AcDbLine
62
7
6
CONTINUOUS
10
-13.9941095133
20
-7.6352876106
11
-15.1941095133
21
-7.6352876106
0
LINE
5
2DF
100
AcDbEntity
8
0
100
AcDbLine
62
7
6
CONTINUOUS
10
2.9058904867
20
-6.6352876106
11
4.1058904867
21
-6.6352876106
0
LINE
5
2E0
100
AcDbEntity
8
0
100
AcDbLine
62
7
6
CONTINUOUS
10
-13.9941095133
20
-6.6352876106
11
-15.1941095133
21
-6.6352876106
0
LINE
5
2E1
100
AcDbEntity
8
0
100
AcDbLine
62
9
6
CONTINUOUS
10
-15.1941095133
20
15.9644835373
11
-15.1312712795
21
15.7758155319
0
LINE
5
2E2
100
AcDbEntity
8
0
100
AcDbLine
62
9
6
CONTINUOUS
10
-14.6944901130
20
16.4647123894
11
-14.6316518793
21
16.2760443840
0
LINE
5
2E3
100
AcDbEntity
8
0
100
AcDbLine
62
7
6
CONTINUOUS
10
3.9505404089
20
0.3147123894
11
4.0797383538
21
0.3793064421
0
LINE
5
2E4
100
AcDbEntity
8
0
100
AcDbLine
62
7
6
CONTINUOUS
10
3.9505404089
20
-9.6852876106
11
4.0797383538
21
-9.7498816633
0
LINE
5
2E5
100
AcDbEntity
8
0
100
AcDbLine
62
7
6
CONTINUOUS
10
-15.0387594354
20
0.3147123894
11
-15.1679573803
21
0.3793064421
0
LINE
5
2E6
100
AcDbEntity
8
0
100
AcDbLine
62
7
6
CONTINUOUS
10
-15.0387594354
20
-9.6852876106
11
-15.1679573803
21
-9.7498816633
0
LINE
5
2E7
100
AcDbEntity
8
0
100
AcDbLine
62
7
6
CONTINUOUS
10
2.9058904867
20
-3.3352876106
11
4.0657438374
21
-3.3352876106
0
LINE
5
2E8
100
AcDbEntity
8
0
100
AcDbLine
62
7
6
CONTINUOUS
10
-13.9941095133
20
-3.3352876106
11
-15.1539628639
21
-3.3352876106
0
LINE
5
2E9
100
AcDbEntity
8
0
100
AcDbLine
62
7
6
CONTINUOUS
10
-14.1941095133
20
-2.4352876106
11
-13.9941095133
21
-2.4352876106
0
LINE
5
2EA
100
AcDbEntity
8
0
100
AcDbLine
62
7
6
CONTINUOUS
10
2.9058904867
20
-2.4352876106
11
3.1058904867
21
-2.4352876106
0
LINE
5
2EB
100
AcDbEntity
8
0
100
AcDbLine
62
7
6
CONTINUOUS
10
-3.4941095133
20
-11.3352876106
11
-3.4941095133
21
-11.4852876106
0
LINE
5
2EC
100
AcDbEntity
8
0
100
AcDbLine
62
7
6
CONTINUOUS
10
-2.9441095133
20
-8.3330662108
11
-2.9441095133
21
-11.3352876106
0
LINE
5
2ED
100
AcDbEntity
8
0
100
AcDbLine
62
7
6
CONTINUOUS
10
-2.5441095133
20
-25.4352876106
11
-2.5441095133
21
-26.8265607428
0
LINE
5
2EE
100
AcDbEntity
8
0
100
AcDbLine
62
7
6
CONTINUOUS
10
-2.5441095133
20
16.5647123894
11
-2.5441095133
21
17.9559855216
0
LINE
5
2EF
100
AcDbEntity
8
0
100
AcDbLine
62
7
6
CONTINUOUS
10
-2.3941095133
20
-11.4852876106
11
-2.3941095133
21
-11.3352876106
0
LINE
5
2F0
100
AcDbEntity
8
0
100
AcDbLine
62
7
6
CONTINUOUS
10
-2.1441095133
20
11.0647123894
11
-2.1441095133
21
9.6647123894
0
LINE
5
2F1
100
AcDbEntity
8
0
100
AcDbLine
62
7
6
CONTINUOUS
10
-2.0441095133
20
-26.7692075058
11
-2.0441095133
21
-28.1864299010
0
LINE
5
2F2
100
AcDbEntity
8
0
100
AcDbLine
62
7
6
CONTINUOUS
10
-2.0441095133
20
-28.1879610396
11
-2.0441095133
21
-28.2294697808
0
LINE
5
2F3
100
AcDbEntity
8
0
100
AcDbLine
62
7
6
CONTINUOUS
10
-2.0441095133
20
9.5647123894
11
-2.0441095133
21
11.7647123894
0
LINE
5
2F4
100
AcDbEntity
8
0
100
AcDbLine
62
7
6
CONTINUOUS
10
-2.0441095133
20
19.3173858184
11
-2.0441095133
21
19.3588945596
0
LINE
5
2F5
100
AcDbEntity
8
0
100
AcDbLine
62
7
6
CONTINUOUS
10
-2.0441095133
20
17.8986322846
11
-2.0441095133
21
19.3158546797
0
LINE
5
2F6
100
AcDbEntity
8
0
100
AcDbLine
62
9
6
CONTINUOUS
10
3.5434328527
20
16.2760443840
11
3.6062710865
21
16.4647123894
0
LINE
5
2F7
100
AcDbEntity
8
0
100
AcDbLine
62
9
6
CONTINUOUS
10
4.0430522530
20
15.7758155319
11
4.1058904867
21
15.9644835373
0
LINE
5
2F8
100
AcDbEntity
8
0
100
AcDbLine
62
7
6
CONTINUOUS
10
2.9058904867
20
-2.0330662108
11
-13.9941095133
21
-2.0330662108
0
LINE
5
2F9
100
AcDbEntity
8
0
100
AcDbLine
62
9
6
CONTINUOUS
10
3.6062710865
20
-25.3352876106
11
3.4509210086
21
-24.8688583750
0
LINE
5
2FA
100
AcDbEntity
8
0
100
AcDbLine
62
9
6
CONTINUOUS
10
4.1058904867
20
-24.8350587586
11
3.9505404089
21
-24.3686295229
0
LINE
5
2FB
100
AcDbEntity
8
0
100
AcDbLine
62
9
6
CONTINUOUS
10
-1.2441095133
20
15.5647123894
11
-1.2441095133
21
12.8647123894
0
LINE
5
2FC
100
AcDbEntity
8
0
100
AcDbLine
62
9
6
CONTINUOUS
10
-1.1881767805
20
-26.7691857775
11
-1.1881767805
21
-28.1860610353
0
LINE
5
2FD
100
AcDbEntity
8
0
100
AcDbLine
62
9
6
CONTINUOUS
10
-1.1881767805
20
17.8986105563
11
-1.1881767805
21
19.3154858141
0
LINE
5
2FE
100
AcDbEntity
8
0
100
AcDbLine
62
7
6
CONTINUOUS
10
-1.1441095133
20
-8.3330662108
11
-1.1441095133
21
-11.3352876106
0
LINE
5
2FF
100
AcDbEntity
8
0
100
AcDbLine
62
7
6
CONTINUOUS
10
-1.1441095133
20
-28.2352876106
11
-1.1441095133
21
-26.8352876106
0
LINE
5
300
100
AcDbEntity
8
0
100
AcDbLine
62
7
6
CONTINUOUS
10
-1.1441095133
20
17.9647123894
11
-1.1441095133
21
19.3647123894
0
LINE
5
301
100
AcDbEntity
8
0
100
AcDbLine
62
7
6
CONTINUOUS
10
-1.0441095133
20
15.5629670158
11
-1.0441095133
21
13.0650004164
0
LINE
5
302
100
AcDbEntity
8
0
100
AcDbLine
62
7
6
CONTINUOUS
10
-1.0441095133
20
-18.1746226956
11
-1.0441095133
21
-12.9852876106
0
LINE
5
303
100
AcDbEntity
8
0
100
AcDbLine
62
7
6
CONTINUOUS
10
-0.2090995181
20
2.0647123894
11
-0.2090995181
21
6.6647123894
0
LINE
5
304
100
AcDbEntity
8
0
100
AcDbLine
62
7
6
CONTINUOUS
10
-0.0972166190
20
5.6647123894
11
-0.0972166190
21
3.6647123894
0
LINE
5
305
100
AcDbEntity
8
0
100
AcDbLine
62
7
6
CONTINUOUS
10
-0.0441095133
20
-14.9352876106
11
-0.0441095133
21
-18.1746226956
0
LINE
5
306
100
AcDbEntity
8
0
100
AcDbLine
62
7
6
CONTINUOUS
10
-15.0387594354
20
0.3147123894
11
-14.1941095133
21
0.3147123894
0
LINE
5
307
100
AcDbEntity
8
0
100
AcDbLine
62
7
6
CONTINUOUS
10
3.9505404089
20
0.3147123894
11
3.1058904867
21
0.3147123894
0
LINE
5
308
100
AcDbEntity
8
0
100
AcDbLine
62
9
6
CONTINUOUS
10
-15.1679573803
20
0.3793064421
11
-14.3441095133
21
0.3793064421
0
LINE
5
309
100
AcDbEntity
8
0
100
AcDbLine
62
9
6
CONTINUOUS
10
3.2558904867
20
0.3793064421
11
4.0797383538
21
0.3793064421
0
LINE
5
30A
100
AcDbEntity
8
0
100
AcDbLine
62
7
6
CONTINUOUS
10
-12.9441095133
20
0.5746110802
11
1.8558904867
21
0.5746110802
0
LINE
5
30B
100
AcDbEntity
8
0
100
AcDbLine
62
9
6
CONTINUOUS
10
-15.1714179289
20
0.5792988267
11
-14.3441095133
21
0.5792988267
0
LINE
5
30C
100
AcDbEntity
8
0
100
AcDbLine
62
9
6
CONTINUOUS
10
3.2558904867
20
0.5792988267
11
4.0831989023
21
0.5792988267
0
LINE
5
30D
100
AcDbEntity
8
0
100
AcDbLine
62
7
6
CONTINUOUS
10
-12.9441095133
20
0.9669337892
11
1.8558904867
21
0.9669337892
0
LINE
5
30E
100
AcDbEntity
8
0
100
AcDbLine
62
9
6
CONTINUOUS
10
4.0831989023
20
1.0501259521
11
3.2558904867
21
1.0501259521
0
LINE
5
30F
100
AcDbEntity
8
0
100
AcDbLine
62
9
6
CONTINUOUS
10
-14.3441095133
20
1.0501259521
11
-15.1714179289
21
1.0501259521
0
LINE
5
310
100
AcDbEntity
8
0
100
AcDbLine
62
9
6
CONTINUOUS
10
1.0129119882
20
-24.4289521766
11
0.9041118014
21
-21.2418013358
0
LINE
5
311
100
AcDbEntity
8
0
100
AcDbLine
62
7
6
CONTINUOUS
10
0.2558904867
20
7.3647123894
11
0.2558904867
21
6.6647123894
0
LINE
5
312
100
AcDbEntity
8
0
100
AcDbLine
62
7
6
CONTINUOUS
10
0.2558904867
20
7.6647123894
11
0.2558904867
21
8.9647123894
0
LINE
5
313
100
AcDbEntity
8
0
100
AcDbLine
62
7
6
CONTINUOUS
10
0.4482125142
20
3.6647123894
11
0.4482125142
21
2.0647123894
0
LINE
5
314
100
AcDbEntity
8
0
100
AcDbLine
62
7
6
CONTINUOUS
10
0.5531027321
20
5.6647123894
11
0.5531027321
21
6.4147123894
0
LINE
5
315
100
AcDbEntity
8
0
100
AcDbLine
62
7
6
CONTINUOUS
10
0.7558904867
20
7.8647123894
11
0.7558904867
21
5.6647123894
0
LINE
5
316
100
AcDbEntity
8
0
100
AcDbLine
62
7
6
CONTINUOUS
10
0.7558904867
20
-12.9852876106
11
0.7558904867
21
-12.3352876106
0
LINE
5
317
100
AcDbEntity
8
0
100
AcDbLine
62
7
6
CONTINUOUS
10
0.9041118014
20
-24.3576184873
11
0.9041118014
21
-21.2418013358
0
LINE
5
318
100
AcDbEntity
8
0
100
AcDbLine
62
7
6
CONTINUOUS
10
0.9157474610
20
12.7120766540
11
0.9157474610
21
14.8647123894
0
LINE
5
319
100
AcDbEntity
8
0
100
AcDbLine
62
7
6
CONTINUOUS
10
0.9349462994
20
15.5332956653
11
0.9349462994
21
15.0647123894
0
LINE
5
31A
100
AcDbEntity
8
0
100
AcDbLine
62
9
6
CONTINUOUS
10
1.0129119882
20
-24.6190872035
11
1.0129119882
21
-24.4289521766
0
LINE
5
31B
100
AcDbEntity
8
0
100
AcDbLine
62
9
6
CONTINUOUS
10
1.0129119882
20
15.5583769554
11
1.0129119882
21
15.7485119823
0
LINE
5
31C
100
AcDbEntity
8
0
100
AcDbLine
62
9
6
CONTINUOUS
10
1.2129086036
20
-25.0182118938
11
1.2129086036
21
-24.4289521766
0
LINE
5
31D
100
AcDbEntity
8
0
100
AcDbLine
62
9
6
CONTINUOUS
10
1.2129086036
20
15.5583769554
11
1.2129086036
21
16.1476366726
0
LINE
5
31E
100
AcDbEntity
8
0
100
AcDbLine
62
7
6
CONTINUOUS
10
1.4058904867
20
3.6647123894
11
1.4058904867
21
2.0647123894
0
LINE
5
31F
100
AcDbEntity
8
0
100
AcDbLine
62
9
6
CONTINUOUS
10
1.4988723699
20
16.5607079351
11
1.4988723699
21
15.5583769554
0
LINE
5
320
100
AcDbEntity
8
0
100
AcDbLine
62
9
6
CONTINUOUS
10
1.4988723699
20
-24.4289521766
11
1.4988723699
21
-25.4312831563
0
LINE
5
321
100
AcDbEntity
8
0
100
AcDbLine
62
9
6
CONTINUOUS
10
1.5558904867
20
-14.9352876106
11
1.5558904867
21
-12.9852876106
0
LINE
5
322
100
AcDbEntity
8
0
100
AcDbLine
62
9
6
CONTINUOUS
10
1.5558904867
20
5.8647123894
11
1.5558904867
21
9.5647123894
0
LINE
5
323
100
AcDbEntity
8
0
100
AcDbLine
62
9
6
CONTINUOUS
10
1.6988689853
20
16.5589727156
11
1.6988689853
21
15.5583769554
0
LINE
5
324
100
AcDbEntity
8
0
100
AcDbLine
62
9
6
CONTINUOUS
10
1.6988689853
20
-24.4289521766
11
1.6988689853
21
-25.4295479369
0
LINE
5
325
100
AcDbEntity
8
0
100
AcDbLine
62
7
6
CONTINUOUS
10
1.7558904867
20
9.3647123894
11
1.7558904867
21
6.0647123894
0
LINE
5
326
100
AcDbEntity
8
0
100
AcDbLine
62
7
6
CONTINUOUS
10
1.7558904867
20
-13.1852876106
11
1.7558904867
21
-14.7352876106
0
LINE
5
327
100
AcDbEntity
8
0
100
AcDbLine
62
7
6
CONTINUOUS
10
1.7768346740
20
16.2760443840
11
1.7768346740
21
15.0647123894
0
LINE
5
328
100
AcDbEntity
8
0
100
AcDbLine
62
7
6
CONTINUOUS
10
1.7960335124
20
12.7120766540
11
1.7960335124
21
14.8647123894
0
LINE
5
329
100
AcDbEntity
8
0
100
AcDbLine
62
7
6
CONTINUOUS
10
1.8076691720
20
-24.8688583750
11
1.8076691720
21
-21.2418013358
0
LINE
5
32A
100
AcDbEntity
8
0
100
AcDbLine
62
7
6
CONTINUOUS
10
1.8558904867
20
0.9669337892
11
1.8558904867
21
0.5746110802
0
LINE
5
32B
100
AcDbEntity
8
0
100
AcDbLine
62
7
6
CONTINUOUS
10
1.8558904867
20
-11.3352876106
11
1.8558904867
21
-8.3330662108
0
LINE
5
32C
100
AcDbEntity
8
0
100
AcDbLine
62
9
6
CONTINUOUS
10
1.0129119882
20
15.5583769554
11
0.9157474610
21
12.7120766540
0
LINE
5
32D
100
AcDbEntity
8
0
100
AcDbLine
62
7
6
CONTINUOUS
10
-12.0994042812
20
-24.5182309323
11
-11.9923308280
21
-24.3576184873
0
LINE
5
32E
100
AcDbEntity
8
0
100
AcDbLine
62
9
6
CONTINUOUS
10
4.0797383538
20
1.2501183367
11
3.2558904867
21
1.2501183367
0
LINE
5
32F
100
AcDbEntity
8
0
100
AcDbLine
62
9
6
CONTINUOUS
10
-14.3441095133
20
1.2501183367
11
-15.1679573803
21
1.2501183367
0
LINE
5
330
100
AcDbEntity
8
0
100
AcDbLine
62
7
6
CONTINUOUS
10
-15.0387594354
20
1.3147123894
11
-14.1941095133
21
1.3147123894
0
LINE
5
331
100
AcDbEntity
8
0
100
AcDbLine
62
7
6
CONTINUOUS
10
3.9505404089
20
1.3147123894
11
3.1058904867
21
1.3147123894
0
LINE
5
332
100
AcDbEntity
8
0
100
AcDbLine
62
7
6
CONTINUOUS
10
2.9058904867
20
2.0647123894
11
-13.9941095133
21
2.0647123894
0
LINE
5
333
100
AcDbEntity
8
0
100
AcDbLine
62
7
6
CONTINUOUS
10
-12.0994042812
20
15.6476557111
11
-12.0231653260
21
15.5332956653
0
LINE
5
334
100
AcDbEntity
8
0
100
AcDbLine
62
9
6
CONTINUOUS
10
1.6988689853
20
15.5583769554
11
1.7960335124
21
12.7120766540
0
LINE
5
335
100
AcDbEntity
8
0
100
AcDbLine
62
9
6
CONTINUOUS
10
2.7102623207
20
-28.2796251779
11
2.7058904867
21
-27.8457727588
0
LINE
5
336
100
AcDbEntity
8
0
100
AcDbLine
62
9
6
CONTINUOUS
10
2.9609853187
20
-28.1352876106
11
2.9551674889
21
-27.5579373414
0
LINE
5
337
100
AcDbEntity
8
0
100
AcDbLine
62
9
6
CONTINUOUS
10
2.0399912059
20
-25.7479808543
11
2.0399912059
21
-25.4312831563
0
LINE
5
338
100
AcDbEntity
8
0
100
AcDbLine
62
9
6
CONTINUOUS
10
2.0399912059
20
16.5607079351
11
2.0399912059
21
16.8774056331
0
LINE
5
339
100
AcDbEntity
8
0
100
AcDbLine
62
7
6
CONTINUOUS
10
2.2558904867
20
3.6647123894
11
2.2558904867
21
2.0647123894
0
LINE
5
33A
100
AcDbEntity
8
0
100
AcDbLine
62
9
6
CONTINUOUS
10
2.5399150535
20
-26.0012630439
11
2.5399150535
21
-25.4269958748
0
LINE
5
33B
100
AcDbEntity
8
0
100
AcDbLine
62
9
6
CONTINUOUS
10
2.5399150535
20
16.5564206536
11
2.5399150535
21
17.1306878226
0
LINE
5
33C
100
AcDbEntity
8
0
100
AcDbLine
62
7
6
CONTINUOUS
10
2.7058904867
20
16.9647123894
11
2.7058904867
21
16.4647123894
0
LINE
5
33D
100
AcDbEntity
8
0
100
AcDbLine
62
7
6
CONTINUOUS
10
2.7058904867
20
-25.3352876106
11
2.7058904867
21
-25.8352876106
0
LINE
5
33E
100
AcDbEntity
8
0
100
AcDbLine
62
7
6
CONTINUOUS
10
2.7058904867
20
-26.8352876106
11
2.7058904867
21
-28.6852918414
0
LINE
5
33F
100
AcDbEntity
8
0
100
AcDbLine
62
7
6
CONTINUOUS
10
2.7058904867
20
17.9647123894
11
2.7058904867
21
19.8147166202
0
LINE
5
340
100
AcDbEntity
8
0
100
AcDbLine
62
9
6
CONTINUOUS
10
2.7102623207
20
19.8103447862
11
2.7102623207
21
19.4090499567
0
LINE
5
341
100
AcDbEntity
8
0
100
AcDbLine
62
9
6
CONTINUOUS
10
2.7102623207
20
-28.2796251779
11
2.7102623207
21
-28.6809200074
0
LINE
5
342
100
AcDbEntity
8
0
100
AcDbLine
62
7
6
CONTINUOUS
10
2.7558904867
20
-10.4852799949
11
2.7558904867
21
-9.8852952263
0
LINE
5
343
100
AcDbEntity
8
0
100
AcDbLine
62
7
6
CONTINUOUS
10
2.9058904867
20
-8.3330662108
11
2.9058904867
21
2.0647123894
0
LINE
5
344
100
AcDbEntity
8
0
100
AcDbLine
62
9
6
CONTINUOUS
10
2.9558904867
20
-10.6852876106
11
2.9558904867
21
-10.6233116182
0
LINE
5
345
100
AcDbEntity
8
0
100
AcDbLine
62
9
6
CONTINUOUS
10
2.9558904867
20
-9.7472636030
11
2.9558904867
21
-9.6852876106
0
LINE
5
346
100
AcDbEntity
8
0
100
AcDbLine
62
9
6
CONTINUOUS
10
2.9602580899
20
-28.1352876106
11
2.9602580899
21
-28.9309157766
0
LINE
5
347
100
AcDbEntity
8
0
100
AcDbLine
62
9
6
CONTINUOUS
10
2.9602580899
20
19.1925436057
11
2.9602580899
21
20.0603405554
0
LINE
5
348
100
AcDbEntity
8
0
100
AcDbLine
62
7
6
CONTINUOUS
10
3.0558904867
20
-3.3352876106
11
3.0558904867
21
-7.6352876106
0
LINE
5
349
100
AcDbEntity
8
0
100
AcDbLine
62
7
6
CONTINUOUS
10
3.1058904867
20
3.6647123894
11
3.1058904867
21
-2.4352876106
0
LINE
5
34A
100
AcDbEntity
8
0
100
AcDbLine
62
7
6
CONTINUOUS
10
3.1058904867
20
-12.3352876106
11
3.1058904867
21
-10.8852876106
0
LINE
5
34B
100
AcDbEntity
8
0
100
AcDbLine
62
9
6
CONTINUOUS
10
3.2558904867
20
-10.6206935579
11
3.2558904867
21
-9.7498816633
0
LINE
5
34C
100
AcDbEntity
8
0
100
AcDbLine
62
9
6
CONTINUOUS
10
3.2558904867
20
0.3793064421
11
3.2558904867
21
1.2501183367
0
LINE
5
34D
100
AcDbEntity
8
0
100
AcDbLine
62
9
6
CONTINUOUS
10
2.7058904867
20
18.9751975376
11
2.7102623207
21
19.4090499567
0
LINE
5
34E
100
AcDbEntity
8
0
100
AcDbLine
62
9
6
CONTINUOUS
10
2.9551674889
20
18.6873621202
11
2.9602580899
21
19.1925436057
0
LINE
5
34F
100
AcDbEntity
8
0
100
AcDbLine
62
9
6
CONTINUOUS
10
1.6988689853
20
-24.4289521766
11
1.8076691720
21
-21.2418013358
0
LINE
5
350
100
AcDbEntity
8
0
100
AcDbLine
62
7
6
CONTINUOUS
10
-9.9441095133
20
-26.8352876106
11
-9.9000422460
21
-26.7691857775
0
LINE
5
351
100
AcDbEntity
8
0
100
AcDbLine
62
7
6
CONTINUOUS
10
-0.0972166190
20
3.6647123894
11
3.1058904867
21
3.6647123894
0
LINE
5
352
100
AcDbEntity
8
0
100
AcDbLine
62
7
6
CONTINUOUS
10
-10.9910024076
20
3.6647123894
11
-14.1941095133
21
3.6647123894
0
LINE
5
353
100
AcDbEntity
8
0
100
AcDbLine
62
7
6
CONTINUOUS
10
-9.9441095133
20
17.9647123894
11
-9.9000422460
21
17.8986105563
0
LINE
5
354
100
AcDbEntity
8
0
100
AcDbLine
62
9
6
CONTINUOUS
10
4.8515228835
20
19.1925436057
11
4.8566134846
21
18.6873621202
0
LINE
5
355
100
AcDbEntity
8
0
100
AcDbLine
62
9
6
CONTINUOUS
10
5.1015186527
20
19.4090499567
11
5.1058904867
21
18.9751975376
0
LINE
5
356
100
AcDbEntity
8
0
100
AcDbLine
62
7
6
CONTINUOUS
10
3.9505404089
20
-24.3686295229
11
3.9505404089
21
-13.9852876106
0
LINE
5
357
100
AcDbEntity
8
0
100
AcDbLine
62
7
6
CONTINUOUS
10
3.9505404089
20
-12.9852876106
11
3.9505404089
21
-10.6852876106
0
LINE
5
358
100
AcDbEntity
8
0
100
AcDbLine
62
7
6
CONTINUOUS
10
3.9505404089
20
-9.6852876106
11
3.9505404089
21
-7.6352876106
0
LINE
5
359
100
AcDbEntity
8
0
100
AcDbLine
62
7
6
CONTINUOUS
10
3.9505404089
20
-3.3352876106
11
3.9505404089
21
0.3147123894
0
LINE
5
35A
100
AcDbEntity
8
0
100
AcDbLine
62
7
6
CONTINUOUS
10
3.9505404089
20
1.3147123894
11
3.9505404089
21
5.8647123894
0
LINE
5
35B
100
AcDbEntity
8
0
100
AcDbLine
62
7
6
CONTINUOUS
10
3.9505404089
20
6.8647123894
11
3.9505404089
21
10.2647123894
0
LINE
5
35C
100
AcDbEntity
8
0
100
AcDbLine
62
7
6
CONTINUOUS
10
3.9854505387
20
14.8647123894
11
3.9854505387
21
10.7647123894
0
LINE
5
35D
100
AcDbEntity
8
0
100
AcDbLine
62
7
6
CONTINUOUS
10
4.0430522530
20
15.7758155319
11
4.0430522530
21
15.0647123894
0
LINE
5
35E
100
AcDbEntity
8
0
100
AcDbLine
62
7
6
CONTINUOUS
10
4.0657438374
20
-3.3352876106
11
4.0657438374
21
-6.6352876106
0
LINE
5
35F
100
AcDbEntity
8
0
100
AcDbLine
62
7
6
CONTINUOUS
10
4.0831989023
20
1.0501259521
11
4.0831989023
21
0.5792988267
0
LINE
5
360
100
AcDbEntity
8
0
100
AcDbLine
62
7
6
CONTINUOUS
10
4.0831989023
20
-9.9498740479
11
4.0831989023
21
-10.4207011733
0
LINE
5
361
100
AcDbEntity
8
0
100
AcDbLine
62
7
6
CONTINUOUS
10
4.1058904867
20
15.9644835373
11
4.1058904867
21
6.8647123894
0
LINE
5
362
100
AcDbEntity
8
0
100
AcDbLine
62
7
6
CONTINUOUS
10
4.1058904867
20
5.8647123894
11
4.1058904867
21
-6.6352876106
0
LINE
5
363
100
AcDbEntity
8
0
100
AcDbLine
62
7
6
CONTINUOUS
10
4.1058904867
20
-7.6352876106
11
4.1058904867
21
-12.9852876106
0
LINE
5
364
100
AcDbEntity
8
0
100
AcDbLine
62
7
6
CONTINUOUS
10
4.1058904867
20
-13.9852876106
11
4.1058904867
21
-24.8350587586
0
LINE
5
365
100
AcDbEntity
8
0
100
AcDbLine
62
9
6
CONTINUOUS
10
4.8515228835
20
-28.1352876106
11
4.8515228835
21
-28.9309157766
0
LINE
5
366
100
AcDbEntity
8
0
100
AcDbLine
62
9
6
CONTINUOUS
10
4.8515228835
20
19.1925436057
11
4.8515228835
21
20.0603405554
0
LINE
5
367
100
AcDbEntity
8
0
100
AcDbLine
62
9
6
CONTINUOUS
10
5.1015186527
20
-28.6809200074
11
5.1015186527
21
-28.2796251779
0
LINE
5
368
100
AcDbEntity
8
0
100
AcDbLine
62
9
6
CONTINUOUS
10
5.1015186527
20
19.4090499567
11
5.1015186527
21
19.8103447862
0
LINE
5
369
100
AcDbEntity
8
0
100
AcDbLine
62
7
6
CONTINUOUS
10
5.1058904867
20
-26.8349775786
11
5.1058904867
21
-28.6852918414
0
LINE
5
36A
100
AcDbEntity
8
0
100
AcDbLine
62
7
6
CONTINUOUS
10
5.1058904867
20
17.9644023574
11
5.1058904867
21
19.8147166202
0
LINE
5
36B
100
AcDbEntity
8
0
100
AcDbLine
62
9
6
CONTINUOUS
10
4.8566134846
20
-27.5579373414
11
4.8507956548
21
-28.1352876106
0
LINE
5
36C
100
AcDbEntity
8
0
100
AcDbLine
62
9
6
CONTINUOUS
10
5.1058904867
20
-27.8457727588
11
5.1015186527
21
-28.2796251779
0
LINE
5
36D
100
AcDbEntity
8
0
100
AcDbLine
62
7
6
CONTINUOUS
10
1.7547281614
20
-25.3457579911
11
1.8076691720
21
-24.8688583750
0
LINE
5
36E
100
AcDbEntity
8
0
100
AcDbLine
62
9
6
CONTINUOUS
10
-16.1897376793
20
-28.6809200074
11
-16.1941095133
21
-28.6852918414
0
LINE
5
36F
100
AcDbEntity
8
0
100
AcDbLine
62
9
6
CONTINUOUS
10
-15.9397419101
20
-28.9309157766
11
-15.9441137441
21
-28.9352876106
0
LINE
5
370
100
AcDbEntity
8
0
100
AcDbLine
62
7
6
CONTINUOUS
10
3.9505404089
20
-10.6852876106
11
4.0797383538
21
-10.6206935579
0
LINE
5
371
100
AcDbEntity
8
0
100
AcDbLine
62
7
6
CONTINUOUS
10
-0.0972166190
20
5.6647123894
11
0.7558904867
21
5.6647123894
0
LINE
5
372
100
AcDbEntity
8
0
100
AcDbLine
62
7
6
CONTINUOUS
10
-10.9910024076
20
5.6647123894
11
-11.8441095133
21
5.6647123894
0
LINE
5
373
100
AcDbEntity
8
0
100
AcDbLine
62
7
6
CONTINUOUS
10
0.9558904867
20
5.8647123894
11
4.1058904867
21
5.8647123894
0
LINE
5
374
100
AcDbEntity
8
0
100
AcDbLine
62
7
6
CONTINUOUS
10
-12.0441095133
20
5.8647123894
11
-15.1941095133
21
5.8647123894
0
LINE
5
375
100
AcDbEntity
8
0
100
AcDbLine
62
9
6
CONTINUOUS
10
-12.8441095133
20
6.0647123894
11
-11.8441095133
21
6.0647123894
0
LINE
5
376
100
AcDbEntity
8
0
100
AcDbLine
62
9
6
CONTINUOUS
10
0.7558904867
20
6.0647123894
11
1.7558904867
21
6.0647123894
0
LINE
5
377
100
AcDbEntity
8
0
100
AcDbLine
62
7
6
CONTINUOUS
10
-11.3441095133
20
6.4147123894
11
-11.8441095133
21
6.4147123894
0
LINE
5
378
100
AcDbEntity
8
0
100
AcDbLine
62
9
6
CONTINUOUS
10
-11.3441095133
20
6.5147123894
11
-11.8441095133
21
6.5147123894
0
LINE
5
379
100
AcDbEntity
8
0
100
AcDbLine
62
7
6
CONTINUOUS
10
3.9505404089
20
1.3147123894
11
4.0797383538
21
1.2501183367
0
LINE
5
37A
100
AcDbEntity
8
0
100
AcDbLine
62
9
6
CONTINUOUS
10
-16.1897376793
20
19.8103447862
11
-16.1941095133
21
19.8147166202
0
LINE
5
37B
100
AcDbEntity
8
0
100
AcDbLine
62
9
6
CONTINUOUS
10
-15.9397419101
20
20.0603405554
11
-15.9441137441
21
20.0647123894
0
LINE
5
37C
100
AcDbEntity
8
0
100
AcDbLine
62
7
6
CONTINUOUS
10
1.7768346740
20
16.2760443840
11
1.7547281614
21
16.4751827698
0
LINE
5
37D
100
AcDbEntity
8
0
100
AcDbLine
62
7
6
CONTINUOUS
10
5.6058904867
20
17.4558903300
11
5.6058904867
21
-26.3264655512
0
LINE
5
37E
100
AcDbEntity
8
0
100
AcDbLine
62
7
6
CONTINUOUS
10
0.5531027321
20
6.6647123894
11
-11.6413217586
21
6.6647123894
0
LINE
5
37F
100
AcDbEntity
8
0
100
AcDbLine
62
7
6
CONTINUOUS
10
-15.1941095133
20
6.8647123894
11
-13.0441095133
21
6.8647123894
0
LINE
5
380
100
AcDbEntity
8
0
100
AcDbLine
62
7
6
CONTINUOUS
10
1.9558904867
20
6.8647123894
11
4.1058904867
21
6.8647123894
0
LINE
5
381
100
AcDbEntity
8
0
100
AcDbLine
62
7
6
CONTINUOUS
10
0.2558904867
20
7.2647123894
11
-11.3441095133
21
7.2647123894
0
LINE
5
382
100
AcDbEntity
8
0
100
AcDbLine
62
9
6
CONTINUOUS
10
0.2558904867
20
7.3647123894
11
-11.3441095133
21
7.3647123894
0
LINE
5
383
100
AcDbEntity
8
0
100
AcDbLine
62
7
6
CONTINUOUS
10
-11.8441095133
20
7.6647123894
11
-11.3441095133
21
7.6647123894
0
LINE
5
384
100
AcDbEntity
8
0
100
AcDbLine
62
7
6
CONTINUOUS
10
0.2558904867
20
7.6647123894
11
0.7558904867
21
7.6647123894
0
LINE
5
385
100
AcDbEntity
8
0
100
AcDbLine
62
9
6
CONTINUOUS
10
-11.8441095133
20
7.8647123894
11
-11.3441095133
21
7.8647123894
0
LINE
5
386
100
AcDbEntity
8
0
100
AcDbLine
62
9
6
CONTINUOUS
10
0.2558904867
20
7.8647123894
11
0.7558904867
21
7.8647123894
0
LINE
5
387
100
AcDbEntity
8
0
100
AcDbLine
62
7
6
CONTINUOUS
10
0.2558904867
20
8.1147123894
11
-11.3441095133
21
8.1147123894
0
LINE
5
388
100
AcDbEntity
8
0
100
AcDbLine
62
7
6
CONTINUOUS
10
2.7058904867
20
-25.3352876106
11
2.7024031959
21
-25.3457579911
0
LINE
5
389
100
AcDbEntity
8
0
100
AcDbLine
62
7
6
CONTINUOUS
10
-9.9441095133
20
-28.2352876106
11
-9.9004588664
21
-28.1916369638
0
LINE
5
38A
100
AcDbEntity
8
0
100
AcDbLine
62
7
6
CONTINUOUS
10
-11.3441095133
20
8.9647123894
11
0.2558904867
21
8.9647123894
0
LINE
5
38B
100
AcDbEntity
8
0
100
AcDbLine
62
9
6
CONTINUOUS
10
1.7558904867
20
9.3647123894
11
-12.8441095133
21
9.3647123894
0
LINE
5
38C
100
AcDbEntity
8
0
100
AcDbLine
62
7
6
CONTINUOUS
10
1.5558904867
20
9.5647123894
11
-12.6441095133
21
9.5647123894
0
LINE
5
38D
100
AcDbEntity
8
0
100
AcDbLine
62
7
6
CONTINUOUS
10
-9.9441095133
20
19.3647123894
11
-9.9004588664
21
19.3210617425
0
LINE
5
38E
100
AcDbEntity
8
0
100
AcDbLine
62
7
6
CONTINUOUS
10
2.7024031959
20
16.4751827698
11
2.7058904867
21
16.4647123894
0
LINE
5
38F
100
AcDbEntity
8
0
100
AcDbLine
62
7
6
CONTINUOUS
10
3.9767230063
20
10.2647123894
11
-2.0441095133
21
10.2647123894
0
LINE
5
390
100
AcDbEntity
8
0
100
AcDbLine
62
7
6
CONTINUOUS
10
-9.0441095133
20
10.2647123894
11
-15.0649420328
21
10.2647123894
0
LINE
5
391
100
AcDbEntity
8
0
100
AcDbLine
62
7
6
CONTINUOUS
10
-2.0441095133
20
10.4647123894
11
-2.1441095133
21
10.4647123894
0
LINE
5
392
100
AcDbEntity
8
0
100
AcDbLine
62
7
6
CONTINUOUS
10
-8.9441095133
20
10.4647123894
11
-9.0441095133
21
10.4647123894
0
LINE
5
393
100
AcDbEntity
8
0
100
AcDbLine
62
7
6
CONTINUOUS
10
-2.0441095133
20
10.6647123894
11
-2.1441095133
21
10.6647123894
0
LINE
5
394
100
AcDbEntity
8
0
100
AcDbLine
62
7
6
CONTINUOUS
10
-8.9441095133
20
10.6647123894
11
-9.0441095133
21
10.6647123894
0
LINE
5
395
100
AcDbEntity
8
0
100
AcDbLine
62
9
6
CONTINUOUS
10
3.9854505387
20
10.7647123894
11
-2.0441095133
21
10.7647123894
0
LINE
5
396
100
AcDbEntity
8
0
100
AcDbLine
62
9
6
CONTINUOUS
10
-9.0441095133
20
10.7647123894
11
-15.0736695653
21
10.7647123894
0
LINE
5
397
100
AcDbEntity
8
0
100
AcDbLine
62
7
6
CONTINUOUS
10
-2.0441095133
20
11.0647123894
11
-2.1441095133
21
11.0647123894
0
LINE
5
398
100
AcDbEntity
8
0
100
AcDbLine
62
7
6
CONTINUOUS
10
-8.9441095133
20
11.0647123894
11
-9.0441095133
21
11.0647123894
0
LINE
5
399
100
AcDbEntity
8
0
100
AcDbLine
62
7
6
CONTINUOUS
10
-9.0441095133
20
11.7647123894
11
-2.0441095133
21
11.7647123894
0
LINE
5
39A
100
AcDbEntity
8
0
100
AcDbLine
62
7
6
CONTINUOUS
10
1.6988689853
20
-25.4295479369
11
1.7547281614
21
-25.3457579911
0
LINE
5
39B
100
AcDbEntity
8
0
100
AcDbLine
62
7
6
CONTINUOUS
10
-1.2441095133
20
12.8647123894
11
-9.8441095133
21
12.8647123894
0
LINE
5
39C
100
AcDbEntity
8
0
100
AcDbLine
62
9
6
CONTINUOUS
10
-1.0441095133
20
13.3647123894
11
-10.0441095133
21
13.3647123894
0
LINE
5
39D
100
AcDbEntity
8
0
100
AcDbLine
62
7
6
CONTINUOUS
10
1.6988689853
20
16.5589727156
11
1.7547281614
21
16.4751827698
0
LINE
5
39E
100
AcDbEntity
8
0
100
AcDbLine
62
7
6
CONTINUOUS
10
4.0395612400
20
14.8647123894
11
1.7779982400
21
14.8647123894
0
LINE
5
39F
100
AcDbEntity
8
0
100
AcDbLine
62
7
6
CONTINUOUS
10
0.9337827334
20
14.8647123894
11
-1.0441095133
21
14.8647123894
0
LINE
5
3A0
100
AcDbEntity
8
0
100
AcDbLine
62
7
6
CONTINUOUS
10
-10.0441095133
20
14.8647123894
11
-12.0220017600
21
14.8647123894
0
LINE
5
3A1
100
AcDbEntity
8
0
100
AcDbLine
62
7
6
CONTINUOUS
10
-12.8662172666
20
14.8647123894
11
-15.1277802665
21
14.8647123894
0
LINE
5
3A2
100
AcDbEntity
8
0
100
AcDbLine
62
9
6
CONTINUOUS
10
4.0430522530
20
15.0647123894
11
1.7768346740
21
15.0647123894
0
LINE
5
3A3
100
AcDbEntity
8
0
100
AcDbLine
62
9
6
CONTINUOUS
10
0.9349462994
20
15.0647123894
11
-1.0441095133
21
15.0647123894
0
LINE
5
3A4
100
AcDbEntity
8
0
100
AcDbLine
62
9
6
CONTINUOUS
10
-10.0441095133
20
15.0647123894
11
-12.0231653260
21
15.0647123894
0
LINE
5
3A5
100
AcDbEntity
8
0
100
AcDbLine
62
9
6
CONTINUOUS
10
-12.8650537006
20
15.0647123894
11
-15.1312712795
21
15.0647123894
0
LINE
5
3A6
100
AcDbEntity
8
0
100
AcDbLine
62
7
6
CONTINUOUS
10
0.9349462994
20
15.5332956653
11
-1.0441095133
21
15.5332956653
0
LINE
5
3A7
100
AcDbEntity
8
0
100
AcDbLine
62
7
6
CONTINUOUS
10
-10.0441095133
20
15.5332956653
11
-12.0231653260
21
15.5332956653
0
LINE
5
3A8
100
AcDbEntity
8
0
100
AcDbLine
62
7
6
CONTINUOUS
10
2.7058904867
20
-25.8352876106
11
1.7146173545
21
-26.8265607428
0
LINE
5
3A9
100
AcDbEntity
8
0
100
AcDbLine
62
9
6
CONTINUOUS
10
-12.7870880118
20
15.5583769554
11
-12.5870913964
21
15.5583769554
0
LINE
5
3AA
100
AcDbEntity
8
0
100
AcDbLine
62
9
6
CONTINUOUS
10
1.6988689853
20
15.5583769554
11
1.4988723699
21
15.5583769554
0
LINE
5
3AB
100
AcDbEntity
8
0
100
AcDbLine
62
9
6
CONTINUOUS
10
1.0129119882
20
15.5583769554
11
1.2129086036
21
15.5583769554
0
LINE
5
3AC
100
AcDbEntity
8
0
100
AcDbLine
62
9
6
CONTINUOUS
10
-12.1011310147
20
15.5583769554
11
-12.3011276301
21
15.5583769554
0
LINE
5
3AD
100
AcDbEntity
8
0
100
AcDbLine
62
7
6
CONTINUOUS
10
-9.8441095133
20
15.5647123894
11
-1.2441095133
21
15.5647123894
0
LINE
5
3AE
100
AcDbEntity
8
0
100
AcDbLine
62
9
6
CONTINUOUS
10
-12.0994042812
20
15.6476557111
11
1.0111852547
21
15.6476557111
0
LINE
5
3AF
100
AcDbEntity
8
0
100
AcDbLine
62
9
6
CONTINUOUS
10
-12.3011276301
20
16.1476366726
11
1.2129086036
21
16.1476366726
0
LINE
5
3B0
100
AcDbEntity
8
0
100
AcDbLine
62
7
6
CONTINUOUS
10
-14.6316518793
20
16.2760443840
11
-12.8650537006
21
16.2760443840
0
LINE
5
3B1
100
AcDbEntity
8
0
100
AcDbLine
62
7
6
CONTINUOUS
10
1.7768346740
20
16.2760443840
11
3.5434328527
21
16.2760443840
0
LINE
5
3B2
100
AcDbEntity
8
0
100
AcDbLine
62
7
6
CONTINUOUS
10
-14.6944901130
20
16.4647123894
11
-13.7941095133
21
16.4647123894
0
LINE
5
3B3
100
AcDbEntity
8
0
100
AcDbLine
62
7
6
CONTINUOUS
10
2.7058904867
20
16.4647123894
11
3.6062710865
21
16.4647123894
0
LINE
5
3B4
100
AcDbEntity
8
0
100
AcDbLine
62
7
6
CONTINUOUS
10
2.7024031959
20
16.4751827698
11
1.7547281614
21
16.4751827698
0
LINE
5
3B5
100
AcDbEntity
8
0
100
AcDbLine
62
7
6
CONTINUOUS
10
-12.8429471879
20
16.4751827698
11
-13.7906222224
21
16.4751827698
0
LINE
5
3B6
100
AcDbEntity
8
0
100
AcDbLine
62
7
6
CONTINUOUS
10
-13.1282102324
20
16.5607079351
11
-12.5870913964
21
16.5607079351
0
LINE
5
3B7
100
AcDbEntity
8
0
100
AcDbLine
62
7
6
CONTINUOUS
10
1.4988723699
20
16.5607079351
11
2.0399912059
21
16.5607079351
0
LINE
5
3B8
100
AcDbEntity
8
0
100
AcDbLine
62
7
6
CONTINUOUS
10
-8.5441095133
20
16.5647123894
11
-2.5441095133
21
16.5647123894
0
LINE
5
3B9
100
AcDbEntity
8
0
100
AcDbLine
62
9
6
CONTINUOUS
10
2.0399912059
20
16.8774056331
11
-2.5441095133
21
16.8774056331
0
LINE
5
3BA
100
AcDbEntity
8
0
100
AcDbLine
62
9
6
CONTINUOUS
10
-8.5441095133
20
16.8774056331
11
-13.1282102324
21
16.8774056331
0
LINE
5
3BB
100
AcDbEntity
8
0
100
AcDbLine
62
7
6
CONTINUOUS
10
-8.5441095133
20
17.2647123894
11
-2.5441095133
21
17.2647123894
0
LINE
5
3BC
100
AcDbEntity
8
0
100
AcDbLine
62
7
6
CONTINUOUS
10
2.7058904867
20
16.9647123894
11
1.7146173545
21
17.9559855216
0
LINE
5
3BD
100
AcDbEntity
8
0
100
AcDbLine
62
9
6
CONTINUOUS
10
2.7102623207
20
-28.6809200074
11
2.7058904867
21
-28.6852918414
0
LINE
5
3BE
100
AcDbEntity
8
0
100
AcDbLine
62
9
6
CONTINUOUS
10
2.9602580899
20
-28.9309157766
11
2.9558862559
21
-28.9352876106
0
LINE
5
3BF
100
AcDbEntity
8
0
100
AcDbLine
62
7
6
CONTINUOUS
10
2.5399150535
20
-25.4269958748
11
2.7024031959
21
-25.3457579911
0
LINE
5
3C0
100
AcDbEntity
8
0
100
AcDbLine
62
9
6
CONTINUOUS
10
1.7932353200
20
17.8773675562
11
-2.5441095133
21
17.8773675562
0
LINE
5
3C1
100
AcDbEntity
8
0
100
AcDbLine
62
9
6
CONTINUOUS
10
-8.5441095133
20
17.8773675562
11
-12.8814543465
21
17.8773675562
0
LINE
5
3C2
100
AcDbEntity
8
0
100
AcDbLine
62
7
6
CONTINUOUS
10
5.1057381616
20
17.9559855216
11
1.7146173545
21
17.9559855216
0
LINE
5
3C3
100
AcDbEntity
8
0
100
AcDbLine
62
7
6
CONTINUOUS
10
-2.0441095133
20
17.9559855216
11
-2.5441095133
21
17.9559855216
0
LINE
5
3C4
100
AcDbEntity
8
0
100
AcDbLine
62
7
6
CONTINUOUS
10
-8.5441095133
20
17.9559855216
11
-9.0441095133
21
17.9559855216
0
LINE
5
3C5
100
AcDbEntity
8
0
100
AcDbLine
62
7
6
CONTINUOUS
10
-12.8028363811
20
17.9559855216
11
-16.1939571881
21
17.9559855216
0
LINE
5
3C6
100
AcDbEntity
8
0
100
AcDbLine
62
7
6
CONTINUOUS
10
-1.1441095133
20
17.9647123894
11
5.0882830967
21
17.9647123894
0
LINE
5
3C7
100
AcDbEntity
8
0
100
AcDbLine
62
7
6
CONTINUOUS
10
-9.9441095133
20
17.9647123894
11
-16.1765021232
21
17.9647123894
0
LINE
5
3C8
100
AcDbEntity
8
0
100
AcDbLine
62
7
6
CONTINUOUS
10
4.8566134846
20
18.6873621202
11
2.9551674889
21
18.6873621202
0
LINE
5
3C9
100
AcDbEntity
8
0
100
AcDbLine
62
7
6
CONTINUOUS
10
-14.0433865154
20
18.6873621202
11
-15.9448325111
21
18.6873621202
0
LINE
5
3CA
100
AcDbEntity
8
0
100
AcDbLine
62
7
6
CONTINUOUS
10
2.5399150535
20
16.5564206536
11
2.7024031959
21
16.4751827698
0
LINE
5
3CB
100
AcDbEntity
8
0
100
AcDbLine
62
9
6
CONTINUOUS
10
2.7102623207
20
19.8103447862
11
2.7058904867
21
19.8147166202
0
LINE
5
3CC
100
AcDbEntity
8
0
100
AcDbLine
62
9
6
CONTINUOUS
10
2.9602580899
20
20.0603405554
11
2.9558862559
21
20.0647123894
0
LINE
5
3CD
100
AcDbEntity
8
0
100
AcDbLine
62
9
6
CONTINUOUS
10
5.1057381616
20
-26.8265607428
11
5.0882830967
21
-26.8352876106
0
LINE
5
3CE
100
AcDbEntity
8
0
100
AcDbLine
62
9
6
CONTINUOUS
10
-15.9397419101
20
19.1925436057
11
-14.0484771165
21
19.1925436057
0
LINE
5
3CF
100
AcDbEntity
8
0
100
AcDbLine
62
9
6
CONTINUOUS
10
2.9602580899
20
19.1925436057
11
4.8515228835
21
19.1925436057
0
LINE
5
3D0
100
AcDbEntity
8
0
100
AcDbLine
62
9
6
CONTINUOUS
10
-9.9004588664
20
19.3210617425
11
-9.0441095133
21
19.3210617425
0
LINE
5
3D1
100
AcDbEntity
8
0
100
AcDbLine
62
9
6
CONTINUOUS
10
-2.0441095133
20
19.3210617425
11
-1.1877601601
21
19.3210617425
0
LINE
5
3D2
100
AcDbEntity
8
0
100
AcDbLine
62
7
6
CONTINUOUS
10
-9.0441095133
20
19.3588945596
11
-2.0441095133
21
19.3588945596
0
LINE
5
3D3
100
AcDbEntity
8
0
100
AcDbLine
62
7
6
CONTINUOUS
10
-1.1441095133
20
19.3647123894
11
-9.9441095133
21
19.3647123894
0
LINE
5
3D4
100
AcDbEntity
8
0
100
AcDbLine
62
9
6
CONTINUOUS
10
2.7102623207
20
19.4090499567
11
5.1015186527
21
19.4090499567
0
LINE
5
3D5
100
AcDbEntity
8
0
100
AcDbLine
62
9
6
CONTINUOUS
10
-13.7984813473
20
19.4090499567
11
-16.1897376793
21
19.4090499567
0
LINE
5
3D6
100
AcDbEntity
8
0
100
AcDbLine
62
9
6
CONTINUOUS
10
2.7102623207
20
19.8103447862
11
5.1015186527
21
19.8103447862
0
LINE
5
3D7
100
AcDbEntity
8
0
100
AcDbLine
62
9
6
CONTINUOUS
10
-13.7984813473
20
19.8103447862
11
-16.1897376793
21
19.8103447862
0
LINE
5
3D8
100
AcDbEntity
8
0
100
AcDbLine
62
9
6
CONTINUOUS
10
4.8515228835
20
20.0603405554
11
2.9602580899
21
20.0603405554
0
LINE
5
3D9
100
AcDbEntity
8
0
100
AcDbLine
62
9
6
CONTINUOUS
10
-14.0484771165
20
20.0603405554
11
-15.9397419101
21
20.0603405554
0
LINE
5
3DA
100
AcDbEntity
8
0
100
AcDbLine
62
7
6
CONTINUOUS
10
4.8558947175
20
20.0647123894
11
2.9558862559
21
20.0647123894
0
LINE
5
3DB
100
AcDbEntity
8
0
100
AcDbLine
62
7
6
CONTINUOUS
10
-14.0441052825
20
20.0647123894
11
-15.9441137441
21
20.0647123894
0
LINE
5
3DC
100
AcDbEntity
8
0
100
AcDbLine
62
9
6
CONTINUOUS
10
5.0882830967
20
17.9647123894
11
5.1024922640
21
17.9576083468
0
ARC
5
3DD
100
AcDbEntity
8
0
100
AcDbCircle
62
7
6
CONTINUOUS
10
-2.4441095133
20
9.6647123894
40
0.3000000000
100
AcDbArc
50
340.5190976558
51
360.0000000000
0
ARC
5
3DE
100
AcDbEntity
8
0
100
AcDbCircle
62
7
6
CONTINUOUS
10
-8.6441095133
20
9.6647123894
40
0.3000000000
100
AcDbArc
50
180.0000000000
51
199.4809023442
0
ARC
5
3DF
100
AcDbEntity
8
0
100
AcDbCircle
62
7
6
CONTINUOUS
10
-1.2441095133
20
13.0647123894
40
0.2000000000
100
AcDbArc
50
270.0000000000
51
360.0000000000
0
ARC
5
3E0
100
AcDbEntity
8
0
100
AcDbCircle
62
7
6
CONTINUOUS
10
-9.8441095133
20
13.0647123894
40
0.2000000000
100
AcDbArc
50
180.0000000000
51
270.0000000000
0
ARC
5
3E1
100
AcDbEntity
8
0
100
AcDbCircle
62
7
6
CONTINUOUS
10
-12.6441095133
20
-14.7352876106
40
0.2000000000
100
AcDbArc
50
180.0000000000
51
270.0000000000
0
ARC
5
3E2
100
AcDbEntity
8
0
100
AcDbCircle
62
7
6
CONTINUOUS
10
-12.6441095133
20
-13.1852876106
40
0.2000000000
100
AcDbArc
50
90.0000000000
51
180.0000000000
0
ARC
5
3E3
100
AcDbEntity
8
0
100
AcDbCircle
62
7
6
CONTINUOUS
10
1.5558904867
20
-14.7352876106
40
0.2000000000
100
AcDbArc
50
270.0000000000
51
360.0000000000
0
ARC
5
3E4
100
AcDbEntity
8
0
100
AcDbCircle
62
7
6
CONTINUOUS
10
1.5558904867
20
-13.1852876106
40
0.2000000000
100
AcDbArc
50
0.0000000000
51
90.0000000000
0
ARC
5
3E5
100
AcDbEntity
8
0
100
AcDbCircle
62
7
6
CONTINUOUS
10
-12.6441095133
20
9.3647123894
40
0.2000000000
100
AcDbArc
50
90.0000000000
51
180.0000000000
0
ARC
5
3E6
100
AcDbEntity
8
0
100
AcDbCircle
62
7
6
CONTINUOUS
10
-12.6441095133
20
6.0647123894
40
0.2000000000
100
AcDbArc
50
180.0000000000
51
270.0000000000
0
ARC
5
3E7
100
AcDbEntity
8
0
100
AcDbCircle
62
7
6
CONTINUOUS
10
-12.0441095133
20
6.0647123894
40
0.2000000000
100
AcDbArc
50
270.0000000000
51
360.0000000000
0
ARC
5
3E8
100
AcDbEntity
8
0
100
AcDbCircle
62
7
6
CONTINUOUS
10
0.9558904867
20
6.0647123894
40
0.2000000000
100
AcDbArc
50
180.0000000000
51
270.0000000000
0
ARC
5
3E9
100
AcDbEntity
8
0
100
AcDbCircle
62
7
6
CONTINUOUS
10
1.5558904867
20
6.0647123894
40
0.2000000000
100
AcDbArc
50
270.0000000000
51
360.0000000000
0
ARC
5
3EA
100
AcDbEntity
8
0
100
AcDbCircle
62
7
6
CONTINUOUS
10
1.5558904867
20
9.3647123894
40
0.2000000000
100
AcDbArc
50
0.0000000000
51
90.0000000000
0
ARC
5
3EB
100
AcDbEntity
8
0
100
AcDbCircle
62
7
6
CONTINUOUS
10
-13.0441095133
20
7.0647123894
40
0.2000000000
100
AcDbArc
50
270.0000000000
51
360.0000000000
0
ARC
5
3EC
100
AcDbEntity
8
0
100
AcDbCircle
62
7
6
CONTINUOUS
10
-13.0441095133
20
-14.1852876106
40
0.2000000000
100
AcDbArc
50
0.0000000000
51
90.0000000000
0
ARC
5
3ED
100
AcDbEntity
8
0
100
AcDbCircle
62
7
6
CONTINUOUS
10
1.9558904867
20
-14.1852876106
40
0.2000000000
100
AcDbArc
50
90.0000000000
51
180.0000000000
0
ARC
5
3EE
100
AcDbEntity
8
0
100
AcDbCircle
62
7
6
CONTINUOUS
10
1.9558904867
20
7.0647123894
40
0.2000000000
100
AcDbArc
50
180.0000000000
51
270.0000000000
0
SPLINE
5
3EF
100
AcDbEntity
8
0
100
AcDbSpline
62
7
6
CONTINUOUS
70
0
71
3
72
28
73
24
74
22
42
0.0000001000
43
0.0000001000
44
0.0000000001
12
0.4748439350
22
0.7122759476
32
0.0000000000
13
0.0000000000
23
-0.8560454358
33
0.0000000000
40
0.0000000000
40
0.0000000000
40
0.0000000000
40
0.0000000000
40
0.0060299341
40
0.0230402959
40
0.0506335728
40
0.0882779693
40
0.1349989267
40
0.1899602389
40
0.2516669597
40
0.3190832931
40
0.3903147874
40
0.4642150411
40
0.5386734117
40
0.6125090296
40
0.6836130920
40
0.7508412571
40
0.8123043412
40
0.8669706628
40
0.9133532644
40
0.9506220593
40
0.9778121753
40
0.9943998924
40
1.0000000000
40
1.0000000000
40
1.0000000000
40
1.0000000000
10
-9.9000422460
20
-26.7691857775
30
0.0000000000
10
-9.8990878201
20
-26.7677541185
30
0.0000000000
10
-9.8907840703
20
-26.7698712843
30
0.0000000000
10
-9.8779541089
20
-26.7670851499
30
0.0000000000
10
-9.8536025626
20
-26.7678867293
30
0.0000000000
10
-9.8220364041
20
-26.7668829043
30
0.0000000000
10
-9.7821413407
20
-26.7666663694
30
0.0000000000
10
-9.7355679900
20
-26.7662301975
30
0.0000000000
10
-9.6830252478
20
-26.7659474821
30
0.0000000000
10
-9.6258595570
20
-26.7657059224
30
0.0000000000
10
-9.5652080778
20
-26.7655485733
30
0.0000000000
10
-9.5025488604
20
-26.7654683331
30
0.0000000000
10
-9.4391456990
20
-26.7654698845
30
0.0000000000
10
-9.3765417730
20
-26.7655534249
30
0.0000000000
10
-9.3159969838
20
-26.7657132884
30
0.0000000000
10
-9.2589971048
20
-26.7659594387
30
0.0000000000
10
-9.2066414900
20
-26.7662390711
30
0.0000000000
10
-9.1603814394
20
-26.7666949664
30
0.0000000000
10
-9.1205908350
20
-26.7668628575
30
0.0000000000
10
-9.0898331985
20
-26.7680007093
30
0.0000000000
10
-9.0646892921
20
-26.7668985741
30
0.0000000000
10
-9.0542257001
20
-26.7701861269
30
0.0000000000
10
-9.0441095133
20
-26.7676095236
30
0.0000000000
10
-9.0441095133
20
-26.7692075058
30
0.0000000000
11
-9.9000422460
21
-26.7691857775
31
0.0000000000
11
-9.8949103073
21
-26.7686304480
31
0.0000000000
11
-9.8803587843
21
-26.7680876634
31
0.0000000000
11
-9.8567433502
21
-26.7675703856
31
0.0000000000
11
-9.8245216353
21
-26.7670887838
31
0.0000000000
11
-9.7845287229
21
-26.7666552320
31
0.0000000000
11
-9.7374808583
21
-26.7662775591
31
0.0000000000
11
-9.6846580205
21
-26.7659659862
31
0.0000000000
11
-9.6269470759
21
-26.7657257771
31
0.0000000000
11
-9.5659698959
21
-26.7655636554
31
0.0000000000
11
-9.5027079733
21
-26.7654822451
31
0.0000000000
11
-9.4389682251
21
-26.7654838631
31
0.0000000000
11
-9.3757616380
21
-26.7655684838
31
0.0000000000
11
-9.3148935541
21
-26.7657336984
31
0.0000000000
11
-9.2573437038
21
-26.7659768334
31
0.0000000000
11
-9.2047294497
21
-26.7662910829
31
0.0000000000
11
-9.1579341379
21
-26.7666711381
31
0.0000000000
11
-9.1182309127
21
-26.7671067131
31
0.0000000000
11
-9.0863307908
21
-26.7675899427
31
0.0000000000
11
-9.0630605912
21
-26.7681084109
31
0.0000000000
11
-9.0488711573
21
-26.7686519251
31
0.0000000000
11
-9.0441095133
21
-26.7692075058
31
0.0000000000
0
SPLINE
5
3F0
100
AcDbEntity
8
0
100
AcDbSpline
62
7
6
CONTINUOUS
70
0
71
3
72
28
73
24
74
22
42
0.0000001000
43
0.0000001000
44
0.0000000001
12
-0.4748439350
22
-0.7122759476
32
0.0000000000
13
0.0000000000
23
0.8560454358
33
0.0000000000
40
0.0000000000
40
0.0000000000
40
0.0000000000
40
0.0000000000
40
0.0060299341
40
0.0230402959
40
0.0506335728
40
0.0882779693
40
0.1349989267
40
0.1899602389
40
0.2516669597
40
0.3190832931
40
0.3903147874
40
0.4642150411
40
0.5386734117
40
0.6125090296
40
0.6836130920
40
0.7508412571
40
0.8123043412
40
0.8669706628
40
0.9133532644
40
0.9506220593
40
0.9778121753
40
0.9943998924
40
1.0000000000
40
1.0000000000
40
1.0000000000
40
1.0000000000
10
-1.1881767805
20
17.8986105563
30
0.0000000000
10
-1.1891312064
20
17.8971788973
30
0.0000000000
10
-1.1974349562
20
17.8992960631
30
0.0000000000
10
-1.2102649176
20
17.8965099286
30
0.0000000000
10
-1.2346164639
20
17.8973115081
30
0.0000000000
10
-1.2661826224
20
17.8963076830
30
0.0000000000
10
-1.3060776859
20
17.8960911482
30
0.0000000000
10
-1.3526510365
20
17.8956549763
30
0.0000000000
10
-1.4051937788
20
17.8953722609
30
0.0000000000
10
-1.4623594696
20
17.8951307012
30
0.0000000000
10
-1.5230109488
20
17.8949733521
30
0.0000000000
10
-1.5856701661
20
17.8948931118
30
0.0000000000
10
-1.6490733276
20
17.8948946633
30
0.0000000000
10
-1.7116772536
20
17.8949782036
30
0.0000000000
10
-1.7722220427
20
17.8951380672
30
0.0000000000
10
-1.8292219217
20
17.8953842175
30
0.0000000000
10
-1.8815775365
20
17.8956638499
30
0.0000000000
10
-1.9278375871
20
17.8961197451
30
0.0000000000
10
-1.9676281915
20
17.8962876362
30
0.0000000000
10
-1.9983858281
20
17.8974254881
30
0.0000000000
10
-2.0235297345
20
17.8963233528
30
0.0000000000
10
-2.0339933265
20
17.8996109056
30
0.0000000000
10
-2.0441095133
20
17.8970343024
30
0.0000000000
10
-2.0441095133
20
17.8986322846
30
0.0000000000
11
-1.1881767805
21
17.8986105563
31
0.0000000000
11
-1.1933087193
21
17.8980552268
31
0.0000000000
11
-1.2078602422
21
17.8975124422
31
0.0000000000
11
-1.2314756764
21
17.8969951643
31
0.0000000000
11
-1.2636973912
21
17.8965135626
31
0.0000000000
11
-1.3036903036
21
17.8960800107
31
0.0000000000
11
-1.3507381683
21
17.8957023379
31
0.0000000000
11
-1.4035610061
21
17.8953907649
31
0.0000000000
11
-1.4612719506
21
17.8951505558
31
0.0000000000
11
-1.5222491307
21
17.8949884342
31
0.0000000000
11
-1.5855110532
21
17.8949070239
31
0.0000000000
11
-1.6492508015
21
17.8949086419
31
0.0000000000
11
-1.7124573886
21
17.8949932625
31
0.0000000000
11
-1.7733254724
21
17.8951584772
31
0.0000000000
11
-1.8308753227
21
17.8954016122
31
0.0000000000
11
-1.8834895768
21
17.8957158617
31
0.0000000000
11
-1.9302848887
21
17.8960959168
31
0.0000000000
11
-1.9699881138
21
17.8965314919
31
0.0000000000
11
-2.0018882358
21
17.8970147215
31
0.0000000000
11
-2.0251584353
21
17.8975331896
31
0.0000000000
11
-2.0393478693
21
17.8980767039
31
0.0000000000
11
-2.0441095133
21
17.8986322846
31
0.0000000000
0
SPLINE
5
3F1
100
AcDbEntity
8
0
100
AcDbSpline
62
7
6
CONTINUOUS
70
0
71
3
72
18
73
14
74
12
42
0.0000001000
43
0.0000001000
44
0.0000000001
12
0.0031763781
22
0.3152256661
32
0.0000000000
13
0.3152416691
23
0.0000000000
33
0.0000000000
40
0.0000000000
40
0.0000000000
40
0.0000000000
40
0.0000000000
40
0.0600923894
40
0.1232193774
40
0.1912702092
40
0.2657636629
40
0.3477531865
40
0.4378167491
40
0.5360799495
40
0.6422378908
40
0.7555663097
40
0.8749375201
40
1.0000000000
40
1.0000000000
40
1.0000000000
40
1.0000000000
10
2.7102623207
20
-28.2796251779
30
0.0000000000
10
2.7103259461
20
-28.2733109568
30
0.0000000000
10
2.7119536055
20
-28.2603352138
30
0.0000000000
10
2.7188408726
20
-28.2412982395
30
0.0000000000
10
2.7302113228
20
-28.2227622732
30
0.0000000000
10
2.7460021606
20
-28.2050861967
30
0.0000000000
10
2.7661036504
20
-28.1886011652
30
0.0000000000
10
2.7903457006
20
-28.1736543583
30
0.0000000000
10
2.8184758126
20
-28.1606062295
30
0.0000000000
10
2.8501379839
20
-28.1498284003
30
0.0000000000
10
2.8848577269
20
-28.1416845517
30
0.0000000000
10
2.9221443699
20
-28.1365277727
30
0.0000000000
10
2.9478436837
20
-28.1352876106
30
0.0000000000
10
2.9609853187
20
-28.1352876106
30
0.0000000000
11
2.7102623207
21
-28.2796251779
31
0.0000000000
11
2.7125816613
21
-28.2608240718
31
0.0000000000
11
2.7192491713
21
-28.2420740173
31
0.0000000000
11
2.7303438436
21
-28.2237132932
31
0.0000000000
11
2.7458723405
21
-28.2060968869
31
0.0000000000
11
2.7657637096
21
-28.1895930771
31
0.0000000000
11
2.7898620127
21
-28.1745809020
31
0.0000000000
11
2.8179163755
21
-28.1614467518
31
0.0000000000
11
2.8495680746
21
-28.1505792139
31
0.0000000000
11
2.8843357544
21
-28.1423606930
31
0.0000000000
11
2.9216046311
21
-28.1371543123
31
0.0000000000
11
2.9609853187
21
-28.1352876106
31
0.0000000000
0
SPLINE
5
3F2
100
AcDbEntity
8
0
100
AcDbSpline
62
7
6
CONTINUOUS
70
0
71
3
72
18
73
14
74
12
42
0.0000001000
43
0.0000001000
44
0.0000000001
12
0.3145151746
22
0.0000000000
32
0.0000000000
13
0.0031690579
23
-0.3144992085
33
0.0000000000
40
0.0000000000
40
0.0000000000
40
0.0000000000
40
0.0000000000
40
0.1233645867
40
0.2431315365
40
0.3566833685
40
0.4629485722
40
0.5612613068
40
0.6513651559
40
0.7334201413
40
0.8080244445
40
0.8762413066
40
0.9395978155
40
1.0000000000
40
1.0000000000
40
1.0000000000
40
1.0000000000
10
4.8515228835
20
-28.1352876106
30
0.0000000000
10
4.8644562284
20
-28.1352876106
30
0.0000000000
10
4.8899568650
20
-28.1365769613
30
0.0000000000
10
4.9270443604
20
-28.1417037792
30
0.0000000000
10
4.9617553976
20
-28.1498618799
30
0.0000000000
10
4.9933788412
20
-28.1606371635
30
0.0000000000
10
5.0214599970
20
-28.1736699555
30
0.0000000000
10
5.0456595440
20
-28.1885911769
30
0.0000000000
10
5.0657358784
20
-28.2050478002
30
0.0000000000
10
5.0815230931
20
-28.2227017266
30
0.0000000000
10
5.0929086238
20
-28.2412320793
30
0.0000000000
10
5.0998194069
20
-28.2602903270
30
0.0000000000
10
5.1014548467
20
-28.2732930315
30
0.0000000000
10
5.1015186527
20
-28.2796251779
30
0.0000000000
11
4.8515228835
21
-28.1352876106
31
0.0000000000
11
4.8902775293
21
-28.1371638069
31
0.0000000000
11
4.9275822502
21
-28.1423863955
31
0.0000000000
11
4.9623352564
21
-28.1506145321
31
0.0000000000
11
4.9939424270
21
-28.1614781469
31
0.0000000000
11
5.0219436181
21
-28.1745942466
31
0.0000000000
11
5.0459970967
21
-28.1895785939
31
0.0000000000
11
5.0658626421
21
-28.2060524862
31
0.0000000000
11
5.0813876583
21
-28.2236462883
31
0.0000000000
11
5.0924971106
21
-28.2420013236
31
0.0000000000
11
5.0991867868
21
-28.2607714317
31
0.0000000000
11
5.1015186527
21
-28.2796251779
31
0.0000000000
0
SPLINE
5
3F3
100
AcDbEntity
8
0
100
AcDbSpline
62
7
6
CONTINUOUS
70
0
71
3
72
16
73
12
74
10
42
0.0000001000
43
0.0000001000
44
0.0000000001
12
-0.2001028891
22
0.0000000000
32
0.0000000000
13
0.0000000000
23
0.2001028891
33
0.0000000000
40
0.0000000000
40
0.0000000000
40
0.0000000000
40
0.0000000000
40
0.0154738234
40
0.0607448190
40
0.1342737310
40
0.2344961021
40
0.3573693143
40
0.5004482257
40
0.6580018494
40
0.8265264012
40
1.0000000000
40
1.0000000000
40
1.0000000000
40
1.0000000000
10
-15.1277802665
20
14.8647123894
30
0.0000000000
10
-15.1288123855
20
14.8647123894
30
0.0000000000
10
-15.1277270718
20
14.8710985742
30
0.0000000000
10
-15.1296483970
20
14.8778197059
30
0.0000000000
10
-15.1293661006
20
14.8936496788
30
0.0000000000
10
-15.1301734067
20
14.9129076086
30
0.0000000000
10
-15.1304644679
20
14.9375198836
30
0.0000000000
10
-15.1308434318
20
14.9657018614
30
0.0000000000
10
-15.1310806191
20
14.9970142872
30
0.0000000000
10
-15.1312378905
20
15.0303284980
30
0.0000000000
10
-15.1312712795
20
15.0531415333
30
0.0000000000
10
-15.1312712795
20
15.0647123894
30
0.0000000000
11
-15.1277802665
21
14.8647123894
31
0.0000000000
11
-15.1283862790
21
14.8677488633
31
0.0000000000
11
-15.1289749684
21
14.8767885721
31
0.0000000000
11
-15.1295252988
21
14.8914916241
31
0.0000000000
11
-15.1300250093
21
14.9115401835
31
0.0000000000
11
-15.1304540814
21
14.9361237241
31
0.0000000000
11
-15.1308039725
21
14.9647520896
31
0.0000000000
11
-15.1310605526
21
14.9962779808
31
0.0000000000
11
-15.1312182958
21
15.0299998615
31
0.0000000000
11
-15.1312712795
21
15.0647123894
31
0.0000000000
0
SPLINE
5
3F4
100
AcDbEntity
8
0
100
AcDbSpline
62
7
6
CONTINUOUS
70
0
71
3
72
16
73
12
74
10
42
0.0000001000
43
0.0000001000
44
0.0000000001
12
0.0000000000
22
-0.2001028891
32
0.0000000000
13
-0.2001028891
23
0.0000000000
33
0.0000000000
40
0.0000000000
40
0.0000000000
40
0.0000000000
40
0.0000000000
40
0.1734735988
40
0.3419981506
40
0.4995517743
40
0.6426306857
40
0.7655038979
40
0.8657262690
40
0.9392551810
40
0.9845261766
40
1.0000000000
40
1.0000000000
40
1.0000000000
40
1.0000000000
10
4.0430522530
20
15.0647123894
30
0.0000000000
10
4.0430522530
20
15.0531415333
30
0.0000000000
10
4.0430188639
20
15.0303284980
30
0.0000000000
10
4.0428615925
20
14.9970142872
30
0.0000000000
10
4.0426244053
20
14.9657018614
30
0.0000000000
10
4.0422454414
20
14.9375198836
30
0.0000000000
10
4.0419543802
20
14.9129076086
30
0.0000000000
10
4.0411470740
20
14.8936496788
30
0.0000000000
10
4.0414293705
20
14.8778197059
30
0.0000000000
10
4.0395080452
20
14.8710985742
30
0.0000000000
10
4.0405933589
20
14.8647123894
30
0.0000000000
10
4.0395612400
20
14.8647123894
30
0.0000000000
11
4.0430522530
21
15.0647123894
31
0.0000000000
11
4.0429992693
21
15.0299998615
31
0.0000000000
11
4.0428415261
21
14.9962779808
31
0.0000000000
11
4.0425849459
21
14.9647520896
31
0.0000000000
11
4.0422350549
21
14.9361237241
31
0.0000000000
11
4.0418059827
21
14.9115401835
31
0.0000000000
11
4.0413062722
21
14.8914916241
31
0.0000000000
11
4.0407559418
21
14.8767885721
31
0.0000000000
11
4.0401672525
21
14.8677488633
31
0.0000000000
11
4.0395612400
21
14.8647123894
31
0.0000000000
0
SPLINE
5
3F5
100
AcDbEntity
8
0
100
AcDbSpline
62
7
6
CONTINUOUS
70
0
71
3
72
15
73
11
74
9
42
0.0000001000
43
0.0000001000
44
0.0000000001
12
0.4952922600
22
0.2476022018
32
0.0000000000
13
0.0000000000
23
0.5532600274
33
0.0000000000
40
0.0000000000
40
0.0000000000
40
0.0000000000
40
0.0000000000
40
0.0973271354
40
0.2260972216
40
0.3552949958
40
0.4840559134
40
0.6132095317
40
0.7420195137
40
0.8710792965
40
1.0000000000
40
1.0000000000
40
1.0000000000
40
1.0000000000
10
5.3293797550
20
-26.7737757159
30
0.0000000000
10
5.3454482140
20
-26.7657429116
30
0.0000000000
10
5.3817707999
20
-26.7450715439
30
0.0000000000
10
5.4344038088
20
-26.7056728468
30
0.0000000000
10
5.4850087986
20
-26.6550704569
30
0.0000000000
10
5.5279385629
20
-26.5977261781
30
0.0000000000
10
5.5622382415
20
-26.5349187870
30
0.0000000000
10
5.5872675389
20
-26.4678146971
30
0.0000000000
10
5.6024852086
20
-26.3978876444
30
0.0000000000
10
5.6058904867
20
-26.3502411085
30
0.0000000000
10
5.6058904867
20
-26.3264655512
30
0.0000000000
11
5.3293797550
21
-26.7737757159
31
0.0000000000
11
5.3761953028
21
-26.7471308450
31
0.0000000000
11
5.4332294048
21
-26.7044374626
31
0.0000000000
11
5.4837746112
21
-26.6538947344
31
0.0000000000
11
5.5264676448
21
-26.5968667077
31
0.0000000000
11
5.5607154203
21
-26.5341532062
31
0.0000000000
11
5.5856217252
21
-26.4673816911
31
0.0000000000
11
5.6008027212
21
-26.3976105354
31
0.0000000000
11
5.6058904867
21
-26.3264655512
31
0.0000000000
0
SPLINE
5
3F6
100
AcDbEntity
8
0
100
AcDbSpline
62
7
6
CONTINUOUS
70
0
71
3
72
11
73
7
74
5
42
0.0000001000
43
0.0000001000
44
0.0000000001
12
-0.1916277652
22
0.0958221412
32
0.0000000000
13
-0.2139705222
23
0.0075033280
33
0.0000000000
40
0.0000000000
40
0.0000000000
40
0.0000000000
40
0.0000000000
40
0.0922585923
40
0.3945010835
40
0.6980582833
40
1.0000000000
40
1.0000000000
40
1.0000000000
40
1.0000000000
10
5.3119274759
20
17.9119260213
30
0.0000000000
10
5.3060343733
20
17.9148728266
30
0.0000000000
10
5.2805861849
20
17.9269756446
30
0.0000000000
10
5.2338180507
20
17.9445461518
30
0.0000000000
10
5.1705651791
20
17.9593304452
30
0.0000000000
10
5.1274251681
20
17.9636483988
30
0.0000000000
10
5.1058896258
20
17.9644035880
30
0.0000000000
11
5.3119274759
21
17.9119260213
31
0.0000000000
11
5.2940779455
21
17.9204147470
31
0.0000000000
11
5.2335013834
21
17.9431734659
31
0.0000000000
11
5.1702143737
21
17.9579634145
31
0.0000000000
11
5.1058896258
21
17.9644035880
31
0.0000000000
0
SPLINE
5
3F7
100
AcDbEntity
8
0
100
AcDbSpline
62
7
6
CONTINUOUS
70
0
71
3
72
11
73
7
74
5
42
0.0000001000
43
0.0000001000
44
0.0000000001
12
0.1916277652
22
-0.0958221412
32
0.0000000000
13
0.2139705222
23
-0.0075033280
33
0.0000000000
40
0.0000000000
40
0.0000000000
40
0.0000000000
40
0.0000000000
40
0.0922585923
40
0.3945010835
40
0.6980582833
40
1.0000000000
40
1.0000000000
40
1.0000000000
40
1.0000000000
10
-16.4001465024
20
-26.7825012426
30
0.0000000000
10
-16.3942533998
20
-26.7854480479
30
0.0000000000
10
-16.3688052115
20
-26.7975508658
30
0.0000000000
10
-16.3220370773
20
-26.8151213730
30
0.0000000000
10
-16.2587842056
20
-26.8299056664
30
0.0000000000
10
-16.2156441947
20
-26.8342236200
30
0.0000000000
10
-16.1941086524
20
-26.8349788093
30
0.0000000000
11
-16.4001465024
21
-26.7825012426
31
0.0000000000
11
-16.3822969721
21
-26.7909899683
31
0.0000000000
11
-16.3217204100
21
-26.8137486871
31
0.0000000000
11
-16.2584334003
21
-26.8285386357
31
0.0000000000
11
-16.1941086524
21
-26.8349788093
31
0.0000000000
0
SPLINE
5
3F8
100
AcDbEntity
8
0
100
AcDbSpline
62
7
6
CONTINUOUS
70
0
71
3
72
15
73
11
74
9
42
0.0000001000
43
0.0000001000
44
0.0000000001
12
-0.4952922600
22
-0.2476022018
32
0.0000000000
13
0.0000000000
23
-0.5532600274
33
0.0000000000
40
0.0000000000
40
0.0000000000
40
0.0000000000
40
0.0000000000
40
0.0973271354
40
0.2260972216
40
0.3552949958
40
0.4840559134
40
0.6132095317
40
0.7420195137
40
0.8710792965
40
1.0000000000
40
1.0000000000
40
1.0000000000
40
1.0000000000
10
-16.4175987815
20
17.9032004947
30
0.0000000000
10
-16.4336672405
20
17.8951676903
30
0.0000000000
10
-16.4699898265
20
17.8744963227
30
0.0000000000
10
-16.5226228353
20
17.8350976255
30
0.0000000000
10
-16.5732278252
20
17.7844952356
30
0.0000000000
10
-16.6161575894
20
17.7271509569
30
0.0000000000
10
-16.6504572681
20
17.6643435657
30
0.0000000000
10
-16.6754865654
20
17.5972394759
30
0.0000000000
10
-16.6907042351
20
17.5273124231
30
0.0000000000
10
-16.6941095133
20
17.4796658873
30
0.0000000000
10
-16.6941095133
20
17.4558903300
30
0.0000000000
11
-16.4175987815
21
17.9032004947
31
0.0000000000
11
-16.4644143293
21
17.8765556237
31
0.0000000000
11
-16.5214484314
21
17.8338622414
31
0.0000000000
11
-16.5719936378
21
17.7833195131
31
0.0000000000
11
-16.6146866714
21
17.7262914865
31
0.0000000000
11
-16.6489344469
21
17.6635779849
31
0.0000000000
11
-16.6738407518
21
17.5968064698
31
0.0000000000
11
-16.6890217477
21
17.5270353142
31
0.0000000000
11
-16.6941095133
21
17.4558903300
31
0.0000000000
0
SPLINE
5
3F9
100
AcDbEntity
8
0
100
AcDbSpline
62
7
6
CONTINUOUS
70
0
71
3
72
11
73
7
74
5
42
0.0000001000
43
0.0000001000
44
0.0000000001
12
-0.2139705222
22
-0.0075033280
32
0.0000000000
13
-0.1916277652
23
-0.0958221412
33
0.0000000000
40
0.0000000000
40
0.0000000000
40
0.0000000000
40
0.0000000000
40
0.3019417167
40
0.6054989165
40
0.9077414077
40
1.0000000000
40
1.0000000000
40
1.0000000000
40
1.0000000000
10
-16.1941086524
20
17.9644035880
30
0.0000000000
10
-16.2156441947
20
17.9636483988
30
0.0000000000
10
-16.2587842056
20
17.9593304452
30
0.0000000000
10
-16.3220370773
20
17.9445461518
30
0.0000000000
10
-16.3688052115
20
17.9269756446
30
0.0000000000
10
-16.3942533998
20
17.9148728266
30
0.0000000000
10
-16.4001465024
20
17.9119260213
30
0.0000000000
11
-16.1941086524
21
17.9644035880
31
0.0000000000
11
-16.2584334003
21
17.9579634145
31
0.0000000000
11
-16.3217204100
21
17.9431734659
31
0.0000000000
11
-16.3822969721
21
17.9204147470
31
0.0000000000
11
-16.4001465024
21
17.9119260213
31
0.0000000000
0
SPLINE
5
3FA
100
AcDbEntity
8
0
100
AcDbSpline
62
7
6
CONTINUOUS
70
0
71
3
72
15
73
11
74
9
42
0.0000001000
43
0.0000001000
44
0.0000000001
12
0.0000000000
22
-0.5532600274
32
0.0000000000
13
0.4952922600
23
-0.2476022018
33
0.0000000000
40
0.0000000000
40
0.0000000000
40
0.0000000000
40
0.0000000000
40
0.1289207035
40
0.2579804863
40
0.3867904683
40
0.5159440866
40
0.6447050042
40
0.7739027784
40
0.9026728646
40
1.0000000000
40
1.0000000000
40
1.0000000000
40
1.0000000000
10
-16.6941095133
20
-26.3264655512
30
0.0000000000
10
-16.6941095133
20
-26.3502411085
30
0.0000000000
10
-16.6907042351
20
-26.3978876444
30
0.0000000000
10
-16.6754865654
20
-26.4678146971
30
0.0000000000
10
-16.6504572681
20
-26.5349187870
30
0.0000000000
10
-16.6161575894
20
-26.5977261781
30
0.0000000000
10
-16.5732278252
20
-26.6550704569
30
0.0000000000
10
-16.5226228353
20
-26.7056728468
30
0.0000000000
10
-16.4699898265
20
-26.7450715439
30
0.0000000000
10
-16.4336672405
20
-26.7657429116
30
0.0000000000
10
-16.4175987815
20
-26.7737757159
30
0.0000000000
11
-16.6941095133
21
-26.3264655512
31
0.0000000000
11
-16.6890217477
21
-26.3976105354
31
0.0000000000
11
-16.6738407518
21
-26.4673816911
31
0.0000000000
11
-16.6489344469
21
-26.5341532062
31
0.0000000000
11
-16.6146866714
21
-26.5968667077
31
0.0000000000
11
-16.5719936378
21
-26.6538947344
31
0.0000000000
11
-16.5214484314
21
-26.7044374626
31
0.0000000000
11
-16.4644143293
21
-26.7471308450
31
0.0000000000
11
-16.4175987815
21
-26.7737757159
31
0.0000000000
0
SPLINE
5
3FB
100
AcDbEntity
8
0
100
AcDbSpline
62
7
6
CONTINUOUS
70
0
71
3
72
15
73
11
74
9
42
0.0000001000
43
0.0000001000
44
0.0000000001
12
0.0000000000
22
0.5532600274
32
0.0000000000
13
-0.4952922600
23
0.2476022018
33
0.0000000000
40
0.0000000000
40
0.0000000000
40
0.0000000000
40
0.0000000000
40
0.1289207035
40
0.2579804863
40
0.3867904683
40
0.5159440866
40
0.6447050042
40
0.7739027784
40
0.9026728646
40
1.0000000000
40
1.0000000000
40
1.0000000000
40
1.0000000000
10
5.6058904867
20
17.4558903300
30
0.0000000000
10
5.6058904867
20
17.4796658873
30
0.0000000000
10
5.6024852086
20
17.5273124231
30
0.0000000000
10
5.5872675389
20
17.5972394759
30
0.0000000000
10
5.5622382415
20
17.6643435657
30
0.0000000000
10
5.5279385629
20
17.7271509569
30
0.0000000000
10
5.4850087986
20
17.7844952356
30
0.0000000000
10
5.4344038088
20
17.8350976255
30
0.0000000000
10
5.3817707999
20
17.8744963227
30
0.0000000000
10
5.3454482140
20
17.8951676903
30
0.0000000000
10
5.3293797550
20
17.9032004947
30
0.0000000000
11
5.6058904867
21
17.4558903300
31
0.0000000000
11
5.6008027212
21
17.5270353142
31
0.0000000000
11
5.5856217252
21
17.5968064698
31
0.0000000000
11
5.5607154203
21
17.6635779849
31
0.0000000000
11
5.5264676448
21
17.7262914865
31
0.0000000000
11
5.4837746112
21
17.7833195131
31
0.0000000000
11
5.4332294048
21
17.8338622414
31
0.0000000000
11
5.3761953028
21
17.8765556237
31
0.0000000000
11
5.3293797550
21
17.9032004947
31
0.0000000000
0
SPLINE
5
3FC
100
AcDbEntity
8
0
100
AcDbSpline
62
7
6
CONTINUOUS
70
0
71
3
72
11
73
7
74
5
42
0.0000001000
43
0.0000001000
44
0.0000000001
12
0.2139705222
22
0.0075033280
32
0.0000000000
13
0.1916277652
23
0.0958221412
33
0.0000000000
40
0.0000000000
40
0.0000000000
40
0.0000000000
40
0.0000000000
40
0.3019417167
40
0.6054989165
40
0.9077414077
40
1.0000000000
40
1.0000000000
40
1.0000000000
40
1.0000000000
10
5.1058896258
20
-26.8349788093
30
0.0000000000
10
5.1274251681
20
-26.8342236200
30
0.0000000000
10
5.1705651791
20
-26.8299056664
30
0.0000000000
10
5.2338180507
20
-26.8151213730
30
0.0000000000
10
5.2805861849
20
-26.7975508658
30
0.0000000000
10
5.3060343733
20
-26.7854480479
30
0.0000000000
10
5.3119274759
20
-26.7825012426
30
0.0000000000
11
5.1058896258
21
-26.8349788093
31
0.0000000000
11
5.1702143737
21
-26.8285386357
31
0.0000000000
11
5.2335013834
21
-26.8137486871
31
0.0000000000
11
5.2940779455
21
-26.7909899683
31
0.0000000000
11
5.3119274759
21
-26.7825012426
31
0.0000000000
0
SPLINE
5
3FD
100
AcDbEntity
8
0
100
AcDbSpline
62
7
6
CONTINUOUS
70
0
71
3
72
18
73
14
74
12
42
0.0000001000
43
0.0000001000
44
0.0000000001
12
0.0000000000
22
0.3923594660
32
0.0000000000
13
0.3923594660
23
0.0000000000
33
0.0000000000
40
0.0000000000
40
0.0000000000
40
0.0000000000
40
0.0000000000
40
0.0909090103
40
0.1818180598
40
0.2727271497
40
0.3636362742
40
0.4545454220
40
0.5454545780
40
0.6363637258
40
0.7272728503
40
0.8181819402
40
0.9090909897
40
1.0000000000
40
1.0000000000
40
1.0000000000
40
1.0000000000
10
2.7058904867
20
19.8147166202
30
0.0000000000
10
2.7058904867
20
19.8266062904
30
0.0000000000
10
2.7075926043
20
19.8504205551
30
0.0000000000
10
2.7152002365
20
19.8853871929
30
0.0000000000
10
2.7277075330
20
19.9189227282
30
0.0000000000
10
2.7448599352
20
19.9503349448
30
0.0000000000
10
2.7663083123
20
19.9789868874
30
0.0000000000
10
2.7916159887
20
20.0042945638
30
0.0000000000
10
2.8202679314
20
20.0257429410
30
0.0000000000
10
2.8516801479
20
20.0428953431
30
0.0000000000
10
2.8852156832
20
20.0554026396
30
0.0000000000
10
2.9201823210
20
20.0630102718
30
0.0000000000
10
2.9439965857
20
20.0647123894
30
0.0000000000
10
2.9558862559
20
20.0647123894
30
0.0000000000
11
2.7058904867
21
19.8147166202
31
0.0000000000
11
2.7084350126
21
19.8502947555
31
0.0000000000
11
2.7160168450
21
19.8851486684
31
0.0000000000
11
2.7284817145
21
19.9185688357
31
0.0000000000
11
2.7455759286
21
19.9498748953
31
0.0000000000
11
2.7669515279
21
19.9784295084
31
0.0000000000
11
2.7921733677
21
20.0036513482
31
0.0000000000
11
2.8207279808
21
20.0250269475
31
0.0000000000
11
2.8520340404
21
20.0421211616
31
0.0000000000
11
2.8854542077
21
20.0545860311
31
0.0000000000
11
2.9203081206
21
20.0621678635
31
0.0000000000
11
2.9558862559
21
20.0647123894
31
0.0000000000
0
SPLINE
5
3FE
100
AcDbEntity
8
0
100
AcDbSpline
62
7
6
CONTINUOUS
70
0
71
3
72
18
73
14
74
12
42
0.0000001000
43
0.0000001000
44
0.0000000001
12
0.3923594660
22
0.0000000000
32
0.0000000000
13
0.0000000000
23
-0.3923594660
33
0.0000000000
40
0.0000000000
40
0.0000000000
40
0.0000000000
40
0.0000000000
40
0.0909090103
40
0.1818180598
40
0.2727271497
40
0.3636362742
40
0.4545454220
40
0.5454545780
40
0.6363637258
40
0.7272728503
40
0.8181819402
40
0.9090909897
40
1.0000000000
40
1.0000000000
40
1.0000000000
40
1.0000000000
10
4.8558947175
20
20.0647123894
30
0.0000000000
10
4.8677843878
20
20.0647123894
30
0.0000000000
10
4.8915986524
20
20.0630102718
30
0.0000000000
10
4.9265652903
20
20.0554026396
30
0.0000000000
10
4.9601008256
20
20.0428953431
30
0.0000000000
10
4.9915130421
20
20.0257429410
30
0.0000000000
10
5.0201649847
20
20.0042945638
30
0.0000000000
10
5.0454726611
20
19.9789868874
30
0.0000000000
10
5.0669210383
20
19.9503349448
30
0.0000000000
10
5.0840734404
20
19.9189227282
30
0.0000000000
10
5.0965807370
20
19.8853871929
30
0.0000000000
10
5.1041883692
20
19.8504205551
30
0.0000000000
10
5.1058904867
20
19.8266062904
30
0.0000000000
10
5.1058904867
20
19.8147166202
30
0.0000000000
11
4.8558947175
21
20.0647123894
31
0.0000000000
11
4.8914728529
21
20.0621678635
31
0.0000000000
11
4.9263267657
21
20.0545860311
31
0.0000000000
11
4.9597469330
21
20.0421211616
31
0.0000000000
11
4.9910529926
21
20.0250269475
31
0.0000000000
11
5.0196076058
21
20.0036513482
31
0.0000000000
11
5.0448294456
21
19.9784295084
31
0.0000000000
11
5.0662050449
21
19.9498748953
31
0.0000000000
11
5.0832992589
21
19.9185688357
31
0.0000000000
11
5.0957641284
21
19.8851486684
31
0.0000000000
11
5.1033459609
21
19.8502947555
31
0.0000000000
11
5.1058904867
21
19.8147166202
31
0.0000000000
0
SPLINE
5
3FF
100
AcDbEntity
8
0
100
AcDbSpline
62
7
6
CONTINUOUS
70
0
71
3
72
18
73
14
74
12
42
0.0000001000
43
0.0000001000
44
0.0000000001
12
0.3923594660
22
0.0000000000
32
0.0000000000
13
-0.0000000000
23
-0.3923594660
33
0.0000000000
40
0.0000000000
40
0.0000000000
40
0.0000000000
40
0.0000000000
40
0.0909090103
40
0.1818180598
40
0.2727271497
40
0.3636362742
40
0.4545454220
40
0.5454545780
40
0.6363637258
40
0.7272728503
40
0.8181819402
40
0.9090909897
40
1.0000000000
40
1.0000000000
40
1.0000000000
40
1.0000000000
10
-14.0441052825
20
20.0647123894
30
0.0000000000
10
-14.0322156122
20
20.0647123894
30
0.0000000000
10
-14.0084013476
20
20.0630102718
30
0.0000000000
10
-13.9734347097
20
20.0554026396
30
0.0000000000
10
-13.9398991744
20
20.0428953431
30
0.0000000000
10
-13.9084869579
20
20.0257429410
30
0.0000000000
10
-13.8798350153
20
20.0042945638
30
0.0000000000
10
-13.8545273389
20
19.9789868874
30
0.0000000000
10
-13.8330789617
20
19.9503349448
30
0.0000000000
10
-13.8159265596
20
19.9189227282
30
0.0000000000
10
-13.8034192630
20
19.8853871929
30
0.0000000000
10
-13.7958116308
20
19.8504205551
30
0.0000000000
10
-13.7941095133
20
19.8266062904
30
0.0000000000
10
-13.7941095133
20
19.8147166202
30
0.0000000000
11
-14.0441052825
21
20.0647123894
31
0.0000000000
11
-14.0085271471
21
20.0621678635
31
0.0000000000
11
-13.9736732343
21
20.0545860311
31
0.0000000000
11
-13.9402530670
21
20.0421211616
31
0.0000000000
11
-13.9089470074
21
20.0250269475
31
0.0000000000
11
-13.8803923942
21
20.0036513482
31
0.0000000000
11
-13.8551705544
21
19.9784295084
31
0.0000000000
11
-13.8337949551
21
19.9498748953
31
0.0000000000
11
-13.8167007411
21
19.9185688357
31
0.0000000000
11
-13.8042358716
21
19.8851486684
31
0.0000000000
11
-13.7966540391
21
19.8502947555
31
0.0000000000
11
-13.7941095133
21
19.8147166202
31
0.0000000000
0
SPLINE
5
400
100
AcDbEntity
8
0
100
AcDbSpline
62
7
6
CONTINUOUS
70
0
71
3
72
18
73
14
74
12
42
0.0000001000
43
0.0000001000
44
0.0000000001
12
0.0000000000
22
0.3923594660
32
0.0000000000
13
0.3923594660
23
0.0000000000
33
0.0000000000
40
0.0000000000
40
0.0000000000
40
0.0000000000
40
0.0000000000
40
0.0909090103
40
0.1818180598
40
0.2727271497
40
0.3636362742
40
0.4545454220
40
0.5454545780
40
0.6363637258
40
0.7272728503
40
0.8181819402
40
0.9090909897
40
1.0000000000
40
1.0000000000
40
1.0000000000
40
1.0000000000
10
-16.1941095133
20
19.8147166202
30
0.0000000000
10
-16.1941095133
20
19.8266062904
30
0.0000000000
10
-16.1924073957
20
19.8504205551
30
0.0000000000
10
-16.1847997635
20
19.8853871929
30
0.0000000000
10
-16.1722924670
20
19.9189227282
30
0.0000000000
10
-16.1551400648
20
19.9503349448
30
0.0000000000
10
-16.1336916877
20
19.9789868874
30
0.0000000000
10
-16.1083840113
20
20.0042945638
30
0.0000000000
10
-16.0797320686
20
20.0257429410
30
0.0000000000
10
-16.0483198521
20
20.0428953431
30
0.0000000000
10
-16.0147843168
20
20.0554026396
30
0.0000000000
10
-15.9798176790
20
20.0630102718
30
0.0000000000
10
-15.9560034143
20
20.0647123894
30
0.0000000000
10
-15.9441137441
20
20.0647123894
30
0.0000000000
11
-16.1941095133
21
19.8147166202
31
0.0000000000
11
-16.1915649874
21
19.8502947555
31
0.0000000000
11
-16.1839831550
21
19.8851486684
31
0.0000000000
11
-16.1715182855
21
19.9185688357
31
0.0000000000
11
-16.1544240714
21
19.9498748953
31
0.0000000000
11
-16.1330484721
21
19.9784295084
31
0.0000000000
11
-16.1078266323
21
20.0036513482
31
0.0000000000
11
-16.0792720192
21
20.0250269475
31
0.0000000000
11
-16.0479659596
21
20.0421211616
31
0.0000000000
11
-16.0145457923
21
20.0545860311
31
0.0000000000
11
-15.9796918794
21
20.0621678635
31
0.0000000000
11
-15.9441137441
21
20.0647123894
31
0.0000000000
0
SPLINE
5
401
100
AcDbEntity
8
0
100
AcDbSpline
62
7
6
CONTINUOUS
70
0
71
3
72
18
73
14
74
12
42
0.0000001000
43
0.0000001000
44
0.0000000001
12
-0.3923594660
22
0.0000000000
32
0.0000000000
13
0.0000000000
23
0.3923594660
33
0.0000000000
40
0.0000000000
40
0.0000000000
40
0.0000000000
40
0.0000000000
40
0.0909090103
40
0.1818180598
40
0.2727271497
40
0.3636362742
40
0.4545454220
40
0.5454545780
40
0.6363637258
40
0.7272728503
40
0.8181819402
40
0.9090909897
40
1.0000000000
40
1.0000000000
40
1.0000000000
40
1.0000000000
10
2.9558862559
20
-28.9352876106
30
0.0000000000
10
2.9439965857
20
-28.9352876106
30
0.0000000000
10
2.9201823210
20
-28.9335854931
30
0.0000000000
10
2.8852156832
20
-28.9259778609
30
0.0000000000
10
2.8516801479
20
-28.9134705643
30
0.0000000000
10
2.8202679314
20
-28.8963181622
30
0.0000000000
10
2.7916159887
20
-28.8748697850
30
0.0000000000
10
2.7663083123
20
-28.8495621086
30
0.0000000000
10
2.7448599352
20
-28.8209101660
30
0.0000000000
10
2.7277075330
20
-28.7894979495
30
0.0000000000
10
2.7152002365
20
-28.7559624142
30
0.0000000000
10
2.7075926043
20
-28.7209957763
30
0.0000000000
10
2.7058904867
20
-28.6971815116
30
0.0000000000
10
2.7058904867
20
-28.6852918414
30
0.0000000000
11
2.9558862559
21
-28.9352876106
31
0.0000000000
11
2.9203081206
21
-28.9327430848
31
0.0000000000
11
2.8854542077
21
-28.9251612523
31
0.0000000000
11
2.8520340404
21
-28.9126963828
31
0.0000000000
11
2.8207279808
21
-28.8956021688
31
0.0000000000
11
2.7921733677
21
-28.8742265695
31
0.0000000000
11
2.7669515279
21
-28.8490047297
31
0.0000000000
11
2.7455759286
21
-28.8204501165
31
0.0000000000
11
2.7284817145
21
-28.7891440569
31
0.0000000000
11
2.7160168450
21
-28.7557238896
31
0.0000000000
11
2.7084350126
21
-28.7208699768
31
0.0000000000
11
2.7058904867
21
-28.6852918414
31
0.0000000000
0
SPLINE
5
402
100
AcDbEntity
8
0
100
AcDbSpline
62
7
6
CONTINUOUS
70
0
71
3
72
18
73
14
74
12
42
0.0000001000
43
0.0000001000
44
0.0000000001
12
0.0000000000
22
-0.3923594660
32
0.0000000000
13
-0.3923594660
23
-0.0000000000
33
0.0000000000
40
0.0000000000
40
0.0000000000
40
0.0000000000
40
0.0000000000
40
0.0909090103
40
0.1818180598
40
0.2727271497
40
0.3636362742
40
0.4545454220
40
0.5454545780
40
0.6363637258
40
0.7272728503
40
0.8181819402
40
0.9090909897
40
1.0000000000
40
1.0000000000
40
1.0000000000
40
1.0000000000
10
5.1058904867
20
-28.6852918414
30
0.0000000000
10
5.1058904867
20
-28.6971815116
30
0.0000000000
10
5.1041883692
20
-28.7209957763
30
0.0000000000
10
5.0965807370
20
-28.7559624142
30
0.0000000000
10
5.0840734404
20
-28.7894979495
30
0.0000000000
10
5.0669210383
20
-28.8209101660
30
0.0000000000
10
5.0454726611
20
-28.8495621086
30
0.0000000000
10
5.0201649847
20
-28.8748697850
30
0.0000000000
10
4.9915130421
20
-28.8963181622
30
0.0000000000
10
4.9601008256
20
-28.9134705643
30
0.0000000000
10
4.9265652903
20
-28.9259778609
30
0.0000000000
10
4.8915986524
20
-28.9335854931
30
0.0000000000
10
4.8677843878
20
-28.9352876106
30
0.0000000000
10
4.8558947175
20
-28.9352876106
30
0.0000000000
11
5.1058904867
21
-28.6852918414
31
0.0000000000
11
5.1033459609
21
-28.7208699768
31
0.0000000000
11
5.0957641284
21
-28.7557238896
31
0.0000000000
11
5.0832992589
21
-28.7891440569
31
0.0000000000
11
5.0662050449
21
-28.8204501165
31
0.0000000000
11
5.0448294456
21
-28.8490047297
31
0.0000000000
11
5.0196076058
21
-28.8742265695
31
0.0000000000
11
4.9910529926
21
-28.8956021688
31
0.0000000000
11
4.9597469330
21
-28.9126963828
31
0.0000000000
11
4.9263267657
21
-28.9251612523
31
0.0000000000
11
4.8914728529
21
-28.9327430848
31
0.0000000000
11
4.8558947175
21
-28.9352876106
31
0.0000000000
0
SPLINE
5
403
100
AcDbEntity
8
0
100
AcDbSpline
62
7
6
CONTINUOUS
70
0
71
3
72
18
73
14
74
12
42
0.0000001000
43
0.0000001000
44
0.0000000001
12
-0.3923594660
22
0.0000000000
32
0.0000000000
13
0.0000000000
23
0.3923594660
33
0.0000000000
40
0.0000000000
40
0.0000000000
40
0.0000000000
40
0.0000000000
40
0.0909090103
40
0.1818180598
40
0.2727271497
40
0.3636362742
40
0.4545454220
40
0.5454545780
40
0.6363637258
40
0.7272728503
40
0.8181819402
40
0.9090909897
40
1.0000000000
40
1.0000000000
40
1.0000000000
40
1.0000000000
10
-15.9441137441
20
-28.9352876106
30
0.0000000000
10
-15.9560034143
20
-28.9352876106
30
0.0000000000
10
-15.9798176790
20
-28.9335854931
30
0.0000000000
10
-16.0147843168
20
-28.9259778609
30
0.0000000000
10
-16.0483198521
20
-28.9134705643
30
0.0000000000
10
-16.0797320686
20
-28.8963181622
30
0.0000000000
10
-16.1083840113
20
-28.8748697850
30
0.0000000000
10
-16.1336916877
20
-28.8495621086
30
0.0000000000
10
-16.1551400648
20
-28.8209101660
30
0.0000000000
10
-16.1722924670
20
-28.7894979495
30
0.0000000000
10
-16.1847997635
20
-28.7559624142
30
0.0000000000
10
-16.1924073957
20
-28.7209957763
30
0.0000000000
10
-16.1941095133
20
-28.6971815116
30
0.0000000000
10
-16.1941095133
20
-28.6852918414
30
0.0000000000
11
-15.9441137441
21
-28.9352876106
31
0.0000000000
11
-15.9796918794
21
-28.9327430848
31
0.0000000000
11
-16.0145457923
21
-28.9251612523
31
0.0000000000
11
-16.0479659596
21
-28.9126963828
31
0.0000000000
11
-16.0792720192
21
-28.8956021688
31
0.0000000000
11
-16.1078266323
21
-28.8742265695
31
0.0000000000
11
-16.1330484721
21
-28.8490047297
31
0.0000000000
11
-16.1544240714
21
-28.8204501165
31
0.0000000000
11
-16.1715182855
21
-28.7891440569
31
0.0000000000
11
-16.1839831550
21
-28.7557238896
31
0.0000000000
11
-16.1915649874
21
-28.7208699768
31
0.0000000000
11
-16.1941095133
21
-28.6852918414
31
0.0000000000
0
SPLINE
5
404
100
AcDbEntity
8
0
100
AcDbSpline
62
7
6
CONTINUOUS
70
0
71
3
72
18
73
14
74
12
42
0.0000001000
43
0.0000001000
44
0.0000000001
12
0.0000000000
22
-0.3923594660
32
0.0000000000
13
-0.3923594660
23
0.0000000000
33
0.0000000000
40
0.0000000000
40
0.0000000000
40
0.0000000000
40
0.0000000000
40
0.0909090103
40
0.1818180598
40
0.2727271497
40
0.3636362742
40
0.4545454220
40
0.5454545780
40
0.6363637258
40
0.7272728503
40
0.8181819402
40
0.9090909897
40
1.0000000000
40
1.0000000000
40
1.0000000000
40
1.0000000000
10
-13.7941095133
20
-28.6852918414
30
0.0000000000
10
-13.7941095133
20
-28.6971815116
30
0.0000000000
10
-13.7958116308
20
-28.7209957763
30
0.0000000000
10
-13.8034192630
20
-28.7559624142
30
0.0000000000
10
-13.8159265596
20
-28.7894979495
30
0.0000000000
10
-13.8330789617
20
-28.8209101660
30
0.0000000000
10
-13.8545273389
20
-28.8495621086
30
0.0000000000
10
-13.8798350153
20
-28.8748697850
30
0.0000000000
10
-13.9084869579
20
-28.8963181622
30
0.0000000000
10
-13.9398991744
20
-28.9134705643
30
0.0000000000
10
-13.9734347097
20
-28.9259778609
30
0.0000000000
10
-14.0084013476
20
-28.9335854931
30
0.0000000000
10
-14.0322156122
20
-28.9352876106
30
0.0000000000
10
-14.0441052825
20
-28.9352876106
30
0.0000000000
11
-13.7941095133
21
-28.6852918414
31
0.0000000000
11
-13.7966540391
21
-28.7208699768
31
0.0000000000
11
-13.8042358716
21
-28.7557238896
31
0.0000000000
11
-13.8167007411
21
-28.7891440569
31
0.0000000000
11
-13.8337949551
21
-28.8204501165
31
0.0000000000
11
-13.8551705544
21
-28.8490047297
31
0.0000000000
11
-13.8803923942
21
-28.8742265695
31
0.0000000000
11
-13.9089470074
21
-28.8956021688
31
0.0000000000
11
-13.9402530670
21
-28.9126963828
31
0.0000000000
11
-13.9736732343
21
-28.9251612523
31
0.0000000000
11
-14.0085271471
21
-28.9327430848
31
0.0000000000
11
-14.0441052825
21
-28.9352876106
31
0.0000000000
0
SPLINE
5
405
100
AcDbEntity
8
0
100
AcDbSpline
62
9
6
CONTINUOUS
70
0
71
3
72
19
73
15
74
13
42
0.0000001000
43
0.0000001000
44
0.0000000001
12
-0.3000420231
22
0.0000001098
32
0.0000000000
13
-0.0014706961
23
0.3000384186
33
0.0000000000
40
0.0000000000
40
0.0000000000
40
0.0000000000
40
0.0000000000
40
0.1303637957
40
0.2586534077
40
0.3825346209
40
0.4998629767
40
0.6086392977
40
0.7070062059
40
0.7932712731
40
0.8659513889
40
0.9238097827
40
0.9658614993
40
0.9913884215
40
1.0000000000
40
1.0000000000
40
1.0000000000
40
1.0000000000
10
3.2558904867
20
-9.7498816633
30
0.0000000000
10
3.2428522811
20
-9.7498816586
30
0.0000000000
10
3.2169833508
20
-9.7498669847
30
0.0000000000
10
3.1787244196
20
-9.7498013181
30
0.0000000000
10
3.1417700262
20
-9.7496925039
30
0.0000000000
10
3.1067649502
20
-9.7495449065
30
0.0000000000
10
3.0743200534
20
-9.7493532485
30
0.0000000000
10
3.0449558104
20
-9.7491472262
30
0.0000000000
10
3.0192837349
20
-9.7488494188
30
0.0000000000
10
2.9974247281
20
-9.7487078673
30
0.0000000000
10
2.9806353142
20
-9.7480590902
30
0.0000000000
10
2.9670062164
20
-9.7485819205
30
0.0000000000
10
2.9613271747
20
-9.7468325062
30
0.0000000000
10
2.9558947084
20
-9.7481248711
30
0.0000000000
10
2.9558904867
20
-9.7472636030
30
0.0000000000
11
3.2558904867
21
-9.7498816633
31
0.0000000000
11
3.2167758761
21
-9.7498593156
31
0.0000000000
11
3.1782836593
21
-9.7497925447
31
0.0000000000
11
3.1411142524
21
-9.7496824791
31
0.0000000000
11
3.1059111410
21
-9.7495310135
31
0.0000000000
11
3.0732742283
21
-9.7493407313
31
0.0000000000
11
3.0437608864
21
-9.7491148725
31
0.0000000000
11
3.0178790226
21
-9.7488573150
31
0.0000000000
11
2.9960737937
21
-9.7485724957
31
0.0000000000
11
2.9787165628
21
-9.7482652788
31
0.0000000000
11
2.9661034511
21
-9.7479409003
31
0.0000000000
11
2.9584516719
21
-9.7476049769
31
0.0000000000
11
2.9558904867
21
-9.7472636030
31
0.0000000000
0
SPLINE
5
406
100
AcDbEntity
8
0
100
AcDbSpline
62
9
6
CONTINUOUS
70
0
71
3
72
19
73
15
74
13
42
0.0000001000
43
0.0000001000
44
0.0000000001
12
-0.5000252463
22
0.0000001986
32
0.0000000000
13
-0.0018945193
23
0.5000216573
33
0.0000000000
40
0.0000000000
40
0.0000000000
40
0.0000000000
40
0.0000000000
40
0.1305256858
40
0.2588002768
40
0.3826628505
40
0.4999703528
40
0.6087248185
40
0.7070704565
40
0.7933176971
40
0.8659869713
40
0.9238405402
40
0.9658918384
40
0.9914168788
40
1.0000000000
40
1.0000000000
40
1.0000000000
40
1.0000000000
10
3.2558904867
20
-9.9498740479
30
0.0000000000
10
3.2341351073
20
-9.9498740393
30
0.0000000000
10
3.1909996098
20
-9.9498593227
30
0.0000000000
10
3.1272190075
20
-9.9497937022
30
0.0000000000
10
3.0656428110
20
-9.9496844939
30
0.0000000000
10
3.0073160910
20
-9.9495381979
30
0.0000000000
10
2.9532563821
20
-9.9493422674
30
0.0000000000
10
2.9043291043
20
-9.9491500541
30
0.0000000000
10
2.8615548612
20
-9.9488102145
30
0.0000000000
10
2.8251253632
20
-9.9487900515
30
0.0000000000
10
2.7971585111
20
-9.9478200002
30
0.0000000000
10
2.7744129454
20
-9.9490868926
30
0.0000000000
10
2.7650007463
20
-9.9460136316
30
0.0000000000
10
2.7558959070
20
-9.9486865698
30
0.0000000000
10
2.7558904867
20
-9.9472559876
30
0.0000000000
11
3.2558904867
21
-9.9498740479
31
0.0000000000
11
3.1906243524
21
-9.9498516493
31
0.0000000000
11
3.1264838532
21
-9.9497848458
31
0.0000000000
11
3.0645495371
21
-9.9496747648
31
0.0000000000
11
3.0058930199
21
-9.9495233067
31
0.0000000000
11
2.9515133742
21
-9.9493330524
31
0.0000000000
11
2.9023385908
21
-9.9491072446
31
0.0000000000
11
2.8592135618
21
-9.9488497572
31
0.0000000000
11
2.8228782057
21
-9.9485650138
31
0.0000000000
11
2.7939515912
21
-9.9482578788
31
0.0000000000
11
2.7729273816
21
-9.9479335698
31
0.0000000000
11
2.7601686362
21
-9.9475977324
31
0.0000000000
11
2.7558904867
21
-9.9472559876
31
0.0000000000
0
SPLINE
5
407
100
AcDbEntity
8
0
100
AcDbSpline
62
7
6
CONTINUOUS
70
0
71
3
72
16
73
12
74
10
42
0.0000001000
43
0.0000001000
44
0.0000000001
12
0.1789674357
22
-0.0894769029
32
0.0000000000
13
0.0000000000
23
-0.2000886283
33
0.0000000000
40
0.0000000000
40
0.0000000000
40
0.0000000000
40
0.0000000000
40
0.0167853950
40
0.0630227404
40
0.1371363292
40
0.2375643800
40
0.3603008179
40
0.5029301057
40
0.6598021247
40
0.8274672412
40
1.0000000000
40
1.0000000000
40
1.0000000000
40
1.0000000000
10
4.0797383538
20
-9.7498816633
30
0.0000000000
10
4.0807397001
20
-9.7503822984
30
0.0000000000
10
4.0797491881
20
-9.7558943543
30
0.0000000000
10
4.0815349769
20
-9.7638195642
30
0.0000000000
10
4.0813381753
20
-9.7791925825
30
0.0000000000
10
4.0821015165
20
-9.7987384942
30
0.0000000000
10
4.0824039921
20
-9.8232330526
30
0.0000000000
10
4.0827743781
20
-9.8513590378
30
0.0000000000
10
4.0830106281
20
-9.8825268986
30
0.0000000000
10
4.0831657632
20
-9.9156761032
30
0.0000000000
10
4.0831989023
20
-9.9383667669
30
0.0000000000
10
4.0831989023
20
-9.9498740479
30
0.0000000000
11
4.0797383538
21
-9.7498816633
31
0.0000000000
11
4.0803405562
21
-9.7531858005
31
0.0000000000
11
4.0809248176
21
-9.7624189002
31
0.0000000000
11
4.0814704918
21
-9.7772381435
31
0.0000000000
11
4.0819655562
21
-9.7973265551
31
0.0000000000
11
4.0823903978
21
-9.8218810456
31
0.0000000000
11
4.0827366516
21
-9.8504174436
31
0.0000000000
11
4.0829904890
21
-9.8818047243
31
0.0000000000
11
4.0831465037
21
-9.9153522447
31
0.0000000000
11
4.0831989023
21
-9.9498740479
31
0.0000000000
0
SPLINE
5
408
100
AcDbEntity
8
0
100
AcDbSpline
62
7
6
CONTINUOUS
70
0
71
3
72
18
73
14
74
12
42
0.0000001000
43
0.0000001000
44
0.0000000001
12
0.4450903692
22
-0.4810902355
32
0.0000000000
13
0.0252793885
23
-0.6549154174
33
0.0000000000
40
0.0000000000
40
0.0000000000
40
0.0000000000
40
0.0000000000
40
0.1610700427
40
0.3161797675
40
0.4596391690
40
0.5858983805
40
0.6937258751
40
0.7831374497
40
0.8554530788
40
0.9120560403
40
0.9545072575
40
0.9834021834
40
1.0000000000
40
1.0000000000
40
1.0000000000
40
1.0000000000
10
-1.6161395256
20
-27.6916454253
30
0.0000000000
10
-1.5922426173
20
-27.7174751669
30
0.0000000000
10
-1.5453328887
20
-27.7681786710
30
0.0000000000
10
-1.4772508989
20
-27.8419911416
30
0.0000000000
10
-1.4145430331
20
-27.9104144369
30
0.0000000000
10
-1.3591322072
20
-27.9715113265
30
0.0000000000
10
-1.3120577503
20
-28.0242298453
30
0.0000000000
10
-1.2733364181
20
-28.0685927593
30
0.0000000000
10
-1.2425526192
20
-28.1050526500
30
0.0000000000
10
-1.2191672941
20
-28.1342429837
30
0.0000000000
10
-1.2025006121
20
-28.1568247796
30
0.0000000000
10
-1.1924849583
20
-28.1730133054
30
0.0000000000
10
-1.1883166414
20
-28.1824376467
30
0.0000000000
10
-1.1881767805
20
-28.1860610353
30
0.0000000000
11
-1.6161395256
21
-27.6916454253
31
0.0000000000
11
-1.5444685790
21
-27.7691529437
31
0.0000000000
11
-1.4755665831
21
-27.8439001717
31
0.0000000000
11
-1.4120683897
21
-27.9132431095
31
0.0000000000
11
-1.3565121101
21
-27.9745715293
31
0.0000000000
11
-1.3094880145
21
-28.0273261564
31
0.0000000000
11
-1.2710117260
21
-28.0715257998
31
0.0000000000
11
-1.2405211636
21
-28.1078121045
31
0.0000000000
11
-1.2174366987
21
-28.1368526124
31
0.0000000000
11
-1.2011483378
21
-28.1594089801
31
0.0000000000
11
-1.1914930270
21
-28.1757005784
31
0.0000000000
11
-1.1881767805
21
-28.1860610353
31
0.0000000000
0
SPLINE
5
409
100
AcDbEntity
8
0
100
AcDbSpline
62
7
6
CONTINUOUS
70
0
71
3
72
8
73
4
74
2
42
0.0000001000
43
0.0000001000
44
0.0000000001
12
0.0000000000
22
0.0062881995
32
0.0000000000
13
0.0022476677
23
0.0059728434
33
0.0000000000
40
0.0000000000
40
0.0000000000
40
0.0000000000
40
0.0000000000
40
1.0000000000
40
1.0000000000
40
1.0000000000
40
1.0000000000
10
-2.0441095133
20
-28.1864299010
30
0.0000000000
10
-2.0441095133
20
-28.1843338345
30
0.0000000000
10
-2.0435966502
20
-28.1822908641
30
0.0000000000
10
-2.0428474276
20
-28.1802999163
30
0.0000000000
11
-2.0441095133
21
-28.1864299010
31
0.0000000000
11
-2.0428474276
21
-28.1802999163
31
0.0000000000
0
SPLINE
5
40A
100
AcDbEntity
8
0
100
AcDbSpline
62
7
6
CONTINUOUS
70
0
71
3
72
18
73
14
74
12
42
0.0000001000
43
0.0000001000
44
0.0000000001
12
0.2321496970
22
0.6169033864
32
0.0000000000
13
0.4410644187
23
0.4767386574
33
0.0000000000
40
0.0000000000
40
0.0000000000
40
0.0000000000
40
0.0000000000
40
0.0066271058
40
0.0353775591
40
0.0779097127
40
0.1348025639
40
0.2076256814
40
0.2978091982
40
0.4067225147
40
0.5344206762
40
0.6796844479
40
0.8368312717
40
1.0000000000
40
1.0000000000
40
1.0000000000
40
1.0000000000
10
-2.0428474276
20
-28.1802999163
30
0.0000000000
10
-2.0423346007
20
-28.1789371549
30
0.0000000000
10
-2.0390058221
20
-28.1717924211
30
0.0000000000
10
-2.0302902290
20
-28.1575660482
30
0.0000000000
10
-2.0137782882
20
-28.1351034003
30
0.0000000000
10
-1.9905184239
20
-28.1060111319
30
0.0000000000
10
-1.9598120229
20
-28.0696023695
30
0.0000000000
10
-1.9211185186
20
-28.0252437593
30
0.0000000000
10
-1.8740033978
20
-27.9724612445
30
0.0000000000
10
-1.8184697784
20
-27.9112178027
30
0.0000000000
10
-1.7555594816
20
-27.8425680654
30
0.0000000000
10
-1.6872223073
20
-27.7684771445
30
0.0000000000
10
-1.6401288324
20
-27.7175750388
30
0.0000000000
10
-1.6161395256
20
-27.6916454253
30
0.0000000000
11
-2.0428474276
21
-28.1802999163
31
0.0000000000
11
-2.0410654068
21
-28.1762844074
31
0.0000000000
11
-2.0316353482
21
-28.1601678453
31
0.0000000000
11
-2.0155152150
21
-28.1377356681
31
0.0000000000
11
-1.9925547808
21
-28.1087847424
31
0.0000000000
11
-1.9621496914
21
-28.0725560771
31
0.0000000000
11
-1.9237070898
21
-28.0283651639
31
0.0000000000
11
-1.8766489980
21
-27.9755524513
31
0.0000000000
11
-1.8209738951
21
-27.9140806180
31
0.0000000000
11
-1.7572617878
21
-27.8444977356
31
0.0000000000
11
-1.6880874353
21
-27.7694527742
31
0.0000000000
11
-1.6161395256
21
-27.6916454253
31
0.0000000000
0
SPLINE
5
40B
100
AcDbEntity
8
0
100
AcDbSpline
62
7
6
CONTINUOUS
70
0
71
3
72
28
73
24
74
22
42
0.0000001000
43
0.0000001000
44
0.0000000001
12
0.0000000000
22
0.8560454358
32
0.0000000000
13
0.4748439349
23
-0.7122759476
33
0.0000000000
40
0.0000000000
40
0.0000000000
40
0.0000000000
40
0.0000000000
40
0.0056001076
40
0.0221878247
40
0.0493779407
40
0.0866467356
40
0.1330293372
40
0.1876956588
40
0.2491587429
40
0.3163869080
40
0.3874909704
40
0.4613265883
40
0.5357849589
40
0.6096852126
40
0.6809167069
40
0.7483330403
40
0.8100397611
40
0.8650010733
40
0.9117220307
40
0.9493664272
40
0.9769597041
40
0.9939700659
40
1.0000000000
40
1.0000000000
40
1.0000000000
40
1.0000000000
10
-2.0441095133
20
-26.7692075058
30
0.0000000000
10
-2.0441095133
20
-26.7676095236
30
0.0000000000
10
-2.0339933265
20
-26.7701861269
30
0.0000000000
10
-2.0235297345
20
-26.7668985741
30
0.0000000000
10
-1.9983858281
20
-26.7680007093
30
0.0000000000
10
-1.9676281915
20
-26.7668628575
30
0.0000000000
10
-1.9278375871
20
-26.7666949664
30
0.0000000000
10
-1.8815775365
20
-26.7662390711
30
0.0000000000
10
-1.8292219217
20
-26.7659594387
30
0.0000000000
10
-1.7722220427
20
-26.7657132884
30
0.0000000000
10
-1.7116772536
20
-26.7655534249
30
0.0000000000
10
-1.6490733276
20
-26.7654698845
30
0.0000000000
10
-1.5856701661
20
-26.7654683331
30
0.0000000000
10
-1.5230109488
20
-26.7655485733
30
0.0000000000
10
-1.4623594696
20
-26.7657059224
30
0.0000000000
10
-1.4051937788
20
-26.7659474821
30
0.0000000000
10
-1.3526510365
20
-26.7662301975
30
0.0000000000
10
-1.3060776859
20
-26.7666663694
30
0.0000000000
10
-1.2661826224
20
-26.7668829043
30
0.0000000000
10
-1.2346164639
20
-26.7678867293
30
0.0000000000
10
-1.2102649176
20
-26.7670851499
30
0.0000000000
10
-1.1974349562
20
-26.7698712843
30
0.0000000000
10
-1.1891312064
20
-26.7677541185
30
0.0000000000
10
-1.1881767805
20
-26.7691857775
30
0.0000000000
11
-2.0441095133
21
-26.7692075058
31
0.0000000000
11
-2.0393478693
21
-26.7686519251
31
0.0000000000
11
-2.0251584353
21
-26.7681084109
31
0.0000000000
11
-2.0018882358
21
-26.7675899427
31
0.0000000000
11
-1.9699881138
21
-26.7671067131
31
0.0000000000
11
-1.9302848887
21
-26.7666711381
31
0.0000000000
11
-1.8834895768
21
-26.7662910829
31
0.0000000000
11
-1.8308753227
21
-26.7659768334
31
0.0000000000
11
-1.7733254724
21
-26.7657336984
31
0.0000000000
11
-1.7124573886
21
-26.7655684838
31
0.0000000000
11
-1.6492508015
21
-26.7654838631
31
0.0000000000
11
-1.5855110532
21
-26.7654822451
31
0.0000000000
11
-1.5222491307
21
-26.7655636554
31
0.0000000000
11
-1.4612719506
21
-26.7657257771
31
0.0000000000
11
-1.4035610061
21
-26.7659659862
31
0.0000000000
11
-1.3507381683
21
-26.7662775591
31
0.0000000000
11
-1.3036903036
21
-26.7666552320
31
0.0000000000
11
-1.2636973912
21
-26.7670887838
31
0.0000000000
11
-1.2314756764
21
-26.7675703856
31
0.0000000000
11
-1.2078602422
21
-26.7680876634
31
0.0000000000
11
-1.1933087193
21
-26.7686304480
31
0.0000000000
11
-1.1881767805
21
-26.7691857775
31
0.0000000000
0
SPLINE
5
40C
100
AcDbEntity
8
0
100
AcDbSpline
62
7
6
CONTINUOUS
70
0
71
3
72
18
73
14
74
12
42
0.0000001000
43
0.0000001000
44
0.0000000001
12
0.4453347054
22
-0.4813543341
32
0.0000000000
13
0.0000000000
23
-0.6557629105
33
0.0000000000
40
0.0000000000
40
0.0000000000
40
0.0000000000
40
0.0000000000
40
0.1614952952
40
0.3171097781
40
0.4609917901
40
0.5874696091
40
0.6953300589
40
0.7846477581
40
0.8567778755
40
0.9131578401
40
0.9553196044
40
0.9838298659
40
1.0000000000
40
1.0000000000
40
1.0000000000
40
1.0000000000
10
-9.4720795009
20
-27.6916454253
30
0.0000000000
10
-9.4481063477
20
-27.7175575787
30
0.0000000000
10
-9.4010328081
20
-27.7684381385
30
0.0000000000
10
-9.3327137527
20
-27.8425091581
30
0.0000000000
10
-9.2698046995
20
-27.9111570236
30
0.0000000000
10
-9.2142697099
20
-27.9724012303
30
0.0000000000
10
-9.1671548271
20
-28.0251823737
30
0.0000000000
10
-9.1284611017
20
-28.0695395421
30
0.0000000000
10
-9.0977482252
20
-28.1059534162
30
0.0000000000
10
-9.0744763881
20
-28.1350570907
30
0.0000000000
10
-9.0579483342
20
-28.1575368582
30
0.0000000000
10
-9.0481374650
20
-28.1735461403
30
0.0000000000
10
-9.0441095133
20
-28.1828953096
30
0.0000000000
10
-9.0441095133
20
-28.1864299010
30
0.0000000000
11
-9.4720795009
21
-27.6916454253
31
0.0000000000
11
-9.4001800111
21
-27.7694003563
31
0.0000000000
11
-9.3310168346
21
-27.8444329041
31
0.0000000000
11
-9.2672995133
21
-27.9140209401
31
0.0000000000
11
-9.2116221921
21
-27.9754944334
31
0.0000000000
11
-9.1645672144
21
-28.0283024518
31
0.0000000000
11
-9.1261241498
21
-28.0724920466
31
0.0000000000
11
-9.0957154409
21
-28.1087222083
31
0.0000000000
11
-9.0727397805
21
-28.1376883895
31
0.0000000000
11
-9.0566029273
21
-28.1601387921
31
0.0000000000
11
-9.0471585622
21
-28.1762739506
31
0.0000000000
11
-9.0441095133
21
-28.1864299010
31
0.0000000000
0
SPLINE
5
40D
100
AcDbEntity
8
0
100
AcDbSpline
62
7
6
CONTINUOUS
70
0
71
3
72
18
73
14
74
12
42
0.0000001000
43
0.0000001000
44
0.0000000001
12
0.0252793929
22
0.6549155310
32
0.0000000000
13
0.4450904464
23
0.4810903189
33
0.0000000000
40
0.0000000000
40
0.0000000000
40
0.0000000000
40
0.0000000000
40
0.0165806563
40
0.0454411065
40
0.0878560839
40
0.1444275358
40
0.2167384756
40
0.3061519021
40
0.4139889825
40
0.5402449784
40
0.6836932136
40
0.8388260589
40
1.0000000000
40
1.0000000000
40
1.0000000000
40
1.0000000000
10
-9.9000422460
20
-28.1860610353
30
0.0000000000
10
-9.8999025297
20
-28.1824413922
30
0.0000000000
10
-9.8957413013
20
-28.1730270879
30
0.0000000000
10
-9.8857375361
20
-28.1568531574
30
0.0000000000
10
-9.8690864003
20
-28.1342879025
30
0.0000000000
10
-9.8457125745
20
-28.1051085222
30
0.0000000000
10
-9.8149348235
20
-28.0686533522
30
0.0000000000
10
-9.7762133078
20
-28.0242886168
30
0.0000000000
10
-9.7291381635
20
-27.9715682880
30
0.0000000000
10
-9.6737283781
20
-27.9104718484
30
0.0000000000
10
-9.6110194515
20
-27.8420469139
30
0.0000000000
10
-9.5429204106
20
-27.7682157142
30
0.0000000000
10
-9.4959918281
20
-27.7174918329
30
0.0000000000
10
-9.4720795009
20
-27.6916454253
30
0.0000000000
11
-9.9000422460
21
-28.1860610353
31
0.0000000000
11
-9.8967309505
21
-28.1757108009
31
0.0000000000
11
-9.8870895404
21
-28.1594372263
31
0.0000000000
11
-9.8708173346
21
-28.1368984840
31
0.0000000000
11
-9.8477475387
21
-28.1078726887
31
0.0000000000
11
-9.8172602689
21
-28.0715876210
31
0.0000000000
11
-9.7787840478
21
-28.0273862962
31
0.0000000000
11
-9.7317563255
21
-27.9746264692
31
0.0000000000
11
-9.6762018184
21
-27.9132992682
31
0.0000000000
11
-9.6127088082
21
-27.8439614852
31
0.0000000000
11
-9.5437966655
21
-27.7692029774
31
0.0000000000
11
-9.4720795009
21
-27.6916454253
31
0.0000000000
0
SPLINE
5
40E
100
AcDbEntity
8
0
100
AcDbSpline
62
7
6
CONTINUOUS
70
0
71
3
72
28
73
24
74
22
42
0.0000001000
43
0.0000001000
44
0.0000000001
12
0.4748439350
22
0.7122759476
32
0.0000000000
13
0.0000000000
23
-0.8560454358
33
0.0000000000
40
0.0000000000
40
0.0000000000
40
0.0000000000
40
0.0000000000
40
0.0060299341
40
0.0230402959
40
0.0506335728
40
0.0882779693
40
0.1349989267
40
0.1899602389
40
0.2516669597
40
0.3190832931
40
0.3903147874
40
0.4642150411
40
0.5386734117
40
0.6125090296
40
0.6836130920
40
0.7508412571
40
0.8123043412
40
0.8669706628
40
0.9133532644
40
0.9506220593
40
0.9778121753
40
0.9943998924
40
1.0000000000
40
1.0000000000
40
1.0000000000
40
1.0000000000
10
-9.9000422460
20
-26.7691857775
30
0.0000000000
10
-9.8990878201
20
-26.7677541185
30
0.0000000000
10
-9.8907840703
20
-26.7698712843
30
0.0000000000
10
-9.8779541089
20
-26.7670851499
30
0.0000000000
10
-9.8536025626
20
-26.7678867293
30
0.0000000000
10
-9.8220364041
20
-26.7668829043
30
0.0000000000
10
-9.7821413407
20
-26.7666663694
30
0.0000000000
10
-9.7355679900
20
-26.7662301975
30
0.0000000000
10
-9.6830252478
20
-26.7659474821
30
0.0000000000
10
-9.6258595570
20
-26.7657059224
30
0.0000000000
10
-9.5652080778
20
-26.7655485733
30
0.0000000000
10
-9.5025488604
20
-26.7654683331
30
0.0000000000
10
-9.4391456990
20
-26.7654698845
30
0.0000000000
10
-9.3765417730
20
-26.7655534249
30
0.0000000000
10
-9.3159969838
20
-26.7657132884
30
0.0000000000
10
-9.2589971048
20
-26.7659594387
30
0.0000000000
10
-9.2066414900
20
-26.7662390711
30
0.0000000000
10
-9.1603814394
20
-26.7666949664
30
0.0000000000
10
-9.1205908350
20
-26.7668628575
30
0.0000000000
10
-9.0898331985
20
-26.7680007093
30
0.0000000000
10
-9.0646892921
20
-26.7668985741
30
0.0000000000
10
-9.0542257001
20
-26.7701861269
30
0.0000000000
10
-9.0441095133
20
-26.7676095236
30
0.0000000000
10
-9.0441095133
20
-26.7692075058
30
0.0000000000
11
-9.9000422460
21
-26.7691857775
31
0.0000000000
11
-9.8949103073
21
-26.7686304480
31
0.0000000000
11
-9.8803587843
21
-26.7680876634
31
0.0000000000
11
-9.8567433502
21
-26.7675703856
31
0.0000000000
11
-9.8245216353
21
-26.7670887838
31
0.0000000000
11
-9.7845287229
21
-26.7666552320
31
0.0000000000
11
-9.7374808583
21
-26.7662775591
31
0.0000000000
11
-9.6846580205
21
-26.7659659862
31
0.0000000000
11
-9.6269470759
21
-26.7657257771
31
0.0000000000
11
-9.5659698959
21
-26.7655636554
31
0.0000000000
11
-9.5027079733
21
-26.7654822451
31
0.0000000000
11
-9.4389682251
21
-26.7654838631
31
0.0000000000
11
-9.3757616380
21
-26.7655684838
31
0.0000000000
11
-9.3148935541
21
-26.7657336984
31
0.0000000000
11
-9.2573437038
21
-26.7659768334
31
0.0000000000
11
-9.2047294497
21
-26.7662910829
31
0.0000000000
11
-9.1579341379
21
-26.7666711381
31
0.0000000000
11
-9.1182309127
21
-26.7671067131
31
0.0000000000
11
-9.0863307908
21
-26.7675899427
31
0.0000000000
11
-9.0630605912
21
-26.7681084109
31
0.0000000000
11
-9.0488711573
21
-26.7686519251
31
0.0000000000
11
-9.0441095133
21
-26.7692075058
31
0.0000000000
0
SPLINE
5
40F
100
AcDbEntity
8
0
100
AcDbSpline
62
7
6
CONTINUOUS
70
0
71
3
72
18
73
14
74
12
42
0.0000001000
43
0.0000001000
44
0.0000000001
12
-0.4453347138
22
0.4813543431
32
0.0000000000
13
0.0000000000
23
0.6557629228
33
0.0000000000
40
0.0000000000
40
0.0000000000
40
0.0000000000
40
0.0000000000
40
0.1612016661
40
0.3168616821
40
0.4607450366
40
0.5870767765
40
0.6948071043
40
0.7840907429
40
0.8562933587
40
0.9129036648
40
0.9552698300
40
0.9838485666
40
1.0000000000
40
1.0000000000
40
1.0000000000
40
1.0000000000
10
-1.6161395256
20
18.8210702041
30
0.0000000000
10
-1.6400690916
20
18.8469352448
30
0.0000000000
10
-1.6871058004
20
18.8977760008
30
0.0000000000
10
-1.7553885956
20
18.9718070905
30
0.0000000000
10
-1.8182834874
20
19.0404385212
30
0.0000000000
10
-1.8737790397
20
19.1016373890
30
0.0000000000
10
-1.9208507074
20
19.1543661749
30
0.0000000000
10
-1.9595347993
20
19.1987051668
30
0.0000000000
10
-1.9902907204
20
19.2351595391
30
0.0000000000
10
-2.0136382971
20
19.2643444577
30
0.0000000000
10
-2.0302370111
20
19.2869093968
30
0.0000000000
10
-2.0400799380
20
19.3029640856
30
0.0000000000
10
-2.0441095133
20
19.3123241760
30
0.0000000000
10
-2.0441095133
20
19.3158546797
30
0.0000000000
11
-1.6161395256
21
18.8210702041
31
0.0000000000
11
-1.6879083633
21
18.8986836955
31
0.0000000000
11
-1.7570920914
21
18.9737379108
31
0.0000000000
11
-1.8208105280
21
19.0433261216
31
0.0000000000
11
-1.8764246023
21
19.1047276571
31
0.0000000000
11
-1.9234250433
21
19.1574699830
31
0.0000000000
11
-1.9618573143
21
19.2016393640
31
0.0000000000
11
-1.9923022814
21
19.2379011618
31
0.0000000000
11
-2.0153783047
21
19.2669805327
31
0.0000000000
11
-2.0315980901
21
19.2895363966
31
0.0000000000
11
-2.0410657640
21
19.3057099422
31
0.0000000000
11
-2.0441095133
21
19.3158546797
31
0.0000000000
0
SPLINE
5
410
100
AcDbEntity
8
0
100
AcDbSpline
62
7
6
CONTINUOUS
70
0
71
3
72
18
73
14
74
12
42
0.0000001000
43
0.0000001000
44
0.0000000001
12
-0.0252793934
22
-0.6549155442
32
0.0000000000
13
-0.4450904554
23
-0.4810903286
33
0.0000000000
40
0.0000000000
40
0.0000000000
40
0.0000000000
40
0.0000000000
40
0.0165612013
40
0.0454873726
40
0.0880998360
40
0.1448866598
40
0.2172643667
40
0.3066417466
40
0.4143507724
40
0.5404648439
40
0.6839186683
40
0.8391027189
40
1.0000000000
40
1.0000000000
40
1.0000000000
40
1.0000000000
10
-1.1881767805
20
19.3154858141
30
0.0000000000
10
-1.1883163329
20
19.3118704180
30
0.0000000000
10
-1.1924790514
20
19.3024459651
30
0.0000000000
10
-1.2025135583
20
19.2862284552
30
0.0000000000
10
-1.2192318772
20
19.2635823549
30
0.0000000000
10
-1.2426772715
20
19.2343261680
30
0.0000000000
10
-1.2734945217
20
19.1978340365
30
0.0000000000
10
-1.3122053400
20
19.1534881774
30
0.0000000000
10
-1.3592377445
20
19.1008193373
30
0.0000000000
10
-1.4146095530
20
19.0397664295
30
0.0000000000
10
-1.4773063523
20
18.9713556068
30
0.0000000000
10
-1.5453731129
20
18.8975599761
30
0.0000000000
10
-1.5922682442
20
18.8468722460
30
0.0000000000
10
-1.6161395256
20
18.8210702041
30
0.0000000000
11
-1.1881767805
21
19.3154858141
31
0.0000000000
11
-1.1914824643
21
19.3051471717
31
0.0000000000
11
-1.2011462975
21
19.2888368155
31
0.0000000000
11
-1.2174986182
21
19.2661962730
31
0.0000000000
11
-1.2406622995
21
19.2370647883
31
0.0000000000
11
-1.2711830239
21
19.2007506739
31
0.0000000000
11
-1.3096473259
21
19.1565702944
31
0.0000000000
11
-1.3566212565
21
19.1038749469
31
0.0000000000
11
-1.4121142699
21
19.0426175468
31
0.0000000000
11
-1.4756102181
21
18.9732774845
31
0.0000000000
11
-1.5445453956
21
18.8984945642
31
0.0000000000
11
-1.6161395256
21
18.8210702041
31
0.0000000000
0
SPLINE
5
411
100
AcDbEntity
8
0
100
AcDbSpline
62
7
6
CONTINUOUS
70
0
71
3
72
28
73
24
74
22
42
0.0000001000
43
0.0000001000
44
0.0000000001
12
-0.4748439350
22
-0.7122759476
32
0.0000000000
13
0.0000000000
23
0.8560454358
33
0.0000000000
40
0.0000000000
40
0.0000000000
40
0.0000000000
40
0.0000000000
40
0.0060299341
40
0.0230402959
40
0.0506335728
40
0.0882779693
40
0.1349989267
40
0.1899602389
40
0.2516669597
40
0.3190832931
40
0.3903147874
40
0.4642150411
40
0.5386734117
40
0.6125090296
40
0.6836130920
40
0.7508412571
40
0.8123043412
40
0.8669706628
40
0.9133532644
40
0.9506220593
40
0.9778121753
40
0.9943998924
40
1.0000000000
40
1.0000000000
40
1.0000000000
40
1.0000000000
10
-1.1881767805
20
17.8986105563
30
0.0000000000
10
-1.1891312064
20
17.8971788973
30
0.0000000000
10
-1.1974349562
20
17.8992960631
30
0.0000000000
10
-1.2102649176
20
17.8965099286
30
0.0000000000
10
-1.2346164639
20
17.8973115081
30
0.0000000000
10
-1.2661826224
20
17.8963076830
30
0.0000000000
10
-1.3060776859
20
17.8960911482
30
0.0000000000
10
-1.3526510365
20
17.8956549763
30
0.0000000000
10
-1.4051937788
20
17.8953722609
30
0.0000000000
10
-1.4623594696
20
17.8951307012
30
0.0000000000
10
-1.5230109488
20
17.8949733521
30
0.0000000000
10
-1.5856701661
20
17.8948931118
30
0.0000000000
10
-1.6490733276
20
17.8948946633
30
0.0000000000
10
-1.7116772536
20
17.8949782036
30
0.0000000000
10
-1.7722220427
20
17.8951380672
30
0.0000000000
10
-1.8292219217
20
17.8953842175
30
0.0000000000
10
-1.8815775365
20
17.8956638499
30
0.0000000000
10
-1.9278375871
20
17.8961197451
30
0.0000000000
10
-1.9676281915
20
17.8962876362
30
0.0000000000
10
-1.9983858281
20
17.8974254881
30
0.0000000000
10
-2.0235297345
20
17.8963233528
30
0.0000000000
10
-2.0339933265
20
17.8996109056
30
0.0000000000
10
-2.0441095133
20
17.8970343024
30
0.0000000000
10
-2.0441095133
20
17.8986322846
30
0.0000000000
11
-1.1881767805
21
17.8986105563
31
0.0000000000
11
-1.1933087193
21
17.8980552268
31
0.0000000000
11
-1.2078602422
21
17.8975124422
31
0.0000000000
11
-1.2314756764
21
17.8969951643
31
0.0000000000
11
-1.2636973912
21
17.8965135626
31
0.0000000000
11
-1.3036903036
21
17.8960800107
31
0.0000000000
11
-1.3507381683
21
17.8957023379
31
0.0000000000
11
-1.4035610061
21
17.8953907649
31
0.0000000000
11
-1.4612719506
21
17.8951505558
31
0.0000000000
11
-1.5222491307
21
17.8949884342
31
0.0000000000
11
-1.5855110532
21
17.8949070239
31
0.0000000000
11
-1.6492508015
21
17.8949086419
31
0.0000000000
11
-1.7124573886
21
17.8949932625
31
0.0000000000
11
-1.7733254724
21
17.8951584772
31
0.0000000000
11
-1.8308753227
21
17.8954016122
31
0.0000000000
11
-1.8834895768
21
17.8957158617
31
0.0000000000
11
-1.9302848887
21
17.8960959168
31
0.0000000000
11
-1.9699881138
21
17.8965314919
31
0.0000000000
11
-2.0018882358
21
17.8970147215
31
0.0000000000
11
-2.0251584353
21
17.8975331896
31
0.0000000000
11
-2.0393478693
21
17.8980767039
31
0.0000000000
11
-2.0441095133
21
17.8986322846
31
0.0000000000
0
SPLINE
5
412
100
AcDbEntity
8
0
100
AcDbSpline
62
7
6
CONTINUOUS
70
0
71
3
72
16
73
12
74
10
42
0.0000001000
43
0.0000001000
44
0.0000000001
12
0.0000000000
22
0.3137666431
32
0.0000000000
13
0.3137666431
23
0.0000000000
33
0.0000000000
40
0.0000000000
40
0.0000000000
40
0.0000000000
40
0.0000000000
40
0.1110699338
40
0.2223499386
40
0.3332217751
40
0.4446120787
40
0.5554129367
40
0.6668002543
40
0.7776663541
40
0.8889389884
40
1.0000000000
40
1.0000000000
40
1.0000000000
40
1.0000000000
10
2.7558904867
20
-9.8852952263
30
0.0000000000
10
2.7558904867
20
-9.8736785462
30
0.0000000000
10
2.7579267151
20
-9.8503723848
30
0.0000000000
10
2.7669948570
20
-9.8165456970
30
0.0000000000
10
2.7818120572
20
-9.7847669496
30
0.0000000000
10
2.8018953027
20
-9.7560867190
30
0.0000000000
10
2.8266897658
20
-9.7312917913
30
0.0000000000
10
2.8553688956
20
-9.7112085644
30
0.0000000000
10
2.8871459042
20
-9.6963916195
30
0.0000000000
10
2.9209702835
20
-9.6873237619
30
0.0000000000
10
2.9442747398
20
-9.6852876106
30
0.0000000000
10
2.9558904867
20
-9.6852876106
30
0.0000000000
11
2.7558904867
21
-9.8852952263
31
0.0000000000
11
2.7589265705
21
-9.8505776875
31
0.0000000000
11
2.7679653018
21
-9.8168519533
31
0.0000000000
11
2.7826670099
21
-9.7853232893
31
0.0000000000
11
2.8027143262
21
-9.7566938138
31
0.0000000000
11
2.8272971111
21
-9.7321105969
31
0.0000000000
11
2.8559254885
21
-9.7120633458
31
0.0000000000
11
2.8874523231
21
-9.6973619738
31
0.0000000000
11
2.9211757454
21
-9.6883235499
31
0.0000000000
11
2.9558904867
21
-9.6852876106
31
0.0000000000
0
SPLINE
5
413
100
AcDbEntity
8
0
100
AcDbSpline
62
7
6
CONTINUOUS
70
0
71
3
72
18
73
14
74
12
42
0.0000001000
43
0.0000001000
44
0.0000000001
12
-0.4450903719
22
0.4810902383
32
0.0000000000
13
-0.0252793887
23
0.6549154213
33
0.0000000000
40
0.0000000000
40
0.0000000000
40
0.0000000000
40
0.0000000000
40
0.1607870617
40
0.3159451345
40
0.4594086114
40
0.5855248047
40
0.6932231358
40
0.7825985590
40
0.8549817506
40
0.9118040473
40
0.9544563951
40
0.9834203014
40
1.0000000000
40
1.0000000000
40
1.0000000000
40
1.0000000000
10
-9.4720795009
20
18.8210702041
30
0.0000000000
10
-9.4959344253
20
18.8468545660
30
0.0000000000
10
-9.5428093403
20
18.8975204464
30
0.0000000000
10
-9.6108574726
20
18.9712956230
30
0.0000000000
10
-9.6735524222
20
19.0397039082
30
0.0000000000
10
-9.7289247578
20
19.1007566338
30
0.0000000000
10
-9.7759561908
20
19.1534232403
30
0.0000000000
10
-9.8146668456
20
19.1977671373
30
0.0000000000
10
-9.8454909207
20
19.2342646641
30
0.0000000000
10
-9.8689491234
20
19.2635330973
30
0.0000000000
10
-9.8856846118
20
19.2861975141
30
0.0000000000
10
-9.8957321248
20
19.3024309911
30
0.0000000000
10
-9.8999025378
20
19.3118663807
30
0.0000000000
10
-9.9000422460
20
19.3154858141
30
0.0000000000
11
-9.4720795009
21
18.8210702041
31
0.0000000000
11
-9.5436246008
21
18.8984414864
31
0.0000000000
11
-9.6125483703
21
18.9732117407
31
0.0000000000
11
-9.6760488514
21
19.0425562062
31
0.0000000000
11
-9.7315431904
21
19.1038142608
31
0.0000000000
11
-9.7785130670
21
19.1565038146
31
0.0000000000
11
-9.8169774783
21
19.2006823839
31
0.0000000000
11
-9.8475019616
21
19.2369980231
31
0.0000000000
11
-9.8706821081
21
19.2661461094
31
0.0000000000
11
-9.8870521961
21
19.2888060583
31
0.0000000000
11
-9.8967312276
21
19.3051361519
31
0.0000000000
11
-9.9000422460
21
19.3154858141
31
0.0000000000
0
SPLINE
5
414
100
AcDbEntity
8
0
100
AcDbSpline
62
7
6
CONTINUOUS
70
0
71
3
72
8
73
4
74
2
42
0.0000001000
43
0.0000001000
44
0.0000000001
12
0.0000000000
22
-0.0062742889
32
0.0000000000
13
-0.0022398713
23
-0.0059603371
33
0.0000000000
40
0.0000000000
40
0.0000000000
40
0.0000000000
40
0.0000000000
40
1.0000000000
40
1.0000000000
40
1.0000000000
40
1.0000000000
10
-9.0441095133
20
19.3158546797
30
0.0000000000
10
-9.0441095133
20
19.3137632501
30
0.0000000000
10
-9.0446203551
20
19.3117246767
30
0.0000000000
10
-9.0453669788
20
19.3097378976
30
0.0000000000
11
-9.0441095133
21
19.3158546797
31
0.0000000000
11
-9.0453669788
21
19.3097378976
31
0.0000000000
0
SPLINE
5
415
100
AcDbEntity
8
0
100
AcDbSpline
62
7
6
CONTINUOUS
70
0
71
3
72
18
73
14
74
12
42
0.0000001000
43
0.0000001000
44
0.0000000001
12
-0.2318623307
22
-0.6169897634
32
0.0000000000
13
-0.4410738809
23
-0.4767488849
33
0.0000000000
40
0.0000000000
40
0.0000000000
40
0.0000000000
40
0.0000000000
40
0.0066281586
40
0.0354438089
40
0.0781775225
40
0.1352977049
40
0.2081916000
40
0.2983390118
40
0.4071197443
40
0.5346687078
40
0.6799322081
40
0.8371246023
40
1.0000000000
40
1.0000000000
40
1.0000000000
40
1.0000000000
10
-9.0453669788
20
19.3097378976
30
0.0000000000
10
-9.0458792523
20
19.3083747290
30
0.0000000000
10
-9.0492121648
20
19.3012156256
30
0.0000000000
10
-9.0579607205
20
19.2869412040
30
0.0000000000
10
-9.0745416518
20
19.2643952064
30
0.0000000000
10
-9.0978759011
20
19.2352230328
30
0.0000000000
10
-9.1286245697
20
19.1987744376
30
0.0000000000
10
-9.1673084269
20
19.1544338511
30
0.0000000000
10
-9.2143806214
20
19.1017032618
30
0.0000000000
10
-9.2698752999
20
19.0405045435
30
0.0000000000
10
-9.3327722178
20
18.9718703483
30
0.0000000000
10
-9.4010747511
20
18.8978175860
30
0.0000000000
10
-9.4481328064
20
18.8469537588
30
0.0000000000
10
-9.4720795009
20
18.8210702041
30
0.0000000000
11
-9.0453669788
21
19.3097378976
31
0.0000000000
11
-9.0471479458
21
19.3057211968
31
0.0000000000
11
-9.0566000041
21
19.2895679823
31
0.0000000000
11
-9.0728013645
21
19.2670322400
31
0.0000000000
11
-9.0958603514
21
19.2379700173
31
0.0000000000
11
-9.1263012034
21
19.2017100289
31
0.0000000000
11
-9.1647330136
21
19.1575391440
31
0.0000000000
11
-9.2117369985
21
19.1047915243
31
0.0000000000
11
-9.2673492669
21
19.0433911204
31
0.0000000000
11
-9.3310631202
21
18.9738073313
31
0.0000000000
11
-9.4002593204
21
18.8987392774
31
0.0000000000
11
-9.4720795009
21
18.8210702041
31
0.0000000000
0
SPLINE
5
416
100
AcDbEntity
8
0
100
AcDbSpline
62
9
6
CONTINUOUS
70
0
71
3
72
9
73
5
74
3
42
0.0000001000
43
0.0000001000
44
0.0000000001
12
0.0000000000
22
0.0464794131
32
0.0000000000
13
0.0107339614
23
0.0452851040
33
0.0000000000
40
0.0000000000
40
0.0000000000
40
0.0000000000
40
0.0000000000
40
0.7500305494
40
1.0000000000
40
1.0000000000
40
1.0000000000
40
1.0000000000
10
2.7558904867
20
-9.9472559876
30
0.0000000000
10
2.7558904867
20
-9.9356356610
30
0.0000000000
10
2.7572477294
20
-9.9201085697
30
0.0000000000
10
2.7603870535
20
-9.9049078502
30
0.0000000000
10
2.7612814409
20
-9.9011345527
30
0.0000000000
11
2.7558904867
21
-9.9472559876
31
0.0000000000
11
2.7589289361
21
-9.9125276745
31
0.0000000000
11
2.7612814409
21
-9.9011345527
31
0.0000000000
0
SPLINE
5
417
100
AcDbEntity
8
0
100
AcDbSpline
62
9
6
CONTINUOUS
70
0
71
3
72
15
73
11
74
9
42
0.0000001000
43
0.0000001000
44
0.0000000001
12
0.0617245880
22
0.2604075304
32
0.0000000000
13
0.2672752873
23
0.0000000000
33
0.0000000000
40
0.0000000000
40
0.0000000000
40
0.0000000000
40
0.0000000000
40
0.0869613703
40
0.2173932074
40
0.3478257914
40
0.4782592248
40
0.6086935075
40
0.7391285371
40
0.8695641211
40
1.0000000000
40
1.0000000000
40
1.0000000000
40
1.0000000000
10
2.7612814409
20
-9.9011345527
30
0.0000000000
10
2.7630706592
20
-9.8935860875
30
0.0000000000
10
2.7686405104
20
-9.8749801097
30
0.0000000000
10
2.7818038761
20
-9.8467502510
30
0.0000000000
10
2.8019018252
20
-9.8180490892
30
0.0000000000
10
2.8266788448
20
-9.7932730421
30
0.0000000000
10
2.8553810991
20
-9.7731759059
30
0.0000000000
10
2.8871401904
20
-9.7583680486
30
0.0000000000
10
2.9209772990
20
-9.7492994638
30
0.0000000000
10
2.9442697244
20
-9.7472636030
30
0.0000000000
10
2.9558904867
20
-9.7472636030
30
0.0000000000
11
2.7612814409
21
-9.9011345527
31
0.0000000000
11
2.7679519626
21
-9.8788545636
31
0.0000000000
11
2.7826854060
21
-9.8472597953
31
0.0000000000
11
2.8026815981
21
-9.8187033607
31
0.0000000000
11
2.8273329648
21
-9.7940529327
31
0.0000000000
11
2.8558904867
21
-9.7740575020
31
0.0000000000
11
2.8874864581
21
-9.7593246196
31
0.0000000000
11
2.9211608512
21
-9.7503019367
31
0.0000000000
11
2.9558904867
21
-9.7472636030
31
0.0000000000
0
SPLINE
5
418
100
AcDbEntity
8
0
100
AcDbSpline
62
7
6
CONTINUOUS
70
0
71
3
72
28
73
24
74
22
42
0.0000001000
43
0.0000001000
44
0.0000000001
12
0.0000000000
22
-0.8560454358
32
0.0000000000
13
-0.4748439349
23
0.7122759476
33
0.0000000000
40
0.0000000000
40
0.0000000000
40
0.0000000000
40
0.0000000000
40
0.0056001076
40
0.0221878247
40
0.0493779407
40
0.0866467356
40
0.1330293372
40
0.1876956588
40
0.2491587429
40
0.3163869080
40
0.3874909704
40
0.4613265883
40
0.5357849589
40
0.6096852126
40
0.6809167069
40
0.7483330403
40
0.8100397611
40
0.8650010733
40
0.9117220307
40
0.9493664272
40
0.9769597041
40
0.9939700659
40
1.0000000000
40
1.0000000000
40
1.0000000000
40
1.0000000000
10
-9.0441095133
20
17.8986322846
30
0.0000000000
10
-9.0441095133
20
17.8970343024
30
0.0000000000
10
-9.0542257001
20
17.8996109056
30
0.0000000000
10
-9.0646892921
20
17.8963233528
30
0.0000000000
10
-9.0898331985
20
17.8974254881
30
0.0000000000
10
-9.1205908350
20
17.8962876362
30
0.0000000000
10
-9.1603814394
20
17.8961197451
30
0.0000000000
10
-9.2066414900
20
17.8956638499
30
0.0000000000
10
-9.2589971048
20
17.8953842175
30
0.0000000000
10
-9.3159969838
20
17.8951380672
30
0.0000000000
10
-9.3765417730
20
17.8949782036
30
0.0000000000
10
-9.4391456990
20
17.8948946633
30
0.0000000000
10
-9.5025488604
20
17.8948931118
30
0.0000000000
10
-9.5652080778
20
17.8949733521
30
0.0000000000
10
-9.6258595570
20
17.8951307012
30
0.0000000000
10
-9.6830252478
20
17.8953722609
30
0.0000000000
10
-9.7355679900
20
17.8956549763
30
0.0000000000
10
-9.7821413407
20
17.8960911482
30
0.0000000000
10
-9.8220364041
20
17.8963076830
30
0.0000000000
10
-9.8536025626
20
17.8973115081
30
0.0000000000
10
-9.8779541089
20
17.8965099286
30
0.0000000000
10
-9.8907840703
20
17.8992960631
30
0.0000000000
10
-9.8990878201
20
17.8971788973
30
0.0000000000
10
-9.9000422460
20
17.8986105563
30
0.0000000000
11
-9.0441095133
21
17.8986322846
31
0.0000000000
11
-9.0488711573
21
17.8980767039
31
0.0000000000
11
-9.0630605912
21
17.8975331896
31
0.0000000000
11
-9.0863307908
21
17.8970147215
31
0.0000000000
11
-9.1182309127
21
17.8965314919
31
0.0000000000
11
-9.1579341379
21
17.8960959168
31
0.0000000000
11
-9.2047294497
21
17.8957158617
31
0.0000000000
11
-9.2573437038
21
17.8954016122
31
0.0000000000
11
-9.3148935541
21
17.8951584772
31
0.0000000000
11
-9.3757616380
21
17.8949932625
31
0.0000000000
11
-9.4389682251
21
17.8949086419
31
0.0000000000
11
-9.5027079733
21
17.8949070239
31
0.0000000000
11
-9.5659698959
21
17.8949884342
31
0.0000000000
11
-9.6269470759
21
17.8951505558
31
0.0000000000
11
-9.6846580205
21
17.8953907649
31
0.0000000000
11
-9.7374808583
21
17.8957023379
31
0.0000000000
11
-9.7845287229
21
17.8960800107
31
0.0000000000
11
-9.8245216353
21
17.8965135626
31
0.0000000000
11
-9.8567433502
21
17.8969951643
31
0.0000000000
11
-9.8803587843
21
17.8975124422
31
0.0000000000
11
-9.8949103073
21
17.8980552268
31
0.0000000000
11
-9.9000422460
21
17.8986105563
31
0.0000000000
0
SPLINE
5
419
100
AcDbEntity
8
0
100
AcDbSpline
62
7
6
CONTINUOUS
70
0
71
3
72
10
73
6
74
4
42
0.0000001000
43
0.0000001000
44
0.0000000001
12
0.0176000091
22
0.0006200554
32
0.0000000000
13
0.0176109281
23
0.0000000000
33
0.0000000000
40
0.0000000000
40
0.0000000000
40
0.0000000000
40
0.0000000000
40
0.3333346336
40
0.6666679752
40
1.0000000000
40
1.0000000000
40
1.0000000000
40
1.0000000000
10
-16.1941095133
20
17.9644023574
30
0.0000000000
10
-16.1921539491
20
17.9644712527
30
0.0000000000
10
-16.1882419784
20
17.9645860674
30
0.0000000000
10
-16.1823724577
20
17.9646894223
30
0.0000000000
10
-16.1784588853
20
17.9647123894
30
0.0000000000
10
-16.1765021232
20
17.9647123894
30
0.0000000000
11
-16.1941095133
21
17.9644023574
31
0.0000000000
11
-16.1882417081
21
17.9645745898
31
0.0000000000
11
-16.1823723084
21
17.9646779384
31
0.0000000000
11
-16.1765021232
21
17.9647123894
31
0.0000000000
0
SPLINE
5
41A
100
AcDbEntity
8
0
100
AcDbSpline
62
7
6
CONTINUOUS
70
0
71
3
72
10
73
6
74
4
42
0.0000001000
43
0.0000001000
44
0.0000000001
12
-0.2121577388
22
0.0000000000
32
0.0000000000
13
-0.1934929502
23
-0.0874598153
33
0.0000000000
40
0.0000000000
40
0.0000000000
40
0.0000000000
40
0.0000000000
40
0.3362789996
40
0.6729116057
40
1.0000000000
40
1.0000000000
40
1.0000000000
40
1.0000000000
10
-16.1939571881
20
17.9559855216
30
0.0000000000
10
-16.2177385855
20
17.9559855216
30
0.0000000000
10
-16.2653961639
20
17.9525797942
30
0.0000000000
10
-16.3347229045
20
17.9374943125
30
0.0000000000
10
-16.3788776043
20
17.9211210563
30
0.0000000000
10
-16.3999740371
20
17.9115853595
30
0.0000000000
11
-16.1939571881
21
17.9559855216
31
0.0000000000
11
-16.2651196824
21
17.9508969887
31
0.0000000000
11
-16.3349063836
21
17.9357140954
31
0.0000000000
11
-16.3999740371
21
17.9115853595
31
0.0000000000
0
SPLINE
5
41B
100
AcDbEntity
8
0
100
AcDbSpline
62
7
6
CONTINUOUS
70
0
71
3
72
9
73
5
74
3
42
0.0000001000
43
0.0000001000
44
0.0000000001
12
-0.0177863767
22
-0.0080395344
32
0.0000000000
13
-0.0174587628
23
-0.0087278330
33
0.0000000000
40
0.0000000000
40
0.0000000000
40
0.0000000000
40
0.0000000000
40
0.0966270354
40
1.0000000000
40
1.0000000000
40
1.0000000000
40
1.0000000000
10
-16.3999740371
20
17.9115853595
30
0.0000000000
10
-16.4005469187
20
17.9113264140
30
0.0000000000
10
-16.4064706478
20
17.9086353754
30
0.0000000000
10
-16.4123415234
20
17.9058286575
30
0.0000000000
10
-16.4175987815
20
17.9032004947
30
0.0000000000
11
-16.3999740371
21
17.9115853595
31
0.0000000000
11
-16.4016912100
21
17.9108052798
31
0.0000000000
11
-16.4175987815
21
17.9032004947
31
0.0000000000
0
SPLINE
5
41C
100
AcDbEntity
8
0
100
AcDbSpline
62
9
6
CONTINUOUS
70
0
71
3
72
11
73
7
74
5
42
0.0000001000
43
0.0000001000
44
0.0000000001
12
-0.1499874720
22
-0.0007641438
32
0.0000000000
13
-0.1500005549
23
-0.0000000549
33
0.0000000000
40
0.0000000000
40
0.0000000000
40
0.0000000000
40
0.0000000000
40
0.2348264205
40
0.4826226358
40
0.7392368513
40
1.0000000000
40
1.0000000000
40
1.0000000000
40
1.0000000000
10
-14.1941095133
20
1.2504690917
30
0.0000000000
10
-14.2058498536
20
1.2504092780
30
0.0000000000
10
-14.2299821675
20
1.2503075164
30
0.0000000000
10
-14.2669434461
20
1.2501986819
30
0.0000000000
10
-14.3052023774
20
1.2501330153
30
0.0000000000
10
-14.3310713076
20
1.2501183414
30
0.0000000000
10
-14.3441095133
20
1.2501183367
30
0.0000000000
11
-14.1941095133
21
1.2504690917
31
0.0000000000
11
-14.2293332790
21
1.2503175209
31
0.0000000000
11
-14.2665026858
21
1.2502074553
31
0.0000000000
11
-14.3049949027
21
1.2501406844
31
0.0000000000
11
-14.3441095133
21
1.2501183367
31
0.0000000000
0
SPLINE
5
41D
100
AcDbEntity
8
0
100
AcDbSpline
62
9
6
CONTINUOUS
70
0
71
3
72
10
73
6
74
4
42
0.0000001000
43
0.0000001000
44
0.0000000001
12
-0.1499989671
22
-0.0002478384
32
0.0000000000
13
-0.1500002089
23
-0.0000000596
33
0.0000000000
40
0.0000000000
40
0.0000000000
40
0.0000000000
40
0.0000000000
40
0.1372900538
40
0.5648930180
40
1.0000000000
40
1.0000000000
40
1.0000000000
40
1.0000000000
10
-14.1941095134
20
1.0502466575
30
0.0000000000
10
-14.2009739688
20
1.0502353156
30
0.0000000000
10
-14.2292183784
20
1.0501921199
30
0.0000000000
10
-14.2792186364
20
1.0501406773
30
0.0000000000
10
-14.3223541339
20
1.0501259607
30
0.0000000000
10
-14.3441095133
20
1.0501259521
30
0.0000000000
11
-14.1941095134
21
1.0502466575
31
0.0000000000
11
-14.2147028798
21
1.0502151542
31
0.0000000000
11
-14.2788433789
21
1.0501483507
31
0.0000000000
11
-14.3441095133
21
1.0501259521
31
0.0000000000
0
SPLINE
5
41E
100
AcDbEntity
8
0
100
AcDbSpline
62
7
6
CONTINUOUS
70
0
71
3
72
10
73
6
74
4
42
0.0000001000
43
0.0000001000
44
0.0000000001
12
-0.0176109281
22
0.0000000000
32
0.0000000000
13
-0.0176000091
23
0.0006200554
33
0.0000000000
40
0.0000000000
40
0.0000000000
40
0.0000000000
40
0.0000000000
40
0.3333320248
40
0.6666653664
40
1.0000000000
40
1.0000000000
40
1.0000000000
40
1.0000000000
10
-16.1765021232
20
-26.8352876106
30
0.0000000000
10
-16.1784588853
20
-26.8352876106
30
0.0000000000
10
-16.1823724577
20
-26.8352646435
30
0.0000000000
10
-16.1882419784
20
-26.8351612887
30
0.0000000000
10
-16.1921539491
20
-26.8350464739
30
0.0000000000
10
-16.1941095133
20
-26.8349775786
30
0.0000000000
11
-16.1765021232
21
-26.8352876106
31
0.0000000000
11
-16.1823723084
21
-26.8352531596
31
0.0000000000
11
-16.1882417081
21
-26.8351498110
31
0.0000000000
11
-16.1941095133
21
-26.8349775786
31
0.0000000000
0
SPLINE
5
41F
100
AcDbEntity
8
0
100
AcDbSpline
62
7
6
CONTINUOUS
70
0
71
3
72
16
73
12
74
10
42
0.0000001000
43
0.0000001000
44
0.0000000001
12
0.0000000000
22
0.2000886283
32
0.0000000000
13
0.1789674357
23
0.0894769029
33
0.0000000000
40
0.0000000000
40
0.0000000000
40
0.0000000000
40
0.0000000000
40
0.1725327588
40
0.3401978753
40
0.4970698943
40
0.6396991821
40
0.7624356200
40
0.8628636708
40
0.9369772596
40
0.9832146050
40
1.0000000000
40
1.0000000000
40
1.0000000000
40
1.0000000000
10
-15.1714179289
20
1.0501259521
30
0.0000000000
10
-15.1714179289
20
1.0616332331
30
0.0000000000
10
-15.1713847897
20
1.0843238968
30
0.0000000000
10
-15.1712296546
20
1.1174731014
30
0.0000000000
10
-15.1709934047
20
1.1486409622
30
0.0000000000
10
-15.1706230187
20
1.1767669474
30
0.0000000000
10
-15.1703205430
20
1.2012615058
30
0.0000000000
10
-15.1695572018
20
1.2208074175
30
0.0000000000
10
-15.1697540034
20
1.2361804358
30
0.0000000000
10
-15.1679682147
20
1.2441056457
30
0.0000000000
10
-15.1689587267
20
1.2496177016
30
0.0000000000
10
-15.1679573803
20
1.2501183367
30
0.0000000000
11
-15.1714179289
21
1.0501259521
31
0.0000000000
11
-15.1713655302
21
1.0846477553
31
0.0000000000
11
-15.1712095156
21
1.1181952757
31
0.0000000000
11
-15.1709556782
21
1.1495825564
31
0.0000000000
11
-15.1706094244
21
1.1781189544
31
0.0000000000
11
-15.1701845828
21
1.2026734449
31
0.0000000000
11
-15.1696895183
21
1.2227618565
31
0.0000000000
11
-15.1691438441
21
1.2375810998
31
0.0000000000
11
-15.1685595827
21
1.2468141995
31
0.0000000000
11
-15.1679573803
21
1.2501183367
31
0.0000000000
0
SPLINE
5
420
100
AcDbEntity
8
0
100
AcDbSpline
62
9
6
CONTINUOUS
70
0
71
3
72
11
73
7
74
5
42
0.0000001000
43
0.0000001000
44
0.0000000001
12
0.1500005549
22
-0.0000000549
32
0.0000000000
13
0.1499874720
23
-0.0007641438
33
0.0000000000
40
0.0000000000
40
0.0000000000
40
0.0000000000
40
0.0000000000
40
0.2607631487
40
0.5173773642
40
0.7651735795
40
1.0000000000
40
1.0000000000
40
1.0000000000
40
1.0000000000
10
-14.3441095133
20
0.3793064421
30
0.0000000000
10
-14.3310713076
20
0.3793064373
30
0.0000000000
10
-14.3052023774
20
0.3792917634
30
0.0000000000
10
-14.2669434461
20
0.3792260968
30
0.0000000000
10
-14.2299821675
20
0.3791172623
30
0.0000000000
10
-14.2058498536
20
0.3790155008
30
0.0000000000
10
-14.1941095133
20
0.3789556870
30
0.0000000000
11
-14.3441095133
21
0.3793064421
31
0.0000000000
11
-14.3049949027
21
0.3792840943
31
0.0000000000
11
-14.2665026858
21
0.3792173235
31
0.0000000000
11
-14.2293332790
21
0.3791072579
31
0.0000000000
11
-14.1941095133
21
0.3789556870
31
0.0000000000
0
SPLINE
5
421
100
AcDbEntity
8
0
100
AcDbSpline
62
9
6
CONTINUOUS
70
0
71
3
72
10
73
6
74
4
42
0.0000001000
43
0.0000001000
44
0.0000000001
12
0.1500002089
22
-0.0000000596
32
0.0000000000
13
0.1499989671
23
-0.0002478384
33
0.0000000000
40
0.0000000000
40
0.0000000000
40
0.0000000000
40
0.0000000000
40
0.4351069820
40
0.8627099462
40
1.0000000000
40
1.0000000000
40
1.0000000000
40
1.0000000000
10
-14.3441095133
20
0.5792988267
30
0.0000000000
10
-14.3223541339
20
0.5792988181
30
0.0000000000
10
-14.2792186364
20
0.5792841015
30
0.0000000000
10
-14.2292183784
20
0.5792326589
30
0.0000000000
10
-14.2009739688
20
0.5791894632
30
0.0000000000
10
-14.1941095134
20
0.5791781213
30
0.0000000000
11
-14.3441095133
21
0.5792988267
31
0.0000000000
11
-14.2788433789
21
0.5792764280
31
0.0000000000
11
-14.2147028798
21
0.5792096245
31
0.0000000000
11
-14.1941095134
21
0.5791781213
31
0.0000000000
0
SPLINE
5
422
100
AcDbEntity
8
0
100
AcDbSpline
62
7
6
CONTINUOUS
70
0
71
3
72
16
73
12
74
10
42
0.0000001000
43
0.0000001000
44
0.0000000001
12
-0.1789674357
22
0.0894769029
32
0.0000000000
13
0.0000000000
23
0.2000886283
33
0.0000000000
40
0.0000000000
40
0.0000000000
40
0.0000000000
40
0.0000000000
40
0.0167853950
40
0.0630227404
40
0.1371363292
40
0.2375643800
40
0.3603008179
40
0.5029301057
40
0.6598021247
40
0.8274672412
40
1.0000000000
40
1.0000000000
40
1.0000000000
40
1.0000000000
10
-15.1679573803
20
0.3793064421
30
0.0000000000
10
-15.1689587267
20
0.3798070771
30
0.0000000000
10
-15.1679682147
20
0.3853191331
30
0.0000000000
10
-15.1697540034
20
0.3932443429
30
0.0000000000
10
-15.1695572018
20
0.4086173612
30
0.0000000000
10
-15.1703205430
20
0.4281632730
30
0.0000000000
10
-15.1706230187
20
0.4526578314
30
0.0000000000
10
-15.1709934047
20
0.4807838166
30
0.0000000000
10
-15.1712296546
20
0.5119516773
30
0.0000000000
10
-15.1713847897
20
0.5451008819
30
0.0000000000
10
-15.1714179289
20
0.5677915457
30
0.0000000000
10
-15.1714179289
20
0.5792988267
30
0.0000000000
11
-15.1679573803
21
0.3793064421
31
0.0000000000
11
-15.1685595827
21
0.3826105792
31
0.0000000000
11
-15.1691438441
21
0.3918436790
31
0.0000000000
11
-15.1696895183
21
0.4066629223
31
0.0000000000
11
-15.1701845828
21
0.4267513339
31
0.0000000000
11
-15.1706094244
21
0.4513058244
31
0.0000000000
11
-15.1709556782
21
0.4798422223
31
0.0000000000
11
-15.1712095156
21
0.5112295030
31
0.0000000000
11
-15.1713655302
21
0.5447770234
31
0.0000000000
11
-15.1714179289
21
0.5792988267
31
0.0000000000
0
SPLINE
5
423
100
AcDbEntity
8
0
100
AcDbSpline
62
9
6
CONTINUOUS
70
0
71
3
72
9
73
5
74
3
42
0.0000001000
43
0.0000001000
44
0.0000000001
12
0.0000000000
22
-0.0464794131
32
0.0000000000
13
-0.0107339614
23
-0.0452851040
33
0.0000000000
40
0.0000000000
40
0.0000000000
40
0.0000000000
40
0.0000000000
40
0.7500305494
40
1.0000000000
40
1.0000000000
40
1.0000000000
40
1.0000000000
10
-13.8441095133
20
-10.4233192336
30
0.0000000000
10
-13.8441095133
20
-10.4349395602
30
0.0000000000
10
-13.8454667560
20
-10.4504666515
30
0.0000000000
10
-13.8486060800
20
-10.4656673710
30
0.0000000000
10
-13.8495004675
20
-10.4694406685
30
0.0000000000
11
-13.8441095133
21
-10.4233192336
31
0.0000000000
11
-13.8471479627
21
-10.4580475468
31
0.0000000000
11
-13.8495004675
21
-10.4694406685
31
0.0000000000
0
SPLINE
5
424
100
AcDbEntity
8
0
100
AcDbSpline
62
9
6
CONTINUOUS
70
0
71
3
72
15
73
11
74
9
42
0.0000001000
43
0.0000001000
44
0.0000000001
12
-0.0617245880
22
-0.2604075304
32
0.0000000000
13
-0.2672752873
23
0.0000000000
33
0.0000000000
40
0.0000000000
40
0.0000000000
40
0.0000000000
40
0.0000000000
40
0.0869613703
40
0.2173932074
40
0.3478257914
40
0.4782592248
40
0.6086935075
40
0.7391285371
40
0.8695641211
40
1.0000000000
40
1.0000000000
40
1.0000000000
40
1.0000000000
10
-13.8495004675
20
-10.4694406685
30
0.0000000000
10
-13.8512896857
20
-10.4769891338
30
0.0000000000
10
-13.8568595369
20
-10.4955951115
30
0.0000000000
10
-13.8700229026
20
-10.5238249702
30
0.0000000000
10
-13.8901208517
20
-10.5525261321
30
0.0000000000
10
-13.9148978714
20
-10.5773021792
30
0.0000000000
10
-13.9436001256
20
-10.5973993154
30
0.0000000000
10
-13.9753592170
20
-10.6122071727
30
0.0000000000
10
-14.0091963255
20
-10.6212757574
30
0.0000000000
10
-14.0324887509
20
-10.6233116182
30
0.0000000000
10
-14.0441095133
20
-10.6233116182
30
0.0000000000
11
-13.8495004675
21
-10.4694406685
31
0.0000000000
11
-13.8561709891
21
-10.4917206577
31
0.0000000000
11
-13.8709044325
21
-10.5233154259
31
0.0000000000
11
-13.8909006247
21
-10.5518718605
31
0.0000000000
11
-13.9155519913
21
-10.5765222885
31
0.0000000000
11
-13.9441095133
21
-10.5965177193
31
0.0000000000
11
-13.9757054846
21
-10.6112506017
31
0.0000000000
11
-14.0093798777
21
-10.6202732845
31
0.0000000000
11
-14.0441095133
21
-10.6233116182
31
0.0000000000
0
SPLINE
5
425
100
AcDbEntity
8
0
100
AcDbSpline
62
7
6
CONTINUOUS
70
0
71
3
72
16
73
12
74
10
42
0.0000001000
43
0.0000001000
44
0.0000000001
12
0.0000000000
22
-0.3137666431
32
0.0000000000
13
-0.3137666431
23
0.0000000000
33
0.0000000000
40
0.0000000000
40
0.0000000000
40
0.0000000000
40
0.0000000000
40
0.1110699338
40
0.2223499386
40
0.3332217751
40
0.4446120787
40
0.5554129367
40
0.6668002543
40
0.7776663541
40
0.8889389884
40
1.0000000000
40
1.0000000000
40
1.0000000000
40
1.0000000000
10
-13.8441095133
20
-10.4852799949
30
0.0000000000
10
-13.8441095133
20
-10.4968966750
30
0.0000000000
10
-13.8461457417
20
-10.5202028364
30
0.0000000000
10
-13.8552138836
20
-10.5540295242
30
0.0000000000
10
-13.8700310837
20
-10.5858082717
30
0.0000000000
10
-13.8901143293
20
-10.6144885022
30
0.0000000000
10
-13.9149087923
20
-10.6392834300
30
0.0000000000
10
-13.9435879221
20
-10.6593666568
30
0.0000000000
10
-13.9753649307
20
-10.6741836017
30
0.0000000000
10
-14.0091893100
20
-10.6832514594
30
0.0000000000
10
-14.0324937663
20
-10.6852876106
30
0.0000000000
10
-14.0441095133
20
-10.6852876106
30
0.0000000000
11
-13.8441095133
21
-10.4852799949
31
0.0000000000
11
-13.8471455971
21
-10.5199975338
31
0.0000000000
11
-13.8561843284
21
-10.5537232680
31
0.0000000000
11
-13.8708860365
21
-10.5852519319
31
0.0000000000
11
-13.8909333528
21
-10.6138814074
31
0.0000000000
11
-13.9155161376
21
-10.6384646244
31
0.0000000000
11
-13.9441445150
21
-10.6585118754
31
0.0000000000
11
-13.9756713496
21
-10.6732132474
31
0.0000000000
11
-14.0093947720
21
-10.6822516713
31
0.0000000000
11
-14.0441095133
21
-10.6852876106
31
0.0000000000
0
SPLINE
5
426
100
AcDbEntity
8
0
100
AcDbSpline
62
7
6
CONTINUOUS
70
0
71
3
72
9
73
5
74
3
42
0.0000001000
43
0.0000001000
44
0.0000000001
12
-0.0174587628
22
0.0087278330
32
0.0000000000
13
-0.0177863767
23
0.0080395344
33
0.0000000000
40
0.0000000000
40
0.0000000000
40
0.0000000000
40
0.0000000000
40
0.9033729646
40
1.0000000000
40
1.0000000000
40
1.0000000000
40
1.0000000000
10
5.3293797550
20
17.9032004947
30
0.0000000000
10
5.3241224969
20
17.9058286575
30
0.0000000000
10
5.3182516212
20
17.9086353754
30
0.0000000000
10
5.3123278921
20
17.9113264140
30
0.0000000000
10
5.3117550105
20
17.9115853595
30
0.0000000000
11
5.3293797550
21
17.9032004947
31
0.0000000000
11
5.3134721834
21
17.9108052798
31
0.0000000000
11
5.3117550105
21
17.9115853595
31
0.0000000000
0
SPLINE
5
427
100
AcDbEntity
8
0
100
AcDbSpline
62
7
6
CONTINUOUS
70
0
71
3
72
10
73
6
74
4
42
0.0000001000
43
0.0000001000
44
0.0000000001
12
-0.1934929502
22
0.0874598153
32
0.0000000000
13
-0.2121577388
23
0.0000000000
33
0.0000000000
40
0.0000000000
40
0.0000000000
40
0.0000000000
40
0.0000000000
40
0.3270883943
40
0.6637210004
40
1.0000000000
40
1.0000000000
40
1.0000000000
40
1.0000000000
10
5.3117550105
20
17.9115853595
30
0.0000000000
10
5.2906585777
20
17.9211210563
30
0.0000000000
10
5.2465038780
20
17.9374943125
30
0.0000000000
10
5.1771771373
20
17.9525797942
30
0.0000000000
10
5.1295195590
20
17.9559855216
30
0.0000000000
10
5.1057381616
20
17.9559855216
30
0.0000000000
11
5.3117550105
21
17.9115853595
31
0.0000000000
11
5.2466873571
21
17.9357140954
31
0.0000000000
11
5.1769006558
21
17.9508969887
31
0.0000000000
11
5.1057381616
21
17.9559855216
31
0.0000000000
0
SPLINE
5
428
100
AcDbEntity
8
0
100
AcDbSpline
62
9
6
CONTINUOUS
70
0
71
3
72
19
73
15
74
13
42
0.0000001000
43
0.0000001000
44
0.0000000001
12
0.3000420231
22
-0.0000001098
32
0.0000000000
13
0.0014706961
23
-0.3000384186
33
0.0000000000
40
0.0000000000
40
0.0000000000
40
0.0000000000
40
0.0000000000
40
0.1303637957
40
0.2586534077
40
0.3825346209
40
0.4998629767
40
0.6086392977
40
0.7070062059
40
0.7932712731
40
0.8659513889
40
0.9238097827
40
0.9658614993
40
0.9913884215
40
1.0000000000
40
1.0000000000
40
1.0000000000
40
1.0000000000
10
-14.3441095133
20
-10.6206935579
30
0.0000000000
10
-14.3310713076
20
-10.6206935627
30
0.0000000000
10
-14.3052023774
20
-10.6207082366
30
0.0000000000
10
-14.2669434461
20
-10.6207739032
30
0.0000000000
10
-14.2299890528
20
-10.6208827174
30
0.0000000000
10
-14.1949839767
20
-10.6210303147
30
0.0000000000
10
-14.1625390799
20
-10.6212219728
30
0.0000000000
10
-14.1331748369
20
-10.6214279950
30
0.0000000000
10
-14.1075027615
20
-10.6217258024
30
0.0000000000
10
-14.0856437546
20
-10.6218673540
30
0.0000000000
10
-14.0688543408
20
-10.6225161311
30
0.0000000000
10
-14.0552252429
20
-10.6219933007
30
0.0000000000
10
-14.0495462013
20
-10.6237427150
30
0.0000000000
10
-14.0441137349
20
-10.6224503501
30
0.0000000000
10
-14.0441095133
20
-10.6233116182
30
0.0000000000
11
-14.3441095133
21
-10.6206935579
31
0.0000000000
11
-14.3049949027
21
-10.6207159057
31
0.0000000000
11
-14.2665026858
21
-10.6207826765
31
0.0000000000
11
-14.2293332790
21
-10.6208927421
31
0.0000000000
11
-14.1941301676
21
-10.6210442077
31
0.0000000000
11
-14.1614932549
21
-10.6212344899
31
0.0000000000
11
-14.1319799129
21
-10.6214603488
31
0.0000000000
11
-14.1060980491
21
-10.6217179062
31
0.0000000000
11
-14.0842928202
21
-10.6220027256
31
0.0000000000
11
-14.0669355893
21
-10.6223099424
31
0.0000000000
11
-14.0543224776
21
-10.6226343210
31
0.0000000000
11
-14.0466706984
21
-10.6229702443
31
0.0000000000
11
-14.0441095133
21
-10.6233116182
31
0.0000000000
0
SPLINE
5
429
100
AcDbEntity
8
0
100
AcDbSpline
62
7
6
CONTINUOUS
70
0
71
3
72
10
73
6
74
4
42
0.0000001000
43
0.0000001000
44
0.0000000001
12
0.0176109281
22
0.0000000000
32
0.0000000000
13
0.0176000091
23
-0.0006200554
33
0.0000000000
40
0.0000000000
40
0.0000000000
40
0.0000000000
40
0.0000000000
40
0.3333320248
40
0.6666653664
40
1.0000000000
40
1.0000000000
40
1.0000000000
40
1.0000000000
10
5.0882830967
20
17.9647123894
30
0.0000000000
10
5.0902398588
20
17.9647123894
30
0.0000000000
10
5.0941534312
20
17.9646894223
30
0.0000000000
10
5.1000229519
20
17.9645860674
30
0.0000000000
10
5.1039349225
20
17.9644712527
30
0.0000000000
10
5.1058904867
20
17.9644023574
30
0.0000000000
11
5.0882830967
21
17.9647123894
31
0.0000000000
11
5.0941532819
21
17.9646779384
31
0.0000000000
11
5.1000226816
21
17.9645745898
31
0.0000000000
11
5.1058904867
21
17.9644023574
31
0.0000000000
0
SPLINE
5
42A
100
AcDbEntity
8
0
100
AcDbSpline
62
9
6
CONTINUOUS
70
0
71
3
72
19
73
15
74
13
42
0.0000001000
43
0.0000001000
44
0.0000000001
12
0.5000252463
22
-0.0000001986
32
0.0000000000
13
0.0018945193
23
-0.5000216573
33
0.0000000000
40
0.0000000000
40
0.0000000000
40
0.0000000000
40
0.0000000000
40
0.1305256858
40
0.2588002768
40
0.3826628505
40
0.4999703528
40
0.6087248185
40
0.7070704565
40
0.7933176971
40
0.8659869713
40
0.9238405402
40
0.9658918384
40
0.9914168788
40
1.0000000000
40
1.0000000000
40
1.0000000000
40
1.0000000000
10
-14.3441095133
20
-10.4207011733
30
0.0000000000
10
-14.3223541339
20
-10.4207011819
30
0.0000000000
10
-14.2792186364
20
-10.4207158985
30
0.0000000000
10
-14.2154380341
20
-10.4207815190
30
0.0000000000
10
-14.1538618375
20
-10.4208907274
30
0.0000000000
10
-14.0955351175
20
-10.4210370234
30
0.0000000000
10
-14.0414754086
20
-10.4212329538
30
0.0000000000
10
-13.9925481309
20
-10.4214251671
30
0.0000000000
10
-13.9497738878
20
-10.4217650067
30
0.0000000000
10
-13.9133443898
20
-10.4217851698
30
0.0000000000
10
-13.8853775376
20
-10.4227552211
30
0.0000000000
10
-13.8626319720
20
-10.4214883286
30
0.0000000000
10
-13.8532197729
20
-10.4245615896
30
0.0000000000
10
-13.8441149336
20
-10.4218886515
30
0.0000000000
10
-13.8441095133
20
-10.4233192336
30
0.0000000000
11
-14.3441095133
21
-10.4207011733
31
0.0000000000
11
-14.2788433789
21
-10.4207235720
31
0.0000000000
11
-14.2147028798
21
-10.4207903755
31
0.0000000000
11
-14.1527685636
21
-10.4209004564
31
0.0000000000
11
-14.0941120465
21
-10.4210519146
31
0.0000000000
11
-14.0397324008
21
-10.4212421689
31
0.0000000000
11
-13.9905576173
21
-10.4214679766
31
0.0000000000
11
-13.9474325883
21
-10.4217254640
31
0.0000000000
11
-13.9110972323
21
-10.4220102074
31
0.0000000000
11
-13.8821706177
21
-10.4223173424
31
0.0000000000
11
-13.8611464082
21
-10.4226416514
31
0.0000000000
11
-13.8483876627
21
-10.4229774889
31
0.0000000000
11
-13.8441095133
21
-10.4233192336
31
0.0000000000
0
SPLINE
5
42B
100
AcDbEntity
8
0
100
AcDbSpline
62
7
6
CONTINUOUS
70
0
71
3
72
10
73
6
74
4
42
0.0000001000
43
0.0000001000
44
0.0000000001
12
-0.0176000091
22
-0.0006200554
32
0.0000000000
13
-0.0176109281
23
0.0000000000
33
0.0000000000
40
0.0000000000
40
0.0000000000
40
0.0000000000
40
0.0000000000
40
0.3333346336
40
0.6666679752
40
1.0000000000
40
1.0000000000
40
1.0000000000
40
1.0000000000
10
5.1058904867
20
-26.8349775786
30
0.0000000000
10
5.1039349225
20
-26.8350464739
30
0.0000000000
10
5.1000229519
20
-26.8351612887
30
0.0000000000
10
5.0941534312
20
-26.8352646435
30
0.0000000000
10
5.0902398588
20
-26.8352876106
30
0.0000000000
10
5.0882830967
20
-26.8352876106
30
0.0000000000
11
5.1058904867
21
-26.8349775786
31
0.0000000000
11
5.1000226816
21
-26.8351498110
31
0.0000000000
11
5.0941532819
21
-26.8352531596
31
0.0000000000
11
5.0882830967
21
-26.8352876106
31
0.0000000000
0
SPLINE
5
42C
100
AcDbEntity
8
0
100
AcDbSpline
62
7
6
CONTINUOUS
70
0
71
3
72
10
73
6
74
4
42
0.0000001000
43
0.0000001000
44
0.0000000001
12
0.2121577388
22
0.0000000000
32
0.0000000000
13
0.1934929502
23
0.0874598153
33
0.0000000000
40
0.0000000000
40
0.0000000000
40
0.0000000000
40
0.0000000000
40
0.3362789996
40
0.6729116057
40
1.0000000000
40
1.0000000000
40
1.0000000000
40
1.0000000000
10
5.1057381616
20
-26.8265607428
30
0.0000000000
10
5.1295195590
20
-26.8265607428
30
0.0000000000
10
5.1771771373
20
-26.8231550155
30
0.0000000000
10
5.2465038780
20
-26.8080695338
30
0.0000000000
10
5.2906585777
20
-26.7916962776
30
0.0000000000
10
5.3117550105
20
-26.7821605807
30
0.0000000000
11
5.1057381616
21
-26.8265607428
31
0.0000000000
11
5.1769006558
21
-26.8214722099
31
0.0000000000
11
5.2466873571
21
-26.8062893166
31
0.0000000000
11
5.3117550105
21
-26.7821605807
31
0.0000000000
0
SPLINE
5
42D
100
AcDbEntity
8
0
100
AcDbSpline
62
7
6
CONTINUOUS
70
0
71
3
72
9
73
5
74
3
42
0.0000001000
43
0.0000001000
44
0.0000000001
12
0.0177863767
22
0.0080395344
32
0.0000000000
13
0.0174587628
23
0.0087278330
33
0.0000000000
40
0.0000000000
40
0.0000000000
40
0.0000000000
40
0.0000000000
40
0.0966270354
40
1.0000000000
40
1.0000000000
40
1.0000000000
40
1.0000000000
10
5.3117550105
20
-26.7821605807
30
0.0000000000
10
5.3123278921
20
-26.7819016353
30
0.0000000000
10
5.3182516212
20
-26.7792105966
30
0.0000000000
10
5.3241224969
20
-26.7764038787
30
0.0000000000
10
5.3293797550
20
-26.7737757159
30
0.0000000000
11
5.3117550105
21
-26.7821605807
31
0.0000000000
11
5.3134721834
21
-26.7813805010
31
0.0000000000
11
5.3293797550
21
-26.7737757159
31
0.0000000000
0
SPLINE
5
42E
100
AcDbEntity
8
0
100
AcDbSpline
62
7
6
CONTINUOUS
70
0
71
3
72
16
73
12
74
10
42
0.0000001000
43
0.0000001000
44
0.0000000001
12
-0.1789674357
22
0.0894769029
32
0.0000000000
13
0.0000000000
23
0.2000886283
33
0.0000000000
40
0.0000000000
40
0.0000000000
40
0.0000000000
40
0.0000000000
40
0.0167853950
40
0.0630227404
40
0.1371363292
40
0.2375643800
40
0.3603008179
40
0.5029301057
40
0.6598021247
40
0.8274672412
40
1.0000000000
40
1.0000000000
40
1.0000000000
40
1.0000000000
10
-15.1679573803
20
-10.6206935579
30
0.0000000000
10
-15.1689587267
20
-10.6201929229
30
0.0000000000
10
-15.1679682147
20
-10.6146808669
30
0.0000000000
10
-15.1697540034
20
-10.6067556571
30
0.0000000000
10
-15.1695572018
20
-10.5913826388
30
0.0000000000
10
-15.1703205430
20
-10.5718367270
30
0.0000000000
10
-15.1706230187
20
-10.5473421686
30
0.0000000000
10
-15.1709934047
20
-10.5192161834
30
0.0000000000
10
-15.1712296546
20
-10.4880483227
30
0.0000000000
10
-15.1713847897
20
-10.4548991181
30
0.0000000000
10
-15.1714179289
20
-10.4322084543
30
0.0000000000
10
-15.1714179289
20
-10.4207011733
30
0.0000000000
11
-15.1679573803
21
-10.6206935579
31
0.0000000000
11
-15.1685595827
21
-10.6173894208
31
0.0000000000
11
-15.1691438441
21
-10.6081563210
31
0.0000000000
11
-15.1696895183
21
-10.5933370777
31
0.0000000000
11
-15.1701845828
21
-10.5732486661
31
0.0000000000
11
-15.1706094244
21
-10.5486941756
31
0.0000000000
11
-15.1709556782
21
-10.5201577777
31
0.0000000000
11
-15.1712095156
21
-10.4887704970
31
0.0000000000
11
-15.1713655302
21
-10.4552229766
31
0.0000000000
11
-15.1714179289
21
-10.4207011733
31
0.0000000000
0
SPLINE
5
42F
100
AcDbEntity
8
0
100
AcDbSpline
62
9
6
CONTINUOUS
70
0
71
3
72
9
73
5
74
3
42
0.0000001000
43
0.0000001000
44
0.0000000001
12
0.0000000000
22
0.0464794517
32
0.0000000000
13
-0.0107339792
23
0.0452851396
33
0.0000000000
40
0.0000000000
40
0.0000000000
40
0.0000000000
40
0.0000000000
40
0.7500305622
40
1.0000000000
40
1.0000000000
40
1.0000000000
40
1.0000000000
10
-13.8441095133
20
-9.9472559876
30
0.0000000000
10
-13.8441095133
20
-9.9356356512
30
0.0000000000
10
-13.8454667583
20
-9.9201085469
30
0.0000000000
10
-13.8486060875
20
-9.9049078152
30
0.0000000000
10
-13.8495004764
20
-9.9011345149
30
0.0000000000
11
-13.8441095133
21
-9.9472559876
31
0.0000000000
11
-13.8471479678
21
-9.9125276452
31
0.0000000000
11
-13.8495004764
21
-9.9011345149
31
0.0000000000
0
SPLINE
5
430
100
AcDbEntity
8
0
100
AcDbSpline
62
9
6
CONTINUOUS
70
0
71
3
72
15
73
11
74
9
42
0.0000001000
43
0.0000001000
44
0.0000000001
12
-0.0617246297
22
0.2604074812
32
0.0000000000
13
-0.2672752486
23
0.0000000000
33
0.0000000000
40
0.0000000000
40
0.0000000000
40
0.0000000000
40
0.0000000000
40
0.0869614452
40
0.2173933761
40
0.3478260264
40
0.4782594929
40
0.6086937714
40
0.7391287560
40
0.8695642523
40
1.0000000000
40
1.0000000000
40
1.0000000000
40
1.0000000000
10
-13.8495004764
20
-9.9011345149
30
0.0000000000
10
-13.8512896974
20
-9.8935860446
30
0.0000000000
10
-13.8568595566
20
-9.8749800564
30
0.0000000000
10
-13.8700229386
20
-9.8467501868
30
0.0000000000
10
-13.8901209066
20
-9.8180490231
30
0.0000000000
10
-13.9148979398
20
-9.7932729847
30
0.0000000000
10
-13.9436001977
20
-9.7731758651
30
0.0000000000
10
-13.9753592789
20
-9.7583680275
30
0.0000000000
10
-14.0091963619
20
-9.7492994595
30
0.0000000000
10
-14.0324887643
20
-9.7472636030
30
0.0000000000
10
-14.0441095133
20
-9.7472636030
30
0.0000000000
11
-13.8495004764
21
-9.9011345149
31
0.0000000000
11
-13.8561710081
21
-9.8788545114
31
0.0000000000
11
-13.8709044703
21
-9.8472597298
31
0.0000000000
11
-13.8909006814
21
-9.8187032931
31
0.0000000000
11
-13.9155520620
21
-9.7940528735
31
0.0000000000
11
-13.9441095877
21
-9.7740574590
31
0.0000000000
11
-13.9757055493
21
-9.7593245960
31
0.0000000000
11
-14.0093799174
21
-9.7503019297
31
0.0000000000
11
-14.0441095133
21
-9.7472636030
31
0.0000000000
0
SPLINE
5
431
100
AcDbEntity
8
0
100
AcDbSpline
62
7
6
CONTINUOUS
70
0
71
3
72
16
73
12
74
10
42
0.0000001000
43
0.0000001000
44
0.0000000001
12
0.3137666431
22
0.0000000000
32
0.0000000000
13
-0.0000000000
23
-0.3137666431
33
0.0000000000
40
0.0000000000
40
0.0000000000
40
0.0000000000
40
0.0000000000
40
0.1110610116
40
0.2223336459
40
0.3331997457
40
0.4445870633
40
0.5553879213
40
0.6667782249
40
0.7776500614
40
0.8889300662
40
1.0000000000
40
1.0000000000
40
1.0000000000
40
1.0000000000
10
-14.0441095133
20
-9.6852876106
30
0.0000000000
10
-14.0324937663
20
-9.6852876106
30
0.0000000000
10
-14.0091893100
20
-9.6873237619
30
0.0000000000
10
-13.9753649307
20
-9.6963916195
30
0.0000000000
10
-13.9435879221
20
-9.7112085644
30
0.0000000000
10
-13.9149087923
20
-9.7312917913
30
0.0000000000
10
-13.8901143293
20
-9.7560867190
30
0.0000000000
10
-13.8700310837
20
-9.7847669496
30
0.0000000000
10
-13.8552138836
20
-9.8165456970
30
0.0000000000
10
-13.8461457417
20
-9.8503723848
30
0.0000000000
10
-13.8441095133
20
-9.8736785462
30
0.0000000000
10
-13.8441095133
20
-9.8852952263
30
0.0000000000
11
-14.0441095133
21
-9.6852876106
31
0.0000000000
11
-14.0093947720
21
-9.6883235499
31
0.0000000000
11
-13.9756713496
21
-9.6973619738
31
0.0000000000
11
-13.9441445150
21
-9.7120633458
31
0.0000000000
11
-13.9155161376
21
-9.7321105969
31
0.0000000000
11
-13.8909333528
21
-9.7566938138
31
0.0000000000
11
-13.8708860365
21
-9.7853232893
31
0.0000000000
11
-13.8561843284
21
-9.8168519533
31
0.0000000000
11
-13.8471455971
21
-9.8505776875
31
0.0000000000
11
-13.8441095133
21
-9.8852952263
31
0.0000000000
0
SPLINE
5
432
100
AcDbEntity
8
0
100
AcDbSpline
62
9
6
CONTINUOUS
70
0
71
3
72
19
73
15
74
13
42
0.0000001000
43
0.0000001000
44
0.0000000001
12
-0.0014707264
22
-0.3000384185
32
0.0000000000
13
-0.3000420231
23
-0.0000001098
33
0.0000000000
40
0.0000000000
40
0.0000000000
40
0.0000000000
40
0.0000000000
40
0.0086115786
40
0.0341385007
40
0.0761902173
40
0.1340486111
40
0.2067287269
40
0.2929937941
40
0.3913607023
40
0.5001370233
40
0.6174653791
40
0.7413465923
40
0.8696362043
40
1.0000000000
40
1.0000000000
40
1.0000000000
40
1.0000000000
10
-14.0441095133
20
-9.7472636030
30
0.0000000000
10
-14.0441137350
20
-9.7481248711
30
0.0000000000
10
-14.0495462012
20
-9.7468325062
30
0.0000000000
10
-14.0552252430
20
-9.7485819205
30
0.0000000000
10
-14.0688543407
20
-9.7480590902
30
0.0000000000
10
-14.0856437546
20
-9.7487078673
30
0.0000000000
10
-14.1075027615
20
-9.7488494188
30
0.0000000000
10
-14.1331748369
20
-9.7491472262
30
0.0000000000
10
-14.1625390799
20
-9.7493532485
30
0.0000000000
10
-14.1949839767
20
-9.7495449065
30
0.0000000000
10
-14.2299890528
20
-9.7496925039
30
0.0000000000
10
-14.2669434461
20
-9.7498013181
30
0.0000000000
10
-14.3052023774
20
-9.7498669847
30
0.0000000000
10
-14.3310713076
20
-9.7498816586
30
0.0000000000
10
-14.3441095133
20
-9.7498816633
30
0.0000000000
11
-14.0441095133
21
-9.7472636030
31
0.0000000000
11
-14.0466706984
21
-9.7476049769
31
0.0000000000
11
-14.0543224776
21
-9.7479409003
31
0.0000000000
11
-14.0669355893
21
-9.7482652788
31
0.0000000000
11
-14.0842928202
21
-9.7485724957
31
0.0000000000
11
-14.1060980491
21
-9.7488573150
31
0.0000000000
11
-14.1319799129
21
-9.7491148725
31
0.0000000000
11
-14.1614932549
21
-9.7493407313
31
0.0000000000
11
-14.1941301676
21
-9.7495310135
31
0.0000000000
11
-14.2293332790
21
-9.7496824791
31
0.0000000000
11
-14.2665026858
21
-9.7497925447
31
0.0000000000
11
-14.3049949027
21
-9.7498593156
31
0.0000000000
11
-14.3441095133
21
-9.7498816633
31
0.0000000000
0
SPLINE
5
433
100
AcDbEntity
8
0
100
AcDbSpline
62
9
6
CONTINUOUS
70
0
71
3
72
19
73
15
74
13
42
0.0000001000
43
0.0000001000
44
0.0000000001
12
-0.0018945140
22
-0.5000216573
32
0.0000000000
13
-0.5000252463
23
-0.0000001986
33
0.0000000000
40
0.0000000000
40
0.0000000000
40
0.0000000000
40
0.0000000000
40
0.0085831212
40
0.0341081616
40
0.0761594598
40
0.1340130287
40
0.2066823029
40
0.2929295435
40
0.3912751815
40
0.5000296472
40
0.6173371495
40
0.7411997232
40
0.8694743142
40
1.0000000000
40
1.0000000000
40
1.0000000000
40
1.0000000000
10
-13.8441095133
20
-9.9472559876
30
0.0000000000
10
-13.8441149336
20
-9.9486865698
30
0.0000000000
10
-13.8532197729
20
-9.9460136316
30
0.0000000000
10
-13.8626319720
20
-9.9490868926
30
0.0000000000
10
-13.8853775376
20
-9.9478200002
30
0.0000000000
10
-13.9133443897
20
-9.9487900515
30
0.0000000000
10
-13.9497738878
20
-9.9488102145
30
0.0000000000
10
-13.9925481309
20
-9.9491500541
30
0.0000000000
10
-14.0414754086
20
-9.9493422674
30
0.0000000000
10
-14.0955351175
20
-9.9495381979
30
0.0000000000
10
-14.1538618375
20
-9.9496844939
30
0.0000000000
10
-14.2154380341
20
-9.9497937022
30
0.0000000000
10
-14.2792186364
20
-9.9498593227
30
0.0000000000
10
-14.3223541339
20
-9.9498740393
30
0.0000000000
10
-14.3441095133
20
-9.9498740479
30
0.0000000000
11
-13.8441095133
21
-9.9472559876
31
0.0000000000
11
-13.8483876627
21
-9.9475977324
31
0.0000000000
11
-13.8611464082
21
-9.9479335698
31
0.0000000000
11
-13.8821706177
21
-9.9482578788
31
0.0000000000
11
-13.9110972323
21
-9.9485650138
31
0.0000000000
11
-13.9474325883
21
-9.9488497572
31
0.0000000000
11
-13.9905576173
21
-9.9491072446
31
0.0000000000
11
-14.0397324008
21
-9.9493330524
31
0.0000000000
11
-14.0941120465
21
-9.9495233067
31
0.0000000000
11
-14.1527685636
21
-9.9496747648
31
0.0000000000
11
-14.2147028798
21
-9.9497848458
31
0.0000000000
11
-14.2788433789
21
-9.9498516493
31
0.0000000000
11
-14.3441095133
21
-9.9498740479
31
0.0000000000
0
SPLINE
5
434
100
AcDbEntity
8
0
100
AcDbSpline
62
7
6
CONTINUOUS
70
0
71
3
72
16
73
12
74
10
42
0.0000001000
43
0.0000001000
44
0.0000000001
12
0.0000000000
22
0.2000886283
32
0.0000000000
13
0.1789674357
23
0.0894769029
33
0.0000000000
40
0.0000000000
40
0.0000000000
40
0.0000000000
40
0.0000000000
40
0.1725327588
40
0.3401978753
40
0.4970698943
40
0.6396991821
40
0.7624356200
40
0.8628636708
40
0.9369772596
40
0.9832146050
40
1.0000000000
40
1.0000000000
40
1.0000000000
40
1.0000000000
10
-15.1714179289
20
-9.9498740479
30
0.0000000000
10
-15.1714179289
20
-9.9383667669
30
0.0000000000
10
-15.1713847897
20
-9.9156761032
30
0.0000000000
10
-15.1712296546
20
-9.8825268986
30
0.0000000000
10
-15.1709934047
20
-9.8513590378
30
0.0000000000
10
-15.1706230187
20
-9.8232330526
30
0.0000000000
10
-15.1703205430
20
-9.7987384942
30
0.0000000000
10
-15.1695572018
20
-9.7791925825
30
0.0000000000
10
-15.1697540034
20
-9.7638195642
30
0.0000000000
10
-15.1679682147
20
-9.7558943543
30
0.0000000000
10
-15.1689587267
20
-9.7503822984
30
0.0000000000
10
-15.1679573803
20
-9.7498816633
30
0.0000000000
11
-15.1714179289
21
-9.9498740479
31
0.0000000000
11
-15.1713655302
21
-9.9153522447
31
0.0000000000
11
-15.1712095156
21
-9.8818047243
31
0.0000000000
11
-15.1709556782
21
-9.8504174436
31
0.0000000000
11
-15.1706094244
21
-9.8218810456
31
0.0000000000
11
-15.1701845828
21
-9.7973265551
31
0.0000000000
11
-15.1696895183
21
-9.7772381435
31
0.0000000000
11
-15.1691438441
21
-9.7624189002
31
0.0000000000
11
-15.1685595827
21
-9.7531858005
31
0.0000000000
11
-15.1679573803
21
-9.7498816633
31
0.0000000000
0
SPLINE
5
435
100
AcDbEntity
8
0
100
AcDbSpline
62
7
6
CONTINUOUS
70
0
71
3
72
16
73
12
74
10
42
0.0000001000
43
0.0000001000
44
0.0000000001
12
-0.3137666431
22
0.0000000000
32
0.0000000000
13
0.0000000000
23
0.3137666431
33
0.0000000000
40
0.0000000000
40
0.0000000000
40
0.0000000000
40
0.0000000000
40
0.1110610116
40
0.2223336459
40
0.3331997457
40
0.4445870633
40
0.5553879213
40
0.6667782249
40
0.7776500614
40
0.8889300662
40
1.0000000000
40
1.0000000000
40
1.0000000000
40
1.0000000000
10
2.9558904867
20
-10.6852876106
30
0.0000000000
10
2.9442747398
20
-10.6852876106
30
0.0000000000
10
2.9209702835
20
-10.6832514594
30
0.0000000000
10
2.8871459042
20
-10.6741836017
30
0.0000000000
10
2.8553688956
20
-10.6593666568
30
0.0000000000
10
2.8266897658
20
-10.6392834300
30
0.0000000000
10
2.8018953027
20
-10.6144885022
30
0.0000000000
10
2.7818120572
20
-10.5858082717
30
0.0000000000
10
2.7669948570
20
-10.5540295242
30
0.0000000000
10
2.7579267151
20
-10.5202028364
30
0.0000000000
10
2.7558904867
20
-10.4968966750
30
0.0000000000
10
2.7558904867
20
-10.4852799949
30
0.0000000000
11
2.9558904867
21
-10.6852876106
31
0.0000000000
11
2.9211757454
21
-10.6822516713
31
0.0000000000
11
2.8874523231
21
-10.6732132474
31
0.0000000000
11
2.8559254885
21
-10.6585118754
31
0.0000000000
11
2.8272971111
21
-10.6384646244
31
0.0000000000
11
2.8027143262
21
-10.6138814074
31
0.0000000000
11
2.7826670099
21
-10.5852519319
31
0.0000000000
11
2.7679653018
21
-10.5537232680
31
0.0000000000
11
2.7589265705
21
-10.5199975338
31
0.0000000000
11
2.7558904867
21
-10.4852799949
31
0.0000000000
0
SPLINE
5
436
100
AcDbEntity
8
0
100
AcDbSpline
62
9
6
CONTINUOUS
70
0
71
3
72
19
73
15
74
13
42
0.0000001000
43
0.0000001000
44
0.0000000001
12
0.0014707264
22
0.3000384185
32
0.0000000000
13
0.3000420231
23
0.0000001098
33
0.0000000000
40
0.0000000000
40
0.0000000000
40
0.0000000000
40
0.0000000000
40
0.0086115786
40
0.0341385007
40
0.0761902173
40
0.1340486111
40
0.2067287269
40
0.2929937941
40
0.3913607023
40
0.5001370233
40
0.6174653791
40
0.7413465923
40
0.8696362043
40
1.0000000000
40
1.0000000000
40
1.0000000000
40
1.0000000000
10
2.9558904867
20
-10.6233116182
30
0.0000000000
10
2.9558947085
20
-10.6224503501
30
0.0000000000
10
2.9613271746
20
-10.6237427150
30
0.0000000000
10
2.9670062165
20
-10.6219933007
30
0.0000000000
10
2.9806353142
20
-10.6225161311
30
0.0000000000
10
2.9974247281
20
-10.6218673540
30
0.0000000000
10
3.0192837349
20
-10.6217258024
30
0.0000000000
10
3.0449558104
20
-10.6214279950
30
0.0000000000
10
3.0743200534
20
-10.6212219728
30
0.0000000000
10
3.1067649502
20
-10.6210303147
30
0.0000000000
10
3.1417700262
20
-10.6208827174
30
0.0000000000
10
3.1787244196
20
-10.6207739032
30
0.0000000000
10
3.2169833508
20
-10.6207082366
30
0.0000000000
10
3.2428522811
20
-10.6206935627
30
0.0000000000
10
3.2558904867
20
-10.6206935579
30
0.0000000000
11
2.9558904867
21
-10.6233116182
31
0.0000000000
11
2.9584516719
21
-10.6229702443
31
0.0000000000
11
2.9661034511
21
-10.6226343210
31
0.0000000000
11
2.9787165628
21
-10.6223099424
31
0.0000000000
11
2.9960737937
21
-10.6220027256
31
0.0000000000
11
3.0178790226
21
-10.6217179062
31
0.0000000000
11
3.0437608864
21
-10.6214603488
31
0.0000000000
11
3.0732742283
21
-10.6212344899
31
0.0000000000
11
3.1059111410
21
-10.6210442077
31
0.0000000000
11
3.1411142524
21
-10.6208927421
31
0.0000000000
11
3.1782836593
21
-10.6207826765
31
0.0000000000
11
3.2167758761
21
-10.6207159057
31
0.0000000000
11
3.2558904867
21
-10.6206935579
31
0.0000000000
0
SPLINE
5
437
100
AcDbEntity
8
0
100
AcDbSpline
62
9
6
CONTINUOUS
70
0
71
3
72
19
73
15
74
13
42
0.0000001000
43
0.0000001000
44
0.0000000001
12
0.0018945140
22
0.5000216573
32
0.0000000000
13
0.5000252463
23
0.0000001986
33
0.0000000000
40
0.0000000000
40
0.0000000000
40
0.0000000000
40
0.0000000000
40
0.0085831212
40
0.0341081616
40
0.0761594598
40
0.1340130287
40
0.2066823029
40
0.2929295435
40
0.3912751815
40
0.5000296472
40
0.6173371495
40
0.7411997232
40
0.8694743142
40
1.0000000000
40
1.0000000000
40
1.0000000000
40
1.0000000000
10
2.7558904867
20
-10.4233192336
30
0.0000000000
10
2.7558959070
20
-10.4218886515
30
0.0000000000
10
2.7650007464
20
-10.4245615896
30
0.0000000000
10
2.7744129454
20
-10.4214883286
30
0.0000000000
10
2.7971585111
20
-10.4227552211
30
0.0000000000
10
2.8251253632
20
-10.4217851698
30
0.0000000000
10
2.8615548612
20
-10.4217650067
30
0.0000000000
10
2.9043291043
20
-10.4214251671
30
0.0000000000
10
2.9532563821
20
-10.4212329538
30
0.0000000000
10
3.0073160910
20
-10.4210370234
30
0.0000000000
10
3.0656428110
20
-10.4208907274
30
0.0000000000
10
3.1272190075
20
-10.4207815190
30
0.0000000000
10
3.1909996098
20
-10.4207158985
30
0.0000000000
10
3.2341351073
20
-10.4207011819
30
0.0000000000
10
3.2558904867
20
-10.4207011733
30
0.0000000000
11
2.7558904867
21
-10.4233192336
31
0.0000000000
11
2.7601686362
21
-10.4229774889
31
0.0000000000
11
2.7729273816
21
-10.4226416514
31
0.0000000000
11
2.7939515912
21
-10.4223173424
31
0.0000000000
11
2.8228782057
21
-10.4220102074
31
0.0000000000
11
2.8592135618
21
-10.4217254640
31
0.0000000000
11
2.9023385908
21
-10.4214679766
31
0.0000000000
11
2.9515133742
21
-10.4212421689
31
0.0000000000
11
3.0058930199
21
-10.4210519146
31
0.0000000000
11
3.0645495371
21
-10.4209004564
31
0.0000000000
11
3.1264838532
21
-10.4207903755
31
0.0000000000
11
3.1906243524
21
-10.4207235720
31
0.0000000000
11
3.2558904867
21
-10.4207011733
31
0.0000000000
0
SPLINE
5
438
100
AcDbEntity
8
0
100
AcDbSpline
62
7
6
CONTINUOUS
70
0
71
3
72
18
73
14
74
12
42
0.0000001000
43
0.0000001000
44
0.0000000001
12
-0.4472051012
22
0.2235855214
32
0.0000000000
13
-0.4999828876
23
0.0000000000
33
0.0000000000
40
0.0000000000
40
0.0000000000
40
0.0000000000
40
0.0000000000
40
0.0124656256
40
0.0445860838
40
0.0956297107
40
0.1648293831
40
0.2504153456
40
0.3512246475
40
0.4645991173
40
0.5889859396
40
0.7212300941
40
0.8592827416
40
1.0000000000
40
1.0000000000
40
1.0000000000
40
1.0000000000
10
2.5399150535
20
16.5564206536
30
0.0000000000
10
2.5380568230
20
16.5573496981
30
0.0000000000
10
2.5302036172
20
16.5565731204
30
0.0000000000
10
2.5146535920
20
16.5581551495
30
0.0000000000
10
2.4890627145
20
16.5581181229
30
0.0000000000
10
2.4548483624
20
16.5588712368
30
0.0000000000
10
2.4122215111
20
16.5592558031
30
0.0000000000
10
2.3622741696
20
16.5597065682
30
0.0000000000
10
2.3058452827
20
16.5600545062
30
0.0000000000
10
2.2441815317
20
16.5603438380
30
0.0000000000
10
2.1784031730
20
16.5605521081
30
0.0000000000
10
2.1099033669
20
16.5606796089
30
0.0000000000
10
2.0634432796
20
16.5607079351
30
0.0000000000
10
2.0399912059
20
16.5607079351
30
0.0000000000
11
2.5399150535
21
16.5564206536
31
0.0000000000
11
2.5337126890
21
16.5570338186
31
0.0000000000
11
2.5176642228
21
16.5576338494
31
0.0000000000
11
2.4921497215
21
16.5582070830
31
0.0000000000
11
2.4575552455
21
16.5587446321
31
0.0000000000
11
2.4147665142
21
16.5592328633
31
0.0000000000
11
2.3643654416
21
16.5596650871
31
0.0000000000
11
2.3076813208
21
16.5600299061
31
0.0000000000
11
2.2454907258
21
16.5603223636
31
0.0000000000
11
2.1793712535
21
16.5605349719
31
0.0000000000
11
2.1103474137
21
16.5606645211
31
0.0000000000
11
2.0399912059
21
16.5607079351
31
0.0000000000
0
SPLINE
5
439
100
AcDbEntity
8
0
100
AcDbSpline
62
7
6
CONTINUOUS
70
0
71
3
72
18
73
14
74
12
42
0.0000001000
43
0.0000001000
44
0.0000000001
12
-0.4999828876
22
0.0000000000
32
0.0000000000
13
-0.4472051012
23
-0.2235855214
33
0.0000000000
40
0.0000000000
40
0.0000000000
40
0.0000000000
40
0.0000000000
40
0.1407172584
40
0.2787699059
40
0.4110140604
40
0.5354008827
40
0.6487753525
40
0.7495846544
40
0.8351706169
40
0.9043702893
40
0.9554139162
40
0.9875343744
40
1.0000000000
40
1.0000000000
40
1.0000000000
40
1.0000000000
10
-13.1282102324
20
16.5607079351
30
0.0000000000
10
-13.1516623062
20
16.5607079351
30
0.0000000000
10
-13.1981223934
20
16.5606796089
30
0.0000000000
10
-13.2666221995
20
16.5605521081
30
0.0000000000
10
-13.3324005582
20
16.5603438380
30
0.0000000000
10
-13.3940643092
20
16.5600545062
30
0.0000000000
10
-13.4504931962
20
16.5597065682
30
0.0000000000
10
-13.5004405377
20
16.5592558031
30
0.0000000000
10
-13.5430673890
20
16.5588712368
30
0.0000000000
10
-13.5772817410
20
16.5581181229
30
0.0000000000
10
-13.6028726185
20
16.5581551495
30
0.0000000000
10
-13.6184226438
20
16.5565731204
30
0.0000000000
10
-13.6262758496
20
16.5573496981
30
0.0000000000
10
-13.6281340800
20
16.5564206536
30
0.0000000000
11
-13.1282102324
21
16.5607079351
31
0.0000000000
11
-13.1985664402
21
16.5606645211
31
0.0000000000
11
-13.2675902800
21
16.5605349719
31
0.0000000000
11
-13.3337097524
21
16.5603223636
31
0.0000000000
11
-13.3959003473
21
16.5600299061
31
0.0000000000
11
-13.4525844681
21
16.5596650871
31
0.0000000000
11
-13.5029855407
21
16.5592328633
31
0.0000000000
11
-13.5457742721
21
16.5587446321
31
0.0000000000
11
-13.5803687480
21
16.5582070830
31
0.0000000000
11
-13.6058832494
21
16.5576338494
31
0.0000000000
11
-13.6219317156
21
16.5570338186
31
0.0000000000
11
-13.6281340800
21
16.5564206536
31
0.0000000000
0
SPLINE
5
43A
100
AcDbEntity
8
0
100
AcDbSpline
62
7
6
CONTINUOUS
70
0
71
3
72
18
73
14
74
12
42
0.0000001000
43
0.0000001000
44
0.0000000001
12
0.4999828876
22
0.0000000000
32
0.0000000000
13
0.4472051012
23
0.2235855214
33
0.0000000000
40
0.0000000000
40
0.0000000000
40
0.0000000000
40
0.0000000000
40
0.1407172584
40
0.2787699059
40
0.4110140604
40
0.5354008827
40
0.6487753525
40
0.7495846544
40
0.8351706169
40
0.9043702893
40
0.9554139162
40
0.9875343744
40
1.0000000000
40
1.0000000000
40
1.0000000000
40
1.0000000000
10
2.0399912059
20
-25.4312831563
30
0.0000000000
10
2.0634432796
20
-25.4312831563
30
0.0000000000
10
2.1099033669
20
-25.4312548302
30
0.0000000000
10
2.1784031730
20
-25.4311273293
30
0.0000000000
10
2.2441815317
20
-25.4309190592
30
0.0000000000
10
2.3058452827
20
-25.4306297274
30
0.0000000000
10
2.3622741696
20
-25.4302817894
30
0.0000000000
10
2.4122215111
20
-25.4298310244
30
0.0000000000
10
2.4548483624
20
-25.4294464581
30
0.0000000000
10
2.4890627145
20
-25.4286933441
30
0.0000000000
10
2.5146535920
20
-25.4287303708
30
0.0000000000
10
2.5302036172
20
-25.4271483416
30
0.0000000000
10
2.5380568230
20
-25.4279249193
30
0.0000000000
10
2.5399150535
20
-25.4269958748
30
0.0000000000
11
2.0399912059
21
-25.4312831563
31
0.0000000000
11
2.1103474137
21
-25.4312397424
31
0.0000000000
11
2.1793712535
21
-25.4311101932
31
0.0000000000
11
2.2454907258
21
-25.4308975849
31
0.0000000000
11
2.3076813208
21
-25.4306051274
31
0.0000000000
11
2.3643654416
21
-25.4302403083
31
0.0000000000
11
2.4147665142
21
-25.4298080845
31
0.0000000000
11
2.4575552455
21
-25.4293198534
31
0.0000000000
11
2.4921497215
21
-25.4287823042
31
0.0000000000
11
2.5176642228
21
-25.4282090707
31
0.0000000000
11
2.5337126890
21
-25.4276090399
31
0.0000000000
11
2.5399150535
21
-25.4269958748
31
0.0000000000
0
SPLINE
5
43B
100
AcDbEntity
8
0
100
AcDbSpline
62
7
6
CONTINUOUS
70
0
71
3
72
18
73
14
74
12
42
0.0000001000
43
0.0000001000
44
0.0000000001
12
0.4472051012
22
-0.2235855214
32
0.0000000000
13
0.4999828876
23
0.0000000000
33
0.0000000000
40
0.0000000000
40
0.0000000000
40
0.0000000000
40
0.0000000000
40
0.0124656256
40
0.0445860838
40
0.0956297107
40
0.1648293831
40
0.2504153456
40
0.3512246475
40
0.4645991173
40
0.5889859396
40
0.7212300941
40
0.8592827416
40
1.0000000000
40
1.0000000000
40
1.0000000000
40
1.0000000000
10
-13.6281340800
20
-25.4269958748
30
0.0000000000
10
-13.6262758496
20
-25.4279249193
30
0.0000000000
10
-13.6184226438
20
-25.4271483416
30
0.0000000000
10
-13.6028726185
20
-25.4287303708
30
0.0000000000
10
-13.5772817410
20
-25.4286933441
30
0.0000000000
10
-13.5430673890
20
-25.4294464581
30
0.0000000000
10
-13.5004405377
20
-25.4298310244
30
0.0000000000
10
-13.4504931962
20
-25.4302817894
30
0.0000000000
10
-13.3940643092
20
-25.4306297274
30
0.0000000000
10
-13.3324005582
20
-25.4309190592
30
0.0000000000
10
-13.2666221995
20
-25.4311273293
30
0.0000000000
10
-13.1981223934
20
-25.4312548302
30
0.0000000000
10
-13.1516623062
20
-25.4312831563
30
0.0000000000
10
-13.1282102324
20
-25.4312831563
30
0.0000000000
11
-13.6281340800
21
-25.4269958748
31
0.0000000000
11
-13.6219317156
21
-25.4276090399
31
0.0000000000
11
-13.6058832494
21
-25.4282090707
31
0.0000000000
11
-13.5803687480
21
-25.4287823042
31
0.0000000000
11
-13.5457742721
21
-25.4293198534
31
0.0000000000
11
-13.5029855407
21
-25.4298080845
31
0.0000000000
11
-13.4525844681
21
-25.4302403083
31
0.0000000000
11
-13.3959003473
21
-25.4306051274
31
0.0000000000
11
-13.3337097524
21
-25.4308975849
31
0.0000000000
11
-13.2675902800
21
-25.4311101932
31
0.0000000000
11
-13.1985664402
21
-25.4312397424
31
0.0000000000
11
-13.1282102324
21
-25.4312831563
31
0.0000000000
0
SPLINE
5
43C
100
AcDbEntity
8
0
100
AcDbSpline
62
7
6
CONTINUOUS
70
0
71
3
72
11
73
7
74
5
42
0.0000001000
43
0.0000001000
44
0.0000000001
12
-0.3127582945
22
0.4423070219
32
0.0000000000
13
-0.2926807401
23
0.4558412408
33
0.0000000000
40
0.0000000000
40
0.0000000000
40
0.0000000000
40
0.0000000000
40
0.2559001112
40
0.5096100791
40
0.7585931600
40
1.0000000000
40
1.0000000000
40
1.0000000000
40
1.0000000000
10
-13.1282102324
20
16.8774056331
30
0.0000000000
10
-13.1548885266
20
16.9151344385
30
0.0000000000
10
-13.2080172799
20
16.9902687642
30
0.0000000000
10
-13.2865914733
20
17.1024738057
30
0.0000000000
10
-13.3625793314
20
17.2132886153
30
0.0000000000
10
-13.4114412761
20
17.2871478512
30
0.0000000000
10
-13.4349929869
20
17.3238289157
30
0.0000000000
11
-13.1282102324
21
16.8774056331
31
0.0000000000
11
-13.2081588857
21
16.9906529731
31
0.0000000000
11
-13.2868943434
21
17.1033026340
31
0.0000000000
11
-13.3630393172
21
17.2146303736
31
0.0000000000
11
-13.4349929869
21
17.3238289157
31
0.0000000000
0
SPLINE
5
43D
100
AcDbEntity
8
0
100
AcDbSpline
62
7
6
CONTINUOUS
70
0
71
3
72
9
73
5
74
3
42
0.0000001000
43
0.0000001000
44
0.0000000001
12
0.0174587628
22
-0.0087278330
32
0.0000000000
13
0.0177863767
23
-0.0080395344
33
0.0000000000
40
0.0000000000
40
0.0000000000
40
0.0000000000
40
0.0000000000
40
0.9033729646
40
1.0000000000
40
1.0000000000
40
1.0000000000
40
1.0000000000
10
-16.4175987815
20
-26.7737757159
30
0.0000000000
10
-16.4123415234
20
-26.7764038787
30
0.0000000000
10
-16.4064706478
20
-26.7792105966
30
0.0000000000
10
-16.4005469187
20
-26.7819016353
30
0.0000000000
10
-16.3999740371
20
-26.7821605807
30
0.0000000000
11
-16.4175987815
21
-26.7737757159
31
0.0000000000
11
-16.4016912100
21
-26.7813805010
31
0.0000000000
11
-16.3999740371
21
-26.7821605807
31
0.0000000000
0
SPLINE
5
43E
100
AcDbEntity
8
0
100
AcDbSpline
62
7
6
CONTINUOUS
70
0
71
3
72
10
73
6
74
4
42
0.0000001000
43
0.0000001000
44
0.0000000001
12
0.1934929502
22
-0.0874598153
32
0.0000000000
13
0.2121577388
23
0.0000000000
33
0.0000000000
40
0.0000000000
40
0.0000000000
40
0.0000000000
40
0.0000000000
40
0.3270883943
40
0.6637210004
40
1.0000000000
40
1.0000000000
40
1.0000000000
40
1.0000000000
10
-16.3999740371
20
-26.7821605807
30
0.0000000000
10
-16.3788776043
20
-26.7916962776
30
0.0000000000
10
-16.3347229045
20
-26.8080695338
30
0.0000000000
10
-16.2653961639
20
-26.8231550155
30
0.0000000000
10
-16.2177385855
20
-26.8265607428
30
0.0000000000
10
-16.1939571881
20
-26.8265607428
30
0.0000000000
11
-16.3999740371
21
-26.7821605807
31
0.0000000000
11
-16.3349063836
21
-26.8062893166
31
0.0000000000
11
-16.2651196824
21
-26.8214722099
31
0.0000000000
11
-16.1939571881
21
-26.8265607428
31
0.0000000000
0
SPLINE
5
43F
100
AcDbEntity
8
0
100
AcDbSpline
62
7
6
CONTINUOUS
70
0
71
3
72
11
73
7
74
5
42
0.0000001000
43
0.0000001000
44
0.0000000001
12
-0.2926807401
22
-0.4558412408
32
0.0000000000
13
-0.3127582945
23
-0.4423070219
33
0.0000000000
40
0.0000000000
40
0.0000000000
40
0.0000000000
40
0.0000000000
40
0.2414068400
40
0.4903899209
40
0.7440998888
40
1.0000000000
40
1.0000000000
40
1.0000000000
40
1.0000000000
10
2.3467739604
20
17.3238289157
30
0.0000000000
10
2.3232222495
20
17.2871478512
30
0.0000000000
10
2.2743603048
20
17.2132886153
30
0.0000000000
10
2.1983724467
20
17.1024738057
30
0.0000000000
10
2.1197982533
20
16.9902687642
30
0.0000000000
10
2.0666695000
20
16.9151344385
30
0.0000000000
10
2.0399912059
20
16.8774056331
30
0.0000000000
11
2.3467739604
21
17.3238289157
31
0.0000000000
11
2.2748202907
21
17.2146303736
31
0.0000000000
11
2.1986753169
21
17.1033026340
31
0.0000000000
11
2.1199398591
21
16.9906529731
31
0.0000000000
11
2.0399912059
21
16.8774056331
31
0.0000000000
0
SPLINE
5
440
100
AcDbEntity
8
0
100
AcDbSpline
62
9
6
CONTINUOUS
70
0
71
3
72
9
73
5
74
3
42
0.0000001000
43
0.0000001000
44
0.0000000001
12
0.0000000000
22
-0.0464794517
32
0.0000000000
13
0.0107339792
23
-0.0452851396
33
0.0000000000
40
0.0000000000
40
0.0000000000
40
0.0000000000
40
0.0000000000
40
0.7500305622
40
1.0000000000
40
1.0000000000
40
1.0000000000
40
1.0000000000
10
2.7558904867
20
-10.4233192336
30
0.0000000000
10
2.7558904867
20
-10.4349395701
30
0.0000000000
10
2.7572477317
20
-10.4504666744
30
0.0000000000
10
2.7603870610
20
-10.4656674060
30
0.0000000000
10
2.7612814499
20
-10.4694407063
30
0.0000000000
11
2.7558904867
21
-10.4233192336
31
0.0000000000
11
2.7589289413
21
-10.4580475760
31
0.0000000000
11
2.7612814499
21
-10.4694407063
31
0.0000000000
0
SPLINE
5
441
100
AcDbEntity
8
0
100
AcDbSpline
62
9
6
CONTINUOUS
70
0
71
3
72
15
73
11
74
9
42
0.0000001000
43
0.0000001000
44
0.0000000001
12
0.0617246297
22
-0.2604074812
32
0.0000000000
13
0.2672752486
23
-0.0000000000
33
0.0000000000
40
0.0000000000
40
0.0000000000
40
0.0000000000
40
0.0000000000
40
0.0869614452
40
0.2173933761
40
0.3478260264
40
0.4782594929
40
0.6086937714
40
0.7391287560
40
0.8695642523
40
1.0000000000
40
1.0000000000
40
1.0000000000
40
1.0000000000
10
2.7612814499
20
-10.4694407063
30
0.0000000000
10
2.7630706709
20
-10.4769891766
30
0.0000000000
10
2.7686405300
20
-10.4955951649
30
0.0000000000
10
2.7818039120
20
-10.5238250344
30
0.0000000000
10
2.8019018800
20
-10.5525261982
30
0.0000000000
10
2.8266789133
20
-10.5773022365
30
0.0000000000
10
2.8553811711
20
-10.5973993562
30
0.0000000000
10
2.8871402523
20
-10.6122071938
30
0.0000000000
10
2.9209773354
20
-10.6212757618
30
0.0000000000
10
2.9442697378
20
-10.6233116182
30
0.0000000000
10
2.9558904867
20
-10.6233116182
30
0.0000000000
11
2.7612814499
21
-10.4694407063
31
0.0000000000
11
2.7679519816
21
-10.4917207099
31
0.0000000000
11
2.7826854438
21
-10.5233154914
31
0.0000000000
11
2.8026816549
21
-10.5518719282
31
0.0000000000
11
2.8273330354
21
-10.5765223478
31
0.0000000000
11
2.8558905612
21
-10.5965177623
31
0.0000000000
11
2.8874865228
21
-10.6112506252
31
0.0000000000
11
2.9211608908
21
-10.6202732915
31
0.0000000000
11
2.9558904867
21
-10.6233116182
31
0.0000000000
0
SPLINE
5
442
100
AcDbEntity
8
0
100
AcDbSpline
62
7
6
CONTINUOUS
70
0
71
3
72
11
73
7
74
5
42
0.0000001000
43
0.0000001000
44
0.0000000001
12
0.2926807401
22
0.4558412408
32
0.0000000000
13
0.3127582945
23
0.4423070219
33
0.0000000000
40
0.0000000000
40
0.0000000000
40
0.0000000000
40
0.0000000000
40
0.2414068400
40
0.4903899209
40
0.7440998888
40
1.0000000000
40
1.0000000000
40
1.0000000000
40
1.0000000000
10
-13.4349929869
20
-26.1944041370
30
0.0000000000
10
-13.4114412761
20
-26.1577230725
30
0.0000000000
10
-13.3625793314
20
-26.0838638365
30
0.0000000000
10
-13.2865914733
20
-25.9730490270
30
0.0000000000
10
-13.2080172799
20
-25.8608439854
30
0.0000000000
10
-13.1548885266
20
-25.7857096597
30
0.0000000000
10
-13.1282102324
20
-25.7479808543
30
0.0000000000
11
-13.4349929869
21
-26.1944041370
31
0.0000000000
11
-13.3630393172
21
-26.0852055948
31
0.0000000000
11
-13.2868943434
21
-25.9738778553
31
0.0000000000
11
-13.2081588857
21
-25.8612281944
31
0.0000000000
11
-13.1282102324
21
-25.7479808543
31
0.0000000000
0
SPLINE
5
443
100
AcDbEntity
8
0
100
AcDbSpline
62
7
6
CONTINUOUS
70
0
71
3
72
11
73
7
74
5
42
0.0000001000
43
0.0000001000
44
0.0000000001
12
0.3127582945
22
-0.4423070219
32
0.0000000000
13
0.2926807401
23
-0.4558412408
33
0.0000000000
40
0.0000000000
40
0.0000000000
40
0.0000000000
40
0.0000000000
40
0.2559001112
40
0.5096100791
40
0.7585931600
40
1.0000000000
40
1.0000000000
40
1.0000000000
40
1.0000000000
10
2.0399912059
20
-25.7479808543
30
0.0000000000
10
2.0666695000
20
-25.7857096597
30
0.0000000000
10
2.1197982533
20
-25.8608439854
30
0.0000000000
10
2.1983724467
20
-25.9730490270
30
0.0000000000
10
2.2743603048
20
-26.0838638365
30
0.0000000000
10
2.3232222495
20
-26.1577230725
30
0.0000000000
10
2.3467739604
20
-26.1944041370
30
0.0000000000
11
2.0399912059
21
-25.7479808543
31
0.0000000000
11
2.1199398591
21
-25.8612281944
31
0.0000000000
11
2.1986753169
21
-25.9738778553
31
0.0000000000
11
2.2748202907
21
-26.0852055948
31
0.0000000000
11
2.3467739604
21
-26.1944041370
31
0.0000000000
0
SPLINE
5
444
100
AcDbEntity
8
0
100
AcDbSpline
62
7
6
CONTINUOUS
70
0
71
3
72
16
73
12
74
10
42
0.0000001000
43
0.0000001000
44
0.0000000001
12
0.0000000000
22
-0.2000886283
32
0.0000000000
13
-0.1789674357
23
-0.0894769029
33
0.0000000000
40
0.0000000000
40
0.0000000000
40
0.0000000000
40
0.0000000000
40
0.1725327588
40
0.3401978753
40
0.4970698943
40
0.6396991821
40
0.7624356200
40
0.8628636708
40
0.9369772596
40
0.9832146050
40
1.0000000000
40
1.0000000000
40
1.0000000000
40
1.0000000000
10
4.0831989023
20
-10.4207011733
30
0.0000000000
10
4.0831989023
20
-10.4322084543
30
0.0000000000
10
4.0831657632
20
-10.4548991181
30
0.0000000000
10
4.0830106281
20
-10.4880483227
30
0.0000000000
10
4.0827743781
20
-10.5192161834
30
0.0000000000
10
4.0824039921
20
-10.5473421686
30
0.0000000000
10
4.0821015165
20
-10.5718367270
30
0.0000000000
10
4.0813381753
20
-10.5913826388
30
0.0000000000
10
4.0815349769
20
-10.6067556571
30
0.0000000000
10
4.0797491881
20
-10.6146808669
30
0.0000000000
10
4.0807397001
20
-10.6201929229
30
0.0000000000
10
4.0797383538
20
-10.6206935579
30
0.0000000000
11
4.0831989023
21
-10.4207011733
31
0.0000000000
11
4.0831465037
21
-10.4552229766
31
0.0000000000
11
4.0829904890
21
-10.4887704970
31
0.0000000000
11
4.0827366516
21
-10.5201577777
31
0.0000000000
11
4.0823903978
21
-10.5486941756
31
0.0000000000
11
4.0819655562
21
-10.5732486661
31
0.0000000000
11
4.0814704918
21
-10.5933370777
31
0.0000000000
11
4.0809248176
21
-10.6081563210
31
0.0000000000
11
4.0803405562
21
-10.6173894208
31
0.0000000000
11
4.0797383538
21
-10.6206935579
31
0.0000000000
0
SPLINE
5
445
100
AcDbEntity
8
0
100
AcDbSpline
62
9
6
CONTINUOUS
70
0
71
3
72
11
73
7
74
5
42
0.0000001000
43
0.0000001000
44
0.0000000001
12
0.1499874720
22
0.0007641438
32
0.0000000000
13
0.1500005549
23
0.0000000549
33
0.0000000000
40
0.0000000000
40
0.0000000000
40
0.0000000000
40
0.0000000000
40
0.2348264205
40
0.4826226358
40
0.7392368513
40
1.0000000000
40
1.0000000000
40
1.0000000000
40
1.0000000000
10
3.1058904867
20
0.3789556870
30
0.0000000000
10
3.1176308271
20
0.3790155008
30
0.0000000000
10
3.1417631410
20
0.3791172623
30
0.0000000000
10
3.1787244196
20
0.3792260968
30
0.0000000000
10
3.2169833508
20
0.3792917634
30
0.0000000000
10
3.2428522811
20
0.3793064373
30
0.0000000000
10
3.2558904867
20
0.3793064421
30
0.0000000000
11
3.1058904867
21
0.3789556870
31
0.0000000000
11
3.1411142524
21
0.3791072579
31
0.0000000000
11
3.1782836593
21
0.3792173235
31
0.0000000000
11
3.2167758761
21
0.3792840943
31
0.0000000000
11
3.2558904867
21
0.3793064421
31
0.0000000000
0
SPLINE
5
446
100
AcDbEntity
8
0
100
AcDbSpline
62
9
6
CONTINUOUS
70
0
71
3
72
10
73
6
74
4
42
0.0000001000
43
0.0000001000
44
0.0000000001
12
0.1499989671
22
0.0002478384
32
0.0000000000
13
0.1500002089
23
0.0000000596
33
0.0000000000
40
0.0000000000
40
0.0000000000
40
0.0000000000
40
0.0000000000
40
0.1372900538
40
0.5648930180
40
1.0000000000
40
1.0000000000
40
1.0000000000
40
1.0000000000
10
3.1058904869
20
0.5791781213
30
0.0000000000
10
3.1127549423
20
0.5791894632
30
0.0000000000
10
3.1409993518
20
0.5792326589
30
0.0000000000
10
3.1909996098
20
0.5792841015
30
0.0000000000
10
3.2341351073
20
0.5792988181
30
0.0000000000
10
3.2558904867
20
0.5792988267
30
0.0000000000
11
3.1058904869
21
0.5791781213
31
0.0000000000
11
3.1264838532
21
0.5792096245
31
0.0000000000
11
3.1906243524
21
0.5792764280
31
0.0000000000
11
3.2558904867
21
0.5792988267
31
0.0000000000
0
SPLINE
5
447
100
AcDbEntity
8
0
100
AcDbSpline
62
7
6
CONTINUOUS
70
0
71
3
72
16
73
12
74
10
42
0.0000001000
43
0.0000001000
44
0.0000000001
12
0.0000000000
22
-0.2000886283
32
0.0000000000
13
-0.1789674357
23
-0.0894769029
33
0.0000000000
40
0.0000000000
40
0.0000000000
40
0.0000000000
40
0.0000000000
40
0.1725327588
40
0.3401978753
40
0.4970698943
40
0.6396991821
40
0.7624356200
40
0.8628636708
40
0.9369772596
40
0.9832146050
40
1.0000000000
40
1.0000000000
40
1.0000000000
40
1.0000000000
10
4.0831989023
20
0.5792988267
30
0.0000000000
10
4.0831989023
20
0.5677915457
30
0.0000000000
10
4.0831657632
20
0.5451008819
30
0.0000000000
10
4.0830106281
20
0.5119516773
30
0.0000000000
10
4.0827743781
20
0.4807838166
30
0.0000000000
10
4.0824039921
20
0.4526578314
30
0.0000000000
10
4.0821015165
20
0.4281632730
30
0.0000000000
10
4.0813381753
20
0.4086173612
30
0.0000000000
10
4.0815349769
20
0.3932443429
30
0.0000000000
10
4.0797491881
20
0.3853191331
30
0.0000000000
10
4.0807397001
20
0.3798070771
30
0.0000000000
10
4.0797383538
20
0.3793064421
30
0.0000000000
11
4.0831989023
21
0.5792988267
31
0.0000000000
11
4.0831465037
21
0.5447770234
31
0.0000000000
11
4.0829904890
21
0.5112295030
31
0.0000000000
11
4.0827366516
21
0.4798422223
31
0.0000000000
11
4.0823903978
21
0.4513058244
31
0.0000000000
11
4.0819655562
21
0.4267513339
31
0.0000000000
11
4.0814704918
21
0.4066629223
31
0.0000000000
11
4.0809248176
21
0.3918436790
31
0.0000000000
11
4.0803405562
21
0.3826105792
31
0.0000000000
11
4.0797383538
21
0.3793064421
31
0.0000000000
0
SPLINE
5
448
100
AcDbEntity
8
0
100
AcDbSpline
62
9
6
CONTINUOUS
70
0
71
3
72
11
73
7
74
5
42
0.0000001000
43
0.0000001000
44
0.0000000001
12
-0.1500005549
22
0.0000000549
32
0.0000000000
13
-0.1499874720
23
0.0007641438
33
0.0000000000
40
0.0000000000
40
0.0000000000
40
0.0000000000
40
0.0000000000
40
0.2607631487
40
0.5173773642
40
0.7651735795
40
1.0000000000
40
1.0000000000
40
1.0000000000
40
1.0000000000
10
3.2558904867
20
1.2501183367
30
0.0000000000
10
3.2428522811
20
1.2501183414
30
0.0000000000
10
3.2169833508
20
1.2501330153
30
0.0000000000
10
3.1787244196
20
1.2501986819
30
0.0000000000
10
3.1417631410
20
1.2503075164
30
0.0000000000
10
3.1176308271
20
1.2504092780
30
0.0000000000
10
3.1058904867
20
1.2504690917
30
0.0000000000
11
3.2558904867
21
1.2501183367
31
0.0000000000
11
3.2167758761
21
1.2501406844
31
0.0000000000
11
3.1782836593
21
1.2502074553
31
0.0000000000
11
3.1411142524
21
1.2503175209
31
0.0000000000
11
3.1058904867
21
1.2504690917
31
0.0000000000
0
SPLINE
5
449
100
AcDbEntity
8
0
100
AcDbSpline
62
9
6
CONTINUOUS
70
0
71
3
72
10
73
6
74
4
42
0.0000001000
43
0.0000001000
44
0.0000000001
12
-0.1500002089
22
0.0000000596
32
0.0000000000
13
-0.1499989671
23
0.0002478384
33
0.0000000000
40
0.0000000000
40
0.0000000000
40
0.0000000000
40
0.0000000000
40
0.4351069820
40
0.8627099462
40
1.0000000000
40
1.0000000000
40
1.0000000000
40
1.0000000000
10
3.2558904867
20
1.0501259521
30
0.0000000000
10
3.2341351073
20
1.0501259607
30
0.0000000000
10
3.1909996098
20
1.0501406773
30
0.0000000000
10
3.1409993518
20
1.0501921199
30
0.0000000000
10
3.1127549423
20
1.0502353156
30
0.0000000000
10
3.1058904869
20
1.0502466575
30
0.0000000000
11
3.2558904867
21
1.0501259521
31
0.0000000000
11
3.1906243524
21
1.0501483507
31
0.0000000000
11
3.1264838532
21
1.0502151542
31
0.0000000000
11
3.1058904869
21
1.0502466575
31
0.0000000000
0
SPLINE
5
44A
100
AcDbEntity
8
0
100
AcDbSpline
62
7
6
CONTINUOUS
70
0
71
3
72
16
73
12
74
10
42
0.0000001000
43
0.0000001000
44
0.0000000001
12
0.1789674357
22
-0.0894769029
32
0.0000000000
13
-0.0000000000
23
-0.2000886283
33
0.0000000000
40
0.0000000000
40
0.0000000000
40
0.0000000000
40
0.0000000000
40
0.0167853950
40
0.0630227404
40
0.1371363292
40
0.2375643800
40
0.3603008179
40
0.5029301057
40
0.6598021247
40
0.8274672412
40
1.0000000000
40
1.0000000000
40
1.0000000000
40
1.0000000000
10
4.0797383538
20
1.2501183367
30
0.0000000000
10
4.0807397001
20
1.2496177016
30
0.0000000000
10
4.0797491881
20
1.2441056457
30
0.0000000000
10
4.0815349769
20
1.2361804358
30
0.0000000000
10
4.0813381753
20
1.2208074175
30
0.0000000000
10
4.0821015165
20
1.2012615058
30
0.0000000000
10
4.0824039921
20
1.1767669474
30
0.0000000000
10
4.0827743781
20
1.1486409622
30
0.0000000000
10
4.0830106281
20
1.1174731014
30
0.0000000000
10
4.0831657632
20
1.0843238968
30
0.0000000000
10
4.0831989023
20
1.0616332331
30
0.0000000000
10
4.0831989023
20
1.0501259521
30
0.0000000000
11
4.0797383538
21
1.2501183367
31
0.0000000000
11
4.0803405562
21
1.2468141995
31
0.0000000000
11
4.0809248176
21
1.2375810998
31
0.0000000000
11
4.0814704918
21
1.2227618565
31
0.0000000000
11
4.0819655562
21
1.2026734449
31
0.0000000000
11
4.0823903978
21
1.1781189544
31
0.0000000000
11
4.0827366516
21
1.1495825564
31
0.0000000000
11
4.0829904890
21
1.1181952757
31
0.0000000000
11
4.0831465037
21
1.0846477553
31
0.0000000000
11
4.0831989023
21
1.0501259521
31
0.0000000000
0
SPLINE
5
44B
100
AcDbEntity
8
0
100
AcDbSpline
62
9
6
CONTINUOUS
70
0
71
3
72
17
73
13
74
11
42
0.0000001000
43
0.0000001000
44
0.0000000001
12
0.3922846478
22
-0.0000132773
32
0.0000000000
13
0.0000132773
23
-0.3922846478
33
0.0000000000
40
0.0000000000
40
0.0000000000
40
0.0000000000
40
0.0000000000
40
0.0998239394
40
0.1998359985
40
0.2998483200
40
0.3998691378
40
0.4998893118
40
0.5999112671
40
0.6999336806
40
0.7999562942
40
0.8999787118
40
1.0000000000
40
1.0000000000
40
1.0000000000
40
1.0000000000
10
4.8515228835
20
20.0603405554
30
0.0000000000
10
4.8645760165
20
20.0603401136
30
0.0000000000
10
4.8907530055
20
20.0582842677
30
0.0000000000
10
4.9290298215
20
20.0491026108
30
0.0000000000
10
4.9654325478
20
20.0340346162
30
0.0000000000
10
4.9990278800
20
20.0134566334
30
0.0000000000
10
5.0289915676
20
19.9878749921
30
0.0000000000
10
5.0545837471
20
19.9579200173
30
0.0000000000
10
5.0751742377
20
19.9243302477
30
0.0000000000
10
5.0902555590
20
19.8879298174
30
0.0000000000
10
5.0994561112
20
19.8496281558
30
0.0000000000
10
5.1015182101
20
19.8234237248
30
0.0000000000
10
5.1015186527
20
19.8103447862
30
0.0000000000
11
4.8515228835
21
20.0603405554
31
0.0000000000
11
4.8905618924
21
20.0572722813
31
0.0000000000
11
4.9287132610
21
20.0481225981
31
0.0000000000
11
4.9649634993
21
20.0331168685
31
0.0000000000
11
4.9984224973
21
20.0126227550
31
0.0000000000
11
5.0282627948
21
19.9871462940
31
0.0000000000
11
5.0537500636
21
19.9573143081
31
0.0000000000
11
5.0742560254
21
19.9238618360
31
0.0000000000
11
5.0892754442
21
19.8876128971
31
0.0000000000
11
5.0984382376
21
19.8494604960
31
0.0000000000
11
5.1015186527
21
19.8103447862
31
0.0000000000
0
SPLINE
5
44C
100
AcDbEntity
8
0
100
AcDbSpline
62
7
6
CONTINUOUS
70
0
71
3
72
17
73
13
74
11
42
0.0000001000
43
0.0000001000
44
0.0000000001
12
0.0000000000
22
-0.4220147089
32
0.0000000000
13
-0.4220147089
23
0.0000000000
33
0.0000000000
40
0.0000000000
40
0.0000000000
40
0.0000000000
40
0.0000000000
40
0.1163097356
40
0.2303278571
40
0.3412445469
40
0.4475088604
40
0.5491224320
40
0.6456322518
40
0.7382753117
40
0.8272646510
40
0.9144010609
40
1.0000000000
40
1.0000000000
40
1.0000000000
40
1.0000000000
10
5.1058904867
20
18.9751975376
30
0.0000000000
10
5.1058904867
20
18.9588360645
30
0.0000000000
10
5.1035005232
20
18.9263835607
30
0.0000000000
10
5.0929375223
20
18.8793855487
30
0.0000000000
10
5.0760328716
20
18.8357796021
30
0.0000000000
10
5.0536307606
20
18.7967311568
30
0.0000000000
10
5.0267800610
20
18.7631554670
30
0.0000000000
10
4.9964351097
20
18.7354757953
30
0.0000000000
10
4.9635553875
20
18.7139538556
30
0.0000000000
10
4.9288233937
20
18.6985874254
30
0.0000000000
10
4.8930017534
20
18.6894021603
30
0.0000000000
10
4.8686548217
20
18.6873621202
30
0.0000000000
10
4.8566134846
20
18.6873621202
30
0.0000000000
11
5.1058904867
21
18.9751975376
31
0.0000000000
11
5.1022681279
21
18.9262469633
31
0.0000000000
11
5.0916806236
21
18.8793089014
31
0.0000000000
11
5.0747060698
21
18.8356866844
31
0.0000000000
11
5.0523293839
21
18.7968232412
31
0.0000000000
11
5.0254881930
21
18.7633799672
31
0.0000000000
11
4.9953495759
21
18.7359850836
31
0.0000000000
11
4.9626030083
21
18.7146258488
31
0.0000000000
11
4.9282403699
21
18.6994741874
31
0.0000000000
11
4.8926119087
21
18.6903717150
31
0.0000000000
11
4.8566134846
21
18.6873621202
31
0.0000000000
0
SPLINE
5
44D
100
AcDbEntity
8
0
100
AcDbSpline
62
9
6
CONTINUOUS
70
0
71
3
72
17
73
13
74
11
42
0.0000001000
43
0.0000001000
44
0.0000000001
12
-0.0012298291
22
-0.3661500354
32
0.0000000000
13
-0.3661509389
23
-0.0009224053
33
0.0000000000
40
0.0000000000
40
0.0000000000
40
0.0000000000
40
0.0000000000
40
0.0926637669
40
0.1861959939
40
0.2811621264
40
0.3780472439
40
0.4771141944
40
0.5784104998
40
0.6817687109
40
0.7868361684
40
0.8931123906
40
1.0000000000
40
1.0000000000
40
1.0000000000
40
1.0000000000
10
5.1015186527
20
19.4090499567
30
0.0000000000
10
5.1014806659
20
19.3977403428
30
0.0000000000
10
5.0993325980
20
19.3749695794
30
0.0000000000
10
5.0899980201
20
19.3417679064
30
0.0000000000
10
5.0747882720
20
19.3102382490
30
0.0000000000
10
5.0541023861
20
19.2811805081
30
0.0000000000
10
5.0284672817
20
19.2552949287
30
0.0000000000
10
4.9985240177
20
19.2332029776
30
0.0000000000
10
4.9650111186
20
19.2154293399
30
0.0000000000
10
4.9287448169
20
19.2023950730
30
0.0000000000
10
4.8906156336
20
19.1944084177
30
0.0000000000
10
4.8645685497
20
19.1925764703
30
0.0000000000
10
4.8515228835
20
19.1925436057
30
0.0000000000
11
5.1015186527
21
19.4090499567
31
0.0000000000
11
5.0983435930
21
19.3752698106
31
0.0000000000
11
5.0891129703
21
19.3422902096
31
0.0000000000
11
5.0740533463
21
19.3109484944
31
0.0000000000
11
5.0535324709
21
19.2820115413
31
0.0000000000
11
5.0280547816
21
19.2561917936
31
0.0000000000
11
4.9982452079
21
19.2341226598
31
0.0000000000
11
4.9648353805
21
19.2163458689
31
0.0000000000
11
4.9286451077
21
19.2032976265
31
0.0000000000
11
4.8905629487
21
19.1952981812
31
0.0000000000
11
4.8515228835
21
19.1925436057
31
0.0000000000
0
SPLINE
5
44E
100
AcDbEntity
8
0
100
AcDbSpline
62
7
6
CONTINUOUS
70
0
71
3
72
17
73
13
74
11
42
0.0000001000
43
0.0000001000
44
0.0000000001
12
-0.4220147089
22
0.0000000000
32
0.0000000000
13
-0.0000000000
23
0.4220147089
33
0.0000000000
40
0.0000000000
40
0.0000000000
40
0.0000000000
40
0.0000000000
40
0.0855989391
40
0.1727353490
40
0.2617246883
40
0.3543677482
40
0.4508775680
40
0.5524911396
40
0.6587554531
40
0.7696721429
40
0.8836902644
40
1.0000000000
40
1.0000000000
40
1.0000000000
40
1.0000000000
10
2.9551674889
20
18.6873621202
30
0.0000000000
10
2.9431261517
20
18.6873621202
30
0.0000000000
10
2.9187792200
20
18.6894021603
30
0.0000000000
10
2.8829575798
20
18.6985874254
30
0.0000000000
10
2.8482255859
20
18.7139538556
30
0.0000000000
10
2.8153458638
20
18.7354757953
30
0.0000000000
10
2.7850009124
20
18.7631554670
30
0.0000000000
10
2.7581502128
20
18.7967311568
30
0.0000000000
10
2.7357481018
20
18.8357796021
30
0.0000000000
10
2.7188434512
20
18.8793855487
30
0.0000000000
10
2.7082804502
20
18.9263835607
30
0.0000000000
10
2.7058904867
20
18.9588360645
30
0.0000000000
10
2.7058904867
20
18.9751975376
30
0.0000000000
11
2.9551674889
21
18.6873621202
31
0.0000000000
11
2.9191690648
21
18.6903717150
31
0.0000000000
11
2.8835406036
21
18.6994741874
31
0.0000000000
11
2.8491779651
21
18.7146258488
31
0.0000000000
11
2.8164313975
21
18.7359850836
31
0.0000000000
11
2.7862927804
21
18.7633799672
31
0.0000000000
11
2.7594515896
21
18.7968232412
31
0.0000000000
11
2.7370749036
21
18.8356866844
31
0.0000000000
11
2.7201003498
21
18.8793089014
31
0.0000000000
11
2.7095128456
21
18.9262469633
31
0.0000000000
11
2.7058904867
21
18.9751975376
31
0.0000000000
0
SPLINE
5
44F
100
AcDbEntity
8
0
100
AcDbSpline
62
9
6
CONTINUOUS
70
0
71
3
72
17
73
13
74
11
42
0.0000001000
43
0.0000001000
44
0.0000000001
12
0.0012298290
22
-0.3661500127
32
0.0000000000
13
0.3661509162
23
-0.0009224053
33
0.0000000000
40
0.0000000000
40
0.0000000000
40
0.0000000000
40
0.0000000000
40
0.0927409810
40
0.1862742706
40
0.2812426722
40
0.3781228716
40
0.4771847111
40
0.5784746944
40
0.6818263867
40
0.7868857196
40
0.8931548188
40
1.0000000000
40
1.0000000000
40
1.0000000000
40
1.0000000000
10
2.7102623207
20
19.4090499567
30
0.0000000000
10
2.7103003392
20
19.3977309195
30
0.0000000000
10
2.7124510734
20
19.3749504818
30
0.0000000000
10
2.7217932523
20
19.3417407352
30
0.0000000000
10
2.7370074712
20
19.3102134482
30
0.0000000000
10
2.7576966644
20
19.2811592807
30
0.0000000000
10
2.7833333572
20
19.2552781399
30
0.0000000000
10
2.8132770456
20
19.2331905249
30
0.0000000000
10
2.8467891734
20
19.2154209708
30
0.0000000000
10
2.8830538710
20
19.2023902131
30
0.0000000000
10
2.9211766088
20
19.1944072740
30
0.0000000000
10
2.9472176029
20
19.1925764573
30
0.0000000000
10
2.9602580899
20
19.1925436057
30
0.0000000000
11
2.7102623207
21
19.4090499567
31
0.0000000000
11
2.7134425663
21
19.3752419035
31
0.0000000000
11
2.7226781693
21
19.3422632951
31
0.0000000000
11
2.7377426742
21
19.3109230062
31
0.0000000000
11
2.7582663757
21
19.2819902679
31
0.0000000000
11
2.7837457711
21
19.2561748362
31
0.0000000000
11
2.8135557101
21
19.2341100905
31
0.0000000000
11
2.8469649563
21
19.2163372940
31
0.0000000000
11
2.8831533678
21
19.2032926673
31
0.0000000000
11
2.9212334493
21
19.1952960308
31
0.0000000000
11
2.9602580899
21
19.1925436057
31
0.0000000000
0
SPLINE
5
450
100
AcDbEntity
8
0
100
AcDbSpline
62
9
6
CONTINUOUS
70
0
71
3
72
17
73
13
74
11
42
0.0000001000
43
0.0000001000
44
0.0000000001
12
0.0000132773
22
0.3922846478
32
0.0000000000
13
0.3922846478
23
0.0000132773
33
0.0000000000
40
0.0000000000
40
0.0000000000
40
0.0000000000
40
0.0000000000
40
0.1000212882
40
0.2000437058
40
0.3000663194
40
0.4000887329
40
0.5001106882
40
0.6001308622
40
0.7001516800
40
0.8001640015
40
0.9001760606
40
1.0000000000
40
1.0000000000
40
1.0000000000
40
1.0000000000
10
2.7102623207
20
19.8103447862
30
0.0000000000
10
2.7102627634
20
19.8234237248
30
0.0000000000
10
2.7123248622
20
19.8496281558
30
0.0000000000
10
2.7215254144
20
19.8879298174
30
0.0000000000
10
2.7366067357
20
19.9243302477
30
0.0000000000
10
2.7571972263
20
19.9579200173
30
0.0000000000
10
2.7827894058
20
19.9878749921
30
0.0000000000
10
2.8127530934
20
20.0134566334
30
0.0000000000
10
2.8463484257
20
20.0340346162
30
0.0000000000
10
2.8827511519
20
20.0491026108
30
0.0000000000
10
2.9210279679
20
20.0582842677
30
0.0000000000
10
2.9472049570
20
20.0603401136
30
0.0000000000
10
2.9602580899
20
20.0603405554
30
0.0000000000
11
2.7102623207
21
19.8103447862
31
0.0000000000
11
2.7133427359
21
19.8494604960
31
0.0000000000
11
2.7225055292
21
19.8876128971
31
0.0000000000
11
2.7375249481
21
19.9238618360
31
0.0000000000
11
2.7580309099
21
19.9573143081
31
0.0000000000
11
2.7835181787
21
19.9871462940
31
0.0000000000
11
2.8133584762
21
20.0126227550
31
0.0000000000
11
2.8468174742
21
20.0331168685
31
0.0000000000
11
2.8830677125
21
20.0481225981
31
0.0000000000
11
2.9212190810
21
20.0572722813
31
0.0000000000
11
2.9602580899
21
20.0603405554
31
0.0000000000
0
SPLINE
5
451
100
AcDbEntity
8
0
100
AcDbSpline
62
7
6
CONTINUOUS
70
0
71
3
72
16
73
12
74
10
42
0.0000001000
43
0.0000001000
44
0.0000000001
12
0.0000000000
22
-0.2000114910
32
0.0000000000
13
-0.2000114910
23
0.0000000000
33
0.0000000000
40
0.0000000000
40
0.0000000000
40
0.0000000000
40
0.0000000000
40
0.1735658062
40
0.3421748629
40
0.4998014329
40
0.6429362950
40
0.7658445377
40
0.8660776688
40
0.9395864623
40
0.9847872631
40
1.0000000000
40
1.0000000000
40
1.0000000000
40
1.0000000000
10
-12.8650537006
20
15.0647123894
30
0.0000000000
10
-12.8650537006
20
15.0531406708
30
0.0000000000
10
-12.8650638388
20
15.0303262160
30
0.0000000000
10
-12.8651205279
20
14.9970106220
30
0.0000000000
10
-12.8651854665
20
14.9656964190
30
0.0000000000
10
-12.8653569236
20
14.9375179402
30
0.0000000000
10
-12.8653196265
20
14.9128974311
30
0.0000000000
10
-12.8659545983
20
14.8936680427
30
0.0000000000
10
-12.8649991178
20
14.8777821350
30
0.0000000000
10
-12.8671906041
20
14.8711801097
30
0.0000000000
10
-12.8652030258
20
14.8647123894
30
0.0000000000
10
-12.8662172666
20
14.8647123894
30
0.0000000000
11
-12.8650537006
21
15.0647123894
31
0.0000000000
11
-12.8650713629
21
15.0299972382
31
0.0000000000
11
-12.8651239460
21
14.9962735304
31
0.0000000000
11
-12.8652094743
21
14.9647465211
31
0.0000000000
11
-12.8653261026
21
14.9361181415
31
0.0000000000
11
-12.8654691190
21
14.9115354966
31
0.0000000000
11
-12.8656356740
21
14.8914884105
31
0.0000000000
11
-12.8658190944
21
14.8767869513
31
0.0000000000
11
-12.8660152959
21
14.8677484009
31
0.0000000000
11
-12.8662172666
21
14.8647123894
31
0.0000000000
0
SPLINE
5
452
100
AcDbEntity
8
0
100
AcDbSpline
62
7
6
CONTINUOUS
70
0
71
3
72
16
73
12
74
10
42
0.0000001000
43
0.0000001000
44
0.0000000001
12
-0.2001028891
22
0.0000000000
32
0.0000000000
13
0.0000000000
23
0.2001028891
33
0.0000000000
40
0.0000000000
40
0.0000000000
40
0.0000000000
40
0.0000000000
40
0.0154738234
40
0.0607448190
40
0.1342737310
40
0.2344961021
40
0.3573693143
40
0.5004482257
40
0.6580018494
40
0.8265264012
40
1.0000000000
40
1.0000000000
40
1.0000000000
40
1.0000000000
10
-15.1277802665
20
14.8647123894
30
0.0000000000
10
-15.1288123855
20
14.8647123894
30
0.0000000000
10
-15.1277270718
20
14.8710985742
30
0.0000000000
10
-15.1296483970
20
14.8778197059
30
0.0000000000
10
-15.1293661006
20
14.8936496788
30
0.0000000000
10
-15.1301734067
20
14.9129076086
30
0.0000000000
10
-15.1304644679
20
14.9375198836
30
0.0000000000
10
-15.1308434318
20
14.9657018614
30
0.0000000000
10
-15.1310806191
20
14.9970142872
30
0.0000000000
10
-15.1312378905
20
15.0303284980
30
0.0000000000
10
-15.1312712795
20
15.0531415333
30
0.0000000000
10
-15.1312712795
20
15.0647123894
30
0.0000000000
11
-15.1277802665
21
14.8647123894
31
0.0000000000
11
-15.1283862790
21
14.8677488633
31
0.0000000000
11
-15.1289749684
21
14.8767885721
31
0.0000000000
11
-15.1295252988
21
14.8914916241
31
0.0000000000
11
-15.1300250093
21
14.9115401835
31
0.0000000000
11
-15.1304540814
21
14.9361237241
31
0.0000000000
11
-15.1308039725
21
14.9647520896
31
0.0000000000
11
-15.1310605526
21
14.9962779808
31
0.0000000000
11
-15.1312182958
21
15.0299998615
31
0.0000000000
11
-15.1312712795
21
15.0647123894
31
0.0000000000
0
SPLINE
5
453
100
AcDbEntity
8
0
100
AcDbSpline
62
7
6
CONTINUOUS
70
0
71
3
72
16
73
12
74
10
42
0.0000001000
43
0.0000001000
44
0.0000000001
12
-0.2000114910
22
0.0000000000
32
0.0000000000
13
0.0000000000
23
0.2000114910
33
0.0000000000
40
0.0000000000
40
0.0000000000
40
0.0000000000
40
0.0000000000
40
0.0152127369
40
0.0604135377
40
0.1339223312
40
0.2341554623
40
0.3570637050
40
0.5001985671
40
0.6578251371
40
0.8264341938
40
1.0000000000
40
1.0000000000
40
1.0000000000
40
1.0000000000
10
-12.0220017600
20
14.8647123894
30
0.0000000000
10
-12.0230160007
20
14.8647123894
30
0.0000000000
10
-12.0210284225
20
14.8711801097
30
0.0000000000
10
-12.0232199087
20
14.8777821350
30
0.0000000000
10
-12.0222644282
20
14.8936680427
30
0.0000000000
10
-12.0228994000
20
14.9128974311
30
0.0000000000
10
-12.0228621029
20
14.9375179402
30
0.0000000000
10
-12.0230335600
20
14.9656964190
30
0.0000000000
10
-12.0230984986
20
14.9970106220
30
0.0000000000
10
-12.0231551878
20
15.0303262160
30
0.0000000000
10
-12.0231653260
20
15.0531406708
30
0.0000000000
10
-12.0231653260
20
15.0647123894
30
0.0000000000
11
-12.0220017600
21
14.8647123894
31
0.0000000000
11
-12.0222037306
21
14.8677484009
31
0.0000000000
11
-12.0223999321
21
14.8767869513
31
0.0000000000
11
-12.0225833525
21
14.8914884105
31
0.0000000000
11
-12.0227499076
21
14.9115354966
31
0.0000000000
11
-12.0228929239
21
14.9361181415
31
0.0000000000
11
-12.0230095523
21
14.9647465211
31
0.0000000000
11
-12.0230950806
21
14.9962735304
31
0.0000000000
11
-12.0231476636
21
15.0299972382
31
0.0000000000
11
-12.0231653260
21
15.0647123894
31
0.0000000000
0
SPLINE
5
454
100
AcDbEntity
8
0
100
AcDbSpline
62
7
6
CONTINUOUS
70
0
71
3
72
16
73
12
74
10
42
0.0000001000
43
0.0000001000
44
0.0000000001
12
0.0000000000
22
-0.2000114910
32
0.0000000000
13
-0.2000114910
23
0.0000000000
33
0.0000000000
40
0.0000000000
40
0.0000000000
40
0.0000000000
40
0.0000000000
40
0.1735658062
40
0.3421748629
40
0.4998014329
40
0.6429362950
40
0.7658445377
40
0.8660776688
40
0.9395864623
40
0.9847872631
40
1.0000000000
40
1.0000000000
40
1.0000000000
40
1.0000000000
10
0.9349462994
20
15.0647123894
30
0.0000000000
10
0.9349462994
20
15.0531406708
30
0.0000000000
10
0.9349361612
20
15.0303262160
30
0.0000000000
10
0.9348794721
20
14.9970106220
30
0.0000000000
10
0.9348145335
20
14.9656964190
30
0.0000000000
10
0.9346430764
20
14.9375179402
30
0.0000000000
10
0.9346803735
20
14.9128974311
30
0.0000000000
10
0.9340454017
20
14.8936680427
30
0.0000000000
10
0.9350008822
20
14.8777821350
30
0.0000000000
10
0.9328093959
20
14.8711801097
30
0.0000000000
10
0.9347969742
20
14.8647123894
30
0.0000000000
10
0.9337827334
20
14.8647123894
30
0.0000000000
11
0.9349462994
21
15.0647123894
31
0.0000000000
11
0.9349286371
21
15.0299972382
31
0.0000000000
11
0.9348760540
21
14.9962735304
31
0.0000000000
11
0.9347905257
21
14.9647465211
31
0.0000000000
11
0.9346738974
21
14.9361181415
31
0.0000000000
11
0.9345308810
21
14.9115354966
31
0.0000000000
11
0.9343643260
21
14.8914884105
31
0.0000000000
11
0.9341809056
21
14.8767869513
31
0.0000000000
11
0.9339847041
21
14.8677484009
31
0.0000000000
11
0.9337827334
21
14.8647123894
31
0.0000000000
0
SPLINE
5
455
100
AcDbEntity
8
0
100
AcDbSpline
62
7
6
CONTINUOUS
70
0
71
3
72
16
73
12
74
10
42
0.0000001000
43
0.0000001000
44
0.0000000001
12
0.0000000000
22
-0.2001028891
32
0.0000000000
13
-0.2001028891
23
0.0000000000
33
0.0000000000
40
0.0000000000
40
0.0000000000
40
0.0000000000
40
0.0000000000
40
0.1734735988
40
0.3419981506
40
0.4995517743
40
0.6426306857
40
0.7655038979
40
0.8657262690
40
0.9392551810
40
0.9845261766
40
1.0000000000
40
1.0000000000
40
1.0000000000
40
1.0000000000
10
4.0430522530
20
15.0647123894
30
0.0000000000
10
4.0430522530
20
15.0531415333
30
0.0000000000
10
4.0430188639
20
15.0303284980
30
0.0000000000
10
4.0428615925
20
14.9970142872
30
0.0000000000
10
4.0426244053
20
14.9657018614
30
0.0000000000
10
4.0422454414
20
14.9375198836
30
0.0000000000
10
4.0419543802
20
14.9129076086
30
0.0000000000
10
4.0411470740
20
14.8936496788
30
0.0000000000
10
4.0414293705
20
14.8778197059
30
0.0000000000
10
4.0395080452
20
14.8710985742
30
0.0000000000
10
4.0405933589
20
14.8647123894
30
0.0000000000
10
4.0395612400
20
14.8647123894
30
0.0000000000
11
4.0430522530
21
15.0647123894
31
0.0000000000
11
4.0429992693
21
15.0299998615
31
0.0000000000
11
4.0428415261
21
14.9962779808
31
0.0000000000
11
4.0425849459
21
14.9647520896
31
0.0000000000
11
4.0422350549
21
14.9361237241
31
0.0000000000
11
4.0418059827
21
14.9115401835
31
0.0000000000
11
4.0413062722
21
14.8914916241
31
0.0000000000
11
4.0407559418
21
14.8767885721
31
0.0000000000
11
4.0401672525
21
14.8677488633
31
0.0000000000
11
4.0395612400
21
14.8647123894
31
0.0000000000
0
SPLINE
5
456
100
AcDbEntity
8
0
100
AcDbSpline
62
7
6
CONTINUOUS
70
0
71
3
72
16
73
12
74
10
42
0.0000001000
43
0.0000001000
44
0.0000000001
12
-0.2000114910
22
0.0000000000
32
0.0000000000
13
0.0000000000
23
0.2000114910
33
0.0000000000
40
0.0000000000
40
0.0000000000
40
0.0000000000
40
0.0000000000
40
0.0152127369
40
0.0604135377
40
0.1339223312
40
0.2341554623
40
0.3570637050
40
0.5001985671
40
0.6578251371
40
0.8264341938
40
1.0000000000
40
1.0000000000
40
1.0000000000
40
1.0000000000
10
1.7779982400
20
14.8647123894
30
0.0000000000
10
1.7769839993
20
14.8647123894
30
0.0000000000
10
1.7789715775
20
14.8711801097
30
0.0000000000
10
1.7767800913
20
14.8777821350
30
0.0000000000
10
1.7777355718
20
14.8936680427
30
0.0000000000
10
1.7771006000
20
14.9128974311
30
0.0000000000
10
1.7771378971
20
14.9375179402
30
0.0000000000
10
1.7769664400
20
14.9656964190
30
0.0000000000
10
1.7769015014
20
14.9970106220
30
0.0000000000
10
1.7768448122
20
15.0303262160
30
0.0000000000
10
1.7768346740
20
15.0531406708
30
0.0000000000
10
1.7768346740
20
15.0647123894
30
0.0000000000
11
1.7779982400
21
14.8647123894
31
0.0000000000
11
1.7777962694
21
14.8677484009
31
0.0000000000
11
1.7776000679
21
14.8767869513
31
0.0000000000
11
1.7774166475
21
14.8914884105
31
0.0000000000
11
1.7772500924
21
14.9115354966
31
0.0000000000
11
1.7771070761
21
14.9361181415
31
0.0000000000
11
1.7769904477
21
14.9647465211
31
0.0000000000
11
1.7769049194
21
14.9962735304
31
0.0000000000
11
1.7768523364
21
15.0299972382
31
0.0000000000
11
1.7768346740
21
15.0647123894
31
0.0000000000
0
SPLINE
5
457
100
AcDbEntity
8
0
100
AcDbSpline
62
7
6
CONTINUOUS
70
0
71
3
72
16
73
12
74
10
42
0.0000001000
43
0.0000001000
44
0.0000000001
12
0.2000258337
22
0.0000000000
32
0.0000000000
13
0.0000000000
23
-0.2000258337
33
0.0000000000
40
0.0000000000
40
0.0000000000
40
0.0000000000
40
0.0000000000
40
0.1735513396
40
0.3421471353
40
0.4997622544
40
0.6428883268
40
0.7657910559
40
0.8660224742
40
0.9395343907
40
0.9847461584
40
1.0000000000
40
1.0000000000
40
1.0000000000
40
1.0000000000
10
-1.2441095133
20
15.5647123894
30
0.0000000000
10
-1.2325379295
20
15.5647123894
30
0.0000000000
10
-1.2097236968
20
15.5646964359
30
0.0000000000
10
-1.1764083175
20
15.5646146105
30
0.0000000000
10
-1.1450943966
20
15.5645065766
30
0.0000000000
10
-1.1169153571
20
15.5642833513
30
0.0000000000
10
-1.0922961759
20
15.5642382477
30
0.0000000000
10
-1.0730622161
20
15.5635610758
30
0.0000000000
10
-1.0571853050
20
15.5643462274
30
0.0000000000
10
-1.0505642277
20
15.5622263706
30
0.0000000000
10
-1.0441095133
20
15.5639840700
30
0.0000000000
10
-1.0441095133
20
15.5629670158
30
0.0000000000
11
-1.2441095133
21
15.5647123894
31
0.0000000000
11
-1.2093947720
21
15.5646858961
31
0.0000000000
11
-1.1756713496
21
15.5646070220
31
0.0000000000
11
-1.1441445150
21
15.5644787300
31
0.0000000000
11
-1.1155161376
21
15.5643037869
31
0.0000000000
11
-1.0909333528
21
15.5640892606
31
0.0000000000
11
-1.0708860365
21
15.5638394245
31
0.0000000000
11
-1.0561843284
21
15.5635642885
31
0.0000000000
11
-1.0471455971
21
15.5632699797
31
0.0000000000
11
-1.0441095133
21
15.5629670158
31
0.0000000000
0
SPLINE
5
458
100
AcDbEntity
8
0
100
AcDbSpline
62
9
6
CONTINUOUS
70
0
71
3
72
17
73
13
74
11
42
0.0000001000
43
0.0000001000
44
0.0000000001
12
0.3922846482
22
-0.0000132773
32
0.0000000000
13
0.0000132773
23
-0.3922846482
33
0.0000000000
40
0.0000000000
40
0.0000000000
40
0.0000000000
40
0.0000000000
40
0.0999991830
40
0.1999988695
40
0.2999989843
40
0.3999994104
40
0.5000000000
40
0.6000005896
40
0.7000010157
40
0.8000011305
40
0.9000008170
40
1.0000000000
40
1.0000000000
40
1.0000000000
40
1.0000000000
10
-14.0484771165
20
20.0603405554
30
0.0000000000
10
-14.0354010684
20
20.0603401128
30
0.0000000000
10
-14.0092025310
20
20.0582789353
30
0.0000000000
10
-13.9709090481
20
20.0490824827
30
0.0000000000
10
-13.9345155093
20
20.0340077803
30
0.0000000000
10
-13.9009306341
20
20.0134259859
30
0.0000000000
10
-13.8709779681
20
19.9878439345
30
0.0000000000
10
-13.8453959168
20
19.9578912686
30
0.0000000000
10
-13.8248141224
20
19.9243063933
30
0.0000000000
10
-13.8097394199
20
19.8879128545
30
0.0000000000
10
-13.8005429674
20
19.8496193717
30
0.0000000000
10
-13.7984817898
20
19.8234208343
30
0.0000000000
10
-13.7984813473
20
19.8103447862
30
0.0000000000
11
-14.0484771165
21
20.0603405554
31
0.0000000000
11
-14.0093699978
21
20.0572615014
31
0.0000000000
11
-13.9712257847
21
20.0481027998
31
0.0000000000
11
-13.9349836740
21
20.0330899587
31
0.0000000000
11
-13.9015360283
21
20.0125926280
31
0.0000000000
11
-13.8717064043
21
19.9871154984
31
0.0000000000
11
-13.8462292747
21
19.9572858744
31
0.0000000000
11
-13.8257319440
21
19.9238382287
31
0.0000000000
11
-13.8107191028
21
19.8875961180
31
0.0000000000
11
-13.8015604013
21
19.8494519049
31
0.0000000000
11
-13.7984813473
21
19.8103447862
31
0.0000000000
0
SPLINE
5
459
100
AcDbEntity
8
0
100
AcDbSpline
62
7
6
CONTINUOUS
70
0
71
3
72
17
73
13
74
11
42
0.0000001000
43
0.0000001000
44
0.0000000001
12
0.0000000000
22
-0.4220147089
32
0.0000000000
13
-0.4220147089
23
0.0000000000
33
0.0000000000
40
0.0000000000
40
0.0000000000
40
0.0000000000
40
0.0000000000
40
0.1163097356
40
0.2303278571
40
0.3412445469
40
0.4475088604
40
0.5491224320
40
0.6456322518
40
0.7382753117
40
0.8272646510
40
0.9144010609
40
1.0000000000
40
1.0000000000
40
1.0000000000
40
1.0000000000
10
-13.7941095133
20
18.9751975376
30
0.0000000000
10
-13.7941095133
20
18.9588360645
30
0.0000000000
10
-13.7964994768
20
18.9263835607
30
0.0000000000
10
-13.8070624777
20
18.8793855487
30
0.0000000000
10
-13.8239671284
20
18.8357796021
30
0.0000000000
10
-13.8463692394
20
18.7967311568
30
0.0000000000
10
-13.8732199390
20
18.7631554670
30
0.0000000000
10
-13.9035648903
20
18.7354757953
30
0.0000000000
10
-13.9364446125
20
18.7139538556
30
0.0000000000
10
-13.9711766063
20
18.6985874254
30
0.0000000000
10
-14.0069982466
20
18.6894021603
30
0.0000000000
10
-14.0313451783
20
18.6873621202
30
0.0000000000
10
-14.0433865154
20
18.6873621202
30
0.0000000000
11
-13.7941095133
21
18.9751975376
31
0.0000000000
11
-13.7977318721
21
18.9262469633
31
0.0000000000
11
-13.8083193764
21
18.8793089014
31
0.0000000000
11
-13.8252939302
21
18.8356866844
31
0.0000000000
11
-13.8476706161
21
18.7968232412
31
0.0000000000
11
-13.8745118070
21
18.7633799672
31
0.0000000000
11
-13.9046504241
21
18.7359850836
31
0.0000000000
11
-13.9373969917
21
18.7146258488
31
0.0000000000
11
-13.9717596301
21
18.6994741874
31
0.0000000000
11
-14.0073880913
21
18.6903717150
31
0.0000000000
11
-14.0433865154
21
18.6873621202
31
0.0000000000
0
SPLINE
5
45A
100
AcDbEntity
8
0
100
AcDbSpline
62
9
6
CONTINUOUS
70
0
71
3
72
17
73
13
74
11
42
0.0000001000
43
0.0000001000
44
0.0000000001
12
-0.0012298291
22
-0.3661500354
32
0.0000000000
13
-0.3661509389
23
-0.0009224053
33
0.0000000000
40
0.0000000000
40
0.0000000000
40
0.0000000000
40
0.0000000000
40
0.0926637669
40
0.1861959939
40
0.2811621264
40
0.3780472439
40
0.4771141944
40
0.5784104998
40
0.6817687109
40
0.7868361684
40
0.8931123906
40
1.0000000000
40
1.0000000000
40
1.0000000000
40
1.0000000000
10
-13.7984813473
20
19.4090499567
30
0.0000000000
10
-13.7985193341
20
19.3977403428
30
0.0000000000
10
-13.8006674020
20
19.3749695794
30
0.0000000000
10
-13.8100019799
20
19.3417679064
30
0.0000000000
10
-13.8252117280
20
19.3102382490
30
0.0000000000
10
-13.8458976139
20
19.2811805081
30
0.0000000000
10
-13.8715327183
20
19.2552949287
30
0.0000000000
10
-13.9014759823
20
19.2332029776
30
0.0000000000
10
-13.9349888814
20
19.2154293399
30
0.0000000000
10
-13.9712551831
20
19.2023950730
30
0.0000000000
10
-14.0093843664
20
19.1944084177
30
0.0000000000
10
-14.0354314503
20
19.1925764703
30
0.0000000000
10
-14.0484771165
20
19.1925436057
30
0.0000000000
11
-13.7984813473
21
19.4090499567
31
0.0000000000
11
-13.8016564070
21
19.3752698106
31
0.0000000000
11
-13.8108870297
21
19.3422902096
31
0.0000000000
11
-13.8259466537
21
19.3109484944
31
0.0000000000
11
-13.8464675291
21
19.2820115413
31
0.0000000000
11
-13.8719452184
21
19.2561917936
31
0.0000000000
11
-13.9017547921
21
19.2341226598
31
0.0000000000
11
-13.9351646195
21
19.2163458689
31
0.0000000000
11
-13.9713548923
21
19.2032976265
31
0.0000000000
11
-14.0094370513
21
19.1952981812
31
0.0000000000
11
-14.0484771165
21
19.1925436057
31
0.0000000000
0
SPLINE
5
45B
100
AcDbEntity
8
0
100
AcDbSpline
62
9
6
CONTINUOUS
70
0
71
3
72
17
73
13
74
11
42
0.0000001000
43
0.0000001000
44
0.0000000001
12
0.0012298291
22
-0.3661500354
32
0.0000000000
13
0.3661509389
23
-0.0009224053
33
0.0000000000
40
0.0000000000
40
0.0000000000
40
0.0000000000
40
0.0000000000
40
0.0926637669
40
0.1861959939
40
0.2811621264
40
0.3780472439
40
0.4771141944
40
0.5784104998
40
0.6817687109
40
0.7868361684
40
0.8931123906
40
1.0000000000
40
1.0000000000
40
1.0000000000
40
1.0000000000
10
-16.1897376793
20
19.4090499567
30
0.0000000000
10
-16.1896996924
20
19.3977403428
30
0.0000000000
10
-16.1875516245
20
19.3749695794
30
0.0000000000
10
-16.1782170466
20
19.3417679064
30
0.0000000000
10
-16.1630072986
20
19.3102382490
30
0.0000000000
10
-16.1423214126
20
19.2811805081
30
0.0000000000
10
-16.1166863082
20
19.2552949287
30
0.0000000000
10
-16.0867430442
20
19.2332029776
30
0.0000000000
10
-16.0532301451
20
19.2154293399
30
0.0000000000
10
-16.0169638434
20
19.2023950730
30
0.0000000000
10
-15.9788346602
20
19.1944084177
30
0.0000000000
10
-15.9527875762
20
19.1925764703
30
0.0000000000
10
-15.9397419101
20
19.1925436057
30
0.0000000000
11
-16.1897376793
21
19.4090499567
31
0.0000000000
11
-16.1865626195
21
19.3752698106
31
0.0000000000
11
-16.1773319969
21
19.3422902096
31
0.0000000000
11
-16.1622723729
21
19.3109484944
31
0.0000000000
11
-16.1417514975
21
19.2820115413
31
0.0000000000
11
-16.1162738081
21
19.2561917936
31
0.0000000000
11
-16.0864642345
21
19.2341226598
31
0.0000000000
11
-16.0530544070
21
19.2163458689
31
0.0000000000
11
-16.0168641343
21
19.2032976265
31
0.0000000000
11
-15.9787819752
21
19.1952981812
31
0.0000000000
11
-15.9397419101
21
19.1925436057
31
0.0000000000
0
SPLINE
5
45C
100
AcDbEntity
8
0
100
AcDbSpline
62
7
6
CONTINUOUS
70
0
71
3
72
17
73
13
74
11
42
0.0000001000
43
0.0000001000
44
0.0000000001
12
-0.4220147089
22
0.0000000000
32
0.0000000000
13
0.0000000000
23
0.4220147089
33
0.0000000000
40
0.0000000000
40
0.0000000000
40
0.0000000000
40
0.0000000000
40
0.0855989391
40
0.1727353490
40
0.2617246883
40
0.3543677482
40
0.4508775680
40
0.5524911396
40
0.6587554531
40
0.7696721429
40
0.8836902644
40
1.0000000000
40
1.0000000000
40
1.0000000000
40
1.0000000000
10
-15.9448325111
20
18.6873621202
30
0.0000000000
10
-15.9568738483
20
18.6873621202
30
0.0000000000
10
-15.9812207800
20
18.6894021603
30
0.0000000000
10
-16.0170424202
20
18.6985874254
30
0.0000000000
10
-16.0517744141
20
18.7139538556
30
0.0000000000
10
-16.0846541362
20
18.7354757953
30
0.0000000000
10
-16.1149990876
20
18.7631554670
30
0.0000000000
10
-16.1418497872
20
18.7967311568
30
0.0000000000
10
-16.1642518982
20
18.8357796021
30
0.0000000000
10
-16.1811565488
20
18.8793855487
30
0.0000000000
10
-16.1917195498
20
18.9263835607
30
0.0000000000
10
-16.1941095133
20
18.9588360645
30
0.0000000000
10
-16.1941095133
20
18.9751975376
30
0.0000000000
11
-15.9448325111
21
18.6873621202
31
0.0000000000
11
-15.9808309352
21
18.6903717150
31
0.0000000000
11
-16.0164593964
21
18.6994741874
31
0.0000000000
11
-16.0508220349
21
18.7146258488
31
0.0000000000
11
-16.0835686025
21
18.7359850836
31
0.0000000000
11
-16.1137072196
21
18.7633799672
31
0.0000000000
11
-16.1405484104
21
18.7968232412
31
0.0000000000
11
-16.1629250964
21
18.8356866844
31
0.0000000000
11
-16.1798996502
21
18.8793089014
31
0.0000000000
11
-16.1904871544
21
18.9262469633
31
0.0000000000
11
-16.1941095133
21
18.9751975376
31
0.0000000000
0
SPLINE
5
45D
100
AcDbEntity
8
0
100
AcDbSpline
62
9
6
CONTINUOUS
70
0
71
3
72
17
73
13
74
11
42
0.0000001000
43
0.0000001000
44
0.0000000001
12
0.0000132773
22
0.3922846482
32
0.0000000000
13
0.3922846482
23
0.0000132773
33
0.0000000000
40
0.0000000000
40
0.0000000000
40
0.0000000000
40
0.0000000000
40
0.0999991830
40
0.1999988695
40
0.2999989843
40
0.3999994104
40
0.5000000000
40
0.6000005896
40
0.7000010157
40
0.8000011305
40
0.9000008170
40
1.0000000000
40
1.0000000000
40
1.0000000000
40
1.0000000000
10
-16.1897376793
20
19.8103447862
30
0.0000000000
10
-16.1897372367
20
19.8234208343
30
0.0000000000
10
-16.1876760592
20
19.8496193717
30
0.0000000000
10
-16.1784796066
20
19.8879128545
30
0.0000000000
10
-16.1634049042
20
19.9243063933
30
0.0000000000
10
-16.1428231098
20
19.9578912686
30
0.0000000000
10
-16.1172410584
20
19.9878439345
30
0.0000000000
10
-16.0872883925
20
20.0134259859
30
0.0000000000
10
-16.0537035172
20
20.0340077803
30
0.0000000000
10
-16.0173099784
20
20.0490824827
30
0.0000000000
10
-15.9790164956
20
20.0582789353
30
0.0000000000
10
-15.9528179582
20
20.0603401128
30
0.0000000000
10
-15.9397419101
20
20.0603405554
30
0.0000000000
11
-16.1897376793
21
19.8103447862
31
0.0000000000
11
-16.1866586253
21
19.8494519049
31
0.0000000000
11
-16.1774999237
21
19.8875961180
31
0.0000000000
11
-16.1624870826
21
19.9238382287
31
0.0000000000
11
-16.1419897519
21
19.9572858744
31
0.0000000000
11
-16.1165126223
21
19.9871154984
31
0.0000000000
11
-16.0866829983
21
20.0125926280
31
0.0000000000
11
-16.0532353526
21
20.0330899587
31
0.0000000000
11
-16.0169932419
21
20.0481027998
31
0.0000000000
11
-15.9788490288
21
20.0572615014
31
0.0000000000
11
-15.9397419101
21
20.0603405554
31
0.0000000000
0
SPLINE
5
45E
100
AcDbEntity
8
0
100
AcDbSpline
62
7
6
CONTINUOUS
70
0
71
3
72
16
73
12
74
10
42
0.0000001000
43
0.0000001000
44
0.0000000001
12
0.0000000000
22
0.2000258337
32
0.0000000000
13
0.2000258337
23
0.0000000000
33
0.0000000000
40
0.0000000000
40
0.0000000000
40
0.0000000000
40
0.0000000000
40
0.0152538416
40
0.0604656093
40
0.1339775258
40
0.2342089441
40
0.3571116732
40
0.5002377456
40
0.6578528647
40
0.8264486604
40
1.0000000000
40
1.0000000000
40
1.0000000000
40
1.0000000000
10
-10.0441095133
20
15.5629670158
30
0.0000000000
10
-10.0441095133
20
15.5639840700
30
0.0000000000
10
-10.0376547988
20
15.5622263706
30
0.0000000000
10
-10.0310337215
20
15.5643462274
30
0.0000000000
10
-10.0151568105
20
15.5635610758
30
0.0000000000
10
-9.9959228507
20
15.5642382477
30
0.0000000000
10
-9.9713036695
20
15.5642833513
30
0.0000000000
10
-9.9431246300
20
15.5645065766
30
0.0000000000
10
-9.9118107090
20
15.5646146105
30
0.0000000000
10
-9.8784953298
20
15.5646964359
30
0.0000000000
10
-9.8556810971
20
15.5647123894
30
0.0000000000
10
-9.8441095133
20
15.5647123894
30
0.0000000000
11
-10.0441095133
21
15.5629670158
31
0.0000000000
11
-10.0410734295
21
15.5632699797
31
0.0000000000
11
-10.0320346982
21
15.5635642885
31
0.0000000000
11
-10.0173329901
21
15.5638394245
31
0.0000000000
11
-9.9972856738
21
15.5640892606
31
0.0000000000
11
-9.9727028889
21
15.5643037869
31
0.0000000000
11
-9.9440745115
21
15.5644787300
31
0.0000000000
11
-9.9125476769
21
15.5646070220
31
0.0000000000
11
-9.8788242546
21
15.5646858961
31
0.0000000000
11
-9.8441095133
21
15.5647123894
31
0.0000000000
0
SPLINE
5
45F
100
AcDbEntity
8
0
100
AcDbSpline
62
9
6
CONTINUOUS
70
0
71
3
72
17
73
13
74
11
42
0.0000001000
43
0.0000001000
44
0.0000000001
12
-0.3922846482
22
0.0000132773
32
0.0000000000
13
-0.0000132773
23
0.3922846482
33
0.0000000000
40
0.0000000000
40
0.0000000000
40
0.0000000000
40
0.0000000000
40
0.0999991830
40
0.1999988695
40
0.2999989843
40
0.3999994104
40
0.5000000000
40
0.6000005896
40
0.7000010157
40
0.8000011305
40
0.9000008170
40
1.0000000000
40
1.0000000000
40
1.0000000000
40
1.0000000000
10
2.9602580899
20
-28.9309157766
30
0.0000000000
10
2.9471820418
20
-28.9309153340
30
0.0000000000
10
2.9209835044
20
-28.9288541565
30
0.0000000000
10
2.8826900216
20
-28.9196577040
30
0.0000000000
10
2.8462964828
20
-28.9045830015
30
0.0000000000
10
2.8127116075
20
-28.8840012071
30
0.0000000000
10
2.7827589416
20
-28.8584191558
30
0.0000000000
10
2.7571768902
20
-28.8284664898
30
0.0000000000
10
2.7365950958
20
-28.7948816146
30
0.0000000000
10
2.7215203934
20
-28.7584880758
30
0.0000000000
10
2.7123239408
20
-28.7201945929
30
0.0000000000
10
2.7102627633
20
-28.6939960555
30
0.0000000000
10
2.7102623207
20
-28.6809200074
30
0.0000000000
11
2.9602580899
21
-28.9309157766
31
0.0000000000
11
2.9211509712
21
-28.9278367226
31
0.0000000000
11
2.8830067581
21
-28.9186780210
31
0.0000000000
11
2.8467646474
21
-28.9036651799
31
0.0000000000
11
2.8133170017
21
-28.8831678492
31
0.0000000000
11
2.7834873777
21
-28.8576907196
31
0.0000000000
11
2.7580102481
21
-28.8278610956
31
0.0000000000
11
2.7375129174
21
-28.7944134499
31
0.0000000000
11
2.7225000763
21
-28.7581713392
31
0.0000000000
11
2.7133413747
21
-28.7200271261
31
0.0000000000
11
2.7102623207
21
-28.6809200074
31
0.0000000000
0
SPLINE
5
460
100
AcDbEntity
8
0
100
AcDbSpline
62
7
6
CONTINUOUS
70
0
71
3
72
17
73
13
74
11
42
0.0000001000
43
0.0000001000
44
0.0000000001
12
0.0000000000
22
0.4220147089
32
0.0000000000
13
0.4220147089
23
0.0000000000
33
0.0000000000
40
0.0000000000
40
0.0000000000
40
0.0000000000
40
0.0000000000
40
0.1163097356
40
0.2303278571
40
0.3412445469
40
0.4475088604
40
0.5491224320
40
0.6456322518
40
0.7382753117
40
0.8272646510
40
0.9144010609
40
1.0000000000
40
1.0000000000
40
1.0000000000
40
1.0000000000
10
2.7058904867
20
-27.8457727588
30
0.0000000000
10
2.7058904867
20
-27.8294112858
30
0.0000000000
10
2.7082804502
20
-27.7969587820
30
0.0000000000
10
2.7188434512
20
-27.7499607699
30
0.0000000000
10
2.7357481018
20
-27.7063548233
30
0.0000000000
10
2.7581502128
20
-27.6673063780
30
0.0000000000
10
2.7850009124
20
-27.6337306882
30
0.0000000000
10
2.8153458638
20
-27.6060510165
30
0.0000000000
10
2.8482255859
20
-27.5845290769
30
0.0000000000
10
2.8829575798
20
-27.5691626466
30
0.0000000000
10
2.9187792200
20
-27.5599773815
30
0.0000000000
10
2.9431261517
20
-27.5579373414
30
0.0000000000
10
2.9551674889
20
-27.5579373414
30
0.0000000000
11
2.7058904867
21
-27.8457727588
31
0.0000000000
11
2.7095128456
21
-27.7968221845
31
0.0000000000
11
2.7201003498
21
-27.7498841226
31
0.0000000000
11
2.7370749036
21
-27.7062619057
31
0.0000000000
11
2.7594515896
21
-27.6673984624
31
0.0000000000
11
2.7862927804
21
-27.6339551884
31
0.0000000000
11
2.8164313975
21
-27.6065603049
31
0.0000000000
11
2.8491779651
21
-27.5852010700
31
0.0000000000
11
2.8835406036
21
-27.5700494087
31
0.0000000000
11
2.9191690648
21
-27.5609469363
31
0.0000000000
11
2.9551674889
21
-27.5579373414
31
0.0000000000
0
SPLINE
5
461
100
AcDbEntity
8
0
100
AcDbSpline
62
7
6
CONTINUOUS
70
0
71
3
72
18
73
14
74
12
42
0.0000001000
43
0.0000001000
44
0.0000000001
12
0.0031763781
22
0.3152256661
32
0.0000000000
13
0.3152416691
23
0.0000000000
33
0.0000000000
40
0.0000000000
40
0.0000000000
40
0.0000000000
40
0.0000000000
40
0.0600923894
40
0.1232193774
40
0.1912702092
40
0.2657636629
40
0.3477531865
40
0.4378167491
40
0.5360799495
40
0.6422378908
40
0.7555663097
40
0.8749375201
40
1.0000000000
40
1.0000000000
40
1.0000000000
40
1.0000000000
10
2.7102623207
20
-28.2796251779
30
0.0000000000
10
2.7103259461
20
-28.2733109568
30
0.0000000000
10
2.7119536055
20
-28.2603352138
30
0.0000000000
10
2.7188408726
20
-28.2412982395
30
0.0000000000
10
2.7302113228
20
-28.2227622732
30
0.0000000000
10
2.7460021606
20
-28.2050861967
30
0.0000000000
10
2.7661036504
20
-28.1886011652
30
0.0000000000
10
2.7903457006
20
-28.1736543583
30
0.0000000000
10
2.8184758126
20
-28.1606062295
30
0.0000000000
10
2.8501379839
20
-28.1498284003
30
0.0000000000
10
2.8848577269
20
-28.1416845517
30
0.0000000000
10
2.9221443699
20
-28.1365277727
30
0.0000000000
10
2.9478436837
20
-28.1352876106
30
0.0000000000
10
2.9609853187
20
-28.1352876106
30
0.0000000000
11
2.7102623207
21
-28.2796251779
31
0.0000000000
11
2.7125816613
21
-28.2608240718
31
0.0000000000
11
2.7192491713
21
-28.2420740173
31
0.0000000000
11
2.7303438436
21
-28.2237132932
31
0.0000000000
11
2.7458723405
21
-28.2060968869
31
0.0000000000
11
2.7657637096
21
-28.1895930771
31
0.0000000000
11
2.7898620127
21
-28.1745809020
31
0.0000000000
11
2.8179163755
21
-28.1614467518
31
0.0000000000
11
2.8495680746
21
-28.1505792139
31
0.0000000000
11
2.8843357544
21
-28.1423606930
31
0.0000000000
11
2.9216046311
21
-28.1371543123
31
0.0000000000
11
2.9609853187
21
-28.1352876106
31
0.0000000000
0
SPLINE
5
462
100
AcDbEntity
8
0
100
AcDbSpline
62
9
6
CONTINUOUS
70
0
71
3
72
17
73
13
74
11
42
0.0000001000
43
0.0000001000
44
0.0000000001
12
-0.0000132773
22
-0.3922846478
32
0.0000000000
13
-0.3922846478
23
-0.0000132773
33
0.0000000000
40
0.0000000000
40
0.0000000000
40
0.0000000000
40
0.0000000000
40
0.0998239394
40
0.1998359985
40
0.2998483200
40
0.3998691378
40
0.4998893118
40
0.5999112671
40
0.6999336806
40
0.7999562942
40
0.8999787118
40
1.0000000000
40
1.0000000000
40
1.0000000000
40
1.0000000000
10
5.1015186527
20
-28.6809200074
30
0.0000000000
10
5.1015182109
20
-28.6939731404
30
0.0000000000
10
5.0994623650
20
-28.7201501294
30
0.0000000000
10
5.0902807081
20
-28.7584269454
30
0.0000000000
10
5.0752127135
20
-28.7948296717
30
0.0000000000
10
5.0546347307
20
-28.8284250039
30
0.0000000000
10
5.0290530895
20
-28.8583886915
30
0.0000000000
10
4.9990981146
20
-28.8839808710
30
0.0000000000
10
4.9655083450
20
-28.9045713616
30
0.0000000000
10
4.9291079147
20
-28.9196526829
30
0.0000000000
10
4.8908062531
20
-28.9288532351
30
0.0000000000
10
4.8646018221
20
-28.9309153339
30
0.0000000000
10
4.8515228835
20
-28.9309157766
30
0.0000000000
11
5.1015186527
21
-28.6809200074
31
0.0000000000
11
5.0984503787
21
-28.7199590163
31
0.0000000000
11
5.0893006954
21
-28.7581103849
31
0.0000000000
11
5.0742949658
21
-28.7943606232
31
0.0000000000
11
5.0538008523
21
-28.8278196212
31
0.0000000000
11
5.0283243913
21
-28.8576599187
31
0.0000000000
11
4.9984924055
21
-28.8831471875
31
0.0000000000
11
4.9650399334
21
-28.9036531493
31
0.0000000000
11
4.9287909944
21
-28.9186725681
31
0.0000000000
11
4.8906385934
21
-28.9278353615
31
0.0000000000
11
4.8515228835
21
-28.9309157766
31
0.0000000000
0
SPLINE
5
463
100
AcDbEntity
8
0
100
AcDbSpline
62
7
6
CONTINUOUS
70
0
71
3
72
16
73
12
74
10
42
0.0000001000
43
0.0000001000
44
0.0000000001
12
-0.1109507685
22
-0.1664284998
32
0.0000000000
13
-0.2000212953
23
-0.0000000000
33
0.0000000000
40
0.0000000000
40
0.0000000000
40
0.0000000000
40
0.0000000000
40
0.0161433614
40
0.0620019158
40
0.1359041257
40
0.2362718496
40
0.3590814697
40
0.5019048682
40
0.6590618918
40
0.8270804587
40
1.0000000000
40
1.0000000000
40
1.0000000000
40
1.0000000000
10
1.6988689853
20
-25.4295479369
30
0.0000000000
10
1.6982719458
20
-25.4304435087
30
0.0000000000
10
1.6930410718
20
-25.4290113522
30
0.0000000000
10
1.6850046300
20
-25.4307836417
30
0.0000000000
10
1.6697706884
20
-25.4302011202
30
0.0000000000
10
1.6502007325
20
-25.4307884898
30
0.0000000000
10
1.6257125397
20
-25.4308652225
30
0.0000000000
10
1.5975529839
20
-25.4310761858
30
0.0000000000
10
1.5663409064
20
-25.4311868584
30
0.0000000000
10
1.5331338331
20
-25.4312670784
30
0.0000000000
10
1.5104015668
20
-25.4312831563
30
0.0000000000
10
1.4988723699
20
-25.4312831563
30
0.0000000000
11
1.6988689853
21
-25.4295479369
31
0.0000000000
11
1.6956540943
21
-25.4298496328
31
0.0000000000
11
1.6864860823
21
-25.4301424669
31
0.0000000000
11
1.6717065985
21
-25.4304160513
31
0.0000000000
11
1.6516324518
21
-25.4306643385
31
0.0000000000
11
1.6270688370
21
-25.4308774541
31
0.0000000000
11
1.5985016441
21
-25.4310511839
31
0.0000000000
11
1.5670671507
21
-25.4311785609
31
0.0000000000
11
1.5334599505
21
-25.4312568583
31
0.0000000000
11
1.4988723699
21
-25.4312831563
31
0.0000000000
0
SPLINE
5
464
100
AcDbEntity
8
0
100
AcDbSpline
62
9
6
CONTINUOUS
70
0
71
3
72
28
73
24
74
22
42
0.0000001000
43
0.0000001000
44
0.0000000001
12
0.0000248823
22
0.4520129625
32
0.0000000000
13
0.0000258698
23
-0.4520129624
33
0.0000000000
40
0.0000000000
40
0.0000000000
40
0.0000000000
40
0.0000000000
40
0.0479336213
40
0.0959116536
40
0.1438302608
40
0.1916543846
40
0.2393715409
40
0.2869712793
40
0.3344549208
40
0.3818339651
40
0.4291338670
40
0.4763810064
40
0.5236121369
40
0.5708598254
40
0.6181602517
40
0.6655397712
40
0.7130239112
40
0.7606240881
40
0.8083416385
40
0.8561661254
40
0.9040851750
40
0.9520634573
40
1.0000000000
40
1.0000000000
40
1.0000000000
40
1.0000000000
10
1.2129086036
20
-24.4289521766
30
0.0000000000
10
1.2129090011
20
-24.4217299705
30
0.0000000000
10
1.2139759890
20
-24.4072562318
30
0.0000000000
10
1.2187498264
20
-24.3860402652
30
0.0000000000
10
1.2265930311
20
-24.3657699071
30
0.0000000000
10
1.2373274770
20
-24.3469169719
30
0.0000000000
10
1.2507100999
20
-24.3299018465
30
0.0000000000
10
1.2664402436
20
-24.3151042046
30
0.0000000000
10
1.2841643115
20
-24.3028532229
30
0.0000000000
10
1.3034857638
20
-24.2934201710
30
0.0000000000
10
1.3239732655
20
-24.2870134638
30
0.0000000000
10
1.3451709847
20
-24.2837742656
30
0.0000000000
10
1.3666069747
20
-24.2837740284
30
0.0000000000
10
1.3878049252
20
-24.2870128020
30
0.0000000000
10
1.4082927766
20
-24.2934191821
30
0.0000000000
10
1.4276146009
20
-24.3028519923
30
0.0000000000
10
1.4453390430
20
-24.3151028117
30
0.0000000000
10
1.4610695473
20
-24.3299003662
30
0.0000000000
10
1.4744525078
20
-24.3469154584
30
0.0000000000
10
1.4851872599
20
-24.3657684290
30
0.0000000000
10
1.4930307476
20
-24.3860388503
30
0.0000000000
10
1.4978048923
20
-24.4072553103
30
0.0000000000
10
1.4988719565
20
-24.4217295304
30
0.0000000000
10
1.4988723699
20
-24.4289521766
30
0.0000000000
11
1.2129086036
21
-24.4289521766
31
0.0000000000
11
1.2145041036
21
-24.4073443835
31
0.0000000000
11
1.2192650438
21
-24.3861867352
31
0.0000000000
11
1.2270839114
21
-24.3659873882
31
0.0000000000
11
1.2377823509
21
-24.3472032610
31
0.0000000000
11
1.2511191007
21
-24.3302520639
31
0.0000000000
11
1.2667927750
21
-24.3155122799
31
0.0000000000
11
1.2844506263
21
-24.3033110437
31
0.0000000000
11
1.3036966830
21
-24.2939178611
31
0.0000000000
11
1.3241029828
21
-24.2875386332
31
0.0000000000
11
1.3452144026
21
-24.2843136782
31
0.0000000000
11
1.3665634858
21
-24.2843134421
31
0.0000000000
11
1.3876752194
21
-24.2875379871
31
0.0000000000
11
1.4080818691
21
-24.2939168899
31
0.0000000000
11
1.4273282852
21
-24.3033098261
31
0.0000000000
11
1.4449865177
21
-24.3155109069
31
0.0000000000
11
1.4606605492
21
-24.3302506003
31
0.0000000000
11
1.4739976311
21
-24.3472017627
31
0.0000000000
11
1.4846963717
21
-24.3659859074
31
0.0000000000
11
1.4925155285
21
-24.3861853568
31
0.0000000000
11
1.4972766801
21
-24.4073430734
31
0.0000000000
11
1.4988723699
21
-24.4289521766
31
0.0000000000
0
SPLINE
5
465
100
AcDbEntity
8
0
100
AcDbSpline
62
9
6
CONTINUOUS
70
0
71
3
72
28
73
24
74
22
42
0.0000001000
43
0.0000001000
44
0.0000000001
12
0.0006389818
22
1.0748827919
32
0.0000000000
13
0.0006396685
23
-1.0748827915
33
0.0000000000
40
0.0000000000
40
0.0000000000
40
0.0000000000
40
0.0000000000
40
0.0476396983
40
0.0952651823
40
0.1428954282
40
0.1905186793
40
0.2381409058
40
0.2857596880
40
0.3333741877
40
0.3809835509
40
0.4285918766
40
0.4761970589
40
0.5238028767
40
0.5714080412
40
0.6190163553
40
0.6666256883
40
0.7142402118
40
0.7618589870
40
0.8094811882
40
0.8571044194
40
0.9047347220
40
0.9523601963
40
1.0000000000
40
1.0000000000
40
1.0000000000
40
1.0000000000
10
1.0129125026
20
-24.4289521766
30
0.0000000000
10
1.0129226496
20
-24.4118831460
30
0.0000000000
10
1.0155099563
20
-24.3776961472
30
0.0000000000
10
1.0270129425
20
-24.3276183344
30
0.0000000000
10
1.0458673713
20
-24.2798150023
30
0.0000000000
10
1.0716485709
20
-24.2353680775
30
0.0000000000
10
1.1037689500
20
-24.1952671245
30
0.0000000000
10
1.1415043027
20
-24.1604035764
30
0.0000000000
10
1.1840049670
20
-24.1315487318
30
0.0000000000
10
1.2303203588
20
-24.1093368648
30
0.0000000000
10
1.2794185085
20
-24.0942543385
30
0.0000000000
10
1.3302105266
20
-24.0866300015
30
0.0000000000
10
1.3815704134
20
-24.0866299916
30
0.0000000000
10
1.4323624237
20
-24.0942543096
30
0.0000000000
10
1.4814605580
20
-24.1093368135
30
0.0000000000
10
1.5277759509
20
-24.1315486628
30
0.0000000000
10
1.5702766208
20
-24.1604034915
30
0.0000000000
10
1.6080119772
20
-24.1952670301
30
0.0000000000
10
1.6401323624
20
-24.2353679556
30
0.0000000000
10
1.6659135639
20
-24.2798148813
30
0.0000000000
10
1.6847680482
20
-24.3276182056
30
0.0000000000
10
1.6962709913
20
-24.3776960825
30
0.0000000000
10
1.6988583674
20
-24.4118831082
30
0.0000000000
10
1.6988685253
20
-24.4289521766
30
0.0000000000
11
1.0129125026
21
-24.4289521766
31
0.0000000000
11
1.0167810906
21
-24.3778914166
31
0.0000000000
11
1.0282379373
21
-24.3279980971
31
0.0000000000
11
1.0470230339
21
-24.2803719815
31
0.0000000000
11
1.0727056825
21
-24.2360915286
31
0.0000000000
11
1.1047059883
21
-24.1961387489
31
0.0000000000
11
1.1423003308
21
-24.1614035996
31
0.0000000000
11
1.1846428864
21
-24.1326546525
31
0.0000000000
11
1.2307850138
21
-24.1105247418
31
0.0000000000
11
1.2797021241
21
-24.0954970659
31
0.0000000000
11
1.3303051317
21
-24.0879007145
31
0.0000000000
11
1.3814758151
21
-24.0879007052
31
0.0000000000
11
1.4320788064
21
-24.0954970364
31
0.0000000000
11
1.4809959097
21
-24.1105246926
31
0.0000000000
11
1.5271380151
21
-24.1326545740
31
0.0000000000
11
1.5694806006
21
-24.1614035228
31
0.0000000000
11
1.6070749457
21
-24.1961386581
31
0.0000000000
11
1.6390752472
21
-24.2360914065
31
0.0000000000
11
1.6647578975
21
-24.2803718336
31
0.0000000000
11
1.6835430420
21
-24.3279979958
31
0.0000000000
11
1.6949998755
21
-24.3778913077
31
0.0000000000
11
1.6988685253
21
-24.4289521766
31
0.0000000000
0
SPLINE
5
466
100
AcDbEntity
8
0
100
AcDbSpline
62
7
6
CONTINUOUS
70
0
71
3
72
17
73
13
74
11
42
0.0000001000
43
0.0000001000
44
0.0000000001
12
-0.2404959853
22
0.3802575409
32
0.0000000000
13
-0.0034689349
23
0.4499134171
33
0.0000000000
40
0.0000000000
40
0.0000000000
40
0.0000000000
40
0.0000000000
40
0.1117916783
40
0.2238311090
40
0.3350443235
40
0.4444169730
40
0.5509312361
40
0.6535208047
40
0.7510215470
40
0.8421379665
40
0.9254838484
40
1.0000000000
40
1.0000000000
40
1.0000000000
40
1.0000000000
10
1.2129086036
20
-25.0182118938
30
0.0000000000
10
1.2039467869
20
-25.0040420176
30
0.0000000000
10
1.1860031831
20
-24.9756709209
30
0.0000000000
10
1.1593018067
20
-24.9331036737
30
0.0000000000
10
1.1331246594
20
-24.8906370062
30
0.0000000000
10
1.1079159207
20
-24.8485500937
30
0.0000000000
10
1.0841542181
20
-24.8071119569
30
0.0000000000
10
1.0623852445
20
-24.7665979075
30
0.0000000000
10
1.0432650031
20
-24.7273163691
30
0.0000000000
10
1.0276197227
20
-24.6896002248
30
0.0000000000
10
1.0165339292
20
-24.6538914075
30
0.0000000000
10
1.0129981521
20
-24.6302624757
30
0.0000000000
10
1.0129119882
20
-24.6190872035
30
0.0000000000
11
1.2129086036
21
-25.0182118938
31
0.0000000000
11
1.1860493288
21
-24.9756857218
31
0.0000000000
11
1.1592919888
21
-24.9329637530
31
0.0000000000
11
1.1330712753
21
-24.8903461971
31
0.0000000000
11
1.1078317650
21
-24.8481021416
31
0.0000000000
11
1.0840572820
21
-24.8064914776
31
0.0000000000
11
1.0623048968
21
-24.7657805969
31
0.0000000000
11
1.0432556447
21
-24.7262642128
31
0.0000000000
11
1.0277914418
21
-24.6882970252
31
0.0000000000
11
1.0171144671
21
-24.6523495900
31
0.0000000000
11
1.0129119882
21
-24.6190872035
31
0.0000000000
0
SPLINE
5
467
100
AcDbEntity
8
0
100
AcDbSpline
62
7
6
CONTINUOUS
70
0
71
3
72
18
73
14
74
12
42
0.0000001000
43
0.0000001000
44
0.0000000001
12
0.3145151746
22
0.0000000000
32
0.0000000000
13
0.0031690579
23
-0.3144992085
33
0.0000000000
40
0.0000000000
40
0.0000000000
40
0.0000000000
40
0.0000000000
40
0.1233645867
40
0.2431315365
40
0.3566833685
40
0.4629485722
40
0.5612613068
40
0.6513651559
40
0.7334201413
40
0.8080244445
40
0.8762413066
40
0.9395978155
40
1.0000000000
40
1.0000000000
40
1.0000000000
40
1.0000000000
10
4.8515228835
20
-28.1352876106
30
0.0000000000
10
4.8644562284
20
-28.1352876106
30
0.0000000000
10
4.8899568650
20
-28.1365769613
30
0.0000000000
10
4.9270443604
20
-28.1417037792
30
0.0000000000
10
4.9617553976
20
-28.1498618799
30
0.0000000000
10
4.9933788412
20
-28.1606371635
30
0.0000000000
10
5.0214599970
20
-28.1736699555
30
0.0000000000
10
5.0456595440
20
-28.1885911769
30
0.0000000000
10
5.0657358784
20
-28.2050478002
30
0.0000000000
10
5.0815230931
20
-28.2227017266
30
0.0000000000
10
5.0929086238
20
-28.2412320793
30
0.0000000000
10
5.0998194069
20
-28.2602903270
30
0.0000000000
10
5.1014548467
20
-28.2732930315
30
0.0000000000
10
5.1015186527
20
-28.2796251779
30
0.0000000000
11
4.8515228835
21
-28.1352876106
31
0.0000000000
11
4.8902775293
21
-28.1371638069
31
0.0000000000
11
4.9275822502
21
-28.1423863955
31
0.0000000000
11
4.9623352564
21
-28.1506145321
31
0.0000000000
11
4.9939424270
21
-28.1614781469
31
0.0000000000
11
5.0219436181
21
-28.1745942466
31
0.0000000000
11
5.0459970967
21
-28.1895785939
31
0.0000000000
11
5.0658626421
21
-28.2060524862
31
0.0000000000
11
5.0813876583
21
-28.2236462883
31
0.0000000000
11
5.0924971106
21
-28.2420013236
31
0.0000000000
11
5.0991867868
21
-28.2607714317
31
0.0000000000
11
5.1015186527
21
-28.2796251779
31
0.0000000000
0
SPLINE
5
468
100
AcDbEntity
8
0
100
AcDbSpline
62
7
6
CONTINUOUS
70
0
71
3
72
17
73
13
74
11
42
0.0000001000
43
0.0000001000
44
0.0000000001
12
0.4220147089
22
0.0000000000
32
0.0000000000
13
-0.0000000000
23
-0.4220147089
33
0.0000000000
40
0.0000000000
40
0.0000000000
40
0.0000000000
40
0.0000000000
40
0.0855989391
40
0.1727353490
40
0.2617246883
40
0.3543677482
40
0.4508775680
40
0.5524911396
40
0.6587554531
40
0.7696721429
40
0.8836902644
40
1.0000000000
40
1.0000000000
40
1.0000000000
40
1.0000000000
10
4.8566134846
20
-27.5579373414
30
0.0000000000
10
4.8686548217
20
-27.5579373414
30
0.0000000000
10
4.8930017534
20
-27.5599773815
30
0.0000000000
10
4.9288233937
20
-27.5691626466
30
0.0000000000
10
4.9635553875
20
-27.5845290769
30
0.0000000000
10
4.9964351097
20
-27.6060510165
30
0.0000000000
10
5.0267800610
20
-27.6337306882
30
0.0000000000
10
5.0536307606
20
-27.6673063780
30
0.0000000000
10
5.0760328716
20
-27.7063548233
30
0.0000000000
10
5.0929375223
20
-27.7499607699
30
0.0000000000
10
5.1035005232
20
-27.7969587820
30
0.0000000000
10
5.1058904867
20
-27.8294112858
30
0.0000000000
10
5.1058904867
20
-27.8457727588
30
0.0000000000
11
4.8566134846
21
-27.5579373414
31
0.0000000000
11
4.8926119087
21
-27.5609469363
31
0.0000000000
11
4.9282403699
21
-27.5700494087
31
0.0000000000
11
4.9626030083
21
-27.5852010700
31
0.0000000000
11
4.9953495759
21
-27.6065603049
31
0.0000000000
11
5.0254881930
21
-27.6339551884
31
0.0000000000
11
5.0523293839
21
-27.6673984624
31
0.0000000000
11
5.0747060698
21
-27.7062619057
31
0.0000000000
11
5.0916806236
21
-27.7498841226
31
0.0000000000
11
5.1022681279
21
-27.7968221845
31
0.0000000000
11
5.1058904867
21
-27.8457727588
31
0.0000000000
0
SPLINE
5
469
100
AcDbEntity
8
0
100
AcDbSpline
62
7
6
CONTINUOUS
70
0
71
3
72
17
73
13
74
11
42
0.0000001000
43
0.0000001000
44
0.0000000001
12
-0.0034689349
22
-0.4499134171
32
0.0000000000
13
-0.2404959853
23
-0.3802575409
33
0.0000000000
40
0.0000000000
40
0.0000000000
40
0.0000000000
40
0.0000000000
40
0.0745161516
40
0.1578620335
40
0.2489784530
40
0.3464791953
40
0.4490687639
40
0.5555830270
40
0.6649556765
40
0.7761688910
40
0.8882083217
40
1.0000000000
40
1.0000000000
40
1.0000000000
40
1.0000000000
10
-12.1011310147
20
-24.6190872035
30
0.0000000000
10
-12.1012171786
20
-24.6302624757
30
0.0000000000
10
-12.1047529558
20
-24.6538914075
30
0.0000000000
10
-12.1158387493
20
-24.6896002248
30
0.0000000000
10
-12.1314840297
20
-24.7273163691
30
0.0000000000
10
-12.1506042710
20
-24.7665979075
30
0.0000000000
10
-12.1723732447
20
-24.8071119569
30
0.0000000000
10
-12.1961349472
20
-24.8485500937
30
0.0000000000
10
-12.2213436860
20
-24.8906370062
30
0.0000000000
10
-12.2475208332
20
-24.9331036737
30
0.0000000000
10
-12.2742222096
20
-24.9756709209
30
0.0000000000
10
-12.2921658135
20
-25.0040420176
30
0.0000000000
10
-12.3011276301
20
-25.0182118938
30
0.0000000000
11
-12.1011310147
21
-24.6190872035
31
0.0000000000
11
-12.1053334936
21
-24.6523495900
31
0.0000000000
11
-12.1160104683
21
-24.6882970252
31
0.0000000000
11
-12.1314746712
21
-24.7262642128
31
0.0000000000
11
-12.1505239234
21
-24.7657805969
31
0.0000000000
11
-12.1722763086
21
-24.8064914776
31
0.0000000000
11
-12.1960507915
21
-24.8481021416
31
0.0000000000
11
-12.2212903018
21
-24.8903461971
31
0.0000000000
11
-12.2475110153
21
-24.9329637530
31
0.0000000000
11
-12.2742683553
21
-24.9756857218
31
0.0000000000
11
-12.3011276301
21
-25.0182118938
31
0.0000000000
0
SPLINE
5
46A
100
AcDbEntity
8
0
100
AcDbSpline
62
9
6
CONTINUOUS
70
0
71
3
72
28
73
24
74
22
42
0.0000001000
43
0.0000001000
44
0.0000000001
12
-0.0006331558
22
1.0748826631
32
0.0000000000
13
-0.0006398226
23
-1.0748826592
33
0.0000000000
40
0.0000000000
40
0.0000000000
40
0.0000000000
40
0.0000000000
40
0.0476390326
40
0.0952646359
40
0.1428945894
40
0.1905178863
40
0.2381401945
40
0.2857590341
40
0.3333735088
40
0.3809830074
40
0.4285914400
40
0.4761967431
40
0.5238026763
40
0.5714079083
40
0.6190162926
40
0.6666256355
40
0.7142402490
40
0.7618590710
40
0.8094812809
40
0.8571044552
40
0.9047347894
40
0.9523601153
40
1.0000000000
40
1.0000000000
40
1.0000000000
40
1.0000000000
10
-12.1011317470
20
-24.4289521766
30
0.0000000000
10
-12.1011418013
20
-24.4118833866
30
0.0000000000
10
-12.1037289005
20
-24.3776965620
30
0.0000000000
10
-12.1152319330
20
-24.3276190730
30
0.0000000000
10
-12.1340861344
20
-24.2798157187
30
0.0000000000
10
-12.1598672431
20
-24.2353688089
30
0.0000000000
10
-12.1919875535
20
-24.1952677277
30
0.0000000000
10
-12.2297228686
20
-24.1604040845
30
0.0000000000
10
-12.2722235156
20
-24.1315491209
30
0.0000000000
10
-12.3185389296
20
-24.1093371312
30
0.0000000000
10
-12.3676371721
20
-24.0942544826
30
0.0000000000
10
-12.4184292957
20
-24.0866300535
30
0.0000000000
10
-12.4697892862
20
-24.0866299845
30
0.0000000000
10
-12.5205813875
20
-24.0942542737
30
0.0000000000
10
-12.5696795731
20
-24.1093367742
30
0.0000000000
10
-12.6159950167
20
-24.1315486452
30
0.0000000000
10
-12.6584957203
20
-24.1604035086
30
0.0000000000
10
-12.6962310947
20
-24.1952670963
30
0.0000000000
10
-12.7283514547
20
-24.2353680327
30
0.0000000000
10
-12.7541326340
20
-24.2798149576
30
0.0000000000
10
-12.7729870645
20
-24.3276182272
30
0.0000000000
10
-12.7844900336
20
-24.3776960795
30
0.0000000000
10
-12.7870773606
20
-24.4118830813
30
0.0000000000
10
-12.7870875210
20
-24.4289521766
30
0.0000000000
11
-12.1011317470
21
-24.4289521766
31
0.0000000000
11
-12.1050000524
21
-24.3778921191
31
0.0000000000
11
-12.1164569152
21
-24.3279986782
31
0.0000000000
11
-12.1352417661
21
-24.2803728103
31
0.0000000000
11
-12.1609243406
21
-24.2360922649
31
0.0000000000
11
-12.1929246062
21
-24.1961393485
31
0.0000000000
11
-12.2305189202
21
-24.1614040867
31
0.0000000000
11
-12.2728613891
21
-24.1326550708
31
0.0000000000
11
-12.3190035980
21
-24.1105250083
31
0.0000000000
11
-12.3679207862
21
-24.0954972158
31
0.0000000000
11
-12.4185239048
21
-24.0879007720
31
0.0000000000
11
-12.4696947060
21
-24.0879007047
31
0.0000000000
11
-12.5202977687
21
-24.0954970059
31
0.0000000000
11
-12.5692149437
21
-24.1105246645
31
0.0000000000
11
-12.6153570545
21
-24.1326545449
31
0.0000000000
11
-12.6576997093
21
-24.1614035523
31
0.0000000000
11
-12.6952940712
21
-24.1961387344
31
0.0000000000
11
-12.7272943543
21
-24.2360915015
31
0.0000000000
11
-12.7529769522
21
-24.2803718810
31
0.0000000000
11
-12.7717620889
21
-24.3279980761
31
0.0000000000
11
-12.7832188896
21
-24.3778912252
31
0.0000000000
11
-12.7870875210
21
-24.4289521766
31
0.0000000000
0
SPLINE
5
46B
100
AcDbEntity
8
0
100
AcDbSpline
62
9
6
CONTINUOUS
70
0
71
3
72
28
73
24
74
22
42
0.0000001000
43
0.0000001000
44
0.0000000001
12
-0.0000181405
22
0.4520129142
32
0.0000000000
13
-0.0000259035
23
-0.4520129138
33
0.0000000000
40
0.0000000000
40
0.0000000000
40
0.0000000000
40
0.0000000000
40
0.0479274866
40
0.0959050378
40
0.1438225012
40
0.1916459407
40
0.2393624877
40
0.2869616817
40
0.3344448023
40
0.3818236112
40
0.4291234003
40
0.4763706158
40
0.5236020193
40
0.5708508756
40
0.6181536048
40
0.6655351415
40
0.7130210729
40
0.7606227185
40
0.8083414450
40
0.8561668080
40
0.9040866112
40
0.9520653162
40
1.0000000000
40
1.0000000000
40
1.0000000000
40
1.0000000000
10
-12.3011276301
20
-24.4289521766
30
0.0000000000
10
-12.3011279199
20
-24.4217308956
30
0.0000000000
10
-12.3021948700
20
-24.4072581625
30
0.0000000000
10
-12.3069680330
20
-24.3860432658
30
0.0000000000
10
-12.3148106295
20
-24.3657730493
30
0.0000000000
10
-12.3255444320
20
-24.3469201773
30
0.0000000000
10
-12.3389264056
20
-24.3299049017
30
0.0000000000
10
-12.3546559285
20
-24.3151069751
30
0.0000000000
10
-12.3723794457
20
-24.3028555509
30
0.0000000000
10
-12.3917004680
20
-24.2934219252
30
0.0000000000
10
-12.4121877129
20
-24.2870145446
30
0.0000000000
10
-12.4333853565
20
-24.2837746278
30
0.0000000000
10
-12.4548215744
20
-24.2837736802
30
0.0000000000
10
-12.4760201860
20
-24.2870118874
30
0.0000000000
10
-12.4965089959
20
-24.2934180044
30
0.0000000000
10
-12.5158318240
20
-24.3028508762
30
0.0000000000
10
-12.5335570696
20
-24.3151019438
30
0.0000000000
10
-12.5492881597
20
-24.3298998586
30
0.0000000000
10
-12.5626714893
20
-24.3469153400
30
0.0000000000
10
-12.5734064337
20
-24.3657686903
30
0.0000000000
10
-12.5812499601
20
-24.3860394291
30
0.0000000000
10
-12.5860239781
20
-24.4072558116
30
0.0000000000
10
-12.5870909825
20
-24.4217298112
30
0.0000000000
10
-12.5870913964
20
-24.4289521766
30
0.0000000000
11
-12.3011276301
21
-24.4289521766
31
0.0000000000
11
-12.3027227445
21
-24.4073471378
31
0.0000000000
11
-12.3074832596
21
-24.3861896192
31
0.0000000000
11
-12.3153014739
21
-24.3659905763
31
0.0000000000
11
-12.3259992904
21
-24.3472064528
31
0.0000000000
11
-12.3393354013
21
-24.3302551065
31
0.0000000000
11
-12.3550084607
21
-24.3155150314
31
0.0000000000
11
-12.3726657335
21
-24.3033133762
31
0.0000000000
11
-12.3919113848
21
-24.2939196107
31
0.0000000000
11
-12.4123174201
21
-24.2875397152
31
0.0000000000
11
-12.4334287631
21
-24.2843140450
31
0.0000000000
11
-12.4547779674
21
-24.2843131018
31
0.0000000000
11
-12.4758903196
21
-24.2875370771
31
0.0000000000
11
-12.4962981203
21
-24.2939157792
31
0.0000000000
11
-12.5155455221
21
-24.3033087691
31
0.0000000000
11
-12.5332045620
21
-24.3155101018
31
0.0000000000
11
-12.5488791708
21
-24.3302501471
31
0.0000000000
11
-12.5622166187
21
-24.3472016950
31
0.0000000000
11
-12.5729155359
21
-24.3659861921
31
0.0000000000
11
-12.5807347442
21
-24.3861859844
31
0.0000000000
11
-12.5854958308
21
-24.4073439091
31
0.0000000000
11
-12.5870913964
21
-24.4289521766
31
0.0000000000
0
SPLINE
5
46C
100
AcDbEntity
8
0
100
AcDbSpline
62
7
6
CONTINUOUS
70
0
71
3
72
16
73
12
74
10
42
0.0000001000
43
0.0000001000
44
0.0000000001
12
-0.2000212953
22
0.0000000000
32
0.0000000000
13
-0.1109507685
23
0.1664284998
33
0.0000000000
40
0.0000000000
40
0.0000000000
40
0.0000000000
40
0.0000000000
40
0.1729195413
40
0.3409381082
40
0.4980951318
40
0.6409185303
40
0.7637281504
40
0.8640958743
40
0.9379980842
40
0.9838566386
40
1.0000000000
40
1.0000000000
40
1.0000000000
40
1.0000000000
10
-12.5870913964
20
-25.4312831563
30
0.0000000000
10
-12.5986205933
20
-25.4312831563
30
0.0000000000
10
-12.6213528597
20
-25.4312670784
30
0.0000000000
10
-12.6545599329
20
-25.4311868584
30
0.0000000000
10
-12.6857720105
20
-25.4310761858
30
0.0000000000
10
-12.7139315662
20
-25.4308652225
30
0.0000000000
10
-12.7384197590
20
-25.4307884898
30
0.0000000000
10
-12.7579897149
20
-25.4302011202
30
0.0000000000
10
-12.7732236566
20
-25.4307836417
30
0.0000000000
10
-12.7812600984
20
-25.4290113522
30
0.0000000000
10
-12.7864909724
20
-25.4304435087
30
0.0000000000
10
-12.7870880118
20
-25.4295479369
30
0.0000000000
11
-12.5870913964
21
-25.4312831563
31
0.0000000000
11
-12.6216789771
21
-25.4312568583
31
0.0000000000
11
-12.6552861772
21
-25.4311785609
31
0.0000000000
11
-12.6867206706
21
-25.4310511839
31
0.0000000000
11
-12.7152878635
21
-25.4308774541
31
0.0000000000
11
-12.7398514783
21
-25.4306643385
31
0.0000000000
11
-12.7599256250
21
-25.4304160513
31
0.0000000000
11
-12.7747051088
21
-25.4301424669
31
0.0000000000
11
-12.7838731208
21
-25.4298496328
31
0.0000000000
11
-12.7870880118
21
-25.4295479369
31
0.0000000000
0
SPLINE
5
46D
100
AcDbEntity
8
0
100
AcDbSpline
62
7
6
CONTINUOUS
70
0
71
3
72
16
73
12
74
10
42
0.0000001000
43
0.0000001000
44
0.0000000001
12
0.2000212953
22
0.0000000000
32
0.0000000000
13
0.1109507685
23
-0.1664284998
33
0.0000000000
40
0.0000000000
40
0.0000000000
40
0.0000000000
40
0.0000000000
40
0.1729195413
40
0.3409381082
40
0.4980951318
40
0.6409185303
40
0.7637281504
40
0.8640958743
40
0.9379980842
40
0.9838566386
40
1.0000000000
40
1.0000000000
40
1.0000000000
40
1.0000000000
10
1.4988723699
20
16.5607079351
30
0.0000000000
10
1.5104015668
20
16.5607079351
30
0.0000000000
10
1.5331338331
20
16.5606918571
30
0.0000000000
10
1.5663409064
20
16.5606116372
30
0.0000000000
10
1.5975529839
20
16.5605009646
30
0.0000000000
10
1.6257125397
20
16.5602900012
30
0.0000000000
10
1.6502007325
20
16.5602132685
30
0.0000000000
10
1.6697706884
20
16.5596258989
30
0.0000000000
10
1.6850046300
20
16.5602084205
30
0.0000000000
10
1.6930410718
20
16.5584361309
30
0.0000000000
10
1.6982719458
20
16.5598682874
30
0.0000000000
10
1.6988689853
20
16.5589727156
30
0.0000000000
11
1.4988723699
21
16.5607079351
31
0.0000000000
11
1.5334599505
21
16.5606816371
31
0.0000000000
11
1.5670671507
21
16.5606033397
31
0.0000000000
11
1.5985016441
21
16.5604759626
31
0.0000000000
11
1.6270688370
21
16.5603022328
31
0.0000000000
11
1.6516324518
21
16.5600891173
31
0.0000000000
11
1.6717065985
21
16.5598408300
31
0.0000000000
11
1.6864860823
21
16.5595672456
31
0.0000000000
11
1.6956540943
21
16.5592744116
31
0.0000000000
11
1.6988689853
21
16.5589727156
31
0.0000000000
0
SPLINE
5
46E
100
AcDbEntity
8
0
100
AcDbSpline
62
9
6
CONTINUOUS
70
0
71
3
72
28
73
24
74
22
42
0.0000001000
43
0.0000001000
44
0.0000000001
12
-0.0000247054
22
-0.4520129597
32
0.0000000000
13
-0.0000257590
23
0.4520129596
33
0.0000000000
40
0.0000000000
40
0.0000000000
40
0.0000000000
40
0.0000000000
40
0.0479331415
40
0.0959111794
40
0.1438297835
40
0.1916539231
40
0.2393711093
40
0.2869708895
40
0.3344545840
40
0.3818336974
40
0.4291336864
40
0.4763809282
40
0.5236121814
40
0.5708599886
40
0.6181605176
40
0.6655401200
40
0.7130243268
40
0.7606245572
40
0.8083421479
40
0.8561666591
40
0.9040857158
40
0.9520640071
40
1.0000000000
40
1.0000000000
40
1.0000000000
40
1.0000000000
10
1.4988723699
20
15.5583769554
30
0.0000000000
10
1.4988719752
20
15.5511548216
30
0.0000000000
10
1.4978049989
20
15.5366811550
30
0.0000000000
10
1.4930312070
20
15.5154652526
30
0.0000000000
10
1.4851880333
20
15.4951948797
30
0.0000000000
10
1.4744536111
20
15.4763419236
30
0.0000000000
10
1.4610710043
20
15.4593267688
30
0.0000000000
10
1.4453408661
20
15.4445290935
30
0.0000000000
10
1.4276167920
20
15.4322780770
30
0.0000000000
10
1.4082953204
20
15.4228449924
30
0.0000000000
10
1.3878077859
20
15.4164382586
30
0.0000000000
10
1.3666100211
20
15.4131990443
30
0.0000000000
10
1.3451739788
20
15.4131988058
30
0.0000000000
10
1.3239759777
20
15.4164375945
30
0.0000000000
10
1.3034880866
20
15.4228440027
30
0.0000000000
10
1.2841662372
20
15.4322768488
30
0.0000000000
10
1.2664417848
20
15.4445277075
30
0.0000000000
10
1.2507112835
20
15.4593253006
30
0.0000000000
10
1.2373283385
20
15.4763404277
30
0.0000000000
10
1.2265936110
20
15.4951934248
30
0.0000000000
10
1.2187501572
20
15.5154638656
30
0.0000000000
10
1.2139760636
20
15.5366802542
30
0.0000000000
10
1.2129090152
20
15.5511543920
30
0.0000000000
10
1.2129086036
20
15.5583769554
30
0.0000000000
11
1.4988723699
21
15.5583769554
31
0.0000000000
11
1.4972769011
21
15.5367693775
31
0.0000000000
11
1.4925159896
21
15.5156117203
31
0.0000000000
11
1.4846971533
21
15.4954123629
31
0.0000000000
11
1.4739987377
21
15.4766282139
31
0.0000000000
11
1.4606620036
21
15.4596769875
31
0.0000000000
11
1.4449883349
21
15.4449371703
31
0.0000000000
11
1.4273304782
21
15.4327358999
31
0.0000000000
11
1.4080844026
21
15.4233426850
31
0.0000000000
11
1.3876780700
21
15.4169634306
31
0.0000000000
11
1.3665666060
21
15.4137384597
31
0.0000000000
11
1.3452174674
21
15.4137382224
31
0.0000000000
11
1.3241056821
21
15.4169627826
31
0.0000000000
11
1.3036989926
21
15.4233417134
31
0.0000000000
11
1.2844525522
21
15.4327346849
31
0.0000000000
11
1.2667943100
21
15.4449358045
31
0.0000000000
11
1.2511202816
21
15.4596755363
31
0.0000000000
11
1.2377832147
21
15.4766267336
31
0.0000000000
11
1.2270844993
21
15.4954109051
31
0.0000000000
11
1.2192653760
21
15.5156103708
31
0.0000000000
11
1.2145042573
21
15.5367680988
31
0.0000000000
11
1.2129086036
21
15.5583769554
31
0.0000000000
0
SPLINE
5
46F
100
AcDbEntity
8
0
100
AcDbSpline
62
9
6
CONTINUOUS
70
0
71
3
72
28
73
24
74
22
42
0.0000001000
43
0.0000001000
44
0.0000000001
12
-0.0006388543
22
-1.0748827835
32
0.0000000000
13
-0.0006396087
23
1.0748827831
33
0.0000000000
40
0.0000000000
40
0.0000000000
40
0.0000000000
40
0.0000000000
40
0.0476396842
40
0.0952651603
40
0.1428953982
40
0.1905186474
40
0.2381408772
40
0.2857596630
40
0.3333741651
40
0.3809835328
40
0.4285918655
40
0.4761970529
40
0.5238028776
40
0.5714080468
40
0.6190163678
40
0.6666257047
40
0.7142402314
40
0.7618590103
40
0.8094812149
40
0.8571044435
40
0.9047347406
40
0.9523602032
40
1.0000000000
40
1.0000000000
40
1.0000000000
40
1.0000000000
10
1.6988684607
20
15.5583769554
30
0.0000000000
10
1.6988583157
20
15.5413079299
30
0.0000000000
10
1.6962710219
20
15.5071209379
30
0.0000000000
10
1.6847680292
20
15.4570431378
30
0.0000000000
10
1.6659136129
20
15.4092398088
30
0.0000000000
10
1.6401324166
20
15.3647928849
30
0.0000000000
10
1.6080120415
20
15.3246919271
30
0.0000000000
10
1.5702766894
20
15.2898283737
30
0.0000000000
10
1.5277760249
20
15.2609735236
30
0.0000000000
10
1.4814606305
20
15.2387616511
30
0.0000000000
10
1.4323624764
20
15.2236791203
30
0.0000000000
10
1.3815704521
20
15.2160547805
30
0.0000000000
10
1.3302105597
20
15.2160547700
30
0.0000000000
10
1.2794185432
20
15.2236790898
30
0.0000000000
10
1.2303204046
20
15.2387615972
30
0.0000000000
10
1.1840050087
20
15.2609734511
30
0.0000000000
10
1.1415043380
20
15.2898282848
30
0.0000000000
10
1.1037689815
20
15.3246918283
30
0.0000000000
10
1.0716485998
20
15.3647927580
30
0.0000000000
10
1.0458674006
20
15.4092396830
30
0.0000000000
10
1.0270129284
20
15.4570430034
30
0.0000000000
10
1.0155099772
20
15.5071208695
30
0.0000000000
10
1.0129226147
20
15.5413078896
30
0.0000000000
10
1.0129124577
20
15.5583769554
30
0.0000000000
11
1.6988684607
21
15.5583769554
31
0.0000000000
11
1.6949998836
21
15.5073162101
31
0.0000000000
11
1.6835430378
21
15.4574228996
31
0.0000000000
11
1.6647579500
21
15.4097967902
31
0.0000000000
11
1.6390753066
21
15.3655163372
31
0.0000000000
11
1.6070750028
21
15.3255635517
31
0.0000000000
11
1.5694806609
21
15.2908283967
31
0.0000000000
11
1.5271381059
21
15.2620794447
31
0.0000000000
11
1.4809959762
21
15.2399495287
31
0.0000000000
11
1.4320788600
21
15.2249218479
31
0.0000000000
11
1.3814758476
21
15.2173254939
31
0.0000000000
11
1.3303051572
21
15.2173254841
31
0.0000000000
11
1.2797021615
21
15.2249218167
31
0.0000000000
11
1.2307850520
21
15.2399494769
31
0.0000000000
11
1.1846429444
21
15.2620793626
31
0.0000000000
11
1.1423003585
21
15.2908283159
31
0.0000000000
11
1.1047060133
21
15.3255634566
31
0.0000000000
11
1.0727057133
21
15.3655162103
31
0.0000000000
11
1.0470230678
21
15.4097966365
31
0.0000000000
11
1.0282379305
21
15.4574227949
31
0.0000000000
11
1.0167810980
21
15.5073160935
31
0.0000000000
11
1.0129124577
21
15.5583769554
31
0.0000000000
0
SPLINE
5
470
100
AcDbEntity
8
0
100
AcDbSpline
62
7
6
CONTINUOUS
70
0
71
3
72
17
73
13
74
11
42
0.0000001000
43
0.0000001000
44
0.0000000001
12
0.0034689349
22
0.4499134171
32
0.0000000000
13
0.2404959853
23
0.3802575409
33
0.0000000000
40
0.0000000000
40
0.0000000000
40
0.0000000000
40
0.0000000000
40
0.0745161516
40
0.1578620335
40
0.2489784530
40
0.3464791953
40
0.4490687639
40
0.5555830270
40
0.6649556765
40
0.7761688910
40
0.8882083217
40
1.0000000000
40
1.0000000000
40
1.0000000000
40
1.0000000000
10
1.0129119882
20
15.7485119823
30
0.0000000000
10
1.0129981521
20
15.7596872544
30
0.0000000000
10
1.0165339292
20
15.7833161862
30
0.0000000000
10
1.0276197227
20
15.8190250035
30
0.0000000000
10
1.0432650031
20
15.8567411478
30
0.0000000000
10
1.0623852445
20
15.8960226863
30
0.0000000000
10
1.0841542181
20
15.9365367357
30
0.0000000000
10
1.1079159207
20
15.9779748724
30
0.0000000000
10
1.1331246594
20
16.0200617850
30
0.0000000000
10
1.1593018067
20
16.0625284525
30
0.0000000000
10
1.1860031831
20
16.1050956996
30
0.0000000000
10
1.2039467869
20
16.1334667964
30
0.0000000000
10
1.2129086036
20
16.1476366726
30
0.0000000000
11
1.0129119882
21
15.7485119823
31
0.0000000000
11
1.0171144671
21
15.7817743688
31
0.0000000000
11
1.0277914418
21
15.8177218039
31
0.0000000000
11
1.0432556447
21
15.8556889915
31
0.0000000000
11
1.0623048968
21
15.8952053757
31
0.0000000000
11
1.0840572820
21
15.9359162563
31
0.0000000000
11
1.1078317650
21
15.9775269204
31
0.0000000000
11
1.1330712753
21
16.0197709759
31
0.0000000000
11
1.1592919888
21
16.0623885318
31
0.0000000000
11
1.1860493288
21
16.1051105006
31
0.0000000000
11
1.2129086036
21
16.1476366726
31
0.0000000000
0
SPLINE
5
471
100
AcDbEntity
8
0
100
AcDbSpline
62
9
6
CONTINUOUS
70
0
71
3
72
17
73
13
74
11
42
0.0000001000
43
0.0000001000
44
0.0000000001
12
-0.3922846478
22
0.0000132773
32
0.0000000000
13
-0.0000132773
23
0.3922846478
33
0.0000000000
40
0.0000000000
40
0.0000000000
40
0.0000000000
40
0.0000000000
40
0.0998239394
40
0.1998359985
40
0.2998483200
40
0.3998691378
40
0.4998893118
40
0.5999112671
40
0.6999336806
40
0.7999562942
40
0.8999787118
40
1.0000000000
40
1.0000000000
40
1.0000000000
40
1.0000000000
10
-15.9397419101
20
-28.9309157766
30
0.0000000000
10
-15.9527950430
20
-28.9309153348
30
0.0000000000
10
-15.9789720321
20
-28.9288594889
30
0.0000000000
10
-16.0172488481
20
-28.9196778320
30
0.0000000000
10
-16.0536515743
20
-28.9046098374
30
0.0000000000
10
-16.0872469066
20
-28.8840318546
30
0.0000000000
10
-16.1172105942
20
-28.8584502134
30
0.0000000000
10
-16.1428027737
20
-28.8284952385
30
0.0000000000
10
-16.1633932643
20
-28.7949054689
30
0.0000000000
10
-16.1784745856
20
-28.7585050386
30
0.0000000000
10
-16.1876751378
20
-28.7202033770
30
0.0000000000
10
-16.1897372366
20
-28.6939989460
30
0.0000000000
10
-16.1897376793
20
-28.6809200074
30
0.0000000000
11
-15.9397419101
21
-28.9309157766
31
0.0000000000
11
-15.9787809190
21
-28.9278475026
31
0.0000000000
11
-16.0169322875
21
-28.9186978193
31
0.0000000000
11
-16.0531825258
21
-28.9036920897
31
0.0000000000
11
-16.0866415238
21
-28.8831979762
31
0.0000000000
11
-16.1164818213
21
-28.8577215152
31
0.0000000000
11
-16.1419690901
21
-28.8278895294
31
0.0000000000
11
-16.1624750519
21
-28.7944370573
31
0.0000000000
11
-16.1774944708
21
-28.7581881183
31
0.0000000000
11
-16.1866572641
21
-28.7200357173
31
0.0000000000
11
-16.1897376793
21
-28.6809200074
31
0.0000000000
0
SPLINE
5
472
100
AcDbEntity
8
0
100
AcDbSpline
62
7
6
CONTINUOUS
70
0
71
3
72
17
73
13
74
11
42
0.0000001000
43
0.0000001000
44
0.0000000001
12
0.0000000000
22
0.4220147089
32
0.0000000000
13
0.4220147089
23
-0.0000000000
33
0.0000000000
40
0.0000000000
40
0.0000000000
40
0.0000000000
40
0.0000000000
40
0.1163097356
40
0.2303278571
40
0.3412445469
40
0.4475088604
40
0.5491224320
40
0.6456322518
40
0.7382753117
40
0.8272646510
40
0.9144010609
40
1.0000000000
40
1.0000000000
40
1.0000000000
40
1.0000000000
10
-16.1941095133
20
-27.8457727588
30
0.0000000000
10
-16.1941095133
20
-27.8294112858
30
0.0000000000
10
-16.1917195498
20
-27.7969587820
30
0.0000000000
10
-16.1811565488
20
-27.7499607699
30
0.0000000000
10
-16.1642518982
20
-27.7063548233
30
0.0000000000
10
-16.1418497872
20
-27.6673063780
30
0.0000000000
10
-16.1149990876
20
-27.6337306882
30
0.0000000000
10
-16.0846541362
20
-27.6060510165
30
0.0000000000
10
-16.0517744141
20
-27.5845290769
30
0.0000000000
10
-16.0170424202
20
-27.5691626466
30
0.0000000000
10
-15.9812207800
20
-27.5599773815
30
0.0000000000
10
-15.9568738483
20
-27.5579373414
30
0.0000000000
10
-15.9448325111
20
-27.5579373414
30
0.0000000000
11
-16.1941095133
21
-27.8457727588
31
0.0000000000
11
-16.1904871544
21
-27.7968221845
31
0.0000000000
11
-16.1798996502
21
-27.7498841226
31
0.0000000000
11
-16.1629250964
21
-27.7062619057
31
0.0000000000
11
-16.1405484104
21
-27.6673984624
31
0.0000000000
11
-16.1137072196
21
-27.6339551884
31
0.0000000000
11
-16.0835686025
21
-27.6065603049
31
0.0000000000
11
-16.0508220349
21
-27.5852010700
31
0.0000000000
11
-16.0164593964
21
-27.5700494087
31
0.0000000000
11
-15.9808309352
21
-27.5609469363
31
0.0000000000
11
-15.9448325111
21
-27.5579373414
31
0.0000000000
0
SPLINE
5
473
100
AcDbEntity
8
0
100
AcDbSpline
62
9
6
CONTINUOUS
70
0
71
3
72
17
73
13
74
11
42
0.0000001000
43
0.0000001000
44
0.0000000001
12
0.0012298291
22
0.3661500354
32
0.0000000000
13
0.3661509389
23
0.0009224053
33
0.0000000000
40
0.0000000000
40
0.0000000000
40
0.0000000000
40
0.0000000000
40
0.0926637669
40
0.1861959939
40
0.2811621264
40
0.3780472439
40
0.4771141944
40
0.5784104998
40
0.6817687109
40
0.7868361684
40
0.8931123906
40
1.0000000000
40
1.0000000000
40
1.0000000000
40
1.0000000000
10
-16.1897376793
20
-28.2796251779
30
0.0000000000
10
-16.1896996924
20
-28.2683155641
30
0.0000000000
10
-16.1875516245
20
-28.2455448007
30
0.0000000000
10
-16.1782170466
20
-28.2123431276
30
0.0000000000
10
-16.1630072986
20
-28.1808134703
30
0.0000000000
10
-16.1423214126
20
-28.1517557293
30
0.0000000000
10
-16.1166863082
20
-28.1258701500
30
0.0000000000
10
-16.0867430442
20
-28.1037781989
30
0.0000000000
10
-16.0532301451
20
-28.0860045612
30
0.0000000000
10
-16.0169638434
20
-28.0729702943
30
0.0000000000
10
-15.9788346602
20
-28.0649836389
30
0.0000000000
10
-15.9527875762
20
-28.0631516915
30
0.0000000000
10
-15.9397419101
20
-28.0631188270
30
0.0000000000
11
-16.1897376793
21
-28.2796251779
31
0.0000000000
11
-16.1865626195
21
-28.2458450318
31
0.0000000000
11
-16.1773319969
21
-28.2128654308
31
0.0000000000
11
-16.1622723729
21
-28.1815237157
31
0.0000000000
11
-16.1417514975
21
-28.1525867626
31
0.0000000000
11
-16.1162738081
21
-28.1267670148
31
0.0000000000
11
-16.0864642345
21
-28.1046978811
31
0.0000000000
11
-16.0530544070
21
-28.0869210902
31
0.0000000000
11
-16.0168641343
21
-28.0738728477
31
0.0000000000
11
-15.9787819752
21
-28.0658734024
31
0.0000000000
11
-15.9397419101
21
-28.0631188270
31
0.0000000000
0
SPLINE
5
474
100
AcDbEntity
8
0
100
AcDbSpline
62
9
6
CONTINUOUS
70
0
71
3
72
17
73
13
74
11
42
0.0000001000
43
0.0000001000
44
0.0000000001
12
-0.0000132773
22
-0.3922846478
32
0.0000000000
13
-0.3922846478
23
-0.0000132773
33
0.0000000000
40
0.0000000000
40
0.0000000000
40
0.0000000000
40
0.0000000000
40
0.1000212882
40
0.2000437058
40
0.3000663194
40
0.4000887329
40
0.5001106882
40
0.6001308622
40
0.7001516800
40
0.8001640015
40
0.9001760606
40
1.0000000000
40
1.0000000000
40
1.0000000000
40
1.0000000000
10
-13.7984813473
20
-28.6809200074
30
0.0000000000
10
-13.7984817899
20
-28.6939989460
30
0.0000000000
10
-13.8005438888
20
-28.7202033770
30
0.0000000000
10
-13.8097444410
20
-28.7585050386
30
0.0000000000
10
-13.8248257623
20
-28.7949054689
30
0.0000000000
10
-13.8454162529
20
-28.8284952385
30
0.0000000000
10
-13.8710084324
20
-28.8584502134
30
0.0000000000
10
-13.9009721200
20
-28.8840318546
30
0.0000000000
10
-13.9345674522
20
-28.9046098374
30
0.0000000000
10
-13.9709701785
20
-28.9196778320
30
0.0000000000
10
-14.0092469945
20
-28.9288594889
30
0.0000000000
10
-14.0354239835
20
-28.9309153348
30
0.0000000000
10
-14.0484771165
20
-28.9309157766
30
0.0000000000
11
-13.7984813473
21
-28.6809200074
31
0.0000000000
11
-13.8015617624
21
-28.7200357173
31
0.0000000000
11
-13.8107245558
21
-28.7581881183
31
0.0000000000
11
-13.8257439746
21
-28.7944370573
31
0.0000000000
11
-13.8462499364
21
-28.8278895294
31
0.0000000000
11
-13.8717372052
21
-28.8577215152
31
0.0000000000
11
-13.9015775027
21
-28.8831979762
31
0.0000000000
11
-13.9350365007
21
-28.9036920897
31
0.0000000000
11
-13.9712867390
21
-28.9186978193
31
0.0000000000
11
-14.0094381076
21
-28.9278475026
31
0.0000000000
11
-14.0484771165
21
-28.9309157766
31
0.0000000000
0
SPLINE
5
475
100
AcDbEntity
8
0
100
AcDbSpline
62
7
6
CONTINUOUS
70
0
71
3
72
16
73
12
74
10
42
0.0000001000
43
0.0000001000
44
0.0000000001
12
0.1109507685
22
0.1664284998
32
0.0000000000
13
0.2000212953
23
0.0000000000
33
0.0000000000
40
0.0000000000
40
0.0000000000
40
0.0000000000
40
0.0000000000
40
0.0161433614
40
0.0620019158
40
0.1359041257
40
0.2362718496
40
0.3590814697
40
0.5019048682
40
0.6590618918
40
0.8270804587
40
1.0000000000
40
1.0000000000
40
1.0000000000
40
1.0000000000
10
-12.7870880118
20
16.5589727156
30
0.0000000000
10
-12.7864909724
20
16.5598682874
30
0.0000000000
10
-12.7812600984
20
16.5584361309
30
0.0000000000
10
-12.7732236566
20
16.5602084205
30
0.0000000000
10
-12.7579897149
20
16.5596258989
30
0.0000000000
10
-12.7384197590
20
16.5602132685
30
0.0000000000
10
-12.7139315662
20
16.5602900012
30
0.0000000000
10
-12.6857720105
20
16.5605009646
30
0.0000000000
10
-12.6545599329
20
16.5606116372
30
0.0000000000
10
-12.6213528597
20
16.5606918571
30
0.0000000000
10
-12.5986205933
20
16.5607079351
30
0.0000000000
10
-12.5870913964
20
16.5607079351
30
0.0000000000
11
-12.7870880118
21
16.5589727156
31
0.0000000000
11
-12.7838731208
21
16.5592744116
31
0.0000000000
11
-12.7747051088
21
16.5595672456
31
0.0000000000
11
-12.7599256250
21
16.5598408300
31
0.0000000000
11
-12.7398514783
21
16.5600891173
31
0.0000000000
11
-12.7152878635
21
16.5603022328
31
0.0000000000
11
-12.6867206706
21
16.5604759626
31
0.0000000000
11
-12.6552861772
21
16.5606033397
31
0.0000000000
11
-12.6216789771
21
16.5606816371
31
0.0000000000
11
-12.5870913964
21
16.5607079351
31
0.0000000000
0
SPLINE
5
476
100
AcDbEntity
8
0
100
AcDbSpline
62
9
6
CONTINUOUS
70
0
71
3
72
17
73
13
74
11
42
0.0000001000
43
0.0000001000
44
0.0000000001
12
-0.0012298290
22
0.3661500177
32
0.0000000000
13
-0.3661509212
23
0.0009224053
33
0.0000000000
40
0.0000000000
40
0.0000000000
40
0.0000000000
40
0.0000000000
40
0.0927380474
40
0.1862683312
40
0.2812329042
40
0.3781093545
40
0.4771672798
40
0.5784533210
40
0.6818006960
40
0.7868568096
40
0.8931227640
40
1.0000000000
40
1.0000000000
40
1.0000000000
40
1.0000000000
10
-13.7984813473
20
-28.2796251779
30
0.0000000000
10
-13.7985193646
20
-28.2683064987
30
0.0000000000
10
-13.8006699636
20
-28.2455267900
30
0.0000000000
10
-13.8100115324
20
-28.2123181269
30
0.0000000000
10
-13.8252247282
20
-28.1807918015
30
0.0000000000
10
-13.8459125165
20
-28.1517383747
30
0.0000000000
10
-13.8715475591
20
-28.1258576133
30
0.0000000000
10
-13.9014893993
20
-28.1037700164
30
0.0000000000
10
-13.9349996882
20
-28.0860000127
30
0.0000000000
10
-13.9712626770
20
-28.0729683721
30
0.0000000000
10
-14.0093881630
20
-28.0649832862
30
0.0000000000
10
-14.0354327170
20
-28.0631516883
30
0.0000000000
10
-14.0484771165
20
-28.0631188270
30
0.0000000000
11
-13.7984813473
21
-28.2796251779
31
0.0000000000
11
-13.8016613958
21
-28.2458181846
31
0.0000000000
11
-13.8108964246
21
-28.2128405578
31
0.0000000000
11
-13.8259598763
21
-28.1815013175
31
0.0000000000
11
-13.8464822083
21
-28.1525692903
31
0.0000000000
11
-13.8719599587
21
-28.1267542480
31
0.0000000000
11
-13.9017680975
21
-28.1046894955
31
0.0000000000
11
-13.9351753595
21
-28.0869163339
31
0.0000000000
11
-13.9713621847
21
-28.0738707813
31
0.0000000000
11
-14.0094408238
21
-28.0658728764
31
0.0000000000
11
-14.0484771165
21
-28.0631188270
31
0.0000000000
0
SPLINE
5
477
100
AcDbEntity
8
0
100
AcDbSpline
62
7
6
CONTINUOUS
70
0
71
3
72
17
73
13
74
11
42
0.0000001000
43
0.0000001000
44
0.0000000001
12
0.4220147089
22
0.0000000000
32
0.0000000000
13
0.0000000000
23
-0.4220147089
33
0.0000000000
40
0.0000000000
40
0.0000000000
40
0.0000000000
40
0.0000000000
40
0.0855989391
40
0.1727353490
40
0.2617246883
40
0.3543677482
40
0.4508775680
40
0.5524911396
40
0.6587554531
40
0.7696721429
40
0.8836902644
40
1.0000000000
40
1.0000000000
40
1.0000000000
40
1.0000000000
10
-14.0433865154
20
-27.5579373414
30
0.0000000000
10
-14.0313451783
20
-27.5579373414
30
0.0000000000
10
-14.0069982466
20
-27.5599773815
30
0.0000000000
10
-13.9711766063
20
-27.5691626466
30
0.0000000000
10
-13.9364446125
20
-27.5845290769
30
0.0000000000
10
-13.9035648903
20
-27.6060510165
30
0.0000000000
10
-13.8732199390
20
-27.6337306882
30
0.0000000000
10
-13.8463692394
20
-27.6673063780
30
0.0000000000
10
-13.8239671284
20
-27.7063548233
30
0.0000000000
10
-13.8070624777
20
-27.7499607699
30
0.0000000000
10
-13.7964994768
20
-27.7969587820
30
0.0000000000
10
-13.7941095133
20
-27.8294112858
30
0.0000000000
10
-13.7941095133
20
-27.8457727588
30
0.0000000000
11
-14.0433865154
21
-27.5579373414
31
0.0000000000
11
-14.0073880913
21
-27.5609469363
31
0.0000000000
11
-13.9717596301
21
-27.5700494087
31
0.0000000000
11
-13.9373969917
21
-27.5852010700
31
0.0000000000
11
-13.9046504241
21
-27.6065603049
31
0.0000000000
11
-13.8745118070
21
-27.6339551884
31
0.0000000000
11
-13.8476706161
21
-27.6673984624
31
0.0000000000
11
-13.8252939302
21
-27.7062619057
31
0.0000000000
11
-13.8083193764
21
-27.7498841226
31
0.0000000000
11
-13.7977318721
21
-27.7968221845
31
0.0000000000
11
-13.7941095133
21
-27.8457727588
31
0.0000000000
0
SPLINE
5
478
100
AcDbEntity
8
0
100
AcDbSpline
62
9
6
CONTINUOUS
70
0
71
3
72
28
73
24
74
22
42
0.0000001000
43
0.0000001000
44
0.0000000001
12
-0.0000247054
22
-0.4520129597
32
0.0000000000
13
-0.0000257590
23
0.4520129596
33
0.0000000000
40
0.0000000000
40
0.0000000000
40
0.0000000000
40
0.0000000000
40
0.0479331415
40
0.0959111794
40
0.1438297835
40
0.1916539231
40
0.2393711093
40
0.2869708895
40
0.3344545840
40
0.3818336974
40
0.4291336864
40
0.4763809282
40
0.5236121814
40
0.5708599886
40
0.6181605176
40
0.6655401200
40
0.7130243268
40
0.7606245572
40
0.8083421479
40
0.8561666591
40
0.9040857158
40
0.9520640071
40
1.0000000000
40
1.0000000000
40
1.0000000000
40
1.0000000000
10
-12.3011276301
20
15.5583769554
30
0.0000000000
10
-12.3011280248
20
15.5511548216
30
0.0000000000
10
-12.3021950011
20
15.5366811550
30
0.0000000000
10
-12.3069687930
20
15.5154652526
30
0.0000000000
10
-12.3148119667
20
15.4951948797
30
0.0000000000
10
-12.3255463889
20
15.4763419236
30
0.0000000000
10
-12.3389289957
20
15.4593267688
30
0.0000000000
10
-12.3546591339
20
15.4445290935
30
0.0000000000
10
-12.3723832080
20
15.4322780770
30
0.0000000000
10
-12.3917046796
20
15.4228449924
30
0.0000000000
10
-12.4121922141
20
15.4164382586
30
0.0000000000
10
-12.4333899789
20
15.4131990443
30
0.0000000000
10
-12.4548260212
20
15.4131988058
30
0.0000000000
10
-12.4760240223
20
15.4164375945
30
0.0000000000
10
-12.4965119134
20
15.4228440027
30
0.0000000000
10
-12.5158337628
20
15.4322768488
30
0.0000000000
10
-12.5335582152
20
15.4445277075
30
0.0000000000
10
-12.5492887165
20
15.4593253006
30
0.0000000000
10
-12.5626716615
20
15.4763404277
30
0.0000000000
10
-12.5734063890
20
15.4951934248
30
0.0000000000
10
-12.5812498428
20
15.5154638656
30
0.0000000000
10
-12.5860239364
20
15.5366802542
30
0.0000000000
10
-12.5870909848
20
15.5511543920
30
0.0000000000
10
-12.5870913964
20
15.5583769554
30
0.0000000000
11
-12.3011276301
21
15.5583769554
31
0.0000000000
11
-12.3027230989
21
15.5367693775
31
0.0000000000
11
-12.3074840104
21
15.5156117203
31
0.0000000000
11
-12.3153028467
21
15.4954123629
31
0.0000000000
11
-12.3260012623
21
15.4766282139
31
0.0000000000
11
-12.3393379964
21
15.4596769875
31
0.0000000000
11
-12.3550116651
21
15.4449371703
31
0.0000000000
11
-12.3726695218
21
15.4327358999
31
0.0000000000
11
-12.3919155974
21
15.4233426850
31
0.0000000000
11
-12.4123219300
21
15.4169634306
31
0.0000000000
11
-12.4334333940
21
15.4137384597
31
0.0000000000
11
-12.4547825326
21
15.4137382224
31
0.0000000000
11
-12.4758943179
21
15.4169627826
31
0.0000000000
11
-12.4963010074
21
15.4233417134
31
0.0000000000
11
-12.5155474478
21
15.4327346849
31
0.0000000000
11
-12.5332056900
21
15.4449358045
31
0.0000000000
11
-12.5488797184
21
15.4596755363
31
0.0000000000
11
-12.5622167853
21
15.4766267336
31
0.0000000000
11
-12.5729155007
21
15.4954109051
31
0.0000000000
11
-12.5807346240
21
15.5156103708
31
0.0000000000
11
-12.5854957427
21
15.5367680988
31
0.0000000000
11
-12.5870913964
21
15.5583769554
31
0.0000000000
0
SPLINE
5
479
100
AcDbEntity
8
0
100
AcDbSpline
62
9
6
CONTINUOUS
70
0
71
3
72
28
73
24
74
22
42
0.0000001000
43
0.0000001000
44
0.0000000001
12
-0.0006388543
22
-1.0748827835
32
0.0000000000
13
-0.0006396087
23
1.0748827831
33
0.0000000000
40
0.0000000000
40
0.0000000000
40
0.0000000000
40
0.0000000000
40
0.0476396842
40
0.0952651603
40
0.1428953982
40
0.1905186474
40
0.2381408772
40
0.2857596630
40
0.3333741651
40
0.3809835328
40
0.4285918655
40
0.4761970529
40
0.5238028776
40
0.5714080468
40
0.6190163678
40
0.6666257047
40
0.7142402314
40
0.7618590103
40
0.8094812149
40
0.8571044435
40
0.9047347406
40
0.9523602032
40
1.0000000000
40
1.0000000000
40
1.0000000000
40
1.0000000000
10
-12.1011315393
20
15.5583769554
30
0.0000000000
10
-12.1011416843
20
15.5413079299
30
0.0000000000
10
-12.1037289781
20
15.5071209379
30
0.0000000000
10
-12.1152319708
20
15.4570431378
30
0.0000000000
10
-12.1340863871
20
15.4092398088
30
0.0000000000
10
-12.1598675834
20
15.3647928849
30
0.0000000000
10
-12.1919879585
20
15.3246919271
30
0.0000000000
10
-12.2297233106
20
15.2898283737
30
0.0000000000
10
-12.2722239751
20
15.2609735236
30
0.0000000000
10
-12.3185393695
20
15.2387616511
30
0.0000000000
10
-12.3676375236
20
15.2236791203
30
0.0000000000
10
-12.4184295479
20
15.2160547805
30
0.0000000000
10
-12.4697894403
20
15.2160547700
30
0.0000000000
10
-12.5205814568
20
15.2236790898
30
0.0000000000
10
-12.5696795954
20
15.2387615972
30
0.0000000000
10
-12.6159949913
20
15.2609734511
30
0.0000000000
10
-12.6584956620
20
15.2898282848
30
0.0000000000
10
-12.6962310185
20
15.3246918283
30
0.0000000000
10
-12.7283514002
20
15.3647927580
30
0.0000000000
10
-12.7541325994
20
15.4092396830
30
0.0000000000
10
-12.7729870716
20
15.4570430034
30
0.0000000000
10
-12.7844900228
20
15.5071208695
30
0.0000000000
10
-12.7870773853
20
15.5413078896
30
0.0000000000
10
-12.7870875423
20
15.5583769554
30
0.0000000000
11
-12.1011315393
21
15.5583769554
31
0.0000000000
11
-12.1050001164
21
15.5073162101
31
0.0000000000
11
-12.1164569622
21
15.4574228996
31
0.0000000000
11
-12.1352420500
21
15.4097967902
31
0.0000000000
11
-12.1609246934
21
15.3655163372
31
0.0000000000
11
-12.1929249972
21
15.3255635517
31
0.0000000000
11
-12.2305193391
21
15.2908283967
31
0.0000000000
11
-12.2728618941
21
15.2620794447
31
0.0000000000
11
-12.3190040238
21
15.2399495287
31
0.0000000000
11
-12.3679211400
21
15.2249218479
31
0.0000000000
11
-12.4185241524
21
15.2173254939
31
0.0000000000
11
-12.4696948428
21
15.2173254841
31
0.0000000000
11
-12.5202978385
21
15.2249218167
31
0.0000000000
11
-12.5692149480
21
15.2399494769
31
0.0000000000
11
-12.6153570556
21
15.2620793626
31
0.0000000000
11
-12.6576996415
21
15.2908283159
31
0.0000000000
11
-12.6952939867
21
15.3255634566
31
0.0000000000
11
-12.7272942867
21
15.3655162103
31
0.0000000000
11
-12.7529769322
21
15.4097966365
31
0.0000000000
11
-12.7717620695
21
15.4574227949
31
0.0000000000
11
-12.7832189020
21
15.5073160935
31
0.0000000000
11
-12.7870875423
21
15.5583769554
31
0.0000000000
0
SPLINE
5
47A
100
AcDbEntity
8
0
100
AcDbSpline
62
7
6
CONTINUOUS
70
0
71
3
72
17
73
13
74
11
42
0.0000001000
43
0.0000001000
44
0.0000000001
12
0.2404959853
22
-0.3802575409
32
0.0000000000
13
0.0034689349
23
-0.4499134171
33
0.0000000000
40
0.0000000000
40
0.0000000000
40
0.0000000000
40
0.0000000000
40
0.1117916783
40
0.2238311090
40
0.3350443235
40
0.4444169730
40
0.5509312361
40
0.6535208047
40
0.7510215470
40
0.8421379665
40
0.9254838484
40
1.0000000000
40
1.0000000000
40
1.0000000000
40
1.0000000000
10
-12.3011276301
20
16.1476366726
30
0.0000000000
10
-12.2921658135
20
16.1334667964
30
0.0000000000
10
-12.2742222096
20
16.1050956996
30
0.0000000000
10
-12.2475208332
20
16.0625284525
30
0.0000000000
10
-12.2213436860
20
16.0200617850
30
0.0000000000
10
-12.1961349472
20
15.9779748724
30
0.0000000000
10
-12.1723732447
20
15.9365367357
30
0.0000000000
10
-12.1506042710
20
15.8960226863
30
0.0000000000
10
-12.1314840297
20
15.8567411478
30
0.0000000000
10
-12.1158387493
20
15.8190250035
30
0.0000000000
10
-12.1047529558
20
15.7833161862
30
0.0000000000
10
-12.1012171786
20
15.7596872544
30
0.0000000000
10
-12.1011310147
20
15.7485119823
30
0.0000000000
11
-12.3011276301
21
16.1476366726
31
0.0000000000
11
-12.2742683553
21
16.1051105006
31
0.0000000000
11
-12.2475110153
21
16.0623885318
31
0.0000000000
11
-12.2212903018
21
16.0197709759
31
0.0000000000
11
-12.1960507915
21
15.9775269204
31
0.0000000000
11
-12.1722763086
21
15.9359162563
31
0.0000000000
11
-12.1505239234
21
15.8952053757
31
0.0000000000
11
-12.1314746712
21
15.8556889915
31
0.0000000000
11
-12.1160104683
21
15.8177218039
31
0.0000000000
11
-12.1053334936
21
15.7817743688
31
0.0000000000
11
-12.1011310147
21
15.7485119823
31
0.0000000000
0
SPLINE
5
47B
100
AcDbEntity
8
0
100
AcDbSpline
62
7
6
CONTINUOUS
70
0
71
3
72
18
73
14
74
12
42
0.0000001000
43
0.0000001000
44
0.0000000001
12
0.0000000000
22
-0.5002718639
32
0.0000000000
13
-0.5002718639
23
0.0000000000
33
0.0000000000
40
0.0000000000
40
0.0000000000
40
0.0000000000
40
0.0000000000
40
0.1421954571
40
0.2816397526
40
0.4150866161
40
0.5404236261
40
0.6544009752
40
0.7554235020
40
0.8407682813
40
0.9092516901
40
0.9590882680
40
0.9895308580
40
1.0000000000
40
1.0000000000
40
1.0000000000
40
1.0000000000
10
3.9854505387
20
10.7647123894
30
0.0000000000
10
3.9854505387
20
10.7410002606
30
0.0000000000
10
3.9853926433
20
10.6940345343
30
0.0000000000
10
3.9851320135
20
10.6248172054
30
0.0000000000
10
3.9847065518
20
10.5584077008
30
0.0000000000
10
3.9841153848
20
10.4962609729
30
0.0000000000
10
3.9834062499
20
10.4394753586
30
0.0000000000
10
3.9824847381
20
10.3895108693
30
0.0000000000
10
3.9817083293
20
10.3466952364
30
0.0000000000
10
3.9801659852
20
10.3136238920
30
0.0000000000
10
3.9802530524
20
10.2868023336
30
0.0000000000
10
3.9771334287
20
10.2753555086
30
0.0000000000
10
3.9784688120
20
10.2647123894
30
0.0000000000
10
3.9767230063
20
10.2647123894
30
0.0000000000
11
3.9854505387
21
10.7647123894
31
0.0000000000
11
3.9853617579
21
10.6935760584
31
0.0000000000
11
3.9850968606
21
10.6238165037
31
0.0000000000
11
3.9846622740
21
10.5570582071
31
0.0000000000
11
3.9840646979
21
10.4943584751
31
0.0000000000
11
3.9833197676
21
10.4373436805
31
0.0000000000
11
3.9824378219
21
10.3868126487
31
0.0000000000
11
3.9814426352
21
10.3441286568
31
0.0000000000
11
3.9803481502
21
10.3098858210
31
0.0000000000
11
3.9791827476
21
10.2849812357
31
0.0000000000
11
3.9779649138
21
10.2698004346
31
0.0000000000
11
3.9767230063
21
10.2647123894
31
0.0000000000
0
SPLINE
5
47C
100
AcDbEntity
8
0
100
AcDbSpline
62
7
6
CONTINUOUS
70
0
71
3
72
12
73
8
74
6
42
0.0000001000
43
0.0000001000
44
0.0000000001
12
-0.0007778049
22
-0.1008796223
32
0.0000000000
13
-0.0559590632
23
-0.0839397785
33
0.0000000000
40
0.0000000000
40
0.0000000000
40
0.0000000000
40
0.0000000000
40
0.3474087206
40
0.6252812510
40
0.8283731597
40
0.9540891791
40
1.0000000000
40
1.0000000000
40
1.0000000000
40
1.0000000000
10
1.0129119882
20
15.7485119823
30
0.0000000000
10
1.0128219161
20
15.7368298288
30
0.0000000000
10
1.0127314034
20
15.7157678721
30
0.0000000000
10
1.0121018920
20
15.6880376193
30
0.0000000000
10
1.0124885632
20
15.6673546065
30
0.0000000000
10
1.0108778547
20
15.6552761919
30
0.0000000000
10
1.0120416302
20
15.6489402924
30
0.0000000000
10
1.0111852547
20
15.6476557111
30
0.0000000000
11
1.0129119882
21
15.7485119823
31
0.0000000000
11
1.0126025943
21
15.7134658458
31
0.0000000000
11
1.0122693822
21
15.6854353171
31
0.0000000000
11
1.0119187222
21
15.6649498741
31
0.0000000000
11
1.0115550699
21
15.6522725272
31
0.0000000000
11
1.0111852547
21
15.6476557111
31
0.0000000000
0
SPLINE
5
47D
100
AcDbEntity
8
0
100
AcDbSpline
62
7
6
CONTINUOUS
70
0
71
3
72
12
73
8
74
6
42
0.0000001000
43
0.0000001000
44
0.0000000001
12
-0.0559590632
22
0.0839397785
32
0.0000000000
13
-0.0007778049
23
0.1008796223
33
0.0000000000
40
0.0000000000
40
0.0000000000
40
0.0000000000
40
0.0000000000
40
0.0459108209
40
0.1716268403
40
0.3747187490
40
0.6525912794
40
1.0000000000
40
1.0000000000
40
1.0000000000
40
1.0000000000
10
-12.0994042812
20
15.6476557111
30
0.0000000000
10
-12.1002606567
20
15.6489402924
30
0.0000000000
10
-12.0990968812
20
15.6552761919
30
0.0000000000
10
-12.1007075897
20
15.6673546065
30
0.0000000000
10
-12.1003209185
20
15.6880376193
30
0.0000000000
10
-12.1009504300
20
15.7157678721
30
0.0000000000
10
-12.1010409427
20
15.7368298288
30
0.0000000000
10
-12.1011310147
20
15.7485119823
30
0.0000000000
11
-12.0994042812
21
15.6476557111
31
0.0000000000
11
-12.0997740965
21
15.6522725272
31
0.0000000000
11
-12.1001377488
21
15.6649498741
31
0.0000000000
11
-12.1004884087
21
15.6854353171
31
0.0000000000
11
-12.1008216208
21
15.7134658458
31
0.0000000000
11
-12.1011310147
21
15.7485119823
31
0.0000000000
0
SPLINE
5
47E
100
AcDbEntity
8
0
100
AcDbSpline
62
7
6
CONTINUOUS
70
0
71
3
72
12
73
8
74
6
42
0.0000001000
43
0.0000001000
44
0.0000000001
12
0.0559590632
22
-0.0839397785
32
0.0000000000
13
0.0007778049
23
-0.1008796223
33
0.0000000000
40
0.0000000000
40
0.0000000000
40
0.0000000000
40
0.0000000000
40
0.0459108209
40
0.1716268403
40
0.3747187490
40
0.6525912794
40
1.0000000000
40
1.0000000000
40
1.0000000000
40
1.0000000000
10
1.0111852547
20
-24.5182309323
30
0.0000000000
10
1.0120416302
20
-24.5195155137
30
0.0000000000
10
1.0108778547
20
-24.5258514132
30
0.0000000000
10
1.0124885632
20
-24.5379298277
30
0.0000000000
10
1.0121018920
20
-24.5586128405
30
0.0000000000
10
1.0127314034
20
-24.5863430933
30
0.0000000000
10
1.0128219161
20
-24.6074050500
30
0.0000000000
10
1.0129119882
20
-24.6190872035
30
0.0000000000
11
1.0111852547
21
-24.5182309323
31
0.0000000000
11
1.0115550699
21
-24.5228477485
31
0.0000000000
11
1.0119187222
21
-24.5355250953
31
0.0000000000
11
1.0122693822
21
-24.5560105383
31
0.0000000000
11
1.0126025943
21
-24.5840410670
31
0.0000000000
11
1.0129119882
21
-24.6190872035
31
0.0000000000
0
SPLINE
5
47F
100
AcDbEntity
8
0
100
AcDbSpline
62
7
6
CONTINUOUS
70
0
71
3
72
12
73
8
74
6
42
0.0000001000
43
0.0000001000
44
0.0000000001
12
0.0007778049
22
0.1008796223
32
0.0000000000
13
0.0559590632
23
0.0839397785
33
0.0000000000
40
0.0000000000
40
0.0000000000
40
0.0000000000
40
0.0000000000
40
0.3474087206
40
0.6252812510
40
0.8283731597
40
0.9540891791
40
1.0000000000
40
1.0000000000
40
1.0000000000
40
1.0000000000
10
-12.1011310147
20
-24.6190872035
30
0.0000000000
10
-12.1010409427
20
-24.6074050500
30
0.0000000000
10
-12.1009504300
20
-24.5863430933
30
0.0000000000
10
-12.1003209185
20
-24.5586128405
30
0.0000000000
10
-12.1007075897
20
-24.5379298277
30
0.0000000000
10
-12.0990968812
20
-24.5258514132
30
0.0000000000
10
-12.1002606567
20
-24.5195155137
30
0.0000000000
10
-12.0994042812
20
-24.5182309323
30
0.0000000000
11
-12.1011310147
21
-24.6190872035
31
0.0000000000
11
-12.1008216208
21
-24.5840410670
31
0.0000000000
11
-12.1004884087
21
-24.5560105383
31
0.0000000000
11
-12.1001377488
21
-24.5355250953
31
0.0000000000
11
-12.0997740965
21
-24.5228477485
31
0.0000000000
11
-12.0994042812
21
-24.5182309323
31
0.0000000000
0
SPLINE
5
480
100
AcDbEntity
8
0
100
AcDbSpline
62
7
6
CONTINUOUS
70
0
71
3
72
29
73
25
74
23
42
0.0000001000
43
0.0000001000
44
0.0000000001
12
0.0000000000
22
-1.3915531874
32
0.0000000000
13
0.0000000000
23
1.3915531874
33
0.0000000000
40
0.0000000000
40
0.0000000000
40
0.0000000000
40
0.0000000000
40
0.0460864919
40
0.0921974370
40
0.1381475988
40
0.1840370526
40
0.2296253540
40
0.2751518994
40
0.3203344751
40
0.3654890455
40
0.4103615618
40
0.4552346560
40
0.4999970050
40
0.5447604167
40
0.5896336457
40
0.6345061249
40
0.6796622821
40
0.7248432020
40
0.7703726778
40
0.8159584641
40
0.8618513462
40
0.9077989078
40
0.9539123982
40
1.0000000000
40
1.0000000000
40
1.0000000000
40
1.0000000000
10
1.7960335124
20
12.7120766540
30
0.0000000000
10
1.7960335124
20
12.6906993857
30
0.0000000000
10
1.7929961286
20
12.6478716466
30
0.0000000000
10
1.7794232661
20
12.5850352043
30
0.0000000000
10
1.7571242730
20
12.5248253930
30
0.0000000000
10
1.7266306301
20
12.4686004544
30
0.0000000000
10
1.6885835958
20
12.4174308257
30
0.0000000000
10
1.6438766106
20
12.3724235440
30
0.0000000000
10
1.5933766333
20
12.3343657812
30
0.0000000000
10
1.5382269666
20
12.3040491359
30
0.0000000000
10
1.4794460162
20
12.2819784324
30
0.0000000000
10
1.4182885778
20
12.2685834101
30
0.0000000000
10
1.3558941872
20
12.2640919082
30
0.0000000000
10
1.2934996424
20
12.2685823200
30
0.0000000000
10
1.2323414667
20
12.2819765047
30
0.0000000000
10
1.1735594445
20
12.3040465773
30
0.0000000000
10
1.1184094138
20
12.3343625013
30
0.0000000000
10
1.0679079008
20
12.3724203991
30
0.0000000000
10
1.0232008097
20
12.4174268168
30
0.0000000000
10
0.9851522124
20
12.4685974677
30
0.0000000000
10
0.9546584385
20
12.5248214937
30
0.0000000000
10
0.9323584739
20
12.5850325812
30
0.0000000000
10
0.9187850379
20
12.6478694332
30
0.0000000000
10
0.9157474610
20
12.6906988709
30
0.0000000000
10
0.9157474610
20
12.7120766540
30
0.0000000000
11
1.7960335124
21
12.7120766540
31
0.0000000000
11
1.7914925022
21
12.6481058199
31
0.0000000000
11
1.7779432959
21
12.5853868189
31
0.0000000000
11
1.7557294467
21
12.5254273636
31
0.0000000000
11
1.7252788493
21
12.4692975479
31
0.0000000000
11
1.6874190399
21
12.4183948567
31
0.0000000000
11
1.6427655913
21
12.3734546449
31
0.0000000000
11
1.5925484667
21
12.3356211295
31
0.0000000000
11
1.5374810826
21
12.3053586323
31
0.0000000000
11
1.4790213593
21
12.2834149388
31
0.0000000000
11
1.4180231811
21
12.2700587557
31
0.0000000000
11
1.3558946653
21
12.2655876655
31
0.0000000000
11
1.2937645961
21
12.2700577716
31
0.0000000000
11
1.2327660263
21
12.2834130435
31
0.0000000000
11
1.1743060136
21
12.3053558193
31
0.0000000000
11
1.1192363056
21
12.3356186721
31
0.0000000000
11
1.0690205336
21
12.3734501540
31
0.0000000000
11
1.0243637250
21
12.4183927757
31
0.0000000000
11
0.9865054909
21
12.4692922767
31
0.0000000000
11
0.9560521348
21
12.5254260232
31
0.0000000000
11
0.9338391055
21
12.5853819237
31
0.0000000000
11
0.9202886900
21
12.6481042871
31
0.0000000000
11
0.9157474610
21
12.7120766540
31
0.0000000000
0
SPLINE
5
481
100
AcDbEntity
8
0
100
AcDbSpline
62
7
6
CONTINUOUS
70
0
71
3
72
29
73
25
74
23
42
0.0000001000
43
0.0000001000
44
0.0000000001
12
0.0000000000
22
1.4283404133
32
0.0000000000
13
-0.0000000000
23
-1.4283404133
33
0.0000000000
40
0.0000000000
40
0.0000000000
40
0.0000000000
40
0.0000000000
40
0.0461614366
40
0.0922605403
40
0.1382361858
40
0.1840449824
40
0.2297019764
40
0.2751112250
40
0.3203948812
40
0.3654313474
40
0.4103994780
40
0.4552072678
40
0.5000000000
40
0.5447927322
40
0.5896005220
40
0.6345686526
40
0.6796051188
40
0.7248887750
40
0.7702980236
40
0.8159550176
40
0.8617638142
40
0.9077394597
40
0.9538385634
40
1.0000000000
40
1.0000000000
40
1.0000000000
40
1.0000000000
10
-12.8958881986
20
-21.2418013358
30
0.0000000000
10
-12.8958881986
20
-21.2198232540
30
0.0000000000
10
-12.8927632504
20
-21.1758329371
30
0.0000000000
10
-12.8788089562
20
-21.1112972365
30
0.0000000000
10
-12.8559169037
20
-21.0495306926
30
0.0000000000
10
-12.8246059070
20
-20.9918193494
30
0.0000000000
10
-12.7855823299
20
-20.9393508667
30
0.0000000000
10
-12.7396743026
20
-20.8931397269
30
0.0000000000
10
-12.6878881619
20
-20.8541151919
30
0.0000000000
10
-12.6312489370
20
-20.8229800772
30
0.0000000000
10
-12.5709527828
20
-20.8003382217
30
0.0000000000
10
-12.5081509150
20
-20.7865841989
30
0.0000000000
10
-12.4441095133
20
-20.7819715469
30
0.0000000000
10
-12.3800681115
20
-20.7865841989
30
0.0000000000
10
-12.3172662438
20
-20.8003382217
30
0.0000000000
10
-12.2569700895
20
-20.8229800772
30
0.0000000000
10
-12.2003308646
20
-20.8541151919
30
0.0000000000
10
-12.1485447239
20
-20.8931397269
30
0.0000000000
10
-12.1026366967
20
-20.9393508667
30
0.0000000000
10
-12.0636131196
20
-20.9918193494
30
0.0000000000
10
-12.0323021229
20
-21.0495306926
30
0.0000000000
10
-12.0094100704
20
-21.1112972365
30
0.0000000000
10
-11.9954557762
20
-21.1758329371
30
0.0000000000
10
-11.9923308280
20
-21.2198232540
30
0.0000000000
10
-11.9923308280
20
-21.2418013358
30
0.0000000000
11
-12.8958881986
21
-21.2418013358
31
0.0000000000
11
-12.8912119678
21
-21.1760331248
31
0.0000000000
11
-12.8772944351
21
-21.1116755741
31
0.0000000000
11
-12.8544662300
21
-21.0501022530
31
0.0000000000
11
-12.8232569464
21
-20.9925945299
31
0.0000000000
11
-12.7843307910
21
-20.9402725942
31
0.0000000000
11
-12.7386123746
21
-20.8942657634
31
0.0000000000
11
-12.6869511702
21
-20.8553468226
31
0.0000000000
11
-12.6305757307
21
-20.8243657828
31
0.0000000000
11
-12.5704434136
21
-20.8017920940
31
0.0000000000
11
-12.5079235696
21
-20.7881038301
31
0.0000000000
11
-12.4441095133
21
-20.7835089253
31
0.0000000000
11
-12.3802954570
21
-20.7881038301
31
0.0000000000
11
-12.3177756129
21
-20.8017920940
31
0.0000000000
11
-12.2576432959
21
-20.8243657828
31
0.0000000000
11
-12.2012678564
21
-20.8553468226
31
0.0000000000
11
-12.1496066519
21
-20.8942657634
31
0.0000000000
11
-12.1038882355
21
-20.9402725942
31
0.0000000000
11
-12.0649620801
21
-20.9925945299
31
0.0000000000
11
-12.0337527966
21
-21.0501022530
31
0.0000000000
11
-12.0109245914
21
-21.1116755741
31
0.0000000000
11
-11.9970070587
21
-21.1760331248
31
0.0000000000
11
-11.9923308280
21
-21.2418013358
31
0.0000000000
0
SPLINE
5
482
100
AcDbEntity
8
0
100
AcDbSpline
62
7
6
CONTINUOUS
70
0
71
3
72
29
73
25
74
23
42
0.0000001000
43
0.0000001000
44
0.0000000001
12
-0.0000000000
22
1.4283404133
32
0.0000000000
13
-0.0000000000
23
-1.4283404133
33
0.0000000000
40
0.0000000000
40
0.0000000000
40
0.0000000000
40
0.0000000000
40
0.0461614366
40
0.0922605403
40
0.1382361858
40
0.1840449824
40
0.2297019764
40
0.2751112250
40
0.3203948812
40
0.3654313474
40
0.4103994780
40
0.4552072678
40
0.5000000000
40
0.5447927322
40
0.5896005220
40
0.6345686526
40
0.6796051188
40
0.7248887750
40
0.7702980236
40
0.8159550176
40
0.8617638142
40
0.9077394597
40
0.9538385634
40
1.0000000000
40
1.0000000000
40
1.0000000000
40
1.0000000000
10
0.9041118014
20
-21.2418013358
30
0.0000000000
10
0.9041118014
20
-21.2198232540
30
0.0000000000
10
0.9072367496
20
-21.1758329371
30
0.0000000000
10
0.9211910438
20
-21.1112972365
30
0.0000000000
10
0.9440830963
20
-21.0495306926
30
0.0000000000
10
0.9753940930
20
-20.9918193494
30
0.0000000000
10
1.0144176701
20
-20.9393508667
30
0.0000000000
10
1.0603256974
20
-20.8931397269
30
0.0000000000
10
1.1121118381
20
-20.8541151919
30
0.0000000000
10
1.1687510630
20
-20.8229800772
30
0.0000000000
10
1.2290472172
20
-20.8003382217
30
0.0000000000
10
1.2918490850
20
-20.7865841989
30
0.0000000000
10
1.3558904867
20
-20.7819715469
30
0.0000000000
10
1.4199318885
20
-20.7865841989
30
0.0000000000
10
1.4827337562
20
-20.8003382217
30
0.0000000000
10
1.5430299105
20
-20.8229800772
30
0.0000000000
10
1.5996691354
20
-20.8541151919
30
0.0000000000
10
1.6514552761
20
-20.8931397269
30
0.0000000000
10
1.6973633033
20
-20.9393508667
30
0.0000000000
10
1.7363868804
20
-20.9918193494
30
0.0000000000
10
1.7676978771
20
-21.0495306926
30
0.0000000000
10
1.7905899296
20
-21.1112972365
30
0.0000000000
10
1.8045442238
20
-21.1758329371
30
0.0000000000
10
1.8076691720
20
-21.2198232540
30
0.0000000000
10
1.8076691720
20
-21.2418013358
30
0.0000000000
11
0.9041118014
21
-21.2418013358
31
0.0000000000
11
0.9087880322
21
-21.1760331248
31
0.0000000000
11
0.9227055649
21
-21.1116755741
31
0.0000000000
11
0.9455337700
21
-21.0501022530
31
0.0000000000
11
0.9767430536
21
-20.9925945299
31
0.0000000000
11
1.0156692090
21
-20.9402725942
31
0.0000000000
11
1.0613876254
21
-20.8942657634
31
0.0000000000
11
1.1130488298
21
-20.8553468226
31
0.0000000000
11
1.1694242693
21
-20.8243657828
31
0.0000000000
11
1.2295565864
21
-20.8017920940
31
0.0000000000
11
1.2920764304
21
-20.7881038301
31
0.0000000000
11
1.3558904867
21
-20.7835089253
31
0.0000000000
11
1.4197045430
21
-20.7881038301
31
0.0000000000
11
1.4822243871
21
-20.8017920940
31
0.0000000000
11
1.5423567041
21
-20.8243657828
31
0.0000000000
11
1.5987321436
21
-20.8553468226
31
0.0000000000
11
1.6503933481
21
-20.8942657634
31
0.0000000000
11
1.6961117645
21
-20.9402725942
31
0.0000000000
11
1.7350379199
21
-20.9925945299
31
0.0000000000
11
1.7662472034
21
-21.0501022530
31
0.0000000000
11
1.7890754086
21
-21.1116755741
31
0.0000000000
11
1.8029929413
21
-21.1760331248
31
0.0000000000
11
1.8076691720
21
-21.2418013358
31
0.0000000000
0
SPLINE
5
483
100
AcDbEntity
8
0
100
AcDbSpline
62
7
6
CONTINUOUS
70
0
71
3
72
29
73
25
74
23
42
0.0000001000
43
0.0000001000
44
0.0000000001
12
0.0000000000
22
-1.3915531874
32
0.0000000000
13
0.0000000000
23
1.3915531874
33
0.0000000000
40
0.0000000000
40
0.0000000000
40
0.0000000000
40
0.0000000000
40
0.0460864919
40
0.0921974370
40
0.1381475988
40
0.1840370526
40
0.2296253540
40
0.2751518994
40
0.3203344751
40
0.3654890455
40
0.4103615618
40
0.4552346560
40
0.4999970050
40
0.5447604167
40
0.5896336457
40
0.6345061249
40
0.6796622821
40
0.7248432020
40
0.7703726778
40
0.8159584641
40
0.8618513462
40
0.9077989078
40
0.9539123982
40
1.0000000000
40
1.0000000000
40
1.0000000000
40
1.0000000000
10
-12.0039664876
20
12.7120766540
30
0.0000000000
10
-12.0039664876
20
12.6906993857
30
0.0000000000
10
-12.0070038714
20
12.6478716466
30
0.0000000000
10
-12.0205767339
20
12.5850352043
30
0.0000000000
10
-12.0428757270
20
12.5248253930
30
0.0000000000
10
-12.0733693699
20
12.4686004544
30
0.0000000000
10
-12.1114164042
20
12.4174308257
30
0.0000000000
10
-12.1561233894
20
12.3724235440
30
0.0000000000
10
-12.2066233667
20
12.3343657812
30
0.0000000000
10
-12.2617730334
20
12.3040491359
30
0.0000000000
10
-12.3205539838
20
12.2819784324
30
0.0000000000
10
-12.3817114222
20
12.2685834101
30
0.0000000000
10
-12.4441058128
20
12.2640919082
30
0.0000000000
10
-12.5065003576
20
12.2685823200
30
0.0000000000
10
-12.5676585333
20
12.2819765047
30
0.0000000000
10
-12.6264405555
20
12.3040465773
30
0.0000000000
10
-12.6815905862
20
12.3343625013
30
0.0000000000
10
-12.7320920992
20
12.3724203991
30
0.0000000000
10
-12.7767991903
20
12.4174268168
30
0.0000000000
10
-12.8148477876
20
12.4685974677
30
0.0000000000
10
-12.8453415615
20
12.5248214937
30
0.0000000000
10
-12.8676415261
20
12.5850325812
30
0.0000000000
10
-12.8812149621
20
12.6478694332
30
0.0000000000
10
-12.8842525390
20
12.6906988709
30
0.0000000000
10
-12.8842525390
20
12.7120766540
30
0.0000000000
11
-12.0039664876
21
12.7120766540
31
0.0000000000
11
-12.0085074978
21
12.6481058199
31
0.0000000000
11
-12.0220567041
21
12.5853868189
31
0.0000000000
11
-12.0442705533
21
12.5254273636
31
0.0000000000
11
-12.0747211507
21
12.4692975479
31
0.0000000000
11
-12.1125809601
21
12.4183948567
31
0.0000000000
11
-12.1572344087
21
12.3734546449
31
0.0000000000
11
-12.2074515333
21
12.3356211295
31
0.0000000000
11
-12.2625189174
21
12.3053586323
31
0.0000000000
11
-12.3209786407
21
12.2834149388
31
0.0000000000
11
-12.3819768189
21
12.2700587557
31
0.0000000000
11
-12.4441053347
21
12.2655876655
31
0.0000000000
11
-12.5062354039
21
12.2700577716
31
0.0000000000
11
-12.5672339737
21
12.2834130435
31
0.0000000000
11
-12.6256939864
21
12.3053558193
31
0.0000000000
11
-12.6807636944
21
12.3356186721
31
0.0000000000
11
-12.7309794664
21
12.3734501540
31
0.0000000000
11
-12.7756362750
21
12.4183927757
31
0.0000000000
11
-12.8134945091
21
12.4692922767
31
0.0000000000
11
-12.8439478652
21
12.5254260232
31
0.0000000000
11
-12.8661608945
21
12.5853819237
31
0.0000000000
11
-12.8797113100
21
12.6481042871
31
0.0000000000
11
-12.8842525390
21
12.7120766540
31
0.0000000000
0
SPLINE
5
484
100
AcDbEntity
8
0
100
AcDbSpline
62
7
6
CONTINUOUS
70
0
71
3
72
18
73
14
74
12
42
0.0000001000
43
0.0000001000
44
0.0000000001
12
-0.7846442912
22
0.0000000000
32
0.0000000000
13
-0.0000000000
23
-0.7846442912
33
0.0000000000
40
0.0000000000
40
0.0000000000
40
0.0000000000
40
0.0000000000
40
0.0908164987
40
0.1817113867
40
0.2724205288
40
0.3633775303
40
0.4540716926
40
0.5451007617
40
0.6358638258
40
0.7269477360
40
0.8178383033
40
0.9089451916
40
1.0000000000
40
1.0000000000
40
1.0000000000
40
1.0000000000
10
-14.6316518793
20
16.2760443840
30
0.0000000000
10
-14.6554047617
20
16.2760443840
30
0.0000000000
10
-14.7030008098
20
16.2726425455
30
0.0000000000
10
-14.7728480273
20
16.2574385774
30
0.0000000000
10
-14.8398678291
20
16.2324326957
30
0.0000000000
10
-14.9025954932
20
16.1981633710
30
0.0000000000
10
-14.9598727323
20
16.1552648118
30
0.0000000000
10
-15.0104255479
20
16.1046842750
30
0.0000000000
10
-15.0533245970
20
16.0473433783
30
0.0000000000
10
-15.0876121649
20
15.9845132136
30
0.0000000000
10
-15.1126414415
20
15.9173567975
30
0.0000000000
10
-15.1278646514
20
15.8473446186
30
0.0000000000
10
-15.1312712795
20
15.7996307438
30
0.0000000000
10
-15.1312712795
20
15.7758155319
30
0.0000000000
11
-14.6316518793
21
16.2760443840
31
0.0000000000
11
-14.7027289475
21
16.2709605682
31
0.0000000000
11
-14.7724177068
21
16.2557934547
31
0.0000000000
11
-14.8391013215
21
16.2309118905
31
0.0000000000
11
-14.9017333662
21
16.1966957287
31
0.0000000000
11
-14.9586921372
21
16.1540363556
31
0.0000000000
11
-15.0091843371
21
16.1035177339
31
0.0000000000
11
-15.0518474138
21
16.0464942027
31
0.0000000000
11
-15.0860836034
21
15.9837596385
31
0.0000000000
11
-15.1109919313
21
15.9169340735
31
0.0000000000
11
-15.1261792773
21
15.8470794804
31
0.0000000000
11
-15.1312712795
21
15.7758155319
31
0.0000000000
0
SPLINE
5
485
100
AcDbEntity
8
0
100
AcDbSpline
62
7
6
CONTINUOUS
70
0
71
3
72
18
73
14
74
12
42
0.0000001000
43
0.0000001000
44
0.0000000001
12
0.0000000000
22
0.7846442912
32
0.0000000000
13
0.7846442912
23
-0.0000000000
33
0.0000000000
40
0.0000000000
40
0.0000000000
40
0.0000000000
40
0.0000000000
40
0.0910548084
40
0.1821616967
40
0.2730522640
40
0.3641361742
40
0.4548992383
40
0.5459283074
40
0.6366224697
40
0.7275794712
40
0.8182886133
40
0.9091835013
40
1.0000000000
40
1.0000000000
40
1.0000000000
40
1.0000000000
10
-15.1941095133
20
15.9644835373
30
0.0000000000
10
-15.1941095133
20
15.9882987492
30
0.0000000000
10
-15.1907028852
20
16.0360126240
30
0.0000000000
10
-15.1754796753
20
16.1060248029
30
0.0000000000
10
-15.1504503987
20
16.1731812190
30
0.0000000000
10
-15.1161628307
20
16.2360113838
30
0.0000000000
10
-15.0732637816
20
16.2933522804
30
0.0000000000
10
-15.0227109661
20
16.3439328173
30
0.0000000000
10
-14.9654337269
20
16.3868313764
30
0.0000000000
10
-14.9027060629
20
16.4211007011
30
0.0000000000
10
-14.8356862610
20
16.4461065828
30
0.0000000000
10
-14.7658390435
20
16.4613105509
30
0.0000000000
10
-14.7182429954
20
16.4647123894
30
0.0000000000
10
-14.6944901130
20
16.4647123894
30
0.0000000000
11
-15.1941095133
21
15.9644835373
31
0.0000000000
11
-15.1890175111
21
16.0357474858
31
0.0000000000
11
-15.1738301650
21
16.1056020789
31
0.0000000000
11
-15.1489218372
21
16.1724276439
31
0.0000000000
11
-15.1146856476
21
16.2351622081
31
0.0000000000
11
-15.0720225709
21
16.2921857394
31
0.0000000000
11
-15.0215303709
21
16.3427043610
31
0.0000000000
11
-14.9645715999
21
16.3853637341
31
0.0000000000
11
-14.9019395552
21
16.4195798959
31
0.0000000000
11
-14.8352559405
21
16.4444614601
31
0.0000000000
11
-14.7655671813
21
16.4596285736
31
0.0000000000
11
-14.6944901130
21
16.4647123894
31
0.0000000000
0
SPLINE
5
486
100
AcDbEntity
8
0
100
AcDbSpline
62
7
6
CONTINUOUS
70
0
71
3
72
18
73
14
74
12
42
0.0000001000
43
0.0000001000
44
0.0000000001
12
-0.7846442912
22
0.0000000000
32
0.0000000000
13
-0.0000000000
23
0.7846442912
33
0.0000000000
40
0.0000000000
40
0.0000000000
40
0.0000000000
40
0.0000000000
40
0.0908164987
40
0.1817113867
40
0.2724205288
40
0.3633775303
40
0.4540716926
40
0.5451007617
40
0.6358638258
40
0.7269477360
40
0.8178383033
40
0.9089451916
40
1.0000000000
40
1.0000000000
40
1.0000000000
40
1.0000000000
10
-14.6944901130
20
-25.3352876106
30
0.0000000000
10
-14.7182429954
20
-25.3352876106
30
0.0000000000
10
-14.7658390435
20
-25.3318857722
30
0.0000000000
10
-14.8356862610
20
-25.3166818040
30
0.0000000000
10
-14.9027060629
20
-25.2916759223
30
0.0000000000
10
-14.9654337269
20
-25.2574065977
30
0.0000000000
10
-15.0227109661
20
-25.2145080385
30
0.0000000000
10
-15.0732637816
20
-25.1639275016
30
0.0000000000
10
-15.1161628307
20
-25.1065866050
30
0.0000000000
10
-15.1504503987
20
-25.0437564403
30
0.0000000000
10
-15.1754796753
20
-24.9766000242
30
0.0000000000
10
-15.1907028852
20
-24.9065878453
30
0.0000000000
10
-15.1941095133
20
-24.8588739704
30
0.0000000000
10
-15.1941095133
20
-24.8350587586
30
0.0000000000
11
-14.6944901130
21
-25.3352876106
31
0.0000000000
11
-14.7655671813
21
-25.3302037948
31
0.0000000000
11
-14.8352559405
21
-25.3150366813
31
0.0000000000
11
-14.9019395552
21
-25.2901551172
31
0.0000000000
11
-14.9645715999
21
-25.2559389554
31
0.0000000000
11
-15.0215303709
21
-25.2132795823
31
0.0000000000
11
-15.0720225709
21
-25.1627609606
31
0.0000000000
11
-15.1146856476
21
-25.1057374294
31
0.0000000000
11
-15.1489218372
21
-25.0430028652
31
0.0000000000
11
-15.1738301650
21
-24.9761773002
31
0.0000000000
11
-15.1890175111
21
-24.9063227071
31
0.0000000000
11
-15.1941095133
21
-24.8350587586
31
0.0000000000
0
SPLINE
5
487
100
AcDbEntity
8
0
100
AcDbSpline
62
7
6
CONTINUOUS
70
0
71
3
72
18
73
14
74
12
42
0.0000001000
43
0.0000001000
44
0.0000000001
12
0.0000000000
22
-0.7846442912
32
0.0000000000
13
0.7846442912
23
0.0000000000
33
0.0000000000
40
0.0000000000
40
0.0000000000
40
0.0000000000
40
0.0000000000
40
0.0910548084
40
0.1821616967
40
0.2730522640
40
0.3641361742
40
0.4548992383
40
0.5459283074
40
0.6366224697
40
0.7275794712
40
0.8182886133
40
0.9091835013
40
1.0000000000
40
1.0000000000
40
1.0000000000
40
1.0000000000
10
-15.0387594354
20
-24.3686295229
30
0.0000000000
10
-15.0387594354
20
-24.3924447348
30
0.0000000000
10
-15.0353528073
20
-24.4401586097
30
0.0000000000
10
-15.0201295974
20
-24.5101707886
30
0.0000000000
10
-14.9951003208
20
-24.5773272046
30
0.0000000000
10
-14.9608127528
20
-24.6401573694
30
0.0000000000
10
-14.9179137038
20
-24.6974982660
30
0.0000000000
10
-14.8673608882
20
-24.7480788029
30
0.0000000000
10
-14.8100836490
20
-24.7909773620
30
0.0000000000
10
-14.7473559850
20
-24.8252466867
30
0.0000000000
10
-14.6803361832
20
-24.8502525684
30
0.0000000000
10
-14.6104889657
20
-24.8654565366
30
0.0000000000
10
-14.5628929176
20
-24.8688583750
30
0.0000000000
10
-14.5391400351
20
-24.8688583750
30
0.0000000000
11
-15.0387594354
21
-24.3686295229
31
0.0000000000
11
-15.0336674332
21
-24.4398934714
31
0.0000000000
11
-15.0184800872
21
-24.5097480645
31
0.0000000000
11
-14.9935717593
21
-24.5765736296
31
0.0000000000
11
-14.9593355697
21
-24.6393081938
31
0.0000000000
11
-14.9166724930
21
-24.6963317250
31
0.0000000000
11
-14.8661802931
21
-24.7468503467
31
0.0000000000
11
-14.8092215220
21
-24.7895097198
31
0.0000000000
11
-14.7465894774
21
-24.8237258815
31
0.0000000000
11
-14.6799058626
21
-24.8486074457
31
0.0000000000
11
-14.6102171034
21
-24.8637745592
31
0.0000000000
11
-14.5391400351
21
-24.8688583750
31
0.0000000000
0
SPLINE
5
488
100
AcDbEntity
8
0
100
AcDbSpline
62
7
6
CONTINUOUS
70
0
71
3
72
18
73
14
74
12
42
0.0000001000
43
0.0000001000
44
0.0000000001
12
0.7846442912
22
0.0000000000
32
0.0000000000
13
-0.0000000000
23
0.7846442912
33
0.0000000000
40
0.0000000000
40
0.0000000000
40
0.0000000000
40
0.0000000000
40
0.0908164987
40
0.1817113867
40
0.2724205288
40
0.3633775303
40
0.4540716926
40
0.5451007617
40
0.6358638258
40
0.7269477360
40
0.8178383033
40
0.9089451916
40
1.0000000000
40
1.0000000000
40
1.0000000000
40
1.0000000000
10
3.4509210086
20
-24.8688583750
30
0.0000000000
10
3.4746738910
20
-24.8688583750
30
0.0000000000
10
3.5222699391
20
-24.8654565366
30
0.0000000000
10
3.5921171566
20
-24.8502525684
30
0.0000000000
10
3.6591369585
20
-24.8252466867
30
0.0000000000
10
3.7218646225
20
-24.7909773620
30
0.0000000000
10
3.7791418616
20
-24.7480788029
30
0.0000000000
10
3.8296946772
20
-24.6974982660
30
0.0000000000
10
3.8725937263
20
-24.6401573694
30
0.0000000000
10
3.9068812943
20
-24.5773272046
30
0.0000000000
10
3.9319105709
20
-24.5101707886
30
0.0000000000
10
3.9471337808
20
-24.4401586097
30
0.0000000000
10
3.9505404089
20
-24.3924447348
30
0.0000000000
10
3.9505404089
20
-24.3686295229
30
0.0000000000
11
3.4509210086
21
-24.8688583750
31
0.0000000000
11
3.5219980768
21
-24.8637745592
31
0.0000000000
11
3.5916868361
21
-24.8486074457
31
0.0000000000
11
3.6583704508
21
-24.8237258815
31
0.0000000000
11
3.7210024955
21
-24.7895097198
31
0.0000000000
11
3.7779612665
21
-24.7468503467
31
0.0000000000
11
3.8284534664
21
-24.6963317250
31
0.0000000000
11
3.8711165432
21
-24.6393081938
31
0.0000000000
11
3.9053527327
21
-24.5765736296
31
0.0000000000
11
3.9302610606
21
-24.5097480645
31
0.0000000000
11
3.9454484067
21
-24.4398934714
31
0.0000000000
11
3.9505404089
21
-24.3686295229
31
0.0000000000
0
SPLINE
5
489
100
AcDbEntity
8
0
100
AcDbSpline
62
7
6
CONTINUOUS
70
0
71
3
72
18
73
14
74
12
42
0.0000001000
43
0.0000001000
44
0.0000000001
12
0.0000000000
22
-0.7846442912
32
0.0000000000
13
-0.7846442912
23
0.0000000000
33
0.0000000000
40
0.0000000000
40
0.0000000000
40
0.0000000000
40
0.0000000000
40
0.0910548084
40
0.1821616967
40
0.2730522640
40
0.3641361742
40
0.4548992383
40
0.5459283074
40
0.6366224697
40
0.7275794712
40
0.8182886133
40
0.9091835013
40
1.0000000000
40
1.0000000000
40
1.0000000000
40
1.0000000000
10
4.1058904867
20
-24.8350587586
30
0.0000000000
10
4.1058904867
20
-24.8588739704
30
0.0000000000
10
4.1024838586
20
-24.9065878453
30
0.0000000000
10
4.0872606487
20
-24.9766000242
30
0.0000000000
10
4.0622313721
20
-25.0437564403
30
0.0000000000
10
4.0279438042
20
-25.1065866050
30
0.0000000000
10
3.9850447551
20
-25.1639275016
30
0.0000000000
10
3.9344919395
20
-25.2145080385
30
0.0000000000
10
3.8772147004
20
-25.2574065977
30
0.0000000000
10
3.8144870363
20
-25.2916759223
30
0.0000000000
10
3.7474672345
20
-25.3166818040
30
0.0000000000
10
3.6776200170
20
-25.3318857722
30
0.0000000000
10
3.6300239689
20
-25.3352876106
30
0.0000000000
10
3.6062710865
20
-25.3352876106
30
0.0000000000
11
4.1058904867
21
-24.8350587586
31
0.0000000000
11
4.1007984845
21
-24.9063227071
31
0.0000000000
11
4.0856111385
21
-24.9761773002
31
0.0000000000
11
4.0607028106
21
-25.0430028652
31
0.0000000000
11
4.0264666210
21
-25.1057374294
31
0.0000000000
11
3.9838035443
21
-25.1627609606
31
0.0000000000
11
3.9333113444
21
-25.2132795823
31
0.0000000000
11
3.8763525734
21
-25.2559389554
31
0.0000000000
11
3.8137205287
21
-25.2901551172
31
0.0000000000
11
3.7470369140
21
-25.3150366813
31
0.0000000000
11
3.6773481547
21
-25.3302037948
31
0.0000000000
11
3.6062710865
21
-25.3352876106
31
0.0000000000
0
SPLINE
5
48A
100
AcDbEntity
8
0
100
AcDbSpline
62
7
6
CONTINUOUS
70
0
71
3
72
18
73
14
74
12
42
0.0000001000
43
0.0000001000
44
0.0000000001
12
0.7846442912
22
0.0000000000
32
0.0000000000
13
0.0000000000
23
-0.7846442912
33
0.0000000000
40
0.0000000000
40
0.0000000000
40
0.0000000000
40
0.0000000000
40
0.0908164987
40
0.1817113867
40
0.2724205288
40
0.3633775303
40
0.4540716926
40
0.5451007617
40
0.6358638258
40
0.7269477360
40
0.8178383033
40
0.9089451916
40
1.0000000000
40
1.0000000000
40
1.0000000000
40
1.0000000000
10
3.6062710865
20
16.4647123894
30
0.0000000000
10
3.6300239689
20
16.4647123894
30
0.0000000000
10
3.6776200170
20
16.4613105509
30
0.0000000000
10
3.7474672345
20
16.4461065828
30
0.0000000000
10
3.8144870363
20
16.4211007011
30
0.0000000000
10
3.8772147004
20
16.3868313764
30
0.0000000000
10
3.9344919395
20
16.3439328173
30
0.0000000000
10
3.9850447551
20
16.2933522804
30
0.0000000000
10
4.0279438042
20
16.2360113838
30
0.0000000000
10
4.0622313721
20
16.1731812190
30
0.0000000000
10
4.0872606487
20
16.1060248029
30
0.0000000000
10
4.1024838586
20
16.0360126240
30
0.0000000000
10
4.1058904867
20
15.9882987492
30
0.0000000000
10
4.1058904867
20
15.9644835373
30
0.0000000000
11
3.6062710865
21
16.4647123894
31
0.0000000000
11
3.6773481547
21
16.4596285736
31
0.0000000000
11
3.7470369140
21
16.4444614601
31
0.0000000000
11
3.8137205287
21
16.4195798959
31
0.0000000000
11
3.8763525734
21
16.3853637341
31
0.0000000000
11
3.9333113444
21
16.3427043610
31
0.0000000000
11
3.9838035443
21
16.2921857394
31
0.0000000000
11
4.0264666210
21
16.2351622081
31
0.0000000000
11
4.0607028106
21
16.1724276439
31
0.0000000000
11
4.0856111385
21
16.1056020789
31
0.0000000000
11
4.1007984845
21
16.0357474858
31
0.0000000000
11
4.1058904867
21
15.9644835373
31
0.0000000000
0
SPLINE
5
48B
100
AcDbEntity
8
0
100
AcDbSpline
62
7
6
CONTINUOUS
70
0
71
3
72
18
73
14
74
12
42
0.0000001000
43
0.0000001000
44
0.0000000001
12
0.0000000000
22
0.7846442912
32
0.0000000000
13
-0.7846442912
23
0.0000000000
33
0.0000000000
40
0.0000000000
40
0.0000000000
40
0.0000000000
40
0.0000000000
40
0.0910548084
40
0.1821616967
40
0.2730522640
40
0.3641361742
40
0.4548992383
40
0.5459283074
40
0.6366224697
40
0.7275794712
40
0.8182886133
40
0.9091835013
40
1.0000000000
40
1.0000000000
40
1.0000000000
40
1.0000000000
10
4.0430522530
20
15.7758155319
30
0.0000000000
10
4.0430522530
20
15.7996307438
30
0.0000000000
10
4.0396456249
20
15.8473446186
30
0.0000000000
10
4.0244224150
20
15.9173567975
30
0.0000000000
10
3.9993931384
20
15.9845132136
30
0.0000000000
10
3.9651055704
20
16.0473433783
30
0.0000000000
10
3.9222065213
20
16.1046842750
30
0.0000000000
10
3.8716537058
20
16.1552648118
30
0.0000000000
10
3.8143764666
20
16.1981633710
30
0.0000000000
10
3.7516488026
20
16.2324326957
30
0.0000000000
10
3.6846290007
20
16.2574385774
30
0.0000000000
10
3.6147817832
20
16.2726425455
30
0.0000000000
10
3.5671857351
20
16.2760443840
30
0.0000000000
10
3.5434328527
20
16.2760443840
30
0.0000000000
11
4.0430522530
21
15.7758155319
31
0.0000000000
11
4.0379602508
21
15.8470794804
31
0.0000000000
11
4.0227729047
21
15.9169340735
31
0.0000000000
11
3.9978645769
21
15.9837596385
31
0.0000000000
11
3.9636283873
21
16.0464942027
31
0.0000000000
11
3.9209653106
21
16.1035177339
31
0.0000000000
11
3.8704731106
21
16.1540363556
31
0.0000000000
11
3.8135143396
21
16.1966957287
31
0.0000000000
11
3.7508822950
21
16.2309118905
31
0.0000000000
11
3.6841986802
21
16.2557934547
31
0.0000000000
11
3.6145099210
21
16.2709605682
31
0.0000000000
11
3.5434328527
21
16.2760443840
31
0.0000000000
0
SPLINE
5
48C
100
AcDbEntity
8
0
100
AcDbSpline
62
7
6
CONTINUOUS
70
0
71
3
72
18
73
14
74
12
42
0.0000001000
43
0.0000001000
44
0.0000000001
12
-0.5002718639
22
0.0000000000
32
0.0000000000
13
0.0000000000
23
0.5002718639
33
0.0000000000
40
0.0000000000
40
0.0000000000
40
0.0000000000
40
0.0000000000
40
0.0104691420
40
0.0409117320
40
0.0907483099
40
0.1592317187
40
0.2445764980
40
0.3455990248
40
0.4595763739
40
0.5849133839
40
0.7183602474
40
0.8578045429
40
1.0000000000
40
1.0000000000
40
1.0000000000
40
1.0000000000
10
-15.0649420328
20
10.2647123894
30
0.0000000000
10
-15.0666878385
20
10.2647123894
30
0.0000000000
10
-15.0653524553
20
10.2753555086
30
0.0000000000
10
-15.0684720790
20
10.2868023336
30
0.0000000000
10
-15.0683850117
20
10.3136238920
30
0.0000000000
10
-15.0699273558
20
10.3466952364
30
0.0000000000
10
-15.0707037646
20
10.3895108693
30
0.0000000000
10
-15.0716252765
20
10.4394753586
30
0.0000000000
10
-15.0723344114
20
10.4962609729
30
0.0000000000
10
-15.0729255783
20
10.5584077008
30
0.0000000000
10
-15.0733510400
20
10.6248172054
30
0.0000000000
10
-15.0736116698
20
10.6940345343
30
0.0000000000
10
-15.0736695653
20
10.7410002606
30
0.0000000000
10
-15.0736695653
20
10.7647123894
30
0.0000000000
11
-15.0649420328
21
10.2647123894
31
0.0000000000
11
-15.0661839404
21
10.2698004346
31
0.0000000000
11
-15.0674017742
21
10.2849812357
31
0.0000000000
11
-15.0685671768
21
10.3098858210
31
0.0000000000
11
-15.0696616617
21
10.3441286568
31
0.0000000000
11
-15.0706568484
21
10.3868126487
31
0.0000000000
11
-15.0715387942
21
10.4373436805
31
0.0000000000
11
-15.0722837244
21
10.4943584751
31
0.0000000000
11
-15.0728813006
21
10.5570582071
31
0.0000000000
11
-15.0733158871
21
10.6238165037
31
0.0000000000
11
-15.0735807845
21
10.6935760584
31
0.0000000000
11
-15.0736695653
21
10.7647123894
31
0.0000000000
0
SPLINE
5
48D
100
AcDbEntity
8
0
100
AcDbSpline
62
7
6
CONTINUOUS
70
0
71
3
72
9
73
5
74
3
42
0.0000001000
43
0.0000001000
44
0.0000000001
12
0.0039567437
22
-0.0039567437
32
0.0000000000
13
0.0002158296
23
-0.0055915167
33
0.0000000000
40
0.0000000000
40
0.0000000000
40
0.0000000000
40
0.0000000000
40
0.2717515543
40
1.0000000000
40
1.0000000000
40
1.0000000000
40
1.0000000000
10
-9.9004588664
20
19.3210617425
30
0.0000000000
10
-9.9001004493
20
19.3207033254
30
0.0000000000
10
-9.9004782159
20
19.3185237892
30
0.0000000000
10
-9.9000946385
20
19.3168431519
30
0.0000000000
10
-9.9000422460
20
19.3154858141
30
0.0000000000
11
-9.9004588664
21
19.3210617425
31
0.0000000000
11
-9.9002495422
21
19.3195555839
31
0.0000000000
11
-9.9000422460
21
19.3154858141
31
0.0000000000
0
SPLINE
5
48E
100
AcDbEntity
8
0
100
AcDbSpline
62
7
6
CONTINUOUS
70
0
71
3
72
9
73
5
74
3
42
0.0000001000
43
0.0000001000
44
0.0000000001
12
-0.0039567437
22
-0.0039567437
32
0.0000000000
13
-0.0002158296
23
-0.0055915167
33
0.0000000000
40
0.0000000000
40
0.0000000000
40
0.0000000000
40
0.0000000000
40
0.2717515543
40
1.0000000000
40
1.0000000000
40
1.0000000000
40
1.0000000000
10
-1.1877601601
20
19.3210617425
30
0.0000000000
10
-1.1881185772
20
19.3207033254
30
0.0000000000
10
-1.1877408106
20
19.3185237892
30
0.0000000000
10
-1.1881243880
20
19.3168431519
30
0.0000000000
10
-1.1881767805
20
19.3154858141
30
0.0000000000
11
-1.1877601601
21
19.3210617425
31
0.0000000000
11
-1.1879694843
21
19.3195555839
31
0.0000000000
11
-1.1881767805
21
19.3154858141
31
0.0000000000
0
SPLINE
5
48F
100
AcDbEntity
8
0
100
AcDbSpline
62
7
6
CONTINUOUS
70
0
71
3
72
9
73
5
74
3
42
0.0000001000
43
0.0000001000
44
0.0000000001
12
0.0002158296
22
-0.0055915167
32
0.0000000000
13
0.0039567437
23
-0.0039567437
33
0.0000000000
40
0.0000000000
40
0.0000000000
40
0.0000000000
40
0.0000000000
40
0.7282484456
40
1.0000000000
40
1.0000000000
40
1.0000000000
40
1.0000000000
10
-1.1881767805
20
-28.1860610353
30
0.0000000000
10
-1.1881243880
20
-28.1874183731
30
0.0000000000
10
-1.1877408106
20
-28.1890990104
30
0.0000000000
10
-1.1881185772
20
-28.1912785467
30
0.0000000000
10
-1.1877601601
20
-28.1916369638
30
0.0000000000
11
-1.1881767805
21
-28.1860610353
31
0.0000000000
11
-1.1879694843
21
-28.1901308051
31
0.0000000000
11
-1.1877601601
21
-28.1916369638
31
0.0000000000
0
SPLINE
5
490
100
AcDbEntity
8
0
100
AcDbSpline
62
7
6
CONTINUOUS
70
0
71
3
72
9
73
5
74
3
42
0.0000001000
43
0.0000001000
44
0.0000000001
12
-0.0002158296
22
-0.0055915167
32
0.0000000000
13
-0.0039567437
23
-0.0039567437
33
0.0000000000
40
0.0000000000
40
0.0000000000
40
0.0000000000
40
0.0000000000
40
0.7282484456
40
1.0000000000
40
1.0000000000
40
1.0000000000
40
1.0000000000
10
-9.9000422460
20
-28.1860610353
30
0.0000000000
10
-9.9000946385
20
-28.1874183731
30
0.0000000000
10
-9.9004782159
20
-28.1890990104
30
0.0000000000
10
-9.9001004493
20
-28.1912785467
30
0.0000000000
10
-9.9004588664
20
-28.1916369638
30
0.0000000000
11
-9.9000422460
21
-28.1860610353
31
0.0000000000
11
-9.9002495422
21
-28.1901308051
31
0.0000000000
11
-9.9004588664
21
-28.1916369638
31
0.0000000000
0
ENDSEC
0
SECTION
2
OBJECTS
0
DICTIONARY
5
491
100
AcDbDictionary
3
ACAD_GROUP
350
492
3
ACAD_MLINESTYLE
350
493
0
DICTIONARY
5
492
102
{ACAD_REACTORS
330
491
102
}
100
AcDbDictionary
0
DICTIONARY
5
493
102
{ACAD_REACTORS
330
491
102
}
100
AcDbDictionary
3
STANDARD
350
494
0
MLINESTYLE
5
494
102
{ACAD_REACTORS
330
493
102
}
100
AcDbMlineStyle
2
STANDARD
70
0
3

62
256
51
90.0
52
90.0
71
2
49
0.5
62
256
6
BYLAYER
49
-0.5
62
256
6
BYLAYER
0
ENDSEC
0
EOF
